  0
SECTION
  2
HEADER
  9
$ACADVER
  1
AC1015
  9
$DWGCODEPAGE
  3
ANSI_1252
  9
$EXTMAX
 10
297.0
 20
210.0
 30
0.0
  9
$EXTMIN
 10
0.0
 20
0.0
 30
0.0
  9
$LIMMIN
 10
0.0
 20
0.0
  9
$LIMMAX
 10
297.0
 20
210.0
  9
$VIEWCTR
 10
148.5
 20
105.0
  9
$VIEWSIZE
 40
210.0
  9
$CLAYER
  8
0
  9
$LTSCALE
 40
16.335
  9
$CELTYPE
  6
BYLAYER
  9
$DIMSCALE
 40
1.0
  9
$DIMASZ
 40
3.0
  9
$DIMEXO
 40
1.85625
  9
$DIMDLI
 40
11.286
  9
$DIMEXE
 40
5.346
  9
$DIMCEN
 40
2.673
  9
$DIMLFAC
 40
1.0
  9
$DIMBLK
  1
_FILLED
  9
$DIMTXT
 40
3.0
  9
$DIMTOL
 70
1
  9
$DIMLIM
 70
0
  9
$DIMTFAC
 40
1.0
  9
$DIMTP
 40
0.01
  9
$DIMTM
 40
0.01
  9
$PDMODE
 70
3
  9
$PDSIZE
 40
3.0
  9
$HANDSEED
  5
467
  9
$TILEMODE
 70
1
  9
$MEASUREMENT
 70
1
  9
$INSUNITS
 70
4
  0
ENDSEC
  0
SECTION
  2
CLASSES
  0
CLASS
  1
ACDBDICTIONARYWDFLT
  2
AcDbDictionaryWithDefault
  3
AutoCAD 2000
 90
0
280
0
281
0
  0
CLASS
  1
ACDBPLACEHOLDER
  2
AcDbPlaceHolder
  3
AutoCAD 2000
 90
0
280
0
281
0
  0
CLASS
  1
LAYOUT
  2
AcDbLayout
  3
AutoCAD 2000
 90
0
280
0
281
0
  0
ENDSEC
  0
SECTION
  2
TABLES
  0
TABLE
  2
VPORT
  5
8
100
AcDbSymbolTable
 70
2
  0
VPORT
  5
1F4
100
AcDbSymbolTableRecord
100
AcDbViewportTableRecord
  2
*ACTIVE
 70
0
 10
0.0
 20
0.0
 11
1.0
 21
1.0
 12
148.5
 22
105.0
 13
0.0
 23
0.0
 14
1.0
 24
1.0
 15
0.0
 25
0.0
 16
0.0
 26
0.0
 36
1.0
 17
0.0
 27
0.0
 37
0.0
 40
210.0
 41
1.4142857143
 42
50.0
 43
0.0
 44
0.0
 50
0.0
 51
0.0
 71
0
 72
100
 73
1
 74
1
 75
0
 76
0
 77
0
 78
0
  0
ENDTAB
  0
TABLE
  2
LTYPE
  5
5
100
AcDbSymbolTable
 70
6
  0
LTYPE
  5
14
100
AcDbSymbolTableRecord
100
AcDbLinetypeTableRecord
  2
BYBLOCK
 70
0
  3

 72
65
 73
0
 40
0.0
  0
LTYPE
  5
15
100
AcDbSymbolTableRecord
100
AcDbLinetypeTableRecord
  2
BYLAYER
 70
0
  3

 72
65
 73
0
 40
0.0
  0
LTYPE
  5
16
100
AcDbSymbolTableRecord
100
AcDbLinetypeTableRecord
  2
CONTINUOUS
 70
64
  3
Solid line
 72
65
 73
0
 40
0.0
  0
LTYPE
  5
1F5
100
AcDbSymbolTableRecord
100
AcDbLinetypeTableRecord
  2
CENTER
 70
64
  3
____ _ ____ _ ____ _ ____ _ ____ _ ____ _ ____
 72
65
 73
4
 40
0.6
 49
0.375
 74
0
 49
-0.075
 74
0
 49
0.075
 74
0
 49
-0.075
 74
0
  0
LTYPE
  5
1F6
100
AcDbSymbolTableRecord
100
AcDbLinetypeTableRecord
  2
HIDDEN
 70
64
  3
- - - - - - - - - - - - - - - - - - - -
 72
65
 73
2
 40
0.2
 49
0.1
 74
0
 49
-0.1
 74
0
  0
LTYPE
  5
1F7
100
AcDbSymbolTableRecord
100
AcDbLinetypeTableRecord
  2
PHANTOM
 70
64
  3
_____ _ _ _____ _ _ _____ _ _ _____
 72
65
 73
6
 40
0.8
 49
0.45
 74
0
 49
-0.05
 74
0
 49
0.1
 74
0
 49
-0.05
 74
0
 49
0.1
 74
0
 49
-0.05
 74
0
  0
LTYPE
  5
1F8
100
AcDbSymbolTableRecord
100
AcDbLinetypeTableRecord
  2
DOT
 70
64
  3
. . . . . . . . . . . . . . . . . . . .
 72
65
 73
2
 40
0.2
 49
0.1
 74
0
 49
-0.1
 74
0
  0
LTYPE
  5
1F9
100
AcDbSymbolTableRecord
100
AcDbLinetypeTableRecord
  2
DASHED
 70
64
  3
- - - - - - - - - - - - - - - - - - - -
 72
65
 73
2
 40
0.2
 49
0.1
 74
0
 49
-0.1
 74
0
  0
ENDTAB
  0
TABLE
  2
LAYER
  5
2
100
AcDbSymbolTable
 70
36
  0
LAYER
  5
10
100
AcDbSymbolTableRecord
100
AcDbLayerTableRecord
  2
0
 70
0
 62
7
  6
CONTINUOUS
370
-3
390
F
  0
LAYER
  5
1FA
100
AcDbSymbolTableRecord
100
AcDbLayerTableRecord
  2
DEFAULT_1
 70
0
 62
7
  6
CENTER
370
-3
390
F
  0
LAYER
  5
1FB
100
AcDbSymbolTableRecord
100
AcDbLayerTableRecord
  2
DEFAULT_2
 70
0
 62
7
  6
HIDDEN
370
-3
390
F
  0
LAYER
  5
1FC
100
AcDbSymbolTableRecord
100
AcDbLayerTableRecord
  2
DEFAULT_3
 70
0
 62
7
  6
PHANTOM
370
-3
390
F
  0
LAYER
  5
1FD
100
AcDbSymbolTableRecord
100
AcDbLayerTableRecord
  2
ASSI
 70
0
 62
7
  6
CONTINUOUS
370
-3
390
F
  0
LAYER
  5
1FE
100
AcDbSymbolTableRecord
100
AcDbLayerTableRecord
  2
COLOR9
 70
0
 62
7
  6
CONTINUOUS
370
-3
390
F
  0
LAYER
  5
1FF
100
AcDbSymbolTableRecord
100
AcDbLayerTableRecord
  2
COORDINATE
 70
0
 62
7
  6
CONTINUOUS
370
-3
390
F
  0
LAYER
  5
200
100
AcDbSymbolTableRecord
100
AcDbLayerTableRecord
  2
COORD_ORIGINE
 70
0
 62
7
  6
CONTINUOUS
370
-3
390
F
  0
LAYER
  5
201
100
AcDbSymbolTableRecord
100
AcDbLayerTableRecord
  2
COPY_PUBLISH
 70
0
 62
7
  6
CONTINUOUS
370
-3
390
F
  0
LAYER
  5
202
100
AcDbSymbolTableRecord
100
AcDbLayerTableRecord
  2
COSMETIC
 70
0
 62
7
  6
CONTINUOUS
370
-3
390
F
  0
LAYER
  5
203
100
AcDbSymbolTableRecord
100
AcDbLayerTableRecord
  2
CURVE
 70
0
 62
7
  6
CONTINUOUS
370
-3
390
F
  0
LAYER
  5
204
100
AcDbSymbolTableRecord
100
AcDbLayerTableRecord
  2
DRAFT
 70
0
 62
7
  6
CONTINUOUS
370
-3
390
F
  0
LAYER
  5
205
100
AcDbSymbolTableRecord
100
AcDbLayerTableRecord
  2
IGES
 70
0
 62
7
  6
CONTINUOUS
370
-3
390
F
  0
LAYER
  5
206
100
AcDbSymbolTableRecord
100
AcDbLayerTableRecord
  2
IGS_SCRITTE
 70
0
 62
7
  6
CONTINUOUS
370
-3
390
F
  0
LAYER
  5
207
100
AcDbSymbolTableRecord
100
AcDbLayerTableRecord
  2
IMPORT_IGES
 70
0
 62
7
  6
CONTINUOUS
370
-3
390
F
  0
LAYER
  5
208
100
AcDbSymbolTableRecord
100
AcDbLayerTableRecord
  2
INTF_YELLOW
 70
0
 62
7
  6
CONTINUOUS
370
-3
390
F
  0
LAYER
  5
209
100
AcDbSymbolTableRecord
100
AcDbLayerTableRecord
  2
PIANI
 70
0
 62
7
  6
CONTINUOUS
370
-3
390
F
  0
LAYER
  5
20A
100
AcDbSymbolTableRecord
100
AcDbLayerTableRecord
  2
PIANI_ORIGINE
 70
0
 62
7
  6
CONTINUOUS
370
-3
390
F
  0
LAYER
  5
20B
100
AcDbSymbolTableRecord
100
AcDbLayerTableRecord
  2
PIANI_RIFERIMENTO
 70
0
 62
7
  6
CONTINUOUS
370
-3
390
F
  0
LAYER
  5
20C
100
AcDbSymbolTableRecord
100
AcDbLayerTableRecord
  2
RACCORDO
 70
0
 62
7
  6
CONTINUOUS
370
-3
390
F
  0
LAYER
  5
20D
100
AcDbSymbolTableRecord
100
AcDbLayerTableRecord
  2
SMUSSO
 70
0
 62
7
  6
CONTINUOUS
370
-3
390
F
  0
LAYER
  5
20E
100
AcDbSymbolTableRecord
100
AcDbLayerTableRecord
  2
SNAPLINE
 70
0
 62
7
  6
CONTINUOUS
370
-3
390
F
  0
LAYER
  5
20F
100
AcDbSymbolTableRecord
100
AcDbLayerTableRecord
  2
SOLIDO
 70
0
 62
7
  6
CONTINUOUS
370
-3
390
F
  0
LAYER
  5
210
100
AcDbSymbolTableRecord
100
AcDbLayerTableRecord
  2
SUPERFICI
 70
0
 62
7
  6
CONTINUOUS
370
-3
390
F
  0
LAYER
  5
211
100
AcDbSymbolTableRecord
100
AcDbLayerTableRecord
  2
TRASH
 70
0
 62
7
  6
CONTINUOUS
370
-3
390
F
  0
LAYER
  5
212
100
AcDbSymbolTableRecord
100
AcDbLayerTableRecord
  2
WHITE
 70
0
 62
7
  6
CONTINUOUS
370
-3
390
F
  0
LAYER
  5
213
100
AcDbSymbolTableRecord
100
AcDbLayerTableRecord
  2
XSEC_DATUMS
 70
0
 62
7
  6
CONTINUOUS
370
-3
390
F
  0
ENDTAB
  0
TABLE
  2
STYLE
  5
3
100
AcDbSymbolTable
 70
1
  0
STYLE
  5
11
100
AcDbSymbolTableRecord
100
AcDbTextStyleTableRecord
  2
STANDARD
 70
0
 40
0.0
 41
0.8
 50
0.0
 71
0
 42
0.2
  3
txt
  4

  0
STYLE
  5
214
100
AcDbSymbolTableRecord
100
AcDbTextStyleTableRecord
  2
TEXTSTYLE_1
 70
0
 40
0.0
 41
0.8
 50
0.0
 71
0
 42
0.2
  3
gdt
  4

  0
ENDTAB
  0
TABLE
  2
VIEW
  5
6
100
AcDbSymbolTable
 70
0
  0
ENDTAB
  0
TABLE
  2
UCS
  5
7
100
AcDbSymbolTable
 70
0
  0
ENDTAB
  0
TABLE
  2
APPID
  5
9
100
AcDbSymbolTable
 70
1
  0
APPID
  5
215
100
AcDbSymbolTableRecord
100
AcDbRegAppTableRecord
  2
ACAD
 70
0
  0
ENDTAB
  0
TABLE
  2
BLOCK_RECORD
  5
1
100
AcDbSymbolTable
 70
0
  0
BLOCK_RECORD
  5
216
100
AcDbSymbolTableRecord
100
AcDbBlockTableRecord
  2
*Model_Space
  0
BLOCK_RECORD
  5
217
100
AcDbSymbolTableRecord
100
AcDbBlockTableRecord
  2
*Paper_Space
  0
ENDTAB
  0
TABLE
  2
DIMSTYLE
  5
A
100
AcDbSymbolTable
 70
1
100
AcDbDimStyleTable
 71
0
  0
DIMSTYLE
105
218
100
AcDbSymbolTableRecord
100
AcDbDimStyleTableRecord
  2
STANDARD
 70
0
  3

  4

 40
1.0
 41
3.0
 42
0.0625
 43
0.38
 44
0.18
 45
0.0
 46
0.0
 47
0.01
 48
0.01
140
3.0
141
0.09
142
0.0
143
25.4
144
1.0
145
0.0
146
1.0
147
0.09
 71
1.0
 72
0.0
 73
0
 74
0
 75
0
 76
0
 77
1
 78
8
170
0
171
2
172
0
173
0
174
0
175
0
176
0
177
0
178
0
270
2
271
2
272
2
273
2
274
2
275
0
280
0
281
0
282
0
283
1
284
8
285
0
286
0
287
3
288
0
340
11
  0
ENDTAB
  0
ENDSEC
  0
SECTION
  2
BLOCKS
  0
BLOCK
  5
20
100
AcDbEntity
  8
0
100
AcDbBlockBegin
  2
*Model_Space
 70
0
 10
0.0
 20
0.0
 30
0.0
  3
*Model_Space
  1

  0
ENDBLK
  5
21
100
AcDbEntity
  8
0
100
AcDbBlockEnd
  0
BLOCK
  5
1C
100
AcDbEntity
  8
0
100
AcDbBlockBegin
  2
*Paper_Space
 70
0
 10
0.0
 20
0.0
 30
0.0
  3
*Paper_Space
  1

  0
ENDBLK
  5
1D
100
AcDbEntity
  8
0
100
AcDbBlockEnd
  0
ENDSEC
  0
SECTION
  2
ENTITIES
  0
LINE
  5
219
100
AcDbEntity
  8
RACCORDO
100
AcDbLine
 62
7
  6
CONTINUOUS
 10
-7.7112116941
 20
9.6726294979
 11
-7.6954437633
 21
9.6883974287
  0
LINE
  5
21A
100
AcDbEntity
  8
0
100
AcDbLine
 62
7
  6
CONTINUOUS
 10
-11.2639913243
 20
-10.6648395547
 11
-11.2902986337
 21
-2.0540922469
  0
LINE
  5
21B
100
AcDbEntity
  8
RACCORDO
100
AcDbLine
 62
7
  6
CONTINUOUS
 10
-11.2902986337
 20
10.6959743743
 11
-11.2902986337
 21
-2.0540922469
  0
LINE
  5
21C
100
AcDbEntity
  8
RACCORDO
100
AcDbLine
 62
7
  6
CONTINUOUS
 10
3.2537476654
 20
-11.1623301875
 11
3.6019663394
 21
-11.1307213559
  0
LINE
  5
21D
100
AcDbEntity
  8
0
100
AcDbLine
 62
7
  6
CONTINUOUS
 10
-10.7630804389
 20
-11.1623301875
 11
-7.9462523346
 21
-11.1623301875
  0
LINE
  5
21E
100
AcDbEntity
  8
DRAFT
100
AcDbLine
 62
7
  6
CONTINUOUS
 10
-3.5343449328
 20
-11.1623301875
 11
3.2537476654
 21
-11.1623301875
  0
LINE
  5
21F
100
AcDbEntity
  8
0
100
AcDbLine
 62
7
  6
CONTINUOUS
 10
7.6656550672
 20
-11.1623301875
 11
10.4824831716
 21
-11.1623301875
  0
LINE
  5
220
100
AcDbEntity
  8
RACCORDO
100
AcDbLine
 62
7
  6
CONTINUOUS
 10
7.1442313125
 20
-11.125480578
 11
3.7751714202
 21
-11.125480578
  0
LINE
  5
221
100
AcDbEntity
  8
RACCORDO
100
AcDbLine
 62
7
  6
CONTINUOUS
 10
-4.0557686875
 20
-11.125480578
 11
-7.4248285798
 21
-11.125480578
  0
LINE
  5
222
100
AcDbEntity
  8
RACCORDO
100
AcDbLine
 62
7
  6
CONTINUOUS
 10
-3.5343449328
 20
-11.1623301875
 11
-3.8825636068
 21
-11.1307213559
  0
LINE
  5
223
100
AcDbEntity
  8
RACCORDO
100
AcDbLine
 62
7
  6
CONTINUOUS
 10
-10.0402986337
 20
-2.0540922469
 11
-10.0290441254
 21
-9.4238510153
  0
LINE
  5
224
100
AcDbEntity
  8
RACCORDO
100
AcDbLine
 62
7
  6
CONTINUOUS
 10
-10.0402986337
 20
9.545938214
 11
-10.0402986337
 21
-2.0540922469
  0
LINE
  5
225
100
AcDbEntity
  8
DRAFT
100
AcDbLine
 62
7
  6
CONTINUOUS
 10
-10.0234217346
 20
0.7459077531
 11
-10.0234217346
 21
-3.0540922469
  0
LINE
  5
226
100
AcDbEntity
  8
RACCORDO
100
AcDbLine
 62
253
  6
CONTINUOUS
 10
-9.7869724532
 20
-9.1557399421
 11
-9.7869724532
 21
-9.3262002511
  0
LINE
  5
227
100
AcDbEntity
  8
0
100
AcDbLine
 62
7
  6
CONTINUOUS
 10
-9.6402986337
 20
0.7459077531
 11
-9.6402986337
 21
-3.0540922469
  0
LINE
  5
228
100
AcDbEntity
  8
RACCORDO
100
AcDbLine
 62
253
  6
CONTINUOUS
 10
-9.7720180131
 20
1.5744091558
 11
-9.7723598
 21
0.7459077531
  0
LINE
  5
229
100
AcDbEntity
  8
RACCORDO
100
AcDbLine
 62
7
  6
CONTINUOUS
 10
3.1759828895
 20
-9.6227873777
 11
3.6019663394
 21
-9.5321938617
  0
LINE
  5
22A
100
AcDbEntity
  8
RACCORDO
100
AcDbLine
 62
7
  6
CONTINUOUS
 10
-7.9462523346
 20
-11.1623301875
 11
-7.5980336606
 21
-11.1307213559
  0
LINE
  5
22B
100
AcDbEntity
  8
RACCORDO
100
AcDbLine
 62
7
  6
CONTINUOUS
 10
-9.8291353075
 20
-9.6227873777
 11
-8.0240171105
 21
-9.6227873777
  0
LINE
  5
22C
100
AcDbEntity
  8
DRAFT
100
AcDbLine
 62
7
  6
CONTINUOUS
 10
-3.4565801569
 20
-9.6227873777
 11
3.1759828895
 21
-9.6227873777
  0
LINE
  5
22D
100
AcDbEntity
  8
RACCORDO
100
AcDbLine
 62
7
  6
CONTINUOUS
 10
7.7434198431
 20
-9.6227873777
 11
9.5485380402
 21
-9.6227873777
  0
LINE
  5
22E
100
AcDbEntity
  8
RACCORDO
100
AcDbLine
 62
7
  6
CONTINUOUS
 10
7.1442313125
 20
-9.5199154056
 11
5.8387489046
 21
-9.5199154056
  0
LINE
  5
22F
100
AcDbEntity
  8
RACCORDO
100
AcDbLine
 62
7
  6
CONTINUOUS
 10
5.080653828
 20
-9.5199154056
 11
3.7751714202
 21
-9.5199154056
  0
LINE
  5
230
100
AcDbEntity
  8
RACCORDO
100
AcDbLine
 62
7
  6
CONTINUOUS
 10
-4.0557686875
 20
-9.5199154056
 11
-5.3612510954
 21
-9.5199154056
  0
LINE
  5
231
100
AcDbEntity
  8
RACCORDO
100
AcDbLine
 62
7
  6
CONTINUOUS
 10
-6.119346172
 20
-9.5199154056
 11
-7.4248285798
 21
-9.5199154056
  0
LINE
  5
232
100
AcDbEntity
  8
RACCORDO
100
AcDbLine
 62
7
  6
CONTINUOUS
 10
7.6656550672
 20
-11.1623301875
 11
7.3174363932
 21
-11.1307213559
  0
LINE
  5
233
100
AcDbEntity
  8
RACCORDO
100
AcDbLine
 62
7
  6
CONTINUOUS
 10
-3.4565801569
 20
-9.6227873777
 11
-3.8825636068
 21
-9.5321938617
  0
LINE
  5
234
100
AcDbEntity
  8
DRAFT
100
AcDbLine
 62
7
  6
CONTINUOUS
 10
-7.9462523346
 20
-11.1623301875
 11
-8.0240171105
 21
-9.6227873777
  0
LINE
  5
235
100
AcDbEntity
  8
DRAFT
100
AcDbLine
 62
7
  6
CONTINUOUS
 10
-8.6527646243
 20
10.9459077531
 11
-8.6527646243
 21
9.7459077531
  0
LINE
  5
236
100
AcDbEntity
  8
DRAFT
100
AcDbLine
 62
7
  6
CONTINUOUS
 10
-8.3902986337
 20
10.9197271497
 11
-8.3902986337
 21
9.6935425583
  0
LINE
  5
237
100
AcDbEntity
  8
RACCORDO
100
AcDbLine
 62
253
  6
CONTINUOUS
 10
-9.9869419923
 20
-9.1276910207
 11
-10.0290441254
 21
-9.4238510153
  0
LINE
  5
238
100
AcDbEntity
  8
RACCORDO
100
AcDbLine
 62
253
  6
CONTINUOUS
 10
-9.7869724532
 20
-9.3262002511
 11
-9.8291353075
 21
-9.6227873777
  0
LINE
  5
239
100
AcDbEntity
  8
RACCORDO
100
AcDbLine
 62
253
  6
CONTINUOUS
 10
-7.6831642913
 20
5.152996404
 11
-7.7106310337
 21
5.1255296616
  0
LINE
  5
23A
100
AcDbEntity
  8
RACCORDO
100
AcDbLine
 62
253
  6
CONTINUOUS
 10
-7.3832100099
 20
4.8530420683
 11
-7.4106129776
 21
4.8256391006
  0
LINE
  5
23B
100
AcDbEntity
  8
RACCORDO
100
AcDbLine
 62
253
  6
CONTINUOUS
 10
9.5063751859
 20
-9.3262002511
 11
5.8938428204
 21
-9.3262002511
  0
LINE
  5
23C
100
AcDbEntity
  8
RACCORDO
100
AcDbLine
 62
253
  6
CONTINUOUS
 10
5.0255599122
 20
-9.3262002511
 11
-5.3061571796
 21
-9.3262002511
  0
LINE
  5
23D
100
AcDbEntity
  8
RACCORDO
100
AcDbLine
 62
253
  6
CONTINUOUS
 10
-6.1744400878
 20
-9.3262002511
 11
-9.7869724532
 21
-9.3262002511
  0
LINE
  5
23E
100
AcDbEntity
  8
RACCORDO
100
AcDbLine
 62
7
  6
CONTINUOUS
 10
5.5965087599
 20
-9.3130498595
 11
5.3228939728
 21
-9.3130498595
  0
LINE
  5
23F
100
AcDbEntity
  8
RACCORDO
100
AcDbLine
 62
7
  6
CONTINUOUS
 10
-5.6034912401
 20
-9.3130498595
 11
-5.8771060272
 21
-9.3130498595
  0
LINE
  5
240
100
AcDbEntity
  8
RACCORDO
100
AcDbLine
 62
253
  6
CONTINUOUS
 10
9.5063751479
 20
-9.1557399421
 11
5.8999067949
 21
-9.1557399421
  0
LINE
  5
241
100
AcDbEntity
  8
RACCORDO
100
AcDbLine
 62
253
  6
CONTINUOUS
 10
5.0194959378
 20
-9.1557399421
 11
-5.3000932051
 21
-9.1557399421
  0
LINE
  5
242
100
AcDbEntity
  8
RACCORDO
100
AcDbLine
 62
253
  6
CONTINUOUS
 10
-6.1805040622
 20
-9.1557399421
 11
-9.7869724153
 21
-9.1557399421
  0
LINE
  5
243
100
AcDbEntity
  8
RACCORDO
100
AcDbLine
 62
7
  6
CONTINUOUS
 10
-6.119346172
 20
-9.5199154056
 11
-6.1744400878
 21
-9.3262002511
  0
LINE
  5
244
100
AcDbEntity
  8
RACCORDO
100
AcDbLine
 62
253
  6
CONTINUOUS
 10
-7.6913537872
 20
7.4873291093
 11
-7.6807566989
 21
6.8802223281
  0
LINE
  5
245
100
AcDbEntity
  8
RACCORDO
100
AcDbLine
 62
253
  6
CONTINUOUS
 10
-7.6954437633
 20
9.6883974287
 11
-7.6954437633
 21
8.0530145343
  0
LINE
  5
246
100
AcDbEntity
  8
RACCORDO
100
AcDbLine
 62
253
  6
CONTINUOUS
 10
-7.6797342049
 20
6.7388009719
 11
-7.6797342049
 21
5.3529659431
  0
LINE
  5
247
100
AcDbEntity
  8
RACCORDO
100
AcDbLine
 62
253
  6
CONTINUOUS
 10
-7.5980336606
 20
-11.1307213559
 11
-7.5980336606
 21
-9.5321938617
  0
LINE
  5
248
100
AcDbEntity
  8
RACCORDO
100
AcDbLine
 62
253
  6
CONTINUOUS
 10
-7.4248285798
 20
-11.125480578
 11
-7.4248285798
 21
-9.5199154056
  0
LINE
  5
249
100
AcDbEntity
  8
RACCORDO
100
AcDbLine
 62
253
  6
CONTINUOUS
 10
-7.3954894547
 20
9.6935425583
 11
-7.3954894547
 21
8.0530159922
  0
LINE
  5
24A
100
AcDbEntity
  8
RACCORDO
100
AcDbLine
 62
253
  6
CONTINUOUS
 10
-7.3797798963
 20
6.7387994425
 11
-7.3797798963
 21
5.3529675877
  0
LINE
  5
24B
100
AcDbEntity
  8
0
100
AcDbLine
 62
7
  6
CONTINUOUS
 10
0.2847013663
 20
-7.7732411793
 11
0.4263678979
 21
-7.7370709709
  0
LINE
  5
24C
100
AcDbEntity
  8
RACCORDO
100
AcDbLine
 62
7
  6
CONTINUOUS
 10
-8.0240171105
 20
-9.6227873777
 11
-7.5980336606
 21
-9.5321938617
  0
LINE
  5
24D
100
AcDbEntity
  8
0
100
AcDbLine
 62
7
  6
CONTINUOUS
 10
0.3201178979
 20
-7.9540922469
 11
0.4972013663
 21
-7.9179220353
  0
LINE
  5
24E
100
AcDbEntity
  8
0
100
AcDbLine
 62
7
  6
CONTINUOUS
 10
-1.3444653679
 20
-7.7732411793
 11
-1.1673818995
 21
-7.7370709709
  0
LINE
  5
24F
100
AcDbEntity
  8
0
100
AcDbLine
 62
7
  6
CONTINUOUS
 10
-1.3444653679
 20
-7.9540922469
 11
-1.1319653679
 21
-7.9179220353
  0
LINE
  5
250
100
AcDbEntity
  8
0
100
AcDbLine
 62
7
  6
CONTINUOUS
 10
-3.5402986337
 20
-7.9540922469
 11
-2.2652986337
 21
-7.9540922469
  0
LINE
  5
251
100
AcDbEntity
  8
0
100
AcDbLine
 62
7
  6
CONTINUOUS
 10
0.1076178979
 20
-7.9540922469
 11
0.3201178979
 21
-7.9540922469
  0
LINE
  5
252
100
AcDbEntity
  8
0
100
AcDbLine
 62
7
  6
CONTINUOUS
 10
1.9847013663
 20
-7.9540922469
 11
2.1972013663
 21
-7.9540922469
  0
LINE
  5
253
100
AcDbEntity
  8
0
100
AcDbLine
 62
7
  6
CONTINUOUS
 10
3.0472013663
 20
-7.9540922469
 11
3.2597013663
 21
-7.9540922469
  0
LINE
  5
254
100
AcDbEntity
  8
0
100
AcDbLine
 62
7
  6
CONTINUOUS
 10
-3.2569652919
 20
-7.7732411793
 11
-2.2652986337
 21
-7.7732411793
  0
LINE
  5
255
100
AcDbEntity
  8
0
100
AcDbLine
 62
7
  6
CONTINUOUS
 10
0.1430348348
 20
-7.7732411793
 11
0.2847013663
 21
-7.7732411793
  0
LINE
  5
256
100
AcDbEntity
  8
0
100
AcDbLine
 62
7
  6
CONTINUOUS
 10
1.1347013663
 20
-7.4477092779
 11
1.9847013663
 21
-7.4477092779
  0
LINE
  5
257
100
AcDbEntity
  8
0
100
AcDbLine
 62
7
  6
CONTINUOUS
 10
2.1972013663
 20
-7.4477092779
 11
2.5513678979
 21
-7.4477092779
  0
LINE
  5
258
100
AcDbEntity
  8
0
100
AcDbLine
 62
7
  6
CONTINUOUS
 10
-1.3444653679
 20
-7.9540922469
 11
-1.5569653679
 21
-7.9179220353
  0
LINE
  5
259
100
AcDbEntity
  8
0
100
AcDbLine
 62
7
  6
CONTINUOUS
 10
-1.3444653679
 20
-7.7732411793
 11
-1.5215486337
 21
-7.7370709709
  0
LINE
  5
25A
100
AcDbEntity
  8
0
100
AcDbLine
 62
7
  6
CONTINUOUS
 10
0.1076178979
 20
-7.9540922469
 11
-0.0694651652
 21
-7.9179220353
  0
LINE
  5
25B
100
AcDbEntity
  8
RACCORDO
100
AcDbLine
 62
7
  6
CONTINUOUS
 10
7.7434198431
 20
-9.6227873777
 11
7.3174363932
 21
-9.5321938617
  0
LINE
  5
25C
100
AcDbEntity
  8
0
100
AcDbLine
 62
7
  6
CONTINUOUS
 10
0.1430348348
 20
-7.7732411793
 11
0.0013678979
 21
-7.7370709709
  0
LINE
  5
25D
100
AcDbEntity
  8
0
100
AcDbLine
 62
7
  6
CONTINUOUS
 10
-1.5569653679
 20
-7.9179220353
 11
-1.7340486337
 21
-7.8094114005
  0
LINE
  5
25E
100
AcDbEntity
  8
RACCORDO
100
AcDbLine
 62
253
  6
CONTINUOUS
 10
-6.1983895165
 20
-4.7458490709
 11
-6.1504092493
 21
-4.793829338
  0
LINE
  5
25F
100
AcDbEntity
  8
RACCORDO
100
AcDbLine
 62
253
  6
CONTINUOUS
 10
-5.9493238525
 20
-4.4952193213
 11
-5.9005616015
 21
-4.5439815724
  0
LINE
  5
260
100
AcDbEntity
  8
RACCORDO
100
AcDbLine
 62
253
  6
CONTINUOUS
 10
-7.3913994603
 20
7.6994600916
 11
-7.3808024082
 21
7.0923553853
  0
LINE
  5
261
100
AcDbEntity
  8
RACCORDO
100
AcDbLine
 62
253
  6
CONTINUOUS
 10
-7.2008173711
 20
5.3529675877
 11
-7.2008173711
 21
6.7387994425
  0
LINE
  5
262
100
AcDbEntity
  8
RACCORDO
100
AcDbLine
 62
253
  6
CONTINUOUS
 10
-7.1851078126
 20
8.0530159937
 11
-7.1851078126
 21
9.6935425583
  0
LINE
  5
263
100
AcDbEntity
  8
RACCORDO
100
AcDbLine
 62
253
  6
CONTINUOUS
 10
-6.9008630625
 20
5.3529659431
 11
-6.9008630625
 21
6.7388009719
  0
LINE
  5
264
100
AcDbEntity
  8
RACCORDO
100
AcDbLine
 62
253
  6
CONTINUOUS
 10
-6.8851535041
 20
8.0530145343
 11
-6.8851535041
 21
9.6883974287
  0
LINE
  5
265
100
AcDbEntity
  8
RACCORDO
100
AcDbLine
 62
253
  6
CONTINUOUS
 10
-7.1997948592
 20
7.0923553853
 11
-7.1891978071
 21
7.6994600925
  0
LINE
  5
266
100
AcDbEntity
  8
RACCORDO
100
AcDbLine
 62
253
  6
CONTINUOUS
 10
-6.8998405685
 20
6.8802223281
 11
-6.8892434802
 21
7.4873291093
  0
LINE
  5
267
100
AcDbEntity
  8
0
100
AcDbLine
 62
7
  6
CONTINUOUS
 10
0.0013678979
 20
-7.1945177681
 11
0.1430348348
 21
-7.1583475596
  0
LINE
  5
268
100
AcDbEntity
  8
0
100
AcDbLine
 62
7
  6
CONTINUOUS
 10
0.2847013663
 20
-7.0136667258
 11
0.4263678979
 21
-6.9774965173
  0
LINE
  5
269
100
AcDbEntity
  8
0
100
AcDbLine
 62
7
  6
CONTINUOUS
 10
0.0013678979
 20
-6.4711134977
 11
0.1430348348
 21
-6.4349432892
  0
LINE
  5
26A
100
AcDbEntity
  8
0
100
AcDbLine
 62
7
  6
CONTINUOUS
 10
1.3826178979
 20
-7.2306879765
 11
1.9847013663
 21
-7.2306879765
  0
LINE
  5
26B
100
AcDbEntity
  8
0
100
AcDbLine
 62
7
  6
CONTINUOUS
 10
2.1972013663
 20
-7.2306879765
 11
2.5513678979
 21
-7.2306879765
  0
LINE
  5
26C
100
AcDbEntity
  8
0
100
AcDbLine
 62
7
  6
CONTINUOUS
 10
0.1430348348
 20
-7.1583475596
 11
0.2847013663
 21
-7.1583475596
  0
LINE
  5
26D
100
AcDbEntity
  8
RACCORDO
100
AcDbLine
 62
253
  6
CONTINUOUS
 10
5.5590774778
 20
-7.014370744
 11
5.3603252549
 21
-7.014370744
  0
LINE
  5
26E
100
AcDbEntity
  8
RACCORDO
100
AcDbLine
 62
253
  6
CONTINUOUS
 10
-5.6409225222
 20
-7.014370744
 11
-5.8396747451
 21
-7.014370744
  0
LINE
  5
26F
100
AcDbEntity
  8
0
100
AcDbLine
 62
7
  6
CONTINUOUS
 10
0.1430348348
 20
-7.0136667258
 11
0.2847013663
 21
-7.0136667258
  0
LINE
  5
270
100
AcDbEntity
  8
RACCORDO
100
AcDbLine
 62
253
  6
CONTINUOUS
 10
5.8087615712
 20
-6.8875838481
 11
5.1106411614
 21
-6.8875838481
  0
LINE
  5
271
100
AcDbEntity
  8
RACCORDO
100
AcDbLine
 62
253
  6
CONTINUOUS
 10
-5.3912384288
 20
-6.8875838481
 11
-6.0893588386
 21
-6.8875838481
  0
LINE
  5
272
100
AcDbEntity
  8
0
100
AcDbLine
 62
7
  6
CONTINUOUS
 10
-3.504881966
 20
-6.6519645399
 11
-3.3277986337
 21
-6.6519645399
  0
LINE
  5
273
100
AcDbEntity
  8
RACCORDO
100
AcDbLine
 62
253
  6
CONTINUOUS
 10
5.1106411614
 20
-6.6055780035
 11
5.8087615712
 21
-6.6055780035
  0
LINE
  5
274
100
AcDbEntity
  8
RACCORDO
100
AcDbLine
 62
253
  6
CONTINUOUS
 10
-5.3912384288
 20
-6.6055780035
 11
-6.0893588386
 21
-6.6055780035
  0
LINE
  5
275
100
AcDbEntity
  8
0
100
AcDbLine
 62
7
  6
CONTINUOUS
 10
-2.9736319501
 20
-6.4349432892
 11
-2.8319653172
 21
-6.4349432892
  0
LINE
  5
276
100
AcDbEntity
  8
0
100
AcDbLine
 62
7
  6
CONTINUOUS
 10
0.1430348348
 20
-6.4349432892
 11
0.2847013663
 21
-6.4349432892
  0
LINE
  5
277
100
AcDbEntity
  8
RACCORDO
100
AcDbLine
 62
253
  6
CONTINUOUS
 10
5.5603567701
 20
-6.310135357
 11
5.3590459626
 21
-6.310135357
  0
LINE
  5
278
100
AcDbEntity
  8
RACCORDO
100
AcDbLine
 62
253
  6
CONTINUOUS
 10
-5.6396432299
 20
-6.310135357
 11
-5.8409540374
 21
-6.310135357
  0
LINE
  5
279
100
AcDbEntity
  8
0
100
AcDbLine
 62
7
  6
CONTINUOUS
 10
-2.9382153172
 20
-6.2540922469
 11
-2.7965486337
 21
-6.2540922469
  0
LINE
  5
27A
100
AcDbEntity
  8
0
100
AcDbLine
 62
7
  6
CONTINUOUS
 10
0.1430348348
 20
-6.2540922469
 11
0.2847013663
 21
-6.2540922469
  0
LINE
  5
27B
100
AcDbEntity
  8
0
100
AcDbLine
 62
7
  6
CONTINUOUS
 10
1.9847013663
 20
-6.2540922469
 11
2.1972013663
 21
-6.2540922469
  0
LINE
  5
27C
100
AcDbEntity
  8
0
100
AcDbLine
 62
7
  6
CONTINUOUS
 10
3.0472013663
 20
-6.2540922469
 11
3.2597013663
 21
-6.2540922469
  0
LINE
  5
27D
100
AcDbEntity
  8
0
100
AcDbLine
 62
7
  6
CONTINUOUS
 10
-2.5840486337
 20
-6.2902624554
 11
-2.7965486337
 21
-6.2540922469
  0
LINE
  5
27E
100
AcDbEntity
  8
0
100
AcDbLine
 62
7
  6
CONTINUOUS
 10
-1.1319653679
 20
-6.2902624554
 11
-1.3444653679
 21
-6.2540922469
  0
LINE
  5
27F
100
AcDbEntity
  8
0
100
AcDbLine
 62
7
  6
CONTINUOUS
 10
-2.6548820008
 20
-6.4711134977
 11
-2.8319653172
 21
-6.4349432892
  0
LINE
  5
280
100
AcDbEntity
  8
0
100
AcDbLine
 62
7
  6
CONTINUOUS
 10
-1.1673818995
 20
-6.4711134977
 11
-1.3444653679
 21
-6.4349432892
  0
LINE
  5
281
100
AcDbEntity
  8
0
100
AcDbLine
 62
7
  6
CONTINUOUS
 10
0.4263678979
 20
-7.1945177681
 11
0.2847013663
 21
-7.1583475596
  0
LINE
  5
282
100
AcDbEntity
  8
0
100
AcDbLine
 62
7
  6
CONTINUOUS
 10
0.1430348348
 20
-7.0136667258
 11
0.0013678979
 21
-6.9774965173
  0
LINE
  5
283
100
AcDbEntity
  8
0
100
AcDbLine
 62
7
  6
CONTINUOUS
 10
0.0013678979
 20
-7.7370709709
 11
-0.1402986337
 21
-7.664730554
  0
LINE
  5
284
100
AcDbEntity
  8
0
100
AcDbLine
 62
7
  6
CONTINUOUS
 10
-2.4423820008
 20
-6.3626028723
 11
-2.5840486337
 21
-6.2902624554
  0
LINE
  5
285
100
AcDbEntity
  8
0
100
AcDbLine
 62
7
  6
CONTINUOUS
 10
-0.1402986337
 20
-7.0860071427
 11
-0.2111318995
 21
-7.0498369343
  0
LINE
  5
286
100
AcDbEntity
  8
0
100
AcDbLine
 62
7
  6
CONTINUOUS
 10
-0.0694651652
 20
-7.9179220353
 11
-0.2465486337
 21
-7.8094114005
  0
LINE
  5
287
100
AcDbEntity
  8
0
100
AcDbLine
 62
7
  6
CONTINUOUS
 10
-1.5215486337
 20
-7.7370709709
 11
-1.6277986337
 21
-7.664730554
  0
LINE
  5
288
100
AcDbEntity
  8
0
100
AcDbLine
 62
7
  6
CONTINUOUS
 10
-2.5486320008
 20
-6.5434539146
 11
-2.6548820008
 21
-6.4711134977
  0
LINE
  5
289
100
AcDbEntity
  8
0
100
AcDbLine
 62
7
  6
CONTINUOUS
 10
-1.7340486337
 20
-7.8094114005
 11
-1.8402986337
 21
-7.7009007624
  0
LINE
  5
28A
100
AcDbEntity
  8
RACCORDO
100
AcDbLine
 62
253
  6
CONTINUOUS
 10
-6.0908016807
 20
-6.5563376158
 11
-6.1487241467
 21
-6.2638671547
  0
LINE
  5
28B
100
AcDbEntity
  8
RACCORDO
100
AcDbLine
 62
253
  6
CONTINUOUS
 10
-5.8409540374
 20
-6.310135357
 11
-5.8916622296
 21
-6.0540922469
  0
LINE
  5
28C
100
AcDbEntity
  8
RACCORDO
100
AcDbLine
 62
253
  6
CONTINUOUS
 10
-5.6409225222
 20
-7.014370744
 11
-5.6034912401
 21
-9.3130498595
  0
LINE
  5
28D
100
AcDbEntity
  8
RACCORDO
100
AcDbLine
 62
253
  6
CONTINUOUS
 10
-5.3910748386
 20
-6.9087147612
 11
-5.3612510954
 21
-8.7402100168
  0
LINE
  5
28E
100
AcDbEntity
  8
RACCORDO
100
AcDbLine
 62
253
  6
CONTINUOUS
 10
-6.1487241467
 20
-4.8437988794
 11
-6.1487241467
 21
-6.2638671547
  0
LINE
  5
28F
100
AcDbEntity
  8
RACCORDO
100
AcDbLine
 62
7
  6
CONTINUOUS
 10
-6.119346172
 20
-9.5199154056
 11
-6.119346172
 21
-8.7402100168
  0
LINE
  5
290
100
AcDbEntity
  8
RACCORDO
100
AcDbLine
 62
253
  6
CONTINUOUS
 10
-6.0893588386
 20
-6.8875838481
 11
-6.0893588386
 21
-6.6055780035
  0
LINE
  5
291
100
AcDbEntity
  8
RACCORDO
100
AcDbLine
 62
253
  6
CONTINUOUS
 10
-5.89887644
 20
-4.843800668
 11
-5.89887644
 21
-6.0541978579
  0
LINE
  5
292
100
AcDbEntity
  8
RACCORDO
100
AcDbLine
 62
253
  6
CONTINUOUS
 10
-5.8395111318
 20
-6.8875820558
 11
-5.8395111318
 21
-6.6055796438
  0
LINE
  5
293
100
AcDbEntity
  8
RACCORDO
100
AcDbLine
 62
253
  6
CONTINUOUS
 10
-5.6410861355
 20
-6.6055796438
 11
-5.6410861355
 21
-6.8875820558
  0
LINE
  5
294
100
AcDbEntity
  8
RACCORDO
100
AcDbLine
 62
253
  6
CONTINUOUS
 10
-5.5817208274
 20
-4.8438006402
 11
-5.5817208274
 21
-6.0541978579
  0
LINE
  5
295
100
AcDbEntity
  8
RACCORDO
100
AcDbLine
 62
253
  6
CONTINUOUS
 10
-5.3912384288
 20
-6.6055780035
 11
-5.3912384288
 21
-6.8875838481
  0
LINE
  5
296
100
AcDbEntity
  8
RACCORDO
100
AcDbLine
 62
7
  6
CONTINUOUS
 10
-5.3612510954
 20
-8.7402100168
 11
-5.3612510954
 21
-9.5199154056
  0
LINE
  5
297
100
AcDbEntity
  8
RACCORDO
100
AcDbLine
 62
253
  6
CONTINUOUS
 10
-5.3318731206
 20
-4.8437988794
 11
-5.3318731206
 21
-6.2638671547
  0
LINE
  5
298
100
AcDbEntity
  8
0
100
AcDbLine
 62
7
  6
CONTINUOUS
 10
-5.2495028796
 20
3.2999744414
 11
-5.2494923244
 21
7.5909363209
  0
LINE
  5
299
100
AcDbEntity
  8
RACCORDO
100
AcDbLine
 62
253
  6
CONTINUOUS
 10
-6.119346172
 20
-8.7402100168
 11
-6.0895224288
 21
-6.9087147612
  0
LINE
  5
29A
100
AcDbEntity
  8
RACCORDO
100
AcDbLine
 62
253
  6
CONTINUOUS
 10
-5.8771060272
 20
-9.3130498595
 11
-5.8396747451
 21
-7.014370744
  0
LINE
  5
29B
100
AcDbEntity
  8
0
100
AcDbLine
 62
7
  6
CONTINUOUS
 10
-0.0340486337
 20
-6.2902624554
 11
0.1430348348
 21
-6.2540922469
  0
LINE
  5
29C
100
AcDbEntity
  8
0
100
AcDbLine
 62
7
  6
CONTINUOUS
 10
-1.5215486337
 20
-6.4711134977
 11
-1.3444653679
 21
-6.4349432892
  0
LINE
  5
29D
100
AcDbEntity
  8
0
100
AcDbLine
 62
7
  6
CONTINUOUS
 10
-3.1507152919
 20
-6.4711134977
 11
-2.9736319501
 21
-6.4349432892
  0
LINE
  5
29E
100
AcDbEntity
  8
0
100
AcDbLine
 62
7
  6
CONTINUOUS
 10
-1.5569653679
 20
-6.2902624554
 11
-1.3444653679
 21
-6.2540922469
  0
LINE
  5
29F
100
AcDbEntity
  8
0
100
AcDbLine
 62
7
  6
CONTINUOUS
 10
-3.1861319755
 20
-6.2902624554
 11
-2.9382153172
 21
-6.2540922469
  0
LINE
  5
2A0
100
AcDbEntity
  8
RACCORDO
100
AcDbLine
 62
7
  6
CONTINUOUS
 10
-5.8916622296
 20
-6.0540922469
 11
-5.5889350378
 21
-6.0540922469
  0
LINE
  5
2A1
100
AcDbEntity
  8
RACCORDO
100
AcDbLine
 62
7
  6
CONTINUOUS
 10
5.6110649622
 20
-6.0540922469
 11
5.3083377704
 21
-6.0540922469
  0
LINE
  5
2A2
100
AcDbEntity
  8
0
100
AcDbLine
 62
7
  6
CONTINUOUS
 10
0.4617848348
 20
-6.2902624554
 11
0.2847013663
 21
-6.2540922469
  0
LINE
  5
2A3
100
AcDbEntity
  8
0
100
AcDbLine
 62
7
  6
CONTINUOUS
 10
0.4263678979
 20
-6.4711134977
 11
0.2847013663
 21
-6.4349432892
  0
LINE
  5
2A4
100
AcDbEntity
  8
0
100
AcDbLine
 62
7
  6
CONTINUOUS
 10
0.5680348348
 20
-7.266858185
 11
0.4263678979
 21
-7.1945177681
  0
LINE
  5
2A5
100
AcDbEntity
  8
0
100
AcDbLine
 62
7
  6
CONTINUOUS
 10
0.6388678979
 20
-7.1221773512
 11
0.5680348348
 21
-7.0860071427
  0
LINE
  5
2A6
100
AcDbEntity
  8
0
100
AcDbLine
 62
7
  6
CONTINUOUS
 10
-0.9548818995
 20
-6.3987730808
 11
-1.1319653679
 21
-6.2902624554
  0
LINE
  5
2A7
100
AcDbEntity
  8
0
100
AcDbLine
 62
7
  6
CONTINUOUS
 10
-1.0611318995
 20
-6.5434539146
 11
-1.1673818995
 21
-6.4711134977
  0
LINE
  5
2A8
100
AcDbEntity
  8
0
100
AcDbLine
 62
7
  6
CONTINUOUS
 10
0.0013678979
 20
-6.9774965173
 11
-0.1402986337
 21
-6.868985892
  0
LINE
  5
2A9
100
AcDbEntity
  8
0
100
AcDbLine
 62
7
  6
CONTINUOUS
 10
0.7805348348
 20
-7.2306879765
 11
0.6388678979
 21
-7.1221773512
  0
LINE
  5
2AA
100
AcDbEntity
  8
0
100
AcDbLine
 62
7
  6
CONTINUOUS
 10
-2.3007152666
 20
-6.5072837061
 11
-2.4423820008
 21
-6.3626028723
  0
LINE
  5
2AB
100
AcDbEntity
  8
0
100
AcDbLine
 62
7
  6
CONTINUOUS
 10
-0.2465486337
 20
-7.8094114005
 11
-0.3527986337
 21
-7.7009007624
  0
LINE
  5
2AC
100
AcDbEntity
  8
0
100
AcDbLine
 62
7
  6
CONTINUOUS
 10
-2.4777986337
 20
-6.6519645399
 11
-2.5486320008
 21
-6.5434539146
  0
LINE
  5
2AD
100
AcDbEntity
  8
0
100
AcDbLine
 62
7
  6
CONTINUOUS
 10
-1.6277986337
 20
-7.664730554
 11
-1.7694653679
 21
-7.4477092779
  0
LINE
  5
2AE
100
AcDbEntity
  8
RACCORDO
100
AcDbLine
 62
253
  6
CONTINUOUS
 10
-5.5889350378
 20
-6.0540922469
 11
-5.6396432299
 21
-6.310135357
  0
LINE
  5
2AF
100
AcDbEntity
  8
RACCORDO
100
AcDbLine
 62
253
  6
CONTINUOUS
 10
5.8681268794
 20
-4.8437988794
 11
5.0512758533
 21
-4.8437988794
  0
LINE
  5
2B0
100
AcDbEntity
  8
RACCORDO
100
AcDbLine
 62
253
  6
CONTINUOUS
 10
-5.3318731206
 20
-4.8437988794
 11
-6.1487241467
 21
-4.8437988794
  0
LINE
  5
2B1
100
AcDbEntity
  8
0
100
AcDbLine
 62
7
  6
CONTINUOUS
 10
-2.9425746337
 20
-4.7863932469
 11
-2.6298826337
 21
-4.7863932469
  0
LINE
  5
2B2
100
AcDbEntity
  8
0
100
AcDbLine
 62
7
  6
CONTINUOUS
 10
-1.9518006337
 20
-4.7863932469
 11
-1.5969726337
 21
-4.7863932469
  0
LINE
  5
2B3
100
AcDbEntity
  8
0
100
AcDbLine
 62
7
  6
CONTINUOUS
 10
-1.4059576337
 20
-4.7863932469
 11
-1.0665026337
 21
-4.7863932469
  0
LINE
  5
2B4
100
AcDbEntity
  8
0
100
AcDbLine
 62
7
  6
CONTINUOUS
 10
-0.5736746337
 20
-4.7863932469
 11
-0.5239106337
 21
-4.7863932469
  0
LINE
  5
2B5
100
AcDbEntity
  8
0
100
AcDbLine
 62
7
  6
CONTINUOUS
 10
-0.0291186337
 20
-4.7863932469
 11
0.3179973663
 21
-4.7863932469
  0
LINE
  5
2B6
100
AcDbEntity
  8
0
100
AcDbLine
 62
7
  6
CONTINUOUS
 10
0.3737143663
 20
-4.7863932469
 11
0.7246923663
 21
-4.7863932469
  0
LINE
  5
2B7
100
AcDbEntity
  8
0
100
AcDbLine
 62
7
  6
CONTINUOUS
 10
1.3977393663
 20
-4.7863932469
 11
1.7717133663
 21
-4.7863932469
  0
LINE
  5
2B8
100
AcDbEntity
  8
0
100
AcDbLine
 62
7
  6
CONTINUOUS
 10
1.8759080302
 20
-4.7863929336
 11
2.2293083623
 21
-4.7863929336
  0
LINE
  5
2B9
100
AcDbEntity
  8
0
100
AcDbLine
 62
7
  6
CONTINUOUS
 10
2.7726785814
 20
-4.7863929336
 11
3.1139819248
 21
-4.7863929336
  0
LINE
  5
2BA
100
AcDbEntity
  8
RACCORDO
100
AcDbLine
 62
253
  6
CONTINUOUS
 10
5.6199643449
 20
-4.5439815616
 11
5.2994383985
 21
-4.5439815724
  0
LINE
  5
2BB
100
AcDbEntity
  8
RACCORDO
100
AcDbLine
 62
253
  6
CONTINUOUS
 10
-5.5800356551
 20
-4.5439815616
 11
-5.9005616015
 21
-4.5439815724
  0
LINE
  5
2BC
100
AcDbEntity
  8
RACCORDO
100
AcDbLine
 62
7
  6
CONTINUOUS
 10
-5.9493238525
 20
-4.4952193213
 11
-5.5312734148
 21
-4.4952193213
  0
LINE
  5
2BD
100
AcDbEntity
  8
RACCORDO
100
AcDbLine
 62
7
  6
CONTINUOUS
 10
5.2506761475
 20
-4.4952193213
 11
5.6687265852
 21
-4.4952193213
  0
LINE
  5
2BE
100
AcDbEntity
  8
0
100
AcDbLine
 62
7
  6
CONTINUOUS
 10
0.8226033663
 20
-4.4470402469
 11
1.3058203663
 21
-4.4470402469
  0
LINE
  5
2BF
100
AcDbEntity
  8
0
100
AcDbLine
 62
7
  6
CONTINUOUS
 10
0.8951853663
 20
-4.1844502469
 11
1.2349073663
 21
-4.1844502469
  0
LINE
  5
2C0
100
AcDbEntity
  8
0
100
AcDbLine
 62
7
  6
CONTINUOUS
 10
0.6388678979
 20
-6.3987730808
 11
0.4617848348
 21
-6.2902624554
  0
LINE
  5
2C1
100
AcDbEntity
  8
0
100
AcDbLine
 62
7
  6
CONTINUOUS
 10
0.5680348348
 20
-6.579624123
 11
0.4263678979
 21
-6.4711134977
  0
LINE
  5
2C2
100
AcDbEntity
  8
0
100
AcDbLine
 62
7
  6
CONTINUOUS
 10
-0.8486318995
 20
-6.5072837061
 11
-0.9548818995
 21
-6.3987730808
  0
LINE
  5
2C3
100
AcDbEntity
  8
0
100
AcDbLine
 62
7
  6
CONTINUOUS
 10
-0.2111318995
 20
-7.0498369343
 11
-0.3173818995
 21
-6.9413263089
  0
LINE
  5
2C4
100
AcDbEntity
  8
0
100
AcDbLine
 62
7
  6
CONTINUOUS
 10
-0.1402986337
 20
-7.664730554
 11
-0.2465486337
 21
-7.5200496948
  0
LINE
  5
2C5
100
AcDbEntity
  8
0
100
AcDbLine
 62
7
  6
CONTINUOUS
 10
-0.9194653679
 20
-6.7604752666
 11
-1.0611318995
 21
-6.5434539146
  0
LINE
  5
2C6
100
AcDbEntity
  8
0
100
AcDbLine
 62
7
  6
CONTINUOUS
 10
-1.8402986337
 20
-7.7009007624
 11
-1.9111320008
 21
-7.5562199033
  0
LINE
  5
2C7
100
AcDbEntity
  8
0
100
AcDbLine
 62
7
  6
CONTINUOUS
 10
-2.9425746337
 20
-4.7863932469
 11
-3.4814646337
 21
-3.0865302469
  0
LINE
  5
2C8
100
AcDbEntity
  8
RACCORDO
100
AcDbLine
 62
253
  6
CONTINUOUS
 10
-4.0557686875
 20
-9.5199154056
 11
-4.0557686875
 21
-11.125480578
  0
LINE
  5
2C9
100
AcDbEntity
  8
RACCORDO
100
AcDbLine
 62
253
  6
CONTINUOUS
 10
-3.8825636068
 20
-9.5321938617
 11
-3.8825636068
 21
-11.1307213559
  0
LINE
  5
2CA
100
AcDbEntity
  8
0
100
AcDbLine
 62
7
  6
CONTINUOUS
 10
-3.5402986337
 20
-7.9540922469
 11
-3.5402986337
 21
-7.7732411793
  0
LINE
  5
2CB
100
AcDbEntity
  8
RACCORDO
100
AcDbLine
 62
253
  6
CONTINUOUS
 10
-5.3318731206
 20
-6.2638671547
 11
-5.3897955867
 21
-6.5563376158
  0
LINE
  5
2CC
100
AcDbEntity
  8
0
100
AcDbLine
 62
7
  6
CONTINUOUS
 10
2.2293083623
 20
-4.121160531
 11
2.4195586853
 21
-4.121160531
  0
LINE
  5
2CD
100
AcDbEntity
  8
0
100
AcDbLine
 62
7
  6
CONTINUOUS
 10
2.2175427979
 20
-3.8427640784
 11
2.4203235108
 21
-3.8427640784
  0
LINE
  5
2CE
100
AcDbEntity
  8
0
100
AcDbLine
 62
7
  6
CONTINUOUS
 10
0.7451178979
 20
-6.5072837061
 11
0.6388678979
 21
-6.3987730808
  0
LINE
  5
2CF
100
AcDbEntity
  8
0
100
AcDbLine
 62
7
  6
CONTINUOUS
 10
0.6742848348
 20
-7.4115390695
 11
0.5680348348
 21
-7.266858185
  0
LINE
  5
2D0
100
AcDbEntity
  8
0
100
AcDbLine
 62
7
  6
CONTINUOUS
 10
-0.1402986337
 20
-6.868985892
 11
-0.2111318995
 21
-6.7604752666
  0
LINE
  5
2D1
100
AcDbEntity
  8
0
100
AcDbLine
 62
7
  6
CONTINUOUS
 10
-0.7777986337
 20
-6.6519645399
 11
-0.8486318995
 21
-6.5072837061
  0
LINE
  5
2D2
100
AcDbEntity
  8
0
100
AcDbLine
 62
7
  6
CONTINUOUS
 10
-0.3173818995
 20
-6.9413263089
 11
-0.3882153679
 21
-6.7966454751
  0
LINE
  5
2D3
100
AcDbEntity
  8
0
100
AcDbLine
 62
7
  6
CONTINUOUS
 10
-1.9111320008
 20
-7.5562199033
 11
-1.9465486337
 21
-7.4477092779
  0
LINE
  5
2D4
100
AcDbEntity
  8
0
100
AcDbLine
 62
7
  6
CONTINUOUS
 10
-2.7719866337
 20
-4.2565982469
 11
-3.0960116337
 21
-3.0865302469
  0
LINE
  5
2D5
100
AcDbEntity
  8
0
100
AcDbLine
 62
7
  6
CONTINUOUS
 10
-2.2652986337
 20
-6.6519645399
 11
-2.3007152666
 21
-6.5072837061
  0
LINE
  5
2D6
100
AcDbEntity
  8
0
100
AcDbLine
 62
7
  6
CONTINUOUS
 10
-1.9465486337
 20
-7.4477092779
 11
-1.9819652666
 21
-7.266858185
  0
LINE
  5
2D7
100
AcDbEntity
  8
0
100
AcDbLine
 62
7
  6
CONTINUOUS
 10
-2.4777986337
 20
-6.7243050582
 11
-2.4777986337
 21
-6.6519645399
  0
LINE
  5
2D8
100
AcDbEntity
  8
0
100
AcDbLine
 62
7
  6
CONTINUOUS
 10
-2.2652986337
 20
-7.9540922469
 11
-2.2652986337
 21
-7.7732411793
  0
LINE
  5
2D9
100
AcDbEntity
  8
0
100
AcDbLine
 62
7
  6
CONTINUOUS
 10
-2.2652986337
 20
-6.7243050582
 11
-2.2652986337
 21
-6.6519645399
  0
LINE
  5
2DA
100
AcDbEntity
  8
DRAFT
100
AcDbLine
 62
7
  6
CONTINUOUS
 10
-3.5343449328
 20
-11.1623301875
 11
-3.4565801569
 21
-9.6227873777
  0
LINE
  5
2DB
100
AcDbEntity
  8
RACCORDO
100
AcDbLine
 62
7
  6
CONTINUOUS
 10
-5.3061571796
 20
-9.3262002511
 11
-5.3612510954
 21
-9.5199154056
  0
LINE
  5
2DC
100
AcDbEntity
  8
RACCORDO
100
AcDbLine
 62
7
  6
CONTINUOUS
 10
6.5887883059
 20
9.6726294979
 11
6.6045562367
 21
9.6883974287
  0
LINE
  5
2DD
100
AcDbEntity
  8
0
100
AcDbLine
 62
7
  6
CONTINUOUS
 10
-3.4814646337
 20
-3.0865302469
 11
-3.0960116337
 21
-3.0865302469
  0
LINE
  5
2DE
100
AcDbEntity
  8
0
100
AcDbLine
 62
7
  6
CONTINUOUS
 10
-2.4380646337
 20
-3.0865302469
 11
-2.0834786337
 21
-3.0865302469
  0
LINE
  5
2DF
100
AcDbEntity
  8
0
100
AcDbLine
 62
7
  6
CONTINUOUS
 10
-1.2524706337
 20
-3.0865302469
 11
-0.8979356337
 21
-3.0865302469
  0
LINE
  5
2E0
100
AcDbEntity
  8
0
100
AcDbLine
 62
7
  6
CONTINUOUS
 10
-0.1920266337
 20
-3.0865302469
 11
0.1590403663
 21
-3.0865302469
  0
LINE
  5
2E1
100
AcDbEntity
  8
0
100
AcDbLine
 62
7
  6
CONTINUOUS
 10
0.9068993663
 20
-3.0865302469
 11
1.2501533663
 21
-3.0865302469
  0
LINE
  5
2E2
100
AcDbEntity
  8
0
100
AcDbLine
 62
7
  6
CONTINUOUS
 10
-1.9518006337
 20
-3.0864282469
 11
-1.5969726337
 21
-3.0864282469
  0
LINE
  5
2E3
100
AcDbEntity
  8
DRAFT
100
AcDbLine
 62
7
  6
CONTINUOUS
 10
9.7428244673
 20
-3.0540922469
 11
9.3597013663
 21
-3.0540922469
  0
LINE
  5
2E4
100
AcDbEntity
  8
DRAFT
100
AcDbLine
 62
7
  6
CONTINUOUS
 10
-9.6402986337
 20
-3.0540922469
 11
-10.0234217346
 21
-3.0540922469
  0
LINE
  5
2E5
100
AcDbEntity
  8
0
100
AcDbLine
 62
7
  6
CONTINUOUS
 10
0.6388678979
 20
-6.6881348497
 11
0.5680348348
 21
-6.579624123
  0
LINE
  5
2E6
100
AcDbEntity
  8
0
100
AcDbLine
 62
7
  6
CONTINUOUS
 10
-0.3527986337
 20
-7.7009007624
 11
-0.4236318995
 21
-7.5200496948
  0
LINE
  5
2E7
100
AcDbEntity
  8
0
100
AcDbLine
 62
7
  6
CONTINUOUS
 10
-0.5736746337
 20
-4.7863932469
 11
-0.9899306337
 21
-3.6764142469
  0
LINE
  5
2E8
100
AcDbEntity
  8
0
100
AcDbLine
 62
7
  6
CONTINUOUS
 10
-0.7423818995
 20
-6.7604752666
 11
-0.7777986337
 21
-6.6519645399
  0
LINE
  5
2E9
100
AcDbEntity
  8
0
100
AcDbLine
 62
7
  6
CONTINUOUS
 10
-1.7694653679
 20
-7.4477092779
 11
-1.8048818995
 21
-7.2306879765
  0
LINE
  5
2EA
100
AcDbEntity
  8
0
100
AcDbLine
 62
7
  6
CONTINUOUS
 10
-1.9819652666
 20
-7.266858185
 11
-1.9819652666
 21
-6.9413263089
  0
LINE
  5
2EB
100
AcDbEntity
  8
0
100
AcDbLine
 62
7
  6
CONTINUOUS
 10
-1.9518006337
 20
-4.7863932469
 11
-1.9518006337
 21
-3.0864282469
  0
LINE
  5
2EC
100
AcDbEntity
  8
0
100
AcDbLine
 62
7
  6
CONTINUOUS
 10
-1.8048818995
 20
-7.2306879765
 11
-1.8048818995
 21
-6.9774965173
  0
LINE
  5
2ED
100
AcDbEntity
  8
0
100
AcDbLine
 62
7
  6
CONTINUOUS
 10
-1.5969726337
 20
-4.7863932469
 11
-1.5969726337
 21
-3.0864282469
  0
LINE
  5
2EE
100
AcDbEntity
  8
RACCORDO
100
AcDbLine
 62
7
  6
CONTINUOUS
 10
-1.5360456847
 20
8.1548664671
 11
-1.5354264989
 21
9.7868967439
  0
LINE
  5
2EF
100
AcDbEntity
  8
RACCORDO
100
AcDbLine
 62
253
  6
CONTINUOUS
 10
-1.3357968644
 20
8.633259033
 11
-1.3356981139
 21
8.8935425583
  0
LINE
  5
2F0
100
AcDbEntity
  8
0
100
AcDbLine
 62
7
  6
CONTINUOUS
 10
-3.504881966
 20
-6.6519645399
 11
-3.4694652982
 21
-6.5072837061
  0
LINE
  5
2F1
100
AcDbEntity
  8
0
100
AcDbLine
 62
7
  6
CONTINUOUS
 10
-2.7719866337
 20
-4.2565982469
 11
-2.4380646337
 21
-3.0865302469
  0
LINE
  5
2F2
100
AcDbEntity
  8
0
100
AcDbLine
 62
7
  6
CONTINUOUS
 10
-2.6298826337
 20
-4.7863932469
 11
-2.0834786337
 21
-3.0865302469
  0
LINE
  5
2F3
100
AcDbEntity
  8
DRAFT
100
AcDbLine
 62
7
  6
CONTINUOUS
 10
-11.2902986337
 20
-2.0540922469
 11
-10.0402986337
 21
-2.0540922469
  0
LINE
  5
2F4
100
AcDbEntity
  8
DRAFT
100
AcDbLine
 62
7
  6
CONTINUOUS
 10
9.7597013663
 20
-2.0540922469
 11
11.0097013663
 21
-2.0540922469
  0
LINE
  5
2F5
100
AcDbEntity
  8
RACCORDO
100
AcDbLine
 62
253
  6
CONTINUOUS
 10
-7.1699842898
 20
4.8256391006
 11
-7.1973872574
 21
4.8530420683
  0
LINE
  5
2F6
100
AcDbEntity
  8
RACCORDO
100
AcDbLine
 62
253
  6
CONTINUOUS
 10
-6.8699662337
 20
5.1255296616
 11
-6.8974329761
 21
5.152996404
  0
LINE
  5
2F7
100
AcDbEntity
  8
0
100
AcDbLine
 62
7
  6
CONTINUOUS
 10
0.8513678979
 20
-7.4115390695
 11
0.7805348348
 21
-7.2306879765
  0
LINE
  5
2F8
100
AcDbEntity
  8
0
100
AcDbLine
 62
7
  6
CONTINUOUS
 10
0.8159513663
 20
-6.6881348497
 11
0.7451178979
 21
-6.5072837061
  0
LINE
  5
2F9
100
AcDbEntity
  8
0
100
AcDbLine
 62
7
  6
CONTINUOUS
 10
-0.5468546337
 20
-4.0302992469
 11
-0.8979356337
 21
-3.0865302469
  0
LINE
  5
2FA
100
AcDbEntity
  8
0
100
AcDbLine
 62
7
  6
CONTINUOUS
 10
-0.7069653679
 20
-6.9413263089
 11
-0.7423818995
 21
-6.7604752666
  0
LINE
  5
2FB
100
AcDbEntity
  8
0
100
AcDbLine
 62
7
  6
CONTINUOUS
 10
-0.8840486337
 20
-6.9774965173
 11
-0.9194653679
 21
-6.7604752666
  0
LINE
  5
2FC
100
AcDbEntity
  8
0
100
AcDbLine
 62
7
  6
CONTINUOUS
 10
0.3179973663
 20
-4.7863932469
 11
0.1590403663
 21
-3.0865302469
  0
LINE
  5
2FD
100
AcDbEntity
  8
0
100
AcDbLine
 62
7
  6
CONTINUOUS
 10
-0.0291186337
 20
-4.7863932469
 11
-0.1020196337
 21
-3.6810412469
  0
LINE
  5
2FE
100
AcDbEntity
  8
0
100
AcDbLine
 62
7
  6
CONTINUOUS
 10
-0.8840486337
 20
-7.2306879765
 11
-0.8840486337
 21
-6.9774965173
  0
LINE
  5
2FF
100
AcDbEntity
  8
0
100
AcDbLine
 62
7
  6
CONTINUOUS
 10
-0.7069653679
 20
-7.266858185
 11
-0.7069653679
 21
-6.9413263089
  0
LINE
  5
300
100
AcDbEntity
  8
0
100
AcDbLine
 62
7
  6
CONTINUOUS
 10
-0.4236318995
 20
-7.5200496948
 11
-0.4236318995
 21
-7.4115390695
  0
LINE
  5
301
100
AcDbEntity
  8
0
100
AcDbLine
 62
7
  6
CONTINUOUS
 10
-0.3882153679
 20
-6.7966454751
 11
-0.3882153679
 21
-6.6881348497
  0
LINE
  5
302
100
AcDbEntity
  8
0
100
AcDbLine
 62
7
  6
CONTINUOUS
 10
-0.2465486337
 20
-7.5200496948
 11
-0.2465486337
 21
-7.4115390695
  0
LINE
  5
303
100
AcDbEntity
  8
0
100
AcDbLine
 62
7
  6
CONTINUOUS
 10
-0.2111318995
 20
-6.7604752666
 11
-0.2111318995
 21
-6.6881348497
  0
LINE
  5
304
100
AcDbEntity
  8
0
100
AcDbLine
 62
7
  6
CONTINUOUS
 10
-1.0665026337
 20
-4.7863932469
 11
-0.9899306337
 21
-3.6764142469
  0
LINE
  5
305
100
AcDbEntity
  8
0
100
AcDbLine
 62
7
  6
CONTINUOUS
 10
-1.4059576337
 20
-4.7863932469
 11
-1.2524706337
 21
-3.0865302469
  0
LINE
  5
306
100
AcDbEntity
  8
0
100
AcDbLine
 62
7
  6
CONTINUOUS
 10
-1.8048818995
 20
-6.9774965173
 11
-1.7694653679
 21
-6.7604752666
  0
LINE
  5
307
100
AcDbEntity
  8
0
100
AcDbLine
 62
7
  6
CONTINUOUS
 10
-1.9819652666
 20
-6.9413263089
 11
-1.9465486337
 21
-6.7604752666
  0
LINE
  5
308
100
AcDbEntity
  8
0
100
AcDbLine
 62
7
  6
CONTINUOUS
 10
-2.3007152666
 20
-6.868985892
 11
-2.2652986337
 21
-6.7243050582
  0
LINE
  5
309
100
AcDbEntity
  8
RACCORDO
100
AcDbLine
 62
253
  6
CONTINUOUS
 10
-5.5312734148
 20
-4.4952193213
 11
-5.5800356551
 21
-4.5439815616
  0
LINE
  5
30A
100
AcDbEntity
  8
RACCORDO
100
AcDbLine
 62
253
  6
CONTINUOUS
 10
-5.2822077509
 20
-4.7458490709
 11
-5.330188018
 21
-4.793829338
  0
LINE
  5
30B
100
AcDbEntity
  8
RACCORDO
100
AcDbLine
 62
253
  6
CONTINUOUS
 10
9.4864535721
 20
9.6726294979
 11
9.5597318273
 21
9.7459077531
  0
LINE
  5
30C
100
AcDbEntity
  8
RACCORDO
100
AcDbLine
 62
253
  6
CONTINUOUS
 10
-10.0402986337
 20
9.545938214
 11
-9.9704606087
 21
9.476100189
  0
LINE
  5
30D
100
AcDbEntity
  8
RACCORDO
100
AcDbLine
 62
253
  6
CONTINUOUS
 10
-9.8403290947
 20
9.7459077531
 11
-9.7670508395
 21
9.6726294979
  0
LINE
  5
30E
100
AcDbEntity
  8
0
100
AcDbLine
 62
7
  6
CONTINUOUS
 10
0.6388678979
 20
-6.7604752666
 11
0.6388678979
 21
-6.6881348497
  0
LINE
  5
30F
100
AcDbEntity
  8
0
100
AcDbLine
 62
7
  6
CONTINUOUS
 10
0.6742848348
 20
-7.5200496948
 11
0.6742848348
 21
-7.4115390695
  0
LINE
  5
310
100
AcDbEntity
  8
0
100
AcDbLine
 62
7
  6
CONTINUOUS
 10
0.8159513663
 20
-6.7966454751
 11
0.8159513663
 21
-6.6881348497
  0
LINE
  5
311
100
AcDbEntity
  8
0
100
AcDbLine
 62
7
  6
CONTINUOUS
 10
0.8513678979
 20
-7.5200496948
 11
0.8513678979
 21
-7.4115390695
  0
LINE
  5
312
100
AcDbEntity
  8
0
100
AcDbLine
 62
7
  6
CONTINUOUS
 10
-0.9194653679
 20
-7.4477092779
 11
-0.8840486337
 21
-7.2306879765
  0
LINE
  5
313
100
AcDbEntity
  8
0
100
AcDbLine
 62
7
  6
CONTINUOUS
 10
-0.7423818995
 20
-7.4477092779
 11
-0.7069653679
 21
-7.266858185
  0
LINE
  5
314
100
AcDbEntity
  8
0
100
AcDbLine
 62
7
  6
CONTINUOUS
 10
-1.9465486337
 20
-6.7604752666
 11
-1.9111320008
 21
-6.6519645399
  0
LINE
  5
315
100
AcDbEntity
  8
0
100
AcDbLine
 62
7
  6
CONTINUOUS
 10
-0.5468546337
 20
-4.0302992469
 11
-0.1920266337
 21
-3.0865302469
  0
LINE
  5
316
100
AcDbEntity
  8
0
100
AcDbLine
 62
7
  6
CONTINUOUS
 10
-2.5486320008
 20
-6.868985892
 11
-2.4777986337
 21
-6.7243050582
  0
LINE
  5
317
100
AcDbEntity
  8
0
100
AcDbLine
 62
7
  6
CONTINUOUS
 10
-3.3277986337
 20
-6.6519645399
 11
-3.2569652919
 21
-6.5434539146
  0
LINE
  5
318
100
AcDbEntity
  8
RACCORDO
100
AcDbLine
 62
253
  6
CONTINUOUS
 10
9.6898633413
 20
9.476100189
 11
9.7597013663
 21
9.545938214
  0
LINE
  5
319
100
AcDbEntity
  8
RACCORDO
100
AcDbLine
 62
253
  6
CONTINUOUS
 10
6.6168357087
 20
5.152996404
 11
6.5893689663
 21
5.1255296616
  0
LINE
  5
31A
100
AcDbEntity
  8
DRAFT
100
AcDbLine
 62
7
  6
CONTINUOUS
 10
9.7428244673
 20
0.7459077531
 11
9.3597013663
 21
0.7459077531
  0
LINE
  5
31B
100
AcDbEntity
  8
DRAFT
100
AcDbLine
 62
7
  6
CONTINUOUS
 10
-9.6402986337
 20
0.7459077531
 11
-10.0234217346
 21
0.7459077531
  0
LINE
  5
31C
100
AcDbEntity
  8
RACCORDO
100
AcDbLine
 62
253
  6
CONTINUOUS
 10
5.0016104835
 20
-4.7458490709
 11
5.0495907507
 21
-4.793829338
  0
LINE
  5
31D
100
AcDbEntity
  8
RACCORDO
100
AcDbLine
 62
253
  6
CONTINUOUS
 10
5.2506761475
 20
-4.4952193213
 11
5.2994383985
 21
-4.5439815724
  0
LINE
  5
31E
100
AcDbEntity
  8
0
100
AcDbLine
 62
7
  6
CONTINUOUS
 10
1.7717133663
 20
-4.7863932469
 11
1.2501533663
 21
-3.0865302469
  0
LINE
  5
31F
100
AcDbEntity
  8
0
100
AcDbLine
 62
7
  6
CONTINUOUS
 10
1.3977393663
 20
-4.7863932469
 11
1.3058203663
 21
-4.4470402469
  0
LINE
  5
320
100
AcDbEntity
  8
0
100
AcDbLine
 62
7
  6
CONTINUOUS
 10
1.2349073663
 20
-4.1844502469
 11
1.0718593663
 21
-3.5536092469
  0
LINE
  5
321
100
AcDbEntity
  8
RACCORDO
100
AcDbLine
 62
253
  6
CONTINUOUS
 10
1.0551008465
 20
8.8935425583
 11
1.055199597
 21
8.633259033
  0
LINE
  5
322
100
AcDbEntity
  8
RACCORDO
100
AcDbLine
 62
7
  6
CONTINUOUS
 10
1.2548292316
 20
9.7868967439
 11
1.2554484173
 21
8.1548664671
  0
LINE
  5
323
100
AcDbEntity
  8
0
100
AcDbLine
 62
7
  6
CONTINUOUS
 10
1.1347013663
 20
-7.4477092779
 11
1.1347013663
 21
-7.2306879765
  0
LINE
  5
324
100
AcDbEntity
  8
0
100
AcDbLine
 62
7
  6
CONTINUOUS
 10
1.8759080302
 20
-4.7863929336
 11
1.8759080302
 21
-3.1063901648
  0
LINE
  5
325
100
AcDbEntity
  8
0
100
AcDbLine
 62
7
  6
CONTINUOUS
 10
1.9847013663
 20
-7.9540922469
 11
1.9847013663
 21
-7.4477092779
  0
LINE
  5
326
100
AcDbEntity
  8
0
100
AcDbLine
 62
7
  6
CONTINUOUS
 10
1.9847013663
 20
-7.2306879765
 11
1.9847013663
 21
-6.5434539146
  0
LINE
  5
327
100
AcDbEntity
  8
0
100
AcDbLine
 62
7
  6
CONTINUOUS
 10
0.8951853663
 20
-4.1844502469
 11
1.0718593663
 21
-3.5536092469
  0
LINE
  5
328
100
AcDbEntity
  8
0
100
AcDbLine
 62
7
  6
CONTINUOUS
 10
0.7246923663
 20
-4.7863932469
 11
0.8226033663
 21
-4.4470402469
  0
LINE
  5
329
100
AcDbEntity
  8
0
100
AcDbLine
 62
7
  6
CONTINUOUS
 10
0.3737143663
 20
-4.7863932469
 11
0.9068993663
 21
-3.0865302469
  0
LINE
  5
32A
100
AcDbEntity
  8
0
100
AcDbLine
 62
7
  6
CONTINUOUS
 10
-0.7777986337
 20
-7.5562199033
 11
-0.7423818995
 21
-7.4477092779
  0
LINE
  5
32B
100
AcDbEntity
  8
0
100
AcDbLine
 62
7
  6
CONTINUOUS
 10
-0.5239106337
 20
-4.7863932469
 11
-0.1020196337
 21
-3.6810412469
  0
LINE
  5
32C
100
AcDbEntity
  8
0
100
AcDbLine
 62
7
  6
CONTINUOUS
 10
-0.3882153679
 20
-6.6881348497
 11
-0.3173818995
 21
-6.5072837061
  0
LINE
  5
32D
100
AcDbEntity
  8
0
100
AcDbLine
 62
7
  6
CONTINUOUS
 10
-1.9111320008
 20
-6.6519645399
 11
-1.8402986337
 21
-6.5072837061
  0
LINE
  5
32E
100
AcDbEntity
  8
0
100
AcDbLine
 62
7
  6
CONTINUOUS
 10
-2.3715486337
 20
-6.9774965173
 11
-2.3007152666
 21
-6.868985892
  0
LINE
  5
32F
100
AcDbEntity
  8
0
100
AcDbLine
 62
7
  6
CONTINUOUS
 10
-3.4694652982
 20
-6.5072837061
 11
-3.3277986337
 21
-6.3626028723
  0
LINE
  5
330
100
AcDbEntity
  8
RACCORDO
100
AcDbLine
 62
253
  6
CONTINUOUS
 10
6.9167899901
 20
4.8530420683
 11
6.8893870224
 21
4.8256391006
  0
LINE
  5
331
100
AcDbEntity
  8
RACCORDO
100
AcDbLine
 62
253
  6
CONTINUOUS
 10
9.4914207458
 20
1.5744091558
 11
-9.7720180132
 21
1.5744091558
  0
LINE
  5
332
100
AcDbEntity
  8
RACCORDO
100
AcDbLine
 62
7
  6
CONTINUOUS
 10
-6.8693855733
 20
9.6726294979
 11
-6.8851535041
 21
9.6883974287
  0
LINE
  5
333
100
AcDbEntity
  8
DRAFT
100
AcDbLine
 62
7
  6
CONTINUOUS
 10
3.2537476654
 20
-11.1623301875
 11
3.1759828895
 21
-9.6227873777
  0
LINE
  5
334
100
AcDbEntity
  8
0
100
AcDbLine
 62
7
  6
CONTINUOUS
 10
2.1972013663
 20
-7.9540922469
 11
2.1972013663
 21
-7.4477092779
  0
LINE
  5
335
100
AcDbEntity
  8
0
100
AcDbLine
 62
7
  6
CONTINUOUS
 10
2.1972013663
 20
-7.2306879765
 11
2.1972013663
 21
-6.2540922469
  0
LINE
  5
336
100
AcDbEntity
  8
0
100
AcDbLine
 62
7
  6
CONTINUOUS
 10
2.2175427979
 20
-3.8427640784
 11
2.2175427979
 21
-3.376118596
  0
LINE
  5
337
100
AcDbEntity
  8
0
100
AcDbLine
 62
7
  6
CONTINUOUS
 10
2.2293083623
 20
-4.7863929336
 11
2.2293083623
 21
-4.121160531
  0
LINE
  5
338
100
AcDbEntity
  8
0
100
AcDbLine
 62
7
  6
CONTINUOUS
 10
2.5513678979
 20
-7.4477092779
 11
2.5513678979
 21
-7.2306879765
  0
LINE
  5
339
100
AcDbEntity
  8
0
100
AcDbLine
 62
7
  6
CONTINUOUS
 10
2.7881535491
 20
-3.9929120553
 11
2.7881535491
 21
-3.9828673482
  0
LINE
  5
33A
100
AcDbEntity
  8
0
100
AcDbLine
 62
7
  6
CONTINUOUS
 10
2.8347013663
 20
-6.7966454751
 11
2.8347013663
 21
-6.5072837061
  0
LINE
  5
33B
100
AcDbEntity
  8
0
100
AcDbLine
 62
7
  6
CONTINUOUS
 10
3.0472013663
 20
-7.9540922469
 11
3.0472013663
 21
-6.5434539146
  0
LINE
  5
33C
100
AcDbEntity
  8
0
100
AcDbLine
 62
7
  6
CONTINUOUS
 10
-0.4236318995
 20
-7.4115390695
 11
-0.3527986337
 21
-7.2306879765
  0
LINE
  5
33D
100
AcDbEntity
  8
0
100
AcDbLine
 62
7
  6
CONTINUOUS
 10
-0.8486318995
 20
-7.7009007624
 11
-0.7777986337
 21
-7.5562199033
  0
LINE
  5
33E
100
AcDbEntity
  8
0
100
AcDbLine
 62
7
  6
CONTINUOUS
 10
-1.7694653679
 20
-6.7604752666
 11
-1.6277986337
 21
-6.5434539146
  0
LINE
  5
33F
100
AcDbEntity
  8
0
100
AcDbLine
 62
7
  6
CONTINUOUS
 10
-1.8402986337
 20
-6.5072837061
 11
-1.7340486337
 21
-6.3987730808
  0
LINE
  5
340
100
AcDbEntity
  8
0
100
AcDbLine
 62
7
  6
CONTINUOUS
 10
-4.6889835079
 20
2.7360396302
 11
4.4083862406
 21
2.7360396302
  0
LINE
  5
341
100
AcDbEntity
  8
RACCORDO
100
AcDbLine
 62
7
  6
CONTINUOUS
 10
5.080653828
 20
-9.5199154056
 11
5.0255599122
 21
-9.3262002511
  0
LINE
  5
342
100
AcDbEntity
  8
0
100
AcDbLine
 62
7
  6
CONTINUOUS
 10
3.2597013663
 20
-7.9540922469
 11
3.2597013663
 21
-6.2540922469
  0
LINE
  5
343
100
AcDbEntity
  8
RACCORDO
100
AcDbLine
 62
253
  6
CONTINUOUS
 10
3.6019663394
 20
-11.1307213559
 11
3.6019663394
 21
-9.5321938617
  0
LINE
  5
344
100
AcDbEntity
  8
RACCORDO
100
AcDbLine
 62
253
  6
CONTINUOUS
 10
3.7751714202
 20
-11.125480578
 11
3.7751714202
 21
-9.5199154056
  0
LINE
  5
345
100
AcDbEntity
  8
0
100
AcDbLine
 62
7
  6
CONTINUOUS
 10
0.7805348348
 20
-7.7009007624
 11
0.8513678979
 21
-7.5200496948
  0
LINE
  5
346
100
AcDbEntity
  8
0
100
AcDbLine
 62
7
  6
CONTINUOUS
 10
0.7451178979
 20
-6.9413263089
 11
0.8159513663
 21
-6.7966454751
  0
LINE
  5
347
100
AcDbEntity
  8
0
100
AcDbLine
 62
7
  6
CONTINUOUS
 10
-1.0611318995
 20
-7.664730554
 11
-0.9194653679
 21
-7.4477092779
  0
LINE
  5
348
100
AcDbEntity
  8
0
100
AcDbLine
 62
7
  6
CONTINUOUS
 10
-0.2111318995
 20
-6.6881348497
 11
-0.1402986337
 21
-6.579624123
  0
LINE
  5
349
100
AcDbEntity
  8
0
100
AcDbLine
 62
7
  6
CONTINUOUS
 10
0.5680348348
 20
-6.868985892
 11
0.6388678979
 21
-6.7604752666
  0
LINE
  5
34A
100
AcDbEntity
  8
0
100
AcDbLine
 62
7
  6
CONTINUOUS
 10
-0.2465486337
 20
-7.4115390695
 11
-0.1402986337
 21
-7.266858185
  0
LINE
  5
34B
100
AcDbEntity
  8
0
100
AcDbLine
 62
7
  6
CONTINUOUS
 10
-3.5402986337
 20
-7.7732411793
 11
-2.5486320008
 21
-6.868985892
  0
LINE
  5
34C
100
AcDbEntity
  8
0
100
AcDbLine
 62
7
  6
CONTINUOUS
 10
-3.2569652919
 20
-7.7732411793
 11
-2.3715486337
 21
-6.9774965173
  0
LINE
  5
34D
100
AcDbEntity
  8
0
100
AcDbLine
 62
7
  6
CONTINUOUS
 10
-3.2569652919
 20
-6.5434539146
 11
-3.1507152919
 21
-6.4711134977
  0
LINE
  5
34E
100
AcDbEntity
  8
0
100
AcDbLine
 62
7
  6
CONTINUOUS
 10
-3.3277986337
 20
-6.3626028723
 11
-3.1861319755
 21
-6.2902624554
  0
LINE
  5
34F
100
AcDbEntity
  8
RACCORDO
100
AcDbLine
 62
253
  6
CONTINUOUS
 10
5.1091983193
 20
-6.5563376158
 11
5.0512758533
 21
-6.2638671547
  0
LINE
  5
350
100
AcDbEntity
  8
RACCORDO
100
AcDbLine
 62
253
  6
CONTINUOUS
 10
5.3590459626
 20
-6.310135357
 11
5.3083377704
 21
-6.0540922469
  0
LINE
  5
351
100
AcDbEntity
  8
0
100
AcDbLine
 62
7
  6
CONTINUOUS
 10
4.968895057
 20
7.5909363209
 11
4.9689056123
 21
3.2999744414
  0
LINE
  5
352
100
AcDbEntity
  8
RACCORDO
100
AcDbLine
 62
253
  6
CONTINUOUS
 10
5.0512758533
 20
-4.8437988794
 11
5.0512758533
 21
-6.2638671547
  0
LINE
  5
353
100
AcDbEntity
  8
RACCORDO
100
AcDbLine
 62
7
  6
CONTINUOUS
 10
5.080653828
 20
-9.5199154056
 11
5.080653828
 21
-8.7402100168
  0
LINE
  5
354
100
AcDbEntity
  8
RACCORDO
100
AcDbLine
 62
253
  6
CONTINUOUS
 10
5.1106411614
 20
-6.8875838481
 11
5.1106411614
 21
-6.6055780035
  0
LINE
  5
355
100
AcDbEntity
  8
RACCORDO
100
AcDbLine
 62
253
  6
CONTINUOUS
 10
5.080653828
 20
-8.7402100168
 11
5.1104775712
 21
-6.9087147612
  0
LINE
  5
356
100
AcDbEntity
  8
0
100
AcDbLine
 62
7
  6
CONTINUOUS
 10
0.5680348348
 20
-7.664730554
 11
0.6742848348
 21
-7.5200496948
  0
LINE
  5
357
100
AcDbEntity
  8
0
100
AcDbLine
 62
7
  6
CONTINUOUS
 10
-0.3173818995
 20
-6.5072837061
 11
-0.2111318995
 21
-6.3987730808
  0
LINE
  5
358
100
AcDbEntity
  8
0
100
AcDbLine
 62
7
  6
CONTINUOUS
 10
-0.9548818995
 20
-7.8094114005
 11
-0.8486318995
 21
-7.7009007624
  0
LINE
  5
359
100
AcDbEntity
  8
0
100
AcDbLine
 62
7
  6
CONTINUOUS
 10
-0.1402986337
 20
-6.579624123
 11
0.0013678979
 21
-6.4711134977
  0
LINE
  5
35A
100
AcDbEntity
  8
0
100
AcDbLine
 62
7
  6
CONTINUOUS
 10
-1.6277986337
 20
-6.5434539146
 11
-1.5215486337
 21
-6.4711134977
  0
LINE
  5
35B
100
AcDbEntity
  8
0
100
AcDbLine
 62
7
  6
CONTINUOUS
 10
-1.7340486337
 20
-6.3987730808
 11
-1.5569653679
 21
-6.2902624554
  0
LINE
  5
35C
100
AcDbEntity
  8
0
100
AcDbLine
 62
7
  6
CONTINUOUS
 10
-0.2111318995
 20
-6.3987730808
 11
-0.0340486337
 21
-6.2902624554
  0
LINE
  5
35D
100
AcDbEntity
  8
RACCORDO
100
AcDbLine
 62
7
  6
CONTINUOUS
 10
-7.4106129776
 20
4.8256391006
 11
-7.1699842898
 21
4.8256391006
  0
LINE
  5
35E
100
AcDbEntity
  8
RACCORDO
100
AcDbLine
 62
7
  6
CONTINUOUS
 10
6.8893870224
 20
4.8256391006
 11
7.1300157102
 21
4.8256391006
  0
LINE
  5
35F
100
AcDbEntity
  8
RACCORDO
100
AcDbLine
 62
253
  6
CONTINUOUS
 10
-7.3832100099
 20
4.8530420683
 11
-7.1973872574
 21
4.8530420683
  0
LINE
  5
360
100
AcDbEntity
  8
RACCORDO
100
AcDbLine
 62
253
  6
CONTINUOUS
 10
6.9167899901
 20
4.8530420683
 11
7.1026127426
 21
4.8530420683
  0
LINE
  5
361
100
AcDbEntity
  8
RACCORDO
100
AcDbLine
 62
253
  6
CONTINUOUS
 10
5.5590774778
 20
-7.014370744
 11
5.5965087599
 21
-9.3130498595
  0
LINE
  5
362
100
AcDbEntity
  8
RACCORDO
100
AcDbLine
 62
253
  6
CONTINUOUS
 10
5.8089251614
 20
-6.9087147612
 11
5.8387489046
 21
-8.7402100168
  0
LINE
  5
363
100
AcDbEntity
  8
RACCORDO
100
AcDbLine
 62
253
  6
CONTINUOUS
 10
5.30112356
 20
-4.843800668
 11
5.30112356
 21
-6.0541978579
  0
LINE
  5
364
100
AcDbEntity
  8
RACCORDO
100
AcDbLine
 62
253
  6
CONTINUOUS
 10
5.3604888682
 20
-6.8875820558
 11
5.3604888682
 21
-6.6055796438
  0
LINE
  5
365
100
AcDbEntity
  8
RACCORDO
100
AcDbLine
 62
253
  6
CONTINUOUS
 10
5.5589138645
 20
-6.6055796438
 11
5.5589138645
 21
-6.8875820558
  0
LINE
  5
366
100
AcDbEntity
  8
RACCORDO
100
AcDbLine
 62
253
  6
CONTINUOUS
 10
5.6182791726
 20
-4.8438006402
 11
5.6182791726
 21
-6.0541978579
  0
LINE
  5
367
100
AcDbEntity
  8
RACCORDO
100
AcDbLine
 62
253
  6
CONTINUOUS
 10
5.8087615712
 20
-6.6055780035
 11
5.8087615712
 21
-6.8875838481
  0
LINE
  5
368
100
AcDbEntity
  8
RACCORDO
100
AcDbLine
 62
7
  6
CONTINUOUS
 10
5.8387489046
 20
-8.7402100168
 11
5.8387489046
 21
-9.5199154056
  0
LINE
  5
369
100
AcDbEntity
  8
RACCORDO
100
AcDbLine
 62
253
  6
CONTINUOUS
 10
5.8681268794
 20
-4.8437988794
 11
5.8681268794
 21
-6.2638671547
  0
LINE
  5
36A
100
AcDbEntity
  8
RACCORDO
100
AcDbLine
 62
253
  6
CONTINUOUS
 10
5.3228939728
 20
-9.3130498595
 11
5.3603252549
 21
-7.014370744
  0
LINE
  5
36B
100
AcDbEntity
  8
0
100
AcDbLine
 62
7
  6
CONTINUOUS
 10
2.8347013663
 20
-6.5072837061
 11
3.0472013663
 21
-6.2540922469
  0
LINE
  5
36C
100
AcDbEntity
  8
0
100
AcDbLine
 62
7
  6
CONTINUOUS
 10
1.1347013663
 20
-7.2306879765
 11
1.9847013663
 21
-6.2540922469
  0
LINE
  5
36D
100
AcDbEntity
  8
0
100
AcDbLine
 62
7
  6
CONTINUOUS
 10
1.3826178979
 20
-7.2306879765
 11
1.9847013663
 21
-6.5434539146
  0
LINE
  5
36E
100
AcDbEntity
  8
0
100
AcDbLine
 62
7
  6
CONTINUOUS
 10
0.6388678979
 20
-7.0498369343
 11
0.7451178979
 21
-6.9413263089
  0
LINE
  5
36F
100
AcDbEntity
  8
0
100
AcDbLine
 62
7
  6
CONTINUOUS
 10
0.6742848348
 20
-7.8094114005
 11
0.7805348348
 21
-7.7009007624
  0
LINE
  5
370
100
AcDbEntity
  8
0
100
AcDbLine
 62
7
  6
CONTINUOUS
 10
-0.3527986337
 20
-7.2306879765
 11
-0.2111318995
 21
-7.1221773512
  0
LINE
  5
371
100
AcDbEntity
  8
0
100
AcDbLine
 62
7
  6
CONTINUOUS
 10
0.4263678979
 20
-6.9774965173
 11
0.5680348348
 21
-6.868985892
  0
LINE
  5
372
100
AcDbEntity
  8
0
100
AcDbLine
 62
7
  6
CONTINUOUS
 10
-1.1673818995
 20
-7.7370709709
 11
-1.0611318995
 21
-7.664730554
  0
LINE
  5
373
100
AcDbEntity
  8
0
100
AcDbLine
 62
7
  6
CONTINUOUS
 10
-1.1319653679
 20
-7.9179220353
 11
-0.9548818995
 21
-7.8094114005
  0
LINE
  5
374
100
AcDbEntity
  8
0
100
AcDbLine
 62
7
  6
CONTINUOUS
 10
-0.2111318995
 20
-7.1221773512
 11
-0.1402986337
 21
-7.0860071427
  0
LINE
  5
375
100
AcDbEntity
  8
0
100
AcDbLine
 62
7
  6
CONTINUOUS
 10
-0.1402986337
 20
-7.266858185
 11
0.0013678979
 21
-7.1945177681
  0
LINE
  5
376
100
AcDbEntity
  8
RACCORDO
100
AcDbLine
 62
253
  6
CONTINUOUS
 10
-7.6797342049
 20
5.3529659431
 11
-6.9008630625
 21
5.3529659431
  0
LINE
  5
377
100
AcDbEntity
  8
RACCORDO
100
AcDbLine
 62
253
  6
CONTINUOUS
 10
6.6202657951
 20
5.3529659431
 11
7.3991369375
 21
5.3529659431
  0
LINE
  5
378
100
AcDbEntity
  8
RACCORDO
100
AcDbLine
 62
253
  6
CONTINUOUS
 10
6.6086462128
 20
7.4873291093
 11
6.6192433011
 21
6.8802223281
  0
LINE
  5
379
100
AcDbEntity
  8
RACCORDO
100
AcDbLine
 62
253
  6
CONTINUOUS
 10
6.9086005397
 20
7.6994600916
 11
6.9191975918
 21
7.0923553853
  0
LINE
  5
37A
100
AcDbEntity
  8
RACCORDO
100
AcDbLine
 62
253
  6
CONTINUOUS
 10
6.6045562367
 20
9.6883974287
 11
6.6045562367
 21
8.0530145343
  0
LINE
  5
37B
100
AcDbEntity
  8
RACCORDO
100
AcDbLine
 62
253
  6
CONTINUOUS
 10
6.6202657951
 20
6.7388009719
 11
6.6202657951
 21
5.3529659431
  0
LINE
  5
37C
100
AcDbEntity
  8
RACCORDO
100
AcDbLine
 62
253
  6
CONTINUOUS
 10
6.9045105453
 20
9.6935425583
 11
6.9045105453
 21
8.0530159922
  0
LINE
  5
37D
100
AcDbEntity
  8
RACCORDO
100
AcDbLine
 62
253
  6
CONTINUOUS
 10
6.9202201037
 20
6.7387994425
 11
6.9202201037
 21
5.3529675877
  0
LINE
  5
37E
100
AcDbEntity
  8
RACCORDO
100
AcDbLine
 62
253
  6
CONTINUOUS
 10
7.0991826289
 20
5.3529675877
 11
7.0991826289
 21
6.7387994425
  0
LINE
  5
37F
100
AcDbEntity
  8
RACCORDO
100
AcDbLine
 62
253
  6
CONTINUOUS
 10
7.1148921874
 20
8.0530159937
 11
7.1148921874
 21
9.6935425583
  0
LINE
  5
380
100
AcDbEntity
  8
RACCORDO
100
AcDbLine
 62
253
  6
CONTINUOUS
 10
7.1442313125
 20
-9.5199154056
 11
7.1442313125
 21
-11.125480578
  0
LINE
  5
381
100
AcDbEntity
  8
RACCORDO
100
AcDbLine
 62
253
  6
CONTINUOUS
 10
7.3174363932
 20
-9.5321938617
 11
7.3174363932
 21
-11.1307213559
  0
LINE
  5
382
100
AcDbEntity
  8
RACCORDO
100
AcDbLine
 62
253
  6
CONTINUOUS
 10
7.1002051408
 20
7.0923553853
 11
7.1108021929
 21
7.6994600925
  0
LINE
  5
383
100
AcDbEntity
  8
RACCORDO
100
AcDbLine
 62
253
  6
CONTINUOUS
 10
7.4001594315
 20
6.8802223281
 11
7.4107565198
 21
7.4873291093
  0
LINE
  5
384
100
AcDbEntity
  8
RACCORDO
100
AcDbLine
 62
253
  6
CONTINUOUS
 10
5.6110649622
 20
-6.0540922469
 11
5.5603567701
 21
-6.310135357
  0
LINE
  5
385
100
AcDbEntity
  8
RACCORDO
100
AcDbLine
 62
253
  6
CONTINUOUS
 10
5.8681268794
 20
-6.2638671547
 11
5.8102044133
 21
-6.5563376158
  0
LINE
  5
386
100
AcDbEntity
  8
0
100
AcDbLine
 62
7
  6
CONTINUOUS
 10
2.8347013663
 20
-6.7966454751
 11
3.0472013663
 21
-6.5434539146
  0
LINE
  5
387
100
AcDbEntity
  8
RACCORDO
100
AcDbLine
 62
253
  6
CONTINUOUS
 10
5.6687265852
 20
-4.4952193213
 11
5.6199643449
 21
-4.5439815616
  0
LINE
  5
388
100
AcDbEntity
  8
0
100
AcDbLine
 62
7
  6
CONTINUOUS
 10
0.4972013663
 20
-7.9179220353
 11
0.6742848348
 21
-7.8094114005
  0
LINE
  5
389
100
AcDbEntity
  8
0
100
AcDbLine
 62
7
  6
CONTINUOUS
 10
0.5680348348
 20
-7.0860071427
 11
0.6388678979
 21
-7.0498369343
  0
LINE
  5
38A
100
AcDbEntity
  8
0
100
AcDbLine
 62
7
  6
CONTINUOUS
 10
0.4263678979
 20
-7.7370709709
 11
0.5680348348
 21
-7.664730554
  0
LINE
  5
38B
100
AcDbEntity
  8
RACCORDO
100
AcDbLine
 62
253
  6
CONTINUOUS
 10
6.6202657951
 20
6.7388009719
 11
7.3991369375
 21
6.7388009719
  0
LINE
  5
38C
100
AcDbEntity
  8
RACCORDO
100
AcDbLine
 62
253
  6
CONTINUOUS
 10
-6.9008630625
 20
6.7388009719
 11
-7.6797342049
 21
6.7388009719
  0
LINE
  5
38D
100
AcDbEntity
  8
RACCORDO
100
AcDbLine
 62
253
  6
CONTINUOUS
 10
7.1002051408
 20
7.0923553853
 11
6.9191975918
 21
7.0923553853
  0
LINE
  5
38E
100
AcDbEntity
  8
RACCORDO
100
AcDbLine
 62
253
  6
CONTINUOUS
 10
-7.1997948592
 20
7.0923553853
 11
-7.3808024082
 21
7.0923553853
  0
LINE
  5
38F
100
AcDbEntity
  8
RACCORDO
100
AcDbLine
 62
253
  6
CONTINUOUS
 10
7.3991369375
 20
5.3529659431
 11
7.3991369375
 21
6.7388009719
  0
LINE
  5
390
100
AcDbEntity
  8
RACCORDO
100
AcDbLine
 62
253
  6
CONTINUOUS
 10
7.4148464959
 20
8.0530145343
 11
7.4148464959
 21
9.6883974287
  0
LINE
  5
391
100
AcDbEntity
  8
DRAFT
100
AcDbLine
 62
7
  6
CONTINUOUS
 10
8.1097013663
 20
10.9197271497
 11
8.1097013663
 21
9.6935425583
  0
LINE
  5
392
100
AcDbEntity
  8
DRAFT
100
AcDbLine
 62
7
  6
CONTINUOUS
 10
8.3721673569
 20
10.9459077531
 11
8.3721673569
 21
9.7459077531
  0
LINE
  5
393
100
AcDbEntity
  8
DRAFT
100
AcDbLine
 62
7
  6
CONTINUOUS
 10
7.6656550672
 20
-11.1623301875
 11
7.7434198431
 21
-9.6227873777
  0
LINE
  5
394
100
AcDbEntity
  8
RACCORDO
100
AcDbLine
 62
7
  6
CONTINUOUS
 10
5.8938428204
 20
-9.3262002511
 11
5.8387489046
 21
-9.5199154056
  0
LINE
  5
395
100
AcDbEntity
  8
RACCORDO
100
AcDbLine
 62
253
  6
CONTINUOUS
 10
5.9177922491
 20
-4.7458490709
 11
5.869811982
 21
-4.793829338
  0
LINE
  5
396
100
AcDbEntity
  8
DRAFT
100
AcDbLine
 62
7
  6
CONTINUOUS
 10
8.3721673569
 20
9.7459077531
 11
8.1097013663
 21
9.6935425583
  0
LINE
  5
397
100
AcDbEntity
  8
RACCORDO
100
AcDbLine
 62
253
  6
CONTINUOUS
 10
-7.3913994603
 20
7.6994600916
 11
-7.1891978071
 21
7.6994600925
  0
LINE
  5
398
100
AcDbEntity
  8
RACCORDO
100
AcDbLine
 62
253
  6
CONTINUOUS
 10
6.9086005397
 20
7.6994600916
 11
7.1108021929
 21
7.6994600925
  0
LINE
  5
399
100
AcDbEntity
  8
RACCORDO
100
AcDbLine
 62
253
  6
CONTINUOUS
 10
-7.6954437633
 20
8.0530145343
 11
-6.8851535041
 21
8.0530145343
  0
LINE
  5
39A
100
AcDbEntity
  8
RACCORDO
100
AcDbLine
 62
253
  6
CONTINUOUS
 10
6.6045562367
 20
8.0530145343
 11
7.4148464959
 21
8.0530145343
  0
LINE
  5
39B
100
AcDbEntity
  8
0
100
AcDbLine
 62
7
  6
CONTINUOUS
 10
-4.6843687591
 20
8.1548664671
 11
-1.5360456847
 21
8.1548664671
  0
LINE
  5
39C
100
AcDbEntity
  8
0
100
AcDbLine
 62
7
  6
CONTINUOUS
 10
1.2554484173
 20
8.1548664671
 11
4.4037714918
 21
8.1548664671
  0
LINE
  5
39D
100
AcDbEntity
  8
DRAFT
100
AcDbLine
 62
7
  6
CONTINUOUS
 10
-8.6527646243
 20
9.7459077531
 11
-8.3902986337
 21
9.6935425583
  0
LINE
  5
39E
100
AcDbEntity
  8
RACCORDO
100
AcDbLine
 62
253
  6
CONTINUOUS
 10
9.5485380402
 20
-9.6227873777
 11
9.5063751859
 21
-9.3262002511
  0
LINE
  5
39F
100
AcDbEntity
  8
RACCORDO
100
AcDbLine
 62
253
  6
CONTINUOUS
 10
9.7484468581
 20
-9.4238510153
 11
9.7063447249
 21
-9.1276910207
  0
LINE
  5
3A0
100
AcDbEntity
  8
0
100
AcDbLine
 62
7
  6
CONTINUOUS
 10
9.3597013663
 20
0.7459077531
 11
9.3597013663
 21
-3.0540922469
  0
LINE
  5
3A1
100
AcDbEntity
  8
RACCORDO
100
AcDbLine
 62
7
  6
CONTINUOUS
 10
-1.3357968644
 20
8.633259033
 11
1.055199597
 21
8.633259033
  0
LINE
  5
3A2
100
AcDbEntity
  8
RACCORDO
100
AcDbLine
 62
7
  6
CONTINUOUS
 10
-1.3356981139
 20
8.8935425583
 11
1.0551008465
 21
8.8935425583
  0
LINE
  5
3A3
100
AcDbEntity
  8
RACCORDO
100
AcDbLine
 62
253
  6
CONTINUOUS
 10
7.1300157102
 20
4.8256391006
 11
7.1026127426
 21
4.8530420683
  0
LINE
  5
3A4
100
AcDbEntity
  8
RACCORDO
100
AcDbLine
 62
253
  6
CONTINUOUS
 10
7.4300337663
 20
5.1255296616
 11
7.4025670239
 21
5.152996404
  0
LINE
  5
3A5
100
AcDbEntity
  8
RACCORDO
100
AcDbLine
 62
253
  6
CONTINUOUS
 10
9.4917625327
 20
0.7459077531
 11
9.4914207457
 21
1.5744091558
  0
LINE
  5
3A6
100
AcDbEntity
  8
RACCORDO
100
AcDbLine
 62
253
  6
CONTINUOUS
 10
9.5063751859
 20
-9.3262002511
 11
9.5063751859
 21
-9.1557399421
  0
LINE
  5
3A7
100
AcDbEntity
  8
DRAFT
100
AcDbLine
 62
7
  6
CONTINUOUS
 10
9.7428244673
 20
0.7459077531
 11
9.7428244673
 21
-3.0540922469
  0
LINE
  5
3A8
100
AcDbEntity
  8
RACCORDO
100
AcDbLine
 62
7
  6
CONTINUOUS
 10
9.7597013663
 20
9.545938214
 11
9.7597013663
 21
-2.0540922469
  0
LINE
  5
3A9
100
AcDbEntity
  8
RACCORDO
100
AcDbLine
 62
7
  6
CONTINUOUS
 10
9.7597013663
 20
-2.0540922469
 11
9.7484468581
 21
-9.4238510153
  0
LINE
  5
3AA
100
AcDbEntity
  8
DRAFT
100
AcDbLine
 62
7
  6
CONTINUOUS
 10
8.3721673569
 20
10.9459077531
 11
8.1097013663
 21
10.9197271497
  0
LINE
  5
3AB
100
AcDbEntity
  8
RACCORDO
100
AcDbLine
 62
7
  6
CONTINUOUS
 10
-9.7670508395
 20
9.6726294979
 11
-7.7112116941
 21
9.6726294979
  0
LINE
  5
3AC
100
AcDbEntity
  8
DRAFT
100
AcDbLine
 62
7
  6
CONTINUOUS
 10
6.5887883059
 20
9.6726294979
 11
1.2548725841
 21
9.6726294979
  0
LINE
  5
3AD
100
AcDbEntity
  8
DRAFT
100
AcDbLine
 62
7
  6
CONTINUOUS
 10
-1.5354698515
 20
9.6726294979
 11
-6.8693855733
 21
9.6726294979
  0
LINE
  5
3AE
100
AcDbEntity
  8
RACCORDO
100
AcDbLine
 62
7
  6
CONTINUOUS
 10
7.4306144267
 20
9.6726294979
 11
9.4864535721
 21
9.6726294979
  0
LINE
  5
3AF
100
AcDbEntity
  8
RACCORDO
100
AcDbLine
 62
7
  6
CONTINUOUS
 10
-8.3902986337
 20
9.6935425583
 11
-7.3954894547
 21
9.6935425583
  0
LINE
  5
3B0
100
AcDbEntity
  8
RACCORDO
100
AcDbLine
 62
7
  6
CONTINUOUS
 10
-7.1851078126
 20
9.6935425583
 11
-1.6072225853
 21
9.6935425583
  0
LINE
  5
3B1
100
AcDbEntity
  8
RACCORDO
100
AcDbLine
 62
7
  6
CONTINUOUS
 10
1.3266253179
 20
9.6935425583
 11
6.9045105453
 21
9.6935425583
  0
LINE
  5
3B2
100
AcDbEntity
  8
RACCORDO
100
AcDbLine
 62
7
  6
CONTINUOUS
 10
7.1148921874
 20
9.6935425583
 11
8.1097013663
 21
9.6935425583
  0
LINE
  5
3B3
100
AcDbEntity
  8
RACCORDO
100
AcDbLine
 62
7
  6
CONTINUOUS
 10
-9.8403290947
 20
9.7459077531
 11
-8.6527646243
 21
9.7459077531
  0
LINE
  5
3B4
100
AcDbEntity
  8
RACCORDO
100
AcDbLine
 62
7
  6
CONTINUOUS
 10
8.3721673569
 20
9.7459077531
 11
9.5597318273
 21
9.7459077531
  0
LINE
  5
3B5
100
AcDbEntity
  8
DRAFT
100
AcDbLine
 62
7
  6
CONTINUOUS
 10
-8.6527646243
 20
10.9459077531
 11
-8.3902986337
 21
10.9197271497
  0
LINE
  5
3B6
100
AcDbEntity
  8
RACCORDO
100
AcDbLine
 62
7
  6
CONTINUOUS
 10
11.0097013663
 20
10.6959743743
 11
11.0097013663
 21
-2.0540922469
  0
LINE
  5
3B7
100
AcDbEntity
  8
0
100
AcDbLine
 62
7
  6
CONTINUOUS
 10
10.983394057
 20
-10.6648395547
 11
11.0097013663
 21
-2.0540922469
  0
LINE
  5
3B8
100
AcDbEntity
  8
DRAFT
100
AcDbLine
 62
7
  6
CONTINUOUS
 10
-8.3902986337
 20
10.9197271497
 11
8.1097013663
 21
10.9197271497
  0
LINE
  5
3B9
100
AcDbEntity
  8
RACCORDO
100
AcDbLine
 62
7
  6
CONTINUOUS
 10
-11.0402224319
 20
10.9459077531
 11
-8.6527646243
 21
10.9459077531
  0
LINE
  5
3BA
100
AcDbEntity
  8
RACCORDO
100
AcDbLine
 62
7
  6
CONTINUOUS
 10
8.3721673569
 20
10.9459077531
 11
10.7596251646
 21
10.9459077531
  0
LINE
  5
3BB
100
AcDbEntity
  8
RACCORDO
100
AcDbLine
 62
7
  6
CONTINUOUS
 10
7.4306144267
 20
9.6726294979
 11
7.4148464959
 21
9.6883974287
  0
ARC
  5
3BC
100
AcDbEntity
  8
RACCORDO
100
AcDbCircle
 62
253
  6
CONTINUOUS
 10
-53.6404328809
 20
-6.8895992536
 40
47.8009216371
100
AcDbArc
 50
359.8504445569
 51
0.0024178806
  0
ARC
  5
3BD
100
AcDbEntity
  8
RACCORDO
100
AcDbCircle
 62
253
  6
CONTINUOUS
 10
-42.4404328797
 20
-6.8895992536
 40
47.8009216358
100
AcDbArc
 50
359.8504445569
 51
0.0024178806
  0
ARC
  5
3BE
100
AcDbEntity
  8
RACCORDO
100
AcDbCircle
 62
253
  6
CONTINUOUS
 10
-7.4175928836
 20
-6.8879170397
 40
1.328233936
100
AcDbArc
 50
359.1028154668
 51
0.0143728204
  0
ARC
  5
3BF
100
AcDbEntity
  8
RACCORDO
100
AcDbCircle
 62
253
  6
CONTINUOUS
 10
-4.0887472878
 20
-6.8881154848
 40
1.3024906562
100
AcDbArc
 50
179.9766136322
 51
180.906187683
  0
ARC
  5
3C0
100
AcDbEntity
  8
RACCORDO
100
AcDbCircle
 62
253
  6
CONTINUOUS
 10
-5.9001913757
 20
-4.7941995049
 40
0.2502219908
100
AcDbArc
 50
90.0847620696
 51
179.9152379304
  0
ARC
  5
3C1
100
AcDbEntity
  8
RACCORDO
100
AcDbCircle
 62
253
  6
CONTINUOUS
 10
-5.5804058917
 20
-4.7941995049
 40
0.2502219908
100
AcDbArc
 50
0.0847620722
 51
89.9152379277
  0
ARC
  5
3C2
100
AcDbEntity
  8
RACCORDO
100
AcDbCircle
 62
253
  6
CONTINUOUS
 10
-47.0347503699
 20
6.7637699537
 40
53.9549628004
100
AcDbArc
 50
359.9734833549
 51
0.3489332365
  0
ARC
  5
3C3
100
AcDbEntity
  8
RACCORDO
100
AcDbCircle
 62
253
  6
CONTINUOUS
 10
-61.3347503695
 20
6.7637699537
 40
53.9549628
100
AcDbArc
 50
359.9734833549
 51
0.3489332365
  0
CIRCLE
  5
3C4
100
AcDbEntity
  8
0
100
AcDbCircle
 62
7
  6
CONTINUOUS
 10
-3.9402986337
 20
4.5459077531
 40
0.6
  0
CIRCLE
  5
3C5
100
AcDbEntity
  8
ASSI
100
AcDbCircle
 62
7
  6
CONTINUOUS
 10
-3.9402986337
 20
4.5459077531
 40
0.6
  0
ARC
  5
3C6
100
AcDbEntity
  8
RACCORDO
100
AcDbCircle
 62
253
  6
CONTINUOUS
 10
-7.1974968386
 20
5.153105958
 40
0.3000646363
100
AcDbArc
 50
270.0209188115
 51
359.9790811885
  0
ARC
  5
3C7
100
AcDbEntity
  8
RACCORDO
100
AcDbCircle
 62
253
  6
CONTINUOUS
 10
-7.3831004312
 20
5.1531059556
 40
0.3000646363
100
AcDbArc
 50
180.0209183519
 51
269.9790816481
  0
ARC
  5
3C8
100
AcDbEntity
  8
RACCORDO
100
AcDbCircle
 62
7
  6
CONTINUOUS
 10
-7.1699428085
 20
5.1256251438
 40
0.2999815436
100
AcDbArc
 50
269.9920772919
 51
359.9817628306
  0
ARC
  5
3C9
100
AcDbEntity
  8
RACCORDO
100
AcDbCircle
 62
7
  6
CONTINUOUS
 10
-7.4106577005
 20
5.1256216298
 40
0.2999772472
100
AcDbArc
 50
180.017566193
 51
270.0085419317
  0
ARC
  5
3CA
100
AcDbEntity
  8
RACCORDO
100
AcDbCircle
 62
7
  6
CONTINUOUS
 10
-9.7670508445
 20
9.4725909027
 40
0.2000385952
100
AcDbArc
 50
89.9999985534
 51
90.982501096
  0
ARC
  5
3CB
100
AcDbEntity
  8
RACCORDO
100
AcDbCircle
 62
253
  6
CONTINUOUS
 10
41.2549240694
 20
-6.8907618699
 40
46.896009726
100
AcDbArc
 50
179.9961150229
 51
180.1510208453
  0
ARC
  5
3CC
100
AcDbEntity
  8
RACCORDO
100
AcDbCircle
 62
253
  6
CONTINUOUS
 10
52.4549240682
 20
-6.8907618699
 40
46.8960097248
100
AcDbArc
 50
179.9961150229
 51
180.1510208453
  0
ARC
  5
3CD
100
AcDbEntity
  8
RACCORDO
100
AcDbCircle
 62
253
  6
CONTINUOUS
 10
3.7824071164
 20
-6.8879170397
 40
1.328233936
100
AcDbArc
 50
359.1028154668
 51
0.0143728204
  0
ARC
  5
3CE
100
AcDbEntity
  8
RACCORDO
100
AcDbCircle
 62
253
  6
CONTINUOUS
 10
7.1112527122
 20
-6.8881154848
 40
1.3024906562
100
AcDbArc
 50
179.9766136322
 51
180.906187683
  0
ARC
  5
3CF
100
AcDbEntity
  8
RACCORDO
100
AcDbCircle
 62
253
  6
CONTINUOUS
 10
5.2998086243
 20
-4.7941995049
 40
0.2502219908
100
AcDbArc
 50
90.0847620704
 51
179.9152379296
  0
ARC
  5
3D0
100
AcDbEntity
  8
RACCORDO
100
AcDbCircle
 62
253
  6
CONTINUOUS
 10
5.6195941083
 20
-4.7941995049
 40
0.2502219908
100
AcDbArc
 50
0.0847620721
 51
89.9152379278
  0
ARC
  5
3D1
100
AcDbEntity
  8
RACCORDO
100
AcDbCircle
 62
253
  6
CONTINUOUS
 10
61.0541530907
 20
6.7637699662
 40
53.9549627885
100
AcDbArc
 50
179.6510667767
 51
180.0265166584
  0
ARC
  5
3D2
100
AcDbEntity
  8
RACCORDO
100
AcDbCircle
 62
253
  6
CONTINUOUS
 10
46.7541530907
 20
6.7637699697
 40
53.9549627884
100
AcDbArc
 50
179.6510667804
 51
180.0265166621
  0
ARC
  5
3D3
100
AcDbEntity
  8
0
100
AcDbCircle
 62
7
  6
CONTINUOUS
 10
-0.1402986337
 20
8.6396577531
 40
1.80625
100
AcDbArc
 50
39.4310819637
 51
140.5689180363
  0
ARC
  5
3D4
100
AcDbEntity
  8
DRAFT
100
AcDbCircle
 62
7
  6
CONTINUOUS
 10
-0.1402986337
 20
8.6396577531
 40
1.80625
100
AcDbArc
 50
35.6946680385
 51
144.3053319615
  0
CIRCLE
  5
3D5
100
AcDbEntity
  8
0
100
AcDbCircle
 62
7
  6
CONTINUOUS
 10
3.6597013663
 20
4.5459077531
 40
0.6
  0
CIRCLE
  5
3D6
100
AcDbEntity
  8
ASSI
100
AcDbCircle
 62
7
  6
CONTINUOUS
 10
3.6597013663
 20
4.5459077531
 40
0.6
  0
ARC
  5
3D7
100
AcDbEntity
  8
RACCORDO
100
AcDbCircle
 62
253
  6
CONTINUOUS
 10
7.1025031614
 20
5.153105958
 40
0.3000646363
100
AcDbArc
 50
270.0209188115
 51
359.9790811885
  0
ARC
  5
3D8
100
AcDbEntity
  8
RACCORDO
100
AcDbCircle
 62
253
  6
CONTINUOUS
 10
6.9168995688
 20
5.1531059556
 40
0.3000646363
100
AcDbArc
 50
180.0209183519
 51
269.9790816481
  0
ARC
  5
3D9
100
AcDbEntity
  8
RACCORDO
100
AcDbCircle
 62
7
  6
CONTINUOUS
 10
7.1300571915
 20
5.1256251438
 40
0.2999815436
100
AcDbArc
 50
269.9920772919
 51
359.9817628306
  0
ARC
  5
3DA
100
AcDbEntity
  8
RACCORDO
100
AcDbCircle
 62
7
  6
CONTINUOUS
 10
6.8893422995
 20
5.1256216298
 40
0.2999772472
100
AcDbArc
 50
180.017566193
 51
270.0085419317
  0
ARC
  5
3DB
100
AcDbEntity
  8
RACCORDO
100
AcDbCircle
 62
7
  6
CONTINUOUS
 10
9.4864535746
 20
9.472590609
 40
0.2000388889
100
AcDbArc
 50
89.0174996253
 51
90.0000007252
  0
SPLINE
  5
3DC
100
AcDbEntity
  8
0
100
AcDbSpline
 62
7
  6
CONTINUOUS
 70
0
 71
3
 72
26
 73
22
 74
20
 42
0.0000001
 43
0.0000001
 44
0.0000000001
 12
-0.8875345956
 22
0.0
 32
0.0
 13
0.0000021832
 23
0.8875346059
 33
0.0
 40
0.0
 40
0.0
 40
0.0
 40
0.0
 40
0.0559030227
 40
0.1108187532
 40
0.1646459105
 40
0.2173804463
 40
0.269454373
 40
0.3209795559
 40
0.371918555
 40
0.4223270966
 40
0.4727019884
 40
0.5231411479
 40
0.5736302676
 40
0.6242483112
 40
0.6754902526
 40
0.7274179022
 40
0.7799864225
 40
0.8332849773
 40
0.8877429803
 40
0.9433514842
 40
1.0
 40
1.0
 40
1.0
 40
1.0
 10
-4.6889835079
 20
2.7360396302
 30
0.0
 10
-4.7055221301
 20
2.7360396302
 30
0.0
 10
-4.7383233423
 20
2.7373418608
 30
0.0
 10
-4.7867296904
 20
2.7432118916
 30
0.0
 10
-4.83358017
 20
2.7528244653
 30
0.0
 10
-4.8786756071
 20
2.7660125725
 30
0.0
 10
-4.9218927756
 20
2.7826351283
 30
0.0
 10
-4.9630977857
 20
2.8025670648
 30
0.0
 10
-5.002065788
 20
2.82562666
 30
0.0
 10
-5.0386868421
 20
2.8516727341
 30
0.0
 10
-5.0728789818
 20
2.8806065298
 30
0.0
 10
-5.1045285998
 20
2.9123354942
 30
0.0
 10
-5.1334393989
 20
2.9466724335
 30
0.0
 10
-5.1595055109
 20
2.9835066398
 30
0.0
 10
-5.1826167519
 20
3.0227585158
 30
0.0
 10
-5.2026220758
 20
3.0643223775
 30
0.0
 10
-5.2193271216
 20
3.1079709839
 30
0.0
 10
-5.2325947883
 20
3.1535639697
 30
0.0
 10
-5.2422741375
 20
3.200970929
 30
0.0
 10
-5.2481899936
 20
3.2499884799
 30
0.0
 10
-5.2495029209
 20
3.2832152687
 30
0.0
 10
-5.2495028796
 20
3.2999744414
 30
0.0
 11
-4.6889835079
 21
2.7360396302
 31
0.0
 11
-4.7385595365
 21
2.7380274964
 31
0.0
 11
-4.7869425101
 21
2.743912861
 31
0.0
 11
-4.8337376897
 21
2.7535313355
 31
0.0
 11
-4.8786556771
 21
2.7666828785
 31
0.0
 11
-4.9217877334
 21
2.783286337
 31
0.0
 11
-4.9629501979
 21
2.8032091729
 31
0.0
 11
-5.0018544415
 21
2.8262399163
 31
0.0
 11
-5.0383101165
 21
2.8521742743
 31
0.0
 11
-5.0724384356
 21
2.8810566837
 31
0.0
 11
-5.1040541341
 21
2.9127503273
 31
0.0
 11
-5.1329186897
 21
2.9470263955
 31
0.0
 11
-5.1588752001
 21
2.9836943514
 31
0.0
 11
-5.181958234
 21
3.0228799687
 31
0.0
 11
-5.2019568472
 21
3.0644025048
 31
0.0
 11
-5.218646572
 21
3.1079716557
 31
0.0
 11
-5.2318791879
 21
3.1533874652
 31
0.0
 11
-5.2415656381
 21
3.2007402532
 31
0.0
 11
-5.2474977783
 21
3.2497369217
 31
0.0
 11
-5.2495028796
 21
3.2999744414
 31
0.0
  0
SPLINE
  5
3DD
100
AcDbEntity
  8
0
100
AcDbSpline
 62
7
  6
CONTINUOUS
 70
0
 71
3
 72
26
 73
22
 74
20
 42
0.0000001
 43
0.0000001
 44
0.0000000001
 12
0.0000021832
 22
-0.8875346059
 32
0.0
 13
-0.8875345956
 23
0.0
 33
0.0
 40
0.0
 40
0.0
 40
0.0
 40
0.0
 40
0.0566468978
 40
0.1122542047
 40
0.1667104674
 40
0.2200090559
 40
0.2725786127
 40
0.3245063261
 40
0.3757472208
 40
0.4263653833
 40
0.4768555088
 40
0.5272946104
 40
0.5776684441
 40
0.6280768853
 40
0.6790168729
 40
0.7305418901
 40
0.7826147777
 40
0.8353494269
 40
0.8891784576
 40
0.9440954423
 40
1.0
 40
1.0
 40
1.0
 40
1.0
 10
4.9689056123
 20
3.2999744414
 30
0.0
 10
4.9689056535
 20
3.2832157474
 30
0.0
 10
4.9675927967
 20
3.2499897928
 30
0.0
 10
4.9616772603
 20
3.2009735643
 30
0.0
 10
4.9519983449
 20
3.1535673983
 30
0.0
 10
4.938731052
 20
3.1079745104
 30
0.0
 10
4.9220261608
 20
3.064325483
 30
0.0
 10
4.9020210605
 20
3.0227614959
 30
0.0
 10
4.8789102034
 20
2.983509694
 30
0.0
 10
4.8528443467
 20
2.9466752785
 30
0.0
 10
4.823933563
 20
2.9123379101
 30
0.0
 10
4.7922841472
 20
2.8806087902
 30
0.0
 10
4.7580924747
 20
2.851675004
 30
0.0
 10
4.7214716574
 20
2.8256286843
 30
0.0
 10
4.6825036231
 20
2.802568718
 30
0.0
 10
4.6412987892
 20
2.782636565
 30
0.0
 10
4.5980820375
 20
2.7660138322
 30
0.0
 10
4.5529864278
 20
2.7528253139
 30
0.0
 10
4.506135058
 20
2.7432122813
 30
0.0
 10
4.4577273556
 20
2.7373419294
 30
0.0
 10
4.4249253169
 20
2.7360396302
 30
0.0
 10
4.4083862406
 20
2.7360396302
 30
0.0
 11
4.9689056123
 21
3.2999744414
 31
0.0
 11
4.966900626
 21
3.2497383543
 31
0.0
 11
4.960968772
 21
3.2007427212
 31
0.0
 11
4.9512828931
 21
3.1533913929
 31
0.0
 11
4.9380505857
 21
3.1079754625
 31
0.0
 11
4.9213608062
 21
3.0644053473
 31
0.0
 11
4.9013623987
 21
3.0228826493
 31
0.0
 11
4.8782800887
 21
2.9836976838
 31
0.0
 11
4.8523237846
 21
2.9470294525
 31
0.0
 11
4.8234588737
 21
2.9127525165
 31
0.0
 11
4.7918433904
 21
2.8810587309
 31
0.0
 11
4.7577159778
 21
2.8521767039
 31
0.0
 11
4.7212605699
 21
2.8262421242
 31
0.0
 11
4.6823557256
 21
2.8032106734
 31
0.0
 11
4.6411935117
 21
2.7832876574
 31
0.0
 11
4.5980624286
 21
2.7666842376
 31
0.0
 11
4.5531444415
 21
2.7535323356
 31
0.0
 11
4.5063476879
 21
2.7439132605
 31
0.0
 11
4.4579636282
 21
2.7380276061
 31
0.0
 11
4.4083862406
 21
2.7360396302
 31
0.0
  0
SPLINE
  5
3DE
100
AcDbEntity
  8
0
100
AcDbSpline
 62
7
  6
CONTINUOUS
 70
0
 71
3
 72
26
 73
22
 74
20
 42
0.0000001
 43
0.0000001
 44
0.0000000001
 12
0.890898177
 22
0.0
 32
0.0
 13
0.0000021915
 23
-0.8908981874
 33
0.0
 40
0.0
 40
0.0
 40
0.0
 40
0.0
 40
0.0561947805
 40
0.1114356311
 40
0.1656076669
 40
0.2186945524
 40
0.2711170209
 40
0.3229671308
 40
0.3741948013
 40
0.4248512124
 40
0.4754237352
 40
0.5259891415
 40
0.5765243375
 40
0.6271138033
 40
0.6782450591
 40
0.7299639846
 40
0.7822219891
 40
0.8351192708
 40
0.8890765206
 40
0.9440745372
 40
1.0
 40
1.0
 40
1.0
 40
1.0
 10
4.4037714918
 20
8.1548664671
 30
0.0
 10
4.4204594343
 20
8.1548664671
 30
0.0
 10
4.4535681501
 20
8.1535532591
 30
0.0
 10
4.5024427099
 20
8.1476361442
 30
0.0
 10
4.5497719921
 20
8.1379444848
 30
0.0
 10
4.5953444683
 20
8.1246465741
 30
0.0
 10
4.6390235492
 20
8.1078873801
 30
0.0
 10
4.6806628192
 20
8.0877985954
 30
0.0
 10
4.7200276975
 20
8.0645703631
 30
0.0
 10
4.7570028484
 20
8.038352138
 30
0.0
 10
4.7915002317
 20
8.009253445
 30
0.0
 10
4.8234012723
 20
7.9773802728
 30
0.0
 10
4.8525098255
 20
7.9429317609
 30
0.0
 10
4.8787244173
 20
7.90602713
 30
0.0
 10
4.9019387651
 20
7.866755651
 30
0.0
 10
4.9220060001
 20
7.8252352953
 30
0.0
 10
4.9387399444
 20
7.7817009218
 30
0.0
 10
4.9520129957
 20
7.7362972072
 30
0.0
 10
4.9616832678
 20
7.6891597736
 30
0.0
 10
4.9675852547
 20
7.6405008801
 30
0.0
 10
4.9688950162
 20
7.6075442854
 30
0.0
 10
4.968895057
 20
7.5909363209
 30
0.0
 11
4.4037714918
 21
8.1548664671
 31
0.0
 11
4.4537952339
 21
8.1528634588
 31
0.0
 11
4.5026503445
 21
8.1469310625
 31
0.0
 11
4.5499276865
 21
8.1372330637
 31
0.0
 11
4.5953251838
 21
8.1239708937
 31
0.0
 11
4.6389241694
 21
8.1072285434
 31
0.0
 11
4.680523865
 21
8.087146857
 31
0.0
 11
4.7198254996
 21
8.0639462789
 31
0.0
 11
4.7566362368
 21
8.0378376627
 31
0.0
 11
4.7910735609
 21
8.0087856253
 31
0.0
 11
4.8229414597
 21
7.9769451489
 31
0.0
 11
4.8520013921
 21
7.9425580138
 31
0.0
 11
4.8781057558
 21
7.9058173992
 31
0.0
 11
4.9012927272
 21
7.8666074933
 31
0.0
 11
4.9213521708
 21
7.8251268495
 31
0.0
 11
4.9380678984
 21
7.7816746019
 31
0.0
 11
4.9513046963
 21
7.7364456764
 31
0.0
 11
4.9609810672
 21
7.6893592378
 31
0.0
 11
4.9668979337
 21
7.6407201722
 31
0.0
 11
4.968895057
 21
7.5909363209
 31
0.0
  0
SPLINE
  5
3DF
100
AcDbEntity
  8
0
100
AcDbSpline
 62
7
  6
CONTINUOUS
 70
0
 71
3
 72
26
 73
22
 74
20
 42
0.0000001
 43
0.0000001
 44
0.0000000001
 12
0.0000021915
 22
0.8908981874
 32
0.0
 13
0.890898177
 23
0.0
 33
0.0
 40
0.0
 40
0.0
 40
0.0
 40
0.0
 40
0.0559239016
 40
0.1109206911
 40
0.1648761043
 40
0.2177732966
 40
0.2700323216
 40
0.3217513816
 40
0.3728816344
 40
0.4234712034
 40
0.4740074273
 40
0.5245728463
 40
0.5751443554
 40
0.6258006623
 40
0.6770293468
 40
0.7288793484
 40
0.7813007964
 40
0.8343877323
 40
0.888561564
 40
0.9438036266
 40
1.0
 40
1.0
 40
1.0
 40
1.0
 10
-5.2494923244
 20
7.5909363209
 30
0.0
 10
-5.2494922836
 20
7.6075438218
 30
0.0
 10
-5.2481825917
 20
7.6404995871
 30
0.0
 10
-5.2422809266
 20
7.6891571324
 30
0.0
 10
-5.2326111083
 20
7.7362936978
 30
0.0
 10
-5.2193384622
 20
7.7816972501
 30
0.0
 10
-5.2026046943
 20
7.8252320331
 30
0.0
 10
-5.1825376828
 20
7.8667525472
 30
0.0
 10
-5.1593237132
 20
7.9060239826
 30
0.0
 10
-5.133109375
 20
7.9429288405
 30
0.0
 10
-5.1040008272
 20
7.9773778053
 30
0.0
 10
-5.072099963
 20
8.0092511654
 30
0.0
 10
-5.0376030228
 20
8.0383498705
 30
0.0
 10
-5.0006280916
 20
8.0645683517
 30
0.0
 10
-4.9612631588
 20
8.0877969655
 30
0.0
 10
-4.9196240353
 20
8.107885975
 30
0.0
 10
-4.8759453655
 20
8.1246453395
 30
0.0
 10
-4.8303727485
 20
8.1379436452
 30
0.0
 10
-4.7830426256
 20
8.1476357516
 30
0.0
 10
-4.7341667249
 20
8.1535531887
 30
0.0
 10
-4.7010571747
 20
8.1548664671
 30
0.0
 10
-4.6843687591
 20
8.1548664671
 30
0.0
 11
-5.2494923244
 21
7.5909363209
 31
0.0
 11
-5.2474953131
 21
7.6407187847
 31
0.0
 11
-5.2415787353
 21
7.6893567842
 31
0.0
 11
-5.2319029591
 21
7.7364416744
 31
0.0
 11
-5.2186665117
 21
7.7816706197
 31
0.0
 11
-5.2019507474
 21
7.8251238272
 31
0.0
 11
-5.1818914945
 21
7.8666046965
 31
0.0
 11
-5.1587052389
 21
7.9058139874
 31
0.0
 11
-5.1326010961
 21
7.9425548718
 31
0.0
 11
-5.1035407985
 21
7.9769428972
 31
0.0
 11
-5.0716730735
 21
8.0087835635
 31
0.0
 11
-5.0372366293
 21
8.0378352434
 31
0.0
 11
-5.0004261611
 21
8.0639440784
 31
0.0
 11
-4.9611239014
 21
8.0871453745
 31
0.0
 11
-4.9195244082
 21
8.1072272584
 31
0.0
 11
-4.8759263809
 21
8.1239695678
 31
0.0
 11
-4.8305289352
 21
8.1372320752
 31
0.0
 11
-4.7832500802
 21
8.14693066
 31
0.0
 11
-4.734393917
 21
8.1528633447
 31
0.0
 11
-4.6843687591
 21
8.1548664671
 31
0.0
  0
SPLINE
  5
3E0
100
AcDbEntity
  8
0
100
AcDbSpline
 62
7
  6
CONTINUOUS
 70
0
 71
3
 72
12
 73
8
 74
6
 42
0.0000001
 43
0.0000001
 44
0.0000000001
 12
0.4330417998
 22
0.0096723041
 32
0.0
 13
-0.0065834484
 23
0.4331211736
 33
0.0
 40
0.0
 40
0.0
 40
0.0
 40
0.0
 40
0.2462397645
 40
0.4749267346
 40
0.5889084728
 40
0.709606815
 40
1.0
 40
1.0
 40
1.0
 40
1.0
 10
2.4203235108
 20
-3.8427640784
 30
0.0
 10
2.4558675477
 20
-3.8419701765
 30
0.0
 10
2.5246831319
 20
-3.8340473326
 30
0.0
 10
2.6040651145
 20
-3.7970651071
 30
0.0
 10
2.6512529137
 20
-3.7486261615
 30
0.0
 10
2.6889426797
 20
-3.6819508338
 30
0.0
 10
2.6965926419
 20
-3.6206314512
 30
0.0
 10
2.6959553791
 20
-3.5787063055
 30
0.0
 11
2.4203235108
 21
-3.8427640784
 31
0.0
 11
2.5259367392
 21
-3.8278669125
 31
0.0
 11
2.6144967509
 21
-3.7834917018
 31
0.0
 11
2.6489049817
 21
-3.7480856875
 31
0.0
 11
2.674877726
 21
-3.7027131913
 31
0.0
 11
2.6959553791
 21
-3.5787063055
 31
0.0
  0
SPLINE
  5
3E1
100
AcDbEntity
  8
0
100
AcDbSpline
 62
7
  6
CONTINUOUS
 70
0
 71
3
 72
11
 73
7
 74
5
 42
0.0000001
 43
0.0000001
 44
0.0000000001
 12
-0.0048423047
 22
0.318566011
 32
0.0
 13
-0.3164879191
 23
0.0367327235
 33
0.0
 40
0.0
 40
0.0
 40
0.0
 40
0.0
 40
0.2571296285
 40
0.4996621496
 40
0.7437430959
 40
1.0
 40
1.0
 40
1.0
 40
1.0
 10
2.6959553896
 20
-3.5787063054
 30
0.0
 10
2.6955403563
 20
-3.551402052
 30
0.0
 10
2.6851772528
 20
-3.4977856456
 30
0.0
 10
2.6405692947
 20
-3.430322801
 30
0.0
 10
2.5748502622
 20
-3.3837827723
 30
0.0
 10
2.5225435164
 20
-3.3692487391
 30
0.0
 10
2.495509445
 20
-3.3661110677
 30
0.0
 11
2.6959553896
 21
-3.5787063054
 31
0.0
 11
2.6796825823
 21
-3.4984155747
 31
0.0
 11
2.6372184394
 21
-3.4338549482
 31
0.0
 11
2.574013187
 21
-3.3885464115
 31
0.0
 11
2.495509445
 21
-3.3661110677
 31
0.0
  0
SPLINE
  5
3E2
100
AcDbEntity
  8
0
100
AcDbSpline
 62
7
  6
CONTINUOUS
 70
0
 71
3
 72
9
 73
5
 74
3
 42
0.0000001
 43
0.0000001
 44
0.0000000001
 12
-0.2771129337
 22
0.0321627199
 32
0.0
 13
-0.2749983205
 23
-0.0469241847
 33
0.0
 40
0.0
 40
0.0
 40
0.0
 40
0.0
 40
0.4842439571
 40
1.0
 40
1.0
 40
1.0
 40
1.0
 10
2.495509445
 20
-3.3661110678
 30
0.0
 10
2.4507793571
 20
-3.3609195336
 30
0.0
 10
2.3574319818
 20
-3.3562120363
 30
0.0
 10
2.2648201465
 20
-3.368051452
 30
0.0
 10
2.2175427979
 20
-3.376118596
 30
0.0
 11
2.495509445
 21
-3.3661110678
 31
0.0
 11
2.3605460307
 21
-3.3602405016
 31
0.0
 11
2.2175427979
 21
-3.376118596
 31
0.0
  0
SPLINE
  5
3E3
100
AcDbEntity
  8
0
100
AcDbSpline
 62
7
  6
CONTINUOUS
 70
0
 71
3
 72
10
 73
6
 74
4
 42
0.0000001
 43
0.0000001
 44
0.0000000001
 12
0.8731819798
 22
0.1284599377
 32
0.0
 13
0.8300707046
 23
-0.2998855628
 33
0.0
 40
0.0
 40
0.0
 40
0.0
 40
0.0
 40
0.4151262789
 40
0.7045762354
 40
1.0
 40
1.0
 40
1.0
 40
1.0
 10
1.8759080302
 20
-3.1063901648
 30
0.0
 10
1.9967349589
 20
-3.0886144661
 30
0.0
 10
2.2033563595
 20
-3.0661024721
 30
0.0
 10
2.4976589445
 20
-3.066047236
 30
0.0
 10
2.669828529
 20
-3.0947559723
 30
0.0
 10
2.7515693999
 20
-3.1242870796
 30
0.0
 11
1.8759080302
 21
-3.1063901648
 31
0.0
 11
2.2404676432
 21
-3.0698882741
 31
0.0
 11
2.4959105696
 21
-3.0730867979
 31
0.0
 11
2.7515693999
 21
-3.1242870796
 31
0.0
  0
SPLINE
  5
3E4
100
AcDbEntity
  8
0
100
AcDbSpline
 62
7
  6
CONTINUOUS
 70
0
 71
3
 72
30
 73
26
 74
24
 42
0.0000001
 43
0.0000001
 44
0.0000000001
 12
0.9983318961
 22
-0.3601517578
 32
0.0
 13
-1.0525823413
 23
-0.1358170763
 33
0.0
 40
0.0
 40
0.0
 40
0.0
 40
0.0
 40
0.0797881799
 40
0.1315384647
 40
0.1894778454
 40
0.2530302088
 40
0.3223412832
 40
0.3594612417
 40
0.3984566782
 40
0.4395805625
 40
0.4610373312
 40
0.4831416449
 40
0.510643022
 40
0.537142881
 40
0.5873949815
 40
0.634406103
 40
0.6785762786
 40
0.7593940158
 40
0.8310702949
 40
0.8931413421
 40
0.9200840425
 40
0.9438866826
 40
0.9805672369
 40
0.992646611
 40
1.0
 40
1.0
 40
1.0
 40
1.0
 10
2.7515693999
 20
-3.1242870796
 30
0.0
 10
2.7781210948
 20
-3.1338656973
 30
0.0
 10
2.8193831973
 20
-3.1566568695
 30
0.0
 10
2.8726173788
 20
-3.1974751818
 30
0.0
 10
2.9161835163
 20
-3.2408943934
 30
0.0
 10
2.9569149057
 20
-3.2950173045
 30
0.0
 10
2.9852058609
 20
-3.3484185129
 30
0.0
 10
3.003509388
 20
-3.3965540058
 30
0.0
 10
3.0148951438
 20
-3.436491294
 30
0.0
 10
3.0217395635
 20
-3.4718160416
 30
0.0
 10
3.0255730826
 20
-3.5015362654
 30
0.0
 10
3.0277217182
 20
-3.5265913017
 30
0.0
 10
3.0288263886
 20
-3.5535037185
 30
0.0
 10
3.028590895
 20
-3.5903956422
 30
0.0
 10
3.0251542073
 20
-3.634120063
 30
0.0
 10
3.0163278012
 20
-3.683454313
 30
0.0
 10
2.999804443
 20
-3.7420970615
 30
0.0
 10
2.9716542704
 20
-3.8061887671
 30
0.0
 10
2.9293816152
 20
-3.869624591
 30
0.0
 10
2.8909357296
 20
-3.911774966
 30
0.0
 10
2.8610851299
 20
-3.9383193081
 30
0.0
 10
2.8366716846
 20
-3.9572935603
 30
0.0
 10
2.8151022045
 20
-3.971502697
 30
0.0
 10
2.7972632841
 20
-3.9800966195
 30
0.0
 10
2.7907335649
 20
-3.9825344429
 30
0.0
 10
2.7881535491
 20
-3.9828673482
 30
0.0
 11
2.7515693999
 21
-3.1242870796
 31
0.0
 11
2.8265939933
 21
-3.163555288
 31
0.0
 11
2.8701588675
 21
-3.1970013625
 31
0.0
 11
2.9137219491
 21
-3.2404003253
 31
0.0
 11
2.954255605
 21
-3.2943108575
 31
0.0
 11
2.9887322021
 21
-3.35929164
 31
0.0
 11
3.0027529682
 21
-3.3961079631
 31
0.0
 11
3.0141241072
 21
-3.4359013541
 31
0.0
 11
3.022467165
 21
-3.4787416483
 31
0.0
 11
3.0253848965
 21
-3.5013262075
 31
0.0
 11
3.0274036873
 21
-3.5246986807
 31
0.0
 11
3.0286059961
 21
-3.553861354
 31
0.0
 11
3.0284111494
 21
-3.5819852063
 31
0.0
 11
3.0241648807
 21
-3.6351488822
 31
0.0
 11
3.0153346638
 21
-3.6842545767
 31
0.0
 11
3.002590281
 21
-3.729367158
 31
0.0
 11
2.9680381474
 21
-3.807872454
 31
0.0
 11
2.9258667394
 21
-3.8711837163
 31
0.0
 11
2.8814343162
 21
-3.9198198909
 31
0.0
 11
2.8600446801
 21
-3.9387969814
 31
0.0
 11
2.8400991372
 21
-3.9542999237
 31
0.0
 11
2.8072194616
 21
-3.9751427655
 31
0.0
 11
2.7956248938
 21
-3.9806124033
 31
0.0
 11
2.7881535491
 21
-3.9828673482
 31
0.0
  0
SPLINE
  5
3E5
100
AcDbEntity
  8
0
100
AcDbSpline
 62
7
  6
CONTINUOUS
 70
0
 71
3
 72
11
 73
7
 74
5
 42
0.0000001
 43
0.0000001
 44
0.0000000001
 12
0.3761208468
 22
-0.1499781877
 32
0.0
 13
0.1064365191
 23
-0.390680815
 33
0.0
 40
0.0
 40
0.0
 40
0.0
 40
0.0
 40
0.2518807061
 40
0.5057298025
 40
0.7626272389
 40
1.0
 40
1.0
 40
1.0
 40
1.0
 10
2.7881535491
 20
-3.9929120553
 30
0.0
 10
2.8197327439
 20
-4.0055042593
 30
0.0
 10
2.8771702521
 20
-4.0473635735
 30
0.0
 10
2.9319265465
 20
-4.136035809
 30
0.0
 10
2.96707806
 20
-4.2309935528
 30
0.0
 10
2.9842777331
 20
-4.2954689922
 30
0.0
 10
2.9926994433
 20
-4.3263813202
 30
0.0
 11
2.7881535491
 21
-3.9929120553
 31
0.0
 11
2.8717061451
 21
-4.0514034735
 31
0.0
 11
2.9285770894
 21
-4.1370258783
 31
0.0
 11
2.9663680296
 21
-4.2339414085
 31
0.0
 11
2.9926994433
 21
-4.3263813202
 31
0.0
  0
SPLINE
  5
3E6
100
AcDbEntity
  8
0
100
AcDbSpline
 62
7
  6
CONTINUOUS
 70
0
 71
3
 72
9
 73
5
 74
3
 42
0.0000001
 43
0.0000001
 44
0.0000000001
 12
0.1250498145
 22
-0.4590019272
 32
0.0
 13
0.1246901953
 23
-0.4590997632
 33
0.0
 40
0.0
 40
0.0
 40
0.0
 40
0.0
 40
0.8019560103
 40
1.0
 40
1.0
 40
1.0
 40
1.0
 10
2.9926994437
 20
-4.32638132
 30
0.0
 10
3.0261275938
 20
-4.4490811048
 30
0.0
 10
3.0654676865
 20
-4.6027083846
 30
0.0
 10
3.1057505435
 20
-4.7560856174
 30
0.0
 10
3.1139819248
 20
-4.7863929336
 30
0.0
 11
2.9926994437
 21
-4.32638132
 31
0.0
 11
3.0898319646
 21
-4.695324932
 31
0.0
 11
3.1139819248
 21
-4.7863929336
 31
0.0
  0
SPLINE
  5
3E7
100
AcDbEntity
  8
0
100
AcDbSpline
 62
7
  6
CONTINUOUS
 70
0
 71
3
 72
12
 73
8
 74
6
 42
0.0000001
 43
0.0000001
 44
0.0000000001
 12
-0.1487496823
 22
0.5173829732
 32
0.0
 13
-0.1893274525
 23
0.5039511133
 33
0.0
 40
0.0
 40
0.0
 40
0.0
 40
0.0
 40
0.1342633083
 40
0.4413587159
 40
0.7777549272
 40
0.9121016175
 40
1.0
 40
1.0
 40
1.0
 40
1.0
 10
2.7726785814
 20
-4.7863929336
 30
0.0
 10
2.7660213733
 20
-4.7632377504
 30
0.0
 10
2.7440028024
 20
-4.6871589162
 30
0.0
 10
2.704848214
 20
-4.5532015297
 30
0.0
 10
2.665158218
 20
-4.4193678262
 30
0.0
 10
2.6353278826
 20
-4.323677362
 30
0.0
 10
2.6230681903
 20
-4.2857043382
 30
0.0
 10
2.617520998
 20
-4.2709388423
 30
0.0
 11
2.7726785814
 21
-4.7863929336
 31
0.0
 11
2.7526064952
 21
-4.7169563459
 31
0.0
 11
2.7062232194
 21
-4.558274192
 31
0.0
 11
2.6542782288
 21
-4.3847878861
 31
0.0
 11
2.6327043013
 21
-4.3157561181
 31
0.0
 11
2.617520998
 21
-4.2709388423
 31
0.0
  0
SPLINE
  5
3E8
100
AcDbEntity
  8
0
100
AcDbSpline
 62
7
  6
CONTINUOUS
 70
0
 71
3
 72
10
 73
6
 74
4
 42
0.0000001
 43
0.0000001
 44
0.0000000001
 12
-0.0926634025
 22
0.2469128663
 32
0.0
 13
-0.2637280223
 23
0.0
 33
0.0
 40
0.0
 40
0.0
 40
0.0
 40
0.0
 40
0.3697930287
 40
0.6482659948
 40
1.0
 40
1.0
 40
1.0
 40
1.0
 10
2.617520998
 20
-4.2709388423
 30
0.0
 10
2.6060989046
 20
-4.2405032901
 30
0.0
 10
2.5779121341
 20
-4.1889857714
 30
0.0
 10
2.5070752488
 20
-4.1336619451
 30
0.0
 10
2.4504793899
 20
-4.121160531
 30
0.0
 10
2.4195586853
 20
-4.121160531
 30
0.0
 11
2.617520998
 21
-4.2709388423
 31
0.0
 11
2.568170837
 21
-4.1868219883
 31
0.0
 11
2.5099307756
 21
-4.142081693
 31
0.0
 11
2.4195586853
 21
-4.121160531
 31
0.0
  0
SPLINE
  5
3E9
100
AcDbEntity
  8
RACCORDO
100
AcDbSpline
 62
253
  6
CONTINUOUS
 70
0
 71
3
 72
10
 73
6
 74
4
 42
0.0000001
 43
0.0000001
 44
0.0000000001
 12
-0.0026851416
 22
8.0981906569
 32
0.0
 13
-0.0003892598
 23
8.0981910927
 33
0.0
 40
0.0
 40
0.0
 40
0.0
 40
0.0
 40
0.3333130498
 40
0.6666475211
 40
1.0
 40
1.0
 40
1.0
 40
1.0
 10
9.4914207458
 20
1.5744091558
 30
0.0
 10
9.4911224149
 20
2.4741533644
 30
0.0
 10
9.4906107865
 20
4.2736996362
 30
0.0
 10
9.4900984276
 20
6.9730966252
 30
0.0
 10
9.4899269002
 20
8.7727493963
 30
0.0
 10
9.4898836467
 20
9.6726000879
 30
0.0
 11
9.4914207458
 21
1.5744091558
 31
0.0
 11
9.4906533166
 21
4.2736418207
 31
0.0
 11
9.4901409485
 21
6.9730480221
 31
0.0
 11
9.4898836467
 21
9.6726000879
 31
0.0
  0
SPLINE
  5
3EA
100
AcDbEntity
  8
RACCORDO
100
AcDbSpline
 62
253
  6
CONTINUOUS
 70
0
 71
3
 72
10
 73
6
 74
4
 42
0.0000001
 43
0.0000001
 44
0.0000000001
 12
-0.0003892598
 22
-8.0981910927
 32
0.0
 13
-0.0026851416
 23
-8.0981906569
 33
0.0
 40
0.0
 40
0.0
 40
0.0
 40
0.0
 40
0.3333524789
 40
0.6666869502
 40
1.0
 40
1.0
 40
1.0
 40
1.0
 10
-9.770480914
 20
9.6726000879
 30
0.0
 10
-9.7705241676
 20
8.7727493963
 30
0.0
 10
-9.770695695
 20
6.9730966252
 30
0.0
 10
-9.7712080539
 20
4.2736996362
 30
0.0
 10
-9.7717196823
 20
2.4741533644
 30
0.0
 10
-9.7720180132
 20
1.5744091558
 30
0.0
 11
-9.770480914
 21
9.6726000879
 31
0.0
 11
-9.7707382158
 21
6.9730480221
 31
0.0
 11
-9.771250584
 21
4.2736418207
 31
0.0
 11
-9.7720180132
 21
1.5744091558
 31
0.0
  0
SPLINE
  5
3EB
100
AcDbEntity
  8
RACCORDO
100
AcDbSpline
 62
253
  6
CONTINUOUS
 70
0
 71
3
 72
12
 73
8
 74
6
 42
0.0000001
 43
0.0000001
 44
0.0000000001
 12
-0.0075958982
 22
-6.1016538134
 32
0.0
 13
-0.0150516842
 23
-6.1016399765
 33
0.0
 40
0.0
 40
0.0
 40
0.0
 40
0.0
 40
0.2005516673
 40
0.4008660484
 40
0.6009045807
 40
0.8006287163
 40
1.0
 40
1.0
 40
1.0
 40
1.0
 10
-9.7756624172
 20
-3.0540922469
 30
0.0
 10
-9.7761702072
 20
-3.4619911954
 30
0.0
 10
-9.7772841018
 20
-4.2773063601
 30
0.0
 10
-9.7792511933
 20
-5.4994763109
 30
0.0
 10
-9.7815132652
 20
-6.7199626444
 30
0.0
 10
-9.7840699165
 20
-7.9385302383
 30
0.0
 10
-9.7859721241
 20
-8.7502426772
 30
0.0
 10
-9.7869724153
 20
-9.1557399421
 30
0.0
 11
-9.7756624172
 21
-3.0540922469
 31
0.0
 11
-9.77733441
 21
-4.2777888982
 31
0.0
 11
-9.779301817
 21
-5.5000372695
 31
0.0
 11
-9.78156426
 21
-6.7206019917
 31
0.0
 11
-9.7841213027
 21
-7.9392477873
 31
0.0
 11
-9.7869724153
 21
-9.1557399421
 31
0.0
  0
SPLINE
  5
3EC
100
AcDbEntity
  8
RACCORDO
100
AcDbSpline
 62
253
  6
CONTINUOUS
 70
0
 71
3
 72
23
 73
19
 74
17
 42
0.0000001
 43
0.0000001
 44
0.0000000001
 12
0.4034758266
 22
-0.0035213484
 32
0.0
 13
0.0070397481
 23
-0.4034297764
 33
0.0
 40
0.0
 40
0.0
 40
0.0
 40
0.0
 40
0.0723679577
 40
0.1444371742
 40
0.2158725701
 40
0.2863544371
 40
0.3555868328
 40
0.4233062007
 40
0.4892902663
 40
0.5533672053
 40
0.6154249832
 40
0.6754205892
 40
0.7333886021
 40
0.7894481184
 40
0.8438065757
 40
0.8967585684
 40
0.9486776777
 40
1.0
 40
1.0
 40
1.0
 40
1.0
 10
-7.199794877
 20
7.0923543625
 30
0.0
 10
-7.1900619698
 20
7.0922694182
 30
0.0
 10
-7.1706354948
 20
7.0914315803
 30
0.0
 10
-7.1417614572
 20
7.0881813851
 30
0.0
 10
-7.1134322819
 20
7.0829686975
 30
0.0
 10
-7.0859163399
 20
7.075842206
 30
0.0
 10
-7.0594720019
 20
7.0668683309
 30
0.0
 10
-7.0343481213
 20
7.0561305258
 30
0.0
 10
-7.0107810181
 20
7.0437283652
 30
0.0
 10
-6.9889926226
 20
7.0297764857
 30
0.0
 10
-6.9691886186
 20
7.0144034249
 30
0.0
 10
-6.9515569363
 20
6.997750423
 30
0.0
 10
-6.9362665064
 20
6.9799703952
 30
0.0
 10
-6.9234661917
 20
6.9612269163
 30
0.0
 10
-6.9132836638
 20
6.9416943975
 30
0.0
 10
-6.9058237997
 20
6.9215554788
 30
0.0
 10
-6.9011664885
 20
6.9010090873
 30
0.0
 10
-6.8999610005
 20
6.8871239791
 30
0.0
 10
-6.8998405685
 20
6.8802223281
 30
0.0
 11
-7.199794877
 21
7.0923543625
 31
0.0
 11
-7.1706222457
 21
7.0910942585
 31
0.0
 11
-7.141726169
 21
7.0878351023
 31
0.0
 11
-7.1133805799
 21
7.0826077907
 31
0.0
 11
-7.0858541926
 21
7.075461878
 31
0.0
 11
-7.0594079556
 21
7.0664651072
 31
0.0
 11
-7.0342925775
 21
7.055702767
 31
0.0
 11
-7.0107461503
 21
7.0432768837
 31
0.0
 11
-6.9889918928
 21
7.0293052538
 31
0.0
 11
-6.9692360337
 21
7.0139203276
 31
0.0
 11
-6.9516658574
 21
6.997267953
 31
0.0
 11
-6.9364479281
 21
6.9795059936
 31
0.0
 11
-6.9237265106
 21
6.9608028315
 31
0.0
 11
-6.9136222032
 21
6.9413357715
 31
0.0
 11
-6.906230794
 21
6.92128936
 31
0.0
 11
-6.9016223532
 21
6.9008536358
 31
0.0
 11
-6.8998405685
 21
6.8802223281
 31
0.0
  0
SPLINE
  5
3ED
100
AcDbEntity
  8
RACCORDO
100
AcDbSpline
 62
253
  6
CONTINUOUS
 70
0
 71
3
 72
23
 73
19
 74
17
 42
0.0000001
 43
0.0000001
 44
0.0000000001
 12
0.4034758266
 22
-0.0035213484
 32
0.0
 13
0.0070397481
 23
-0.4034297764
 33
0.0
 40
0.0
 40
0.0
 40
0.0
 40
0.0
 40
0.0723679545
 40
0.1444371679
 40
0.2158725609
 40
0.2863544256
 40
0.3555868194
 40
0.4233061859
 40
0.4892902507
 40
0.5533671894
 40
0.6154249676
 40
0.6754205745
 40
0.7333885888
 40
0.789448107
 40
0.8438065665
 40
0.8967585618
 40
0.9486776742
 40
1.0
 40
1.0
 40
1.0
 40
1.0
 10
-7.1891977887
 20
7.6994611437
 30
0.0
 10
-7.179464882
 20
7.6993761994
 30
0.0
 10
-7.1600384078
 20
7.6985383616
 30
0.0
 10
-7.1311643714
 20
7.6952881666
 30
0.0
 10
-7.1028351971
 20
7.6900754794
 30
0.0
 10
-7.075319256
 20
7.6829489884
 30
0.0
 10
-7.0488749187
 20
7.673975114
 30
0.0
 10
-7.0237510384
 20
7.6632373095
 30
0.0
 10
-7.0001839352
 20
7.6508351496
 30
0.0
 10
-6.9783955395
 20
7.6368832706
 30
0.0
 10
-6.958591535
 20
7.6215102102
 30
0.0
 10
-6.940959852
 20
7.6048572085
 30
0.0
 10
-6.9256694214
 20
7.5870771806
 30
0.0
 10
-6.9128691057
 20
7.5683337014
 30
0.0
 10
-6.9026865769
 20
7.548801182
 30
0.0
 10
-6.8952267121
 20
7.5286622625
 30
0.0
 10
-6.8905694003
 20
7.5081158699
 30
0.0
 10
-6.8893639123
 20
7.4942307608
 30
0.0
 10
-6.8892434802
 20
7.4873291093
 30
0.0
 11
-7.1891977887
 21
7.6994611437
 31
0.0
 11
-7.1600251587
 21
7.6982010398
 31
0.0
 11
-7.1311290832
 21
7.6949418839
 31
0.0
 11
-7.1027834952
 21
7.6897145726
 31
0.0
 11
-7.0752571088
 21
7.6825686605
 31
0.0
 11
-7.0488108724
 21
7.6735718903
 31
0.0
 11
-7.0236954946
 21
7.6628095508
 31
0.0
 11
-7.0001490675
 21
7.650383668
 31
0.0
 11
-6.9783948097
 21
7.6364120387
 31
0.0
 11
-6.9586389502
 21
7.6210271129
 31
0.0
 11
-6.9410687732
 21
7.6043747385
 31
0.0
 11
-6.9258508431
 21
7.5866127791
 31
0.0
 11
-6.9131294247
 21
7.5679096167
 31
0.0
 11
-6.9030251164
 21
7.5484425561
 31
0.0
 11
-6.8956337065
 21
7.5283961438
 31
0.0
 11
-6.8910252652
 21
7.5079604184
 31
0.0
 11
-6.8892434802
 21
7.4873291093
 31
0.0
  0
SPLINE
  5
3EE
100
AcDbEntity
  8
RACCORDO
100
AcDbSpline
 62
253
  6
CONTINUOUS
 70
0
 71
3
 72
12
 73
8
 74
6
 42
0.0000001
 43
0.0000001
 44
0.0000000001
 12
-0.0150164279
 22
6.0735910703
 32
0.0
 13
-0.0075953585
 23
6.0736048845
 33
0.0
 40
0.0
 40
0.0
 40
0.0
 40
0.0
 40
0.1993699232
 40
0.3990949952
 40
0.5991340106
 40
0.7994484686
 40
1.0
 40
1.0
 40
1.0
 40
1.0
 10
9.7063447249
 20
-9.1276910207
 30
0.0
 10
9.7053467835
 20
-8.724060559
 30
0.0
 10
9.7034487436
 20
-7.9160803761
 30
0.0
 10
9.7008970553
 20
-6.7031143491
 30
0.0
 10
9.698638531
 20
-5.4882354912
 30
0.0
 10
9.6966736182
 20
-4.2716829246
 30
0.0
 10
9.6955602549
 20
-3.4601158338
 30
0.0
 10
9.6950525013
 20
-3.0540922469
 30
0.0
 11
9.7063447249
 21
-9.1276910207
 31
0.0
 11
9.7034999219
 21
-7.9167992764
 31
0.0
 11
9.7009478101
 21
-6.7037498394
 31
0.0
 11
9.6986889225
 21
-5.4887930485
 31
0.0
 11
9.6967236944
 21
-4.2721628136
 31
0.0
 11
9.6950525013
 21
-3.0540922469
 31
0.0
  0
SPLINE
  5
3EF
100
AcDbEntity
  8
RACCORDO
100
AcDbSpline
 62
253
  6
CONTINUOUS
 70
0
 71
3
 72
23
 73
19
 74
17
 42
0.0000001
 43
0.0000001
 44
0.0000000001
 12
-0.4034758266
 22
-0.0035213484
 32
0.0
 13
-0.0070397481
 23
-0.4034297764
 33
0.0
 40
0.0
 40
0.0
 40
0.0
 40
0.0
 40
0.0723679577
 40
0.1444371742
 40
0.2158725701
 40
0.2863544371
 40
0.3555868328
 40
0.4233062007
 40
0.4892902663
 40
0.5533672053
 40
0.6154249832
 40
0.6754205892
 40
0.7333886021
 40
0.7894481184
 40
0.8438065757
 40
0.8967585684
 40
0.9486776777
 40
1.0
 40
1.0
 40
1.0
 40
1.0
 10
-7.3913994786
 20
7.6994611437
 30
0.0
 10
-7.4011323858
 20
7.6993761994
 30
0.0
 10
-7.4205588609
 20
7.6985383615
 30
0.0
 10
-7.4494328984
 20
7.6952881663
 30
0.0
 10
-7.4777620738
 20
7.6900754787
 30
0.0
 10
-7.5052780157
 20
7.6829489871
 30
0.0
 10
-7.5317223537
 20
7.6739751121
 30
0.0
 10
-7.5568462343
 20
7.663237307
 30
0.0
 10
-7.5804133376
 20
7.6508351464
 30
0.0
 10
-7.6022017331
 20
7.6368832669
 30
0.0
 10
-7.6220057371
 20
7.6215102061
 30
0.0
 10
-7.6396374194
 20
7.6048572042
 30
0.0
 10
-7.6549278492
 20
7.5870771764
 30
0.0
 10
-7.667728164
 20
7.5683336975
 30
0.0
 10
-7.6779106919
 20
7.5488011786
 30
0.0
 10
-7.685370556
 20
7.52866226
 30
0.0
 10
-7.6900278672
 20
7.5081158685
 30
0.0
 10
-7.6912333551
 20
7.4942307603
 30
0.0
 10
-7.6913537872
 20
7.4873291093
 30
0.0
 11
-7.3913994786
 21
7.6994611437
 31
0.0
 11
-7.42057211
 21
7.6982010397
 31
0.0
 11
-7.4494681867
 21
7.6949418835
 31
0.0
 11
-7.4778137758
 21
7.6897145718
 31
0.0
 11
-7.505340163
 21
7.6825686592
 31
0.0
 11
-7.5317864
 21
7.6735718884
 31
0.0
 11
-7.5569017782
 21
7.6628095482
 31
0.0
 11
-7.5804482053
 21
7.6503836649
 31
0.0
 11
-7.6022024629
 21
7.636412035
 31
0.0
 11
-7.6219583219
 21
7.6210271088
 31
0.0
 11
-7.6395284982
 21
7.6043747342
 31
0.0
 11
-7.6547464276
 21
7.5866127748
 31
0.0
 11
-7.6674678451
 21
7.5679096127
 31
0.0
 11
-7.6775721525
 21
7.5484425527
 31
0.0
 11
-7.6849635616
 21
7.5283961412
 31
0.0
 11
-7.6895720024
 21
7.507960417
 31
0.0
 11
-7.6913537872
 21
7.4873291093
 31
0.0
  0
SPLINE
  5
3F0
100
AcDbEntity
  8
RACCORDO
100
AcDbSpline
 62
253
  6
CONTINUOUS
 70
0
 71
3
 72
23
 73
19
 74
17
 42
0.0000001
 43
0.0000001
 44
0.0000000001
 12
-0.4034758266
 22
-0.0035213485
 32
0.0
 13
-0.0070397481
 23
-0.4034297764
 33
0.0
 40
0.0
 40
0.0
 40
0.0
 40
0.0
 40
0.0723679591
 40
0.1444371768
 40
0.2158725738
 40
0.2863544417
 40
0.3555868382
 40
0.4233062066
 40
0.4892902725
 40
0.5533672115
 40
0.6154249892
 40
0.6754205948
 40
0.7333886072
 40
0.7894481228
 40
0.8438065792
 40
0.8967585708
 40
0.948677679
 40
1.0
 40
1.0
 40
1.0
 40
1.0
 10
-7.3808023903
 20
7.0923543625
 30
0.0
 10
-7.3905352977
 20
7.0922694182
 30
0.0
 10
-7.4099617731
 20
7.0914315803
 30
0.0
 10
-7.4388358112
 20
7.0881813849
 30
0.0
 10
-7.4671649869
 20
7.0829686971
 30
0.0
 10
-7.4946809292
 20
7.0758422054
 30
0.0
 10
-7.5211252674
 20
7.0668683301
 30
0.0
 10
-7.5462491481
 20
7.0561305248
 30
0.0
 10
-7.5698162514
 20
7.043728364
 30
0.0
 10
-7.5916046468
 20
7.0297764843
 30
0.0
 10
-7.6114086506
 20
7.0144034234
 30
0.0
 10
-7.6290403326
 20
6.9977504214
 30
0.0
 10
-7.6443307621
 20
6.9799703935
 30
0.0
 10
-7.6571310766
 20
6.9612269148
 30
0.0
 10
-7.6673136041
 20
6.9416943962
 30
0.0
 10
-7.6747734679
 20
6.9215554778
 30
0.0
 10
-7.6794307789
 20
6.9010090868
 30
0.0
 10
-7.6806362668
 20
6.8871239789
 30
0.0
 10
-7.6807566989
 20
6.8802223281
 30
0.0
 11
-7.3808023903
 21
7.0923543625
 31
0.0
 11
-7.4099750222
 21
7.0910942584
 31
0.0
 11
-7.4388710994
 21
7.0878351022
 31
0.0
 11
-7.467216689
 21
7.0826077903
 31
0.0
 11
-7.4947430765
 21
7.0754618775
 31
0.0
 11
-7.5211893137
 21
7.0664651064
 31
0.0
 11
-7.546304692
 21
7.0557027659
 31
0.0
 11
-7.5698511192
 21
7.0432768824
 31
0.0
 11
-7.5916053766
 21
7.0293052524
 31
0.0
 11
-7.6113612355
 21
7.013920326
 31
0.0
 11
-7.6289314115
 21
6.9972679514
 31
0.0
 11
-7.6441493405
 21
6.979505992
 31
0.0
 11
-7.6568707577
 21
6.96080283
 31
0.0
 11
-7.6669750647
 21
6.9413357702
 31
0.0
 11
-7.6743664736
 21
6.9212893591
 31
0.0
 11
-7.6789749142
 21
6.9008536353
 31
0.0
 11
-7.6807566989
 21
6.8802223281
 31
0.0
  0
LINE
  5
3F1
100
AcDbEntity
  8
RACCORDO
100
AcDbLine
 62
253
  6
CONTINUOUS
 10
9.6917348836
 20
0.7459077531
 11
9.6913902853
 21
1.5782077531
  0
SPLINE
  5
3F2
100
AcDbEntity
  8
RACCORDO
100
AcDbSpline
 62
253
  6
CONTINUOUS
 70
0
 71
3
 72
10
 73
6
 74
4
 42
0.0000001
 43
0.0000001
 44
0.0000000001
 12
-0.0026197791
 22
7.8978921715
 32
0.0
 13
-0.0004343008
 23
7.897892594
 33
0.0
 40
0.0
 40
0.0
 40
0.0
 40
0.0
 40
0.3333135927
 40
0.6666479921
 40
1.0
 40
1.0
 40
1.0
 40
1.0
 10
9.6913902853
 20
1.5782077531
 30
0.0
 10
9.6910992159
 20
2.4556993578
 30
0.0
 10
9.6905980215
 20
4.2107373718
 30
0.0
 10
9.6900890475
 20
6.8433681946
 30
0.0
 10
9.6899115997
 20
8.5985074042
 30
0.0
 10
9.6898633413
 20
9.476100189
 30
0.0
 11
9.6913902853
 21
1.5782077531
 31
0.0
 11
9.6906385066
 21
4.2106826048
 31
0.0
 11
9.6901295239
 21
6.8433218441
 31
0.0
 11
9.6898633413
 21
9.476100189
 31
0.0
  0
SPLINE
  5
3F3
100
AcDbEntity
  8
RACCORDO
100
AcDbSpline
 62
253
  6
CONTINUOUS
 70
0
 71
3
 72
10
 73
6
 74
4
 42
0.0000001
 43
0.0000001
 44
0.0000000001
 12
-0.0004343008
 22
-7.897892594
 32
0.0
 13
-0.0026197791
 23
-7.8978921715
 33
0.0
 40
0.0
 40
0.0
 40
0.0
 40
0.0
 40
0.3333520079
 40
0.6666864073
 40
1.0
 40
1.0
 40
1.0
 40
1.0
 10
-9.9704606087
 20
9.476100189
 30
0.0
 10
-9.970508867
 20
8.5985074042
 30
0.0
 10
-9.9706863149
 20
6.8433681946
 30
0.0
 10
-9.9711952889
 20
4.2107373718
 30
0.0
 10
-9.9716964833
 20
2.4556993578
 30
0.0
 10
-9.9719875526
 20
1.5782077531
 30
0.0
 11
-9.9704606087
 21
9.476100189
 31
0.0
 11
-9.9707267913
 21
6.8433218441
 31
0.0
 11
-9.971235774
 21
4.2106826048
 31
0.0
 11
-9.9719875526
 21
1.5782077531
 31
0.0
  0
LINE
  5
3F4
100
AcDbEntity
  8
RACCORDO
100
AcDbLine
 62
253
  6
CONTINUOUS
 10
-9.9719875526
 20
1.5782077531
 11
-9.972332151
 21
0.7459077531
  0
SPLINE
  5
3F5
100
AcDbEntity
  8
RACCORDO
100
AcDbSpline
 62
253
  6
CONTINUOUS
 70
0
 71
3
 72
12
 73
8
 74
6
 42
0.0000001
 43
0.0000001
 44
0.0000000001
 12
-0.0075953585
 22
-6.0736048845
 32
0.0
 13
-0.0150164279
 23
-6.0735910703
 33
0.0
 40
0.0
 40
0.0
 40
0.0
 40
0.0
 40
0.2005515314
 40
0.4008659894
 40
0.6009050048
 40
0.8006300768
 40
1.0
 40
1.0
 40
1.0
 40
1.0
 10
-9.9756497686
 20
-3.0540922469
 30
0.0
 10
-9.9761575222
 20
-3.4601158338
 30
0.0
 10
-9.9772708855
 20
-4.2716829246
 30
0.0
 10
-9.9792357984
 20
-5.4882354912
 30
0.0
 10
-9.9814943227
 20
-6.7031143491
 30
0.0
 10
-9.9840460109
 20
-7.9160803761
 30
0.0
 10
-9.9859440509
 20
-8.724060559
 30
0.0
 10
-9.9869419923
 20
-9.1276910207
 30
0.0
 11
-9.9756497686
 21
-3.0540922469
 31
0.0
 11
-9.9773209617
 21
-4.2721628136
 31
0.0
 11
-9.9792861899
 21
-5.4887930485
 31
0.0
 11
-9.9815450775
 21
-6.7037498394
 31
0.0
 11
-9.9840971893
 21
-7.9167992764
 31
0.0
 11
-9.9869419923
 21
-9.1276910207
 31
0.0
  0
SPLINE
  5
3F6
100
AcDbEntity
  8
RACCORDO
100
AcDbSpline
 62
253
  6
CONTINUOUS
 70
0
 71
3
 72
23
 73
19
 74
17
 42
0.0000001
 43
0.0000001
 44
0.0000000001
 12
0.0353866249
 22
-0.0354020908
 32
0.0
 13
0.0000000272
 23
-0.0500551821
 33
0.0
 40
0.0
 40
0.0
 40
0.0
 40
0.0
 40
0.0086067911
 40
0.0259768046
 40
0.0521926809
 40
0.0870725917
 40
0.1303191578
 40
0.1815464315
 40
0.2402898915
 40
0.3060133421
 40
0.3781146845
 40
0.455932427
 40
0.5387519523
 40
0.6258121905
 40
0.7163129643
 40
0.8094223767
 40
0.9042838251
 40
1.0
 40
1.0
 40
1.0
 40
1.0
 10
5.0495907507
 20
-4.793829338
 30
0.0
 10
5.0496922724
 20
-4.7939309042
 30
0.0
 10
5.0497941998
 20
-4.7943832756
 30
0.0
 10
5.0499599608
 20
-4.7952158166
 30
0.0
 10
5.0501036446
 20
-4.7965294105
 30
0.0
 10
5.050257966
 20
-4.7982586552
 30
0.0
 10
5.0504026313
 20
-4.8004140439
 30
0.0
 10
5.0505421711
 20
-4.8029660705
 30
0.0
 10
5.0506725244
 20
-4.8058948933
 30
0.0
 10
5.0507930718
 20
-4.8091723876
 30
0.0
 10
5.0509023105
 20
-4.8127687796
 30
0.0
 10
5.0509992319
 20
-4.8166508376
 30
0.0
 10
5.0510828635
 20
-4.8207828549
 30
0.0
 10
5.0511524053
 20
-4.8251267746
 30
0.0
 10
5.0512071897
 20
-4.8296426054
 30
0.0
 10
5.0512466949
 20
-4.8342887633
 30
0.0
 10
5.051270546
 20
-4.8390220474
 30
0.0
 10
5.0512758524
 20
-4.8422018492
 30
0.0
 10
5.0512758533
 20
-4.8437988794
 30
0.0
 11
5.0495907507
 21
-4.793829338
 31
0.0
 11
5.0497576822
 21
-4.7942264967
 31
0.0
 11
5.0499225578
 21
-4.79508018
 31
0.0
 11
5.0500838177
 21
-4.7963824743
 31
0.0
 11
5.0502399761
 21
-4.798121397
 31
0.0
 11
5.0503895954
 21
-4.8002809349
 31
0.0
 11
5.0505312978
 21
-4.802841207
 31
0.0
 11
5.0506637783
 21
-4.8057786357
 31
0.0
 11
5.0507858168
 21
-4.8090661706
 31
0.0
 11
5.0508962892
 21
-4.8126735252
 31
0.0
 11
5.0509941783
 21
-4.8165674763
 31
0.0
 11
5.0510785828
 21
-4.8207121634
 31
0.0
 11
5.0511487256
 21
-4.8250694149
 31
0.0
 11
5.0512039612
 21
-4.8295991109
 31
0.0
 11
5.0512437811
 21
-4.8342595493
 31
0.0
 11
5.051267819
 21
-4.8390077956
 31
0.0
 11
5.0512758533
 21
-4.8437988794
 31
0.0
  0
SPLINE
  5
3F7
100
AcDbEntity
  8
RACCORDO
100
AcDbSpline
 62
253
  6
CONTINUOUS
 70
0
 71
3
 72
22
 73
18
 74
16
 42
0.0000001
 43
0.0000001
 44
0.0000000001
 12
-0.0000000247
 22
0.0492841501
 32
0.0
 13
-0.0095737475
 23
0.0483453288
 33
0.0
 40
0.0
 40
0.0
 40
0.0
 40
0.0
 40
0.0942781838
 40
0.1877651166
 40
0.2796288794
 40
0.3690748132
 40
0.4553297612
 40
0.5376480698
 40
0.6153181328
 40
0.687668669
 40
0.7540755503
 40
0.8139666746
 40
0.8668274369
 40
0.9122059777
 40
0.9497186543
 40
0.9790575998
 40
1.0
 40
1.0
 40
1.0
 40
1.0
 10
5.1106411614
 20
-6.6055780035
 30
0.0
 10
5.1106411606
 20
-6.6040291968
 30
0.0
 10
5.1106361677
 20
-6.6009445797
 30
0.0
 10
5.1106137241
 20
-6.5963508693
 30
0.0
 10
5.1105765358
 20
-6.5918366408
 30
0.0
 10
5.1105249337
 20
-6.5874413689
 30
0.0
 10
5.1104593796
 20
-6.583203113
 30
0.0
 10
5.1103804612
 20
-6.5791585732
 30
0.0
 10
5.1102888927
 20
-6.575342782
 30
0.0
 10
5.1101855096
 20
-6.5717887867
 30
0.0
 10
5.1100712781
 20
-6.5685273543
 30
0.0
 10
5.109947271
 20
-6.5655867129
 30
0.0
 10
5.1098147804
 20
-6.5629922615
 30
0.0
 10
5.1096750696
 20
-6.5607664764
 30
0.0
 10
5.1095303557
 20
-6.5589282194
 30
0.0
 10
5.1093817129
 20
-6.5574936751
 30
0.0
 10
5.1092651517
 20
-6.5566751049
 30
0.0
 10
5.1091983193
 20
-6.5563376158
 30
0.0
 11
5.1106411614
 21
-6.6055780035
 31
0.0
 11
5.110633606
 21
-6.6009315895
 31
0.0
 11
5.1106109972
 21
-6.5963242209
 31
0.0
 11
5.110573531
 21
-6.5917969485
 31
0.0
 11
5.1105215312
 21
-6.5873889883
 31
0.0
 11
5.1104554479
 21
-6.5831385002
 31
0.0
 11
5.110375853
 21
-6.5790822932
 31
0.0
 11
5.1102834359
 21
-6.5752555059
 31
0.0
 11
5.1101789974
 21
-6.571691301
 31
0.0
 11
5.1100634419
 21
-6.568420535
 31
0.0
 11
5.1099377699
 21
-6.5654715283
 31
0.0
 11
5.10980307
 21
-6.5628698152
 31
0.0
 11
5.1096605085
 21
-6.5606379208
 31
0.0
 11
5.1095113196
 21
-6.5587951697
 31
0.0
 11
5.1093567958
 21
-6.5573575052
 31
0.0
 11
5.1091983193
 21
-6.5563376158
 31
0.0
  0
SPLINE
  5
3F8
100
AcDbEntity
  8
RACCORDO
100
AcDbSpline
 62
253
  6
CONTINUOUS
 70
0
 71
3
 72
22
 73
18
 74
16
 42
0.0000001
 43
0.0000001
 44
0.0000000001
 12
-0.0095737475
 22
-0.0483453288
 32
0.0
 13
-0.0000000247
 23
-0.0492841501
 33
0.0
 40
0.0
 40
0.0
 40
0.0
 40
0.0
 40
0.0209424002
 40
0.0502813457
 40
0.0877940223
 40
0.1331725631
 40
0.1860333254
 40
0.2459244497
 40
0.312331331
 40
0.3846818672
 40
0.4623519303
 40
0.5446702388
 40
0.6309251868
 40
0.7203711206
 40
0.8122348834
 40
0.9057218162
 40
1.0
 40
1.0
 40
1.0
 40
1.0
 10
5.8102044133
 20
-6.5563376158
 30
0.0
 10
5.8101375809
 20
-6.5566751049
 30
0.0
 10
5.8100210197
 20
-6.5574936751
 30
0.0
 10
5.8098723769
 20
-6.5589282194
 30
0.0
 10
5.8097276631
 20
-6.5607664764
 30
0.0
 10
5.8095879523
 20
-6.5629922615
 30
0.0
 10
5.8094554616
 20
-6.5655867129
 30
0.0
 10
5.8093314545
 20
-6.5685273543
 30
0.0
 10
5.809217223
 20
-6.5717887867
 30
0.0
 10
5.8091138399
 20
-6.575342782
 30
0.0
 10
5.8090222714
 20
-6.5791585732
 30
0.0
 10
5.808943353
 20
-6.583203113
 30
0.0
 10
5.8088777989
 20
-6.5874413689
 30
0.0
 10
5.8088261969
 20
-6.5918366408
 30
0.0
 10
5.8087890085
 20
-6.5963508693
 30
0.0
 10
5.8087665649
 20
-6.6009445797
 30
0.0
 10
5.808761572
 20
-6.6040291968
 30
0.0
 10
5.8087615712
 20
-6.6055780035
 30
0.0
 11
5.8102044133
 21
-6.5563376158
 31
0.0
 11
5.8100459368
 21
-6.5573575052
 31
0.0
 11
5.8098914131
 21
-6.5587951697
 31
0.0
 11
5.8097422242
 21
-6.5606379208
 31
0.0
 11
5.8095996627
 21
-6.5628698152
 31
0.0
 11
5.8094649627
 21
-6.5654715283
 31
0.0
 11
5.8093392908
 21
-6.568420535
 31
0.0
 11
5.8092237352
 21
-6.571691301
 31
0.0
 11
5.8091192967
 21
-6.5752555059
 31
0.0
 11
5.8090268796
 21
-6.5790822932
 31
0.0
 11
5.8089472847
 21
-6.5831385002
 31
0.0
 11
5.8088812015
 21
-6.5873889883
 31
0.0
 11
5.8088292017
 21
-6.5917969485
 31
0.0
 11
5.8087917354
 21
-6.5963242209
 31
0.0
 11
5.8087691266
 21
-6.6009315895
 31
0.0
 11
5.8087615712
 21
-6.6055780035
 31
0.0
  0
SPLINE
  5
3F9
100
AcDbEntity
  8
RACCORDO
100
AcDbSpline
 62
253
  6
CONTINUOUS
 70
0
 71
3
 72
23
 73
19
 74
17
 42
0.0000001
 43
0.0000001
 44
0.0000000001
 12
-0.0353861613
 22
-0.0354025544
 32
0.0
 13
-0.0000000272
 23
-0.0500551823
 33
0.0
 40
0.0
 40
0.0
 40
0.0
 40
0.0
 40
0.0086061948
 40
0.0259757372
 40
0.0521910003
 40
0.0870702935
 40
0.1303162291
 40
0.181542903
 40
0.2402858197
 40
0.3060088427
 40
0.3781102359
 40
0.4559285822
 40
0.5387487914
 40
0.6258097053
 40
0.7163111222
 40
0.8094211165
 40
0.9042830652
 40
1.0
 40
1.0
 40
1.0
 40
1.0
 10
5.869811982
 20
-4.793829338
 30
0.0
 10
5.8697104686
 20
-4.7939308985
 30
0.0
 10
5.8696085361
 20
-4.7943832456
 30
0.0
 10
5.8694427819
 20
-4.7952157625
 30
0.0
 10
5.8692990958
 20
-4.7965293259
 30
0.0
 10
5.8691447759
 20
-4.7982585403
 30
0.0
 10
5.8690001101
 20
-4.8004138978
 30
0.0
 10
5.8688605703
 20
-4.8029658949
 30
0.0
 10
5.8687302164
 20
-4.8058946914
 30
0.0
 10
5.8686096681
 20
-4.8091721704
 30
0.0
 10
5.868500428
 20
-4.8127685661
 30
0.0
 10
5.868403505
 20
-4.8166506465
 30
0.0
 10
5.8683198719
 20
-4.8207826964
 30
0.0
 10
5.868250329
 20
-4.8251266496
 30
0.0
 10
5.8681955439
 20
-4.8296425121
 30
0.0
 10
5.8681560381
 20
-4.8342886988
 30
0.0
 10
5.8681321867
 20
-4.8390220136
 30
0.0
 10
5.8681268802
 20
-4.8422018365
 30
0.0
 10
5.8681268794
 20
-4.8437988794
 30
0.0
 11
5.869811982
 21
-4.793829338
 31
0.0
 11
5.8696450582
 21
-4.7942264676
 31
0.0
 11
5.8694801833
 21
-4.7950801271
 31
0.0
 11
5.8693189238
 21
-4.7963823904
 31
0.0
 11
5.8691627657
 21
-4.7981212821
 31
0.0
 11
5.8690131464
 21
-4.8002807884
 31
0.0
 11
5.8688714437
 21
-4.8028410305
 31
0.0
 11
5.8687389627
 21
-4.8057784318
 31
0.0
 11
5.8686169234
 21
-4.8090659453
 31
0.0
 11
5.8685064496
 21
-4.8126733025
 31
0.0
 11
5.8684085587
 21
-4.8165672838
 31
0.0
 11
5.8683241527
 21
-4.8207120051
 31
0.0
 11
5.8682540087
 21
-4.8250692904
 31
0.0
 11
5.8681987723
 21
-4.8295990186
 31
0.0
 11
5.868158952
 21
-4.8342594862
 31
0.0
 11
5.8681349138
 21
-4.8390077575
 31
0.0
 11
5.8681268794
 21
-4.8437988794
 31
0.0
  0
SPLINE
  5
3FA
100
AcDbEntity
  8
RACCORDO
100
AcDbSpline
 62
253
  6
CONTINUOUS
 70
0
 71
3
 72
23
 73
19
 74
17
 42
0.0000001
 43
0.0000001
 44
0.0000000001
 12
0.0353866249
 22
-0.0354020908
 32
0.0
 13
0.0000000272
 23
-0.0500551821
 33
0.0
 40
0.0
 40
0.0
 40
0.0
 40
0.0
 40
0.0086067911
 40
0.0259768046
 40
0.0521926809
 40
0.0870725917
 40
0.1303191578
 40
0.1815464315
 40
0.2402898915
 40
0.3060133421
 40
0.3781146845
 40
0.455932427
 40
0.5387519523
 40
0.6258121905
 40
0.7163129643
 40
0.8094223767
 40
0.9042838251
 40
1.0
 40
1.0
 40
1.0
 40
1.0
 10
-6.1504092493
 20
-4.793829338
 30
0.0
 10
-6.1503077276
 20
-4.7939309042
 30
0.0
 10
-6.1502058002
 20
-4.7943832756
 30
0.0
 10
-6.1500400392
 20
-4.7952158166
 30
0.0
 10
-6.1498963554
 20
-4.7965294105
 30
0.0
 10
-6.149742034
 20
-4.7982586552
 30
0.0
 10
-6.1495973687
 20
-4.8004140439
 30
0.0
 10
-6.1494578289
 20
-4.8029660705
 30
0.0
 10
-6.1493274756
 20
-4.8058948933
 30
0.0
 10
-6.1492069282
 20
-4.8091723876
 30
0.0
 10
-6.1490976895
 20
-4.8127687796
 30
0.0
 10
-6.1490007681
 20
-4.8166508376
 30
0.0
 10
-6.1489171365
 20
-4.8207828549
 30
0.0
 10
-6.1488475947
 20
-4.8251267746
 30
0.0
 10
-6.1487928103
 20
-4.8296426054
 30
0.0
 10
-6.1487533051
 20
-4.8342887633
 30
0.0
 10
-6.148729454
 20
-4.8390220474
 30
0.0
 10
-6.1487241476
 20
-4.8422018492
 30
0.0
 10
-6.1487241467
 20
-4.8437988794
 30
0.0
 11
-6.1504092493
 21
-4.793829338
 31
0.0
 11
-6.1502423178
 21
-4.7942264967
 31
0.0
 11
-6.1500774422
 21
-4.79508018
 31
0.0
 11
-6.1499161823
 21
-4.7963824743
 31
0.0
 11
-6.1497600239
 21
-4.798121397
 31
0.0
 11
-6.1496104046
 21
-4.8002809349
 31
0.0
 11
-6.1494687022
 21
-4.802841207
 31
0.0
 11
-6.1493362217
 21
-4.8057786357
 31
0.0
 11
-6.1492141832
 21
-4.8090661706
 31
0.0
 11
-6.1491037108
 21
-4.8126735252
 31
0.0
 11
-6.1490058217
 21
-4.8165674763
 31
0.0
 11
-6.1489214172
 21
-4.8207121634
 31
0.0
 11
-6.1488512744
 21
-4.8250694149
 31
0.0
 11
-6.1487960388
 21
-4.8295991109
 31
0.0
 11
-6.1487562189
 21
-4.8342595493
 31
0.0
 11
-6.148732181
 21
-4.8390077956
 31
0.0
 11
-6.1487241467
 21
-4.8437988794
 31
0.0
  0
SPLINE
  5
3FB
100
AcDbEntity
  8
RACCORDO
100
AcDbSpline
 62
253
  6
CONTINUOUS
 70
0
 71
3
 72
22
 73
18
 74
16
 42
0.0000001
 43
0.0000001
 44
0.0000000001
 12
-0.0000000247
 22
0.0492841501
 32
0.0
 13
-0.0095737475
 23
0.0483453288
 33
0.0
 40
0.0
 40
0.0
 40
0.0
 40
0.0
 40
0.0942781838
 40
0.1877651166
 40
0.2796288794
 40
0.3690748132
 40
0.4553297612
 40
0.5376480698
 40
0.6153181328
 40
0.687668669
 40
0.7540755503
 40
0.8139666746
 40
0.8668274369
 40
0.9122059777
 40
0.9497186543
 40
0.9790575998
 40
1.0
 40
1.0
 40
1.0
 40
1.0
 10
-6.0893588386
 20
-6.6055780035
 30
0.0
 10
-6.0893588394
 20
-6.6040291968
 30
0.0
 10
-6.0893638323
 20
-6.6009445797
 30
0.0
 10
-6.0893862759
 20
-6.5963508693
 30
0.0
 10
-6.0894234642
 20
-6.5918366408
 30
0.0
 10
-6.0894750663
 20
-6.5874413689
 30
0.0
 10
-6.0895406204
 20
-6.583203113
 30
0.0
 10
-6.0896195388
 20
-6.5791585732
 30
0.0
 10
-6.0897111073
 20
-6.575342782
 30
0.0
 10
-6.0898144904
 20
-6.5717887867
 30
0.0
 10
-6.0899287219
 20
-6.5685273543
 30
0.0
 10
-6.090052729
 20
-6.5655867129
 30
0.0
 10
-6.0901852196
 20
-6.5629922615
 30
0.0
 10
-6.0903249304
 20
-6.5607664764
 30
0.0
 10
-6.0904696443
 20
-6.5589282194
 30
0.0
 10
-6.0906182871
 20
-6.5574936751
 30
0.0
 10
-6.0907348483
 20
-6.5566751049
 30
0.0
 10
-6.0908016807
 20
-6.5563376158
 30
0.0
 11
-6.0893588386
 21
-6.6055780035
 31
0.0
 11
-6.089366394
 21
-6.6009315895
 31
0.0
 11
-6.0893890028
 21
-6.5963242209
 31
0.0
 11
-6.089426469
 21
-6.5917969485
 31
0.0
 11
-6.0894784688
 21
-6.5873889883
 31
0.0
 11
-6.0895445521
 21
-6.5831385002
 31
0.0
 11
-6.089624147
 21
-6.5790822932
 31
0.0
 11
-6.0897165641
 21
-6.5752555059
 31
0.0
 11
-6.0898210026
 21
-6.571691301
 31
0.0
 11
-6.0899365581
 21
-6.568420535
 31
0.0
 11
-6.0900622301
 21
-6.5654715283
 31
0.0
 11
-6.09019693
 21
-6.5628698152
 31
0.0
 11
-6.0903394915
 21
-6.5606379208
 31
0.0
 11
-6.0904886804
 21
-6.5587951697
 31
0.0
 11
-6.0906432042
 21
-6.5573575052
 31
0.0
 11
-6.0908016807
 21
-6.5563376158
 31
0.0
  0
SPLINE
  5
3FC
100
AcDbEntity
  8
RACCORDO
100
AcDbSpline
 62
253
  6
CONTINUOUS
 70
0
 71
3
 72
22
 73
18
 74
16
 42
0.0000001
 43
0.0000001
 44
0.0000000001
 12
-0.0095737475
 22
-0.0483453288
 32
0.0
 13
-0.0000000247
 23
-0.0492841501
 33
0.0
 40
0.0
 40
0.0
 40
0.0
 40
0.0
 40
0.0209424002
 40
0.0502813457
 40
0.0877940223
 40
0.1331725631
 40
0.1860333254
 40
0.2459244497
 40
0.312331331
 40
0.3846818672
 40
0.4623519303
 40
0.5446702388
 40
0.6309251868
 40
0.7203711206
 40
0.8122348834
 40
0.9057218162
 40
1.0
 40
1.0
 40
1.0
 40
1.0
 10
-5.3897955867
 20
-6.5563376158
 30
0.0
 10
-5.3898624191
 20
-6.5566751049
 30
0.0
 10
-5.3899789803
 20
-6.5574936751
 30
0.0
 10
-5.3901276231
 20
-6.5589282194
 30
0.0
 10
-5.3902723369
 20
-6.5607664764
 30
0.0
 10
-5.3904120477
 20
-6.5629922615
 30
0.0
 10
-5.3905445384
 20
-6.5655867129
 30
0.0
 10
-5.3906685455
 20
-6.5685273543
 30
0.0
 10
-5.390782777
 20
-6.5717887867
 30
0.0
 10
-5.3908861601
 20
-6.575342782
 30
0.0
 10
-5.3909777286
 20
-6.5791585732
 30
0.0
 10
-5.391056647
 20
-6.583203113
 30
0.0
 10
-5.3911222011
 20
-6.5874413689
 30
0.0
 10
-5.3911738031
 20
-6.5918366408
 30
0.0
 10
-5.3912109915
 20
-6.5963508693
 30
0.0
 10
-5.3912334351
 20
-6.6009445797
 30
0.0
 10
-5.391238428
 20
-6.6040291968
 30
0.0
 10
-5.3912384288
 20
-6.6055780035
 30
0.0
 11
-5.3897955867
 21
-6.5563376158
 31
0.0
 11
-5.3899540632
 21
-6.5573575052
 31
0.0
 11
-5.3901085869
 21
-6.5587951697
 31
0.0
 11
-5.3902577758
 21
-6.5606379208
 31
0.0
 11
-5.3904003373
 21
-6.5628698152
 31
0.0
 11
-5.3905350373
 21
-6.5654715283
 31
0.0
 11
-5.3906607092
 21
-6.568420535
 31
0.0
 11
-5.3907762648
 21
-6.571691301
 31
0.0
 11
-5.3908807033
 21
-6.5752555059
 31
0.0
 11
-5.3909731204
 21
-6.5790822932
 31
0.0
 11
-5.3910527153
 21
-6.5831385002
 31
0.0
 11
-5.3911187985
 21
-6.5873889883
 31
0.0
 11
-5.3911707983
 21
-6.5917969485
 31
0.0
 11
-5.3912082646
 21
-6.5963242209
 31
0.0
 11
-5.3912308734
 21
-6.6009315895
 31
0.0
 11
-5.3912384288
 21
-6.6055780035
 31
0.0
  0
SPLINE
  5
3FD
100
AcDbEntity
  8
RACCORDO
100
AcDbSpline
 62
253
  6
CONTINUOUS
 70
0
 71
3
 72
23
 73
19
 74
17
 42
0.0000001
 43
0.0000001
 44
0.0000000001
 12
-0.0353861613
 22
-0.0354025544
 32
0.0
 13
-0.0000000272
 23
-0.0500551823
 33
0.0
 40
0.0
 40
0.0
 40
0.0
 40
0.0
 40
0.0086061948
 40
0.0259757372
 40
0.0521910003
 40
0.0870702935
 40
0.1303162291
 40
0.181542903
 40
0.2402858197
 40
0.3060088427
 40
0.3781102359
 40
0.4559285822
 40
0.5387487914
 40
0.6258097053
 40
0.7163111222
 40
0.8094211165
 40
0.9042830652
 40
1.0
 40
1.0
 40
1.0
 40
1.0
 10
-5.330188018
 20
-4.793829338
 30
0.0
 10
-5.3302895314
 20
-4.7939308985
 30
0.0
 10
-5.3303914639
 20
-4.7943832456
 30
0.0
 10
-5.3305572181
 20
-4.7952157625
 30
0.0
 10
-5.3307009042
 20
-4.7965293259
 30
0.0
 10
-5.3308552241
 20
-4.7982585403
 30
0.0
 10
-5.3309998899
 20
-4.8004138978
 30
0.0
 10
-5.3311394297
 20
-4.8029658949
 30
0.0
 10
-5.3312697836
 20
-4.8058946914
 30
0.0
 10
-5.3313903319
 20
-4.8091721704
 30
0.0
 10
-5.331499572
 20
-4.8127685661
 30
0.0
 10
-5.331596495
 20
-4.8166506465
 30
0.0
 10
-5.3316801281
 20
-4.8207826964
 30
0.0
 10
-5.331749671
 20
-4.8251266496
 30
0.0
 10
-5.3318044561
 20
-4.8296425121
 30
0.0
 10
-5.3318439619
 20
-4.8342886988
 30
0.0
 10
-5.3318678133
 20
-4.8390220136
 30
0.0
 10
-5.3318731198
 20
-4.8422018365
 30
0.0
 10
-5.3318731206
 20
-4.8437988794
 30
0.0
 11
-5.330188018
 21
-4.793829338
 31
0.0
 11
-5.3303549418
 21
-4.7942264676
 31
0.0
 11
-5.3305198167
 21
-4.7950801271
 31
0.0
 11
-5.3306810762
 21
-4.7963823904
 31
0.0
 11
-5.3308372343
 21
-4.7981212821
 31
0.0
 11
-5.3309868536
 21
-4.8002807884
 31
0.0
 11
-5.3311285563
 21
-4.8028410305
 31
0.0
 11
-5.3312610373
 21
-4.8057784318
 31
0.0
 11
-5.3313830766
 21
-4.8090659453
 31
0.0
 11
-5.3314935504
 21
-4.8126733025
 31
0.0
 11
-5.3315914413
 21
-4.8165672838
 31
0.0
 11
-5.3316758473
 21
-4.8207120051
 31
0.0
 11
-5.3317459913
 21
-4.8250692904
 31
0.0
 11
-5.3318012277
 21
-4.8295990186
 31
0.0
 11
-5.331841048
 21
-4.8342594862
 31
0.0
 11
-5.3318650862
 21
-4.8390077575
 31
0.0
 11
-5.3318731206
 21
-4.8437988794
 31
0.0
  0
SPLINE
  5
3FE
100
AcDbEntity
  8
RACCORDO
100
AcDbSpline
 62
253
  6
CONTINUOUS
 70
0
 71
3
 72
23
 73
19
 74
17
 42
0.0000001
 43
0.0000001
 44
0.0000000001
 12
0.4034758266
 22
-0.0035213484
 32
0.0
 13
0.0070397481
 23
-0.4034297764
 33
0.0
 40
0.0
 40
0.0
 40
0.0
 40
0.0
 40
0.0723679577
 40
0.1444371742
 40
0.2158725701
 40
0.2863544371
 40
0.3555868328
 40
0.4233062007
 40
0.4892902663
 40
0.5533672053
 40
0.6154249832
 40
0.6754205892
 40
0.7333886021
 40
0.7894481184
 40
0.8438065757
 40
0.8967585684
 40
0.9486776777
 40
1.0
 40
1.0
 40
1.0
 40
1.0
 10
7.100205123
 20
7.0923543625
 30
0.0
 10
7.1099380302
 20
7.0922694182
 30
0.0
 10
7.1293645052
 20
7.0914315803
 30
0.0
 10
7.1582385428
 20
7.0881813851
 30
0.0
 10
7.1865677181
 20
7.0829686975
 30
0.0
 10
7.2140836601
 20
7.075842206
 30
0.0
 10
7.2405279981
 20
7.0668683309
 30
0.0
 10
7.2656518787
 20
7.0561305258
 30
0.0
 10
7.2892189819
 20
7.0437283652
 30
0.0
 10
7.3110073774
 20
7.0297764857
 30
0.0
 10
7.3308113814
 20
7.0144034249
 30
0.0
 10
7.3484430637
 20
6.997750423
 30
0.0
 10
7.3637334936
 20
6.9799703952
 30
0.0
 10
7.3765338083
 20
6.9612269163
 30
0.0
 10
7.3867163362
 20
6.9416943975
 30
0.0
 10
7.3941762003
 20
6.9215554788
 30
0.0
 10
7.3988335115
 20
6.9010090873
 30
0.0
 10
7.4000389995
 20
6.8871239791
 30
0.0
 10
7.4001594315
 20
6.8802223281
 30
0.0
 11
7.100205123
 21
7.0923543625
 31
0.0
 11
7.1293777543
 21
7.0910942585
 31
0.0
 11
7.158273831
 21
7.0878351023
 31
0.0
 11
7.1866194201
 21
7.0826077907
 31
0.0
 11
7.2141458074
 21
7.075461878
 31
0.0
 11
7.2405920444
 21
7.0664651072
 31
0.0
 11
7.2657074225
 21
7.055702767
 31
0.0
 11
7.2892538497
 21
7.0432768837
 31
0.0
 11
7.3110081072
 21
7.0293052538
 31
0.0
 11
7.3307639663
 21
7.0139203276
 31
0.0
 11
7.3483341426
 21
6.997267953
 31
0.0
 11
7.3635520719
 21
6.9795059936
 31
0.0
 11
7.3762734894
 21
6.9608028315
 31
0.0
 11
7.3863777968
 21
6.9413357715
 31
0.0
 11
7.393769206
 21
6.92128936
 31
0.0
 11
7.3983776468
 21
6.9008536358
 31
0.0
 11
7.4001594315
 21
6.8802223281
 31
0.0
  0
SPLINE
  5
3FF
100
AcDbEntity
  8
RACCORDO
100
AcDbSpline
 62
253
  6
CONTINUOUS
 70
0
 71
3
 72
23
 73
19
 74
17
 42
0.0000001
 43
0.0000001
 44
0.0000000001
 12
0.4034758266
 22
-0.0035213484
 32
0.0
 13
0.0070397481
 23
-0.4034297764
 33
0.0
 40
0.0
 40
0.0
 40
0.0
 40
0.0
 40
0.0723679545
 40
0.1444371679
 40
0.2158725609
 40
0.2863544256
 40
0.3555868194
 40
0.4233061859
 40
0.4892902507
 40
0.5533671894
 40
0.6154249676
 40
0.6754205745
 40
0.7333885888
 40
0.789448107
 40
0.8438065665
 40
0.8967585618
 40
0.9486776742
 40
1.0
 40
1.0
 40
1.0
 40
1.0
 10
7.1108022113
 20
7.6994611437
 30
0.0
 10
7.120535118
 20
7.6993761994
 30
0.0
 10
7.1399615922
 20
7.6985383616
 30
0.0
 10
7.1688356286
 20
7.6952881666
 30
0.0
 10
7.1971648029
 20
7.6900754794
 30
0.0
 10
7.224680744
 20
7.6829489884
 30
0.0
 10
7.2511250813
 20
7.673975114
 30
0.0
 10
7.2762489616
 20
7.6632373095
 30
0.0
 10
7.2998160648
 20
7.6508351496
 30
0.0
 10
7.3216044605
 20
7.6368832706
 30
0.0
 10
7.341408465
 20
7.6215102102
 30
0.0
 10
7.359040148
 20
7.6048572085
 30
0.0
 10
7.3743305786
 20
7.5870771806
 30
0.0
 10
7.3871308943
 20
7.5683337014
 30
0.0
 10
7.3973134231
 20
7.548801182
 30
0.0
 10
7.4047732879
 20
7.5286622625
 30
0.0
 10
7.4094305997
 20
7.5081158699
 30
0.0
 10
7.4106360877
 20
7.4942307608
 30
0.0
 10
7.4107565198
 20
7.4873291093
 30
0.0
 11
7.1108022113
 21
7.6994611437
 31
0.0
 11
7.1399748413
 21
7.6982010398
 31
0.0
 11
7.1688709168
 21
7.6949418839
 31
0.0
 11
7.1972165048
 21
7.6897145726
 31
0.0
 11
7.2247428912
 21
7.6825686605
 31
0.0
 11
7.2511891276
 21
7.6735718903
 31
0.0
 11
7.2763045054
 21
7.6628095508
 31
0.0
 11
7.2998509325
 21
7.650383668
 31
0.0
 11
7.3216051903
 21
7.6364120387
 31
0.0
 11
7.3413610498
 21
7.6210271129
 31
0.0
 11
7.3589312268
 21
7.6043747385
 31
0.0
 11
7.3741491569
 21
7.5866127791
 31
0.0
 11
7.3868705753
 21
7.5679096167
 31
0.0
 11
7.3969748836
 21
7.5484425561
 31
0.0
 11
7.4043662935
 21
7.5283961438
 31
0.0
 11
7.4089747348
 21
7.5079604184
 31
0.0
 11
7.4107565198
 21
7.4873291093
 31
0.0
  0
SPLINE
  5
400
100
AcDbEntity
  8
RACCORDO
100
AcDbSpline
 62
253
  6
CONTINUOUS
 70
0
 71
3
 72
12
 73
8
 74
6
 42
0.0000001
 43
0.0000001
 44
0.0000000001
 12
-0.0150516842
 22
6.1016399765
 32
0.0
 13
-0.0075958982
 23
6.1016538134
 33
0.0
 40
0.0
 40
0.0
 40
0.0
 40
0.0
 40
0.1993712837
 40
0.3990954193
 40
0.5991339516
 40
0.7994483327
 40
1.0
 40
1.0
 40
1.0
 40
1.0
 10
9.5063751479
 20
-9.1557399421
 30
0.0
 10
9.5053748567
 20
-8.7502426772
 30
0.0
 10
9.5034726491
 20
-7.9385302383
 30
0.0
 10
9.5009159978
 20
-6.7199626444
 30
0.0
 10
9.4986539259
 20
-5.4994763109
 30
0.0
 10
9.4966868345
 20
-4.2773063601
 30
0.0
 10
9.4955729398
 20
-3.4619911954
 30
0.0
 10
9.4950651498
 20
-3.0540922469
 30
0.0
 11
9.5063751479
 21
-9.1557399421
 31
0.0
 11
9.5035240353
 21
-7.9392477873
 31
0.0
 11
9.5009669926
 21
-6.7206019917
 31
0.0
 11
9.4987045497
 21
-5.5000372695
 31
0.0
 11
9.4967371427
 21
-4.2777888982
 31
0.0
 11
9.4950651498
 21
-3.0540922469
 31
0.0
  0
SPLINE
  5
401
100
AcDbEntity
  8
RACCORDO
100
AcDbSpline
 62
253
  6
CONTINUOUS
 70
0
 71
3
 72
23
 73
19
 74
17
 42
0.0000001
 43
0.0000001
 44
0.0000000001
 12
-0.4034758266
 22
-0.0035213484
 32
0.0
 13
-0.0070397481
 23
-0.4034297764
 33
0.0
 40
0.0
 40
0.0
 40
0.0
 40
0.0
 40
0.0723679577
 40
0.1444371742
 40
0.2158725701
 40
0.2863544371
 40
0.3555868328
 40
0.4233062007
 40
0.4892902663
 40
0.5533672053
 40
0.6154249832
 40
0.6754205892
 40
0.7333886021
 40
0.7894481184
 40
0.8438065757
 40
0.8967585684
 40
0.9486776777
 40
1.0
 40
1.0
 40
1.0
 40
1.0
 10
6.9086005214
 20
7.6994611437
 30
0.0
 10
6.8988676142
 20
7.6993761994
 30
0.0
 10
6.8794411391
 20
7.6985383615
 30
0.0
 10
6.8505671016
 20
7.6952881663
 30
0.0
 10
6.8222379262
 20
7.6900754787
 30
0.0
 10
6.7947219843
 20
7.6829489871
 30
0.0
 10
6.7682776463
 20
7.6739751121
 30
0.0
 10
6.7431537657
 20
7.663237307
 30
0.0
 10
6.7195866624
 20
7.6508351464
 30
0.0
 10
6.6977982669
 20
7.6368832669
 30
0.0
 10
6.6779942629
 20
7.6215102061
 30
0.0
 10
6.6603625806
 20
7.6048572042
 30
0.0
 10
6.6450721508
 20
7.5870771764
 30
0.0
 10
6.632271836
 20
7.5683336975
 30
0.0
 10
6.6220893081
 20
7.5488011786
 30
0.0
 10
6.614629444
 20
7.52866226
 30
0.0
 10
6.6099721328
 20
7.5081158685
 30
0.0
 10
6.6087666449
 20
7.4942307603
 30
0.0
 10
6.6086462128
 20
7.4873291093
 30
0.0
 11
6.9086005214
 21
7.6994611437
 31
0.0
 11
6.87942789
 21
7.6982010397
 31
0.0
 11
6.8505318133
 21
7.6949418835
 31
0.0
 11
6.8221862242
 21
7.6897145718
 31
0.0
 11
6.794659837
 21
7.6825686592
 31
0.0
 11
6.7682136
 21
7.6735718884
 31
0.0
 11
6.7430982218
 21
7.6628095482
 31
0.0
 11
6.7195517947
 21
7.6503836649
 31
0.0
 11
6.6977975371
 21
7.636412035
 31
0.0
 11
6.6780416781
 21
7.6210271088
 31
0.0
 11
6.6604715018
 21
7.6043747342
 31
0.0
 11
6.6452535724
 21
7.5866127748
 31
0.0
 11
6.6325321549
 21
7.5679096127
 31
0.0
 11
6.6224278475
 21
7.5484425527
 31
0.0
 11
6.6150364384
 21
7.5283961412
 31
0.0
 11
6.6104279976
 21
7.507960417
 31
0.0
 11
6.6086462128
 21
7.4873291093
 31
0.0
  0
SPLINE
  5
402
100
AcDbEntity
  8
RACCORDO
100
AcDbSpline
 62
253
  6
CONTINUOUS
 70
0
 71
3
 72
23
 73
19
 74
17
 42
0.0000001
 43
0.0000001
 44
0.0000000001
 12
-0.4034758266
 22
-0.0035213485
 32
0.0
 13
-0.0070397481
 23
-0.4034297764
 33
0.0
 40
0.0
 40
0.0
 40
0.0
 40
0.0
 40
0.0723679591
 40
0.1444371768
 40
0.2158725738
 40
0.2863544417
 40
0.3555868382
 40
0.4233062066
 40
0.4892902725
 40
0.5533672115
 40
0.6154249892
 40
0.6754205948
 40
0.7333886072
 40
0.7894481228
 40
0.8438065792
 40
0.8967585708
 40
0.948677679
 40
1.0
 40
1.0
 40
1.0
 40
1.0
 10
6.9191976097
 20
7.0923543625
 30
0.0
 10
6.9094647023
 20
7.0922694182
 30
0.0
 10
6.8900382269
 20
7.0914315803
 30
0.0
 10
6.8611641888
 20
7.0881813849
 30
0.0
 10
6.8328350131
 20
7.0829686971
 30
0.0
 10
6.8053190708
 20
7.0758422054
 30
0.0
 10
6.7788747326
 20
7.0668683301
 30
0.0
 10
6.7537508519
 20
7.0561305248
 30
0.0
 10
6.7301837486
 20
7.043728364
 30
0.0
 10
6.7083953532
 20
7.0297764843
 30
0.0
 10
6.6885913494
 20
7.0144034234
 30
0.0
 10
6.6709596674
 20
6.9977504214
 30
0.0
 10
6.6556692379
 20
6.9799703935
 30
0.0
 10
6.6428689234
 20
6.9612269148
 30
0.0
 10
6.6326863959
 20
6.9416943962
 30
0.0
 10
6.6252265321
 20
6.9215554778
 30
0.0
 10
6.6205692211
 20
6.9010090868
 30
0.0
 10
6.6193637332
 20
6.8871239789
 30
0.0
 10
6.6192433011
 20
6.8802223281
 30
0.0
 11
6.9191976097
 21
7.0923543625
 31
0.0
 11
6.8900249778
 21
7.0910942584
 31
0.0
 11
6.8611289006
 21
7.0878351022
 31
0.0
 11
6.832783311
 21
7.0826077903
 31
0.0
 11
6.8052569235
 21
7.0754618775
 31
0.0
 11
6.7788106863
 21
7.0664651064
 31
0.0
 11
6.753695308
 21
7.0557027659
 31
0.0
 11
6.7301488808
 21
7.0432768824
 31
0.0
 11
6.7083946234
 21
7.0293052524
 31
0.0
 11
6.6886387645
 21
7.013920326
 31
0.0
 11
6.6710685885
 21
6.9972679514
 31
0.0
 11
6.6558506595
 21
6.979505992
 31
0.0
 11
6.6431292423
 21
6.96080283
 31
0.0
 11
6.6330249353
 21
6.9413357702
 31
0.0
 11
6.6256335264
 21
6.9212893591
 31
0.0
 11
6.6210250858
 21
6.9008536353
 31
0.0
 11
6.6192433011
 21
6.8802223281
 31
0.0
  0
LINE
  5
403
100
AcDbEntity
  8
DRAFT
100
AcDbLine
 62
7
  6
CONTINUOUS
 10
1.2548697112
 20
9.68044741
 11
1.3266253179
 21
9.6935425583
  0
LINE
  5
404
100
AcDbEntity
  8
DRAFT
100
AcDbLine
 62
7
  6
CONTINUOUS
 10
-1.5354669786
 20
9.68044741
 11
-1.6072225853
 21
9.6935425583
  0
SPLINE
  5
405
100
AcDbEntity
  8
RACCORDO
100
AcDbSpline
 62
253
  6
CONTINUOUS
 70
0
 71
3
 72
26
 73
22
 74
20
 42
0.0000001
 43
0.0000001
 44
0.0000000001
 12
-0.1414382623
 22
0.1415055191
 32
0.0
 13
-0.0000000299
 23
0.2000714722
 33
0.0
 40
0.0
 40
0.0
 40
0.0
 40
0.0
 40
0.0049703014
 40
0.0164649638
 40
0.0344954239
 40
0.0589590003
 40
0.0896988346
 40
0.1265130146
 40
0.1691572784
 40
0.2173479413
 40
0.2707637757
 40
0.3290486689
 40
0.3918133946
 40
0.4586392114
 40
0.5290798903
 40
0.6026651964
 40
0.6789034037
 40
0.7572858736
 40
0.8372892333
 40
0.9183783558
 40
1.0
 40
1.0
 40
1.0
 40
1.0
 10
-6.8974329761
 20
5.152996404
 30
0.0
 10
-6.8976673064
 20
5.1532308457
 30
0.0
 10
-6.8977347484
 20
5.1544474766
 30
0.0
 10
-6.8981004433
 20
5.1566235845
 30
0.0
 10
-6.898300827
 20
5.1602732606
 30
0.0
 10
-6.8985890921
 20
5.1651257341
 30
0.0
 10
-6.8988372895
 20
5.171266394
 30
0.0
 10
-6.8990908913
 20
5.178608102
 30
0.0
 10
-6.8993297344
 20
5.1871188279
 30
0.0
 10
-6.8995578821
 20
5.1967359592
 30
0.0
 10
-6.8997715736
 20
5.2073971798
 30
0.0
 10
-6.899969862
 20
5.2190306586
 30
0.0
 10
-6.9001511263
 20
5.2315588742
 30
0.0
 10
-6.9003141466
 20
5.2448980655
 30
0.0
 10
-6.9004577681
 20
5.2589591515
 30
0.0
 10
-6.9005810022
 20
5.2736481689
 30
0.0
 10
-6.9006829995
 20
5.288867003
 30
0.0
 10
-6.9007630617
 20
5.3045139965
 30
0.0
 10
-6.9008206405
 20
5.3204846007
 30
0.0
 10
-6.9008553432
 20
5.3366712931
 30
0.0
 10
-6.9008630617
 20
5.3475225556
 30
0.0
 10
-6.9008630625
 20
5.3529659431
 30
0.0
 11
-6.8974329761
 21
5.152996404
 31
0.0
 11
-6.8977177843
 21
5.1539491613
 31
0.0
 11
-6.8980003238
 21
5.1562314935
 31
0.0
 11
-6.8982786685
 21
5.1598281196
 31
0.0
 11
-6.8985509558
 21
5.1647150036
 31
0.0
 11
-6.8988153666
 21
5.1708594811
 31
0.0
 11
-6.8990701362
 21
5.1782205407
 31
0.0
 11
-6.899313561
 21
5.1867489681
 31
0.0
 11
-6.8995440153
 21
5.1963877904
 31
0.0
 11
-6.8997599592
 21
5.2070725931
 31
0.0
 11
-6.8999599508
 21
5.2187320224
 31
0.0
 11
-6.9001426532
 21
5.2312881243
 31
0.0
 11
-6.9003068468
 21
5.2446570556
 31
0.0
 11
-6.9004514346
 21
5.2587494842
 31
0.0
 11
-6.900575451
 21
5.2734712824
 31
0.0
 11
-6.9006780672
 21
5.2887240276
 31
0.0
 11
-6.9007585986
 21
5.3044059169
 31
0.0
 11
-6.9008165071
 21
5.3204122021
 31
0.0
 11
-6.9008514061
 21
5.3366357847
 31
0.0
 11
-6.9008630625
 21
5.3529659431
 31
0.0
  0
SPLINE
  5
406
100
AcDbEntity
  8
RACCORDO
100
AcDbSpline
 62
253
  6
CONTINUOUS
 70
0
 71
3
 72
17
 73
13
 74
11
 42
0.0000001
 43
0.0000001
 44
0.0000000001
 12
0.0000000195
 22
0.1414266476
 32
0.0
 13
0.0024681975
 23
0.1414051083
 33
0.0
 40
0.0
 40
0.0
 40
0.0
 40
0.0
 40
0.1109388033
 40
0.2212108333
 40
0.3301204371
 40
0.4369954825
 40
0.5411774997
 40
0.6420241433
 40
0.7389134914
 40
0.8312486745
 40
0.9184601449
 40
1.0
 40
1.0
 40
1.0
 40
1.0
 10
-6.9008630625
 20
6.7388009719
 30
0.0
 10
-6.9008630618
 20
6.7440308729
 30
0.0
 10
-6.9008559341
 20
6.7544592432
 30
0.0
 10
-6.9008238847
 20
6.7700218238
 30
0.0
 10
-6.9007706893
 20
6.7853927714
 30
0.0
 10
-6.900696682
 20
6.8004765329
 30
0.0
 10
-6.9006023293
 20
6.815180068
 30
0.0
 10
-6.9004882268
 20
6.8294127011
 30
0.0
 10
-6.9003550968
 20
6.8430866582
 30
0.0
 10
-6.9002037868
 20
6.8561175941
 30
0.0
 10
-6.9000352718
 20
6.8684246461
 30
0.0
 10
-6.899907654
 20
6.8763789441
 30
0.0
 10
-6.8998405685
 20
6.8802223281
 30
0.0
 11
-6.9008630625
 21
6.7388009719
 31
0.0
 11
-6.9008523039
 21
6.7544906712
 31
0.0
 11
-6.9008200873
 21
6.7700860415
 31
0.0
 11
-6.9007666113
 21
6.7854886688
 31
0.0
 11
-6.9006922053
 21
6.8006034651
 31
0.0
 11
-6.9005973278
 21
6.815337273
 31
0.0
 11
-6.9004825636
 21
6.829599214
 31
0.0
 11
-6.9003486209
 21
6.843301295
 31
0.0
 11
-6.9001963251
 21
6.8563590624
 31
0.0
 11
-6.9000266168
 21
6.8686919206
 31
0.0
 11
-6.8998405685
 21
6.8802223281
 31
0.0
  0
SPLINE
  5
407
100
AcDbEntity
  8
RACCORDO
100
AcDbSpline
 62
253
  6
CONTINUOUS
 70
0
 71
3
 72
18
 73
14
 74
12
 42
0.0000001
 43
0.0000001
 44
0.0000000001
 12
0.0098713521
 22
0.5656204709
 32
0.0
 13
0.0000010596
 23
0.565706603
 33
0.0
 40
0.0
 40
0.0
 40
0.0
 40
0.0
 40
0.0734531825
 40
0.1519963855
 40
0.2350925857
 40
0.3221501416
 40
0.4125392105
 40
0.5058232815
 40
0.6017329062
 40
0.6998253322
 40
0.7993980483
 40
0.8997107646
 40
1.0
 40
1.0
 40
1.0
 40
1.0
 10
-6.8892434802
 20
7.4873291093
 30
0.0
 10
-6.8890017861
 20
7.5011779839
 30
0.0
 10
-6.8885379881
 20
7.5298360479
 30
0.0
 10
-6.8879165535
 20
7.5741628632
 30
0.0
 10
-6.8873499348
 20
7.6210559712
 30
0.0
 10
-6.8868426811
 20
7.670183641
 30
0.0
 10
-6.886398016
 20
7.7212331057
 30
0.0
 10
-6.8860179961
 20
7.77395236
 30
0.0
 10
-6.8857042339
 20
7.8281246873
 30
0.0
 10
-6.8854584882
 20
7.8834832194
 30
0.0
 10
-6.8852823994
 20
7.9396723065
 30
0.0
 10
-6.8851768706
 20
7.9962758196
 30
0.0
 10
-6.8851535395
 20
8.0341031067
 30
0.0
 10
-6.8851535041
 20
8.0530145343
 30
0.0
 11
-6.8892434802
 21
7.4873291093
 31
0.0
 11
-6.8885680028
 21
7.5288765691
 31
0.0
 11
-6.8879425195
 21
7.5733045749
 31
0.0
 11
-6.8873724103
 21
7.6203091868
 31
0.0
 11
-6.8868621708
 21
7.6695555778
 31
0.0
 11
-6.8864153694
 21
7.7206873188
 31
0.0
 11
-6.8860338492
 21
7.7734573546
 31
0.0
 11
-6.8857187125
 21
7.8277131474
 31
0.0
 11
-6.8854717089
 21
7.8832041307
 31
0.0
 11
-6.8852947108
 21
7.9395327956
 31
0.0
 11
-6.8851886631
 21
7.9962802625
 31
0.0
 11
-6.8851535041
 21
8.0530145343
 31
0.0
  0
SPLINE
  5
408
100
AcDbEntity
  8
RACCORDO
100
AcDbSpline
 62
253
  6
CONTINUOUS
 70
0
 71
3
 72
18
 73
14
 74
12
 42
0.0000001
 43
0.0000001
 44
0.0000000001
 12
0.0000010595
 22
-0.565706603
 32
0.0
 13
0.009871352
 23
-0.5656204709
 33
0.0
 40
0.0
 40
0.0
 40
0.0
 40
0.0
 40
0.1002892438
 40
0.20060196
 40
0.3001746759
 40
0.3982671017
 40
0.4941767262
 40
0.5874607969
 40
0.6778498654
 40
0.764907421
 40
0.8480036208
 40
0.9265468234
 40
1.0
 40
1.0
 40
1.0
 40
1.0
 10
-7.6954437633
 20
8.0530145343
 30
0.0
 10
-7.6954437279
 20
8.0341031051
 30
0.0
 10
-7.6954203968
 20
7.9962758164
 30
0.0
 10
-7.695314868
 20
7.9396723018
 30
0.0
 10
-7.6951387792
 20
7.8834832148
 30
0.0
 10
-7.6948930334
 20
7.8281246828
 30
0.0
 10
-7.6945792712
 20
7.7739523557
 30
0.0
 10
-7.6941992513
 20
7.7212331016
 30
0.0
 10
-7.6937545862
 20
7.670183637
 30
0.0
 10
-7.6932473325
 20
7.6210559674
 30
0.0
 10
-7.6926807138
 20
7.5741628597
 30
0.0
 10
-7.6920592792
 20
7.5298360456
 30
0.0
 10
-7.6915954812
 20
7.5011779828
 30
0.0
 10
-7.6913537872
 20
7.4873291093
 30
0.0
 11
-7.6954437633
 21
8.0530145343
 31
0.0
 11
-7.6954086042
 21
7.9962802577
 31
0.0
 11
-7.6953025565
 21
7.9395327909
 31
0.0
 11
-7.6951255585
 21
7.8832041261
 31
0.0
 11
-7.6948785548
 21
7.8277131429
 31
0.0
 11
-7.6945634182
 21
7.7734573502
 31
0.0
 11
-7.694181898
 21
7.7206873146
 31
0.0
 11
-7.6937350966
 21
7.6695555738
 31
0.0
 11
-7.6932248571
 21
7.620309183
 31
0.0
 11
-7.6926547478
 21
7.5733045713
 31
0.0
 11
-7.6920292645
 21
7.5288765657
 31
0.0
 11
-7.6913537872
 21
7.4873291093
 31
0.0
  0
SPLINE
  5
409
100
AcDbEntity
  8
RACCORDO
100
AcDbSpline
 62
253
  6
CONTINUOUS
 70
0
 71
3
 72
17
 73
13
 74
11
 42
0.0000001
 43
0.0000001
 44
0.0000000001
 12
0.0024681975
 22
-0.1414051083
 32
0.0
 13
0.0000000195
 23
-0.1414266476
 33
0.0
 40
0.0
 40
0.0
 40
0.0
 40
0.0
 40
0.0815398551
 40
0.1687513255
 40
0.2610865086
 40
0.3579758567
 40
0.4588225003
 40
0.5630045175
 40
0.6698795629
 40
0.7787891667
 40
0.8890611967
 40
1.0
 40
1.0
 40
1.0
 40
1.0
 10
-7.6807566989
 20
6.8802223281
 30
0.0
 10
-7.6806896134
 20
6.8763789441
 30
0.0
 10
-7.6805619956
 20
6.8684246461
 30
0.0
 10
-7.6803934805
 20
6.8561175941
 30
0.0
 10
-7.6802421706
 20
6.8430866582
 30
0.0
 10
-7.6801090406
 20
6.8294127011
 30
0.0
 10
-7.679994938
 20
6.815180068
 30
0.0
 10
-7.6799005854
 20
6.8004765329
 30
0.0
 10
-7.6798265781
 20
6.7853927714
 30
0.0
 10
-7.6797733826
 20
6.7700218238
 30
0.0
 10
-7.6797413333
 20
6.7544592432
 30
0.0
 10
-7.6797342056
 20
6.7440308729
 30
0.0
 10
-7.6797342049
 20
6.7388009719
 30
0.0
 11
-7.6807566989
 21
6.8802223281
 31
0.0
 11
-7.6805706506
 21
6.8686919206
 31
0.0
 11
-7.6804009423
 21
6.8563590624
 31
0.0
 11
-7.6802486465
 21
6.843301295
 31
0.0
 11
-7.6801147038
 21
6.829599214
 31
0.0
 11
-7.6799999396
 21
6.815337273
 31
0.0
 11
-7.6799050621
 21
6.8006034651
 31
0.0
 11
-7.6798306561
 21
6.7854886688
 31
0.0
 11
-7.67977718
 21
6.7700860415
 31
0.0
 11
-7.6797449635
 21
6.7544906712
 31
0.0
 11
-7.6797342049
 21
6.7388009719
 31
0.0
  0
SPLINE
  5
40A
100
AcDbEntity
  8
RACCORDO
100
AcDbSpline
 62
253
  6
CONTINUOUS
 70
0
 71
3
 72
26
 73
22
 74
20
 42
0.0000001
 43
0.0000001
 44
0.0000000001
 12
-0.0000000299
 22
-0.2000714722
 32
0.0
 13
-0.1414382626
 23
-0.1415055188
 33
0.0
 40
0.0
 40
0.0
 40
0.0
 40
0.0
 40
0.0816216442
 40
0.1627107667
 40
0.2427141264
 40
0.3210965963
 40
0.3973348036
 40
0.4709201097
 40
0.5413607886
 40
0.6081866054
 40
0.6709513311
 40
0.7292362243
 40
0.7826520587
 40
0.8308427216
 40
0.8734869854
 40
0.9103011654
 40
0.9410409997
 40
0.9655045761
 40
0.9835350362
 40
0.9950296986
 40
1.0
 40
1.0
 40
1.0
 40
1.0
 10
-7.6797342049
 20
5.3529659431
 30
0.0
 10
-7.6797342057
 20
5.3475225556
 30
0.0
 10
-7.6797419241
 20
5.3366712931
 30
0.0
 10
-7.6797766269
 20
5.3204846007
 30
0.0
 10
-7.6798342057
 20
5.3045139965
 30
0.0
 10
-7.6799142679
 20
5.288867003
 30
0.0
 10
-7.6800162652
 20
5.2736481689
 30
0.0
 10
-7.6801394993
 20
5.2589591515
 30
0.0
 10
-7.6802831208
 20
5.2448980655
 30
0.0
 10
-7.680446141
 20
5.2315588742
 30
0.0
 10
-7.6806274054
 20
5.2190306586
 30
0.0
 10
-7.6808256938
 20
5.2073971798
 30
0.0
 10
-7.6810393852
 20
5.1967359592
 30
0.0
 10
-7.681267533
 20
5.1871188279
 30
0.0
 10
-7.681506376
 20
5.178608102
 30
0.0
 10
-7.6817599779
 20
5.171266394
 30
0.0
 10
-7.6820081753
 20
5.1651257341
 30
0.0
 10
-7.6822964404
 20
5.1602732606
 30
0.0
 10
-7.682496824
 20
5.1566235845
 30
0.0
 10
-7.6828625189
 20
5.1544474766
 30
0.0
 10
-7.682929961
 20
5.1532308457
 30
0.0
 10
-7.6831642913
 20
5.152996404
 30
0.0
 11
-7.6797342049
 21
5.3529659431
 31
0.0
 11
-7.6797458613
 21
5.3366357847
 31
0.0
 11
-7.6797807602
 21
5.3204122021
 31
0.0
 11
-7.6798386688
 21
5.3044059169
 31
0.0
 11
-7.6799192002
 21
5.2887240276
 31
0.0
 11
-7.6800218164
 21
5.2734712824
 31
0.0
 11
-7.6801458328
 21
5.2587494842
 31
0.0
 11
-7.6802904205
 21
5.2446570556
 31
0.0
 11
-7.6804546141
 21
5.2312881243
 31
0.0
 11
-7.6806373166
 21
5.2187320224
 31
0.0
 11
-7.6808373082
 21
5.2070725931
 31
0.0
 11
-7.681053252
 21
5.1963877904
 31
0.0
 11
-7.6812837063
 21
5.1867489681
 31
0.0
 11
-7.6815271312
 21
5.1782205407
 31
0.0
 11
-7.6817819007
 21
5.1708594811
 31
0.0
 11
-7.6820463116
 21
5.1647150036
 31
0.0
 11
-7.6823185988
 21
5.1598281196
 31
0.0
 11
-7.6825969435
 21
5.1562314935
 31
0.0
 11
-7.682879483
 21
5.1539491613
 31
0.0
 11
-7.6831642913
 21
5.152996404
 31
0.0
  0
SPLINE
  5
40B
100
AcDbEntity
  8
RACCORDO
100
AcDbSpline
 62
253
  6
CONTINUOUS
 70
0
 71
3
 72
18
 73
14
 74
12
 42
0.0000001
 43
0.0000001
 44
0.0000000001
 12
0.0000010595
 22
-0.565706603
 32
0.0
 13
0.009871352
 23
-0.5656204709
 33
0.0
 40
0.0
 40
0.0
 40
0.0
 40
0.0
 40
0.1002892438
 40
0.20060196
 40
0.3001746759
 40
0.3982671017
 40
0.4941767262
 40
0.5874607969
 40
0.6778498654
 40
0.764907421
 40
0.8480036208
 40
0.9265468234
 40
1.0
 40
1.0
 40
1.0
 40
1.0
 10
6.6045562367
 20
8.0530145343
 30
0.0
 10
6.6045562721
 20
8.0341031051
 30
0.0
 10
6.6045796032
 20
7.9962758164
 30
0.0
 10
6.604685132
 20
7.9396723018
 30
0.0
 10
6.6048612208
 20
7.8834832148
 30
0.0
 10
6.6051069666
 20
7.8281246828
 30
0.0
 10
6.6054207288
 20
7.7739523557
 30
0.0
 10
6.6058007487
 20
7.7212331016
 30
0.0
 10
6.6062454138
 20
7.670183637
 30
0.0
 10
6.6067526675
 20
7.6210559674
 30
0.0
 10
6.6073192862
 20
7.5741628597
 30
0.0
 10
6.6079407208
 20
7.5298360456
 30
0.0
 10
6.6084045188
 20
7.5011779828
 30
0.0
 10
6.6086462128
 20
7.4873291093
 30
0.0
 11
6.6045562367
 21
8.0530145343
 31
0.0
 11
6.6045913958
 21
7.9962802577
 31
0.0
 11
6.6046974435
 21
7.9395327909
 31
0.0
 11
6.6048744415
 21
7.8832041261
 31
0.0
 11
6.6051214452
 21
7.8277131429
 31
0.0
 11
6.6054365818
 21
7.7734573502
 31
0.0
 11
6.605818102
 21
7.7206873146
 31
0.0
 11
6.6062649034
 21
7.6695555738
 31
0.0
 11
6.6067751429
 21
7.620309183
 31
0.0
 11
6.6073452522
 21
7.5733045713
 31
0.0
 11
6.6079707355
 21
7.5288765657
 31
0.0
 11
6.6086462128
 21
7.4873291093
 31
0.0
  0
SPLINE
  5
40C
100
AcDbEntity
  8
RACCORDO
100
AcDbSpline
 62
253
  6
CONTINUOUS
 70
0
 71
3
 72
17
 73
13
 74
11
 42
0.0000001
 43
0.0000001
 44
0.0000000001
 12
0.0024681975
 22
-0.1414051083
 32
0.0
 13
0.0000000195
 23
-0.1414266476
 33
0.0
 40
0.0
 40
0.0
 40
0.0
 40
0.0
 40
0.0815398551
 40
0.1687513255
 40
0.2610865086
 40
0.3579758567
 40
0.4588225003
 40
0.5630045175
 40
0.6698795629
 40
0.7787891667
 40
0.8890611967
 40
1.0
 40
1.0
 40
1.0
 40
1.0
 10
6.6192433011
 20
6.8802223281
 30
0.0
 10
6.6193103866
 20
6.8763789441
 30
0.0
 10
6.6194380044
 20
6.8684246461
 30
0.0
 10
6.6196065195
 20
6.8561175941
 30
0.0
 10
6.6197578294
 20
6.8430866582
 30
0.0
 10
6.6198909594
 20
6.8294127011
 30
0.0
 10
6.620005062
 20
6.815180068
 30
0.0
 10
6.6200994146
 20
6.8004765329
 30
0.0
 10
6.6201734219
 20
6.7853927714
 30
0.0
 10
6.6202266174
 20
6.7700218238
 30
0.0
 10
6.6202586667
 20
6.7544592432
 30
0.0
 10
6.6202657944
 20
6.7440308729
 30
0.0
 10
6.6202657951
 20
6.7388009719
 30
0.0
 11
6.6192433011
 21
6.8802223281
 31
0.0
 11
6.6194293494
 21
6.8686919206
 31
0.0
 11
6.6195990577
 21
6.8563590624
 31
0.0
 11
6.6197513535
 21
6.843301295
 31
0.0
 11
6.6198852962
 21
6.829599214
 31
0.0
 11
6.6200000604
 21
6.815337273
 31
0.0
 11
6.6200949379
 21
6.8006034651
 31
0.0
 11
6.6201693439
 21
6.7854886688
 31
0.0
 11
6.62022282
 21
6.7700860415
 31
0.0
 11
6.6202550365
 21
6.7544906712
 31
0.0
 11
6.6202657951
 21
6.7388009719
 31
0.0
  0
SPLINE
  5
40D
100
AcDbEntity
  8
RACCORDO
100
AcDbSpline
 62
253
  6
CONTINUOUS
 70
0
 71
3
 72
26
 73
22
 74
20
 42
0.0000001
 43
0.0000001
 44
0.0000000001
 12
-0.0000000299
 22
-0.2000714722
 32
0.0
 13
-0.1414382626
 23
-0.1415055188
 33
0.0
 40
0.0
 40
0.0
 40
0.0
 40
0.0
 40
0.0816216442
 40
0.1627107667
 40
0.2427141264
 40
0.3210965963
 40
0.3973348036
 40
0.4709201097
 40
0.5413607886
 40
0.6081866054
 40
0.6709513311
 40
0.7292362243
 40
0.7826520587
 40
0.8308427216
 40
0.8734869854
 40
0.9103011654
 40
0.9410409997
 40
0.9655045761
 40
0.9835350362
 40
0.9950296986
 40
1.0
 40
1.0
 40
1.0
 40
1.0
 10
6.6202657951
 20
5.3529659431
 30
0.0
 10
6.6202657943
 20
5.3475225556
 30
0.0
 10
6.6202580759
 20
5.3366712931
 30
0.0
 10
6.6202233731
 20
5.3204846007
 30
0.0
 10
6.6201657943
 20
5.3045139965
 30
0.0
 10
6.6200857321
 20
5.288867003
 30
0.0
 10
6.6199837348
 20
5.2736481689
 30
0.0
 10
6.6198605007
 20
5.2589591515
 30
0.0
 10
6.6197168792
 20
5.2448980655
 30
0.0
 10
6.619553859
 20
5.2315588742
 30
0.0
 10
6.6193725946
 20
5.2190306586
 30
0.0
 10
6.6191743062
 20
5.2073971798
 30
0.0
 10
6.6189606148
 20
5.1967359592
 30
0.0
 10
6.618732467
 20
5.1871188279
 30
0.0
 10
6.618493624
 20
5.178608102
 30
0.0
 10
6.6182400221
 20
5.171266394
 30
0.0
 10
6.6179918247
 20
5.1651257341
 30
0.0
 10
6.6177035596
 20
5.1602732606
 30
0.0
 10
6.617503176
 20
5.1566235845
 30
0.0
 10
6.6171374811
 20
5.1544474766
 30
0.0
 10
6.617070039
 20
5.1532308457
 30
0.0
 10
6.6168357087
 20
5.152996404
 30
0.0
 11
6.6202657951
 21
5.3529659431
 31
0.0
 11
6.6202541387
 21
5.3366357847
 31
0.0
 11
6.6202192398
 21
5.3204122021
 31
0.0
 11
6.6201613312
 21
5.3044059169
 31
0.0
 11
6.6200807998
 21
5.2887240276
 31
0.0
 11
6.6199781836
 21
5.2734712824
 31
0.0
 11
6.6198541672
 21
5.2587494842
 31
0.0
 11
6.6197095795
 21
5.2446570556
 31
0.0
 11
6.6195453859
 21
5.2312881243
 31
0.0
 11
6.6193626834
 21
5.2187320224
 31
0.0
 11
6.6191626918
 21
5.2070725931
 31
0.0
 11
6.618946748
 21
5.1963877904
 31
0.0
 11
6.6187162937
 21
5.1867489681
 31
0.0
 11
6.6184728688
 21
5.1782205407
 31
0.0
 11
6.6182180993
 21
5.1708594811
 31
0.0
 11
6.6179536884
 21
5.1647150036
 31
0.0
 11
6.6176814012
 21
5.1598281196
 31
0.0
 11
6.6174030565
 21
5.1562314935
 31
0.0
 11
6.617120517
 21
5.1539491613
 31
0.0
 11
6.6168357087
 21
5.152996404
 31
0.0
  0
SPLINE
  5
40E
100
AcDbEntity
  8
RACCORDO
100
AcDbSpline
 62
253
  6
CONTINUOUS
 70
0
 71
3
 72
26
 73
22
 74
20
 42
0.0000001
 43
0.0000001
 44
0.0000000001
 12
-0.1414382623
 22
0.1415055191
 32
0.0
 13
-0.0000000299
 23
0.2000714722
 33
0.0
 40
0.0
 40
0.0
 40
0.0
 40
0.0
 40
0.0049703014
 40
0.0164649638
 40
0.0344954239
 40
0.0589590003
 40
0.0896988346
 40
0.1265130146
 40
0.1691572784
 40
0.2173479413
 40
0.2707637757
 40
0.3290486689
 40
0.3918133946
 40
0.4586392114
 40
0.5290798903
 40
0.6026651964
 40
0.6789034037
 40
0.7572858736
 40
0.8372892333
 40
0.9183783558
 40
1.0
 40
1.0
 40
1.0
 40
1.0
 10
7.4025670239
 20
5.152996404
 30
0.0
 10
7.4023326936
 20
5.1532308457
 30
0.0
 10
7.4022652516
 20
5.1544474766
 30
0.0
 10
7.4018995567
 20
5.1566235845
 30
0.0
 10
7.401699173
 20
5.1602732606
 30
0.0
 10
7.4014109079
 20
5.1651257341
 30
0.0
 10
7.4011627105
 20
5.171266394
 30
0.0
 10
7.4009091087
 20
5.178608102
 30
0.0
 10
7.4006702656
 20
5.1871188279
 30
0.0
 10
7.4004421179
 20
5.1967359592
 30
0.0
 10
7.4002284264
 20
5.2073971798
 30
0.0
 10
7.400030138
 20
5.2190306586
 30
0.0
 10
7.3998488737
 20
5.2315588742
 30
0.0
 10
7.3996858534
 20
5.2448980655
 30
0.0
 10
7.3995422319
 20
5.2589591515
 30
0.0
 10
7.3994189978
 20
5.2736481689
 30
0.0
 10
7.3993170005
 20
5.288867003
 30
0.0
 10
7.3992369383
 20
5.3045139965
 30
0.0
 10
7.3991793595
 20
5.3204846007
 30
0.0
 10
7.3991446568
 20
5.3366712931
 30
0.0
 10
7.3991369383
 20
5.3475225556
 30
0.0
 10
7.3991369375
 20
5.3529659431
 30
0.0
 11
7.4025670239
 21
5.152996404
 31
0.0
 11
7.4022822157
 21
5.1539491613
 31
0.0
 11
7.4019996762
 21
5.1562314935
 31
0.0
 11
7.4017213315
 21
5.1598281196
 31
0.0
 11
7.4014490442
 21
5.1647150036
 31
0.0
 11
7.4011846334
 21
5.1708594811
 31
0.0
 11
7.4009298638
 21
5.1782205407
 31
0.0
 11
7.400686439
 21
5.1867489681
 31
0.0
 11
7.4004559847
 21
5.1963877904
 31
0.0
 11
7.4002400408
 21
5.2070725931
 31
0.0
 11
7.4000400492
 21
5.2187320224
 31
0.0
 11
7.3998573468
 21
5.2312881243
 31
0.0
 11
7.3996931532
 21
5.2446570556
 31
0.0
 11
7.3995485654
 21
5.2587494842
 31
0.0
 11
7.399424549
 21
5.2734712824
 31
0.0
 11
7.3993219328
 21
5.2887240276
 31
0.0
 11
7.3992414014
 21
5.3044059169
 31
0.0
 11
7.3991834929
 21
5.3204122021
 31
0.0
 11
7.3991485939
 21
5.3366357847
 31
0.0
 11
7.3991369375
 21
5.3529659431
 31
0.0
  0
SPLINE
  5
40F
100
AcDbEntity
  8
RACCORDO
100
AcDbSpline
 62
253
  6
CONTINUOUS
 70
0
 71
3
 72
17
 73
13
 74
11
 42
0.0000001
 43
0.0000001
 44
0.0000000001
 12
0.0000000195
 22
0.1414266476
 32
0.0
 13
0.0024681975
 23
0.1414051083
 33
0.0
 40
0.0
 40
0.0
 40
0.0
 40
0.0
 40
0.1109388033
 40
0.2212108333
 40
0.3301204371
 40
0.4369954825
 40
0.5411774997
 40
0.6420241433
 40
0.7389134914
 40
0.8312486745
 40
0.9184601449
 40
1.0
 40
1.0
 40
1.0
 40
1.0
 10
7.3991369375
 20
6.7388009719
 30
0.0
 10
7.3991369382
 20
6.7440308729
 30
0.0
 10
7.3991440659
 20
6.7544592432
 30
0.0
 10
7.3991761153
 20
6.7700218238
 30
0.0
 10
7.3992293107
 20
6.7853927714
 30
0.0
 10
7.399303318
 20
6.8004765329
 30
0.0
 10
7.3993976707
 20
6.815180068
 30
0.0
 10
7.3995117732
 20
6.8294127011
 30
0.0
 10
7.3996449032
 20
6.8430866582
 30
0.0
 10
7.3997962132
 20
6.8561175941
 30
0.0
 10
7.3999647282
 20
6.8684246461
 30
0.0
 10
7.400092346
 20
6.8763789441
 30
0.0
 10
7.4001594315
 20
6.8802223281
 30
0.0
 11
7.3991369375
 21
6.7388009719
 31
0.0
 11
7.3991476961
 21
6.7544906712
 31
0.0
 11
7.3991799127
 21
6.7700860415
 31
0.0
 11
7.3992333887
 21
6.7854886688
 31
0.0
 11
7.3993077947
 21
6.8006034651
 31
0.0
 11
7.3994026722
 21
6.815337273
 31
0.0
 11
7.3995174364
 21
6.829599214
 31
0.0
 11
7.3996513791
 21
6.843301295
 31
0.0
 11
7.3998036749
 21
6.8563590624
 31
0.0
 11
7.3999733832
 21
6.8686919206
 31
0.0
 11
7.4001594315
 21
6.8802223281
 31
0.0
  0
SPLINE
  5
410
100
AcDbEntity
  8
RACCORDO
100
AcDbSpline
 62
253
  6
CONTINUOUS
 70
0
 71
3
 72
18
 73
14
 74
12
 42
0.0000001
 43
0.0000001
 44
0.0000000001
 12
0.0098713521
 22
0.5656204709
 32
0.0
 13
0.0000010596
 23
0.565706603
 33
0.0
 40
0.0
 40
0.0
 40
0.0
 40
0.0
 40
0.0734531825
 40
0.1519963855
 40
0.2350925857
 40
0.3221501416
 40
0.4125392105
 40
0.5058232815
 40
0.6017329062
 40
0.6998253322
 40
0.7993980483
 40
0.8997107646
 40
1.0
 40
1.0
 40
1.0
 40
1.0
 10
7.4107565198
 20
7.4873291093
 30
0.0
 10
7.4109982139
 20
7.5011779839
 30
0.0
 10
7.4114620119
 20
7.5298360479
 30
0.0
 10
7.4120834465
 20
7.5741628632
 30
0.0
 10
7.4126500652
 20
7.6210559712
 30
0.0
 10
7.4131573189
 20
7.670183641
 30
0.0
 10
7.413601984
 20
7.7212331057
 30
0.0
 10
7.4139820039
 20
7.77395236
 30
0.0
 10
7.4142957661
 20
7.8281246873
 30
0.0
 10
7.4145415118
 20
7.8834832194
 30
0.0
 10
7.4147176006
 20
7.9396723065
 30
0.0
 10
7.4148231294
 20
7.9962758196
 30
0.0
 10
7.4148464605
 20
8.0341031067
 30
0.0
 10
7.4148464959
 20
8.0530145343
 30
0.0
 11
7.4107565198
 21
7.4873291093
 31
0.0
 11
7.4114319972
 21
7.5288765691
 31
0.0
 11
7.4120574805
 21
7.5733045749
 31
0.0
 11
7.4126275897
 21
7.6203091868
 31
0.0
 11
7.4131378292
 21
7.6695555778
 31
0.0
 11
7.4135846306
 21
7.7206873188
 31
0.0
 11
7.4139661508
 21
7.7734573546
 31
0.0
 11
7.4142812875
 21
7.8277131474
 31
0.0
 11
7.4145282911
 21
7.8832041307
 31
0.0
 11
7.4147052892
 21
7.9395327956
 31
0.0
 11
7.4148113369
 21
7.9962802625
 31
0.0
 11
7.4148464959
 21
8.0530145343
 31
0.0
  0
SPLINE
  5
411
100
AcDbEntity
  8
RACCORDO
100
AcDbSpline
 62
253
  6
CONTINUOUS
 70
0
 71
3
 72
26
 73
22
 74
20
 42
0.0000001
 43
0.0000001
 44
0.0000000001
 12
-0.1855998583
 22
0.4642405868
 32
0.0
 13
-0.0000000764
 23
0.4999666287
 33
0.0
 40
0.0
 40
0.0
 40
0.0
 40
0.0
 40
0.0047987227
 40
0.0162254685
 40
0.0342187184
 40
0.0586609922
 40
0.0893900103
 40
0.1262011755
 40
0.1688486698
 40
0.2170477775
 40
0.2704765185
 40
0.3287782229
 40
0.3915632275
 40
0.4584123633
 40
0.5288790055
 40
0.6024925424
 40
0.6787608796
 40
0.7571750207
 40
0.8372112248
 40
0.9183340205
 40
1.0
 40
1.0
 40
1.0
 40
1.0
 10
7.1026127262
 20
4.8530420683
 30
0.0
 10
7.1023158455
 20
4.8537846555
 30
0.0
 10
7.1023787447
 20
4.8565752792
 30
0.0
 10
7.1019045818
 20
4.8621948004
 30
0.0
 10
7.1017624926
 20
4.8712086675
 30
0.0
 10
7.1014496706
 20
4.8833817914
 30
0.0
 10
7.1012108091
 20
4.898715612
 30
0.0
 10
7.1009539517
 20
4.9170750092
 30
0.0
 10
7.1007162108
 20
4.9383493164
 30
0.0
 10
7.1004877164
 20
4.9623922848
 30
0.0
 10
7.100274139
 20
4.9890446592
 30
0.0
 10
7.1000758197
 20
5.0181279328
 30
0.0
 10
7.0998945674
 20
5.0494479703
 30
0.0
 10
7.0997315456
 20
5.0827954784
 30
0.0
 10
7.0995879255
 20
5.1179477285
 30
0.0
 10
7.0994646922
 20
5.1546698261
 30
0.0
 10
7.0993626937
 20
5.1927164885
 30
0.0
 10
7.0992826337
 20
5.2318335785
 30
0.0
 10
7.0992250509
 20
5.2717597312
 30
0.0
 10
7.0991903492
 20
5.3122278472
 30
0.0
 10
7.0991826306
 20
5.3393574996
 30
0.0
 10
7.0991826285
 20
5.3529675877
 30
0.0
 11
7.1026127262
 21
4.8530420683
 31
0.0
 11
7.1023278828
 21
4.8554243005
 31
0.0
 11
7.1020453636
 21
4.8611303023
 31
0.0
 11
7.1017670114
 21
4.8701220194
 31
0.0
 11
7.1014947289
 21
4.8823393069
 31
0.0
 11
7.1012303184
 21
4.897700515
 31
0.0
 11
7.1009755508
 21
4.9161031057
 31
0.0
 11
7.1007321273
 21
4.9374240401
 31
0.0
 11
7.1005016746
 21
4.9615208835
 31
0.0
 11
7.1002857321
 21
4.9882325982
 31
0.0
 11
7.1000857418
 21
5.0173808187
 31
0.0
 11
7.0999030403
 21
5.0487706941
 31
0.0
 11
7.0997388474
 21
5.0821926279
 31
0.0
 11
7.0995942599
 21
5.1174233007
 31
0.0
 11
7.0994702438
 21
5.1542274036
 31
0.0
 11
7.099367627
 21
5.192358889
 31
0.0
 11
7.099287096
 21
5.23156326
 31
0.0
 11
7.0992291854
 21
5.2715786493
 31
0.0
 11
7.0991942872
 21
5.3121373249
 31
0.0
 11
7.0991826285
 21
5.3529675877
 31
0.0
  0
SPLINE
  5
412
100
AcDbEntity
  8
RACCORDO
100
AcDbSpline
 62
253
  6
CONTINUOUS
 70
0
 71
3
 72
26
 73
22
 74
20
 42
0.0000001
 43
0.0000001
 44
0.0000000001
 12
-0.0000000764
 22
-0.4999666287
 32
0.0
 13
-0.1855998579
 23
-0.4642405869
 33
0.0
 40
0.0
 40
0.0
 40
0.0
 40
0.0
 40
0.0816659795
 40
0.1627887752
 40
0.2428249793
 40
0.3212391204
 40
0.3975074576
 40
0.4711209944
 40
0.5415876366
 40
0.6084367725
 40
0.6712217771
 40
0.7295234815
 40
0.7829522225
 40
0.8311513302
 40
0.8737988245
 40
0.9106099897
 40
0.9413390078
 40
0.9657812816
 40
0.9837745315
 40
0.9952012773
 40
1.0
 40
1.0
 40
1.0
 40
1.0
 10
6.9202201042
 20
5.3529675877
 30
0.0
 10
6.9202201021
 20
5.3393574996
 30
0.0
 10
6.9202123835
 20
5.3122278472
 30
0.0
 10
6.9201776818
 20
5.2717597312
 30
0.0
 10
6.9201200989
 20
5.2318335785
 30
0.0
 10
6.9200400389
 20
5.1927164885
 30
0.0
 10
6.9199380404
 20
5.1546698261
 30
0.0
 10
6.9198148071
 20
5.1179477285
 30
0.0
 10
6.919671187
 20
5.0827954784
 30
0.0
 10
6.9195081653
 20
5.0494479704
 30
0.0
 10
6.9193269129
 20
5.0181279328
 30
0.0
 10
6.9191285936
 20
4.9890446592
 30
0.0
 10
6.9189150162
 20
4.9623922848
 30
0.0
 10
6.9186865218
 20
4.9383493164
 30
0.0
 10
6.918448781
 20
4.9170750092
 30
0.0
 10
6.9181919236
 20
4.898715612
 30
0.0
 10
6.917953062
 20
4.8833817914
 30
0.0
 10
6.9176402401
 20
4.8712086675
 30
0.0
 10
6.9174981509
 20
4.8621948004
 30
0.0
 10
6.9170239879
 20
4.8565752792
 30
0.0
 10
6.9170868872
 20
4.8537846555
 30
0.0
 10
6.9167900064
 20
4.8530420683
 30
0.0
 11
6.9202201042
 21
5.3529675877
 31
0.0
 11
6.9202084454
 21
5.312137325
 31
0.0
 11
6.9201735472
 21
5.2715786493
 31
0.0
 11
6.9201156366
 21
5.23156326
 31
0.0
 11
6.9200351056
 21
5.192358889
 31
0.0
 11
6.9199324889
 21
5.1542274036
 31
0.0
 11
6.9198084727
 21
5.1174233007
 31
0.0
 11
6.9196638853
 21
5.0821926279
 31
0.0
 11
6.9194996924
 21
5.0487706941
 31
0.0
 11
6.9193169909
 21
5.0173808187
 31
0.0
 11
6.9191170005
 21
4.9882325982
 31
0.0
 11
6.918901058
 21
4.9615208835
 31
0.0
 11
6.9186706053
 21
4.9374240401
 31
0.0
 11
6.9184271819
 21
4.9161031057
 31
0.0
 11
6.9181724143
 21
4.897700515
 31
0.0
 11
6.9179080037
 21
4.8823393069
 31
0.0
 11
6.9176357213
 21
4.8701220194
 31
0.0
 11
6.9173573691
 21
4.8611303023
 31
0.0
 11
6.9170748498
 21
4.8554243005
 31
0.0
 11
6.9167900064
 21
4.8530420683
 31
0.0
  0
SPLINE
  5
413
100
AcDbEntity
  8
RACCORDO
100
AcDbSpline
 62
253
  6
CONTINUOUS
 70
0
 71
3
 72
26
 73
22
 74
20
 42
0.0000001
 43
0.0000001
 44
0.0000000001
 12
-0.1855998583
 22
0.4642405868
 32
0.0
 13
-0.0000000764
 23
0.4999666287
 33
0.0
 40
0.0
 40
0.0
 40
0.0
 40
0.0
 40
0.0047987227
 40
0.0162254685
 40
0.0342187184
 40
0.0586609922
 40
0.0893900103
 40
0.1262011755
 40
0.1688486698
 40
0.2170477775
 40
0.2704765185
 40
0.3287782229
 40
0.3915632275
 40
0.4584123633
 40
0.5288790055
 40
0.6024925424
 40
0.6787608796
 40
0.7571750207
 40
0.8372112248
 40
0.9183340205
 40
1.0
 40
1.0
 40
1.0
 40
1.0
 10
-7.1973872738
 20
4.8530420683
 30
0.0
 10
-7.1976841545
 20
4.8537846555
 30
0.0
 10
-7.1976212553
 20
4.8565752792
 30
0.0
 10
-7.1980954182
 20
4.8621948004
 30
0.0
 10
-7.1982375074
 20
4.8712086675
 30
0.0
 10
-7.1985503294
 20
4.8833817914
 30
0.0
 10
-7.1987891909
 20
4.898715612
 30
0.0
 10
-7.1990460483
 20
4.9170750092
 30
0.0
 10
-7.1992837892
 20
4.9383493164
 30
0.0
 10
-7.1995122836
 20
4.9623922848
 30
0.0
 10
-7.199725861
 20
4.9890446592
 30
0.0
 10
-7.1999241803
 20
5.0181279328
 30
0.0
 10
-7.2001054326
 20
5.0494479703
 30
0.0
 10
-7.2002684544
 20
5.0827954784
 30
0.0
 10
-7.2004120745
 20
5.1179477285
 30
0.0
 10
-7.2005353078
 20
5.1546698261
 30
0.0
 10
-7.2006373063
 20
5.1927164885
 30
0.0
 10
-7.2007173663
 20
5.2318335785
 30
0.0
 10
-7.2007749491
 20
5.2717597312
 30
0.0
 10
-7.2008096508
 20
5.3122278472
 30
0.0
 10
-7.2008173694
 20
5.3393574996
 30
0.0
 10
-7.2008173715
 20
5.3529675877
 30
0.0
 11
-7.1973872738
 21
4.8530420683
 31
0.0
 11
-7.1976721172
 21
4.8554243005
 31
0.0
 11
-7.1979546364
 21
4.8611303023
 31
0.0
 11
-7.1982329886
 21
4.8701220194
 31
0.0
 11
-7.1985052711
 21
4.8823393069
 31
0.0
 11
-7.1987696816
 21
4.897700515
 31
0.0
 11
-7.1990244492
 21
4.9161031057
 31
0.0
 11
-7.1992678727
 21
4.9374240401
 31
0.0
 11
-7.1994983254
 21
4.9615208835
 31
0.0
 11
-7.1997142679
 21
4.9882325982
 31
0.0
 11
-7.1999142582
 21
5.0173808187
 31
0.0
 11
-7.2000969597
 21
5.0487706941
 31
0.0
 11
-7.2002611526
 21
5.0821926279
 31
0.0
 11
-7.2004057401
 21
5.1174233007
 31
0.0
 11
-7.2005297562
 21
5.1542274036
 31
0.0
 11
-7.200632373
 21
5.192358889
 31
0.0
 11
-7.200712904
 21
5.23156326
 31
0.0
 11
-7.2007708146
 21
5.2715786493
 31
0.0
 11
-7.2008057128
 21
5.3121373249
 31
0.0
 11
-7.2008173715
 21
5.3529675877
 31
0.0
  0
SPLINE
  5
414
100
AcDbEntity
  8
RACCORDO
100
AcDbSpline
 62
253
  6
CONTINUOUS
 70
0
 71
3
 72
26
 73
22
 74
20
 42
0.0000001
 43
0.0000001
 44
0.0000000001
 12
-0.0000000764
 22
-0.4999666287
 32
0.0
 13
-0.1855998579
 23
-0.4642405869
 33
0.0
 40
0.0
 40
0.0
 40
0.0
 40
0.0
 40
0.0816659795
 40
0.1627887752
 40
0.2428249793
 40
0.3212391204
 40
0.3975074576
 40
0.4711209944
 40
0.5415876366
 40
0.6084367725
 40
0.6712217771
 40
0.7295234815
 40
0.7829522225
 40
0.8311513302
 40
0.8737988245
 40
0.9106099897
 40
0.9413390078
 40
0.9657812816
 40
0.9837745315
 40
0.9952012773
 40
1.0
 40
1.0
 40
1.0
 40
1.0
 10
-7.3797798958
 20
5.3529675877
 30
0.0
 10
-7.3797798979
 20
5.3393574996
 30
0.0
 10
-7.3797876165
 20
5.3122278472
 30
0.0
 10
-7.3798223182
 20
5.2717597312
 30
0.0
 10
-7.3798799011
 20
5.2318335785
 30
0.0
 10
-7.3799599611
 20
5.1927164885
 30
0.0
 10
-7.3800619596
 20
5.1546698261
 30
0.0
 10
-7.3801851929
 20
5.1179477285
 30
0.0
 10
-7.380328813
 20
5.0827954784
 30
0.0
 10
-7.3804918347
 20
5.0494479704
 30
0.0
 10
-7.3806730871
 20
5.0181279328
 30
0.0
 10
-7.3808714064
 20
4.9890446592
 30
0.0
 10
-7.3810849838
 20
4.9623922848
 30
0.0
 10
-7.3813134782
 20
4.9383493164
 30
0.0
 10
-7.381551219
 20
4.9170750092
 30
0.0
 10
-7.3818080764
 20
4.898715612
 30
0.0
 10
-7.382046938
 20
4.8833817914
 30
0.0
 10
-7.3823597599
 20
4.8712086675
 30
0.0
 10
-7.3825018491
 20
4.8621948004
 30
0.0
 10
-7.3829760121
 20
4.8565752792
 30
0.0
 10
-7.3829131128
 20
4.8537846555
 30
0.0
 10
-7.3832099936
 20
4.8530420683
 30
0.0
 11
-7.3797798958
 21
5.3529675877
 31
0.0
 11
-7.3797915546
 21
5.312137325
 31
0.0
 11
-7.3798264528
 21
5.2715786493
 31
0.0
 11
-7.3798843634
 21
5.23156326
 31
0.0
 11
-7.3799648944
 21
5.192358889
 31
0.0
 11
-7.3800675111
 21
5.1542274036
 31
0.0
 11
-7.3801915273
 21
5.1174233007
 31
0.0
 11
-7.3803361147
 21
5.0821926279
 31
0.0
 11
-7.3805003076
 21
5.0487706941
 31
0.0
 11
-7.3806830091
 21
5.0173808187
 31
0.0
 11
-7.3808829995
 21
4.9882325982
 31
0.0
 11
-7.381098942
 21
4.9615208835
 31
0.0
 11
-7.3813293947
 21
4.9374240401
 31
0.0
 11
-7.3815728181
 21
4.9161031057
 31
0.0
 11
-7.3818275857
 21
4.897700515
 31
0.0
 11
-7.3820919963
 21
4.8823393069
 31
0.0
 11
-7.3823642787
 21
4.8701220194
 31
0.0
 11
-7.3826426309
 21
4.8611303023
 31
0.0
 11
-7.3829251502
 21
4.8554243005
 31
0.0
 11
-7.3832099936
 21
4.8530420683
 31
0.0
  0
SPLINE
  5
415
100
AcDbEntity
  8
RACCORDO
100
AcDbSpline
 62
253
  6
CONTINUOUS
 70
0
 71
3
 72
18
 73
14
 74
12
 42
0.0000001
 43
0.0000001
 44
0.0000000001
 12
0.0098707098
 22
0.3534519835
 32
0.0
 13
0.0000000631
 23
0.3535897843
 33
0.0
 40
0.0
 40
0.0
 40
0.0
 40
0.0
 40
0.0734713233
 40
0.1520210746
 40
0.2351206357
 40
0.3221787051
 40
0.412565856
 40
0.5058459507
 40
0.60175015
 40
0.6998361583
 40
0.7994018304
 40
0.8997072361
 40
1.0
 40
1.0
 40
1.0
 40
1.0
 10
7.110802183
 20
7.6994600925
 30
0.0
 10
7.111043921
 20
7.7081162875
 30
0.0
 10
7.1115076986
 20
7.726028033
 30
0.0
 10
7.11212915
 20
7.7537331944
 30
0.0
 10
7.1126957708
 20
7.7830412242
 30
0.0
 10
7.1132030146
 20
7.813745729
 30
0.0
 10
7.1136476764
 20
7.8456512321
 30
0.0
 10
7.1140276903
 20
7.8786002728
 30
0.0
 10
7.1143414514
 20
7.9124574613
 30
0.0
 10
7.1145871931
 20
7.947056068
 30
0.0
 10
7.1147632914
 20
7.9821738455
 30
0.0
 10
7.1148688035
 20
8.0175520002
 30
0.0
 10
7.1148921867
 20
8.0411951614
 30
0.0
 10
7.1148921888
 20
8.0530159937
 30
0.0
 11
7.110802183
 21
7.6994600925
 31
0.0
 11
7.1114777314
 21
7.7254300169
 31
0.0
 11
7.1121031981
 21
7.753197363
 31
0.0
 11
7.1126733029
 21
7.7825749877
 31
0.0
 11
7.1131835328
 21
7.8133536028
 31
0.0
 11
7.1136303271
 21
7.8453104528
 31
0.0
 11
7.1140118406
 21
7.8782911348
 31
0.0
 11
7.1143269737
 21
7.9122004156
 31
0.0
 11
7.1145739753
 21
7.9468817466
 31
0.0
 11
7.1147509752
 21
7.9820867062
 31
0.0
 11
7.114857024
 21
8.0175535144
 31
0.0
 11
7.1148921888
 21
8.0530159937
 31
0.0
  0
SPLINE
  5
416
100
AcDbEntity
  8
RACCORDO
100
AcDbSpline
 62
253
  6
CONTINUOUS
 70
0
 71
3
 72
18
 73
14
 74
12
 42
0.0000001
 43
0.0000001
 44
0.0000000001
 12
0.000000063
 22
-0.3535897837
 32
0.0
 13
0.0098707117
 23
-0.3534519829
 33
0.0
 40
0.0
 40
0.0
 40
0.0
 40
0.0
 40
0.1002927683
 40
0.200598174
 40
0.3001638461
 40
0.3982498543
 40
0.4941540536
 40
0.5874341481
 40
0.6778212989
 40
0.764879368
 40
0.8479789289
 40
0.9265286799
 40
1.0
 40
1.0
 40
1.0
 40
1.0
 10
6.9045105438
 20
8.0530159922
 30
0.0
 10
6.9045105459
 20
8.0411951594
 30
0.0
 10
6.9045339291
 20
8.0175519977
 30
0.0
 10
6.9046394413
 20
7.9821738425
 30
0.0
 10
6.9048155395
 20
7.9470560651
 30
0.0
 10
6.9050612812
 20
7.9124574585
 30
0.0
 10
6.9053750423
 20
7.8786002701
 30
0.0
 10
6.9057550563
 20
7.8456512295
 30
0.0
 10
6.906199718
 20
7.8137457265
 30
0.0
 10
6.9067069619
 20
7.7830412218
 30
0.0
 10
6.9072735826
 20
7.7537331922
 30
0.0
 10
6.9078950341
 20
7.7260280312
 30
0.0
 10
6.9083588116
 20
7.7081162862
 30
0.0
 10
6.9086005497
 20
7.6994600916
 30
0.0
 11
6.9045105438
 21
8.0530159922
 31
0.0
 11
6.9045457087
 21
8.0175535114
 31
0.0
 11
6.9046517575
 21
7.9820867032
 31
0.0
 11
6.9048287574
 21
7.9468817437
 31
0.0
 11
6.905075759
 21
7.9122004128
 31
0.0
 11
6.905390892
 21
7.8782911321
 31
0.0
 11
6.9057724056
 21
7.8453104502
 31
0.0
 11
6.9062191999
 21
7.8133536003
 31
0.0
 11
6.9067294298
 21
7.7825749853
 31
0.0
 11
6.9072995346
 21
7.7531973608
 31
0.0
 11
6.9079250013
 21
7.7254300148
 31
0.0
 11
6.9086005497
 21
7.6994600916
 31
0.0
  0
SPLINE
  5
417
100
AcDbEntity
  8
RACCORDO
100
AcDbSpline
 62
253
  6
CONTINUOUS
 70
0
 71
3
 72
18
 73
14
 74
12
 42
0.0000001
 43
0.0000001
 44
0.0000000001
 12
0.0098707098
 22
0.3534519835
 32
0.0
 13
0.0000000631
 23
0.3535897843
 33
0.0
 40
0.0
 40
0.0
 40
0.0
 40
0.0
 40
0.0734713233
 40
0.1520210746
 40
0.2351206357
 40
0.3221787051
 40
0.412565856
 40
0.5058459507
 40
0.60175015
 40
0.6998361583
 40
0.7994018304
 40
0.8997072361
 40
1.0
 40
1.0
 40
1.0
 40
1.0
 10
-7.189197817
 20
7.6994600925
 30
0.0
 10
-7.188956079
 20
7.7081162875
 30
0.0
 10
-7.1884923014
 20
7.726028033
 30
0.0
 10
-7.18787085
 20
7.7537331944
 30
0.0
 10
-7.1873042292
 20
7.7830412242
 30
0.0
 10
-7.1867969854
 20
7.813745729
 30
0.0
 10
-7.1863523236
 20
7.8456512321
 30
0.0
 10
-7.1859723097
 20
7.8786002728
 30
0.0
 10
-7.1856585486
 20
7.9124574613
 30
0.0
 10
-7.1854128069
 20
7.947056068
 30
0.0
 10
-7.1852367086
 20
7.9821738455
 30
0.0
 10
-7.1851311965
 20
8.0175520002
 30
0.0
 10
-7.1851078133
 20
8.0411951614
 30
0.0
 10
-7.1851078112
 20
8.0530159937
 30
0.0
 11
-7.189197817
 21
7.6994600925
 31
0.0
 11
-7.1885222686
 21
7.7254300169
 31
0.0
 11
-7.1878968019
 21
7.753197363
 31
0.0
 11
-7.1873266971
 21
7.7825749877
 31
0.0
 11
-7.1868164672
 21
7.8133536028
 31
0.0
 11
-7.1863696729
 21
7.8453104528
 31
0.0
 11
-7.1859881594
 21
7.8782911348
 31
0.0
 11
-7.1856730263
 21
7.9122004156
 31
0.0
 11
-7.1854260247
 21
7.9468817466
 31
0.0
 11
-7.1852490248
 21
7.9820867062
 31
0.0
 11
-7.185142976
 21
8.0175535144
 31
0.0
 11
-7.1851078112
 21
8.0530159937
 31
0.0
  0
SPLINE
  5
418
100
AcDbEntity
  8
RACCORDO
100
AcDbSpline
 62
253
  6
CONTINUOUS
 70
0
 71
3
 72
18
 73
14
 74
12
 42
0.0000001
 43
0.0000001
 44
0.0000000001
 12
0.000000063
 22
-0.3535897837
 32
0.0
 13
0.0098707117
 23
-0.3534519829
 33
0.0
 40
0.0
 40
0.0
 40
0.0
 40
0.0
 40
0.1002927683
 40
0.200598174
 40
0.3001638461
 40
0.3982498543
 40
0.4941540536
 40
0.5874341481
 40
0.6778212989
 40
0.764879368
 40
0.8479789289
 40
0.9265286799
 40
1.0
 40
1.0
 40
1.0
 40
1.0
 10
-7.3954894562
 20
8.0530159922
 30
0.0
 10
-7.3954894541
 20
8.0411951594
 30
0.0
 10
-7.3954660709
 20
8.0175519977
 30
0.0
 10
-7.3953605587
 20
7.9821738425
 30
0.0
 10
-7.3951844605
 20
7.9470560651
 30
0.0
 10
-7.3949387188
 20
7.9124574585
 30
0.0
 10
-7.3946249577
 20
7.8786002701
 30
0.0
 10
-7.3942449437
 20
7.8456512295
 30
0.0
 10
-7.393800282
 20
7.8137457265
 30
0.0
 10
-7.3932930381
 20
7.7830412218
 30
0.0
 10
-7.3927264174
 20
7.7537331922
 30
0.0
 10
-7.3921049659
 20
7.7260280312
 30
0.0
 10
-7.3916411884
 20
7.7081162862
 30
0.0
 10
-7.3913994503
 20
7.6994600916
 30
0.0
 11
-7.3954894562
 21
8.0530159922
 31
0.0
 11
-7.3954542913
 21
8.0175535114
 31
0.0
 11
-7.3953482425
 21
7.9820867032
 31
0.0
 11
-7.3951712426
 21
7.9468817437
 31
0.0
 11
-7.394924241
 21
7.9122004128
 31
0.0
 11
-7.394609108
 21
7.8782911321
 31
0.0
 11
-7.3942275944
 21
7.8453104502
 31
0.0
 11
-7.3937808001
 21
7.8133536003
 31
0.0
 11
-7.3932705702
 21
7.7825749853
 31
0.0
 11
-7.3927004654
 21
7.7531973608
 31
0.0
 11
-7.3920749987
 21
7.7254300148
 31
0.0
 11
-7.3913994503
 21
7.6994600916
 31
0.0
  0
SPLINE
  5
419
100
AcDbEntity
  8
RACCORDO
100
AcDbSpline
 62
253
  6
CONTINUOUS
 70
0
 71
3
 72
21
 73
17
 74
15
 42
0.0000001
 43
0.0000001
 44
0.0000000001
 12
0.1353296106
 22
-0.1473790155
 32
0.0
 13
0.2000866645
 23
-0.000066346
 33
0.0
 40
0.0
 40
0.0
 40
0.0
 40
0.0
 40
0.0083460013
 40
0.0287203139
 40
0.0609943242
 40
0.1047941997
 40
0.1595898642
 40
0.2247116895
 40
0.2993612997
 40
0.3826222942
 40
0.4734719043
 40
0.5707937629
 40
0.6733917367
 40
0.7800046987
 40
0.8893220769
 40
1.0
 40
1.0
 40
1.0
 40
1.0
 10
-9.9719875526
 20
1.5782077531
 30
0.0
 10
-9.9716110656
 20
1.5777977446
 30
0.0
 10
-9.9694199753
 20
1.5778278707
 30
0.0
 10
-9.9656192309
 20
1.5771795627
 30
0.0
 10
-9.9590636908
 20
1.5769524565
 30
0.0
 10
-9.9503996211
 20
1.5765136201
 30
0.0
 10
-9.9394650141
 20
1.5761778908
 30
0.0
 10
-9.926499952
 20
1.575831364
 30
0.0
 10
-9.9116254577
 20
1.5755229822
 30
0.0
 10
-9.8950373429
 20
1.5752424629
 30
0.0
 10
-9.8769353887
 20
1.5749983906
 30
0.0
 10
-9.8575434964
 20
1.5747925208
 30
0.0
 10
-9.8370997423
 20
1.5746279825
 30
0.0
 10
-9.8158556517
 20
1.5745067638
 30
0.0
 10
-9.7940724471
 20
1.5744304534
 30
0.0
 10
-9.7793997391
 20
1.5744102007
 30
0.0
 10
-9.7720180136
 20
1.5744077531
 30
0.0
 11
-9.9719875526
 21
1.5782077531
 31
0.0
 11
-9.9703715224
 21
1.577786931
 31
0.0
 11
-9.9663161386
 21
1.5773712842
 31
0.0
 11
-9.9598712745
 21
1.5769659243
 31
0.0
 11
-9.951116189
 21
1.5765758365
 31
0.0
 11
-9.9401585523
 21
1.5762058179
 31
0.0
 11
-9.9271331215
 21
1.5758604192
 31
0.0
 11
-9.9122000834
 21
1.575543888
 31
0.0
 11
-9.8955430849
 21
1.5752601171
 31
0.0
 11
-9.8773669737
 21
1.5750125962
 31
0.0
 11
-9.8578952799
 21
1.5748043694
 31
0.0
 11
-9.8373674666
 21
1.5746379974
 31
0.0
 11
-9.816035985
 21
1.5745155263
 31
0.0
 11
-9.79416317
 21
1.5744384623
 31
0.0
 11
-9.7720180136
 21
1.5744077531
 31
0.0
  0
SPLINE
  5
41A
100
AcDbEntity
  8
RACCORDO
100
AcDbSpline
 62
7
  6
CONTINUOUS
 70
0
 71
3
 72
33
 73
29
 74
27
 42
0.0000001
 43
0.0000001
 44
0.0000000001
 12
0.0055159556
 22
0.3096119391
 32
0.0
 13
0.3096155437
 23
0.0053097742
 33
0.0
 40
0.0
 40
0.0
 40
0.0
 40
0.0
 40
0.0313747583
 40
0.0631671774
 40
0.0953608023
 40
0.1279460403
 40
0.160920154
 40
0.194287053
 40
0.2280569936
 40
0.2622462794
 40
0.2968778883
 40
0.3319788278
 40
0.3675822631
 40
0.4037273763
 40
0.4404593158
 40
0.4778291866
 40
0.515894055
 40
0.5547169967
 40
0.5943670247
 40
0.6349187225
 40
0.6764513876
 40
0.7190423808
 40
0.7627672481
 40
0.8076926661
 40
0.8538691417
 40
0.9013227659
 40
0.9500474627
 40
1.0
 40
1.0
 40
1.0
 40
1.0
 10
-9.9704606087
 20
9.476100189
 30
0.0
 10
-9.9704029214
 20
9.479338189
 30
0.0
 10
-9.9701228069
 20
9.4858555459
 30
0.0
 10
-9.9692040965
 20
9.495659795
 30
0.0
 10
-9.9677690259
 20
9.5055285346
 30
0.0
 10
-9.9658047249
 20
9.5154301447
 30
0.0
 10
-9.963299953
 20
9.5253341437
 30
0.0
 10
-9.960244708
 20
9.5352106115
 30
0.0
 10
-9.9566298485
 20
9.5450301841
 30
0.0
 10
-9.9524467216
 20
9.5547638749
 30
0.0
 10
-9.9476869145
 20
9.5643826499
 30
0.0
 10
-9.9423419876
 20
9.5738571671
 30
0.0
 10
-9.9364032887
 20
9.583157385
 30
0.0
 10
-9.9298616633
 20
9.5922523208
 30
0.0
 10
-9.9227073199
 20
9.6011095338
 30
0.0
 10
-9.9149297667
 20
9.6096945499
 30
0.0
 10
-9.9065178321
 20
9.6179702202
 30
0.0
 10
-9.8974597945
 20
9.6258960031
 30
0.0
 10
-9.887743669
 20
9.6334271531
 30
0.0
 10
-9.8773577275
 20
9.6405138048
 30
0.0
 10
-9.8662918055
 20
9.6470996962
 30
0.0
 10
-9.8545389186
 20
9.6531211659
 30
0.0
 10
-9.8420977992
 20
9.6585062046
 30
0.0
 10
-9.8289758322
 20
9.6631740759
 30
0.0
 10
-9.8151932946
 20
9.6670355185
 30
0.0
 10
-9.8007873227
 20
9.6699942271
 30
0.0
 10
-9.7858178914
 20
9.6719498341
 30
0.0
 10
-9.7756362747
 20
9.6725116757
 30
0.0
 10
-9.770480914
 20
9.6726000879
 30
0.0
 11
-9.9704606087
 21
9.476100189
 31
0.0
 11
-9.970043631
 21
9.4858067781
 31
0.0
 11
-9.9691254063
 21
9.495608738
 31
0.0
 11
-9.9676910989
 21
9.5054741302
 31
0.0
 11
-9.9657279144
 21
9.5153716889
 31
0.0
 11
-9.9632246895
 21
9.5252708954
 31
0.0
 11
-9.9601714898
 21
9.5351419174
 31
0.0
 11
-9.9565592375
 21
9.5449554497
 31
0.0
 11
-9.9523793758
 21
9.5546824867
 31
0.0
 11
-9.9476234481
 21
9.5642942835
 31
0.0
 11
-9.9422831734
 21
9.5737613423
 31
0.0
 11
-9.9363499651
 21
9.5830536842
 31
0.0
 11
-9.9298147385
 21
9.5921403843
 31
0.0
 11
-9.9226677759
 21
9.6009890609
 31
0.0
 11
-9.9148986627
 21
9.609565303
 31
0.0
 11
-9.9064963107
 21
9.6178320285
 31
0.0
 11
-9.8974490771
 21
9.6257487788
 31
0.0
 11
-9.8877450352
 21
9.6332709179
 31
0.0
 11
-9.8773724751
 21
9.6403487235
 31
0.0
 11
-9.8663207327
 21
9.6469263816
 31
0.0
 11
-9.8545828896
 21
9.6529402622
 31
0.0
 11
-9.8421570679
 21
9.6583186964
 31
0.0
 11
-9.8290499951
 21
9.6629811779
 31
0.0
 11
-9.815281061
 21
9.6668385711
 31
0.0
 11
-9.8008868992
 21
9.6697945166
 31
0.0
 11
-9.7859258063
 21
9.671748415
 31
0.0
 11
-9.770480914
 21
9.6726000879
 31
0.0
  0
SPLINE
  5
41B
100
AcDbEntity
  8
RACCORDO
100
AcDbSpline
 62
253
  6
CONTINUOUS
 70
0
 71
3
 72
21
 73
17
 74
15
 42
0.0000001
 43
0.0000001
 44
0.0000000001
 12
0.0250850637
 22
-0.2035812366
 32
0.0
 13
0.2051202755
 23
-0.0005028817
 33
0.0
 40
0.0
 40
0.0
 40
0.0
 40
0.0
 40
0.0170612327
 40
0.0418405126
 40
0.0764709676
 40
0.1213947379
 40
0.1764444955
 40
0.2411484691
 40
0.3148357848
 40
0.3966840783
 40
0.4857475952
 40
0.5809780134
 40
0.6812424765
 40
0.7853406371
 40
0.8920214505
 40
1.0
 40
1.0
 40
1.0
 40
1.0
 10
-9.9869419923
 20
-9.1276910207
 30
0.0
 10
-9.9867993316
 20
-9.128848803
 30
0.0
 10
-9.9851491739
 20
-9.1314432988
 30
0.0
 10
-9.9807684039
 20
-9.1343413234
 30
0.0
 10
-9.9742275805
 20
-9.137253193
 30
0.0
 10
-9.9654444568
 20
-9.1400347422
 30
0.0
 10
-9.9545005323
 20
-9.1427074461
 30
0.0
 10
-9.9415087431
 20
-9.1452078164
 30
0.0
 10
-9.9266242425
 20
-9.1475080878
 30
0.0
 10
-9.910026181
 20
-9.149573932
 30
0.0
 10
-9.8919172348
 20
-9.1513786656
 30
0.0
 10
-9.8725191035
 20
-9.1528984093
 30
0.0
 10
-9.8520698174
 20
-9.154113612
 30
0.0
 10
-9.8308204925
 20
-9.1550086836
 30
0.0
 10
-9.8090322948
 20
-9.1555722226
 30
0.0
 10
-9.7943553165
 20
-9.1557218419
 30
0.0
 10
-9.7869724532
 20
-9.1557399421
 30
0.0
 11
-9.9869419923
 21
-9.1276910207
 31
0.0
 11
-9.9853294024
 21
-9.1307969603
 31
0.0
 11
-9.9812768857
 21
-9.1338647667
 31
0.0
 11
-9.9748342908
 21
-9.1368567036
 31
0.0
 11
-9.9660808661
 21
-9.1397359683
 31
0.0
 11
-9.9551242845
 21
-9.1424671437
 31
0.0
 11
-9.9420993196
 21
-9.1450166345
 31
0.0
 11
-9.9271661873
 21
-9.1473530803
 31
0.0
 11
-9.9105085755
 21
-9.1494477411
 31
0.0
 11
-9.8923313841
 21
-9.1512748511
 31
0.0
 11
-9.8728582053
 21
-9.1528119357
 31
0.0
 11
-9.8523285725
 21
-9.1540400875
 31
0.0
 11
-9.8309950144
 21
-9.1549441996
 31
0.0
 11
-9.8091199485
 21
-9.1555131506
 31
0.0
 11
-9.7869724532
 21
-9.1557399421
 31
0.0
  0
SPLINE
  5
41C
100
AcDbEntity
  8
RACCORDO
100
AcDbSpline
 62
253
  6
CONTINUOUS
 70
0
 71
3
 72
22
 73
18
 74
16
 42
0.0000001
 43
0.0000001
 44
0.0000000001
 12
-0.3126114736
 22
0.000660042
 32
0.0
 13
-0.0006697887
 23
0.3126114528
 33
0.0
 40
0.0
 40
0.0
 40
0.0
 40
0.0
 40
0.0668757228
 40
0.1337552111
 40
0.2006274679
 40
0.2674817411
 40
0.3343080599
 40
0.4010976746
 40
0.467843438
 40
0.5345400255
 40
0.6011844494
 40
0.6677754294
 40
0.7343151708
 40
0.8008054037
 40
0.8672528095
 40
0.9336612477
 40
1.0
 40
1.0
 40
1.0
 40
1.0
 10
-9.7869724532
 20
-9.3262002511
 30
0.0
 10
-9.7939411593
 20
-9.3261855375
 30
0.0
 10
-9.8078882513
 20
-9.3254315688
 30
0.0
 10
-9.8285699269
 20
-9.3221401818
 30
0.0
 10
-9.8487994839
 20
-9.3167241904
 30
0.0
 10
-9.8683529965
 20
-9.3092427312
 30
0.0
 10
-9.8870176454
 20
-9.2997774814
 30
0.0
 10
-9.9045892978
 20
-9.2884317796
 30
0.0
 10
-9.9208759983
 20
-9.2753295065
 30
0.0
 10
-9.9356997396
 20
-9.2606137324
 30
0.0
 10
-9.9488984577
 20
-9.2444451971
 30
0.0
 10
-9.9603278724
 20
-9.2270004964
 30
0.0
 10
-9.9698629035
 20
-9.2084703097
 30
0.0
 10
-9.9773992757
 20
-9.1890573965
 30
0.0
 10
-9.9828544684
 20
-9.1689736283
 30
0.0
 10
-9.9861682839
 20
-9.1484460006
 30
0.0
 10
-9.9869271813
 20
-9.134603772
 30
0.0
 10
-9.9869419923
 20
-9.1276910207
 30
0.0
 11
-9.7869724532
 21
-9.3262002511
 31
0.0
 11
-9.8078481257
 21
-9.3250715233
 31
0.0
 11
-9.8284956716
 21
-9.3217858274
 31
0.0
 11
-9.8486894663
 21
-9.3163790649
 31
0.0
 11
-9.8682088225
 21
-9.3089103205
 31
0.0
 11
-9.8868404252
 21
-9.2994612155
 31
0.0
 11
-9.9043806663
 21
-9.2881350126
 31
0.0
 11
-9.9206378688
 21
-9.2750554851
 31
0.0
 11
-9.9354343608
 21
-9.2603655836
 31
0.0
 11
-9.948608478
 21
-9.2442258105
 31
0.0
 11
-9.9600161832
 21
-9.2268126538
 31
0.0
 11
-9.9695329418
 21
-9.2083162098
 31
0.0
 11
-9.9770545294
 21
-9.1889391818
 31
0.0
 11
-9.9824989609
 21
-9.168893103
 31
0.0
 11
-9.985806689
 21
-9.1483982231
 31
0.0
 11
-9.9869419923
 21
-9.1276910207
 31
0.0
  0
SPLINE
  5
41D
100
AcDbEntity
  8
RACCORDO
100
AcDbSpline
 62
253
  6
CONTINUOUS
 70
0
 71
3
 72
22
 73
18
 74
16
 42
0.0000001
 43
0.0000001
 44
0.0000000001
 12
-0.0006697887
 22
-0.3126114526
 32
0.0
 13
-0.3126114733
 23
-0.000660042
 33
0.0
 40
0.0
 40
0.0
 40
0.0
 40
0.0
 40
0.066387331
 40
0.1327999094
 40
0.1992469406
 40
0.2657360275
 40
0.3322729691
 40
0.398861485
 40
0.4655030272
 40
0.5321967279
 40
0.59893949
 40
0.6657259869
 40
0.7325492749
 40
0.7994001577
 40
0.8662691406
 40
0.9331440711
 40
1.0
 40
1.0
 40
1.0
 40
1.0
 10
9.7063447249
 20
-9.1276910207
 30
0.0
 10
9.7063299031
 20
-9.1346088341
 30
0.0
 10
9.7055701671
 20
-9.1484565793
 30
0.0
 10
9.7022538301
 20
-9.1689893326
 30
0.0
 10
9.6967968951
 20
-9.1890729118
 30
0.0
 10
9.689259098
 20
-9.2084847861
 30
0.0
 10
9.6797229194
 20
-9.2270136257
 30
0.0
 10
9.6682926776
 20
-9.2444567645
 30
0.0
 10
9.655093376
 20
-9.2606237094
 30
0.0
 10
9.640269328
 20
-9.2753378703
 30
0.0
 10
9.6239825713
 20
-9.2884385679
 30
0.0
 10
9.6064110944
 20
-9.2997827739
 30
0.0
 10
9.5877468575
 20
-9.3092466265
 30
0.0
 10
9.5681939526
 20
-9.3167268312
 30
0.0
 10
9.5479653127
 20
-9.322141702
 30
0.0
 10
9.5272863747
 20
-9.3254319258
 30
0.0
 10
9.5133418293
 20
-9.3261855418
 30
0.0
 10
9.5063751859
 20
-9.3262002511
 30
0.0
 11
9.7063447249
 21
-9.1276910207
 31
0.0
 11
9.7052077912
 21
-9.1484133428
 31
0.0
 11
9.7018982103
 21
-9.1689092346
 31
0.0
 11
9.6964521419
 21
-9.1889547474
 31
0.0
 11
9.6889290984
 21
-9.2083308259
 31
0.0
 11
9.6794112875
 21
-9.226825744
 31
0.0
 11
9.6680027121
 21
-9.2442374097
 31
0.0
 11
9.6548280373
 21
-9.2603755647
 31
0.0
 11
9.6400312286
 21
-9.2750638662
 31
0.0
 11
9.6237739669
 21
-9.2881418233
 31
0.0
 11
9.6062339157
 21
-9.2994665234
 31
0.0
 11
9.5876026794
 21
-9.3089142562
 31
0.0
 11
9.5680839727
 21
-9.3163817317
 31
0.0
 11
9.5478909483
 21
-9.3217874141
 31
0.0
 11
9.5272446969
 21
-9.3250721783
 31
0.0
 11
9.5063751859
 21
-9.3262002511
 31
0.0
  0
SPLINE
  5
41E
100
AcDbEntity
  8
RACCORDO
100
AcDbSpline
 62
253
  6
CONTINUOUS
 70
0
 71
3
 72
21
 73
17
 74
15
 42
0.0000001
 43
0.0000001
 44
0.0000000001
 12
0.2051205698
 22
0.0003635311
 32
0.0
 13
0.0255821035
 23
0.2035193757
 33
0.0
 40
0.0
 40
0.0
 40
0.0
 40
0.0
 40
0.1079785495
 40
0.2146593629
 40
0.3187575235
 40
0.4190219866
 40
0.5142524048
 40
0.6033159217
 40
0.6851642152
 40
0.7588515309
 40
0.8235555045
 40
0.8786052621
 40
0.9235290324
 40
0.9581594874
 40
0.9829387673
 40
1.0
 40
1.0
 40
1.0
 40
1.0
 10
9.5063751859
 20
-9.1557399421
 30
0.0
 10
9.5137580597
 20
-9.1557268576
 30
0.0
 10
9.5284350226
 20
-9.1555699215
 30
0.0
 10
9.5502232264
 20
-9.1550092813
 30
0.0
 10
9.5714725497
 20
-9.1541134597
 30
0.0
 10
9.5919218361
 20
-9.1528984473
 30
0.0
 10
9.6113199679
 20
-9.1513786564
 30
0.0
 10
9.6294289122
 20
-9.1495739341
 30
0.0
 10
9.6460269797
 20
-9.1475080879
 30
0.0
 10
9.6609114614
 20
-9.1452078147
 30
0.0
 10
9.6739033085
 20
-9.1427074515
 30
0.0
 10
9.6848470635
 20
-9.1400347265
 30
0.0
 10
9.693630654
 20
-9.1372532354
 30
0.0
 10
9.7001702905
 20
-9.1343412181
 30
0.0
 10
9.7045538203
 20
-9.131443537
 30
0.0
 10
9.7061992375
 20
-9.1288484512
 30
0.0
 10
9.7063447249
 20
-9.1276910207
 30
0.0
 11
9.5063751859
 21
-9.1557399421
 31
0.0
 11
9.5285226811
 21
-9.1555131506
 31
0.0
 11
9.550397747
 21
-9.1549441996
 31
0.0
 11
9.5717313051
 21
-9.1540400875
 31
0.0
 11
9.5922609379
 21
-9.1528119357
 31
0.0
 11
9.6117341168
 21
-9.1512748511
 31
0.0
 11
9.6299113081
 21
-9.1494477411
 31
0.0
 11
9.64656892
 21
-9.1473530803
 31
0.0
 11
9.6615020523
 21
-9.1450166345
 31
0.0
 11
9.6745270172
 21
-9.1424671437
 31
0.0
 11
9.6854835987
 21
-9.1397359683
 31
0.0
 11
9.6942370234
 21
-9.1368567036
 31
0.0
 11
9.7006796183
 21
-9.1338647667
 31
0.0
 11
9.704732135
 21
-9.1307969603
 31
0.0
 11
9.7063447249
 21
-9.1276910207
 31
0.0
  0
SPLINE
  5
41F
100
AcDbEntity
  8
RACCORDO
100
AcDbSpline
 62
253
  6
CONTINUOUS
 70
0
 71
3
 72
23
 73
19
 74
17
 42
0.0000001
 43
0.0000001
 44
0.0000000001
 12
0.0491914864
 22
-0.2957708659
 32
0.0
 13
0.0000001967
 23
-0.299833633
 33
0.0
 40
0.0
 40
0.0
 40
0.0
 40
0.0
 40
0.0079689118
 40
0.0250616767
 40
0.0511282119
 40
0.0859300655
 40
0.1291474542
 40
0.1803827769
 40
0.2391643628
 40
0.3049510199
 40
0.3771370793
 40
0.4550579463
 40
0.5379961558
 40
0.6251879707
 40
0.7158306592
 40
0.8090897846
 40
0.9041062951
 40
1.0
 40
1.0
 40
1.0
 40
1.0
 10
5.2994384476
 20
-4.5439815724
 30
0.0
 10
5.2995691152
 20
-4.5447672297
 30
0.0
 10
5.299618026
 20
-4.54728239
 30
0.0
 10
5.2998225121
 20
-4.5523802382
 30
0.0
 10
5.299945454
 20
-4.5601756974
 30
0.0
 10
5.3001080727
 20
-4.5705753331
 30
0.0
 10
5.3002495751
 20
-4.5834935922
 30
0.0
 10
5.3003901717
 20
-4.5988076317
 30
0.0
 10
5.3005201619
 20
-4.6163778495
 30
0.0
 10
5.3006408186
 20
-4.6360419756
 30
0.0
 10
5.3007500206
 20
-4.657619097
 30
0.0
 10
5.3008469525
 20
-4.6809104854
 30
0.0
 10
5.3009305773
 20
-4.7057016807
 30
0.0
 10
5.3010001241
 20
-4.7317643996
 30
0.0
 10
5.3010548966
 20
-4.7588586753
 30
0.0
 10
5.3010944136
 20
-4.7867350137
 30
0.0
 10
5.3011182519
 20
-4.8151361804
 30
0.0
 10
5.3011235542
 20
-4.8342166154
 30
0.0
 10
5.3011235605
 20
-4.843800668
 30
0.0
 11
5.2994384476
 21
-4.5439815724
 31
0.0
 11
5.2996054088
 21
-4.5463650796
 31
0.0
 11
5.2997702228
 21
-4.5514874146
 31
0.0
 11
5.2999315156
 21
-4.559301374
 31
0.0
 11
5.3000876657
 21
-4.5697349719
 31
0.0
 11
5.3002372928
 21
-4.5826921346
 31
0.0
 11
5.3003789978
 21
-4.5980535539
 31
0.0
 11
5.3005114826
 21
-4.6156777525
 31
0.0
 11
5.3006335247
 21
-4.6354024273
 31
0.0
 11
5.3007439999
 21
-4.6570459538
 31
0.0
 11
5.300841891
 21
-4.6804090454
 31
0.0
 11
5.3009262955
 21
-4.7052765668
 31
0.0
 11
5.3009964399
 21
-4.7314195113
 31
0.0
 11
5.3010516711
 21
-4.7585971818
 31
0.0
 11
5.301091495
 21
-4.7865593758
 31
0.0
 11
5.3011155247
 21
-4.8150485112
 31
0.0
 11
5.3011235605
 21
-4.843800668
 31
0.0
  0
SPLINE
  5
420
100
AcDbEntity
  8
RACCORDO
100
AcDbSpline
 62
253
  6
CONTINUOUS
 70
0
 71
3
 72
23
 73
19
 74
17
 42
0.0000001
 43
0.0000001
 44
0.0000000001
 12
-0.0492585984
 22
-0.2957596782
 32
0.0
 13
-0.0000001932
 23
-0.2998336151
 33
0.0
 40
0.0
 40
0.0
 40
0.0
 40
0.0
 40
0.007968687
 40
0.0250612947
 40
0.0511276973
 40
0.085929445
 40
0.1291467572
 40
0.1803820304
 40
0.2391635915
 40
0.3049502491
 40
0.3771363341
 40
0.4550572496
 40
0.5379955262
 40
0.6251874237
 40
0.7158302111
 40
0.8090894483
 40
0.9041060725
 40
1.0
 40
1.0
 40
1.0
 40
1.0
 10
5.6199642868
 20
-4.5439815616
 30
0.0
 10
5.6198334447
 20
-4.544767167
 30
0.0
 10
5.6197849202
 20
-4.5472823504
 30
0.0
 10
5.6195801186
 20
-4.5523800985
 30
0.0
 10
5.6194573465
 20
-4.5601755423
 30
0.0
 10
5.6192946556
 20
-4.5705751357
 30
0.0
 10
5.6191531816
 20
-4.5834933746
 30
0.0
 10
5.6190125747
 20
-4.5988073968
 30
0.0
 10
5.6188825873
 20
-4.6163776067
 30
0.0
 10
5.6187619283
 20
-4.6360417316
 30
0.0
 10
5.6186527238
 20
-4.6576188591
 30
0.0
 10
5.6185557878
 20
-4.6809102602
 30
0.0
 10
5.6184721606
 20
-4.7057014738
 30
0.0
 10
5.6184026111
 20
-4.7317642161
 30
0.0
 10
5.6183478381
 20
-4.7588585194
 30
0.0
 10
5.6183083187
 20
-4.7867348886
 30
0.0
 10
5.6182844814
 20
-4.8151360984
 30
0.0
 10
5.6182791783
 20
-4.8342165658
 30
0.0
 10
5.6182791721
 20
-4.8438006402
 30
0.0
 11
5.6199642868
 21
-4.5439815616
 31
0.0
 11
5.6197973427
 21
-4.5463650023
 31
0.0
 11
5.6196325203
 21
-4.5514872896
 31
0.0
 11
5.6194712339
 21
-4.5593012089
 31
0.0
 11
5.6193150827
 21
-4.5697347743
 31
0.0
 11
5.6191654566
 21
-4.5826919134
 31
0.0
 11
5.6190237512
 21
-4.598053317
 31
0.0
 11
5.6188912657
 21
-4.615677507
 31
0.0
 11
5.6187692223
 21
-4.6354021808
 31
0.0
 11
5.6186587445
 21
-4.6570457137
 31
0.0
 11
5.6185608498
 21
-4.6804088184
 31
0.0
 11
5.6184764424
 21
-4.7052763584
 31
0.0
 11
5.6184062957
 21
-4.7314193261
 31
0.0
 11
5.6183510633
 21
-4.7585970247
 31
0.0
 11
5.618311238
 21
-4.7865592505
 31
0.0
 11
5.6182872083
 21
-4.8150484183
 31
0.0
 11
5.6182791721
 21
-4.8438006402
 31
0.0
  0
SPLINE
  5
421
100
AcDbEntity
  8
RACCORDO
100
AcDbSpline
 62
253
  6
CONTINUOUS
 70
0
 71
3
 72
23
 73
19
 74
17
 42
0.0000001
 43
0.0000001
 44
0.0000000001
 12
0.0491914864
 22
-0.2957708659
 32
0.0
 13
0.0000001967
 23
-0.299833633
 33
0.0
 40
0.0
 40
0.0
 40
0.0
 40
0.0
 40
0.0079689118
 40
0.0250616767
 40
0.0511282119
 40
0.0859300655
 40
0.1291474542
 40
0.1803827769
 40
0.2391643628
 40
0.3049510199
 40
0.3771370793
 40
0.4550579463
 40
0.5379961558
 40
0.6251879707
 40
0.7158306592
 40
0.8090897846
 40
0.9041062951
 40
1.0
 40
1.0
 40
1.0
 40
1.0
 10
-5.9005615524
 20
-4.5439815724
 30
0.0
 10
-5.9004308848
 20
-4.5447672297
 30
0.0
 10
-5.900381974
 20
-4.54728239
 30
0.0
 10
-5.9001774879
 20
-4.5523802382
 30
0.0
 10
-5.900054546
 20
-4.5601756974
 30
0.0
 10
-5.8998919273
 20
-4.5705753331
 30
0.0
 10
-5.8997504249
 20
-4.5834935922
 30
0.0
 10
-5.8996098283
 20
-4.5988076317
 30
0.0
 10
-5.8994798381
 20
-4.6163778495
 30
0.0
 10
-5.8993591814
 20
-4.6360419756
 30
0.0
 10
-5.8992499794
 20
-4.657619097
 30
0.0
 10
-5.8991530475
 20
-4.6809104854
 30
0.0
 10
-5.8990694227
 20
-4.7057016807
 30
0.0
 10
-5.8989998759
 20
-4.7317643996
 30
0.0
 10
-5.8989451034
 20
-4.7588586753
 30
0.0
 10
-5.8989055864
 20
-4.7867350137
 30
0.0
 10
-5.8988817481
 20
-4.8151361804
 30
0.0
 10
-5.8988764458
 20
-4.8342166154
 30
0.0
 10
-5.8988764395
 20
-4.843800668
 30
0.0
 11
-5.9005615524
 21
-4.5439815724
 31
0.0
 11
-5.9003945912
 21
-4.5463650796
 31
0.0
 11
-5.9002297772
 21
-4.5514874146
 31
0.0
 11
-5.9000684844
 21
-4.559301374
 31
0.0
 11
-5.8999123343
 21
-4.5697349719
 31
0.0
 11
-5.8997627072
 21
-4.5826921346
 31
0.0
 11
-5.8996210022
 21
-4.5980535539
 31
0.0
 11
-5.8994885174
 21
-4.6156777525
 31
0.0
 11
-5.8993664753
 21
-4.6354024273
 31
0.0
 11
-5.8992560001
 21
-4.6570459538
 31
0.0
 11
-5.899158109
 21
-4.6804090454
 31
0.0
 11
-5.8990737045
 21
-4.7052765668
 31
0.0
 11
-5.8990035601
 21
-4.7314195113
 31
0.0
 11
-5.8989483289
 21
-4.7585971818
 31
0.0
 11
-5.898908505
 21
-4.7865593758
 31
0.0
 11
-5.8988844753
 21
-4.8150485112
 31
0.0
 11
-5.8988764395
 21
-4.843800668
 31
0.0
  0
SPLINE
  5
422
100
AcDbEntity
  8
RACCORDO
100
AcDbSpline
 62
253
  6
CONTINUOUS
 70
0
 71
3
 72
23
 73
19
 74
17
 42
0.0000001
 43
0.0000001
 44
0.0000000001
 12
-0.0492585984
 22
-0.2957596782
 32
0.0
 13
-0.0000001932
 23
-0.2998336151
 33
0.0
 40
0.0
 40
0.0
 40
0.0
 40
0.0
 40
0.007968687
 40
0.0250612947
 40
0.0511276973
 40
0.085929445
 40
0.1291467572
 40
0.1803820304
 40
0.2391635915
 40
0.3049502491
 40
0.3771363341
 40
0.4550572496
 40
0.5379955262
 40
0.6251874237
 40
0.7158302111
 40
0.8090894483
 40
0.9041060725
 40
1.0
 40
1.0
 40
1.0
 40
1.0
 10
-5.5800357132
 20
-4.5439815616
 30
0.0
 10
-5.5801665553
 20
-4.544767167
 30
0.0
 10
-5.5802150798
 20
-4.5472823504
 30
0.0
 10
-5.5804198814
 20
-4.5523800985
 30
0.0
 10
-5.5805426535
 20
-4.5601755423
 30
0.0
 10
-5.5807053444
 20
-4.5705751357
 30
0.0
 10
-5.5808468184
 20
-4.5834933746
 30
0.0
 10
-5.5809874253
 20
-4.5988073968
 30
0.0
 10
-5.5811174127
 20
-4.6163776067
 30
0.0
 10
-5.5812380717
 20
-4.6360417316
 30
0.0
 10
-5.5813472762
 20
-4.6576188591
 30
0.0
 10
-5.5814442122
 20
-4.6809102602
 30
0.0
 10
-5.5815278394
 20
-4.7057014738
 30
0.0
 10
-5.5815973889
 20
-4.7317642161
 30
0.0
 10
-5.5816521619
 20
-4.7588585194
 30
0.0
 10
-5.5816916813
 20
-4.7867348886
 30
0.0
 10
-5.5817155186
 20
-4.8151360984
 30
0.0
 10
-5.5817208217
 20
-4.8342165658
 30
0.0
 10
-5.5817208279
 20
-4.8438006402
 30
0.0
 11
-5.5800357132
 21
-4.5439815616
 31
0.0
 11
-5.5802026573
 21
-4.5463650023
 31
0.0
 11
-5.5803674797
 21
-4.5514872896
 31
0.0
 11
-5.5805287661
 21
-4.5593012089
 31
0.0
 11
-5.5806849173
 21
-4.5697347743
 31
0.0
 11
-5.5808345434
 21
-4.5826919134
 31
0.0
 11
-5.5809762488
 21
-4.598053317
 31
0.0
 11
-5.5811087343
 21
-4.615677507
 31
0.0
 11
-5.5812307777
 21
-4.6354021808
 31
0.0
 11
-5.5813412555
 21
-4.6570457137
 31
0.0
 11
-5.5814391502
 21
-4.6804088184
 31
0.0
 11
-5.5815235576
 21
-4.7052763584
 31
0.0
 11
-5.5815937043
 21
-4.7314193261
 31
0.0
 11
-5.5816489367
 21
-4.7585970247
 31
0.0
 11
-5.581688762
 21
-4.7865592505
 31
0.0
 11
-5.5817127917
 21
-4.8150484183
 31
0.0
 11
-5.5817208279
 21
-4.8438006402
 31
0.0
  0
SPLINE
  5
423
100
AcDbEntity
  8
RACCORDO
100
AcDbSpline
 62
253
  6
CONTINUOUS
 70
0
 71
3
 72
22
 73
18
 74
16
 42
0.0000001
 43
0.0000001
 44
0.0000000001
 12
-0.0000001776
 22
0.295451599
 32
0.0
 13
-0.0097419948
 23
0.2952909427
 33
0.0
 40
0.0
 40
0.0
 40
0.0
 40
0.0
 40
0.0943761376
 40
0.1879405917
 40
0.2798780914
 40
0.3693923562
 40
0.4557085299
 40
0.5380792309
 40
0.6157912588
 40
0.6881717257
 40
0.7545940315
 40
0.8144830546
 40
0.8673202855
 40
0.9126483147
 40
0.9500749542
 40
0.9792764623
 40
1.0
 40
1.0
 40
1.0
 40
1.0
 10
5.3604888686
 20
-6.6055796438
 30
0.0
 10
5.360488863
 20
-6.5962851168
 30
0.0
 10
5.3604838733
 20
-6.5777760003
 30
0.0
 10
5.3604614421
 20
-6.5502125316
 30
0.0
 10
5.3604242416
 20
-6.5231278952
 30
0.0
 10
5.3603726501
 20
-6.4967571222
 30
0.0
 10
5.3603070904
 20
-6.4713285585
 30
0.0
 10
5.3602281738
 20
-6.4470623682
 30
0.0
 10
5.3601366021
 20
-6.4241686746
 30
0.0
 10
5.36003322
 20
-6.4028457077
 30
0.0
 10
5.3599189877
 20
-6.3832781008
 30
0.0
 10
5.3597949927
 20
-6.3656352894
 30
0.0
 10
5.3596625032
 20
-6.3500700466
 30
0.0
 10
5.359522848
 20
-6.3367171586
 30
0.0
 10
5.3593781842
 20
-6.3256921921
 30
0.0
 10
5.3592297103
 20
-6.3170907548
 30
0.0
 10
5.3591133118
 20
-6.3121751813
 30
0.0
 10
5.3590460156
 20
-6.310135357
 30
0.0
 11
5.3604888686
 21
-6.6055796438
 31
0.0
 11
5.3604813117
 21
-6.577696064
 31
0.0
 11
5.3604587104
 21
-6.5500523057
 31
0.0
 11
5.3604212397
 21
-6.5228892502
 31
0.0
 11
5.3603692433
 21
-6.4964421687
 31
0.0
 11
5.3603031572
 21
-6.4709400028
 31
0.0
 11
5.3602235606
 21
-6.4466035777
 31
0.0
 11
5.3601311396
 21
-6.4236436208
 31
0.0
 11
5.3600266974
 21
-6.4022589511
 31
0.0
 11
5.3599111375
 21
-6.3826347149
 31
0.0
 11
5.3597854628
 21
-6.3649408536
 31
0.0
 11
5.3596507563
 21
-6.3493305904
 31
0.0
 11
5.3595082005
 21
-6.3359391105
 31
0.0
 11
5.3593589874
 21
-6.3248823568
 31
0.0
 11
5.3592045098
 21
-6.3162561076
 31
0.0
 11
5.3590460156
 21
-6.310135357
 31
0.0
  0
SPLINE
  5
424
100
AcDbEntity
  8
RACCORDO
100
AcDbSpline
 62
253
  6
CONTINUOUS
 70
0
 71
3
 72
22
 73
18
 74
16
 42
0.0000001
 43
0.0000001
 44
0.0000000001
 12
-0.0097419949
 22
-0.2952909427
 32
0.0
 13
-0.0000001776
 23
-0.295451599
 33
0.0
 40
0.0
 40
0.0
 40
0.0
 40
0.0
 40
0.0207235378
 40
0.0499250458
 40
0.0873516853
 40
0.1326797145
 40
0.1855169454
 40
0.2454059685
 40
0.3118282743
 40
0.3842087412
 40
0.4619207691
 40
0.5442914701
 40
0.6306076439
 40
0.7201219086
 40
0.8120594083
 40
0.9056238624
 40
1.0
 40
1.0
 40
1.0
 40
1.0
 10
5.560356717
 20
-6.310135357
 30
0.0
 10
5.5602894208
 20
-6.3121751813
 30
0.0
 10
5.5601730224
 20
-6.3170907548
 30
0.0
 10
5.5600245484
 20
-6.3256921921
 30
0.0
 10
5.5598798846
 20
-6.3367171586
 30
0.0
 10
5.5597402295
 20
-6.3500700466
 30
0.0
 10
5.5596077399
 20
-6.3656352894
 30
0.0
 10
5.5594837449
 20
-6.3832781008
 30
0.0
 10
5.5593695126
 20
-6.4028457077
 30
0.0
 10
5.5592661306
 20
-6.4241686746
 30
0.0
 10
5.5591745588
 20
-6.4470623682
 30
0.0
 10
5.5590956422
 20
-6.4713285585
 30
0.0
 10
5.5590300825
 20
-6.4967571222
 30
0.0
 10
5.5589784911
 20
-6.5231278952
 30
0.0
 10
5.5589412906
 20
-6.5502125316
 30
0.0
 10
5.5589188593
 20
-6.5777760003
 30
0.0
 10
5.5589138696
 20
-6.5962851168
 30
0.0
 10
5.558913864
 20
-6.6055796438
 30
0.0
 11
5.560356717
 21
-6.310135357
 31
0.0
 11
5.5601982228
 21
-6.3162561076
 31
0.0
 11
5.5600437452
 21
-6.3248823568
 31
0.0
 11
5.5598945322
 21
-6.3359391105
 31
0.0
 11
5.5597519763
 21
-6.3493305904
 31
0.0
 11
5.5596172699
 21
-6.3649408536
 31
0.0
 11
5.5594915952
 21
-6.3826347149
 31
0.0
 11
5.5593760353
 21
-6.4022589511
 31
0.0
 11
5.559271593
 21
-6.4236436208
 31
0.0
 11
5.559179172
 21
-6.4466035777
 31
0.0
 11
5.5590995754
 21
-6.4709400028
 31
0.0
 11
5.5590334894
 21
-6.4964421687
 31
0.0
 11
5.558981493
 21
-6.5228892502
 31
0.0
 11
5.5589440222
 21
-6.5500523057
 31
0.0
 11
5.5589214209
 21
-6.577696064
 31
0.0
 11
5.558913864
 21
-6.6055796438
 31
0.0
  0
SPLINE
  5
425
100
AcDbEntity
  8
RACCORDO
100
AcDbSpline
 62
253
  6
CONTINUOUS
 70
0
 71
3
 72
22
 73
18
 74
16
 42
0.0000001
 43
0.0000001
 44
0.0000000001
 12
-0.0000001776
 22
0.295451599
 32
0.0
 13
-0.0097419948
 23
0.2952909427
 33
0.0
 40
0.0
 40
0.0
 40
0.0
 40
0.0
 40
0.0943761376
 40
0.1879405917
 40
0.2798780914
 40
0.3693923562
 40
0.4557085299
 40
0.5380792309
 40
0.6157912588
 40
0.6881717257
 40
0.7545940315
 40
0.8144830546
 40
0.8673202855
 40
0.9126483147
 40
0.9500749542
 40
0.9792764623
 40
1.0
 40
1.0
 40
1.0
 40
1.0
 10
-5.8395111314
 20
-6.6055796438
 30
0.0
 10
-5.839511137
 20
-6.5962851168
 30
0.0
 10
-5.8395161267
 20
-6.5777760003
 30
0.0
 10
-5.8395385579
 20
-6.5502125316
 30
0.0
 10
-5.8395757584
 20
-6.5231278952
 30
0.0
 10
-5.8396273499
 20
-6.4967571222
 30
0.0
 10
-5.8396929096
 20
-6.4713285585
 30
0.0
 10
-5.8397718262
 20
-6.4470623682
 30
0.0
 10
-5.8398633979
 20
-6.4241686746
 30
0.0
 10
-5.83996678
 20
-6.4028457077
 30
0.0
 10
-5.8400810123
 20
-6.3832781008
 30
0.0
 10
-5.8402050073
 20
-6.3656352894
 30
0.0
 10
-5.8403374968
 20
-6.3500700466
 30
0.0
 10
-5.840477152
 20
-6.3367171586
 30
0.0
 10
-5.8406218158
 20
-6.3256921921
 30
0.0
 10
-5.8407702897
 20
-6.3170907548
 30
0.0
 10
-5.8408866882
 20
-6.3121751813
 30
0.0
 10
-5.8409539844
 20
-6.310135357
 30
0.0
 11
-5.8395111314
 21
-6.6055796438
 31
0.0
 11
-5.8395186883
 21
-6.577696064
 31
0.0
 11
-5.8395412896
 21
-6.5500523057
 31
0.0
 11
-5.8395787603
 21
-6.5228892502
 31
0.0
 11
-5.8396307567
 21
-6.4964421687
 31
0.0
 11
-5.8396968428
 21
-6.4709400028
 31
0.0
 11
-5.8397764394
 21
-6.4466035777
 31
0.0
 11
-5.8398688604
 21
-6.4236436208
 31
0.0
 11
-5.8399733026
 21
-6.4022589511
 31
0.0
 11
-5.8400888625
 21
-6.3826347149
 31
0.0
 11
-5.8402145372
 21
-6.3649408536
 31
0.0
 11
-5.8403492437
 21
-6.3493305904
 31
0.0
 11
-5.8404917995
 21
-6.3359391105
 31
0.0
 11
-5.8406410126
 21
-6.3248823568
 31
0.0
 11
-5.8407954902
 21
-6.3162561076
 31
0.0
 11
-5.8409539844
 21
-6.310135357
 31
0.0
  0
SPLINE
  5
426
100
AcDbEntity
  8
RACCORDO
100
AcDbSpline
 62
253
  6
CONTINUOUS
 70
0
 71
3
 72
22
 73
18
 74
16
 42
0.0000001
 43
0.0000001
 44
0.0000000001
 12
-0.0097419949
 22
-0.2952909427
 32
0.0
 13
-0.0000001776
 23
-0.295451599
 33
0.0
 40
0.0
 40
0.0
 40
0.0
 40
0.0
 40
0.0207235378
 40
0.0499250458
 40
0.0873516853
 40
0.1326797145
 40
0.1855169454
 40
0.2454059685
 40
0.3118282743
 40
0.3842087412
 40
0.4619207691
 40
0.5442914701
 40
0.6306076439
 40
0.7201219086
 40
0.8120594083
 40
0.9056238624
 40
1.0
 40
1.0
 40
1.0
 40
1.0
 10
-5.639643283
 20
-6.310135357
 30
0.0
 10
-5.6397105792
 20
-6.3121751813
 30
0.0
 10
-5.6398269776
 20
-6.3170907548
 30
0.0
 10
-5.6399754516
 20
-6.3256921921
 30
0.0
 10
-5.6401201154
 20
-6.3367171586
 30
0.0
 10
-5.6402597705
 20
-6.3500700466
 30
0.0
 10
-5.6403922601
 20
-6.3656352894
 30
0.0
 10
-5.6405162551
 20
-6.3832781008
 30
0.0
 10
-5.6406304874
 20
-6.4028457077
 30
0.0
 10
-5.6407338694
 20
-6.4241686746
 30
0.0
 10
-5.6408254412
 20
-6.4470623682
 30
0.0
 10
-5.6409043578
 20
-6.4713285585
 30
0.0
 10
-5.6409699175
 20
-6.4967571222
 30
0.0
 10
-5.6410215089
 20
-6.5231278952
 30
0.0
 10
-5.6410587094
 20
-6.5502125316
 30
0.0
 10
-5.6410811407
 20
-6.5777760003
 30
0.0
 10
-5.6410861304
 20
-6.5962851168
 30
0.0
 10
-5.641086136
 20
-6.6055796438
 30
0.0
 11
-5.639643283
 21
-6.310135357
 31
0.0
 11
-5.6398017772
 21
-6.3162561076
 31
0.0
 11
-5.6399562548
 21
-6.3248823568
 31
0.0
 11
-5.6401054678
 21
-6.3359391105
 31
0.0
 11
-5.6402480237
 21
-6.3493305904
 31
0.0
 11
-5.6403827301
 21
-6.3649408536
 31
0.0
 11
-5.6405084048
 21
-6.3826347149
 31
0.0
 11
-5.6406239647
 21
-6.4022589511
 31
0.0
 11
-5.640728407
 21
-6.4236436208
 31
0.0
 11
-5.640820828
 21
-6.4466035777
 31
0.0
 11
-5.6409004246
 21
-6.4709400028
 31
0.0
 11
-5.6409665106
 21
-6.4964421687
 31
0.0
 11
-5.641018507
 21
-6.5228892502
 31
0.0
 11
-5.6410559778
 21
-6.5500523057
 31
0.0
 11
-5.6410785791
 21
-6.577696064
 31
0.0
 11
-5.641086136
 21
-6.6055796438
 31
0.0
  0
SPLINE
  5
427
100
AcDbEntity
  8
RACCORDO
100
AcDbSpline
 62
7
  6
CONTINUOUS
 70
0
 71
3
 72
32
 73
28
 74
26
 42
0.0000001
 43
0.0000001
 44
0.0000000001
 12
-0.3575956237
 22
-0.0104729934
 32
0.0
 13
-0.0148649288
 23
-0.3574399916
 33
0.0
 40
0.0
 40
0.0
 40
0.0
 40
0.0
 40
0.0523532985
 40
0.1036456421
 40
0.1537979062
 40
0.2027584428
 40
0.2505011446
 40
0.2970218008
 40
0.3423337406
 40
0.3864635282
 40
0.4294468894
 40
0.4713265132
 40
0.5121489529
 40
0.5519629116
 40
0.5908183164
 40
0.6287656333
 40
0.6658553259
 40
0.7021373986
 40
0.7376609926
 40
0.7724742388
 40
0.8066244181
 40
0.8401571188
 40
0.8731160732
 40
0.9055427446
 40
0.9374758707
 40
0.9689509917
 40
1.0
 40
1.0
 40
1.0
 40
1.0
 10
5.30112356
 20
-6.0541978579
 30
0.0
 10
5.2948831232
 20
-6.0543806232
 30
0.0
 10
5.2825365592
 20
-6.0551302689
 30
0.0
 10
5.2643229816
 20
-6.0573738231
 30
0.0
 10
5.246676809
 20
-6.0606446627
 30
0.0
 10
5.2296689034
 20
-6.0648607962
 30
0.0
 10
5.2133525881
 20
-6.0699419075
 30
0.0
 10
5.1977674501
 20
-6.0758110848
 30
0.0
 10
5.182941531
 20
-6.0823959081
 30
0.0
 10
5.168893965
 20
-6.0896289024
 30
0.0
 10
5.1556371026
 20
-6.09744758
 30
0.0
 10
5.1431783577
 20
-6.1057941507
 30
0.0
 10
5.1315216147
 20
-6.1146150728
 30
0.0
 10
5.1206683213
 20
-6.1238604738
 30
0.0
 10
5.1106181845
 20
-6.1334836164
 30
0.0
 10
5.1013696285
 20
-6.1434404008
 30
0.0
 10
5.0929200966
 20
-6.1536888869
 30
0.0
 10
5.0852662247
 20
-6.1641888435
 30
0.0
 10
5.0784038897
 20
-6.1749013534
 30
0.0
 10
5.0723281372
 20
-6.1857885214
 30
0.0
 10
5.0670330822
 20
-6.1968131994
 30
0.0
 10
5.0625117498
 20
-6.2079387599
 30
0.0
 10
5.0587558873
 20
-6.2191288967
 30
0.0
 10
5.0557557147
 20
-6.2303474475
 30
0.0
 10
5.0534996481
 20
-6.241558591
 30
0.0
 10
5.051974057
 20
-6.2527259082
 30
0.0
 10
5.0514297004
 20
-6.260167769
 30
0.0
 10
5.0512758533
 20
-6.2638671547
 30
0.0
 11
5.30112356
 21
-6.0541978579
 31
0.0
 11
5.2824286191
 21
-6.05533244
 31
0.0
 11
5.2642165244
 21
-6.0575761233
 31
0.0
 11
5.2465753204
 21
-6.060847272
 31
0.0
 11
5.2295747646
 21
-6.0650635112
 31
0.0
 11
5.2132680335
 21
-6.0701442157
 31
0.0
 11
5.197694154
 21
-6.0760122883
 31
0.0
 11
5.1828806853
 21
-6.0825952162
 31
0.0
 11
5.1688462864
 21
-6.0898255123
 31
0.0
 11
5.1556030409
 21
-6.097640648
 31
0.0
 11
5.1431580061
 21
-6.1059828998
 31
0.0
 11
5.1315148571
 21
-6.114798755
 31
0.0
 11
5.1206749083
 21
-6.1240383444
 31
0.0
 11
5.1106377523
 21
-6.1336549371
 31
0.0
 11
5.101401707
 21
-6.1436044463
 31
0.0
 11
5.0929641126
 21
-6.153844955
 31
0.0
 11
5.0853215033
 21
-6.1643362677
 31
0.0
 11
5.0784696704
 21
-6.1750394955
 31
0.0
 11
5.0724035899
 21
-6.1859167564
 31
0.0
 11
5.0671172505
 21
-6.1969310366
 31
0.0
 11
5.0626036015
 21
-6.2080457976
 31
0.0
 11
5.0588543151
 21
-6.2192248528
 31
0.0
 11
5.0558595543
 21
-6.2304322391
 31
0.0
 11
5.0536077121
 21
-6.2416321477
 31
0.0
 11
5.052085136
 21
-6.2527889249
 31
0.0
 11
5.0512758533
 21
-6.2638671547
 31
0.0
  0
SPLINE
  5
428
100
AcDbEntity
  8
RACCORDO
100
AcDbSpline
 62
7
  6
CONTINUOUS
 70
0
 71
3
 72
23
 73
19
 74
17
 42
0.0000001
 43
0.0000001
 44
0.0000000001
 12
-0.0012445228
 22
0.392549566
 32
0.0
 13
0.3925515387
 23
0.0
 33
0.0
 40
0.0
 40
0.0
 40
0.0
 40
0.0
 40
0.0628489113
 40
0.1259132353
 40
0.1888721129
 40
0.251454087
 40
0.3140013348
 40
0.3767735686
 40
0.4394470548
 40
0.5017207538
 40
0.5639449482
 40
0.6264279154
 40
0.6888830283
 40
0.7509985581
 40
0.813081973
 40
0.875456654
 40
0.9378652154
 40
1.0
 40
1.0
 40
1.0
 40
1.0
 10
5.0016104835
 20
-4.7458490709
 30
0.0
 10
5.0015844112
 20
-4.7376252999
 30
0.0
 10
5.0023408126
 20
-4.7211355758
 30
0.0
 10
5.0058981811
 20
-4.6966403484
 30
0.0
 10
5.0118411591
 20
-4.672645753
 30
0.0
 10
5.0200890944
 20
-4.6494157227
 30
0.0
 10
5.030564517
 20
-4.6271281653
 30
0.0
 10
5.0431873669
 20
-4.6059681967
 30
0.0
 10
5.0578133906
 20
-4.5861845112
 30
0.0
 10
5.0742650377
 20
-4.5679882031
 30
0.0
 10
5.092403211
 20
-4.5515095749
 30
0.0
 10
5.1120927724
 20
-4.5368792469
 30
0.0
 10
5.1331157792
 20
-4.524267379
 30
0.0
 10
5.1552285175
 20
-4.5138047515
 30
0.0
 10
5.1782495811
 20
-4.5055619471
 30
0.0
 10
5.2020065637
 20
-4.4996081774
 30
0.0
 10
5.226237967
 20
-4.4960175481
 30
0.0
 10
5.242545779
 20
-4.4952193213
 30
0.0
 10
5.2506761475
 20
-4.4952193213
 30
0.0
 11
5.0016104835
 21
-4.7458490709
 31
0.0
 11
5.0027419254
 21
-4.7212035919
 31
0.0
 11
5.0063001829
 21
-4.6967046488
 31
0.0
 11
5.0122426988
 21
-4.6727151059
 31
0.0
 11
5.0204630241
 21
-4.6495645863
 31
0.0
 11
5.0309077215
 21
-4.6273438976
 31
0.0
 11
5.043532259
 21
-4.6061822214
 31
0.0
 11
5.0581583404
 21
-4.5863992903
 31
0.0
 11
5.0745531379
 21
-4.568266454
 31
0.0
 11
5.0926325423
 21
-4.5518416392
 31
0.0
 11
5.1123203726
 21
-4.5372128466
 31
0.0
 11
5.1333442893
 21
-4.5246005157
 31
0.0
 11
5.1553851511
 21
-4.5141718165
 31
0.0
 11
5.1783296125
 21
-4.5059563182
 31
0.0
 11
5.2020803028
 21
-4.5000037136
 31
0.0
 11
5.2263142486
 21
-4.4964125948
 31
0.0
 11
5.2506761475
 21
-4.4952193213
 31
0.0
  0
SPLINE
  5
429
100
AcDbEntity
  8
RACCORDO
100
AcDbSpline
 62
7
  6
CONTINUOUS
 70
0
 71
3
 72
23
 73
19
 74
17
 42
0.0000001
 43
0.0000001
 44
0.0000000001
 12
0.3925515389
 22
0.0
 32
0.0
 13
-0.0012445228
 23
-0.3925495661
 33
0.0
 40
0.0
 40
0.0
 40
0.0
 40
0.0
 40
0.0621396143
 40
0.1245557998
 40
0.1869409761
 40
0.2490309819
 40
0.3111475178
 40
0.3736046411
 40
0.4360939882
 40
0.4983239466
 40
0.5605998636
 40
0.6232747166
 40
0.6860527348
 40
0.7486070657
 40
0.8111873755
 40
0.8741310217
 40
0.9371729933
 40
1.0
 40
1.0
 40
1.0
 40
1.0
 10
5.6687265852
 20
-4.4952193213
 30
0.0
 10
5.6768575856
 20
-4.4952193213
 30
0.0
 10
5.6931670299
 20
-4.4960176901
 30
0.0
 10
5.7174013685
 20
-4.4996090921
 30
0.0
 10
5.7411613396
 20
-4.505564317
 30
0.0
 10
5.7641843015
 20
-4.5138088789
 30
0.0
 10
5.7862976815
 20
-4.524273096
 30
0.0
 10
5.8073211172
 20
-4.5368866473
 30
0.0
 10
5.8270113477
 20
-4.5515191995
 30
0.0
 10
5.8451498308
 20
-4.5680002968
 30
0.0
 10
5.8616009856
 20
-4.5861987053
 30
0.0
 10
5.8762262552
 20
-4.6059844768
 30
0.0
 10
5.8888483596
 20
-4.6271470711
 30
0.0
 10
5.8993223919
 20
-4.6494369148
 30
0.0
 10
5.9075676966
 20
-4.6726665123
 30
0.0
 10
5.9135074828
 20
-4.6966565778
 30
0.0
 10
5.9170624594
 20
-4.7211442466
 30
0.0
 10
5.9178183123
 20
-4.7376281661
 30
0.0
 10
5.9177922491
 20
-4.7458490709
 30
0.0
 11
5.6687265852
 21
-4.4952193213
 31
0.0
 11
5.6930903731
 21
-4.4964127803
 31
0.0
 11
5.7173272305
 21
-4.5000046685
 31
0.0
 11
5.7410817506
 21
-4.505958939
 31
0.0
 11
5.7640283069
 21
-4.5141762616
 31
0.0
 11
5.7860690303
 21
-4.5246061767
 31
0.0
 11
5.8070929945
 21
-4.5372199625
 31
0.0
 11
5.8267820083
 21
-4.5518513614
 31
0.0
 11
5.8448620024
 21
-4.5682788919
 31
0.0
 11
5.8612560728
 21
-4.5864135594
 31
0.0
 11
5.8758809885
 21
-4.6061980195
 31
0.0
 11
5.888504984
 21
-4.627362663
 31
0.0
 11
5.8989488515
 21
-4.6495868141
 31
0.0
 11
5.9071667663
 21
-4.6727374962
 31
0.0
 11
5.9131058947
 21
-4.6967217183
 31
0.0
 11
5.9166616232
 21
-4.7212121621
 31
0.0
 11
5.9177922491
 21
-4.7458490709
 31
0.0
  0
SPLINE
  5
42A
100
AcDbEntity
  8
RACCORDO
100
AcDbSpline
 62
7
  6
CONTINUOUS
 70
0
 71
3
 72
32
 73
28
 74
26
 42
0.0000001
 43
0.0000001
 44
0.0000000001
 12
-0.3575956237
 22
-0.0104729934
 32
0.0
 13
-0.0148649288
 23
-0.3574399916
 33
0.0
 40
0.0
 40
0.0
 40
0.0
 40
0.0
 40
0.0523532985
 40
0.1036456421
 40
0.1537979062
 40
0.2027584428
 40
0.2505011446
 40
0.2970218008
 40
0.3423337406
 40
0.3864635282
 40
0.4294468894
 40
0.4713265132
 40
0.5121489529
 40
0.5519629116
 40
0.5908183164
 40
0.6287656333
 40
0.6658553259
 40
0.7021373986
 40
0.7376609926
 40
0.7724742388
 40
0.8066244181
 40
0.8401571188
 40
0.8731160732
 40
0.9055427446
 40
0.9374758707
 40
0.9689509917
 40
1.0
 40
1.0
 40
1.0
 40
1.0
 10
-5.89887644
 20
-6.0541978579
 30
0.0
 10
-5.9051168768
 20
-6.0543806232
 30
0.0
 10
-5.9174634408
 20
-6.0551302689
 30
0.0
 10
-5.9356770184
 20
-6.0573738231
 30
0.0
 10
-5.953323191
 20
-6.0606446627
 30
0.0
 10
-5.9703310966
 20
-6.0648607962
 30
0.0
 10
-5.9866474119
 20
-6.0699419075
 30
0.0
 10
-6.0022325499
 20
-6.0758110848
 30
0.0
 10
-6.017058469
 20
-6.0823959081
 30
0.0
 10
-6.031106035
 20
-6.0896289024
 30
0.0
 10
-6.0443628974
 20
-6.09744758
 30
0.0
 10
-6.0568216423
 20
-6.1057941507
 30
0.0
 10
-6.0684783853
 20
-6.1146150728
 30
0.0
 10
-6.0793316787
 20
-6.1238604738
 30
0.0
 10
-6.0893818155
 20
-6.1334836164
 30
0.0
 10
-6.0986303715
 20
-6.1434404008
 30
0.0
 10
-6.1070799034
 20
-6.1536888869
 30
0.0
 10
-6.1147337753
 20
-6.1641888435
 30
0.0
 10
-6.1215961103
 20
-6.1749013534
 30
0.0
 10
-6.1276718628
 20
-6.1857885214
 30
0.0
 10
-6.1329669178
 20
-6.1968131994
 30
0.0
 10
-6.1374882502
 20
-6.2079387599
 30
0.0
 10
-6.1412441127
 20
-6.2191288967
 30
0.0
 10
-6.1442442853
 20
-6.2303474475
 30
0.0
 10
-6.1465003519
 20
-6.241558591
 30
0.0
 10
-6.148025943
 20
-6.2527259082
 30
0.0
 10
-6.1485702996
 20
-6.260167769
 30
0.0
 10
-6.1487241467
 20
-6.2638671547
 30
0.0
 11
-5.89887644
 21
-6.0541978579
 31
0.0
 11
-5.9175713809
 21
-6.05533244
 31
0.0
 11
-5.9357834756
 21
-6.0575761233
 31
0.0
 11
-5.9534246796
 21
-6.060847272
 31
0.0
 11
-5.9704252354
 21
-6.0650635112
 31
0.0
 11
-5.9867319665
 21
-6.0701442157
 31
0.0
 11
-6.002305846
 21
-6.0760122883
 31
0.0
 11
-6.0171193147
 21
-6.0825952162
 31
0.0
 11
-6.0311537136
 21
-6.0898255123
 31
0.0
 11
-6.0443969591
 21
-6.097640648
 31
0.0
 11
-6.0568419939
 21
-6.1059828998
 31
0.0
 11
-6.0684851429
 21
-6.114798755
 31
0.0
 11
-6.0793250917
 21
-6.1240383444
 31
0.0
 11
-6.0893622477
 21
-6.1336549371
 31
0.0
 11
-6.098598293
 21
-6.1436044463
 31
0.0
 11
-6.1070358874
 21
-6.153844955
 31
0.0
 11
-6.1146784967
 21
-6.1643362677
 31
0.0
 11
-6.1215303296
 21
-6.1750394955
 31
0.0
 11
-6.1275964101
 21
-6.1859167564
 31
0.0
 11
-6.1328827495
 21
-6.1969310366
 31
0.0
 11
-6.1373963985
 21
-6.2080457976
 31
0.0
 11
-6.1411456849
 21
-6.2192248528
 31
0.0
 11
-6.1441404457
 21
-6.2304322391
 31
0.0
 11
-6.1463922879
 21
-6.2416321477
 31
0.0
 11
-6.147914864
 21
-6.2527889249
 31
0.0
 11
-6.1487241467
 21
-6.2638671547
 31
0.0
  0
SPLINE
  5
42B
100
AcDbEntity
  8
RACCORDO
100
AcDbSpline
 62
7
  6
CONTINUOUS
 70
0
 71
3
 72
23
 73
19
 74
17
 42
0.0000001
 43
0.0000001
 44
0.0000000001
 12
-0.0012445228
 22
0.392549566
 32
0.0
 13
0.3925515387
 23
-0.0
 33
0.0
 40
0.0
 40
0.0
 40
0.0
 40
0.0
 40
0.0628489113
 40
0.1259132353
 40
0.1888721129
 40
0.251454087
 40
0.3140013348
 40
0.3767735686
 40
0.4394470548
 40
0.5017207538
 40
0.5639449482
 40
0.6264279154
 40
0.6888830283
 40
0.7509985581
 40
0.813081973
 40
0.875456654
 40
0.9378652154
 40
1.0
 40
1.0
 40
1.0
 40
1.0
 10
-6.1983895165
 20
-4.7458490709
 30
0.0
 10
-6.1984155888
 20
-4.7376252999
 30
0.0
 10
-6.1976591874
 20
-4.7211355758
 30
0.0
 10
-6.1941018189
 20
-4.6966403484
 30
0.0
 10
-6.1881588409
 20
-4.672645753
 30
0.0
 10
-6.1799109056
 20
-4.6494157227
 30
0.0
 10
-6.169435483
 20
-4.6271281653
 30
0.0
 10
-6.1568126331
 20
-4.6059681967
 30
0.0
 10
-6.1421866094
 20
-4.5861845112
 30
0.0
 10
-6.1257349623
 20
-4.5679882031
 30
0.0
 10
-6.107596789
 20
-4.5515095749
 30
0.0
 10
-6.0879072276
 20
-4.5368792469
 30
0.0
 10
-6.0668842208
 20
-4.524267379
 30
0.0
 10
-6.0447714825
 20
-4.5138047515
 30
0.0
 10
-6.0217504189
 20
-4.5055619471
 30
0.0
 10
-5.9979934363
 20
-4.4996081774
 30
0.0
 10
-5.973762033
 20
-4.4960175481
 30
0.0
 10
-5.957454221
 20
-4.4952193213
 30
0.0
 10
-5.9493238525
 20
-4.4952193213
 30
0.0
 11
-6.1983895165
 21
-4.7458490709
 31
0.0
 11
-6.1972580746
 21
-4.7212035919
 31
0.0
 11
-6.1936998171
 21
-4.6967046488
 31
0.0
 11
-6.1877573012
 21
-4.6727151059
 31
0.0
 11
-6.1795369759
 21
-4.6495645863
 31
0.0
 11
-6.1690922785
 21
-4.6273438976
 31
0.0
 11
-6.156467741
 21
-4.6061822214
 31
0.0
 11
-6.1418416596
 21
-4.5863992903
 31
0.0
 11
-6.1254468621
 21
-4.568266454
 31
0.0
 11
-6.1073674577
 21
-4.5518416392
 31
0.0
 11
-6.0876796274
 21
-4.5372128466
 31
0.0
 11
-6.0666557107
 21
-4.5246005157
 31
0.0
 11
-6.0446148489
 21
-4.5141718165
 31
0.0
 11
-6.0216703875
 21
-4.5059563182
 31
0.0
 11
-5.9979196972
 21
-4.5000037136
 31
0.0
 11
-5.9736857514
 21
-4.4964125948
 31
0.0
 11
-5.9493238525
 21
-4.4952193213
 31
0.0
  0
SPLINE
  5
42C
100
AcDbEntity
  8
RACCORDO
100
AcDbSpline
 62
7
  6
CONTINUOUS
 70
0
 71
3
 72
23
 73
19
 74
17
 42
0.0000001
 43
0.0000001
 44
0.0000000001
 12
0.3925515389
 22
0.0
 32
0.0
 13
-0.0012445228
 23
-0.3925495661
 33
0.0
 40
0.0
 40
0.0
 40
0.0
 40
0.0
 40
0.0621396143
 40
0.1245557998
 40
0.1869409761
 40
0.2490309819
 40
0.3111475178
 40
0.3736046411
 40
0.4360939882
 40
0.4983239466
 40
0.5605998636
 40
0.6232747166
 40
0.6860527348
 40
0.7486070657
 40
0.8111873755
 40
0.8741310217
 40
0.9371729933
 40
1.0
 40
1.0
 40
1.0
 40
1.0
 10
-5.5312734148
 20
-4.4952193213
 30
0.0
 10
-5.5231424144
 20
-4.4952193213
 30
0.0
 10
-5.5068329701
 20
-4.4960176901
 30
0.0
 10
-5.4825986315
 20
-4.4996090921
 30
0.0
 10
-5.4588386604
 20
-4.505564317
 30
0.0
 10
-5.4358156985
 20
-4.5138088789
 30
0.0
 10
-5.4137023185
 20
-4.524273096
 30
0.0
 10
-5.3926788828
 20
-4.5368866473
 30
0.0
 10
-5.3729886523
 20
-4.5515191995
 30
0.0
 10
-5.3548501692
 20
-4.5680002968
 30
0.0
 10
-5.3383990144
 20
-4.5861987053
 30
0.0
 10
-5.3237737448
 20
-4.6059844768
 30
0.0
 10
-5.3111516404
 20
-4.6271470711
 30
0.0
 10
-5.3006776081
 20
-4.6494369148
 30
0.0
 10
-5.2924323034
 20
-4.6726665123
 30
0.0
 10
-5.2864925172
 20
-4.6966565778
 30
0.0
 10
-5.2829375406
 20
-4.7211442466
 30
0.0
 10
-5.2821816877
 20
-4.7376281661
 30
0.0
 10
-5.2822077509
 20
-4.7458490709
 30
0.0
 11
-5.5312734148
 21
-4.4952193213
 31
0.0
 11
-5.5069096269
 21
-4.4964127803
 31
0.0
 11
-5.4826727695
 21
-4.5000046685
 31
0.0
 11
-5.4589182494
 21
-4.505958939
 31
0.0
 11
-5.4359716931
 21
-4.5141762616
 31
0.0
 11
-5.4139309697
 21
-4.5246061767
 31
0.0
 11
-5.3929070055
 21
-4.5372199625
 31
0.0
 11
-5.3732179917
 21
-4.5518513614
 31
0.0
 11
-5.3551379976
 21
-4.5682788919
 31
0.0
 11
-5.3387439272
 21
-4.5864135594
 31
0.0
 11
-5.3241190115
 21
-4.6061980195
 31
0.0
 11
-5.311495016
 21
-4.627362663
 31
0.0
 11
-5.3010511485
 21
-4.6495868141
 31
0.0
 11
-5.2928332337
 21
-4.6727374962
 31
0.0
 11
-5.2868941053
 21
-4.6967217183
 31
0.0
 11
-5.2833383768
 21
-4.7212121621
 31
0.0
 11
-5.2822077509
 21
-4.7458490709
 31
0.0
  0
SPLINE
  5
42D
100
AcDbEntity
  8
RACCORDO
100
AcDbSpline
 62
253
  6
CONTINUOUS
 70
0
 71
3
 72
22
 73
18
 74
16
 42
0.0000001
 43
0.0000001
 44
0.0000000001
 12
0.0023903362
 22
0.3886741914
 32
0.0
 13
0.3886746111
 23
0.0023210883
 33
0.0
 40
0.0
 40
0.0
 40
0.0
 40
0.0
 40
0.0660731866
 40
0.1322095045
 40
0.1984263756
 40
0.2647376717
 40
0.3311531201
 40
0.3976778961
 40
0.4643124202
 40
0.5310523627
 40
0.5978888526
 40
0.6648088787
 40
0.7317958615
 40
0.7988303707
 40
0.8658909578
 40
0.9329550688
 40
1.0
 40
1.0
 40
1.0
 40
1.0
 10
5.1091983193
 20
-6.5563376158
 30
0.0
 10
5.109250965
 20
-6.5477773017
 30
0.0
 10
5.1102646564
 20
-6.5306403103
 30
0.0
 10
5.114489996
 20
-6.5052355812
 30
0.0
 10
5.1213746207
 20
-6.480384271
 30
0.0
 10
5.1308433804
 20
-6.4563604405
 30
0.0
 10
5.1427930424
 20
-6.4334242726
 30
0.0
 10
5.1570934072
 20
-6.4118253194
 30
0.0
 10
5.1735887618
 20
-6.391798168
 30
0.0
 10
5.1920995898
 20
-6.373560345
 30
0.0
 10
5.2124245482
 20
-6.3573098569
 30
0.0
 10
5.2343426335
 20
-6.3432230954
 30
0.0
 10
5.2576156957
 20
-6.3314529367
 30
0.0
 10
5.2819906038
 20
-6.3221271094
 30
0.0
 10
5.3072035373
 20
-6.3153468171
 30
0.0
 10
5.3329770313
 20
-6.3111856877
 30
0.0
 10
5.3503598052
 20
-6.31018755
 30
0.0
 10
5.3590460261
 20
-6.3101356776
 30
0.0
 11
5.1091983193
 21
-6.5563376158
 31
0.0
 11
5.1107141448
 21
-6.530700962
 31
0.0
 11
5.1149298119
 21
-6.5053430276
 31
0.0
 11
5.1217994882
 21
-6.4805395016
 31
0.0
 11
5.1312484872
 21
-6.4565600459
 31
0.0
 11
5.1431740803
 21
-6.4336653628
 31
0.0
 11
5.1574466135
 21
-6.4121043612
 31
0.0
 11
5.1739109172
 21
-6.3921114505
 31
0.0
 11
5.1923879929
 21
-6.3739039916
 31
0.0
 11
5.2126769595
 21
-6.3576799345
 31
0.0
 11
5.2345572372
 21
-6.3436156655
 31
0.0
 11
5.2577909457
 21
-6.3318640903
 31
0.0
 11
5.2821254903
 21
-6.3225529707
 31
0.0
 11
5.3072963078
 21
-6.3157835364
 31
0.0
 11
5.3330297436
 21
-6.3116293842
 31
0.0
 11
5.3590460261
 21
-6.3101356776
 31
0.0
  0
SPLINE
  5
42E
100
AcDbEntity
  8
RACCORDO
100
AcDbSpline
 62
253
  6
CONTINUOUS
 70
0
 71
3
 72
22
 73
18
 74
16
 42
0.0000001
 43
0.0000001
 44
0.0000000001
 12
0.0215171587
 22
-0.2876755457
 32
0.0
 13
0.2884533274
 23
-0.0038581879
 33
0.0
 40
0.0
 40
0.0
 40
0.0
 40
0.0
 40
0.03824909
 40
0.0788463737
 40
0.1231126811
 40
0.1719391593
 40
0.2258268214
 40
0.2849644071
 40
0.3493013628
 40
0.4186043671
 40
0.4924988113
 40
0.570499439
 40
0.6520338335
 40
0.7364613622
 40
0.8230892857
 40
0.9111871271
 40
1.0
 40
1.0
 40
1.0
 40
1.0
 10
5.1104775712
 20
-6.9087147612
 30
0.0
 10
5.1107519084
 20
-6.9123825372
 30
0.0
 10
5.1122630145
 20
-6.9198973989
 30
0.0
 10
5.1171676919
 20
-6.9307612143
 30
0.0
 10
5.1246285331
 20
-6.9413110812
 30
0.0
 10
5.1345338195
 20
-6.9514587619
 30
0.0
 10
5.1467731291
 20
-6.9611293818
 30
0.0
 10
5.1612227553
 20
-6.9702392314
 30
0.0
 10
5.1777383652
 20
-6.9787031223
 30
0.0
 10
5.1961532112
 20
-6.9864371483
 30
0.0
 10
5.2162791347
 20
-6.9933623624
 30
0.0
 10
5.2379086323
 20
-6.9994068564
 30
0.0
 10
5.2608173543
 20
-7.0045073033
 30
0.0
 10
5.2847666887
 20
-7.0086100024
 30
0.0
 10
5.3095067611
 20
-7.0116716517
 30
0.0
 10
5.3347782478
 20
-7.0136598909
 30
0.0
 10
5.3517858217
 20
-7.0142551077
 30
0.0
 10
5.3603252779
 20
-7.0143693267
 30
0.0
 11
5.1104775712
 21
-6.9087147612
 31
0.0
 11
5.1126016117
 21
-6.9195424583
 31
0.0
 11
5.1173316385
 21
-6.930256251
 31
0.0
 11
5.1246178931
 21
-6.9407434331
 31
0.0
 11
5.1343837261
 21
-6.9508936822
 31
0.0
 11
5.1465264037
 21
-6.9606002206
 31
0.0
 11
5.1609181883
 21
-6.969760938
 31
0.0
 11
5.1774076824
 21
-6.9782794662
 31
0.0
 11
5.1958214208
 21
-6.9860661923
 31
0.0
 11
5.2159656962
 21
-6.9930392022
 31
0.0
 11
5.2376285961
 21
-6.9991251416
 31
0.0
 11
5.2605822328
 21
-7.004259988
 31
0.0
 11
5.2845851399
 21
-7.0083897241
 31
0.0
 11
5.3093848134
 21
-7.0114709062
 31
0.0
 11
5.3347203672
 21
-7.0134711209
 31
0.0
 11
5.3603252779
 21
-7.0143693267
 31
0.0
  0
SPLINE
  5
42F
100
AcDbEntity
  8
RACCORDO
100
AcDbSpline
 62
7
  6
CONTINUOUS
 70
0
 71
3
 72
32
 73
28
 74
26
 42
0.0000001
 43
0.0000001
 44
0.0000000001
 12
-0.0148649288
 22
0.3574399916
 32
0.0
 13
-0.3575956237
 23
0.0104729934
 33
0.0
 40
0.0
 40
0.0
 40
0.0
 40
0.0
 40
0.0310490083
 40
0.0625241293
 40
0.0944572554
 40
0.1268839268
 40
0.1598428812
 40
0.1933755819
 40
0.2275257612
 40
0.2623390074
 40
0.2978626014
 40
0.3341446741
 40
0.3712343667
 40
0.4091816836
 40
0.4480370884
 40
0.4878510471
 40
0.5286734868
 40
0.5705531106
 40
0.6135364718
 40
0.6576662594
 40
0.7029781992
 40
0.7494988554
 40
0.7972415572
 40
0.8462020938
 40
0.8963543579
 40
0.9476467015
 40
1.0
 40
1.0
 40
1.0
 40
1.0
 10
5.8681268794
 20
-6.2638671547
 30
0.0
 10
5.8679730323
 20
-6.260167769
 30
0.0
 10
5.8674286756
 20
-6.2527259082
 30
0.0
 10
5.8659030845
 20
-6.241558591
 30
0.0
 10
5.8636470179
 20
-6.2303474475
 30
0.0
 10
5.8606468454
 20
-6.2191288967
 30
0.0
 10
5.8568909828
 20
-6.2079387599
 30
0.0
 10
5.8523696505
 20
-6.1968131994
 30
0.0
 10
5.8470745954
 20
-6.1857885214
 30
0.0
 10
5.840998843
 20
-6.1749013534
 30
0.0
 10
5.8341365079
 20
-6.1641888435
 30
0.0
 10
5.8264826361
 20
-6.1536888869
 30
0.0
 10
5.8180331041
 20
-6.1434404008
 30
0.0
 10
5.8087845482
 20
-6.1334836164
 30
0.0
 10
5.7987344114
 20
-6.1238604738
 30
0.0
 10
5.7878811179
 20
-6.1146150728
 30
0.0
 10
5.7762243749
 20
-6.1057941507
 30
0.0
 10
5.76376563
 20
-6.09744758
 30
0.0
 10
5.7505087676
 20
-6.0896289024
 30
0.0
 10
5.7364612017
 20
-6.0823959081
 30
0.0
 10
5.7216352825
 20
-6.0758110848
 30
0.0
 10
5.7060501446
 20
-6.0699419075
 30
0.0
 10
5.6897338293
 20
-6.0648607962
 30
0.0
 10
5.6727259237
 20
-6.0606446627
 30
0.0
 10
5.6550797511
 20
-6.0573738231
 30
0.0
 10
5.6368661735
 20
-6.0551302689
 30
0.0
 10
5.6245196094
 20
-6.0543806232
 30
0.0
 10
5.6182791726
 20
-6.0541978579
 30
0.0
 11
5.8681268794
 21
-6.2638671547
 31
0.0
 11
5.8673175966
 21
-6.2527889249
 31
0.0
 11
5.8657950206
 21
-6.2416321477
 31
0.0
 11
5.8635431783
 21
-6.2304322391
 31
0.0
 11
5.8605484175
 21
-6.2192248528
 31
0.0
 11
5.8567991312
 21
-6.2080457976
 31
0.0
 11
5.8522854821
 21
-6.1969310366
 31
0.0
 11
5.8469991428
 21
-6.1859167564
 31
0.0
 11
5.8409330622
 21
-6.1750394955
 31
0.0
 11
5.8340812293
 21
-6.1643362677
 31
0.0
 11
5.8264386201
 21
-6.153844955
 31
0.0
 11
5.8180010256
 21
-6.1436044463
 31
0.0
 11
5.8087649803
 21
-6.1336549371
 31
0.0
 11
5.7987278243
 21
-6.1240383444
 31
0.0
 11
5.7878878755
 21
-6.114798755
 31
0.0
 11
5.7762447265
 21
-6.1059828998
 31
0.0
 11
5.7637996917
 21
-6.097640648
 31
0.0
 11
5.7505564463
 21
-6.0898255123
 31
0.0
 11
5.7365220473
 21
-6.0825952162
 31
0.0
 11
5.7217085786
 21
-6.0760122883
 31
0.0
 11
5.7061346992
 21
-6.0701442157
 31
0.0
 11
5.689827968
 21
-6.0650635112
 31
0.0
 11
5.6728274123
 21
-6.060847272
 31
0.0
 11
5.6551862082
 21
-6.0575761233
 31
0.0
 11
5.6369741135
 21
-6.05533244
 31
0.0
 11
5.6182791726
 21
-6.0541978579
 31
0.0
  0
SPLINE
  5
430
100
AcDbEntity
  8
RACCORDO
100
AcDbSpline
 62
253
  6
CONTINUOUS
 70
0
 71
3
 72
22
 73
18
 74
16
 42
0.0000001
 43
0.0000001
 44
0.0000000001
 12
-0.0023903363
 22
0.3886741914
 32
0.0
 13
-0.3886746111
 23
0.0023210884
 33
0.0
 40
0.0
 40
0.0
 40
0.0
 40
0.0
 40
0.0660731761
 40
0.1322094842
 40
0.1984263464
 40
0.2647376351
 40
0.3311530777
 40
0.3976778497
 40
0.4643123719
 40
0.5310523145
 40
0.5978888066
 40
0.6648088369
 40
0.7317958256
 40
0.7988303423
 40
0.8658909382
 40
0.9329550588
 40
1.0
 40
1.0
 40
1.0
 40
1.0
 10
5.8102044133
 20
-6.5563376158
 30
0.0
 10
5.8101517676
 20
-6.5477773031
 30
0.0
 10
5.8091380765
 20
-6.5306403143
 30
0.0
 10
5.8049127382
 20
-6.5052355889
 30
0.0
 10
5.7980281154
 20
-6.4803842817
 30
0.0
 10
5.788559358
 20
-6.4563604533
 30
0.0
 10
5.7766096984
 20
-6.4334242867
 30
0.0
 10
5.762309336
 20
-6.4118253338
 30
0.0
 10
5.7458139834
 20
-6.3917981818
 30
0.0
 10
5.7273031566
 20
-6.3735603573
 30
0.0
 10
5.7069781988
 20
-6.3573098672
 30
0.0
 10
5.6850601131
 20
-6.3432231033
 30
0.0
 10
5.6617870496
 20
-6.3314529422
 30
0.0
 10
5.6374121392
 20
-6.3221271127
 30
0.0
 10
5.6121992027
 20
-6.3153468186
 30
0.0
 10
5.5864257051
 20
-6.311185688
 30
0.0
 10
5.5690429287
 20
-6.31018755
 30
0.0
 10
5.5603567066
 20
-6.3101356776
 30
0.0
 11
5.8102044133
 21
-6.5563376158
 31
0.0
 11
5.8086885883
 21
-6.5307009661
 31
0.0
 11
5.8044729224
 21
-6.5053430353
 31
0.0
 11
5.797603248
 21
-6.4805395124
 31
0.0
 11
5.7881542513
 21
-6.4565600589
 31
0.0
 11
5.7762286607
 21
-6.433665377
 31
0.0
 11
5.7619561298
 21
-6.4121043758
 31
0.0
 11
5.7454918281
 21
-6.3921114644
 31
0.0
 11
5.7270147538
 21
-6.3739040041
 31
0.0
 11
5.7067257877
 21
-6.3576799449
 31
0.0
 11
5.6848455095
 21
-6.3436156736
 31
0.0
 11
5.6616117996
 21
-6.3318640959
 31
0.0
 11
5.6372772529
 21
-6.3225529741
 31
0.0
 11
5.6121064322
 21
-6.3157835381
 31
0.0
 11
5.5863729929
 21
-6.3116293847
 31
0.0
 11
5.5603567066
 21
-6.3101356776
 31
0.0
  0
SPLINE
  5
431
100
AcDbEntity
  8
RACCORDO
100
AcDbSpline
 62
253
  6
CONTINUOUS
 70
0
 71
3
 72
22
 73
18
 74
16
 42
0.0000001
 43
0.0000001
 44
0.0000000001
 12
-0.0215171586
 22
-0.2876755458
 32
0.0
 13
-0.2884533275
 23
-0.0038581875
 33
0.0
 40
0.0
 40
0.0
 40
0.0
 40
0.0
 40
0.0382490933
 40
0.0788463805
 40
0.1231126918
 40
0.1719391739
 40
0.22582684
 40
0.2849644293
 40
0.3493013877
 40
0.4186043936
 40
0.4924988381
 40
0.5704994646
 40
0.6520338564
 40
0.7364613808
 40
0.8230892989
 40
0.911187134
 40
1.0
 40
1.0
 40
1.0
 40
1.0
 10
5.8089251614
 20
-6.9087147612
 30
0.0
 10
5.8086508242
 20
-6.9123825375
 30
0.0
 10
5.8071397179
 20
-6.9198973999
 30
0.0
 10
5.8022350398
 20
-6.9307612161
 30
0.0
 10
5.7947741977
 20
-6.9413110837
 30
0.0
 10
5.78486891
 20
-6.9514587648
 30
0.0
 10
5.7726295993
 20
-6.961129385
 30
0.0
 10
5.758179972
 20
-6.9702392346
 30
0.0
 10
5.7416643611
 20
-6.9787031254
 30
0.0
 10
5.7232495144
 20
-6.9864371511
 30
0.0
 10
5.7031235908
 20
-6.9933623648
 30
0.0
 10
5.6814940934
 20
-6.9994068582
 30
0.0
 10
5.6585853721
 20
-7.0045073047
 30
0.0
 10
5.6346360387
 20
-7.0086100033
 30
0.0
 10
5.6098959678
 20
-7.0116716521
 30
0.0
 10
5.5846244829
 20
-7.013659891
 30
0.0
 10
5.5676169103
 20
-7.0142551078
 30
0.0
 10
5.5590774547
 20
-7.0143693267
 30
0.0
 11
5.8089251614
 21
-6.9087147612
 31
0.0
 11
5.8068011207
 21
-6.9195424592
 31
0.0
 11
5.8020710932
 21
-6.9302562527
 31
0.0
 11
5.7947848377
 21
-6.9407434355
 31
0.0
 11
5.7850190035
 21
-6.9508936852
 31
0.0
 11
5.7728763246
 21
-6.9606002238
 31
0.0
 11
5.7584845389
 21
-6.9697609413
 31
0.0
 11
5.7419950439
 21
-6.9782794693
 31
0.0
 11
5.7235813048
 21
-6.9860661952
 31
0.0
 11
5.7034370291
 21
-6.9930392047
 31
0.0
 11
5.6817741294
 21
-6.9991251436
 31
0.0
 11
5.6588204935
 21
-7.0042599894
 31
0.0
 11
5.6348175874
 21
-7.008389725
 31
0.0
 11
5.6100179155
 21
-7.0114709066
 31
0.0
 11
5.5846823635
 21
-7.0134711211
 31
0.0
 11
5.5590774547
 21
-7.0143693267
 31
0.0
  0
SPLINE
  5
432
100
AcDbEntity
  8
RACCORDO
100
AcDbSpline
 62
253
  6
CONTINUOUS
 70
0
 71
3
 72
22
 73
18
 74
16
 42
0.0000001
 43
0.0000001
 44
0.0000000001
 12
0.0023903362
 22
0.3886741914
 32
0.0
 13
0.3886746111
 23
0.0023210883
 33
0.0
 40
0.0
 40
0.0
 40
0.0
 40
0.0
 40
0.0660731866
 40
0.1322095045
 40
0.1984263756
 40
0.2647376717
 40
0.3311531201
 40
0.3976778961
 40
0.4643124202
 40
0.5310523627
 40
0.5978888526
 40
0.6648088787
 40
0.7317958615
 40
0.7988303707
 40
0.8658909578
 40
0.9329550688
 40
1.0
 40
1.0
 40
1.0
 40
1.0
 10
-6.0908016807
 20
-6.5563376158
 30
0.0
 10
-6.090749035
 20
-6.5477773017
 30
0.0
 10
-6.0897353436
 20
-6.5306403103
 30
0.0
 10
-6.085510004
 20
-6.5052355812
 30
0.0
 10
-6.0786253793
 20
-6.480384271
 30
0.0
 10
-6.0691566196
 20
-6.4563604405
 30
0.0
 10
-6.0572069576
 20
-6.4334242726
 30
0.0
 10
-6.0429065928
 20
-6.4118253194
 30
0.0
 10
-6.0264112382
 20
-6.391798168
 30
0.0
 10
-6.0079004102
 20
-6.373560345
 30
0.0
 10
-5.9875754518
 20
-6.3573098569
 30
0.0
 10
-5.9656573665
 20
-6.3432230954
 30
0.0
 10
-5.9423843043
 20
-6.3314529367
 30
0.0
 10
-5.9180093962
 20
-6.3221271094
 30
0.0
 10
-5.8927964627
 20
-6.3153468171
 30
0.0
 10
-5.8670229687
 20
-6.3111856877
 30
0.0
 10
-5.8496401948
 20
-6.31018755
 30
0.0
 10
-5.8409539739
 20
-6.3101356776
 30
0.0
 11
-6.0908016807
 21
-6.5563376158
 31
0.0
 11
-6.0892858552
 21
-6.530700962
 31
0.0
 11
-6.0850701881
 21
-6.5053430276
 31
0.0
 11
-6.0782005118
 21
-6.4805395016
 31
0.0
 11
-6.0687515128
 21
-6.4565600459
 31
0.0
 11
-6.0568259197
 21
-6.4336653628
 31
0.0
 11
-6.0425533865
 21
-6.4121043612
 31
0.0
 11
-6.0260890828
 21
-6.3921114505
 31
0.0
 11
-6.0076120071
 21
-6.3739039916
 31
0.0
 11
-5.9873230405
 21
-6.3576799345
 31
0.0
 11
-5.9654427628
 21
-6.3436156655
 31
0.0
 11
-5.9422090543
 21
-6.3318640903
 31
0.0
 11
-5.9178745097
 21
-6.3225529707
 31
0.0
 11
-5.8927036922
 21
-6.3157835364
 31
0.0
 11
-5.8669702564
 21
-6.3116293842
 31
0.0
 11
-5.8409539739
 21
-6.3101356776
 31
0.0
  0
SPLINE
  5
433
100
AcDbEntity
  8
RACCORDO
100
AcDbSpline
 62
253
  6
CONTINUOUS
 70
0
 71
3
 72
22
 73
18
 74
16
 42
0.0000001
 43
0.0000001
 44
0.0000000001
 12
0.0215171587
 22
-0.2876755457
 32
0.0
 13
0.2884533274
 23
-0.0038581879
 33
0.0
 40
0.0
 40
0.0
 40
0.0
 40
0.0
 40
0.03824909
 40
0.0788463737
 40
0.1231126811
 40
0.1719391593
 40
0.2258268214
 40
0.2849644071
 40
0.3493013628
 40
0.4186043671
 40
0.4924988113
 40
0.570499439
 40
0.6520338335
 40
0.7364613622
 40
0.8230892857
 40
0.9111871271
 40
1.0
 40
1.0
 40
1.0
 40
1.0
 10
-6.0895224288
 20
-6.9087147612
 30
0.0
 10
-6.0892480916
 20
-6.9123825372
 30
0.0
 10
-6.0877369855
 20
-6.9198973989
 30
0.0
 10
-6.0828323081
 20
-6.9307612143
 30
0.0
 10
-6.0753714669
 20
-6.9413110812
 30
0.0
 10
-6.0654661805
 20
-6.9514587619
 30
0.0
 10
-6.0532268709
 20
-6.9611293818
 30
0.0
 10
-6.0387772447
 20
-6.9702392314
 30
0.0
 10
-6.0222616348
 20
-6.9787031223
 30
0.0
 10
-6.0038467888
 20
-6.9864371483
 30
0.0
 10
-5.9837208653
 20
-6.9933623624
 30
0.0
 10
-5.9620913677
 20
-6.9994068564
 30
0.0
 10
-5.9391826457
 20
-7.0045073033
 30
0.0
 10
-5.9152333113
 20
-7.0086100024
 30
0.0
 10
-5.8904932389
 20
-7.0116716517
 30
0.0
 10
-5.8652217522
 20
-7.0136598909
 30
0.0
 10
-5.8482141783
 20
-7.0142551077
 30
0.0
 10
-5.8396747221
 20
-7.0143693267
 30
0.0
 11
-6.0895224288
 21
-6.9087147612
 31
0.0
 11
-6.0873983883
 21
-6.9195424583
 31
0.0
 11
-6.0826683615
 21
-6.930256251
 31
0.0
 11
-6.0753821069
 21
-6.9407434331
 31
0.0
 11
-6.0656162739
 21
-6.9508936822
 31
0.0
 11
-6.0534735963
 21
-6.9606002206
 31
0.0
 11
-6.0390818117
 21
-6.969760938
 31
0.0
 11
-6.0225923176
 21
-6.9782794662
 31
0.0
 11
-6.0041785792
 21
-6.9860661923
 31
0.0
 11
-5.9840343038
 21
-6.9930392022
 31
0.0
 11
-5.9623714039
 21
-6.9991251416
 31
0.0
 11
-5.9394177672
 21
-7.004259988
 31
0.0
 11
-5.9154148601
 21
-7.0083897241
 31
0.0
 11
-5.8906151866
 21
-7.0114709062
 31
0.0
 11
-5.8652796328
 21
-7.0134711209
 31
0.0
 11
-5.8396747221
 21
-7.0143693267
 31
0.0
  0
SPLINE
  5
434
100
AcDbEntity
  8
RACCORDO
100
AcDbSpline
 62
7
  6
CONTINUOUS
 70
0
 71
3
 72
32
 73
28
 74
26
 42
0.0000001
 43
0.0000001
 44
0.0000000001
 12
-0.0148649288
 22
0.3574399916
 32
0.0
 13
-0.3575956237
 23
0.0104729934
 33
0.0
 40
0.0
 40
0.0
 40
0.0
 40
0.0
 40
0.0310490083
 40
0.0625241293
 40
0.0944572554
 40
0.1268839268
 40
0.1598428812
 40
0.1933755819
 40
0.2275257612
 40
0.2623390074
 40
0.2978626014
 40
0.3341446741
 40
0.3712343667
 40
0.4091816836
 40
0.4480370884
 40
0.4878510471
 40
0.5286734868
 40
0.5705531106
 40
0.6135364718
 40
0.6576662594
 40
0.7029781992
 40
0.7494988554
 40
0.7972415572
 40
0.8462020938
 40
0.8963543579
 40
0.9476467015
 40
1.0
 40
1.0
 40
1.0
 40
1.0
 10
-5.3318731206
 20
-6.2638671547
 30
0.0
 10
-5.3320269677
 20
-6.260167769
 30
0.0
 10
-5.3325713244
 20
-6.2527259082
 30
0.0
 10
-5.3340969155
 20
-6.241558591
 30
0.0
 10
-5.3363529821
 20
-6.2303474475
 30
0.0
 10
-5.3393531546
 20
-6.2191288967
 30
0.0
 10
-5.3431090172
 20
-6.2079387599
 30
0.0
 10
-5.3476303495
 20
-6.1968131994
 30
0.0
 10
-5.3529254046
 20
-6.1857885214
 30
0.0
 10
-5.359001157
 20
-6.1749013534
 30
0.0
 10
-5.3658634921
 20
-6.1641888435
 30
0.0
 10
-5.3735173639
 20
-6.1536888869
 30
0.0
 10
-5.3819668959
 20
-6.1434404008
 30
0.0
 10
-5.3912154518
 20
-6.1334836164
 30
0.0
 10
-5.4012655886
 20
-6.1238604738
 30
0.0
 10
-5.4121188821
 20
-6.1146150728
 30
0.0
 10
-5.4237756251
 20
-6.1057941507
 30
0.0
 10
-5.43623437
 20
-6.09744758
 30
0.0
 10
-5.4494912324
 20
-6.0896289024
 30
0.0
 10
-5.4635387983
 20
-6.0823959081
 30
0.0
 10
-5.4783647175
 20
-6.0758110848
 30
0.0
 10
-5.4939498554
 20
-6.0699419075
 30
0.0
 10
-5.5102661707
 20
-6.0648607962
 30
0.0
 10
-5.5272740763
 20
-6.0606446627
 30
0.0
 10
-5.5449202489
 20
-6.0573738231
 30
0.0
 10
-5.5631338265
 20
-6.0551302689
 30
0.0
 10
-5.5754803906
 20
-6.0543806232
 30
0.0
 10
-5.5817208274
 20
-6.0541978579
 30
0.0
 11
-5.3318731206
 21
-6.2638671547
 31
0.0
 11
-5.3326824034
 21
-6.2527889249
 31
0.0
 11
-5.3342049794
 21
-6.2416321477
 31
0.0
 11
-5.3364568217
 21
-6.2304322391
 31
0.0
 11
-5.3394515825
 21
-6.2192248528
 31
0.0
 11
-5.3432008688
 21
-6.2080457976
 31
0.0
 11
-5.3477145179
 21
-6.1969310366
 31
0.0
 11
-5.3530008572
 21
-6.1859167564
 31
0.0
 11
-5.3590669378
 21
-6.1750394955
 31
0.0
 11
-5.3659187707
 21
-6.1643362677
 31
0.0
 11
-5.3735613799
 21
-6.153844955
 31
0.0
 11
-5.3819989744
 21
-6.1436044463
 31
0.0
 11
-5.3912350197
 21
-6.1336549371
 31
0.0
 11
-5.4012721757
 21
-6.1240383444
 31
0.0
 11
-5.4121121245
 21
-6.114798755
 31
0.0
 11
-5.4237552735
 21
-6.1059828998
 31
0.0
 11
-5.4362003083
 21
-6.097640648
 31
0.0
 11
-5.4494435537
 21
-6.0898255123
 31
0.0
 11
-5.4634779527
 21
-6.0825952162
 31
0.0
 11
-5.4782914214
 21
-6.0760122883
 31
0.0
 11
-5.4938653008
 21
-6.0701442157
 31
0.0
 11
-5.510172032
 21
-6.0650635112
 31
0.0
 11
-5.5271725877
 21
-6.060847272
 31
0.0
 11
-5.5448137918
 21
-6.0575761233
 31
0.0
 11
-5.5630258865
 21
-6.05533244
 31
0.0
 11
-5.5817208274
 21
-6.0541978579
 31
0.0
  0
SPLINE
  5
435
100
AcDbEntity
  8
RACCORDO
100
AcDbSpline
 62
253
  6
CONTINUOUS
 70
0
 71
3
 72
22
 73
18
 74
16
 42
0.0000001
 43
0.0000001
 44
0.0000000001
 12
-0.0023903363
 22
0.3886741914
 32
0.0
 13
-0.3886746111
 23
0.0023210884
 33
0.0
 40
0.0
 40
0.0
 40
0.0
 40
0.0
 40
0.0660731761
 40
0.1322094842
 40
0.1984263464
 40
0.2647376351
 40
0.3311530777
 40
0.3976778497
 40
0.4643123719
 40
0.5310523145
 40
0.5978888066
 40
0.6648088369
 40
0.7317958256
 40
0.7988303423
 40
0.8658909382
 40
0.9329550588
 40
1.0
 40
1.0
 40
1.0
 40
1.0
 10
-5.3897955867
 20
-6.5563376158
 30
0.0
 10
-5.3898482324
 20
-6.5477773031
 30
0.0
 10
-5.3908619235
 20
-6.5306403143
 30
0.0
 10
-5.3950872618
 20
-6.5052355889
 30
0.0
 10
-5.4019718846
 20
-6.4803842817
 30
0.0
 10
-5.411440642
 20
-6.4563604533
 30
0.0
 10
-5.4233903016
 20
-6.4334242867
 30
0.0
 10
-5.437690664
 20
-6.4118253338
 30
0.0
 10
-5.4541860166
 20
-6.3917981818
 30
0.0
 10
-5.4726968434
 20
-6.3735603573
 30
0.0
 10
-5.4930218012
 20
-6.3573098672
 30
0.0
 10
-5.5149398869
 20
-6.3432231033
 30
0.0
 10
-5.5382129504
 20
-6.3314529422
 30
0.0
 10
-5.5625878608
 20
-6.3221271127
 30
0.0
 10
-5.5878007973
 20
-6.3153468186
 30
0.0
 10
-5.6135742949
 20
-6.311185688
 30
0.0
 10
-5.6309570713
 20
-6.31018755
 30
0.0
 10
-5.6396432934
 20
-6.3101356776
 30
0.0
 11
-5.3897955867
 21
-6.5563376158
 31
0.0
 11
-5.3913114117
 21
-6.5307009661
 31
0.0
 11
-5.3955270776
 21
-6.5053430353
 31
0.0
 11
-5.402396752
 21
-6.4805395124
 31
0.0
 11
-5.4118457487
 21
-6.4565600589
 31
0.0
 11
-5.4237713393
 21
-6.433665377
 31
0.0
 11
-5.4380438702
 21
-6.4121043758
 31
0.0
 11
-5.4545081719
 21
-6.3921114644
 31
0.0
 11
-5.4729852462
 21
-6.3739040041
 31
0.0
 11
-5.4932742123
 21
-6.3576799449
 31
0.0
 11
-5.5151544905
 21
-6.3436156736
 31
0.0
 11
-5.5383882004
 21
-6.3318640959
 31
0.0
 11
-5.5627227471
 21
-6.3225529741
 31
0.0
 11
-5.5878935678
 21
-6.3157835381
 31
0.0
 11
-5.6136270071
 21
-6.3116293847
 31
0.0
 11
-5.6396432934
 21
-6.3101356776
 31
0.0
  0
SPLINE
  5
436
100
AcDbEntity
  8
RACCORDO
100
AcDbSpline
 62
253
  6
CONTINUOUS
 70
0
 71
3
 72
22
 73
18
 74
16
 42
0.0000001
 43
0.0000001
 44
0.0000000001
 12
-0.0215171586
 22
-0.2876755458
 32
0.0
 13
-0.2884533275
 23
-0.0038581875
 33
0.0
 40
0.0
 40
0.0
 40
0.0
 40
0.0
 40
0.0382490933
 40
0.0788463805
 40
0.1231126918
 40
0.1719391739
 40
0.22582684
 40
0.2849644293
 40
0.3493013877
 40
0.4186043936
 40
0.4924988381
 40
0.5704994646
 40
0.6520338564
 40
0.7364613808
 40
0.8230892989
 40
0.911187134
 40
1.0
 40
1.0
 40
1.0
 40
1.0
 10
-5.3910748386
 20
-6.9087147612
 30
0.0
 10
-5.3913491758
 20
-6.9123825375
 30
0.0
 10
-5.3928602821
 20
-6.9198973999
 30
0.0
 10
-5.3977649602
 20
-6.9307612161
 30
0.0
 10
-5.4052258023
 20
-6.9413110837
 30
0.0
 10
-5.41513109
 20
-6.9514587648
 30
0.0
 10
-5.4273704007
 20
-6.961129385
 30
0.0
 10
-5.441820028
 20
-6.9702392346
 30
0.0
 10
-5.4583356389
 20
-6.9787031254
 30
0.0
 10
-5.4767504856
 20
-6.9864371511
 30
0.0
 10
-5.4968764092
 20
-6.9933623648
 30
0.0
 10
-5.5185059066
 20
-6.9994068582
 30
0.0
 10
-5.5414146279
 20
-7.0045073047
 30
0.0
 10
-5.5653639613
 20
-7.0086100033
 30
0.0
 10
-5.5901040322
 20
-7.0116716521
 30
0.0
 10
-5.6153755171
 20
-7.013659891
 30
0.0
 10
-5.6323830897
 20
-7.0142551078
 30
0.0
 10
-5.6409225453
 20
-7.0143693267
 30
0.0
 11
-5.3910748386
 21
-6.9087147612
 31
0.0
 11
-5.3931988793
 21
-6.9195424592
 31
0.0
 11
-5.3979289068
 21
-6.9302562527
 31
0.0
 11
-5.4052151623
 21
-6.9407434355
 31
0.0
 11
-5.4149809965
 21
-6.9508936852
 31
0.0
 11
-5.4271236754
 21
-6.9606002238
 31
0.0
 11
-5.4415154611
 21
-6.9697609413
 31
0.0
 11
-5.4580049561
 21
-6.9782794693
 31
0.0
 11
-5.4764186952
 21
-6.9860661952
 31
0.0
 11
-5.4965629709
 21
-6.9930392047
 31
0.0
 11
-5.5182258706
 21
-6.9991251436
 31
0.0
 11
-5.5411795065
 21
-7.0042599894
 31
0.0
 11
-5.5651824126
 21
-7.008389725
 31
0.0
 11
-5.5899820845
 21
-7.0114709066
 31
0.0
 11
-5.6153176365
 21
-7.0134711211
 31
0.0
 11
-5.6409225453
 21
-7.0143693267
 31
0.0
  0
SPLINE
  5
437
100
AcDbEntity
  8
RACCORDO
100
AcDbSpline
 62
7
  6
CONTINUOUS
 70
0
 71
3
 72
33
 73
29
 74
27
 42
0.0000001
 43
0.0000001
 44
0.0000000001
 12
0.3096155437
 22
-0.0053097742
 32
0.0
 13
0.0055159556
 23
-0.3096119391
 33
0.0
 40
0.0
 40
0.0
 40
0.0
 40
0.0
 40
0.0499525373
 40
0.0986772341
 40
0.1461308583
 40
0.1923073339
 40
0.2372327519
 40
0.2809576192
 40
0.3235486124
 40
0.3650812775
 40
0.4056329753
 40
0.4452830033
 40
0.484105945
 40
0.5221708134
 40
0.5595406842
 40
0.5962726237
 40
0.6324177369
 40
0.6680211722
 40
0.7031221117
 40
0.7377537206
 40
0.7719430064
 40
0.805712947
 40
0.839079846
 40
0.8720539597
 40
0.9046391977
 40
0.9368328226
 40
0.9686252417
 40
1.0
 40
1.0
 40
1.0
 40
1.0
 10
9.4898836467
 20
9.6726000879
 30
0.0
 10
9.4950390073
 20
9.6725116757
 30
0.0
 10
9.505220624
 20
9.6719498341
 30
0.0
 10
9.5201900553
 20
9.6699942271
 30
0.0
 10
9.5345960272
 20
9.6670355185
 30
0.0
 10
9.5483785649
 20
9.6631740759
 30
0.0
 10
9.5615005318
 20
9.6585062046
 30
0.0
 10
9.5739416513
 20
9.6531211659
 30
0.0
 10
9.5856945381
 20
9.6470996962
 30
0.0
 10
9.5967604602
 20
9.6405138048
 30
0.0
 10
9.6071464016
 20
9.6334271531
 30
0.0
 10
9.6168625271
 20
9.6258960031
 30
0.0
 10
9.6259205647
 20
9.6179702202
 30
0.0
 10
9.6343324994
 20
9.6096945499
 30
0.0
 10
9.6421100526
 20
9.6011095338
 30
0.0
 10
9.649264396
 20
9.5922523208
 30
0.0
 10
9.6558060213
 20
9.583157385
 30
0.0
 10
9.6617447202
 20
9.5738571671
 30
0.0
 10
9.6670896472
 20
9.5643826499
 30
0.0
 10
9.6718494542
 20
9.5547638749
 30
0.0
 10
9.6760325811
 20
9.5450301841
 30
0.0
 10
9.6796474406
 20
9.5352106115
 30
0.0
 10
9.6827026857
 20
9.5253341437
 30
0.0
 10
9.6852074575
 20
9.5154301447
 30
0.0
 10
9.6871717586
 20
9.5055285346
 30
0.0
 10
9.6886068292
 20
9.495659795
 30
0.0
 10
9.6895255396
 20
9.4858555459
 30
0.0
 10
9.6898056541
 20
9.479338189
 30
0.0
 10
9.6898633413
 20
9.476100189
 30
0.0
 11
9.4898836467
 21
9.6726000879
 31
0.0
 11
9.5053285389
 21
9.671748415
 31
0.0
 11
9.5202896319
 21
9.6697945166
 31
0.0
 11
9.5346837937
 21
9.6668385711
 31
0.0
 11
9.5484527278
 21
9.6629811779
 31
0.0
 11
9.5615598005
 21
9.6583186964
 31
0.0
 11
9.5739856222
 21
9.6529402622
 31
0.0
 11
9.5857234654
 21
9.6469263816
 31
0.0
 11
9.5967752077
 21
9.6403487235
 31
0.0
 11
9.6071477678
 21
9.6332709179
 31
0.0
 11
9.6168518097
 21
9.6257487788
 31
0.0
 11
9.6258990433
 21
9.6178320285
 31
0.0
 11
9.6343013953
 21
9.609565303
 31
0.0
 11
9.6420705085
 21
9.6009890609
 31
0.0
 11
9.6492174711
 21
9.5921403843
 31
0.0
 11
9.6557526977
 21
9.5830536842
 31
0.0
 11
9.661685906
 21
9.5737613423
 31
0.0
 11
9.6670261807
 21
9.5642942835
 31
0.0
 11
9.6717821084
 21
9.5546824867
 31
0.0
 11
9.6759619701
 21
9.5449554497
 31
0.0
 11
9.6795742224
 21
9.5351419174
 31
0.0
 11
9.6826274221
 21
9.5252708954
 31
0.0
 11
9.685130647
 21
9.5153716889
 31
0.0
 11
9.6870938315
 21
9.5054741302
 31
0.0
 11
9.6885281389
 21
9.495608738
 31
0.0
 11
9.6894463637
 21
9.4858067781
 31
0.0
 11
9.6898633413
 21
9.476100189
 31
0.0
  0
SPLINE
  5
438
100
AcDbEntity
  8
RACCORDO
100
AcDbSpline
 62
253
  6
CONTINUOUS
 70
0
 71
3
 72
21
 73
17
 74
15
 42
0.0000001
 43
0.0000001
 44
0.0000000001
 12
-0.1353296076
 22
-0.1473790183
 32
0.0
 13
-0.2000866645
 23
-0.000066346
 33
0.0
 40
0.0
 40
0.0
 40
0.0
 40
0.0
 40
0.0083460012
 40
0.0287203138
 40
0.060994324
 40
0.1047941995
 40
0.159589864
 40
0.2247116892
 40
0.2993612995
 40
0.382622294
 40
0.4734719041
 40
0.5707937627
 40
0.6733917365
 40
0.7800046986
 40
0.8893220769
 40
1.0
 40
1.0
 40
1.0
 40
1.0
 10
9.6913902853
 20
1.5782077531
 30
0.0
 10
9.6910137982
 20
1.5777977446
 30
0.0
 10
9.6888227079
 20
1.5778278708
 30
0.0
 10
9.6850219635
 20
1.5771795627
 30
0.0
 10
9.6784664234
 20
1.5769524565
 30
0.0
 10
9.6698023538
 20
1.5765136201
 30
0.0
 10
9.6588677468
 20
1.5761778908
 30
0.0
 10
9.6459026846
 20
1.575831364
 30
0.0
 10
9.6310281903
 20
1.5755229822
 30
0.0
 10
9.6144400755
 20
1.5752424629
 30
0.0
 10
9.5963381214
 20
1.5749983906
 30
0.0
 10
9.5769462291
 20
1.5747925208
 30
0.0
 10
9.5565024749
 20
1.5746279825
 30
0.0
 10
9.5352583843
 20
1.5745067638
 30
0.0
 10
9.5134751797
 20
1.5744304534
 30
0.0
 10
9.4988024717
 20
1.5744102007
 30
0.0
 10
9.4914207462
 20
1.5744077531
 30
0.0
 11
9.6913902853
 21
1.5782077531
 31
0.0
 11
9.689774255
 21
1.577786931
 31
0.0
 11
9.6857188713
 21
1.5773712842
 31
0.0
 11
9.6792740071
 21
1.5769659243
 31
0.0
 11
9.6705189217
 21
1.5765758365
 31
0.0
 11
9.659561285
 21
1.5762058179
 31
0.0
 11
9.6465358541
 21
1.5758604192
 31
0.0
 11
9.6316028161
 21
1.575543888
 31
0.0
 11
9.6149458175
 21
1.5752601171
 31
0.0
 11
9.5967697064
 21
1.5750125962
 31
0.0
 11
9.5772980126
 21
1.5748043694
 31
0.0
 11
9.5567701992
 21
1.5746379974
 31
0.0
 11
9.5354387177
 21
1.5745155263
 31
0.0
 11
9.5135659026
 21
1.5744384623
 31
0.0
 11
9.4914207462
 21
1.5744077531
 31
0.0
  0
ELLIPSE
  5
439
100
AcDbEntity
  8
RACCORDO
100
AcDbEllipse
 62
7
  6
CONTINUOUS
 10
1.0550826073
 20
9.1190189477
 30
0.0
 11
-0.0000855448
 21
0.2254763766
 31
0.0
 40
0.8870108196
 41
9.4244414324
 42
10.9955742876
  0
ELLIPSE
  5
43A
100
AcDbEntity
  8
RACCORDO
100
AcDbEllipse
 62
7
  6
CONTINUOUS
 10
-1.3356798747
 20
9.1190189477
 30
0.0
 11
-0.0000855448
 21
-0.2254763766
 31
0.0
 40
0.8870108196
 41
4.7123889804
 42
6.2835218355
  0
ELLIPSE
  5
43B
100
AcDbEntity
  8
RACCORDO
100
AcDbEllipse
 62
7
  6
CONTINUOUS
 10
1.0551813579
 20
8.8587354224
 30
0.0
 11
-0.0000855448
 21
0.2254763766
 31
0.0
 40
0.8870108196
 41
-3.1419291819
 42
-1.5707963268
  0
ELLIPSE
  5
43C
100
AcDbEntity
  8
RACCORDO
100
AcDbEllipse
 62
7
  6
CONTINUOUS
 10
-1.3357786252
 20
8.8587354224
 30
0.0
 11
0.0000855448
 21
0.2254763766
 31
0.0
 40
0.8870108196
 41
-4.7123889804
 42
-3.1412561253
  0
ELLIPSE
  5
43D
100
AcDbEntity
  8
RACCORDO
100
AcDbEllipse
 62
7
  6
CONTINUOUS
 10
7.1442313125
 20
-11.1359621339
 30
0.0
 11
0.2
 21
0.0
 31
0.0
 40
0.0524077793
 41
0.5235987756
 42
1.5707963268
  0
ELLIPSE
  5
43E
100
AcDbEntity
  8
RACCORDO
100
AcDbEllipse
 62
7
  6
CONTINUOUS
 10
-4.0557686875
 20
-11.1359621339
 30
0.0
 11
0.2
 21
0.0
 31
0.0
 40
0.0524077793
 41
0.5235987756
 42
1.5707963268
  0
ELLIPSE
  5
43F
100
AcDbEntity
  8
RACCORDO
100
AcDbEllipse
 62
7
  6
CONTINUOUS
 10
3.7751714202
 20
-11.1359621339
 30
0.0
 11
0.2
 21
0.0
 31
0.0
 40
0.0524077793
 41
1.5707963268
 42
2.617993878
  0
ELLIPSE
  5
440
100
AcDbEntity
  8
RACCORDO
100
AcDbEllipse
 62
7
  6
CONTINUOUS
 10
-7.4248285798
 20
-11.1359621339
 30
0.0
 11
0.2
 21
0.0
 31
0.0
 40
0.0524077793
 41
1.5707963268
 42
2.617993878
  0
ELLIPSE
  5
441
100
AcDbEntity
  8
RACCORDO
100
AcDbEllipse
 62
7
  6
CONTINUOUS
 10
10.7595489802
 20
10.6958982335
 30
0.0
 11
0.2426981267
 21
0.0606514259
 31
-0.0
 40
0.9993528196
 41
-0.2447368254
 42
1.3257549497
  0
ELLIPSE
  5
442
100
AcDbEntity
  8
RACCORDO
100
AcDbEllipse
 62
7
  6
CONTINUOUS
 10
-11.0401462476
 20
10.6958982335
 30
0.0
 11
0.2426981267
 21
-0.0606514259
 31
-0.0
 40
0.9993528196
 41
1.8158377039
 42
3.386329479
  0
ELLIPSE
  5
443
100
AcDbEntity
  8
0
100
AcDbEllipse
 62
7
  6
CONTINUOUS
 10
10.483092066
 20
-10.6639292261
 30
0.0
 11
0.4943891341
 21
0.0770133648
 31
0.0
 40
0.9960067742
 41
-1.7259388368
 42
-0.1569690096
  0
ELLIPSE
  5
444
100
AcDbEntity
  8
0
100
AcDbEllipse
 62
7
  6
CONTINUOUS
 10
-10.7636893334
 20
-10.6639292261
 30
0.0
 11
0.4943891341
 21
-0.0770133648
 31
0.0
 40
0.9960067742
 41
-2.984623644
 42
-1.4156538168
  0
ELLIPSE
  5
445
100
AcDbEntity
  8
RACCORDO
100
AcDbEllipse
 62
7
  6
CONTINUOUS
 10
-1.2707024225
 20
11.0459077531
 30
0.0
 11
0.0
 21
498.5
 31
0.0
 40
0.0174550649
 41
-1.5826729913
 42
-1.5735511513
  0
ELLIPSE
  5
446
100
AcDbEntity
  8
RACCORDO
100
AcDbEllipse
 62
7
  6
CONTINUOUS
 10
0.9901051551
 20
11.0459077531
 30
0.0
 11
0.0
 21
498.5
 31
0.0
 40
0.0174550649
 41
-4.7096341559
 42
-4.7005123158
  0
ELLIPSE
  5
447
100
AcDbEntity
  8
RACCORDO
100
AcDbEllipse
 62
7
  6
CONTINUOUS
 10
-15.5707024225
 20
11.0459077531
 30
0.0
 11
0.0
 21
498.5
 31
0.0
 40
0.0174550649
 41
-1.5826729913
 42
-1.5735511513
  0
ELLIPSE
  5
448
100
AcDbEntity
  8
RACCORDO
100
AcDbEllipse
 62
7
  6
CONTINUOUS
 10
15.2901051551
 20
11.0459077531
 30
0.0
 11
0.0
 21
498.5
 31
0.0
 40
0.0174550649
 41
-4.7096341559
 42
-4.7005123158
  0
ELLIPSE
  5
449
100
AcDbEntity
  8
RACCORDO
100
AcDbEllipse
 62
7
  6
CONTINUOUS
 10
3.7751714202
 20
-9.5444723178
 30
0.0
 11
0.2
 21
-0.0
 31
0.0
 40
0.1227845609
 41
1.5707963268
 42
2.617993878
  0
ELLIPSE
  5
44A
100
AcDbEntity
  8
RACCORDO
100
AcDbEllipse
 62
7
  6
CONTINUOUS
 10
-7.4248285798
 20
-9.5444723178
 30
0.0
 11
0.2
 21
-0.0
 31
0.0
 40
0.1227845609
 41
1.5707963268
 42
2.617993878
  0
ELLIPSE
  5
44B
100
AcDbEntity
  8
RACCORDO
100
AcDbEllipse
 62
7
  6
CONTINUOUS
 10
-7.1851078126
 20
9.6883060388
 30
0.0
 11
0.3
 21
0.0
 31
0.0
 40
0.0174550649
 41
0.0174532925
 42
1.5707963268
  0
ELLIPSE
  5
44C
100
AcDbEntity
  8
RACCORDO
100
AcDbEllipse
 62
7
  6
CONTINUOUS
 10
-7.3954894547
 20
9.6883060388
 30
0.0
 11
0.3
 21
-0.0
 31
0.0
 40
0.0174550649
 41
1.5707963268
 42
3.1241393611
  0
ELLIPSE
  5
44D
100
AcDbEntity
  8
RACCORDO
100
AcDbEllipse
 62
7
  6
CONTINUOUS
 10
5.6095489802
 20
-6.3079488999
 30
0.0
 11
0.0493464685
 21
0.2491672984
 31
0.0
 40
0.9842259085
 41
0.1636613736
 42
0.1925076875
  0
ELLIPSE
  5
44E
100
AcDbEntity
  8
RACCORDO
100
AcDbEllipse
 62
7
  6
CONTINUOUS
 10
5.3098537524
 20
-6.3079488999
 30
0.0
 11
-0.0493464685
 21
0.2491672984
 31
0.0
 40
0.9842259085
 41
-0.1925076875
 42
-0.1636613736
  0
ELLIPSE
  5
44F
100
AcDbEntity
  8
RACCORDO
100
AcDbEllipse
 62
7
  6
CONTINUOUS
 10
-5.5904510198
 20
-6.3079488999
 30
0.0
 11
0.0493464685
 21
0.2491672984
 31
0.0
 40
0.9842259085
 41
0.1636613736
 42
0.1925076875
  0
ELLIPSE
  5
450
100
AcDbEntity
  8
RACCORDO
100
AcDbEllipse
 62
7
  6
CONTINUOUS
 10
-5.8901462476
 20
-6.3079488999
 30
0.0
 11
-0.0493464685
 21
0.2491672984
 31
0.0
 40
0.9842259085
 41
-0.1925076875
 42
-0.1636613736
  0
ELLIPSE
  5
451
100
AcDbEntity
  8
RACCORDO
100
AcDbEllipse
 62
7
  6
CONTINUOUS
 10
5.0264110665
 20
-9.1276910207
 30
0.0
 11
0.0
 21
0.2
 31
0.0
 40
0.0349207695
 41
-4.5716805217
 42
-3.2637657012
  0
ELLIPSE
  5
452
100
AcDbEntity
  8
RACCORDO
100
AcDbEllipse
 62
7
  6
CONTINUOUS
 10
8.0794403952
 20
3.2559077531
 30
0.0
 11
0.0
 21
88.5
 31
0.0
 40
0.0349207695
 41
-4.6218500038
 42
-4.5716805217
  0
ELLIPSE
  5
453
100
AcDbEntity
  8
RACCORDO
100
AcDbEllipse
 62
7
  6
CONTINUOUS
 10
5.8929916662
 20
-9.1276910207
 30
0.0
 11
-0.0
 21
0.2
 31
0.0
 40
0.0349207695
 41
-3.019419606
 42
-1.7115047855
  0
ELLIPSE
  5
454
100
AcDbEntity
  8
RACCORDO
100
AcDbEllipse
 62
7
  6
CONTINUOUS
 10
2.8399623374
 20
3.2559077531
 30
0.0
 11
0.0
 21
88.5
 31
0.0
 40
0.0349207695
 41
-1.7115047855
 42
-1.6613353034
  0
ELLIPSE
  5
455
100
AcDbEntity
  8
RACCORDO
100
AcDbEllipse
 62
7
  6
CONTINUOUS
 10
-6.1735889335
 20
-9.1276910207
 30
0.0
 11
-0.0
 21
0.2
 31
0.0
 40
0.0349207695
 41
-4.5716805217
 42
-3.2637657012
  0
ELLIPSE
  5
456
100
AcDbEntity
  8
RACCORDO
100
AcDbEllipse
 62
7
  6
CONTINUOUS
 10
-3.1205596048
 20
3.2559077531
 30
0.0
 11
0.0
 21
88.5
 31
0.0
 40
0.0349207695
 41
-4.6218500038
 42
-4.5716805217
  0
ELLIPSE
  5
457
100
AcDbEntity
  8
RACCORDO
100
AcDbEllipse
 62
7
  6
CONTINUOUS
 10
-5.3070083338
 20
-9.1276910207
 30
0.0
 11
-0.0
 21
0.2
 31
0.0
 40
0.0349207695
 41
-3.019419606
 42
-1.7115047855
  0
ELLIPSE
  5
458
100
AcDbEntity
  8
RACCORDO
100
AcDbEllipse
 62
7
  6
CONTINUOUS
 10
-8.3600376626
 20
3.2559077531
 30
0.0
 11
0.0
 21
88.5
 31
0.0
 40
0.0349207695
 41
-1.7115047855
 42
-1.6613353034
  0
ELLIPSE
  5
459
100
AcDbEntity
  8
RACCORDO
100
AcDbEllipse
 62
7
  6
CONTINUOUS
 10
7.1148921874
 20
9.6883060388
 30
0.0
 11
0.3
 21
0.0
 31
0.0
 40
0.0174550649
 41
0.0174532925
 42
1.5707963268
  0
ELLIPSE
  5
45A
100
AcDbEntity
  8
RACCORDO
100
AcDbEllipse
 62
7
  6
CONTINUOUS
 10
6.9045105453
 20
9.6883060388
 30
0.0
 11
0.3
 21
-0.0
 31
0.0
 40
0.0174550649
 41
1.5707963268
 42
3.1241393611
  0
ELLIPSE
  5
45B
100
AcDbEntity
  8
RACCORDO
100
AcDbEllipse
 62
7
  6
CONTINUOUS
 10
-9.8402681681
 20
9.5458772875
 30
0.0
 11
0.1414644378
 21
-0.1414644378
 31
0.0
 40
0.9996954599
 41
2.3563467835
 42
3.9268385238
  0
ELLIPSE
  5
45C
100
AcDbEntity
  8
RACCORDO
100
AcDbEllipse
 62
7
  6
CONTINUOUS
 10
-9.8290143074
 20
-9.4234269931
 30
0.0
 11
0.1992395838
 21
0.0178260286
 31
0.0
 40
0.9965982379
 41
3.0541838845
 42
4.6228532963
  0
ELLIPSE
  5
45D
100
AcDbEntity
  8
RACCORDO
100
AcDbEllipse
 62
7
  6
CONTINUOUS
 10
7.1442313125
 20
-9.5444723178
 30
0.0
 11
0.2
 21
-0.0
 31
0.0
 40
0.1227845609
 41
0.5235987756
 42
1.5707963268
  0
ELLIPSE
  5
45E
100
AcDbEntity
  8
RACCORDO
100
AcDbEllipse
 62
7
  6
CONTINUOUS
 10
5.3308062141
 20
-8.7214994637
 30
0.0
 11
0.0096324734
 21
0.5915363915
 31
0.0
 40
0.4225722455
 41
-4.6738730357
 42
-3.1347116709
  0
ELLIPSE
  5
45F
100
AcDbEntity
  8
RACCORDO
100
AcDbEllipse
 62
7
  6
CONTINUOUS
 10
5.5885965185
 20
-8.7214994637
 30
0.0
 11
-0.0096324734
 21
0.5915363915
 31
0.0
 40
0.4225722455
 41
-3.1484736363
 42
-1.6093122714
  0
ELLIPSE
  5
460
100
AcDbEntity
  8
RACCORDO
100
AcDbEllipse
 62
7
  6
CONTINUOUS
 10
-5.8691937859
 20
-8.7214994637
 30
0.0
 11
0.0096324734
 21
0.5915363915
 31
0.0
 40
0.4225722455
 41
-4.6738730357
 42
-3.1347116709
  0
ELLIPSE
  5
461
100
AcDbEntity
  8
RACCORDO
100
AcDbEllipse
 62
7
  6
CONTINUOUS
 10
-5.6114034815
 20
-8.7214994637
 30
0.0
 11
-0.0096324734
 21
0.5915363915
 31
0.0
 40
0.4225722455
 41
-3.1484736363
 42
-1.6093122714
  0
ELLIPSE
  5
462
100
AcDbEntity
  8
RACCORDO
100
AcDbEllipse
 62
7
  6
CONTINUOUS
 10
9.5596709007
 20
9.5458772875
 30
0.0
 11
0.1414644378
 21
0.1414644378
 31
0.0
 40
0.9996954599
 41
-0.7852458702
 42
0.7852458701
  0
ELLIPSE
  5
463
100
AcDbEntity
  8
RACCORDO
100
AcDbEllipse
 62
7
  6
CONTINUOUS
 10
-4.0557686875
 20
-9.5444723178
 30
0.0
 11
0.2
 21
0.0
 31
0.0
 40
0.1227845609
 41
0.5235987756
 42
1.5707963268
  0
ELLIPSE
  5
464
100
AcDbEntity
  8
RACCORDO
100
AcDbEllipse
 62
7
  6
CONTINUOUS
 10
9.54841704
 20
-9.4234269931
 30
0.0
 11
0.1992395838
 21
-0.0178260286
 31
0.0
 40
0.9965982379
 41
-1.4812606428
 42
0.0874087691
  0
ENDSEC
  0
SECTION
  2
OBJECTS
  0
DICTIONARY
  5
C
100
AcDbDictionary
280
0
281
1
  3
ACAD_GROUP
350
D
  3
ACAD_MLINESTYLE
350
17
  3
ACAD_LAYOUT
350
1A
  3
ACAD_PLOTSETTINGS
350
19
  3
ACAD_PLOTSTYLENAME
350
E
  0
DICTIONARY
  5
D
102
{ACAD_REACTORS
330
C
102
}
100
AcDbDictionary
280
0
281
1
  0
ACDBDICTIONARYWDFLT
  5
E
102
{ACAD_REACTORS
330
C
102
}
100
AcDbDictionary
281
1
  3
Normal
350
F
100
AcDbDictionaryWithDefault
340
F
  0
DICTIONARY
  5
17
102
{ACAD_REACTORS
330
C
102
}
100
AcDbDictionary
280
0
281
1
  3
Standard
350
18
  0
DICTIONARY
  5
19
102
{ACAD_REACTORS
330
C
102
}
100
AcDbDictionary
281
1
  0
DICTIONARY
  5
1A
102
{ACAD_REACTORS
330
C
102
}
100
AcDbDictionary
281
1
  3
Model
350
465
  3
Layout1
350
466
  0
ACDBPLACEHOLDER
  5
F
102
{ACAD_REACTORS
330
E
102
}
  0
MLINESTYLE
  5
18
102
{ACAD_REACTORS
330
17
102
}
100
AcDbMlineStyle
  2
STANDARD
 70
0
  3

 62
256
 51
90.0
 52
90.0
 71
2
 49
0.5
 62
256
  6
BYLAYER
 49
-0.5
 62
256
  6
BYLAYER
  0
LAYOUT
  5
465
102
{ACAD_REACTORS
330
1A
102
}
100
AcDbPlotSettings
  1

  2
none_device
  4
ISO_A4_(297.00_x_210.00_MM)
  6

 40
0.0
 41
0.0
 42
0.0
 43
0.0
 44
297.0
 45
210.0
 46
0.0
 47
0.0
 48
0.0
 49
0.0
140
0.0
141
0.0
142
1.0
143
1.0
 70
1024
 72
1
 73
0
 74
0
  7

 75
0
147
1.0
148
0.0
149
0.0
100
AcDbLayout
  1
Model
 70
0
 71
0
 10
0.0
 20
0.0
 11
297.0
 21
210.0
 12
0.0
 22
0.0
 32
0.0
 14
0.0
 24
0.0
 34
0.0
 15
0.0
 25
0.0
 35
0.0
146
0.0
 13
0.0
 23
0.0
 33
0.0
 16
1.0
 26
0.0
 36
0.0
 17
0.0
 27
1.0
 37
0.0
 76
0
330
216
345
0
346
0
  0
LAYOUT
  5
466
102
{ACAD_REACTORS
330
1A
102
}
100
AcDbPlotSettings
  1

  2
none_device
  4
ISO_A4_(297.00_x_210.00_MM)
  6

 40
0.0
 41
0.0
 42
0.0
 43
0.0
 44
297.0
 45
210.0
 46
0.0
 47
0.0
 48
0.0
 49
0.0
140
0.0
141
0.0
142
1.0
143
1.0
 70
0
 72
1
 73
0
 74
0
  7

 75
0
147
1.0
148
0.0
149
0.0
100
AcDbLayout
  1
Layout1
 70
0
 71
1
 10
0.0
 20
0.0
 11
297.0
 21
210.0
 12
0.0
 22
0.0
 32
0.0
 14
0.0
 24
0.0
 34
0.0
 15
0.0
 25
0.0
 35
0.0
146
0.0
 13
0.0
 23
0.0
 33
0.0
 16
1.0
 26
0.0
 36
0.0
 17
0.0
 27
1.0
 37
0.0
 76
0
330
217
345
0
346
0
  0
ENDSEC
  0
EOF
