0
SECTION
2
HEADER
9
$ACADVER
1
AC1014
9
$HANDSEED
5
       3AC
9
$EXTMAX
10
297.0000000000
20
210.0000000000
9
$EXTMIN
10
0.0000000000
20
0.0000000000
9
$LIMMIN
10
0.0000000000
20
0.0000000000
9
$LIMMAX
10
297.0000000000
20
210.0000000000
9
$VIEWCTR
10
148.5000000000
20
105.0000000000
9
$VIEWSIZE
40
210.0000000000
9
$CLAYER
8
0
9
$LTSCALE
40
16.3350000000
9
$CELTYPE
6
BYLAYER
9
$DIMSCALE
40
1
9
$DIMASZ
40
3.0000000000
9
$DIMEXO
40
1.8562500000
9
$DIMDLI
40
11.2860000000
9
$DIMEXE
40
5.3460000000
9
$DIMCEN
40
2.6730000000
9
$DIMLFAC
40
1.0000000000
9
$DIMTXT
40
3.0000000000
9
$DIMTOL
70
1
9
$DIMLIM
70
0
9
$DIMTFAC
40
1.0000000000
9
$DIMTP
40
0.0100000000
9
$DIMTM
40
0.0100000000
9
$MEASUREMENT
70
1
0
ENDSEC
0
SECTION
2
CLASSES
0
ENDSEC
0
SECTION
2
TABLES
0
TABLE
2
VPORT
5
8
100
AcDbSymbolTable
70
2
0
VPORT
5
1F4
100
AcDbSymbolTableRecord
100
AcDbViewportTableRecord
2
*ACTIVE
70
0
10
0.0
20
0.0
11
1.0
21
1.0
12
148.5000000000
22
105.0000000000
13
0.0
23
0.0
14
1.0
24
1.0
15
0.0
25
0.0
16
0.0
26
0.0
36
1.0
17
0.0
27
0.0
37
0.0
40
210.0000000000
41
1.4142857143
42
50.0
43
0.0
44
0.0
50
0.0
51
0.0
71
0
72
100
73
1
74
1
75
0
76
0
77
0
78
0
0
ENDTAB
0
TABLE
2
LTYPE
5
5
100
AcDbSymbolTable
70
6
0
LTYPE
5
14
100
AcDbSymbolTableRecord
100
AcDbLinetypeTableRecord
2
BYBLOCK
70
0
3

72
65
73
0
40
0.0
0
LTYPE
5
15
100
AcDbSymbolTableRecord
100
AcDbLinetypeTableRecord
2
BYLAYER
70
0
3

72
65
73
0
40
0.0
0
LTYPE
5
16
100
AcDbSymbolTableRecord
100
AcDbLinetypeTableRecord
2
CONTINUOUS
70
64
3
Solid line
72
65
73
0
40
0
0
LTYPE
5
1F5
100
AcDbSymbolTableRecord
100
AcDbLinetypeTableRecord
2
CENTER
70
64
3
____ _ ____ _ ____ _ ____ _ ____ _ ____ _ ____
72
65
73
4
40
0.6
49
0.375
74
0
49
-0.075
74
0
49
0.075
74
0
49
-0.075
74
0
0
LTYPE
5
1F6
100
AcDbSymbolTableRecord
100
AcDbLinetypeTableRecord
2
HIDDEN
70
64
3
- - - - - - - - - - - - - - - - - - - -
72
65
73
2
40
0.2
49
0.1
74
0
49
-0.1
74
0
0
LTYPE
5
1F7
100
AcDbSymbolTableRecord
100
AcDbLinetypeTableRecord
2
PHANTOM
70
64
3
_____ _ _ _____ _ _ _____ _ _ _____
72
65
73
6
40
0.8
49
0.45
74
0
49
-0.05
74
0
49
0.1
74
0
49
-0.05
74
0
49
0.1
74
0
49
-0.05
74
0
0
LTYPE
5
1F8
100
AcDbSymbolTableRecord
100
AcDbLinetypeTableRecord
2
DOT
70
64
3
. . . . . . . . . . . . . . . . . . . .
72
65
73
2
40
0.2
49
0.1
74
0
49
-0.1
74
0
0
LTYPE
5
1F9
100
AcDbSymbolTableRecord
100
AcDbLinetypeTableRecord
2
DASHED
70
64
3
- - - - - - - - - - - - - - - - - - - -
72
65
73
2
40
0.2
49
0.1
74
0
49
-0.1
74
0
0
ENDTAB
0
TABLE
2
LAYER
5
2
100
AcDbSymbolTable
70
36
0
LAYER
5
10
100
AcDbSymbolTableRecord
100
AcDbLayerTableRecord
2
0
70
0
62
7
6
CONTINUOUS
0
LAYER
5
1FA
100
AcDbSymbolTableRecord
100
AcDbLayerTableRecord
2
DEFAULT_1
70
0
62
7
6
CENTER
0
LAYER
5
1FB
100
AcDbSymbolTableRecord
100
AcDbLayerTableRecord
2
DEFAULT_2
70
0
62
8
6
HIDDEN
0
LAYER
5
1FC
100
AcDbSymbolTableRecord
100
AcDbLayerTableRecord
2
DEFAULT_3
70
0
62
7
6
PHANTOM
0
LAYER
5
1FD
100
AcDbSymbolTableRecord
100
AcDbLayerTableRecord
2
ASSI
70
0
62
7
6
CONTINUOUS
0
LAYER
5
1FE
100
AcDbSymbolTableRecord
100
AcDbLayerTableRecord
2
COLOR5
70
0
62
7
6
CONTINUOUS
0
LAYER
5
1FF
100
AcDbSymbolTableRecord
100
AcDbLayerTableRecord
2
COORDINATE
70
0
62
7
6
CONTINUOUS
0
LAYER
5
200
100
AcDbSymbolTableRecord
100
AcDbLayerTableRecord
2
COORD_ORIGINE
70
0
62
7
6
CONTINUOUS
0
LAYER
5
201
100
AcDbSymbolTableRecord
100
AcDbLayerTableRecord
2
CURVE
70
0
62
7
6
CONTINUOUS
0
LAYER
5
202
100
AcDbSymbolTableRecord
100
AcDbLayerTableRecord
2
DRAFT
70
0
62
7
6
CONTINUOUS
0
LAYER
5
203
100
AcDbSymbolTableRecord
100
AcDbLayerTableRecord
2
IMPORT_SCRITTE
70
0
62
7
6
CONTINUOUS
0
LAYER
5
204
100
AcDbSymbolTableRecord
100
AcDbLayerTableRecord
2
NOTE
70
0
62
7
6
CONTINUOUS
0
LAYER
5
205
100
AcDbSymbolTableRecord
100
AcDbLayerTableRecord
2
PIANI
70
0
62
7
6
CONTINUOUS
0
LAYER
5
206
100
AcDbSymbolTableRecord
100
AcDbLayerTableRecord
2
PIANI_ORIGINE
70
0
62
7
6
CONTINUOUS
0
LAYER
5
207
100
AcDbSymbolTableRecord
100
AcDbLayerTableRecord
2
PIANI_STAMPO
70
0
62
7
6
CONTINUOUS
0
LAYER
5
208
100
AcDbSymbolTableRecord
100
AcDbLayerTableRecord
2
PUNTI
70
0
62
7
6
CONTINUOUS
0
LAYER
5
209
100
AcDbSymbolTableRecord
100
AcDbLayerTableRecord
2
RACCORDO
70
0
62
7
6
CONTINUOUS
0
LAYER
5
20A
100
AcDbSymbolTableRecord
100
AcDbLayerTableRecord
2
SMUSSO
70
0
62
7
6
CONTINUOUS
0
LAYER
5
20B
100
AcDbSymbolTableRecord
100
AcDbLayerTableRecord
2
SUPERFICI
70
0
62
7
6
CONTINUOUS
0
LAYER
5
20C
100
AcDbSymbolTableRecord
100
AcDbLayerTableRecord
2
TRASH
70
0
62
7
6
CONTINUOUS
0
LAYER
5
20D
100
AcDbSymbolTableRecord
100
AcDbLayerTableRecord
2
XSEC_DATUMS
70
0
62
7
6
CONTINUOUS
0
ENDTAB
0
TABLE
2
STYLE
5
3
100
AcDbSymbolTable
70
1
0
STYLE
5
11
100
AcDbSymbolTableRecord
100
AcDbTextStyleTableRecord
2
STANDARD
70
0
40
0.0
41
0.8000000000
50
0.0
71
0
42
0.2
3
txt
4

0
ENDTAB
0
TABLE
2
VIEW
5
6
100
AcDbSymbolTable
70
0
0
ENDTAB
0
TABLE
2
UCS
5
7
100
AcDbSymbolTable
70
0
0
ENDTAB
0
TABLE
2
APPID
5
9
100
AcDbSymbolTable
70
1
0
APPID
5
20E
100
AcDbSymbolTableRecord
100
AcDbRegAppTableRecord
2
ACAD
70
0
0
ENDTAB
0
TABLE
2
DIMSTYLE
5
A
100
AcDbSymbolTable
70
1
0
DIMSTYLE
105
20F
100
AcDbSymbolTableRecord
100
AcDbDimStyleTableRecord
2
STANDARD
70
0
3

4

5

6

7

40
1.0
41
3.0000000000
42
0.0625
43
0.38
44
0.18
45
0.0
46
0.0
47
0.0100000000
48
0.0100000000
140
3.0000000000
141
0.09
142
0.0
143
25.4
144
1.0000000000
145
0.0
146
1.0000000000
147
0.09
71
1
72
0
73
0
74
0
75
0
76
0
77
1
78
8
170
0
171
2
172
0
173
0
174
0
175
0
176
0
177
0
178
0
270
2
271
2
272
2
273
2
274
2
340
11
275
0
280
0
281
0
282
0
283
1
284
8
285
0
286
0
287
3
288
0
0
ENDTAB
0
TABLE
2
BLOCK_RECORD
5
1
100
AcDbSymbolTable
70
0
0
BLOCK_RECORD
5
1B
100
AcDbSymbolTableRecord
100
AcDbBlockTableRecord
2
*MODEL_SPACE
0
BLOCK_RECORD
5
1C
100
AcDbSymbolTableRecord
100
AcDbBlockTableRecord
2
*PAPER_SPACE
0
ENDTAB
0
ENDSEC
0
SECTION
2
BLOCKS
0
BLOCK
5
1E
100
AcDbEntity
8
0
100
AcDbBlockBegin
2
*MODEL_SPACE
70
0
10
0.0
20
0.0
30
0.0
3
*MODEL_SPACE
1

0
ENDBLK
5
1F
100
AcDbEntity
8
0
100
AcDbBlockEnd
0
BLOCK
5
20
100
AcDbEntity
8
0
100
AcDbBlockBegin
2
*PAPER_SPACE
70
0
10
0.0
20
0.0
30
0.0
3
*PAPER_SPACE
1

0
ENDBLK
5
21
100
AcDbEntity
8
0
100
AcDbBlockEnd
0
ENDSEC
0
SECTION
2
ENTITIES
0
LINE
5
210
100
AcDbEntity
8
0
100
AcDbLine
62
7
6
CONTINUOUS
10
-74.3705107728
20
-38.8684426781
11
-74.3705145151
21
42.7837117573
0
LINE
5
211
100
AcDbEntity
8
0
100
AcDbLine
62
7
6
CONTINUOUS
10
-70.5509948563
20
-43.6898958374
11
-70.5533018580
21
-43.6884599979
0
LINE
5
212
100
AcDbEntity
8
0
100
AcDbLine
62
9
6
CONTINUOUS
10
-71.2997083720
20
-26.3798192003
11
-71.2997083702
21
-27.1610040767
0
LINE
5
213
100
AcDbEntity
8
0
100
AcDbLine
62
9
6
CONTINUOUS
10
-71.0673739650
20
14.4529263894
11
-71.0673739463
21
14.8252540707
0
LINE
5
214
100
AcDbEntity
8
0
100
AcDbLine
62
9
6
CONTINUOUS
10
-70.5771277244
20
41.1849110580
11
-70.5771277194
21
40.8859680736
0
LINE
5
215
100
AcDbEntity
8
0
100
AcDbLine
62
9
6
CONTINUOUS
10
-69.4481523652
20
-43.9924018039
11
-69.4481523519
21
-43.9874961030
0
LINE
5
216
100
AcDbEntity
8
0
100
AcDbLine
62
9
6
CONTINUOUS
10
-69.2577756491
20
35.1998111005
11
-69.2577757014
21
36.1529396601
0
LINE
5
217
100
AcDbEntity
8
0
100
AcDbLine
62
9
6
CONTINUOUS
10
-72.2851850138
20
-40.7869200951
11
-72.2850343544
21
-40.7604617583
0
LINE
5
218
100
AcDbEntity
8
0
100
AcDbLine
62
7
6
CONTINUOUS
10
-59.0705107728
20
15.6579015187
11
-59.0705107728
21
23.5808297725
0
LINE
5
219
100
AcDbEntity
8
0
100
AcDbLine
62
7
6
CONTINUOUS
10
-59.0454880998
20
24.2347279841
11
-59.0454880998
21
15.9636996037
0
LINE
5
21A
100
AcDbEntity
8
0
100
AcDbLine
62
7
6
CONTINUOUS
10
-58.8705107728
20
25.4653588386
11
-58.8705107728
21
23.5808297725
0
LINE
5
21B
100
AcDbEntity
8
0
100
AcDbLine
62
7
6
CONTINUOUS
10
-58.7217800448
20
23.5808297725
11
-58.7217800448
21
14.4529263894
0
LINE
5
21C
100
AcDbEntity
8
0
100
AcDbLine
62
7
6
CONTINUOUS
10
-39.7970941343
20
-16.9366300345
11
-39.9705107728
21
-10.9670602173
0
LINE
5
21D
100
AcDbEntity
8
0
100
AcDbLine
62
7
6
CONTINUOUS
10
-41.4192415008
20
19.4320990445
11
-41.4192415008
21
23.5808297725
0
LINE
5
21E
100
AcDbEntity
8
0
100
AcDbLine
62
7
6
CONTINUOUS
10
-41.2705107728
20
19.5808297725
11
-41.2705107728
21
23.5808297725
0
LINE
5
21F
100
AcDbEntity
8
0
100
AcDbLine
62
7
6
CONTINUOUS
10
-41.0705107728
20
20.5808297725
11
-41.0705107728
21
23.5808297725
0
LINE
5
220
100
AcDbEntity
8
0
100
AcDbLine
62
7
6
CONTINUOUS
10
-39.9705107728
20
-23.6645705031
11
-39.9705107728
21
-10.9670602173
0
LINE
5
221
100
AcDbEntity
8
0
100
AcDbLine
62
7
6
CONTINUOUS
10
-41.4192415008
20
19.4320990445
11
-41.2705107728
21
19.5808297725
0
LINE
5
222
100
AcDbEntity
8
0
100
AcDbLine
62
7
6
CONTINUOUS
10
69.3071306270
20
-43.9924018039
11
-69.4481523515
21
-43.9924018039
0
LINE
5
223
100
AcDbEntity
8
0
100
AcDbLine
62
9
6
CONTINUOUS
10
69.3071306315
20
-43.9874962027
11
-69.4481521743
21
-43.9874962026
0
LINE
5
224
100
AcDbEntity
8
0
100
AcDbLine
62
7
6
CONTINUOUS
10
72.1441641807
20
-40.7869200951
11
-72.2851850138
21
-40.7869200951
0
LINE
5
225
100
AcDbEntity
8
0
100
AcDbLine
62
7
6
CONTINUOUS
10
-72.3706913684
20
-40.5996362272
11
72.2296698228
21
-40.5996362272
0
LINE
5
226
100
AcDbEntity
8
0
100
AcDbLine
62
7
6
CONTINUOUS
10
-37.0054209026
20
-22.9366300345
11
-36.9705107728
21
-23.6645705031
0
LINE
5
227
100
AcDbEntity
8
0
100
AcDbLine
62
7
6
CONTINUOUS
10
-38.0323909881
20
2.0308297725
11
-38.0323909881
21
-0.4691702275
0
LINE
5
228
100
AcDbEntity
8
0
100
AcDbLine
62
7
6
CONTINUOUS
10
-37.5705107728
20
2.0308297725
11
-37.5705107728
21
-0.4691702275
0
LINE
5
229
100
AcDbEntity
8
0
100
AcDbLine
62
7
6
CONTINUOUS
10
-37.0705107728
20
-0.4691702275
11
-37.0705107728
21
2.0308297725
0
LINE
5
22A
100
AcDbEntity
8
0
100
AcDbLine
62
7
6
CONTINUOUS
10
-37.0054209026
20
-12.1687814554
11
-37.0054209026
21
-22.9366300345
0
LINE
5
22B
100
AcDbEntity
8
0
100
AcDbLine
62
7
6
CONTINUOUS
10
-36.9705107728
20
-23.6645705031
11
-36.9705107728
21
-10.9670602173
0
LINE
5
22C
100
AcDbEntity
8
0
100
AcDbLine
62
7
6
CONTINUOUS
10
-36.6086305574
20
-0.4691702275
11
-36.6086305574
21
2.0308297725
0
LINE
5
22D
100
AcDbEntity
8
0
100
AcDbLine
62
7
6
CONTINUOUS
10
-35.5705107728
20
19.7808297725
11
-35.5705107728
21
19.5808297725
0
LINE
5
22E
100
AcDbEntity
8
0
100
AcDbLine
62
7
6
CONTINUOUS
10
-35.5691961549
20
26.4120627677
11
-35.5691961549
21
23.2808297725
0
LINE
5
22F
100
AcDbEntity
8
0
100
AcDbLine
62
7
6
CONTINUOUS
10
-35.4379631596
20
26.2808297725
11
-35.4379631596
21
23.2808297725
0
LINE
5
230
100
AcDbEntity
8
0
100
AcDbLine
62
7
6
CONTINUOUS
10
-36.9705107728
20
-10.9670602173
11
-37.1439274113
21
-16.9366300345
0
LINE
5
231
100
AcDbEntity
8
0
100
AcDbLine
62
7
6
CONTINUOUS
10
-39.9356006429
20
-22.9366300345
11
-39.9705107728
21
-23.6645705031
0
LINE
5
232
100
AcDbEntity
8
0
100
AcDbLine
62
9
6
CONTINUOUS
10
-17.5672396769
20
35.8889652146
11
-18.2563914347
21
35.1998134568
0
LINE
5
233
100
AcDbEntity
8
0
100
AcDbLine
62
7
6
CONTINUOUS
10
-26.5718253907
20
26.4120627677
11
-26.7030583860
21
26.2808297725
0
LINE
5
234
100
AcDbEntity
8
0
100
AcDbLine
62
7
6
CONTINUOUS
10
-33.5323909881
20
2.0308297725
11
-33.5323909881
21
-0.4691702275
0
LINE
5
235
100
AcDbEntity
8
0
100
AcDbLine
62
7
6
CONTINUOUS
10
-33.0705107728
20
2.0308297725
11
-33.0705107728
21
-0.4691702275
0
LINE
5
236
100
AcDbEntity
8
0
100
AcDbLine
62
7
6
CONTINUOUS
10
-32.5705107728
20
-0.4691702275
11
-32.5705107728
21
2.0308297725
0
LINE
5
237
100
AcDbEntity
8
0
100
AcDbLine
62
7
6
CONTINUOUS
10
-32.1086305574
20
-0.4691702275
11
-32.1086305574
21
2.0308297725
0
LINE
5
238
100
AcDbEntity
8
0
100
AcDbLine
62
9
6
CONTINUOUS
10
-11.5294201506
20
34.5916655703
11
-12.2185719083
21
33.9025138125
0
LINE
5
239
100
AcDbEntity
8
0
100
AcDbLine
62
7
6
CONTINUOUS
10
-26.7030583860
20
23.2808297725
11
-26.7030583860
21
26.2808297725
0
LINE
5
23A
100
AcDbEntity
8
0
100
AcDbLine
62
7
6
CONTINUOUS
10
-26.5718253907
20
23.2808297725
11
-26.5718253907
21
26.4120627677
0
LINE
5
23B
100
AcDbEntity
8
0
100
AcDbLine
62
7
6
CONTINUOUS
10
-26.5705107728
20
19.5808297725
11
-26.5705107728
21
19.7808297725
0
LINE
5
23C
100
AcDbEntity
8
0
100
AcDbLine
62
9
6
CONTINUOUS
10
-7.5870730172
20
24.5304950394
11
-6.8979212595
21
25.2196467971
0
LINE
5
23D
100
AcDbEntity
8
0
100
AcDbLine
62
9
6
CONTINUOUS
10
72.1150069497
20
-25.1114838194
11
73.1133095722
21
-25.0839817468
0
LINE
5
23E
100
AcDbEntity
8
0
100
AcDbLine
62
9
6
CONTINUOUS
10
-71.2997083506
20
-27.1610040767
11
71.1586868074
21
-27.1610040794
0
LINE
5
23F
100
AcDbEntity
8
0
100
AcDbLine
62
9
6
CONTINUOUS
10
-71.2997083720
20
-26.3798192003
11
71.1586868284
21
-26.3798192070
0
LINE
5
240
100
AcDbEntity
8
0
100
AcDbLine
62
7
6
CONTINUOUS
10
36.8294892272
20
-23.6645705031
11
39.8294892272
21
-23.6645705031
0
LINE
5
241
100
AcDbEntity
8
0
100
AcDbLine
62
7
6
CONTINUOUS
10
-36.9705107728
20
-23.6645705031
11
-39.9705107728
21
-23.6645705031
0
LINE
5
242
100
AcDbEntity
8
0
100
AcDbLine
62
7
6
CONTINUOUS
10
36.8643993571
20
-22.9366300345
11
39.7945790974
21
-22.9366300345
0
LINE
5
243
100
AcDbEntity
8
0
100
AcDbLine
62
7
6
CONTINUOUS
10
-37.0054209026
20
-22.9366300345
11
-39.9356006429
21
-22.9366300345
0
LINE
5
244
100
AcDbEntity
8
0
100
AcDbLine
62
9
6
CONTINUOUS
10
-72.2560284941
20
-25.1114838064
11
-73.2543163049
21
-25.0839825379
0
LINE
5
245
100
AcDbEntity
8
0
100
AcDbLine
62
9
6
CONTINUOUS
10
-18.2563914347
20
35.1998119605
11
-18.2563914347
21
36.1529396979
0
LINE
5
246
100
AcDbEntity
8
0
100
AcDbLine
62
7
6
CONTINUOUS
10
-39.8308567890
20
-16.9366300345
11
-37.0054209026
21
-16.9366300345
0
LINE
5
247
100
AcDbEntity
8
0
100
AcDbLine
62
7
6
CONTINUOUS
10
36.8643993571
20
-16.9366300345
11
39.6898352435
21
-16.9366300345
0
LINE
5
248
100
AcDbEntity
8
0
100
AcDbLine
62
9
6
CONTINUOUS
10
-15.4672534124
20
38.5294988321
11
-15.4672534134
21
39.5012475403
0
LINE
5
249
100
AcDbEntity
8
0
100
AcDbLine
62
9
6
CONTINUOUS
10
-11.5294201506
20
34.5916655703
11
-11.5294201506
21
33.8256211272
0
LINE
5
24A
100
AcDbEntity
8
0
100
AcDbLine
62
9
6
CONTINUOUS
10
15.3262318668
20
38.5294988321
11
11.3883986050
21
34.5916655703
0
LINE
5
24B
100
AcDbEntity
8
0
100
AcDbLine
62
9
6
CONTINUOUS
10
17.0093405831
20
38.8343040328
11
12.0775503628
21
33.9025138125
0
LINE
5
24C
100
AcDbEntity
8
0
100
AcDbLine
62
9
6
CONTINUOUS
10
17.4275480986
20
35.8902951819
11
6.7568997139
21
25.2196467971
0
LINE
5
24D
100
AcDbEntity
8
0
100
AcDbLine
62
9
6
CONTINUOUS
10
18.1153683903
20
35.1998119580
11
7.4460514717
21
24.5304950394
0
LINE
5
24E
100
AcDbEntity
8
0
100
AcDbLine
62
7
6
CONTINUOUS
10
36.8294892272
20
-10.9670602173
11
39.8294892272
21
-10.9670602173
0
LINE
5
24F
100
AcDbEntity
8
0
100
AcDbLine
62
7
6
CONTINUOUS
10
-36.9705107728
20
-10.9670602173
11
-39.9705107728
21
-10.9670602173
0
LINE
5
250
100
AcDbEntity
8
0
100
AcDbLine
62
7
6
CONTINUOUS
10
-8.0323909881
20
3.2808297725
11
-8.0323909881
21
0.2808297725
0
LINE
5
251
100
AcDbEntity
8
0
100
AcDbLine
62
7
6
CONTINUOUS
10
-7.5705107728
20
3.2808297725
11
-7.5705107728
21
0.2808297725
0
LINE
5
252
100
AcDbEntity
8
0
100
AcDbLine
62
7
6
CONTINUOUS
10
-7.0705107728
20
0.2808297725
11
-7.0705107728
21
3.2808297725
0
LINE
5
253
100
AcDbEntity
8
0
100
AcDbLine
62
7
6
CONTINUOUS
10
-6.6086305574
20
0.2808297725
11
-6.6086305574
21
3.2808297725
0
LINE
5
254
100
AcDbEntity
8
0
100
AcDbLine
62
9
6
CONTINUOUS
10
-5.7780218120
20
23.6737646430
11
-5.7780218120
21
24.4398090861
0
LINE
5
255
100
AcDbEntity
8
0
100
AcDbLine
62
7
6
CONTINUOUS
10
-5.5705107728
20
28.6291777000
11
-5.5705107728
21
30.2361467242
0
LINE
5
256
100
AcDbEntity
8
0
100
AcDbLine
62
9
6
CONTINUOUS
10
11.3883986050
20
33.8256211272
11
5.6370002664
21
24.4398090861
0
LINE
5
257
100
AcDbEntity
8
0
100
AcDbLine
62
9
6
CONTINUOUS
10
12.0775503628
20
33.9025138125
11
6.7568997139
21
25.2196467971
0
LINE
5
258
100
AcDbEntity
8
0
100
AcDbLine
62
7
6
CONTINUOUS
10
-35.5691961549
20
26.4120627677
11
-35.4379631596
21
26.2808297725
0
LINE
5
259
100
AcDbEntity
8
0
100
AcDbLine
62
7
6
CONTINUOUS
10
-3.6705107728
20
31.7560194729
11
-3.6705107728
21
31.5701913442
0
LINE
5
25A
100
AcDbEntity
8
0
100
AcDbLine
62
9
6
CONTINUOUS
10
-38.0323909881
20
-0.4691702275
11
-37.5705107728
21
-0.4691702275
0
LINE
5
25B
100
AcDbEntity
8
0
100
AcDbLine
62
9
6
CONTINUOUS
10
37.8913694426
20
-0.4691702275
11
37.4294892272
21
-0.4691702275
0
LINE
5
25C
100
AcDbEntity
8
0
100
AcDbLine
62
9
6
CONTINUOUS
10
-33.5323909881
20
-0.4691702275
11
-33.0705107728
21
-0.4691702275
0
LINE
5
25D
100
AcDbEntity
8
0
100
AcDbLine
62
9
6
CONTINUOUS
10
33.3913694426
20
-0.4691702275
11
32.9294892272
21
-0.4691702275
0
LINE
5
25E
100
AcDbEntity
8
0
100
AcDbLine
62
9
6
CONTINUOUS
10
31.9676090119
20
-0.4691702275
11
32.4294892272
21
-0.4691702275
0
LINE
5
25F
100
AcDbEntity
8
0
100
AcDbLine
62
9
6
CONTINUOUS
10
-32.1086305574
20
-0.4691702275
11
-32.5705107728
21
-0.4691702275
0
LINE
5
260
100
AcDbEntity
8
0
100
AcDbLine
62
9
6
CONTINUOUS
10
36.4676090119
20
-0.4691702275
11
36.9294892272
21
-0.4691702275
0
LINE
5
261
100
AcDbEntity
8
0
100
AcDbLine
62
9
6
CONTINUOUS
10
-36.6086305574
20
-0.4691702275
11
-37.0705107728
21
-0.4691702275
0
LINE
5
262
100
AcDbEntity
8
0
100
AcDbLine
62
9
6
CONTINUOUS
10
-8.0323909881
20
0.2808297725
11
-7.5705107728
21
0.2808297725
0
LINE
5
263
100
AcDbEntity
8
0
100
AcDbLine
62
9
6
CONTINUOUS
10
7.8913694426
20
0.2808297725
11
7.4294892272
21
0.2808297725
0
LINE
5
264
100
AcDbEntity
8
0
100
AcDbLine
62
9
6
CONTINUOUS
10
6.4676090119
20
0.2808297725
11
6.9294892272
21
0.2808297725
0
LINE
5
265
100
AcDbEntity
8
0
100
AcDbLine
62
9
6
CONTINUOUS
10
-6.6086305574
20
0.2808297725
11
-7.0705107728
21
0.2808297725
0
LINE
5
266
100
AcDbEntity
8
0
100
AcDbLine
62
7
6
CONTINUOUS
10
3.5294892272
20
31.7560194729
11
3.5294892272
21
31.5701913442
0
LINE
5
267
100
AcDbEntity
8
0
100
AcDbLine
62
7
6
CONTINUOUS
10
5.4294892272
20
30.2361467242
11
5.4294892272
21
28.6291777000
0
LINE
5
268
100
AcDbEntity
8
0
100
AcDbLine
62
9
6
CONTINUOUS
10
5.6370002664
20
23.6737646430
11
5.6370002664
21
24.4398090861
0
LINE
5
269
100
AcDbEntity
8
0
100
AcDbLine
62
7
6
CONTINUOUS
10
6.4676090119
20
3.2808297725
11
6.4676090119
21
0.2808297725
0
LINE
5
26A
100
AcDbEntity
8
0
100
AcDbLine
62
9
6
CONTINUOUS
10
-38.0323909881
20
2.0308297725
11
-37.5705107728
21
2.0308297725
0
LINE
5
26B
100
AcDbEntity
8
0
100
AcDbLine
62
9
6
CONTINUOUS
10
37.8913694426
20
2.0308297725
11
37.4294892272
21
2.0308297725
0
LINE
5
26C
100
AcDbEntity
8
0
100
AcDbLine
62
9
6
CONTINUOUS
10
-33.5323909881
20
2.0308297725
11
-33.0705107728
21
2.0308297725
0
LINE
5
26D
100
AcDbEntity
8
0
100
AcDbLine
62
9
6
CONTINUOUS
10
33.3913694426
20
2.0308297725
11
32.9294892272
21
2.0308297725
0
LINE
5
26E
100
AcDbEntity
8
0
100
AcDbLine
62
9
6
CONTINUOUS
10
31.9676090119
20
2.0308297725
11
32.4294892272
21
2.0308297725
0
LINE
5
26F
100
AcDbEntity
8
0
100
AcDbLine
62
9
6
CONTINUOUS
10
-32.1086305574
20
2.0308297725
11
-32.5705107728
21
2.0308297725
0
LINE
5
270
100
AcDbEntity
8
0
100
AcDbLine
62
9
6
CONTINUOUS
10
36.4676090119
20
2.0308297725
11
36.9294892272
21
2.0308297725
0
LINE
5
271
100
AcDbEntity
8
0
100
AcDbLine
62
9
6
CONTINUOUS
10
-36.6086305574
20
2.0308297725
11
-37.0705107728
21
2.0308297725
0
LINE
5
272
100
AcDbEntity
8
0
100
AcDbLine
62
9
6
CONTINUOUS
10
-8.0323909881
20
3.2808297725
11
-7.5705107728
21
3.2808297725
0
LINE
5
273
100
AcDbEntity
8
0
100
AcDbLine
62
9
6
CONTINUOUS
10
7.8913694426
20
3.2808297725
11
7.4294892272
21
3.2808297725
0
LINE
5
274
100
AcDbEntity
8
0
100
AcDbLine
62
9
6
CONTINUOUS
10
6.4676090119
20
3.2808297725
11
6.9294892272
21
3.2808297725
0
LINE
5
275
100
AcDbEntity
8
0
100
AcDbLine
62
9
6
CONTINUOUS
10
-6.6086305574
20
3.2808297725
11
-7.0705107728
21
3.2808297725
0
LINE
5
276
100
AcDbEntity
8
0
100
AcDbLine
62
7
6
CONTINUOUS
10
6.9294892272
20
3.2808297725
11
6.9294892272
21
0.2808297725
0
LINE
5
277
100
AcDbEntity
8
0
100
AcDbLine
62
7
6
CONTINUOUS
10
7.4294892272
20
0.2808297725
11
7.4294892272
21
3.2808297725
0
LINE
5
278
100
AcDbEntity
8
0
100
AcDbLine
62
7
6
CONTINUOUS
10
7.8913694426
20
0.2808297725
11
7.8913694426
21
3.2808297725
0
LINE
5
279
100
AcDbEntity
8
0
100
AcDbLine
62
9
6
CONTINUOUS
10
11.3883986050
20
33.8256211272
11
11.3883986050
21
34.5916655703
0
LINE
5
27A
100
AcDbEntity
8
0
100
AcDbLine
62
7
6
CONTINUOUS
10
35.4281746093
20
26.4120627677
11
35.2969416140
21
26.2808297725
0
LINE
5
27B
100
AcDbEntity
8
0
100
AcDbLine
62
9
6
CONTINUOUS
10
-7.5870730172
20
24.5304950394
11
-18.2563899384
21
35.1998119605
0
LINE
5
27C
100
AcDbEntity
8
0
100
AcDbLine
62
9
6
CONTINUOUS
10
-6.8979212595
20
25.2196467971
11
-12.2185719083
21
33.9025138125
0
LINE
5
27D
100
AcDbEntity
8
0
100
AcDbLine
62
9
6
CONTINUOUS
10
-5.7780218120
20
24.4398090861
11
-11.5294201506
21
33.8256211272
0
LINE
5
27E
100
AcDbEntity
8
0
100
AcDbLine
62
9
6
CONTINUOUS
10
15.3262318668
20
38.5294988321
11
15.3262318668
21
39.5012475405
0
LINE
5
27F
100
AcDbEntity
8
0
100
AcDbLine
62
9
6
CONTINUOUS
10
70.9263524194
20
14.4529263894
11
58.5807584992
21
14.4529263894
0
LINE
5
280
100
AcDbEntity
8
0
100
AcDbLine
62
9
6
CONTINUOUS
10
-58.7217800448
20
14.4529263894
11
-71.0673739649
21
14.4529263894
0
LINE
5
281
100
AcDbEntity
8
0
100
AcDbLine
62
7
6
CONTINUOUS
10
-70.8556673621
20
14.8177538046
11
-59.8705107728
21
14.8177538046
0
LINE
5
282
100
AcDbEntity
8
0
100
AcDbLine
62
7
6
CONTINUOUS
10
59.7294892272
20
14.8177538046
11
70.7146458165
21
14.8177538046
0
LINE
5
283
100
AcDbEntity
8
0
100
AcDbLine
62
9
6
CONTINUOUS
10
59.3326699949
20
14.9292339524
11
58.6111967557
21
14.9292339524
0
LINE
5
284
100
AcDbEntity
8
0
100
AcDbLine
62
9
6
CONTINUOUS
10
-58.7522183013
20
14.9292339524
11
-59.4736311096
21
14.9292339524
0
LINE
5
285
100
AcDbEntity
8
0
100
AcDbLine
62
9
6
CONTINUOUS
10
-6.8979212595
20
25.2196467971
11
-17.5685696448
21
35.8902951824
0
LINE
5
286
100
AcDbEntity
8
0
100
AcDbLine
62
9
6
CONTINUOUS
10
-12.2185719083
20
33.9025138125
11
-17.1503621287
21
38.8343040328
0
LINE
5
287
100
AcDbEntity
8
0
100
AcDbLine
62
9
6
CONTINUOUS
10
-11.5294201506
20
34.5916655703
11
-15.4672534124
21
38.5294988321
0
LINE
5
288
100
AcDbEntity
8
0
100
AcDbLine
62
9
6
CONTINUOUS
10
18.1153698891
20
35.1998119580
11
18.1153698891
21
36.1529396976
0
LINE
5
289
100
AcDbEntity
8
0
100
AcDbLine
62
9
6
CONTINUOUS
10
70.4797442806
20
22.0751561504
11
71.4769549253
21
22.1076838568
0
LINE
5
28A
100
AcDbEntity
8
0
100
AcDbLine
62
9
6
CONTINUOUS
10
72.7975834157
20
22.2226587324
11
72.5717872709
21
22.2172675123
0
LINE
5
28B
100
AcDbEntity
8
0
100
AcDbLine
62
7
6
CONTINUOUS
10
-41.4192415008
20
19.4320990445
11
41.2782199552
21
19.4320990445
0
LINE
5
28C
100
AcDbEntity
8
0
100
AcDbLine
62
7
6
CONTINUOUS
10
41.1294892272
20
19.5808297725
11
-41.2705107728
21
19.5808297725
0
LINE
5
28D
100
AcDbEntity
8
0
100
AcDbLine
62
7
6
CONTINUOUS
10
40.1294892272
20
19.7808297725
11
-40.2705107728
21
19.7808297725
0
LINE
5
28E
100
AcDbEntity
8
0
100
AcDbLine
62
7
6
CONTINUOUS
10
-35.5691961549
20
23.2808297725
11
-26.5718253907
21
23.2808297725
0
LINE
5
28F
100
AcDbEntity
8
0
100
AcDbLine
62
7
6
CONTINUOUS
10
26.4308038451
20
23.2808297725
11
35.4281746093
21
23.2808297725
0
LINE
5
290
100
AcDbEntity
8
0
100
AcDbLine
62
9
6
CONTINUOUS
10
-58.8705107728
20
23.5808297725
11
-58.7217800448
21
23.5808297725
0
LINE
5
291
100
AcDbEntity
8
0
100
AcDbLine
62
9
6
CONTINUOUS
10
58.7294892272
20
23.5808297725
11
58.5807584992
21
23.5808297725
0
LINE
5
292
100
AcDbEntity
8
0
100
AcDbLine
62
9
6
CONTINUOUS
10
-41.4192415008
20
23.5808297725
11
-41.2705107728
21
23.5808297725
0
LINE
5
293
100
AcDbEntity
8
0
100
AcDbLine
62
9
6
CONTINUOUS
10
41.2782199552
20
23.5808297725
11
41.1294892272
21
23.5808297725
0
LINE
5
294
100
AcDbEntity
8
0
100
AcDbLine
62
7
6
CONTINUOUS
10
35.2969416140
20
23.5808297725
11
26.5620368404
21
23.5808297725
0
LINE
5
295
100
AcDbEntity
8
0
100
AcDbLine
62
7
6
CONTINUOUS
10
-26.7030583860
20
23.5808297725
11
-35.4379631596
21
23.5808297725
0
LINE
5
296
100
AcDbEntity
8
0
100
AcDbLine
62
9
6
CONTINUOUS
10
5.6370002664
20
23.6737646430
11
-5.7780218120
21
23.6737646430
0
LINE
5
297
100
AcDbEntity
8
0
100
AcDbLine
62
9
6
CONTINUOUS
10
-72.9386217724
20
22.2226591333
11
-72.7128088175
21
22.2172674741
0
LINE
5
298
100
AcDbEntity
8
0
100
AcDbLine
62
9
6
CONTINUOUS
10
-70.6207658262
20
22.0751561504
11
-71.6179764694
21
22.1076838568
0
LINE
5
299
100
AcDbEntity
8
0
100
AcDbLine
62
9
6
CONTINUOUS
10
7.4460514717
20
24.5304950394
11
6.7568997138
21
25.2196467971
0
LINE
5
29A
100
AcDbEntity
8
0
100
AcDbLine
62
7
6
CONTINUOUS
10
26.4294892272
20
19.7808297725
11
26.4294892272
21
19.5808297725
0
LINE
5
29B
100
AcDbEntity
8
0
100
AcDbLine
62
7
6
CONTINUOUS
10
26.4308038451
20
26.4120627677
11
26.4308038451
21
23.2808297725
0
LINE
5
29C
100
AcDbEntity
8
0
100
AcDbLine
62
7
6
CONTINUOUS
10
26.5620368404
20
26.2808297725
11
26.5620368404
21
23.2808297725
0
LINE
5
29D
100
AcDbEntity
8
0
100
AcDbLine
62
9
6
CONTINUOUS
10
5.6370002664
20
24.4398090861
11
-5.7780218120
21
24.4398090861
0
LINE
5
29E
100
AcDbEntity
8
0
100
AcDbLine
62
7
6
CONTINUOUS
10
35.2969416140
20
26.2808297725
11
26.5620368404
21
26.2808297725
0
LINE
5
29F
100
AcDbEntity
8
0
100
AcDbLine
62
7
6
CONTINUOUS
10
-26.7030583860
20
26.2808297725
11
-35.4379631596
21
26.2808297725
0
LINE
5
2A0
100
AcDbEntity
8
0
100
AcDbLine
62
7
6
CONTINUOUS
10
35.4281746093
20
26.4120627677
11
26.4308038451
21
26.4120627677
0
LINE
5
2A1
100
AcDbEntity
8
0
100
AcDbLine
62
7
6
CONTINUOUS
10
-26.5718253907
20
26.4120627677
11
-35.5691961549
21
26.4120627677
0
LINE
5
2A2
100
AcDbEntity
8
0
100
AcDbLine
62
7
6
CONTINUOUS
10
31.9676090119
20
2.0308297725
11
31.9676090119
21
-0.4691702275
0
LINE
5
2A3
100
AcDbEntity
8
0
100
AcDbLine
62
7
6
CONTINUOUS
10
32.4294892272
20
2.0308297725
11
32.4294892272
21
-0.4691702275
0
LINE
5
2A4
100
AcDbEntity
8
0
100
AcDbLine
62
7
6
CONTINUOUS
10
32.9294892272
20
-0.4691702275
11
32.9294892272
21
2.0308297725
0
LINE
5
2A5
100
AcDbEntity
8
0
100
AcDbLine
62
7
6
CONTINUOUS
10
33.3913694426
20
-0.4691702275
11
33.3913694426
21
2.0308297725
0
LINE
5
2A6
100
AcDbEntity
8
0
100
AcDbLine
62
7
6
CONTINUOUS
10
35.2969416140
20
23.2808297725
11
35.2969416140
21
26.2808297725
0
LINE
5
2A7
100
AcDbEntity
8
0
100
AcDbLine
62
9
6
CONTINUOUS
10
70.0991351313
20
34.2036870710
11
71.0960136755
21
34.2338681248
0
LINE
5
2A8
100
AcDbEntity
8
0
100
AcDbLine
62
9
6
CONTINUOUS
10
-11.5294201506
20
33.8256211272
11
11.3883986050
21
33.8256211272
0
LINE
5
2A9
100
AcDbEntity
8
0
100
AcDbLine
62
9
6
CONTINUOUS
10
-11.5294201506
20
34.5916655703
11
11.3883986050
21
34.5916655703
0
LINE
5
2AA
100
AcDbEntity
8
0
100
AcDbLine
62
9
6
CONTINUOUS
10
69.1167541035
20
35.1998110986
11
18.1153683903
21
35.1998119580
0
LINE
5
2AB
100
AcDbEntity
8
0
100
AcDbLine
62
9
6
CONTINUOUS
10
-18.2563899384
20
35.1998119605
11
-69.2577756491
21
35.1998111005
0
LINE
5
2AC
100
AcDbEntity
8
0
100
AcDbLine
62
9
6
CONTINUOUS
10
-70.2401566769
20
34.2036870756
11
-71.2370599785
21
34.2338689441
0
LINE
5
2AD
100
AcDbEntity
8
0
100
AcDbLine
62
9
6
CONTINUOUS
10
11.3883986050
20
34.5916655703
11
12.0775503628
21
33.9025138125
0
LINE
5
2AE
100
AcDbEntity
8
0
100
AcDbLine
62
7
6
CONTINUOUS
10
39.8294892272
20
-23.6645705031
11
39.7945790974
21
-22.9366300345
0
LINE
5
2AF
100
AcDbEntity
8
0
100
AcDbLine
62
7
6
CONTINUOUS
10
37.0029058657
20
-16.9366300345
11
36.8294892272
21
-10.9670602173
0
LINE
5
2B0
100
AcDbEntity
8
0
100
AcDbLine
62
7
6
CONTINUOUS
10
35.4281746093
20
23.2808297725
11
35.4281746093
21
26.4120627677
0
LINE
5
2B1
100
AcDbEntity
8
0
100
AcDbLine
62
7
6
CONTINUOUS
10
35.4294892272
20
19.5808297725
11
35.4294892272
21
19.7808297725
0
LINE
5
2B2
100
AcDbEntity
8
0
100
AcDbLine
62
7
6
CONTINUOUS
10
36.4676090119
20
2.0308297725
11
36.4676090119
21
-0.4691702275
0
LINE
5
2B3
100
AcDbEntity
8
0
100
AcDbLine
62
7
6
CONTINUOUS
10
36.8294892272
20
-23.6645705031
11
36.8294892272
21
-10.9670602173
0
LINE
5
2B4
100
AcDbEntity
8
0
100
AcDbLine
62
7
6
CONTINUOUS
10
36.8643993571
20
-22.9366300345
11
36.8643993571
21
-12.1687814554
0
LINE
5
2B5
100
AcDbEntity
8
0
100
AcDbLine
62
7
6
CONTINUOUS
10
36.9294892272
20
2.0308297725
11
36.9294892272
21
-0.4691702275
0
LINE
5
2B6
100
AcDbEntity
8
0
100
AcDbLine
62
7
6
CONTINUOUS
10
37.4294892272
20
-0.4691702275
11
37.4294892272
21
2.0308297725
0
LINE
5
2B7
100
AcDbEntity
8
0
100
AcDbLine
62
7
6
CONTINUOUS
10
37.8913694426
20
-0.4691702275
11
37.8913694426
21
2.0308297725
0
LINE
5
2B8
100
AcDbEntity
8
0
100
AcDbLine
62
7
6
CONTINUOUS
10
39.8294892272
20
-23.6645705031
11
39.8294892272
21
-10.9670602173
0
LINE
5
2B9
100
AcDbEntity
8
0
100
AcDbLine
62
7
6
CONTINUOUS
10
40.9294892272
20
23.5808297725
11
40.9294892272
21
20.5808297725
0
LINE
5
2BA
100
AcDbEntity
8
0
100
AcDbLine
62
7
6
CONTINUOUS
10
39.8294892272
20
-10.9670602173
11
39.6560725887
21
-16.9366300345
0
LINE
5
2BB
100
AcDbEntity
8
0
100
AcDbLine
62
7
6
CONTINUOUS
10
36.8294892272
20
-23.6645705031
11
36.8643993571
21
-22.9366300345
0
LINE
5
2BC
100
AcDbEntity
8
0
100
AcDbLine
62
9
6
CONTINUOUS
10
72.4197240285
20
39.2244693043
11
72.1663351602
21
39.2192485162
0
LINE
5
2BD
100
AcDbEntity
8
0
100
AcDbLine
62
9
6
CONTINUOUS
10
69.1167541232
20
36.1529396596
11
18.1167060639
21
36.1529396976
0
LINE
5
2BE
100
AcDbEntity
8
0
100
AcDbLine
62
9
6
CONTINUOUS
10
-18.2577276100
20
36.1529396979
11
-69.2577756689
21
36.1529396601
0
LINE
5
2BF
100
AcDbEntity
8
0
100
AcDbLine
62
9
6
CONTINUOUS
10
15.3262318668
20
38.5294988321
11
-15.4672534124
21
38.5294988321
0
LINE
5
2C0
100
AcDbEntity
8
0
100
AcDbLine
62
9
6
CONTINUOUS
10
15.3262318668
20
39.5012475405
11
-15.4672534124
21
39.5012475405
0
LINE
5
2C1
100
AcDbEntity
8
0
100
AcDbLine
62
7
6
CONTINUOUS
10
70.2170531879
20
40.8989719384
11
-70.3580747335
21
40.8989719384
0
LINE
5
2C2
100
AcDbEntity
8
0
100
AcDbLine
62
9
6
CONTINUOUS
10
-70.5771277242
20
41.1849110580
11
70.4361061778
21
41.1849110580
0
LINE
5
2C3
100
AcDbEntity
8
0
100
AcDbLine
62
9
6
CONTINUOUS
10
-72.5607357851
20
39.2244691018
11
-72.3073567000
21
39.2192485422
0
LINE
5
2C4
100
AcDbEntity
8
0
100
AcDbLine
62
7
6
CONTINUOUS
10
26.4308038451
20
26.4120627677
11
26.5620368404
21
26.2808297725
0
LINE
5
2C5
100
AcDbEntity
8
0
100
AcDbLine
62
9
6
CONTINUOUS
10
18.1153698891
20
35.1998134568
11
17.4262181313
21
35.8889652146
0
LINE
5
2C6
100
AcDbEntity
8
0
100
AcDbLine
62
7
6
CONTINUOUS
10
41.1294892272
20
23.5808297725
11
41.1294892272
21
19.5808297725
0
LINE
5
2C7
100
AcDbEntity
8
0
100
AcDbLine
62
7
6
CONTINUOUS
10
41.2782199552
20
23.5808297725
11
41.2782199552
21
19.4320990445
0
LINE
5
2C8
100
AcDbEntity
8
0
100
AcDbLine
62
7
6
CONTINUOUS
10
72.2300731125
20
44.7808297725
11
-72.3710696419
21
44.7808297725
0
LINE
5
2C9
100
AcDbEntity
8
0
100
AcDbLine
62
7
6
CONTINUOUS
10
41.2782199552
20
19.4320990445
11
41.1294892272
21
19.5808297725
0
LINE
5
2CA
100
AcDbEntity
8
0
100
AcDbLine
62
7
6
CONTINUOUS
10
58.5807584992
20
14.4529263894
11
58.5807584992
21
23.5808297725
0
LINE
5
2CB
100
AcDbEntity
8
0
100
AcDbLine
62
7
6
CONTINUOUS
10
58.7294892272
20
25.4653588386
11
58.7294892272
21
23.5808297725
0
LINE
5
2CC
100
AcDbEntity
8
0
100
AcDbLine
62
7
6
CONTINUOUS
10
58.9044665543
20
24.2347279841
11
58.9044665543
21
15.9636996037
0
LINE
5
2CD
100
AcDbEntity
8
0
100
AcDbLine
62
7
6
CONTINUOUS
10
58.9294892272
20
15.6579015187
11
58.9294892272
21
23.5808297725
0
LINE
5
2CE
100
AcDbEntity
8
0
100
AcDbLine
62
9
6
CONTINUOUS
10
69.1167541035
20
35.1998110986
11
69.1167541255
21
36.1529396596
0
LINE
5
2CF
100
AcDbEntity
8
0
100
AcDbLine
62
9
6
CONTINUOUS
10
69.3071306270
20
-43.9924018039
11
69.3071306502
21
-43.9874962027
0
LINE
5
2D0
100
AcDbEntity
8
0
100
AcDbLine
62
9
6
CONTINUOUS
10
72.1441641807
20
-40.7869200951
11
72.1440128052
21
-40.7604617583
0
LINE
5
2D1
100
AcDbEntity
8
0
100
AcDbLine
62
9
6
CONTINUOUS
10
70.4361061780
20
41.1849110580
11
70.4361061874
21
40.8859680749
0
LINE
5
2D2
100
AcDbEntity
8
0
100
AcDbLine
62
9
6
CONTINUOUS
10
70.9263524194
20
14.4529263894
11
70.9263524194
21
14.8252528097
0
LINE
5
2D3
100
AcDbEntity
8
0
100
AcDbLine
62
9
6
CONTINUOUS
10
71.1586868284
20
-26.3798192070
11
71.1586868247
21
-27.1610040595
0
LINE
5
2D4
100
AcDbEntity
8
0
100
AcDbLine
62
7
6
CONTINUOUS
10
74.2294929695
20
42.7837117577
11
74.2294892272
21
-38.8684426781
0
LINE
5
2D5
100
AcDbEntity
8
0
100
AcDbLine
62
7
6
CONTINUOUS
10
70.4120025457
20
-43.6886331371
11
70.4099938068
21
-43.6898831117
0
CIRCLE
5
2D6
100
AcDbEntity
8
0
100
AcDbCircle
62
7
6
CONTINUOUS
10
-58.0705107728
20
-18.2191702275
40
6.0000000000
0
CIRCLE
5
2D7
100
AcDbEntity
8
0
100
AcDbCircle
62
7
6
CONTINUOUS
10
-58.0705107728
20
-18.2191702275
40
4.0481345110
0
CIRCLE
5
2D8
100
AcDbEntity
8
0
100
AcDbCircle
62
7
6
CONTINUOUS
10
57.9294892272
20
-18.2191702275
40
6.0000000000
0
CIRCLE
5
2D9
100
AcDbEntity
8
0
100
AcDbCircle
62
7
6
CONTINUOUS
10
57.9294892272
20
-18.2191702275
40
4.0481345110
0
CIRCLE
5
2DA
100
AcDbEntity
8
0
100
AcDbCircle
62
7
6
CONTINUOUS
10
49.9294892272
20
23.5808297725
40
6.0000000000
0
CIRCLE
5
2DB
100
AcDbEntity
8
0
100
AcDbCircle
62
7
6
CONTINUOUS
10
49.9294892272
20
23.5808297725
40
4.0481345110
0
CIRCLE
5
2DC
100
AcDbEntity
8
0
100
AcDbCircle
62
7
6
CONTINUOUS
10
-50.0705107728
20
23.5808297725
40
6.0000000000
0
CIRCLE
5
2DD
100
AcDbEntity
8
0
100
AcDbCircle
62
7
6
CONTINUOUS
10
-50.0705107728
20
23.5808297725
40
4.0481345110
0
ARC
5
2DE
100
AcDbEntity
8
0
100
AcDbCircle
62
7
6
CONTINUOUS
10
49.9294892272
20
23.5808297725
40
9.0000000000
100
AcDbArc
50
0.0000000000
51
180.0000000000
0
ARC
5
2DF
100
AcDbEntity
8
0
100
AcDbCircle
62
7
6
CONTINUOUS
10
40.1294892272
20
20.5808297725
40
0.8000000000
100
AcDbArc
50
270.0000000000
51
360.0000000000
0
ARC
5
2E0
100
AcDbEntity
8
0
100
AcDbCircle
62
7
6
CONTINUOUS
10
-40.2705107728
20
20.5808297725
40
0.8000000000
100
AcDbArc
50
180.0000000000
51
270.0000000000
0
ARC
5
2E1
100
AcDbEntity
8
0
100
AcDbCircle
62
7
6
CONTINUOUS
10
-50.0705107728
20
23.5808297725
40
9.0000000000
100
AcDbArc
50
0.0000000000
51
180.0000000000
0
ARC
5
2E2
100
AcDbEntity
8
0
100
AcDbCircle
62
7
6
CONTINUOUS
10
49.9294892272
20
23.5808297725
40
8.8000000000
100
AcDbArc
50
0.0000000000
51
180.0000000000
0
CIRCLE
5
2E3
100
AcDbEntity
8
0
100
AcDbCircle
62
7
6
CONTINUOUS
10
-58.0705107728
20
-18.2191702275
40
6.8660254038
0
CIRCLE
5
2E4
100
AcDbEntity
8
0
100
AcDbCircle
62
7
6
CONTINUOUS
10
57.9294892272
20
-18.2191702275
40
6.8660254038
0
CIRCLE
5
2E5
100
AcDbEntity
8
0
100
AcDbCircle
62
7
6
CONTINUOUS
10
-50.0705107728
20
23.5808297725
40
6.8660254038
0
ARC
5
2E6
100
AcDbEntity
8
0
100
AcDbCircle
62
7
6
CONTINUOUS
10
-50.0705107728
20
23.5808297725
40
8.8000000000
100
AcDbArc
50
0.0000000000
51
180.0000000000
0
CIRCLE
5
2E7
100
AcDbEntity
8
0
100
AcDbCircle
62
7
6
CONTINUOUS
10
49.9294892272
20
23.5808297725
40
6.8660254038
0
ARC
5
2E8
100
AcDbEntity
8
0
100
AcDbCircle
62
7
6
CONTINUOUS
10
34.9294892272
20
-0.4691702275
40
2.9618802154
100
AcDbArc
50
180.0000000000
51
360.0000000000
0
ARC
5
2E9
100
AcDbEntity
8
0
100
AcDbCircle
62
7
6
CONTINUOUS
10
34.9294892272
20
2.0308297725
40
2.9618802154
100
AcDbArc
50
0.0000000000
51
180.0000000000
0
ARC
5
2EA
100
AcDbEntity
8
0
100
AcDbCircle
62
7
6
CONTINUOUS
10
34.9294892272
20
2.0308297725
40
1.5381197846
100
AcDbArc
50
0.0000000000
51
180.0000000000
0
ARC
5
2EB
100
AcDbEntity
8
0
100
AcDbCircle
62
7
6
CONTINUOUS
10
34.9294892272
20
-0.4691702275
40
1.5381197846
100
AcDbArc
50
180.0000000000
51
360.0000000000
0
ARC
5
2EC
100
AcDbEntity
8
0
100
AcDbCircle
62
7
6
CONTINUOUS
10
-35.0705107728
20
-0.4691702275
40
2.9618802154
100
AcDbArc
50
180.0000000000
51
360.0000000000
0
ARC
5
2ED
100
AcDbEntity
8
0
100
AcDbCircle
62
7
6
CONTINUOUS
10
-35.0705107728
20
2.0308297725
40
2.9618802154
100
AcDbArc
50
0.0000000000
51
180.0000000000
0
ARC
5
2EE
100
AcDbEntity
8
0
100
AcDbCircle
62
7
6
CONTINUOUS
10
-35.0705107728
20
2.0308297725
40
1.5381197846
100
AcDbArc
50
0.0000000000
51
180.0000000000
0
ARC
5
2EF
100
AcDbEntity
8
0
100
AcDbCircle
62
7
6
CONTINUOUS
10
-35.0705107728
20
-0.4691702275
40
1.5381197846
100
AcDbArc
50
180.0000000000
51
360.0000000000
0
ARC
5
2F0
100
AcDbEntity
8
0
100
AcDbCircle
62
7
6
CONTINUOUS
10
-0.0705107728
20
3.2808297725
40
6.5381197846
100
AcDbArc
50
0.0000000000
51
180.0000000000
0
ARC
5
2F1
100
AcDbEntity
8
0
100
AcDbCircle
62
7
6
CONTINUOUS
10
-0.0705107728
20
0.2808297725
40
6.5381197846
100
AcDbArc
50
180.0000000000
51
360.0000000000
0
ARC
5
2F2
100
AcDbEntity
8
0
100
AcDbCircle
62
7
6
CONTINUOUS
10
-0.0705107728
20
0.2808297725
40
7.9618802154
100
AcDbArc
50
180.0000000000
51
360.0000000000
0
ARC
5
2F3
100
AcDbEntity
8
0
100
AcDbCircle
62
7
6
CONTINUOUS
10
-0.0705107728
20
3.2808297725
40
7.5000000000
100
AcDbArc
50
0.0000000000
51
180.0000000000
0
ARC
5
2F4
100
AcDbEntity
8
0
100
AcDbCircle
62
7
6
CONTINUOUS
10
-0.0705107728
20
0.2808297725
40
7.5000000000
100
AcDbArc
50
180.0000000000
51
360.0000000000
0
ARC
5
2F5
100
AcDbEntity
8
0
100
AcDbCircle
62
7
6
CONTINUOUS
10
-0.0705107728
20
3.2808297725
40
7.0000000000
100
AcDbArc
50
0.0000000000
51
180.0000000000
0
ARC
5
2F6
100
AcDbEntity
8
0
100
AcDbCircle
62
7
6
CONTINUOUS
10
-0.0705107728
20
0.2808297725
40
7.0000000000
100
AcDbArc
50
180.0000000000
51
360.0000000000
0
ARC
5
2F7
100
AcDbEntity
8
0
100
AcDbCircle
62
7
6
CONTINUOUS
10
-35.0705107728
20
2.0308297725
40
2.0000000000
100
AcDbArc
50
0.0000000000
51
180.0000000000
0
ARC
5
2F8
100
AcDbEntity
8
0
100
AcDbCircle
62
7
6
CONTINUOUS
10
-0.0705107728
20
3.2808297725
40
7.9618802154
100
AcDbArc
50
0.0000000000
51
180.0000000000
0
ARC
5
2F9
100
AcDbEntity
8
0
100
AcDbCircle
62
7
6
CONTINUOUS
10
-35.0705107728
20
-0.4691702275
40
2.0000000000
100
AcDbArc
50
180.0000000000
51
360.0000000000
0
ARC
5
2FA
100
AcDbEntity
8
0
100
AcDbCircle
62
7
6
CONTINUOUS
10
-35.0705107728
20
2.0308297725
40
2.5000000000
100
AcDbArc
50
0.0000000000
51
180.0000000000
0
ARC
5
2FB
100
AcDbEntity
8
0
100
AcDbCircle
62
7
6
CONTINUOUS
10
-35.0705107728
20
-0.4691702275
40
2.5000000000
100
AcDbArc
50
180.0000000000
51
360.0000000000
0
ARC
5
2FC
100
AcDbEntity
8
0
100
AcDbCircle
62
7
6
CONTINUOUS
10
34.9294892272
20
2.0308297725
40
2.0000000000
100
AcDbArc
50
0.0000000000
51
180.0000000000
0
ARC
5
2FD
100
AcDbEntity
8
0
100
AcDbCircle
62
7
6
CONTINUOUS
10
34.9294892272
20
-0.4691702275
40
2.0000000000
100
AcDbArc
50
180.0000000000
51
360.0000000000
0
ARC
5
2FE
100
AcDbEntity
8
0
100
AcDbCircle
62
7
6
CONTINUOUS
10
34.9294892272
20
2.0308297725
40
2.5000000000
100
AcDbArc
50
0.0000000000
51
180.0000000000
0
ARC
5
2FF
100
AcDbEntity
8
0
100
AcDbCircle
62
7
6
CONTINUOUS
10
34.9294892272
20
-0.4691702275
40
2.5000000000
100
AcDbArc
50
180.0000000000
51
360.0000000000
0
ARC
5
300
100
AcDbEntity
8
0
100
AcDbCircle
62
7
6
CONTINUOUS
10
-50.0705107728
20
23.5808297725
40
8.6512692720
100
AcDbArc
50
0.0000000000
51
180.0000000000
0
ARC
5
301
100
AcDbEntity
8
0
100
AcDbCircle
62
7
6
CONTINUOUS
10
49.9294892272
20
23.5808297725
40
8.6512692720
100
AcDbArc
50
0.0000000000
51
180.0000000000
0
SPLINE
5
302
100
AcDbEntity
8
0
100
AcDbSpline
62
7
6
CONTINUOUS
70
0
71
3
72
11
73
7
74
5
42
0.0000001000
43
0.0000001000
44
0.0000000001
12
0.0000000000
22
-1.2800843460
32
0.0000000000
13
1.2800843460
23
0.0000000000
33
0.0000000000
40
0.0000000000
40
0.0000000000
40
0.0000000000
40
0.0000000000
40
0.2599718425
40
0.5131415236
40
0.7599088721
40
1.0000000000
40
1.0000000000
40
1.0000000000
40
1.0000000000
10
58.9294892272
20
15.6579015187
30
0.0000000000
10
58.9294892272
20
15.5469728901
30
0.0000000000
10
58.9716247923
20
15.3256894503
30
0.0000000000
10
59.1512244931
20
15.0463335312
30
0.0000000000
10
59.4169765038
20
14.8609792237
30
0.0000000000
10
59.6270435957
20
14.8177538046
30
0.0000000000
10
59.7294892272
20
14.8177538046
30
0.0000000000
11
58.9294892272
21
15.6579015187
31
0.0000000000
11
58.9924969206
21
15.3311348184
31
0.0000000000
11
59.1684770929
21
15.0589990384
31
0.0000000000
11
59.4284249751
21
14.8795298744
31
0.0000000000
11
59.7294892272
21
14.8177538046
31
0.0000000000
0
SPLINE
5
303
100
AcDbEntity
8
0
100
AcDbSpline
62
7
6
CONTINUOUS
70
0
71
3
72
11
73
7
74
5
42
0.0000001000
43
0.0000001000
44
0.0000000001
12
1.2800839881
22
0.0000000000
32
0.0000000000
13
-0.0000000000
23
1.2800839881
33
0.0000000000
40
0.0000000000
40
0.0000000000
40
0.0000000000
40
0.0000000000
40
0.2404565417
40
0.4874220317
40
0.7404755609
40
1.0000000000
40
1.0000000000
40
1.0000000000
40
1.0000000000
10
-59.8705107728
20
14.8177538046
30
0.0000000000
10
-59.7679092498
20
14.8177538046
30
0.0000000000
10
-59.5575917551
20
14.8610998592
30
0.0000000000
10
-59.2918133008
20
15.0467782193
30
0.0000000000
10
-59.1125237635
20
15.3261330973
30
0.0000000000
10
-59.0705107728
20
15.5471638257
30
0.0000000000
10
-59.0705107728
20
15.6579015187
30
0.0000000000
11
-59.8705107728
21
14.8177538046
31
0.0000000000
11
-59.5690075782
21
14.8797173122
31
0.0000000000
11
-59.3089873289
21
15.0595277692
31
0.0000000000
11
-59.1333009699
21
15.3316762575
31
0.0000000000
11
-59.0705107728
21
15.6579015187
31
0.0000000000
0
SPLINE
5
304
100
AcDbEntity
8
0
100
AcDbSpline
62
7
6
CONTINUOUS
70
0
71
3
72
12
73
8
74
6
42
0.0000001000
43
0.0000001000
44
0.0000000001
12
3.0856562875
22
-0.0000090782
32
0.0000000000
13
0.0644619499
23
-3.0849828819
33
0.0000000000
40
0.0000000000
40
0.0000000000
40
0.0000000000
40
0.0000000000
40
0.1965085884
40
0.3956952425
40
0.5944864266
40
0.7972682121
40
1.0000000000
40
1.0000000000
40
1.0000000000
40
1.0000000000
10
70.2170531879
20
40.8989719384
30
0.0000000000
10
70.4191725084
20
40.8989713438
30
0.0000000000
10
70.8289898534
20
40.8351116286
30
0.0000000000
10
71.3831605071
20
40.5542740882
30
0.0000000000
10
71.8288253546
20
40.1117420972
30
0.0000000000
10
72.1196283615
20
39.5515122320
30
0.0000000000
10
72.1920095417
20
39.1330320414
30
0.0000000000
10
72.1963657038
20
38.9245573430
30
0.0000000000
11
70.2170531879
21
40.8989719384
31
0.0000000000
11
70.8161151812
21
40.8051918471
31
0.0000000000
11
71.3645528984
21
40.5277468576
31
0.0000000000
11
71.8002182807
21
40.0959404322
31
0.0000000000
11
72.0889549263
21
39.5408275833
31
0.0000000000
11
72.1963657038
21
38.9245573430
31
0.0000000000
0
SPLINE
5
305
100
AcDbEntity
8
0
100
AcDbSpline
62
7
6
CONTINUOUS
70
0
71
3
72
12
73
8
74
6
42
0.0000001000
43
0.0000001000
44
0.0000000001
12
0.0644617378
22
3.0849828801
32
0.0000000000
13
3.0856562813
23
0.0000108584
33
0.0000000000
40
0.0000000000
40
0.0000000000
40
0.0000000000
40
0.0000000000
40
0.2027317880
40
0.4055135736
40
0.6043047577
40
0.8034914116
40
1.0000000000
40
1.0000000000
40
1.0000000000
40
1.0000000000
10
-72.3373872494
20
38.9245573431
30
0.0000000000
10
-72.3330311016
20
39.1330320415
30
0.0000000000
10
-72.2606498977
20
39.5515122295
30
0.0000000000
10
-71.9698468985
20
40.1117420980
30
0.0000000000
10
-71.5241820488
20
40.5542740693
30
0.0000000000
10
-70.9700113960
20
40.8351116733
30
0.0000000000
10
-70.5601940535
20
40.8989712272
30
0.0000000000
10
-70.3580747335
20
40.8989719384
30
0.0000000000
11
-72.3373872494
21
38.9245573431
31
0.0000000000
11
-72.2299764697
21
39.5408275821
31
0.0000000000
11
-71.9412398231
21
40.0959404291
31
0.0000000000
11
-71.5055744404
21
40.5277468527
31
0.0000000000
11
-70.9571367244
21
40.8051918404
31
0.0000000000
11
-70.3580747335
21
40.8989719384
31
0.0000000000
0
SPLINE
5
306
100
AcDbEntity
8
0
100
AcDbSpline
62
7
6
CONTINUOUS
70
0
71
3
72
10
73
6
74
4
42
0.0000001000
43
0.0000001000
44
0.0000000001
12
0.4029142532
22
16.7131850657
32
0.0000000000
13
0.3492604042
23
16.7143923642
33
0.0000000000
40
0.0000000000
40
0.0000000000
40
0.0000000000
40
0.0000000000
40
0.3189676999
40
0.6523004257
40
1.0000000000
40
1.0000000000
40
1.0000000000
40
1.0000000000
10
-72.7129651147
20
22.2107420312
30
0.0000000000
10
-72.6701262372
20
23.9877307640
30
0.0000000000
10
-72.5844765564
20
27.6217841536
30
0.0000000000
10
-72.4591385088
20
33.1930557601
30
0.0000000000
10
-72.3778664807
20
36.9873616400
30
0.0000000000
10
-72.3373872494
20
38.9245573431
30
0.0000000000
11
-72.7129651147
21
22.2107420312
31
0.0000000000
11
-72.5872932681
21
27.5417760511
31
0.0000000000
11
-72.4619183725
21
33.1130356973
31
0.0000000000
11
-72.3373872494
21
38.9245573431
31
0.0000000000
0
SPLINE
5
307
100
AcDbEntity
8
0
100
AcDbSpline
62
7
6
CONTINUOUS
70
0
71
3
72
8
73
4
74
2
42
0.0000001000
43
0.0000001000
44
0.0000000001
12
0.0000000000
22
-0.8609204854
32
0.0000000000
13
-0.3087736836
23
-0.8091343652
33
0.0000000000
40
0.0000000000
40
0.0000000000
40
0.0000000000
40
0.0000000000
40
1.0000000000
40
1.0000000000
40
1.0000000000
40
1.0000000000
10
5.4294892272
20
28.6291777000
30
0.0000000000
10
5.4294892272
20
28.3422042049
30
0.0000000000
10
5.3726310517
20
28.0529260594
30
0.0000000000
10
5.2697064905
20
27.7832146043
30
0.0000000000
11
5.4294892272
21
28.6291777000
31
0.0000000000
11
5.2697064905
21
27.7832146043
31
0.0000000000
0
SPLINE
5
308
100
AcDbEntity
8
0
100
AcDbSpline
62
7
6
CONTINUOUS
70
0
71
3
72
19
73
15
74
13
42
0.0000001000
43
0.0000001000
44
0.0000000001
12
-4.8293265366
22
-12.6551395698
32
0.0000000000
13
0.0000000000
23
13.4650922885
33
0.0000000000
40
0.0000000000
40
0.0000000000
40
0.0000000000
40
0.0000000000
40
0.0687100523
40
0.1451434375
40
0.2299629264
40
0.3219855881
40
0.4187928796
40
0.5172699065
40
0.6140771980
40
0.7060998598
40
0.7909193487
40
0.8673527339
40
0.9360627861
40
1.0000000000
40
1.0000000000
40
1.0000000000
40
1.0000000000
10
5.2697064905
20
27.7832146043
30
0.0000000000
10
5.1590987309
20
27.4933695039
30
0.0000000000
10
4.8130689874
20
26.9288333303
30
0.0000000000
10
4.0394658727
20
26.2287217545
30
0.0000000000
10
3.0391330094
20
25.6721571942
30
0.0000000000
10
1.8671077442
20
25.2843778317
30
0.0000000000
10
0.5875706697
20
25.0851992737
30
0.0000000000
10
-0.7285922152
20
25.0851992737
30
0.0000000000
10
-2.0081292898
20
25.2843778317
30
0.0000000000
10
-3.1801545550
20
25.6721571942
30
0.0000000000
10
-4.1804874183
20
26.2287217545
30
0.0000000000
10
-4.9540905330
20
26.9288333303
30
0.0000000000
10
-5.4525500252
20
27.7420536379
30
0.0000000000
10
-5.5705107728
20
28.3422042049
30
0.0000000000
10
-5.5705107728
20
28.6291777000
30
0.0000000000
11
5.2697064905
21
27.7832146043
31
0.0000000000
11
4.7996060682
21
26.9863602018
31
0.0000000000
11
4.0464630260
21
26.2849385366
31
0.0000000000
11
3.0540206627
21
25.7197344178
31
0.0000000000
11
1.8799489747
21
25.3236173855
31
0.0000000000
11
0.5924903554
21
25.1196262511
31
0.0000000000
11
-0.7335119009
21
25.1196262511
31
0.0000000000
11
-2.0209705202
21
25.3236173855
31
0.0000000000
11
-3.1950422082
21
25.7197344178
31
0.0000000000
11
-4.1874845715
21
26.2849385366
31
0.0000000000
11
-4.9406276138
21
26.9863602018
31
0.0000000000
11
-5.4107280360
21
27.7832146043
31
0.0000000000
11
-5.5705107728
21
28.6291777000
31
0.0000000000
0
SPLINE
5
309
100
AcDbEntity
8
0
100
AcDbSpline
62
7
6
CONTINUOUS
70
0
71
3
72
8
73
4
74
2
42
0.0000001000
43
0.0000001000
44
0.0000000001
12
0.0057899407
22
-0.3036058606
32
0.0000000000
13
0.0000000000
23
-0.3005880555
33
0.0000000000
40
0.0000000000
40
0.0000000000
40
0.0000000000
40
0.0000000000
40
1.0000000000
40
1.0000000000
40
1.0000000000
40
1.0000000000
10
-26.9000377451
20
23.5808233889
30
0.0000000000
10
-26.8981077648
20
23.4796214353
30
0.0000000000
10
-26.8955334457
20
23.3810257910
30
0.0000000000
10
-26.8955334457
20
23.2808297725
30
0.0000000000
11
-26.9000377451
21
23.5808233889
31
0.0000000000
11
-26.8955334457
21
23.2808297725
31
0.0000000000
0
SPLINE
5
30A
100
AcDbEntity
8
0
100
AcDbSpline
62
7
6
CONTINUOUS
70
0
71
3
72
8
73
4
74
2
42
0.0000001000
43
0.0000001000
44
0.0000000001
12
-0.0057899246
22
-0.3036058750
32
0.0000000000
13
0.0000000000
23
-0.3005880497
33
0.0000000000
40
0.0000000000
40
0.0000000000
40
0.0000000000
40
0.0000000000
40
1.0000000000
40
1.0000000000
40
1.0000000000
40
1.0000000000
10
-35.2409838056
20
23.5808233890
30
0.0000000000
10
-35.2429137805
20
23.4796214307
30
0.0000000000
10
-35.2454880998
20
23.3810257890
30
0.0000000000
10
-35.2454880998
20
23.2808297725
30
0.0000000000
11
-35.2409838056
21
23.5808233890
31
0.0000000000
11
-35.2454880998
21
23.2808297725
31
0.0000000000
0
SPLINE
5
30B
100
AcDbEntity
8
0
100
AcDbSpline
62
7
6
CONTINUOUS
70
0
71
3
72
8
73
4
74
2
42
0.0000001000
43
0.0000001000
44
0.0000000001
12
0.0057899407
22
-0.3036058606
32
0.0000000000
13
0.0000000000
23
-0.3005880555
33
0.0000000000
40
0.0000000000
40
0.0000000000
40
0.0000000000
40
0.0000000000
40
1.0000000000
40
1.0000000000
40
1.0000000000
40
1.0000000000
10
35.0999622549
20
23.5808233889
30
0.0000000000
10
35.1018922352
20
23.4796214353
30
0.0000000000
10
35.1044665543
20
23.3810257910
30
0.0000000000
10
35.1044665543
20
23.2808297725
30
0.0000000000
11
35.0999622549
21
23.5808233889
31
0.0000000000
11
35.1044665543
21
23.2808297725
31
0.0000000000
0
SPLINE
5
30C
100
AcDbEntity
8
0
100
AcDbSpline
62
7
6
CONTINUOUS
70
0
71
3
72
8
73
4
74
2
42
0.0000001000
43
0.0000001000
44
0.0000000001
12
-0.0057899246
22
-0.3036058750
32
0.0000000000
13
0.0000000000
23
-0.3005880497
33
0.0000000000
40
0.0000000000
40
0.0000000000
40
0.0000000000
40
0.0000000000
40
1.0000000000
40
1.0000000000
40
1.0000000000
40
1.0000000000
10
26.7590161944
20
23.5808233890
30
0.0000000000
10
26.7570862195
20
23.4796214307
30
0.0000000000
10
26.7545119002
20
23.3810257890
30
0.0000000000
10
26.7545119002
20
23.2808297725
30
0.0000000000
11
26.7590161944
21
23.5808233890
31
0.0000000000
11
26.7545119002
21
23.2808297725
31
0.0000000000
0
SPLINE
5
30D
100
AcDbEntity
8
0
100
AcDbSpline
62
7
6
CONTINUOUS
70
0
71
3
72
10
73
6
74
4
42
0.0000001000
43
0.0000001000
44
0.0000000001
12
0.3492596702
22
-16.7143923796
32
0.0000000000
13
0.4029142532
23
-16.7131850657
33
0.0000000000
40
0.0000000000
40
0.0000000000
40
0.0000000000
40
0.0000000000
40
0.3477034183
40
0.6810361442
40
1.0000000000
40
1.0000000000
40
1.0000000000
40
1.0000000000
10
72.1963657038
20
38.9245573430
30
0.0000000000
10
72.2368452975
20
36.9873402215
30
0.0000000000
10
72.3181179296
20
33.1930129275
30
0.0000000000
10
72.4434559980
20
27.6217413216
30
0.0000000000
10
72.5291052079
20
23.9877093483
30
0.0000000000
10
72.5719435691
20
22.2107420312
30
0.0000000000
11
72.1963657038
21
38.9245573430
31
0.0000000000
11
72.3208982384
21
33.1129714487
31
0.0000000000
11
72.4462732031
21
27.5417118022
31
0.0000000000
11
72.5719435691
21
22.2107420312
31
0.0000000000
0
SPLINE
5
30E
100
AcDbEntity
8
0
100
AcDbSpline
62
7
6
CONTINUOUS
70
0
71
3
72
12
73
8
74
6
42
0.0000001000
43
0.0000001000
44
0.0000000001
12
-1.0739308302
22
0.0000000000
32
0.0000000000
13
-0.1848690393
23
1.0578992704
33
0.0000000000
40
0.0000000000
40
0.0000000000
40
0.0000000000
40
0.0000000000
40
0.2726386328
40
0.5245020940
40
0.7354744859
40
0.8939879070
40
1.0000000000
40
1.0000000000
40
1.0000000000
40
1.0000000000
10
-70.8556682979
20
14.8177538046
30
0.0000000000
10
-70.9532666423
20
14.8177538046
30
0.0000000000
10
-71.1411814816
20
14.8265592347
30
0.0000000000
10
-71.4020863522
20
14.8644792601
30
0.0000000000
10
-71.6173063700
20
14.9259530453
30
0.0000000000
10
-71.7705787258
20
14.9991851857
30
0.0000000000
10
-71.8379657027
20
15.0781738599
30
0.0000000000
10
-71.8444984873
20
15.1155572319
30
0.0000000000
11
-70.8556682979
21
14.8177538046
31
0.0000000000
11
-71.1481245059
21
14.8318356348
31
0.0000000000
11
-71.4154452519
21
14.8730809778
31
0.0000000000
11
-71.6325815926
21
14.9377776846
31
0.0000000000
11
-71.7810814729
21
15.0210055199
31
0.0000000000
11
-71.8444984873
21
15.1155572319
31
0.0000000000
0
SPLINE
5
30F
100
AcDbEntity
8
0
100
AcDbSpline
62
7
6
CONTINUOUS
70
0
71
3
72
10
73
6
74
4
42
0.0000001000
43
0.0000001000
44
0.0000000001
12
-0.3498362657
22
1.7942275412
32
0.0000000000
13
-0.4026568121
23
1.7831167584
33
0.0000000000
40
0.0000000000
40
0.0000000000
40
0.0000000000
40
0.0000000000
40
0.3525319938
40
0.6858566836
40
1.0000000000
40
1.0000000000
40
1.0000000000
40
1.0000000000
10
-72.2819336041
20
17.4911532054
30
0.0000000000
10
-72.3230430961
20
17.7019940761
30
0.0000000000
10
-72.4047313706
20
18.1118582593
30
0.0000000000
10
-72.5294040893
20
18.7083146986
30
0.0000000000
10
-72.6140692373
20
19.0936595219
30
0.0000000000
10
-72.6562332194
20
19.2803775926
30
0.0000000000
11
-72.2819336041
21
17.4911532054
31
0.0000000000
11
-72.4080281019
21
18.1231302190
31
0.0000000000
11
-72.5328406506
21
18.7195324912
31
0.0000000000
11
-72.6562332194
21
19.2803775926
31
0.0000000000
0
SPLINE
5
310
100
AcDbEntity
8
0
100
AcDbSpline
62
7
6
CONTINUOUS
70
0
71
3
72
10
73
6
74
4
42
0.0000001000
43
0.0000001000
44
0.0000000001
12
-0.4158217108
22
2.3795087388
32
0.0000000000
13
-0.4622792842
23
2.3709212126
33
0.0000000000
40
0.0000000000
40
0.0000000000
40
0.0000000000
40
0.0000000000
40
0.3512109828
40
0.6845631986
40
1.0000000000
40
1.0000000000
40
1.0000000000
40
1.0000000000
10
-71.8444984873
20
15.1155572319
30
0.0000000000
10
-71.8931788712
20
15.3941270995
30
0.0000000000
10
-71.9895802482
20
15.9368386750
30
0.0000000000
10
-72.1353110039
20
16.7287354615
30
0.0000000000
10
-72.2333269711
20
17.2418612708
30
0.0000000000
10
-72.2819336041
20
17.4911532054
30
0.0000000000
11
-71.8444984873
21
15.1155572319
31
0.0000000000
11
-71.9929796908
21
15.9508367602
31
0.0000000000
11
-72.1388372296
21
16.7427515163
31
0.0000000000
11
-72.2819336041
21
17.4911532054
31
0.0000000000
0
SPLINE
5
311
100
AcDbEntity
8
0
100
AcDbSpline
62
7
6
CONTINUOUS
70
0
71
3
72
12
73
8
74
6
42
0.0000001000
43
0.0000001000
44
0.0000000001
12
-0.1848700673
22
-1.0579051532
32
0.0000000000
13
-1.0739368021
23
0.0000000000
33
0.0000000000
40
0.0000000000
40
0.0000000000
40
0.0000000000
40
0.0000000000
40
0.1057936561
40
0.2643811805
40
0.4757614953
40
0.7276542215
40
1.0000000000
40
1.0000000000
40
1.0000000000
40
1.0000000000
10
71.7034769417
20
15.1155572319
30
0.0000000000
10
71.6969575816
20
15.0782506806
30
0.0000000000
10
71.6296902571
20
14.9992655336
30
0.0000000000
10
71.4763228759
20
14.9259503067
30
0.0000000000
10
71.2609253394
20
14.8644435074
30
0.0000000000
10
70.9999612076
20
14.8265455667
30
0.0000000000
10
70.8121408038
20
14.8177538046
30
0.0000000000
10
70.7146467523
20
14.8177538046
30
0.0000000000
11
71.7034769417
21
15.1155572319
31
0.0000000000
11
71.6402470710
21
15.0211617294
31
0.0000000000
11
71.4917088130
21
14.9378376834
31
0.0000000000
11
71.2741497646
21
14.8730210831
31
0.0000000000
11
71.0067911981
21
14.8318049059
31
0.0000000000
11
70.7146467523
21
14.8177538046
31
0.0000000000
0
SPLINE
5
312
100
AcDbEntity
8
0
100
AcDbSpline
62
7
6
CONTINUOUS
70
0
71
3
72
10
73
6
74
4
42
0.0000001000
43
0.0000001000
44
0.0000000001
12
-0.4622792842
22
-2.3709212126
32
0.0000000000
13
-0.4158217108
23
-2.3795087388
33
0.0000000000
40
0.0000000000
40
0.0000000000
40
0.0000000000
40
0.0000000000
40
0.3154368014
40
0.6487890172
40
1.0000000000
40
1.0000000000
40
1.0000000000
40
1.0000000000
10
72.1409120585
20
17.4911532053
30
0.0000000000
10
72.0923054256
20
17.2418612708
30
0.0000000000
10
71.9942894583
20
16.7287354615
30
0.0000000000
10
71.8485587026
20
15.9368386750
30
0.0000000000
10
71.7521573256
20
15.3941270995
30
0.0000000000
10
71.7034769417
20
15.1155572319
30
0.0000000000
11
72.1409120585
21
17.4911532053
31
0.0000000000
11
71.9978156840
21
16.7427515163
31
0.0000000000
11
71.8519581453
21
15.9508367602
31
0.0000000000
11
71.7034769417
21
15.1155572319
31
0.0000000000
0
SPLINE
5
313
100
AcDbEntity
8
0
100
AcDbSpline
62
7
6
CONTINUOUS
70
0
71
3
72
10
73
6
74
4
42
0.0000001000
43
0.0000001000
44
0.0000000001
12
-0.4026568121
22
-1.7831167584
32
0.0000000000
13
-0.3498362657
23
-1.7942275412
33
0.0000000000
40
0.0000000000
40
0.0000000000
40
0.0000000000
40
0.0000000000
40
0.3141433164
40
0.6474680062
40
1.0000000000
40
1.0000000000
40
1.0000000000
40
1.0000000000
10
72.5152116738
20
19.2803775926
30
0.0000000000
10
72.4730476917
20
19.0936595219
30
0.0000000000
10
72.3883825437
20
18.7083146986
30
0.0000000000
10
72.2637098250
20
18.1118582593
30
0.0000000000
10
72.1820215506
20
17.7019940761
30
0.0000000000
10
72.1409120585
20
17.4911532053
30
0.0000000000
11
72.5152116738
21
19.2803775926
31
0.0000000000
11
72.3918191051
21
18.7195324912
31
0.0000000000
11
72.2670065564
21
18.1231302190
31
0.0000000000
11
72.1409120585
21
17.4911532053
31
0.0000000000
0
SPLINE
5
314
100
AcDbEntity
8
0
100
AcDbSpline
62
7
6
CONTINUOUS
70
0
71
3
72
8
73
4
74
2
42
0.0000001000
43
0.0000001000
44
0.0000000001
12
0.0000000000
22
0.8609204854
32
0.0000000000
13
-0.3087736836
23
0.8091343652
33
0.0000000000
40
0.0000000000
40
0.0000000000
40
0.0000000000
40
0.0000000000
40
1.0000000000
40
1.0000000000
40
1.0000000000
40
1.0000000000
10
5.4294892272
20
29.0870800595
30
0.0000000000
10
5.4294892272
20
29.3740535546
30
0.0000000000
10
5.3726310517
20
29.6633317001
30
0.0000000000
10
5.2697064905
20
29.9330431552
30
0.0000000000
11
5.4294892272
21
29.0870800595
31
0.0000000000
11
5.2697064905
21
29.9330431552
31
0.0000000000
0
SPLINE
5
315
100
AcDbEntity
8
0
100
AcDbSpline
62
7
6
CONTINUOUS
70
0
71
3
72
8
73
4
74
2
42
0.0000001000
43
0.0000001000
44
0.0000000001
12
-0.1069346875
22
0.2802198993
32
0.0000000000
13
-0.1379442013
23
0.2656481901
33
0.0000000000
40
0.0000000000
40
0.0000000000
40
0.0000000000
40
0.0000000000
40
1.0000000000
40
1.0000000000
40
1.0000000000
40
1.0000000000
10
5.2697064905
20
29.9330431552
30
0.0000000000
10
5.2340615946
20
30.0264497883
30
0.0000000000
10
5.1928915905
20
30.1175096324
30
0.0000000000
10
5.1469101901
20
30.2060590291
30
0.0000000000
11
5.2697064905
21
29.9330431552
31
0.0000000000
11
5.1469101901
21
30.2060590291
31
0.0000000000
0
SPLINE
5
316
100
AcDbEntity
8
0
100
AcDbSpline
62
7
6
CONTINUOUS
70
0
71
3
72
10
73
6
74
4
42
0.0000001000
43
0.0000001000
44
0.0000000001
12
-1.0484465672
22
2.0190622749
32
0.0000000000
13
-1.9833589237
23
1.1044236424
33
0.0000000000
40
0.0000000000
40
0.0000000000
40
0.0000000000
40
0.0000000000
40
0.2766979657
40
0.7308572619
40
1.0000000000
40
1.0000000000
40
1.0000000000
40
1.0000000000
10
5.1469101901
20
30.2060590291
30
0.0000000000
10
5.0502091793
20
30.3922825038
30
0.0000000000
10
4.7385799407
20
30.8548370894
30
0.0000000000
10
4.1724250419
20
31.3672078268
30
0.0000000000
10
3.7091162540
20
31.6599745453
30
0.0000000000
10
3.5311807036
20
31.7590570796
30
0.0000000000
11
5.1469101901
21
30.2060590291
31
0.0000000000
11
4.7996060682
21
30.7298975577
31
0.0000000000
11
4.0464630260
21
31.4313192229
31
0.0000000000
11
3.5311807036
21
31.7590570796
31
0.0000000000
0
SPLINE
5
317
100
AcDbEntity
8
0
100
AcDbSpline
62
7
6
CONTINUOUS
70
0
71
3
72
8
73
4
74
2
42
0.0000001000
43
0.0000001000
44
0.0000000001
12
-0.1230108541
22
0.0684979879
32
0.0000000000
13
-0.1247048163
23
0.0653912076
33
0.0000000000
40
0.0000000000
40
0.0000000000
40
0.0000000000
40
0.0000000000
40
1.0000000000
40
1.0000000000
40
1.0000000000
40
1.0000000000
10
3.5311807036
20
31.7590570796
30
0.0000000000
10
3.4901770855
20
31.7818897423
30
0.0000000000
10
3.4488794343
20
31.8041989799
30
0.0000000000
10
3.4073111622
20
31.8259960491
30
0.0000000000
11
3.5311807036
21
31.7590570796
31
0.0000000000
11
3.4073111622
21
31.8259960491
31
0.0000000000
0
SPLINE
5
318
100
AcDbEntity
8
0
100
AcDbSpline
62
7
6
CONTINUOUS
70
0
71
3
72
14
73
10
74
8
42
0.0000001000
43
0.0000001000
44
0.0000000001
12
-6.3834906515
22
3.3472978418
32
0.0000000000
13
-6.3834906515
23
-3.3472978418
33
0.0000000000
40
0.0000000000
40
0.0000000000
40
0.0000000000
40
0.0000000000
40
0.0544362307
40
0.2266638449
40
0.4078462681
40
0.5921537319
40
0.7733361551
40
0.9455637693
40
1.0000000000
40
1.0000000000
40
1.0000000000
40
1.0000000000
10
3.4073111622
20
31.8259960491
30
0.0000000000
10
3.2914801056
20
31.8867341416
30
0.0000000000
10
2.8004284591
20
32.1230789807
30
0.0000000000
10
1.8671077442
20
32.4318799278
30
0.0000000000
10
0.5875706697
20
32.6310584858
30
0.0000000000
10
-0.7285922152
20
32.6310584858
30
0.0000000000
10
-2.0081292898
20
32.4318799278
30
0.0000000000
10
-2.9414500047
20
32.1230789807
30
0.0000000000
10
-3.4325016511
20
31.8867341416
30
0.0000000000
10
-3.5483327078
20
31.8259960491
30
0.0000000000
11
3.4073111622
21
31.8259960491
31
0.0000000000
11
3.0540206627
21
31.9965233416
31
0.0000000000
11
1.8799489747
21
32.3926403740
31
0.0000000000
11
0.5924903554
21
32.5966315084
31
0.0000000000
11
-0.7335119009
21
32.5966315084
31
0.0000000000
11
-2.0209705202
21
32.3926403740
31
0.0000000000
11
-3.1950422082
21
31.9965233416
31
0.0000000000
11
-3.5483327078
21
31.8259960491
31
0.0000000000
0
SPLINE
5
319
100
AcDbEntity
8
0
100
AcDbSpline
62
7
6
CONTINUOUS
70
0
71
3
72
8
73
4
74
2
42
0.0000001000
43
0.0000001000
44
0.0000000001
12
-0.1247048163
22
-0.0653912076
32
0.0000000000
13
-0.1230108541
23
-0.0684979879
33
0.0000000000
40
0.0000000000
40
0.0000000000
40
0.0000000000
40
0.0000000000
40
1.0000000000
40
1.0000000000
40
1.0000000000
40
1.0000000000
10
-3.5483327078
20
31.8259960491
30
0.0000000000
10
-3.5899009799
20
31.8041989799
30
0.0000000000
10
-3.6311986311
20
31.7818897423
30
0.0000000000
10
-3.6722022492
20
31.7590570796
30
0.0000000000
11
-3.5483327078
21
31.8259960491
31
0.0000000000
11
-3.6722022492
21
31.7590570796
31
0.0000000000
0
SPLINE
5
31A
100
AcDbEntity
8
0
100
AcDbSpline
62
7
6
CONTINUOUS
70
0
71
3
72
10
73
6
74
4
42
0.0000001000
43
0.0000001000
44
0.0000000001
12
-1.9833589237
22
-1.1044236424
32
0.0000000000
13
-1.0484465672
23
-2.0190622749
33
0.0000000000
40
0.0000000000
40
0.0000000000
40
0.0000000000
40
0.0000000000
40
0.2691427381
40
0.7233020343
40
1.0000000000
40
1.0000000000
40
1.0000000000
40
1.0000000000
10
-3.6722022492
20
31.7590570796
30
0.0000000000
10
-3.8501377996
20
31.6599745453
30
0.0000000000
10
-4.3134465874
20
31.3672078268
30
0.0000000000
10
-4.8796014862
20
30.8548370894
30
0.0000000000
10
-5.1912307249
20
30.3922825038
30
0.0000000000
10
-5.2879317357
20
30.2060590291
30
0.0000000000
11
-3.6722022492
21
31.7590570796
31
0.0000000000
11
-4.1874845715
21
31.4313192229
31
0.0000000000
11
-4.9406276138
21
30.7298975577
31
0.0000000000
11
-5.2879317357
21
30.2060590291
31
0.0000000000
0
SPLINE
5
31B
100
AcDbEntity
8
0
100
AcDbSpline
62
7
6
CONTINUOUS
70
0
71
3
72
8
73
4
74
2
42
0.0000001000
43
0.0000001000
44
0.0000000001
12
-0.1379442013
22
-0.2656481901
32
0.0000000000
13
-0.1069346875
23
-0.2802198993
33
0.0000000000
40
0.0000000000
40
0.0000000000
40
0.0000000000
40
0.0000000000
40
1.0000000000
40
1.0000000000
40
1.0000000000
40
1.0000000000
10
-5.2879317357
20
30.2060590291
30
0.0000000000
10
-5.3339131361
20
30.1175096324
30
0.0000000000
10
-5.3750831402
20
30.0264497883
30
0.0000000000
10
-5.4107280360
20
29.9330431552
30
0.0000000000
11
-5.2879317357
21
30.2060590291
31
0.0000000000
11
-5.4107280360
21
29.9330431552
31
0.0000000000
0
SPLINE
5
31C
100
AcDbEntity
8
0
100
AcDbSpline
62
7
6
CONTINUOUS
70
0
71
3
72
8
73
4
74
2
42
0.0000001000
43
0.0000001000
44
0.0000000001
12
-0.3087736836
22
-0.8091343652
32
0.0000000000
13
0.0000000000
23
-0.8609204854
33
0.0000000000
40
0.0000000000
40
0.0000000000
40
0.0000000000
40
0.0000000000
40
1.0000000000
40
1.0000000000
40
1.0000000000
40
1.0000000000
10
-5.4107280360
20
29.9330431552
30
0.0000000000
10
-5.5136525972
20
29.6633317001
30
0.0000000000
10
-5.5705107728
20
29.3740535546
30
0.0000000000
10
-5.5705107728
20
29.0870800595
30
0.0000000000
11
-5.4107280360
21
29.9330431552
31
0.0000000000
11
-5.5705107728
21
29.0870800595
31
0.0000000000
0
SPLINE
5
31D
100
AcDbEntity
8
0
100
AcDbSpline
62
7
6
CONTINUOUS
70
0
71
3
72
13
73
9
74
7
42
0.0000001000
43
0.0000001000
44
0.0000000001
12
0.6461470394
22
2.8613836391
32
0.0000000000
13
-0.0706973680
23
2.9325797873
33
0.0000000000
40
0.0000000000
40
0.0000000000
40
0.0000000000
40
0.0000000000
40
0.0750723780
40
0.1972729134
40
0.3582411108
40
0.5534908320
40
0.7731104079
40
1.0000000000
40
1.0000000000
40
1.0000000000
40
1.0000000000
10
72.5152116738
20
19.2803775926
30
0.0000000000
10
72.5313809387
20
19.3519812173
30
0.0000000000
10
72.5504773768
20
19.5446851016
30
0.0000000000
10
72.5712964505
20
19.8940106891
30
0.0000000000
10
72.5837273318
20
20.3618744157
30
0.0000000000
10
72.5888395859
20
20.9248653577
30
0.0000000000
10
72.5851991116
20
21.5524149753
30
0.0000000000
10
72.5772904014
20
21.9889514206
30
0.0000000000
10
72.5719435691
20
22.2107420312
30
0.0000000000
11
72.5152116738
21
19.2803775926
31
0.0000000000
11
72.5448100151
21
19.4985991681
31
0.0000000000
11
72.5673490217
21
19.8563568246
31
0.0000000000
11
72.5815923687
21
20.3283311885
31
0.0000000000
11
72.5872861733
21
20.9010546342
31
0.0000000000
11
72.5839398050
21
21.5452849986
31
0.0000000000
11
72.5719435691
21
22.2107420312
31
0.0000000000
0
SPLINE
5
31E
100
AcDbEntity
8
0
100
AcDbSpline
62
7
6
CONTINUOUS
70
0
71
3
72
13
73
9
74
7
42
0.0000001000
43
0.0000001000
44
0.0000000001
12
-0.0706973842
22
-2.9325804597
32
0.0000000000
13
0.6461471876
23
-2.8613842952
33
0.0000000000
40
0.0000000000
40
0.0000000000
40
0.0000000000
40
0.0000000000
40
0.2272882147
40
0.4472415878
40
0.6426484130
40
0.8037348475
40
0.9251319109
40
1.0000000000
40
1.0000000000
40
1.0000000000
40
1.0000000000
10
-72.7129651147
20
22.2107420312
30
0.0000000000
10
-72.7183213421
20
21.9885617054
30
0.0000000000
10
-72.7262384632
20
21.5513089871
30
0.0000000000
10
-72.7298636895
20
20.9228891525
30
0.0000000000
10
-72.7247082748
20
20.3593028698
30
0.0000000000
10
-72.7122357042
20
19.8919564739
30
0.0000000000
10
-72.6913949187
20
19.5435005915
30
0.0000000000
10
-72.6723584878
20
19.3517863841
30
0.0000000000
10
-72.6562332194
20
19.2803775926
30
0.0000000000
11
-72.7129651147
21
22.2107420312
31
0.0000000000
11
-72.7249751601
21
21.5441155723
31
0.0000000000
11
-72.7283034132
21
20.8989057819
31
0.0000000000
11
-72.7225637834
21
20.3257217851
31
0.0000000000
11
-72.7082400427
21
19.8534027458
31
0.0000000000
11
-72.6857774239
21
19.4980018055
31
0.0000000000
11
-72.6562332194
21
19.2803775926
31
0.0000000000
0
SPLINE
5
31F
100
AcDbEntity
8
0
100
AcDbSpline
62
9
6
CONTINUOUS
70
0
71
3
72
10
73
6
74
4
42
0.0000001000
43
0.0000001000
44
0.0000000001
12
0.5572218601
22
0.5063496426
32
0.0000000000
13
0.7529166920
23
0.0016176481
33
0.0000000000
40
0.0000000000
40
0.0000000000
40
0.0000000000
40
0.0000000000
40
0.3306182712
40
0.6644472192
40
1.0000000000
40
1.0000000000
40
1.0000000000
40
1.0000000000
10
17.4262181313
20
35.8889652146
30
0.0000000000
10
17.4876273740
20
35.9447680290
30
0.0000000000
10
17.6259031533
20
36.0416333098
30
0.0000000000
10
17.8624729413
20
36.1319817749
30
0.0000000000
10
18.0311554592
20
36.1527588283
30
0.0000000000
10
18.1153698891
20
36.1529397637
30
0.0000000000
11
17.4262181313
21
35.8889652146
31
0.0000000000
11
17.6299174974
21
36.0320456498
31
0.0000000000
11
17.8646336103
21
36.1219519435
31
0.0000000000
11
18.1153698891
21
36.1529397637
31
0.0000000000
0
SPLINE
5
320
100
AcDbEntity
8
0
100
AcDbSpline
62
9
6
CONTINUOUS
70
0
71
3
72
10
73
6
74
4
42
0.0000001000
43
0.0000001000
44
0.0000000001
12
0.5516009180
22
0.5218116943
32
0.0000000000
13
0.7591973120
23
0.0130559767
33
0.0000000000
40
0.0000000000
40
0.0000000000
40
0.0000000000
40
0.0000000000
40
0.3325368721
40
0.6663141447
40
1.0000000000
40
1.0000000000
40
1.0000000000
40
1.0000000000
10
17.0093390957
20
38.8343055203
30
0.0000000000
10
17.0704816437
20
38.8921460632
30
0.0000000000
10
17.2081481565
20
38.9931055632
30
0.0000000000
10
17.4447528285
20
39.0893242721
30
0.0000000000
10
17.6140478726
20
39.1132936546
30
0.0000000000
10
17.6984923407
20
39.1147458529
30
0.0000000000
11
17.0093390957
21
38.8343055203
31
0.0000000000
11
17.2128699243
21
38.9837399807
31
0.0000000000
11
17.4476177744
21
39.0792670469
31
0.0000000000
11
17.6984923407
21
39.1147458529
31
0.0000000000
0
SPLINE
5
321
100
AcDbEntity
8
0
100
AcDbSpline
62
9
6
CONTINUOUS
70
0
71
3
72
10
73
6
74
4
42
0.0000001000
43
0.0000001000
44
0.0000000001
12
-0.5516001224
22
0.5218134957
32
0.0000000000
13
-0.7591977684
23
0.0130678141
33
0.0000000000
40
0.0000000000
40
0.0000000000
40
0.0000000000
40
0.0000000000
40
0.3325371117
40
0.6663145288
40
1.0000000000
40
1.0000000000
40
1.0000000000
40
1.0000000000
10
-17.1503621287
20
38.8343040328
30
0.0000000000
10
-17.2115046325
20
38.8921448171
30
0.0000000000
10
-17.3491708314
20
38.9931050376
30
0.0000000000
10
-17.5857747348
20
39.0893259791
30
0.0000000000
10
-17.7550694648
20
39.1132977085
30
0.0000000000
10
-17.8395138864
20
39.1147512217
30
0.0000000000
11
-17.1503621287
21
38.8343040328
31
0.0000000000
11
-17.3538925943
21
38.9837396659
31
0.0000000000
11
-17.5886398741
21
39.0792690090
31
0.0000000000
11
-17.8395138864
21
39.1147512217
31
0.0000000000
0
SPLINE
5
322
100
AcDbEntity
8
0
100
AcDbSpline
62
9
6
CONTINUOUS
70
0
71
3
72
10
73
6
74
4
42
0.0000001000
43
0.0000001000
44
0.0000000001
12
-0.5558689748
22
0.5078343380
32
0.0000000000
13
-0.7529120902
23
0.0030686130
33
0.0000000000
40
0.0000000000
40
0.0000000000
40
0.0000000000
40
0.0000000000
40
0.3310015057
40
0.6652164147
40
1.0000000000
40
1.0000000000
40
1.0000000000
40
1.0000000000
10
-17.5672396769
20
35.8889652146
30
0.0000000000
10
-17.6285708328
20
35.9449965247
30
0.0000000000
10
-17.7672440826
20
36.0416937875
30
0.0000000000
10
-18.0037682150
20
36.1321401733
30
0.0000000000
10
-18.1723705650
20
36.1525973233
30
0.0000000000
10
-18.2563914347
20
36.1529397637
30
0.0000000000
11
-17.5672396769
21
35.8889652146
31
0.0000000000
11
-17.7711958508
21
36.0321819899
31
0.0000000000
11
-18.0062213199
21
36.1220929175
31
0.0000000000
11
-18.2563914347
21
36.1529397637
31
0.0000000000
0
SPLINE
5
323
100
AcDbEntity
8
0
100
AcDbSpline
62
9
6
CONTINUOUS
70
0
71
3
72
13
73
9
74
7
42
0.0000001000
43
0.0000001000
44
0.0000000001
12
-3.0333251270
22
-0.0269268381
32
0.0000000000
13
-0.1245523261
23
-3.0308865202
33
0.0000000000
40
0.0000000000
40
0.0000000000
40
0.0000000000
40
0.0000000000
40
0.1569821411
40
0.3224359765
40
0.4918552989
40
0.6615317368
40
0.8305433182
40
1.0000000000
40
1.0000000000
40
1.0000000000
40
1.0000000000
10
-69.2577756931
20
36.1529354910
30
0.0000000000
10
-69.4165016507
20
36.1515264801
30
0.0000000000
10
-69.7434644443
20
36.1093042860
30
0.0000000000
10
-70.2111359598
20
35.9256697028
30
0.0000000000
10
-70.6283552478
20
35.6222044507
30
0.0000000000
10
-70.9565841584
20
35.2194604348
30
0.0000000000
10
-71.1715172695
20
34.7468178445
30
0.0000000000
10
-71.2300268802
20
34.4050702677
30
0.0000000000
10
-71.2370622881
20
34.2338689434
30
0.0000000000
11
-69.2577756931
21
36.1529354910
31
0.0000000000
11
-69.7300429070
21
36.0918870417
31
0.0000000000
11
-70.1972355564
21
35.9085031010
31
0.0000000000
11
-70.6128276597
21
35.6061767531
31
0.0000000000
11
-70.9380569702
21
35.2072454477
31
0.0000000000
11
-71.1502210264
21
34.7405178443
31
0.0000000000
11
-71.2370622881
21
34.2338689434
31
0.0000000000
0
SPLINE
5
324
100
AcDbEntity
8
0
100
AcDbSpline
62
9
6
CONTINUOUS
70
0
71
3
72
13
73
9
74
7
42
0.0000001000
43
0.0000001000
44
0.0000000001
12
-0.1245529451
22
3.0308864860
32
0.0000000000
13
-3.0333251077
23
0.0269280122
33
0.0000000000
40
0.0000000000
40
0.0000000000
40
0.0000000000
40
0.0000000000
40
0.1694566016
40
0.3384684603
40
0.5081450946
40
0.6775645179
40
0.8430188874
40
1.0000000000
40
1.0000000000
40
1.0000000000
40
1.0000000000
10
71.0960407424
20
34.2338689388
30
0.0000000000
10
71.0890053028
20
34.4050701800
30
0.0000000000
10
71.0304957388
20
34.7468179540
30
0.0000000000
10
70.8155623914
20
35.2194609156
30
0.0000000000
10
70.4873328971
20
35.6222052127
30
0.0000000000
10
70.0701127759
20
35.9256707777
30
0.0000000000
10
69.6024413109
20
36.1093045469
30
0.0000000000
10
69.2754790641
20
36.1515264237
30
0.0000000000
10
69.1167541473
20
36.1529354868
30
0.0000000000
11
71.0960407424
21
34.2338689388
31
0.0000000000
11
71.0091995582
21
34.7405176044
31
0.0000000000
11
70.7970351100
21
35.2072459522
31
0.0000000000
11
70.4718052360
21
35.6061775651
31
0.0000000000
11
70.0562127054
21
35.9085038433
31
0.0000000000
11
69.5890183074
21
36.0918877587
31
0.0000000000
11
69.1167541473
21
36.1529354868
31
0.0000000000
0
SPLINE
5
325
100
AcDbEntity
8
0
100
AcDbSpline
62
9
6
CONTINUOUS
70
0
71
3
72
10
73
6
74
4
42
0.0000001000
43
0.0000001000
44
0.0000000001
12
-0.3672127822
22
-12.1289463886
32
0.0000000000
13
-0.3956010808
23
-12.1280536571
33
0.0000000000
40
0.0000000000
40
0.0000000000
40
0.0000000000
40
0.0000000000
40
0.3429631567
40
0.6762144158
40
1.0000000000
40
1.0000000000
40
1.0000000000
40
1.0000000000
10
-70.2401566769
20
34.2036870756
30
0.0000000000
10
-70.2821368285
20
32.8170931620
30
0.0000000000
10
-70.3658151951
20
30.0831976923
30
0.0000000000
10
-70.4926004902
20
26.0403502028
30
0.0000000000
10
-70.5780691838
20
23.3841191300
30
0.0000000000
10
-70.6207658262
20
22.0751561504
30
0.0000000000
11
-70.2401566769
21
34.2036870756
31
0.0000000000
11
-70.3675457843
21
30.0439494462
31
0.0000000000
11
-70.4943578348
21
26.0020995912
31
0.0000000000
11
-70.6207658262
21
22.0751561504
31
0.0000000000
0
SPLINE
5
326
100
AcDbEntity
8
0
100
AcDbSpline
62
9
6
CONTINUOUS
70
0
71
3
72
13
73
9
74
7
42
0.0000001000
43
0.0000001000
44
0.0000000001
12
-1.5444845053
22
0.0003538002
32
0.0000000000
13
-0.0462422586
23
-1.5437921382
33
0.0000000000
40
0.0000000000
40
0.0000000000
40
0.0000000000
40
0.0000000000
40
0.1539938997
40
0.3168031710
40
0.4846957308
40
0.6548172619
40
0.8264516094
40
1.0000000000
40
1.0000000000
40
1.0000000000
40
1.0000000000
10
-69.2577756491
20
35.1998111005
30
0.0000000000
10
-69.3370560465
20
35.1998292616
30
0.0000000000
10
-69.5008804392
20
35.1792849518
30
0.0000000000
10
-69.7349290270
20
35.0849371255
30
0.0000000000
10
-69.9428679949
20
34.9273042167
30
0.0000000000
10
-70.1052071456
20
34.7173629621
30
0.0000000000
10
-70.2101553561
20
34.4707707401
30
0.0000000000
10
-70.2374815870
20
34.2929946226
30
0.0000000000
10
-70.2401566769
20
34.2036870756
30
0.0000000000
11
-69.2577756491
21
35.1998111005
31
0.0000000000
11
-69.4937588478
21
35.1701401459
31
0.0000000000
11
-69.7270493935
21
35.0763006867
31
0.0000000000
11
-69.9338815835
21
34.9199011788
31
0.0000000000
11
-70.0949976698
21
34.7123458633
31
0.0000000000
11
-70.1991407078
21
34.4685731582
31
0.0000000000
11
-70.2401566769
21
34.2036870756
31
0.0000000000
0
SPLINE
5
327
100
AcDbEntity
8
0
100
AcDbSpline
62
9
6
CONTINUOUS
70
0
71
3
72
12
73
8
74
6
42
0.0000001000
43
0.0000001000
44
0.0000000001
12
-2.0503539323
22
0.0002111963
32
0.0000000000
13
-1.4499580667
23
1.4496802741
33
0.0000000000
40
0.0000000000
40
0.0000000000
40
0.0000000000
40
0.0000000000
40
0.1699290118
40
0.3532688166
40
0.5513431650
40
0.7662052333
40
1.0000000000
40
1.0000000000
40
1.0000000000
40
1.0000000000
10
-5.7780218120
20
23.6737646430
30
0.0000000000
10
-5.8941600178
20
23.6737766058
30
0.0000000000
10
-6.1360324360
20
23.6975998004
30
0.0000000000
10
-6.5004380528
20
23.7997836359
30
0.0000000000
10
-6.8718386868
20
23.9714491339
30
0.0000000000
10
-7.2426906190
20
24.2145627296
30
0.0000000000
10
-7.4740754813
20
24.4175191522
30
0.0000000000
10
-7.5870730172
20
24.5304950394
30
0.0000000000
11
-5.7780218120
21
23.6737646430
31
0.0000000000
11
-6.1249109666
21
23.7063324399
31
0.0000000000
11
-6.4873439013
21
23.8060912362
31
0.0000000000
11
-6.8566846855
21
23.9749784395
31
0.0000000000
11
-7.2258972277
21
24.2153125574
31
0.0000000000
11
-7.5870730172
21
24.5304950394
31
0.0000000000
0
SPLINE
5
328
100
AcDbEntity
8
0
100
AcDbSpline
62
9
6
CONTINUOUS
70
0
71
3
72
12
73
8
74
6
42
0.0000001000
43
0.0000001000
44
0.0000000001
12
-1.4499575010
22
-1.4496808863
32
0.0000000000
13
-2.0503539658
23
-0.0002035669
33
0.0000000000
40
0.0000000000
40
0.0000000000
40
0.0000000000
40
0.0000000000
40
0.2337947635
40
0.4486568299
40
0.6467311718
40
0.8300709801
40
1.0000000000
40
1.0000000000
40
1.0000000000
40
1.0000000000
10
7.4460514717
20
24.5304950394
30
0.0000000000
10
7.3330539813
20
24.4175191060
30
0.0000000000
10
7.1016690537
20
24.2145627618
30
0.0000000000
10
6.7308171979
20
23.9714490214
30
0.0000000000
10
6.3594164004
20
23.7997838949
30
0.0000000000
10
5.9950109846
20
23.6975995054
30
0.0000000000
10
5.7531384797
20
23.6737761736
30
0.0000000000
10
5.6370002664
20
23.6737646430
30
0.0000000000
11
7.4460514717
21
24.5304950394
31
0.0000000000
11
7.0848756919
21
24.2153125444
31
0.0000000000
11
6.7156631525
21
23.9749784167
31
0.0000000000
11
6.3463223181
21
23.8060913396
31
0.0000000000
11
5.9838894668
21
23.7063321911
31
0.0000000000
11
5.6370002664
21
23.6737646430
31
0.0000000000
0
SPLINE
5
329
100
AcDbEntity
8
0
100
AcDbSpline
62
9
6
CONTINUOUS
70
0
71
3
72
15
73
11
74
9
42
0.0000001000
43
0.0000001000
44
0.0000000001
12
0.0906797416
22
1.7564140788
32
0.0000000000
13
-1.6685738190
23
-0.5559448195
33
0.0000000000
40
0.0000000000
40
0.0000000000
40
0.0000000000
40
0.0000000000
40
0.0244013203
40
0.0667527201
40
0.1405787248
40
0.2494548565
40
0.3915688879
40
0.5644734043
40
0.7675059770
40
1.0000000000
40
1.0000000000
40
1.0000000000
40
1.0000000000
10
17.0093405831
20
38.8343040328
30
0.0000000000
10
17.0100781516
20
38.8485903070
30
0.0000000000
10
16.9860228510
20
38.8877000689
30
0.0000000000
10
16.8992960613
20
38.8996675898
30
0.0000000000
10
16.7695677688
20
38.8994614970
30
0.0000000000
10
16.5794223366
20
38.8725792331
30
0.0000000000
10
16.3363084490
20
38.8233996652
30
0.0000000000
10
16.0415221747
20
38.7491176617
30
0.0000000000
10
15.6987922223
20
38.6503750492
30
0.0000000000
10
15.4555430135
20
38.5725834480
30
0.0000000000
10
15.3262318668
20
38.5294988321
30
0.0000000000
11
17.0093405831
21
38.8343040328
31
0.0000000000
11
16.9902029200
21
38.8727165905
31
0.0000000000
11
16.9193387665
21
38.8956596945
31
0.0000000000
11
16.7895045010
21
38.8970520134
31
0.0000000000
11
16.5994401981
21
38.8737593611
31
0.0000000000
11
16.3542557191
21
38.8252172495
31
0.0000000000
11
16.0591214469
21
38.7519343947
31
0.0000000000
11
15.7158406647
21
38.6536112633
31
0.0000000000
11
15.3262318668
21
38.5294988321
31
0.0000000000
0
SPLINE
5
32A
100
AcDbEntity
8
0
100
AcDbSpline
62
9
6
CONTINUOUS
70
0
71
3
72
10
73
6
74
4
42
0.0000001000
43
0.0000001000
44
0.0000000001
12
0.6890894078
22
-0.1744665457
32
0.0000000000
13
0.5947691418
23
0.3892716987
33
0.0000000000
40
0.0000000000
40
0.0000000000
40
0.0000000000
40
0.0000000000
40
0.3626529934
40
0.6963683951
40
1.0000000000
40
1.0000000000
40
1.0000000000
40
1.0000000000
10
11.3883986050
20
33.8256211272
30
0.0000000000
10
11.4716987171
20
33.8045308555
30
0.0000000000
10
11.6366345002
20
33.7804359965
30
0.0000000000
10
11.8749475316
20
33.8038106480
30
0.0000000000
10
12.0173534597
20
33.8631154156
30
0.0000000000
10
12.0775503628
20
33.9025138125
30
0.0000000000
11
11.3883986050
21
33.8256211272
31
0.0000000000
11
11.6437644658
21
33.7903840543
31
0.0000000000
11
11.8795172819
21
33.8166883725
31
0.0000000000
11
12.0775503628
21
33.9025138125
31
0.0000000000
0
SPLINE
5
32B
100
AcDbEntity
8
0
100
AcDbSpline
62
9
6
CONTINUOUS
70
0
71
3
72
12
73
8
74
6
42
0.0000001000
43
0.0000001000
44
0.0000000001
12
-0.9032075246
22
-1.0522803656
32
0.0000000000
13
-1.3615047578
23
-0.2634057608
33
0.0000000000
40
0.0000000000
40
0.0000000000
40
0.0000000000
40
0.0000000000
40
0.2514009783
40
0.4760145331
40
0.6748639701
40
0.8491461525
40
1.0000000000
40
1.0000000000
40
1.0000000000
40
1.0000000000
10
6.7568997139
20
25.2196467971
30
0.0000000000
10
6.6812106288
20
25.1314653593
30
0.0000000000
10
6.5303167256
20
24.9707590579
30
0.0000000000
10
6.2946799534
20
24.7654962895
30
0.0000000000
10
6.0666019098
20
24.6082614967
30
0.0000000000
10
5.8499253774
20
24.4982659220
30
0.0000000000
10
5.7054630101
20
24.4530543436
30
0.0000000000
10
5.6370002664
20
24.4398090861
30
0.0000000000
11
6.7568997139
21
25.2196467971
31
0.0000000000
11
6.5175542423
21
24.9661571970
31
0.0000000000
11
6.2818237262
21
24.7625575880
31
0.0000000000
11
6.0538419158
21
24.6074289221
31
0.0000000000
11
5.8373602865
21
24.4999682036
31
0.0000000000
11
5.6370002664
21
24.4398090861
31
0.0000000000
0
SPLINE
5
32C
100
AcDbEntity
8
0
100
AcDbSpline
62
9
6
CONTINUOUS
70
0
71
3
72
10
73
6
74
4
42
0.0000001000
43
0.0000001000
44
0.0000000001
12
-0.6890896590
22
-0.1744666093
32
0.0000000000
13
-0.5947693586
23
0.3892718407
33
0.0000000000
40
0.0000000000
40
0.0000000000
40
0.0000000000
40
0.0000000000
40
0.3625018685
40
0.6966355479
40
1.0000000000
40
1.0000000000
40
1.0000000000
40
1.0000000000
10
-11.5294201506
20
33.8256211272
30
0.0000000000
10
-11.6126855802
20
33.8045396365
30
0.0000000000
10
-11.7776803203
20
33.7804286770
30
0.0000000000
10
-12.0160031897
20
33.8038103847
30
0.0000000000
10
-12.1584279481
20
33.8631500663
30
0.0000000000
10
-12.2185719083
20
33.9025138125
30
0.0000000000
11
-11.5294201506
21
33.8256211272
31
0.0000000000
11
-11.7846779356
21
33.7903860259
31
0.0000000000
11
-12.0207248605
21
33.8167364854
31
0.0000000000
11
-12.2185719083
21
33.9025138125
31
0.0000000000
0
SPLINE
5
32D
100
AcDbEntity
8
0
100
AcDbSpline
62
9
6
CONTINUOUS
70
0
71
3
72
10
73
6
74
4
42
0.0000001000
43
0.0000001000
44
0.0000000001
12
-0.0700932984
22
2.9798137208
32
0.0000000000
13
-0.8234759541
23
2.8646274163
33
0.0000000000
40
0.0000000000
40
0.0000000000
40
0.0000000000
40
0.0000000000
40
0.3260286948
40
0.6602702983
40
1.0000000000
40
1.0000000000
40
1.0000000000
40
1.0000000000
10
17.4275480986
20
35.8902951819
30
0.0000000000
10
17.4199306231
20
36.2141301079
30
0.0000000000
10
17.3815439785
20
36.8696339609
30
0.0000000000
10
17.2520072736
20
37.8556691450
30
0.0000000000
10
17.1025936632
20
38.5099043603
30
0.0000000000
10
17.0093405831
20
38.8343040328
30
0.0000000000
11
17.4275480986
21
35.8902951819
31
0.0000000000
11
17.3705271832
21
36.8603943430
31
0.0000000000
11
17.2374426340
21
37.8477184994
31
0.0000000000
11
17.0093405831
21
38.8343040328
31
0.0000000000
0
SPLINE
5
32E
100
AcDbEntity
8
0
100
AcDbSpline
62
9
6
CONTINUOUS
70
0
71
3
72
10
73
6
74
4
42
0.0000001000
43
0.0000001000
44
0.0000000001
12
-0.8234759099
22
-2.8646274283
32
0.0000000000
13
-0.0700932518
23
-2.9798137212
33
0.0000000000
40
0.0000000000
40
0.0000000000
40
0.0000000000
40
0.0000000000
40
0.3397297015
40
0.6739713066
40
1.0000000000
40
1.0000000000
40
1.0000000000
40
1.0000000000
10
-17.1503621287
20
38.8343040328
30
0.0000000000
10
-17.2436152037
20
38.5099043591
30
0.0000000000
10
-17.3930288273
20
37.8556691455
30
0.0000000000
10
-17.5225655114
20
36.8696339590
30
0.0000000000
10
-17.5609521743
20
36.2141301071
30
0.0000000000
10
-17.5685696448
20
35.8902951824
30
0.0000000000
11
-17.1503621287
21
38.8343040328
31
0.0000000000
11
-17.3784641806
21
37.8477185004
31
0.0000000000
11
-17.5115487244
21
36.8603943390
31
0.0000000000
11
-17.5685696448
21
35.8902951824
31
0.0000000000
0
SPLINE
5
32F
100
AcDbEntity
8
0
100
AcDbSpline
62
9
6
CONTINUOUS
70
0
71
3
72
12
73
8
74
6
42
0.0000001000
43
0.0000001000
44
0.0000000001
12
-1.3615046922
22
0.2634060329
32
0.0000000000
13
-0.9032076563
23
1.0522802359
33
0.0000000000
40
0.0000000000
40
0.0000000000
40
0.0000000000
40
0.0000000000
40
0.1508538203
40
0.3251360293
40
0.5239854606
40
0.7485990229
40
1.0000000000
40
1.0000000000
40
1.0000000000
40
1.0000000000
10
-5.7780218120
20
24.4398090861
30
0.0000000000
10
-5.8464845400
20
24.4530543549
30
0.0000000000
10
-5.9909468509
20
24.4982660823
30
0.0000000000
10
-6.2076234934
20
24.6082614096
30
0.0000000000
10
-6.4357014812
20
24.7654963264
30
0.0000000000
10
-6.6713382910
20
24.9707590352
30
0.0000000000
10
-6.8222321637
20
25.1314653706
30
0.0000000000
10
-6.8979212595
20
25.2196467971
30
0.0000000000
11
-5.7780218120
21
24.4398090861
31
0.0000000000
11
-5.9783817681
21
24.4999682789
31
0.0000000000
11
-6.1948634802
21
24.6074289084
31
0.0000000000
11
-6.4228452677
21
24.7625575897
31
0.0000000000
11
-6.6585757960
21
24.9661571960
31
0.0000000000
11
-6.8979212595
21
25.2196467971
31
0.0000000000
0
SPLINE
5
330
100
AcDbEntity
8
0
100
AcDbSpline
62
9
6
CONTINUOUS
70
0
71
3
72
15
73
11
74
9
42
0.0000001000
43
0.0000001000
44
0.0000000001
12
-1.6685736492
22
0.5559453173
32
0.0000000000
13
0.0906778816
23
-1.7564141711
33
0.0000000000
40
0.0000000000
40
0.0000000000
40
0.0000000000
40
0.0000000000
40
0.2324940236
40
0.4355265966
40
0.6084311134
40
0.7505451452
40
0.8594212766
40
0.9332472832
40
0.9755986808
40
1.0000000000
40
1.0000000000
40
1.0000000000
40
1.0000000000
10
-15.4672534124
20
38.5294988321
30
0.0000000000
10
-15.5965645462
20
38.5725834867
30
0.0000000000
10
-15.8398137724
20
38.6503750356
30
0.0000000000
10
-16.1825437197
20
38.7491176632
30
0.0000000000
10
-16.4773299948
20
38.8233996643
30
0.0000000000
10
-16.7204438813
20
38.8725792370
30
0.0000000000
10
-16.9105893164
20
38.8994614882
30
0.0000000000
10
-17.0403176044
20
38.8996676029
30
0.0000000000
10
-17.1270443999
20
38.8877000588
30
0.0000000000
10
-17.1510996820
20
38.8485903071
30
0.0000000000
10
-17.1503621287
20
38.8343040328
30
0.0000000000
11
-15.4672534124
21
38.5294988321
31
0.0000000000
11
-15.8568622100
21
38.6536112641
31
0.0000000000
11
-16.2001429927
21
38.7519343938
31
0.0000000000
11
-16.4952772646
21
38.8252172500
31
0.0000000000
11
-16.7404617437
21
38.8737593612
31
0.0000000000
11
-16.9305260461
21
38.8970520120
31
0.0000000000
11
-17.0603603145
21
38.8956596981
31
0.0000000000
11
-17.1312244613
21
38.8727165860
31
0.0000000000
11
-17.1503621287
21
38.8343040328
31
0.0000000000
0
SPLINE
5
331
100
AcDbEntity
8
0
100
AcDbSpline
62
9
6
CONTINUOUS
70
0
71
3
72
13
73
9
74
7
42
0.0000001000
43
0.0000001000
44
0.0000000001
12
-0.0462418833
22
1.5437921270
32
0.0000000000
13
-1.5444844826
23
-0.0003553269
33
0.0000000000
40
0.0000000000
40
0.0000000000
40
0.0000000000
40
0.0000000000
40
0.1735483934
40
0.3451827456
40
0.5153042861
40
0.6831968622
40
0.8460061365
40
1.0000000000
40
1.0000000000
40
1.0000000000
40
1.0000000000
10
70.0991351313
20
34.2036870710
30
0.0000000000
10
70.0964600631
20
34.2929946188
30
0.0000000000
10
70.0691337151
20
34.4707707080
30
0.0000000000
10
69.9641856848
20
34.7173630299
30
0.0000000000
10
69.8018463347
20
34.9273041127
30
0.0000000000
10
69.5939075660
20
35.0849373593
30
0.0000000000
10
69.3598587906
20
35.1792846383
30
0.0000000000
10
69.1960344810
20
35.1998293379
30
0.0000000000
10
69.1167541035
20
35.1998110986
30
0.0000000000
11
70.0991351313
21
34.2036870710
31
0.0000000000
11
70.0581191267
21
34.4685731487
31
0.0000000000
11
69.9539761475
21
34.7123458825
31
0.0000000000
11
69.7928599923
21
34.9199011580
31
0.0000000000
11
69.5860278580
21
35.0763007750
31
0.0000000000
11
69.3527372274
21
35.1701400261
31
0.0000000000
11
69.1167541035
21
35.1998110986
31
0.0000000000
0
SPLINE
5
332
100
AcDbEntity
8
0
100
AcDbSpline
62
9
6
CONTINUOUS
70
0
71
3
72
10
73
6
74
4
42
0.0000001000
43
0.0000001000
44
0.0000000001
12
-0.3956010813
22
12.1280536525
32
0.0000000000
13
-0.3672127819
23
12.1289463840
33
0.0000000000
40
0.0000000000
40
0.0000000000
40
0.0000000000
40
0.0000000000
40
0.3237855905
40
0.6570368498
40
1.0000000000
40
1.0000000000
40
1.0000000000
40
1.0000000000
10
70.4797442806
20
22.0751561504
30
0.0000000000
10
70.4370476373
20
23.3841191548
30
0.0000000000
10
70.3515789431
20
26.0403502530
30
0.0000000000
10
70.2247936480
20
30.0831977410
30
0.0000000000
10
70.1411152821
20
32.8170931844
30
0.0000000000
10
70.0991351313
20
34.2036870710
30
0.0000000000
11
70.4797442806
21
22.0751561504
31
0.0000000000
11
70.3533362869
21
26.0020996655
31
0.0000000000
11
70.2265242364
21
30.0439495226
31
0.0000000000
11
70.0991351313
21
34.2036870710
31
0.0000000000
0
SPLINE
5
333
100
AcDbEntity
8
0
100
AcDbSpline
62
9
6
CONTINUOUS
70
0
71
3
72
10
73
6
74
4
42
0.0000001000
43
0.0000001000
44
0.0000000001
12
-0.2329641605
22
7.2574648668
32
0.0000000000
13
-0.2367250369
23
7.2573431674
33
0.0000000000
40
0.0000000000
40
0.0000000000
40
0.0000000000
40
0.0000000000
40
0.3332401865
40
0.6665735415
40
1.0000000000
40
1.0000000000
40
1.0000000000
40
1.0000000000
10
70.7146458165
20
14.8177538046
30
0.0000000000
10
70.6887681431
20
15.6239134532
30
0.0000000000
10
70.6368548530
20
17.2364533055
30
0.0000000000
10
70.5585407247
20
19.6555870151
30
0.0000000000
10
70.5060544108
20
21.2685594069
30
0.0000000000
10
70.4797442806
20
22.0751561504
30
0.0000000000
11
70.7146458165
21
14.8177538046
31
0.0000000000
11
70.6367899203
21
17.2362255859
31
0.0000000000
11
70.5584806348
21
19.6553595985
31
0.0000000000
11
70.4797442806
21
22.0751561504
31
0.0000000000
0
SPLINE
5
334
100
AcDbEntity
8
0
100
AcDbSpline
62
7
6
CONTINUOUS
70
0
71
3
72
11
73
7
74
5
42
0.0000001000
43
0.0000001000
44
0.0000000001
12
0.0000000000
22
3.5657503979
32
0.0000000000
13
3.1637912899
23
1.6589907207
33
0.0000000000
40
0.0000000000
40
0.0000000000
40
0.0000000000
40
0.0000000000
40
0.2414416012
40
0.5009065361
40
0.7895365496
40
1.0000000000
40
1.0000000000
40
1.0000000000
40
1.0000000000
10
-5.5705107728
20
30.2361467242
30
0.0000000000
10
-5.5705107728
20
30.5231202193
30
0.0000000000
10
-5.4525500252
20
31.1232707862
30
0.0000000000
10
-4.9540905330
20
31.9364910938
30
0.0000000000
10
-4.2783328232
20
32.5480524825
30
0.0000000000
10
-3.7702868515
20
32.8586770767
30
0.0000000000
10
-3.5483327078
20
32.9750627138
30
0.0000000000
11
-5.5705107728
21
30.2361467242
31
0.0000000000
11
-5.4107280360
21
31.0821098198
31
0.0000000000
11
-4.9406276138
21
31.8789642224
31
0.0000000000
11
-4.1874845715
21
32.5803858875
31
0.0000000000
11
-3.5483327078
21
32.9750627138
31
0.0000000000
0
SPLINE
5
335
100
AcDbEntity
8
0
100
AcDbSpline
62
7
6
CONTINUOUS
70
0
71
3
72
8
73
4
74
2
42
0.0000001000
43
0.0000001000
44
0.0000000001
12
0.0404816275
22
0.0212272676
32
0.0000000000
13
0.0406503297
23
0.0209045955
33
0.0000000000
40
0.0000000000
40
0.0000000000
40
0.0000000000
40
0.0000000000
40
1.0000000000
40
1.0000000000
40
1.0000000000
40
1.0000000000
10
-3.5483327078
20
32.9750627138
30
0.0000000000
10
-3.5348388320
20
32.9821384696
30
0.0000000000
10
-3.5213164387
20
32.9891602543
30
0.0000000000
10
-3.5077663288
20
32.9961284528
30
0.0000000000
11
-3.5483327078
21
32.9750627138
31
0.0000000000
11
-3.5077663288
21
32.9961284528
31
0.0000000000
0
SPLINE
5
336
100
AcDbEntity
8
0
100
AcDbSpline
62
7
6
CONTINUOUS
70
0
71
3
72
14
73
10
74
8
42
0.0000001000
43
0.0000001000
44
0.0000000001
12
6.3287923905
22
3.2546069371
32
0.0000000000
13
6.3287923905
23
-3.2546069371
33
0.0000000000
40
0.0000000000
40
0.0000000000
40
0.0000000000
40
0.0000000000
40
0.0487124487
40
0.2231525258
40
0.4066624468
40
0.5933375532
40
0.7768474742
40
0.9512875513
40
1.0000000000
40
1.0000000000
40
1.0000000000
40
1.0000000000
10
-3.5077663288
20
32.9961284528
30
0.0000000000
10
-3.4050026706
20
33.0489750773
30
0.0000000000
10
-2.9269377748
20
33.2769472000
30
0.0000000000
10
-2.0081292898
20
33.5809465925
30
0.0000000000
10
-0.7285922152
20
33.7801251504
30
0.0000000000
10
0.5875706697
20
33.7801251504
30
0.0000000000
10
1.8671077442
20
33.5809465925
30
0.0000000000
10
2.7859162292
20
33.2769472000
30
0.0000000000
10
3.2639811250
20
33.0489750773
30
0.0000000000
10
3.3667447832
20
32.9961284528
30
0.0000000000
11
-3.5077663288
21
32.9961284528
31
0.0000000000
11
-3.1950422082
21
33.1455900063
31
0.0000000000
11
-2.0209705202
21
33.5417070387
31
0.0000000000
11
-0.7335119009
21
33.7456981731
31
0.0000000000
11
0.5924903554
21
33.7456981731
31
0.0000000000
11
1.8799489747
21
33.5417070387
31
0.0000000000
11
3.0540206627
21
33.1455900063
31
0.0000000000
11
3.3667447832
21
32.9961284528
31
0.0000000000
0
SPLINE
5
337
100
AcDbEntity
8
0
100
AcDbSpline
62
7
6
CONTINUOUS
70
0
71
3
72
8
73
4
74
2
42
0.0000001000
43
0.0000001000
44
0.0000000001
12
0.0406503297
22
-0.0209045955
32
0.0000000000
13
0.0404816275
23
-0.0212272676
33
0.0000000000
40
0.0000000000
40
0.0000000000
40
0.0000000000
40
0.0000000000
40
1.0000000000
40
1.0000000000
40
1.0000000000
40
1.0000000000
10
3.3667447832
20
32.9961284528
30
0.0000000000
10
3.3802948931
20
32.9891602543
30
0.0000000000
10
3.3938172864
20
32.9821384696
30
0.0000000000
10
3.4073111622
20
32.9750627138
30
0.0000000000
11
3.3667447832
21
32.9961284528
31
0.0000000000
11
3.4073111622
21
32.9750627138
31
0.0000000000
0
SPLINE
5
338
100
AcDbEntity
8
0
100
AcDbSpline
62
7
6
CONTINUOUS
70
0
71
3
72
11
73
7
74
5
42
0.0000001000
43
0.0000001000
44
0.0000000001
12
3.1637912899
22
-1.6589907207
32
0.0000000000
13
-0.0000000000
23
-3.5657503979
33
0.0000000000
40
0.0000000000
40
0.0000000000
40
0.0000000000
40
0.0000000000
40
0.2104634504
40
0.4990934639
40
0.7585583988
40
1.0000000000
40
1.0000000000
40
1.0000000000
40
1.0000000000
10
3.4073111622
20
32.9750627138
30
0.0000000000
10
3.6292653060
20
32.8586770767
30
0.0000000000
10
4.1373112776
20
32.5480524825
30
0.0000000000
10
4.8130689874
20
31.9364910938
30
0.0000000000
10
5.3115284797
20
31.1232707862
30
0.0000000000
10
5.4294892272
20
30.5231202193
30
0.0000000000
10
5.4294892272
20
30.2361467242
30
0.0000000000
11
3.4073111622
21
32.9750627138
31
0.0000000000
11
4.0464630260
21
32.5803858875
31
0.0000000000
11
4.7996060682
21
31.8789642224
31
0.0000000000
11
5.2697064905
21
31.0821098198
31
0.0000000000
11
5.4294892272
21
30.2361467242
31
0.0000000000
0
SPLINE
5
339
100
AcDbEntity
8
0
100
AcDbSpline
62
9
6
CONTINUOUS
70
0
71
3
72
10
73
6
74
4
42
0.0000001000
43
0.0000001000
44
0.0000000001
12
0.9404428001
22
4.7254196332
32
0.0000000000
13
1.3252400021
23
4.6322524011
33
0.0000000000
40
0.0000000000
40
0.0000000000
40
0.0000000000
40
0.0000000000
40
0.3780175214
40
0.7105994361
40
1.0000000000
40
1.0000000000
40
1.0000000000
40
1.0000000000
10
71.0960383005
20
34.2338689085
30
0.0000000000
10
71.2145395859
20
34.8292993809
30
0.0000000000
10
71.4477027923
20
35.9465796255
30
0.0000000000
10
71.8126676672
20
37.5107557071
30
0.0000000000
10
72.0685478773
20
38.4765843922
30
0.0000000000
10
72.1963896119
20
38.9234432111
30
0.0000000000
11
71.0960383005
21
34.2338689085
31
0.0000000000
11
71.4700201159
21
36.0163833182
31
0.0000000000
11
71.8366842027
21
37.5762799556
31
0.0000000000
11
72.1963896119
21
38.9234432111
31
0.0000000000
0
SPLINE
5
33A
100
AcDbEntity
8
0
100
AcDbSpline
62
9
6
CONTINUOUS
70
0
71
3
72
10
73
6
74
4
42
0.0000001000
43
0.0000001000
44
0.0000000001
12
-0.3958948341
22
12.1257077531
32
0.0000000000
13
-0.3675357779
23
12.1266004587
33
0.0000000000
40
0.0000000000
40
0.0000000000
40
0.0000000000
40
0.0000000000
40
0.3237785198
40
0.6570294433
40
1.0000000000
40
1.0000000000
40
1.0000000000
40
1.0000000000
10
71.4769549239
20
22.1076838568
30
0.0000000000
10
71.4342275094
20
23.4163650927
30
0.0000000000
10
71.3486947155
20
26.0720524854
30
0.0000000000
10
71.2218085087
20
30.1141180663
30
0.0000000000
10
71.1380562840
20
32.8475132718
30
0.0000000000
10
71.0960383005
20
34.2338689085
30
0.0000000000
11
71.4769549239
21
22.1076838568
31
0.0000000000
11
71.3504535555
21
26.0337820837
31
0.0000000000
11
71.2235399008
21
30.0748461263
31
0.0000000000
11
71.0960383005
21
34.2338689085
31
0.0000000000
0
SPLINE
5
33B
100
AcDbEntity
8
0
100
AcDbSpline
62
9
6
CONTINUOUS
70
0
71
3
72
9
73
5
74
3
42
0.0000001000
43
0.0000001000
44
0.0000000001
12
-0.6254298764
22
4.6219384713
32
0.0000000000
13
-0.7023786256
23
4.6108721549
33
0.0000000000
40
0.0000000000
40
0.0000000000
40
0.0000000000
40
0.0000000000
40
0.2498378969
40
1.0000000000
40
1.0000000000
40
1.0000000000
40
1.0000000000
10
72.1409120585
20
17.4911532054
30
0.0000000000
10
72.0888266968
20
17.8760650012
30
0.0000000000
10
71.8771340781
20
19.4162742962
30
0.0000000000
10
71.6525875329
20
20.9547166725
30
0.0000000000
10
71.4769549239
20
22.1076838568
30
0.0000000000
11
72.1409120585
21
17.4911532054
31
0.0000000000
11
71.9822466906
21
18.6455600142
31
0.0000000000
11
71.4769549239
21
22.1076838568
31
0.0000000000
0
SPLINE
5
33C
100
AcDbEntity
8
0
100
AcDbSpline
62
9
6
CONTINUOUS
70
0
71
3
72
10
73
6
74
4
42
0.0000001000
43
0.0000001000
44
0.0000000001
12
-0.2247314205
22
6.9921845021
32
0.0000000000
13
-0.2282090281
23
6.9920718648
33
0.0000000000
40
0.0000000000
40
0.0000000000
40
0.0000000000
40
0.0000000000
40
0.3332450164
40
0.6665783681
40
1.0000000000
40
1.0000000000
40
1.0000000000
40
1.0000000000
10
71.7034769357
20
15.1155571986
30
0.0000000000
10
71.6785133937
20
15.8922607449
30
0.0000000000
10
71.6284394562
20
17.4458692193
30
0.0000000000
10
71.5529207048
20
19.7765777665
30
0.0000000000
10
71.5023181994
20
21.3305811863
30
0.0000000000
10
71.4769549239
20
22.1076838568
30
0.0000000000
11
71.7034769357
21
15.1155571986
31
0.0000000000
11
71.6283798024
21
17.4456611912
31
0.0000000000
11
71.5528648878
21
19.7763699819
31
0.0000000000
11
71.4769549239
21
22.1076838568
31
0.0000000000
0
SPLINE
5
33D
100
AcDbEntity
8
0
100
AcDbSpline
62
9
6
CONTINUOUS
70
0
71
3
72
10
73
6
74
4
42
0.0000001000
43
0.0000001000
44
0.0000000001
12
1.3251725081
22
-4.6320218745
32
0.0000000000
13
0.9403959223
23
-4.7251840527
33
0.0000000000
40
0.0000000000
40
0.0000000000
40
0.0000000000
40
0.0000000000
40
0.2894070059
40
0.6220036460
40
1.0000000000
40
1.0000000000
40
1.0000000000
40
1.0000000000
10
-72.3374165230
20
38.9231931754
30
0.0000000000
10
-72.2095784537
20
38.4763466480
30
0.0000000000
10
-71.9536020101
20
37.5105599895
30
0.0000000000
10
-71.5887097361
20
35.9464475757
30
0.0000000000
10
-71.3555485893
20
34.8292363610
30
0.0000000000
10
-71.2370598459
20
34.2338689130
30
0.0000000000
11
-72.3374165230
21
38.9231931754
31
0.0000000000
11
-71.9776568205
21
37.5760842431
31
0.0000000000
11
-71.6109999100
21
36.0161951044
31
0.0000000000
11
-71.2370598459
21
34.2338689130
31
0.0000000000
0
SPLINE
5
33E
100
AcDbEntity
8
0
100
AcDbSpline
62
9
6
CONTINUOUS
70
0
71
3
72
10
73
6
74
4
42
0.0000001000
43
0.0000001000
44
0.0000000001
12
-0.2367250369
22
-7.2573431674
32
0.0000000000
13
-0.2329641605
23
-7.2574648667
33
0.0000000000
40
0.0000000000
40
0.0000000000
40
0.0000000000
40
0.0000000000
40
0.3334264585
40
0.6667598135
40
1.0000000000
40
1.0000000000
40
1.0000000000
40
1.0000000000
10
-70.6207658262
20
22.0751561504
30
0.0000000000
10
-70.6470759564
20
21.2685594069
30
0.0000000000
10
-70.6995622703
20
19.6555870151
30
0.0000000000
10
-70.7778763985
20
17.2364533055
30
0.0000000000
10
-70.8297896887
20
15.6239134532
30
0.0000000000
10
-70.8556673621
20
14.8177538046
30
0.0000000000
11
-70.6207658262
21
22.0751561504
31
0.0000000000
11
-70.6995021803
21
19.6553595985
31
0.0000000000
11
-70.7778114658
21
17.2362255859
31
0.0000000000
11
-70.8556673621
21
14.8177538046
31
0.0000000000
0
SPLINE
5
33F
100
AcDbEntity
8
0
100
AcDbSpline
62
9
6
CONTINUOUS
70
0
71
3
72
10
73
6
74
4
42
0.0000001000
43
0.0000001000
44
0.0000000001
12
-0.3675357781
22
-12.1266004632
32
0.0000000000
13
-0.3958948339
23
-12.1257077576
33
0.0000000000
40
0.0000000000
40
0.0000000000
40
0.0000000000
40
0.0000000000
40
0.3429705632
40
0.6762214864
40
1.0000000000
40
1.0000000000
40
1.0000000000
40
1.0000000000
10
-71.2370598459
20
34.2338689130
30
0.0000000000
10
-71.2790778302
20
32.8475132494
30
0.0000000000
10
-71.3628300557
20
30.1141180176
30
0.0000000000
10
-71.4897162626
20
26.0720524352
30
0.0000000000
10
-71.5752490558
20
23.4163650680
30
0.0000000000
10
-71.6179764695
20
22.1076838568
30
0.0000000000
11
-71.2370598459
21
34.2338689130
31
0.0000000000
11
-71.3645614487
21
30.0748460500
31
0.0000000000
11
-71.4914751034
21
26.0337820095
31
0.0000000000
11
-71.6179764695
21
22.1076838568
31
0.0000000000
0
SPLINE
5
340
100
AcDbEntity
8
0
100
AcDbSpline
62
9
6
CONTINUOUS
70
0
71
3
72
9
73
5
74
3
42
0.0000001000
43
0.0000001000
44
0.0000000001
12
0.6254298764
22
4.6219384713
32
0.0000000000
13
0.7023786256
23
4.6108721549
33
0.0000000000
40
0.0000000000
40
0.0000000000
40
0.0000000000
40
0.0000000000
40
0.2498378969
40
1.0000000000
40
1.0000000000
40
1.0000000000
40
1.0000000000
10
-72.2819336041
20
17.4911532053
30
0.0000000000
10
-72.2298482424
20
17.8760650012
30
0.0000000000
10
-72.0181556237
20
19.4162742962
30
0.0000000000
10
-71.7936090784
20
20.9547166725
30
0.0000000000
10
-71.6179764695
20
22.1076838568
30
0.0000000000
11
-72.2819336041
21
17.4911532053
31
0.0000000000
11
-72.1232682362
21
18.6455600142
31
0.0000000000
11
-71.6179764695
21
22.1076838568
31
0.0000000000
0
SPLINE
5
341
100
AcDbEntity
8
0
100
AcDbSpline
62
9
6
CONTINUOUS
70
0
71
3
72
10
73
6
74
4
42
0.0000001000
43
0.0000001000
44
0.0000000001
12
-0.2282090281
22
-6.9920718648
32
0.0000000000
13
-0.2247314205
23
-6.9921845021
33
0.0000000000
40
0.0000000000
40
0.0000000000
40
0.0000000000
40
0.0000000000
40
0.3334216319
40
0.6667549836
40
1.0000000000
40
1.0000000000
40
1.0000000000
40
1.0000000000
10
-71.6179764695
20
22.1076838568
30
0.0000000000
10
-71.6433397450
20
21.3305811863
30
0.0000000000
10
-71.6939422504
20
19.7765777666
30
0.0000000000
10
-71.7694610017
20
17.4458692193
30
0.0000000000
10
-71.8195349393
20
15.8922607449
30
0.0000000000
10
-71.8444984813
20
15.1155571986
30
0.0000000000
11
-71.6179764695
21
22.1076838568
31
0.0000000000
11
-71.6938864333
21
19.7763699820
31
0.0000000000
11
-71.7694013480
21
17.4456611912
31
0.0000000000
11
-71.8444984813
21
15.1155571986
31
0.0000000000
0
SPLINE
5
342
100
AcDbEntity
8
0
100
AcDbSpline
62
9
6
CONTINUOUS
70
0
71
3
72
10
73
6
74
4
42
0.0000001000
43
0.0000001000
44
0.0000000001
12
-0.8240815857
22
-2.8827640954
32
0.0000000000
13
-0.0701152991
23
-2.9974194125
33
0.0000000000
40
0.0000000000
40
0.0000000000
40
0.0000000000
40
0.0000000000
40
0.3395259155
40
0.6736263991
40
1.0000000000
40
1.0000000000
40
1.0000000000
40
1.0000000000
10
-17.8395138864
20
39.1147513942
30
0.0000000000
10
-17.9327795714
20
38.7884936880
30
0.0000000000
10
-18.0821848802
20
38.1305629736
30
0.0000000000
10
-18.2118039808
20
37.1386235667
30
0.0000000000
10
-18.2500996825
20
36.4790325535
30
0.0000000000
10
-18.2577276100
20
36.1529396979
30
0.0000000000
11
-17.8395138864
21
39.1147513942
31
0.0000000000
11
-18.0676145380
21
38.1226559843
31
0.0000000000
11
-18.2006985595
21
37.1298226538
31
0.0000000000
11
-18.2577276100
21
36.1529396979
31
0.0000000000
0
SPLINE
5
343
100
AcDbEntity
8
0
100
AcDbSpline
62
9
6
CONTINUOUS
70
0
71
3
72
15
73
11
74
9
42
0.0000001000
43
0.0000001000
44
0.0000000001
12
-2.4504936162
22
-0.0000630703
32
0.0000000000
13
-0.6702688910
23
-2.3570444588
33
0.0000000000
40
0.0000000000
40
0.0000000000
40
0.0000000000
40
0.0000000000
40
0.2131980928
40
0.4035246162
40
0.5699541905
40
0.7116405653
40
0.8258744262
40
0.9102031632
40
0.9661613556
40
1.0000000000
40
1.0000000000
40
1.0000000000
40
1.0000000000
10
-15.4672534124
20
39.5012475405
30
0.0000000000
10
-15.6414002675
20
39.5012430583
30
0.0000000000
10
-15.9710446935
20
39.4960636865
30
0.0000000000
10
-16.4361064296
20
39.4725305917
30
0.0000000000
10
-16.8417232526
20
39.4358848459
30
0.0000000000
10
-17.1835280957
20
39.3876670201
30
0.0000000000
10
-17.4557793677
20
39.3306373314
30
0.0000000000
10
-17.6542271244
20
39.2659549526
30
0.0000000000
10
-17.7809964063
20
39.2005741006
30
0.0000000000
10
-17.8319535562
20
39.1413377906
30
0.0000000000
10
-17.8395138864
20
39.1147513942
30
0.0000000000
11
-15.4672534124
21
39.5012475405
31
0.0000000000
11
-15.9896218249
21
39.4925650212
31
0.0000000000
11
-16.4553826118
21
39.4682712326
31
0.0000000000
11
-16.8614561690
21
39.4304118268
31
0.0000000000
11
-17.2050282548
21
39.3803404459
31
0.0000000000
11
-17.4783633406
21
39.3199387063
31
0.0000000000
11
-17.6737287862
21
39.2525937847
31
0.0000000000
11
-17.7915011955
21
39.1823586209
31
0.0000000000
11
-17.8395138864
21
39.1147513942
31
0.0000000000
0
SPLINE
5
344
100
AcDbEntity
8
0
100
AcDbSpline
62
9
6
CONTINUOUS
70
0
71
3
72
15
73
11
74
9
42
0.0000001000
43
0.0000001000
44
0.0000000001
12
-0.6702671293
22
2.3570449627
32
0.0000000000
13
-2.4504936190
23
0.0000631933
33
0.0000000000
40
0.0000000000
40
0.0000000000
40
0.0000000000
40
0.0000000000
40
0.0338386418
40
0.0897968396
40
0.1741255743
40
0.2883594355
40
0.4300458109
40
0.5964753829
40
0.7868019094
40
1.0000000000
40
1.0000000000
40
1.0000000000
40
1.0000000000
10
17.6984923409
20
39.1147513942
30
0.0000000000
10
17.6909320311
20
39.1413377943
30
0.0000000000
10
17.6399748594
20
39.2005741078
30
0.0000000000
10
17.5132055811
20
39.2659549437
30
0.0000000000
10
17.3147578214
20
39.3306373361
30
0.0000000000
10
17.0425065502
20
39.3876670193
30
0.0000000000
10
16.7007017073
20
39.4358848429
30
0.0000000000
10
16.2950848838
20
39.4725306004
30
0.0000000000
10
15.8300231468
20
39.4960636725
30
0.0000000000
10
15.5003787203
20
39.5012430496
30
0.0000000000
10
15.3262318668
20
39.5012475405
30
0.0000000000
11
17.6984923409
21
39.1147513942
31
0.0000000000
11
17.6504796616
21
39.1823586217
31
0.0000000000
11
17.5327072358
21
39.2525937841
31
0.0000000000
11
17.3373417964
21
39.3199387066
31
0.0000000000
11
17.0640067094
21
39.3803404460
31
0.0000000000
11
16.7204346217
21
39.4304118259
31
0.0000000000
11
16.3143610699
21
39.4682712355
31
0.0000000000
11
15.8486002743
21
39.4925650130
31
0.0000000000
11
15.3262318668
21
39.5012475405
31
0.0000000000
0
SPLINE
5
345
100
AcDbEntity
8
0
100
AcDbSpline
62
9
6
CONTINUOUS
70
0
71
3
72
10
73
6
74
4
42
0.0000001000
43
0.0000001000
44
0.0000000001
12
-0.0701153457
22
2.9974194119
32
0.0000000000
13
-0.8240816238
23
2.8827640850
33
0.0000000000
40
0.0000000000
40
0.0000000000
40
0.0000000000
40
0.0000000000
40
0.3263736008
40
0.6604740847
40
1.0000000000
40
1.0000000000
40
1.0000000000
40
1.0000000000
10
18.1167060639
20
36.1529396976
30
0.0000000000
10
18.1090781313
20
36.4790325531
30
0.0000000000
10
18.0707824472
20
37.1386235676
30
0.0000000000
10
17.9411633275
20
38.1305629722
30
0.0000000000
10
17.7917580301
20
38.7884936893
30
0.0000000000
10
17.6984923409
20
39.1147513942
30
0.0000000000
11
18.1167060639
21
36.1529396976
31
0.0000000000
11
18.0596770183
21
37.1298226538
31
0.0000000000
11
17.9265929914
21
38.1226559843
31
0.0000000000
11
17.6984923409
21
39.1147513942
31
0.0000000000
0
SPLINE
5
346
100
AcDbEntity
8
0
100
AcDbSpline
62
9
6
CONTINUOUS
70
0
71
3
72
10
73
6
74
4
42
0.0000001000
43
0.0000001000
44
0.0000000001
12
0.9402000135
22
4.7814209844
32
0.0000000000
13
1.3263139596
23
4.6890141796
33
0.0000000000
40
0.0000000000
40
0.0000000000
40
0.0000000000
40
0.0000000000
40
0.3780380856
40
0.7105714461
40
1.0000000000
40
1.0000000000
40
1.0000000000
40
1.0000000000
10
69.1167541232
20
36.1529396596
30
0.0000000000
10
69.2352312609
20
36.7554594047
30
0.0000000000
10
69.4682508646
20
37.8860062264
30
0.0000000000
10
69.8336629398
20
39.4688473423
30
0.0000000000
10
70.0888418242
20
40.4465937407
30
0.0000000000
10
70.2167995346
20
40.8989719384
30
0.0000000000
11
69.1167541232
21
36.1529396596
31
0.0000000000
11
69.4907113465
21
37.9567572429
31
0.0000000000
11
69.8573911126
21
39.5351543291
31
0.0000000000
11
70.2167995346
21
40.8989719384
31
0.0000000000
0
SPLINE
5
347
100
AcDbEntity
8
0
100
AcDbSpline
62
9
6
CONTINUOUS
70
0
71
3
72
10
73
6
74
4
42
0.0000001000
43
0.0000001000
44
0.0000000001
12
1.3263083968
22
-4.6889945248
32
0.0000000000
13
0.9401960752
23
-4.7814009409
33
0.0000000000
40
0.0000000000
40
0.0000000000
40
0.0000000000
40
0.0000000000
40
0.2894702908
40
0.6220091383
40
1.0000000000
40
1.0000000000
40
1.0000000000
40
1.0000000000
10
-70.3577409444
20
40.8989719384
30
0.0000000000
10
-70.2297653187
20
40.4465304022
30
0.0000000000
10
-69.9746861451
20
39.4686827137
30
0.0000000000
10
-69.6092272406
20
37.8858611934
30
0.0000000000
10
-69.3762375105
20
36.7553816140
30
0.0000000000
10
-69.2577756689
20
36.1529396601
30
0.0000000000
11
-70.3577409444
21
40.8989719384
31
0.0000000000
11
-69.9983603838
21
39.5349427770
31
0.0000000000
11
-69.6316819586
21
37.9565249030
31
0.0000000000
11
-69.2577756689
21
36.1529396601
31
0.0000000000
0
SPLINE
5
348
100
AcDbEntity
8
0
100
AcDbSpline
62
7
6
CONTINUOUS
70
0
71
3
72
11
73
7
74
5
42
0.0000001000
43
0.0000001000
44
0.0000000001
12
0.9855295030
22
-0.6144796167
32
0.0000000000
13
1.1608785625
23
-0.0000360001
33
0.0000000000
40
0.0000000000
40
0.0000000000
40
0.0000000000
40
0.0000000000
40
0.0453240945
40
0.3974327211
40
0.7632035094
40
1.0000000000
40
1.0000000000
40
1.0000000000
40
1.0000000000
10
-70.5533445943
20
-43.6884255561
30
0.0000000000
10
-70.5384551835
20
-43.6977091335
30
0.0000000000
10
-70.4067443250
20
-43.7772597930
30
0.0000000000
10
-70.1355791874
20
-43.8984795935
30
0.0000000000
10
-69.7731390247
20
-43.9784993915
30
0.0000000000
10
-69.5397830231
20
-43.9923798937
30
0.0000000000
10
-69.4481523665
20
-43.9923827352
30
0.0000000000
11
-70.5533445943
21
-43.6884255561
31
0.0000000000
11
-70.5082904893
21
-43.7156397605
31
0.0000000000
11
-70.1362282158
21
-43.8833548710
31
0.0000000000
11
-69.7224818969
21
-43.9758141429
31
0.0000000000
11
-69.4481523665
21
-43.9923827352
31
0.0000000000
0
SPLINE
5
349
100
AcDbEntity
8
0
100
AcDbSpline
62
7
6
CONTINUOUS
70
0
71
3
72
11
73
7
74
5
42
0.0000001000
43
0.0000001000
44
0.0000000001
12
1.1604615472
22
0.0000431511
32
0.0000000000
13
0.9853534923
23
0.6141210564
33
0.0000000000
40
0.0000000000
40
0.0000000000
40
0.0000000000
40
0.0000000000
40
0.2465582619
40
0.6104935464
40
0.9609526708
40
1.0000000000
40
1.0000000000
40
1.0000000000
40
1.0000000000
10
69.3071306275
20
-43.9923839265
30
0.0000000000
10
69.4025044216
20
-43.9923803801
30
0.0000000000
10
69.6388693085
20
-43.9777434923
30
0.0000000000
10
70.0031923571
20
-43.8954908660
30
0.0000000000
10
70.2703127234
20
-43.7747649193
30
0.0000000000
10
70.3992167180
20
-43.6965956913
30
0.0000000000
10
70.4120418587
20
-43.6886024290
30
0.0000000000
11
69.3071306275
21
-43.9923839265
31
0.0000000000
11
69.5926235093
21
-43.9744218063
31
0.0000000000
11
70.0037419097
21
-43.8804995200
31
0.0000000000
11
70.3732795778
21
-43.7121099844
31
0.0000000000
11
70.4120418587
21
-43.6886024290
31
0.0000000000
0
SPLINE
5
34A
100
AcDbEntity
8
0
100
AcDbSpline
62
7
6
CONTINUOUS
70
0
71
3
72
10
73
6
74
4
42
0.0000001000
43
0.0000001000
44
0.0000000001
12
4.4814384094
22
2.7836363587
32
0.0000000000
13
2.5736928908
23
4.6034616518
33
0.0000000000
40
0.0000000000
40
0.0000000000
40
0.0000000000
40
0.0000000000
40
0.2862308311
40
0.6322999141
40
1.0000000000
40
1.0000000000
40
1.0000000000
40
1.0000000000
10
70.4099851063
20
-43.6898653247
30
0.0000000000
10
70.8375603865
20
-43.4242778085
30
0.0000000000
10
71.7309714638
20
-42.7510545440
30
0.0000000000
10
72.9272577848
20
-41.4512038978
30
0.0000000000
10
73.6147171872
20
-40.3947192817
30
0.0000000000
10
73.9301662196
20
-39.8304882000
30
0.0000000000
11
70.4099851063
21
-43.6898653247
31
0.0000000000
11
71.6183486814
21
-42.7842995515
31
0.0000000000
11
72.8622610782
21
-41.4490686134
31
0.0000000000
11
73.9301662196
21
-39.8304882000
31
0.0000000000
0
SPLINE
5
34B
100
AcDbEntity
8
0
100
AcDbSpline
62
7
6
CONTINUOUS
70
0
71
3
72
8
73
4
74
2
42
0.0000001000
43
0.0000001000
44
0.0000000001
12
-0.1116421732
22
0.1996631079
32
0.0000000000
13
-0.0814075524
23
0.2138565811
33
0.0000000000
40
0.0000000000
40
0.0000000000
40
0.0000000000
40
0.0000000000
40
1.0000000000
40
1.0000000000
40
1.0000000000
40
1.0000000000
10
-74.0711855760
20
-39.8304916407
30
0.0000000000
10
-74.1083996337
20
-39.7639372714
30
0.0000000000
10
-74.1408259500
20
-39.6946829160
30
0.0000000000
10
-74.1679618008
20
-39.6233973890
30
0.0000000000
11
-74.0711855760
21
-39.8304916407
31
0.0000000000
11
-74.1679618008
21
-39.6233973890
31
0.0000000000
0
SPLINE
5
34C
100
AcDbEntity
8
0
100
AcDbSpline
62
7
6
CONTINUOUS
70
0
71
3
72
10
73
6
74
4
42
0.0000001000
43
0.0000001000
44
0.0000000001
12
2.5737398382
22
-4.6035485851
32
0.0000000000
13
4.4814114778
23
-2.7835716489
33
0.0000000000
40
0.0000000000
40
0.0000000000
40
0.0000000000
40
0.0000000000
40
0.3665735987
40
0.7126921620
40
1.0000000000
40
1.0000000000
40
1.0000000000
40
1.0000000000
10
-74.0711858641
20
-39.8304917023
30
0.0000000000
10
-73.7566975058
20
-40.3930048263
30
0.0000000000
10
-73.0705042596
20
-41.4480086435
30
0.0000000000
10
-71.8749654381
20
-42.7485460113
30
0.0000000000
10
-70.9801681255
20
-43.4232985217
30
0.0000000000
10
-70.5509865779
20
-43.6898791725
30
0.0000000000
11
-74.0711858641
21
-39.8304917023
31
0.0000000000
11
-73.0069309893
21
-41.4443931453
31
0.0000000000
11
-71.7635970687
21
-42.7805308719
31
0.0000000000
11
-70.5509865779
21
-43.6898791725
31
0.0000000000
0
SPLINE
5
34D
100
AcDbEntity
8
0
100
AcDbSpline
62
7
6
CONTINUOUS
70
0
71
3
72
8
73
4
74
2
42
0.0000001000
43
0.0000001000
44
0.0000000001
12
-0.0814107283
22
-0.2138737420
32
0.0000000000
13
-0.1116502187
23
-0.1996786827
33
0.0000000000
40
0.0000000000
40
0.0000000000
40
0.0000000000
40
0.0000000000
40
1.0000000000
40
1.0000000000
40
1.0000000000
40
1.0000000000
10
74.0269478814
20
-39.6233775667
30
0.0000000000
10
73.9998109720
20
-39.6946688140
30
0.0000000000
10
73.9673827082
20
-39.7639285984
30
0.0000000000
10
73.9301659687
20
-39.8304881593
30
0.0000000000
11
74.0269478814
21
-39.6233775667
31
0.0000000000
11
73.9301659687
21
-39.8304881593
31
0.0000000000
0
SPLINE
5
34E
100
AcDbEntity
8
0
100
AcDbSpline
62
9
6
CONTINUOUS
70
0
71
3
72
8
73
4
74
2
42
0.0000001000
43
0.0000001000
44
0.0000000001
12
0.1502058356
22
0.0002260699
32
0.0000000000
13
0.1499583465
23
0.0098709093
33
0.0000000000
40
0.0000000000
40
0.0000000000
40
0.0000000000
40
0.0000000000
40
1.0000000000
40
1.0000000000
40
1.0000000000
40
1.0000000000
10
72.1440128039
20
-40.7604591665
30
0.0000000000
10
72.1940814158
20
-40.7603838099
30
0.0000000000
10
72.2441705031
20
-40.7587064070
30
0.0000000000
10
72.2941566186
20
-40.7554161039
30
0.0000000000
11
72.1440128039
21
-40.7604591665
31
0.0000000000
11
72.2941566186
21
-40.7554161039
31
0.0000000000
0
SPLINE
5
34F
100
AcDbEntity
8
0
100
AcDbSpline
62
9
6
CONTINUOUS
70
0
71
3
72
9
73
5
74
3
42
0.0000001000
43
0.0000001000
44
0.0000000001
12
0.1477294043
22
0.0097241906
32
0.0000000000
13
0.1467888634
23
0.0191473227
33
0.0000000000
40
0.0000000000
40
0.0000000000
40
0.0000000000
40
0.0000000000
40
0.5010291559
40
1.0000000000
40
1.0000000000
40
1.0000000000
40
1.0000000000
10
72.2941566186
20
-40.7554161039
30
0.0000000000
10
72.3188288649
20
-40.7537920696
30
0.0000000000
10
72.3680219301
20
-40.7497664072
30
0.0000000000
10
72.4170559283
20
-40.7441702365
30
0.0000000000
10
72.4414703827
20
-40.7409855846
30
0.0000000000
11
72.2941566186
21
-40.7554161039
31
0.0000000000
11
72.3680832541
21
-40.7493638761
31
0.0000000000
11
72.4414703827
21
-40.7409855846
31
0.0000000000
0
SPLINE
5
350
100
AcDbEntity
8
0
100
AcDbSpline
62
9
6
CONTINUOUS
70
0
71
3
72
16
73
12
74
10
42
0.0000001000
43
0.0000001000
44
0.0000000001
12
1.6503131258
22
0.2152689061
32
0.0000000000
13
0.9260953134
23
1.3832489465
33
0.0000000000
40
0.0000000000
40
0.0000000000
40
0.0000000000
40
0.0000000000
40
0.0883849854
40
0.2200400045
40
0.3495032979
40
0.4758124818
40
0.5999166830
40
0.7229026771
40
0.8436691671
40
0.9612804385
40
1.0000000000
40
1.0000000000
40
1.0000000000
40
1.0000000000
10
72.4414703827
20
-40.7409855846
30
0.0000000000
10
72.4900913498
20
-40.7346434049
30
0.0000000000
10
72.6106220897
20
-40.7149804720
30
0.0000000000
10
72.7990649520
20
-40.6683286915
30
0.0000000000
10
73.0018088146
20
-40.5961602804
30
0.0000000000
10
73.1924464575
20
-40.5056678386
30
0.0000000000
10
73.3696354996
20
-40.3977833305
30
0.0000000000
10
73.5318013058
20
-40.2733517228
30
0.0000000000
10
73.6764886898
20
-40.1340809887
30
0.0000000000
10
73.7744329384
20
-40.0152275385
30
0.0000000000
10
73.8241285309
20
-39.9441076543
30
0.0000000000
10
73.8360811991
20
-39.9262547234
30
0.0000000000
11
72.4414703827
21
-40.7409855846
31
0.0000000000
11
72.5866150684
21
-40.7172807733
31
0.0000000000
11
72.7991935220
21
-40.6645315598
31
0.0000000000
11
73.0020526539
21
-40.5921691623
31
0.0000000000
11
73.1918129853
21
-40.5019118129
31
0.0000000000
11
73.3680661307
21
-40.3943850044
31
0.0000000000
11
73.5302698962
21
-40.2696756481
31
0.0000000000
11
73.6748808765
21
-40.1302022976
31
0.0000000000
11
73.7991704247
21
-39.9790877595
31
0.0000000000
11
73.8360811991
21
-39.9262547234
31
0.0000000000
0
SPLINE
5
351
100
AcDbEntity
8
0
100
AcDbSpline
62
9
6
CONTINUOUS
70
0
71
3
72
9
73
5
74
3
42
0.0000001000
43
0.0000001000
44
0.0000000001
12
0.0818493538
22
0.1222531102
32
0.0000000000
13
0.0702068820
23
0.1292950242
33
0.0000000000
40
0.0000000000
40
0.0000000000
40
0.0000000000
40
0.0000000000
40
0.8724328093
40
1.0000000000
40
1.0000000000
40
1.0000000000
40
1.0000000000
10
73.8360811991
20
-39.9262547234
30
0.0000000000
10
73.8598838863
20
-39.8907021819
30
0.0000000000
10
73.8855497277
20
-39.8488685362
30
0.0000000000
10
73.9092103193
20
-39.8059107718
30
0.0000000000
10
73.9121956842
20
-39.8004128375
30
0.0000000000
11
73.8360811991
21
-39.9262547234
31
0.0000000000
11
73.9031410567
21
-39.8168524812
31
0.0000000000
11
73.9121956842
21
-39.8004128375
31
0.0000000000
0
SPLINE
5
352
100
AcDbEntity
8
0
100
AcDbSpline
62
7
6
CONTINUOUS
70
0
71
3
72
8
73
4
74
2
42
0.0000001000
43
0.0000001000
44
0.0000000001
12
-0.0004126499
22
0.1608251059
32
0.0000000000
13
0.0001487025
23
0.1608258251
33
0.0000000000
40
0.0000000000
40
0.0000000000
40
0.0000000000
40
0.0000000000
40
1.0000000000
40
1.0000000000
40
1.0000000000
40
1.0000000000
10
72.1440128052
20
-40.7604617583
30
0.0000000000
10
72.1438752552
20
-40.7068533897
30
0.0000000000
10
72.1439156032
20
-40.6532447915
30
0.0000000000
10
72.1439651707
20
-40.5996361831
30
0.0000000000
11
72.1440128052
21
-40.7604617583
31
0.0000000000
11
72.1439651707
21
-40.5996361831
31
0.0000000000
0
SPLINE
5
353
100
AcDbEntity
8
0
100
AcDbSpline
62
7
6
CONTINUOUS
70
0
71
3
72
8
73
4
74
2
42
0.0000001000
43
0.0000001000
44
0.0000000001
12
0.0004122912
22
0.1608251066
32
0.0000000000
13
-0.0001485732
23
0.1608258246
33
0.0000000000
40
0.0000000000
40
0.0000000000
40
0.0000000000
40
0.0000000000
40
1.0000000000
40
1.0000000000
40
1.0000000000
40
1.0000000000
10
-72.2850343544
20
-40.7604617583
30
0.0000000000
10
-72.2848969241
20
-40.7068533895
30
0.0000000000
10
-72.2849372369
20
-40.6532447914
30
0.0000000000
10
-72.2849867613
20
-40.5996361832
30
0.0000000000
11
-72.2850343544
21
-40.7604617583
31
0.0000000000
11
-72.2849867613
21
-40.5996361832
31
0.0000000000
0
SPLINE
5
354
100
AcDbEntity
8
0
100
AcDbSpline
62
9
6
CONTINUOUS
70
0
71
3
72
9
73
5
74
3
42
0.0000001000
43
0.0000001000
44
0.0000000001
12
0.0702069096
22
-0.1292950887
32
0.0000000000
13
0.0818493927
23
-0.1222531682
33
0.0000000000
40
0.0000000000
40
0.0000000000
40
0.0000000000
40
0.0000000000
40
0.1275676041
40
1.0000000000
40
1.0000000000
40
1.0000000000
40
1.0000000000
10
-74.0532172687
20
-39.8004127860
30
0.0000000000
10
-74.0502318930
20
-39.8059107408
30
0.0000000000
10
-74.0265712910
20
-39.8488685262
30
0.0000000000
10
-74.0009054375
20
-39.8907021917
30
0.0000000000
10
-73.9771027502
20
-39.9262547332
30
0.0000000000
11
-74.0532172687
21
-39.8004127860
31
0.0000000000
11
-74.0441626079
21
-39.8168524910
31
0.0000000000
11
-73.9771027502
21
-39.9262547332
31
0.0000000000
0
SPLINE
5
355
100
AcDbEntity
8
0
100
AcDbSpline
62
9
6
CONTINUOUS
70
0
71
3
72
16
73
12
74
10
42
0.0000001000
43
0.0000001000
44
0.0000000001
12
0.9260953145
22
-1.3832489476
32
0.0000000000
13
1.6503131272
23
-0.2152689071
33
0.0000000000
40
0.0000000000
40
0.0000000000
40
0.0000000000
40
0.0000000000
40
0.0387195615
40
0.1563308329
40
0.2770973229
40
0.4000833169
40
0.5241875181
40
0.6504967019
40
0.7799599955
40
0.9116150147
40
1.0000000000
40
1.0000000000
40
1.0000000000
40
1.0000000000
10
-73.9771027502
20
-39.9262547332
30
0.0000000000
10
-73.9651500821
20
-39.9441076641
30
0.0000000000
10
-73.9154544895
20
-40.0152275484
30
0.0000000000
10
-73.8175102408
20
-40.1340809986
30
0.0000000000
10
-73.6728228568
20
-40.2733517329
30
0.0000000000
10
-73.5106570505
20
-40.3977833408
30
0.0000000000
10
-73.3334680085
20
-40.5056678491
30
0.0000000000
10
-73.1428303655
20
-40.5961602912
30
0.0000000000
10
-72.9400865027
20
-40.6683287026
30
0.0000000000
10
-72.7516436402
20
-40.7149804834
30
0.0000000000
10
-72.6311129001
20
-40.7346434163
30
0.0000000000
10
-72.5824919329
20
-40.7409855961
30
0.0000000000
11
-73.9771027502
21
-39.9262547332
31
0.0000000000
11
-73.9401919758
21
-39.9790877694
31
0.0000000000
11
-73.8159024275
21
-40.1302023076
31
0.0000000000
11
-73.6712914472
21
-40.2696756582
31
0.0000000000
11
-73.5090876816
21
-40.3943850148
31
0.0000000000
11
-73.3328345362
21
-40.5019118234
31
0.0000000000
11
-73.1430742048
21
-40.5921691730
31
0.0000000000
11
-72.9402150726
21
-40.6645315709
31
0.0000000000
11
-72.7276366187
21
-40.7172807847
31
0.0000000000
11
-72.5824919329
21
-40.7409855961
31
0.0000000000
0
SPLINE
5
356
100
AcDbEntity
8
0
100
AcDbSpline
62
9
6
CONTINUOUS
70
0
71
3
72
9
73
5
74
3
42
0.0000001000
43
0.0000001000
44
0.0000000001
12
0.2055235160
22
-0.0268087443
32
0.0000000000
13
0.2070969416
23
-0.0083604721
33
0.0000000000
40
0.0000000000
40
0.0000000000
40
0.0000000000
40
0.0000000000
40
0.3563746116
40
1.0000000000
40
1.0000000000
40
1.0000000000
40
1.0000000000
10
-72.5824919329
20
-40.7409855961
30
0.0000000000
10
-72.5580774785
20
-40.7441702480
30
0.0000000000
10
-72.4894234983
20
-40.7520056155
30
0.0000000000
10
-72.4204576889
20
-40.7567622142
30
0.0000000000
10
-72.3760267391
20
-40.7585558849
30
0.0000000000
11
-72.5824919329
21
-40.7409855961
31
0.0000000000
11
-72.5091048043
21
-40.7493638876
31
0.0000000000
11
-72.3760267391
21
-40.7585558849
31
0.0000000000
0
SPLINE
5
357
100
AcDbEntity
8
0
100
AcDbSpline
62
9
6
CONTINUOUS
70
0
71
3
72
8
73
4
74
2
42
0.0000001000
43
0.0000001000
44
0.0000000001
12
0.0909600348
22
-0.0036720428
32
0.0000000000
13
0.0909972892
23
-0.0001369570
33
0.0000000000
40
0.0000000000
40
0.0000000000
40
0.0000000000
40
0.0000000000
40
1.0000000000
40
1.0000000000
40
1.0000000000
40
1.0000000000
10
-72.3760267391
20
-40.7585558849
30
0.0000000000
10
-72.3457067275
20
-40.7597798991
30
0.0000000000
10
-72.3153667829
20
-40.7604135258
30
0.0000000000
10
-72.2850343532
20
-40.7604591781
30
0.0000000000
11
-72.3760267391
21
-40.7585558849
31
0.0000000000
11
-72.2850343532
21
-40.7604591781
31
0.0000000000
0
SPLINE
5
358
100
AcDbEntity
8
0
100
AcDbSpline
62
9
6
CONTINUOUS
70
0
71
3
72
10
73
6
74
4
42
0.0000001000
43
0.0000001000
44
0.0000000001
12
-0.9018689395
22
-0.0065592631
32
0.0000000000
13
-0.8245273676
23
0.3685827406
33
0.0000000000
40
0.0000000000
40
0.0000000000
40
0.0000000000
40
0.0000000000
40
0.3987900314
40
0.7978156691
40
1.0000000000
40
1.0000000000
40
1.0000000000
40
1.0000000000
10
-69.4481523509
20
-43.9874947963
30
0.0000000000
10
-69.5680377985
20
-43.9883667192
30
0.0000000000
10
-69.8084974793
20
-43.9711695450
30
0.0000000000
10
-70.1020399985
20
-43.8999144203
30
0.0000000000
10
-70.2707725094
20
-43.8338513522
30
0.0000000000
10
-70.3263413474
20
-43.8090108006
30
0.0000000000
11
-69.4481523509
21
-43.9874947963
31
0.0000000000
11
-69.8068606785
21
-43.9612676573
31
0.0000000000
11
-70.1564081930
21
-43.8756583160
31
0.0000000000
11
-70.3263413474
21
-43.8090108006
31
0.0000000000
0
SPLINE
5
359
100
AcDbEntity
8
0
100
AcDbSpline
62
9
6
CONTINUOUS
70
0
71
3
72
8
73
4
74
2
42
0.0000001000
43
0.0000001000
44
0.0000000001
12
-0.0546003711
22
0.0244076246
32
0.0000000000
13
-0.0538124827
23
0.0260961206
33
0.0000000000
40
0.0000000000
40
0.0000000000
40
0.0000000000
40
0.0000000000
40
1.0000000000
40
1.0000000000
40
1.0000000000
40
1.0000000000
10
-70.3263413474
20
-43.8090108006
30
0.0000000000
10
-70.3445414712
20
-43.8008749257
30
0.0000000000
10
-70.3626155310
20
-43.7924575881
30
0.0000000000
10
-70.3805530252
20
-43.7837588812
30
0.0000000000
11
-70.3263413474
21
-43.8090108006
31
0.0000000000
11
-70.3805530252
21
-43.7837588812
31
0.0000000000
0
SPLINE
5
35A
100
AcDbEntity
8
0
100
AcDbSpline
62
9
6
CONTINUOUS
70
0
71
3
72
8
73
4
74
2
42
0.0000001000
43
0.0000001000
44
0.0000000001
12
-0.0445802286
22
0.0216189806
32
0.0000000000
13
-0.0439999605
23
0.0227774553
33
0.0000000000
40
0.0000000000
40
0.0000000000
40
0.0000000000
40
0.0000000000
40
1.0000000000
40
1.0000000000
40
1.0000000000
40
1.0000000000
10
-70.3805530252
20
-43.7837588812
30
0.0000000000
10
-70.3954131014
20
-43.7765525543
30
0.0000000000
10
-70.4101794517
20
-43.7691531217
30
0.0000000000
10
-70.4248461051
20
-43.7615606366
30
0.0000000000
11
-70.3805530252
21
-43.7837588812
31
0.0000000000
11
-70.4248461051
21
-43.7615606366
31
0.0000000000
0
SPLINE
5
35B
100
AcDbEntity
8
0
100
AcDbSpline
62
9
6
CONTINUOUS
70
0
71
3
72
9
73
5
74
3
42
0.0000001000
43
0.0000001000
44
0.0000000001
12
-0.0741057321
22
0.0383623073
32
0.0000000000
13
-0.0723227197
23
0.0416456859
33
0.0000000000
40
0.0000000000
40
0.0000000000
40
0.0000000000
40
0.0000000000
40
0.7349141692
40
1.0000000000
40
1.0000000000
40
1.0000000000
40
1.0000000000
10
-70.4248461051
20
-43.7615606366
30
0.0000000000
10
-70.4429998893
20
-43.7521629689
30
0.0000000000
10
-70.4674939659
20
-43.7389730839
30
0.0000000000
10
-70.4916842782
20
-43.7252357717
30
0.0000000000
10
-70.4980748543
20
-43.7215558780
30
0.0000000000
11
-70.4248461051
21
-43.7615606366
31
0.0000000000
11
-70.4788379145
21
-43.7324804373
31
0.0000000000
11
-70.4980748543
21
-43.7215558780
31
0.0000000000
0
SPLINE
5
35C
100
AcDbEntity
8
0
100
AcDbSpline
62
9
6
CONTINUOUS
70
0
71
3
72
8
73
4
74
2
42
0.0000001000
43
0.0000001000
44
0.0000000001
12
-0.0534416801
22
0.0307733923
32
0.0000000000
13
-0.0523809652
23
0.0325510978
33
0.0000000000
40
0.0000000000
40
0.0000000000
40
0.0000000000
40
0.0000000000
40
1.0000000000
40
1.0000000000
40
1.0000000000
40
1.0000000000
10
-70.4980748543
20
-43.7215558780
30
0.0000000000
10
-70.5158887476
20
-43.7112980805
30
0.0000000000
10
-70.5335322154
20
-43.7007424714
30
0.0000000000
10
-70.5509925372
20
-43.6898921055
30
0.0000000000
11
-70.4980748543
21
-43.7215558780
31
0.0000000000
11
-70.5509925372
21
-43.6898921055
31
0.0000000000
0
SPLINE
5
35D
100
AcDbEntity
8
0
100
AcDbSpline
62
7
6
CONTINUOUS
70
0
71
3
72
8
73
4
74
2
42
0.0000001000
43
0.0000001000
44
0.0000000001
12
-0.1513472328
22
0.0000000079
32
0.0000000000
13
-0.1512535026
23
0.0096861093
33
0.0000000000
40
0.0000000000
40
0.0000000000
40
0.0000000000
40
0.0000000000
40
1.0000000000
40
1.0000000000
40
1.0000000000
40
1.0000000000
10
-72.2850343530
20
-40.7869174593
30
0.0000000000
10
-72.3354834306
20
-40.7869174567
30
0.0000000000
10
-72.3859798036
20
-40.7853088392
30
0.0000000000
10
-72.4363976378
20
-40.7820801361
30
0.0000000000
11
-72.2850343530
21
-40.7869174593
31
0.0000000000
11
-72.4363976378
21
-40.7820801361
31
0.0000000000
0
SPLINE
5
35E
100
AcDbEntity
8
0
100
AcDbSpline
62
7
6
CONTINUOUS
70
0
71
3
72
8
73
4
74
2
42
0.0000001000
43
0.0000001000
44
0.0000000001
12
-0.1502365230
22
0.0096209831
32
0.0000000000
13
-0.1494016660
23
0.0192449436
33
0.0000000000
40
0.0000000000
40
0.0000000000
40
0.0000000000
40
0.0000000000
40
1.0000000000
40
1.0000000000
40
1.0000000000
40
1.0000000000
10
-72.4363976378
20
-40.7820801361
30
0.0000000000
10
-72.4864764788
20
-40.7788731417
30
0.0000000000
10
-72.5364778336
20
-40.7740677744
30
0.0000000000
10
-72.5862783889
20
-40.7676527931
30
0.0000000000
11
-72.4363976378
21
-40.7820801361
31
0.0000000000
11
-72.5862783889
21
-40.7676527931
31
0.0000000000
0
SPLINE
5
35F
100
AcDbEntity
8
0
100
AcDbSpline
62
7
6
CONTINUOUS
70
0
71
3
72
12
73
8
74
6
42
0.0000001000
43
0.0000001000
44
0.0000000001
12
-1.8057270490
22
0.2326019263
32
0.0000000000
13
-0.8887691224
23
1.5894925740
33
0.0000000000
40
0.0000000000
40
0.0000000000
40
0.0000000000
40
0.0000000000
40
0.0821388410
40
0.3243942579
40
0.5585636996
40
0.7829994199
40
1.0000000000
40
1.0000000000
40
1.0000000000
40
1.0000000000
10
-72.5862783889
20
-40.7676527931
30
0.0000000000
10
-72.6357184979
20
-40.7612842423
30
0.0000000000
10
-72.8301927393
20
-40.7298674395
30
0.0000000000
10
-73.1564961332
20
-40.6328714750
30
0.0000000000
10
-73.5334191637
20
-40.4309397320
30
0.0000000000
10
-73.8470605853
20
-40.1629713294
30
0.0000000000
10
-74.0068977710
20
-39.9454652443
30
0.0000000000
10
-74.0711855760
20
-39.8304916407
30
0.0000000000
11
-72.5862783889
21
-40.7676527931
31
0.0000000000
11
-72.7338843513
21
-40.7437769477
31
0.0000000000
11
-73.1555062436
21
-40.6173668492
31
0.0000000000
11
-73.5298580551
21
-40.4151601880
31
0.0000000000
11
-73.8388557876
21
-40.1490577427
31
0.0000000000
11
-74.0711855760
21
-39.8304916407
31
0.0000000000
0
SPLINE
5
360
100
AcDbEntity
8
0
100
AcDbSpline
62
7
6
CONTINUOUS
70
0
71
3
72
12
73
8
74
6
42
0.0000001000
43
0.0000001000
44
0.0000000001
12
-0.8887468972
22
-1.5894622665
32
0.0000000000
13
-1.8056826973
23
-0.2326323330
33
0.0000000000
40
0.0000000000
40
0.0000000000
40
0.0000000000
40
0.0000000000
40
0.2172481100
40
0.4415614418
40
0.6755873263
40
0.9178516696
40
1.0000000000
40
1.0000000000
40
1.0000000000
40
1.0000000000
10
73.9301659687
20
-39.8304881593
30
0.0000000000
10
73.8658064408
20
-39.9455907170
30
0.0000000000
10
73.7058944849
20
-40.1631358482
30
0.0000000000
10
73.3922265178
20
-40.4310332606
30
0.0000000000
10
73.0154477280
20
-40.6328730601
30
0.0000000000
10
72.6892272299
20
-40.7298544637
30
0.0000000000
10
72.4947469219
20
-40.7612768018
30
0.0000000000
10
72.4453023156
20
-40.7676469210
30
0.0000000000
11
73.9301659687
21
-39.8304881593
31
0.0000000000
11
73.6975360164
21
-40.1493798029
31
0.0000000000
11
73.3886668584
21
-40.4152766610
31
0.0000000000
11
73.0145458385
21
-40.6173415532
31
0.0000000000
11
72.5929215328
21
-40.7437654641
31
0.0000000000
11
72.4453023156
21
-40.7676469210
31
0.0000000000
0
SPLINE
5
361
100
AcDbEntity
8
0
100
AcDbSpline
62
7
6
CONTINUOUS
70
0
71
3
72
8
73
4
74
2
42
0.0000001000
43
0.0000001000
44
0.0000000001
12
-0.2087835737
22
-0.0268983083
32
0.0000000000
13
-0.2101271945
23
-0.0081296419
33
0.0000000000
40
0.0000000000
40
0.0000000000
40
0.0000000000
40
0.0000000000
40
1.0000000000
40
1.0000000000
40
1.0000000000
40
1.0000000000
10
72.4453023156
20
-40.7676469210
30
0.0000000000
10
72.3757077910
20
-40.7766130238
30
0.0000000000
10
72.3057210607
20
-40.7824356749
30
0.0000000000
10
72.2356786625
20
-40.7851455555
30
0.0000000000
11
72.4453023156
21
-40.7676469210
31
0.0000000000
11
72.2356786625
21
-40.7851455555
31
0.0000000000
0
SPLINE
5
362
100
AcDbEntity
8
0
100
AcDbSpline
62
7
6
CONTINUOUS
70
0
71
3
72
8
73
4
74
2
42
0.0000001000
43
0.0000001000
44
0.0000000001
12
-0.0916620152
22
-0.0035463252
32
0.0000000000
13
-0.0916417668
23
-0.0000000048
33
0.0000000000
40
0.0000000000
40
0.0000000000
40
0.0000000000
40
0.0000000000
40
1.0000000000
40
1.0000000000
40
1.0000000000
40
1.0000000000
10
72.2356786625
20
-40.7851455555
30
0.0000000000
10
72.2051246574
20
-40.7863276639
30
0.0000000000
10
72.1745600593
20
-40.7869174455
30
0.0000000000
10
72.1440128037
20
-40.7869174471
30
0.0000000000
11
72.2356786625
21
-40.7851455555
31
0.0000000000
11
72.1440128037
21
-40.7869174471
31
0.0000000000
0
SPLINE
5
363
100
AcDbEntity
8
0
100
AcDbSpline
62
9
6
CONTINUOUS
70
0
71
3
72
8
73
4
74
2
42
0.0000001000
43
0.0000001000
44
0.0000000001
12
-0.0483610763
22
-0.0300538530
32
0.0000000000
13
-0.0492677906
23
-0.0285392213
33
0.0000000000
40
0.0000000000
40
0.0000000000
40
0.0000000000
40
0.0000000000
40
1.0000000000
40
1.0000000000
40
1.0000000000
40
1.0000000000
10
70.4099914592
20
-43.6898793341
30
0.0000000000
10
70.3938711004
20
-43.6998972851
30
0.0000000000
10
70.3775946183
20
-43.7096639940
30
0.0000000000
10
70.3611720214
20
-43.7191770678
30
0.0000000000
11
70.4099914592
21
-43.6898793341
31
0.0000000000
11
70.3611720214
21
-43.7191770678
31
0.0000000000
0
SPLINE
5
364
100
AcDbEntity
8
0
100
AcDbSpline
62
9
6
CONTINUOUS
70
0
71
3
72
9
73
5
74
3
42
0.0000001000
43
0.0000001000
44
0.0000000001
12
-0.0702680324
22
-0.0407039751
32
0.0000000000
13
-0.0719678200
23
-0.0375961428
33
0.0000000000
40
0.0000000000
40
0.0000000000
40
0.0000000000
40
0.0000000000
40
0.3458338552
40
1.0000000000
40
1.0000000000
40
1.0000000000
40
1.0000000000
10
70.3611720214
20
-43.7191770678
30
0.0000000000
10
70.3530716666
20
-43.7238693387
30
0.0000000000
10
70.3295461991
20
-43.7372589010
30
0.0000000000
10
70.3057335501
20
-43.7501301228
30
0.0000000000
10
70.2900405796
20
-43.7583281640
30
0.0000000000
11
70.3611720214
21
-43.7191770678
31
0.0000000000
11
70.3367655132
21
-43.7330684725
31
0.0000000000
11
70.2900405796
21
-43.7583281640
31
0.0000000000
0
SPLINE
5
365
100
AcDbEntity
8
0
100
AcDbSpline
62
9
6
CONTINUOUS
70
0
71
3
72
8
73
4
74
2
42
0.0000001000
43
0.0000001000
44
0.0000000001
12
-0.0470279432
22
-0.0245674979
32
0.0000000000
13
-0.0476977053
23
-0.0232389388
33
0.0000000000
40
0.0000000000
40
0.0000000000
40
0.0000000000
40
0.0000000000
40
1.0000000000
40
1.0000000000
40
1.0000000000
40
1.0000000000
10
70.2900405796
20
-43.7583281640
30
0.0000000000
10
70.2743645985
20
-43.7665173300
30
0.0000000000
10
70.2585733259
20
-43.7744850999
30
0.0000000000
10
70.2426740908
20
-43.7822314128
30
0.0000000000
11
70.2900405796
21
-43.7583281640
31
0.0000000000
11
70.2426740908
21
-43.7822314128
31
0.0000000000
0
SPLINE
5
366
100
AcDbEntity
8
0
100
AcDbSpline
62
9
6
CONTINUOUS
70
0
71
3
72
8
73
4
74
2
42
0.0000001000
43
0.0000001000
44
0.0000000001
12
-0.0543671584
22
-0.0264883826
32
0.0000000000
13
-0.0551761913
23
-0.0247618021
33
0.0000000000
40
0.0000000000
40
0.0000000000
40
0.0000000000
40
0.0000000000
40
1.0000000000
40
1.0000000000
40
1.0000000000
40
1.0000000000
10
70.2426740908
20
-43.7822314128
30
0.0000000000
10
70.2245517046
20
-43.7910608737
30
0.0000000000
10
70.2062890529
20
-43.7996026161
30
0.0000000000
10
70.1878969891
20
-43.8078565502
30
0.0000000000
11
70.2426740908
21
-43.7822314128
31
0.0000000000
11
70.1878969891
21
-43.8078565502
31
0.0000000000
0
SPLINE
5
367
100
AcDbEntity
8
0
100
AcDbSpline
62
9
6
CONTINUOUS
70
0
71
3
72
10
73
6
74
4
42
0.0000001000
43
0.0000001000
44
0.0000000001
12
-0.8265626248
22
-0.3709422418
32
0.0000000000
13
-0.9046913958
23
0.0065797943
33
0.0000000000
40
0.0000000000
40
0.0000000000
40
0.0000000000
40
0.0000000000
40
0.2055997024
40
0.6028713503
40
1.0000000000
40
1.0000000000
40
1.0000000000
40
1.0000000000
10
70.1878969891
20
-43.8078565502
30
0.0000000000
10
70.1312499792
20
-43.8332784217
30
0.0000000000
10
69.9615466065
20
-43.8998162149
30
0.0000000000
10
69.6670689119
20
-43.9712085828
30
0.0000000000
10
69.4268904319
20
-43.9883658103
30
0.0000000000
10
69.3071308078
20
-43.9874948020
30
0.0000000000
11
70.1878969891
21
-43.8078565502
31
0.0000000000
11
70.0145901753
21
-43.8759288920
31
0.0000000000
11
69.6654649120
21
-43.9613260085
31
0.0000000000
11
69.3071308078
21
-43.9874948020
31
0.0000000000
0
SPLINE
5
368
100
AcDbEntity
8
0
100
AcDbSpline
62
9
6
CONTINUOUS
70
0
71
3
72
10
73
6
74
4
42
0.0000001000
43
0.0000001000
44
0.0000000001
12
2.0779756292
22
-3.7851379862
32
0.0000000000
13
3.6538880339
23
-2.3009464413
33
0.0000000000
40
0.0000000000
40
0.0000000000
40
0.0000000000
40
0.0000000000
40
0.3582574195
40
0.6896595086
40
1.0000000000
40
1.0000000000
40
1.0000000000
40
1.0000000000
10
-72.2850342627
20
-40.7869202512
30
0.0000000000
10
-72.0368842005
20
-41.2389381737
30
0.0000000000
10
-71.5057278041
20
-42.0820085262
30
0.0000000000
10
-70.5567030287
20
-43.1724841586
30
0.0000000000
10
-69.8261353103
20
-43.7494705862
30
0.0000000000
10
-69.4481521743
20
-43.9874962026
30
0.0000000000
11
-72.2850342627
21
-40.7869202512
31
0.0000000000
11
-71.4517593566
21
-42.0902777737
31
0.0000000000
11
-70.5043033926
21
-43.1626982814
31
0.0000000000
11
-69.4481521743
21
-43.9874962026
31
0.0000000000
0
SPLINE
5
369
100
AcDbEntity
8
0
100
AcDbSpline
62
9
6
CONTINUOUS
70
0
71
3
72
10
73
6
74
4
42
0.0000001000
43
0.0000001000
44
0.0000000001
12
3.6538880977
22
2.3009463404
32
0.0000000000
13
2.0779756678
23
3.7851379653
33
0.0000000000
40
0.0000000000
40
0.0000000000
40
0.0000000000
40
0.0000000000
40
0.3103395386
40
0.6417415356
40
1.0000000000
40
1.0000000000
40
1.0000000000
40
1.0000000000
10
69.3071306315
20
-43.9874962027
30
0.0000000000
10
69.6851126136
20
-43.7494713275
30
0.0000000000
10
70.4156792884
20
-43.1724860900
30
0.0000000000
10
71.3647046438
20
-42.0820109477
30
0.0000000000
10
71.8958619225
20
-41.2389394903
30
0.0000000000
10
72.1440127131
20
-40.7869202520
30
0.0000000000
11
69.3071306315
21
-43.9874962027
31
0.0000000000
11
70.3632788487
21
-43.1627011231
31
0.0000000000
11
71.3107350989
21
-42.0902813983
31
0.0000000000
11
72.1440127131
21
-40.7869202520
31
0.0000000000
0
SPLINE
5
36A
100
AcDbEntity
8
0
100
AcDbSpline
62
7
6
CONTINUOUS
70
0
71
3
72
12
73
8
74
6
42
0.0000001000
43
0.0000001000
44
0.0000000001
12
3.1261215922
22
0.0000020859
32
0.0000000000
13
0.0000105543
23
-3.1261215921
33
0.0000000000
40
0.0000000000
40
0.0000000000
40
0.0000000000
40
0.0000000000
40
0.1991023794
40
0.4003486986
40
0.5998211528
40
0.8013045376
40
1.0000000000
40
1.0000000000
40
1.0000000000
40
1.0000000000
10
72.2300215636
20
44.7808297725
30
0.0000000000
10
72.4374943127
20
44.7808299109
30
0.0000000000
10
72.8575604431
20
44.7149630070
30
0.0000000000
10
73.4237232754
20
44.4271986747
30
0.0000000000
10
73.8752511069
20
43.9764244132
30
0.0000000000
10
74.1635717835
20
43.4106520189
30
0.0000000000
10
74.2294922704
20
42.9907604828
30
0.0000000000
10
74.2294929695
20
42.7837117577
30
0.0000000000
11
72.2300215636
21
44.7808297725
31
0.0000000000
11
72.8448779158
21
44.6841026261
31
0.0000000000
11
73.4057810347
21
44.3991811473
31
0.0000000000
11
73.8470507643
21
43.9585827037
31
0.0000000000
11
74.1328473428
21
43.3972932062
31
0.0000000000
11
74.2294929695
21
42.7837117577
31
0.0000000000
0
SPLINE
5
36B
100
AcDbEntity
8
0
100
AcDbSpline
62
7
6
CONTINUOUS
70
0
71
3
72
12
73
8
74
6
42
0.0000001000
43
0.0000001000
44
0.0000000001
12
0.0000105554
22
3.1261215919
32
0.0000000000
13
3.1261215919
23
-0.0000001872
33
0.0000000000
40
0.0000000000
40
0.0000000000
40
0.0000000000
40
0.0000000000
40
0.1986954627
40
0.4001788476
40
0.5996513018
40
0.8008976209
40
1.0000000000
40
1.0000000000
40
1.0000000000
40
1.0000000000
10
-74.3705145151
20
42.7837117573
30
0.0000000000
10
-74.3705138160
20
42.9907604826
30
0.0000000000
10
-74.3045933296
20
43.4106520181
30
0.0000000000
10
-74.0162726518
20
43.9764244178
30
0.0000000000
10
-73.5647448200
20
44.4271986590
30
0.0000000000
10
-72.9985819875
20
44.7149630644
30
0.0000000000
10
-72.5785158579
20
44.7808297849
30
0.0000000000
10
-72.3710431091
20
44.7808297725
30
0.0000000000
11
-74.3705145151
21
42.7837117573
31
0.0000000000
11
-74.2738688885
21
43.3972932066
31
0.0000000000
11
-73.9880723091
21
43.9585827042
31
0.0000000000
11
-73.5468025792
21
44.3991811472
31
0.0000000000
11
-72.9858994601
21
44.6841026252
31
0.0000000000
11
-72.3710431091
21
44.7808297725
31
0.0000000000
0
SPLINE
5
36C
100
AcDbEntity
8
0
100
AcDbSpline
62
7
6
CONTINUOUS
70
0
71
3
72
15
73
11
74
9
42
0.0000001000
43
0.0000001000
44
0.0000000001
12
1.2420576025
22
-1.5106877730
32
0.0000000000
13
0.0000000000
23
-6.0028179033
33
0.0000000000
40
0.0000000000
40
0.0000000000
40
0.0000000000
40
0.0000000000
40
0.0007556529
40
0.0174632674
40
0.0862514835
40
0.2025507097
40
0.3623373908
40
0.5545001420
40
0.7715595737
40
1.0000000000
40
1.0000000000
40
1.0000000000
40
1.0000000000
10
39.6842760541
20
-16.9411280077
30
0.0000000000
10
39.6845889089
20
-16.9415085262
30
0.0000000000
10
39.6919285151
20
-16.9518358407
30
0.0000000000
10
39.7409287915
20
-17.1821992834
30
0.0000000000
10
39.7227440310
20
-17.5207588763
30
0.0000000000
10
39.7630851392
20
-18.2489082161
30
0.0000000000
10
39.7700437841
20
-19.1692892604
30
0.0000000000
10
39.7858497376
20
-20.3136782231
30
0.0000000000
10
39.7925609267
20
-21.5876497477
30
0.0000000000
10
39.7945790974
20
-22.4795346076
30
0.0000000000
10
39.7945790974
20
-22.9366300345
30
0.0000000000
11
39.6842760541
21
-16.9411280077
31
0.0000000000
11
39.6852289264
21
-16.9424702664
31
0.0000000000
11
39.7091922070
21
-17.0398581525
31
0.0000000000
11
39.7323197661
21
-17.4521330994
31
0.0000000000
11
39.7529957522
21
-18.1499499339
31
0.0000000000
11
39.7704996957
21
-19.1089605552
31
0.0000000000
11
39.7836012832
21
-20.2624041526
31
0.0000000000
11
39.7918071795
21
-21.5653465552
31
0.0000000000
11
39.7945790974
21
-22.9366300345
31
0.0000000000
0
SPLINE
5
36D
100
AcDbEntity
8
0
100
AcDbSpline
62
7
6
CONTINUOUS
70
0
71
3
72
15
73
11
74
9
42
0.0000001000
43
0.0000001000
44
0.0000000001
12
-1.2420579979
22
-1.5106881178
32
0.0000000000
13
0.0000000000
23
-6.0028179060
33
0.0000000000
40
0.0000000000
40
0.0000000000
40
0.0000000000
40
0.0000000000
40
0.0007556547
40
0.0174632621
40
0.0862514736
40
0.2025506978
40
0.3623373793
40
0.5545001331
40
0.7715595688
40
1.0000000000
40
1.0000000000
40
1.0000000000
40
1.0000000000
10
-39.8252975933
20
-16.9411280133
30
0.0000000000
10
-39.8256104489
20
-16.9415085328
30
0.0000000000
10
-39.8329500556
20
-16.9518358496
30
0.0000000000
10
-39.8819503480
20
-17.1821992293
30
0.0000000000
10
-39.8637655644
20
-17.5207588336
30
0.0000000000
10
-39.9041066883
20
-18.2489081412
30
0.0000000000
10
-39.9110653269
20
-19.1692891961
30
0.0000000000
10
-39.9268712834
20
-20.3136781708
30
0.0000000000
10
-39.9335824720
20
-21.5876497198
30
0.0000000000
10
-39.9356006429
20
-22.4795345976
30
0.0000000000
10
-39.9356006429
20
-22.9366300345
30
0.0000000000
11
-39.8252975933
21
-16.9411280133
31
0.0000000000
11
-39.8262504682
21
-16.9424702759
31
0.0000000000
11
-39.8502137494
21
-17.0398581183
31
0.0000000000
11
-39.8733413092
21
-17.4521330373
31
0.0000000000
11
-39.8940172961
21
-18.1499498599
31
0.0000000000
11
-39.9115212403
21
-19.1089604846
31
0.0000000000
11
-39.9246228283
21
-20.2624040981
31
0.0000000000
11
-39.9328287250
21
-21.5653465255
31
0.0000000000
11
-39.9356006429
21
-22.9366300345
31
0.0000000000
0
SPLINE
5
36E
100
AcDbEntity
8
0
100
AcDbSpline
62
7
6
CONTINUOUS
70
0
71
3
72
8
73
4
74
2
42
0.0000001000
43
0.0000001000
44
0.0000000001
12
0.0000000210
22
-0.5405626349
32
0.0000000000
13
-0.1895833591
23
-0.5097883370
33
0.0000000000
40
0.0000000000
40
0.0000000000
40
0.0000000000
40
0.0000000000
40
1.0000000000
40
1.0000000000
40
1.0000000000
40
1.0000000000
10
74.2294892272
20
-38.8684426781
30
0.0000000000
10
74.2294892342
20
-39.0486302230
30
0.0000000000
10
74.1960199079
20
-39.2303629079
30
0.0000000000
10
74.1328254548
20
-39.4002923536
30
0.0000000000
11
74.2294892272
21
-38.8684426781
31
0.0000000000
11
74.1328254548
21
-39.4002923536
31
0.0000000000
0
SPLINE
5
36F
100
AcDbEntity
8
0
100
AcDbSpline
62
7
6
CONTINUOUS
70
0
71
3
72
8
73
4
74
2
42
0.0000001000
43
0.0000001000
44
0.0000000001
12
-0.0647599260
22
-0.1741389915
32
0.0000000000
13
-0.0845980470
23
-0.1651361414
33
0.0000000000
40
0.0000000000
40
0.0000000000
40
0.0000000000
40
0.0000000000
40
1.0000000000
40
1.0000000000
40
1.0000000000
40
1.0000000000
10
74.1328254548
20
-39.4002923536
30
0.0000000000
10
74.1112388128
20
-39.4583386841
30
0.0000000000
10
74.0861837166
20
-39.5150077624
30
0.0000000000
10
74.0579843676
20
-39.5700531429
30
0.0000000000
11
74.1328254548
21
-39.4002923536
31
0.0000000000
11
74.0579843676
21
-39.5700531429
31
0.0000000000
0
SPLINE
5
370
100
AcDbEntity
8
0
100
AcDbSpline
62
7
6
CONTINUOUS
70
0
71
3
72
8
73
4
74
2
42
0.0000001000
43
0.0000001000
44
0.0000000001
12
-0.0282028173
22
-0.0550521507
32
0.0000000000
13
-0.0302634658
23
-0.0539420262
33
0.0000000000
40
0.0000000000
40
0.0000000000
40
0.0000000000
40
0.0000000000
40
1.0000000000
40
1.0000000000
40
1.0000000000
40
1.0000000000
10
74.0579843676
20
-39.5700531429
30
0.0000000000
10
74.0485834285
20
-39.5884038598
30
0.0000000000
10
74.0388330420
20
-39.6065741214
30
0.0000000000
10
74.0287452201
20
-39.6245547968
30
0.0000000000
11
74.0579843676
21
-39.5700531429
31
0.0000000000
11
74.0287452201
21
-39.6245547968
31
0.0000000000
0
SPLINE
5
371
100
AcDbEntity
8
0
100
AcDbSpline
62
7
6
CONTINUOUS
70
0
71
3
72
9
73
5
74
3
42
0.0000001000
43
0.0000001000
44
0.0000000001
12
-0.2504119875
22
-0.4463378414
32
0.0000000000
13
-0.3686966114
23
-0.3542886410
33
0.0000000000
40
0.0000000000
40
0.0000000000
40
0.0000000000
40
0.0000000000
40
0.6245426339
40
1.0000000000
40
1.0000000000
40
1.0000000000
40
1.0000000000
10
74.0287452201
20
-39.6245547968
30
0.0000000000
10
73.9766142327
20
-39.7174738005
30
0.0000000000
10
73.8787149196
20
-39.8581464236
30
0.0000000000
10
73.7619628015
20
-39.9826082520
30
0.0000000000
10
73.7158195153
20
-40.0269483453
30
0.0000000000
11
74.0287452201
21
-39.6245547968
31
0.0000000000
11
73.8469760404
21
-39.8868628244
31
0.0000000000
11
73.7158195153
21
-40.0269483453
31
0.0000000000
0
SPLINE
5
372
100
AcDbEntity
8
0
100
AcDbSpline
62
7
6
CONTINUOUS
70
0
71
3
72
10
73
6
74
4
42
0.0000001000
43
0.0000001000
44
0.0000000001
12
-1.1770077712
22
-1.1310125204
32
0.0000000000
13
-1.6260389605
23
-0.0000021046
33
0.0000000000
40
0.0000000000
40
0.0000000000
40
0.0000000000
40
0.0000000000
40
0.2413591602
40
0.6183433068
40
1.0000000000
40
1.0000000000
40
1.0000000000
40
1.0000000000
10
73.7158195153
20
-40.0269483453
30
0.0000000000
10
73.6211256463
20
-40.1179417560
30
0.0000000000
10
73.3536273790
20
-40.3252731958
30
0.0000000000
10
72.8499466657
20
-40.5441208298
30
0.0000000000
10
72.4365327070
20
-40.5996359594
30
0.0000000000
10
72.2296698228
20
-40.5996362272
30
0.0000000000
11
73.7158195153
21
-40.0269483453
31
0.0000000000
11
73.4056033177
21
-40.2688267923
31
0.0000000000
11
72.8445709342
21
-40.5158096263
31
0.0000000000
11
72.2296698228
21
-40.5996362272
31
0.0000000000
0
SPLINE
5
373
100
AcDbEntity
8
0
100
AcDbSpline
62
7
6
CONTINUOUS
70
0
71
3
72
10
73
6
74
4
42
0.0000001000
43
0.0000001000
44
0.0000000001
12
-1.6260389611
22
0.0000009054
32
0.0000000000
13
-1.1770077711
23
1.1310125497
33
0.0000000000
40
0.0000000000
40
0.0000000000
40
0.0000000000
40
0.0000000000
40
0.3816566929
40
0.7586408386
40
1.0000000000
40
1.0000000000
40
1.0000000000
40
1.0000000000
10
-72.3706913684
20
-40.5996362272
30
0.0000000000
10
-72.5775542525
20
-40.5996361120
30
0.0000000000
10
-72.9909682102
20
-40.5441207565
30
0.0000000000
10
-73.4946489239
20
-40.3252732024
30
0.0000000000
10
-73.7621471916
20
-40.1179417595
30
0.0000000000
10
-73.8568410611
20
-40.0269483460
30
0.0000000000
11
-72.3706913684
21
-40.5996362272
31
0.0000000000
11
-72.9855924792
21
-40.5158096242
31
0.0000000000
11
-73.5466248617
21
-40.2688267908
31
0.0000000000
11
-73.8568410611
21
-40.0269483460
31
0.0000000000
0
SPLINE
5
374
100
AcDbEntity
8
0
100
AcDbSpline
62
7
6
CONTINUOUS
70
0
71
3
72
9
73
5
74
3
42
0.0000001000
43
0.0000001000
44
0.0000000001
12
-0.3686810751
22
0.3542737211
32
0.0000000000
13
-0.2504072761
23
0.4463157504
33
0.0000000000
40
0.0000000000
40
0.0000000000
40
0.0000000000
40
0.0000000000
40
0.3754731831
40
1.0000000000
40
1.0000000000
40
1.0000000000
40
1.0000000000
10
-73.8568410611
20
-40.0269483460
30
0.0000000000
10
-73.9029843467
20
-39.9826082521
30
0.0000000000
10
-74.0197315451
20
-39.8581516647
30
0.0000000000
10
-74.1176275272
20
-39.7174856522
30
0.0000000000
10
-74.1697562135
20
-39.6245736006
30
0.0000000000
11
-73.8568410611
21
-40.0269483460
31
0.0000000000
11
-73.9879975845
21
-39.8868628235
31
0.0000000000
11
-74.1697562135
21
-39.6245736006
31
0.0000000000
0
SPLINE
5
375
100
AcDbEntity
8
0
100
AcDbSpline
62
7
6
CONTINUOUS
70
0
71
3
72
8
73
4
74
2
42
0.0000001000
43
0.0000001000
44
0.0000000001
12
-0.0302747221
22
0.0539604340
32
0.0000000000
13
-0.0282126492
23
0.0550713421
33
0.0000000000
40
0.0000000000
40
0.0000000000
40
0.0000000000
40
0.0000000000
40
1.0000000000
40
1.0000000000
40
1.0000000000
40
1.0000000000
10
-74.1697562135
20
-39.6245736006
30
0.0000000000
10
-74.1798477876
20
-39.6065867892
30
0.0000000000
10
-74.1896016950
20
-39.5884102563
30
0.0000000000
10
-74.1990059114
20
-39.5700531422
30
0.0000000000
11
-74.1697562135
21
-39.6245736006
31
0.0000000000
11
-74.1990059114
21
-39.5700531422
31
0.0000000000
0
SPLINE
5
376
100
AcDbEntity
8
0
100
AcDbSpline
62
7
6
CONTINUOUS
70
0
71
3
72
8
73
4
74
2
42
0.0000001000
43
0.0000001000
44
0.0000000001
12
-0.0845980475
22
0.1651361409
32
0.0000000000
13
-0.0647599267
23
0.1741389914
33
0.0000000000
40
0.0000000000
40
0.0000000000
40
0.0000000000
40
0.0000000000
40
1.0000000000
40
1.0000000000
40
1.0000000000
40
1.0000000000
10
-74.1990059114
20
-39.5700531422
30
0.0000000000
10
-74.2272052606
20
-39.5150077619
30
0.0000000000
10
-74.2522603571
20
-39.4583386838
30
0.0000000000
10
-74.2738469993
20
-39.4002923533
30
0.0000000000
11
-74.1990059114
21
-39.5700531422
31
0.0000000000
11
-74.2738469993
21
-39.4002923533
31
0.0000000000
0
SPLINE
5
377
100
AcDbEntity
8
0
100
AcDbSpline
62
7
6
CONTINUOUS
70
0
71
3
72
8
73
4
74
2
42
0.0000001000
43
0.0000001000
44
0.0000000001
12
-0.1895833605
22
0.5097883349
32
0.0000000000
13
0.0000000218
23
0.5405626349
33
0.0000000000
40
0.0000000000
40
0.0000000000
40
0.0000000000
40
0.0000000000
40
1.0000000000
40
1.0000000000
40
1.0000000000
40
1.0000000000
10
-74.2738469993
20
-39.4002923533
30
0.0000000000
10
-74.3370414528
20
-39.2303629084
30
0.0000000000
10
-74.3705107801
20
-39.0486302230
30
0.0000000000
10
-74.3705107728
20
-38.8684426781
30
0.0000000000
11
-74.2738469993
21
-39.4002923533
31
0.0000000000
11
-74.3705107728
21
-38.8684426781
31
0.0000000000
0
SPLINE
5
378
100
AcDbEntity
8
0
100
AcDbSpline
62
7
6
CONTINUOUS
70
0
71
3
72
13
73
9
74
7
42
0.0000001000
43
0.0000001000
44
0.0000000001
12
-6.5293541262
22
3.6336469177
32
0.0000000000
13
-6.5293541262
23
-3.6336469177
33
0.0000000000
40
0.0000000000
40
0.0000000000
40
0.0000000000
40
0.0000000000
40
0.1576902746
40
0.3259766273
40
0.5000000000
40
0.6740233727
40
0.8423097254
40
1.0000000000
40
1.0000000000
40
1.0000000000
40
1.0000000000
10
3.5294892272
20
31.5701913442
30
0.0000000000
10
3.1862840122
20
31.7611882710
30
0.0000000000
10
2.4341197143
20
32.0817425671
30
0.0000000000
10
1.2169566761
20
32.3681772780
30
0.0000000000
10
-0.0705107728
20
32.4655506826
30
0.0000000000
10
-1.3579782216
20
32.3681772780
30
0.0000000000
10
-2.5751412599
20
32.0817425671
30
0.0000000000
10
-3.3273055578
20
31.7611882710
30
0.0000000000
10
-3.6705107728
20
31.5701913442
30
0.0000000000
11
3.5294892272
21
31.5701913442
31
0.0000000000
11
2.4488884546
21
32.0400091610
31
0.0000000000
11
1.2260282827
21
32.3330978439
31
0.0000000000
11
-0.0705107728
21
32.4327322397
31
0.0000000000
11
-1.3670498283
21
32.3330978439
31
0.0000000000
11
-2.5899100002
21
32.0400091610
31
0.0000000000
11
-3.6705107728
21
31.5701913442
31
0.0000000000
0
SPLINE
5
379
100
AcDbEntity
8
0
100
AcDbSpline
62
7
6
CONTINUOUS
70
0
71
3
72
8
73
4
74
2
42
0.0000001000
43
0.0000001000
44
0.0000000001
12
-0.0049795566
22
0.0169589849
32
0.0000000000
13
-0.0049850614
23
0.0169574025
33
0.0000000000
40
0.0000000000
40
0.0000000000
40
0.0000000000
40
0.0000000000
40
1.0000000000
40
1.0000000000
40
1.0000000000
40
1.0000000000
10
-59.0454880998
20
15.9636996037
30
0.0000000000
10
-59.0471479521
20
15.9693525986
30
0.0000000000
10
-59.0488087201
20
15.9750053306
30
0.0000000000
10
-59.0504704073
20
15.9806577981
30
0.0000000000
11
-59.0454880998
21
15.9636996037
31
0.0000000000
11
-59.0504704073
21
15.9806577981
31
0.0000000000
0
SPLINE
5
37A
100
AcDbEntity
8
0
100
AcDbSpline
62
7
6
CONTINUOUS
70
0
71
3
72
8
73
4
74
2
42
0.0000001000
43
0.0000001000
44
0.0000000001
12
-0.0049850614
22
-0.0169574025
32
0.0000000000
13
-0.0049795566
23
-0.0169589849
33
0.0000000000
40
0.0000000000
40
0.0000000000
40
0.0000000000
40
0.0000000000
40
1.0000000000
40
1.0000000000
40
1.0000000000
40
1.0000000000
10
58.9094488617
20
15.9806577981
30
0.0000000000
10
58.9077871745
20
15.9750053306
30
0.0000000000
10
58.9061264065
20
15.9693525986
30
0.0000000000
10
58.9044665543
20
15.9636996037
30
0.0000000000
11
58.9094488617
21
15.9806577981
31
0.0000000000
11
58.9044665543
21
15.9636996037
31
0.0000000000
0
SPLINE
5
37B
100
AcDbEntity
8
0
100
AcDbSpline
62
7
6
CONTINUOUS
70
0
71
3
72
9
73
5
74
3
42
0.0000001000
43
0.0000001000
44
0.0000000001
12
0.1912562705
22
0.6980308500
32
0.0000000000
13
0.1995314374
23
0.6957120760
33
0.0000000000
40
0.0000000000
40
0.0000000000
40
0.0000000000
40
0.0000000000
40
0.5047841289
40
1.0000000000
40
1.0000000000
40
1.0000000000
40
1.0000000000
10
58.6111967557
20
14.9292339524
30
0.0000000000
10
58.6433777990
20
15.0466855839
30
0.0000000000
10
58.7077882790
20
15.2791828303
30
0.0000000000
10
58.7735767349
20
15.5112935980
30
0.0000000000
10
58.8065137798
20
15.6261361519
30
0.0000000000
11
58.6111967557
21
14.9292339524
31
0.0000000000
11
58.7087556930
21
15.2813089464
31
0.0000000000
11
58.8065137798
21
15.6261361519
31
0.0000000000
0
SPLINE
5
37C
100
AcDbEntity
8
0
100
AcDbSpline
62
7
6
CONTINUOUS
70
0
71
3
72
8
73
4
74
2
42
0.0000001000
43
0.0000001000
44
0.0000000001
12
0.0648126511
22
0.2259841588
32
0.0000000000
13
0.0657537534
23
0.2257120103
33
0.0000000000
40
0.0000000000
40
0.0000000000
40
0.0000000000
40
0.0000000000
40
1.0000000000
40
1.0000000000
40
1.0000000000
40
1.0000000000
10
58.8065137798
20
15.6261361519
30
0.0000000000
10
58.8281179968
20
15.7014642048
30
0.0000000000
10
58.8498760483
20
15.7767482092
30
0.0000000000
10
58.8717939661
20
15.8519855460
30
0.0000000000
11
58.8065137798
21
15.6261361519
31
0.0000000000
11
58.8717939661
21
15.8519855460
31
0.0000000000
0
SPLINE
5
37D
100
AcDbEntity
8
0
100
AcDbSpline
62
7
6
CONTINUOUS
70
0
71
3
72
8
73
4
74
2
42
0.0000001000
43
0.0000001000
44
0.0000000001
12
0.0325542977
22
0.1117486928
32
0.0000000000
13
0.0327916107
23
0.1116791048
33
0.0000000000
40
0.0000000000
40
0.0000000000
40
0.0000000000
40
0.0000000000
40
1.0000000000
40
1.0000000000
40
1.0000000000
40
1.0000000000
10
58.8717939661
20
15.8519855460
30
0.0000000000
10
58.8826453987
20
15.8892351102
30
0.0000000000
10
58.8935360174
20
15.9264732354
30
0.0000000000
10
58.9044665543
20
15.9636996037
30
0.0000000000
11
58.8717939661
21
15.8519855460
31
0.0000000000
11
58.9044665543
21
15.9636996037
31
0.0000000000
0
SPLINE
5
37E
100
AcDbEntity
8
0
100
AcDbSpline
62
7
6
CONTINUOUS
70
0
71
3
72
8
73
4
74
2
42
0.0000001000
43
0.0000001000
44
0.0000000001
12
0.0990246929
22
-0.3372505600
32
0.0000000000
13
0.0969010146
23
-0.3378675908
33
0.0000000000
40
0.0000000000
40
0.0000000000
40
0.0000000000
40
0.0000000000
40
1.0000000000
40
1.0000000000
40
1.0000000000
40
1.0000000000
10
-59.0454880998
20
15.9636996037
30
0.0000000000
10
-59.0124798689
20
15.8512827503
30
0.0000000000
10
-58.9798356636
20
15.7387586821
30
0.0000000000
10
-58.9475353254
20
15.6261361519
30
0.0000000000
11
-59.0454880998
21
15.9636996037
31
0.0000000000
11
-58.9475353254
21
15.6261361519
31
0.0000000000
0
SPLINE
5
37F
100
AcDbEntity
8
0
100
AcDbSpline
62
7
6
CONTINUOUS
70
0
71
3
72
8
73
4
74
2
42
0.0000001000
43
0.0000001000
44
0.0000000001
12
0.0327247931
22
-0.1141024894
32
0.0000000000
13
0.0324916224
23
-0.1141690388
33
0.0000000000
40
0.0000000000
40
0.0000000000
40
0.0000000000
40
0.0000000000
40
1.0000000000
40
1.0000000000
40
1.0000000000
40
1.0000000000
10
-58.9475353254
20
15.6261361519
30
0.0000000000
10
-58.9366270610
20
15.5881019887
30
0.0000000000
10
-58.9257580149
20
15.5500565959
30
0.0000000000
10
-58.9149274741
20
15.5120002496
30
0.0000000000
11
-58.9475353254
21
15.6261361519
31
0.0000000000
11
-58.9149274741
21
15.5120002496
31
0.0000000000
0
SPLINE
5
380
100
AcDbEntity
8
0
100
AcDbSpline
62
7
6
CONTINUOUS
70
0
71
3
72
8
73
4
74
2
42
0.0000001000
43
0.0000001000
44
0.0000000001
12
0.0327024902
22
-0.1149099857
32
0.0000000000
13
0.0324706301
23
-0.1149757176
33
0.0000000000
40
0.0000000000
40
0.0000000000
40
0.0000000000
40
0.0000000000
40
1.0000000000
40
1.0000000000
40
1.0000000000
40
1.0000000000
10
-58.9149274741
20
15.5120002496
30
0.0000000000
10
-58.9040266440
20
15.4736969211
30
0.0000000000
10
-58.8931648207
20
15.4353824964
30
0.0000000000
10
-58.8823412774
20
15.3970572572
30
0.0000000000
11
-58.9149274741
21
15.5120002496
31
0.0000000000
11
-58.8823412774
21
15.3970572572
31
0.0000000000
0
SPLINE
5
381
100
AcDbEntity
8
0
100
AcDbSpline
62
7
6
CONTINUOUS
70
0
71
3
72
9
73
5
74
3
42
0.0000001000
43
0.0000001000
44
0.0000000001
12
0.1319732543
22
-0.4673059802
32
0.0000000000
13
0.1283175020
23
-0.4683222921
33
0.0000000000
40
0.0000000000
40
0.0000000000
40
0.0000000000
40
0.0000000000
40
0.2476230567
40
1.0000000000
40
1.0000000000
40
1.0000000000
40
1.0000000000
10
-58.8823412774
20
15.3970572572
30
0.0000000000
10
-58.8714480705
20
15.3584853454
30
0.0000000000
10
-58.8276135716
20
15.2026724480
30
0.0000000000
10
-58.7843993446
20
15.0466855839
30
0.0000000000
10
-58.7522183013
20
14.9292339524
30
0.0000000000
11
-58.8823412774
21
15.3970572572
31
0.0000000000
11
-58.8497772386
21
15.2813089464
31
0.0000000000
11
-58.7522183013
21
14.9292339524
31
0.0000000000
0
SPLINE
5
382
100
AcDbEntity
8
0
100
AcDbSpline
62
9
6
CONTINUOUS
70
0
71
3
72
15
73
11
74
9
42
0.0000001000
43
0.0000001000
44
0.0000000001
12
4.1289468981
22
-0.0000040622
32
0.0000000000
13
1.1370960347
23
-3.9692839524
33
0.0000000000
40
0.0000000000
40
0.0000000000
40
0.0000000000
40
0.0000000000
40
0.0315845247
40
0.0735455254
40
0.1326237681
40
0.2161093924
40
0.3326379089
40
0.4928242483
40
0.7098115111
40
1.0000000000
40
1.0000000000
40
1.0000000000
40
1.0000000000
10
-72.3710696419
20
44.7808297725
30
0.0000000000
10
-72.3275993667
20
44.7808297297
30
0.0000000000
10
-72.2262832306
20
44.7550982031
30
0.0000000000
10
-72.0743256165
20
44.6500400919
30
0.0000000000
10
-71.9016425387
20
44.4620017657
30
0.0000000000
10
-71.7023851071
20
44.1651670173
30
0.0000000000
10
-71.4708755724
20
43.7260580986
30
0.0000000000
10
-71.2021083566
20
43.1014012070
30
0.0000000000
10
-70.8910325253
20
42.2367249431
30
0.0000000000
10
-70.6871184509
20
41.5688578954
30
0.0000000000
10
-70.5771277242
20
41.1849110580
30
0.0000000000
11
-72.3710696419
21
44.7808297725
31
0.0000000000
11
-72.2437222504
21
44.7527295007
31
0.0000000000
11
-72.0975968975
21
44.6596457351
31
0.0000000000
11
-71.9285663455
21
44.4837737092
31
0.0000000000
11
-71.7321994319
21
44.2004656784
31
0.0000000000
11
-71.5037608681
21
43.7770137016
31
0.0000000000
11
-71.2383547029
21
43.1711996182
31
0.0000000000
11
-70.9311014989
21
42.3296034937
31
0.0000000000
11
-70.5771277242
21
41.1849110580
31
0.0000000000
0
SPLINE
5
383
100
AcDbEntity
8
0
100
AcDbSpline
62
9
6
CONTINUOUS
70
0
71
3
72
9
73
5
74
3
42
0.0000001000
43
0.0000001000
44
0.0000000001
12
-0.8961846427
22
13.4516358598
32
0.0000000000
13
-1.2090269000
23
13.4271332820
33
0.0000000000
40
0.0000000000
40
0.0000000000
40
0.0000000000
40
0.0000000000
40
0.4761136205
40
1.0000000000
40
1.0000000000
40
1.0000000000
40
1.0000000000
10
72.2295455916
20
-40.5996362272
30
0.0000000000
10
72.0873170199
20
-38.4648005434
30
0.0000000000
10
71.7542562640
20
-33.9831879502
30
0.0000000000
10
71.3698177159
20
-29.5057681599
30
0.0000000000
10
71.1586868074
20
-27.1610040794
30
0.0000000000
11
72.2295455916
21
-40.5996362272
31
0.0000000000
11
71.7585209625
21
-34.1982373903
31
0.0000000000
11
71.1586868074
21
-27.1610040794
31
0.0000000000
0
SPLINE
5
384
100
AcDbEntity
8
0
100
AcDbSpline
62
9
6
CONTINUOUS
70
0
71
3
72
9
73
5
74
3
42
0.0000001000
43
0.0000001000
44
0.0000000001
12
-1.2090273129
22
-13.4271378702
32
0.0000000000
13
-0.8961849747
23
-13.4516404546
33
0.0000000000
40
0.0000000000
40
0.0000000000
40
0.0000000000
40
0.0000000000
40
0.5238873545
40
1.0000000000
40
1.0000000000
40
1.0000000000
40
1.0000000000
10
-71.2997083506
20
-27.1610040767
30
0.0000000000
10
-71.5108397241
20
-29.5057733227
30
0.0000000000
10
-71.8952440383
20
-33.9831971729
30
0.0000000000
10
-72.2284015373
20
-38.4648041863
30
0.0000000000
10
-72.3706298703
20
-40.5996362272
30
0.0000000000
11
-71.2997083506
21
-27.1610040767
31
0.0000000000
11
-71.8995437462
21
-34.1982528972
31
0.0000000000
11
-72.3706298703
21
-40.5996362272
31
0.0000000000
0
SPLINE
5
385
100
AcDbEntity
8
0
100
AcDbSpline
62
7
6
CONTINUOUS
70
0
71
3
72
11
73
7
74
5
42
0.0000001000
43
0.0000001000
44
0.0000000001
12
0.1262999935
22
-0.4609589616
32
0.0000000000
13
-0.0000000000
23
-0.4779485878
33
0.0000000000
40
0.0000000000
40
0.0000000000
40
0.0000000000
40
0.0000000000
40
0.1490269150
40
0.3839274221
40
0.6777015596
40
1.0000000000
40
1.0000000000
40
1.0000000000
40
1.0000000000
10
-58.7522183013
20
14.9292339524
30
0.0000000000
10
-58.7459442685
20
14.9063355217
30
0.0000000000
10
-58.7376881959
20
14.8454391851
30
0.0000000000
10
-58.7286703754
20
14.7379578656
30
0.0000000000
10
-58.7231066596
20
14.6024123217
30
0.0000000000
10
-58.7217800448
20
14.5042737509
30
0.0000000000
10
-58.7217800448
20
14.4529263894
30
0.0000000000
11
-58.7522183013
21
14.9292339524
31
0.0000000000
11
-58.7400090595
21
14.8590609594
31
0.0000000000
11
-58.7301602015
21
14.7472234210
31
0.0000000000
11
-58.7239073921
21
14.6069537836
31
0.0000000000
11
-58.7217800448
21
14.4529263894
31
0.0000000000
0
SPLINE
5
386
100
AcDbEntity
8
0
100
AcDbSpline
62
9
6
CONTINUOUS
70
0
71
3
72
10
73
6
74
4
42
0.0000001000
43
0.0000001000
44
0.0000000001
12
0.0267569300
22
0.5097247096
32
0.0000000000
13
0.4643895966
23
0.2268681901
33
0.0000000000
40
0.0000000000
40
0.0000000000
40
0.0000000000
40
0.0000000000
40
0.4725983169
40
0.9565454221
40
1.0000000000
40
1.0000000000
40
1.0000000000
40
1.0000000000
10
-72.0604963746
20
14.6175056421
30
0.0000000000
10
-72.0562812812
20
14.6978039887
30
0.0000000000
10
-72.0023295089
20
14.8607197653
30
0.0000000000
10
-71.8717370572
20
14.9798114452
30
0.0000000000
10
-71.7909806935
20
15.0214586971
30
0.0000000000
10
-71.7842540756
20
15.0247448509
30
0.0000000000
11
-72.0604963746
21
14.6175056421
31
0.0000000000
11
-71.9856466360
21
14.8468260293
31
0.0000000000
11
-71.8042076639
21
15.0144520922
31
0.0000000000
11
-71.7842540756
21
15.0247448509
31
0.0000000000
0
SPLINE
5
387
100
AcDbEntity
8
0
100
AcDbSpline
62
9
6
CONTINUOUS
70
0
71
3
72
9
73
5
74
3
42
0.0000001000
43
0.0000001000
44
0.0000000001
12
0.0210437316
22
0.4695737024
32
0.0000000000
13
0.4046586384
23
0.2496587530
33
0.0000000000
40
0.0000000000
40
0.0000000000
40
0.0000000000
40
0.0000000000
40
0.5217060855
40
1.0000000000
40
1.0000000000
40
1.0000000000
40
1.0000000000
10
-72.5273482930
20
17.1539913077
30
0.0000000000
10
-72.5236887453
20
17.2356511271
30
0.0000000000
10
-72.4735430379
20
17.3929814233
30
0.0000000000
10
-72.3577799867
20
17.5063091708
30
0.0000000000
10
-72.2932647320
20
17.5461125916
30
0.0000000000
11
-72.5273482930
21
17.1539913077
31
0.0000000000
11
-72.4535065564
21
17.3878349808
31
0.0000000000
11
-72.2932647320
21
17.5461125916
31
0.0000000000
0
SPLINE
5
388
100
AcDbEntity
8
0
100
AcDbSpline
62
9
6
CONTINUOUS
70
0
71
3
72
9
73
5
74
3
42
0.0000001000
43
0.0000001000
44
0.0000000001
12
0.0179049925
22
0.4747335392
32
0.0000000000
13
0.4079665181
23
0.2540841525
33
0.0000000000
40
0.0000000000
40
0.0000000000
40
0.0000000000
40
0.0000000000
40
0.5224211252
40
1.0000000000
40
1.0000000000
40
1.0000000000
40
1.0000000000
10
-72.8729089115
20
18.8049135454
30
0.0000000000
10
-72.8697909293
20
18.8875838220
30
0.0000000000
10
-72.8205573573
20
19.0470111308
30
0.0000000000
10
-72.7043519644
20
19.1625132625
30
0.0000000000
10
-72.6394065675
20
19.2029616704
30
0.0000000000
11
-72.8729089115
21
18.8049135454
31
0.0000000000
11
-72.8000714072
21
19.0421719825
31
0.0000000000
11
-72.6394065675
21
19.2029616704
31
0.0000000000
0
SPLINE
5
389
100
AcDbEntity
8
0
100
AcDbSpline
62
9
6
CONTINUOUS
70
0
71
3
72
9
73
5
74
3
42
0.0000001000
43
0.0000001000
44
0.0000000001
12
-0.0179660854
22
0.4747047049
32
0.0000000000
13
-0.4079564487
23
0.2540478577
33
0.0000000000
40
0.0000000000
40
0.0000000000
40
0.0000000000
40
0.0000000000
40
0.5224208325
40
1.0000000000
40
1.0000000000
40
1.0000000000
40
1.0000000000
10
72.7319032692
20
18.8049139556
30
0.0000000000
10
72.7287746501
20
18.8875791646
30
0.0000000000
10
72.6795261097
20
19.0469908066
30
0.0000000000
10
72.5633193472
20
19.1624771675
30
0.0000000000
10
72.4983755135
20
19.2029198223
30
0.0000000000
11
72.7319032692
21
18.8049139556
31
0.0000000000
11
72.6590432491
21
19.0421508474
31
0.0000000000
11
72.4983755135
21
19.2029198223
31
0.0000000000
0
SPLINE
5
38A
100
AcDbEntity
8
0
100
AcDbSpline
62
9
6
CONTINUOUS
70
0
71
3
72
9
73
5
74
3
42
0.0000001000
43
0.0000001000
44
0.0000000001
12
-0.0210437346
22
0.4695736957
32
0.0000000000
13
-0.4046586310
23
0.2496587522
33
0.0000000000
40
0.0000000000
40
0.0000000000
40
0.0000000000
40
0.0000000000
40
0.5217060880
40
1.0000000000
40
1.0000000000
40
1.0000000000
40
1.0000000000
10
72.3863267433
20
17.1539913076
30
0.0000000000
10
72.3826671952
20
17.2356511262
30
0.0000000000
10
72.3325214878
20
17.3929814198
30
0.0000000000
10
72.2167584386
20
17.5063091660
30
0.0000000000
10
72.1522431854
20
17.5461125864
30
0.0000000000
11
72.3863267433
21
17.1539913076
31
0.0000000000
11
72.3124850064
21
17.3878349782
31
0.0000000000
11
72.1522431854
21
17.5461125864
31
0.0000000000
0
SPLINE
5
38B
100
AcDbEntity
8
0
100
AcDbSpline
62
9
6
CONTINUOUS
70
0
71
3
72
10
73
6
74
4
42
0.0000001000
43
0.0000001000
44
0.0000000001
12
-0.0267557458
22
0.5097036985
32
0.0000000000
13
-0.4643608825
23
0.2268779360
33
0.0000000000
40
0.0000000000
40
0.0000000000
40
0.0000000000
40
0.0000000000
40
0.4726178580
40
0.9565849848
40
1.0000000000
40
1.0000000000
40
1.0000000000
40
1.0000000000
10
71.9194748729
20
14.6175056383
30
0.0000000000
10
71.9152597918
20
14.6978039950
30
0.0000000000
10
71.8613080295
20
14.8607198016
30
0.0000000000
10
71.7307209638
20
14.9798065762
30
0.0000000000
10
71.6499718535
20
15.0214522280
30
0.0000000000
10
71.6432517753
20
15.0247355310
30
0.0000000000
11
71.9194748729
21
14.6175056383
31
0.0000000000
11
71.8446251516
21
14.8468260610
31
0.0000000000
11
71.6631861599
21
15.0144521541
31
0.0000000000
11
71.6432517753
21
15.0247355310
31
0.0000000000
0
SPLINE
5
38C
100
AcDbEntity
8
0
100
AcDbSpline
62
7
6
CONTINUOUS
70
0
71
3
72
11
73
7
74
5
42
0.0000001000
43
0.0000001000
44
0.0000000001
12
0.0000000000
22
0.4779485878
32
0.0000000000
13
0.1262999935
23
0.4609589616
33
0.0000000000
40
0.0000000000
40
0.0000000000
40
0.0000000000
40
0.0000000000
40
0.3222984404
40
0.6160725779
40
0.8509730850
40
1.0000000000
40
1.0000000000
40
1.0000000000
40
1.0000000000
10
58.5807584992
20
14.4529263894
30
0.0000000000
10
58.5807584992
20
14.5042737509
30
0.0000000000
10
58.5820851140
20
14.6024123217
30
0.0000000000
10
58.5876488298
20
14.7379578656
30
0.0000000000
10
58.5966666503
20
14.8454391851
30
0.0000000000
10
58.6049227229
20
14.9063355217
30
0.0000000000
10
58.6111967557
20
14.9292339524
30
0.0000000000
11
58.5807584992
21
14.4529263894
31
0.0000000000
11
58.5828858465
21
14.6069537836
31
0.0000000000
11
58.5891386559
21
14.7472234210
31
0.0000000000
11
58.5989875139
21
14.8590609594
31
0.0000000000
11
58.6111967557
21
14.9292339524
31
0.0000000000
0
SPLINE
5
38D
100
AcDbEntity
8
0
100
AcDbSpline
62
9
6
CONTINUOUS
70
0
71
3
72
14
73
10
74
8
42
0.0000001000
43
0.0000001000
44
0.0000000001
12
-1.0207654974
22
0.0164304070
32
0.0000000000
13
-0.3603589680
23
0.9551824816
33
0.0000000000
40
0.0000000000
40
0.0000000000
40
0.0000000000
40
0.0000000000
40
0.1966441810
40
0.3944524684
40
0.5869853710
40
0.7523646803
40
0.8773615620
40
0.9564718517
40
1.0000000000
40
1.0000000000
40
1.0000000000
40
1.0000000000
10
-71.0673739650
20
14.4529263894
30
0.0000000000
10
-71.1342831634
20
14.4540033707
30
0.0000000000
10
-71.2684812487
20
14.4582843932
30
0.0000000000
10
-71.4678113538
20
14.4713726820
30
0.0000000000
10
-71.6560352447
20
14.4914696229
30
0.0000000000
10
-71.8180779359
20
14.5172993148
30
0.0000000000
10
-71.9412757237
20
14.5474178839
30
0.0000000000
10
-72.0187441137
20
14.5766280566
30
0.0000000000
10
-72.0552677534
20
14.6036465275
30
0.0000000000
10
-72.0604963396
20
14.6175056357
30
0.0000000000
11
-71.0673739650
21
14.4529263894
31
0.0000000000
11
-71.2680233625
21
14.4593936751
31
0.0000000000
11
-71.4695145411
21
14.4728802776
31
0.0000000000
11
-71.6649062808
21
14.4942458362
31
0.0000000000
11
-71.8314282719
21
14.5220991180
31
0.0000000000
11
-71.9549989817
21
14.5539478965
31
0.0000000000
11
-72.0291090262
21
14.5860484662
31
0.0000000000
11
-72.0604963396
21
14.6175056357
31
0.0000000000
0
SPLINE
5
38E
100
AcDbEntity
8
0
100
AcDbSpline
62
9
6
CONTINUOUS
70
0
71
3
72
15
73
11
74
9
42
0.0000001000
43
0.0000001000
44
0.0000000001
12
-0.3604439540
22
-0.9554043934
32
0.0000000000
13
-1.0210031397
23
-0.0164312987
33
0.0000000000
40
0.0000000000
40
0.0000000000
40
0.0000000000
40
0.0000000000
40
0.0364423444
40
0.0989010207
40
0.1952239598
40
0.3253051360
40
0.4820594584
40
0.6539312584
40
0.8275047175
40
1.0000000000
40
1.0000000000
40
1.0000000000
40
1.0000000000
10
71.9194747940
20
14.6175056357
30
0.0000000000
10
71.9150963198
20
14.6058999104
30
0.0000000000
10
71.8874453724
20
14.5825626397
30
0.0000000000
10
71.8270420515
20
14.5565957340
30
0.0000000000
10
71.7318563686
20
14.5294811308
30
0.0000000000
10
71.6038821343
20
14.5048263587
30
0.0000000000
10
71.4490551770
20
14.4837319299
30
0.0000000000
10
71.2788348897
20
14.4678570157
30
0.0000000000
10
71.1028173117
20
14.4573978650
30
0.0000000000
10
70.9850584945
20
14.4538711632
30
0.0000000000
10
70.9263524194
20
14.4529263894
30
0.0000000000
11
71.9194747940
21
14.6175056357
31
0.0000000000
11
71.8943186041
21
14.5900840898
31
0.0000000000
11
71.8370256688
21
14.5620617760
31
0.0000000000
11
71.7427967649
21
14.5338596675
31
0.0000000000
11
71.6125826356
21
14.5076257420
31
0.0000000000
11
71.4540515410
21
14.4855020438
31
0.0000000000
11
71.2793354058
21
14.4688871069
31
0.0000000000
11
71.1024130752
21
14.4582469226
31
0.0000000000
11
70.9263524194
21
14.4529263894
31
0.0000000000
0
SPLINE
5
38F
100
AcDbEntity
8
0
100
AcDbSpline
62
9
6
CONTINUOUS
70
0
71
3
72
16
73
12
74
10
42
0.0000001000
43
0.0000001000
44
0.0000000001
12
0.0728835824
22
3.0823262171
32
0.0000000000
13
3.0831754485
23
0.0087223402
33
0.0000000000
40
0.0000000000
40
0.0000000000
40
0.0000000000
40
0.0000000000
40
0.1315058078
40
0.2689328257
40
0.4050642151
40
0.5324119646
40
0.6470036540
40
0.7492016397
40
0.8402531368
40
0.9226724275
40
1.0000000000
40
1.0000000000
40
1.0000000000
40
1.0000000000
10
-72.5607447432
20
39.2244692821
30
0.0000000000
10
-72.5575498717
20
39.3595838819
30
0.0000000000
10
-72.5233361618
20
39.6360168447
30
0.0000000000
10
-72.3882930464
20
40.0329257847
30
0.0000000000
10
-72.1757890471
20
40.3894948742
30
0.0000000000
10
-71.9118599496
20
40.6780854986
30
0.0000000000
10
-71.6271625019
20
40.8910836245
30
0.0000000000
10
-71.3444076002
20
41.0359716873
30
0.0000000000
10
-71.0748159123
20
41.1261497940
30
0.0000000000
10
-70.8209142567
20
41.1743249215
30
0.0000000000
10
-70.6565992225
20
41.1846858703
30
0.0000000000
10
-70.5771277314
20
41.1849106961
30
0.0000000000
11
-72.5607447432
21
39.2244692821
31
0.0000000000
11
-72.5108318735
21
39.6268424495
31
0.0000000000
11
-72.3742830534
21
40.0279501443
31
0.0000000000
11
-72.1593144802
21
40.3884390441
31
0.0000000000
11
-71.8942956768
21
40.6781438385
31
0.0000000000
11
-71.6113834886
21
40.8897732852
31
0.0000000000
11
-71.3309566068
21
41.0334604080
31
0.0000000000
11
-71.0647290984
21
41.1225199882
31
0.0000000000
11
-70.8150696975
21
41.1698928165
31
0.0000000000
11
-70.5771277314
21
41.1849106961
31
0.0000000000
0
SPLINE
5
390
100
AcDbEntity
8
0
100
AcDbSpline
62
9
6
CONTINUOUS
70
0
71
3
72
16
73
12
74
10
42
0.0000001000
43
0.0000001000
44
0.0000000001
12
3.0831497455
22
-0.0087232330
32
0.0000000000
13
0.0728820384
23
-3.0823005461
33
0.0000000000
40
0.0000000000
40
0.0000000000
40
0.0000000000
40
0.0000000000
40
0.0768713812
40
0.1585648456
40
0.2488076497
40
0.3503390419
40
0.4646147891
40
0.5921985547
40
0.7291029748
40
0.8675446074
40
1.0000000000
40
1.0000000000
40
1.0000000000
40
1.0000000000
10
70.4361061851
20
41.1849106828
30
0.0000000000
10
70.5151081783
20
41.1846871604
30
0.0000000000
10
70.6782045252
20
41.1744612336
30
0.0000000000
10
70.9301376378
20
41.1269936556
30
0.0000000000
10
71.1977794002
20
41.0382054380
30
0.0000000000
10
71.4793924662
20
40.8951916223
30
0.0000000000
10
71.7643918867
20
40.6839125876
30
0.0000000000
10
72.0300882994
20
40.3959626624
30
0.0000000000
10
72.2449789696
20
40.0383412927
30
0.0000000000
10
72.3818384787
20
39.6390143842
30
0.0000000000
10
72.4165053240
20
39.3605583799
30
0.0000000000
10
72.4197231970
20
39.2244692703
30
0.0000000000
11
70.4361061851
21
41.1849106828
31
0.0000000000
11
70.6726477529
21
41.1700657947
31
0.0000000000
11
70.9201663890
21
41.1234274695
31
0.0000000000
11
71.1842452830
21
41.0358144175
31
0.0000000000
11
71.4633571542
21
40.8940780801
31
0.0000000000
11
71.7464100323
21
40.6842735138
31
0.0000000000
11
72.0132006530
21
40.3952130037
31
0.0000000000
11
72.2307005328
21
40.0334659090
31
0.0000000000
11
72.3691573720
21
39.6297080906
31
0.0000000000
11
72.4197231970
21
39.2244692703
31
0.0000000000
0
SPLINE
5
391
100
AcDbEntity
8
0
100
AcDbSpline
62
9
6
CONTINUOUS
70
0
71
3
72
17
73
13
74
11
42
0.0000001000
43
0.0000001000
44
0.0000000001
12
-0.0375833554
22
-3.1621484278
32
0.0000000000
13
3.1618820987
23
-0.0556487401
33
0.0000000000
40
0.0000000000
40
0.0000000000
40
0.0000000000
40
0.0000000000
40
0.1141595867
40
0.2339528556
40
0.3547407030
40
0.4719024763
40
0.5809666521
40
0.6807387400
40
0.7715565366
40
0.8540724209
40
0.9292466332
40
1.0000000000
40
1.0000000000
40
1.0000000000
40
1.0000000000
10
-73.2543098789
20
-25.0840088805
30
0.0000000000
10
-73.2557400457
20
-25.2043387330
30
0.0000000000
10
-73.2376775650
20
-25.4516874001
30
0.0000000000
10
-73.1454846654
20
-25.8160934029
30
0.0000000000
10
-72.9875614718
20
-26.1609125592
30
0.0000000000
10
-72.7762305366
20
-26.4619477871
30
0.0000000000
10
-72.5312704682
20
-26.7053631814
30
0.0000000000
10
-72.2724879433
20
-26.8888173378
30
0.0000000000
10
-72.0140618034
20
-27.0180080183
30
0.0000000000
10
-71.7648994694
20
-27.1014192612
30
0.0000000000
10
-71.5280688244
20
-27.1480872317
30
0.0000000000
10
-71.3742796370
20
-27.1597028206
30
0.0000000000
10
-71.2997083691
20
-27.1610152658
30
0.0000000000
11
-73.2543098789
21
-25.0840088805
31
0.0000000000
11
-73.2279361362
21
-25.4440592864
31
0.0000000000
11
-73.1349135587
21
-25.8112916570
31
0.0000000000
11
-72.9756872323
21
-26.1584986579
31
0.0000000000
11
-72.7626575604
21
-26.4616410997
31
0.0000000000
11
-72.5178981619
21
-26.7046428714
31
0.0000000000
11
-72.2604384469
21
-26.8870301387
31
0.0000000000
11
-72.0035231518
21
-27.0153974317
31
0.0000000000
11
-71.7560668864
21
-27.0982114460
31
0.0000000000
11
-71.5228211785
21
-27.1441616927
31
0.0000000000
11
-71.2997083691
21
-27.1610152658
31
0.0000000000
0
SPLINE
5
392
100
AcDbEntity
8
0
100
AcDbSpline
62
9
6
CONTINUOUS
70
0
71
3
72
17
73
13
74
11
42
0.0000001000
43
0.0000001000
44
0.0000000001
12
3.1618498147
22
0.0556691880
32
0.0000000000
13
-0.0375912785
23
3.1621164123
33
0.0000000000
40
0.0000000000
40
0.0000000000
40
0.0000000000
40
0.0000000000
40
0.0703227350
40
0.1444126371
40
0.2255750909
40
0.3150810521
40
0.4139096766
40
0.5227003742
40
0.6405208131
40
0.7626590447
40
0.8841419016
40
1.0000000000
40
1.0000000000
40
1.0000000000
40
1.0000000000
10
71.1586868254
20
-27.1610152766
30
0.0000000000
10
71.2328034675
20
-27.1597103401
30
0.0000000000
10
71.3849945112
20
-27.1482706351
30
0.0000000000
10
71.6189051903
20
-27.1025642365
30
0.0000000000
10
71.8645733321
20
-27.0212974072
30
0.0000000000
10
72.1202796459
20
-26.8952856932
30
0.0000000000
10
72.3782048139
20
-26.7153124800
30
0.0000000000
10
72.6247463202
20
-26.4743581420
30
0.0000000000
10
72.8395181320
20
-26.1734769033
30
0.0000000000
10
73.0012483370
20
-25.8260434249
30
0.0000000000
10
73.0960964188
20
-25.4570773973
30
0.0000000000
10
73.1147401111
20
-25.2061299333
30
0.0000000000
10
73.1132883598
20
-25.0840110018
30
0.0000000000
11
71.1586868254
21
-27.1610152766
31
0.0000000000
11
71.3804453753
21
-27.1443431112
31
0.0000000000
11
71.6103961744
21
-27.0994217908
31
0.0000000000
11
71.8540802291
21
-27.0188357408
31
0.0000000000
11
72.1079987342
21
-26.8937689006
31
0.0000000000
11
72.3643585515
21
-26.7150108079
31
0.0000000000
11
72.6105034608
21
-26.4746537870
31
0.0000000000
11
72.8271185357
21
-26.1715037791
31
0.0000000000
11
72.9902985114
21
-25.8214243037
31
0.0000000000
11
73.0860586082
21
-25.4493804172
31
0.0000000000
11
73.1132883598
21
-25.0840110018
31
0.0000000000
0
SPLINE
5
393
100
AcDbEntity
8
0
100
AcDbSpline
62
9
6
CONTINUOUS
70
0
71
3
72
10
73
6
74
4
42
0.0000001000
43
0.0000001000
44
0.0000000001
12
-1.0900490239
22
39.5672797982
32
0.0000000000
13
-1.2688032456
23
39.5619511125
33
0.0000000000
40
0.0000000000
40
0.0000000000
40
0.0000000000
40
0.0000000000
40
0.3277242824
40
0.6609711205
40
1.0000000000
40
1.0000000000
40
1.0000000000
40
1.0000000000
10
72.1150069497
20
-25.1114838194
30
0.0000000000
10
71.9959284383
20
-20.7890976934
30
0.0000000000
10
71.7473331214
20
-12.0717186480
30
0.0000000000
10
71.3493897437
20
1.1163806647
30
0.0000000000
10
71.0697394003
20
9.9820450708
30
0.0000000000
10
70.9263524194
20
14.4529263894
30
0.0000000000
11
72.1150069497
21
-25.1114838194
31
0.0000000000
11
71.7458617946
21
-12.1446590161
31
0.0000000000
11
71.3487119079
21
1.0400345019
31
0.0000000000
11
70.9263524194
21
14.4529263894
31
0.0000000000
0
SPLINE
5
394
100
AcDbEntity
8
0
100
AcDbSpline
62
9
6
CONTINUOUS
70
0
71
3
72
17
73
13
74
11
42
0.0000001000
43
0.0000001000
44
0.0000000001
12
1.7654841069
22
0.0000156190
32
0.0000000000
13
-0.0486322336
23
1.7648141652
33
0.0000000000
40
0.0000000000
40
0.0000000000
40
0.0000000000
40
0.0000000000
40
0.0629812989
40
0.1295175765
40
0.2032005569
40
0.2861012508
40
0.3803217397
40
0.4878178660
40
0.6087921559
40
0.7386742027
40
0.8713728193
40
1.0000000000
40
1.0000000000
40
1.0000000000
40
1.0000000000
10
71.1586868284
20
-26.3798192070
30
0.0000000000
10
71.1957509891
20
-26.3798188791
30
0.0000000000
10
71.2720830156
20
-26.3743947903
30
0.0000000000
10
71.3892537311
20
-26.3484403760
30
0.0000000000
10
71.5120402099
20
-26.3003382744
30
0.0000000000
10
71.6393589543
20
-26.2243013456
30
0.0000000000
10
71.7670088443
20
-26.1145548429
30
0.0000000000
10
71.8878613250
20
-25.9668054516
30
0.0000000000
10
71.9915775748
20
-25.7819744338
30
0.0000000000
10
72.0679374277
20
-25.5684768424
30
0.0000000000
10
72.1107195713
20
-25.3413917828
30
0.0000000000
10
72.1170920921
20
-25.1871515096
30
0.0000000000
10
72.1150069497
20
-25.1114838194
30
0.0000000000
11
71.1586868284
21
-26.3798192070
31
0.0000000000
11
71.2695979761
21
-26.3719144360
31
0.0000000000
11
71.3843020849
21
-26.3465792339
31
0.0000000000
11
71.5054879336
21
-26.2992887328
31
0.0000000000
11
71.6313176307
21
-26.2245351694
31
0.0000000000
11
71.7577988403
21
-26.1164931034
31
0.0000000000
11
71.8785099610
21
-25.9700475519
31
0.0000000000
11
71.9837290317
21
-25.7841858057
31
0.0000000000
11
72.0616123345
21
-25.5685128316
31
0.0000000000
11
72.1054390305
21
-25.3383714111
31
0.0000000000
11
72.1150069497
21
-25.1114838194
31
0.0000000000
0
SPLINE
5
395
100
AcDbEntity
8
0
100
AcDbSpline
62
9
6
CONTINUOUS
70
0
71
3
72
17
73
13
74
11
42
0.0000001000
43
0.0000001000
44
0.0000000001
12
-0.0486314262
22
-1.7648223196
32
0.0000000000
13
1.7654922360
23
-0.0000111463
33
0.0000000000
40
0.0000000000
40
0.0000000000
40
0.0000000000
40
0.0000000000
40
0.1267519597
40
0.2576642432
40
0.3862459238
40
0.5067421903
40
0.6147101213
40
0.7099788254
40
0.7941762824
40
0.8691183804
40
0.9366336018
40
1.0000000000
40
1.0000000000
40
1.0000000000
40
1.0000000000
10
-72.2560284941
20
-25.1114838064
30
0.0000000000
10
-72.2580832036
20
-25.1860487022
30
0.0000000000
10
-72.2519517978
20
-25.3381178315
30
0.0000000000
10
-72.2104198526
20
-25.5624300565
30
0.0000000000
10
-72.1359169827
20
-25.7743218194
30
0.0000000000
10
-72.0339482202
20
-25.9592177646
30
0.0000000000
10
-71.9139673537
20
-26.1084632015
30
0.0000000000
10
-71.7859609164
20
-26.2203579780
30
0.0000000000
10
-71.6573158901
20
-26.2983599513
30
0.0000000000
10
-71.5327811055
20
-26.3477756447
30
0.0000000000
10
-71.4141364854
20
-26.3743035613
30
0.0000000000
10
-71.3369993334
20
-26.3798189649
30
0.0000000000
10
-71.2997083720
20
-26.3798192003
30
0.0000000000
11
-72.2560284941
21
-25.1114838064
31
0.0000000000
11
-72.2468299378
21
-25.3350742719
31
0.0000000000
11
-72.2043218422
21
-25.5622562515
31
0.0000000000
11
-72.1283892500
21
-25.7761902666
31
0.0000000000
11
-72.0249666335
21
-25.9620935681
31
0.0000000000
11
-71.9049747916
21
-26.1102037456
31
0.0000000000
11
-71.7779797753
21
-26.2204861702
31
0.0000000000
11
-71.6506853714
21
-26.2972516856
31
0.0000000000
11
-71.5276363200
21
-26.3458807470
31
0.0000000000
11
-71.4112947014
21
-26.3718171192
31
0.0000000000
11
-71.2997083720
21
-26.3798192003
31
0.0000000000
0
SPLINE
5
396
100
AcDbEntity
8
0
100
AcDbSpline
62
9
6
CONTINUOUS
70
0
71
3
72
10
73
6
74
4
42
0.0000001000
43
0.0000001000
44
0.0000000001
12
-1.2688032453
22
-39.5619510995
32
0.0000000000
13
-1.0900490238
23
-39.5672797852
33
0.0000000000
40
0.0000000000
40
0.0000000000
40
0.0000000000
40
0.0000000000
40
0.3390288778
40
0.6722757168
40
1.0000000000
40
1.0000000000
40
1.0000000000
40
1.0000000000
10
-71.0673739649
20
14.4529263894
30
0.0000000000
10
-71.2107609451
20
9.9820450945
30
0.0000000000
10
-71.4904112880
20
1.1163807022
30
0.0000000000
10
-71.8883546662
20
-12.0717186061
30
0.0000000000
10
-72.1369499824
20
-20.7890976709
30
0.0000000000
10
-72.2560284941
20
-25.1114838064
30
0.0000000000
11
-71.0673739649
21
14.4529263894
31
0.0000000000
11
-71.4897334513
21
1.0400345731
31
0.0000000000
11
-71.8868833389
21
-12.1446589745
31
0.0000000000
11
-72.2560284941
21
-25.1114838064
31
0.0000000000
0
SPLINE
5
397
100
AcDbEntity
8
0
100
AcDbSpline
62
9
6
CONTINUOUS
70
0
71
3
72
10
73
6
74
4
42
0.0000001000
43
0.0000001000
44
0.0000000001
12
-0.4956597732
22
-2.5310569391
32
0.0000000000
13
-0.4420741972
23
-2.5409640383
33
0.0000000000
40
0.0000000000
40
0.0000000000
40
0.0000000000
40
0.0000000000
40
0.3139457594
40
0.6473185515
40
1.0000000000
40
1.0000000000
40
1.0000000000
40
1.0000000000
10
72.3863267454
20
17.1539913076
30
0.0000000000
10
72.3344566508
20
16.8891197767
30
0.0000000000
10
72.2297888086
20
16.3425376669
30
0.0000000000
10
72.0742718065
20
15.4970034092
30
0.0000000000
10
71.9714453043
20
14.9162226019
30
0.0000000000
10
71.9194748482
20
14.6175056427
30
0.0000000000
11
72.3863267454
21
17.1539913076
31
0.0000000000
11
72.2338706484
21
16.3587655221
31
0.0000000000
11
72.0781876339
21
15.5131646189
31
0.0000000000
11
71.9194748482
21
14.6175056427
31
0.0000000000
0
SPLINE
5
398
100
AcDbEntity
8
0
100
AcDbSpline
62
9
6
CONTINUOUS
70
0
71
3
72
9
73
5
74
3
42
0.0000001000
43
0.0000001000
44
0.0000000001
12
-1.2273669303
22
18.4264829835
32
0.0000000000
13
-2.4540700009
23
18.3035309477
33
0.0000000000
40
0.0000000000
40
0.0000000000
40
0.0000000000
40
0.0000000000
40
0.2495811003
40
1.0000000000
40
1.0000000000
40
1.0000000000
40
1.0000000000
10
74.2294892272
20
-1.2191702275
30
0.0000000000
10
74.1273800309
20
0.3137970720
30
0.0000000000
10
73.6667387603
20
6.4524236315
30
0.0000000000
10
73.0001869154
20
12.5755527898
30
0.0000000000
10
72.3863267454
20
17.1539913076
30
0.0000000000
11
74.2294892272
21
-1.2191702275
31
0.0000000000
11
73.8846190014
21
3.3770020703
31
0.0000000000
11
72.3863267454
21
17.1539913076
31
0.0000000000
0
SPLINE
5
399
100
AcDbEntity
8
0
100
AcDbSpline
62
9
6
CONTINUOUS
70
0
71
3
72
9
73
5
74
3
42
0.0000001000
43
0.0000001000
44
0.0000000001
12
-0.9292902588
22
13.7986317964
32
0.0000000000
13
-1.2626849798
23
13.7721257066
33
0.0000000000
40
0.0000000000
40
0.0000000000
40
0.0000000000
40
0.0000000000
40
0.4755457428
40
1.0000000000
40
1.0000000000
40
1.0000000000
40
1.0000000000
10
74.2294892272
20
-38.8685402649
30
0.0000000000
10
74.0821825517
20
-36.6812467289
30
0.0000000000
10
73.7353510953
20
-32.0841777562
30
0.0000000000
10
73.3340507427
20
-27.4916336737
30
0.0000000000
10
73.1133105717
20
-25.0840170214
30
0.0000000000
11
74.2294892272
21
-38.8685402649
31
0.0000000000
11
73.7399963059
21
-32.3100368455
31
0.0000000000
11
73.1133105717
21
-25.0840170214
31
0.0000000000
0
SPLINE
5
39A
100
AcDbEntity
8
0
100
AcDbSpline
62
9
6
CONTINUOUS
70
0
71
3
72
10
73
6
74
4
42
0.0000001000
43
0.0000001000
44
0.0000000001
12
-1.0945883855
22
39.7044132506
32
0.0000000000
13
-1.2743991081
23
39.6990486312
33
0.0000000000
40
0.0000000000
40
0.0000000000
40
0.0000000000
40
0.0000000000
40
0.3277136948
40
0.6609593379
40
1.0000000000
40
1.0000000000
40
1.0000000000
40
1.0000000000
10
73.1133105717
20
-25.0840170214
30
0.0000000000
10
72.9937400370
20
-20.7467903662
30
0.0000000000
10
72.7440729378
20
-11.9993557673
30
0.0000000000
10
72.3443924937
20
1.2344474533
30
0.0000000000
10
72.0634992207
20
10.1309750655
30
0.0000000000
10
71.9194748482
20
14.6175056427
30
0.0000000000
11
73.1133105717
21
-25.0840170214
31
0.0000000000
11
72.7425966376
21
-12.0726734810
31
0.0000000000
11
72.3437125805
21
1.1576646664
31
0.0000000000
11
71.9194748482
21
14.6175056427
31
0.0000000000
0
SPLINE
5
39B
100
AcDbEntity
8
0
100
AcDbSpline
62
9
6
CONTINUOUS
70
0
71
3
72
10
73
6
74
4
42
0.0000001000
43
0.0000001000
44
0.0000000001
12
-0.3700007608
22
-1.6456695511
32
0.0000000000
13
-0.3243132093
23
-1.6552793651
33
0.0000000000
40
0.0000000000
40
0.0000000000
40
0.0000000000
40
0.0000000000
40
0.3152893430
40
0.6486150917
40
1.0000000000
40
1.0000000000
40
1.0000000000
40
1.0000000000
10
72.7319032633
20
18.8049139554
30
0.0000000000
10
72.6930174977
20
18.6319599315
30
0.0000000000
10
72.6149404947
20
18.2757243106
30
0.0000000000
10
72.4998241258
20
17.7253775910
30
0.0000000000
10
72.4243130012
20
17.3478713702
30
0.0000000000
10
72.3863267454
20
17.1539913076
30
0.0000000000
11
72.7319032633
21
18.8049139554
31
0.0000000000
11
72.6179175597
21
18.2854584389
31
0.0000000000
11
72.5026875222
21
17.7351557236
31
0.0000000000
11
72.3863267454
21
17.1539913076
31
0.0000000000
0
SPLINE
5
39C
100
AcDbEntity
8
0
100
AcDbSpline
62
9
6
CONTINUOUS
70
0
71
3
72
12
73
8
74
6
42
0.0000001000
43
0.0000001000
44
0.0000000001
12
0.0816477299
22
-3.4202269164
32
0.0000000000
13
-0.7510854610
23
-3.3377371289
33
0.0000000000
40
0.0000000000
40
0.0000000000
40
0.0000000000
40
0.0000000000
40
0.2607605874
40
0.5216976422
40
0.7465419474
40
0.9097753435
40
1.0000000000
40
1.0000000000
40
1.0000000000
40
1.0000000000
10
72.7976002276
20
22.2226591334
30
0.0000000000
10
72.8046970642
20
21.9253723401
30
0.0000000000
10
72.8149683638
20
21.3304607134
30
0.0000000000
10
72.8167212011
20
20.4792112990
30
0.0000000000
10
72.8057354976
20
19.7387008963
30
0.0000000000
10
72.7789785888
20
19.1946217239
30
0.0000000000
10
72.7544920726
20
18.9052960173
30
0.0000000000
10
72.7319032633
20
18.8049139554
30
0.0000000000
11
72.7976002276
21
22.2226591334
31
0.0000000000
11
72.8127048233
21
21.3306725449
31
0.0000000000
11
72.8141043645
21
20.4379554441
31
0.0000000000
11
72.7996101765
21
19.6688543729
31
0.0000000000
11
72.7706190606
21
19.1111530793
31
0.0000000000
11
72.7319032633
21
18.8049139554
31
0.0000000000
0
SPLINE
5
39D
100
AcDbEntity
8
0
100
AcDbSpline
62
9
6
CONTINUOUS
70
0
71
3
72
10
73
6
74
4
42
0.0000001000
43
0.0000001000
44
0.0000000001
12
0.3505901141
22
-17.0024014554
32
0.0000000000
13
0.4061547911
23
-17.0011648708
33
0.0000000000
40
0.0000000000
40
0.0000000000
40
0.0000000000
40
0.0000000000
40
0.3469705263
40
0.6801648654
40
1.0000000000
40
1.0000000000
40
1.0000000000
40
1.0000000000
10
72.4197230898
20
39.2244692755
30
0.0000000000
10
72.4602712353
20
37.2580252151
30
0.0000000000
10
72.5418148645
20
33.4032552290
30
0.0000000000
10
72.6679169304
20
27.7359850893
30
0.0000000000
10
72.7542993701
20
24.0351824182
30
0.0000000000
10
72.7976002276
20
22.2226591334
30
0.0000000000
11
72.4197230898
21
39.2244692755
31
0.0000000000
11
72.5445663422
21
33.3252039216
31
0.0000000000
11
72.6706517574
21
27.6602987579
31
0.0000000000
11
72.7976002276
21
22.2226591334
31
0.0000000000
0
SPLINE
5
39E
100
AcDbEntity
8
0
100
AcDbSpline
62
9
6
CONTINUOUS
70
0
71
3
72
15
73
11
74
9
42
0.0000001000
43
0.0000001000
44
0.0000000001
12
1.1452351288
22
3.9456020351
32
0.0000000000
13
4.1069458737
23
-0.1110608386
33
0.0000000000
40
0.0000000000
40
0.0000000000
40
0.0000000000
40
0.0000000000
40
0.2910786985
40
0.5102916675
40
0.6723191495
40
0.7895658296
40
0.8725302792
40
0.9301720347
40
0.9703145667
40
1.0000000000
40
1.0000000000
40
1.0000000000
40
1.0000000000
10
72.4197230898
20
39.2244692755
30
0.0000000000
10
72.5308409400
20
39.6072961772
30
0.0000000000
10
72.7375698724
20
40.2751452681
30
0.0000000000
10
73.0539022646
20
41.1403282143
30
0.0000000000
10
73.3287772450
20
41.7658341506
30
0.0000000000
10
73.5657249770
20
42.2025512176
30
0.0000000000
10
73.7687574482
20
42.4926428507
30
0.0000000000
10
73.9425531479
20
42.6712030848
30
0.0000000000
10
74.0925896016
20
42.7646180919
30
0.0000000000
10
74.1888541451
20
42.7854421093
30
0.0000000000
10
74.2294929678
20
42.7843431462
30
0.0000000000
11
72.4197230898
21
39.2244692755
31
0.0000000000
11
72.7775411713
21
40.3655646879
31
0.0000000000
11
73.0910069440
21
41.2098776993
31
0.0000000000
11
73.3631246248
21
41.8174002481
31
0.0000000000
11
73.5973006088
21
42.2383494548
31
0.0000000000
11
73.7972209098
21
42.5144183763
31
0.0000000000
11
73.9667017332
21
42.6798241465
31
0.0000000000
11
74.1095493880
21
42.7622516926
31
0.0000000000
11
74.2294929678
21
42.7843431462
31
0.0000000000
0
SPLINE
5
39F
100
AcDbEntity
8
0
100
AcDbSpline
62
9
6
CONTINUOUS
70
0
71
3
72
10
73
6
74
4
42
0.0000001000
43
0.0000001000
44
0.0000000001
12
-0.4420741972
22
2.5409640383
32
0.0000000000
13
-0.4956597732
23
2.5310569391
33
0.0000000000
40
0.0000000000
40
0.0000000000
40
0.0000000000
40
0.0000000000
40
0.3526814484
40
0.6860542406
40
1.0000000000
40
1.0000000000
40
1.0000000000
40
1.0000000000
10
-72.0604963938
20
14.6175056427
30
0.0000000000
10
-72.1124668499
20
14.9162226018
30
0.0000000000
10
-72.2152933520
20
15.4970034092
30
0.0000000000
10
-72.3708103541
20
16.3425376668
30
0.0000000000
10
-72.4754781964
20
16.8891197767
30
0.0000000000
10
-72.5273482910
20
17.1539913076
30
0.0000000000
11
-72.0604963938
21
14.6175056427
31
0.0000000000
11
-72.2192091795
21
15.5131646188
31
0.0000000000
11
-72.3748921940
21
16.3587655221
31
0.0000000000
11
-72.5273482910
21
17.1539913076
31
0.0000000000
0
SPLINE
5
3A0
100
AcDbEntity
8
0
100
AcDbSpline
62
9
6
CONTINUOUS
70
0
71
3
72
10
73
6
74
4
42
0.0000001000
43
0.0000001000
44
0.0000000001
12
-1.2743990232
22
-39.6990459844
32
0.0000000000
13
-1.0945883193
23
-39.7044106033
33
0.0000000000
40
0.0000000000
40
0.0000000000
40
0.0000000000
40
0.0000000000
40
0.3390406846
40
0.6722863494
40
1.0000000000
40
1.0000000000
40
1.0000000000
40
1.0000000000
10
-72.0604963938
20
14.6175056427
30
0.0000000000
10
-72.2045207662
20
10.1309750667
30
0.0000000000
10
-72.4854140392
20
1.2344474626
30
0.0000000000
10
-72.8850944560
20
-11.9993548758
30
0.0000000000
10
-73.1347615331
20
-20.7467885934
30
0.0000000000
10
-73.2543320444
20
-25.0840143743
30
0.0000000000
11
-72.0604963938
21
14.6175056427
31
0.0000000000
11
-72.4847341260
21
1.1576646700
31
0.0000000000
11
-72.8836181825
21
-12.0726734569
31
0.0000000000
11
-73.2543320444
21
-25.0840143743
31
0.0000000000
0
SPLINE
5
3A1
100
AcDbEntity
8
0
100
AcDbSpline
62
9
6
CONTINUOUS
70
0
71
3
72
9
73
5
74
3
42
0.0000001000
43
0.0000001000
44
0.0000000001
12
-1.2626834455
22
-13.7721089188
32
0.0000000000
13
-0.9292891159
23
-13.7986149773
33
0.0000000000
40
0.0000000000
40
0.0000000000
40
0.0000000000
40
0.0000000000
40
0.5244554330
40
1.0000000000
40
1.0000000000
40
1.0000000000
40
1.0000000000
10
-73.2543320444
20
-25.0840143743
30
0.0000000000
10
-73.4750724421
20
-27.4916334896
30
0.0000000000
10
-73.8763712870
20
-32.0841720530
30
0.0000000000
10
-74.2232046427
20
-36.6812352476
30
0.0000000000
10
-74.3705107728
20
-38.8685207093
30
0.0000000000
11
-73.2543320444
21
-25.0840143743
31
0.0000000000
11
-73.8810182375
21
-32.3100416066
31
0.0000000000
11
-74.3705107728
21
-38.8685207093
31
0.0000000000
0
SPLINE
5
3A2
100
AcDbEntity
8
0
100
AcDbSpline
62
9
6
CONTINUOUS
70
0
71
3
72
9
73
5
74
3
42
0.0000001000
43
0.0000001000
44
0.0000000001
12
1.2273669303
22
18.4264829835
32
0.0000000000
13
2.4540700009
23
18.3035309477
33
0.0000000000
40
0.0000000000
40
0.0000000000
40
0.0000000000
40
0.0000000000
40
0.2495811003
40
1.0000000000
40
1.0000000000
40
1.0000000000
40
1.0000000000
10
-74.3705107728
20
-1.2191702275
30
0.0000000000
10
-74.2684015765
20
0.3137970720
30
0.0000000000
10
-73.8077603059
20
6.4524236315
30
0.0000000000
10
-73.1412084609
20
12.5755527898
30
0.0000000000
10
-72.5273482910
20
17.1539913076
30
0.0000000000
11
-74.3705107728
21
-1.2191702275
31
0.0000000000
11
-74.0256405470
21
3.3770020703
31
0.0000000000
11
-72.5273482910
21
17.1539913076
31
0.0000000000
0
SPLINE
5
3A3
100
AcDbEntity
8
0
100
AcDbSpline
62
9
6
CONTINUOUS
70
0
71
3
72
10
73
6
74
4
42
0.0000001000
43
0.0000001000
44
0.0000000001
12
0.4061547802
22
17.0011648832
32
0.0000000000
13
0.3505901201
23
17.0024014674
33
0.0000000000
40
0.0000000000
40
0.0000000000
40
0.0000000000
40
0.0000000000
40
0.3198351376
40
0.6530294770
40
1.0000000000
40
1.0000000000
40
1.0000000000
40
1.0000000000
10
-72.9386217731
20
22.2226591334
30
0.0000000000
10
-72.8953209165
20
24.0351824366
30
0.0000000000
10
-72.8089384746
20
27.7359851289
30
0.0000000000
10
-72.6828364090
20
33.4032552726
30
0.0000000000
10
-72.6012927809
20
37.2580252444
30
0.0000000000
10
-72.5607446351
20
39.2244692876
30
0.0000000000
11
-72.9386217731
21
22.2226591334
31
0.0000000000
11
-72.8116733017
21
27.6602988130
31
0.0000000000
11
-72.6855878864
21
33.3252039853
31
0.0000000000
11
-72.5607446351
21
39.2244692876
31
0.0000000000
0
SPLINE
5
3A4
100
AcDbEntity
8
0
100
AcDbSpline
62
9
6
CONTINUOUS
70
0
71
3
72
12
73
8
74
6
42
0.0000001000
43
0.0000001000
44
0.0000000001
12
-0.7500220763
22
3.3379825214
32
0.0000000000
13
0.0817734299
23
3.4202300411
33
0.0000000000
40
0.0000000000
40
0.0000000000
40
0.0000000000
40
0.0000000000
40
0.0880086218
40
0.2494345433
40
0.4742559259
40
0.7364410404
40
1.0000000000
40
1.0000000000
40
1.0000000000
40
1.0000000000
10
-72.8729248089
20
18.8049139554
30
0.0000000000
10
-72.8949276120
20
18.9028377026
30
0.0000000000
10
-72.9196126842
20
19.1874810618
30
0.0000000000
10
-72.9463801093
20
19.7269794936
30
0.0000000000
10
-72.9577059567
20
20.4668099777
30
0.0000000000
10
-72.9560941585
20
21.3226539834
30
0.0000000000
10
-72.9458058132
20
21.9221817096
30
0.0000000000
10
-72.9386217731
20
22.2226591334
30
0.0000000000
11
-72.8729248089
21
18.8049139554
31
0.0000000000
11
-72.9110265605
21
19.1035892120
31
0.0000000000
11
-72.9401725910
21
19.6550911530
31
0.0000000000
11
-72.9550176816
21
20.4241084712
31
0.0000000000
11
-72.9538192258
21
21.3210973379
31
0.0000000000
11
-72.9386217731
21
22.2226591334
31
0.0000000000
0
SPLINE
5
3A5
100
AcDbEntity
8
0
100
AcDbSpline
62
9
6
CONTINUOUS
70
0
71
3
72
10
73
6
74
4
42
0.0000001000
43
0.0000001000
44
0.0000000001
12
-0.3243132093
22
1.6552793651
32
0.0000000000
13
-0.3700007608
23
1.6456695511
33
0.0000000000
40
0.0000000000
40
0.0000000000
40
0.0000000000
40
0.0000000000
40
0.3513849083
40
0.6847106570
40
1.0000000000
40
1.0000000000
40
1.0000000000
40
1.0000000000
10
-72.5273482910
20
17.1539913076
30
0.0000000000
10
-72.5653345468
20
17.3478713702
30
0.0000000000
10
-72.6408456714
20
17.7253775910
30
0.0000000000
10
-72.7559620403
20
18.2757243106
30
0.0000000000
10
-72.8340390433
20
18.6319599316
30
0.0000000000
10
-72.8729248089
20
18.8049139554
30
0.0000000000
11
-72.5273482910
21
17.1539913076
31
0.0000000000
11
-72.6437090678
21
17.7351557236
31
0.0000000000
11
-72.7589391052
21
18.2854584390
31
0.0000000000
11
-72.8729248089
21
18.8049139554
31
0.0000000000
0
SPLINE
5
3A6
100
AcDbEntity
8
0
100
AcDbSpline
62
9
6
CONTINUOUS
70
0
71
3
72
15
73
11
74
9
42
0.0000001000
43
0.0000001000
44
0.0000000001
12
4.1068221039
22
0.1110562178
32
0.0000000000
13
1.1452005397
23
-3.9454831137
33
0.0000000000
40
0.0000000000
40
0.0000000000
40
0.0000000000
40
0.0000000000
40
0.0317666400
40
0.0736207135
40
0.1324120714
40
0.2155409030
40
0.3317605759
40
0.4918279901
40
0.7090698438
40
1.0000000000
40
1.0000000000
40
1.0000000000
40
1.0000000000
10
-74.3705145140
20
42.7841324998
30
0.0000000000
10
-74.3270278676
20
42.7853084608
30
0.0000000000
10
-74.2255034345
20
42.7619991770
30
0.0000000000
10
-74.0720051813
20
42.6613877829
30
0.0000000000
10
-73.8978795611
20
42.4776262922
30
0.0000000000
10
-73.6968658068
20
42.1857178394
30
0.0000000000
10
-73.4632500587
20
41.7516915944
30
0.0000000000
10
-73.1918690971
20
41.1321122777
30
0.0000000000
10
-72.8776573714
20
40.2721493547
30
0.0000000000
10
-72.6718024257
20
39.6070892938
30
0.0000000000
10
-72.5607446351
20
39.2244692876
30
0.0000000000
11
-74.3705145140
21
42.7841324998
31
0.0000000000
11
-74.2424266400
21
42.7591177397
31
0.0000000000
11
-74.0953252320
21
42.6700784088
31
0.0000000000
11
-73.9250502371
21
42.4987744194
31
0.0000000000
11
-73.7270955292
21
42.2204761446
31
0.0000000000
11
-73.4966446029
21
41.8023038541
31
0.0000000000
11
-73.2287181815
21
41.2017502407
31
0.0000000000
11
-72.9183538542
21
40.3649528537
31
0.0000000000
11
-72.5607446351
21
39.2244692876
31
0.0000000000
0
SPLINE
5
3A7
100
AcDbEntity
8
0
100
AcDbSpline
62
9
6
CONTINUOUS
70
0
71
3
72
15
73
11
74
9
42
0.0000001000
43
0.0000001000
44
0.0000000001
12
1.1371278517
22
3.9693950351
32
0.0000000000
13
4.1290624475
23
0.0000034293
33
0.0000000000
40
0.0000000000
40
0.0000000000
40
0.0000000000
40
0.0000000000
40
0.2903693373
40
0.5093433594
40
0.6714875990
40
0.7890360211
40
0.8723468643
40
0.9302592948
40
0.9704907236
40
1.0000000000
40
1.0000000000
40
1.0000000000
40
1.0000000000
10
70.4361061778
20
41.1849110580
30
0.0000000000
10
70.5461685314
20
41.5691079265
30
0.0000000000
10
70.7509698806
20
42.2398439468
30
0.0000000000
10
71.0641755544
20
43.1098288005
30
0.0000000000
10
71.3364100902
20
43.7404822570
30
0.0000000000
10
71.5712068933
20
44.1822897688
30
0.0000000000
10
71.7724299303
20
44.4773602655
30
0.0000000000
10
71.9447681325
20
44.6600781531
30
0.0000000000
10
72.0932947863
20
44.7581024189
30
0.0000000000
10
72.1894578975
20
44.7808297387
30
0.0000000000
10
72.2300731125
20
44.7808297725
30
0.0000000000
11
70.4361061778
21
41.1849110580
31
0.0000000000
11
70.7903287817
21
42.3303432673
31
0.0000000000
11
71.1006837723
21
43.1795666804
31
0.0000000000
11
71.3702397798
21
43.7924082185
31
0.0000000000
11
71.6023498234
21
44.2186756143
31
0.0000000000
11
71.8006406218
21
44.4997695188
31
0.0000000000
11
71.9688655496
21
44.6697126888
31
0.0000000000
11
72.1107680937
21
44.7560775268
31
0.0000000000
11
72.2300731125
21
44.7808297725
31
0.0000000000
0
ENDSEC
0
SECTION
2
OBJECTS
0
DICTIONARY
5
3A8
100
AcDbDictionary
3
ACAD_GROUP
350
3A9
3
ACAD_MLINESTYLE
350
3AA
0
DICTIONARY
5
3A9
102
{ACAD_REACTORS
330
3A8
102
}
100
AcDbDictionary
0
DICTIONARY
5
3AA
102
{ACAD_REACTORS
330
3A8
102
}
100
AcDbDictionary
3
STANDARD
350
3AB
0
MLINESTYLE
5
3AB
102
{ACAD_REACTORS
330
3AA
102
}
100
AcDbMlineStyle
2
STANDARD
70
0
3

62
256
51
90.0
52
90.0
71
2
49
0.5
62
256
6
BYLAYER
49
-0.5
62
256
6
BYLAYER
0
ENDSEC
0
EOF
