  0
SECTION
  2
HEADER
  9
$ACADVER
  1
AC1021
  9
$DWGCODEPAGE
  3
ANSI_1252
  9
$EXTMAX
 10
297.0
 20
210.0
 30
0.0
  9
$EXTMIN
 10
0.0
 20
0.0
 30
0.0
  9
$LIMMIN
 10
0.0
 20
0.0
  9
$LIMMAX
 10
297.0
 20
210.0
  9
$VIEWCTR
 10
148.5
 20
105.0
  9
$VIEWSIZE
 40
210.0
  9
$CLAYER
  8
0
  9
$LTSCALE
 40
16.335
  9
$CELTYPE
  6
BYLAYER
  9
$DIMSCALE
 40
1.0
  9
$DIMASZ
 40
3.0
  9
$DIMEXO
 40
0.5
  9
$DIMDLI
 40
11.286
  9
$DIMEXE
 40
1.5
  9
$DIMCEN
 40
2.673
  9
$DIMLFAC
 40
1.0
  9
$DIMBLK
  1
_FILLED
  9
$DIMALT
 70
0
  9
$DIMALTF
 40
25.4
  9
$DIMTXT
 40
3.0
  9
$DIMTOL
 70
1
  9
$DIMLIM
 70
0
  9
$DIMTFAC
 40
1.0
  9
$DIMTP
 40
0.01
  9
$DIMTM
 40
0.01
  9
$DIMGAP
 40
0.625
  9
$DIMDSEP
 70
44
  9
$AUNITS
 70
0
  9
$PDMODE
 70
3
  9
$PDSIZE
 40
3.0
  9
$HANDSEED
  5
60B
  9
$TILEMODE
 70
1
  9
$MEASUREMENT
 70
1
  9
$INSUNITS
 70
4
  0
ENDSEC
  0
SECTION
  2
CLASSES
  0
CLASS
  1
ACDBDICTIONARYWDFLT
  2
AcDbDictionaryWithDefault
  3
AutoCAD 2000
 90
0
 91
1
280
0
281
0
  0
CLASS
  1
ACDBPLACEHOLDER
  2
AcDbPlaceHolder
  3
AutoCAD 2000
 90
0
 91
1
280
0
281
0
  0
CLASS
  1
LAYOUT
  2
AcDbLayout
  3
AutoCAD 2000
 90
0
 91
0
280
0
281
0
  0
ENDSEC
  0
SECTION
  2
TABLES
  0
TABLE
  2
VPORT
  5
8
100
AcDbSymbolTable
 70
2
  0
VPORT
  5
1F4
100
AcDbSymbolTableRecord
100
AcDbViewportTableRecord
  2
*ACTIVE
 70
0
 10
0.0
 20
0.0
 11
1.0
 21
1.0
 12
148.5
 22
105.0
 13
0.0
 23
0.0
 14
1.0
 24
1.0
 15
0.0
 25
0.0
 16
0.0
 26
0.0
 36
1.0
 17
0.0
 27
0.0
 37
0.0
 40
210.0
 41
1.4142857143
 42
50.0
 43
0.0
 44
0.0
 50
0.0
 51
0.0
 71
0
 72
100
 73
1
 74
1
 75
0
 76
0
 77
0
 78
0
  0
ENDTAB
  0
TABLE
  2
LTYPE
  5
5
100
AcDbSymbolTable
 70
6
  0
LTYPE
  5
14
100
AcDbSymbolTableRecord
100
AcDbLinetypeTableRecord
  2
BYBLOCK
 70
0
  3

 72
65
 73
0
 40
0.0
  0
LTYPE
  5
15
100
AcDbSymbolTableRecord
100
AcDbLinetypeTableRecord
  2
BYLAYER
 70
0
  3

 72
65
 73
0
 40
0.0
  0
LTYPE
  5
16
100
AcDbSymbolTableRecord
100
AcDbLinetypeTableRecord
  2
CONTINUOUS
 70
64
  3
Solid line
 72
65
 73
0
 40
0.0
  0
LTYPE
  5
1F5
100
AcDbSymbolTableRecord
100
AcDbLinetypeTableRecord
  2
CENTER
 70
64
  3
____ _ ____ _ ____ _ ____ _ ____ _ ____ _ ____
 72
65
 73
4
 40
0.6
 49
0.375
 74
0
 49
-0.075
 74
0
 49
0.075
 74
0
 49
-0.075
 74
0
  0
LTYPE
  5
1F6
100
AcDbSymbolTableRecord
100
AcDbLinetypeTableRecord
  2
HIDDEN
 70
64
  3
- - - - - - - - - - - - - - - - - - - -
 72
65
 73
2
 40
0.2
 49
0.1
 74
0
 49
-0.1
 74
0
  0
LTYPE
  5
1F7
100
AcDbSymbolTableRecord
100
AcDbLinetypeTableRecord
  2
PHANTOM
 70
64
  3
_____ _ _ _____ _ _ _____ _ _ _____
 72
65
 73
6
 40
0.8
 49
0.45
 74
0
 49
-0.05
 74
0
 49
0.1
 74
0
 49
-0.05
 74
0
 49
0.1
 74
0
 49
-0.05
 74
0
  0
LTYPE
  5
1F8
100
AcDbSymbolTableRecord
100
AcDbLinetypeTableRecord
  2
DOT
 70
64
  3
. . . . . . . . . . . . . . . . . . . .
 72
65
 73
2
 40
0.2
 49
0.1
 74
0
 49
-0.1
 74
0
  0
LTYPE
  5
1F9
100
AcDbSymbolTableRecord
100
AcDbLinetypeTableRecord
  2
DASHED
 70
64
  3
- - - - - - - - - - - - - - - - - - - -
 72
65
 73
2
 40
0.2
 49
0.1
 74
0
 49
-0.1
 74
0
  0
ENDTAB
  0
TABLE
  2
LAYER
  5
2
100
AcDbSymbolTable
 70
36
  0
LAYER
  5
10
100
AcDbSymbolTableRecord
100
AcDbLayerTableRecord
  2
0
 70
0
 62
7
  6
CONTINUOUS
370
-3
390
F
  0
LAYER
  5
1FA
100
AcDbSymbolTableRecord
100
AcDbLayerTableRecord
  2
DEFAULT_1
 70
0
 62
7
  6
CENTER
370
-3
390
F
  0
LAYER
  5
1FB
100
AcDbSymbolTableRecord
100
AcDbLayerTableRecord
  2
DEFAULT_2
 70
0
 62
7
  6
HIDDEN
370
-3
390
F
  0
LAYER
  5
1FC
100
AcDbSymbolTableRecord
100
AcDbLayerTableRecord
  2
DEFAULT_3
 70
0
 62
7
  6
PHANTOM
370
-3
390
F
  0
LAYER
  5
1FD
100
AcDbSymbolTableRecord
100
AcDbLayerTableRecord
  2
ASSI
 70
0
 62
7
  6
CONTINUOUS
370
-3
390
F
  0
LAYER
  5
1FE
100
AcDbSymbolTableRecord
100
AcDbLayerTableRecord
  2
COLORE_MATERIALE
 70
0
 62
7
  6
CONTINUOUS
370
-3
390
F
  0
LAYER
  5
1FF
100
AcDbSymbolTableRecord
100
AcDbLayerTableRecord
  2
COORDINATE
 70
0
 62
7
  6
CONTINUOUS
370
-3
390
F
  0
LAYER
  5
200
100
AcDbSymbolTableRecord
100
AcDbLayerTableRecord
  2
COORD_ORIGINE
 70
0
 62
7
  6
CONTINUOUS
370
-3
390
F
  0
LAYER
  5
201
100
AcDbSymbolTableRecord
100
AcDbLayerTableRecord
  2
COPY
 70
0
 62
7
  6
CONTINUOUS
370
-3
390
F
  0
LAYER
  5
202
100
AcDbSymbolTableRecord
100
AcDbLayerTableRecord
  2
COSMETICI
 70
0
 62
7
  6
CONTINUOUS
370
-3
390
F
  0
LAYER
  5
203
100
AcDbSymbolTableRecord
100
AcDbLayerTableRecord
  2
CURVE
 70
0
 62
7
  6
CONTINUOUS
370
-3
390
F
  0
LAYER
  5
204
100
AcDbSymbolTableRecord
100
AcDbLayerTableRecord
  2
DRAFT
 70
0
 62
7
  6
CONTINUOUS
370
-3
390
F
  0
LAYER
  5
205
100
AcDbSymbolTableRecord
100
AcDbLayerTableRecord
  2
IGS
 70
0
 62
7
  6
CONTINUOUS
370
-3
390
F
  0
LAYER
  5
206
100
AcDbSymbolTableRecord
100
AcDbLayerTableRecord
  2
NOTE
 70
0
 62
7
  6
CONTINUOUS
370
-3
390
F
  0
LAYER
  5
207
100
AcDbSymbolTableRecord
100
AcDbLayerTableRecord
  2
PIANI
 70
0
 62
7
  6
CONTINUOUS
370
-3
390
F
  0
LAYER
  5
208
100
AcDbSymbolTableRecord
100
AcDbLayerTableRecord
  2
PIANI_ORIGINE
 70
0
 62
7
  6
CONTINUOUS
370
-3
390
F
  0
LAYER
  5
209
100
AcDbSymbolTableRecord
100
AcDbLayerTableRecord
  2
PIANI_RIFERIMENTO
 70
0
 62
7
  6
CONTINUOUS
370
-3
390
F
  0
LAYER
  5
20A
100
AcDbSymbolTableRecord
100
AcDbLayerTableRecord
  2
PUNTI
 70
0
 62
7
  6
CONTINUOUS
370
-3
390
F
  0
LAYER
  5
20B
100
AcDbSymbolTableRecord
100
AcDbLayerTableRecord
  2
RACCORDO
 70
0
 62
7
  6
CONTINUOUS
370
-3
390
F
  0
LAYER
  5
20C
100
AcDbSymbolTableRecord
100
AcDbLayerTableRecord
  2
SIMBOLI
 70
0
 62
7
  6
CONTINUOUS
370
-3
390
F
  0
LAYER
  5
20D
100
AcDbSymbolTableRecord
100
AcDbLayerTableRecord
  2
SMUSSO
 70
0
 62
7
  6
CONTINUOUS
370
-3
390
F
  0
LAYER
  5
20E
100
AcDbSymbolTableRecord
100
AcDbLayerTableRecord
  2
SNAPLINE
 70
0
 62
7
  6
CONTINUOUS
370
-3
390
F
  0
LAYER
  5
20F
100
AcDbSymbolTableRecord
100
AcDbLayerTableRecord
  2
SOLIDO
 70
0
 62
7
  6
CONTINUOUS
370
-3
390
F
  0
LAYER
  5
210
100
AcDbSymbolTableRecord
100
AcDbLayerTableRecord
  2
SUPERFICI
 70
0
 62
7
  6
CONTINUOUS
370
-3
390
F
  0
LAYER
  5
211
100
AcDbSymbolTableRecord
100
AcDbLayerTableRecord
  2
TRASH
 70
0
 62
7
  6
CONTINUOUS
370
-3
390
F
  0
ENDTAB
  0
TABLE
  2
STYLE
  5
3
100
AcDbSymbolTable
 70
1
  0
STYLE
  5
11
100
AcDbSymbolTableRecord
100
AcDbTextStyleTableRecord
  2
STANDARD
 70
0
 40
0.0
 41
0.8
 50
0.0
 71
0
 42
0.2
  3
txt
  4

  0
STYLE
  5
212
100
AcDbSymbolTableRecord
100
AcDbTextStyleTableRecord
  2
TEXTSTYLE_1
 70
0
 40
0.0
 41
0.8
 50
0.0
 71
0
 42
0.2
  3
gdt
  4

  0
ENDTAB
  0
TABLE
  2
VIEW
  5
6
100
AcDbSymbolTable
 70
0
  0
ENDTAB
  0
TABLE
  2
UCS
  5
7
100
AcDbSymbolTable
 70
0
  0
ENDTAB
  0
TABLE
  2
APPID
  5
9
100
AcDbSymbolTable
 70
1
  0
APPID
  5
213
100
AcDbSymbolTableRecord
100
AcDbRegAppTableRecord
  2
ACAD
 70
0
  0
ENDTAB
  0
TABLE
  2
BLOCK_RECORD
  5
1
100
AcDbSymbolTable
 70
0
  0
BLOCK_RECORD
  5
214
100
AcDbSymbolTableRecord
100
AcDbBlockTableRecord
  2
*Model_Space
  0
BLOCK_RECORD
  5
215
100
AcDbSymbolTableRecord
100
AcDbBlockTableRecord
  2
*Paper_Space
  0
ENDTAB
  0
TABLE
  2
DIMSTYLE
  5
A
100
AcDbSymbolTable
 70
1
100
AcDbDimStyleTable
 71
0
  0
DIMSTYLE
105
216
100
AcDbSymbolTableRecord
100
AcDbDimStyleTableRecord
  2
STANDARD
 70
0
  3

  4

 40
1.0
 41
3.0
 42
0.5
 43
0.38
 44
1.5
 45
0.0
 46
0.0
 47
0.01
 48
0.01
140
3.0
141
0.09
142
0.0
143
25.4
144
1.0
145
0.0
146
1.0
147
0.625
 71
1.0
 72
0.0
 73
0
 74
0
 75
0
 76
0
 77
1
 78
8
170
0
171
1
172
0
173
0
174
0
175
0
176
0
177
0
178
0
270
2
271
2
272
2
273
2
274
2
275
0
280
0
281
0
282
0
283
1
284
8
285
0
286
0
287
3
288
0
340
11
278
44
  0
ENDTAB
  0
ENDSEC
  0
SECTION
  2
BLOCKS
  0
BLOCK
  5
20
100
AcDbEntity
  8
0
100
AcDbBlockBegin
  2
*Model_Space
 70
0
 10
0.0
 20
0.0
 30
0.0
  3
*Model_Space
  1

  0
ENDBLK
  5
21
100
AcDbEntity
  8
0
100
AcDbBlockEnd
  0
BLOCK
  5
1C
100
AcDbEntity
  8
0
100
AcDbBlockBegin
  2
*Paper_Space
 70
0
 10
0.0
 20
0.0
 30
0.0
  3
*Paper_Space
  1

  0
ENDBLK
  5
1D
100
AcDbEntity
  8
0
100
AcDbBlockEnd
  0
ENDSEC
  0
SECTION
  2
ENTITIES
  0
LINE
  5
217
100
AcDbEntity
  8
RACCORDO
100
AcDbLine
 62
7
  6
CONTINUOUS
 10
2.0189411911
 20
-22.5493687656
 11
3.4045818372
 21
-22.4235900953
  0
LINE
  5
218
100
AcDbEntity
  8
RACCORDO
100
AcDbLine
 62
7
  6
CONTINUOUS
 10
-9.1810588089
 20
-22.5493687656
 11
-7.7954181628
 21
-22.4235900953
  0
LINE
  5
219
100
AcDbEntity
  8
RACCORDO
100
AcDbLine
 62
7
  6
CONTINUOUS
 10
-10.9880637356
 20
-22.5493687656
 11
-9.1810588089
 21
-22.5493687656
  0
LINE
  5
21A
100
AcDbEntity
  8
DRAFT
100
AcDbLine
 62
7
  6
CONTINUOUS
 10
-2.7943074629
 20
-22.5493687656
 11
2.0189411911
 21
-22.5493687656
  0
LINE
  5
21B
100
AcDbEntity
  8
RACCORDO
100
AcDbLine
 62
7
  6
CONTINUOUS
 10
8.4056925371
 20
-22.5493687656
 11
10.2126974638
 21
-22.5493687656
  0
LINE
  5
21C
100
AcDbEntity
  8
RACCORDO
100
AcDbLine
 62
7
  6
CONTINUOUS
 10
6.8468468103
 20
-22.4183493174
 11
3.5777869179
 21
-22.4183493174
  0
LINE
  5
21D
100
AcDbEntity
  8
RACCORDO
100
AcDbLine
 62
7
  6
CONTINUOUS
 10
-4.3531531897
 20
-22.4183493174
 11
-7.6222130821
 21
-22.4183493174
  0
LINE
  5
21E
100
AcDbEntity
  8
RACCORDO
100
AcDbLine
 62
7
  6
CONTINUOUS
 10
-2.7943074629
 20
-22.5493687656
 11
-4.179948109
 21
-22.4235900953
  0
LINE
  5
21F
100
AcDbEntity
  8
RACCORDO
100
AcDbLine
 62
7
  6
CONTINUOUS
 10
8.4056925371
 20
-22.5493687656
 11
7.020051891
 21
-22.4235900953
  0
LINE
  5
220
100
AcDbEntity
  8
RACCORDO
100
AcDbLine
 62
7
  6
CONTINUOUS
 10
2.7694965411
 20
-21.0493687656
 11
3.4045818372
 21
-20.9143057486
  0
LINE
  5
221
100
AcDbEntity
  8
DRAFT
100
AcDbLine
 62
7
  6
CONTINUOUS
 10
2.7694965411
 20
-21.0493687656
 11
2.0189411911
 21
-21.1193687656
  0
LINE
  5
222
100
AcDbEntity
  8
DRAFT
100
AcDbLine
 62
7
  6
CONTINUOUS
 10
-8.4305034589
 20
-21.0493687656
 11
-9.1810588089
 21
-21.1193687656
  0
LWPOLYLINE
  5
223
100
AcDbEntity
  8
RACCORDO
100
AcDbPolyline
 62
253
  6
CONTINUOUS
 90
43
 70
0
 10
9.2809173604
 20
-20.4629791434
 10
9.2883133342
 20
-20.4629420964
 10
9.2956991904
 20
-20.4628669796
 10
9.3030648253
 20
-20.4627538974
 10
9.3104001627
 20
-20.4626030078
 10
9.3176951681
 20
-20.4624145175
 10
9.3249398619
 20
-20.4621886815
 10
9.3321243336
 20
-20.4619258095
 10
9.3392387547
 20
-20.4616262625
 10
9.346273393
 20
-20.4612904485
 10
9.3532186251
 20
-20.4609188274
 10
9.3600649501
 20
-20.4605119084
 10
9.3668030021
 20
-20.4600702472
 10
9.3734235638
 20
-20.459594448
 10
9.3799175782
 20
-20.4590851626
 10
9.3862761616
 20
-20.4585430867
 10
9.3924906156
 20
-20.4579689622
 10
9.3985524388
 20
-20.4573635748
 10
9.4044533389
 20
-20.4567277523
 10
9.4101852433
 20
-20.4560623645
 10
9.415740311
 20
-20.4553683219
 10
9.4211109427
 20
-20.4546465738
 10
9.4262897914
 20
-20.4538981074
 10
9.4312697726
 20
-20.4531239467
 10
9.4360440737
 20
-20.4523251509
 10
9.4406061635
 20
-20.4515028125
 10
9.4449498011
 20
-20.4506580565
 10
9.4490690446
 20
-20.4497920388
 10
9.4529582588
 20
-20.4489059437
 10
9.4566121233
 20
-20.4480009833
 10
9.4600256398
 20
-20.4470783963
 10
9.4631941385
 20
-20.4461394441
 10
9.4661132851
 20
-20.445185411
 10
9.4687790861
 20
-20.4442176031
 10
9.4711878948
 20
-20.4432373435
 10
9.473336416
 20
-20.4422459727
 10
9.4752217106
 20
-20.4412448488
 10
9.4768411993
 20
-20.4402353397
 10
9.478192667
 20
-20.4392188257
 10
9.4792742647
 20
-20.4381967002
 10
9.4800845128
 20
-20.4371703613
 10
9.480622303
 20
-20.4361412098
 10
9.4808868995
 20
-20.4351106516
  0
LINE
  5
224
100
AcDbEntity
  8
RACCORDO
100
AcDbLine
 62
7
  6
CONTINUOUS
 10
-10.137840376
 20
-21.1193687656
 11
-9.1810588089
 21
-21.1193687656
  0
LINE
  5
225
100
AcDbEntity
  8
DRAFT
100
AcDbLine
 62
7
  6
CONTINUOUS
 10
-2.7943074629
 20
-21.1193687656
 11
2.0189411911
 21
-21.1193687656
  0
LINE
  5
226
100
AcDbEntity
  8
RACCORDO
100
AcDbLine
 62
7
  6
CONTINUOUS
 10
8.4056925371
 20
-21.1193687656
 11
9.3624741042
 21
-21.1193687656
  0
LINE
  5
227
100
AcDbEntity
  8
RACCORDO
100
AcDbLine
 62
7
  6
CONTINUOUS
 10
9.3400202615
 20
-21.0493687656
 11
7.6551371871
 21
-21.0493687656
  0
LINE
  5
228
100
AcDbEntity
  8
DRAFT
100
AcDbLine
 62
7
  6
CONTINUOUS
 10
2.7694965411
 20
-21.0493687656
 11
-3.5448628129
 21
-21.0493687656
  0
LINE
  5
229
100
AcDbEntity
  8
RACCORDO
100
AcDbLine
 62
7
  6
CONTINUOUS
 10
-8.4305034589
 20
-21.0493687656
 11
-10.1153865334
 21
-21.0493687656
  0
LINE
  5
22A
100
AcDbEntity
  8
RACCORDO
100
AcDbLine
 62
7
  6
CONTINUOUS
 10
6.8468468103
 20
-20.9020272925
 11
3.5777869179
 21
-20.9020272925
  0
LINE
  5
22B
100
AcDbEntity
  8
RACCORDO
100
AcDbLine
 62
7
  6
CONTINUOUS
 10
-4.3531531897
 20
-20.9020272925
 11
-7.6222130821
 21
-20.9020272925
  0
LINE
  5
22C
100
AcDbEntity
  8
RACCORDO
100
AcDbLine
 62
253
  6
CONTINUOUS
 10
9.2809173604
 20
-20.6336198819
 11
-10.0562836323
 21
-20.6336198819
  0
LINE
  5
22D
100
AcDbEntity
  8
RACCORDO
100
AcDbLine
 62
253
  6
CONTINUOUS
 10
9.280917324
 20
-20.4629791434
 11
-10.0562835958
 21
-20.4629791434
  0
LWPOLYLINE
  5
22E
100
AcDbEntity
  8
RACCORDO
100
AcDbPolyline
 62
253
  6
CONTINUOUS
 90
46
 70
0
 10
-10.0562836323
 20
-20.6336198819
 10
-10.0632530385
 20
-20.6334845676
 10
-10.0702139766
 20
-20.6331082193
 10
-10.0771579887
 20
-20.6324912941
 10
-10.0840766373
 20
-20.6316345418
 10
-10.0909615162
 20
-20.6305390033
 10
-10.0978042596
 20
-20.6292060097
 10
-10.1045965535
 20
-20.6276371807
 10
-10.1113301448
 20
-20.6258344225
 10
-10.1179968519
 20
-20.6237999256
 10
-10.1245885743
 20
-20.6215361619
 10
-10.131097303
 20
-20.6190458821
 10
-10.1375151293
 20
-20.6163321119
 10
-10.1438342553
 20
-20.6133981487
 10
-10.1500470031
 20
-20.6102475575
 10
-10.1561458238
 20
-20.6068841663
 10
-10.1621233069
 20
-20.6033120618
 10
-10.1679721897
 20
-20.5995355844
 10
-10.1736853654
 20
-20.5955593226
 10
-10.1792558922
 20
-20.5913881078
 10
-10.1846770017
 20
-20.5870270081
 10
-10.1899421069
 20
-20.5824813227
 10
-10.1950448105
 20
-20.5777565746
 10
-10.1999789124
 20
-20.5728585047
 10
-10.2047384175
 20
-20.5677930644
 10
-10.2093175428
 20
-20.5625664084
 10
-10.2137107243
 20
-20.5571848874
 10
-10.2179126241
 20
-20.5516550403
 10
-10.2219181368
 20
-20.545983586
 10
-10.2257223955
 20
-20.5401774156
 10
-10.2293207777
 20
-20.5342435839
 10
-10.2327089112
 20
-20.5281893008
 10
-10.2358826794
 20
-20.5220219226
 10
-10.2388382259
 20
-20.515748943
 10
-10.2415719596
 20
-20.5093779838
 10
-10.2440805589
 20
-20.5029167862
 10
-10.2463609757
 20
-20.4963732008
 10
-10.2484104391
 20
-20.4897551784
 10
-10.2502264591
 20
-20.4830707602
 10
-10.2518068289
 20
-20.4763280681
 10
-10.2531496285
 20
-20.4695352948
 10
-10.2542532262
 20
-20.4627006939
 10
-10.2551162812
 20
-20.4558325698
 10
-10.2557377446
 20
-20.4489392675
 10
-10.2561168616
 20
-20.4420291627
 10
-10.2562531713
 20
-20.4351106516
  0
LWPOLYLINE
  5
22F
100
AcDbEntity
  8
RACCORDO
100
AcDbPolyline
 62
253
  6
CONTINUOUS
 90
4
 70
0
 10
-10.085767287
 20
-20.462605665
 10
-10.0784310971
 20
-20.4627538974
 10
-10.0710620346
 20
-20.4628565953
 10
-10.0562836323
 20
-20.4629791434
  0
LINE
  5
230
100
AcDbEntity
  8
DRAFT
100
AcDbLine
 62
7
  6
CONTINUOUS
 10
-3.5448628129
 20
-21.0493687656
 11
-2.7943074629
 21
-21.1193687656
  0
LINE
  5
231
100
AcDbEntity
  8
DRAFT
100
AcDbLine
 62
7
  6
CONTINUOUS
 10
7.6551371871
 20
-21.0493687656
 11
8.4056925371
 21
-21.1193687656
  0
LINE
  5
232
100
AcDbEntity
  8
RACCORDO
100
AcDbLine
 62
7
  6
CONTINUOUS
 10
-3.5448628129
 20
-21.0493687656
 11
-4.179948109
 21
-20.9143057486
  0
LINE
  5
233
100
AcDbEntity
  8
RACCORDO
100
AcDbLine
 62
7
  6
CONTINUOUS
 10
-8.4305034589
 20
-21.0493687656
 11
-7.7954181628
 21
-20.9143057486
  0
LINE
  5
234
100
AcDbEntity
  8
0
100
AcDbLine
 62
7
  6
CONTINUOUS
 10
-3.1899591359
 20
-19.1316697656
 11
-2.8772671359
 21
-19.1316697656
  0
LINE
  5
235
100
AcDbEntity
  8
0
100
AcDbLine
 62
7
  6
CONTINUOUS
 10
-2.1991851359
 20
-19.1316697656
 11
-1.8443571359
 21
-19.1316697656
  0
LINE
  5
236
100
AcDbEntity
  8
0
100
AcDbLine
 62
7
  6
CONTINUOUS
 10
-1.6533421359
 20
-19.1316697656
 11
-1.3138871359
 21
-19.1316697656
  0
LINE
  5
237
100
AcDbEntity
  8
0
100
AcDbLine
 62
7
  6
CONTINUOUS
 10
-0.8210591359
 20
-19.1316697656
 11
-0.7712951359
 21
-19.1316697656
  0
LINE
  5
238
100
AcDbEntity
  8
0
100
AcDbLine
 62
7
  6
CONTINUOUS
 10
0.1263298641
 20
-19.1316697656
 11
0.4773078641
 21
-19.1316697656
  0
LINE
  5
239
100
AcDbEntity
  8
0
100
AcDbLine
 62
7
  6
CONTINUOUS
 10
-0.2765031359
 20
-19.1316697656
 11
0.0706128641
 21
-19.1316697656
  0
LINE
  5
23A
100
AcDbEntity
  8
0
100
AcDbLine
 62
7
  6
CONTINUOUS
 10
1.1503548641
 20
-19.1316697656
 11
1.5243288641
 21
-19.1316697656
  0
LINE
  5
23B
100
AcDbEntity
  8
0
100
AcDbLine
 62
7
  6
CONTINUOUS
 10
1.628523528
 20
-19.1316694523
 11
1.9819238601
 21
-19.1316694523
  0
LINE
  5
23C
100
AcDbEntity
  8
0
100
AcDbLine
 62
7
  6
CONTINUOUS
 10
2.5252940792
 20
-19.1316694523
 11
2.8665974225
 21
-19.1316694523
  0
LINE
  5
23D
100
AcDbEntity
  8
0
100
AcDbLine
 62
7
  6
CONTINUOUS
 10
0.5752188641
 20
-18.7923167656
 11
1.0584358641
 21
-18.7923167656
  0
LINE
  5
23E
100
AcDbEntity
  8
0
100
AcDbLine
 62
7
  6
CONTINUOUS
 10
0.6478008641
 20
-18.5297267656
 11
0.9875228641
 21
-18.5297267656
  0
LINE
  5
23F
100
AcDbEntity
  8
0
100
AcDbLine
 62
7
  6
CONTINUOUS
 10
1.9819238601
 20
-18.4664370497
 11
2.1721741831
 21
-18.4664370497
  0
LINE
  5
240
100
AcDbEntity
  8
RACCORDO
100
AcDbLine
 62
7
  6
CONTINUOUS
 10
7.6551371871
 20
-21.0493687656
 11
7.020051891
 21
-20.9143057486
  0
LWPOLYLINE
  5
241
100
AcDbEntity
  8
0
100
AcDbPolyline
 62
7
  6
CONTINUOUS
 90
13
 70
0
 10
-3.3393145427
 20
17.7193118
 10
-3.3357024676
 20
17.7214012563
 10
-3.3339241495
 20
17.7224173964
 10
-3.3321457434
 20
17.7233996484
 10
-3.3303611779
 20
17.7243564043
 10
-3.3285765245
 20
17.7252792722
 10
-3.3267914472
 20
17.7261310024
 10
-3.3250034673
 20
17.726909055
 10
-3.3232150636
 20
17.7276159704
 10
-3.3214333368
 20
17.7282221188
 10
-3.3196606538
 20
17.7287176241
 10
-3.3178946478
 20
17.729112363
 10
-3.3161353187
 20
17.7294063356
  0
LWPOLYLINE
  5
242
100
AcDbEntity
  8
0
100
AcDbPolyline
 62
7
  6
CONTINUOUS
 90
37
 70
0
 10
1.628523528
 20
-17.4516666834
 10
1.6668370061
 20
-17.4462071134
 10
1.7040877125
 20
-17.4411975878
 10
1.7402756473
 20
-17.4366381149
 10
1.7753979395
 20
-17.4325435143
 10
1.8094574601
 20
-17.4288989807
 10
1.8424628219
 20
-17.4256600825
 10
1.8744147773
 20
-17.4228309391
 10
1.9053125739
 20
-17.4204074401
 10
1.935162568
 20
-17.4183328072
 10
1.9639639844
 20
-17.4166053255
 10
1.9917175982
 20
-17.4152267147
 10
2.0184320906
 20
-17.4141453471
 10
2.0440657257
 20
-17.4133583563
 10
2.0686602394
 20
-17.4128686108
 10
2.0923495205
 20
-17.412633085
 10
2.1150790274
 20
-17.4126486706
 10
2.1369033018
 20
-17.4129184761
 10
2.1581198578
 20
-17.4134088005
 10
2.1787232235
 20
-17.4141093206
 10
2.1987188707
 20
-17.4150303587
 10
2.2184207288
 20
-17.4161691814
 10
2.2378384459
 20
-17.4175082962
 10
2.2569623739
 20
-17.4190651937
 10
2.2760774977
 20
-17.4208896149
 10
2.2952671662
 20
-17.4229744247
 10
2.3144480305
 20
-17.4253267544
 10
2.3336550292
 20
-17.4280177432
 10
2.3529315867
 20
-17.4310520991
 10
2.3722342785
 20
-17.4344251069
 10
2.3914677699
 20
-17.438193769
 10
2.4106387991
 20
-17.4423646574
 10
2.4297406278
 20
-17.4469311886
 10
2.448657707
 20
-17.4519306292
 10
2.4673515201
 20
-17.4573753957
 10
2.4858605837
 20
-17.4632530551
 10
2.5041848976
 20
-17.4695635982
  0
LWPOLYLINE
  5
243
100
AcDbEntity
  8
0
100
AcDbPolyline
 62
7
  6
CONTINUOUS
 90
55
 70
0
 10
2.1729390085
 20
-18.1880405971
 10
2.1806501603
 20
-18.1878275724
 10
2.1883816974
 20
-18.187489356
 10
2.1961336197
 20
-18.1870259476
 10
2.2039217256
 20
-18.1864425453
 10
2.2117302168
 20
-18.1857339506
 10
2.2195116979
 20
-18.1848845686
 10
2.2272658118
 20
-18.1838915129
 10
2.2349929156
 20
-18.1827576688
 10
2.2426466845
 20
-18.1814760991
 10
2.2502167118
 20
-18.1800462305
 10
2.2577134042
 20
-18.1784686348
 10
2.2651216565
 20
-18.1767380922
 10
2.2724335647
 20
-18.1748566319
 10
2.2796570329
 20
-18.1728222225
 10
2.2868006678
 20
-18.1706235538
 10
2.2938674104
 20
-18.168262142
 10
2.3008543198
 20
-18.1657364678
 10
2.3077611796
 20
-18.1630306677
 10
2.3145888628
 20
-18.1601477709
 10
2.3213364965
 20
-18.1570847443
 10
2.3280012445
 20
-18.1538166286
 10
2.3345885377
 20
-18.1503444286
 10
2.3410929453
 20
-18.1466671342
 10
2.3474953389
 20
-18.1427567635
 10
2.3538157273
 20
-18.1385965909
 10
2.3600341018
 20
-18.1342033346
 10
2.3660713081
 20
-18.1295991772
 10
2.3719223928
 20
-18.1247692845
 10
2.3775923093
 20
-18.1197284829
 10
2.3830167636
 20
-18.1145434479
 10
2.3881798837
 20
-18.1092182499
 10
2.3930975416
 20
-18.1037488127
 10
2.3977530593
 20
-18.0981895941
 10
2.4021059754
 20
-18.0926033308
 10
2.4061967512
 20
-18.0869272831
 10
2.4101300931
 20
-18.0810276925
 10
2.4139417699
 20
-18.0748779902
 10
2.4175960126
 20
-18.0685047342
 10
2.4210902212
 20
-18.061853852
 10
2.4244347064
 20
-18.054914485
 10
2.4276191574
 20
-18.047697477
 10
2.4306100409
 20
-18.0401813075
 10
2.4334058963
 20
-18.0323653242
 10
2.4360081841
 20
-18.0242501618
 10
2.4383877531
 20
-18.0158162273
 10
2.4405442437
 20
-18.0070736172
 10
2.4424780154
 20
-17.9980122145
 10
2.4441609956
 20
-17.9885821034
 10
2.4455973538
 20
-17.9787731211
 10
2.4467829205
 20
-17.9685954033
 10
2.4476771148
 20
-17.9580294786
 10
2.4482664097
 20
-17.9470688454
 10
2.4485643322
 20
-17.9357199735
 10
2.4485708822
 20
-17.9239828463
  0
LINE
  5
244
100
AcDbEntity
  8
0
100
AcDbLine
 62
7
  6
CONTINUOUS
 10
1.9701582957
 20
-18.1880405971
 11
2.1729390085
 21
-18.1880405971
  0
LINE
  5
245
100
AcDbEntity
  8
0
100
AcDbLine
 62
7
  6
CONTINUOUS
 10
-3.7288491359
 20
-17.4318067656
 11
-3.3433961359
 21
-17.4318067656
  0
LINE
  5
246
100
AcDbEntity
  8
0
100
AcDbLine
 62
7
  6
CONTINUOUS
 10
-2.6854491359
 20
-17.4318067656
 11
-2.3308631359
 21
-17.4318067656
  0
LINE
  5
247
100
AcDbEntity
  8
0
100
AcDbLine
 62
7
  6
CONTINUOUS
 10
-1.4998551359
 20
-17.4318067656
 11
-1.1453201359
 21
-17.4318067656
  0
LINE
  5
248
100
AcDbEntity
  8
0
100
AcDbLine
 62
7
  6
CONTINUOUS
 10
-0.4394111359
 20
-17.4318067656
 11
-0.0883441359
 21
-17.4318067656
  0
LINE
  5
249
100
AcDbEntity
  8
0
100
AcDbLine
 62
7
  6
CONTINUOUS
 10
0.6595148641
 20
-17.4318067656
 11
1.0027688641
 21
-17.4318067656
  0
LINE
  5
24A
100
AcDbEntity
  8
0
100
AcDbLine
 62
7
  6
CONTINUOUS
 10
-2.1991851359
 20
-17.4317047656
 11
-1.8443571359
 21
-17.4317047656
  0
LWPOLYLINE
  5
24B
100
AcDbEntity
  8
0
100
AcDbPolyline
 62
7
  6
CONTINUOUS
 90
25
 70
0
 10
2.2481249427
 20
-17.7113875865
 10
2.2365484052
 20
-17.7101046649
 10
2.2249543831
 20
-17.708962536
 10
2.2133428766
 20
-17.7079612002
 10
2.2017102357
 20
-17.7070967802
 10
2.1900601103
 20
-17.7063731543
 10
2.1784034497
 20
-17.7058019567
 10
2.1667396245
 20
-17.7053833999
 10
2.155069264
 20
-17.7051172719
 10
2.143405205
 20
-17.7050145699
 10
2.1317480074
 20
-17.7050783646
 10
2.1200971113
 20
-17.7053055853
 10
2.1084636734
 20
-17.7056980176
 10
2.0968512771
 20
-17.7062630072
 10
2.0852563389
 20
-17.7069932078
 10
2.0736792651
 20
-17.707868366
 10
2.062121081
 20
-17.7088893686
 10
2.0505807613
 20
-17.7100553278
 10
2.0390556358
 20
-17.7113433282
 10
2.027547049
 20
-17.7127528876
 10
2.0160536565
 20
-17.714284487
 10
2.0045687552
 20
-17.7159166569
 10
1.9930901108
 20
-17.7176422404
 10
1.9816199576
 20
-17.7194683932
 10
1.9701582957
 20
-17.7213951146
  0
LINE
  5
24C
100
AcDbEntity
  8
0
100
AcDbLine
 62
7
  6
CONTINUOUS
 10
-2.5210164851
 20
15.7165886823
 11
-2.6876828975
 21
15.614461026
  0
LINE
  5
24D
100
AcDbEntity
  8
RACCORDO
100
AcDbLine
 62
7
  6
CONTINUOUS
 10
-10.2440894442
 20
12.9360795882
 11
-10.3376831359
 21
12.8892863063
  0
LINE
  5
24E
100
AcDbEntity
  8
0
100
AcDbLine
 62
7
  6
CONTINUOUS
 10
1.7123166257
 20
-16.1451134469
 11
1.5789834195
 21
-16.1791559961
  0
LINE
  5
24F
100
AcDbEntity
  8
0
100
AcDbLine
 62
7
  6
CONTINUOUS
 10
1.2456502133
 20
-15.532347491
 11
1.3789834195
 21
-15.4983049419
  0
LINE
  5
250
100
AcDbEntity
  8
0
100
AcDbLine
 62
7
  6
CONTINUOUS
 10
1.5789834195
 20
-16.3493687656
 11
1.7456502133
 21
-16.3153262135
  0
LINE
  5
251
100
AcDbEntity
  8
0
100
AcDbLine
 62
7
  6
CONTINUOUS
 10
-1.2876831836
 20
-16.1451134469
 11
-1.4543499774
 21
-16.1791559961
  0
LINE
  5
252
100
AcDbEntity
  8
0
100
AcDbLine
 62
7
  6
CONTINUOUS
 10
1.3789834195
 20
-15.3280921962
 11
1.2123166257
 21
-15.3621347454
  0
LINE
  5
253
100
AcDbEntity
  8
0
100
AcDbLine
 62
7
  6
CONTINUOUS
 10
-1.4543499774
 20
-16.3493687656
 11
-1.2543499774
 21
-16.3153262135
  0
LINE
  5
254
100
AcDbEntity
  8
0
100
AcDbLine
 62
7
  6
CONTINUOUS
 10
-3.5210165805
 20
-16.3493687656
 11
-2.3210165805
 21
-16.3493687656
  0
LINE
  5
255
100
AcDbEntity
  8
0
100
AcDbLine
 62
7
  6
CONTINUOUS
 10
-0.2543497867
 20
-16.3493687656
 11
-0.0543497867
 21
-16.3493687656
  0
LINE
  5
256
100
AcDbEntity
  8
0
100
AcDbLine
 62
7
  6
CONTINUOUS
 10
1.3789834195
 20
-16.3493687656
 11
1.5789834195
 21
-16.3493687656
  0
LINE
  5
257
100
AcDbEntity
  8
0
100
AcDbLine
 62
7
  6
CONTINUOUS
 10
2.5456502133
 20
-16.3493687656
 11
2.7456502133
 21
-16.3493687656
  0
LINE
  5
258
100
AcDbEntity
  8
0
100
AcDbLine
 62
7
  6
CONTINUOUS
 10
1.5789834195
 20
-16.1791559961
 11
1.3789834195
 21
-16.1791559961
  0
LINE
  5
259
100
AcDbEntity
  8
0
100
AcDbLine
 62
7
  6
CONTINUOUS
 10
-2.3210165805
 20
-16.1791559961
 11
-3.2543499059
 21
-16.1791559961
  0
LINE
  5
25A
100
AcDbEntity
  8
0
100
AcDbLine
 62
7
  6
CONTINUOUS
 10
1.0789834195
 20
-15.9408581283
 11
0.8789834195
 21
-15.9408581283
  0
LINE
  5
25B
100
AcDbEntity
  8
0
100
AcDbLine
 62
7
  6
CONTINUOUS
 10
0.8789834195
 20
-15.6344751384
 11
1.1123166257
 21
-15.6344751384
  0
LINE
  5
25C
100
AcDbEntity
  8
0
100
AcDbLine
 62
7
  6
CONTINUOUS
 10
1.3789834195
 20
-15.4983049419
 11
1.5789834195
 21
-15.4983049419
  0
LINE
  5
25D
100
AcDbEntity
  8
0
100
AcDbLine
 62
7
  6
CONTINUOUS
 10
1.5789834195
 20
-15.3280921962
 11
1.3789834195
 21
-15.3280921962
  0
LINE
  5
25E
100
AcDbEntity
  8
0
100
AcDbLine
 62
7
  6
CONTINUOUS
 10
-3.4876832462
 20
-15.1238368061
 11
-3.3210165805
 21
-15.1238368061
  0
LINE
  5
25F
100
AcDbEntity
  8
0
100
AcDbLine
 62
7
  6
CONTINUOUS
 10
-1.6543499774
 20
-16.3153262135
 11
-1.4543499774
 21
-16.3493687656
  0
LINE
  5
260
100
AcDbEntity
  8
0
100
AcDbLine
 62
7
  6
CONTINUOUS
 10
-1.4543499774
 20
-16.1791559961
 11
-1.6210165805
 21
-16.1451134469
  0
LINE
  5
261
100
AcDbEntity
  8
0
100
AcDbLine
 62
7
  6
CONTINUOUS
 10
1.2123166257
 20
-16.3153262135
 11
1.3789834195
 21
-16.3493687656
  0
LINE
  5
262
100
AcDbEntity
  8
0
100
AcDbLine
 62
7
  6
CONTINUOUS
 10
-2.8543499297
 20
-14.9195815113
 11
-2.687683279
 21
-14.9536240604
  0
LWPOLYLINE
  5
263
100
AcDbEntity
  8
RACCORDO
100
AcDbPolyline
 62
7
  6
CONTINUOUS
 90
10
 70
0
 10
-10.2440894442
 20
-13.5348171193
 10
-10.2438518481
 20
-13.5348772801
 10
-10.243376321
 20
-13.534937295
 10
-10.2426628629
 20
-13.5349971639
 10
-10.2417097065
 20
-13.5350570005
 10
-10.2405186193
 20
-13.5351166912
 10
-10.2390949027
 20
-13.5351758948
 10
-10.2374366635
 20
-13.5352345883
 10
-10.2355457951
 20
-13.5352927947
 10
-10.2311020117
 20
-13.5354068535
  0
LINE
  5
264
100
AcDbEntity
  8
0
100
AcDbLine
 62
7
  6
CONTINUOUS
 10
1.3789834195
 20
-16.1791559961
 11
1.2456502133
 21
-16.1451134469
  0
LWPOLYLINE
  5
265
100
AcDbEntity
  8
0
100
AcDbPolyline
 62
7
  6
CONTINUOUS
 90
108
 70
0
 10
2.5041848976
 20
-17.4695635982
 10
2.5127128006
 20
-17.4727621067
 10
2.5215054751
 20
-17.4764530201
 10
2.5305629211
 20
-17.4806363319
 10
2.5398830408
 20
-17.4852875756
 10
2.549467932
 20
-17.4904312022
 10
2.5593238879
 20
-17.4961405783
 10
2.5695314031
 20
-17.5024688774
 10
2.580009983
 20
-17.5093629004
 10
2.5905244379
 20
-17.5167364546
 10
2.6010957577
 20
-17.5246212395
 10
2.6117029525
 20
-17.5329855281
 10
2.6220478622
 20
-17.5416479945
 10
2.6320347541
 20
-17.5505514584
 10
2.6417593609
 20
-17.5597530819
 10
2.6512107212
 20
-17.5692430576
 10
2.6604012433
 20
-17.579036045
 10
2.6693185188
 20
-17.5891173635
 10
2.6779143615
 20
-17.5994331972
 10
2.6861772211
 20
-17.6099718586
 10
2.694118648
 20
-17.6207450172
 10
2.7017251066
 20
-17.6317338941
 10
2.7089903029
 20
-17.6429281141
 10
2.715920531
 20
-17.6543380347
 10
2.7225211382
 20
-17.6659759767
 10
2.7287981916
 20
-17.6778475879
 10
2.734745624
 20
-17.6899472002
 10
2.7403505819
 20
-17.7022701597
 10
2.7456090493
 20
-17.7148017454
 10
2.7505250422
 20
-17.7275566578
 10
2.7550977549
 20
-17.7405743729
 10
2.7593329356
 20
-17.7538583586
 10
2.763224836
 20
-17.7674051205
 10
2.7667554067
 20
-17.781243688
 10
2.7699271053
 20
-17.7953635719
 10
2.772737474
 20
-17.8097752304
 10
2.7751610903
 20
-17.8245391087
 10
2.7772017292
 20
-17.8396833132
 10
2.7788556156
 20
-17.8551796959
 10
2.7800860012
 20
-17.8710043166
 10
2.7808873343
 20
-17.8873526084
 10
2.7812651666
 20
-17.9040290893
 10
2.781199404
 20
-17.9204234857
 10
2.7806719272
 20
-17.936334998
 10
2.7797008556
 20
-17.9519644676
 10
2.7783204534
 20
-17.9673041206
 10
2.7765334249
 20
-17.9823392441
 10
2.7743370658
 20
-17.9970845845
 10
2.7717575274
 20
-18.0115765548
 10
2.7687873312
 20
-18.0258477039
 10
2.7654339557
 20
-18.0398655091
 10
2.7617459875
 20
-18.0535687774
 10
2.7576809292
 20
-18.067028233
 10
2.7532812781
 20
-18.0801731815
 10
2.7487231129
 20
-18.0927303198
 10
2.7440239278
 20
-18.1046079487
 10
2.7391662286
 20
-18.1158978253
 10
2.7342736103
 20
-18.1266018427
 10
2.7293705239
 20
-18.1366840914
 10
2.7244325184
 20
-18.146180529
 10
2.7195098371
 20
-18.1552008425
 10
2.7146080479
 20
-18.1637535616
 10
2.7097215827
 20
-18.1718301889
 10
2.7048839809
 20
-18.1795148631
 10
2.7001000275
 20
-18.1868130694
 10
2.6953649374
 20
-18.1937193453
 10
2.6906978942
 20
-18.2003014024
 10
2.6861019583
 20
-18.2065638967
 10
2.6815740693
 20
-18.2125021884
 10
2.6771242298
 20
-18.2181700422
 10
2.6727544338
 20
-18.2235711487
 10
2.6684626873
 20
-18.2287018289
 10
2.66425301
 20
-18.2336047901
 10
2.6601264569
 20
-18.2382827381
 10
2.656081973
 20
-18.2427329755
 10
2.6521204138
 20
-18.2469901041
 10
2.6482424472
 20
-18.25105615
 10
2.6444474053
 20
-18.2549290933
 10
2.6407341392
 20
-18.2586374647
 10
2.6371030997
 20
-18.2621826908
 10
2.6335538361
 20
-18.2655633498
 10
2.630083847
 20
-18.2688036991
 10
2.6266932687
 20
-18.2719050147
 10
2.623381965
 20
-18.2748660241
 10
2.6201470268
 20
-18.2777071611
 10
2.6169892728
 20
-18.2804299243
 10
2.6139078841
 20
-18.2830328179
 10
2.6108974949
 20
-18.2855317836
 10
2.6079587162
 20
-18.2879287472
 10
2.6050909368
 20
-18.2902217849
 10
2.6022869573
 20
-18.292421065
 10
2.5995455291
 20
-18.2945272424
 10
2.5968679007
 20
-18.2965396637
 10
2.5942506178
 20
-18.298466534
 10
2.5916913629
 20
-18.3003075821
 10
2.5891924535
 20
-18.3020630805
 10
2.5867573875
 20
-18.3037420492
 10
2.5843869898
 20
-18.3053438718
 10
2.5820804355
 20
-18.3068691657
 10
2.5798387478
 20
-18.3083288016
 10
2.5776659802
 20
-18.3097212699
 10
2.5755580793
 20
-18.311048081
 10
2.5735039077
 20
-18.3123246353
 10
2.5715053806
 20
-18.3135508273
 10
2.5695605828
 20
-18.314726763
 10
2.5676526316
 20
-18.3158681596
 10
2.5657820279
 20
-18.3169760148
 10
2.5639482709
 20
-18.3180493312
  0
LWPOLYLINE
  5
266
100
AcDbEntity
  8
0
100
AcDbPolyline
 62
7
  6
CONTINUOUS
 90
40
 70
0
 10
2.5407690468
 20
-18.338188574
 10
2.5474493439
 20
-18.3410067148
 10
2.5540169772
 20
-18.3440416268
 10
2.5604719469
 20
-18.3472933072
 10
2.5668187226
 20
-18.3507713135
 10
2.5730528347
 20
-18.3544660823
 10
2.5791608736
 20
-18.3583489305
 10
2.5851403765
 20
-18.3624175162
 10
2.5909938062
 20
-18.3666741753
 10
2.596715142
 20
-18.3710972413
 10
2.6022926433
 20
-18.3756720182
 10
2.6077380508
 20
-18.3804131961
 10
2.6130805653
 20
-18.3853431877
 10
2.6183091781
 20
-18.3904392579
 10
2.623434898
 20
-18.3957241345
 10
2.6285199532
 20
-18.4012884215
 10
2.6335712107
 20
-18.4071273382
 10
2.6385818034
 20
-18.4132456527
 10
2.6435933585
 20
-18.4197482872
 10
2.6486148356
 20
-18.4266353893
 10
2.653637275
 20
-18.4339067907
 10
2.658675424
 20
-18.4416669336
 10
2.6637421322
 20
-18.4499360056
 10
2.6688245501
 20
-18.458693787
 10
2.6738988762
 20
-18.4679841035
 10
2.6789705855
 20
-18.4778226739
 10
2.684034203
 20
-18.4881937377
 10
2.6890495018
 20
-18.4990938975
 10
2.6940098328
 20
-18.5105184971
 10
2.698921845
 20
-18.5224721449
 10
2.7037652587
 20
-18.534965338
 10
2.708528449
 20
-18.5480014801
 10
2.7132230408
 20
-18.5615771111
 10
2.7178636281
 20
-18.5756924301
 10
2.7224286794
 20
-18.5903496515
 10
2.7269397262
 20
-18.6055464969
 10
2.731475957
 20
-18.6212764244
 10
2.7360637678
 20
-18.6375372301
 10
2.7406767626
 20
-18.6543310473
 10
2.7620763691
 20
-18.7337658142
  0
LINE
  5
267
100
AcDbEntity
  8
RACCORDO
100
AcDbLine
 62
7
  6
CONTINUOUS
 10
-10.2440894442
 20
-13.5348171193
 11
-10.3376831359
 21
-13.4880238375
  0
LINE
  5
268
100
AcDbEntity
  8
0
100
AcDbLine
 62
7
  6
CONTINUOUS
 10
-1.8876828975
 20
15.0357376072
 11
-2.0210164851
 21
14.9336099598
  0
LINE
  5
269
100
AcDbEntity
  8
0
100
AcDbLine
 62
7
  6
CONTINUOUS
 10
-2.5876828975
 20
15.4782908175
 11
-2.4876828975
 21
15.5463759158
  0
LINE
  5
26A
100
AcDbEntity
  8
0
100
AcDbLine
 62
7
  6
CONTINUOUS
 10
-1.9876828975
 20
14.7633972142
 11
-1.8210164851
 21
14.8655248616
  0
LINE
  5
26B
100
AcDbEntity
  8
0
100
AcDbLine
 62
7
  6
CONTINUOUS
 10
0.4789837056
 20
15.7165886823
 11
0.3123169118
 21
15.614461026
  0
LINE
  5
26C
100
AcDbEntity
  8
0
100
AcDbLine
 62
7
  6
CONTINUOUS
 10
-1.6210165805
 20
-14.9536240604
 11
-1.4543499774
 21
-14.9195815113
  0
LINE
  5
26D
100
AcDbEntity
  8
0
100
AcDbLine
 62
7
  6
CONTINUOUS
 10
-3.1543499059
 20
-14.9536240604
 11
-2.9876832313
 21
-14.9195815113
  0
LINE
  5
26E
100
AcDbEntity
  8
0
100
AcDbLine
 62
7
  6
CONTINUOUS
 10
-1.4543499774
 20
-14.7493687656
 11
-1.6543499774
 21
-14.7834113147
  0
LINE
  5
26F
100
AcDbEntity
  8
0
100
AcDbLine
 62
7
  6
CONTINUOUS
 10
-2.9543499297
 20
-14.7493687656
 11
-3.1876832551
 21
-14.7834113147
  0
LWPOLYLINE
  5
270
100
AcDbEntity
  8
RACCORDO
100
AcDbPolyline
 62
7
  6
CONTINUOUS
 90
8
 70
0
 10
9.4620703917
 20
-13.5352345883
 10
9.4637286309
 20
-13.5351758948
 10
9.4651523474
 20
-13.5351166912
 10
9.4663434347
 20
-13.5350570005
 10
9.467296591
 20
-13.5349971639
 10
9.4680100491
 20
-13.534937295
 10
9.4684855763
 20
-13.5348772801
 10
9.4687231724
 20
-13.5348171193
  0
LINE
  5
271
100
AcDbEntity
  8
RACCORDO
100
AcDbLine
 62
7
  6
CONTINUOUS
 10
9.4580670075
 20
-13.535350242
 11
9.4620703917
 21
-13.5352345883
  0
LINE
  5
272
100
AcDbEntity
  8
RACCORDO
100
AcDbLine
 62
7
  6
CONTINUOUS
 10
9.4531828249
 20
-13.5354627059
 11
9.4580670075
 21
-13.535350242
  0
LINE
  5
273
100
AcDbEntity
  8
RACCORDO
100
AcDbLine
 62
7
  6
CONTINUOUS
 10
9.4442029379
 20
-13.5356255689
 11
9.4531828249
 21
-13.5354627059
  0
LINE
  5
274
100
AcDbEntity
  8
RACCORDO
100
AcDbLine
 62
7
  6
CONTINUOUS
 10
9.4250404007
 20
-13.5358771569
 11
9.4442029379
 21
-13.5356255689
  0
LINE
  5
275
100
AcDbEntity
  8
DRAFT
100
AcDbLine
 62
7
  6
CONTINUOUS
 10
9.5623168641
 20
-13.4623109055
 11
8.9623168641
 21
-13.4675470262
  0
LINE
  5
276
100
AcDbEntity
  8
RACCORDO
100
AcDbLine
 62
7
  6
CONTINUOUS
 10
9.385123711
 20
-13.5362080437
 11
9.4250404007
 21
-13.5358771569
  0
LINE
  5
277
100
AcDbEntity
  8
DRAFT
100
AcDbLine
 62
7
  6
CONTINUOUS
 10
-10.3376831359
 20
-13.4762425659
 11
-9.7376831359
 21
-13.4732194903
  0
LINE
  5
278
100
AcDbEntity
  8
RACCORDO
100
AcDbLine
 62
7
  6
CONTINUOUS
 10
9.3030289138
 20
-13.5365085241
 11
9.385123711
 21
-13.5362080437
  0
LINE
  5
279
100
AcDbEntity
  8
RACCORDO
100
AcDbLine
 62
7
  6
CONTINUOUS
 10
9.2687423037
 20
-13.5365344095
 11
9.3030289138
 21
-13.5365085241
  0
LINE
  5
27A
100
AcDbEntity
  8
0
100
AcDbLine
 62
7
  6
CONTINUOUS
 10
-2.9876832313
 20
-14.9195815113
 11
-2.8543499297
 21
-14.9195815113
  0
LINE
  5
27B
100
AcDbEntity
  8
0
100
AcDbLine
 62
7
  6
CONTINUOUS
 10
-0.5876831836
 20
-14.9195815113
 11
0.4123166257
 21
-14.9195815113
  0
LINE
  5
27C
100
AcDbEntity
  8
0
100
AcDbLine
 62
7
  6
CONTINUOUS
 10
1.0456502133
 20
-14.9195815113
 11
2.0123166257
 21
-14.9195815113
  0
LINE
  5
27D
100
AcDbEntity
  8
0
100
AcDbLine
 62
7
  6
CONTINUOUS
 10
2.7456502133
 20
-14.7493687656
 11
2.5456502133
 21
-14.7493687656
  0
LINE
  5
27E
100
AcDbEntity
  8
0
100
AcDbLine
 62
7
  6
CONTINUOUS
 10
2.0123166257
 20
-14.7493687656
 11
0.8789834195
 21
-14.7493687656
  0
LINE
  5
27F
100
AcDbEntity
  8
0
100
AcDbLine
 62
7
  6
CONTINUOUS
 10
0.6123166257
 20
-14.7493687656
 11
-0.5876831836
 21
-14.7493687656
  0
LINE
  5
280
100
AcDbEntity
  8
0
100
AcDbLine
 62
7
  6
CONTINUOUS
 10
-2.8210165805
 20
-14.7493687656
 11
-2.9543499297
 21
-14.7493687656
  0
LINE
  5
281
100
AcDbEntity
  8
DRAFT
100
AcDbLine
 62
7
  6
CONTINUOUS
 10
-11.4876831359
 20
-13.4880238375
 11
-10.3376831359
 21
-13.4880238375
  0
LINE
  5
282
100
AcDbEntity
  8
DRAFT
100
AcDbLine
 62
7
  6
CONTINUOUS
 10
9.5623168641
 20
-13.4880238375
 11
10.7123168641
 21
-13.4880238375
  0
LINE
  5
283
100
AcDbEntity
  8
0
100
AcDbLine
 62
7
  6
CONTINUOUS
 10
9.7723538463
 20
-13.4623109055
 11
9.5623168641
 21
-13.4623109055
  0
LINE
  5
284
100
AcDbEntity
  8
0
100
AcDbLine
 62
7
  6
CONTINUOUS
 10
-10.3376831359
 20
-13.4623109055
 11
-10.5477201181
 21
-13.4623109055
  0
LINE
  5
285
100
AcDbEntity
  8
RACCORDO
100
AcDbLine
 62
7
  6
CONTINUOUS
 10
-10.1369290202
 20
-13.536334791
 11
-10.0441085755
 21
-13.5365344095
  0
LINE
  5
286
100
AcDbEntity
  8
DRAFT
100
AcDbLine
 62
7
  6
CONTINUOUS
 10
8.9623168641
 20
-13.4732194903
 11
9.5623168641
 21
-13.4762425659
  0
LINE
  5
287
100
AcDbEntity
  8
RACCORDO
100
AcDbLine
 62
7
  6
CONTINUOUS
 10
-10.1866771688
 20
-13.5360124511
 11
-10.1369290202
 21
-13.536334791
  0
LINE
  5
288
100
AcDbEntity
  8
DRAFT
100
AcDbLine
 62
7
  6
CONTINUOUS
 10
-9.7376831359
 20
-13.4675470262
 11
-10.3376831359
 21
-13.4623109055
  0
LINE
  5
289
100
AcDbEntity
  8
RACCORDO
100
AcDbLine
 62
7
  6
CONTINUOUS
 10
-10.2125100571
 20
-13.5357295682
 11
-10.1866771688
 21
-13.5360124511
  0
LINE
  5
28A
100
AcDbEntity
  8
RACCORDO
100
AcDbLine
 62
7
  6
CONTINUOUS
 10
-10.2257768302
 20
-13.5355177572
 11
-10.2125100571
 21
-13.5357295682
  0
LINE
  5
28B
100
AcDbEntity
  8
RACCORDO
100
AcDbLine
 62
7
  6
CONTINUOUS
 10
-10.2311020117
 20
-13.5354068535
 11
-10.2257768302
 21
-13.5355177572
  0
LINE
  5
28C
100
AcDbEntity
  8
0
100
AcDbLine
 62
7
  6
CONTINUOUS
 10
-2.6210165805
 20
-14.7834113147
 11
-2.8210165805
 21
-14.7493687656
  0
LINE
  5
28D
100
AcDbEntity
  8
0
100
AcDbLine
 62
7
  6
CONTINUOUS
 10
-1.2543499774
 20
-14.7834113147
 11
-1.4543499774
 21
-14.7493687656
  0
LINE
  5
28E
100
AcDbEntity
  8
0
100
AcDbLine
 62
7
  6
CONTINUOUS
 10
-1.4543499774
 20
-14.9195815113
 11
-1.2876831836
 21
-14.9536240604
  0
LINE
  5
28F
100
AcDbEntity
  8
0
100
AcDbLine
 62
7
  6
CONTINUOUS
 10
1.7456502133
 20
-15.3621347454
 11
1.5789834195
 21
-15.3280921962
  0
LINE
  5
290
100
AcDbEntity
  8
0
100
AcDbLine
 62
7
  6
CONTINUOUS
 10
1.5789834195
 20
-15.4983049419
 11
1.7123166257
 21
-15.532347491
  0
LINE
  5
291
100
AcDbEntity
  8
0
100
AcDbLine
 62
7
  6
CONTINUOUS
 10
-2.487683279
 20
-14.851496413
 11
-2.6210165805
 21
-14.7834113147
  0
LINE
  5
292
100
AcDbEntity
  8
0
100
AcDbLine
 62
7
  6
CONTINUOUS
 10
-1.8210165805
 20
-16.2131985571
 11
-1.6543499774
 21
-16.3153262135
  0
LINE
  5
293
100
AcDbEntity
  8
0
100
AcDbLine
 62
7
  6
CONTINUOUS
 10
-1.6210165805
 20
-16.1451134469
 11
-1.7210165805
 21
-16.0770283487
  0
LINE
  5
294
100
AcDbEntity
  8
0
100
AcDbLine
 62
7
  6
CONTINUOUS
 10
-2.687683279
 20
-14.9536240604
 11
-2.587683279
 21
-15.0217091587
  0
LWPOLYLINE
  5
295
100
AcDbEntity
  8
RACCORDO
100
AcDbPolyline
 62
253
  6
CONTINUOUS
 90
38
 70
0
 10
-10.2562531713
 20
-20.4351106516
 10
-10.2559877234
 20
-20.4361576928
 10
-10.2554496446
 20
-20.4371834043
 10
-10.2546405365
 20
-20.4381967002
 10
-10.2535598348
 20
-20.4392163463
 10
-10.2522076364
 20
-20.4402397325
 10
-10.2505879824
 20
-20.4412448488
 10
-10.2487035714
 20
-20.4422426189
 10
-10.2465545739
 20
-20.4432414675
 10
-10.244145358
 20
-20.4442176031
 10
-10.2414801231
 20
-20.4451814814
 10
-10.2385609938
 20
-20.4461432038
 10
-10.2353919116
 20
-20.4470783963
 10
-10.2319785532
 20
-20.4479968052
 10
-10.2283252121
 20
-20.4489093243
 10
-10.2244353164
 20
-20.4497920388
 10
-10.2203158672
 20
-20.4506539015
 10
-10.2159731605
 20
-20.451505852
 10
-10.2114103455
 20
-20.4523251509
 10
-10.2066355706
 20
-20.4531199953
 10
-10.2016568035
 20
-20.4539008697
 10
-10.1964772145
 20
-20.4546465738
 10
-10.1911059368
 20
-20.4553646662
 10
-10.18555226
 20
-20.4560649231
 10
-10.1798196107
 20
-20.4567277523
 10
-10.1739179672
 20
-20.4573602393
 10
-10.1678576376
 20
-20.4579713923
 10
-10.1616424335
 20
-20.4585430867
 10
-10.1552830589
 20
-20.4590821269
 10
-10.1487905978
 20
-20.4595968243
 10
-10.142169274
 20
-20.4600702472
 10
-10.1354304111
 20
-20.4605091254
 10
-10.1285856807
 20
-20.460921224
 10
-10.1216396648
 20
-20.4612904485
 10
-10.114604208
 20
-20.4616236706
 10
-10.1074914202
 20
-20.4619283002
 10
-10.1003061338
 20
-20.4621886815
 10
-10.085767287
 20
-20.462605665
  0
LINE
  5
296
100
AcDbEntity
  8
0
100
AcDbLine
 62
7
  6
CONTINUOUS
 10
-3.1210164851
 20
14.6612695668
 11
-3.3210164851
 21
14.4229716275
  0
LINE
  5
297
100
AcDbEntity
  8
0
100
AcDbLine
 62
7
  6
CONTINUOUS
 10
-3.3210164851
 20
14.1506312344
 11
-3.1210164851
 21
14.3889290783
  0
LINE
  5
298
100
AcDbEntity
  8
0
100
AcDbLine
 62
7
  6
CONTINUOUS
 10
0.4123169118
 20
15.4782908175
 11
0.5123169118
 21
15.5463759158
  0
LINE
  5
299
100
AcDbEntity
  8
0
100
AcDbLine
 62
7
  6
CONTINUOUS
 10
0.9456503087
 20
14.4229716275
 11
0.8456503087
 21
14.3548865292
  0
LINE
  5
29A
100
AcDbEntity
  8
0
100
AcDbLine
 62
7
  6
CONTINUOUS
 10
0.8789837056
 20
14.1846737835
 11
1.0456503087
 21
14.2868014309
  0
LINE
  5
29B
100
AcDbEntity
  8
0
100
AcDbLine
 62
7
  6
CONTINUOUS
 10
2.4123169833
 20
14.1846737835
 11
2.5456503087
 21
14.2527588818
  0
LINE
  5
29C
100
AcDbEntity
  8
0
100
AcDbLine
 62
7
  6
CONTINUOUS
 10
-11.2438854449
 20
-13.4677811687
 11
-11.4876831359
 21
-13.4880238375
  0
LINE
  5
29D
100
AcDbEntity
  8
0
100
AcDbLine
 62
7
  6
CONTINUOUS
 10
10.7123168641
 20
-13.4880238375
 11
10.468519173
 21
-13.4677811687
  0
LINE
  5
29E
100
AcDbEntity
  8
0
100
AcDbLine
 62
7
  6
CONTINUOUS
 10
1.0456502133
 20
-16.2131985571
 11
1.2123166257
 21
-16.3153262135
  0
LINE
  5
29F
100
AcDbEntity
  8
0
100
AcDbLine
 62
7
  6
CONTINUOUS
 10
-1.0876831836
 20
-14.8855389621
 11
-1.2543499774
 21
-14.7834113147
  0
LINE
  5
2A0
100
AcDbEntity
  8
0
100
AcDbLine
 62
7
  6
CONTINUOUS
 10
1.9123166257
 20
-15.4642623928
 11
1.7456502133
 21
-15.3621347454
  0
LINE
  5
2A1
100
AcDbEntity
  8
0
100
AcDbLine
 62
7
  6
CONTINUOUS
 10
-1.2876831836
 20
-14.9536240604
 11
-1.1876831836
 21
-15.0217091587
  0
LINE
  5
2A2
100
AcDbEntity
  8
0
100
AcDbLine
 62
7
  6
CONTINUOUS
 10
1.2456502133
 20
-16.1451134469
 11
1.1456502133
 21
-16.0770283487
  0
LINE
  5
2A3
100
AcDbEntity
  8
0
100
AcDbLine
 62
7
  6
CONTINUOUS
 10
1.7123166257
 20
-15.532347491
 11
1.8123166257
 21
-15.6004325893
  0
LINE
  5
2A4
100
AcDbEntity
  8
0
100
AcDbLine
 62
7
  6
CONTINUOUS
 10
-1.9210165805
 20
-16.1110708978
 11
-1.8210165805
 21
-16.2131985571
  0
LINE
  5
2A5
100
AcDbEntity
  8
0
100
AcDbLine
 62
7
  6
CONTINUOUS
 10
-2.354349882
 20
-14.9876666095
 11
-2.487683279
 21
-14.851496413
  0
LWPOLYLINE
  5
2A6
100
AcDbEntity
  8
RACCORDO
100
AcDbPolyline
 62
7
  6
CONTINUOUS
 90
52
 70
0
 10
-10.3152375601
 20
-20.8500258819
 10
-10.3151333908
 20
-20.8561611347
 10
-10.3148398794
 20
-20.8622900734
 10
-10.3143573492
 20
-20.8684069184
 10
-10.3136863095
 20
-20.8745059009
 10
-10.3128274356
 20
-20.8805812761
 10
-10.311781561
 20
-20.8866273271
 10
-10.3105497132
 20
-20.8926383593
 10
-10.3091330958
 20
-20.8986087129
 10
-10.3075330554
 20
-20.9045327722
 10
-10.3057511358
 20
-20.9104049606
 10
-10.3037890532
 20
-20.9162197521
 10
-10.301648656
 20
-20.9219716783
 10
-10.2993319917
 20
-20.927655326
 10
-10.2968412744
 20
-20.9332653483
 10
-10.2941788395
 20
-20.9387964682
 10
-10.2913472206
 20
-20.9442434804
 10
-10.2883491118
 20
-20.9496012603
 10
-10.2851873163
 20
-20.9548647664
 10
-10.281864833
 20
-20.9600290433
 10
-10.2783848137
 20
-20.9650892311
 10
-10.2747505065
 20
-20.9700405643
 10
-10.2709653516
 20
-20.9748783785
 10
-10.2670329324
 20
-20.9795981178
 10
-10.2629569158
 20
-20.9841953327
 10
-10.2587411546
 20
-20.9886656875
 10
-10.2543896349
 20
-20.9930049684
 10
-10.2499064123
 20
-20.9972090784
 10
-10.245295721
 20
-21.0012740465
 10
-10.2405619171
 20
-21.0051960353
 10
-10.2357094118
 20
-21.0089713348
 10
-10.2307427862
 20
-21.0125963714
 10
-10.2256667308
 20
-21.0160677159
 10
-10.2204859761
 20
-21.0193820763
 10
-10.2152054129
 20
-21.0225363061
 10
-10.2098300276
 20
-21.0255274129
 10
-10.2043648315
 20
-21.0283525501
 10
-10.1988149849
 20
-21.0310090247
 10
-10.1931857298
 20
-21.033494306
 10
-10.1874823161
 20
-21.0358060172
 10
-10.1817101316
 20
-21.0379419412
 10
-10.1758746311
 20
-21.0399000306
 10
-10.16998126
 20
-21.041678398
 10
-10.16403559
 20
-21.0432753215
 10
-10.1580432434
 20
-21.0446892537
 10
-10.1520098164
 20
-21.0459188135
 10
-10.1459366673
 20
-21.0469634558
 10
-10.1398338547
 20
-21.0478212133
 10
-10.1337202439
 20
-21.0484900195
 10
-10.12760611
 20
-21.0489701201
 10
-10.121492947
 20
-21.0492627449
 10
-10.1153865334
 20
-21.0493687656
  0
LINE
  5
2A7
100
AcDbEntity
  8
RACCORDO
100
AcDbLine
 62
253
  6
CONTINUOUS
 10
-10.2562531703
 20
19.8363731137
 11
-10.2527356739
 21
18.3080349423
  0
LINE
  5
2A8
100
AcDbEntity
  8
RACCORDO
100
AcDbLine
 62
253
  6
CONTINUOUS
 10
-10.2527356739
 20
18.3080349423
 11
-10.24899232
 21
16.3930374427
  0
LINE
  5
2A9
100
AcDbEntity
  8
RACCORDO
100
AcDbLine
 62
253
  6
CONTINUOUS
 10
-10.24899232
 20
16.3930374427
 11
-10.2465216308
 21
14.8579802538
  0
LINE
  5
2AA
100
AcDbEntity
  8
RACCORDO
100
AcDbLine
 62
253
  6
CONTINUOUS
 10
-10.2465216308
 20
14.8579802538
 11
-10.2440894442
 21
12.9360795882
  0
LWPOLYLINE
  5
2AB
100
AcDbEntity
  8
RACCORDO
100
AcDbPolyline
 62
253
  6
CONTINUOUS
 90
3
 70
0
 10
-10.241280202
 20
8.6637783665
 10
-10.2410343943
 20
7.842938913
 10
-10.2401592442
 20
3.7385040753
  0
LINE
  5
2AC
100
AcDbEntity
  8
DRAFT
100
AcDbLine
 62
7
  6
CONTINUOUS
 10
-11.4876831359
 20
-4.3993687656
 11
-11.4876831359
 21
-13.4880238375
  0
LINE
  5
2AD
100
AcDbEntity
  8
RACCORDO
100
AcDbLine
 62
7
  6
CONTINUOUS
 10
-11.4876831359
 20
-13.4880238375
 11
-11.4876831359
 21
-22.0491399135
  0
LINE
  5
2AE
100
AcDbEntity
  8
DRAFT
100
AcDbLine
 62
7
  6
CONTINUOUS
 10
-11.4876831359
 20
3.8006312344
 11
-11.4876831359
 21
12.8892863063
  0
LINE
  5
2AF
100
AcDbEntity
  8
RACCORDO
100
AcDbLine
 62
7
  6
CONTINUOUS
 10
-11.4876831359
 20
12.8892863063
 11
-11.4876831359
 21
21.4504023823
  0
LINE
  5
2B0
100
AcDbEntity
  8
RACCORDO
100
AcDbLine
 62
7
  6
CONTINUOUS
 10
-11.4475364866
 20
-0.6580670768
 11
-11.4475364866
 21
-4.3993687656
  0
LINE
  5
2B1
100
AcDbEntity
  8
RACCORDO
100
AcDbLine
 62
7
  6
CONTINUOUS
 10
-11.4475364866
 20
0.0593295456
 11
-11.4475364866
 21
3.8006312344
  0
LINE
  5
2B2
100
AcDbEntity
  8
0
100
AcDbLine
 62
253
  6
CONTINUOUS
 10
-11.2438854449
 20
12.8690436375
 11
-11.2438854449
 21
8.7322188313
  0
LINE
  5
2B3
100
AcDbEntity
  8
0
100
AcDbLine
 62
253
  6
CONTINUOUS
 10
-11.2438854449
 20
-13.4677811687
 11
-11.2438854449
 21
-9.3309563625
  0
LINE
  5
2B4
100
AcDbEntity
  8
0
100
AcDbLine
 62
253
  6
CONTINUOUS
 10
-10.5477201181
 20
12.8635733743
 11
-10.5477201181
 21
8.7376890945
  0
LINE
  5
2B5
100
AcDbEntity
  8
0
100
AcDbLine
 62
253
  6
CONTINUOUS
 10
-10.5477201181
 20
-13.4623109055
 11
-10.5477201181
 21
-9.3364266257
  0
LINE
  5
2B6
100
AcDbEntity
  8
DRAFT
100
AcDbLine
 62
7
  6
CONTINUOUS
 10
-10.3376831359
 20
12.8892863058
 11
-10.3376831359
 21
12.8775050348
  0
LINE
  5
2B7
100
AcDbEntity
  8
DRAFT
100
AcDbLine
 62
7
  6
CONTINUOUS
 10
-10.3376831359
 20
-9.3364266257
 11
-10.3376831359
 21
-13.4623109055
  0
LINE
  5
2B8
100
AcDbEntity
  8
RACCORDO
100
AcDbLine
 62
7
  6
CONTINUOUS
 10
-10.3376831359
 20
-13.4880238375
 11
-10.3376831359
 21
-20.9192669836
  0
LINE
  5
2B9
100
AcDbEntity
  8
DRAFT
100
AcDbLine
 62
7
  6
CONTINUOUS
 10
-10.3376831359
 20
-13.4880238375
 11
-10.3376831359
 21
-13.4762425659
  0
LINE
  5
2BA
100
AcDbEntity
  8
DRAFT
100
AcDbLine
 62
7
  6
CONTINUOUS
 10
-10.3376831359
 20
-9.3224949652
 11
-10.3376831359
 21
-4.3993687656
  0
LINE
  5
2BB
100
AcDbEntity
  8
DRAFT
100
AcDbLine
 62
7
  6
CONTINUOUS
 10
-10.3376831359
 20
3.8006312344
 11
-10.3376831359
 21
8.7237574341
  0
LINE
  5
2BC
100
AcDbEntity
  8
DRAFT
100
AcDbLine
 62
7
  6
CONTINUOUS
 10
-10.3376831359
 20
8.7376890945
 11
-10.3376831359
 21
12.8635733743
  0
LINE
  5
2BD
100
AcDbEntity
  8
RACCORDO
100
AcDbLine
 62
7
  6
CONTINUOUS
 10
-10.3376831359
 20
12.8892863063
 11
-10.3376831359
 21
20.3205294524
  0
LINE
  5
2BE
100
AcDbEntity
  8
RACCORDO
100
AcDbLine
 62
7
  6
CONTINUOUS
 10
-10.2975364866
 20
-1.8167933695
 11
-10.2975364866
 21
-4.3993687656
  0
LINE
  5
2BF
100
AcDbEntity
  8
RACCORDO
100
AcDbLine
 62
7
  6
CONTINUOUS
 10
-10.2975364866
 20
1.2180558384
 11
-10.2975364866
 21
3.8006312344
  0
LINE
  5
2C0
100
AcDbEntity
  8
RACCORDO
100
AcDbLine
 62
253
  6
CONTINUOUS
 10
-10.2401592442
 20
3.7385040753
 11
-10.2399172695
 21
1.2756750555
  0
LINE
  5
2C1
100
AcDbEntity
  8
RACCORDO
100
AcDbLine
 62
253
  6
CONTINUOUS
 10
-10.2399172695
 20
-1.8744125866
 11
-10.2401592442
 21
-4.3372416065
  0
LINE
  5
2C2
100
AcDbEntity
  8
RACCORDO
100
AcDbLine
 62
253
  6
CONTINUOUS
 10
-10.2401592442
 20
-4.3372416065
 11
-10.2406135567
 21
-6.7999500232
  0
LINE
  5
2C3
100
AcDbEntity
  8
RACCORDO
100
AcDbLine
 62
253
  6
CONTINUOUS
 10
-10.2406135567
 20
-6.7999500232
 11
-10.241280202
 21
-9.2625158977
  0
LWPOLYLINE
  5
2C4
100
AcDbEntity
  8
RACCORDO
100
AcDbPolyline
 62
253
  6
CONTINUOUS
 90
3
 70
0
 10
-10.2440894442
 20
-13.5348171193
 10
-10.2445175169
 20
-13.919443977
 10
-10.2449747699
 20
-14.3039460524
  0
LINE
  5
2C5
100
AcDbEntity
  8
RACCORDO
100
AcDbLine
 62
253
  6
CONTINUOUS
 10
-10.2449747699
 20
-14.3039460524
 11
-10.2459768268
 21
-15.0725829564
  0
LINE
  5
2C6
100
AcDbEntity
  8
RACCORDO
100
AcDbLine
 62
253
  6
CONTINUOUS
 10
-10.2459768268
 20
-15.0725829564
 11
-10.2470955851
 21
-15.840706531
  0
LINE
  5
2C7
100
AcDbEntity
  8
RACCORDO
100
AcDbLine
 62
253
  6
CONTINUOUS
 10
-10.2470955851
 20
-15.840706531
 11
-10.2483309481
 21
-16.6082459507
  0
LWPOLYLINE
  5
2C8
100
AcDbEntity
  8
RACCORDO
100
AcDbPolyline
 62
253
  6
CONTINUOUS
 90
3
 70
0
 10
-10.2483309481
 20
-16.6082459507
 10
-10.2496828096
 20
-17.3751366641
 10
-10.2504024145
 20
-17.7583307088
  0
LINE
  5
2C9
100
AcDbEntity
  8
RACCORDO
100
AcDbLine
 62
253
  6
CONTINUOUS
 10
-10.2504024145
 20
-17.7583307088
 11
-10.2519288466
 21
-18.5241486135
  0
LINE
  5
2CA
100
AcDbEntity
  8
RACCORDO
100
AcDbLine
 62
253
  6
CONTINUOUS
 10
-10.2519288466
 20
-18.5241486135
 11
-10.2535715248
 21
-19.2891829322
  0
LWPOLYLINE
  5
2CB
100
AcDbEntity
  8
RACCORDO
100
AcDbPolyline
 62
253
  6
CONTINUOUS
 90
3
 70
0
 10
-10.2535715248
 20
-19.2891829322
 10
-10.2553302648
 20
-20.0533481419
 10
-10.2562531703
 20
-20.4351106449
  0
LWPOLYLINE
  5
2CC
100
AcDbEntity
  8
RACCORDO
100
AcDbPolyline
 62
7
  6
CONTINUOUS
 90
52
 70
0
 10
-10.3152375601
 20
20.2512883508
 10
-10.3151336882
 20
20.2574140147
 10
-10.3148410086
 20
20.2635345187
 10
-10.3143597386
 20
20.2696440676
 10
-10.3136902675
 20
20.2757368835
 10
-10.3128331737
 20
20.2818071814
 10
-10.3117892302
 20
20.287849176
 10
-10.310559371
 20
20.2938571366
 10
-10.3091447062
 20
20.299825361
 10
-10.3075465492
 20
20.3057481527
 10
-10.3057663654
 20
20.3116198882
 10
-10.3038057931
 20
20.3174349886
 10
-10.3016666755
 20
20.3231878972
 10
-10.2993509976
 20
20.3288731472
 10
-10.2968609123
 20
20.3344853327
 10
-10.2941987778
 20
20.3400190854
 10
-10.2913670822
 20
20.3454691438
 10
-10.2883684748
 20
20.3508303225
 10
-10.285205809
 20
20.3560974901
 10
-10.2818820545
 20
20.361265637
 10
-10.2784003345
 20
20.3663298444
 10
-10.2747639734
 20
20.371285263
 10
-10.2709763972
 20
20.3761271797
 10
-10.2670411757
 20
20.3808509861
 10
-10.2629620758
 20
20.3854521585
 10
-10.2587429496
 20
20.389926322
 10
-10.2543877828
 20
20.3942692199
 10
-10.2499007513
 20
20.3984766945
 10
-10.2452861002
 20
20.4025447483
 10
-10.2405481956
 20
20.4064695137
 10
-10.2356915861
 20
20.4102472367
 10
-10.2307208719
 20
20.4138743324
 10
-10.2256407613
 20
20.417347357
 10
-10.220456135
 20
20.4206629934
 10
-10.215171908
 20
20.4238181012
 10
-10.2097930889
 20
20.4268096908
 10
-10.204324847
 20
20.4296349116
 10
-10.1987723688
 20
20.4322910955
 10
-10.1931409186
 20
20.4347757331
 10
-10.1874359077
 20
20.4370864661
 10
-10.1816627478
 20
20.4392211214
 10
-10.1758269125
 20
20.4411776924
 10
-10.1699340069
 20
20.4429543325
 10
-10.1639896197
 20
20.4445493833
 10
-10.1579993853
 20
20.4459613573
 10
-10.1519690521
 20
20.4471889361
 10
-10.1459086866
 20
20.4482303135
 10
-10.1398197212
 20
20.4490854774
 10
-10.1336948336
 20
20.449754873
 10
-10.1275353378
 20
20.4502369648
 10
-10.1213513668
 20
20.4505295731
 10
-10.1151487916
 20
20.4506312344
  0
LWPOLYLINE
  5
2CD
100
AcDbEntity
  8
RACCORDO
100
AcDbPolyline
 62
253
  6
CONTINUOUS
 90
46
 70
0
 10
-10.2399172693
 20
-1.8744125868
 10
-10.2397935511
 20
-1.8674400988
 10
-10.2394267086
 20
-1.8604748656
 10
-10.2388170598
 20
-1.8535253674
 10
-10.2379651664
 20
-1.8465997021
 10
-10.2368719644
 20
-1.8397066912
 10
-10.2355388923
 20
-1.8328558491
 10
-10.2339676447
 20
-1.8260558503
 10
-10.2321600661
 20
-1.8193146463
 10
-10.2301183811
 20
-1.8126405543
 10
-10.227845093
 20
-1.806041747
 10
-10.2253429582
 20
-1.7995262162
 10
-10.2226150118
 20
-1.7931018687
 10
-10.2196645644
 20
-1.7867765109
 10
-10.2164952151
 20
-1.7805578679
 10
-10.2131108385
 20
-1.7744535442
 10
-10.2095155662
 20
-1.7684709887
 10
-10.2057137698
 20
-1.7626174725
 10
-10.2017100705
 20
-1.7569001109
 10
-10.1975093384
 20
-1.7513258612
 10
-10.193116694
 20
-1.7459015204
 10
-10.1885374918
 20
-1.7406337018
 10
-10.1837773113
 20
-1.7355288241
 10
-10.1788419483
 20
-1.7305931024
 10
-10.1737374122
 20
-1.7258325474
 10
-10.1684699194
 20
-1.7212529569
 10
-10.1630458859
 20
-1.7168599098
 10
-10.1574719195
 20
-1.712658758
 10
-10.1517548093
 20
-1.7086546191
 10
-10.1459015182
 20
-1.7048523697
 10
-10.1399191755
 20
-1.7012566412
 10
-10.1338150674
 20
-1.6978718133
 10
-10.1275966286
 20
-1.6947020089
 10
-10.1212714336
 20
-1.6917510891
 10
-10.1148471863
 20
-1.6890226483
 10
-10.1083317113
 20
-1.6865200097
 10
-10.1017329446
 20
-1.6842462218
 10
-10.0950589233
 20
-1.6822040541
 10
-10.0883177765
 20
-1.6803959939
 10
-10.0815177152
 20
-1.6788242437
 10
-10.0746670213
 20
-1.6774907179
 10
-10.0677740394
 20
-1.6763970407
 10
-10.0608471678
 20
-1.6755445447
 10
-10.0538948441
 20
-1.6749342678
 10
-10.0469255354
 20
-1.6745669531
 10
-10.0399477303
 20
-1.6744430478
  0
LWPOLYLINE
  5
2CE
100
AcDbEntity
  8
RACCORDO
100
AcDbPolyline
 62
253
  6
CONTINUOUS
 90
46
 70
0
 10
-10.2562531713
 20
19.8363731204
 10
-10.256117103
 20
19.8432851525
 10
-10.25573857
 20
19.8501903455
 10
-10.2551178691
 20
19.857080313
 10
-10.2542555258
 20
19.8639471358
 10
-10.2531524592
 20
19.8707819922
 10
-10.2518101419
 20
19.8775751934
 10
-10.2502302916
 20
19.884318075
 10
-10.2484147376
 20
19.8910028527
 10
-10.2463657111
 20
19.8976212733
 10
-10.2440857182
 20
19.9041652429
 10
-10.2415775116
 20
19.910626861
 10
-10.2388441242
 20
19.9169983022
 10
-10.2358888572
 20
19.9232718515
 10
-10.2327153092
 20
19.9294398524
 10
-10.229327366
 20
19.935494747
 10
-10.2257291629
 20
19.941429151
 10
-10.2219250584
 20
19.9472358818
 10
-10.2179196611
 20
19.9529079046
 10
-10.2137178288
 20
19.9584383367
 10
-10.2093246739
 20
19.9638204454
 10
-10.2047455441
 20
19.9690476786
 10
-10.1999860086
 20
19.9741136794
 10
-10.1950518471
 20
19.9790122967
 10
-10.1899490522
 20
19.983737581
 10
-10.1846838227
 20
19.9882837915
 10
-10.1792625585
 20
19.9926454016
 10
-10.1736918494
 20
19.9968171094
 10
-10.1679784656
 20
20.0007938449
 10
-10.1621293492
 20
20.004570776
 10
-10.156151608
 20
20.0081433131
 10
-10.1500525059
 20
20.0115071147
 10
-10.1438394546
 20
20.0146580931
 10
-10.1375200047
 20
20.0175924188
 10
-10.1311018355
 20
20.0203065261
 10
-10.1245927463
 20
20.0227971167
 10
-10.118000648
 20
20.0250611637
 10
-10.1113335513
 20
20.0270959159
 10
-10.104599558
 20
20.0288989006
 10
-10.0978068526
 20
20.0304679267
 10
-10.0909636902
 20
20.0318010875
 10
-10.084078386
 20
20.0328967633
 10
-10.0771593057
 20
20.0337536229
 10
-10.0702148571
 20
20.0343706252
 10
-10.0632534795
 20
20.0347470203
 10
-10.0562836323
 20
20.0348823508
  0
LINE
  5
2CF
100
AcDbEntity
  8
0
100
AcDbLine
 62
7
  6
CONTINUOUS
 10
-2.6543496913
 20
15.3761631463
 11
-2.5876828975
 21
15.4782908175
  0
LINE
  5
2D0
100
AcDbEntity
  8
0
100
AcDbLine
 62
7
  6
CONTINUOUS
 10
-2.6876828975
 20
15.614461026
 11
-2.7876828975
 21
15.4782908175
  0
LINE
  5
2D1
100
AcDbEntity
  8
0
100
AcDbLine
 62
7
  6
CONTINUOUS
 10
0.3123169118
 20
15.614461026
 11
0.2123169118
 21
15.5123333666
  0
LINE
  5
2D2
100
AcDbEntity
  8
0
100
AcDbLine
 62
7
  6
CONTINUOUS
 10
2.4789836341
 20
15.5804184649
 11
1.6456503087
 21
14.8314823124
  0
LINE
  5
2D3
100
AcDbEntity
  8
0
100
AcDbLine
 62
7
  6
CONTINUOUS
 10
2.4789836341
 20
14.4229716275
 11
2.3789836341
 21
14.3548865292
  0
LINE
  5
2D4
100
AcDbEntity
  8
0
100
AcDbLine
 62
7
  6
CONTINUOUS
 10
10.7123168641
 20
-9.3107136937
 11
10.468519173
 21
-9.3309563625
  0
LINE
  5
2D5
100
AcDbEntity
  8
0
100
AcDbLine
 62
7
  6
CONTINUOUS
 10
-11.2438854449
 20
-9.3309563625
 11
-11.4876831359
 21
-9.3107136937
  0
LINE
  5
2D6
100
AcDbEntity
  8
0
100
AcDbLine
 62
7
  6
CONTINUOUS
 10
-0.9876831836
 20
-14.9876666095
 11
-1.0876831836
 21
-14.8855389621
  0
LINE
  5
2D7
100
AcDbEntity
  8
0
100
AcDbLine
 62
7
  6
CONTINUOUS
 10
-2.587683279
 20
-15.0217091587
 11
-2.5210165805
 21
-15.1238368061
  0
LINE
  5
2D8
100
AcDbEntity
  8
0
100
AcDbLine
 62
7
  6
CONTINUOUS
 10
-1.7210165805
 20
-16.0770283487
 11
-1.8543499774
 21
-15.87277303
  0
LINE
  5
2D9
100
AcDbEntity
  8
RACCORDO
100
AcDbLine
 62
253
  6
CONTINUOUS
 10
-10.0562835958
 20
19.8642416123
 11
-10.0527611125
 21
18.3301053409
  0
LINE
  5
2DA
100
AcDbEntity
  8
RACCORDO
100
AcDbLine
 62
253
  6
CONTINUOUS
 10
-10.0527611125
 20
18.3301053409
 11
-10.0497046681
 21
16.7926744812
  0
LINE
  5
2DB
100
AcDbEntity
  8
RACCORDO
100
AcDbLine
 62
253
  6
CONTINUOUS
 10
-10.0497046681
 20
16.7926744812
 11
-10.0477187981
 21
15.6377277424
  0
LINE
  5
2DC
100
AcDbEntity
  8
RACCORDO
100
AcDbLine
 62
253
  6
CONTINUOUS
 10
-10.0477187981
 20
15.6377277424
 11
-10.0454802179
 21
14.0956762076
  0
LINE
  5
2DD
100
AcDbEntity
  8
RACCORDO
100
AcDbLine
 62
253
  6
CONTINUOUS
 10
-10.0454802179
 20
14.0956762076
 11
-10.0441085755
 21
12.9377968783
  0
LWPOLYLINE
  5
2DE
100
AcDbEntity
  8
RACCORDO
100
AcDbPolyline
 62
253
  6
CONTINUOUS
 90
3
 70
0
 10
-10.0413089974
 20
8.6620629029
 10
-10.0410635101
 20
7.8414865806
 10
-10.040189455
 20
3.7383529262
  0
LINE
  5
2DF
100
AcDbEntity
  8
RACCORDO
100
AcDbLine
 62
253
  6
CONTINUOUS
 10
-10.0562836323
 20
20.0348823508
 11
-10.0562836323
 21
19.8642416123
  0
LINE
  5
2E0
100
AcDbEntity
  8
RACCORDO
100
AcDbLine
 62
253
  6
CONTINUOUS
 10
-10.0562836323
 20
-20.4629791434
 11
-10.0562836323
 21
-20.6336198819
  0
LINE
  5
2E1
100
AcDbEntity
  8
RACCORDO
100
AcDbLine
 62
253
  6
CONTINUOUS
 10
-10.040189455
 20
3.7383529262
 11
-10.0399477303
 21
1.0757055166
  0
LINE
  5
2E2
100
AcDbEntity
  8
DRAFT
100
AcDbLine
 62
7
  6
CONTINUOUS
 10
-9.7376831359
 20
-13.4732194903
 11
-9.7376831359
 21
-9.3255180409
  0
LINE
  5
2E3
100
AcDbEntity
  8
DRAFT
100
AcDbLine
 62
7
  6
CONTINUOUS
 10
-9.7376831359
 20
8.7267805097
 11
-9.7376831359
 21
12.8744819591
  0
LINE
  5
2E4
100
AcDbEntity
  8
DRAFT
100
AcDbLine
 62
7
  6
CONTINUOUS
 10
-9.1810588089
 20
21.9506312344
 11
-9.1810588089
 21
20.5206312344
  0
LINE
  5
2E5
100
AcDbEntity
  8
DRAFT
100
AcDbLine
 62
7
  6
CONTINUOUS
 10
-9.1810588089
 20
-22.5493687656
 11
-9.1810588089
 21
-21.1193687656
  0
LINE
  5
2E6
100
AcDbEntity
  8
DRAFT
100
AcDbLine
 62
7
  6
CONTINUOUS
 10
-8.562660463
 20
1.0180862993
 11
-8.562660463
 21
-0.1906418978
  0
LINE
  5
2E7
100
AcDbEntity
  8
DRAFT
100
AcDbLine
 62
7
  6
CONTINUOUS
 10
-8.562660463
 20
-0.4080956334
 11
-8.562660463
 21
-1.6168238305
  0
LINE
  5
2E8
100
AcDbEntity
  8
RACCORDO
100
AcDbLine
 62
253
  6
CONTINUOUS
 10
-10.0399477303
 20
-1.6744430478
 11
-10.040189455
 21
-4.3370904574
  0
LINE
  5
2E9
100
AcDbEntity
  8
RACCORDO
100
AcDbLine
 62
253
  6
CONTINUOUS
 10
-10.040189455
 20
-4.3370904574
 11
-10.0406432118
 21
-6.7990143937
  0
LINE
  5
2EA
100
AcDbEntity
  8
RACCORDO
100
AcDbLine
 62
253
  6
CONTINUOUS
 10
-10.0406432118
 20
-6.7990143937
 11
-10.0413089974
 21
-9.2608004341
  0
LWPOLYLINE
  5
2EB
100
AcDbEntity
  8
RACCORDO
100
AcDbPolyline
 62
253
  6
CONTINUOUS
 90
3
 70
0
 10
-10.0441085755
 20
-13.5365344095
 10
-10.0445365202
 20
-13.9226072895
 10
-10.0449937344
 20
-14.3085695076
  0
LINE
  5
2EC
100
AcDbEntity
  8
RACCORDO
100
AcDbLine
 62
253
  6
CONTINUOUS
 10
-10.0449937344
 20
-14.3085695076
 11
-10.045995981
 21
-15.0801325011
  0
LINE
  5
2ED
100
AcDbEntity
  8
RACCORDO
100
AcDbLine
 62
253
  6
CONTINUOUS
 10
-10.045995981
 20
-15.0801325011
 11
-10.0471152853
 21
-15.8511652931
  0
LINE
  5
2EE
100
AcDbEntity
  8
RACCORDO
100
AcDbLine
 62
253
  6
CONTINUOUS
 10
-10.0471152853
 20
-15.8511652931
 11
-10.0483515502
 21
-16.6216111528
  0
LWPOLYLINE
  5
2EF
100
AcDbEntity
  8
RACCORDO
100
AcDbPolyline
 62
253
  6
CONTINUOUS
 90
3
 70
0
 10
-10.0483515502
 20
-16.6216111528
 10
-10.0497046681
 20
-17.3914120124
 10
-10.050425034
 20
-17.7760523807
  0
LINE
  5
2F0
100
AcDbEntity
  8
RACCORDO
100
AcDbLine
 62
253
  6
CONTINUOUS
 10
-10.050425034
 20
-17.7760523807
 11
-10.0519532562
 21
-18.5447751058
  0
LINE
  5
2F1
100
AcDbEntity
  8
RACCORDO
100
AcDbLine
 62
253
  6
CONTINUOUS
 10
-10.0519532562
 20
-18.5447751058
 11
-10.0535980798
 21
-19.3127045069
  0
LWPOLYLINE
  5
2F2
100
AcDbEntity
  8
RACCORDO
100
AcDbPolyline
 62
253
  6
CONTINUOUS
 90
3
 70
0
 10
-10.0535980798
 20
-19.3127045069
 10
-10.0553593128
 20
-20.079779812
 10
-10.0562835958
 20
-20.4629791434
  0
LINE
  5
2F3
100
AcDbEntity
  8
0
100
AcDbLine
 62
7
  6
CONTINUOUS
 10
-6.0433481359
 20
6.1763182344
 11
-6.4019201359
 21
5.5756312344
  0
LINE
  5
2F4
100
AcDbEntity
  8
0
100
AcDbLine
 62
7
  6
CONTINUOUS
 10
-6.1285681359
 20
6.3224972344
 11
-6.6004641359
 21
5.5756312344
  0
LINE
  5
2F5
100
AcDbEntity
  8
0
100
AcDbLine
 62
7
  6
CONTINUOUS
 10
1.0456503087
 20
14.2868014309
 11
1.1456503087
 21
14.3889290783
  0
LINE
  5
2F6
100
AcDbEntity
  8
0
100
AcDbLine
 62
7
  6
CONTINUOUS
 10
2.5456503087
 20
14.2527588818
 11
2.67898364
 21
14.3889290783
  0
LINE
  5
2F7
100
AcDbEntity
  8
RACCORDO
100
AcDbLine
 62
253
  6
CONTINUOUS
 10
-10.2399172695
 20
1.2756750555
 11
-10.2975364866
 21
1.2180558384
  0
LINE
  5
2F8
100
AcDbEntity
  8
0
100
AcDbLine
 62
7
  6
CONTINUOUS
 10
1.8123170071
 20
14.729354665
 11
2.7456503087
 21
15.5804184649
  0
LWPOLYLINE
  5
2F9
100
AcDbEntity
  8
RACCORDO
100
AcDbPolyline
 62
7
  6
CONTINUOUS
 90
8
 70
0
 10
-10.234635445
 20
-9.2620990984
 10
-10.2362918367
 20
-9.2621577025
 10
-10.2377139102
 20
-9.2622168141
 10
-10.2389035575
 20
-9.2622764103
 10
-10.2398555348
 20
-9.2623361508
 10
-10.2405680939
 20
-9.2623959221
 10
-10.241042983
 20
-9.2624558378
 10
-10.241280202
 20
-9.2625158977
  0
LINE
  5
2FA
100
AcDbEntity
  8
RACCORDO
100
AcDbLine
 62
7
  6
CONTINUOUS
 10
-10.2306363028
 20
-9.2619836156
 11
-10.234635445
 21
-9.2620990984
  0
LINE
  5
2FB
100
AcDbEntity
  8
RACCORDO
100
AcDbLine
 62
7
  6
CONTINUOUS
 10
-10.2257569182
 20
-9.2618713104
 11
-10.2306363028
 21
-9.2619836156
  0
LINE
  5
2FC
100
AcDbEntity
  8
RACCORDO
100
AcDbLine
 62
7
  6
CONTINUOUS
 10
-10.2167850304
 20
-9.2617086638
 11
-10.2257569182
 21
-9.2618713104
  0
LINE
  5
2FD
100
AcDbEntity
  8
RACCORDO
100
AcDbLine
 62
7
  6
CONTINUOUS
 10
-10.1976354801
 20
-9.2614573599
 11
-10.2167850304
 21
-9.2617086638
  0
LINE
  5
2FE
100
AcDbEntity
  8
DRAFT
100
AcDbLine
 62
7
  6
CONTINUOUS
 10
-9.7376831359
 20
-9.331190505
 11
-10.3376831359
 21
-9.3364266257
  0
LINE
  5
2FF
100
AcDbEntity
  8
RACCORDO
100
AcDbLine
 62
7
  6
CONTINUOUS
 10
-10.1577306583
 20
-9.2611267266
 11
-10.1976354801
 21
-9.2614573599
  0
LINE
  5
300
100
AcDbEntity
  8
DRAFT
100
AcDbLine
 62
7
  6
CONTINUOUS
 10
8.9623168641
 20
-9.3255180409
 11
9.5623168641
 21
-9.3224949652
  0
LINE
  5
301
100
AcDbEntity
  8
RACCORDO
100
AcDbLine
 62
7
  6
CONTINUOUS
 10
-10.0756150193
 20
-9.2608263225
 11
-10.1577306583
 21
-9.2611267266
  0
LINE
  5
302
100
AcDbEntity
  8
RACCORDO
100
AcDbLine
 62
7
  6
CONTINUOUS
 10
-10.0413089974
 20
-9.2608004341
 11
-10.0756150193
 21
-9.2608263225
  0
LINE
  5
303
100
AcDbEntity
  8
DRAFT
100
AcDbLine
 62
253
  6
CONTINUOUS
 10
8.9623168641
 20
-9.7765687656
 11
-9.7376831359
 21
-9.7765687656
  0
LINE
  5
304
100
AcDbEntity
  8
0
100
AcDbLine
 62
7
  6
CONTINUOUS
 10
9.7723538463
 20
-9.3364266257
 11
9.5623168641
 21
-9.3364266257
  0
LINE
  5
305
100
AcDbEntity
  8
0
100
AcDbLine
 62
7
  6
CONTINUOUS
 10
-10.3376831359
 20
-9.3364266257
 11
-10.5477201181
 21
-9.3364266257
  0
LINE
  5
306
100
AcDbEntity
  8
DRAFT
100
AcDbLine
 62
7
  6
CONTINUOUS
 10
-11.4876831359
 20
-9.3107136937
 11
-10.3376831359
 21
-9.3107136937
  0
LINE
  5
307
100
AcDbEntity
  8
DRAFT
100
AcDbLine
 62
7
  6
CONTINUOUS
 10
9.5623168641
 20
-9.3107136937
 11
10.7123168641
 21
-9.3107136937
  0
LINE
  5
308
100
AcDbEntity
  8
RACCORDO
100
AcDbLine
 62
7
  6
CONTINUOUS
 10
9.358802357
 20
-9.2610000315
 11
9.2659427256
 21
-9.2608004341
  0
LINE
  5
309
100
AcDbEntity
  8
DRAFT
100
AcDbLine
 62
7
  6
CONTINUOUS
 10
-10.3376831359
 20
-9.3224949652
 11
-9.7376831359
 21
-9.3255180409
  0
LINE
  5
30A
100
AcDbEntity
  8
RACCORDO
100
AcDbLine
 62
7
  6
CONTINUOUS
 10
9.4085458251
 20
-9.2613221868
 11
9.358802357
 21
-9.2610000315
  0
LINE
  5
30B
100
AcDbEntity
  8
DRAFT
100
AcDbLine
 62
7
  6
CONTINUOUS
 10
9.5623168641
 20
-9.3364266257
 11
8.9623168641
 21
-9.331190505
  0
LINE
  5
30C
100
AcDbEntity
  8
RACCORDO
100
AcDbLine
 62
7
  6
CONTINUOUS
 10
9.4343650335
 20
-9.2616047906
 11
9.4085458251
 21
-9.2613221868
  0
LINE
  5
30D
100
AcDbEntity
  8
RACCORDO
100
AcDbLine
 62
7
  6
CONTINUOUS
 10
9.4476209398
 20
-9.261816334
 11
9.4343650335
 21
-9.2616047906
  0
LINE
  5
30E
100
AcDbEntity
  8
RACCORDO
100
AcDbLine
 62
7
  6
CONTINUOUS
 10
9.4529410919
 20
-9.261927085
 11
9.4476209398
 21
-9.261816334
  0
LINE
  5
30F
100
AcDbEntity
  8
RACCORDO
100
AcDbLine
 62
253
  6
CONTINUOUS
 10
-10.2975364866
 20
-1.8167933695
 11
-10.2399172695
 21
-1.8744125866
  0
LINE
  5
310
100
AcDbEntity
  8
0
100
AcDbLine
 62
7
  6
CONTINUOUS
 10
0.9456502133
 20
-16.0770283487
 11
1.0456502133
 21
-16.2131985571
  0
LINE
  5
311
100
AcDbEntity
  8
0
100
AcDbLine
 62
7
  6
CONTINUOUS
 10
-1.1876831836
 20
-15.0217091587
 11
-1.0543499774
 21
-15.2259645488
  0
LINE
  5
312
100
AcDbEntity
  8
0
100
AcDbLine
 62
7
  6
CONTINUOUS
 10
-1.987683279
 20
-15.9749006774
 11
-1.9210165805
 21
-16.1110708978
  0
LINE
  5
313
100
AcDbEntity
  8
0
100
AcDbLine
 62
7
  6
CONTINUOUS
 10
-3.1899591359
 20
-19.1316697656
 11
-3.7288491359
 21
-17.4318067656
  0
LINE
  5
314
100
AcDbEntity
  8
DRAFT
100
AcDbLine
 62
7
  6
CONTINUOUS
 10
-8.3876831359
 20
-0.425549369
 11
-8.3876831359
 21
-1.6517339604
  0
LINE
  5
315
100
AcDbEntity
  8
DRAFT
100
AcDbLine
 62
7
  6
CONTINUOUS
 10
-8.3876831359
 20
-0.1731881622
 11
-8.3876831359
 21
1.0529964292
  0
LINE
  5
316
100
AcDbEntity
  8
RACCORDO
100
AcDbLine
 62
253
  6
CONTINUOUS
 10
-7.7954181628
 20
-22.4235900953
 11
-7.7954181628
 21
-20.9143057486
  0
LINE
  5
317
100
AcDbEntity
  8
RACCORDO
100
AcDbLine
 62
253
  6
CONTINUOUS
 10
-7.7954181628
 20
20.3155682174
 11
-7.7954181628
 21
21.8248525641
  0
LINE
  5
318
100
AcDbEntity
  8
RACCORDO
100
AcDbLine
 62
253
  6
CONTINUOUS
 10
-7.6222130821
 20
-22.4183493174
 11
-7.6222130821
 21
-20.9020272925
  0
LINE
  5
319
100
AcDbEntity
  8
RACCORDO
100
AcDbLine
 62
253
  6
CONTINUOUS
 10
-7.6222130821
 20
20.3032897613
 11
-7.6222130821
 21
21.8196117862
  0
LINE
  5
31A
100
AcDbEntity
  8
RACCORDO
100
AcDbLine
 62
253
  6
CONTINUOUS
 10
-10.2562531703
 20
-20.4351106449
 11
-10.3152375601
 21
-20.8500258819
  0
LINE
  5
31B
100
AcDbEntity
  8
RACCORDO
100
AcDbLine
 62
253
  6
CONTINUOUS
 10
-10.0562836323
 20
-20.6336198819
 11
-10.1153865334
 21
-21.0493687656
  0
LINE
  5
31C
100
AcDbEntity
  8
0
100
AcDbLine
 62
7
  6
CONTINUOUS
 10
-2.6876828975
 20
15.2740354989
 11
-2.6543496913
 21
15.3761631463
  0
LINE
  5
31D
100
AcDbEntity
  8
0
100
AcDbLine
 62
7
  6
CONTINUOUS
 10
-2.7876828975
 20
15.4782908175
 11
-2.8543496913
 21
15.308078048
  0
LINE
  5
31E
100
AcDbEntity
  8
0
100
AcDbLine
 62
7
  6
CONTINUOUS
 10
-0.7210164851
 20
15.7506312344
 11
-1.3876828975
 21
14.3208439801
  0
LINE
  5
31F
100
AcDbEntity
  8
0
100
AcDbLine
 62
7
  6
CONTINUOUS
 10
-1.1876828975
 20
14.3208439801
 11
-0.5210164851
 21
15.7506312344
  0
LINE
  5
320
100
AcDbEntity
  8
0
100
AcDbLine
 62
7
  6
CONTINUOUS
 10
0.2123169118
 20
15.5123333666
 11
0.1456503087
 21
15.3761631463
  0
LINE
  5
321
100
AcDbEntity
  8
0
100
AcDbLine
 62
7
  6
CONTINUOUS
 10
0.2789837056
 20
15.2740354989
 11
0.4123169118
 21
15.4782908175
  0
LINE
  5
322
100
AcDbEntity
  8
0
100
AcDbLine
 62
7
  6
CONTINUOUS
 10
1.0789837056
 20
14.6272270176
 11
0.9456503087
 21
14.4229716275
  0
LINE
  5
323
100
AcDbEntity
  8
0
100
AcDbLine
 62
7
  6
CONTINUOUS
 10
1.6456503087
 20
14.8314823124
 11
1.5789836102
 21
14.729354665
  0
LINE
  5
324
100
AcDbEntity
  8
RACCORDO
100
AcDbLine
 62
253
  6
CONTINUOUS
 10
-10.0399477303
 20
1.0757055166
 11
-10.0975669475
 21
1.0180862993
  0
LWPOLYLINE
  5
325
100
AcDbEntity
  8
0
100
AcDbPolyline
 62
7
  6
CONTINUOUS
 90
61
 70
0
 10
-3.4727362797
 20
-7.2799087656
 10
-3.4614299135
 20
-7.2794501918
 10
-3.4502190206
 20
-7.2786629132
 10
-3.4391036009
 20
-7.2775469299
 10
-3.4280728956
 20
-7.2760973475
 10
-3.4171376636
 20
-7.2743190604
 10
-3.4063301814
 20
-7.272226751
 10
-3.3956509048
 20
-7.2698203003
 10
-3.3850993781
 20
-7.2670998273
 10
-3.3747065107
 20
-7.2640803716
 10
-3.3644731668
 20
-7.2607612932
 10
-3.3543984823
 20
-7.257143232
 10
-3.3445107741
 20
-7.2532431468
 10
-3.3348139991
 20
-7.2490616208
 10
-3.3253042004
 20
-7.2445980707
 10
-3.3159978244
 20
-7.2398677062
 10
-3.3068961163
 20
-7.2348677936
 10
-3.297997831
 20
-7.2296010665
 10
-3.2893156798
 20
-7.224090935
 10
-3.2808620603
 20
-7.2183491889
 10
-3.2726245749
 20
-7.2123640382
 10
-3.2645787424
 20
-7.2061235239
 10
-3.2567191765
 20
-7.1996317053
 10
-3.2490512635
 20
-7.1928845227
 10
-3.2415666814
 20
-7.1858578385
 10
-3.2342559597
 20
-7.1785410922
 10
-3.2271285691
 20
-7.1709448439
 10
-3.2202045989
 20
-7.1630766368
 10
-3.213474229
 20
-7.1549156818
 10
-3.2069472796
 20
-7.1464827676
 10
-3.2006733013
 20
-7.1378478045
 10
-3.1946730013
 20
-7.1290395854
 10
-3.1889256722
 20
-7.1200293169
 10
-3.1834187424
 20
-7.1108005304
 10
-3.1781571131
 20
-7.1013830619
 10
-3.1731358829
 20
-7.091747075
 10
-3.168327776
 20
-7.0817865921
 10
-3.1637185187
 20
-7.0714624865
 10
-3.1593223845
 20
-7.0608138843
 10
-3.1551549186
 20
-7.0498521869
 10
-3.1512161533
 20
-7.0385088017
 10
-3.1475060562
 20
-7.0268523208
 10
-3.1440400744
 20
-7.0150999226
 10
-3.1408377789
 20
-7.0032908917
 10
-3.1378795986
 20
-6.9913859434
 10
-3.1351222681
 20
-6.9794844037
 10
-3.1325562802
 20
-6.9676293281
 10
-3.130191142
 20
-6.9557776611
 10
-3.1280121091
 20
-6.9438995619
 10
-3.1260121542
 20
-6.9319879131
 10
-3.1241983047
 20
-6.9200498321
 10
-3.1225768981
 20
-6.9080768302
 10
-3.121146754
 20
-6.8960600133
 10
-3.1199090529
 20
-6.8840082755
 10
-3.1188736745
 20
-6.8719398103
 10
-3.1180412696
 20
-6.8598549552
 10
-3.1174111875
 20
-6.8477533728
 10
-3.1169913555
 20
-6.8356522444
 10
-3.1167844163
 20
-6.8235572973
 10
-3.1167877274
 20
-6.8114628044
 10
-3.1170012886
 20
-6.7993687656
  0
LINE
  5
326
100
AcDbEntity
  8
0
100
AcDbLine
 62
7
  6
CONTINUOUS
 10
-6.6004641359
 20
-7.4243687656
 11
-6.4368221359
 21
-7.4243687656
  0
LINE
  5
327
100
AcDbEntity
  8
0
100
AcDbLine
 62
7
  6
CONTINUOUS
 10
-6.0851211359
 20
-7.4243687656
 11
-5.9179831359
 21
-7.4243687656
  0
LINE
  5
328
100
AcDbEntity
  8
0
100
AcDbLine
 62
7
  6
CONTINUOUS
 10
-5.5663491359
 20
-7.4243687656
 11
-5.4026411359
 21
-7.4243687656
  0
LINE
  5
329
100
AcDbEntity
  8
0
100
AcDbLine
 62
7
  6
CONTINUOUS
 10
-5.2529141359
 20
-7.4243687656
 11
-5.0788341359
 21
-7.4243687656
  0
LINE
  5
32A
100
AcDbEntity
  8
0
100
AcDbLine
 62
7
  6
CONTINUOUS
 10
-4.3232741359
 20
-7.4243687656
 11
-4.1387111359
 21
-7.4243687656
  0
LINE
  5
32B
100
AcDbEntity
  8
0
100
AcDbLine
 62
7
  6
CONTINUOUS
 10
-3.9750731359
 20
-7.4243687656
 11
-3.4629980159
 21
-7.4243687656
  0
LINE
  5
32C
100
AcDbEntity
  8
0
100
AcDbLine
 62
7
  6
CONTINUOUS
 10
-2.7093541359
 20
-7.4243687656
 11
-1.7865881359
 21
-7.4243687656
  0
LINE
  5
32D
100
AcDbEntity
  8
0
100
AcDbLine
 62
7
  6
CONTINUOUS
 10
-1.0553501359
 20
-7.4243687656
 11
-0.8864871359
 21
-7.4243687656
  0
LINE
  5
32E
100
AcDbEntity
  8
0
100
AcDbLine
 62
7
  6
CONTINUOUS
 10
-0.5975261359
 20
-7.4243687656
 11
-0.4338081359
 21
-7.4243687656
  0
LINE
  5
32F
100
AcDbEntity
  8
0
100
AcDbLine
 62
7
  6
CONTINUOUS
 10
0.2051428641
 20
-7.4243687656
 11
0.3949018641
 21
-7.4243687656
  0
LINE
  5
330
100
AcDbEntity
  8
0
100
AcDbLine
 62
7
  6
CONTINUOUS
 10
1.1696088641
 20
-7.4243687656
 11
1.3385228641
 21
-7.4243687656
  0
LINE
  5
331
100
AcDbEntity
  8
0
100
AcDbLine
 62
7
  6
CONTINUOUS
 10
1.9426578641
 20
-7.4243687656
 11
2.1115118641
 21
-7.4243687656
  0
LINE
  5
332
100
AcDbEntity
  8
0
100
AcDbLine
 62
7
  6
CONTINUOUS
 10
2.5833268641
 20
-7.4243687656
 11
2.7573968641
 21
-7.4243687656
  0
LINE
  5
333
100
AcDbEntity
  8
0
100
AcDbLine
 62
7
  6
CONTINUOUS
 10
3.5130278641
 20
-7.4243687656
 11
3.6976218641
 21
-7.4243687656
  0
LINE
  5
334
100
AcDbEntity
  8
0
100
AcDbLine
 62
7
  6
CONTINUOUS
 10
3.8524938641
 20
-7.4243687656
 11
4.6551628641
 21
-7.4243687656
  0
LINE
  5
335
100
AcDbEntity
  8
0
100
AcDbLine
 62
7
  6
CONTINUOUS
 10
5.1843788641
 20
-7.4243687656
 11
5.3532018641
 21
-7.4243687656
  0
LINE
  5
336
100
AcDbEntity
  8
0
100
AcDbLine
 62
7
  6
CONTINUOUS
 10
-3.8061491359
 20
-7.2799087656
 11
-3.4727362797
 21
-7.2799087656
  0
LINE
  5
337
100
AcDbEntity
  8
0
100
AcDbLine
 62
7
  6
CONTINUOUS
 10
-2.5404391359
 20
-7.2746517656
 11
-1.7865881359
 21
-7.2746517656
  0
LINE
  5
338
100
AcDbEntity
  8
0
100
AcDbLine
 62
7
  6
CONTINUOUS
 10
4.0214188641
 20
-7.2746517656
 11
4.6551628641
 21
-7.2746517656
  0
LINE
  5
339
100
AcDbEntity
  8
0
100
AcDbLine
 62
7
  6
CONTINUOUS
 10
-4.9482441359
 20
-7.0605397656
 11
-4.4468691359
 21
-7.0605397656
  0
LINE
  5
33A
100
AcDbEntity
  8
0
100
AcDbLine
 62
7
  6
CONTINUOUS
 10
2.8879978641
 20
-7.0605397656
 11
3.3894228641
 21
-7.0605397656
  0
LINE
  5
33B
100
AcDbEntity
  8
0
100
AcDbLine
 62
7
  6
CONTINUOUS
 10
-4.8959991359
 20
-6.9108227656
 11
-4.5077561359
 21
-6.9108227656
  0
LINE
  5
33C
100
AcDbEntity
  8
0
100
AcDbLine
 62
7
  6
CONTINUOUS
 10
2.9402318641
 20
-6.9108227656
 11
3.3284748641
 21
-6.9108227656
  0
LINE
  5
33D
100
AcDbEntity
  8
0
100
AcDbLine
 62
7
  6
CONTINUOUS
 10
-2.5404391359
 20
-6.8568397656
 11
-1.8562401359
 21
-6.8568397656
  0
LINE
  5
33E
100
AcDbEntity
  8
RACCORDO
100
AcDbLine
 62
253
  6
CONTINUOUS
 10
-10.0975669475
 20
-1.6168238305
 11
-10.0399477303
 21
-1.6744430478
  0
LINE
  5
33F
100
AcDbEntity
  8
0
100
AcDbLine
 62
7
  6
CONTINUOUS
 10
2.0123166257
 20
-15.6004325893
 11
1.9123166257
 21
-15.4642623928
  0
LINE
  5
340
100
AcDbEntity
  8
0
100
AcDbLine
 62
7
  6
CONTINUOUS
 10
1.8123166257
 20
-15.6004325893
 11
1.8789834195
 21
-15.7025602367
  0
LINE
  5
341
100
AcDbEntity
  8
0
100
AcDbLine
 62
7
  6
CONTINUOUS
 10
-0.9210165805
 20
-15.1238368061
 11
-0.9876831836
 21
-14.9876666095
  0
LINE
  5
342
100
AcDbEntity
  8
0
100
AcDbLine
 62
7
  6
CONTINUOUS
 10
-0.8210591359
 20
-19.1316697656
 11
-1.2373151359
 21
-18.0216907656
  0
LINE
  5
343
100
AcDbEntity
  8
0
100
AcDbLine
 62
7
  6
CONTINUOUS
 10
-0.7942391359
 20
-18.3755757656
 11
-1.1453201359
 21
-17.4318067656
  0
LINE
  5
344
100
AcDbEntity
  8
0
100
AcDbLine
 62
7
  6
CONTINUOUS
 10
-5.9998341359
 20
-7.2362667656
 11
-6.3584621359
 21
-6.1743687656
  0
LINE
  5
345
100
AcDbEntity
  8
0
100
AcDbLine
 62
7
  6
CONTINUOUS
 10
-6.0851211359
 20
-7.4243687656
 11
-6.4368221359
 21
-6.3762487656
  0
LINE
  5
346
100
AcDbEntity
  8
0
100
AcDbLine
 62
7
  6
CONTINUOUS
 10
-3.0193711359
 20
-18.6018747656
 11
-3.3433961359
 21
-17.4318067656
  0
LINE
  5
347
100
AcDbEntity
  8
RACCORDO
100
AcDbLine
 62
253
  6
CONTINUOUS
 10
-10.3152375601
 20
20.2512883508
 11
-10.2562531703
 21
19.8363731137
  0
LINE
  5
348
100
AcDbEntity
  8
RACCORDO
100
AcDbLine
 62
253
  6
CONTINUOUS
 10
-10.1153865334
 20
20.4506312344
 11
-10.0562836323
 21
20.0348823508
  0
LINE
  5
349
100
AcDbEntity
  8
0
100
AcDbLine
 62
7
  6
CONTINUOUS
 10
-6.6004641359
 20
-7.4243687656
 11
-6.6004641359
 21
-6.1743687656
  0
LINE
  5
34A
100
AcDbEntity
  8
0
100
AcDbLine
 62
7
  6
CONTINUOUS
 10
-6.4368221359
 20
-7.4243687656
 11
-6.4368221359
 21
-6.3762487656
  0
LINE
  5
34B
100
AcDbEntity
  8
0
100
AcDbLine
 62
7
  6
CONTINUOUS
 10
-6.1285681359
 20
6.8256312344
 11
-6.1285681359
 21
6.3224972344
  0
LINE
  5
34C
100
AcDbEntity
  8
0
100
AcDbLine
 62
7
  6
CONTINUOUS
 10
-5.9597451359
 20
6.8256312344
 11
-5.9597451359
 21
6.3224972344
  0
LINE
  5
34D
100
AcDbEntity
  8
0
100
AcDbLine
 62
7
  6
CONTINUOUS
 10
-5.5663491359
 20
-7.4243687656
 11
-5.5663491359
 21
-6.3745307656
  0
LINE
  5
34E
100
AcDbEntity
  8
0
100
AcDbLine
 62
7
  6
CONTINUOUS
 10
-5.4305291359
 20
6.8256312344
 11
-5.4305291359
 21
6.6759142344
  0
LINE
  5
34F
100
AcDbEntity
  8
0
100
AcDbLine
 62
7
  6
CONTINUOUS
 10
-5.4026411359
 20
-7.4243687656
 11
-5.4026411359
 21
-6.1743687656
  0
LINE
  5
350
100
AcDbEntity
  8
0
100
AcDbLine
 62
7
  6
CONTINUOUS
 10
-1.4231671359
 20
17.9309892344
 11
-1.5998411359
 21
17.3001482344
  0
LINE
  5
351
100
AcDbEntity
  8
0
100
AcDbLine
 62
7
  6
CONTINUOUS
 10
-1.2526741359
 20
18.5329322344
 11
-1.3505851359
 21
18.1935792344
  0
LINE
  5
352
100
AcDbEntity
  8
0
100
AcDbLine
 62
7
  6
CONTINUOUS
 10
-0.9016961359
 20
18.5329322344
 11
-1.4348811359
 21
16.8330692344
  0
LINE
  5
353
100
AcDbEntity
  8
0
100
AcDbLine
 62
7
  6
CONTINUOUS
 10
-3.5327631359
 20
6.8256312344
 11
-3.6633641359
 21
6.4618022344
  0
LINE
  5
354
100
AcDbEntity
  8
0
100
AcDbLine
 62
7
  6
CONTINUOUS
 10
-3.7155981359
 20
6.3120852344
 11
-3.9176001359
 21
5.7569422344
  0
LINE
  5
355
100
AcDbEntity
  8
0
100
AcDbLine
 62
7
  6
CONTINUOUS
 10
0.0188728641
 20
17.7768382344
 11
-0.3359551359
 21
16.8330692344
  0
LINE
  5
356
100
AcDbEntity
  8
0
100
AcDbLine
 62
7
  6
CONTINUOUS
 10
-3.3586931359
 20
6.8256312344
 11
-3.8287901359
 21
5.5756312344
  0
LINE
  5
357
100
AcDbEntity
  8
0
100
AcDbLine
 62
7
  6
CONTINUOUS
 10
-0.0040711359
 20
18.5329322344
 11
-0.4259621359
 21
17.4275802344
  0
LINE
  5
358
100
AcDbEntity
  8
0
100
AcDbLine
 62
7
  6
CONTINUOUS
 10
1.1456503087
 20
14.3889290783
 11
1.2123170071
 21
14.5250992749
  0
LINE
  5
359
100
AcDbEntity
  8
0
100
AcDbLine
 62
7
  6
CONTINUOUS
 10
2.5456503087
 20
14.5250992749
 11
2.4789836341
 21
14.4229716275
  0
LINE
  5
35A
100
AcDbEntity
  8
0
100
AcDbLine
 62
7
  6
CONTINUOUS
 10
-2.5404391359
 20
-6.7071227656
 11
-1.8562401359
 21
-6.7071227656
  0
LINE
  5
35B
100
AcDbEntity
  8
0
100
AcDbLine
 62
7
  6
CONTINUOUS
 10
-2.5404391359
 20
-6.3240857656
 11
-1.7987901359
 21
-6.3240857656
  0
LINE
  5
35C
100
AcDbEntity
  8
0
100
AcDbLine
 62
7
  6
CONTINUOUS
 10
1.5195888641
 20
-6.3240857656
 11
1.9426578641
 21
-6.3240857656
  0
LINE
  5
35D
100
AcDbEntity
  8
0
100
AcDbLine
 62
7
  6
CONTINUOUS
 10
2.1115118641
 20
-6.3240857656
 11
2.5345808641
 21
-6.3240857656
  0
LINE
  5
35E
100
AcDbEntity
  8
0
100
AcDbLine
 62
7
  6
CONTINUOUS
 10
-3.8061491359
 20
-6.3188287656
 11
-3.4727362797
 21
-6.3188287656
  0
LINE
  5
35F
100
AcDbEntity
  8
0
100
AcDbLine
 62
7
  6
CONTINUOUS
 10
-6.6004641359
 20
-6.1743687656
 11
-6.3584621359
 21
-6.1743687656
  0
LINE
  5
360
100
AcDbEntity
  8
0
100
AcDbLine
 62
7
  6
CONTINUOUS
 10
-5.6429261359
 20
-6.1743687656
 11
-5.4026411359
 21
-6.1743687656
  0
LINE
  5
361
100
AcDbEntity
  8
0
100
AcDbLine
 62
7
  6
CONTINUOUS
 10
-4.7828781359
 20
-6.1743687656
 11
-4.5913391359
 21
-6.1743687656
  0
LINE
  5
362
100
AcDbEntity
  8
0
100
AcDbLine
 62
7
  6
CONTINUOUS
 10
-3.9750731359
 20
-6.1743687656
 11
-3.4631171551
 21
-6.1743687656
  0
LINE
  5
363
100
AcDbEntity
  8
0
100
AcDbLine
 62
7
  6
CONTINUOUS
 10
-2.7093541359
 20
-6.1743687656
 11
-1.7987901359
 21
-6.1743687656
  0
LINE
  5
364
100
AcDbEntity
  8
0
100
AcDbLine
 62
7
  6
CONTINUOUS
 10
-1.0553501359
 20
-6.1743687656
 11
-0.8864871359
 21
-6.1743687656
  0
LINE
  5
365
100
AcDbEntity
  8
0
100
AcDbLine
 62
7
  6
CONTINUOUS
 10
-0.5975261359
 20
-6.1743687656
 11
-0.3972731359
 21
-6.1743687656
  0
LINE
  5
366
100
AcDbEntity
  8
0
100
AcDbLine
 62
7
  6
CONTINUOUS
 10
0.2312648641
 20
-6.1743687656
 11
0.3949018641
 21
-6.1743687656
  0
LINE
  5
367
100
AcDbEntity
  8
0
100
AcDbLine
 62
7
  6
CONTINUOUS
 10
1.1696088641
 20
-6.1743687656
 11
1.3385228641
 21
-6.1743687656
  0
LINE
  5
368
100
AcDbEntity
  8
0
100
AcDbLine
 62
7
  6
CONTINUOUS
 10
1.5195888641
 20
-6.1743687656
 11
2.5345808641
 21
-6.1743687656
  0
LINE
  5
369
100
AcDbEntity
  8
0
100
AcDbLine
 62
7
  6
CONTINUOUS
 10
3.0534238641
 20
-6.1743687656
 11
3.2449018641
 21
-6.1743687656
  0
LINE
  5
36A
100
AcDbEntity
  8
0
100
AcDbLine
 62
7
  6
CONTINUOUS
 10
3.8524938641
 20
-6.1743687656
 11
4.0214188641
 21
-6.1743687656
  0
LINE
  5
36B
100
AcDbEntity
  8
0
100
AcDbLine
 62
7
  6
CONTINUOUS
 10
4.7125828641
 20
-6.1743687656
 11
4.9093078641
 21
-6.1743687656
  0
LINE
  5
36C
100
AcDbEntity
  8
0
100
AcDbLine
 62
7
  6
CONTINUOUS
 10
5.6265538641
 20
-6.1743687656
 11
5.8250978641
 21
-6.1743687656
  0
LWPOLYLINE
  5
36D
100
AcDbEntity
  8
0
100
AcDbPolyline
 62
7
  6
CONTINUOUS
 90
70
 70
0
 10
-3.4631171551
 20
-6.1743687656
 10
-3.4498041879
 20
-6.1745627821
 10
-3.4364119339
 20
-6.1750833438
 10
-3.422940393
 20
-6.1759304508
 10
-3.409338292
 20
-6.1771030302
 10
-3.3956569041
 20
-6.1786021547
 10
-3.3820500496
 20
-6.1804310429
 10
-3.3685204811
 20
-6.1826019356
 10
-3.3550654458
 20
-6.1851025919
 10
-3.3418305059
 20
-6.1878995076
 10
-3.3288450704
 20
-6.1909944836
 10
-3.3160797301
 20
-6.194385719
 10
-3.3035918198
 20
-6.1980343073
 10
-3.2914230087
 20
-6.2019239142
 10
-3.2795316275
 20
-6.2060708739
 10
-3.2678500035
 20
-6.2104852824
 10
-3.2563843541
 20
-6.215152127
 10
-3.2451284618
 20
-6.2200864201
 10
-3.2339960014
 20
-6.2253432953
 10
-3.2229801852
 20
-6.2309099595
 10
-3.212087801
 20
-6.2367992055
 10
-3.201252887
 20
-6.243104545
 10
-3.1904546565
 20
-6.2498428647
 10
-3.1797138963
 20
-6.2569972775
 10
-3.1690270046
 20
-6.2646106348
 10
-3.1583517702
 20
-6.2727410154
 10
-3.1477304043
 20
-6.2813303399
 10
-3.137285939
 20
-6.2902472226
 10
-3.1270306876
 20
-6.2994939285
 10
-3.1169523367
 20
-6.3090681921
 10
-3.1071369782
 20
-6.3188318312
 10
-3.0975852116
 20
-6.3287588884
 10
-3.0882964373
 20
-6.3388753209
 10
-3.0793549483
 20
-6.3491208182
 10
-3.0707765378
 20
-6.3594756879
 10
-3.0625454125
 20
-6.3699596223
 10
-3.0546984856
 20
-6.3805713884
 10
-3.0472607436
 20
-6.3913045666
 10
-3.0402072
 20
-6.4021655764
 10
-3.033499809
 20
-6.4131724432
 10
-3.0271577045
 20
-6.4243243127
 10
-3.0211617524
 20
-6.4356220389
 10
-3.0154165047
 20
-6.4470862093
 10
-3.0099167709
 20
-6.4587134456
 10
-3.0046677414
 20
-6.4705071258
 10
-2.9995895393
 20
-6.4824979721
 10
-2.9946548441
 20
-6.4947027048
 10
-2.9898909763
 20
-6.5071046032
 10
-2.9853000207
 20
-6.5196842272
 10
-2.9808596398
 20
-6.5324661551
 10
-2.9765921711
 20
-6.5454258082
 10
-2.9725667121
 20
-6.5584700111
 10
-2.9687936563
 20
-6.5715820033
 10
-2.9652626102
 20
-6.5847785451
 10
-2.9620114897
 20
-6.5980167425
 10
-2.9590563918
 20
-6.6112872222
 10
-2.9563812196
 20
-6.6245993575
 10
-2.9539755985
 20
-6.6379383741
 10
-2.9518470797
 20
-6.6513020838
 10
-2.949988112
 20
-6.6646926747
 10
-2.9483656678
 20
-6.6781019375
 10
-2.9469787113
 20
-6.6915300757
 10
-2.9458282784
 20
-6.7049768856
 10
-2.9448844488
 20
-6.7184335466
 10
-2.9441467672
 20
-6.7318968954
 10
-2.943615689
 20
-6.7453700953
 10
-2.9432626596
 20
-6.7588538154
 10
-2.943078161
 20
-6.7723482786
 10
-2.9430717112
 20
-6.7858532621
 10
-2.9432433104
 20
-6.7993687656
  0
LWPOLYLINE
  5
36E
100
AcDbEntity
  8
RACCORDO
100
AcDbPolyline
 62
7
  6
CONTINUOUS
 90
10
 70
0
 10
9.4659139301
 20
-9.2625158977
 10
9.4656767112
 20
-9.2624558378
 10
9.4652018221
 20
-9.2623959221
 10
9.4644892629
 20
-9.2623361508
 10
9.4635372857
 20
-9.2622764103
 10
9.4623476384
 20
-9.2622168141
 10
9.4609255649
 20
-9.2621577025
 10
9.4592691732
 20
-9.2620990984
 10
9.4573803553
 20
-9.262040979
 10
9.4529410919
 20
-9.261927085
  0
LINE
  5
36F
100
AcDbEntity
  8
0
100
AcDbLine
 62
7
  6
CONTINUOUS
 10
0.8789834195
 20
-15.9408581283
 11
0.9456502133
 21
-16.0770283487
  0
LINE
  5
370
100
AcDbEntity
  8
0
100
AcDbLine
 62
7
  6
CONTINUOUS
 10
1.1456502133
 20
-16.0770283487
 11
1.0789834195
 21
-15.9408581283
  0
LINE
  5
371
100
AcDbEntity
  8
0
100
AcDbLine
 62
7
  6
CONTINUOUS
 10
-4.1387111359
 20
-7.4243687656
 11
-4.5913391359
 21
-6.1743687656
  0
LINE
  5
372
100
AcDbEntity
  8
0
100
AcDbLine
 62
7
  6
CONTINUOUS
 10
-4.3232741359
 20
-7.4243687656
 11
-4.4468691359
 21
-7.0605397656
  0
LINE
  5
373
100
AcDbEntity
  8
0
100
AcDbLine
 62
7
  6
CONTINUOUS
 10
-4.5077561359
 20
-6.9108227656
 11
-4.6939871359
 21
-6.3556797656
  0
LINE
  5
374
100
AcDbEntity
  8
0
100
AcDbLine
 62
7
  6
CONTINUOUS
 10
-2.0210165805
 20
-15.87277303
 11
-1.987683279
 21
-15.9749006774
  0
LINE
  5
375
100
AcDbEntity
  8
0
100
AcDbLine
 62
7
  6
CONTINUOUS
 10
-0.8876831836
 20
-15.2259645488
 11
-0.9210165805
 21
-15.1238368061
  0
LINE
  5
376
100
AcDbEntity
  8
0
100
AcDbLine
 62
7
  6
CONTINUOUS
 10
-2.3210165805
 20
-15.1238368061
 11
-2.354349882
 21
-14.9876666095
  0
LINE
  5
377
100
AcDbEntity
  8
0
100
AcDbLine
 62
7
  6
CONTINUOUS
 10
-4.7967851359
 20
6.6759142344
 11
-4.7967851359
 21
5.5756312344
  0
LINE
  5
378
100
AcDbEntity
  8
0
100
AcDbLine
 62
7
  6
CONTINUOUS
 10
-4.6278601359
 20
6.8256312344
 11
-4.6278601359
 21
5.5756312344
  0
LINE
  5
379
100
AcDbEntity
  8
RACCORDO
100
AcDbLine
 62
253
  6
CONTINUOUS
 10
-4.3531531897
 20
21.8196117862
 11
-4.3531531897
 21
20.3032897613
  0
LINE
  5
37A
100
AcDbEntity
  8
RACCORDO
100
AcDbLine
 62
253
  6
CONTINUOUS
 10
-4.3531531897
 20
-20.9020272925
 11
-4.3531531897
 21
-22.4183493174
  0
LINE
  5
37B
100
AcDbEntity
  8
RACCORDO
100
AcDbLine
 62
253
  6
CONTINUOUS
 10
-4.179948109
 20
21.8248525641
 11
-4.179948109
 21
20.3155682174
  0
LINE
  5
37C
100
AcDbEntity
  8
RACCORDO
100
AcDbLine
 62
253
  6
CONTINUOUS
 10
-4.179948109
 20
-20.9143057486
 11
-4.179948109
 21
-22.4235900953
  0
LINE
  5
37D
100
AcDbEntity
  8
0
100
AcDbLine
 62
7
  6
CONTINUOUS
 10
-3.9750731359
 20
-7.4243687656
 11
-3.9750731359
 21
-6.1743687656
  0
LINE
  5
37E
100
AcDbEntity
  8
0
100
AcDbLine
 62
7
  6
CONTINUOUS
 10
-3.8061491359
 20
-7.2799087656
 11
-3.8061491359
 21
-6.3188287656
  0
LINE
  5
37F
100
AcDbEntity
  8
0
100
AcDbLine
 62
7
  6
CONTINUOUS
 10
-3.5210164851
 20
15.7506312344
 11
-3.5210164851
 21
14.1506312344
  0
LINE
  5
380
100
AcDbEntity
  8
0
100
AcDbLine
 62
7
  6
CONTINUOUS
 10
-3.5210165805
 20
-16.1791559961
 11
-3.5210165805
 21
-16.3493687656
  0
LINE
  5
381
100
AcDbEntity
  8
0
100
AcDbLine
 62
7
  6
CONTINUOUS
 10
2.1019008641
 20
18.5329322344
 11
1.5554968641
 21
16.8330692344
  0
LINE
  5
382
100
AcDbEntity
  8
RACCORDO
100
AcDbLine
 62
253
  6
CONTINUOUS
 10
-10.3152375601
 20
-20.8500258819
 11
-10.3376831359
 21
-20.9192669836
  0
LINE
  5
383
100
AcDbEntity
  8
0
100
AcDbLine
 62
7
  6
CONTINUOUS
 10
0.1456503087
 20
15.3761631463
 11
0.1123169118
 21
15.2740354989
  0
LINE
  5
384
100
AcDbEntity
  8
0
100
AcDbLine
 62
7
  6
CONTINUOUS
 10
-5.9998341359
 20
-7.2362667656
 11
-5.6429261359
 21
-6.1743687656
  0
LINE
  5
385
100
AcDbEntity
  8
0
100
AcDbLine
 62
7
  6
CONTINUOUS
 10
1.7456503087
 20
14.5931844685
 11
1.8123170071
 21
14.729354665
  0
LINE
  5
386
100
AcDbEntity
  8
RACCORDO
100
AcDbLine
 62
7
  6
CONTINUOUS
 10
9.5623168641
 20
8.7119761625
 11
9.4659139301
 21
8.6637783665
  0
LINE
  5
387
100
AcDbEntity
  8
DRAFT
100
AcDbLine
 62
7
  6
CONTINUOUS
 10
9.5221702148
 20
-4.3993687656
 11
10.7123168641
 21
-4.3993687656
  0
LINE
  5
388
100
AcDbEntity
  8
DRAFT
100
AcDbLine
 62
7
  6
CONTINUOUS
 10
-10.2975364866
 20
-4.3993687656
 11
-11.4876831359
 21
-4.3993687656
  0
LINE
  5
389
100
AcDbEntity
  8
RACCORDO
100
AcDbLine
 62
7
  6
CONTINUOUS
 10
9.5623168641
 20
-9.3107136937
 11
9.4659139301
 21
-9.2625158977
  0
LINE
  5
38A
100
AcDbEntity
  8
0
100
AcDbLine
 62
7
  6
CONTINUOUS
 10
0.2051428641
 20
-7.4243687656
 11
-0.4338081359
 21
-6.4092187656
  0
LINE
  5
38B
100
AcDbEntity
  8
0
100
AcDbLine
 62
7
  6
CONTINUOUS
 10
0.2312648641
 20
-7.1897237656
 11
-0.3972731359
 21
-6.1743687656
  0
LWPOLYLINE
  5
38C
100
AcDbEntity
  8
0
100
AcDbPolyline
 62
7
  6
CONTINUOUS
 90
37
 70
0
 10
2.3701364958
 20
-18.616215361
 10
2.3665548003
 20
-18.6071442882
 10
2.3628429024
 20
-18.5984414745
 10
2.359000802
 20
-18.590106933
 10
2.3550220709
 20
-18.582153492
 10
2.3509131374
 20
-18.5745683481
 10
2.3466932863
 20
-18.567313065
 10
2.3423696561
 20
-18.5603905665
 10
2.3379351083
 20
-18.553797948
 10
2.3333875118
 20
-18.5474880272
 10
2.3287240739
 20
-18.5414527878
 10
2.3239475873
 20
-18.5357002603
 10
2.3190642998
 20
-18.5302073305
 10
2.3140759387
 20
-18.5249758463
 10
2.3089807767
 20
-18.5200039712
 10
2.3037798795
 20
-18.5152630625
 10
2.2984790161
 20
-18.5107506398
 10
2.2930724175
 20
-18.5064691922
 10
2.287543842
 20
-18.5023975305
 10
2.2818827406
 20
-18.4985241897
 10
2.2760996622
 20
-18.4948606415
 10
2.2702100122
 20
-18.4914201014
 10
2.2642096509
 20
-18.4882055954
 10
2.2581027179
 20
-18.4852141037
 10
2.2519170369
 20
-18.4824497727
 10
2.2456610643
 20
-18.4799180233
 10
2.2393263438
 20
-18.4776134396
 10
2.2329153298
 20
-18.4755239125
 10
2.2264264059
 20
-18.4736454164
 10
2.2198611885
 20
-18.4719819804
 10
2.2132269807
 20
-18.4705335765
 10
2.206519304
 20
-18.4692972991
 10
2.199742637
 20
-18.4682760561
 10
2.1929177175
 20
-18.46747854
 10
2.1860514584
 20
-18.4669076484
 10
2.1791369469
 20
-18.4665604849
 10
2.1721741831
 20
-18.4664370497
  0
LINE
  5
38D
100
AcDbEntity
  8
0
100
AcDbLine
 62
7
  6
CONTINUOUS
 10
2.0789834195
 20
-15.7706453826
 11
2.0123166257
 21
-15.6004325893
  0
LINE
  5
38E
100
AcDbEntity
  8
RACCORDO
100
AcDbLine
 62
253
  6
CONTINUOUS
 10
-10.3376831359
 20
20.3205294524
 11
-10.3152375601
 21
20.2512883508
  0
LINE
  5
38F
100
AcDbEntity
  8
0
100
AcDbLine
 62
7
  6
CONTINUOUS
 10
1.5243288641
 20
-19.1316697656
 11
1.0027688641
 21
-17.4318067656
  0
LINE
  5
390
100
AcDbEntity
  8
0
100
AcDbLine
 62
7
  6
CONTINUOUS
 10
1.1503548641
 20
-19.1316697656
 11
1.0584358641
 21
-18.7923167656
  0
LINE
  5
391
100
AcDbEntity
  8
0
100
AcDbLine
 62
7
  6
CONTINUOUS
 10
0.9875228641
 20
-18.5297267656
 11
0.8244748641
 21
-17.8988857656
  0
LINE
  5
392
100
AcDbEntity
  8
0
100
AcDbLine
 62
7
  6
CONTINUOUS
 10
-2.054349882
 20
-15.7025602367
 11
-2.0210165805
 21
-15.87277303
  0
LINE
  5
393
100
AcDbEntity
  8
0
100
AcDbLine
 62
7
  6
CONTINUOUS
 10
-0.8543499774
 20
-15.3961772945
 11
-0.8876831836
 21
-15.2259645488
  0
LINE
  5
394
100
AcDbEntity
  8
0
100
AcDbLine
 62
7
  6
CONTINUOUS
 10
-1.8543499774
 20
-15.87277303
 11
-1.8876831836
 21
-15.6685176876
  0
LWPOLYLINE
  5
395
100
AcDbEntity
  8
0
100
AcDbPolyline
 62
7
  6
CONTINUOUS
 90
46
 70
0
 10
-3.2239371541
 20
17.3252453151
 10
-3.2237395255
 20
17.3185028201
 10
-3.2233359002
 20
17.3117564654
 10
-3.2227262779
 20
17.305006251
 10
-3.2219108671
 20
17.2982357562
 10
-3.2208894595
 20
17.2914614014
 10
-3.2196614299
 20
17.2847324488
 10
-3.2182238817
 20
17.2780497254
 10
-3.2165797115
 20
17.2714124067
 10
-3.2147369841
 20
17.2648672803
 10
-3.212695098
 20
17.2584220169
 10
-3.2104546547
 20
17.2520689506
 10
-3.2080255241
 20
17.245831865
 10
-3.205409926
 20
17.2397223887
 10
-3.2026056406
 20
17.2337288988
 10
-3.1996158779
 20
17.2278403024
 10
-3.1964416972
 20
17.222053829
 10
-3.1930820393
 20
17.2163722537
 10
-3.1895369367
 20
17.2107928016
 10
-3.1858086284
 20
17.2053136046
 10
-3.1818948754
 20
17.199936535
 10
-3.1777889934
 20
17.1946644279
 10
-3.1734960787
 20
17.1894985284
 10
-3.1690110349
 20
17.1844375955
 10
-3.164311888
 20
17.1794807357
 10
-3.1593917598
 20
17.1746204243
 10
-3.1542575286
 20
17.1698641898
 10
-3.1489078557
 20
17.1652337184
 10
-3.1433342639
 20
17.1607239383
 10
-3.1375452303
 20
17.1563399258
 10
-3.1315648482
 20
17.1521185902
 10
-3.1253904666
 20
17.1480614181
 10
-3.1190247364
 20
17.1441669281
 10
-3.1124997036
 20
17.1404675794
 10
-3.1058231798
 20
17.1369700511
 10
-3.0989873533
 20
17.1336676693
 10
-3.0920008349
 20
17.1305728644
 10
-3.0848574507
 20
17.127684638
 10
-3.0775633745
 20
17.125003993
 10
-3.0701457386
 20
17.1225463615
 10
-3.0625990767
 20
17.1203118802
 10
-3.054928855
 20
17.1183004163
 10
-3.0471786048
 20
17.1165269978
 10
-3.0393628366
 20
17.114996635
 10
-3.0314670398
 20
17.1137043204
 10
-3.0234912146
 20
17.1126500553
  0
LWPOLYLINE
  5
396
100
AcDbEntity
  8
0
100
AcDbPolyline
 62
7
  6
CONTINUOUS
 90
70
 70
0
 10
-2.9432433104
 20
-6.7993687656
 10
-2.9430717743
 20
-6.8128858343
 10
-2.9430782331
 20
-6.8263912935
 10
-2.9432626867
 20
-6.8398851433
 10
-2.943615622
 20
-6.8533667312
 10
-2.9441465521
 20
-6.8668367097
 10
-2.9448840166
 20
-6.8802970355
 10
-2.9458274915
 20
-6.8937509487
 10
-2.9469775008
 20
-6.9071952093
 10
-2.9483641559
 20
-6.9206220539
 10
-2.9499863743
 20
-6.9340314838
 10
-2.9518452386
 20
-6.9474234977
 10
-2.953974108
 20
-6.9607903279
 10
-2.9563805887
 20
-6.9741345034
 10
-2.9590570745
 20
-6.9874534953
 10
-2.9620141053
 20
-7.0007319494
 10
-2.9652679321
 20
-7.0139794787
 10
-2.9688023039
 20
-7.0271864703
 10
-2.9725790075
 20
-7.0403087308
 10
-2.9766087433
 20
-7.0533635207
 10
-2.9808808109
 20
-7.0663335797
 10
-2.9853248964
 20
-7.0791229338
 10
-2.9899184217
 20
-7.0917061454
 10
-2.9946839649
 20
-7.1041086524
 10
-2.9996189466
 20
-7.1163107941
 10
-3.004695693
 20
-7.1282949544
 10
-3.0099418778
 20
-7.1400787498
 10
-3.0154379422
 20
-7.1516953687
 10
-3.0211787586
 20
-7.1631485856
 10
-3.0271694545
 20
-7.1744346264
 10
-3.0335058544
 20
-7.1855753565
 10
-3.0402071814
 20
-7.1965720374
 10
-3.0472542123
 20
-7.207423408
 10
-3.0546851017
 20
-7.2181475504
 10
-3.0625247871
 20
-7.2287509071
 10
-3.070748331
 20
-7.2392270358
 10
-3.0793190767
 20
-7.249574692
 10
-3.0882528166
 20
-7.2598135034
 10
-3.0975337583
 20
-7.2699238426
 10
-3.1070778666
 20
-7.2798455819
 10
-3.1168855122
 20
-7.2896044755
 10
-3.1269563245
 20
-7.2991747695
 10
-3.1372051563
 20
-7.3084190751
 10
-3.1476443517
 20
-7.3173354167
 10
-3.1582615666
 20
-7.3259257703
 10
-3.1689346208
 20
-7.3340586747
 10
-3.1796220459
 20
-7.3416765696
 10
-3.1903653103
 20
-7.3488370159
 10
-3.2011666396
 20
-7.3555812336
 10
-3.2120052773
 20
-7.3618920073
 10
-3.2229019799
 20
-7.367786553
 10
-3.2339212428
 20
-7.3733577378
 10
-3.2450559999
 20
-7.3786180701
 10
-3.2563133173
 20
-7.383555042
 10
-3.2677788892
 20
-7.3882239961
 10
-3.2794586541
 20
-7.3926398203
 10
-3.2913466735
 20
-7.3967876269
 10
-3.3035108252
 20
-7.4006780953
 10
-3.3159923726
 20
-7.4043276011
 10
-3.3287500524
 20
-7.4077197689
 10
-3.3417279534
 20
-7.4108161519
 10
-3.35495549
 20
-7.4136151892
 10
-3.3684032478
 20
-7.4161184419
 10
-3.3819270719
 20
-7.4182921456
 10
-3.3955300618
 20
-7.4201242141
 10
-3.4092091181
 20
-7.4216267337
 10
-3.4228107871
 20
-7.4228021992
 10
-3.4362839174
 20
-7.4236514421
 10
-3.4496796603
 20
-7.4241736309
 10
-3.4629980159
 20
-7.4243687656
  0
LINE
  5
397
100
AcDbEntity
  8
0
100
AcDbLine
 62
7
  6
CONTINUOUS
 10
-3.3210164851
 20
14.4229716275
 11
-3.3210164851
 21
15.7506312344
  0
LINE
  5
398
100
AcDbEntity
  8
0
100
AcDbLine
 62
7
  6
CONTINUOUS
 10
-3.3161353187
 20
17.7394510428
 11
-3.3161353187
 21
17.7294063356
  0
LINE
  5
399
100
AcDbEntity
  8
0
100
AcDbLine
 62
7
  6
CONTINUOUS
 10
-3.3099471359
 20
5.7253482344
 11
-3.3099471359
 21
5.5756312344
  0
LINE
  5
39A
100
AcDbEntity
  8
0
100
AcDbLine
 62
7
  6
CONTINUOUS
 10
-3.1210164851
 20
14.3889290783
 11
-3.1210164851
 21
14.6612695668
  0
LINE
  5
39B
100
AcDbEntity
  8
0
100
AcDbLine
 62
7
  6
CONTINUOUS
 10
-2.8868781359
 20
6.8256312344
 11
-2.8868781359
 21
5.7253482344
  0
LINE
  5
39C
100
AcDbEntity
  8
0
100
AcDbLine
 62
7
  6
CONTINUOUS
 10
-2.8543496913
 20
15.308078048
 11
-2.8543496913
 21
15.1719078515
  0
LINE
  5
39D
100
AcDbEntity
  8
DRAFT
100
AcDbLine
 62
7
  6
CONTINUOUS
 10
-2.7943074629
 20
21.9506312344
 11
-2.7943074629
 21
20.5206312344
  0
LINE
  5
39E
100
AcDbEntity
  8
DRAFT
100
AcDbLine
 62
7
  6
CONTINUOUS
 10
-2.7943074629
 20
-22.5493687656
 11
-2.7943074629
 21
-21.1193687656
  0
LINE
  5
39F
100
AcDbEntity
  8
0
100
AcDbLine
 62
7
  6
CONTINUOUS
 10
-2.7876828975
 20
14.3208439801
 11
-2.7876828975
 21
14.1506312344
  0
LINE
  5
3A0
100
AcDbEntity
  8
0
100
AcDbLine
 62
7
  6
CONTINUOUS
 10
-2.7572901319
 20
18.5329319211
 11
-2.7572901319
 21
17.8676995185
  0
LINE
  5
3A1
100
AcDbEntity
  8
0
100
AcDbLine
 62
7
  6
CONTINUOUS
 10
-2.7455245675
 20
17.5893030659
 11
-2.7455245675
 21
17.1226575834
  0
LINE
  5
3A2
100
AcDbEntity
  8
0
100
AcDbLine
 62
7
  6
CONTINUOUS
 10
-2.7180241359
 20
6.8256312344
 11
-2.7180241359
 21
5.7253482344
  0
LINE
  5
3A3
100
AcDbEntity
  8
0
100
AcDbLine
 62
7
  6
CONTINUOUS
 10
-2.7093541359
 20
-7.4243687656
 11
-2.7093541359
 21
-6.1743687656
  0
LINE
  5
3A4
100
AcDbEntity
  8
0
100
AcDbLine
 62
7
  6
CONTINUOUS
 10
-2.6876828975
 20
15.2059504006
 11
-2.6876828975
 21
15.2740354989
  0
LINE
  5
3A5
100
AcDbEntity
  8
0
100
AcDbLine
 62
7
  6
CONTINUOUS
 10
-2.5404391359
 20
-7.2746517656
 11
-2.5404391359
 21
-6.8568397656
  0
LINE
  5
3A6
100
AcDbEntity
  8
0
100
AcDbLine
 62
7
  6
CONTINUOUS
 10
-2.5404391359
 20
-6.7071227656
 11
-2.5404391359
 21
-6.3240857656
  0
LINE
  5
3A7
100
AcDbEntity
  8
0
100
AcDbLine
 62
7
  6
CONTINUOUS
 10
-2.5210165805
 20
-15.1238368061
 11
-2.5210165805
 21
-15.1919219997
  0
LINE
  5
3A8
100
AcDbEntity
  8
0
100
AcDbLine
 62
7
  6
CONTINUOUS
 10
-2.4038897998
 20
18.5329319211
 11
-2.4038897998
 21
16.8529291522
  0
LINE
  5
3A9
100
AcDbEntity
  8
0
100
AcDbLine
 62
7
  6
CONTINUOUS
 10
-2.3210165805
 20
-16.3493687656
 11
-2.3210165805
 21
-16.1791559961
  0
LINE
  5
3AA
100
AcDbEntity
  8
0
100
AcDbLine
 62
7
  6
CONTINUOUS
 10
-2.3210165805
 20
-15.1919219997
 11
-2.3210165805
 21
-15.1238368061
  0
LINE
  5
3AB
100
AcDbEntity
  8
0
100
AcDbLine
 62
7
  6
CONTINUOUS
 10
-2.2949551359
 20
5.7253482344
 11
-2.2949551359
 21
5.5756312344
  0
LINE
  5
3AC
100
AcDbEntity
  8
0
100
AcDbLine
 62
7
  6
CONTINUOUS
 10
-2.1991851359
 20
-19.1316697656
 11
-2.1991851359
 21
-17.4317047656
  0
LINE
  5
3AD
100
AcDbEntity
  8
0
100
AcDbLine
 62
7
  6
CONTINUOUS
 10
-2.1138891359
 20
6.8256312344
 11
-2.1138891359
 21
5.5756312344
  0
LINE
  5
3AE
100
AcDbEntity
  8
0
100
AcDbLine
 62
7
  6
CONTINUOUS
 10
-2.054349882
 20
-15.3961772945
 11
-2.054349882
 21
-15.7025602367
  0
LINE
  5
3AF
100
AcDbEntity
  8
0
100
AcDbLine
 62
7
  6
CONTINUOUS
 10
-1.9449751359
 20
6.8256312344
 11
-1.9449751359
 21
5.5756312344
  0
LINE
  5
3B0
100
AcDbEntity
  8
0
100
AcDbLine
 62
7
  6
CONTINUOUS
 10
-1.8876831836
 20
-15.6685176876
 11
-1.8876831836
 21
-15.4302198436
  0
LINE
  5
3B1
100
AcDbEntity
  8
0
100
AcDbLine
 62
7
  6
CONTINUOUS
 10
-1.8562401359
 20
-6.8568397656
 11
-1.8562401359
 21
-6.7071227656
  0
LINE
  5
3B2
100
AcDbEntity
  8
0
100
AcDbLine
 62
7
  6
CONTINUOUS
 10
-1.8443571359
 20
-19.1316697656
 11
-1.8443571359
 21
-17.4317047656
  0
LWPOLYLINE
  5
3B3
100
AcDbEntity
  8
0
100
AcDbPolyline
 62
7
  6
CONTINUOUS
 90
61
 70
0
 10
-3.1170012886
 20
-6.7993687656
 10
-3.1167877511
 20
-6.7872746573
 10
-3.1167844345
 20
-6.7751803795
 10
-3.1169913387
 20
-6.7630859321
 10
-3.1174110985
 20
-6.7509857599
 10
-3.118041079
 20
-6.7388854181
 10
-3.1188733764
 20
-6.7268015722
 10
-3.1199086306
 20
-6.7147337505
 10
-3.1211462016
 20
-6.7026824246
 10
-3.1225762646
 20
-6.6906656753
 10
-3.1241976639
 20
-6.6786922563
 10
-3.1260115553
 20
-6.6667534139
 10
-3.1280115814
 20
-6.6548409686
 10
-3.1301906695
 20
-6.64296227
 10
-3.1325558923
 20
-6.6311099685
 10
-3.1351221097
 20
-6.6192538357
 10
-3.137879712
 20
-6.6073509674
 10
-3.1408383088
 20
-6.5954442676
 10
-3.1440415894
 20
-6.583632221
 10
-3.1475093328
 20
-6.5718748103
 10
-3.1512217599
 20
-6.5602120528
 10
-3.1551632224
 20
-6.5488624851
 10
-3.1593339759
 20
-6.5378946441
 10
-3.1637337647
 20
-6.5272399934
 10
-3.168346174
 20
-6.5169114603
 10
-3.1731567479
 20
-6.5069487731
 10
-3.1781799423
 20
-6.4973122039
 10
-3.1834427102
 20
-6.4878954959
 10
-3.1889496775
 20
-6.4786691295
 10
-3.1946962184
 20
-6.4696626244
 10
-3.2006954081
 20
-6.4608582824
 10
-3.2069679726
 20
-6.4522270875
 10
-3.2134931859
 20
-6.443798056
 10
-3.2202219447
 20
-6.4356405382
 10
-3.2271446354
 20
-6.4277750448
 10
-3.2342708716
 20
-6.4201810655
 10
-3.2415803908
 20
-6.4128664185
 10
-3.2490636713
 20
-6.4058417408
 10
-3.2567302349
 20
-6.3990963957
 10
-3.2645883839
 20
-6.3926062913
 10
-3.2726326384
 20
-6.3863674266
 10
-3.2808684784
 20
-6.3803838029
 10
-3.2893206466
 20
-6.3746433317
 10
-3.2980015592
 20
-6.3691341792
 10
-3.3068988001
 20
-6.3638681794
 10
-3.3159998642
 20
-6.3588687464
 10
-3.3253061515
 20
-6.3541385428
 10
-3.3348162619
 20
-6.3496749061
 10
-3.3445134904
 20
-6.3454932632
 10
-3.35440175
 20
-6.341593081
 10
-3.3644771276
 20
-6.3379748927
 10
-3.3747111795
 20
-6.3346557243
 10
-3.3851048221
 20
-6.3316362265
 10
-3.3956571388
 20
-6.3289157487
 10
-3.4063369369
 20
-6.3265093652
 10
-3.4171447135
 20
-6.3244172277
 10
-3.4280799713
 20
-6.3226391846
 10
-3.4391100254
 20
-6.3211898549
 10
-3.4502239806
 20
-6.3200741116
 10
-3.4614327321
 20
-6.3192870819
 10
-3.4727362797
 20
-6.3188287656
  0
LINE
  5
3B4
100
AcDbEntity
  8
0
100
AcDbLine
 62
7
  6
CONTINUOUS
 10
0.2456503087
 20
15.0697801564
 11
0.2789837056
 21
15.2740354989
  0
LINE
  5
3B5
100
AcDbEntity
  8
0
100
AcDbLine
 62
7
  6
CONTINUOUS
 10
0.1123169118
 20
15.2740354989
 11
0.0789837056
 21
15.1038227055
  0
LINE
  5
3B6
100
AcDbEntity
  8
0
100
AcDbLine
 62
7
  6
CONTINUOUS
 10
1.5789836102
 20
14.729354665
 11
1.5456503087
 21
14.5931844685
  0
LINE
  5
3B7
100
AcDbEntity
  8
0
100
AcDbLine
 62
7
  6
CONTINUOUS
 10
2.2440048641
 20
18.0031372344
 11
1.9100828641
 21
16.8330692344
  0
LINE
  5
3B8
100
AcDbEntity
  8
RACCORDO
100
AcDbLine
 62
253
  6
CONTINUOUS
 10
-10.1151487916
 20
-21.0493687656
 11
-10.137840376
 21
-21.1193687656
  0
LINE
  5
3B9
100
AcDbEntity
  8
0
100
AcDbLine
 62
7
  6
CONTINUOUS
 10
1.2123170071
 20
14.5250992749
 11
1.2456503087
 21
14.6272270176
  0
LINE
  5
3BA
100
AcDbEntity
  8
0
100
AcDbLine
 62
7
  6
CONTINUOUS
 10
-5.9179831359
 20
-7.4243687656
 11
-5.5663491359
 21
-6.3745307656
  0
LINE
  5
3BB
100
AcDbEntity
  8
0
100
AcDbLine
 62
7
  6
CONTINUOUS
 10
-5.0788341359
 20
-7.4243687656
 11
-4.9482441359
 21
-7.0605397656
  0
LINE
  5
3BC
100
AcDbEntity
  8
0
100
AcDbLine
 62
7
  6
CONTINUOUS
 10
-4.8959991359
 20
-6.9108227656
 11
-4.6939871359
 21
-6.3556797656
  0
LINE
  5
3BD
100
AcDbEntity
  8
0
100
AcDbLine
 62
7
  6
CONTINUOUS
 10
-5.2529141359
 20
-7.4243687656
 11
-4.7828781359
 21
-6.1743687656
  0
LINE
  5
3BE
100
AcDbEntity
  8
DRAFT
100
AcDbLine
 62
7
  6
CONTINUOUS
 10
7.7872941911
 20
-1.6168238305
 11
7.6123168641
 21
-1.6517339604
  0
LWPOLYLINE
  5
3BF
100
AcDbEntity
  8
RACCORDO
100
AcDbPolyline
 62
253
  6
CONTINUOUS
 90
5
 70
0
 10
9.4645509975
 20
-1.8744125868
 10
9.4642835075
 20
-1.8744308003
 10
9.463744004
 20
-1.8744556343
 10
9.462934905
 20
-1.8744826468
 10
9.4618535866
 20
-1.8745048841
  0
LWPOLYLINE
  5
3C0
100
AcDbEntity
  8
RACCORDO
100
AcDbPolyline
 62
253
  6
CONTINUOUS
 90
3
 70
0
 10
9.4618535866
 20
-1.8745048841
 10
9.4569952701
 20
-1.8745746583
 10
9.4497701566
 20
-1.8746425239
  0
LINE
  5
3C1
100
AcDbEntity
  8
RACCORDO
100
AcDbLine
 62
253
  6
CONTINUOUS
 10
9.4497701566
 20
-1.8746425239
 11
9.3822053197
 21
-1.8749211714
  0
LINE
  5
3C2
100
AcDbEntity
  8
RACCORDO
100
AcDbLine
 62
253
  6
CONTINUOUS
 10
9.3822053197
 20
-1.8749211714
 11
9.2719724205
 21
-1.8750563753
  0
LINE
  5
3C3
100
AcDbEntity
  8
RACCORDO
100
AcDbLine
 62
253
  6
CONTINUOUS
 10
9.2645814588
 20
-1.8750443733
 11
-10.1324448663
 21
-1.8749679592
  0
LINE
  5
3C4
100
AcDbEntity
  8
RACCORDO
100
AcDbLine
 62
253
  6
CONTINUOUS
 10
9.2719724205
 20
-1.8750563753
 11
9.2645814585
 21
-1.8750443733
  0
LINE
  5
3C5
100
AcDbEntity
  8
RACCORDO
100
AcDbLine
 62
253
  6
CONTINUOUS
 10
-10.1324448663
 20
-1.8749679592
 11
-10.2080880647
 21
-1.8747457653
  0
LINE
  5
3C6
100
AcDbEntity
  8
RACCORDO
100
AcDbLine
 62
253
  6
CONTINUOUS
 10
-10.2080880647
 20
-1.8747457653
 11
-10.2302103373
 21
-1.8745970527
  0
LWPOLYLINE
  5
3C7
100
AcDbEntity
  8
RACCORDO
100
AcDbPolyline
 62
253
  6
CONTINUOUS
 90
7
 70
0
 10
-10.2302103373
 20
-1.8745970527
 10
-10.2358661247
 20
-1.8745289213
 10
-10.2372185531
 20
-1.8745058486
 10
-10.2383011768
 20
-1.8744826468
 10
-10.2391125151
 20
-1.8744593476
 10
-10.2396514583
 20
-1.8744359835
 10
-10.2399172693
 20
-1.8744125868
  0
LINE
  5
3C8
100
AcDbEntity
  8
DRAFT
100
AcDbLine
 62
7
  6
CONTINUOUS
 10
-8.562660463
 20
-1.6168238305
 11
-8.3876831359
 21
-1.6517339604
  0
LINE
  5
3C9
100
AcDbEntity
  8
0
100
AcDbLine
 62
7
  6
CONTINUOUS
 10
-6.0433481359
 20
6.1763182344
 11
-5.6846741359
 21
5.5756312344
  0
LINE
  5
3CA
100
AcDbEntity
  8
0
100
AcDbLine
 62
7
  6
CONTINUOUS
 10
1.8789834195
 20
-15.7025602367
 11
1.9123166257
 21
-15.8046879318
  0
LINE
  5
3CB
100
AcDbEntity
  8
RACCORDO
100
AcDbLine
 62
253
  6
CONTINUOUS
 10
-10.137840376
 20
20.5206312344
 11
-10.1151487916
 21
20.4506312344
  0
LWPOLYLINE
  5
3CC
100
AcDbEntity
  8
0
100
AcDbPolyline
 62
7
  6
CONTINUOUS
 90
5
 70
0
 10
2.3865258189
 20
-18.6646760658
 10
2.3824475169
 20
-18.6520554437
 10
2.3783438781
 20
-18.6397714714
 10
2.3742402044
 20
-18.6278247715
 10
2.3701364958
 20
-18.616215361
  0
LINE
  5
3CD
100
AcDbEntity
  8
0
100
AcDbLine
 62
7
  6
CONTINUOUS
 10
2.399010643
 20
-18.7045598683
 11
2.3865258189
 21
-18.6646760658
  0
LINE
  5
3CE
100
AcDbEntity
  8
0
100
AcDbLine
 62
7
  6
CONTINUOUS
 10
2.4122491101
 20
-18.7475469266
 11
2.399010643
 21
-18.7045598683
  0
LINE
  5
3CF
100
AcDbEntity
  8
0
100
AcDbLine
 62
7
  6
CONTINUOUS
 10
2.4311361558
 20
-18.810076321
 11
2.4122491101
 21
-18.7475469266
  0
LINE
  5
3D0
100
AcDbEntity
  8
0
100
AcDbLine
 62
7
  6
CONTINUOUS
 10
2.4625479228
 20
-18.9161551418
 11
2.4311361558
 21
-18.810076321
  0
LINE
  5
3D1
100
AcDbEntity
  8
0
100
AcDbLine
 62
7
  6
CONTINUOUS
 10
2.5115854601
 20
-19.0841976257
 11
2.4625479228
 21
-18.9161551418
  0
LINE
  5
3D2
100
AcDbEntity
  8
0
100
AcDbLine
 62
7
  6
CONTINUOUS
 10
2.5252940792
 20
-19.1316694523
 11
2.5115854601
 21
-19.0841976257
  0
LINE
  5
3D3
100
AcDbEntity
  8
0
100
AcDbLine
 62
7
  6
CONTINUOUS
 10
2.8516650553
 20
-19.0757538615
 11
2.8665974225
 21
-19.1316694523
  0
LINE
  5
3D4
100
AcDbEntity
  8
0
100
AcDbLine
 62
7
  6
CONTINUOUS
 10
2.7620763691
 20
-18.7337658142
 11
2.7779944597
 21
-18.7936885936
  0
LINE
  5
3D5
100
AcDbEntity
  8
0
100
AcDbLine
 62
7
  6
CONTINUOUS
 10
2.7779944597
 20
-18.7936885936
 11
2.798264647
 21
-18.870949063
  0
LWPOLYLINE
  5
3D6
100
AcDbEntity
  8
0
100
AcDbPolyline
 62
7
  6
CONTINUOUS
 90
3
 70
0
 10
2.822671795
 20
-18.9647042846
 10
2.8274961976
 20
-18.9832483723
 10
2.8516650553
 20
-19.0757538615
  0
LINE
  5
3D7
100
AcDbEntity
  8
0
100
AcDbLine
 62
7
  6
CONTINUOUS
 10
2.798264647
 20
-18.870949063
 11
2.822671795
 21
-18.9647042846
  0
LINE
  5
3D8
100
AcDbEntity
  8
0
100
AcDbLine
 62
7
  6
CONTINUOUS
 10
-1.0543499774
 20
-15.2259645488
 11
-1.0210165805
 21
-15.4302198436
  0
LINE
  5
3D9
100
AcDbEntity
  8
0
100
AcDbLine
 62
7
  6
CONTINUOUS
 10
0.0706128641
 20
-19.1316697656
 11
-0.0883441359
 21
-17.4318067656
  0
LINE
  5
3DA
100
AcDbEntity
  8
0
100
AcDbLine
 62
7
  6
CONTINUOUS
 10
-0.2765031359
 20
-19.1316697656
 11
-0.3494041359
 21
-18.0263177656
  0
LINE
  5
3DB
100
AcDbEntity
  8
0
100
AcDbLine
 62
7
  6
CONTINUOUS
 10
-1.8210164851
 20
14.8655248616
 11
-1.8210164851
 21
14.3208439801
  0
LINE
  5
3DC
100
AcDbEntity
  8
0
100
AcDbLine
 62
7
  6
CONTINUOUS
 10
-1.7987901359
 20
-6.3240857656
 11
-1.7987901359
 21
-6.1743687656
  0
LINE
  5
3DD
100
AcDbEntity
  8
0
100
AcDbLine
 62
7
  6
CONTINUOUS
 10
-1.7865881359
 20
-7.4243687656
 11
-1.7865881359
 21
-7.2746517656
  0
LINE
  5
3DE
100
AcDbEntity
  8
0
100
AcDbLine
 62
7
  6
CONTINUOUS
 10
-1.6543496913
 20
14.1506312344
 11
-1.6543496913
 21
15.0357376072
  0
LINE
  5
3DF
100
AcDbEntity
  8
0
100
AcDbLine
 62
7
  6
CONTINUOUS
 10
-1.3876828975
 20
14.3208439801
 11
-1.3876828975
 21
14.1506312344
  0
LINE
  5
3E0
100
AcDbEntity
  8
0
100
AcDbLine
 62
7
  6
CONTINUOUS
 10
-1.1702681359
 20
6.8256312344
 11
-1.1702681359
 21
5.5756312344
  0
LINE
  5
3E1
100
AcDbEntity
  8
0
100
AcDbLine
 62
7
  6
CONTINUOUS
 10
-1.0553501359
 20
-7.4243687656
 11
-1.0553501359
 21
-6.1743687656
  0
LINE
  5
3E2
100
AcDbEntity
  8
0
100
AcDbLine
 62
7
  6
CONTINUOUS
 10
-1.0210165805
 20
-15.4302198436
 11
-1.0210165805
 21
-15.6685176876
  0
LINE
  5
3E3
100
AcDbEntity
  8
0
100
AcDbLine
 62
7
  6
CONTINUOUS
 10
-1.0066311359
 20
6.5909862344
 11
-1.0066311359
 21
5.5756312344
  0
LINE
  5
3E4
100
AcDbEntity
  8
0
100
AcDbLine
 62
7
  6
CONTINUOUS
 10
-0.8864871359
 20
-7.4243687656
 11
-0.8864871359
 21
-6.1743687656
  0
LINE
  5
3E5
100
AcDbEntity
  8
0
100
AcDbLine
 62
7
  6
CONTINUOUS
 10
-0.8543499774
 20
-15.7025602367
 11
-0.8543499774
 21
-15.3961772945
  0
LINE
  5
3E6
100
AcDbEntity
  8
0
100
AcDbLine
 62
7
  6
CONTINUOUS
 10
-0.5975261359
 20
-7.4243687656
 11
-0.5975261359
 21
-6.1743687656
  0
LINE
  5
3E7
100
AcDbEntity
  8
0
100
AcDbLine
 62
7
  6
CONTINUOUS
 10
-0.5876831836
 20
-14.7493687656
 11
-0.5876831836
 21
-14.9195815113
  0
LINE
  5
3E8
100
AcDbEntity
  8
0
100
AcDbLine
 62
7
  6
CONTINUOUS
 10
-0.4338081359
 20
-7.4243687656
 11
-0.4338081359
 21
-6.4092187656
  0
LINE
  5
3E9
100
AcDbEntity
  8
0
100
AcDbLine
 62
7
  6
CONTINUOUS
 10
-0.3415581359
 20
6.8256312344
 11
-0.3415581359
 21
5.8104812344
  0
LINE
  5
3EA
100
AcDbEntity
  8
0
100
AcDbLine
 62
7
  6
CONTINUOUS
 10
-0.1876830882
 20
14.1506312344
 11
-0.1876830882
 21
14.3208439801
  0
LINE
  5
3EB
100
AcDbEntity
  8
0
100
AcDbLine
 62
7
  6
CONTINUOUS
 10
-0.1778401359
 20
6.8256312344
 11
-0.1778401359
 21
5.5756312344
  0
LINE
  5
3EC
100
AcDbEntity
  8
0
100
AcDbLine
 62
7
  6
CONTINUOUS
 10
0.5385208641
 20
18.5329322344
 11
0.4619488641
 21
17.4229532344
  0
LINE
  5
3ED
100
AcDbEntity
  8
0
100
AcDbLine
 62
7
  6
CONTINUOUS
 10
0.8779758641
 20
18.5329322344
 11
0.7244888641
 21
16.8330692344
  0
LINE
  5
3EE
100
AcDbEntity
  8
0
100
AcDbLine
 62
7
  6
CONTINUOUS
 10
1.1123169118
 20
14.8314823124
 11
1.0789837056
 21
14.6272270176
  0
LINE
  5
3EF
100
AcDbEntity
  8
0
100
AcDbLine
 62
7
  6
CONTINUOUS
 10
1.2456503087
 20
14.6272270176
 11
1.2789836102
 21
14.7974397633
  0
LINE
  5
3F0
100
AcDbEntity
  8
0
100
AcDbLine
 62
7
  6
CONTINUOUS
 10
2.67898364
 20
14.3889290783
 11
2.7123169744
 21
14.5250992749
  0
LINE
  5
3F1
100
AcDbEntity
  8
DRAFT
100
AcDbLine
 62
7
  6
CONTINUOUS
 10
7.7872941911
 20
-0.4080956334
 11
7.6123168641
 21
-0.425549369
  0
LINE
  5
3F2
100
AcDbEntity
  8
RACCORDO
100
AcDbLine
 62
253
  6
CONTINUOUS
 10
-10.0399477303
 20
-1.6744430478
 11
9.2645814585
 21
-1.6744430478
  0
LINE
  5
3F3
100
AcDbEntity
  8
DRAFT
100
AcDbLine
 62
7
  6
CONTINUOUS
 10
-8.3876831359
 20
-1.6517339604
 11
7.6123168641
 21
-1.6517339604
  0
LINE
  5
3F4
100
AcDbEntity
  8
RACCORDO
100
AcDbLine
 62
7
  6
CONTINUOUS
 10
-10.0975669475
 20
-1.6168238305
 11
-8.562660463
 21
-1.6168238305
  0
LINE
  5
3F5
100
AcDbEntity
  8
RACCORDO
100
AcDbLine
 62
7
  6
CONTINUOUS
 10
7.7872941911
 20
-1.6168238305
 11
9.3222006757
 21
-1.6168238305
  0
LINE
  5
3F6
100
AcDbEntity
  8
DRAFT
100
AcDbLine
 62
7
  6
CONTINUOUS
 10
-8.3876831359
 20
-0.425549369
 11
7.6123168641
 21
-0.425549369
  0
LINE
  5
3F7
100
AcDbEntity
  8
RACCORDO
100
AcDbLine
 62
7
  6
CONTINUOUS
 10
10.4221702133
 20
-0.4080956334
 11
7.7872941911
 21
-0.4080956334
  0
LINE
  5
3F8
100
AcDbEntity
  8
RACCORDO
100
AcDbLine
 62
7
  6
CONTINUOUS
 10
-8.562660463
 20
-0.4080956334
 11
-11.1975364851
 21
-0.4080956334
  0
LINE
  5
3F9
100
AcDbEntity
  8
RACCORDO
100
AcDbLine
 62
7
  6
CONTINUOUS
 10
-11.1975364851
 20
-0.1906418978
 11
-8.562660463
 21
-0.1906418978
  0
LINE
  5
3FA
100
AcDbEntity
  8
RACCORDO
100
AcDbLine
 62
7
  6
CONTINUOUS
 10
7.7872941911
 20
-0.1906418978
 11
10.4221702133
 21
-0.1906418978
  0
LINE
  5
3FB
100
AcDbEntity
  8
DRAFT
100
AcDbLine
 62
7
  6
CONTINUOUS
 10
7.6123168641
 20
-0.1731881622
 11
-8.3876831359
 21
-0.1731881622
  0
LWPOLYLINE
  5
3FC
100
AcDbEntity
  8
RACCORDO
100
AcDbPolyline
 62
253
  6
CONTINUOUS
 90
46
 70
0
 10
9.2645814585
 20
-1.6744430478
 10
9.2715589424
 20
-1.6745669418
 10
9.2785279286
 20
-1.6749342226
 10
9.2854799297
 20
-1.6755444428
 10
9.2924064792
 20
-1.6763968593
 10
9.2992991413
 20
-1.6774904339
 10
9.3061495217
 20
-1.6788238348
 10
9.3129492774
 20
-1.680395438
 10
9.3196901273
 20
-1.6822033296
 10
9.3263638617
 20
-1.6842453078
 10
9.332962353
 20
-1.6865188856
 10
9.339477565
 20
-1.6890212943
 10
9.3459015631
 20
-1.6917494861
 10
9.3522265235
 20
-1.6947001385
 10
9.3584447433
 20
-1.6978696579
 10
9.3645486495
 20
-1.7012541842
 10
9.3705308083
 20
-1.7048495957
 10
9.3763839341
 20
-1.7086515134
 10
9.3821008987
 20
-1.7126553071
 10
9.3876747395
 20
-1.7168561007
 10
9.3930986682
 20
-1.7212487782
 10
9.3983660793
 20
-1.7258279899
 10
9.4034705575
 20
-1.7305881589
 10
9.4084058864
 20
-1.7355234877
 10
9.4131660553
 20
-1.740627966
 10
9.417745267
 20
-1.745895377
 10
9.4221379445
 20
-1.7513193058
 10
9.4263387382
 20
-1.7568931465
 10
9.4303425319
 20
-1.7626101111
 10
9.4341444496
 20
-1.768463237
 10
9.437739861
 20
-1.7744453958
 10
9.4411243874
 20
-1.780549302
 10
9.4442939068
 20
-1.7867675218
 10
9.4472445592
 20
-1.7930924822
 10
9.449972751
 20
-1.7995164802
 10
9.4524751596
 20
-1.8060316922
 10
9.4547487375
 20
-1.8126301835
 10
9.4567907157
 20
-1.819303918
 10
9.4585986073
 20
-1.8260447678
 10
9.4601702105
 20
-1.8328445236
 10
9.4615036114
 20
-1.8396949039
 10
9.462597186
 20
-1.846587566
 10
9.4634496024
 20
-1.8535141155
 10
9.4640598226
 20
-1.8604661167
 10
9.4644271034
 20
-1.8674351029
 10
9.4645509975
 20
-1.8744125868
  0
LINE
  5
3FD
100
AcDbEntity
  8
DRAFT
100
AcDbLine
 62
7
  6
CONTINUOUS
 10
-8.562660463
 20
-0.4080956334
 11
-8.3876831359
 21
-0.425549369
  0
LINE
  5
3FE
100
AcDbEntity
  8
0
100
AcDbLine
 62
7
  6
CONTINUOUS
 10
-5.9597451359
 20
6.3224972344
 11
-5.4879491359
 21
5.5756312344
  0
LINE
  5
3FF
100
AcDbEntity
  8
0
100
AcDbLine
 62
7
  6
CONTINUOUS
 10
-4.4729881359
 20
6.8256312344
 11
-4.0202681359
 21
5.5756312344
  0
LINE
  5
400
100
AcDbEntity
  8
0
100
AcDbLine
 62
7
  6
CONTINUOUS
 10
-4.2883941359
 20
6.8256312344
 11
-4.1647891359
 21
6.4618022344
  0
LINE
  5
401
100
AcDbEntity
  8
0
100
AcDbLine
 62
7
  6
CONTINUOUS
 10
-4.1038411359
 20
6.3120852344
 11
-3.9176001359
 21
5.7569422344
  0
LINE
  5
402
100
AcDbEntity
  8
0
100
AcDbLine
 62
7
  6
CONTINUOUS
 10
-0.8459791359
 20
18.5329322344
 11
-0.6870221359
 21
16.8330692344
  0
LINE
  5
403
100
AcDbEntity
  8
0
100
AcDbLine
 62
7
  6
CONTINUOUS
 10
-0.4988631359
 20
18.5329322344
 11
-0.4259621359
 21
17.4275802344
  0
LINE
  5
404
100
AcDbEntity
  8
0
100
AcDbLine
 62
7
  6
CONTINUOUS
 10
0.0789837056
 20
15.1038227055
 11
0.0789837056
 21
14.7974397633
  0
LINE
  5
405
100
AcDbEntity
  8
0
100
AcDbLine
 62
7
  6
CONTINUOUS
 10
0.1111208641
 20
6.8256312344
 11
0.1111208641
 21
5.5756312344
  0
LINE
  5
406
100
AcDbEntity
  8
0
100
AcDbLine
 62
7
  6
CONTINUOUS
 10
0.2312648641
 20
-7.1897237656
 11
0.2312648641
 21
-6.1743687656
  0
LINE
  5
407
100
AcDbEntity
  8
0
100
AcDbLine
 62
7
  6
CONTINUOUS
 10
0.2456503087
 20
14.8314823124
 11
0.2456503087
 21
15.0697801564
  0
LINE
  5
408
100
AcDbEntity
  8
0
100
AcDbLine
 62
7
  6
CONTINUOUS
 10
0.2799838641
 20
6.8256312344
 11
0.2799838641
 21
5.5756312344
  0
LINE
  5
409
100
AcDbEntity
  8
0
100
AcDbLine
 62
7
  6
CONTINUOUS
 10
0.3949018641
 20
-7.4243687656
 11
0.3949018641
 21
-6.1743687656
  0
LINE
  5
40A
100
AcDbEntity
  8
0
100
AcDbLine
 62
7
  6
CONTINUOUS
 10
0.6123166257
 20
-14.9195815113
 11
0.6123166257
 21
-14.7493687656
  0
LINE
  5
40B
100
AcDbEntity
  8
0
100
AcDbLine
 62
7
  6
CONTINUOUS
 10
0.8789834195
 20
-14.7493687656
 11
0.8789834195
 21
-15.6344751384
  0
LINE
  5
40C
100
AcDbEntity
  8
0
100
AcDbLine
 62
7
  6
CONTINUOUS
 10
1.0112218641
 20
6.8256312344
 11
1.0112218641
 21
6.6759142344
  0
LINE
  5
40D
100
AcDbEntity
  8
0
100
AcDbLine
 62
7
  6
CONTINUOUS
 10
1.0234238641
 20
5.7253482344
 11
1.0234238641
 21
5.5756312344
  0
LINE
  5
40E
100
AcDbEntity
  8
0
100
AcDbLine
 62
7
  6
CONTINUOUS
 10
1.0456502133
 20
-15.4642623928
 11
1.0456502133
 21
-14.9195815113
  0
LINE
  5
40F
100
AcDbEntity
  8
0
100
AcDbLine
 62
7
  6
CONTINUOUS
 10
1.0689908641
 20
18.5329322344
 11
1.0689908641
 21
16.8329672344
  0
LINE
  5
410
100
AcDbEntity
  8
0
100
AcDbLine
 62
7
  6
CONTINUOUS
 10
1.0808738641
 20
6.2581022344
 11
1.0808738641
 21
6.1083852344
  0
LINE
  5
411
100
AcDbEntity
  8
0
100
AcDbLine
 62
7
  6
CONTINUOUS
 10
1.1123169118
 20
15.0697801564
 11
1.1123169118
 21
14.8314823124
  0
LINE
  5
412
100
AcDbEntity
  8
0
100
AcDbLine
 62
7
  6
CONTINUOUS
 10
1.1696088641
 20
-7.4243687656
 11
1.1696088641
 21
-6.1743687656
  0
LINE
  5
413
100
AcDbEntity
  8
0
100
AcDbLine
 62
7
  6
CONTINUOUS
 10
1.2789836102
 20
14.7974397633
 11
1.2789836102
 21
15.1038227055
  0
LINE
  5
414
100
AcDbEntity
  8
0
100
AcDbLine
 62
7
  6
CONTINUOUS
 10
1.3385228641
 20
-7.4243687656
 11
1.3385228641
 21
-6.1743687656
  0
LINE
  5
415
100
AcDbEntity
  8
0
100
AcDbLine
 62
7
  6
CONTINUOUS
 10
1.4238188641
 20
18.5329322344
 11
1.4238188641
 21
16.8329672344
  0
LINE
  5
416
100
AcDbEntity
  8
0
100
AcDbLine
 62
7
  6
CONTINUOUS
 10
-1.3138871359
 20
-19.1316697656
 11
-1.2373151359
 21
-18.0216907656
  0
LINE
  5
417
100
AcDbEntity
  8
0
100
AcDbLine
 62
7
  6
CONTINUOUS
 10
-1.6533421359
 20
-19.1316697656
 11
-1.4998551359
 21
-17.4318067656
  0
LINE
  5
418
100
AcDbEntity
  8
0
100
AcDbLine
 62
7
  6
CONTINUOUS
 10
-1.8876831836
 20
-15.4302198436
 11
-1.8543499774
 21
-15.2259645488
  0
LINE
  5
419
100
AcDbEntity
  8
0
100
AcDbLine
 62
7
  6
CONTINUOUS
 10
-1.0210165805
 20
-15.6685176876
 11
-1.0543499774
 21
-15.87277303
  0
LINE
  5
41A
100
AcDbEntity
  8
0
100
AcDbLine
 62
7
  6
CONTINUOUS
 10
-2.0210165805
 20
-15.2259645488
 11
-2.054349882
 21
-15.3961772945
  0
LINE
  5
41B
100
AcDbEntity
  8
0
100
AcDbLine
 62
7
  6
CONTINUOUS
 10
-3.4543499119
 20
-14.9876666095
 11
-3.4876832462
 21
-15.1238368061
  0
LINE
  5
41C
100
AcDbEntity
  8
0
100
AcDbLine
 62
7
  6
CONTINUOUS
 10
-2.354349882
 20
-15.3280921962
 11
-2.3210165805
 21
-15.1919219997
  0
LINE
  5
41D
100
AcDbEntity
  8
DRAFT
100
AcDbLine
 62
7
  6
CONTINUOUS
 10
-8.562660463
 20
-0.1906418978
 11
-8.3876831359
 21
-0.1731881622
  0
LWPOLYLINE
  5
41E
100
AcDbEntity
  8
RACCORDO
100
AcDbPolyline
 62
253
  6
CONTINUOUS
 90
3
 70
0
 10
-10.2372198584
 20
1.2757673529
 10
-10.232361542
 20
1.2758371271
 10
-10.2251364284
 20
1.2759049927
  0
LINE
  5
41F
100
AcDbEntity
  8
RACCORDO
100
AcDbLine
 62
253
  6
CONTINUOUS
 10
-10.2251364284
 20
1.2759049927
 11
-10.1575715915
 21
1.2761836402
  0
LINE
  5
420
100
AcDbEntity
  8
RACCORDO
100
AcDbLine
 62
7
  6
CONTINUOUS
 10
9.3222006757
 20
1.0180862993
 11
7.7872941911
 21
1.0180862993
  0
LINE
  5
421
100
AcDbEntity
  8
RACCORDO
100
AcDbLine
 62
7
  6
CONTINUOUS
 10
-8.562660463
 20
1.0180862993
 11
-10.0975669475
 21
1.0180862993
  0
LINE
  5
422
100
AcDbEntity
  8
DRAFT
100
AcDbLine
 62
7
  6
CONTINUOUS
 10
7.6123168641
 20
1.0529964292
 11
-8.3876831359
 21
1.0529964292
  0
LINE
  5
423
100
AcDbEntity
  8
RACCORDO
100
AcDbLine
 62
253
  6
CONTINUOUS
 10
9.2645814585
 20
1.0757055166
 11
-10.0399477303
 21
1.0757055166
  0
LINE
  5
424
100
AcDbEntity
  8
RACCORDO
100
AcDbLine
 62
253
  6
CONTINUOUS
 10
-10.1575715915
 20
1.2761836402
 11
-10.0473386923
 21
1.2763188442
  0
LINE
  5
425
100
AcDbEntity
  8
RACCORDO
100
AcDbLine
 62
253
  6
CONTINUOUS
 10
9.3013553919
 20
1.2762941934
 11
9.3228968236
 21
1.2762763975
  0
LINE
  5
426
100
AcDbEntity
  8
RACCORDO
100
AcDbLine
 62
253
  6
CONTINUOUS
 10
-10.0473386923
 20
1.2763188442
 11
9.3013553919
 21
1.2762941934
  0
LINE
  5
427
100
AcDbEntity
  8
RACCORDO
100
AcDbLine
 62
253
  6
CONTINUOUS
 10
9.3228968236
 20
1.2762763975
 11
9.3570785944
 21
1.276230428
  0
LINE
  5
428
100
AcDbEntity
  8
RACCORDO
100
AcDbLine
 62
253
  6
CONTINUOUS
 10
9.3570785944
 20
1.276230428
 11
9.4327217929
 21
1.2760082341
  0
LINE
  5
429
100
AcDbEntity
  8
RACCORDO
100
AcDbLine
 62
253
  6
CONTINUOUS
 10
9.4327217929
 20
1.2760082341
 11
9.4548440655
 21
1.2758595215
  0
LWPOLYLINE
  5
42A
100
AcDbEntity
  8
RACCORDO
100
AcDbPolyline
 62
253
  6
CONTINUOUS
 90
7
 70
0
 10
9.4548440655
 20
1.2758595215
 10
9.4604998529
 20
1.2757913902
 10
9.4618522813
 20
1.2757683175
 10
9.462934905
 20
1.2757451156
 10
9.4637462433
 20
1.2757218164
 10
9.4642851865
 20
1.2756984523
 10
9.4645509975
 20
1.2756750556
  0
LWPOLYLINE
  5
42B
100
AcDbEntity
  8
RACCORDO
100
AcDbPolyline
 62
253
  6
CONTINUOUS
 90
46
 70
0
 10
-10.0399477303
 20
1.0757055166
 10
-10.0469252142
 20
1.0758294107
 10
-10.0538942004
 20
1.0761966914
 10
-10.0608462016
 20
1.0768069117
 10
-10.067772751
 20
1.0776593281
 10
-10.0746654132
 20
1.0787529027
 10
-10.0815157935
 20
1.0800863036
 10
-10.0883155493
 20
1.0816579068
 10
-10.0950563991
 20
1.0834657984
 10
-10.1017301336
 20
1.0855077766
 10
-10.1083286248
 20
1.0877813545
 10
-10.1148438369
 20
1.0902837631
 10
-10.1212678349
 20
1.0930119549
 10
-10.1275927953
 20
1.0959626073
 10
-10.1338110151
 20
1.0991321267
 10
-10.1399149213
 20
1.1025166531
 10
-10.1458970801
 20
1.1061120645
 10
-10.151750206
 20
1.1099139822
 10
-10.1574671706
 20
1.1139177759
 10
-10.1630410113
 20
1.1181185695
 10
-10.1684649401
 20
1.1225112471
 10
-10.1737323511
 20
1.1270904587
 10
-10.1788368293
 20
1.1318506277
 10
-10.1837721582
 20
1.1367859566
 10
-10.1885323272
 20
1.1418904348
 10
-10.1931115388
 20
1.1471578459
 10
-10.1975042164
 20
1.1525817746
 10
-10.20170501
 20
1.1581556154
 10
-10.2057088037
 20
1.16387258
 10
-10.2095107214
 20
1.1697257058
 10
-10.2131061328
 20
1.1757078646
 10
-10.2164906592
 20
1.1818117708
 10
-10.2196601786
 20
1.1880299906
 10
-10.222610831
 20
1.194354951
 10
-10.2253390228
 20
1.2007789491
 10
-10.2278414314
 20
1.2072941611
 10
-10.2301150093
 20
1.2138926524
 10
-10.2321569875
 20
1.2205663868
 10
-10.2339648791
 20
1.2273072367
 10
-10.2355364823
 20
1.2341069924
 10
-10.2368698832
 20
1.2409573728
 10
-10.2379634578
 20
1.2478500349
 10
-10.2388158743
 20
1.2547765844
 10
-10.2394260945
 20
1.2617285855
 10
-10.2397933753
 20
1.2686975717
 10
-10.2399172693
 20
1.2756750556
  0
LINE
  5
42C
100
AcDbEntity
  8
DRAFT
100
AcDbLine
 62
7
  6
CONTINUOUS
 10
7.7872941911
 20
-0.1906418978
 11
7.6123168641
 21
-0.1731881622
  0
LINE
  5
42D
100
AcDbEntity
  8
0
100
AcDbLine
 62
7
  6
CONTINUOUS
 10
5.1843788641
 20
-6.9212347656
 11
4.7125828641
 21
-6.1743687656
  0
LINE
  5
42E
100
AcDbEntity
  8
0
100
AcDbLine
 62
7
  6
CONTINUOUS
 10
5.2679818641
 20
-6.7750557656
 11
4.9093078641
 21
-6.1743687656
  0
LINE
  5
42F
100
AcDbEntity
  8
0
100
AcDbLine
 62
7
  6
CONTINUOUS
 10
3.6976218641
 20
-7.4243687656
 11
3.2449018641
 21
-6.1743687656
  0
LINE
  5
430
100
AcDbEntity
  8
0
100
AcDbLine
 62
7
  6
CONTINUOUS
 10
3.5130278641
 20
-7.4243687656
 11
3.3894228641
 21
-7.0605397656
  0
LINE
  5
431
100
AcDbEntity
  8
0
100
AcDbLine
 62
7
  6
CONTINUOUS
 10
3.3284748641
 20
-6.9108227656
 11
3.1422338641
 21
-6.3556797656
  0
LINE
  5
432
100
AcDbEntity
  8
0
100
AcDbLine
 62
7
  6
CONTINUOUS
 10
-3.6270313271
 20
18.4770163303
 11
-3.6419636944
 21
18.5329319211
  0
LINE
  5
433
100
AcDbEntity
  8
0
100
AcDbLine
 62
7
  6
CONTINUOUS
 10
-3.5374426409
 20
18.1350282831
 11
-3.5533607315
 21
18.1949510624
  0
LINE
  5
434
100
AcDbEntity
  8
0
100
AcDbLine
 62
7
  6
CONTINUOUS
 10
-3.5533607315
 20
18.1949510624
 11
-3.5736309188
 21
18.2722115318
  0
LINE
  5
435
100
AcDbEntity
  8
0
100
AcDbLine
 62
7
  6
CONTINUOUS
 10
-3.6028624694
 20
18.3845108411
 11
-3.6270313271
 21
18.4770163303
  0
LINE
  5
436
100
AcDbEntity
  8
0
100
AcDbLine
 62
7
  6
CONTINUOUS
 10
-3.5736309188
 20
18.2722115318
 11
-3.6028624694
 21
18.3845108411
  0
LWPOLYLINE
  5
437
100
AcDbEntity
  8
0
100
AcDbPolyline
 62
7
  6
CONTINUOUS
 90
46
 70
0
 10
2.4485708822
 20
-17.9239828463
 10
2.4483732537
 20
-17.9172403513
 10
2.4479696283
 20
-17.9104939966
 10
2.4473600061
 20
-17.9037437822
 10
2.4465445953
 20
-17.8969732874
 10
2.4455231877
 20
-17.8901989325
 10
2.4442951581
 20
-17.8834699799
 10
2.4428576099
 20
-17.8767872566
 10
2.4412134396
 20
-17.8701499379
 10
2.4393707123
 20
-17.8636048114
 10
2.4373288262
 20
-17.8571595481
 10
2.4350883829
 20
-17.8508064817
 10
2.4326592523
 20
-17.8445693961
 10
2.4300436542
 20
-17.8384599198
 10
2.4272393688
 20
-17.83246643
 10
2.4242496061
 20
-17.8265778336
 10
2.4210754254
 20
-17.8207913602
 10
2.4177157675
 20
-17.8151097849
 10
2.4141706649
 20
-17.8095303327
 10
2.4104423566
 20
-17.8040511358
 10
2.4065286036
 20
-17.7986740662
 10
2.4024227215
 20
-17.7934019591
 10
2.3981298068
 20
-17.7882360596
 10
2.393644763
 20
-17.7831751267
 10
2.3889456162
 20
-17.7782182669
 10
2.384025488
 20
-17.7733579555
 10
2.3788912568
 20
-17.7686017209
 10
2.3735415839
 20
-17.7639712496
 10
2.367967992
 20
-17.7594614695
 10
2.3621789585
 20
-17.7550774569
 10
2.3561985764
 20
-17.7508561214
 10
2.3500241948
 20
-17.7467989493
 10
2.3436584646
 20
-17.7429044593
 10
2.3371334317
 20
-17.7392051106
 10
2.330456908
 20
-17.7357075822
 10
2.3236210815
 20
-17.7324052005
 10
2.3166345631
 20
-17.7293103956
 10
2.3094911789
 20
-17.7264221692
 10
2.3021971027
 20
-17.7237415242
 10
2.2947794668
 20
-17.7212838927
 10
2.2872328049
 20
-17.7190494114
 10
2.2795625832
 20
-17.7170379475
 10
2.271812333
 20
-17.715264529
 10
2.2639965648
 20
-17.7137341661
 10
2.256100768
 20
-17.7124418516
 10
2.2481249427
 20
-17.7113875865
  0
LWPOLYLINE
  5
438
100
AcDbEntity
  8
0
100
AcDbPolyline
 62
7
  6
CONTINUOUS
 90
70
 70
0
 10
2.1678770385
 20
6.2006312344
 10
2.1677055025
 20
6.2141483031
 10
2.1677119612
 20
6.2276537624
 10
2.1678964148
 20
6.2411476121
 10
2.1682493501
 20
6.2546292
 10
2.1687802803
 20
6.2680991785
 10
2.1695177448
 20
6.2815595043
 10
2.1704612197
 20
6.2950134176
 10
2.171611229
 20
6.3084576782
 10
2.1729978841
 20
6.3218845227
 10
2.1746201025
 20
6.3352939526
 10
2.1764789668
 20
6.3486859665
 10
2.1786078362
 20
6.3620527967
 10
2.1810143169
 20
6.3753969722
 10
2.1836908027
 20
6.3887159642
 10
2.1866478335
 20
6.4019944182
 10
2.1899016603
 20
6.4152419476
 10
2.1934360321
 20
6.4284489391
 10
2.1972127357
 20
6.4415711996
 10
2.2012424715
 20
6.4546259895
 10
2.2055145391
 20
6.4675960485
 10
2.2099586246
 20
6.4803854026
 10
2.2145521499
 20
6.4929686142
 10
2.2193176931
 20
6.5053711212
 10
2.2242526747
 20
6.5175732629
 10
2.2293294211
 20
6.5295574232
 10
2.2345756059
 20
6.5413412186
 10
2.2400716704
 20
6.5529578376
 10
2.2458124867
 20
6.5644110545
 10
2.2518031827
 20
6.5756970952
 10
2.2581395826
 20
6.5868378254
 10
2.2648409096
 20
6.5978345063
 10
2.2718879404
 20
6.6086858768
 10
2.2793188299
 20
6.6194100193
 10
2.2871585153
 20
6.6300133759
 10
2.2953820592
 20
6.6404895046
 10
2.3039528048
 20
6.6508371608
 10
2.3128865448
 20
6.6610759723
 10
2.3221674865
 20
6.6711863114
 10
2.3317115947
 20
6.6811080507
 10
2.3415192404
 20
6.6908669443
 10
2.3515900527
 20
6.7004372384
 10
2.3618388845
 20
6.709681544
 10
2.3722780799
 20
6.7185978855
 10
2.3828952948
 20
6.7271882392
 10
2.393568349
 20
6.7353211435
 10
2.4042557741
 20
6.7429390384
 10
2.4149990385
 20
6.7500994847
 10
2.4258003678
 20
6.7568437025
 10
2.4366390055
 20
6.7631544762
 10
2.447535708
 20
6.7690490218
 10
2.458554971
 20
6.7746202066
 10
2.469689728
 20
6.779880539
 10
2.4809470455
 20
6.7848175108
 10
2.4924126174
 20
6.7894864649
 10
2.5040923823
 20
6.7939022891
 10
2.5159804016
 20
6.7980500957
 10
2.5281445534
 20
6.8019405642
 10
2.5406261008
 20
6.8055900699
 10
2.5533837806
 20
6.8089822377
 10
2.5663616815
 20
6.8120786207
 10
2.5795892182
 20
6.8148776581
 10
2.593036976
 20
6.8173809107
 10
2.6065608
 20
6.8195546145
 10
2.62016379
 20
6.8213866829
 10
2.6338428463
 20
6.8228892026
 10
2.6474445152
 20
6.824064668
 10
2.6609176456
 20
6.8249139109
 10
2.6743133885
 20
6.8254360997
 10
2.6876317441
 20
6.8256312344
  0
LINE
  5
439
100
AcDbEntity
  8
0
100
AcDbLine
 62
7
  6
CONTINUOUS
 10
1.5195888641
 20
-6.3240857656
 11
1.5195888641
 21
-6.1743687656
  0
LINE
  5
43A
100
AcDbEntity
  8
0
100
AcDbLine
 62
7
  6
CONTINUOUS
 10
1.5456503087
 20
15.7506312344
 11
1.5456503087
 21
15.5804184649
  0
LINE
  5
43B
100
AcDbEntity
  8
0
100
AcDbLine
 62
7
  6
CONTINUOUS
 10
1.5456503087
 20
14.5931844685
 11
1.5456503087
 21
14.5250992749
  0
LINE
  5
43C
100
AcDbEntity
  8
0
100
AcDbLine
 62
7
  6
CONTINUOUS
 10
1.628523528
 20
-19.1316694523
 11
1.628523528
 21
-17.4516666834
  0
LINE
  5
43D
100
AcDbEntity
  8
0
100
AcDbLine
 62
7
  6
CONTINUOUS
 10
1.7456503087
 20
14.5250992749
 11
1.7456503087
 21
14.5931844685
  0
LINE
  5
43E
100
AcDbEntity
  8
0
100
AcDbLine
 62
7
  6
CONTINUOUS
 10
1.7650728641
 20
6.6759142344
 11
1.7650728641
 21
6.2581022344
  0
LINE
  5
43F
100
AcDbEntity
  8
0
100
AcDbLine
 62
7
  6
CONTINUOUS
 10
1.7650728641
 20
6.1083852344
 11
1.7650728641
 21
5.7253482344
  0
LINE
  5
440
100
AcDbEntity
  8
0
100
AcDbLine
 62
7
  6
CONTINUOUS
 10
1.9123166257
 20
-15.8046879318
 11
1.9123166257
 21
-15.87277303
  0
LINE
  5
441
100
AcDbEntity
  8
0
100
AcDbLine
 62
7
  6
CONTINUOUS
 10
1.9339878641
 20
6.8256312344
 11
1.9339878641
 21
5.5756312344
  0
LINE
  5
442
100
AcDbEntity
  8
0
100
AcDbLine
 62
7
  6
CONTINUOUS
 10
1.9426578641
 20
-7.4243687656
 11
1.9426578641
 21
-6.3240857656
  0
LINE
  5
443
100
AcDbEntity
  8
0
100
AcDbLine
 62
7
  6
CONTINUOUS
 10
1.9701582957
 20
-18.1880405971
 11
1.9701582957
 21
-17.7213951146
  0
LINE
  5
444
100
AcDbEntity
  8
0
100
AcDbLine
 62
7
  6
CONTINUOUS
 10
1.9819238601
 20
-19.1316694523
 11
1.9819238601
 21
-18.4664370497
  0
LINE
  5
445
100
AcDbEntity
  8
0
100
AcDbLine
 62
7
  6
CONTINUOUS
 10
2.0123166257
 20
-14.9195815113
 11
2.0123166257
 21
-14.7493687656
  0
LINE
  5
446
100
AcDbEntity
  8
DRAFT
100
AcDbLine
 62
7
  6
CONTINUOUS
 10
2.0189411911
 20
21.9506312344
 11
2.0189411911
 21
20.5206312344
  0
LINE
  5
447
100
AcDbEntity
  8
DRAFT
100
AcDbLine
 62
7
  6
CONTINUOUS
 10
2.0189411911
 20
-22.5493687656
 11
2.0189411911
 21
-21.1193687656
  0
LINE
  5
448
100
AcDbEntity
  8
0
100
AcDbLine
 62
7
  6
CONTINUOUS
 10
2.0789834195
 20
-15.9068155792
 11
2.0789834195
 21
-15.7706453826
  0
LINE
  5
449
100
AcDbEntity
  8
0
100
AcDbLine
 62
7
  6
CONTINUOUS
 10
2.1115118641
 20
-7.4243687656
 11
2.1115118641
 21
-6.3240857656
  0
LINE
  5
44A
100
AcDbEntity
  8
0
100
AcDbLine
 62
7
  6
CONTINUOUS
 10
2.3456502133
 20
-14.9876666095
 11
2.3456502133
 21
-15.260007098
  0
LINE
  5
44B
100
AcDbEntity
  8
0
100
AcDbLine
 62
7
  6
CONTINUOUS
 10
2.5345808641
 20
-6.3240857656
 11
2.5345808641
 21
-6.1743687656
  0
LINE
  5
44C
100
AcDbEntity
  8
0
100
AcDbLine
 62
7
  6
CONTINUOUS
 10
2.5407690468
 20
-18.338188574
 11
2.5407690468
 21
-18.3281438668
  0
LINE
  5
44D
100
AcDbEntity
  8
0
100
AcDbLine
 62
7
  6
CONTINUOUS
 10
2.5456502133
 20
-15.0217091587
 11
2.5456502133
 21
-16.3493687656
  0
LINE
  5
44E
100
AcDbEntity
  8
0
100
AcDbLine
 62
7
  6
CONTINUOUS
 10
2.7456502133
 20
-16.3493687656
 11
2.7456502133
 21
-14.7493687656
  0
LINE
  5
44F
100
AcDbEntity
  8
0
100
AcDbLine
 62
7
  6
CONTINUOUS
 10
2.7456503087
 20
15.5804184649
 11
2.7456503087
 21
15.7506312344
  0
LINE
  5
450
100
AcDbEntity
  8
0
100
AcDbLine
 62
7
  6
CONTINUOUS
 10
3.0307828641
 20
6.6811712344
 11
3.0307828641
 21
5.7200912344
  0
LWPOLYLINE
  5
451
100
AcDbEntity
  8
0
100
AcDbPolyline
 62
7
  6
CONTINUOUS
 90
61
 70
0
 10
2.3416350168
 20
6.2006312344
 10
2.3414214793
 20
6.1885371262
 10
2.3414181627
 20
6.1764428483
 10
2.3416250669
 20
6.1643484009
 10
2.3420448266
 20
6.1522482287
 10
2.3426748072
 20
6.140147887
 10
2.3435071045
 20
6.1280640411
 10
2.3445423588
 20
6.1159962193
 10
2.3457799298
 20
6.1039448934
 10
2.3472099928
 20
6.0919281442
 10
2.3488313921
 20
6.0799547251
 10
2.3506452835
 20
6.0680158828
 10
2.3526453095
 20
6.0561034375
 10
2.3548243977
 20
6.0442247389
 10
2.3571896205
 20
6.0323724374
 10
2.3597558379
 20
6.0205163046
 10
2.3625134401
 20
6.0086134362
 10
2.365472037
 20
5.9967067365
 10
2.3686753175
 20
5.9848946898
 10
2.372143061
 20
5.9731372791
 10
2.3758554881
 20
5.9614745216
 10
2.3797969506
 20
5.9501249539
 10
2.383967704
 20
5.9391571129
 10
2.3883674929
 20
5.9285024622
 10
2.3929799022
 20
5.9181739291
 10
2.3977904761
 20
5.9082112419
 10
2.4028136705
 20
5.8985746728
 10
2.4080764384
 20
5.8891579647
 10
2.4135834057
 20
5.8799315983
 10
2.4193299466
 20
5.8709250932
 10
2.4253291362
 20
5.8621207513
 10
2.4316017008
 20
5.8534895564
 10
2.4381269141
 20
5.8450605248
 10
2.4448556728
 20
5.836903007
 10
2.4517783635
 20
5.8290375136
 10
2.4589045997
 20
5.8214435343
 10
2.4662141189
 20
5.8141288873
 10
2.4736973995
 20
5.8071042096
 10
2.4813639631
 20
5.8003588645
 10
2.4892221121
 20
5.7938687602
 10
2.4972663666
 20
5.7876298955
 10
2.5055022065
 20
5.7816462717
 10
2.5139543748
 20
5.7759058006
 10
2.5226352874
 20
5.770396648
 10
2.5315325283
 20
5.7651306482
 10
2.5406335924
 20
5.7601312153
 10
2.5499398797
 20
5.7554010116
 10
2.5594499901
 20
5.7509373749
 10
2.5691472186
 20
5.746755732
 10
2.5790354782
 20
5.7428555498
 10
2.5891108558
 20
5.7392373615
 10
2.5993449077
 20
5.7359181932
 10
2.6097385502
 20
5.7328986953
 10
2.620290867
 20
5.7301782175
 10
2.630970665
 20
5.727771834
 10
2.6417784417
 20
5.7256796965
 10
2.6527136995
 20
5.7239016534
 10
2.6637437536
 20
5.7224523237
 10
2.6748577088
 20
5.7213365805
 10
2.6860664603
 20
5.7205495507
 10
2.6973700079
 20
5.7200912344
  0
LINE
  5
452
100
AcDbEntity
  8
0
100
AcDbLine
 62
7
  6
CONTINUOUS
 10
-0.8876831836
 20
-15.87277303
 11
-0.8543499774
 21
-15.7025602367
  0
LINE
  5
453
100
AcDbEntity
  8
0
100
AcDbLine
 62
7
  6
CONTINUOUS
 10
-3.0193711359
 20
-18.6018747656
 11
-2.6854491359
 21
-17.4318067656
  0
LINE
  5
454
100
AcDbEntity
  8
0
100
AcDbLine
 62
7
  6
CONTINUOUS
 10
-2.8772671359
 20
-19.1316697656
 11
-2.3308631359
 21
-17.4318067656
  0
LINE
  5
455
100
AcDbEntity
  8
RACCORDO
100
AcDbLine
 62
253
  6
CONTINUOUS
 10
9.3397825198
 20
20.4506312344
 11
9.3624741042
 21
20.5206312344
  0
LINE
  5
456
100
AcDbEntity
  8
RACCORDO
100
AcDbLine
 62
253
  6
CONTINUOUS
 10
9.5398712883
 20
20.2512883508
 11
9.5623168641
 21
20.3205294524
  0
LINE
  5
457
100
AcDbEntity
  8
0
100
AcDbLine
 62
7
  6
CONTINUOUS
 10
-1.987683279
 20
-15.1238368061
 11
-2.0210165805
 21
-15.2259645488
  0
LINE
  5
458
100
AcDbEntity
  8
0
100
AcDbLine
 62
7
  6
CONTINUOUS
 10
5.1426168641
 20
6.8256312344
 11
4.7909828641
 21
5.7757932344
  0
LINE
  5
459
100
AcDbEntity
  8
0
100
AcDbLine
 62
7
  6
CONTINUOUS
 10
5.2244678641
 20
6.6375292344
 11
4.8675598641
 21
5.5756312344
  0
LINE
  5
45A
100
AcDbEntity
  8
0
100
AcDbLine
 62
7
  6
CONTINUOUS
 10
4.3034678641
 20
6.8256312344
 11
4.1728778641
 21
6.4618022344
  0
LINE
  5
45B
100
AcDbEntity
  8
0
100
AcDbLine
 62
7
  6
CONTINUOUS
 10
4.1206328641
 20
6.3120852344
 11
3.9186208641
 21
5.7569422344
  0
LINE
  5
45C
100
AcDbEntity
  8
0
100
AcDbLine
 62
7
  6
CONTINUOUS
 10
4.4775478641
 20
6.8256312344
 11
4.0075118641
 21
5.5756312344
  0
LINE
  5
45D
100
AcDbEntity
  8
DRAFT
100
AcDbLine
 62
7
  6
CONTINUOUS
 10
-8.562660463
 20
1.0180862993
 11
-8.3876831359
 21
1.0529964292
  0
LWPOLYLINE
  5
45E
100
AcDbEntity
  8
RACCORDO
100
AcDbPolyline
 62
253
  6
CONTINUOUS
 90
5
 70
0
 10
-10.2399172693
 20
1.2756750556
 10
-10.2396497793
 20
1.2756932691
 10
-10.2391102758
 20
1.2757181031
 10
-10.2383011768
 20
1.2757451156
 10
-10.2372198584
 20
1.2757673529
  0
LINE
  5
45F
100
AcDbEntity
  8
DRAFT
100
AcDbLine
 62
7
  6
CONTINUOUS
 10
7.7872941911
 20
1.0180862993
 11
7.6123168641
 21
1.0529964292
  0
LINE
  5
460
100
AcDbEntity
  8
0
100
AcDbLine
 62
7
  6
CONTINUOUS
 10
-0.9805091359
 20
6.8256312344
 11
-0.3415581359
 21
5.8104812344
  0
LINE
  5
461
100
AcDbEntity
  8
0
100
AcDbLine
 62
7
  6
CONTINUOUS
 10
-1.0066311359
 20
6.5909862344
 11
-0.3780931359
 21
5.5756312344
  0
LINE
  5
462
100
AcDbEntity
  8
0
100
AcDbLine
 62
7
  6
CONTINUOUS
 10
-2.8543496913
 20
15.1719078515
 11
-2.7876828975
 21
15.0016950581
  0
LINE
  5
463
100
AcDbEntity
  8
0
100
AcDbLine
 62
7
  6
CONTINUOUS
 10
-2.6543496913
 20
15.1038227055
 11
-2.6876828975
 21
15.2059504006
  0
LINE
  5
464
100
AcDbEntity
  8
RACCORDO
100
AcDbLine
 62
253
  6
CONTINUOUS
 10
9.3624741042
 20
-21.1193687656
 11
9.3397825198
 21
-21.0493687656
  0
LINE
  5
465
100
AcDbEntity
  8
RACCORDO
100
AcDbLine
 62
253
  6
CONTINUOUS
 10
9.5623168641
 20
-20.9192669836
 11
9.5398712883
 21
-20.8500258819
  0
LWPOLYLINE
  5
466
100
AcDbEntity
  8
0
100
AcDbPolyline
 62
7
  6
CONTINUOUS
 90
5
 70
0
 10
-3.1618920907
 20
18.0659385347
 10
-3.1578137887
 20
18.0533179126
 10
-3.1537101499
 20
18.0410339402
 10
-3.1496064762
 20
18.0290872404
 10
-3.1455027676
 20
18.0174778298
  0
LINE
  5
467
100
AcDbEntity
  8
0
100
AcDbLine
 62
7
  6
CONTINUOUS
 10
-3.1743769148
 20
18.1058223371
 11
-3.1618920907
 21
18.0659385347
  0
LINE
  5
468
100
AcDbEntity
  8
0
100
AcDbLine
 62
7
  6
CONTINUOUS
 10
-3.1876153819
 20
18.1488093954
 11
-3.1743769148
 21
18.1058223371
  0
LINE
  5
469
100
AcDbEntity
  8
0
100
AcDbLine
 62
7
  6
CONTINUOUS
 10
-3.2065024276
 20
18.2113387899
 11
-3.1876153819
 21
18.1488093954
  0
LINE
  5
46A
100
AcDbEntity
  8
0
100
AcDbLine
 62
7
  6
CONTINUOUS
 10
-3.2379141946
 20
18.3174176107
 11
-3.2065024276
 21
18.2113387899
  0
LINE
  5
46B
100
AcDbEntity
  8
0
100
AcDbLine
 62
7
  6
CONTINUOUS
 10
-3.2869517319
 20
18.4854600945
 11
-3.2379141946
 21
18.3174176107
  0
LINE
  5
46C
100
AcDbEntity
  8
0
100
AcDbLine
 62
7
  6
CONTINUOUS
 10
-3.300660351
 20
18.5329319211
 11
-3.2869517319
 21
18.4854600945
  0
LINE
  5
46D
100
AcDbEntity
  8
0
100
AcDbLine
 62
7
  6
CONTINUOUS
 10
-1.9257211359
 20
18.5329322344
 11
-1.8338021359
 21
18.1935792344
  0
LINE
  5
46E
100
AcDbEntity
  8
0
100
AcDbLine
 62
7
  6
CONTINUOUS
 10
-1.7628891359
 20
17.9309892344
 11
-1.5998411359
 21
17.3001482344
  0
LINE
  5
46F
100
AcDbEntity
  8
0
100
AcDbLine
 62
7
  6
CONTINUOUS
 10
0.0789837056
 20
14.7974397633
 11
0.1123169118
 21
14.6272270176
  0
LINE
  5
470
100
AcDbEntity
  8
0
100
AcDbLine
 62
7
  6
CONTINUOUS
 10
0.2789837056
 20
14.6272270176
 11
0.2456503087
 21
14.8314823124
  0
LINE
  5
471
100
AcDbEntity
  8
0
100
AcDbLine
 62
7
  6
CONTINUOUS
 10
3.1997068641
 20
6.8256312344
 11
3.1997068641
 21
5.5756312344
  0
LINE
  5
472
100
AcDbEntity
  8
RACCORDO
100
AcDbLine
 62
253
  6
CONTINUOUS
 10
3.4045818372
 20
-22.4235900953
 11
3.4045818372
 21
-20.9143057486
  0
LINE
  5
473
100
AcDbEntity
  8
RACCORDO
100
AcDbLine
 62
253
  6
CONTINUOUS
 10
3.4045818372
 20
20.3155682174
 11
3.4045818372
 21
21.8248525641
  0
LINE
  5
474
100
AcDbEntity
  8
RACCORDO
100
AcDbLine
 62
253
  6
CONTINUOUS
 10
3.5777869179
 20
-22.4183493174
 11
3.5777869179
 21
-20.9020272925
  0
LINE
  5
475
100
AcDbEntity
  8
RACCORDO
100
AcDbLine
 62
253
  6
CONTINUOUS
 10
3.5777869179
 20
20.3032897613
 11
3.5777869179
 21
21.8196117862
  0
LINE
  5
476
100
AcDbEntity
  8
0
100
AcDbLine
 62
7
  6
CONTINUOUS
 10
3.8524938641
 20
-7.4243687656
 11
3.8524938641
 21
-6.1743687656
  0
LINE
  5
477
100
AcDbEntity
  8
0
100
AcDbLine
 62
7
  6
CONTINUOUS
 10
4.0214188641
 20
-7.2746517656
 11
4.0214188641
 21
-6.1743687656
  0
LINE
  5
478
100
AcDbEntity
  8
0
100
AcDbLine
 62
7
  6
CONTINUOUS
 10
4.6272748641
 20
6.8256312344
 11
4.6272748641
 21
5.5756312344
  0
LINE
  5
479
100
AcDbEntity
  8
0
100
AcDbLine
 62
7
  6
CONTINUOUS
 10
4.6551628641
 20
-7.4243687656
 11
4.6551628641
 21
-7.2746517656
  0
LINE
  5
47A
100
AcDbEntity
  8
0
100
AcDbLine
 62
7
  6
CONTINUOUS
 10
4.7909828641
 20
6.8256312344
 11
4.7909828641
 21
5.7757932344
  0
LINE
  5
47B
100
AcDbEntity
  8
0
100
AcDbLine
 62
7
  6
CONTINUOUS
 10
-0.9210165805
 20
-15.9749006774
 11
-0.8876831836
 21
-15.87277303
  0
LINE
  5
47C
100
AcDbEntity
  8
0
100
AcDbLine
 62
7
  6
CONTINUOUS
 10
-2.5210165805
 20
-15.1919219997
 11
-2.587683279
 21
-15.3280921962
  0
LINE
  5
47D
100
AcDbEntity
  8
0
100
AcDbLine
 62
7
  6
CONTINUOUS
 10
-1.9210165805
 20
-14.9876666095
 11
-1.987683279
 21
-15.1238368061
  0
LINE
  5
47E
100
AcDbEntity
  8
RACCORDO
100
AcDbLine
 62
7
  6
CONTINUOUS
 10
-10.3376831359
 20
-9.3107136937
 11
-10.241280202
 21
-9.2625158977
  0
LINE
  5
47F
100
AcDbEntity
  8
DRAFT
100
AcDbLine
 62
7
  6
CONTINUOUS
 10
9.5221702148
 20
3.8006312344
 11
10.7123168641
 21
3.8006312344
  0
LINE
  5
480
100
AcDbEntity
  8
DRAFT
100
AcDbLine
 62
7
  6
CONTINUOUS
 10
-10.2975364866
 20
3.8006312344
 11
-11.4876831359
 21
3.8006312344
  0
LINE
  5
481
100
AcDbEntity
  8
RACCORDO
100
AcDbLine
 62
7
  6
CONTINUOUS
 10
-10.3376831359
 20
8.7119761625
 11
-10.241280202
 21
8.6637783665
  0
LWPOLYLINE
  5
482
100
AcDbEntity
  8
0
100
AcDbPolyline
 62
7
  6
CONTINUOUS
 90
37
 70
0
 10
-3.1455027676
 20
18.0174778298
 10
-3.1419210721
 20
18.008406757
 10
-3.1382091742
 20
17.9997039433
 10
-3.1343670738
 20
17.9913694018
 10
-3.1303883427
 20
17.9834159609
 10
-3.1262794092
 20
17.975830817
 10
-3.1220595581
 20
17.9685755339
 10
-3.1177359279
 20
17.9616530354
 10
-3.1133013801
 20
17.9550604168
 10
-3.1087537837
 20
17.948750496
 10
-3.1040903457
 20
17.9427152566
 10
-3.0993138591
 20
17.9369627291
 10
-3.0944305716
 20
17.9314697993
 10
-3.0894422105
 20
17.9262383151
 10
-3.0843470486
 20
17.92126644
 10
-3.0791461513
 20
17.9165255314
 10
-3.073845288
 20
17.9120131087
 10
-3.0684386894
 20
17.907731661
 10
-3.0629101138
 20
17.9036599994
 10
-3.0572490124
 20
17.8997866585
 10
-3.0514659341
 20
17.8961231103
 10
-3.045576284
 20
17.8926825702
 10
-3.0395759227
 20
17.8894680642
 10
-3.0334689897
 20
17.8864765725
 10
-3.0272833087
 20
17.8837122415
 10
-3.0210273362
 20
17.8811804922
 10
-3.0146926157
 20
17.8788759085
 10
-3.0082816016
 20
17.8767863813
 10
-3.0017926778
 20
17.8749078853
 10
-2.9952274603
 20
17.8732444492
 10
-2.9885932525
 20
17.8717960453
 10
-2.9818855759
 20
17.8705597679
 10
-2.9751089088
 20
17.8695385249
 10
-2.9682839893
 20
17.8687410088
 10
-2.9614177302
 20
17.8681701173
 10
-2.9545032188
 20
17.8678229537
 10
-2.9475404549
 20
17.8676995185
  0
LINE
  5
483
100
AcDbEntity
  8
0
100
AcDbLine
 62
7
  6
CONTINUOUS
 10
0.1123169118
 20
14.6272270176
 11
0.1456503087
 21
14.5250992749
  0
LINE
  5
484
100
AcDbEntity
  8
0
100
AcDbLine
 62
7
  6
CONTINUOUS
 10
-2.2996951359
 20
18.5329322344
 11
-1.7781351359
 21
16.8330692344
  0
LINE
  5
485
100
AcDbEntity
  8
0
100
AcDbLine
 62
7
  6
CONTINUOUS
 10
1.2789836102
 20
15.1038227055
 11
1.2456503087
 21
15.2740354989
  0
LINE
  5
486
100
AcDbEntity
  8
0
100
AcDbLine
 62
7
  6
CONTINUOUS
 10
1.0789837056
 20
15.2740354989
 11
1.1123169118
 21
15.0697801564
  0
LINE
  5
487
100
AcDbEntity
  8
0
100
AcDbLine
 62
7
  6
CONTINUOUS
 10
5.1843788641
 20
-7.4243687656
 11
5.1843788641
 21
-6.9212347656
  0
LINE
  5
488
100
AcDbEntity
  8
0
100
AcDbLine
 62
7
  6
CONTINUOUS
 10
5.3532018641
 20
-7.4243687656
 11
5.3532018641
 21
-6.9212347656
  0
LINE
  5
489
100
AcDbEntity
  8
0
100
AcDbLine
 62
7
  6
CONTINUOUS
 10
5.6614558641
 20
6.8256312344
 11
5.6614558641
 21
5.7775112344
  0
LINE
  5
48A
100
AcDbEntity
  8
0
100
AcDbLine
 62
7
  6
CONTINUOUS
 10
5.8250978641
 20
6.8256312344
 11
5.8250978641
 21
5.5756312344
  0
LINE
  5
48B
100
AcDbEntity
  8
RACCORDO
100
AcDbLine
 62
253
  6
CONTINUOUS
 10
9.2809173604
 20
20.0348823508
 11
9.3400202615
 21
20.4506312344
  0
LINE
  5
48C
100
AcDbEntity
  8
0
100
AcDbLine
 62
7
  6
CONTINUOUS
 10
0.6478008641
 20
-18.5297267656
 11
0.8244748641
 21
-17.8988857656
  0
LINE
  5
48D
100
AcDbEntity
  8
0
100
AcDbLine
 62
7
  6
CONTINUOUS
 10
0.4773078641
 20
-19.1316697656
 11
0.5752188641
 21
-18.7923167656
  0
LINE
  5
48E
100
AcDbEntity
  8
0
100
AcDbLine
 62
7
  6
CONTINUOUS
 10
0.1263298641
 20
-19.1316697656
 11
0.6595148641
 21
-17.4318067656
  0
LINE
  5
48F
100
AcDbEntity
  8
0
100
AcDbLine
 62
7
  6
CONTINUOUS
 10
2.7573968641
 20
-7.4243687656
 11
2.8879978641
 21
-7.0605397656
  0
LINE
  5
490
100
AcDbEntity
  8
0
100
AcDbLine
 62
7
  6
CONTINUOUS
 10
2.9402318641
 20
-6.9108227656
 11
3.1422338641
 21
-6.3556797656
  0
LINE
  5
491
100
AcDbEntity
  8
0
100
AcDbLine
 62
7
  6
CONTINUOUS
 10
2.5833268641
 20
-7.4243687656
 11
3.0534238641
 21
-6.1743687656
  0
LINE
  5
492
100
AcDbEntity
  8
0
100
AcDbLine
 62
7
  6
CONTINUOUS
 10
-0.7942391359
 20
-18.3755757656
 11
-0.4394111359
 21
-17.4318067656
  0
LINE
  5
493
100
AcDbEntity
  8
0
100
AcDbLine
 62
7
  6
CONTINUOUS
 10
-0.7712951359
 20
-19.1316697656
 11
-0.3494041359
 21
-18.0263177656
  0
LINE
  5
494
100
AcDbEntity
  8
0
100
AcDbLine
 62
7
  6
CONTINUOUS
 10
-0.9876831836
 20
-16.1110708978
 11
-0.9210165805
 21
-15.9749006774
  0
LINE
  5
495
100
AcDbEntity
  8
0
100
AcDbLine
 62
7
  6
CONTINUOUS
 10
-3.3210165805
 20
-15.1238368061
 11
-3.2543499059
 21
-15.0217091587
  0
LINE
  5
496
100
AcDbEntity
  8
0
100
AcDbLine
 62
7
  6
CONTINUOUS
 10
-2.4210165805
 20
-15.4302198436
 11
-2.354349882
 21
-15.3280921962
  0
LWPOLYLINE
  5
497
100
AcDbEntity
  8
0
100
AcDbPolyline
 62
7
  6
CONTINUOUS
 90
61
 70
0
 10
2.6973700079
 20
6.6811712344
 10
2.6860636417
 20
6.6807126606
 10
2.6748527488
 20
6.679925382
 10
2.6637373291
 20
6.6788093987
 10
2.6527066238
 20
6.6773598164
 10
2.6417713918
 20
6.6755815292
 10
2.6309639096
 20
6.6734892198
 10
2.620284633
 20
6.6710827691
 10
2.6097331062
 20
6.6683622962
 10
2.5993402389
 20
6.6653428404
 10
2.589106895
 20
6.6620237621
 10
2.5790322105
 20
6.6584057008
 10
2.5691445023
 20
6.6545056156
 10
2.5594477273
 20
6.6503240896
 10
2.5499379286
 20
6.6458605395
 10
2.5406315526
 20
6.641130175
 10
2.5315298445
 20
6.6361302625
 10
2.5226315592
 20
6.6308635353
 10
2.513949408
 20
6.6253534038
 10
2.5054957885
 20
6.6196116577
 10
2.4972583031
 20
6.6136265071
 10
2.4892124706
 20
6.6073859928
 10
2.4813529047
 20
6.6008941741
 10
2.4736849916
 20
6.5941469916
 10
2.4662004096
 20
6.5871203073
 10
2.4588896879
 20
6.579803561
 10
2.4517622972
 20
6.5722073127
 10
2.4448383271
 20
6.5643391056
 10
2.4381079572
 20
6.5561781506
 10
2.4315810078
 20
6.5477452365
 10
2.4253070294
 20
6.5391102734
 10
2.4193067294
 20
6.5303020542
 10
2.4135594004
 20
6.5212917858
 10
2.4080524706
 20
6.5120629993
 10
2.4027908412
 20
6.5026455308
 10
2.3977696111
 20
6.4930095439
 10
2.3929615042
 20
6.4830490609
 10
2.3883522468
 20
6.4727249553
 10
2.3839561127
 20
6.4620763531
 10
2.3797886467
 20
6.4511146558
 10
2.3758498815
 20
6.4397712706
 10
2.3721397844
 20
6.4281147896
 10
2.3686738026
 20
6.4163623915
 10
2.365471507
 20
6.4045533605
 10
2.3625133268
 20
6.3926484122
 10
2.3597559962
 20
6.3807468725
 10
2.3571900083
 20
6.3688917969
 10
2.3548248701
 20
6.3570401299
 10
2.3526458373
 20
6.3451620307
 10
2.3506458824
 20
6.3332503819
 10
2.3488320328
 20
6.3213123009
 10
2.3472106263
 20
6.3093392991
 10
2.3457804822
 20
6.2973224822
 10
2.3445427811
 20
6.2852707443
 10
2.3435074027
 20
6.2732022792
 10
2.3426749978
 20
6.2611174241
 10
2.3420449157
 20
6.2490158416
 10
2.3416250837
 20
6.2369147132
 10
2.3414181445
 20
6.2248197662
 10
2.3414214556
 20
6.2127252732
 10
2.3416350168
 20
6.2006312344
  0
LINE
  5
498
100
AcDbEntity
  8
0
100
AcDbLine
 62
7
  6
CONTINUOUS
 10
5.8250978641
 20
5.5756312344
 11
5.5830958641
 21
5.5756312344
  0
LINE
  5
499
100
AcDbEntity
  8
0
100
AcDbLine
 62
7
  6
CONTINUOUS
 10
4.8675598641
 20
5.5756312344
 11
4.6272748641
 21
5.5756312344
  0
LINE
  5
49A
100
AcDbEntity
  8
0
100
AcDbLine
 62
7
  6
CONTINUOUS
 10
4.0075118641
 20
5.5756312344
 11
3.8159728641
 21
5.5756312344
  0
LINE
  5
49B
100
AcDbEntity
  8
0
100
AcDbLine
 62
7
  6
CONTINUOUS
 10
3.1997068641
 20
5.5756312344
 11
2.6877508833
 21
5.5756312344
  0
LINE
  5
49C
100
AcDbEntity
  8
0
100
AcDbLine
 62
7
  6
CONTINUOUS
 10
1.9339878641
 20
5.5756312344
 11
1.0234238641
 21
5.5756312344
  0
LINE
  5
49D
100
AcDbEntity
  8
0
100
AcDbLine
 62
7
  6
CONTINUOUS
 10
0.2799838641
 20
5.5756312344
 11
0.1111208641
 21
5.5756312344
  0
LINE
  5
49E
100
AcDbEntity
  8
0
100
AcDbLine
 62
7
  6
CONTINUOUS
 10
-0.1778401359
 20
5.5756312344
 11
-0.3780931359
 21
5.5756312344
  0
LINE
  5
49F
100
AcDbEntity
  8
0
100
AcDbLine
 62
7
  6
CONTINUOUS
 10
-1.0066311359
 20
5.5756312344
 11
-1.1702681359
 21
5.5756312344
  0
LINE
  5
4A0
100
AcDbEntity
  8
0
100
AcDbLine
 62
7
  6
CONTINUOUS
 10
-1.9449751359
 20
5.5756312344
 11
-2.1138891359
 21
5.5756312344
  0
LINE
  5
4A1
100
AcDbEntity
  8
0
100
AcDbLine
 62
7
  6
CONTINUOUS
 10
-2.2949551359
 20
5.5756312344
 11
-3.3099471359
 21
5.5756312344
  0
LINE
  5
4A2
100
AcDbEntity
  8
0
100
AcDbLine
 62
7
  6
CONTINUOUS
 10
-3.8287901359
 20
5.5756312344
 11
-4.0202681359
 21
5.5756312344
  0
LINE
  5
4A3
100
AcDbEntity
  8
0
100
AcDbLine
 62
7
  6
CONTINUOUS
 10
-4.6278601359
 20
5.5756312344
 11
-4.7967851359
 21
5.5756312344
  0
LINE
  5
4A4
100
AcDbEntity
  8
0
100
AcDbLine
 62
7
  6
CONTINUOUS
 10
-5.4879491359
 20
5.5756312344
 11
-5.6846741359
 21
5.5756312344
  0
LINE
  5
4A5
100
AcDbEntity
  8
0
100
AcDbLine
 62
7
  6
CONTINUOUS
 10
-6.4019201359
 20
5.5756312344
 11
-6.6004641359
 21
5.5756312344
  0
LINE
  5
4A6
100
AcDbEntity
  8
0
100
AcDbLine
 62
7
  6
CONTINUOUS
 10
3.0307828641
 20
5.7200912344
 11
2.6973700079
 21
5.7200912344
  0
LINE
  5
4A7
100
AcDbEntity
  8
0
100
AcDbLine
 62
7
  6
CONTINUOUS
 10
1.7650728641
 20
5.7253482344
 11
1.0234238641
 21
5.7253482344
  0
LINE
  5
4A8
100
AcDbEntity
  8
0
100
AcDbLine
 62
7
  6
CONTINUOUS
 10
-2.2949551359
 20
5.7253482344
 11
-2.7180241359
 21
5.7253482344
  0
LINE
  5
4A9
100
AcDbEntity
  8
0
100
AcDbLine
 62
7
  6
CONTINUOUS
 10
-2.8868781359
 20
5.7253482344
 11
-3.3099471359
 21
5.7253482344
  0
LINE
  5
4AA
100
AcDbEntity
  8
0
100
AcDbLine
 62
7
  6
CONTINUOUS
 10
1.7650728641
 20
6.1083852344
 11
1.0808738641
 21
6.1083852344
  0
LINE
  5
4AB
100
AcDbEntity
  8
0
100
AcDbLine
 62
7
  6
CONTINUOUS
 10
1.7650728641
 20
6.2581022344
 11
1.0808738641
 21
6.2581022344
  0
LINE
  5
4AC
100
AcDbEntity
  8
0
100
AcDbLine
 62
7
  6
CONTINUOUS
 10
4.1206328641
 20
6.3120852344
 11
3.7323898641
 21
6.3120852344
  0
LINE
  5
4AD
100
AcDbEntity
  8
0
100
AcDbLine
 62
7
  6
CONTINUOUS
 10
-3.7155981359
 20
6.3120852344
 11
-4.1038411359
 21
6.3120852344
  0
LINE
  5
4AE
100
AcDbEntity
  8
0
100
AcDbLine
 62
7
  6
CONTINUOUS
 10
4.1728778641
 20
6.4618022344
 11
3.6715028641
 21
6.4618022344
  0
LINE
  5
4AF
100
AcDbEntity
  8
0
100
AcDbLine
 62
7
  6
CONTINUOUS
 10
-3.6633641359
 20
6.4618022344
 11
-4.1647891359
 21
6.4618022344
  0
LWPOLYLINE
  5
4B0
100
AcDbEntity
  8
0
100
AcDbPolyline
 62
7
  6
CONTINUOUS
 90
70
 70
0
 10
2.6877508833
 20
5.5756312344
 10
2.6744379161
 20
5.5758252509
 10
2.661045662
 20
5.5763458127
 10
2.6475741212
 20
5.5771929196
 10
2.6339720201
 20
5.578365499
 10
2.6202906323
 20
5.5798646235
 10
2.6066837778
 20
5.5816935118
 10
2.5931542092
 20
5.5838644044
 10
2.579699174
 20
5.5863650607
 10
2.5664642341
 20
5.5891619765
 10
2.5534787985
 20
5.5922569525
 10
2.5407134583
 20
5.5956481878
 10
2.528225548
 20
5.5992967761
 10
2.5160567368
 20
5.603186383
 10
2.5041653557
 20
5.6073333428
 10
2.4924837317
 20
5.6117477512
 10
2.4810180822
 20
5.6164145958
 10
2.46976219
 20
5.621348889
 10
2.4586297296
 20
5.6266057641
 10
2.4476139134
 20
5.6321724283
 10
2.4367215292
 20
5.6380616743
 10
2.4258866152
 20
5.6443670138
 10
2.4150883847
 20
5.6511053335
 10
2.4043476245
 20
5.6582597463
 10
2.3936607327
 20
5.6658731036
 10
2.3829854983
 20
5.6740034842
 10
2.3723641325
 20
5.6825928088
 10
2.3619196671
 20
5.6915096914
 10
2.3516644158
 20
5.7007563974
 10
2.3415860649
 20
5.710330661
 10
2.3317707064
 20
5.7200943
 10
2.3222189398
 20
5.7300213573
 10
2.3129301655
 20
5.7401377897
 10
2.3039886765
 20
5.7503832871
 10
2.2954102659
 20
5.7607381567
 10
2.2871791406
 20
5.7712220911
 10
2.2793322138
 20
5.7818338572
 10
2.2718944718
 20
5.7925670355
 10
2.2648409282
 20
5.8034280453
 10
2.2581335372
 20
5.814434912
 10
2.2517914326
 20
5.8255867815
 10
2.2457954806
 20
5.8368845077
 10
2.2400502329
 20
5.8483486781
 10
2.2345504991
 20
5.8599759144
 10
2.2293014696
 20
5.8717695946
 10
2.2242232675
 20
5.8837604409
 10
2.2192885723
 20
5.8959651737
 10
2.2145247044
 20
5.9083670721
 10
2.2099337488
 20
5.9209466961
 10
2.205493368
 20
5.933728624
 10
2.2012258993
 20
5.9466882771
 10
2.1972004403
 20
5.95973248
 10
2.1934273845
 20
5.9728444721
 10
2.1898963384
 20
5.9860410139
 10
2.1866452179
 20
5.9992792113
 10
2.18369012
 20
6.0125496911
 10
2.1810149477
 20
6.0258618263
 10
2.1786093267
 20
6.0392008429
 10
2.1764808078
 20
6.0525645526
 10
2.1746218401
 20
6.0659551436
 10
2.172999396
 20
6.0793644063
 10
2.1716124395
 20
6.0927925445
 10
2.1704620066
 20
6.1062393544
 10
2.1695181769
 20
6.1196960154
 10
2.1687804954
 20
6.1331593642
 10
2.1682494171
 20
6.1466325641
 10
2.1678963878
 20
6.1601162842
 10
2.1677118892
 20
6.1736107475
 10
2.1677054394
 20
6.1871157309
 10
2.1678770385
 20
6.2006312344
  0
LWPOLYLINE
  5
4B1
100
AcDbEntity
  8
RACCORDO
100
AcDbPolyline
 62
7
  6
CONTINUOUS
 90
10
 70
0
 10
-10.241280202
 20
8.6637783665
 10
-10.241042983
 20
8.6637183066
 10
-10.2405680939
 20
8.663658391
 10
-10.2398555348
 20
8.6635986196
 10
-10.2389035575
 20
8.6635388791
 10
-10.2377139102
 20
8.6634792829
 10
-10.2362918367
 20
8.6634201713
 10
-10.234635445
 20
8.6633615673
 10
-10.2327466271
 20
8.6633034478
 10
-10.2283073637
 20
8.6631895538
  0
LINE
  5
4B2
100
AcDbEntity
  8
0
100
AcDbLine
 62
7
  6
CONTINUOUS
 10
-2.5876828975
 20
15.0016950581
 11
-2.6543496913
 21
15.1038227055
  0
LINE
  5
4B3
100
AcDbEntity
  8
0
100
AcDbLine
 62
7
  6
CONTINUOUS
 10
-1.9210164851
 20
15.4782908175
 11
-1.8543496913
 21
15.3421205971
  0
LINE
  5
4B4
100
AcDbEntity
  8
0
100
AcDbLine
 62
7
  6
CONTINUOUS
 10
-1.6543496913
 20
15.3421205971
 11
-1.7210164851
 21
15.4782908175
  0
LINE
  5
4B5
100
AcDbEntity
  8
0
100
AcDbLine
 62
7
  6
CONTINUOUS
 10
0.0188728641
 20
17.7768382344
 11
0.3699538641
 21
16.8330692344
  0
LINE
  5
4B6
100
AcDbEntity
  8
0
100
AcDbLine
 62
7
  6
CONTINUOUS
 10
3.3633448641
 20
6.8256312344
 11
3.8159728641
 21
5.5756312344
  0
LINE
  5
4B7
100
AcDbEntity
  8
0
100
AcDbLine
 62
7
  6
CONTINUOUS
 10
3.5479078641
 20
6.8256312344
 11
3.6715028641
 21
6.4618022344
  0
LINE
  5
4B8
100
AcDbEntity
  8
0
100
AcDbLine
 62
7
  6
CONTINUOUS
 10
3.7323898641
 20
6.3120852344
 11
3.9186208641
 21
5.7569422344
  0
LINE
  5
4B9
100
AcDbEntity
  8
0
100
AcDbLine
 62
7
  6
CONTINUOUS
 10
1.2456503087
 20
15.2740354989
 11
1.2123170071
 21
15.3761631463
  0
LINE
  5
4BA
100
AcDbEntity
  8
0
100
AcDbLine
 62
7
  6
CONTINUOUS
 10
1.5456503087
 20
14.5250992749
 11
1.5789836102
 21
14.3889290783
  0
LINE
  5
4BB
100
AcDbEntity
  8
RACCORDO
100
AcDbLine
 62
253
  6
CONTINUOUS
 10
9.3400202615
 20
-21.0493687656
 11
9.2809173604
 21
-20.6336198819
  0
LINE
  5
4BC
100
AcDbEntity
  8
RACCORDO
100
AcDbLine
 62
253
  6
CONTINUOUS
 10
6.8468468103
 20
21.8196117862
 11
6.8468468103
 21
20.3032897613
  0
LINE
  5
4BD
100
AcDbEntity
  8
RACCORDO
100
AcDbLine
 62
253
  6
CONTINUOUS
 10
6.8468468103
 20
-20.9020272925
 11
6.8468468103
 21
-22.4183493174
  0
LINE
  5
4BE
100
AcDbEntity
  8
RACCORDO
100
AcDbLine
 62
253
  6
CONTINUOUS
 10
7.020051891
 20
21.8248525641
 11
7.020051891
 21
20.3155682174
  0
LINE
  5
4BF
100
AcDbEntity
  8
RACCORDO
100
AcDbLine
 62
253
  6
CONTINUOUS
 10
7.020051891
 20
-20.9143057486
 11
7.020051891
 21
-22.4235900953
  0
LINE
  5
4C0
100
AcDbEntity
  8
DRAFT
100
AcDbLine
 62
7
  6
CONTINUOUS
 10
7.6123168641
 20
-0.425549369
 11
7.6123168641
 21
-1.6517339604
  0
LINE
  5
4C1
100
AcDbEntity
  8
DRAFT
100
AcDbLine
 62
7
  6
CONTINUOUS
 10
7.6123168641
 20
-0.1731881622
 11
7.6123168641
 21
1.0529964292
  0
LINE
  5
4C2
100
AcDbEntity
  8
DRAFT
100
AcDbLine
 62
7
  6
CONTINUOUS
 10
7.7872941911
 20
-1.6168238305
 11
7.7872941911
 21
-0.4080956334
  0
LINE
  5
4C3
100
AcDbEntity
  8
DRAFT
100
AcDbLine
 62
7
  6
CONTINUOUS
 10
7.7872941911
 20
-0.1906418978
 11
7.7872941911
 21
1.0180862993
  0
LINE
  5
4C4
100
AcDbEntity
  8
RACCORDO
100
AcDbLine
 62
253
  6
CONTINUOUS
 10
9.4808868985
 20
19.8363731137
 11
9.5398712883
 21
20.2512883508
  0
LINE
  5
4C5
100
AcDbEntity
  8
0
100
AcDbLine
 62
7
  6
CONTINUOUS
 10
1.9123166257
 20
-15.87277303
 11
1.8789834195
 21
-15.9749006774
  0
LINE
  5
4C6
100
AcDbEntity
  8
0
100
AcDbLine
 62
7
  6
CONTINUOUS
 10
2.0123166257
 20
-16.0770283487
 11
2.0789834195
 21
-15.9068155792
  0
LINE
  5
4C7
100
AcDbEntity
  8
0
100
AcDbLine
 62
7
  6
CONTINUOUS
 10
0.4123166257
 20
-14.9195815113
 11
-0.2543497867
 21
-16.3493687656
  0
LINE
  5
4C8
100
AcDbEntity
  8
0
100
AcDbLine
 62
7
  6
CONTINUOUS
 10
-0.0543497867
 20
-16.3493687656
 11
0.6123166257
 21
-14.9195815113
  0
LINE
  5
4C9
100
AcDbEntity
  8
0
100
AcDbLine
 62
7
  6
CONTINUOUS
 10
5.2679818641
 20
-6.7750557656
 11
5.6265538641
 21
-6.1743687656
  0
LINE
  5
4CA
100
AcDbEntity
  8
0
100
AcDbLine
 62
7
  6
CONTINUOUS
 10
5.3532018641
 20
-6.9212347656
 11
5.8250978641
 21
-6.1743687656
  0
LINE
  5
4CB
100
AcDbEntity
  8
0
100
AcDbLine
 62
7
  6
CONTINUOUS
 10
-1.8543499774
 20
-15.2259645488
 11
-1.7210165805
 21
-15.0217091587
  0
LINE
  5
4CC
100
AcDbEntity
  8
0
100
AcDbLine
 62
7
  6
CONTINUOUS
 10
-1.0543499774
 20
-15.87277303
 11
-1.1876831836
 21
-16.0770283487
  0
LINE
  5
4CD
100
AcDbEntity
  8
0
100
AcDbLine
 62
7
  6
CONTINUOUS
 10
-3.3210165805
 20
-14.851496413
 11
-3.4543499119
 21
-14.9876666095
  0
LINE
  5
4CE
100
AcDbEntity
  8
RACCORDO
100
AcDbLine
 62
253
  6
CONTINUOUS
 10
9.2645814585
 20
-1.6744430478
 11
9.3222006757
 21
-1.6168238305
  0
LINE
  5
4CF
100
AcDbEntity
  8
RACCORDO
100
AcDbLine
 62
253
  6
CONTINUOUS
 10
9.4645509977
 20
-1.8744125866
 11
9.5221702148
 21
-1.8167933695
  0
LINE
  5
4D0
100
AcDbEntity
  8
0
100
AcDbLine
 62
7
  6
CONTINUOUS
 10
1.7650728641
 20
6.6759142344
 11
1.0112218641
 21
6.6759142344
  0
LINE
  5
4D1
100
AcDbEntity
  8
0
100
AcDbLine
 62
7
  6
CONTINUOUS
 10
-4.7967851359
 20
6.6759142344
 11
-5.4305291359
 21
6.6759142344
  0
LINE
  5
4D2
100
AcDbEntity
  8
0
100
AcDbLine
 62
7
  6
CONTINUOUS
 10
3.0307828641
 20
6.6811712344
 11
2.6973700079
 21
6.6811712344
  0
LINE
  5
4D3
100
AcDbEntity
  8
0
100
AcDbLine
 62
7
  6
CONTINUOUS
 10
5.8250978641
 20
6.8256312344
 11
5.6614558641
 21
6.8256312344
  0
LINE
  5
4D4
100
AcDbEntity
  8
0
100
AcDbLine
 62
7
  6
CONTINUOUS
 10
5.3097548641
 20
6.8256312344
 11
5.1426168641
 21
6.8256312344
  0
LINE
  5
4D5
100
AcDbEntity
  8
0
100
AcDbLine
 62
7
  6
CONTINUOUS
 10
4.7909828641
 20
6.8256312344
 11
4.6272748641
 21
6.8256312344
  0
LINE
  5
4D6
100
AcDbEntity
  8
0
100
AcDbLine
 62
7
  6
CONTINUOUS
 10
4.4775478641
 20
6.8256312344
 11
4.3034678641
 21
6.8256312344
  0
LINE
  5
4D7
100
AcDbEntity
  8
0
100
AcDbLine
 62
7
  6
CONTINUOUS
 10
3.5479078641
 20
6.8256312344
 11
3.3633448641
 21
6.8256312344
  0
LINE
  5
4D8
100
AcDbEntity
  8
0
100
AcDbLine
 62
7
  6
CONTINUOUS
 10
3.1997068641
 20
6.8256312344
 11
2.6876317441
 21
6.8256312344
  0
LINE
  5
4D9
100
AcDbEntity
  8
0
100
AcDbLine
 62
7
  6
CONTINUOUS
 10
1.9339878641
 20
6.8256312344
 11
1.0112218641
 21
6.8256312344
  0
LINE
  5
4DA
100
AcDbEntity
  8
0
100
AcDbLine
 62
7
  6
CONTINUOUS
 10
0.2799838641
 20
6.8256312344
 11
0.1111208641
 21
6.8256312344
  0
LINE
  5
4DB
100
AcDbEntity
  8
0
100
AcDbLine
 62
7
  6
CONTINUOUS
 10
-0.1778401359
 20
6.8256312344
 11
-0.3415581359
 21
6.8256312344
  0
LINE
  5
4DC
100
AcDbEntity
  8
0
100
AcDbLine
 62
7
  6
CONTINUOUS
 10
-0.9805091359
 20
6.8256312344
 11
-1.1702681359
 21
6.8256312344
  0
LINE
  5
4DD
100
AcDbEntity
  8
0
100
AcDbLine
 62
7
  6
CONTINUOUS
 10
-1.9449751359
 20
6.8256312344
 11
-2.1138891359
 21
6.8256312344
  0
LINE
  5
4DE
100
AcDbEntity
  8
0
100
AcDbLine
 62
7
  6
CONTINUOUS
 10
-2.7180241359
 20
6.8256312344
 11
-2.8868781359
 21
6.8256312344
  0
LINE
  5
4DF
100
AcDbEntity
  8
0
100
AcDbLine
 62
7
  6
CONTINUOUS
 10
-3.3586931359
 20
6.8256312344
 11
-3.5327631359
 21
6.8256312344
  0
LINE
  5
4E0
100
AcDbEntity
  8
0
100
AcDbLine
 62
7
  6
CONTINUOUS
 10
-4.2883941359
 20
6.8256312344
 11
-4.4729881359
 21
6.8256312344
  0
LINE
  5
4E1
100
AcDbEntity
  8
0
100
AcDbLine
 62
7
  6
CONTINUOUS
 10
-4.6278601359
 20
6.8256312344
 11
-5.4305291359
 21
6.8256312344
  0
LINE
  5
4E2
100
AcDbEntity
  8
0
100
AcDbLine
 62
7
  6
CONTINUOUS
 10
-5.9597451359
 20
6.8256312344
 11
-6.1285681359
 21
6.8256312344
  0
LINE
  5
4E3
100
AcDbEntity
  8
RACCORDO
100
AcDbLine
 62
253
  6
CONTINUOUS
 10
9.3222006757
 20
1.0180862993
 11
9.2645814585
 21
1.0757055166
  0
LINE
  5
4E4
100
AcDbEntity
  8
RACCORDO
100
AcDbLine
 62
253
  6
CONTINUOUS
 10
9.5221702148
 20
1.2180558384
 11
9.4645509977
 21
1.2756750555
  0
LINE
  5
4E5
100
AcDbEntity
  8
0
100
AcDbLine
 62
7
  6
CONTINUOUS
 10
-2.7876828975
 20
15.0016950581
 11
-2.6876828975
 21
14.8655248616
  0
LINE
  5
4E6
100
AcDbEntity
  8
0
100
AcDbLine
 62
7
  6
CONTINUOUS
 10
-1.7210164851
 20
15.4782908175
 11
-1.8210164851
 21
15.614461026
  0
LINE
  5
4E7
100
AcDbEntity
  8
0
100
AcDbLine
 62
7
  6
CONTINUOUS
 10
0.1456503087
 20
14.5250992749
 11
0.2123169118
 21
14.3889290783
  0
LINE
  5
4E8
100
AcDbEntity
  8
0
100
AcDbLine
 62
7
  6
CONTINUOUS
 10
1.2123170071
 20
15.3761631463
 11
1.1456503087
 21
15.5123333666
  0
LINE
  5
4E9
100
AcDbEntity
  8
0
100
AcDbLine
 62
7
  6
CONTINUOUS
 10
0.0456928641
 20
18.5329322344
 11
0.4619488641
 21
17.4229532344
  0
LINE
  5
4EA
100
AcDbEntity
  8
0
100
AcDbLine
 62
7
  6
CONTINUOUS
 10
5.2244678641
 20
6.6375292344
 11
5.5830958641
 21
5.5756312344
  0
LINE
  5
4EB
100
AcDbEntity
  8
0
100
AcDbLine
 62
7
  6
CONTINUOUS
 10
5.3097548641
 20
6.8256312344
 11
5.6614558641
 21
5.7775112344
  0
LINE
  5
4EC
100
AcDbEntity
  8
0
100
AcDbLine
 62
7
  6
CONTINUOUS
 10
2.4145928641
 20
18.5329322344
 11
2.9534828641
 21
16.8330692344
  0
LINE
  5
4ED
100
AcDbEntity
  8
0
100
AcDbLine
 62
7
  6
CONTINUOUS
 10
2.2440048641
 20
18.0031372344
 11
2.5680298641
 21
16.8330692344
  0
LINE
  5
4EE
100
AcDbEntity
  8
RACCORDO
100
AcDbLine
 62
253
  6
CONTINUOUS
 10
9.5398712883
 20
-20.8500258819
 11
9.4808868985
 21
-20.4351106449
  0
LINE
  5
4EF
100
AcDbEntity
  8
RACCORDO
100
AcDbLine
 62
253
  6
CONTINUOUS
 10
9.280917324
 20
-20.4629791434
 11
9.279097869
 21
-19.6963525077
  0
LINE
  5
4F0
100
AcDbEntity
  8
RACCORDO
100
AcDbLine
 62
253
  6
CONTINUOUS
 10
9.4808868985
 20
-20.4351106449
 11
9.4790701112
 21
-19.6713722377
  0
LINE
  5
4F1
100
AcDbEntity
  8
RACCORDO
100
AcDbLine
 62
253
  6
CONTINUOUS
 10
9.279097869
 20
-19.6963525077
 11
9.2773948407
 21
-18.928842872
  0
LINE
  5
4F2
100
AcDbEntity
  8
RACCORDO
100
AcDbLine
 62
253
  6
CONTINUOUS
 10
9.4790701112
 20
-19.6713722377
 11
9.4773694021
 21
-18.9067724735
  0
LINE
  5
4F3
100
AcDbEntity
  8
RACCORDO
100
AcDbLine
 62
253
  6
CONTINUOUS
 10
9.2773948407
 20
-18.928842872
 11
9.2758082905
 21
-18.1605091518
  0
LWPOLYLINE
  5
4F4
100
AcDbEntity
  8
RACCORDO
100
AcDbPolyline
 62
253
  6
CONTINUOUS
 90
3
 70
0
 10
9.4773694021
 20
-18.9067724735
 10
9.4757848208
 20
-18.141334608
 10
9.4750361427
 20
-17.7583307088
  0
LWPOLYLINE
  5
4F5
100
AcDbEntity
  8
RACCORDO
100
AcDbPolyline
 62
253
  6
CONTINUOUS
 90
3
 70
0
 10
9.2758082905
 20
-18.1605091518
 10
9.2743383963
 20
-17.3914120124
 10
9.2736472344
 20
-17.0065957711
  0
LINE
  5
4F6
100
AcDbEntity
  8
RACCORDO
100
AcDbLine
 62
253
  6
CONTINUOUS
 10
9.4750361427
 20
-17.7583307088
 11
9.4736260482
 21
-16.9917749739
  0
LINE
  5
4F7
100
AcDbEntity
  8
RACCORDO
100
AcDbLine
 62
253
  6
CONTINUOUS
 10
9.2736472344
 20
-17.0065957711
 11
9.2723525263
 21
-16.2364652735
  0
LINE
  5
4F8
100
AcDbEntity
  8
RACCORDO
100
AcDbLine
 62
253
  6
CONTINUOUS
 10
9.4736260482
 20
-16.9917749739
 11
9.4723324196
 21
-16.2245492821
  0
LINE
  5
4F9
100
AcDbEntity
  8
RACCORDO
100
AcDbLine
 62
253
  6
CONTINUOUS
 10
9.2723525263
 20
-16.2364652735
 11
9.2711747417
 21
-15.4657186331
  0
LINE
  5
4FA
100
AcDbEntity
  8
RACCORDO
100
AcDbLine
 62
253
  6
CONTINUOUS
 10
9.4723324196
 20
-16.2245492821
 11
9.471155359
 21
-15.456717785
  0
LWPOLYLINE
  5
4FB
100
AcDbEntity
  8
RACCORDO
100
AcDbPolyline
 62
253
  6
CONTINUOUS
 90
3
 70
0
 10
9.2711747417
 20
-15.4657186331
 10
9.2701139461
 20
-14.6944137388
 10
9.2696274625
 20
-14.3085695076
  0
LWPOLYLINE
  5
4FC
100
AcDbEntity
  8
RACCORDO
100
AcDbPolyline
 62
253
  6
CONTINUOUS
 90
3
 70
0
 10
9.471155359
 20
-15.456717785
 10
9.4700949314
 20
-14.6883233455
 10
9.4696084981
 20
-14.3039460524
  0
LINE
  5
4FD
100
AcDbEntity
  8
RACCORDO
100
AcDbLine
 62
253
  6
CONTINUOUS
 10
9.2696274625
 20
-14.3085695076
 11
9.2687423037
 21
-13.5365344095
  0
LINE
  5
4FE
100
AcDbEntity
  8
RACCORDO
100
AcDbLine
 62
253
  6
CONTINUOUS
 10
9.4696084981
 20
-14.3039460524
 11
9.4687231724
 21
-13.5348171193
  0
LINE
  5
4FF
100
AcDbEntity
  8
RACCORDO
100
AcDbLine
 62
253
  6
CONTINUOUS
 10
9.2659427256
 20
-9.2608004341
 11
9.26527694
 21
-6.7990143937
  0
LINE
  5
500
100
AcDbEntity
  8
RACCORDO
100
AcDbLine
 62
253
  6
CONTINUOUS
 10
9.26527694
 20
-6.7990143937
 11
9.2648231831
 21
-4.3370904574
  0
LINE
  5
501
100
AcDbEntity
  8
RACCORDO
100
AcDbLine
 62
253
  6
CONTINUOUS
 10
9.4659139301
 20
-9.2625158977
 11
9.4652472848
 21
-6.7999500232
  0
LINE
  5
502
100
AcDbEntity
  8
RACCORDO
100
AcDbLine
 62
253
  6
CONTINUOUS
 10
9.4652472848
 20
-6.7999500232
 11
9.4647929724
 21
-4.3372416065
  0
LINE
  5
503
100
AcDbEntity
  8
DRAFT
100
AcDbLine
 62
7
  6
CONTINUOUS
 10
8.4056925371
 20
21.9506312344
 11
8.4056925371
 21
20.5206312344
  0
LINE
  5
504
100
AcDbEntity
  8
DRAFT
100
AcDbLine
 62
7
  6
CONTINUOUS
 10
8.4056925371
 20
-22.5493687656
 11
8.4056925371
 21
-21.1193687656
  0
LINE
  5
505
100
AcDbEntity
  8
DRAFT
100
AcDbLine
 62
7
  6
CONTINUOUS
 10
8.9623168641
 20
-13.4732194903
 11
8.9623168641
 21
-9.3255180409
  0
LINE
  5
506
100
AcDbEntity
  8
DRAFT
100
AcDbLine
 62
7
  6
CONTINUOUS
 10
8.9623168641
 20
8.7267805097
 11
8.9623168641
 21
12.8744819591
  0
LINE
  5
507
100
AcDbEntity
  8
RACCORDO
100
AcDbLine
 62
253
  6
CONTINUOUS
 10
9.2648231831
 20
-4.3370904574
 11
9.2645814585
 21
-1.6744430478
  0
LINE
  5
508
100
AcDbEntity
  8
RACCORDO
100
AcDbLine
 62
253
  6
CONTINUOUS
 10
9.2809173604
 20
-20.6336198819
 11
9.2809173604
 21
-20.4629791434
  0
LINE
  5
509
100
AcDbEntity
  8
RACCORDO
100
AcDbLine
 62
253
  6
CONTINUOUS
 10
9.2809173604
 20
19.8642416123
 11
9.2809173604
 21
20.0348823508
  0
LINE
  5
50A
100
AcDbEntity
  8
RACCORDO
100
AcDbLine
 62
253
  6
CONTINUOUS
 10
9.4647929724
 20
-4.3372416065
 11
9.4645509977
 21
-1.8744125866
  0
LINE
  5
50B
100
AcDbEntity
  8
RACCORDO
100
AcDbLine
 62
7
  6
CONTINUOUS
 10
9.5221702148
 20
-1.8167933695
 11
9.5221702148
 21
-4.3993687656
  0
LINE
  5
50C
100
AcDbEntity
  8
RACCORDO
100
AcDbLine
 62
7
  6
CONTINUOUS
 10
9.5221702148
 20
1.2180558384
 11
9.5221702148
 21
3.8006312344
  0
LINE
  5
50D
100
AcDbEntity
  8
DRAFT
100
AcDbLine
 62
7
  6
CONTINUOUS
 10
9.5623168641
 20
12.8892863063
 11
9.5623168641
 21
12.8775050348
  0
LINE
  5
50E
100
AcDbEntity
  8
DRAFT
100
AcDbLine
 62
7
  6
CONTINUOUS
 10
9.5623168641
 20
-9.3364266257
 11
9.5623168641
 21
-13.4623109055
  0
LINE
  5
50F
100
AcDbEntity
  8
RACCORDO
100
AcDbLine
 62
7
  6
CONTINUOUS
 10
9.5623168641
 20
-13.4880238375
 11
9.5623168641
 21
-20.9192669836
  0
LINE
  5
510
100
AcDbEntity
  8
DRAFT
100
AcDbLine
 62
7
  6
CONTINUOUS
 10
9.5623168641
 20
-13.488023837
 11
9.5623168641
 21
-13.4762425659
  0
LINE
  5
511
100
AcDbEntity
  8
DRAFT
100
AcDbLine
 62
7
  6
CONTINUOUS
 10
9.5623168641
 20
-9.3224949652
 11
9.5623168641
 21
-4.3993687656
  0
LINE
  5
512
100
AcDbEntity
  8
DRAFT
100
AcDbLine
 62
7
  6
CONTINUOUS
 10
9.5623168641
 20
3.8006312344
 11
9.5623168641
 21
8.7237574341
  0
LINE
  5
513
100
AcDbEntity
  8
DRAFT
100
AcDbLine
 62
7
  6
CONTINUOUS
 10
9.5623168641
 20
8.7376890945
 11
9.5623168641
 21
12.8635733743
  0
LINE
  5
514
100
AcDbEntity
  8
RACCORDO
100
AcDbLine
 62
7
  6
CONTINUOUS
 10
9.5623168641
 20
12.8892863063
 11
9.5623168641
 21
20.3205294524
  0
LINE
  5
515
100
AcDbEntity
  8
0
100
AcDbLine
 62
253
  6
CONTINUOUS
 10
9.7723538463
 20
12.8635733743
 11
9.7723538463
 21
8.7376890945
  0
LINE
  5
516
100
AcDbEntity
  8
0
100
AcDbLine
 62
253
  6
CONTINUOUS
 10
9.7723538463
 20
-13.4623109055
 11
9.7723538463
 21
-9.3364266257
  0
LWPOLYLINE
  5
517
100
AcDbEntity
  8
RACCORDO
100
AcDbPolyline
 62
253
  6
CONTINUOUS
 90
3
 70
0
 10
9.2645814585
 20
1.0757055166
 10
9.2646384744
 20
2.0969987396
 10
9.26527694
 20
6.2002768625
  0
LWPOLYLINE
  5
518
100
AcDbEntity
  8
RACCORDO
100
AcDbPolyline
 62
253
  6
CONTINUOUS
 90
3
 70
0
 10
9.4645509977
 20
1.2756750555
 10
9.4646080628
 20
2.0966314624
 10
9.4652472848
 20
6.201212492
  0
LINE
  5
519
100
AcDbEntity
  8
RACCORDO
100
AcDbLine
 62
253
  6
CONTINUOUS
 10
9.26527694
 20
6.2002768625
 11
9.2659427256
 21
8.6620629029
  0
LINE
  5
51A
100
AcDbEntity
  8
RACCORDO
100
AcDbLine
 62
253
  6
CONTINUOUS
 10
9.4652472848
 20
6.201212492
 11
9.4659139301
 21
8.6637783665
  0
LINE
  5
51B
100
AcDbEntity
  8
RACCORDO
100
AcDbLine
 62
253
  6
CONTINUOUS
 10
9.2687423037
 20
12.9377968783
 11
9.2706297092
 21
14.4813949699
  0
LINE
  5
51C
100
AcDbEntity
  8
RACCORDO
100
AcDbLine
 62
253
  6
CONTINUOUS
 10
9.4687231724
 20
12.9360795882
 11
9.470610555
 21
14.4738454252
  0
LINE
  5
51D
100
AcDbEntity
  8
RACCORDO
100
AcDbLine
 62
253
  6
CONTINUOUS
 10
9.2706297092
 20
14.4813949699
 11
9.2729852784
 21
16.0228736216
  0
LINE
  5
51E
100
AcDbEntity
  8
RACCORDO
100
AcDbLine
 62
253
  6
CONTINUOUS
 10
9.470610555
 20
14.4738454252
 11
9.4729646763
 21
16.0095084196
  0
LINE
  5
51F
100
AcDbEntity
  8
RACCORDO
100
AcDbLine
 62
253
  6
CONTINUOUS
 10
9.2729852784
 20
16.0228736216
 11
9.2765869844
 21
17.9460375746
  0
LINE
  5
520
100
AcDbEntity
  8
RACCORDO
100
AcDbLine
 62
253
  6
CONTINUOUS
 10
9.4729646763
 20
16.0095084196
 11
9.4765625748
 21
17.9254110823
  0
LWPOLYLINE
  5
521
100
AcDbEntity
  8
RACCORDO
100
AcDbPolyline
 62
253
  6
CONTINUOUS
 90
3
 70
0
 10
9.2765869844
 20
17.9460375746
 10
9.279993041
 20
19.4810422809
 10
9.280917324
 20
19.8642416123
  0
LWPOLYLINE
  5
522
100
AcDbEntity
  8
RACCORDO
100
AcDbPolyline
 62
253
  6
CONTINUOUS
 90
3
 70
0
 10
9.4765625748
 20
17.9254110823
 10
9.479963993
 20
19.4546106107
 10
9.4808868985
 20
19.8363731137
  0
LWPOLYLINE
  5
523
100
AcDbEntity
  8
RACCORDO
100
AcDbPolyline
 62
253
  6
CONTINUOUS
 90
46
 70
0
 10
9.4645509975
 20
1.2756750556
 10
9.4644272793
 20
1.2687025677
 10
9.4640604368
 20
1.2617373344
 10
9.4634507879
 20
1.2547878362
 10
9.4625988946
 20
1.2478621709
 10
9.4615056926
 20
1.24096916
 10
9.4601726205
 20
1.2341183179
 10
9.4586013729
 20
1.2273183191
 10
9.4567937943
 20
1.2205771151
 10
9.4547521093
 20
1.2139030231
 10
9.4524788212
 20
1.2073042158
 10
9.4499766864
 20
1.200788685
 10
9.44724874
 20
1.1943643375
 10
9.4442982926
 20
1.1880389797
 10
9.4411289433
 20
1.1818203367
 10
9.4377445666
 20
1.175716013
 10
9.4341492943
 20
1.1697334575
 10
9.430347498
 20
1.1638799414
 10
9.4263437987
 20
1.1581625797
 10
9.4221430666
 20
1.15258833
 10
9.4177504221
 20
1.1471639892
 10
9.4131712199
 20
1.1418961706
 10
9.4084110395
 20
1.1367912929
 10
9.4034756764
 20
1.1318555712
 10
9.3983711404
 20
1.1270950162
 10
9.3931036475
 20
1.1225154257
 10
9.3876796141
 20
1.1181223786
 10
9.3821056477
 20
1.1139212269
 10
9.3763885375
 20
1.1099170879
 10
9.3705352464
 20
1.1061148385
 10
9.3645529037
 20
1.1025191101
 10
9.3584487956
 20
1.0991342822
 10
9.3522303568
 20
1.0959644777
 10
9.3459051618
 20
1.093013558
 10
9.3394809144
 20
1.0902851171
 10
9.3329654394
 20
1.0877824786
 10
9.3263666728
 20
1.0855086906
 10
9.3196926515
 20
1.0834665229
 10
9.3129515047
 20
1.0816584627
 10
9.3061514434
 20
1.0800867126
 10
9.2993007495
 20
1.0787531867
 10
9.2924077676
 20
1.0776595096
 10
9.2854808959
 20
1.0768070135
 10
9.2785285723
 20
1.0761967366
 10
9.2715592636
 20
1.075829422
 10
9.2645814585
 20
1.0757055166
  0
LINE
  5
524
100
AcDbEntity
  8
0
100
AcDbLine
 62
7
  6
CONTINUOUS
 10
-1.8210165805
 20
-14.8855389621
 11
-1.9210165805
 21
-14.9876666095
  0
LINE
  5
525
100
AcDbEntity
  8
0
100
AcDbLine
 62
7
  6
CONTINUOUS
 10
-2.587683279
 20
-15.3280921962
 11
-3.5210165805
 21
-16.1791559961
  0
LINE
  5
526
100
AcDbEntity
  8
0
100
AcDbLine
 62
7
  6
CONTINUOUS
 10
-3.2543499059
 20
-16.1791559961
 11
-2.4210165805
 21
-15.4302198436
  0
LINE
  5
527
100
AcDbEntity
  8
0
100
AcDbLine
 62
7
  6
CONTINUOUS
 10
-11.4876831359
 20
8.7119761625
 11
-11.2438854449
 21
8.7322188313
  0
LWPOLYLINE
  5
528
100
AcDbEntity
  8
RACCORDO
100
AcDbPolyline
 62
7
  6
CONTINUOUS
 90
8
 70
0
 10
9.4592691732
 20
8.6633615673
 10
9.4609255649
 20
8.6634201713
 10
9.4623476384
 20
8.6634792829
 10
9.4635372857
 20
8.6635388791
 10
9.4644892629
 20
8.6635986196
 10
9.4652018221
 20
8.663658391
 10
9.4656767112
 20
8.6637183066
 10
9.4659139301
 20
8.6637783665
  0
LINE
  5
529
100
AcDbEntity
  8
RACCORDO
100
AcDbLine
 62
7
  6
CONTINUOUS
 10
9.455270031
 20
8.6632460844
 11
9.4592691732
 21
8.6633615673
  0
LINE
  5
52A
100
AcDbEntity
  8
RACCORDO
100
AcDbLine
 62
7
  6
CONTINUOUS
 10
9.4503906464
 20
8.6631337793
 11
9.455270031
 21
8.6632460844
  0
LINE
  5
52B
100
AcDbEntity
  8
RACCORDO
100
AcDbLine
 62
7
  6
CONTINUOUS
 10
9.4414187586
 20
8.6629711326
 11
9.4503906464
 21
8.6631337793
  0
LINE
  5
52C
100
AcDbEntity
  8
RACCORDO
100
AcDbLine
 62
7
  6
CONTINUOUS
 10
9.4222692083
 20
8.6627198288
 11
9.4414187586
 21
8.6629711326
  0
LINE
  5
52D
100
AcDbEntity
  8
DRAFT
100
AcDbLine
 62
7
  6
CONTINUOUS
 10
8.9623168641
 20
8.7324529738
 11
9.5623168641
 21
8.7376890945
  0
LINE
  5
52E
100
AcDbEntity
  8
RACCORDO
100
AcDbLine
 62
7
  6
CONTINUOUS
 10
9.3823643864
 20
8.6623891954
 11
9.4222692083
 21
8.6627198288
  0
LINE
  5
52F
100
AcDbEntity
  8
DRAFT
100
AcDbLine
 62
7
  6
CONTINUOUS
 10
-9.7376831359
 20
8.7267805097
 11
-10.3376831359
 21
8.7237574341
  0
LINE
  5
530
100
AcDbEntity
  8
RACCORDO
100
AcDbLine
 62
7
  6
CONTINUOUS
 10
9.3002487475
 20
8.6620887914
 11
9.3823643864
 21
8.6623891954
  0
LINE
  5
531
100
AcDbEntity
  8
RACCORDO
100
AcDbLine
 62
7
  6
CONTINUOUS
 10
9.2659427256
 20
8.6620629029
 11
9.3002487475
 21
8.6620887914
  0
LINE
  5
532
100
AcDbEntity
  8
DRAFT
100
AcDbLine
 62
7
  6
CONTINUOUS
 10
10.7123168641
 20
8.7119761625
 11
9.5623168641
 21
8.7119761625
  0
LINE
  5
533
100
AcDbEntity
  8
DRAFT
100
AcDbLine
 62
7
  6
CONTINUOUS
 10
-10.3376831359
 20
8.7119761625
 11
-11.4876831359
 21
8.7119761625
  0
LINE
  5
534
100
AcDbEntity
  8
0
100
AcDbLine
 62
7
  6
CONTINUOUS
 10
-10.5477201181
 20
8.7376890945
 11
-10.3376831359
 21
8.7376890945
  0
LINE
  5
535
100
AcDbEntity
  8
0
100
AcDbLine
 62
7
  6
CONTINUOUS
 10
9.5623168641
 20
8.7376890945
 11
9.7723538463
 21
8.7376890945
  0
LINE
  5
536
100
AcDbEntity
  8
DRAFT
100
AcDbLine
 62
253
  6
CONTINUOUS
 10
-9.7376831359
 20
9.1778312344
 11
8.9623168641
 21
9.1778312344
  0
LINE
  5
537
100
AcDbEntity
  8
RACCORDO
100
AcDbLine
 62
7
  6
CONTINUOUS
 10
-10.1341686288
 20
8.6622625003
 11
-10.0413089974
 21
8.6620629029
  0
LINE
  5
538
100
AcDbEntity
  8
DRAFT
100
AcDbLine
 62
7
  6
CONTINUOUS
 10
9.5623168641
 20
8.7237574341
 11
8.9623168641
 21
8.7267805097
  0
LINE
  5
539
100
AcDbEntity
  8
RACCORDO
100
AcDbLine
 62
7
  6
CONTINUOUS
 10
-10.1839120969
 20
8.6625846556
 11
-10.1341686288
 21
8.6622625003
  0
LINE
  5
53A
100
AcDbEntity
  8
DRAFT
100
AcDbLine
 62
7
  6
CONTINUOUS
 10
-10.3376831359
 20
8.7376890945
 11
-9.7376831359
 21
8.7324529738
  0
LINE
  5
53B
100
AcDbEntity
  8
RACCORDO
100
AcDbLine
 62
7
  6
CONTINUOUS
 10
-10.2097313053
 20
8.6628672594
 11
-10.1839120969
 21
8.6625846556
  0
LINE
  5
53C
100
AcDbEntity
  8
RACCORDO
100
AcDbLine
 62
7
  6
CONTINUOUS
 10
-10.2229872116
 20
8.6630788028
 11
-10.2097313053
 21
8.6628672594
  0
LINE
  5
53D
100
AcDbEntity
  8
RACCORDO
100
AcDbLine
 62
7
  6
CONTINUOUS
 10
-10.2283073637
 20
8.6631895538
 11
-10.2229872116
 21
8.6630788028
  0
LINE
  5
53E
100
AcDbEntity
  8
0
100
AcDbLine
 62
7
  6
CONTINUOUS
 10
10.468519173
 20
8.7322188313
 11
10.7123168641
 21
8.7119761625
  0
LINE
  5
53F
100
AcDbEntity
  8
0
100
AcDbLine
 62
7
  6
CONTINUOUS
 10
0.4123169118
 20
14.4229716275
 11
0.2789837056
 21
14.6272270176
  0
LINE
  5
540
100
AcDbEntity
  8
0
100
AcDbLine
 62
7
  6
CONTINUOUS
 10
0.9456503087
 20
15.4782908175
 11
1.0789837056
 21
15.2740354989
  0
LINE
  5
541
100
AcDbEntity
  8
0
100
AcDbLine
 62
7
  6
CONTINUOUS
 10
1.8123170071
 20
14.4229716275
 11
1.7456503087
 21
14.5250992749
  0
LWPOLYLINE
  5
542
100
AcDbEntity
  8
RACCORDO
100
AcDbPolyline
 62
7
  6
CONTINUOUS
 90
52
 70
0
 10
9.5398712883
 20
20.2512883508
 10
9.539767119
 20
20.2574236035
 10
9.5394736076
 20
20.2635525423
 10
9.5389910774
 20
20.2696693872
 10
9.5383200376
 20
20.2757683697
 10
9.5374611638
 20
20.281843745
 10
9.5364152892
 20
20.2878897959
 10
9.5351834414
 20
20.2939008281
 10
9.533766824
 20
20.2998711818
 10
9.5321667835
 20
20.305795241
 10
9.5303848639
 20
20.3116674294
 10
9.5284227813
 20
20.317482221
 10
9.5262823842
 20
20.3232341471
 10
9.5239657199
 20
20.3289177949
 10
9.5214750026
 20
20.3345278171
 10
9.5188125676
 20
20.3400589371
 10
9.5159809488
 20
20.3455059492
 10
9.51298284
 20
20.3508637292
 10
9.5098210445
 20
20.3561272352
 10
9.5064985612
 20
20.3612915122
 10
9.5030185418
 20
20.3663516999
 10
9.4993842347
 20
20.3713030331
 10
9.4955990798
 20
20.3761408473
 10
9.4916666606
 20
20.3808605866
 10
9.4875906439
 20
20.3854578015
 10
9.4833748828
 20
20.3899281564
 10
9.479023363
 20
20.3942674372
 10
9.4745401404
 20
20.3984715472
 10
9.4699294492
 20
20.4025365153
 10
9.4651956453
 20
20.4064585041
 10
9.46034314
 20
20.4102338036
 10
9.4553765144
 20
20.4138588402
 10
9.450300459
 20
20.4173301848
 10
9.4451197043
 20
20.4206445452
 10
9.439839141
 20
20.4237987749
 10
9.4344637558
 20
20.4267898817
 10
9.4289985597
 20
20.4296150189
 10
9.4234487131
 20
20.4322714935
 10
9.417819458
 20
20.4347567748
 10
9.4121160442
 20
20.437068486
 10
9.4063438598
 20
20.43920441
 10
9.4005083593
 20
20.4411624994
 10
9.3946149882
 20
20.4429408669
 10
9.3886693181
 20
20.4445377903
 10
9.3826769716
 20
20.4459517226
 10
9.3766435446
 20
20.4471812823
 10
9.3705703955
 20
20.4482259246
 10
9.3644675829
 20
20.4490836821
 10
9.3583539721
 20
20.4497524883
 10
9.3522398382
 20
20.450232589
 10
9.3461266752
 20
20.4505252138
 10
9.3400202615
 20
20.4506312344
  0
LINE
  5
543
100
AcDbEntity
  8
0
100
AcDbLine
 62
253
  6
CONTINUOUS
 10
10.468519173
 20
12.8690436375
 11
10.468519173
 21
8.7322188313
  0
LINE
  5
544
100
AcDbEntity
  8
0
100
AcDbLine
 62
253
  6
CONTINUOUS
 10
10.468519173
 20
-13.4677811687
 11
10.468519173
 21
-9.3309563625
  0
LINE
  5
545
100
AcDbEntity
  8
RACCORDO
100
AcDbLine
 62
7
  6
CONTINUOUS
 10
10.6721702148
 20
-0.6580670768
 11
10.6721702148
 21
-4.3993687656
  0
LINE
  5
546
100
AcDbEntity
  8
RACCORDO
100
AcDbLine
 62
7
  6
CONTINUOUS
 10
10.6721702148
 20
0.0593295456
 11
10.6721702148
 21
3.8006312344
  0
LINE
  5
547
100
AcDbEntity
  8
DRAFT
100
AcDbLine
 62
7
  6
CONTINUOUS
 10
10.7123168641
 20
-4.3993687656
 11
10.7123168641
 21
-13.4880238375
  0
LINE
  5
548
100
AcDbEntity
  8
RACCORDO
100
AcDbLine
 62
7
  6
CONTINUOUS
 10
10.7123168641
 20
-13.4880238375
 11
10.7123168641
 21
-22.0491399135
  0
LINE
  5
549
100
AcDbEntity
  8
DRAFT
100
AcDbLine
 62
7
  6
CONTINUOUS
 10
10.7123168641
 20
3.8006312344
 11
10.7123168641
 21
12.8892863063
  0
LINE
  5
54A
100
AcDbEntity
  8
RACCORDO
100
AcDbLine
 62
7
  6
CONTINUOUS
 10
10.7123168641
 20
12.8892863063
 11
10.7123168641
 21
21.4504023823
  0
LWPOLYLINE
  5
54B
100
AcDbEntity
  8
RACCORDO
100
AcDbPolyline
 62
7
  6
CONTINUOUS
 90
52
 70
0
 10
9.5398712883
 20
-20.8500258819
 10
9.5397674164
 20
-20.8561515458
 10
9.5394747368
 20
-20.8622720499
 10
9.5389934668
 20
-20.8683815988
 10
9.5383239957
 20
-20.8744744146
 10
9.5374669019
 20
-20.8805447126
 10
9.5364229584
 20
-20.8865867072
 10
9.5351930992
 20
-20.8925946678
 10
9.5337784344
 20
-20.8985628922
 10
9.5321802774
 20
-20.9044856839
 10
9.5304000936
 20
-20.9103574193
 10
9.5284395213
 20
-20.9161725197
 10
9.5263004037
 20
-20.9219254283
 10
9.5239847258
 20
-20.9276106784
 10
9.5214946405
 20
-20.9332228638
 10
9.518832506
 20
-20.9387566165
 10
9.5160008104
 20
-20.9442066749
 10
9.513002203
 20
-20.9495678537
 10
9.5098395372
 20
-20.9548350212
 10
9.5065157826
 20
-20.9600031681
 10
9.5030340627
 20
-20.9650673756
 10
9.4993977016
 20
-20.9700227942
 10
9.4956101254
 20
-20.9748647108
 10
9.4916749039
 20
-20.9795885173
 10
9.487595804
 20
-20.9841896897
 10
9.4833766778
 20
-20.9886638532
 10
9.4790215109
 20
-20.993006751
 10
9.4745344795
 20
-20.9972142257
 10
9.4699198284
 20
-21.0012822794
 10
9.4651819238
 20
-21.0052070449
 10
9.4603253142
 20
-21.0089847679
 10
9.4553546001
 20
-21.0126118636
 10
9.4502744895
 20
-21.0160848882
 10
9.4450898632
 20
-21.0194005246
 10
9.4398056362
 20
-21.0225556323
 10
9.4344268171
 20
-21.0255472219
 10
9.4289585752
 20
-21.0283724428
 10
9.423406097
 20
-21.0310286266
 10
9.4177746467
 20
-21.0335132643
 10
9.4120696359
 20
-21.0358239972
 10
9.406296476
 20
-21.0379586526
 10
9.4004606407
 20
-21.0399152235
 10
9.394567735
 20
-21.0416918637
 10
9.3886233479
 20
-21.0432869145
 10
9.3826331135
 20
-21.0446988884
 10
9.3766027803
 20
-21.0459264672
 10
9.3705424148
 20
-21.0469678446
 10
9.3644534494
 20
-21.0478230086
 10
9.3583285618
 20
-21.0484924041
 10
9.352169066
 20
-21.0489744959
 10
9.3459850949
 20
-21.0492671043
 10
9.3397825198
 20
-21.0493687656
  0
LWPOLYLINE
  5
54C
100
AcDbEntity
  8
RACCORDO
100
AcDbPolyline
 62
253
  6
CONTINUOUS
 90
46
 70
0
 10
9.4808868995
 20
-20.4351106516
 10
9.4807508311
 20
-20.4420226836
 10
9.4803722982
 20
-20.4489278767
 10
9.4797515973
 20
-20.4558178442
 10
9.478889254
 20
-20.4626846669
 10
9.4777861873
 20
-20.4695195234
 10
9.4764438701
 20
-20.4763127246
 10
9.4748640198
 20
-20.4830556062
 10
9.4730484657
 20
-20.4897403838
 10
9.4709994393
 20
-20.4963588044
 10
9.4687194464
 20
-20.5029027741
 10
9.4662112398
 20
-20.5093643922
 10
9.4634778523
 20
-20.5157358333
 10
9.4605225854
 20
-20.5220093827
 10
9.4573490373
 20
-20.5281773836
 10
9.4539610942
 20
-20.5342322781
 10
9.4503628911
 20
-20.5401666822
 10
9.4465587866
 20
-20.545973413
 10
9.4425533893
 20
-20.5516454358
 10
9.4383515569
 20
-20.5571758678
 10
9.4339584021
 20
-20.5625579766
 10
9.4293792723
 20
-20.5677852097
 10
9.4246197368
 20
-20.5728512105
 10
9.4196855753
 20
-20.5777498279
 10
9.4145827803
 20
-20.5824751122
 10
9.4093175509
 20
-20.5870213226
 10
9.4038962867
 20
-20.5913829327
 10
9.3983255776
 20
-20.5955546405
 10
9.3926121938
 20
-20.599531376
 10
9.3867630774
 20
-20.6033083072
 10
9.3807853362
 20
-20.6068808442
 10
9.374686234
 20
-20.6102446459
 10
9.3684731828
 20
-20.6133956243
 10
9.3621537329
 20
-20.61632995
 10
9.3557355636
 20
-20.6190440573
 10
9.3492264745
 20
-20.6215346479
 10
9.3426343762
 20
-20.6237986949
 10
9.3359672794
 20
-20.625833447
 10
9.3292332862
 20
-20.6276364317
 10
9.3224405807
 20
-20.6292054578
 10
9.3155974184
 20
-20.6305386186
 10
9.3087121142
 20
-20.6316342944
 10
9.3017930339
 20
-20.6324911541
 10
9.2948485853
 20
-20.6331081564
 10
9.2878872076
 20
-20.6334845514
 10
9.2809173604
 20
-20.6336198819
  0
LINE
  5
54D
100
AcDbEntity
  8
0
100
AcDbLine
 62
7
  6
CONTINUOUS
 10
1.8789834195
 20
-15.9749006774
 11
1.8123166257
 21
-16.0770283487
  0
LINE
  5
54E
100
AcDbEntity
  8
0
100
AcDbLine
 62
7
  6
CONTINUOUS
 10
1.9123166257
 20
-16.2131985571
 11
2.0123166257
 21
-16.0770283487
  0
LINE
  5
54F
100
AcDbEntity
  8
0
100
AcDbLine
 62
7
  6
CONTINUOUS
 10
2.5456502133
 20
-14.7493687656
 11
2.3456502133
 21
-14.9876666095
  0
LINE
  5
550
100
AcDbEntity
  8
0
100
AcDbLine
 62
7
  6
CONTINUOUS
 10
2.3456502133
 20
-15.260007098
 11
2.5456502133
 21
-15.0217091587
  0
LINE
  5
551
100
AcDbEntity
  8
0
100
AcDbLine
 62
7
  6
CONTINUOUS
 10
-1.0876831836
 20
-16.2131985571
 11
-0.9876831836
 21
-16.1110708978
  0
LINE
  5
552
100
AcDbEntity
  8
0
100
AcDbLine
 62
7
  6
CONTINUOUS
 10
-3.2543499059
 20
-15.0217091587
 11
-3.1543499059
 21
-14.9536240604
  0
LINE
  5
553
100
AcDbEntity
  8
0
100
AcDbLine
 62
7
  6
CONTINUOUS
 10
-1.7210165805
 20
-15.0217091587
 11
-1.6210165805
 21
-14.9536240604
  0
LINE
  5
554
100
AcDbEntity
  8
0
100
AcDbLine
 62
7
  6
CONTINUOUS
 10
-1.6543499774
 20
-14.7834113147
 11
-1.8210165805
 21
-14.8855389621
  0
LINE
  5
555
100
AcDbEntity
  8
0
100
AcDbLine
 62
7
  6
CONTINUOUS
 10
-3.1876832551
 20
-14.7834113147
 11
-3.3210165805
 21
-14.851496413
  0
LINE
  5
556
100
AcDbEntity
  8
0
100
AcDbLine
 62
7
  6
CONTINUOUS
 10
-2.6876828975
 20
14.8655248616
 11
-2.5210164851
 21
14.7633972142
  0
LINE
  5
557
100
AcDbEntity
  8
0
100
AcDbLine
 62
7
  6
CONTINUOUS
 10
-2.4876828975
 20
14.9336099598
 11
-2.5876828975
 21
15.0016950581
  0
LINE
  5
558
100
AcDbEntity
  8
0
100
AcDbLine
 62
7
  6
CONTINUOUS
 10
0.2123169118
 20
14.3889290783
 11
0.3123169118
 21
14.2868014309
  0
LINE
  5
559
100
AcDbEntity
  8
0
100
AcDbLine
 62
7
  6
CONTINUOUS
 10
1.5789836102
 20
14.3889290783
 11
1.7123170071
 21
14.2527588818
  0
LINE
  5
55A
100
AcDbEntity
  8
0
100
AcDbLine
 62
7
  6
CONTINUOUS
 10
1.1123166257
 20
-15.6344751384
 11
1.2456502133
 21
-15.532347491
  0
LINE
  5
55B
100
AcDbEntity
  8
0
100
AcDbLine
 62
7
  6
CONTINUOUS
 10
-1.1876831836
 20
-16.0770283487
 11
-1.2876831836
 21
-16.1451134469
  0
LINE
  5
55C
100
AcDbEntity
  8
0
100
AcDbLine
 62
7
  6
CONTINUOUS
 10
-1.2543499774
 20
-16.3153262135
 11
-1.0876831836
 21
-16.2131985571
  0
LINE
  5
55D
100
AcDbEntity
  8
0
100
AcDbLine
 62
7
  6
CONTINUOUS
 10
10.468519173
 20
12.8690436375
 11
10.7123168641
 21
12.8892863063
  0
LINE
  5
55E
100
AcDbEntity
  8
RACCORDO
100
AcDbLine
 62
7
  6
CONTINUOUS
 10
-10.2285490967
 20
12.9367251747
 11
-10.2334332794
 21
12.9366127108
  0
LINE
  5
55F
100
AcDbEntity
  8
RACCORDO
100
AcDbLine
 62
7
  6
CONTINUOUS
 10
-10.2195692097
 20
12.9368880377
 11
-10.2285490967
 21
12.9367251747
  0
LINE
  5
560
100
AcDbEntity
  8
RACCORDO
100
AcDbLine
 62
7
  6
CONTINUOUS
 10
-10.2004066725
 20
12.9371396257
 11
-10.2195692097
 21
12.9368880377
  0
LINE
  5
561
100
AcDbEntity
  8
DRAFT
100
AcDbLine
 62
7
  6
CONTINUOUS
 10
-10.3376831359
 20
12.8635733743
 11
-9.7376831359
 21
12.868809495
  0
LINE
  5
562
100
AcDbEntity
  8
RACCORDO
100
AcDbLine
 62
7
  6
CONTINUOUS
 10
-10.1604899828
 20
12.9374705125
 11
-10.2004066725
 21
12.9371396257
  0
LINE
  5
563
100
AcDbEntity
  8
DRAFT
100
AcDbLine
 62
7
  6
CONTINUOUS
 10
9.5623168641
 20
12.8775050348
 11
8.9623168641
 21
12.8744819591
  0
LINE
  5
564
100
AcDbEntity
  8
RACCORDO
100
AcDbLine
 62
7
  6
CONTINUOUS
 10
-10.0783951856
 20
12.937770993
 11
-10.1604899828
 21
12.9374705125
  0
LINE
  5
565
100
AcDbEntity
  8
RACCORDO
100
AcDbLine
 62
7
  6
CONTINUOUS
 10
-10.0441085755
 20
12.9377968783
 11
-10.0783951856
 21
12.937770993
  0
LINE
  5
566
100
AcDbEntity
  8
0
100
AcDbLine
 62
7
  6
CONTINUOUS
 10
-10.5477201181
 20
12.8635733743
 11
-10.3376831359
 21
12.8635733743
  0
LINE
  5
567
100
AcDbEntity
  8
0
100
AcDbLine
 62
7
  6
CONTINUOUS
 10
9.5623168641
 20
12.8635733743
 11
9.7723538463
 21
12.8635733743
  0
LINE
  5
568
100
AcDbEntity
  8
DRAFT
100
AcDbLine
 62
7
  6
CONTINUOUS
 10
10.7123168641
 20
12.8892863063
 11
9.5623168641
 21
12.8892863063
  0
LINE
  5
569
100
AcDbEntity
  8
DRAFT
100
AcDbLine
 62
7
  6
CONTINUOUS
 10
-10.3376831359
 20
12.8892863063
 11
-11.4876831359
 21
12.8892863063
  0
LINE
  5
56A
100
AcDbEntity
  8
RACCORDO
100
AcDbLine
 62
7
  6
CONTINUOUS
 10
9.3615627483
 20
12.9375972599
 11
9.2687423037
 21
12.9377968783
  0
LINE
  5
56B
100
AcDbEntity
  8
DRAFT
100
AcDbLine
 62
7
  6
CONTINUOUS
 10
-9.7376831359
 20
12.8744819591
 11
-10.3376831359
 21
12.8775050348
  0
LINE
  5
56C
100
AcDbEntity
  8
RACCORDO
100
AcDbLine
 62
7
  6
CONTINUOUS
 10
9.411310897
 20
12.9372749199
 11
9.3615627483
 21
12.9375972599
  0
LINE
  5
56D
100
AcDbEntity
  8
DRAFT
100
AcDbLine
 62
7
  6
CONTINUOUS
 10
8.9623168641
 20
12.868809495
 11
9.5623168641
 21
12.8635733743
  0
LINE
  5
56E
100
AcDbEntity
  8
RACCORDO
100
AcDbLine
 62
7
  6
CONTINUOUS
 10
9.4371437853
 20
12.9369920371
 11
9.411310897
 21
12.9372749199
  0
LINE
  5
56F
100
AcDbEntity
  8
RACCORDO
100
AcDbLine
 62
7
  6
CONTINUOUS
 10
9.4504105583
 20
12.9367802261
 11
9.4371437853
 21
12.9369920371
  0
LWPOLYLINE
  5
570
100
AcDbEntity
  8
RACCORDO
100
AcDbPolyline
 62
7
  6
CONTINUOUS
 90
3
 70
0
 10
9.4580670075
 20
12.9366127108
 10
9.4557357399
 20
12.9366693223
 10
9.4504105583
 20
12.9367802261
  0
LINE
  5
571
100
AcDbEntity
  8
0
100
AcDbLine
 62
7
  6
CONTINUOUS
 10
-11.4876831359
 20
12.8892863063
 11
-11.2438854449
 21
12.8690436375
  0
LINE
  5
572
100
AcDbEntity
  8
0
100
AcDbLine
 62
7
  6
CONTINUOUS
 10
0.3123169118
 20
14.2868014309
 11
0.4789837056
 21
14.1846737835
  0
LINE
  5
573
100
AcDbEntity
  8
0
100
AcDbLine
 62
7
  6
CONTINUOUS
 10
-1.8210164851
 20
15.614461026
 11
-1.9876828975
 21
15.7165886823
  0
LINE
  5
574
100
AcDbEntity
  8
0
100
AcDbLine
 62
7
  6
CONTINUOUS
 10
-2.0210164851
 20
15.5463759158
 11
-1.9210164851
 21
15.4782908175
  0
LINE
  5
575
100
AcDbEntity
  8
0
100
AcDbLine
 62
7
  6
CONTINUOUS
 10
0.5123169118
 20
14.3548865292
 11
0.4123169118
 21
14.4229716275
  0
LINE
  5
576
100
AcDbEntity
  8
0
100
AcDbLine
 62
7
  6
CONTINUOUS
 10
1.9123170071
 20
14.3548865292
 11
1.8123170071
 21
14.4229716275
  0
LINE
  5
577
100
AcDbEntity
  8
0
100
AcDbLine
 62
7
  6
CONTINUOUS
 10
1.1456503087
 20
15.5123333666
 11
1.0456503087
 21
15.614461026
  0
LINE
  5
578
100
AcDbEntity
  8
0
100
AcDbLine
 62
7
  6
CONTINUOUS
 10
1.8123166257
 20
-16.0770283487
 11
1.7123166257
 21
-16.1451134469
  0
LINE
  5
579
100
AcDbEntity
  8
0
100
AcDbLine
 62
7
  6
CONTINUOUS
 10
1.2123166257
 20
-15.3621347454
 11
1.0456502133
 21
-15.4642623928
  0
LINE
  5
57A
100
AcDbEntity
  8
0
100
AcDbLine
 62
7
  6
CONTINUOUS
 10
1.7456502133
 20
-16.3153262135
 11
1.9123166257
 21
-16.2131985571
  0
LINE
  5
57B
100
AcDbEntity
  8
0
100
AcDbLine
 62
7
  6
CONTINUOUS
 10
2.3789836341
 20
14.3548865292
 11
2.2123169595
 21
14.3208439801
  0
LINE
  5
57C
100
AcDbEntity
  8
0
100
AcDbLine
 62
7
  6
CONTINUOUS
 10
0.8456503087
 20
14.3548865292
 11
0.6789837056
 21
14.3208439801
  0
LINE
  5
57D
100
AcDbEntity
  8
0
100
AcDbLine
 62
7
  6
CONTINUOUS
 10
-2.1543496913
 20
14.729354665
 11
-1.9876828975
 21
14.7633972142
  0
LINE
  5
57E
100
AcDbEntity
  8
0
100
AcDbLine
 62
7
  6
CONTINUOUS
 10
0.6789837056
 20
14.1506312344
 11
0.8789837056
 21
14.1846737835
  0
LINE
  5
57F
100
AcDbEntity
  8
0
100
AcDbLine
 62
7
  6
CONTINUOUS
 10
2.1789836579
 20
14.1506312344
 11
2.4123169833
 21
14.1846737835
  0
LWPOLYLINE
  5
580
100
AcDbEntity
  8
RACCORDO
100
AcDbPolyline
 62
7
  6
CONTINUOUS
 90
8
 70
0
 10
-10.2374366635
 20
12.9364970571
 10
-10.2390949027
 20
12.9364383636
 10
-10.2405186193
 20
12.93637916
 10
-10.2417097065
 20
12.9363194694
 10
-10.2426628629
 20
12.9362596327
 10
-10.243376321
 20
12.9361997638
 10
-10.2438518481
 20
12.936139749
 10
-10.2440894442
 20
12.9360795882
  0
LINE
  5
581
100
AcDbEntity
  8
RACCORDO
100
AcDbLine
 62
7
  6
CONTINUOUS
 10
-10.2334332794
 20
12.9366127108
 11
-10.2374366635
 21
12.9364970571
  0
LINE
  5
582
100
AcDbEntity
  8
0
100
AcDbLine
 62
7
  6
CONTINUOUS
 10
-3.5210164851
 20
14.1506312344
 11
-3.3210164851
 21
14.1506312344
  0
LINE
  5
583
100
AcDbEntity
  8
0
100
AcDbLine
 62
7
  6
CONTINUOUS
 10
-2.7876828975
 20
14.1506312344
 11
-1.6543496913
 21
14.1506312344
  0
LINE
  5
584
100
AcDbEntity
  8
0
100
AcDbLine
 62
7
  6
CONTINUOUS
 10
-1.3876828975
 20
14.1506312344
 11
-0.1876830882
 21
14.1506312344
  0
LINE
  5
585
100
AcDbEntity
  8
0
100
AcDbLine
 62
7
  6
CONTINUOUS
 10
2.0456503087
 20
14.1506312344
 11
2.1789836579
 21
14.1506312344
  0
LINE
  5
586
100
AcDbEntity
  8
0
100
AcDbLine
 62
7
  6
CONTINUOUS
 10
2.2123169595
 20
14.3208439801
 11
2.0789836579
 21
14.3208439801
  0
LINE
  5
587
100
AcDbEntity
  8
0
100
AcDbLine
 62
7
  6
CONTINUOUS
 10
-0.1876830882
 20
14.3208439801
 11
-1.1876828975
 21
14.3208439801
  0
LINE
  5
588
100
AcDbEntity
  8
0
100
AcDbLine
 62
7
  6
CONTINUOUS
 10
-1.8210164851
 20
14.3208439801
 11
-2.7876828975
 21
14.3208439801
  0
LINE
  5
589
100
AcDbEntity
  8
0
100
AcDbLine
 62
7
  6
CONTINUOUS
 10
2.7123169744
 20
14.5250992749
 11
2.5456503087
 21
14.5250992749
  0
LINE
  5
58A
100
AcDbEntity
  8
0
100
AcDbLine
 62
7
  6
CONTINUOUS
 10
-2.3543496913
 20
14.729354665
 11
-2.1543496913
 21
14.729354665
  0
LINE
  5
58B
100
AcDbEntity
  8
0
100
AcDbLine
 62
7
  6
CONTINUOUS
 10
0.4789837056
 20
14.1846737835
 11
0.6789837056
 21
14.1506312344
  0
LINE
  5
58C
100
AcDbEntity
  8
0
100
AcDbLine
 62
7
  6
CONTINUOUS
 10
1.8456503087
 20
14.1846737835
 11
2.0456503087
 21
14.1506312344
  0
LINE
  5
58D
100
AcDbEntity
  8
0
100
AcDbLine
 62
7
  6
CONTINUOUS
 10
-2.5210164851
 20
14.7633972142
 11
-2.3543496913
 21
14.729354665
  0
LINE
  5
58E
100
AcDbEntity
  8
0
100
AcDbLine
 62
7
  6
CONTINUOUS
 10
0.6789837056
 20
14.3208439801
 11
0.5123169118
 21
14.3548865292
  0
LINE
  5
58F
100
AcDbEntity
  8
0
100
AcDbLine
 62
7
  6
CONTINUOUS
 10
2.0789836579
 20
14.3208439801
 11
1.9123170071
 21
14.3548865292
  0
LINE
  5
590
100
AcDbEntity
  8
0
100
AcDbLine
 62
7
  6
CONTINUOUS
 10
-2.3543496913
 20
14.8995674107
 11
-2.4876828975
 21
14.9336099598
  0
LINE
  5
591
100
AcDbEntity
  8
0
100
AcDbLine
 62
7
  6
CONTINUOUS
 10
-2.1543496913
 20
15.5804184649
 11
-2.0210164851
 21
15.5463759158
  0
LWPOLYLINE
  5
592
100
AcDbEntity
  8
0
100
AcDbPolyline
 62
7
  6
CONTINUOUS
 90
108
 70
0
 10
-3.2795511694
 20
16.870826067
 10
-3.2880790725
 20
16.8740245755
 10
-3.2968717469
 20
16.8777154889
 10
-3.3059291929
 20
16.8818988007
 10
-3.3152493126
 20
16.8865500445
 10
-3.3248342038
 20
16.891693671
 10
-3.3346901597
 20
16.8974030472
 10
-3.3448976749
 20
16.9037313462
 10
-3.3553762548
 20
16.9106253693
 10
-3.3658907097
 20
16.9179989234
 10
-3.3764620295
 20
16.9258837083
 10
-3.3870692243
 20
16.9342479969
 10
-3.397414134
 20
16.9429104633
 10
-3.4074010259
 20
16.9518139272
 10
-3.4171256327
 20
16.9610155508
 10
-3.426576993
 20
16.9705055264
 10
-3.4357675151
 20
16.9802985138
 10
-3.4446847906
 20
16.9903798324
 10
-3.4532806333
 20
17.000695666
 10
-3.4615434929
 20
17.0112343275
 10
-3.4694849198
 20
17.022007486
 10
-3.4770913785
 20
17.032996363
 10
-3.4843565747
 20
17.0441905829
 10
-3.4912868028
 20
17.0556005035
 10
-3.4978874101
 20
17.0672384455
 10
-3.5041644634
 20
17.0791100568
 10
-3.5101118958
 20
17.091209669
 10
-3.5157168537
 20
17.1035326285
 10
-3.5209753211
 20
17.1160642143
 10
-3.525891314
 20
17.1288191266
 10
-3.5304640268
 20
17.1418368418
 10
-3.5346992074
 20
17.1551208274
 10
-3.5385911079
 20
17.1686675893
 10
-3.5421216785
 20
17.1825061568
 10
-3.5452933771
 20
17.1966260407
 10
-3.5481037459
 20
17.2110376993
 10
-3.5505273621
 20
17.2258015775
 10
-3.552568001
 20
17.2409457821
 10
-3.5542218875
 20
17.2564421647
 10
-3.555452273
 20
17.2722667854
 10
-3.5562536062
 20
17.2886150773
 10
-3.5566314384
 20
17.3052915582
 10
-3.5565656758
 20
17.3216859546
 10
-3.556038199
 20
17.3375974669
 10
-3.5550671274
 20
17.3532269364
 10
-3.5536867252
 20
17.3685665894
 10
-3.5518996967
 20
17.383601713
 10
-3.5497033376
 20
17.3983470533
 10
-3.5471237992
 20
17.4128390237
 10
-3.544153603
 20
17.4271101728
 10
-3.5408002275
 20
17.4411279779
 10
-3.5371122593
 20
17.4548312463
 10
-3.533047201
 20
17.4682907018
 10
-3.52864755
 20
17.4814356503
 10
-3.5240893847
 20
17.4939927886
 10
-3.5193901997
 20
17.5058704175
 10
-3.5145325004
 20
17.5171602941
 10
-3.5096398822
 20
17.5278643115
 10
-3.5047367957
 20
17.5379465603
 10
-3.4997987903
 20
17.5474429978
 10
-3.4948761089
 20
17.5564633113
 10
-3.4899743197
 20
17.5650160304
 10
-3.4850878546
 20
17.5730926578
 10
-3.4802502527
 20
17.580777332
 10
-3.4754662993
 20
17.5880755383
 10
-3.4707312092
 20
17.5949818141
 10
-3.4660641661
 20
17.6015638713
 10
-3.4614682302
 20
17.6078263656
 10
-3.4569403412
 20
17.6137646573
 10
-3.4524905016
 20
17.619432511
 10
-3.4481207056
 20
17.6248336175
 10
-3.4438289591
 20
17.6299642977
 10
-3.4396192818
 20
17.634867259
 10
-3.4354927287
 20
17.6395452069
 10
-3.4314482448
 20
17.6439954444
 10
-3.4274866856
 20
17.6482525729
 10
-3.4236087191
 20
17.6523186188
 10
-3.4198136771
 20
17.6561915621
 10
-3.416100411
 20
17.6598999335
 10
-3.4124693715
 20
17.6634451597
 10
-3.4089201079
 20
17.6668258187
 10
-3.4054501189
 20
17.670066168
 10
-3.4020595405
 20
17.6731674836
 10
-3.3987482369
 20
17.6761284929
 10
-3.3955132986
 20
17.67896963
 10
-3.3923555446
 20
17.6816923932
 10
-3.3892741559
 20
17.6842952867
 10
-3.3862637667
 20
17.6867942525
 10
-3.383324988
 20
17.689191216
 10
-3.3804572086
 20
17.6914842538
 10
-3.3776532291
 20
17.6936835338
 10
-3.3749118009
 20
17.6957897113
 10
-3.3722341725
 20
17.6978021326
 10
-3.3696168896
 20
17.6997290028
 10
-3.3670576347
 20
17.701570051
 10
-3.3645587253
 20
17.7033255493
 10
-3.3621236593
 20
17.705004518
 10
-3.3597532616
 20
17.7066063406
 10
-3.3574467073
 20
17.7081316345
 10
-3.3552050196
 20
17.7095912705
 10
-3.3530322521
 20
17.7109837388
 10
-3.3509243511
 20
17.7123105498
 10
-3.3488701795
 20
17.7135871041
 10
-3.3468716524
 20
17.7148132961
 10
-3.3449268546
 20
17.7159892318
 10
-3.3430189034
 20
17.7171306284
 10
-3.3411482997
 20
17.7182384836
 10
-3.3393145427
 20
17.7193118
  0
LINE
  5
593
100
AcDbEntity
  8
0
100
AcDbLine
 62
7
  6
CONTINUOUS
 10
1.7123170071
 20
14.2527588818
 11
1.8456503087
 21
14.1846737835
  0
LINE
  5
594
100
AcDbEntity
  8
0
100
AcDbLine
 62
7
  6
CONTINUOUS
 10
1.0456503087
 20
15.614461026
 11
0.8789837056
 21
15.7165886823
  0
LINE
  5
595
100
AcDbEntity
  8
0
100
AcDbLine
 62
7
  6
CONTINUOUS
 10
0.8456503087
 20
15.5463759158
 11
0.9456503087
 21
15.4782908175
  0
LWPOLYLINE
  5
596
100
AcDbEntity
  8
RACCORDO
100
AcDbPolyline
 62
253
  6
CONTINUOUS
 90
38
 70
0
 10
9.4808868995
 20
19.8363731204
 10
9.4806214516
 20
19.8374201616
 10
9.4800833727
 20
19.8384458731
 10
9.4792742647
 20
19.8394591691
 10
9.478193563
 20
19.8404788152
 10
9.4768413646
 20
19.8415022013
 10
9.4752217106
 20
19.8425073177
 10
9.4733372996
 20
19.8435050877
 10
9.4711883021
 20
19.8445039363
 10
9.4687790861
 20
19.845480072
 10
9.4661138513
 20
19.8464439502
 10
9.463194722
 20
19.8474056727
 10
9.4600256398
 20
19.8483408652
 10
9.4566122814
 20
19.849259274
 10
9.4529589403
 20
19.8501717931
 10
9.4490690446
 20
19.8510545076
 10
9.4449495954
 20
19.8519163704
 10
9.4406068887
 20
19.8527683208
 10
9.4360440737
 20
19.8535876197
 10
9.4312692988
 20
19.8543824641
 10
9.4262905317
 20
19.8551633385
 10
9.4211109427
 20
19.8559090426
 10
9.415739665
 20
19.856627135
 10
9.4101859882
 20
19.8573273919
 10
9.4044533389
 20
19.8579902212
 10
9.3985516954
 20
19.8586227082
 10
9.3924913658
 20
19.8592338611
 10
9.3862761616
 20
19.8598055556
 10
9.379916787
 20
19.8603445957
 10
9.373424326
 20
19.8608592932
 10
9.3668030021
 20
19.861332716
 10
9.3600641393
 20
19.8617715943
 10
9.3532194088
 20
19.8621836929
 10
9.346273393
 20
19.8625529174
 10
9.3392379362
 20
19.8628861394
 10
9.3321251484
 20
19.863190769
 10
9.3249398619
 20
19.8634511504
 10
9.3104010152
 20
19.8638681339
  0
LINE
  5
597
100
AcDbEntity
  8
RACCORDO
100
AcDbLine
 62
7
  6
CONTINUOUS
 10
9.4687231724
 20
-13.5348171193
 11
9.5623168641
 21
-13.4880238375
  0
LINE
  5
598
100
AcDbEntity
  8
0
100
AcDbLine
 62
7
  6
CONTINUOUS
 10
-2.0210164851
 20
14.9336099598
 11
-2.1543496913
 21
14.8995674107
  0
LINE
  5
599
100
AcDbEntity
  8
0
100
AcDbLine
 62
7
  6
CONTINUOUS
 10
-2.4876828975
 20
15.5463759158
 11
-2.3543496913
 21
15.5804184649
  0
LINE
  5
59A
100
AcDbEntity
  8
0
100
AcDbLine
 62
7
  6
CONTINUOUS
 10
0.5123169118
 20
15.5463759158
 11
0.6789837056
 21
15.5804184649
  0
LINE
  5
59B
100
AcDbEntity
  8
0
100
AcDbLine
 62
7
  6
CONTINUOUS
 10
-2.3543496913
 20
15.7506312344
 11
-2.5210164851
 21
15.7165886823
  0
LINE
  5
59C
100
AcDbEntity
  8
0
100
AcDbLine
 62
7
  6
CONTINUOUS
 10
0.6789837056
 20
15.7506312344
 11
0.4789837056
 21
15.7165886823
  0
LINE
  5
59D
100
AcDbEntity
  8
0
100
AcDbLine
 62
7
  6
CONTINUOUS
 10
-2.1543496913
 20
14.8995674107
 11
-2.3543496913
 21
14.8995674107
  0
LINE
  5
59E
100
AcDbEntity
  8
0
100
AcDbLine
 62
7
  6
CONTINUOUS
 10
-1.6543496913
 20
15.0357376072
 11
-1.8876828975
 21
15.0357376072
  0
LINE
  5
59F
100
AcDbEntity
  8
0
100
AcDbLine
 62
7
  6
CONTINUOUS
 10
-1.8543496913
 20
15.3421205971
 11
-1.6543496913
 21
15.3421205971
  0
LINE
  5
5A0
100
AcDbEntity
  8
0
100
AcDbLine
 62
7
  6
CONTINUOUS
 10
-2.3543496913
 20
15.5804184649
 11
-2.1543496913
 21
15.5804184649
  0
LINE
  5
5A1
100
AcDbEntity
  8
0
100
AcDbLine
 62
7
  6
CONTINUOUS
 10
1.5456503087
 20
15.5804184649
 11
2.4789836341
 21
15.5804184649
  0
LINE
  5
5A2
100
AcDbEntity
  8
0
100
AcDbLine
 62
7
  6
CONTINUOUS
 10
2.7456503087
 20
15.7506312344
 11
1.5456503087
 21
15.7506312344
  0
LINE
  5
5A3
100
AcDbEntity
  8
0
100
AcDbLine
 62
7
  6
CONTINUOUS
 10
-0.5210164851
 20
15.7506312344
 11
-0.7210164851
 21
15.7506312344
  0
LINE
  5
5A4
100
AcDbEntity
  8
0
100
AcDbLine
 62
7
  6
CONTINUOUS
 10
-2.1543496913
 20
15.7506312344
 11
-2.3543496913
 21
15.7506312344
  0
LINE
  5
5A5
100
AcDbEntity
  8
0
100
AcDbLine
 62
7
  6
CONTINUOUS
 10
-3.3210164851
 20
15.7506312344
 11
-3.5210164851
 21
15.7506312344
  0
LINE
  5
5A6
100
AcDbEntity
  8
0
100
AcDbLine
 62
7
  6
CONTINUOUS
 10
0.8789837056
 20
15.7165886823
 11
0.6789837056
 21
15.7506312344
  0
LINE
  5
5A7
100
AcDbEntity
  8
0
100
AcDbLine
 62
7
  6
CONTINUOUS
 10
-1.9876828975
 20
15.7165886823
 11
-2.1543496913
 21
15.7506312344
  0
LINE
  5
5A8
100
AcDbEntity
  8
0
100
AcDbLine
 62
7
  6
CONTINUOUS
 10
0.6789837056
 20
15.5804184649
 11
0.8456503087
 21
15.5463759158
  0
LWPOLYLINE
  5
5A9
100
AcDbEntity
  8
RACCORDO
100
AcDbPolyline
 62
7
  6
CONTINUOUS
 90
9
 70
0
 10
9.4687231724
 20
12.9360795882
 10
9.4684855763
 20
12.936139749
 10
9.4680100491
 20
12.9361997638
 10
9.467296591
 20
12.9362596327
 10
9.4663434347
 20
12.9363194694
 10
9.4651523474
 20
12.93637916
 10
9.4637286309
 20
12.9364383636
 10
9.4620703917
 20
12.9364970571
 10
9.4580670075
 20
12.9366127108
  0
LWPOLYLINE
  5
5AA
100
AcDbEntity
  8
0
100
AcDbPolyline
 62
7
  6
CONTINUOUS
 90
40
 70
0
 10
-3.3161353187
 20
17.7394510428
 10
-3.3228156157
 20
17.7422691836
 10
-3.3293832491
 20
17.7453040956
 10
-3.3358382187
 20
17.748555776
 10
-3.3421849945
 20
17.7520337823
 10
-3.3484191065
 20
17.7557285511
 10
-3.3545271454
 20
17.7596113993
 10
-3.3605066483
 20
17.7636799851
 10
-3.366360078
 20
17.7679366441
 10
-3.3720814138
 20
17.7723597101
 10
-3.3776589152
 20
17.776934487
 10
-3.3831043226
 20
17.781675665
 10
-3.3884468372
 20
17.7866056566
 10
-3.3936754499
 20
17.7917017268
 10
-3.3988011698
 20
17.7969866033
 10
-3.403886225
 20
17.8025508903
 10
-3.4089374825
 20
17.8083898071
 10
-3.4139480753
 20
17.8145081216
 10
-3.4189596303
 20
17.8210107561
 10
-3.4239811074
 20
17.8278978581
 10
-3.4290035468
 20
17.8351692595
 10
-3.4340416958
 20
17.8429294024
 10
-3.439108404
 20
17.8511984744
 10
-3.4441908219
 20
17.8599562559
 10
-3.449265148
 20
17.8692465723
 10
-3.4543368573
 20
17.8790851427
 10
-3.4594004748
 20
17.8894562065
 10
-3.4644157736
 20
17.9003563663
 10
-3.4693761046
 20
17.911780966
 10
-3.4742881168
 20
17.9237346137
 10
-3.4791315305
 20
17.9362278068
 10
-3.4838947209
 20
17.9492639489
 10
-3.4885893126
 20
17.9628395799
 10
-3.4932298999
 20
17.9769548989
 10
-3.4977949512
 20
17.9916121203
 10
-3.5023059981
 20
18.0068089657
 10
-3.5068422288
 20
18.0225388932
 10
-3.5114300396
 20
18.0387996989
 10
-3.5160430344
 20
18.0555935161
 10
-3.5374426409
 20
18.1350282831
  0
LINE
  5
5AB
100
AcDbEntity
  8
RACCORDO
100
AcDbLine
 62
7
  6
CONTINUOUS
 10
9.4687231724
 20
12.9360795882
 11
9.5623168641
 21
12.8892863063
  0
LWPOLYLINE
  5
5AC
100
AcDbEntity
  8
0
100
AcDbPolyline
 62
7
  6
CONTINUOUS
 90
13
 70
0
 10
2.5639482709
 20
-18.3180493312
 10
2.5603361957
 20
-18.3201387875
 10
2.5585578777
 20
-18.3211549276
 10
2.5567794715
 20
-18.3221371795
 10
2.5549949061
 20
-18.3230939354
 10
2.5532102526
 20
-18.3240168034
 10
2.5514251754
 20
-18.3248685336
 10
2.5496371955
 20
-18.3256465862
 10
2.5478487917
 20
-18.3263535015
 10
2.546067065
 20
-18.32695965
 10
2.544294382
 20
-18.3274551553
 10
2.542528376
 20
-18.3278498942
 10
2.5407690468
 20
-18.3281438668
  0
LWPOLYLINE
  5
5AD
100
AcDbEntity
  8
0
100
AcDbPolyline
 62
7
  6
CONTINUOUS
 90
37
 70
0
 10
-2.4038897998
 20
16.8529291522
 10
-2.4422032779
 20
16.8474695822
 10
-2.4794539843
 20
16.8424600566
 10
-2.5156419191
 20
16.8379005837
 10
-2.5507642113
 20
16.8338059832
 10
-2.5848237319
 20
16.8301614495
 10
-2.6178290937
 20
16.8269225514
 10
-2.6497810491
 20
16.824093408
 10
-2.6806788458
 20
16.8216699089
 10
-2.7105288398
 20
16.819595276
 10
-2.7393302562
 20
16.8178677943
 10
-2.76708387
 20
16.8164891835
 10
-2.7937983624
 20
16.815407816
 10
-2.8194319975
 20
16.8146208252
 10
-2.8440265112
 20
16.8141310797
 10
-2.8677157923
 20
16.8138955538
 10
-2.8904452993
 20
16.8139111395
 10
-2.9122695737
 20
16.814180945
 10
-2.9334861296
 20
16.8146712693
 10
-2.9540894953
 20
16.8153717895
 10
-2.9740851425
 20
16.8162928276
 10
-2.9937870006
 20
16.8174316503
 10
-3.0132047177
 20
16.818770765
 10
-3.0323286457
 20
16.8203276626
 10
-3.0514437695
 20
16.8221520837
 10
-3.070633438
 20
16.8242368935
 10
-3.0898143023
 20
16.8265892233
 10
-3.109021301
 20
16.829280212
 10
-3.1282978585
 20
16.8323145679
 10
-3.1476005503
 20
16.8356875758
 10
-3.1668340418
 20
16.8394562379
 10
-3.1860050709
 20
16.8436271262
 10
-3.2051068997
 20
16.8481936574
 10
-3.2240239788
 20
16.853193098
 10
-3.2427177919
 20
16.8586378645
 10
-3.2612268555
 20
16.864515524
 10
-3.2795511694
 20
16.870826067
  0
LWPOLYLINE
  5
5AE
100
AcDbEntity
  8
0
100
AcDbPolyline
 62
7
  6
CONTINUOUS
 90
55
 70
0
 10
-2.9483052804
 20
17.5893030659
 10
-2.9560164322
 20
17.5890900412
 10
-2.9637479692
 20
17.5887518248
 10
-2.9714998915
 20
17.5882884165
 10
-2.9792879975
 20
17.5877050142
 10
-2.9870964887
 20
17.5869964195
 10
-2.9948779697
 20
17.5861470375
 10
-3.0026320837
 20
17.5851539817
 10
-3.0103591874
 20
17.5840201376
 10
-3.0180129563
 20
17.5827385679
 10
-3.0255829836
 20
17.5813086993
 10
-3.033079676
 20
17.5797311036
 10
-3.0404879283
 20
17.578000561
 10
-3.0477998366
 20
17.5761191007
 10
-3.0550233047
 20
17.5740846913
 10
-3.0621669396
 20
17.5718860226
 10
-3.0692336823
 20
17.5695246108
 10
-3.0762205916
 20
17.5669989367
 10
-3.0831274514
 20
17.5642931365
 10
-3.0899551347
 20
17.5614102398
 10
-3.0967027683
 20
17.5583472131
 10
-3.1033675164
 20
17.5550790974
 10
-3.1099548095
 20
17.5516068974
 10
-3.1164592171
 20
17.547929603
 10
-3.1228616108
 20
17.5440192323
 10
-3.1291819992
 20
17.5398590598
 10
-3.1354003736
 20
17.5354658034
 10
-3.1414375799
 20
17.530861646
 10
-3.1472886646
 20
17.5260317533
 10
-3.1529585811
 20
17.5209909517
 10
-3.1583830354
 20
17.5158059167
 10
-3.1635461555
 20
17.5104807187
 10
-3.1684638134
 20
17.5050112815
 10
-3.1731193311
 20
17.4994520629
 10
-3.1774722472
 20
17.4938657996
 10
-3.1815630231
 20
17.4881897519
 10
-3.1854963649
 20
17.4822901614
 10
-3.1893080417
 20
17.476140459
 10
-3.1929622845
 20
17.469767203
 10
-3.196456493
 20
17.4631163208
 10
-3.1998009782
 20
17.4561769538
 10
-3.2029854292
 20
17.4489599459
 10
-3.2059763127
 20
17.4414437763
 10
-3.2087721681
 20
17.4336277931
 10
-3.211374456
 20
17.4255126306
 10
-3.213754025
 20
17.4170786962
 10
-3.2159105155
 20
17.408336086
 10
-3.2178442872
 20
17.3992746833
 10
-3.2195272674
 20
17.3898445722
 10
-3.2209636256
 20
17.38003559
 10
-3.2221491924
 20
17.3698578722
 10
-3.2230433867
 20
17.3592919474
 10
-3.2236326816
 20
17.3483313142
 10
-3.223930604
 20
17.3369824424
 10
-3.2239371541
 20
17.3252453151
  0
LINE
  5
5AF
100
AcDbEntity
  8
0
100
AcDbLine
 62
7
  6
CONTINUOUS
 10
1.4238188641
 20
16.8329672344
 11
1.0689908641
 21
16.8329672344
  0
LINE
  5
5B0
100
AcDbEntity
  8
0
100
AcDbLine
 62
7
  6
CONTINUOUS
 10
2.9534828641
 20
16.8330692344
 11
2.5680298641
 21
16.8330692344
  0
LINE
  5
5B1
100
AcDbEntity
  8
0
100
AcDbLine
 62
7
  6
CONTINUOUS
 10
1.9100828641
 20
16.8330692344
 11
1.5554968641
 21
16.8330692344
  0
LINE
  5
5B2
100
AcDbEntity
  8
0
100
AcDbLine
 62
7
  6
CONTINUOUS
 10
0.7244888641
 20
16.8330692344
 11
0.3699538641
 21
16.8330692344
  0
LINE
  5
5B3
100
AcDbEntity
  8
0
100
AcDbLine
 62
7
  6
CONTINUOUS
 10
-0.3359551359
 20
16.8330692344
 11
-0.6870221359
 21
16.8330692344
  0
LINE
  5
5B4
100
AcDbEntity
  8
0
100
AcDbLine
 62
7
  6
CONTINUOUS
 10
-1.4348811359
 20
16.8330692344
 11
-1.7781351359
 21
16.8330692344
  0
LINE
  5
5B5
100
AcDbEntity
  8
0
100
AcDbLine
 62
7
  6
CONTINUOUS
 10
-2.7455245675
 20
17.5893030659
 11
-2.9483052804
 21
17.5893030659
  0
LINE
  5
5B6
100
AcDbEntity
  8
0
100
AcDbLine
 62
7
  6
CONTINUOUS
 10
-2.7572901319
 20
17.8676995185
 11
-2.9475404549
 21
17.8676995185
  0
LINE
  5
5B7
100
AcDbEntity
  8
0
100
AcDbLine
 62
7
  6
CONTINUOUS
 10
-1.4231671359
 20
17.9309892344
 11
-1.7628891359
 21
17.9309892344
  0
LWPOLYLINE
  5
5B8
100
AcDbEntity
  8
0
100
AcDbPolyline
 62
7
  6
CONTINUOUS
 90
25
 70
0
 10
-3.0234912146
 20
17.1126500553
 10
-3.011914677
 20
17.1113671338
 10
-3.000320655
 20
17.1102250048
 10
-2.9887091484
 20
17.109223669
 10
-2.9770765075
 20
17.108359249
 10
-2.9654263822
 20
17.1076356231
 10
-2.9537697215
 20
17.1070644255
 10
-2.9421058963
 20
17.1066458687
 10
-2.9304355358
 20
17.1063797407
 10
-2.9187714768
 20
17.1062770387
 10
-2.9071142793
 20
17.1063408334
 10
-2.8954633831
 20
17.1065680541
 10
-2.8838299452
 20
17.1069604864
 10
-2.8722175489
 20
17.1075254761
 10
-2.8606226108
 20
17.1082556767
 10
-2.8490455369
 20
17.1091308349
 10
-2.8374873529
 20
17.1101518375
 10
-2.8259470331
 20
17.1113177966
 10
-2.8144219076
 20
17.1126057971
 10
-2.8029133208
 20
17.1140153564
 10
-2.7914199283
 20
17.1155469558
 10
-2.779935027
 20
17.1171791257
 10
-2.7684563826
 20
17.1189047092
 10
-2.7569862294
 20
17.120730862
 10
-2.7455245675
 20
17.1226575834
  0
LINE
  5
5B9
100
AcDbEntity
  8
RACCORDO
100
AcDbLine
 62
7
  6
CONTINUOUS
 10
7.6551371871
 20
20.4506312344
 11
7.020051891
 21
20.3155682174
  0
LINE
  5
5BA
100
AcDbEntity
  8
DRAFT
100
AcDbLine
 62
7
  6
CONTINUOUS
 10
7.6551371871
 20
20.4506312344
 11
8.4056925371
 21
20.5206312344
  0
LINE
  5
5BB
100
AcDbEntity
  8
0
100
AcDbLine
 62
7
  6
CONTINUOUS
 10
-1.3505851359
 20
18.1935792344
 11
-1.8338021359
 21
18.1935792344
  0
LINE
  5
5BC
100
AcDbEntity
  8
0
100
AcDbLine
 62
7
  6
CONTINUOUS
 10
2.4145928641
 20
18.5329322344
 11
2.1019008641
 21
18.5329322344
  0
LINE
  5
5BD
100
AcDbEntity
  8
0
100
AcDbLine
 62
7
  6
CONTINUOUS
 10
1.4238188641
 20
18.5329322344
 11
1.0689908641
 21
18.5329322344
  0
LINE
  5
5BE
100
AcDbEntity
  8
0
100
AcDbLine
 62
7
  6
CONTINUOUS
 10
0.8779758641
 20
18.5329322344
 11
0.5385208641
 21
18.5329322344
  0
LINE
  5
5BF
100
AcDbEntity
  8
0
100
AcDbLine
 62
7
  6
CONTINUOUS
 10
0.0456928641
 20
18.5329322344
 11
-0.0040711359
 21
18.5329322344
  0
LINE
  5
5C0
100
AcDbEntity
  8
0
100
AcDbLine
 62
7
  6
CONTINUOUS
 10
-0.4988631359
 20
18.5329322344
 11
-0.8459791359
 21
18.5329322344
  0
LINE
  5
5C1
100
AcDbEntity
  8
0
100
AcDbLine
 62
7
  6
CONTINUOUS
 10
-0.9016961359
 20
18.5329322344
 11
-1.2526741359
 21
18.5329322344
  0
LINE
  5
5C2
100
AcDbEntity
  8
0
100
AcDbLine
 62
7
  6
CONTINUOUS
 10
-1.9257211359
 20
18.5329322344
 11
-2.2996951359
 21
18.5329322344
  0
LINE
  5
5C3
100
AcDbEntity
  8
0
100
AcDbLine
 62
7
  6
CONTINUOUS
 10
-2.4038897998
 20
18.5329319211
 11
-2.7572901319
 21
18.5329319211
  0
LINE
  5
5C4
100
AcDbEntity
  8
0
100
AcDbLine
 62
7
  6
CONTINUOUS
 10
-3.300660351
 20
18.5329319211
 11
-3.6419636944
 21
18.5329319211
  0
LINE
  5
5C5
100
AcDbEntity
  8
DRAFT
100
AcDbLine
 62
7
  6
CONTINUOUS
 10
-8.4305034589
 20
20.4506312344
 11
-9.1810588089
 21
20.5206312344
  0
LINE
  5
5C6
100
AcDbEntity
  8
RACCORDO
100
AcDbLine
 62
7
  6
CONTINUOUS
 10
-8.4305034589
 20
20.4506312344
 11
-7.7954181628
 21
20.3155682174
  0
LINE
  5
5C7
100
AcDbEntity
  8
RACCORDO
100
AcDbLine
 62
7
  6
CONTINUOUS
 10
-3.5448628129
 20
20.4506312344
 11
-4.179948109
 21
20.3155682174
  0
LINE
  5
5C8
100
AcDbEntity
  8
DRAFT
100
AcDbLine
 62
7
  6
CONTINUOUS
 10
-3.5448628129
 20
20.4506312344
 11
-2.7943074629
 21
20.5206312344
  0
LINE
  5
5C9
100
AcDbEntity
  8
RACCORDO
100
AcDbLine
 62
7
  6
CONTINUOUS
 10
8.4056925371
 20
21.9506312344
 11
7.020051891
 21
21.8248525641
  0
LWPOLYLINE
  5
5CA
100
AcDbEntity
  8
RACCORDO
100
AcDbPolyline
 62
253
  6
CONTINUOUS
 90
43
 70
0
 10
-10.0562836323
 20
19.8642416123
 10
-10.0636796061
 20
19.8642045653
 10
-10.0710654623
 20
19.8641294484
 10
-10.0784310971
 20
19.8640163662
 10
-10.0857664346
 20
19.8638654766
 10
-10.0930614399
 20
19.8636769863
 10
-10.1003061338
 20
19.8634511504
 10
-10.1074906054
 20
19.8631882783
 10
-10.1146050266
 20
19.8628887313
 10
-10.1216396648
 20
19.8625529174
 10
-10.128584897
 20
19.8621812962
 10
-10.1354312219
 20
19.8617743773
 10
-10.142169274
 20
19.861332716
 10
-10.1487898356
 20
19.8608569168
 10
-10.15528385
 20
19.8603476314
 10
-10.1616424335
 20
19.8598055556
 10
-10.1678568874
 20
19.859231431
 10
-10.1739187107
 20
19.8586260437
 10
-10.1798196107
 20
19.8579902212
 10
-10.1855515151
 20
19.8573248334
 10
-10.1911065828
 20
19.8566307907
 10
-10.1964772145
 20
19.8559090426
 10
-10.2016560632
 20
19.8551605762
 10
-10.2066360444
 20
19.8543864155
 10
-10.2114103455
 20
19.8535876197
 10
-10.2159724353
 20
19.8527652814
 10
-10.2203160729
 20
19.8519205253
 10
-10.2244353164
 20
19.8510545076
 10
-10.2283245306
 20
19.8501684126
 10
-10.2319783951
 20
19.8492634521
 10
-10.2353919116
 20
19.8483408652
 10
-10.2385604104
 20
19.847401913
 10
-10.2414795569
 20
19.8464478798
 10
-10.244145358
 20
19.845480072
 10
-10.2465541667
 20
19.8444998124
 10
-10.2487026879
 20
19.8435084416
 10
-10.2505879824
 20
19.8425073177
 10
-10.2522074712
 20
19.8414978085
 10
-10.2535589388
 20
19.8404812945
 10
-10.2546405365
 20
19.8394591691
 10
-10.2554507846
 20
19.8384328302
 10
-10.2559885748
 20
19.8374036786
 10
-10.2562531713
 20
19.8363731204
  0
LINE
  5
5CB
100
AcDbEntity
  8
RACCORDO
100
AcDbLine
 62
253
  6
CONTINUOUS
 10
-10.0562835958
 20
19.8642416123
 11
9.280917324
 21
19.8642416123
  0
LINE
  5
5CC
100
AcDbEntity
  8
RACCORDO
100
AcDbLine
 62
253
  6
CONTINUOUS
 10
-10.0562836323
 20
20.0348823508
 11
9.2809173604
 21
20.0348823508
  0
LINE
  5
5CD
100
AcDbEntity
  8
RACCORDO
100
AcDbLine
 62
7
  6
CONTINUOUS
 10
-7.6222130821
 20
20.3032897613
 11
-4.3531531897
 21
20.3032897613
  0
LINE
  5
5CE
100
AcDbEntity
  8
RACCORDO
100
AcDbLine
 62
7
  6
CONTINUOUS
 10
3.5777869179
 20
20.3032897613
 11
6.8468468103
 21
20.3032897613
  0
LINE
  5
5CF
100
AcDbEntity
  8
RACCORDO
100
AcDbLine
 62
7
  6
CONTINUOUS
 10
-10.1153865334
 20
20.4506312344
 11
-8.4305034589
 21
20.4506312344
  0
LINE
  5
5D0
100
AcDbEntity
  8
DRAFT
100
AcDbLine
 62
7
  6
CONTINUOUS
 10
-3.5448628129
 20
20.4506312344
 11
2.7694965411
 21
20.4506312344
  0
LINE
  5
5D1
100
AcDbEntity
  8
RACCORDO
100
AcDbLine
 62
7
  6
CONTINUOUS
 10
7.6551371871
 20
20.4506312344
 11
9.3400202615
 21
20.4506312344
  0
LINE
  5
5D2
100
AcDbEntity
  8
RACCORDO
100
AcDbLine
 62
7
  6
CONTINUOUS
 10
9.3624741042
 20
20.5206312344
 11
8.4056925371
 21
20.5206312344
  0
LINE
  5
5D3
100
AcDbEntity
  8
DRAFT
100
AcDbLine
 62
7
  6
CONTINUOUS
 10
2.0189411911
 20
20.5206312344
 11
-2.7943074629
 21
20.5206312344
  0
LINE
  5
5D4
100
AcDbEntity
  8
RACCORDO
100
AcDbLine
 62
7
  6
CONTINUOUS
 10
-9.1810588089
 20
20.5206312344
 11
-10.137840376
 21
20.5206312344
  0
LWPOLYLINE
  5
5D5
100
AcDbEntity
  8
RACCORDO
100
AcDbPolyline
 62
253
  6
CONTINUOUS
 90
46
 70
0
 10
9.2809173604
 20
20.0348823508
 10
9.2878867667
 20
20.0347470365
 10
9.2948477048
 20
20.0343706881
 10
9.3017917169
 20
20.0337537629
 10
9.3087103655
 20
20.0328970106
 10
9.3155952443
 20
20.0318014721
 10
9.3224379878
 20
20.0304684785
 10
9.3292302817
 20
20.0288996495
 10
9.335963873
 20
20.0270968914
 10
9.34263058
 20
20.0250623944
 10
9.3492223025
 20
20.0227986307
 10
9.3557310311
 20
20.0203083509
 10
9.3621488575
 20
20.0175945807
 10
9.3684679835
 20
20.0146606176
 10
9.3746807313
 20
20.0115100263
 10
9.3807795519
 20
20.0081466351
 10
9.3867570351
 20
20.0045745307
 10
9.3926059179
 20
20.0007980532
 10
9.3983190936
 20
19.9968217914
 10
9.4038896204
 20
19.9926505766
 10
9.4093107298
 20
19.9882894769
 10
9.414575835
 20
19.9837437915
 10
9.4196785386
 20
19.9790190434
 10
9.4246126406
 20
19.9741209735
 10
9.4293721457
 20
19.9690555332
 10
9.4339512709
 20
19.9638288772
 10
9.4383444525
 20
19.9584473563
 10
9.4425463523
 20
19.9529175091
 10
9.446551865
 20
19.9472460548
 10
9.4503561236
 20
19.9414398844
 10
9.4539545058
 20
19.9355060527
 10
9.4573426394
 20
19.9294517697
 10
9.4605164076
 20
19.9232843915
 10
9.4634719541
 20
19.9170114118
 10
9.4662056878
 20
19.9106404526
 10
9.4687142871
 20
19.904179255
 10
9.4709947038
 20
19.8976356696
 10
9.4730441673
 20
19.8910176472
 10
9.4748601872
 20
19.884333229
 10
9.4764405571
 20
19.8775905369
 10
9.4777833567
 20
19.8707977637
 10
9.4788869544
 20
19.8639631628
 10
9.4797500093
 20
19.8570950386
 10
9.4803714728
 20
19.8502017363
 10
9.4807505897
 20
19.8432916315
 10
9.4808868995
 20
19.8363731204
  0
LWPOLYLINE
  5
5D6
100
AcDbEntity
  8
RACCORDO
100
AcDbPolyline
 62
253
  6
CONTINUOUS
 90
4
 70
0
 10
9.3104010152
 20
19.8638681339
 10
9.3030648253
 20
19.8640163662
 10
9.2956957628
 20
19.8641190641
 10
9.2809173604
 20
19.8642416123
  0
LINE
  5
5D7
100
AcDbEntity
  8
RACCORDO
100
AcDbLine
 62
7
  6
CONTINUOUS
 10
-9.1810588089
 20
21.9506312344
 11
-7.7954181628
 21
21.8248525641
  0
LINE
  5
5D8
100
AcDbEntity
  8
DRAFT
100
AcDbLine
 62
7
  6
CONTINUOUS
 10
2.7694965411
 20
20.4506312344
 11
2.0189411911
 21
20.5206312344
  0
LINE
  5
5D9
100
AcDbEntity
  8
RACCORDO
100
AcDbLine
 62
7
  6
CONTINUOUS
 10
2.7694965411
 20
20.4506312344
 11
3.4045818372
 21
20.3155682174
  0
LINE
  5
5DA
100
AcDbEntity
  8
RACCORDO
100
AcDbLine
 62
7
  6
CONTINUOUS
 10
-2.7943074629
 20
21.9506312344
 11
-4.179948109
 21
21.8248525641
  0
LINE
  5
5DB
100
AcDbEntity
  8
RACCORDO
100
AcDbLine
 62
7
  6
CONTINUOUS
 10
-7.6222130821
 20
21.8196117862
 11
-4.3531531897
 21
21.8196117862
  0
LINE
  5
5DC
100
AcDbEntity
  8
RACCORDO
100
AcDbLine
 62
7
  6
CONTINUOUS
 10
3.5777869179
 20
21.8196117862
 11
6.8468468103
 21
21.8196117862
  0
LINE
  5
5DD
100
AcDbEntity
  8
RACCORDO
100
AcDbLine
 62
7
  6
CONTINUOUS
 10
10.2126974638
 20
21.9506312344
 11
8.4056925371
 21
21.9506312344
  0
LINE
  5
5DE
100
AcDbEntity
  8
DRAFT
100
AcDbLine
 62
7
  6
CONTINUOUS
 10
2.0189411911
 20
21.9506312344
 11
-2.7943074629
 21
21.9506312344
  0
LINE
  5
5DF
100
AcDbEntity
  8
RACCORDO
100
AcDbLine
 62
7
  6
CONTINUOUS
 10
-9.1810588089
 20
21.9506312344
 11
-10.9880637356
 21
21.9506312344
  0
LINE
  5
5E0
100
AcDbEntity
  8
RACCORDO
100
AcDbLine
 62
7
  6
CONTINUOUS
 10
2.0189411911
 20
21.9506312344
 11
3.4045818372
 21
21.8248525641
  0
ELLIPSE
  5
5E1
100
AcDbEntity
  8
RACCORDO
100
AcDbEllipse
 62
7
  6
CONTINUOUS
 10
-10.9876069719
 20
-22.0486825926
 30
0.0
 11
-0.1582391023
 21
-0.4751033573
 31
0.0
 40
0.9984778551
 41
-1.2488325878
 42
0.3210503505
  0
ELLIPSE
  5
5E2
100
AcDbEntity
  8
RACCORDO
100
AcDbEllipse
 62
7
  6
CONTINUOUS
 10
10.2122407001
 20
-22.0486825926
 30
0.0
 11
-0.1582391023
 21
0.4751033573
 31
0.0
 40
0.9984778551
 41
2.8205423031
 42
4.3904252414
  0
ELLIPSE
  5
5E3
100
AcDbEntity
  8
RACCORDO
100
AcDbEllipse
 62
7
  6
CONTINUOUS
 10
-4.3531531897
 20
-22.4288308732
 30
0.0
 11
0.2
 21
-0.0
 31
0.0
 40
0.0524077793
 41
0.5235987756
 42
1.5707963268
  0
ELLIPSE
  5
5E4
100
AcDbEntity
  8
RACCORDO
100
AcDbEllipse
 62
7
  6
CONTINUOUS
 10
-7.6222130821
 20
-22.4288308732
 30
0.0
 11
0.2
 21
-0.0
 31
0.0
 40
0.0524077793
 41
1.5707963268
 42
2.617993878
  0
ELLIPSE
  5
5E5
100
AcDbEntity
  8
RACCORDO
100
AcDbEllipse
 62
7
  6
CONTINUOUS
 10
3.5777869179
 20
-22.4288308732
 30
0.0
 11
0.2
 21
-0.0
 31
0.0
 40
0.0524077793
 41
1.5707963268
 42
2.617993878
  0
ELLIPSE
  5
5E6
100
AcDbEntity
  8
RACCORDO
100
AcDbEllipse
 62
7
  6
CONTINUOUS
 10
6.8468468103
 20
-22.4288308732
 30
0.0
 11
0.2
 21
-0.0
 31
0.0
 40
0.0524077793
 41
0.5235987756
 42
1.5707963268
  0
ELLIPSE
  5
5E7
100
AcDbEntity
  8
RACCORDO
100
AcDbEllipse
 62
7
  6
CONTINUOUS
 10
10.4221321327
 20
-0.658105153
 30
0.0
 11
-0.2236527791
 21
-0.1118178731
 31
0.0
 40
0.9998096356
 41
2.6780516535
 42
4.2486956813
  0
ELLIPSE
  5
5E8
100
AcDbEntity
  8
RACCORDO
100
AcDbEllipse
 62
7
  6
CONTINUOUS
 10
-11.1974984046
 20
-0.658105153
 30
0.0
 11
-0.2236527791
 21
0.1118178731
 31
0.0
 40
0.9998096356
 41
-1.1071030277
 42
0.4635410001
  0
ELLIPSE
  5
5E9
100
AcDbEntity
  8
RACCORDO
100
AcDbEllipse
 62
7
  6
CONTINUOUS
 10
-4.3531531897
 20
-20.9265842047
 30
0.0
 11
0.2
 21
-0.0
 31
0.0
 40
0.1227845609
 41
0.5235987756
 42
1.5707963268
  0
ELLIPSE
  5
5EA
100
AcDbEntity
  8
RACCORDO
100
AcDbEllipse
 62
7
  6
CONTINUOUS
 10
-7.6222130821
 20
-20.9265842047
 30
0.0
 11
0.2
 21
-0.0
 31
0.0
 40
0.1227845609
 41
1.5707963268
 42
2.617993878
  0
ELLIPSE
  5
5EB
100
AcDbEntity
  8
RACCORDO
100
AcDbEllipse
 62
7
  6
CONTINUOUS
 10
3.5777869179
 20
-20.9265842047
 30
0.0
 11
0.2
 21
-0.0
 31
0.0
 40
0.1227845609
 41
1.5707963268
 42
2.617993878
  0
ELLIPSE
  5
5EC
100
AcDbEntity
  8
RACCORDO
100
AcDbEllipse
 62
7
  6
CONTINUOUS
 10
6.8468468103
 20
-20.9265842047
 30
0.0
 11
0.2
 21
-0.0
 31
0.0
 40
0.1227845609
 41
0.5235987756
 42
1.5707963268
  0
ELLIPSE
  5
5ED
100
AcDbEntity
  8
RACCORDO
100
AcDbEllipse
 62
7
  6
CONTINUOUS
 10
9.3622863985
 20
-20.9190790346
 30
0.0
 11
-0.0617723213
 21
0.1905579802
 31
0.0
 40
0.9984017958
 41
-3.4546006943
 42
-1.8847427532
  0
ELLIPSE
  5
5EE
100
AcDbEntity
  8
RACCORDO
100
AcDbEllipse
 62
7
  6
CONTINUOUS
 10
-10.1376526703
 20
-20.9190790346
 30
0.0
 11
0.0617723213
 21
0.1905579802
 31
0.0
 40
0.9984017958
 41
-4.398442554
 42
-2.8285846129
  0
ELLIPSE
  5
5EF
100
AcDbEntity
  8
RACCORDO
100
AcDbEllipse
 62
7
  6
CONTINUOUS
 10
-10.097506021
 20
-1.8168542961
 30
0.0
 11
0.1414644378
 21
-0.1414644378
 31
0.0
 40
0.9996954599
 41
2.3563467834
 42
3.9268385237
  0
ELLIPSE
  5
5F0
100
AcDbEntity
  8
RACCORDO
100
AcDbEllipse
 62
7
  6
CONTINUOUS
 10
9.3221397491
 20
-1.8168542961
 30
0.0
 11
0.1414644378
 21
0.1414644378
 31
0.0
 40
0.9996954599
 41
-0.7852458701
 42
0.7852458701
  0
ELLIPSE
  5
5F1
100
AcDbEntity
  8
0
100
AcDbEllipse
 62
7
  6
CONTINUOUS
 10
-10.5477201181
 20
-9.3303178182
 30
0.0
 11
0.7
 21
-0.0
 31
0.0
 40
0.0087268678
 41
-3.0368728985
 42
-1.5707963268
  0
ELLIPSE
  5
5F2
100
AcDbEntity
  8
0
100
AcDbEllipse
 62
7
  6
CONTINUOUS
 10
9.7723538463
 20
-9.3303178182
 30
0.0
 11
0.7
 21
-0.0
 31
0.0
 40
0.0087268678
 41
-1.5707963268
 42
-0.1047197551
  0
ELLIPSE
  5
5F3
100
AcDbEntity
  8
0
100
AcDbEllipse
 62
7
  6
CONTINUOUS
 10
-10.5477201181
 20
-13.468419713
 30
0.0
 11
0.7
 21
-0.0
 31
0.0
 40
0.0087268678
 41
1.5707963268
 42
3.0368728985
  0
ELLIPSE
  5
5F4
100
AcDbEntity
  8
0
100
AcDbEllipse
 62
7
  6
CONTINUOUS
 10
9.7723538463
 20
-13.468419713
 30
0.0
 11
0.7
 21
-0.0
 31
0.0
 40
0.0087268678
 41
0.1047197551
 42
1.5707963268
  0
ELLIPSE
  5
5F5
100
AcDbEntity
  8
RACCORDO
100
AcDbEllipse
 62
7
  6
CONTINUOUS
 10
10.2122407001
 20
21.4499450614
 30
0.0
 11
0.1582391023
 21
0.4751033573
 31
0.0
 40
0.9984778551
 41
-1.2488325878
 42
0.3210503505
  0
ELLIPSE
  5
5F6
100
AcDbEntity
  8
RACCORDO
100
AcDbEllipse
 62
7
  6
CONTINUOUS
 10
-10.9876069719
 20
21.4499450614
 30
0.0
 11
0.1582391023
 21
-0.4751033573
 31
0.0
 40
0.9984778551
 41
2.8205423031
 42
4.3904252414
  0
ELLIPSE
  5
5F7
100
AcDbEntity
  8
RACCORDO
100
AcDbEllipse
 62
7
  6
CONTINUOUS
 10
3.5777869179
 20
21.8300933421
 30
0.0
 11
0.2
 21
-0.0
 31
0.0
 40
0.0524077793
 41
-2.617993878
 42
-1.5707963268
  0
ELLIPSE
  5
5F8
100
AcDbEntity
  8
RACCORDO
100
AcDbEllipse
 62
7
  6
CONTINUOUS
 10
6.8468468103
 20
21.8300933421
 30
0.0
 11
0.2
 21
0.0
 31
0.0
 40
0.0524077793
 41
-1.5707963268
 42
-0.5235987756
  0
ELLIPSE
  5
5F9
100
AcDbEntity
  8
RACCORDO
100
AcDbEllipse
 62
7
  6
CONTINUOUS
 10
-4.3531531897
 20
21.8300933421
 30
0.0
 11
0.2
 21
0.0
 31
0.0
 40
0.0524077793
 41
-1.5707963268
 42
-0.5235987756
  0
ELLIPSE
  5
5FA
100
AcDbEntity
  8
RACCORDO
100
AcDbEllipse
 62
7
  6
CONTINUOUS
 10
-7.6222130821
 20
21.8300933421
 30
0.0
 11
0.2
 21
-0.0
 31
0.0
 40
0.0524077793
 41
-2.617993878
 42
-1.5707963268
  0
ELLIPSE
  5
5FB
100
AcDbEntity
  8
RACCORDO
100
AcDbEllipse
 62
7
  6
CONTINUOUS
 10
-11.1974984046
 20
0.0593676218
 30
0.0
 11
0.2236527791
 21
0.1118178731
 31
0.0
 40
0.9998096356
 41
2.6780516535
 42
4.2486956813
  0
ELLIPSE
  5
5FC
100
AcDbEntity
  8
RACCORDO
100
AcDbEllipse
 62
7
  6
CONTINUOUS
 10
10.4221321327
 20
0.0593676218
 30
0.0
 11
0.2236527791
 21
-0.1118178731
 31
0.0
 40
0.9998096356
 41
-1.1071030277
 42
0.4635410001
  0
ELLIPSE
  5
5FD
100
AcDbEntity
  8
RACCORDO
100
AcDbEllipse
 62
7
  6
CONTINUOUS
 10
3.5777869179
 20
20.3278466735
 30
0.0
 11
0.2
 21
0.0
 31
0.0
 40
0.1227845609
 41
-2.617993878
 42
-1.5707963268
  0
ELLIPSE
  5
5FE
100
AcDbEntity
  8
RACCORDO
100
AcDbEllipse
 62
7
  6
CONTINUOUS
 10
6.8468468103
 20
20.3278466735
 30
0.0
 11
0.2
 21
0.0
 31
0.0
 40
0.1227845609
 41
-1.5707963268
 42
-0.5235987756
  0
ELLIPSE
  5
5FF
100
AcDbEntity
  8
RACCORDO
100
AcDbEllipse
 62
7
  6
CONTINUOUS
 10
-4.3531531897
 20
20.3278466735
 30
0.0
 11
0.2
 21
-0.0
 31
0.0
 40
0.1227845609
 41
-1.5707963268
 42
-0.5235987756
  0
ELLIPSE
  5
600
100
AcDbEntity
  8
RACCORDO
100
AcDbEllipse
 62
7
  6
CONTINUOUS
 10
-7.6222130821
 20
20.3278466735
 30
0.0
 11
0.2
 21
-0.0
 31
0.0
 40
0.1227845609
 41
-2.617993878
 42
-1.5707963268
  0
ELLIPSE
  5
601
100
AcDbEntity
  8
RACCORDO
100
AcDbEllipse
 62
7
  6
CONTINUOUS
 10
-10.1376526703
 20
20.3203415034
 30
0.0
 11
-0.0617723213
 21
0.1905579802
 31
0.0
 40
0.9984017958
 41
-0.3130080407
 42
1.2568499004
  0
ELLIPSE
  5
602
100
AcDbEntity
  8
RACCORDO
100
AcDbEllipse
 62
7
  6
CONTINUOUS
 10
9.3622863985
 20
20.3203415034
 30
0.0
 11
0.0617723213
 21
0.1905579802
 31
0.0
 40
0.9984017958
 41
-1.2568499004
 42
0.3130080407
  0
ELLIPSE
  5
603
100
AcDbEntity
  8
RACCORDO
100
AcDbEllipse
 62
7
  6
CONTINUOUS
 10
9.3221397491
 20
1.218116765
 30
0.0
 11
-0.1414644378
 21
0.1414644378
 31
0.0
 40
0.9996954599
 41
-3.9268385237
 42
-2.3563467834
  0
ELLIPSE
  5
604
100
AcDbEntity
  8
RACCORDO
100
AcDbEllipse
 62
7
  6
CONTINUOUS
 10
-10.097506021
 20
1.218116765
 30
0.0
 11
0.1414644378
 21
0.1414644378
 31
0.0
 40
0.9996954599
 41
-3.9268385237
 42
-2.3563467834
  0
ELLIPSE
  5
605
100
AcDbEntity
  8
0
100
AcDbEllipse
 62
7
  6
CONTINUOUS
 10
9.7723538463
 20
8.731580287
 30
0.0
 11
0.7
 21
-0.0
 31
0.0
 40
0.0087268678
 41
0.1047197551
 42
1.5707963268
  0
ELLIPSE
  5
606
100
AcDbEntity
  8
0
100
AcDbEllipse
 62
7
  6
CONTINUOUS
 10
-10.5477201181
 20
8.731580287
 30
0.0
 11
0.7
 21
0.0
 31
0.0
 40
0.0087268678
 41
1.5707963268
 42
3.0368728985
  0
ELLIPSE
  5
607
100
AcDbEntity
  8
0
100
AcDbEllipse
 62
7
  6
CONTINUOUS
 10
9.7723538463
 20
12.8696821818
 30
0.0
 11
0.7
 21
-0.0
 31
0.0
 40
0.0087268678
 41
-1.5707963268
 42
-0.1047197551
  0
ELLIPSE
  5
608
100
AcDbEntity
  8
0
100
AcDbEllipse
 62
7
  6
CONTINUOUS
 10
-10.5477201181
 20
12.8696821818
 30
0.0
 11
0.7
 21
-0.0
 31
0.0
 40
0.0087268678
 41
-3.0368728985
 42
-1.5707963268
  0
ENDSEC
  0
SECTION
  2
OBJECTS
  0
DICTIONARY
  5
C
100
AcDbDictionary
280
0
281
1
  3
ACAD_GROUP
350
D
  3
ACAD_MLINESTYLE
350
17
  3
ACAD_LAYOUT
350
1A
  3
ACAD_PLOTSETTINGS
350
19
  3
ACAD_PLOTSTYLENAME
350
E
  0
DICTIONARY
  5
D
102
{ACAD_REACTORS
330
C
102
}
100
AcDbDictionary
280
0
281
1
  0
ACDBDICTIONARYWDFLT
  5
E
102
{ACAD_REACTORS
330
C
102
}
100
AcDbDictionary
281
1
  3
Normal
350
F
100
AcDbDictionaryWithDefault
340
F
  0
DICTIONARY
  5
17
102
{ACAD_REACTORS
330
C
102
}
100
AcDbDictionary
280
0
281
1
  3
Standard
350
18
  0
DICTIONARY
  5
19
102
{ACAD_REACTORS
330
C
102
}
100
AcDbDictionary
281
1
  0
DICTIONARY
  5
1A
102
{ACAD_REACTORS
330
C
102
}
100
AcDbDictionary
281
1
  3
Model
350
609
  3
Layout1
350
60A
  0
ACDBPLACEHOLDER
  5
F
102
{ACAD_REACTORS
330
E
102
}
  0
MLINESTYLE
  5
18
102
{ACAD_REACTORS
330
17
102
}
100
AcDbMlineStyle
  2
STANDARD
 70
0
  3

 62
256
 51
90.0
 52
90.0
 71
2
 49
0.5
 62
256
  6
BYLAYER
 49
-0.5
 62
256
  6
BYLAYER
  0
LAYOUT
  5
609
102
{ACAD_REACTORS
330
1A
102
}
100
AcDbPlotSettings
  1

  2
none_device
  4
ISO_A4_(297.00_x_210.00_MM)
  6

 40
0.0
 41
0.0
 42
0.0
 43
0.0
 44
297.0
 45
210.0
 46
0.0
 47
0.0
 48
0.0
 49
0.0
140
0.0
141
0.0
142
1.0
143
1.0
 70
1024
 72
1
 73
0
 74
0
  7

 75
0
147
1.0
148
0.0
149
0.0
100
AcDbLayout
  1
Model
 70
0
 71
0
 10
0.0
 20
0.0
 11
297.0
 21
210.0
 12
0.0
 22
0.0
 32
0.0
 14
0.0
 24
0.0
 34
0.0
 15
0.0
 25
0.0
 35
0.0
146
0.0
 13
0.0
 23
0.0
 33
0.0
 16
1.0
 26
0.0
 36
0.0
 17
0.0
 27
1.0
 37
0.0
 76
0
330
214
345
0
346
0
  0
LAYOUT
  5
60A
102
{ACAD_REACTORS
330
1A
102
}
100
AcDbPlotSettings
  1

  2
none_device
  4
ISO_A4_(297.00_x_210.00_MM)
  6

 40
0.0
 41
0.0
 42
0.0
 43
0.0
 44
297.0
 45
210.0
 46
0.0
 47
0.0
 48
0.0
 49
0.0
140
0.0
141
0.0
142
1.0
143
1.0
 70
0
 72
1
 73
0
 74
0
  7

 75
0
147
1.0
148
0.0
149
0.0
100
AcDbLayout
  1
Layout1
 70
0
 71
1
 10
0.0
 20
0.0
 11
297.0
 21
210.0
 12
0.0
 22
0.0
 32
0.0
 14
0.0
 24
0.0
 34
0.0
 15
0.0
 25
0.0
 35
0.0
146
0.0
 13
0.0
 23
0.0
 33
0.0
 16
1.0
 26
0.0
 36
0.0
 17
0.0
 27
1.0
 37
0.0
 76
0
330
215
345
0
346
0
  0
ENDSEC
  0
EOF
