  0
SECTION
  2
HEADER
  9
$ACADVER
  1
AC1015
  9
$DWGCODEPAGE
  3
ANSI_1252
  9
$EXTMAX
 10
297.0
 20
210.0
 30
0.0
  9
$EXTMIN
 10
0.0
 20
0.0
 30
0.0
  9
$LIMMIN
 10
0.0
 20
0.0
  9
$LIMMAX
 10
297.0
 20
210.0
  9
$VIEWCTR
 10
148.5
 20
105.0
  9
$VIEWSIZE
 40
210.0
  9
$CLAYER
  8
0
  9
$LTSCALE
 40
16.335
  9
$CELTYPE
  6
BYLAYER
  9
$DIMSCALE
 40
1.0
  9
$DIMASZ
 40
3.0
  9
$DIMEXO
 40
0.5
  9
$DIMDLI
 40
11.286
  9
$DIMEXE
 40
1.5
  9
$DIMCEN
 40
2.673
  9
$DIMLFAC
 40
1.0
  9
$DIMBLK
  1
_FILLED
  9
$DIMTXT
 40
3.0
  9
$DIMTOL
 70
1
  9
$DIMLIM
 70
0
  9
$DIMTFAC
 40
1.0
  9
$DIMTP
 40
0.01
  9
$DIMTM
 40
0.01
  9
$DIMGAP
 40
0.625
  9
$DIMDSEP
 70
44
  9
$PDMODE
 70
3
  9
$PDSIZE
 40
3.0
  9
$HANDSEED
  5
7AC
  9
$TILEMODE
 70
1
  9
$MEASUREMENT
 70
1
  9
$INSUNITS
 70
4
  0
ENDSEC
  0
SECTION
  2
CLASSES
  0
CLASS
  1
ACDBDICTIONARYWDFLT
  2
AcDbDictionaryWithDefault
  3
AutoCAD 2000
 90
0
280
0
281
0
  0
CLASS
  1
ACDBPLACEHOLDER
  2
AcDbPlaceHolder
  3
AutoCAD 2000
 90
0
280
0
281
0
  0
CLASS
  1
LAYOUT
  2
AcDbLayout
  3
AutoCAD 2000
 90
0
280
0
281
0
  0
ENDSEC
  0
SECTION
  2
TABLES
  0
TABLE
  2
VPORT
  5
8
100
AcDbSymbolTable
 70
2
  0
VPORT
  5
1F4
100
AcDbSymbolTableRecord
100
AcDbViewportTableRecord
  2
*ACTIVE
 70
0
 10
0.0
 20
0.0
 11
1.0
 21
1.0
 12
148.5
 22
105.0
 13
0.0
 23
0.0
 14
1.0
 24
1.0
 15
0.0
 25
0.0
 16
0.0
 26
0.0
 36
1.0
 17
0.0
 27
0.0
 37
0.0
 40
210.0
 41
1.4142857143
 42
50.0
 43
0.0
 44
0.0
 50
0.0
 51
0.0
 71
0
 72
100
 73
1
 74
1
 75
0
 76
0
 77
0
 78
0
  0
ENDTAB
  0
TABLE
  2
LTYPE
  5
5
100
AcDbSymbolTable
 70
6
  0
LTYPE
  5
14
100
AcDbSymbolTableRecord
100
AcDbLinetypeTableRecord
  2
BYBLOCK
 70
0
  3

 72
65
 73
0
 40
0.0
  0
LTYPE
  5
15
100
AcDbSymbolTableRecord
100
AcDbLinetypeTableRecord
  2
BYLAYER
 70
0
  3

 72
65
 73
0
 40
0.0
  0
LTYPE
  5
16
100
AcDbSymbolTableRecord
100
AcDbLinetypeTableRecord
  2
CONTINUOUS
 70
64
  3
Solid line
 72
65
 73
0
 40
0.0
  0
LTYPE
  5
1F5
100
AcDbSymbolTableRecord
100
AcDbLinetypeTableRecord
  2
CENTER
 70
64
  3
____ _ ____ _ ____ _ ____ _ ____ _ ____ _ ____
 72
65
 73
4
 40
0.6
 49
0.375
 74
0
 49
-0.075
 74
0
 49
0.075
 74
0
 49
-0.075
 74
0
  0
LTYPE
  5
1F6
100
AcDbSymbolTableRecord
100
AcDbLinetypeTableRecord
  2
HIDDEN
 70
64
  3
- - - - - - - - - - - - - - - - - - - -
 72
65
 73
2
 40
0.2
 49
0.1
 74
0
 49
-0.1
 74
0
  0
LTYPE
  5
1F7
100
AcDbSymbolTableRecord
100
AcDbLinetypeTableRecord
  2
PHANTOM
 70
64
  3
_____ _ _ _____ _ _ _____ _ _ _____
 72
65
 73
6
 40
0.8
 49
0.45
 74
0
 49
-0.05
 74
0
 49
0.1
 74
0
 49
-0.05
 74
0
 49
0.1
 74
0
 49
-0.05
 74
0
  0
LTYPE
  5
1F8
100
AcDbSymbolTableRecord
100
AcDbLinetypeTableRecord
  2
DOT
 70
64
  3
. . . . . . . . . . . . . . . . . . . .
 72
65
 73
2
 40
0.2
 49
0.1
 74
0
 49
-0.1
 74
0
  0
LTYPE
  5
1F9
100
AcDbSymbolTableRecord
100
AcDbLinetypeTableRecord
  2
DASHED
 70
64
  3
- - - - - - - - - - - - - - - - - - - -
 72
65
 73
2
 40
0.2
 49
0.1
 74
0
 49
-0.1
 74
0
  0
ENDTAB
  0
TABLE
  2
LAYER
  5
2
100
AcDbSymbolTable
 70
36
  0
LAYER
  5
10
100
AcDbSymbolTableRecord
100
AcDbLayerTableRecord
  2
0
 70
0
 62
7
  6
CONTINUOUS
370
-3
390
F
  0
LAYER
  5
1FA
100
AcDbSymbolTableRecord
100
AcDbLayerTableRecord
  2
DEFAULT_1
 70
0
 62
7
  6
CENTER
370
-3
390
F
  0
LAYER
  5
1FB
100
AcDbSymbolTableRecord
100
AcDbLayerTableRecord
  2
DEFAULT_2
 70
0
 62
7
  6
HIDDEN
370
-3
390
F
  0
LAYER
  5
1FC
100
AcDbSymbolTableRecord
100
AcDbLayerTableRecord
  2
DEFAULT_3
 70
0
 62
7
  6
PHANTOM
370
-3
390
F
  0
LAYER
  5
1FD
100
AcDbSymbolTableRecord
100
AcDbLayerTableRecord
  2
ASSI
 70
0
 62
7
  6
CONTINUOUS
370
-3
390
F
  0
LAYER
  5
1FE
100
AcDbSymbolTableRecord
100
AcDbLayerTableRecord
  2
COORDINATE
 70
0
 62
7
  6
CONTINUOUS
370
-3
390
F
  0
LAYER
  5
1FF
100
AcDbSymbolTableRecord
100
AcDbLayerTableRecord
  2
COPY_PUBLISH
 70
0
 62
7
  6
CONTINUOUS
370
-3
390
F
  0
LAYER
  5
200
100
AcDbSymbolTableRecord
100
AcDbLayerTableRecord
  2
COSMETIC
 70
0
 62
7
  6
CONTINUOUS
370
-3
390
F
  0
LAYER
  5
201
100
AcDbSymbolTableRecord
100
AcDbLayerTableRecord
  2
CRV_ROUND_OLD
 70
0
 62
7
  6
CONTINUOUS
370
-3
390
F
  0
LAYER
  5
202
100
AcDbSymbolTableRecord
100
AcDbLayerTableRecord
  2
CURVE
 70
0
 62
7
  6
CONTINUOUS
370
-3
390
F
  0
LAYER
  5
203
100
AcDbSymbolTableRecord
100
AcDbLayerTableRecord
  2
DRAFT
 70
0
 62
7
  6
CONTINUOUS
370
-3
390
F
  0
LAYER
  5
204
100
AcDbSymbolTableRecord
100
AcDbLayerTableRecord
  2
IMPORT_IGES
 70
0
 62
7
  6
CONTINUOUS
370
-3
390
F
  0
LAYER
  5
205
100
AcDbSymbolTableRecord
100
AcDbLayerTableRecord
  2
INTF_1
 70
0
 62
7
  6
CONTINUOUS
370
-3
390
F
  0
LAYER
  5
206
100
AcDbSymbolTableRecord
100
AcDbLayerTableRecord
  2
INTF_CYAN
 70
0
 62
7
  6
CONTINUOUS
370
-3
390
F
  0
LAYER
  5
207
100
AcDbSymbolTableRecord
100
AcDbLayerTableRecord
  2
NONE
 70
0
 62
7
  6
CONTINUOUS
370
-3
390
F
  0
LAYER
  5
208
100
AcDbSymbolTableRecord
100
AcDbLayerTableRecord
  2
NOTE
 70
0
 62
7
  6
CONTINUOUS
370
-3
390
F
  0
LAYER
  5
209
100
AcDbSymbolTableRecord
100
AcDbLayerTableRecord
  2
PELLE_ESTERNA
 70
0
 62
7
  6
CONTINUOUS
370
-3
390
F
  0
LAYER
  5
20A
100
AcDbSymbolTableRecord
100
AcDbLayerTableRecord
  2
PELLE_INTERNA
 70
0
 62
7
  6
CONTINUOUS
370
-3
390
F
  0
LAYER
  5
20B
100
AcDbSymbolTableRecord
100
AcDbLayerTableRecord
  2
PIANI
 70
0
 62
7
  6
CONTINUOUS
370
-3
390
F
  0
LAYER
  5
20C
100
AcDbSymbolTableRecord
100
AcDbLayerTableRecord
  2
PUNTI
 70
0
 62
7
  6
CONTINUOUS
370
-3
390
F
  0
LAYER
  5
20D
100
AcDbSymbolTableRecord
100
AcDbLayerTableRecord
  2
RACCORDO
 70
0
 62
7
  6
CONTINUOUS
370
-3
390
F
  0
LAYER
  5
20E
100
AcDbSymbolTableRecord
100
AcDbLayerTableRecord
  2
SHELL
 70
0
 62
7
  6
CONTINUOUS
370
-3
390
F
  0
LAYER
  5
20F
100
AcDbSymbolTableRecord
100
AcDbLayerTableRecord
  2
SNAPLINE
 70
0
 62
7
  6
CONTINUOUS
370
-3
390
F
  0
LAYER
  5
210
100
AcDbSymbolTableRecord
100
AcDbLayerTableRecord
  2
SOLIDI
 70
0
 62
7
  6
CONTINUOUS
370
-3
390
F
  0
LAYER
  5
211
100
AcDbSymbolTableRecord
100
AcDbLayerTableRecord
  2
SRF_COSTRUZIONE
 70
0
 62
7
  6
CONTINUOUS
370
-3
390
F
  0
LAYER
  5
212
100
AcDbSymbolTableRecord
100
AcDbLayerTableRecord
  2
SUPERFICI
 70
0
 62
7
  6
CONTINUOUS
370
-3
390
F
  0
LAYER
  5
213
100
AcDbSymbolTableRecord
100
AcDbLayerTableRecord
  2
TRASH
 70
0
 62
7
  6
CONTINUOUS
370
-3
390
F
  0
LAYER
  5
214
100
AcDbSymbolTableRecord
100
AcDbLayerTableRecord
  2
XSEC_DATUMS
 70
0
 62
7
  6
CONTINUOUS
370
-3
390
F
  0
LAYER
  5
215
100
AcDbSymbolTableRecord
100
AcDbLayerTableRecord
  2
_42435
 70
0
 62
7
  6
CONTINUOUS
370
-3
390
F
  0
ENDTAB
  0
TABLE
  2
STYLE
  5
3
100
AcDbSymbolTable
 70
1
  0
STYLE
  5
11
100
AcDbSymbolTableRecord
100
AcDbTextStyleTableRecord
  2
STANDARD
 70
0
 40
0.0
 41
0.8
 50
0.0
 71
0
 42
0.2
  3
txt
  4

  0
STYLE
  5
216
100
AcDbSymbolTableRecord
100
AcDbTextStyleTableRecord
  2
TEXTSTYLE_1
 70
0
 40
0.0
 41
0.8
 50
0.0
 71
0
 42
0.2
  3
gdt
  4

  0
ENDTAB
  0
TABLE
  2
VIEW
  5
6
100
AcDbSymbolTable
 70
0
  0
ENDTAB
  0
TABLE
  2
UCS
  5
7
100
AcDbSymbolTable
 70
0
  0
ENDTAB
  0
TABLE
  2
APPID
  5
9
100
AcDbSymbolTable
 70
1
  0
APPID
  5
217
100
AcDbSymbolTableRecord
100
AcDbRegAppTableRecord
  2
ACAD
 70
0
  0
ENDTAB
  0
TABLE
  2
BLOCK_RECORD
  5
1
100
AcDbSymbolTable
 70
0
  0
BLOCK_RECORD
  5
218
100
AcDbSymbolTableRecord
100
AcDbBlockTableRecord
  2
*Model_Space
  0
BLOCK_RECORD
  5
219
100
AcDbSymbolTableRecord
100
AcDbBlockTableRecord
  2
*Paper_Space
  0
ENDTAB
  0
TABLE
  2
DIMSTYLE
  5
A
100
AcDbSymbolTable
 70
1
100
AcDbDimStyleTable
 71
0
  0
DIMSTYLE
105
21A
100
AcDbSymbolTableRecord
100
AcDbDimStyleTableRecord
  2
STANDARD
 70
0
  3

  4

 40
1.0
 41
3.0
 42
0.5
 43
0.38
 44
1.5
 45
0.0
 46
0.0
 47
0.01
 48
0.01
140
3.0
141
0.09
142
0.0
143
25.4
144
1.0
145
0.0
146
1.0
147
0.625
 71
1.0
 72
0.0
 73
0
 74
0
 75
0
 76
0
 77
1
 78
8
170
0
171
2
172
0
173
0
174
0
175
0
176
0
177
0
178
0
270
2
271
2
272
2
273
2
274
2
275
0
280
0
281
0
282
0
283
1
284
8
285
0
286
0
287
3
288
0
340
11
278
44
  0
ENDTAB
  0
ENDSEC
  0
SECTION
  2
BLOCKS
  0
BLOCK
  5
20
100
AcDbEntity
  8
0
100
AcDbBlockBegin
  2
*Model_Space
 70
0
 10
0.0
 20
0.0
 30
0.0
  3
*Model_Space
  1

  0
ENDBLK
  5
21
100
AcDbEntity
  8
0
100
AcDbBlockEnd
  0
BLOCK
  5
1C
100
AcDbEntity
  8
0
100
AcDbBlockBegin
  2
*Paper_Space
 70
0
 10
0.0
 20
0.0
 30
0.0
  3
*Paper_Space
  1

  0
ENDBLK
  5
1D
100
AcDbEntity
  8
0
100
AcDbBlockEnd
  0
ENDSEC
  0
SECTION
  2
ENTITIES
  0
LINE
  5
21B
100
AcDbEntity
  8
0
100
AcDbLine
 62
7
  6
CONTINUOUS
 10
-38.5188781332
 20
31.4768649148
 11
-37.7332101332
 21
34.2298529148
  0
LINE
  5
21C
100
AcDbEntity
  8
0
100
AcDbLine
 62
7
  6
CONTINUOUS
 10
-36.8989251332
 20
34.2298529148
 11
-38.1845281332
 21
30.2303409148
  0
LINE
  5
21D
100
AcDbEntity
  8
0
100
AcDbLine
 62
7
  6
CONTINUOUS
 10
-33.8285801332
 20
-33.8269369309
 11
-33.6535801749
 21
-33.9162986224
  0
LINE
  5
21E
100
AcDbEntity
  8
0
100
AcDbLine
 62
7
  6
CONTINUOUS
 10
-32.5598302166
 20
-35.8375752355
 11
-32.7785801332
 21
-35.7035326866
  0
LINE
  5
21F
100
AcDbEntity
  8
0
100
AcDbLine
 62
7
  6
CONTINUOUS
 10
-30.8973300497
 20
-35.7035326866
 11
-30.6785801332
 21
-35.8375752355
  0
LINE
  5
220
100
AcDbEntity
  8
0
100
AcDbLine
 62
7
  6
CONTINUOUS
 10
-32.0348302166
 20
-33.8269369309
 11
-31.8160800497
 21
-33.9609794681
  0
LINE
  5
221
100
AcDbEntity
  8
0
100
AcDbLine
 62
7
  6
CONTINUOUS
 10
-33.2598301332
 20
-32.839702895
 11
-33.468163387
 21
-32.7120433246
  0
LINE
  5
222
100
AcDbEntity
  8
0
100
AcDbLine
 62
7
  6
CONTINUOUS
 10
-29.8035799663
 20
-34.7205539708
 11
-30.0223301332
 21
-34.5865114336
  0
LINE
  5
223
100
AcDbEntity
  8
0
100
AcDbLine
 62
7
  6
CONTINUOUS
 10
-32.6473301332
 20
-35.524809288
 11
-32.5160801332
 21
-35.6141709795
  0
LINE
  5
224
100
AcDbEntity
  8
0
100
AcDbLine
 62
7
  6
CONTINUOUS
 10
-33.7848301749
 20
-34.1397028511
 11
-33.9160801749
 21
-34.0503411596
  0
LINE
  5
225
100
AcDbEntity
  8
0
100
AcDbLine
 62
7
  6
CONTINUOUS
 10
-30.6348303001
 20
-35.6141709795
 11
-30.7660803001
 21
-35.524809288
  0
LINE
  5
226
100
AcDbEntity
  8
0
100
AcDbLine
 62
7
  6
CONTINUOUS
 10
-31.9473300497
 20
-34.1397028511
 11
-32.0785800497
 21
-34.0503411596
  0
LINE
  5
227
100
AcDbEntity
  8
0
100
AcDbLine
 62
7
  6
CONTINUOUS
 10
-30.0660799663
 20
-34.8099156623
 11
-29.9348299663
 21
-34.8992773538
  0
LINE
  5
228
100
AcDbEntity
  8
0
100
AcDbLine
 62
7
  6
CONTINUOUS
 10
-30.1098303001
 20
-34.0503411596
 11
-29.9785803001
 21
-34.1397028511
  0
LINE
  5
229
100
AcDbEntity
  8
0
100
AcDbLine
 62
7
  6
CONTINUOUS
 10
-34.3014967601
 20
-30.9248092716
 11
-34.1348301332
 21
-31.0524688308
  0
LINE
  5
22A
100
AcDbEntity
  8
0
100
AcDbLine
 62
7
  6
CONTINUOUS
 10
-32.7785801332
 20
-35.7035326866
 11
-32.9098301332
 21
-35.5694901337
  0
LINE
  5
22B
100
AcDbEntity
  8
0
100
AcDbLine
 62
7
  6
CONTINUOUS
 10
-33.6535801749
 20
-33.9162986224
 11
-33.4785800915
 21
-34.0950220053
  0
LINE
  5
22C
100
AcDbEntity
  8
0
100
AcDbLine
 62
7
  6
CONTINUOUS
 10
-34.2598301332
 20
-32.1162986105
 11
-34.3431635062
 21
-32.0311922376
  0
LINE
  5
22D
100
AcDbEntity
  8
0
100
AcDbLine
 62
7
  6
CONTINUOUS
 10
-33.343163387
 20
-32.4567241614
 11
-33.218163387
 21
-32.5843837505
  0
LINE
  5
22E
100
AcDbEntity
  8
0
100
AcDbLine
 62
7
  6
CONTINUOUS
 10
-31.8160800497
 20
-33.9609794681
 11
-31.6848300497
 21
-34.0950220053
  0
LINE
  5
22F
100
AcDbEntity
  8
0
100
AcDbLine
 62
7
  6
CONTINUOUS
 10
-34.2598301332
 20
-31.2652347629
 11
-34.3431635062
 21
-31.1801283901
  0
LINE
  5
230
100
AcDbEntity
  8
0
100
AcDbLine
 62
7
  6
CONTINUOUS
 10
-33.3014968793
 20
-31.860979492
 11
-33.468163387
 21
-31.6907667463
  0
LINE
  5
231
100
AcDbEntity
  8
0
100
AcDbLine
 62
7
  6
CONTINUOUS
 10
-29.9348299663
 20
-34.8992773538
 11
-29.8473303001
 21
-34.9886390453
  0
LINE
  5
232
100
AcDbEntity
  8
0
100
AcDbLine
 62
7
  6
CONTINUOUS
 10
-29.6723299663
 20
-34.854596508
 11
-29.8035799663
 21
-34.7205539708
  0
LINE
  5
233
100
AcDbEntity
  8
0
100
AcDbLine
 62
7
  6
CONTINUOUS
 10
-32.343163387
 20
-31.860979492
 11
-32.1764968793
 21
-32.0311922376
  0
LINE
  5
234
100
AcDbEntity
  8
0
100
AcDbLine
 62
7
  6
CONTINUOUS
 10
-32.5098301332
 20
-31.2652347629
 11
-32.593163387
 21
-31.1801283901
  0
LINE
  5
235
100
AcDbEntity
  8
0
100
AcDbLine
 62
7
  6
CONTINUOUS
 10
-34.1348301332
 20
-31.9035326784
 11
-34.0098301332
 21
-32.0737454241
  0
LINE
  5
236
100
AcDbEntity
  8
0
100
AcDbLine
 62
7
  6
CONTINUOUS
 10
-31.0285800497
 20
-35.524809288
 11
-30.8973300497
 21
-35.7035326866
  0
LINE
  5
237
100
AcDbEntity
  8
0
100
AcDbLine
 62
7
  6
CONTINUOUS
 10
-34.1348301332
 20
-31.0524688308
 11
-34.0098301332
 21
-31.2226815765
  0
LINE
  5
238
100
AcDbEntity
  8
0
100
AcDbLine
 62
7
  6
CONTINUOUS
 10
-33.6973301332
 20
-34.2737453883
 11
-33.7848301749
 21
-34.1397028511
  0
LINE
  5
239
100
AcDbEntity
  8
0
100
AcDbLine
 62
7
  6
CONTINUOUS
 10
-32.8223302166
 20
-35.2567241823
 11
-32.6473301332
 21
-35.524809288
  0
LINE
  5
23A
100
AcDbEntity
  8
0
100
AcDbLine
 62
7
  6
CONTINUOUS
 10
-31.7723302166
 20
-34.4077880507
 11
-31.9473300497
 21
-34.1397028511
  0
LINE
  5
23B
100
AcDbEntity
  8
0
100
AcDbLine
 62
7
  6
CONTINUOUS
 10
-30.7660803001
 20
-35.524809288
 11
-30.8535802166
 21
-35.3907667195
  0
LINE
  5
23C
100
AcDbEntity
  8
0
100
AcDbLine
 62
7
  6
CONTINUOUS
 10
-33.468163387
 20
-32.7120433246
 11
-33.5931635062
 21
-32.4992773478
  0
LINE
  5
23D
100
AcDbEntity
  8
0
100
AcDbLine
 62
7
  6
CONTINUOUS
 10
-32.9098301332
 20
-35.5694901337
 11
-32.9973301749
 21
-35.3907667195
  0
LINE
  5
23E
100
AcDbEntity
  8
RACCORDO
100
AcDbLine
 62
7
  6
CONTINUOUS
 10
-44.0166822386
 20
3.6177439148
 11
-44.0264824156
 21
3.7244633023
  0
LINE
  5
23F
100
AcDbEntity
  8
0
100
AcDbLine
 62
7
  6
CONTINUOUS
 10
-41.0098301332
 20
35.1177439148
 11
-41.0098301332
 21
29.1177439148
  0
LINE
  5
240
100
AcDbEntity
  8
RACCORDO
100
AcDbLine
 62
7
  6
CONTINUOUS
 10
-44.0264824156
 20
-3.4889754726
 11
-44.0166822386
 21
-3.3822560852
  0
LINE
  5
241
100
AcDbEntity
  8
0
100
AcDbLine
 62
7
  6
CONTINUOUS
 10
-33.2834891332
 20
32.0093109148
 11
-32.4486341332
 21
34.2298529148
  0
LINE
  5
242
100
AcDbEntity
  8
0
100
AcDbLine
 62
7
  6
CONTINUOUS
 10
-32.2368611332
 20
32.8310599148
 11
-33.2295041332
 21
30.2303409148
  0
LWPOLYLINE
  5
243
100
AcDbEntity
  8
RACCORDO
100
AcDbPolyline
 62
7
  6
CONTINUOUS
 90
19
 70
0
 10
-35.2742016923
 20
23.024597243
 10
-35.2556534493
 20
23.0627627742
 10
-35.2348967682
 20
23.0995402089
 10
-35.2120410522
 20
23.1348100248
 10
-35.1872007408
 20
23.168461151
 10
-35.1604966671
 20
23.2003914999
 10
-35.1320553134
 20
23.230508514
 10
-35.1020285775
 20
23.2587075691
 10
-35.0705264294
 20
23.2849376108
 10
-35.0376061138
 20
23.3091875563
 10
-35.0034150433
 20
23.3313740955
 10
-34.9680624241
 20
23.3514504548
 10
-34.9315268553
 20
23.3694335656
 10
-34.8939321177
 20
23.3852489583
 10
-34.8554024294
 20
23.3988312902
 10
-34.8158986372
 20
23.4101659233
 10
-34.7754909327
 20
23.4191816011
 10
-34.7343704184
 20
23.4257839917
 10
-34.6926795318
 20
23.4299045328
  0
LWPOLYLINE
  5
244
100
AcDbEntity
  8
RACCORDO
100
AcDbPolyline
 62
253
  6
CONTINUOUS
 90
16
 70
0
 10
-35.1726437318
 20
22.9647836028
 10
-35.1524323878
 20
23.0017095254
 10
-35.130109683
 20
23.0366682616
 10
-35.105675677
 20
23.0696627422
 10
-35.0789670693
 20
23.1007980536
 10
-35.0501472202
 20
23.1299724822
 10
-35.0197060883
 20
23.1568746293
 10
-34.9876940238
 20
23.1814420891
 10
-34.9540604725
 20
23.2037288804
 10
-34.9191439215
 20
23.2235930096
 10
-34.8829698536
 20
23.2410374401
 10
-34.845512425
 20
23.2560436337
 10
-34.8070330586
 20
23.268433863
 10
-34.7676187221
 20
23.2781411864
 10
-34.7271819545
 20
23.2852106637
 10
-34.6857224939
 20
23.2896305906
  0
LWPOLYLINE
  5
245
100
AcDbEntity
  8
RACCORDO
100
AcDbPolyline
 62
253
  6
CONTINUOUS
 90
13
 70
0
 10
-34.7842741667
 20
22.8185656051
 10
-34.8254833061
 20
22.761892461
 10
-34.863477875
 20
22.7032725933
 10
-34.8982517469
 20
22.6427218349
 10
-34.9298684792
 20
22.580263235
 10
-34.9582521994
 20
22.5159058735
 10
-34.9831871129
 20
22.449646076
 10
-35.0047488727
 20
22.3811670293
 10
-35.0228484599
 20
22.3108196331
 10
-35.0370212826
 20
22.2396059499
 10
-35.0471066999
 20
22.1678738882
 10
-35.0532494567
 20
22.0953134926
 10
-35.0554420512
 20
22.0219417596
  0
LWPOLYLINE
  5
246
100
AcDbEntity
  8
RACCORDO
100
AcDbPolyline
 62
253
  6
CONTINUOUS
 90
13
 70
0
 10
-34.7080854564
 20
22.7725981717
 10
-34.7482543155
 20
22.7195010269
 10
-34.7854785837
 20
22.6642103802
 10
-34.819635178
 20
22.6068882456
 10
-34.8505233948
 20
22.5478820224
 10
-34.8781446015
 20
22.4871981485
 10
-34.9026032825
 20
22.4244564878
 10
-34.9238228679
 20
22.3594658709
 10
-34.9414885437
 20
22.2927320907
 10
-34.9553476396
 20
22.2249246244
 10
-34.9653059666
 20
22.1564218685
 10
-34.9713390017
 20
22.0872863859
 10
-34.9733971692
 20
22.0177439148
  0
LWPOLYLINE
  5
247
100
AcDbEntity
  8
0
100
AcDbPolyline
 62
7
  6
CONTINUOUS
 90
10
 70
0
 10
-25.2762206873
 20
32.2201313823
 10
-25.3096814069
 20
32.1919254268
 10
-25.3260589957
 20
32.1784184555
 10
-25.3422834153
 20
32.1659630295
 10
-25.3583721779
 20
32.1545116509
 10
-25.3743077713
 20
32.1441118176
 10
-25.3901097818
 20
32.1354801982
 10
-25.4057847382
 20
32.1288556822
 10
-25.4213261117
 20
32.1239993802
 10
-25.4367339023
 20
32.1209112922
  0
LINE
  5
248
100
AcDbEntity
  8
0
100
AcDbLine
 62
7
  6
CONTINUOUS
 10
-32.2973302166
 20
-35.8822560852
 11
-32.5598302166
 21
-35.8375752355
  0
LINE
  5
249
100
AcDbEntity
  8
0
100
AcDbLine
 62
7
  6
CONTINUOUS
 10
-32.5160801332
 20
-35.6141709795
 11
-32.2973302166
 21
-35.6588518252
  0
LINE
  5
24A
100
AcDbEntity
  8
0
100
AcDbLine
 62
7
  6
CONTINUOUS
 10
-30.6785801332
 20
-35.8375752355
 11
-30.4598299663
 21
-35.8822560852
  0
LINE
  5
24B
100
AcDbEntity
  8
0
100
AcDbLine
 62
7
  6
CONTINUOUS
 10
-26.8723301332
 20
-35.8375752355
 11
-26.6535799663
 21
-35.8822560852
  0
LINE
  5
24C
100
AcDbEntity
  8
0
100
AcDbLine
 62
7
  6
CONTINUOUS
 10
-33.9160801749
 20
-34.0503411596
 11
-34.134830154
 21
-34.0056603139
  0
LINE
  5
24D
100
AcDbEntity
  8
0
100
AcDbLine
 62
7
  6
CONTINUOUS
 10
-26.6098301332
 20
-35.6588518252
 11
-26.7848299663
 21
-35.6141709795
  0
LINE
  5
24E
100
AcDbEntity
  8
0
100
AcDbLine
 62
7
  6
CONTINUOUS
 10
-26.4348297994
 20
-34.8992773538
 11
-26.259830467
 21
-34.9439581995
  0
LINE
  5
24F
100
AcDbEntity
  8
0
100
AcDbLine
 62
7
  6
CONTINUOUS
 10
-26.6098301332
 20
-34.7205539708
 11
-26.7848299663
 21
-34.6758731251
  0
LINE
  5
250
100
AcDbEntity
  8
0
100
AcDbLine
 62
7
  6
CONTINUOUS
 10
-30.5035803001
 20
-35.6588518252
 11
-30.6348303001
 21
-35.6141709795
  0
LINE
  5
251
100
AcDbEntity
  8
0
100
AcDbLine
 62
7
  6
CONTINUOUS
 10
-30.1973299663
 20
-34.7652348166
 11
-30.0660799663
 21
-34.8099156623
  0
LINE
  5
252
100
AcDbEntity
  8
0
100
AcDbLine
 62
7
  6
CONTINUOUS
 10
-30.2410803001
 20
-34.0056603139
 11
-30.1098303001
 21
-34.0503411596
  0
LINE
  5
253
100
AcDbEntity
  8
0
100
AcDbLine
 62
7
  6
CONTINUOUS
 10
-34.3431635062
 20
-32.0311922376
 11
-34.4681635062
 21
-31.9886390512
  0
LINE
  5
254
100
AcDbEntity
  8
0
100
AcDbLine
 62
7
  6
CONTINUOUS
 10
-33.093163387
 20
-31.6907667463
 11
-32.968163387
 21
-31.7333199327
  0
LINE
  5
255
100
AcDbEntity
  8
0
100
AcDbLine
 62
7
  6
CONTINUOUS
 10
-34.3431635062
 20
-31.1801283901
 11
-34.4681635062
 21
-31.1375752037
  0
LINE
  5
256
100
AcDbEntity
  8
0
100
AcDbLine
 62
7
  6
CONTINUOUS
 10
-34.2181635062
 20
-31.860979492
 11
-34.1348301332
 21
-31.9035326784
  0
LINE
  5
257
100
AcDbEntity
  8
0
100
AcDbLine
 62
7
  6
CONTINUOUS
 10
-26.7848299663
 20
-35.6141709795
 11
-26.9598303001
 21
-35.524809288
  0
LINE
  5
258
100
AcDbEntity
  8
0
100
AcDbLine
 62
7
  6
CONTINUOUS
 10
-33.1348301332
 20
-31.9460858648
 11
-33.3014968793
 21
-31.860979492
  0
LINE
  5
259
100
AcDbEntity
  8
0
100
AcDbLine
 62
7
  6
CONTINUOUS
 10
-27.0473299663
 20
-34.7652348166
 11
-26.9598303001
 21
-34.8099156623
  0
LINE
  5
25A
100
AcDbEntity
  8
0
100
AcDbLine
 62
7
  6
CONTINUOUS
 10
-32.5098301332
 20
-31.7758731191
 11
-32.343163387
 21
-31.860979492
  0
LINE
  5
25B
100
AcDbEntity
  8
0
100
AcDbLine
 62
7
  6
CONTINUOUS
 10
-26.259830467
 20
-34.9439581995
 11
-26.0848301332
 21
-35.033319891
  0
LINE
  5
25C
100
AcDbEntity
  8
0
100
AcDbLine
 62
7
  6
CONTINUOUS
 10
-25.997330467
 20
-34.854596508
 11
-26.0848301332
 21
-34.8099156623
  0
LINE
  5
25D
100
AcDbEntity
  8
0
100
AcDbLine
 62
7
  6
CONTINUOUS
 10
-27.6764966409
 20
-32.839702895
 11
-27.8431636255
 21
-32.754596511
  0
LINE
  5
25E
100
AcDbEntity
  8
0
100
AcDbLine
 62
7
  6
CONTINUOUS
 10
-27.7598301332
 20
-32.5843837505
 11
-27.6764966409
 21
-32.6269369369
  0
LINE
  5
25F
100
AcDbEntity
  8
0
100
AcDbLine
 62
7
  6
CONTINUOUS
 10
-25.8431631486
 20
-32.839702895
 11
-26.0098301332
 21
-32.754596511
  0
LINE
  5
260
100
AcDbEntity
  8
0
100
AcDbLine
 62
7
  6
CONTINUOUS
 10
-25.9264971177
 20
-32.5843837505
 11
-25.8431631486
 21
-32.6269369369
  0
LINE
  5
261
100
AcDbEntity
  8
0
100
AcDbLine
 62
7
  6
CONTINUOUS
 10
-27.0910803001
 20
-35.7035326866
 11
-26.8723301332
 21
-35.8375752355
  0
LINE
  5
262
100
AcDbEntity
  8
0
100
AcDbLine
 62
7
  6
CONTINUOUS
 10
-29.8473303001
 20
-33.9609794681
 11
-30.0660799663
 21
-33.8269369309
  0
LINE
  5
263
100
AcDbEntity
  8
0
100
AcDbLine
 62
7
  6
CONTINUOUS
 10
-31.3431636255
 20
-32.839702895
 11
-31.5514968793
 21
-32.7120433246
  0
LINE
  5
264
100
AcDbEntity
  8
0
100
AcDbLine
 62
7
  6
CONTINUOUS
 10
-30.6764966409
 20
-31.6482135599
 11
-30.4681636255
 21
-31.7758731191
  0
LINE
  5
265
100
AcDbEntity
  8
0
100
AcDbLine
 62
7
  6
CONTINUOUS
 10
-25.997330467
 20
-33.9609794681
 11
-26.2160801332
 21
-33.8269369309
  0
LINE
  5
266
100
AcDbEntity
  8
0
100
AcDbLine
 62
7
  6
CONTINUOUS
 10
-33.218163387
 20
-31.6056603735
 11
-33.093163387
 21
-31.6907667463
  0
LINE
  5
267
100
AcDbEntity
  8
0
100
AcDbLine
 62
7
  6
CONTINUOUS
 10
-32.4264968793
 20
-32.1162986105
 11
-32.5514968793
 21
-32.0311922376
  0
LINE
  5
268
100
AcDbEntity
  8
0
100
AcDbLine
 62
7
  6
CONTINUOUS
 10
-31.4264966409
 20
-32.541830564
 11
-31.3014966409
 21
-32.6269369369
  0
LINE
  5
269
100
AcDbEntity
  8
0
100
AcDbLine
 62
7
  6
CONTINUOUS
 10
-30.5931636255
 20
-31.9460858648
 11
-30.7181636255
 21
-31.860979492
  0
LINE
  5
26A
100
AcDbEntity
  8
0
100
AcDbLine
 62
7
  6
CONTINUOUS
 10
-27.8431636255
 20
-32.754596511
 11
-27.9681636255
 21
-32.6694901233
  0
LINE
  5
26B
100
AcDbEntity
  8
0
100
AcDbLine
 62
7
  6
CONTINUOUS
 10
-26.0098301332
 20
-32.754596511
 11
-26.1348301332
 21
-32.6694901233
  0
LINE
  5
26C
100
AcDbEntity
  8
0
100
AcDbLine
 62
7
  6
CONTINUOUS
 10
-26.8848301332
 20
-32.0737454241
 11
-27.0098301332
 21
-31.9886390512
  0
LINE
  5
26D
100
AcDbEntity
  8
0
100
AcDbLine
 62
7
  6
CONTINUOUS
 10
-26.9264971177
 20
-31.2226815765
 11
-27.0514971177
 21
-31.1375752037
  0
LINE
  5
26E
100
AcDbEntity
  8
0
100
AcDbLine
 62
7
  6
CONTINUOUS
 10
-25.0514971177
 20
-32.0737454241
 11
-25.1764971177
 21
-31.9886390512
  0
LINE
  5
26F
100
AcDbEntity
  8
0
100
AcDbLine
 62
7
  6
CONTINUOUS
 10
-32.5514968793
 20
-30.9248092716
 11
-32.3848301332
 21
-31.0524688308
  0
LINE
  5
270
100
AcDbEntity
  8
0
100
AcDbLine
 62
7
  6
CONTINUOUS
 10
-26.7848299663
 20
-34.6758731251
 11
-26.9598303001
 21
-34.5418305879
  0
LINE
  5
271
100
AcDbEntity
  8
0
100
AcDbLine
 62
7
  6
CONTINUOUS
 10
-25.8223301332
 20
-34.9886390453
 11
-25.997330467
 21
-34.854596508
  0
LINE
  5
272
100
AcDbEntity
  8
0
100
AcDbLine
 62
7
  6
CONTINUOUS
 10
-26.259830467
 20
-34.0503411596
 11
-26.0848301332
 21
-34.1843836968
  0
LINE
  5
273
100
AcDbEntity
  8
0
100
AcDbLine
 62
7
  6
CONTINUOUS
 10
-27.2223303001
 20
-35.5694901337
 11
-27.0910803001
 21
-35.7035326866
  0
LINE
  5
274
100
AcDbEntity
  8
0
100
AcDbLine
 62
7
  6
CONTINUOUS
 10
-27.1785799663
 20
-34.6311922794
 11
-27.0473299663
 21
-34.7652348166
  0
LINE
  5
275
100
AcDbEntity
  8
0
100
AcDbLine
 62
7
  6
CONTINUOUS
 10
-27.8431636255
 20
-32.4992773478
 11
-27.7598301332
 21
-32.5843837505
  0
LINE
  5
276
100
AcDbEntity
  8
0
100
AcDbLine
 62
7
  6
CONTINUOUS
 10
-25.866080467
 20
-34.0950220053
 11
-25.997330467
 21
-33.9609794681
  0
LINE
  5
277
100
AcDbEntity
  8
0
100
AcDbLine
 62
7
  6
CONTINUOUS
 10
-26.0098301332
 20
-32.4992773478
 11
-25.9264971177
 21
-32.5843837505
  0
LINE
  5
278
100
AcDbEntity
  8
0
100
AcDbLine
 62
7
  6
CONTINUOUS
 10
-26.8431631486
 20
-31.0099156444
 11
-26.6764971177
 21
-31.1801283901
  0
LWPOLYLINE
  5
279
100
AcDbEntity
  8
RACCORDO
100
AcDbPolyline
 62
253
  6
CONTINUOUS
 90
22
 70
0
 10
-34.7722449222
 20
-22.576523688
 10
-34.7488707553
 20
-22.6046261727
 10
-34.7238367876
 20
-22.6327341934
 10
-34.6971431228
 20
-22.6608527103
 10
-34.6690153834
 20
-22.6889818058
 10
-34.6392281385
 20
-22.7171307262
 10
-34.6071049529
 20
-22.7453202247
 10
-34.5726227996
 20
-22.7736914617
 10
-34.5358049908
 20
-22.8021174046
 10
-34.4960446425
 20
-22.8302187409
 10
-34.4533358315
 20
-22.8581155499
 10
-34.4076847337
 20
-22.885701137
 10
-34.3585025558
 20
-22.9122536556
 10
-34.3057128171
 20
-22.9379136898
 10
-34.2493920635
 20
-22.9625463071
 10
-34.189180825
 20
-22.9850065957
 10
-34.1244304379
 20
-23.0054005871
 10
-34.0557891671
 20
-23.0236069934
 10
-33.9848424695
 20
-23.0381172973
 10
-33.9121183164
 20
-23.0484044603
 10
-33.8370874914
 20
-23.0549377824
 10
-33.7597493563
 20
-23.0576872393
  0
LWPOLYLINE
  5
27A
100
AcDbEntity
  8
RACCORDO
100
AcDbPolyline
 62
253
  6
CONTINUOUS
 90
22
 70
0
 10
-34.7080854563
 20
-22.5371103421
 10
-34.687114199
 20
-22.5630681435
 10
-34.6645876983
 20
-22.5893932806
 10
-34.6404412655
 20
-22.6159932304
 10
-34.6147162962
 20
-22.6426653808
 10
-34.5872548584
 20
-22.6694128607
 10
-34.5576680396
 20
-22.6964110639
 10
-34.5258786894
 20
-22.7235016545
 10
-34.4918046574
 20
-22.7505212296
 10
-34.4549977544
 20
-22.7775506866
 10
-34.4153561871
 20
-22.8043604966
 10
-34.3728061514
 20
-22.8306880052
 10
-34.326900371
 20
-22.8564527609
 10
-34.2775441172
 20
-22.8813198618
 10
-34.2246967991
 20
-22.904909428
 10
-34.1679781657
 20
-22.9269426337
 10
-34.1068329688
 20
-22.9471091532
 10
-34.041807297
 20
-22.9646866261
 10
-33.9742724381
 20
-22.9788985382
 10
-33.9048297817
 20
-22.9893661793
 10
-33.8332468947
 20
-22.9958774116
 10
-33.759753052
 20
-22.9981178574
  0
LINE
  5
27B
100
AcDbEntity
  8
0
100
AcDbLine
 62
7
  6
CONTINUOUS
 10
-31.5514968793
 20
-32.7120433246
 11
-31.6764968793
 21
-32.541830564
  0
LINE
  5
27C
100
AcDbEntity
  8
0
100
AcDbLine
 62
7
  6
CONTINUOUS
 10
-32.3848301332
 20
-31.0524688308
 11
-32.2598301332
 21
-31.2226815765
  0
LINE
  5
27D
100
AcDbEntity
  8
0
100
AcDbLine
 62
7
  6
CONTINUOUS
 10
-29.7160803001
 20
-34.1397028511
 11
-29.8473303001
 21
-33.9609794681
  0
LINE
  5
27E
100
AcDbEntity
  8
0
100
AcDbLine
 62
7
  6
CONTINUOUS
 10
-30.4681636255
 20
-31.7758731191
 11
-30.3431636255
 21
-31.9460858648
  0
LINE
  5
27F
100
AcDbEntity
  8
0
100
AcDbLine
 62
7
  6
CONTINUOUS
 10
-26.9598303001
 20
-35.524809288
 11
-27.0910803001
 21
-35.3460858737
  0
LINE
  5
280
100
AcDbEntity
  8
0
100
AcDbLine
 62
7
  6
CONTINUOUS
 10
-26.0848301332
 20
-35.033319891
 11
-25.9535801332
 21
-35.2120433365
  0
LINE
  5
281
100
AcDbEntity
  8
0
100
AcDbLine
 62
7
  6
CONTINUOUS
 10
-32.343163387
 20
-32.2439582293
 11
-32.4264968793
 21
-32.1162986105
  0
LINE
  5
282
100
AcDbEntity
  8
0
100
AcDbLine
 62
7
  6
CONTINUOUS
 10
-29.9785803001
 20
-34.1397028511
 11
-29.8910801332
 21
-34.2737453883
  0
LINE
  5
283
100
AcDbEntity
  8
0
100
AcDbLine
 62
7
  6
CONTINUOUS
 10
-30.5098301332
 20
-32.0737454241
 11
-30.5931636255
 21
-31.9460858648
  0
LINE
  5
284
100
AcDbEntity
  8
0
100
AcDbLine
 62
7
  6
CONTINUOUS
 10
-26.9598303001
 20
-34.5418305879
 11
-27.0473299663
 21
-34.4077880507
  0
LINE
  5
285
100
AcDbEntity
  8
0
100
AcDbLine
 62
7
  6
CONTINUOUS
 10
-27.9681636255
 20
-32.6694901233
 11
-28.0514966409
 21
-32.541830564
  0
LINE
  5
286
100
AcDbEntity
  8
0
100
AcDbLine
 62
7
  6
CONTINUOUS
 10
-26.0848301332
 20
-34.1843836968
 11
-25.997330467
 21
-34.3184263592
  0
LWPOLYLINE
  5
287
100
AcDbEntity
  8
RACCORDO
100
AcDbPolyline
 62
7
  6
CONTINUOUS
 90
19
 70
0
 10
-47.8948073654
 20
-3.6337279787
 10
-47.8907316846
 20
-3.641190538
 10
-47.8831882355
 20
-3.6484911859
 10
-47.8721770182
 20
-3.6556299224
 10
-47.85751033
 20
-3.662675381
 10
-47.8393758736
 20
-3.6695589282
 10
-47.8183367564
 20
-3.6760746639
 10
-47.7944124341
 20
-3.6821818996
 10
-47.7675834511
 20
-3.6879213238
 10
-47.7383545475
 20
-3.693209102
 10
-47.7067102
 20
-3.6980449277
 10
-47.6726659319
 20
-3.7024291073
 10
-47.6367730543
 20
-3.706278726
 10
-47.5988025119
 20
-3.7095923482
 10
-47.5589833599
 20
-3.7123714094
 10
-47.5185540747
 20
-3.7145373009
 10
-47.4779274818
 20
-3.7160638198
 10
-47.4366907558
 20
-3.716977169
 10
-47.3948438966
 20
-3.7172773485
  0
LINE
  5
288
100
AcDbEntity
  8
0
100
AcDbLine
 62
7
  6
CONTINUOUS
 10
-31.6848300497
 20
-34.0950220053
 11
-31.5973301332
 21
-34.2737453883
  0
LINE
  5
289
100
AcDbEntity
  8
0
100
AcDbLine
 62
7
  6
CONTINUOUS
 10
-32.1764968793
 20
-32.0311922376
 11
-32.093163387
 21
-32.2014050429
  0
LINE
  5
28A
100
AcDbEntity
  8
0
100
AcDbLine
 62
7
  6
CONTINUOUS
 10
-32.468163387
 20
-31.3503411358
 11
-32.5098301332
 21
-31.2652347629
  0
LINE
  5
28B
100
AcDbEntity
  8
0
100
AcDbLine
 62
7
  6
CONTINUOUS
 10
-31.6764968793
 20
-32.541830564
 11
-31.7598301332
 21
-32.3716177886
  0
LINE
  5
28C
100
AcDbEntity
  8
0
100
AcDbLine
 62
7
  6
CONTINUOUS
 10
-31.5098301332
 20
-32.3716177886
 11
-31.4264966409
 21
-32.541830564
  0
LWPOLYLINE
  5
28D
100
AcDbEntity
  8
RACCORDO
100
AcDbPolyline
 62
7
  6
CONTINUOUS
 90
10
 70
0
 10
-35.2742016923
 20
-22.7891094134
 10
-35.284536365
 20
-22.7642682421
 10
-35.2939853209
 20
-22.7387765099
 10
-35.3025024524
 20
-22.7126622802
 10
-35.3100249301
 20
-22.6860215521
 10
-35.3165300644
 20
-22.6588247066
 10
-35.3220088511
 20
-22.6309101492
 10
-35.3264019101
 20
-22.6022473568
 10
-35.329626431
 20
-22.57294348
 10
-35.3316145887
 20
-22.5430454336
  0
LINE
  5
28E
100
AcDbEntity
  8
0
100
AcDbLine
 62
7
  6
CONTINUOUS
 10
-31.1160802166
 20
-35.301405028
 11
-31.0285800497
 21
-35.524809288
  0
LWPOLYLINE
  5
28F
100
AcDbEntity
  8
RACCORDO
100
AcDbPolyline
 62
253
  6
CONTINUOUS
 90
7
 70
0
 10
-35.1743645176
 20
-22.7299361948
 10
-35.1848170616
 20
-22.701433045
 10
-35.1937230459
 20
-22.6718525558
 10
-35.2010811848
 20
-22.641198107
 10
-35.2068901585
 20
-22.6094730093
 10
-35.2111486143
 20
-22.5766804988
 10
-35.2138551662
 20
-22.5428237335
  0
LINE
  5
290
100
AcDbEntity
  8
0
100
AcDbLine
 62
7
  6
CONTINUOUS
 10
-34.2181635062
 20
-32.2439582293
 11
-34.2598301332
 21
-32.1162986105
  0
LINE
  5
291
100
AcDbEntity
  8
0
100
AcDbLine
 62
7
  6
CONTINUOUS
 10
-32.9973301749
 20
-35.3907667195
 11
-33.0410801332
 21
-35.2567241823
  0
LINE
  5
292
100
AcDbEntity
  8
0
100
AcDbLine
 62
7
  6
CONTINUOUS
 10
-34.0098301332
 20
-32.0737454241
 11
-33.9681635062
 21
-32.2014050429
  0
LINE
  5
293
100
AcDbEntity
  8
0
100
AcDbLine
 62
7
  6
CONTINUOUS
 10
-34.2181635062
 20
-31.3928944414
 11
-34.2598301332
 21
-31.2652347629
  0
LINE
  5
294
100
AcDbEntity
  8
0
100
AcDbLine
 62
7
  6
CONTINUOUS
 10
-34.0098301332
 20
-31.2226815765
 11
-33.9681635062
 21
-31.3503411358
  0
LINE
  5
295
100
AcDbEntity
  8
0
100
AcDbLine
 62
7
  6
CONTINUOUS
 10
-33.3848301332
 20
-32.3290646022
 11
-33.343163387
 21
-32.4567241614
  0
LINE
  5
296
100
AcDbEntity
  8
0
100
AcDbLine
 62
7
  6
CONTINUOUS
 10
-33.2598301332
 20
-31.4780008142
 11
-33.218163387
 21
-31.6056603735
  0
LINE
  5
297
100
AcDbEntity
  8
0
100
AcDbLine
 62
7
  6
CONTINUOUS
 10
-31.5973301332
 20
-34.2737453883
 11
-31.5535800497
 21
-34.4077880507
  0
LINE
  5
298
100
AcDbEntity
  8
0
100
AcDbLine
 62
7
  6
CONTINUOUS
 10
-33.4785800915
 20
-34.0950220053
 11
-33.4348301332
 21
-34.2737453883
  0
LWPOLYLINE
  5
299
100
AcDbEntity
  8
RACCORDO
100
AcDbPolyline
 62
253
  6
CONTINUOUS
 90
19
 70
0
 10
-35.2138551662
 20
-22.5428237335
 10
-35.2552197105
 20
-21.6027637783
 10
-35.2959252921
 20
-20.6299858498
 10
-35.3359012411
 20
-19.6245178612
 10
-35.3751760174
 20
-18.5879474064
 10
-35.4135869585
 20
-17.5187426787
 10
-35.4507689219
 20
-16.4122663279
 10
-35.4867220492
 20
-15.2680934665
 10
-35.5213104726
 20
-14.0867314499
 10
-35.5539494645
 20
-12.8649807754
 10
-35.5845671319
 20
-11.6031365804
 10
-35.6131116246
 20
-10.3010393014
 10
-35.638942415
 20
-8.9548689689
 10
-35.6618457451
 20
-7.5659931607
 10
-35.6816451542
 20
-6.133264409
 10
-35.6976725332
 20
-4.6491487403
 10
-35.7095215621
 20
-3.1112411421
 10
-35.7170715213
 20
-1.5222379003
 10
-35.7200417262
 20
0.1177124722
  0
LWPOLYLINE
  5
29A
100
AcDbEntity
  8
RACCORDO
100
AcDbPolyline
 62
253
  6
CONTINUOUS
 90
19
 70
0
 10
-35.3316145887
 20
-22.5430454336
 10
-35.372613893
 20
-21.6029216636
 10
-35.4132142088
 20
-20.6301447605
 10
-35.4532247211
 20
-19.6247103748
 10
-35.4923879157
 20
-18.5881331051
 10
-35.5305669654
 20
-17.5188914575
 10
-35.5677131528
 20
-16.4124266775
 10
-35.6035927233
 20
-15.2682448188
 10
-35.6379340537
 20
-14.0868345646
 10
-35.6705679026
 20
-12.8651105303
 10
-35.7011931527
 20
-11.6032599161
 10
-35.7295105765
 20
-10.3010950437
 10
-35.7552886359
 20
-8.9549685558
 10
-35.778152079
 20
-7.5660995393
 10
-35.7977607321
 20
-6.1332758119
 10
-35.8138267818
 20
-4.6492039351
 10
-35.8259159742
 20
-3.1114581255
 10
-35.8335175426
 20
-1.5224816452
 10
-35.8361423623
 20
0.1177124746
  0
LINE
  5
29B
100
AcDbEntity
  8
0
100
AcDbLine
 62
7
  6
CONTINUOUS
 10
-36.5891081332
 20
30.2303409148
 11
-36.5891081332
 21
34.2300929148
  0
LINE
  5
29C
100
AcDbEntity
  8
0
100
AcDbLine
 62
7
  6
CONTINUOUS
 10
-36.5098301332
 20
-30.3822560852
 11
-36.5098301332
 21
-36.3822560852
  0
LWPOLYLINE
  5
29D
100
AcDbEntity
  8
RACCORDO
100
AcDbPolyline
 62
7
  6
CONTINUOUS
 90
10
 70
0
 10
-35.3316145887
 20
22.7785332629
 10
-35.32981413
 20
22.8062660637
 10
-35.3268944026
 20
22.8339132471
 10
-35.3228590156
 20
22.8614297095
 10
-35.3177407742
 20
22.8886394601
 10
-35.3115300847
 20
22.9156311807
 10
-35.3041221853
 20
22.9427462233
 10
-35.2954374411
 20
22.9700529422
 10
-35.2854744012
 20
22.9973587573
 10
-35.2742016923
 20
23.024597243
  0
LINE
  5
29E
100
AcDbEntity
  8
0
100
AcDbLine
 62
7
  6
CONTINUOUS
 10
-34.3259781332
 20
32.8419469148
 11
-34.5061401332
 21
30.2303409148
  0
LWPOLYLINE
  5
29F
100
AcDbEntity
  8
RACCORDO
100
AcDbPolyline
 62
253
  6
CONTINUOUS
 90
7
 70
0
 10
-35.2138551662
 20
22.7783115631
 10
-35.2115911741
 20
22.8100954574
 10
-35.207597996
 20
22.8416449314
 10
-35.2018771525
 20
22.8729564574
 10
-35.1944302094
 20
22.9040262366
 10
-35.1852587782
 20
22.9348502034
 10
-35.1743645163
 20
22.9654240311
  0
LINE
  5
2A0
100
AcDbEntity
  8
0
100
AcDbLine
 62
7
  6
CONTINUOUS
 10
-35.3048241332
 20
30.2303409148
 11
-34.9436921332
 21
34.2298529148
  0
LINE
  5
2A1
100
AcDbEntity
  8
0
100
AcDbLine
 62
7
  6
CONTINUOUS
 10
-29.4749051332
 20
33.1308889148
 11
-29.8905931332
 21
31.6466189148
  0
LINE
  5
2A2
100
AcDbEntity
  8
0
100
AcDbLine
 62
7
  6
CONTINUOUS
 10
-30.0613671332
 20
31.0287859148
 11
-30.2917351332
 21
30.2303409148
  0
LINE
  5
2A3
100
AcDbEntity
  8
0
100
AcDbLine
 62
7
  6
CONTINUOUS
 10
-31.1175331332
 20
30.2303409148
 11
-29.8630311332
 21
34.2298529148
  0
LINE
  5
2A4
100
AcDbEntity
  8
0
100
AcDbLine
 62
7
  6
CONTINUOUS
 10
-25.8200372198
 20
25.5177439148
 11
-25.8371281142
 21
25.5005088787
  0
LINE
  5
2A5
100
AcDbEntity
  8
0
100
AcDbLine
 62
7
  6
CONTINUOUS
 10
-26.0104612941
 20
25.3273404583
 11
-26.0187104288
 21
25.3190195273
  0
LINE
  5
2A6
100
AcDbEntity
  8
0
100
AcDbLine
 62
7
  6
CONTINUOUS
 10
-26.2037389165
 20
25.7542774506
 11
-25.468746482
 21
26.4892698851
  0
LINE
  5
2A7
100
AcDbEntity
  8
0
100
AcDbLine
 62
7
  6
CONTINUOUS
 10
-25.8200372198
 20
26.1075368282
 11
-25.4598301332
 21
26.4677439148
  0
LINE
  5
2A8
100
AcDbEntity
  8
0
100
AcDbLine
 62
7
  6
CONTINUOUS
 10
-25.8371281142
 20
25.5005088787
 11
-26.0104612941
 21
25.3273404583
  0
LINE
  5
2A9
100
AcDbEntity
  8
0
100
AcDbLine
 62
7
  6
CONTINUOUS
 10
-26.0187104288
 20
25.3190195273
 11
-26.0197631268
 21
25.3180180079
  0
LINE
  5
2AA
100
AcDbEntity
  8
0
100
AcDbLine
 62
7
  6
CONTINUOUS
 10
-26.0197631268
 20
25.9093703316
 11
-26.2037389165
 21
25.7542774506
  0
LINE
  5
2AB
100
AcDbEntity
  8
0
100
AcDbLine
 62
7
  6
CONTINUOUS
 10
-12.5098301332
 20
-37.8822560852
 11
11.4901698668
 21
-37.8822560852
  0
LINE
  5
2AC
100
AcDbEntity
  8
0
100
AcDbLine
 62
7
  6
CONTINUOUS
 10
-36.5098301332
 20
-36.3822560852
 11
-23.5098301332
 21
-36.3822560852
  0
LINE
  5
2AD
100
AcDbEntity
  8
0
100
AcDbLine
 62
7
  6
CONTINUOUS
 10
-30.4598299663
 20
-35.8822560852
 11
-30.2410803001
 21
-35.8822560852
  0
LINE
  5
2AE
100
AcDbEntity
  8
0
100
AcDbLine
 62
7
  6
CONTINUOUS
 10
-28.7973303001
 20
-35.8822560852
 11
-28.5348303001
 21
-35.8822560852
  0
LINE
  5
2AF
100
AcDbEntity
  8
0
100
AcDbLine
 62
7
  6
CONTINUOUS
 10
-26.6535799663
 20
-35.8822560852
 11
-26.391080467
 21
-35.8822560852
  0
LINE
  5
2B0
100
AcDbEntity
  8
0
100
AcDbLine
 62
7
  6
CONTINUOUS
 10
-33.4348301332
 20
-35.8822560852
 11
-35.0098301332
 21
-35.8822560852
  0
LINE
  5
2B1
100
AcDbEntity
  8
0
100
AcDbLine
 62
7
  6
CONTINUOUS
 10
-1.0982601332
 20
-35.7883730852
 11
0.0839858668
 21
-35.7883730852
  0
LINE
  5
2B2
100
AcDbEntity
  8
0
100
AcDbLine
 62
7
  6
CONTINUOUS
 10
-34.6598301227
 20
-35.6588518252
 11
-33.4348301332
 21
-35.6588518252
  0
LINE
  5
2B3
100
AcDbEntity
  8
0
100
AcDbLine
 62
7
  6
CONTINUOUS
 10
-26.4348297994
 20
-35.6588518252
 11
-26.6098301332
 21
-35.6588518252
  0
LINE
  5
2B4
100
AcDbEntity
  8
0
100
AcDbLine
 62
7
  6
CONTINUOUS
 10
-30.1973299663
 20
-35.6588518252
 11
-30.5035803001
 21
-35.6588518252
  0
LINE
  5
2B5
100
AcDbEntity
  8
0
100
AcDbLine
 62
7
  6
CONTINUOUS
 10
-34.0910801332
 20
-33.7822560852
 11
-33.8285801332
 21
-33.8269369309
  0
LINE
  5
2B6
100
AcDbEntity
  8
0
100
AcDbLine
 62
7
  6
CONTINUOUS
 10
-32.2973302166
 20
-33.7822560852
 11
-32.0348302166
 21
-33.8269369309
  0
LINE
  5
2B7
100
AcDbEntity
  8
0
100
AcDbLine
 62
7
  6
CONTINUOUS
 10
-27.0098301332
 20
-31.9886390512
 11
-27.2598301332
 21
-31.9460858648
  0
LINE
  5
2B8
100
AcDbEntity
  8
0
100
AcDbLine
 62
7
  6
CONTINUOUS
 10
-25.1764971177
 20
-31.9886390512
 11
-25.4264971177
 21
-31.9460858648
  0
LINE
  5
2B9
100
AcDbEntity
  8
0
100
AcDbLine
 62
7
  6
CONTINUOUS
 10
-30.0223301332
 20
-34.5865114336
 11
-30.2410803001
 21
-34.5418305879
  0
LINE
  5
2BA
100
AcDbEntity
  8
0
100
AcDbLine
 62
7
  6
CONTINUOUS
 10
-32.0785800497
 20
-34.0503411596
 11
-32.2973302166
 21
-34.0056603139
  0
LINE
  5
2BB
100
AcDbEntity
  8
0
100
AcDbLine
 62
7
  6
CONTINUOUS
 10
-30.0660799663
 20
-33.8269369309
 11
-30.2848301332
 21
-33.7822560852
  0
LINE
  5
2BC
100
AcDbEntity
  8
0
100
AcDbLine
 62
7
  6
CONTINUOUS
 10
-33.0514968793
 20
-32.8822560852
 11
-33.2598301332
 21
-32.839702895
  0
LINE
  5
2BD
100
AcDbEntity
  8
0
100
AcDbLine
 62
7
  6
CONTINUOUS
 10
-31.1348301332
 20
-32.8822560852
 11
-31.3431636255
 21
-32.839702895
  0
LINE
  5
2BE
100
AcDbEntity
  8
0
100
AcDbLine
 62
7
  6
CONTINUOUS
 10
-26.2160801332
 20
-33.8269369309
 11
-26.4348297994
 21
-33.7822560852
  0
LINE
  5
2BF
100
AcDbEntity
  8
0
100
AcDbLine
 62
7
  6
CONTINUOUS
 10
-32.718163387
 20
-31.7333199327
 11
-32.5098301332
 21
-31.7758731191
  0
LINE
  5
2C0
100
AcDbEntity
  8
0
100
AcDbLine
 62
7
  6
CONTINUOUS
 10
-27.6764966409
 20
-32.6269369369
 11
-27.4681631486
 21
-32.6694901233
  0
LINE
  5
2C1
100
AcDbEntity
  8
0
100
AcDbLine
 62
7
  6
CONTINUOUS
 10
-34.5098301332
 20
-30.8822560852
 11
-34.3014967601
 21
-30.9248092716
  0
LINE
  5
2C2
100
AcDbEntity
  8
0
100
AcDbLine
 62
7
  6
CONTINUOUS
 10
-30.8848301332
 20
-31.6056603735
 11
-30.6764966409
 21
-31.6482135599
  0
LINE
  5
2C3
100
AcDbEntity
  8
0
100
AcDbLine
 62
7
  6
CONTINUOUS
 10
-25.8431631486
 20
-32.6269369369
 11
-25.6348301332
 21
-32.6694901233
  0
LINE
  5
2C4
100
AcDbEntity
  8
0
100
AcDbLine
 62
7
  6
CONTINUOUS
 10
-32.7598301332
 20
-30.8822560852
 11
-32.5514968793
 21
-30.9248092716
  0
LINE
  5
2C5
100
AcDbEntity
  8
0
100
AcDbLine
 62
7
  6
CONTINUOUS
 10
-27.0514971177
 20
-31.1375752037
 11
-27.2598301332
 21
-31.0950220173
  0
LINE
  5
2C6
100
AcDbEntity
  8
0
100
AcDbLine
 62
7
  6
CONTINUOUS
 10
-33.218163387
 20
-32.5843837505
 11
-33.0514968793
 21
-32.6269369369
  0
LINE
  5
2C7
100
AcDbEntity
  8
0
100
AcDbLine
 62
7
  6
CONTINUOUS
 10
-26.4348297994
 20
-34.0056603139
 11
-26.259830467
 21
-34.0503411596
  0
LINE
  5
2C8
100
AcDbEntity
  8
0
100
AcDbLine
 62
7
  6
CONTINUOUS
 10
-31.3014966409
 20
-32.6269369369
 11
-31.1348301332
 21
-32.6694901233
  0
LINE
  5
2C9
100
AcDbEntity
  8
0
100
AcDbLine
 62
7
  6
CONTINUOUS
 10
-32.968163387
 20
-31.9886390512
 11
-33.1348301332
 21
-31.9460858648
  0
LINE
  5
2CA
100
AcDbEntity
  8
0
100
AcDbLine
 62
7
  6
CONTINUOUS
 10
-32.5514968793
 20
-32.0311922376
 11
-32.718163387
 21
-31.9886390512
  0
LINE
  5
2CB
100
AcDbEntity
  8
0
100
AcDbLine
 62
7
  6
CONTINUOUS
 10
-27.5098301332
 20
-32.8822560852
 11
-27.6764966409
 21
-32.839702895
  0
LINE
  5
2CC
100
AcDbEntity
  8
0
100
AcDbLine
 62
7
  6
CONTINUOUS
 10
-30.7181636255
 20
-31.860979492
 11
-30.8848301332
 21
-31.8184263056
  0
LINE
  5
2CD
100
AcDbEntity
  8
0
100
AcDbLine
 62
7
  6
CONTINUOUS
 10
-25.6764971177
 20
-32.8822560852
 11
-25.8431631486
 21
-32.839702895
  0
LINE
  5
2CE
100
AcDbEntity
  8
0
100
AcDbLine
 62
7
  6
CONTINUOUS
 10
-32.593163387
 20
-31.1801283901
 11
-32.718163387
 21
-31.1375752037
  0
LINE
  5
2CF
100
AcDbEntity
  8
0
100
AcDbLine
 62
7
  6
CONTINUOUS
 10
-26.9264971177
 20
-31.860979492
 11
-26.7181631486
 21
-31.9460858648
  0
LINE
  5
2D0
100
AcDbEntity
  8
0
100
AcDbLine
 62
7
  6
CONTINUOUS
 10
-25.0931631486
 20
-31.860979492
 11
-24.8848301332
 21
-31.9460858648
  0
LINE
  5
2D1
100
AcDbEntity
  8
0
100
AcDbLine
 62
7
  6
CONTINUOUS
 10
-27.0098301332
 20
-30.9248092716
 11
-26.8431631486
 21
-31.0099156444
  0
LINE
  5
2D2
100
AcDbEntity
  8
0
100
AcDbLine
 62
7
  6
CONTINUOUS
 10
-25.1764971177
 20
-30.9248092716
 11
-25.0098301332
 21
-31.0099156444
  0
LINE
  5
2D3
100
AcDbEntity
  8
0
100
AcDbLine
 62
7
  6
CONTINUOUS
 10
-25.0931631486
 20
-31.2226815765
 11
-25.2181631486
 21
-31.1375752037
  0
LINE
  5
2D4
100
AcDbEntity
  8
0
100
AcDbLine
 62
7
  6
CONTINUOUS
 10
-26.0197631268
 20
-25.6738825019
 11
-26.2037389165
 21
-25.518789621
  0
LINE
  5
2D5
100
AcDbEntity
  8
0
100
AcDbLine
 62
7
  6
CONTINUOUS
 10
-26.0197631268
 20
-25.0825301782
 11
-26.0187104288
 21
-25.0835316977
  0
LWPOLYLINE
  5
2D6
100
AcDbEntity
  8
0
100
AcDbPolyline
 62
7
  6
CONTINUOUS
 90
3
 70
0
 10
-25.8848952437
 20
-25.2174372781
 10
-25.8371281142
 20
-25.265021049
 10
-25.8200372198
 20
-25.2822560852
  0
LINE
  5
2D7
100
AcDbEntity
  8
0
100
AcDbLine
 62
7
  6
CONTINUOUS
 10
-25.468746482
 20
-26.2537820555
 11
-26.2037389165
 21
-25.518789621
  0
LINE
  5
2D8
100
AcDbEntity
  8
0
100
AcDbLine
 62
7
  6
CONTINUOUS
 10
-25.4598301332
 20
-26.2322560852
 11
-25.8200372198
 21
-25.8720489985
  0
LINE
  5
2D9
100
AcDbEntity
  8
0
100
AcDbLine
 62
7
  6
CONTINUOUS
 10
-26.0104612941
 20
-25.0918526287
 11
-25.8848952437
 21
-25.2174372781
  0
LINE
  5
2DA
100
AcDbEntity
  8
0
100
AcDbLine
 62
7
  6
CONTINUOUS
 10
-26.0187104288
 20
-25.0835316977
 11
-26.0104612941
 21
-25.0918526287
  0
LINE
  5
2DB
100
AcDbEntity
  8
0
100
AcDbLine
 62
7
  6
CONTINUOUS
 10
-25.0098301332
 20
-31.0099156444
 11
-24.8431631486
 21
-31.1801283901
  0
LINE
  5
2DC
100
AcDbEntity
  8
0
100
AcDbLine
 62
7
  6
CONTINUOUS
 10
-26.7181631486
 20
-31.9460858648
 11
-26.6348301332
 21
-32.0737454241
  0
LINE
  5
2DD
100
AcDbEntity
  8
0
100
AcDbLine
 62
7
  6
CONTINUOUS
 10
-26.1348301332
 20
-32.6694901233
 11
-26.2181631486
 21
-32.541830564
  0
LINE
  5
2DE
100
AcDbEntity
  8
0
100
AcDbLine
 62
7
  6
CONTINUOUS
 10
-26.8431631486
 20
-31.3503411358
 11
-26.9264971177
 21
-31.2226815765
  0
LINE
  5
2DF
100
AcDbEntity
  8
0
100
AcDbLine
 62
7
  6
CONTINUOUS
 10
-24.8848301332
 20
-31.9460858648
 11
-24.8014971177
 21
-32.0737454241
  0
LINE
  5
2E0
100
AcDbEntity
  8
0
100
AcDbLine
 62
7
  6
CONTINUOUS
 10
-25.0098301332
 20
-31.3503411358
 11
-25.0931631486
 21
-31.2226815765
  0
LINE
  5
2E1
100
AcDbEntity
  8
0
100
AcDbLine
 62
7
  6
CONTINUOUS
 10
-27.2660801332
 20
-34.4524688964
 11
-27.1785799663
 21
-34.6311922794
  0
LINE
  5
2E2
100
AcDbEntity
  8
0
100
AcDbLine
 62
7
  6
CONTINUOUS
 10
-27.8848301332
 20
-32.414170975
 11
-27.8431636255
 21
-32.4992773478
  0
LINE
  5
2E3
100
AcDbEntity
  8
0
100
AcDbLine
 62
7
  6
CONTINUOUS
 10
-26.8014971177
 20
-32.2439582293
 11
-26.8848301332
 21
-32.0737454241
  0
LINE
  5
2E4
100
AcDbEntity
  8
0
100
AcDbLine
 62
7
  6
CONTINUOUS
 10
-26.0514971177
 20
-32.414170975
 11
-26.0098301332
 21
-32.4992773478
  0
LINE
  5
2E5
100
AcDbEntity
  8
0
100
AcDbLine
 62
7
  6
CONTINUOUS
 10
-24.9681631486
 20
-32.2439582293
 11
-25.0514971177
 21
-32.0737454241
  0
LINE
  5
2E6
100
AcDbEntity
  8
0
100
AcDbLine
 62
7
  6
CONTINUOUS
 10
-29.5848303001
 20
-35.0780007367
 11
-29.6723299663
 21
-34.854596508
  0
LINE
  5
2E7
100
AcDbEntity
  8
0
100
AcDbLine
 62
7
  6
CONTINUOUS
 10
-30.3431636255
 20
-31.9460858648
 11
-30.2598301332
 21
-32.1588518565
  0
LINE
  5
2E8
100
AcDbEntity
  8
0
100
AcDbLine
 62
7
  6
CONTINUOUS
 10
-27.3098299663
 20
-35.3460858737
 11
-27.2223303001
 21
-35.5694901337
  0
LINE
  5
2E9
100
AcDbEntity
  8
0
100
AcDbLine
 62
7
  6
CONTINUOUS
 10
-25.734830467
 20
-35.2120433365
 11
-25.8223301332
 21
-34.9886390453
  0
LINE
  5
2EA
100
AcDbEntity
  8
0
100
AcDbLine
 62
7
  6
CONTINUOUS
 10
-25.7785797994
 20
-34.3184263592
 11
-25.866080467
 21
-34.0950220053
  0
LWPOLYLINE
  5
2EB
100
AcDbEntity
  8
RACCORDO
100
AcDbPolyline
 62
7
  6
CONTINUOUS
 90
19
 70
0
 10
-44.0264824156
 20
3.7244633023
 10
-44.0280625744
 20
3.7290774211
 10
-44.0318312749
 20
3.7335946726
 10
-44.037788517
 20
3.7380150567
 10
-44.0460455307
 20
3.7423804715
 10
-44.056491086
 20
3.7466490189
 10
-44.0687914931
 20
3.7506950053
 10
-44.0829484267
 20
3.7544958251
 10
-44.0989602121
 20
3.7580740838
 10
-44.1164881349
 20
3.7613719036
 10
-44.1355267462
 20
3.7643866064
 10
-44.1560814949
 20
3.7671208704
 10
-44.1778300127
 20
3.7695248516
 10
-44.2009122994
 20
3.7715995252
 10
-44.2251883552
 20
3.7733439161
 10
-44.2499158127
 20
3.7747052556
 10
-44.2748472159
 20
3.7756659542
 10
-44.3002300207
 20
3.7762436015
 10
-44.3260642272
 20
3.7764381975
  0
LINE
  5
2EC
100
AcDbEntity
  8
0
100
AcDbLine
 62
7
  6
CONTINUOUS
 10
-32.2598301332
 20
-31.2226815765
 11
-32.218163387
 21
-31.3503411358
  0
LINE
  5
2ED
100
AcDbEntity
  8
0
100
AcDbLine
 62
7
  6
CONTINUOUS
 10
-30.8535802166
 20
-35.3907667195
 11
-30.8973300497
 21
-35.2567241823
  0
LINE
  5
2EE
100
AcDbEntity
  8
0
100
AcDbLine
 62
7
  6
CONTINUOUS
 10
-29.8473303001
 20
-34.9886390453
 11
-29.8035799663
 21
-35.1226816451
  0
LINE
  5
2EF
100
AcDbEntity
  8
0
100
AcDbLine
 62
7
  6
CONTINUOUS
 10
-30.4681636255
 20
-32.2014050429
 11
-30.5098301332
 21
-32.0737454241
  0
LINE
  5
2F0
100
AcDbEntity
  8
0
100
AcDbLine
 62
7
  6
CONTINUOUS
 10
-29.6723299663
 20
-34.2737453883
 11
-29.7160803001
 21
-34.1397028511
  0
LINE
  5
2F1
100
AcDbEntity
  8
0
100
AcDbLine
 62
7
  6
CONTINUOUS
 10
-28.0514966409
 20
-32.541830564
 11
-28.0931636255
 21
-32.414170975
  0
LINE
  5
2F2
100
AcDbEntity
  8
0
100
AcDbLine
 62
7
  6
CONTINUOUS
 10
-33.5931635062
 20
-32.4992773478
 11
-33.6348301332
 21
-32.3290646022
  0
LINE
  5
2F3
100
AcDbEntity
  8
0
100
AcDbLine
 62
7
  6
CONTINUOUS
 10
-33.468163387
 20
-31.6907667463
 11
-33.5098301332
 21
-31.5205540006
  0
LINE
  5
2F4
100
AcDbEntity
  8
0
100
AcDbLine
 62
7
  6
CONTINUOUS
 10
-33.0410801332
 20
-35.2567241823
 11
-33.0848300915
 21
-35.033319891
  0
LINE
  5
2F5
100
AcDbEntity
  8
0
100
AcDbLine
 62
7
  6
CONTINUOUS
 10
-31.5535800497
 20
-34.4077880507
 11
-31.5098302166
 21
-34.6311922794
  0
LINE
  5
2F6
100
AcDbEntity
  8
0
100
AcDbLine
 62
7
  6
CONTINUOUS
 10
-32.8660800497
 20
-34.9886390453
 11
-32.8223302166
 21
-35.2567241823
  0
LINE
  5
2F7
100
AcDbEntity
  8
0
100
AcDbLine
 62
7
  6
CONTINUOUS
 10
-31.7285801332
 20
-34.6758731251
 11
-31.7723302166
 21
-34.4077880507
  0
LINE
  5
2F8
100
AcDbEntity
  8
RACCORDO
100
AcDbLine
 62
253
  6
CONTINUOUS
 10
-34.6857224939
 20
23.2896305974
 11
-34.6876435527
 21
23.3146881022
  0
LINE
  5
2F9
100
AcDbEntity
  8
RACCORDO
100
AcDbLine
 62
253
  6
CONTINUOUS
 10
-36.6088569438
 20
41.3170352575
 11
-36.7045646307
 21
42.6259574465
  0
LINE
  5
2FA
100
AcDbEntity
  8
RACCORDO
100
AcDbLine
 62
253
  6
CONTINUOUS
 10
-36.814527369
 20
44.1298352729
 11
-36.8610014087
 21
44.7654258274
  0
LINE
  5
2FB
100
AcDbEntity
  8
RACCORDO
100
AcDbLine
 62
253
  6
CONTINUOUS
 10
-36.9284451379
 20
45.6878030839
 11
-36.9703081217
 21
46.2603316887
  0
LINE
  5
2FC
100
AcDbEntity
  8
RACCORDO
100
AcDbLine
 62
253
  6
CONTINUOUS
 10
-34.6926795318
 20
23.4299045328
 11
-34.731004836
 21
23.9881562445
  0
LINE
  5
2FD
100
AcDbEntity
  8
RACCORDO
100
AcDbLine
 62
253
  6
CONTINUOUS
 10
-34.6876435527
 20
23.3146881022
 11
-34.6894403512
 21
23.340806181
  0
LWPOLYLINE
  5
2FE
100
AcDbEntity
  8
RACCORDO
100
AcDbPolyline
 62
253
  6
CONTINUOUS
 90
11
 70
0
 10
-34.6894403512
 20
23.340806181
 10
-34.6909896785
 20
23.3661938508
 10
-34.6916374677
 20
23.3780644711
 10
-34.6921852933
 20
23.3891102148
 10
-34.6926237234
 20
23.3991409047
 10
-34.6929452094
 20
23.4079838399
 10
-34.6931442162
 20
23.4154867695
 10
-34.6932173175
 20
23.4215205138
 10
-34.6931632547
 20
23.4259811883
 10
-34.6929829586
 20
23.4287919925
 10
-34.6926795334
 20
23.4299045321
  0
LWPOLYLINE
  5
2FF
100
AcDbEntity
  8
RACCORDO
100
AcDbPolyline
 62
253
  6
CONTINUOUS
 90
13
 70
0
 10
-34.9733971801
 20
-21.7822461085
 10
-34.9715059856
 20
-21.8488891177
 10
-34.9659043499
 20
-21.9156912421
 10
-34.956548862
 20
-21.9824413543
 10
-34.9433828108
 20
-22.0490334287
 10
-34.9264003693
 20
-22.1151321885
 10
-34.9057088249
 20
-22.1801898869
 10
-34.8814204562
 20
-22.2438753429
 10
-34.8535725173
 20
-22.3061108926
 10
-34.8222243653
 20
-22.3667452748
 10
-34.7874547945
 20
-22.4255944043
 10
-34.7493713863
 20
-22.4824461105
 10
-34.7080854563
 20
-22.5371103421
  0
LWPOLYLINE
  5
300
100
AcDbEntity
  8
RACCORDO
100
AcDbPolyline
 62
253
  6
CONTINUOUS
 90
13
 70
0
 10
-35.0554420512
 20
-21.78645393
 10
-35.0535694271
 20
-21.8568153951
 10
-35.0478301994
 20
-21.9269520949
 10
-35.0382314662
 20
-21.9968478849
 10
-35.0247433957
 20
-22.0667835024
 10
-35.0074110375
 20
-22.1364418322
 10
-34.9863537497
 20
-22.2049094365
 10
-34.9615478505
 20
-22.2720460967
 10
-34.9330324401
 20
-22.3379528186
 10
-34.901019921
 20
-22.4020804327
 10
-34.8655854542
 20
-22.4642344493
 10
-34.8266678365
 20
-22.5245729801
 10
-34.7842741212
 20
-22.5830778446
  0
LINE
  5
301
100
AcDbEntity
  8
RACCORDO
100
AcDbLine
 62
253
  6
CONTINUOUS
 10
-33.7597493564
 20
-23.0576872441
 11
-33.7598301332
 21
-22.9822560852
  0
LINE
  5
302
100
AcDbEntity
  8
RACCORDO
100
AcDbLine
 62
253
  6
CONTINUOUS
 10
-35.0607063952
 20
-14.4626043792
 11
-35.0554420512
 21
-21.78645393
  0
LINE
  5
303
100
AcDbEntity
  8
0
100
AcDbLine
 62
7
  6
CONTINUOUS
 10
-35.7542531332
 20
34.2300929148
 11
-35.7542531332
 21
30.2303409148
  0
LINE
  5
304
100
AcDbEntity
  8
0
100
AcDbLine
 62
7
  6
CONTINUOUS
 10
-35.5098301332
 20
-32.8822560852
 11
-35.5098301332
 21
-30.8822560852
  0
LINE
  5
305
100
AcDbEntity
  8
0
100
AcDbLine
 62
7
  6
CONTINUOUS
 10
-35.2598301332
 20
-31.1375752037
 11
-35.2598301332
 21
-31.7333199327
  0
LINE
  5
306
100
AcDbEntity
  8
0
100
AcDbLine
 62
7
  6
CONTINUOUS
 10
-35.2598301332
 20
-31.9886390512
 11
-35.2598301332
 21
-32.6269369369
  0
LINE
  5
307
100
AcDbEntity
  8
0
100
AcDbLine
 62
7
  6
CONTINUOUS
 10
-35.0098301332
 20
-35.8822560852
 11
-35.0098301332
 21
-35.6588518252
  0
LINE
  5
308
100
AcDbEntity
  8
RACCORDO
100
AcDbLine
 62
253
  6
CONTINUOUS
 10
-34.98161159
 20
0.1177254803
 11
-34.9733971754
 21
-21.7822461085
  0
LINE
  5
309
100
AcDbEntity
  8
DRAFT
100
AcDbLine
 62
7
  6
CONTINUOUS
 10
-34.9598301332
 20
-21.7822560852
 11
-34.9598301332
 21
22.0177439148
  0
LINE
  5
30A
100
AcDbEntity
  8
RACCORDO
100
AcDbLine
 62
7
  6
CONTINUOUS
 10
-34.5098301332
 20
-23.2440448568
 11
-34.5098301332
 21
-25.0822560852
  0
LINE
  5
30B
100
AcDbEntity
  8
RACCORDO
100
AcDbLine
 62
7
  6
CONTINUOUS
 10
-34.5098301332
 20
23.4795326865
 11
-34.5098301332
 21
25.3177439148
  0
LINE
  5
30C
100
AcDbEntity
  8
RACCORDO
100
AcDbLine
 62
7
  6
CONTINUOUS
 10
-34.3598301332
 20
22.018566194
 11
-34.3598301332
 21
-21.7830783643
  0
LINE
  5
30D
100
AcDbEntity
  8
0
100
AcDbLine
 62
7
  6
CONTINUOUS
 10
-34.2181635062
 20
-32.3716177886
 11
-34.2181635062
 21
-32.2439582293
  0
LINE
  5
30E
100
AcDbEntity
  8
0
100
AcDbLine
 62
7
  6
CONTINUOUS
 10
-34.2181635062
 20
-31.4780008142
 11
-34.2181635062
 21
-31.3928944414
  0
LINE
  5
30F
100
AcDbEntity
  8
0
100
AcDbLine
 62
7
  6
CONTINUOUS
 10
-33.9681635062
 20
-31.3503411358
 11
-33.9681635062
 21
-31.5205540006
  0
LINE
  5
310
100
AcDbEntity
  8
0
100
AcDbLine
 62
7
  6
CONTINUOUS
 10
-33.9681635062
 20
-32.2014050429
 11
-33.9681635062
 21
-32.414170975
  0
LINE
  5
311
100
AcDbEntity
  8
0
100
AcDbLine
 62
7
  6
CONTINUOUS
 10
-33.6973301332
 20
-34.3631072049
 11
-33.6973301332
 21
-34.2737453883
  0
LINE
  5
312
100
AcDbEntity
  8
0
100
AcDbLine
 62
7
  6
CONTINUOUS
 10
-33.5098301332
 20
-31.5205540006
 11
-33.5098301332
 21
-31.3503411358
  0
LINE
  5
313
100
AcDbEntity
  8
0
100
AcDbLine
 62
7
  6
CONTINUOUS
 10
-33.4348301332
 20
-34.2737453883
 11
-33.4348301332
 21
-34.3631072049
  0
LINE
  5
314
100
AcDbEntity
  8
0
100
AcDbLine
 62
7
  6
CONTINUOUS
 10
-33.4348301332
 20
-35.6588518252
 11
-33.4348301332
 21
-35.8822560852
  0
LINE
  5
315
100
AcDbEntity
  8
0
100
AcDbLine
 62
7
  6
CONTINUOUS
 10
-33.2598301332
 20
-31.3928944414
 11
-33.2598301332
 21
-31.4780008142
  0
LINE
  5
316
100
AcDbEntity
  8
0
100
AcDbLine
 62
7
  6
CONTINUOUS
 10
-33.0848300915
 20
-35.033319891
 11
-33.0848300915
 21
-34.6311922794
  0
LINE
  5
317
100
AcDbEntity
  8
0
100
AcDbLine
 62
7
  6
CONTINUOUS
 10
-32.8660800497
 20
-34.6758731251
 11
-32.8660800497
 21
-34.9886390453
  0
LINE
  5
318
100
AcDbEntity
  8
0
100
AcDbLine
 62
7
  6
CONTINUOUS
 10
-32.343163387
 20
-32.3716177886
 11
-32.343163387
 21
-32.2439582293
  0
LINE
  5
319
100
AcDbEntity
  8
0
100
AcDbLine
 62
7
  6
CONTINUOUS
 10
-32.093163387
 20
-32.2014050429
 11
-32.093163387
 21
-32.414170975
  0
LINE
  5
31A
100
AcDbEntity
  8
0
100
AcDbLine
 62
7
  6
CONTINUOUS
 10
-31.7598301332
 20
-31.9886390512
 11
-31.7598301332
 21
-30.8822560852
  0
LINE
  5
31B
100
AcDbEntity
  8
0
100
AcDbLine
 62
7
  6
CONTINUOUS
 10
-31.7285801332
 20
-34.9886390453
 11
-31.7285801332
 21
-34.6758731251
  0
LINE
  5
31C
100
AcDbEntity
  8
RACCORDO
100
AcDbLine
 62
253
  6
CONTINUOUS
 10
-35.0638253199
 20
7.4282210432
 11
-35.0607063952
 21
-14.4626043792
  0
LINE
  5
31D
100
AcDbEntity
  8
RACCORDO
100
AcDbLine
 62
253
  6
CONTINUOUS
 10
-34.9733971692
 20
22.0177439148
 11
-34.98161159
 21
0.1177254803
  0
LINE
  5
31E
100
AcDbEntity
  8
RACCORDO
100
AcDbLine
 62
253
  6
CONTINUOUS
 10
-35.0554420512
 20
22.0219417596
 11
-35.0638253199
 21
7.4282210432
  0
LINE
  5
31F
100
AcDbEntity
  8
RACCORDO
100
AcDbLine
 62
253
  6
CONTINUOUS
 10
-33.7597493581
 20
23.2931759397
 11
-33.7598301332
 21
23.2177439148
  0
LWPOLYLINE
  5
320
100
AcDbEntity
  8
RACCORDO
100
AcDbPolyline
 62
253
  6
CONTINUOUS
 90
19
 70
0
 10
-35.8361423623
 20
0.1177124746
 10
-35.8335125753
 20
1.7595341898
 10
-35.8258971498
 20
3.3499214668
 10
-35.8137877173
 20
4.8888612467
 10
-35.7976977375
 20
6.3738890239
 10
-35.7780635126
 20
7.8074518199
 10
-35.755173613
 20
9.1969067808
 10
-35.7293687844
 20
10.5435069848
 10
-35.7010262774
 20
11.8459924799
 10
-35.6703802772
 20
13.1079516981
 10
-35.6377323587
 20
14.3295467178
 10
-35.6033845799
 20
15.5106160294
 10
-35.5675068991
 20
16.6542630383
 10
-35.5303730866
 20
17.7599719797
 10
-35.4922172059
 20
18.828263984
 10
-35.4530850671
 20
19.8637972025
 10
-35.4131125045
 20
20.8681262701
 10
-35.3725586344
 20
21.8397034982
 10
-35.3316145887
 20
22.7785332629
  0
LWPOLYLINE
  5
321
100
AcDbEntity
  8
RACCORDO
100
AcDbPolyline
 62
253
  6
CONTINUOUS
 90
19
 70
0
 10
-35.7200417244
 20
0.1177124721
 10
-35.7170642003
 20
1.7592899304
 10
-35.7095008069
 20
3.3497039073
 10
-35.6976333463
 20
4.8888056422
 10
-35.6815826353
 20
6.3738773037
 10
-35.6617567502
 20
7.8073449909
 10
-35.6388270349
 20
9.1968065764
 10
-35.6129694649
 20
10.5434507646
 10
-35.5843990008
 20
11.8458687322
 10
-35.5537612479
 20
13.10782118
 10
-35.5211087763
 20
14.3294427952
 10
-35.4865130284
 20
15.5104641481
 10
-35.450562036
 20
16.6541018477
 10
-35.4133931691
 20
17.7598220855
 10
-35.3750049049
 20
18.8280774766
 10
-35.3357611403
 20
19.8636038072
 10
-35.2958239797
 20
20.8679659911
 10
-35.2551651759
 20
21.8395443623
 10
-35.2138551662
 20
22.7783115631
  0
LWPOLYLINE
  5
322
100
AcDbEntity
  8
RACCORDO
100
AcDbPolyline
 62
253
  6
CONTINUOUS
 90
10
 70
0
 10
-34.6909889185
 20
-23.1306987057
 10
-34.6916365771
 20
-23.1425675662
 10
-34.6921842869
 20
-23.1536115846
 10
-34.6926226228
 20
-23.1636406937
 10
-34.692944041
 20
-23.1724822652
 10
-34.6931430113
 20
-23.1799841374
 10
-34.6932161107
 20
-23.1860172301
 10
-34.6931620807
 20
-23.1904776998
 10
-34.6929818508
 20
-23.193288753
 10
-34.6926785233
 20
-23.1944020003
  0
LINE
  5
323
100
AcDbEntity
  8
RACCORDO
100
AcDbLine
 62
253
  6
CONTINUOUS
 10
-34.6894398678
 20
-23.1053142829
 11
-34.6909889185
 21
-23.1306987057
  0
LINE
  5
324
100
AcDbEntity
  8
RACCORDO
100
AcDbLine
 62
253
  6
CONTINUOUS
 10
-34.6926795325
 20
-23.1944167031
 11
-34.7310048361
 21
-23.7526684147
  0
LINE
  5
325
100
AcDbEntity
  8
RACCORDO
100
AcDbLine
 62
253
  6
CONTINUOUS
 10
-34.6876433358
 20
-23.0791987734
 11
-34.6894398678
 21
-23.1053142829
  0
LINE
  5
326
100
AcDbEntity
  8
RACCORDO
100
AcDbLine
 62
253
  6
CONTINUOUS
 10
-36.6088569438
 20
-41.0815474278
 11
-36.7045646307
 21
-42.3904696168
  0
LINE
  5
327
100
AcDbEntity
  8
RACCORDO
100
AcDbLine
 62
253
  6
CONTINUOUS
 10
-36.814527369
 20
-43.8943474433
 11
-36.8610014087
 21
-44.5299379978
  0
LINE
  5
328
100
AcDbEntity
  8
RACCORDO
100
AcDbLine
 62
253
  6
CONTINUOUS
 10
-36.9284451379
 20
-45.4523152543
 11
-36.9703081217
 21
-46.0248438591
  0
LINE
  5
329
100
AcDbEntity
  8
RACCORDO
100
AcDbLine
 62
253
  6
CONTINUOUS
 10
-34.6857224939
 20
-23.0541427584
 11
-34.6876433358
 21
-23.0791987734
  0
LWPOLYLINE
  5
32A
100
AcDbEntity
  8
RACCORDO
100
AcDbPolyline
 62
7
  6
CONTINUOUS
 90
19
 70
0
 10
-46.1325072125
 20
-3.5892380893
 10
-46.1293065415
 20
-3.5848595285
 10
-46.1241434992
 20
-3.5805910474
 10
-46.1170180855
 20
-3.576432646
 10
-46.1078221306
 20
-3.5723488824
 10
-46.0966638043
 20
-3.5683751986
 10
-46.0838676167
 20
-3.5646179204
 10
-46.0694396319
 20
-3.5610964218
 10
-46.0533737857
 20
-3.5577913288
 10
-46.0359763961
 20
-3.5547508461
 10
-46.0172540831
 20
-3.5519772731
 10
-45.9972002266
 20
-3.5494683104
 10
-45.9761012834
 20
-3.5472652642
 10
-45.9538355531
 20
-3.5453672175
 10
-45.9305247361
 20
-3.5437750873
 10
-45.9068203913
 20
-3.5425329314
 10
-45.882939705
 20
-3.5416554359
 10
-45.8586654909
 20
-3.5411279147
 10
-45.833997749
 20
-3.5409503678
  0
LINE
  5
32B
100
AcDbEntity
  8
0
100
AcDbLine
 62
7
  6
CONTINUOUS
 10
-22.2155979995
 20
26.2392698851
 11
-21.7825852976
 21
26.4892698851
  0
LINE
  5
32C
100
AcDbEntity
  8
0
100
AcDbLine
 62
7
  6
CONTINUOUS
 10
-22.2098301332
 20
26.2177439148
 11
-21.7768174313
 21
26.4677439148
  0
LINE
  5
32D
100
AcDbEntity
  8
0
100
AcDbLine
 62
253
  6
CONTINUOUS
 10
23.4503921189
 20
-26.8099017987
 11
23.4441544358
 21
-26.8115731809
  0
LINE
  5
32E
100
AcDbEntity
  8
0
100
AcDbLine
 62
253
  6
CONTINUOUS
 10
19.9503921189
 20
-26.8099017987
 11
19.9441544358
 21
-26.8115731809
  0
LINE
  5
32F
100
AcDbEntity
  8
RACCORDO
100
AcDbLine
 62
253
  6
CONTINUOUS
 10
-41.7091214758
 20
-35.9812828958
 11
-43.0180436648
 21
-36.0769905827
  0
LINE
  5
330
100
AcDbEntity
  8
RACCORDO
100
AcDbLine
 62
253
  6
CONTINUOUS
 10
-44.5219214913
 20
-36.186953321
 11
-45.1575120458
 21
-36.2334273607
  0
LINE
  5
331
100
AcDbEntity
  8
RACCORDO
100
AcDbLine
 62
253
  6
CONTINUOUS
 10
-46.0798893023
 20
-36.3008710899
 11
-46.6524179071
 21
-36.3427340737
  0
LWPOLYLINE
  5
332
100
AcDbEntity
  8
0
100
AcDbPolyline
 62
253
  6
CONTINUOUS
 90
4
 70
0
 10
21.2022803017
 20
-32.4059988833
 10
18.5628778916
 20
-32.5171654181
 10
14.7472114126
 20
-32.6486453267
 10
13.8248624458
 20
-32.6733631791
  0
LWPOLYLINE
  5
333
100
AcDbEntity
  8
0
100
AcDbPolyline
 62
253
  6
CONTINUOUS
 90
4
 70
0
 10
13.7717769138
 20
-32.3582784204
 10
14.7625872775
 20
-32.3317142297
 10
18.5796242796
 20
-32.2001581442
 10
21.2342580078
 20
-32.0883329174
  0
LINE
  5
334
100
AcDbEntity
  8
ASSI
100
AcDbLine
 62
7
  6
CONTINUOUS
 10
-9.4929083194
 20
-35.6821150517
 11
-9.3773841332
 21
-35.6794760958
  0
LINE
  5
335
100
AcDbEntity
  8
0
100
AcDbLine
 62
7
  6
CONTINUOUS
 10
0.0839858668
 20
-35.3717080852
 11
-0.2851261332
 21
-35.3717080852
  0
LINE
  5
336
100
AcDbEntity
  8
0
100
AcDbLine
 62
7
  6
CONTINUOUS
 10
-0.7290051332
 20
-35.3717080852
 11
-1.0982601332
 21
-35.3717080852
  0
LINE
  5
337
100
AcDbEntity
  8
0
100
AcDbLine
 62
7
  6
CONTINUOUS
 10
-26.6098301332
 20
-34.8992773538
 11
-26.4348297994
 21
-34.8992773538
  0
LINE
  5
338
100
AcDbEntity
  8
0
100
AcDbLine
 62
7
  6
CONTINUOUS
 10
-30.5035803001
 20
-34.7652348166
 11
-30.1973299663
 21
-34.7652348166
  0
LINE
  5
339
100
AcDbEntity
  8
0
100
AcDbLine
 62
7
  6
CONTINUOUS
 10
-26.4348297994
 20
-34.7205539708
 11
-26.6098301332
 21
-34.7205539708
  0
LINE
  5
33A
100
AcDbEntity
  8
0
100
AcDbLine
 62
7
  6
CONTINUOUS
 10
6.2631698668
 20
-34.6622560852
 11
6.5871698668
 21
-34.6622560852
  0
LINE
  5
33B
100
AcDbEntity
  8
0
100
AcDbLine
 62
7
  6
CONTINUOUS
 10
8.3931698668
 20
-34.6622560852
 11
8.7171698668
 21
-34.6622560852
  0
LINE
  5
33C
100
AcDbEntity
  8
0
100
AcDbLine
 62
7
  6
CONTINUOUS
 10
-30.2410803001
 20
-34.5418305879
 11
-30.4598299663
 21
-34.5418305879
  0
LINE
  5
33D
100
AcDbEntity
  8
0
100
AcDbLine
 62
7
  6
CONTINUOUS
 10
6.4575368668
 20
-34.4222560852
 11
6.3928028668
 21
-34.4222565106
  0
LINE
  5
33E
100
AcDbEntity
  8
0
100
AcDbLine
 62
7
  6
CONTINUOUS
 10
8.5875368668
 20
-34.4222560852
 11
8.5228028668
 21
-34.4222560852
  0
LINE
  5
33F
100
AcDbEntity
  8
0
100
AcDbLine
 62
7
  6
CONTINUOUS
 10
-29.8910801332
 20
-34.2737453883
 11
-29.6723299663
 21
-34.2737453883
  0
LINE
  5
340
100
AcDbEntity
  8
0
100
AcDbLine
 62
7
  6
CONTINUOUS
 10
-34.7473301332
 20
-34.2737453883
 11
-34.9660801319
 21
-34.2737453883
  0
LINE
  5
341
100
AcDbEntity
  8
ASSI
100
AcDbLine
 62
7
  6
CONTINUOUS
 10
-5.3922741332
 20
-34.2572560852
 11
-6.8527751332
 21
-34.2572560852
  0
LINE
  5
342
100
AcDbEntity
  8
0
100
AcDbLine
 62
7
  6
CONTINUOUS
 10
-30.5035803001
 20
-34.0056603139
 11
-30.2410803001
 21
-34.0056603139
  0
LINE
  5
343
100
AcDbEntity
  8
0
100
AcDbLine
 62
7
  6
CONTINUOUS
 10
-29.2348301332
 20
-34.0056603139
 11
-27.9223301332
 21
-34.0056603139
  0
LINE
  5
344
100
AcDbEntity
  8
0
100
AcDbLine
 62
7
  6
CONTINUOUS
 10
-26.6098301332
 20
-34.0056603139
 11
-26.4348297994
 21
-34.0056603139
  0
LINE
  5
345
100
AcDbEntity
  8
0
100
AcDbLine
 62
7
  6
CONTINUOUS
 10
-34.134830154
 20
-34.0056603139
 11
-34.3098301123
 21
-34.0056603139
  0
LINE
  5
346
100
AcDbEntity
  8
0
100
AcDbLine
 62
7
  6
CONTINUOUS
 10
-34.266080154
 20
-33.7822560852
 11
-34.0910801332
 21
-33.7822560852
  0
LINE
  5
347
100
AcDbEntity
  8
0
100
AcDbLine
 62
7
  6
CONTINUOUS
 10
-26.4348297994
 20
-33.7822560852
 11
-26.6098301332
 21
-33.7822560852
  0
LINE
  5
348
100
AcDbEntity
  8
0
100
AcDbLine
 62
7
  6
CONTINUOUS
 10
-27.6598301332
 20
-33.7822560852
 11
-29.2348301332
 21
-33.7822560852
  0
LINE
  5
349
100
AcDbEntity
  8
0
100
AcDbLine
 62
7
  6
CONTINUOUS
 10
-30.2848301332
 20
-33.7822560852
 11
-30.4598299663
 21
-33.7822560852
  0
LINE
  5
34A
100
AcDbEntity
  8
ASSI
100
AcDbLine
 62
7
  6
CONTINUOUS
 10
-6.8527781881
 20
-33.5072560852
 11
-5.3922741332
 21
-33.5072560852
  0
LINE
  5
34B
100
AcDbEntity
  8
0
100
AcDbLine
 62
7
  6
CONTINUOUS
 10
6.2616358668
 20
-33.1922560852
 11
7.3701698668
 21
-33.1922560852
  0
LINE
  5
34C
100
AcDbEntity
  8
0
100
AcDbLine
 62
7
  6
CONTINUOUS
 10
7.6101698668
 20
-33.1922560852
 11
8.7187038668
 21
-33.1922560852
  0
LINE
  5
34D
100
AcDbEntity
  8
0
100
AcDbLine
 62
7
  6
CONTINUOUS
 10
8.7187038668
 20
-32.9522560852
 11
6.2616358668
 21
-32.9522560852
  0
LINE
  5
34E
100
AcDbEntity
  8
0
100
AcDbLine
 62
7
  6
CONTINUOUS
 10
-25.3431631486
 20
-32.8822560852
 11
-25.6764971177
 21
-32.8822560852
  0
LINE
  5
34F
100
AcDbEntity
  8
0
100
AcDbLine
 62
7
  6
CONTINUOUS
 10
-27.1764971177
 20
-32.8822560852
 11
-27.5098301332
 21
-32.8822560852
  0
LINE
  5
350
100
AcDbEntity
  8
0
100
AcDbLine
 62
7
  6
CONTINUOUS
 10
-29.2598301332
 20
-32.8822560852
 11
-29.5098301332
 21
-32.8822560852
  0
LINE
  5
351
100
AcDbEntity
  8
0
100
AcDbLine
 62
7
  6
CONTINUOUS
 10
-30.8848301332
 20
-32.8822560852
 11
-31.1348301332
 21
-32.8822560852
  0
LINE
  5
352
100
AcDbEntity
  8
0
100
AcDbLine
 62
7
  6
CONTINUOUS
 10
-32.718163387
 20
-32.8822560852
 11
-33.0514968793
 21
-32.8822560852
  0
LINE
  5
353
100
AcDbEntity
  8
0
100
AcDbLine
 62
7
  6
CONTINUOUS
 10
-34.5098301332
 20
-32.8822560852
 11
-35.5098301332
 21
-32.8822560852
  0
LINE
  5
354
100
AcDbEntity
  8
0
100
AcDbLine
 62
7
  6
CONTINUOUS
 10
-31.1348301332
 20
-32.6694901233
 11
-30.8848301332
 21
-32.6694901233
  0
LINE
  5
355
100
AcDbEntity
  8
0
100
AcDbLine
 62
7
  6
CONTINUOUS
 10
-27.4681631486
 20
-32.6694901233
 11
-27.2181631486
 21
-32.6694901233
  0
LINE
  5
356
100
AcDbEntity
  8
0
100
AcDbLine
 62
7
  6
CONTINUOUS
 10
-25.6348301332
 20
-32.6694901233
 11
-25.3848301332
 21
-32.6694901233
  0
LINE
  5
357
100
AcDbEntity
  8
0
100
AcDbLine
 62
7
  6
CONTINUOUS
 10
-35.2598301332
 20
-32.6269369369
 11
-34.4681635062
 21
-32.6269369369
  0
LINE
  5
358
100
AcDbEntity
  8
0
100
AcDbLine
 62
7
  6
CONTINUOUS
 10
-33.0514968793
 20
-32.6269369369
 11
-32.718163387
 21
-32.6269369369
  0
LINE
  5
359
100
AcDbEntity
  8
0
100
AcDbLine
 62
7
  6
CONTINUOUS
 10
-28.0931636255
 20
-32.414170975
 11
-27.8848301332
 21
-32.414170975
  0
LINE
  5
35A
100
AcDbEntity
  8
0
100
AcDbLine
 62
7
  6
CONTINUOUS
 10
-26.2598301332
 20
-32.414170975
 11
-26.0514971177
 21
-32.414170975
  0
LINE
  5
35B
100
AcDbEntity
  8
0
100
AcDbLine
 62
7
  6
CONTINUOUS
 10
-1.0846531332
 20
-32.4115100852
 11
-0.7290051332
 21
-32.4115100852
  0
LINE
  5
35C
100
AcDbEntity
  8
0
100
AcDbLine
 62
7
  6
CONTINUOUS
 10
-0.2851261332
 20
-32.4115100852
 11
0.0703788668
 21
-32.4115100852
  0
LINE
  5
35D
100
AcDbEntity
  8
0
100
AcDbLine
 62
7
  6
CONTINUOUS
 10
-31.7598301332
 20
-32.3716177886
 11
-31.5098301332
 21
-32.3716177886
  0
LINE
  5
35E
100
AcDbEntity
  8
0
100
AcDbLine
 62
7
  6
CONTINUOUS
 10
-33.6348301332
 20
-32.3290646022
 11
-33.3848301332
 21
-32.3290646022
  0
LINE
  5
35F
100
AcDbEntity
  8
0
100
AcDbLine
 62
7
  6
CONTINUOUS
 10
0.0703788668
 20
-31.9925530852
 11
-1.0846531332
 21
-31.9925530852
  0
LINE
  5
360
100
AcDbEntity
  8
0
100
AcDbLine
 62
7
  6
CONTINUOUS
 10
-31.4681636255
 20
-31.9886390512
 11
-31.7598301332
 21
-31.9886390512
  0
LINE
  5
361
100
AcDbEntity
  8
0
100
AcDbLine
 62
7
  6
CONTINUOUS
 10
-32.718163387
 20
-31.9886390512
 11
-32.968163387
 21
-31.9886390512
  0
LINE
  5
362
100
AcDbEntity
  8
0
100
AcDbLine
 62
7
  6
CONTINUOUS
 10
-34.4681635062
 20
-31.9886390512
 11
-35.2598301332
 21
-31.9886390512
  0
LINE
  5
363
100
AcDbEntity
  8
0
100
AcDbLine
 62
7
  6
CONTINUOUS
 10
-25.4264971177
 20
-31.9460858648
 11
-25.5931631486
 21
-31.9460858648
  0
LINE
  5
364
100
AcDbEntity
  8
0
100
AcDbLine
 62
7
  6
CONTINUOUS
 10
-27.2598301332
 20
-31.9460858648
 11
-27.4264971177
 21
-31.9460858648
  0
LINE
  5
365
100
AcDbEntity
  8
0
100
AcDbLine
 62
7
  6
CONTINUOUS
 10
-30.8848301332
 20
-31.8184263056
 11
-31.1348301332
 21
-31.8184263056
  0
LINE
  5
366
100
AcDbEntity
  8
0
100
AcDbLine
 62
7
  6
CONTINUOUS
 10
-27.4264971177
 20
-31.7758731191
 11
-27.2598301332
 21
-31.7758731191
  0
LINE
  5
367
100
AcDbEntity
  8
0
100
AcDbLine
 62
7
  6
CONTINUOUS
 10
-25.5931631486
 20
-31.7758731191
 11
-25.4264971177
 21
-31.7758731191
  0
LINE
  5
368
100
AcDbEntity
  8
0
100
AcDbLine
 62
7
  6
CONTINUOUS
 10
-35.2598301332
 20
-31.7333199327
 11
-34.4681635062
 21
-31.7333199327
  0
LINE
  5
369
100
AcDbEntity
  8
0
100
AcDbLine
 62
7
  6
CONTINUOUS
 10
-32.968163387
 20
-31.7333199327
 11
-32.718163387
 21
-31.7333199327
  0
LINE
  5
36A
100
AcDbEntity
  8
0
100
AcDbLine
 62
7
  6
CONTINUOUS
 10
-31.1348301332
 20
-31.6056603735
 11
-30.8848301332
 21
-31.6056603735
  0
LINE
  5
36B
100
AcDbEntity
  8
0
100
AcDbLine
 62
7
  6
CONTINUOUS
 10
-26.0098301332
 20
-31.3503411358
 11
-26.2181631486
 21
-31.3503411358
  0
LINE
  5
36C
100
AcDbEntity
  8
0
100
AcDbLine
 62
7
  6
CONTINUOUS
 10
-27.8431636255
 20
-31.3503411358
 11
-28.0514966409
 21
-31.3503411358
  0
LINE
  5
36D
100
AcDbEntity
  8
0
100
AcDbLine
 62
7
  6
CONTINUOUS
 10
-32.218163387
 20
-31.3503411358
 11
-32.468163387
 21
-31.3503411358
  0
LINE
  5
36E
100
AcDbEntity
  8
0
100
AcDbLine
 62
7
  6
CONTINUOUS
 10
-32.718163387
 20
-31.1375752037
 11
-32.968163387
 21
-31.1375752037
  0
LINE
  5
36F
100
AcDbEntity
  8
0
100
AcDbLine
 62
7
  6
CONTINUOUS
 10
-34.4681635062
 20
-31.1375752037
 11
-35.2598301332
 21
-31.1375752037
  0
LINE
  5
370
100
AcDbEntity
  8
0
100
AcDbLine
 62
7
  6
CONTINUOUS
 10
-25.4264971177
 20
-31.0950220173
 11
-25.5931631486
 21
-31.0950220173
  0
LINE
  5
371
100
AcDbEntity
  8
0
100
AcDbLine
 62
7
  6
CONTINUOUS
 10
-27.2598301332
 20
-31.0950220173
 11
-27.4264971177
 21
-31.0950220173
  0
LINE
  5
372
100
AcDbEntity
  8
0
100
AcDbLine
 62
7
  6
CONTINUOUS
 10
-28.6764966409
 20
-31.0950220173
 11
-29.9264966409
 21
-31.0950220173
  0
LINE
  5
373
100
AcDbEntity
  8
0
100
AcDbLine
 62
7
  6
CONTINUOUS
 10
-30.3431636255
 20
-31.0950220173
 11
-31.5514968793
 21
-31.0950220173
  0
LWPOLYLINE
  5
374
100
AcDbEntity
  8
0
100
AcDbPolyline
 62
253
  6
CONTINUOUS
 90
4
 70
0
 10
-14.8445215722
 20
-32.6733584312
 10
-15.7693422188
 20
-32.6485696527
 10
-19.5844814924
 20
-32.5170910085
 10
-22.2219407542
 20
-32.4059974693
  0
LWPOLYLINE
  5
375
100
AcDbEntity
  8
0
100
AcDbPolyline
 62
253
  6
CONTINUOUS
 90
4
 70
0
 10
-14.7914371802
 20
-32.3582784204
 10
-15.7822475439
 20
-32.3317142297
 10
-19.5992845459
 20
-32.2001581442
 10
-22.2539182741
 20
-32.0883329174
  0
LINE
  5
376
100
AcDbEntity
  8
RACCORDO
100
AcDbLine
 62
253
  6
CONTINUOUS
 10
40.6894612095
 20
-35.9812828958
 11
41.9983833985
 21
-36.0769905827
  0
LINE
  5
377
100
AcDbEntity
  8
RACCORDO
100
AcDbLine
 62
253
  6
CONTINUOUS
 10
43.5022612249
 20
-36.186953321
 11
44.1378517794
 21
-36.2334273607
  0
LINE
  5
378
100
AcDbEntity
  8
RACCORDO
100
AcDbLine
 62
253
  6
CONTINUOUS
 10
45.0602290359
 20
-36.3008710899
 11
45.6327576407
 21
-36.3427340737
  0
LINE
  5
379
100
AcDbEntity
  8
0
100
AcDbLine
 62
7
  6
CONTINUOUS
 10
-27.3014971177
 20
-30.8822560852
 11
-27.0098301332
 21
-30.9248092716
  0
LINE
  5
37A
100
AcDbEntity
  8
0
100
AcDbLine
 62
7
  6
CONTINUOUS
 10
-25.4681631486
 20
-30.8822560852
 11
-25.1764971177
 21
-30.9248092716
  0
LINE
  5
37B
100
AcDbEntity
  8
0
100
AcDbLine
 62
7
  6
CONTINUOUS
 10
-25.2181631486
 20
-31.1375752037
 11
-25.4264971177
 21
-31.0950220173
  0
LINE
  5
37C
100
AcDbEntity
  8
0
100
AcDbLine
 62
253
  6
CONTINUOUS
 10
-24.4700523853
 20
-26.8099017987
 11
-24.4638147021
 21
-26.8115731809
  0
LINE
  5
37D
100
AcDbEntity
  8
0
100
AcDbLine
 62
7
  6
CONTINUOUS
 10
-21.7825852976
 20
-26.2537820555
 11
-22.2155979995
 21
-26.0037820555
  0
LINE
  5
37E
100
AcDbEntity
  8
0
100
AcDbLine
 62
7
  6
CONTINUOUS
 10
-21.7768174313
 20
-26.2322560852
 11
-22.2098301332
 21
-25.9822560852
  0
LWPOLYLINE
  5
37F
100
AcDbEntity
  8
RACCORDO
100
AcDbPolyline
 62
7
  6
CONTINUOUS
 90
19
 70
0
 10
-46.1714790169
 20
3.9044774566
 10
-46.174679041
 20
3.9088560808
 10
-46.1798413947
 20
3.9131246094
 10
-46.1869660778
 20
3.9172830426
 10
-46.1961612529
 20
3.9213668193
 10
-46.2073187575
 20
3.9253405005
 10
-46.220114104
 20
3.9290977697
 10
-46.234541222
 20
3.932619254
 10
-46.2506061819
 20
3.9359243262
 10
-46.2680027074
 20
3.9389647878
 10
-46.2867241715
 20
3.9417383402
 10
-46.3067772012
 20
3.9442472818
 10
-46.3278754005
 20
3.9464503105
 10
-46.3501404703
 20
3.9483483447
 10
-46.3734507098
 20
3.949940466
 10
-46.3971546204
 20
3.9511826158
 10
-46.4210350361
 20
3.952060108
 10
-46.4453091231
 20
3.9525876288
 10
-46.4699768812
 20
3.9527651782
  0
LINE
  5
380
100
AcDbEntity
  8
0
100
AcDbLine
 62
7
  6
CONTINUOUS
 10
-26.2181631486
 20
-32.541830564
 11
-26.2598301332
 21
-32.414170975
  0
LINE
  5
381
100
AcDbEntity
  8
0
100
AcDbLine
 62
7
  6
CONTINUOUS
 10
-26.6348301332
 20
-32.0737454241
 11
-26.5931631486
 21
-32.2439582293
  0
LINE
  5
382
100
AcDbEntity
  8
0
100
AcDbLine
 62
7
  6
CONTINUOUS
 10
-26.6764971177
 20
-31.1801283901
 11
-26.6348301332
 21
-31.3503411358
  0
LINE
  5
383
100
AcDbEntity
  8
0
100
AcDbLine
 62
7
  6
CONTINUOUS
 10
-24.8014971177
 20
-32.0737454241
 11
-24.7598301332
 21
-32.2439582293
  0
LINE
  5
384
100
AcDbEntity
  8
0
100
AcDbLine
 62
7
  6
CONTINUOUS
 10
-24.8431631486
 20
-31.1801283901
 11
-24.8014971177
 21
-31.3503411358
  0
LINE
  5
385
100
AcDbEntity
  8
0
100
AcDbLine
 62
7
  6
CONTINUOUS
 10
-31.1598300497
 20
-34.9886390453
 11
-31.1160802166
 21
-35.301405028
  0
LINE
  5
386
100
AcDbEntity
  8
0
100
AcDbLine
 62
7
  6
CONTINUOUS
 10
-31.6226271332
 20
34.2298529148
 11
-31.2486271332
 21
30.2303409148
  0
LINE
  5
387
100
AcDbEntity
  8
0
100
AcDbLine
 62
7
  6
CONTINUOUS
 10
-32.0653371332
 20
30.2303409148
 11
-32.2368611332
 21
32.8310599148
  0
LINE
  5
388
100
AcDbEntity
  8
0
100
AcDbLine
 62
7
  6
CONTINUOUS
 10
-31.5514968793
 20
-31.0950220173
 11
-31.5514968793
 21
-31.7758731191
  0
LINE
  5
389
100
AcDbEntity
  8
0
100
AcDbLine
 62
7
  6
CONTINUOUS
 10
-31.5098302166
 20
-34.6311922794
 11
-31.5098302166
 21
-35.033319891
  0
LINE
  5
38A
100
AcDbEntity
  8
0
100
AcDbLine
 62
7
  6
CONTINUOUS
 10
-31.1598300497
 20
-34.6758731251
 11
-31.1598300497
 21
-34.9886390453
  0
LINE
  5
38B
100
AcDbEntity
  8
0
100
AcDbLine
 62
7
  6
CONTINUOUS
 10
-30.9410801332
 20
-34.7652348166
 11
-30.9410801332
 21
-34.6758731251
  0
LINE
  5
38C
100
AcDbEntity
  8
0
100
AcDbLine
 62
7
  6
CONTINUOUS
 10
-30.8973300497
 20
-35.2567241823
 11
-30.8973300497
 21
-35.1226816451
  0
LINE
  5
38D
100
AcDbEntity
  8
0
100
AcDbLine
 62
7
  6
CONTINUOUS
 10
-30.4681636255
 20
-32.2865114157
 11
-30.4681636255
 21
-32.2014050429
  0
LINE
  5
38E
100
AcDbEntity
  8
0
100
AcDbLine
 62
7
  6
CONTINUOUS
 10
-30.3431636255
 20
-30.8822560852
 11
-30.3431636255
 21
-31.0950220173
  0
LINE
  5
38F
100
AcDbEntity
  8
0
100
AcDbLine
 62
7
  6
CONTINUOUS
 10
-30.2598301332
 20
-32.1588518565
 11
-30.2598301332
 21
-32.3290646022
  0
LINE
  5
390
100
AcDbEntity
  8
0
100
AcDbLine
 62
7
  6
CONTINUOUS
 10
-29.9264966409
 20
-31.0950220173
 11
-29.9264966409
 21
-30.8822560852
  0
LINE
  5
391
100
AcDbEntity
  8
0
100
AcDbLine
 62
7
  6
CONTINUOUS
 10
-29.8035799663
 20
-35.1226816451
 11
-29.8035799663
 21
-35.2567241823
  0
LINE
  5
392
100
AcDbEntity
  8
0
100
AcDbLine
 62
7
  6
CONTINUOUS
 10
-29.5848303001
 20
-35.301405028
 11
-29.5848303001
 21
-35.0780007367
  0
LINE
  5
393
100
AcDbEntity
  8
0
100
AcDbLine
 62
7
  6
CONTINUOUS
 10
-29.2348301332
 20
-33.7822560852
 11
-29.2348301332
 21
-34.0056603139
  0
LINE
  5
394
100
AcDbEntity
  8
0
100
AcDbLine
 62
7
  6
CONTINUOUS
 10
-28.4264966409
 20
-30.8822560852
 11
-28.4264966409
 21
-31.0950220173
  0
LINE
  5
395
100
AcDbEntity
  8
0
100
AcDbLine
 62
7
  6
CONTINUOUS
 10
-27.6598301332
 20
-34.0056603139
 11
-27.6598301332
 21
-33.7822560852
  0
LINE
  5
396
100
AcDbEntity
  8
0
100
AcDbLine
 62
7
  6
CONTINUOUS
 10
-27.583105453
 20
30.2303408029
 11
-27.583105453
 21
34.1831255233
  0
LINE
  5
397
100
AcDbEntity
  8
0
100
AcDbLine
 62
7
  6
CONTINUOUS
 10
-27.4264971177
 20
-31.9460858648
 11
-27.4264971177
 21
-31.7758731191
  0
LINE
  5
398
100
AcDbEntity
  8
0
100
AcDbLine
 62
7
  6
CONTINUOUS
 10
-27.3098299663
 20
-35.2120433365
 11
-27.3098299663
 21
-35.3460858737
  0
LINE
  5
399
100
AcDbEntity
  8
0
100
AcDbLine
 62
7
  6
CONTINUOUS
 10
-27.2660801332
 20
-34.3184263592
 11
-27.2660801332
 21
-34.4524688964
  0
LINE
  5
39A
100
AcDbEntity
  8
0
100
AcDbLine
 62
7
  6
CONTINUOUS
 10
-27.0910803001
 20
-35.3460858737
 11
-27.0910803001
 21
-35.2120433365
  0
LINE
  5
39B
100
AcDbEntity
  8
0
100
AcDbLine
 62
7
  6
CONTINUOUS
 10
-25.2053052458
 20
26.4892698851
 11
-25.0558455642
 21
27.0470610105
  0
LINE
  5
39C
100
AcDbEntity
  8
0
100
AcDbLine
 62
7
  6
CONTINUOUS
 10
-25.2043875835
 20
26.4677439148
 11
-25.0496078811
 21
27.0453896284
  0
LINE
  5
39D
100
AcDbEntity
  8
0
100
AcDbLine
 62
7
  6
CONTINUOUS
 10
-24.2428428351
 20
26.4677439148
 11
-24.2370749687
 21
26.4892698851
  0
LINE
  5
39E
100
AcDbEntity
  8
0
100
AcDbLine
 62
7
  6
CONTINUOUS
 10
-23.8098301332
 20
26.2177439148
 11
-23.8040622668
 21
26.2392698851
  0
LINE
  5
39F
100
AcDbEntity
  8
0
100
AcDbLine
 62
7
  6
CONTINUOUS
 10
-21.7053052458
 20
26.4892698851
 11
-21.5558455642
 21
27.0470610105
  0
LINE
  5
3A0
100
AcDbEntity
  8
0
100
AcDbLine
 62
7
  6
CONTINUOUS
 10
-21.7043875835
 20
26.4677439148
 11
-21.5496078811
 21
27.0453896284
  0
LINE
  5
3A1
100
AcDbEntity
  8
0
100
AcDbLine
 62
7
  6
CONTINUOUS
 10
-20.5598301332
 20
26.4677439148
 11
-20.5509137843
 21
26.4892698851
  0
LINE
  5
3A2
100
AcDbEntity
  8
0
100
AcDbLine
 62
7
  6
CONTINUOUS
 10
-26.259830467
 20
-35.6141709795
 11
-26.4348297994
 21
-35.6588518252
  0
LINE
  5
3A3
100
AcDbEntity
  8
0
100
AcDbLine
 62
7
  6
CONTINUOUS
 10
-26.7848299663
 20
-34.9439581995
 11
-26.6098301332
 21
-34.8992773538
  0
LINE
  5
3A4
100
AcDbEntity
  8
0
100
AcDbLine
 62
7
  6
CONTINUOUS
 10
-26.259830467
 20
-34.6758731251
 11
-26.4348297994
 21
-34.7205539708
  0
LINE
  5
3A5
100
AcDbEntity
  8
0
100
AcDbLine
 62
7
  6
CONTINUOUS
 10
-26.7848299663
 20
-34.0503411596
 11
-26.6098301332
 21
-34.0056603139
  0
LINE
  5
3A6
100
AcDbEntity
  8
0
100
AcDbLine
 62
7
  6
CONTINUOUS
 10
-26.391080467
 20
-35.8822560852
 11
-26.1723297994
 21
-35.8375752355
  0
LINE
  5
3A7
100
AcDbEntity
  8
0
100
AcDbLine
 62
7
  6
CONTINUOUS
 10
-30.2410803001
 20
-35.8822560852
 11
-30.0223301332
 21
-35.8375752355
  0
LINE
  5
3A8
100
AcDbEntity
  8
0
100
AcDbLine
 62
7
  6
CONTINUOUS
 10
-32.2973302166
 20
-35.6588518252
 11
-32.0785800497
 21
-35.6141709795
  0
LINE
  5
3A9
100
AcDbEntity
  8
0
100
AcDbLine
 62
7
  6
CONTINUOUS
 10
-26.6098301332
 20
-33.7822560852
 11
-26.8285803001
 21
-33.8269369309
  0
LINE
  5
3AA
100
AcDbEntity
  8
0
100
AcDbLine
 62
7
  6
CONTINUOUS
 10
-30.4598299663
 20
-34.5418305879
 11
-30.6785801332
 21
-34.5865114336
  0
LINE
  5
3AB
100
AcDbEntity
  8
0
100
AcDbLine
 62
7
  6
CONTINUOUS
 10
-30.4598299663
 20
-33.7822560852
 11
-30.6785801332
 21
-33.8269369309
  0
LINE
  5
3AC
100
AcDbEntity
  8
0
100
AcDbLine
 62
7
  6
CONTINUOUS
 10
-25.3848301332
 20
-32.6694901233
 11
-25.1764971177
 21
-32.6269369369
  0
LINE
  5
3AD
100
AcDbEntity
  8
0
100
AcDbLine
 62
7
  6
CONTINUOUS
 10
-32.2973302166
 20
-34.0056603139
 11
-32.5160801332
 21
-34.0503411596
  0
LINE
  5
3AE
100
AcDbEntity
  8
0
100
AcDbLine
 62
7
  6
CONTINUOUS
 10
-27.2181631486
 20
-32.6694901233
 11
-27.0098301332
 21
-32.6269369369
  0
LINE
  5
3AF
100
AcDbEntity
  8
0
100
AcDbLine
 62
7
  6
CONTINUOUS
 10
-34.3098301123
 20
-34.0056603139
 11
-34.5285801227
 21
-34.0503411596
  0
LINE
  5
3B0
100
AcDbEntity
  8
0
100
AcDbLine
 62
7
  6
CONTINUOUS
 10
-32.0348302166
 20
-35.8375752355
 11
-32.2973302166
 21
-35.8822560852
  0
LINE
  5
3B1
100
AcDbEntity
  8
0
100
AcDbLine
 62
7
  6
CONTINUOUS
 10
-32.5598302166
 20
-33.8269369309
 11
-32.2973302166
 21
-33.7822560852
  0
LINE
  5
3B2
100
AcDbEntity
  8
0
100
AcDbLine
 62
7
  6
CONTINUOUS
 10
-34.5723301436
 20
-33.8269369309
 11
-34.266080154
 21
-33.7822560852
  0
LINE
  5
3B3
100
AcDbEntity
  8
0
100
AcDbLine
 62
7
  6
CONTINUOUS
 10
-25.8431631486
 20
-30.9248092716
 11
-25.5514971177
 21
-30.8822560852
  0
LINE
  5
3B4
100
AcDbEntity
  8
0
100
AcDbLine
 62
7
  6
CONTINUOUS
 10
-27.6764966409
 20
-30.9248092716
 11
-27.3848301332
 21
-30.8822560852
  0
LINE
  5
3B5
100
AcDbEntity
  8
0
100
AcDbLine
 62
7
  6
CONTINUOUS
 10
-35.5098301332
 20
-30.8822560852
 11
-34.5098301332
 21
-30.8822560852
  0
LINE
  5
3B6
100
AcDbEntity
  8
0
100
AcDbLine
 62
7
  6
CONTINUOUS
 10
-32.968163387
 20
-30.8822560852
 11
-32.7598301332
 21
-30.8822560852
  0
LINE
  5
3B7
100
AcDbEntity
  8
0
100
AcDbLine
 62
7
  6
CONTINUOUS
 10
-31.7598301332
 20
-30.8822560852
 11
-30.3431636255
 21
-30.8822560852
  0
LINE
  5
3B8
100
AcDbEntity
  8
0
100
AcDbLine
 62
7
  6
CONTINUOUS
 10
-29.9264966409
 20
-30.8822560852
 11
-28.4264966409
 21
-30.8822560852
  0
LINE
  5
3B9
100
AcDbEntity
  8
0
100
AcDbLine
 62
7
  6
CONTINUOUS
 10
-27.3848301332
 20
-30.8822560852
 11
-27.3014971177
 21
-30.8822560852
  0
LINE
  5
3BA
100
AcDbEntity
  8
0
100
AcDbLine
 62
7
  6
CONTINUOUS
 10
-25.5514971177
 20
-30.8822560852
 11
-25.4681631486
 21
-30.8822560852
  0
LINE
  5
3BB
100
AcDbEntity
  8
0
100
AcDbLine
 62
7
  6
CONTINUOUS
 10
11.4901698668
 20
-30.3822560852
 11
-12.5098301332
 21
-30.3822560852
  0
LINE
  5
3BC
100
AcDbEntity
  8
0
100
AcDbLine
 62
7
  6
CONTINUOUS
 10
-23.5098301332
 20
-30.3822560852
 11
-36.5098301332
 21
-30.3822560852
  0
LWPOLYLINE
  5
3BD
100
AcDbEntity
  8
RACCORDO
100
AcDbPolyline
 62
253
  6
CONTINUOUS
 90
16
 70
0
 10
-34.6857224939
 20
-23.0541427609
 10
-34.7259340163
 20
-23.0499794421
 10
-34.7653791246
 20
-23.0431905249
 10
-34.8040580733
 20
-23.0337874411
 10
-34.8420638648
 20
-23.0217773167
 10
-34.8793039828
 20
-23.0071747011
 10
-34.9155003824
 20
-22.9900010837
 10
-34.9507568722
 20
-22.9702059886
 10
-34.9849700557
 20
-22.9478578701
 10
-35.0175510082
 20
-22.9231531583
 10
-35.0484865031
 20
-22.8960360119
 10
-35.0777899858
 20
-22.866571297
 10
-35.1049123977
 20
-22.8351299983
 10
-35.1296706717
 20
-22.8018333852
 10
-35.1522478056
 20
-22.7665563664
 10
-35.1726437348
 20
-22.7292957676
  0
LINE
  5
3BE
100
AcDbEntity
  8
0
100
AcDbLine
 62
7
  6
CONTINUOUS
 10
-20.5598301332
 20
-26.2322560852
 11
-20.5509137843
 21
-26.2537820555
  0
LINE
  5
3BF
100
AcDbEntity
  8
0
100
AcDbLine
 62
7
  6
CONTINUOUS
 10
-38.9202451332
 20
30.2303409148
 11
-40.1881681332
 21
34.2298529148
  0
LINE
  5
3C0
100
AcDbEntity
  8
0
100
AcDbLine
 62
7
  6
CONTINUOUS
 10
-39.2812581332
 20
34.2298529148
 11
-38.5188781332
 21
31.4768649148
  0
LINE
  5
3C1
100
AcDbEntity
  8
0
100
AcDbLine
 62
7
  6
CONTINUOUS
 10
-25.0558455642
 20
-26.8115731809
 11
-25.2053052458
 21
-26.2537820555
  0
LINE
  5
3C2
100
AcDbEntity
  8
0
100
AcDbLine
 62
7
  6
CONTINUOUS
 10
-25.0496078811
 20
-26.8099017987
 11
-25.2043875835
 21
-26.2322560852
  0
LINE
  5
3C3
100
AcDbEntity
  8
0
100
AcDbLine
 62
7
  6
CONTINUOUS
 10
-24.2428428351
 20
-26.2322560852
 11
-24.2370749687
 21
-26.2537820555
  0
LINE
  5
3C4
100
AcDbEntity
  8
0
100
AcDbLine
 62
7
  6
CONTINUOUS
 10
-23.8098301332
 20
-25.9822560852
 11
-23.8040622668
 21
-26.0037820555
  0
LINE
  5
3C5
100
AcDbEntity
  8
0
100
AcDbLine
 62
7
  6
CONTINUOUS
 10
-21.5558455642
 20
-26.8115731809
 11
-21.7053052458
 21
-26.2537820555
  0
LINE
  5
3C6
100
AcDbEntity
  8
0
100
AcDbLine
 62
7
  6
CONTINUOUS
 10
-21.5496078811
 20
-26.8099017987
 11
-21.7043875835
 21
-26.2322560852
  0
LWPOLYLINE
  5
3C7
100
AcDbEntity
  8
0
100
AcDbPolyline
 62
7
  6
CONTINUOUS
 90
19
 70
0
 10
-25.653665439
 20
33.0720749526
 10
-25.6559852477
 20
33.1124281566
 10
-25.6615691871
 20
33.15240764
 10
-25.6704172572
 20
33.1920134028
 10
-25.6827853819
 20
33.2318507946
 10
-25.6984176373
 20
33.2713144659
 10
-25.7165462519
 20
33.3085883679
 10
-25.7369423911
 20
33.3430817096
 10
-25.7598348895
 20
33.375385282
 10
-25.7851424784
 20
33.4054554104
 10
-25.8126626282
 20
33.4332129862
 10
-25.8425978686
 20
33.4587371178
 10
-25.8754745207
 20
33.4822214554
 10
-25.9118494458
 20
33.5040505079
 10
-25.9511657826
 20
33.5238397664
 10
-25.9922792672
 20
33.5406293536
 10
-26.0348084784
 20
33.5540993107
 10
-26.0791348374
 20
33.5645695967
 10
-26.1252583443
 20
33.5720402115
  0
LINE
  5
3C8
100
AcDbEntity
  8
0
100
AcDbLine
 62
7
  6
CONTINUOUS
 10
-24.3152726828
 20
-26.2322560852
 11
-24.3143550205
 21
-26.2537820555
  0
LINE
  5
3C9
100
AcDbEntity
  8
0
100
AcDbLine
 62
7
  6
CONTINUOUS
 10
-25.2043875835
 20
26.4677439148
 11
-25.2053052458
 21
26.4892698851
  0
LINE
  5
3CA
100
AcDbEntity
  8
0
100
AcDbLine
 62
7
  6
CONTINUOUS
 10
-27.0473299663
 20
-34.4077880507
 11
-27.0473299663
 21
-34.3184263592
  0
LINE
  5
3CB
100
AcDbEntity
  8
0
100
AcDbLine
 62
7
  6
CONTINUOUS
 10
-26.8431631486
 20
-31.4354476278
 11
-26.8431631486
 21
-31.3503411358
  0
LINE
  5
3CC
100
AcDbEntity
  8
0
100
AcDbLine
 62
7
  6
CONTINUOUS
 10
-26.8014971177
 20
-32.414170975
 11
-26.8014971177
 21
-32.2439582293
  0
LINE
  5
3CD
100
AcDbEntity
  8
0
100
AcDbLine
 62
7
  6
CONTINUOUS
 10
-26.7792920815
 20
33.5484965565
 11
-26.7792920815
 21
32.4505524536
  0
LINE
  5
3CE
100
AcDbEntity
  8
0
100
AcDbLine
 62
7
  6
CONTINUOUS
 10
-26.751609542
 20
31.7955289831
 11
-26.751609542
 21
30.2303408029
  0
LINE
  5
3CF
100
AcDbEntity
  8
0
100
AcDbLine
 62
7
  6
CONTINUOUS
 10
-26.6348301332
 20
-31.3503411358
 11
-26.6348301332
 21
-31.4354476278
  0
LINE
  5
3D0
100
AcDbEntity
  8
0
100
AcDbLine
 62
7
  6
CONTINUOUS
 10
-26.5931631486
 20
-32.2439582293
 11
-26.5931631486
 21
-32.414170975
  0
LINE
  5
3D1
100
AcDbEntity
  8
0
100
AcDbLine
 62
7
  6
CONTINUOUS
 10
-26.2037389165
 20
-25.518789621
 11
-26.2037389165
 21
-25.0822560852
  0
LINE
  5
3D2
100
AcDbEntity
  8
0
100
AcDbLine
 62
7
  6
CONTINUOUS
 10
-26.2037389165
 20
25.3177439148
 11
-26.2037389165
 21
25.7542774506
  0
LINE
  5
3D3
100
AcDbEntity
  8
0
100
AcDbLine
 62
253
  6
CONTINUOUS
 10
-26.0197631268
 20
25.9093703316
 11
-26.0197631268
 21
25.3180180079
  0
LINE
  5
3D4
100
AcDbEntity
  8
0
100
AcDbLine
 62
253
  6
CONTINUOUS
 10
-26.0197631268
 20
-25.0825301782
 11
-26.0197631268
 21
-25.6738825019
  0
LINE
  5
3D5
100
AcDbEntity
  8
0
100
AcDbLine
 62
7
  6
CONTINUOUS
 10
-25.997330467
 20
-34.3184263592
 11
-25.997330467
 21
-34.4077880507
  0
LINE
  5
3D6
100
AcDbEntity
  8
0
100
AcDbLine
 62
7
  6
CONTINUOUS
 10
-25.9535801332
 20
-35.2120433365
 11
-25.9535801332
 21
-35.3460858737
  0
LINE
  5
3D7
100
AcDbEntity
  8
0
100
AcDbLine
 62
253
  6
CONTINUOUS
 10
-25.8200372198
 20
26.1075368282
 11
-25.8200372198
 21
25.5177439148
  0
LINE
  5
3D8
100
AcDbEntity
  8
0
100
AcDbLine
 62
253
  6
CONTINUOUS
 10
-25.8200372198
 20
-25.2822560852
 11
-25.8200372198
 21
-25.8720489985
  0
LINE
  5
3D9
100
AcDbEntity
  8
0
100
AcDbLine
 62
7
  6
CONTINUOUS
 10
-25.7785797994
 20
-34.4524688964
 11
-25.7785797994
 21
-34.3184263592
  0
LINE
  5
3DA
100
AcDbEntity
  8
0
100
AcDbLine
 62
7
  6
CONTINUOUS
 10
-25.7598301332
 20
-24.9322560852
 11
-25.7598301332
 21
-25.0822560852
  0
LINE
  5
3DB
100
AcDbEntity
  8
0
100
AcDbLine
 62
7
  6
CONTINUOUS
 10
-25.7598301332
 20
25.1677439148
 11
-25.7598301332
 21
25.3177439148
  0
LINE
  5
3DC
100
AcDbEntity
  8
0
100
AcDbLine
 62
7
  6
CONTINUOUS
 10
-25.734830467
 20
-35.3460858737
 11
-25.734830467
 21
-35.2120433365
  0
LINE
  5
3DD
100
AcDbEntity
  8
0
100
AcDbLine
 62
7
  6
CONTINUOUS
 10
-25.5931631486
 20
-31.9460858648
 11
-25.5931631486
 21
-31.7758731191
  0
LINE
  5
3DE
100
AcDbEntity
  8
0
100
AcDbLine
 62
7
  6
CONTINUOUS
 10
-25.4367339023
 20
32.1209112922
 11
-25.4367339023
 21
32.0972776615
  0
LINE
  5
3DF
100
AcDbEntity
  8
0
100
AcDbLine
 62
7
  6
CONTINUOUS
 10
-25.0098301332
 20
-31.4354476278
 11
-25.0098301332
 21
-31.3503411358
  0
LINE
  5
3E0
100
AcDbEntity
  8
0
100
AcDbLine
 62
7
  6
CONTINUOUS
 10
-24.9681631486
 20
-32.414170975
 11
-24.9681631486
 21
-32.2439582293
  0
LINE
  5
3E1
100
AcDbEntity
  8
0
100
AcDbLine
 62
7
  6
CONTINUOUS
 10
-24.8014971177
 20
-31.3503411358
 11
-24.8014971177
 21
-31.4354476278
  0
LINE
  5
3E2
100
AcDbEntity
  8
0
100
AcDbLine
 62
7
  6
CONTINUOUS
 10
-24.7598301332
 20
-32.2439582293
 11
-24.7598301332
 21
-32.414170975
  0
LINE
  5
3E3
100
AcDbEntity
  8
0
100
AcDbLine
 62
7
  6
CONTINUOUS
 10
-23.5098301332
 20
-36.3822560852
 11
-23.5098301332
 21
-30.3822560852
  0
LINE
  5
3E4
100
AcDbEntity
  8
0
100
AcDbLine
 62
7
  6
CONTINUOUS
 10
-23.5098301332
 20
29.1177439148
 11
-23.5098301332
 21
35.1177439148
  0
LINE
  5
3E5
100
AcDbEntity
  8
0
100
AcDbLine
 62
7
  6
CONTINUOUS
 10
-24.3152726828
 20
26.4677439148
 11
-24.3143550205
 21
26.4892698851
  0
LINE
  5
3E6
100
AcDbEntity
  8
0
100
AcDbLine
 62
7
  6
CONTINUOUS
 10
-25.2043875835
 20
-26.2322560852
 11
-25.2053052458
 21
-26.2537820555
  0
LINE
  5
3E7
100
AcDbEntity
  8
0
100
AcDbLine
 62
7
  6
CONTINUOUS
 10
-31.1160802166
 20
-34.3631072049
 11
-31.1598300497
 21
-34.6758731251
  0
LINE
  5
3E8
100
AcDbEntity
  8
0
100
AcDbLine
 62
7
  6
CONTINUOUS
 10
-32.8223302166
 20
-34.4077880507
 11
-32.8660800497
 21
-34.6758731251
  0
LINE
  5
3E9
100
AcDbEntity
  8
0
100
AcDbLine
 62
7
  6
CONTINUOUS
 10
-31.7723302166
 20
-35.2567241823
 11
-31.7285801332
 21
-34.9886390453
  0
LINE
  5
3EA
100
AcDbEntity
  8
0
100
AcDbLine
 62
7
  6
CONTINUOUS
 10
-30.9410801332
 20
-34.6758731251
 11
-30.8973300497
 21
-34.4077880507
  0
LINE
  5
3EB
100
AcDbEntity
  8
0
100
AcDbLine
 62
7
  6
CONTINUOUS
 10
-33.0848300915
 20
-34.6311922794
 11
-33.0410801332
 21
-34.4077880507
  0
LINE
  5
3EC
100
AcDbEntity
  8
0
100
AcDbLine
 62
7
  6
CONTINUOUS
 10
-31.5098302166
 20
-35.033319891
 11
-31.5535800497
 21
-35.2567241823
  0
LINE
  5
3ED
100
AcDbEntity
  8
0
100
AcDbLine
 62
7
  6
CONTINUOUS
 10
-34.9660801319
 20
-34.2737453883
 11
-34.9223301306
 21
-34.0950220053
  0
LINE
  5
3EE
100
AcDbEntity
  8
0
100
AcDbLine
 62
7
  6
CONTINUOUS
 10
-33.5098301332
 20
-31.3503411358
 11
-33.468163387
 21
-31.1801283901
  0
LINE
  5
3EF
100
AcDbEntity
  8
0
100
AcDbLine
 62
7
  6
CONTINUOUS
 10
-33.4348301332
 20
-34.3631072049
 11
-33.4785800915
 21
-34.5418305879
  0
LINE
  5
3F0
100
AcDbEntity
  8
0
100
AcDbLine
 62
7
  6
CONTINUOUS
 10
-34.2598301332
 20
-31.6056603735
 11
-34.2181635062
 21
-31.4780008142
  0
LINE
  5
3F1
100
AcDbEntity
  8
0
100
AcDbLine
 62
7
  6
CONTINUOUS
 10
-25.1764971177
 20
-32.839702895
 11
-25.3431631486
 21
-32.8822560852
  0
LINE
  5
3F2
100
AcDbEntity
  8
0
100
AcDbLine
 62
7
  6
CONTINUOUS
 10
-27.0098301332
 20
-32.839702895
 11
-27.1764971177
 21
-32.8822560852
  0
LINE
  5
3F3
100
AcDbEntity
  8
0
100
AcDbLine
 62
7
  6
CONTINUOUS
 10
-30.8848301332
 20
-32.6694901233
 11
-30.7181636255
 21
-32.6269369369
  0
LINE
  5
3F4
100
AcDbEntity
  8
0
100
AcDbLine
 62
7
  6
CONTINUOUS
 10
-32.718163387
 20
-32.6269369369
 11
-32.5514968793
 21
-32.5843837505
  0
LINE
  5
3F5
100
AcDbEntity
  8
0
100
AcDbLine
 62
7
  6
CONTINUOUS
 10
-31.1348301332
 20
-31.8184263056
 11
-31.3014966409
 21
-31.860979492
  0
LINE
  5
3F6
100
AcDbEntity
  8
0
100
AcDbLine
 62
7
  6
CONTINUOUS
 10
-30.6764966409
 20
-32.839702895
 11
-30.8848301332
 21
-32.8822560852
  0
LINE
  5
3F7
100
AcDbEntity
  8
0
100
AcDbLine
 62
7
  6
CONTINUOUS
 10
-32.5098301332
 20
-32.839702895
 11
-32.718163387
 21
-32.8822560852
  0
LINE
  5
3F8
100
AcDbEntity
  8
0
100
AcDbLine
 62
7
  6
CONTINUOUS
 10
-25.5931631486
 20
-31.0950220173
 11
-25.8014971177
 21
-31.1375752037
  0
LINE
  5
3F9
100
AcDbEntity
  8
0
100
AcDbLine
 62
7
  6
CONTINUOUS
 10
-34.3014967601
 20
-32.839702895
 11
-34.5098301332
 21
-32.8822560852
  0
LINE
  5
3FA
100
AcDbEntity
  8
0
100
AcDbLine
 62
7
  6
CONTINUOUS
 10
-27.4264971177
 20
-31.0950220173
 11
-27.6348301332
 21
-31.1375752037
  0
LINE
  5
3FB
100
AcDbEntity
  8
0
100
AcDbLine
 62
7
  6
CONTINUOUS
 10
-31.3431636255
 20
-31.6482135599
 11
-31.1348301332
 21
-31.6056603735
  0
LWPOLYLINE
  5
3FC
100
AcDbEntity
  8
RACCORDO
100
AcDbPolyline
 62
7
  6
CONTINUOUS
 90
22
 70
0
 10
33.6730192654
 20
-23.1944167031
 10
32.2753970372
 20
-23.2877021411
 10
30.8914411716
 20
-23.3762143928
 10
29.5211695503
 20
-23.4600688212
 10
28.1776056276
 20
-23.5386364738
 10
26.8477634732
 20
-23.6128434935
 10
25.4926284756
 20
-23.6848222804
 10
24.107157708
 20
-23.7546115716
 10
22.6963918258
 20
-23.8217297787
 10
21.2364159605
 20
-23.8870055506
 10
19.7197131248
 20
-23.9503075366
 10
18.1537868929
 20
-24.0108430491
 10
16.537245942
 20
-24.0682102691
 10
14.871363451
 20
-24.1218774283
 10
13.154868016
 20
-24.1713878046
 10
11.382553202
 20
-24.2163622271
 10
9.5555258362
 20
-24.2561821838
 10
7.6726969686
 20
-24.2902684212
 10
5.7255685688
 20
-24.3181224437
 10
3.7113209837
 20
-24.3390250964
 10
1.6328156855
 20
-24.3521437369
 10
-0.5099171117
 20
-24.3566761333
  0
LWPOLYLINE
  5
3FD
100
AcDbEntity
  8
RACCORDO
100
AcDbPolyline
 62
253
  6
CONTINUOUS
 90
21
 70
0
 10
33.6660622275
 20
-23.0541427609
 10
30.8850539511
 20
-23.234643303
 10
29.5151414304
 20
-23.320014488
 10
28.1719030112
 20
-23.3993327777
 10
26.8423395781
 20
-23.4730036326
 10
25.4874941123
 20
-23.5446208828
 10
24.1023330342
 20
-23.6145687834
 10
22.6918667053
 20
-23.6814311931
 10
21.2322035506
 20
-23.7464504033
 10
19.7158245526
 20
-23.8096318848
 10
18.1502216622
 20
-23.86996252
 10
16.5340168029
 20
-23.927168031
 10
14.8684772771
 20
-23.9807214427
 10
13.152323235
 20
-24.0300508981
 10
11.3803584168
 20
-24.0747891516
 10
9.553689442
 20
-24.1144759255
 10
7.6712197017
 20
-24.1484738181
 10
5.724453292
 20
-24.1760889181
 10
3.710571778
 20
-24.1966644611
 10
1.6324372637
 20
-24.2096408045
 10
-0.5099171002
 20
-24.2144293961
  0
LWPOLYLINE
  5
3FE
100
AcDbEntity
  8
RACCORDO
100
AcDbPolyline
 62
253
  6
CONTINUOUS
 90
19
 70
0
 10
32.74008909
 20
-23.0576872393
 10
32.804752235
 20
-23.055990161
 10
32.8685440193
 20
-23.0512769088
 10
32.9314648698
 20
-23.0435679646
 10
32.9934945423
 20
-23.0328796829
 10
33.054654118
 20
-23.0192352539
 10
33.1150060025
 20
-23.0026646851
 10
33.1746621085
 20
-22.9831965155
 10
33.2335113227
 20
-22.960839028
 10
33.2912814948
 20
-22.9355907215
 10
33.3479832038
 20
-22.9074756954
 10
33.4036066002
 20
-22.8765024314
 10
33.4578488531
 20
-22.8426439032
 10
33.5106486345
 20
-22.8060097555
 10
33.5620678757
 20
-22.766516392
 10
33.6119886249
 20
-22.7238463187
 10
33.6603717622
 20
-22.6779021197
 10
33.7072569649
 20
-22.6288048785
 10
33.7526444725
 20
-22.5765646146
  0
LWPOLYLINE
  5
3FF
100
AcDbEntity
  8
RACCORDO
100
AcDbPolyline
 62
253
  6
CONTINUOUS
 90
19
 70
0
 10
32.7401676871
 20
-22.9981178052
 10
32.8008255893
 20
-22.9965911302
 10
32.8609348267
 20
-22.9920558569
 10
32.9203485369
 20
-22.984582251
 10
32.9787697635
 20
-22.974278374
 10
33.036225044
 20
-22.9612110634
 10
33.0930474695
 20
-22.9453298081
 10
33.1491985374
 20
-22.9266255658
 10
33.2044334079
 20
-22.9051591792
 10
33.2587535915
 20
-22.8809065218
 10
33.3119936565
 20
-22.8539059737
 10
33.364025749
 20
-22.824185896
 10
33.4148837123
 20
-22.791670096
 10
33.4643628472
 20
-22.7564152037
 10
33.5123407403
 20
-22.7184309021
 10
33.5589218114
 20
-22.6775139609
 10
33.6039853806
 20
-22.6335926988
 10
33.6472250653
 20
-22.5867762432
 10
33.68842519
 20
-22.5371103421
  0
LINE
  5
400
100
AcDbEntity
  8
0
100
AcDbLine
 62
7
  6
CONTINUOUS
 10
24.4490862157
 20
-26.2537820555
 11
24.1856449795
 21
-26.2537820555
  0
LINE
  5
401
100
AcDbEntity
  8
0
100
AcDbLine
 62
7
  6
CONTINUOUS
 10
23.2946947542
 20
-26.2537820555
 11
23.2174147024
 21
-26.2537820555
  0
LINE
  5
402
100
AcDbEntity
  8
0
100
AcDbLine
 62
7
  6
CONTINUOUS
 10
20.7629250313
 20
-26.2537820555
 11
20.6856449795
 21
-26.2537820555
  0
LINE
  5
403
100
AcDbEntity
  8
0
100
AcDbLine
 62
7
  6
CONTINUOUS
 10
19.7946947542
 20
-26.2537820555
 11
19.531253518
 21
-26.2537820555
  0
LINE
  5
404
100
AcDbEntity
  8
0
100
AcDbLine
 62
7
  6
CONTINUOUS
 10
-20.5509137843
 20
-26.2537820555
 11
-20.8143550205
 21
-26.2537820555
  0
LINE
  5
405
100
AcDbEntity
  8
0
100
AcDbLine
 62
7
  6
CONTINUOUS
 10
-21.7053052458
 20
-26.2537820555
 11
-21.7825852976
 21
-26.2537820555
  0
LINE
  5
406
100
AcDbEntity
  8
0
100
AcDbLine
 62
7
  6
CONTINUOUS
 10
-24.2370749687
 20
-26.2537820555
 11
-24.3143550205
 21
-26.2537820555
  0
LINE
  5
407
100
AcDbEntity
  8
0
100
AcDbLine
 62
7
  6
CONTINUOUS
 10
-25.2053052458
 20
-26.2537820555
 11
-25.468746482
 21
-26.2537820555
  0
LINE
  5
408
100
AcDbEntity
  8
0
100
AcDbLine
 62
7
  6
CONTINUOUS
 10
24.4401698668
 20
-26.2322560852
 11
24.1847273172
 21
-26.2322560852
  0
LINE
  5
409
100
AcDbEntity
  8
0
100
AcDbLine
 62
7
  6
CONTINUOUS
 10
23.2956124165
 20
-26.2322560852
 11
23.2231825687
 21
-26.2322560852
  0
LINE
  5
40A
100
AcDbEntity
  8
0
100
AcDbLine
 62
7
  6
CONTINUOUS
 10
20.7571571649
 20
-26.2322560852
 11
20.6847273172
 21
-26.2322560852
  0
LINE
  5
40B
100
AcDbEntity
  8
0
100
AcDbLine
 62
7
  6
CONTINUOUS
 10
19.7956124165
 20
-26.2322560852
 11
19.5401698668
 21
-26.2322560852
  0
LINE
  5
40C
100
AcDbEntity
  8
0
100
AcDbLine
 62
7
  6
CONTINUOUS
 10
-20.5598301332
 20
-26.2322560852
 11
-20.8152726828
 21
-26.2322560852
  0
LINE
  5
40D
100
AcDbEntity
  8
0
100
AcDbLine
 62
7
  6
CONTINUOUS
 10
-21.7043875835
 20
-26.2322560852
 11
-21.7768174313
 21
-26.2322560852
  0
LINE
  5
40E
100
AcDbEntity
  8
0
100
AcDbLine
 62
7
  6
CONTINUOUS
 10
-24.2428428351
 20
-26.2322560852
 11
-24.3152726828
 21
-26.2322560852
  0
LINE
  5
40F
100
AcDbEntity
  8
0
100
AcDbLine
 62
7
  6
CONTINUOUS
 10
-25.2043875835
 20
-26.2322560852
 11
-25.4598301332
 21
-26.2322560852
  0
LINE
  5
410
100
AcDbEntity
  8
0
100
AcDbLine
 62
7
  6
CONTINUOUS
 10
22.7844020005
 20
-26.0037820555
 11
21.1959377332
 21
-26.0037820555
  0
LINE
  5
411
100
AcDbEntity
  8
0
100
AcDbLine
 62
7
  6
CONTINUOUS
 10
-22.2155979995
 20
-26.0037820555
 11
-23.8040622668
 21
-26.0037820555
  0
LINE
  5
412
100
AcDbEntity
  8
0
100
AcDbLine
 62
7
  6
CONTINUOUS
 10
22.7901698668
 20
-25.9822560852
 11
21.1901698668
 21
-25.9822560852
  0
LINE
  5
413
100
AcDbEntity
  8
0
100
AcDbLine
 62
7
  6
CONTINUOUS
 10
-22.2098301332
 20
-25.9822560852
 11
-23.8098301332
 21
-25.9822560852
  0
LINE
  5
414
100
AcDbEntity
  8
0
100
AcDbLine
 62
253
  6
CONTINUOUS
 10
24.8003769535
 20
-25.2822560852
 11
19.1799627802
 21
-25.2822560852
  0
LINE
  5
415
100
AcDbEntity
  8
0
100
AcDbLine
 62
253
  6
CONTINUOUS
 10
-20.1996230465
 20
-25.2822560852
 11
-25.8200372198
 21
-25.2822560852
  0
LINE
  5
416
100
AcDbEntity
  8
0
100
AcDbLine
 62
7
  6
CONTINUOUS
 10
33.4901698668
 20
-25.0822560852
 11
-34.5098301332
 21
-25.0822560852
  0
LINE
  5
417
100
AcDbEntity
  8
0
100
AcDbLine
 62
7
  6
CONTINUOUS
 10
-25.7598301332
 20
-24.9322560852
 11
-20.2598301332
 21
-24.9322560852
  0
LINE
  5
418
100
AcDbEntity
  8
0
100
AcDbLine
 62
7
  6
CONTINUOUS
 10
19.2401698668
 20
-24.9322560852
 11
24.7401698668
 21
-24.9322560852
  0
LINE
  5
419
100
AcDbEntity
  8
RACCORDO
100
AcDbLine
 62
7
  6
CONTINUOUS
 10
-33.7597530523
 20
-22.9981178032
 11
32.7401676871
 21
-22.9981178038
  0
LINE
  5
41A
100
AcDbEntity
  8
DRAFT
100
AcDbLine
 62
7
  6
CONTINUOUS
 10
32.7401698668
 20
-22.9822560852
 11
-33.7598301332
 21
-22.9822560852
  0
LINE
  5
41B
100
AcDbEntity
  8
RACCORDO
100
AcDbLine
 62
7
  6
CONTINUOUS
 10
-33.7606524123
 20
-22.3822560852
 11
32.740992146
 21
-22.3822560852
  0
LINE
  5
41C
100
AcDbEntity
  8
RACCORDO
100
AcDbLine
 62
253
  6
CONTINUOUS
 10
2.0849524884
 20
-23.0560920249
 11
32.74008909
 21
-23.0576872393
  0
LINE
  5
41D
100
AcDbEntity
  8
RACCORDO
100
AcDbLine
 62
253
  6
CONTINUOUS
 10
-33.7597493563
 20
-23.0576872393
 11
2.0849524884
 21
-23.0560920249
  0
LWPOLYLINE
  5
41E
100
AcDbEntity
  8
RACCORDO
100
AcDbPolyline
 62
7
  6
CONTINUOUS
 90
21
 70
0
 10
-0.5099171117
 20
-24.3566761333
 10
-2.657037969
 20
-24.3521245184
 10
-4.739211936
 20
-24.3389562679
 10
-6.7564086846
 20
-24.3179840323
 10
-8.7057072071
 20
-24.2900514321
 10
-10.589986726
 20
-24.2558862735
 10
-12.4179238863
 20
-24.2159910422
 10
-14.1906444961
 20
-24.1709501628
 10
-15.9070051314
 20
-24.1213888525
 10
-17.5722806479
 20
-24.0676892279
 10
-19.1878107582
 20
-24.0103099749
 10
-20.7522543353
 20
-23.9497892778
 10
-22.2668667891
 20
-23.886538739
 10
-23.7238525861
 20
-23.8213695662
 10
-25.1310212959
 20
-23.7544056227
 10
-26.5130284718
 20
-23.6847839926
 10
-27.8644961412
 20
-23.6130029163
 10
-29.1908046309
 20
-23.5390055151
 10
-30.532720292
 20
-23.4605539016
 10
-31.9038120345
 20
-23.3766705526
 10
-33.2904714335
 20
-23.2880019265
  0
LWPOLYLINE
  5
41F
100
AcDbEntity
  8
RACCORDO
100
AcDbPolyline
 62
253
  6
CONTINUOUS
 90
20
 70
0
 10
-0.5099171002
 20
-24.2144293961
 10
-2.6566586884
 20
-24.2096162203
 10
-4.7384611517
 20
-24.1965916681
 10
-6.7552912255
 20
-24.1759512124
 10
-8.7042272947
 20
-24.148259428
 10
-10.5881473583
 20
-24.1141810172
 10
-12.4157258916
 20
-24.0744194776
 10
-14.1880963469
 20
-24.0296153795
 10
-15.9041155447
 20
-23.9802332741
 10
-17.5690481975
 20
-23.9266486353
 10
-19.1842423573
 20
-23.869430573
 10
-20.7483628061
 20
-23.8091116545
 10
-22.2626519155
 20
-23.7459846388
 10
-23.7193257044
 20
-23.6810757011
 10
-25.1261955548
 20
-23.6143645885
 10
-26.5078937703
 20
-23.544582653
 10
-27.859073077
 20
-23.4731765768
 10
-29.1851038172
 20
-23.3997225942
 10
-30.5266937536
 20
-23.3204995161
 10
-31.8974252835
 20
-23.2350669803
  0
LINE
  5
420
100
AcDbEntity
  8
RACCORDO
100
AcDbLine
 62
253
  6
CONTINUOUS
 10
-31.8974252835
 20
-23.2350669803
 11
-34.6857224939
 21
-23.0541427609
  0
LINE
  5
421
100
AcDbEntity
  8
RACCORDO
100
AcDbLine
 62
7
  6
CONTINUOUS
 10
-33.2904714335
 20
-23.2880019265
 11
-34.6926795325
 21
-23.1944167031
  0
LWPOLYLINE
  5
422
100
AcDbEntity
  8
RACCORDO
100
AcDbPolyline
 62
7
  6
CONTINUOUS
 90
19
 70
0
 10
-34.6926795325
 20
-23.1944167031
 10
-34.7330761675
 20
-23.1904623087
 10
-34.7731268771
 20
-23.184142409
 10
-34.8126948799
 20
-23.175486466
 10
-34.8515800715
 20
-23.1645525267
 10
-34.889719292
 20
-23.1513723198
 10
-34.9271734128
 20
-23.1359126091
 10
-34.9638492111
 20
-23.1181750497
 10
-34.999556981
 20
-23.0982133097
 10
-35.0341967596
 20
-23.0760431927
 10
-35.0676490553
 20
-23.0516919773
 10
-35.0997445624
 20
-23.0252307812
 10
-35.1303104546
 20
-22.9967542156
 10
-35.1592119662
 20
-22.9663446813
 10
-35.1863204179
 20
-22.9340907269
 10
-35.2114873483
 20
-22.9001208143
 10
-35.2345906239
 20
-22.8645572894
 10
-35.255529489
 20
-22.8275108906
 10
-35.2742016923
 20
-22.7891094134
  0
LINE
  5
423
100
AcDbEntity
  8
0
100
AcDbLine
 62
7
  6
CONTINUOUS
 10
-1.8493661332
 20
-33.0460890852
 11
-0.7290051332
 21
-33.9902250852
  0
LINE
  5
424
100
AcDbEntity
  8
0
100
AcDbLine
 62
7
  6
CONTINUOUS
 10
-0.7290051332
 20
-33.4738690852
 11
-1.9010791332
 21
-32.4861560852
  0
LINE
  5
425
100
AcDbEntity
  8
0
100
AcDbLine
 62
7
  6
CONTINUOUS
 10
-21.7043875835
 20
26.4677439148
 11
-21.7053052458
 21
26.4892698851
  0
LINE
  5
426
100
AcDbEntity
  8
0
100
AcDbLine
 62
7
  6
CONTINUOUS
 10
-20.2598301332
 20
-24.9322560852
 11
-20.2598301332
 21
-25.0822560852
  0
LINE
  5
427
100
AcDbEntity
  8
0
100
AcDbLine
 62
7
  6
CONTINUOUS
 10
-20.2598301332
 20
25.1677439148
 11
-20.2598301332
 21
25.3177439148
  0
LINE
  5
428
100
AcDbEntity
  8
0
100
AcDbLine
 62
253
  6
CONTINUOUS
 10
-20.1996230465
 20
-25.8720489985
 11
-20.1996230465
 21
-25.2822560852
  0
LINE
  5
429
100
AcDbEntity
  8
0
100
AcDbLine
 62
253
  6
CONTINUOUS
 10
-20.1996230465
 20
25.5177439148
 11
-20.1996230465
 21
26.1075368282
  0
LINE
  5
42A
100
AcDbEntity
  8
0
100
AcDbLine
 62
253
  6
CONTINUOUS
 10
-19.9998971396
 20
-25.6738825019
 11
-19.9998971396
 21
-25.0825301782
  0
LINE
  5
42B
100
AcDbEntity
  8
0
100
AcDbLine
 62
253
  6
CONTINUOUS
 10
-19.9998971396
 20
25.3180180079
 11
-19.9998971396
 21
25.9093703316
  0
LINE
  5
42C
100
AcDbEntity
  8
0
100
AcDbLine
 62
7
  6
CONTINUOUS
 10
-19.8159213498
 20
25.7542774506
 11
-19.8159213498
 21
25.3177439148
  0
LINE
  5
42D
100
AcDbEntity
  8
0
100
AcDbLine
 62
7
  6
CONTINUOUS
 10
-19.8159213498
 20
-25.0822560852
 11
-19.8159213498
 21
-25.518789621
  0
LINE
  5
42E
100
AcDbEntity
  8
0
100
AcDbLine
 62
7
  6
CONTINUOUS
 10
-20.8152726828
 20
26.4677439148
 11
-20.8143550205
 21
26.4892698851
  0
LINE
  5
42F
100
AcDbEntity
  8
0
100
AcDbLine
 62
7
  6
CONTINUOUS
 10
-21.7043875835
 20
-26.2322560852
 11
-21.7053052458
 21
-26.2537820555
  0
LINE
  5
430
100
AcDbEntity
  8
0
100
AcDbLine
 62
7
  6
CONTINUOUS
 10
-28.0514966409
 20
-31.3503411358
 11
-28.0098301332
 21
-31.1801283901
  0
LINE
  5
431
100
AcDbEntity
  8
0
100
AcDbLine
 62
7
  6
CONTINUOUS
 10
-26.6348301332
 20
-31.4354476278
 11
-26.6764971177
 21
-31.6056603735
  0
LINE
  5
432
100
AcDbEntity
  8
0
100
AcDbLine
 62
7
  6
CONTINUOUS
 10
-33.9681635062
 20
-31.5205540006
 11
-34.0098301332
 21
-31.6482135599
  0
LINE
  5
433
100
AcDbEntity
  8
0
100
AcDbLine
 62
7
  6
CONTINUOUS
 10
-34.2598301332
 20
-32.4992773478
 11
-34.2181635062
 21
-32.3716177886
  0
LINE
  5
434
100
AcDbEntity
  8
0
100
AcDbLine
 62
7
  6
CONTINUOUS
 10
-33.9681635062
 20
-32.414170975
 11
-34.0098301332
 21
-32.541830564
  0
LINE
  5
435
100
AcDbEntity
  8
0
100
AcDbLine
 62
7
  6
CONTINUOUS
 10
-33.218163387
 20
-31.2652347629
 11
-33.2598301332
 21
-31.3928944414
  0
LINE
  5
436
100
AcDbEntity
  8
0
100
AcDbLine
 62
7
  6
CONTINUOUS
 10
-33.0410801332
 20
-34.4077880507
 11
-32.9973301749
 21
-34.2737453883
  0
LINE
  5
437
100
AcDbEntity
  8
0
100
AcDbLine
 62
7
  6
CONTINUOUS
 10
-31.5535800497
 20
-35.2567241823
 11
-31.5973301332
 21
-35.3907667195
  0
LINE
  5
438
100
AcDbEntity
  8
0
100
AcDbLine
 62
7
  6
CONTINUOUS
 10
-30.5098301332
 20
-32.414170975
 11
-30.4681636255
 21
-32.2865114157
  0
LINE
  5
439
100
AcDbEntity
  8
0
100
AcDbLine
 62
7
  6
CONTINUOUS
 10
-30.8973300497
 20
-34.4077880507
 11
-30.8535802166
 21
-34.2737453883
  0
LINE
  5
43A
100
AcDbEntity
  8
0
100
AcDbLine
 62
7
  6
CONTINUOUS
 10
-30.8973300497
 20
-35.1226816451
 11
-30.8535802166
 21
-34.9886390453
  0
LINE
  5
43B
100
AcDbEntity
  8
0
100
AcDbLine
 62
7
  6
CONTINUOUS
 10
-9.0028431332
 20
31.6144789148
 11
-9.5795221332
 21
29.8927439148
  0
LINE
  5
43C
100
AcDbEntity
  8
0
100
AcDbLine
 62
7
  6
CONTINUOUS
 10
-9.7137581332
 20
30.2012309148
 11
-9.1284291332
 21
31.9427439148
  0
LINE
  5
43D
100
AcDbEntity
  8
0
100
AcDbLine
 62
7
  6
CONTINUOUS
 10
-8.4888091332
 20
29.8927439148
 11
-7.7179491332
 21
31.9427439148
  0
LINE
  5
43E
100
AcDbEntity
  8
0
100
AcDbLine
 62
253
  6
CONTINUOUS
 10
-25.0496078811
 20
-26.8099017987
 11
-25.0558455642
 21
-26.8115731809
  0
LINE
  5
43F
100
AcDbEntity
  8
0
100
AcDbLine
 62
7
  6
CONTINUOUS
 10
-33.1348301332
 20
-30.9248092716
 11
-32.968163387
 21
-30.8822560852
  0
LWPOLYLINE
  5
440
100
AcDbEntity
  8
RACCORDO
100
AcDbPolyline
 62
253
  6
CONTINUOUS
 90
13
 70
0
 10
-35.2138551695
 20
-22.5428237327
 10
-35.2281692757
 20
-22.5435401657
 10
-35.2425574002
 20
-22.5441520305
 10
-35.2567206969
 20
-22.5446466186
 10
-35.2703649891
 20
-22.5450136571
 10
-35.2832068801
 20
-22.5452455225
 10
-35.2949796394
 20
-22.5453373989
 10
-35.3054387428
 20
-22.545287378
 10
-35.3143669509
 20
-22.5450964987
 10
-35.3215788219
 20
-22.5447687257
 10
-35.3269245626
 20
-22.544310867
 10
-35.3302931402
 20
-22.5437324323
 10
-35.3316145881
 20
-22.5430454361
  0
LINE
  5
441
100
AcDbEntity
  8
RACCORDO
100
AcDbLine
 62
253
  6
CONTINUOUS
 10
-35.3316145887
 20
-22.5430454336
 11
-35.8882526028
 21
-22.5683454173
  0
LWPOLYLINE
  5
442
100
AcDbEntity
  8
RACCORDO
100
AcDbPolyline
 62
253
  6
CONTINUOUS
 90
13
 70
0
 10
-35.0554423037
 20
-21.7864538708
 10
-35.0443273618
 20
-21.7863304104
 10
-35.0335922543
 20
-21.786153664
 10
-35.0233773779
 20
-21.785925943
 10
-35.0138163272
 20
-21.7856502255
 10
-35.0050341444
 20
-21.7853301173
 10
-34.9971456851
 20
-21.7849698047
 10
-34.990254118
 20
-21.7845739998
 10
-34.9844495778
 20
-21.7841478789
 10
-34.9798079831
 20
-21.7836970152
 10
-34.9763900405
 20
-21.7832273054
 10
-34.9742404521
 20
-21.7827448922
 10
-34.9733873332
 20
-21.7822560849
  0
LINE
  5
443
100
AcDbEntity
  8
RACCORDO
100
AcDbLine
 62
253
  6
CONTINUOUS
 10
33.9401698668
 20
-21.7822560852
 11
33.9537369029
 21
-21.7822560852
  0
LINE
  5
444
100
AcDbEntity
  8
RACCORDO
100
AcDbLine
 62
253
  6
CONTINUOUS
 10
-34.9598301332
 20
-21.7822560852
 11
-34.9733971754
 21
-21.7822461085
  0
LWPOLYLINE
  5
445
100
AcDbEntity
  8
RACCORDO
100
AcDbPolyline
 62
253
  6
CONTINUOUS
 90
13
 70
0
 10
34.0357818301
 20
-21.7864539194
 10
34.0246677794
 20
-21.786330415
 10
34.0139336533
 20
-21.7861536324
 10
34.003719817
 20
-21.7859258832
 10
33.9941598323
 20
-21.7856501455
 10
33.9853787106
 20
-21.7853300251
 10
33.9774912789
 20
-21.7849697081
 10
33.9706006775
 20
-21.7845739061
 10
33.9647970116
 20
-21.7841477948
 10
33.9601561731
 20
-21.7836969464
 10
33.9567388483
 20
-21.7832272564
 10
33.9545897238
 20
-21.7827448666
 10
33.9537369029
 20
-21.7822560852
  0
LINE
  5
446
100
AcDbEntity
  8
RACCORDO
100
AcDbLine
 62
253
  6
CONTINUOUS
 10
34.3119543223
 20
-22.5430454332
 11
34.8685923363
 21
-22.5683454174
  0
LWPOLYLINE
  5
447
100
AcDbEntity
  8
RACCORDO
100
AcDbPolyline
 62
253
  6
CONTINUOUS
 90
13
 70
0
 10
34.1941948961
 20
-22.5428237344
 10
34.2085087933
 20
-22.5435401268
 10
34.2228965945
 20
-22.5441519489
 10
34.2370594698
 20
-22.5446464942
 10
34.2507032646
 20
-22.5450134925
 10
34.2635446099
 20
-22.5452453224
 10
34.2753168076
 20
-22.5453371699
 10
34.2857753628
 20
-22.5452871286
 10
34.2947030766
 20
-22.545096239
 10
34.3019145506
 20
-22.5447684662
 10
34.307260018
 20
-22.5443106178
 10
34.3106284616
 20
-22.5437322035
 10
34.3119499293
 20
-22.5430452368
  0
LINE
  5
448
100
AcDbEntity
  8
0
100
AcDbLine
 62
253
  6
CONTINUOUS
 10
20.5299476147
 20
-26.8099017987
 11
20.5361852979
 21
-26.8115731809
  0
LINE
  5
449
100
AcDbEntity
  8
0
100
AcDbLine
 62
253
  6
CONTINUOUS
 10
24.0299476147
 20
-26.8099017987
 11
24.0361852979
 21
-26.8115731809
  0
LINE
  5
44A
100
AcDbEntity
  8
0
100
AcDbLine
 62
7
  6
CONTINUOUS
 10
7.9648108668
 20
-33.6122560852
 11
7.7601408635
 21
-33.4405170824
  0
LINE
  5
44B
100
AcDbEntity
  8
0
100
AcDbLine
 62
7
  6
CONTINUOUS
 10
4.5604638668
 20
-34.0519620852
 11
7.3204638668
 21
-36.8119620852
  0
LINE
  5
44C
100
AcDbEntity
  8
0
100
AcDbLine
 62
7
  6
CONTINUOUS
 10
7.4901698668
 20
-36.6422560852
 11
4.7301698668
 21
-33.8822560852
  0
LINE
  5
44D
100
AcDbEntity
  8
0
100
AcDbLine
 62
7
  6
CONTINUOUS
 10
-33.3465921332
 20
30.2303409148
 11
-34.3259781332
 21
32.8419469148
  0
LINE
  5
44E
100
AcDbEntity
  8
0
100
AcDbLine
 62
7
  6
CONTINUOUS
 10
-34.1095261332
 20
34.2298529148
 11
-33.2834891332
 21
32.0093109148
  0
LINE
  5
44F
100
AcDbEntity
  8
0
100
AcDbLine
 62
7
  6
CONTINUOUS
 10
-28.7081621332
 20
30.2303409148
 11
-28.9244341332
 21
31.0287859148
  0
LINE
  5
450
100
AcDbEntity
  8
0
100
AcDbLine
 62
7
  6
CONTINUOUS
 10
-29.0912791332
 20
31.6466189148
 11
-29.4749051332
 21
33.1308889148
  0
LINE
  5
451
100
AcDbEntity
  8
0
100
AcDbLine
 62
7
  6
CONTINUOUS
 10
-26.2181631486
 20
-31.3503411358
 11
-26.1764971177
 21
-31.1801283901
  0
LINE
  5
452
100
AcDbEntity
  8
0
100
AcDbLine
 62
7
  6
CONTINUOUS
 10
-24.8014971177
 20
-31.4354476278
 11
-24.8431631486
 21
-31.6056603735
  0
LINE
  5
453
100
AcDbEntity
  8
0
100
AcDbLine
 62
7
  6
CONTINUOUS
 10
-24.3152726828
 20
-26.2322560852
 11
-24.4700523853
 21
-26.8099017987
  0
LINE
  5
454
100
AcDbEntity
  8
0
100
AcDbLine
 62
7
  6
CONTINUOUS
 10
-24.3143550205
 20
-26.2537820555
 11
-24.4638147021
 21
-26.8115731809
  0
LINE
  5
455
100
AcDbEntity
  8
0
100
AcDbLine
 62
7
  6
CONTINUOUS
 10
-22.2098301332
 20
-25.9822560852
 11
-22.2155979995
 21
-26.0037820555
  0
LINE
  5
456
100
AcDbEntity
  8
0
100
AcDbLine
 62
7
  6
CONTINUOUS
 10
-21.7768174313
 20
-26.2322560852
 11
-21.7825852976
 21
-26.2537820555
  0
LINE
  5
457
100
AcDbEntity
  8
0
100
AcDbLine
 62
7
  6
CONTINUOUS
 10
-29.8035799663
 20
-35.2567241823
 11
-29.8473303001
 21
-35.3907667195
  0
LINE
  5
458
100
AcDbEntity
  8
0
100
AcDbLine
 62
7
  6
CONTINUOUS
 10
-26.5931631486
 20
-32.414170975
 11
-26.6348301332
 21
-32.541830564
  0
LINE
  5
459
100
AcDbEntity
  8
0
100
AcDbLine
 62
7
  6
CONTINUOUS
 10
-7.9891501332
 20
30.4894239148
 11
-8.2033181332
 21
29.8927439148
  0
LINE
  5
45A
100
AcDbEntity
  8
0
100
AcDbLine
 62
7
  6
CONTINUOUS
 10
-7.5721691332
 20
31.6453939148
 11
-7.9034691332
 21
30.7349599148
  0
LINE
  5
45B
100
AcDbEntity
  8
0
100
AcDbLine
 62
7
  6
CONTINUOUS
 10
-31.0285800497
 20
-34.1397028511
 11
-31.1160802166
 21
-34.3631072049
  0
LINE
  5
45C
100
AcDbEntity
  8
0
100
AcDbLine
 62
7
  6
CONTINUOUS
 10
-30.2598301332
 20
-32.3290646022
 11
-30.3431636255
 21
-32.541830564
  0
LINE
  5
45D
100
AcDbEntity
  8
0
100
AcDbLine
 62
7
  6
CONTINUOUS
 10
-29.6723299663
 20
-35.524809288
 11
-29.5848303001
 21
-35.301405028
  0
LINE
  5
45E
100
AcDbEntity
  8
0
100
AcDbLine
 62
7
  6
CONTINUOUS
 10
-33.7848301749
 20
-34.5418305879
 11
-33.6973301332
 21
-34.3631072049
  0
LINE
  5
45F
100
AcDbEntity
  8
0
100
AcDbLine
 62
7
  6
CONTINUOUS
 10
-32.093163387
 20
-32.414170975
 11
-32.1764968793
 21
-32.5843837505
  0
LINE
  5
460
100
AcDbEntity
  8
0
100
AcDbLine
 62
7
  6
CONTINUOUS
 10
-32.9973301749
 20
-34.2737453883
 11
-32.9098301332
 21
-34.0950220053
  0
LINE
  5
461
100
AcDbEntity
  8
0
100
AcDbLine
 62
7
  6
CONTINUOUS
 10
7.4901698668
 20
-31.1222560852
 11
10.2501698668
 21
-33.8822560852
  0
LINE
  5
462
100
AcDbEntity
  8
0
100
AcDbLine
 62
7
  6
CONTINUOUS
 10
10.4198758668
 20
-33.7125500852
 11
7.6598758668
 21
-30.9525500852
  0
LINE
  5
463
100
AcDbEntity
  8
0
100
AcDbLine
 62
7
  6
CONTINUOUS
 10
0.2630488668
 20
-35.2592780852
 11
0.4548458668
 21
-35.6009970852
  0
LINE
  5
464
100
AcDbEntity
  8
0
100
AcDbLine
 62
7
  6
CONTINUOUS
 10
-29.0554091332
 20
34.2298529148
 11
-27.8282591332
 21
30.2303409148
  0
LINE
  5
465
100
AcDbEntity
  8
0
100
AcDbLine
 62
7
  6
CONTINUOUS
 10
-25.4731440897
 20
30.2303408029
 11
-25.5989992521
 21
30.6612605307
  0
LWPOLYLINE
  5
466
100
AcDbEntity
  8
0
100
AcDbPolyline
 62
7
  6
CONTINUOUS
 90
6
 70
0
 10
-25.5989992521
 20
30.6612605307
 10
-25.6763363115
 20
30.9351528957
 10
-25.7152210782
 20
31.0673510535
 10
-25.7554645315
 20
31.1959773122
 10
-25.7964594072
 20
31.3212349466
 10
-25.8382057053
 20
31.4431239566
  0
LINE
  5
467
100
AcDbEntity
  8
0
100
AcDbLine
 62
7
  6
CONTINUOUS
 10
-24.4700523853
 20
27.0453896284
 11
-24.3152726828
 21
26.4677439148
  0
LINE
  5
468
100
AcDbEntity
  8
0
100
AcDbLine
 62
7
  6
CONTINUOUS
 10
-24.4638147021
 20
27.0470610105
 11
-24.3143550205
 21
26.4892698851
  0
LINE
  5
469
100
AcDbEntity
  8
0
100
AcDbLine
 62
7
  6
CONTINUOUS
 10
-22.2098301332
 20
26.2177439148
 11
-22.2155979995
 21
26.2392698851
  0
LINE
  5
46A
100
AcDbEntity
  8
0
100
AcDbLine
 62
7
  6
CONTINUOUS
 10
-21.7768174313
 20
26.4677439148
 11
-21.7825852976
 21
26.4892698851
  0
LINE
  5
46B
100
AcDbEntity
  8
0
100
AcDbLine
 62
7
  6
CONTINUOUS
 10
-24.9555135917
 20
31.3128390685
 11
-24.8570011505
 21
30.9435581025
  0
LINE
  5
46C
100
AcDbEntity
  8
0
100
AcDbLine
 62
7
  6
CONTINUOUS
 10
-24.8570011505
 20
30.9435581025
 11
-24.6701105081
 21
30.2303408029
  0
LINE
  5
46D
100
AcDbEntity
  8
0
100
AcDbLine
 62
7
  6
CONTINUOUS
 10
-12.5098301332
 20
-30.3822560852
 11
-12.5098301332
 21
-37.8822560852
  0
LINE
  5
46E
100
AcDbEntity
  8
0
100
AcDbLine
 62
7
  6
CONTINUOUS
 10
-11.5098301332
 20
35.1177439148
 11
-11.5098301332
 21
29.1177439148
  0
LINE
  5
46F
100
AcDbEntity
  8
0
100
AcDbLine
 62
7
  6
CONTINUOUS
 10
-10.6987911332
 20
29.8927439148
 11
-10.6987911332
 21
31.9427439148
  0
LINE
  5
470
100
AcDbEntity
  8
0
100
AcDbLine
 62
7
  6
CONTINUOUS
 10
-10.4304191332
 20
31.6116599148
 11
-10.4304191332
 21
29.8927439148
  0
LINE
  5
471
100
AcDbEntity
  8
ASSI
100
AcDbLine
 62
7
  6
CONTINUOUS
 10
-9.3773841332
 20
-31.3342190852
 11
-9.3773841332
 21
-32.0850360852
  0
LINE
  5
472
100
AcDbEntity
  8
ASSI
100
AcDbLine
 62
7
  6
CONTINUOUS
 10
-9.3773841332
 20
-35.6794760958
 11
-9.3773841332
 21
-36.4302930957
  0
LINE
  5
473
100
AcDbEntity
  8
0
100
AcDbLine
 62
7
  6
CONTINUOUS
 10
-9.0028431332
 20
29.8927439148
 11
-9.0028431332
 21
31.6144789148
  0
LINE
  5
474
100
AcDbEntity
  8
0
100
AcDbLine
 62
7
  6
CONTINUOUS
 10
-20.8152726828
 20
-26.2322560852
 11
-20.9700523853
 21
-26.8099017987
  0
LINE
  5
475
100
AcDbEntity
  8
0
100
AcDbLine
 62
7
  6
CONTINUOUS
 10
-20.8143550205
 20
-26.2537820555
 11
-20.9638147021
 21
-26.8115731809
  0
LINE
  5
476
100
AcDbEntity
  8
0
100
AcDbLine
 62
7
  6
CONTINUOUS
 10
-24.7598301332
 20
-32.414170975
 11
-24.8014971177
 21
-32.541830564
  0
LINE
  5
477
100
AcDbEntity
  8
0
100
AcDbLine
 62
7
  6
CONTINUOUS
 10
-27.1785799663
 20
-34.0950220053
 11
-27.2660801332
 21
-34.3184263592
  0
LINE
  5
478
100
AcDbEntity
  8
0
100
AcDbLine
 62
7
  6
CONTINUOUS
 10
-27.2223303001
 20
-34.9886390453
 11
-27.3098299663
 21
-35.2120433365
  0
LINE
  5
479
100
AcDbEntity
  8
0
100
AcDbLine
 62
7
  6
CONTINUOUS
 10
-25.8223301332
 20
-35.5694901337
 11
-25.734830467
 21
-35.3460858737
  0
LINE
  5
47A
100
AcDbEntity
  8
0
100
AcDbLine
 62
7
  6
CONTINUOUS
 10
-25.4598301332
 20
-26.2322560852
 11
-25.468746482
 21
-26.2537820555
  0
LINE
  5
47B
100
AcDbEntity
  8
0
100
AcDbLine
 62
7
  6
CONTINUOUS
 10
-29.5098301332
 20
-32.8822560852
 11
-28.6764966409
 21
-31.0950220173
  0
LINE
  5
47C
100
AcDbEntity
  8
0
100
AcDbLine
 62
7
  6
CONTINUOUS
 10
-28.4264966409
 20
-31.0950220173
 11
-29.2598301332
 21
-32.8822560852
  0
LINE
  5
47D
100
AcDbEntity
  8
0
100
AcDbLine
 62
7
  6
CONTINUOUS
 10
-27.9223301332
 20
-34.0056603139
 11
-28.7973303001
 21
-35.8822560852
  0
LINE
  5
47E
100
AcDbEntity
  8
0
100
AcDbLine
 62
7
  6
CONTINUOUS
 10
-28.5348303001
 20
-35.8822560852
 11
-27.6598301332
 21
-34.0056603139
  0
LINE
  5
47F
100
AcDbEntity
  8
0
100
AcDbLine
 62
7
  6
CONTINUOUS
 10
-31.5973301332
 20
-35.3907667195
 11
-31.6848300497
 21
-35.5694901337
  0
LINE
  5
480
100
AcDbEntity
  8
0
100
AcDbLine
 62
7
  6
CONTINUOUS
 10
-26.9264971177
 20
-31.6056603735
 11
-26.8431631486
 21
-31.4354476278
  0
LINE
  5
481
100
AcDbEntity
  8
0
100
AcDbLine
 62
7
  6
CONTINUOUS
 10
-26.8431631486
 20
-32.4992773478
 11
-26.8014971177
 21
-32.414170975
  0
LINE
  5
482
100
AcDbEntity
  8
0
100
AcDbLine
 62
7
  6
CONTINUOUS
 10
-34.6598301227
 20
-34.1397028511
 11
-34.7473301332
 21
-34.2737453883
  0
LINE
  5
483
100
AcDbEntity
  8
0
100
AcDbLine
 62
7
  6
CONTINUOUS
 10
-32.4264968793
 20
-32.4992773478
 11
-32.343163387
 21
-32.3716177886
  0
LINE
  5
484
100
AcDbEntity
  8
0
100
AcDbLine
 62
7
  6
CONTINUOUS
 10
-33.4785800915
 20
-34.5418305879
 11
-33.5660801332
 21
-34.6758731251
  0
LINE
  5
485
100
AcDbEntity
  8
0
100
AcDbLine
 62
7
  6
CONTINUOUS
 10
22.7844020005
 20
26.2392698851
 11
23.2174147024
 21
26.4892698851
  0
LINE
  5
486
100
AcDbEntity
  8
0
100
AcDbLine
 62
7
  6
CONTINUOUS
 10
22.7901698668
 20
26.2177439148
 11
23.2231825687
 21
26.4677439148
  0
LINE
  5
487
100
AcDbEntity
  8
RACCORDO
100
AcDbLine
 62
7
  6
CONTINUOUS
 10
33.7646138549
 20
22.8185656741
 11
34.068053247
 21
22.9330759082
  0
LINE
  5
488
100
AcDbEntity
  8
RACCORDO
100
AcDbLine
 62
7
  6
CONTINUOUS
 10
34.068053247
 20
22.9330759082
 11
34.1547042512
 21
22.9654240244
  0
LINE
  5
489
100
AcDbEntity
  8
RACCORDO
100
AcDbLine
 62
7
  6
CONTINUOUS
 10
33.8948820415
 20
-22.6324490114
 11
34.15470425
 21
-22.7299362014
  0
LINE
  5
48A
100
AcDbEntity
  8
RACCORDO
100
AcDbLine
 62
7
  6
CONTINUOUS
 10
33.7646139004
 20
-22.5830777754
 11
33.8948820415
 21
-22.6324490114
  0
LINE
  5
48B
100
AcDbEntity
  8
0
100
AcDbLine
 62
7
  6
CONTINUOUS
 10
23.2174147024
 20
-26.2537820555
 11
22.7844020005
 21
-26.0037820555
  0
LINE
  5
48C
100
AcDbEntity
  8
0
100
AcDbLine
 62
7
  6
CONTINUOUS
 10
23.2231825687
 20
-26.2322560852
 11
22.7901698668
 21
-25.9822560852
  0
LWPOLYLINE
  5
48D
100
AcDbEntity
  8
0
100
AcDbPolyline
 62
7
  6
CONTINUOUS
 90
16
 70
0
 10
-25.8382057053
 20
31.4431239566
 10
-25.8581835775
 20
31.4895086861
 10
-25.8802771488
 20
31.5327437022
 10
-25.9044864193
 20
31.572829005
 10
-25.9312551954
 20
31.6099771651
 10
-25.9601396706
 20
31.6439756118
 10
-25.9898084258
 20
31.6741866331
 10
-26.0196859169
 20
31.7001550959
 10
-26.0503476879
 20
31.7223361332
 10
-26.0821889519
 20
31.741457432
 10
-26.1151494519
 20
31.7576821879
 10
-26.149289445
 20
31.7708472052
 10
-26.1851849158
 20
31.7811905834
 10
-26.223027859
 20
31.7887916891
 10
-26.26262628
 20
31.7935711556
 10
-26.3039801786
 20
31.7955289831
  0
LINE
  5
48E
100
AcDbEntity
  8
0
100
AcDbLine
 62
7
  6
CONTINUOUS
 10
-25.4598301332
 20
26.4677439148
 11
-25.468746482
 21
26.4892698851
  0
LINE
  5
48F
100
AcDbEntity
  8
0
100
AcDbLine
 62
7
  6
CONTINUOUS
 10
-20.9700523853
 20
27.0453896284
 11
-20.8152726828
 21
26.4677439148
  0
LINE
  5
490
100
AcDbEntity
  8
0
100
AcDbLine
 62
7
  6
CONTINUOUS
 10
-20.9638147021
 20
27.0470610105
 11
-20.8143550205
 21
26.4892698851
  0
LWPOLYLINE
  5
491
100
AcDbEntity
  8
0
100
AcDbPolyline
 62
7
  6
CONTINUOUS
 90
22
 70
0
 10
-4.9859119036
 20
30.9177439148
 10
-4.9871108452
 20
30.9875285458
 10
-4.9911519771
 20
31.0542339945
 10
-4.9980352994
 20
31.1178602609
 10
-5.0078107766
 20
31.1784667652
 10
-5.0204284441
 20
31.2359940871
 10
-5.0357384084
 20
31.2902639663
 10
-5.0536591625
 20
31.3412521363
 10
-5.0742722135
 20
31.3889828635
 10
-5.0976721895
 20
31.4333506865
 10
-5.1240113173
 20
31.4742818669
 10
-5.1531373701
 20
31.5118501429
 10
-5.1846882964
 20
31.5461712687
 10
-5.2185872602
 20
31.5772849164
 10
-5.2549110975
 20
31.6051514137
 10
-5.2935282638
 20
31.6297674978
 10
-5.334536551
 20
31.6512568915
 10
-5.3778381674
 20
31.6694958719
 10
-5.4230081937
 20
31.6841100077
 10
-5.4699049902
 20
31.6949744881
 10
-5.5186701967
 20
31.7022141238
 10
-5.5693038132
 20
31.7058289148
  0
LINE
  5
492
100
AcDbEntity
  8
0
100
AcDbLine
 62
7
  6
CONTINUOUS
 10
-8.7343611332
 20
31.9427439148
 11
-8.7343611332
 21
29.8927439148
  0
LINE
  5
493
100
AcDbEntity
  8
0
100
AcDbLine
 62
7
  6
CONTINUOUS
 10
-6.3931501332
 20
29.8927439148
 11
-6.3931501332
 21
31.9427439148
  0
LINE
  5
494
100
AcDbEntity
  8
0
100
AcDbLine
 62
7
  6
CONTINUOUS
 10
-6.1161141332
 20
31.7058289148
 11
-6.1161141332
 21
30.1296589148
  0
LINE
  5
495
100
AcDbEntity
  8
ASSI
100
AcDbLine
 62
7
  6
CONTINUOUS
 10
-5.3922741332
 20
-33.5072560852
 11
-5.3922741332
 21
-34.2572560852
  0
LINE
  5
496
100
AcDbEntity
  8
ASSI
100
AcDbLine
 62
7
  6
CONTINUOUS
 10
-4.9922741332
 20
-31.334219236
 11
-4.9922741332
 21
-32.0850360852
  0
LINE
  5
497
100
AcDbEntity
  8
ASSI
100
AcDbLine
 62
7
  6
CONTINUOUS
 10
-4.9922741332
 20
-35.6794727566
 11
-4.9922741332
 21
-36.430293213
  0
LWPOLYLINE
  5
498
100
AcDbEntity
  8
0
100
AcDbPolyline
 62
7
  6
CONTINUOUS
 90
25
 70
0
 10
-4.7009488193
 20
30.9177439148
 10
-4.7011399467
 20
30.8369282572
 10
-4.7053762812
 20
30.759228951
 10
-4.7136578228
 20
30.684645996
 10
-4.7263268099
 20
30.6132079292
 10
-4.7430410041
 20
30.5448862137
 10
-4.7627736898
 20
30.4795952393
 10
-4.7852106299
 20
30.417010509
 10
-4.8106660615
 20
30.3574565198
 10
-4.8390559807
 20
30.3018211525
 10
-4.8705610557
 20
30.2506541833
 10
-4.9050006183
 20
30.2034058361
 10
-4.9417486604
 20
30.1593146625
 10
-4.9808171383
 20
30.1179473435
 10
-5.0221940956
 20
30.0797371983
 10
-5.065217655
 20
30.0452227359
 10
-5.109180393
 20
30.014774447
 10
-5.154789733
 20
29.988021841
 10
-5.2035060681
 20
29.964391955
 10
-5.2558796663
 20
29.9434826872
 10
-5.3113602597
 20
29.9256961393
 10
-5.369757437
 20
29.9116656539
 10
-5.4310077277
 20
29.9016023451
 10
-5.4951746023
 20
29.8952950987
 10
-5.5622580608
 20
29.8927439148
  0
LINE
  5
499
100
AcDbEntity
  8
0
100
AcDbLine
 62
7
  6
CONTINUOUS
 10
4.8622858668
 20
30.4894239148
 11
4.6481018668
 21
29.8927439148
  0
LINE
  5
49A
100
AcDbEntity
  8
0
100
AcDbLine
 62
7
  6
CONTINUOUS
 10
5.2792328668
 20
31.6453939148
 11
4.9479498668
 21
30.7349599148
  0
LINE
  5
49B
100
AcDbEntity
  8
0
100
AcDbLine
 62
7
  6
CONTINUOUS
 10
4.3626268668
 20
29.8927439148
 11
5.1335858668
 21
31.9427439148
  0
LINE
  5
49C
100
AcDbEntity
  8
0
100
AcDbLine
 62
7
  6
CONTINUOUS
 10
-25.0931631486
 20
-31.6056603735
 11
-25.0098301332
 21
-31.4354476278
  0
LINE
  5
49D
100
AcDbEntity
  8
0
100
AcDbLine
 62
7
  6
CONTINUOUS
 10
-25.0098301332
 20
-32.4992773478
 11
-24.9681631486
 21
-32.414170975
  0
LINE
  5
49E
100
AcDbEntity
  8
0
100
AcDbLine
 62
7
  6
CONTINUOUS
 10
-25.866080467
 20
-34.6311922794
 11
-25.7785797994
 21
-34.4524688964
  0
LINE
  5
49F
100
AcDbEntity
  8
0
100
AcDbLine
 62
7
  6
CONTINUOUS
 10
8.7654598668
 20
30.9576169148
 11
9.3535188668
 21
31.9427439148
  0
LINE
  5
4A0
100
AcDbEntity
  8
0
100
AcDbLine
 62
7
  6
CONTINUOUS
 10
9.6791308668
 20
31.9427439148
 11
8.9052208668
 21
30.7178829148
  0
LINE
  5
4A1
100
AcDbEntity
  8
0
100
AcDbLine
 62
7
  6
CONTINUOUS
 10
-32.6473301332
 20
-34.1397028511
 11
-32.8223302166
 21
-34.4077880507
  0
LINE
  5
4A2
100
AcDbEntity
  8
0
100
AcDbLine
 62
7
  6
CONTINUOUS
 10
-30.5931636255
 20
-32.541830564
 11
-30.5098301332
 21
-32.414170975
  0
LINE
  5
4A3
100
AcDbEntity
  8
0
100
AcDbLine
 62
7
  6
CONTINUOUS
 10
-31.9473300497
 20
-35.524809288
 11
-31.7723302166
 21
-35.2567241823
  0
LINE
  5
4A4
100
AcDbEntity
  8
0
100
AcDbLine
 62
7
  6
CONTINUOUS
 10
-30.8535802166
 20
-34.2737453883
 11
-30.7660803001
 21
-34.1397028511
  0
LINE
  5
4A5
100
AcDbEntity
  8
0
100
AcDbLine
 62
7
  6
CONTINUOUS
 10
-27.7598301332
 20
-31.2226815765
 11
-27.8431636255
 21
-31.3503411358
  0
LINE
  5
4A6
100
AcDbEntity
  8
0
100
AcDbLine
 62
7
  6
CONTINUOUS
 10
-29.8473303001
 20
-35.3907667195
 11
-29.9348299663
 21
-35.524809288
  0
LINE
  5
4A7
100
AcDbEntity
  8
0
100
AcDbLine
 62
7
  6
CONTINUOUS
 10
-26.6764971177
 20
-31.6056603735
 11
-26.7598301332
 21
-31.7333199327
  0
LINE
  5
4A8
100
AcDbEntity
  8
0
100
AcDbLine
 62
7
  6
CONTINUOUS
 10
-25.9264971177
 20
-31.2226815765
 11
-26.0098301332
 21
-31.3503411358
  0
LINE
  5
4A9
100
AcDbEntity
  8
0
100
AcDbLine
 62
7
  6
CONTINUOUS
 10
-26.6348301332
 20
-32.541830564
 11
-26.7181631486
 21
-32.6694901233
  0
LINE
  5
4AA
100
AcDbEntity
  8
0
100
AcDbLine
 62
7
  6
CONTINUOUS
 10
-34.0098301332
 20
-31.6482135599
 11
-34.1348301332
 21
-31.8184263056
  0
LINE
  5
4AB
100
AcDbEntity
  8
0
100
AcDbLine
 62
7
  6
CONTINUOUS
 10
-34.0098301332
 20
-32.541830564
 11
-34.1348301332
 21
-32.7120433246
  0
LINE
  5
4AC
100
AcDbEntity
  8
0
100
AcDbLine
 62
7
  6
CONTINUOUS
 10
-30.3431636255
 20
-32.541830564
 11
-30.4681636255
 21
-32.7120433246
  0
LINE
  5
4AD
100
AcDbEntity
  8
0
100
AcDbLine
 62
7
  6
CONTINUOUS
 10
-30.8973300497
 20
-33.9609794681
 11
-31.0285800497
 21
-34.1397028511
  0
LINE
  5
4AE
100
AcDbEntity
  8
0
100
AcDbLine
 62
7
  6
CONTINUOUS
 10
18.7962610835
 20
25.7542774506
 11
19.531253518
 21
26.4892698851
  0
LINE
  5
4AF
100
AcDbEntity
  8
0
100
AcDbLine
 62
7
  6
CONTINUOUS
 10
19.1799627802
 20
26.1075368282
 11
19.5401698668
 21
26.4677439148
  0
LINE
  5
4B0
100
AcDbEntity
  8
0
100
AcDbLine
 62
7
  6
CONTINUOUS
 10
19.1628718858
 20
25.5005088787
 11
18.9859052096
 21
25.3236863442
  0
LINE
  5
4B1
100
AcDbEntity
  8
0
100
AcDbLine
 62
7
  6
CONTINUOUS
 10
18.9802368732
 20
25.9093703316
 11
18.7962610835
 21
25.7542774506
  0
LWPOLYLINE
  5
4B2
100
AcDbEntity
  8
RACCORDO
100
AcDbPolyline
 62
7
  6
CONTINUOUS
 90
13
 70
0
 10
34.1529836959
 20
22.9647832458
 10
34.1665980759
 20
22.9704847181
 10
34.1799937803
 20
22.9765419204
 10
34.1929062047
 20
22.9827747002
 10
34.2050965679
 20
22.9889465957
 10
34.2163483649
 20
22.9949289266
 10
34.2264509497
 20
23.0007150059
 10
34.2352430338
 20
23.0061657767
 10
34.2425521812
 20
23.0111107755
 10
34.2481909568
 20
23.0155239755
 10
34.2520703437
 20
23.0193258821
 10
34.2541851357
 20
23.0223781587
 10
34.2545406838
 20
23.0245969156
  0
LWPOLYLINE
  5
4B3
100
AcDbEntity
  8
RACCORDO
100
AcDbPolyline
 62
7
  6
CONTINUOUS
 90
19
 70
0
 10
46.3751836302
 20
-3.7172773485
 10
46.4170304895
 20
-3.716977169
 10
46.4582672155
 20
-3.7160638198
 10
46.4988938084
 20
-3.7145373009
 10
46.5393230935
 20
-3.7123714094
 10
46.5791422455
 20
-3.7095923482
 10
46.617112788
 20
-3.706278726
 10
46.6530056656
 20
-3.7024291073
 10
46.6870499336
 20
-3.6980449277
 10
46.7186942812
 20
-3.693209102
 10
46.7479231847
 20
-3.6879213238
 10
46.7747521678
 20
-3.6821818996
 10
46.7986764901
 20
-3.6760746639
 10
46.8197156073
 20
-3.6695589282
 10
46.8378500637
 20
-3.662675381
 10
46.8525167518
 20
-3.6556299224
 10
46.8635279692
 20
-3.6484911859
 10
46.8710714183
 20
-3.641190538
 10
46.8751470991
 20
-3.6337279787
  0
LWPOLYLINE
  5
4B4
100
AcDbEntity
  8
RACCORDO
100
AcDbPolyline
 62
7
  6
CONTINUOUS
 90
9
 70
0
 10
33.7646079111
 20
-22.5830755624
 10
33.7631101079
 20
-22.5824796388
 10
33.7616503859
 20
-22.5818486696
 10
33.760228745
 20
-22.5811826521
 10
33.7588397827
 20
-22.5804773556
 10
33.7574889015
 20
-22.5797370051
 10
33.756192309
 20
-22.578974285
 10
33.754955408
 20
-22.5781934262
 10
33.7537727958
 20
-22.577390202
  0
LWPOLYLINE
  5
4B5
100
AcDbEntity
  8
RACCORDO
100
AcDbPolyline
 62
7
  6
CONTINUOUS
 90
13
 70
0
 10
34.1547043113
 20
-22.7299359904
 10
34.1676832606
 20
-22.7356114683
 10
34.1806186802
 20
-22.7414759458
 10
34.1932327403
 20
-22.7474483856
 10
34.2052482622
 20
-22.7535007832
 10
34.2163987714
 20
-22.7595045132
 10
34.2264496711
 20
-22.7652298253
 10
34.2351708078
 20
-22.7705924814
 10
34.2424023716
 20
-22.7755497548
 10
34.2480618228
 20
-22.7799360258
 10
34.2520411776
 20
-22.7836624265
 10
34.2542206505
 20
-22.7867282553
 10
34.2545401103
 20
-22.7891088331
  0
LINE
  5
4B6
100
AcDbEntity
  8
0
100
AcDbLine
 62
7
  6
CONTINUOUS
 10
18.9802368732
 20
-25.6738825019
 11
18.7962610835
 21
-25.518789621
  0
LWPOLYLINE
  5
4B7
100
AcDbEntity
  8
0
100
AcDbPolyline
 62
7
  6
CONTINUOUS
 90
5
 70
0
 10
18.9802368732
 20
-25.0825301782
 10
18.9812895712
 20
-25.0835316977
 10
18.9831674723
 20
-25.0854211431
 10
18.9859052096
 20
-25.0881985146
 10
19.1151047563
 20
-25.2174372781
  0
LWPOLYLINE
  5
4B8
100
AcDbEntity
  8
0
100
AcDbPolyline
 62
7
  6
CONTINUOUS
 90
3
 70
0
 10
19.1151047563
 20
-25.2174372781
 10
19.1628718858
 20
-25.265021049
 10
19.1799627802
 20
-25.2822560852
  0
LINE
  5
4B9
100
AcDbEntity
  8
0
100
AcDbLine
 62
7
  6
CONTINUOUS
 10
19.531253518
 20
-26.2537820555
 11
18.7962610835
 21
-25.518789621
  0
LINE
  5
4BA
100
AcDbEntity
  8
0
100
AcDbLine
 62
7
  6
CONTINUOUS
 10
19.5401698668
 20
-26.2322560852
 11
19.1799627802
 21
-25.8720489985
  0
LINE
  5
4BB
100
AcDbEntity
  8
0
100
AcDbLine
 62
7
  6
CONTINUOUS
 10
-4.3173701332
 20
29.8927439148
 11
-4.3173701332
 21
31.9427439148
  0
LINE
  5
4BC
100
AcDbEntity
  8
0
100
AcDbLine
 62
7
  6
CONTINUOUS
 10
-4.0403511332
 20
31.6972079148
 11
-4.0403511332
 21
31.0690279148
  0
LINE
  5
4BD
100
AcDbEntity
  8
0
100
AcDbLine
 62
7
  6
CONTINUOUS
 10
-4.0403511332
 20
30.8234919148
 11
-4.0403511332
 21
30.1382799148
  0
LINE
  5
4BE
100
AcDbEntity
  8
0
100
AcDbLine
 62
7
  6
CONTINUOUS
 10
-2.9182641332
 20
31.0690279148
 11
-2.9182641332
 21
30.8234919148
  0
LINE
  5
4BF
100
AcDbEntity
  8
0
100
AcDbLine
 62
7
  6
CONTINUOUS
 10
-2.8240451332
 20
31.9427439148
 11
-2.8240451332
 21
31.6972079148
  0
LINE
  5
4C0
100
AcDbEntity
  8
0
100
AcDbLine
 62
7
  6
CONTINUOUS
 10
-2.8040341332
 20
30.1382799148
 11
-2.8040341332
 21
29.8927439148
  0
LINE
  5
4C1
100
AcDbEntity
  8
0
100
AcDbLine
 62
7
  6
CONTINUOUS
 10
-1.6048051332
 20
29.8927439148
 11
-1.6048051332
 21
31.9427439148
  0
LINE
  5
4C2
100
AcDbEntity
  8
0
100
AcDbLine
 62
7
  6
CONTINUOUS
 10
-1.3278681332
 20
31.9427439148
 11
-1.3278681332
 21
29.8927439148
  0
LINE
  5
4C3
100
AcDbEntity
  8
0
100
AcDbLine
 62
7
  6
CONTINUOUS
 10
-1.0982601332
 20
-35.3717080852
 11
-1.0982601332
 21
-35.7883730852
  0
LINE
  5
4C4
100
AcDbEntity
  8
0
100
AcDbLine
 62
7
  6
CONTINUOUS
 10
-1.0846531332
 20
-31.9925530852
 11
-1.0846531332
 21
-32.4115100852
  0
LINE
  5
4C5
100
AcDbEntity
  8
0
100
AcDbLine
 62
7
  6
CONTINUOUS
 10
-0.8539721332
 20
29.8927439148
 11
-0.8539721332
 21
31.9427439148
  0
LINE
  5
4C6
100
AcDbEntity
  8
0
100
AcDbLine
 62
7
  6
CONTINUOUS
 10
-0.7290051332
 20
-32.4115100852
 11
-0.7290051332
 21
-33.4738690852
  0
LINE
  5
4C7
100
AcDbEntity
  8
0
100
AcDbLine
 62
7
  6
CONTINUOUS
 10
-0.7290051332
 20
-33.9902250852
 11
-0.7290051332
 21
-35.3717080852
  0
LINE
  5
4C8
100
AcDbEntity
  8
0
100
AcDbLine
 62
7
  6
CONTINUOUS
 10
-0.5854751332
 20
31.5575889148
 11
-0.5854751332
 21
29.8927439148
  0
LINE
  5
4C9
100
AcDbEntity
  8
0
100
AcDbLine
 62
7
  6
CONTINUOUS
 10
-0.2851261332
 20
-35.3717080852
 11
-0.2851261332
 21
-33.9855650852
  0
LINE
  5
4CA
100
AcDbEntity
  8
0
100
AcDbLine
 62
7
  6
CONTINUOUS
 10
-0.2851261332
 20
-33.4738690852
 11
-0.2851261332
 21
-32.4115100852
  0
LINE
  5
4CB
100
AcDbEntity
  8
0
100
AcDbLine
 62
7
  6
CONTINUOUS
 10
0.0703788668
 20
-32.4115100852
 11
0.0703788668
 21
-31.9925530852
  0
LINE
  5
4CC
100
AcDbEntity
  8
0
100
AcDbLine
 62
7
  6
CONTINUOUS
 10
0.0839858668
 20
-35.7883730852
 11
0.0839858668
 21
-35.3717080852
  0
LINE
  5
4CD
100
AcDbEntity
  8
RACCORDO
100
AcDbLine
 62
253
  6
CONTINUOUS
 10
-0.5097981649
 20
23.2338959382
 11
-0.5097431547
 21
24.5921639616
  0
LINE
  5
4CE
100
AcDbEntity
  8
RACCORDO
100
AcDbLine
 62
253
  6
CONTINUOUS
 10
-0.5098621015
 20
-22.9984081086
 11
-0.5099171117
 21
-24.3566761319
  0
LINE
  5
4CF
100
AcDbEntity
  8
0
100
AcDbLine
 62
7
  6
CONTINUOUS
 10
-27.0473299663
 20
-34.3184263592
 11
-26.9598303001
 21
-34.1843836968
  0
LINE
  5
4D0
100
AcDbEntity
  8
0
100
AcDbLine
 62
7
  6
CONTINUOUS
 10
-24.8431631486
 20
-31.6056603735
 11
-24.9264971177
 21
-31.7333199327
  0
LINE
  5
4D1
100
AcDbEntity
  8
0
100
AcDbLine
 62
7
  6
CONTINUOUS
 10
-24.8014971177
 20
-32.541830564
 11
-24.8848301332
 21
-32.6694901233
  0
LINE
  5
4D2
100
AcDbEntity
  8
0
100
AcDbLine
 62
7
  6
CONTINUOUS
 10
-25.997330467
 20
-34.4077880507
 11
-26.0848301332
 21
-34.5418305879
  0
LINE
  5
4D3
100
AcDbEntity
  8
0
100
AcDbLine
 62
7
  6
CONTINUOUS
 10
-29.8035799663
 20
-35.7035326866
 11
-29.6723299663
 21
-35.524809288
  0
LINE
  5
4D4
100
AcDbEntity
  8
0
100
AcDbLine
 62
7
  6
CONTINUOUS
 10
-27.0910803001
 20
-35.2120433365
 11
-26.9598303001
 21
-35.033319891
  0
LINE
  5
4D5
100
AcDbEntity
  8
0
100
AcDbLine
 62
7
  6
CONTINUOUS
 10
-25.9535801332
 20
-35.3460858737
 11
-26.0848301332
 21
-35.524809288
  0
LINE
  5
4D6
100
AcDbEntity
  8
0
100
AcDbLine
 62
7
  6
CONTINUOUS
 10
-34.3431635062
 20
-31.6907667463
 11
-34.2598301332
 21
-31.6056603735
  0
LINE
  5
4D7
100
AcDbEntity
  8
0
100
AcDbLine
 62
7
  6
CONTINUOUS
 10
-33.468163387
 20
-31.1801283901
 11
-33.3014968793
 21
-31.0099156444
  0
LINE
  5
4D8
100
AcDbEntity
  8
0
100
AcDbLine
 62
7
  6
CONTINUOUS
 10
-34.3431635062
 20
-32.5843837505
 11
-34.2598301332
 21
-32.4992773478
  0
LINE
  5
4D9
100
AcDbEntity
  8
0
100
AcDbLine
 62
7
  6
CONTINUOUS
 10
-34.9223301306
 20
-34.0950220053
 11
-34.7473301332
 21
-33.9162986224
  0
LINE
  5
4DA
100
AcDbEntity
  8
0
100
AcDbLine
 62
7
  6
CONTINUOUS
 10
-32.1764968793
 20
-32.5843837505
 11
-32.343163387
 21
-32.754596511
  0
LWPOLYLINE
  5
4DB
100
AcDbEntity
  8
0
100
AcDbPolyline
 62
7
  6
CONTINUOUS
 90
4
 70
0
 10
18.9859052096
 20
25.3236863442
 10
18.9831674723
 20
25.3209089727
 10
18.9812895712
 20
25.3190195273
 10
18.9802368732
 20
25.3180180079
  0
LINE
  5
4DC
100
AcDbEntity
  8
0
100
AcDbLine
 62
7
  6
CONTINUOUS
 10
19.1799627802
 20
25.5177439148
 11
19.1628718858
 21
25.5005088787
  0
LINE
  5
4DD
100
AcDbEntity
  8
0
100
AcDbLine
 62
7
  6
CONTINUOUS
 10
29.0174938668
 20
32.3736569148
 11
30.7902678668
 21
34.1171179148
  0
LINE
  5
4DE
100
AcDbEntity
  8
0
100
AcDbLine
 62
7
  6
CONTINUOUS
 10
31.7478038668
 20
34.1171179148
 11
30.0280418668
 21
32.4716709148
  0
LINE
  5
4DF
100
AcDbEntity
  8
0
100
AcDbLine
 62
7
  6
CONTINUOUS
 10
29.5281758668
 20
31.9804779148
 11
29.0174938668
 21
31.5042079148
  0
LWPOLYLINE
  5
4E0
100
AcDbEntity
  8
RACCORDO
100
AcDbPolyline
 62
7
  6
CONTINUOUS
 90
10
 70
0
 10
-34.7721703049
 20
-22.576472828
 10
-34.7610559381
 20
-22.5681548203
 10
-34.7504931592
 20
-22.5605940389
 10
-34.7407129743
 20
-22.5539216285
 10
-34.7319677758
 20
-22.5481963207
 10
-34.7244152337
 20
-22.543529629
 10
-34.7181212783
 20
-22.5400852242
 10
-34.7132044146
 20
-22.5379106275
 10
-34.7098269983
 20
-22.536937573
 10
-34.7080854555
 20
-22.5371103415
  0
LWPOLYLINE
  5
4E1
100
AcDbEntity
  8
RACCORDO
100
AcDbPolyline
 62
7
  6
CONTINUOUS
 90
10
 70
0
 10
-34.7722449222
 20
-22.576523688
 10
-34.7734006756
 20
-22.57736804
 10
-34.7746037927
 20
-22.5781852885
 10
-34.7758542733
 20
-22.5789754325
 10
-34.7771551637
 20
-22.5797411
 10
-34.7785034176
 20
-22.5804796618
 10
-34.7798898967
 20
-22.5811832339
 10
-34.7813115552
 20
-22.581849191
 10
-34.782771439
 20
-22.5824801638
 10
-34.7842695482
 20
-22.583076155
  0
LWPOLYLINE
  5
4E2
100
AcDbEntity
  8
RACCORDO
100
AcDbPolyline
 62
7
  6
CONTINUOUS
 90
19
 70
0
 10
-44.3260642272
 20
-3.5409503678
 10
-44.3002300207
 20
-3.5407557719
 10
-44.2748472159
 20
-3.5401781246
 10
-44.2499158127
 20
-3.539217426
 10
-44.2251883552
 20
-3.5378560864
 10
-44.2009122994
 20
-3.5361116955
 10
-44.1778300127
 20
-3.534037022
 10
-44.1560814949
 20
-3.5316330407
 10
-44.1355267462
 20
-3.5288987768
 10
-44.1164881349
 20
-3.525884074
 10
-44.0989602121
 20
-3.5225862542
 10
-44.0829484267
 20
-3.5190079955
 10
-44.0687914931
 20
-3.5152071756
 10
-44.056491086
 20
-3.5111611893
 10
-44.0460455307
 20
-3.5068926418
 10
-44.037788517
 20
-3.5025272271
 10
-44.0318312749
 20
-3.4981068429
 10
-44.0280625744
 20
-3.4935895914
 10
-44.0264824156
 20
-3.4889754726
  0
LWPOLYLINE
  5
4E3
100
AcDbEntity
  8
RACCORDO
100
AcDbPolyline
 62
7
  6
CONTINUOUS
 90
19
 70
0
 10
-46.4699768812
 20
-3.7172773485
 10
-46.4453027586
 20
-3.7170996357
 10
-46.421023465
 20
-3.716571885
 10
-46.3971390006
 20
-3.7156940966
 10
-46.373431809
 20
-3.7144514713
 10
-46.3501194465
 20
-3.7128588081
 10
-46.3278545824
 20
-3.7109605042
 10
-46.3067598328
 20
-3.7087575221
 10
-46.2867125816
 20
-3.7062488992
 10
-46.2679976494
 20
-3.7034761444
 10
-46.2506091336
 20
-3.7004373172
 10
-46.2345529367
 20
-3.6971343581
 10
-46.220131587
 20
-3.6936145985
 10
-46.2073370876
 20
-3.689858566
 10
-46.1961774354
 20
-3.685885733
 10
-46.1869791502
 20
-3.6818018478
 10
-46.1798510721
 20
-3.6776421598
 10
-46.1746843609
 20
-3.6733714195
 10
-46.1714790169
 20
-3.668989627
  0
LINE
  5
4E4
100
AcDbEntity
  8
RACCORDO
100
AcDbLine
 62
7
  6
CONTINUOUS
 10
-47.3948438966
 20
-3.7172773485
 11
-46.4699768812
 21
-3.7172773485
  0
LINE
  5
4E5
100
AcDbEntity
  8
RACCORDO
100
AcDbLine
 62
7
  6
CONTINUOUS
 10
46.3751836302
 20
-3.7172773485
 11
45.4503166149
 21
-3.7172773485
  0
LINE
  5
4E6
100
AcDbEntity
  8
RACCORDO
100
AcDbLine
 62
7
  6
CONTINUOUS
 10
-45.833997749
 20
-3.5409503678
 11
-44.3260642272
 21
-3.5409503678
  0
LINE
  5
4E7
100
AcDbEntity
  8
RACCORDO
100
AcDbLine
 62
7
  6
CONTINUOUS
 10
44.8143374826
 20
-3.5409503678
 11
43.3064039609
 21
-3.5409503678
  0
LINE
  5
4E8
100
AcDbEntity
  8
DRAFT
100
AcDbLine
 62
7
  6
CONTINUOUS
 10
46.9517151851
 20
-3.3822560852
 11
42.9970219722
 21
-3.3822560852
  0
LINE
  5
4E9
100
AcDbEntity
  8
DRAFT
100
AcDbLine
 62
7
  6
CONTINUOUS
 10
-44.0166822386
 20
-3.3822560852
 11
-47.9713754514
 21
-3.3822560852
  0
LINE
  5
4EA
100
AcDbEntity
  8
RACCORDO
100
AcDbLine
 62
253
  6
CONTINUOUS
 10
34.8164820954
 20
0.1177124697
 11
33.9619513236
 21
0.1177254531
  0
LINE
  5
4EB
100
AcDbEntity
  8
RACCORDO
100
AcDbLine
 62
253
  6
CONTINUOUS
 10
-34.98161159
 20
0.1177254803
 11
-35.8361423618
 21
0.1177124746
  0
LWPOLYLINE
  5
4EC
100
AcDbEntity
  8
RACCORDO
100
AcDbPolyline
 62
7
  6
CONTINUOUS
 90
19
 70
0
 10
44.8143374826
 20
-3.5409503678
 10
44.8390115657
 20
-3.5411280775
 10
44.8632909672
 20
-3.5416558278
 10
44.887175687
 20
-3.5425336184
 10
44.9108832996
 20
-3.5437762479
 10
44.9341962305
 20
-3.5453689178
 10
44.9564617565
 20
-3.5472672333
 10
44.9775572664
 20
-3.5494702337
 10
44.9976053713
 20
-3.5519788796
 10
45.0163211811
 20
-3.5547516588
 10
45.0337105933
 20
-3.5577905141
 10
45.0497677103
 20
-3.5610935026
 10
45.0641899492
 20
-3.5646132841
 10
45.0769852945
 20
-3.5683693323
 10
45.0881457615
 20
-3.5723421735
 10
45.0973448139
 20
-3.5764260459
 10
45.104473606
 20
-3.5805856958
 10
45.1096409835
 20
-3.5848563769
 10
45.1128469462
 20
-3.5892380893
  0
LWPOLYLINE
  5
4ED
100
AcDbEntity
  8
RACCORDO
100
AcDbPolyline
 62
7
  6
CONTINUOUS
 90
10
 70
0
 10
-34.7734330621
 20
22.8128780317
 10
-34.7609784915
 20
22.8037373054
 10
-34.7504267635
 20
22.796162226
 10
-34.7407126462
 20
22.7894063399
 10
-34.7319713199
 20
22.7836762349
 10
-34.7243735887
 20
22.7790668429
 10
-34.7181250581
 20
22.7755656624
 10
-34.713328686
 20
22.7732397646
 10
-34.7099827999
 20
22.7722275592
 10
-34.7080849356
 20
22.7725977572
  0
LINE
  5
4EE
100
AcDbEntity
  8
0
100
AcDbLine
 62
7
  6
CONTINUOUS
 10
6.5410288668
 20
-34.1510060852
 11
6.5733965389
 21
-34.2710048696
  0
LINE
  5
4EF
100
AcDbEntity
  8
0
100
AcDbLine
 62
7
  6
CONTINUOUS
 10
6.9430293304
 20
-34.75100573
 11
6.5989588667
 21
-33.4753800846
  0
LINE
  5
4F0
100
AcDbEntity
  8
0
100
AcDbLine
 62
7
  6
CONTINUOUS
 10
8.6710288668
 20
-34.1510060852
 11
8.7033965389
 21
-34.2710048696
  0
LINE
  5
4F1
100
AcDbEntity
  8
0
100
AcDbLine
 62
7
  6
CONTINUOUS
 10
9.0730293304
 20
-34.75100573
 11
8.7289588668
 21
-33.4753800852
  0
LINE
  5
4F2
100
AcDbEntity
  8
0
100
AcDbLine
 62
7
  6
CONTINUOUS
 10
0.5052448668
 20
30.2775609148
 11
0.5052448668
 21
31.9427439148
  0
LINE
  5
4F3
100
AcDbEntity
  8
0
100
AcDbLine
 62
7
  6
CONTINUOUS
 10
0.7736098668
 20
31.9427439148
 11
0.7736098668
 21
29.8927439148
  0
LINE
  5
4F4
100
AcDbEntity
  8
0
100
AcDbLine
 62
7
  6
CONTINUOUS
 10
2.0441288668
 20
29.8927439148
 11
2.0441288668
 21
31.9427439148
  0
LINE
  5
4F5
100
AcDbEntity
  8
0
100
AcDbLine
 62
7
  6
CONTINUOUS
 10
2.3211478668
 20
31.9427439148
 11
2.3211478668
 21
29.8927439148
  0
LINE
  5
4F6
100
AcDbEntity
  8
0
100
AcDbLine
 62
7
  6
CONTINUOUS
 10
2.6180958668
 20
31.6972079148
 11
2.6180958668
 21
31.9427439148
  0
LINE
  5
4F7
100
AcDbEntity
  8
0
100
AcDbLine
 62
7
  6
CONTINUOUS
 10
3.3119288668
 20
29.8927439148
 11
3.3119288668
 21
31.6972079148
  0
LINE
  5
4F8
100
AcDbEntity
  8
0
100
AcDbLine
 62
7
  6
CONTINUOUS
 10
3.5888488668
 20
31.6972079148
 11
3.5888488668
 21
29.8927439148
  0
LINE
  5
4F9
100
AcDbEntity
  8
0
100
AcDbLine
 62
7
  6
CONTINUOUS
 10
4.2826828668
 20
31.9427439148
 11
4.2826828668
 21
31.6972079148
  0
LWPOLYLINE
  5
4FA
100
AcDbEntity
  8
0
100
AcDbPolyline
 62
7
  6
CONTINUOUS
 90
13
 70
0
 10
32.8568530426
 20
33.2310401197
 10
32.8069172989
 20
33.1731810598
 10
32.7595913557
 20
33.1090297929
 10
32.714875213
 20
33.038586319
 10
32.6723190495
 20
32.9619304282
 10
32.6323726866
 20
32.8789823305
 10
32.5963855883
 20
32.7895026557
 10
32.5642279609
 20
32.6933088224
 10
32.5360295981
 20
32.590583412
 10
32.5135293459
 20
32.481634799
 10
32.4973068195
 20
32.3665657751
 10
32.4867824036
 20
32.2452735487
 10
32.4819560982
 20
32.1177581197
  0
LWPOLYLINE
  5
4FB
100
AcDbEntity
  8
0
100
AcDbPolyline
 62
7
  6
CONTINUOUS
 90
16
 70
0
 10
32.2630715982
 20
33.5910357308
 10
32.3281567659
 20
33.663132763
 10
32.3979622681
 20
33.7315555871
 10
32.4724881047
 20
33.7963042032
 10
32.5522116397
 20
33.8578208132
 10
32.6366555092
 20
33.9156632152
 10
32.7243876219
 20
33.9685048027
 10
32.8146152405
 20
34.015931241
 10
32.9081311024
 20
34.0583568649
 10
33.0058813285
 20
34.095698072
 10
33.1080591414
 20
34.1281569088
 10
33.2144713186
 20
34.1555313289
 10
33.325484313
 20
34.1771315898
 10
33.4412202759
 20
34.1927277774
 10
33.5615570562
 20
34.2025498059
 10
33.6864946538
 20
34.2065976752
  0
LINE
  5
4FC
100
AcDbEntity
  8
0
100
AcDbLine
 62
7
  6
CONTINUOUS
 10
-32.9098301332
 20
-34.0950220053
 11
-32.7785801332
 21
-33.9609794681
  0
LINE
  5
4FD
100
AcDbEntity
  8
0
100
AcDbLine
 62
7
  6
CONTINUOUS
 10
-28.0098301332
 20
-31.1801283901
 11
-27.8431636255
 21
-31.0099156444
  0
LINE
  5
4FE
100
AcDbEntity
  8
0
100
AcDbLine
 62
7
  6
CONTINUOUS
 10
-31.6848300497
 20
-35.5694901337
 11
-31.8160800497
 21
-35.7035326866
  0
LINE
  5
4FF
100
AcDbEntity
  8
0
100
AcDbLine
 62
7
  6
CONTINUOUS
 10
-30.8535802166
 20
-34.9886390453
 11
-30.7660803001
 21
-34.8992773538
  0
LINE
  5
500
100
AcDbEntity
  8
0
100
AcDbLine
 62
7
  6
CONTINUOUS
 10
-27.0098301332
 20
-31.6907667463
 11
-26.9264971177
 21
-31.6056603735
  0
LINE
  5
501
100
AcDbEntity
  8
0
100
AcDbLine
 62
7
  6
CONTINUOUS
 10
-26.1764971177
 20
-31.1801283901
 11
-26.0098301332
 21
-31.0099156444
  0
LINE
  5
502
100
AcDbEntity
  8
0
100
AcDbLine
 62
7
  6
CONTINUOUS
 10
-26.9264971177
 20
-32.5843837505
 11
-26.8431631486
 21
-32.4992773478
  0
LINE
  5
503
100
AcDbEntity
  8
0
100
AcDbLine
 62
7
  6
CONTINUOUS
 10
-25.1764971177
 20
-31.6907667463
 11
-25.0931631486
 21
-31.6056603735
  0
LINE
  5
504
100
AcDbEntity
  8
0
100
AcDbLine
 62
7
  6
CONTINUOUS
 10
-27.0473299663
 20
-33.9609794681
 11
-27.1785799663
 21
-34.0950220053
  0
LINE
  5
505
100
AcDbEntity
  8
0
100
AcDbLine
 62
7
  6
CONTINUOUS
 10
-20.1996230465
 20
-25.2822560852
 11
-20.1825321521
 21
-25.265021049
  0
LINE
  5
506
100
AcDbEntity
  8
0
100
AcDbLine
 62
7
  6
CONTINUOUS
 10
-20.0091989723
 20
-25.0918526287
 11
-20.0009498376
 21
-25.0835316977
  0
LINE
  5
507
100
AcDbEntity
  8
0
100
AcDbLine
 62
7
  6
CONTINUOUS
 10
-20.1996230465
 20
-25.8720489985
 11
-20.5598301332
 21
-26.2322560852
  0
LINE
  5
508
100
AcDbEntity
  8
0
100
AcDbLine
 62
7
  6
CONTINUOUS
 10
-19.8159213498
 20
-25.518789621
 11
-20.5509137843
 21
-26.2537820555
  0
LINE
  5
509
100
AcDbEntity
  8
0
100
AcDbLine
 62
7
  6
CONTINUOUS
 10
-20.1825321521
 20
-25.265021049
 11
-20.0091989723
 21
-25.0918526287
  0
LINE
  5
50A
100
AcDbEntity
  8
0
100
AcDbLine
 62
7
  6
CONTINUOUS
 10
-20.0009498376
 20
-25.0835316977
 11
-19.9998971396
 21
-25.0825301782
  0
LINE
  5
50B
100
AcDbEntity
  8
0
100
AcDbLine
 62
7
  6
CONTINUOUS
 10
-35.0098301332
 20
-35.6588518252
 11
-33.7848301749
 21
-34.5418305879
  0
LINE
  5
50C
100
AcDbEntity
  8
0
100
AcDbLine
 62
7
  6
CONTINUOUS
 10
-33.5660801332
 20
-34.6758731251
 11
-34.6598301227
 21
-35.6588518252
  0
LWPOLYLINE
  5
50D
100
AcDbEntity
  8
RACCORDO
100
AcDbPolyline
 62
7
  6
CONTINUOUS
 90
10
 70
0
 10
33.7525100386
 20
22.8119606576
 10
33.7413956717
 20
22.80364265
 10
33.7308328926
 20
22.7960818688
 10
33.7210527075
 20
22.7894094585
 10
33.7123075088
 20
22.783684151
 10
33.7047549665
 20
22.7790174596
 10
33.6984610109
 20
22.7755730549
 10
33.6935441475
 20
22.773398458
 10
33.6901667315
 20
22.7724254032
 10
33.6884251892
 20
22.7725981711
  0
LWPOLYLINE
  5
50E
100
AcDbEntity
  8
RACCORDO
100
AcDbPolyline
 62
7
  6
CONTINUOUS
 90
10
 70
0
 10
33.7525846559
 20
22.8120115176
 10
33.7537404093
 20
22.8128558696
 10
33.7549435264
 20
22.8136731181
 10
33.756194007
 20
22.8144632621
 10
33.7574948975
 20
22.8152289296
 10
33.7588431514
 20
22.8159674914
 10
33.7602296305
 20
22.8166710635
 10
33.7616512885
 20
22.8173370204
 10
33.7631111717
 20
22.8179679929
 10
33.7646092803
 20
22.818563984
  0
LWPOLYLINE
  5
50F
100
AcDbEntity
  8
RACCORDO
100
AcDbPolyline
 62
7
  6
CONTINUOUS
 90
19
 70
0
 10
43.3064039609
 20
3.7764381975
 10
43.2805697544
 20
3.7762436015
 10
43.2551869495
 20
3.7756659542
 10
43.2302555463
 20
3.7747052556
 10
43.2055280889
 20
3.7733439161
 10
43.1812520331
 20
3.7715995252
 10
43.1581697464
 20
3.7695248516
 10
43.1364212285
 20
3.7671208704
 10
43.1158664799
 20
3.7643866064
 10
43.0968278685
 20
3.7613719036
 10
43.0792999458
 20
3.7580740838
 10
43.0632881604
 20
3.7544958251
 10
43.0491312267
 20
3.7506950053
 10
43.0368308196
 20
3.7466490189
 10
43.0263852643
 20
3.7423804715
 10
43.0181282506
 20
3.7380150567
 10
43.0121710085
 20
3.7335946726
 10
43.0084023081
 20
3.7290774211
 10
43.0068221492
 20
3.7244633023
  0
LWPOLYLINE
  5
510
100
AcDbEntity
  8
RACCORDO
100
AcDbPolyline
 62
7
  6
CONTINUOUS
 90
19
 70
0
 10
45.4503166149
 20
3.9527651782
 10
45.4256424922
 20
3.9525874653
 10
45.4013631987
 20
3.9520597147
 10
45.3774787343
 20
3.9511819262
 10
45.3537715426
 20
3.9499393009
 10
45.3304591801
 20
3.9483466378
 10
45.308194316
 20
3.9464483338
 10
45.2870995665
 20
3.9442453517
 10
45.2670523153
 20
3.9417367288
 10
45.2483373831
 20
3.9389639741
 10
45.2309488672
 20
3.9359251468
 10
45.2148926703
 20
3.9326221877
 10
45.2004713207
 20
3.9291024281
 10
45.1876768212
 20
3.9253463956
 10
45.176517169
 20
3.9213735627
 10
45.1673188839
 20
3.9172896774
 10
45.1601908057
 20
3.9131299894
 10
45.1550240946
 20
3.9088592491
 10
45.1518187505
 20
3.9044774566
  0
LWPOLYLINE
  5
511
100
AcDbEntity
  8
RACCORDO
100
AcDbPolyline
 62
7
  6
CONTINUOUS
 90
19
 70
0
 10
-47.3948438966
 20
3.9527651782
 10
-47.4366907558
 20
3.9524649987
 10
-47.4779274818
 20
3.9515516495
 10
-47.5185540747
 20
3.9500251306
 10
-47.5589833599
 20
3.9478592391
 10
-47.5988025119
 20
3.9450801778
 10
-47.6367730543
 20
3.9417665556
 10
-47.6726659319
 20
3.937916937
 10
-47.7067102
 20
3.9335327573
 10
-47.7383545475
 20
3.9286969317
 10
-47.7675834511
 20
3.9234091535
 10
-47.7944124341
 20
3.9176697293
 10
-47.8183367564
 20
3.9115624936
 10
-47.8393758736
 20
3.9050467578
 10
-47.85751033
 20
3.8981632106
 10
-47.8721770182
 20
3.891117752
 10
-47.8831882355
 20
3.8839790155
 10
-47.8907316846
 20
3.8766783676
 10
-47.8948073654
 20
3.8692158084
  0
LINE
  5
512
100
AcDbEntity
  8
DRAFT
100
AcDbLine
 62
7
  6
CONTINUOUS
 10
-47.9713754514
 20
3.6177439148
 11
-44.0166822386
 21
3.6177439148
  0
LINE
  5
513
100
AcDbEntity
  8
DRAFT
100
AcDbLine
 62
7
  6
CONTINUOUS
 10
42.9970219722
 20
3.6177439148
 11
46.9517151851
 21
3.6177439148
  0
LINE
  5
514
100
AcDbEntity
  8
RACCORDO
100
AcDbLine
 62
7
  6
CONTINUOUS
 10
-45.833997749
 20
3.7764381975
 11
-44.3260642272
 21
3.7764381975
  0
LINE
  5
515
100
AcDbEntity
  8
RACCORDO
100
AcDbLine
 62
7
  6
CONTINUOUS
 10
44.8143374826
 20
3.7764381975
 11
43.3064039609
 21
3.7764381975
  0
LINE
  5
516
100
AcDbEntity
  8
RACCORDO
100
AcDbLine
 62
7
  6
CONTINUOUS
 10
-47.3948438966
 20
3.9527651782
 11
-46.4699768812
 21
3.9527651782
  0
LINE
  5
517
100
AcDbEntity
  8
RACCORDO
100
AcDbLine
 62
7
  6
CONTINUOUS
 10
46.3751836302
 20
3.9527651782
 11
45.4503166149
 21
3.9527651782
  0
LWPOLYLINE
  5
518
100
AcDbEntity
  8
RACCORDO
100
AcDbPolyline
 62
7
  6
CONTINUOUS
 90
19
 70
0
 10
-45.833997749
 20
3.7764381975
 10
-45.8586718321
 20
3.7766159072
 10
-45.8829512335
 20
3.7771436574
 10
-45.9068359533
 20
3.7780214481
 10
-45.9305435659
 20
3.7792640775
 10
-45.9538564969
 20
3.7808567474
 10
-45.9761220228
 20
3.782755063
 10
-45.9972175327
 20
3.7849580633
 10
-46.0172656377
 20
3.7874667092
 10
-46.0359814475
 20
3.7902394885
 10
-46.0533708597
 20
3.7932783437
 10
-46.0694279767
 20
3.7965813322
 10
-46.0838502156
 20
3.8001011137
 10
-46.0966455608
 20
3.8038571619
 10
-46.1078060279
 20
3.8078300031
 10
-46.1170050803
 20
3.8119138756
 10
-46.1241338724
 20
3.8160735254
 10
-46.1293012498
 20
3.8203442066
 10
-46.1325072125
 20
3.824725919
  0
LWPOLYLINE
  5
519
100
AcDbEntity
  8
RACCORDO
100
AcDbPolyline
 62
7
  6
CONTINUOUS
 90
10
 70
0
 10
33.7537727958
 20
-22.577390202
 10
33.7413182251
 20
-22.5682494758
 10
33.7307664969
 20
-22.5606743965
 10
33.7210523795
 20
-22.5539185106
 10
33.7123110529
 20
-22.5481884058
 10
33.7047133215
 20
-22.5435790142
 10
33.6984647907
 20
-22.5400778338
 10
33.6936684187
 20
-22.5377519358
 10
33.6903225328
 20
-22.5367397299
 10
33.688424669
 20
-22.5371099274
  0
LINE
  5
51A
100
AcDbEntity
  8
0
100
AcDbLine
 62
7
  6
CONTINUOUS
 10
-19.9998971396
 20
25.3180180079
 11
-20.0009498376
 21
25.3190195273
  0
LWPOLYLINE
  5
51B
100
AcDbEntity
  8
0
100
AcDbPolyline
 62
7
  6
CONTINUOUS
 90
3
 70
0
 10
-20.1347650227
 20
25.4529251077
 10
-20.1825321521
 20
25.5005088787
 10
-20.1996230465
 20
25.5177439148
  0
LINE
  5
51C
100
AcDbEntity
  8
0
100
AcDbLine
 62
7
  6
CONTINUOUS
 10
-20.5598301332
 20
26.4677439148
 11
-20.1996230465
 21
26.1075368282
  0
LINE
  5
51D
100
AcDbEntity
  8
0
100
AcDbLine
 62
7
  6
CONTINUOUS
 10
-20.5509137843
 20
26.4892698851
 11
-19.8159213498
 21
25.7542774506
  0
LINE
  5
51E
100
AcDbEntity
  8
0
100
AcDbLine
 62
7
  6
CONTINUOUS
 10
-20.0091989723
 20
25.3273404583
 11
-20.1347650227
 21
25.4529251077
  0
LINE
  5
51F
100
AcDbEntity
  8
0
100
AcDbLine
 62
7
  6
CONTINUOUS
 10
-20.0009498376
 20
25.3190195273
 11
-20.0091989723
 21
25.3273404583
  0
LINE
  5
520
100
AcDbEntity
  8
0
100
AcDbLine
 62
7
  6
CONTINUOUS
 10
-7.4038261332
 20
31.9427439148
 11
-6.6615161332
 21
29.8927439148
  0
LINE
  5
521
100
AcDbEntity
  8
0
100
AcDbLine
 62
7
  6
CONTINUOUS
 10
-6.9641991332
 20
29.8927439148
 11
-7.1668951332
 21
30.4894239148
  0
LINE
  5
522
100
AcDbEntity
  8
0
100
AcDbLine
 62
7
  6
CONTINUOUS
 10
-10.3019081332
 20
31.9427439148
 11
-9.7137581332
 21
30.2012309148
  0
LINE
  5
523
100
AcDbEntity
  8
0
100
AcDbLine
 62
7
  6
CONTINUOUS
 10
-9.8536281332
 20
29.8927439148
 11
-10.4304191332
 21
31.6116599148
  0
LINE
  5
524
100
AcDbEntity
  8
0
100
AcDbLine
 62
7
  6
CONTINUOUS
 10
-7.2667501332
 20
30.7349599148
 11
-7.5721691332
 21
31.6453939148
  0
LINE
  5
525
100
AcDbEntity
  8
0
100
AcDbLine
 62
7
  6
CONTINUOUS
 10
6.4440608668
 20
29.8927439148
 11
6.4440608668
 21
31.9427439148
  0
LINE
  5
526
100
AcDbEntity
  8
0
100
AcDbLine
 62
7
  6
CONTINUOUS
 10
6.7210968668
 20
31.9427439148
 11
6.7210968668
 21
30.1382799148
  0
LINE
  5
527
100
AcDbEntity
  8
0
100
AcDbLine
 62
7
  6
CONTINUOUS
 10
7.3701698668
 20
-33.1922560852
 11
7.3701698668
 21
-33.3597640852
  0
LINE
  5
528
100
AcDbEntity
  8
0
100
AcDbLine
 62
7
  6
CONTINUOUS
 10
7.3701698668
 20
-34.8870138789
 11
7.3701698668
 21
-35.2322560852
  0
LINE
  5
529
100
AcDbEntity
  8
0
100
AcDbLine
 62
7
  6
CONTINUOUS
 10
7.3904898668
 20
-34.1702557269
 11
7.3904898668
 21
-34.2902560852
  0
LINE
  5
52A
100
AcDbEntity
  8
0
100
AcDbLine
 62
7
  6
CONTINUOUS
 10
7.6101698668
 20
-35.2322560852
 11
7.6101698668
 21
-34.8870140852
  0
LINE
  5
52B
100
AcDbEntity
  8
0
100
AcDbLine
 62
7
  6
CONTINUOUS
 10
7.6101698668
 20
-33.3597634455
 11
7.6101698668
 21
-33.1922560852
  0
LINE
  5
52C
100
AcDbEntity
  8
0
100
AcDbLine
 62
7
  6
CONTINUOUS
 10
7.6203848668
 20
-33.9602560285
 11
7.6203848668
 21
-33.8402560852
  0
LINE
  5
52D
100
AcDbEntity
  8
0
100
AcDbLine
 62
7
  6
CONTINUOUS
 10
7.7604378668
 20
30.1382799148
 11
7.7604378668
 21
29.8927439148
  0
LINE
  5
52E
100
AcDbEntity
  8
0
100
AcDbLine
 62
7
  6
CONTINUOUS
 10
8.6283508668
 20
29.8927439148
 11
8.6283508668
 21
30.7178829148
  0
LINE
  5
52F
100
AcDbEntity
  8
0
100
AcDbLine
 62
7
  6
CONTINUOUS
 10
8.9052208668
 20
30.7178829148
 11
8.9052208668
 21
29.8927439148
  0
LINE
  5
530
100
AcDbEntity
  8
0
100
AcDbLine
 62
7
  6
CONTINUOUS
 10
6.1421298778
 20
-34.7976614631
 11
6.1431693267
 21
-34.7822560852
  0
LWPOLYLINE
  5
531
100
AcDbEntity
  8
0
100
AcDbPolyline
 62
7
  6
CONTINUOUS
 90
13
 70
0
 10
34.5159104871
 20
31.0044972863
 10
34.5658446455
 20
31.0623540669
 10
34.6131691379
 20
31.1265030309
 10
34.6578839643
 20
31.1969441784
 10
34.700438898
 20
31.2735977389
 10
34.7403841657
 20
31.3565434829
 10
34.7763704474
 20
31.4460207214
 10
34.8085276147
 20
31.5422116711
 10
34.8367257961
 20
31.6449341154
 10
34.8592260564
 20
31.7538807162
 10
34.8754487506
 20
31.8689490275
 10
34.8859735238
 20
31.9902414953
 10
34.890800376
 20
32.1177581197
  0
LWPOLYLINE
  5
532
100
AcDbEntity
  8
0
100
AcDbPolyline
 62
7
  6
CONTINUOUS
 90
16
 70
0
 10
35.1097060426
 20
30.6452636752
 10
35.0446037934
 20
30.5731461234
 10
34.9747869731
 20
30.5047076539
 10
34.9002555818
 20
30.4399482667
 10
34.820532123
 20
30.3784264216
 10
34.7360940932
 20
30.3205836587
 10
34.6483739814
 20
30.2677445989
 10
34.5581664797
 20
30.2203241521
 10
34.4646768959
 20
30.1779074083
 10
34.366953643
 20
30.1405742594
 10
34.2648020897
 20
30.1081215568
 10
34.1584168672
 20
30.0807524491
 10
34.0474302817
 20
30.0591562733
 10
33.9317197687
 20
30.0435628086
 10
33.8114078927
 20
30.0337422759
 10
33.6864946538
 20
30.0296946752
  0
LINE
  5
533
100
AcDbEntity
  8
0
100
AcDbLine
 62
7
  6
CONTINUOUS
 10
-25.0931631486
 20
-32.5843837505
 11
-25.0098301332
 21
-32.4992773478
  0
LINE
  5
534
100
AcDbEntity
  8
0
100
AcDbLine
 62
7
  6
CONTINUOUS
 10
-25.997330467
 20
-34.7652348166
 11
-25.866080467
 21
-34.6311922794
  0
LINE
  5
535
100
AcDbEntity
  8
0
100
AcDbLine
 62
7
  6
CONTINUOUS
 10
-25.9535801332
 20
-35.7035326866
 11
-25.8223301332
 21
-35.5694901337
  0
LINE
  5
536
100
AcDbEntity
  8
0
100
AcDbLine
 62
7
  6
CONTINUOUS
 10
-19.9998971396
 20
-25.6738825019
 11
-19.8159213498
 21
-25.518789621
  0
LINE
  5
537
100
AcDbEntity
  8
0
100
AcDbLine
 62
7
  6
CONTINUOUS
 10
-34.1348301332
 20
-32.7120433246
 11
-34.3014967601
 21
-32.839702895
  0
LINE
  5
538
100
AcDbEntity
  8
0
100
AcDbLine
 62
7
  6
CONTINUOUS
 10
-31.3014966409
 20
-31.860979492
 11
-31.4681636255
 21
-31.9886390512
  0
LINE
  5
539
100
AcDbEntity
  8
0
100
AcDbLine
 62
7
  6
CONTINUOUS
 10
-26.7598301332
 20
-31.7333199327
 11
-26.9264971177
 21
-31.860979492
  0
LINE
  5
53A
100
AcDbEntity
  8
0
100
AcDbLine
 62
7
  6
CONTINUOUS
 10
-33.093163387
 20
-31.1801283901
 11
-33.218163387
 21
-31.2652347629
  0
LINE
  5
53B
100
AcDbEntity
  8
0
100
AcDbLine
 62
7
  6
CONTINUOUS
 10
-32.5514968793
 20
-32.5843837505
 11
-32.4264968793
 21
-32.4992773478
  0
LINE
  5
53C
100
AcDbEntity
  8
0
100
AcDbLine
 62
7
  6
CONTINUOUS
 10
-34.5285801227
 20
-34.0503411596
 11
-34.6598301227
 21
-34.1397028511
  0
LWPOLYLINE
  5
53D
100
AcDbEntity
  8
RACCORDO
100
AcDbPolyline
 62
7
  6
CONTINUOUS
 90
13
 70
0
 10
-35.1726439622
 20
-22.7292954162
 10
-35.1862583422
 20
-22.7349968885
 10
-35.1996540467
 20
-22.7410540907
 10
-35.212566471
 20
-22.7472868705
 10
-35.2247568343
 20
-22.7534587661
 10
-35.2360086312
 20
-22.7594410969
 10
-35.246111216
 20
-22.7652271763
 10
-35.2549033001
 20
-22.7706779472
 10
-35.2622124475
 20
-22.775622946
 10
-35.2678512232
 20
-22.7800361459
 10
-35.27173061
 20
-22.7838380526
 10
-35.273845402
 20
-22.7868903291
 10
-35.2742009501
 20
-22.789109086
  0
LINE
  5
53E
100
AcDbEntity
  8
RACCORDO
100
AcDbLine
 62
7
  6
CONTINUOUS
 10
-34.7842741212
 20
-22.5830778446
 11
-35.0877135135
 21
-22.6975880786
  0
LINE
  5
53F
100
AcDbEntity
  8
RACCORDO
100
AcDbLine
 62
7
  6
CONTINUOUS
 10
-35.0877135135
 20
-22.6975880786
 11
-35.1743645176
 21
-22.7299361948
  0
LINE
  5
540
100
AcDbEntity
  8
RACCORDO
100
AcDbLine
 62
7
  6
CONTINUOUS
 10
-34.9145423081
 20
22.8679368412
 11
-35.1743645163
 21
22.9654240311
  0
LINE
  5
541
100
AcDbEntity
  8
RACCORDO
100
AcDbLine
 62
7
  6
CONTINUOUS
 10
-34.7842741667
 20
22.8185656051
 11
-34.9145423081
 21
22.8679368412
  0
LWPOLYLINE
  5
542
100
AcDbEntity
  8
RACCORDO
100
AcDbPolyline
 62
7
  6
CONTINUOUS
 90
9
 70
0
 10
-34.7842681789
 20
22.8185633927
 10
-34.782770375
 20
22.8179674688
 10
-34.7813106525
 20
22.8173364995
 10
-34.7798890113
 20
22.8166704819
 10
-34.7785000489
 20
22.8159651853
 10
-34.7771491677
 20
22.8152248348
 10
-34.7758525753
 20
22.8144621147
 10
-34.7746156743
 20
22.8136812559
 10
-34.7734330621
 20
22.8128780317
  0
LWPOLYLINE
  5
543
100
AcDbEntity
  8
RACCORDO
100
AcDbPolyline
 62
7
  6
CONTINUOUS
 90
13
 70
0
 10
-35.1743645777
 20
22.9654238201
 10
-35.1873435269
 20
22.9710992979
 10
-35.2002789466
 20
22.9769637755
 10
-35.2128930067
 20
22.9829362152
 10
-35.2249085286
 20
22.9889886128
 10
-35.2360590377
 20
22.9949923429
 10
-35.2461099374
 20
23.0007176549
 10
-35.2548310741
 20
23.0060803112
 10
-35.2620626379
 20
23.0110375845
 10
-35.2677220891
 20
23.0154238556
 10
-35.2717014439
 20
23.0191502563
 10
-35.2738809168
 20
23.022216085
 10
-35.2742003767
 20
23.0245966627
  0
LINE
  5
544
100
AcDbEntity
  8
0
100
AcDbLine
 62
7
  6
CONTINUOUS
 10
-19.9998971396
 20
25.9093703316
 11
-19.8159213498
 21
25.7542774506
  0
LINE
  5
545
100
AcDbEntity
  8
0
100
AcDbLine
 62
7
  6
CONTINUOUS
 10
10.4901698668
 20
29.1177439148
 11
10.4901698668
 21
35.1177439148
  0
LINE
  5
546
100
AcDbEntity
  8
0
100
AcDbLine
 62
7
  6
CONTINUOUS
 10
11.4901698668
 20
-37.8822560852
 11
11.4901698668
 21
-30.3822560852
  0
LINE
  5
547
100
AcDbEntity
  8
0
100
AcDbLine
 62
7
  6
CONTINUOUS
 10
8.2721298778
 20
-34.7976614631
 11
8.2731693267
 21
-34.7822560852
  0
LINE
  5
548
100
AcDbEntity
  8
0
100
AcDbLine
 62
7
  6
CONTINUOUS
 10
19.7946947542
 20
26.4892698851
 11
19.9441544358
 21
27.0470610105
  0
LINE
  5
549
100
AcDbEntity
  8
0
100
AcDbLine
 62
7
  6
CONTINUOUS
 10
19.7956124165
 20
26.4677439148
 11
19.9503921189
 21
27.0453896284
  0
LINE
  5
54A
100
AcDbEntity
  8
0
100
AcDbLine
 62
7
  6
CONTINUOUS
 10
20.7571571649
 20
26.4677439148
 11
20.7629250313
 21
26.4892698851
  0
LINE
  5
54B
100
AcDbEntity
  8
0
100
AcDbLine
 62
7
  6
CONTINUOUS
 10
24.4401698668
 20
26.4677439148
 11
24.4490862157
 21
26.4892698851
  0
LINE
  5
54C
100
AcDbEntity
  8
0
100
AcDbLine
 62
7
  6
CONTINUOUS
 10
-24.9264971177
 20
-31.7333199327
 11
-25.0931631486
 21
-31.860979492
  0
LINE
  5
54D
100
AcDbEntity
  8
0
100
AcDbLine
 62
7
  6
CONTINUOUS
 10
-26.9598303001
 20
-34.1843836968
 11
-26.7848299663
 21
-34.0503411596
  0
LINE
  5
54E
100
AcDbEntity
  8
0
100
AcDbLine
 62
7
  6
CONTINUOUS
 10
-27.0473299663
 20
-34.854596508
 11
-27.2223303001
 21
-34.9886390453
  0
LINE
  5
54F
100
AcDbEntity
  8
0
100
AcDbLine
 62
7
  6
CONTINUOUS
 10
-26.0848301332
 20
-34.5418305879
 11
-26.259830467
 21
-34.6758731251
  0
LINE
  5
550
100
AcDbEntity
  8
0
100
AcDbLine
 62
7
  6
CONTINUOUS
 10
-30.7181636255
 20
-32.6269369369
 11
-30.5931636255
 21
-32.541830564
  0
LINE
  5
551
100
AcDbEntity
  8
0
100
AcDbLine
 62
7
  6
CONTINUOUS
 10
-32.5160801332
 20
-34.0503411596
 11
-32.6473301332
 21
-34.1397028511
  0
LINE
  5
552
100
AcDbEntity
  8
0
100
AcDbLine
 62
7
  6
CONTINUOUS
 10
-27.6348301332
 20
-31.1375752037
 11
-27.7598301332
 21
-31.2226815765
  0
LINE
  5
553
100
AcDbEntity
  8
0
100
AcDbLine
 62
7
  6
CONTINUOUS
 10
-30.7660803001
 20
-34.1397028511
 11
-30.6348303001
 21
-34.0503411596
  0
LINE
  5
554
100
AcDbEntity
  8
0
100
AcDbLine
 62
7
  6
CONTINUOUS
 10
-25.8014971177
 20
-31.1375752037
 11
-25.9264971177
 21
-31.2226815765
  0
LINE
  5
555
100
AcDbEntity
  8
0
100
AcDbLine
 62
7
  6
CONTINUOUS
 10
-30.6785801332
 20
-34.5865114336
 11
-30.9410801332
 21
-34.7652348166
  0
LINE
  5
556
100
AcDbEntity
  8
0
100
AcDbLine
 62
7
  6
CONTINUOUS
 10
-32.0785800497
 20
-35.6141709795
 11
-31.9473300497
 21
-35.524809288
  0
LINE
  5
557
100
AcDbEntity
  8
0
100
AcDbLine
 62
7
  6
CONTINUOUS
 10
-30.7660803001
 20
-34.8992773538
 11
-30.6348303001
 21
-34.8099156623
  0
LINE
  5
558
100
AcDbEntity
  8
0
100
AcDbLine
 62
7
  6
CONTINUOUS
 10
-26.7181631486
 20
-32.6694901233
 11
-26.8431631486
 21
-32.754596511
  0
LINE
  5
559
100
AcDbEntity
  8
0
100
AcDbLine
 62
7
  6
CONTINUOUS
 10
-29.9348299663
 20
-35.524809288
 11
-30.0660799663
 21
-35.6141709795
  0
LINE
  5
55A
100
AcDbEntity
  8
0
100
AcDbLine
 62
7
  6
CONTINUOUS
 10
-24.8848301332
 20
-32.6694901233
 11
-25.0098301332
 21
-32.754596511
  0
LINE
  5
55B
100
AcDbEntity
  8
0
100
AcDbLine
 62
7
  6
CONTINUOUS
 10
-31.5514968793
 20
-31.7758731191
 11
-31.3431636255
 21
-31.6482135599
  0
LINE
  5
55C
100
AcDbEntity
  8
0
100
AcDbLine
 62
7
  6
CONTINUOUS
 10
-32.7785801332
 20
-33.9609794681
 11
-32.5598302166
 21
-33.8269369309
  0
LINE
  5
55D
100
AcDbEntity
  8
0
100
AcDbLine
 62
7
  6
CONTINUOUS
 10
-30.4681636255
 20
-32.7120433246
 11
-30.6764966409
 21
-32.839702895
  0
LINE
  5
55E
100
AcDbEntity
  8
0
100
AcDbLine
 62
7
  6
CONTINUOUS
 10
-30.6785801332
 20
-33.8269369309
 11
-30.8973300497
 21
-33.9609794681
  0
LINE
  5
55F
100
AcDbEntity
  8
0
100
AcDbLine
 62
7
  6
CONTINUOUS
 10
-23.8098301332
 20
-25.9822560852
 11
-24.2428428351
 21
-26.2322560852
  0
LINE
  5
560
100
AcDbEntity
  8
0
100
AcDbLine
 62
7
  6
CONTINUOUS
 10
-23.8040622668
 20
-26.0037820555
 11
-24.2370749687
 21
-26.2537820555
  0
LINE
  5
561
100
AcDbEntity
  8
0
100
AcDbLine
 62
7
  6
CONTINUOUS
 10
-33.3014968793
 20
-31.0099156444
 11
-33.1348301332
 21
-30.9248092716
  0
LINE
  5
562
100
AcDbEntity
  8
0
100
AcDbLine
 62
7
  6
CONTINUOUS
 10
-34.1348301332
 20
-31.8184263056
 11
-34.2181635062
 21
-31.860979492
  0
LINE
  5
563
100
AcDbEntity
  8
0
100
AcDbLine
 62
7
  6
CONTINUOUS
 10
-24.2428428351
 20
26.4677439148
 11
-23.8098301332
 21
26.2177439148
  0
LINE
  5
564
100
AcDbEntity
  8
0
100
AcDbLine
 62
7
  6
CONTINUOUS
 10
-24.2370749687
 20
26.4892698851
 11
-23.8040622668
 21
26.2392698851
  0
LINE
  5
565
100
AcDbEntity
  8
0
100
AcDbLine
 62
7
  6
CONTINUOUS
 10
24.4401698668
 20
-26.2322560852
 11
24.4490862157
 21
-26.2537820555
  0
LINE
  5
566
100
AcDbEntity
  8
0
100
AcDbLine
 62
7
  6
CONTINUOUS
 10
19.9441544358
 20
-26.8115731809
 11
19.7946947542
 21
-26.2537820555
  0
LINE
  5
567
100
AcDbEntity
  8
0
100
AcDbLine
 62
7
  6
CONTINUOUS
 10
19.9503921189
 20
-26.8099017987
 11
19.7956124165
 21
-26.2322560852
  0
LINE
  5
568
100
AcDbEntity
  8
0
100
AcDbLine
 62
7
  6
CONTINUOUS
 10
20.7571571649
 20
-26.2322560852
 11
20.7629250313
 21
-26.2537820555
  0
LINE
  5
569
100
AcDbEntity
  8
0
100
AcDbLine
 62
7
  6
CONTINUOUS
 10
21.1901698668
 20
26.2177439148
 11
21.1959377332
 21
26.2392698851
  0
LINE
  5
56A
100
AcDbEntity
  8
0
100
AcDbLine
 62
7
  6
CONTINUOUS
 10
23.2946947542
 20
26.4892698851
 11
23.4441544358
 21
27.0470610105
  0
LINE
  5
56B
100
AcDbEntity
  8
0
100
AcDbLine
 62
7
  6
CONTINUOUS
 10
23.2956124165
 20
26.4677439148
 11
23.4503921189
 21
27.0453896284
  0
LINE
  5
56C
100
AcDbEntity
  8
0
100
AcDbLine
 62
7
  6
CONTINUOUS
 10
6.2513808668
 20
-33.4753800851
 11
5.9073108668
 21
-34.7510060852
  0
LINE
  5
56D
100
AcDbEntity
  8
0
100
AcDbLine
 62
7
  6
CONTINUOUS
 10
6.2769428668
 20
-34.2710060852
 11
6.3093108668
 21
-34.1510060852
  0
LINE
  5
56E
100
AcDbEntity
  8
0
100
AcDbLine
 62
7
  6
CONTINUOUS
 10
8.381380867
 20
-33.4753800845
 11
8.0373108668
 21
-34.7510060852
  0
LINE
  5
56F
100
AcDbEntity
  8
0
100
AcDbLine
 62
7
  6
CONTINUOUS
 10
8.4069428669
 20
-34.271006085
 11
8.4393108668
 21
-34.1510060854
  0
LINE
  5
570
100
AcDbEntity
  8
0
100
AcDbLine
 62
7
  6
CONTINUOUS
 10
-1.4745059569
 20
-35.600996771
 11
-1.2827091967
 21
-35.2592781984
  0
LINE
  5
571
100
AcDbEntity
  8
0
100
AcDbLine
 62
7
  6
CONTINUOUS
 10
-31.8160800497
 20
-35.7035326866
 11
-32.0348302166
 21
-35.8375752355
  0
LINE
  5
572
100
AcDbEntity
  8
0
100
AcDbLine
 62
7
  6
CONTINUOUS
 10
-26.8285803001
 20
-33.8269369309
 11
-27.0473299663
 21
-33.9609794681
  0
LINE
  5
573
100
AcDbEntity
  8
0
100
AcDbLine
 62
7
  6
CONTINUOUS
 10
-30.0223301332
 20
-35.8375752355
 11
-29.8035799663
 21
-35.7035326866
  0
LINE
  5
574
100
AcDbEntity
  8
0
100
AcDbLine
 62
7
  6
CONTINUOUS
 10
-26.1723297994
 20
-35.8375752355
 11
-25.9535801332
 21
-35.7035326866
  0
LINE
  5
575
100
AcDbEntity
  8
0
100
AcDbLine
 62
7
  6
CONTINUOUS
 10
-34.7473301332
 20
-33.9162986224
 11
-34.5723301436
 21
-33.8269369309
  0
LINE
  5
576
100
AcDbEntity
  8
0
100
AcDbLine
 62
7
  6
CONTINUOUS
 10
-32.343163387
 20
-32.754596511
 11
-32.5098301332
 21
-32.839702895
  0
LINE
  5
577
100
AcDbEntity
  8
0
100
AcDbLine
 62
7
  6
CONTINUOUS
 10
-27.8431636255
 20
-31.0099156444
 11
-27.6764966409
 21
-30.9248092716
  0
LINE
  5
578
100
AcDbEntity
  8
0
100
AcDbLine
 62
7
  6
CONTINUOUS
 10
-26.0098301332
 20
-31.0099156444
 11
-25.8431631486
 21
-30.9248092716
  0
LINE
  5
579
100
AcDbEntity
  8
0
100
AcDbLine
 62
7
  6
CONTINUOUS
 10
-27.0098301332
 20
-32.6269369369
 11
-26.9264971177
 21
-32.5843837505
  0
LINE
  5
57A
100
AcDbEntity
  8
0
100
AcDbLine
 62
7
  6
CONTINUOUS
 10
-26.8431631486
 20
-32.754596511
 11
-27.0098301332
 21
-32.839702895
  0
LINE
  5
57B
100
AcDbEntity
  8
0
100
AcDbLine
 62
7
  6
CONTINUOUS
 10
-25.1764971177
 20
-32.6269369369
 11
-25.0931631486
 21
-32.5843837505
  0
LINE
  5
57C
100
AcDbEntity
  8
0
100
AcDbLine
 62
7
  6
CONTINUOUS
 10
-25.0098301332
 20
-32.754596511
 11
-25.1764971177
 21
-32.839702895
  0
LINE
  5
57D
100
AcDbEntity
  8
0
100
AcDbLine
 62
7
  6
CONTINUOUS
 10
0.4624038668
 20
29.8927439148
 11
-0.5854751332
 21
31.5575889148
  0
LINE
  5
57E
100
AcDbEntity
  8
0
100
AcDbLine
 62
7
  6
CONTINUOUS
 10
-0.5255581332
 20
31.9427439148
 11
0.5052448668
 21
30.2775609148
  0
LINE
  5
57F
100
AcDbEntity
  8
0
100
AcDbLine
 62
7
  6
CONTINUOUS
 10
5.4476098668
 20
31.9427439148
 11
6.1900698668
 21
29.8927439148
  0
LINE
  5
580
100
AcDbEntity
  8
0
100
AcDbLine
 62
7
  6
CONTINUOUS
 10
5.8873358668
 20
29.8927439148
 11
5.6846238668
 21
30.4894239148
  0
LINE
  5
581
100
AcDbEntity
  8
0
100
AcDbLine
 62
7
  6
CONTINUOUS
 10
5.5846688668
 20
30.7349599148
 11
5.2792328668
 21
31.6453939148
  0
LINE
  5
582
100
AcDbEntity
  8
0
100
AcDbLine
 62
7
  6
CONTINUOUS
 10
21.1901698668
 20
-25.9822560852
 11
21.1959377332
 21
-26.0037820555
  0
LINE
  5
583
100
AcDbEntity
  8
0
100
AcDbLine
 62
7
  6
CONTINUOUS
 10
23.4441544358
 20
-26.8115731809
 11
23.2946947542
 21
-26.2537820555
  0
LINE
  5
584
100
AcDbEntity
  8
0
100
AcDbLine
 62
7
  6
CONTINUOUS
 10
23.4503921189
 20
-26.8099017987
 11
23.2956124165
 21
-26.2322560852
  0
LINE
  5
585
100
AcDbEntity
  8
0
100
AcDbLine
 62
7
  6
CONTINUOUS
 10
20.6847273172
 20
-26.2322560852
 11
20.6856449795
 21
-26.2537820555
  0
LINE
  5
586
100
AcDbEntity
  8
0
100
AcDbLine
 62
7
  6
CONTINUOUS
 10
19.7956124165
 20
26.4677439148
 11
19.7946947542
 21
26.4892698851
  0
LINE
  5
587
100
AcDbEntity
  8
0
100
AcDbLine
 62
7
  6
CONTINUOUS
 10
18.7962610835
 20
-25.518789621
 11
18.7962610835
 21
-25.0822560852
  0
LINE
  5
588
100
AcDbEntity
  8
0
100
AcDbLine
 62
7
  6
CONTINUOUS
 10
18.7962610835
 20
25.3177439148
 11
18.7962610835
 21
25.7542774506
  0
LINE
  5
589
100
AcDbEntity
  8
0
100
AcDbLine
 62
253
  6
CONTINUOUS
 10
18.9802368732
 20
25.9093703316
 11
18.9802368732
 21
25.3180180079
  0
LINE
  5
58A
100
AcDbEntity
  8
0
100
AcDbLine
 62
253
  6
CONTINUOUS
 10
18.9802368732
 20
-25.0825301782
 11
18.9802368732
 21
-25.6738825019
  0
LINE
  5
58B
100
AcDbEntity
  8
0
100
AcDbLine
 62
253
  6
CONTINUOUS
 10
19.1799627802
 20
26.1075368282
 11
19.1799627802
 21
25.5177439148
  0
LINE
  5
58C
100
AcDbEntity
  8
0
100
AcDbLine
 62
253
  6
CONTINUOUS
 10
19.1799627802
 20
-25.2822560852
 11
19.1799627802
 21
-25.8720489985
  0
LINE
  5
58D
100
AcDbEntity
  8
0
100
AcDbLine
 62
7
  6
CONTINUOUS
 10
19.2401698668
 20
-24.9322560852
 11
19.2401698668
 21
-25.0822560852
  0
LINE
  5
58E
100
AcDbEntity
  8
0
100
AcDbLine
 62
7
  6
CONTINUOUS
 10
19.2401698668
 20
25.1677439148
 11
19.2401698668
 21
25.3177439148
  0
LINE
  5
58F
100
AcDbEntity
  8
0
100
AcDbLine
 62
7
  6
CONTINUOUS
 10
22.4901698668
 20
35.1177439148
 11
22.4901698668
 21
29.1177439148
  0
LINE
  5
590
100
AcDbEntity
  8
0
100
AcDbLine
 62
7
  6
CONTINUOUS
 10
20.6847273172
 20
26.4677439148
 11
20.6856449795
 21
26.4892698851
  0
LINE
  5
591
100
AcDbEntity
  8
0
100
AcDbLine
 62
7
  6
CONTINUOUS
 10
19.7956124165
 20
-26.2322560852
 11
19.7946947542
 21
-26.2537820555
  0
LINE
  5
592
100
AcDbEntity
  8
0
100
AcDbLine
 62
7
  6
CONTINUOUS
 10
0.9991018668
 20
-37.1112740852
 11
1.2165298668
 21
-36.8030360852
  0
LINE
  5
593
100
AcDbEntity
  8
0
100
AcDbLine
 62
7
  6
CONTINUOUS
 10
-26.9598303001
 20
-34.8099156623
 11
-27.0473299663
 21
-34.854596508
  0
LINE
  5
594
100
AcDbEntity
  8
0
100
AcDbLine
 62
7
  6
CONTINUOUS
 10
-26.9598303001
 20
-35.033319891
 11
-26.7848299663
 21
-34.9439581995
  0
LINE
  5
595
100
AcDbEntity
  8
0
100
AcDbLine
 62
7
  6
CONTINUOUS
 10
-26.0848301332
 20
-34.8099156623
 11
-25.997330467
 21
-34.7652348166
  0
LINE
  5
596
100
AcDbEntity
  8
0
100
AcDbLine
 62
7
  6
CONTINUOUS
 10
-26.0848301332
 20
-35.524809288
 11
-26.259830467
 21
-35.6141709795
  0
LINE
  5
597
100
AcDbEntity
  8
0
100
AcDbLine
 62
7
  6
CONTINUOUS
 10
-32.968163387
 20
-31.1375752037
 11
-33.093163387
 21
-31.1801283901
  0
LINE
  5
598
100
AcDbEntity
  8
0
100
AcDbLine
 62
7
  6
CONTINUOUS
 10
-34.4681635062
 20
-31.7333199327
 11
-34.3431635062
 21
-31.6907667463
  0
LINE
  5
599
100
AcDbEntity
  8
0
100
AcDbLine
 62
7
  6
CONTINUOUS
 10
-34.4681635062
 20
-32.6269369369
 11
-34.3431635062
 21
-32.5843837505
  0
LINE
  5
59A
100
AcDbEntity
  8
0
100
AcDbLine
 62
7
  6
CONTINUOUS
 10
-27.2598301332
 20
-31.7758731191
 11
-27.0098301332
 21
-31.6907667463
  0
LINE
  5
59B
100
AcDbEntity
  8
0
100
AcDbLine
 62
7
  6
CONTINUOUS
 10
-25.4264971177
 20
-31.7758731191
 11
-25.1764971177
 21
-31.6907667463
  0
LINE
  5
59C
100
AcDbEntity
  8
0
100
AcDbLine
 62
7
  6
CONTINUOUS
 10
-30.6348303001
 20
-34.0503411596
 11
-30.5035803001
 21
-34.0056603139
  0
LINE
  5
59D
100
AcDbEntity
  8
0
100
AcDbLine
 62
253
  6
CONTINUOUS
 10
24.0299476147
 20
27.0453896284
 11
24.0361852979
 21
27.0470610105
  0
LINE
  5
59E
100
AcDbEntity
  8
0
100
AcDbLine
 62
253
  6
CONTINUOUS
 10
20.5299476147
 20
27.0453896284
 11
20.5361852979
 21
27.0470610105
  0
LWPOLYLINE
  5
59F
100
AcDbEntity
  8
RACCORDO
100
AcDbPolyline
 62
253
  6
CONTINUOUS
 90
13
 70
0
 10
34.1941949032
 20
22.7783115624
 10
34.2085090093
 20
22.7790279953
 10
34.2228971339
 20
22.7796398602
 10
34.2370604306
 20
22.7801344482
 10
34.2507047227
 20
22.7805014867
 10
34.2635466138
 20
22.7807333521
 10
34.2753193731
 20
22.7808252285
 10
34.2857784764
 20
22.7807752076
 10
34.2947066846
 20
22.7805843284
 10
34.3019185555
 20
22.7802565554
 10
34.3072642962
 20
22.7797986966
 10
34.3106328738
 20
22.779220262
 10
34.3119543217
 20
22.7785332657
  0
LINE
  5
5A0
100
AcDbEntity
  8
RACCORDO
100
AcDbLine
 62
253
  6
CONTINUOUS
 10
34.8685923364
 20
22.803833247
 11
34.3119543223
 21
22.7785332633
  0
LWPOLYLINE
  5
5A1
100
AcDbEntity
  8
RACCORDO
100
AcDbPolyline
 62
253
  6
CONTINUOUS
 90
13
 70
0
 10
34.0357820373
 20
22.0219417005
 10
34.0246670954
 20
22.0218182401
 10
34.0139319879
 20
22.0216414937
 10
34.0037171116
 20
22.0214137727
 10
33.9941560609
 20
22.0211380552
 10
33.985373878
 20
22.020817947
 10
33.9774854187
 20
22.0204576344
 10
33.9705938516
 20
22.0200618294
 10
33.9647893114
 20
22.0196357085
 10
33.9601477167
 20
22.0191848449
 10
33.956729774
 20
22.018715135
 10
33.9545801857
 20
22.0182327219
 10
33.9537270668
 20
22.0177439146
  0
LINE
  5
5A2
100
AcDbEntity
  8
RACCORDO
100
AcDbLine
 62
253
  6
CONTINUOUS
 10
-34.9598301332
 20
22.0177439148
 11
-34.9733971692
 21
22.0177439148
  0
LINE
  5
5A3
100
AcDbEntity
  8
RACCORDO
100
AcDbLine
 62
7
  6
CONTINUOUS
 10
32.740992146
 20
22.6177439148
 11
-33.7606524123
 21
22.6177439148
  0
LINE
  5
5A4
100
AcDbEntity
  8
DRAFT
100
AcDbLine
 62
7
  6
CONTINUOUS
 10
-33.7598301332
 20
23.2177439148
 11
32.7401698668
 21
23.2177439148
  0
LINE
  5
5A5
100
AcDbEntity
  8
RACCORDO
100
AcDbLine
 62
7
  6
CONTINUOUS
 10
32.7400927852
 20
23.2336056329
 11
-33.7598279535
 21
23.2336056335
  0
LINE
  5
5A6
100
AcDbEntity
  8
RACCORDO
100
AcDbLine
 62
253
  6
CONTINUOUS
 10
-8.5550680596
 20
23.2918938722
 11
-33.7597493563
 21
23.293175069
  0
LINE
  5
5A7
100
AcDbEntity
  8
RACCORDO
100
AcDbLine
 62
253
  6
CONTINUOUS
 10
33.9401698668
 20
22.0177439148
 11
33.9537369091
 21
22.0177339378
  0
LINE
  5
5A8
100
AcDbEntity
  8
RACCORDO
100
AcDbLine
 62
253
  6
CONTINUOUS
 10
32.74008909
 20
23.293175069
 11
-8.5550680596
 21
23.2918938722
  0
LWPOLYLINE
  5
5A9
100
AcDbEntity
  8
RACCORDO
100
AcDbPolyline
 62
253
  6
CONTINUOUS
 90
13
 70
0
 10
-35.0554420965
 20
22.021941749
 10
-35.0443280458
 20
22.0218182447
 10
-35.0335939196
 20
22.021641462
 10
-35.0233800833
 20
22.0214137128
 10
-35.0138200986
 20
22.0211379752
 10
-35.005038977
 20
22.0208178548
 10
-34.9971515453
 20
22.0204575377
 10
-34.9902609438
 20
22.0200617357
 10
-34.9844572779
 20
22.0196356245
 10
-34.9798164395
 20
22.0191847761
 10
-34.9763991146
 20
22.018715086
 10
-34.9742499901
 20
22.0182326963
 10
-34.9733971692
 20
22.0177439148
  0
LINE
  5
5AA
100
AcDbEntity
  8
RACCORDO
100
AcDbLine
 62
253
  6
CONTINUOUS
 10
-35.3316145887
 20
22.7785332629
 11
-35.8882526026
 21
22.8038332471
  0
LWPOLYLINE
  5
5AB
100
AcDbEntity
  8
RACCORDO
100
AcDbPolyline
 62
253
  6
CONTINUOUS
 90
13
 70
0
 10
-35.2138551625
 20
22.7783115641
 10
-35.2281690596
 20
22.7790279564
 10
-35.2425568608
 20
22.7796397785
 10
-35.2567197362
 20
22.7801343239
 10
-35.2703635309
 20
22.7805013221
 10
-35.2832048762
 20
22.780733152
 10
-35.294977074
 20
22.7808249995
 10
-35.3054356292
 20
22.7807749582
 10
-35.314363343
 20
22.7805840687
 10
-35.321574817
 20
22.7802562959
 10
-35.3269202844
 20
22.7797984475
 10
-35.3302887279
 20
22.7792200332
 10
-35.3316101957
 20
22.7785330664
  0
LINE
  5
5AC
100
AcDbEntity
  8
0
100
AcDbLine
 62
253
  6
CONTINUOUS
 10
-25.0496078811
 20
27.0453896284
 11
-25.0558455642
 21
27.0470610105
  0
LINE
  5
5AD
100
AcDbEntity
  8
0
100
AcDbLine
 62
253
  6
CONTINUOUS
 10
-21.5496078811
 20
27.0453896284
 11
-21.5558455642
 21
27.0470610105
  0
LWPOLYLINE
  5
5AE
100
AcDbEntity
  8
0
100
AcDbPolyline
 62
7
  6
CONTINUOUS
 90
48
 70
0
 10
-25.5228107045
 20
34.1410168717
 10
-25.4739470701
 20
34.1210893939
 10
-25.4247796286
 20
34.0966139806
 10
-25.37530838
 20
34.0675906319
 10
-25.325207137
 20
34.0342372371
 10
-25.274802087
 20
33.9963359068
 10
-25.2250717916
 20
33.9532329729
 10
-25.175440167
 20
33.9043596631
 10
-25.126483297
 20
33.8502847496
 10
-25.0809079951
 20
33.7920608817
 10
-25.0390601727
 20
33.7291867681
 10
-25.0005939183
 20
33.6621637
 10
-24.9671783101
 20
33.5935481995
 10
-24.9394859272
 20
33.5230314852
 10
-24.9168441904
 20
33.4509223386
 10
-24.898904441
 20
33.3807036263
 10
-24.8861091825
 20
33.313369031
 10
-24.8780159113
 20
33.2479248701
 10
-24.8729484572
 20
33.1848729624
 10
-24.8706359405
 20
33.1244075008
 10
-24.8713492409
 20
33.0663342925
 10
-24.8742248278
 20
33.0105725774
 10
-24.8791630794
 20
32.9571196044
 10
-24.8862636174
 20
32.9059781247
 10
-24.8949617768
 20
32.8570756316
 10
-24.9052407204
 20
32.810435233
 10
-24.9171172853
 20
32.7660338211
 10
-24.9300773173
 20
32.7237295654
 10
-24.9440941967
 20
32.6835687317
 10
-24.9591945432
 20
32.6455050543
 10
-24.9749440616
 20
32.6092579045
 10
-24.9913012608
 20
32.574800312
 10
-25.008307632
 20
32.5421592471
 10
-25.0256533533
 20
32.5111349933
 10
-25.0433076489
 20
32.4816824927
 10
-25.0613012946
 20
32.453846803
 10
-25.0794167953
 20
32.4275633809
 10
-25.0976370635
 20
32.4028967898
 10
-25.1159791868
 20
32.3797824662
 10
-25.134276933
 20
32.3579621768
 10
-25.1525101887
 20
32.3374811716
 10
-25.1706990674
 20
32.3182942006
 10
-25.1887376774
 20
32.30000728
 10
-25.206610106
 20
32.28258127
 10
-25.2243322658
 20
32.2660553104
 10
-25.2418460031
 20
32.2501528368
 10
-25.2591375565
 20
32.2348303666
 10
-25.2762206873
 20
32.2201313823
  0
LWPOLYLINE
  5
5AF
100
AcDbEntity
  8
0
100
AcDbPolyline
 62
7
  6
CONTINUOUS
 90
19
 70
0
 10
-25.4367339023
 20
32.0972776615
 10
-25.4033941022
 20
32.0827220572
 10
-25.3704273438
 20
32.0646247542
 10
-25.337833627
 20
32.0429857524
 10
-25.3055023981
 20
32.0179113729
 10
-25.2735442109
 20
31.9892952946
 10
-25.2422907267
 20
31.956818555
 10
-25.2117071255
 20
31.920309617
 10
-25.1818282272
 20
31.8799400177
 10
-25.1530901534
 20
31.8359054058
 10
-25.1255023996
 20
31.7879405975
 10
-25.0990554702
 20
31.7363107766
 10
-25.0741570001
 20
31.6820071429
 10
-25.0510386269
 20
31.6249593035
 10
-25.0294687129
 20
31.5652376513
 10
-25.0091599802
 20
31.5040445639
 10
-24.9900166694
 20
31.4417808339
 10
-24.9721345399
 20
31.3780456688
 10
-24.9555135917
 20
31.3128390685
  0
LINE
  5
5B0
100
AcDbEntity
  8
0
100
AcDbLine
 62
7
  6
CONTINUOUS
 10
24.1847273172
 20
-26.2322560852
 11
24.1856449795
 21
-26.2537820555
  0
LINE
  5
5B1
100
AcDbEntity
  8
0
100
AcDbLine
 62
7
  6
CONTINUOUS
 10
23.2956124165
 20
26.4677439148
 11
23.2946947542
 21
26.4892698851
  0
LINE
  5
5B2
100
AcDbEntity
  8
0
100
AcDbLine
 62
7
  6
CONTINUOUS
 10
23.0388978668
 20
30.1183699148
 11
23.0388978668
 21
34.1171179148
  0
LINE
  5
5B3
100
AcDbEntity
  8
0
100
AcDbLine
 62
7
  6
CONTINUOUS
 10
23.7530208668
 20
33.4824779148
 11
23.7530208668
 21
32.4881749148
  0
LINE
  5
5B4
100
AcDbEntity
  8
0
100
AcDbLine
 62
7
  6
CONTINUOUS
 10
23.7530208668
 20
31.8534849148
 11
23.7530208668
 21
30.7529929148
  0
LINE
  5
5B5
100
AcDbEntity
  8
0
100
AcDbLine
 62
7
  6
CONTINUOUS
 10
24.7401698668
 20
-24.9322560852
 11
24.7401698668
 21
-25.0822560852
  0
LINE
  5
5B6
100
AcDbEntity
  8
0
100
AcDbLine
 62
7
  6
CONTINUOUS
 10
24.7401698668
 20
25.1677439148
 11
24.7401698668
 21
25.3177439148
  0
LINE
  5
5B7
100
AcDbEntity
  8
0
100
AcDbLine
 62
253
  6
CONTINUOUS
 10
24.8003769535
 20
-25.8720489985
 11
24.8003769535
 21
-25.2822560852
  0
LINE
  5
5B8
100
AcDbEntity
  8
0
100
AcDbLine
 62
253
  6
CONTINUOUS
 10
24.8003769535
 20
25.5177439148
 11
24.8003769535
 21
26.1075368282
  0
LINE
  5
5B9
100
AcDbEntity
  8
0
100
AcDbLine
 62
253
  6
CONTINUOUS
 10
25.0001028604
 20
-25.6738825019
 11
25.0001028604
 21
-25.0825301782
  0
LINE
  5
5BA
100
AcDbEntity
  8
0
100
AcDbLine
 62
253
  6
CONTINUOUS
 10
25.0001028604
 20
25.3180180079
 11
25.0001028604
 21
25.9093703316
  0
LINE
  5
5BB
100
AcDbEntity
  8
0
100
AcDbLine
 62
7
  6
CONTINUOUS
 10
25.1840786502
 20
25.7542774506
 11
25.1840786502
 21
25.3177439148
  0
LINE
  5
5BC
100
AcDbEntity
  8
0
100
AcDbLine
 62
7
  6
CONTINUOUS
 10
25.1840786502
 20
-25.0822560852
 11
25.1840786502
 21
-25.518789621
  0
LINE
  5
5BD
100
AcDbEntity
  8
0
100
AcDbLine
 62
7
  6
CONTINUOUS
 10
25.7217028668
 20
32.4881599148
 11
25.7217028668
 21
31.8534989148
  0
LINE
  5
5BE
100
AcDbEntity
  8
0
100
AcDbLine
 62
7
  6
CONTINUOUS
 10
25.8649948668
 20
34.1171179148
 11
25.8649948668
 21
33.4824709148
  0
LINE
  5
5BF
100
AcDbEntity
  8
0
100
AcDbLine
 62
7
  6
CONTINUOUS
 10
25.8810678668
 20
30.7530169148
 11
25.8810678668
 21
30.1183699148
  0
LINE
  5
5C0
100
AcDbEntity
  8
0
100
AcDbLine
 62
7
  6
CONTINUOUS
 10
26.7399258668
 20
30.1183699148
 11
26.7399258668
 21
34.1171179148
  0
LINE
  5
5C1
100
AcDbEntity
  8
0
100
AcDbLine
 62
7
  6
CONTINUOUS
 10
24.1847273172
 20
26.4677439148
 11
24.1856449795
 21
26.4892698851
  0
LINE
  5
5C2
100
AcDbEntity
  8
0
100
AcDbLine
 62
7
  6
CONTINUOUS
 10
23.2956124165
 20
-26.2322560852
 11
23.2946947542
 21
-26.2537820555
  0
LINE
  5
5C3
100
AcDbEntity
  8
0
100
AcDbLine
 62
7
  6
CONTINUOUS
 10
20.6847273172
 20
-26.2322560852
 11
20.5299476147
 21
-26.8099017987
  0
LINE
  5
5C4
100
AcDbEntity
  8
0
100
AcDbLine
 62
7
  6
CONTINUOUS
 10
20.6856449795
 20
-26.2537820555
 11
20.5361852979
 21
-26.8115731809
  0
LINE
  5
5C5
100
AcDbEntity
  8
0
100
AcDbLine
 62
7
  6
CONTINUOUS
 10
7.3204638668
 20
-30.9525500852
 11
4.5604638668
 21
-33.7125500852
  0
LINE
  5
5C6
100
AcDbEntity
  8
0
100
AcDbLine
 62
7
  6
CONTINUOUS
 10
4.7301698668
 20
-33.8822560852
 11
7.4901698668
 21
-31.1222560852
  0
LINE
  5
5C7
100
AcDbEntity
  8
0
100
AcDbLine
 62
7
  6
CONTINUOUS
 10
0.8839492593
 20
-32.4886817545
 11
-0.2851261332
 21
-33.4738690852
  0
LINE
  5
5C8
100
AcDbEntity
  8
0
100
AcDbLine
 62
7
  6
CONTINUOUS
 10
-0.2851261332
 20
-33.9855650852
 11
0.8297057665
 21
-33.0460891697
  0
LINE
  5
5C9
100
AcDbEntity
  8
0
100
AcDbLine
 62
7
  6
CONTINUOUS
 10
-30.6348303001
 20
-34.8099156623
 11
-30.5035803001
 21
-34.7652348166
  0
LINE
  5
5CA
100
AcDbEntity
  8
0
100
AcDbLine
 62
7
  6
CONTINUOUS
 10
-30.0660799663
 20
-35.6141709795
 11
-30.1973299663
 21
-35.6588518252
  0
LWPOLYLINE
  5
5CB
100
AcDbEntity
  8
RACCORDO
100
AcDbPolyline
 62
7
  6
CONTINUOUS
 90
22
 70
0
 10
-34.6926795318
 20
23.4299045328
 10
-33.2950573034
 20
23.5231899708
 10
-31.9111014379
 20
23.6117022224
 10
-30.5408298166
 20
23.6955566508
 10
-29.197265894
 20
23.7741243035
 10
-27.8674237399
 20
23.8483313231
 10
-26.5122887425
 20
23.92031011
 10
-25.1268179752
 20
23.9900994012
 10
-23.7160520933
 20
24.0572176083
 10
-22.2560762282
 20
24.1224933802
 10
-20.7393733925
 20
24.1857953661
 10
-19.1734471606
 20
24.2463308786
 10
-17.5569062097
 20
24.3036980987
 10
-15.8910237186
 20
24.3573652579
 10
-14.1745282834
 20
24.4068756342
 10
-12.4022134692
 20
24.4518500567
 10
-10.5751861033
 20
24.4916700135
 10
-8.6923572355
 20
24.5257562508
 10
-6.7452288355
 20
24.5536102734
 10
-4.7309812503
 20
24.5745129261
 10
-2.6524759519
 20
24.5876315665
 10
-0.5097431547
 20
24.592163963
  0
LWPOLYLINE
  5
5CC
100
AcDbEntity
  8
RACCORDO
100
AcDbPolyline
 62
253
  6
CONTINUOUS
 90
21
 70
0
 10
-34.6857224939
 20
23.2896305906
 10
-31.9047142173
 20
23.4701311327
 10
-30.5348016968
 20
23.5555023176
 10
-29.1915632776
 20
23.6348206073
 10
-27.8619998448
 20
23.7084914622
 10
-26.5071543792
 20
23.7801087124
 10
-25.1219933014
 20
23.850056613
 10
-23.7115269728
 20
23.9169190227
 10
-22.2518638183
 20
23.9819382329
 10
-20.7354848203
 20
24.0451197144
 10
-19.16988193
 20
24.1054503496
 10
-17.5536770706
 20
24.1626558606
 10
-15.8881375446
 20
24.2162092723
 10
-14.1719835024
 20
24.2655387277
 10
-12.400018684
 20
24.3102769813
 10
-10.5733497091
 20
24.3499637551
 10
-8.6908799686
 20
24.3839616478
 10
-6.7441135588
 20
24.4115767477
 10
-4.7302320446
 20
24.4321522907
 10
-2.6520975302
 20
24.4451286342
 10
-0.5097431662
 20
24.4499172257
  0
LWPOLYLINE
  5
5CD
100
AcDbEntity
  8
RACCORDO
100
AcDbPolyline
 62
253
  6
CONTINUOUS
 90
19
 70
0
 10
-33.7597493563
 20
23.293175069
 10
-33.8244125014
 20
23.2914779906
 10
-33.8882042856
 20
23.2867647384
 10
-33.9511251362
 20
23.2790557942
 10
-34.0131548086
 20
23.2683675125
 10
-34.0743143843
 20
23.2547230836
 10
-34.1346662689
 20
23.2381525147
 10
-34.1943223748
 20
23.2186843451
 10
-34.253171589
 20
23.1963268576
 10
-34.3109417612
 20
23.1710785511
 10
-34.3676434701
 20
23.1429635251
 10
-34.4232668665
 20
23.1119902611
 10
-34.4775091194
 20
23.0781317329
 10
-34.5303089009
 20
23.0414975851
 10
-34.581728142
 20
23.0020042216
 10
-34.6316488912
 20
22.9593341483
 10
-34.6800320286
 20
22.9133899494
 10
-34.7269172312
 20
22.8642927082
 10
-34.7723047388
 20
22.8120524442
  0
LWPOLYLINE
  5
5CE
100
AcDbEntity
  8
RACCORDO
100
AcDbPolyline
 62
253
  6
CONTINUOUS
 90
19
 70
0
 10
-33.7598279535
 20
23.2336056348
 10
-33.8204858556
 20
23.2320789598
 10
-33.8805950931
 20
23.2275436865
 10
-33.9400088032
 20
23.2200700806
 10
-33.9984300299
 20
23.2097662037
 10
-34.0558853103
 20
23.196698893
 10
-34.1127077359
 20
23.1808176377
 10
-34.1688588037
 20
23.1621133954
 10
-34.2240936742
 20
23.1406470088
 10
-34.2784138578
 20
23.1163943514
 10
-34.3316539228
 20
23.0893938033
 10
-34.3836860154
 20
23.0596737256
 10
-34.4345439787
 20
23.0271579257
 10
-34.4840231135
 20
22.9919030334
 10
-34.5320010066
 20
22.9539187318
 10
-34.5785820777
 20
22.9130017906
 10
-34.6236456469
 20
22.8690805285
 10
-34.6668853316
 20
22.8222640729
 10
-34.7080854564
 20
22.7725981717
  0
LINE
  5
5CF
100
AcDbEntity
  8
0
100
AcDbLine
 62
7
  6
CONTINUOUS
 10
24.7401698668
 20
25.1677439148
 11
19.2401698668
 21
25.1677439148
  0
LINE
  5
5D0
100
AcDbEntity
  8
0
100
AcDbLine
 62
7
  6
CONTINUOUS
 10
-20.2598301332
 20
25.1677439148
 11
-25.7598301332
 21
25.1677439148
  0
LINE
  5
5D1
100
AcDbEntity
  8
0
100
AcDbLine
 62
7
  6
CONTINUOUS
 10
33.4901698668
 20
25.3177439148
 11
-34.5098301332
 21
25.3177439148
  0
LINE
  5
5D2
100
AcDbEntity
  8
0
100
AcDbLine
 62
253
  6
CONTINUOUS
 10
-25.8200372198
 20
25.5177439148
 11
-20.1996230465
 21
25.5177439148
  0
LINE
  5
5D3
100
AcDbEntity
  8
0
100
AcDbLine
 62
253
  6
CONTINUOUS
 10
19.1799627802
 20
25.5177439148
 11
24.8003769535
 21
25.5177439148
  0
LINE
  5
5D4
100
AcDbEntity
  8
0
100
AcDbLine
 62
7
  6
CONTINUOUS
 10
-23.8098301332
 20
26.2177439148
 11
-22.2098301332
 21
26.2177439148
  0
LINE
  5
5D5
100
AcDbEntity
  8
0
100
AcDbLine
 62
7
  6
CONTINUOUS
 10
21.1901698668
 20
26.2177439148
 11
22.7901698668
 21
26.2177439148
  0
LINE
  5
5D6
100
AcDbEntity
  8
0
100
AcDbLine
 62
7
  6
CONTINUOUS
 10
-23.8040622668
 20
26.2392698851
 11
-22.2155979995
 21
26.2392698851
  0
LINE
  5
5D7
100
AcDbEntity
  8
0
100
AcDbLine
 62
7
  6
CONTINUOUS
 10
21.1959377332
 20
26.2392698851
 11
22.7844020005
 21
26.2392698851
  0
LINE
  5
5D8
100
AcDbEntity
  8
0
100
AcDbLine
 62
7
  6
CONTINUOUS
 10
-25.4598301332
 20
26.4677439148
 11
-25.2043875835
 21
26.4677439148
  0
LINE
  5
5D9
100
AcDbEntity
  8
0
100
AcDbLine
 62
7
  6
CONTINUOUS
 10
-24.3152726828
 20
26.4677439148
 11
-24.2428428351
 21
26.4677439148
  0
LINE
  5
5DA
100
AcDbEntity
  8
0
100
AcDbLine
 62
7
  6
CONTINUOUS
 10
-21.7768174313
 20
26.4677439148
 11
-21.7043875835
 21
26.4677439148
  0
LINE
  5
5DB
100
AcDbEntity
  8
0
100
AcDbLine
 62
7
  6
CONTINUOUS
 10
-20.8152726828
 20
26.4677439148
 11
-20.5598301332
 21
26.4677439148
  0
LINE
  5
5DC
100
AcDbEntity
  8
0
100
AcDbLine
 62
7
  6
CONTINUOUS
 10
19.5401698668
 20
26.4677439148
 11
19.7956124165
 21
26.4677439148
  0
LINE
  5
5DD
100
AcDbEntity
  8
0
100
AcDbLine
 62
7
  6
CONTINUOUS
 10
20.6847273172
 20
26.4677439148
 11
20.7571571649
 21
26.4677439148
  0
LINE
  5
5DE
100
AcDbEntity
  8
0
100
AcDbLine
 62
7
  6
CONTINUOUS
 10
23.2231825687
 20
26.4677439148
 11
23.2956124165
 21
26.4677439148
  0
LINE
  5
5DF
100
AcDbEntity
  8
0
100
AcDbLine
 62
7
  6
CONTINUOUS
 10
24.1847273172
 20
26.4677439148
 11
24.4401698668
 21
26.4677439148
  0
LINE
  5
5E0
100
AcDbEntity
  8
0
100
AcDbLine
 62
7
  6
CONTINUOUS
 10
-25.468746482
 20
26.4892698851
 11
-25.2053052458
 21
26.4892698851
  0
LINE
  5
5E1
100
AcDbEntity
  8
0
100
AcDbLine
 62
7
  6
CONTINUOUS
 10
-24.3143550205
 20
26.4892698851
 11
-24.2370749687
 21
26.4892698851
  0
LINE
  5
5E2
100
AcDbEntity
  8
0
100
AcDbLine
 62
7
  6
CONTINUOUS
 10
-21.7825852976
 20
26.4892698851
 11
-21.7053052458
 21
26.4892698851
  0
LINE
  5
5E3
100
AcDbEntity
  8
0
100
AcDbLine
 62
7
  6
CONTINUOUS
 10
-20.8143550205
 20
26.4892698851
 11
-20.5509137843
 21
26.4892698851
  0
LINE
  5
5E4
100
AcDbEntity
  8
0
100
AcDbLine
 62
7
  6
CONTINUOUS
 10
19.531253518
 20
26.4892698851
 11
19.7946947542
 21
26.4892698851
  0
LINE
  5
5E5
100
AcDbEntity
  8
0
100
AcDbLine
 62
7
  6
CONTINUOUS
 10
20.6856449795
 20
26.4892698851
 11
20.7629250313
 21
26.4892698851
  0
LINE
  5
5E6
100
AcDbEntity
  8
0
100
AcDbLine
 62
7
  6
CONTINUOUS
 10
23.2174147024
 20
26.4892698851
 11
23.2946947542
 21
26.4892698851
  0
LINE
  5
5E7
100
AcDbEntity
  8
0
100
AcDbLine
 62
7
  6
CONTINUOUS
 10
24.1856449795
 20
26.4892698851
 11
24.4490862157
 21
26.4892698851
  0
LWPOLYLINE
  5
5E8
100
AcDbEntity
  8
RACCORDO
100
AcDbPolyline
 62
7
  6
CONTINUOUS
 90
21
 70
0
 10
-0.5097431547
 20
24.592163963
 10
1.6373777025
 20
24.587612348
 10
3.7195516693
 20
24.5744440976
 10
5.7367484178
 20
24.553471862
 10
7.6860469402
 20
24.5255392618
 10
9.570326459
 20
24.4913741031
 10
11.3982636192
 20
24.4514788719
 10
13.170984229
 20
24.4064379925
 10
14.8873448642
 20
24.3568766822
 10
16.5526203807
 20
24.3031770576
 10
18.1681504909
 20
24.2457978046
 10
19.732594068
 20
24.1852771074
 10
21.2472065218
 20
24.1220265687
 10
22.7041923188
 20
24.0568573959
 10
24.1113610286
 20
23.9898934524
 10
25.4933682045
 20
23.9202718223
 10
26.8448358738
 20
23.848490746
 10
28.1711443636
 20
23.7744933448
 10
29.5130600247
 20
23.6960417313
 10
30.8841517675
 20
23.6121583822
 10
32.2708111668
 20
23.5234897561
  0
LWPOLYLINE
  5
5E9
100
AcDbEntity
  8
RACCORDO
100
AcDbPolyline
 62
253
  6
CONTINUOUS
 90
20
 70
0
 10
-0.5097431662
 20
24.4499172257
 10
1.6369984219
 20
24.4451040499
 10
3.7188008851
 20
24.4320794978
 10
5.7356309588
 20
24.411439042
 10
7.6845670278
 20
24.3837472576
 10
9.5684870913
 20
24.3496688469
 10
11.3960656246
 20
24.3099073072
 10
13.1684360798
 20
24.2651032092
 10
14.8844552776
 20
24.2157211038
 10
16.5493879302
 20
24.162136465
 10
18.1645820901
 20
24.1049184027
 10
19.7287025388
 20
24.0445994842
 10
21.2429916482
 20
23.9814724684
 10
22.6996654371
 20
23.9165635308
 10
24.1065352875
 20
23.8498524182
 10
25.488233503
 20
23.7800704827
 10
26.8394128097
 20
23.7086644065
 10
28.1654435499
 20
23.6352104239
 10
29.5070334863
 20
23.5559873458
 10
30.8777650165
 20
23.47055481
  0
LINE
  5
5EA
100
AcDbEntity
  8
RACCORDO
100
AcDbLine
 62
253
  6
CONTINUOUS
 10
30.8777650165
 20
23.47055481
 11
33.6660622275
 21
23.2896305906
  0
LINE
  5
5EB
100
AcDbEntity
  8
RACCORDO
100
AcDbLine
 62
7
  6
CONTINUOUS
 10
32.2708111668
 20
23.5234897561
 11
33.6730192661
 21
23.4299045327
  0
LWPOLYLINE
  5
5EC
100
AcDbEntity
  8
RACCORDO
100
AcDbPolyline
 62
7
  6
CONTINUOUS
 90
19
 70
0
 10
33.6730192661
 20
23.4299045327
 10
33.7134159011
 20
23.4259501383
 10
33.7534666107
 20
23.4196302387
 10
33.7930346135
 20
23.4109742956
 10
33.8319198051
 20
23.4000403564
 10
33.8700590257
 20
23.3868601494
 10
33.9075131464
 20
23.3714004388
 10
33.9441889448
 20
23.3536628793
 10
33.9798967147
 20
23.3337011393
 10
34.0145364933
 20
23.3115310224
 10
34.047988789
 20
23.2871798069
 10
34.080084296
 20
23.2607186109
 10
34.1106501882
 20
23.2322420452
 10
34.1395516999
 20
23.201832511
 10
34.1666601516
 20
23.1695785566
 10
34.191827082
 20
23.1356086439
 10
34.2149303576
 20
23.1000451191
 10
34.2358692226
 20
23.0629987202
 10
34.254541426
 20
23.024597243
  0
LWPOLYLINE
  5
5ED
100
AcDbEntity
  8
RACCORDO
100
AcDbPolyline
 62
253
  6
CONTINUOUS
 90
16
 70
0
 10
33.6660622275
 20
23.2896305906
 10
33.70627375
 20
23.2854672717
 10
33.7457188583
 20
23.2786783546
 10
33.784397807
 20
23.2692752707
 10
33.8224035985
 20
23.2572651463
 10
33.8596437165
 20
23.2426625307
 10
33.8958401161
 20
23.2254889133
 10
33.9310966059
 20
23.2056938183
 10
33.9653097894
 20
23.1833456997
 10
33.9978907418
 20
23.1586409879
 10
34.0288262367
 20
23.1315238416
 10
34.0581297194
 20
23.1020591266
 10
34.0852521313
 20
23.0706178279
 10
34.1100104053
 20
23.0373212148
 10
34.1325875393
 20
23.002044196
 10
34.1529834685
 20
22.9647835973
  0
LINE
  5
5EE
100
AcDbEntity
  8
0
100
AcDbLine
 62
7
  6
CONTINUOUS
 10
8.6283508668
 20
30.7178829148
 11
7.8546068668
 21
31.9427439148
  0
LINE
  5
5EF
100
AcDbEntity
  8
0
100
AcDbLine
 62
7
  6
CONTINUOUS
 10
8.1772348668
 20
31.9427439148
 11
8.7654598668
 21
30.9576169148
  0
LINE
  5
5F0
100
AcDbEntity
  8
0
100
AcDbLine
 62
7
  6
CONTINUOUS
 10
20.5299476147
 20
27.0453896284
 11
20.6847273172
 21
26.4677439148
  0
LINE
  5
5F1
100
AcDbEntity
  8
0
100
AcDbLine
 62
7
  6
CONTINUOUS
 10
20.5361852979
 20
27.0470610105
 11
20.6856449795
 21
26.4892698851
  0
LINE
  5
5F2
100
AcDbEntity
  8
RACCORDO
100
AcDbLine
 62
253
  6
CONTINUOUS
 10
33.6660622276
 20
-23.0541427677
 11
33.6670301515
 21
-23.0664284273
  0
LINE
  5
5F3
100
AcDbEntity
  8
0
100
AcDbLine
 62
7
  6
CONTINUOUS
 10
27.4540888668
 20
34.1171179148
 11
27.4540888668
 21
30.1183699148
  0
LINE
  5
5F4
100
AcDbEntity
  8
0
100
AcDbLine
 62
7
  6
CONTINUOUS
 10
28.3033758668
 20
30.1183699148
 11
28.3033758668
 21
34.1171179148
  0
LINE
  5
5F5
100
AcDbEntity
  8
0
100
AcDbLine
 62
7
  6
CONTINUOUS
 10
29.0175078668
 20
34.1171179148
 11
29.0174938668
 21
32.3736569148
  0
LINE
  5
5F6
100
AcDbEntity
  8
0
100
AcDbLine
 62
7
  6
CONTINUOUS
 10
29.0174938668
 20
31.5042079148
 11
29.0175078668
 21
30.1183699148
  0
LWPOLYLINE
  5
5F7
100
AcDbEntity
  8
0
100
AcDbPolyline
 62
7
  6
CONTINUOUS
 90
13
 70
0
 10
31.7633548204
 20
32.1181461752
 10
31.7679666748
 20
32.2638741008
 10
31.780394915
 20
32.4075431999
 10
31.8006395411
 20
32.5491534726
 10
31.8293548424
 20
32.6902932243
 10
31.8658865295
 20
32.8293741496
 10
31.9082717344
 20
32.9616313324
 10
31.9565417048
 20
33.0858953664
 10
32.010665193
 20
33.2033356579
 10
32.0685855876
 20
33.3126955098
 10
32.1296173514
 20
33.4135560231
 10
32.1944460216
 20
33.5063360967
 10
32.2630715982
 20
33.5910357308
  0
LWPOLYLINE
  5
5F8
100
AcDbEntity
  8
RACCORDO
100
AcDbPolyline
 62
253
  6
CONTINUOUS
 90
4
 70
0
 10
33.6660622275
 20
23.289630588
 10
33.6670300517
 20
23.30191566
 10
33.6679830695
 20
23.314686603
 10
33.6697796014
 20
23.3408021126
  0
LINE
  5
5F9
100
AcDbEntity
  8
0
100
AcDbLine
 62
7
  6
CONTINUOUS
 10
22.7901698668
 20
-25.9822560852
 11
22.7844020005
 21
-26.0037820555
  0
LINE
  5
5FA
100
AcDbEntity
  8
0
100
AcDbLine
 62
7
  6
CONTINUOUS
 10
23.2231825687
 20
-26.2322560852
 11
23.2174147024
 21
-26.2537820555
  0
LINE
  5
5FB
100
AcDbEntity
  8
0
100
AcDbLine
 62
7
  6
CONTINUOUS
 10
24.1847273172
 20
-26.2322560852
 11
24.0299476147
 21
-26.8099017987
  0
LINE
  5
5FC
100
AcDbEntity
  8
0
100
AcDbLine
 62
7
  6
CONTINUOUS
 10
24.1856449795
 20
-26.2537820555
 11
24.0361852979
 21
-26.8115731809
  0
LINE
  5
5FD
100
AcDbEntity
  8
0
100
AcDbLine
 62
7
  6
CONTINUOUS
 10
19.5401698668
 20
-26.2322560852
 11
19.531253518
 21
-26.2537820555
  0
LINE
  5
5FE
100
AcDbEntity
  8
0
100
AcDbLine
 62
7
  6
CONTINUOUS
 10
10.2501698668
 20
-33.8822560852
 11
7.4901698668
 21
-36.6422560852
  0
LINE
  5
5FF
100
AcDbEntity
  8
0
100
AcDbLine
 62
7
  6
CONTINUOUS
 10
7.6598758668
 20
-36.8119620852
 11
10.4198758668
 21
-34.0519620852
  0
LINE
  5
600
100
AcDbEntity
  8
0
100
AcDbLine
 62
253
  6
CONTINUOUS
 10
-20.9700523853
 20
27.0453896284
 11
-20.9638147021
 21
27.0470610105
  0
LINE
  5
601
100
AcDbEntity
  8
0
100
AcDbLine
 62
253
  6
CONTINUOUS
 10
-24.4700523853
 20
27.0453896284
 11
-24.4638147021
 21
27.0470610105
  0
LWPOLYLINE
  5
602
100
AcDbEntity
  8
0
100
AcDbPolyline
 62
7
  6
CONTINUOUS
 90
22
 70
0
 10
-5.5693038132
 20
30.1296589148
 10
-5.5186701967
 20
30.1332737058
 10
-5.4699049902
 20
30.1405133415
 10
-5.4230081937
 20
30.151377822
 10
-5.3778381674
 20
30.1659919577
 10
-5.334536551
 20
30.1842309382
 10
-5.2935282638
 20
30.2057203319
 10
-5.2549110975
 20
30.230336416
 10
-5.2185872602
 20
30.2582029133
 10
-5.1846882964
 20
30.289316561
 10
-5.1531373701
 20
30.3236376867
 10
-5.1240113173
 20
30.3612059628
 10
-5.0976721895
 20
30.4021371431
 10
-5.0742722135
 20
30.4465049661
 10
-5.0536591625
 20
30.4942356933
 10
-5.0357384084
 20
30.5452238633
 10
-5.0204284441
 20
30.5994937425
 10
-5.0078107766
 20
30.6570210645
 10
-4.9980352994
 20
30.7176275687
 10
-4.9911519771
 20
30.7812538351
 10
-4.9871108452
 20
30.8479592838
 10
-4.9859119036
 20
30.9177439148
  0
LWPOLYLINE
  5
603
100
AcDbEntity
  8
0
100
AcDbPolyline
 62
7
  6
CONTINUOUS
 90
13
 70
0
 10
33.6883573204
 20
30.6627967308
 10
33.7725800345
 20
30.6654672387
 10
33.8546531141
 20
30.6733998394
 10
33.9345765591
 20
30.6865945327
 10
34.0126498147
 20
30.7053237883
 10
34.0885734357
 20
30.7293151366
 10
34.1614490868
 20
30.7577511688
 10
34.2316065255
 20
30.790936216
 10
34.2987159943
 20
30.8285659471
 10
34.3608898856
 20
30.8689099599
 10
34.4174989969
 20
30.9113914537
 10
34.4691725307
 20
30.9565872292
 10
34.5159104871
 20
31.0044972863
  0
LINE
  5
604
100
AcDbEntity
  8
0
100
AcDbLine
 62
7
  6
CONTINUOUS
 10
-41.0098301332
 20
29.1177439148
 11
-23.5098301332
 21
29.1177439148
  0
LINE
  5
605
100
AcDbEntity
  8
0
100
AcDbLine
 62
7
  6
CONTINUOUS
 10
-11.5098301332
 20
29.1177439148
 11
10.4901698668
 21
29.1177439148
  0
LINE
  5
606
100
AcDbEntity
  8
0
100
AcDbLine
 62
7
  6
CONTINUOUS
 10
22.4901698668
 20
29.1177439148
 11
39.9901698668
 21
29.1177439148
  0
LINE
  5
607
100
AcDbEntity
  8
0
100
AcDbLine
 62
7
  6
CONTINUOUS
 10
8.9052208668
 20
29.8927439148
 11
8.6283508668
 21
29.8927439148
  0
LINE
  5
608
100
AcDbEntity
  8
0
100
AcDbLine
 62
7
  6
CONTINUOUS
 10
7.7604378668
 20
29.8927439148
 11
6.4440608668
 21
29.8927439148
  0
LINE
  5
609
100
AcDbEntity
  8
0
100
AcDbLine
 62
7
  6
CONTINUOUS
 10
6.1900698668
 20
29.8927439148
 11
5.8873358668
 21
29.8927439148
  0
LINE
  5
60A
100
AcDbEntity
  8
0
100
AcDbLine
 62
7
  6
CONTINUOUS
 10
4.6481018668
 20
29.8927439148
 11
4.3626268668
 21
29.8927439148
  0
LINE
  5
60B
100
AcDbEntity
  8
0
100
AcDbLine
 62
7
  6
CONTINUOUS
 10
3.5888488668
 20
29.8927439148
 11
3.3119288668
 21
29.8927439148
  0
LINE
  5
60C
100
AcDbEntity
  8
0
100
AcDbLine
 62
7
  6
CONTINUOUS
 10
2.3211478668
 20
29.8927439148
 11
2.0441288668
 21
29.8927439148
  0
LINE
  5
60D
100
AcDbEntity
  8
0
100
AcDbLine
 62
7
  6
CONTINUOUS
 10
0.7736098668
 20
29.8927439148
 11
0.4624038668
 21
29.8927439148
  0
LINE
  5
60E
100
AcDbEntity
  8
0
100
AcDbLine
 62
7
  6
CONTINUOUS
 10
-0.5854751332
 20
29.8927439148
 11
-0.8539721332
 21
29.8927439148
  0
LINE
  5
60F
100
AcDbEntity
  8
0
100
AcDbLine
 62
7
  6
CONTINUOUS
 10
-1.3278681332
 20
29.8927439148
 11
-1.6048051332
 21
29.8927439148
  0
LINE
  5
610
100
AcDbEntity
  8
0
100
AcDbLine
 62
7
  6
CONTINUOUS
 10
-2.8040341332
 20
29.8927439148
 11
-4.3173701332
 21
29.8927439148
  0
LINE
  5
611
100
AcDbEntity
  8
0
100
AcDbLine
 62
7
  6
CONTINUOUS
 10
-5.5622580608
 20
29.8927439148
 11
-6.3931501332
 21
29.8927439148
  0
LINE
  5
612
100
AcDbEntity
  8
0
100
AcDbLine
 62
7
  6
CONTINUOUS
 10
-6.6615161332
 20
29.8927439148
 11
-6.9641991332
 21
29.8927439148
  0
LINE
  5
613
100
AcDbEntity
  8
0
100
AcDbLine
 62
7
  6
CONTINUOUS
 10
-8.2033181332
 20
29.8927439148
 11
-8.4888091332
 21
29.8927439148
  0
LINE
  5
614
100
AcDbEntity
  8
0
100
AcDbLine
 62
7
  6
CONTINUOUS
 10
-8.7343611332
 20
29.8927439148
 11
-9.0028431332
 21
29.8927439148
  0
LINE
  5
615
100
AcDbEntity
  8
0
100
AcDbLine
 62
7
  6
CONTINUOUS
 10
-9.5795221332
 20
29.8927439148
 11
-9.8536281332
 21
29.8927439148
  0
LINE
  5
616
100
AcDbEntity
  8
0
100
AcDbLine
 62
7
  6
CONTINUOUS
 10
-10.4304191332
 20
29.8927439148
 11
-10.6987911332
 21
29.8927439148
  0
LINE
  5
617
100
AcDbEntity
  8
0
100
AcDbLine
 62
7
  6
CONTINUOUS
 10
39.5414418668
 20
30.1183699148
 11
38.8278438668
 21
30.1183699148
  0
LINE
  5
618
100
AcDbEntity
  8
0
100
AcDbLine
 62
7
  6
CONTINUOUS
 10
36.9996418668
 20
30.1183699148
 11
36.3121638668
 21
30.1183699148
  0
LINE
  5
619
100
AcDbEntity
  8
0
100
AcDbLine
 62
7
  6
CONTINUOUS
 10
31.7572298668
 20
30.1183699148
 11
30.8588818668
 21
30.1183699148
  0
LINE
  5
61A
100
AcDbEntity
  8
0
100
AcDbLine
 62
7
  6
CONTINUOUS
 10
29.0175078668
 20
30.1183699148
 11
28.3033758668
 21
30.1183699148
  0
LINE
  5
61B
100
AcDbEntity
  8
0
100
AcDbLine
 62
7
  6
CONTINUOUS
 10
27.4540888668
 20
30.1183699148
 11
26.7399258668
 21
30.1183699148
  0
LINE
  5
61C
100
AcDbEntity
  8
0
100
AcDbLine
 62
7
  6
CONTINUOUS
 10
25.8810678668
 20
30.1183699148
 11
23.0388978668
 21
30.1183699148
  0
LINE
  5
61D
100
AcDbEntity
  8
0
100
AcDbLine
 62
7
  6
CONTINUOUS
 10
-6.1161141332
 20
30.1296589148
 11
-5.5693038132
 21
30.1296589148
  0
LINE
  5
61E
100
AcDbEntity
  8
0
100
AcDbLine
 62
7
  6
CONTINUOUS
 10
-4.0403511332
 20
30.1382799148
 11
-2.8040341332
 21
30.1382799148
  0
LINE
  5
61F
100
AcDbEntity
  8
0
100
AcDbLine
 62
7
  6
CONTINUOUS
 10
6.7210968668
 20
30.1382799148
 11
7.7604378668
 21
30.1382799148
  0
LINE
  5
620
100
AcDbEntity
  8
0
100
AcDbLine
 62
7
  6
CONTINUOUS
 10
-24.6701105081
 20
30.2303408029
 11
-25.4731440897
 21
30.2303408029
  0
LINE
  5
621
100
AcDbEntity
  8
0
100
AcDbLine
 62
7
  6
CONTINUOUS
 10
-26.751609542
 20
30.2303408029
 11
-27.583105453
 21
30.2303408029
  0
LINE
  5
622
100
AcDbEntity
  8
0
100
AcDbLine
 62
7
  6
CONTINUOUS
 10
-27.8282591332
 20
30.2303409148
 11
-28.7081621332
 21
30.2303409148
  0
LINE
  5
623
100
AcDbEntity
  8
0
100
AcDbLine
 62
7
  6
CONTINUOUS
 10
-30.2917351332
 20
30.2303409148
 11
-31.1175331332
 21
30.2303409148
  0
LINE
  5
624
100
AcDbEntity
  8
0
100
AcDbLine
 62
7
  6
CONTINUOUS
 10
-31.2486271332
 20
30.2303409148
 11
-32.0653371332
 21
30.2303409148
  0
LINE
  5
625
100
AcDbEntity
  8
0
100
AcDbLine
 62
7
  6
CONTINUOUS
 10
-33.2295041332
 20
30.2303409148
 11
-33.3465921332
 21
30.2303409148
  0
LINE
  5
626
100
AcDbEntity
  8
0
100
AcDbLine
 62
7
  6
CONTINUOUS
 10
-34.5061401332
 20
30.2303409148
 11
-35.3048241332
 21
30.2303409148
  0
LINE
  5
627
100
AcDbEntity
  8
0
100
AcDbLine
 62
7
  6
CONTINUOUS
 10
-35.7542531332
 20
30.2303409148
 11
-36.5891081332
 21
30.2303409148
  0
LINE
  5
628
100
AcDbEntity
  8
0
100
AcDbLine
 62
7
  6
CONTINUOUS
 10
-38.1845281332
 20
30.2303409148
 11
-38.9202451332
 21
30.2303409148
  0
LINE
  5
629
100
AcDbEntity
  8
0
100
AcDbLine
 62
7
  6
CONTINUOUS
 10
5.6846238668
 20
30.4894239148
 11
4.8622858668
 21
30.4894239148
  0
LINE
  5
62A
100
AcDbEntity
  8
0
100
AcDbLine
 62
7
  6
CONTINUOUS
 10
-7.1668951332
 20
30.4894239148
 11
-7.9891501332
 21
30.4894239148
  0
LINE
  5
62B
100
AcDbEntity
  8
0
100
AcDbLine
 62
7
  6
CONTINUOUS
 10
-7.9034691332
 20
30.7349599148
 11
-7.2667501332
 21
30.7349599148
  0
LINE
  5
62C
100
AcDbEntity
  8
0
100
AcDbLine
 62
7
  6
CONTINUOUS
 10
4.9479498668
 20
30.7349599148
 11
5.5846688668
 21
30.7349599148
  0
LINE
  5
62D
100
AcDbEntity
  8
0
100
AcDbLine
 62
7
  6
CONTINUOUS
 10
23.7530208668
 20
30.7529929148
 11
25.8810678668
 21
30.7530169148
  0
LINE
  5
62E
100
AcDbEntity
  8
0
100
AcDbLine
 62
7
  6
CONTINUOUS
 10
-2.9182641332
 20
30.8234919148
 11
-4.0403511332
 21
30.8234919148
  0
LINE
  5
62F
100
AcDbEntity
  8
0
100
AcDbLine
 62
7
  6
CONTINUOUS
 10
-28.9244341332
 20
31.0287859148
 11
-30.0613671332
 21
31.0287859148
  0
LINE
  5
630
100
AcDbEntity
  8
0
100
AcDbLine
 62
7
  6
CONTINUOUS
 10
-4.0403511332
 20
31.0690279148
 11
-2.9182641332
 21
31.0690279148
  0
LINE
  5
631
100
AcDbEntity
  8
0
100
AcDbLine
 62
7
  6
CONTINUOUS
 10
-29.8905931332
 20
31.6466189148
 11
-29.0912791332
 21
31.6466189148
  0
LINE
  5
632
100
AcDbEntity
  8
0
100
AcDbLine
 62
7
  6
CONTINUOUS
 10
4.2826828668
 20
31.6972079148
 11
3.5888488668
 21
31.6972079148
  0
LINE
  5
633
100
AcDbEntity
  8
0
100
AcDbLine
 62
7
  6
CONTINUOUS
 10
3.3119288668
 20
31.6972079148
 11
2.6180958668
 21
31.6972079148
  0
LINE
  5
634
100
AcDbEntity
  8
0
100
AcDbLine
 62
7
  6
CONTINUOUS
 10
-2.8240451332
 20
31.6972079148
 11
-4.0403511332
 21
31.6972079148
  0
LINE
  5
635
100
AcDbEntity
  8
0
100
AcDbLine
 62
7
  6
CONTINUOUS
 10
-5.5693038132
 20
31.7058289148
 11
-6.1161141332
 21
31.7058289148
  0
LINE
  5
636
100
AcDbEntity
  8
0
100
AcDbLine
 62
7
  6
CONTINUOUS
 10
-26.3039801786
 20
31.7955289831
 11
-26.751609542
 21
31.7955289831
  0
LINE
  5
637
100
AcDbEntity
  8
0
100
AcDbLine
 62
7
  6
CONTINUOUS
 10
25.7217028668
 20
31.8534989148
 11
23.7530208668
 21
31.8534849148
  0
LINE
  5
638
100
AcDbEntity
  8
0
100
AcDbLine
 62
7
  6
CONTINUOUS
 10
-10.6987911332
 20
31.9427439148
 11
-10.3019081332
 21
31.9427439148
  0
LINE
  5
639
100
AcDbEntity
  8
0
100
AcDbLine
 62
7
  6
CONTINUOUS
 10
-9.1284291332
 20
31.9427439148
 11
-8.7343611332
 21
31.9427439148
  0
LINE
  5
63A
100
AcDbEntity
  8
0
100
AcDbLine
 62
7
  6
CONTINUOUS
 10
-7.7179491332
 20
31.9427439148
 11
-7.4038261332
 21
31.9427439148
  0
LINE
  5
63B
100
AcDbEntity
  8
0
100
AcDbLine
 62
7
  6
CONTINUOUS
 10
-6.3931501332
 20
31.9427439148
 11
-5.5535419247
 21
31.9427439148
  0
LINE
  5
63C
100
AcDbEntity
  8
0
100
AcDbLine
 62
7
  6
CONTINUOUS
 10
-4.3173701332
 20
31.9427439148
 11
-2.8240451332
 21
31.9427439148
  0
LINE
  5
63D
100
AcDbEntity
  8
0
100
AcDbLine
 62
7
  6
CONTINUOUS
 10
-1.6048051332
 20
31.9427439148
 11
-1.3278681332
 21
31.9427439148
  0
LINE
  5
63E
100
AcDbEntity
  8
0
100
AcDbLine
 62
7
  6
CONTINUOUS
 10
-0.8539721332
 20
31.9427439148
 11
-0.5255581332
 21
31.9427439148
  0
LINE
  5
63F
100
AcDbEntity
  8
0
100
AcDbLine
 62
7
  6
CONTINUOUS
 10
0.5052448668
 20
31.9427439148
 11
0.7736098668
 21
31.9427439148
  0
LINE
  5
640
100
AcDbEntity
  8
0
100
AcDbLine
 62
7
  6
CONTINUOUS
 10
2.0441288668
 20
31.9427439148
 11
2.3211478668
 21
31.9427439148
  0
LINE
  5
641
100
AcDbEntity
  8
0
100
AcDbLine
 62
7
  6
CONTINUOUS
 10
2.6180958668
 20
31.9427439148
 11
4.2826828668
 21
31.9427439148
  0
LINE
  5
642
100
AcDbEntity
  8
0
100
AcDbLine
 62
7
  6
CONTINUOUS
 10
5.1335858668
 20
31.9427439148
 11
5.4476098668
 21
31.9427439148
  0
LINE
  5
643
100
AcDbEntity
  8
0
100
AcDbLine
 62
7
  6
CONTINUOUS
 10
6.4440608668
 20
31.9427439148
 11
6.7210968668
 21
31.9427439148
  0
LINE
  5
644
100
AcDbEntity
  8
0
100
AcDbLine
 62
7
  6
CONTINUOUS
 10
7.8546068668
 20
31.9427439148
 11
8.1772348668
 21
31.9427439148
  0
LINE
  5
645
100
AcDbEntity
  8
0
100
AcDbLine
 62
7
  6
CONTINUOUS
 10
9.3535188668
 20
31.9427439148
 11
9.6791308668
 21
31.9427439148
  0
LWPOLYLINE
  5
646
100
AcDbEntity
  8
0
100
AcDbPolyline
 62
7
  6
CONTINUOUS
 90
16
 70
0
 10
33.6864946538
 20
30.0296946752
 10
33.5615791926
 20
30.0337413145
 10
33.4412593738
 20
30.0435622493
 10
33.3255351975
 20
30.0591574796
 10
33.2145277009
 20
30.0807568656
 10
33.1081158467
 20
30.108130547
 10
33.0059365228
 20
30.1405889436
 10
32.9081836655
 20
30.1779300814
 10
32.8146633386
 20
30.2203559345
 10
32.7244306214
 20
30.2677828448
 10
32.6366932324
 20
30.3206249826
 10
32.5522434532
 20
30.3784681777
 10
32.4725132077
 20
30.4399862613
 10
32.3979798041
 20
30.5047371774
 10
32.3281659342
 20
30.573162982
 10
32.2630715982
 20
30.6452636752
  0
LWPOLYLINE
  5
647
100
AcDbEntity
  8
0
100
AcDbPolyline
 62
7
  6
CONTINUOUS
 90
25
 70
0
 10
-5.5535419247
 20
31.9427439148
 10
-5.484474701
 20
31.9394171765
 10
-5.4184920133
 20
31.932092384
 10
-5.3555938615
 20
31.9207695374
 10
-5.2957407877
 20
31.9052693789
 10
-5.2389722499
 20
31.8857711663
 10
-5.1854066218
 20
31.8628126731
 10
-5.1354767122
 20
31.8366175504
 10
-5.0887497122
 20
31.8069621471
 10
-5.0440455688
 20
31.7737132831
 10
-5.0005750133
 20
31.736392826
 10
-4.9591273143
 20
31.6954789081
 10
-4.9208902239
 20
31.6522727459
 10
-4.8863313382
 20
31.6072789673
 10
-4.8549830612
 20
31.5599929444
 10
-4.8266303566
 20
31.5102020098
 10
-4.8014153792
 20
31.4582334917
 10
-4.7791959743
 20
31.403760062
 10
-4.7593306421
 20
31.3455870689
 10
-4.741136748
 20
31.2832690753
 10
-4.7252969266
 20
31.2172515184
 10
-4.7132175825
 20
31.1476760579
 10
-4.7053675174
 20
31.0745899138
 10
-4.7012779297
 20
30.9979458661
 10
-4.7009488193
 20
30.9177439148
  0
LWPOLYLINE
  5
648
100
AcDbEntity
  8
0
100
AcDbPolyline
 62
7
  6
CONTINUOUS
 90
10
 70
0
 10
-26.1252583443
 20
33.5720402115
 10
-26.197038906
 20
33.5791312478
 10
-26.2689635309
 20
33.5837932818
 10
-26.341032219
 20
33.5860263134
 10
-26.4131404367
 20
33.5858273388
 10
-26.4853927177
 20
33.5831993618
 10
-26.5581026625
 20
33.578151394
 10
-26.6313748049
 20
33.570686439
 10
-26.7051046113
 20
33.5608014932
 10
-26.7792920815
 20
33.5484965565
  0
LINE
  5
649
100
AcDbEntity
  8
0
100
AcDbLine
 62
253
  6
CONTINUOUS
 10
19.9503921189
 20
27.0453896284
 11
19.9441544358
 21
27.0470610105
  0
LINE
  5
64A
100
AcDbEntity
  8
0
100
AcDbLine
 62
253
  6
CONTINUOUS
 10
23.4503921189
 20
27.0453896284
 11
23.4441544358
 21
27.0470610105
  0
LINE
  5
64B
100
AcDbEntity
  8
0
100
AcDbLine
 62
7
  6
CONTINUOUS
 10
19.5401698668
 20
26.4677439148
 11
19.531253518
 21
26.4892698851
  0
LINE
  5
64C
100
AcDbEntity
  8
0
100
AcDbLine
 62
7
  6
CONTINUOUS
 10
22.7901698668
 20
26.2177439148
 11
22.7844020005
 21
26.2392698851
  0
LINE
  5
64D
100
AcDbEntity
  8
0
100
AcDbLine
 62
7
  6
CONTINUOUS
 10
23.2231825687
 20
26.4677439148
 11
23.2174147024
 21
26.4892698851
  0
LINE
  5
64E
100
AcDbEntity
  8
0
100
AcDbLine
 62
7
  6
CONTINUOUS
 10
24.0299476147
 20
27.0453896284
 11
24.1847273172
 21
26.4677439148
  0
LINE
  5
64F
100
AcDbEntity
  8
0
100
AcDbLine
 62
7
  6
CONTINUOUS
 10
24.0361852979
 20
27.0470610105
 11
24.1856449795
 21
26.4892698851
  0
LINE
  5
650
100
AcDbEntity
  8
RACCORDO
100
AcDbLine
 62
253
  6
CONTINUOUS
 10
35.5891966774
 20
-41.0815474278
 11
35.6849043643
 21
-42.3904696168
  0
LINE
  5
651
100
AcDbEntity
  8
RACCORDO
100
AcDbLine
 62
253
  6
CONTINUOUS
 10
35.7948671026
 20
-43.8943474433
 11
35.8413411423
 21
-44.5299379978
  0
LINE
  5
652
100
AcDbEntity
  8
RACCORDO
100
AcDbLine
 62
253
  6
CONTINUOUS
 10
35.9087848715
 20
-45.4523152543
 11
35.9506478554
 21
-46.0248438591
  0
LINE
  5
653
100
AcDbEntity
  8
RACCORDO
100
AcDbLine
 62
253
  6
CONTINUOUS
 10
33.6670301515
 20
-23.0664284273
 11
33.6689052219
 21
-23.0922384075
  0
LINE
  5
654
100
AcDbEntity
  8
RACCORDO
100
AcDbLine
 62
253
  6
CONTINUOUS
 10
33.6730192654
 20
-23.1944167031
 11
33.7113445696
 21
-23.7526684149
  0
LWPOLYLINE
  5
655
100
AcDbEntity
  8
RACCORDO
100
AcDbPolyline
 62
253
  6
CONTINUOUS
 90
12
 70
0
 10
33.6689052219
 20
-23.0922384075
 10
33.6705928126
 20
-23.1182149035
 10
33.6713294122
 20
-23.1307060211
 10
33.6719772013
 20
-23.1425766414
 10
33.672525027
 20
-23.1536223851
 10
33.6729634571
 20
-23.163653075
 10
33.6732849431
 20
-23.1724960103
 10
33.6734839499
 20
-23.1799989399
 10
33.6735570512
 20
-23.1860326842
 10
33.6735029884
 20
-23.1904933587
 10
33.6733226923
 20
-23.1933041629
 10
33.6730192671
 20
-23.1944167025
  0
LWPOLYLINE
  5
656
100
AcDbEntity
  8
RACCORDO
100
AcDbPolyline
 62
253
  6
CONTINUOUS
 90
19
 70
0
 10
34.1941948999
 20
22.7783115631
 10
34.2355595019
 20
21.8382503075
 10
34.2762651421
 20
20.8654708759
 10
34.3162411503
 20
19.8600011816
 10
34.3555159868
 20
18.8234288428
 10
34.393926988
 20
17.7542220282
 10
34.4311090089
 20
16.647743314
 10
34.4670621917
 20
15.5035677955
 10
34.5016506672
 20
14.3222028451
 10
34.5342897014
 20
13.1004489371
 10
34.5649074007
 20
11.8386012028
 10
34.5934519141
 20
10.5365000857
 10
34.6192827064
 20
9.1903256143
 10
34.6421860179
 20
7.8014453892
 10
34.6619853858
 20
6.3687119218
 10
34.6780126933
 20
4.8845911717
 10
34.6898616161
 20
3.346678105
 10
34.6974114335
 20
1.7576690321
 10
34.700381458
 20
0.1177124672
  0
LWPOLYLINE
  5
657
100
AcDbEntity
  8
RACCORDO
100
AcDbPolyline
 62
253
  6
CONTINUOUS
 90
19
 70
0
 10
34.3119543223
 20
22.7785332633
 10
34.3529536821
 20
21.8384081929
 10
34.3935540567
 20
20.8656297867
 10
34.4335646298
 20
19.8601936952
 10
34.4727278844
 20
18.8236145415
 10
34.5109069929
 20
17.7543708071
 10
34.5480532387
 20
16.6479036637
 10
34.5839328651
 20
15.5037191479
 10
34.618274246
 20
14.3223059597
 10
34.6509081379
 20
13.1005786924
 10
34.6815334208
 20
11.8387245388
 10
34.7098508638
 20
10.5365558278
 10
34.7356289255
 20
9.1904252016
 10
34.7584923501
 20
7.8015517682
 10
34.7781009609
 20
6.3687233243
 10
34.7941669406
 20
4.8846463671
 10
34.8062560306
 20
3.3468950918
 10
34.8138574591
 20
1.7579127822
 10
34.8164820959
 20
0.1177124697
  0
LWPOLYLINE
  5
658
100
AcDbEntity
  8
0
100
AcDbPolyline
 62
7
  6
CONTINUOUS
 90
13
 70
0
 10
32.4819560982
 20
32.1177581197
 10
32.4865797546
 20
31.9931918383
 10
32.496906374
 20
31.8739215513
 10
32.5129359565
 20
31.7599472587
 10
32.5352165064
 20
31.6508889241
 10
32.5632000192
 20
31.5471265838
 10
32.5952424822
 20
31.449800347
 10
32.6312623405
 20
31.3592452138
 10
32.6713411488
 20
31.2751261841
 10
32.7140795581
 20
31.1975783657
 10
32.7590111186
 20
31.1266467946
 10
32.8066022802
 20
31.0622864348
 10
32.8568530426
 20
31.0044972863
  0
LWPOLYLINE
  5
659
100
AcDbEntity
  8
0
100
AcDbPolyline
 62
7
  6
CONTINUOUS
 90
13
 70
0
 10
34.890800376
 20
32.1177581197
 10
34.8861764702
 20
32.2423390295
 10
34.8758500169
 20
32.361620399
 10
34.8598210161
 20
32.4756022283
 10
34.8375416796
 20
32.584663526
 10
34.8095597955
 20
32.6884252834
 10
34.7775187287
 20
32.7857504746
 10
34.7414998134
 20
32.8763052599
 10
34.7014217154
 20
32.9604234791
 10
34.6586837974
 20
33.0379696253
 10
34.6137525139
 20
33.1088985297
 10
34.5661614104
 20
33.1732553611
 10
34.5159104871
 20
33.2310401197
  0
LWPOLYLINE
  5
65A
100
AcDbEntity
  8
RACCORDO
100
AcDbPolyline
 62
253
  6
CONTINUOUS
 90
13
 70
0
 10
33.9537369138
 20
22.0177339378
 10
33.951845725
 20
22.0843768449
 10
33.9462441085
 20
22.1511788482
 10
33.9368886567
 20
22.2179288221
 10
33.9237226708
 20
22.284520702
 10
33.9067403222
 20
22.350619255
 10
33.8860488597
 20
22.4156768547
 10
33.8617605173
 20
22.4793623816
 10
33.8339125525
 20
22.5415980963
 10
33.8025643505
 20
22.6022326499
 10
33.7677947201
 20
22.661081929
 10
33.7297112285
 20
22.7179337877
 10
33.68842519
 20
22.7725981717
  0
LWPOLYLINE
  5
65B
100
AcDbEntity
  8
RACCORDO
100
AcDbPolyline
 62
253
  6
CONTINUOUS
 90
13
 70
0
 10
34.0357817849
 20
22.0219417596
 10
34.0339091606
 20
22.0923031204
 10
34.0281699527
 20
22.1624396984
 10
34.0185712597
 20
22.2323353492
 10
34.0050832657
 20
22.3022707718
 10
33.9877510039
 20
22.3719288895
 10
33.9666937835
 20
22.4403963801
 10
33.9418879066
 20
22.5075330892
 10
33.9133724898
 20
22.5734399577
 10
33.8813599352
 20
22.6375677369
 10
33.8459254038
 20
22.6997219106
 10
33.8070076925
 20
22.7600606166
 10
33.7646138549
 20
22.8185656741
  0
LINE
  5
65C
100
AcDbEntity
  8
RACCORDO
100
AcDbLine
 62
253
  6
CONTINUOUS
 10
32.74008909
 20
23.2931750738
 11
32.7401698668
 21
23.2177439148
  0
LINE
  5
65D
100
AcDbEntity
  8
RACCORDO
100
AcDbLine
 62
7
  6
CONTINUOUS
 10
33.3401698668
 20
-21.7830783643
 11
33.3401698668
 21
22.018566194
  0
LINE
  5
65E
100
AcDbEntity
  8
RACCORDO
100
AcDbLine
 62
7
  6
CONTINUOUS
 10
33.4901698668
 20
-23.2440448568
 11
33.4901698668
 21
-25.0822560852
  0
LINE
  5
65F
100
AcDbEntity
  8
RACCORDO
100
AcDbLine
 62
7
  6
CONTINUOUS
 10
33.4901698668
 20
23.4795326865
 11
33.4901698668
 21
25.3177439148
  0
LINE
  5
660
100
AcDbEntity
  8
DRAFT
100
AcDbLine
 62
7
  6
CONTINUOUS
 10
33.9401698668
 20
22.0177439148
 11
33.9401698668
 21
-21.7822560852
  0
LINE
  5
661
100
AcDbEntity
  8
RACCORDO
100
AcDbLine
 62
253
  6
CONTINUOUS
 10
34.0430877207
 20
-9.6169992674
 11
34.0357817849
 21
22.0219417596
  0
LINE
  5
662
100
AcDbEntity
  8
RACCORDO
100
AcDbLine
 62
253
  6
CONTINUOUS
 10
33.9537369029
 20
-21.7822560852
 11
33.9537369091
 21
22.0177339378
  0
LINE
  5
663
100
AcDbEntity
  8
RACCORDO
100
AcDbLine
 62
253
  6
CONTINUOUS
 10
34.0357817849
 20
-21.78645393
 11
34.0430877207
 21
-9.6169992674
  0
LINE
  5
664
100
AcDbEntity
  8
RACCORDO
100
AcDbLine
 62
253
  6
CONTINUOUS
 10
32.7400890917
 20
-23.05768811
 11
32.7401698668
 21
-22.9822560852
  0
LWPOLYLINE
  5
665
100
AcDbEntity
  8
RACCORDO
100
AcDbPolyline
 62
253
  6
CONTINUOUS
 90
19
 70
0
 10
34.8164820959
 20
0.1177124697
 10
34.8138521259
 20
-1.5241030491
 10
34.8062365604
 20
-3.1144844933
 10
34.7941270255
 20
-4.6534188043
 10
34.7780369758
 20
-6.138441498
 10
34.7584027087
 20
-7.5719995745
 10
34.7355127907
 20
-8.9614501161
 10
34.7097079645
 20
-10.3080461799
 10
34.6813654768
 20
-11.6105278351
 10
34.6507195094
 20
-12.8724835137
 10
34.618071634
 20
-14.0940753021
 10
34.5837239057
 20
-15.2751416828
 10
34.5478462809
 20
-16.4187860376
 10
34.5107125267
 20
-17.5244926189
 10
34.4725567047
 20
-18.59278254
 10
34.433424626
 20
-19.6283138774
 10
34.3934521239
 20
-20.6326412413
 10
34.3528983126
 20
-21.604216968
 10
34.3119543223
 20
-22.5430454332
  0
LWPOLYLINE
  5
666
100
AcDbEntity
  8
RACCORDO
100
AcDbPolyline
 62
253
  6
CONTINUOUS
 90
19
 70
0
 10
34.7003814599
 20
0.1177124673
 10
34.6974037553
 20
-1.5238587949
 10
34.68984022
 20
-3.1142669372
 10
34.6779726532
 20
-4.6533632005
 10
34.6619218708
 20
-6.1384297773
 10
34.6420959446
 20
-7.5718927459
 10
34.6191662108
 20
-8.9613499122
 10
34.5933086428
 20
-10.3079899596
 10
34.5647381995
 20
-11.6104040877
 10
34.5341004785
 20
-12.872352996
 10
34.5014480493
 20
-14.0939713794
 10
34.4668523535
 20
-15.2749898015
 10
34.4309014167
 20
-16.4186248472
 10
34.3937326072
 20
-17.5243427247
 10
34.355344403
 20
-18.5925960325
 10
34.3161006985
 20
-19.6281204822
 10
34.2761635971
 20
-20.6324809625
 10
34.2355048519
 20
-21.6040578321
 10
34.1941948999
 20
-22.5428237335
  0
LWPOLYLINE
  5
667
100
AcDbEntity
  8
0
100
AcDbPolyline
 62
7
  6
CONTINUOUS
 90
13
 70
0
 10
35.6094016538
 20
32.1181461752
 10
35.6047906311
 20
31.9724252738
 10
35.5923638711
 20
31.828762995
 10
35.5721213737
 20
31.6871593386
 10
35.5434092154
 20
31.5460269367
 10
35.5068813198
 20
31.4069531574
 10
35.4644994577
 20
31.2747001045
 10
35.4162320891
 20
31.150435797
 10
35.3621107539
 20
31.032992216
 10
35.3041918427
 20
30.9236274086
 10
35.2431608188
 20
30.8227607239
 10
35.1783322188
 20
30.7299728128
 10
35.1097060426
 20
30.6452636752
  0
LWPOLYLINE
  5
668
100
AcDbEntity
  8
RACCORDO
100
AcDbPolyline
 62
253
  6
CONTINUOUS
 90
10
 70
0
 10
33.6713286522
 20
23.3661865354
 10
33.6719763108
 20
23.3780553959
 10
33.6725240205
 20
23.3890994142
 10
33.6729623564
 20
23.3991285233
 10
33.6732837747
 20
23.4079700948
 10
33.673482745
 20
23.415471967
 10
33.6735558444
 20
23.4215050598
 10
33.6735018144
 20
23.4259655294
 10
33.6733215845
 20
23.4287765826
 10
33.6730182569
 20
23.4298898299
  0
LINE
  5
669
100
AcDbEntity
  8
RACCORDO
100
AcDbLine
 62
253
  6
CONTINUOUS
 10
33.6697796014
 20
23.3408021126
 11
33.6713286522
 21
23.3661865354
  0
LWPOLYLINE
  5
66A
100
AcDbEntity
  8
RACCORDO
100
AcDbPolyline
 62
7
  6
CONTINUOUS
 90
10
 70
0
 10
34.3119543223
 20
-22.5430454332
 10
34.3101538635
 20
-22.5707782361
 10
34.3072341357
 20
-22.5984254217
 10
34.3031987482
 20
-22.6259418863
 10
34.2980805058
 20
-22.6531516401
 10
34.2918698151
 20
-22.6801433638
 10
34.284461915
 20
-22.7072584072
 10
34.2757771709
 20
-22.7345651237
 10
34.2658141323
 20
-22.7618709343
 10
34.2545414259
 20
-22.7891094134
  0
LINE
  5
66B
100
AcDbEntity
  8
RACCORDO
100
AcDbLine
 62
253
  6
CONTINUOUS
 10
33.6730192661
 20
23.4299045327
 11
33.7113445698
 21
23.9881562444
  0
LWPOLYLINE
  5
66C
100
AcDbEntity
  8
RACCORDO
100
AcDbPolyline
 62
253
  6
CONTINUOUS
 90
7
 70
0
 10
34.1941948999
 20
-22.5428237335
 10
34.1919309073
 20
-22.5746076298
 10
34.187937729
 20
-22.6061571052
 10
34.1822168854
 20
-22.6374686316
 10
34.1747699424
 20
-22.6685384103
 10
34.1655985114
 20
-22.6993623759
 10
34.15470425
 20
-22.7299362014
  0
LINE
  5
66D
100
AcDbEntity
  8
RACCORDO
100
AcDbLine
 62
253
  6
CONTINUOUS
 10
35.5891966774
 20
41.3170352575
 11
35.6849043643
 21
42.6259574465
  0
LINE
  5
66E
100
AcDbEntity
  8
RACCORDO
100
AcDbLine
 62
253
  6
CONTINUOUS
 10
35.7948671026
 20
44.1298352729
 11
35.8413411423
 21
44.7654258274
  0
LINE
  5
66F
100
AcDbEntity
  8
RACCORDO
100
AcDbLine
 62
253
  6
CONTINUOUS
 10
35.9087848715
 20
45.6878030839
 11
35.9506478554
 21
46.2603316887
  0
LWPOLYLINE
  5
670
100
AcDbEntity
  8
RACCORDO
100
AcDbPolyline
 62
7
  6
CONTINUOUS
 90
19
 70
0
 10
45.1128469462
 20
3.824725919
 10
45.1096462752
 20
3.8203473581
 10
45.1044832328
 20
3.816078877
 10
45.0973578192
 20
3.8119204756
 10
45.0881618642
 20
3.807836712
 10
45.0770035379
 20
3.8038630282
 10
45.0642073504
 20
3.8001057501
 10
45.0497793655
 20
3.7965842514
 10
45.0337135194
 20
3.7932791585
 10
45.0163161297
 20
3.7902386758
 10
44.9975938167
 20
3.7874651028
 10
44.9775399602
 20
3.78495614
 10
44.9564410171
 20
3.7827530939
 10
44.9341752867
 20
3.7808550471
 10
44.9108644698
 20
3.7792629169
 10
44.887160125
 20
3.7780207611
 10
44.8632794387
 20
3.7771432655
 10
44.8390052245
 20
3.7766157443
 10
44.8143374826
 20
3.7764381975
  0
LINE
  5
671
100
AcDbEntity
  8
0
100
AcDbLine
 62
7
  6
CONTINUOUS
 10
24.8003769535
 20
-25.2822560852
 11
24.8174678479
 21
-25.265021049
  0
LINE
  5
672
100
AcDbEntity
  8
0
100
AcDbLine
 62
7
  6
CONTINUOUS
 10
24.9908010277
 20
-25.0918526287
 11
24.9990501624
 21
-25.0835316977
  0
LINE
  5
673
100
AcDbEntity
  8
0
100
AcDbLine
 62
7
  6
CONTINUOUS
 10
24.8003769535
 20
-25.8720489985
 11
24.4401698668
 21
-26.2322560852
  0
LINE
  5
674
100
AcDbEntity
  8
0
100
AcDbLine
 62
7
  6
CONTINUOUS
 10
25.1840786502
 20
-25.518789621
 11
24.4490862157
 21
-26.2537820555
  0
LINE
  5
675
100
AcDbEntity
  8
0
100
AcDbLine
 62
7
  6
CONTINUOUS
 10
24.8174678479
 20
-25.265021049
 11
24.9908010277
 21
-25.0918526287
  0
LINE
  5
676
100
AcDbEntity
  8
0
100
AcDbLine
 62
7
  6
CONTINUOUS
 10
24.9990501624
 20
-25.0835316977
 11
25.0001028604
 21
-25.0825301782
  0
LINE
  5
677
100
AcDbEntity
  8
0
100
AcDbLine
 62
7
  6
CONTINUOUS
 10
25.0001028604
 20
-25.6738825019
 11
25.1840786502
 21
-25.518789621
  0
LINE
  5
678
100
AcDbEntity
  8
0
100
AcDbLine
 62
7
  6
CONTINUOUS
 10
7.6203848668
 20
-33.8402560852
 11
7.9648108668
 21
-33.6122560852
  0
LINE
  5
679
100
AcDbEntity
  8
0
100
AcDbLine
 62
7
  6
CONTINUOUS
 10
7.3904898668
 20
-34.2902560852
 11
7.0224778668
 21
-34.5302560852
  0
LINE
  5
67A
100
AcDbEntity
  8
0
100
AcDbLine
 62
7
  6
CONTINUOUS
 10
21.1901698668
 20
-25.9822560852
 11
20.7571571649
 21
-26.2322560852
  0
LINE
  5
67B
100
AcDbEntity
  8
0
100
AcDbLine
 62
7
  6
CONTINUOUS
 10
21.1959377332
 20
-26.0037820555
 11
20.7629250313
 21
-26.2537820555
  0
LINE
  5
67C
100
AcDbEntity
  8
RACCORDO
100
AcDbLine
 62
253
  6
CONTINUOUS
 10
40.6894612095
 20
36.2167707254
 11
41.9983833985
 21
36.3124784123
  0
LINE
  5
67D
100
AcDbEntity
  8
RACCORDO
100
AcDbLine
 62
253
  6
CONTINUOUS
 10
43.5022612249
 20
36.4224411506
 11
44.1378517794
 21
36.4689151903
  0
LINE
  5
67E
100
AcDbEntity
  8
RACCORDO
100
AcDbLine
 62
253
  6
CONTINUOUS
 10
45.0602290359
 20
36.5363589195
 11
45.6327576407
 21
36.5782219034
  0
LWPOLYLINE
  5
67F
100
AcDbEntity
  8
0
100
AcDbPolyline
 62
7
  6
CONTINUOUS
 90
22
 70
0
 10
-26.3021806635
 20
32.4505524536
 10
-26.2405545539
 20
32.4535888752
 10
-26.1818174764
 20
32.4595650786
 10
-26.1259694311
 20
32.468481064
 10
-26.0727398733
 20
32.4804977654
 10
-26.0223993476
 20
32.4954542488
 10
-25.9757594881
 20
32.5128677111
 10
-25.9332854698
 20
32.5326035765
 10
-25.8945121176
 20
32.5547964208
 10
-25.8588555407
 20
32.5793671696
 10
-25.8263192404
 20
32.6062110323
 10
-25.7968997155
 20
32.6354327993
 10
-25.7700025711
 20
32.6672677675
 10
-25.7452697393
 20
32.7017900442
 10
-25.723059288
 20
32.7389255221
 10
-25.7038510271
 20
32.7786871751
 10
-25.6877656942
 20
32.8210925787
 10
-25.6746825517
 20
32.8661241574
 10
-25.6647191952
 20
32.9137421594
 10
-25.6579148237
 20
32.9639333339
 10
-25.6542302383
 20
33.0167109316
 10
-25.653665439
 20
33.0720749526
  0
LWPOLYLINE
  5
680
100
AcDbEntity
  8
0
100
AcDbPolyline
 62
253
  6
CONTINUOUS
 90
4
 70
0
 10
-22.2219405681
 20
32.641486713
 10
-19.5825381579
 20
32.7526532478
 10
-15.7668716789
 20
32.8841331564
 10
-14.8445227121
 20
32.9088510088
  0
LWPOLYLINE
  5
681
100
AcDbEntity
  8
0
100
AcDbPolyline
 62
7
  6
CONTINUOUS
 90
13
 70
0
 10
33.6883573204
 20
33.5727406752
 10
33.6031993491
 20
33.5699613815
 10
33.5202548123
 20
33.5619004451
 10
33.4395237101
 20
33.5485578661
 10
33.3606589912
 20
33.5296306171
 10
33.2840077068
 20
33.5054217254
 10
33.2106110111
 20
33.4768402729
 10
33.1402161947
 20
33.4436080209
 10
33.0730759669
 20
33.406003208
 10
33.0109896096
 20
33.3657696316
 10
32.9545568834
 20
33.3234885577
 10
32.9031780278
 20
33.2785787204
 10
32.8568530426
 20
33.2310401197
  0
LWPOLYLINE
  5
682
100
AcDbEntity
  8
0
100
AcDbPolyline
 62
253
  6
CONTINUOUS
 90
4
 70
0
 10
-14.7914371902
 20
32.593766326
 10
-15.7822475439
 20
32.5672021623
 10
-19.5992845459
 20
32.4356461799
 10
-22.2539182692
 20
32.3238208099
  0
LINE
  5
683
100
AcDbEntity
  8
0
100
AcDbLine
 62
7
  6
CONTINUOUS
 10
-26.7792920815
 20
32.4505524536
 11
-26.3021806635
 21
32.4505524536
  0
LINE
  5
684
100
AcDbEntity
  8
0
100
AcDbLine
 62
7
  6
CONTINUOUS
 10
23.7530208668
 20
32.4881749148
 11
25.7217028668
 21
32.4881599148
  0
LINE
  5
685
100
AcDbEntity
  8
0
100
AcDbLine
 62
7
  6
CONTINUOUS
 10
25.8649948668
 20
33.4824709148
 11
23.7530208668
 21
33.4824779148
  0
LINE
  5
686
100
AcDbEntity
  8
0
100
AcDbLine
 62
7
  6
CONTINUOUS
 10
23.0388978668
 20
34.1171179148
 11
25.8649948668
 21
34.1171179148
  0
LINE
  5
687
100
AcDbEntity
  8
0
100
AcDbLine
 62
7
  6
CONTINUOUS
 10
26.7399258668
 20
34.1171179148
 11
27.4540888668
 21
34.1171179148
  0
LINE
  5
688
100
AcDbEntity
  8
0
100
AcDbLine
 62
7
  6
CONTINUOUS
 10
28.3033758668
 20
34.1171179148
 11
29.0175078668
 21
34.1171179148
  0
LINE
  5
689
100
AcDbEntity
  8
0
100
AcDbLine
 62
7
  6
CONTINUOUS
 10
30.7902678668
 20
34.1171179148
 11
31.7478038668
 21
34.1171179148
  0
LINE
  5
68A
100
AcDbEntity
  8
0
100
AcDbLine
 62
7
  6
CONTINUOUS
 10
36.3121638668
 20
34.1171179148
 11
37.0099428668
 21
34.1171179148
  0
LINE
  5
68B
100
AcDbEntity
  8
0
100
AcDbLine
 62
7
  6
CONTINUOUS
 10
38.8539548668
 20
34.1171179148
 11
39.5414418668
 21
34.1171179148
  0
LINE
  5
68C
100
AcDbEntity
  8
0
100
AcDbLine
 62
7
  6
CONTINUOUS
 10
-40.1881681332
 20
34.2298529148
 11
-39.2812581332
 21
34.2298529148
  0
LINE
  5
68D
100
AcDbEntity
  8
0
100
AcDbLine
 62
7
  6
CONTINUOUS
 10
-37.7332101332
 20
34.2298529148
 11
-36.8989251332
 21
34.2298529148
  0
LINE
  5
68E
100
AcDbEntity
  8
0
100
AcDbLine
 62
7
  6
CONTINUOUS
 10
-34.9436921332
 20
34.2298529148
 11
-34.1095261332
 21
34.2298529148
  0
LINE
  5
68F
100
AcDbEntity
  8
0
100
AcDbLine
 62
7
  6
CONTINUOUS
 10
-32.4486341332
 20
34.2298529148
 11
-31.6226271332
 21
34.2298529148
  0
LINE
  5
690
100
AcDbEntity
  8
0
100
AcDbLine
 62
7
  6
CONTINUOUS
 10
-29.8630311332
 20
34.2298529148
 11
-29.0554091332
 21
34.2298529148
  0
LINE
  5
691
100
AcDbEntity
  8
0
100
AcDbLine
 62
7
  6
CONTINUOUS
 10
-36.5891081332
 20
34.2300929148
 11
-35.7542531332
 21
34.2300929148
  0
LINE
  5
692
100
AcDbEntity
  8
0
100
AcDbLine
 62
7
  6
CONTINUOUS
 10
39.9901698668
 20
35.1177439148
 11
22.4901698668
 21
35.1177439148
  0
LINE
  5
693
100
AcDbEntity
  8
0
100
AcDbLine
 62
7
  6
CONTINUOUS
 10
10.4901698668
 20
35.1177439148
 11
-11.5098301332
 21
35.1177439148
  0
LINE
  5
694
100
AcDbEntity
  8
0
100
AcDbLine
 62
7
  6
CONTINUOUS
 10
-23.5098301332
 20
35.1177439148
 11
-41.0098301332
 21
35.1177439148
  0
LWPOLYLINE
  5
695
100
AcDbEntity
  8
0
100
AcDbPolyline
 62
253
  6
CONTINUOUS
 90
4
 70
0
 10
13.7717769138
 20
32.59376625
 10
14.7625872775
 20
32.5672020593
 10
18.5796242796
 20
32.4356459738
 10
21.2342580078
 20
32.323820747
  0
LWPOLYLINE
  5
696
100
AcDbEntity
  8
0
100
AcDbPolyline
 62
253
  6
CONTINUOUS
 90
4
 70
0
 10
13.8248613059
 20
32.9088462609
 10
14.7496819525
 20
32.8840574823
 10
18.564821226
 20
32.7525788382
 10
21.2022804879
 20
32.641485299
  0
LWPOLYLINE
  5
697
100
AcDbEntity
  8
0
100
AcDbPolyline
 62
7
  6
CONTINUOUS
 90
16
 70
0
 10
33.6864946538
 20
34.2065976752
 10
33.8114034904
 20
34.2025503156
 10
33.9317109838
 20
34.1927305038
 10
34.0474171342
 20
34.1771382397
 10
34.1583992584
 20
34.1555438012
 10
34.2647800396
 20
34.1281769105
 10
34.3669275264
 20
34.0957267339
 10
34.46464665
 20
34.0583967431
 10
34.5581324792
 20
34.0159834664
 10
34.6483382692
 20
33.9685656553
 10
34.7360592776
 20
33.9157282763
 10
34.8205002467
 20
33.8578863628
 10
34.9002286596
 20
33.7963637663
 10
34.9747670103
 20
33.7316017708
 10
35.0445928046
 20
33.6631590923
 10
35.1097060426
 20
33.5910357308
  0
LINE
  5
698
100
AcDbEntity
  8
RACCORDO
100
AcDbLine
 62
253
  6
CONTINUOUS
 10
-41.7091214758
 20
36.2167707254
 11
-43.0180436648
 21
36.3124784123
  0
LINE
  5
699
100
AcDbEntity
  8
RACCORDO
100
AcDbLine
 62
253
  6
CONTINUOUS
 10
-44.5219214913
 20
36.4224411506
 11
-45.1575120458
 21
36.4689151903
  0
LINE
  5
69A
100
AcDbEntity
  8
RACCORDO
100
AcDbLine
 62
253
  6
CONTINUOUS
 10
-46.0798893023
 20
36.5363589195
 11
-46.6524179071
 21
36.5782219034
  0
LINE
  5
69B
100
AcDbEntity
  8
0
100
AcDbLine
 62
7
  6
CONTINUOUS
 10
20.7571571649
 20
26.4677439148
 11
21.1901698668
 21
26.2177439148
  0
LINE
  5
69C
100
AcDbEntity
  8
0
100
AcDbLine
 62
7
  6
CONTINUOUS
 10
20.7629250313
 20
26.4892698851
 11
21.1959377332
 21
26.2392698851
  0
LINE
  5
69D
100
AcDbEntity
  8
0
100
AcDbLine
 62
7
  6
CONTINUOUS
 10
25.0001028604
 20
25.9093703316
 11
25.1840786502
 21
25.7542774506
  0
LINE
  5
69E
100
AcDbEntity
  8
0
100
AcDbLine
 62
7
  6
CONTINUOUS
 10
25.0001028604
 20
25.3180180079
 11
24.9990501624
 21
25.3190195273
  0
LWPOLYLINE
  5
69F
100
AcDbEntity
  8
0
100
AcDbPolyline
 62
7
  6
CONTINUOUS
 90
3
 70
0
 10
24.8652349773
 20
25.4529251077
 10
24.8174678479
 20
25.5005088787
 10
24.8003769535
 20
25.5177439148
  0
LINE
  5
6A0
100
AcDbEntity
  8
0
100
AcDbLine
 62
7
  6
CONTINUOUS
 10
24.4401698668
 20
26.4677439148
 11
24.8003769535
 21
26.1075368282
  0
LINE
  5
6A1
100
AcDbEntity
  8
0
100
AcDbLine
 62
7
  6
CONTINUOUS
 10
24.4490862157
 20
26.4892698851
 11
25.1840786502
 21
25.7542774506
  0
LWPOLYLINE
  5
6A2
100
AcDbEntity
  8
0
100
AcDbPolyline
 62
7
  6
CONTINUOUS
 90
3
 70
0
 10
24.9990501624
 20
25.3190195273
 10
24.9944345241
 20
25.3236863442
 10
24.8652349773
 20
25.4529251077
  0
LWPOLYLINE
  5
6A3
100
AcDbEntity
  8
RACCORDO
100
AcDbPolyline
 62
7
  6
CONTINUOUS
 90
19
 70
0
 10
45.1518187505
 20
-3.668989627
 10
45.1550187747
 20
-3.6733682511
 10
45.1601811283
 20
-3.6776367798
 10
45.1673058114
 20
-3.681795213
 10
45.1765009865
 20
-3.6858789897
 10
45.1876584911
 20
-3.6898526709
 10
45.2004538376
 20
-3.69360994
 10
45.2148809556
 20
-3.6971314243
 10
45.2309459156
 20
-3.7004364966
 10
45.248342441
 20
-3.7034769582
 10
45.2670639052
 20
-3.7062505105
 10
45.2871169349
 20
-3.7087594522
 10
45.3082151342
 20
-3.7109624808
 10
45.330480204
 20
-3.7128605151
 10
45.3537904434
 20
-3.7144526363
 10
45.3774943541
 20
-3.7156947861
 10
45.4013747698
 20
-3.7165722783
 10
45.4256488567
 20
-3.7170997991
 10
45.4503166149
 20
-3.7172773485
  0
LINE
  5
6A4
100
AcDbEntity
  8
0
100
AcDbLine
 62
7
  6
CONTINUOUS
 10
36.3121638668
 20
30.1183699148
 11
36.3121638668
 21
34.1171179148
  0
LINE
  5
6A5
100
AcDbEntity
  8
0
100
AcDbLine
 62
7
  6
CONTINUOUS
 10
38.8539408668
 20
31.2928779148
 11
38.8539548668
 21
34.1171179148
  0
LINE
  5
6A6
100
AcDbEntity
  8
0
100
AcDbLine
 62
7
  6
CONTINUOUS
 10
39.5414418668
 20
34.1171179148
 11
39.5414418668
 21
30.1183699148
  0
LINE
  5
6A7
100
AcDbEntity
  8
0
100
AcDbLine
 62
7
  6
CONTINUOUS
 10
39.9901698668
 20
29.1177439148
 11
39.9901698668
 21
35.1177439148
  0
LINE
  5
6A8
100
AcDbEntity
  8
0
100
AcDbLine
 62
7
  6
CONTINUOUS
 10
37.0093308668
 20
32.9117819148
 11
36.9996418668
 21
30.1183699148
  0
LWPOLYLINE
  5
6A9
100
AcDbEntity
  8
RACCORDO
100
AcDbPolyline
 62
7
  6
CONTINUOUS
 90
19
 70
0
 10
34.2545414259
 20
-22.7891094134
 10
34.2359931829
 20
-22.8272749446
 10
34.2152365019
 20
-22.8640523792
 10
34.1923807858
 20
-22.8993221952
 10
34.1675404744
 20
-22.9329733214
 10
34.1408364007
 20
-22.9649036702
 10
34.112395047
 20
-22.9950206843
 10
34.0823683112
 20
-23.0232197395
 10
34.0508661631
 20
-23.0494497811
 10
34.0179458474
 20
-23.0736997267
 10
33.9837547769
 20
-23.0958862659
 10
33.9484021578
 20
-23.1159626252
 10
33.911866589
 20
-23.1339457359
 10
33.8742718514
 20
-23.1497611286
 10
33.8357421631
 20
-23.1633434605
 10
33.7962383709
 20
-23.1746780937
 10
33.7558306664
 20
-23.1836937714
 10
33.714710152
 20
-23.1902961621
 10
33.6730192654
 20
-23.1944167031
  0
LWPOLYLINE
  5
6AA
100
AcDbEntity
  8
RACCORDO
100
AcDbPolyline
 62
253
  6
CONTINUOUS
 90
13
 70
0
 10
33.7646139004
 20
-22.5830777754
 10
33.8058229965
 20
-22.5264047135
 10
33.8438175406
 20
-22.4677848915
 10
33.8785914064
 20
-22.407234142
 10
33.9102081617
 20
-22.3447754934
 10
33.9385919237
 20
-22.2804180461
 10
33.9635268667
 20
-22.2141581886
 10
33.9850886286
 20
-22.1456791385
 10
34.0031882055
 20
-22.075331765
 10
34.0173610194
 20
-22.0041181022
 10
34.0274464341
 20
-21.9323860489
 10
34.0335891898
 20
-21.8598256593
 10
34.0357817849
 20
-21.78645393
  0
LWPOLYLINE
  5
6AB
100
AcDbEntity
  8
RACCORDO
100
AcDbPolyline
 62
253
  6
CONTINUOUS
 90
13
 70
0
 10
33.68842519
 20
-22.5371103421
 10
33.7285939846
 20
-22.4840132876
 10
33.765818223
 20
-22.4287226994
 10
33.7999748164
 20
-22.3714005864
 10
33.830863065
 20
-22.3123943224
 10
33.8584843168
 20
-22.2517103624
 10
33.8829430239
 20
-22.1889686363
 10
33.904162611
 20
-22.1239780093
 10
33.9218282812
 20
-22.0572442447
 10
33.9356873737
 20
-21.9894367924
 10
33.9456457002
 20
-21.9209340393
 10
33.9516787353
 20
-21.8517985575
 10
33.9537369029
 20
-21.7822560852
  0
LWPOLYLINE
  5
6AC
100
AcDbEntity
  8
0
100
AcDbPolyline
 62
7
  6
CONTINUOUS
 90
16
 70
0
 10
-27.583105453
 20
34.1831255233
 10
-27.4094595114
 20
34.2080006315
 10
-27.2409294999
 20
34.229070123
 10
-27.0775154186
 20
34.2463339979
 10
-26.9191904031
 20
34.2598823171
 10
-26.7659813177
 20
34.2696250197
 10
-26.6179687553
 20
34.2752919221
 10
-26.4752188296
 20
34.2767494471
 10
-26.3376654268
 20
34.274131172
 10
-26.2051907983
 20
34.2675676453
 10
-26.0775316604
 20
34.2572720289
 10
-25.9549512966
 20
34.2430311609
 10
-25.838121809
 20
34.2243361048
 10
-25.7272672314
 20
34.2010172151
 10
-25.6221635299
 20
34.1732441374
 10
-25.5228107045
 20
34.1410168717
  0
LWPOLYLINE
  5
6AD
100
AcDbEntity
  8
RACCORDO
100
AcDbPolyline
 62
253
  6
CONTINUOUS
 90
22
 70
0
 10
33.7525846559
 20
22.8120115176
 10
33.7292104897
 20
22.8401140015
 10
33.7041765226
 20
22.8682220217
 10
33.677482858
 20
22.8963405383
 10
33.6493551187
 20
22.9244696337
 10
33.6195678737
 20
22.9526185545
 10
33.5874446877
 20
22.9808080534
 10
33.5529625337
 20
23.0091792909
 10
33.516144724
 20
23.0376052345
 10
33.4763843749
 20
23.0657065714
 10
33.4336755633
 20
23.0936033808
 10
33.388024465
 20
23.121188968
 10
33.3388422863
 20
23.1477414869
 10
33.2860525456
 20
23.1734015216
 10
33.2297317897
 20
23.1980341396
 10
33.1695205502
 20
23.2204944283
 10
33.1047701647
 20
23.240888419
 10
33.036128897
 20
23.2590948242
 10
32.9651822017
 20
23.2736051272
 10
32.8924580497
 20
23.2838922899
 10
32.8174272252
 20
23.2904256119
 10
32.74008909
 20
23.293175069
  0
LWPOLYLINE
  5
6AE
100
AcDbEntity
  8
RACCORDO
100
AcDbPolyline
 62
253
  6
CONTINUOUS
 90
22
 70
0
 10
33.68842519
 20
22.7725981717
 10
33.6674539354
 20
22.7985559698
 10
33.644927437
 20
22.8248811045
 10
33.6207810059
 20
22.8514810529
 10
33.5950560373
 20
22.8781532029
 10
33.5675945995
 20
22.9049006833
 10
33.5380077805
 20
22.9318988872
 10
33.50621843
 20
22.9589894785
 10
33.4721443975
 20
22.9860090543
 10
33.435337494
 20
23.013038512
 10
33.3956959261
 20
23.0398483228
 10
33.3531458897
 20
23.0661758321
 10
33.3072401086
 20
23.0919405884
 10
33.257883854
 20
23.1168076899
 10
33.205036535
 20
23.1403972567
 10
33.1483179011
 20
23.1624304627
 10
33.0871727042
 20
23.1825969824
 10
33.0221470327
 20
23.2001744552
 10
32.9546121737
 20
23.2143863675
 10
32.8851695168
 20
23.2248540088
 10
32.8135866289
 20
23.2313652412
 10
32.7400927849
 20
23.2336056871
  0
LWPOLYLINE
  5
6AF
100
AcDbEntity
  8
RACCORDO
100
AcDbPolyline
 62
7
  6
CONTINUOUS
 90
10
 70
0
 10
34.254541426
 20
23.024597243
 10
34.2648760965
 20
22.9997560773
 10
34.2743250512
 20
22.9742643494
 10
34.2828421822
 20
22.9481501225
 10
34.29036466
 20
22.9215093958
 10
34.296869795
 20
22.8943125503
 10
34.3023485826
 20
22.8663979914
 10
34.3067416425
 20
22.8377351962
 10
34.3099661642
 20
22.8084313152
 10
34.3119543223
 20
22.7785332633
  0
LWPOLYLINE
  5
6B0
100
AcDbEntity
  8
RACCORDO
100
AcDbPolyline
 62
253
  6
CONTINUOUS
 90
7
 70
0
 10
34.1547042512
 20
22.9654240244
 10
34.165156794
 20
22.9369208802
 10
34.1740627777
 20
22.9073403943
 10
34.1814209162
 20
22.8766859466
 10
34.1872298902
 20
22.8449608478
 10
34.1914883467
 20
22.812168334
 10
34.1941948999
 20
22.7783115631
  0
LWPOLYLINE
  5
6B1
100
AcDbEntity
  8
RACCORDO
100
AcDbPolyline
 62
7
  6
CONTINUOUS
 90
19
 70
0
 10
43.0068221492
 20
-3.4889754726
 10
43.0084023081
 20
-3.4935895914
 10
43.0121710085
 20
-3.4981068429
 10
43.0181282506
 20
-3.5025272271
 10
43.0263852643
 20
-3.5068926418
 10
43.0368308196
 20
-3.5111611893
 10
43.0491312267
 20
-3.5152071756
 10
43.0632881604
 20
-3.5190079955
 10
43.0792999458
 20
-3.5225862542
 10
43.0968278685
 20
-3.525884074
 10
43.1158664799
 20
-3.5288987768
 10
43.1364212285
 20
-3.5316330407
 10
43.1581697464
 20
-3.534037022
 10
43.1812520331
 20
-3.5361116955
 10
43.2055280889
 20
-3.5378560864
 10
43.2302555463
 20
-3.539217426
 10
43.2551869495
 20
-3.5401781246
 10
43.2805697544
 20
-3.5407557719
 10
43.3064039609
 20
-3.5409503678
  0
LINE
  5
6B2
100
AcDbEntity
  8
RACCORDO
100
AcDbLine
 62
7
  6
CONTINUOUS
 10
42.9970219722
 20
-3.3822560852
 11
43.0068221492
 21
-3.4889754726
  0
LINE
  5
6B3
100
AcDbEntity
  8
RACCORDO
100
AcDbLine
 62
7
  6
CONTINUOUS
 10
43.0068221492
 20
3.7244633023
 11
42.9970219722
 21
3.6177439148
  0
LWPOLYLINE
  5
6B4
100
AcDbEntity
  8
RACCORDO
100
AcDbPolyline
 62
253
  6
CONTINUOUS
 90
16
 70
0
 10
34.1529834655
 20
-22.7292957731
 10
34.1327721214
 20
-22.7662216958
 10
34.1104494167
 20
-22.801180432
 10
34.0860154107
 20
-22.8341749126
 10
34.0593068029
 20
-22.865310224
 10
34.0304869539
 20
-22.8944846525
 10
34.0000458219
 20
-22.9213867996
 10
33.9680337575
 20
-22.9459542594
 10
33.9344002062
 20
-22.9682410507
 10
33.8994836552
 20
-22.9881051799
 10
33.8633095873
 20
-23.0055496104
 10
33.8258521587
 20
-23.020555804
 10
33.7873727922
 20
-23.0329460334
 10
33.7479584558
 20
-23.0426533568
 10
33.7075216882
 20
-23.049722834
 10
33.6660622275
 20
-23.0541427609
  0
LWPOLYLINE
  5
6B5
100
AcDbEntity
  8
0
100
AcDbPolyline
 62
7
  6
CONTINUOUS
 90
13
 70
0
 10
32.8568530426
 20
31.0044972863
 10
32.9031761287
 20
30.9569591664
 10
32.9545533806
 20
30.9120496679
 10
33.0109847983
 20
30.8697687907
 10
33.0730700855
 20
30.8295352428
 10
33.1402095386
 20
30.7919303163
 10
33.210604046
 20
30.7586978876
 10
33.2840010038
 20
30.7301161671
 10
33.360653016
 20
30.7059069444
 10
33.4395187836
 20
30.6869794649
 10
33.5202512071
 20
30.6736368104
 10
33.603197386
 20
30.665575899
 10
33.6883573204
 20
30.6627967308
  0
LWPOLYLINE
  5
6B6
100
AcDbEntity
  8
0
100
AcDbPolyline
 62
7
  6
CONTINUOUS
 90
13
 70
0
 10
32.2630715982
 20
30.6452636752
 10
32.1953343791
 20
30.7289705471
 10
32.1310655884
 20
30.8210484841
 10
32.070265226
 20
30.9214974864
 10
32.0121018073
 20
31.0309274554
 10
31.9574068168
 20
31.1487284896
 10
31.9086747088
 20
31.2730708842
 10
31.8661124005
 20
31.4046294868
 10
31.8295129746
 20
31.5427294498
 10
31.8007501335
 20
31.683516525
 10
31.7804484444
 20
31.8257059629
 10
31.7679833401
 20
31.970582513
 10
31.7633548204
 20
32.1181461752
  0
LINE
  5
6B7
100
AcDbEntity
  8
0
100
AcDbLine
 62
7
  6
CONTINUOUS
 10
30.0280418668
 20
32.4716709148
 11
31.7572298668
 21
30.1183699148
  0
LINE
  5
6B8
100
AcDbEntity
  8
0
100
AcDbLine
 62
7
  6
CONTINUOUS
 10
30.8588818668
 20
30.1183699148
 11
29.5281758668
 21
31.9804779148
  0
LWPOLYLINE
  5
6B9
100
AcDbEntity
  8
RACCORDO
100
AcDbPolyline
 62
7
  6
CONTINUOUS
 90
19
 70
0
 10
46.8751470991
 20
3.8692158084
 10
46.8710714183
 20
3.8766783676
 10
46.8635279692
 20
3.8839790155
 10
46.8525167518
 20
3.891117752
 10
46.8378500637
 20
3.8981632106
 10
46.8197156073
 20
3.9050467578
 10
46.7986764901
 20
3.9115624936
 10
46.7747521678
 20
3.9176697293
 10
46.7479231847
 20
3.9234091535
 10
46.7186942812
 20
3.9286969317
 10
46.6870499336
 20
3.9335327573
 10
46.6530056656
 20
3.937916937
 10
46.617112788
 20
3.9417665556
 10
46.5791422455
 20
3.9450801778
 10
46.5393230935
 20
3.9478592391
 10
46.4988938084
 20
3.9500251306
 10
46.4582672155
 20
3.9515516495
 10
46.4170304895
 20
3.9524649987
 10
46.3751836302
 20
3.9527651782
  0
LWPOLYLINE
  5
6BA
100
AcDbEntity
  8
0
100
AcDbPolyline
 62
7
  6
CONTINUOUS
 90
13
 70
0
 10
34.5159104871
 20
33.2310401197
 10
34.4691756159
 20
33.2789487161
 10
34.4175046579
 20
33.3241433913
 10
34.3608976132
 20
33.3666241454
 10
34.2987253784
 20
33.4069678172
 10
34.2316170568
 20
33.4445975679
 10
34.1614599586
 20
33.4777828809
 10
34.0885835712
 20
33.5062195048
 10
34.0126584071
 20
33.5302116911
 10
33.9345833152
 20
33.5489416775
 10
33.8546579115
 20
33.5621368767
 10
33.7725825799
 20
33.5700698759
 10
33.6883573204
 20
33.5727406752
  0
LWPOLYLINE
  5
6BB
100
AcDbEntity
  8
0
100
AcDbPolyline
 62
7
  6
CONTINUOUS
 90
13
 70
0
 10
35.1097060426
 20
33.5910357308
 10
35.1774509052
 20
33.5073143271
 10
35.2417243505
 20
33.415225681
 10
35.3025263785
 20
33.3147697925
 10
35.3606876733
 20
33.2053371159
 10
35.4153775508
 20
33.087537197
 10
35.4641039584
 20
32.9631986726
 10
35.5066600553
 20
32.8316484182
 10
35.5432526823
 20
32.6935595584
 10
35.5720103086
 20
32.5527801031
 10
35.5923090909
 20
32.4105927225
 10
35.6047728726
 20
32.2657147466
 10
35.6094016538
 20
32.1181461752
  0
LINE
  5
6BC
100
AcDbEntity
  8
0
100
AcDbLine
 62
7
  6
CONTINUOUS
 10
37.0099428668
 20
34.1171179148
 11
38.8539408668
 21
31.2928779148
  0
LINE
  5
6BD
100
AcDbEntity
  8
0
100
AcDbLine
 62
7
  6
CONTINUOUS
 10
38.8278438668
 20
30.1183699148
 11
37.0093308668
 21
32.9117819148
  0
ARC
  5
6BE
100
AcDbEntity
  8
0
100
AcDbCircle
 62
7
  6
CONTINUOUS
 10
-36.2065088671
 20
-35.5789348188
 40
10.5000000004
100
AcDbArc
 50
184.181994732
 51
265.8180055203
  0
ARC
  5
6BF
100
AcDbEntity
  8
DRAFT
100
AcDbCircle
 62
7
  6
CONTINUOUS
 10
-36.2065088676
 20
-35.5789348196
 40
10.4737961104
100
AcDbArc
 50
184.1819942475
 51
265.8180057525
  0
ARC
  5
6C0
100
AcDbEntity
  8
RACCORDO
100
AcDbCircle
 62
253
  6
CONTINUOUS
 10
-36.2065088676
 20
-35.5789348196
 40
10.3990538137
100
AcDbArc
 50
184.1819942475
 51
265.8180057525
  0
ARC
  5
6C1
100
AcDbEntity
  8
RACCORDO
100
AcDbCircle
 62
253
  6
CONTINUOUS
 10
-36.2065088676
 20
-35.5789348196
 40
9.8997390464
100
AcDbArc
 50
184.1819942475
 51
265.8180057525
  0
ARC
  5
6C2
100
AcDbEntity
  8
RACCORDO
100
AcDbCircle
 62
253
  6
CONTINUOUS
 10
-36.2065088676
 20
-35.5789348196
 40
8.9748993522
100
AcDbArc
 50
184.1819942475
 51
265.8180057525
  0
ARC
  5
6C3
100
AcDbEntity
  8
RACCORDO
100
AcDbCircle
 62
253
  6
CONTINUOUS
 10
-36.2065088676
 20
-35.5789348196
 40
8.6760409428
100
AcDbArc
 50
184.1819942475
 51
265.8180057525
  0
ARC
  5
6C4
100
AcDbEntity
  8
RACCORDO
100
AcDbCircle
 62
253
  6
CONTINUOUS
 10
-36.2065088676
 20
-35.5789348196
 40
8.6364703937
100
AcDbArc
 50
184.1819942475
 51
265.8180057525
  0
ARC
  5
6C5
100
AcDbEntity
  8
RACCORDO
100
AcDbCircle
 62
253
  6
CONTINUOUS
 10
-36.2065088676
 20
-35.5789348196
 40
8.3376119843
100
AcDbArc
 50
184.1819942475
 51
265.8180057525
  0
ARC
  5
6C6
100
AcDbEntity
  8
RACCORDO
100
AcDbCircle
 62
253
  6
CONTINUOUS
 10
-36.2065088676
 20
-35.5789348196
 40
6.8297193088
100
AcDbArc
 50
184.1819942475
 51
265.8180057525
  0
ARC
  5
6C7
100
AcDbEntity
  8
RACCORDO
100
AcDbCircle
 62
253
  6
CONTINUOUS
 10
-36.2065088676
 20
-35.5789348196
 40
6.5297650002
100
AcDbArc
 50
184.1819942475
 51
265.8180057525
  0
ARC
  5
6C8
100
AcDbEntity
  8
RACCORDO
100
AcDbCircle
 62
253
  6
CONTINUOUS
 10
-36.2065088676
 20
-35.5789348196
 40
6.517150432
100
AcDbArc
 50
184.1819942475
 51
265.8180057525
  0
ARC
  5
6C9
100
AcDbEntity
  8
RACCORDO
100
AcDbCircle
 62
253
  6
CONTINUOUS
 10
-36.2065088676
 20
-35.5789348196
 40
5.5173027369
100
AcDbArc
 50
184.1819942475
 51
265.8180057525
  0
CIRCLE
  5
6CA
100
AcDbEntity
  8
RACCORDO
100
AcDbCircle
 62
253
  6
CONTINUOUS
 10
-18.5098301332
 20
-31.8822560852
 40
4.25
  0
CIRCLE
  5
6CB
100
AcDbEntity
  8
RACCORDO
100
AcDbCircle
 62
7
  6
CONTINUOUS
 10
-18.5098301332
 20
-31.8822560852
 40
3.75
  0
ARC
  5
6CC
100
AcDbEntity
  8
ASSI
100
AcDbCircle
 62
7
  6
CONTINUOUS
 10
-5.0922741332
 20
-33.8822560852
 40
2.5499986575
100
AcDbArc
 50
87.7525289614
 51
272.247470793
  0
ARC
  5
6CD
100
AcDbEntity
  8
ASSI
100
AcDbCircle
 62
7
  6
CONTINUOUS
 10
-9.4773841332
 20
-33.8822560852
 40
2.5499985399
100
AcDbArc
 50
87.7525290943
 51
272.2474708964
  0
ARC
  5
6CE
100
AcDbEntity
  8
0
100
AcDbCircle
 62
7
  6
CONTINUOUS
 10
-0.5891871332
 20
-38.8283490852
 40
2.3390187052
100
AcDbArc
 50
47.2312712626
 51
84.2012841963
  0
ARC
  5
6CF
100
AcDbEntity
  8
ASSI
100
AcDbCircle
 62
7
  6
CONTINUOUS
 10
-9.4773841332
 20
-33.8822560852
 40
1.7999999246
100
AcDbArc
 50
86.8152613297
 51
269.5058233384
  0
ARC
  5
6D0
100
AcDbEntity
  8
ASSI
100
AcDbCircle
 62
7
  6
CONTINUOUS
 10
-5.0922741332
 20
-33.8822560852
 40
1.7999999246
100
AcDbArc
 50
86.8152613297
 51
167.9752999293
  0
ARC
  5
6D1
100
AcDbEntity
  8
ASSI
100
AcDbCircle
 62
7
  6
CONTINUOUS
 10
-5.0922741332
 20
-33.8822560852
 40
1.7999968808
100
AcDbArc
 50
192.0247203293
 51
273.1847445565
  0
ARC
  5
6D2
100
AcDbEntity
  8
RACCORDO
100
AcDbCircle
 62
253
  6
CONTINUOUS
 10
-34.6458214404
 20
-22.5118751722
 40
1.2437138263
100
AcDbArc
 50
182.6023827825
 51
266.0726712916
  0
ARC
  5
6D3
100
AcDbEntity
  8
DRAFT
100
AcDbCircle
 62
7
  6
CONTINUOUS
 10
-33.7598301332
 20
-21.7822560852
 40
1.2
100
AcDbArc
 50
180.0
 51
270.0
  0
ARC
  5
6D4
100
AcDbEntity
  8
RACCORDO
100
AcDbCircle
 62
253
  6
CONTINUOUS
 10
-34.6458214404
 20
-22.5118751722
 40
0.7437899788
100
AcDbArc
 50
182.6023827825
 51
266.0726712916
  0
ARC
  5
6D5
100
AcDbEntity
  8
0
100
AcDbCircle
 62
7
  6
CONTINUOUS
 10
-24.7598301332
 20
-26.7322560852
 40
0.3064577248
100
AcDbArc
 50
195.0
 51
345.0
  0
ARC
  5
6D6
100
AcDbEntity
  8
0
100
AcDbCircle
 62
7
  6
CONTINUOUS
 10
-21.2598301332
 20
-26.7322560852
 40
0.3064577248
100
AcDbArc
 50
195.0
 51
345.0
  0
ARC
  5
6D7
100
AcDbEntity
  8
0
100
AcDbCircle
 62
7
  6
CONTINUOUS
 10
-21.2598301332
 20
-26.7322560852
 40
0.3
100
AcDbArc
 50
195.0
 51
345.0
  0
ARC
  5
6D8
100
AcDbEntity
  8
0
100
AcDbCircle
 62
7
  6
CONTINUOUS
 10
-24.7598301332
 20
-26.7322560852
 40
0.3
100
AcDbArc
 50
195.0
 51
345.0
  0
ARC
  5
6D9
100
AcDbEntity
  8
0
100
AcDbCircle
 62
7
  6
CONTINUOUS
 10
-453.0098301618
 20
0.1177439168
 40
500.000000032
100
AcDbArc
 50
355.8180057566
 51
4.1819942376
  0
ARC
  5
6DA
100
AcDbEntity
  8
DRAFT
100
AcDbCircle
 62
7
  6
CONTINUOUS
 10
-453.0098301332
 20
0.1177439148
 40
499.9737961104
100
AcDbArc
 50
0.4010947529
 51
4.1819942475
  0
ARC
  5
6DB
100
AcDbEntity
  8
DRAFT
100
AcDbCircle
 62
7
  6
CONTINUOUS
 10
-453.0098301332
 20
0.1177439148
 40
499.9737961104
100
AcDbArc
 50
355.8180057525
 51
359.5989052471
  0
ARC
  5
6DC
100
AcDbEntity
  8
RACCORDO
100
AcDbCircle
 62
253
  6
CONTINUOUS
 10
-453.0098301332
 20
0.1177439148
 40
499.8990538137
100
AcDbArc
 50
355.8180057525
 51
359.5700221427
  0
ARC
  5
6DD
100
AcDbEntity
  8
RACCORDO
100
AcDbCircle
 62
253
  6
CONTINUOUS
 10
-453.0098301332
 20
0.1177439148
 40
499.8990538137
100
AcDbArc
 50
0.4299778573
 51
4.1819942475
  0
ARC
  5
6DE
100
AcDbEntity
  8
RACCORDO
100
AcDbCircle
 62
253
  6
CONTINUOUS
 10
-464.2598301332
 20
0.1177439148
 40
499.6437138263
100
AcDbArc
 50
357.3976172175
 51
2.6023827825
  0
ARC
  5
6DF
100
AcDbEntity
  8
DRAFT
100
AcDbCircle
 62
7
  6
CONTINUOUS
 10
-453.0098301332
 20
0.1177439148
 40
499.5
100
AcDbArc
 50
359.5985247862
 51
0.4014752138
  0
ARC
  5
6E0
100
AcDbEntity
  8
RACCORDO
100
AcDbCircle
 62
253
  6
CONTINUOUS
 10
-453.0098301332
 20
0.1177439148
 40
499.3997390464
100
AcDbArc
 50
0.4399936068
 51
4.1819942475
  0
ARC
  5
6E1
100
AcDbEntity
  8
RACCORDO
100
AcDbCircle
 62
253
  6
CONTINUOUS
 10
-453.0098301332
 20
0.1177439148
 40
499.3997390464
100
AcDbArc
 50
355.8180057525
 51
359.5600063932
  0
ARC
  5
6E2
100
AcDbEntity
  8
RACCORDO
100
AcDbCircle
 62
253
  6
CONTINUOUS
 10
-464.2598301332
 20
0.1177439148
 40
499.1437899788
100
AcDbArc
 50
357.3976172175
 51
2.6023827825
  0
ARC
  5
6E3
100
AcDbEntity
  8
RACCORDO
100
AcDbCircle
 62
253
  6
CONTINUOUS
 10
-453.0098301332
 20
0.1177439148
 40
498.4748993522
100
AcDbArc
 50
0.44080996
 51
4.1819942475
  0
ARC
  5
6E4
100
AcDbEntity
  8
RACCORDO
100
AcDbCircle
 62
253
  6
CONTINUOUS
 10
-453.0098301332
 20
0.1177439148
 40
498.4748993522
100
AcDbArc
 50
355.8180057525
 51
359.55919004
  0
ARC
  5
6E5
100
AcDbEntity
  8
RACCORDO
100
AcDbCircle
 62
253
  6
CONTINUOUS
 10
-453.0098301332
 20
0.1177439148
 40
498.1760409428
100
AcDbArc
 50
0.4355206224
 51
4.1819942475
  0
ARC
  5
6E6
100
AcDbEntity
  8
RACCORDO
100
AcDbCircle
 62
253
  6
CONTINUOUS
 10
-453.0098301332
 20
0.1177439148
 40
498.1760409428
100
AcDbArc
 50
355.8180057525
 51
359.5644793776
  0
ARC
  5
6E7
100
AcDbEntity
  8
RACCORDO
100
AcDbCircle
 62
253
  6
CONTINUOUS
 10
-453.0098301332
 20
0.1177439148
 40
498.1364703937
100
AcDbArc
 50
0.4263819186
 51
4.1819942475
  0
ARC
  5
6E8
100
AcDbEntity
  8
RACCORDO
100
AcDbCircle
 62
253
  6
CONTINUOUS
 10
-453.0098301332
 20
0.1177439148
 40
498.1364703937
100
AcDbArc
 50
355.8180057525
 51
359.5736180814
  0
ARC
  5
6E9
100
AcDbEntity
  8
RACCORDO
100
AcDbCircle
 62
253
  6
CONTINUOUS
 10
-453.0098301332
 20
0.1177439148
 40
497.8376119843
100
AcDbArc
 50
355.8180057525
 51
359.5789196659
  0
ARC
  5
6EA
100
AcDbEntity
  8
RACCORDO
100
AcDbCircle
 62
253
  6
CONTINUOUS
 10
-453.0098301332
 20
0.1177439148
 40
497.8376119843
100
AcDbArc
 50
0.4210803341
 51
4.1819942475
  0
ARC
  5
6EB
100
AcDbEntity
  8
RACCORDO
100
AcDbCircle
 62
253
  6
CONTINUOUS
 10
-453.0098301332
 20
0.1177439148
 40
496.3297193088
100
AcDbArc
 50
355.8180057525
 51
359.5776403642
  0
ARC
  5
6EC
100
AcDbEntity
  8
RACCORDO
100
AcDbCircle
 62
253
  6
CONTINUOUS
 10
-453.0098301332
 20
0.1177439148
 40
496.3297193088
100
AcDbArc
 50
0.4223596358
 51
4.1819942475
  0
ARC
  5
6ED
100
AcDbEntity
  8
RACCORDO
100
AcDbCircle
 62
253
  6
CONTINUOUS
 10
-453.0098301332
 20
0.1177439148
 40
496.0297650002
100
AcDbArc
 50
355.8180057525
 51
359.5833886707
  0
ARC
  5
6EE
100
AcDbEntity
  8
RACCORDO
100
AcDbCircle
 62
253
  6
CONTINUOUS
 10
-453.0098301332
 20
0.1177439148
 40
496.0297650002
100
AcDbArc
 50
0.4166113293
 51
4.1819942475
  0
ARC
  5
6EF
100
AcDbEntity
  8
DRAFT
100
AcDbCircle
 62
7
  6
CONTINUOUS
 10
-453.0098301332
 20
0.1177439148
 40
496.0192005714
100
AcDbArc
 50
359.5957073996
 51
0.4042926004
  0
ARC
  5
6F0
100
AcDbEntity
  8
RACCORDO
100
AcDbCircle
 62
253
  6
CONTINUOUS
 10
-453.0098301332
 20
0.1177439148
 40
496.017150432
100
AcDbArc
 50
355.8180057525
 51
4.1819942475
  0
ARC
  5
6F1
100
AcDbEntity
  8
RACCORDO
100
AcDbCircle
 62
253
  6
CONTINUOUS
 10
-453.0098301332
 20
0.1177439148
 40
495.0173027369
100
AcDbArc
 50
355.8180057525
 51
4.1819942475
  0
ARC
  5
6F2
100
AcDbEntity
  8
0
100
AcDbCircle
 62
7
  6
CONTINUOUS
 10
-36.2065088671
 20
35.8144226484
 40
10.5000000004
100
AcDbArc
 50
94.1819944674
 51
175.8180061972
  0
ARC
  5
6F3
100
AcDbEntity
  8
DRAFT
100
AcDbCircle
 62
7
  6
CONTINUOUS
 10
-36.2065088676
 20
35.8144226493
 40
10.4737961104
100
AcDbArc
 50
94.1819942475
 51
175.8180057525
  0
ARC
  5
6F4
100
AcDbEntity
  8
RACCORDO
100
AcDbCircle
 62
253
  6
CONTINUOUS
 10
-36.2065088676
 20
35.8144226493
 40
10.3990538137
100
AcDbArc
 50
94.1819942475
 51
175.8180057525
  0
ARC
  5
6F5
100
AcDbEntity
  8
RACCORDO
100
AcDbCircle
 62
253
  6
CONTINUOUS
 10
-36.2065088676
 20
35.8144226493
 40
9.8997390464
100
AcDbArc
 50
94.1819942475
 51
175.8180057525
  0
ARC
  5
6F6
100
AcDbEntity
  8
RACCORDO
100
AcDbCircle
 62
253
  6
CONTINUOUS
 10
-36.2065088676
 20
35.8144226493
 40
8.9748993522
100
AcDbArc
 50
94.1819942475
 51
175.8180057525
  0
ARC
  5
6F7
100
AcDbEntity
  8
RACCORDO
100
AcDbCircle
 62
253
  6
CONTINUOUS
 10
-36.2065088676
 20
35.8144226493
 40
8.6760409428
100
AcDbArc
 50
94.1819942475
 51
175.8180057525
  0
ARC
  5
6F8
100
AcDbEntity
  8
RACCORDO
100
AcDbCircle
 62
253
  6
CONTINUOUS
 10
-36.2065088676
 20
35.8144226493
 40
8.6364703937
100
AcDbArc
 50
94.1819942475
 51
175.8180057525
  0
ARC
  5
6F9
100
AcDbEntity
  8
RACCORDO
100
AcDbCircle
 62
253
  6
CONTINUOUS
 10
-36.2065088676
 20
35.8144226493
 40
8.3376119843
100
AcDbArc
 50
94.1819942475
 51
175.8180057525
  0
ARC
  5
6FA
100
AcDbEntity
  8
RACCORDO
100
AcDbCircle
 62
253
  6
CONTINUOUS
 10
-36.2065088676
 20
35.8144226493
 40
6.8297193088
100
AcDbArc
 50
94.1819942475
 51
175.8180057525
  0
ARC
  5
6FB
100
AcDbEntity
  8
RACCORDO
100
AcDbCircle
 62
253
  6
CONTINUOUS
 10
-36.2065088676
 20
35.8144226493
 40
6.5297650002
100
AcDbArc
 50
94.1819942475
 51
175.8180057525
  0
ARC
  5
6FC
100
AcDbEntity
  8
RACCORDO
100
AcDbCircle
 62
253
  6
CONTINUOUS
 10
-36.2065088676
 20
35.8144226493
 40
6.517150432
100
AcDbArc
 50
94.1819942475
 51
175.8180057525
  0
ARC
  5
6FD
100
AcDbEntity
  8
RACCORDO
100
AcDbCircle
 62
253
  6
CONTINUOUS
 10
-36.2065088676
 20
35.8144226493
 40
5.5173027369
100
AcDbArc
 50
94.1819942475
 51
175.8180057525
  0
CIRCLE
  5
6FE
100
AcDbEntity
  8
RACCORDO
100
AcDbCircle
 62
253
  6
CONTINUOUS
 10
-18.5098301332
 20
32.1177439148
 40
4.25
  0
CIRCLE
  5
6FF
100
AcDbEntity
  8
RACCORDO
100
AcDbCircle
 62
7
  6
CONTINUOUS
 10
-18.5098301332
 20
32.1177439148
 40
3.75
  0
ARC
  5
700
100
AcDbEntity
  8
RACCORDO
100
AcDbCircle
 62
253
  6
CONTINUOUS
 10
-34.6458214404
 20
22.7473630019
 40
1.2437138263
100
AcDbArc
 50
93.9273287084
 51
177.3976172175
  0
ARC
  5
701
100
AcDbEntity
  8
DRAFT
100
AcDbCircle
 62
7
  6
CONTINUOUS
 10
-33.7598301332
 20
22.0177439148
 40
1.2
100
AcDbArc
 50
90.0
 51
180.0
  0
ARC
  5
702
100
AcDbEntity
  8
RACCORDO
100
AcDbCircle
 62
253
  6
CONTINUOUS
 10
-34.6458214404
 20
22.7473630019
 40
0.7437899788
100
AcDbArc
 50
93.9273287084
 51
177.3976172175
  0
ARC
  5
703
100
AcDbEntity
  8
0
100
AcDbCircle
 62
7
  6
CONTINUOUS
 10
-21.2598301332
 20
26.9677439148
 40
0.3064577248
100
AcDbArc
 50
15.0
 51
165.0
  0
ARC
  5
704
100
AcDbEntity
  8
0
100
AcDbCircle
 62
7
  6
CONTINUOUS
 10
-24.7598301332
 20
26.9677439148
 40
0.3064577248
100
AcDbArc
 50
15.0
 51
165.0
  0
ARC
  5
705
100
AcDbEntity
  8
0
100
AcDbCircle
 62
7
  6
CONTINUOUS
 10
-24.7598301332
 20
26.9677439148
 40
0.3
100
AcDbArc
 50
15.0
 51
165.0
  0
ARC
  5
706
100
AcDbEntity
  8
0
100
AcDbCircle
 62
7
  6
CONTINUOUS
 10
-21.2598301332
 20
26.9677439148
 40
0.3
100
AcDbArc
 50
15.0
 51
165.0
  0
ARC
  5
707
100
AcDbEntity
  8
0
100
AcDbCircle
 62
7
  6
CONTINUOUS
 10
-0.5098301333
 20
-452.382256083
 40
499.9999999978
100
AcDbArc
 50
85.8180057476
 51
94.1819942521
  0
ARC
  5
708
100
AcDbEntity
  8
DRAFT
100
AcDbCircle
 62
7
  6
CONTINUOUS
 10
-0.5098301332
 20
-452.3822560852
 40
499.9737961104
100
AcDbArc
 50
85.8180057525
 51
94.1819942475
  0
ARC
  5
709
100
AcDbEntity
  8
RACCORDO
100
AcDbCircle
 62
253
  6
CONTINUOUS
 10
-0.5098301332
 20
-452.3822560852
 40
499.8990538137
100
AcDbArc
 50
85.8180057525
 51
94.1819942475
  0
ARC
  5
70A
100
AcDbEntity
  8
RACCORDO
100
AcDbCircle
 62
253
  6
CONTINUOUS
 10
-0.5098301332
 20
-474.4822560852
 40
499.6437138263
100
AcDbArc
 50
86.0726712916
 51
86.0980934313
  0
ARC
  5
70B
100
AcDbEntity
  8
RACCORDO
100
AcDbCircle
 62
253
  6
CONTINUOUS
 10
-0.5098301332
 20
-474.4822560852
 40
499.6437138263
100
AcDbArc
 50
93.9019065687
 51
93.9273287084
  0
ARC
  5
70C
100
AcDbEntity
  8
RACCORDO
100
AcDbCircle
 62
253
  6
CONTINUOUS
 10
-0.5098301332
 20
-452.3822560852
 40
499.3997390464
100
AcDbArc
 50
85.8180057525
 51
94.1819942475
  0
ARC
  5
70D
100
AcDbEntity
  8
RACCORDO
100
AcDbCircle
 62
253
  6
CONTINUOUS
 10
-0.5098301332
 20
-474.4822560852
 40
499.1437899788
100
AcDbArc
 50
93.905820635
 51
93.9273287084
  0
ARC
  5
70E
100
AcDbEntity
  8
RACCORDO
100
AcDbCircle
 62
253
  6
CONTINUOUS
 10
-0.5098301332
 20
-474.4822560852
 40
499.1437899788
100
AcDbArc
 50
86.0726712916
 51
86.094179365
  0
ARC
  5
70F
100
AcDbEntity
  8
RACCORDO
100
AcDbCircle
 62
253
  6
CONTINUOUS
 10
-0.5098301332
 20
-452.3822560852
 40
498.4748993522
100
AcDbArc
 50
85.8180057525
 51
94.1819942475
  0
ARC
  5
710
100
AcDbEntity
  8
RACCORDO
100
AcDbCircle
 62
253
  6
CONTINUOUS
 10
-0.5098301332
 20
-452.3822560852
 40
498.1760409428
100
AcDbArc
 50
85.8180057525
 51
94.1819942475
  0
ARC
  5
711
100
AcDbEntity
  8
RACCORDO
100
AcDbCircle
 62
253
  6
CONTINUOUS
 10
-0.5098301332
 20
-452.3822560852
 40
498.1364703937
100
AcDbArc
 50
85.8180057525
 51
94.1819942475
  0
ARC
  5
712
100
AcDbEntity
  8
RACCORDO
100
AcDbCircle
 62
253
  6
CONTINUOUS
 10
-0.5098301332
 20
-452.3822560852
 40
497.8376119843
100
AcDbArc
 50
85.8180057525
 51
94.1819942475
  0
ARC
  5
713
100
AcDbEntity
  8
RACCORDO
100
AcDbCircle
 62
253
  6
CONTINUOUS
 10
-0.5098301332
 20
-452.3822560852
 40
496.3297193088
100
AcDbArc
 50
85.8180057525
 51
94.1819942475
  0
ARC
  5
714
100
AcDbEntity
  8
RACCORDO
100
AcDbCircle
 62
253
  6
CONTINUOUS
 10
-0.5098301332
 20
-452.3822560852
 40
496.0297650002
100
AcDbArc
 50
85.8180057525
 51
94.1819942475
  0
ARC
  5
715
100
AcDbEntity
  8
RACCORDO
100
AcDbCircle
 62
253
  6
CONTINUOUS
 10
-0.5098301332
 20
-452.3822560852
 40
496.017150432
100
AcDbArc
 50
85.8180057525
 51
94.1819942475
  0
ARC
  5
716
100
AcDbEntity
  8
RACCORDO
100
AcDbCircle
 62
253
  6
CONTINUOUS
 10
-0.5098301332
 20
-452.3822560852
 40
495.0173027369
100
AcDbArc
 50
85.8180057525
 51
94.1819942475
  0
ARC
  5
717
100
AcDbEntity
  8
0
100
AcDbCircle
 62
7
  6
CONTINUOUS
 10
-0.5098301332
 20
-33.8822560852
 40
2.6237424326
100
AcDbArc
 50
292.0885393584
 51
273.4297246723
  0
ARC
  5
718
100
AcDbEntity
  8
0
100
AcDbCircle
 62
7
  6
CONTINUOUS
 10
-0.4051081332
 20
-38.4494800852
 40
2.3109495123
100
AcDbArc
 50
45.4348886633
 51
67.5658613447
  0
CIRCLE
  5
719
100
AcDbEntity
  8
0
100
AcDbCircle
 62
7
  6
CONTINUOUS
 10
-0.5098301332
 20
-33.8822560852
 40
2.20376
  0
ARC
  5
71A
100
AcDbEntity
  8
0
100
AcDbCircle
 62
7
  6
CONTINUOUS
 10
-0.5098301332
 20
-33.8822560852
 40
1.9709567246
100
AcDbArc
 50
299.3041457634
 51
44.9957848293
  0
ARC
  5
71B
100
AcDbEntity
  8
0
100
AcDbCircle
 62
7
  6
CONTINUOUS
 10
-0.5098301332
 20
-33.8822560852
 40
1.9709563643
100
AcDbArc
 50
134.9002846268
 51
240.6958542366
  0
ARC
  5
71C
100
AcDbEntity
  8
0
100
AcDbCircle
 62
7
  6
CONTINUOUS
 10
-0.5098301332
 20
-33.8822560852
 40
1.5790921275
100
AcDbArc
 50
148.0267086216
 51
240.6958772397
  0
ARC
  5
71D
100
AcDbEntity
  8
0
100
AcDbCircle
 62
7
  6
CONTINUOUS
 10
-0.5098301332
 20
-33.8822560852
 40
1.5790919977
100
AcDbArc
 50
299.3041227603
 51
31.9732907039
  0
ARC
  5
71E
100
AcDbEntity
  8
0
100
AcDbCircle
 62
7
  6
CONTINUOUS
 10
7.4901698668
 20
-34.4222560852
 40
0.4799999985
100
AcDbArc
 50
284.477512232
 51
74.2594770322
  0
ARC
  5
71F
100
AcDbEntity
  8
0
100
AcDbCircle
 62
7
  6
CONTINUOUS
 10
7.4901698668
 20
-34.4222560852
 40
0.4799997988
100
AcDbArc
 50
193.0028837084
 51
255.5224816136
  0
ARC
  5
720
100
AcDbEntity
  8
0
100
AcDbCircle
 62
7
  6
CONTINUOUS
 10
7.4901698668
 20
-33.7622560852
 40
0.4200003869
100
AcDbArc
 50
50.0000085593
 51
73.3984661354
  0
ARC
  5
721
100
AcDbEntity
  8
0
100
AcDbCircle
 62
7
  6
CONTINUOUS
 10
7.4901698668
 20
-33.7622560852
 40
0.4199997739
100
AcDbArc
 50
106.6015587956
 51
256.2707876568
  0
ARC
  5
722
100
AcDbEntity
  8
0
100
AcDbCircle
 62
7
  6
CONTINUOUS
 10
4.7301698668
 20
-33.8822560852
 40
0.2400005268
100
AcDbArc
 50
135.0
 51
225.0
  0
ARC
  5
723
100
AcDbEntity
  8
0
100
AcDbCircle
 62
7
  6
CONTINUOUS
 10
7.4901698668
 20
-36.6422560852
 40
0.2400005268
100
AcDbArc
 50
225.0
 51
315.0
  0
ARC
  5
724
100
AcDbEntity
  8
0
100
AcDbCircle
 62
7
  6
CONTINUOUS
 10
10.2501698668
 20
-33.8822560852
 40
0.2400005268
100
AcDbArc
 50
315.0
 51
45.0
  0
ARC
  5
725
100
AcDbEntity
  8
0
100
AcDbCircle
 62
7
  6
CONTINUOUS
 10
7.4901698668
 20
-31.1222560852
 40
0.2400005268
100
AcDbArc
 50
45.0
 51
135.0
  0
ARC
  5
726
100
AcDbEntity
  8
0
100
AcDbCircle
 62
7
  6
CONTINUOUS
 10
8.5551698668
 20
-33.5222560852
 40
0.179999933
100
AcDbArc
 50
15.0951225334
 51
164.9048772555
  0
ARC
  5
727
100
AcDbEntity
  8
0
100
AcDbCircle
 62
7
  6
CONTINUOUS
 10
6.4251698668
 20
-33.5222560852
 40
0.179999933
100
AcDbArc
 50
15.0951227291
 51
164.9048774511
  0
ARC
  5
728
100
AcDbEntity
  8
0
100
AcDbCircle
 62
7
  6
CONTINUOUS
 10
8.5228028668
 20
-34.3022560852
 40
0.1200004254
100
AcDbArc
 50
164.9052676087
 51
270.0
  0
ARC
  5
729
100
AcDbEntity
  8
0
100
AcDbCircle
 62
7
  6
CONTINUOUS
 10
6.3928028668
 20
-34.3022560852
 40
0.1200004254
100
AcDbArc
 50
164.9052676867
 51
270.0
  0
ARC
  5
72A
100
AcDbEntity
  8
0
100
AcDbCircle
 62
7
  6
CONTINUOUS
 10
8.5875368668
 20
-34.3022560852
 40
0.12
100
AcDbArc
 50
270.0
 51
15.0953334413
  0
ARC
  5
72B
100
AcDbEntity
  8
0
100
AcDbCircle
 62
7
  6
CONTINUOUS
 10
8.3931698668
 20
-34.7822560852
 40
0.12
100
AcDbArc
 50
90.0
 51
180.0
  0
ARC
  5
72C
100
AcDbEntity
  8
0
100
AcDbCircle
 62
7
  6
CONTINUOUS
 10
8.7171698668
 20
-34.7822560852
 40
0.12
100
AcDbArc
 50
0.0
 51
90.0
  0
ARC
  5
72D
100
AcDbEntity
  8
0
100
AcDbCircle
 62
7
  6
CONTINUOUS
 10
7.4901698668
 20
-35.2322560852
 40
0.12
100
AcDbArc
 50
180.0
 51
360.0
  0
ARC
  5
72E
100
AcDbEntity
  8
0
100
AcDbCircle
 62
7
  6
CONTINUOUS
 10
8.7187038668
 20
-33.0722560852
 40
0.12
100
AcDbArc
 50
270.0
 51
90.0
  0
ARC
  5
72F
100
AcDbEntity
  8
0
100
AcDbCircle
 62
7
  6
CONTINUOUS
 10
6.2616358668
 20
-33.0722560852
 40
0.12
100
AcDbArc
 50
90.0
 51
270.0
  0
ARC
  5
730
100
AcDbEntity
  8
0
100
AcDbCircle
 62
7
  6
CONTINUOUS
 10
6.2631698668
 20
-34.7822560852
 40
0.12
100
AcDbArc
 50
90.0
 51
180.0
  0
ARC
  5
731
100
AcDbEntity
  8
0
100
AcDbCircle
 62
7
  6
CONTINUOUS
 10
6.5871698668
 20
-34.7822560852
 40
0.12
100
AcDbArc
 50
0.0
 51
90.0
  0
ARC
  5
732
100
AcDbEntity
  8
0
100
AcDbCircle
 62
7
  6
CONTINUOUS
 10
6.4575368668
 20
-34.3022560852
 40
0.12
100
AcDbArc
 50
270.0
 51
15.0953334413
  0
ARC
  5
733
100
AcDbEntity
  8
0
100
AcDbCircle
 62
7
  6
CONTINUOUS
 10
8.9571698668
 20
-34.7822560852
 40
0.12
100
AcDbArc
 50
180.0
 51
15.0949627667
  0
ARC
  5
734
100
AcDbEntity
  8
0
100
AcDbCircle
 62
7
  6
CONTINUOUS
 10
6.8271698668
 20
-34.7822560852
 40
0.12
100
AcDbArc
 50
180.0
 51
15.0949627667
  0
ARC
  5
735
100
AcDbEntity
  8
0
100
AcDbCircle
 62
7
  6
CONTINUOUS
 10
8.5551698668
 20
-34.1822560852
 40
0.1199994599
100
AcDbArc
 50
15.0948566532
 51
164.9051434452
  0
ARC
  5
736
100
AcDbEntity
  8
0
100
AcDbCircle
 62
7
  6
CONTINUOUS
 10
8.1531698668
 20
-34.7822560852
 40
0.1199994599
100
AcDbArc
 50
164.9051433468
 51
352.6212347096
  0
ARC
  5
737
100
AcDbEntity
  8
0
100
AcDbCircle
 62
7
  6
CONTINUOUS
 10
6.0231698668
 20
-34.7822560852
 40
0.1199994599
100
AcDbArc
 50
164.9051433468
 51
352.6212347096
  0
ARC
  5
738
100
AcDbEntity
  8
0
100
AcDbCircle
 62
7
  6
CONTINUOUS
 10
6.4251698668
 20
-34.1822560852
 40
0.1199994599
100
AcDbArc
 50
15.0948566532
 51
164.9051433468
  0
ARC
  5
739
100
AcDbEntity
  8
0
100
AcDbCircle
 62
7
  6
CONTINUOUS
 10
35.1868486008
 20
-35.5789348192
 40
10.5
100
AcDbArc
 50
274.1819944673
 51
355.8180059476
  0
ARC
  5
73A
100
AcDbEntity
  8
DRAFT
100
AcDbCircle
 62
7
  6
CONTINUOUS
 10
35.1868486013
 20
-35.5789348196
 40
10.4737961104
100
AcDbArc
 50
274.1819942475
 51
355.8180057525
  0
ARC
  5
73B
100
AcDbEntity
  8
RACCORDO
100
AcDbCircle
 62
253
  6
CONTINUOUS
 10
35.1868486013
 20
-35.5789348196
 40
10.3990538137
100
AcDbArc
 50
274.1819942475
 51
355.8180057525
  0
ARC
  5
73C
100
AcDbEntity
  8
RACCORDO
100
AcDbCircle
 62
253
  6
CONTINUOUS
 10
35.1868486013
 20
-35.5789348196
 40
9.8997390464
100
AcDbArc
 50
274.1819942475
 51
355.8180057525
  0
ARC
  5
73D
100
AcDbEntity
  8
RACCORDO
100
AcDbCircle
 62
253
  6
CONTINUOUS
 10
35.1868486013
 20
-35.5789348196
 40
8.9748993522
100
AcDbArc
 50
274.1819942475
 51
355.8180057525
  0
ARC
  5
73E
100
AcDbEntity
  8
RACCORDO
100
AcDbCircle
 62
253
  6
CONTINUOUS
 10
35.1868486013
 20
-35.5789348196
 40
8.6760409428
100
AcDbArc
 50
274.1819942475
 51
355.8180057525
  0
ARC
  5
73F
100
AcDbEntity
  8
RACCORDO
100
AcDbCircle
 62
253
  6
CONTINUOUS
 10
35.1868486013
 20
-35.5789348196
 40
8.6364703937
100
AcDbArc
 50
274.1819942475
 51
355.8180057525
  0
ARC
  5
740
100
AcDbEntity
  8
RACCORDO
100
AcDbCircle
 62
253
  6
CONTINUOUS
 10
35.1868486013
 20
-35.5789348196
 40
8.3376119843
100
AcDbArc
 50
274.1819942475
 51
355.8180057525
  0
ARC
  5
741
100
AcDbEntity
  8
RACCORDO
100
AcDbCircle
 62
253
  6
CONTINUOUS
 10
35.1868486013
 20
-35.5789348196
 40
6.8297193088
100
AcDbArc
 50
274.1819942475
 51
355.8180057525
  0
ARC
  5
742
100
AcDbEntity
  8
RACCORDO
100
AcDbCircle
 62
253
  6
CONTINUOUS
 10
35.1868486013
 20
-35.5789348196
 40
6.5297650002
100
AcDbArc
 50
274.1819942475
 51
355.8180057525
  0
ARC
  5
743
100
AcDbEntity
  8
RACCORDO
100
AcDbCircle
 62
253
  6
CONTINUOUS
 10
35.1868486013
 20
-35.5789348196
 40
6.517150432
100
AcDbArc
 50
274.1819942475
 51
355.8180057525
  0
ARC
  5
744
100
AcDbEntity
  8
RACCORDO
100
AcDbCircle
 62
253
  6
CONTINUOUS
 10
35.1868486013
 20
-35.5789348196
 40
5.5173027369
100
AcDbArc
 50
274.1819942475
 51
355.8180057525
  0
CIRCLE
  5
745
100
AcDbEntity
  8
RACCORDO
100
AcDbCircle
 62
253
  6
CONTINUOUS
 10
17.4901698668
 20
-31.8822560852
 40
4.25
  0
CIRCLE
  5
746
100
AcDbEntity
  8
RACCORDO
100
AcDbCircle
 62
7
  6
CONTINUOUS
 10
17.4901698668
 20
-31.8822560852
 40
3.75
  0
ARC
  5
747
100
AcDbEntity
  8
RACCORDO
100
AcDbCircle
 62
253
  6
CONTINUOUS
 10
33.626161174
 20
-22.5118751722
 40
1.2437138263
100
AcDbArc
 50
273.9273287084
 51
357.3976172175
  0
ARC
  5
748
100
AcDbEntity
  8
DRAFT
100
AcDbCircle
 62
7
  6
CONTINUOUS
 10
32.7401698668
 20
-21.7822560852
 40
1.2
100
AcDbArc
 50
270.0
 51
360.0
  0
ARC
  5
749
100
AcDbEntity
  8
RACCORDO
100
AcDbCircle
 62
253
  6
CONTINUOUS
 10
33.626161174
 20
-22.5118751722
 40
0.7437899788
100
AcDbArc
 50
273.9273287084
 51
357.3976172175
  0
ARC
  5
74A
100
AcDbEntity
  8
0
100
AcDbCircle
 62
7
  6
CONTINUOUS
 10
20.2401698668
 20
-26.7322560852
 40
0.3064577248
100
AcDbArc
 50
195.0
 51
345.0
  0
ARC
  5
74B
100
AcDbEntity
  8
0
100
AcDbCircle
 62
7
  6
CONTINUOUS
 10
23.7401698668
 20
-26.7322560852
 40
0.3064577248
100
AcDbArc
 50
195.0
 51
345.0
  0
ARC
  5
74C
100
AcDbEntity
  8
0
100
AcDbCircle
 62
7
  6
CONTINUOUS
 10
23.7401698668
 20
-26.7322560852
 40
0.3
100
AcDbArc
 50
195.0
 51
345.0
  0
ARC
  5
74D
100
AcDbEntity
  8
0
100
AcDbCircle
 62
7
  6
CONTINUOUS
 10
20.2401698668
 20
-26.7322560852
 40
0.3
100
AcDbArc
 50
195.0
 51
345.0
  0
ARC
  5
74E
100
AcDbEntity
  8
0
100
AcDbCircle
 62
7
  6
CONTINUOUS
 10
35.1868486008
 20
35.8144226484
 40
10.5000000004
100
AcDbArc
 50
4.1819938028
 51
85.8180055203
  0
ARC
  5
74F
100
AcDbEntity
  8
DRAFT
100
AcDbCircle
 62
7
  6
CONTINUOUS
 10
35.1868486013
 20
35.8144226493
 40
10.4737961104
100
AcDbArc
 50
4.1819942475
 51
85.8180057525
  0
ARC
  5
750
100
AcDbEntity
  8
RACCORDO
100
AcDbCircle
 62
253
  6
CONTINUOUS
 10
35.1868486013
 20
35.8144226493
 40
10.3990538137
100
AcDbArc
 50
4.1819942475
 51
85.8180057525
  0
ARC
  5
751
100
AcDbEntity
  8
RACCORDO
100
AcDbCircle
 62
253
  6
CONTINUOUS
 10
35.1868486013
 20
35.8144226493
 40
9.8997390464
100
AcDbArc
 50
4.1819942475
 51
85.8180057525
  0
ARC
  5
752
100
AcDbEntity
  8
RACCORDO
100
AcDbCircle
 62
253
  6
CONTINUOUS
 10
35.1868486013
 20
35.8144226493
 40
8.9748993522
100
AcDbArc
 50
4.1819942475
 51
85.8180057525
  0
ARC
  5
753
100
AcDbEntity
  8
RACCORDO
100
AcDbCircle
 62
253
  6
CONTINUOUS
 10
35.1868486013
 20
35.8144226493
 40
8.6760409428
100
AcDbArc
 50
4.1819942475
 51
85.8180057525
  0
ARC
  5
754
100
AcDbEntity
  8
RACCORDO
100
AcDbCircle
 62
253
  6
CONTINUOUS
 10
35.1868486013
 20
35.8144226493
 40
8.6364703937
100
AcDbArc
 50
4.1819942475
 51
85.8180057525
  0
ARC
  5
755
100
AcDbEntity
  8
RACCORDO
100
AcDbCircle
 62
253
  6
CONTINUOUS
 10
35.1868486013
 20
35.8144226493
 40
8.3376119843
100
AcDbArc
 50
4.1819942475
 51
85.8180057525
  0
ARC
  5
756
100
AcDbEntity
  8
RACCORDO
100
AcDbCircle
 62
253
  6
CONTINUOUS
 10
35.1868486013
 20
35.8144226493
 40
6.8297193088
100
AcDbArc
 50
4.1819942475
 51
85.8180057525
  0
ARC
  5
757
100
AcDbEntity
  8
RACCORDO
100
AcDbCircle
 62
253
  6
CONTINUOUS
 10
35.1868486013
 20
35.8144226493
 40
6.5297650002
100
AcDbArc
 50
4.1819942475
 51
85.8180057525
  0
ARC
  5
758
100
AcDbEntity
  8
RACCORDO
100
AcDbCircle
 62
253
  6
CONTINUOUS
 10
35.1868486013
 20
35.8144226493
 40
6.517150432
100
AcDbArc
 50
4.1819942475
 51
85.8180057525
  0
ARC
  5
759
100
AcDbEntity
  8
RACCORDO
100
AcDbCircle
 62
253
  6
CONTINUOUS
 10
35.1868486013
 20
35.8144226493
 40
5.5173027369
100
AcDbArc
 50
4.1819942475
 51
85.8180057525
  0
CIRCLE
  5
75A
100
AcDbEntity
  8
RACCORDO
100
AcDbCircle
 62
253
  6
CONTINUOUS
 10
17.4901698668
 20
32.1177439148
 40
4.25
  0
CIRCLE
  5
75B
100
AcDbEntity
  8
RACCORDO
100
AcDbCircle
 62
7
  6
CONTINUOUS
 10
17.4901698668
 20
32.1177439148
 40
3.75
  0
ARC
  5
75C
100
AcDbEntity
  8
RACCORDO
100
AcDbCircle
 62
253
  6
CONTINUOUS
 10
33.626161174
 20
22.7473630019
 40
1.2437138263
100
AcDbArc
 50
2.6023827825
 51
86.0726712916
  0
ARC
  5
75D
100
AcDbEntity
  8
DRAFT
100
AcDbCircle
 62
7
  6
CONTINUOUS
 10
32.7401698668
 20
22.0177439148
 40
1.2
100
AcDbArc
 50
0.0
 51
90.0
  0
ARC
  5
75E
100
AcDbEntity
  8
RACCORDO
100
AcDbCircle
 62
253
  6
CONTINUOUS
 10
33.626161174
 20
22.7473630019
 40
0.7437899788
100
AcDbArc
 50
2.6023827825
 51
86.0726712916
  0
ARC
  5
75F
100
AcDbEntity
  8
0
100
AcDbCircle
 62
7
  6
CONTINUOUS
 10
23.7401698668
 20
26.9677439148
 40
0.3064577248
100
AcDbArc
 50
15.0
 51
165.0
  0
ARC
  5
760
100
AcDbEntity
  8
0
100
AcDbCircle
 62
7
  6
CONTINUOUS
 10
20.2401698668
 20
26.9677439148
 40
0.3064577248
100
AcDbArc
 50
15.0
 51
165.0
  0
ARC
  5
761
100
AcDbEntity
  8
0
100
AcDbCircle
 62
7
  6
CONTINUOUS
 10
20.2401698668
 20
26.9677439148
 40
0.3
100
AcDbArc
 50
15.0
 51
165.0
  0
ARC
  5
762
100
AcDbEntity
  8
0
100
AcDbCircle
 62
7
  6
CONTINUOUS
 10
23.7401698668
 20
26.9677439148
 40
0.3
100
AcDbArc
 50
15.0
 51
165.0
  0
ARC
  5
763
100
AcDbEntity
  8
0
100
AcDbCircle
 62
7
  6
CONTINUOUS
 10
-0.5098301331
 20
452.6177439126
 40
499.9999999978
100
AcDbArc
 50
265.8180057476
 51
274.1819942521
  0
ARC
  5
764
100
AcDbEntity
  8
DRAFT
100
AcDbCircle
 62
7
  6
CONTINUOUS
 10
-0.5098301332
 20
452.6177439148
 40
499.9737961104
100
AcDbArc
 50
265.8180057525
 51
274.1819942475
  0
ARC
  5
765
100
AcDbEntity
  8
RACCORDO
100
AcDbCircle
 62
253
  6
CONTINUOUS
 10
-0.5098301332
 20
452.6177439148
 40
499.8990538137
100
AcDbArc
 50
265.8180057525
 51
274.1819942475
  0
ARC
  5
766
100
AcDbEntity
  8
RACCORDO
100
AcDbCircle
 62
253
  6
CONTINUOUS
 10
-0.5098301332
 20
474.7177439148
 40
499.6437138263
100
AcDbArc
 50
266.0726712916
 51
266.0980934313
  0
ARC
  5
767
100
AcDbEntity
  8
RACCORDO
100
AcDbCircle
 62
253
  6
CONTINUOUS
 10
-0.5098301332
 20
474.7177439148
 40
499.6437138263
100
AcDbArc
 50
273.9019065687
 51
273.9273287084
  0
ARC
  5
768
100
AcDbEntity
  8
RACCORDO
100
AcDbCircle
 62
253
  6
CONTINUOUS
 10
-0.5098301332
 20
452.6177439148
 40
499.3997390464
100
AcDbArc
 50
265.8180057525
 51
274.1819942475
  0
ARC
  5
769
100
AcDbEntity
  8
RACCORDO
100
AcDbCircle
 62
253
  6
CONTINUOUS
 10
-0.5098301332
 20
474.7177439148
 40
499.1437899788
100
AcDbArc
 50
273.905820635
 51
273.9273287084
  0
ARC
  5
76A
100
AcDbEntity
  8
RACCORDO
100
AcDbCircle
 62
253
  6
CONTINUOUS
 10
-0.5098301332
 20
474.7177439148
 40
499.1437899788
100
AcDbArc
 50
266.0726712916
 51
266.094179365
  0
ARC
  5
76B
100
AcDbEntity
  8
RACCORDO
100
AcDbCircle
 62
253
  6
CONTINUOUS
 10
-0.5098301332
 20
452.6177439148
 40
498.4748993522
100
AcDbArc
 50
265.8180057525
 51
274.1819942475
  0
ARC
  5
76C
100
AcDbEntity
  8
RACCORDO
100
AcDbCircle
 62
253
  6
CONTINUOUS
 10
-0.5098301332
 20
452.6177439148
 40
498.1760409428
100
AcDbArc
 50
265.8180057525
 51
274.1819942475
  0
ARC
  5
76D
100
AcDbEntity
  8
RACCORDO
100
AcDbCircle
 62
253
  6
CONTINUOUS
 10
-0.5098301332
 20
452.6177439148
 40
498.1364703937
100
AcDbArc
 50
265.8180057525
 51
274.1819942475
  0
ARC
  5
76E
100
AcDbEntity
  8
RACCORDO
100
AcDbCircle
 62
253
  6
CONTINUOUS
 10
-0.5098301332
 20
452.6177439148
 40
497.8376119843
100
AcDbArc
 50
265.8180057525
 51
274.1819942475
  0
ARC
  5
76F
100
AcDbEntity
  8
RACCORDO
100
AcDbCircle
 62
253
  6
CONTINUOUS
 10
-0.5098301332
 20
452.6177439148
 40
496.3297193088
100
AcDbArc
 50
265.8180057525
 51
274.1819942475
  0
ARC
  5
770
100
AcDbEntity
  8
RACCORDO
100
AcDbCircle
 62
253
  6
CONTINUOUS
 10
-0.5098301332
 20
452.6177439148
 40
496.0297650002
100
AcDbArc
 50
265.8180057525
 51
274.1819942475
  0
ARC
  5
771
100
AcDbEntity
  8
RACCORDO
100
AcDbCircle
 62
253
  6
CONTINUOUS
 10
-0.5098301332
 20
452.6177439148
 40
496.017150432
100
AcDbArc
 50
265.8180057525
 51
274.1819942475
  0
ARC
  5
772
100
AcDbEntity
  8
RACCORDO
100
AcDbCircle
 62
253
  6
CONTINUOUS
 10
-0.5098301332
 20
452.6177439148
 40
495.0173027369
100
AcDbArc
 50
265.8180057525
 51
274.1819942475
  0
ARC
  5
773
100
AcDbEntity
  8
0
100
AcDbCircle
 62
7
  6
CONTINUOUS
 10
451.9901698955
 20
0.1177439168
 40
500.000000032
100
AcDbArc
 50
175.8180057624
 51
184.1819942576
  0
ARC
  5
774
100
AcDbEntity
  8
DRAFT
100
AcDbCircle
 62
7
  6
CONTINUOUS
 10
451.9901698668
 20
0.1177439148
 40
499.9737961104
100
AcDbArc
 50
175.8180057525
 51
179.5989052471
  0
ARC
  5
775
100
AcDbEntity
  8
DRAFT
100
AcDbCircle
 62
7
  6
CONTINUOUS
 10
451.9901698668
 20
0.1177439148
 40
499.9737961104
100
AcDbArc
 50
180.4010947529
 51
184.1819942475
  0
ARC
  5
776
100
AcDbEntity
  8
RACCORDO
100
AcDbCircle
 62
253
  6
CONTINUOUS
 10
451.9901698668
 20
0.1177439148
 40
499.8990538137
100
AcDbArc
 50
180.4299778573
 51
184.1819942475
  0
ARC
  5
777
100
AcDbEntity
  8
RACCORDO
100
AcDbCircle
 62
253
  6
CONTINUOUS
 10
451.9901698668
 20
0.1177439148
 40
499.8990538137
100
AcDbArc
 50
175.8180057525
 51
179.5700221427
  0
ARC
  5
778
100
AcDbEntity
  8
RACCORDO
100
AcDbCircle
 62
253
  6
CONTINUOUS
 10
463.2401698668
 20
0.1177439148
 40
499.6437138263
100
AcDbArc
 50
177.3976172175
 51
182.6023827825
  0
ARC
  5
779
100
AcDbEntity
  8
DRAFT
100
AcDbCircle
 62
7
  6
CONTINUOUS
 10
451.9901698668
 20
0.1177439148
 40
499.5
100
AcDbArc
 50
179.5985247862
 51
180.4014752138
  0
ARC
  5
77A
100
AcDbEntity
  8
RACCORDO
100
AcDbCircle
 62
253
  6
CONTINUOUS
 10
451.9901698668
 20
0.1177439148
 40
499.3997390464
100
AcDbArc
 50
175.8180057525
 51
179.5600063932
  0
ARC
  5
77B
100
AcDbEntity
  8
RACCORDO
100
AcDbCircle
 62
253
  6
CONTINUOUS
 10
451.9901698668
 20
0.1177439148
 40
499.3997390464
100
AcDbArc
 50
180.4399936068
 51
184.1819942475
  0
ARC
  5
77C
100
AcDbEntity
  8
RACCORDO
100
AcDbCircle
 62
253
  6
CONTINUOUS
 10
463.2401698668
 20
0.1177439148
 40
499.1437899788
100
AcDbArc
 50
177.3976172175
 51
182.6023827825
  0
ARC
  5
77D
100
AcDbEntity
  8
RACCORDO
100
AcDbCircle
 62
253
  6
CONTINUOUS
 10
451.9901698668
 20
0.1177439148
 40
498.4748993522
100
AcDbArc
 50
175.8180057525
 51
179.55919004
  0
ARC
  5
77E
100
AcDbEntity
  8
RACCORDO
100
AcDbCircle
 62
253
  6
CONTINUOUS
 10
451.9901698668
 20
0.1177439148
 40
498.4748993522
100
AcDbArc
 50
180.44080996
 51
184.1819942475
  0
ARC
  5
77F
100
AcDbEntity
  8
RACCORDO
100
AcDbCircle
 62
253
  6
CONTINUOUS
 10
451.9901698668
 20
0.1177439148
 40
498.1760409428
100
AcDbArc
 50
175.8180057525
 51
179.5644793776
  0
ARC
  5
780
100
AcDbEntity
  8
RACCORDO
100
AcDbCircle
 62
253
  6
CONTINUOUS
 10
451.9901698668
 20
0.1177439148
 40
498.1760409428
100
AcDbArc
 50
180.4355206224
 51
184.1819942475
  0
ARC
  5
781
100
AcDbEntity
  8
RACCORDO
100
AcDbCircle
 62
253
  6
CONTINUOUS
 10
451.9901698668
 20
0.1177439148
 40
498.1364703937
100
AcDbArc
 50
175.8180057525
 51
179.5736180814
  0
ARC
  5
782
100
AcDbEntity
  8
RACCORDO
100
AcDbCircle
 62
253
  6
CONTINUOUS
 10
451.9901698668
 20
0.1177439148
 40
498.1364703937
100
AcDbArc
 50
180.4263819186
 51
184.1819942475
  0
ARC
  5
783
100
AcDbEntity
  8
RACCORDO
100
AcDbCircle
 62
253
  6
CONTINUOUS
 10
451.9901698668
 20
0.1177439148
 40
497.8376119843
100
AcDbArc
 50
180.4210803341
 51
184.1819942475
  0
ARC
  5
784
100
AcDbEntity
  8
RACCORDO
100
AcDbCircle
 62
253
  6
CONTINUOUS
 10
451.9901698668
 20
0.1177439148
 40
497.8376119843
100
AcDbArc
 50
175.8180057525
 51
179.5789196659
  0
ARC
  5
785
100
AcDbEntity
  8
RACCORDO
100
AcDbCircle
 62
253
  6
CONTINUOUS
 10
451.9901698668
 20
0.1177439148
 40
496.3297193088
100
AcDbArc
 50
180.4223596358
 51
184.1819942475
  0
ARC
  5
786
100
AcDbEntity
  8
RACCORDO
100
AcDbCircle
 62
253
  6
CONTINUOUS
 10
451.9901698668
 20
0.1177439148
 40
496.3297193088
100
AcDbArc
 50
175.8180057525
 51
179.5776403642
  0
ARC
  5
787
100
AcDbEntity
  8
RACCORDO
100
AcDbCircle
 62
253
  6
CONTINUOUS
 10
451.9901698668
 20
0.1177439148
 40
496.0297650002
100
AcDbArc
 50
180.4166113293
 51
184.1819942475
  0
ARC
  5
788
100
AcDbEntity
  8
RACCORDO
100
AcDbCircle
 62
253
  6
CONTINUOUS
 10
451.9901698668
 20
0.1177439148
 40
496.0297650002
100
AcDbArc
 50
175.8180057525
 51
179.5833886707
  0
ARC
  5
789
100
AcDbEntity
  8
DRAFT
100
AcDbCircle
 62
7
  6
CONTINUOUS
 10
451.9901698668
 20
0.1177439148
 40
496.0192005714
100
AcDbArc
 50
179.5957073996
 51
180.4042926004
  0
ARC
  5
78A
100
AcDbEntity
  8
RACCORDO
100
AcDbCircle
 62
253
  6
CONTINUOUS
 10
451.9901698668
 20
0.1177439148
 40
496.017150432
100
AcDbArc
 50
175.8180057525
 51
184.1819942475
  0
ARC
  5
78B
100
AcDbEntity
  8
RACCORDO
100
AcDbCircle
 62
253
  6
CONTINUOUS
 10
451.9901698668
 20
0.1177439148
 40
495.0173027369
100
AcDbArc
 50
175.8180057525
 51
184.1819942475
  0
ELLIPSE
  5
78C
100
AcDbEntity
  8
RACCORDO
100
AcDbEllipse
 62
7
  6
CONTINUOUS
 10
-33.7590067256
 20
-21.7814326776
 30
0.0
 11
0.4254277461
 21
0.4254277461
 31
0.0
 40
0.9972646886
 41
-3.9256212891
 42
-2.3575640181
  0
ELLIPSE
  5
78D
100
AcDbEntity
  8
RACCORDO
100
AcDbEllipse
 62
7
  6
CONTINUOUS
 10
32.7393464592
 20
-21.7814326776
 30
0.0
 11
-0.4254277461
 21
0.4254277461
 31
0.0
 40
0.9972646886
 41
-3.9256212891
 42
-2.3575640181
  0
ELLIPSE
  5
78E
100
AcDbEntity
  8
RACCORDO
100
AcDbEllipse
 62
7
  6
CONTINUOUS
 10
32.7393464592
 20
22.0169205072
 30
0.0
 11
0.4254277461
 21
0.4254277461
 31
0.0
 40
0.9972646886
 41
-0.7840286355
 42
0.7840286355
  0
ELLIPSE
  5
78F
100
AcDbEntity
  8
RACCORDO
100
AcDbEllipse
 62
7
  6
CONTINUOUS
 10
-33.7590067256
 20
22.0169205072
 30
0.0
 11
0.4254277461
 21
-0.4254277461
 31
0.0
 40
0.9972646886
 41
2.3575640181
 42
3.9256212891
  0
ELLIPSE
  5
790
100
AcDbEntity
  8
0
100
AcDbEllipse
 62
7
  6
CONTINUOUS
 10
-19.9993485773
 20
25.5177439148
 30
0.0
 11
0.0
 21
0.2
 31
0.0
 40
0.0524077793
 41
-3.1939525311
 42
-3.1415926536
  0
ELLIPSE
  5
791
100
AcDbEntity
  8
0
100
AcDbEllipse
 62
7
  6
CONTINUOUS
 10
-26.020311689
 20
25.5177439148
 30
0.0
 11
0.0
 21
0.2
 31
0.0
 40
0.0524077793
 41
-3.1415926536
 42
-3.089232776
  0
ELLIPSE
  5
792
100
AcDbEntity
  8
0
100
AcDbEllipse
 62
7
  6
CONTINUOUS
 10
24.8003769535
 20
26.1091823589
 30
0.0
 11
-0.1999983076
 21
0.2000050771
 31
0.0
 40
0.0041137573
 41
-4.7082751071
 42
-3.1898386578
  0
ELLIPSE
  5
793
100
AcDbEntity
  8
0
100
AcDbEllipse
 62
7
  6
CONTINUOUS
 10
19.1799627802
 20
26.1091823589
 30
0.0
 11
0.1999983076
 21
0.2000050771
 31
0.0
 40
0.0041137573
 41
-3.0933466494
 42
-1.5749102001
  0
ELLIPSE
  5
794
100
AcDbEntity
  8
RACCORDO
100
AcDbEllipse
 62
7
  6
CONTINUOUS
 10
451.9901698668
 20
163.4581652183
 30
0.0
 11
0.0
 21
549.5619869818
 31
0.0
 40
0.9548092459
 41
-4.4039328505
 42
-4.4034525614
  0
ELLIPSE
  5
795
100
AcDbEntity
  8
RACCORDO
100
AcDbEllipse
 62
7
  6
CONTINUOUS
 10
451.9901698668
 20
-163.2226773887
 30
0.0
 11
0.0
 21
549.5619869818
 31
0.0
 40
0.9548092459
 41
1.2618599078
 42
1.2623401969
  0
ELLIPSE
  5
796
100
AcDbEntity
  8
RACCORDO
100
AcDbEllipse
 62
7
  6
CONTINUOUS
 10
-453.0098301332
 20
-163.2226773887
 30
0.0
 11
0.0
 21
549.5619869818
 31
0.0
 40
0.9548092459
 41
-1.2623401969
 42
-1.2618599078
  0
ELLIPSE
  5
797
100
AcDbEntity
  8
RACCORDO
100
AcDbEllipse
 62
7
  6
CONTINUOUS
 10
-453.0098301332
 20
163.4581652183
 30
0.0
 11
-0.0
 21
549.5619869818
 31
0.0
 40
0.9548092459
 41
-1.8797327458
 42
-1.8792524567
  0
ELLIPSE
  5
798
100
AcDbEntity
  8
0
100
AcDbEllipse
 62
7
  6
CONTINUOUS
 10
25.0006514227
 20
25.5177439148
 30
0.0
 11
0.0
 21
0.2
 31
0.0
 40
0.0524077793
 41
-3.1939525311
 42
-3.1415926536
  0
ELLIPSE
  5
799
100
AcDbEntity
  8
0
100
AcDbEllipse
 62
7
  6
CONTINUOUS
 10
18.979688311
 20
25.5177439148
 30
0.0
 11
-0.0
 21
0.2
 31
0.0
 40
0.0524077793
 41
-3.1415926536
 42
-3.089232776
  0
ELLIPSE
  5
79A
100
AcDbEntity
  8
0
100
AcDbEllipse
 62
7
  6
CONTINUOUS
 10
-25.8200372198
 20
-25.8736945293
 30
0.0
 11
-0.1999983076
 21
0.2000050771
 31
0.0
 40
0.0041137573
 41
-1.5666824535
 42
-0.0482460042
  0
ELLIPSE
  5
79B
100
AcDbEntity
  8
0
100
AcDbEllipse
 62
7
  6
CONTINUOUS
 10
-20.1996230465
 20
-25.8736945293
 30
0.0
 11
0.1999983076
 21
0.2000050771
 31
0.0
 40
0.0041137573
 41
0.0482460042
 42
1.5666824535
  0
ELLIPSE
  5
79C
100
AcDbEntity
  8
RACCORDO
100
AcDbEllipse
 62
7
  6
CONTINUOUS
 10
451.9901698668
 20
326.7894194897
 30
0.0
 11
0.0
 21
658.3827883028
 31
0.0
 40
0.8682237535
 41
-4.1998158673
 42
-4.1996768665
  0
ELLIPSE
  5
79D
100
AcDbEntity
  8
RACCORDO
100
AcDbEllipse
 62
7
  6
CONTINUOUS
 10
451.9901698668
 20
-326.55393166
 30
0.0
 11
0.0
 21
658.3827883028
 31
0.0
 40
0.8682237535
 41
1.0580842129
 42
1.0582232137
  0
ELLIPSE
  5
79E
100
AcDbEntity
  8
RACCORDO
100
AcDbEllipse
 62
7
  6
CONTINUOUS
 10
-453.0098301332
 20
326.7894194897
 30
0.0
 11
0.0
 21
658.3827883028
 31
0.0
 40
0.8682237535
 41
-2.0835084407
 42
-2.0833694399
  0
ELLIPSE
  5
79F
100
AcDbEntity
  8
RACCORDO
100
AcDbEllipse
 62
7
  6
CONTINUOUS
 10
-453.0098301332
 20
-326.55393166
 30
0.0
 11
0.0
 21
658.3827883028
 31
0.0
 40
0.8682237535
 41
-1.0582232137
 42
-1.0580842129
  0
ELLIPSE
  5
7A0
100
AcDbEntity
  8
0
100
AcDbEllipse
 62
7
  6
CONTINUOUS
 10
-26.020311689
 20
-25.2822560852
 30
0.0
 11
0.0
 21
0.2
 31
0.0
 40
0.0524077793
 41
-0.0523598776
 42
-0.0
  0
ELLIPSE
  5
7A1
100
AcDbEntity
  8
0
100
AcDbEllipse
 62
7
  6
CONTINUOUS
 10
-19.9993485773
 20
-25.2822560852
 30
0.0
 11
-0.0
 21
0.2
 31
0.0
 40
0.0524077793
 41
0.0
 42
0.0523598776
  0
ELLIPSE
  5
7A2
100
AcDbEntity
  8
0
100
AcDbEllipse
 62
7
  6
CONTINUOUS
 10
19.1799627802
 20
-25.8736945293
 30
0.0
 11
-0.1999983076
 21
0.2000050771
 31
0.0
 40
0.0041137573
 41
-1.5666824535
 42
-0.0482460042
  0
ELLIPSE
  5
7A3
100
AcDbEntity
  8
0
100
AcDbEllipse
 62
7
  6
CONTINUOUS
 10
24.8003769535
 20
-25.8736945293
 30
0.0
 11
0.1999983076
 21
0.2000050771
 31
0.0
 40
0.0041137573
 41
0.0482460042
 42
1.5666824535
  0
ELLIPSE
  5
7A4
100
AcDbEntity
  8
DRAFT
100
AcDbEllipse
 62
7
  6
CONTINUOUS
 10
-0.5098301332
 20
-468.4553991875
 30
0.0
 11
0.0
 21
493.1086593324
 31
0.0
 40
0.9999253065
 41
-0.0690102336
 42
0.0690102336
  0
ELLIPSE
  5
7A5
100
AcDbEntity
  8
DRAFT
100
AcDbEllipse
 62
7
  6
CONTINUOUS
 10
-0.5098301332
 20
468.6908870172
 30
0.0
 11
0.0
 21
493.1086593324
 31
0.0
 40
0.9999253065
 41
-3.2106028872
 42
-3.0725824199
  0
ELLIPSE
  5
7A6
100
AcDbEntity
  8
0
100
AcDbEllipse
 62
7
  6
CONTINUOUS
 10
18.979688311
 20
-25.2822560852
 30
0.0
 11
0.0
 21
0.2
 31
0.0
 40
0.0524077793
 41
-0.0523598776
 42
0.0
  0
ELLIPSE
  5
7A7
100
AcDbEntity
  8
0
100
AcDbEllipse
 62
7
  6
CONTINUOUS
 10
25.0006514227
 20
-25.2822560852
 30
0.0
 11
0.0
 21
0.2
 31
0.0
 40
0.0524077793
 41
-0.0
 42
0.0523598776
  0
ELLIPSE
  5
7A8
100
AcDbEntity
  8
0
100
AcDbEllipse
 62
7
  6
CONTINUOUS
 10
-20.1996230465
 20
26.1091823589
 30
0.0
 11
-0.1999983076
 21
0.2000050771
 31
0.0
 40
0.0041137573
 41
-4.7082751071
 42
-3.1898386578
  0
ELLIPSE
  5
7A9
100
AcDbEntity
  8
0
100
AcDbEllipse
 62
7
  6
CONTINUOUS
 10
-25.8200372198
 20
26.1091823589
 30
0.0
 11
0.1999983076
 21
0.2000050771
 31
0.0
 40
0.0041137573
 41
-3.0933466493
 42
-1.5749102001
  0
ENDSEC
  0
SECTION
  2
OBJECTS
  0
DICTIONARY
  5
C
100
AcDbDictionary
280
0
281
1
  3
ACAD_GROUP
350
D
  3
ACAD_MLINESTYLE
350
17
  3
ACAD_LAYOUT
350
1A
  3
ACAD_PLOTSETTINGS
350
19
  3
ACAD_PLOTSTYLENAME
350
E
  0
DICTIONARY
  5
D
102
{ACAD_REACTORS
330
C
102
}
100
AcDbDictionary
280
0
281
1
  0
ACDBDICTIONARYWDFLT
  5
E
102
{ACAD_REACTORS
330
C
102
}
100
AcDbDictionary
281
1
  3
Normal
350
F
100
AcDbDictionaryWithDefault
340
F
  0
DICTIONARY
  5
17
102
{ACAD_REACTORS
330
C
102
}
100
AcDbDictionary
280
0
281
1
  3
Standard
350
18
  0
DICTIONARY
  5
19
102
{ACAD_REACTORS
330
C
102
}
100
AcDbDictionary
281
1
  0
DICTIONARY
  5
1A
102
{ACAD_REACTORS
330
C
102
}
100
AcDbDictionary
281
1
  3
Model
350
7AA
  3
Layout1
350
7AB
  0
ACDBPLACEHOLDER
  5
F
102
{ACAD_REACTORS
330
E
102
}
  0
MLINESTYLE
  5
18
102
{ACAD_REACTORS
330
17
102
}
100
AcDbMlineStyle
  2
STANDARD
 70
0
  3

 62
256
 51
90.0
 52
90.0
 71
2
 49
0.5
 62
256
  6
BYLAYER
 49
-0.5
 62
256
  6
BYLAYER
  0
LAYOUT
  5
7AA
102
{ACAD_REACTORS
330
1A
102
}
100
AcDbPlotSettings
  1

  2
none_device
  4
ISO_A4_(297.00_x_210.00_MM)
  6

 40
0.0
 41
0.0
 42
0.0
 43
0.0
 44
297.0
 45
210.0
 46
0.0
 47
0.0
 48
0.0
 49
0.0
140
0.0
141
0.0
142
1.0
143
1.0
 70
1024
 72
1
 73
0
 74
0
  7

 75
0
147
1.0
148
0.0
149
0.0
100
AcDbLayout
  1
Model
 70
0
 71
0
 10
0.0
 20
0.0
 11
297.0
 21
210.0
 12
0.0
 22
0.0
 32
0.0
 14
0.0
 24
0.0
 34
0.0
 15
0.0
 25
0.0
 35
0.0
146
0.0
 13
0.0
 23
0.0
 33
0.0
 16
1.0
 26
0.0
 36
0.0
 17
0.0
 27
1.0
 37
0.0
 76
0
330
218
345
0
346
0
  0
LAYOUT
  5
7AB
102
{ACAD_REACTORS
330
1A
102
}
100
AcDbPlotSettings
  1

  2
none_device
  4
ISO_A4_(297.00_x_210.00_MM)
  6

 40
0.0
 41
0.0
 42
0.0
 43
0.0
 44
297.0
 45
210.0
 46
0.0
 47
0.0
 48
0.0
 49
0.0
140
0.0
141
0.0
142
1.0
143
1.0
 70
0
 72
1
 73
0
 74
0
  7

 75
0
147
1.0
148
0.0
149
0.0
100
AcDbLayout
  1
Layout1
 70
0
 71
1
 10
0.0
 20
0.0
 11
297.0
 21
210.0
 12
0.0
 22
0.0
 32
0.0
 14
0.0
 24
0.0
 34
0.0
 15
0.0
 25
0.0
 35
0.0
146
0.0
 13
0.0
 23
0.0
 33
0.0
 16
1.0
 26
0.0
 36
0.0
 17
0.0
 27
1.0
 37
0.0
 76
0
330
219
345
0
346
0
  0
ENDSEC
  0
EOF
