  0
SECTION
  2
HEADER
  9
$ACADVER
  1
AC1015
  9
$DWGCODEPAGE
  3
ANSI_1252
  9
$EXTMAX
 10
297.0
 20
210.0
 30
0.0
  9
$EXTMIN
 10
0.0
 20
0.0
 30
0.0
  9
$LIMMIN
 10
0.0
 20
0.0
  9
$LIMMAX
 10
297.0
 20
210.0
  9
$VIEWCTR
 10
148.5
 20
105.0
  9
$VIEWSIZE
 40
210.0
  9
$CLAYER
  8
0
  9
$LTSCALE
 40
16.335
  9
$CELTYPE
  6
BYLAYER
  9
$DIMSCALE
 40
1.0
  9
$DIMASZ
 40
3.0
  9
$DIMEXO
 40
1.85625
  9
$DIMDLI
 40
11.286
  9
$DIMEXE
 40
5.346
  9
$DIMCEN
 40
2.673
  9
$DIMLFAC
 40
1.0
  9
$DIMBLK
  1
_FILLED
  9
$DIMTXT
 40
3.0
  9
$DIMTOL
 70
1
  9
$DIMLIM
 70
0
  9
$DIMTFAC
 40
1.0
  9
$DIMTP
 40
0.01
  9
$DIMTM
 40
0.01
  9
$PDMODE
 70
3
  9
$PDSIZE
 40
3.0
  9
$HANDSEED
  5
90B
  9
$TILEMODE
 70
1
  9
$MEASUREMENT
 70
1
  9
$INSUNITS
 70
4
  0
ENDSEC
  0
SECTION
  2
CLASSES
  0
CLASS
  1
ACDBDICTIONARYWDFLT
  2
AcDbDictionaryWithDefault
  3
AutoCAD 2000
 90
0
280
0
281
0
  0
CLASS
  1
ACDBPLACEHOLDER
  2
AcDbPlaceHolder
  3
AutoCAD 2000
 90
0
280
0
281
0
  0
CLASS
  1
LAYOUT
  2
AcDbLayout
  3
AutoCAD 2000
 90
0
280
0
281
0
  0
ENDSEC
  0
SECTION
  2
TABLES
  0
TABLE
  2
VPORT
  5
8
100
AcDbSymbolTable
 70
2
  0
VPORT
  5
1F4
100
AcDbSymbolTableRecord
100
AcDbViewportTableRecord
  2
*ACTIVE
 70
0
 10
0.0
 20
0.0
 11
1.0
 21
1.0
 12
148.5
 22
105.0
 13
0.0
 23
0.0
 14
1.0
 24
1.0
 15
0.0
 25
0.0
 16
0.0
 26
0.0
 36
1.0
 17
0.0
 27
0.0
 37
0.0
 40
210.0
 41
1.4142857143
 42
50.0
 43
0.0
 44
0.0
 50
0.0
 51
0.0
 71
0
 72
100
 73
1
 74
1
 75
0
 76
0
 77
0
 78
0
  0
ENDTAB
  0
TABLE
  2
LTYPE
  5
5
100
AcDbSymbolTable
 70
6
  0
LTYPE
  5
14
100
AcDbSymbolTableRecord
100
AcDbLinetypeTableRecord
  2
BYBLOCK
 70
0
  3

 72
65
 73
0
 40
0.0
  0
LTYPE
  5
15
100
AcDbSymbolTableRecord
100
AcDbLinetypeTableRecord
  2
BYLAYER
 70
0
  3

 72
65
 73
0
 40
0.0
  0
LTYPE
  5
16
100
AcDbSymbolTableRecord
100
AcDbLinetypeTableRecord
  2
CONTINUOUS
 70
64
  3
Solid line
 72
65
 73
0
 40
0.0
  0
LTYPE
  5
1F5
100
AcDbSymbolTableRecord
100
AcDbLinetypeTableRecord
  2
CENTER
 70
64
  3
____ _ ____ _ ____ _ ____ _ ____ _ ____ _ ____
 72
65
 73
4
 40
0.6
 49
0.375
 74
0
 49
-0.075
 74
0
 49
0.075
 74
0
 49
-0.075
 74
0
  0
LTYPE
  5
1F6
100
AcDbSymbolTableRecord
100
AcDbLinetypeTableRecord
  2
HIDDEN
 70
64
  3
- - - - - - - - - - - - - - - - - - - -
 72
65
 73
2
 40
0.2
 49
0.1
 74
0
 49
-0.1
 74
0
  0
LTYPE
  5
1F7
100
AcDbSymbolTableRecord
100
AcDbLinetypeTableRecord
  2
PHANTOM
 70
64
  3
_____ _ _ _____ _ _ _____ _ _ _____
 72
65
 73
6
 40
0.8
 49
0.45
 74
0
 49
-0.05
 74
0
 49
0.1
 74
0
 49
-0.05
 74
0
 49
0.1
 74
0
 49
-0.05
 74
0
  0
LTYPE
  5
1F8
100
AcDbSymbolTableRecord
100
AcDbLinetypeTableRecord
  2
DOT
 70
64
  3
. . . . . . . . . . . . . . . . . . . .
 72
65
 73
2
 40
0.2
 49
0.1
 74
0
 49
-0.1
 74
0
  0
LTYPE
  5
1F9
100
AcDbSymbolTableRecord
100
AcDbLinetypeTableRecord
  2
DASHED
 70
64
  3
- - - - - - - - - - - - - - - - - - - -
 72
65
 73
2
 40
0.2
 49
0.1
 74
0
 49
-0.1
 74
0
  0
ENDTAB
  0
TABLE
  2
LAYER
  5
2
100
AcDbSymbolTable
 70
36
  0
LAYER
  5
10
100
AcDbSymbolTableRecord
100
AcDbLayerTableRecord
  2
0
 70
0
 62
7
  6
CONTINUOUS
370
-3
390
F
  0
LAYER
  5
1FA
100
AcDbSymbolTableRecord
100
AcDbLayerTableRecord
  2
DEFAULT_1
 70
0
 62
7
  6
CENTER
370
-3
390
F
  0
LAYER
  5
1FB
100
AcDbSymbolTableRecord
100
AcDbLayerTableRecord
  2
DEFAULT_2
 70
0
 62
7
  6
HIDDEN
370
-3
390
F
  0
LAYER
  5
1FC
100
AcDbSymbolTableRecord
100
AcDbLayerTableRecord
  2
DEFAULT_3
 70
0
 62
7
  6
PHANTOM
370
-3
390
F
  0
LAYER
  5
1FD
100
AcDbSymbolTableRecord
100
AcDbLayerTableRecord
  2
ASSI
 70
0
 62
7
  6
CONTINUOUS
370
-3
390
F
  0
LAYER
  5
1FE
100
AcDbSymbolTableRecord
100
AcDbLayerTableRecord
  2
COORDINATE
 70
0
 62
7
  6
CONTINUOUS
370
-3
390
F
  0
LAYER
  5
1FF
100
AcDbSymbolTableRecord
100
AcDbLayerTableRecord
  2
COORD_ORIGINE
 70
0
 62
7
  6
CONTINUOUS
370
-3
390
F
  0
LAYER
  5
200
100
AcDbSymbolTableRecord
100
AcDbLayerTableRecord
  2
COPY_PUBLISH
 70
0
 62
7
  6
CONTINUOUS
370
-3
390
F
  0
LAYER
  5
201
100
AcDbSymbolTableRecord
100
AcDbLayerTableRecord
  2
COSMETIC
 70
0
 62
7
  6
CONTINUOUS
370
-3
390
F
  0
LAYER
  5
202
100
AcDbSymbolTableRecord
100
AcDbLayerTableRecord
  2
COSMETICHE
 70
0
 62
7
  6
CONTINUOUS
370
-3
390
F
  0
LAYER
  5
203
100
AcDbSymbolTableRecord
100
AcDbLayerTableRecord
  2
CURVE
 70
0
 62
7
  6
CONTINUOUS
370
-3
390
F
  0
LAYER
  5
204
100
AcDbSymbolTableRecord
100
AcDbLayerTableRecord
  2
DRAFT
 70
0
 62
7
  6
CONTINUOUS
370
-3
390
F
  0
LAYER
  5
205
100
AcDbSymbolTableRecord
100
AcDbLayerTableRecord
  2
IMPORT_IGES
 70
0
 62
7
  6
CONTINUOUS
370
-3
390
F
  0
LAYER
  5
206
100
AcDbSymbolTableRecord
100
AcDbLayerTableRecord
  2
NOTE
 70
0
 62
7
  6
CONTINUOUS
370
-3
390
F
  0
LAYER
  5
207
100
AcDbSymbolTableRecord
100
AcDbLayerTableRecord
  2
PIANI
 70
0
 62
7
  6
CONTINUOUS
370
-3
390
F
  0
LAYER
  5
208
100
AcDbSymbolTableRecord
100
AcDbLayerTableRecord
  2
PIANI_ORIGINE
 70
0
 62
7
  6
CONTINUOUS
370
-3
390
F
  0
LAYER
  5
209
100
AcDbSymbolTableRecord
100
AcDbLayerTableRecord
  2
PIANI_PUNZONI
 70
0
 62
7
  6
CONTINUOUS
370
-3
390
F
  0
LAYER
  5
20A
100
AcDbSymbolTableRecord
100
AcDbLayerTableRecord
  2
PUNTI
 70
0
 62
7
  6
CONTINUOUS
370
-3
390
F
  0
LAYER
  5
20B
100
AcDbSymbolTableRecord
100
AcDbLayerTableRecord
  2
RACCORDO
 70
0
 62
7
  6
CONTINUOUS
370
-3
390
F
  0
LAYER
  5
20C
100
AcDbSymbolTableRecord
100
AcDbLayerTableRecord
  2
SMUSSO
 70
0
 62
7
  6
CONTINUOUS
370
-3
390
F
  0
LAYER
  5
20D
100
AcDbSymbolTableRecord
100
AcDbLayerTableRecord
  2
SNAPLINE
 70
0
 62
7
  6
CONTINUOUS
370
-3
390
F
  0
LAYER
  5
20E
100
AcDbSymbolTableRecord
100
AcDbLayerTableRecord
  2
SUPERFICI
 70
0
 62
7
  6
CONTINUOUS
370
-3
390
F
  0
LAYER
  5
20F
100
AcDbSymbolTableRecord
100
AcDbLayerTableRecord
  2
TRASH
 70
0
 62
7
  6
CONTINUOUS
370
-3
390
F
  0
ENDTAB
  0
TABLE
  2
STYLE
  5
3
100
AcDbSymbolTable
 70
1
  0
STYLE
  5
11
100
AcDbSymbolTableRecord
100
AcDbTextStyleTableRecord
  2
STANDARD
 70
0
 40
0.0
 41
0.8
 50
0.0
 71
0
 42
0.2
  3
txt
  4

  0
STYLE
  5
210
100
AcDbSymbolTableRecord
100
AcDbTextStyleTableRecord
  2
TEXTSTYLE_1
 70
0
 40
0.0
 41
0.8
 50
0.0
 71
0
 42
0.2
  3
gdt
  4

  0
ENDTAB
  0
TABLE
  2
VIEW
  5
6
100
AcDbSymbolTable
 70
0
  0
ENDTAB
  0
TABLE
  2
UCS
  5
7
100
AcDbSymbolTable
 70
0
  0
ENDTAB
  0
TABLE
  2
APPID
  5
9
100
AcDbSymbolTable
 70
1
  0
APPID
  5
211
100
AcDbSymbolTableRecord
100
AcDbRegAppTableRecord
  2
ACAD
 70
0
  0
ENDTAB
  0
TABLE
  2
BLOCK_RECORD
  5
1
100
AcDbSymbolTable
 70
0
  0
BLOCK_RECORD
  5
212
100
AcDbSymbolTableRecord
100
AcDbBlockTableRecord
  2
*Model_Space
  0
BLOCK_RECORD
  5
213
100
AcDbSymbolTableRecord
100
AcDbBlockTableRecord
  2
*Paper_Space
  0
ENDTAB
  0
TABLE
  2
DIMSTYLE
  5
A
100
AcDbSymbolTable
 70
1
100
AcDbDimStyleTable
 71
0
  0
DIMSTYLE
105
214
100
AcDbSymbolTableRecord
100
AcDbDimStyleTableRecord
  2
STANDARD
 70
0
  3

  4

 40
1.0
 41
3.0
 42
0.0625
 43
0.38
 44
0.18
 45
0.0
 46
0.0
 47
0.01
 48
0.01
140
3.0
141
0.09
142
0.0
143
25.4
144
1.0
145
0.0
146
1.0
147
0.09
 71
1.0
 72
0.0
 73
0
 74
0
 75
0
 76
0
 77
1
 78
8
170
0
171
2
172
0
173
0
174
0
175
0
176
0
177
0
178
0
270
2
271
2
272
2
273
2
274
2
275
0
280
0
281
0
282
0
283
1
284
8
285
0
286
0
287
3
288
0
340
11
  0
ENDTAB
  0
ENDSEC
  0
SECTION
  2
BLOCKS
  0
BLOCK
  5
20
100
AcDbEntity
  8
0
100
AcDbBlockBegin
  2
*Model_Space
 70
0
 10
0.0
 20
0.0
 30
0.0
  3
*Model_Space
  1

  0
ENDBLK
  5
21
100
AcDbEntity
  8
0
100
AcDbBlockEnd
  0
BLOCK
  5
1C
100
AcDbEntity
  8
0
100
AcDbBlockBegin
  2
*Paper_Space
 70
0
 10
0.0
 20
0.0
 30
0.0
  3
*Paper_Space
  1

  0
ENDBLK
  5
1D
100
AcDbEntity
  8
0
100
AcDbBlockEnd
  0
ENDSEC
  0
SECTION
  2
ENTITIES
  0
LINE
  5
215
100
AcDbEntity
  8
ASSI
100
AcDbLine
 62
7
  6
CONTINUOUS
 10
-33.5681507026
 20
31.1308112636
 11
-31.4468303591
 21
33.2521316071
  0
LINE
  5
216
100
AcDbEntity
  8
RACCORDO
100
AcDbLine
 62
7
  6
CONTINUOUS
 10
-41.3432769685
 20
35.027257873
 11
-41.3432769685
 21
-35.472742127
  0
LINE
  5
217
100
AcDbEntity
  8
0
100
AcDbLine
 62
7
  6
CONTINUOUS
 10
-39.4224331661
 20
-30.722742127
 11
-39.4224331661
 21
30.277257873
  0
LINE
  5
218
100
AcDbEntity
  8
ASSI
100
AcDbLine
 62
7
  6
CONTINUOUS
 10
-28.6184032343
 20
30.4237044824
 11
-30.7397235779
 21
28.3023841388
  0
LINE
  5
219
100
AcDbEntity
  8
RACCORDO
100
AcDbLine
 62
7
  6
CONTINUOUS
 10
-35.3432769685
 20
-41.472742127
 11
35.1567230315
 21
-41.472742127
  0
LINE
  5
21A
100
AcDbEntity
  8
0
100
AcDbLine
 62
7
  6
CONTINUOUS
 10
30.4067230315
 20
-39.5518983246
 11
-30.5932769685
 21
-39.5518983246
  0
LINE
  5
21B
100
AcDbEntity
  8
0
100
AcDbLine
 62
7
  6
CONTINUOUS
 10
-31.6115800115
 20
-27.0741404142
 11
-26.9446752556
 21
-31.74104517
  0
LINE
  5
21C
100
AcDbEntity
  8
0
100
AcDbLine
 62
7
  6
CONTINUOUS
 10
-30.7815756433
 20
-26.244136046
 11
-26.1146708875
 21
-30.9110408019
  0
LINE
  5
21D
100
AcDbEntity
  8
SMUSSO
100
AcDbLine
 62
7
  6
CONTINUOUS
 10
-30.7723137587
 20
-26.0934528051
 11
-25.9639876466
 21
-30.9017789172
  0
LINE
  5
21E
100
AcDbEntity
  8
0
100
AcDbLine
 62
7
  6
CONTINUOUS
 10
-37.7641207709
 20
-30.722742127
 11
-37.7641207709
 21
30.277257873
  0
LINE
  5
21F
100
AcDbEntity
  8
0
100
AcDbLine
 62
7
  6
CONTINUOUS
 10
30.4067230315
 20
-37.8935859294
 11
-30.5932769685
 21
-37.8935859294
  0
LINE
  5
220
100
AcDbEntity
  8
0
100
AcDbLine
 62
7
  6
CONTINUOUS
 10
-26.3821130442
 20
-25.5339060514
 11
-26.3564623065
 21
-25.559556789
  0
LINE
  5
221
100
AcDbEntity
  8
0
100
AcDbLine
 62
7
  6
CONTINUOUS
 10
-26.4130004527
 20
-25.5030186429
 11
-26.3932769685
 21
-25.522742127
  0
LINE
  5
222
100
AcDbEntity
  8
0
100
AcDbLine
 62
7
  6
CONTINUOUS
 10
-25.4044408928
 20
-26.5115782027
 11
-25.4300916305
 21
-26.4859274651
  0
LINE
  5
223
100
AcDbEntity
  8
0
100
AcDbLine
 62
7
  6
CONTINUOUS
 10
-25.3735534843
 20
-26.5424656112
 11
-25.3932769685
 21
-26.522742127
  0
LINE
  5
224
100
AcDbEntity
  8
0
100
AcDbLine
 62
7
  6
CONTINUOUS
 10
-33.6932769685
 20
-8.8541129769
 11
-33.6932769685
 21
8.4086287229
  0
LINE
  5
225
100
AcDbEntity
  8
0
100
AcDbLine
 62
7
  6
CONTINUOUS
 10
-32.4479746065
 20
-10.3913712771
 11
-32.4479746065
 21
-24.0541129769
  0
LINE
  5
226
100
AcDbEntity
  8
0
100
AcDbLine
 62
7
  6
CONTINUOUS
 10
-32.4479746065
 20
9.9458870231
 11
-32.4479746065
 21
23.6086287229
  0
LINE
  5
227
100
AcDbEntity
  8
ASSI
100
AcDbLine
 62
7
  6
CONTINUOUS
 10
-32.1932769685
 20
-2.972742127
 11
-32.1932769685
 21
2.527257873
  0
LINE
  5
228
100
AcDbEntity
  8
0
100
AcDbLine
 62
253
  6
CONTINUOUS
 10
-31.6929911629
 20
-10.6913712771
 11
-31.6929911629
 21
-23.7541129769
  0
LINE
  5
229
100
AcDbEntity
  8
0
100
AcDbLine
 62
253
  6
CONTINUOUS
 10
-31.6929911629
 20
10.2458870231
 11
-31.6929911629
 21
23.3086287229
  0
LINE
  5
22A
100
AcDbEntity
  8
SMUSSO
100
AcDbLine
 62
7
  6
CONTINUOUS
 10
-30.7723137587
 20
-25.9520314489
 11
-30.7723137587
 21
-26.0934528051
  0
LINE
  5
22B
100
AcDbEntity
  8
0
100
AcDbLine
 62
253
  6
CONTINUOUS
 10
-30.693562774
 20
-10.6913712771
 11
-30.693562774
 21
-23.7541129769
  0
LINE
  5
22C
100
AcDbEntity
  8
0
100
AcDbLine
 62
253
  6
CONTINUOUS
 10
-30.693562774
 20
10.2458870231
 11
-30.693562774
 21
23.3086287229
  0
LINE
  5
22D
100
AcDbEntity
  8
SMUSSO
100
AcDbLine
 62
7
  6
CONTINUOUS
 10
-22.9781945269
 20
21.8450085522
 11
-22.6781844396
 21
22.164260462
  0
LINE
  5
22E
100
AcDbEntity
  8
0
100
AcDbLine
 62
7
  6
CONTINUOUS
 10
-23.7932769685
 20
20.927257873
 11
-23.6034667578
 21
21.1170680837
  0
LINE
  5
22F
100
AcDbEntity
  8
SMUSSO
100
AcDbLine
 62
7
  6
CONTINUOUS
 10
-17.924190753
 20
25.5603081404
 11
-17.7932769685
 21
25.6912219249
  0
LINE
  5
230
100
AcDbEntity
  8
SMUSSO
100
AcDbLine
 62
253
  6
CONTINUOUS
 10
-22.6472404933
 20
21.3775203524
 11
-22.9481257728
 21
21.0767267231
  0
LINE
  5
231
100
AcDbEntity
  8
SMUSSO
100
AcDbLine
 62
7
  6
CONTINUOUS
 10
-22.9607407913
 20
21.1170680837
 11
-22.6602573751
 21
21.4165789304
  0
LINE
  5
232
100
AcDbEntity
  8
0
100
AcDbLine
 62
7
  6
CONTINUOUS
 10
-21.2364839685
 20
-33.948699127
 11
-20.9500699685
 21
-33.948699127
  0
LINE
  5
233
100
AcDbEntity
  8
0
100
AcDbLine
 62
7
  6
CONTINUOUS
 10
25.0533859862
 20
-33.822742127
 11
15.5600600768
 21
-33.822742127
  0
LINE
  5
234
100
AcDbEntity
  8
0
100
AcDbLine
 62
7
  6
CONTINUOUS
 10
8.5380938814
 20
-33.822742127
 11
-8.7246478184
 21
-33.822742127
  0
LINE
  5
235
100
AcDbEntity
  8
0
100
AcDbLine
 62
7
  6
CONTINUOUS
 10
-20.5062609685
 20
-33.378455127
 11
-20.2198489685
 21
-33.378455127
  0
LINE
  5
236
100
AcDbEntity
  8
0
100
AcDbLine
 62
7
  6
CONTINUOUS
 10
-19.7760379685
 20
-32.807952127
 11
-19.4870449685
 21
-32.807952127
  0
LINE
  5
237
100
AcDbEntity
  8
0
100
AcDbLine
 62
7
  6
CONTINUOUS
 10
-22.6633839685
 20
-32.384012127
 11
-21.2364839685
 21
-32.384012127
  0
LINE
  5
238
100
AcDbEntity
  8
ASSI
100
AcDbLine
 62
7
  6
CONTINUOUS
 10
2.6567230315
 20
-32.322742127
 11
-2.8432769685
 21
-32.322742127
  0
LINE
  5
239
100
AcDbEntity
  8
0
100
AcDbLine
 62
7
  6
CONTINUOUS
 10
-21.2364839685
 20
-32.061474127
 11
-22.6633839685
 21
-32.061474127
  0
LINE
  5
23A
100
AcDbEntity
  8
0
100
AcDbLine
 62
7
  6
CONTINUOUS
 10
-19.4870449685
 20
-31.637274127
 11
-19.7760379685
 21
-31.637274127
  0
LINE
  5
23B
100
AcDbEntity
  8
0
100
AcDbLine
 62
7
  6
CONTINUOUS
 10
-20.2198489685
 20
-31.067029127
 11
-20.5062609685
 21
-31.067029127
  0
LINE
  5
23C
100
AcDbEntity
  8
SMUSSO
100
AcDbLine
 62
7
  6
CONTINUOUS
 10
-25.9639876466
 20
-30.9017789172
 11
-25.8225662904
 21
-30.9017789172
  0
LINE
  5
23D
100
AcDbEntity
  8
0
100
AcDbLine
 62
7
  6
CONTINUOUS
 10
-25.0384077849
 20
-26.372016329
 11
-24.984723344
 21
-26.386706179
  0
LINE
  5
23E
100
AcDbEntity
  8
0
100
AcDbLine
 62
7
  6
CONTINUOUS
 10
-26.7481461521
 20
-25.6734679251
 11
-26.801830593
 21
-25.6587780751
  0
LINE
  5
23F
100
AcDbEntity
  8
0
100
AcDbLine
 62
7
  6
CONTINUOUS
 10
-26.4792946648
 20
-26.522742127
 11
-26.4130004527
 21
-26.5424656112
  0
LINE
  5
240
100
AcDbEntity
  8
0
100
AcDbLine
 62
7
  6
CONTINUOUS
 10
-26.801830593
 20
-26.386706179
 11
-26.3821130442
 21
-26.5115782027
  0
LINE
  5
241
100
AcDbEntity
  8
0
100
AcDbLine
 62
7
  6
CONTINUOUS
 10
-24.984723344
 20
-25.6587780751
 11
-25.4044408928
 21
-25.5339060514
  0
LINE
  5
242
100
AcDbEntity
  8
0
100
AcDbLine
 62
7
  6
CONTINUOUS
 10
-25.3072592722
 20
-25.522742127
 11
-25.3735534843
 21
-25.5030186429
  0
LINE
  5
243
100
AcDbEntity
  8
SMUSSO
100
AcDbLine
 62
7
  6
CONTINUOUS
 10
-21.1932769685
 20
-26.652742127
 11
-21.3596943269
 21
-26.4863247686
  0
LINE
  5
244
100
AcDbEntity
  8
SMUSSO
100
AcDbLine
 62
7
  6
CONTINUOUS
 10
-21.0142401783
 20
-25.9520314489
 11
-25.8225662904
 21
-21.1437053368
  0
LINE
  5
245
100
AcDbEntity
  8
SMUSSO
100
AcDbLine
 62
7
  6
CONTINUOUS
 10
-17.7932769685
 20
-26.136706179
 11
-17.924190753
 21
-26.0057923945
  0
LINE
  5
246
100
AcDbEntity
  8
0
100
AcDbLine
 62
7
  6
CONTINUOUS
 10
-26.4130004527
 20
-26.5424656112
 11
-26.2764415918
 21
-27.0014647418
  0
LINE
  5
247
100
AcDbEntity
  8
0
100
AcDbLine
 62
7
  6
CONTINUOUS
 10
-26.3821130442
 20
-26.5115782027
 11
-26.3787916157
 21
-26.522742127
  0
LINE
  5
248
100
AcDbEntity
  8
0
100
AcDbLine
 62
7
  6
CONTINUOUS
 10
-25.4044408928
 20
-25.5339060514
 11
-25.4077623213
 21
-25.522742127
  0
LINE
  5
249
100
AcDbEntity
  8
0
100
AcDbLine
 62
7
  6
CONTINUOUS
 10
-25.3735534843
 20
-25.5030186429
 11
-25.5101123451
 21
-25.0440195122
  0
LINE
  5
24A
100
AcDbEntity
  8
0
100
AcDbLine
 62
7
  6
CONTINUOUS
 10
-26.2425511704
 20
-25.1678729434
 11
-26.2764415918
 21
-25.0440195122
  0
LINE
  5
24B
100
AcDbEntity
  8
0
100
AcDbLine
 62
7
  6
CONTINUOUS
 10
-25.5440027665
 20
-26.8776113106
 11
-25.5101123451
 21
-27.0014647418
  0
LINE
  5
24C
100
AcDbEntity
  8
0
100
AcDbLine
 62
7
  6
CONTINUOUS
 10
-26.2764415918
 20
-23.9967865338
 11
-26.2435741035
 21
-24.9356043082
  0
LINE
  5
24D
100
AcDbEntity
  8
0
100
AcDbLine
 62
253
  6
CONTINUOUS
 10
-30.5932769685
 20
-37.8935859294
 11
-30.5932769685
 21
-39.5518983246
  0
LINE
  5
24E
100
AcDbEntity
  8
0
100
AcDbLine
 62
253
  6
CONTINUOUS
 10
-30.5932769685
 20
37.4481016754
 11
-30.5932769685
 21
39.1064140706
  0
LINE
  5
24F
100
AcDbEntity
  8
0
100
AcDbLine
 62
7
  6
CONTINUOUS
 10
-29.9385793305
 20
-10.3913712771
 11
-29.9385793305
 21
-24.0541129769
  0
LINE
  5
250
100
AcDbEntity
  8
0
100
AcDbLine
 62
7
  6
CONTINUOUS
 10
-29.9385793305
 20
9.9458870231
 11
-29.9385793305
 21
23.6086287229
  0
LINE
  5
251
100
AcDbEntity
  8
RACCORDO
100
AcDbLine
 62
7
  6
CONTINUOUS
 10
-28.2432769685
 20
-14.7398994146
 11
-28.2432769685
 21
-9.1369556894
  0
LINE
  5
252
100
AcDbEntity
  8
0
100
AcDbLine
 62
7
  6
CONTINUOUS
 10
-28.2432769685
 20
-9.1369556894
 11
-28.2432769685
 21
-8.688427552
  0
LINE
  5
253
100
AcDbEntity
  8
0
100
AcDbLine
 62
7
  6
CONTINUOUS
 10
-28.2432769685
 20
8.2429432979
 11
-28.2432769685
 21
8.4914714353
  0
LINE
  5
254
100
AcDbEntity
  8
RACCORDO
100
AcDbLine
 62
7
  6
CONTINUOUS
 10
-28.2432769685
 20
8.4914714353
 11
-28.2432769685
 21
14.2944151605
  0
LINE
  5
255
100
AcDbEntity
  8
ASSI
100
AcDbLine
 62
7
  6
CONTINUOUS
 10
-28.1932769685
 20
2.527257873
 11
-28.1932769685
 21
-2.972742127
  0
LINE
  5
256
100
AcDbEntity
  8
DRAFT
100
AcDbLine
 62
7
  6
CONTINUOUS
 10
-27.9432769685
 20
-8.6611566714
 11
-27.9432769685
 21
-11.222742127
  0
LINE
  5
257
100
AcDbEntity
  8
DRAFT
100
AcDbLine
 62
7
  6
CONTINUOUS
 10
-27.9432769685
 20
-11.722742127
 11
-27.9432769685
 21
-14.6984780583
  0
LINE
  5
258
100
AcDbEntity
  8
DRAFT
100
AcDbLine
 62
7
  6
CONTINUOUS
 10
-27.9432769685
 20
8.2156724173
 11
-27.9432769685
 21
10.777257873
  0
LINE
  5
259
100
AcDbEntity
  8
DRAFT
100
AcDbLine
 62
7
  6
CONTINUOUS
 10
-27.9432769685
 20
11.277257873
 11
-27.9432769685
 21
14.2529938043
  0
LINE
  5
25A
100
AcDbEntity
  8
DRAFT
100
AcDbLine
 62
7
  6
CONTINUOUS
 10
-27.8944027867
 20
14.228928084
 11
-27.8944027867
 21
11.0492360065
  0
LINE
  5
25B
100
AcDbEntity
  8
DRAFT
100
AcDbLine
 62
7
  6
CONTINUOUS
 10
-27.8944027867
 20
11.0052797395
 11
-27.8944027867
 21
8.2359167663
  0
LINE
  5
25C
100
AcDbEntity
  8
DRAFT
100
AcDbLine
 62
7
  6
CONTINUOUS
 10
-27.8944027867
 20
-8.6814010203
 11
-27.8944027867
 21
-11.4507639935
  0
LINE
  5
25D
100
AcDbEntity
  8
DRAFT
100
AcDbLine
 62
7
  6
CONTINUOUS
 10
-27.8944027867
 20
-11.4947202605
 11
-27.8944027867
 21
-14.674412338
  0
LINE
  5
25E
100
AcDbEntity
  8
DRAFT
100
AcDbLine
 62
7
  6
CONTINUOUS
 10
-27.3956421633
 20
-14.1444325009
 11
-27.3956421633
 21
-8.8010517532
  0
LINE
  5
25F
100
AcDbEntity
  8
DRAFT
100
AcDbLine
 62
7
  6
CONTINUOUS
 10
-27.3956421633
 20
8.3555674991
 11
-27.3956421633
 21
13.6989482468
  0
LINE
  5
260
100
AcDbEntity
  8
0
100
AcDbLine
 62
7
  6
CONTINUOUS
 10
-27.3707927929
 20
-25.6587780751
 11
-27.3707927929
 21
-26.386706179
  0
LINE
  5
261
100
AcDbEntity
  8
DRAFT
100
AcDbLine
 62
7
  6
CONTINUOUS
 10
-27.3432769685
 20
-12.372742127
 11
-27.3432769685
 21
-10.572742127
  0
LINE
  5
262
100
AcDbEntity
  8
DRAFT
100
AcDbLine
 62
7
  6
CONTINUOUS
 10
-27.3432769685
 20
10.127257873
 11
-27.3432769685
 21
11.927257873
  0
LINE
  5
263
100
AcDbEntity
  8
DRAFT
100
AcDbLine
 62
7
  6
CONTINUOUS
 10
-27.3293129165
 20
-14.1169580273
 11
-27.3293129165
 21
-12.3834571209
  0
LINE
  5
264
100
AcDbEntity
  8
DRAFT
100
AcDbLine
 62
7
  6
CONTINUOUS
 10
-27.3293129165
 20
-10.5620271331
 11
-27.3293129165
 21
-8.8285262267
  0
LINE
  5
265
100
AcDbEntity
  8
DRAFT
100
AcDbLine
 62
7
  6
CONTINUOUS
 10
-27.3293129165
 20
8.3830419727
 11
-27.3293129165
 21
10.1165428791
  0
LINE
  5
266
100
AcDbEntity
  8
DRAFT
100
AcDbLine
 62
7
  6
CONTINUOUS
 10
-27.3293129165
 20
11.9379728669
 11
-27.3293129165
 21
13.6714737733
  0
LINE
  5
267
100
AcDbEntity
  8
0
100
AcDbLine
 62
7
  6
CONTINUOUS
 10
-26.9432769685
 20
-6.822742127
 11
-26.9432769685
 21
-4.622742127
  0
LINE
  5
268
100
AcDbEntity
  8
0
100
AcDbLine
 62
253
  6
CONTINUOUS
 10
-26.9432769685
 20
-4.622742127
 11
-26.9432769685
 21
4.177257873
  0
LINE
  5
269
100
AcDbEntity
  8
0
100
AcDbLine
 62
7
  6
CONTINUOUS
 10
-26.9432769685
 20
4.177257873
 11
-26.9432769685
 21
6.377257873
  0
LINE
  5
26A
100
AcDbEntity
  8
DRAFT
100
AcDbLine
 62
7
  6
CONTINUOUS
 10
-27.8944027867
 20
11.0052797395
 11
-27.9432769685
 21
10.777257873
  0
LINE
  5
26B
100
AcDbEntity
  8
SMUSSO
100
AcDbLine
 62
7
  6
CONTINUOUS
 10
-22.9481257716
 20
17.9777890193
 11
-22.9615701595
 21
17.9374476623
  0
LINE
  5
26C
100
AcDbEntity
  8
SMUSSO
100
AcDbLine
 62
7
  6
CONTINUOUS
 10
-22.6472404933
 20
17.6769953936
 11
-22.6602573751
 21
17.6379368155
  0
LINE
  5
26D
100
AcDbEntity
  8
0
100
AcDbLine
 62
7
  6
CONTINUOUS
 10
-25.1682259055
 20
13.9293839698
 11
-25.0024027887
 21
14.3979786573
  0
LINE
  5
26E
100
AcDbEntity
  8
DRAFT
100
AcDbLine
 62
7
  6
CONTINUOUS
 10
-15.5690128998
 20
26.327257873
 11
-14.5690128998
 21
27.627257873
  0
LINE
  5
26F
100
AcDbEntity
  8
DRAFT
100
AcDbLine
 62
7
  6
CONTINUOUS
 10
-15.520138718
 20
26.3106346911
 11
-14.5449471795
 21
27.5783836912
  0
LINE
  5
270
100
AcDbEntity
  8
DRAFT
100
AcDbLine
 62
7
  6
CONTINUOUS
 10
-24.692380233
 20
17.2095071937
 11
-24.860618475
 21
17.0304717961
  0
LINE
  5
271
100
AcDbEntity
  8
0
100
AcDbLine
 62
7
  6
CONTINUOUS
 10
-24.7932769685
 20
18.027257873
 11
-25.0932769685
 21
17.727257873
  0
LINE
  5
272
100
AcDbEntity
  8
RACCORDO
100
AcDbLine
 62
7
  6
CONTINUOUS
 10
-28.1846983247
 20
14.4358365167
 11
-26.2113890206
 21
16.4091458209
  0
LINE
  5
273
100
AcDbEntity
  8
RACCORDO
100
AcDbLine
 62
7
  6
CONTINUOUS
 10
-16.4132769685
 20
26.207257873
 11
-14.7518556122
 21
27.8686792292
  0
LINE
  5
274
100
AcDbEntity
  8
DRAFT
100
AcDbLine
 62
7
  6
CONTINUOUS
 10
-26.3432769685
 20
15.8529938043
 11
-25.8525822918
 21
16.3436884809
  0
LINE
  5
275
100
AcDbEntity
  8
DRAFT
100
AcDbLine
 62
7
  6
CONTINUOUS
 10
-25.0932769685
 20
17.1029938043
 11
-25.0665882412
 21
17.1296825316
  0
LINE
  5
276
100
AcDbEntity
  8
DRAFT
100
AcDbLine
 62
7
  6
CONTINUOUS
 10
-16.9932769685
 20
25.2029938043
 11
-16.1690128998
 21
26.027257873
  0
LINE
  5
277
100
AcDbEntity
  8
DRAFT
100
AcDbLine
 62
7
  6
CONTINUOUS
 10
-16.1487685508
 20
25.9783836912
 11
-16.9932769685
 21
25.1338752735
  0
LINE
  5
278
100
AcDbEntity
  8
DRAFT
100
AcDbLine
 62
7
  6
CONTINUOUS
 10
-25.0177140594
 20
17.1094381826
 11
-25.0932769685
 21
17.0338752735
  0
LINE
  5
279
100
AcDbEntity
  8
DRAFT
100
AcDbLine
 62
7
  6
CONTINUOUS
 10
-25.7890243596
 20
16.3381278824
 11
-26.2944027867
 21
15.8327494553
  0
LINE
  5
27A
100
AcDbEntity
  8
0
100
AcDbLine
 62
7
  6
CONTINUOUS
 10
-23.7932769685
 20
18.127257873
 11
-23.9830871792
 21
17.9374476623
  0
LINE
  5
27B
100
AcDbEntity
  8
DRAFT
100
AcDbLine
 62
7
  6
CONTINUOUS
 10
-27.3956421633
 20
13.6989482468
 11
-25.5673325371
 21
15.527257873
  0
LINE
  5
27C
100
AcDbEntity
  8
DRAFT
100
AcDbLine
 62
7
  6
CONTINUOUS
 10
-27.3293129165
 20
13.6714737733
 11
-25.4735288168
 21
15.527257873
  0
LINE
  5
27D
100
AcDbEntity
  8
DRAFT
100
AcDbLine
 62
7
  6
CONTINUOUS
 10
-15.8921511503
 20
24.9590245908
 11
-13.7750436863
 21
27.0761320548
  0
LINE
  5
27E
100
AcDbEntity
  8
DRAFT
100
AcDbLine
 62
7
  6
CONTINUOUS
 10
-15.8258219036
 20
24.9315501173
 11
-13.7475692128
 21
27.009802808
  0
LINE
  5
27F
100
AcDbEntity
  8
DRAFT
100
AcDbLine
 62
7
  6
CONTINUOUS
 10
-15.8572410204
 20
24.8336202107
 11
-15.8258219036
 21
24.8650393275
  0
LINE
  5
280
100
AcDbEntity
  8
DRAFT
100
AcDbLine
 62
7
  6
CONTINUOUS
 10
-15.8572410204
 20
24.7732607301
 11
-15.8921511503
 21
24.7383506002
  0
LINE
  5
281
100
AcDbEntity
  8
DRAFT
100
AcDbLine
 62
7
  6
CONTINUOUS
 10
-14.831058423
 20
24.877257873
 11
-14.8432769685
 21
24.8650393275
  0
LINE
  5
282
100
AcDbEntity
  8
DRAFT
100
AcDbLine
 62
7
  6
CONTINUOUS
 10
-27.9432769685
 20
11.277257873
 11
-28.1932769685
 21
11.027257873
  0
LINE
  5
283
100
AcDbEntity
  8
DRAFT
100
AcDbLine
 62
7
  6
CONTINUOUS
 10
-11.0932769685
 20
27.877257873
 11
-11.3432769685
 21
27.627257873
  0
LINE
  5
284
100
AcDbEntity
  8
DRAFT
100
AcDbLine
 62
7
  6
CONTINUOUS
 10
-27.8944027867
 20
11.0492360065
 11
-27.9163809202
 21
11.027257873
  0
LINE
  5
285
100
AcDbEntity
  8
DRAFT
100
AcDbLine
 62
7
  6
CONTINUOUS
 10
-11.0932769685
 20
27.6003618247
 11
-11.115255102
 21
27.5783836912
  0
LINE
  5
286
100
AcDbEntity
  8
DRAFT
100
AcDbLine
 62
253
  6
CONTINUOUS
 10
-24.9225245865
 20
17.7477235306
 11
-24.692380231
 21
17.9777890214
  0
LINE
  5
287
100
AcDbEntity
  8
DRAFT
100
AcDbLine
 62
7
  6
CONTINUOUS
 10
-24.692380233
 20
17.9374476623
 11
-24.896200945
 21
17.7345657203
  0
LINE
  5
288
100
AcDbEntity
  8
DRAFT
100
AcDbLine
 62
7
  6
CONTINUOUS
 10
-27.9432769685
 20
14.2529938043
 11
-26.6432769685
 21
15.2529938043
  0
LINE
  5
289
100
AcDbEntity
  8
DRAFT
100
AcDbLine
 62
7
  6
CONTINUOUS
 10
-27.8944027867
 20
14.228928084
 11
-26.6266537866
 21
15.2041196225
  0
LINE
  5
28A
100
AcDbEntity
  8
DRAFT
100
AcDbLine
 62
7
  6
CONTINUOUS
 10
-24.9225245862
 20
21.3067922155
 11
-24.896200945
 21
21.3199500257
  0
LINE
  5
28B
100
AcDbEntity
  8
0
100
AcDbLine
 62
7
  6
CONTINUOUS
 10
-26.7963948205
 20
17.5852778517
 11
-26.7878505029
 21
17.5895378913
  0
LINE
  5
28C
100
AcDbEntity
  8
DRAFT
100
AcDbLine
 62
7
  6
CONTINUOUS
 10
10.884744898
 20
-28.0238679452
 11
10.6567230315
 21
-28.072742127
  0
LINE
  5
28D
100
AcDbEntity
  8
0
100
AcDbLine
 62
253
  6
CONTINUOUS
 10
37.5775668339
 20
-30.722742127
 11
39.2358792291
 21
-30.722742127
  0
LINE
  5
28E
100
AcDbEntity
  8
0
100
AcDbLine
 62
253
  6
CONTINUOUS
 10
-37.7641207709
 20
-30.722742127
 11
-39.4224331661
 21
-30.722742127
  0
LINE
  5
28F
100
AcDbEntity
  8
0
100
AcDbLine
 62
7
  6
CONTINUOUS
 10
-20.9500699685
 20
-30.496527127
 11
-21.2364839685
 21
-30.496527127
  0
LINE
  5
290
100
AcDbEntity
  8
DRAFT
100
AcDbLine
 62
7
  6
CONTINUOUS
 10
21.4221911041
 20
-28.622742127
 11
19.191254959
 21
-28.622742127
  0
LINE
  5
291
100
AcDbEntity
  8
RACCORDO
100
AcDbLine
 62
7
  6
CONTINUOUS
 10
14.3999451181
 20
-28.372742127
 11
8.8209365939
 21
-28.372742127
  0
LINE
  5
292
100
AcDbEntity
  8
0
100
AcDbLine
 62
7
  6
CONTINUOUS
 10
8.8209365939
 20
-28.372742127
 11
8.3724084565
 21
-28.372742127
  0
LINE
  5
293
100
AcDbEntity
  8
0
100
AcDbLine
 62
7
  6
CONTINUOUS
 10
-8.5589623934
 20
-28.372742127
 11
-8.8074905309
 21
-28.372742127
  0
LINE
  5
294
100
AcDbEntity
  8
RACCORDO
100
AcDbLine
 62
7
  6
CONTINUOUS
 10
-8.8074905309
 20
-28.372742127
 11
-14.610434256
 21
-28.372742127
  0
LINE
  5
295
100
AcDbEntity
  8
ASSI
100
AcDbLine
 62
7
  6
CONTINUOUS
 10
-2.8432769685
 20
-28.322742127
 11
2.6567230315
 21
-28.322742127
  0
LINE
  5
296
100
AcDbEntity
  8
DRAFT
100
AcDbLine
 62
7
  6
CONTINUOUS
 10
14.3824589628
 20
-28.072742127
 11
11.1567230315
 21
-28.072742127
  0
LINE
  5
297
100
AcDbEntity
  8
DRAFT
100
AcDbLine
 62
7
  6
CONTINUOUS
 10
10.6567230315
 20
-28.072742127
 11
8.3451375759
 21
-28.072742127
  0
LINE
  5
298
100
AcDbEntity
  8
DRAFT
100
AcDbLine
 62
7
  6
CONTINUOUS
 10
-8.5316915128
 20
-28.072742127
 11
-10.8432769685
 21
-28.072742127
  0
LINE
  5
299
100
AcDbEntity
  8
DRAFT
100
AcDbLine
 62
7
  6
CONTINUOUS
 10
-11.3432769685
 20
-28.072742127
 11
-14.5690128998
 21
-28.072742127
  0
LINE
  5
29A
100
AcDbEntity
  8
0
100
AcDbLine
 62
7
  6
CONTINUOUS
 10
-25.5101123451
 20
-28.0486977203
 11
-26.2764415918
 21
-28.0486977203
  0
LINE
  5
29B
100
AcDbEntity
  8
DRAFT
100
AcDbLine
 62
7
  6
CONTINUOUS
 10
-14.5449471795
 20
-28.0238679452
 11
-11.115255102
 21
-28.0238679452
  0
LINE
  5
29C
100
AcDbEntity
  8
DRAFT
100
AcDbLine
 62
7
  6
CONTINUOUS
 10
-11.071298835
 20
-28.0238679452
 11
-8.5519358618
 21
-28.0238679452
  0
LINE
  5
29D
100
AcDbEntity
  8
DRAFT
100
AcDbLine
 62
7
  6
CONTINUOUS
 10
8.3653819248
 20
-28.0238679452
 11
10.884744898
 21
-28.0238679452
  0
LINE
  5
29E
100
AcDbEntity
  8
DRAFT
100
AcDbLine
 62
7
  6
CONTINUOUS
 10
10.928701165
 20
-28.0238679452
 11
14.3583932425
 21
-28.0238679452
  0
LINE
  5
29F
100
AcDbEntity
  8
DRAFT
100
AcDbLine
 62
7
  6
CONTINUOUS
 10
13.5884897494
 20
-27.5216163088
 11
8.7249563137
 21
-27.5216163088
  0
LINE
  5
2A0
100
AcDbEntity
  8
DRAFT
100
AcDbLine
 62
7
  6
CONTINUOUS
 10
-8.9115102506
 20
-27.5216163088
 11
-13.7750436863
 21
-27.5216163088
  0
LINE
  5
2A1
100
AcDbEntity
  8
DRAFT
100
AcDbLine
 62
7
  6
CONTINUOUS
 10
12.05940178
 20
-27.469251114
 11
10.254044283
 21
-27.469251114
  0
LINE
  5
2A2
100
AcDbEntity
  8
DRAFT
100
AcDbLine
 62
7
  6
CONTINUOUS
 10
-10.44059822
 20
-27.469251114
 11
-12.245955717
 21
-27.469251114
  0
LINE
  5
2A3
100
AcDbEntity
  8
DRAFT
100
AcDbLine
 62
7
  6
CONTINUOUS
 10
13.5610152758
 20
-27.4552870621
 11
12.0701167739
 21
-27.4552870621
  0
LINE
  5
2A4
100
AcDbEntity
  8
DRAFT
100
AcDbLine
 62
7
  6
CONTINUOUS
 10
10.2433292891
 20
-27.4552870621
 11
8.7524307872
 21
-27.4552870621
  0
LINE
  5
2A5
100
AcDbEntity
  8
DRAFT
100
AcDbLine
 62
7
  6
CONTINUOUS
 10
-8.9389847242
 20
-27.4552870621
 11
-10.4298832261
 21
-27.4552870621
  0
LINE
  5
2A6
100
AcDbEntity
  8
DRAFT
100
AcDbLine
 62
7
  6
CONTINUOUS
 10
-12.2566707109
 20
-27.4552870621
 11
-13.7475692128
 21
-27.4552870621
  0
LINE
  5
2A7
100
AcDbEntity
  8
RACCORDO
100
AcDbLine
 62
7
  6
CONTINUOUS
 10
6.423880319
 20
-27.072742127
 11
5.8067230315
 21
-27.072742127
  0
LINE
  5
2A8
100
AcDbEntity
  8
RACCORDO
100
AcDbLine
 62
7
  6
CONTINUOUS
 10
-5.9932769685
 20
-27.072742127
 11
-6.610434256
 21
-27.072742127
  0
LINE
  5
2A9
100
AcDbEntity
  8
0
100
AcDbLine
 62
253
  6
CONTINUOUS
 10
5.8067230315
 20
-27.0725800978
 11
-5.9932769685
 21
-27.0725800978
  0
LINE
  5
2AA
100
AcDbEntity
  8
0
100
AcDbLine
 62
253
  6
CONTINUOUS
 10
5.8067230315
 20
-26.9730412766
 11
-5.9932769685
 21
-26.9730412766
  0
LINE
  5
2AB
100
AcDbEntity
  8
DRAFT
100
AcDbLine
 62
7
  6
CONTINUOUS
 10
5.6067230315
 20
-26.972742127
 11
4.4067230315
 21
-26.972742127
  0
LINE
  5
2AC
100
AcDbEntity
  8
DRAFT
100
AcDbLine
 62
7
  6
CONTINUOUS
 10
-4.5932769685
 20
-26.972742127
 11
-5.7932769685
 21
-26.972742127
  0
LINE
  5
2AD
100
AcDbEntity
  8
DRAFT
100
AcDbLine
 62
7
  6
CONTINUOUS
 10
5.6067230315
 20
-26.9654812761
 11
4.4067230315
 21
-26.9654812761
  0
LINE
  5
2AE
100
AcDbEntity
  8
DRAFT
100
AcDbLine
 62
7
  6
CONTINUOUS
 10
-4.5932769685
 20
-26.9654812761
 11
-5.7932769685
 21
-26.9654812761
  0
LINE
  5
2AF
100
AcDbEntity
  8
0
100
AcDbLine
 62
7
  6
CONTINUOUS
 10
-24.8061391496
 20
-26.373039262
 11
-24.4157611441
 21
-26.386706179
  0
LINE
  5
2B0
100
AcDbEntity
  8
DRAFT
100
AcDbLine
 62
7
  6
CONTINUOUS
 10
-11.071298835
 20
-28.0238679452
 11
-10.8432769685
 21
-28.072742127
  0
LINE
  5
2B1
100
AcDbEntity
  8
DRAFT
100
AcDbLine
 62
7
  6
CONTINUOUS
 10
-26.6432769685
 20
-15.6984780583
 11
-27.9432769685
 21
-14.6984780583
  0
LINE
  5
2B2
100
AcDbEntity
  8
DRAFT
100
AcDbLine
 62
7
  6
CONTINUOUS
 10
-26.6266537866
 20
-15.6496038765
 11
-27.8944027867
 21
-14.674412338
  0
LINE
  5
2B3
100
AcDbEntity
  8
SMUSSO
100
AcDbLine
 62
7
  6
CONTINUOUS
 10
-17.110226701
 20
-26.0057923945
 11
-16.9793129165
 21
-26.136706179
  0
LINE
  5
2B4
100
AcDbEntity
  8
RACCORDO
100
AcDbLine
 62
7
  6
CONTINUOUS
 10
-14.7518556122
 20
-28.3141634833
 11
-16.4132769685
 21
-26.652742127
  0
LINE
  5
2B5
100
AcDbEntity
  8
RACCORDO
100
AcDbLine
 62
7
  6
CONTINUOUS
 10
-25.2518556122
 20
-17.8141634833
 11
-28.1846983247
 21
-14.8813207708
  0
LINE
  5
2B6
100
AcDbEntity
  8
DRAFT
100
AcDbLine
 62
7
  6
CONTINUOUS
 10
-16.1690128998
 20
-26.472742127
 11
-16.9793129165
 21
-25.6624421103
  0
LINE
  5
2B7
100
AcDbEntity
  8
DRAFT
100
AcDbLine
 62
7
  6
CONTINUOUS
 10
-25.0665882412
 20
-17.5751667856
 11
-26.3432769685
 21
-16.2984780583
  0
LINE
  5
2B8
100
AcDbEntity
  8
DRAFT
100
AcDbLine
 62
7
  6
CONTINUOUS
 10
-26.2944027867
 20
-16.2782337094
 11
-25.0177140594
 21
-17.5549224367
  0
LINE
  5
2B9
100
AcDbEntity
  8
DRAFT
100
AcDbLine
 62
7
  6
CONTINUOUS
 10
-17.0281870983
 20
-25.5444493977
 11
-16.1487685508
 21
-26.4238679452
  0
LINE
  5
2BA
100
AcDbEntity
  8
DRAFT
100
AcDbLine
 62
7
  6
CONTINUOUS
 10
-17.0281870983
 20
-25.1838348543
 11
-17.115462423
 21
-25.0965595296
  0
LINE
  5
2BB
100
AcDbEntity
  8
DRAFT
100
AcDbLine
 62
7
  6
CONTINUOUS
 10
-25.5673325371
 20
-15.972742127
 11
-27.3956421633
 21
-14.1444325009
  0
LINE
  5
2BC
100
AcDbEntity
  8
DRAFT
100
AcDbLine
 62
7
  6
CONTINUOUS
 10
-25.4735288168
 20
-15.972742127
 11
-27.3293129165
 21
-14.1169580273
  0
LINE
  5
2BD
100
AcDbEntity
  8
DRAFT
100
AcDbLine
 62
7
  6
CONTINUOUS
 10
-13.7750436863
 20
-27.5216163088
 11
-15.8921511503
 21
-25.4045088449
  0
LINE
  5
2BE
100
AcDbEntity
  8
DRAFT
100
AcDbLine
 62
7
  6
CONTINUOUS
 10
-13.7475692128
 20
-27.4552870621
 11
-15.8258219036
 21
-25.3770343713
  0
LINE
  5
2BF
100
AcDbEntity
  8
DRAFT
100
AcDbLine
 62
7
  6
CONTINUOUS
 10
-15.8572410204
 20
-25.2791044647
 11
-15.8258219036
 21
-25.3105235816
  0
LINE
  5
2C0
100
AcDbEntity
  8
DRAFT
100
AcDbLine
 62
7
  6
CONTINUOUS
 10
-15.8572410204
 20
-25.2187449841
 11
-15.8921511503
 21
-25.1838348543
  0
LINE
  5
2C1
100
AcDbEntity
  8
DRAFT
100
AcDbLine
 62
7
  6
CONTINUOUS
 10
-14.831058423
 20
-25.322742127
 11
-14.8432769685
 21
-25.3105235816
  0
LINE
  5
2C2
100
AcDbEntity
  8
DRAFT
100
AcDbLine
 62
7
  6
CONTINUOUS
 10
-28.1932769685
 20
-11.472742127
 11
-27.9432769685
 21
-11.722742127
  0
LINE
  5
2C3
100
AcDbEntity
  8
DRAFT
100
AcDbLine
 62
7
  6
CONTINUOUS
 10
-11.3432769685
 20
-28.072742127
 11
-11.0932769685
 21
-28.322742127
  0
LINE
  5
2C4
100
AcDbEntity
  8
DRAFT
100
AcDbLine
 62
7
  6
CONTINUOUS
 10
-27.9163809202
 20
-11.472742127
 11
-27.8944027867
 21
-11.4947202605
  0
LINE
  5
2C5
100
AcDbEntity
  8
DRAFT
100
AcDbLine
 62
7
  6
CONTINUOUS
 10
-11.115255102
 20
-28.0238679452
 11
-11.0932769685
 21
-28.0458460787
  0
LINE
  5
2C6
100
AcDbEntity
  8
DRAFT
100
AcDbLine
 62
7
  6
CONTINUOUS
 10
-14.5690128998
 20
-28.072742127
 11
-15.5690128998
 21
-26.772742127
  0
LINE
  5
2C7
100
AcDbEntity
  8
DRAFT
100
AcDbLine
 62
7
  6
CONTINUOUS
 10
-14.5449471795
 20
-28.0238679452
 11
-15.520138718
 21
-26.7561189452
  0
LINE
  5
2C8
100
AcDbEntity
  8
0
100
AcDbLine
 62
7
  6
CONTINUOUS
 10
-25.1682259055
 20
-14.3748682238
 11
-25.0024027887
 21
-14.8434629114
  0
LINE
  5
2C9
100
AcDbEntity
  8
DRAFT
100
AcDbLine
 62
7
  6
CONTINUOUS
 10
-27.8944027867
 20
-11.4507639935
 11
-27.9432769685
 21
-11.222742127
  0
LINE
  5
2CA
100
AcDbEntity
  8
DRAFT
100
AcDbLine
 62
7
  6
CONTINUOUS
 10
-24.896200945
 20
17.7345657203
 11
-24.860618475
 21
17.0304717961
  0
LINE
  5
2CB
100
AcDbEntity
  8
0
100
AcDbLine
 62
7
  6
CONTINUOUS
 10
-25.5101123451
 20
-28.0486977203
 11
-25.5429798335
 21
-27.1098799459
  0
LINE
  5
2CC
100
AcDbEntity
  8
SMUSSO
100
AcDbLine
 62
7
  6
CONTINUOUS
 10
-24.9304387347
 20
25.2550724185
 11
-24.9356744567
 21
25.5603081404
  0
LINE
  5
2CD
100
AcDbEntity
  8
SMUSSO
100
AcDbLine
 62
7
  6
CONTINUOUS
 10
-24.062363184
 20
25.5603081404
 11
-24.057127462
 21
25.2550724185
  0
LINE
  5
2CE
100
AcDbEntity
  8
0
100
AcDbLine
 62
253
  6
CONTINUOUS
 10
-26.6082770124
 20
-4.622742127
 11
-26.6082770124
 21
4.177257873
  0
LINE
  5
2CF
100
AcDbEntity
  8
0
100
AcDbLine
 62
253
  6
CONTINUOUS
 10
-26.5062811592
 20
-4.622742127
 11
-26.5062811592
 21
4.177257873
  0
LINE
  5
2D0
100
AcDbEntity
  8
DRAFT
100
AcDbLine
 62
7
  6
CONTINUOUS
 10
-26.3932769685
 20
11.6727061402
 11
-26.3932769685
 21
10.3818096058
  0
LINE
  5
2D1
100
AcDbEntity
  8
DRAFT
100
AcDbLine
 62
7
  6
CONTINUOUS
 10
-26.3932769685
 20
-10.8272938598
 11
-26.3932769685
 21
-12.1181903942
  0
LINE
  5
2D2
100
AcDbEntity
  8
DRAFT
100
AcDbLine
 62
7
  6
CONTINUOUS
 10
-26.3793129165
 20
11.6834211341
 11
-26.3793129165
 21
10.3710946119
  0
LINE
  5
2D3
100
AcDbEntity
  8
DRAFT
100
AcDbLine
 62
7
  6
CONTINUOUS
 10
-26.3793129165
 20
-10.8165788659
 11
-26.3793129165
 21
-12.1289053881
  0
LINE
  5
2D4
100
AcDbEntity
  8
DRAFT
100
AcDbLine
 62
7
  6
CONTINUOUS
 10
-26.3432769685
 20
-16.2984780583
 11
-26.3432769685
 21
-15.6984780583
  0
LINE
  5
2D5
100
AcDbEntity
  8
DRAFT
100
AcDbLine
 62
7
  6
CONTINUOUS
 10
-26.3432769685
 20
15.2529938043
 11
-26.3432769685
 21
15.8529938043
  0
LINE
  5
2D6
100
AcDbEntity
  8
0
100
AcDbLine
 62
253
  6
CONTINUOUS
 10
-26.3332401844
 20
16.4772050407
 11
-26.3332401844
 21
18.927257873
  0
LINE
  5
2D7
100
AcDbEntity
  8
0
100
AcDbLine
 62
253
  6
CONTINUOUS
 10
-26.3332401844
 20
20.127257873
 11
-26.3332401844
 21
22.5773107053
  0
LINE
  5
2D8
100
AcDbEntity
  8
DRAFT
100
AcDbLine
 62
7
  6
CONTINUOUS
 10
-26.2944027867
 20
-16.2782337094
 11
-26.2944027867
 21
-15.6496038765
  0
LINE
  5
2D9
100
AcDbEntity
  8
DRAFT
100
AcDbLine
 62
7
  6
CONTINUOUS
 10
-26.2944027867
 20
15.2041196225
 11
-26.2944027867
 21
15.8327494553
  0
LINE
  5
2DA
100
AcDbEntity
  8
0
100
AcDbLine
 62
7
  6
CONTINUOUS
 10
-26.2764415918
 20
-23.9967865338
 11
-26.2764415918
 21
-25.0440195122
  0
LINE
  5
2DB
100
AcDbEntity
  8
0
100
AcDbLine
 62
7
  6
CONTINUOUS
 10
-26.2764415918
 20
-27.0014647418
 11
-26.2764415918
 21
-28.0486977203
  0
LINE
  5
2DC
100
AcDbEntity
  8
DRAFT
100
AcDbLine
 62
7
  6
CONTINUOUS
 10
-26.1932769685
 20
-1.7175056075
 11
-26.1932769685
 21
1.2720213535
  0
LINE
  5
2DD
100
AcDbEntity
  8
0
100
AcDbLine
 62
253
  6
CONTINUOUS
 10
-26.1740570802
 20
16.3718138805
 11
-26.1740570802
 21
18.927257873
  0
LINE
  5
2DE
100
AcDbEntity
  8
0
100
AcDbLine
 62
253
  6
CONTINUOUS
 10
-26.1740570802
 20
20.127257873
 11
-26.1740570802
 21
22.6827018654
  0
LINE
  5
2DF
100
AcDbEntity
  8
0
100
AcDbLine
 62
7
  6
CONTINUOUS
 10
-25.8932769685
 20
20.127257873
 11
-25.8932769685
 21
18.927257873
  0
LINE
  5
2E0
100
AcDbEntity
  8
RACCORDO
100
AcDbLine
 62
7
  6
CONTINUOUS
 10
-25.7603541624
 20
1.277257873
 11
-25.7603541624
 21
3.677257873
  0
LINE
  5
2E1
100
AcDbEntity
  8
0
100
AcDbLine
 62
7
  6
CONTINUOUS
 10
-25.5101123451
 20
-23.9967865338
 11
-25.5101123451
 21
-25.0440195122
  0
LINE
  5
2E2
100
AcDbEntity
  8
0
100
AcDbLine
 62
7
  6
CONTINUOUS
 10
-25.5101123451
 20
-27.0014647418
 11
-25.5101123451
 21
-28.0486977203
  0
LINE
  5
2E3
100
AcDbEntity
  8
0
100
AcDbLine
 62
7
  6
CONTINUOUS
 10
-25.4682259055
 20
13.9823546585
 11
-25.4682259055
 21
12.0633994989
  0
LINE
  5
2E4
100
AcDbEntity
  8
0
100
AcDbLine
 62
7
  6
CONTINUOUS
 10
-25.4682259055
 20
9.9911162471
 11
-25.4682259055
 21
8.0721610875
  0
LINE
  5
2E5
100
AcDbEntity
  8
0
100
AcDbLine
 62
7
  6
CONTINUOUS
 10
-25.4682259055
 20
-8.5176453415
 11
-25.4682259055
 21
-10.4366005011
  0
LINE
  5
2E6
100
AcDbEntity
  8
0
100
AcDbLine
 62
7
  6
CONTINUOUS
 10
-25.4682259055
 20
-12.5088837529
 11
-25.4682259055
 21
-14.4278389125
  0
LINE
  5
2E7
100
AcDbEntity
  8
SMUSSO
100
AcDbLine
 62
7
  6
CONTINUOUS
 10
-25.1932769685
 20
-21.7729946587
 11
-25.1932769685
 21
-17.9555848395
  0
LINE
  5
2E8
100
AcDbEntity
  8
RACCORDO
100
AcDbLine
 62
7
  6
CONTINUOUS
 10
-25.1932769685
 20
22.777257873
 11
-25.1932769685
 21
26.127257873
  0
LINE
  5
2E9
100
AcDbEntity
  8
0
100
AcDbLine
 62
7
  6
CONTINUOUS
 10
-25.1932769685
 20
26.127257873
 11
-25.1932769685
 21
26.207257873
  0
LINE
  5
2EA
100
AcDbEntity
  8
0
100
AcDbLine
 62
7
  6
CONTINUOUS
 10
-25.1682259055
 20
13.9293839698
 11
-25.1682259055
 21
11.9830147411
  0
LINE
  5
2EB
100
AcDbEntity
  8
0
100
AcDbLine
 62
7
  6
CONTINUOUS
 10
-25.1682259055
 20
10.0715010048
 11
-25.1682259055
 21
8.1251317762
  0
LINE
  5
2EC
100
AcDbEntity
  8
0
100
AcDbLine
 62
7
  6
CONTINUOUS
 10
-25.1682259055
 20
-8.5706160302
 11
-25.1682259055
 21
-10.5169852589
  0
LINE
  5
2ED
100
AcDbEntity
  8
0
100
AcDbLine
 62
7
  6
CONTINUOUS
 10
-25.1682259055
 20
-12.4284989952
 11
-25.1682259055
 21
-14.3748682238
  0
LINE
  5
2EE
100
AcDbEntity
  8
0
100
AcDbLine
 62
7
  6
CONTINUOUS
 10
-25.1333157756
 20
-12.3830032282
 11
-25.1333157756
 21
-10.5624810259
  0
LINE
  5
2EF
100
AcDbEntity
  8
0
100
AcDbLine
 62
7
  6
CONTINUOUS
 10
-25.1333157756
 20
10.1169967718
 11
-25.1333157756
 21
11.9375189741
  0
LINE
  5
2F0
100
AcDbEntity
  8
0
100
AcDbLine
 62
7
  6
CONTINUOUS
 10
-25.0932769685
 20
22.777257873
 11
-25.0932769685
 21
16.277257873
  0
LINE
  5
2F1
100
AcDbEntity
  8
DRAFT
100
AcDbLine
 62
7
  6
CONTINUOUS
 10
-25.0665882412
 20
-21.4099133416
 11
-25.0665882412
 21
-17.5751667856
  0
LINE
  5
2F2
100
AcDbEntity
  8
DRAFT
100
AcDbLine
 62
7
  6
CONTINUOUS
 10
-25.0665882412
 20
-5.3703174684
 11
-25.0665882412
 21
-4.5416500289
  0
LINE
  5
2F3
100
AcDbEntity
  8
DRAFT
100
AcDbLine
 62
7
  6
CONTINUOUS
 10
-25.0665882412
 20
4.0961657748
 11
-25.0665882412
 21
4.9248332144
  0
LINE
  5
2F4
100
AcDbEntity
  8
DRAFT
100
AcDbLine
 62
7
  6
CONTINUOUS
 10
-25.0665882412
 20
17.1296825316
 11
-25.0665882412
 21
17.7539466003
  0
LINE
  5
2F5
100
AcDbEntity
  8
DRAFT
100
AcDbLine
 62
7
  6
CONTINUOUS
 10
-25.0665882412
 20
21.3005691457
 11
-25.0665882412
 21
25.6912219249
  0
LINE
  5
2F6
100
AcDbEntity
  8
DRAFT
100
AcDbLine
 62
7
  6
CONTINUOUS
 10
-25.0177140594
 20
-17.5549224367
 11
-25.0177140594
 21
-15.972742127
  0
LINE
  5
2F7
100
AcDbEntity
  8
DRAFT
100
AcDbLine
 62
7
  6
CONTINUOUS
 10
-25.0177140594
 20
-6.972742127
 11
-25.0177140594
 21
-5.3905618174
  0
LINE
  5
2F8
100
AcDbEntity
  8
DRAFT
100
AcDbLine
 62
7
  6
CONTINUOUS
 10
-25.0177140594
 20
4.9450775633
 11
-25.0177140594
 21
6.527257873
  0
LINE
  5
2F9
100
AcDbEntity
  8
DRAFT
100
AcDbLine
 62
7
  6
CONTINUOUS
 10
-25.0177140594
 20
15.527257873
 11
-25.0177140594
 21
17.1094381826
  0
LINE
  5
2FA
100
AcDbEntity
  8
0
100
AcDbLine
 62
7
  6
CONTINUOUS
 10
-25.0024027887
 20
14.3979786573
 11
-25.0024027887
 21
7.6565370886
  0
LINE
  5
2FB
100
AcDbEntity
  8
0
100
AcDbLine
 62
7
  6
CONTINUOUS
 10
-25.0024027887
 20
-8.1020213427
 11
-25.0024027887
 21
-14.8434629114
  0
LINE
  5
2FC
100
AcDbEntity
  8
RACCORDO
100
AcDbLine
 62
7
  6
CONTINUOUS
 10
-24.9973806018
 20
1.777257873
 11
-24.9973806018
 21
3.677257873
  0
LINE
  5
2FD
100
AcDbEntity
  8
DRAFT
100
AcDbLine
 62
7
  6
CONTINUOUS
 10
-24.9566213321
 20
-15.9759490797
 11
-24.9566213321
 21
-14.8434629114
  0
LINE
  5
2FE
100
AcDbEntity
  8
DRAFT
100
AcDbLine
 62
7
  6
CONTINUOUS
 10
-24.9566213321
 20
-8.1020213427
 11
-24.9566213321
 21
-6.9695351744
  0
LINE
  5
2FF
100
AcDbEntity
  8
DRAFT
100
AcDbLine
 62
7
  6
CONTINUOUS
 10
-24.9566213321
 20
6.5240509203
 11
-24.9566213321
 21
7.6565370886
  0
LINE
  5
300
100
AcDbEntity
  8
DRAFT
100
AcDbLine
 62
7
  6
CONTINUOUS
 10
-24.9566213321
 20
14.3979786573
 11
-24.9566213321
 21
15.5304648256
  0
LINE
  5
301
100
AcDbEntity
  8
DRAFT
100
AcDbLine
 62
7
  6
CONTINUOUS
 10
-24.9378207038
 20
-1.6672858624
 11
-24.9378207038
 21
1.2218016083
  0
LINE
  5
302
100
AcDbEntity
  8
DRAFT
100
AcDbLine
 62
7
  6
CONTINUOUS
 10
-24.9304387347
 20
14.385272039
 11
-24.9304387347
 21
7.669243707
  0
LINE
  5
303
100
AcDbEntity
  8
DRAFT
100
AcDbLine
 62
7
  6
CONTINUOUS
 10
-24.9304387347
 20
-8.114727961
 11
-24.9304387347
 21
-14.830756293
  0
LINE
  5
304
100
AcDbEntity
  8
SMUSSO
100
AcDbLine
 62
7
  6
CONTINUOUS
 10
-24.9304387347
 20
24.677257873
 11
-24.9304387347
 21
25.2550724185
  0
LINE
  5
305
100
AcDbEntity
  8
DRAFT
100
AcDbLine
 62
7
  6
CONTINUOUS
 10
-24.860618475
 20
24.677257873
 11
-24.860618475
 21
22.0240439499
  0
LINE
  5
306
100
AcDbEntity
  8
DRAFT
100
AcDbLine
 62
7
  6
CONTINUOUS
 10
-24.860618475
 20
17.0304717961
 11
-24.860618475
 21
3.777257873
  0
LINE
  5
307
100
AcDbEntity
  8
DRAFT
100
AcDbLine
 62
7
  6
CONTINUOUS
 10
-24.860618475
 20
-4.222742127
 11
-24.860618475
 21
-21.3341773828
  0
LINE
  5
308
100
AcDbEntity
  8
0
100
AcDbLine
 62
7
  6
CONTINUOUS
 10
-24.7932769685
 20
21.027257873
 11
-24.7932769685
 21
18.027257873
  0
LINE
  5
309
100
AcDbEntity
  8
SMUSSO
100
AcDbLine
 62
7
  6
CONTINUOUS
 10
-24.692380233
 20
17.2095071937
 11
-24.6924120011
 21
18.027257873
  0
LINE
  5
30A
100
AcDbEntity
  8
0
100
AcDbLine
 62
7
  6
CONTINUOUS
 10
-24.4157611441
 20
-25.6587780751
 11
-24.4157611441
 21
-26.386706179
  0
LINE
  5
30B
100
AcDbEntity
  8
DRAFT
100
AcDbLine
 62
7
  6
CONTINUOUS
 10
-24.1932769685
 20
25.6912219249
 11
-24.1932769685
 21
26.207257873
  0
LINE
  5
30C
100
AcDbEntity
  8
SMUSSO
100
AcDbLine
 62
7
  6
CONTINUOUS
 10
-24.057127462
 20
25.2550724185
 11
-24.057127462
 21
25.277257873
  0
LINE
  5
30D
100
AcDbEntity
  8
DRAFT
100
AcDbLine
 62
7
  6
CONTINUOUS
 10
-22.9932769685
 20
24.677257873
 11
-22.9932769685
 21
25.277257873
  0
LINE
  5
30E
100
AcDbEntity
  8
RACCORDO
100
AcDbLine
 62
7
  6
CONTINUOUS
 10
-22.9432769685
 20
25.4744231561
 11
-22.9432769685
 21
25.277257873
  0
LINE
  5
30F
100
AcDbEntity
  8
RACCORDO
100
AcDbLine
 62
7
  6
CONTINUOUS
 10
-22.9432769685
 20
25.4744231561
 11
-22.9432769685
 21
26.0891522072
  0
LINE
  5
310
100
AcDbEntity
  8
0
100
AcDbLine
 62
7
  6
CONTINUOUS
 10
-22.9432769685
 20
26.0891522072
 11
-22.9432769685
 21
26.2877036756
  0
LINE
  5
311
100
AcDbEntity
  8
SMUSSO
100
AcDbLine
 62
7
  6
CONTINUOUS
 10
-24.6924061377
 20
21.027257873
 11
-24.692380233
 21
21.8450085522
  0
LINE
  5
312
100
AcDbEntity
  8
SMUSSO
100
AcDbLine
 62
7
  6
CONTINUOUS
 10
-22.9607407913
 20
17.9374476623
 11
-22.9781945269
 21
17.2095071937
  0
LINE
  5
313
100
AcDbEntity
  8
SMUSSO
100
AcDbLine
 62
7
  6
CONTINUOUS
 10
-22.6602573751
 20
17.6379368155
 11
-22.6781844396
 21
16.890255284
  0
LINE
  5
314
100
AcDbEntity
  8
0
100
AcDbLine
 62
7
  6
CONTINUOUS
 10
-26.2435741035
 20
-27.1098799459
 11
-26.2764415918
 21
-28.0486977203
  0
LINE
  5
315
100
AcDbEntity
  8
0
100
AcDbLine
 62
7
  6
CONTINUOUS
 10
-25.5429798335
 20
-24.9356043082
 11
-25.5101123451
 21
-23.9967865338
  0
LINE
  5
316
100
AcDbEntity
  8
DRAFT
100
AcDbLine
 62
7
  6
CONTINUOUS
 10
-24.896200945
 20
21.3199500257
 11
-24.860618475
 21
22.0240439499
  0
LINE
  5
317
100
AcDbEntity
  8
DRAFT
100
AcDbLine
 62
7
  6
CONTINUOUS
 10
-24.9973806018
 20
-1.7507298649
 11
-24.9932769685
 21
-1.722742127
  0
LINE
  5
318
100
AcDbEntity
  8
0
100
AcDbLine
 62
7
  6
CONTINUOUS
 10
-22.5841946416
 20
8.4383268571
 11
-22.6432769685
 21
8.0730854867
  0
LINE
  5
319
100
AcDbEntity
  8
DRAFT
100
AcDbLine
 62
7
  6
CONTINUOUS
 10
-27.8944027867
 20
-11.4947202605
 11
-27.9432769685
 21
-11.722742127
  0
LINE
  5
31A
100
AcDbEntity
  8
DRAFT
100
AcDbLine
 62
7
  6
CONTINUOUS
 10
-12.245955717
 20
27.02376686
 11
-12.2566707109
 21
27.009802808
  0
LINE
  5
31B
100
AcDbEntity
  8
0
100
AcDbLine
 62
7
  6
CONTINUOUS
 10
-25.1682259055
 20
10.0715010048
 11
-25.1333157756
 21
10.1169967718
  0
LINE
  5
31C
100
AcDbEntity
  8
DRAFT
100
AcDbLine
 62
7
  6
CONTINUOUS
 10
-11.9914039842
 20
26.07376686
 11
-12.0021189781
 21
26.059802808
  0
LINE
  5
31D
100
AcDbEntity
  8
DRAFT
100
AcDbLine
 62
7
  6
CONTINUOUS
 10
-12.6152353062
 20
23.7052995352
 11
-12.7932769685
 21
23.527257873
  0
LINE
  5
31E
100
AcDbEntity
  8
DRAFT
100
AcDbLine
 62
7
  6
CONTINUOUS
 10
-27.3432769685
 20
11.927257873
 11
-27.3293129165
 21
11.9379728669
  0
LINE
  5
31F
100
AcDbEntity
  8
DRAFT
100
AcDbLine
 62
7
  6
CONTINUOUS
 10
-26.3932769685
 20
11.6727061402
 11
-26.3793129165
 21
11.6834211341
  0
LINE
  5
320
100
AcDbEntity
  8
DRAFT
100
AcDbLine
 62
7
  6
CONTINUOUS
 10
-12.6850555659
 20
22.327257873
 11
-12.6152353062
 21
22.3621653441
  0
LINE
  5
321
100
AcDbEntity
  8
DRAFT
100
AcDbLine
 62
7
  6
CONTINUOUS
 10
-6.8607320334
 20
24.9315501173
 11
-6.7944027867
 21
24.9590245908
  0
LINE
  5
322
100
AcDbEntity
  8
0
100
AcDbLine
 62
7
  6
CONTINUOUS
 10
-2.9954030653
 20
24.85220681
 11
-3.0725731168
 21
24.8248983944
  0
LINE
  5
323
100
AcDbEntity
  8
0
100
AcDbLine
 62
7
  6
CONTINUOUS
 10
-3.2370992725
 20
24.7666769918
 11
-3.4639977528
 21
24.6863836932
  0
LINE
  5
324
100
AcDbEntity
  8
DRAFT
100
AcDbLine
 62
7
  6
CONTINUOUS
 10
-11.115255102
 20
-28.0238679452
 11
-11.3432769685
 21
-28.072742127
  0
LINE
  5
325
100
AcDbEntity
  8
0
100
AcDbLine
 62
7
  6
CONTINUOUS
 10
25.9875031432
 20
-23.1281861195
 11
24.9067230315
 21
-23.222742127
  0
LINE
  5
326
100
AcDbEntity
  8
0
100
AcDbLine
 62
7
  6
CONTINUOUS
 10
-27.3707927929
 20
-26.386706179
 11
-26.9804147873
 21
-26.373039262
  0
LINE
  5
327
100
AcDbEntity
  8
0
100
AcDbLine
 62
7
  6
CONTINUOUS
 10
-24.4157611441
 20
-25.6587780751
 11
-24.8061391496
 21
-25.672444992
  0
LINE
  5
328
100
AcDbEntity
  8
0
100
AcDbLine
 62
7
  6
CONTINUOUS
 10
2.8088491283
 20
-25.297691064
 11
2.5808124482
 21
-25.3045161692
  0
LINE
  5
329
100
AcDbEntity
  8
RACCORDO
100
AcDbLine
 62
7
  6
CONTINUOUS
 10
-4.5932769685
 20
-26.7940697965
 11
4.4067230315
 21
-26.7940697965
  0
LINE
  5
32A
100
AcDbEntity
  8
0
100
AcDbLine
 62
253
  6
CONTINUOUS
 10
-18.0432769685
 20
-26.7331879296
 11
-20.7932769685
 21
-26.7331879296
  0
LINE
  5
32B
100
AcDbEntity
  8
0
100
AcDbLine
 62
253
  6
CONTINUOUS
 10
22.7567230315
 20
-26.6531879296
 11
17.8567230315
 21
-26.6531879296
  0
LINE
  5
32C
100
AcDbEntity
  8
0
100
AcDbLine
 62
7
  6
CONTINUOUS
 10
-16.4132769685
 20
-26.652742127
 11
-18.0432769685
 21
-26.652742127
  0
LINE
  5
32D
100
AcDbEntity
  8
SMUSSO
100
AcDbLine
 62
7
  6
CONTINUOUS
 10
-20.7932769685
 20
-26.652742127
 11
-21.1932769685
 21
-26.652742127
  0
LINE
  5
32E
100
AcDbEntity
  8
0
100
AcDbLine
 62
7
  6
CONTINUOUS
 10
15.7067230315
 20
-26.572742127
 11
17.8567230315
 21
-26.572742127
  0
LINE
  5
32F
100
AcDbEntity
  8
0
100
AcDbLine
 62
7
  6
CONTINUOUS
 10
22.7567230315
 20
-26.572742127
 11
25.0533859862
 21
-26.572742127
  0
LINE
  5
330
100
AcDbEntity
  8
0
100
AcDbLine
 62
253
  6
CONTINUOUS
 10
-18.0432769685
 20
-26.5346364612
 11
-20.7932769685
 21
-26.5346364612
  0
LINE
  5
331
100
AcDbEntity
  8
RACCORDO
100
AcDbLine
 62
7
  6
CONTINUOUS
 10
-28.3427667113
 20
-26.522742127
 11
-26.4792946648
 21
-26.522742127
  0
LINE
  5
332
100
AcDbEntity
  8
0
100
AcDbLine
 62
7
  6
CONTINUOUS
 10
-26.4792946648
 20
-26.522742127
 11
-26.3787916157
 21
-26.522742127
  0
LINE
  5
333
100
AcDbEntity
  8
RACCORDO
100
AcDbLine
 62
7
  6
CONTINUOUS
 10
-25.3072592722
 20
-26.522742127
 11
-23.4437872257
 21
-26.522742127
  0
LINE
  5
334
100
AcDbEntity
  8
0
100
AcDbLine
 62
7
  6
CONTINUOUS
 10
-25.3072592722
 20
-26.522742127
 11
-25.4077623213
 21
-26.522742127
  0
LINE
  5
335
100
AcDbEntity
  8
DRAFT
100
AcDbLine
 62
7
  6
CONTINUOUS
 10
-11.9914039842
 20
-26.519251114
 11
-10.6951499528
 21
-26.519251114
  0
LINE
  5
336
100
AcDbEntity
  8
DRAFT
100
AcDbLine
 62
7
  6
CONTINUOUS
 10
10.5085960158
 20
-26.519251114
 11
11.8048500472
 21
-26.519251114
  0
LINE
  5
337
100
AcDbEntity
  8
DRAFT
100
AcDbLine
 62
7
  6
CONTINUOUS
 10
-12.0021189781
 20
-26.5052870621
 11
-10.6844349589
 21
-26.5052870621
  0
LINE
  5
338
100
AcDbEntity
  8
DRAFT
100
AcDbLine
 62
7
  6
CONTINUOUS
 10
10.4978810219
 20
-26.5052870621
 11
11.8155650411
 21
-26.5052870621
  0
LINE
  5
339
100
AcDbEntity
  8
DRAFT
100
AcDbLine
 62
7
  6
CONTINUOUS
 10
15.9824589628
 20
-26.472742127
 11
15.3824589628
 21
-26.472742127
  0
LINE
  5
33A
100
AcDbEntity
  8
DRAFT
100
AcDbLine
 62
7
  6
CONTINUOUS
 10
-15.5690128998
 20
-26.472742127
 11
-16.1690128998
 21
-26.472742127
  0
LINE
  5
33B
100
AcDbEntity
  8
0
100
AcDbLine
 62
253
  6
CONTINUOUS
 10
22.7567230315
 20
-26.4546364612
 11
17.8567230315
 21
-26.4546364612
  0
LINE
  5
33C
100
AcDbEntity
  8
DRAFT
100
AcDbLine
 62
7
  6
CONTINUOUS
 10
15.9622146139
 20
-26.4238679452
 11
15.333584781
 21
-26.4238679452
  0
LINE
  5
33D
100
AcDbEntity
  8
DRAFT
100
AcDbLine
 62
7
  6
CONTINUOUS
 10
-15.520138718
 20
-26.4238679452
 11
-16.1487685508
 21
-26.4238679452
  0
LINE
  5
33E
100
AcDbEntity
  8
0
100
AcDbLine
 62
7
  6
CONTINUOUS
 10
-27.3707927929
 20
-26.386706179
 11
-26.801830593
 21
-26.386706179
  0
LINE
  5
33F
100
AcDbEntity
  8
0
100
AcDbLine
 62
7
  6
CONTINUOUS
 10
-24.984723344
 20
-26.386706179
 11
-24.4157611441
 21
-26.386706179
  0
LINE
  5
340
100
AcDbEntity
  8
DRAFT
100
AcDbLine
 62
7
  6
CONTINUOUS
 10
24.8800343042
 20
-26.136706179
 11
24.0067230315
 21
-26.136706179
  0
LINE
  5
341
100
AcDbEntity
  8
DRAFT
100
AcDbLine
 62
7
  6
CONTINUOUS
 10
-17.7932769685
 20
-26.136706179
 11
-16.9793129165
 21
-26.136706179
  0
LINE
  5
342
100
AcDbEntity
  8
DRAFT
100
AcDbLine
 62
7
  6
CONTINUOUS
 10
16.7927589796
 20
-26.136706179
 11
17.6067230315
 21
-26.136706179
  0
LINE
  5
343
100
AcDbEntity
  8
SMUSSO
100
AcDbLine
 62
7
  6
CONTINUOUS
 10
-17.924190753
 20
-26.0057923945
 11
-17.110226701
 21
-26.0057923945
  0
LINE
  5
344
100
AcDbEntity
  8
SMUSSO
100
AcDbLine
 62
7
  6
CONTINUOUS
 10
16.9236727641
 20
-26.0057923945
 11
17.737636816
 21
-26.0057923945
  0
LINE
  5
345
100
AcDbEntity
  8
SMUSSO
100
AcDbLine
 62
7
  6
CONTINUOUS
 10
23.875809247
 20
-26.0057923945
 11
24.7491205197
 21
-26.0057923945
  0
LINE
  5
346
100
AcDbEntity
  8
RACCORDO
100
AcDbLine
 62
7
  6
CONTINUOUS
 10
-4.5932769685
 20
-25.9990554612
 11
4.4067230315
 21
-25.9990554612
  0
LINE
  5
347
100
AcDbEntity
  8
DRAFT
100
AcDbLine
 62
7
  6
CONTINUOUS
 10
6.62243259
 20
-25.9884516855
 11
5.9158151894
 21
-25.9884516855
  0
LINE
  5
348
100
AcDbEntity
  8
DRAFT
100
AcDbLine
 62
7
  6
CONTINUOUS
 10
-6.1023691264
 20
-25.9884516855
 11
-6.8089865269
 21
-25.9884516855
  0
LINE
  5
349
100
AcDbEntity
  8
DRAFT
100
AcDbLine
 62
7
  6
CONTINUOUS
 10
-6.1088762385
 20
-25.972742127
 11
-5.7932769685
 21
-25.972742127
  0
LINE
  5
34A
100
AcDbEntity
  8
DRAFT
100
AcDbLine
 62
7
  6
CONTINUOUS
 10
5.6067230315
 20
-25.972742127
 11
5.9223223016
 21
-25.972742127
  0
LINE
  5
34B
100
AcDbEntity
  8
DRAFT
100
AcDbLine
 62
7
  6
CONTINUOUS
 10
5.6067230315
 20
-25.9255465959
 11
4.4067230315
 21
-25.9255465959
  0
LINE
  5
34C
100
AcDbEntity
  8
DRAFT
100
AcDbLine
 62
7
  6
CONTINUOUS
 10
-4.5932769685
 20
-25.9255465959
 11
-5.7932769685
 21
-25.9255465959
  0
LINE
  5
34D
100
AcDbEntity
  8
RACCORDO
100
AcDbLine
 62
7
  6
CONTINUOUS
 10
18.3567230315
 20
-25.8759484618
 11
22.2567230315
 21
-25.8759484618
  0
LINE
  5
34E
100
AcDbEntity
  8
RACCORDO
100
AcDbLine
 62
7
  6
CONTINUOUS
 10
-20.2932769685
 20
-25.8598389907
 11
-18.5432769685
 21
-25.8598389907
  0
LINE
  5
34F
100
AcDbEntity
  8
RACCORDO
100
AcDbLine
 62
253
  6
CONTINUOUS
 10
-6.6690413746
 20
-25.8485065331
 11
-4.5932769685
 21
-25.8485065331
  0
LINE
  5
350
100
AcDbEntity
  8
RACCORDO
100
AcDbLine
 62
253
  6
CONTINUOUS
 10
4.4067230315
 20
-25.8485065331
 11
6.4824874376
 21
-25.8485065331
  0
LINE
  5
351
100
AcDbEntity
  8
SMUSSO
100
AcDbLine
 62
7
  6
CONTINUOUS
 10
-18.0932769685
 20
-25.722742127
 11
-17.9294264749
 21
-25.722742127
  0
LINE
  5
352
100
AcDbEntity
  8
SMUSSO
100
AcDbLine
 62
7
  6
CONTINUOUS
 10
17.742872538
 20
-25.722742127
 11
17.9067230315
 21
-25.722742127
  0
LINE
  5
353
100
AcDbEntity
  8
0
100
AcDbLine
 62
7
  6
CONTINUOUS
 10
17.9067230315
 20
-25.722742127
 11
22.8067230315
 21
-25.722742127
  0
LINE
  5
354
100
AcDbEntity
  8
DRAFT
100
AcDbLine
 62
7
  6
CONTINUOUS
 10
-18.0932769685
 20
-25.722742127
 11
-20.4538295752
 21
-25.722742127
  0
LINE
  5
355
100
AcDbEntity
  8
SMUSSO
100
AcDbLine
 62
7
  6
CONTINUOUS
 10
22.8067230315
 20
-25.722742127
 11
23.8705735251
 21
-25.722742127
  0
LINE
  5
356
100
AcDbEntity
  8
SMUSSO
100
AcDbLine
 62
7
  6
CONTINUOUS
 10
-17.9294264749
 20
-25.7005566725
 11
-17.115462423
 21
-25.7005566725
  0
LINE
  5
357
100
AcDbEntity
  8
SMUSSO
100
AcDbLine
 62
7
  6
CONTINUOUS
 10
16.928908486
 20
-25.7005566725
 11
17.742872538
 21
-25.7005566725
  0
LINE
  5
358
100
AcDbEntity
  8
SMUSSO
100
AcDbLine
 62
7
  6
CONTINUOUS
 10
23.8705735251
 20
-25.7005566725
 11
24.7438847978
 21
-25.7005566725
  0
LINE
  5
359
100
AcDbEntity
  8
0
100
AcDbLine
 62
7
  6
CONTINUOUS
 10
-27.3707927929
 20
-25.6587780751
 11
-26.801830593
 21
-25.6587780751
  0
LINE
  5
35A
100
AcDbEntity
  8
0
100
AcDbLine
 62
7
  6
CONTINUOUS
 10
-24.984723344
 20
-25.6587780751
 11
-24.4157611441
 21
-25.6587780751
  0
LINE
  5
35B
100
AcDbEntity
  8
DRAFT
100
AcDbLine
 62
7
  6
CONTINUOUS
 10
14.6445044861
 20
-25.597691064
 11
10.2003606938
 21
-25.597691064
  0
LINE
  5
35C
100
AcDbEntity
  8
DRAFT
100
AcDbLine
 62
7
  6
CONTINUOUS
 10
-10.3869146308
 20
-25.597691064
 11
-14.831058423
 21
-25.597691064
  0
LINE
  5
35D
100
AcDbEntity
  8
0
100
AcDbLine
 62
7
  6
CONTINUOUS
 10
-26.4792946648
 20
-25.522742127
 11
-26.3787916157
 21
-25.522742127
  0
LINE
  5
35E
100
AcDbEntity
  8
RACCORDO
100
AcDbLine
 62
7
  6
CONTINUOUS
 10
-23.4437872257
 20
-25.522742127
 11
-25.3072592722
 21
-25.522742127
  0
LINE
  5
35F
100
AcDbEntity
  8
0
100
AcDbLine
 62
7
  6
CONTINUOUS
 10
-25.3072592722
 20
-25.522742127
 11
-25.4077623213
 21
-25.522742127
  0
LINE
  5
360
100
AcDbEntity
  8
RACCORDO
100
AcDbLine
 62
7
  6
CONTINUOUS
 10
-26.4792946648
 20
-25.522742127
 11
-28.3427667113
 21
-25.522742127
  0
LINE
  5
361
100
AcDbEntity
  8
DRAFT
100
AcDbLine
 62
7
  6
CONTINUOUS
 10
14.6445044861
 20
-25.322742127
 11
10.2003606938
 21
-25.322742127
  0
LINE
  5
362
100
AcDbEntity
  8
DRAFT
100
AcDbLine
 62
7
  6
CONTINUOUS
 10
-10.3869146308
 20
-25.322742127
 11
-14.831058423
 21
-25.322742127
  0
LINE
  5
363
100
AcDbEntity
  8
DRAFT
100
AcDbLine
 62
7
  6
CONTINUOUS
 10
-15.8258219036
 20
-25.3105235816
 11
-14.8432769685
 21
-25.3105235816
  0
LINE
  5
364
100
AcDbEntity
  8
DRAFT
100
AcDbLine
 62
7
  6
CONTINUOUS
 10
-10.3746960854
 20
-25.3105235816
 11
-6.8607320334
 21
-25.3105235816
  0
LINE
  5
365
100
AcDbEntity
  8
DRAFT
100
AcDbLine
 62
7
  6
CONTINUOUS
 10
6.6741780964
 20
-25.3105235816
 11
10.1881421484
 21
-25.3105235816
  0
LINE
  5
366
100
AcDbEntity
  8
DRAFT
100
AcDbLine
 62
7
  6
CONTINUOUS
 10
14.6567230315
 20
-25.3105235816
 11
15.6392679666
 21
-25.3105235816
  0
LINE
  5
367
100
AcDbEntity
  8
0
100
AcDbLine
 62
7
  6
CONTINUOUS
 10
2.5808124482
 20
-25.3045161692
 11
-2.7673663852
 21
-25.3045161692
  0
LINE
  5
368
100
AcDbEntity
  8
DRAFT
100
AcDbLine
 62
7
  6
CONTINUOUS
 10
-15.8572410204
 20
-25.2791044647
 11
-6.8293129165
 21
-25.2791044647
  0
LINE
  5
369
100
AcDbEntity
  8
DRAFT
100
AcDbLine
 62
7
  6
CONTINUOUS
 10
6.6427589796
 20
-25.2791044647
 11
15.6706870835
 21
-25.2791044647
  0
LINE
  5
36A
100
AcDbEntity
  8
0
100
AcDbLine
 62
7
  6
CONTINUOUS
 10
-3.0725731168
 20
-25.2703826484
 11
2.8860191799
 21
-25.2703826484
  0
LINE
  5
36B
100
AcDbEntity
  8
DRAFT
100
AcDbLine
 62
7
  6
CONTINUOUS
 10
15.6706870835
 20
-25.2187449841
 11
6.6427589796
 21
-25.2187449841
  0
LINE
  5
36C
100
AcDbEntity
  8
DRAFT
100
AcDbLine
 62
7
  6
CONTINUOUS
 10
-6.8293129165
 20
-25.2187449841
 11
-15.8572410204
 21
-25.2187449841
  0
LINE
  5
36D
100
AcDbEntity
  8
0
100
AcDbLine
 62
7
  6
CONTINUOUS
 10
-3.2370992725
 20
-25.2121612459
 11
3.0505453356
 21
-25.2121612459
  0
LINE
  5
36E
100
AcDbEntity
  8
DRAFT
100
AcDbLine
 62
7
  6
CONTINUOUS
 10
16.8416331614
 20
-25.1838348543
 11
15.7055972133
 21
-25.1838348543
  0
LINE
  5
36F
100
AcDbEntity
  8
DRAFT
100
AcDbLine
 62
7
  6
CONTINUOUS
 10
-15.8921511503
 20
-25.1838348543
 11
-17.0281870983
 21
-25.1838348543
  0
LINE
  5
370
100
AcDbEntity
  8
0
100
AcDbLine
 62
7
  6
CONTINUOUS
 10
-3.4639977528
 20
-25.1318679472
 11
3.2774438159
 21
-25.1318679472
  0
LINE
  5
371
100
AcDbEntity
  8
DRAFT
100
AcDbLine
 62
7
  6
CONTINUOUS
 10
24.7438847978
 20
-25.122742127
 11
17.9067230315
 21
-25.122742127
  0
LINE
  5
372
100
AcDbEntity
  8
0
100
AcDbLine
 62
7
  6
CONTINUOUS
 10
4.4067230315
 20
-25.122742127
 11
-4.5932769685
 21
-25.122742127
  0
LINE
  5
373
100
AcDbEntity
  8
DRAFT
100
AcDbLine
 62
7
  6
CONTINUOUS
 10
-18.0932769685
 20
-25.122742127
 11
-21.0480831919
 21
-25.122742127
  0
LINE
  5
374
100
AcDbEntity
  8
DRAFT
100
AcDbLine
 62
7
  6
CONTINUOUS
 10
-21.3665583327
 20
-25.122742127
 11
-21.8435295002
 21
-25.122742127
  0
LINE
  5
375
100
AcDbEntity
  8
DRAFT
100
AcDbLine
 62
7
  6
CONTINUOUS
 10
17.9067230315
 20
-25.0965595296
 11
16.928908486
 21
-25.0965595296
  0
LINE
  5
376
100
AcDbEntity
  8
DRAFT
100
AcDbLine
 62
7
  6
CONTINUOUS
 10
-17.115462423
 20
-25.0965595296
 11
-18.0932769685
 21
-25.0965595296
  0
LINE
  5
377
100
AcDbEntity
  8
RACCORDO
100
AcDbLine
 62
7
  6
CONTINUOUS
 10
4.4067230315
 20
-25.0624512641
 11
-4.5932769685
 21
-25.0624512641
  0
LINE
  5
378
100
AcDbEntity
  8
RACCORDO
100
AcDbLine
 62
7
  6
CONTINUOUS
 10
17.9067230315
 20
-25.0267392699
 11
6.4653370056
 21
-25.0267392699
  0
LINE
  5
379
100
AcDbEntity
  8
RACCORDO
100
AcDbLine
 62
7
  6
CONTINUOUS
 10
-6.6518909426
 20
-25.0267392699
 11
-18.0932769685
 21
-25.0267392699
  0
LINE
  5
37A
100
AcDbEntity
  8
RACCORDO
100
AcDbLine
 62
253
  6
CONTINUOUS
 10
-6.6518909426
 20
-24.848658838
 11
6.4653370056
 21
-24.848658838
  0
LINE
  5
37B
100
AcDbEntity
  8
DRAFT
100
AcDbLine
 62
7
  6
CONTINUOUS
 10
-15.7713186308
 20
-24.1507837893
 11
-12.6152353062
 21
-24.1507837893
  0
LINE
  5
37C
100
AcDbEntity
  8
DRAFT
100
AcDbLine
 62
7
  6
CONTINUOUS
 10
12.4286813692
 20
-24.1507837893
 11
15.5847646938
 21
-24.1507837893
  0
LINE
  5
37D
100
AcDbEntity
  8
0
100
AcDbLine
 62
7
  6
CONTINUOUS
 10
-32.4479746065
 20
-24.0541129769
 11
-29.9385793305
 21
-24.0541129769
  0
LINE
  5
37E
100
AcDbEntity
  8
0
100
AcDbLine
 62
7
  6
CONTINUOUS
 10
32.2614206695
 20
-24.0541129769
 11
29.7520253935
 21
-24.0541129769
  0
LINE
  5
37F
100
AcDbEntity
  8
0
100
AcDbLine
 62
7
  6
CONTINUOUS
 10
-26.2764415918
 20
-23.9967865338
 11
-25.5101123451
 21
-23.9967865338
  0
LINE
  5
380
100
AcDbEntity
  8
DRAFT
100
AcDbLine
 62
7
  6
CONTINUOUS
 10
-15.5932769685
 20
-23.972742127
 11
-12.7932769685
 21
-23.972742127
  0
LINE
  5
381
100
AcDbEntity
  8
DRAFT
100
AcDbLine
 62
7
  6
CONTINUOUS
 10
15.4067230315
 20
-23.972742127
 11
12.6067230315
 21
-23.972742127
  0
LINE
  5
382
100
AcDbEntity
  8
0
100
AcDbLine
 62
7
  6
CONTINUOUS
 10
31.506437226
 20
-23.7541129769
 11
30.5070088371
 21
-23.7541129769
  0
LINE
  5
383
100
AcDbEntity
  8
0
100
AcDbLine
 62
7
  6
CONTINUOUS
 10
-30.693562774
 20
-23.7541129769
 11
-31.6929911629
 21
-23.7541129769
  0
LINE
  5
384
100
AcDbEntity
  8
0
100
AcDbLine
 62
7
  6
CONTINUOUS
 10
-2.9954030653
 20
-25.297691064
 11
-2.7673663852
 21
-25.3045161692
  0
LINE
  5
385
100
AcDbEntity
  8
0
100
AcDbLine
 62
7
  6
CONTINUOUS
 10
-26.9804147873
 20
-25.672444992
 11
-27.3707927929
 21
-25.6587780751
  0
LINE
  5
386
100
AcDbEntity
  8
DRAFT
100
AcDbLine
 62
7
  6
CONTINUOUS
 10
10.928701165
 20
-28.0238679452
 11
11.1567230315
 21
-28.072742127
  0
LINE
  5
387
100
AcDbEntity
  8
0
100
AcDbLine
 62
7
  6
CONTINUOUS
 10
-2.9954030653
 20
-25.297691064
 11
-3.0725731168
 21
-25.2703826484
  0
LINE
  5
388
100
AcDbEntity
  8
0
100
AcDbLine
 62
7
  6
CONTINUOUS
 10
-3.2370992725
 20
-25.2121612459
 11
-3.4639977528
 21
-25.1318679472
  0
LINE
  5
389
100
AcDbEntity
  8
DRAFT
100
AcDbLine
 62
7
  6
CONTINUOUS
 10
-6.8607320334
 20
-25.3770343713
 11
-6.7944027867
 21
-25.4045088449
  0
LINE
  5
38A
100
AcDbEntity
  8
DRAFT
100
AcDbLine
 62
7
  6
CONTINUOUS
 10
-12.6850555659
 20
-22.772742127
 11
-12.6152353062
 21
-22.8076495982
  0
LINE
  5
38B
100
AcDbEntity
  8
DRAFT
100
AcDbLine
 62
7
  6
CONTINUOUS
 10
-27.3432769685
 20
-12.372742127
 11
-27.3293129165
 21
-12.3834571209
  0
LINE
  5
38C
100
AcDbEntity
  8
DRAFT
100
AcDbLine
 62
7
  6
CONTINUOUS
 10
-26.3932769685
 20
-12.1181903942
 11
-26.3793129165
 21
-12.1289053881
  0
LINE
  5
38D
100
AcDbEntity
  8
DRAFT
100
AcDbLine
 62
7
  6
CONTINUOUS
 10
-12.6152353062
 20
-24.1507837893
 11
-12.7932769685
 21
-23.972742127
  0
LINE
  5
38E
100
AcDbEntity
  8
DRAFT
100
AcDbLine
 62
7
  6
CONTINUOUS
 10
-12.245955717
 20
-27.469251114
 11
-12.2566707109
 21
-27.4552870621
  0
LINE
  5
38F
100
AcDbEntity
  8
0
100
AcDbLine
 62
7
  6
CONTINUOUS
 10
-25.1682259055
 20
-10.5169852589
 11
-25.1333157756
 21
-10.5624810259
  0
LINE
  5
390
100
AcDbEntity
  8
DRAFT
100
AcDbLine
 62
7
  6
CONTINUOUS
 10
-11.9914039842
 20
-26.519251114
 11
-12.0021189781
 21
-26.5052870621
  0
LINE
  5
391
100
AcDbEntity
  8
DRAFT
100
AcDbLine
 62
7
  6
CONTINUOUS
 10
-16.9793129165
 20
-25.6624421103
 11
-17.0281870983
 21
-25.5444493977
  0
LINE
  5
392
100
AcDbEntity
  8
DRAFT
100
AcDbLine
 62
7
  6
CONTINUOUS
 10
-27.8944027867
 20
11.0492360065
 11
-27.9432769685
 21
11.277257873
  0
LINE
  5
393
100
AcDbEntity
  8
0
100
AcDbLine
 62
7
  6
CONTINUOUS
 10
-22.5841946416
 20
-8.8838111112
 11
-22.6432769685
 21
-8.5185697408
  0
LINE
  5
394
100
AcDbEntity
  8
DRAFT
100
AcDbLine
 62
7
  6
CONTINUOUS
 10
-24.9932769685
 20
1.277257873
 11
-24.9973806018
 21
1.3052456108
  0
LINE
  5
395
100
AcDbEntity
  8
SMUSSO
100
AcDbLine
 62
7
  6
CONTINUOUS
 10
-22.9781945269
 20
21.8450085522
 11
-22.9607407913
 21
21.1170680837
  0
LINE
  5
396
100
AcDbEntity
  8
SMUSSO
100
AcDbLine
 62
7
  6
CONTINUOUS
 10
-22.6781844396
 20
22.164260462
 11
-22.6602573751
 21
21.4165789304
  0
LINE
  5
397
100
AcDbEntity
  8
RACCORDO
100
AcDbLine
 62
7
  6
CONTINUOUS
 10
-22.6781844396
 20
-22.407664829
 11
-22.6781844396
 21
-4.222742127
  0
LINE
  5
398
100
AcDbEntity
  8
SMUSSO
100
AcDbLine
 62
7
  6
CONTINUOUS
 10
-22.6781844396
 20
3.777257873
 11
-22.6781844396
 21
16.890255284
  0
LINE
  5
399
100
AcDbEntity
  8
SMUSSO
100
AcDbLine
 62
7
  6
CONTINUOUS
 10
-22.6781844396
 20
22.164260462
 11
-22.6781844396
 21
22.3621653441
  0
LINE
  5
39A
100
AcDbEntity
  8
0
100
AcDbLine
 62
7
  6
CONTINUOUS
 10
-22.6633839685
 20
-32.061474127
 11
-22.6633839685
 21
-32.384012127
  0
LINE
  5
39B
100
AcDbEntity
  8
0
100
AcDbLine
 62
7
  6
CONTINUOUS
 10
-22.6432769685
 20
-16.1783404863
 11
-22.6432769685
 21
-14.4269145133
  0
LINE
  5
39C
100
AcDbEntity
  8
0
100
AcDbLine
 62
7
  6
CONTINUOUS
 10
-22.6432769685
 20
-13.547376367
 11
-22.6432769685
 21
-11.9859756544
  0
LINE
  5
39D
100
AcDbEntity
  8
0
100
AcDbLine
 62
7
  6
CONTINUOUS
 10
-22.6432769685
 20
-10.9595085997
 11
-22.6432769685
 21
-9.3981078871
  0
LINE
  5
39E
100
AcDbEntity
  8
0
100
AcDbLine
 62
7
  6
CONTINUOUS
 10
-22.6432769685
 20
-8.5185697408
 11
-22.6432769685
 21
-6.7671437677
  0
LINE
  5
39F
100
AcDbEntity
  8
0
100
AcDbLine
 62
7
  6
CONTINUOUS
 10
-22.6432769685
 20
6.3216595137
 11
-22.6432769685
 21
8.0730854867
  0
LINE
  5
3A0
100
AcDbEntity
  8
0
100
AcDbLine
 62
7
  6
CONTINUOUS
 10
-22.6432769685
 20
8.952623633
 11
-22.6432769685
 21
10.5140243456
  0
LINE
  5
3A1
100
AcDbEntity
  8
0
100
AcDbLine
 62
7
  6
CONTINUOUS
 10
-22.6432769685
 20
11.5404914003
 11
-22.6432769685
 21
13.1018921129
  0
LINE
  5
3A2
100
AcDbEntity
  8
0
100
AcDbLine
 62
7
  6
CONTINUOUS
 10
-22.6432769685
 20
13.9814302592
 11
-22.6432769685
 21
15.7328562323
  0
LINE
  5
3A3
100
AcDbEntity
  8
0
100
AcDbLine
 62
7
  6
CONTINUOUS
 10
-22.5932769685
 20
21.277257873
 11
-22.5932769685
 21
17.777257873
  0
LINE
  5
3A4
100
AcDbEntity
  8
0
100
AcDbLine
 62
7
  6
CONTINUOUS
 10
-22.5841946416
 20
-14.0616731429
 11
-22.5841946416
 21
-11.8279401683
  0
LINE
  5
3A5
100
AcDbEntity
  8
0
100
AcDbLine
 62
7
  6
CONTINUOUS
 10
-22.5841946416
 20
-11.1175440858
 11
-22.5841946416
 21
-8.8838111112
  0
LINE
  5
3A6
100
AcDbEntity
  8
0
100
AcDbLine
 62
7
  6
CONTINUOUS
 10
-22.5841946416
 20
8.4383268571
 11
-22.5841946416
 21
10.6720598317
  0
LINE
  5
3A7
100
AcDbEntity
  8
0
100
AcDbLine
 62
7
  6
CONTINUOUS
 10
-22.5841946416
 20
11.3824559142
 11
-22.5841946416
 21
13.6161888888
  0
LINE
  5
3A8
100
AcDbEntity
  8
DRAFT
100
AcDbLine
 62
7
  6
CONTINUOUS
 10
-22.5734620262
 20
22.2574429306
 11
-22.5734620262
 21
21.277257873
  0
LINE
  5
3A9
100
AcDbEntity
  8
DRAFT
100
AcDbLine
 62
7
  6
CONTINUOUS
 10
-22.5734620262
 20
17.777257873
 11
-22.5734620262
 21
15.7389642483
  0
LINE
  5
3AA
100
AcDbEntity
  8
RACCORDO
100
AcDbLine
 62
7
  6
CONTINUOUS
 10
-22.5734620262
 20
-22.3029424155
 11
-22.5734620262
 21
-16.1844485023
  0
LINE
  5
3AB
100
AcDbEntity
  8
DRAFT
100
AcDbLine
 62
7
  6
CONTINUOUS
 10
-22.5734620262
 20
-6.7610357517
 11
-22.5734620262
 21
6.3155514977
  0
LINE
  5
3AC
100
AcDbEntity
  8
0
100
AcDbLine
 62
7
  6
CONTINUOUS
 10
-22.5682259055
 20
-11.85403312
 11
-22.5682259055
 21
-11.8265430849
  0
LINE
  5
3AD
100
AcDbEntity
  8
0
100
AcDbLine
 62
7
  6
CONTINUOUS
 10
-22.5682259055
 20
-11.1189411692
 11
-22.5682259055
 21
-11.091451134
  0
LINE
  5
3AE
100
AcDbEntity
  8
0
100
AcDbLine
 62
7
  6
CONTINUOUS
 10
-22.5682259055
 20
10.64596688
 11
-22.5682259055
 21
10.6734569151
  0
LINE
  5
3AF
100
AcDbEntity
  8
0
100
AcDbLine
 62
7
  6
CONTINUOUS
 10
-22.5682259055
 20
11.3810588308
 11
-22.5682259055
 21
11.408548866
  0
LINE
  5
3B0
100
AcDbEntity
  8
0
100
AcDbLine
 62
7
  6
CONTINUOUS
 10
-22.5656835437
 20
11.4083264381
 11
-22.5656835437
 21
10.6461893078
  0
LINE
  5
3B1
100
AcDbEntity
  8
0
100
AcDbLine
 62
7
  6
CONTINUOUS
 10
-22.5656835437
 20
-11.0916735619
 11
-22.5656835437
 21
-11.8538106922
  0
LINE
  5
3B2
100
AcDbEntity
  8
RACCORDO
100
AcDbLine
 62
253
  6
CONTINUOUS
 10
-22.4432769685
 20
25.4143547367
 11
-22.4432769685
 21
25.277257873
  0
LINE
  5
3B3
100
AcDbEntity
  8
0
100
AcDbLine
 62
7
  6
CONTINUOUS
 10
-21.2364839685
 20
-30.496527127
 11
-21.2364839685
 21
-32.061474127
  0
LINE
  5
3B4
100
AcDbEntity
  8
0
100
AcDbLine
 62
7
  6
CONTINUOUS
 10
-21.2364839685
 20
-32.384012127
 11
-21.2364839685
 21
-33.948699127
  0
LINE
  5
3B5
100
AcDbEntity
  8
SMUSSO
100
AcDbLine
 62
7
  6
CONTINUOUS
 10
-21.0142401783
 20
-26.0934528051
 11
-21.0142401783
 21
-25.9520314489
  0
LINE
  5
3B6
100
AcDbEntity
  8
0
100
AcDbLine
 62
7
  6
CONTINUOUS
 10
-20.9500699685
 20
-33.948699127
 11
-20.9500699685
 21
-30.496527127
  0
LINE
  5
3B7
100
AcDbEntity
  8
RACCORDO
100
AcDbLine
 62
7
  6
CONTINUOUS
 10
-20.7932769685
 20
-26.5346364612
 11
-20.7932769685
 21
-25.9199074101
  0
LINE
  5
3B8
100
AcDbEntity
  8
RACCORDO
100
AcDbLine
 62
7
  6
CONTINUOUS
 10
-20.7932769685
 20
-25.9199074101
 11
-20.7932769685
 21
-25.447891205
  0
LINE
  5
3B9
100
AcDbEntity
  8
0
100
AcDbLine
 62
7
  6
CONTINUOUS
 10
-20.7932769685
 20
-26.5346364612
 11
-20.7932769685
 21
-26.7331879296
  0
LINE
  5
3BA
100
AcDbEntity
  8
0
100
AcDbLine
 62
7
  6
CONTINUOUS
 10
-20.5062609685
 20
-31.067029127
 11
-20.5062609685
 21
-33.378455127
  0
LINE
  5
3BB
100
AcDbEntity
  8
RACCORDO
100
AcDbLine
 62
253
  6
CONTINUOUS
 10
-20.2932769685
 20
-25.8598389907
 11
-20.2932769685
 21
-25.722742127
  0
LINE
  5
3BC
100
AcDbEntity
  8
0
100
AcDbLine
 62
7
  6
CONTINUOUS
 10
-20.2198489685
 20
-33.378455127
 11
-20.2198489685
 21
-31.067029127
  0
LINE
  5
3BD
100
AcDbEntity
  8
0
100
AcDbLine
 62
7
  6
CONTINUOUS
 10
-19.7760379685
 20
-31.637274127
 11
-19.7760379685
 21
-32.807952127
  0
LINE
  5
3BE
100
AcDbEntity
  8
0
100
AcDbLine
 62
7
  6
CONTINUOUS
 10
-19.4870449685
 20
-32.807952127
 11
-19.4870449685
 21
-31.637274127
  0
LINE
  5
3BF
100
AcDbEntity
  8
0
100
AcDbLine
 62
7
  6
CONTINUOUS
 10
-22.5841946416
 20
-14.0616731429
 11
-22.6432769685
 21
-14.4269145133
  0
LINE
  5
3C0
100
AcDbEntity
  8
DRAFT
100
AcDbLine
 62
7
  6
CONTINUOUS
 10
-26.6432769685
 20
-15.6984780583
 11
-26.6266537866
 21
-15.6496038765
  0
LINE
  5
3C1
100
AcDbEntity
  8
0
100
AcDbLine
 62
7
  6
CONTINUOUS
 10
-25.1682259055
 20
-8.5706160302
 11
-25.0024027887
 21
-8.1020213427
  0
LINE
  5
3C2
100
AcDbEntity
  8
0
100
AcDbLine
 62
7
  6
CONTINUOUS
 10
-27.5630747518
 20
-7.5854640357
 11
-28.1947488311
 21
-8.6398994146
  0
LINE
  5
3C3
100
AcDbEntity
  8
0
100
AcDbLine
 62
7
  6
CONTINUOUS
 10
-27.3462206936
 20
-7.2256858522
 11
-27.5630747518
 21
-7.5854640357
  0
LINE
  5
3C4
100
AcDbEntity
  8
0
100
AcDbLine
 62
7
  6
CONTINUOUS
 10
8.2005340952
 20
27.8039079266
 11
8.323880319
 21
27.8787297355
  0
LINE
  5
3C5
100
AcDbEntity
  8
0
100
AcDbLine
 62
7
  6
CONTINUOUS
 10
6.9096667567
 20
27.0302015981
 11
7.2694448974
 21
27.2470556352
  0
LINE
  5
3C6
100
AcDbEntity
  8
0
100
AcDbLine
 62
7
  6
CONTINUOUS
 10
7.2694448974
 20
27.2470556352
 11
8.2005340952
 21
27.8039079266
  0
LINE
  5
3C7
100
AcDbEntity
  8
DRAFT
100
AcDbLine
 62
7
  6
CONTINUOUS
 10
15.3824589628
 20
26.327257873
 11
15.333584781
 21
26.3106346911
  0
LINE
  5
3C8
100
AcDbEntity
  8
0
100
AcDbLine
 62
7
  6
CONTINUOUS
 10
-2.6822079843
 20
-22.7136598001
 11
-3.0474493547
 21
-22.772742127
  0
LINE
  5
3C9
100
AcDbEntity
  8
DRAFT
100
AcDbLine
 62
7
  6
CONTINUOUS
 10
22.4567230315
 20
-22.8076495982
 11
15.5847646938
 21
-22.8076495982
  0
LINE
  5
3CA
100
AcDbEntity
  8
DRAFT
100
AcDbLine
 62
7
  6
CONTINUOUS
 10
12.4286813692
 20
-22.8076495982
 11
-12.6152353062
 21
-22.8076495982
  0
LINE
  5
3CB
100
AcDbEntity
  8
RACCORDO
100
AcDbLine
 62
7
  6
CONTINUOUS
 10
-15.7713186308
 20
-22.8076495982
 11
-22.2781996704
 21
-22.8076495982
  0
LINE
  5
3CC
100
AcDbEntity
  8
DRAFT
100
AcDbLine
 62
7
  6
CONTINUOUS
 10
-15.701498371
 20
-22.772742127
 11
-12.6850555659
 21
-22.772742127
  0
LINE
  5
3CD
100
AcDbEntity
  8
0
100
AcDbLine
 62
7
  6
CONTINUOUS
 10
-4.7988753278
 20
-22.772742127
 11
-3.0474493547
 21
-22.772742127
  0
LINE
  5
3CE
100
AcDbEntity
  8
0
100
AcDbLine
 62
7
  6
CONTINUOUS
 10
-2.1679112084
 20
-22.772742127
 11
-0.6065104958
 21
-22.772742127
  0
LINE
  5
3CF
100
AcDbEntity
  8
0
100
AcDbLine
 62
7
  6
CONTINUOUS
 10
0.4199565589
 20
-22.772742127
 11
1.9813572715
 21
-22.772742127
  0
LINE
  5
3D0
100
AcDbEntity
  8
0
100
AcDbLine
 62
7
  6
CONTINUOUS
 10
2.8608954178
 20
-22.772742127
 11
4.6123213908
 21
-22.772742127
  0
LINE
  5
3D1
100
AcDbEntity
  8
DRAFT
100
AcDbLine
 62
7
  6
CONTINUOUS
 10
12.498501629
 20
-22.772742127
 11
15.5149444341
 21
-22.772742127
  0
LINE
  5
3D2
100
AcDbEntity
  8
0
100
AcDbLine
 62
7
  6
CONTINUOUS
 10
2.4956540474
 20
-22.7136598001
 11
0.2619210727
 21
-22.7136598001
  0
LINE
  5
3D3
100
AcDbEntity
  8
0
100
AcDbLine
 62
7
  6
CONTINUOUS
 10
-0.4484750097
 20
-22.7136598001
 11
-2.6822079843
 21
-22.7136598001
  0
LINE
  5
3D4
100
AcDbEntity
  8
RACCORDO
100
AcDbLine
 62
7
  6
CONTINUOUS
 10
-22.1734772569
 20
-22.7029271847
 11
-4.8049833438
 21
-22.7029271847
  0
LINE
  5
3D5
100
AcDbEntity
  8
DRAFT
100
AcDbLine
 62
7
  6
CONTINUOUS
 10
22.4567230315
 20
-22.7029271847
 11
4.6184294068
 21
-22.7029271847
  0
LINE
  5
3D6
100
AcDbEntity
  8
0
100
AcDbLine
 62
7
  6
CONTINUOUS
 10
0.2880140245
 20
-22.697691064
 11
0.2605239894
 21
-22.697691064
  0
LINE
  5
3D7
100
AcDbEntity
  8
0
100
AcDbLine
 62
7
  6
CONTINUOUS
 10
-0.4470779263
 20
-22.697691064
 11
-0.4745679615
 21
-22.697691064
  0
LINE
  5
3D8
100
AcDbEntity
  8
0
100
AcDbLine
 62
7
  6
CONTINUOUS
 10
-0.4743455337
 20
-22.6951487022
 11
0.2877915967
 21
-22.6951487022
  0
LINE
  5
3D9
100
AcDbEntity
  8
SMUSSO
100
AcDbLine
 62
7
  6
CONTINUOUS
 10
24.505826296
 20
-22.2904928063
 11
22.757619767
 21
-22.2904928063
  0
LINE
  5
3DA
100
AcDbEntity
  8
0
100
AcDbLine
 62
7
  6
CONTINUOUS
 10
22.4067230315
 20
-21.722742127
 11
0.7747840315
 21
-21.722742127
  0
LINE
  5
3DB
100
AcDbEntity
  8
SMUSSO
100
AcDbLine
 62
7
  6
CONTINUOUS
 10
22.757619767
 20
-21.5625523377
 11
23.4169128208
 21
-21.5625523377
  0
LINE
  5
3DC
100
AcDbEntity
  8
0
100
AcDbLine
 62
7
  6
CONTINUOUS
 10
23.4169128208
 20
-21.5625523377
 11
23.7965332422
 21
-21.5625523377
  0
LINE
  5
3DD
100
AcDbEntity
  8
SMUSSO
100
AcDbLine
 62
7
  6
CONTINUOUS
 10
23.7965332422
 20
-21.5625523377
 11
24.505826296
 21
-21.5625523377
  0
LINE
  5
3DE
100
AcDbEntity
  8
SMUSSO
100
AcDbLine
 62
253
  6
CONTINUOUS
 10
22.757619767
 20
-21.5222109807
 11
23.4572541778
 21
-21.5222109807
  0
LINE
  5
3DF
100
AcDbEntity
  8
SMUSSO
100
AcDbLine
 62
253
  6
CONTINUOUS
 10
23.7561918852
 20
-21.5222109807
 11
24.505826296
 21
-21.5222109807
  0
LINE
  5
3E0
100
AcDbEntity
  8
0
100
AcDbLine
 62
7
  6
CONTINUOUS
 10
24.6067230315
 20
-21.472742127
 11
23.7067230315
 21
-21.472742127
  0
LINE
  5
3E1
100
AcDbEntity
  8
0
100
AcDbLine
 62
7
  6
CONTINUOUS
 10
23.5067230315
 20
-21.472742127
 11
22.4067230315
 21
-21.472742127
  0
LINE
  5
3E2
100
AcDbEntity
  8
0
100
AcDbLine
 62
7
  6
CONTINUOUS
 10
-0.8932769685
 20
-21.222742127
 11
0.4067230315
 21
-21.222742127
  0
LINE
  5
3E3
100
AcDbEntity
  8
SMUSSO
100
AcDbLine
 62
7
  6
CONTINUOUS
 10
-25.8225662904
 20
-21.1437053368
 11
-25.9639876466
 21
-21.1437053368
  0
LINE
  5
3E4
100
AcDbEntity
  8
0
100
AcDbLine
 62
7
  6
CONTINUOUS
 10
26.8599503351
 20
-20.572742127
 11
25.7067230315
 21
-20.572742127
  0
LINE
  5
3E5
100
AcDbEntity
  8
0
100
AcDbLine
 62
7
  6
CONTINUOUS
 10
25.7067230315
 20
-19.372742127
 11
26.8599503351
 21
-19.372742127
  0
LINE
  5
3E6
100
AcDbEntity
  8
0
100
AcDbLine
 62
7
  6
CONTINUOUS
 10
2.4956540474
 20
-22.7136598001
 11
2.8608954178
 21
-22.772742127
  0
LINE
  5
3E7
100
AcDbEntity
  8
DRAFT
100
AcDbLine
 62
7
  6
CONTINUOUS
 10
15.3824589628
 20
-26.772742127
 11
15.333584781
 21
-26.7561189452
  0
LINE
  5
3E8
100
AcDbEntity
  8
0
100
AcDbLine
 62
7
  6
CONTINUOUS
 10
7.2694449402
 20
-27.6925399104
 11
8.323880319
 21
-28.3242139896
  0
LINE
  5
3E9
100
AcDbEntity
  8
0
100
AcDbLine
 62
7
  6
CONTINUOUS
 10
6.9096667567
 20
-27.4756858522
 11
7.2694449402
 21
-27.6925399104
  0
LINE
  5
3EA
100
AcDbEntity
  8
0
100
AcDbLine
 62
7
  6
CONTINUOUS
 10
-28.1947488311
 20
8.1944151605
 11
-28.1199268486
 21
8.0710686792
  0
LINE
  5
3EB
100
AcDbEntity
  8
0
100
AcDbLine
 62
7
  6
CONTINUOUS
 10
-27.9543592601
 20
7.7937658363
 11
-27.3462206936
 21
6.7802015981
  0
LINE
  5
3EC
100
AcDbEntity
  8
0
100
AcDbLine
 62
7
  6
CONTINUOUS
 10
-28.1199268486
 20
8.0710686792
 11
-27.9543592601
 21
7.7937658363
  0
LINE
  5
3ED
100
AcDbEntity
  8
0
100
AcDbLine
 62
7
  6
CONTINUOUS
 10
-25.1682259055
 20
8.1251317762
 11
-25.0024027887
 21
7.6565370886
  0
LINE
  5
3EE
100
AcDbEntity
  8
DRAFT
100
AcDbLine
 62
7
  6
CONTINUOUS
 10
-26.6432769685
 20
15.2529938043
 11
-26.6266537866
 21
15.2041196225
  0
LINE
  5
3EF
100
AcDbEntity
  8
0
100
AcDbLine
 62
7
  6
CONTINUOUS
 10
-22.5841946416
 20
13.6161888888
 11
-22.6432769685
 21
13.9814302592
  0
LINE
  5
3F0
100
AcDbEntity
  8
SMUSSO
100
AcDbLine
 62
7
  6
CONTINUOUS
 10
-17.924190753
 20
-26.0057923945
 11
-17.9294264749
 21
-25.7005566725
  0
LINE
  5
3F1
100
AcDbEntity
  8
SMUSSO
100
AcDbLine
 62
7
  6
CONTINUOUS
 10
-17.115462423
 20
-25.7005566725
 11
-17.110226701
 21
-26.0057923945
  0
LINE
  5
3F2
100
AcDbEntity
  8
RACCORDO
100
AcDbLine
 62
253
  6
CONTINUOUS
 10
-18.5432769685
 20
25.4143547367
 11
-18.5432769685
 21
25.277257873
  0
LINE
  5
3F3
100
AcDbEntity
  8
RACCORDO
100
AcDbLine
 62
253
  6
CONTINUOUS
 10
-18.5432769685
 20
-25.8598389907
 11
-18.5432769685
 21
-25.722742127
  0
LINE
  5
3F4
100
AcDbEntity
  8
DRAFT
100
AcDbLine
 62
7
  6
CONTINUOUS
 10
-18.0932769685
 20
-25.722742127
 11
-18.0932769685
 21
-25.0267392699
  0
LINE
  5
3F5
100
AcDbEntity
  8
DRAFT
100
AcDbLine
 62
7
  6
CONTINUOUS
 10
-18.0932769685
 20
24.5812550159
 11
-18.0932769685
 21
25.277257873
  0
LINE
  5
3F6
100
AcDbEntity
  8
RACCORDO
100
AcDbLine
 62
7
  6
CONTINUOUS
 10
-18.0432769685
 20
26.0891522072
 11
-18.0432769685
 21
25.4744231561
  0
LINE
  5
3F7
100
AcDbEntity
  8
RACCORDO
100
AcDbLine
 62
7
  6
CONTINUOUS
 10
-18.0432769685
 20
25.4744231561
 11
-18.0432769685
 21
25.277257873
  0
LINE
  5
3F8
100
AcDbEntity
  8
RACCORDO
100
AcDbLine
 62
7
  6
CONTINUOUS
 10
-18.0432769685
 20
-25.9199074101
 11
-18.0432769685
 21
-25.722742127
  0
LINE
  5
3F9
100
AcDbEntity
  8
RACCORDO
100
AcDbLine
 62
7
  6
CONTINUOUS
 10
-18.0432769685
 20
-25.9199074101
 11
-18.0432769685
 21
-26.5346364612
  0
LINE
  5
3FA
100
AcDbEntity
  8
0
100
AcDbLine
 62
7
  6
CONTINUOUS
 10
-18.0432769685
 20
-26.5346364612
 11
-18.0432769685
 21
-26.7331879296
  0
LINE
  5
3FB
100
AcDbEntity
  8
0
100
AcDbLine
 62
7
  6
CONTINUOUS
 10
-18.0432769685
 20
26.0891522072
 11
-18.0432769685
 21
26.2877036756
  0
LINE
  5
3FC
100
AcDbEntity
  8
SMUSSO
100
AcDbLine
 62
7
  6
CONTINUOUS
 10
-17.9294264749
 20
-25.7005566725
 11
-17.9294264749
 21
-25.722742127
  0
LINE
  5
3FD
100
AcDbEntity
  8
SMUSSO
100
AcDbLine
 62
7
  6
CONTINUOUS
 10
-17.9294264749
 20
25.2550724185
 11
-17.9294264749
 21
25.277257873
  0
LINE
  5
3FE
100
AcDbEntity
  8
DRAFT
100
AcDbLine
 62
7
  6
CONTINUOUS
 10
-17.7932769685
 20
26.207257873
 11
-17.7932769685
 21
25.6912219249
  0
LINE
  5
3FF
100
AcDbEntity
  8
DRAFT
100
AcDbLine
 62
7
  6
CONTINUOUS
 10
-17.7932769685
 20
-26.136706179
 11
-17.7932769685
 21
-26.652742127
  0
LINE
  5
400
100
AcDbEntity
  8
SMUSSO
100
AcDbLine
 62
7
  6
CONTINUOUS
 10
-17.115462423
 20
-25.7005566725
 11
-17.115462423
 21
-25.0965595296
  0
LINE
  5
401
100
AcDbEntity
  8
DRAFT
100
AcDbLine
 62
7
  6
CONTINUOUS
 10
-17.0281870983
 20
-25.1838348543
 11
-17.0281870983
 21
-25.5444493977
  0
LINE
  5
402
100
AcDbEntity
  8
SMUSSO
100
AcDbLine
 62
7
  6
CONTINUOUS
 10
-16.9932769685
 20
25.6912219249
 11
-16.9932769685
 21
24.6510752756
  0
LINE
  5
403
100
AcDbEntity
  8
DRAFT
100
AcDbLine
 62
7
  6
CONTINUOUS
 10
-16.9793129165
 20
-26.136706179
 11
-16.9793129165
 21
-25.6624421103
  0
LINE
  5
404
100
AcDbEntity
  8
DRAFT
100
AcDbLine
 62
7
  6
CONTINUOUS
 10
-15.8921511503
 20
-25.4045088449
 11
-15.8921511503
 21
-25.1838348543
  0
LINE
  5
405
100
AcDbEntity
  8
DRAFT
100
AcDbLine
 62
7
  6
CONTINUOUS
 10
-15.8921511503
 20
24.7383506002
 11
-15.8921511503
 21
24.9590245908
  0
LINE
  5
406
100
AcDbEntity
  8
DRAFT
100
AcDbLine
 62
7
  6
CONTINUOUS
 10
-15.8572410204
 20
-25.2791044647
 11
-15.8572410204
 21
-25.2187449841
  0
LINE
  5
407
100
AcDbEntity
  8
DRAFT
100
AcDbLine
 62
7
  6
CONTINUOUS
 10
-15.8572410204
 20
24.7732607301
 11
-15.8572410204
 21
24.8336202107
  0
LINE
  5
408
100
AcDbEntity
  8
DRAFT
100
AcDbLine
 62
7
  6
CONTINUOUS
 10
-15.8258219036
 20
-25.3770343713
 11
-15.8258219036
 21
-25.3105235816
  0
LINE
  5
409
100
AcDbEntity
  8
DRAFT
100
AcDbLine
 62
7
  6
CONTINUOUS
 10
-15.8258219036
 20
24.8650393275
 11
-15.8258219036
 21
24.9315501173
  0
LINE
  5
40A
100
AcDbEntity
  8
DRAFT
100
AcDbLine
 62
7
  6
CONTINUOUS
 10
-15.7713186308
 20
23.7052995352
 11
-15.7713186308
 21
22.3621653441
  0
LINE
  5
40B
100
AcDbEntity
  8
DRAFT
100
AcDbLine
 62
7
  6
CONTINUOUS
 10
-15.7713186308
 20
-22.8076495982
 11
-15.7713186308
 21
-24.1507837893
  0
LINE
  5
40C
100
AcDbEntity
  8
DRAFT
100
AcDbLine
 62
7
  6
CONTINUOUS
 10
-15.5932769685
 20
23.527257873
 11
-15.5932769685
 21
22.327257873
  0
LINE
  5
40D
100
AcDbEntity
  8
DRAFT
100
AcDbLine
 62
7
  6
CONTINUOUS
 10
-15.5932769685
 20
-23.972742127
 11
-15.5932769685
 21
-22.772742127
  0
LINE
  5
40E
100
AcDbEntity
  8
DRAFT
100
AcDbLine
 62
7
  6
CONTINUOUS
 10
-15.5690128998
 20
-26.772742127
 11
-15.5690128998
 21
-26.472742127
  0
LINE
  5
40F
100
AcDbEntity
  8
DRAFT
100
AcDbLine
 62
7
  6
CONTINUOUS
 10
-15.5690128998
 20
26.027257873
 11
-15.5690128998
 21
26.327257873
  0
LINE
  5
410
100
AcDbEntity
  8
DRAFT
100
AcDbLine
 62
7
  6
CONTINUOUS
 10
-15.520138718
 20
-26.7561189452
 11
-15.520138718
 21
-26.4238679452
  0
LINE
  5
411
100
AcDbEntity
  8
DRAFT
100
AcDbLine
 62
7
  6
CONTINUOUS
 10
-15.520138718
 20
25.9783836912
 11
-15.520138718
 21
26.3106346911
  0
LINE
  5
412
100
AcDbEntity
  8
SMUSSO
100
AcDbLine
 62
7
  6
CONTINUOUS
 10
-17.9294264749
 20
25.2550724185
 11
-17.924190753
 21
25.5603081404
  0
LINE
  5
413
100
AcDbEntity
  8
DRAFT
100
AcDbLine
 62
7
  6
CONTINUOUS
 10
-10.44059822
 20
27.02376686
 11
-10.6951499528
 21
26.07376686
  0
LINE
  5
414
100
AcDbEntity
  8
DRAFT
100
AcDbLine
 62
7
  6
CONTINUOUS
 10
-10.4298832261
 20
27.009802808
 11
-10.6844349589
 21
26.059802808
  0
LINE
  5
415
100
AcDbEntity
  8
0
100
AcDbLine
 62
7
  6
CONTINUOUS
 10
-26.2425511704
 20
-26.8776113106
 11
-26.2764415918
 21
-27.0014647418
  0
LINE
  5
416
100
AcDbEntity
  8
0
100
AcDbLine
 62
7
  6
CONTINUOUS
 10
-25.5440027665
 20
-25.1678729434
 11
-25.5101123451
 21
-25.0440195122
  0
LINE
  5
417
100
AcDbEntity
  8
0
100
AcDbLine
 62
7
  6
CONTINUOUS
 10
-26.2764415918
 20
-25.0440195122
 11
-26.4130004527
 21
-25.5030186429
  0
LINE
  5
418
100
AcDbEntity
  8
0
100
AcDbLine
 62
7
  6
CONTINUOUS
 10
-26.3821130442
 20
-25.5339060514
 11
-26.3787916157
 21
-25.522742127
  0
LINE
  5
419
100
AcDbEntity
  8
0
100
AcDbLine
 62
7
  6
CONTINUOUS
 10
-25.4044408928
 20
-26.5115782027
 11
-25.4077623213
 21
-26.522742127
  0
LINE
  5
41A
100
AcDbEntity
  8
0
100
AcDbLine
 62
7
  6
CONTINUOUS
 10
-25.5101123451
 20
-27.0014647418
 11
-25.3735534843
 21
-26.5424656112
  0
LINE
  5
41B
100
AcDbEntity
  8
DRAFT
100
AcDbLine
 62
7
  6
CONTINUOUS
 10
-8.9389847242
 20
27.009802808
 11
-8.9115102506
 21
27.0761320548
  0
LINE
  5
41C
100
AcDbEntity
  8
RACCORDO
100
AcDbLine
 62
253
  6
CONTINUOUS
 10
-8.5519358618
 20
27.5783836912
 11
-8.5316915128
 21
27.627257873
  0
LINE
  5
41D
100
AcDbEntity
  8
RACCORDO
100
AcDbLine
 62
253
  6
CONTINUOUS
 10
-7.8449367764
 20
27.2855350814
 11
-7.8246924274
 21
27.3344092632
  0
LINE
  5
41E
100
AcDbEntity
  8
DRAFT
100
AcDbLine
 62
7
  6
CONTINUOUS
 10
-6.1088762385
 20
25.527257873
 11
-6.1023691264
 21
25.5429674314
  0
LINE
  5
41F
100
AcDbEntity
  8
DRAFT
100
AcDbLine
 62
7
  6
CONTINUOUS
 10
-24.9378207038
 20
-1.6672858624
 11
-24.9932769685
 21
-1.722742127
  0
LINE
  5
420
100
AcDbEntity
  8
DRAFT
100
AcDbLine
 62
7
  6
CONTINUOUS
 10
-26.9432769685
 20
-5.5696298127
 11
-26.0107320334
 21
-4.6370848777
  0
LINE
  5
421
100
AcDbEntity
  8
DRAFT
100
AcDbLine
 62
7
  6
CONTINUOUS
 10
-26.9432769685
 20
-5.5943150023
 11
-25.9932769685
 21
-4.6443150023
  0
LINE
  5
422
100
AcDbEntity
  8
RACCORDO
100
AcDbLine
 62
253
  6
CONTINUOUS
 10
-27.8944027867
 20
8.2359167663
 11
-27.9432769685
 21
8.2156724173
  0
LINE
  5
423
100
AcDbEntity
  8
DRAFT
100
AcDbLine
 62
7
  6
CONTINUOUS
 10
-27.3293129165
 20
8.3830419727
 11
-27.3956421633
 21
8.3555674991
  0
LINE
  5
424
100
AcDbEntity
  8
RACCORDO
100
AcDbLine
 62
253
  6
CONTINUOUS
 10
-27.6015541769
 20
7.5289176809
 11
-27.6504283587
 21
7.5086733319
  0
LINE
  5
425
100
AcDbEntity
  8
DRAFT
100
AcDbLine
 62
7
  6
CONTINUOUS
 10
15.6392679666
 20
24.9315501173
 11
15.7055972133
 21
24.9590245908
  0
LINE
  5
426
100
AcDbEntity
  8
0
100
AcDbLine
 62
7
  6
CONTINUOUS
 10
-26.7481461521
 20
-26.372016329
 11
-26.801830593
 21
-26.386706179
  0
LINE
  5
427
100
AcDbEntity
  8
0
100
AcDbLine
 62
7
  6
CONTINUOUS
 10
-25.0384077849
 20
-25.6734679251
 11
-24.984723344
 21
-25.6587780751
  0
LINE
  5
428
100
AcDbEntity
  8
0
100
AcDbLine
 62
7
  6
CONTINUOUS
 10
22.4567230315
 20
-13.547376367
 11
22.4139834654
 21
-13.5588283992
  0
LINE
  5
429
100
AcDbEntity
  8
DRAFT
100
AcDbLine
 62
7
  6
CONTINUOUS
 10
26.2067230315
 20
-10.8272938598
 11
27.1567230315
 21
-10.572742127
  0
LINE
  5
42A
100
AcDbEntity
  8
DRAFT
100
AcDbLine
 62
7
  6
CONTINUOUS
 10
26.1927589796
 20
-10.8165788659
 11
27.1427589796
 21
-10.5620271331
  0
LINE
  5
42B
100
AcDbEntity
  8
0
100
AcDbLine
 62
7
  6
CONTINUOUS
 10
24.9816719685
 20
-10.5169852589
 11
25.2816719685
 21
-10.4366005011
  0
LINE
  5
42C
100
AcDbEntity
  8
DRAFT
100
AcDbLine
 62
7
  6
CONTINUOUS
 10
24.7700673952
 20
-15.9759490797
 11
24.7869610744
 21
-15.9744710742
  0
LINE
  5
42D
100
AcDbEntity
  8
DRAFT
100
AcDbLine
 62
7
  6
CONTINUOUS
 10
24.7880679418
 20
-15.9743742359
 11
24.8067230315
 21
-15.972742127
  0
LINE
  5
42E
100
AcDbEntity
  8
0
100
AcDbLine
 62
7
  6
CONTINUOUS
 10
-0.8932769685
 20
-18.722742127
 11
0.4067230315
 21
-18.722742127
  0
LINE
  5
42F
100
AcDbEntity
  8
0
100
AcDbLine
 62
7
  6
CONTINUOUS
 10
24.6067230315
 20
-18.472742127
 11
23.7067230315
 21
-18.472742127
  0
LINE
  5
430
100
AcDbEntity
  8
0
100
AcDbLine
 62
7
  6
CONTINUOUS
 10
23.5067230315
 20
-18.472742127
 11
22.4067230315
 21
-18.472742127
  0
LINE
  5
431
100
AcDbEntity
  8
SMUSSO
100
AcDbLine
 62
253
  6
CONTINUOUS
 10
22.757619767
 20
-18.4232732733
 11
23.4572541778
 21
-18.4232732733
  0
LINE
  5
432
100
AcDbEntity
  8
SMUSSO
100
AcDbLine
 62
253
  6
CONTINUOUS
 10
23.7561918852
 20
-18.4232732733
 11
24.505826296
 21
-18.4232732733
  0
LINE
  5
433
100
AcDbEntity
  8
SMUSSO
100
AcDbLine
 62
7
  6
CONTINUOUS
 10
22.757619767
 20
-18.3829319163
 11
23.4169128208
 21
-18.3829319163
  0
LINE
  5
434
100
AcDbEntity
  8
0
100
AcDbLine
 62
7
  6
CONTINUOUS
 10
23.4169128208
 20
-18.3829319163
 11
23.7965332422
 21
-18.3829319163
  0
LINE
  5
435
100
AcDbEntity
  8
SMUSSO
100
AcDbLine
 62
7
  6
CONTINUOUS
 10
23.7965332422
 20
-18.3829319163
 11
24.505826296
 21
-18.3829319163
  0
LINE
  5
436
100
AcDbEntity
  8
0
100
AcDbLine
 62
7
  6
CONTINUOUS
 10
22.4067230315
 20
-18.222742127
 11
0.7747840315
 21
-18.222742127
  0
LINE
  5
437
100
AcDbEntity
  8
SMUSSO
100
AcDbLine
 62
7
  6
CONTINUOUS
 10
24.505826296
 20
-17.6549914478
 11
22.757619767
 21
-17.6549914478
  0
LINE
  5
438
100
AcDbEntity
  8
ASSI
100
AcDbLine
 62
7
  6
CONTINUOUS
 10
-22.5952792085
 20
-15.972742127
 11
-22.6432769685
 21
-15.972742127
  0
LINE
  5
439
100
AcDbEntity
  8
DRAFT
100
AcDbLine
 62
7
  6
CONTINUOUS
 10
24.8067230315
 20
-15.972742127
 11
25.3807786002
 21
-15.972742127
  0
LINE
  5
43A
100
AcDbEntity
  8
DRAFT
100
AcDbLine
 62
7
  6
CONTINUOUS
 10
-24.9932769685
 20
-15.972742127
 11
-25.5673325371
 21
-15.972742127
  0
LINE
  5
43B
100
AcDbEntity
  8
DRAFT
100
AcDbLine
 62
7
  6
CONTINUOUS
 10
26.4567230315
 20
-15.6984780583
 11
26.1567230315
 21
-15.6984780583
  0
LINE
  5
43C
100
AcDbEntity
  8
DRAFT
100
AcDbLine
 62
7
  6
CONTINUOUS
 10
-26.3432769685
 20
-15.6984780583
 11
-26.6432769685
 21
-15.6984780583
  0
LINE
  5
43D
100
AcDbEntity
  8
DRAFT
100
AcDbLine
 62
7
  6
CONTINUOUS
 10
26.4400998497
 20
-15.6496038765
 11
26.1078488497
 21
-15.6496038765
  0
LINE
  5
43E
100
AcDbEntity
  8
DRAFT
100
AcDbLine
 62
7
  6
CONTINUOUS
 10
-26.2944027867
 20
-15.6496038765
 11
-26.6266537866
 21
-15.6496038765
  0
LINE
  5
43F
100
AcDbEntity
  8
DRAFT
100
AcDbLine
 62
7
  6
CONTINUOUS
 10
-22.5734620262
 20
-16.1844485023
 11
-22.592781681
 21
-16.1827582515
  0
LINE
  5
440
100
AcDbEntity
  8
DRAFT
100
AcDbLine
 62
7
  6
CONTINUOUS
 10
-22.6239497064
 20
-16.1800314026
 11
-22.6432769685
 21
-16.1783404863
  0
LINE
  5
441
100
AcDbEntity
  8
DRAFT
100
AcDbLine
 62
7
  6
CONTINUOUS
 10
-22.5977755082
 20
-16.1823213483
 11
-22.6189686591
 21
-16.1804671878
  0
LINE
  5
442
100
AcDbEntity
  8
DRAFT
100
AcDbLine
 62
7
  6
CONTINUOUS
 10
-24.9566213321
 20
-15.9759490797
 11
-24.9735150114
 21
-15.9744710742
  0
LINE
  5
443
100
AcDbEntity
  8
DRAFT
100
AcDbLine
 62
7
  6
CONTINUOUS
 10
-24.9746218787
 20
-15.9743742359
 11
-24.9932769685
 21
-15.972742127
  0
LINE
  5
444
100
AcDbEntity
  8
0
100
AcDbLine
 62
7
  6
CONTINUOUS
 10
-22.6432769685
 20
-13.547376367
 11
-22.6005374024
 21
-13.5588283992
  0
LINE
  5
445
100
AcDbEntity
  8
DRAFT
100
AcDbLine
 62
7
  6
CONTINUOUS
 10
-27.3432769685
 20
-10.572742127
 11
-26.3932769685
 21
-10.8272938598
  0
LINE
  5
446
100
AcDbEntity
  8
DRAFT
100
AcDbLine
 62
7
  6
CONTINUOUS
 10
-27.3293129165
 20
-10.5620271331
 11
-26.3793129165
 21
-10.8165788659
  0
LINE
  5
447
100
AcDbEntity
  8
0
100
AcDbLine
 62
7
  6
CONTINUOUS
 10
-25.1682259055
 20
-10.5169852589
 11
-25.4682259055
 21
-10.4366005011
  0
LINE
  5
448
100
AcDbEntity
  8
RACCORDO
100
AcDbLine
 62
253
  6
CONTINUOUS
 10
-27.8944027867
 20
-8.6814010203
 11
-27.9432769685
 21
-8.6611566714
  0
LINE
  5
449
100
AcDbEntity
  8
DRAFT
100
AcDbLine
 62
7
  6
CONTINUOUS
 10
-27.3293129165
 20
-8.8285262267
 11
-27.3956421633
 21
-8.8010517532
  0
LINE
  5
44A
100
AcDbEntity
  8
RACCORDO
100
AcDbLine
 62
253
  6
CONTINUOUS
 10
-27.6015541769
 20
-7.9744019349
 11
-27.6504283587
 21
-7.954157586
  0
LINE
  5
44B
100
AcDbEntity
  8
DRAFT
100
AcDbLine
 62
7
  6
CONTINUOUS
 10
15.6392679666
 20
-25.3770343713
 11
15.7055972133
 21
-25.4045088449
  0
LINE
  5
44C
100
AcDbEntity
  8
DRAFT
100
AcDbLine
 62
7
  6
CONTINUOUS
 10
-24.9378207038
 20
1.2218016083
 11
-24.9932769685
 21
1.277257873
  0
LINE
  5
44D
100
AcDbEntity
  8
DRAFT
100
AcDbLine
 62
7
  6
CONTINUOUS
 10
-26.0107320334
 20
4.1916006236
 11
-26.9432769685
 21
5.1241455587
  0
LINE
  5
44E
100
AcDbEntity
  8
DRAFT
100
AcDbLine
 62
7
  6
CONTINUOUS
 10
-25.9932769685
 20
4.1988307482
 11
-26.9432769685
 21
5.1488307482
  0
LINE
  5
44F
100
AcDbEntity
  8
DRAFT
100
AcDbLine
 62
7
  6
CONTINUOUS
 10
-8.9389847242
 20
-27.4552870621
 11
-8.9115102506
 21
-27.5216163088
  0
LINE
  5
450
100
AcDbEntity
  8
RACCORDO
100
AcDbLine
 62
253
  6
CONTINUOUS
 10
-8.5519358618
 20
-28.0238679452
 11
-8.5316915128
 21
-28.072742127
  0
LINE
  5
451
100
AcDbEntity
  8
RACCORDO
100
AcDbLine
 62
253
  6
CONTINUOUS
 10
-7.8449367764
 20
-27.7310193355
 11
-7.8246924274
 21
-27.7798935173
  0
LINE
  5
452
100
AcDbEntity
  8
DRAFT
100
AcDbLine
 62
7
  6
CONTINUOUS
 10
-6.1023691264
 20
-25.9884516855
 11
-6.1088762385
 21
-25.972742127
  0
LINE
  5
453
100
AcDbEntity
  8
DRAFT
100
AcDbLine
 62
7
  6
CONTINUOUS
 10
-10.6951499528
 20
-26.519251114
 11
-10.44059822
 21
-27.469251114
  0
LINE
  5
454
100
AcDbEntity
  8
DRAFT
100
AcDbLine
 62
7
  6
CONTINUOUS
 10
-10.6844349589
 20
-26.5052870621
 11
-10.4298832261
 21
-27.4552870621
  0
LINE
  5
455
100
AcDbEntity
  8
DRAFT
100
AcDbLine
 62
7
  6
CONTINUOUS
 10
-14.831058423
 20
25.15220681
 11
-14.831058423
 21
24.877257873
  0
LINE
  5
456
100
AcDbEntity
  8
DRAFT
100
AcDbLine
 62
7
  6
CONTINUOUS
 10
-14.831058423
 20
-25.597691064
 11
-14.831058423
 21
-25.322742127
  0
LINE
  5
457
100
AcDbEntity
  8
DRAFT
100
AcDbLine
 62
7
  6
CONTINUOUS
 10
-12.7932769685
 20
23.527257873
 11
-12.7932769685
 21
22.327257873
  0
LINE
  5
458
100
AcDbEntity
  8
DRAFT
100
AcDbLine
 62
7
  6
CONTINUOUS
 10
-12.7932769685
 20
-23.972742127
 11
-12.7932769685
 21
-22.772742127
  0
LINE
  5
459
100
AcDbEntity
  8
DRAFT
100
AcDbLine
 62
7
  6
CONTINUOUS
 10
-12.6152353062
 20
-24.1507837893
 11
-12.6152353062
 21
-22.8076495982
  0
LINE
  5
45A
100
AcDbEntity
  8
DRAFT
100
AcDbLine
 62
7
  6
CONTINUOUS
 10
-12.6152353062
 20
22.3621653441
 11
-12.6152353062
 21
23.7052995352
  0
LINE
  5
45B
100
AcDbEntity
  8
0
100
AcDbLine
 62
7
  6
CONTINUOUS
 10
-25.1682259055
 20
-12.4284989952
 11
-25.1333157756
 21
-12.3830032282
  0
LINE
  5
45C
100
AcDbEntity
  8
0
100
AcDbLine
 62
7
  6
CONTINUOUS
 10
-27.3462206936
 20
-7.2256858522
 11
-26.9432769685
 21
-6.822742127
  0
LINE
  5
45D
100
AcDbEntity
  8
RACCORDO
100
AcDbLine
 62
7
  6
CONTINUOUS
 10
6.5653016753
 20
26.6858365167
 11
6.9096667567
 21
27.0302015981
  0
LINE
  5
45E
100
AcDbEntity
  8
DRAFT
100
AcDbLine
 62
7
  6
CONTINUOUS
 10
5.8063019107
 20
25.527257873
 11
6.9005517341
 21
26.6215076964
  0
LINE
  5
45F
100
AcDbEntity
  8
DRAFT
100
AcDbLine
 62
7
  6
CONTINUOUS
 10
-27.6504283587
 20
-7.954157586
 11
-25.0665882412
 21
-5.3703174684
  0
LINE
  5
460
100
AcDbEntity
  8
RACCORDO
100
AcDbLine
 62
7
  6
CONTINUOUS
 10
6.9067230315
 20
26.6029938043
 11
7.6381384905
 21
27.3344092632
  0
LINE
  5
461
100
AcDbEntity
  8
DRAFT
100
AcDbLine
 62
7
  6
CONTINUOUS
 10
7.6583828394
 20
27.2855350814
 11
5.9158151894
 21
25.5429674314
  0
LINE
  5
462
100
AcDbEntity
  8
DRAFT
100
AcDbLine
 62
7
  6
CONTINUOUS
 10
-25.0177140594
 20
-5.3905618174
 11
-27.6015541769
 21
-7.9744019349
  0
LINE
  5
463
100
AcDbEntity
  8
0
100
AcDbLine
 62
7
  6
CONTINUOUS
 10
-28.2432769685
 20
-8.688427552
 11
-28.1947488311
 21
-8.6398994146
  0
LINE
  5
464
100
AcDbEntity
  8
0
100
AcDbLine
 62
7
  6
CONTINUOUS
 10
8.323880319
 20
27.8787297355
 11
8.3724084565
 21
27.927257873
  0
LINE
  5
465
100
AcDbEntity
  8
0
100
AcDbLine
 62
7
  6
CONTINUOUS
 10
-0.5932769685
 20
18.145318873
 11
-0.9613379685
 21
17.777257873
  0
LINE
  5
466
100
AcDbEntity
  8
DRAFT
100
AcDbLine
 62
7
  6
CONTINUOUS
 10
-27.3956421633
 20
-8.8010517532
 11
-25.5673325371
 21
-6.972742127
  0
LINE
  5
467
100
AcDbEntity
  8
DRAFT
100
AcDbLine
 62
7
  6
CONTINUOUS
 10
-27.3293129165
 20
-8.8285262267
 11
-25.4735288168
 21
-6.972742127
  0
LINE
  5
468
100
AcDbEntity
  8
DRAFT
100
AcDbLine
 62
7
  6
CONTINUOUS
 10
6.6067230315
 20
24.9578987726
 11
8.7249563137
 21
27.0761320548
  0
LINE
  5
469
100
AcDbEntity
  8
DRAFT
100
AcDbLine
 62
7
  6
CONTINUOUS
 10
6.6741780964
 20
24.9315501173
 11
8.7524307872
 21
27.009802808
  0
LINE
  5
46A
100
AcDbEntity
  8
DRAFT
100
AcDbLine
 62
7
  6
CONTINUOUS
 10
6.6427589796
 20
24.8336202107
 11
6.6741780964
 21
24.8650393275
  0
LINE
  5
46B
100
AcDbEntity
  8
DRAFT
100
AcDbLine
 62
7
  6
CONTINUOUS
 10
10.9067230315
 20
27.877257873
 11
10.6567230315
 21
27.627257873
  0
LINE
  5
46C
100
AcDbEntity
  8
DRAFT
100
AcDbLine
 62
7
  6
CONTINUOUS
 10
-27.9432769685
 20
-11.222742127
 11
-28.1932769685
 21
-11.472742127
  0
LINE
  5
46D
100
AcDbEntity
  8
DRAFT
100
AcDbLine
 62
7
  6
CONTINUOUS
 10
10.9067230315
 20
27.6003618247
 11
10.884744898
 21
27.5783836912
  0
LINE
  5
46E
100
AcDbEntity
  8
DRAFT
100
AcDbLine
 62
7
  6
CONTINUOUS
 10
-27.8944027867
 20
-11.4507639935
 11
-27.9163809202
 21
-11.472742127
  0
LINE
  5
46F
100
AcDbEntity
  8
DRAFT
100
AcDbLine
 62
7
  6
CONTINUOUS
 10
6.6427589796
 20
24.7732607301
 11
6.6072859406
 21
24.7383506002
  0
LINE
  5
470
100
AcDbEntity
  8
DRAFT
100
AcDbLine
 62
7
  6
CONTINUOUS
 10
15.5149444341
 20
22.327257873
 11
15.5847646938
 21
22.3621653441
  0
LINE
  5
471
100
AcDbEntity
  8
DRAFT
100
AcDbLine
 62
7
  6
CONTINUOUS
 10
-25.0665882412
 20
4.9248332144
 11
-25.0177140594
 21
4.9450775633
  0
LINE
  5
472
100
AcDbEntity
  8
0
100
AcDbLine
 62
7
  6
CONTINUOUS
 10
24.9816719685
 20
-8.5706160302
 11
25.2816719685
 21
-8.5176453415
  0
LINE
  5
473
100
AcDbEntity
  8
DRAFT
100
AcDbLine
 62
7
  6
CONTINUOUS
 10
24.7438847978
 20
-8.114727961
 11
24.8158488517
 21
-8.1020213427
  0
LINE
  5
474
100
AcDbEntity
  8
0
100
AcDbLine
 62
7
  6
CONTINUOUS
 10
22.4567230315
 20
-10.9595085997
 11
22.4140110071
 21
-10.967039882
  0
LINE
  5
475
100
AcDbEntity
  8
0
100
AcDbLine
 62
253
  6
CONTINUOUS
 10
22.3816719685
 20
-11.1189411692
 11
22.3976407046
 21
-11.1175440858
  0
LINE
  5
476
100
AcDbEntity
  8
0
100
AcDbLine
 62
253
  6
CONTINUOUS
 10
22.3791296067
 20
-11.0916735619
 11
22.3816719685
 21
-11.091451134
  0
LINE
  5
477
100
AcDbEntity
  8
DRAFT
100
AcDbLine
 62
7
  6
CONTINUOUS
 10
-28.1932769685
 20
-11.472742127
 11
-27.9163809202
 21
-11.472742127
  0
LINE
  5
478
100
AcDbEntity
  8
DRAFT
100
AcDbLine
 62
7
  6
CONTINUOUS
 10
28.0067230315
 20
-11.472742127
 11
27.7298269832
 21
-11.472742127
  0
LINE
  5
479
100
AcDbEntity
  8
0
100
AcDbLine
 62
7
  6
CONTINUOUS
 10
25.9875031432
 20
-16.8172981346
 11
24.9067230315
 21
-16.722742127
  0
LINE
  5
47A
100
AcDbEntity
  8
0
100
AcDbLine
 62
253
  6
CONTINUOUS
 10
-22.5841946416
 20
-11.1175440858
 11
-22.5682259055
 21
-11.1189411692
  0
LINE
  5
47B
100
AcDbEntity
  8
0
100
AcDbLine
 62
253
  6
CONTINUOUS
 10
-22.5682259055
 20
-11.091451134
 11
-22.5656835437
 21
-11.0916735619
  0
LINE
  5
47C
100
AcDbEntity
  8
0
100
AcDbLine
 62
7
  6
CONTINUOUS
 10
-22.6005649441
 20
-10.967039882
 11
-22.6432769685
 21
-10.9595085997
  0
LINE
  5
47D
100
AcDbEntity
  8
0
100
AcDbLine
 62
7
  6
CONTINUOUS
 10
-25.1682259055
 20
-8.5706160302
 11
-25.4682259055
 21
-8.5176453415
  0
LINE
  5
47E
100
AcDbEntity
  8
DRAFT
100
AcDbLine
 62
7
  6
CONTINUOUS
 10
-24.9304387347
 20
-8.114727961
 11
-25.0024027887
 21
-8.1020213427
  0
LINE
  5
47F
100
AcDbEntity
  8
DRAFT
100
AcDbLine
 62
7
  6
CONTINUOUS
 10
-25.0665882412
 20
-5.3703174684
 11
-25.0177140594
 21
-5.3905618174
  0
LINE
  5
480
100
AcDbEntity
  8
DRAFT
100
AcDbLine
 62
7
  6
CONTINUOUS
 10
15.5149444341
 20
-22.772742127
 11
15.5847646938
 21
-22.8076495982
  0
LINE
  5
481
100
AcDbEntity
  8
0
100
AcDbLine
 62
7
  6
CONTINUOUS
 10
0.7747840315
 20
-21.722742127
 11
0.4067230315
 21
-21.354681127
  0
LINE
  5
482
100
AcDbEntity
  8
RACCORDO
100
AcDbLine
 62
7
  6
CONTINUOUS
 10
6.9096667567
 20
-27.4756858522
 11
6.5653016753
 21
-27.1313207708
  0
LINE
  5
483
100
AcDbEntity
  8
0
100
AcDbLine
 62
7
  6
CONTINUOUS
 10
-26.9432769685
 20
6.377257873
 11
-27.3462206936
 21
6.7802015981
  0
LINE
  5
484
100
AcDbEntity
  8
DRAFT
100
AcDbLine
 62
7
  6
CONTINUOUS
 10
6.9005517341
 20
-27.0669919505
 11
5.8063019107
 21
-25.972742127
  0
LINE
  5
485
100
AcDbEntity
  8
RACCORDO
100
AcDbLine
 62
7
  6
CONTINUOUS
 10
7.6381384905
 20
-27.7798935173
 11
6.9067230315
 21
-27.0484780583
  0
LINE
  5
486
100
AcDbEntity
  8
DRAFT
100
AcDbLine
 62
7
  6
CONTINUOUS
 10
-25.0665882412
 20
4.9248332144
 11
-27.6504283587
 21
7.5086733319
  0
LINE
  5
487
100
AcDbEntity
  8
DRAFT
100
AcDbLine
 62
7
  6
CONTINUOUS
 10
-27.6015541769
 20
7.5289176809
 11
-25.0177140594
 21
4.9450775633
  0
LINE
  5
488
100
AcDbEntity
  8
DRAFT
100
AcDbLine
 62
7
  6
CONTINUOUS
 10
5.9158151894
 20
-25.9884516855
 11
7.6583828394
 21
-27.7310193355
  0
LINE
  5
489
100
AcDbEntity
  8
0
100
AcDbLine
 62
7
  6
CONTINUOUS
 10
-28.2432769685
 20
8.2429432979
 11
-28.1947488311
 21
8.1944151605
  0
LINE
  5
48A
100
AcDbEntity
  8
0
100
AcDbLine
 62
7
  6
CONTINUOUS
 10
8.3724084565
 20
-28.372742127
 11
8.323880319
 21
-28.3242139896
  0
LINE
  5
48B
100
AcDbEntity
  8
RACCORDO
100
AcDbLine
 62
7
  6
CONTINUOUS
 10
6.62243259
 20
-25.9884516855
 11
6.4824874376
 21
-25.8485065331
  0
LINE
  5
48C
100
AcDbEntity
  8
DRAFT
100
AcDbLine
 62
7
  6
CONTINUOUS
 10
-25.5673325371
 20
6.527257873
 11
-27.3956421633
 21
8.3555674991
  0
LINE
  5
48D
100
AcDbEntity
  8
DRAFT
100
AcDbLine
 62
7
  6
CONTINUOUS
 10
-25.4735288168
 20
6.527257873
 11
-27.3293129165
 21
8.3830419727
  0
LINE
  5
48E
100
AcDbEntity
  8
DRAFT
100
AcDbLine
 62
7
  6
CONTINUOUS
 10
8.7249563137
 20
-27.5216163088
 11
6.6224301973
 21
-25.4190935762
  0
LINE
  5
48F
100
AcDbEntity
  8
DRAFT
100
AcDbLine
 62
7
  6
CONTINUOUS
 10
8.7524307872
 20
-27.4552870621
 11
6.6741780964
 21
-25.3770343713
  0
LINE
  5
490
100
AcDbEntity
  8
DRAFT
100
AcDbLine
 62
7
  6
CONTINUOUS
 10
6.6427589796
 20
-25.2791044647
 11
6.6741780964
 21
-25.3105235816
  0
LINE
  5
491
100
AcDbEntity
  8
DRAFT
100
AcDbLine
 62
7
  6
CONTINUOUS
 10
6.6427589796
 20
-25.2187449841
 11
6.6078488497
 21
-25.1838348543
  0
LINE
  5
492
100
AcDbEntity
  8
RACCORDO
100
AcDbLine
 62
7
  6
CONTINUOUS
 10
6.4656168934
 20
-25.0270191577
 11
6.4653370056
 21
-25.0267392699
  0
LINE
  5
493
100
AcDbEntity
  8
DRAFT
100
AcDbLine
 62
7
  6
CONTINUOUS
 10
10.6567230315
 20
-28.072742127
 11
10.9067230315
 21
-28.322742127
  0
LINE
  5
494
100
AcDbEntity
  8
DRAFT
100
AcDbLine
 62
7
  6
CONTINUOUS
 10
-28.1932769685
 20
11.027257873
 11
-27.9432769685
 21
10.777257873
  0
LINE
  5
495
100
AcDbEntity
  8
DRAFT
100
AcDbLine
 62
7
  6
CONTINUOUS
 10
10.884744898
 20
-28.0238679452
 11
10.9067230315
 21
-28.0458460787
  0
LINE
  5
496
100
AcDbEntity
  8
DRAFT
100
AcDbLine
 62
7
  6
CONTINUOUS
 10
-27.9163809202
 20
11.027257873
 11
-27.8944027867
 21
11.0052797395
  0
LINE
  5
497
100
AcDbEntity
  8
RACCORDO
100
AcDbLine
 62
7
  6
CONTINUOUS
 10
6.6078488497
 20
-25.1838348543
 11
6.4656168934
 21
-25.0270191577
  0
LINE
  5
498
100
AcDbEntity
  8
0
100
AcDbLine
 62
7
  6
CONTINUOUS
 10
-25.1682259055
 20
11.9830147411
 11
-25.1333157756
 21
11.9375189741
  0
LINE
  5
499
100
AcDbEntity
  8
SMUSSO
100
AcDbLine
 62
7
  6
CONTINUOUS
 10
-22.9615701595
 20
21.1170680837
 11
-22.9481257716
 21
21.0767267267
  0
LINE
  5
49A
100
AcDbEntity
  8
SMUSSO
100
AcDbLine
 62
7
  6
CONTINUOUS
 10
-22.6602573751
 20
21.4165789304
 11
-22.6472404933
 21
21.3775203524
  0
LINE
  5
49B
100
AcDbEntity
  8
DRAFT
100
AcDbLine
 62
7
  6
CONTINUOUS
 10
-11.0932769685
 20
27.877257873
 11
-11.0932769685
 21
27.6003618247
  0
LINE
  5
49C
100
AcDbEntity
  8
DRAFT
100
AcDbLine
 62
7
  6
CONTINUOUS
 10
-11.0932769685
 20
-28.322742127
 11
-11.0932769685
 21
-28.0458460787
  0
LINE
  5
49D
100
AcDbEntity
  8
DRAFT
100
AcDbLine
 62
7
  6
CONTINUOUS
 10
-10.3869146308
 20
25.15220681
 11
-10.3869146308
 21
24.877257873
  0
LINE
  5
49E
100
AcDbEntity
  8
DRAFT
100
AcDbLine
 62
7
  6
CONTINUOUS
 10
-10.3869146308
 20
-25.597691064
 11
-10.3869146308
 21
-25.322742127
  0
LINE
  5
49F
100
AcDbEntity
  8
0
100
AcDbLine
 62
7
  6
CONTINUOUS
 10
-8.7246478184
 20
33.377257873
 11
-8.7246478184
 21
27.927257873
  0
LINE
  5
4A0
100
AcDbEntity
  8
0
100
AcDbLine
 62
7
  6
CONTINUOUS
 10
-8.7246478184
 20
-28.372742127
 11
-8.7246478184
 21
-33.822742127
  0
LINE
  5
4A1
100
AcDbEntity
  8
0
100
AcDbLine
 62
253
  6
CONTINUOUS
 10
-8.510434256
 20
-33.822742127
 11
-8.510434256
 21
-28.3242139896
  0
LINE
  5
4A2
100
AcDbEntity
  8
0
100
AcDbLine
 62
253
  6
CONTINUOUS
 10
-8.510434256
 20
27.8787297355
 11
-8.510434256
 21
33.377257873
  0
LINE
  5
4A3
100
AcDbEntity
  8
0
100
AcDbLine
 62
7
  6
CONTINUOUS
 10
-2.1679112084
 20
22.327257873
 11
-2.1793632407
 21
22.2845183069
  0
LINE
  5
4A4
100
AcDbEntity
  8
DRAFT
100
AcDbLine
 62
7
  6
CONTINUOUS
 10
10.254044283
 20
27.02376686
 11
10.2433292891
 21
27.009802808
  0
LINE
  5
4A5
100
AcDbEntity
  8
DRAFT
100
AcDbLine
 62
7
  6
CONTINUOUS
 10
10.5085960158
 20
26.07376686
 11
10.4978810219
 21
26.059802808
  0
LINE
  5
4A6
100
AcDbEntity
  8
DRAFT
100
AcDbLine
 62
7
  6
CONTINUOUS
 10
10.2003606938
 20
24.877257873
 11
10.1881421484
 21
24.8650393275
  0
LINE
  5
4A7
100
AcDbEntity
  8
DRAFT
100
AcDbLine
 62
7
  6
CONTINUOUS
 10
15.3824589628
 20
26.027257873
 11
15.333584781
 21
25.9783836912
  0
LINE
  5
4A8
100
AcDbEntity
  8
DRAFT
100
AcDbLine
 62
7
  6
CONTINUOUS
 10
-26.3432769685
 20
-15.6984780583
 11
-26.2944027867
 21
-15.6496038765
  0
LINE
  5
4A9
100
AcDbEntity
  8
DRAFT
100
AcDbLine
 62
7
  6
CONTINUOUS
 10
-27.3432769685
 20
-10.572742127
 11
-27.3293129165
 21
-10.5620271331
  0
LINE
  5
4AA
100
AcDbEntity
  8
DRAFT
100
AcDbLine
 62
7
  6
CONTINUOUS
 10
-26.3932769685
 20
-10.8272938598
 11
-26.3793129165
 21
-10.8165788659
  0
LINE
  5
4AB
100
AcDbEntity
  8
DRAFT
100
AcDbLine
 62
7
  6
CONTINUOUS
 10
-24.9304387347
 20
-14.830756293
 11
-25.0024027887
 21
-14.8434629114
  0
LINE
  5
4AC
100
AcDbEntity
  8
0
100
AcDbLine
 62
7
  6
CONTINUOUS
 10
-25.1682259055
 20
-14.3748682238
 11
-25.4682259055
 21
-14.4278389125
  0
LINE
  5
4AD
100
AcDbEntity
  8
0
100
AcDbLine
 62
7
  6
CONTINUOUS
 10
-22.6432769685
 20
-11.9859756544
 11
-22.6005649441
 21
-11.9784443721
  0
LINE
  5
4AE
100
AcDbEntity
  8
0
100
AcDbLine
 62
253
  6
CONTINUOUS
 10
-22.5656835437
 20
-11.8538106922
 11
-22.5682259055
 21
-11.85403312
  0
LINE
  5
4AF
100
AcDbEntity
  8
0
100
AcDbLine
 62
253
  6
CONTINUOUS
 10
-22.5682259055
 20
-11.8265430849
 11
-22.5841946416
 21
-11.8279401683
  0
LINE
  5
4B0
100
AcDbEntity
  8
0
100
AcDbLine
 62
7
  6
CONTINUOUS
 10
-31.6929911629
 20
-10.6913712771
 11
-30.693562774
 21
-10.6913712771
  0
LINE
  5
4B1
100
AcDbEntity
  8
0
100
AcDbLine
 62
7
  6
CONTINUOUS
 10
30.5070088371
 20
-10.6913712771
 11
31.506437226
 21
-10.6913712771
  0
LINE
  5
4B2
100
AcDbEntity
  8
0
100
AcDbLine
 62
7
  6
CONTINUOUS
 10
-32.4479746065
 20
-10.3913712771
 11
-29.9385793305
 21
-10.3913712771
  0
LINE
  5
4B3
100
AcDbEntity
  8
0
100
AcDbLine
 62
7
  6
CONTINUOUS
 10
32.2614206695
 20
-10.3913712771
 11
29.7520253935
 21
-10.3913712771
  0
LINE
  5
4B4
100
AcDbEntity
  8
0
100
AcDbLine
 62
7
  6
CONTINUOUS
 10
28.0567230315
 20
-8.8541129769
 11
33.5067230315
 21
-8.8541129769
  0
LINE
  5
4B5
100
AcDbEntity
  8
0
100
AcDbLine
 62
7
  6
CONTINUOUS
 10
-28.2432769685
 20
-8.8541129769
 11
-33.6932769685
 21
-8.8541129769
  0
LINE
  5
4B6
100
AcDbEntity
  8
0
100
AcDbLine
 62
253
  6
CONTINUOUS
 10
-33.6932769685
 20
-8.6398994146
 11
-28.1947488311
 21
-8.6398994146
  0
LINE
  5
4B7
100
AcDbEntity
  8
0
100
AcDbLine
 62
253
  6
CONTINUOUS
 10
33.5067230315
 20
-8.6398994146
 11
28.0081948941
 21
-8.6398994146
  0
LINE
  5
4B8
100
AcDbEntity
  8
0
100
AcDbLine
 62
253
  6
CONTINUOUS
 10
22.3816719685
 20
-11.85403312
 11
22.3791296067
 21
-11.8538106922
  0
LINE
  5
4B9
100
AcDbEntity
  8
0
100
AcDbLine
 62
253
  6
CONTINUOUS
 10
22.3976407046
 20
-11.8279401683
 11
22.3816719685
 21
-11.8265430849
  0
LINE
  5
4BA
100
AcDbEntity
  8
0
100
AcDbLine
 62
7
  6
CONTINUOUS
 10
22.4140110071
 20
-11.9784443721
 11
22.4567230315
 21
-11.9859756544
  0
LINE
  5
4BB
100
AcDbEntity
  8
DRAFT
100
AcDbLine
 62
7
  6
CONTINUOUS
 10
24.7438847978
 20
-14.830756293
 11
24.8158488517
 21
-14.8434629114
  0
LINE
  5
4BC
100
AcDbEntity
  8
0
100
AcDbLine
 62
7
  6
CONTINUOUS
 10
24.9816719685
 20
-14.3748682238
 11
25.2816719685
 21
-14.4278389125
  0
LINE
  5
4BD
100
AcDbEntity
  8
0
100
AcDbLine
 62
7
  6
CONTINUOUS
 10
26.6012965659
 20
-21.9104621087
 11
26.6098408835
 21
-21.9147221483
  0
LINE
  5
4BE
100
AcDbEntity
  8
DRAFT
100
AcDbLine
 62
7
  6
CONTINUOUS
 10
-27.3432769685
 20
10.127257873
 11
-27.3293129165
 21
10.1165428791
  0
LINE
  5
4BF
100
AcDbEntity
  8
DRAFT
100
AcDbLine
 62
7
  6
CONTINUOUS
 10
-26.3932769685
 20
10.3818096058
 11
-26.3793129165
 21
10.3710946119
  0
LINE
  5
4C0
100
AcDbEntity
  8
DRAFT
100
AcDbLine
 62
7
  6
CONTINUOUS
 10
10.2003606938
 20
-25.322742127
 11
10.1881421484
 21
-25.3105235816
  0
LINE
  5
4C1
100
AcDbEntity
  8
DRAFT
100
AcDbLine
 62
7
  6
CONTINUOUS
 10
-26.3432769685
 20
15.2529938043
 11
-26.2944027867
 21
15.2041196225
  0
LINE
  5
4C2
100
AcDbEntity
  8
DRAFT
100
AcDbLine
 62
7
  6
CONTINUOUS
 10
15.3824589628
 20
-26.472742127
 11
15.333584781
 21
-26.4238679452
  0
LINE
  5
4C3
100
AcDbEntity
  8
DRAFT
100
AcDbLine
 62
7
  6
CONTINUOUS
 10
10.254044283
 20
-27.469251114
 11
10.2433292891
 21
-27.4552870621
  0
LINE
  5
4C4
100
AcDbEntity
  8
DRAFT
100
AcDbLine
 62
7
  6
CONTINUOUS
 10
10.5085960158
 20
-26.519251114
 11
10.4978810219
 21
-26.5052870621
  0
LINE
  5
4C5
100
AcDbEntity
  8
0
100
AcDbLine
 62
7
  6
CONTINUOUS
 10
-2.1679112084
 20
-22.772742127
 11
-2.1793632407
 21
-22.7300025609
  0
LINE
  5
4C6
100
AcDbEntity
  8
DRAFT
100
AcDbLine
 62
7
  6
CONTINUOUS
 10
-4.8005662441
 20
-22.7534148649
 11
-4.7988753278
 21
-22.772742127
  0
LINE
  5
4C7
100
AcDbEntity
  8
DRAFT
100
AcDbLine
 62
7
  6
CONTINUOUS
 10
-4.8028561897
 20
-22.7272406668
 11
-4.8010020293
 21
-22.7484338176
  0
LINE
  5
4C8
100
AcDbEntity
  8
DRAFT
100
AcDbLine
 62
7
  6
CONTINUOUS
 10
-4.8049833438
 20
-22.7029271847
 11
-4.803293093
 21
-22.7222468395
  0
LINE
  5
4C9
100
AcDbEntity
  8
0
100
AcDbLine
 62
253
  6
CONTINUOUS
 10
-7.0962206936
 20
-33.822742127
 11
-7.0962206936
 21
-27.4756858522
  0
LINE
  5
4CA
100
AcDbEntity
  8
0
100
AcDbLine
 62
253
  6
CONTINUOUS
 10
-7.0962206936
 20
27.0302015981
 11
-7.0962206936
 21
33.377257873
  0
LINE
  5
4CB
100
AcDbEntity
  8
DRAFT
100
AcDbLine
 62
7
  6
CONTINUOUS
 10
-7.0932769685
 20
-27.4756858522
 11
-7.0932769685
 21
-27.0484780583
  0
LINE
  5
4CC
100
AcDbEntity
  8
DRAFT
100
AcDbLine
 62
7
  6
CONTINUOUS
 10
-7.0932769685
 20
26.6029938043
 11
-7.0932769685
 21
27.0302015981
  0
LINE
  5
4CD
100
AcDbEntity
  8
DRAFT
100
AcDbLine
 62
7
  6
CONTINUOUS
 10
-6.8607320334
 20
24.9315501173
 11
-6.8607320334
 21
24.8650393275
  0
LINE
  5
4CE
100
AcDbEntity
  8
DRAFT
100
AcDbLine
 62
7
  6
CONTINUOUS
 10
-6.8607320334
 20
-25.3105235816
 11
-6.8607320334
 21
-25.3770343713
  0
LINE
  5
4CF
100
AcDbEntity
  8
DRAFT
100
AcDbLine
 62
7
  6
CONTINUOUS
 10
-6.8293129165
 20
24.8336202107
 11
-6.8293129165
 21
24.7732607301
  0
LINE
  5
4D0
100
AcDbEntity
  8
DRAFT
100
AcDbLine
 62
7
  6
CONTINUOUS
 10
-6.8293129165
 20
-25.2187449841
 11
-6.8293129165
 21
-25.2791044647
  0
LINE
  5
4D1
100
AcDbEntity
  8
DRAFT
100
AcDbLine
 62
253
  6
CONTINUOUS
 10
-6.8089841343
 20
-25.1838324616
 11
-6.8089820849
 21
-25.4045088449
  0
LINE
  5
4D2
100
AcDbEntity
  8
DRAFT
100
AcDbLine
 62
7
  6
CONTINUOUS
 10
-6.8089820849
 20
-25.4045088449
 11
-6.8089865269
 21
-25.9884516855
  0
LINE
  5
4D3
100
AcDbEntity
  8
RACCORDO
100
AcDbLine
 62
7
  6
CONTINUOUS
 10
-6.7932769685
 20
24.4031745839
 11
-6.7932769685
 21
25.5429674314
  0
LINE
  5
4D4
100
AcDbEntity
  8
RACCORDO
100
AcDbLine
 62
7
  6
CONTINUOUS
 10
-6.6518909426
 20
-24.848658838
 11
-6.6518909426
 21
-25.0267392699
  0
LINE
  5
4D5
100
AcDbEntity
  8
RACCORDO
100
AcDbLine
 62
7
  6
CONTINUOUS
 10
-5.9932769685
 20
26.3708793289
 11
-5.9932769685
 21
25.5758649936
  0
LINE
  5
4D6
100
AcDbEntity
  8
RACCORDO
100
AcDbLine
 62
7
  6
CONTINUOUS
 10
-5.9932769685
 20
-26.9730412766
 11
-5.9932769685
 21
-26.816363583
  0
LINE
  5
4D7
100
AcDbEntity
  8
RACCORDO
100
AcDbLine
 62
7
  6
CONTINUOUS
 10
-5.9932769685
 20
-26.816363583
 11
-5.9932769685
 21
-26.0213492476
  0
LINE
  5
4D8
100
AcDbEntity
  8
0
100
AcDbLine
 62
7
  6
CONTINUOUS
 10
-5.9932769685
 20
-26.9730412766
 11
-5.9932769685
 21
-27.072742127
  0
LINE
  5
4D9
100
AcDbEntity
  8
RACCORDO
100
AcDbLine
 62
7
  6
CONTINUOUS
 10
-5.9932769685
 20
26.3708793289
 11
-5.9932769685
 21
26.5275570225
  0
LINE
  5
4DA
100
AcDbEntity
  8
0
100
AcDbLine
 62
7
  6
CONTINUOUS
 10
-5.9932769685
 20
26.5275570225
 11
-5.9932769685
 21
26.627257873
  0
LINE
  5
4DB
100
AcDbEntity
  8
DRAFT
100
AcDbLine
 62
7
  6
CONTINUOUS
 10
-5.7932769685
 20
-26.972742127
 11
-5.7932769685
 21
-25.9255465959
  0
LINE
  5
4DC
100
AcDbEntity
  8
DRAFT
100
AcDbLine
 62
7
  6
CONTINUOUS
 10
-5.7932769685
 20
25.4800623418
 11
-5.7932769685
 21
26.527257873
  0
LINE
  5
4DD
100
AcDbEntity
  8
DRAFT
100
AcDbLine
 62
7
  6
CONTINUOUS
 10
-4.5932769685
 20
-26.972742127
 11
-4.5932769685
 21
-25.9255465959
  0
LINE
  5
4DE
100
AcDbEntity
  8
ASSI
100
AcDbLine
 62
7
  6
CONTINUOUS
 10
-4.5932769685
 20
-22.772742127
 11
-4.5932769685
 21
-22.724744367
  0
LINE
  5
4DF
100
AcDbEntity
  8
RACCORDO
100
AcDbLine
 62
7
  6
CONTINUOUS
 10
-4.5932769685
 20
-25.0624512641
 11
-4.5932769685
 21
-25.9255465959
  0
LINE
  5
4E0
100
AcDbEntity
  8
ASSI
100
AcDbLine
 62
7
  6
CONTINUOUS
 10
-4.5932769685
 20
22.2792601129
 11
-4.5932769685
 21
22.327257873
  0
LINE
  5
4E1
100
AcDbEntity
  8
RACCORDO
100
AcDbLine
 62
7
  6
CONTINUOUS
 10
-4.5932769685
 20
24.6169670101
 11
-4.5932769685
 21
25.4800623418
  0
LINE
  5
4E2
100
AcDbEntity
  8
DRAFT
100
AcDbLine
 62
7
  6
CONTINUOUS
 10
-4.5932769685
 20
25.4800623418
 11
-4.5932769685
 21
26.527257873
  0
LINE
  5
4E3
100
AcDbEntity
  8
DRAFT
100
AcDbLine
 62
7
  6
CONTINUOUS
 10
-4.8049833438
 20
22.2574429306
 11
-4.803293093
 21
22.2767625855
  0
LINE
  5
4E4
100
AcDbEntity
  8
DRAFT
100
AcDbLine
 62
7
  6
CONTINUOUS
 10
-4.8028561897
 20
22.2817564127
 11
-4.8010020293
 21
22.3029495635
  0
LINE
  5
4E5
100
AcDbEntity
  8
DRAFT
100
AcDbLine
 62
7
  6
CONTINUOUS
 10
-4.8005662441
 20
22.3079306109
 11
-4.7988753278
 21
22.327257873
  0
LINE
  5
4E6
100
AcDbEntity
  8
0
100
AcDbLine
 62
7
  6
CONTINUOUS
 10
0.4124252765
 20
22.2845458485
 11
0.4199565589
 21
22.327257873
  0
LINE
  5
4E7
100
AcDbEntity
  8
DRAFT
100
AcDbLine
 62
7
  6
CONTINUOUS
 10
-12.2566707109
 20
-27.4552870621
 11
-12.0021189781
 21
-26.5052870621
  0
LINE
  5
4E8
100
AcDbEntity
  8
DRAFT
100
AcDbLine
 62
7
  6
CONTINUOUS
 10
-12.245955717
 20
-27.469251114
 11
-11.9914039842
 21
-26.519251114
  0
LINE
  5
4E9
100
AcDbEntity
  8
DRAFT
100
AcDbLine
 62
7
  6
CONTINUOUS
 10
-16.1487685508
 20
-26.4238679452
 11
-16.1690128998
 21
-26.472742127
  0
LINE
  5
4EA
100
AcDbEntity
  8
DRAFT
100
AcDbLine
 62
7
  6
CONTINUOUS
 10
15.5847646938
 20
23.7052995352
 11
15.4067230315
 21
23.527257873
  0
LINE
  5
4EB
100
AcDbEntity
  8
SMUSSO
100
AcDbLine
 62
7
  6
CONTINUOUS
 10
-25.9639876466
 20
-21.1437053368
 11
-30.7723137587
 21
-25.9520314489
  0
LINE
  5
4EC
100
AcDbEntity
  8
DRAFT
100
AcDbLine
 62
7
  6
CONTINUOUS
 10
24.8800343042
 20
17.1296825316
 11
24.8311601224
 21
17.1094381826
  0
LINE
  5
4ED
100
AcDbEntity
  8
DRAFT
100
AcDbLine
 62
7
  6
CONTINUOUS
 10
26.1078488497
 20
15.8327494553
 11
26.1567230315
 21
15.8529938043
  0
LINE
  5
4EE
100
AcDbEntity
  8
0
100
AcDbLine
 62
7
  6
CONTINUOUS
 10
-25.1682259055
 20
-12.4284989952
 11
-25.4682259055
 21
-12.5088837529
  0
LINE
  5
4EF
100
AcDbEntity
  8
DRAFT
100
AcDbLine
 62
7
  6
CONTINUOUS
 10
-26.3793129165
 20
-12.1289053881
 11
-27.3293129165
 21
-12.3834571209
  0
LINE
  5
4F0
100
AcDbEntity
  8
DRAFT
100
AcDbLine
 62
7
  6
CONTINUOUS
 10
-26.3932769685
 20
-12.1181903942
 11
-27.3432769685
 21
-12.372742127
  0
LINE
  5
4F1
100
AcDbEntity
  8
DRAFT
100
AcDbLine
 62
7
  6
CONTINUOUS
 10
-22.5734620262
 20
-6.7610357517
 11
-22.592781681
 21
-6.7627260025
  0
LINE
  5
4F2
100
AcDbEntity
  8
DRAFT
100
AcDbLine
 62
7
  6
CONTINUOUS
 10
-22.5977755082
 20
-6.7631629058
 11
-22.6189686591
 21
-6.7650170662
  0
LINE
  5
4F3
100
AcDbEntity
  8
DRAFT
100
AcDbLine
 62
7
  6
CONTINUOUS
 10
-22.6239497064
 20
-6.7654528514
 11
-22.6432769685
 21
-6.7671437677
  0
LINE
  5
4F4
100
AcDbEntity
  8
DRAFT
100
AcDbLine
 62
7
  6
CONTINUOUS
 10
-24.9566213321
 20
-6.9695351744
 11
-24.9735150114
 21
-6.9710131798
  0
LINE
  5
4F5
100
AcDbEntity
  8
DRAFT
100
AcDbLine
 62
7
  6
CONTINUOUS
 10
-24.9746218787
 20
-6.9711100182
 11
-24.9932769685
 21
-6.972742127
  0
LINE
  5
4F6
100
AcDbEntity
  8
0
100
AcDbLine
 62
253
  6
CONTINUOUS
 10
-33.6932769685
 20
-7.2256858522
 11
-27.3462206936
 21
-7.2256858522
  0
LINE
  5
4F7
100
AcDbEntity
  8
0
100
AcDbLine
 62
253
  6
CONTINUOUS
 10
33.5067230315
 20
-7.2256858522
 11
27.1596667567
 21
-7.2256858522
  0
LINE
  5
4F8
100
AcDbEntity
  8
ASSI
100
AcDbLine
 62
7
  6
CONTINUOUS
 10
-22.5952792085
 20
-6.972742127
 11
-22.6432769685
 21
-6.972742127
  0
LINE
  5
4F9
100
AcDbEntity
  8
DRAFT
100
AcDbLine
 62
7
  6
CONTINUOUS
 10
24.8067230315
 20
-6.972742127
 11
25.3807786002
 21
-6.972742127
  0
LINE
  5
4FA
100
AcDbEntity
  8
DRAFT
100
AcDbLine
 62
7
  6
CONTINUOUS
 10
-24.9932769685
 20
-6.972742127
 11
-25.5673325371
 21
-6.972742127
  0
LINE
  5
4FB
100
AcDbEntity
  8
0
100
AcDbLine
 62
7
  6
CONTINUOUS
 10
-26.9432769685
 20
-4.622742127
 11
-26.5062811592
 21
-4.622742127
  0
LINE
  5
4FC
100
AcDbEntity
  8
RACCORDO
100
AcDbLine
 62
7
  6
CONTINUOUS
 10
-26.5062811592
 20
-4.622742127
 11
-25.9107070622
 21
-4.622742127
  0
LINE
  5
4FD
100
AcDbEntity
  8
0
100
AcDbLine
 62
7
  6
CONTINUOUS
 10
26.7567230315
 20
-4.622742127
 11
26.3197272223
 21
-4.622742127
  0
LINE
  5
4FE
100
AcDbEntity
  8
RACCORDO
100
AcDbLine
 62
7
  6
CONTINUOUS
 10
-25.9107070622
 20
-4.622742127
 11
-25.1477335016
 21
-4.622742127
  0
LINE
  5
4FF
100
AcDbEntity
  8
RACCORDO
100
AcDbLine
 62
7
  6
CONTINUOUS
 10
26.3197272223
 20
-4.622742127
 11
25.7241531252
 21
-4.622742127
  0
LINE
  5
500
100
AcDbEntity
  8
RACCORDO
100
AcDbLine
 62
7
  6
CONTINUOUS
 10
25.7241531252
 20
-4.622742127
 11
24.9611795646
 21
-4.622742127
  0
LINE
  5
501
100
AcDbEntity
  8
DRAFT
100
AcDbLine
 62
7
  6
CONTINUOUS
 10
24.6740645381
 20
-4.222742127
 11
22.4567230315
 21
-4.222742127
  0
LINE
  5
502
100
AcDbEntity
  8
DRAFT
100
AcDbLine
 62
7
  6
CONTINUOUS
 10
-22.6781844396
 20
-4.222742127
 11
-24.860618475
 21
-4.222742127
  0
LINE
  5
503
100
AcDbEntity
  8
RACCORDO
100
AcDbLine
 62
253
  6
CONTINUOUS
 10
25.5738002255
 20
-4.122742127
 11
24.8108266649
 21
-4.122742127
  0
LINE
  5
504
100
AcDbEntity
  8
DRAFT
100
AcDbLine
 62
7
  6
CONTINUOUS
 10
24.7700673952
 20
-6.9695351744
 11
24.7869610744
 21
-6.9710131798
  0
LINE
  5
505
100
AcDbEntity
  8
DRAFT
100
AcDbLine
 62
7
  6
CONTINUOUS
 10
24.7880679418
 20
-6.9711100182
 11
24.8067230315
 21
-6.972742127
  0
LINE
  5
506
100
AcDbEntity
  8
0
100
AcDbLine
 62
7
  6
CONTINUOUS
 10
24.9816719685
 20
-12.4284989952
 11
25.2816719685
 21
-12.5088837529
  0
LINE
  5
507
100
AcDbEntity
  8
DRAFT
100
AcDbLine
 62
7
  6
CONTINUOUS
 10
27.1427589796
 20
-12.3834571209
 11
26.1927589796
 21
-12.1289053881
  0
LINE
  5
508
100
AcDbEntity
  8
DRAFT
100
AcDbLine
 62
7
  6
CONTINUOUS
 10
27.1567230315
 20
-12.372742127
 11
26.2067230315
 21
-12.1181903942
  0
LINE
  5
509
100
AcDbEntity
  8
DRAFT
100
AcDbLine
 62
7
  6
CONTINUOUS
 10
24.8800343042
 20
-17.5751667856
 11
24.8311601224
 21
-17.5549224367
  0
LINE
  5
50A
100
AcDbEntity
  8
DRAFT
100
AcDbLine
 62
7
  6
CONTINUOUS
 10
26.1078488497
 20
-16.2782337094
 11
26.1567230315
 21
-16.2984780583
  0
LINE
  5
50B
100
AcDbEntity
  8
DRAFT
100
AcDbLine
 62
7
  6
CONTINUOUS
 10
24.709647008
 20
-18.1800499743
 11
24.7359706495
 21
-18.1932077846
  0
LINE
  5
50C
100
AcDbEntity
  8
DRAFT
100
AcDbLine
 62
7
  6
CONTINUOUS
 10
15.5847646938
 20
-24.1507837893
 11
15.4067230315
 21
-23.972742127
  0
LINE
  5
50D
100
AcDbEntity
  8
0
100
AcDbLine
 62
7
  6
CONTINUOUS
 10
-23.6034667578
 20
17.9374476623
 11
-23.7932769685
 21
18.127257873
  0
LINE
  5
50E
100
AcDbEntity
  8
SMUSSO
100
AcDbLine
 62
7
  6
CONTINUOUS
 10
-22.6781844396
 20
16.890255284
 11
-22.9781945269
 21
17.2095071937
  0
LINE
  5
50F
100
AcDbEntity
  8
DRAFT
100
AcDbLine
 62
7
  6
CONTINUOUS
 10
-16.1487685508
 20
25.9783836912
 11
-16.1690128998
 21
26.027257873
  0
LINE
  5
510
100
AcDbEntity
  8
DRAFT
100
AcDbLine
 62
7
  6
CONTINUOUS
 10
-12.0021189781
 20
26.059802808
 11
-12.2566707109
 21
27.009802808
  0
LINE
  5
511
100
AcDbEntity
  8
DRAFT
100
AcDbLine
 62
7
  6
CONTINUOUS
 10
-11.9914039842
 20
26.07376686
 11
-12.245955717
 21
27.02376686
  0
LINE
  5
512
100
AcDbEntity
  8
0
100
AcDbLine
 62
7
  6
CONTINUOUS
 10
0.4199565589
 20
-22.772742127
 11
0.4124252765
 21
-22.7300301026
  0
LINE
  5
513
100
AcDbEntity
  8
0
100
AcDbLine
 62
253
  6
CONTINUOUS
 10
0.2605239894
 20
-22.697691064
 11
0.2619210727
 21
-22.7136598001
  0
LINE
  5
514
100
AcDbEntity
  8
0
100
AcDbLine
 62
253
  6
CONTINUOUS
 10
0.2877915967
 20
-22.6951487022
 11
0.2880140245
 21
-22.697691064
  0
LINE
  5
515
100
AcDbEntity
  8
0
100
AcDbLine
 62
7
  6
CONTINUOUS
 10
-1.0932769685
 20
-21.022742127
 11
-1.0932769685
 21
-18.922742127
  0
LINE
  5
516
100
AcDbEntity
  8
0
100
AcDbLine
 62
7
  6
CONTINUOUS
 10
-0.9613379685
 20
21.277257873
 11
-0.9613379685
 21
17.777257873
  0
LINE
  5
517
100
AcDbEntity
  8
0
100
AcDbLine
 62
253
  6
CONTINUOUS
 10
-0.8932769685
 20
-21.222742127
 11
-0.8932769685
 21
-18.722742127
  0
LINE
  5
518
100
AcDbEntity
  8
0
100
AcDbLine
 62
7
  6
CONTINUOUS
 10
-0.5932769685
 20
18.145318873
 11
-0.5932769685
 21
20.909196873
  0
LINE
  5
519
100
AcDbEntity
  8
0
100
AcDbLine
 62
7
  6
CONTINUOUS
 10
0.4067230315
 20
-18.590803127
 11
0.4067230315
 21
-21.354681127
  0
LINE
  5
51A
100
AcDbEntity
  8
0
100
AcDbLine
 62
253
  6
CONTINUOUS
 10
0.2619210727
 20
22.2681755461
 11
0.2605239894
 21
22.25220681
  0
LINE
  5
51B
100
AcDbEntity
  8
0
100
AcDbLine
 62
253
  6
CONTINUOUS
 10
0.2880140245
 20
22.25220681
 11
0.2877915967
 21
22.2496644481
  0
LINE
  5
51C
100
AcDbEntity
  8
0
100
AcDbLine
 62
7
  6
CONTINUOUS
 10
2.8860191799
 20
24.8248983944
 11
2.8757390872
 21
24.7666769918
  0
LINE
  5
51D
100
AcDbEntity
  8
DRAFT
100
AcDbLine
 62
7
  6
CONTINUOUS
 10
3.2758324793
 20
24.677257873
 11
3.2774438159
 21
24.6863836932
  0
LINE
  5
51E
100
AcDbEntity
  8
DRAFT
100
AcDbLine
 62
7
  6
CONTINUOUS
 10
-13.7475692128
 20
-27.4552870621
 11
-13.7750436863
 21
-27.5216163088
  0
LINE
  5
51F
100
AcDbEntity
  8
DRAFT
100
AcDbLine
 62
7
  6
CONTINUOUS
 10
-14.5449471795
 20
-28.0238679452
 11
-14.5690128998
 21
-28.072742127
  0
LINE
  5
520
100
AcDbEntity
  8
0
100
AcDbLine
 62
7
  6
CONTINUOUS
 10
-30.7815756433
 20
-26.244136046
 11
-31.6115800115
 21
-27.0741404142
  0
LINE
  5
521
100
AcDbEntity
  8
RACCORDO
100
AcDbLine
 62
253
  6
CONTINUOUS
 10
-22.5734620262
 20
-22.3029424155
 11
-22.6781844396
 21
-22.407664829
  0
LINE
  5
522
100
AcDbEntity
  8
0
100
AcDbLine
 62
7
  6
CONTINUOUS
 10
-26.3821130442
 20
-26.5115782027
 11
-26.3564623065
 21
-26.4859274651
  0
LINE
  5
523
100
AcDbEntity
  8
0
100
AcDbLine
 62
7
  6
CONTINUOUS
 10
-26.4130004527
 20
-26.5424656112
 11
-26.3932769685
 21
-26.522742127
  0
LINE
  5
524
100
AcDbEntity
  8
0
100
AcDbLine
 62
7
  6
CONTINUOUS
 10
-25.4044408928
 20
-25.5339060514
 11
-25.4300916305
 21
-25.559556789
  0
LINE
  5
525
100
AcDbEntity
  8
0
100
AcDbLine
 62
7
  6
CONTINUOUS
 10
-25.3735534843
 20
-25.5030186429
 11
-25.3932769685
 21
-25.522742127
  0
LINE
  5
526
100
AcDbEntity
  8
RACCORDO
100
AcDbLine
 62
253
  6
CONTINUOUS
 10
-22.1734772569
 20
-22.7029271847
 11
-22.2781996704
 21
-22.8076495982
  0
LINE
  5
527
100
AcDbEntity
  8
DRAFT
100
AcDbLine
 62
7
  6
CONTINUOUS
 10
27.7078488497
 20
14.228928084
 11
27.7567230315
 21
14.2529938043
  0
LINE
  5
528
100
AcDbEntity
  8
DRAFT
100
AcDbLine
 62
7
  6
CONTINUOUS
 10
27.1427589796
 20
13.6714737733
 11
27.2090882263
 21
13.6989482468
  0
LINE
  5
529
100
AcDbEntity
  8
0
100
AcDbLine
 62
7
  6
CONTINUOUS
 10
-22.6432769685
 20
-9.3981078871
 11
-22.6005374024
 21
-9.3866558549
  0
LINE
  5
52A
100
AcDbEntity
  8
DRAFT
100
AcDbLine
 62
7
  6
CONTINUOUS
 10
-24.9378207038
 20
-1.6672858624
 11
-26.1932769685
 21
-1.7175056075
  0
LINE
  5
52B
100
AcDbEntity
  8
DRAFT
100
AcDbLine
 62
7
  6
CONTINUOUS
 10
24.7512667669
 20
1.2218016083
 11
26.0067230315
 21
1.2720213535
  0
LINE
  5
52C
100
AcDbEntity
  8
DRAFT
100
AcDbLine
 62
7
  6
CONTINUOUS
 10
26.0067230315
 20
-1.722742127
 11
24.8067230315
 21
-1.722742127
  0
LINE
  5
52D
100
AcDbEntity
  8
DRAFT
100
AcDbLine
 62
7
  6
CONTINUOUS
 10
-24.9932769685
 20
-1.722742127
 11
-26.1932769685
 21
-1.722742127
  0
LINE
  5
52E
100
AcDbEntity
  8
DRAFT
100
AcDbLine
 62
7
  6
CONTINUOUS
 10
26.0067230315
 20
-1.7175056075
 11
24.7512667669
 21
-1.6672858624
  0
LINE
  5
52F
100
AcDbEntity
  8
DRAFT
100
AcDbLine
 62
7
  6
CONTINUOUS
 10
-26.1932769685
 20
1.2720213535
 11
-24.9378207038
 21
1.2218016083
  0
LINE
  5
530
100
AcDbEntity
  8
0
100
AcDbLine
 62
7
  6
CONTINUOUS
 10
22.4567230315
 20
-9.3981078871
 11
22.4139834654
 21
-9.3866558549
  0
LINE
  5
531
100
AcDbEntity
  8
DRAFT
100
AcDbLine
 62
7
  6
CONTINUOUS
 10
27.1427589796
 20
-14.1169580273
 11
27.2090882263
 21
-14.1444325009
  0
LINE
  5
532
100
AcDbEntity
  8
DRAFT
100
AcDbLine
 62
7
  6
CONTINUOUS
 10
27.7078488497
 20
-14.674412338
 11
27.7567230315
 21
-14.6984780583
  0
LINE
  5
533
100
AcDbEntity
  8
SMUSSO
100
AcDbLine
 62
7
  6
CONTINUOUS
 10
-22.9615701595
 20
17.9374476623
 11
-22.6602573751
 21
17.6379368155
  0
LINE
  5
534
100
AcDbEntity
  8
DRAFT
100
AcDbLine
 62
7
  6
CONTINUOUS
 10
-24.692380233
 20
21.1170680837
 11
-24.896200945
 21
21.3199500257
  0
LINE
  5
535
100
AcDbEntity
  8
SMUSSO
100
AcDbLine
 62
253
  6
CONTINUOUS
 10
-22.6472404933
 20
17.6769953936
 11
-22.9481257716
 21
17.9777890193
  0
LINE
  5
536
100
AcDbEntity
  8
DRAFT
100
AcDbLine
 62
253
  6
CONTINUOUS
 10
-24.9225245862
 20
21.3067922155
 11
-24.692380233
 21
21.0767267267
  0
LINE
  5
537
100
AcDbEntity
  8
0
100
AcDbLine
 62
7
  6
CONTINUOUS
 10
-24.7932769685
 20
21.027257873
 11
-25.0932769685
 21
21.327257873
  0
LINE
  5
538
100
AcDbEntity
  8
0
100
AcDbLine
 62
7
  6
CONTINUOUS
 10
-23.9830871792
 20
21.1170680837
 11
-23.7932769685
 21
20.927257873
  0
LINE
  5
539
100
AcDbEntity
  8
SMUSSO
100
AcDbLine
 62
7
  6
CONTINUOUS
 10
24.0067230315
 20
-26.136706179
 11
23.875809247
 21
-26.0057923945
  0
LINE
  5
53A
100
AcDbEntity
  8
SMUSSO
100
AcDbLine
 62
7
  6
CONTINUOUS
 10
24.8800343042
 20
-26.136706179
 11
24.7491205197
 21
-26.0057923945
  0
LINE
  5
53B
100
AcDbEntity
  8
DRAFT
100
AcDbLine
 62
7
  6
CONTINUOUS
 10
-22.6781844396
 20
22.3621653441
 11
-22.5734620262
 21
22.2574429306
  0
LINE
  5
53C
100
AcDbEntity
  8
DRAFT
100
AcDbLine
 62
7
  6
CONTINUOUS
 10
-24.860618475
 20
22.0240439499
 11
-24.692380233
 21
21.8450085522
  0
LINE
  5
53D
100
AcDbEntity
  8
DRAFT
100
AcDbLine
 62
7
  6
CONTINUOUS
 10
-14.5449471795
 20
27.5783836912
 11
-14.5690128998
 21
27.627257873
  0
LINE
  5
53E
100
AcDbEntity
  8
DRAFT
100
AcDbLine
 62
7
  6
CONTINUOUS
 10
-13.7475692128
 20
27.009802808
 11
-13.7750436863
 21
27.0761320548
  0
LINE
  5
53F
100
AcDbEntity
  8
0
100
AcDbLine
 62
7
  6
CONTINUOUS
 10
2.8860191799
 20
-25.2703826484
 11
2.8757390872
 21
-25.2121612459
  0
LINE
  5
540
100
AcDbEntity
  8
DRAFT
100
AcDbLine
 62
7
  6
CONTINUOUS
 10
3.2758324793
 20
-25.122742127
 11
3.2774438159
 21
-25.1318679472
  0
LINE
  5
541
100
AcDbEntity
  8
0
100
AcDbLine
 62
253
  6
CONTINUOUS
 10
-0.4743455337
 20
22.2496644481
 11
-0.4745679615
 21
22.25220681
  0
LINE
  5
542
100
AcDbEntity
  8
0
100
AcDbLine
 62
253
  6
CONTINUOUS
 10
-0.4470779263
 20
22.25220681
 11
-0.4484750097
 21
22.2681755461
  0
LINE
  5
543
100
AcDbEntity
  8
0
100
AcDbLine
 62
253
  6
CONTINUOUS
 10
0.7067230315
 20
20.777257873
 11
0.7067230315
 21
18.277257873
  0
LINE
  5
544
100
AcDbEntity
  8
0
100
AcDbLine
 62
7
  6
CONTINUOUS
 10
0.7747840315
 20
-21.722742127
 11
0.7747840315
 21
-18.222742127
  0
LINE
  5
545
100
AcDbEntity
  8
0
100
AcDbLine
 62
7
  6
CONTINUOUS
 10
0.9067230315
 20
20.577257873
 11
0.9067230315
 21
18.477257873
  0
LINE
  5
546
100
AcDbEntity
  8
0
100
AcDbLine
 62
253
  6
CONTINUOUS
 10
-0.4745679615
 20
-22.697691064
 11
-0.4743455337
 21
-22.6951487022
  0
LINE
  5
547
100
AcDbEntity
  8
0
100
AcDbLine
 62
253
  6
CONTINUOUS
 10
-0.4484750097
 20
-22.7136598001
 11
-0.4470779263
 21
-22.697691064
  0
LINE
  5
548
100
AcDbEntity
  8
0
100
AcDbLine
 62
7
  6
CONTINUOUS
 10
-0.5989792135
 20
-22.7300301026
 11
-0.6065104958
 21
-22.772742127
  0
LINE
  5
549
100
AcDbEntity
  8
DRAFT
100
AcDbLine
 62
7
  6
CONTINUOUS
 10
-3.4623864162
 20
-25.122742127
 11
-3.4639977528
 21
-25.1318679472
  0
LINE
  5
54A
100
AcDbEntity
  8
0
100
AcDbLine
 62
7
  6
CONTINUOUS
 10
-3.0725731168
 20
-25.2703826484
 11
-3.0622930242
 21
-25.2121612459
  0
LINE
  5
54B
100
AcDbEntity
  8
DRAFT
100
AcDbLine
 62
7
  6
CONTINUOUS
 10
13.5610152758
 20
27.009802808
 11
13.5884897494
 21
27.0761320548
  0
LINE
  5
54C
100
AcDbEntity
  8
DRAFT
100
AcDbLine
 62
7
  6
CONTINUOUS
 10
14.3583932425
 20
27.5783836912
 11
14.3824589628
 21
27.627257873
  0
LINE
  5
54D
100
AcDbEntity
  8
0
100
AcDbLine
 62
7
  6
CONTINUOUS
 10
-26.1146708875
 20
-30.9110408019
 11
-26.9446752556
 21
-31.74104517
  0
LINE
  5
54E
100
AcDbEntity
  8
SMUSSO
100
AcDbLine
 62
7
  6
CONTINUOUS
 10
-25.8225662904
 20
-30.9017789172
 11
-21.0142401783
 21
-26.0934528051
  0
LINE
  5
54F
100
AcDbEntity
  8
DRAFT
100
AcDbLine
 62
7
  6
CONTINUOUS
 10
-27.8944027867
 20
-14.674412338
 11
-27.9432769685
 21
-14.6984780583
  0
LINE
  5
550
100
AcDbEntity
  8
DRAFT
100
AcDbLine
 62
7
  6
CONTINUOUS
 10
-27.3293129165
 20
-14.1169580273
 11
-27.3956421633
 21
-14.1444325009
  0
LINE
  5
551
100
AcDbEntity
  8
0
100
AcDbLine
 62
7
  6
CONTINUOUS
 10
22.4567230315
 20
8.952623633
 11
22.4139834654
 21
8.9411716008
  0
LINE
  5
552
100
AcDbEntity
  8
DRAFT
100
AcDbLine
 62
7
  6
CONTINUOUS
 10
26.0067230315
 20
1.277257873
 11
24.8067230315
 21
1.277257873
  0
LINE
  5
553
100
AcDbEntity
  8
DRAFT
100
AcDbLine
 62
7
  6
CONTINUOUS
 10
-24.9932769685
 20
1.277257873
 11
-26.1932769685
 21
1.277257873
  0
LINE
  5
554
100
AcDbEntity
  8
RACCORDO
100
AcDbLine
 62
253
  6
CONTINUOUS
 10
-25.7603541624
 20
3.677257873
 11
-24.9973806018
 21
3.677257873
  0
LINE
  5
555
100
AcDbEntity
  8
DRAFT
100
AcDbLine
 62
7
  6
CONTINUOUS
 10
24.6740645381
 20
3.777257873
 11
22.4567230315
 21
3.777257873
  0
LINE
  5
556
100
AcDbEntity
  8
DRAFT
100
AcDbLine
 62
7
  6
CONTINUOUS
 10
-22.6781844396
 20
3.777257873
 11
-24.860618475
 21
3.777257873
  0
LINE
  5
557
100
AcDbEntity
  8
0
100
AcDbLine
 62
7
  6
CONTINUOUS
 10
-26.9432769685
 20
4.177257873
 11
-26.5062811592
 21
4.177257873
  0
LINE
  5
558
100
AcDbEntity
  8
RACCORDO
100
AcDbLine
 62
7
  6
CONTINUOUS
 10
-26.5062811592
 20
4.177257873
 11
-25.9107070622
 21
4.177257873
  0
LINE
  5
559
100
AcDbEntity
  8
0
100
AcDbLine
 62
7
  6
CONTINUOUS
 10
26.7567230315
 20
4.177257873
 11
26.3197272223
 21
4.177257873
  0
LINE
  5
55A
100
AcDbEntity
  8
RACCORDO
100
AcDbLine
 62
7
  6
CONTINUOUS
 10
-25.9107070622
 20
4.177257873
 11
-25.1477335016
 21
4.177257873
  0
LINE
  5
55B
100
AcDbEntity
  8
RACCORDO
100
AcDbLine
 62
7
  6
CONTINUOUS
 10
26.3197272223
 20
4.177257873
 11
25.7241531252
 21
4.177257873
  0
LINE
  5
55C
100
AcDbEntity
  8
RACCORDO
100
AcDbLine
 62
7
  6
CONTINUOUS
 10
25.7241531252
 20
4.177257873
 11
24.9611795646
 21
4.177257873
  0
LINE
  5
55D
100
AcDbEntity
  8
0
100
AcDbLine
 62
7
  6
CONTINUOUS
 10
-22.6432769685
 20
8.952623633
 11
-22.6005374024
 21
8.9411716008
  0
LINE
  5
55E
100
AcDbEntity
  8
DRAFT
100
AcDbLine
 62
7
  6
CONTINUOUS
 10
-27.3293129165
 20
13.6714737733
 11
-27.3956421633
 21
13.6989482468
  0
LINE
  5
55F
100
AcDbEntity
  8
DRAFT
100
AcDbLine
 62
7
  6
CONTINUOUS
 10
-27.8944027867
 20
14.228928084
 11
-27.9432769685
 21
14.2529938043
  0
LINE
  5
560
100
AcDbEntity
  8
DRAFT
100
AcDbLine
 62
7
  6
CONTINUOUS
 10
24.505826296
 20
-21.5625523377
 11
24.709647008
 21
-21.7654342797
  0
LINE
  5
561
100
AcDbEntity
  8
SMUSSO
100
AcDbLine
 62
7
  6
CONTINUOUS
 10
22.757619767
 20
-18.3829319163
 11
22.4567230315
 21
-18.0834210696
  0
LINE
  5
562
100
AcDbEntity
  8
DRAFT
100
AcDbLine
 62
253
  6
CONTINUOUS
 10
24.7359706492
 20
-21.7522764696
 11
24.505826296
 21
-21.5222109807
  0
LINE
  5
563
100
AcDbEntity
  8
SMUSSO
100
AcDbLine
 62
253
  6
CONTINUOUS
 10
22.4567230315
 20
-18.1224796476
 11
22.757619767
 21
-18.4232732733
  0
LINE
  5
564
100
AcDbEntity
  8
SMUSSO
100
AcDbLine
 62
7
  6
CONTINUOUS
 10
-25.0665882412
 20
25.6912219249
 11
-24.9356744567
 21
25.5603081404
  0
LINE
  5
565
100
AcDbEntity
  8
SMUSSO
100
AcDbLine
 62
7
  6
CONTINUOUS
 10
-24.1932769685
 20
25.6912219249
 11
-24.062363184
 21
25.5603081404
  0
LINE
  5
566
100
AcDbEntity
  8
0
100
AcDbLine
 62
7
  6
CONTINUOUS
 10
23.7965332422
 20
-21.5625523377
 11
23.6067230315
 21
-21.372742127
  0
LINE
  5
567
100
AcDbEntity
  8
0
100
AcDbLine
 62
7
  6
CONTINUOUS
 10
24.6067230315
 20
-21.472742127
 11
24.9067230315
 21
-21.772742127
  0
LINE
  5
568
100
AcDbEntity
  8
0
100
AcDbLine
 62
7
  6
CONTINUOUS
 10
23.4169128208
 20
-18.3829319163
 11
23.6067230315
 21
-18.572742127
  0
LINE
  5
569
100
AcDbEntity
  8
DRAFT
100
AcDbLine
 62
7
  6
CONTINUOUS
 10
24.6740645381
 20
-22.4695282039
 11
24.505826296
 21
-22.2904928063
  0
LINE
  5
56A
100
AcDbEntity
  8
DRAFT
100
AcDbLine
 62
7
  6
CONTINUOUS
 10
14.3583932425
 20
-28.0238679452
 11
14.3824589628
 21
-28.072742127
  0
LINE
  5
56B
100
AcDbEntity
  8
DRAFT
100
AcDbLine
 62
7
  6
CONTINUOUS
 10
13.5610152758
 20
-27.4552870621
 11
13.5884897494
 21
-27.5216163088
  0
LINE
  5
56C
100
AcDbEntity
  8
DRAFT
100
AcDbLine
 62
7
  6
CONTINUOUS
 10
-3.4623864162
 20
24.677257873
 11
-3.4639977528
 21
24.6863836932
  0
LINE
  5
56D
100
AcDbEntity
  8
0
100
AcDbLine
 62
7
  6
CONTINUOUS
 10
-3.0725731168
 20
24.8248983944
 11
-3.0622930242
 21
24.7666769918
  0
LINE
  5
56E
100
AcDbEntity
  8
0
100
AcDbLine
 62
7
  6
CONTINUOUS
 10
-0.6065104958
 20
22.327257873
 11
-0.5989792135
 21
22.2845458485
  0
LINE
  5
56F
100
AcDbEntity
  8
DRAFT
100
AcDbLine
 62
7
  6
CONTINUOUS
 10
4.6140123071
 20
22.3079306109
 11
4.6123213908
 21
22.327257873
  0
LINE
  5
570
100
AcDbEntity
  8
DRAFT
100
AcDbLine
 62
7
  6
CONTINUOUS
 10
4.6163022527
 20
22.2817564127
 11
4.6144480923
 21
22.3029495635
  0
LINE
  5
571
100
AcDbEntity
  8
DRAFT
100
AcDbLine
 62
7
  6
CONTINUOUS
 10
4.6184294068
 20
22.2574429306
 11
4.616739156
 21
22.2767625855
  0
LINE
  5
572
100
AcDbEntity
  8
DRAFT
100
AcDbLine
 62
7
  6
CONTINUOUS
 10
4.4067230315
 20
-26.972742127
 11
4.4067230315
 21
-25.9255465959
  0
LINE
  5
573
100
AcDbEntity
  8
RACCORDO
100
AcDbLine
 62
7
  6
CONTINUOUS
 10
4.4067230315
 20
-25.9255465959
 11
4.4067230315
 21
-25.0624512641
  0
LINE
  5
574
100
AcDbEntity
  8
ASSI
100
AcDbLine
 62
7
  6
CONTINUOUS
 10
4.4067230315
 20
-22.772742127
 11
4.4067230315
 21
-22.724744367
  0
LINE
  5
575
100
AcDbEntity
  8
ASSI
100
AcDbLine
 62
7
  6
CONTINUOUS
 10
4.4067230315
 20
22.2792601129
 11
4.4067230315
 21
22.327257873
  0
LINE
  5
576
100
AcDbEntity
  8
RACCORDO
100
AcDbLine
 62
7
  6
CONTINUOUS
 10
4.4067230315
 20
24.6169670101
 11
4.4067230315
 21
25.4800623418
  0
LINE
  5
577
100
AcDbEntity
  8
DRAFT
100
AcDbLine
 62
7
  6
CONTINUOUS
 10
4.4067230315
 20
25.4800623418
 11
4.4067230315
 21
26.527257873
  0
LINE
  5
578
100
AcDbEntity
  8
DRAFT
100
AcDbLine
 62
7
  6
CONTINUOUS
 10
5.6067230315
 20
-26.972742127
 11
5.6067230315
 21
-25.9255465959
  0
LINE
  5
579
100
AcDbEntity
  8
DRAFT
100
AcDbLine
 62
7
  6
CONTINUOUS
 10
5.6067230315
 20
25.4800623418
 11
5.6067230315
 21
26.527257873
  0
LINE
  5
57A
100
AcDbEntity
  8
RACCORDO
100
AcDbLine
 62
7
  6
CONTINUOUS
 10
5.8067230315
 20
26.3708793289
 11
5.8067230315
 21
25.5758649936
  0
LINE
  5
57B
100
AcDbEntity
  8
RACCORDO
100
AcDbLine
 62
7
  6
CONTINUOUS
 10
5.8067230315
 20
26.5275570225
 11
5.8067230315
 21
26.3708793289
  0
LINE
  5
57C
100
AcDbEntity
  8
RACCORDO
100
AcDbLine
 62
7
  6
CONTINUOUS
 10
5.8067230315
 20
-26.816363583
 11
5.8067230315
 21
-26.0213492476
  0
LINE
  5
57D
100
AcDbEntity
  8
RACCORDO
100
AcDbLine
 62
7
  6
CONTINUOUS
 10
5.8067230315
 20
-26.816363583
 11
5.8067230315
 21
-26.9730412766
  0
LINE
  5
57E
100
AcDbEntity
  8
0
100
AcDbLine
 62
7
  6
CONTINUOUS
 10
5.8067230315
 20
-26.9730412766
 11
5.8067230315
 21
-27.072742127
  0
LINE
  5
57F
100
AcDbEntity
  8
0
100
AcDbLine
 62
7
  6
CONTINUOUS
 10
5.8067230315
 20
26.5275570225
 11
5.8067230315
 21
26.627257873
  0
LINE
  5
580
100
AcDbEntity
  8
RACCORDO
100
AcDbLine
 62
7
  6
CONTINUOUS
 10
6.4653370056
 20
-24.848658838
 11
6.4653370056
 21
-25.0267392699
  0
LINE
  5
581
100
AcDbEntity
  8
RACCORDO
100
AcDbLine
 62
7
  6
CONTINUOUS
 10
6.6067230315
 20
24.4031745839
 11
6.6067230315
 21
25.5429674314
  0
LINE
  5
582
100
AcDbEntity
  8
DRAFT
100
AcDbLine
 62
253
  6
CONTINUOUS
 10
6.6224301973
 20
-25.4190935762
 11
6.6224281479
 21
-25.1838348543
  0
LINE
  5
583
100
AcDbEntity
  8
DRAFT
100
AcDbLine
 62
7
  6
CONTINUOUS
 10
6.62243259
 20
-25.9884516855
 11
6.6224301973
 21
-25.4190935762
  0
LINE
  5
584
100
AcDbEntity
  8
DRAFT
100
AcDbLine
 62
7
  6
CONTINUOUS
 10
6.6427589796
 20
-25.2791044647
 11
6.6427589796
 21
-25.2187449841
  0
LINE
  5
585
100
AcDbEntity
  8
DRAFT
100
AcDbLine
 62
7
  6
CONTINUOUS
 10
6.6427589796
 20
24.7732607301
 11
6.6427589796
 21
24.8336202107
  0
LINE
  5
586
100
AcDbEntity
  8
DRAFT
100
AcDbLine
 62
7
  6
CONTINUOUS
 10
6.6741780964
 20
-25.3770343713
 11
6.6741780964
 21
-25.3105235816
  0
LINE
  5
587
100
AcDbEntity
  8
DRAFT
100
AcDbLine
 62
7
  6
CONTINUOUS
 10
6.6741780964
 20
24.8650393275
 11
6.6741780964
 21
24.9315501173
  0
LINE
  5
588
100
AcDbEntity
  8
DRAFT
100
AcDbLine
 62
7
  6
CONTINUOUS
 10
6.9067230315
 20
27.0302015981
 11
6.9067230315
 21
26.6029938043
  0
LINE
  5
589
100
AcDbEntity
  8
DRAFT
100
AcDbLine
 62
7
  6
CONTINUOUS
 10
6.9067230315
 20
-27.0484780583
 11
6.9067230315
 21
-27.4756858522
  0
LINE
  5
58A
100
AcDbEntity
  8
0
100
AcDbLine
 62
253
  6
CONTINUOUS
 10
6.9096667567
 20
-33.822742127
 11
6.9096667567
 21
-27.4756858522
  0
LINE
  5
58B
100
AcDbEntity
  8
0
100
AcDbLine
 62
253
  6
CONTINUOUS
 10
6.9096667567
 20
27.0302015981
 11
6.9096667567
 21
33.377257873
  0
LINE
  5
58C
100
AcDbEntity
  8
DRAFT
100
AcDbLine
 62
7
  6
CONTINUOUS
 10
4.6184294068
 20
-22.7029271847
 11
4.616739156
 21
-22.7222468395
  0
LINE
  5
58D
100
AcDbEntity
  8
DRAFT
100
AcDbLine
 62
7
  6
CONTINUOUS
 10
4.6163022527
 20
-22.7272406668
 11
4.6144480923
 21
-22.7484338176
  0
LINE
  5
58E
100
AcDbEntity
  8
DRAFT
100
AcDbLine
 62
7
  6
CONTINUOUS
 10
4.6140123071
 20
-22.7534148649
 11
4.6123213908
 21
-22.772742127
  0
LINE
  5
58F
100
AcDbEntity
  8
DRAFT
100
AcDbLine
 62
7
  6
CONTINUOUS
 10
12.05940178
 20
27.02376686
 11
11.8048500472
 21
26.07376686
  0
LINE
  5
590
100
AcDbEntity
  8
DRAFT
100
AcDbLine
 62
7
  6
CONTINUOUS
 10
12.0701167739
 20
27.009802808
 11
11.8155650411
 21
26.059802808
  0
LINE
  5
591
100
AcDbEntity
  8
0
100
AcDbLine
 62
7
  6
CONTINUOUS
 10
1.9813572715
 20
-22.772742127
 11
1.9928093037
 21
-22.7300025609
  0
LINE
  5
592
100
AcDbEntity
  8
DRAFT
100
AcDbLine
 62
7
  6
CONTINUOUS
 10
15.9622146139
 20
25.9783836912
 11
15.9824589628
 21
26.027257873
  0
LINE
  5
593
100
AcDbEntity
  8
DRAFT
100
AcDbLine
 62
7
  6
CONTINUOUS
 10
-6.8293129165
 20
-25.2187449841
 11
-6.8089841343
 21
-25.1838324616
  0
LINE
  5
594
100
AcDbEntity
  8
DRAFT
100
AcDbLine
 62
7
  6
CONTINUOUS
 10
-10.6951499528
 20
-26.519251114
 11
-10.6844349589
 21
-26.5052870621
  0
LINE
  5
595
100
AcDbEntity
  8
DRAFT
100
AcDbLine
 62
7
  6
CONTINUOUS
 10
-15.7713186308
 20
-24.1507837893
 11
-15.5932769685
 21
-23.972742127
  0
LINE
  5
596
100
AcDbEntity
  8
DRAFT
100
AcDbLine
 62
7
  6
CONTINUOUS
 10
26.1567230315
 20
15.2529938043
 11
26.1078488497
 21
15.2041196225
  0
LINE
  5
597
100
AcDbEntity
  8
DRAFT
100
AcDbLine
 62
7
  6
CONTINUOUS
 10
-15.5690128998
 20
-26.472742127
 11
-15.520138718
 21
-26.4238679452
  0
LINE
  5
598
100
AcDbEntity
  8
DRAFT
100
AcDbLine
 62
7
  6
CONTINUOUS
 10
26.2067230315
 20
10.3818096058
 11
26.1927589796
 21
10.3710946119
  0
LINE
  5
599
100
AcDbEntity
  8
DRAFT
100
AcDbLine
 62
7
  6
CONTINUOUS
 10
-26.2944027867
 20
-16.2782337094
 11
-26.3432769685
 21
-16.2984780583
  0
LINE
  5
59A
100
AcDbEntity
  8
DRAFT
100
AcDbLine
 62
7
  6
CONTINUOUS
 10
-25.0665882412
 20
-17.5751667856
 11
-25.0177140594
 21
-17.5549224367
  0
LINE
  5
59B
100
AcDbEntity
  8
DRAFT
100
AcDbLine
 62
7
  6
CONTINUOUS
 10
26.2067230315
 20
11.6727061402
 11
27.1567230315
 21
11.927257873
  0
LINE
  5
59C
100
AcDbEntity
  8
DRAFT
100
AcDbLine
 62
7
  6
CONTINUOUS
 10
26.1927589796
 20
11.6834211341
 11
27.1427589796
 21
11.9379728669
  0
LINE
  5
59D
100
AcDbEntity
  8
0
100
AcDbLine
 62
7
  6
CONTINUOUS
 10
24.9816719685
 20
11.9830147411
 11
25.2816719685
 21
12.0633994989
  0
LINE
  5
59E
100
AcDbEntity
  8
0
100
AcDbLine
 62
7
  6
CONTINUOUS
 10
22.4567230315
 20
11.5404914003
 11
22.4140110071
 21
11.532960118
  0
LINE
  5
59F
100
AcDbEntity
  8
DRAFT
100
AcDbLine
 62
7
  6
CONTINUOUS
 10
24.7700673952
 20
6.5240509203
 11
24.7869610744
 21
6.5255289258
  0
LINE
  5
5A0
100
AcDbEntity
  8
DRAFT
100
AcDbLine
 62
7
  6
CONTINUOUS
 10
24.7880679418
 20
6.5256257641
 11
24.8067230315
 21
6.527257873
  0
LINE
  5
5A1
100
AcDbEntity
  8
ASSI
100
AcDbLine
 62
7
  6
CONTINUOUS
 10
-22.5952792085
 20
6.527257873
 11
-22.6432769685
 21
6.527257873
  0
LINE
  5
5A2
100
AcDbEntity
  8
DRAFT
100
AcDbLine
 62
7
  6
CONTINUOUS
 10
24.8067230315
 20
6.527257873
 11
25.3807786002
 21
6.527257873
  0
LINE
  5
5A3
100
AcDbEntity
  8
DRAFT
100
AcDbLine
 62
7
  6
CONTINUOUS
 10
-24.9932769685
 20
6.527257873
 11
-25.5673325371
 21
6.527257873
  0
LINE
  5
5A4
100
AcDbEntity
  8
0
100
AcDbLine
 62
253
  6
CONTINUOUS
 10
-33.6932769685
 20
6.7802015981
 11
-27.3462206936
 21
6.7802015981
  0
LINE
  5
5A5
100
AcDbEntity
  8
0
100
AcDbLine
 62
253
  6
CONTINUOUS
 10
33.5067230315
 20
6.7802015981
 11
27.1596667567
 21
6.7802015981
  0
LINE
  5
5A6
100
AcDbEntity
  8
DRAFT
100
AcDbLine
 62
7
  6
CONTINUOUS
 10
-22.6239497064
 20
6.3199685974
 11
-22.6432769685
 21
6.3216595137
  0
LINE
  5
5A7
100
AcDbEntity
  8
DRAFT
100
AcDbLine
 62
7
  6
CONTINUOUS
 10
-22.5977755082
 20
6.3176786517
 11
-22.6189686591
 21
6.3195328122
  0
LINE
  5
5A8
100
AcDbEntity
  8
DRAFT
100
AcDbLine
 62
7
  6
CONTINUOUS
 10
-22.5734620262
 20
6.3155514977
 11
-22.592781681
 21
6.3172417485
  0
LINE
  5
5A9
100
AcDbEntity
  8
DRAFT
100
AcDbLine
 62
7
  6
CONTINUOUS
 10
-24.9566213321
 20
6.5240509203
 11
-24.9735150114
 21
6.5255289258
  0
LINE
  5
5AA
100
AcDbEntity
  8
DRAFT
100
AcDbLine
 62
7
  6
CONTINUOUS
 10
-24.9746218787
 20
6.5256257641
 11
-24.9932769685
 21
6.527257873
  0
LINE
  5
5AB
100
AcDbEntity
  8
0
100
AcDbLine
 62
7
  6
CONTINUOUS
 10
-22.6005649441
 20
11.532960118
 11
-22.6432769685
 21
11.5404914003
  0
LINE
  5
5AC
100
AcDbEntity
  8
DRAFT
100
AcDbLine
 62
7
  6
CONTINUOUS
 10
-27.3432769685
 20
11.927257873
 11
-26.3932769685
 21
11.6727061402
  0
LINE
  5
5AD
100
AcDbEntity
  8
DRAFT
100
AcDbLine
 62
7
  6
CONTINUOUS
 10
-27.3293129165
 20
11.9379728669
 11
-26.3793129165
 21
11.6834211341
  0
LINE
  5
5AE
100
AcDbEntity
  8
0
100
AcDbLine
 62
7
  6
CONTINUOUS
 10
-25.1682259055
 20
11.9830147411
 11
-25.4682259055
 21
12.0633994989
  0
LINE
  5
5AF
100
AcDbEntity
  8
DRAFT
100
AcDbLine
 62
7
  6
CONTINUOUS
 10
-26.2944027867
 20
15.8327494553
 11
-26.3432769685
 21
15.8529938043
  0
LINE
  5
5B0
100
AcDbEntity
  8
DRAFT
100
AcDbLine
 62
7
  6
CONTINUOUS
 10
-25.0665882412
 20
17.1296825316
 11
-25.0177140594
 21
17.1094381826
  0
LINE
  5
5B1
100
AcDbEntity
  8
0
100
AcDbLine
 62
7
  6
CONTINUOUS
 10
-26.7878505029
 20
21.4649778546
 11
-26.7963948205
 21
21.4692378942
  0
LINE
  5
5B2
100
AcDbEntity
  8
DRAFT
100
AcDbLine
 62
7
  6
CONTINUOUS
 10
-24.896200945
 20
17.7345657203
 11
-24.9225245865
 21
17.7477235306
  0
LINE
  5
5B3
100
AcDbEntity
  8
DRAFT
100
AcDbLine
 62
7
  6
CONTINUOUS
 10
26.2067230315
 20
-10.8272938598
 11
26.1927589796
 21
-10.8165788659
  0
LINE
  5
5B4
100
AcDbEntity
  8
DRAFT
100
AcDbLine
 62
7
  6
CONTINUOUS
 10
-15.7713186308
 20
23.7052995352
 11
-15.5932769685
 21
23.527257873
  0
LINE
  5
5B5
100
AcDbEntity
  8
DRAFT
100
AcDbLine
 62
7
  6
CONTINUOUS
 10
-15.5690128998
 20
26.027257873
 11
-15.520138718
 21
25.9783836912
  0
LINE
  5
5B6
100
AcDbEntity
  8
DRAFT
100
AcDbLine
 62
7
  6
CONTINUOUS
 10
26.1567230315
 20
-15.6984780583
 11
26.1078488497
 21
-15.6496038765
  0
LINE
  5
5B7
100
AcDbEntity
  8
SMUSSO
100
AcDbLine
 62
7
  6
CONTINUOUS
 10
22.4567230315
 20
-17.3347838301
 11
22.757619767
 21
-17.6549914478
  0
LINE
  5
5B8
100
AcDbEntity
  8
DRAFT
100
AcDbLine
 62
7
  6
CONTINUOUS
 10
-10.6951499528
 20
26.07376686
 11
-10.6844349589
 21
26.059802808
  0
LINE
  5
5B9
100
AcDbEntity
  8
DRAFT
100
AcDbLine
 62
7
  6
CONTINUOUS
 10
15.9622146139
 20
-26.4238679452
 11
15.9824589628
 21
-26.472742127
  0
LINE
  5
5BA
100
AcDbEntity
  8
DRAFT
100
AcDbLine
 62
7
  6
CONTINUOUS
 10
11.8048500472
 20
-26.519251114
 11
12.05940178
 21
-27.469251114
  0
LINE
  5
5BB
100
AcDbEntity
  8
DRAFT
100
AcDbLine
 62
7
  6
CONTINUOUS
 10
11.8155650411
 20
-26.5052870621
 11
12.0701167739
 21
-27.4552870621
  0
LINE
  5
5BC
100
AcDbEntity
  8
0
100
AcDbLine
 62
7
  6
CONTINUOUS
 10
1.9813572715
 20
22.327257873
 11
1.9928093037
 21
22.2845183069
  0
LINE
  5
5BD
100
AcDbEntity
  8
0
100
AcDbLine
 62
253
  6
CONTINUOUS
 10
8.323880319
 20
-33.822742127
 11
8.323880319
 21
-28.3242139896
  0
LINE
  5
5BE
100
AcDbEntity
  8
0
100
AcDbLine
 62
253
  6
CONTINUOUS
 10
8.323880319
 20
27.8787297355
 11
8.323880319
 21
33.377257873
  0
LINE
  5
5BF
100
AcDbEntity
  8
0
100
AcDbLine
 62
7
  6
CONTINUOUS
 10
8.5380938814
 20
33.377257873
 11
8.5380938814
 21
27.927257873
  0
LINE
  5
5C0
100
AcDbEntity
  8
0
100
AcDbLine
 62
7
  6
CONTINUOUS
 10
8.5380938814
 20
-28.372742127
 11
8.5380938814
 21
-33.822742127
  0
LINE
  5
5C1
100
AcDbEntity
  8
DRAFT
100
AcDbLine
 62
7
  6
CONTINUOUS
 10
10.2003606938
 20
25.15220681
 11
10.2003606938
 21
24.877257873
  0
LINE
  5
5C2
100
AcDbEntity
  8
DRAFT
100
AcDbLine
 62
7
  6
CONTINUOUS
 10
10.2003606938
 20
-25.597691064
 11
10.2003606938
 21
-25.322742127
  0
LINE
  5
5C3
100
AcDbEntity
  8
DRAFT
100
AcDbLine
 62
7
  6
CONTINUOUS
 10
10.9067230315
 20
27.877257873
 11
10.9067230315
 21
27.6003618247
  0
LINE
  5
5C4
100
AcDbEntity
  8
DRAFT
100
AcDbLine
 62
7
  6
CONTINUOUS
 10
10.9067230315
 20
-28.322742127
 11
10.9067230315
 21
-28.0458460787
  0
LINE
  5
5C5
100
AcDbEntity
  8
DRAFT
100
AcDbLine
 62
7
  6
CONTINUOUS
 10
-10.44059822
 20
-27.469251114
 11
-10.4298832261
 21
-27.4552870621
  0
LINE
  5
5C6
100
AcDbEntity
  8
DRAFT
100
AcDbLine
 62
7
  6
CONTINUOUS
 10
-10.3869146308
 20
-25.322742127
 11
-10.3746960854
 21
-25.3105235816
  0
LINE
  5
5C7
100
AcDbEntity
  8
DRAFT
100
AcDbLine
 62
7
  6
CONTINUOUS
 10
27.7078488497
 20
11.0052797395
 11
27.7298269832
 21
11.027257873
  0
LINE
  5
5C8
100
AcDbEntity
  8
DRAFT
100
AcDbLine
 62
7
  6
CONTINUOUS
 10
-11.0932769685
 20
-28.0458460787
 11
-11.071298835
 21
-28.0238679452
  0
LINE
  5
5C9
100
AcDbEntity
  8
DRAFT
100
AcDbLine
 62
7
  6
CONTINUOUS
 10
27.7567230315
 20
10.777257873
 11
28.0067230315
 21
11.027257873
  0
LINE
  5
5CA
100
AcDbEntity
  8
DRAFT
100
AcDbLine
 62
7
  6
CONTINUOUS
 10
-11.0932769685
 20
-28.322742127
 11
-10.8432769685
 21
-28.072742127
  0
LINE
  5
5CB
100
AcDbEntity
  8
DRAFT
100
AcDbLine
 62
7
  6
CONTINUOUS
 10
27.1567230315
 20
10.127257873
 11
27.1427589796
 21
10.1165428791
  0
LINE
  5
5CC
100
AcDbEntity
  8
0
100
AcDbLine
 62
7
  6
CONTINUOUS
 10
24.9816719685
 20
13.9293839698
 11
25.2816719685
 21
13.9823546585
  0
LINE
  5
5CD
100
AcDbEntity
  8
DRAFT
100
AcDbLine
 62
7
  6
CONTINUOUS
 10
24.7438847978
 20
14.385272039
 11
24.8158488517
 21
14.3979786573
  0
LINE
  5
5CE
100
AcDbEntity
  8
DRAFT
100
AcDbLine
 62
7
  6
CONTINUOUS
 10
-24.9304387347
 20
7.669243707
 11
-25.0024027887
 21
7.6565370886
  0
LINE
  5
5CF
100
AcDbEntity
  8
0
100
AcDbLine
 62
253
  6
CONTINUOUS
 10
22.3816719685
 20
11.3810588308
 11
22.3976407046
 21
11.3824559142
  0
LINE
  5
5D0
100
AcDbEntity
  8
0
100
AcDbLine
 62
253
  6
CONTINUOUS
 10
22.3791296067
 20
11.4083264381
 11
22.3816719685
 21
11.408548866
  0
LINE
  5
5D1
100
AcDbEntity
  8
0
100
AcDbLine
 62
253
  6
CONTINUOUS
 10
-33.6932769685
 20
8.1944151605
 11
-28.1947488311
 21
8.1944151605
  0
LINE
  5
5D2
100
AcDbEntity
  8
0
100
AcDbLine
 62
253
  6
CONTINUOUS
 10
33.5067230315
 20
8.1944151605
 11
28.0081948941
 21
8.1944151605
  0
LINE
  5
5D3
100
AcDbEntity
  8
0
100
AcDbLine
 62
7
  6
CONTINUOUS
 10
28.0567230315
 20
8.4086287229
 11
33.5067230315
 21
8.4086287229
  0
LINE
  5
5D4
100
AcDbEntity
  8
0
100
AcDbLine
 62
7
  6
CONTINUOUS
 10
-28.2432769685
 20
8.4086287229
 11
-33.6932769685
 21
8.4086287229
  0
LINE
  5
5D5
100
AcDbEntity
  8
0
100
AcDbLine
 62
7
  6
CONTINUOUS
 10
32.2614206695
 20
9.9458870231
 11
29.7520253935
 21
9.9458870231
  0
LINE
  5
5D6
100
AcDbEntity
  8
0
100
AcDbLine
 62
7
  6
CONTINUOUS
 10
-29.9385793305
 20
9.9458870231
 11
-32.4479746065
 21
9.9458870231
  0
LINE
  5
5D7
100
AcDbEntity
  8
0
100
AcDbLine
 62
7
  6
CONTINUOUS
 10
31.506437226
 20
10.2458870231
 11
30.5070088371
 21
10.2458870231
  0
LINE
  5
5D8
100
AcDbEntity
  8
0
100
AcDbLine
 62
7
  6
CONTINUOUS
 10
-30.693562774
 20
10.2458870231
 11
-31.6929911629
 21
10.2458870231
  0
LINE
  5
5D9
100
AcDbEntity
  8
DRAFT
100
AcDbLine
 62
7
  6
CONTINUOUS
 10
-28.1932769685
 20
11.027257873
 11
-27.9163809202
 21
11.027257873
  0
LINE
  5
5DA
100
AcDbEntity
  8
DRAFT
100
AcDbLine
 62
7
  6
CONTINUOUS
 10
28.0067230315
 20
11.027257873
 11
27.7298269832
 21
11.027257873
  0
LINE
  5
5DB
100
AcDbEntity
  8
0
100
AcDbLine
 62
253
  6
CONTINUOUS
 10
-22.5841946416
 20
11.3824559142
 11
-22.5682259055
 21
11.3810588308
  0
LINE
  5
5DC
100
AcDbEntity
  8
0
100
AcDbLine
 62
253
  6
CONTINUOUS
 10
-22.5682259055
 20
11.408548866
 11
-22.5656835437
 21
11.4083264381
  0
LINE
  5
5DD
100
AcDbEntity
  8
0
100
AcDbLine
 62
7
  6
CONTINUOUS
 10
-25.1682259055
 20
13.9293839698
 11
-25.4682259055
 21
13.9823546585
  0
LINE
  5
5DE
100
AcDbEntity
  8
DRAFT
100
AcDbLine
 62
7
  6
CONTINUOUS
 10
-24.9304387347
 20
14.385272039
 11
-25.0024027887
 21
14.3979786573
  0
LINE
  5
5DF
100
AcDbEntity
  8
DRAFT
100
AcDbLine
 62
7
  6
CONTINUOUS
 10
24.7438847978
 20
7.669243707
 11
24.8158488517
 21
7.6565370886
  0
LINE
  5
5E0
100
AcDbEntity
  8
DRAFT
100
AcDbLine
 62
7
  6
CONTINUOUS
 10
27.1567230315
 20
-10.572742127
 11
27.1427589796
 21
-10.5620271331
  0
LINE
  5
5E1
100
AcDbEntity
  8
DRAFT
100
AcDbLine
 62
7
  6
CONTINUOUS
 10
-10.3869146308
 20
24.877257873
 11
-10.3746960854
 21
24.8650393275
  0
LINE
  5
5E2
100
AcDbEntity
  8
DRAFT
100
AcDbLine
 62
7
  6
CONTINUOUS
 10
27.7298269832
 20
-11.472742127
 11
27.7078488497
 21
-11.4507639935
  0
LINE
  5
5E3
100
AcDbEntity
  8
DRAFT
100
AcDbLine
 62
7
  6
CONTINUOUS
 10
-11.071298835
 20
27.5783836912
 11
-11.0932769685
 21
27.6003618247
  0
LINE
  5
5E4
100
AcDbEntity
  8
DRAFT
100
AcDbLine
 62
7
  6
CONTINUOUS
 10
28.0067230315
 20
-11.472742127
 11
27.7567230315
 21
-11.222742127
  0
LINE
  5
5E5
100
AcDbEntity
  8
DRAFT
100
AcDbLine
 62
7
  6
CONTINUOUS
 10
-10.8432769685
 20
27.627257873
 11
-11.0932769685
 21
27.877257873
  0
LINE
  5
5E6
100
AcDbEntity
  8
DRAFT
100
AcDbLine
 62
7
  6
CONTINUOUS
 10
-10.44059822
 20
27.02376686
 11
-10.4298832261
 21
27.009802808
  0
LINE
  5
5E7
100
AcDbEntity
  8
DRAFT
100
AcDbLine
 62
7
  6
CONTINUOUS
 10
12.4286813692
 20
23.7052995352
 11
12.4286813692
 21
22.3621653441
  0
LINE
  5
5E8
100
AcDbEntity
  8
DRAFT
100
AcDbLine
 62
7
  6
CONTINUOUS
 10
12.4286813692
 20
-22.8076495982
 11
12.4286813692
 21
-24.1507837893
  0
LINE
  5
5E9
100
AcDbEntity
  8
DRAFT
100
AcDbLine
 62
7
  6
CONTINUOUS
 10
12.6067230315
 20
23.527257873
 11
12.6067230315
 21
22.327257873
  0
LINE
  5
5EA
100
AcDbEntity
  8
DRAFT
100
AcDbLine
 62
7
  6
CONTINUOUS
 10
12.6067230315
 20
-23.972742127
 11
12.6067230315
 21
-22.772742127
  0
LINE
  5
5EB
100
AcDbEntity
  8
DRAFT
100
AcDbLine
 62
7
  6
CONTINUOUS
 10
14.6445044861
 20
25.15220681
 11
14.6445044861
 21
24.877257873
  0
LINE
  5
5EC
100
AcDbEntity
  8
DRAFT
100
AcDbLine
 62
7
  6
CONTINUOUS
 10
14.6445044861
 20
-25.597691064
 11
14.6445044861
 21
-25.322742127
  0
LINE
  5
5ED
100
AcDbEntity
  8
DRAFT
100
AcDbLine
 62
7
  6
CONTINUOUS
 10
15.333584781
 20
26.3106346911
 11
15.333584781
 21
25.9783836912
  0
LINE
  5
5EE
100
AcDbEntity
  8
DRAFT
100
AcDbLine
 62
7
  6
CONTINUOUS
 10
15.333584781
 20
-26.4238679452
 11
15.333584781
 21
-26.7561189452
  0
LINE
  5
5EF
100
AcDbEntity
  8
DRAFT
100
AcDbLine
 62
7
  6
CONTINUOUS
 10
15.3824589628
 20
26.327257873
 11
15.3824589628
 21
26.027257873
  0
LINE
  5
5F0
100
AcDbEntity
  8
DRAFT
100
AcDbLine
 62
7
  6
CONTINUOUS
 10
15.3824589628
 20
-26.472742127
 11
15.3824589628
 21
-26.772742127
  0
LINE
  5
5F1
100
AcDbEntity
  8
DRAFT
100
AcDbLine
 62
7
  6
CONTINUOUS
 10
15.4067230315
 20
23.527257873
 11
15.4067230315
 21
22.327257873
  0
LINE
  5
5F2
100
AcDbEntity
  8
DRAFT
100
AcDbLine
 62
7
  6
CONTINUOUS
 10
15.4067230315
 20
-23.972742127
 11
15.4067230315
 21
-22.772742127
  0
LINE
  5
5F3
100
AcDbEntity
  8
0
100
AcDbLine
 62
7
  6
CONTINUOUS
 10
15.5600600768
 20
-33.822742127
 11
15.5600600768
 21
-26.8025380241
  0
LINE
  5
5F4
100
AcDbEntity
  8
DRAFT
100
AcDbLine
 62
7
  6
CONTINUOUS
 10
15.5847646938
 20
-24.1507837893
 11
15.5847646938
 21
-22.8076495982
  0
LINE
  5
5F5
100
AcDbEntity
  8
DRAFT
100
AcDbLine
 62
7
  6
CONTINUOUS
 10
15.5847646938
 20
22.3621653441
 11
15.5847646938
 21
23.7052995352
  0
LINE
  5
5F6
100
AcDbEntity
  8
DRAFT
100
AcDbLine
 62
7
  6
CONTINUOUS
 10
15.6392679666
 20
24.9315501173
 11
15.6392679666
 21
24.8650393275
  0
LINE
  5
5F7
100
AcDbEntity
  8
DRAFT
100
AcDbLine
 62
7
  6
CONTINUOUS
 10
15.6392679666
 20
-25.3105235816
 11
15.6392679666
 21
-25.3770343713
  0
LINE
  5
5F8
100
AcDbEntity
  8
DRAFT
100
AcDbLine
 62
7
  6
CONTINUOUS
 10
15.6706870835
 20
24.8336202107
 11
15.6706870835
 21
24.7732607301
  0
LINE
  5
5F9
100
AcDbEntity
  8
DRAFT
100
AcDbLine
 62
7
  6
CONTINUOUS
 10
15.6706870835
 20
-25.2187449841
 11
15.6706870835
 21
-25.2791044647
  0
LINE
  5
5FA
100
AcDbEntity
  8
DRAFT
100
AcDbLine
 62
7
  6
CONTINUOUS
 10
15.7055972133
 20
24.9590245908
 11
15.7055972133
 21
24.7383506002
  0
LINE
  5
5FB
100
AcDbEntity
  8
DRAFT
100
AcDbLine
 62
7
  6
CONTINUOUS
 10
15.7055972133
 20
-25.1838348543
 11
15.7055972133
 21
-25.4045088449
  0
LINE
  5
5FC
100
AcDbEntity
  8
DRAFT
100
AcDbLine
 62
7
  6
CONTINUOUS
 10
5.9223223016
 20
-25.972742127
 11
5.9158151894
 21
-25.9884516855
  0
LINE
  5
5FD
100
AcDbEntity
  8
0
100
AcDbLine
 62
7
  6
CONTINUOUS
 10
24.9816719685
 20
11.9830147411
 11
24.9467618387
 21
11.9375189741
  0
LINE
  5
5FE
100
AcDbEntity
  8
RACCORDO
100
AcDbLine
 62
7
  6
CONTINUOUS
 10
-6.6518909426
 20
-25.0267392699
 11
-6.8089841343
 21
-25.1838324616
  0
LINE
  5
5FF
100
AcDbEntity
  8
DRAFT
100
AcDbLine
 62
7
  6
CONTINUOUS
 10
-6.8293129165
 20
-25.2791044647
 11
-6.8607320334
 21
-25.3105235816
  0
LINE
  5
600
100
AcDbEntity
  8
DRAFT
100
AcDbLine
 62
7
  6
CONTINUOUS
 10
-6.8607320334
 20
-25.3770343713
 11
-8.9389847242
 21
-27.4552870621
  0
LINE
  5
601
100
AcDbEntity
  8
DRAFT
100
AcDbLine
 62
7
  6
CONTINUOUS
 10
-6.7944027867
 20
-25.4045088449
 11
-8.9115102506
 21
-27.5216163088
  0
LINE
  5
602
100
AcDbEntity
  8
DRAFT
100
AcDbLine
 62
7
  6
CONTINUOUS
 10
27.1427589796
 20
8.3830419727
 11
25.2869748799
 21
6.527257873
  0
LINE
  5
603
100
AcDbEntity
  8
DRAFT
100
AcDbLine
 62
7
  6
CONTINUOUS
 10
27.2090882263
 20
8.3555674991
 11
25.3807786002
 21
6.527257873
  0
LINE
  5
604
100
AcDbEntity
  8
0
100
AcDbLine
 62
7
  6
CONTINUOUS
 10
0.7747840315
 20
-18.222742127
 11
0.4067230315
 21
-18.590803127
  0
LINE
  5
605
100
AcDbEntity
  8
RACCORDO
100
AcDbLine
 62
7
  6
CONTINUOUS
 10
-6.8089865269
 20
-25.9884516855
 11
-6.6690413746
 21
-25.8485065331
  0
LINE
  5
606
100
AcDbEntity
  8
0
100
AcDbLine
 62
7
  6
CONTINUOUS
 10
28.0567230315
 20
8.2429432979
 11
28.0081948941
 21
8.1944151605
  0
LINE
  5
607
100
AcDbEntity
  8
0
100
AcDbLine
 62
7
  6
CONTINUOUS
 10
-8.5589623934
 20
-28.372742127
 11
-8.510434256
 21
-28.3242139896
  0
LINE
  5
608
100
AcDbEntity
  8
DRAFT
100
AcDbLine
 62
7
  6
CONTINUOUS
 10
-7.8449367764
 20
-27.7310193355
 11
-6.1023691264
 21
-25.9884516855
  0
LINE
  5
609
100
AcDbEntity
  8
DRAFT
100
AcDbLine
 62
7
  6
CONTINUOUS
 10
24.8311601224
 20
4.9450775633
 11
27.41500024
 21
7.5289176809
  0
LINE
  5
60A
100
AcDbEntity
  8
DRAFT
100
AcDbLine
 62
7
  6
CONTINUOUS
 10
27.4638744218
 20
7.5086733319
 11
24.8800343042
 21
4.9248332144
  0
LINE
  5
60B
100
AcDbEntity
  8
RACCORDO
100
AcDbLine
 62
7
  6
CONTINUOUS
 10
-7.0932769685
 20
-27.0484780583
 11
-7.8246924274
 21
-27.7798935173
  0
LINE
  5
60C
100
AcDbEntity
  8
DRAFT
100
AcDbLine
 62
7
  6
CONTINUOUS
 10
-5.9928558476
 20
-25.972742127
 11
-7.0871056711
 21
-27.0669919505
  0
LINE
  5
60D
100
AcDbEntity
  8
0
100
AcDbLine
 62
7
  6
CONTINUOUS
 10
27.1596667567
 20
6.7802015981
 11
26.7567230315
 21
6.377257873
  0
LINE
  5
60E
100
AcDbEntity
  8
RACCORDO
100
AcDbLine
 62
7
  6
CONTINUOUS
 10
-6.7518556122
 20
-27.1313207708
 11
-7.0962206936
 21
-27.4756858522
  0
LINE
  5
60F
100
AcDbEntity
  8
DRAFT
100
AcDbLine
 62
7
  6
CONTINUOUS
 10
26.7567230315
 20
5.1488307482
 11
25.8067230315
 21
4.1988307482
  0
LINE
  5
610
100
AcDbEntity
  8
DRAFT
100
AcDbLine
 62
7
  6
CONTINUOUS
 10
26.7567230315
 20
5.1241455587
 11
25.8241780964
 21
4.1916006236
  0
LINE
  5
611
100
AcDbEntity
  8
DRAFT
100
AcDbLine
 62
7
  6
CONTINUOUS
 10
-15.701498371
 20
-22.772742127
 11
-15.7713186308
 21
-22.8076495982
  0
LINE
  5
612
100
AcDbEntity
  8
DRAFT
100
AcDbLine
 62
7
  6
CONTINUOUS
 10
24.8800343042
 20
-5.3703174684
 11
24.8311601224
 21
-5.3905618174
  0
LINE
  5
613
100
AcDbEntity
  8
0
100
AcDbLine
 62
7
  6
CONTINUOUS
 10
-25.1682259055
 20
8.1251317762
 11
-25.4682259055
 21
8.0721610875
  0
LINE
  5
614
100
AcDbEntity
  8
0
100
AcDbLine
 62
7
  6
CONTINUOUS
 10
-22.6432769685
 20
10.5140243456
 11
-22.6005649441
 21
10.5215556279
  0
LINE
  5
615
100
AcDbEntity
  8
0
100
AcDbLine
 62
253
  6
CONTINUOUS
 10
-22.5656835437
 20
10.6461893078
 11
-22.5682259055
 21
10.64596688
  0
LINE
  5
616
100
AcDbEntity
  8
0
100
AcDbLine
 62
253
  6
CONTINUOUS
 10
-22.5682259055
 20
10.6734569151
 11
-22.5841946416
 21
10.6720598317
  0
LINE
  5
617
100
AcDbEntity
  8
DRAFT
100
AcDbLine
 62
7
  6
CONTINUOUS
 10
-26.6266537866
 20
15.2041196225
 11
-26.2944027867
 21
15.2041196225
  0
LINE
  5
618
100
AcDbEntity
  8
DRAFT
100
AcDbLine
 62
7
  6
CONTINUOUS
 10
26.1078488497
 20
15.2041196225
 11
26.4400998497
 21
15.2041196225
  0
LINE
  5
619
100
AcDbEntity
  8
DRAFT
100
AcDbLine
 62
7
  6
CONTINUOUS
 10
-26.6432769685
 20
15.2529938043
 11
-26.3432769685
 21
15.2529938043
  0
LINE
  5
61A
100
AcDbEntity
  8
DRAFT
100
AcDbLine
 62
7
  6
CONTINUOUS
 10
26.1567230315
 20
15.2529938043
 11
26.4567230315
 21
15.2529938043
  0
LINE
  5
61B
100
AcDbEntity
  8
ASSI
100
AcDbLine
 62
7
  6
CONTINUOUS
 10
-22.5952792085
 20
15.527257873
 11
-22.6432769685
 21
15.527257873
  0
LINE
  5
61C
100
AcDbEntity
  8
DRAFT
100
AcDbLine
 62
7
  6
CONTINUOUS
 10
24.8067230315
 20
15.527257873
 11
25.3807786002
 21
15.527257873
  0
LINE
  5
61D
100
AcDbEntity
  8
DRAFT
100
AcDbLine
 62
7
  6
CONTINUOUS
 10
-24.9932769685
 20
15.527257873
 11
-25.5673325371
 21
15.527257873
  0
LINE
  5
61E
100
AcDbEntity
  8
0
100
AcDbLine
 62
253
  6
CONTINUOUS
 10
22.3816719685
 20
10.64596688
 11
22.3791296067
 21
10.6461893078
  0
LINE
  5
61F
100
AcDbEntity
  8
0
100
AcDbLine
 62
253
  6
CONTINUOUS
 10
22.3976407046
 20
10.6720598317
 11
22.3816719685
 21
10.6734569151
  0
LINE
  5
620
100
AcDbEntity
  8
0
100
AcDbLine
 62
7
  6
CONTINUOUS
 10
-26.1740570802
 20
16.3718138805
 11
-25.0932769685
 21
16.277257873
  0
LINE
  5
621
100
AcDbEntity
  8
0
100
AcDbLine
 62
7
  6
CONTINUOUS
 10
22.4140110071
 20
10.5215556279
 11
22.4567230315
 21
10.5140243456
  0
LINE
  5
622
100
AcDbEntity
  8
0
100
AcDbLine
 62
7
  6
CONTINUOUS
 10
24.9816719685
 20
8.1251317762
 11
25.2816719685
 21
8.0721610875
  0
LINE
  5
623
100
AcDbEntity
  8
DRAFT
100
AcDbLine
 62
7
  6
CONTINUOUS
 10
24.8800343042
 20
4.9248332144
 11
24.8311601224
 21
4.9450775633
  0
LINE
  5
624
100
AcDbEntity
  8
DRAFT
100
AcDbLine
 62
7
  6
CONTINUOUS
 10
-15.701498371
 20
22.327257873
 11
-15.7713186308
 21
22.3621653441
  0
LINE
  5
625
100
AcDbEntity
  8
DRAFT
100
AcDbLine
 62
7
  6
CONTINUOUS
 10
-6.8293129165
 20
24.7732607301
 11
-6.7938398776
 21
24.7383506002
  0
LINE
  5
626
100
AcDbEntity
  8
DRAFT
100
AcDbLine
 62
7
  6
CONTINUOUS
 10
-6.8293129165
 20
24.8336202107
 11
-6.8607320334
 21
24.8650393275
  0
LINE
  5
627
100
AcDbEntity
  8
DRAFT
100
AcDbLine
 62
7
  6
CONTINUOUS
 10
-8.9389847242
 20
27.009802808
 11
-6.8607320334
 21
24.9315501173
  0
LINE
  5
628
100
AcDbEntity
  8
DRAFT
100
AcDbLine
 62
7
  6
CONTINUOUS
 10
-8.9115102506
 20
27.0761320548
 11
-6.7932769685
 21
24.9578987726
  0
LINE
  5
629
100
AcDbEntity
  8
DRAFT
100
AcDbLine
 62
7
  6
CONTINUOUS
 10
25.2869748799
 20
-6.972742127
 11
27.1427589796
 21
-8.8285262267
  0
LINE
  5
62A
100
AcDbEntity
  8
DRAFT
100
AcDbLine
 62
7
  6
CONTINUOUS
 10
25.3807786002
 20
-6.972742127
 11
27.2090882263
 21
-8.8010517532
  0
LINE
  5
62B
100
AcDbEntity
  8
0
100
AcDbLine
 62
7
  6
CONTINUOUS
 10
28.0567230315
 20
-8.688427552
 11
28.0081948941
 21
-8.6398994146
  0
LINE
  5
62C
100
AcDbEntity
  8
0
100
AcDbLine
 62
7
  6
CONTINUOUS
 10
-8.510434256
 20
27.8787297355
 11
-8.5589623934
 21
27.927257873
  0
LINE
  5
62D
100
AcDbEntity
  8
DRAFT
100
AcDbLine
 62
7
  6
CONTINUOUS
 10
27.41500024
 20
-7.9744019349
 11
24.8311601224
 21
-5.3905618174
  0
LINE
  5
62E
100
AcDbEntity
  8
DRAFT
100
AcDbLine
 62
7
  6
CONTINUOUS
 10
-6.1023691264
 20
25.5429674314
 11
-7.8449367764
 21
27.2855350814
  0
LINE
  5
62F
100
AcDbEntity
  8
RACCORDO
100
AcDbLine
 62
7
  6
CONTINUOUS
 10
-7.8246924274
 20
27.3344092632
 11
-7.0932769685
 21
26.6029938043
  0
LINE
  5
630
100
AcDbEntity
  8
DRAFT
100
AcDbLine
 62
7
  6
CONTINUOUS
 10
24.8800343042
 20
-5.3703174684
 11
27.4638744218
 21
-7.954157586
  0
LINE
  5
631
100
AcDbEntity
  8
DRAFT
100
AcDbLine
 62
7
  6
CONTINUOUS
 10
-7.0871056711
 20
26.6215076964
 11
-5.9928558476
 21
25.527257873
  0
LINE
  5
632
100
AcDbEntity
  8
RACCORDO
100
AcDbLine
 62
7
  6
CONTINUOUS
 10
-7.0962206936
 20
27.0302015981
 11
-6.7518556122
 21
26.6858365167
  0
LINE
  5
633
100
AcDbEntity
  8
0
100
AcDbLine
 62
7
  6
CONTINUOUS
 10
26.7567230315
 20
-6.822742127
 11
27.1596667567
 21
-7.2256858522
  0
LINE
  5
634
100
AcDbEntity
  8
0
100
AcDbLine
 62
7
  6
CONTINUOUS
 10
-0.9613379685
 20
21.277257873
 11
-0.5932769685
 21
20.909196873
  0
LINE
  5
635
100
AcDbEntity
  8
DRAFT
100
AcDbLine
 62
7
  6
CONTINUOUS
 10
25.8067230315
 20
-4.6443150023
 11
26.7567230315
 21
-5.5943150023
  0
LINE
  5
636
100
AcDbEntity
  8
DRAFT
100
AcDbLine
 62
7
  6
CONTINUOUS
 10
25.8241780964
 20
-4.6370848777
 11
26.7567230315
 21
-5.5696298127
  0
LINE
  5
637
100
AcDbEntity
  8
0
100
AcDbLine
 62
7
  6
CONTINUOUS
 10
24.9816719685
 20
-12.4284989952
 11
24.9467618387
 21
-12.3830032282
  0
LINE
  5
638
100
AcDbEntity
  8
DRAFT
100
AcDbLine
 62
7
  6
CONTINUOUS
 10
5.9158151894
 20
25.5429674314
 11
5.9223223016
 21
25.527257873
  0
LINE
  5
639
100
AcDbEntity
  8
SMUSSO
100
AcDbLine
 62
7
  6
CONTINUOUS
 10
17.737636816
 20
25.5603081404
 11
17.742872538
 21
25.2550724185
  0
LINE
  5
63A
100
AcDbEntity
  8
DRAFT
100
AcDbLine
 62
7
  6
CONTINUOUS
 10
16.7927589796
 20
-25.6624421103
 11
16.7927589796
 21
-26.136706179
  0
LINE
  5
63B
100
AcDbEntity
  8
SMUSSO
100
AcDbLine
 62
7
  6
CONTINUOUS
 10
16.8067230315
 20
24.6510752756
 11
16.8067230315
 21
25.6912219249
  0
LINE
  5
63C
100
AcDbEntity
  8
DRAFT
100
AcDbLine
 62
7
  6
CONTINUOUS
 10
16.8416331614
 20
-25.1838348543
 11
16.8416331614
 21
-25.5444493977
  0
LINE
  5
63D
100
AcDbEntity
  8
SMUSSO
100
AcDbLine
 62
7
  6
CONTINUOUS
 10
16.928908486
 20
-25.7005566725
 11
16.928908486
 21
-25.0965595296
  0
LINE
  5
63E
100
AcDbEntity
  8
0
100
AcDbLine
 62
253
  6
CONTINUOUS
 10
17.0567230315
 20
-33.822742127
 11
17.0567230315
 21
-26.572742127
  0
LINE
  5
63F
100
AcDbEntity
  8
DRAFT
100
AcDbLine
 62
7
  6
CONTINUOUS
 10
17.6067230315
 20
-26.572742127
 11
17.6067230315
 21
-26.136706179
  0
LINE
  5
640
100
AcDbEntity
  8
DRAFT
100
AcDbLine
 62
7
  6
CONTINUOUS
 10
17.6067230315
 20
25.6912219249
 11
17.6067230315
 21
26.207257873
  0
LINE
  5
641
100
AcDbEntity
  8
SMUSSO
100
AcDbLine
 62
7
  6
CONTINUOUS
 10
17.742872538
 20
-25.7005566725
 11
17.742872538
 21
-25.722742127
  0
LINE
  5
642
100
AcDbEntity
  8
SMUSSO
100
AcDbLine
 62
7
  6
CONTINUOUS
 10
17.742872538
 20
25.2550724185
 11
17.742872538
 21
25.277257873
  0
LINE
  5
643
100
AcDbEntity
  8
RACCORDO
100
AcDbLine
 62
7
  6
CONTINUOUS
 10
17.8567230315
 20
25.4744231561
 11
17.8567230315
 21
25.277257873
  0
LINE
  5
644
100
AcDbEntity
  8
RACCORDO
100
AcDbLine
 62
7
  6
CONTINUOUS
 10
17.8567230315
 20
-25.9360168812
 11
17.8567230315
 21
-25.722742127
  0
LINE
  5
645
100
AcDbEntity
  8
RACCORDO
100
AcDbLine
 62
7
  6
CONTINUOUS
 10
17.8567230315
 20
-26.4546364612
 11
17.8567230315
 21
-25.9360168812
  0
LINE
  5
646
100
AcDbEntity
  8
0
100
AcDbLine
 62
7
  6
CONTINUOUS
 10
17.8567230315
 20
-26.4546364612
 11
17.8567230315
 21
-26.6531879296
  0
LINE
  5
647
100
AcDbEntity
  8
RACCORDO
100
AcDbLine
 62
7
  6
CONTINUOUS
 10
17.8567230315
 20
25.4744231561
 11
17.8567230315
 21
26.0891522072
  0
LINE
  5
648
100
AcDbEntity
  8
0
100
AcDbLine
 62
7
  6
CONTINUOUS
 10
17.8567230315
 20
26.0891522072
 11
17.8567230315
 21
26.2877036756
  0
LINE
  5
649
100
AcDbEntity
  8
DRAFT
100
AcDbLine
 62
7
  6
CONTINUOUS
 10
17.9067230315
 20
-25.722742127
 11
17.9067230315
 21
-25.0267392699
  0
LINE
  5
64A
100
AcDbEntity
  8
DRAFT
100
AcDbLine
 62
7
  6
CONTINUOUS
 10
17.9067230315
 20
24.5812550159
 11
17.9067230315
 21
25.277257873
  0
LINE
  5
64B
100
AcDbEntity
  8
RACCORDO
100
AcDbLine
 62
253
  6
CONTINUOUS
 10
18.3567230315
 20
25.4143547367
 11
18.3567230315
 21
25.277257873
  0
LINE
  5
64C
100
AcDbEntity
  8
RACCORDO
100
AcDbLine
 62
253
  6
CONTINUOUS
 10
18.3567230315
 20
-25.8759484618
 11
18.3567230315
 21
-25.722742127
  0
LINE
  5
64D
100
AcDbEntity
  8
SMUSSO
100
AcDbLine
 62
7
  6
CONTINUOUS
 10
16.9236727641
 20
-26.0057923945
 11
16.928908486
 21
-25.7005566725
  0
LINE
  5
64E
100
AcDbEntity
  8
SMUSSO
100
AcDbLine
 62
7
  6
CONTINUOUS
 10
17.742872538
 20
-25.7005566725
 11
17.737636816
 21
-26.0057923945
  0
LINE
  5
64F
100
AcDbEntity
  8
DRAFT
100
AcDbLine
 62
7
  6
CONTINUOUS
 10
10.2433292891
 20
-27.4552870621
 11
10.4978810219
 21
-26.5052870621
  0
LINE
  5
650
100
AcDbEntity
  8
DRAFT
100
AcDbLine
 62
7
  6
CONTINUOUS
 10
10.254044283
 20
-27.469251114
 11
10.5085960158
 21
-26.519251114
  0
LINE
  5
651
100
AcDbEntity
  8
RACCORDO
100
AcDbLine
 62
253
  6
CONTINUOUS
 10
7.6583828394
 20
-27.7310193355
 11
7.6381384905
 21
-27.7798935173
  0
LINE
  5
652
100
AcDbEntity
  8
RACCORDO
100
AcDbLine
 62
253
  6
CONTINUOUS
 10
8.3653819248
 20
-28.0238679452
 11
8.3451375759
 21
-28.072742127
  0
LINE
  5
653
100
AcDbEntity
  8
DRAFT
100
AcDbLine
 62
7
  6
CONTINUOUS
 10
8.7524307872
 20
-27.4552870621
 11
8.7249563137
 21
-27.5216163088
  0
LINE
  5
654
100
AcDbEntity
  8
0
100
AcDbLine
 62
7
  6
CONTINUOUS
 10
27.3765208148
 20
7.1399797817
 11
28.0081948941
 21
8.1944151605
  0
LINE
  5
655
100
AcDbEntity
  8
0
100
AcDbLine
 62
7
  6
CONTINUOUS
 10
27.1596667567
 20
6.7802015981
 11
27.3765208148
 21
7.1399797817
  0
LINE
  5
656
100
AcDbEntity
  8
DRAFT
100
AcDbLine
 62
7
  6
CONTINUOUS
 10
24.7512667669
 20
1.2218016083
 11
24.8067230315
 21
1.277257873
  0
LINE
  5
657
100
AcDbEntity
  8
0
100
AcDbLine
 62
7
  6
CONTINUOUS
 10
-8.510434256
 20
-28.3242139896
 11
-8.3870877747
 21
-28.2493920071
  0
LINE
  5
658
100
AcDbEntity
  8
0
100
AcDbLine
 62
7
  6
CONTINUOUS
 10
-8.1097849318
 20
-28.0838244186
 11
-7.0962206936
 21
-27.4756858522
  0
LINE
  5
659
100
AcDbEntity
  8
0
100
AcDbLine
 62
7
  6
CONTINUOUS
 10
-8.3870877747
 20
-28.2493920071
 11
-8.1097849318
 21
-28.0838244186
  0
LINE
  5
65A
100
AcDbEntity
  8
DRAFT
100
AcDbLine
 62
7
  6
CONTINUOUS
 10
-15.8258219036
 20
-25.3770343713
 11
-15.8921511503
 21
-25.4045088449
  0
LINE
  5
65B
100
AcDbEntity
  8
RACCORDO
100
AcDbLine
 62
253
  6
CONTINUOUS
 10
27.41500024
 20
-7.9744019349
 11
27.4638744218
 21
-7.954157586
  0
LINE
  5
65C
100
AcDbEntity
  8
DRAFT
100
AcDbLine
 62
7
  6
CONTINUOUS
 10
27.1427589796
 20
-8.8285262267
 11
27.2090882263
 21
-8.8010517532
  0
LINE
  5
65D
100
AcDbEntity
  8
RACCORDO
100
AcDbLine
 62
253
  6
CONTINUOUS
 10
27.7078488497
 20
-8.6814010203
 11
27.7567230315
 21
-8.6611566714
  0
LINE
  5
65E
100
AcDbEntity
  8
0
100
AcDbLine
 62
7
  6
CONTINUOUS
 10
-26.4130004527
 20
-25.5030186429
 11
-26.4792946648
 21
-25.522742127
  0
LINE
  5
65F
100
AcDbEntity
  8
0
100
AcDbLine
 62
7
  6
CONTINUOUS
 10
-26.3821130442
 20
-25.5339060514
 11
-26.801830593
 21
-25.6587780751
  0
LINE
  5
660
100
AcDbEntity
  8
0
100
AcDbLine
 62
7
  6
CONTINUOUS
 10
-25.4044408928
 20
-26.5115782027
 11
-24.984723344
 21
-26.386706179
  0
LINE
  5
661
100
AcDbEntity
  8
0
100
AcDbLine
 62
7
  6
CONTINUOUS
 10
-25.3735534843
 20
-26.5424656112
 11
-25.3072592722
 21
-26.522742127
  0
LINE
  5
662
100
AcDbEntity
  8
0
100
AcDbLine
 62
7
  6
CONTINUOUS
 10
-25.1682259055
 20
10.0715010048
 11
-25.4682259055
 21
9.9911162471
  0
LINE
  5
663
100
AcDbEntity
  8
DRAFT
100
AcDbLine
 62
7
  6
CONTINUOUS
 10
-26.3793129165
 20
10.3710946119
 11
-27.3293129165
 21
10.1165428791
  0
LINE
  5
664
100
AcDbEntity
  8
DRAFT
100
AcDbLine
 62
7
  6
CONTINUOUS
 10
-26.3932769685
 20
10.3818096058
 11
-27.3432769685
 21
10.127257873
  0
LINE
  5
665
100
AcDbEntity
  8
0
100
AcDbLine
 62
7
  6
CONTINUOUS
 10
-22.6432769685
 20
13.1018921129
 11
-22.6005374024
 21
13.1133441451
  0
LINE
  5
666
100
AcDbEntity
  8
DRAFT
100
AcDbLine
 62
7
  6
CONTINUOUS
 10
-22.5734620262
 20
15.7389642483
 11
-22.592781681
 21
15.7372739975
  0
LINE
  5
667
100
AcDbEntity
  8
DRAFT
100
AcDbLine
 62
7
  6
CONTINUOUS
 10
-22.5977755082
 20
15.7368370942
 11
-22.6189686591
 21
15.7349829338
  0
LINE
  5
668
100
AcDbEntity
  8
DRAFT
100
AcDbLine
 62
7
  6
CONTINUOUS
 10
-22.6239497064
 20
15.7345471486
 11
-22.6432769685
 21
15.7328562323
  0
LINE
  5
669
100
AcDbEntity
  8
DRAFT
100
AcDbLine
 62
7
  6
CONTINUOUS
 10
-24.9566213321
 20
15.5304648256
 11
-24.9735150114
 21
15.5289868202
  0
LINE
  5
66A
100
AcDbEntity
  8
DRAFT
100
AcDbLine
 62
7
  6
CONTINUOUS
 10
-24.9746218787
 20
15.5288899818
 11
-24.9932769685
 21
15.527257873
  0
LINE
  5
66B
100
AcDbEntity
  8
SMUSSO
100
AcDbLine
 62
7
  6
CONTINUOUS
 10
-24.692380233
 20
17.2095071937
 11
-22.9781945269
 21
17.2095071937
  0
LINE
  5
66C
100
AcDbEntity
  8
0
100
AcDbLine
 62
7
  6
CONTINUOUS
 10
-22.5932769685
 20
17.777257873
 11
-0.9613379685
 21
17.777257873
  0
LINE
  5
66D
100
AcDbEntity
  8
SMUSSO
100
AcDbLine
 62
7
  6
CONTINUOUS
 10
-22.9615701595
 20
17.9374476623
 11
-23.6034667578
 21
17.9374476623
  0
LINE
  5
66E
100
AcDbEntity
  8
0
100
AcDbLine
 62
7
  6
CONTINUOUS
 10
-23.6034667578
 20
17.9374476623
 11
-23.9830871792
 21
17.9374476623
  0
LINE
  5
66F
100
AcDbEntity
  8
SMUSSO
100
AcDbLine
 62
7
  6
CONTINUOUS
 10
-23.9830871792
 20
17.9374476623
 11
-24.692380233
 21
17.9374476623
  0
LINE
  5
670
100
AcDbEntity
  8
SMUSSO
100
AcDbLine
 62
253
  6
CONTINUOUS
 10
-22.9481257716
 20
17.9777890193
 11
-23.6438081148
 21
17.9777890193
  0
LINE
  5
671
100
AcDbEntity
  8
SMUSSO
100
AcDbLine
 62
253
  6
CONTINUOUS
 10
-23.9427458222
 20
17.9777890193
 11
-24.692380233
 21
17.9777890193
  0
LINE
  5
672
100
AcDbEntity
  8
0
100
AcDbLine
 62
7
  6
CONTINUOUS
 10
-24.7932769685
 20
18.027257873
 11
-23.8932769685
 21
18.027257873
  0
LINE
  5
673
100
AcDbEntity
  8
0
100
AcDbLine
 62
7
  6
CONTINUOUS
 10
-23.6932769685
 20
18.027257873
 11
-22.5932769685
 21
18.027257873
  0
LINE
  5
674
100
AcDbEntity
  8
0
100
AcDbLine
 62
7
  6
CONTINUOUS
 10
-0.5932769685
 20
18.277257873
 11
0.7067230315
 21
18.277257873
  0
LINE
  5
675
100
AcDbEntity
  8
0
100
AcDbLine
 62
7
  6
CONTINUOUS
 10
-25.8932769685
 20
18.927257873
 11
-27.0465042721
 21
18.927257873
  0
LINE
  5
676
100
AcDbEntity
  8
DRAFT
100
AcDbLine
 62
7
  6
CONTINUOUS
 10
24.7700673952
 20
15.5304648256
 11
24.7869610744
 21
15.5289868202
  0
LINE
  5
677
100
AcDbEntity
  8
DRAFT
100
AcDbLine
 62
7
  6
CONTINUOUS
 10
24.7880679418
 20
15.5288899818
 11
24.8067230315
 21
15.527257873
  0
LINE
  5
678
100
AcDbEntity
  8
0
100
AcDbLine
 62
7
  6
CONTINUOUS
 10
24.9816719685
 20
10.0715010048
 11
25.2816719685
 21
9.9911162471
  0
LINE
  5
679
100
AcDbEntity
  8
DRAFT
100
AcDbLine
 62
7
  6
CONTINUOUS
 10
27.1427589796
 20
10.1165428791
 11
26.1927589796
 21
10.3710946119
  0
LINE
  5
67A
100
AcDbEntity
  8
DRAFT
100
AcDbLine
 62
7
  6
CONTINUOUS
 10
27.1567230315
 20
10.127257873
 11
26.2067230315
 21
10.3818096058
  0
LINE
  5
67B
100
AcDbEntity
  8
0
100
AcDbLine
 62
7
  6
CONTINUOUS
 10
22.4567230315
 20
13.1018921129
 11
22.4139834654
 21
13.1133441451
  0
LINE
  5
67C
100
AcDbEntity
  8
DRAFT
100
AcDbLine
 62
7
  6
CONTINUOUS
 10
-15.8258219036
 20
24.9315501173
 11
-15.8921511503
 21
24.9590245908
  0
LINE
  5
67D
100
AcDbEntity
  8
RACCORDO
100
AcDbLine
 62
253
  6
CONTINUOUS
 10
27.41500024
 20
7.5289176809
 11
27.4638744218
 21
7.5086733319
  0
LINE
  5
67E
100
AcDbEntity
  8
DRAFT
100
AcDbLine
 62
7
  6
CONTINUOUS
 10
27.1427589796
 20
8.3830419727
 11
27.2090882263
 21
8.3555674991
  0
LINE
  5
67F
100
AcDbEntity
  8
RACCORDO
100
AcDbLine
 62
253
  6
CONTINUOUS
 10
27.7078488497
 20
8.2359167663
 11
27.7567230315
 21
8.2156724173
  0
LINE
  5
680
100
AcDbEntity
  8
0
100
AcDbLine
 62
7
  6
CONTINUOUS
 10
-8.2533061859
 20
27.7237781726
 11
-8.1097854537
 21
27.6383404776
  0
LINE
  5
681
100
AcDbEntity
  8
0
100
AcDbLine
 62
7
  6
CONTINUOUS
 10
-8.1097854537
 20
27.6383404776
 11
-7.0962206936
 21
27.0302015981
  0
LINE
  5
682
100
AcDbEntity
  8
0
100
AcDbLine
 62
7
  6
CONTINUOUS
 10
-8.510434256
 20
27.8787297355
 11
-8.2533061859
 21
27.7237781726
  0
LINE
  5
683
100
AcDbEntity
  8
DRAFT
100
AcDbLine
 62
7
  6
CONTINUOUS
 10
24.7512667669
 20
-1.6672858624
 11
24.8067230315
 21
-1.722742127
  0
LINE
  5
684
100
AcDbEntity
  8
0
100
AcDbLine
 62
7
  6
CONTINUOUS
 10
28.0081948941
 20
-8.6398994146
 11
27.9333729116
 21
-8.5165529333
  0
LINE
  5
685
100
AcDbEntity
  8
0
100
AcDbLine
 62
7
  6
CONTINUOUS
 10
27.7678053231
 20
-8.2392500903
 11
27.1596667567
 21
-7.2256858522
  0
LINE
  5
686
100
AcDbEntity
  8
0
100
AcDbLine
 62
7
  6
CONTINUOUS
 10
27.9333729116
 20
-8.5165529333
 11
27.7678053231
 21
-8.2392500903
  0
LINE
  5
687
100
AcDbEntity
  8
RACCORDO
100
AcDbLine
 62
253
  6
CONTINUOUS
 10
7.6583828394
 20
27.2855350814
 11
7.6381384905
 21
27.3344092632
  0
LINE
  5
688
100
AcDbEntity
  8
RACCORDO
100
AcDbLine
 62
253
  6
CONTINUOUS
 10
8.3653819248
 20
27.5783836912
 11
8.3451375759
 21
27.627257873
  0
LINE
  5
689
100
AcDbEntity
  8
DRAFT
100
AcDbLine
 62
7
  6
CONTINUOUS
 10
8.7524307872
 20
27.009802808
 11
8.7249563137
 21
27.0761320548
  0
LINE
  5
68A
100
AcDbEntity
  8
DRAFT
100
AcDbLine
 62
7
  6
CONTINUOUS
 10
10.4978810219
 20
26.059802808
 11
10.2433292891
 21
27.009802808
  0
LINE
  5
68B
100
AcDbEntity
  8
DRAFT
100
AcDbLine
 62
7
  6
CONTINUOUS
 10
10.5085960158
 20
26.07376686
 11
10.254044283
 21
27.02376686
  0
LINE
  5
68C
100
AcDbEntity
  8
SMUSSO
100
AcDbLine
 62
7
  6
CONTINUOUS
 10
23.875809247
 20
-26.0057923945
 11
23.8705735251
 21
-25.7005566725
  0
LINE
  5
68D
100
AcDbEntity
  8
RACCORDO
100
AcDbLine
 62
253
  6
CONTINUOUS
 10
20.1067230315
 20
25.4143547367
 11
20.1067230315
 21
25.277257873
  0
LINE
  5
68E
100
AcDbEntity
  8
RACCORDO
100
AcDbLine
 62
7
  6
CONTINUOUS
 10
20.6067230315
 20
26.0891522072
 11
20.6067230315
 21
25.4744231561
  0
LINE
  5
68F
100
AcDbEntity
  8
RACCORDO
100
AcDbLine
 62
7
  6
CONTINUOUS
 10
20.6067230315
 20
25.4744231561
 11
20.6067230315
 21
25.002406951
  0
LINE
  5
690
100
AcDbEntity
  8
0
100
AcDbLine
 62
7
  6
CONTINUOUS
 10
20.6067230315
 20
26.0891522072
 11
20.6067230315
 21
26.2877036756
  0
LINE
  5
691
100
AcDbEntity
  8
RACCORDO
100
AcDbLine
 62
253
  6
CONTINUOUS
 10
22.0567230315
 20
22.2574429306
 11
22.0567230315
 21
22.3621653441
  0
LINE
  5
692
100
AcDbEntity
  8
RACCORDO
100
AcDbLine
 62
253
  6
CONTINUOUS
 10
22.2567230315
 20
-25.8759484618
 11
22.2567230315
 21
-25.722742127
  0
LINE
  5
693
100
AcDbEntity
  8
0
100
AcDbLine
 62
7
  6
CONTINUOUS
 10
22.3791296067
 20
-11.8538106922
 11
22.3791296067
 21
-11.0916735619
  0
LINE
  5
694
100
AcDbEntity
  8
0
100
AcDbLine
 62
7
  6
CONTINUOUS
 10
22.3791296067
 20
10.6461893078
 11
22.3791296067
 21
11.4083264381
  0
LINE
  5
695
100
AcDbEntity
  8
0
100
AcDbLine
 62
7
  6
CONTINUOUS
 10
22.3816719685
 20
11.408548866
 11
22.3816719685
 21
11.3810588308
  0
LINE
  5
696
100
AcDbEntity
  8
0
100
AcDbLine
 62
7
  6
CONTINUOUS
 10
22.3816719685
 20
10.6734569151
 11
22.3816719685
 21
10.64596688
  0
LINE
  5
697
100
AcDbEntity
  8
0
100
AcDbLine
 62
7
  6
CONTINUOUS
 10
22.3816719685
 20
-11.091451134
 11
22.3816719685
 21
-11.1189411692
  0
LINE
  5
698
100
AcDbEntity
  8
0
100
AcDbLine
 62
7
  6
CONTINUOUS
 10
22.3816719685
 20
-11.8265430849
 11
22.3816719685
 21
-11.85403312
  0
LINE
  5
699
100
AcDbEntity
  8
0
100
AcDbLine
 62
7
  6
CONTINUOUS
 10
22.3976407046
 20
13.6161888888
 11
22.3976407046
 21
11.3824559142
  0
LINE
  5
69A
100
AcDbEntity
  8
0
100
AcDbLine
 62
7
  6
CONTINUOUS
 10
22.3976407046
 20
10.6720598317
 11
22.3976407046
 21
8.4383268571
  0
LINE
  5
69B
100
AcDbEntity
  8
0
100
AcDbLine
 62
7
  6
CONTINUOUS
 10
22.3976407046
 20
-8.8838111112
 11
22.3976407046
 21
-11.1175440858
  0
LINE
  5
69C
100
AcDbEntity
  8
0
100
AcDbLine
 62
7
  6
CONTINUOUS
 10
22.3976407046
 20
-11.8279401683
 11
22.3976407046
 21
-14.0616731429
  0
LINE
  5
69D
100
AcDbEntity
  8
0
100
AcDbLine
 62
7
  6
CONTINUOUS
 10
22.4067230315
 20
-21.722742127
 11
22.4067230315
 21
-18.222742127
  0
LINE
  5
69E
100
AcDbEntity
  8
RACCORDO
100
AcDbLine
 62
7
  6
CONTINUOUS
 10
22.4567230315
 20
21.9621501128
 11
22.4567230315
 21
3.777257873
  0
LINE
  5
69F
100
AcDbEntity
  8
ASSI
100
AcDbLine
 62
7
  6
CONTINUOUS
 10
22.4567230315
 20
3.777257873
 11
22.4567230315
 21
-4.222742127
  0
LINE
  5
6A0
100
AcDbEntity
  8
SMUSSO
100
AcDbLine
 62
7
  6
CONTINUOUS
 10
22.4567230315
 20
-21.4701901241
 11
22.4567230315
 21
-22.8076495982
  0
LINE
  5
6A1
100
AcDbEntity
  8
SMUSSO
100
AcDbLine
 62
7
  6
CONTINUOUS
 10
22.4567230315
 20
-18.472742127
 11
22.4567230315
 21
-4.222742127
  0
LINE
  5
6A2
100
AcDbEntity
  8
RACCORDO
100
AcDbLine
 62
7
  6
CONTINUOUS
 10
22.7567230315
 20
-25.9360168812
 11
22.7567230315
 21
-25.722742127
  0
LINE
  5
6A3
100
AcDbEntity
  8
RACCORDO
100
AcDbLine
 62
7
  6
CONTINUOUS
 10
22.7567230315
 20
-25.9360168812
 11
22.7567230315
 21
-26.4546364612
  0
LINE
  5
6A4
100
AcDbEntity
  8
0
100
AcDbLine
 62
7
  6
CONTINUOUS
 10
22.7567230315
 20
-26.4546364612
 11
22.7567230315
 21
-26.6531879296
  0
LINE
  5
6A5
100
AcDbEntity
  8
SMUSSO
100
AcDbLine
 62
7
  6
CONTINUOUS
 10
22.757619767
 20
-22.2904928063
 11
22.7575938623
 21
-21.472742127
  0
LINE
  5
6A6
100
AcDbEntity
  8
DRAFT
100
AcDbLine
 62
7
  6
CONTINUOUS
 10
22.8067230315
 20
-25.722742127
 11
22.8067230315
 21
-25.122742127
  0
LINE
  5
6A7
100
AcDbEntity
  8
0
100
AcDbLine
 62
253
  6
CONTINUOUS
 10
23.5567230315
 20
-33.822742127
 11
23.5567230315
 21
-26.572742127
  0
LINE
  5
6A8
100
AcDbEntity
  8
SMUSSO
100
AcDbLine
 62
7
  6
CONTINUOUS
 10
22.7575879989
 20
-18.472742127
 11
22.757619767
 21
-17.6549914478
  0
LINE
  5
6A9
100
AcDbEntity
  8
0
100
AcDbLine
 62
7
  6
CONTINUOUS
 10
22.3976407046
 20
13.6161888888
 11
22.4567230315
 21
13.9814302592
  0
LINE
  5
6AA
100
AcDbEntity
  8
0
100
AcDbLine
 62
7
  6
CONTINUOUS
 10
22.3976407046
 20
-8.8838111112
 11
22.4567230315
 21
-8.5185697408
  0
LINE
  5
6AB
100
AcDbEntity
  8
DRAFT
100
AcDbLine
 62
7
  6
CONTINUOUS
 10
26.4567230315
 20
15.2529938043
 11
26.4400998497
 21
15.2041196225
  0
LINE
  5
6AC
100
AcDbEntity
  8
0
100
AcDbLine
 62
7
  6
CONTINUOUS
 10
24.9816719685
 20
8.1251317762
 11
24.8158488517
 21
7.6565370886
  0
LINE
  5
6AD
100
AcDbEntity
  8
DRAFT
100
AcDbLine
 62
7
  6
CONTINUOUS
 10
-15.5690128998
 20
-26.772742127
 11
-15.520138718
 21
-26.7561189452
  0
LINE
  5
6AE
100
AcDbEntity
  8
0
100
AcDbLine
 62
7
  6
CONTINUOUS
 10
2.4956540474
 20
22.2681755461
 11
2.8608954178
 21
22.327257873
  0
LINE
  5
6AF
100
AcDbEntity
  8
0
100
AcDbLine
 62
7
  6
CONTINUOUS
 10
-27.0465042721
 20
20.127257873
 11
-25.8932769685
 21
20.127257873
  0
LINE
  5
6B0
100
AcDbEntity
  8
0
100
AcDbLine
 62
7
  6
CONTINUOUS
 10
-0.5932769685
 20
20.777257873
 11
0.7067230315
 21
20.777257873
  0
LINE
  5
6B1
100
AcDbEntity
  8
0
100
AcDbLine
 62
7
  6
CONTINUOUS
 10
-24.7932769685
 20
21.027257873
 11
-23.8932769685
 21
21.027257873
  0
LINE
  5
6B2
100
AcDbEntity
  8
0
100
AcDbLine
 62
7
  6
CONTINUOUS
 10
-23.6932769685
 20
21.027257873
 11
-22.5932769685
 21
21.027257873
  0
LINE
  5
6B3
100
AcDbEntity
  8
SMUSSO
100
AcDbLine
 62
253
  6
CONTINUOUS
 10
-22.9481257716
 20
21.0767267267
 11
-23.6438081148
 21
21.0767267267
  0
LINE
  5
6B4
100
AcDbEntity
  8
SMUSSO
100
AcDbLine
 62
253
  6
CONTINUOUS
 10
-23.9427458222
 20
21.0767267267
 11
-24.692380233
 21
21.0767267267
  0
LINE
  5
6B5
100
AcDbEntity
  8
SMUSSO
100
AcDbLine
 62
7
  6
CONTINUOUS
 10
-22.9615701595
 20
21.1170680837
 11
-23.6034667578
 21
21.1170680837
  0
LINE
  5
6B6
100
AcDbEntity
  8
0
100
AcDbLine
 62
7
  6
CONTINUOUS
 10
-23.6034667578
 20
21.1170680837
 11
-23.9830871792
 21
21.1170680837
  0
LINE
  5
6B7
100
AcDbEntity
  8
SMUSSO
100
AcDbLine
 62
7
  6
CONTINUOUS
 10
-23.9830871792
 20
21.1170680837
 11
-24.692380233
 21
21.1170680837
  0
LINE
  5
6B8
100
AcDbEntity
  8
0
100
AcDbLine
 62
7
  6
CONTINUOUS
 10
-22.5932769685
 20
21.277257873
 11
-0.9613379685
 21
21.277257873
  0
LINE
  5
6B9
100
AcDbEntity
  8
SMUSSO
100
AcDbLine
 62
7
  6
CONTINUOUS
 10
-24.692380233
 20
21.8450085522
 11
-22.9781945269
 21
21.8450085522
  0
LINE
  5
6BA
100
AcDbEntity
  8
0
100
AcDbLine
 62
7
  6
CONTINUOUS
 10
0.2877915967
 20
22.2496644481
 11
-0.4743455337
 21
22.2496644481
  0
LINE
  5
6BB
100
AcDbEntity
  8
0
100
AcDbLine
 62
7
  6
CONTINUOUS
 10
-0.4745679615
 20
22.25220681
 11
-0.4470779263
 21
22.25220681
  0
LINE
  5
6BC
100
AcDbEntity
  8
0
100
AcDbLine
 62
7
  6
CONTINUOUS
 10
0.2605239894
 20
22.25220681
 11
0.2880140245
 21
22.25220681
  0
LINE
  5
6BD
100
AcDbEntity
  8
DRAFT
100
AcDbLine
 62
7
  6
CONTINUOUS
 10
-22.5734620262
 20
22.2574429306
 11
-4.8049833438
 21
22.2574429306
  0
LINE
  5
6BE
100
AcDbEntity
  8
RACCORDO
100
AcDbLine
 62
7
  6
CONTINUOUS
 10
22.0567230315
 20
22.2574429306
 11
4.6184294068
 21
22.2574429306
  0
LINE
  5
6BF
100
AcDbEntity
  8
0
100
AcDbLine
 62
7
  6
CONTINUOUS
 10
-2.6822079843
 20
22.2681755461
 11
-0.4484750097
 21
22.2681755461
  0
LINE
  5
6C0
100
AcDbEntity
  8
0
100
AcDbLine
 62
7
  6
CONTINUOUS
 10
0.2619210727
 20
22.2681755461
 11
2.4956540474
 21
22.2681755461
  0
LINE
  5
6C1
100
AcDbEntity
  8
DRAFT
100
AcDbLine
 62
7
  6
CONTINUOUS
 10
15.5149444341
 20
22.327257873
 11
12.498501629
 21
22.327257873
  0
LINE
  5
6C2
100
AcDbEntity
  8
0
100
AcDbLine
 62
7
  6
CONTINUOUS
 10
-4.7988753278
 20
22.327257873
 11
-3.0474493547
 21
22.327257873
  0
LINE
  5
6C3
100
AcDbEntity
  8
0
100
AcDbLine
 62
7
  6
CONTINUOUS
 10
-2.1679112084
 20
22.327257873
 11
-0.6065104958
 21
22.327257873
  0
LINE
  5
6C4
100
AcDbEntity
  8
0
100
AcDbLine
 62
7
  6
CONTINUOUS
 10
0.4199565589
 20
22.327257873
 11
1.9813572715
 21
22.327257873
  0
LINE
  5
6C5
100
AcDbEntity
  8
0
100
AcDbLine
 62
7
  6
CONTINUOUS
 10
2.8608954178
 20
22.327257873
 11
4.6123213908
 21
22.327257873
  0
LINE
  5
6C6
100
AcDbEntity
  8
DRAFT
100
AcDbLine
 62
7
  6
CONTINUOUS
 10
-12.6850555659
 20
22.327257873
 11
-15.701498371
 21
22.327257873
  0
LINE
  5
6C7
100
AcDbEntity
  8
DRAFT
100
AcDbLine
 62
7
  6
CONTINUOUS
 10
-22.6781844396
 20
22.3621653441
 11
-15.7713186308
 21
22.3621653441
  0
LINE
  5
6C8
100
AcDbEntity
  8
DRAFT
100
AcDbLine
 62
7
  6
CONTINUOUS
 10
-12.6152353062
 20
22.3621653441
 11
12.4286813692
 21
22.3621653441
  0
LINE
  5
6C9
100
AcDbEntity
  8
RACCORDO
100
AcDbLine
 62
7
  6
CONTINUOUS
 10
15.5847646938
 20
22.3621653441
 11
22.0567230315
 21
22.3621653441
  0
LINE
  5
6CA
100
AcDbEntity
  8
0
100
AcDbLine
 62
7
  6
CONTINUOUS
 10
-31.6929911629
 20
23.3086287229
 11
-30.693562774
 21
23.3086287229
  0
LINE
  5
6CB
100
AcDbEntity
  8
0
100
AcDbLine
 62
7
  6
CONTINUOUS
 10
30.5070088371
 20
23.3086287229
 11
31.506437226
 21
23.3086287229
  0
LINE
  5
6CC
100
AcDbEntity
  8
DRAFT
100
AcDbLine
 62
7
  6
CONTINUOUS
 10
-15.5932769685
 20
23.527257873
 11
-12.7932769685
 21
23.527257873
  0
LINE
  5
6CD
100
AcDbEntity
  8
DRAFT
100
AcDbLine
 62
7
  6
CONTINUOUS
 10
15.4067230315
 20
23.527257873
 11
12.6067230315
 21
23.527257873
  0
LINE
  5
6CE
100
AcDbEntity
  8
0
100
AcDbLine
 62
7
  6
CONTINUOUS
 10
32.2614206695
 20
23.6086287229
 11
29.7520253935
 21
23.6086287229
  0
LINE
  5
6CF
100
AcDbEntity
  8
0
100
AcDbLine
 62
7
  6
CONTINUOUS
 10
-29.9385793305
 20
23.6086287229
 11
-32.4479746065
 21
23.6086287229
  0
LINE
  5
6D0
100
AcDbEntity
  8
0
100
AcDbLine
 62
7
  6
CONTINUOUS
 10
-2.6822079843
 20
22.2681755461
 11
-3.0474493547
 21
22.327257873
  0
LINE
  5
6D1
100
AcDbEntity
  8
DRAFT
100
AcDbLine
 62
7
  6
CONTINUOUS
 10
-15.5690128998
 20
26.327257873
 11
-15.520138718
 21
26.3106346911
  0
LINE
  5
6D2
100
AcDbEntity
  8
0
100
AcDbLine
 62
7
  6
CONTINUOUS
 10
24.9816719685
 20
-8.5706160302
 11
24.8158488517
 21
-8.1020213427
  0
LINE
  5
6D3
100
AcDbEntity
  8
DRAFT
100
AcDbLine
 62
7
  6
CONTINUOUS
 10
26.4567230315
 20
-15.6984780583
 11
26.4400998497
 21
-15.6496038765
  0
LINE
  5
6D4
100
AcDbEntity
  8
0
100
AcDbLine
 62
7
  6
CONTINUOUS
 10
22.3976407046
 20
-14.0616731429
 11
22.4567230315
 21
-14.4269145133
  0
LINE
  5
6D5
100
AcDbEntity
  8
0
100
AcDbLine
 62
7
  6
CONTINUOUS
 10
22.3976407046
 20
8.4383268571
 11
22.4567230315
 21
8.0730854867
  0
LINE
  5
6D6
100
AcDbEntity
  8
DRAFT
100
AcDbLine
 62
7
  6
CONTINUOUS
 10
24.709647008
 20
-18.1800499743
 11
24.6740645381
 21
-17.4759560501
  0
LINE
  5
6D7
100
AcDbEntity
  8
SMUSSO
100
AcDbLine
 62
7
  6
CONTINUOUS
 10
24.7438847978
 20
-25.7005566725
 11
24.7491205197
 21
-26.0057923945
  0
LINE
  5
6D8
100
AcDbEntity
  8
SMUSSO
100
AcDbLine
 62
7
  6
CONTINUOUS
 10
23.8705735251
 20
-25.7005566725
 11
23.8705735251
 21
-25.722742127
  0
LINE
  5
6D9
100
AcDbEntity
  8
DRAFT
100
AcDbLine
 62
7
  6
CONTINUOUS
 10
24.0067230315
 20
-26.136706179
 11
24.0067230315
 21
-26.572742127
  0
LINE
  5
6DA
100
AcDbEntity
  8
SMUSSO
100
AcDbLine
 62
7
  6
CONTINUOUS
 10
24.505826296
 20
-17.6549914478
 11
24.5058580641
 21
-18.472742127
  0
LINE
  5
6DB
100
AcDbEntity
  8
0
100
AcDbLine
 62
7
  6
CONTINUOUS
 10
24.6067230315
 20
-21.472742127
 11
24.6067230315
 21
-18.472742127
  0
LINE
  5
6DC
100
AcDbEntity
  8
DRAFT
100
AcDbLine
 62
7
  6
CONTINUOUS
 10
24.6740645381
 20
20.8886931288
 11
24.6740645381
 21
3.777257873
  0
LINE
  5
6DD
100
AcDbEntity
  8
DRAFT
100
AcDbLine
 62
7
  6
CONTINUOUS
 10
24.6740645381
 20
-4.222742127
 11
24.6740645381
 21
-17.4759560501
  0
LINE
  5
6DE
100
AcDbEntity
  8
DRAFT
100
AcDbLine
 62
7
  6
CONTINUOUS
 10
24.6740645381
 20
-22.4695282039
 11
24.6740645381
 21
-25.122742127
  0
LINE
  5
6DF
100
AcDbEntity
  8
SMUSSO
100
AcDbLine
 62
7
  6
CONTINUOUS
 10
24.7438847978
 20
-25.7005566725
 11
24.7438847978
 21
-25.122742127
  0
LINE
  5
6E0
100
AcDbEntity
  8
DRAFT
100
AcDbLine
 62
7
  6
CONTINUOUS
 10
24.7438847978
 20
-14.830756293
 11
24.7438847978
 21
-8.114727961
  0
LINE
  5
6E1
100
AcDbEntity
  8
DRAFT
100
AcDbLine
 62
7
  6
CONTINUOUS
 10
24.7438847978
 20
7.669243707
 11
24.7438847978
 21
14.385272039
  0
LINE
  5
6E2
100
AcDbEntity
  8
DRAFT
100
AcDbLine
 62
7
  6
CONTINUOUS
 10
24.7512667669
 20
-1.6672858624
 11
24.7512667669
 21
1.2218016083
  0
LINE
  5
6E3
100
AcDbEntity
  8
DRAFT
100
AcDbLine
 62
7
  6
CONTINUOUS
 10
24.7700673952
 20
-15.9759490797
 11
24.7700673952
 21
-14.8434629114
  0
LINE
  5
6E4
100
AcDbEntity
  8
DRAFT
100
AcDbLine
 62
7
  6
CONTINUOUS
 10
24.7700673952
 20
-8.1020213427
 11
24.7700673952
 21
-6.9695351744
  0
LINE
  5
6E5
100
AcDbEntity
  8
DRAFT
100
AcDbLine
 62
7
  6
CONTINUOUS
 10
24.7700673952
 20
6.5240509203
 11
24.7700673952
 21
7.6565370886
  0
LINE
  5
6E6
100
AcDbEntity
  8
DRAFT
100
AcDbLine
 62
7
  6
CONTINUOUS
 10
24.7700673952
 20
14.3979786573
 11
24.7700673952
 21
15.5304648256
  0
LINE
  5
6E7
100
AcDbEntity
  8
RACCORDO
100
AcDbLine
 62
7
  6
CONTINUOUS
 10
24.8108266649
 20
-2.222742127
 11
24.8108266649
 21
-4.122742127
  0
LINE
  5
6E8
100
AcDbEntity
  8
0
100
AcDbLine
 62
7
  6
CONTINUOUS
 10
24.8158488517
 20
-14.8434629114
 11
24.8158488517
 21
-8.1020213427
  0
LINE
  5
6E9
100
AcDbEntity
  8
0
100
AcDbLine
 62
7
  6
CONTINUOUS
 10
24.8158488517
 20
7.6565370886
 11
24.8158488517
 21
14.3979786573
  0
LINE
  5
6EA
100
AcDbEntity
  8
DRAFT
100
AcDbLine
 62
7
  6
CONTINUOUS
 10
24.8311601224
 20
17.1094381826
 11
24.8311601224
 21
15.527257873
  0
LINE
  5
6EB
100
AcDbEntity
  8
DRAFT
100
AcDbLine
 62
7
  6
CONTINUOUS
 10
24.8311601224
 20
6.527257873
 11
24.8311601224
 21
4.9450775633
  0
LINE
  5
6EC
100
AcDbEntity
  8
DRAFT
100
AcDbLine
 62
7
  6
CONTINUOUS
 10
24.8311601224
 20
-5.3905618174
 11
24.8311601224
 21
-6.972742127
  0
LINE
  5
6ED
100
AcDbEntity
  8
DRAFT
100
AcDbLine
 62
7
  6
CONTINUOUS
 10
24.8311601224
 20
-15.972742127
 11
24.8311601224
 21
-17.5549224367
  0
LINE
  5
6EE
100
AcDbEntity
  8
DRAFT
100
AcDbLine
 62
7
  6
CONTINUOUS
 10
24.8800343042
 20
20.9644290876
 11
24.8800343042
 21
17.1296825316
  0
LINE
  5
6EF
100
AcDbEntity
  8
DRAFT
100
AcDbLine
 62
7
  6
CONTINUOUS
 10
24.8800343042
 20
4.9248332144
 11
24.8800343042
 21
4.0961657748
  0
LINE
  5
6F0
100
AcDbEntity
  8
DRAFT
100
AcDbLine
 62
7
  6
CONTINUOUS
 10
24.8800343042
 20
-4.5416500289
 11
24.8800343042
 21
-5.3703174684
  0
LINE
  5
6F1
100
AcDbEntity
  8
DRAFT
100
AcDbLine
 62
7
  6
CONTINUOUS
 10
24.8800343042
 20
-17.5751667856
 11
24.8800343042
 21
-18.1994308543
  0
LINE
  5
6F2
100
AcDbEntity
  8
DRAFT
100
AcDbLine
 62
7
  6
CONTINUOUS
 10
24.8800343042
 20
-21.7460533997
 11
24.8800343042
 21
-26.136706179
  0
LINE
  5
6F3
100
AcDbEntity
  8
0
100
AcDbLine
 62
7
  6
CONTINUOUS
 10
24.9067230315
 20
-23.222742127
 11
24.9067230315
 21
-16.722742127
  0
LINE
  5
6F4
100
AcDbEntity
  8
0
100
AcDbLine
 62
7
  6
CONTINUOUS
 10
24.9467618387
 20
11.9375189741
 11
24.9467618387
 21
10.1169967718
  0
LINE
  5
6F5
100
AcDbEntity
  8
0
100
AcDbLine
 62
7
  6
CONTINUOUS
 10
24.9467618387
 20
-10.5624810259
 11
24.9467618387
 21
-12.3830032282
  0
LINE
  5
6F6
100
AcDbEntity
  8
0
100
AcDbLine
 62
7
  6
CONTINUOUS
 10
24.9816719685
 20
-14.3748682238
 11
24.9816719685
 21
-12.4284989952
  0
LINE
  5
6F7
100
AcDbEntity
  8
0
100
AcDbLine
 62
7
  6
CONTINUOUS
 10
24.9816719685
 20
-10.5169852589
 11
24.9816719685
 21
-8.5706160302
  0
LINE
  5
6F8
100
AcDbEntity
  8
0
100
AcDbLine
 62
7
  6
CONTINUOUS
 10
24.9816719685
 20
8.1251317762
 11
24.9816719685
 21
10.0715010048
  0
LINE
  5
6F9
100
AcDbEntity
  8
0
100
AcDbLine
 62
7
  6
CONTINUOUS
 10
24.9816719685
 20
11.9830147411
 11
24.9816719685
 21
13.9293839698
  0
LINE
  5
6FA
100
AcDbEntity
  8
SMUSSO
100
AcDbLine
 62
7
  6
CONTINUOUS
 10
25.0067230315
 20
22.207257873
 11
25.0067230315
 21
17.5101005854
  0
LINE
  5
6FB
100
AcDbEntity
  8
0
100
AcDbLine
 62
7
  6
CONTINUOUS
 10
25.0533859862
 20
-33.822742127
 11
25.0533859862
 21
-26.572742127
  0
LINE
  5
6FC
100
AcDbEntity
  8
0
100
AcDbLine
 62
7
  6
CONTINUOUS
 10
25.2816719685
 20
-14.4278389125
 11
25.2816719685
 21
-12.5088837529
  0
LINE
  5
6FD
100
AcDbEntity
  8
0
100
AcDbLine
 62
7
  6
CONTINUOUS
 10
25.2816719685
 20
-10.4366005011
 11
25.2816719685
 21
-8.5176453415
  0
LINE
  5
6FE
100
AcDbEntity
  8
0
100
AcDbLine
 62
7
  6
CONTINUOUS
 10
25.2816719685
 20
8.0721610875
 11
25.2816719685
 21
9.9911162471
  0
LINE
  5
6FF
100
AcDbEntity
  8
0
100
AcDbLine
 62
7
  6
CONTINUOUS
 10
25.2816719685
 20
12.0633994989
 11
25.2816719685
 21
13.9823546585
  0
LINE
  5
700
100
AcDbEntity
  8
RACCORDO
100
AcDbLine
 62
7
  6
CONTINUOUS
 10
25.5738002255
 20
-1.722742127
 11
25.5738002255
 21
-4.122742127
  0
LINE
  5
701
100
AcDbEntity
  8
0
100
AcDbLine
 62
7
  6
CONTINUOUS
 10
25.7067230315
 20
-20.572742127
 11
25.7067230315
 21
-19.372742127
  0
LINE
  5
702
100
AcDbEntity
  8
0
100
AcDbLine
 62
253
  6
CONTINUOUS
 10
25.9875031432
 20
-16.8172981346
 11
25.9875031432
 21
-19.372742127
  0
LINE
  5
703
100
AcDbEntity
  8
0
100
AcDbLine
 62
253
  6
CONTINUOUS
 10
25.9875031432
 20
-20.572742127
 11
25.9875031432
 21
-23.1281861195
  0
LINE
  5
704
100
AcDbEntity
  8
DRAFT
100
AcDbLine
 62
7
  6
CONTINUOUS
 10
26.0067230315
 20
-1.7175056075
 11
26.0067230315
 21
1.2720213535
  0
LINE
  5
705
100
AcDbEntity
  8
DRAFT
100
AcDbLine
 62
7
  6
CONTINUOUS
 10
26.1078488497
 20
15.8327494553
 11
26.1078488497
 21
15.2041196225
  0
LINE
  5
706
100
AcDbEntity
  8
DRAFT
100
AcDbLine
 62
7
  6
CONTINUOUS
 10
26.1078488497
 20
-15.6496038765
 11
26.1078488497
 21
-16.2782337094
  0
LINE
  5
707
100
AcDbEntity
  8
0
100
AcDbLine
 62
253
  6
CONTINUOUS
 10
26.1466862474
 20
-16.9226892947
 11
26.1466862474
 21
-19.372742127
  0
LINE
  5
708
100
AcDbEntity
  8
0
100
AcDbLine
 62
253
  6
CONTINUOUS
 10
26.1466862474
 20
-20.572742127
 11
26.1466862474
 21
-23.0227949593
  0
LINE
  5
709
100
AcDbEntity
  8
DRAFT
100
AcDbLine
 62
7
  6
CONTINUOUS
 10
26.1567230315
 20
15.8529938043
 11
26.1567230315
 21
15.2529938043
  0
LINE
  5
70A
100
AcDbEntity
  8
DRAFT
100
AcDbLine
 62
7
  6
CONTINUOUS
 10
26.1567230315
 20
-15.6984780583
 11
26.1567230315
 21
-16.2984780583
  0
LINE
  5
70B
100
AcDbEntity
  8
DRAFT
100
AcDbLine
 62
7
  6
CONTINUOUS
 10
26.1927589796
 20
-12.1289053881
 11
26.1927589796
 21
-10.8165788659
  0
LINE
  5
70C
100
AcDbEntity
  8
DRAFT
100
AcDbLine
 62
7
  6
CONTINUOUS
 10
26.1927589796
 20
10.3710946119
 11
26.1927589796
 21
11.6834211341
  0
LINE
  5
70D
100
AcDbEntity
  8
DRAFT
100
AcDbLine
 62
7
  6
CONTINUOUS
 10
26.2067230315
 20
-12.1181903942
 11
26.2067230315
 21
-10.8272938598
  0
LINE
  5
70E
100
AcDbEntity
  8
DRAFT
100
AcDbLine
 62
7
  6
CONTINUOUS
 10
26.2067230315
 20
10.3818096058
 11
26.2067230315
 21
11.6727061402
  0
LINE
  5
70F
100
AcDbEntity
  8
0
100
AcDbLine
 62
253
  6
CONTINUOUS
 10
26.3197272223
 20
4.177257873
 11
26.3197272223
 21
-4.622742127
  0
LINE
  5
710
100
AcDbEntity
  8
0
100
AcDbLine
 62
253
  6
CONTINUOUS
 10
26.4217230754
 20
4.177257873
 11
26.4217230754
 21
-4.622742127
  0
LINE
  5
711
100
AcDbEntity
  8
0
100
AcDbLine
 62
7
  6
CONTINUOUS
 10
26.7567230315
 20
6.377257873
 11
26.7567230315
 21
4.177257873
  0
LINE
  5
712
100
AcDbEntity
  8
0
100
AcDbLine
 62
253
  6
CONTINUOUS
 10
26.7567230315
 20
4.177257873
 11
26.7567230315
 21
-4.622742127
  0
LINE
  5
713
100
AcDbEntity
  8
0
100
AcDbLine
 62
7
  6
CONTINUOUS
 10
26.7567230315
 20
-4.622742127
 11
26.7567230315
 21
-6.822742127
  0
LINE
  5
714
100
AcDbEntity
  8
DRAFT
100
AcDbLine
 62
7
  6
CONTINUOUS
 10
27.1427589796
 20
13.6714737733
 11
27.1427589796
 21
11.9379728669
  0
LINE
  5
715
100
AcDbEntity
  8
DRAFT
100
AcDbLine
 62
7
  6
CONTINUOUS
 10
27.1427589796
 20
10.1165428791
 11
27.1427589796
 21
8.3830419727
  0
LINE
  5
716
100
AcDbEntity
  8
DRAFT
100
AcDbLine
 62
7
  6
CONTINUOUS
 10
27.1427589796
 20
-8.8285262267
 11
27.1427589796
 21
-10.5620271331
  0
LINE
  5
717
100
AcDbEntity
  8
DRAFT
100
AcDbLine
 62
7
  6
CONTINUOUS
 10
27.1427589796
 20
-12.3834571209
 11
27.1427589796
 21
-14.1169580273
  0
LINE
  5
718
100
AcDbEntity
  8
DRAFT
100
AcDbLine
 62
7
  6
CONTINUOUS
 10
27.1567230315
 20
11.927257873
 11
27.1567230315
 21
10.127257873
  0
LINE
  5
719
100
AcDbEntity
  8
DRAFT
100
AcDbLine
 62
7
  6
CONTINUOUS
 10
27.1567230315
 20
-10.572742127
 11
27.1567230315
 21
-12.372742127
  0
LINE
  5
71A
100
AcDbEntity
  8
DRAFT
100
AcDbLine
 62
7
  6
CONTINUOUS
 10
27.2090882263
 20
13.6989482468
 11
27.2090882263
 21
8.3555674991
  0
LINE
  5
71B
100
AcDbEntity
  8
DRAFT
100
AcDbLine
 62
7
  6
CONTINUOUS
 10
27.2090882263
 20
-8.8010517532
 11
27.2090882263
 21
-14.1444325009
  0
LINE
  5
71C
100
AcDbEntity
  8
SMUSSO
100
AcDbLine
 62
7
  6
CONTINUOUS
 10
24.5058522007
 20
-21.472742127
 11
24.505826296
 21
-22.2904928063
  0
LINE
  5
71D
100
AcDbEntity
  8
DRAFT
100
AcDbLine
 62
7
  6
CONTINUOUS
 10
24.709647008
 20
-21.7654342797
 11
24.6740645381
 21
-22.4695282039
  0
LINE
  5
71E
100
AcDbEntity
  8
DRAFT
100
AcDbLine
 62
7
  6
CONTINUOUS
 10
24.8067230315
 20
1.277257873
 11
24.8108266649
 21
1.3052456108
  0
LINE
  5
71F
100
AcDbEntity
  8
DRAFT
100
AcDbLine
 62
7
  6
CONTINUOUS
 10
27.7078488497
 20
11.0492360065
 11
27.7567230315
 21
11.277257873
  0
LINE
  5
720
100
AcDbEntity
  8
DRAFT
100
AcDbLine
 62
7
  6
CONTINUOUS
 10
16.8416331614
 20
-25.5444493977
 11
16.7927589796
 21
-25.6624421103
  0
LINE
  5
721
100
AcDbEntity
  8
DRAFT
100
AcDbLine
 62
7
  6
CONTINUOUS
 10
11.8048500472
 20
-26.519251114
 11
11.8155650411
 21
-26.5052870621
  0
LINE
  5
722
100
AcDbEntity
  8
0
100
AcDbLine
 62
7
  6
CONTINUOUS
 10
24.9816719685
 20
-10.5169852589
 11
24.9467618387
 21
-10.5624810259
  0
LINE
  5
723
100
AcDbEntity
  8
DRAFT
100
AcDbLine
 62
7
  6
CONTINUOUS
 10
12.05940178
 20
-27.469251114
 11
12.0701167739
 21
-27.4552870621
  0
LINE
  5
724
100
AcDbEntity
  8
DRAFT
100
AcDbLine
 62
7
  6
CONTINUOUS
 10
12.4286813692
 20
-24.1507837893
 11
12.6067230315
 21
-23.972742127
  0
LINE
  5
725
100
AcDbEntity
  8
DRAFT
100
AcDbLine
 62
7
  6
CONTINUOUS
 10
10.9067230315
 20
-28.0458460787
 11
10.928701165
 21
-28.0238679452
  0
LINE
  5
726
100
AcDbEntity
  8
DRAFT
100
AcDbLine
 62
7
  6
CONTINUOUS
 10
27.7078488497
 20
-11.4947202605
 11
27.7298269832
 21
-11.472742127
  0
LINE
  5
727
100
AcDbEntity
  8
DRAFT
100
AcDbLine
 62
7
  6
CONTINUOUS
 10
10.9067230315
 20
-28.322742127
 11
11.1567230315
 21
-28.072742127
  0
LINE
  5
728
100
AcDbEntity
  8
DRAFT
100
AcDbLine
 62
7
  6
CONTINUOUS
 10
26.2067230315
 20
-12.1181903942
 11
26.1927589796
 21
-12.1289053881
  0
LINE
  5
729
100
AcDbEntity
  8
DRAFT
100
AcDbLine
 62
7
  6
CONTINUOUS
 10
27.1567230315
 20
-12.372742127
 11
27.1427589796
 21
-12.3834571209
  0
LINE
  5
72A
100
AcDbEntity
  8
DRAFT
100
AcDbLine
 62
7
  6
CONTINUOUS
 10
6.6741780964
 20
-25.3770343713
 11
6.6078508991
 21
-25.4190935762
  0
LINE
  5
72B
100
AcDbEntity
  8
DRAFT
100
AcDbLine
 62
7
  6
CONTINUOUS
 10
12.498501629
 20
-22.772742127
 11
12.4286813692
 21
-22.8076495982
  0
LINE
  5
72C
100
AcDbEntity
  8
0
100
AcDbLine
 62
7
  6
CONTINUOUS
 10
2.8088491283
 20
-25.297691064
 11
2.8860191799
 21
-25.2703826484
  0
LINE
  5
72D
100
AcDbEntity
  8
0
100
AcDbLine
 62
7
  6
CONTINUOUS
 10
3.0505453356
 20
-25.2121612459
 11
3.2774438159
 21
-25.1318679472
  0
LINE
  5
72E
100
AcDbEntity
  8
DRAFT
100
AcDbLine
 62
7
  6
CONTINUOUS
 10
10.928701165
 20
27.5783836912
 11
11.1567230315
 21
27.627257873
  0
LINE
  5
72F
100
AcDbEntity
  8
0
100
AcDbLine
 62
7
  6
CONTINUOUS
 10
-26.1740570802
 20
22.6827018654
 11
-25.0932769685
 21
22.777257873
  0
LINE
  5
730
100
AcDbEntity
  8
0
100
AcDbLine
 62
7
  6
CONTINUOUS
 10
-2.9954030653
 20
24.85220681
 11
-2.7673663852
 21
24.8590319151
  0
LINE
  5
731
100
AcDbEntity
  8
DRAFT
100
AcDbLine
 62
7
  6
CONTINUOUS
 10
15.5847646938
 20
23.7052995352
 11
12.4286813692
 21
23.7052995352
  0
LINE
  5
732
100
AcDbEntity
  8
DRAFT
100
AcDbLine
 62
7
  6
CONTINUOUS
 10
-12.6152353062
 20
23.7052995352
 11
-15.7713186308
 21
23.7052995352
  0
LINE
  5
733
100
AcDbEntity
  8
RACCORDO
100
AcDbLine
 62
253
  6
CONTINUOUS
 10
6.6067230315
 20
24.4031745839
 11
-6.7932769685
 21
24.4031745839
  0
LINE
  5
734
100
AcDbEntity
  8
RACCORDO
100
AcDbLine
 62
7
  6
CONTINUOUS
 10
-18.0932769685
 20
24.5812550159
 11
-6.7932769685
 21
24.5812550159
  0
LINE
  5
735
100
AcDbEntity
  8
RACCORDO
100
AcDbLine
 62
7
  6
CONTINUOUS
 10
6.6067230315
 20
24.5812550159
 11
17.9067230315
 21
24.5812550159
  0
LINE
  5
736
100
AcDbEntity
  8
RACCORDO
100
AcDbLine
 62
7
  6
CONTINUOUS
 10
-4.5932769685
 20
24.6169670101
 11
4.4067230315
 21
24.6169670101
  0
LINE
  5
737
100
AcDbEntity
  8
DRAFT
100
AcDbLine
 62
7
  6
CONTINUOUS
 10
-18.0932769685
 20
24.6510752756
 11
-16.9932769685
 21
24.6510752756
  0
LINE
  5
738
100
AcDbEntity
  8
DRAFT
100
AcDbLine
 62
7
  6
CONTINUOUS
 10
16.8067230315
 20
24.6510752756
 11
17.9067230315
 21
24.6510752756
  0
LINE
  5
739
100
AcDbEntity
  8
DRAFT
100
AcDbLine
 62
7
  6
CONTINUOUS
 10
22.3244161265
 20
24.677257873
 11
21.1800043957
 21
24.677257873
  0
LINE
  5
73A
100
AcDbEntity
  8
DRAFT
100
AcDbLine
 62
7
  6
CONTINUOUS
 10
20.8615292549
 20
24.677257873
 11
17.9067230315
 21
24.677257873
  0
LINE
  5
73B
100
AcDbEntity
  8
0
100
AcDbLine
 62
7
  6
CONTINUOUS
 10
4.4067230315
 20
24.677257873
 11
-4.5932769685
 21
24.677257873
  0
LINE
  5
73C
100
AcDbEntity
  8
DRAFT
100
AcDbLine
 62
7
  6
CONTINUOUS
 10
-18.0932769685
 20
24.677257873
 11
-24.9304387347
 21
24.677257873
  0
LINE
  5
73D
100
AcDbEntity
  8
0
100
AcDbLine
 62
7
  6
CONTINUOUS
 10
3.2774438159
 20
24.6863836932
 11
-3.4639977528
 21
24.6863836932
  0
LINE
  5
73E
100
AcDbEntity
  8
DRAFT
100
AcDbLine
 62
7
  6
CONTINUOUS
 10
-16.9932769685
 20
24.7383506002
 11
-15.8921511503
 21
24.7383506002
  0
LINE
  5
73F
100
AcDbEntity
  8
DRAFT
100
AcDbLine
 62
7
  6
CONTINUOUS
 10
16.8067230315
 20
24.7383506002
 11
15.7055972133
 21
24.7383506002
  0
LINE
  5
740
100
AcDbEntity
  8
0
100
AcDbLine
 62
7
  6
CONTINUOUS
 10
3.0505453356
 20
24.7666769918
 11
-3.2370992725
 21
24.7666769918
  0
LINE
  5
741
100
AcDbEntity
  8
DRAFT
100
AcDbLine
 62
7
  6
CONTINUOUS
 10
15.6706870835
 20
24.7732607301
 11
6.6427589796
 21
24.7732607301
  0
LINE
  5
742
100
AcDbEntity
  8
DRAFT
100
AcDbLine
 62
7
  6
CONTINUOUS
 10
-6.8293129165
 20
24.7732607301
 11
-15.8572410204
 21
24.7732607301
  0
LINE
  5
743
100
AcDbEntity
  8
0
100
AcDbLine
 62
7
  6
CONTINUOUS
 10
2.8860191799
 20
24.8248983944
 11
-3.0725731168
 21
24.8248983944
  0
LINE
  5
744
100
AcDbEntity
  8
DRAFT
100
AcDbLine
 62
7
  6
CONTINUOUS
 10
15.6706870835
 20
24.8336202107
 11
6.6427589796
 21
24.8336202107
  0
LINE
  5
745
100
AcDbEntity
  8
DRAFT
100
AcDbLine
 62
7
  6
CONTINUOUS
 10
-6.8293129165
 20
24.8336202107
 11
-15.8572410204
 21
24.8336202107
  0
LINE
  5
746
100
AcDbEntity
  8
0
100
AcDbLine
 62
7
  6
CONTINUOUS
 10
2.5808124482
 20
24.8590319151
 11
-2.7673663852
 21
24.8590319151
  0
LINE
  5
747
100
AcDbEntity
  8
DRAFT
100
AcDbLine
 62
7
  6
CONTINUOUS
 10
15.6392679666
 20
24.8650393275
 11
14.6567230315
 21
24.8650393275
  0
LINE
  5
748
100
AcDbEntity
  8
DRAFT
100
AcDbLine
 62
7
  6
CONTINUOUS
 10
10.1881421484
 20
24.8650393275
 11
6.6741780964
 21
24.8650393275
  0
LINE
  5
749
100
AcDbEntity
  8
DRAFT
100
AcDbLine
 62
7
  6
CONTINUOUS
 10
-6.8607320334
 20
24.8650393275
 11
-10.3746960854
 21
24.8650393275
  0
LINE
  5
74A
100
AcDbEntity
  8
DRAFT
100
AcDbLine
 62
7
  6
CONTINUOUS
 10
-14.8432769685
 20
24.8650393275
 11
-15.8258219036
 21
24.8650393275
  0
LINE
  5
74B
100
AcDbEntity
  8
DRAFT
100
AcDbLine
 62
7
  6
CONTINUOUS
 10
14.6445044861
 20
24.877257873
 11
10.2003606938
 21
24.877257873
  0
LINE
  5
74C
100
AcDbEntity
  8
DRAFT
100
AcDbLine
 62
7
  6
CONTINUOUS
 10
-10.3869146308
 20
24.877257873
 11
-14.831058423
 21
24.877257873
  0
LINE
  5
74D
100
AcDbEntity
  8
DRAFT
100
AcDbLine
 62
7
  6
CONTINUOUS
 10
14.6445044861
 20
25.15220681
 11
10.2003606938
 21
25.15220681
  0
LINE
  5
74E
100
AcDbEntity
  8
DRAFT
100
AcDbLine
 62
7
  6
CONTINUOUS
 10
-10.3869146308
 20
25.15220681
 11
-14.831058423
 21
25.15220681
  0
LINE
  5
74F
100
AcDbEntity
  8
SMUSSO
100
AcDbLine
 62
7
  6
CONTINUOUS
 10
17.742872538
 20
25.2550724185
 11
16.8067230315
 21
25.2550724185
  0
LINE
  5
750
100
AcDbEntity
  8
SMUSSO
100
AcDbLine
 62
7
  6
CONTINUOUS
 10
-16.9932769685
 20
25.2550724185
 11
-17.9294264749
 21
25.2550724185
  0
LINE
  5
751
100
AcDbEntity
  8
SMUSSO
100
AcDbLine
 62
7
  6
CONTINUOUS
 10
-24.057127462
 20
25.2550724185
 11
-24.9304387347
 21
25.2550724185
  0
LINE
  5
752
100
AcDbEntity
  8
0
100
AcDbLine
 62
7
  6
CONTINUOUS
 10
-22.9932769685
 20
25.277257873
 11
-18.0932769685
 21
25.277257873
  0
LINE
  5
753
100
AcDbEntity
  8
SMUSSO
100
AcDbLine
 62
7
  6
CONTINUOUS
 10
17.9067230315
 20
25.277257873
 11
17.742872538
 21
25.277257873
  0
LINE
  5
754
100
AcDbEntity
  8
SMUSSO
100
AcDbLine
 62
7
  6
CONTINUOUS
 10
-17.9294264749
 20
25.277257873
 11
-18.0932769685
 21
25.277257873
  0
LINE
  5
755
100
AcDbEntity
  8
DRAFT
100
AcDbLine
 62
7
  6
CONTINUOUS
 10
17.9067230315
 20
25.277257873
 11
20.2672756382
 21
25.277257873
  0
LINE
  5
756
100
AcDbEntity
  8
SMUSSO
100
AcDbLine
 62
7
  6
CONTINUOUS
 10
-22.9932769685
 20
25.277257873
 11
-24.057127462
 21
25.277257873
  0
LINE
  5
757
100
AcDbEntity
  8
RACCORDO
100
AcDbLine
 62
253
  6
CONTINUOUS
 10
6.6067230315
 20
25.4030222791
 11
4.4067230315
 21
25.4030222791
  0
LINE
  5
758
100
AcDbEntity
  8
RACCORDO
100
AcDbLine
 62
253
  6
CONTINUOUS
 10
-4.5932769685
 20
25.4030222791
 11
-6.7932769685
 21
25.4030222791
  0
LINE
  5
759
100
AcDbEntity
  8
RACCORDO
100
AcDbLine
 62
7
  6
CONTINUOUS
 10
20.1067230315
 20
25.4143547367
 11
18.3567230315
 21
25.4143547367
  0
LINE
  5
75A
100
AcDbEntity
  8
RACCORDO
100
AcDbLine
 62
7
  6
CONTINUOUS
 10
-18.5432769685
 20
25.4143547367
 11
-22.4432769685
 21
25.4143547367
  0
LINE
  5
75B
100
AcDbEntity
  8
DRAFT
100
AcDbLine
 62
7
  6
CONTINUOUS
 10
5.6067230315
 20
25.4800623418
 11
4.4067230315
 21
25.4800623418
  0
LINE
  5
75C
100
AcDbEntity
  8
DRAFT
100
AcDbLine
 62
7
  6
CONTINUOUS
 10
-4.5932769685
 20
25.4800623418
 11
-5.7932769685
 21
25.4800623418
  0
LINE
  5
75D
100
AcDbEntity
  8
DRAFT
100
AcDbLine
 62
7
  6
CONTINUOUS
 10
5.9223223016
 20
25.527257873
 11
5.6067230315
 21
25.527257873
  0
LINE
  5
75E
100
AcDbEntity
  8
DRAFT
100
AcDbLine
 62
7
  6
CONTINUOUS
 10
-5.7932769685
 20
25.527257873
 11
-6.1088762385
 21
25.527257873
  0
LINE
  5
75F
100
AcDbEntity
  8
DRAFT
100
AcDbLine
 62
7
  6
CONTINUOUS
 10
-6.7932769685
 20
25.5429674314
 11
-6.1023691264
 21
25.5429674314
  0
LINE
  5
760
100
AcDbEntity
  8
DRAFT
100
AcDbLine
 62
7
  6
CONTINUOUS
 10
5.9158151894
 20
25.5429674314
 11
6.6067230315
 21
25.5429674314
  0
LINE
  5
761
100
AcDbEntity
  8
RACCORDO
100
AcDbLine
 62
7
  6
CONTINUOUS
 10
4.4067230315
 20
25.5535712071
 11
-4.5932769685
 21
25.5535712071
  0
LINE
  5
762
100
AcDbEntity
  8
SMUSSO
100
AcDbLine
 62
7
  6
CONTINUOUS
 10
17.737636816
 20
25.5603081404
 11
16.8067230315
 21
25.5603081404
  0
LINE
  5
763
100
AcDbEntity
  8
SMUSSO
100
AcDbLine
 62
7
  6
CONTINUOUS
 10
-16.9932769685
 20
25.5603081404
 11
-17.924190753
 21
25.5603081404
  0
LINE
  5
764
100
AcDbEntity
  8
SMUSSO
100
AcDbLine
 62
7
  6
CONTINUOUS
 10
-24.062363184
 20
25.5603081404
 11
-24.9356744567
 21
25.5603081404
  0
LINE
  5
765
100
AcDbEntity
  8
DRAFT
100
AcDbLine
 62
7
  6
CONTINUOUS
 10
-25.0665882412
 20
25.6912219249
 11
-24.1932769685
 21
25.6912219249
  0
LINE
  5
766
100
AcDbEntity
  8
DRAFT
100
AcDbLine
 62
7
  6
CONTINUOUS
 10
17.6067230315
 20
25.6912219249
 11
16.8067230315
 21
25.6912219249
  0
LINE
  5
767
100
AcDbEntity
  8
DRAFT
100
AcDbLine
 62
7
  6
CONTINUOUS
 10
-16.9932769685
 20
25.6912219249
 11
-17.7932769685
 21
25.6912219249
  0
LINE
  5
768
100
AcDbEntity
  8
DRAFT
100
AcDbLine
 62
7
  6
CONTINUOUS
 10
-16.1487685508
 20
25.9783836912
 11
-15.520138718
 21
25.9783836912
  0
LINE
  5
769
100
AcDbEntity
  8
DRAFT
100
AcDbLine
 62
7
  6
CONTINUOUS
 10
15.333584781
 20
25.9783836912
 11
15.9622146139
 21
25.9783836912
  0
LINE
  5
76A
100
AcDbEntity
  8
DRAFT
100
AcDbLine
 62
7
  6
CONTINUOUS
 10
-16.1690128998
 20
26.027257873
 11
-15.5690128998
 21
26.027257873
  0
LINE
  5
76B
100
AcDbEntity
  8
DRAFT
100
AcDbLine
 62
7
  6
CONTINUOUS
 10
15.3824589628
 20
26.027257873
 11
15.9824589628
 21
26.027257873
  0
LINE
  5
76C
100
AcDbEntity
  8
DRAFT
100
AcDbLine
 62
7
  6
CONTINUOUS
 10
11.8155650411
 20
26.059802808
 11
10.4978810219
 21
26.059802808
  0
LINE
  5
76D
100
AcDbEntity
  8
DRAFT
100
AcDbLine
 62
7
  6
CONTINUOUS
 10
-10.6844349589
 20
26.059802808
 11
-12.0021189781
 21
26.059802808
  0
LINE
  5
76E
100
AcDbEntity
  8
DRAFT
100
AcDbLine
 62
7
  6
CONTINUOUS
 10
11.8048500472
 20
26.07376686
 11
10.5085960158
 21
26.07376686
  0
LINE
  5
76F
100
AcDbEntity
  8
DRAFT
100
AcDbLine
 62
7
  6
CONTINUOUS
 10
-10.6951499528
 20
26.07376686
 11
-11.9914039842
 21
26.07376686
  0
LINE
  5
770
100
AcDbEntity
  8
0
100
AcDbLine
 62
253
  6
CONTINUOUS
 10
-22.9432769685
 20
26.0891522072
 11
-18.0432769685
 21
26.0891522072
  0
LINE
  5
771
100
AcDbEntity
  8
0
100
AcDbLine
 62
253
  6
CONTINUOUS
 10
17.8567230315
 20
26.0891522072
 11
20.6067230315
 21
26.0891522072
  0
LINE
  5
772
100
AcDbEntity
  8
0
100
AcDbLine
 62
7
  6
CONTINUOUS
 10
-25.1932769685
 20
26.207257873
 11
-22.9432769685
 21
26.207257873
  0
LINE
  5
773
100
AcDbEntity
  8
0
100
AcDbLine
 62
7
  6
CONTINUOUS
 10
-18.0432769685
 20
26.207257873
 11
-16.4132769685
 21
26.207257873
  0
LINE
  5
774
100
AcDbEntity
  8
0
100
AcDbLine
 62
7
  6
CONTINUOUS
 10
16.2267230315
 20
26.207257873
 11
17.8567230315
 21
26.207257873
  0
LINE
  5
775
100
AcDbEntity
  8
SMUSSO
100
AcDbLine
 62
7
  6
CONTINUOUS
 10
20.6067230315
 20
26.207257873
 11
21.0067230315
 21
26.207257873
  0
LINE
  5
776
100
AcDbEntity
  8
0
100
AcDbLine
 62
253
  6
CONTINUOUS
 10
-22.9432769685
 20
26.2877036756
 11
-18.0432769685
 21
26.2877036756
  0
LINE
  5
777
100
AcDbEntity
  8
0
100
AcDbLine
 62
253
  6
CONTINUOUS
 10
17.8567230315
 20
26.2877036756
 11
20.6067230315
 21
26.2877036756
  0
LINE
  5
778
100
AcDbEntity
  8
RACCORDO
100
AcDbLine
 62
7
  6
CONTINUOUS
 10
4.4067230315
 20
26.3485855425
 11
-4.5932769685
 21
26.3485855425
  0
LINE
  5
779
100
AcDbEntity
  8
DRAFT
100
AcDbLine
 62
7
  6
CONTINUOUS
 10
5.6067230315
 20
26.519997022
 11
4.4067230315
 21
26.519997022
  0
LINE
  5
77A
100
AcDbEntity
  8
DRAFT
100
AcDbLine
 62
7
  6
CONTINUOUS
 10
-4.5932769685
 20
26.519997022
 11
-5.7932769685
 21
26.519997022
  0
LINE
  5
77B
100
AcDbEntity
  8
DRAFT
100
AcDbLine
 62
7
  6
CONTINUOUS
 10
5.6067230315
 20
26.527257873
 11
4.4067230315
 21
26.527257873
  0
LINE
  5
77C
100
AcDbEntity
  8
DRAFT
100
AcDbLine
 62
7
  6
CONTINUOUS
 10
-4.5932769685
 20
26.527257873
 11
-5.7932769685
 21
26.527257873
  0
LINE
  5
77D
100
AcDbEntity
  8
0
100
AcDbLine
 62
253
  6
CONTINUOUS
 10
-5.9932769685
 20
26.5275570225
 11
5.8067230315
 21
26.5275570225
  0
LINE
  5
77E
100
AcDbEntity
  8
0
100
AcDbLine
 62
253
  6
CONTINUOUS
 10
-5.9932769685
 20
26.6270958437
 11
5.8067230315
 21
26.6270958437
  0
LINE
  5
77F
100
AcDbEntity
  8
RACCORDO
100
AcDbLine
 62
7
  6
CONTINUOUS
 10
6.423880319
 20
26.627257873
 11
5.8067230315
 21
26.627257873
  0
LINE
  5
780
100
AcDbEntity
  8
RACCORDO
100
AcDbLine
 62
7
  6
CONTINUOUS
 10
-5.9932769685
 20
26.627257873
 11
-6.610434256
 21
26.627257873
  0
LINE
  5
781
100
AcDbEntity
  8
DRAFT
100
AcDbLine
 62
7
  6
CONTINUOUS
 10
-13.7475692128
 20
27.009802808
 11
-12.2566707109
 21
27.009802808
  0
LINE
  5
782
100
AcDbEntity
  8
DRAFT
100
AcDbLine
 62
7
  6
CONTINUOUS
 10
-10.4298832261
 20
27.009802808
 11
-8.9389847242
 21
27.009802808
  0
LINE
  5
783
100
AcDbEntity
  8
DRAFT
100
AcDbLine
 62
7
  6
CONTINUOUS
 10
8.7524307872
 20
27.009802808
 11
10.2433292891
 21
27.009802808
  0
LINE
  5
784
100
AcDbEntity
  8
DRAFT
100
AcDbLine
 62
7
  6
CONTINUOUS
 10
12.0701167739
 20
27.009802808
 11
13.5610152758
 21
27.009802808
  0
LINE
  5
785
100
AcDbEntity
  8
DRAFT
100
AcDbLine
 62
7
  6
CONTINUOUS
 10
-12.245955717
 20
27.02376686
 11
-10.44059822
 21
27.02376686
  0
LINE
  5
786
100
AcDbEntity
  8
DRAFT
100
AcDbLine
 62
7
  6
CONTINUOUS
 10
10.254044283
 20
27.02376686
 11
12.05940178
 21
27.02376686
  0
LINE
  5
787
100
AcDbEntity
  8
DRAFT
100
AcDbLine
 62
7
  6
CONTINUOUS
 10
-13.7750436863
 20
27.0761320548
 11
-8.9115102506
 21
27.0761320548
  0
LINE
  5
788
100
AcDbEntity
  8
DRAFT
100
AcDbLine
 62
7
  6
CONTINUOUS
 10
8.7249563137
 20
27.0761320548
 11
13.5884897494
 21
27.0761320548
  0
LINE
  5
789
100
AcDbEntity
  8
0
100
AcDbLine
 62
7
  6
CONTINUOUS
 10
2.8088491283
 20
24.85220681
 11
2.5808124482
 21
24.8590319151
  0
LINE
  5
78A
100
AcDbEntity
  8
DRAFT
100
AcDbLine
 62
7
  6
CONTINUOUS
 10
-11.115255102
 20
27.5783836912
 11
-11.3432769685
 21
27.627257873
  0
LINE
  5
78B
100
AcDbEntity
  8
0
100
AcDbLine
 62
7
  6
CONTINUOUS
 10
2.8088491283
 20
24.85220681
 11
2.8860191799
 21
24.8248983944
  0
LINE
  5
78C
100
AcDbEntity
  8
0
100
AcDbLine
 62
7
  6
CONTINUOUS
 10
3.0505453356
 20
24.7666769918
 11
3.2774438159
 21
24.6863836932
  0
LINE
  5
78D
100
AcDbEntity
  8
DRAFT
100
AcDbLine
 62
7
  6
CONTINUOUS
 10
6.6741780964
 20
24.9315501173
 11
6.6078488497
 21
24.9590245908
  0
LINE
  5
78E
100
AcDbEntity
  8
DRAFT
100
AcDbLine
 62
7
  6
CONTINUOUS
 10
12.498501629
 20
22.327257873
 11
12.4286813692
 21
22.3621653441
  0
LINE
  5
78F
100
AcDbEntity
  8
DRAFT
100
AcDbLine
 62
7
  6
CONTINUOUS
 10
26.2067230315
 20
11.6727061402
 11
26.1927589796
 21
11.6834211341
  0
LINE
  5
790
100
AcDbEntity
  8
DRAFT
100
AcDbLine
 62
7
  6
CONTINUOUS
 10
27.1567230315
 20
11.927257873
 11
27.1427589796
 21
11.9379728669
  0
LINE
  5
791
100
AcDbEntity
  8
DRAFT
100
AcDbLine
 62
7
  6
CONTINUOUS
 10
12.4286813692
 20
23.7052995352
 11
12.6067230315
 21
23.527257873
  0
LINE
  5
792
100
AcDbEntity
  8
DRAFT
100
AcDbLine
 62
7
  6
CONTINUOUS
 10
10.928701165
 20
27.5783836912
 11
10.9067230315
 21
27.6003618247
  0
LINE
  5
793
100
AcDbEntity
  8
DRAFT
100
AcDbLine
 62
7
  6
CONTINUOUS
 10
27.7298269832
 20
11.027257873
 11
27.7078488497
 21
11.0492360065
  0
LINE
  5
794
100
AcDbEntity
  8
DRAFT
100
AcDbLine
 62
7
  6
CONTINUOUS
 10
11.1567230315
 20
27.627257873
 11
10.9067230315
 21
27.877257873
  0
LINE
  5
795
100
AcDbEntity
  8
DRAFT
100
AcDbLine
 62
7
  6
CONTINUOUS
 10
11.8048500472
 20
26.07376686
 11
11.8155650411
 21
26.059802808
  0
LINE
  5
796
100
AcDbEntity
  8
0
100
AcDbLine
 62
7
  6
CONTINUOUS
 10
24.9816719685
 20
10.0715010048
 11
24.9467618387
 21
10.1169967718
  0
LINE
  5
797
100
AcDbEntity
  8
DRAFT
100
AcDbLine
 62
7
  6
CONTINUOUS
 10
12.05940178
 20
27.02376686
 11
12.0701167739
 21
27.009802808
  0
LINE
  5
798
100
AcDbEntity
  8
DRAFT
100
AcDbLine
 62
7
  6
CONTINUOUS
 10
27.7078488497
 20
-11.4947202605
 11
27.7567230315
 21
-11.722742127
  0
LINE
  5
799
100
AcDbEntity
  8
DRAFT
100
AcDbLine
 62
7
  6
CONTINUOUS
 10
24.8108266649
 20
-1.7507298649
 11
24.8067230315
 21
-1.722742127
  0
LINE
  5
79A
100
AcDbEntity
  8
DRAFT
100
AcDbLine
 62
7
  6
CONTINUOUS
 10
27.7078488497
 20
-14.674412338
 11
27.7078488497
 21
-11.4947202605
  0
LINE
  5
79B
100
AcDbEntity
  8
DRAFT
100
AcDbLine
 62
7
  6
CONTINUOUS
 10
27.7078488497
 20
-11.4507639935
 11
27.7078488497
 21
-8.6814010203
  0
LINE
  5
79C
100
AcDbEntity
  8
DRAFT
100
AcDbLine
 62
7
  6
CONTINUOUS
 10
27.7078488497
 20
8.2359167663
 11
27.7078488497
 21
11.0052797395
  0
LINE
  5
79D
100
AcDbEntity
  8
DRAFT
100
AcDbLine
 62
7
  6
CONTINUOUS
 10
27.7078488497
 20
11.0492360065
 11
27.7078488497
 21
14.228928084
  0
LINE
  5
79E
100
AcDbEntity
  8
DRAFT
100
AcDbLine
 62
7
  6
CONTINUOUS
 10
27.7567230315
 20
-8.6611566714
 11
27.7567230315
 21
-11.222742127
  0
LINE
  5
79F
100
AcDbEntity
  8
DRAFT
100
AcDbLine
 62
7
  6
CONTINUOUS
 10
27.7567230315
 20
-11.722742127
 11
27.7567230315
 21
-14.6984780583
  0
LINE
  5
7A0
100
AcDbEntity
  8
DRAFT
100
AcDbLine
 62
7
  6
CONTINUOUS
 10
27.7567230315
 20
8.2156724173
 11
27.7567230315
 21
10.777257873
  0
LINE
  5
7A1
100
AcDbEntity
  8
DRAFT
100
AcDbLine
 62
7
  6
CONTINUOUS
 10
27.7567230315
 20
11.277257873
 11
27.7567230315
 21
14.2529938043
  0
LINE
  5
7A2
100
AcDbEntity
  8
ASSI
100
AcDbLine
 62
7
  6
CONTINUOUS
 10
28.0067230315
 20
-2.972742127
 11
28.0067230315
 21
2.527257873
  0
LINE
  5
7A3
100
AcDbEntity
  8
RACCORDO
100
AcDbLine
 62
7
  6
CONTINUOUS
 10
28.0567230315
 20
14.2944151605
 11
28.0567230315
 21
8.6914714353
  0
LINE
  5
7A4
100
AcDbEntity
  8
0
100
AcDbLine
 62
7
  6
CONTINUOUS
 10
28.0567230315
 20
8.6914714353
 11
28.0567230315
 21
8.2429432979
  0
LINE
  5
7A5
100
AcDbEntity
  8
RACCORDO
100
AcDbLine
 62
7
  6
CONTINUOUS
 10
28.0567230315
 20
-8.9369556894
 11
28.0567230315
 21
-14.7398994146
  0
LINE
  5
7A6
100
AcDbEntity
  8
0
100
AcDbLine
 62
7
  6
CONTINUOUS
 10
28.0567230315
 20
-8.9369556894
 11
28.0567230315
 21
-8.688427552
  0
LINE
  5
7A7
100
AcDbEntity
  8
0
100
AcDbLine
 62
7
  6
CONTINUOUS
 10
29.7520253935
 20
-24.0541129769
 11
29.7520253935
 21
-10.3913712771
  0
LINE
  5
7A8
100
AcDbEntity
  8
0
100
AcDbLine
 62
7
  6
CONTINUOUS
 10
29.7520253935
 20
9.9458870231
 11
29.7520253935
 21
23.6086287229
  0
LINE
  5
7A9
100
AcDbEntity
  8
0
100
AcDbLine
 62
253
  6
CONTINUOUS
 10
30.4067230315
 20
-37.8935859294
 11
30.4067230315
 21
-39.5518983246
  0
LINE
  5
7AA
100
AcDbEntity
  8
0
100
AcDbLine
 62
253
  6
CONTINUOUS
 10
30.4067230315
 20
37.4481016754
 11
30.4067230315
 21
39.1064140706
  0
LINE
  5
7AB
100
AcDbEntity
  8
0
100
AcDbLine
 62
253
  6
CONTINUOUS
 10
30.5070088371
 20
-23.7541129769
 11
30.5070088371
 21
-10.6913712771
  0
LINE
  5
7AC
100
AcDbEntity
  8
0
100
AcDbLine
 62
253
  6
CONTINUOUS
 10
30.5070088371
 20
10.2458870231
 11
30.5070088371
 21
23.3086287229
  0
LINE
  5
7AD
100
AcDbEntity
  8
0
100
AcDbLine
 62
253
  6
CONTINUOUS
 10
31.506437226
 20
-23.7541129769
 11
31.506437226
 21
-10.6913712771
  0
LINE
  5
7AE
100
AcDbEntity
  8
0
100
AcDbLine
 62
253
  6
CONTINUOUS
 10
31.506437226
 20
10.2458870231
 11
31.506437226
 21
23.3086287229
  0
LINE
  5
7AF
100
AcDbEntity
  8
DRAFT
100
AcDbLine
 62
7
  6
CONTINUOUS
 10
27.7078488497
 20
-11.4507639935
 11
27.7567230315
 21
-11.222742127
  0
LINE
  5
7B0
100
AcDbEntity
  8
0
100
AcDbLine
 62
7
  6
CONTINUOUS
 10
24.9816719685
 20
-14.3748682238
 11
24.8158488517
 21
-14.8434629114
  0
LINE
  5
7B1
100
AcDbEntity
  8
RACCORDO
100
AcDbLine
 62
7
  6
CONTINUOUS
 10
15.5600600768
 20
-26.8025380241
 11
14.5661805238
 21
-28.2841091498
  0
LINE
  5
7B2
100
AcDbEntity
  8
DRAFT
100
AcDbLine
 62
7
  6
CONTINUOUS
 10
15.333584781
 20
-26.7561189452
 11
14.3583932425
 21
-28.0238679452
  0
LINE
  5
7B3
100
AcDbEntity
  8
DRAFT
100
AcDbLine
 62
7
  6
CONTINUOUS
 10
15.3824589628
 20
-26.772742127
 11
14.3824589628
 21
-28.072742127
  0
LINE
  5
7B4
100
AcDbEntity
  8
DRAFT
100
AcDbLine
 62
7
  6
CONTINUOUS
 10
24.505826296
 20
-17.6549914478
 11
24.6740645381
 21
-17.4759560501
  0
LINE
  5
7B5
100
AcDbEntity
  8
DRAFT
100
AcDbLine
 62
7
  6
CONTINUOUS
 10
27.7567230315
 20
-11.722742127
 11
28.0067230315
 21
-11.472742127
  0
LINE
  5
7B6
100
AcDbEntity
  8
DRAFT
100
AcDbLine
 62
7
  6
CONTINUOUS
 10
14.6445044861
 20
-25.322742127
 11
14.6567230315
 21
-25.3105235816
  0
LINE
  5
7B7
100
AcDbEntity
  8
DRAFT
100
AcDbLine
 62
7
  6
CONTINUOUS
 10
15.6706870835
 20
-25.2187449841
 11
15.7055972133
 21
-25.1838348543
  0
LINE
  5
7B8
100
AcDbEntity
  8
DRAFT
100
AcDbLine
 62
7
  6
CONTINUOUS
 10
15.6706870835
 20
-25.2791044647
 11
15.6392679666
 21
-25.3105235816
  0
LINE
  5
7B9
100
AcDbEntity
  8
DRAFT
100
AcDbLine
 62
7
  6
CONTINUOUS
 10
15.6392679666
 20
-25.3770343713
 11
13.5610152758
 21
-27.4552870621
  0
LINE
  5
7BA
100
AcDbEntity
  8
DRAFT
100
AcDbLine
 62
7
  6
CONTINUOUS
 10
15.7055972133
 20
-25.4045088449
 11
13.5884897494
 21
-27.5216163088
  0
LINE
  5
7BB
100
AcDbEntity
  8
DRAFT
100
AcDbLine
 62
7
  6
CONTINUOUS
 10
27.1427589796
 20
-14.1169580273
 11
25.2869748799
 21
-15.972742127
  0
LINE
  5
7BC
100
AcDbEntity
  8
DRAFT
100
AcDbLine
 62
7
  6
CONTINUOUS
 10
27.2090882263
 20
-14.1444325009
 11
25.3807786002
 21
-15.972742127
  0
LINE
  5
7BD
100
AcDbEntity
  8
DRAFT
100
AcDbLine
 62
7
  6
CONTINUOUS
 10
16.8416331614
 20
-25.1838348543
 11
16.928908486
 21
-25.0965595296
  0
LINE
  5
7BE
100
AcDbEntity
  8
0
100
AcDbLine
 62
7
  6
CONTINUOUS
 10
23.6067230315
 20
-18.572742127
 11
23.7965332422
 21
-18.3829319163
  0
LINE
  5
7BF
100
AcDbEntity
  8
DRAFT
100
AcDbLine
 62
7
  6
CONTINUOUS
 10
15.9622146139
 20
-26.4238679452
 11
16.8416331614
 21
-25.5444493977
  0
LINE
  5
7C0
100
AcDbEntity
  8
DRAFT
100
AcDbLine
 62
7
  6
CONTINUOUS
 10
24.8311601224
 20
-17.5549224367
 11
24.9067230315
 21
-17.4793595276
  0
LINE
  5
7C1
100
AcDbEntity
  8
DRAFT
100
AcDbLine
 62
7
  6
CONTINUOUS
 10
25.6024704227
 20
-16.7836121364
 11
26.1078488497
 21
-16.2782337094
  0
LINE
  5
7C2
100
AcDbEntity
  8
DRAFT
100
AcDbLine
 62
7
  6
CONTINUOUS
 10
26.1567230315
 20
-16.2984780583
 11
25.6660283549
 21
-16.789172735
  0
LINE
  5
7C3
100
AcDbEntity
  8
DRAFT
100
AcDbLine
 62
7
  6
CONTINUOUS
 10
24.9067230315
 20
-17.5484780583
 11
24.8800343042
 21
-17.5751667856
  0
LINE
  5
7C4
100
AcDbEntity
  8
DRAFT
100
AcDbLine
 62
7
  6
CONTINUOUS
 10
16.7927589796
 20
-25.6624421103
 11
15.9824589628
 21
-26.472742127
  0
LINE
  5
7C5
100
AcDbEntity
  8
RACCORDO
100
AcDbLine
 62
7
  6
CONTINUOUS
 10
27.9981443878
 20
-14.8813207708
 11
26.0248350836
 21
-16.854630075
  0
LINE
  5
7C6
100
AcDbEntity
  8
SMUSSO
100
AcDbLine
 62
7
  6
CONTINUOUS
 10
16.9236727641
 20
-26.0057923945
 11
16.7927589796
 21
-26.136706179
  0
LINE
  5
7C7
100
AcDbEntity
  8
0
100
AcDbLine
 62
7
  6
CONTINUOUS
 10
24.6067230315
 20
-18.472742127
 11
24.9067230315
 21
-18.172742127
  0
LINE
  5
7C8
100
AcDbEntity
  8
SMUSSO
100
AcDbLine
 62
7
  6
CONTINUOUS
 10
17.737636816
 20
-26.0057923945
 11
17.6067230315
 21
-26.136706179
  0
LINE
  5
7C9
100
AcDbEntity
  8
DRAFT
100
AcDbLine
 62
253
  6
CONTINUOUS
 10
24.7359706495
 20
-18.1932077846
 11
24.505826294
 21
-18.4232732755
  0
LINE
  5
7CA
100
AcDbEntity
  8
SMUSSO
100
AcDbLine
 62
253
  6
CONTINUOUS
 10
22.4567230315
 20
-21.8230046064
 11
22.7576197689
 21
-21.5222109795
  0
LINE
  5
7CB
100
AcDbEntity
  8
DRAFT
100
AcDbLine
 62
7
  6
CONTINUOUS
 10
24.505826296
 20
-18.3829319163
 11
24.709647008
 21
-18.1800499743
  0
LINE
  5
7CC
100
AcDbEntity
  8
SMUSSO
100
AcDbLine
 62
7
  6
CONTINUOUS
 10
22.757619767
 20
-21.5625523377
 11
22.4567230315
 21
-21.8620631845
  0
LINE
  5
7CD
100
AcDbEntity
  8
DRAFT
100
AcDbLine
 62
7
  6
CONTINUOUS
 10
27.7078488497
 20
-14.674412338
 11
26.4400998497
 21
-15.6496038765
  0
LINE
  5
7CE
100
AcDbEntity
  8
DRAFT
100
AcDbLine
 62
7
  6
CONTINUOUS
 10
27.7567230315
 20
-14.6984780583
 11
26.4567230315
 21
-15.6984780583
  0
LINE
  5
7CF
100
AcDbEntity
  8
DRAFT
100
AcDbLine
 62
7
  6
CONTINUOUS
 10
24.7359706492
 20
-21.7522764696
 11
24.709647008
 21
-21.7654342797
  0
LINE
  5
7D0
100
AcDbEntity
  8
0
100
AcDbLine
 62
7
  6
CONTINUOUS
 10
26.6098408835
 20
-18.0307621058
 11
26.6012965659
 21
-18.0350221454
  0
LINE
  5
7D1
100
AcDbEntity
  8
DRAFT
100
AcDbLine
 62
7
  6
CONTINUOUS
 10
-11.071298835
 20
27.5783836912
 11
-10.8432769685
 21
27.627257873
  0
LINE
  5
7D2
100
AcDbEntity
  8
DRAFT
100
AcDbLine
 62
7
  6
CONTINUOUS
 10
14.3583932425
 20
27.5783836912
 11
10.928701165
 21
27.5783836912
  0
LINE
  5
7D3
100
AcDbEntity
  8
DRAFT
100
AcDbLine
 62
7
  6
CONTINUOUS
 10
10.884744898
 20
27.5783836912
 11
8.3653819248
 21
27.5783836912
  0
LINE
  5
7D4
100
AcDbEntity
  8
DRAFT
100
AcDbLine
 62
7
  6
CONTINUOUS
 10
-8.5519358618
 20
27.5783836912
 11
-11.071298835
 21
27.5783836912
  0
LINE
  5
7D5
100
AcDbEntity
  8
DRAFT
100
AcDbLine
 62
7
  6
CONTINUOUS
 10
-11.115255102
 20
27.5783836912
 11
-14.5449471795
 21
27.5783836912
  0
LINE
  5
7D6
100
AcDbEntity
  8
DRAFT
100
AcDbLine
 62
7
  6
CONTINUOUS
 10
-14.5690128998
 20
27.627257873
 11
-11.3432769685
 21
27.627257873
  0
LINE
  5
7D7
100
AcDbEntity
  8
DRAFT
100
AcDbLine
 62
7
  6
CONTINUOUS
 10
-10.8432769685
 20
27.627257873
 11
-8.5316915128
 21
27.627257873
  0
LINE
  5
7D8
100
AcDbEntity
  8
DRAFT
100
AcDbLine
 62
7
  6
CONTINUOUS
 10
8.3451375759
 20
27.627257873
 11
10.6567230315
 21
27.627257873
  0
LINE
  5
7D9
100
AcDbEntity
  8
DRAFT
100
AcDbLine
 62
7
  6
CONTINUOUS
 10
11.1567230315
 20
27.627257873
 11
14.3824589628
 21
27.627257873
  0
LINE
  5
7DA
100
AcDbEntity
  8
ASSI
100
AcDbLine
 62
7
  6
CONTINUOUS
 10
2.6567230315
 20
27.877257873
 11
-2.8432769685
 21
27.877257873
  0
LINE
  5
7DB
100
AcDbEntity
  8
RACCORDO
100
AcDbLine
 62
7
  6
CONTINUOUS
 10
-14.610434256
 20
27.927257873
 11
-9.0074905309
 21
27.927257873
  0
LINE
  5
7DC
100
AcDbEntity
  8
0
100
AcDbLine
 62
7
  6
CONTINUOUS
 10
8.6209365939
 20
27.927257873
 11
8.3724084565
 21
27.927257873
  0
LINE
  5
7DD
100
AcDbEntity
  8
0
100
AcDbLine
 62
7
  6
CONTINUOUS
 10
-8.5589623934
 20
27.927257873
 11
-9.0074905309
 21
27.927257873
  0
LINE
  5
7DE
100
AcDbEntity
  8
RACCORDO
100
AcDbLine
 62
7
  6
CONTINUOUS
 10
8.6209365939
 20
27.927257873
 11
14.423880319
 21
27.927257873
  0
LINE
  5
7DF
100
AcDbEntity
  8
0
100
AcDbLine
 62
253
  6
CONTINUOUS
 10
37.5775668339
 20
30.277257873
 11
39.2358792291
 21
30.277257873
  0
LINE
  5
7E0
100
AcDbEntity
  8
0
100
AcDbLine
 62
253
  6
CONTINUOUS
 10
-37.7641207709
 20
30.277257873
 11
-39.4224331661
 21
30.277257873
  0
LINE
  5
7E1
100
AcDbEntity
  8
DRAFT
100
AcDbLine
 62
7
  6
CONTINUOUS
 10
10.884744898
 20
27.5783836912
 11
10.6567230315
 21
27.627257873
  0
LINE
  5
7E2
100
AcDbEntity
  8
DRAFT
100
AcDbLine
 62
7
  6
CONTINUOUS
 10
26.4400998497
 20
15.2041196225
 11
27.7078488497
 21
14.228928084
  0
LINE
  5
7E3
100
AcDbEntity
  8
DRAFT
100
AcDbLine
 62
7
  6
CONTINUOUS
 10
26.4567230315
 20
15.2529938043
 11
27.7567230315
 21
14.2529938043
  0
LINE
  5
7E4
100
AcDbEntity
  8
DRAFT
100
AcDbLine
 62
7
  6
CONTINUOUS
 10
28.0067230315
 20
11.027257873
 11
27.7567230315
 21
11.277257873
  0
LINE
  5
7E5
100
AcDbEntity
  8
DRAFT
100
AcDbLine
 62
7
  6
CONTINUOUS
 10
14.6445044861
 20
24.877257873
 11
14.6567230315
 21
24.8650393275
  0
LINE
  5
7E6
100
AcDbEntity
  8
DRAFT
100
AcDbLine
 62
7
  6
CONTINUOUS
 10
15.6706870835
 20
24.7732607301
 11
15.7055972133
 21
24.7383506002
  0
LINE
  5
7E7
100
AcDbEntity
  8
DRAFT
100
AcDbLine
 62
7
  6
CONTINUOUS
 10
15.6706870835
 20
24.8336202107
 11
15.6392679666
 21
24.8650393275
  0
LINE
  5
7E8
100
AcDbEntity
  8
DRAFT
100
AcDbLine
 62
7
  6
CONTINUOUS
 10
13.5610152758
 20
27.009802808
 11
15.6392679666
 21
24.9315501173
  0
LINE
  5
7E9
100
AcDbEntity
  8
DRAFT
100
AcDbLine
 62
7
  6
CONTINUOUS
 10
13.5884897494
 20
27.0761320548
 11
15.7055972133
 21
24.9590245908
  0
LINE
  5
7EA
100
AcDbEntity
  8
DRAFT
100
AcDbLine
 62
7
  6
CONTINUOUS
 10
25.2869748799
 20
15.527257873
 11
27.1427589796
 21
13.6714737733
  0
LINE
  5
7EB
100
AcDbEntity
  8
DRAFT
100
AcDbLine
 62
7
  6
CONTINUOUS
 10
25.3807786002
 20
15.527257873
 11
27.2090882263
 21
13.6989482468
  0
LINE
  5
7EC
100
AcDbEntity
  8
DRAFT
100
AcDbLine
 62
7
  6
CONTINUOUS
 10
26.1078488497
 20
15.8327494553
 11
24.8311601224
 21
17.1094381826
  0
LINE
  5
7ED
100
AcDbEntity
  8
DRAFT
100
AcDbLine
 62
7
  6
CONTINUOUS
 10
16.8067230315
 20
25.1338752735
 11
15.9622146139
 21
25.9783836912
  0
LINE
  5
7EE
100
AcDbEntity
  8
DRAFT
100
AcDbLine
 62
7
  6
CONTINUOUS
 10
15.9824589628
 20
26.027257873
 11
16.8067230315
 21
25.2029938043
  0
LINE
  5
7EF
100
AcDbEntity
  8
DRAFT
100
AcDbLine
 62
7
  6
CONTINUOUS
 10
24.8800343042
 20
17.1296825316
 11
26.1567230315
 21
15.8529938043
  0
LINE
  5
7F0
100
AcDbEntity
  8
RACCORDO
100
AcDbLine
 62
7
  6
CONTINUOUS
 10
14.5653016753
 20
27.8686792292
 11
16.2267230315
 21
26.207257873
  0
LINE
  5
7F1
100
AcDbEntity
  8
RACCORDO
100
AcDbLine
 62
7
  6
CONTINUOUS
 10
25.0653016753
 20
17.3686792292
 11
27.9981443878
 21
14.4358365167
  0
LINE
  5
7F2
100
AcDbEntity
  8
SMUSSO
100
AcDbLine
 62
7
  6
CONTINUOUS
 10
17.6067230315
 20
25.6912219249
 11
17.737636816
 21
25.5603081404
  0
LINE
  5
7F3
100
AcDbEntity
  8
DRAFT
100
AcDbLine
 62
7
  6
CONTINUOUS
 10
14.3583932425
 20
27.5783836912
 11
15.333584781
 21
26.3106346911
  0
LINE
  5
7F4
100
AcDbEntity
  8
DRAFT
100
AcDbLine
 62
7
  6
CONTINUOUS
 10
14.3824589628
 20
27.627257873
 11
15.3824589628
 21
26.327257873
  0
LINE
  5
7F5
100
AcDbEntity
  8
0
100
AcDbLine
 62
7
  6
CONTINUOUS
 10
24.9816719685
 20
13.9293839698
 11
24.8158488517
 21
14.3979786573
  0
LINE
  5
7F6
100
AcDbEntity
  8
DRAFT
100
AcDbLine
 62
7
  6
CONTINUOUS
 10
27.7078488497
 20
11.0052797395
 11
27.7567230315
 21
10.777257873
  0
LINE
  5
7F7
100
AcDbEntity
  8
ASSI
100
AcDbLine
 62
7
  6
CONTINUOUS
 10
32.0067230315
 20
2.527257873
 11
32.0067230315
 21
-2.972742127
  0
LINE
  5
7F8
100
AcDbEntity
  8
0
100
AcDbLine
 62
7
  6
CONTINUOUS
 10
32.2614206695
 20
-24.0541129769
 11
32.2614206695
 21
-10.3913712771
  0
LINE
  5
7F9
100
AcDbEntity
  8
0
100
AcDbLine
 62
7
  6
CONTINUOUS
 10
32.2614206695
 20
9.9458870231
 11
32.2614206695
 21
23.6086287229
  0
LINE
  5
7FA
100
AcDbEntity
  8
0
100
AcDbLine
 62
7
  6
CONTINUOUS
 10
33.5067230315
 20
8.4086287229
 11
33.5067230315
 21
-8.8541129769
  0
LINE
  5
7FB
100
AcDbEntity
  8
SMUSSO
100
AcDbLine
 62
7
  6
CONTINUOUS
 10
22.757619767
 20
-22.2904928063
 11
22.4567230315
 21
-22.610700424
  0
LINE
  5
7FC
100
AcDbEntity
  8
0
100
AcDbLine
 62
7
  6
CONTINUOUS
 10
23.6067230315
 20
-21.372742127
 11
23.4169128208
 21
-21.5625523377
  0
LINE
  5
7FD
100
AcDbEntity
  8
ASSI
100
AcDbLine
 62
7
  6
CONTINUOUS
 10
-2.8432769685
 20
31.877257873
 11
2.6567230315
 21
31.877257873
  0
LINE
  5
7FE
100
AcDbEntity
  8
0
100
AcDbLine
 62
7
  6
CONTINUOUS
 10
8.5380938814
 20
33.377257873
 11
-8.7246478184
 21
33.377257873
  0
LINE
  5
7FF
100
AcDbEntity
  8
SMUSSO
100
AcDbLine
 62
7
  6
CONTINUOUS
 10
21.0067230315
 20
26.207257873
 11
25.0067230315
 21
22.207257873
  0
LINE
  5
800
100
AcDbEntity
  8
0
100
AcDbLine
 62
7
  6
CONTINUOUS
 10
37.5775668339
 20
30.277257873
 11
37.5775668339
 21
-30.722742127
  0
LINE
  5
801
100
AcDbEntity
  8
0
100
AcDbLine
 62
7
  6
CONTINUOUS
 10
39.2358792291
 20
30.277257873
 11
39.2358792291
 21
-30.722742127
  0
LINE
  5
802
100
AcDbEntity
  8
0
100
AcDbLine
 62
7
  6
CONTINUOUS
 10
-30.5932769685
 20
37.4481016754
 11
30.4067230315
 21
37.4481016754
  0
LINE
  5
803
100
AcDbEntity
  8
0
100
AcDbLine
 62
7
  6
CONTINUOUS
 10
-30.5932769685
 20
39.1064140706
 11
30.4067230315
 21
39.1064140706
  0
LINE
  5
804
100
AcDbEntity
  8
RACCORDO
100
AcDbLine
 62
7
  6
CONTINUOUS
 10
41.1567230315
 20
-35.472742127
 11
41.1567230315
 21
35.027257873
  0
LINE
  5
805
100
AcDbEntity
  8
ASSI
100
AcDbLine
 62
7
  6
CONTINUOUS
 10
28.4318492974
 20
-30.8691887364
 11
30.5531696409
 21
-28.7478683929
  0
LINE
  5
806
100
AcDbEntity
  8
RACCORDO
100
AcDbLine
 62
7
  6
CONTINUOUS
 10
35.1567230315
 20
41.027257873
 11
-35.3432769685
 21
41.027257873
  0
LINE
  5
807
100
AcDbEntity
  8
ASSI
100
AcDbLine
 62
7
  6
CONTINUOUS
 10
33.3815967657
 20
-31.5762955176
 11
31.2602764221
 21
-33.6976158612
  0
ARC
  5
808
100
AcDbEntity
  8
RACCORDO
100
AcDbCircle
 62
7
  6
CONTINUOUS
 10
-408.9195618473
 20
-26.9280612896
 40
433.9730932939
100
AcDbArc
 50
0.0469114122
 51
0.4892992199
  0
ARC
  5
809
100
AcDbEntity
  8
0
100
AcDbCircle
 62
7
  6
CONTINUOUS
 10
-157.3338366063
 20
-64.7882890925
 40
136.4629729037
100
AcDbArc
 50
16.1294973044
 51
16.3007644858
  0
ARC
  5
80A
100
AcDbEntity
  8
0
100
AcDbCircle
 62
7
  6
CONTINUOUS
 10
-157.4506062893
 20
12.7767619763
 40
136.584579725
100
AcDbArc
 50
343.6993121736
 51
343.8704268688
  0
ARC
  5
80B
100
AcDbEntity
  8
0
100
AcDbCircle
 62
7
  6
CONTINUOUS
 10
121.6392508029
 20
-69.4678804525
 40
153.2215438964
100
AcDbArc
 50
163.7086613608
 51
163.8611962299
  0
ARC
  5
80C
100
AcDbEntity
  8
0
100
AcDbCircle
 62
7
  6
CONTINUOUS
 10
-69.3384150925
 20
-173.555269955
 40
153.2215438943
100
AcDbArc
 50
73.7086614391
 51
73.8611963081
  0
ARC
  5
80D
100
AcDbEntity
  8
0
100
AcDbCircle
 62
7
  6
CONTINUOUS
 10
12.8722699513
 20
-157.463301778
 40
136.4629729035
100
AcDbArc
 50
106.1294972844
 51
106.3007644658
  0
ARC
  5
80E
100
AcDbEntity
  8
DRAFT
100
AcDbCircle
 62
7
  6
CONTINUOUS
 10
-2.9314837729
 20
-40.6638808793
 40
69.6478878125
100
AcDbArc
 50
69.7454699629
 51
70.0294299624
  0
ARC
  5
80F
100
AcDbEntity
  8
0
100
AcDbCircle
 62
7
  6
CONTINUOUS
 10
30.4067230315
 20
-30.722742127
 40
8.8291561976
100
AcDbArc
 50
270.0
 51
360.0
  0
ARC
  5
810
100
AcDbEntity
  8
0
100
AcDbCircle
 62
7
  6
CONTINUOUS
 10
-30.5932769685
 20
-30.722742127
 40
8.8291561976
100
AcDbArc
 50
180.0
 51
270.0
  0
ARC
  5
811
100
AcDbEntity
  8
0
100
AcDbCircle
 62
7
  6
CONTINUOUS
 10
-30.5932769685
 20
-30.722742127
 40
7.1708438024
100
AcDbArc
 50
180.0
 51
270.0
  0
ARC
  5
812
100
AcDbEntity
  8
0
100
AcDbCircle
 62
7
  6
CONTINUOUS
 10
30.4067230315
 20
-30.722742127
 40
7.1708438024
100
AcDbArc
 50
270.0
 51
360.0
  0
ARC
  5
813
100
AcDbEntity
  8
RACCORDO
100
AcDbCircle
 62
7
  6
CONTINUOUS
 10
-35.3432769685
 20
-35.472742127
 40
6.0
100
AcDbArc
 50
180.0
 51
270.0
  0
ARC
  5
814
100
AcDbEntity
  8
RACCORDO
100
AcDbCircle
 62
7
  6
CONTINUOUS
 10
35.1567230315
 20
-35.472742127
 40
6.0
100
AcDbArc
 50
270.0
 51
360.0
  0
CIRCLE
  5
815
100
AcDbEntity
  8
0
100
AcDbCircle
 62
7
  6
CONTINUOUS
 10
-21.0932769685
 20
-32.222742127
 40
2.25
  0
ARC
  5
816
100
AcDbEntity
  8
ASSI
100
AcDbCircle
 62
7
  6
CONTINUOUS
 10
-2.8432769685
 20
-30.322742127
 40
2.0
100
AcDbArc
 50
90.0
 51
270.0
  0
ARC
  5
817
100
AcDbEntity
  8
ASSI
100
AcDbCircle
 62
7
  6
CONTINUOUS
 10
2.6567230315
 20
-30.322742127
 40
2.0
100
AcDbArc
 50
270.0
 51
90.0
  0
CIRCLE
  5
818
100
AcDbEntity
  8
ASSI
100
AcDbCircle
 62
7
  6
CONTINUOUS
 10
20.3067230315
 20
-30.272742127
 40
2.0
  0
ARC
  5
819
100
AcDbEntity
  8
ASSI
100
AcDbCircle
 62
7
  6
CONTINUOUS
 10
31.9673832033
 20
-30.1620819552
 40
2.0
100
AcDbArc
 50
315.0
 51
135.0
  0
ARC
  5
81A
100
AcDbEntity
  8
ASSI
100
AcDbCircle
 62
7
  6
CONTINUOUS
 10
29.8460628597
 20
-32.2834022988
 40
2.0
100
AcDbArc
 50
135.0
 51
315.0
  0
CIRCLE
  5
81B
100
AcDbEntity
  8
0
100
AcDbCircle
 62
7
  6
CONTINUOUS
 10
-21.0932769685
 20
-32.222742127
 40
1.985294
  0
ARC
  5
81C
100
AcDbEntity
  8
RACCORDO
100
AcDbCircle
 62
7
  6
CONTINUOUS
 10
14.3999673255
 20
-28.1725733966
 40
0.2001681457
100
AcDbArc
 50
269.9936434058
 51
326.1367968998
  0
ARC
  5
81D
100
AcDbEntity
  8
RACCORDO
100
AcDbCircle
 62
7
  6
CONTINUOUS
 10
6.423880319
 20
-27.272742127
 40
0.2
100
AcDbArc
 50
45.0
 51
90.0
  0
ARC
  5
81E
100
AcDbEntity
  8
RACCORDO
100
AcDbCircle
 62
7
  6
CONTINUOUS
 10
-6.610434256
 20
-27.272742127
 40
0.2
100
AcDbArc
 50
90.0
 51
135.0
  0
ARC
  5
81F
100
AcDbEntity
  8
RACCORDO
100
AcDbCircle
 62
7
  6
CONTINUOUS
 10
-14.610434256
 20
-28.172742127
 40
0.2
100
AcDbArc
 50
225.0
 51
270.0
  0
ARC
  5
820
100
AcDbEntity
  8
0
100
AcDbCircle
 62
7
  6
CONTINUOUS
 10
-17.3954758005
 20
-26.0182360453
 40
7.4191520133
100
AcDbArc
 50
180.0347990563
 51
182.7410792317
  0
ARC
  5
821
100
AcDbEntity
  8
0
100
AcDbCircle
 62
7
  6
CONTINUOUS
 10
-34.3910781344
 20
-26.0272482087
 40
7.4191520112
100
AcDbArc
 50
0.0347990554
 51
2.7410792319
  0
ARC
  5
822
100
AcDbEntity
  8
0
100
AcDbCircle
 62
7
  6
CONTINUOUS
 10
-17.3959568318
 20
-26.0272365539
 40
7.4186709751
100
AcDbArc
 50
177.2588330123
 51
179.9652887019
  0
ARC
  5
823
100
AcDbEntity
  8
0
100
AcDbCircle
 62
7
  6
CONTINUOUS
 10
-34.3905971033
 20
-26.0182477002
 40
7.4186709732
100
AcDbArc
 50
357.2588330121
 51
359.9652887021
  0
CIRCLE
  5
824
100
AcDbEntity
  8
RACCORDO
100
AcDbCircle
 62
7
  6
CONTINUOUS
 10
-25.8932769685
 20
-26.022742127
 40
3.25
  0
CIRCLE
  5
825
100
AcDbEntity
  8
RACCORDO
100
AcDbCircle
 62
253
  6
CONTINUOUS
 10
-25.8932769685
 20
-26.022742127
 40
3.049999989
  0
ARC
  5
826
100
AcDbEntity
  8
RACCORDO
100
AcDbCircle
 62
7
  6
CONTINUOUS
 10
-25.8932769685
 20
-26.022742127
 40
2.5
100
AcDbArc
 50
11.5369590328
 51
168.4630409672
  0
ARC
  5
827
100
AcDbEntity
  8
RACCORDO
100
AcDbCircle
 62
7
  6
CONTINUOUS
 10
-25.8932769685
 20
-26.022742127
 40
2.5
100
AcDbArc
 50
191.5369590328
 51
348.4630409672
  0
ARC
  5
828
100
AcDbEntity
  8
RACCORDO
100
AcDbCircle
 62
253
  6
CONTINUOUS
 10
-25.8932769685
 20
-26.022742127
 40
2.3
100
AcDbArc
 50
192.5558577986
 51
347.4441422014
  0
ARC
  5
829
100
AcDbEntity
  8
RACCORDO
100
AcDbCircle
 62
253
  6
CONTINUOUS
 10
-25.8932769685
 20
-26.022742127
 40
2.3
100
AcDbArc
 50
12.5558577986
 51
167.4441422014
  0
ARC
  5
82A
100
AcDbEntity
  8
ASSI
100
AcDbCircle
 62
7
  6
CONTINUOUS
 10
-30.1932769685
 20
-2.972742127
 40
2.0
100
AcDbArc
 50
180.0
 51
360.0
  0
ARC
  5
82B
100
AcDbEntity
  8
ASSI
100
AcDbCircle
 62
7
  6
CONTINUOUS
 10
-30.1932769685
 20
2.527257873
 40
2.0
100
AcDbArc
 50
0.0
 51
180.0
  0
ARC
  5
82C
100
AcDbEntity
  8
RACCORDO
100
AcDbCircle
 62
7
  6
CONTINUOUS
 10
-25.3932769685
 20
-17.9555848395
 40
0.2
100
AcDbArc
 50
0.0
 51
45.0
  0
ARC
  5
82D
100
AcDbEntity
  8
RACCORDO
100
AcDbCircle
 62
7
  6
CONTINUOUS
 10
-28.0432769685
 20
-14.7398994146
 40
0.2
100
AcDbArc
 50
180.0
 51
225.0
  0
ARC
  5
82E
100
AcDbEntity
  8
0
100
AcDbCircle
 62
7
  6
CONTINUOUS
 10
-22.6883271704
 20
-11.0914660459
 40
0.1201012658
100
AcDbArc
 50
0.0071138936
 51
29.7651745053
  0
ARC
  5
82F
100
AcDbEntity
  8
0
100
AcDbCircle
 62
7
  6
CONTINUOUS
 10
-22.6882366465
 20
-11.8540310197
 40
0.1200107411
100
AcDbArc
 50
330.2187293637
 51
359.9989972613
  0
ARC
  5
830
100
AcDbEntity
  8
0
100
AcDbCircle
 62
7
  6
CONTINUOUS
 10
-30.5932769685
 20
30.277257873
 40
8.8291561976
100
AcDbArc
 50
90.0
 51
180.0
  0
ARC
  5
831
100
AcDbEntity
  8
0
100
AcDbCircle
 62
7
  6
CONTINUOUS
 10
-30.5932769685
 20
30.277257873
 40
7.1708438024
100
AcDbArc
 50
90.0
 51
180.0
  0
ARC
  5
832
100
AcDbEntity
  8
0
100
AcDbCircle
 62
7
  6
CONTINUOUS
 10
-20.5932769685
 20
19.527257873
 40
6.5
100
AcDbArc
 50
197.4115998135
 51
207.9849030473
  0
ARC
  5
833
100
AcDbEntity
  8
0
100
AcDbCircle
 62
7
  6
CONTINUOUS
 10
-20.5932769685
 20
19.527257873
 40
6.5
100
AcDbArc
 50
152.0150969527
 51
162.5884001865
  0
ARC
  5
834
100
AcDbEntity
  8
0
100
AcDbCircle
 62
7
  6
CONTINUOUS
 10
-20.5932769685
 20
19.527257873
 40
6.4905700828
100
AcDbArc
 50
189.6695775911
 51
197.3701662123
  0
ARC
  5
835
100
AcDbEntity
  8
0
100
AcDbCircle
 62
7
  6
CONTINUOUS
 10
-20.5932769685
 20
19.527257873
 40
6.4905700828
100
AcDbArc
 50
162.6298337877
 51
170.3304224089
  0
ARC
  5
836
100
AcDbEntity
  8
RACCORDO
100
AcDbCircle
 62
7
  6
CONTINUOUS
 10
-35.3432769685
 20
35.027257873
 40
6.0
100
AcDbArc
 50
90.0
 51
180.0
  0
ARC
  5
837
100
AcDbEntity
  8
0
100
AcDbCircle
 62
7
  6
CONTINUOUS
 10
-21.1035907675
 20
19.3444839085
 40
5.9575555426
100
AcDbArc
 50
188.1185534805
 51
188.7610682095
  0
ARC
  5
838
100
AcDbEntity
  8
0
100
AcDbCircle
 62
7
  6
CONTINUOUS
 10
-21.1035909748
 20
19.7100318766
 40
5.9575553318
100
AcDbArc
 50
171.2389318597
 51
171.8814466116
  0
ARC
  5
839
100
AcDbEntity
  8
0
100
AcDbCircle
 62
7
  6
CONTINUOUS
 10
-21.1099963831
 20
19.3436156274
 40
5.9510914714
100
AcDbArc
 50
184.330989014
 51
188.1189870521
  0
ARC
  5
83A
100
AcDbEntity
  8
0
100
AcDbCircle
 62
7
  6
CONTINUOUS
 10
-21.1108681532
 20
19.7109957242
 40
5.9502147351
100
AcDbArc
 50
171.8807387845
 51
175.6692950305
  0
ARC
  5
83B
100
AcDbEntity
  8
0
100
AcDbCircle
 62
7
  6
CONTINUOUS
 10
-21.115458366
 20
19.7113907148
 40
5.9456077093
100
AcDbArc
 50
175.6697502809
 51
175.9891560758
  0
ARC
  5
83C
100
AcDbEntity
  8
0
100
AcDbCircle
 62
7
  6
CONTINUOUS
 10
-21.1154600699
 20
19.3431249131
 40
5.9456060014
100
AcDbArc
 50
184.0108439379
 51
184.3302498246
  0
ARC
  5
83D
100
AcDbEntity
  8
ASSI
100
AcDbCircle
 62
7
  6
CONTINUOUS
 10
-30.0326167967
 20
31.8379180448
 40
2.0
100
AcDbArc
 50
315.0
 51
135.0
  0
ARC
  5
83E
100
AcDbEntity
  8
ASSI
100
AcDbCircle
 62
7
  6
CONTINUOUS
 10
-32.1539371403
 20
29.7165977012
 40
2.0
100
AcDbArc
 50
135.0
 51
315.0
  0
ARC
  5
83F
100
AcDbEntity
  8
0
100
AcDbCircle
 62
7
  6
CONTINUOUS
 10
-26.1566259316
 20
16.5710528201
 40
0.2
100
AcDbArc
 50
207.9849030473
 51
264.9999999987
  0
ARC
  5
840
100
AcDbEntity
  8
0
100
AcDbCircle
 62
7
  6
CONTINUOUS
 10
-26.1566259316
 20
22.4834629258
 40
0.2
100
AcDbArc
 50
95.0000000013
 51
152.0150969527
  0
ARC
  5
841
100
AcDbEntity
  8
RACCORDO
100
AcDbCircle
 62
7
  6
CONTINUOUS
 10
-6.610434256
 20
26.827257873
 40
0.2
100
AcDbArc
 50
225.0
 51
270.0
  0
ARC
  5
842
100
AcDbEntity
  8
RACCORDO
100
AcDbCircle
 62
7
  6
CONTINUOUS
 10
-28.0432769685
 20
14.2944151605
 40
0.2
100
AcDbArc
 50
135.0
 51
180.0
  0
ARC
  5
843
100
AcDbEntity
  8
RACCORDO
100
AcDbCircle
 62
7
  6
CONTINUOUS
 10
-14.610434256
 20
27.727257873
 40
0.2
100
AcDbArc
 50
90.0
 51
135.0
  0
ARC
  5
844
100
AcDbEntity
  8
0
100
AcDbCircle
 62
7
  6
CONTINUOUS
 10
-22.6883271704
 20
11.4085339541
 40
0.1201012658
100
AcDbArc
 50
0.0071138936
 51
29.7651745053
  0
ARC
  5
845
100
AcDbEntity
  8
0
100
AcDbCircle
 62
7
  6
CONTINUOUS
 10
-22.6882366465
 20
10.6459689803
 40
0.1200107411
100
AcDbArc
 50
330.2187293636
 51
359.9989972613
  0
ARC
  5
846
100
AcDbEntity
  8
DRAFT
100
AcDbCircle
 62
7
  6
CONTINUOUS
 10
-0.0932769685
 20
-0.222742127
 40
32.75
100
AcDbArc
 50
220.3110252642
 51
229.4911236962
  0
ARC
  5
847
100
AcDbEntity
  8
DRAFT
100
AcDbCircle
 62
7
  6
CONTINUOUS
 10
-0.0932769685
 20
-0.222742127
 40
32.75
100
AcDbArc
 50
40.3110252642
 51
49.4911236962
  0
ARC
  5
848
100
AcDbEntity
  8
DRAFT
100
AcDbCircle
 62
7
  6
CONTINUOUS
 10
-0.0932769685
 20
-0.222742127
 40
32.6313055585
100
AcDbArc
 50
230.0592147482
 51
231.3942777171
  0
ARC
  5
849
100
AcDbEntity
  8
DRAFT
100
AcDbCircle
 62
7
  6
CONTINUOUS
 10
-0.0932769685
 20
-0.222742127
 40
32.6313055585
100
AcDbArc
 50
50.0592147482
 51
51.3942777171
  0
ARC
  5
84A
100
AcDbEntity
  8
DRAFT
100
AcDbCircle
 62
7
  6
CONTINUOUS
 10
-0.0932769685
 20
-0.222742127
 40
32.5440302338
100
AcDbArc
 50
40.4439431847
 51
49.9174271839
  0
ARC
  5
84B
100
AcDbEntity
  8
DRAFT
100
AcDbCircle
 62
7
  6
CONTINUOUS
 10
-0.0932769685
 20
-0.222742127
 40
32.5440302338
100
AcDbArc
 50
220.4439431847
 51
229.9174271839
  0
ARC
  5
84C
100
AcDbEntity
  8
0
100
AcDbCircle
 62
7
  6
CONTINUOUS
 10
20.4067230315
 20
-19.972742127
 40
6.5
100
AcDbArc
 50
17.4115998135
 51
27.9849030473
  0
ARC
  5
84D
100
AcDbEntity
  8
0
100
AcDbCircle
 62
7
  6
CONTINUOUS
 10
20.4067230315
 20
-19.972742127
 40
6.5
100
AcDbArc
 50
332.0150969527
 51
342.5884001865
  0
ARC
  5
84E
100
AcDbEntity
  8
0
100
AcDbCircle
 62
7
  6
CONTINUOUS
 10
20.4067230315
 20
-19.972742127
 40
6.4905700828
100
AcDbArc
 50
9.6695775911
 51
17.3701662123
  0
ARC
  5
84F
100
AcDbEntity
  8
0
100
AcDbCircle
 62
7
  6
CONTINUOUS
 10
20.4067230315
 20
-19.972742127
 40
6.4905700828
100
AcDbArc
 50
342.6298337877
 51
350.3304224089
  0
ARC
  5
850
100
AcDbEntity
  8
0
100
AcDbCircle
 62
7
  6
CONTINUOUS
 10
20.9170368305
 20
-19.7899681626
 40
5.9575555426
100
AcDbArc
 50
8.1185534805
 51
8.7610682095
  0
ARC
  5
851
100
AcDbEntity
  8
0
100
AcDbCircle
 62
7
  6
CONTINUOUS
 10
20.9170370383
 20
-20.1555161308
 40
5.9575553312
100
AcDbArc
 50
351.2389318597
 51
351.8814466116
  0
ARC
  5
852
100
AcDbEntity
  8
0
100
AcDbCircle
 62
7
  6
CONTINUOUS
 10
20.9234424536
 20
-19.7890999492
 40
5.9510914714
100
AcDbArc
 50
4.33098967
 51
8.1189877082
  0
ARC
  5
853
100
AcDbEntity
  8
0
100
AcDbCircle
 62
7
  6
CONTINUOUS
 10
20.9243142115
 20
-20.156480021
 40
5.9502147351
100
AcDbArc
 50
351.8807391978
 51
355.6692954437
  0
ARC
  5
854
100
AcDbEntity
  8
0
100
AcDbCircle
 62
7
  6
CONTINUOUS
 10
20.9289044288
 20
-20.1568749688
 40
5.9456077095
100
AcDbArc
 50
355.6697502809
 51
355.9891560758
  0
ARC
  5
855
100
AcDbEntity
  8
0
100
AcDbCircle
 62
7
  6
CONTINUOUS
 10
20.9289061328
 20
-19.7886091672
 40
5.9456060014
100
AcDbArc
 50
4.0108439379
 51
4.3302498246
  0
ARC
  5
856
100
AcDbEntity
  8
0
100
AcDbCircle
 62
7
  6
CONTINUOUS
 10
25.9700719946
 20
-17.0165370742
 40
0.2
100
AcDbArc
 50
27.9849030473
 51
84.9999999987
  0
ARC
  5
857
100
AcDbEntity
  8
0
100
AcDbCircle
 62
7
  6
CONTINUOUS
 10
25.9700719946
 20
-22.9289471799
 40
0.2
100
AcDbArc
 50
275.0000000013
 51
332.0150969527
  0
ARC
  5
858
100
AcDbEntity
  8
0
100
AcDbCircle
 62
7
  6
CONTINUOUS
 10
-0.8932769685
 20
-18.922742127
 40
0.2
100
AcDbArc
 50
90.0
 51
180.0
  0
ARC
  5
859
100
AcDbEntity
  8
0
100
AcDbCircle
 62
7
  6
CONTINUOUS
 10
-0.8932769685
 20
-21.022742127
 40
0.2
100
AcDbArc
 50
180.0
 51
270.0
  0
ARC
  5
85A
100
AcDbEntity
  8
0
100
AcDbCircle
 62
7
  6
CONTINUOUS
 10
22.5017732334
 20
-11.8540182082
 40
0.1201012658
100
AcDbArc
 50
180.0071138936
 51
209.7651745053
  0
ARC
  5
85B
100
AcDbEntity
  8
0
100
AcDbCircle
 62
7
  6
CONTINUOUS
 10
-0.4745530496
 20
-22.8177923289
 40
0.1201012658
100
AcDbArc
 50
90.0071138936
 51
119.7651745053
  0
ARC
  5
85C
100
AcDbEntity
  8
0
100
AcDbCircle
 62
7
  6
CONTINUOUS
 10
22.5016827096
 20
-11.0914532343
 40
0.1200107411
100
AcDbArc
 50
150.2187293636
 51
179.9989972613
  0
ARC
  5
85D
100
AcDbEntity
  8
0
100
AcDbCircle
 62
7
  6
CONTINUOUS
 10
0.2880119242
 20
-22.8177018051
 40
0.1200107411
100
AcDbArc
 50
60.2187293636
 51
89.9989972613
  0
ARC
  5
85E
100
AcDbEntity
  8
DRAFT
100
AcDbCircle
 62
7
  6
CONTINUOUS
 10
2.744929853
 20
40.2183966162
 40
69.6478878099
100
AcDbArc
 50
249.7454699471
 51
250.0294299466
  0
ARC
  5
85F
100
AcDbEntity
  8
DRAFT
100
AcDbCircle
 62
7
  6
CONTINUOUS
 10
25.7067230315
 20
25.577257873
 40
3.5
100
AcDbArc
 50
194.9005966878
 51
258.4612459992
  0
ARC
  5
860
100
AcDbEntity
  8
ASSI
100
AcDbCircle
 62
7
  6
CONTINUOUS
 10
-2.8432769685
 20
29.877257873
 40
2.0
100
AcDbArc
 50
90.0
 51
270.0
  0
ARC
  5
861
100
AcDbEntity
  8
ASSI
100
AcDbCircle
 62
7
  6
CONTINUOUS
 10
2.6567230315
 20
29.877257873
 40
2.0
100
AcDbArc
 50
270.0
 51
90.0
  0
ARC
  5
862
100
AcDbEntity
  8
0
100
AcDbCircle
 62
7
  6
CONTINUOUS
 10
0.7067230315
 20
18.477257873
 40
0.2
100
AcDbArc
 50
270.0
 51
360.0
  0
ARC
  5
863
100
AcDbEntity
  8
0
100
AcDbCircle
 62
7
  6
CONTINUOUS
 10
0.7067230315
 20
20.577257873
 40
0.2
100
AcDbArc
 50
0.0
 51
90.0
  0
ARC
  5
864
100
AcDbEntity
  8
RACCORDO
100
AcDbCircle
 62
7
  6
CONTINUOUS
 10
6.423880319
 20
26.827257873
 40
0.2
100
AcDbArc
 50
270.0
 51
315.0
  0
ARC
  5
865
100
AcDbEntity
  8
RACCORDO
100
AcDbCircle
 62
7
  6
CONTINUOUS
 10
25.2067230315
 20
17.5101005854
 40
0.2
100
AcDbArc
 50
180.0
 51
225.0
  0
ARC
  5
866
100
AcDbEntity
  8
RACCORDO
100
AcDbCircle
 62
7
  6
CONTINUOUS
 10
14.423880319
 20
27.727257873
 40
0.2
100
AcDbArc
 50
45.0
 51
90.0
  0
ARC
  5
867
100
AcDbEntity
  8
0
100
AcDbCircle
 62
7
  6
CONTINUOUS
 10
0.2879991126
 20
22.3723080748
 40
0.1201012658
100
AcDbArc
 50
270.0071138936
 51
299.7651745053
  0
ARC
  5
868
100
AcDbEntity
  8
0
100
AcDbCircle
 62
7
  6
CONTINUOUS
 10
22.5017732334
 20
10.6459817918
 40
0.1201012658
100
AcDbArc
 50
180.0071138936
 51
209.7651745053
  0
ARC
  5
869
100
AcDbEntity
  8
0
100
AcDbCircle
 62
7
  6
CONTINUOUS
 10
-0.4745658612
 20
22.372217551
 40
0.1200107411
100
AcDbArc
 50
240.2187293637
 51
269.9989972613
  0
ARC
  5
86A
100
AcDbEntity
  8
0
100
AcDbCircle
 62
7
  6
CONTINUOUS
 10
22.5016827096
 20
11.4085467657
 40
0.1200107411
100
AcDbArc
 50
150.2187293636
 51
179.9989972613
  0
ARC
  5
86B
100
AcDbEntity
  8
0
100
AcDbCircle
 62
7
  6
CONTINUOUS
 10
-69.3114923961
 20
121.4172424788
 40
153.1251640984
100
AcDbArc
 50
286.1387520928
 51
286.2913829701
  0
ARC
  5
86C
100
AcDbEntity
  8
0
100
AcDbCircle
 62
7
  6
CONTINUOUS
 10
12.9062272641
 20
105.5345871554
 40
136.584579724
100
AcDbArc
 50
253.6993121171
 51
253.8704268122
  0
ARC
  5
86D
100
AcDbEntity
  8
0
100
AcDbCircle
 62
7
  6
CONTINUOUS
 10
121.5467076051
 20
17.3954734075
 40
153.1251640972
100
AcDbArc
 50
196.1387521346
 51
196.2913830119
  0
ARC
  5
86E
100
AcDbEntity
  8
0
100
AcDbCircle
 62
7
  6
CONTINUOUS
 10
30.4067230315
 20
30.277257873
 40
8.8291561976
100
AcDbArc
 50
0.0
 51
90.0
  0
ARC
  5
86F
100
AcDbEntity
  8
0
100
AcDbCircle
 62
7
  6
CONTINUOUS
 10
30.4067230315
 20
30.277257873
 40
7.1708438024
100
AcDbArc
 50
0.0
 51
90.0
  0
ARC
  5
870
100
AcDbEntity
  8
RACCORDO
100
AcDbCircle
 62
7
  6
CONTINUOUS
 10
35.1567230315
 20
35.027257873
 40
6.0
100
AcDbArc
 50
0.0
 51
90.0
  0
ARC
  5
871
100
AcDbEntity
  8
ASSI
100
AcDbCircle
 62
7
  6
CONTINUOUS
 10
30.0067230315
 20
-2.972742127
 40
2.0
100
AcDbArc
 50
180.0
 51
360.0
  0
ARC
  5
872
100
AcDbEntity
  8
ASSI
100
AcDbCircle
 62
7
  6
CONTINUOUS
 10
30.0067230315
 20
2.527257873
 40
2.0
100
AcDbArc
 50
0.0
 51
180.0
  0
ARC
  5
873
100
AcDbEntity
  8
RACCORDO
100
AcDbCircle
 62
7
  6
CONTINUOUS
 10
27.8567230315
 20
14.2944151605
 40
0.2
100
AcDbArc
 50
0.0
 51
45.0
  0
ARC
  5
874
100
AcDbEntity
  8
RACCORDO
100
AcDbCircle
 62
7
  6
CONTINUOUS
 10
27.8567230315
 20
-14.7398994146
 40
0.2
100
AcDbArc
 50
315.0
 51
360.0
  0
LINE
  5
875
100
AcDbEntity
  8
0
100
AcDbLine
 62
7
  6
CONTINUOUS
 10
-26.9804147873
 20
-25.672444992
 11
-26.7481461521
 21
-25.6734679251
  0
LINE
  5
876
100
AcDbEntity
  8
0
100
AcDbLine
 62
7
  6
CONTINUOUS
 10
-26.2425511704
 20
-25.1678729434
 11
-26.2435741035
 21
-24.9356043082
  0
SPLINE
  5
877
100
AcDbEntity
  8
0
100
AcDbSpline
 62
7
  6
CONTINUOUS
 70
0
 71
3
 72
11
 73
7
 74
5
 42
0.0000001
 43
0.0000001
 44
0.0000000001
 12
0.7000778691
 22
-0.0328624877
 32
0.0
 13
0.7000778691
 23
0.0328624877
 33
0.0
 40
0.0
 40
0.0
 40
0.0
 40
0.0
 40
0.2505733797
 40
0.5000001177
 40
0.7494268287
 40
1.0
 40
1.0
 40
1.0
 40
1.0
 10
-26.2435741035
 20
-24.9356043082
 30
0.0
 10
-26.1851004776
 20
-24.9383491297
 30
0.0
 10
-26.0683589957
 20
-24.9426188281
 30
0.0
 10
-25.8932768923
 20
-24.9448262818
 30
0.0
 10
-25.7181948376
 20
-24.9426188248
 30
0.0
 10
-25.6014534108
 20
-24.9383491274
 30
0.0
 10
-25.5429798335
 20
-24.9356043082
 30
0.0
 11
-26.2435741035
 21
-24.9356043082
 31
0.0
 11
-26.0680738905
 21
-24.9419261748
 31
0.0
 11
-25.893276886
 21
-24.9440915891
 31
0.0
 11
-25.7184799005
 21
-24.9419261712
 31
0.0
 11
-25.5429798335
 21
-24.9356043082
 31
0.0
  0
LINE
  5
878
100
AcDbEntity
  8
0
100
AcDbLine
 62
7
  6
CONTINUOUS
 10
-25.5429798335
 20
-24.9356043082
 11
-25.5440027665
 21
-25.1678729434
  0
LINE
  5
879
100
AcDbEntity
  8
0
100
AcDbLine
 62
7
  6
CONTINUOUS
 10
-25.0384077849
 20
-25.6734679251
 11
-24.8061391496
 21
-25.672444992
  0
LINE
  5
87A
100
AcDbEntity
  8
0
100
AcDbLine
 62
7
  6
CONTINUOUS
 10
-26.2435741035
 20
-27.1098799459
 11
-26.2425511704
 21
-26.8776113106
  0
LINE
  5
87B
100
AcDbEntity
  8
0
100
AcDbLine
 62
7
  6
CONTINUOUS
 10
-26.7481461521
 20
-26.372016329
 11
-26.9804147873
 21
-26.373039262
  0
LINE
  5
87C
100
AcDbEntity
  8
0
100
AcDbLine
 62
7
  6
CONTINUOUS
 10
-24.8061391496
 20
-26.373039262
 11
-25.0384077849
 21
-26.372016329
  0
LINE
  5
87D
100
AcDbEntity
  8
0
100
AcDbLine
 62
7
  6
CONTINUOUS
 10
-25.5440027665
 20
-26.8776113106
 11
-25.5429798335
 21
-27.1098799459
  0
SPLINE
  5
87E
100
AcDbEntity
  8
0
100
AcDbSpline
 62
7
  6
CONTINUOUS
 70
0
 71
3
 72
11
 73
7
 74
5
 42
0.0000001
 43
0.0000001
 44
0.0000000001
 12
-0.7000778691
 22
0.0328624877
 32
0.0
 13
-0.7000778691
 23
-0.0328624877
 33
0.0
 40
0.0
 40
0.0
 40
0.0
 40
0.0
 40
0.2505733797
 40
0.5000001177
 40
0.7494268287
 40
1.0
 40
1.0
 40
1.0
 40
1.0
 10
-25.5429798335
 20
-27.1098799459
 30
0.0
 10
-25.6014534594
 20
-27.1071351243
 30
0.0
 10
-25.7181949413
 20
-27.102865426
 30
0.0
 10
-25.8932770447
 20
-27.1006579723
 30
0.0
 10
-26.0683590993
 20
-27.1028654292
 30
0.0
 10
-26.1851005262
 20
-27.1071351266
 30
0.0
 10
-26.2435741035
 20
-27.1098799459
 30
0.0
 11
-25.5429798335
 21
-27.1098799459
 31
0.0
 11
-25.7184800464
 21
-27.1035580793
 31
0.0
 11
-25.893277051
 21
-27.101392665
 31
0.0
 11
-26.0680740365
 21
-27.1035580829
 31
0.0
 11
-26.2435741035
 21
-27.1098799459
 31
0.0
  0
LINE
  5
87F
100
AcDbEntity
  8
DRAFT
100
AcDbLine
 62
7
  6
CONTINUOUS
 10
24.6740645381
 20
20.8886931288
 11
24.8800343042
 21
20.9644290876
  0
SPLINE
  5
880
100
AcDbEntity
  8
SMUSSO
100
AcDbSpline
 62
7
  6
CONTINUOUS
 70
0
 71
3
 72
9
 73
5
 74
3
 42
0.0000001
 43
0.0000001
 44
0.0000000001
 12
0.0176103775
 22
-0.0461317335
 32
0.0
 13
0.0007495155
 23
-0.0497105355
 33
0.0
 40
0.0
 40
0.0
 40
0.0
 40
0.0
 40
0.635779222
 40
1.0
 40
1.0
 40
1.0
 40
1.0
 10
-22.9481257716
 20
21.0767267267
 30
0.0
 10
-22.9443936675
 20
21.0669501941
 30
0.0
 10
-22.9453906688
 20
21.0499425864
 30
0.0
 10
-22.945398475
 20
21.0332804336
 30
0.0
 10
-22.9453074786
 20
21.0272452303
 30
0.0
 11
-22.9481257716
 21
21.0767267267
 31
0.0
 11
-22.9452615652
 21
21.045463665
 31
0.0
 11
-22.9453074786
 21
21.0272452303
 31
0.0
  0
SPLINE
  5
881
100
AcDbEntity
  8
SMUSSO
100
AcDbSpline
 62
7
  6
CONTINUOUS
 70
0
 71
3
 72
9
 73
5
 74
3
 42
0.0000001
 43
0.0000001
 44
0.0000000001
 12
-0.0006037682
 22
-0.0497348698
 32
0.0
 13
-0.0184242879
 23
-0.0457811213
 33
0.0
 40
0.0
 40
0.0
 40
0.0
 40
0.0
 40
0.3601204389
 40
1.0
 40
1.0
 40
1.0
 40
1.0
 10
-22.9453729391
 20
18.0272689046
 30
0.0
 10
-22.9454454155
 20
18.0212987236
 30
0.0
 10
-22.9453642243
 20
18.0046185652
 30
0.0
 10
-22.9441959965
 20
17.9875538205
 30
0.0
 10
-22.9481257716
 20
17.9777890193
 30
0.0
 11
-22.9453729391
 21
18.0272689046
 31
0.0
 11
-22.9452459641
 21
18.0092351159
 31
0.0
 11
-22.9481257716
 21
17.9777890193
 31
0.0
  0
SPLINE
  5
882
100
AcDbEntity
  8
SMUSSO
100
AcDbSpline
 62
7
  6
CONTINUOUS
 70
0
 71
3
 72
11
 73
7
 74
5
 42
0.0000001
 43
0.0000001
 44
0.0000000001
 12
0.1132433584
 22
-0.3342836854
 32
0.0
 13
0.0038821436
 23
-0.3530124578
 33
0.0
 40
0.0
 40
0.0
 40
0.0
 40
0.0
 40
0.1057338001
 40
0.3796175489
 40
0.8193781863
 40
1.0
 40
1.0
 40
1.0
 40
1.0
 10
-22.6472404933
 20
21.3775203524
 30
0.0
 10
-22.6432492764
 20
21.3657386576
 30
0.0
 10
-22.6461930884
 20
21.3198426047
 30
0.0
 10
-22.6393637455
 20
21.2245977986
 30
0.0
 10
-22.6393354727
 20
21.118986276
 30
0.0
 10
-22.6386397283
 20
21.0459449692
 30
0.0
 10
-22.6384059951
 20
21.0246910524
 30
0.0
 11
-22.6472404933
 21
21.3775203524
 31
0.0
 11
-22.6444153091
 21
21.3403093106
 31
0.0
 11
-22.6416190538
 21
21.2436840697
 31
0.0
 11
-22.6389875417
 21
21.0884953927
 31
0.0
 11
-22.6384059951
 21
21.0246910524
 31
0.0
  0
SPLINE
  5
883
100
AcDbEntity
  8
SMUSSO
100
AcDbSpline
 62
7
  6
CONTINUOUS
 70
0
 71
3
 72
11
 73
7
 74
5
 42
0.0000001
 43
0.0000001
 44
0.0000000001
 12
-0.0038151995
 22
-0.3510389893
 32
0.0
 13
-0.11051649
 23
-0.333101987
 33
0.0
 40
0.0
 40
0.0
 40
0.0
 40
0.0
 40
0.1729551197
 40
0.6163518076
 40
0.893034217
 40
1.0
 40
1.0
 40
1.0
 40
1.0
 10
-22.6384190671
 20
18.0278342385
 30
0.0
 10
-22.6386390199
 20
18.0075962417
 30
0.0
 10
-22.6393230207
 20
17.9354377135
 30
0.0
 10
-22.6393983717
 20
17.8305833154
 30
0.0
 10
-22.6461094339
 20
17.7349402734
 30
0.0
 10
-22.643299999
 20
17.6888722318
 30
0.0
 10
-22.6472404933
 20
17.6769953936
 30
0.0
 11
-22.6384190671
 21
18.0278342385
 31
0.0
 11
-22.6389731313
 21
17.9670827799
 31
0.0
 11
-22.6416048765
 21
17.8114918565
 31
0.0
 11
-22.6444062115
 21
17.7144286394
 31
0.0
 11
-22.6472404933
 21
17.6769953936
 31
0.0
  0
SPLINE
  5
884
100
AcDbEntity
  8
0
100
AcDbSpline
 62
7
  6
CONTINUOUS
 70
0
 71
3
 72
9
 73
5
 74
3
 42
0.0000001
 43
0.0000001
 44
0.0000000001
 12
0.0311053481
 22
-0.0623255639
 32
0.0
 13
0.0
 23
-0.0694365073
 33
0.0
 40
0.0
 40
0.0
 40
0.0
 40
0.0
 40
0.4676966525
 40
1.0
 40
1.0
 40
1.0
 40
1.0
 10
-22.584095674
 20
11.4481928226
 30
0.0
 10
-22.579246385
 20
11.4384763367
 30
0.0
 10
-22.5711005616
 20
11.416638597
 30
0.0
 10
-22.5682259055
 20
11.3933792592
 30
0.0
 10
-22.5682259055
 20
11.3810588308
 30
0.0
 11
-22.584095674
 21
11.4481928226
 31
0.0
 11
-22.5727798523
 21
11.4177385006
 31
0.0
 11
-22.5682259055
 21
11.3810588308
 31
0.0
  0
SPLINE
  5
885
100
AcDbEntity
  8
0
100
AcDbSpline
 62
7
  6
CONTINUOUS
 70
0
 71
3
 72
9
 73
5
 74
3
 42
0.0000001
 43
0.0000001
 44
0.0000000001
 12
0.0
 22
-0.0694218582
 32
0.0
 13
-0.0310631001
 23
-0.0623748912
 33
0.0
 40
0.0
 40
0.0
 40
0.0
 40
0.0
 40
0.5364744838
 40
1.0
 40
1.0
 40
1.0
 40
1.0
 10
-22.5682259055
 20
10.6734569151
 30
0.0
 10
-22.5682259055
 20
10.6610425633
 30
0.0
 10
-22.5711173185
 20
10.6377773084
 30
0.0
 10
-22.5792946243
 20
10.6159778024
 30
0.0
 10
-22.5840941375
 20
10.6063403512
 30
0.0
 11
-22.5682259055
 21
10.6734569151
 31
0.0
 11
-22.5728495498
 21
10.6365019817
 31
0.0
 11
-22.5840941375
 21
10.6063403512
 31
0.0
  0
SPLINE
  5
886
100
AcDbEntity
  8
0
100
AcDbSpline
 62
7
  6
CONTINUOUS
 70
0
 71
3
 72
22
 73
18
 74
16
 42
0.0000001
 43
0.0000001
 44
0.0000000001
 12
1.5267233894
 22
0.4090842992
 32
0.0
 13
-1.5565677919
 23
0.274464899
 33
0.0
 40
0.0
 40
0.0
 40
0.0
 40
0.0
 40
0.0106069131
 40
0.0428981511
 40
0.0947980119
 40
0.1643168056
 40
0.2495151212
 40
0.3447513789
 40
0.4466064061
 40
0.5521509509
 40
0.6543483068
 40
0.7496092946
 40
0.835032633
 40
0.9048766558
 40
0.9569013726
 40
0.9893025437
 40
1.0
 40
1.0
 40
1.0
 40
1.0
 10
-22.6005374024
 20
13.1133441451
 30
0.0
 10
-22.5951394616
 20
13.114790519
 30
0.0
 10
-22.6050430406
 20
13.0750455448
 30
0.0
 10
-22.5934430447
 20
13.0415756828
 30
0.0
 10
-22.5980392982
 20
12.9515744765
 30
0.0
 10
-22.5946342494
 20
12.8464878981
 30
0.0
 10
-22.5946900107
 20
12.7134374348
 30
0.0
 10
-22.5938508002
 20
12.5651511488
 30
0.0
 10
-22.593638849
 20
12.4055651178
 30
0.0
 10
-22.5936410772
 20
12.2425217455
 30
0.0
 10
-22.5938545627
 20
12.0827504363
 30
0.0
 10
-22.5947052712
 20
11.9341222687
 30
0.0
 10
-22.5946301647
 20
11.8008600085
 30
0.0
 10
-22.5981096912
 20
11.6951721943
 30
0.0
 10
-22.5933583862
 20
11.6054742985
 30
0.0
 10
-22.6052596058
 20
11.5707506045
 30
0.0
 10
-22.5950145054
 20
11.5319814259
 30
0.0
 10
-22.6005649441
 20
11.532960118
 30
0.0
 11
-22.6005374024
 21
13.1133441451
 31
0.0
 11
-22.5991105493
 21
13.0966398958
 31
0.0
 11
-22.5977283261
 21
13.0456197192
 31
0.0
 11
-22.5964834964
 21
12.9635972641
 31
0.0
 11
-22.5954143987
 21
12.8537224254
 31
0.0
 11
-22.5945592003
 21
12.7190623567
 31
0.0
 11
-22.593975056
 21
12.5685349318
 31
0.0
 11
-22.5936768256
 21
12.4075451525
 31
0.0
 11
-22.5936784959
 21
12.2407235179
 31
0.0
 11
-22.5939812496
 21
12.0791926681
 31
0.0
 11
-22.5945687614
 21
11.9286261681
 31
0.0
 11
-22.5954284625
 21
11.7936104542
 31
0.0
 11
-22.5965040861
 21
11.6832216038
 31
0.0
 11
-22.5977523259
 21
11.6010018331
 31
0.0
 11
-22.5991369748
 21
11.5498079003
 31
0.0
 11
-22.6005649441
 21
11.532960118
 31
0.0
  0
SPLINE
  5
887
100
AcDbEntity
  8
0
100
AcDbSpline
 62
7
  6
CONTINUOUS
 70
0
 71
3
 72
22
 73
18
 74
16
 42
0.0000001
 43
0.0000001
 44
0.0000000001
 12
1.5565678042
 22
0.2744649012
 32
0.0
 13
-1.5267234014
 23
0.4090843025
 33
0.0
 40
0.0
 40
0.0
 40
0.0
 40
0.0
 40
0.0106836601
 40
0.0430523343
 40
0.0950513171
 40
0.1648856898
 40
0.2502986446
 40
0.3455540876
 40
0.4477577142
 40
0.553309389
 40
0.65517134
 40
0.7504241478
 40
0.8356383434
 40
0.9051674104
 40
0.957083401
 40
0.9893883296
 40
1.0
 40
1.0
 40
1.0
 40
1.0
 10
-22.6005649441
 20
10.5215556279
 30
0.0
 10
-22.5950216636
 20
10.5225330578
 30
0.0
 10
-22.6052530672
 20
10.4838064364
 30
0.0
 10
-22.5933619037
 20
10.4491085835
 30
0.0
 10
-22.5981108729
 20
10.359448625
 30
0.0
 10
-22.5946310531
 20
10.2537854838
 30
0.0
 10
-22.5947060161
 20
10.1205363483
 30
0.0
 10
-22.5938549442
 20
9.9719134187
 30
0.0
 10
-22.5936412082
 20
9.8121379097
 30
0.0
 10
-22.593638723
 20
9.6490838436
 30
0.0
 10
-22.59385047
 20
9.4894816883
 30
0.0
 10
-22.5946895552
 20
9.3411746919
 30
0.0
 10
-22.5946335994
 20
9.2081016176
 30
0.0
 10
-22.5980389453
 20
9.1029930963
 30
0.0
 10
-22.5934410745
 20
9.012968583
 30
0.0
 10
-22.6050456953
 20
8.9794867908
 30
0.0
 10
-22.5951370405
 20
8.9397245782
 30
0.0
 10
-22.6005374024
 20
8.9411716008
 30
0.0
 11
-22.6005649441
 21
10.5215556279
 31
0.0
 11
-22.5991378827
 21
10.5047296528
 31
0.0
 11
-22.597753766
 21
10.453587088
 31
0.0
 11
-22.596505461
 21
10.3714079968
 31
0.0
 11
-22.5954294831
 21
10.2610344024
 31
0.0
 11
-22.5945694967
 21
10.1260351018
 31
0.0
 11
-22.5939816902
 21
9.9754773659
 31
0.0
 11
-22.5936786313
 21
9.813936604
 31
0.0
 11
-22.5936767036
 21
9.6471036987
 31
0.0
 11
-22.5939747103
 21
9.4861029741
 31
0.0
 11
-22.5945587172
 21
9.3355493884
 31
0.0
 11
-22.5954138394
 21
9.200864218
 31
0.0
 11
-22.5964828373
 21
9.0909731388
 31
0.0
 11
-22.5977277521
 21
9.0089251872
 31
0.0
 11
-22.5991102353
 21
8.9578833702
 31
0.0
 11
-22.6005374024
 21
8.9411716008
 31
0.0
  0
SPLINE
  5
888
100
AcDbEntity
  8
0
100
AcDbSpline
 62
7
  6
CONTINUOUS
 70
0
 71
3
 72
22
 73
18
 74
16
 42
0.0000001
 43
0.0000001
 44
0.0000000001
 12
0.2744649012
 22
-1.5565678042
 32
0.0
 13
0.4090843025
 23
1.5267234014
 33
0.0
 40
0.0
 40
0.0
 40
0.0
 40
0.0
 40
0.0106836601
 40
0.0430523343
 40
0.0950513171
 40
0.1648856898
 40
0.2502986446
 40
0.3455540876
 40
0.4477577142
 40
0.553309389
 40
0.65517134
 40
0.7504241478
 40
0.8356383434
 40
0.9051674104
 40
0.957083401
 40
0.9893883296
 40
1.0
 40
1.0
 40
1.0
 40
1.0
 10
-0.5989792135
 20
22.2845458485
 30
0.0
 10
-0.5980017836
 20
22.2790025681
 30
0.0
 10
-0.6367284051
 20
22.2892339717
 30
0.0
 10
-0.671426258
 20
22.2773428082
 30
0.0
 10
-0.7610862164
 20
22.2820917774
 30
0.0
 10
-0.8667493577
 20
22.2786119575
 30
0.0
 10
-0.9999984932
 20
22.2786869205
 30
0.0
 10
-1.1486214228
 20
22.2778358487
 30
0.0
 10
-1.3083969317
 20
22.2776221127
 30
0.0
 10
-1.4714509979
 20
22.2776196275
 30
0.0
 10
-1.6310531532
 20
22.2778313745
 30
0.0
 10
-1.7793601496
 20
22.2786704597
 30
0.0
 10
-1.9124332239
 20
22.2786145039
 30
0.0
 10
-2.0175417451
 20
22.2820198497
 30
0.0
 10
-2.1075662584
 20
22.277421979
 30
0.0
 10
-2.1410480507
 20
22.2890265998
 30
0.0
 10
-2.1808102633
 20
22.279117945
 30
0.0
 10
-2.1793632407
 20
22.2845183069
 30
0.0
 11
-0.5989792135
 21
22.2845458485
 31
0.0
 11
-0.6158051887
 21
22.2831187872
 31
0.0
 11
-0.6669477535
 21
22.2817346705
 31
0.0
 11
-0.7491268447
 21
22.2804863655
 31
0.0
 11
-0.859500439
 21
22.2794103876
 31
0.0
 11
-0.9944997397
 21
22.2785504012
 31
0.0
 11
-1.1450574756
 21
22.2779625947
 31
0.0
 11
-1.3065982374
 21
22.2776595358
 31
0.0
 11
-1.4734311428
 21
22.2776576081
 31
0.0
 11
-1.6344318674
 21
22.2779556148
 31
0.0
 11
-1.784985453
 21
22.2785396217
 31
0.0
 11
-1.9196706235
 21
22.2793947439
 31
0.0
 11
-2.0295617026
 21
22.2804637418
 31
0.0
 11
-2.1116096542
 21
22.2817086566
 31
0.0
 11
-2.1626514712
 21
22.2830911398
 31
0.0
 11
-2.1793632407
 21
22.2845183069
 31
0.0
  0
SPLINE
  5
889
100
AcDbEntity
  8
0
100
AcDbSpline
 62
7
  6
CONTINUOUS
 70
0
 71
3
 72
22
 73
18
 74
16
 42
0.0000001
 43
0.0000001
 44
0.0000000001
 12
0.4090842992
 22
-1.5267233894
 32
0.0
 13
0.274464899
 23
1.5565677919
 33
0.0
 40
0.0
 40
0.0
 40
0.0
 40
0.0
 40
0.0106069131
 40
0.0428981511
 40
0.0947980119
 40
0.1643168056
 40
0.2495151212
 40
0.3447513789
 40
0.4466064061
 40
0.5521509509
 40
0.6543483068
 40
0.7496092946
 40
0.835032633
 40
0.9048766558
 40
0.9569013726
 40
0.9893025437
 40
1.0
 40
1.0
 40
1.0
 40
1.0
 10
1.9928093037
 20
22.2845183069
 30
0.0
 10
1.9942556776
 20
22.2791203661
 30
0.0
 10
1.9545107033
 20
22.289023945
 30
0.0
 10
1.9210408413
 20
22.2774239492
 30
0.0
 10
1.831039635
 20
22.2820202027
 30
0.0
 10
1.7259530567
 20
22.2786151539
 30
0.0
 10
1.5929025933
 20
22.2786709152
 30
0.0
 10
1.4446163073
 20
22.2778317047
 30
0.0
 10
1.2850302763
 20
22.2776197535
 30
0.0
 10
1.121986904
 20
22.2776219816
 30
0.0
 10
0.9622155948
 20
22.2778354672
 30
0.0
 10
0.8135874273
 20
22.2786861757
 30
0.0
 10
0.6803251671
 20
22.2786110692
 30
0.0
 10
0.5746373529
 20
22.2820905957
 30
0.0
 10
0.484939457
 20
22.2773392906
 30
0.0
 10
0.450215763
 20
22.2892405103
 30
0.0
 10
0.4114465845
 20
22.2789954099
 30
0.0
 10
0.4124252765
 20
22.2845458485
 30
0.0
 11
1.9928093037
 21
22.2845183069
 31
0.0
 11
1.9761050543
 21
22.2830914538
 31
0.0
 11
1.9250848777
 21
22.2817092306
 31
0.0
 11
1.8430624227
 21
22.2804644008
 31
0.0
 11
1.733187584
 21
22.2793953032
 31
0.0
 11
1.5985275152
 21
22.2785401048
 31
0.0
 11
1.4480000903
 21
22.2779559605
 31
0.0
 11
1.287010311
 21
22.27765773
 31
0.0
 11
1.1201886765
 21
22.2776594004
 31
0.0
 11
0.9586578267
 21
22.2779621541
 31
0.0
 11
0.8080913266
 21
22.2785496659
 31
0.0
 11
0.6730756127
 21
22.279409367
 31
0.0
 11
0.5626867624
 21
22.2804849906
 31
0.0
 11
0.4804669917
 21
22.2817332304
 31
0.0
 11
0.4292730589
 21
22.2831178793
 31
0.0
 11
0.4124252765
 21
22.2845458485
 31
0.0
  0
SPLINE
  5
88A
100
AcDbEntity
  8
0
100
AcDbSpline
 62
7
  6
CONTINUOUS
 70
0
 71
3
 72
9
 73
5
 74
3
 42
0.0000001
 43
0.0000001
 44
0.0000000001
 12
-0.0694218582
 22
0.0
 32
0.0
 13
-0.0623748912
 23
0.0310631001
 33
0.0
 40
0.0
 40
0.0
 40
0.0
 40
0.0
 40
0.5364744838
 40
1.0
 40
1.0
 40
1.0
 40
1.0
 10
-0.4470779263
 20
22.25220681
 30
0.0
 10
-0.4594922782
 20
22.25220681
 30
0.0
 10
-0.482757533
 20
22.255098223
 30
0.0
 10
-0.5045570391
 20
22.2632755288
 30
0.0
 10
-0.5141944903
 20
22.268075042
 30
0.0
 11
-0.4470779263
 21
22.25220681
 31
0.0
 11
-0.4840328597
 21
22.2568304543
 31
0.0
 11
-0.5141944903
 21
22.268075042
 31
0.0
  0
SPLINE
  5
88B
100
AcDbEntity
  8
0
100
AcDbSpline
 62
7
  6
CONTINUOUS
 70
0
 71
3
 72
9
 73
5
 74
3
 42
0.0000001
 43
0.0000001
 44
0.0000000001
 12
-0.0623255639
 22
-0.0311053481
 32
0.0
 13
-0.0694365073
 23
0.0
 33
0.0
 40
0.0
 40
0.0
 40
0.0
 40
0.0
 40
0.4676966525
 40
1.0
 40
1.0
 40
1.0
 40
1.0
 10
0.3276579812
 20
22.2680765785
 30
0.0
 10
0.3179414953
 20
22.2632272895
 30
0.0
 10
0.2961037556
 20
22.2550814661
 30
0.0
 10
0.2728444178
 20
22.25220681
 30
0.0
 10
0.2605239894
 20
22.25220681
 30
0.0
 11
0.3276579812
 21
22.2680765785
 31
0.0
 11
0.2972036592
 21
22.2567607568
 31
0.0
 11
0.2605239894
 21
22.25220681
 31
0.0
  0
SPLINE
  5
88C
100
AcDbEntity
  8
0
100
AcDbSpline
 62
7
  6
CONTINUOUS
 70
0
 71
3
 72
9
 73
5
 74
3
 42
0.0000001
 43
0.0000001
 44
0.0000000001
 12
0.0311053481
 22
-0.0623255639
 32
0.0
 13
0.0
 23
-0.0694365073
 33
0.0
 40
0.0
 40
0.0
 40
0.0
 40
0.0
 40
0.4676966525
 40
1.0
 40
1.0
 40
1.0
 40
1.0
 10
-22.584095674
 20
-11.0518071774
 30
0.0
 10
-22.579246385
 20
-11.0615236633
 30
0.0
 10
-22.5711005616
 20
-11.083361403
 30
0.0
 10
-22.5682259055
 20
-11.1066207408
 30
0.0
 10
-22.5682259055
 20
-11.1189411692
 30
0.0
 11
-22.584095674
 21
-11.0518071774
 31
0.0
 11
-22.5727798523
 21
-11.0822614994
 31
0.0
 11
-22.5682259055
 21
-11.1189411692
 31
0.0
  0
SPLINE
  5
88D
100
AcDbEntity
  8
0
100
AcDbSpline
 62
7
  6
CONTINUOUS
 70
0
 71
3
 72
9
 73
5
 74
3
 42
0.0000001
 43
0.0000001
 44
0.0000000001
 12
0.0
 22
-0.0694218582
 32
0.0
 13
-0.0310631001
 23
-0.0623748912
 33
0.0
 40
0.0
 40
0.0
 40
0.0
 40
0.0
 40
0.5364744838
 40
1.0
 40
1.0
 40
1.0
 40
1.0
 10
-22.5682259055
 20
-11.8265430849
 30
0.0
 10
-22.5682259055
 20
-11.8389574367
 30
0.0
 10
-22.5711173185
 20
-11.8622226916
 30
0.0
 10
-22.5792946243
 20
-11.8840221976
 30
0.0
 10
-22.5840941375
 20
-11.8936596488
 30
0.0
 11
-22.5682259055
 21
-11.8265430849
 31
0.0
 11
-22.5728495498
 21
-11.8634980183
 31
0.0
 11
-22.5840941375
 21
-11.8936596488
 31
0.0
  0
SPLINE
  5
88E
100
AcDbEntity
  8
0
100
AcDbSpline
 62
7
  6
CONTINUOUS
 70
0
 71
3
 72
22
 73
18
 74
16
 42
0.0000001
 43
0.0000001
 44
0.0000000001
 12
1.5267233894
 22
0.4090842992
 32
0.0
 13
-1.5565677919
 23
0.274464899
 33
0.0
 40
0.0
 40
0.0
 40
0.0
 40
0.0
 40
0.0106069131
 40
0.0428981511
 40
0.0947980119
 40
0.1643168056
 40
0.2495151212
 40
0.3447513789
 40
0.4466064061
 40
0.5521509509
 40
0.6543483068
 40
0.7496092946
 40
0.835032633
 40
0.9048766558
 40
0.9569013726
 40
0.9893025437
 40
1.0
 40
1.0
 40
1.0
 40
1.0
 10
-22.6005374024
 20
-9.3866558549
 30
0.0
 10
-22.5951394616
 20
-9.385209481
 30
0.0
 10
-22.6050430406
 20
-9.4249544552
 30
0.0
 10
-22.5934430447
 20
-9.4584243172
 30
0.0
 10
-22.5980392982
 20
-9.5484255235
 30
0.0
 10
-22.5946342494
 20
-9.6535121019
 30
0.0
 10
-22.5946900107
 20
-9.7865625652
 30
0.0
 10
-22.5938508002
 20
-9.9348488512
 30
0.0
 10
-22.593638849
 20
-10.0944348822
 30
0.0
 10
-22.5936410772
 20
-10.2574782545
 30
0.0
 10
-22.5938545627
 20
-10.4172495637
 30
0.0
 10
-22.5947052712
 20
-10.5658777313
 30
0.0
 10
-22.5946301647
 20
-10.6991399915
 30
0.0
 10
-22.5981096912
 20
-10.8048278057
 30
0.0
 10
-22.5933583862
 20
-10.8945257015
 30
0.0
 10
-22.6052596058
 20
-10.9292493955
 30
0.0
 10
-22.5950145054
 20
-10.9680185741
 30
0.0
 10
-22.6005649441
 20
-10.967039882
 30
0.0
 11
-22.6005374024
 21
-9.3866558549
 31
0.0
 11
-22.5991105493
 21
-9.4033601042
 31
0.0
 11
-22.5977283261
 21
-9.4543802808
 31
0.0
 11
-22.5964834964
 21
-9.5364027359
 31
0.0
 11
-22.5954143987
 21
-9.6462775746
 31
0.0
 11
-22.5945592003
 21
-9.7809376433
 31
0.0
 11
-22.593975056
 21
-9.9314650682
 31
0.0
 11
-22.5936768256
 21
-10.0924548475
 31
0.0
 11
-22.5936784959
 21
-10.2592764821
 31
0.0
 11
-22.5939812496
 21
-10.4208073319
 31
0.0
 11
-22.5945687614
 21
-10.5713738319
 31
0.0
 11
-22.5954284625
 21
-10.7063895458
 31
0.0
 11
-22.5965040861
 21
-10.8167783962
 31
0.0
 11
-22.5977523259
 21
-10.8989981669
 31
0.0
 11
-22.5991369748
 21
-10.9501920997
 31
0.0
 11
-22.6005649441
 21
-10.967039882
 31
0.0
  0
SPLINE
  5
88F
100
AcDbEntity
  8
0
100
AcDbSpline
 62
7
  6
CONTINUOUS
 70
0
 71
3
 72
22
 73
18
 74
16
 42
0.0000001
 43
0.0000001
 44
0.0000000001
 12
1.5565678042
 22
0.2744649012
 32
0.0
 13
-1.5267234014
 23
0.4090843025
 33
0.0
 40
0.0
 40
0.0
 40
0.0
 40
0.0
 40
0.0106836601
 40
0.0430523343
 40
0.0950513171
 40
0.1648856898
 40
0.2502986446
 40
0.3455540876
 40
0.4477577142
 40
0.553309389
 40
0.65517134
 40
0.7504241478
 40
0.8356383434
 40
0.9051674104
 40
0.957083401
 40
0.9893883296
 40
1.0
 40
1.0
 40
1.0
 40
1.0
 10
-22.6005649441
 20
-11.9784443721
 30
0.0
 10
-22.5950216636
 20
-11.9774669422
 30
0.0
 10
-22.6052530672
 20
-12.0161935636
 30
0.0
 10
-22.5933619037
 20
-12.0508914165
 30
0.0
 10
-22.5981108729
 20
-12.140551375
 30
0.0
 10
-22.5946310531
 20
-12.2462145162
 30
0.0
 10
-22.5947060161
 20
-12.3794636517
 30
0.0
 10
-22.5938549442
 20
-12.5280865813
 30
0.0
 10
-22.5936412082
 20
-12.6878620903
 30
0.0
 10
-22.593638723
 20
-12.8509161564
 30
0.0
 10
-22.59385047
 20
-13.0105183117
 30
0.0
 10
-22.5946895552
 20
-13.1588253081
 30
0.0
 10
-22.5946335994
 20
-13.2918983824
 30
0.0
 10
-22.5980389453
 20
-13.3970069037
 30
0.0
 10
-22.5934410745
 20
-13.487031417
 30
0.0
 10
-22.6050456953
 20
-13.5205132092
 30
0.0
 10
-22.5951370405
 20
-13.5602754218
 30
0.0
 10
-22.6005374024
 20
-13.5588283992
 30
0.0
 11
-22.6005649441
 21
-11.9784443721
 31
0.0
 11
-22.5991378827
 21
-11.9952703472
 31
0.0
 11
-22.597753766
 21
-12.046412912
 31
0.0
 11
-22.596505461
 21
-12.1285920032
 31
0.0
 11
-22.5954294831
 21
-12.2389655976
 31
0.0
 11
-22.5945694967
 21
-12.3739648982
 31
0.0
 11
-22.5939816902
 21
-12.5245226341
 31
0.0
 11
-22.5936786313
 21
-12.686063396
 31
0.0
 11
-22.5936767036
 21
-12.8528963013
 31
0.0
 11
-22.5939747103
 21
-13.0138970259
 31
0.0
 11
-22.5945587172
 21
-13.1644506116
 31
0.0
 11
-22.5954138394
 21
-13.299135782
 31
0.0
 11
-22.5964828373
 21
-13.4090268612
 31
0.0
 11
-22.5977277521
 21
-13.4910748128
 31
0.0
 11
-22.5991102353
 21
-13.5421166298
 31
0.0
 11
-22.6005374024
 21
-13.5588283992
 31
0.0
  0
SPLINE
  5
890
100
AcDbEntity
  8
0
100
AcDbSpline
 62
7
  6
CONTINUOUS
 70
0
 71
3
 72
22
 73
18
 74
16
 42
0.0000001
 43
0.0000001
 44
0.0000000001
 12
-0.2744649012
 22
1.5565678042
 32
0.0
 13
-0.4090843025
 23
-1.5267234014
 33
0.0
 40
0.0
 40
0.0
 40
0.0
 40
0.0
 40
0.0106836601
 40
0.0430523343
 40
0.0950513171
 40
0.1648856898
 40
0.2502986446
 40
0.3455540876
 40
0.4477577142
 40
0.553309389
 40
0.65517134
 40
0.7504241478
 40
0.8356383434
 40
0.9051674104
 40
0.957083401
 40
0.9893883296
 40
1.0
 40
1.0
 40
1.0
 40
1.0
 10
0.4124252765
 20
-22.7300301026
 30
0.0
 10
0.4114478466
 20
-22.7244868222
 30
0.0
 10
0.4501744681
 20
-22.7347182257
 30
0.0
 10
0.484872321
 20
-22.7228270622
 30
0.0
 10
0.5745322795
 20
-22.7275760315
 30
0.0
 10
0.6801954207
 20
-22.7240962116
 30
0.0
 10
0.8134445562
 20
-22.7241711746
 30
0.0
 10
0.9620674858
 20
-22.7233201028
 30
0.0
 10
1.1218429947
 20
-22.7231063668
 30
0.0
 10
1.2848970609
 20
-22.7231038816
 30
0.0
 10
1.4444992162
 20
-22.7233156285
 30
0.0
 10
1.5928062126
 20
-22.7241547138
 30
0.0
 10
1.7258792869
 20
-22.724098758
 30
0.0
 10
1.8309878081
 20
-22.7275041038
 30
0.0
 10
1.9210123215
 20
-22.7229062331
 30
0.0
 10
1.9544941137
 20
-22.7345108538
 30
0.0
 10
1.9942563263
 20
-22.7246021991
 30
0.0
 10
1.9928093037
 20
-22.7300025609
 30
0.0
 11
0.4124252765
 21
-22.7300301026
 31
0.0
 11
0.4292512517
 21
-22.7286030412
 31
0.0
 11
0.4803938165
 21
-22.7272189246
 31
0.0
 11
0.5625729077
 21
-22.7259706195
 31
0.0
 11
0.672946502
 21
-22.7248946417
 31
0.0
 11
0.8079458027
 21
-22.7240346553
 31
0.0
 11
0.9585035386
 21
-22.7234468487
 31
0.0
 11
1.1200443004
 21
-22.7231437898
 31
0.0
 11
1.2868772058
 21
-22.7231418622
 31
0.0
 11
1.4478779304
 21
-22.7234398688
 31
0.0
 11
1.5984315161
 21
-22.7240238757
 31
0.0
 11
1.7331166865
 21
-22.724878998
 31
0.0
 11
1.8430077657
 21
-22.7259479959
 31
0.0
 11
1.9250557173
 21
-22.7271929107
 31
0.0
 11
1.9760975343
 21
-22.7285753938
 31
0.0
 11
1.9928093037
 21
-22.7300025609
 31
0.0
  0
SPLINE
  5
891
100
AcDbEntity
  8
0
100
AcDbSpline
 62
7
  6
CONTINUOUS
 70
0
 71
3
 72
22
 73
18
 74
16
 42
0.0000001
 43
0.0000001
 44
0.0000000001
 12
-0.4090842992
 22
1.5267233894
 32
0.0
 13
-0.274464899
 23
-1.5565677919
 33
0.0
 40
0.0
 40
0.0
 40
0.0
 40
0.0
 40
0.0106069131
 40
0.0428981511
 40
0.0947980119
 40
0.1643168056
 40
0.2495151212
 40
0.3447513789
 40
0.4466064061
 40
0.5521509509
 40
0.6543483068
 40
0.7496092946
 40
0.835032633
 40
0.9048766558
 40
0.9569013726
 40
0.9893025437
 40
1.0
 40
1.0
 40
1.0
 40
1.0
 10
-2.1793632407
 20
-22.7300025609
 30
0.0
 10
-2.1808096145
 20
-22.7246046201
 30
0.0
 10
-2.1410646403
 20
-22.7345081991
 30
0.0
 10
-2.1075947783
 20
-22.7229082033
 30
0.0
 10
-2.017593572
 20
-22.7275044567
 30
0.0
 10
-1.9125069936
 20
-22.724099408
 30
0.0
 10
-1.7794565303
 20
-22.7241551693
 30
0.0
 10
-1.6311702443
 20
-22.7233159587
 30
0.0
 10
-1.4715842133
 20
-22.7231040075
 30
0.0
 10
-1.308540841
 20
-22.7231062357
 30
0.0
 10
-1.1487695318
 20
-22.7233197212
 30
0.0
 10
-1.0001413642
 20
-22.7241704297
 30
0.0
 10
-0.866879104
 20
-22.7240953233
 30
0.0
 10
-0.7611912898
 20
-22.7275748498
 30
0.0
 10
-0.671493394
 20
-22.7228235447
 30
0.0
 10
-0.6367697
 20
-22.7347247643
 30
0.0
 10
-0.5980005214
 20
-22.724479664
 30
0.0
 10
-0.5989792135
 20
-22.7300301026
 30
0.0
 11
-2.1793632407
 21
-22.7300025609
 31
0.0
 11
-2.1626589913
 21
-22.7285757078
 31
0.0
 11
-2.1116388147
 21
-22.7271934846
 31
0.0
 11
-2.0296163596
 21
-22.7259486549
 31
0.0
 11
-1.919741521
 21
-22.7248795572
 31
0.0
 11
-1.7850814522
 21
-22.7240243589
 31
0.0
 11
-1.6345540273
 21
-22.7234402146
 31
0.0
 11
-1.473564248
 21
-22.7231419841
 31
0.0
 11
-1.3067426135
 21
-22.7231436545
 31
0.0
 11
-1.1452117637
 21
-22.7234464081
 31
0.0
 11
-0.9946452636
 21
-22.7240339199
 31
0.0
 11
-0.8596295497
 21
-22.7248936211
 31
0.0
 11
-0.7492406993
 21
-22.7259692446
 31
0.0
 11
-0.6670209286
 21
-22.7272174844
 31
0.0
 11
-0.6158269958
 21
-22.7286021334
 31
0.0
 11
-0.5989792135
 21
-22.7300301026
 31
0.0
  0
SPLINE
  5
892
100
AcDbEntity
  8
0
100
AcDbSpline
 62
7
  6
CONTINUOUS
 70
0
 71
3
 72
9
 73
5
 74
3
 42
0.0000001
 43
0.0000001
 44
0.0000000001
 12
0.0694218582
 22
0.0
 32
0.0
 13
0.0623748912
 23
-0.0310631001
 33
0.0
 40
0.0
 40
0.0
 40
0.0
 40
0.0
 40
0.5364744838
 40
1.0
 40
1.0
 40
1.0
 40
1.0
 10
0.2605239894
 20
-22.697691064
 30
0.0
 10
0.2729383412
 20
-22.697691064
 30
0.0
 10
0.2962035961
 20
-22.7005824771
 30
0.0
 10
0.3180031021
 20
-22.7087597829
 30
0.0
 10
0.3276405533
 20
-22.7135592961
 30
0.0
 11
0.2605239894
 21
-22.697691064
 31
0.0
 11
0.2974789227
 21
-22.7023147084
 31
0.0
 11
0.3276405533
 21
-22.7135592961
 31
0.0
  0
SPLINE
  5
893
100
AcDbEntity
  8
0
100
AcDbSpline
 62
7
  6
CONTINUOUS
 70
0
 71
3
 72
9
 73
5
 74
3
 42
0.0000001
 43
0.0000001
 44
0.0000000001
 12
0.0623255639
 22
0.0311053481
 32
0.0
 13
0.0694365073
 23
0.0
 33
0.0
 40
0.0
 40
0.0
 40
0.0
 40
0.0
 40
0.4676966525
 40
1.0
 40
1.0
 40
1.0
 40
1.0
 10
-0.5142119181
 20
-22.7135608326
 30
0.0
 10
-0.5044954323
 20
-22.7087115435
 30
0.0
 10
-0.4826576926
 20
-22.7005657201
 30
0.0
 10
-0.4593983548
 20
-22.697691064
 30
0.0
 10
-0.4470779263
 20
-22.697691064
 30
0.0
 11
-0.5142119181
 21
-22.7135608326
 31
0.0
 11
-0.4837575962
 21
-22.7022450108
 31
0.0
 11
-0.4470779263
 21
-22.697691064
 31
0.0
  0
SPLINE
  5
894
100
AcDbEntity
  8
0
100
AcDbSpline
 62
7
  6
CONTINUOUS
 70
0
 71
3
 72
9
 73
5
 74
3
 42
0.0000001
 43
0.0000001
 44
0.0000000001
 12
-0.0311053481
 22
0.0623255639
 32
0.0
 13
0.0
 23
0.0694365073
 33
0.0
 40
0.0
 40
0.0
 40
0.0
 40
0.0
 40
0.4676966525
 40
1.0
 40
1.0
 40
1.0
 40
1.0
 10
22.3975417371
 20
-11.8936770767
 30
0.0
 10
22.392692448
 20
-11.8839605908
 30
0.0
 10
22.3845466246
 20
-11.8621228511
 30
0.0
 10
22.3816719685
 20
-11.8388635133
 30
0.0
 10
22.3816719685
 20
-11.8265430849
 30
0.0
 11
22.3975417371
 21
-11.8936770767
 31
0.0
 11
22.3862259153
 21
-11.8632227547
 31
0.0
 11
22.3816719685
 21
-11.8265430849
 31
0.0
  0
SPLINE
  5
895
100
AcDbEntity
  8
0
100
AcDbSpline
 62
7
  6
CONTINUOUS
 70
0
 71
3
 72
9
 73
5
 74
3
 42
0.0000001
 43
0.0000001
 44
0.0000000001
 12
0.0
 22
0.0694218582
 32
0.0
 13
0.0310631001
 23
0.0623748912
 33
0.0
 40
0.0
 40
0.0
 40
0.0
 40
0.0
 40
0.5364744838
 40
1.0
 40
1.0
 40
1.0
 40
1.0
 10
22.3816719685
 20
-11.1189411692
 30
0.0
 10
22.3816719685
 20
-11.1065268173
 30
0.0
 10
22.3845633816
 20
-11.0832615625
 30
0.0
 10
22.3927406874
 20
-11.0614620564
 30
0.0
 10
22.3975402006
 20
-11.0518246052
 30
0.0
 11
22.3816719685
 21
-11.1189411692
 31
0.0
 11
22.3862956129
 21
-11.0819862358
 31
0.0
 11
22.3975402006
 21
-11.0518246052
 31
0.0
  0
SPLINE
  5
896
100
AcDbEntity
  8
0
100
AcDbSpline
 62
7
  6
CONTINUOUS
 70
0
 71
3
 72
22
 73
18
 74
16
 42
0.0000001
 43
0.0000001
 44
0.0000000001
 12
-1.5267233894
 22
-0.4090842993
 32
0.0
 13
1.5565677919
 23
-0.274464899
 33
0.0
 40
0.0
 40
0.0
 40
0.0
 40
0.0
 40
0.0106069131
 40
0.0428981511
 40
0.0947980119
 40
0.1643168056
 40
0.2495151212
 40
0.3447513789
 40
0.4466064061
 40
0.5521509509
 40
0.6543483068
 40
0.7496092946
 40
0.835032633
 40
0.9048766558
 40
0.9569013726
 40
0.9893025437
 40
1.0
 40
1.0
 40
1.0
 40
1.0
 10
22.4139834654
 20
-13.5588283992
 30
0.0
 10
22.4085855246
 20
-13.5602747731
 30
0.0
 10
22.4184891036
 20
-13.5205297988
 30
0.0
 10
22.4068891077
 20
-13.4870599368
 30
0.0
 10
22.4114853612
 20
-13.3970587305
 30
0.0
 10
22.4080803125
 20
-13.2919721522
 30
0.0
 10
22.4081360738
 20
-13.1589216888
 30
0.0
 10
22.4072968632
 20
-13.0106354028
 30
0.0
 10
22.407084912
 20
-12.8510493719
 30
0.0
 10
22.4070871402
 20
-12.6880059995
 30
0.0
 10
22.4073006257
 20
-12.5282346903
 30
0.0
 10
22.4081513342
 20
-12.3796065228
 30
0.0
 10
22.4080762278
 20
-12.2463442626
 30
0.0
 10
22.4115557543
 20
-12.1406564484
 30
0.0
 10
22.4068044492
 20
-12.0509585525
 30
0.0
 10
22.4187056688
 20
-12.0162348585
 30
0.0
 10
22.4084605685
 20
-11.97746568
 30
0.0
 10
22.4140110071
 20
-11.9784443721
 30
0.0
 11
22.4139834654
 21
-13.5588283992
 31
0.0
 11
22.4125566123
 21
-13.5421241498
 31
0.0
 11
22.4111743891
 21
-13.4911039732
 31
0.0
 11
22.4099295594
 21
-13.4090815182
 31
0.0
 11
22.4088604617
 21
-13.2992066795
 31
0.0
 11
22.4080052633
 21
-13.1645466107
 31
0.0
 11
22.4074211191
 21
-13.0140191858
 31
0.0
 11
22.4071228886
 21
-12.8530294065
 31
0.0
 11
22.407124559
 21
-12.686207772
 31
0.0
 11
22.4074273126
 21
-12.5246769222
 31
0.0
 11
22.4080148244
 21
-12.3741104221
 31
0.0
 11
22.4088745255
 21
-12.2390947082
 31
0.0
 11
22.4099501491
 21
-12.1287058579
 31
0.0
 11
22.4111983889
 21
-12.0464860872
 31
0.0
 11
22.4125830378
 21
-11.9952921544
 31
0.0
 11
22.4140110071
 21
-11.9784443721
 31
0.0
  0
SPLINE
  5
897
100
AcDbEntity
  8
0
100
AcDbSpline
 62
7
  6
CONTINUOUS
 70
0
 71
3
 72
22
 73
18
 74
16
 42
0.0000001
 43
0.0000001
 44
0.0000000001
 12
-1.5565678042
 22
-0.2744649012
 32
0.0
 13
1.5267234014
 23
-0.4090843025
 33
0.0
 40
0.0
 40
0.0
 40
0.0
 40
0.0
 40
0.0106836601
 40
0.0430523343
 40
0.0950513171
 40
0.1648856898
 40
0.2502986446
 40
0.3455540876
 40
0.4477577142
 40
0.553309389
 40
0.65517134
 40
0.7504241478
 40
0.8356383434
 40
0.9051674104
 40
0.957083401
 40
0.9893883296
 40
1.0
 40
1.0
 40
1.0
 40
1.0
 10
22.4140110071
 20
-10.967039882
 30
0.0
 10
22.4084677267
 20
-10.9680173119
 30
0.0
 10
22.4186991302
 20
-10.9292906904
 30
0.0
 10
22.4068079667
 20
-10.8945928375
 30
0.0
 10
22.4115569359
 20
-10.8049328791
 30
0.0
 10
22.4080771161
 20
-10.6992697378
 30
0.0
 10
22.4081520791
 20
-10.5660206023
 30
0.0
 10
22.4073010073
 20
-10.4173976727
 30
0.0
 10
22.4070872712
 20
-10.2576221638
 30
0.0
 10
22.4070847861
 20
-10.0945680976
 30
0.0
 10
22.407296533
 20
-9.9349659423
 30
0.0
 10
22.4081356183
 20
-9.7866589459
 30
0.0
 10
22.4080796624
 20
-9.6535858716
 30
0.0
 10
22.4114850083
 20
-9.5484773504
 30
0.0
 10
22.4068871376
 20
-9.4584528371
 30
0.0
 10
22.4184917583
 20
-9.4249710448
 30
0.0
 10
22.4085831036
 20
-9.3852088323
 30
0.0
 10
22.4139834654
 20
-9.3866558549
 30
0.0
 11
22.4140110071
 21
-10.967039882
 31
0.0
 11
22.4125839457
 21
-10.9502139069
 31
0.0
 11
22.4111998291
 21
-10.899071342
 31
0.0
 11
22.409951524
 21
-10.8168922509
 31
0.0
 11
22.4088755462
 21
-10.7065186565
 31
0.0
 11
22.4080155598
 21
-10.5715193559
 31
0.0
 11
22.4074277532
 21
-10.4209616199
 31
0.0
 11
22.4071246943
 21
-10.2594208581
 31
0.0
 11
22.4071227667
 21
-10.0925879527
 31
0.0
 11
22.4074207733
 21
-9.9315872281
 31
0.0
 11
22.4080047802
 21
-9.7810336425
 31
0.0
 11
22.4088599024
 21
-9.646348472
 31
0.0
 11
22.4099289004
 21
-9.5364573929
 31
0.0
 11
22.4111738152
 21
-9.4544094413
 31
0.0
 11
22.4125562983
 21
-9.4033676243
 31
0.0
 11
22.4139834654
 21
-9.3866558549
 31
0.0
  0
LINE
  5
898
100
AcDbEntity
  8
DRAFT
100
AcDbLine
 62
7
  6
CONTINUOUS
 10
-24.860618475
 20
-21.3341773828
 11
-25.0665882412
 21
-21.4099133416
  0
SPLINE
  5
899
100
AcDbEntity
  8
0
100
AcDbSpline
 62
7
  6
CONTINUOUS
 70
0
 71
3
 72
22
 73
18
 74
16
 42
0.0000001
 43
0.0000001
 44
0.0000000001
 12
-1.5565678042
 22
-0.2744649012
 32
0.0
 13
1.5267234014
 23
-0.4090843025
 33
0.0
 40
0.0
 40
0.0
 40
0.0
 40
0.0
 40
0.0106836601
 40
0.0430523343
 40
0.0950513171
 40
0.1648856898
 40
0.2502986446
 40
0.3455540876
 40
0.4477577142
 40
0.553309389
 40
0.65517134
 40
0.7504241478
 40
0.8356383434
 40
0.9051674104
 40
0.957083401
 40
0.9893883296
 40
1.0
 40
1.0
 40
1.0
 40
1.0
 10
22.4140110071
 20
11.532960118
 30
0.0
 10
22.4084677267
 20
11.5319826881
 30
0.0
 10
22.4186991302
 20
11.5707093096
 30
0.0
 10
22.4068079667
 20
11.6054071625
 30
0.0
 10
22.4115569359
 20
11.6950671209
 30
0.0
 10
22.4080771161
 20
11.8007302622
 30
0.0
 10
22.4081520791
 20
11.9339793977
 30
0.0
 10
22.4073010073
 20
12.0826023273
 30
0.0
 10
22.4070872712
 20
12.2423778362
 30
0.0
 10
22.4070847861
 20
12.4054319024
 30
0.0
 10
22.407296533
 20
12.5650340577
 30
0.0
 10
22.4081356183
 20
12.7133410541
 30
0.0
 10
22.4080796624
 20
12.8464141284
 30
0.0
 10
22.4114850083
 20
12.9515226496
 30
0.0
 10
22.4068871376
 20
13.0415471629
 30
0.0
 10
22.4184917583
 20
13.0750289552
 30
0.0
 10
22.4085831036
 20
13.1147911677
 30
0.0
 10
22.4139834654
 20
13.1133441451
 30
0.0
 11
22.4140110071
 21
11.532960118
 31
0.0
 11
22.4125839457
 21
11.5497860931
 31
0.0
 11
22.4111998291
 21
11.600928658
 31
0.0
 11
22.409951524
 21
11.6831077491
 31
0.0
 11
22.4088755462
 21
11.7934813435
 31
0.0
 11
22.4080155598
 21
11.9284806441
 31
0.0
 11
22.4074277532
 21
12.0790383801
 31
0.0
 11
22.4071246943
 21
12.2405791419
 31
0.0
 11
22.4071227667
 21
12.4074120473
 31
0.0
 11
22.4074207733
 21
12.5684127719
 31
0.0
 11
22.4080047802
 21
12.7189663575
 31
0.0
 11
22.4088599024
 21
12.853651528
 31
0.0
 11
22.4099289004
 21
12.9635426071
 31
0.0
 11
22.4111738152
 21
13.0455905587
 31
0.0
 11
22.4125562983
 21
13.0966323757
 31
0.0
 11
22.4139834654
 21
13.1133441451
 31
0.0
  0
SPLINE
  5
89A
100
AcDbEntity
  8
0
100
AcDbSpline
 62
7
  6
CONTINUOUS
 70
0
 71
3
 72
22
 73
18
 74
16
 42
0.0000001
 43
0.0000001
 44
0.0000000001
 12
-1.5267233894
 22
-0.4090842992
 32
0.0
 13
1.5565677919
 23
-0.274464899
 33
0.0
 40
0.0
 40
0.0
 40
0.0
 40
0.0
 40
0.0106069131
 40
0.0428981511
 40
0.0947980119
 40
0.1643168056
 40
0.2495151212
 40
0.3447513789
 40
0.4466064061
 40
0.5521509509
 40
0.6543483068
 40
0.7496092946
 40
0.835032633
 40
0.9048766558
 40
0.9569013726
 40
0.9893025437
 40
1.0
 40
1.0
 40
1.0
 40
1.0
 10
22.4139834654
 20
8.9411716008
 30
0.0
 10
22.4085855246
 20
8.9397252269
 30
0.0
 10
22.4184891036
 20
8.9794702012
 30
0.0
 10
22.4068891077
 20
9.0129400632
 30
0.0
 10
22.4114853612
 20
9.1029412695
 30
0.0
 10
22.4080803125
 20
9.2080278478
 30
0.0
 10
22.4081360738
 20
9.3410783112
 30
0.0
 10
22.4072968632
 20
9.4893645972
 30
0.0
 10
22.407084912
 20
9.6489506281
 30
0.0
 10
22.4070871402
 20
9.8119940005
 30
0.0
 10
22.4073006257
 20
9.9717653097
 30
0.0
 10
22.4081513342
 20
10.1203934772
 30
0.0
 10
22.4080762278
 20
10.2536557374
 30
0.0
 10
22.4115557543
 20
10.3593435516
 30
0.0
 10
22.4068044492
 20
10.4490414475
 30
0.0
 10
22.4187056688
 20
10.4837651415
 30
0.0
 10
22.4084605685
 20
10.52253432
 30
0.0
 10
22.4140110071
 20
10.5215556279
 30
0.0
 11
22.4139834654
 21
8.9411716008
 31
0.0
 11
22.4125566123
 21
8.9578758502
 31
0.0
 11
22.4111743891
 21
9.0088960268
 31
0.0
 11
22.4099295594
 21
9.0909184818
 31
0.0
 11
22.4088604617
 21
9.2007933205
 31
0.0
 11
22.4080052633
 21
9.3354533893
 31
0.0
 11
22.4074211191
 21
9.4859808142
 31
0.0
 11
22.4071228886
 21
9.6469705935
 31
0.0
 11
22.407124559
 21
9.813792228
 31
0.0
 11
22.4074273126
 21
9.9753230778
 31
0.0
 11
22.4080148244
 21
10.1258895779
 31
0.0
 11
22.4088745255
 21
10.2609052918
 31
0.0
 11
22.4099501491
 21
10.3712941421
 31
0.0
 11
22.4111983889
 21
10.4535139128
 31
0.0
 11
22.4125830378
 21
10.5047078456
 31
0.0
 11
22.4140110071
 21
10.5215556279
 31
0.0
  0
SPLINE
  5
89B
100
AcDbEntity
  8
0
100
AcDbSpline
 62
7
  6
CONTINUOUS
 70
0
 71
3
 72
9
 73
5
 74
3
 42
0.0000001
 43
0.0000001
 44
0.0000000001
 12
0.0
 22
0.0694218582
 32
0.0
 13
0.0310631001
 23
0.0623748912
 33
0.0
 40
0.0
 40
0.0
 40
0.0
 40
0.0
 40
0.5364744838
 40
1.0
 40
1.0
 40
1.0
 40
1.0
 10
22.3816719685
 20
11.3810588308
 30
0.0
 10
22.3816719685
 20
11.3934731827
 30
0.0
 10
22.3845633816
 20
11.4167384375
 30
0.0
 10
22.3927406874
 20
11.4385379436
 30
0.0
 10
22.3975402006
 20
11.4481753948
 30
0.0
 11
22.3816719685
 21
11.3810588308
 31
0.0
 11
22.3862956129
 21
11.4180137642
 31
0.0
 11
22.3975402006
 21
11.4481753948
 31
0.0
  0
SPLINE
  5
89C
100
AcDbEntity
  8
0
100
AcDbSpline
 62
7
  6
CONTINUOUS
 70
0
 71
3
 72
9
 73
5
 74
3
 42
0.0000001
 43
0.0000001
 44
0.0000000001
 12
-0.0311053481
 22
0.0623255639
 32
0.0
 13
0.0
 23
0.0694365073
 33
0.0
 40
0.0
 40
0.0
 40
0.0
 40
0.0
 40
0.4676966525
 40
1.0
 40
1.0
 40
1.0
 40
1.0
 10
22.3975417371
 20
10.6063229233
 30
0.0
 10
22.392692448
 20
10.6160394092
 30
0.0
 10
22.3845466246
 20
10.6378771489
 30
0.0
 10
22.3816719685
 20
10.6611364867
 30
0.0
 10
22.3816719685
 20
10.6734569151
 30
0.0
 11
22.3975417371
 21
10.6063229233
 31
0.0
 11
22.3862259153
 21
10.6367772453
 31
0.0
 11
22.3816719685
 21
10.6734569151
 31
0.0
  0
SPLINE
  5
89D
100
AcDbEntity
  8
RACCORDO
100
AcDbSpline
 62
7
  6
CONTINUOUS
 70
0
 71
3
 72
10
 73
6
 74
4
 42
0.0000001
 43
0.0000001
 44
0.0000000001
 12
-0.0
 22
0.2027241129
 32
0.0
 13
0.2027241129
 23
-0.0
 33
0.0
 40
0.0
 40
0.0
 40
0.0
 40
0.0
 40
0.1431553573
 40
0.5064987902
 40
1.0
 40
1.0
 40
1.0
 40
1.0
 10
-5.9932769685
 20
-26.0213492476
 30
0.0
 10
-5.9932769685
 20
-26.0116755667
 30
0.0
 10
-5.942487649
 20
-26.0095094832
 30
0.0
 10
-5.889541219
 20
-25.9990842399
 30
0.0
 10
-5.8266251668
 20
-25.9990554612
 30
0.0
 10
-5.7932769685
 20
-25.9990554612
 30
0.0
 11
-5.9932769685
 21
-26.0213492476
 31
0.0
 11
-5.9664820492
 21
-26.0102023544
 31
0.0
 11
-5.8932769685
 21
-26.0020422622
 31
0.0
 11
-5.7932769685
 21
-25.9990554612
 31
0.0
  0
SPLINE
  5
89E
100
AcDbEntity
  8
RACCORDO
100
AcDbSpline
 62
7
  6
CONTINUOUS
 70
0
 71
3
 72
10
 73
6
 74
4
 42
0.0000001
 43
0.0000001
 44
0.0000000001
 12
0.5426098251
 22
0.0
 32
0.0
 13
0.0
 23
-0.5426098251
 33
0.0
 40
0.0
 40
0.0
 40
0.0
 40
0.0
 40
0.1855690544
 40
0.5377706148
 40
1.0
 40
1.0
 40
1.0
 40
1.0
 10
-25.1477335016
 20
4.177257873
 30
0.0
 10
-25.1141696376
 20
4.177257873
 30
0.0
 10
-25.0450997343
 20
4.0786890525
 30
0.0
 10
-25.011227804
 20
3.9116260558
 30
0.0
 10
-24.9973806018
 20
3.7608612749
 30
0.0
 10
-24.9973806018
 20
3.677257873
 30
0.0
 11
-25.1477335016
 21
4.177257873
 31
0.0
 11
-25.0725570517
 21
4.1102705749
 31
0.0
 11
-25.0175240709
 21
3.927257873
 31
0.0
 11
-24.9973806018
 21
3.677257873
 31
0.0
  0
SPLINE
  5
89F
100
AcDbEntity
  8
RACCORDO
100
AcDbSpline
 62
7
  6
CONTINUOUS
 70
0
 71
3
 72
10
 73
6
 74
4
 42
0.0000001
 43
0.0000001
 44
0.0000000001
 12
-0.5426098251
 22
0.0
 32
0.0
 13
0.0
 23
0.5426098251
 33
0.0
 40
0.0
 40
0.0
 40
0.0
 40
0.0
 40
0.1855690544
 40
0.5377706148
 40
1.0
 40
1.0
 40
1.0
 40
1.0
 10
24.9611795646
 20
-4.622742127
 30
0.0
 10
24.9276157006
 20
-4.622742127
 30
0.0
 10
24.8585457973
 20
-4.5241733066
 30
0.0
 10
24.8246738671
 20
-4.3571103098
 30
0.0
 10
24.8108266649
 20
-4.206345529
 30
0.0
 10
24.8108266649
 20
-4.122742127
 30
0.0
 11
24.9611795646
 21
-4.622742127
 31
0.0
 11
24.8860031148
 21
-4.5557548289
 31
0.0
 11
24.8309701339
 21
-4.372742127
 31
0.0
 11
24.8108266649
 21
-4.122742127
 31
0.0
  0
SPLINE
  5
8A0
100
AcDbEntity
  8
RACCORDO
100
AcDbSpline
 62
7
  6
CONTINUOUS
 70
0
 71
3
 72
10
 73
6
 74
4
 42
0.0000001
 43
0.0000001
 44
0.0000000001
 12
-0.2027241129
 22
0.0
 32
0.0
 13
0.0
 23
0.2027241129
 33
0.0
 40
0.0
 40
0.0
 40
0.0
 40
0.0
 40
0.4935012098
 40
0.8568446427
 40
1.0
 40
1.0
 40
1.0
 40
1.0
 10
-5.7932769685
 20
25.5535712071
 30
0.0
 10
-5.8266251668
 20
25.5535712071
 30
0.0
 10
-5.889541219
 20
25.5535999859
 30
0.0
 10
-5.942487649
 20
25.5640252291
 30
0.0
 10
-5.9932769685
 20
25.5661913126
 30
0.0
 10
-5.9932769685
 20
25.5758649936
 30
0.0
 11
-5.7932769685
 21
25.5535712071
 31
0.0
 11
-5.8932769685
 21
25.5565580082
 31
0.0
 11
-5.9664820492
 21
25.5647181003
 31
0.0
 11
-5.9932769685
 21
25.5758649936
 31
0.0
  0
SPLINE
  5
8A1
100
AcDbEntity
  8
RACCORDO
100
AcDbSpline
 62
7
  6
CONTINUOUS
 70
0
 71
3
 72
10
 73
6
 74
4
 42
0.0000001
 43
0.0000001
 44
0.0000000001
 12
0.0
 22
-0.2027241129
 32
0.0
 13
-0.2027241129
 23
0.0
 33
0.0
 40
0.0
 40
0.0
 40
0.0
 40
0.0
 40
0.1431553573
 40
0.5064987902
 40
1.0
 40
1.0
 40
1.0
 40
1.0
 10
5.8067230315
 20
25.5758649936
 30
0.0
 10
5.8067230315
 20
25.5661913126
 30
0.0
 10
5.755933712
 20
25.5640252291
 30
0.0
 10
5.702987282
 20
25.5535999859
 30
0.0
 10
5.6400712298
 20
25.5535712071
 30
0.0
 10
5.6067230315
 20
25.5535712071
 30
0.0
 11
5.8067230315
 21
25.5758649936
 31
0.0
 11
5.7799281123
 21
25.5647181003
 31
0.0
 11
5.7067230315
 21
25.5565580082
 31
0.0
 11
5.6067230315
 21
25.5535712071
 31
0.0
  0
SPLINE
  5
8A2
100
AcDbEntity
  8
RACCORDO
100
AcDbSpline
 62
7
  6
CONTINUOUS
 70
0
 71
3
 72
10
 73
6
 74
4
 42
0.0000001
 43
0.0000001
 44
0.0000000001
 12
0.2027241129
 22
0.0
 32
0.0
 13
-0.0
 23
-0.2027241129
 33
0.0
 40
0.0
 40
0.0
 40
0.0
 40
0.0
 40
0.4935012098
 40
0.8568446427
 40
1.0
 40
1.0
 40
1.0
 40
1.0
 10
5.6067230315
 20
-25.9990554612
 30
0.0
 10
5.6400712298
 20
-25.9990554612
 30
0.0
 10
5.702987282
 20
-25.9990842399
 30
0.0
 10
5.755933712
 20
-26.0095094832
 30
0.0
 10
5.8067230315
 20
-26.0116755667
 30
0.0
 10
5.8067230315
 20
-26.0213492476
 30
0.0
 11
5.6067230315
 21
-25.9990554612
 31
0.0
 11
5.7067230315
 21
-26.0020422622
 31
0.0
 11
5.7799281123
 21
-26.0102023544
 31
0.0
 11
5.8067230315
 21
-26.0213492476
 31
0.0
  0
SPLINE
  5
8A3
100
AcDbEntity
  8
0
100
AcDbSpline
 62
7
  6
CONTINUOUS
 70
0
 71
3
 72
23
 73
19
 74
17
 42
0.0000001
 43
0.0000001
 44
0.0000000001
 12
-0.4033434024
 22
0.0816603911
 32
0.0
 13
0.35973916
 23
0.1998550889
 33
0.0
 40
0.0
 40
0.0
 40
0.0
 40
0.0
 40
0.0839852696
 40
0.1454739157
 40
0.1903135189
 40
0.2151276392
 40
0.2422674765
 40
0.2756602145
 40
0.3101971135
 40
0.3660976711
 40
0.4252706012
 40
0.4729399321
 40
0.5268480549
 40
0.5896680247
 40
0.6649404494
 40
0.7557018229
 40
0.8657807709
 40
1.0
 40
1.0
 40
1.0
 40
1.0
 10
15.5600600768
 20
-26.8025380241
 30
0.0
 10
15.548768442
 20
-26.8002519342
 30
0.0
 10
15.5293483279
 20
-26.7956973716
 30
0.0
 10
15.5044755973
 20
-26.787227847
 30
0.0
 10
15.4890071858
 20
-26.7779828322
 30
0.0
 10
15.4779017948
 20
-26.770571361
 30
0.0
 10
15.471253547
 20
-26.7602269633
 30
0.0
 10
15.4713260864
 20
-26.7468056156
 30
0.0
 10
15.4747714676
 20
-26.7298075013
 30
0.0
 10
15.4900243134
 20
-26.7147987638
 30
0.0
 10
15.5060691742
 20
-26.6996482636
 30
0.0
 10
15.5232185605
 20
-26.6856772313
 30
0.0
 10
15.5406599335
 20
-26.6714108843
 30
0.0
 10
15.5617069744
 20
-26.655550029
 30
0.0
 10
15.5876973098
 20
-26.6379204388
 30
0.0
 10
15.620027089
 20
-26.6181772799
 30
0.0
 10
15.6599887262
 20
-26.5954093202
 30
0.0
 10
15.6906283939
 20
-26.5816835923
 30
0.0
 10
15.7067230315
 20
-26.572742127
 30
0.0
 11
15.5600600768
 21
-26.8025380241
 31
0.0
 11
15.5264809917
 21
-26.7943532786
 31
0.0
 11
15.5027527663
 21
-26.7855626469
 31
0.0
 11
15.4867380591
 21
-26.7763957903
 31
0.0
 11
15.4786051959
 21
-26.7702204474
 31
0.0
 11
15.472697777
 21
-26.7607418482
 31
0.0
 11
15.4717694142
 21
-26.7470312354
 31
0.0
 11
15.475154733
 21
-26.7332274313
 31
0.0
 11
15.4895994469
 21
-26.7153232175
 31
0.0
 11
15.5074685427
 21
-26.6987799812
 31
0.0
 11
15.5225397734
 21
-26.6862223998
 31
0.0
 11
15.5398022594
 21
-26.6722880988
 31
0.0
 11
15.5604547564
 21
-26.6567380007
 31
0.0
 11
15.5860584455
 21
-26.6393023427
 31
0.0
 11
15.6178545539
 21
-26.6197042512
 31
0.0
 11
15.6574147184
 21
-26.5976333847
 31
0.0
 11
15.7067230315
 21
-26.572742127
 31
0.0
  0
SPLINE
  5
8A4
100
AcDbEntity
  8
RACCORDO
100
AcDbSpline
 62
7
  6
CONTINUOUS
 70
0
 71
3
 72
10
 73
6
 74
4
 42
0.0000001
 43
0.0000001
 44
0.0000000001
 12
-0.5078703696
 22
0.0
 32
0.0
 13
-0.0
 23
-0.5078703696
 33
0.0
 40
0.0
 40
0.0
 40
0.0
 40
0.0
 40
0.4925065735
 40
0.8554508995
 40
1.0
 40
1.0
 40
1.0
 40
1.0
 10
18.3567230315
 20
-25.8759484618
 30
0.0
 10
18.273346533
 20
-25.8759484618
 30
0.0
 10
18.1164407573
 20
-25.8770286564
 30
0.0
 10
17.9825597756
 20
-25.9022866411
 30
0.0
 10
17.8567230315
 20
-25.9115461462
 30
0.0
 10
17.8567230315
 20
-25.9360168812
 30
0.0
 11
18.3567230315
 21
-25.8759484618
 31
0.0
 11
18.1067230315
 21
-25.883996104
 31
0.0
 11
17.9237103296
 21
-25.9059826715
 31
0.0
 11
17.8567230315
 21
-25.9360168812
 31
0.0
  0
SPLINE
  5
8A5
100
AcDbEntity
  8
RACCORDO
100
AcDbSpline
 62
7
  6
CONTINUOUS
 70
0
 71
3
 72
10
 73
6
 74
4
 42
0.0000001
 43
0.0000001
 44
0.0000000001
 12
0.0
 22
0.5078703696
 32
0.0
 13
-0.5078703696
 23
-0.0
 33
0.0
 40
0.0
 40
0.0
 40
0.0
 40
0.0
 40
0.1445491005
 40
0.5074934265
 40
1.0
 40
1.0
 40
1.0
 40
1.0
 10
22.7567230315
 20
-25.9360168812
 30
0.0
 10
22.7567230315
 20
-25.9115461462
 30
0.0
 10
22.6308862875
 20
-25.9022866411
 30
0.0
 10
22.4970053057
 20
-25.8770286564
 30
0.0
 10
22.34009953
 20
-25.8759484618
 30
0.0
 10
22.2567230315
 20
-25.8759484618
 30
0.0
 11
22.7567230315
 21
-25.9360168812
 31
0.0
 11
22.6897357334
 21
-25.9059826715
 31
0.0
 11
22.5067230315
 21
-25.883996104
 31
0.0
 11
22.2567230315
 21
-25.8759484618
 31
0.0
  0
SPLINE
  5
8A6
100
AcDbEntity
  8
RACCORDO
100
AcDbSpline
 62
7
  6
CONTINUOUS
 70
0
 71
3
 72
10
 73
6
 74
4
 42
0.0000001
 43
0.0000001
 44
0.0000000001
 12
0.0
 22
-0.5078703696
 32
0.0
 13
0.5078703696
 23
0.0
 33
0.0
 40
0.0
 40
0.0
 40
0.0
 40
0.0
 40
0.1445491005
 40
0.5074934265
 40
1.0
 40
1.0
 40
1.0
 40
1.0
 10
17.8567230315
 20
25.4744231561
 30
0.0
 10
17.8567230315
 20
25.449952421
 30
0.0
 10
17.9825597756
 20
25.440692916
 30
0.0
 10
18.1164407573
 20
25.4154349313
 30
0.0
 10
18.273346533
 20
25.4143547367
 30
0.0
 10
18.3567230315
 20
25.4143547367
 30
0.0
 11
17.8567230315
 21
25.4744231561
 31
0.0
 11
17.9237103296
 21
25.4443889464
 31
0.0
 11
18.1067230315
 21
25.4224023789
 31
0.0
 11
18.3567230315
 21
25.4143547367
 31
0.0
  0
SPLINE
  5
8A7
100
AcDbEntity
  8
RACCORDO
100
AcDbSpline
 62
7
  6
CONTINUOUS
 70
0
 71
3
 72
10
 73
6
 74
4
 42
0.0000001
 43
0.0000001
 44
0.0000000001
 12
0.5078703696
 22
0.0
 32
0.0
 13
-0.0
 23
0.5078703696
 33
0.0
 40
0.0
 40
0.0
 40
0.0
 40
0.0
 40
0.4925065735
 40
0.8554508995
 40
1.0
 40
1.0
 40
1.0
 40
1.0
 10
20.1067230315
 20
25.4143547367
 30
0.0
 10
20.19009953
 20
25.4143547367
 30
0.0
 10
20.3470053057
 20
25.4154349313
 30
0.0
 10
20.4808862875
 20
25.440692916
 30
0.0
 10
20.6067230315
 20
25.449952421
 30
0.0
 10
20.6067230315
 20
25.4744231561
 30
0.0
 11
20.1067230315
 21
25.4143547367
 31
0.0
 11
20.3567230315
 21
25.4224023789
 31
0.0
 11
20.5397357334
 21
25.4443889464
 31
0.0
 11
20.6067230315
 21
25.4744231561
 31
0.0
  0
SPLINE
  5
8A8
100
AcDbEntity
  8
RACCORDO
100
AcDbSpline
 62
7
  6
CONTINUOUS
 70
0
 71
3
 72
10
 73
6
 74
4
 42
0.0000001
 43
0.0000001
 44
0.0000000001
 12
0.0
 22
0.5426098251
 32
0.0
 13
-0.5426098251
 23
-0.0
 33
0.0
 40
0.0
 40
0.0
 40
0.0
 40
0.0
 40
0.4622293852
 40
0.8144309456
 40
1.0
 40
1.0
 40
1.0
 40
1.0
 10
-25.7603541624
 20
3.677257873
 30
0.0
 10
-25.7603541624
 20
3.7608612749
 30
0.0
 10
-25.7742013646
 20
3.9116260558
 30
0.0
 10
-25.8080732949
 20
4.0786890525
 30
0.0
 10
-25.8771431982
 20
4.177257873
 30
0.0
 10
-25.9107070622
 20
4.177257873
 30
0.0
 11
-25.7603541624
 21
3.677257873
 31
0.0
 11
-25.7804976315
 21
3.927257873
 31
0.0
 11
-25.8355306123
 21
4.1102705749
 31
0.0
 11
-25.9107070622
 21
4.177257873
 31
0.0
  0
SPLINE
  5
8A9
100
AcDbEntity
  8
RACCORDO
100
AcDbSpline
 62
7
  6
CONTINUOUS
 70
0
 71
3
 72
10
 73
6
 74
4
 42
0.0000001
 43
0.0000001
 44
0.0000000001
 12
0.0
 22
-0.5078703696
 32
0.0
 13
0.5078703696
 23
0.0
 33
0.0
 40
0.0
 40
0.0
 40
0.0
 40
0.0
 40
0.1445491005
 40
0.5074934265
 40
1.0
 40
1.0
 40
1.0
 40
1.0
 10
-22.9432769685
 20
25.4744231561
 30
0.0
 10
-22.9432769685
 20
25.449952421
 30
0.0
 10
-22.8174402244
 20
25.440692916
 30
0.0
 10
-22.6835592427
 20
25.4154349313
 30
0.0
 10
-22.526653467
 20
25.4143547367
 30
0.0
 10
-22.4432769685
 20
25.4143547367
 30
0.0
 11
-22.9432769685
 21
25.4744231561
 31
0.0
 11
-22.8762896704
 21
25.4443889464
 31
0.0
 11
-22.6932769685
 21
25.4224023789
 31
0.0
 11
-22.4432769685
 21
25.4143547367
 31
0.0
  0
SPLINE
  5
8AA
100
AcDbEntity
  8
RACCORDO
100
AcDbSpline
 62
7
  6
CONTINUOUS
 70
0
 71
3
 72
10
 73
6
 74
4
 42
0.0000001
 43
0.0000001
 44
0.0000000001
 12
0.5078703696
 22
0.0
 32
0.0
 13
0.0
 23
0.5078703696
 33
0.0
 40
0.0
 40
0.0
 40
0.0
 40
0.0
 40
0.4925065735
 40
0.8554508995
 40
1.0
 40
1.0
 40
1.0
 40
1.0
 10
-18.5432769685
 20
25.4143547367
 30
0.0
 10
-18.45990047
 20
25.4143547367
 30
0.0
 10
-18.3029946943
 20
25.4154349313
 30
0.0
 10
-18.1691137125
 20
25.440692916
 30
0.0
 10
-18.0432769685
 20
25.449952421
 30
0.0
 10
-18.0432769685
 20
25.4744231561
 30
0.0
 11
-18.5432769685
 21
25.4143547367
 31
0.0
 11
-18.2932769685
 21
25.4224023789
 31
0.0
 11
-18.1102642666
 21
25.4443889464
 31
0.0
 11
-18.0432769685
 21
25.4744231561
 31
0.0
  0
SPLINE
  5
8AB
100
AcDbEntity
  8
RACCORDO
100
AcDbSpline
 62
7
  6
CONTINUOUS
 70
0
 71
3
 72
10
 73
6
 74
4
 42
0.0000001
 43
0.0000001
 44
0.0000000001
 12
0.0
 22
-0.5426098251
 32
0.0
 13
0.5426098251
 23
0.0
 33
0.0
 40
0.0
 40
0.0
 40
0.0
 40
0.0
 40
0.4622293852
 40
0.8144309456
 40
1.0
 40
1.0
 40
1.0
 40
1.0
 10
25.5738002255
 20
-4.122742127
 30
0.0
 10
25.5738002255
 20
-4.206345529
 30
0.0
 10
25.5876474276
 20
-4.3571103098
 30
0.0
 10
25.6215193579
 20
-4.5241733066
 30
0.0
 10
25.6905892612
 20
-4.622742127
 30
0.0
 10
25.7241531252
 20
-4.622742127
 30
0.0
 11
25.5738002255
 21
-4.122742127
 31
0.0
 11
25.5939436945
 21
-4.372742127
 31
0.0
 11
25.6489766754
 21
-4.5557548289
 31
0.0
 11
25.7241531252
 21
-4.622742127
 31
0.0
  0
SPLINE
  5
8AC
100
AcDbEntity
  8
RACCORDO
100
AcDbSpline
 62
7
  6
CONTINUOUS
 70
0
 71
3
 72
10
 73
6
 74
4
 42
0.0000001
 43
0.0000001
 44
0.0000000001
 12
0.0
 22
0.5078703696
 32
0.0
 13
-0.5078703696
 23
-0.0
 33
0.0
 40
0.0
 40
0.0
 40
0.0
 40
0.0
 40
0.1445491005
 40
0.5074934265
 40
1.0
 40
1.0
 40
1.0
 40
1.0
 10
-18.0432769685
 20
-25.9199074101
 30
0.0
 10
-18.0432769685
 20
-25.8954366751
 30
0.0
 10
-18.1691137125
 20
-25.88617717
 30
0.0
 10
-18.3029946943
 20
-25.8609191853
 30
0.0
 10
-18.45990047
 20
-25.8598389907
 30
0.0
 10
-18.5432769685
 20
-25.8598389907
 30
0.0
 11
-18.0432769685
 21
-25.9199074101
 31
0.0
 11
-18.1102642666
 21
-25.8898732004
 31
0.0
 11
-18.2932769685
 21
-25.867886633
 31
0.0
 11
-18.5432769685
 21
-25.8598389907
 31
0.0
  0
SPLINE
  5
8AD
100
AcDbEntity
  8
RACCORDO
100
AcDbSpline
 62
7
  6
CONTINUOUS
 70
0
 71
3
 72
10
 73
6
 74
4
 42
0.0000001
 43
0.0000001
 44
0.0000000001
 12
-0.5078703696
 22
0.0
 32
0.0
 13
-0.0
 23
-0.5078703696
 33
0.0
 40
0.0
 40
0.0
 40
0.0
 40
0.0
 40
0.4925065735
 40
0.8554508995
 40
1.0
 40
1.0
 40
1.0
 40
1.0
 10
-20.2932769685
 20
-25.8598389907
 30
0.0
 10
-20.376653467
 20
-25.8598389907
 30
0.0
 10
-20.5335592427
 20
-25.8609191853
 30
0.0
 10
-20.6674402244
 20
-25.88617717
 30
0.0
 10
-20.7932769685
 20
-25.8954366751
 30
0.0
 10
-20.7932769685
 20
-25.9199074101
 30
0.0
 11
-20.2932769685
 21
-25.8598389907
 31
0.0
 11
-20.5432769685
 21
-25.867886633
 31
0.0
 11
-20.7262896704
 21
-25.8898732004
 31
0.0
 11
-20.7932769685
 21
-25.9199074101
 31
0.0
  0
SPLINE
  5
8AE
100
AcDbEntity
  8
RACCORDO
100
AcDbSpline
 62
7
  6
CONTINUOUS
 70
0
 71
3
 72
10
 73
6
 74
4
 42
0.0000001
 43
0.0000001
 44
0.0000000001
 12
-0.2027241129
 22
0.0
 32
0.0
 13
0.0
 23
-0.2027241129
 33
0.0
 40
0.0
 40
0.0
 40
0.0
 40
0.0
 40
0.4935012098
 40
0.8568446427
 40
1.0
 40
1.0
 40
1.0
 40
1.0
 10
-5.7932769685
 20
-26.7940697965
 30
0.0
 10
-5.8266251668
 20
-26.7940697965
 30
0.0
 10
-5.889541219
 20
-26.7940985752
 30
0.0
 10
-5.942487649
 20
-26.8045238185
 30
0.0
 10
-5.9932769685
 20
-26.806689902
 30
0.0
 10
-5.9932769685
 20
-26.816363583
 30
0.0
 11
-5.7932769685
 21
-26.7940697965
 31
0.0
 11
-5.8932769685
 21
-26.7970565975
 31
0.0
 11
-5.9664820492
 21
-26.8052166897
 31
0.0
 11
-5.9932769685
 21
-26.816363583
 31
0.0
  0
SPLINE
  5
8AF
100
AcDbEntity
  8
RACCORDO
100
AcDbSpline
 62
7
  6
CONTINUOUS
 70
0
 71
3
 72
10
 73
6
 74
4
 42
0.0000001
 43
0.0000001
 44
0.0000000001
 12
0.0
 22
0.2027241129
 32
0.0
 13
-0.2027241129
 23
0.0
 33
0.0
 40
0.0
 40
0.0
 40
0.0
 40
0.0
 40
0.1431553573
 40
0.5064987902
 40
1.0
 40
1.0
 40
1.0
 40
1.0
 10
5.8067230315
 20
-26.816363583
 30
0.0
 10
5.8067230315
 20
-26.806689902
 30
0.0
 10
5.755933712
 20
-26.8045238185
 30
0.0
 10
5.702987282
 20
-26.7940985752
 30
0.0
 10
5.6400712298
 20
-26.7940697965
 30
0.0
 10
5.6067230315
 20
-26.7940697965
 30
0.0
 11
5.8067230315
 21
-26.816363583
 31
0.0
 11
5.7799281123
 21
-26.8052166897
 31
0.0
 11
5.7067230315
 21
-26.7970565975
 31
0.0
 11
5.6067230315
 21
-26.7940697965
 31
0.0
  0
SPLINE
  5
8B0
100
AcDbEntity
  8
RACCORDO
100
AcDbSpline
 62
7
  6
CONTINUOUS
 70
0
 71
3
 72
10
 73
6
 74
4
 42
0.0000001
 43
0.0000001
 44
0.0000000001
 12
0.2027241129
 22
0.0
 32
0.0
 13
0.0
 23
0.2027241129
 33
0.0
 40
0.0
 40
0.0
 40
0.0
 40
0.0
 40
0.4935012098
 40
0.8568446427
 40
1.0
 40
1.0
 40
1.0
 40
1.0
 10
5.6067230315
 20
26.3485855425
 30
0.0
 10
5.6400712298
 20
26.3485855425
 30
0.0
 10
5.702987282
 20
26.3486143212
 30
0.0
 10
5.755933712
 20
26.3590395645
 30
0.0
 10
5.8067230315
 20
26.361205648
 30
0.0
 10
5.8067230315
 20
26.3708793289
 30
0.0
 11
5.6067230315
 21
26.3485855425
 31
0.0
 11
5.7067230315
 21
26.3515723435
 31
0.0
 11
5.7799281123
 21
26.3597324357
 31
0.0
 11
5.8067230315
 21
26.3708793289
 31
0.0
  0
SPLINE
  5
8B1
100
AcDbEntity
  8
RACCORDO
100
AcDbSpline
 62
7
  6
CONTINUOUS
 70
0
 71
3
 72
10
 73
6
 74
4
 42
0.0000001
 43
0.0000001
 44
0.0000000001
 12
0.0
 22
-0.2027241129
 32
0.0
 13
0.2027241129
 23
0.0
 33
0.0
 40
0.0
 40
0.0
 40
0.0
 40
0.0
 40
0.1431553573
 40
0.5064987902
 40
1.0
 40
1.0
 40
1.0
 40
1.0
 10
-5.9932769685
 20
26.3708793289
 30
0.0
 10
-5.9932769685
 20
26.361205648
 30
0.0
 10
-5.942487649
 20
26.3590395645
 30
0.0
 10
-5.889541219
 20
26.3486143212
 30
0.0
 10
-5.8266251668
 20
26.3485855425
 30
0.0
 10
-5.7932769685
 20
26.3485855425
 30
0.0
 11
-5.9932769685
 21
26.3708793289
 31
0.0
 11
-5.9664820492
 21
26.3597324357
 31
0.0
 11
-5.8932769685
 21
26.3515723435
 31
0.0
 11
-5.7932769685
 21
26.3485855425
 31
0.0
  0
ELLIPSE
  5
8B2
100
AcDbEntity
  8
RACCORDO
100
AcDbEllipse
 62
7
  6
CONTINUOUS
 10
22.0567230315
 20
21.8574276993
 30
0.0
 11
-0.0
 21
-0.4000152314
 31
-0.0
 40
0.9999619231
 41
1.6591588282
 42
3.1415926536
  0
ELLIPSE
  5
8B3
100
AcDbEntity
  8
RACCORDO
100
AcDbEllipse
 62
7
  6
CONTINUOUS
 10
-22.1734467948
 20
-22.3029119533
 30
0.0
 11
-0.2828642525
 21
-0.2828642525
 31
-0.0
 40
0.9999238505
 41
-0.7853600872
 42
0.7853600872
  0
ELLIPSE
  5
8B4
100
AcDbEntity
  8
RACCORDO
100
AcDbEllipse
 62
7
  6
CONTINUOUS
 10
22.0567230315
 20
21.9621501128
 30
0.0
 11
0.0
 21
0.4000152314
 31
0.0
 40
0.9999619231
 41
-1.5707963268
 42
0.0
  0
ELLIPSE
  5
8B5
100
AcDbEntity
  8
RACCORDO
100
AcDbEllipse
 62
7
  6
CONTINUOUS
 10
-22.2781692083
 20
-22.4076343668
 30
0.0
 11
0.2828642525
 21
0.2828642524
 31
0.0
 40
0.9999238505
 41
-3.9269527408
 42
-2.3562325664
  0
ELLIPSE
  5
8B6
100
AcDbEntity
  8
DRAFT
100
AcDbEllipse
 62
7
  6
CONTINUOUS
 10
-22.5952791956
 20
-16.272742127
 30
0.0
 11
0.0
 21
0.3
 31
0.0
 40
0.0087268678
 41
6.2831879188
 42
7.5478183193
  0
ELLIPSE
  5
8B7
100
AcDbEntity
  8
DRAFT
100
AcDbEllipse
 62
7
  6
CONTINUOUS
 10
24.7356995558
 20
-19.972742127
 30
0.0
 11
0.0
 21
1.7796020939
 31
0.0
 40
0.0174577246
 41
-3.1328666871
 42
-2.7444648556
  0
ELLIPSE
  5
8B8
100
AcDbEntity
  8
DRAFT
100
AcDbEllipse
 62
7
  6
CONTINUOUS
 10
24.7356995558
 20
-19.972742127
 30
0.0
 11
-0.0
 21
1.7796020939
 31
0.0
 40
0.0174577246
 41
-0.3971273739
 42
-0.0087259854
  0
ELLIPSE
  5
8B9
100
AcDbEntity
  8
DRAFT
100
AcDbEllipse
 62
7
  6
CONTINUOUS
 10
-24.9222534928
 20
19.527257873
 30
0.0
 11
-0.0
 21
1.7796020939
 31
0.0
 40
0.0174577246
 41
0.0087259665
 42
0.397127798
  0
ELLIPSE
  5
8BA
100
AcDbEntity
  8
DRAFT
100
AcDbEllipse
 62
7
  6
CONTINUOUS
 10
-24.9222534928
 20
19.527257873
 30
0.0
 11
0.0
 21
1.7796020939
 31
0.0
 40
0.0174577246
 41
-3.5387200275
 42
-3.1503186389
  0
ELLIPSE
  5
8BB
100
AcDbEntity
  8
DRAFT
100
AcDbEllipse
 62
7
  6
CONTINUOUS
 10
-22.621459799
 20
-16.272742127
 30
0.0
 11
0.0
 21
0.3
 31
0.0
 40
0.0087268678
 41
-0.0000122161
 42
1.2566173427
  0
ELLIPSE
  5
8BC
100
AcDbEntity
  8
RACCORDO
100
AcDbEllipse
 62
7
  6
CONTINUOUS
 10
26.7076965217
 20
-8.6815272034
 30
0.0
 11
0.924044409
 21
0.3827517265
 31
0.0
 40
0.9998215708
 41
-0.3926359958
 42
0.3926359958
  0
ELLIPSE
  5
8BD
100
AcDbEntity
  8
RACCORDO
100
AcDbEllipse
 62
7
  6
CONTINUOUS
 10
26.7076965217
 20
8.2360429494
 30
0.0
 11
0.924044409
 21
-0.3827517265
 31
0.0
 40
0.9998215708
 41
-0.3926359958
 42
0.3926359958
  0
ELLIPSE
  5
8BE
100
AcDbEntity
  8
DRAFT
100
AcDbEllipse
 62
7
  6
CONTINUOUS
 10
-24.9740763971
 20
-6.672742127
 30
0.0
 11
-0.0
 21
0.3
 31
0.0
 40
0.0174550649
 41
3.0372345874
 42
3.249004958
  0
ELLIPSE
  5
8BF
100
AcDbEntity
  8
RACCORDO
100
AcDbEllipse
 62
7
  6
CONTINUOUS
 10
-26.8942504586
 20
-8.6815272034
 30
0.0
 11
-0.924044409
 21
0.3827517265
 31
-0.0
 40
0.9998215708
 41
-0.3926359958
 42
0.3926359958
  0
ELLIPSE
  5
8C0
100
AcDbEntity
  8
RACCORDO
100
AcDbEllipse
 62
7
  6
CONTINUOUS
 10
-26.8942504586
 20
8.2360429494
 30
0.0
 11
-0.924044409
 21
-0.3827517265
 31
-0.0
 40
0.9998215708
 41
-0.3926359958
 42
0.3926359958
  0
ELLIPSE
  5
8C1
100
AcDbEntity
  8
DRAFT
100
AcDbEllipse
 62
7
  6
CONTINUOUS
 10
24.7875224601
 20
-6.672742127
 30
0.0
 11
0.0
 21
0.3
 31
0.0
 40
0.0174550649
 41
-3.249004958
 42
-3.0372345874
  0
ELLIPSE
  5
8C2
100
AcDbEntity
  8
RACCORDO
100
AcDbEllipse
 62
7
  6
CONTINUOUS
 10
8.3655081079
 20
-27.0237156172
 30
0.0
 11
-0.3827517265
 21
-0.924044409
 31
-0.0
 40
0.9998215708
 41
-0.3926359958
 42
0.3926359958
  0
ELLIPSE
  5
8C3
100
AcDbEntity
  8
ASSI
100
AcDbEllipse
 62
7
  6
CONTINUOUS
 10
-22.704365043
 20
-0.222742127
 30
0.0
 11
-0.0
 21
5.0
 31
0.0
 40
0.0087268678
 41
-2.4980915448
 42
-0.6435011088
  0
ELLIPSE
  5
8C4
100
AcDbEntity
  8
RACCORDO
100
AcDbEllipse
 62
7
  6
CONTINUOUS
 10
-6.6693460075
 20
-24.848658838
 30
0.0
 11
0.0
 21
1.0
 31
0.0
 40
0.0174550649
 41
-3.1241393611
 42
-1.7501161249
  0
ELLIPSE
  5
8C5
100
AcDbEntity
  8
RACCORDO
100
AcDbEllipse
 62
7
  6
CONTINUOUS
 10
6.4827920705
 20
-24.848658838
 30
0.0
 11
0.0
 21
1.0
 31
0.0
 40
0.0174550649
 41
-4.5330691823
 42
-3.1590459461
  0
ELLIPSE
  5
8C6
100
AcDbEntity
  8
RACCORDO
100
AcDbEllipse
 62
7
  6
CONTINUOUS
 10
-8.5520620449
 20
-27.0237156172
 30
0.0
 11
0.3827517265
 21
-0.924044409
 31
0.0
 40
0.9998215708
 41
-0.3926359958
 42
0.3926359958
  0
ELLIPSE
  5
8C7
100
AcDbEntity
  8
DRAFT
100
AcDbEllipse
 62
7
  6
CONTINUOUS
 10
-24.9740763971
 20
15.827257873
 30
0.0
 11
0.0
 21
0.3
 31
0.0
 40
0.0174550649
 41
3.0372345874
 42
3.249004958
  0
ELLIPSE
  5
8C8
100
AcDbEntity
  8
RACCORDO
100
AcDbEllipse
 62
7
  6
CONTINUOUS
 10
8.3655081079
 20
26.5782313631
 30
0.0
 11
-0.3827517265
 21
0.924044409
 31
-0.0
 40
0.9998215708
 41
-0.3926359958
 42
0.3926359958
  0
ELLIPSE
  5
8C9
100
AcDbEntity
  8
DRAFT
100
AcDbEllipse
 62
7
  6
CONTINUOUS
 10
24.7875224601
 20
15.827257873
 30
0.0
 11
0.0
 21
0.3
 31
0.0
 40
0.0174550649
 41
-3.249004958
 42
-3.0372345874
  0
ELLIPSE
  5
8CA
100
AcDbEntity
  8
RACCORDO
100
AcDbEllipse
 62
7
  6
CONTINUOUS
 10
-8.5520620449
 20
26.5782313631
 30
0.0
 11
0.3827517265
 21
0.924044409
 31
0.0
 40
0.9998215708
 41
-0.3926359958
 42
0.3926359958
  0
ELLIPSE
  5
8CB
100
AcDbEntity
  8
DRAFT
100
AcDbEllipse
 62
7
  6
CONTINUOUS
 10
-22.5952791956
 20
6.227257873
 30
0.0
 11
-0.0
 21
0.3
 31
0.0
 40
0.0087268678
 41
6.2831879188
 42
7.5478183193
  0
ELLIPSE
  5
8CC
100
AcDbEntity
  8
RACCORDO
100
AcDbEllipse
 62
7
  6
CONTINUOUS
 10
-8.5318176959
 20
26.6271055449
 30
0.0
 11
0.3827517265
 21
0.924044409
 31
0.0
 40
0.9998215708
 41
-0.3926359958
 42
0.3926359958
  0
ELLIPSE
  5
8CD
100
AcDbEntity
  8
RACCORDO
100
AcDbEllipse
 62
7
  6
CONTINUOUS
 10
8.3452637589
 20
26.6271055449
 30
0.0
 11
-0.3827517265
 21
0.924044409
 31
0.0
 40
0.9998215708
 41
-0.3926359958
 42
0.3926359958
  0
ELLIPSE
  5
8CE
100
AcDbEntity
  8
RACCORDO
100
AcDbEllipse
 62
7
  6
CONTINUOUS
 10
-26.9431246404
 20
-8.6612828545
 30
0.0
 11
0.924044409
 21
-0.3827517265
 31
0.0
 40
0.9998215708
 41
2.7489566578
 42
3.5342286494
  0
ELLIPSE
  5
8CF
100
AcDbEntity
  8
RACCORDO
100
AcDbEllipse
 62
7
  6
CONTINUOUS
 10
-26.9431246404
 20
8.2157986004
 30
0.0
 11
0.924044409
 21
0.3827517265
 31
0.0
 40
0.9998215708
 41
2.7489566578
 42
3.5342286494
  0
ELLIPSE
  5
8D0
100
AcDbEntity
  8
RACCORDO
100
AcDbEllipse
 62
7
  6
CONTINUOUS
 10
8.3452637589
 20
-27.072589799
 30
0.0
 11
0.3827517265
 21
0.924044409
 31
0.0
 40
0.9998215708
 41
-3.5342286494
 42
-2.7489566578
  0
ELLIPSE
  5
8D1
100
AcDbEntity
  8
RACCORDO
100
AcDbEllipse
 62
7
  6
CONTINUOUS
 10
-8.5318176959
 20
-27.072589799
 30
0.0
 11
-0.3827517265
 21
0.924044409
 31
0.0
 40
0.9998215708
 41
-3.5342286494
 42
-2.7489566578
  0
ELLIPSE
  5
8D2
100
AcDbEntity
  8
RACCORDO
100
AcDbEllipse
 62
7
  6
CONTINUOUS
 10
26.7565707035
 20
8.2157986004
 30
0.0
 11
0.924044409
 21
-0.3827517265
 31
0.0
 40
0.9998215708
 41
-0.3926359958
 42
0.3926359958
  0
ELLIPSE
  5
8D3
100
AcDbEntity
  8
RACCORDO
100
AcDbEllipse
 62
7
  6
CONTINUOUS
 10
26.7565707035
 20
-8.6612828545
 30
0.0
 11
0.924044409
 21
0.3827517265
 31
0.0
 40
0.9998215708
 41
-0.3926359958
 42
0.3926359958
  0
ELLIPSE
  5
8D4
100
AcDbEntity
  8
DRAFT
100
AcDbEllipse
 62
7
  6
CONTINUOUS
 10
-22.621459799
 20
6.227257873
 30
0.0
 11
-0.0
 21
0.3
 31
0.0
 40
0.0087268678
 41
-0.0000122161
 42
1.2566173427
  0
ELLIPSE
  5
8D5
100
AcDbEntity
  8
DRAFT
100
AcDbEllipse
 62
7
  6
CONTINUOUS
 10
-24.8082532802
 20
-0.222742127
 30
0.0
 11
0.0
 21
5.0
 31
0.0
 40
0.0174550649
 41
0.6435011088
 42
2.4980915448
  0
ELLIPSE
  5
8D6
100
AcDbEntity
  8
DRAFT
100
AcDbEllipse
 62
7
  6
CONTINUOUS
 10
24.6216993433
 20
-0.222742127
 30
0.0
 11
0.0
 21
5.0
 31
0.0
 40
0.0174550649
 41
-2.4980915448
 42
-0.6435011088
  0
ELLIPSE
  5
8D7
100
AcDbEntity
  8
DRAFT
100
AcDbEllipse
 62
7
  6
CONTINUOUS
 10
-4.8932769685
 20
22.2792601001
 30
0.0
 11
0.3
 21
0.0
 31
0.0
 40
0.0087268678
 41
6.2831879188
 42
7.5478183193
  0
ELLIPSE
  5
8D8
100
AcDbEntity
  8
DRAFT
100
AcDbEllipse
 62
7
  6
CONTINUOUS
 10
-0.0932769685
 20
3.2744909507
 30
0.0
 11
0.0
 21
30.0534523254
 31
0.0
 40
0.9932062717
 41
-0.7782307767
 42
-0.7493656612
  0
ELLIPSE
  5
8D9
100
AcDbEntity
  8
DRAFT
100
AcDbEllipse
 62
7
  6
CONTINUOUS
 10
-0.0932769685
 20
-3.7199752047
 30
0.0
 11
-0.0
 21
30.0534523254
 31
0.0
 40
0.9932062717
 41
-3.9198234303
 42
-3.8909583148
  0
ELLIPSE
  5
8DA
100
AcDbEntity
  8
DRAFT
100
AcDbEllipse
 62
7
  6
CONTINUOUS
 10
-4.8932769685
 20
22.3054407035
 30
0.0
 11
0.3
 21
-0.0
 31
0.0
 40
0.0087268678
 41
-0.0000122161
 42
1.2566173427
  0
ELLIPSE
  5
8DB
100
AcDbEntity
  8
DRAFT
100
AcDbEllipse
 62
7
  6
CONTINUOUS
 10
4.7067230315
 20
22.3054407035
 30
0.0
 11
0.3
 21
-0.0
 31
0.0
 40
0.0087268678
 41
1.8849753109
 42
4.399737
  0
ELLIPSE
  5
8DC
100
AcDbEntity
  8
DRAFT
100
AcDbEllipse
 62
7
  6
CONTINUOUS
 10
4.7067230315
 20
-22.7247443542
 30
0.0
 11
0.3
 21
-0.0
 31
0.0
 40
0.0087268678
 41
3.1415952652
 42
4.4062256657
  0
ELLIPSE
  5
8DD
100
AcDbEntity
  8
DRAFT
100
AcDbEllipse
 62
7
  6
CONTINUOUS
 10
4.7067230315
 20
22.2792601001
 30
0.0
 11
0.3
 21
0.0
 31
0.0
 40
0.0087268678
 41
1.8769596414
 42
3.6580721496
  0
ELLIPSE
  5
8DE
100
AcDbEntity
  8
DRAFT
100
AcDbEllipse
 62
7
  6
CONTINUOUS
 10
-4.8932769685
 20
-22.7509249576
 30
0.0
 11
0.3
 21
0.0
 31
0.0
 40
0.0087268678
 41
-1.2566173427
 42
1.2581443464
  0
ELLIPSE
  5
8DF
100
AcDbEntity
  8
DRAFT
100
AcDbEllipse
 62
7
  6
CONTINUOUS
 10
-4.8932769685
 20
-22.7247443542
 30
0.0
 11
0.3
 21
0.0
 31
0.0
 40
0.0087268678
 41
-1.2646330121
 42
0.516479496
  0
ELLIPSE
  5
8E0
100
AcDbEntity
  8
DRAFT
100
AcDbEllipse
 62
7
  6
CONTINUOUS
 10
24.7875224601
 20
6.227257873
 30
0.0
 11
0.0
 21
0.3
 31
0.0
 40
0.0174550649
 41
6.178827241
 42
6.3905976116
  0
ELLIPSE
  5
8E1
100
AcDbEntity
  8
DRAFT
100
AcDbEllipse
 62
7
  6
CONTINUOUS
 10
-24.9740763971
 20
6.227257873
 30
0.0
 11
-0.0
 21
0.3
 31
0.0
 40
0.0174550649
 41
-0.1074123044
 42
0.1043580662
  0
ELLIPSE
  5
8E2
100
AcDbEntity
  8
DRAFT
100
AcDbEllipse
 62
7
  6
CONTINUOUS
 10
-22.621459799
 20
15.827257873
 30
0.0
 11
-0.0
 21
0.3
 31
0.0
 40
0.0087268678
 41
-4.3982099963
 42
-1.8834483072
  0
ELLIPSE
  5
8E3
100
AcDbEntity
  8
DRAFT
100
AcDbEllipse
 62
7
  6
CONTINUOUS
 10
-22.5952791956
 20
15.827257873
 30
0.0
 11
-0.0
 21
0.3
 31
0.0
 40
0.0087268678
 41
-4.4062256657
 42
-2.6251131576
  0
ELLIPSE
  5
8E4
100
AcDbEntity
  8
DRAFT
100
AcDbEllipse
 62
7
  6
CONTINUOUS
 10
-22.621459799
 20
-6.672742127
 30
0.0
 11
-0.0
 21
0.3
 31
0.0
 40
0.0087268678
 41
-4.3982099963
 42
-1.8834483072
  0
ELLIPSE
  5
8E5
100
AcDbEntity
  8
DRAFT
100
AcDbEllipse
 62
7
  6
CONTINUOUS
 10
-22.5952791956
 20
-6.672742127
 30
0.0
 11
0.0
 21
0.3
 31
0.0
 40
0.0087268678
 41
-4.4062256657
 42
-2.6251131576
  0
ELLIPSE
  5
8E6
100
AcDbEntity
  8
DRAFT
100
AcDbEllipse
 62
7
  6
CONTINUOUS
 10
24.7875224601
 20
-16.272742127
 30
0.0
 11
0.0
 21
0.3
 31
0.0
 40
0.0174550649
 41
6.178827241
 42
6.3905976116
  0
ELLIPSE
  5
8E7
100
AcDbEntity
  8
DRAFT
100
AcDbEllipse
 62
7
  6
CONTINUOUS
 10
4.7067230315
 20
-22.7509249576
 30
0.0
 11
0.3
 21
0.0
 31
0.0
 40
0.0087268678
 41
3.1415804375
 42
4.3982099963
  0
ELLIPSE
  5
8E8
100
AcDbEntity
  8
DRAFT
100
AcDbEllipse
 62
7
  6
CONTINUOUS
 10
-24.9740763971
 20
-16.272742127
 30
0.0
 11
0.0
 21
0.3
 31
0.0
 40
0.0174550649
 41
-0.1074123044
 42
0.1043580662
  0
ELLIPSE
  5
8E9
100
AcDbEntity
  8
0
100
AcDbEllipse
 62
7
  6
CONTINUOUS
 10
-30.693562774
 20
-24.8541129769
 30
0.0
 11
0.3677537939
 21
1.036704947
 31
0.0
 40
1.0
 41
-0.415571033
 42
0.2557672994
  0
ELLIPSE
  5
8EA
100
AcDbEntity
  8
0
100
AcDbEllipse
 62
7
  6
CONTINUOUS
 10
-30.693562774
 20
-24.8541129769
 30
0.0
 11
0.9041181793
 21
-0.6265543215
 31
0.0
 40
1.0
 41
2.0916911028
 42
2.1768091551
  0
ELLIPSE
  5
8EB
100
AcDbEntity
  8
0
100
AcDbEllipse
 62
7
  6
CONTINUOUS
 10
-31.6929911629
 20
-24.8541129769
 30
0.0
 11
-0.1908532913
 21
1.0833166763
 31
0.0
 40
1.0
 41
-0.1743855018
 42
0.4987583693
  0
ELLIPSE
  5
8EC
100
AcDbEntity
  8
0
100
AcDbEllipse
 62
7
  6
CONTINUOUS
 10
-31.6929911629
 20
-24.8541129769
 30
0.0
 11
0.2660875151
 21
1.0673319232
 31
0.0
 40
1.0
 41
0.9174650724
 42
1.000777586
  0
ELLIPSE
  5
8ED
100
AcDbEntity
  8
0
100
AcDbEllipse
 62
7
  6
CONTINUOUS
 10
-31.6929911629
 20
-9.5913712771
 30
0.0
 11
0.6283906546
 21
0.9028428353
 31
0.0
 40
1.0
 41
-3.2900037009
 42
-2.6186653688
  0
ELLIPSE
  5
8EE
100
AcDbEntity
  8
0
100
AcDbEllipse
 62
7
  6
CONTINUOUS
 10
-31.6929911629
 20
-9.5913712771
 30
0.0
 11
0.3467354404
 21
1.0439226668
 31
0.0
 40
1.0
 41
-2.9060285262
 42
-2.8209104736
  0
ELLIPSE
  5
8EF
100
AcDbEntity
  8
0
100
AcDbEllipse
 62
7
  6
CONTINUOUS
 10
-30.693562774
 20
-9.5913712771
 30
0.0
 11
0.0457145082
 21
1.099049673
 31
0.0
 40
1.0
 41
-3.1000220376
 42
-2.4268781667
  0
ELLIPSE
  5
8F0
100
AcDbEntity
  8
0
100
AcDbEllipse
 62
7
  6
CONTINUOUS
 10
-30.693562774
 20
-9.5913712771
 30
0.0
 11
0.015937009
 21
1.0998845447
 31
0.0
 40
1.0
 41
-2.4539600857
 42
-2.370647572
  0
ELLIPSE
  5
8F1
100
AcDbEntity
  8
0
100
AcDbEllipse
 62
7
  6
CONTINUOUS
 10
30.5070088371
 20
-9.5913712771
 30
0.0
 11
0.0
 21
1.1
 31
0.0
 40
1.0
 41
-3.8980490383
 42
-3.2266267788
  0
ELLIPSE
  5
8F2
100
AcDbEntity
  8
0
100
AcDbEllipse
 62
7
  6
CONTINUOUS
 10
30.5070088371
 20
-9.5913712771
 30
0.0
 11
-0.2359757877
 21
1.0743907239
 31
0.0
 40
1.0
 41
-3.4428306665
 42
-3.3577965414
  0
ELLIPSE
  5
8F3
100
AcDbEntity
  8
0
100
AcDbEllipse
 62
7
  6
CONTINUOUS
 10
31.506437226
 20
-9.5913712771
 30
0.0
 11
-0.017453723
 21
1.099861522
 31
0.0
 40
1.0
 41
-3.1574603404
 42
-2.4843327155
  0
ELLIPSE
  5
8F4
100
AcDbEntity
  8
0
100
AcDbEllipse
 62
7
  6
CONTINUOUS
 10
31.506437226
 20
-9.5913712771
 30
0.0
 11
0.4076637021
 21
1.0216703509
 31
0.0
 40
1.0
 41
-2.0888064677
 42
-2.0054777079
  0
ELLIPSE
  5
8F5
100
AcDbEntity
  8
0
100
AcDbEllipse
 62
7
  6
CONTINUOUS
 10
31.506437226
 20
-24.8541129769
 30
0.0
 11
-0.0
 21
1.1
 31
0.0
 40
1.0
 41
-0.7564563847
 42
-0.0850341252
  0
ELLIPSE
  5
8F6
100
AcDbEntity
  8
0
100
AcDbEllipse
 62
7
  6
CONTINUOUS
 10
31.506437226
 20
-24.8541129769
 30
0.0
 11
-0.1371305403
 21
1.0914188998
 31
0.0
 40
1.0
 41
-0.2100234359
 42
-0.1249893107
  0
ELLIPSE
  5
8F7
100
AcDbEntity
  8
0
100
AcDbEllipse
 62
7
  6
CONTINUOUS
 10
30.5070088371
 20
-24.8541129769
 30
0.0
 11
-0.180838886
 21
1.0850333162
 31
0.0
 40
1.0
 41
-0.1651486774
 42
0.5079789474
  0
ELLIPSE
  5
8F8
100
AcDbEntity
  8
0
100
AcDbEllipse
 62
7
  6
CONTINUOUS
 10
30.5070088371
 20
-24.8541129769
 30
0.0
 11
-0.3698051297
 21
1.0359749833
 31
0.0
 40
1.0
 41
0.3302628694
 42
0.4135916292
  0
ELLIPSE
  5
8F9
100
AcDbEntity
  8
0
100
AcDbEllipse
 62
7
  6
CONTINUOUS
 10
30.5070088371
 20
24.4086287229
 30
0.0
 11
-0.0414210949
 21
1.0992198565
 31
0.0
 40
1.0
 41
-3.9357134837
 42
-3.2642901975
  0
ELLIPSE
  5
8FA
100
AcDbEntity
  8
0
100
AcDbEllipse
 62
7
  6
CONTINUOUS
 10
30.5070088371
 20
24.4086287229
 30
0.0
 11
-0.0
 21
1.1
 31
0.0
 40
1.0
 41
-3.2266257521
 42
-3.1415926536
  0
ELLIPSE
  5
8FB
100
AcDbEntity
  8
0
100
AcDbEllipse
 62
7
  6
CONTINUOUS
 10
31.506437226
 20
24.4086287229
 30
0.0
 11
0.0
 21
1.1
 31
0.0
 40
1.0
 41
-3.1415926536
 42
-2.4684650739
  0
ELLIPSE
  5
8FC
100
AcDbEntity
  8
0
100
AcDbEllipse
 62
7
  6
CONTINUOUS
 10
31.506437226
 20
24.4086287229
 30
0.0
 11
0.0130924553
 21
1.0999220825
 31
0.0
 40
1.0
 41
-2.4565625608
 42
-2.3732337558
  0
ELLIPSE
  5
8FD
100
AcDbEntity
  8
0
100
AcDbEllipse
 62
7
  6
CONTINUOUS
 10
31.506437226
 20
9.1458870231
 30
0.0
 11
1.0917583124
 21
0.1344015901
 31
0.0
 40
1.0
 41
0.6918506106
 42
1.3632738968
  0
ELLIPSE
  5
8FE
100
AcDbEntity
  8
0
100
AcDbEllipse
 62
7
  6
CONTINUOUS
 10
31.506437226
 20
9.1458870231
 30
0.0
 11
-0.4755927953
 21
0.9918727202
 31
0.0
 40
1.0
 41
-0.5321382826
 42
-0.4471051841
  0
ELLIPSE
  5
8FF
100
AcDbEntity
  8
0
100
AcDbEllipse
 62
7
  6
CONTINUOUS
 10
30.5070088371
 20
9.1458870231
 30
0.0
 11
1.0972326297
 21
-0.0779779221
 31
0.0
 40
1.0
 41
1.6417448541
 42
2.3148724338
  0
ELLIPSE
  5
900
100
AcDbEntity
  8
0
100
AcDbEllipse
 62
7
  6
CONTINUOUS
 10
30.5070088371
 20
9.1458870231
 30
0.0
 11
0.8520421394
 21
-0.6957184723
 31
0.0
 40
1.0
 41
2.9286635157
 42
3.0119923207
  0
ELLIPSE
  5
901
100
AcDbEntity
  8
0
100
AcDbEllipse
 62
7
  6
CONTINUOUS
 10
-31.6929911629
 20
24.4086287229
 30
0.0
 11
1.0389166106
 21
-0.3614585401
 31
0.0
 40
1.0
 41
-1.9924332386
 42
-1.32100994
  0
ELLIPSE
  5
902
100
AcDbEntity
  8
0
100
AcDbEllipse
 62
7
  6
CONTINUOUS
 10
-31.6929911629
 20
24.4086287229
 30
0.0
 11
0.0547950721
 21
1.0986343796
 31
0.0
 40
1.0
 41
-3.1767914134
 42
-3.0917583273
  0
ELLIPSE
  5
903
100
AcDbEntity
  8
0
100
AcDbEllipse
 62
7
  6
CONTINUOUS
 10
-30.693562774
 20
24.4086287229
 30
0.0
 11
-0.6577180154
 21
0.8817068743
 31
0.0
 40
1.0
 41
-3.782503112
 42
-3.1093755315
  0
ELLIPSE
  5
904
100
AcDbEntity
  8
0
100
AcDbEllipse
 62
7
  6
CONTINUOUS
 10
-30.693562774
 20
24.4086287229
 30
0.0
 11
-0.2878823476
 21
1.061660847
 31
0.0
 40
1.0
 41
-2.7332598725
 42
-2.6499310683
  0
ELLIPSE
  5
905
100
AcDbEntity
  8
0
100
AcDbEllipse
 62
7
  6
CONTINUOUS
 10
-30.693562774
 20
9.1458870231
 30
0.0
 11
-0.48923019
 21
0.9852176517
 31
0.0
 40
1.0
 41
-1.2173567686
 42
-0.54593347
  0
ELLIPSE
  5
906
100
AcDbEntity
  8
0
100
AcDbEllipse
 62
7
  6
CONTINUOUS
 10
-30.693562774
 20
9.1458870231
 30
0.0
 11
0.0522038225
 21
1.0987605567
 31
0.0
 40
1.0
 41
-0.0375572329
 42
0.0474758532
  0
ELLIPSE
  5
907
100
AcDbEntity
  8
0
100
AcDbEllipse
 62
7
  6
CONTINUOUS
 10
-31.6929911629
 20
9.1458870231
 30
0.0
 11
0.0
 21
1.1
 31
0.0
 40
1.0
 41
0.0
 42
0.6731275805
  0
ELLIPSE
  5
908
100
AcDbEntity
  8
0
100
AcDbEllipse
 62
7
  6
CONTINUOUS
 10
-31.6929911629
 20
9.1458870231
 30
0.0
 11
0.3466020289
 21
1.0439669696
 31
0.0
 40
1.0
 41
0.9936819649
 42
1.0770107691
  0
ENDSEC
  0
SECTION
  2
OBJECTS
  0
DICTIONARY
  5
C
100
AcDbDictionary
280
0
281
1
  3
ACAD_GROUP
350
D
  3
ACAD_MLINESTYLE
350
17
  3
ACAD_LAYOUT
350
1A
  3
ACAD_PLOTSETTINGS
350
19
  3
ACAD_PLOTSTYLENAME
350
E
  0
DICTIONARY
  5
D
102
{ACAD_REACTORS
330
C
102
}
100
AcDbDictionary
280
0
281
1
  0
ACDBDICTIONARYWDFLT
  5
E
102
{ACAD_REACTORS
330
C
102
}
100
AcDbDictionary
281
1
  3
Normal
350
F
100
AcDbDictionaryWithDefault
340
F
  0
DICTIONARY
  5
17
102
{ACAD_REACTORS
330
C
102
}
100
AcDbDictionary
280
0
281
1
  3
Standard
350
18
  0
DICTIONARY
  5
19
102
{ACAD_REACTORS
330
C
102
}
100
AcDbDictionary
281
1
  0
DICTIONARY
  5
1A
102
{ACAD_REACTORS
330
C
102
}
100
AcDbDictionary
281
1
  3
Model
350
909
  3
Layout1
350
90A
  0
ACDBPLACEHOLDER
  5
F
102
{ACAD_REACTORS
330
E
102
}
  0
MLINESTYLE
  5
18
102
{ACAD_REACTORS
330
17
102
}
100
AcDbMlineStyle
  2
STANDARD
 70
0
  3

 62
256
 51
90.0
 52
90.0
 71
2
 49
0.5
 62
256
  6
BYLAYER
 49
-0.5
 62
256
  6
BYLAYER
  0
LAYOUT
  5
909
102
{ACAD_REACTORS
330
1A
102
}
100
AcDbPlotSettings
  1

  2
none_device
  4
ISO_A4_(297.00_x_210.00_MM)
  6

 40
0.0
 41
0.0
 42
0.0
 43
0.0
 44
297.0
 45
210.0
 46
0.0
 47
0.0
 48
0.0
 49
0.0
140
0.0
141
0.0
142
1.0
143
1.0
 70
1024
 72
1
 73
0
 74
0
  7

 75
0
147
1.0
148
0.0
149
0.0
100
AcDbLayout
  1
Model
 70
0
 71
0
 10
0.0
 20
0.0
 11
297.0
 21
210.0
 12
0.0
 22
0.0
 32
0.0
 14
0.0
 24
0.0
 34
0.0
 15
0.0
 25
0.0
 35
0.0
146
0.0
 13
0.0
 23
0.0
 33
0.0
 16
1.0
 26
0.0
 36
0.0
 17
0.0
 27
1.0
 37
0.0
 76
0
330
212
345
0
346
0
  0
LAYOUT
  5
90A
102
{ACAD_REACTORS
330
1A
102
}
100
AcDbPlotSettings
  1

  2
none_device
  4
ISO_A4_(297.00_x_210.00_MM)
  6

 40
0.0
 41
0.0
 42
0.0
 43
0.0
 44
297.0
 45
210.0
 46
0.0
 47
0.0
 48
0.0
 49
0.0
140
0.0
141
0.0
142
1.0
143
1.0
 70
0
 72
1
 73
0
 74
0
  7

 75
0
147
1.0
148
0.0
149
0.0
100
AcDbLayout
  1
Layout1
 70
0
 71
1
 10
0.0
 20
0.0
 11
297.0
 21
210.0
 12
0.0
 22
0.0
 32
0.0
 14
0.0
 24
0.0
 34
0.0
 15
0.0
 25
0.0
 35
0.0
146
0.0
 13
0.0
 23
0.0
 33
0.0
 16
1.0
 26
0.0
 36
0.0
 17
0.0
 27
1.0
 37
0.0
 76
0
330
213
345
0
346
0
  0
ENDSEC
  0
EOF
