  0
SECTION
  2
HEADER
  9
$ACADVER
  1
AC1024
  9
$DWGCODEPAGE
  3
ANSI_1252
  9
$EXTMAX
 10
297.0
 20
210.0
 30
0.0
  9
$EXTMIN
 10
0.0
 20
0.0
 30
0.0
  9
$LIMMIN
 10
0.0
 20
0.0
  9
$LIMMAX
 10
297.0
 20
210.0
  9
$VIEWCTR
 10
148.5
 20
105.0
  9
$VIEWSIZE
 40
210.0
  9
$CLAYER
  8
0
  9
$LTSCALE
 40
16.335
  9
$CELTYPE
  6
BYLAYER
  9
$DIMSCALE
 40
1.0
  9
$DIMASZ
 40
3.0
  9
$DIMEXO
 40
0.5
  9
$DIMDLI
 40
11.286
  9
$DIMEXE
 40
1.5
  9
$DIMCEN
 40
2.673
  9
$DIMLFAC
 40
1.0
  9
$DIMBLK
  1
_FILLED
  9
$DIMALT
 70
0
  9
$DIMALTF
 40
0.0393700787
  9
$DIMTXT
 40
3.0
  9
$DIMTOL
 70
1
  9
$DIMLIM
 70
0
  9
$DIMTFAC
 40
1.0
  9
$DIMTP
 40
0.01
  9
$DIMTM
 40
0.01
  9
$DIMGAP
 40
0.625
  9
$DIMDSEP
 70
44
  9
$AUNITS
 70
0
  9
$PDMODE
 70
3
  9
$PDSIZE
 40
3.0
  9
$HANDSEED
  5
629
  9
$TILEMODE
 70
1
  9
$MEASUREMENT
 70
1
  9
$INSUNITS
 70
4
  0
ENDSEC
  0
SECTION
  2
CLASSES
  0
CLASS
  1
ACDBDICTIONARYWDFLT
  2
AcDbDictionaryWithDefault
  3
AutoCAD 2000
 90
0
 91
1
280
0
281
0
  0
CLASS
  1
ACDBPLACEHOLDER
  2
AcDbPlaceHolder
  3
AutoCAD 2000
 90
0
 91
1
280
0
281
0
  0
CLASS
  1
LAYOUT
  2
AcDbLayout
  3
AutoCAD 2000
 90
0
 91
0
280
0
281
0
  0
ENDSEC
  0
SECTION
  2
TABLES
  0
TABLE
  2
VPORT
  5
8
100
AcDbSymbolTable
 70
2
  0
VPORT
  5
1F4
100
AcDbSymbolTableRecord
100
AcDbViewportTableRecord
  2
*ACTIVE
 70
0
 10
0.0
 20
0.0
 11
1.0
 21
1.0
 12
148.5
 22
105.0
 13
0.0
 23
0.0
 14
1.0
 24
1.0
 15
0.0
 25
0.0
 16
0.0
 26
0.0
 36
1.0
 17
0.0
 27
0.0
 37
0.0
 40
210.0
 41
1.4142857143
 42
50.0
 43
0.0
 44
0.0
 50
0.0
 51
0.0
 71
0
 72
100
 73
1
 74
1
 75
0
 76
0
 77
0
 78
0
  0
ENDTAB
  0
TABLE
  2
LTYPE
  5
5
100
AcDbSymbolTable
 70
6
  0
LTYPE
  5
14
100
AcDbSymbolTableRecord
100
AcDbLinetypeTableRecord
  2
BYBLOCK
 70
0
  3

 72
65
 73
0
 40
0.0
  0
LTYPE
  5
15
100
AcDbSymbolTableRecord
100
AcDbLinetypeTableRecord
  2
BYLAYER
 70
0
  3

 72
65
 73
0
 40
0.0
  0
LTYPE
  5
16
100
AcDbSymbolTableRecord
100
AcDbLinetypeTableRecord
  2
CONTINUOUS
 70
64
  3
Solid line
 72
65
 73
0
 40
0.0
  0
LTYPE
  5
1F5
100
AcDbSymbolTableRecord
100
AcDbLinetypeTableRecord
  2
CENTER
 70
64
  3
____ _ ____ _ ____ _ ____ _ ____ _ ____ _ ____
 72
65
 73
4
 40
0.6
 49
0.375
 74
0
 49
-0.075
 74
0
 49
0.075
 74
0
 49
-0.075
 74
0
  0
LTYPE
  5
1F6
100
AcDbSymbolTableRecord
100
AcDbLinetypeTableRecord
  2
HIDDEN
 70
64
  3
- - - - - - - - - - - - - - - - - - - -
 72
65
 73
2
 40
0.2
 49
0.1
 74
0
 49
-0.1
 74
0
  0
LTYPE
  5
1F7
100
AcDbSymbolTableRecord
100
AcDbLinetypeTableRecord
  2
PHANTOM
 70
64
  3
_____ _ _ _____ _ _ _____ _ _ _____
 72
65
 73
6
 40
0.8
 49
0.45
 74
0
 49
-0.05
 74
0
 49
0.1
 74
0
 49
-0.05
 74
0
 49
0.1
 74
0
 49
-0.05
 74
0
  0
LTYPE
  5
1F8
100
AcDbSymbolTableRecord
100
AcDbLinetypeTableRecord
  2
DOT
 70
64
  3
. . . . . . . . . . . . . . . . . . . .
 72
65
 73
2
 40
0.2
 49
0.1
 74
0
 49
-0.1
 74
0
  0
LTYPE
  5
1F9
100
AcDbSymbolTableRecord
100
AcDbLinetypeTableRecord
  2
DASHED
 70
64
  3
- - - - - - - - - - - - - - - - - - - -
 72
65
 73
2
 40
0.2
 49
0.1
 74
0
 49
-0.1
 74
0
  0
ENDTAB
  0
TABLE
  2
LAYER
  5
2
100
AcDbSymbolTable
 70
36
  0
LAYER
  5
10
100
AcDbSymbolTableRecord
100
AcDbLayerTableRecord
  2
0
 70
0
 62
7
  6
CONTINUOUS
370
-3
390
F
  0
LAYER
  5
1FA
100
AcDbSymbolTableRecord
100
AcDbLayerTableRecord
  2
DEFAULT_1
 70
0
 62
7
  6
CENTER
370
-3
390
F
  0
LAYER
  5
1FB
100
AcDbSymbolTableRecord
100
AcDbLayerTableRecord
  2
DEFAULT_2
 70
0
 62
7
  6
HIDDEN
370
-3
390
F
  0
LAYER
  5
1FC
100
AcDbSymbolTableRecord
100
AcDbLayerTableRecord
  2
DEFAULT_3
 70
0
 62
7
  6
PHANTOM
370
-3
390
F
  0
LAYER
  5
1FD
100
AcDbSymbolTableRecord
100
AcDbLayerTableRecord
  2
0402_C_REF_70000
 70
0
 62
7
  6
CONTINUOUS
370
-3
390
F
  0
LAYER
  5
1FE
100
AcDbSymbolTableRecord
100
AcDbLayerTableRecord
  2
0402_C_REF_70000_1
 70
0
 62
7
  6
CONTINUOUS
370
-3
390
F
  0
LAYER
  5
1FF
100
AcDbSymbolTableRecord
100
AcDbLayerTableRecord
  2
0402_C_REF_70000_10
 70
0
 62
7
  6
CONTINUOUS
370
-3
390
F
  0
LAYER
  5
200
100
AcDbSymbolTableRecord
100
AcDbLayerTableRecord
  2
0402_C_REF_70000_11
 70
0
 62
7
  6
CONTINUOUS
370
-3
390
F
  0
LAYER
  5
201
100
AcDbSymbolTableRecord
100
AcDbLayerTableRecord
  2
0402_C_REF_70000_12
 70
0
 62
7
  6
CONTINUOUS
370
-3
390
F
  0
LAYER
  5
202
100
AcDbSymbolTableRecord
100
AcDbLayerTableRecord
  2
0402_C_REF_70000_13
 70
0
 62
7
  6
CONTINUOUS
370
-3
390
F
  0
LAYER
  5
203
100
AcDbSymbolTableRecord
100
AcDbLayerTableRecord
  2
0402_C_REF_70000_14
 70
0
 62
7
  6
CONTINUOUS
370
-3
390
F
  0
LAYER
  5
204
100
AcDbSymbolTableRecord
100
AcDbLayerTableRecord
  2
0402_C_REF_70000_15
 70
0
 62
7
  6
CONTINUOUS
370
-3
390
F
  0
LAYER
  5
205
100
AcDbSymbolTableRecord
100
AcDbLayerTableRecord
  2
0402_C_REF_70000_16
 70
0
 62
7
  6
CONTINUOUS
370
-3
390
F
  0
LAYER
  5
206
100
AcDbSymbolTableRecord
100
AcDbLayerTableRecord
  2
0402_C_REF_70000_17
 70
0
 62
7
  6
CONTINUOUS
370
-3
390
F
  0
LAYER
  5
207
100
AcDbSymbolTableRecord
100
AcDbLayerTableRecord
  2
0402_C_REF_70000_18
 70
0
 62
7
  6
CONTINUOUS
370
-3
390
F
  0
LAYER
  5
208
100
AcDbSymbolTableRecord
100
AcDbLayerTableRecord
  2
0402_C_REF_70000_19
 70
0
 62
7
  6
CONTINUOUS
370
-3
390
F
  0
LAYER
  5
209
100
AcDbSymbolTableRecord
100
AcDbLayerTableRecord
  2
0402_C_REF_70000_2
 70
0
 62
7
  6
CONTINUOUS
370
-3
390
F
  0
LAYER
  5
20A
100
AcDbSymbolTableRecord
100
AcDbLayerTableRecord
  2
0402_C_REF_70000_20
 70
0
 62
7
  6
CONTINUOUS
370
-3
390
F
  0
LAYER
  5
20B
100
AcDbSymbolTableRecord
100
AcDbLayerTableRecord
  2
0402_C_REF_70000_3
 70
0
 62
7
  6
CONTINUOUS
370
-3
390
F
  0
LAYER
  5
20C
100
AcDbSymbolTableRecord
100
AcDbLayerTableRecord
  2
0402_C_REF_70000_4
 70
0
 62
7
  6
CONTINUOUS
370
-3
390
F
  0
LAYER
  5
20D
100
AcDbSymbolTableRecord
100
AcDbLayerTableRecord
  2
0402_C_REF_70000_5
 70
0
 62
7
  6
CONTINUOUS
370
-3
390
F
  0
LAYER
  5
20E
100
AcDbSymbolTableRecord
100
AcDbLayerTableRecord
  2
0402_C_REF_70000_6
 70
0
 62
7
  6
CONTINUOUS
370
-3
390
F
  0
LAYER
  5
20F
100
AcDbSymbolTableRecord
100
AcDbLayerTableRecord
  2
0402_C_REF_70000_7
 70
0
 62
7
  6
CONTINUOUS
370
-3
390
F
  0
LAYER
  5
210
100
AcDbSymbolTableRecord
100
AcDbLayerTableRecord
  2
0402_C_REF_70000_8
 70
0
 62
7
  6
CONTINUOUS
370
-3
390
F
  0
LAYER
  5
211
100
AcDbSymbolTableRecord
100
AcDbLayerTableRecord
  2
0402_C_REF_70000_9
 70
0
 62
7
  6
CONTINUOUS
370
-3
390
F
  0
LAYER
  5
212
100
AcDbSymbolTableRecord
100
AcDbLayerTableRecord
  2
0402_L_REF_55000
 70
0
 62
7
  6
CONTINUOUS
370
-3
390
F
  0
LAYER
  5
213
100
AcDbSymbolTableRecord
100
AcDbLayerTableRecord
  2
0402_R_REF_30000
 70
0
 62
7
  6
CONTINUOUS
370
-3
390
F
  0
LAYER
  5
214
100
AcDbSymbolTableRecord
100
AcDbLayerTableRecord
  2
0402_R_REF_30000_1
 70
0
 62
7
  6
CONTINUOUS
370
-3
390
F
  0
LAYER
  5
215
100
AcDbSymbolTableRecord
100
AcDbLayerTableRecord
  2
0402_R_REF_30000_10
 70
0
 62
7
  6
CONTINUOUS
370
-3
390
F
  0
LAYER
  5
216
100
AcDbSymbolTableRecord
100
AcDbLayerTableRecord
  2
0402_R_REF_30000_11
 70
0
 62
7
  6
CONTINUOUS
370
-3
390
F
  0
LAYER
  5
217
100
AcDbSymbolTableRecord
100
AcDbLayerTableRecord
  2
0402_R_REF_30000_12
 70
0
 62
7
  6
CONTINUOUS
370
-3
390
F
  0
LAYER
  5
218
100
AcDbSymbolTableRecord
100
AcDbLayerTableRecord
  2
0402_R_REF_30000_13
 70
0
 62
7
  6
CONTINUOUS
370
-3
390
F
  0
LAYER
  5
219
100
AcDbSymbolTableRecord
100
AcDbLayerTableRecord
  2
0402_R_REF_30000_14
 70
0
 62
7
  6
CONTINUOUS
370
-3
390
F
  0
LAYER
  5
21A
100
AcDbSymbolTableRecord
100
AcDbLayerTableRecord
  2
0402_R_REF_30000_15
 70
0
 62
7
  6
CONTINUOUS
370
-3
390
F
  0
LAYER
  5
21B
100
AcDbSymbolTableRecord
100
AcDbLayerTableRecord
  2
0402_R_REF_30000_16
 70
0
 62
7
  6
CONTINUOUS
370
-3
390
F
  0
LAYER
  5
21C
100
AcDbSymbolTableRecord
100
AcDbLayerTableRecord
  2
0402_R_REF_30000_17
 70
0
 62
7
  6
CONTINUOUS
370
-3
390
F
  0
LAYER
  5
21D
100
AcDbSymbolTableRecord
100
AcDbLayerTableRecord
  2
0402_R_REF_30000_18
 70
0
 62
7
  6
CONTINUOUS
370
-3
390
F
  0
LAYER
  5
21E
100
AcDbSymbolTableRecord
100
AcDbLayerTableRecord
  2
0402_R_REF_30000_2
 70
0
 62
7
  6
CONTINUOUS
370
-3
390
F
  0
LAYER
  5
21F
100
AcDbSymbolTableRecord
100
AcDbLayerTableRecord
  2
0402_R_REF_30000_3
 70
0
 62
7
  6
CONTINUOUS
370
-3
390
F
  0
LAYER
  5
220
100
AcDbSymbolTableRecord
100
AcDbLayerTableRecord
  2
0402_R_REF_30000_4
 70
0
 62
7
  6
CONTINUOUS
370
-3
390
F
  0
LAYER
  5
221
100
AcDbSymbolTableRecord
100
AcDbLayerTableRecord
  2
0402_R_REF_30000_5
 70
0
 62
7
  6
CONTINUOUS
370
-3
390
F
  0
LAYER
  5
222
100
AcDbSymbolTableRecord
100
AcDbLayerTableRecord
  2
0402_R_REF_30000_6
 70
0
 62
7
  6
CONTINUOUS
370
-3
390
F
  0
LAYER
  5
223
100
AcDbSymbolTableRecord
100
AcDbLayerTableRecord
  2
0402_R_REF_30000_7
 70
0
 62
7
  6
CONTINUOUS
370
-3
390
F
  0
LAYER
  5
224
100
AcDbSymbolTableRecord
100
AcDbLayerTableRecord
  2
0402_R_REF_30000_8
 70
0
 62
7
  6
CONTINUOUS
370
-3
390
F
  0
LAYER
  5
225
100
AcDbSymbolTableRecord
100
AcDbLayerTableRecord
  2
0402_R_REF_30000_9
 70
0
 62
7
  6
CONTINUOUS
370
-3
390
F
  0
LAYER
  5
226
100
AcDbSymbolTableRecord
100
AcDbLayerTableRecord
  2
0603_C_REF_90000
 70
0
 62
7
  6
CONTINUOUS
370
-3
390
F
  0
LAYER
  5
227
100
AcDbSymbolTableRecord
100
AcDbLayerTableRecord
  2
0603_C_REF_90000_1
 70
0
 62
7
  6
CONTINUOUS
370
-3
390
F
  0
LAYER
  5
228
100
AcDbSymbolTableRecord
100
AcDbLayerTableRecord
  2
0603_C_REF_90000_2
 70
0
 62
7
  6
CONTINUOUS
370
-3
390
F
  0
LAYER
  5
229
100
AcDbSymbolTableRecord
100
AcDbLayerTableRecord
  2
0603_C_REF_90000_3
 70
0
 62
7
  6
CONTINUOUS
370
-3
390
F
  0
LAYER
  5
22A
100
AcDbSymbolTableRecord
100
AcDbLayerTableRecord
  2
0603_C_REF_90000_4
 70
0
 62
7
  6
CONTINUOUS
370
-3
390
F
  0
LAYER
  5
22B
100
AcDbSymbolTableRecord
100
AcDbLayerTableRecord
  2
0603_R_REF_55000
 70
0
 62
7
  6
CONTINUOUS
370
-3
390
F
  0
LAYER
  5
22C
100
AcDbSymbolTableRecord
100
AcDbLayerTableRecord
  2
0603_R_REF_55000_1
 70
0
 62
7
  6
CONTINUOUS
370
-3
390
F
  0
LAYER
  5
22D
100
AcDbSymbolTableRecord
100
AcDbLayerTableRecord
  2
0603_R_REF_55000_2
 70
0
 62
7
  6
CONTINUOUS
370
-3
390
F
  0
LAYER
  5
22E
100
AcDbSymbolTableRecord
100
AcDbLayerTableRecord
  2
0603_R_REF_55000_3
 70
0
 62
7
  6
CONTINUOUS
370
-3
390
F
  0
LAYER
  5
22F
100
AcDbSymbolTableRecord
100
AcDbLayerTableRecord
  2
0603_R_REF_55000_4
 70
0
 62
7
  6
CONTINUOUS
370
-3
390
F
  0
LAYER
  5
230
100
AcDbSymbolTableRecord
100
AcDbLayerTableRecord
  2
06___PRT_ALL_SURFS_1
 70
0
 62
7
  6
CONTINUOUS
370
-3
390
F
  0
LAYER
  5
231
100
AcDbSymbolTableRecord
100
AcDbLayerTableRecord
  2
06___PRT_ALL_SURFS_10
 70
0
 62
7
  6
CONTINUOUS
370
-3
390
F
  0
LAYER
  5
232
100
AcDbSymbolTableRecord
100
AcDbLayerTableRecord
  2
06___PRT_ALL_SURFS_12
 70
0
 62
7
  6
CONTINUOUS
370
-3
390
F
  0
LAYER
  5
233
100
AcDbSymbolTableRecord
100
AcDbLayerTableRecord
  2
06___PRT_ALL_SURFS_15
 70
0
 62
7
  6
CONTINUOUS
370
-3
390
F
  0
LAYER
  5
234
100
AcDbSymbolTableRecord
100
AcDbLayerTableRecord
  2
06___PRT_ALL_SURFS_18
 70
0
 62
7
  6
CONTINUOUS
370
-3
390
F
  0
LAYER
  5
235
100
AcDbSymbolTableRecord
100
AcDbLayerTableRecord
  2
06___PRT_ALL_SURFS_2
 70
0
 62
7
  6
CONTINUOUS
370
-3
390
F
  0
LAYER
  5
236
100
AcDbSymbolTableRecord
100
AcDbLayerTableRecord
  2
06___PRT_ALL_SURFS_24
 70
0
 62
7
  6
CONTINUOUS
370
-3
390
F
  0
LAYER
  5
237
100
AcDbSymbolTableRecord
100
AcDbLayerTableRecord
  2
06___PRT_ALL_SURFS_3
 70
0
 62
7
  6
CONTINUOUS
370
-3
390
F
  0
LAYER
  5
238
100
AcDbSymbolTableRecord
100
AcDbLayerTableRecord
  2
06___PRT_ALL_SURFS_4
 70
0
 62
7
  6
CONTINUOUS
370
-3
390
F
  0
LAYER
  5
239
100
AcDbSymbolTableRecord
100
AcDbLayerTableRecord
  2
06___PRT_ALL_SURFS_7
 70
0
 62
7
  6
CONTINUOUS
370
-3
390
F
  0
LAYER
  5
23A
100
AcDbSymbolTableRecord
100
AcDbLayerTableRecord
  2
0805_C_REF_145000
 70
0
 62
7
  6
CONTINUOUS
370
-3
390
F
  0
LAYER
  5
23B
100
AcDbSymbolTableRecord
100
AcDbLayerTableRecord
  2
0805_R_REF_60000
 70
0
 62
7
  6
CONTINUOUS
370
-3
390
F
  0
LAYER
  5
23C
100
AcDbSymbolTableRecord
100
AcDbLayerTableRecord
  2
0805_R_REF_60000_1
 70
0
 62
7
  6
CONTINUOUS
370
-3
390
F
  0
LAYER
  5
23D
100
AcDbSymbolTableRecord
100
AcDbLayerTableRecord
  2
0805_R_REF_60000_2
 70
0
 62
7
  6
CONTINUOUS
370
-3
390
F
  0
LAYER
  5
23E
100
AcDbSymbolTableRecord
100
AcDbLayerTableRecord
  2
0805_R_REF_60000_3
 70
0
 62
7
  6
CONTINUOUS
370
-3
390
F
  0
LAYER
  5
23F
100
AcDbSymbolTableRecord
100
AcDbLayerTableRecord
  2
0805_R_REF_60000_4
 70
0
 62
7
  6
CONTINUOUS
370
-3
390
F
  0
LAYER
  5
240
100
AcDbSymbolTableRecord
100
AcDbLayerTableRecord
  2
0805_R_REF_60000_5
 70
0
 62
7
  6
CONTINUOUS
370
-3
390
F
  0
LAYER
  5
241
100
AcDbSymbolTableRecord
100
AcDbLayerTableRecord
  2
0805_R_REF_60000_6
 70
0
 62
7
  6
CONTINUOUS
370
-3
390
F
  0
LAYER
  5
242
100
AcDbSymbolTableRecord
100
AcDbLayerTableRecord
  2
0805_R_REF_60000_7
 70
0
 62
7
  6
CONTINUOUS
370
-3
390
F
  0
LAYER
  5
243
100
AcDbSymbolTableRecord
100
AcDbLayerTableRecord
  2
0805_R_REF_60000_8
 70
0
 62
7
  6
CONTINUOUS
370
-3
390
F
  0
LAYER
  5
244
100
AcDbSymbolTableRecord
100
AcDbLayerTableRecord
  2
0805_R_REF_60000_9
 70
0
 62
7
  6
CONTINUOUS
370
-3
390
F
  0
LAYER
  5
245
100
AcDbSymbolTableRecord
100
AcDbLayerTableRecord
  2
1206_C_REF_180000
 70
0
 62
7
  6
CONTINUOUS
370
-3
390
F
  0
LAYER
  5
246
100
AcDbSymbolTableRecord
100
AcDbLayerTableRecord
  2
1206_C_REF_180000_1
 70
0
 62
7
  6
CONTINUOUS
370
-3
390
F
  0
LAYER
  5
247
100
AcDbSymbolTableRecord
100
AcDbLayerTableRecord
  2
1206_C_REF_180000_2
 70
0
 62
7
  6
CONTINUOUS
370
-3
390
F
  0
LAYER
  5
248
100
AcDbSymbolTableRecord
100
AcDbLayerTableRecord
  2
2512_R_H1_REF_100000
 70
0
 62
7
  6
CONTINUOUS
370
-3
390
F
  0
LAYER
  5
249
100
AcDbSymbolTableRecord
100
AcDbLayerTableRecord
  2
43000895A0
 70
0
 62
7
  6
CONTINUOUS
370
-3
390
F
  0
LAYER
  5
24A
100
AcDbSymbolTableRecord
100
AcDbLayerTableRecord
  2
43000908A0
 70
0
 62
7
  6
CONTINUOUS
370
-3
390
F
  0
LAYER
  5
24B
100
AcDbSymbolTableRecord
100
AcDbLayerTableRecord
  2
ASSI
 70
0
 62
7
  6
CONTINUOUS
370
-3
390
F
  0
LAYER
  5
24C
100
AcDbSymbolTableRecord
100
AcDbLayerTableRecord
  2
CAP-E-SMD-8_3-8_3-10_5_1050000
 70
0
 62
7
  6
CONTINUOUS
370
-3
390
F
  0
LAYER
  5
24D
100
AcDbSymbolTableRecord
100
AcDbLayerTableRecord
  2
CAP-E-SMD-8_3-8_3-10_5_105000_1
 70
0
 62
7
  6
CONTINUOUS
370
-3
390
F
  0
LAYER
  5
24E
100
AcDbSymbolTableRecord
100
AcDbLayerTableRecord
  2
CN_M_THT_P5_R1_P3_SET_1750000
 70
0
 62
7
  6
CONTINUOUS
370
-3
390
F
  0
LAYER
  5
24F
100
AcDbSymbolTableRecord
100
AcDbLayerTableRecord
  2
COLOR15
 70
0
 62
7
  6
CONTINUOUS
370
-3
390
F
  0
LAYER
  5
250
100
AcDbSymbolTableRecord
100
AcDbLayerTableRecord
  2
COLOR16
 70
0
 62
7
  6
CONTINUOUS
370
-3
390
F
  0
LAYER
  5
251
100
AcDbSymbolTableRecord
100
AcDbLayerTableRecord
  2
COLORE_MATERIALE
 70
0
 62
7
  6
CONTINUOUS
370
-3
390
F
  0
LAYER
  5
252
100
AcDbSymbolTableRecord
100
AcDbLayerTableRecord
  2
COORDINATE
 70
0
 62
7
  6
CONTINUOUS
370
-3
390
F
  0
LAYER
  5
253
100
AcDbSymbolTableRecord
100
AcDbLayerTableRecord
  2
COORD_ORIGINE
 70
0
 62
7
  6
CONTINUOUS
370
-3
390
F
  0
LAYER
  5
254
100
AcDbSymbolTableRecord
100
AcDbLayerTableRecord
  2
COPY_PUBLISH
 70
0
 62
7
  6
CONTINUOUS
370
-3
390
F
  0
LAYER
  5
255
100
AcDbSymbolTableRecord
100
AcDbLayerTableRecord
  2
COSMETIC
 70
0
 62
7
  6
CONTINUOUS
370
-3
390
F
  0
LAYER
  5
256
100
AcDbSymbolTableRecord
100
AcDbLayerTableRecord
  2
COSMETICI
 70
0
 62
7
  6
CONTINUOUS
370
-3
390
F
  0
LAYER
  5
257
100
AcDbSymbolTableRecord
100
AcDbLayerTableRecord
  2
CURVE
 70
0
 62
7
  6
CONTINUOUS
370
-3
390
F
  0
LAYER
  5
258
100
AcDbSymbolTableRecord
100
AcDbLayerTableRecord
  2
DL_RGB_1_6-1_6-0_5MM_50000
 70
0
 62
7
  6
CONTINUOUS
370
-3
390
F
  0
LAYER
  5
259
100
AcDbSymbolTableRecord
100
AcDbLayerTableRecord
  2
DL_RGB_1_6-1_6-0_5MM_50000_1
 70
0
 62
7
  6
CONTINUOUS
370
-3
390
F
  0
LAYER
  5
25A
100
AcDbSymbolTableRecord
100
AcDbLayerTableRecord
  2
DRAFT
 70
0
 62
7
  6
CONTINUOUS
370
-3
390
F
  0
LAYER
  5
25B
100
AcDbSymbolTableRecord
100
AcDbLayerTableRecord
  2
E4_MARK_10000
 70
0
 62
7
  6
CONTINUOUS
370
-3
390
F
  0
LAYER
  5
25C
100
AcDbSymbolTableRecord
100
AcDbLayerTableRecord
  2
FIDUCIAL_1MM_0
 70
0
 62
7
  6
CONTINUOUS
370
-3
390
F
  0
LAYER
  5
25D
100
AcDbSymbolTableRecord
100
AcDbLayerTableRecord
  2
FIDUCIAL_1MM_0_1
 70
0
 62
7
  6
CONTINUOUS
370
-3
390
F
  0
LAYER
  5
25E
100
AcDbSymbolTableRecord
100
AcDbLayerTableRecord
  2
FIDUCIAL_1MM_0_2
 70
0
 62
7
  6
CONTINUOUS
370
-3
390
F
  0
LAYER
  5
25F
100
AcDbSymbolTableRecord
100
AcDbLayerTableRecord
  2
FIDUCIAL_1MM_0_3
 70
0
 62
7
  6
CONTINUOUS
370
-3
390
F
  0
LAYER
  5
260
100
AcDbSymbolTableRecord
100
AcDbLayerTableRecord
  2
FIDUCIAL_1_2_MM_RUOTATO_45_1000
 70
0
 62
7
  6
CONTINUOUS
370
-3
390
F
  0
LAYER
  5
261
100
AcDbSymbolTableRecord
100
AcDbLayerTableRecord
  2
FIDUCIAL_1_2_MM_RUOTATO_45_10_1
 70
0
 62
7
  6
CONTINUOUS
370
-3
390
F
  0
LAYER
  5
262
100
AcDbSymbolTableRecord
100
AcDbLayerTableRecord
  2
FIDUCIAL_1_2_MM_RUOTATO_45_10_2
 70
0
 62
7
  6
CONTINUOUS
370
-3
390
F
  0
LAYER
  5
263
100
AcDbSymbolTableRecord
100
AcDbLayerTableRecord
  2
FIDUCIAL_1_2_MM_RUOTATO_45_10_3
 70
0
 62
7
  6
CONTINUOUS
370
-3
390
F
  0
LAYER
  5
264
100
AcDbSymbolTableRecord
100
AcDbLayerTableRecord
  2
GEOMETRIA_SOLIDA
 70
0
 62
7
  6
CONTINUOUS
370
-3
390
F
  0
LAYER
  5
265
100
AcDbSymbolTableRecord
100
AcDbLayerTableRecord
  2
GEOMETRIA_SOLIDA_1
 70
0
 62
7
  6
CONTINUOUS
370
-3
390
F
  0
LAYER
  5
266
100
AcDbSymbolTableRecord
100
AcDbLayerTableRecord
  2
GEOMETRIA_SOLIDA_2
 70
0
 62
7
  6
CONTINUOUS
370
-3
390
F
  0
LAYER
  5
267
100
AcDbSymbolTableRecord
100
AcDbLayerTableRecord
  2
GEOMETRIA_SOLIDA_3
 70
0
 62
7
  6
CONTINUOUS
370
-3
390
F
  0
LAYER
  5
268
100
AcDbSymbolTableRecord
100
AcDbLayerTableRecord
  2
IGES
 70
0
 62
7
  6
CONTINUOUS
370
-3
390
F
  0
LAYER
  5
269
100
AcDbSymbolTableRecord
100
AcDbLayerTableRecord
  2
IMPORT_IGES
 70
0
 62
7
  6
CONTINUOUS
370
-3
390
F
  0
LAYER
  5
26A
100
AcDbSymbolTableRecord
100
AcDbLayerTableRecord
  2
IND-CHIP-0805_H1_2_REF_140000
 70
0
 62
7
  6
CONTINUOUS
370
-3
390
F
  0
LAYER
  5
26B
100
AcDbSymbolTableRecord
100
AcDbLayerTableRecord
  2
INTF_1
 70
0
 62
7
  6
CONTINUOUS
370
-3
390
F
  0
LAYER
  5
26C
100
AcDbSymbolTableRecord
100
AcDbLayerTableRecord
  2
INTF_11
 70
0
 62
7
  6
CONTINUOUS
370
-3
390
F
  0
LAYER
  5
26D
100
AcDbSymbolTableRecord
100
AcDbLayerTableRecord
  2
INTF_2
 70
0
 62
7
  6
CONTINUOUS
370
-3
390
F
  0
LAYER
  5
26E
100
AcDbSymbolTableRecord
100
AcDbLayerTableRecord
  2
INTF_BLANK
 70
0
 62
7
  6
CONTINUOUS
370
-3
390
F
  0
LAYER
  5
26F
100
AcDbSymbolTableRecord
100
AcDbLayerTableRecord
  2
INTF_CYAN
 70
0
 62
7
  6
CONTINUOUS
370
-3
390
F
  0
LAYER
  5
270
100
AcDbSymbolTableRecord
100
AcDbLayerTableRecord
  2
LOGO_RESIST-RESTYLING_10000
 70
0
 62
7
  6
CONTINUOUS
370
-3
390
F
  0
LAYER
  5
271
100
AcDbSymbolTableRecord
100
AcDbLayerTableRecord
  2
MM2-SWITCH-1-VIMAR_150000
 70
0
 62
7
  6
CONTINUOUS
370
-3
390
F
  0
LAYER
  5
272
100
AcDbSymbolTableRecord
100
AcDbLayerTableRecord
  2
NO-PB_MARK_10000
 70
0
 62
7
  6
CONTINUOUS
370
-3
390
F
  0
LAYER
  5
273
100
AcDbSymbolTableRecord
100
AcDbLayerTableRecord
  2
NOTE
 70
0
 62
7
  6
CONTINUOUS
370
-3
390
F
  0
LAYER
  5
274
100
AcDbSymbolTableRecord
100
AcDbLayerTableRecord
  2
PIANI
 70
0
 62
7
  6
CONTINUOUS
370
-3
390
F
  0
LAYER
  5
275
100
AcDbSymbolTableRecord
100
AcDbLayerTableRecord
  2
PIANI_DI_RIFERIMENTO
 70
0
 62
7
  6
CONTINUOUS
370
-3
390
F
  0
LAYER
  5
276
100
AcDbSymbolTableRecord
100
AcDbLayerTableRecord
  2
PIANI_ORIGINE
 70
0
 62
7
  6
CONTINUOUS
370
-3
390
F
  0
LAYER
  5
277
100
AcDbSymbolTableRecord
100
AcDbLayerTableRecord
  2
PIANI_RIFERIMENTO
 70
0
 62
7
  6
CONTINUOUS
370
-3
390
F
  0
LAYER
  5
278
100
AcDbSymbolTableRecord
100
AcDbLayerTableRecord
  2
PIPPO
 70
0
 62
7
  6
CONTINUOUS
370
-3
390
F
  0
LAYER
  5
279
100
AcDbSymbolTableRecord
100
AcDbLayerTableRecord
  2
PUNTI
 70
0
 62
7
  6
CONTINUOUS
370
-3
390
F
  0
LAYER
  5
27A
100
AcDbSymbolTableRecord
100
AcDbLayerTableRecord
  2
RACCORDO
 70
0
 62
7
  6
CONTINUOUS
370
-3
390
F
  0
LAYER
  5
27B
100
AcDbSymbolTableRecord
100
AcDbLayerTableRecord
  2
SC88-6_REF_H1_1_110000
 70
0
 62
7
  6
CONTINUOUS
370
-3
390
F
  0
LAYER
  5
27C
100
AcDbSymbolTableRecord
100
AcDbLayerTableRecord
  2
SC88-6_REF_H1_1_110000_1
 70
0
 62
7
  6
CONTINUOUS
370
-3
390
F
  0
LAYER
  5
27D
100
AcDbSymbolTableRecord
100
AcDbLayerTableRecord
  2
SC88-6_REF_H1_1_110000_2
 70
0
 62
7
  6
CONTINUOUS
370
-3
390
F
  0
LAYER
  5
27E
100
AcDbSymbolTableRecord
100
AcDbLayerTableRecord
  2
SIMBOLI
 70
0
 62
7
  6
CONTINUOUS
370
-3
390
F
  0
LAYER
  5
27F
100
AcDbSymbolTableRecord
100
AcDbLayerTableRecord
  2
SMUSSO
 70
0
 62
7
  6
CONTINUOUS
370
-3
390
F
  0
LAYER
  5
280
100
AcDbSymbolTableRecord
100
AcDbLayerTableRecord
  2
SNAPLINE
 70
0
 62
7
  6
CONTINUOUS
370
-3
390
F
  0
LAYER
  5
281
100
AcDbSymbolTableRecord
100
AcDbLayerTableRecord
  2
SOD123_REF_140000
 70
0
 62
7
  6
CONTINUOUS
370
-3
390
F
  0
LAYER
  5
282
100
AcDbSymbolTableRecord
100
AcDbLayerTableRecord
  2
SOT23-5_REF_H1_5_150000
 70
0
 62
7
  6
CONTINUOUS
370
-3
390
F
  0
LAYER
  5
283
100
AcDbSymbolTableRecord
100
AcDbLayerTableRecord
  2
SOT323_H1_1_REF_110000
 70
0
 62
7
  6
CONTINUOUS
370
-3
390
F
  0
LAYER
  5
284
100
AcDbSymbolTableRecord
100
AcDbLayerTableRecord
  2
SOT89_REF_H1_6_160000
 70
0
 62
7
  6
CONTINUOUS
370
-3
390
F
  0
LAYER
  5
285
100
AcDbSymbolTableRecord
100
AcDbLayerTableRecord
  2
SUB_SMA_143000
 70
0
 62
7
  6
CONTINUOUS
370
-3
390
F
  0
LAYER
  5
286
100
AcDbSymbolTableRecord
100
AcDbLayerTableRecord
  2
SUB_SMA_143000_1
 70
0
 62
7
  6
CONTINUOUS
370
-3
390
F
  0
LAYER
  5
287
100
AcDbSymbolTableRecord
100
AcDbLayerTableRecord
  2
SUB_SMA_143000_2
 70
0
 62
7
  6
CONTINUOUS
370
-3
390
F
  0
LAYER
  5
288
100
AcDbSymbolTableRecord
100
AcDbLayerTableRecord
  2
SUPERFICI
 70
0
 62
7
  6
CONTINUOUS
370
-3
390
F
  0
LAYER
  5
289
100
AcDbSymbolTableRecord
100
AcDbLayerTableRecord
  2
SWITCH_SKRP_250000
 70
0
 62
7
  6
CONTINUOUS
370
-3
390
F
  0
LAYER
  5
28A
100
AcDbSymbolTableRecord
100
AcDbLayerTableRecord
  2
SWITCH_SKRP_250000_1
 70
0
 62
7
  6
CONTINUOUS
370
-3
390
F
  0
LAYER
  5
28B
100
AcDbSymbolTableRecord
100
AcDbLayerTableRecord
  2
SWITCH_SKRP_250000_2
 70
0
 62
7
  6
CONTINUOUS
370
-3
390
F
  0
LAYER
  5
28C
100
AcDbSymbolTableRecord
100
AcDbLayerTableRecord
  2
TP-RND-0_8_3500
 70
0
 62
7
  6
CONTINUOUS
370
-3
390
F
  0
LAYER
  5
28D
100
AcDbSymbolTableRecord
100
AcDbLayerTableRecord
  2
TP-RND-0_8_3500_1
 70
0
 62
7
  6
CONTINUOUS
370
-3
390
F
  0
LAYER
  5
28E
100
AcDbSymbolTableRecord
100
AcDbLayerTableRecord
  2
TP-RND-0_8_3500_10
 70
0
 62
7
  6
CONTINUOUS
370
-3
390
F
  0
LAYER
  5
28F
100
AcDbSymbolTableRecord
100
AcDbLayerTableRecord
  2
TP-RND-0_8_3500_11
 70
0
 62
7
  6
CONTINUOUS
370
-3
390
F
  0
LAYER
  5
290
100
AcDbSymbolTableRecord
100
AcDbLayerTableRecord
  2
TP-RND-0_8_3500_2
 70
0
 62
7
  6
CONTINUOUS
370
-3
390
F
  0
LAYER
  5
291
100
AcDbSymbolTableRecord
100
AcDbLayerTableRecord
  2
TP-RND-0_8_3500_3
 70
0
 62
7
  6
CONTINUOUS
370
-3
390
F
  0
LAYER
  5
292
100
AcDbSymbolTableRecord
100
AcDbLayerTableRecord
  2
TP-RND-0_8_3500_4
 70
0
 62
7
  6
CONTINUOUS
370
-3
390
F
  0
LAYER
  5
293
100
AcDbSymbolTableRecord
100
AcDbLayerTableRecord
  2
TP-RND-0_8_3500_5
 70
0
 62
7
  6
CONTINUOUS
370
-3
390
F
  0
LAYER
  5
294
100
AcDbSymbolTableRecord
100
AcDbLayerTableRecord
  2
TP-RND-0_8_3500_6
 70
0
 62
7
  6
CONTINUOUS
370
-3
390
F
  0
LAYER
  5
295
100
AcDbSymbolTableRecord
100
AcDbLayerTableRecord
  2
TP-RND-0_8_3500_7
 70
0
 62
7
  6
CONTINUOUS
370
-3
390
F
  0
LAYER
  5
296
100
AcDbSymbolTableRecord
100
AcDbLayerTableRecord
  2
TP-RND-0_8_3500_8
 70
0
 62
7
  6
CONTINUOUS
370
-3
390
F
  0
LAYER
  5
297
100
AcDbSymbolTableRecord
100
AcDbLayerTableRecord
  2
TP-RND-0_8_3500_9
 70
0
 62
7
  6
CONTINUOUS
370
-3
390
F
  0
LAYER
  5
298
100
AcDbSymbolTableRecord
100
AcDbLayerTableRecord
  2
TP-RND-1_0_3500
 70
0
 62
7
  6
CONTINUOUS
370
-3
390
F
  0
LAYER
  5
299
100
AcDbSymbolTableRecord
100
AcDbLayerTableRecord
  2
TP-RND-1_5_1000
 70
0
 62
7
  6
CONTINUOUS
370
-3
390
F
  0
LAYER
  5
29A
100
AcDbSymbolTableRecord
100
AcDbLayerTableRecord
  2
TP_PROGRAMMAZIONE_SWD_D1_5_1000
 70
0
 62
7
  6
CONTINUOUS
370
-3
390
F
  0
LAYER
  5
29B
100
AcDbSymbolTableRecord
100
AcDbLayerTableRecord
  2
TRASH
 70
0
 62
7
  6
CONTINUOUS
370
-3
390
F
  0
LAYER
  5
29C
100
AcDbSymbolTableRecord
100
AcDbLayerTableRecord
  2
VG_CN-MEZZANINE-F-SMT-P0_8-R2-P
 70
0
 62
7
  6
CONTINUOUS
370
-3
390
F
  0
LAYER
  5
29D
100
AcDbSymbolTableRecord
100
AcDbLayerTableRecord
  2
VG_CN-MEZZANINE-M-SMT-P0_8-R2-P
 70
0
 62
7
  6
CONTINUOUS
370
-3
390
F
  0
LAYER
  5
29E
100
AcDbSymbolTableRecord
100
AcDbLayerTableRecord
  2
VG_IND-RAD-8_8-7_5-5_0-0_6_7500
 70
0
 62
7
  6
CONTINUOUS
370
-3
390
F
  0
LAYER
  5
29F
100
AcDbSymbolTableRecord
100
AcDbLayerTableRecord
  2
VG_IND-SMT-4_0-4_0-2_5-1_55-3_6
 70
0
 62
7
  6
CONTINUOUS
370
-3
390
F
  0
LAYER
  5
2A0
100
AcDbSymbolTableRecord
100
AcDbLayerTableRecord
  2
VG_IND-SMT-7_8-7_8-5_3-2_4-8_0-
 70
0
 62
7
  6
CONTINUOUS
370
-3
390
F
  0
LAYER
  5
2A1
100
AcDbSymbolTableRecord
100
AcDbLayerTableRecord
  2
VG_K_THT_HONGFA_HF115FK-H3T_160
 70
0
 62
7
  6
CONTINUOUS
370
-3
390
F
  0
LAYER
  5
2A2
100
AcDbSymbolTableRecord
100
AcDbLayerTableRecord
  2
VG_PTC-6_5-10_0-5_0-5_0-0-0_6_1
 70
0
 62
7
  6
CONTINUOUS
370
-3
390
F
  0
LAYER
  5
2A3
100
AcDbSymbolTableRecord
100
AcDbLayerTableRecord
  2
VG_QFN24-4_0-4_0-4_0-4_0-1_0-0_
 70
0
 62
7
  6
CONTINUOUS
370
-3
390
F
  0
LAYER
  5
2A4
100
AcDbSymbolTableRecord
100
AcDbLayerTableRecord
  2
VG_QFN48-6_0-6_0-6_0-6_0-1_0-0_
 70
0
 62
7
  6
CONTINUOUS
370
-3
390
F
  0
LAYER
  5
2A5
100
AcDbSymbolTableRecord
100
AcDbLayerTableRecord
  2
VG_VAR_S05_D7_S4_3_H8_5_850000
 70
0
 62
7
  6
CONTINUOUS
370
-3
390
F
  0
LAYER
  5
2A6
100
AcDbSymbolTableRecord
100
AcDbLayerTableRecord
  2
VG_X-SMT-2-3_2-1_5-1_0_100000
 70
0
 62
7
  6
CONTINUOUS
370
-3
390
F
  0
LAYER
  5
2A7
100
AcDbSymbolTableRecord
100
AcDbLayerTableRecord
  2
VG_X-SMT-2-5_0-3_2-1_5_150000
 70
0
 62
7
  6
CONTINUOUS
370
-3
390
F
  0
LAYER
  5
2A8
100
AcDbSymbolTableRecord
100
AcDbLayerTableRecord
  2
X-SMD-3PIN-3_2-2_5_70000
 70
0
 62
7
  6
CONTINUOUS
370
-3
390
F
  0
LAYER
  5
2A9
100
AcDbSymbolTableRecord
100
AcDbLayerTableRecord
  2
XSEC_DATUMS
 70
0
 62
7
  6
CONTINUOUS
370
-3
390
F
  0
LAYER
  5
2AA
100
AcDbSymbolTableRecord
100
AcDbLayerTableRecord
  2
___SHELL
 70
0
 62
7
  6
CONTINUOUS
370
-3
390
F
  0
ENDTAB
  0
TABLE
  2
STYLE
  5
3
100
AcDbSymbolTable
 70
1
  0
STYLE
  5
11
100
AcDbSymbolTableRecord
100
AcDbTextStyleTableRecord
  2
STANDARD
 70
0
 40
0.0
 41
0.8
 50
0.0
 71
0
 42
0.2
  3
txt
  4

  0
STYLE
  5
2AB
100
AcDbSymbolTableRecord
100
AcDbTextStyleTableRecord
  2
TEXTSTYLE_1
 70
0
 40
0.0
 41
0.8
 50
0.0
 71
0
 42
0.2
  3
gdt
  4

  0
ENDTAB
  0
TABLE
  2
VIEW
  5
6
100
AcDbSymbolTable
 70
0
  0
ENDTAB
  0
TABLE
  2
UCS
  5
7
100
AcDbSymbolTable
 70
0
  0
ENDTAB
  0
TABLE
  2
APPID
  5
9
100
AcDbSymbolTable
 70
1
  0
APPID
  5
2AC
100
AcDbSymbolTableRecord
100
AcDbRegAppTableRecord
  2
ACAD
 70
0
  0
ENDTAB
  0
TABLE
  2
BLOCK_RECORD
  5
1
100
AcDbSymbolTable
 70
0
  0
BLOCK_RECORD
  5
2AD
100
AcDbSymbolTableRecord
100
AcDbBlockTableRecord
  2
*Model_Space
  0
BLOCK_RECORD
  5
2AE
100
AcDbSymbolTableRecord
100
AcDbBlockTableRecord
  2
*Paper_Space
  0
BLOCK_RECORD
  5
2AF
100
AcDbSymbolTableRecord
100
AcDbBlockTableRecord
  2
_FILLED
  0
ENDTAB
  0
TABLE
  2
DIMSTYLE
  5
A
100
AcDbSymbolTable
 70
1
100
AcDbDimStyleTable
 71
0
  0
DIMSTYLE
105
2B0
100
AcDbSymbolTableRecord
100
AcDbDimStyleTableRecord
  2
STANDARD
 70
0
  3

  4

 40
1.0
 41
3.0
 42
0.5
 43
0.38
 44
1.5
 45
0.0
 46
0.0
 47
0.01
 48
0.01
140
3.0
141
0.09
142
0.0
143
25.4
144
1.0
145
0.0
146
1.0
147
0.625
 71
1
 72
0
 73
0
 74
0
 75
0
 76
0
 77
1
 78
8
 79
2
170
0
171
1
172
0
173
0
174
0
175
0
176
0
177
0
178
0
270
2
179
2
271
2
272
2
273
2
274
2
275
0
280
0
281
0
282
0
283
1
284
8
285
0
286
0
287
3
288
0
340
11
278
44
341
2AF
342
2AF
343
2AF
344
2AF
  0
ENDTAB
  0
ENDSEC
  0
SECTION
  2
BLOCKS
  0
BLOCK
  5
20
100
AcDbEntity
  8
0
100
AcDbBlockBegin
  2
*Model_Space
 70
0
 10
0.0
 20
0.0
 30
0.0
  3
*Model_Space
  1

  0
ENDBLK
  5
21
100
AcDbEntity
  8
0
100
AcDbBlockEnd
  0
BLOCK
  5
1C
100
AcDbEntity
  8
0
100
AcDbBlockBegin
  2
*Paper_Space
 70
0
 10
0.0
 20
0.0
 30
0.0
  3
*Paper_Space
  1

  0
ENDBLK
  5
1D
100
AcDbEntity
  8
0
100
AcDbBlockEnd
  0
BLOCK
  5
2B1
100
AcDbEntity
  8
0
100
AcDbBlockBegin
  2
_FILLED
 70
64
 10
0.0
 20
0.0
  3
_FILLED
  1

  0
SOLID
  5
2B2
100
AcDbEntity
  8
0
  6
BYBLOCK
 62
0
100
AcDbTrace
 10
0.0
 20
0.0
 11
-1.0
 21
0.3166666667
 12
-1.0
 22
-0.3166666667
 13
-1.0
 23
-0.3166666667
  0
ENDBLK
  5
2B3
100
AcDbEntity
  8
0
  6
BYBLOCK
 62
0
100
AcDbBlockEnd
  0
ENDSEC
  0
SECTION
  2
ENTITIES
  0
LINE
  5
2B4
100
AcDbEntity
  8
SUPERFICI
100
AcDbLine
 62
7
  6
CONTINUOUS
 10
-9.8956323968
 20
-27.485628166
 11
-7.5043676032
 21
-27.485628166
  0
LINE
  5
2B5
100
AcDbEntity
  8
SUPERFICI
100
AcDbLine
 62
7
  6
CONTINUOUS
 10
7.5043676032
 20
-27.485628166
 11
9.8956323968
 21
-27.485628166
  0
LINE
  5
2B6
100
AcDbEntity
  8
SUPERFICI
100
AcDbLine
 62
250
  6
CONTINUOUS
 10
7.254371834
 20
-27.2356323968
 11
10.145628166
 21
-27.2356323968
  0
LINE
  5
2B7
100
AcDbEntity
  8
SUPERFICI
100
AcDbLine
 62
250
  6
CONTINUOUS
 10
-7.254371834
 20
-27.2356323968
 11
-10.145628166
 21
-27.2356323968
  0
LINE
  5
2B8
100
AcDbEntity
  8
SUPERFICI
100
AcDbLine
 62
7
  6
CONTINUOUS
 10
-4.45
 20
-26.99
 11
-1.1999974616
 21
-26.99
  0
LINE
  5
2B9
100
AcDbEntity
  8
SUPERFICI
100
AcDbLine
 62
7
  6
CONTINUOUS
 10
1.1999974616
 20
-26.99
 11
4.45
 21
-26.99
  0
LINE
  5
2BA
100
AcDbEntity
  8
SUPERFICI
100
AcDbLine
 62
7
  6
CONTINUOUS
 10
-3.5348577163
 20
-26.984298655
 11
-1.2085495996
 21
-26.984298655
  0
LINE
  5
2BB
100
AcDbEntity
  8
SUPERFICI
100
AcDbLine
 62
7
  6
CONTINUOUS
 10
1.2085495996
 20
-26.984298655
 11
3.5348577163
 21
-26.984298655
  0
LINE
  5
2BC
100
AcDbEntity
  8
SUPERFICI
100
AcDbLine
 62
7
  6
CONTINUOUS
 10
4.4063493531
 20
-26.9463493531
 11
3.5345265377
 21
-26.9463493531
  0
LINE
  5
2BD
100
AcDbEntity
  8
SUPERFICI
100
AcDbLine
 62
7
  6
CONTINUOUS
 10
-3.5345265377
 20
-26.9463493531
 11
-4.4063493531
 21
-26.9463493531
  0
LINE
  5
2BE
100
AcDbEntity
  8
SUPERFICI
100
AcDbLine
 62
250
  6
CONTINUOUS
 10
7.254371834
 20
-26.8343375673
 11
10.145628166
 21
-26.8343375673
  0
LINE
  5
2BF
100
AcDbEntity
  8
SUPERFICI
100
AcDbLine
 62
250
  6
CONTINUOUS
 10
-7.254371834
 20
-26.8343375673
 11
-10.145628166
 21
-26.8343375673
  0
LINE
  5
2C0
100
AcDbEntity
  8
SUPERFICI
100
AcDbLine
 62
250
  6
CONTINUOUS
 10
9.8956323968
 20
-26.6178312164
 11
7.5043676032
 21
-26.6178312164
  0
LINE
  5
2C1
100
AcDbEntity
  8
SUPERFICI
100
AcDbLine
 62
250
  6
CONTINUOUS
 10
-7.5043676032
 20
-26.6178312164
 11
-9.8956323968
 21
-26.6178312164
  0
LINE
  5
2C2
100
AcDbEntity
  8
SUPERFICI
100
AcDbLine
 62
7
  6
CONTINUOUS
 10
-9.9007229979
 20
-26.1126497308
 11
-7.4992770021
 21
-26.1126497308
  0
LINE
  5
2C3
100
AcDbEntity
  8
SUPERFICI
100
AcDbLine
 62
7
  6
CONTINUOUS
 10
9.9007229979
 20
-26.1126497308
 11
7.4992770021
 21
-26.1126497308
  0
LINE
  5
2C4
100
AcDbEntity
  8
SUPERFICI
100
AcDbLine
 62
7
  6
CONTINUOUS
 10
-8.0665695018
 20
-24.4437354271
 11
-8.25
 21
-24.39
  0
LINE
  5
2C5
100
AcDbEntity
  8
0
100
AcDbLine
 62
7
  6
CONTINUOUS
 10
-0.0
 20
-24.19
 11
5.6821314735
 21
-24.0908180262
  0
LINE
  5
2C6
100
AcDbEntity
  8
ASSI
100
AcDbLine
 62
7
  6
CONTINUOUS
 10
-0.0
 20
-24.19
 11
5.6821314735
 21
-24.0908180262
  0
LINE
  5
2C7
100
AcDbEntity
  8
0
100
AcDbLine
 62
250
  6
CONTINUOUS
 10
-0.0
 20
-23.6900761524
 11
5.6821314735
 21
-23.5908941786
  0
LINE
  5
2C8
100
AcDbEntity
  8
ASSI
100
AcDbLine
 62
250
  6
CONTINUOUS
 10
-0.0
 20
-23.6900761524
 11
5.6821314735
 21
-23.5908941786
  0
LINE
  5
2C9
100
AcDbEntity
  8
SUPERFICI
100
AcDbLine
 62
7
  6
CONTINUOUS
 10
-1.0
 20
-25.39
 11
1.0
 21
-25.39
  0
LINE
  5
2CA
100
AcDbEntity
  8
SUPERFICI
100
AcDbLine
 62
7
  6
CONTINUOUS
 10
4.45
 20
-25.39
 11
10.6500063461
 21
-25.39
  0
LINE
  5
2CB
100
AcDbEntity
  8
SUPERFICI
100
AcDbLine
 62
7
  6
CONTINUOUS
 10
-4.45
 20
-25.39
 11
-10.6500063461
 21
-25.39
  0
LINE
  5
2CC
100
AcDbEntity
  8
SUPERFICI
100
AcDbLine
 62
7
  6
CONTINUOUS
 10
1.0086739534
 20
-25.3847957125
 11
-1.0086739534
 21
-25.3847957125
  0
LINE
  5
2CD
100
AcDbEntity
  8
SUPERFICI
100
AcDbLine
 62
7
  6
CONTINUOUS
 10
10.6412794783
 20
-25.3841821702
 11
7.2558178298
 21
-25.3841821702
  0
LINE
  5
2CE
100
AcDbEntity
  8
SUPERFICI
100
AcDbLine
 62
7
  6
CONTINUOUS
 10
-7.2558178298
 20
-25.3841821702
 11
-10.6412794783
 21
-25.3841821702
  0
LINE
  5
2CF
100
AcDbEntity
  8
SUPERFICI
100
AcDbLine
 62
250
  6
CONTINUOUS
 10
-7.1905416262
 20
-25.3259700255
 11
-3.0055500263
 21
-25.3259700255
  0
LINE
  5
2D0
100
AcDbEntity
  8
SUPERFICI
100
AcDbLine
 62
250
  6
CONTINUOUS
 10
3.0055500263
 20
-25.3259700255
 11
7.1905416262
 21
-25.3259700255
  0
LINE
  5
2D1
100
AcDbEntity
  8
SUPERFICI
100
AcDbLine
 62
7
  6
CONTINUOUS
 10
-3.0
 20
-24.69
 11
3.0
 21
-24.69
  0
LINE
  5
2D2
100
AcDbEntity
  8
SUPERFICI
100
AcDbLine
 62
250
  6
CONTINUOUS
 10
-7.5666456542
 20
-24.3259869487
 11
-2.9968233062
 21
-24.3259869487
  0
LINE
  5
2D3
100
AcDbEntity
  8
SUPERFICI
100
AcDbLine
 62
250
  6
CONTINUOUS
 10
2.9968233062
 20
-24.3259869487
 11
7.5666456542
 21
-24.3259869487
  0
LINE
  5
2D4
100
AcDbEntity
  8
SUPERFICI
100
AcDbLine
 62
7
  6
CONTINUOUS
 10
-7.5666456542
 20
-23.9859955457
 11
-7.3
 21
-23.9859955457
  0
LINE
  5
2D5
100
AcDbEntity
  8
SUPERFICI
100
AcDbLine
 62
7
  6
CONTINUOUS
 10
7.5666456542
 20
-23.9859955457
 11
7.3
 21
-23.9859955457
  0
LINE
  5
2D6
100
AcDbEntity
  8
SUPERFICI
100
AcDbLine
 62
7
  6
CONTINUOUS
 10
7.3
 20
-23.89
 11
8.9498936624
 21
-23.89
  0
LINE
  5
2D7
100
AcDbEntity
  8
SUPERFICI
100
AcDbLine
 62
7
  6
CONTINUOUS
 10
-7.3
 20
-23.89
 11
-8.9498936624
 21
-23.89
  0
LINE
  5
2D8
100
AcDbEntity
  8
SUPERFICI
100
AcDbLine
 62
7
  6
CONTINUOUS
 10
-8.8258650579
 20
-23.5176115984
 11
-7.3
 21
-23.5176115984
  0
LINE
  5
2D9
100
AcDbEntity
  8
SUPERFICI
100
AcDbLine
 62
7
  6
CONTINUOUS
 10
7.3
 20
-23.5176115984
 11
8.8258650579
 21
-23.5176115984
  0
LINE
  5
2DA
100
AcDbEntity
  8
0
100
AcDbLine
 62
250
  6
CONTINUOUS
 10
-7.0
 20
-23.5764659139
 11
-5.0349048129
 21
-23.602191562
  0
LINE
  5
2DB
100
AcDbEntity
  8
ASSI
100
AcDbLine
 62
250
  6
CONTINUOUS
 10
-7.0
 20
-23.5764659139
 11
-5.0349048129
 21
-23.602191562
  0
LINE
  5
2DC
100
AcDbEntity
  8
0
100
AcDbLine
 62
7
  6
CONTINUOUS
 10
-6.5087262032
 20
-24.0763897615
 11
-0.0
 21
-24.19
  0
LINE
  5
2DD
100
AcDbEntity
  8
ASSI
100
AcDbLine
 62
7
  6
CONTINUOUS
 10
-6.5087262032
 20
-24.0763897615
 11
-0.0
 21
-24.19
  0
LINE
  5
2DE
100
AcDbEntity
  8
0
100
AcDbLine
 62
250
  6
CONTINUOUS
 10
-5.0349048129
 20
-23.602191562
 11
-0.0
 21
-23.6900761524
  0
LINE
  5
2DF
100
AcDbEntity
  8
ASSI
100
AcDbLine
 62
250
  6
CONTINUOUS
 10
-5.0349048129
 20
-23.602191562
 11
-0.0
 21
-23.6900761524
  0
LINE
  5
2E0
100
AcDbEntity
  8
SUPERFICI
100
AcDbLine
 62
7
  6
CONTINUOUS
 10
-8.0665695018
 20
-23.9817082642
 11
-8.25
 21
-23.89
  0
LINE
  5
2E1
100
AcDbEntity
  8
0
100
AcDbLine
 62
250
  6
CONTINUOUS
 10
-5.0349048129
 20
-23.277808438
 11
-0.0
 21
-23.1899238476
  0
LINE
  5
2E2
100
AcDbEntity
  8
ASSI
100
AcDbLine
 62
250
  6
CONTINUOUS
 10
-5.0349048129
 20
-23.277808438
 11
-0.0
 21
-23.1899238476
  0
LINE
  5
2E3
100
AcDbEntity
  8
0
100
AcDbLine
 62
7
  6
CONTINUOUS
 10
-6.5087262032
 20
-22.8036102385
 11
8.55236869
 21
-22.5407178492
  0
LINE
  5
2E4
100
AcDbEntity
  8
ASSI
100
AcDbLine
 62
7
  6
CONTINUOUS
 10
-6.5087262032
 20
-22.8036102385
 11
8.55236869
 21
-22.5407178492
  0
LINE
  5
2E5
100
AcDbEntity
  8
0
100
AcDbLine
 62
250
  6
CONTINUOUS
 10
-0.0
 20
-21.6901523048
 11
8.55236869
 21
-21.5408701541
  0
LINE
  5
2E6
100
AcDbEntity
  8
ASSI
100
AcDbLine
 62
250
  6
CONTINUOUS
 10
-0.0
 20
-21.6901523048
 11
8.55236869
 21
-21.5408701541
  0
LINE
  5
2E7
100
AcDbEntity
  8
0
100
AcDbLine
 62
250
  6
CONTINUOUS
 10
-7.0
 20
-23.3035340861
 11
-5.0349048129
 21
-23.277808438
  0
LINE
  5
2E8
100
AcDbEntity
  8
ASSI
100
AcDbLine
 62
250
  6
CONTINUOUS
 10
-7.0
 20
-23.3035340861
 11
-5.0349048129
 21
-23.277808438
  0
LINE
  5
2E9
100
AcDbEntity
  8
SUPERFICI
100
AcDbLine
 62
7
  6
CONTINUOUS
 10
-7.3
 20
-22.69
 11
-6.5
 21
-22.69
  0
LINE
  5
2EA
100
AcDbEntity
  8
SUPERFICI
100
AcDbLine
 62
7
  6
CONTINUOUS
 10
-9.65
 20
-22.49
 11
-10.15
 21
-22.49
  0
LINE
  5
2EB
100
AcDbEntity
  8
SUPERFICI
100
AcDbLine
 62
7
  6
CONTINUOUS
 10
9.65
 20
-22.49
 11
10.15
 21
-22.49
  0
LINE
  5
2EC
100
AcDbEntity
  8
0
100
AcDbLine
 62
7
  6
CONTINUOUS
 10
-6.0
 20
-22.7852696104
 11
-5.7289961631
 21
-22.79
  0
LINE
  5
2ED
100
AcDbEntity
  8
0
100
AcDbLine
 62
7
  6
CONTINUOUS
 10
-8.55236869
 20
-22.5407178492
 11
-0.0
 21
-22.69
  0
LINE
  5
2EE
100
AcDbEntity
  8
0
100
AcDbLine
 62
250
  6
CONTINUOUS
 10
-8.55236869
 20
-21.5408701541
 11
-0.0
 21
-21.6901523048
  0
LINE
  5
2EF
100
AcDbEntity
  8
SUPERFICI
100
AcDbLine
 62
250
  6
CONTINUOUS
 10
-1.0
 20
-26.7900067692
 11
-1.00856737
 21
-26.7842952698
  0
LINE
  5
2F0
100
AcDbEntity
  8
SUPERFICI
100
AcDbLine
 62
7
  6
CONTINUOUS
 10
-11.1412731322
 20
-21.4987268678
 11
-10.15
 21
-22.49
  0
LINE
  5
2F1
100
AcDbEntity
  8
SUPERFICI
100
AcDbLine
 62
7
  6
CONTINUOUS
 10
-7.2558178298
 20
-25.3841821702
 11
-8.25
 21
-24.39
  0
LINE
  5
2F2
100
AcDbEntity
  8
0
100
AcDbLine
 62
7
  6
CONTINUOUS
 10
-10.8571067812
 20
-20.6328932188
 11
-9.2420230647
 21
-22.2479769353
  0
LINE
  5
2F3
100
AcDbEntity
  8
SUPERFICI
100
AcDbLine
 62
7
  6
CONTINUOUS
 10
-9.65
 20
-23.1890396502
 11
-8.9498936624
 21
-23.89
  0
LINE
  5
2F4
100
AcDbEntity
  8
SUPERFICI
100
AcDbLine
 62
7
  6
CONTINUOUS
 10
-8.0665695018
 20
18.0017082642
 11
-8.25
 21
17.91
  0
LINE
  5
2F5
100
AcDbEntity
  8
SUPERFICI
100
AcDbLine
 62
7
  6
CONTINUOUS
 10
-8.0665695018
 20
18.4637354271
 11
-8.25
 21
18.41
  0
LINE
  5
2F6
100
AcDbEntity
  8
SUPERFICI
100
AcDbLine
 62
7
  6
CONTINUOUS
 10
11.1849101299
 20
-21.1373460386
 11
11.1325462644
 21
-21.1373460386
  0
LINE
  5
2F7
100
AcDbEntity
  8
SUPERFICI
100
AcDbLine
 62
7
  6
CONTINUOUS
 10
-11.1849101299
 20
-21.1373460386
 11
-11.1325462644
 21
-21.1373460386
  0
LINE
  5
2F8
100
AcDbEntity
  8
0
100
AcDbLine
 62
250
  6
CONTINUOUS
 10
10.1674524064
 20
-19.9257864376
 11
11.15
 21
-19.9257864376
  0
LINE
  5
2F9
100
AcDbEntity
  8
ASSI
100
AcDbLine
 62
250
  6
CONTINUOUS
 10
10.1674524064
 20
-19.9257864376
 11
11.15
 21
-19.9257864376
  0
LINE
  5
2FA
100
AcDbEntity
  8
0
100
AcDbLine
 62
250
  6
CONTINUOUS
 10
-10.1674524064
 20
-19.9257864376
 11
-11.15
 21
-19.9257864376
  0
LINE
  5
2FB
100
AcDbEntity
  8
0
100
AcDbLine
 62
250
  6
CONTINUOUS
 10
-10.1674524064
 20
-19.9257864376
 11
-8.55236869
 21
-21.5408701541
  0
LINE
  5
2FC
100
AcDbEntity
  8
SUPERFICI
100
AcDbLine
 62
7
  6
CONTINUOUS
 10
-9.65
 20
17.2090396502
 11
-8.9498936624
 21
17.91
  0
LINE
  5
2FD
100
AcDbEntity
  8
SUPERFICI
100
AcDbLine
 62
7
  6
CONTINUOUS
 10
-7.2558178298
 20
19.4041821702
 11
-8.25
 21
18.41
  0
LINE
  5
2FE
100
AcDbEntity
  8
SUPERFICI
100
AcDbLine
 62
7
  6
CONTINUOUS
 10
-11.1412731322
 20
15.5187268678
 11
-10.15
 21
16.51
  0
LINE
  5
2FF
100
AcDbEntity
  8
0
100
AcDbLine
 62
7
  6
CONTINUOUS
 10
-9.2420230647
 20
16.2679769353
 11
-10.8571067812
 21
14.6528932188
  0
LINE
  5
300
100
AcDbEntity
  8
SUPERFICI
100
AcDbLine
 62
250
  6
CONTINUOUS
 10
-1.00856737
 20
20.8042952698
 11
-1.0
 21
20.8100067692
  0
LINE
  5
301
100
AcDbEntity
  8
CURVE
100
AcDbLine
 62
250
  6
CONTINUOUS
 10
4.0013081364
 20
-19.0614285523
 11
5.5010796791
 21
-19.0614285523
  0
LINE
  5
302
100
AcDbEntity
  8
CURVE
100
AcDbLine
 62
250
  6
CONTINUOUS
 10
5.0725735049
 20
-18.6328571045
 11
4.4298142659
 21
-18.6328571045
  0
LINE
  5
303
100
AcDbEntity
  8
CURVE
100
AcDbLine
 62
250
  6
CONTINUOUS
 10
7.1436865686
 20
-17.99
 11
6.5009273743
 21
-17.99
  0
LINE
  5
304
100
AcDbEntity
  8
CURVE
100
AcDbLine
 62
250
  6
CONTINUOUS
 10
4.4298142659
 20
-17.8828571939
 11
5.0725735049
 21
-17.8828571939
  0
LINE
  5
305
100
AcDbEntity
  8
0
100
AcDbLine
 62
250
  6
CONTINUOUS
 10
-8.55236869
 20
15.5608701541
 11
-10.1674524064
 21
13.9457864376
  0
LINE
  5
306
100
AcDbEntity
  8
CURVE
100
AcDbLine
 62
250
  6
CONTINUOUS
 10
1.1998172342
 20
-17.5257144028
 11
2.6995887769
 21
-17.5257144028
  0
LINE
  5
307
100
AcDbEntity
  8
CURVE
100
AcDbLine
 62
250
  6
CONTINUOUS
 10
5.0725735049
 20
-17.4542857909
 11
4.4298142659
 21
-17.4542857909
  0
LINE
  5
308
100
AcDbEntity
  8
CURVE
100
AcDbLine
 62
250
  6
CONTINUOUS
 10
7.7864458299
 20
-17.3471428508
 11
7.357939678
 21
-17.3471428508
  0
LINE
  5
309
100
AcDbEntity
  8
CURVE
100
AcDbLine
 62
250
  6
CONTINUOUS
 10
1.9497030056
 20
-17.0971429551
 11
2.4853356898
 21
-17.0971429551
  0
LINE
  5
30A
100
AcDbEntity
  8
CURVE
100
AcDbLine
 62
250
  6
CONTINUOUS
 10
7.5721927428
 20
-16.918571403
 11
6.9294335038
 21
-16.918571403
  0
LINE
  5
30B
100
AcDbEntity
  8
CURVE
100
AcDbLine
 62
250
  6
CONTINUOUS
 10
4.4298142659
 20
-16.7042857909
 11
5.0725735049
 21
-16.7042857909
  0
LINE
  5
30C
100
AcDbEntity
  8
CURVE
100
AcDbLine
 62
250
  6
CONTINUOUS
 10
2.4853356898
 20
-16.3471430445
 11
2.0568295379
 21
-16.3471430445
  0
LINE
  5
30D
100
AcDbEntity
  8
CURVE
100
AcDbLine
 62
250
  6
CONTINUOUS
 10
6.9294335038
 20
-16.168571403
 11
7.5721927428
 21
-16.168571403
  0
LINE
  5
30E
100
AcDbEntity
  8
SUPERFICI
100
AcDbLine
 62
7
  6
CONTINUOUS
 10
4.4063493531
 20
-26.9463493531
 11
4.45
 21
-26.99
  0
LINE
  5
30F
100
AcDbEntity
  8
CURVE
100
AcDbLine
 62
250
  6
CONTINUOUS
 10
2.3782091574
 20
-14.6328574324
 11
1.6283233637
 21
-14.6328574324
  0
LINE
  5
310
100
AcDbEntity
  8
CURVE
100
AcDbLine
 62
250
  6
CONTINUOUS
 10
7.2508131457
 20
-14.5971429253
 11
7.7864458299
 21
-14.5971429253
  0
LINE
  5
311
100
AcDbEntity
  8
CURVE
100
AcDbLine
 62
250
  6
CONTINUOUS
 10
4.4298142659
 20
-14.4542856121
 11
4.2155612012
 21
-14.4542856121
  0
LINE
  5
312
100
AcDbEntity
  8
CURVE
100
AcDbLine
 62
250
  6
CONTINUOUS
 10
7.7864458299
 20
-13.8471429253
 11
7.357939678
 21
-13.8471429253
  0
LINE
  5
313
100
AcDbEntity
  8
CURVE
100
AcDbLine
 62
250
  6
CONTINUOUS
 10
2.6995887769
 20
-15.9185716414
 11
1.1998172342
 21
-15.4900000596
  0
LINE
  5
314
100
AcDbEntity
  8
CURVE
100
AcDbLine
 62
250
  6
CONTINUOUS
 10
4.4298142659
 20
-18.6328571045
 11
4.2155612012
 21
-18.5257142985
  0
LINE
  5
315
100
AcDbEntity
  8
CURVE
100
AcDbLine
 62
250
  6
CONTINUOUS
 10
1.521196876
 20
-16.8828572536
 11
1.9497030056
 21
-17.0971429551
  0
LINE
  5
316
100
AcDbEntity
  8
CURVE
100
AcDbLine
 62
250
  6
CONTINUOUS
 10
5.0725735049
 20
-17.8828571939
 11
5.286826592
 21
-17.99
  0
LINE
  5
317
100
AcDbEntity
  8
CURVE
100
AcDbLine
 62
250
  6
CONTINUOUS
 10
4.4298142659
 20
-17.4542857909
 11
4.2155612012
 21
-17.3471428061
  0
LINE
  5
318
100
AcDbEntity
  8
SUPERFICI
100
AcDbLine
 62
250
  6
CONTINUOUS
 10
11.1412731322
 20
-24.8841990932
 11
11.15
 21
-24.890016923
  0
LINE
  5
319
100
AcDbEntity
  8
SUPERFICI
100
AcDbLine
 62
7
  6
CONTINUOUS
 10
7.1905416262
 20
-25.3259700255
 11
7.2558178298
 21
-25.3841821702
  0
LINE
  5
31A
100
AcDbEntity
  8
SUPERFICI
100
AcDbLine
 62
7
  6
CONTINUOUS
 10
4.45
 20
-25.39
 11
4.406077753
 21
-25.346077753
  0
LINE
  5
31B
100
AcDbEntity
  8
SUPERFICI
100
AcDbLine
 62
7
  6
CONTINUOUS
 10
-11.15
 20
-21.49
 11
-11.1849101299
 21
-21.1373460386
  0
LINE
  5
31C
100
AcDbEntity
  8
SUPERFICI
100
AcDbLine
 62
7
  6
CONTINUOUS
 10
-11.1849101299
 20
15.1573460386
 11
-11.15
 21
15.51
  0
LINE
  5
31D
100
AcDbEntity
  8
SUPERFICI
100
AcDbLine
 62
7
  6
CONTINUOUS
 10
4.4063493531
 20
20.9663493531
 11
4.45
 21
21.01
  0
LINE
  5
31E
100
AcDbEntity
  8
CURVE
100
AcDbLine
 62
250
  6
CONTINUOUS
 10
5.5010796791
 20
-13.5257141495
 11
4.7511939078
 21
-13.5257141495
  0
LINE
  5
31F
100
AcDbEntity
  8
CURVE
100
AcDbLine
 62
250
  6
CONTINUOUS
 10
7.5721927428
 20
-13.4185713434
 11
6.9294335038
 21
-13.4185713434
  0
LINE
  5
320
100
AcDbEntity
  8
CURVE
100
AcDbLine
 62
250
  6
CONTINUOUS
 10
1.7354499408
 20
-13.3828571939
 11
1.414070299
 21
-13.3828571939
  0
LINE
  5
321
100
AcDbEntity
  8
CURVE
100
AcDbLine
 62
250
  6
CONTINUOUS
 10
2.5924622334
 20
-13.3471430445
 11
2.0568295379
 21
-13.3471430445
  0
LINE
  5
322
100
AcDbEntity
  8
CURVE
100
AcDbLine
 62
250
  6
CONTINUOUS
 10
5.0725735049
 20
-12.8471431637
 11
4.4298142659
 21
-12.8471431637
  0
LINE
  5
323
100
AcDbEntity
  8
CURVE
100
AcDbLine
 62
250
  6
CONTINUOUS
 10
2.5567533892
 20
-12.7042858505
 11
2.5210445451
 21
-12.7042858505
  0
LINE
  5
324
100
AcDbEntity
  8
CURVE
100
AcDbLine
 62
250
  6
CONTINUOUS
 10
6.9294335038
 20
-12.6685713434
 11
7.5721927428
 21
-12.6685713434
  0
LINE
  5
325
100
AcDbEntity
  8
CURVE
100
AcDbLine
 62
250
  6
CONTINUOUS
 10
2.5210445451
 20
-12.5614285374
 11
2.5567533892
 21
-12.5614285374
  0
LINE
  5
326
100
AcDbEntity
  8
CURVE
100
AcDbLine
 62
250
  6
CONTINUOUS
 10
8.000698917
 20
-12.2400001192
 11
6.5009273743
 21
-12.2400001192
  0
LINE
  5
327
100
AcDbEntity
  8
CURVE
100
AcDbLine
 62
250
  6
CONTINUOUS
 10
4.4298142659
 20
-12.0971431637
 11
5.0725735049
 21
-12.0971431637
  0
LINE
  5
328
100
AcDbEntity
  8
CURVE
100
AcDbLine
 62
250
  6
CONTINUOUS
 10
1.8425764285
 20
-12.0614286566
 11
1.1998172342
 21
-12.0614286566
  0
LINE
  5
329
100
AcDbEntity
  8
CURVE
100
AcDbLine
 62
250
  6
CONTINUOUS
 10
5.1797000596
 20
-14.0257143879
 11
4.0013081364
 21
-13.7042856121
  0
LINE
  5
32A
100
AcDbEntity
  8
CURVE
100
AcDbLine
 62
250
  6
CONTINUOUS
 10
5.0725735049
 20
-16.7042857909
 11
5.286826592
 21
-16.811428597
  0
LINE
  5
32B
100
AcDbEntity
  8
CURVE
100
AcDbLine
 62
250
  6
CONTINUOUS
 10
1.6283233637
 20
-14.6328574324
 11
1.1998172342
 21
-14.4185714626
  0
LINE
  5
32C
100
AcDbEntity
  8
CURVE
100
AcDbLine
 62
250
  6
CONTINUOUS
 10
6.9294335038
 20
-16.918571403
 11
6.715180439
 21
-16.811428597
  0
LINE
  5
32D
100
AcDbEntity
  8
SUPERFICI
100
AcDbLine
 62
7
  6
CONTINUOUS
 10
-11.1325462644
 20
15.1573460386
 11
-11.15
 21
15.51
  0
LINE
  5
32E
100
AcDbEntity
  8
SUPERFICI
100
AcDbLine
 62
250
  6
CONTINUOUS
 10
-10.145628166
 20
-26.8343375673
 11
-10.15
 21
-26.4004851482
  0
LINE
  5
32F
100
AcDbEntity
  8
SUPERFICI
100
AcDbLine
 62
250
  6
CONTINUOUS
 10
-9.8956323968
 20
-26.6178312164
 11
-9.9007229979
 21
-26.1126497308
  0
LINE
  5
330
100
AcDbEntity
  8
SUPERFICI
100
AcDbLine
 62
250
  6
CONTINUOUS
 10
-10.145628166
 20
-27.2356323968
 11
-10.1456238859
 21
-27.2370868299
  0
LINE
  5
331
100
AcDbEntity
  8
SUPERFICI
100
AcDbLine
 62
7
  6
CONTINUOUS
 10
-11.1849101299
 20
15.1573460386
 11
-11.1849101299
 21
-21.1373460386
  0
LINE
  5
332
100
AcDbEntity
  8
SUPERFICI
100
AcDbLine
 62
7
  6
CONTINUOUS
 10
-11.15
 20
18.910016923
 11
-11.15
 21
15.51
  0
LINE
  5
333
100
AcDbEntity
  8
0
100
AcDbLine
 62
7
  6
CONTINUOUS
 10
-11.15
 20
13.9457864376
 11
-11.15
 21
-19.9257864376
  0
LINE
  5
334
100
AcDbEntity
  8
SUPERFICI
100
AcDbLine
 62
7
  6
CONTINUOUS
 10
-11.15
 20
-24.890016923
 11
-11.15
 21
-21.49
  0
LINE
  5
335
100
AcDbEntity
  8
SUPERFICI
100
AcDbLine
 62
7
  6
CONTINUOUS
 10
-11.1412731322
 20
-24.8841990932
 11
-11.1412731322
 21
-21.4987268678
  0
LINE
  5
336
100
AcDbEntity
  8
SUPERFICI
100
AcDbLine
 62
7
  6
CONTINUOUS
 10
-11.1412731322
 20
15.5187268678
 11
-11.1412731322
 21
18.9041990932
  0
LINE
  5
337
100
AcDbEntity
  8
SUPERFICI
100
AcDbLine
 62
7
  6
CONTINUOUS
 10
-11.1325462644
 20
15.5274537356
 11
-11.1325462644
 21
15.1573460386
  0
LINE
  5
338
100
AcDbEntity
  8
SUPERFICI
100
AcDbLine
 62
7
  6
CONTINUOUS
 10
-11.1325462644
 20
-21.1373460386
 11
-11.1325462644
 21
-21.5074537356
  0
LINE
  5
339
100
AcDbEntity
  8
0
100
AcDbLine
 62
250
  6
CONTINUOUS
 10
-10.1674524064
 20
13.9457864376
 11
-10.1674524064
 21
-19.9257864376
  0
LINE
  5
33A
100
AcDbEntity
  8
SUPERFICI
100
AcDbLine
 62
7
  6
CONTINUOUS
 10
-10.15
 20
-25.39
 11
-10.15
 21
-26.8343375673
  0
LINE
  5
33B
100
AcDbEntity
  8
SUPERFICI
100
AcDbLine
 62
7
  6
CONTINUOUS
 10
-10.15
 20
19.41
 11
-10.15
 21
20.8543375673
  0
LINE
  5
33C
100
AcDbEntity
  8
SUPERFICI
100
AcDbLine
 62
7
  6
CONTINUOUS
 10
-10.145628166
 20
21.2556323968
 11
-10.145628166
 21
20.8543375673
  0
LINE
  5
33D
100
AcDbEntity
  8
SUPERFICI
100
AcDbLine
 62
7
  6
CONTINUOUS
 10
-10.145628166
 20
-26.8343375673
 11
-10.145628166
 21
-27.2356323968
  0
LINE
  5
33E
100
AcDbEntity
  8
SUPERFICI
100
AcDbLine
 62
250
  6
CONTINUOUS
 10
-9.8956323968
 20
-26.6178312164
 11
-9.8956323968
 21
-27.485628166
  0
LINE
  5
33F
100
AcDbEntity
  8
SUPERFICI
100
AcDbLine
 62
250
  6
CONTINUOUS
 10
-9.8956323968
 20
20.6378312164
 11
-9.8956323968
 21
21.505628166
  0
LINE
  5
340
100
AcDbEntity
  8
0
100
AcDbLine
 62
7
  6
CONTINUOUS
 10
-9.6674550649
 20
-22.49
 11
-9.6674550649
 21
-21.8225449351
  0
LINE
  5
341
100
AcDbEntity
  8
0
100
AcDbLine
 62
7
  6
CONTINUOUS
 10
-9.6674550649
 20
15.8425449351
 11
-9.6674550649
 21
16.51
  0
LINE
  5
342
100
AcDbEntity
  8
SUPERFICI
100
AcDbLine
 62
7
  6
CONTINUOUS
 10
-9.65
 20
-23.1890396502
 11
-9.65
 21
-22.49
  0
LINE
  5
343
100
AcDbEntity
  8
SUPERFICI
100
AcDbLine
 62
7
  6
CONTINUOUS
 10
-9.65
 20
16.51
 11
-9.65
 21
17.2090396502
  0
LINE
  5
344
100
AcDbEntity
  8
SUPERFICI
100
AcDbLine
 62
250
  6
CONTINUOUS
 10
-10.15
 20
20.4204851482
 11
-10.145628166
 21
20.8543375673
  0
LINE
  5
345
100
AcDbEntity
  8
SUPERFICI
100
AcDbLine
 62
250
  6
CONTINUOUS
 10
-9.9007229979
 20
20.1326497308
 11
-9.8956323968
 21
20.6378312164
  0
LINE
  5
346
100
AcDbEntity
  8
SUPERFICI
100
AcDbLine
 62
7
  6
CONTINUOUS
 10
-11.15
 20
-21.49
 11
-11.1325462644
 21
-21.1373460386
  0
LINE
  5
347
100
AcDbEntity
  8
SUPERFICI
100
AcDbLine
 62
7
  6
CONTINUOUS
 10
4.45
 20
19.41
 11
4.406077753
 21
19.366077753
  0
LINE
  5
348
100
AcDbEntity
  8
SUPERFICI
100
AcDbLine
 62
7
  6
CONTINUOUS
 10
7.1905416262
 20
19.3459700255
 11
7.2558178298
 21
19.4041821702
  0
LINE
  5
349
100
AcDbEntity
  8
CURVE
100
AcDbLine
 62
250
  6
CONTINUOUS
 10
6.5009273743
 20
-11.4899997616
 11
8.000698917
 21
-11.4899997616
  0
LINE
  5
34A
100
AcDbEntity
  8
CURVE
100
AcDbLine
 62
250
  6
CONTINUOUS
 10
2.4853356898
 20
-11.4185714626
 11
2.0568295379
 21
-11.4185714626
  0
LINE
  5
34B
100
AcDbEntity
  8
CURVE
100
AcDbLine
 62
250
  6
CONTINUOUS
 10
2.3782091574
 20
-10.7757146263
 11
1.6283233637
 21
-10.7757146263
  0
LINE
  5
34C
100
AcDbEntity
  8
CURVE
100
AcDbLine
 62
250
  6
CONTINUOUS
 10
7.5721927428
 20
-16.168571403
 11
7.7864458299
 21
-16.2757142091
  0
LINE
  5
34D
100
AcDbEntity
  8
CURVE
100
AcDbLine
 62
250
  6
CONTINUOUS
 10
2.5210445451
 20
-12.7042858505
 11
2.4496268457
 21
-12.668571701
  0
LINE
  5
34E
100
AcDbEntity
  8
CURVE
100
AcDbLine
 62
250
  6
CONTINUOUS
 10
2.5567533892
 20
-12.5614285374
 11
2.6281710831
 21
-12.5971430445
  0
LINE
  5
34F
100
AcDbEntity
  8
CURVE
100
AcDbLine
 62
250
  6
CONTINUOUS
 10
6.8223070161
 20
-14.3828573132
 11
7.2508131457
 21
-14.5971429253
  0
LINE
  5
350
100
AcDbEntity
  8
CURVE
100
AcDbLine
 62
250
  6
CONTINUOUS
 10
4.0013081364
 20
-14.99
 11
4.3226877782
 21
-15.2042856121
  0
LINE
  5
351
100
AcDbEntity
  8
CURVE
100
AcDbLine
 62
250
  6
CONTINUOUS
 10
1.6283233637
 20
-17.9542858505
 11
1.1998172342
 21
-17.5257144028
  0
LINE
  5
352
100
AcDbEntity
  8
CURVE
100
AcDbLine
 62
250
  6
CONTINUOUS
 10
1.1998172342
 20
-16.561428746
 11
1.521196876
 21
-16.8828572536
  0
LINE
  5
353
100
AcDbEntity
  8
CURVE
100
AcDbLine
 62
250
  6
CONTINUOUS
 10
4.4298142659
 20
-19.49
 11
4.0013081364
 21
-19.0614285523
  0
LINE
  5
354
100
AcDbEntity
  8
CURVE
100
AcDbLine
 62
250
  6
CONTINUOUS
 10
4.2155612012
 20
-18.5257142985
 11
4.0013081364
 21
-18.311428597
  0
LINE
  5
355
100
AcDbEntity
  8
CURVE
100
AcDbLine
 62
250
  6
CONTINUOUS
 10
2.6995887769
 20
-16.561428746
 11
2.4853356898
 21
-16.3471430445
  0
LINE
  5
356
100
AcDbEntity
  8
SUPERFICI
100
AcDbLine
 62
7
  6
CONTINUOUS
 10
-8.25
 20
-24.39
 11
-8.25
 21
-23.89
  0
LINE
  5
357
100
AcDbEntity
  8
SUPERFICI
100
AcDbLine
 62
7
  6
CONTINUOUS
 10
-8.25
 20
17.91
 11
-8.25
 21
18.41
  0
LINE
  5
358
100
AcDbEntity
  8
SUPERFICI
100
AcDbLine
 62
250
  6
CONTINUOUS
 10
-8.0665695018
 20
-24.4437354271
 11
-8.0665695018
 21
-23.9817082642
  0
LINE
  5
359
100
AcDbEntity
  8
SUPERFICI
100
AcDbLine
 62
250
  6
CONTINUOUS
 10
-8.0665695018
 20
18.0017082642
 11
-8.0665695018
 21
18.4637354271
  0
LINE
  5
35A
100
AcDbEntity
  8
CURVE
100
AcDbLine
 62
250
  6
CONTINUOUS
 10
3.2547551783
 20
12.3225
 11
3.671358397
 21
12.635
  0
LINE
  5
35B
100
AcDbEntity
  8
SUPERFICI
100
AcDbLine
 62
250
  6
CONTINUOUS
 10
11.15
 20
18.910016923
 11
11.1412731322
 21
18.9041990932
  0
LINE
  5
35C
100
AcDbEntity
  8
CURVE
100
AcDbLine
 62
250
  6
CONTINUOUS
 10
5.5010796791
 20
-11.24
 11
4.0013081364
 21
-10.8114287758
  0
LINE
  5
35D
100
AcDbEntity
  8
CURVE
100
AcDbLine
 62
250
  6
CONTINUOUS
 10
2.6995887769
 20
-10.3471426868
 11
1.1998172342
 21
-9.9185714626
  0
LINE
  5
35E
100
AcDbEntity
  8
CURVE
100
AcDbLine
 62
250
  6
CONTINUOUS
 10
4.4298142659
 20
-12.8471431637
 11
4.2155612012
 21
-12.74
  0
LINE
  5
35F
100
AcDbEntity
  8
CURVE
100
AcDbLine
 62
250
  6
CONTINUOUS
 10
6.9294335038
 20
-13.4185713434
 11
6.715180439
 21
-13.3114285374
  0
LINE
  5
360
100
AcDbEntity
  8
CURVE
100
AcDbLine
 62
250
  6
CONTINUOUS
 10
2.8067153205
 20
-10.9900002384
 11
2.3782091574
 21
-10.7757146263
  0
LINE
  5
361
100
AcDbEntity
  8
CURVE
100
AcDbLine
 62
250
  6
CONTINUOUS
 10
5.0725735049
 20
-12.0971431637
 11
5.286826592
 21
-12.2042856121
  0
LINE
  5
362
100
AcDbEntity
  8
CURVE
100
AcDbLine
 62
250
  6
CONTINUOUS
 10
7.5721927428
 20
-12.6685713434
 11
7.7864458299
 21
-12.7757141495
  0
LINE
  5
363
100
AcDbEntity
  8
CURVE
100
AcDbLine
 62
250
  6
CONTINUOUS
 10
6.6437627508
 20
-14.8828571939
 11
7.9649900701
 21
-15.74
  0
LINE
  5
364
100
AcDbEntity
  8
CURVE
100
AcDbLine
 62
250
  6
CONTINUOUS
 10
5.5010796791
 20
-15.2042856121
 11
4.4298142659
 21
-14.4542856121
  0
LINE
  5
365
100
AcDbEntity
  8
CURVE
100
AcDbLine
 62
250
  6
CONTINUOUS
 10
4.2155612012
 20
-17.3471428061
 11
4.0013081364
 21
-17.1328571939
  0
LINE
  5
366
100
AcDbEntity
  8
CURVE
100
AcDbLine
 62
250
  6
CONTINUOUS
 10
5.286826592
 20
-17.99
 11
5.5010796791
 21
-18.2042857015
  0
LINE
  5
367
100
AcDbEntity
  8
CURVE
100
AcDbLine
 62
250
  6
CONTINUOUS
 10
5.286826592
 20
-16.811428597
 11
5.5010796791
 21
-17.0257142091
  0
LINE
  5
368
100
AcDbEntity
  8
SUPERFICI
100
AcDbLine
 62
250
  6
CONTINUOUS
 10
-7.5043676032
 20
20.6378312164
 11
-7.4992770021
 21
20.1326497308
  0
LINE
  5
369
100
AcDbEntity
  8
SUPERFICI
100
AcDbLine
 62
250
  6
CONTINUOUS
 10
-7.254371834
 20
20.8543375673
 11
-7.25
 21
20.4204851482
  0
LINE
  5
36A
100
AcDbEntity
  8
SUPERFICI
100
AcDbLine
 62
250
  6
CONTINUOUS
 10
-7.5666456542
 20
-24.3259869487
 11
-7.5666456542
 21
-23.9859955457
  0
LINE
  5
36B
100
AcDbEntity
  8
SUPERFICI
100
AcDbLine
 62
250
  6
CONTINUOUS
 10
-7.5666456542
 20
18.0059955457
 11
-7.5666456542
 21
18.3459869487
  0
LINE
  5
36C
100
AcDbEntity
  8
SUPERFICI
100
AcDbLine
 62
250
  6
CONTINUOUS
 10
-7.5043676032
 20
-26.6178312164
 11
-7.5043676032
 21
-27.485628166
  0
LINE
  5
36D
100
AcDbEntity
  8
SUPERFICI
100
AcDbLine
 62
250
  6
CONTINUOUS
 10
-7.5043676032
 20
20.6378312164
 11
-7.5043676032
 21
21.505628166
  0
LINE
  5
36E
100
AcDbEntity
  8
SUPERFICI
100
AcDbLine
 62
7
  6
CONTINUOUS
 10
-7.3
 20
18.0059955457
 11
-7.3
 21
16.71
  0
LINE
  5
36F
100
AcDbEntity
  8
SUPERFICI
100
AcDbLine
 62
7
  6
CONTINUOUS
 10
-7.3
 20
-22.69
 11
-7.3
 21
-23.9859955457
  0
LINE
  5
370
100
AcDbEntity
  8
SUPERFICI
100
AcDbLine
 62
7
  6
CONTINUOUS
 10
-7.254371834
 20
-27.2356323968
 11
-7.254371834
 21
-26.8343375673
  0
LINE
  5
371
100
AcDbEntity
  8
SUPERFICI
100
AcDbLine
 62
7
  6
CONTINUOUS
 10
-7.254371834
 20
20.8543375673
 11
-7.254371834
 21
21.2556323968
  0
LINE
  5
372
100
AcDbEntity
  8
SUPERFICI
100
AcDbLine
 62
7
  6
CONTINUOUS
 10
-7.25
 20
-25.39
 11
-7.25
 21
-26.8343375673
  0
LINE
  5
373
100
AcDbEntity
  8
SUPERFICI
100
AcDbLine
 62
7
  6
CONTINUOUS
 10
-7.25
 20
19.41
 11
-7.25
 21
20.8543375673
  0
LINE
  5
374
100
AcDbEntity
  8
0
100
AcDbLine
 62
7
  6
CONTINUOUS
 10
-7.0
 20
-23.5764659139
 11
-7.0
 21
-23.3035340861
  0
LINE
  5
375
100
AcDbEntity
  8
ASSI
100
AcDbLine
 62
7
  6
CONTINUOUS
 10
-7.0
 20
-23.5764659139
 11
-7.0
 21
-23.3035340861
  0
LINE
  5
376
100
AcDbEntity
  8
0
100
AcDbLine
 62
7
  6
CONTINUOUS
 10
-7.0
 20
17.3235340861
 11
-7.0
 21
17.5964659139
  0
LINE
  5
377
100
AcDbEntity
  8
ASSI
100
AcDbLine
 62
7
  6
CONTINUOUS
 10
-7.0
 20
17.3235340861
 11
-7.0
 21
17.5964659139
  0
LINE
  5
378
100
AcDbEntity
  8
SUPERFICI
100
AcDbLine
 62
7
  6
CONTINUOUS
 10
-6.5
 20
16.8236102385
 11
-6.5
 21
16.71
  0
LINE
  5
379
100
AcDbEntity
  8
SUPERFICI
100
AcDbLine
 62
7
  6
CONTINUOUS
 10
-6.5
 20
-22.69
 11
-6.5
 21
-22.8036102385
  0
LINE
  5
37A
100
AcDbEntity
  8
0
100
AcDbLine
 62
7
  6
CONTINUOUS
 10
-6.5
 20
-6.49
 11
-6.5
 21
9.76
  0
LINE
  5
37B
100
AcDbEntity
  8
0
100
AcDbLine
 62
7
  6
CONTINUOUS
 10
-6.456
 20
9.76
 11
-6.456
 21
-6.49
  0
LINE
  5
37C
100
AcDbEntity
  8
IMPORT_IGES
100
AcDbLine
 62
7
  6
CONTINUOUS
 10
-6.156
 20
9.0456057326
 11
-6.156
 21
8.81
  0
LINE
  5
37D
100
AcDbEntity
  8
IMPORT_IGES
100
AcDbLine
 62
7
  6
CONTINUOUS
 10
-6.126
 20
8.459528
 11
-6.126
 21
9.0456057326
  0
LINE
  5
37E
100
AcDbEntity
  8
0
100
AcDbLine
 62
7
  6
CONTINUOUS
 10
-6.0
 20
16.8052696104
 11
-6.0
 21
16.6052696104
  0
LINE
  5
37F
100
AcDbEntity
  8
0
100
AcDbLine
 62
7
  6
CONTINUOUS
 10
-6.0
 20
-22.5852696104
 11
-6.0
 21
-22.7852696104
  0
LINE
  5
380
100
AcDbEntity
  8
SUPERFICI
100
AcDbLine
 62
250
  6
CONTINUOUS
 10
-7.4992770021
 20
-26.1126497308
 11
-7.5043676032
 21
-26.6178312164
  0
LINE
  5
381
100
AcDbEntity
  8
SUPERFICI
100
AcDbLine
 62
250
  6
CONTINUOUS
 10
-7.25
 20
-26.4004851482
 11
-7.254371834
 21
-26.8343375673
  0
LINE
  5
382
100
AcDbEntity
  8
0
100
AcDbLine
 62
7
  6
CONTINUOUS
 10
-0.0
 20
-6.5947303896
 11
6.0
 21
-6.49
  0
LINE
  5
383
100
AcDbEntity
  8
ASSI
100
AcDbLine
 62
7
  6
CONTINUOUS
 10
-0.0
 20
-6.5947303896
 11
6.0
 21
-6.49
  0
LINE
  5
384
100
AcDbEntity
  8
IMPORT_IGES
100
AcDbLine
 62
7
  6
CONTINUOUS
 10
-6.456
 20
-6.14
 11
6.0
 21
-6.14
  0
LINE
  5
385
100
AcDbEntity
  8
IMPORT_IGES
100
AcDbLine
 62
7
  6
CONTINUOUS
 10
0.85
 20
-6.015
 11
0.25
 21
-6.015
  0
LINE
  5
386
100
AcDbEntity
  8
IMPORT_IGES
100
AcDbLine
 62
7
  6
CONTINUOUS
 10
-0.75
 20
-6.015
 11
-1.35
 21
-6.015
  0
LINE
  5
387
100
AcDbEntity
  8
IMPORT_IGES
100
AcDbLine
 62
7
  6
CONTINUOUS
 10
-0.75
 20
-5.965
 11
0.25
 21
-5.965
  0
LINE
  5
388
100
AcDbEntity
  8
IMPORT_IGES
100
AcDbLine
 62
7
  6
CONTINUOUS
 10
-1.156
 20
-5.69
 11
-6.456
 21
-5.69
  0
LINE
  5
389
100
AcDbEntity
  8
0
100
AcDbLine
 62
7
  6
CONTINUOUS
 10
-0.0
 20
-6.603457922
 11
-6.5
 21
-6.49
  0
LINE
  5
38A
100
AcDbEntity
  8
CURVE
100
AcDbLine
 62
250
  6
CONTINUOUS
 10
2.6995887769
 20
-13.4542858505
 11
2.5924622334
 21
-13.3471430445
  0
LINE
  5
38B
100
AcDbEntity
  8
CURVE
100
AcDbLine
 62
250
  6
CONTINUOUS
 10
6.715180439
 20
-16.811428597
 11
6.5009273743
 21
-16.5971428955
  0
LINE
  5
38C
100
AcDbEntity
  8
CURVE
100
AcDbLine
 62
250
  6
CONTINUOUS
 10
8.000698917
 20
-17.5614285523
 11
7.7864458299
 21
-17.3471428508
  0
LINE
  5
38D
100
AcDbEntity
  8
CURVE
100
AcDbLine
 62
250
  6
CONTINUOUS
 10
2.6995887769
 20
-11.6328570747
 11
2.4853356898
 21
-11.4185714626
  0
LINE
  5
38E
100
AcDbEntity
  8
CURVE
100
AcDbLine
 62
250
  6
CONTINUOUS
 10
4.2155612012
 20
-12.74
 11
4.0013081364
 21
-12.5257143879
  0
LINE
  5
38F
100
AcDbEntity
  8
CURVE
100
AcDbLine
 62
250
  6
CONTINUOUS
 10
7.7864458299
 20
-16.2757142091
 11
8.000698917
 21
-16.49
  0
LINE
  5
390
100
AcDbEntity
  8
0
100
AcDbLine
 62
250
  6
CONTINUOUS
 10
-5.0349048129
 20
-23.602191562
 11
-5.0349048129
 21
-23.277808438
  0
LINE
  5
391
100
AcDbEntity
  8
ASSI
100
AcDbLine
 62
250
  6
CONTINUOUS
 10
-5.0349048129
 20
-23.602191562
 11
-5.0349048129
 21
-23.277808438
  0
LINE
  5
392
100
AcDbEntity
  8
0
100
AcDbLine
 62
250
  6
CONTINUOUS
 10
-5.0349048129
 20
17.297808438
 11
-5.0349048129
 21
17.622191562
  0
LINE
  5
393
100
AcDbEntity
  8
ASSI
100
AcDbLine
 62
250
  6
CONTINUOUS
 10
-5.0349048129
 20
17.297808438
 11
-5.0349048129
 21
17.622191562
  0
LINE
  5
394
100
AcDbEntity
  8
IMPORT_IGES
100
AcDbLine
 62
7
  6
CONTINUOUS
 10
-5.026
 20
9.0456057326
 11
-5.026
 21
8.459528
  0
LINE
  5
395
100
AcDbEntity
  8
IMPORT_IGES
100
AcDbLine
 62
7
  6
CONTINUOUS
 10
-4.656
 20
2.61
 11
-4.656
 21
3.36
  0
LINE
  5
396
100
AcDbEntity
  8
0
100
AcDbLine
 62
7
  6
CONTINUOUS
 10
-4.5
 20
16.7885477922
 11
-4.5
 21
16.6314522078
  0
LINE
  5
397
100
AcDbEntity
  8
0
100
AcDbLine
 62
7
  6
CONTINUOUS
 10
-4.5
 20
-22.6114522078
 11
-4.5
 21
-22.7685477922
  0
LINE
  5
398
100
AcDbEntity
  8
SUPERFICI
100
AcDbLine
 62
7
  6
CONTINUOUS
 10
-4.45
 20
21.01
 11
-4.45
 21
20.3779449472
  0
LINE
  5
399
100
AcDbEntity
  8
SUPERFICI
100
AcDbLine
 62
7
  6
CONTINUOUS
 10
-4.45
 20
19.9420550528
 11
-4.45
 21
19.41
  0
LINE
  5
39A
100
AcDbEntity
  8
SUPERFICI
100
AcDbLine
 62
7
  6
CONTINUOUS
 10
-4.45
 20
-25.39
 11
-4.45
 21
-25.9220550528
  0
LINE
  5
39B
100
AcDbEntity
  8
SUPERFICI
100
AcDbLine
 62
7
  6
CONTINUOUS
 10
-4.45
 20
-26.3579449472
 11
-4.45
 21
-26.99
  0
LINE
  5
39C
100
AcDbEntity
  8
SUPERFICI
100
AcDbLine
 62
7
  6
CONTINUOUS
 10
-4.406077753
 20
20.9638922731
 11
-4.406077753
 21
19.366077753
  0
LINE
  5
39D
100
AcDbEntity
  8
SUPERFICI
100
AcDbLine
 62
7
  6
CONTINUOUS
 10
-4.406077753
 20
-25.346077753
 11
-4.406077753
 21
-26.9438922731
  0
LINE
  5
39E
100
AcDbEntity
  8
IMPORT_IGES
100
AcDbLine
 62
7
  6
CONTINUOUS
 10
-3.956
 20
3.36
 11
-3.956
 21
7.56
  0
LINE
  5
39F
100
AcDbEntity
  8
IMPORT_IGES
100
AcDbLine
 62
7
  6
CONTINUOUS
 10
0.25
 20
-4.615
 11
-0.75
 21
-4.615
  0
LINE
  5
3A0
100
AcDbEntity
  8
IMPORT_IGES
100
AcDbLine
 62
7
  6
CONTINUOUS
 10
0.85
 20
-4.565
 11
0.25
 21
-4.565
  0
LINE
  5
3A1
100
AcDbEntity
  8
IMPORT_IGES
100
AcDbLine
 62
7
  6
CONTINUOUS
 10
-0.75
 20
-4.565
 11
-1.156
 21
-4.565
  0
LINE
  5
3A2
100
AcDbEntity
  8
IMPORT_IGES
100
AcDbLine
 62
7
  6
CONTINUOUS
 10
-0.3
 20
-4.065
 11
-1.156
 21
-4.065
  0
LINE
  5
3A3
100
AcDbEntity
  8
CURVE
100
AcDbLine
 62
250
  6
CONTINUOUS
 10
6.9294335038
 20
-10.418571701
 11
8.000698917
 21
-11.0614285374
  0
LINE
  5
3A4
100
AcDbEntity
  8
CURVE
100
AcDbLine
 62
250
  6
CONTINUOUS
 10
6.5009273743
 20
-14.0614285374
 11
6.8223070161
 21
-14.3828573132
  0
LINE
  5
3A5
100
AcDbEntity
  8
CURVE
100
AcDbLine
 62
250
  6
CONTINUOUS
 10
5.286826592
 20
-12.2042856121
 11
5.5010796791
 21
-12.4185712242
  0
LINE
  5
3A6
100
AcDbEntity
  8
CURVE
100
AcDbLine
 62
250
  6
CONTINUOUS
 10
6.715180439
 20
-13.3114285374
 11
6.5009273743
 21
-13.0971429253
  0
LINE
  5
3A7
100
AcDbEntity
  8
CURVE
100
AcDbLine
 62
250
  6
CONTINUOUS
 10
8.000698917
 20
-14.0614285374
 11
7.7864458299
 21
-13.8471429253
  0
LINE
  5
3A8
100
AcDbEntity
  8
CURVE
100
AcDbLine
 62
250
  6
CONTINUOUS
 10
1.8425764285
 20
-13.5614286566
 11
1.7354499408
 21
-13.3828571939
  0
LINE
  5
3A9
100
AcDbEntity
  8
SUPERFICI
100
AcDbLine
 62
7
  6
CONTINUOUS
 10
-9.65
 20
17.2090396502
 11
-9.5242313121
 21
16.8314267532
  0
LINE
  5
3AA
100
AcDbEntity
  8
SUPERFICI
100
AcDbLine
 62
7
  6
CONTINUOUS
 10
-3.5205544631
 20
19.365308184
 11
-3.5348577163
 21
21.004298655
  0
LINE
  5
3AB
100
AcDbEntity
  8
SUPERFICI
100
AcDbLine
 62
7
  6
CONTINUOUS
 10
-2.9951803161
 20
18.1577189331
 11
-3.0057033248
 21
19.3635362903
  0
LINE
  5
3AC
100
AcDbEntity
  8
IMPORT_IGES
100
AcDbLine
 62
7
  6
CONTINUOUS
 10
-1.756
 20
7.06
 11
-1.756
 21
9.0456057326
  0
LINE
  5
3AD
100
AcDbEntity
  8
SUPERFICI
100
AcDbLine
 62
7
  6
CONTINUOUS
 10
-3.5205544631
 20
-25.345308184
 11
-3.5348577163
 21
-26.984298655
  0
LINE
  5
3AE
100
AcDbEntity
  8
SUPERFICI
100
AcDbLine
 62
7
  6
CONTINUOUS
 10
-2.9951803161
 20
-24.1377189331
 11
-3.0057033248
 21
-25.3435362903
  0
LINE
  5
3AF
100
AcDbEntity
  8
SUPERFICI
100
AcDbLine
 62
7
  6
CONTINUOUS
 10
-9.5242313121
 20
-22.8114267532
 11
-9.65
 21
-23.1890396502
  0
LINE
  5
3B0
100
AcDbEntity
  8
IMPORT_IGES
100
AcDbLine
 62
7
  6
CONTINUOUS
 10
3.0
 20
7.76
 11
2.925
 21
7.685
  0
LINE
  5
3B1
100
AcDbEntity
  8
IMPORT_IGES
100
AcDbLine
 62
7
  6
CONTINUOUS
 10
6.0
 20
9.11
 11
5.95
 21
9.06
  0
LINE
  5
3B2
100
AcDbEntity
  8
CURVE
100
AcDbLine
 62
250
  6
CONTINUOUS
 10
7.1008359914
 20
6.51
 11
9.0005466122
 21
7.46
  0
LINE
  5
3B3
100
AcDbEntity
  8
IMPORT_IGES
100
AcDbLine
 62
7
  6
CONTINUOUS
 10
-1.156
 20
-3.515
 11
-0.3
 21
-3.515
  0
LINE
  5
3B4
100
AcDbEntity
  8
IMPORT_IGES
100
AcDbLine
 62
7
  6
CONTINUOUS
 10
6.0
 20
-3.24
 11
3.15
 21
-3.24
  0
LINE
  5
3B5
100
AcDbEntity
  8
IMPORT_IGES
100
AcDbLine
 62
7
  6
CONTINUOUS
 10
-0.3
 20
-2.965
 11
-1.156
 21
-2.965
  0
LINE
  5
3B6
100
AcDbEntity
  8
CURVE
100
AcDbLine
 62
250
  6
CONTINUOUS
 10
7.1008359914
 20
-2.9471428329
 11
9.0005466122
 21
-2.9471428329
  0
LINE
  5
3B7
100
AcDbEntity
  8
IMPORT_IGES
100
AcDbLine
 62
7
  6
CONTINUOUS
 10
2.0
 20
-2.915
 11
1.0
 21
-2.915
  0
LINE
  5
3B8
100
AcDbEntity
  8
IMPORT_IGES
100
AcDbLine
 62
7
  6
CONTINUOUS
 10
-1.156
 20
-2.415
 11
-0.3
 21
-2.415
  0
LINE
  5
3B9
100
AcDbEntity
  8
IMPORT_IGES
100
AcDbLine
 62
7
  6
CONTINUOUS
 10
1.0
 20
-2.365
 11
2.0
 21
-2.365
  0
LINE
  5
3BA
100
AcDbEntity
  8
CURVE
100
AcDbLine
 62
250
  6
CONTINUOUS
 10
7.7864458299
 20
-12.7757141495
 11
8.000698917
 21
-12.9900001192
  0
LINE
  5
3BB
100
AcDbEntity
  8
SUPERFICI
100
AcDbLine
 62
7
  6
CONTINUOUS
 10
-8.9498936624
 20
17.91
 11
-8.8258650579
 21
17.5376115984
  0
LINE
  5
3BC
100
AcDbEntity
  8
IMPORT_IGES
100
AcDbLine
 62
7
  6
CONTINUOUS
 10
-1.6
 20
2.11
 11
-1.6
 21
2.285
  0
LINE
  5
3BD
100
AcDbEntity
  8
IMPORT_IGES
100
AcDbLine
 62
7
  6
CONTINUOUS
 10
-1.6
 20
4.435
 11
-1.6
 21
4.985
  0
LINE
  5
3BE
100
AcDbEntity
  8
IMPORT_IGES
100
AcDbLine
 62
7
  6
CONTINUOUS
 10
-1.35
 20
-5.69
 11
-1.35
 21
-6.015
  0
LINE
  5
3BF
100
AcDbEntity
  8
IMPORT_IGES
100
AcDbLine
 62
7
  6
CONTINUOUS
 10
-1.156
 20
-5.69
 11
-1.156
 21
2.11
  0
LINE
  5
3C0
100
AcDbEntity
  8
SUPERFICI
100
AcDbLine
 62
7
  6
CONTINUOUS
 10
-1.0086739534
 20
-25.3847957125
 11
-1.00856737
 21
-26.7842952698
  0
LINE
  5
3C1
100
AcDbEntity
  8
SUPERFICI
100
AcDbLine
 62
7
  6
CONTINUOUS
 10
-1.0
 20
-26.7900067692
 11
-1.0
 21
-25.39
  0
LINE
  5
3C2
100
AcDbEntity
  8
SUPERFICI
100
AcDbLine
 62
7
  6
CONTINUOUS
 10
-1.0
 20
19.41
 11
-1.0
 21
20.8100067692
  0
LINE
  5
3C3
100
AcDbEntity
  8
IMPORT_IGES
100
AcDbLine
 62
7
  6
CONTINUOUS
 10
-0.75
 20
-4.565
 11
-0.75
 21
-6.015
  0
LINE
  5
3C4
100
AcDbEntity
  8
IMPORT_IGES
100
AcDbLine
 62
7
  6
CONTINUOUS
 10
-0.6
 20
4.985
 11
-0.6
 21
4.435
  0
LINE
  5
3C5
100
AcDbEntity
  8
IMPORT_IGES
100
AcDbLine
 62
7
  6
CONTINUOUS
 10
-0.6
 20
2.285
 11
-0.6
 21
1.735
  0
LINE
  5
3C6
100
AcDbEntity
  8
IMPORT_IGES
100
AcDbLine
 62
7
  6
CONTINUOUS
 10
-0.525
 20
8.71
 11
-0.525
 21
9.0456057326
  0
LINE
  5
3C7
100
AcDbEntity
  8
IMPORT_IGES
100
AcDbLine
 62
7
  6
CONTINUOUS
 10
-0.3
 20
-2.415
 11
-0.3
 21
-2.965
  0
LINE
  5
3C8
100
AcDbEntity
  8
IMPORT_IGES
100
AcDbLine
 62
7
  6
CONTINUOUS
 10
-0.3
 20
-3.515
 11
-0.3
 21
-4.065
  0
LINE
  5
3C9
100
AcDbEntity
  8
0
100
AcDbLine
 62
7
  6
CONTINUOUS
 10
-0.0
 20
-24.19
 11
-0.0
 21
-6.5947303896
  0
LINE
  5
3CA
100
AcDbEntity
  8
ASSI
100
AcDbLine
 62
7
  6
CONTINUOUS
 10
-0.0
 20
-24.19
 11
-0.0
 21
-6.5947303896
  0
LINE
  5
3CB
100
AcDbEntity
  8
0
100
AcDbLine
 62
7
  6
CONTINUOUS
 10
0.0
 20
9.8647303896
 11
-0.0
 21
18.21
  0
LINE
  5
3CC
100
AcDbEntity
  8
ASSI
100
AcDbLine
 62
7
  6
CONTINUOUS
 10
0.0
 20
9.8647303896
 11
-0.0
 21
18.21
  0
LINE
  5
3CD
100
AcDbEntity
  8
IMPORT_IGES
100
AcDbLine
 62
7
  6
CONTINUOUS
 10
0.025
 20
9.0456057326
 11
0.025
 21
8.71
  0
LINE
  5
3CE
100
AcDbEntity
  8
IMPORT_IGES
100
AcDbLine
 62
7
  6
CONTINUOUS
 10
0.2
 20
2.185
 11
0.2
 21
3.435
  0
LINE
  5
3CF
100
AcDbEntity
  8
IMPORT_IGES
100
AcDbLine
 62
7
  6
CONTINUOUS
 10
0.2
 20
5.135
 11
0.2
 21
6.385
  0
LINE
  5
3D0
100
AcDbEntity
  8
IMPORT_IGES
100
AcDbLine
 62
7
  6
CONTINUOUS
 10
0.25
 20
-6.015
 11
0.25
 21
-4.565
  0
LINE
  5
3D1
100
AcDbEntity
  8
SUPERFICI
100
AcDbLine
 62
7
  6
CONTINUOUS
 10
-1.0086739534
 20
19.4047957125
 11
-1.00856737
 21
20.8042952698
  0
LINE
  5
3D2
100
AcDbEntity
  8
SUPERFICI
100
AcDbLine
 62
7
  6
CONTINUOUS
 10
-8.8258650579
 20
-23.5176115984
 11
-8.9498936624
 21
-23.89
  0
LINE
  5
3D3
100
AcDbEntity
  8
IMPORT_IGES
100
AcDbLine
 62
7
  6
CONTINUOUS
 10
5.55
 20
7.76
 11
5.4
 21
7.61
  0
LINE
  5
3D4
100
AcDbEntity
  8
IMPORT_IGES
100
AcDbLine
 62
7
  6
CONTINUOUS
 10
3.15
 20
-1.64
 11
6.0
 21
-1.64
  0
LINE
  5
3D5
100
AcDbEntity
  8
IMPORT_IGES
100
AcDbLine
 62
7
  6
CONTINUOUS
 10
6.0
 20
-1.065
 11
5.6
 21
-1.065
  0
LINE
  5
3D6
100
AcDbEntity
  8
IMPORT_IGES
100
AcDbLine
 62
7
  6
CONTINUOUS
 10
4.25
 20
-1.065
 11
3.25
 21
-1.065
  0
LINE
  5
3D7
100
AcDbEntity
  8
IMPORT_IGES
100
AcDbLine
 62
7
  6
CONTINUOUS
 10
3.25
 20
-0.515
 11
4.25
 21
-0.515
  0
LINE
  5
3D8
100
AcDbEntity
  8
IMPORT_IGES
100
AcDbLine
 62
7
  6
CONTINUOUS
 10
5.6
 20
-0.515
 11
6.0
 21
-0.515
  0
LINE
  5
3D9
100
AcDbEntity
  8
IMPORT_IGES
100
AcDbLine
 62
7
  6
CONTINUOUS
 10
0.45
 20
1.71
 11
0.45
 21
2.185
  0
LINE
  5
3DA
100
AcDbEntity
  8
IMPORT_IGES
100
AcDbLine
 62
7
  6
CONTINUOUS
 10
0.45
 20
3.435
 11
0.45
 21
3.91
  0
LINE
  5
3DB
100
AcDbEntity
  8
IMPORT_IGES
100
AcDbLine
 62
7
  6
CONTINUOUS
 10
0.45
 20
4.66
 11
0.45
 21
5.135
  0
LINE
  5
3DC
100
AcDbEntity
  8
IMPORT_IGES
100
AcDbLine
 62
7
  6
CONTINUOUS
 10
0.45
 20
6.385
 11
0.45
 21
6.86
  0
LINE
  5
3DD
100
AcDbEntity
  8
IMPORT_IGES
100
AcDbLine
 62
7
  6
CONTINUOUS
 10
0.55
 20
8.41
 11
0.55
 21
9.0456057326
  0
LINE
  5
3DE
100
AcDbEntity
  8
IMPORT_IGES
100
AcDbLine
 62
7
  6
CONTINUOUS
 10
0.65
 20
1.71
 11
0.65
 21
2.185
  0
LINE
  5
3DF
100
AcDbEntity
  8
IMPORT_IGES
100
AcDbLine
 62
7
  6
CONTINUOUS
 10
0.65
 20
3.435
 11
0.65
 21
3.91
  0
LINE
  5
3E0
100
AcDbEntity
  8
IMPORT_IGES
100
AcDbLine
 62
7
  6
CONTINUOUS
 10
0.65
 20
4.66
 11
0.65
 21
5.135
  0
LINE
  5
3E1
100
AcDbEntity
  8
IMPORT_IGES
100
AcDbLine
 62
7
  6
CONTINUOUS
 10
0.65
 20
6.385
 11
0.65
 21
6.86
  0
LINE
  5
3E2
100
AcDbEntity
  8
IMPORT_IGES
100
AcDbLine
 62
7
  6
CONTINUOUS
 10
0.85
 20
-6.015
 11
0.85
 21
-4.565
  0
LINE
  5
3E3
100
AcDbEntity
  8
SUPERFICI
100
AcDbLine
 62
7
  6
CONTINUOUS
 10
1.0
 20
-26.7900067692
 11
1.0
 21
-25.39
  0
LINE
  5
3E4
100
AcDbEntity
  8
IMPORT_IGES
100
AcDbLine
 62
7
  6
CONTINUOUS
 10
1.0
 20
-2.915
 11
1.0
 21
-2.365
  0
LINE
  5
3E5
100
AcDbEntity
  8
SUPERFICI
100
AcDbLine
 62
7
  6
CONTINUOUS
 10
1.0
 20
19.41
 11
1.0
 21
20.8100067692
  0
LINE
  5
3E6
100
AcDbEntity
  8
SUPERFICI
100
AcDbLine
 62
7
  6
CONTINUOUS
 10
1.0086739534
 20
19.4047957125
 11
1.00856737
 21
20.8042952698
  0
LINE
  5
3E7
100
AcDbEntity
  8
IMPORT_IGES
100
AcDbLine
 62
7
  6
CONTINUOUS
 10
1.1
 20
6.86
 11
1.1
 21
6.385
  0
LINE
  5
3E8
100
AcDbEntity
  8
IMPORT_IGES
100
AcDbLine
 62
7
  6
CONTINUOUS
 10
1.1
 20
3.91
 11
1.1
 21
3.435
  0
LINE
  5
3E9
100
AcDbEntity
  8
IMPORT_IGES
100
AcDbLine
 62
7
  6
CONTINUOUS
 10
1.1
 20
1.71
 11
1.1
 21
2.185
  0
LINE
  5
3EA
100
AcDbEntity
  8
IMPORT_IGES
100
AcDbLine
 62
7
  6
CONTINUOUS
 10
1.1
 20
4.66
 11
1.1
 21
5.135
  0
LINE
  5
3EB
100
AcDbEntity
  8
CURVE
100
AcDbLine
 62
250
  6
CONTINUOUS
 10
1.1998172342
 20
-13.5614286566
 11
1.1998172342
 21
-13.9900002384
  0
LINE
  5
3EC
100
AcDbEntity
  8
CURVE
100
AcDbLine
 62
250
  6
CONTINUOUS
 10
1.1998172342
 20
-12.0614286566
 11
1.1998172342
 21
-11.4185714626
  0
LINE
  5
3ED
100
AcDbEntity
  8
IMPORT_IGES
100
AcDbLine
 62
7
  6
CONTINUOUS
 10
1.3
 20
1.71
 11
1.3
 21
2.185
  0
LINE
  5
3EE
100
AcDbEntity
  8
IMPORT_IGES
100
AcDbLine
 62
7
  6
CONTINUOUS
 10
1.3
 20
3.435
 11
1.3
 21
3.91
  0
LINE
  5
3EF
100
AcDbEntity
  8
IMPORT_IGES
100
AcDbLine
 62
7
  6
CONTINUOUS
 10
1.3
 20
4.66
 11
1.3
 21
5.135
  0
LINE
  5
3F0
100
AcDbEntity
  8
IMPORT_IGES
100
AcDbLine
 62
7
  6
CONTINUOUS
 10
1.3
 20
6.385
 11
1.3
 21
6.86
  0
LINE
  5
3F1
100
AcDbEntity
  8
IMPORT_IGES
100
AcDbLine
 62
7
  6
CONTINUOUS
 10
1.45
 20
9.0456057326
 11
1.45
 21
8.41
  0
LINE
  5
3F2
100
AcDbEntity
  8
IMPORT_IGES
100
AcDbLine
 62
7
  6
CONTINUOUS
 10
1.75
 20
6.86
 11
1.75
 21
6.385
  0
LINE
  5
3F3
100
AcDbEntity
  8
IMPORT_IGES
100
AcDbLine
 62
7
  6
CONTINUOUS
 10
1.75
 20
3.91
 11
1.75
 21
3.435
  0
LINE
  5
3F4
100
AcDbEntity
  8
IMPORT_IGES
100
AcDbLine
 62
7
  6
CONTINUOUS
 10
1.75
 20
1.71
 11
1.75
 21
2.185
  0
LINE
  5
3F5
100
AcDbEntity
  8
IMPORT_IGES
100
AcDbLine
 62
7
  6
CONTINUOUS
 10
1.75
 20
4.66
 11
1.75
 21
5.135
  0
LINE
  5
3F6
100
AcDbEntity
  8
IMPORT_IGES
100
AcDbLine
 62
7
  6
CONTINUOUS
 10
1.75
 20
8.21
 11
1.75
 21
8.71
  0
LINE
  5
3F7
100
AcDbEntity
  8
CURVE
100
AcDbLine
 62
250
  6
CONTINUOUS
 10
1.8425764285
 20
-11.6328570747
 11
1.8425764285
 21
-12.0614286566
  0
LINE
  5
3F8
100
AcDbEntity
  8
CURVE
100
AcDbLine
 62
250
  6
CONTINUOUS
 10
1.8425764285
 20
-13.5614286566
 11
1.8425764285
 21
-13.7757142687
  0
LINE
  5
3F9
100
AcDbEntity
  8
CURVE
100
AcDbLine
 62
250
  6
CONTINUOUS
 10
1.8425764285
 20
-16.561428746
 11
1.8425764285
 21
-17.0257143879
  0
LINE
  5
3FA
100
AcDbEntity
  8
IMPORT_IGES
100
AcDbLine
 62
7
  6
CONTINUOUS
 10
1.95
 20
1.71
 11
1.95
 21
2.185
  0
LINE
  5
3FB
100
AcDbEntity
  8
IMPORT_IGES
100
AcDbLine
 62
7
  6
CONTINUOUS
 10
1.95
 20
3.435
 11
1.95
 21
3.91
  0
LINE
  5
3FC
100
AcDbEntity
  8
IMPORT_IGES
100
AcDbLine
 62
7
  6
CONTINUOUS
 10
1.95
 20
4.66
 11
1.95
 21
5.135
  0
LINE
  5
3FD
100
AcDbEntity
  8
IMPORT_IGES
100
AcDbLine
 62
7
  6
CONTINUOUS
 10
1.95
 20
6.385
 11
1.95
 21
6.86
  0
LINE
  5
3FE
100
AcDbEntity
  8
IMPORT_IGES
100
AcDbLine
 62
7
  6
CONTINUOUS
 10
2.0
 20
-2.365
 11
2.0
 21
-2.915
  0
LINE
  5
3FF
100
AcDbEntity
  8
IMPORT_IGES
100
AcDbLine
 62
7
  6
CONTINUOUS
 10
2.044
 20
9.0456057326
 11
2.044
 21
9.81
  0
LINE
  5
400
100
AcDbEntity
  8
IMPORT_IGES
100
AcDbLine
 62
7
  6
CONTINUOUS
 10
2.2
 20
6.385
 11
2.2
 21
5.135
  0
LINE
  5
401
100
AcDbEntity
  8
IMPORT_IGES
100
AcDbLine
 62
7
  6
CONTINUOUS
 10
2.2
 20
3.435
 11
2.2
 21
2.185
  0
LINE
  5
402
100
AcDbEntity
  8
SUPERFICI
100
AcDbLine
 62
7
  6
CONTINUOUS
 10
1.0086739534
 20
-25.3847957125
 11
1.00856737
 21
-26.7842952698
  0
LINE
  5
403
100
AcDbEntity
  8
IMPORT_IGES
100
AcDbLine
 62
7
  6
CONTINUOUS
 10
6.0
 20
1.11
 11
5.2
 21
1.11
  0
LINE
  5
404
100
AcDbEntity
  8
CURVE
100
AcDbLine
 62
250
  6
CONTINUOUS
 10
7.1008359914
 20
1.51
 11
9.0005466122
 21
1.51
  0
LINE
  5
405
100
AcDbEntity
  8
IMPORT_IGES
100
AcDbLine
 62
7
  6
CONTINUOUS
 10
1.95
 20
1.71
 11
1.75
 21
1.71
  0
LINE
  5
406
100
AcDbEntity
  8
IMPORT_IGES
100
AcDbLine
 62
7
  6
CONTINUOUS
 10
1.3
 20
1.71
 11
1.1
 21
1.71
  0
LINE
  5
407
100
AcDbEntity
  8
IMPORT_IGES
100
AcDbLine
 62
7
  6
CONTINUOUS
 10
0.45
 20
1.71
 11
0.65
 21
1.71
  0
LINE
  5
408
100
AcDbEntity
  8
IMPORT_IGES
100
AcDbLine
 62
7
  6
CONTINUOUS
 10
-0.6
 20
1.735
 11
-1.156
 21
1.735
  0
LINE
  5
409
100
AcDbEntity
  8
IMPORT_IGES
100
AcDbLine
 62
7
  6
CONTINUOUS
 10
4.15
 20
1.785
 11
3.15
 21
1.785
  0
LINE
  5
40A
100
AcDbEntity
  8
IMPORT_IGES
100
AcDbLine
 62
250
  6
CONTINUOUS
 10
1.95
 20
1.8360001262
 11
1.75
 21
1.8360001262
  0
LINE
  5
40B
100
AcDbEntity
  8
IMPORT_IGES
100
AcDbLine
 62
250
  6
CONTINUOUS
 10
1.3
 20
1.8360001262
 11
1.1
 21
1.8360001262
  0
LINE
  5
40C
100
AcDbEntity
  8
IMPORT_IGES
100
AcDbLine
 62
250
  6
CONTINUOUS
 10
0.45
 20
1.8360001262
 11
0.65
 21
1.8360001262
  0
LINE
  5
40D
100
AcDbEntity
  8
IMPORT_IGES
100
AcDbLine
 62
250
  6
CONTINUOUS
 10
1.95
 20
1.903461743
 11
1.75
 21
1.903461743
  0
LINE
  5
40E
100
AcDbEntity
  8
IMPORT_IGES
100
AcDbLine
 62
250
  6
CONTINUOUS
 10
1.3
 20
1.903461743
 11
1.1
 21
1.903461743
  0
LINE
  5
40F
100
AcDbEntity
  8
IMPORT_IGES
100
AcDbLine
 62
250
  6
CONTINUOUS
 10
0.45
 20
1.903461743
 11
0.65
 21
1.903461743
  0
LINE
  5
410
100
AcDbEntity
  8
IMPORT_IGES
100
AcDbLine
 62
250
  6
CONTINUOUS
 10
1.95
 20
2.0443332112
 11
1.75
 21
2.0443332112
  0
LINE
  5
411
100
AcDbEntity
  8
IMPORT_IGES
100
AcDbLine
 62
250
  6
CONTINUOUS
 10
1.3
 20
2.0443332112
 11
1.1
 21
2.0443332112
  0
LINE
  5
412
100
AcDbEntity
  8
IMPORT_IGES
100
AcDbLine
 62
250
  6
CONTINUOUS
 10
0.45
 20
2.0443332112
 11
0.65
 21
2.0443332112
  0
LINE
  5
413
100
AcDbEntity
  8
IMPORT_IGES
100
AcDbLine
 62
7
  6
CONTINUOUS
 10
-6.456
 20
2.11
 11
-1.156
 21
2.11
  0
LINE
  5
414
100
AcDbEntity
  8
IMPORT_IGES
100
AcDbLine
 62
250
  6
CONTINUOUS
 10
1.95
 20
2.1611941564
 11
1.75
 21
2.1611941564
  0
LINE
  5
415
100
AcDbEntity
  8
IMPORT_IGES
100
AcDbLine
 62
250
  6
CONTINUOUS
 10
1.3
 20
2.1611941564
 11
1.1
 21
2.1611941564
  0
LINE
  5
416
100
AcDbEntity
  8
IMPORT_IGES
100
AcDbLine
 62
250
  6
CONTINUOUS
 10
0.65
 20
2.1611941564
 11
0.45
 21
2.1611941564
  0
LINE
  5
417
100
AcDbEntity
  8
IMPORT_IGES
100
AcDbLine
 62
7
  6
CONTINUOUS
 10
2.2
 20
2.185
 11
0.2
 21
2.185
  0
LINE
  5
418
100
AcDbEntity
  8
CURVE
100
AcDbLine
 62
250
  6
CONTINUOUS
 10
5.0368646608
 20
-10.3828568363
 11
4.9297381284
 21
-10.1328570747
  0
LINE
  5
419
100
AcDbEntity
  8
CURVE
100
AcDbLine
 62
250
  6
CONTINUOUS
 10
5.1439912155
 20
-9.8471431637
 11
5.0368646608
 21
-9.5614285374
  0
LINE
  5
41A
100
AcDbEntity
  8
SUPERFICI
100
AcDbLine
 62
7
  6
CONTINUOUS
 10
8.8258650579
 20
-23.5176115984
 11
8.9498936624
 21
-23.89
  0
LINE
  5
41B
100
AcDbEntity
  8
SUPERFICI
100
AcDbLine
 62
7
  6
CONTINUOUS
 10
9.5242313121
 20
-22.8114267532
 11
9.65
 21
-23.1890396502
  0
LINE
  5
41C
100
AcDbEntity
  8
SUPERFICI
100
AcDbLine
 62
7
  6
CONTINUOUS
 10
2.9951803161
 20
-24.1377189331
 11
3.0057033248
 21
-25.3435362903
  0
LINE
  5
41D
100
AcDbEntity
  8
SUPERFICI
100
AcDbLine
 62
7
  6
CONTINUOUS
 10
3.5205544631
 20
-25.345308184
 11
3.5348577163
 21
-26.984298655
  0
LINE
  5
41E
100
AcDbEntity
  8
CURVE
100
AcDbLine
 62
250
  6
CONTINUOUS
 10
2.2710826027
 20
-15.7757145071
 11
2.2710826027
 21
-15.2042857909
  0
LINE
  5
41F
100
AcDbEntity
  8
CURVE
100
AcDbLine
 62
250
  6
CONTINUOUS
 10
2.2710826027
 20
-10.2042860889
 11
2.2710826027
 21
-9.6328575516
  0
LINE
  5
420
100
AcDbEntity
  8
CURVE
100
AcDbLine
 62
250
  6
CONTINUOUS
 10
2.4496268457
 20
-12.668571701
 11
2.4496268457
 21
-12.5971430445
  0
LINE
  5
421
100
AcDbEntity
  8
CURVE
100
AcDbLine
 62
250
  6
CONTINUOUS
 10
2.6281710831
 20
-12.5971430445
 11
2.6281710831
 21
-12.668571701
  0
LINE
  5
422
100
AcDbEntity
  8
CURVE
100
AcDbLine
 62
250
  6
CONTINUOUS
 10
2.6995887769
 20
-16.8828572536
 11
2.6995887769
 21
-16.561428746
  0
LINE
  5
423
100
AcDbEntity
  8
CURVE
100
AcDbLine
 62
250
  6
CONTINUOUS
 10
2.6995887769
 20
-13.9900002384
 11
2.6995887769
 21
-13.4542858505
  0
LINE
  5
424
100
AcDbEntity
  8
CURVE
100
AcDbLine
 62
250
  6
CONTINUOUS
 10
2.6995887769
 20
-12.0614286566
 11
2.6995887769
 21
-11.6328570747
  0
LINE
  5
425
100
AcDbEntity
  8
IMPORT_IGES
100
AcDbLine
 62
7
  6
CONTINUOUS
 10
2.85
 20
7.76
 11
2.85
 21
9.8149834545
  0
LINE
  5
426
100
AcDbEntity
  8
IMPORT_IGES
100
AcDbLine
 62
7
  6
CONTINUOUS
 10
3.0
 20
2.835
 11
3.0
 21
3.385
  0
LINE
  5
427
100
AcDbEntity
  8
IMPORT_IGES
100
AcDbLine
 62
7
  6
CONTINUOUS
 10
3.0
 20
4.435
 11
3.0
 21
4.985
  0
LINE
  5
428
100
AcDbEntity
  8
IMPORT_IGES
100
AcDbLine
 62
7
  6
CONTINUOUS
 10
3.0
 20
6.035
 11
3.0
 21
6.585
  0
LINE
  5
429
100
AcDbEntity
  8
IMPORT_IGES
100
AcDbLine
 62
7
  6
CONTINUOUS
 10
3.0
 20
7.76
 11
3.0
 21
9.8123651948
  0
LINE
  5
42A
100
AcDbEntity
  8
IMPORT_IGES
100
AcDbLine
 62
7
  6
CONTINUOUS
 10
3.15
 20
-3.24
 11
3.15
 21
-1.64
  0
LINE
  5
42B
100
AcDbEntity
  8
IMPORT_IGES
100
AcDbLine
 62
7
  6
CONTINUOUS
 10
3.15
 20
1.785
 11
3.15
 21
2.335
  0
LINE
  5
42C
100
AcDbEntity
  8
IMPORT_IGES
100
AcDbLine
 62
7
  6
CONTINUOUS
 10
3.25
 20
-1.065
 11
3.25
 21
-0.515
  0
LINE
  5
42D
100
AcDbEntity
  8
CURVE
100
AcDbLine
 62
250
  6
CONTINUOUS
 10
3.671358397
 20
12.635
 11
3.671358397
 21
12.9475
  0
LINE
  5
42E
100
AcDbEntity
  8
IMPORT_IGES
100
AcDbLine
 62
7
  6
CONTINUOUS
 10
4.0
 20
6.585
 11
4.0
 21
6.035
  0
LINE
  5
42F
100
AcDbEntity
  8
IMPORT_IGES
100
AcDbLine
 62
7
  6
CONTINUOUS
 10
4.0
 20
4.985
 11
4.0
 21
4.435
  0
LINE
  5
430
100
AcDbEntity
  8
IMPORT_IGES
100
AcDbLine
 62
7
  6
CONTINUOUS
 10
4.0
 20
3.385
 11
4.0
 21
2.835
  0
LINE
  5
431
100
AcDbEntity
  8
CURVE
100
AcDbLine
 62
250
  6
CONTINUOUS
 10
4.0013081364
 20
-14.6685715818
 11
4.0013081364
 21
-14.99
  0
LINE
  5
432
100
AcDbEntity
  8
CURVE
100
AcDbLine
 62
250
  6
CONTINUOUS
 10
4.0013081364
 20
-18.311428597
 11
4.0013081364
 21
-18.2042857015
  0
LINE
  5
433
100
AcDbEntity
  8
CURVE
100
AcDbLine
 62
250
  6
CONTINUOUS
 10
4.0013081364
 20
-17.1328571939
 11
4.0013081364
 21
-17.0257142091
  0
LINE
  5
434
100
AcDbEntity
  8
CURVE
100
AcDbLine
 62
250
  6
CONTINUOUS
 10
4.0013081364
 20
-12.5257143879
 11
4.0013081364
 21
-12.4185712242
  0
LINE
  5
435
100
AcDbEntity
  8
IMPORT_IGES
100
AcDbLine
 62
7
  6
CONTINUOUS
 10
4.15
 20
2.335
 11
4.15
 21
1.785
  0
LINE
  5
436
100
AcDbEntity
  8
SUPERFICI
100
AcDbLine
 62
7
  6
CONTINUOUS
 10
2.9951803161
 20
18.1577189331
 11
3.0057033248
 21
19.3635362903
  0
LINE
  5
437
100
AcDbEntity
  8
SUPERFICI
100
AcDbLine
 62
7
  6
CONTINUOUS
 10
3.5205544631
 20
19.365308184
 11
3.5348577163
 21
21.004298655
  0
LINE
  5
438
100
AcDbEntity
  8
SUPERFICI
100
AcDbLine
 62
7
  6
CONTINUOUS
 10
8.9498936624
 20
17.91
 11
8.8258650579
 21
17.5376115984
  0
LINE
  5
439
100
AcDbEntity
  8
SUPERFICI
100
AcDbLine
 62
7
  6
CONTINUOUS
 10
9.65
 20
17.2090396502
 11
9.5242313121
 21
16.8314267532
  0
LINE
  5
43A
100
AcDbEntity
  8
IMPORT_IGES
100
AcDbLine
 62
7
  6
CONTINUOUS
 10
-1.6
 20
2.285
 11
-0.6
 21
2.285
  0
LINE
  5
43B
100
AcDbEntity
  8
IMPORT_IGES
100
AcDbLine
 62
7
  6
CONTINUOUS
 10
3.15
 20
2.335
 11
4.15
 21
2.335
  0
LINE
  5
43C
100
AcDbEntity
  8
IMPORT_IGES
100
AcDbLine
 62
7
  6
CONTINUOUS
 10
-6.456
 20
2.61
 11
-4.656
 21
2.61
  0
LINE
  5
43D
100
AcDbEntity
  8
IMPORT_IGES
100
AcDbLine
 62
7
  6
CONTINUOUS
 10
5.2
 20
2.81
 11
6.0
 21
2.81
  0
LINE
  5
43E
100
AcDbEntity
  8
IMPORT_IGES
100
AcDbLine
 62
7
  6
CONTINUOUS
 10
4.0
 20
2.835
 11
3.0
 21
2.835
  0
LINE
  5
43F
100
AcDbEntity
  8
IMPORT_IGES
100
AcDbLine
 62
7
  6
CONTINUOUS
 10
-6.456
 20
3.36
 11
-3.956
 21
3.36
  0
LINE
  5
440
100
AcDbEntity
  8
IMPORT_IGES
100
AcDbLine
 62
7
  6
CONTINUOUS
 10
3.0
 20
3.385
 11
4.0
 21
3.385
  0
LINE
  5
441
100
AcDbEntity
  8
IMPORT_IGES
100
AcDbLine
 62
7
  6
CONTINUOUS
 10
0.2
 20
3.435
 11
2.2
 21
3.435
  0
LINE
  5
442
100
AcDbEntity
  8
IMPORT_IGES
100
AcDbLine
 62
250
  6
CONTINUOUS
 10
0.65
 20
3.4588058436
 11
0.45
 21
3.4588058436
  0
LINE
  5
443
100
AcDbEntity
  8
IMPORT_IGES
100
AcDbLine
 62
250
  6
CONTINUOUS
 10
1.1
 20
3.4588058436
 11
1.3
 21
3.4588058436
  0
LINE
  5
444
100
AcDbEntity
  8
IMPORT_IGES
100
AcDbLine
 62
250
  6
CONTINUOUS
 10
1.75
 20
3.4588058436
 11
1.95
 21
3.4588058436
  0
LINE
  5
445
100
AcDbEntity
  8
IMPORT_IGES
100
AcDbLine
 62
250
  6
CONTINUOUS
 10
0.65
 20
3.5756667888
 11
0.45
 21
3.5756667888
  0
LINE
  5
446
100
AcDbEntity
  8
IMPORT_IGES
100
AcDbLine
 62
250
  6
CONTINUOUS
 10
1.1
 20
3.5756667888
 11
1.3
 21
3.5756667888
  0
LINE
  5
447
100
AcDbEntity
  8
IMPORT_IGES
100
AcDbLine
 62
250
  6
CONTINUOUS
 10
1.75
 20
3.5756667888
 11
1.95
 21
3.5756667888
  0
LINE
  5
448
100
AcDbEntity
  8
IMPORT_IGES
100
AcDbLine
 62
250
  6
CONTINUOUS
 10
0.65
 20
3.716538257
 11
0.45
 21
3.716538257
  0
LINE
  5
449
100
AcDbEntity
  8
IMPORT_IGES
100
AcDbLine
 62
250
  6
CONTINUOUS
 10
1.1
 20
3.716538257
 11
1.3
 21
3.716538257
  0
LINE
  5
44A
100
AcDbEntity
  8
IMPORT_IGES
100
AcDbLine
 62
250
  6
CONTINUOUS
 10
1.75
 20
3.716538257
 11
1.95
 21
3.716538257
  0
LINE
  5
44B
100
AcDbEntity
  8
IMPORT_IGES
100
AcDbLine
 62
250
  6
CONTINUOUS
 10
0.65
 20
3.7839998738
 11
0.45
 21
3.7839998738
  0
LINE
  5
44C
100
AcDbEntity
  8
IMPORT_IGES
100
AcDbLine
 62
250
  6
CONTINUOUS
 10
1.1
 20
3.7839998738
 11
1.3
 21
3.7839998738
  0
LINE
  5
44D
100
AcDbEntity
  8
IMPORT_IGES
100
AcDbLine
 62
250
  6
CONTINUOUS
 10
1.75
 20
3.7839998738
 11
1.95
 21
3.7839998738
  0
LINE
  5
44E
100
AcDbEntity
  8
IMPORT_IGES
100
AcDbLine
 62
7
  6
CONTINUOUS
 10
0.65
 20
3.91
 11
0.45
 21
3.91
  0
LINE
  5
44F
100
AcDbEntity
  8
IMPORT_IGES
100
AcDbLine
 62
7
  6
CONTINUOUS
 10
1.1
 20
3.91
 11
1.3
 21
3.91
  0
LINE
  5
450
100
AcDbEntity
  8
IMPORT_IGES
100
AcDbLine
 62
7
  6
CONTINUOUS
 10
1.75
 20
3.91
 11
1.95
 21
3.91
  0
LINE
  5
451
100
AcDbEntity
  8
CURVE
100
AcDbLine
 62
250
  6
CONTINUOUS
 10
7.6436104221
 20
-3.49
 11
7.1008359914
 21
-2.9471428329
  0
LINE
  5
452
100
AcDbEntity
  8
IMPORT_IGES
100
AcDbLine
 62
7
  6
CONTINUOUS
 10
4.25
 20
-0.515
 11
4.25
 21
-1.065
  0
LINE
  5
453
100
AcDbEntity
  8
SUPERFICI
100
AcDbLine
 62
7
  6
CONTINUOUS
 10
4.406077753
 20
20.9638922731
 11
4.406077753
 21
19.366077753
  0
LINE
  5
454
100
AcDbEntity
  8
SUPERFICI
100
AcDbLine
 62
7
  6
CONTINUOUS
 10
4.406077753
 20
-25.346077753
 11
4.406077753
 21
-26.9438922731
  0
LINE
  5
455
100
AcDbEntity
  8
SUPERFICI
100
AcDbLine
 62
7
  6
CONTINUOUS
 10
4.45
 20
-26.99
 11
4.45
 21
-26.3579449472
  0
LINE
  5
456
100
AcDbEntity
  8
SUPERFICI
100
AcDbLine
 62
7
  6
CONTINUOUS
 10
4.45
 20
-25.9220550528
 11
4.45
 21
-25.39
  0
LINE
  5
457
100
AcDbEntity
  8
SUPERFICI
100
AcDbLine
 62
7
  6
CONTINUOUS
 10
4.45
 20
19.41
 11
4.45
 21
19.9420550528
  0
LINE
  5
458
100
AcDbEntity
  8
SUPERFICI
100
AcDbLine
 62
7
  6
CONTINUOUS
 10
4.45
 20
20.3779449472
 11
4.45
 21
21.01
  0
LINE
  5
459
100
AcDbEntity
  8
CURVE
100
AcDbLine
 62
250
  6
CONTINUOUS
 10
4.9654469725
 20
-16.2757143879
 11
4.9654469725
 21
-15.6328571939
  0
LINE
  5
45A
100
AcDbEntity
  8
CURVE
100
AcDbLine
 62
250
  6
CONTINUOUS
 10
5.1797000596
 20
-13.2757143879
 11
5.1797000596
 21
-14.0257143879
  0
LINE
  5
45B
100
AcDbEntity
  8
IMPORT_IGES
100
AcDbLine
 62
7
  6
CONTINUOUS
 10
5.2
 20
1.11
 11
5.2
 21
2.81
  0
LINE
  5
45C
100
AcDbEntity
  8
IMPORT_IGES
100
AcDbLine
 62
7
  6
CONTINUOUS
 10
5.4
 20
9.770473039
 11
5.4
 21
7.76
  0
LINE
  5
45D
100
AcDbEntity
  8
CURVE
100
AcDbLine
 62
250
  6
CONTINUOUS
 10
5.5010796791
 20
-12.4185712242
 11
5.5010796791
 21
-12.5257143879
  0
LINE
  5
45E
100
AcDbEntity
  8
CURVE
100
AcDbLine
 62
250
  6
CONTINUOUS
 10
5.5010796791
 20
-14.4542856121
 11
5.5010796791
 21
-15.2042856121
  0
LINE
  5
45F
100
AcDbEntity
  8
CURVE
100
AcDbLine
 62
250
  6
CONTINUOUS
 10
5.5010796791
 20
-17.0257142091
 11
5.5010796791
 21
-17.1328571939
  0
LINE
  5
460
100
AcDbEntity
  8
CURVE
100
AcDbLine
 62
250
  6
CONTINUOUS
 10
5.5010796791
 20
-18.2042857015
 11
5.5010796791
 21
-18.311428597
  0
LINE
  5
461
100
AcDbEntity
  8
IMPORT_IGES
100
AcDbLine
 62
7
  6
CONTINUOUS
 10
5.55
 20
9.7678547792
 11
5.55
 21
7.76
  0
LINE
  5
462
100
AcDbEntity
  8
IMPORT_IGES
100
AcDbLine
 62
7
  6
CONTINUOUS
 10
5.6
 20
-1.065
 11
5.6
 21
-0.515
  0
LINE
  5
463
100
AcDbEntity
  8
0
100
AcDbLine
 62
7
  6
CONTINUOUS
 10
6.0
 20
9.76
 11
6.0
 21
-6.49
  0
LINE
  5
464
100
AcDbEntity
  8
ASSI
100
AcDbLine
 62
7
  6
CONTINUOUS
 10
6.0
 20
9.76
 11
6.0
 21
-6.49
  0
LINE
  5
465
100
AcDbEntity
  8
IMPORT_IGES
100
AcDbLine
 62
7
  6
CONTINUOUS
 10
4.0
 20
4.435
 11
3.0
 21
4.435
  0
LINE
  5
466
100
AcDbEntity
  8
IMPORT_IGES
100
AcDbLine
 62
7
  6
CONTINUOUS
 10
-0.6
 20
4.435
 11
-1.6
 21
4.435
  0
LINE
  5
467
100
AcDbEntity
  8
IMPORT_IGES
100
AcDbLine
 62
7
  6
CONTINUOUS
 10
1.95
 20
4.66
 11
1.75
 21
4.66
  0
LINE
  5
468
100
AcDbEntity
  8
IMPORT_IGES
100
AcDbLine
 62
7
  6
CONTINUOUS
 10
1.3
 20
4.66
 11
1.1
 21
4.66
  0
LINE
  5
469
100
AcDbEntity
  8
IMPORT_IGES
100
AcDbLine
 62
7
  6
CONTINUOUS
 10
0.45
 20
4.66
 11
0.65
 21
4.66
  0
LINE
  5
46A
100
AcDbEntity
  8
IMPORT_IGES
100
AcDbLine
 62
250
  6
CONTINUOUS
 10
1.95
 20
4.7860001262
 11
1.75
 21
4.7860001262
  0
LINE
  5
46B
100
AcDbEntity
  8
IMPORT_IGES
100
AcDbLine
 62
250
  6
CONTINUOUS
 10
1.3
 20
4.7860001262
 11
1.1
 21
4.7860001262
  0
LINE
  5
46C
100
AcDbEntity
  8
IMPORT_IGES
100
AcDbLine
 62
250
  6
CONTINUOUS
 10
0.45
 20
4.7860001262
 11
0.65
 21
4.7860001262
  0
LINE
  5
46D
100
AcDbEntity
  8
IMPORT_IGES
100
AcDbLine
 62
250
  6
CONTINUOUS
 10
1.95
 20
4.853461743
 11
1.75
 21
4.853461743
  0
LINE
  5
46E
100
AcDbEntity
  8
IMPORT_IGES
100
AcDbLine
 62
250
  6
CONTINUOUS
 10
1.3
 20
4.853461743
 11
1.1
 21
4.853461743
  0
LINE
  5
46F
100
AcDbEntity
  8
IMPORT_IGES
100
AcDbLine
 62
250
  6
CONTINUOUS
 10
0.45
 20
4.853461743
 11
0.65
 21
4.853461743
  0
LINE
  5
470
100
AcDbEntity
  8
IMPORT_IGES
100
AcDbLine
 62
7
  6
CONTINUOUS
 10
-1.6
 20
4.985
 11
-0.6
 21
4.985
  0
LINE
  5
471
100
AcDbEntity
  8
IMPORT_IGES
100
AcDbLine
 62
7
  6
CONTINUOUS
 10
3.0
 20
4.985
 11
4.0
 21
4.985
  0
LINE
  5
472
100
AcDbEntity
  8
IMPORT_IGES
100
AcDbLine
 62
250
  6
CONTINUOUS
 10
1.95
 20
4.9943332112
 11
1.75
 21
4.9943332112
  0
LINE
  5
473
100
AcDbEntity
  8
IMPORT_IGES
100
AcDbLine
 62
250
  6
CONTINUOUS
 10
1.3
 20
4.9943332112
 11
1.1
 21
4.9943332112
  0
LINE
  5
474
100
AcDbEntity
  8
IMPORT_IGES
100
AcDbLine
 62
250
  6
CONTINUOUS
 10
0.45
 20
4.9943332112
 11
0.65
 21
4.9943332112
  0
LINE
  5
475
100
AcDbEntity
  8
IMPORT_IGES
100
AcDbLine
 62
250
  6
CONTINUOUS
 10
1.95
 20
5.1111941564
 11
1.75
 21
5.1111941564
  0
LINE
  5
476
100
AcDbEntity
  8
IMPORT_IGES
100
AcDbLine
 62
250
  6
CONTINUOUS
 10
1.3
 20
5.1111941564
 11
1.1
 21
5.1111941564
  0
LINE
  5
477
100
AcDbEntity
  8
IMPORT_IGES
100
AcDbLine
 62
250
  6
CONTINUOUS
 10
0.65
 20
5.1111941564
 11
0.45
 21
5.1111941564
  0
LINE
  5
478
100
AcDbEntity
  8
IMPORT_IGES
100
AcDbLine
 62
7
  6
CONTINUOUS
 10
2.2
 20
5.135
 11
0.2
 21
5.135
  0
LINE
  5
479
100
AcDbEntity
  8
IMPORT_IGES
100
AcDbLine
 62
7
  6
CONTINUOUS
 10
4.0
 20
6.035
 11
3.0
 21
6.035
  0
LINE
  5
47A
100
AcDbEntity
  8
SUPERFICI
100
AcDbLine
 62
250
  6
CONTINUOUS
 10
7.254371834
 20
-26.8343375673
 11
7.25
 21
-26.4004851482
  0
LINE
  5
47B
100
AcDbEntity
  8
SUPERFICI
100
AcDbLine
 62
250
  6
CONTINUOUS
 10
7.5043676032
 20
-26.6178312164
 11
7.4992770021
 21
-26.1126497308
  0
LINE
  5
47C
100
AcDbEntity
  8
CURVE
100
AcDbLine
 62
250
  6
CONTINUOUS
 10
6.5009273743
 20
-17.99
 11
6.5009273743
 21
-17.3471428508
  0
LINE
  5
47D
100
AcDbEntity
  8
CURVE
100
AcDbLine
 62
250
  6
CONTINUOUS
 10
6.5009273743
 20
-16.5971428955
 11
6.5009273743
 21
-16.49
  0
LINE
  5
47E
100
AcDbEntity
  8
CURVE
100
AcDbLine
 62
250
  6
CONTINUOUS
 10
6.5009273743
 20
-13.0971429253
 11
6.5009273743
 21
-12.9900001192
  0
LINE
  5
47F
100
AcDbEntity
  8
CURVE
100
AcDbLine
 62
250
  6
CONTINUOUS
 10
6.9294335038
 20
-11.0614285374
 11
6.9294335038
 21
-10.418571701
  0
LINE
  5
480
100
AcDbEntity
  8
CURVE
100
AcDbLine
 62
250
  6
CONTINUOUS
 10
7.1436865686
 20
-14.0614285374
 11
7.1436865686
 21
-14.5257142687
  0
LINE
  5
481
100
AcDbEntity
  8
CURVE
100
AcDbLine
 62
250
  6
CONTINUOUS
 10
7.1436865686
 20
-17.5614285523
 11
7.1436865686
 21
-17.99
  0
LINE
  5
482
100
AcDbEntity
  8
CURVE
100
AcDbLine
 62
250
  6
CONTINUOUS
 10
7.1436865686
 20
-12.2400001192
 11
7.1436865686
 21
-11.4899997616
  0
LINE
  5
483
100
AcDbEntity
  8
SUPERFICI
100
AcDbLine
 62
7
  6
CONTINUOUS
 10
7.25
 20
-25.39
 11
7.25
 21
-26.8343375673
  0
LINE
  5
484
100
AcDbEntity
  8
SUPERFICI
100
AcDbLine
 62
7
  6
CONTINUOUS
 10
7.25
 20
19.41
 11
7.25
 21
20.8543375673
  0
LINE
  5
485
100
AcDbEntity
  8
SUPERFICI
100
AcDbLine
 62
7
  6
CONTINUOUS
 10
7.254371834
 20
21.2556323968
 11
7.254371834
 21
20.8543375673
  0
LINE
  5
486
100
AcDbEntity
  8
SUPERFICI
100
AcDbLine
 62
7
  6
CONTINUOUS
 10
7.254371834
 20
-26.8343375673
 11
7.254371834
 21
-27.2356323968
  0
LINE
  5
487
100
AcDbEntity
  8
SUPERFICI
100
AcDbLine
 62
7
  6
CONTINUOUS
 10
7.3
 20
-23.9859955457
 11
7.3
 21
-23.2626846557
  0
LINE
  5
488
100
AcDbEntity
  8
SUPERFICI
100
AcDbLine
 62
7
  6
CONTINUOUS
 10
7.3
 20
17.2826846557
 11
7.3
 21
18.0059955457
  0
LINE
  5
489
100
AcDbEntity
  8
SUPERFICI
100
AcDbLine
 62
250
  6
CONTINUOUS
 10
7.5043676032
 20
-26.6178312164
 11
7.5043676032
 21
-27.485628166
  0
LINE
  5
48A
100
AcDbEntity
  8
SUPERFICI
100
AcDbLine
 62
250
  6
CONTINUOUS
 10
7.5043676032
 20
20.6378312164
 11
7.5043676032
 21
21.505628166
  0
LINE
  5
48B
100
AcDbEntity
  8
SUPERFICI
100
AcDbLine
 62
250
  6
CONTINUOUS
 10
7.5666456542
 20
-24.3259869487
 11
7.5666456542
 21
-23.9859955457
  0
LINE
  5
48C
100
AcDbEntity
  8
SUPERFICI
100
AcDbLine
 62
250
  6
CONTINUOUS
 10
7.5666456542
 20
18.0059955457
 11
7.5666456542
 21
18.3459869487
  0
LINE
  5
48D
100
AcDbEntity
  8
CURVE
100
AcDbLine
 62
250
  6
CONTINUOUS
 10
8.000698917
 20
-12.9900001192
 11
8.000698917
 21
-13.0971429253
  0
LINE
  5
48E
100
AcDbEntity
  8
CURVE
100
AcDbLine
 62
250
  6
CONTINUOUS
 10
8.000698917
 20
-16.49
 11
8.000698917
 21
-16.5971428955
  0
LINE
  5
48F
100
AcDbEntity
  8
CURVE
100
AcDbLine
 62
250
  6
CONTINUOUS
 10
8.000698917
 20
-17.99
 11
8.000698917
 21
-17.5614285523
  0
LINE
  5
490
100
AcDbEntity
  8
CURVE
100
AcDbLine
 62
250
  6
CONTINUOUS
 10
8.000698917
 20
-14.3828573132
 11
8.000698917
 21
-14.0614285374
  0
LINE
  5
491
100
AcDbEntity
  8
CURVE
100
AcDbLine
 62
250
  6
CONTINUOUS
 10
8.000698917
 20
-11.0614285374
 11
8.000698917
 21
-10.418571701
  0
LINE
  5
492
100
AcDbEntity
  8
SUPERFICI
100
AcDbLine
 62
250
  6
CONTINUOUS
 10
8.0665695018
 20
-24.4437354271
 11
8.0665695018
 21
-23.9817082642
  0
LINE
  5
493
100
AcDbEntity
  8
SUPERFICI
100
AcDbLine
 62
250
  6
CONTINUOUS
 10
8.0665695018
 20
18.0017082642
 11
8.0665695018
 21
18.4637354271
  0
LINE
  5
494
100
AcDbEntity
  8
SUPERFICI
100
AcDbLine
 62
250
  6
CONTINUOUS
 10
7.25
 20
20.4204851482
 11
7.254371834
 21
20.8543375673
  0
LINE
  5
495
100
AcDbEntity
  8
SUPERFICI
100
AcDbLine
 62
250
  6
CONTINUOUS
 10
7.4992770021
 20
20.1326497308
 11
7.5043676032
 21
20.6378312164
  0
LINE
  5
496
100
AcDbEntity
  8
IMPORT_IGES
100
AcDbLine
 62
7
  6
CONTINUOUS
 10
0.2
 20
6.385
 11
2.2
 21
6.385
  0
LINE
  5
497
100
AcDbEntity
  8
IMPORT_IGES
100
AcDbLine
 62
250
  6
CONTINUOUS
 10
0.65
 20
6.4088058436
 11
0.45
 21
6.4088058436
  0
LINE
  5
498
100
AcDbEntity
  8
IMPORT_IGES
100
AcDbLine
 62
250
  6
CONTINUOUS
 10
1.1
 20
6.4088058436
 11
1.3
 21
6.4088058436
  0
LINE
  5
499
100
AcDbEntity
  8
IMPORT_IGES
100
AcDbLine
 62
250
  6
CONTINUOUS
 10
1.75
 20
6.4088058436
 11
1.95
 21
6.4088058436
  0
LINE
  5
49A
100
AcDbEntity
  8
CURVE
100
AcDbLine
 62
250
  6
CONTINUOUS
 10
9.0005466122
 20
6.51
 11
7.1008359914
 21
6.51
  0
LINE
  5
49B
100
AcDbEntity
  8
IMPORT_IGES
100
AcDbLine
 62
250
  6
CONTINUOUS
 10
0.65
 20
6.5256667888
 11
0.45
 21
6.5256667888
  0
LINE
  5
49C
100
AcDbEntity
  8
IMPORT_IGES
100
AcDbLine
 62
250
  6
CONTINUOUS
 10
1.1
 20
6.5256667888
 11
1.3
 21
6.5256667888
  0
LINE
  5
49D
100
AcDbEntity
  8
IMPORT_IGES
100
AcDbLine
 62
250
  6
CONTINUOUS
 10
1.75
 20
6.5256667888
 11
1.95
 21
6.5256667888
  0
LINE
  5
49E
100
AcDbEntity
  8
IMPORT_IGES
100
AcDbLine
 62
7
  6
CONTINUOUS
 10
3.0
 20
6.585
 11
4.0
 21
6.585
  0
LINE
  5
49F
100
AcDbEntity
  8
IMPORT_IGES
100
AcDbLine
 62
250
  6
CONTINUOUS
 10
0.65
 20
6.666538257
 11
0.45
 21
6.666538257
  0
LINE
  5
4A0
100
AcDbEntity
  8
IMPORT_IGES
100
AcDbLine
 62
250
  6
CONTINUOUS
 10
1.1
 20
6.666538257
 11
1.3
 21
6.666538257
  0
LINE
  5
4A1
100
AcDbEntity
  8
IMPORT_IGES
100
AcDbLine
 62
250
  6
CONTINUOUS
 10
1.75
 20
6.666538257
 11
1.95
 21
6.666538257
  0
LINE
  5
4A2
100
AcDbEntity
  8
IMPORT_IGES
100
AcDbLine
 62
250
  6
CONTINUOUS
 10
0.65
 20
6.7339998738
 11
0.45
 21
6.7339998738
  0
LINE
  5
4A3
100
AcDbEntity
  8
IMPORT_IGES
100
AcDbLine
 62
250
  6
CONTINUOUS
 10
1.1
 20
6.7339998738
 11
1.3
 21
6.7339998738
  0
LINE
  5
4A4
100
AcDbEntity
  8
IMPORT_IGES
100
AcDbLine
 62
250
  6
CONTINUOUS
 10
1.75
 20
6.7339998738
 11
1.95
 21
6.7339998738
  0
LINE
  5
4A5
100
AcDbEntity
  8
IMPORT_IGES
100
AcDbLine
 62
7
  6
CONTINUOUS
 10
0.65
 20
6.86
 11
0.45
 21
6.86
  0
LINE
  5
4A6
100
AcDbEntity
  8
IMPORT_IGES
100
AcDbLine
 62
7
  6
CONTINUOUS
 10
1.1
 20
6.86
 11
1.3
 21
6.86
  0
LINE
  5
4A7
100
AcDbEntity
  8
IMPORT_IGES
100
AcDbLine
 62
7
  6
CONTINUOUS
 10
1.75
 20
6.86
 11
1.95
 21
6.86
  0
LINE
  5
4A8
100
AcDbEntity
  8
IMPORT_IGES
100
AcDbLine
 62
7
  6
CONTINUOUS
 10
-1.756
 20
7.06
 11
-3.956
 21
7.06
  0
LINE
  5
4A9
100
AcDbEntity
  8
CURVE
100
AcDbLine
 62
250
  6
CONTINUOUS
 10
9.0005466122
 20
7.46
 11
7.1008359914
 21
7.46
  0
LINE
  5
4AA
100
AcDbEntity
  8
IMPORT_IGES
100
AcDbLine
 62
7
  6
CONTINUOUS
 10
-3.956
 20
7.56
 11
-6.456
 21
7.56
  0
LINE
  5
4AB
100
AcDbEntity
  8
IMPORT_IGES
100
AcDbLine
 62
7
  6
CONTINUOUS
 10
5.4
 20
7.61
 11
3.0
 21
7.61
  0
LINE
  5
4AC
100
AcDbEntity
  8
IMPORT_IGES
100
AcDbLine
 62
7
  6
CONTINUOUS
 10
5.4
 20
7.76
 11
3.0
 21
7.76
  0
LINE
  5
4AD
100
AcDbEntity
  8
IMPORT_IGES
100
AcDbLine
 62
7
  6
CONTINUOUS
 10
3.0
 20
7.61
 11
2.85
 21
7.76
  0
LINE
  5
4AE
100
AcDbEntity
  8
SUPERFICI
100
AcDbLine
 62
7
  6
CONTINUOUS
 10
11.15
 20
-21.49
 11
11.1325462644
 21
-21.1373460386
  0
LINE
  5
4AF
100
AcDbEntity
  8
SUPERFICI
100
AcDbLine
 62
250
  6
CONTINUOUS
 10
9.8956323968
 20
20.6378312164
 11
9.9007229979
 21
20.1326497308
  0
LINE
  5
4B0
100
AcDbEntity
  8
SUPERFICI
100
AcDbLine
 62
7
  6
CONTINUOUS
 10
8.25
 20
18.41
 11
8.25
 21
17.91
  0
LINE
  5
4B1
100
AcDbEntity
  8
SUPERFICI
100
AcDbLine
 62
7
  6
CONTINUOUS
 10
8.25
 20
-23.89
 11
8.25
 21
-24.39
  0
LINE
  5
4B2
100
AcDbEntity
  8
CURVE
100
AcDbLine
 62
250
  6
CONTINUOUS
 10
9.0005466122
 20
1.51
 11
9.0005466122
 21
2.1885714447
  0
LINE
  5
4B3
100
AcDbEntity
  8
SUPERFICI
100
AcDbLine
 62
7
  6
CONTINUOUS
 10
9.65
 20
-23.1890396502
 11
9.65
 21
-22.49
  0
LINE
  5
4B4
100
AcDbEntity
  8
SUPERFICI
100
AcDbLine
 62
7
  6
CONTINUOUS
 10
9.65
 20
16.51
 11
9.65
 21
17.2090396502
  0
LINE
  5
4B5
100
AcDbEntity
  8
0
100
AcDbLine
 62
7
  6
CONTINUOUS
 10
9.6674550649
 20
16.51
 11
9.6674550649
 21
15.8425449351
  0
LINE
  5
4B6
100
AcDbEntity
  8
0
100
AcDbLine
 62
7
  6
CONTINUOUS
 10
9.6674550649
 20
-21.8225449351
 11
9.6674550649
 21
-22.49
  0
LINE
  5
4B7
100
AcDbEntity
  8
SUPERFICI
100
AcDbLine
 62
250
  6
CONTINUOUS
 10
9.8956323968
 20
-26.6178312164
 11
9.8956323968
 21
-27.485628166
  0
LINE
  5
4B8
100
AcDbEntity
  8
SUPERFICI
100
AcDbLine
 62
250
  6
CONTINUOUS
 10
9.8956323968
 20
20.6378312164
 11
9.8956323968
 21
21.505628166
  0
LINE
  5
4B9
100
AcDbEntity
  8
SUPERFICI
100
AcDbLine
 62
7
  6
CONTINUOUS
 10
10.145628166
 20
-27.2356323968
 11
10.145628166
 21
-26.8343375673
  0
LINE
  5
4BA
100
AcDbEntity
  8
SUPERFICI
100
AcDbLine
 62
7
  6
CONTINUOUS
 10
10.145628166
 20
20.8543375673
 11
10.145628166
 21
21.2556323968
  0
LINE
  5
4BB
100
AcDbEntity
  8
SUPERFICI
100
AcDbLine
 62
7
  6
CONTINUOUS
 10
10.15
 20
-25.39
 11
10.15
 21
-26.8343375673
  0
LINE
  5
4BC
100
AcDbEntity
  8
SUPERFICI
100
AcDbLine
 62
7
  6
CONTINUOUS
 10
10.15
 20
19.41
 11
10.15
 21
20.8543375673
  0
LINE
  5
4BD
100
AcDbEntity
  8
CURVE
100
AcDbLine
 62
250
  6
CONTINUOUS
 10
4.9297381284
 20
-10.1328570747
 11
5.1439912155
 21
-9.8471431637
  0
LINE
  5
4BE
100
AcDbEntity
  8
CURVE
100
AcDbLine
 62
250
  6
CONTINUOUS
 10
2.0568295379
 20
-11.4185714626
 11
1.8425764285
 21
-11.6328570747
  0
LINE
  5
4BF
100
AcDbEntity
  8
CURVE
100
AcDbLine
 62
250
  6
CONTINUOUS
 10
1.1998172342
 20
-9.9185714626
 11
2.6995887769
 21
-9.4900002384
  0
LINE
  5
4C0
100
AcDbEntity
  8
0
100
AcDbLine
 62
7
  6
CONTINUOUS
 10
0.0
 20
9.873457922
 11
-6.5
 21
9.76
  0
LINE
  5
4C1
100
AcDbEntity
  8
IMPORT_IGES
100
AcDbLine
 62
7
  6
CONTINUOUS
 10
2.85
 20
8.21
 11
1.75
 21
8.21
  0
LINE
  5
4C2
100
AcDbEntity
  8
IMPORT_IGES
100
AcDbLine
 62
7
  6
CONTINUOUS
 10
1.45
 20
8.41
 11
0.55
 21
8.41
  0
LINE
  5
4C3
100
AcDbEntity
  8
IMPORT_IGES
100
AcDbLine
 62
7
  6
CONTINUOUS
 10
-5.026
 20
8.459528
 11
-6.456
 21
8.459528
  0
LINE
  5
4C4
100
AcDbEntity
  8
IMPORT_IGES
100
AcDbLine
 62
7
  6
CONTINUOUS
 10
0.025
 20
8.71
 11
-0.525
 21
8.71
  0
LINE
  5
4C5
100
AcDbEntity
  8
IMPORT_IGES
100
AcDbLine
 62
7
  6
CONTINUOUS
 10
1.75
 20
8.71
 11
2.85
 21
8.71
  0
LINE
  5
4C6
100
AcDbEntity
  8
IMPORT_IGES
100
AcDbLine
 62
7
  6
CONTINUOUS
 10
-6.156
 20
8.81
 11
-6.456
 21
8.81
  0
LINE
  5
4C7
100
AcDbEntity
  8
IMPORT_IGES
100
AcDbLine
 62
7
  6
CONTINUOUS
 10
2.044
 20
9.0456057326
 11
-6.456
 21
9.0456057326
  0
LINE
  5
4C8
100
AcDbEntity
  8
IMPORT_IGES
100
AcDbLine
 62
7
  6
CONTINUOUS
 10
5.55
 20
9.06
 11
5.95
 21
9.06
  0
LINE
  5
4C9
100
AcDbEntity
  8
IMPORT_IGES
100
AcDbLine
 62
7
  6
CONTINUOUS
 10
2.85
 20
9.71
 11
2.044
 21
9.71
  0
LINE
  5
4CA
100
AcDbEntity
  8
0
100
AcDbLine
 62
7
  6
CONTINUOUS
 10
-3.6355019184
 20
9.81
 11
3.1355019184
 21
9.81
  0
LINE
  5
4CB
100
AcDbEntity
  8
0
100
AcDbLine
 62
7
  6
CONTINUOUS
 10
0.0
 20
9.8647303896
 11
6.0
 21
9.76
  0
LINE
  5
4CC
100
AcDbEntity
  8
ASSI
100
AcDbLine
 62
7
  6
CONTINUOUS
 10
0.0
 20
9.8647303896
 11
6.0
 21
9.76
  0
LINE
  5
4CD
100
AcDbEntity
  8
SUPERFICI
100
AcDbLine
 62
250
  6
CONTINUOUS
 10
-11.1412731322
 20
18.9041990932
 11
-11.15
 21
18.910016923
  0
LINE
  5
4CE
100
AcDbEntity
  8
SUPERFICI
100
AcDbLine
 62
7
  6
CONTINUOUS
 10
-7.1905416262
 20
19.3459700255
 11
-7.2558178298
 21
19.4041821702
  0
LINE
  5
4CF
100
AcDbEntity
  8
IMPORT_IGES
100
AcDbLine
 62
7
  6
CONTINUOUS
 10
5.4
 20
7.76
 11
5.475
 21
7.685
  0
LINE
  5
4D0
100
AcDbEntity
  8
0
100
AcDbLine
 62
250
  6
CONTINUOUS
 10
-2.8792424271
 20
16.6597426365
 11
-2.981542814
 21
16.7620430234
  0
LINE
  5
4D1
100
AcDbEntity
  8
0
100
AcDbLine
 62
7
  6
CONTINUOUS
 10
-2.4571109685
 20
16.6671109685
 11
-2.5444128922
 21
16.7544128922
  0
LINE
  5
4D2
100
AcDbEntity
  8
SUPERFICI
100
AcDbLine
 62
250
  6
CONTINUOUS
 10
10.145628166
 20
20.8543375673
 11
10.15
 21
20.4204851482
  0
LINE
  5
4D3
100
AcDbEntity
  8
SUPERFICI
100
AcDbLine
 62
250
  6
CONTINUOUS
 10
10.145628166
 20
21.2556323968
 11
10.1456238859
 21
21.2570868299
  0
LINE
  5
4D4
100
AcDbEntity
  8
0
100
AcDbLine
 62
250
  6
CONTINUOUS
 10
10.1674524064
 20
-19.9257864376
 11
10.1674524064
 21
13.9457864376
  0
LINE
  5
4D5
100
AcDbEntity
  8
ASSI
100
AcDbLine
 62
250
  6
CONTINUOUS
 10
10.1674524064
 20
-19.9257864376
 11
10.1674524064
 21
13.9457864376
  0
LINE
  5
4D6
100
AcDbEntity
  8
SUPERFICI
100
AcDbLine
 62
7
  6
CONTINUOUS
 10
11.1325462644
 20
-21.5074537356
 11
11.1325462644
 21
-21.1373460386
  0
LINE
  5
4D7
100
AcDbEntity
  8
SUPERFICI
100
AcDbLine
 62
7
  6
CONTINUOUS
 10
11.1325462644
 20
15.1573460386
 11
11.1325462644
 21
15.5274537356
  0
LINE
  5
4D8
100
AcDbEntity
  8
SUPERFICI
100
AcDbLine
 62
7
  6
CONTINUOUS
 10
11.1412731322
 20
-24.8841990932
 11
11.1412731322
 21
-21.4987268678
  0
LINE
  5
4D9
100
AcDbEntity
  8
SUPERFICI
100
AcDbLine
 62
7
  6
CONTINUOUS
 10
11.1412731322
 20
15.5187268678
 11
11.1412731322
 21
18.9041990932
  0
LINE
  5
4DA
100
AcDbEntity
  8
SUPERFICI
100
AcDbLine
 62
7
  6
CONTINUOUS
 10
11.15
 20
18.910016923
 11
11.15
 21
15.51
  0
LINE
  5
4DB
100
AcDbEntity
  8
SUPERFICI
100
AcDbLine
 62
7
  6
CONTINUOUS
 10
11.15
 20
-24.890016923
 11
11.15
 21
-21.49
  0
LINE
  5
4DC
100
AcDbEntity
  8
0
100
AcDbLine
 62
7
  6
CONTINUOUS
 10
11.15
 20
-19.9257864376
 11
11.15
 21
13.9457864376
  0
LINE
  5
4DD
100
AcDbEntity
  8
ASSI
100
AcDbLine
 62
7
  6
CONTINUOUS
 10
11.15
 20
-19.9257864376
 11
11.15
 21
13.9457864376
  0
LINE
  5
4DE
100
AcDbEntity
  8
SUPERFICI
100
AcDbLine
 62
7
  6
CONTINUOUS
 10
11.1849101299
 20
-21.1373460386
 11
11.1849101299
 21
15.1573460386
  0
LINE
  5
4DF
100
AcDbEntity
  8
SUPERFICI
100
AcDbLine
 62
250
  6
CONTINUOUS
 10
9.9007229979
 20
-26.1126497308
 11
9.8956323968
 21
-26.6178312164
  0
LINE
  5
4E0
100
AcDbEntity
  8
SUPERFICI
100
AcDbLine
 62
250
  6
CONTINUOUS
 10
10.15
 20
-26.4004851482
 11
10.145628166
 21
-26.8343375673
  0
LINE
  5
4E1
100
AcDbEntity
  8
SUPERFICI
100
AcDbLine
 62
7
  6
CONTINUOUS
 10
11.1325462644
 20
15.1573460386
 11
11.15
 21
15.51
  0
LINE
  5
4E2
100
AcDbEntity
  8
CURVE
100
AcDbLine
 62
250
  6
CONTINUOUS
 10
2.0568295379
 20
-13.3471430445
 11
1.8425764285
 21
-13.5614286566
  0
LINE
  5
4E3
100
AcDbEntity
  8
CURVE
100
AcDbLine
 62
250
  6
CONTINUOUS
 10
4.0013081364
 20
-12.4185712242
 11
4.2155612012
 21
-12.2042856121
  0
LINE
  5
4E4
100
AcDbEntity
  8
CURVE
100
AcDbLine
 62
250
  6
CONTINUOUS
 10
1.414070299
 20
-13.3828571939
 11
1.1998172342
 21
-13.5614286566
  0
LINE
  5
4E5
100
AcDbEntity
  8
CURVE
100
AcDbLine
 62
250
  6
CONTINUOUS
 10
1.6283233637
 20
-10.7757146263
 11
1.1998172342
 21
-10.9900002384
  0
LINE
  5
4E6
100
AcDbEntity
  8
SUPERFICI
100
AcDbLine
 62
7
  6
CONTINUOUS
 10
-4.45
 20
19.41
 11
-4.406077753
 21
19.366077753
  0
LINE
  5
4E7
100
AcDbEntity
  8
SUPERFICI
100
AcDbLine
 62
7
  6
CONTINUOUS
 10
-4.45
 20
21.01
 11
-4.4063493531
 21
20.9663493531
  0
LINE
  5
4E8
100
AcDbEntity
  8
SUPERFICI
100
AcDbLine
 62
7
  6
CONTINUOUS
 10
11.1849101299
 20
15.1573460386
 11
11.15
 21
15.51
  0
LINE
  5
4E9
100
AcDbEntity
  8
SUPERFICI
100
AcDbLine
 62
7
  6
CONTINUOUS
 10
11.15
 20
-21.49
 11
11.1849101299
 21
-21.1373460386
  0
LINE
  5
4EA
100
AcDbEntity
  8
CURVE
100
AcDbLine
 62
250
  6
CONTINUOUS
 10
5.5010796791
 20
-12.5257143879
 11
5.286826592
 21
-12.74
  0
LINE
  5
4EB
100
AcDbEntity
  8
CURVE
100
AcDbLine
 62
250
  6
CONTINUOUS
 10
2.0568295379
 20
-16.3471430445
 11
1.8425764285
 21
-16.561428746
  0
LINE
  5
4EC
100
AcDbEntity
  8
CURVE
100
AcDbLine
 62
250
  6
CONTINUOUS
 10
4.2155612012
 20
-14.4542856121
 11
4.0013081364
 21
-14.6685715818
  0
LINE
  5
4ED
100
AcDbEntity
  8
CURVE
100
AcDbLine
 62
250
  6
CONTINUOUS
 10
6.5009273743
 20
-12.9900001192
 11
6.715180439
 21
-12.7757141495
  0
LINE
  5
4EE
100
AcDbEntity
  8
CURVE
100
AcDbLine
 62
250
  6
CONTINUOUS
 10
2.4853356898
 20
-17.0971429551
 11
2.6995887769
 21
-16.8828572536
  0
LINE
  5
4EF
100
AcDbEntity
  8
0
100
AcDbLine
 62
250
  6
CONTINUOUS
 10
-2.981542814
 20
-22.7420430234
 11
-2.8792424271
 21
-22.6397426365
  0
LINE
  5
4F0
100
AcDbEntity
  8
CURVE
100
AcDbLine
 62
250
  6
CONTINUOUS
 10
2.4496268457
 20
-12.5971430445
 11
2.5210445451
 21
-12.5614285374
  0
LINE
  5
4F1
100
AcDbEntity
  8
CURVE
100
AcDbLine
 62
250
  6
CONTINUOUS
 10
2.6281710831
 20
-12.668571701
 11
2.5567533892
 21
-12.7042858505
  0
LINE
  5
4F2
100
AcDbEntity
  8
CURVE
100
AcDbLine
 62
250
  6
CONTINUOUS
 10
4.2155612012
 20
-12.2042856121
 11
4.4298142659
 21
-12.0971431637
  0
LINE
  5
4F3
100
AcDbEntity
  8
CURVE
100
AcDbLine
 62
250
  6
CONTINUOUS
 10
5.286826592
 20
-12.74
 11
5.0725735049
 21
-12.8471431637
  0
LINE
  5
4F4
100
AcDbEntity
  8
CURVE
100
AcDbLine
 62
250
  6
CONTINUOUS
 10
4.0013081364
 20
-11.6685712242
 11
5.5010796791
 21
-11.24
  0
LINE
  5
4F5
100
AcDbEntity
  8
CURVE
100
AcDbLine
 62
250
  6
CONTINUOUS
 10
2.0049455221
 20
12.3225
 11
3.2547551783
 21
12.3225
  0
LINE
  5
4F6
100
AcDbEntity
  8
CURVE
100
AcDbLine
 62
250
  6
CONTINUOUS
 10
2.0049455221
 20
13.26
 11
3.671358397
 21
13.26
  0
LINE
  5
4F7
100
AcDbEntity
  8
0
100
AcDbLine
 62
250
  6
CONTINUOUS
 10
10.1674524064
 20
13.9457864376
 11
11.15
 21
13.9457864376
  0
LINE
  5
4F8
100
AcDbEntity
  8
ASSI
100
AcDbLine
 62
250
  6
CONTINUOUS
 10
10.1674524064
 20
13.9457864376
 11
11.15
 21
13.9457864376
  0
LINE
  5
4F9
100
AcDbEntity
  8
0
100
AcDbLine
 62
250
  6
CONTINUOUS
 10
-10.1674524064
 20
13.9457864376
 11
-11.15
 21
13.9457864376
  0
LINE
  5
4FA
100
AcDbEntity
  8
CURVE
100
AcDbLine
 62
250
  6
CONTINUOUS
 10
3.2547551783
 20
12.3225
 11
4.2962632065
 21
12.01
  0
LINE
  5
4FB
100
AcDbEntity
  8
CURVE
100
AcDbLine
 62
250
  6
CONTINUOUS
 10
3.671358397
 20
12.9475
 11
3.2547551783
 21
13.26
  0
LINE
  5
4FC
100
AcDbEntity
  8
0
100
AcDbLine
 62
7
  6
CONTINUOUS
 10
-2.5444128922
 20
-22.7344128922
 11
-2.4571109685
 21
-22.6471109685
  0
LINE
  5
4FD
100
AcDbEntity
  8
SUPERFICI
100
AcDbLine
 62
7
  6
CONTINUOUS
 10
-4.45
 20
-25.39
 11
-4.406077753
 21
-25.346077753
  0
LINE
  5
4FE
100
AcDbEntity
  8
CURVE
100
AcDbLine
 62
250
  6
CONTINUOUS
 10
4.0013081364
 20
-17.0257142091
 11
4.2155612012
 21
-16.811428597
  0
LINE
  5
4FF
100
AcDbEntity
  8
CURVE
100
AcDbLine
 62
250
  6
CONTINUOUS
 10
8.000698917
 20
-13.0971429253
 11
7.7864458299
 21
-13.3114285374
  0
LINE
  5
500
100
AcDbEntity
  8
CURVE
100
AcDbLine
 62
250
  6
CONTINUOUS
 10
7.357939678
 20
-13.8471429253
 11
7.1436865686
 21
-14.0614285374
  0
LINE
  5
501
100
AcDbEntity
  8
CURVE
100
AcDbLine
 62
250
  6
CONTINUOUS
 10
4.0013081364
 20
-18.2042857015
 11
4.2155612012
 21
-17.99
  0
LINE
  5
502
100
AcDbEntity
  8
CURVE
100
AcDbLine
 62
250
  6
CONTINUOUS
 10
7.7864458299
 20
-14.5971429253
 11
8.000698917
 21
-14.3828573132
  0
LINE
  5
503
100
AcDbEntity
  8
SUPERFICI
100
AcDbLine
 62
7
  6
CONTINUOUS
 10
-4.4063493531
 20
-26.9463493531
 11
-4.45
 21
-26.99
  0
LINE
  5
504
100
AcDbEntity
  8
CURVE
100
AcDbLine
 62
250
  6
CONTINUOUS
 10
5.5010796791
 20
-17.1328571939
 11
5.286826592
 21
-17.3471428061
  0
LINE
  5
505
100
AcDbEntity
  8
SUPERFICI
100
AcDbLine
 62
7
  6
CONTINUOUS
 10
-7.1905416262
 20
-25.3259700255
 11
-7.2558178298
 21
-25.3841821702
  0
LINE
  5
506
100
AcDbEntity
  8
SUPERFICI
100
AcDbLine
 62
250
  6
CONTINUOUS
 10
-11.15
 20
-24.890016923
 11
-11.1412731322
 21
-24.8841990932
  0
LINE
  5
507
100
AcDbEntity
  8
CURVE
100
AcDbLine
 62
250
  6
CONTINUOUS
 10
2.8067153205
 20
-14.4185714626
 11
2.3782091574
 21
-14.6328574324
  0
LINE
  5
508
100
AcDbEntity
  8
CURVE
100
AcDbLine
 62
250
  6
CONTINUOUS
 10
6.715180439
 20
-12.7757141495
 11
6.9294335038
 21
-12.6685713434
  0
LINE
  5
509
100
AcDbEntity
  8
CURVE
100
AcDbLine
 62
250
  6
CONTINUOUS
 10
7.7864458299
 20
-13.3114285374
 11
7.5721927428
 21
-13.4185713434
  0
LINE
  5
50A
100
AcDbEntity
  8
CURVE
100
AcDbLine
 62
250
  6
CONTINUOUS
 10
1.1998172342
 20
-15.4900000596
 11
2.6995887769
 21
-15.0614286566
  0
LINE
  5
50B
100
AcDbEntity
  8
0
100
AcDbLine
 62
250
  6
CONTINUOUS
 10
0.0
 20
15.7101523048
 11
-8.55236869
 21
15.5608701541
  0
LINE
  5
50C
100
AcDbEntity
  8
SUPERFICI
100
AcDbLine
 62
7
  6
CONTINUOUS
 10
-11.1849101299
 20
15.1573460386
 11
-11.1325462644
 21
15.1573460386
  0
LINE
  5
50D
100
AcDbEntity
  8
SUPERFICI
100
AcDbLine
 62
7
  6
CONTINUOUS
 10
11.1849101299
 20
15.1573460386
 11
11.1325462644
 21
15.1573460386
  0
LINE
  5
50E
100
AcDbEntity
  8
0
100
AcDbLine
 62
250
  6
CONTINUOUS
 10
8.55236869
 20
15.5608701541
 11
0.0
 21
15.7101523048
  0
LINE
  5
50F
100
AcDbEntity
  8
ASSI
100
AcDbLine
 62
250
  6
CONTINUOUS
 10
8.55236869
 20
15.5608701541
 11
0.0
 21
15.7101523048
  0
LINE
  5
510
100
AcDbEntity
  8
CURVE
100
AcDbLine
 62
250
  6
CONTINUOUS
 10
6.5009273743
 20
-16.49
 11
6.715180439
 21
-16.2757142091
  0
LINE
  5
511
100
AcDbEntity
  8
CURVE
100
AcDbLine
 62
250
  6
CONTINUOUS
 10
5.5010796791
 20
-18.311428597
 11
5.286826592
 21
-18.5257142985
  0
LINE
  5
512
100
AcDbEntity
  8
CURVE
100
AcDbLine
 62
250
  6
CONTINUOUS
 10
8.000698917
 20
-16.5971428955
 11
7.7864458299
 21
-16.811428597
  0
LINE
  5
513
100
AcDbEntity
  8
CURVE
100
AcDbLine
 62
250
  6
CONTINUOUS
 10
7.357939678
 20
-17.3471428508
 11
7.1436865686
 21
-17.5614285523
  0
LINE
  5
514
100
AcDbEntity
  8
CURVE
100
AcDbLine
 62
250
  6
CONTINUOUS
 10
4.2155612012
 20
-16.811428597
 11
4.4298142659
 21
-16.7042857909
  0
LINE
  5
515
100
AcDbEntity
  8
CURVE
100
AcDbLine
 62
250
  6
CONTINUOUS
 10
6.715180439
 20
-16.2757142091
 11
6.9294335038
 21
-16.168571403
  0
LINE
  5
516
100
AcDbEntity
  8
CURVE
100
AcDbLine
 62
250
  6
CONTINUOUS
 10
5.286826592
 20
-17.3471428061
 11
5.0725735049
 21
-17.4542857909
  0
LINE
  5
517
100
AcDbEntity
  8
CURVE
100
AcDbLine
 62
250
  6
CONTINUOUS
 10
4.2155612012
 20
-17.99
 11
4.4298142659
 21
-17.8828571939
  0
LINE
  5
518
100
AcDbEntity
  8
0
100
AcDbLine
 62
7
  6
CONTINUOUS
 10
0.0
 20
16.71
 11
-8.55236869
 21
16.5607178492
  0
LINE
  5
519
100
AcDbEntity
  8
0
100
AcDbLine
 62
7
  6
CONTINUOUS
 10
-6.0
 20
16.8052696104
 11
-5.7289961631
 21
16.81
  0
LINE
  5
51A
100
AcDbEntity
  8
0
100
AcDbLine
 62
250
  6
CONTINUOUS
 10
-5.0349048129
 20
17.622191562
 11
-0.0
 21
17.7100761524
  0
LINE
  5
51B
100
AcDbEntity
  8
ASSI
100
AcDbLine
 62
250
  6
CONTINUOUS
 10
-5.0349048129
 20
17.622191562
 11
-0.0
 21
17.7100761524
  0
LINE
  5
51C
100
AcDbEntity
  8
0
100
AcDbLine
 62
250
  6
CONTINUOUS
 10
-7.0
 20
17.5964659139
 11
-5.0349048129
 21
17.622191562
  0
LINE
  5
51D
100
AcDbEntity
  8
ASSI
100
AcDbLine
 62
250
  6
CONTINUOUS
 10
-7.0
 20
17.5964659139
 11
-5.0349048129
 21
17.622191562
  0
LINE
  5
51E
100
AcDbEntity
  8
SUPERFICI
100
AcDbLine
 62
7
  6
CONTINUOUS
 10
9.65
 20
16.51
 11
10.15
 21
16.51
  0
LINE
  5
51F
100
AcDbEntity
  8
SUPERFICI
100
AcDbLine
 62
7
  6
CONTINUOUS
 10
-9.65
 20
16.51
 11
-10.15
 21
16.51
  0
LINE
  5
520
100
AcDbEntity
  8
SUPERFICI
100
AcDbLine
 62
7
  6
CONTINUOUS
 10
-6.5
 20
16.71
 11
-7.3
 21
16.71
  0
LINE
  5
521
100
AcDbEntity
  8
SUPERFICI
100
AcDbLine
 62
7
  6
CONTINUOUS
 10
-8.8258650579
 20
17.5376115984
 11
-7.3
 21
17.5376115984
  0
LINE
  5
522
100
AcDbEntity
  8
SUPERFICI
100
AcDbLine
 62
7
  6
CONTINUOUS
 10
7.3
 20
17.5376115984
 11
8.8258650579
 21
17.5376115984
  0
LINE
  5
523
100
AcDbEntity
  8
SUPERFICI
100
AcDbLine
 62
7
  6
CONTINUOUS
 10
8.9498936624
 20
17.91
 11
7.3
 21
17.91
  0
LINE
  5
524
100
AcDbEntity
  8
SUPERFICI
100
AcDbLine
 62
7
  6
CONTINUOUS
 10
-7.3
 20
17.91
 11
-8.9498936624
 21
17.91
  0
LINE
  5
525
100
AcDbEntity
  8
SUPERFICI
100
AcDbLine
 62
7
  6
CONTINUOUS
 10
-7.5666456542
 20
18.0059955457
 11
-7.3
 21
18.0059955457
  0
LINE
  5
526
100
AcDbEntity
  8
SUPERFICI
100
AcDbLine
 62
7
  6
CONTINUOUS
 10
7.5666456542
 20
18.0059955457
 11
7.3
 21
18.0059955457
  0
LINE
  5
527
100
AcDbEntity
  8
0
100
AcDbLine
 62
250
  6
CONTINUOUS
 10
-7.0
 20
17.3235340861
 11
-5.0349048129
 21
17.297808438
  0
LINE
  5
528
100
AcDbEntity
  8
ASSI
100
AcDbLine
 62
250
  6
CONTINUOUS
 10
-7.0
 20
17.3235340861
 11
-5.0349048129
 21
17.297808438
  0
LINE
  5
529
100
AcDbEntity
  8
0
100
AcDbLine
 62
7
  6
CONTINUOUS
 10
8.55236869
 20
16.5607178492
 11
-6.5087262032
 21
16.8236102385
  0
LINE
  5
52A
100
AcDbEntity
  8
ASSI
100
AcDbLine
 62
7
  6
CONTINUOUS
 10
8.55236869
 20
16.5607178492
 11
-6.5087262032
 21
16.8236102385
  0
LINE
  5
52B
100
AcDbEntity
  8
0
100
AcDbLine
 62
250
  6
CONTINUOUS
 10
-5.0349048129
 20
17.297808438
 11
0.0
 21
17.2099238476
  0
LINE
  5
52C
100
AcDbEntity
  8
ASSI
100
AcDbLine
 62
250
  6
CONTINUOUS
 10
-5.0349048129
 20
17.297808438
 11
0.0
 21
17.2099238476
  0
LINE
  5
52D
100
AcDbEntity
  8
0
100
AcDbLine
 62
250
  6
CONTINUOUS
 10
5.6821314735
 20
17.6108941786
 11
-0.0
 21
17.7100761524
  0
LINE
  5
52E
100
AcDbEntity
  8
ASSI
100
AcDbLine
 62
250
  6
CONTINUOUS
 10
5.6821314735
 20
17.6108941786
 11
-0.0
 21
17.7100761524
  0
LINE
  5
52F
100
AcDbEntity
  8
SUPERFICI
100
AcDbLine
 62
250
  6
CONTINUOUS
 10
1.0
 20
20.8100067692
 11
1.00856737
 21
20.8042952698
  0
LINE
  5
530
100
AcDbEntity
  8
0
100
AcDbLine
 62
250
  6
CONTINUOUS
 10
10.1674524064
 20
13.9457864376
 11
8.55236869
 21
15.5608701541
  0
LINE
  5
531
100
AcDbEntity
  8
ASSI
100
AcDbLine
 62
250
  6
CONTINUOUS
 10
10.1674524064
 20
13.9457864376
 11
8.55236869
 21
15.5608701541
  0
LINE
  5
532
100
AcDbEntity
  8
0
100
AcDbLine
 62
7
  6
CONTINUOUS
 10
10.8571067812
 20
14.6528932188
 11
9.2420230647
 21
16.2679769353
  0
LINE
  5
533
100
AcDbEntity
  8
ASSI
100
AcDbLine
 62
7
  6
CONTINUOUS
 10
10.8571067812
 20
14.6528932188
 11
9.2420230647
 21
16.2679769353
  0
LINE
  5
534
100
AcDbEntity
  8
0
100
AcDbLine
 62
250
  6
CONTINUOUS
 10
7.2956280473
 20
16.5826543387
 11
6.7258285376
 21
17.1624865323
  0
LINE
  5
535
100
AcDbEntity
  8
ASSI
100
AcDbLine
 62
250
  6
CONTINUOUS
 10
7.2956280473
 20
16.5826543387
 11
6.7258285376
 21
17.1624865323
  0
LINE
  5
536
100
AcDbEntity
  8
0
100
AcDbLine
 62
7
  6
CONTINUOUS
 10
8.0
 20
16.5703594806
 11
7.073727559
 21
17.5129411645
  0
LINE
  5
537
100
AcDbEntity
  8
ASSI
100
AcDbLine
 62
7
  6
CONTINUOUS
 10
8.0
 20
16.5703594806
 11
7.073727559
 21
17.5129411645
  0
LINE
  5
538
100
AcDbEntity
  8
CURVE
100
AcDbLine
 62
250
  6
CONTINUOUS
 10
7.7864458299
 20
-16.811428597
 11
7.5721927428
 21
-16.918571403
  0
LINE
  5
539
100
AcDbEntity
  8
CURVE
100
AcDbLine
 62
250
  6
CONTINUOUS
 10
5.286826592
 20
-18.5257142985
 11
5.0725735049
 21
-18.6328571045
  0
LINE
  5
53A
100
AcDbEntity
  8
0
100
AcDbLine
 62
7
  6
CONTINUOUS
 10
-6.5087262032
 20
18.0963897615
 11
-0.0
 21
18.21
  0
LINE
  5
53B
100
AcDbEntity
  8
ASSI
100
AcDbLine
 62
7
  6
CONTINUOUS
 10
-6.5087262032
 20
18.0963897615
 11
-0.0
 21
18.21
  0
LINE
  5
53C
100
AcDbEntity
  8
SUPERFICI
100
AcDbLine
 62
250
  6
CONTINUOUS
 10
7.5666456542
 20
18.3459869487
 11
2.9968233062
 21
18.3459869487
  0
LINE
  5
53D
100
AcDbEntity
  8
SUPERFICI
100
AcDbLine
 62
250
  6
CONTINUOUS
 10
-2.9968233062
 20
18.3459869487
 11
-7.5666456542
 21
18.3459869487
  0
LINE
  5
53E
100
AcDbEntity
  8
SUPERFICI
100
AcDbLine
 62
7
  6
CONTINUOUS
 10
3.0
 20
18.71
 11
-3.0
 21
18.71
  0
LINE
  5
53F
100
AcDbEntity
  8
SUPERFICI
100
AcDbLine
 62
250
  6
CONTINUOUS
 10
7.1905416262
 20
19.3459700255
 11
3.0055500263
 21
19.3459700255
  0
LINE
  5
540
100
AcDbEntity
  8
SUPERFICI
100
AcDbLine
 62
250
  6
CONTINUOUS
 10
-3.0055500263
 20
19.3459700255
 11
-7.1905416262
 21
19.3459700255
  0
LINE
  5
541
100
AcDbEntity
  8
SUPERFICI
100
AcDbLine
 62
7
  6
CONTINUOUS
 10
10.6412794783
 20
19.4041821702
 11
7.2558178298
 21
19.4041821702
  0
LINE
  5
542
100
AcDbEntity
  8
SUPERFICI
100
AcDbLine
 62
7
  6
CONTINUOUS
 10
-7.2558178298
 20
19.4041821702
 11
-10.6412794783
 21
19.4041821702
  0
LINE
  5
543
100
AcDbEntity
  8
SUPERFICI
100
AcDbLine
 62
7
  6
CONTINUOUS
 10
1.0086739534
 20
19.4047957125
 11
-1.0086739534
 21
19.4047957125
  0
LINE
  5
544
100
AcDbEntity
  8
SUPERFICI
100
AcDbLine
 62
7
  6
CONTINUOUS
 10
-1.0
 20
19.41
 11
1.0
 21
19.41
  0
LINE
  5
545
100
AcDbEntity
  8
SUPERFICI
100
AcDbLine
 62
7
  6
CONTINUOUS
 10
4.45
 20
19.41
 11
10.6503805997
 21
19.41
  0
LINE
  5
546
100
AcDbEntity
  8
SUPERFICI
100
AcDbLine
 62
7
  6
CONTINUOUS
 10
-4.45
 20
19.41
 11
-10.6503805997
 21
19.41
  0
LINE
  5
547
100
AcDbEntity
  8
0
100
AcDbLine
 62
7
  6
CONTINUOUS
 10
5.6821314735
 20
18.1108180262
 11
-0.0
 21
18.21
  0
LINE
  5
548
100
AcDbEntity
  8
ASSI
100
AcDbLine
 62
7
  6
CONTINUOUS
 10
5.6821314735
 20
18.1108180262
 11
-0.0
 21
18.21
  0
LINE
  5
549
100
AcDbEntity
  8
SUPERFICI
100
AcDbLine
 62
7
  6
CONTINUOUS
 10
8.0665695018
 20
18.4637354271
 11
8.25
 21
18.41
  0
LINE
  5
54A
100
AcDbEntity
  8
SUPERFICI
100
AcDbLine
 62
7
  6
CONTINUOUS
 10
8.0665695018
 20
18.0017082642
 11
8.25
 21
17.91
  0
LINE
  5
54B
100
AcDbEntity
  8
SUPERFICI
100
AcDbLine
 62
7
  6
CONTINUOUS
 10
7.2558178298
 20
19.4041821702
 11
8.25
 21
18.41
  0
LINE
  5
54C
100
AcDbEntity
  8
SUPERFICI
100
AcDbLine
 62
7
  6
CONTINUOUS
 10
11.1412731322
 20
15.5187268678
 11
10.15
 21
16.51
  0
LINE
  5
54D
100
AcDbEntity
  8
SUPERFICI
100
AcDbLine
 62
7
  6
CONTINUOUS
 10
9.65
 20
17.2090396502
 11
8.9498936624
 21
17.91
  0
LINE
  5
54E
100
AcDbEntity
  8
0
100
AcDbLine
 62
250
  6
CONTINUOUS
 10
6.7258285376
 20
-23.1424865323
 11
7.2956280473
 21
-22.5626543387
  0
LINE
  5
54F
100
AcDbEntity
  8
ASSI
100
AcDbLine
 62
250
  6
CONTINUOUS
 10
6.7258285376
 20
-23.1424865323
 11
7.2956280473
 21
-22.5626543387
  0
LINE
  5
550
100
AcDbEntity
  8
0
100
AcDbLine
 62
7
  6
CONTINUOUS
 10
7.073727559
 20
-23.4929411645
 11
8.0
 21
-22.5503594806
  0
LINE
  5
551
100
AcDbEntity
  8
ASSI
100
AcDbLine
 62
7
  6
CONTINUOUS
 10
7.073727559
 20
-23.4929411645
 11
8.0
 21
-22.5503594806
  0
LINE
  5
552
100
AcDbEntity
  8
0
100
AcDbLine
 62
250
  6
CONTINUOUS
 10
8.55236869
 20
-21.5408701541
 11
10.1674524064
 21
-19.9257864376
  0
LINE
  5
553
100
AcDbEntity
  8
ASSI
100
AcDbLine
 62
250
  6
CONTINUOUS
 10
8.55236869
 20
-21.5408701541
 11
10.1674524064
 21
-19.9257864376
  0
LINE
  5
554
100
AcDbEntity
  8
SUPERFICI
100
AcDbLine
 62
7
  6
CONTINUOUS
 10
-9.9007229979
 20
20.1326497308
 11
-7.4992770021
 21
20.1326497308
  0
LINE
  5
555
100
AcDbEntity
  8
SUPERFICI
100
AcDbLine
 62
7
  6
CONTINUOUS
 10
9.9007229979
 20
20.1326497308
 11
7.4992770021
 21
20.1326497308
  0
LINE
  5
556
100
AcDbEntity
  8
SUPERFICI
100
AcDbLine
 62
250
  6
CONTINUOUS
 10
-9.8956323968
 20
20.6378312164
 11
-7.5043676032
 21
20.6378312164
  0
LINE
  5
557
100
AcDbEntity
  8
SUPERFICI
100
AcDbLine
 62
250
  6
CONTINUOUS
 10
7.5043676032
 20
20.6378312164
 11
9.8956323968
 21
20.6378312164
  0
LINE
  5
558
100
AcDbEntity
  8
SUPERFICI
100
AcDbLine
 62
250
  6
CONTINUOUS
 10
7.254371834
 20
20.8543375673
 11
10.145628166
 21
20.8543375673
  0
LINE
  5
559
100
AcDbEntity
  8
SUPERFICI
100
AcDbLine
 62
250
  6
CONTINUOUS
 10
-7.254371834
 20
20.8543375673
 11
-10.145628166
 21
20.8543375673
  0
LINE
  5
55A
100
AcDbEntity
  8
SUPERFICI
100
AcDbLine
 62
7
  6
CONTINUOUS
 10
4.4063493531
 20
20.9663493531
 11
3.5345265377
 21
20.9663493531
  0
LINE
  5
55B
100
AcDbEntity
  8
SUPERFICI
100
AcDbLine
 62
7
  6
CONTINUOUS
 10
-3.5345265377
 20
20.9663493531
 11
-4.4063493531
 21
20.9663493531
  0
LINE
  5
55C
100
AcDbEntity
  8
SUPERFICI
100
AcDbLine
 62
7
  6
CONTINUOUS
 10
3.5348577163
 20
21.004298655
 11
1.2085495996
 21
21.004298655
  0
LINE
  5
55D
100
AcDbEntity
  8
SUPERFICI
100
AcDbLine
 62
7
  6
CONTINUOUS
 10
-1.2085495996
 20
21.004298655
 11
-3.5348577163
 21
21.004298655
  0
LINE
  5
55E
100
AcDbEntity
  8
SUPERFICI
100
AcDbLine
 62
7
  6
CONTINUOUS
 10
4.45
 20
21.01
 11
1.1999974616
 21
21.01
  0
LINE
  5
55F
100
AcDbEntity
  8
SUPERFICI
100
AcDbLine
 62
7
  6
CONTINUOUS
 10
-1.1999974616
 20
21.01
 11
-4.45
 21
21.01
  0
LINE
  5
560
100
AcDbEntity
  8
SUPERFICI
100
AcDbLine
 62
250
  6
CONTINUOUS
 10
7.254371834
 20
21.2556323968
 11
10.145628166
 21
21.2556323968
  0
LINE
  5
561
100
AcDbEntity
  8
SUPERFICI
100
AcDbLine
 62
250
  6
CONTINUOUS
 10
-7.254371834
 20
21.2556323968
 11
-10.145628166
 21
21.2556323968
  0
LINE
  5
562
100
AcDbEntity
  8
SUPERFICI
100
AcDbLine
 62
7
  6
CONTINUOUS
 10
9.8956323968
 20
21.505628166
 11
7.5043676032
 21
21.505628166
  0
LINE
  5
563
100
AcDbEntity
  8
SUPERFICI
100
AcDbLine
 62
7
  6
CONTINUOUS
 10
-7.5043676032
 20
21.505628166
 11
-9.8956323968
 21
21.505628166
  0
LINE
  5
564
100
AcDbEntity
  8
SUPERFICI
100
AcDbLine
 62
7
  6
CONTINUOUS
 10
9.65
 20
-23.1890396502
 11
8.9498936624
 21
-23.89
  0
LINE
  5
565
100
AcDbEntity
  8
0
100
AcDbLine
 62
7
  6
CONTINUOUS
 10
9.2420230647
 20
-22.2479769353
 11
10.8571067812
 21
-20.6328932188
  0
LINE
  5
566
100
AcDbEntity
  8
ASSI
100
AcDbLine
 62
7
  6
CONTINUOUS
 10
9.2420230647
 20
-22.2479769353
 11
10.8571067812
 21
-20.6328932188
  0
LINE
  5
567
100
AcDbEntity
  8
SUPERFICI
100
AcDbLine
 62
7
  6
CONTINUOUS
 10
7.2558178298
 20
-25.3841821702
 11
8.25
 21
-24.39
  0
LINE
  5
568
100
AcDbEntity
  8
SUPERFICI
100
AcDbLine
 62
7
  6
CONTINUOUS
 10
10.15
 20
-22.49
 11
11.1412731322
 21
-21.4987268678
  0
LINE
  5
569
100
AcDbEntity
  8
SUPERFICI
100
AcDbLine
 62
250
  6
CONTINUOUS
 10
1.00856737
 20
-26.7842952698
 11
1.0
 21
-26.7900067692
  0
LINE
  5
56A
100
AcDbEntity
  8
SUPERFICI
100
AcDbLine
 62
7
  6
CONTINUOUS
 10
8.0665695018
 20
-23.9817082642
 11
8.25
 21
-23.89
  0
LINE
  5
56B
100
AcDbEntity
  8
SUPERFICI
100
AcDbLine
 62
7
  6
CONTINUOUS
 10
8.0665695018
 20
-24.4437354271
 11
8.25
 21
-24.39
  0
ARC
  5
56C
100
AcDbEntity
  8
0
100
AcDbCircle
 62
7
  6
CONTINUOUS
 10
-8.5349162836
 20
-21.5408701541
 40
1.0
100
AcDbArc
 50
225.0
 51
269.0
  0
ARC
  5
56D
100
AcDbEntity
  8
0
100
AcDbCircle
 62
7
  6
CONTINUOUS
 10
-10.15
 20
-19.9257864376
 40
1.0
100
AcDbArc
 50
180.0
 51
225.0
  0
ARC
  5
56E
100
AcDbEntity
  8
SUPERFICI
100
AcDbCircle
 62
7
  6
CONTINUOUS
 10
-4.0
 20
-26.14
 40
0.5
100
AcDbArc
 50
144.3637748935
 51
215.6362251065
  0
ARC
  5
56F
100
AcDbEntity
  8
0
100
AcDbCircle
 62
7
  6
CONTINUOUS
 10
-6.5
 20
-23.3035340861
 40
0.5
100
AcDbArc
 50
91.0
 51
180.0
  0
ARC
  5
570
100
AcDbEntity
  8
0
100
AcDbCircle
 62
7
  6
CONTINUOUS
 10
-6.5
 20
-23.5764659139
 40
0.5
100
AcDbArc
 50
180.0
 51
269.0
  0
ARC
  5
571
100
AcDbEntity
  8
ASSI
100
AcDbCircle
 62
7
  6
CONTINUOUS
 10
-6.5
 20
-23.3035340861
 40
0.5
100
AcDbArc
 50
91.0
 51
180.0
  0
ARC
  5
572
100
AcDbEntity
  8
ASSI
100
AcDbCircle
 62
7
  6
CONTINUOUS
 10
-6.5
 20
-23.5764659139
 40
0.5
100
AcDbArc
 50
180.0
 51
269.0
  0
ARC
  5
573
100
AcDbEntity
  8
SUPERFICI
100
AcDbCircle
 62
7
  6
CONTINUOUS
 10
-10.6500384553
 20
-24.8900439681
 40
0.4999576362
100
AcDbArc
 50
179.9687347086
 51
269.9607896944
  0
ARC
  5
574
100
AcDbEntity
  8
SUPERFICI
100
AcDbCircle
 62
7
  6
CONTINUOUS
 10
-7.5005146651
 20
-27.238378334
 40
0.2516791954
100
AcDbArc
 50
278.2460718504
 51
297.2081235185
  0
ARC
  5
575
100
AcDbEntity
  8
SUPERFICI
100
AcDbCircle
 62
7
  6
CONTINUOUS
 10
-9.8991531386
 20
-27.2397761815
 40
0.250870749
100
AcDbArc
 50
188.2057126838
 51
201.7942999602
  0
ARC
  5
576
100
AcDbEntity
  8
SUPERFICI
100
AcDbCircle
 62
7
  6
CONTINUOUS
 10
-7.5000225067
 20
-27.2396231241
 40
0.2503768773
100
AcDbArc
 50
270.0061185554
 51
278.1754669505
  0
ARC
  5
577
100
AcDbEntity
  8
SUPERFICI
100
AcDbCircle
 62
7
  6
CONTINUOUS
 10
-9.8996231241
 20
-27.2399774933
 40
0.2503768773
100
AcDbArc
 50
180.0061185554
 51
188.1754669505
  0
ARC
  5
578
100
AcDbEntity
  8
SUPERFICI
100
AcDbCircle
 62
250
  6
CONTINUOUS
 10
-7.504395463
 20
-27.2353434579
 40
0.2502847096
100
AcDbArc
 50
270.0063777271
 51
276.1717480341
  0
ARC
  5
579
100
AcDbEntity
  8
SUPERFICI
100
AcDbCircle
 62
250
  6
CONTINUOUS
 10
-9.895604537
 20
-27.2353434579
 40
0.2502847096
100
AcDbArc
 50
263.8282519659
 51
269.9936222729
  0
ARC
  5
57A
100
AcDbEntity
  8
SUPERFICI
100
AcDbCircle
 62
7
  6
CONTINUOUS
 10
-9.8956225687
 20
-27.2356222513
 40
0.2500055938
100
AcDbArc
 50
180.3356510784
 51
263.8254913673
  0
ARC
  5
57B
100
AcDbEntity
  8
SUPERFICI
100
AcDbCircle
 62
7
  6
CONTINUOUS
 10
-7.4999909246
 20
-27.2400091487
 40
0.2499895178
100
AcDbArc
 50
297.2722650006
 51
338.1824431574
  0
ARC
  5
57C
100
AcDbEntity
  8
SUPERFICI
100
AcDbCircle
 62
7
  6
CONTINUOUS
 10
-9.9000090754
 20
-27.2400091487
 40
0.2499895178
100
AcDbArc
 50
201.8175568426
 51
242.7277349994
  0
ARC
  5
57D
100
AcDbEntity
  8
SUPERFICI
100
AcDbCircle
 62
7
  6
CONTINUOUS
 10
-7.5043619467
 20
-27.2356873475
 40
0.2499392099
100
AcDbArc
 50
276.1725845919
 51
359.997569613
  0
ARC
  5
57E
100
AcDbEntity
  8
SUPERFICI
100
AcDbCircle
 62
7
  6
CONTINUOUS
 10
-1.1999932435
 20
-26.7900067566
 40
0.1999932435
100
AcDbArc
 50
269.9987915599
 51
359.9999963837
  0
ARC
  5
57F
100
AcDbEntity
  8
0
100
AcDbCircle
 62
7
  6
CONTINUOUS
 10
-10.15
 20
13.9457864376
 40
1.0
100
AcDbArc
 50
135.0
 51
180.0
  0
ARC
  5
580
100
AcDbEntity
  8
0
100
AcDbCircle
 62
7
  6
CONTINUOUS
 10
-8.5349162836
 20
15.5608701541
 40
1.0
100
AcDbArc
 50
91.0
 51
135.0
  0
ARC
  5
581
100
AcDbEntity
  8
SUPERFICI
100
AcDbCircle
 62
7
  6
CONTINUOUS
 10
-4.0
 20
20.16
 40
0.5
100
AcDbArc
 50
144.3637748935
 51
215.6362251065
  0
ARC
  5
582
100
AcDbEntity
  8
0
100
AcDbCircle
 62
7
  6
CONTINUOUS
 10
-6.5
 20
17.3235340861
 40
0.5
100
AcDbArc
 50
180.0
 51
269.0
  0
ARC
  5
583
100
AcDbEntity
  8
0
100
AcDbCircle
 62
7
  6
CONTINUOUS
 10
-6.5
 20
17.5964659139
 40
0.5
100
AcDbArc
 50
91.0
 51
180.0
  0
ARC
  5
584
100
AcDbEntity
  8
ASSI
100
AcDbCircle
 62
7
  6
CONTINUOUS
 10
-6.5
 20
17.3235340861
 40
0.5
100
AcDbArc
 50
180.0
 51
269.0
  0
ARC
  5
585
100
AcDbEntity
  8
ASSI
100
AcDbCircle
 62
7
  6
CONTINUOUS
 10
-6.5
 20
17.5964659139
 40
0.5
100
AcDbArc
 50
91.0
 51
180.0
  0
ARC
  5
586
100
AcDbEntity
  8
SUPERFICI
100
AcDbCircle
 62
7
  6
CONTINUOUS
 10
-10.6500384132
 20
18.9100440103
 40
0.4999576362
100
AcDbArc
 50
90.0392151342
 51
180.0312701179
  0
ARC
  5
587
100
AcDbEntity
  8
IMPORT_IGES
100
AcDbCircle
 62
7
  6
CONTINUOUS
 10
-1.2499999884
 20
-0.490000004
 40
0.4000000001
100
AcDbArc
 50
283.597034776
 51
76.4054564713
  0
ARC
  5
588
100
AcDbEntity
  8
SUPERFICI
100
AcDbCircle
 62
7
  6
CONTINUOUS
 10
-9.8994853349
 20
21.258378334
 40
0.2516791954
100
AcDbArc
 50
98.2460718504
 51
117.2081235185
  0
ARC
  5
589
100
AcDbEntity
  8
SUPERFICI
100
AcDbCircle
 62
7
  6
CONTINUOUS
 10
-7.5008468614
 20
21.2597761815
 40
0.250870749
100
AcDbArc
 50
8.2057126837
 51
21.7942999603
  0
ARC
  5
58A
100
AcDbEntity
  8
SUPERFICI
100
AcDbCircle
 62
7
  6
CONTINUOUS
 10
-9.8999774933
 20
21.2596231241
 40
0.2503768773
100
AcDbArc
 50
90.0061185554
 51
98.1754669505
  0
ARC
  5
58B
100
AcDbEntity
  8
SUPERFICI
100
AcDbCircle
 62
7
  6
CONTINUOUS
 10
-7.5003768759
 20
21.2599774933
 40
0.2503768773
100
AcDbArc
 50
0.0061185554
 51
8.1754669505
  0
ARC
  5
58C
100
AcDbEntity
  8
SUPERFICI
100
AcDbCircle
 62
250
  6
CONTINUOUS
 10
-9.895604537
 20
21.2553434579
 40
0.2502847096
100
AcDbArc
 50
90.0063777271
 51
96.1717480341
  0
ARC
  5
58D
100
AcDbEntity
  8
SUPERFICI
100
AcDbCircle
 62
7
  6
CONTINUOUS
 10
-7.5043784515
 20
21.2556215485
 40
0.2500066177
100
AcDbArc
 50
0.0024861811
 51
89.9975138189
  0
ARC
  5
58E
100
AcDbEntity
  8
SUPERFICI
100
AcDbCircle
 62
7
  6
CONTINUOUS
 10
-7.4999923615
 20
21.2600076385
 40
0.249991413
100
AcDbArc
 50
21.8177557666
 51
68.1822442334
  0
ARC
  5
58F
100
AcDbEntity
  8
SUPERFICI
100
AcDbCircle
 62
7
  6
CONTINUOUS
 10
-9.9000090754
 20
21.2600091487
 40
0.2499895178
100
AcDbArc
 50
117.2722650006
 51
158.1824431574
  0
ARC
  5
590
100
AcDbEntity
  8
SUPERFICI
100
AcDbCircle
 62
7
  6
CONTINUOUS
 10
-9.8956380533
 20
21.2556873475
 40
0.2499392099
100
AcDbArc
 50
96.1725845919
 51
179.997569613
  0
ARC
  5
591
100
AcDbEntity
  8
SUPERFICI
100
AcDbCircle
 62
7
  6
CONTINUOUS
 10
-1.1999932435
 20
20.8100067566
 40
0.1999932435
100
AcDbArc
 50
0.0000036163
 51
90.0012084401
  0
ARC
  5
592
100
AcDbEntity
  8
0
100
AcDbCircle
 62
7
  6
CONTINUOUS
 10
5.6472266606
 20
-22.0911226359
 40
2.0
100
AcDbArc
 50
271.0
 51
315.5
  0
ARC
  5
593
100
AcDbEntity
  8
ASSI
100
AcDbCircle
 62
7
  6
CONTINUOUS
 10
5.6472266606
 20
-22.0911226359
 40
2.0
100
AcDbArc
 50
271.0
 51
315.5
  0
ARC
  5
594
100
AcDbEntity
  8
0
100
AcDbCircle
 62
250
  6
CONTINUOUS
 10
5.6559523751
 20
-22.0911214983
 40
1.500001146
100
AcDbArc
 50
271.000017908
 51
315.499982092
  0
ARC
  5
595
100
AcDbEntity
  8
0
100
AcDbCircle
 62
7
  6
CONTINUOUS
 10
10.15
 20
-19.9257864376
 40
1.0
100
AcDbArc
 50
315.0
 51
360.0
  0
ARC
  5
596
100
AcDbEntity
  8
0
100
AcDbCircle
 62
7
  6
CONTINUOUS
 10
8.5349162836
 20
-21.5408701541
 40
1.0
100
AcDbArc
 50
271.0
 51
315.0
  0
ARC
  5
597
100
AcDbEntity
  8
ASSI
100
AcDbCircle
 62
7
  6
CONTINUOUS
 10
10.15
 20
-19.9257864376
 40
1.0
100
AcDbArc
 50
315.0
 51
360.0
  0
ARC
  5
598
100
AcDbEntity
  8
ASSI
100
AcDbCircle
 62
7
  6
CONTINUOUS
 10
8.5349162836
 20
-21.5408701541
 40
1.0
100
AcDbArc
 50
271.0
 51
315.0
  0
ARC
  5
599
100
AcDbEntity
  8
SUPERFICI
100
AcDbCircle
 62
7
  6
CONTINUOUS
 10
4.0
 20
-26.14
 40
0.5
100
AcDbArc
 50
324.3637748935
 51
35.6362251065
  0
ARC
  5
59A
100
AcDbEntity
  8
SUPERFICI
100
AcDbCircle
 62
7
  6
CONTINUOUS
 10
10.6500382294
 20
-24.8900437425
 40
0.4999579139
100
AcDbArc
 50
270.0392361787
 51
0.0312394204
  0
ARC
  5
59B
100
AcDbEntity
  8
SUPERFICI
100
AcDbCircle
 62
7
  6
CONTINUOUS
 10
9.8994853349
 20
-27.238378334
 40
0.2516791954
100
AcDbArc
 50
278.2460718503
 51
297.2081235185
  0
ARC
  5
59C
100
AcDbEntity
  8
SUPERFICI
100
AcDbCircle
 62
7
  6
CONTINUOUS
 10
7.5008468614
 20
-27.2397761815
 40
0.250870749
100
AcDbArc
 50
188.2057126837
 51
201.7942999602
  0
ARC
  5
59D
100
AcDbEntity
  8
SUPERFICI
100
AcDbCircle
 62
7
  6
CONTINUOUS
 10
9.8999774933
 20
-27.2396231241
 40
0.2503768773
100
AcDbArc
 50
270.0061185554
 51
278.1754669505
  0
ARC
  5
59E
100
AcDbEntity
  8
SUPERFICI
100
AcDbCircle
 62
7
  6
CONTINUOUS
 10
7.5003768759
 20
-27.2399774933
 40
0.2503768773
100
AcDbArc
 50
180.0061185554
 51
188.1754669505
  0
ARC
  5
59F
100
AcDbEntity
  8
SUPERFICI
100
AcDbCircle
 62
250
  6
CONTINUOUS
 10
9.895604537
 20
-27.2353434579
 40
0.2502847096
100
AcDbArc
 50
270.0063777271
 51
276.1717480341
  0
ARC
  5
5A0
100
AcDbEntity
  8
SUPERFICI
100
AcDbCircle
 62
7
  6
CONTINUOUS
 10
7.5043784515
 20
-27.2356215485
 40
0.2500066177
100
AcDbArc
 50
180.0024861811
 51
269.9975138189
  0
ARC
  5
5A1
100
AcDbEntity
  8
SUPERFICI
100
AcDbCircle
 62
7
  6
CONTINUOUS
 10
7.4999923615
 20
-27.2400076385
 40
0.249991413
100
AcDbArc
 50
201.8177557666
 51
248.1822442334
  0
ARC
  5
5A2
100
AcDbEntity
  8
SUPERFICI
100
AcDbCircle
 62
7
  6
CONTINUOUS
 10
9.9000090754
 20
-27.2400091487
 40
0.2499895178
100
AcDbArc
 50
297.2722650006
 51
338.1824431574
  0
ARC
  5
5A3
100
AcDbEntity
  8
SUPERFICI
100
AcDbCircle
 62
7
  6
CONTINUOUS
 10
9.8956380533
 20
-27.2356873475
 40
0.2499392099
100
AcDbArc
 50
276.1725845919
 51
359.997569613
  0
ARC
  5
5A4
100
AcDbEntity
  8
SUPERFICI
100
AcDbCircle
 62
7
  6
CONTINUOUS
 10
1.1999932435
 20
-26.7900067566
 40
0.1999932435
100
AcDbArc
 50
180.0000036163
 51
270.0012084401
  0
ARC
  5
5A5
100
AcDbEntity
  8
0
100
AcDbCircle
 62
7
  6
CONTINUOUS
 10
5.6472266606
 20
16.1111226359
 40
2.0
100
AcDbArc
 50
44.5
 51
89.0
  0
ARC
  5
5A6
100
AcDbEntity
  8
ASSI
100
AcDbCircle
 62
7
  6
CONTINUOUS
 10
5.6472266606
 20
16.1111226359
 40
2.0
100
AcDbArc
 50
44.5
 51
89.0
  0
ARC
  5
5A7
100
AcDbEntity
  8
0
100
AcDbCircle
 62
250
  6
CONTINUOUS
 10
5.6559523751
 20
16.1111214982
 40
1.500001146
100
AcDbArc
 50
44.5000179089
 51
88.9999820911
  0
ARC
  5
5A8
100
AcDbEntity
  8
0
100
AcDbCircle
 62
7
  6
CONTINUOUS
 10
8.5349162836
 20
15.5608701541
 40
1.0
100
AcDbArc
 50
45.0
 51
89.0
  0
ARC
  5
5A9
100
AcDbEntity
  8
0
100
AcDbCircle
 62
7
  6
CONTINUOUS
 10
10.15
 20
13.9457864376
 40
1.0
100
AcDbArc
 50
0.0
 51
45.0
  0
ARC
  5
5AA
100
AcDbEntity
  8
ASSI
100
AcDbCircle
 62
7
  6
CONTINUOUS
 10
8.5349162836
 20
15.5608701541
 40
1.0
100
AcDbArc
 50
45.0
 51
89.0
  0
ARC
  5
5AB
100
AcDbEntity
  8
ASSI
100
AcDbCircle
 62
7
  6
CONTINUOUS
 10
10.15
 20
13.9457864376
 40
1.0
100
AcDbArc
 50
0.0
 51
45.0
  0
ARC
  5
5AC
100
AcDbEntity
  8
SUPERFICI
100
AcDbCircle
 62
7
  6
CONTINUOUS
 10
4.0
 20
20.16
 40
0.5
100
AcDbArc
 50
324.3637748935
 51
35.6362251065
  0
ARC
  5
5AD
100
AcDbEntity
  8
SUPERFICI
100
AcDbCircle
 62
7
  6
CONTINUOUS
 10
10.6500381873
 20
18.9100437846
 40
0.4999579139
100
AcDbArc
 50
359.9687557524
 51
89.9607589951
  0
CIRCLE
  5
5AE
100
AcDbEntity
  8
IMPORT_IGES
100
AcDbCircle
 62
7
  6
CONTINUOUS
 10
1.24999999
 20
-0.490000004
 40
0.4000000001
  0
ARC
  5
5AF
100
AcDbEntity
  8
SUPERFICI
100
AcDbCircle
 62
7
  6
CONTINUOUS
 10
9.8991531386
 20
21.2597761815
 40
0.250870749
100
AcDbArc
 50
8.2057126837
 51
21.7942999602
  0
ARC
  5
5B0
100
AcDbEntity
  8
SUPERFICI
100
AcDbCircle
 62
7
  6
CONTINUOUS
 10
7.5002238185
 20
21.2591531386
 40
0.250870749
100
AcDbArc
 50
98.2057126837
 51
111.7942999603
  0
ARC
  5
5B1
100
AcDbEntity
  8
SUPERFICI
100
AcDbCircle
 62
7
  6
CONTINUOUS
 10
9.8996231241
 20
21.2599774933
 40
0.2503768773
100
AcDbArc
 50
0.0061185554
 51
8.1754669505
  0
ARC
  5
5B2
100
AcDbEntity
  8
SUPERFICI
100
AcDbCircle
 62
7
  6
CONTINUOUS
 10
7.5000225067
 20
21.2596231241
 40
0.2503768773
100
AcDbArc
 50
90.0061185554
 51
98.1754669505
  0
ARC
  5
5B3
100
AcDbEntity
  8
SUPERFICI
100
AcDbCircle
 62
250
  6
CONTINUOUS
 10
9.895604537
 20
21.2553434579
 40
0.2502847096
100
AcDbArc
 50
83.8282519659
 51
89.9936222729
  0
ARC
  5
5B4
100
AcDbEntity
  8
SUPERFICI
100
AcDbCircle
 62
7
  6
CONTINUOUS
 10
7.5043784515
 20
21.2556215485
 40
0.2500066177
100
AcDbArc
 50
90.0024861811
 51
179.9975138189
  0
ARC
  5
5B5
100
AcDbEntity
  8
SUPERFICI
100
AcDbCircle
 62
7
  6
CONTINUOUS
 10
9.8956225687
 20
21.2556222513
 40
0.2500055938
100
AcDbArc
 50
0.3356510784
 51
83.8254913673
  0
ARC
  5
5B6
100
AcDbEntity
  8
SUPERFICI
100
AcDbCircle
 62
7
  6
CONTINUOUS
 10
7.4999923615
 20
21.2600076385
 40
0.249991413
100
AcDbArc
 50
111.8177557666
 51
158.1822442334
  0
ARC
  5
5B7
100
AcDbEntity
  8
SUPERFICI
100
AcDbCircle
 62
7
  6
CONTINUOUS
 10
9.9000090754
 20
21.2600091487
 40
0.2499895178
100
AcDbArc
 50
21.8175568426
 51
62.7277349994
  0
ARC
  5
5B8
100
AcDbEntity
  8
SUPERFICI
100
AcDbCircle
 62
7
  6
CONTINUOUS
 10
1.1999932435
 20
20.8100067566
 40
0.1999932435
100
AcDbArc
 50
89.9987915599
 51
179.9999963837
  0
CIRCLE
  5
5B9
100
AcDbEntity
  8
IMPORT_IGES
100
AcDbCircle
 62
7
  6
CONTINUOUS
 10
0.55484
 20
2.429
 40
0.127
  0
CIRCLE
  5
5BA
100
AcDbEntity
  8
IMPORT_IGES
100
AcDbCircle
 62
7
  6
CONTINUOUS
 10
0.55484
 20
5.379
 40
0.127
  0
SPLINE
  5
5BB
100
AcDbEntity
  8
0
100
AcDbSpline
 62
250
  6
CONTINUOUS
 70
0
 71
3
 72
30
 73
26
 74
0
 42
0.0000001
 43
0.0000001
 44
0.0000000001
 40
0.0
 40
0.0
 40
0.0
 40
0.0
 40
0.1956691433
 40
0.2910058502
 40
0.3834654992
 40
0.4721722514
 40
0.5562852266
 40
0.6350072836
 40
0.7075924722
 40
0.7733530757
 40
0.8316661602
 40
0.8819795543
 40
0.9039844962
 40
0.9238174193
 40
0.9414314737
 40
0.9567851636
 40
0.9698429852
 40
0.980574563
 40
0.9889566158
 40
0.9922611739
 40
0.9949733268
 40
0.9970930367
 40
0.998622772
 40
0.9995727352
 40
1.0
 40
1.0
 40
1.0
 40
1.0
 10
-8.55236869
 20
15.5608701541
 30
0.0
 10
-8.597929787
 20
15.6064451326
 30
0.0
 10
-8.6656098904
 20
15.6743057818
 30
0.0
 10
-8.7546253462
 20
15.7638947148
 30
0.0
 10
-8.8187261321
 20
15.8285784583
 30
0.0
 10
-8.8801373783
 20
15.8907232503
 30
0.0
 10
-8.9382771166
 20
15.9497399472
 30
0.0
 10
-8.9925944185
 20
16.0050688285
 30
0.0
 10
-9.0425746898
 20
16.0561851232
 30
0.0
 10
-9.0877447948
 20
16.1026036837
 30
0.0
 10
-9.127677013
 20
16.1438840174
 30
0.0
 10
-9.1574718949
 20
16.1749204138
 30
0.0
 10
-9.1783983757
 20
16.1969019748
 30
0.0
 10
-9.1918523533
 20
16.2111279713
 30
0.0
 10
-9.2037495207
 20
16.2238111513
 30
0.0
 10
-9.2140618531
 20
16.2349210782
 30
0.0
 10
-9.2227662993
 20
16.2444310763
 30
0.0
 10
-9.2298419607
 20
16.2523167769
 30
0.0
 10
-9.2346933815
 20
16.2578861661
 30
0.0
 10
-9.2377316792
 20
16.2615231894
 30
0.0
 10
-9.2394107773
 20
16.2636208089
 30
0.0
 10
-9.2406693802
 20
16.2652734322
 30
0.0
 10
-9.241534265
 20
16.2665703195
 30
0.0
 10
-9.2419764899
 20
16.2673278588
 30
0.0
 10
-9.2421225675
 20
16.2678774325
 30
0.0
 10
-9.2420230647
 20
16.2679769353
 30
0.0
  0
SPLINE
  5
5BC
100
AcDbEntity
  8
0
100
AcDbSpline
 62
250
  6
CONTINUOUS
 70
0
 71
3
 72
30
 73
26
 74
0
 42
0.0000001
 43
0.0000001
 44
0.0000000001
 40
0.0
 40
0.0
 40
0.0
 40
0.0
 40
0.1956691434
 40
0.2910058503
 40
0.3834654993
 40
0.4721722515
 40
0.5562852267
 40
0.6350072837
 40
0.7075924723
 40
0.7733530759
 40
0.8316661603
 40
0.8819795544
 40
0.9039844963
 40
0.9238174194
 40
0.9414314738
 40
0.9567851636
 40
0.9698429853
 40
0.980574563
 40
0.9889566158
 40
0.992261174
 40
0.9949733268
 40
0.9970930367
 40
0.998622772
 40
0.9995727352
 40
1.0
 40
1.0
 40
1.0
 40
1.0
 10
-10.1674524064
 20
-19.9257864376
 30
0.0
 10
-10.2130135035
 20
-19.9713614162
 30
0.0
 10
-10.2806936069
 20
-20.0392220654
 30
0.0
 10
-10.3697090627
 20
-20.1288109984
 30
0.0
 10
-10.4338098487
 20
-20.1934947419
 30
0.0
 10
-10.4952210948
 20
-20.2556395339
 30
0.0
 10
-10.5533608332
 20
-20.3146562308
 30
0.0
 10
-10.607678135
 20
-20.3699851122
 30
0.0
 10
-10.6576584063
 20
-20.4211014069
 30
0.0
 10
-10.7028285113
 20
-20.4675199673
 30
0.0
 10
-10.7427607295
 20
-20.508800301
 30
0.0
 10
-10.7725556114
 20
-20.5398366974
 30
0.0
 10
-10.7934820922
 20
-20.5618182584
 30
0.0
 10
-10.8069360698
 20
-20.576044255
 30
0.0
 10
-10.8188332372
 20
-20.5887274349
 30
0.0
 10
-10.8291455696
 20
-20.5998373618
 30
0.0
 10
-10.8378500158
 20
-20.6093473599
 30
0.0
 10
-10.8449256771
 20
-20.6172330605
 30
0.0
 10
-10.849777098
 20
-20.6228024497
 30
0.0
 10
-10.8528153957
 20
-20.626439473
 30
0.0
 10
-10.8544944938
 20
-20.6285370925
 30
0.0
 10
-10.8557530966
 20
-20.6301897157
 30
0.0
 10
-10.8566179815
 20
-20.6314866031
 30
0.0
 10
-10.8570602064
 20
-20.6322441423
 30
0.0
 10
-10.8572062839
 20
-20.6327937161
 30
0.0
 10
-10.8571067812
 20
-20.6328932188
 30
0.0
  0
SPLINE
  5
5BD
100
AcDbEntity
  8
0
100
AcDbSpline
 62
250
  6
CONTINUOUS
 70
0
 71
3
 72
30
 73
26
 74
0
 42
0.0000001
 43
0.0000001
 44
0.0000000001
 40
0.0
 40
0.0
 40
0.0
 40
0.0
 40
0.1956691433
 40
0.2910058502
 40
0.3834654992
 40
0.4721722514
 40
0.5562852266
 40
0.6350072836
 40
0.7075924722
 40
0.7733530758
 40
0.8316661603
 40
0.8819795543
 40
0.9039844962
 40
0.9238174193
 40
0.9414314737
 40
0.9567851636
 40
0.9698429852
 40
0.980574563
 40
0.9889566158
 40
0.992261174
 40
0.9949733268
 40
0.9970930367
 40
0.998622772
 40
0.9995727352
 40
1.0
 40
1.0
 40
1.0
 40
1.0
 10
-8.55236869
 20
-21.5408701541
 30
0.0
 10
-8.597929787
 20
-21.5864451326
 30
0.0
 10
-8.6656098904
 20
-21.6543057818
 30
0.0
 10
-8.7546253462
 20
-21.7438947148
 30
0.0
 10
-8.8187261321
 20
-21.8085784583
 30
0.0
 10
-8.8801373783
 20
-21.8707232503
 30
0.0
 10
-8.9382771167
 20
-21.9297399472
 30
0.0
 10
-8.9925944185
 20
-21.9850688285
 30
0.0
 10
-9.0425746898
 20
-22.0361851233
 30
0.0
 10
-9.0877447948
 20
-22.0826036837
 30
0.0
 10
-9.127677013
 20
-22.1238840174
 30
0.0
 10
-9.1574718949
 20
-22.1549204138
 30
0.0
 10
-9.1783983757
 20
-22.1769019748
 30
0.0
 10
-9.1918523533
 20
-22.1911279714
 30
0.0
 10
-9.2037495207
 20
-22.2038111513
 30
0.0
 10
-9.2140618531
 20
-22.2149210782
 30
0.0
 10
-9.2227662994
 20
-22.2244310763
 30
0.0
 10
-9.2298419607
 20
-22.2323167769
 30
0.0
 10
-9.2346933816
 20
-22.2378861661
 30
0.0
 10
-9.2377316792
 20
-22.2415231894
 30
0.0
 10
-9.2394107773
 20
-22.2436208089
 30
0.0
 10
-9.2406693802
 20
-22.2452734322
 30
0.0
 10
-9.241534265
 20
-22.2465703195
 30
0.0
 10
-9.2419764899
 20
-22.2473278588
 30
0.0
 10
-9.2421225675
 20
-22.2478774325
 30
0.0
 10
-9.2420230647
 20
-22.2479769353
 30
0.0
  0
SPLINE
  5
5BE
100
AcDbEntity
  8
0
100
AcDbSpline
 62
250
  6
CONTINUOUS
 70
0
 71
3
 72
30
 73
26
 74
0
 42
0.0000001
 43
0.0000001
 44
0.0000000001
 40
0.0
 40
0.0
 40
0.0
 40
0.0
 40
0.1956691434
 40
0.2910058503
 40
0.3834654994
 40
0.4721722515
 40
0.5562852268
 40
0.6350072837
 40
0.7075924724
 40
0.7733530759
 40
0.8316661604
 40
0.8819795544
 40
0.9039844963
 40
0.9238174195
 40
0.9414314738
 40
0.9567851637
 40
0.9698429853
 40
0.9805745631
 40
0.9889566158
 40
0.992261174
 40
0.9949733268
 40
0.9970930367
 40
0.998622772
 40
0.9995727352
 40
1.0
 40
1.0
 40
1.0
 40
1.0
 10
-10.1674524064
 20
13.9457864376
 30
0.0
 10
-10.2130135035
 20
13.9913614162
 30
0.0
 10
-10.2806936069
 20
14.0592220654
 30
0.0
 10
-10.3697090627
 20
14.1488109984
 30
0.0
 10
-10.4338098487
 20
14.213494742
 30
0.0
 10
-10.4952210948
 20
14.2756395339
 30
0.0
 10
-10.5533608332
 20
14.3346562308
 30
0.0
 10
-10.6076781351
 20
14.3899851122
 30
0.0
 10
-10.6576584064
 20
14.4411014069
 30
0.0
 10
-10.7028285113
 20
14.4875199674
 30
0.0
 10
-10.7427607296
 20
14.5288003011
 30
0.0
 10
-10.7725556114
 20
14.5598366975
 30
0.0
 10
-10.7934820922
 20
14.5818182584
 30
0.0
 10
-10.8069360698
 20
14.596044255
 30
0.0
 10
-10.8188332372
 20
14.6087274349
 30
0.0
 10
-10.8291455696
 20
14.6198373619
 30
0.0
 10
-10.8378500159
 20
14.6293473599
 30
0.0
 10
-10.8449256772
 20
14.6372330605
 30
0.0
 10
-10.849777098
 20
14.6428024497
 30
0.0
 10
-10.8528153957
 20
14.646439473
 30
0.0
 10
-10.8544944938
 20
14.6485370925
 30
0.0
 10
-10.8557530966
 20
14.6501897157
 30
0.0
 10
-10.8566179815
 20
14.6514866031
 30
0.0
 10
-10.8570602064
 20
14.6522441423
 30
0.0
 10
-10.8572062839
 20
14.6527937161
 30
0.0
 10
-10.8571067812
 20
14.6528932188
 30
0.0
  0
SPLINE
  5
5BF
100
AcDbEntity
  8
0
100
AcDbSpline
 62
250
  6
CONTINUOUS
 70
0
 71
3
 72
29
 73
25
 74
0
 42
0.0000001
 43
0.0000001
 44
0.0000000001
 40
0.0
 40
0.0
 40
0.0
 40
0.0
 40
0.1949649921
 40
0.2900959629
 40
0.3824317982
 40
0.4710844489
 40
0.5552007203
 40
0.6339713129
 40
0.7066385249
 40
0.7725035435
 40
0.8309332474
 40
0.8813664632
 40
0.9034301335
 40
0.9233199414
 40
0.9409884391
 40
0.956393736
 40
0.9695002304
 40
0.9802779012
 40
0.9887047161
 40
0.9947678998
 40
0.9969147374
 40
0.9984779444
 40
0.9994768177
 40
1.0
 40
1.0
 40
1.0
 40
1.0
 10
-8.55236869
 20
-21.5408701541
 30
0.0
 10
-8.5535030249
 20
-21.6058759581
 30
0.0
 10
-8.5550281205
 20
-21.7026035721
 30
0.0
 10
-8.5566989357
 20
-21.8301236284
 30
0.0
 10
-8.5577337194
 20
-21.9221964554
 30
0.0
 10
-8.5585509348
 20
-22.0105982093
 30
0.0
 10
-8.5591429382
 20
-22.0944780109
 30
0.0
 10
-8.5595045111
 20
-22.1730283626
 30
0.0
 10
-8.559632765
 20
-22.2454931388
 30
0.0
 10
-8.5595277161
 20
-22.3111748443
 30
0.0
 10
-8.5591913212
 20
-22.3694412267
 30
0.0
 10
-8.5587056208
 20
-22.4130994569
 30
0.0
 10
-8.5581821823
 20
-22.4439036222
 30
0.0
 10
-8.5577523272
 20
-22.4637814434
 30
0.0
 10
-8.5572693302
 20
-22.4814368655
 30
0.0
 10
-8.5567349111
 20
-22.4968278722
 30
0.0
 10
-8.556152057
 20
-22.5099166261
 30
0.0
 10
-8.5555237907
 20
-22.5206752048
 30
0.0
 10
-8.5548590962
 20
-22.5290718954
 30
0.0
 10
-8.554226188
 20
-22.534594061
 30
0.0
 10
-8.5536738447
 20
-22.5377972042
 30
0.0
 10
-8.5532704412
 20
-22.5393362307
 30
0.0
 10
-8.5529461088
 20
-22.5402741723
 30
0.0
 10
-8.552543131
 20
-22.5407148043
 30
0.0
 10
-8.55236869
 20
-22.5407178492
 30
0.0
  0
SPLINE
  5
5C0
100
AcDbEntity
  8
0
100
AcDbSpline
 62
250
  6
CONTINUOUS
 70
0
 71
3
 72
29
 73
25
 74
0
 42
0.0000001
 43
0.0000001
 44
0.0000000001
 40
0.0
 40
0.0
 40
0.0
 40
0.0
 40
0.1949649921
 40
0.290095963
 40
0.3824317982
 40
0.4710844489
 40
0.5552007204
 40
0.633971313
 40
0.706638525
 40
0.7725035436
 40
0.8309332475
 40
0.8813664632
 40
0.9034301336
 40
0.9233199415
 40
0.9409884392
 40
0.956393736
 40
0.9695002304
 40
0.9802779013
 40
0.9887047161
 40
0.9947678998
 40
0.9969147374
 40
0.9984779444
 40
0.9994768177
 40
1.0
 40
1.0
 40
1.0
 40
1.0
 10
-8.55236869
 20
15.5608701541
 30
0.0
 10
-8.5535030249
 20
15.6258759581
 30
0.0
 10
-8.5550281205
 20
15.7226035721
 30
0.0
 10
-8.5566989357
 20
15.8501236284
 30
0.0
 10
-8.5577337194
 20
15.9421964554
 30
0.0
 10
-8.5585509348
 20
16.0305982094
 30
0.0
 10
-8.5591429382
 20
16.114478011
 30
0.0
 10
-8.5595045111
 20
16.1930283627
 30
0.0
 10
-8.559632765
 20
16.2654931389
 30
0.0
 10
-8.5595277161
 20
16.3311748444
 30
0.0
 10
-8.5591913212
 20
16.3894412268
 30
0.0
 10
-8.5587056208
 20
16.4330994569
 30
0.0
 10
-8.5581821823
 20
16.4639036223
 30
0.0
 10
-8.5577523272
 20
16.4837814434
 30
0.0
 10
-8.5572693302
 20
16.5014368656
 30
0.0
 10
-8.5567349111
 20
16.5168278723
 30
0.0
 10
-8.556152057
 20
16.5299166261
 30
0.0
 10
-8.5555237907
 20
16.5406752048
 30
0.0
 10
-8.5548590962
 20
16.5490718955
 30
0.0
 10
-8.554226188
 20
16.5545940611
 30
0.0
 10
-8.5536738447
 20
16.5577972043
 30
0.0
 10
-8.5532704412
 20
16.5593362308
 30
0.0
 10
-8.5529461088
 20
16.5602741723
 30
0.0
 10
-8.552543131
 20
16.5607148043
 30
0.0
 10
-8.55236869
 20
16.5607178492
 30
0.0
  0
SPLINE
  5
5C1
100
AcDbEntity
  8
SUPERFICI
100
AcDbSpline
 62
7
  6
CONTINUOUS
 70
0
 71
3
 72
8
 73
4
 74
0
 42
0.0000001
 43
0.0000001
 44
0.0000000001
 40
0.0
 40
0.0
 40
0.0
 40
0.0
 40
1.0
 40
1.0
 40
1.0
 40
1.0
 10
10.0145591099
 20
21.4822096181
 30
0.0
 10
9.9796347354
 20
21.5002149205
 30
0.0
 10
9.93929676
 20
21.51
 30
0.0
 10
9.9000042308
 20
21.51
 30
0.0
  0
SPLINE
  5
5C2
100
AcDbEntity
  8
SUPERFICI
100
AcDbSpline
 62
7
  6
CONTINUOUS
 70
0
 71
3
 72
8
 73
4
 74
0
 42
0.0000001
 43
0.0000001
 44
0.0000000001
 40
0.0
 40
0.0
 40
0.0
 40
0.0
 40
1.0
 40
1.0
 40
1.0
 40
1.0
 10
7.2679076592
 20
21.3529183352
 30
0.0
 10
7.2561858052
 20
21.3236359964
 30
0.0
 10
7.25
 20
21.2915455882
 30
0.0
 10
7.25
 20
21.2600042308
 30
0.0
  0
SPLINE
  5
5C3
100
AcDbEntity
  8
SUPERFICI
100
AcDbSpline
 62
7
  6
CONTINUOUS
 70
0
 71
3
 72
8
 73
4
 74
0
 42
0.0000001
 43
0.0000001
 44
0.0000000001
 40
0.0
 40
0.0
 40
0.0
 40
0.0
 40
1.0
 40
1.0
 40
1.0
 40
1.0
 10
-10.1320923408
 20
21.3529183352
 30
0.0
 10
-10.1438141948
 20
21.3236359964
 30
0.0
 10
-10.15
 20
21.2915455882
 30
0.0
 10
-10.15
 20
21.2600042308
 30
0.0
  0
SPLINE
  5
5C4
100
AcDbEntity
  8
SUPERFICI
100
AcDbSpline
 62
7
  6
CONTINUOUS
 70
0
 71
3
 72
8
 73
4
 74
0
 42
0.0000001
 43
0.0000001
 44
0.0000000001
 40
0.0
 40
0.0
 40
0.0
 40
0.0
 40
1.0
 40
1.0
 40
1.0
 40
1.0
 10
-7.4070816648
 20
21.4920923408
 30
0.0
 10
-7.4363640036
 20
21.5038141948
 30
0.0
 10
-7.4684544118
 20
21.51
 30
0.0
 10
-7.4999957692
 20
21.51
 30
0.0
  0
SPLINE
  5
5C5
100
AcDbEntity
  8
SUPERFICI
100
AcDbSpline
 62
7
  6
CONTINUOUS
 70
0
 71
3
 72
8
 73
4
 74
0
 42
0.0000001
 43
0.0000001
 44
0.0000000001
 40
0.0
 40
0.0
 40
0.0
 40
0.0
 40
1.0
 40
1.0
 40
1.0
 40
1.0
 10
10.1320923408
 20
-27.3329183352
 30
0.0
 10
10.1438141948
 20
-27.3036359964
 30
0.0
 10
10.15
 20
-27.2715455882
 30
0.0
 10
10.15
 20
-27.2400042308
 30
0.0
  0
SPLINE
  5
5C6
100
AcDbEntity
  8
SUPERFICI
100
AcDbSpline
 62
7
  6
CONTINUOUS
 70
0
 71
3
 72
8
 73
4
 74
0
 42
0.0000001
 43
0.0000001
 44
0.0000000001
 40
0.0
 40
0.0
 40
0.0
 40
0.0
 40
1.0
 40
1.0
 40
1.0
 40
1.0
 10
7.4070816648
 20
-27.4720923408
 30
0.0
 10
7.4363640036
 20
-27.4838141948
 30
0.0
 10
7.4684544118
 20
-27.49
 30
0.0
 10
7.4999957692
 20
-27.49
 30
0.0
  0
SPLINE
  5
5C7
100
AcDbEntity
  8
SUPERFICI
100
AcDbSpline
 62
7
  6
CONTINUOUS
 70
0
 71
3
 72
8
 73
4
 74
0
 42
0.0000001
 43
0.0000001
 44
0.0000000001
 40
0.0
 40
0.0
 40
0.0
 40
0.0
 40
1.0
 40
1.0
 40
1.0
 40
1.0
 10
-7.2679076592
 20
-27.3329183352
 30
0.0
 10
-7.2561858052
 20
-27.3036359964
 30
0.0
 10
-7.25
 20
-27.2715455882
 30
0.0
 10
-7.25
 20
-27.2400042308
 30
0.0
  0
SPLINE
  5
5C8
100
AcDbEntity
  8
SUPERFICI
100
AcDbSpline
 62
7
  6
CONTINUOUS
 70
0
 71
3
 72
8
 73
4
 74
0
 42
0.0000001
 43
0.0000001
 44
0.0000000001
 40
0.0
 40
0.0
 40
0.0
 40
0.0
 40
1.0
 40
1.0
 40
1.0
 40
1.0
 10
-10.0145591099
 20
-27.4622096181
 30
0.0
 10
-9.9796347354
 20
-27.4802149205
 30
0.0
 10
-9.93929676
 20
-27.49
 30
0.0
 10
-9.9000042308
 20
-27.49
 30
0.0
  0
SPLINE
  5
5C9
100
AcDbEntity
  8
SUPERFICI
100
AcDbSpline
 62
7
  6
CONTINUOUS
 70
0
 71
3
 72
18
 73
14
 74
0
 42
0.0000001
 43
0.0000001
 44
0.0000000001
 40
0.0
 40
0.0
 40
0.0
 40
0.0
 40
0.1636809462
 40
0.3250686682
 40
0.4815234555
 40
0.6295752314
 40
0.7642664833
 40
0.8244098295
 40
0.8781868014
 40
0.9241536491
 40
0.9607162283
 40
0.9863263319
 40
1.0
 40
1.0
 40
1.0
 40
1.0
 10
-3.9530427099
 20
20.4663578147
 30
0.0
 10
-3.9783861225
 20
20.4929822572
 30
0.0
 10
-4.0287181052
 20
20.5458579668
 30
0.0
 10
-4.1031953652
 20
20.6242578457
 30
0.0
 10
-4.1750872819
 20
20.7002735024
 30
0.0
 10
-4.2425633728
 20
20.7722091613
 30
0.0
 10
-4.2948567201
 20
20.8287406273
 30
0.0
 10
-4.3323068443
 20
20.8701369737
 30
0.0
 10
-4.3561383368
 20
20.8970248736
 30
0.0
 10
-4.3759699273
 20
20.9202608154
 30
0.0
 10
-4.3914505848
 20
20.9391939255
 30
0.0
 10
-4.4009847265
 20
20.9529097734
 30
0.0
 10
-4.4058988308
 20
20.9608267815
 30
0.0
 10
-4.406077753
 20
20.9638922731
 30
0.0
  0
SPLINE
  5
5CA
100
AcDbEntity
  8
SUPERFICI
100
AcDbSpline
 62
7
  6
CONTINUOUS
 70
0
 71
3
 72
11
 73
7
 74
0
 42
0.0000001
 43
0.0000001
 44
0.0000000001
 40
0.0
 40
0.0
 40
0.0
 40
0.0
 40
0.1944974834
 40
0.4421487185
 40
0.7157345637
 40
1.0
 40
1.0
 40
1.0
 40
1.0
 10
-3.5340842777
 20
20.9156713724
 30
0.0
 10
-3.559755107
 20
20.8852151185
 30
0.0
 10
-3.6207056578
 20
20.8182028293
 30
0.0
 10
-3.7206819929
 20
20.7110307526
 30
0.0
 10
-3.8341437611
 20
20.5912781078
 30
0.0
 10
-3.9129048929
 20
20.5085244723
 30
0.0
 10
-3.9530427099
 20
20.4663578147
 30
0.0
  0
SPLINE
  5
5CB
100
AcDbEntity
  8
SUPERFICI
100
AcDbSpline
 62
7
  6
CONTINUOUS
 70
0
 71
3
 72
11
 73
7
 74
0
 42
0.0000001
 43
0.0000001
 44
0.0000000001
 40
0.0
 40
0.0
 40
0.0
 40
0.0
 40
0.2842655446
 40
0.5578513225
 40
0.8055025744
 40
1.0
 40
1.0
 40
1.0
 40
1.0
 10
3.9530427099
 20
20.4663578147
 30
0.0
 10
3.9129048776
 20
20.5085244884
 30
0.0
 10
3.8341437399
 20
20.5912781299
 30
0.0
 10
3.7206819638
 20
20.7110307834
 30
0.0
 10
3.6207056442
 20
20.8182028443
 30
0.0
 10
3.5597550994
 20
20.8852151276
 30
0.0
 10
3.5340842777
 20
20.9156713724
 30
0.0
  0
SPLINE
  5
5CC
100
AcDbEntity
  8
SUPERFICI
100
AcDbSpline
 62
7
  6
CONTINUOUS
 70
0
 71
3
 72
18
 73
14
 74
0
 42
0.0000001
 43
0.0000001
 44
0.0000000001
 40
0.0
 40
0.0
 40
0.0
 40
0.0
 40
0.0136736815
 40
0.0392838055
 40
0.0758463948
 40
0.1218132406
 40
0.1755902092
 40
0.2357335554
 40
0.370424812
 40
0.5184765738
 40
0.6749313379
 40
0.8363190669
 40
1.0
 40
1.0
 40
1.0
 40
1.0
 10
4.406077753
 20
20.9638922731
 30
0.0
 10
4.4058988306
 20
20.9608267785
 30
0.0
 10
4.4009847206
 20
20.9529097641
 30
0.0
 10
4.3914505724
 20
20.9391939093
 30
0.0
 10
4.37596991
 20
20.9202607947
 30
0.0
 10
4.3561383183
 20
20.8970248525
 30
0.0
 10
4.3323068264
 20
20.8701369537
 30
0.0
 10
4.2948567016
 20
20.8287406074
 30
0.0
 10
4.2425633558
 20
20.7722091428
 30
0.0
 10
4.1750872696
 20
20.7002734897
 30
0.0
 10
4.1031953577
 20
20.6242578378
 30
0.0
 10
4.0287181022
 20
20.5458579637
 30
0.0
 10
3.9783861205
 20
20.4929822551
 30
0.0
 10
3.9530427099
 20
20.4663578147
 30
0.0
  0
SPLINE
  5
5CD
100
AcDbEntity
  8
SUPERFICI
100
AcDbSpline
 62
7
  6
CONTINUOUS
 70
0
 71
3
 72
11
 73
7
 74
0
 42
0.0000001
 43
0.0000001
 44
0.0000000001
 40
0.0
 40
0.0
 40
0.0
 40
0.0
 40
0.284265502
 40
0.5578513232
 40
0.8055026207
 40
1.0
 40
1.0
 40
1.0
 40
1.0
 10
-3.9530427099
 20
-26.4463578147
 30
0.0
 10
-3.9129048836
 20
-26.4885244821
 30
0.0
 10
-3.8341437457
 20
-26.5712781236
 30
0.0
 10
-3.7206819632
 20
-26.6910307841
 30
0.0
 10
-3.6207056376
 20
-26.7982028513
 30
0.0
 10
-3.5597550933
 20
-26.8652151348
 30
0.0
 10
-3.5340842777
 20
-26.8956713724
 30
0.0
  0
SPLINE
  5
5CE
100
AcDbEntity
  8
SUPERFICI
100
AcDbSpline
 62
7
  6
CONTINUOUS
 70
0
 71
3
 72
18
 73
14
 74
0
 42
0.0000001
 43
0.0000001
 44
0.0000000001
 40
0.0
 40
0.0
 40
0.0
 40
0.0
 40
0.0136737074
 40
0.039283942
 40
0.0758466504
 40
0.1218135185
 40
0.1755904583
 40
0.2357337802
 40
0.370425014
 40
0.5184767384
 40
0.6749313802
 40
0.8363191201
 40
1.0
 40
1.0
 40
1.0
 40
1.0
 10
-4.406077753
 20
-26.9438922731
 30
0.0
 10
-4.4058988303
 20
-26.9408267727
 30
0.0
 10
-4.4009846994
 20
-26.9329097325
 30
0.0
 10
-4.3914505164
 20
-26.9191938344
 30
0.0
 10
-4.3759698139
 20
-26.9002606786
 30
0.0
 10
-4.3561382024
 20
-26.8770247202
 30
0.0
 10
-4.3323067133
 20
-26.8501368281
 30
0.0
 10
-4.2948565984
 20
-26.8087404959
 30
0.0
 10
-4.2425632657
 20
-26.7522090452
 30
0.0
 10
-4.1750872058
 20
-26.6802734234
 30
0.0
 10
-4.1031953176
 20
-26.6042577953
 30
0.0
 10
-4.0287180874
 20
-26.5258579481
 30
0.0
 10
-3.9783861122
 20
-26.4729822464
 30
0.0
 10
-3.9530427099
 20
-26.4463578147
 30
0.0
  0
SPLINE
  5
5CF
100
AcDbEntity
  8
SUPERFICI
100
AcDbSpline
 62
7
  6
CONTINUOUS
 70
0
 71
3
 72
18
 73
14
 74
0
 42
0.0000001
 43
0.0000001
 44
0.0000000001
 40
0.0
 40
0.0
 40
0.0
 40
0.0
 40
0.1636808643
 40
0.3250686094
 40
0.4815232246
 40
0.6295749336
 40
0.7642661706
 40
0.8244094933
 40
0.8781864304
 40
0.9241532992
 40
0.9607160206
 40
0.9863262778
 40
1.0
 40
1.0
 40
1.0
 40
1.0
 10
3.9530427099
 20
-26.4463578147
 30
0.0
 10
3.9783861098
 20
-26.4729822439
 30
0.0
 10
4.0287180834
 20
-26.5258579439
 30
0.0
 10
4.1031953079
 20
-26.6042577849
 30
0.0
 10
4.1750871903
 20
-26.6802734073
 30
0.0
 10
4.2425632445
 20
-26.7522090223
 30
0.0
 10
4.2948565755
 20
-26.8087404712
 30
0.0
 10
4.332306691
 20
-26.8501368032
 30
0.0
 10
4.3561381802
 20
-26.8770246948
 30
0.0
 10
4.3759697938
 20
-26.9002606546
 30
0.0
 10
4.3914505026
 20
-26.919193816
 30
0.0
 10
4.4009846928
 20
-26.9329097223
 30
0.0
 10
4.4058988301
 20
-26.9408267694
 30
0.0
 10
4.406077753
 20
-26.9438922731
 30
0.0
  0
SPLINE
  5
5D0
100
AcDbEntity
  8
SUPERFICI
100
AcDbSpline
 62
7
  6
CONTINUOUS
 70
0
 71
3
 72
11
 73
7
 74
0
 42
0.0000001
 43
0.0000001
 44
0.0000000001
 40
0.0
 40
0.0
 40
0.0
 40
0.0
 40
0.1944971801
 40
0.4421469387
 40
0.7157330912
 40
1.0
 40
1.0
 40
1.0
 40
1.0
 10
3.5340842777
 20
-26.8956713724
 30
0.0
 10
3.559755067
 20
-26.865215166
 30
0.0
 10
3.6207053721
 20
-26.7982031463
 30
0.0
 10
3.7206814893
 20
-26.6910312787
 30
0.0
 10
3.8341433016
 20
-26.57127859
 30
0.0
 10
3.912904685
 20
-26.4885246908
 30
0.0
 10
3.9530427099
 20
-26.4463578147
 30
0.0
  0
LINE
  5
5D1
100
AcDbEntity
  8
SUPERFICI
100
AcDbLine
 62
7
  6
CONTINUOUS
 10
9.5242313121
 20
-22.8114267532
 11
8.8258650579
 21
-23.5176115984
  0
LINE
  5
5D2
100
AcDbEntity
  8
SUPERFICI
100
AcDbLine
 62
7
  6
CONTINUOUS
 10
-9.5242313121
 20
-22.8114267532
 11
-8.8258650579
 21
-23.5176115984
  0
LINE
  5
5D3
100
AcDbEntity
  8
SUPERFICI
100
AcDbLine
 62
7
  6
CONTINUOUS
 10
-9.5242313121
 20
16.8314267532
 11
-8.8258650579
 21
17.5376115984
  0
LINE
  5
5D4
100
AcDbEntity
  8
SUPERFICI
100
AcDbLine
 62
7
  6
CONTINUOUS
 10
9.5242313121
 20
16.8314267532
 11
8.8258650579
 21
17.5376115984
  0
SPLINE
  5
5D5
100
AcDbEntity
  8
SUPERFICI
100
AcDbSpline
 62
7
  6
CONTINUOUS
 70
0
 71
3
 72
9
 73
5
 74
0
 42
0.0000001
 43
0.0000001
 44
0.0000000001
 40
0.0
 40
0.0
 40
0.0
 40
0.0
 40
0.2536987259
 40
1.0
 40
1.0
 40
1.0
 40
1.0
 10
7.5666456542
 20
-24.3259869487
 30
0.0
 10
7.5881304357
 20
-24.3563710179
 30
0.0
 10
7.67279977
 20
-24.4761432571
 30
0.0
 10
7.7569041269
 20
-24.5963467646
 30
0.0
 10
7.8176867079
 20
-24.6873892622
 30
0.0
  0
SPLINE
  5
5D6
100
AcDbEntity
  8
SUPERFICI
100
AcDbSpline
 62
7
  6
CONTINUOUS
 70
0
 71
3
 72
9
 73
5
 74
0
 42
0.0000001
 43
0.0000001
 44
0.0000000001
 40
0.0
 40
0.0
 40
0.0
 40
0.0
 40
0.2446707048
 40
1.0
 40
1.0
 40
1.0
 40
1.0
 10
-7.8176867079
 20
-24.6873892622
 30
0.0
 10
-7.7977592455
 20
-24.6575411394
 30
0.0
 10
-7.7153744724
 20
-24.5361740365
 30
0.0
 10
-7.6306123698
 20
-24.4164495454
 30
0.0
 10
-7.5666456542
 20
-24.3259869487
 30
0.0
  0
SPLINE
  5
5D7
100
AcDbEntity
  8
SUPERFICI
100
AcDbSpline
 62
7
  6
CONTINUOUS
 70
0
 71
3
 72
9
 73
5
 74
0
 42
0.0000001
 43
0.0000001
 44
0.0000000001
 40
0.0
 40
0.0
 40
0.0
 40
0.0
 40
0.2536987259
 40
1.0
 40
1.0
 40
1.0
 40
1.0
 10
-7.5666456542
 20
18.3459869487
 30
0.0
 10
-7.5881304357
 20
18.3763710179
 30
0.0
 10
-7.67279977
 20
18.4961432571
 30
0.0
 10
-7.7569041269
 20
18.6163467646
 30
0.0
 10
-7.8176867079
 20
18.7073892622
 30
0.0
  0
SPLINE
  5
5D8
100
AcDbEntity
  8
SUPERFICI
100
AcDbSpline
 62
7
  6
CONTINUOUS
 70
0
 71
3
 72
9
 73
5
 74
0
 42
0.0000001
 43
0.0000001
 44
0.0000000001
 40
0.0
 40
0.0
 40
0.0
 40
0.0
 40
0.2446707048
 40
1.0
 40
1.0
 40
1.0
 40
1.0
 10
7.8176867079
 20
18.7073892622
 30
0.0
 10
7.7977592455
 20
18.6775411394
 30
0.0
 10
7.7153744724
 20
18.5561740365
 30
0.0
 10
7.6306123698
 20
18.4364495454
 30
0.0
 10
7.5666456542
 20
18.3459869487
 30
0.0
  0
SPLINE
  5
5D9
100
AcDbEntity
  8
SUPERFICI
100
AcDbSpline
 62
250
  6
CONTINUOUS
 70
0
 71
3
 72
11
 73
7
 74
0
 42
0.0000001
 43
0.0000001
 44
0.0000000001
 40
0.0
 40
0.0
 40
0.0
 40
0.0
 40
0.2331623084
 40
0.476670585
 40
0.7338116789
 40
1.0
 40
1.0
 40
1.0
 40
1.0
 10
-10.145628166
 20
-26.8343375673
 30
0.0
 10
-10.1455330942
 20
-26.8060323825
 30
0.0
 10
-10.1316032365
 20
-26.7474892432
 30
0.0
 10
-10.0746708123
 20
-26.6758281285
 30
0.0
 10
-9.9920027722
 20
-26.6288299314
 30
0.0
 10
-9.9279469174
 20
-26.6179126229
 30
0.0
 10
-9.8956323968
 20
-26.6178312164
 30
0.0
  0
SPLINE
  5
5DA
100
AcDbEntity
  8
SUPERFICI
100
AcDbSpline
 62
250
  6
CONTINUOUS
 70
0
 71
3
 72
11
 73
7
 74
0
 42
0.0000001
 43
0.0000001
 44
0.0000000001
 40
0.0
 40
0.0
 40
0.0
 40
0.0
 40
0.2331623084
 40
0.476670585
 40
0.7338116789
 40
1.0
 40
1.0
 40
1.0
 40
1.0
 10
-7.254371834
 20
-26.8343375673
 30
0.0
 10
-7.2544669058
 20
-26.8060323825
 30
0.0
 10
-7.2683967635
 20
-26.7474892432
 30
0.0
 10
-7.3253291877
 20
-26.6758281285
 30
0.0
 10
-7.4079972278
 20
-26.6288299314
 30
0.0
 10
-7.4720530826
 20
-26.6179126229
 30
0.0
 10
-7.5043676032
 20
-26.6178312164
 30
0.0
  0
SPLINE
  5
5DB
100
AcDbEntity
  8
SUPERFICI
100
AcDbSpline
 62
250
  6
CONTINUOUS
 70
0
 71
3
 72
11
 73
7
 74
0
 42
0.0000001
 43
0.0000001
 44
0.0000000001
 40
0.0
 40
0.0
 40
0.0
 40
0.0
 40
0.2331623084
 40
0.476670585
 40
0.7338116789
 40
1.0
 40
1.0
 40
1.0
 40
1.0
 10
7.254371834
 20
-26.8343375673
 30
0.0
 10
7.2544669058
 20
-26.8060323825
 30
0.0
 10
7.2683967635
 20
-26.7474892432
 30
0.0
 10
7.3253291877
 20
-26.6758281285
 30
0.0
 10
7.4079972278
 20
-26.6288299314
 30
0.0
 10
7.4720530826
 20
-26.6179126229
 30
0.0
 10
7.5043676032
 20
-26.6178312164
 30
0.0
  0
SPLINE
  5
5DC
100
AcDbEntity
  8
SUPERFICI
100
AcDbSpline
 62
250
  6
CONTINUOUS
 70
0
 71
3
 72
11
 73
7
 74
0
 42
0.0000001
 43
0.0000001
 44
0.0000000001
 40
0.0
 40
0.0
 40
0.0
 40
0.0
 40
0.2331623084
 40
0.476670585
 40
0.7338116789
 40
1.0
 40
1.0
 40
1.0
 40
1.0
 10
10.145628166
 20
-26.8343375673
 30
0.0
 10
10.1455330942
 20
-26.8060323825
 30
0.0
 10
10.1316032365
 20
-26.7474892432
 30
0.0
 10
10.0746708123
 20
-26.6758281285
 30
0.0
 10
9.9920027722
 20
-26.6288299314
 30
0.0
 10
9.9279469174
 20
-26.6179126229
 30
0.0
 10
9.8956323968
 20
-26.6178312164
 30
0.0
  0
SPLINE
  5
5DD
100
AcDbEntity
  8
SUPERFICI
100
AcDbSpline
 62
250
  6
CONTINUOUS
 70
0
 71
3
 72
11
 73
7
 74
0
 42
0.0000001
 43
0.0000001
 44
0.0000000001
 40
0.0
 40
0.0
 40
0.0
 40
0.0
 40
0.2331623162
 40
0.4766706026
 40
0.7338117062
 40
1.0
 40
1.0
 40
1.0
 40
1.0
 10
-10.145628166
 20
20.8543375673
 30
0.0
 10
-10.1455330942
 20
20.8260323815
 30
0.0
 10
-10.1316032353
 20
20.7674892401
 30
0.0
 10
-10.0746708074
 20
20.695828124
 30
0.0
 10
-9.9920027666
 20
20.6488299294
 30
0.0
 10
-9.9279469141
 20
20.6379126229
 30
0.0
 10
-9.8956323968
 20
20.6378312164
 30
0.0
  0
SPLINE
  5
5DE
100
AcDbEntity
  8
SUPERFICI
100
AcDbSpline
 62
250
  6
CONTINUOUS
 70
0
 71
3
 72
11
 73
7
 74
0
 42
0.0000001
 43
0.0000001
 44
0.0000000001
 40
0.0
 40
0.0
 40
0.0
 40
0.0
 40
0.2331622206
 40
0.4766705204
 40
0.7338116472
 40
1.0
 40
1.0
 40
1.0
 40
1.0
 10
-7.254371834
 20
20.8543375673
 30
0.0
 10
-7.2544669058
 20
20.8260323931
 30
0.0
 10
-7.2683967542
 20
20.7674892617
 30
0.0
 10
-7.3253291691
 20
20.6958281428
 30
0.0
 10
-7.4079972158
 20
20.6488299344
 30
0.0
 10
-7.4720530787
 20
20.6379126229
 30
0.0
 10
-7.5043676032
 20
20.6378312164
 30
0.0
  0
SPLINE
  5
5DF
100
AcDbEntity
  8
SUPERFICI
100
AcDbSpline
 62
250
  6
CONTINUOUS
 70
0
 71
3
 72
11
 73
7
 74
0
 42
0.0000001
 43
0.0000001
 44
0.0000000001
 40
0.0
 40
0.0
 40
0.0
 40
0.0
 40
0.2331623162
 40
0.4766706026
 40
0.7338117062
 40
1.0
 40
1.0
 40
1.0
 40
1.0
 10
10.145628166
 20
20.8543375673
 30
0.0
 10
10.1455330942
 20
20.8260323815
 30
0.0
 10
10.1316032353
 20
20.7674892401
 30
0.0
 10
10.0746708074
 20
20.695828124
 30
0.0
 10
9.9920027666
 20
20.6488299294
 30
0.0
 10
9.9279469141
 20
20.6379126229
 30
0.0
 10
9.8956323968
 20
20.6378312164
 30
0.0
  0
SPLINE
  5
5E0
100
AcDbEntity
  8
SUPERFICI
100
AcDbSpline
 62
250
  6
CONTINUOUS
 70
0
 71
3
 72
11
 73
7
 74
0
 42
0.0000001
 43
0.0000001
 44
0.0000000001
 40
0.0
 40
0.0
 40
0.0
 40
0.0
 40
0.2331622206
 40
0.4766705204
 40
0.7338116472
 40
1.0
 40
1.0
 40
1.0
 40
1.0
 10
7.254371834
 20
20.8543375673
 30
0.0
 10
7.2544669058
 20
20.8260323931
 30
0.0
 10
7.2683967542
 20
20.7674892617
 30
0.0
 10
7.3253291691
 20
20.6958281428
 30
0.0
 10
7.4079972158
 20
20.6488299344
 30
0.0
 10
7.4720530787
 20
20.6379126229
 30
0.0
 10
7.5043676032
 20
20.6378312164
 30
0.0
  0
LINE
  5
5E1
100
AcDbEntity
  8
SUPERFICI
100
AcDbLine
 62
7
  6
CONTINUOUS
 10
-9.5242313121
 20
16.8314267532
 11
-9.5222848845
 21
15.9877699506
  0
LINE
  5
5E2
100
AcDbEntity
  8
SUPERFICI
100
AcDbLine
 62
7
  6
CONTINUOUS
 10
-9.5222848845
 20
-21.9677699506
 11
-9.5242313121
 21
-22.8114267532
  0
LINE
  5
5E3
100
AcDbEntity
  8
SUPERFICI
100
AcDbLine
 62
7
  6
CONTINUOUS
 10
9.5242313121
 20
16.8314267532
 11
9.5222848845
 21
15.9877699506
  0
LINE
  5
5E4
100
AcDbEntity
  8
SUPERFICI
100
AcDbLine
 62
7
  6
CONTINUOUS
 10
9.5222848845
 20
-21.9677699506
 11
9.5242313121
 21
-22.8114267532
  0
SPLINE
  5
5E5
100
AcDbEntity
  8
0
100
AcDbSpline
 62
250
  6
CONTINUOUS
 70
0
 71
3
 72
29
 73
25
 74
0
 42
0.0000001
 43
0.0000001
 44
0.0000000001
 40
0.0
 40
0.0
 40
0.0
 40
0.0
 40
0.1949649921
 40
0.290095963
 40
0.3824317982
 40
0.4710844489
 40
0.5552007204
 40
0.633971313
 40
0.706638525
 40
0.7725035436
 40
0.8309332475
 40
0.8813664632
 40
0.9034301336
 40
0.9233199415
 40
0.9409884392
 40
0.956393736
 40
0.9695002304
 40
0.9802779013
 40
0.9887047161
 40
0.9947678998
 40
0.9969147374
 40
0.9984779444
 40
0.9994768177
 40
1.0
 40
1.0
 40
1.0
 40
1.0
 10
8.55236869
 20
-21.5408701541
 30
0.0
 10
8.5535030249
 20
-21.6058759581
 30
0.0
 10
8.5550281205
 20
-21.7026035721
 30
0.0
 10
8.5566989357
 20
-21.8301236284
 30
0.0
 10
8.5577337194
 20
-21.9221964554
 30
0.0
 10
8.5585509348
 20
-22.0105982094
 30
0.0
 10
8.5591429382
 20
-22.094478011
 30
0.0
 10
8.5595045111
 20
-22.1730283627
 30
0.0
 10
8.559632765
 20
-22.2454931389
 30
0.0
 10
8.5595277161
 20
-22.3111748444
 30
0.0
 10
8.5591913212
 20
-22.3694412268
 30
0.0
 10
8.5587056208
 20
-22.4130994569
 30
0.0
 10
8.5581821823
 20
-22.4439036223
 30
0.0
 10
8.5577523272
 20
-22.4637814434
 30
0.0
 10
8.5572693302
 20
-22.4814368656
 30
0.0
 10
8.5567349111
 20
-22.4968278723
 30
0.0
 10
8.556152057
 20
-22.5099166261
 30
0.0
 10
8.5555237907
 20
-22.5206752048
 30
0.0
 10
8.5548590962
 20
-22.5290718955
 30
0.0
 10
8.554226188
 20
-22.5345940611
 30
0.0
 10
8.5536738447
 20
-22.5377972043
 30
0.0
 10
8.5532704412
 20
-22.5393362308
 30
0.0
 10
8.5529461088
 20
-22.5402741723
 30
0.0
 10
8.552543131
 20
-22.5407148043
 30
0.0
 10
8.55236869
 20
-22.5407178492
 30
0.0
  0
SPLINE
  5
5E6
100
AcDbEntity
  8
0
100
AcDbSpline
 62
250
  6
CONTINUOUS
 70
0
 71
3
 72
30
 73
26
 74
0
 42
0.0000001
 43
0.0000001
 44
0.0000000001
 40
0.0
 40
0.0
 40
0.0
 40
0.0
 40
0.1956691433
 40
0.2910058502
 40
0.3834654992
 40
0.4721722514
 40
0.5562852266
 40
0.6350072836
 40
0.7075924722
 40
0.7733530757
 40
0.8316661602
 40
0.8819795543
 40
0.9039844962
 40
0.9238174193
 40
0.9414314737
 40
0.9567851636
 40
0.9698429852
 40
0.980574563
 40
0.9889566158
 40
0.9922611739
 40
0.9949733268
 40
0.9970930367
 40
0.998622772
 40
0.9995727352
 40
1.0
 40
1.0
 40
1.0
 40
1.0
 10
8.55236869
 20
-21.5408701541
 30
0.0
 10
8.597929787
 20
-21.5864451326
 30
0.0
 10
8.6656098904
 20
-21.6543057818
 30
0.0
 10
8.7546253462
 20
-21.7438947148
 30
0.0
 10
8.8187261321
 20
-21.8085784583
 30
0.0
 10
8.8801373783
 20
-21.8707232503
 30
0.0
 10
8.9382771166
 20
-21.9297399472
 30
0.0
 10
8.9925944185
 20
-21.9850688285
 30
0.0
 10
9.0425746898
 20
-22.0361851232
 30
0.0
 10
9.0877447948
 20
-22.0826036837
 30
0.0
 10
9.127677013
 20
-22.1238840174
 30
0.0
 10
9.1574718949
 20
-22.1549204138
 30
0.0
 10
9.1783983757
 20
-22.1769019748
 30
0.0
 10
9.1918523533
 20
-22.1911279713
 30
0.0
 10
9.2037495207
 20
-22.2038111513
 30
0.0
 10
9.2140618531
 20
-22.2149210782
 30
0.0
 10
9.2227662993
 20
-22.2244310763
 30
0.0
 10
9.2298419607
 20
-22.2323167769
 30
0.0
 10
9.2346933815
 20
-22.2378861661
 30
0.0
 10
9.2377316792
 20
-22.2415231894
 30
0.0
 10
9.2394107773
 20
-22.2436208089
 30
0.0
 10
9.2406693802
 20
-22.2452734322
 30
0.0
 10
9.241534265
 20
-22.2465703195
 30
0.0
 10
9.2419764899
 20
-22.2473278588
 30
0.0
 10
9.2421225675
 20
-22.2478774325
 30
0.0
 10
9.2420230647
 20
-22.2479769353
 30
0.0
  0
SPLINE
  5
5E7
100
AcDbEntity
  8
0
100
AcDbSpline
 62
250
  6
CONTINUOUS
 70
0
 71
3
 72
30
 73
26
 74
0
 42
0.0000001
 43
0.0000001
 44
0.0000000001
 40
0.0
 40
0.0
 40
0.0
 40
0.0
 40
0.1956691434
 40
0.2910058503
 40
0.3834654994
 40
0.4721722515
 40
0.5562852268
 40
0.6350072837
 40
0.7075924724
 40
0.7733530759
 40
0.8316661604
 40
0.8819795544
 40
0.9039844963
 40
0.9238174195
 40
0.9414314738
 40
0.9567851637
 40
0.9698429853
 40
0.9805745631
 40
0.9889566158
 40
0.992261174
 40
0.9949733268
 40
0.9970930367
 40
0.998622772
 40
0.9995727352
 40
1.0
 40
1.0
 40
1.0
 40
1.0
 10
10.1674524064
 20
-19.9257864376
 30
0.0
 10
10.2130135035
 20
-19.9713614162
 30
0.0
 10
10.2806936069
 20
-20.0392220654
 30
0.0
 10
10.3697090627
 20
-20.1288109984
 30
0.0
 10
10.4338098487
 20
-20.193494742
 30
0.0
 10
10.4952210948
 20
-20.2556395339
 30
0.0
 10
10.5533608332
 20
-20.3146562308
 30
0.0
 10
10.6076781351
 20
-20.3699851122
 30
0.0
 10
10.6576584064
 20
-20.4211014069
 30
0.0
 10
10.7028285113
 20
-20.4675199674
 30
0.0
 10
10.7427607296
 20
-20.5088003011
 30
0.0
 10
10.7725556114
 20
-20.5398366975
 30
0.0
 10
10.7934820922
 20
-20.5618182584
 30
0.0
 10
10.8069360698
 20
-20.576044255
 30
0.0
 10
10.8188332372
 20
-20.5887274349
 30
0.0
 10
10.8291455696
 20
-20.5998373619
 30
0.0
 10
10.8378500159
 20
-20.6093473599
 30
0.0
 10
10.8449256772
 20
-20.6172330605
 30
0.0
 10
10.849777098
 20
-20.6228024497
 30
0.0
 10
10.8528153957
 20
-20.626439473
 30
0.0
 10
10.8544944938
 20
-20.6285370925
 30
0.0
 10
10.8557530966
 20
-20.6301897157
 30
0.0
 10
10.8566179815
 20
-20.6314866031
 30
0.0
 10
10.8570602064
 20
-20.6322441423
 30
0.0
 10
10.8572062839
 20
-20.6327937161
 30
0.0
 10
10.8571067812
 20
-20.6328932188
 30
0.0
  0
SPLINE
  5
5E8
100
AcDbEntity
  8
0
100
AcDbSpline
 62
250
  6
CONTINUOUS
 70
0
 71
3
 72
30
 73
26
 74
0
 42
0.0000001
 43
0.0000001
 44
0.0000000001
 40
0.0
 40
0.0
 40
0.0
 40
0.0
 40
0.1956691434
 40
0.2910058503
 40
0.3834654993
 40
0.4721722515
 40
0.5562852267
 40
0.6350072837
 40
0.7075924723
 40
0.7733530759
 40
0.8316661603
 40
0.8819795544
 40
0.9039844963
 40
0.9238174194
 40
0.9414314738
 40
0.9567851636
 40
0.9698429853
 40
0.980574563
 40
0.9889566158
 40
0.992261174
 40
0.9949733268
 40
0.9970930367
 40
0.998622772
 40
0.9995727352
 40
1.0
 40
1.0
 40
1.0
 40
1.0
 10
10.1674524064
 20
13.9457864376
 30
0.0
 10
10.2130135035
 20
13.9913614162
 30
0.0
 10
10.2806936069
 20
14.0592220654
 30
0.0
 10
10.3697090627
 20
14.1488109984
 30
0.0
 10
10.4338098487
 20
14.2134947419
 30
0.0
 10
10.4952210948
 20
14.2756395339
 30
0.0
 10
10.5533608332
 20
14.3346562308
 30
0.0
 10
10.607678135
 20
14.3899851122
 30
0.0
 10
10.6576584063
 20
14.4411014069
 30
0.0
 10
10.7028285113
 20
14.4875199673
 30
0.0
 10
10.7427607295
 20
14.528800301
 30
0.0
 10
10.7725556114
 20
14.5598366974
 30
0.0
 10
10.7934820922
 20
14.5818182584
 30
0.0
 10
10.8069360698
 20
14.596044255
 30
0.0
 10
10.8188332372
 20
14.6087274349
 30
0.0
 10
10.8291455696
 20
14.6198373618
 30
0.0
 10
10.8378500158
 20
14.6293473599
 30
0.0
 10
10.8449256771
 20
14.6372330605
 30
0.0
 10
10.849777098
 20
14.6428024497
 30
0.0
 10
10.8528153957
 20
14.646439473
 30
0.0
 10
10.8544944938
 20
14.6485370925
 30
0.0
 10
10.8557530966
 20
14.6501897157
 30
0.0
 10
10.8566179815
 20
14.6514866031
 30
0.0
 10
10.8570602064
 20
14.6522441423
 30
0.0
 10
10.8572062839
 20
14.6527937161
 30
0.0
 10
10.8571067812
 20
14.6528932188
 30
0.0
  0
SPLINE
  5
5E9
100
AcDbEntity
  8
0
100
AcDbSpline
 62
250
  6
CONTINUOUS
 70
0
 71
3
 72
30
 73
26
 74
0
 42
0.0000001
 43
0.0000001
 44
0.0000000001
 40
0.0
 40
0.0
 40
0.0
 40
0.0
 40
0.1956691433
 40
0.2910058502
 40
0.3834654992
 40
0.4721722514
 40
0.5562852266
 40
0.6350072836
 40
0.7075924722
 40
0.7733530758
 40
0.8316661603
 40
0.8819795543
 40
0.9039844962
 40
0.9238174193
 40
0.9414314737
 40
0.9567851636
 40
0.9698429852
 40
0.980574563
 40
0.9889566158
 40
0.992261174
 40
0.9949733268
 40
0.9970930367
 40
0.998622772
 40
0.9995727352
 40
1.0
 40
1.0
 40
1.0
 40
1.0
 10
8.55236869
 20
15.5608701541
 30
0.0
 10
8.597929787
 20
15.6064451326
 30
0.0
 10
8.6656098904
 20
15.6743057818
 30
0.0
 10
8.7546253462
 20
15.7638947148
 30
0.0
 10
8.8187261321
 20
15.8285784583
 30
0.0
 10
8.8801373783
 20
15.8907232503
 30
0.0
 10
8.9382771167
 20
15.9497399472
 30
0.0
 10
8.9925944185
 20
16.0050688285
 30
0.0
 10
9.0425746898
 20
16.0561851233
 30
0.0
 10
9.0877447948
 20
16.1026036837
 30
0.0
 10
9.127677013
 20
16.1438840174
 30
0.0
 10
9.1574718949
 20
16.1749204138
 30
0.0
 10
9.1783983757
 20
16.1969019748
 30
0.0
 10
9.1918523533
 20
16.2111279714
 30
0.0
 10
9.2037495207
 20
16.2238111513
 30
0.0
 10
9.2140618531
 20
16.2349210782
 30
0.0
 10
9.2227662994
 20
16.2444310763
 30
0.0
 10
9.2298419607
 20
16.2523167769
 30
0.0
 10
9.2346933816
 20
16.2578861661
 30
0.0
 10
9.2377316792
 20
16.2615231894
 30
0.0
 10
9.2394107773
 20
16.2636208089
 30
0.0
 10
9.2406693802
 20
16.2652734322
 30
0.0
 10
9.241534265
 20
16.2665703195
 30
0.0
 10
9.2419764899
 20
16.2673278588
 30
0.0
 10
9.2421225675
 20
16.2678774325
 30
0.0
 10
9.2420230647
 20
16.2679769353
 30
0.0
  0
SPLINE
  5
5EA
100
AcDbEntity
  8
0
100
AcDbSpline
 62
250
  6
CONTINUOUS
 70
0
 71
3
 72
29
 73
25
 74
0
 42
0.0000001
 43
0.0000001
 44
0.0000000001
 40
0.0
 40
0.0
 40
0.0
 40
0.0
 40
0.1949649921
 40
0.2900959629
 40
0.3824317982
 40
0.4710844489
 40
0.5552007203
 40
0.6339713129
 40
0.7066385249
 40
0.7725035435
 40
0.8309332474
 40
0.8813664632
 40
0.9034301335
 40
0.9233199414
 40
0.9409884391
 40
0.956393736
 40
0.9695002304
 40
0.9802779012
 40
0.9887047161
 40
0.9947678998
 40
0.9969147374
 40
0.9984779444
 40
0.9994768177
 40
1.0
 40
1.0
 40
1.0
 40
1.0
 10
8.55236869
 20
15.5608701541
 30
0.0
 10
8.5535030249
 20
15.6258759581
 30
0.0
 10
8.5550281205
 20
15.7226035721
 30
0.0
 10
8.5566989357
 20
15.8501236284
 30
0.0
 10
8.5577337194
 20
15.9421964554
 30
0.0
 10
8.5585509348
 20
16.0305982093
 30
0.0
 10
8.5591429382
 20
16.1144780109
 30
0.0
 10
8.5595045111
 20
16.1930283626
 30
0.0
 10
8.559632765
 20
16.2654931388
 30
0.0
 10
8.5595277161
 20
16.3311748443
 30
0.0
 10
8.5591913212
 20
16.3894412267
 30
0.0
 10
8.5587056208
 20
16.4330994569
 30
0.0
 10
8.5581821823
 20
16.4639036222
 30
0.0
 10
8.5577523272
 20
16.4837814434
 30
0.0
 10
8.5572693302
 20
16.5014368655
 30
0.0
 10
8.5567349111
 20
16.5168278722
 30
0.0
 10
8.556152057
 20
16.5299166261
 30
0.0
 10
8.5555237907
 20
16.5406752048
 30
0.0
 10
8.5548590962
 20
16.5490718954
 30
0.0
 10
8.554226188
 20
16.554594061
 30
0.0
 10
8.5536738447
 20
16.5577972042
 30
0.0
 10
8.5532704412
 20
16.5593362307
 30
0.0
 10
8.5529461088
 20
16.5602741723
 30
0.0
 10
8.552543131
 20
16.5607148043
 30
0.0
 10
8.55236869
 20
16.5607178492
 30
0.0
  0
SPLINE
  5
5EB
100
AcDbEntity
  8
0
100
AcDbSpline
 62
250
  6
CONTINUOUS
 70
0
 71
3
 72
27
 73
23
 74
0
 42
0.0000001
 43
0.0000001
 44
0.0000000001
 40
0.0
 40
0.0
 40
0.0
 40
0.0
 40
0.1949663528
 40
0.3824328525
 40
0.4710855753
 40
0.5552020866
 40
0.6339728935
 40
0.7066403095
 40
0.7725054799
 40
0.8309353042
 40
0.8813686757
 40
0.9034325709
 40
0.9233223723
 40
0.9409908638
 40
0.9563963622
 40
0.9695026518
 40
0.9802806384
 40
0.9887072016
 40
0.9947706666
 40
0.9984778434
 40
0.9994768187
 40
1.0
 40
1.0
 40
1.0
 40
1.0
 10
-5.0349048129
 20
17.297808438
 30
0.0
 10
-5.0354719827
 20
17.2653054012
 30
0.0
 10
-5.0364769228
 20
17.2015477095
 30
0.0
 10
-5.0374405579
 20
17.1230063199
 30
0.0
 10
-5.0379959572
 20
17.0629444439
 30
0.0
 10
-5.0382919279
 20
17.0210045733
 30
0.0
 10
-5.0384727222
 20
16.9817293994
 30
0.0
 10
-5.0385368478
 20
16.9454970184
 30
0.0
 10
-5.0384843236
 20
16.9126561806
 30
0.0
 10
-5.0383161249
 20
16.8835229965
 30
0.0
 10
-5.038073276
 20
16.8616938704
 30
0.0
 10
-5.0378115542
 20
16.8462917505
 30
0.0
 10
-5.0375966491
 20
16.8363528788
 30
0.0
 10
-5.0373550752
 20
16.8275250165
 30
0.0
 10
-5.0370880912
 20
16.8198299767
 30
0.0
 10
-5.0367960103
 20
16.8132842767
 30
0.0
 10
-5.0364836454
 20
16.8079086191
 30
0.0
 10
-5.036146841
 20
16.8037009381
 30
0.0
 10
-5.0358108501
 20
16.8007021526
 30
0.0
 10
-5.0354698996
 20
16.7989045117
 30
0.0
 10
-5.0351933836
 20
16.7981063097
 30
0.0
 10
-5.0349920329
 20
16.7978861128
 30
0.0
 10
-5.0349048129
 20
16.7978845904
 30
0.0
  0
SPLINE
  5
5EC
100
AcDbEntity
  8
0
100
AcDbSpline
 62
250
  6
CONTINUOUS
 70
0
 71
3
 72
27
 73
23
 74
0
 42
0.0000001
 43
0.0000001
 44
0.0000000001
 40
0.0
 40
0.0
 40
0.0
 40
0.0
 40
0.0005231813
 40
0.0015221566
 40
0.0052293334
 40
0.0112927984
 40
0.0197193616
 40
0.0304973482
 40
0.0436036378
 40
0.0590091362
 40
0.0766776277
 40
0.0965674291
 40
0.1186313243
 40
0.1690646958
 40
0.2274945201
 40
0.2933596905
 40
0.3660271065
 40
0.4447979134
 40
0.5289144247
 40
0.6175671475
 40
0.8050336472
 40
1.0
 40
1.0
 40
1.0
 40
1.0
 10
-5.0349048129
 20
-22.7778845904
 30
0.0
 10
-5.0349920329
 20
-22.7778861128
 30
0.0
 10
-5.0351933836
 20
-22.7781063097
 30
0.0
 10
-5.0354698996
 20
-22.7789045117
 30
0.0
 10
-5.0358108501
 20
-22.7807021526
 30
0.0
 10
-5.036146841
 20
-22.7837009381
 30
0.0
 10
-5.0364836454
 20
-22.7879086191
 30
0.0
 10
-5.0367960103
 20
-22.7932842767
 30
0.0
 10
-5.0370880912
 20
-22.7998299767
 30
0.0
 10
-5.0373550752
 20
-22.8075250165
 30
0.0
 10
-5.0375966491
 20
-22.8163528788
 30
0.0
 10
-5.0378115542
 20
-22.8262917505
 30
0.0
 10
-5.038073276
 20
-22.8416938704
 30
0.0
 10
-5.0383161249
 20
-22.8635229965
 30
0.0
 10
-5.0384843236
 20
-22.8926561806
 30
0.0
 10
-5.0385368478
 20
-22.9254970184
 30
0.0
 10
-5.0384727222
 20
-22.9617293994
 30
0.0
 10
-5.0382919279
 20
-23.0010045733
 30
0.0
 10
-5.0379959572
 20
-23.0429444439
 30
0.0
 10
-5.0374405579
 20
-23.1030063199
 30
0.0
 10
-5.0364769228
 20
-23.1815477095
 30
0.0
 10
-5.0354719827
 20
-23.2453054012
 30
0.0
 10
-5.0349048129
 20
-23.277808438
 30
0.0
  0
SPLINE
  5
5ED
100
AcDbEntity
  8
0
100
AcDbSpline
 62
250
  6
CONTINUOUS
 70
0
 71
3
 72
27
 73
23
 74
0
 42
0.0000001
 43
0.0000001
 44
0.0000000001
 40
0.0
 40
0.0
 40
0.0
 40
0.0
 40
0.1949663528
 40
0.3824328525
 40
0.4710855753
 40
0.5552020866
 40
0.6339728935
 40
0.7066403095
 40
0.7725054798
 40
0.8309353042
 40
0.8813686756
 40
0.9034325709
 40
0.9233223723
 40
0.9409908638
 40
0.9563963622
 40
0.9695026518
 40
0.9802806384
 40
0.9887072016
 40
0.9947706666
 40
0.9984778434
 40
0.9994768187
 40
1.0
 40
1.0
 40
1.0
 40
1.0
 10
5.6821314735
 20
-23.5908941786
 30
0.0
 10
5.6826986433
 20
-23.6233972154
 30
0.0
 10
5.6837035834
 20
-23.6871549071
 30
0.0
 10
5.6846672186
 20
-23.7656962968
 30
0.0
 10
5.6852226179
 20
-23.8257581727
 30
0.0
 10
5.6855185886
 20
-23.8676980433
 30
0.0
 10
5.6856993829
 20
-23.9069732172
 30
0.0
 10
5.6857635085
 20
-23.9432055982
 30
0.0
 10
5.6857109843
 20
-23.976046436
 30
0.0
 10
5.6855427855
 20
-24.0051796201
 30
0.0
 10
5.6852999367
 20
-24.0270087462
 30
0.0
 10
5.6850382149
 20
-24.0424108661
 30
0.0
 10
5.6848233098
 20
-24.0523497378
 30
0.0
 10
5.6845817359
 20
-24.0611776001
 30
0.0
 10
5.6843147519
 20
-24.0688726399
 30
0.0
 10
5.684022671
 20
-24.0754183399
 30
0.0
 10
5.6837103061
 20
-24.0807939976
 30
0.0
 10
5.6833735017
 20
-24.0850016785
 30
0.0
 10
5.6830375107
 20
-24.088000464
 30
0.0
 10
5.6826965602
 20
-24.0897981049
 30
0.0
 10
5.6824200442
 20
-24.0905963069
 30
0.0
 10
5.6822186936
 20
-24.0908165038
 30
0.0
 10
5.6821314735
 20
-24.0908180262
 30
0.0
  0
SPLINE
  5
5EE
100
AcDbEntity
  8
0
100
AcDbSpline
 62
250
  6
CONTINUOUS
 70
0
 71
3
 72
28
 73
24
 74
0
 42
0.0000001
 43
0.0000001
 44
0.0000000001
 40
0.0
 40
0.0
 40
0.0
 40
0.0
 40
0.1956769069
 40
0.3834760733
 40
0.4721834394
 40
0.5562966751
 40
0.6350185529
 40
0.707603239
 40
0.7733630704
 40
0.8316752197
 40
0.881987655
 40
0.9039922585
 40
0.9238246208
 40
0.9414381224
 40
0.9567914718
 40
0.9698485574
 40
0.9805799046
 40
0.9889611342
 40
0.9949771361
 40
0.997096207
 40
0.9986253904
 40
0.9995745975
 40
1.0
 40
1.0
 40
1.0
 40
1.0
 10
6.7258285376
 20
-23.1424865323
 30
0.0
 10
6.748805338
 20
-23.1650726506
 30
0.0
 10
6.7937820199
 20
-23.2093884238
 30
0.0
 10
6.8490296075
 20
-23.2640904887
 30
0.0
 10
6.8911350878
 20
-23.3059572686
 30
0.0
 10
6.9204599254
 20
-23.3352056494
 30
0.0
 10
6.9478579368
 20
-23.3626266396
 30
0.0
 10
6.973069541
 20
-23.387960196
 30
0.0
 10
6.9958561037
 20
-23.4109659025
 30
0.0
 10
7.0160018825
 20
-23.4314254745
 30
0.0
 10
7.0310349126
 20
-23.4468083861
 30
0.0
 10
7.0415945568
 20
-23.4577036986
 30
0.0
 10
7.0483841396
 20
-23.4647551157
 30
0.0
 10
7.0543886607
 20
-23.4710419214
 30
0.0
 10
7.0595942932
 20
-23.4765493719
 30
0.0
 10
7.0639884416
 20
-23.481263215
 30
0.0
 10
7.0675632978
 20
-23.4851744083
 30
0.0
 10
7.0703070528
 20
-23.4882654634
 30
0.0
 10
7.0720670594
 20
-23.4903518509
 30
0.0
 10
7.0730360206
 20
-23.4915984657
 30
0.0
 10
7.0734751324
 20
-23.4922421499
 30
0.0
 10
7.0736995519
 20
-23.4926175896
 30
0.0
 10
7.0737766537
 20
-23.4928912053
 30
0.0
 10
7.073727559
 20
-23.4929411645
 30
0.0
  0
SPLINE
  5
5EF
100
AcDbEntity
  8
0
100
AcDbSpline
 62
250
  6
CONTINUOUS
 70
0
 71
3
 72
27
 73
23
 74
0
 42
0.0000001
 43
0.0000001
 44
0.0000000001
 40
0.0
 40
0.0
 40
0.0
 40
0.0
 40
0.1949663528
 40
0.3824328525
 40
0.4710855753
 40
0.5552020866
 40
0.6339728935
 40
0.7066403095
 40
0.7725054799
 40
0.8309353042
 40
0.8813686757
 40
0.9034325709
 40
0.9233223723
 40
0.9409908638
 40
0.9563963622
 40
0.9695026518
 40
0.9802806384
 40
0.9887072016
 40
0.9947706666
 40
0.9984778434
 40
0.9994768187
 40
1.0
 40
1.0
 40
1.0
 40
1.0
 10
-5.0349048129
 20
-23.602191562
 30
0.0
 10
-5.0354719827
 20
-23.6346945988
 30
0.0
 10
-5.0364769228
 20
-23.6984522905
 30
0.0
 10
-5.0374405579
 20
-23.7769936801
 30
0.0
 10
-5.0379959572
 20
-23.8370555561
 30
0.0
 10
-5.0382919279
 20
-23.8789954267
 30
0.0
 10
-5.0384727222
 20
-23.9182706006
 30
0.0
 10
-5.0385368478
 20
-23.9545029816
 30
0.0
 10
-5.0384843236
 20
-23.9873438194
 30
0.0
 10
-5.0383161249
 20
-24.0164770035
 30
0.0
 10
-5.038073276
 20
-24.0383061296
 30
0.0
 10
-5.0378115542
 20
-24.0537082495
 30
0.0
 10
-5.0375966491
 20
-24.0636471212
 30
0.0
 10
-5.0373550752
 20
-24.0724749835
 30
0.0
 10
-5.0370880912
 20
-24.0801700233
 30
0.0
 10
-5.0367960103
 20
-24.0867157233
 30
0.0
 10
-5.0364836454
 20
-24.0920913809
 30
0.0
 10
-5.036146841
 20
-24.0962990619
 30
0.0
 10
-5.0358108501
 20
-24.0992978474
 30
0.0
 10
-5.0354698996
 20
-24.1010954883
 30
0.0
 10
-5.0351933836
 20
-24.1018936903
 30
0.0
 10
-5.0349920329
 20
-24.1021138872
 30
0.0
 10
-5.0349048129
 20
-24.1021154096
 30
0.0
  0
SPLINE
  5
5F0
100
AcDbEntity
  8
0
100
AcDbSpline
 62
250
  6
CONTINUOUS
 70
0
 71
3
 72
27
 73
23
 74
0
 42
0.0000001
 43
0.0000001
 44
0.0000000001
 40
0.0
 40
0.0
 40
0.0
 40
0.0
 40
0.1949663528
 40
0.3824328525
 40
0.4710855753
 40
0.5552020866
 40
0.6339728935
 40
0.7066403095
 40
0.7725054799
 40
0.8309353042
 40
0.8813686757
 40
0.9034325709
 40
0.9233223723
 40
0.9409908638
 40
0.9563963622
 40
0.9695026518
 40
0.9802806384
 40
0.9887072016
 40
0.9947706666
 40
0.9984778434
 40
0.9994768187
 40
1.0
 40
1.0
 40
1.0
 40
1.0
 10
5.6821314735
 20
17.6108941786
 30
0.0
 10
5.6826986433
 20
17.6433972154
 30
0.0
 10
5.6837035834
 20
17.7071549071
 30
0.0
 10
5.6846672186
 20
17.7856962968
 30
0.0
 10
5.6852226179
 20
17.8457581727
 30
0.0
 10
5.6855185885
 20
17.8876980433
 30
0.0
 10
5.6856993829
 20
17.9269732172
 30
0.0
 10
5.6857635084
 20
17.9632055982
 30
0.0
 10
5.6857109842
 20
17.996046436
 30
0.0
 10
5.6855427855
 20
18.0251796201
 30
0.0
 10
5.6852999367
 20
18.0470087462
 30
0.0
 10
5.6850382149
 20
18.0624108661
 30
0.0
 10
5.6848233098
 20
18.0723497378
 30
0.0
 10
5.6845817359
 20
18.0811776001
 30
0.0
 10
5.6843147519
 20
18.0888726399
 30
0.0
 10
5.684022671
 20
18.0954183399
 30
0.0
 10
5.6837103061
 20
18.1007939976
 30
0.0
 10
5.6833735017
 20
18.1050016785
 30
0.0
 10
5.6830375107
 20
18.108000464
 30
0.0
 10
5.6826965602
 20
18.1097981049
 30
0.0
 10
5.6824200442
 20
18.1105963069
 30
0.0
 10
5.6822186936
 20
18.1108165038
 30
0.0
 10
5.6821314735
 20
18.1108180262
 30
0.0
  0
SPLINE
  5
5F1
100
AcDbEntity
  8
0
100
AcDbSpline
 62
250
  6
CONTINUOUS
 70
0
 71
3
 72
28
 73
24
 74
0
 42
0.0000001
 43
0.0000001
 44
0.0000000001
 40
0.0
 40
0.0
 40
0.0
 40
0.0
 40
0.1956769069
 40
0.3834760733
 40
0.4721834394
 40
0.5562966751
 40
0.6350185529
 40
0.707603239
 40
0.7733630704
 40
0.8316752197
 40
0.881987655
 40
0.9039922585
 40
0.9238246208
 40
0.9414381224
 40
0.9567914718
 40
0.9698485574
 40
0.9805799046
 40
0.9889611342
 40
0.9949771361
 40
0.997096207
 40
0.9986253904
 40
0.9995745975
 40
1.0
 40
1.0
 40
1.0
 40
1.0
 10
6.7258285376
 20
17.1624865323
 30
0.0
 10
6.748805338
 20
17.1850726506
 30
0.0
 10
6.7937820199
 20
17.2293884238
 30
0.0
 10
6.8490296074
 20
17.2840904887
 30
0.0
 10
6.8911350878
 20
17.3259572687
 30
0.0
 10
6.9204599253
 20
17.3552056494
 30
0.0
 10
6.9478579368
 20
17.3826266396
 30
0.0
 10
6.973069541
 20
17.407960196
 30
0.0
 10
6.9958561036
 20
17.4309659025
 30
0.0
 10
7.0160018825
 20
17.4514254746
 30
0.0
 10
7.0310349126
 20
17.4668083862
 30
0.0
 10
7.0415945568
 20
17.4777036987
 30
0.0
 10
7.0483841396
 20
17.4847551157
 30
0.0
 10
7.0543886606
 20
17.4910419214
 30
0.0
 10
7.0595942931
 20
17.4965493719
 30
0.0
 10
7.0639884415
 20
17.501263215
 30
0.0
 10
7.0675632978
 20
17.5051744083
 30
0.0
 10
7.0703070528
 20
17.5082654634
 30
0.0
 10
7.0720670594
 20
17.5103518509
 30
0.0
 10
7.0730360206
 20
17.5115984657
 30
0.0
 10
7.0734751324
 20
17.5122421499
 30
0.0
 10
7.0736995519
 20
17.5126175896
 30
0.0
 10
7.0737766537
 20
17.5128912053
 30
0.0
 10
7.073727559
 20
17.5129411645
 30
0.0
  0
SPLINE
  5
5F2
100
AcDbEntity
  8
0
100
AcDbSpline
 62
250
  6
CONTINUOUS
 70
0
 71
3
 72
27
 73
23
 74
0
 42
0.0000001
 43
0.0000001
 44
0.0000000001
 40
0.0
 40
0.0
 40
0.0
 40
0.0
 40
0.0005231813
 40
0.0015221566
 40
0.0052293334
 40
0.0112927984
 40
0.0197193616
 40
0.0304973482
 40
0.0436036378
 40
0.0590091362
 40
0.0766776277
 40
0.0965674291
 40
0.1186313243
 40
0.1690646958
 40
0.2274945201
 40
0.2933596905
 40
0.3660271065
 40
0.4447979134
 40
0.5289144247
 40
0.6175671475
 40
0.8050336472
 40
1.0
 40
1.0
 40
1.0
 40
1.0
 10
-5.0349048129
 20
18.1221154096
 30
0.0
 10
-5.0349920329
 20
18.1221138872
 30
0.0
 10
-5.0351933836
 20
18.1218936903
 30
0.0
 10
-5.0354698996
 20
18.1210954883
 30
0.0
 10
-5.0358108501
 20
18.1192978474
 30
0.0
 10
-5.036146841
 20
18.1162990619
 30
0.0
 10
-5.0364836454
 20
18.1120913809
 30
0.0
 10
-5.0367960103
 20
18.1067157233
 30
0.0
 10
-5.0370880912
 20
18.1001700233
 30
0.0
 10
-5.0373550752
 20
18.0924749835
 30
0.0
 10
-5.0375966491
 20
18.0836471212
 30
0.0
 10
-5.0378115542
 20
18.0737082495
 30
0.0
 10
-5.038073276
 20
18.0583061296
 30
0.0
 10
-5.0383161249
 20
18.0364770035
 30
0.0
 10
-5.0384843236
 20
18.0073438194
 30
0.0
 10
-5.0385368478
 20
17.9745029816
 30
0.0
 10
-5.0384727222
 20
17.9382706006
 30
0.0
 10
-5.0382919279
 20
17.8989954267
 30
0.0
 10
-5.0379959572
 20
17.8570555561
 30
0.0
 10
-5.0374405579
 20
17.7969936801
 30
0.0
 10
-5.0364769228
 20
17.7184522905
 30
0.0
 10
-5.0354719827
 20
17.6546945988
 30
0.0
 10
-5.0349048129
 20
17.622191562
 30
0.0
  0
SPLINE
  5
5F3
100
AcDbEntity
  8
ASSI
100
AcDbSpline
 62
250
  6
CONTINUOUS
 70
0
 71
3
 72
9
 73
5
 74
0
 42
0.0000001
 43
0.0000001
 44
0.0000000001
 40
0.0
 40
0.0
 40
0.0
 40
0.0
 40
0.5000097575
 40
1.0
 40
1.0
 40
1.0
 40
1.0
 10
6.7258285376
 20
17.1624865323
 30
0.0
 10
6.5905850658
 20
17.3001106659
 30
0.0
 10
6.2633132867
 20
17.5248033125
 30
0.0
 10
5.8750484256
 20
17.6075263543
 30
0.0
 10
5.6821314735
 20
17.6108941786
 30
0.0
  0
SPLINE
  5
5F4
100
AcDbEntity
  8
ASSI
100
AcDbSpline
 62
250
  6
CONTINUOUS
 70
0
 71
3
 72
21
 73
17
 74
0
 42
0.0000001
 43
0.0000001
 44
0.0000000001
 40
0.0
 40
0.0
 40
0.0
 40
0.0
 40
0.1949754131
 40
0.3824506245
 40
0.5552277824
 40
0.7066728867
 40
0.7725411179
 40
0.8309736575
 40
0.8814093727
 40
0.9233649037
 40
0.9564401949
 40
0.9803249526
 40
0.9887519074
 40
0.9948156542
 40
0.9985230032
 40
1.0
 40
1.0
 40
1.0
 40
1.0
 10
-5.0349048129
 20
17.297808438
 30
0.0
 10
-5.0354719827
 20
17.2653054012
 30
0.0
 10
-5.0364769811
 20
17.2015477147
 30
0.0
 10
-5.0376124342
 20
17.1089820583
 30
0.0
 10
-5.0383235842
 20
17.0236703
 30
0.0
 10
-5.0385573552
 20
16.9586307304
 30
0.0
 10
-5.0384843336
 20
16.9126565141
 30
0.0
 10
-5.0383163384
 20
16.8835219447
 30
0.0
 10
-5.0380357013
 20
16.8583808314
 30
0.0
 10
-5.0376492156
 20
16.8374536048
 30
0.0
 10
-5.0371619743
 20
16.8209987266
 30
0.0
 10
-5.0366503897
 20
16.8100439689
 30
0.0
 10
-5.0361530325
 20
16.8037500496
 30
0.0
 10
-5.0357975211
 20
16.8005924993
 30
0.0
 10
-5.0354767707
 20
16.799006162
 30
0.0
 10
-5.035151033
 20
16.7978888882
 30
0.0
 10
-5.0349048129
 20
16.7978845904
 30
0.0
  0
SPLINE
  5
5F5
100
AcDbEntity
  8
ASSI
100
AcDbSpline
 62
250
  6
CONTINUOUS
 70
0
 71
3
 72
21
 73
17
 74
0
 42
0.0000001
 43
0.0000001
 44
0.0000000001
 40
0.0
 40
0.0
 40
0.0
 40
0.0
 40
0.0014769968
 40
0.0051843458
 40
0.0112480926
 40
0.0196750474
 40
0.0435598051
 40
0.0766350963
 40
0.1185906273
 40
0.1690263425
 40
0.2274588821
 40
0.2933271133
 40
0.4447722176
 40
0.6175493755
 40
0.8050245869
 40
1.0
 40
1.0
 40
1.0
 40
1.0
 10
-5.0349048129
 20
-22.7778845904
 30
0.0
 10
-5.035151033
 20
-22.7778888882
 30
0.0
 10
-5.0354767707
 20
-22.779006162
 30
0.0
 10
-5.0357975211
 20
-22.7805924993
 30
0.0
 10
-5.0361530325
 20
-22.7837500496
 30
0.0
 10
-5.0366503897
 20
-22.7900439689
 30
0.0
 10
-5.0371619743
 20
-22.8009987266
 30
0.0
 10
-5.0376492156
 20
-22.8174536048
 30
0.0
 10
-5.0380357013
 20
-22.8383808314
 30
0.0
 10
-5.0383163384
 20
-22.8635219447
 30
0.0
 10
-5.0384843336
 20
-22.8926565141
 30
0.0
 10
-5.0385573552
 20
-22.9386307304
 30
0.0
 10
-5.0383235842
 20
-23.0036703
 30
0.0
 10
-5.0376124342
 20
-23.0889820583
 30
0.0
 10
-5.0364769811
 20
-23.1815477147
 30
0.0
 10
-5.0354719827
 20
-23.2453054012
 30
0.0
 10
-5.0349048129
 20
-23.277808438
 30
0.0
  0
SPLINE
  5
5F6
100
AcDbEntity
  8
ASSI
100
AcDbSpline
 62
250
  6
CONTINUOUS
 70
0
 71
3
 72
21
 73
17
 74
0
 42
0.0000001
 43
0.0000001
 44
0.0000000001
 40
0.0
 40
0.0
 40
0.0
 40
0.0
 40
0.1949754131
 40
0.3824506245
 40
0.5552277824
 40
0.7066728867
 40
0.7725411179
 40
0.8309736575
 40
0.8814093727
 40
0.9233649037
 40
0.9564401949
 40
0.9803249526
 40
0.9887519073
 40
0.9948156542
 40
0.9985230032
 40
1.0
 40
1.0
 40
1.0
 40
1.0
 10
5.6821314735
 20
-23.5908941786
 30
0.0
 10
5.6826986433
 20
-23.6233972154
 30
0.0
 10
5.6837036417
 20
-23.6871549019
 30
0.0
 10
5.6848390949
 20
-23.7797205583
 30
0.0
 10
5.6855502448
 20
-23.8650323166
 30
0.0
 10
5.6857840158
 20
-23.9300718862
 30
0.0
 10
5.6857109943
 20
-23.9760461025
 30
0.0
 10
5.6855429991
 20
-24.0051806719
 30
0.0
 10
5.685262362
 20
-24.0303217852
 30
0.0
 10
5.6848758763
 20
-24.0512490118
 30
0.0
 10
5.6843886349
 20
-24.06770389
 30
0.0
 10
5.6838770504
 20
-24.0786586477
 30
0.0
 10
5.6833796931
 20
-24.084952567
 30
0.0
 10
5.6830241818
 20
-24.0881101173
 30
0.0
 10
5.6827034314
 20
-24.0896964546
 30
0.0
 10
5.6823776937
 20
-24.0908137284
 30
0.0
 10
5.6821314735
 20
-24.0908180262
 30
0.0
  0
SPLINE
  5
5F7
100
AcDbEntity
  8
ASSI
100
AcDbSpline
 62
250
  6
CONTINUOUS
 70
0
 71
3
 72
21
 73
17
 74
0
 42
0.0000001
 43
0.0000001
 44
0.0000000001
 40
0.0
 40
0.0
 40
0.0
 40
0.0
 40
0.1956834565
 40
0.3834889088
 40
0.5563152434
 40
0.7076267945
 40
0.773388827
 40
0.831702928
 40
0.8820170474
 40
0.9238553562
 40
0.9568231932
 40
0.9806121085
 40
0.9889936186
 40
0.9950098219
 40
0.9986568129
 40
1.0
 40
1.0
 40
1.0
 40
1.0
 10
6.7258285376
 20
-23.1424865323
 30
0.0
 10
6.748805338
 20
-23.1650726506
 30
0.0
 10
6.7937820397
 20
-23.20938839
 30
0.0
 10
6.8588711646
 20
-23.2738350417
 30
0.0
 10
6.9186049663
 20
-23.3333060962
 30
0.0
 10
6.9639480896
 20
-23.3787514067
 30
0.0
 10
6.995855722
 20
-23.4109656631
 30
0.0
 10
7.0160032078
 20
-23.4314261088
 30
0.0
 10
7.0333132997
 20
-23.4491419877
 30
0.0
 10
7.0476488536
 20
-23.4639584403
 30
0.0
 10
7.0588075315
 20
-23.4756939515
 30
0.0
 10
7.066181835
 20
-23.4835968794
 30
0.0
 10
7.0702589478
 20
-23.4882354439
 30
0.0
 10
7.0723371945
 20
-23.4906115808
 30
0.0
 10
7.0731471159
 20
-23.4918623804
 30
0.0
 10
7.0738825679
 20
-23.4927834263
 30
0.0
 10
7.073727559
 20
-23.4929411645
 30
0.0
  0
SPLINE
  5
5F8
100
AcDbEntity
  8
ASSI
100
AcDbSpline
 62
250
  6
CONTINUOUS
 70
0
 71
3
 72
21
 73
17
 74
0
 42
0.0000001
 43
0.0000001
 44
0.0000000001
 40
0.0
 40
0.0
 40
0.0
 40
0.0
 40
0.1949754131
 40
0.3824506245
 40
0.5552277824
 40
0.7066728867
 40
0.7725411179
 40
0.8309736575
 40
0.8814093727
 40
0.9233649037
 40
0.9564401949
 40
0.9803249526
 40
0.9887519074
 40
0.9948156542
 40
0.9985230032
 40
1.0
 40
1.0
 40
1.0
 40
1.0
 10
-5.0349048129
 20
-23.602191562
 30
0.0
 10
-5.0354719827
 20
-23.6346945988
 30
0.0
 10
-5.0364769811
 20
-23.6984522853
 30
0.0
 10
-5.0376124342
 20
-23.7910179417
 30
0.0
 10
-5.0383235842
 20
-23.8763297
 30
0.0
 10
-5.0385573552
 20
-23.9413692696
 30
0.0
 10
-5.0384843336
 20
-23.9873434859
 30
0.0
 10
-5.0383163384
 20
-24.0164780553
 30
0.0
 10
-5.0380357013
 20
-24.0416191686
 30
0.0
 10
-5.0376492156
 20
-24.0625463952
 30
0.0
 10
-5.0371619743
 20
-24.0790012734
 30
0.0
 10
-5.0366503897
 20
-24.0899560311
 30
0.0
 10
-5.0361530325
 20
-24.0962499504
 30
0.0
 10
-5.0357975211
 20
-24.0994075007
 30
0.0
 10
-5.0354767707
 20
-24.100993838
 30
0.0
 10
-5.035151033
 20
-24.1021111118
 30
0.0
 10
-5.0349048129
 20
-24.1021154096
 30
0.0
  0
SPLINE
  5
5F9
100
AcDbEntity
  8
ASSI
100
AcDbSpline
 62
250
  6
CONTINUOUS
 70
0
 71
3
 72
21
 73
17
 74
0
 42
0.0000001
 43
0.0000001
 44
0.0000000001
 40
0.0
 40
0.0
 40
0.0
 40
0.0
 40
0.1949754131
 40
0.3824506245
 40
0.5552277824
 40
0.7066728867
 40
0.7725411179
 40
0.8309736575
 40
0.8814093727
 40
0.9233649037
 40
0.9564401949
 40
0.9803249526
 40
0.9887519074
 40
0.9948156542
 40
0.9985230032
 40
1.0
 40
1.0
 40
1.0
 40
1.0
 10
5.6821314735
 20
17.6108941786
 30
0.0
 10
5.6826986433
 20
17.6433972154
 30
0.0
 10
5.6837036417
 20
17.7071549019
 30
0.0
 10
5.6848390949
 20
17.7997205583
 30
0.0
 10
5.6855502448
 20
17.8850323166
 30
0.0
 10
5.6857840158
 20
17.9500718863
 30
0.0
 10
5.6857109942
 20
17.9960461025
 30
0.0
 10
5.685542999
 20
18.0251806719
 30
0.0
 10
5.685262362
 20
18.0503217852
 30
0.0
 10
5.6848758762
 20
18.0712490118
 30
0.0
 10
5.6843886349
 20
18.08770389
 30
0.0
 10
5.6838770504
 20
18.0986586477
 30
0.0
 10
5.6833796931
 20
18.104952567
 30
0.0
 10
5.6830241818
 20
18.1081101173
 30
0.0
 10
5.6827034314
 20
18.1096964546
 30
0.0
 10
5.6823776937
 20
18.1108137284
 30
0.0
 10
5.6821314735
 20
18.1108180262
 30
0.0
  0
SPLINE
  5
5FA
100
AcDbEntity
  8
ASSI
100
AcDbSpline
 62
250
  6
CONTINUOUS
 70
0
 71
3
 72
21
 73
17
 74
0
 42
0.0000001
 43
0.0000001
 44
0.0000000001
 40
0.0
 40
0.0
 40
0.0
 40
0.0
 40
0.1956834565
 40
0.3834889088
 40
0.5563152434
 40
0.7076267945
 40
0.773388827
 40
0.831702928
 40
0.8820170474
 40
0.9238553562
 40
0.9568231933
 40
0.9806121085
 40
0.9889936186
 40
0.9950098219
 40
0.9986568129
 40
1.0
 40
1.0
 40
1.0
 40
1.0
 10
6.7258285376
 20
17.1624865323
 30
0.0
 10
6.748805338
 20
17.1850726506
 30
0.0
 10
6.7937820396
 20
17.22938839
 30
0.0
 10
6.8588711646
 20
17.2938350417
 30
0.0
 10
6.9186049663
 20
17.3533060962
 30
0.0
 10
6.9639480895
 20
17.3987514067
 30
0.0
 10
6.995855722
 20
17.4309656632
 30
0.0
 10
7.0160032078
 20
17.4514261089
 30
0.0
 10
7.0333132997
 20
17.4691419878
 30
0.0
 10
7.0476488536
 20
17.4839584403
 30
0.0
 10
7.0588075315
 20
17.4956939516
 30
0.0
 10
7.0661818349
 20
17.5035968794
 30
0.0
 10
7.0702589477
 20
17.508235444
 30
0.0
 10
7.0723371945
 20
17.5106115808
 30
0.0
 10
7.0731471159
 20
17.5118623804
 30
0.0
 10
7.0738825679
 20
17.5127834263
 30
0.0
 10
7.073727559
 20
17.5129411645
 30
0.0
  0
SPLINE
  5
5FB
100
AcDbEntity
  8
ASSI
100
AcDbSpline
 62
250
  6
CONTINUOUS
 70
0
 71
3
 72
21
 73
17
 74
0
 42
0.0000001
 43
0.0000001
 44
0.0000000001
 40
0.0
 40
0.0
 40
0.0
 40
0.0
 40
0.0014769968
 40
0.0051843458
 40
0.0112480926
 40
0.0196750474
 40
0.0435598051
 40
0.0766350963
 40
0.1185906273
 40
0.1690263425
 40
0.2274588821
 40
0.2933271133
 40
0.4447722176
 40
0.6175493755
 40
0.8050245869
 40
1.0
 40
1.0
 40
1.0
 40
1.0
 10
-5.0349048129
 20
18.1221154096
 30
0.0
 10
-5.035151033
 20
18.1221111118
 30
0.0
 10
-5.0354767707
 20
18.120993838
 30
0.0
 10
-5.0357975211
 20
18.1194075007
 30
0.0
 10
-5.0361530325
 20
18.1162499504
 30
0.0
 10
-5.0366503897
 20
18.1099560311
 30
0.0
 10
-5.0371619743
 20
18.0990012734
 30
0.0
 10
-5.0376492156
 20
18.0825463952
 30
0.0
 10
-5.0380357013
 20
18.0616191686
 30
0.0
 10
-5.0383163384
 20
18.0364780553
 30
0.0
 10
-5.0384843336
 20
18.0073434859
 30
0.0
 10
-5.0385573552
 20
17.9613692696
 30
0.0
 10
-5.0383235842
 20
17.8963297
 30
0.0
 10
-5.0376124342
 20
17.8110179417
 30
0.0
 10
-5.0364769811
 20
17.7184522853
 30
0.0
 10
-5.0354719827
 20
17.6546945988
 30
0.0
 10
-5.0349048129
 20
17.622191562
 30
0.0
  0
SPLINE
  5
5FC
100
AcDbEntity
  8
ASSI
100
AcDbSpline
 62
250
  6
CONTINUOUS
 70
0
 71
3
 72
9
 73
5
 74
0
 42
0.0000001
 43
0.0000001
 44
0.0000000001
 40
0.0
 40
0.0
 40
0.0
 40
0.0
 40
0.4999896146
 40
1.0
 40
1.0
 40
1.0
 40
1.0
 10
5.6821314735
 20
-23.5908941786
 30
0.0
 10
5.8750481835
 20
-23.5875263679
 30
0.0
 10
6.2633130333
 20
-23.5048034215
 30
0.0
 10
6.5905848892
 20
-23.280110832
 30
0.0
 10
6.7258285376
 20
-23.1424865323
 30
0.0
  0
SPLINE
  5
5FD
100
AcDbEntity
  8
ASSI
100
AcDbSpline
 62
250
  6
CONTINUOUS
 70
0
 71
3
 72
23
 73
19
 74
0
 42
0.0000001
 43
0.0000001
 44
0.0000000001
 40
0.0
 40
0.0
 40
0.0
 40
0.0
 40
0.1949744397
 40
0.3824502479
 40
0.5552274371
 40
0.6340018467
 40
0.70667258
 40
0.7725407902
 40
0.8309733255
 40
0.8814089852
 40
0.9233643812
 40
0.9564395427
 40
0.9695466722
 40
0.9803248653
 40
0.9887520886
 40
0.9948155661
 40
0.9985231188
 40
1.0
 40
1.0
 40
1.0
 40
1.0
 10
8.55236869
 20
-21.5408701541
 30
0.0
 10
8.5535030249
 20
-21.6058759581
 30
0.0
 10
8.5555132583
 20
-21.7333913414
 30
0.0
 10
8.557783145
 20
-21.9185225778
 30
0.0
 10
8.5590063101
 20
-22.0649149954
 30
0.0
 10
8.5595045966
 20
-22.1730283779
 30
0.0
 10
8.559632758
 20
-22.2454930825
 30
0.0
 10
8.5595276765
 20
-22.311175026
 30
0.0
 10
8.5591914571
 20
-22.3694406652
 30
0.0
 10
8.5586314309
 20
-22.4197334514
 30
0.0
 10
8.5578548138
 20
-22.4615578754
 30
0.0
 10
8.5569949955
 20
-22.4909515408
 30
0.0
 10
8.5561530626
 20
-22.5099044045
 30
0.0
 10
8.5555214398
 20
-22.5207095138
 30
0.0
 10
8.5548649616
 20
-22.5289851231
 30
0.0
 10
8.5541539705
 20
-22.5353023288
 30
0.0
 10
8.5535129108
 20
-22.5384748817
 30
0.0
 10
8.5528610922
 20
-22.5407092543
 30
0.0
 10
8.55236869
 20
-22.5407178492
 30
0.0
  0
SPLINE
  5
5FE
100
AcDbEntity
  8
ASSI
100
AcDbSpline
 62
250
  6
CONTINUOUS
 70
0
 71
3
 72
23
 73
19
 74
0
 42
0.0000001
 43
0.0000001
 44
0.0000000001
 40
0.0
 40
0.0
 40
0.0
 40
0.0
 40
0.1956757598
 40
0.3834784249
 40
0.5563039434
 40
0.6350286623
 40
0.7076163053
 40
0.7733791325
 40
0.8316941888
 40
0.8820092842
 40
0.9238485056
 40
0.9568172452
 40
0.9698755084
 40
0.980607449
 40
0.9889897852
 40
0.9950063908
 40
0.9986545494
 40
1.0
 40
1.0
 40
1.0
 40
1.0
 10
8.55236869
 20
-21.5408701541
 30
0.0
 10
8.597929787
 20
-21.5864451326
 30
0.0
 10
8.6871133398
 20
-21.6758668849
 30
0.0
 10
8.8161692595
 20
-21.805908176
 30
0.0
 10
8.9178099882
 20
-21.9088922051
 30
0.0
 10
8.9925944809
 20
-21.9850687982
 30
0.0
 10
9.0425746198
 20
-22.0361850855
 30
0.0
 10
9.087744988
 20
-22.0826038354
 30
0.0
 10
9.1276764231
 20
-22.1238835422
 30
0.0
 10
9.1619971883
 20
-22.1596338615
 30
0.0
 10
9.1903694766
 20
-22.1895067182
 30
0.0
 10
9.210155816
 20
-22.2106501181
 30
0.0
 10
9.222751905
 20
-22.2244212629
 30
0.0
 10
9.2298825072
 20
-22.2323440281
 30
0.0
 10
9.2351778601
 20
-22.2384911314
 30
0.0
 10
9.2392890339
 20
-22.2432856881
 30
0.0
 10
9.2408902999
 20
-22.2458040418
 30
0.0
 10
9.2423363869
 20
-22.2476636131
 30
0.0
 10
9.2420230647
 20
-22.2479769353
 30
0.0
  0
SPLINE
  5
5FF
100
AcDbEntity
  8
ASSI
100
AcDbSpline
 62
250
  6
CONTINUOUS
 70
0
 71
3
 72
23
 73
19
 74
0
 42
0.0000001
 43
0.0000001
 44
0.0000000001
 40
0.0
 40
0.0
 40
0.0
 40
0.0
 40
0.1956757599
 40
0.383478425
 40
0.5563039435
 40
0.6350286624
 40
0.7076163055
 40
0.7733791327
 40
0.831694189
 40
0.8820092844
 40
0.9238485058
 40
0.9568172453
 40
0.9698755085
 40
0.9806074491
 40
0.9889897853
 40
0.9950063908
 40
0.9986545494
 40
1.0
 40
1.0
 40
1.0
 40
1.0
 10
10.1674524064
 20
-19.9257864376
 30
0.0
 10
10.2130135035
 20
-19.9713614162
 30
0.0
 10
10.3021970563
 20
-20.0607831685
 30
0.0
 10
10.431252976
 20
-20.1908244596
 30
0.0
 10
10.5328937048
 20
-20.2938084888
 30
0.0
 10
10.6076781975
 20
-20.3699850819
 30
0.0
 10
10.6576583363
 20
-20.4211013692
 30
0.0
 10
10.7028287045
 20
-20.4675201191
 30
0.0
 10
10.7427601396
 20
-20.5087998258
 30
0.0
 10
10.7770809048
 20
-20.5445501452
 30
0.0
 10
10.8054531932
 20
-20.5744230018
 30
0.0
 10
10.8252395325
 20
-20.5955664018
 30
0.0
 10
10.8378356215
 20
-20.6093375465
 30
0.0
 10
10.8449662237
 20
-20.6172603117
 30
0.0
 10
10.8502615766
 20
-20.623407415
 30
0.0
 10
10.8543727504
 20
-20.6282019717
 30
0.0
 10
10.8559740164
 20
-20.6307203254
 30
0.0
 10
10.8574201033
 20
-20.6325798967
 30
0.0
 10
10.8571067812
 20
-20.6328932188
 30
0.0
  0
SPLINE
  5
600
100
AcDbEntity
  8
ASSI
100
AcDbSpline
 62
250
  6
CONTINUOUS
 70
0
 71
3
 72
23
 73
19
 74
0
 42
0.0000001
 43
0.0000001
 44
0.0000000001
 40
0.0
 40
0.0
 40
0.0
 40
0.0
 40
0.1956757599
 40
0.383478425
 40
0.5563039435
 40
0.6350286624
 40
0.7076163054
 40
0.7733791326
 40
0.8316941889
 40
0.8820092843
 40
0.9238485057
 40
0.9568172452
 40
0.9698755084
 40
0.9806074491
 40
0.9889897853
 40
0.9950063908
 40
0.9986545494
 40
1.0
 40
1.0
 40
1.0
 40
1.0
 10
10.1674524064
 20
13.9457864376
 30
0.0
 10
10.2130135035
 20
13.9913614162
 30
0.0
 10
10.3021970563
 20
14.0807831685
 30
0.0
 10
10.431252976
 20
14.2108244596
 30
0.0
 10
10.5328937047
 20
14.3138084887
 30
0.0
 10
10.6076781975
 20
14.3899850818
 30
0.0
 10
10.6576583363
 20
14.4411013691
 30
0.0
 10
10.7028287045
 20
14.487520119
 30
0.0
 10
10.7427601396
 20
14.5287998258
 30
0.0
 10
10.7770809048
 20
14.5645501451
 30
0.0
 10
10.8054531931
 20
14.5944230018
 30
0.0
 10
10.8252395325
 20
14.6155664017
 30
0.0
 10
10.8378356215
 20
14.6293375465
 30
0.0
 10
10.8449662236
 20
14.6372603117
 30
0.0
 10
10.8502615766
 20
14.643407415
 30
0.0
 10
10.8543727504
 20
14.6482019717
 30
0.0
 10
10.8559740164
 20
14.6507203254
 30
0.0
 10
10.8574201033
 20
14.6525798967
 30
0.0
 10
10.8571067812
 20
14.6528932188
 30
0.0
  0
SPLINE
  5
601
100
AcDbEntity
  8
ASSI
100
AcDbSpline
 62
250
  6
CONTINUOUS
 70
0
 71
3
 72
23
 73
19
 74
0
 42
0.0000001
 43
0.0000001
 44
0.0000000001
 40
0.0
 40
0.0
 40
0.0
 40
0.0
 40
0.1956757598
 40
0.3834784249
 40
0.5563039434
 40
0.6350286623
 40
0.7076163053
 40
0.7733791326
 40
0.8316941888
 40
0.8820092842
 40
0.9238485056
 40
0.9568172452
 40
0.9698755084
 40
0.980607449
 40
0.9889897852
 40
0.9950063908
 40
0.9986545494
 40
1.0
 40
1.0
 40
1.0
 40
1.0
 10
8.55236869
 20
15.5608701541
 30
0.0
 10
8.597929787
 20
15.6064451326
 30
0.0
 10
8.6871133398
 20
15.6958668849
 30
0.0
 10
8.8161692595
 20
15.825908176
 30
0.0
 10
8.9178099882
 20
15.9288922051
 30
0.0
 10
8.992594481
 20
16.0050687982
 30
0.0
 10
9.0425746198
 20
16.0561850855
 30
0.0
 10
9.087744988
 20
16.1026038354
 30
0.0
 10
9.1276764231
 20
16.1438835422
 30
0.0
 10
9.1619971883
 20
16.1796338615
 30
0.0
 10
9.1903694766
 20
16.2095067182
 30
0.0
 10
9.210155816
 20
16.2306501181
 30
0.0
 10
9.222751905
 20
16.2444212629
 30
0.0
 10
9.2298825072
 20
16.2523440281
 30
0.0
 10
9.2351778601
 20
16.2584911314
 30
0.0
 10
9.2392890339
 20
16.2632856881
 30
0.0
 10
9.2408902999
 20
16.2658040418
 30
0.0
 10
9.2423363869
 20
16.2676636131
 30
0.0
 10
9.2420230647
 20
16.2679769353
 30
0.0
  0
SPLINE
  5
602
100
AcDbEntity
  8
ASSI
100
AcDbSpline
 62
250
  6
CONTINUOUS
 70
0
 71
3
 72
23
 73
19
 74
0
 42
0.0000001
 43
0.0000001
 44
0.0000000001
 40
0.0
 40
0.0
 40
0.0
 40
0.0
 40
0.1949744397
 40
0.3824502479
 40
0.555227437
 40
0.6340018467
 40
0.7066725799
 40
0.7725407902
 40
0.8309733255
 40
0.8814089851
 40
0.9233643811
 40
0.9564395427
 40
0.9695466722
 40
0.9803248653
 40
0.9887520885
 40
0.9948155661
 40
0.9985231188
 40
1.0
 40
1.0
 40
1.0
 40
1.0
 10
8.55236869
 20
15.5608701541
 30
0.0
 10
8.5535030249
 20
15.6258759581
 30
0.0
 10
8.5555132583
 20
15.7533913413
 30
0.0
 10
8.557783145
 20
15.9385225777
 30
0.0
 10
8.5590063101
 20
16.0849149953
 30
0.0
 10
8.5595045966
 20
16.1930283778
 30
0.0
 10
8.559632758
 20
16.2654930824
 30
0.0
 10
8.5595276765
 20
16.331175026
 30
0.0
 10
8.5591914571
 20
16.3894406651
 30
0.0
 10
8.5586314309
 20
16.4397334514
 30
0.0
 10
8.5578548138
 20
16.4815578753
 30
0.0
 10
8.5569949955
 20
16.5109515407
 30
0.0
 10
8.5561530626
 20
16.5299044044
 30
0.0
 10
8.5555214398
 20
16.5407095138
 30
0.0
 10
8.5548649616
 20
16.5489851231
 30
0.0
 10
8.5541539705
 20
16.5553023288
 30
0.0
 10
8.5535129108
 20
16.5584748817
 30
0.0
 10
8.5528610922
 20
16.5607092543
 30
0.0
 10
8.55236869
 20
16.5607178492
 30
0.0
  0
ELLIPSE
  5
603
100
AcDbEntity
  8
SUPERFICI
100
AcDbEllipse
 62
7
  6
CONTINUOUS
 10
-2.5
 20
19.3686937098
 30
0.0
 11
1.0205840068
 21
-0.0
 31
0.0
 40
0.0058178298
 41
-3.1415418822
 42
-2.0892111528
  0
ELLIPSE
  5
604
100
AcDbEntity
  8
SUPERFICI
100
AcDbEllipse
 62
7
  6
CONTINUOUS
 10
2.5
 20
19.3686937098
 30
0.0
 11
1.0205840068
 21
0.0
 31
0.0
 40
0.0058178298
 41
5.2308038064
 42
6.2831345357
  0
ELLIPSE
  5
605
100
AcDbEntity
  8
SUPERFICI
100
AcDbEllipse
 62
7
  6
CONTINUOUS
 10
2.5
 20
-25.3486937098
 30
0.0
 11
1.0205840068
 21
-0.0
 31
0.0
 40
0.0058178298
 41
0.0000507714
 42
1.0523815008
  0
ELLIPSE
  5
606
100
AcDbEntity
  8
SUPERFICI
100
AcDbEllipse
 62
7
  6
CONTINUOUS
 10
-2.5
 20
-25.3486937098
 30
0.0
 11
1.0205840068
 21
-0.0
 31
0.0
 40
0.0058178298
 41
2.0892111528
 42
3.1415418822
  0
ELLIPSE
  5
607
100
AcDbEntity
  8
SUPERFICI
100
AcDbEllipse
 62
7
  6
CONTINUOUS
 10
-3.9530427099
 20
19.3660930869
 30
0.0
 11
0.4530427099
 21
0.0
 31
0.0
 40
0.0058178298
 41
-3.1357748894
 42
-0.3023808704
  0
ELLIPSE
  5
608
100
AcDbEntity
  8
SUPERFICI
100
AcDbEllipse
 62
7
  6
CONTINUOUS
 10
3.9530427099
 20
19.3660930869
 30
0.0
 11
0.4530427099
 21
-0.0
 31
0.0
 40
0.0058178298
 41
-2.8392117832
 42
-0.0058177642
  0
ELLIPSE
  5
609
100
AcDbEntity
  8
SUPERFICI
100
AcDbEllipse
 62
7
  6
CONTINUOUS
 10
3.9530427099
 20
-25.3460930869
 30
0.0
 11
0.4530427099
 21
-0.0
 31
0.0
 40
0.0058178298
 41
0.0058177642
 42
2.8392117832
  0
ELLIPSE
  5
60A
100
AcDbEntity
  8
SUPERFICI
100
AcDbEllipse
 62
7
  6
CONTINUOUS
 10
-3.9530427099
 20
-25.3460930869
 30
0.0
 11
0.4530427099
 21
-0.0
 31
0.0
 40
0.0058178298
 41
0.3023808704
 42
3.1357748894
  0
ELLIPSE
  5
60B
100
AcDbEntity
  8
SUPERFICI
100
AcDbEllipse
 62
7
  6
CONTINUOUS
 10
8.1905965035
 20
-24.3259869487
 30
0.0
 11
1.0000571192
 21
0.9999809595
 31
0.0
 40
0.0061705924
 41
1.9467387334
 42
3.1419458735
  0
ELLIPSE
  5
60C
100
AcDbEntity
  8
SUPERFICI
100
AcDbEllipse
 62
7
  6
CONTINUOUS
 10
-8.1905965035
 20
-24.3259869487
 30
0.0
 11
1.0000571192
 21
-0.9999809595
 31
0.0
 40
0.0061705924
 41
-0.0003532199
 42
1.1948539202
  0
ELLIPSE
  5
60D
100
AcDbEntity
  8
SUPERFICI
100
AcDbEllipse
 62
7
  6
CONTINUOUS
 10
-8.1905965035
 20
18.3459869487
 30
0.0
 11
1.0000571192
 21
0.9999809595
 31
0.0
 40
0.0061705924
 41
-1.1948539202
 42
0.0003532199
  0
ELLIPSE
  5
60E
100
AcDbEntity
  8
SUPERFICI
100
AcDbEllipse
 62
7
  6
CONTINUOUS
 10
8.1905965035
 20
18.3459869487
 30
0.0
 11
1.0000571192
 21
-0.9999809595
 31
0.0
 40
0.0061705924
 41
3.1412394337
 42
4.3364465738
  0
ELLIPSE
  5
60F
100
AcDbEntity
  8
SUPERFICI
100
AcDbEllipse
 62
7
  6
CONTINUOUS
 10
-9.8999957691
 20
-26.4013248654
 30
0.0
 11
-0.0029088041
 21
0.2886641433
 31
0.0
 40
0.8660144118
 41
-0.0087264124
 42
1.5591610446
  0
ELLIPSE
  5
610
100
AcDbEntity
  8
SUPERFICI
100
AcDbEllipse
 62
7
  6
CONTINUOUS
 10
-7.5000042309
 20
-26.4013248654
 30
0.0
 11
0.0029088041
 21
0.2886641433
 31
0.0
 40
0.8660144118
 41
-1.5591610446
 42
0.0087264124
  0
ELLIPSE
  5
611
100
AcDbEntity
  8
SUPERFICI
100
AcDbEllipse
 62
7
  6
CONTINUOUS
 10
7.5000042309
 20
-26.4013248654
 30
0.0
 11
-0.0029088041
 21
0.2886641433
 31
0.0
 40
0.8660144118
 41
-0.0087264124
 42
1.5591610446
  0
ELLIPSE
  5
612
100
AcDbEntity
  8
SUPERFICI
100
AcDbEllipse
 62
7
  6
CONTINUOUS
 10
9.8999957691
 20
-26.4013248654
 30
0.0
 11
0.0029088041
 21
0.2886641433
 31
0.0
 40
0.8660144118
 41
-1.5591610446
 42
0.0087264124
  0
ELLIPSE
  5
613
100
AcDbEntity
  8
SUPERFICI
100
AcDbEllipse
 62
7
  6
CONTINUOUS
 10
-9.8999957691
 20
20.4213248654
 30
0.0
 11
0.0029088041
 21
0.2886641433
 31
0.0
 40
0.8660144118
 41
-4.7007536982
 42
-3.1328662412
  0
ELLIPSE
  5
614
100
AcDbEntity
  8
SUPERFICI
100
AcDbEllipse
 62
7
  6
CONTINUOUS
 10
-7.5000042309
 20
20.4213248654
 30
0.0
 11
-0.0029088041
 21
0.2886641433
 31
0.0
 40
0.8660144118
 41
-3.150319066
 42
-1.582431609
  0
ELLIPSE
  5
615
100
AcDbEntity
  8
SUPERFICI
100
AcDbEllipse
 62
7
  6
CONTINUOUS
 10
9.8999957691
 20
20.4213248654
 30
0.0
 11
-0.0029088041
 21
0.2886641433
 31
0.0
 40
0.8660144118
 41
-3.150319066
 42
-1.582431609
  0
ELLIPSE
  5
616
100
AcDbEntity
  8
SUPERFICI
100
AcDbEllipse
 62
7
  6
CONTINUOUS
 10
7.5000042309
 20
20.4213248654
 30
0.0
 11
0.0029088041
 21
0.2886641433
 31
0.0
 40
0.8660144118
 41
-4.7007536982
 42
-3.1328662412
  0
ELLIPSE
  5
617
100
AcDbEntity
  8
SUPERFICI
100
AcDbEllipse
 62
7
  6
CONTINUOUS
 10
1.2085749864
 20
20.8042851154
 30
0.0
 11
-0.1243375101
 21
0.1566832125
 31
0.0
 40
0.9998696711
 41
-0.6707382163
 42
0.9000073418
  0
ELLIPSE
  5
618
100
AcDbEntity
  8
SUPERFICI
100
AcDbEllipse
 62
7
  6
CONTINUOUS
 10
-1.2085749864
 20
20.8042851154
 30
0.0
 11
0.1243375101
 21
0.1566832125
 31
0.0
 40
0.9998696711
 41
-0.9000073419
 42
0.6707382162
  0
ELLIPSE
  5
619
100
AcDbEntity
  8
SUPERFICI
100
AcDbEllipse
 62
7
  6
CONTINUOUS
 10
-1.2085749864
 20
-26.7842851154
 30
0.0
 11
-0.1243375101
 21
0.1566832125
 31
0.0
 40
0.9998696711
 41
-3.8123308699
 42
-2.2415853118
  0
ELLIPSE
  5
61A
100
AcDbEntity
  8
SUPERFICI
100
AcDbEllipse
 62
7
  6
CONTINUOUS
 10
1.2085749864
 20
-26.7842851154
 30
0.0
 11
0.1243375101
 21
0.1566832125
 31
0.0
 40
0.9998696711
 41
-4.0415999954
 42
-2.4708544373
  0
ELLIPSE
  5
61B
100
AcDbEntity
  8
SUPERFICI
100
AcDbEllipse
 62
7
  6
CONTINUOUS
 10
-10.641254093
 20
-24.8841737085
 30
0.0
 11
0.4160498344
 21
0.2773626446
 31
0.0
 40
0.9999450019
 41
2.5536219432
 42
4.1243675013
  0
ELLIPSE
  5
61C
100
AcDbEntity
  8
SUPERFICI
100
AcDbEllipse
 62
7
  6
CONTINUOUS
 10
-10.641254093
 20
18.9041737085
 30
0.0
 11
-0.4160498344
 21
0.2773626446
 31
0.0
 40
0.9999450019
 41
-0.9827748477
 42
0.5879707104
  0
ELLIPSE
  5
61D
100
AcDbEntity
  8
SUPERFICI
100
AcDbEllipse
 62
7
  6
CONTINUOUS
 10
10.641254093
 20
18.9041737085
 30
0.0
 11
-0.4160498344
 21
-0.2773626446
 31
0.0
 40
0.9999450019
 41
2.5536219432
 42
4.1243675013
  0
ELLIPSE
  5
61E
100
AcDbEntity
  8
SUPERFICI
100
AcDbEllipse
 62
7
  6
CONTINUOUS
 10
10.641254093
 20
-24.8841737085
 30
0.0
 11
0.4160498344
 21
-0.2773626446
 31
0.0
 40
0.9999450019
 41
-0.9827748477
 42
0.5879707104
  0
ELLIPSE
  5
61F
100
AcDbEntity
  8
SUPERFICI
100
AcDbEllipse
 62
7
  6
CONTINUOUS
 10
-7.5666456542
 20
18.9637669705
 30
0.0
 11
0.4999904798
 21
0.5000285596
 31
0.0
 40
0.0061705924
 41
-3.1303103451
 42
-2.1029719701
  0
ELLIPSE
  5
620
100
AcDbEntity
  8
SUPERFICI
100
AcDbEllipse
 62
7
  6
CONTINUOUS
 10
7.5666456542
 20
18.9637669705
 30
0.0
 11
-0.4999904798
 21
0.5000285596
 31
0.0
 40
0.0061705924
 41
-4.1802133371
 42
-3.1528749621
  0
ELLIPSE
  5
621
100
AcDbEntity
  8
SUPERFICI
100
AcDbEllipse
 62
7
  6
CONTINUOUS
 10
7.5666456542
 20
-24.9437669705
 30
0.0
 11
0.4999904798
 21
0.5000285596
 31
0.0
 40
0.0061705924
 41
0.0112823085
 42
1.0386206835
  0
ELLIPSE
  5
622
100
AcDbEntity
  8
SUPERFICI
100
AcDbEllipse
 62
7
  6
CONTINUOUS
 10
-7.5666456542
 20
-24.9437669705
 30
0.0
 11
-0.4999904798
 21
0.5000285596
 31
0.0
 40
0.0061705924
 41
-1.0386206835
 42
-0.0112823085
  0
ELLIPSE
  5
623
100
AcDbEntity
  8
SUPERFICI
100
AcDbEllipse
 62
7
  6
CONTINUOUS
 10
-7.5666456542
 20
18.0016321118
 30
0.0
 11
0.5
 21
0.0
 31
0.0
 40
0.0087268678
 41
1.5707963268
 42
3.1241393611
  0
ELLIPSE
  5
624
100
AcDbEntity
  8
SUPERFICI
100
AcDbEllipse
 62
7
  6
CONTINUOUS
 10
7.5666456542
 20
18.0016321118
 30
0.0
 11
0.5
 21
-0.0
 31
0.0
 40
0.0087268678
 41
0.0174532925
 42
1.5707963268
  0
ELLIPSE
  5
625
100
AcDbEntity
  8
SUPERFICI
100
AcDbEllipse
 62
7
  6
CONTINUOUS
 10
7.5666456542
 20
-23.9816321118
 30
0.0
 11
0.5
 21
-0.0
 31
0.0
 40
0.0087268678
 41
-1.5707963268
 42
-0.0174532925
  0
ELLIPSE
  5
626
100
AcDbEntity
  8
SUPERFICI
100
AcDbEllipse
 62
7
  6
CONTINUOUS
 10
-7.5666456542
 20
-23.9816321118
 30
0.0
 11
0.5
 21
-0.0
 31
0.0
 40
0.0087268678
 41
-3.1241393611
 42
-1.5707963268
  0
ENDSEC
  0
SECTION
  2
OBJECTS
  0
DICTIONARY
  5
C
100
AcDbDictionary
280
0
281
1
  3
ACAD_GROUP
350
D
  3
ACAD_MLINESTYLE
350
17
  3
ACAD_LAYOUT
350
1A
  3
ACAD_PLOTSETTINGS
350
19
  3
ACAD_PLOTSTYLENAME
350
E
  0
DICTIONARY
  5
D
102
{ACAD_REACTORS
330
C
102
}
100
AcDbDictionary
280
0
281
1
  0
ACDBDICTIONARYWDFLT
  5
E
102
{ACAD_REACTORS
330
C
102
}
100
AcDbDictionary
281
1
  3
Normal
350
F
100
AcDbDictionaryWithDefault
340
F
  0
DICTIONARY
  5
17
102
{ACAD_REACTORS
330
C
102
}
100
AcDbDictionary
280
0
281
1
  3
Standard
350
18
  0
DICTIONARY
  5
19
102
{ACAD_REACTORS
330
C
102
}
100
AcDbDictionary
281
1
  0
DICTIONARY
  5
1A
102
{ACAD_REACTORS
330
C
102
}
100
AcDbDictionary
281
1
  3
Model
350
627
  3
Layout1
350
628
  0
ACDBPLACEHOLDER
  5
F
102
{ACAD_REACTORS
330
E
102
}
  0
MLINESTYLE
  5
18
102
{ACAD_REACTORS
330
17
102
}
100
AcDbMlineStyle
  2
STANDARD
 70
0
  3

 62
256
 51
90.0
 52
90.0
 71
2
 49
0.5
 62
256
  6
BYLAYER
 49
-0.5
 62
256
  6
BYLAYER
  0
LAYOUT
  5
627
102
{ACAD_REACTORS
330
1A
102
}
100
AcDbPlotSettings
  1

  2
none_device
  4
ISO_A4_(297.00_x_210.00_MM)
  6

 40
0.0
 41
0.0
 42
0.0
 43
0.0
 44
297.0
 45
210.0
 46
0.0
 47
0.0
 48
0.0
 49
0.0
140
0.0
141
0.0
142
1.0
143
1.0
 70
1024
 72
1
 73
0
 74
0
  7

 75
0
147
1.0
148
0.0
149
0.0
100
AcDbLayout
  1
Model
 70
0
 71
0
 10
0.0
 20
0.0
 11
297.0
 21
210.0
 12
0.0
 22
0.0
 32
0.0
 14
0.0
 24
0.0
 34
0.0
 15
0.0
 25
0.0
 35
0.0
146
0.0
 13
0.0
 23
0.0
 33
0.0
 16
1.0
 26
0.0
 36
0.0
 17
0.0
 27
1.0
 37
0.0
 76
0
330
2AD
345
0
346
0
  0
LAYOUT
  5
628
102
{ACAD_REACTORS
330
1A
102
}
100
AcDbPlotSettings
  1

  2
none_device
  4
ISO_A4_(297.00_x_210.00_MM)
  6

 40
0.0
 41
0.0
 42
0.0
 43
0.0
 44
297.0
 45
210.0
 46
0.0
 47
0.0
 48
0.0
 49
0.0
140
0.0
141
0.0
142
1.0
143
1.0
 70
0
 72
1
 73
0
 74
0
  7

 75
0
147
1.0
148
0.0
149
0.0
100
AcDbLayout
  1
Layout1
 70
0
 71
1
 10
0.0
 20
0.0
 11
297.0
 21
210.0
 12
0.0
 22
0.0
 32
0.0
 14
0.0
 24
0.0
 34
0.0
 15
0.0
 25
0.0
 35
0.0
146
0.0
 13
0.0
 23
0.0
 33
0.0
 16
1.0
 26
0.0
 36
0.0
 17
0.0
 27
1.0
 37
0.0
 76
0
330
2AE
345
0
346
0
  0
ENDSEC
  0
EOF
