0
SECTION
2
HEADER
9
$ACADVER
1
AC1015
9
$DWGCODEPAGE
3
ANSI_1252
9
$EXTMAX
10
297.0000000000
20
210.0000000000
30
0.0000000000
9
$EXTMIN
10
0.0000000000
20
0.0000000000
30
0.0000000000
9
$LIMMIN
10
0.0000000000
20
0.0000000000
9
$LIMMAX
10
297.0000000000
20
210.0000000000
9
$VIEWCTR
10
148.5000000000
20
105.0000000000
9
$VIEWSIZE
40
210.0000000000
9
$CLAYER
8
0
9
$LTSCALE
40
16.3350000000
9
$CELTYPE
6
BYLAYER
9
$DIMSCALE
40
1
9
$DIMASZ
40
3.0000000000
9
$DIMEXO
40
1.8562500000
9
$DIMDLI
40
11.2860000000
9
$DIMEXE
40
5.3460000000
9
$DIMCEN
40
2.6730000000
9
$DIMLFAC
40
1.0000000000
9
$DIMBLK
1
_FILLED
9
$DIMTXT
40
3.0000000000
9
$DIMTOL
70
1
9
$DIMLIM
70
0
9
$DIMTFAC
40
1.0000000000
9
$DIMTP
40
0.0100000000
9
$DIMTM
40
0.0100000000
9
$PDMODE
70
3
9
$PDSIZE
40
3.0000000000
9
$HANDSEED
5
3C9
9
$MEASUREMENT
70
1
9
$INSUNITS
70
4
0
ENDSEC
0
SECTION
2
CLASSES
0
CLASS
1
ACDBDICTIONARYWDFLT
2
AcDbDictionaryWithDefault
3
AutoCAD 2000
90
0
280
0
281
0
0
CLASS
1
ACDBPLACEHOLDER
2
AcDbPlaceHolder
3
AutoCAD 2000
90
0
280
0
281
0
0
CLASS
1
LAYOUT
2
AcDbLayout
3
AutoCAD 2000
90
0
280
0
281
0
0
ENDSEC
0
SECTION
2
TABLES
0
TABLE
2
VPORT
5
8
100
AcDbSymbolTable
70
2
0
VPORT
5
1F4
100
AcDbSymbolTableRecord
100
AcDbViewportTableRecord
2
*ACTIVE
70
0
10
0.0
20
0.0
11
1.0
21
1.0
12
148.5000000000
22
105.0000000000
13
0.0
23
0.0
14
1.0
24
1.0
15
0.0
25
0.0
16
0.0
26
0.0
36
1.0
17
0.0
27
0.0
37
0.0
40
210.0000000000
41
1.4142857143
42
50.0
43
0.0
44
0.0
50
0.0
51
0.0
71
0
72
100
73
1
74
1
75
0
76
0
77
0
78
0
0
ENDTAB
0
TABLE
2
LTYPE
5
5
100
AcDbSymbolTable
70
6
0
LTYPE
5
14
100
AcDbSymbolTableRecord
100
AcDbLinetypeTableRecord
2
BYBLOCK
70
0
3

72
65
73
0
40
0.0
0
LTYPE
5
15
100
AcDbSymbolTableRecord
100
AcDbLinetypeTableRecord
2
BYLAYER
70
0
3

72
65
73
0
40
0.0
0
LTYPE
5
16
100
AcDbSymbolTableRecord
100
AcDbLinetypeTableRecord
2
CONTINUOUS
70
64
3
Solid line
72
65
73
0
40
0
0
LTYPE
5
1F5
100
AcDbSymbolTableRecord
100
AcDbLinetypeTableRecord
2
CENTER
70
64
3
____ _ ____ _ ____ _ ____ _ ____ _ ____ _ ____
72
65
73
4
40
0.6
49
0.375
74
0
49
-0.075
74
0
49
0.075
74
0
49
-0.075
74
0
0
LTYPE
5
1F6
100
AcDbSymbolTableRecord
100
AcDbLinetypeTableRecord
2
HIDDEN
70
64
3
- - - - - - - - - - - - - - - - - - - -
72
65
73
2
40
0.2
49
0.1
74
0
49
-0.1
74
0
0
LTYPE
5
1F7
100
AcDbSymbolTableRecord
100
AcDbLinetypeTableRecord
2
PHANTOM
70
64
3
_____ _ _ _____ _ _ _____ _ _ _____
72
65
73
6
40
0.8
49
0.45
74
0
49
-0.05
74
0
49
0.1
74
0
49
-0.05
74
0
49
0.1
74
0
49
-0.05
74
0
0
LTYPE
5
1F8
100
AcDbSymbolTableRecord
100
AcDbLinetypeTableRecord
2
DOT
70
64
3
. . . . . . . . . . . . . . . . . . . .
72
65
73
2
40
0.2
49
0.1
74
0
49
-0.1
74
0
0
LTYPE
5
1F9
100
AcDbSymbolTableRecord
100
AcDbLinetypeTableRecord
2
DASHED
70
64
3
- - - - - - - - - - - - - - - - - - - -
72
65
73
2
40
0.2
49
0.1
74
0
49
-0.1
74
0
0
ENDTAB
0
TABLE
2
LAYER
5
2
100
AcDbSymbolTable
70
36
0
LAYER
5
10
100
AcDbSymbolTableRecord
100
AcDbLayerTableRecord
2
0
70
0
62
7
6
CONTINUOUS
370
-3
390
F
0
LAYER
5
1FA
100
AcDbSymbolTableRecord
100
AcDbLayerTableRecord
2
DEFAULT_1
70
0
62
7
6
CENTER
370
-3
390
F
0
LAYER
5
1FB
100
AcDbSymbolTableRecord
100
AcDbLayerTableRecord
2
DEFAULT_2
70
0
62
0
6
HIDDEN
370
-3
390
F
0
LAYER
5
1FC
100
AcDbSymbolTableRecord
100
AcDbLayerTableRecord
2
DEFAULT_3
70
0
62
7
6
PHANTOM
370
-3
390
F
0
LAYER
5
1FD
100
AcDbSymbolTableRecord
100
AcDbLayerTableRecord
2
_2D_DELETED_OBJS
70
0
62
7
6
CONTINUOUS
370
-3
390
F
0
LAYER
5
1FE
100
AcDbSymbolTableRecord
100
AcDbLayerTableRecord
2
_BLACK_HOLE
70
0
62
7
6
CONTINUOUS
370
-3
390
F
0
LAYER
5
1FF
100
AcDbSymbolTableRecord
100
AcDbLayerTableRecord
2
ASSI
70
0
62
7
6
CONTINUOUS
370
-3
390
F
0
LAYER
5
200
100
AcDbSymbolTableRecord
100
AcDbLayerTableRecord
2
COLOR5
70
0
62
7
6
CONTINUOUS
370
-3
390
F
0
LAYER
5
201
100
AcDbSymbolTableRecord
100
AcDbLayerTableRecord
2
COORDINATE
70
0
62
7
6
CONTINUOUS
370
-3
390
F
0
LAYER
5
202
100
AcDbSymbolTableRecord
100
AcDbLayerTableRecord
2
COORD_ORIGINE
70
0
62
7
6
CONTINUOUS
370
-3
390
F
0
LAYER
5
203
100
AcDbSymbolTableRecord
100
AcDbLayerTableRecord
2
COPERCHIO
70
0
62
7
6
CONTINUOUS
370
-3
390
F
0
LAYER
5
204
100
AcDbSymbolTableRecord
100
AcDbLayerTableRecord
2
COPY_PUBLISH
70
0
62
7
6
CONTINUOUS
370
-3
390
F
0
LAYER
5
205
100
AcDbSymbolTableRecord
100
AcDbLayerTableRecord
2
CORPO
70
0
62
7
6
CONTINUOUS
370
-3
390
F
0
LAYER
5
206
100
AcDbSymbolTableRecord
100
AcDbLayerTableRecord
2
COSMETIC
70
0
62
7
6
CONTINUOUS
370
-3
390
F
0
LAYER
5
207
100
AcDbSymbolTableRecord
100
AcDbLayerTableRecord
2
COSMETICI
70
0
62
7
6
CONTINUOUS
370
-3
390
F
0
LAYER
5
208
100
AcDbSymbolTableRecord
100
AcDbLayerTableRecord
2
CURVE
70
0
62
7
6
CONTINUOUS
370
-3
390
F
0
LAYER
5
209
100
AcDbSymbolTableRecord
100
AcDbLayerTableRecord
2
DRAFT
70
0
62
7
6
CONTINUOUS
370
-3
390
F
0
LAYER
5
20A
100
AcDbSymbolTableRecord
100
AcDbLayerTableRecord
2
IGES_SCRITTE
70
0
62
7
6
CONTINUOUS
370
-3
390
F
0
LAYER
5
20B
100
AcDbSymbolTableRecord
100
AcDbLayerTableRecord
2
IMPORT
70
0
62
7
6
CONTINUOUS
370
-3
390
F
0
LAYER
5
20C
100
AcDbSymbolTableRecord
100
AcDbLayerTableRecord
2
IMPORT_IGES
70
0
62
7
6
CONTINUOUS
370
-3
390
F
0
LAYER
5
20D
100
AcDbSymbolTableRecord
100
AcDbLayerTableRecord
2
IMPORT_SCRITTE
70
0
62
7
6
CONTINUOUS
370
-3
390
F
0
LAYER
5
20E
100
AcDbSymbolTableRecord
100
AcDbLayerTableRecord
2
NOTE
70
0
62
7
6
CONTINUOUS
370
-3
390
F
0
LAYER
5
20F
100
AcDbSymbolTableRecord
100
AcDbLayerTableRecord
2
PIANI
70
0
62
7
6
CONTINUOUS
370
-3
390
F
0
LAYER
5
210
100
AcDbSymbolTableRecord
100
AcDbLayerTableRecord
2
PIANI_DI_RIFERIMENTO
70
0
62
7
6
CONTINUOUS
370
-3
390
F
0
LAYER
5
211
100
AcDbSymbolTableRecord
100
AcDbLayerTableRecord
2
PIANI_ORIGINE
70
0
62
7
6
CONTINUOUS
370
-3
390
F
0
LAYER
5
212
100
AcDbSymbolTableRecord
100
AcDbLayerTableRecord
2
PIANI_RIFERIMENTO
70
0
62
7
6
CONTINUOUS
370
-3
390
F
0
LAYER
5
213
100
AcDbSymbolTableRecord
100
AcDbLayerTableRecord
2
PIANI_STAMPO
70
0
62
7
6
CONTINUOUS
370
-3
390
F
0
LAYER
5
214
100
AcDbSymbolTableRecord
100
AcDbLayerTableRecord
2
PUNTI
70
0
62
7
6
CONTINUOUS
370
-3
390
F
0
LAYER
5
215
100
AcDbSymbolTableRecord
100
AcDbLayerTableRecord
2
RACCORDO
70
0
62
7
6
CONTINUOUS
370
-3
390
F
0
LAYER
5
216
100
AcDbSymbolTableRecord
100
AcDbLayerTableRecord
2
SMUSSO
70
0
62
7
6
CONTINUOUS
370
-3
390
F
0
LAYER
5
217
100
AcDbSymbolTableRecord
100
AcDbLayerTableRecord
2
SUPERFICI
70
0
62
7
6
CONTINUOUS
370
-3
390
F
0
LAYER
5
218
100
AcDbSymbolTableRecord
100
AcDbLayerTableRecord
2
TRASH
70
0
62
7
6
CONTINUOUS
370
-3
390
F
0
LAYER
5
219
100
AcDbSymbolTableRecord
100
AcDbLayerTableRecord
2
XSEC_DATUMS
70
0
62
7
6
CONTINUOUS
370
-3
390
F
0
ENDTAB
0
TABLE
2
STYLE
5
3
100
AcDbSymbolTable
70
1
0
STYLE
5
11
100
AcDbSymbolTableRecord
100
AcDbTextStyleTableRecord
2
STANDARD
70
0
40
0.0
41
0.8000000000
50
0.0
71
0
42
0.2
3
txt
4

0
ENDTAB
0
TABLE
2
VIEW
5
6
100
AcDbSymbolTable
70
0
0
ENDTAB
0
TABLE
2
UCS
5
7
100
AcDbSymbolTable
70
0
0
ENDTAB
0
TABLE
2
APPID
5
9
100
AcDbSymbolTable
70
1
0
APPID
5
21A
100
AcDbSymbolTableRecord
100
AcDbRegAppTableRecord
2
ACAD
70
0
0
ENDTAB
0
TABLE
2
BLOCK_RECORD
5
1
100
AcDbSymbolTable
70
0
0
BLOCK_RECORD
5
1F
100
AcDbSymbolTableRecord
100
AcDbBlockTableRecord
2
*MODEL_SPACE
0
BLOCK_RECORD
5
1B
100
AcDbSymbolTableRecord
100
AcDbBlockTableRecord
2
*PAPER_SPACE
0
ENDTAB
0
TABLE
2
DIMSTYLE
5
A
100
AcDbSymbolTable
70
1
100
AcDbDimStyleTable
71
0
0
DIMSTYLE
105
21B
100
AcDbSymbolTableRecord
100
AcDbDimStyleTableRecord
2
STANDARD
70
0
3

4

40
1.0
41
3.0000000000
42
0.0625
43
0.38
44
0.18
45
0.0
46
0.0
47
0.0100000000
48
0.0100000000
140
3.0000000000
141
0.09
142
0.0
143
25.4
144
1.0000000000
145
0.0
146
1.0000000000
147
0.09
71
1
72
0
73
0
74
0
75
0
76
0
77
1
78
8
170
0
171
2
172
0
173
0
174
0
175
0
176
0
177
0
178
0
270
2
271
2
272
2
273
2
274
2
275
0
280
0
281
0
282
0
283
1
284
8
285
0
286
0
287
3
288
0
340
11
0
ENDTAB
0
ENDSEC
0
SECTION
2
BLOCKS
0
BLOCK
5
20
100
AcDbEntity
8
0
100
AcDbBlockBegin
2
*MODEL_SPACE
70
0
10
0.0
20
0.0
30
0.0
3
*MODEL_SPACE
1

0
ENDBLK
5
21
100
AcDbEntity
8
0
100
AcDbBlockEnd
0
BLOCK
5
1C
100
AcDbEntity
8
0
100
AcDbBlockBegin
2
*PAPER_SPACE
70
0
10
0.0
20
0.0
30
0.0
3
*PAPER_SPACE
1

0
ENDBLK
5
1D
100
AcDbEntity
8
0
100
AcDbBlockEnd
0
ENDSEC
0
SECTION
2
ENTITIES
0
LWPOLYLINE
5
21C
100
AcDbEntity
8
0
100
AcDbPolyline
62
0
6
CONTINUOUS
90
10
70
0
10
-73.0219935808
20
-34.9212526235
10
-72.7088591352
20
-35.4534402631
10
-72.3412950859
20
-36.0139198388
10
-71.9577389297
20
-36.5351541915
10
-71.5579387063
20
-37.0186597981
10
-71.1426986483
20
-37.4644365099
10
-70.7144050091
20
-37.8712919180
10
-70.2744675916
20
-38.2396306310
10
-69.8229178619
20
-38.5710594641
10
-69.5018042936
20
-38.7806559544
0
LINE
5
21D
100
AcDbEntity
8
0
100
AcDbLine
62
0
6
CONTINUOUS
10
-73.3213187131
20
-33.9592037242
11
-73.3213224555
21
47.6929507111
0
LINE
5
21E
100
AcDbEntity
8
0
100
AcDbLine
62
0
6
CONTINUOUS
10
-71.3436659046
20
49.8769172767
11
-71.3436659044
21
49.6900687263
0
LINE
5
21F
100
AcDbEntity
8
0
100
AcDbLine
62
0
6
CONTINUOUS
10
-71.2359929541
20
-35.8776811412
11
-71.2358422948
21
-35.8512228045
0
LINE
5
220
100
AcDbEntity
8
0
100
AcDbLine
62
0
6
CONTINUOUS
10
-70.2505163115
20
-21.4705802468
11
-70.2505163097
21
-22.2517651230
0
LINE
5
221
100
AcDbEntity
8
0
100
AcDbLine
62
0
6
CONTINUOUS
10
-70.0181819054
20
19.3621653432
11
-70.0181818865
21
19.7344930245
0
LINE
5
222
100
AcDbEntity
8
0
100
AcDbLine
62
0
6
CONTINUOUS
10
-69.5279356649
20
46.0941500118
11
-69.5279356598
21
45.7952070274
0
LINE
5
223
100
AcDbEntity
8
0
100
AcDbLine
62
0
6
CONTINUOUS
10
-68.3989603056
20
-39.0831628501
11
-68.3989602922
21
-39.0782571492
0
LINE
5
224
100
AcDbEntity
8
0
100
AcDbLine
62
0
6
CONTINUOUS
10
-68.2085835895
20
40.1090500544
11
-68.2085836418
21
41.0621786139
0
LWPOLYLINE
5
225
100
AcDbEntity
8
0
100
AcDbPolyline
62
0
6
CONTINUOUS
90
10
70
0
10
-69.5041620030
20
-38.7791883713
10
-69.4590993714
20
-38.8064002516
10
-69.3404957659
20
-38.8702236329
10
-69.2164209350
20
-38.9261921416
10
-69.0870370755
20
-38.9741156087
10
-68.9529873275
20
-39.0136653229
10
-68.8149917091
20
-39.0445521913
10
-68.6732904574
20
-39.0665751129
10
-68.5283999623
20
-39.0795043752
10
-68.3989603074
20
-39.0831585455
0
LINE
5
226
100
AcDbEntity
8
0
100
AcDbLine
62
0
6
CONTINUOUS
10
-69.5018027938
20
-38.7806568853
11
-69.5041157233
21
-38.7792173504
0
LINE
5
227
100
AcDbEntity
8
0
100
AcDbLine
62
0
6
CONTINUOUS
10
-58.0213187131
20
20.5671404725
11
-58.0213187131
21
28.4900687263
0
LINE
5
228
100
AcDbEntity
8
0
100
AcDbLine
62
0
6
CONTINUOUS
10
-57.9962960402
20
29.1439669380
11
-57.9962960402
21
20.8729385575
0
LINE
5
229
100
AcDbEntity
8
0
100
AcDbLine
62
0
6
CONTINUOUS
10
-57.8213187131
20
30.3745977924
11
-57.8213187131
21
28.4900687263
0
LINE
5
22A
100
AcDbEntity
8
0
100
AcDbLine
62
0
6
CONTINUOUS
10
-57.6725879851
20
28.4900687263
11
-57.6725879851
21
19.3621653432
0
LINE
5
22B
100
AcDbEntity
8
0
100
AcDbLine
62
0
6
CONTINUOUS
10
-40.3700494411
20
24.3413379983
11
-40.2213187131
21
24.4900687263
0
LINE
5
22C
100
AcDbEntity
8
0
100
AcDbLine
62
0
6
CONTINUOUS
10
-16.5180476172
20
40.7982041684
11
-17.2071993750
21
40.1090524106
0
LINE
5
22D
100
AcDbEntity
8
0
100
AcDbLine
62
0
6
CONTINUOUS
10
-25.5226333310
20
31.3213017216
11
-25.6538663263
21
31.1900687263
0
LINE
5
22E
100
AcDbEntity
8
0
100
AcDbLine
62
0
6
CONTINUOUS
10
-35.9562288430
20
-18.0273910807
11
-35.9213187131
21
-18.7553315492
0
LINE
5
22F
100
AcDbEntity
8
0
100
AcDbLine
62
0
6
CONTINUOUS
10
-38.7479020746
20
-12.0273910807
11
-38.9213187131
21
-6.0578212635
0
LINE
5
230
100
AcDbEntity
8
0
100
AcDbLine
62
0
6
CONTINUOUS
10
-40.3700494411
20
24.3413379983
11
-40.3700494411
21
28.4900687263
0
LINE
5
231
100
AcDbEntity
8
0
100
AcDbLine
62
0
6
CONTINUOUS
10
-40.2213187131
20
24.4900687263
11
-40.2213187131
21
28.4900687263
0
LINE
5
232
100
AcDbEntity
8
0
100
AcDbLine
62
0
6
CONTINUOUS
10
-40.0213187131
20
25.4900687263
11
-40.0213187131
21
28.4900687263
0
LINE
5
233
100
AcDbEntity
8
0
100
AcDbLine
62
0
6
CONTINUOUS
10
-38.9213187131
20
-18.7553315492
11
-38.9213187131
21
-6.0578212635
0
LINE
5
234
100
AcDbEntity
8
0
100
AcDbLine
62
0
6
CONTINUOUS
10
-36.9831989285
20
6.9400687263
11
-36.9831989285
21
4.4400687263
0
LINE
5
235
100
AcDbEntity
8
0
100
AcDbLine
62
0
6
CONTINUOUS
10
-36.5213187131
20
6.9400687263
11
-36.5213187131
21
4.4400687263
0
LINE
5
236
100
AcDbEntity
8
0
100
AcDbLine
62
0
6
CONTINUOUS
10
-36.0213187131
20
4.4400687263
11
-36.0213187131
21
6.9400687263
0
LINE
5
237
100
AcDbEntity
8
0
100
AcDbLine
62
0
6
CONTINUOUS
10
-35.9562288430
20
-7.2595425016
11
-35.9562288430
21
-18.0273910807
0
LINE
5
238
100
AcDbEntity
8
0
100
AcDbLine
62
0
6
CONTINUOUS
10
-35.9213187131
20
-18.7553315492
11
-35.9213187131
21
-6.0578212635
0
LINE
5
239
100
AcDbEntity
8
0
100
AcDbLine
62
0
6
CONTINUOUS
10
-35.5594384978
20
4.4400687263
11
-35.5594384978
21
6.9400687263
0
LINE
5
23A
100
AcDbEntity
8
0
100
AcDbLine
62
0
6
CONTINUOUS
10
-34.5213187131
20
24.6900687263
11
-34.5213187131
21
24.4900687263
0
LINE
5
23B
100
AcDbEntity
8
0
100
AcDbLine
62
0
6
CONTINUOUS
10
-34.5200040952
20
31.3213017216
11
-34.5200040952
21
28.1900687263
0
LINE
5
23C
100
AcDbEntity
8
0
100
AcDbLine
62
0
6
CONTINUOUS
10
-35.9213187131
20
-6.0578212635
11
-36.0947353516
21
-12.0273910807
0
LINE
5
23D
100
AcDbEntity
8
0
100
AcDbLine
62
0
6
CONTINUOUS
10
-38.8864085833
20
-18.0273910807
11
-38.9213187131
21
-18.7553315492
0
LINE
5
23E
100
AcDbEntity
8
0
100
AcDbLine
62
0
6
CONTINUOUS
10
-10.4802280909
20
39.5009045241
11
-11.1693798487
21
38.8117527663
0
LWPOLYLINE
5
23F
100
AcDbEntity
8
0
100
AcDbPolyline
62
0
6
CONTINUOUS
90
10
70
0
10
70.3563226877
20
-39.0831585630
10
70.4978044739
20
-39.0787889562
10
70.6418161726
20
-39.0651827749
10
70.7826381858
20
-39.0425789742
10
70.9197591403
20
-39.0112047973
10
71.0529348716
20
-38.9712602582
10
71.1814560999
20
-38.9230265592
10
71.3046900568
20
-38.8668342899
10
71.4224725692
20
-38.8028704757
10
71.4612444659
20
-38.7793630133
0
LINE
5
240
100
AcDbEntity
8
0
100
AcDbLine
62
0
6
CONTINUOUS
10
70.3563226866
20
-39.0831628501
11
-68.3989602919
21
-39.0831628501
0
LINE
5
241
100
AcDbEntity
8
0
100
AcDbLine
62
0
6
CONTINUOUS
10
70.3563226912
20
-39.0782572489
11
-68.3989601146
21
-39.0782572488
0
LINE
5
242
100
AcDbEntity
8
0
100
AcDbLine
62
0
6
CONTINUOUS
10
-34.3887710999
20
31.1900687263
11
-34.3887710999
21
28.1900687263
0
LINE
5
243
100
AcDbEntity
8
0
100
AcDbLine
62
0
6
CONTINUOUS
10
-32.4831989285
20
6.9400684509
11
-32.4831989285
21
4.4400690028
0
LINE
5
244
100
AcDbEntity
8
0
100
AcDbLine
62
0
6
CONTINUOUS
10
-32.0213187131
20
6.9400687263
11
-32.0213187131
21
4.4400687263
0
LINE
5
245
100
AcDbEntity
8
0
100
AcDbLine
62
0
6
CONTINUOUS
10
-31.5213187131
20
4.4400687263
11
-31.5213187131
21
6.9400687263
0
LINE
5
246
100
AcDbEntity
8
0
100
AcDbLine
62
0
6
CONTINUOUS
10
-31.0594384978
20
4.4400691336
11
-31.0594384978
21
6.9400691364
0
LINE
5
247
100
AcDbEntity
8
0
100
AcDbLine
62
0
6
CONTINUOUS
10
73.1933562404
20
-35.8776811412
11
-71.2359929541
21
-35.8776811412
0
LINE
5
248
100
AcDbEntity
8
0
100
AcDbLine
62
0
6
CONTINUOUS
10
-71.3214993087
20
-35.6903972733
11
73.2788618824
21
-35.6903972733
0
LINE
5
249
100
AcDbEntity
8
0
100
AcDbLine
62
0
6
CONTINUOUS
10
-25.6538663263
20
28.1900687263
11
-25.6538663263
21
31.1900687263
0
LINE
5
24A
100
AcDbEntity
8
0
100
AcDbLine
62
0
6
CONTINUOUS
10
-25.5226333310
20
28.1900687263
11
-25.5226333310
21
31.3213017216
0
LINE
5
24B
100
AcDbEntity
8
0
100
AcDbLine
62
0
6
CONTINUOUS
10
-25.5213187131
20
24.4900687263
11
-25.5213187131
21
24.6900687263
0
LINE
5
24C
100
AcDbEntity
8
0
100
AcDbLine
62
0
6
CONTINUOUS
10
-6.5378809576
20
29.4397339932
11
-5.8487291998
21
30.1288857510
0
LINE
5
24D
100
AcDbEntity
8
0
100
AcDbLine
62
0
6
CONTINUOUS
10
-17.2071993750
20
40.1090509143
11
-17.2071993750
21
41.0621786517
0
LINE
5
24E
100
AcDbEntity
8
0
100
AcDbLine
62
0
6
CONTINUOUS
10
16.3754239265
20
43.4387377859
11
12.4375906646
21
39.5009045241
0
LINE
5
24F
100
AcDbEntity
8
0
100
AcDbLine
62
0
6
CONTINUOUS
10
18.0585326427
20
43.7435429867
11
13.1267424224
21
38.8117527663
0
LINE
5
250
100
AcDbEntity
8
0
100
AcDbLine
62
0
6
CONTINUOUS
10
18.4767401583
20
40.7995341357
11
7.8060917735
21
30.1288857510
0
LINE
5
251
100
AcDbEntity
8
0
100
AcDbLine
62
0
6
CONTINUOUS
10
73.1641990089
20
-20.2022448663
11
74.1625016318
21
-20.1747427937
0
LINE
5
252
100
AcDbEntity
8
0
100
AcDbLine
62
0
6
CONTINUOUS
10
-70.2505162900
20
-22.2517651230
11
72.2078788662
21
-22.2517651257
0
LINE
5
253
100
AcDbEntity
8
0
100
AcDbLine
62
0
6
CONTINUOUS
10
-70.2505163115
20
-21.4705802468
11
72.2078788871
21
-21.4705802536
0
LINE
5
254
100
AcDbEntity
8
0
100
AcDbLine
62
0
6
CONTINUOUS
10
-71.2068364339
20
-20.2022448532
11
-72.2051242589
21
-20.1747435843
0
LINE
5
255
100
AcDbEntity
8
0
100
AcDbLine
62
0
6
CONTINUOUS
10
-14.4180613527
20
43.4387377859
11
-14.4180613538
21
44.4104864942
0
LINE
5
256
100
AcDbEntity
8
0
100
AcDbLine
62
0
6
CONTINUOUS
10
-10.4802280909
20
39.5009045241
11
-10.4802280909
21
38.7348600810
0
LINE
5
257
100
AcDbEntity
8
0
100
AcDbLine
62
0
6
CONTINUOUS
10
12.4375906646
20
38.7348600810
11
6.6861923260
21
29.3490480399
0
LINE
5
258
100
AcDbEntity
8
0
100
AcDbLine
62
0
6
CONTINUOUS
10
19.1645604500
20
40.1090509118
11
8.4952435313
21
29.4397339932
0
LINE
5
259
100
AcDbEntity
8
0
100
AcDbLine
62
0
6
CONTINUOUS
10
37.8786812869
20
-18.7553315492
11
40.8786812869
21
-18.7553315492
0
LINE
5
25A
100
AcDbEntity
8
0
100
AcDbLine
62
0
6
CONTINUOUS
10
-35.9213187131
20
-18.7553315492
11
-38.9213187131
21
-18.7553315492
0
LINE
5
25B
100
AcDbEntity
8
0
100
AcDbLine
62
0
6
CONTINUOUS
10
37.9135914167
20
-18.0273910807
11
40.8437711570
21
-18.0273910807
0
LINE
5
25C
100
AcDbEntity
8
0
100
AcDbLine
62
0
6
CONTINUOUS
10
-35.9562288430
20
-18.0273910807
11
-38.8864085833
21
-18.0273910807
0
LINE
5
25D
100
AcDbEntity
8
0
100
AcDbLine
62
0
6
CONTINUOUS
10
-6.9831989285
20
8.1900687263
11
-6.9831989285
21
5.1900687263
0
LINE
5
25E
100
AcDbEntity
8
0
100
AcDbLine
62
0
6
CONTINUOUS
10
-6.5213187131
20
8.1900687263
11
-6.5213187131
21
5.1900687263
0
LINE
5
25F
100
AcDbEntity
8
0
100
AcDbLine
62
0
6
CONTINUOUS
10
-6.0213187131
20
5.1900687263
11
-6.0213187131
21
8.1900687263
0
LINE
5
260
100
AcDbEntity
8
0
100
AcDbLine
62
0
6
CONTINUOUS
10
-5.5594384978
20
5.1900687263
11
-5.5594384978
21
8.1900687263
0
LINE
5
261
100
AcDbEntity
8
0
100
AcDbLine
62
0
6
CONTINUOUS
10
-4.7288297523
20
28.5830035968
11
-4.7288297523
21
29.3490480399
0
LINE
5
262
100
AcDbEntity
8
0
100
AcDbLine
62
0
6
CONTINUOUS
10
-4.5213187131
20
33.5384166538
11
-4.5213187131
21
35.1453856780
0
LINE
5
263
100
AcDbEntity
8
0
100
AcDbLine
62
0
6
CONTINUOUS
10
13.1267424224
20
38.8117527663
11
7.8060917735
21
30.1288857510
0
LINE
5
264
100
AcDbEntity
8
0
100
AcDbLine
62
0
6
CONTINUOUS
10
-38.7816647294
20
-12.0273910807
11
-35.9562288430
21
-12.0273910807
0
LINE
5
265
100
AcDbEntity
8
0
100
AcDbLine
62
0
6
CONTINUOUS
10
37.9135914167
20
-12.0273910807
11
40.7390273031
21
-12.0273910807
0
LINE
5
266
100
AcDbEntity
8
0
100
AcDbLine
62
0
6
CONTINUOUS
10
-36.0048468384
20
-8.9331334568
11
-35.9562288430
21
-8.9331334568
0
LINE
5
267
100
AcDbEntity
8
0
100
AcDbLine
62
0
6
CONTINUOUS
10
-36.0019418277
20
-8.8331334568
11
-35.9562288430
21
-8.8331334568
0
LINE
5
268
100
AcDbEntity
8
0
100
AcDbLine
62
0
6
CONTINUOUS
10
-2.6213187131
20
36.6652584267
11
-2.6213187131
21
36.4794302981
0
LINE
5
269
100
AcDbEntity
8
0
100
AcDbLine
62
0
6
CONTINUOUS
10
37.8786812869
20
-6.0578212635
11
40.8786812869
21
-6.0578212635
0
LINE
5
26A
100
AcDbEntity
8
0
100
AcDbLine
62
0
6
CONTINUOUS
10
-35.9213187131
20
-6.0578212635
11
-38.9213187131
21
-6.0578212635
0
LINE
5
26B
100
AcDbEntity
8
0
100
AcDbLine
62
0
6
CONTINUOUS
10
-34.5200040952
20
31.3213017216
11
-34.3887710999
21
31.1900687263
0
LINE
5
26C
100
AcDbEntity
8
0
100
AcDbLine
62
0
6
CONTINUOUS
10
4.5786812869
20
36.6652584267
11
4.5786812869
21
36.4794302981
0
LINE
5
26D
100
AcDbEntity
8
0
100
AcDbLine
62
0
6
CONTINUOUS
10
6.4786812869
20
35.1453856780
11
6.4786812869
21
33.5384166538
0
LINE
5
26E
100
AcDbEntity
8
0
100
AcDbLine
62
0
6
CONTINUOUS
10
6.6861923260
20
28.5830035968
11
6.6861923260
21
29.3490480399
0
LINE
5
26F
100
AcDbEntity
8
0
100
AcDbLine
62
0
6
CONTINUOUS
10
7.5168010715
20
8.1900687263
11
7.5168010715
21
5.1900687263
0
LINE
5
270
100
AcDbEntity
8
0
100
AcDbLine
62
0
6
CONTINUOUS
10
36.4773666690
20
31.3213017216
11
36.3461336737
21
31.1900687263
0
LINE
5
271
100
AcDbEntity
8
0
100
AcDbLine
62
0
6
CONTINUOUS
10
38.9405615022
20
4.4400690356
11
38.4786812869
21
4.4400687263
0
LINE
5
272
100
AcDbEntity
8
0
100
AcDbLine
62
0
6
CONTINUOUS
10
-32.4831989285
20
4.4400690028
11
-32.0213187131
21
4.4400687263
0
LINE
5
273
100
AcDbEntity
8
0
100
AcDbLine
62
0
6
CONTINUOUS
10
-36.9831989285
20
4.4400687263
11
-36.5213187131
21
4.4400687263
0
LINE
5
274
100
AcDbEntity
8
0
100
AcDbLine
62
0
6
CONTINUOUS
10
34.4405615022
20
4.4400687263
11
33.9786812869
21
4.4400687263
0
LINE
5
275
100
AcDbEntity
8
0
100
AcDbLine
62
0
6
CONTINUOUS
10
33.0168010715
20
4.4400687263
11
33.4786812869
21
4.4400687263
0
LINE
5
276
100
AcDbEntity
8
0
100
AcDbLine
62
0
6
CONTINUOUS
10
-35.5594384978
20
4.4400687263
11
-36.0213187131
21
4.4400687263
0
LINE
5
277
100
AcDbEntity
8
0
100
AcDbLine
62
0
6
CONTINUOUS
10
37.5168010715
20
4.4400689267
11
37.9786812869
21
4.4400687263
0
LINE
5
278
100
AcDbEntity
8
0
100
AcDbLine
62
0
6
CONTINUOUS
10
-31.0594384978
20
4.4400691336
11
-31.5213187131
21
4.4400687263
0
LINE
5
279
100
AcDbEntity
8
0
100
AcDbLine
62
0
6
CONTINUOUS
10
7.9786812869
20
8.1900687263
11
7.9786812869
21
5.1900687263
0
LINE
5
27A
100
AcDbEntity
8
0
100
AcDbLine
62
0
6
CONTINUOUS
10
8.4786812869
20
5.1900687263
11
8.4786812869
21
8.1900687263
0
LINE
5
27B
100
AcDbEntity
8
0
100
AcDbLine
62
0
6
CONTINUOUS
10
8.9405615022
20
5.1900687263
11
8.9405615022
21
8.1900687263
0
LINE
5
27C
100
AcDbEntity
8
0
100
AcDbLine
62
0
6
CONTINUOUS
10
12.4375906646
20
38.7348600810
11
12.4375906646
21
39.5009045241
0
LINE
5
27D
100
AcDbEntity
8
0
100
AcDbLine
62
0
6
CONTINUOUS
10
8.9405615022
20
5.1900687263
11
8.4786812869
21
5.1900687263
0
LINE
5
27E
100
AcDbEntity
8
0
100
AcDbLine
62
0
6
CONTINUOUS
10
-6.9831989285
20
5.1900687263
11
-6.5213187131
21
5.1900687263
0
LINE
5
27F
100
AcDbEntity
8
0
100
AcDbLine
62
0
6
CONTINUOUS
10
-5.5594384978
20
5.1900687263
11
-6.0213187131
21
5.1900687263
0
LINE
5
280
100
AcDbEntity
8
0
100
AcDbLine
62
0
6
CONTINUOUS
10
7.5168010715
20
5.1900687263
11
7.9786812869
21
5.1900687263
0
LINE
5
281
100
AcDbEntity
8
0
100
AcDbLine
62
0
6
CONTINUOUS
10
38.9405615022
20
6.9400690382
11
38.4786812869
21
6.9400687263
0
LINE
5
282
100
AcDbEntity
8
0
100
AcDbLine
62
0
6
CONTINUOUS
10
37.5168010715
20
6.9400685420
11
37.9786812869
21
6.9400687263
0
LINE
5
283
100
AcDbEntity
8
0
100
AcDbLine
62
0
6
CONTINUOUS
10
-36.9831989285
20
6.9400687263
11
-36.5213187131
21
6.9400687263
0
LINE
5
284
100
AcDbEntity
8
0
100
AcDbLine
62
0
6
CONTINUOUS
10
34.4405615022
20
6.9400687263
11
33.9786812869
21
6.9400687263
0
LINE
5
285
100
AcDbEntity
8
0
100
AcDbLine
62
0
6
CONTINUOUS
10
33.0168010715
20
6.9400687263
11
33.4786812869
21
6.9400687263
0
LINE
5
286
100
AcDbEntity
8
0
100
AcDbLine
62
0
6
CONTINUOUS
10
-35.5594384978
20
6.9400687263
11
-36.0213187131
21
6.9400687263
0
LINE
5
287
100
AcDbEntity
8
0
100
AcDbLine
62
0
6
CONTINUOUS
10
-32.4831989285
20
6.9400684509
11
-32.0213187131
21
6.9400687263
0
LINE
5
288
100
AcDbEntity
8
0
100
AcDbLine
62
0
6
CONTINUOUS
10
-31.0594384978
20
6.9400691364
11
-31.5213187131
21
6.9400687263
0
LINE
5
289
100
AcDbEntity
8
0
100
AcDbLine
62
0
6
CONTINUOUS
10
8.9405615022
20
8.1900687263
11
8.4786812869
21
8.1900687263
0
LINE
5
28A
100
AcDbEntity
8
0
100
AcDbLine
62
0
6
CONTINUOUS
10
-6.9831989285
20
8.1900687263
11
-6.5213187131
21
8.1900687263
0
LINE
5
28B
100
AcDbEntity
8
0
100
AcDbLine
62
0
6
CONTINUOUS
10
-5.5594384978
20
8.1900687263
11
-6.0213187131
21
8.1900687263
0
LINE
5
28C
100
AcDbEntity
8
0
100
AcDbLine
62
0
6
CONTINUOUS
10
7.5168010715
20
8.1900687263
11
7.9786812869
21
8.1900687263
0
LINE
5
28D
100
AcDbEntity
8
0
100
AcDbLine
62
0
6
CONTINUOUS
10
-5.8487291998
20
30.1288857510
11
-11.1693798487
21
38.8117527663
0
LINE
5
28E
100
AcDbEntity
8
0
100
AcDbLine
62
0
6
CONTINUOUS
10
-4.7288297523
20
29.3490480399
11
-10.4802280909
21
38.7348600810
0
LINE
5
28F
100
AcDbEntity
8
0
100
AcDbLine
62
0
6
CONTINUOUS
10
16.3754239265
20
43.4387377859
11
16.3754239265
21
44.4104864943
0
LINE
5
290
100
AcDbEntity
8
0
100
AcDbLine
62
0
6
CONTINUOUS
10
19.1645619487
20
40.1090509118
11
19.1645619487
21
41.0621786514
0
LINE
5
291
100
AcDbEntity
8
0
100
AcDbLine
62
0
6
CONTINUOUS
10
-6.5378809576
20
29.4397339932
11
-17.2071978787
21
40.1090509143
0
LINE
5
292
100
AcDbEntity
8
0
100
AcDbLine
62
0
6
CONTINUOUS
10
-5.8487291998
20
30.1288857510
11
-16.5193775851
21
40.7995341363
0
LINE
5
293
100
AcDbEntity
8
0
100
AcDbLine
62
0
6
CONTINUOUS
10
71.9755444790
20
19.3621653432
11
59.6299505589
21
19.3621653432
0
LINE
5
294
100
AcDbEntity
8
0
100
AcDbLine
62
0
6
CONTINUOUS
10
-57.6725879851
20
19.3621653432
11
-70.0181819053
21
19.3621653432
0
LINE
5
295
100
AcDbEntity
8
0
100
AcDbLine
62
0
6
CONTINUOUS
10
-69.8064753025
20
19.7269927584
11
-58.8213187131
21
19.7269927584
0
LINE
5
296
100
AcDbEntity
8
0
100
AcDbLine
62
0
6
CONTINUOUS
10
60.7786812869
20
19.7269927584
11
71.7638378762
21
19.7269927584
0
LINE
5
297
100
AcDbEntity
8
0
100
AcDbLine
62
0
6
CONTINUOUS
10
60.3818620545
20
19.8384729062
11
59.6603888153
21
19.8384729062
0
LINE
5
298
100
AcDbEntity
8
0
100
AcDbLine
62
0
6
CONTINUOUS
10
-57.7030262416
20
19.8384729062
11
-58.4244390499
21
19.8384729062
0
LINE
5
299
100
AcDbEntity
8
0
100
AcDbLine
62
0
6
CONTINUOUS
10
-11.1693798487
20
38.8117527663
11
-16.1011700690
21
43.7435429867
0
LINE
5
29A
100
AcDbEntity
8
0
100
AcDbLine
62
0
6
CONTINUOUS
10
-10.4802280909
20
39.5009045241
11
-14.4180613527
21
43.4387377859
0
LINE
5
29B
100
AcDbEntity
8
0
100
AcDbLine
62
0
6
CONTINUOUS
10
27.4786812869
20
24.6900687263
11
27.4786812869
21
24.4900687263
0
LINE
5
29C
100
AcDbEntity
8
0
100
AcDbLine
62
0
6
CONTINUOUS
10
27.4799959048
20
31.3213017216
11
27.4799959048
21
28.1900687263
0
LINE
5
29D
100
AcDbEntity
8
0
100
AcDbLine
62
0
6
CONTINUOUS
10
27.6112289001
20
31.1900687263
11
27.6112289001
21
28.1900687263
0
LINE
5
29E
100
AcDbEntity
8
0
100
AcDbLine
62
0
6
CONTINUOUS
10
71.5289363402
20
26.9843951043
11
72.5261469849
21
27.0169228106
0
LINE
5
29F
100
AcDbEntity
8
0
100
AcDbLine
62
0
6
CONTINUOUS
10
73.8467754777
20
27.1318976863
11
73.6209793305
21
27.1265064661
0
LINE
5
2A0
100
AcDbEntity
8
0
100
AcDbLine
62
0
6
CONTINUOUS
10
-40.3700494411
20
24.3413379983
11
42.3274120149
21
24.3413379983
0
LINE
5
2A1
100
AcDbEntity
8
0
100
AcDbLine
62
0
6
CONTINUOUS
10
42.1786812869
20
24.4900687263
11
-40.2213187131
21
24.4900687263
0
LINE
5
2A2
100
AcDbEntity
8
0
100
AcDbLine
62
0
6
CONTINUOUS
10
41.1786812869
20
24.6900687263
11
-39.2213187131
21
24.6900687263
0
LINE
5
2A3
100
AcDbEntity
8
0
100
AcDbLine
62
0
6
CONTINUOUS
10
-34.5200040952
20
28.1900687263
11
-25.5226333310
21
28.1900687263
0
LINE
5
2A4
100
AcDbEntity
8
0
100
AcDbLine
62
0
6
CONTINUOUS
10
27.4799959048
20
28.1900687263
11
36.4773666690
21
28.1900687263
0
LINE
5
2A5
100
AcDbEntity
8
0
100
AcDbLine
62
0
6
CONTINUOUS
10
59.7786812869
20
28.4900687263
11
59.6299505589
21
28.4900687263
0
LINE
5
2A6
100
AcDbEntity
8
0
100
AcDbLine
62
0
6
CONTINUOUS
10
-57.8213187131
20
28.4900687263
11
-57.6725879851
21
28.4900687263
0
LINE
5
2A7
100
AcDbEntity
8
0
100
AcDbLine
62
0
6
CONTINUOUS
10
42.3274120149
20
28.4900687263
11
42.1786812869
21
28.4900687263
0
LINE
5
2A8
100
AcDbEntity
8
0
100
AcDbLine
62
0
6
CONTINUOUS
10
-40.3700494411
20
28.4900687263
11
-40.2213187131
21
28.4900687263
0
LINE
5
2A9
100
AcDbEntity
8
0
100
AcDbLine
62
0
6
CONTINUOUS
10
36.3461336737
20
28.4900687263
11
27.6112289001
21
28.4900687263
0
LINE
5
2AA
100
AcDbEntity
8
0
100
AcDbLine
62
0
6
CONTINUOUS
10
-25.6538663263
20
28.4900687263
11
-34.3887710999
21
28.4900687263
0
LINE
5
2AB
100
AcDbEntity
8
0
100
AcDbLine
62
0
6
CONTINUOUS
10
6.6861923260
20
28.5830035968
11
-4.7288297523
21
28.5830035968
0
LINE
5
2AC
100
AcDbEntity
8
0
100
AcDbLine
62
0
6
CONTINUOUS
10
-71.8894297127
20
27.1318980872
11
-71.6636167578
21
27.1265064279
0
LINE
5
2AD
100
AcDbEntity
8
0
100
AcDbLine
62
0
6
CONTINUOUS
10
-69.5715737665
20
26.9843951043
11
-70.5687844098
21
27.0169228106
0
LINE
5
2AE
100
AcDbEntity
8
0
100
AcDbLine
62
0
6
CONTINUOUS
10
8.4952435313
20
29.4397339932
11
7.8060917735
21
30.1288857509
0
LINE
5
2AF
100
AcDbEntity
8
0
100
AcDbLine
62
0
6
CONTINUOUS
10
38.0520979254
20
-12.0273910807
11
37.8786812869
21
-6.0578212635
0
LINE
5
2B0
100
AcDbEntity
8
0
100
AcDbLine
62
0
6
CONTINUOUS
10
33.0168010715
20
6.9400687263
11
33.0168010715
21
4.4400687263
0
LINE
5
2B1
100
AcDbEntity
8
0
100
AcDbLine
62
0
6
CONTINUOUS
10
33.4786812869
20
6.9400687263
11
33.4786812869
21
4.4400687263
0
LINE
5
2B2
100
AcDbEntity
8
0
100
AcDbLine
62
0
6
CONTINUOUS
10
33.9786812869
20
4.4400687263
11
33.9786812869
21
6.9400687263
0
LINE
5
2B3
100
AcDbEntity
8
0
100
AcDbLine
62
0
6
CONTINUOUS
10
34.4405615022
20
4.4400687263
11
34.4405615022
21
6.9400687263
0
LINE
5
2B4
100
AcDbEntity
8
0
100
AcDbLine
62
0
6
CONTINUOUS
10
36.3461336737
20
28.1900687263
11
36.3461336737
21
31.1900687263
0
LINE
5
2B5
100
AcDbEntity
8
0
100
AcDbLine
62
0
6
CONTINUOUS
10
36.4773666690
20
28.1900687263
11
36.4773666690
21
31.3213017216
0
LINE
5
2B6
100
AcDbEntity
8
0
100
AcDbLine
62
0
6
CONTINUOUS
10
36.4786812869
20
24.4900687263
11
36.4786812869
21
24.6900687263
0
LINE
5
2B7
100
AcDbEntity
8
0
100
AcDbLine
62
0
6
CONTINUOUS
10
37.5168010715
20
6.9400685420
11
37.5168010715
21
4.4400689267
0
LINE
5
2B8
100
AcDbEntity
8
0
100
AcDbLine
62
0
6
CONTINUOUS
10
37.8786812869
20
-18.7553315492
11
37.8786812869
21
-6.0578212635
0
LINE
5
2B9
100
AcDbEntity
8
0
100
AcDbLine
62
0
6
CONTINUOUS
10
37.9135914167
20
-18.0273910807
11
37.9135914167
21
-7.2595425016
0
LINE
5
2BA
100
AcDbEntity
8
0
100
AcDbLine
62
0
6
CONTINUOUS
10
37.9786812869
20
6.9400687263
11
37.9786812869
21
4.4400687263
0
LINE
5
2BB
100
AcDbEntity
8
0
100
AcDbLine
62
0
6
CONTINUOUS
10
6.6861923260
20
29.3490480399
11
-4.7288297523
21
29.3490480399
0
LINE
5
2BC
100
AcDbEntity
8
0
100
AcDbLine
62
0
6
CONTINUOUS
10
36.3461336737
20
31.1900687263
11
27.6112289001
21
31.1900687263
0
LINE
5
2BD
100
AcDbEntity
8
0
100
AcDbLine
62
0
6
CONTINUOUS
10
-25.6538663263
20
31.1900687263
11
-34.3887710999
21
31.1900687263
0
LINE
5
2BE
100
AcDbEntity
8
0
100
AcDbLine
62
0
6
CONTINUOUS
10
36.4773666690
20
31.3213017216
11
27.4799959048
21
31.3213017216
0
LINE
5
2BF
100
AcDbEntity
8
0
100
AcDbLine
62
0
6
CONTINUOUS
10
-25.5226333310
20
31.3213017216
11
-34.5200040952
21
31.3213017216
0
LINE
5
2C0
100
AcDbEntity
8
0
100
AcDbLine
62
0
6
CONTINUOUS
10
40.8786812869
20
-18.7553315492
11
40.8437711570
21
-18.0273910807
0
LINE
5
2C1
100
AcDbEntity
8
0
100
AcDbLine
62
0
6
CONTINUOUS
10
38.4786812869
20
4.4400687263
11
38.4786812869
21
6.9400687263
0
LINE
5
2C2
100
AcDbEntity
8
0
100
AcDbLine
62
0
6
CONTINUOUS
10
38.9405615022
20
4.4400690356
11
38.9405615022
21
6.9400690382
0
LINE
5
2C3
100
AcDbEntity
8
0
100
AcDbLine
62
0
6
CONTINUOUS
10
40.8786812869
20
-18.7553315492
11
40.8786812869
21
-6.0578212635
0
LINE
5
2C4
100
AcDbEntity
8
0
100
AcDbLine
62
0
6
CONTINUOUS
10
41.9786812869
20
28.4900687263
11
41.9786812869
21
25.4900687263
0
LINE
5
2C5
100
AcDbEntity
8
0
100
AcDbLine
62
0
6
CONTINUOUS
10
42.1786812869
20
28.4900687263
11
42.1786812869
21
24.4900687263
0
LINE
5
2C6
100
AcDbEntity
8
0
100
AcDbLine
62
0
6
CONTINUOUS
10
42.3274120149
20
28.4900687263
11
42.3274120149
21
24.3413379983
0
LINE
5
2C7
100
AcDbEntity
8
0
100
AcDbLine
62
0
6
CONTINUOUS
10
40.8786812869
20
-6.0578212635
11
40.7052646484
21
-12.0273910807
0
LINE
5
2C8
100
AcDbEntity
8
0
100
AcDbLine
62
0
6
CONTINUOUS
10
37.8786812869
20
-18.7553315492
11
37.9135914167
21
-18.0273910807
0
LINE
5
2C9
100
AcDbEntity
8
0
100
AcDbLine
62
0
6
CONTINUOUS
10
71.1483271909
20
39.1129260249
11
72.1452057351
21
39.1431070786
0
LINE
5
2CA
100
AcDbEntity
8
0
100
AcDbLine
62
0
6
CONTINUOUS
10
-10.4802280909
20
38.7348600810
11
12.4375906646
21
38.7348600810
0
LINE
5
2CB
100
AcDbEntity
8
0
100
AcDbLine
62
0
6
CONTINUOUS
10
-10.4802280909
20
39.5009045241
11
12.4375906646
21
39.5009045241
0
LINE
5
2CC
100
AcDbEntity
8
0
100
AcDbLine
62
0
6
CONTINUOUS
10
70.1659461631
20
40.1090500524
11
19.1645604500
21
40.1090509118
0
LINE
5
2CD
100
AcDbEntity
8
0
100
AcDbLine
62
0
6
CONTINUOUS
10
-17.2071978787
20
40.1090509143
11
-68.2085835895
21
40.1090500544
0
LINE
5
2CE
100
AcDbEntity
8
0
100
AcDbLine
62
0
6
CONTINUOUS
10
70.1659461829
20
41.0621786135
11
19.1658981236
21
41.0621786514
0
LINE
5
2CF
100
AcDbEntity
8
0
100
AcDbLine
62
0
6
CONTINUOUS
10
-17.2085355504
20
41.0621786517
11
-68.2085836093
21
41.0621786139
0
LINE
5
2D0
100
AcDbEntity
8
0
100
AcDbLine
62
0
6
CONTINUOUS
10
-69.1909646172
20
39.1129260294
11
-70.1878679188
21
39.1431078979
0
LINE
5
2D1
100
AcDbEntity
8
0
100
AcDbLine
62
0
6
CONTINUOUS
10
12.4375906646
20
39.5009045241
11
13.1267424224
21
38.8117527663
0
LINE
5
2D2
100
AcDbEntity
8
0
100
AcDbLine
62
0
6
CONTINUOUS
10
27.4799959048
20
31.3213017216
11
27.6112289001
21
31.1900687263
0
LINE
5
2D3
100
AcDbEntity
8
0
100
AcDbLine
62
0
6
CONTINUOUS
10
19.1645619487
20
40.1090524106
11
18.4754101910
21
40.7982041684
0
LINE
5
2D4
100
AcDbEntity
8
0
100
AcDbLine
62
0
6
CONTINUOUS
10
73.4689160886
20
44.1337082580
11
73.2155272199
21
44.1284874699
0
LINE
5
2D5
100
AcDbEntity
8
0
100
AcDbLine
62
0
6
CONTINUOUS
10
16.3754239265
20
43.4387377859
11
-14.4180613527
21
43.4387377859
0
LINE
5
2D6
100
AcDbEntity
8
0
100
AcDbLine
62
0
6
CONTINUOUS
10
16.3754239265
20
44.4104864943
11
-14.4180613527
21
44.4104864943
0
LINE
5
2D7
100
AcDbEntity
8
0
100
AcDbLine
62
0
6
CONTINUOUS
10
71.2662452476
20
45.8082108923
11
-69.3088826739
21
45.8082108923
0
LINE
5
2D8
100
AcDbEntity
8
0
100
AcDbLine
62
0
6
CONTINUOUS
10
-69.5279356647
20
46.0941500118
11
71.4852982376
21
46.0941500118
0
LINE
5
2D9
100
AcDbEntity
8
0
100
AcDbLine
62
0
6
CONTINUOUS
10
-71.5115437501
20
44.1337080560
11
-71.2581646404
21
44.1284874958
0
LINE
5
2DA
100
AcDbEntity
8
0
100
AcDbLine
62
0
6
CONTINUOUS
10
42.3274120149
20
24.3413379983
11
42.1786812869
21
24.4900687263
0
LINE
5
2DB
100
AcDbEntity
8
0
100
AcDbLine
62
0
6
CONTINUOUS
10
73.2792652123
20
49.6900687263
11
-71.3218776081
21
49.6900687263
0
LINE
5
2DC
100
AcDbEntity
8
0
100
AcDbLine
62
0
6
CONTINUOUS
10
73.3010284777
20
49.8769172767
11
-71.3436659040
21
49.8769172767
0
LINE
5
2DD
100
AcDbEntity
8
0
100
AcDbLine
62
0
6
CONTINUOUS
10
59.6299505589
20
19.3621653432
11
59.6299505589
21
28.4900687263
0
LINE
5
2DE
100
AcDbEntity
8
0
100
AcDbLine
62
0
6
CONTINUOUS
10
59.7786812869
20
30.3745977924
11
59.7786812869
21
28.4900687263
0
LINE
5
2DF
100
AcDbEntity
8
0
100
AcDbLine
62
0
6
CONTINUOUS
10
59.9536586139
20
29.1439669380
11
59.9536586139
21
20.8729385575
0
LINE
5
2E0
100
AcDbEntity
8
0
100
AcDbLine
62
0
6
CONTINUOUS
10
59.9786812869
20
20.5671404725
11
59.9786812869
21
28.4900687263
0
LINE
5
2E1
100
AcDbEntity
8
0
100
AcDbLine
62
0
6
CONTINUOUS
10
73.1933562404
20
-35.8776811412
11
73.1932048648
21
-35.8512228045
0
LINE
5
2E2
100
AcDbEntity
8
0
100
AcDbLine
62
0
6
CONTINUOUS
10
70.1659461631
20
40.1090500524
11
70.1659461852
21
41.0621786135
0
LINE
5
2E3
100
AcDbEntity
8
0
100
AcDbLine
62
0
6
CONTINUOUS
10
70.3563226866
20
-39.0831628501
11
70.3563227099
21
-39.0782572489
0
LINE
5
2E4
100
AcDbEntity
8
0
100
AcDbLine
62
0
6
CONTINUOUS
10
71.4852982378
20
46.0941500118
11
71.4852982472
21
45.7952070287
0
LINE
5
2E5
100
AcDbEntity
8
0
100
AcDbLine
62
0
6
CONTINUOUS
10
71.9755444791
20
19.3621653432
11
71.9755444791
21
19.7344917635
0
LINE
5
2E6
100
AcDbEntity
8
0
100
AcDbLine
62
0
6
CONTINUOUS
10
72.2078788871
20
-21.4705802536
11
72.2078788835
21
-22.2517651058
0
LINE
5
2E7
100
AcDbEntity
8
0
100
AcDbLine
62
0
6
CONTINUOUS
10
73.3010284783
20
49.8769172767
11
73.3010284781
21
49.6900687263
0
LWPOLYLINE
5
2E8
100
AcDbEntity
8
0
100
AcDbPolyline
62
0
6
CONTINUOUS
90
10
70
0
10
71.4591875623
20
-38.7806431053
10
71.7756508384
20
-38.5742300717
10
72.2274034131
20
-38.2431007014
10
72.6675407410
20
-37.8750605977
10
73.0960268972
20
-37.4685092693
10
73.5114562545
20
-37.0230396556
10
73.9114531378
20
-36.5398296596
10
74.2952155703
20
-36.0188721040
10
74.6629915865
20
-35.4586534416
10
74.9793580907
20
-34.9212491408
0
LINE
5
2E9
100
AcDbEntity
8
0
100
AcDbLine
62
0
6
CONTINUOUS
10
71.4612022840
20
-38.7793893982
11
71.4591858650
21
-38.7806441587
0
LINE
5
2EA
100
AcDbEntity
8
0
100
AcDbLine
62
0
6
CONTINUOUS
10
75.2786850291
20
47.6929507115
11
75.2786812869
21
-33.9592037242
0
CIRCLE
5
2EB
100
AcDbEntity
8
0
100
AcDbCircle
62
0
6
CONTINUOUS
10
50.9786812869
20
28.4900687263
40
6.0000000000
0
CIRCLE
5
2EC
100
AcDbEntity
8
0
100
AcDbCircle
62
0
6
CONTINUOUS
10
50.9786812869
20
28.4900687263
40
4.0481345110
0
CIRCLE
5
2ED
100
AcDbEntity
8
0
100
AcDbCircle
62
0
6
CONTINUOUS
10
-49.0213187131
20
28.4900687263
40
6.0000000000
0
CIRCLE
5
2EE
100
AcDbEntity
8
0
100
AcDbCircle
62
0
6
CONTINUOUS
10
-49.0213187131
20
28.4900687263
40
4.0481345110
0
CIRCLE
5
2EF
100
AcDbEntity
8
0
100
AcDbCircle
62
0
6
CONTINUOUS
10
58.9786812869
20
-13.3099312737
40
6.0000000000
0
CIRCLE
5
2F0
100
AcDbEntity
8
0
100
AcDbCircle
62
0
6
CONTINUOUS
10
58.9786812869
20
-13.3099312737
40
4.0481345110
0
CIRCLE
5
2F1
100
AcDbEntity
8
0
100
AcDbCircle
62
0
6
CONTINUOUS
10
-57.0213187131
20
-13.3099312737
40
6.0000000000
0
CIRCLE
5
2F2
100
AcDbEntity
8
0
100
AcDbCircle
62
0
6
CONTINUOUS
10
-57.0213187131
20
-13.3099312737
40
4.0481345110
0
ARC
5
2F3
100
AcDbEntity
8
0
100
AcDbCircle
62
0
6
CONTINUOUS
10
50.9786812869
20
28.4900687263
40
9.0000000000
100
AcDbArc
50
0.0000000000
51
180.0000000000
0
ARC
5
2F4
100
AcDbEntity
8
0
100
AcDbCircle
62
0
6
CONTINUOUS
10
41.1786812869
20
25.4900687263
40
0.8000000000
100
AcDbArc
50
270.0000000000
51
360.0000000000
0
ARC
5
2F5
100
AcDbEntity
8
0
100
AcDbCircle
62
0
6
CONTINUOUS
10
-39.2213187131
20
25.4900687263
40
0.8000000000
100
AcDbArc
50
180.0000000000
51
270.0000000000
0
ARC
5
2F6
100
AcDbEntity
8
0
100
AcDbCircle
62
0
6
CONTINUOUS
10
-49.0213187131
20
28.4900687263
40
9.0000000000
100
AcDbArc
50
0.0000000000
51
180.0000000000
0
ARC
5
2F7
100
AcDbEntity
8
0
100
AcDbCircle
62
0
6
CONTINUOUS
10
50.9786812869
20
28.4900687263
40
8.8000000000
100
AcDbArc
50
0.0000000000
51
180.0000000000
0
CIRCLE
5
2F8
100
AcDbEntity
8
0
100
AcDbCircle
62
0
6
CONTINUOUS
10
-57.0213187131
20
-13.3099312737
40
6.8660254038
0
CIRCLE
5
2F9
100
AcDbEntity
8
0
100
AcDbCircle
62
0
6
CONTINUOUS
10
58.9786812869
20
-13.3099312737
40
6.8660254038
0
CIRCLE
5
2FA
100
AcDbEntity
8
0
100
AcDbCircle
62
0
6
CONTINUOUS
10
-49.0213187131
20
28.4900687263
40
6.8660254038
0
ARC
5
2FB
100
AcDbEntity
8
0
100
AcDbCircle
62
0
6
CONTINUOUS
10
-49.0213187131
20
28.4900687263
40
8.8000000000
100
AcDbArc
50
0.0000000000
51
180.0000000000
0
CIRCLE
5
2FC
100
AcDbEntity
8
0
100
AcDbCircle
62
0
6
CONTINUOUS
10
50.9786812869
20
28.4900687263
40
6.8660254038
0
ARC
5
2FD
100
AcDbEntity
8
0
100
AcDbCircle
62
0
6
CONTINUOUS
10
35.9786812869
20
4.4400687263
40
2.9618802154
100
AcDbArc
50
180.0000000000
51
0.0000059846
0
ARC
5
2FE
100
AcDbEntity
8
0
100
AcDbCircle
62
0
6
CONTINUOUS
10
35.9786812869
20
6.9400687263
40
2.9618802154
100
AcDbArc
50
0.0000060334
51
180.0000000000
0
ARC
5
2FF
100
AcDbEntity
8
0
100
AcDbCircle
62
0
6
CONTINUOUS
10
35.9786812869
20
6.9400687263
40
1.5381197846
100
AcDbArc
50
359.9999931369
51
180.0000000000
0
ARC
5
300
100
AcDbEntity
8
0
100
AcDbCircle
62
0
6
CONTINUOUS
10
35.9786812869
20
4.4400687263
40
1.5381197846
100
AcDbArc
50
180.0000000000
51
0.0000074641
0
ARC
5
301
100
AcDbEntity
8
0
100
AcDbCircle
62
0
6
CONTINUOUS
10
-34.0213187131
20
4.4400687263
40
2.9618802154
100
AcDbArc
50
180.0000000000
51
0.0000078798
0
ARC
5
302
100
AcDbEntity
8
0
100
AcDbCircle
62
0
6
CONTINUOUS
10
-34.0213187131
20
6.9400687263
40
2.9618802154
100
AcDbArc
50
0.0000079342
51
180.0000000000
0
ARC
5
303
100
AcDbEntity
8
0
100
AcDbCircle
62
0
6
CONTINUOUS
10
-34.0213187131
20
6.9400687263
40
1.5381197846
100
AcDbArc
50
359.9999897439
51
180.0000000000
0
ARC
5
304
100
AcDbEntity
8
0
100
AcDbCircle
62
0
6
CONTINUOUS
10
-34.0213187131
20
4.4400687263
40
1.5381197846
100
AcDbArc
50
180.0000000000
51
0.0000103007
0
ARC
5
305
100
AcDbEntity
8
0
100
AcDbCircle
62
0
6
CONTINUOUS
10
0.9786812869
20
8.1900687263
40
6.5381197846
100
AcDbArc
50
0.0000000000
51
180.0000000000
0
ARC
5
306
100
AcDbEntity
8
0
100
AcDbCircle
62
0
6
CONTINUOUS
10
0.9786812869
20
5.1900687263
40
6.5381197846
100
AcDbArc
50
180.0000000000
51
360.0000000000
0
ARC
5
307
100
AcDbEntity
8
0
100
AcDbCircle
62
0
6
CONTINUOUS
10
0.9786812869
20
5.1900687263
40
7.9618802154
100
AcDbArc
50
180.0000000000
51
360.0000000000
0
ARC
5
308
100
AcDbEntity
8
0
100
AcDbCircle
62
0
6
CONTINUOUS
10
0.9786812869
20
8.1900687263
40
7.5000000000
100
AcDbArc
50
0.0000000000
51
180.0000000000
0
ARC
5
309
100
AcDbEntity
8
0
100
AcDbCircle
62
0
6
CONTINUOUS
10
0.9786812869
20
5.1900687263
40
7.5000000000
100
AcDbArc
50
180.0000000000
51
360.0000000000
0
ARC
5
30A
100
AcDbEntity
8
0
100
AcDbCircle
62
0
6
CONTINUOUS
10
0.9786812869
20
8.1900687263
40
7.0000000000
100
AcDbArc
50
0.0000000000
51
180.0000000000
0
ARC
5
30B
100
AcDbEntity
8
0
100
AcDbCircle
62
0
6
CONTINUOUS
10
0.9786812869
20
5.1900687263
40
7.0000000000
100
AcDbArc
50
180.0000000000
51
360.0000000000
0
ARC
5
30C
100
AcDbEntity
8
0
100
AcDbCircle
62
0
6
CONTINUOUS
10
-34.0213187131
20
6.9400687263
40
2.0000000000
100
AcDbArc
50
0.0000000000
51
180.0000000000
0
ARC
5
30D
100
AcDbEntity
8
0
100
AcDbCircle
62
0
6
CONTINUOUS
10
0.9786812869
20
8.1900687263
40
7.9618802154
100
AcDbArc
50
0.0000000000
51
180.0000000000
0
ARC
5
30E
100
AcDbEntity
8
0
100
AcDbCircle
62
0
6
CONTINUOUS
10
-34.0213187131
20
4.4400687263
40
2.0000000000
100
AcDbArc
50
180.0000000000
51
360.0000000000
0
ARC
5
30F
100
AcDbEntity
8
0
100
AcDbCircle
62
0
6
CONTINUOUS
10
-34.0213187131
20
6.9400687263
40
2.5000000000
100
AcDbArc
50
0.0000000000
51
180.0000000000
0
ARC
5
310
100
AcDbEntity
8
0
100
AcDbCircle
62
0
6
CONTINUOUS
10
-34.0213187131
20
4.4400687263
40
2.5000000000
100
AcDbArc
50
180.0000000000
51
360.0000000000
0
ARC
5
311
100
AcDbEntity
8
0
100
AcDbCircle
62
0
6
CONTINUOUS
10
35.9786812869
20
6.9400687263
40
2.0000000000
100
AcDbArc
50
0.0000000000
51
180.0000000000
0
ARC
5
312
100
AcDbEntity
8
0
100
AcDbCircle
62
0
6
CONTINUOUS
10
35.9786812869
20
4.4400687263
40
2.0000000000
100
AcDbArc
50
180.0000000000
51
360.0000000000
0
ARC
5
313
100
AcDbEntity
8
0
100
AcDbCircle
62
0
6
CONTINUOUS
10
35.9786812869
20
6.9400687263
40
2.5000000000
100
AcDbArc
50
0.0000000000
51
180.0000000000
0
ARC
5
314
100
AcDbEntity
8
0
100
AcDbCircle
62
0
6
CONTINUOUS
10
35.9786812869
20
4.4400687263
40
2.5000000000
100
AcDbArc
50
180.0000000000
51
360.0000000000
0
ARC
5
315
100
AcDbEntity
8
0
100
AcDbCircle
62
0
6
CONTINUOUS
10
-49.0213187131
20
28.4900687263
40
8.6512692720
100
AcDbArc
50
0.0000000000
51
180.0000000000
0
ARC
5
316
100
AcDbEntity
8
0
100
AcDbCircle
62
0
6
CONTINUOUS
10
50.9786812869
20
28.4900687263
40
8.6512692720
100
AcDbArc
50
0.0000000000
51
180.0000000000
0
SPLINE
5
317
100
AcDbEntity
8
0
100
AcDbSpline
62
0
6
CONTINUOUS
70
0
71
3
72
10
73
6
74
4
42
0.0000001000
43
0.0000001000
44
0.0000000001
12
-0.1172674573
22
0.0000000000
32
0.0000000000
13
-0.1105367332
23
0.0393608666
33
0.0000000000
40
0.0000000000
40
0.0000000000
40
0.0000000000
40
0.0000000000
40
0.3344459692
40
0.6673882758
40
1.0000000000
40
1.0000000000
40
1.0000000000
40
1.0000000000
10
38.0286812869
20
-11.9138615711
30
0.0000000000
10
38.0156080774
20
-11.9138615711
30
0.0000000000
10
37.9894965927
20
-11.9123984937
30
0.0000000000
10
37.9508827326
20
-11.9058292503
30
0.0000000000
10
37.9258447440
20
-11.8985491688
30
0.0000000000
10
37.9135894729
20
-11.8941852069
30
0.0000000000
11
38.0286812869
21
-11.9138615711
31
0.0000000000
11
37.9895234085
21
-11.9116616132
31
0.0000000000
11
37.9510355373
21
-11.9050993825
31
0.0000000000
11
37.9135894729
21
-11.8941852069
31
0.0000000000
0
SPLINE
5
318
100
AcDbEntity
8
0
100
AcDbSpline
62
0
6
CONTINUOUS
70
0
71
3
72
9
73
5
74
3
42
0.0000001000
43
0.0000001000
44
0.0000000001
12
-0.0614905813
22
0.0097991747
32
0.0000000000
13
-0.0586615385
23
0.0208887031
33
0.0000000000
40
0.0000000000
40
0.0000000000
40
0.0000000000
40
0.0000000000
40
0.3732546159
40
1.0000000000
40
1.0000000000
40
1.0000000000
40
1.0000000000
10
37.9738453832
20
-9.3339467846
30
0.0000000000
10
37.9661948354
20
-9.3327275889
30
0.0000000000
10
37.9458094630
20
-9.3287714905
30
0.0000000000
10
37.9258447554
20
-9.3229665246
30
0.0000000000
10
37.9135894726
20
-9.3186025585
30
0.0000000000
11
37.9738453832
21
-9.3339467846
31
0.0000000000
11
37.9510355733
21
-9.3295167425
31
0.0000000000
11
37.9135894726
21
-9.3186025585
31
0.0000000000
0
SPLINE
5
319
100
AcDbEntity
8
0
100
AcDbSpline
62
0
6
CONTINUOUS
70
0
71
3
72
10
73
6
74
4
42
0.0000001000
43
0.0000001000
44
0.0000000001
12
-0.0000028617
22
-0.1188485729
32
0.0000000000
13
-0.0578453588
23
-0.1039657752
33
0.0000000000
40
0.0000000000
40
0.0000000000
40
0.0000000000
40
0.0000000000
40
0.3270331232
40
0.6649749481
40
1.0000000000
40
1.0000000000
40
1.0000000000
40
1.0000000000
10
38.0286812869
20
-11.9138615711
30
0.0000000000
10
38.0286809749
20
-11.9268173777
30
0.0000000000
10
38.0262411592
20
-11.9532213481
30
0.0000000000
10
38.0155057657
20
-11.9915574318
30
0.0000000000
10
38.0041691986
20
-12.0158054949
30
0.0000000000
10
37.9977093171
20
-12.0274158746
30
0.0000000000
11
38.0286812869
21
-11.9138615711
31
0.0000000000
11
38.0251446719
21
-11.9525677552
31
0.0000000000
11
38.0144375218
21
-11.9912781685
31
0.0000000000
11
37.9977093171
21
-12.0274158746
31
0.0000000000
0
SPLINE
5
31A
100
AcDbEntity
8
0
100
AcDbSpline
62
0
6
CONTINUOUS
70
0
71
3
72
9
73
5
74
3
42
0.0000001000
43
0.0000001000
44
0.0000000001
12
0.0610223848
22
-0.0520875923
32
0.0000000000
13
0.0497823974
23
-0.0629298773
33
0.0000000000
40
0.0000000000
40
0.0000000000
40
0.0000000000
40
0.0000000000
40
0.5336145997
40
1.0000000000
40
1.0000000000
40
1.0000000000
40
1.0000000000
10
37.9136350875
20
-9.1253678168
30
0.0000000000
10
37.9244892326
20
-9.1346327167
30
0.0000000000
10
37.9440699539
20
-9.1528901405
30
0.0000000000
10
37.9617855516
20
-9.1729755451
30
0.0000000000
10
37.9695248127
20
-9.1827587371
30
0.0000000000
11
37.9136350875
21
-9.1253678168
31
0.0000000000
11
37.9448552664
21
-9.1546380800
31
0.0000000000
11
37.9695248127
21
-9.1827587371
31
0.0000000000
0
SPLINE
5
31B
100
AcDbEntity
8
0
100
AcDbSpline
62
0
6
CONTINUOUS
70
0
71
3
72
11
73
7
74
5
42
0.0000001000
43
0.0000001000
44
0.0000000001
12
0.0000000000
22
-1.2800843460
32
0.0000000000
13
1.2800843460
23
0.0000000000
33
0.0000000000
40
0.0000000000
40
0.0000000000
40
0.0000000000
40
0.0000000000
40
0.2599718425
40
0.5131415236
40
0.7599088721
40
1.0000000000
40
1.0000000000
40
1.0000000000
40
1.0000000000
10
59.9786812869
20
20.5671404725
30
0.0000000000
10
59.9786812869
20
20.4562118439
30
0.0000000000
10
60.0208168519
20
20.2349284041
30
0.0000000000
10
60.2004165528
20
19.9555724851
30
0.0000000000
10
60.4661685635
20
19.7702181775
30
0.0000000000
10
60.6762356554
20
19.7269927584
30
0.0000000000
10
60.7786812869
20
19.7269927584
30
0.0000000000
11
59.9786812869
21
20.5671404725
31
0.0000000000
11
60.0416889803
21
20.2403737722
31
0.0000000000
11
60.2176691526
21
19.9682379922
31
0.0000000000
11
60.4776170347
21
19.7887688283
31
0.0000000000
11
60.7786812869
21
19.7269927584
31
0.0000000000
0
SPLINE
5
31C
100
AcDbEntity
8
0
100
AcDbSpline
62
0
6
CONTINUOUS
70
0
71
3
72
11
73
7
74
5
42
0.0000001000
43
0.0000001000
44
0.0000000001
12
1.2800839881
22
0.0000000000
32
0.0000000000
13
-0.0000000000
23
1.2800839881
33
0.0000000000
40
0.0000000000
40
0.0000000000
40
0.0000000000
40
0.0000000000
40
0.2404565417
40
0.4874220317
40
0.7404755609
40
1.0000000000
40
1.0000000000
40
1.0000000000
40
1.0000000000
10
-58.8213187131
20
19.7269927584
30
0.0000000000
10
-58.7187171902
20
19.7269927584
30
0.0000000000
10
-58.5083996955
20
19.7703388130
30
0.0000000000
10
-58.2426212411
20
19.9560171731
30
0.0000000000
10
-58.0633317039
20
20.2353720511
30
0.0000000000
10
-58.0213187131
20
20.4564027795
30
0.0000000000
10
-58.0213187131
20
20.5671404725
30
0.0000000000
11
-58.8213187131
21
19.7269927584
31
0.0000000000
11
-58.5198155186
21
19.7889562661
31
0.0000000000
11
-58.2597952692
21
19.9687667230
31
0.0000000000
11
-58.0841089103
21
20.2409152114
31
0.0000000000
11
-58.0213187131
21
20.5671404725
31
0.0000000000
0
SPLINE
5
31D
100
AcDbEntity
8
0
100
AcDbSpline
62
0
6
CONTINUOUS
70
0
71
3
72
12
73
8
74
6
42
0.0000001000
43
0.0000001000
44
0.0000000001
12
3.0856562875
22
-0.0000090782
32
0.0000000000
13
0.0644619499
23
-3.0849828819
33
0.0000000000
40
0.0000000000
40
0.0000000000
40
0.0000000000
40
0.0000000000
40
0.1965085884
40
0.3956952425
40
0.5944864266
40
0.7972682121
40
1.0000000000
40
1.0000000000
40
1.0000000000
40
1.0000000000
10
71.2662452476
20
45.8082108923
30
0.0000000000
10
71.4683645681
20
45.8082102976
30
0.0000000000
10
71.8781819131
20
45.7443505825
30
0.0000000000
10
72.4323525667
20
45.4635130421
30
0.0000000000
10
72.8780174142
20
45.0209810510
30
0.0000000000
10
73.1688204212
20
44.4607511859
30
0.0000000000
10
73.2412016013
20
44.0422709953
30
0.0000000000
10
73.2455577635
20
43.8337962969
30
0.0000000000
11
71.2662452476
21
45.8082108923
31
0.0000000000
11
71.8653072409
21
45.7144308009
31
0.0000000000
11
72.4137449581
21
45.4369858114
31
0.0000000000
11
72.8494103404
21
45.0051793860
31
0.0000000000
11
73.1381469860
21
44.4500665371
31
0.0000000000
11
73.2455577635
21
43.8337962969
31
0.0000000000
0
SPLINE
5
31E
100
AcDbEntity
8
0
100
AcDbSpline
62
0
6
CONTINUOUS
70
0
71
3
72
12
73
8
74
6
42
0.0000001000
43
0.0000001000
44
0.0000000001
12
0.0644617378
22
3.0849828801
32
0.0000000000
13
3.0856562813
23
0.0000108584
33
0.0000000000
40
0.0000000000
40
0.0000000000
40
0.0000000000
40
0.0000000000
40
0.2027317880
40
0.4055135736
40
0.6043047577
40
0.8034914116
40
1.0000000000
40
1.0000000000
40
1.0000000000
40
1.0000000000
10
-71.2881951897
20
43.8337962969
30
0.0000000000
10
-71.2838390419
20
44.0422709953
30
0.0000000000
10
-71.2114578381
20
44.4607511833
30
0.0000000000
10
-70.9206548389
20
45.0209810518
30
0.0000000000
10
-70.4749899892
20
45.4635130231
30
0.0000000000
10
-69.9208193363
20
45.7443506272
30
0.0000000000
10
-69.5110019939
20
45.8082101810
30
0.0000000000
10
-69.3088826739
20
45.8082108923
30
0.0000000000
11
-71.2881951897
21
43.8337962969
31
0.0000000000
11
-71.1807844101
21
44.4500665359
31
0.0000000000
11
-70.8920477634
21
45.0051793829
31
0.0000000000
11
-70.4563823808
21
45.4369858065
31
0.0000000000
11
-69.9079446647
21
45.7144307942
31
0.0000000000
11
-69.3088826739
21
45.8082108923
31
0.0000000000
0
SPLINE
5
31F
100
AcDbEntity
8
0
100
AcDbSpline
62
0
6
CONTINUOUS
70
0
71
3
72
10
73
6
74
4
42
0.0000001000
43
0.0000001000
44
0.0000000001
12
0.4029142532
22
16.7131850657
32
0.0000000000
13
0.3492604042
23
16.7143923642
33
0.0000000000
40
0.0000000000
40
0.0000000000
40
0.0000000000
40
0.0000000000
40
0.3189676999
40
0.6523004257
40
1.0000000000
40
1.0000000000
40
1.0000000000
40
1.0000000000
10
-71.6637730550
20
27.1199809850
30
0.0000000000
10
-71.6209341775
20
28.8969697179
30
0.0000000000
10
-71.5352844967
20
32.5310231074
30
0.0000000000
10
-71.4099464492
20
38.1022947139
30
0.0000000000
10
-71.3286744210
20
41.8966005939
30
0.0000000000
10
-71.2881951897
20
43.8337962969
30
0.0000000000
11
-71.6637730550
21
27.1199809850
31
0.0000000000
11
-71.5381012084
21
32.4510150049
31
0.0000000000
11
-71.4127263128
21
38.0222746511
31
0.0000000000
11
-71.2881951897
21
43.8337962969
31
0.0000000000
0
SPLINE
5
320
100
AcDbEntity
8
0
100
AcDbSpline
62
0
6
CONTINUOUS
70
0
71
3
72
8
73
4
74
2
42
0.0000001000
43
0.0000001000
44
0.0000000001
12
0.0000000000
22
-0.8609204854
32
0.0000000000
13
-0.3087736836
23
-0.8091343652
33
0.0000000000
40
0.0000000000
40
0.0000000000
40
0.0000000000
40
0.0000000000
40
1.0000000000
40
1.0000000000
40
1.0000000000
40
1.0000000000
10
6.4786812869
20
33.5384166538
30
0.0000000000
10
6.4786812869
20
33.2514431587
30
0.0000000000
10
6.4218231113
20
32.9621650132
30
0.0000000000
10
6.3188985501
20
32.6924535582
30
0.0000000000
11
6.4786812869
21
33.5384166538
31
0.0000000000
11
6.3188985501
21
32.6924535582
31
0.0000000000
0
SPLINE
5
321
100
AcDbEntity
8
0
100
AcDbSpline
62
0
6
CONTINUOUS
70
0
71
3
72
19
73
15
74
13
42
0.0000001000
43
0.0000001000
44
0.0000000001
12
-4.8293265366
22
-12.6551395698
32
0.0000000000
13
0.0000000000
23
13.4650922885
33
0.0000000000
40
0.0000000000
40
0.0000000000
40
0.0000000000
40
0.0000000000
40
0.0687100523
40
0.1451434375
40
0.2299629264
40
0.3219855881
40
0.4187928796
40
0.5172699065
40
0.6140771980
40
0.7060998598
40
0.7909193487
40
0.8673527339
40
0.9360627861
40
1.0000000000
40
1.0000000000
40
1.0000000000
40
1.0000000000
10
6.3188985501
20
32.6924535582
30
0.0000000000
10
6.2082907905
20
32.4026084577
30
0.0000000000
10
5.8622610470
20
31.8380722842
30
0.0000000000
10
5.0886579323
20
31.1379607083
30
0.0000000000
10
4.0883250690
20
30.5813961481
30
0.0000000000
10
2.9162998038
20
30.1936167855
30
0.0000000000
10
1.6367627293
20
29.9944382276
30
0.0000000000
10
0.3205998444
20
29.9944382276
30
0.0000000000
10
-0.9589372301
20
30.1936167855
30
0.0000000000
10
-2.1309624953
20
30.5813961481
30
0.0000000000
10
-3.1312953586
20
31.1379607083
30
0.0000000000
10
-3.9048984733
20
31.8380722842
30
0.0000000000
10
-4.4033579656
20
32.6512925918
30
0.0000000000
10
-4.5213187131
20
33.2514431587
30
0.0000000000
10
-4.5213187131
20
33.5384166538
30
0.0000000000
11
6.3188985501
21
32.6924535582
31
0.0000000000
11
5.8487981279
21
31.8955991556
31
0.0000000000
11
5.0956550856
21
31.1941774905
31
0.0000000000
11
4.1032127223
21
30.6289733717
31
0.0000000000
11
2.9291410343
21
30.2328563393
31
0.0000000000
11
1.6416824150
21
30.0288652049
31
0.0000000000
11
0.3156801587
21
30.0288652049
31
0.0000000000
11
-0.9717784606
21
30.2328563393
31
0.0000000000
11
-2.1458501486
21
30.6289733717
31
0.0000000000
11
-3.1382925119
21
31.1941774905
31
0.0000000000
11
-3.8914355541
21
31.8955991556
31
0.0000000000
11
-4.3615359764
21
32.6924535582
31
0.0000000000
11
-4.5213187131
21
33.5384166538
31
0.0000000000
0
SPLINE
5
322
100
AcDbEntity
8
0
100
AcDbSpline
62
0
6
CONTINUOUS
70
0
71
3
72
8
73
4
74
2
42
0.0000001000
43
0.0000001000
44
0.0000000001
12
0.0057899407
22
-0.3036058606
32
0.0000000000
13
0.0000000000
23
-0.3005880555
33
0.0000000000
40
0.0000000000
40
0.0000000000
40
0.0000000000
40
0.0000000000
40
1.0000000000
40
1.0000000000
40
1.0000000000
40
1.0000000000
10
-25.8508456854
20
28.4900623427
30
0.0000000000
10
-25.8489157052
20
28.3888603892
30
0.0000000000
10
-25.8463413861
20
28.2902647448
30
0.0000000000
10
-25.8463413861
20
28.1900687263
30
0.0000000000
11
-25.8508456854
21
28.4900623427
31
0.0000000000
11
-25.8463413861
21
28.1900687263
31
0.0000000000
0
SPLINE
5
323
100
AcDbEntity
8
0
100
AcDbSpline
62
0
6
CONTINUOUS
70
0
71
3
72
8
73
4
74
2
42
0.0000001000
43
0.0000001000
44
0.0000000001
12
-0.0057899246
22
-0.3036058750
32
0.0000000000
13
0.0000000000
23
-0.3005880497
33
0.0000000000
40
0.0000000000
40
0.0000000000
40
0.0000000000
40
0.0000000000
40
1.0000000000
40
1.0000000000
40
1.0000000000
40
1.0000000000
10
-34.1917917460
20
28.4900623428
30
0.0000000000
10
-34.1937217209
20
28.3888603845
30
0.0000000000
10
-34.1962960402
20
28.2902647428
30
0.0000000000
10
-34.1962960402
20
28.1900687263
30
0.0000000000
11
-34.1917917460
21
28.4900623428
31
0.0000000000
11
-34.1962960402
21
28.1900687263
31
0.0000000000
0
SPLINE
5
324
100
AcDbEntity
8
0
100
AcDbSpline
62
0
6
CONTINUOUS
70
0
71
3
72
8
73
4
74
2
42
0.0000001000
43
0.0000001000
44
0.0000000001
12
0.0057899407
22
-0.3036058606
32
0.0000000000
13
0.0000000000
23
-0.3005880555
33
0.0000000000
40
0.0000000000
40
0.0000000000
40
0.0000000000
40
0.0000000000
40
1.0000000000
40
1.0000000000
40
1.0000000000
40
1.0000000000
10
36.1491543146
20
28.4900623427
30
0.0000000000
10
36.1510842948
20
28.3888603892
30
0.0000000000
10
36.1536586139
20
28.2902647448
30
0.0000000000
10
36.1536586139
20
28.1900687263
30
0.0000000000
11
36.1491543146
21
28.4900623427
31
0.0000000000
11
36.1536586139
21
28.1900687263
31
0.0000000000
0
SPLINE
5
325
100
AcDbEntity
8
0
100
AcDbSpline
62
0
6
CONTINUOUS
70
0
71
3
72
8
73
4
74
2
42
0.0000001000
43
0.0000001000
44
0.0000000001
12
-0.0057899246
22
-0.3036058750
32
0.0000000000
13
0.0000000000
23
-0.3005880497
33
0.0000000000
40
0.0000000000
40
0.0000000000
40
0.0000000000
40
0.0000000000
40
1.0000000000
40
1.0000000000
40
1.0000000000
40
1.0000000000
10
27.8082082540
20
28.4900623428
30
0.0000000000
10
27.8062782791
20
28.3888603845
30
0.0000000000
10
27.8037039598
20
28.2902647428
30
0.0000000000
10
27.8037039598
20
28.1900687263
30
0.0000000000
11
27.8082082540
21
28.4900623428
31
0.0000000000
11
27.8037039598
21
28.1900687263
31
0.0000000000
0
SPLINE
5
326
100
AcDbEntity
8
0
100
AcDbSpline
62
0
6
CONTINUOUS
70
0
71
3
72
10
73
6
74
4
42
0.0000001000
43
0.0000001000
44
0.0000000001
12
0.3492596702
22
-16.7143923796
32
0.0000000000
13
0.4029142532
23
-16.7131850657
33
0.0000000000
40
0.0000000000
40
0.0000000000
40
0.0000000000
40
0.0000000000
40
0.3477034183
40
0.6810361442
40
1.0000000000
40
1.0000000000
40
1.0000000000
40
1.0000000000
10
73.2455577635
20
43.8337962969
30
0.0000000000
10
73.2860373572
20
41.8965791754
30
0.0000000000
10
73.3673099892
20
38.1022518814
30
0.0000000000
10
73.4926480577
20
32.5309802754
30
0.0000000000
10
73.5782972675
20
28.8969483021
30
0.0000000000
10
73.6211356288
20
27.1199809850
30
0.0000000000
11
73.2455577635
21
43.8337962969
31
0.0000000000
11
73.3700902981
21
38.0222104025
31
0.0000000000
11
73.4954652627
21
32.4509507560
31
0.0000000000
11
73.6211356288
21
27.1199809850
31
0.0000000000
0
SPLINE
5
327
100
AcDbEntity
8
0
100
AcDbSpline
62
0
6
CONTINUOUS
70
0
71
3
72
12
73
8
74
6
42
0.0000001000
43
0.0000001000
44
0.0000000001
12
-1.0739308302
22
0.0000000000
32
0.0000000000
13
-0.1848690393
23
1.0578992704
33
0.0000000000
40
0.0000000000
40
0.0000000000
40
0.0000000000
40
0.0000000000
40
0.2726386328
40
0.5245020940
40
0.7354744859
40
0.8939879070
40
1.0000000000
40
1.0000000000
40
1.0000000000
40
1.0000000000
10
-69.8064762382
20
19.7269927584
30
0.0000000000
10
-69.9040745827
20
19.7269927584
30
0.0000000000
10
-70.0919894219
20
19.7357981885
30
0.0000000000
10
-70.3528942925
20
19.7737182140
30
0.0000000000
10
-70.5681143103
20
19.8351919991
30
0.0000000000
10
-70.7213866662
20
19.9084241395
30
0.0000000000
10
-70.7887736430
20
19.9874128138
30
0.0000000000
10
-70.7953064276
20
20.0247961857
30
0.0000000000
11
-69.8064762382
21
19.7269927584
31
0.0000000000
11
-70.0989324462
21
19.7410745886
31
0.0000000000
11
-70.3662531923
21
19.7823199316
31
0.0000000000
11
-70.5833895329
21
19.8470166385
31
0.0000000000
11
-70.7318894133
21
19.9302444737
31
0.0000000000
11
-70.7953064276
21
20.0247961857
31
0.0000000000
0
SPLINE
5
328
100
AcDbEntity
8
0
100
AcDbSpline
62
0
6
CONTINUOUS
70
0
71
3
72
10
73
6
74
4
42
0.0000001000
43
0.0000001000
44
0.0000000001
12
-0.3498362657
22
1.7942275412
32
0.0000000000
13
-0.4026568121
23
1.7831167584
33
0.0000000000
40
0.0000000000
40
0.0000000000
40
0.0000000000
40
0.0000000000
40
0.3525319938
40
0.6858566836
40
1.0000000000
40
1.0000000000
40
1.0000000000
40
1.0000000000
10
-71.2327415444
20
22.4003921592
30
0.0000000000
10
-71.2738510365
20
22.6112330300
30
0.0000000000
10
-71.3555393109
20
23.0210972132
30
0.0000000000
10
-71.4802120297
20
23.6175536525
30
0.0000000000
10
-71.5648771776
20
24.0028984757
30
0.0000000000
10
-71.6070411597
20
24.1896165464
30
0.0000000000
11
-71.2327415444
21
22.4003921592
31
0.0000000000
11
-71.3588360423
21
23.0323691729
31
0.0000000000
11
-71.4836485910
21
23.6287714450
31
0.0000000000
11
-71.6070411597
21
24.1896165464
31
0.0000000000
0
SPLINE
5
329
100
AcDbEntity
8
0
100
AcDbSpline
62
0
6
CONTINUOUS
70
0
71
3
72
10
73
6
74
4
42
0.0000001000
43
0.0000001000
44
0.0000000001
12
-0.4158217108
22
2.3795087388
32
0.0000000000
13
-0.4622792842
23
2.3709212126
33
0.0000000000
40
0.0000000000
40
0.0000000000
40
0.0000000000
40
0.0000000000
40
0.3512109828
40
0.6845631986
40
1.0000000000
40
1.0000000000
40
1.0000000000
40
1.0000000000
10
-70.7953064276
20
20.0247961857
30
0.0000000000
10
-70.8439868116
20
20.3033660533
30
0.0000000000
10
-70.9403881885
20
20.8460776289
30
0.0000000000
10
-71.0861189442
20
21.6379744153
30
0.0000000000
10
-71.1841349115
20
22.1511002246
30
0.0000000000
10
-71.2327415444
20
22.4003921592
30
0.0000000000
11
-70.7953064276
21
20.0247961857
31
0.0000000000
11
-70.9437876312
21
20.8600757140
31
0.0000000000
11
-71.0896451700
21
21.6519904701
31
0.0000000000
11
-71.2327415444
21
22.4003921592
31
0.0000000000
0
SPLINE
5
32A
100
AcDbEntity
8
0
100
AcDbSpline
62
0
6
CONTINUOUS
70
0
71
3
72
12
73
8
74
6
42
0.0000001000
43
0.0000001000
44
0.0000000001
12
-0.1848700673
22
-1.0579051532
32
0.0000000000
13
-1.0739368021
23
-0.0000000000
33
0.0000000000
40
0.0000000000
40
0.0000000000
40
0.0000000000
40
0.0000000000
40
0.1057936561
40
0.2643811805
40
0.4757614953
40
0.7276542215
40
1.0000000000
40
1.0000000000
40
1.0000000000
40
1.0000000000
10
72.7526690014
20
20.0247961857
30
0.0000000000
10
72.7461496413
20
19.9874896344
30
0.0000000000
10
72.6788823167
20
19.9085044874
30
0.0000000000
10
72.5255149356
20
19.8351892605
30
0.0000000000
10
72.3101173991
20
19.7736824612
30
0.0000000000
10
72.0491532673
20
19.7357845205
30
0.0000000000
10
71.8613328634
20
19.7269927584
30
0.0000000000
10
71.7638388120
20
19.7269927584
30
0.0000000000
11
72.7526690014
21
20.0247961857
31
0.0000000000
11
72.6894391307
21
19.9304006832
31
0.0000000000
11
72.5409008726
21
19.8470766372
31
0.0000000000
11
72.3233418242
21
19.7822600370
31
0.0000000000
11
72.0559832577
21
19.7410438597
31
0.0000000000
11
71.7638388120
21
19.7269927584
31
0.0000000000
0
SPLINE
5
32B
100
AcDbEntity
8
0
100
AcDbSpline
62
0
6
CONTINUOUS
70
0
71
3
72
10
73
6
74
4
42
0.0000001000
43
0.0000001000
44
0.0000000001
12
-0.4622792842
22
-2.3709212126
32
0.0000000000
13
-0.4158217108
23
-2.3795087388
33
0.0000000000
40
0.0000000000
40
0.0000000000
40
0.0000000000
40
0.0000000000
40
0.3154368014
40
0.6487890172
40
1.0000000000
40
1.0000000000
40
1.0000000000
40
1.0000000000
10
73.1901041181
20
22.4003921592
30
0.0000000000
10
73.1414974852
20
22.1511002246
30
0.0000000000
10
73.0434815180
20
21.6379744153
30
0.0000000000
10
72.8977507622
20
20.8460776289
30
0.0000000000
10
72.8013493853
20
20.3033660533
30
0.0000000000
10
72.7526690014
20
20.0247961857
30
0.0000000000
11
73.1901041181
21
22.4003921592
31
0.0000000000
11
73.0470077437
21
21.6519904701
31
0.0000000000
11
72.9011502049
21
20.8600757140
31
0.0000000000
11
72.7526690014
21
20.0247961857
31
0.0000000000
0
SPLINE
5
32C
100
AcDbEntity
8
0
100
AcDbSpline
62
0
6
CONTINUOUS
70
0
71
3
72
10
73
6
74
4
42
0.0000001000
43
0.0000001000
44
0.0000000001
12
-0.4026568121
22
-1.7831167584
32
0.0000000000
13
-0.3498362657
23
-1.7942275412
33
0.0000000000
40
0.0000000000
40
0.0000000000
40
0.0000000000
40
0.0000000000
40
0.3141433164
40
0.6474680062
40
1.0000000000
40
1.0000000000
40
1.0000000000
40
1.0000000000
10
73.5644037334
20
24.1896165464
30
0.0000000000
10
73.5222397513
20
24.0028984757
30
0.0000000000
10
73.4375746034
20
23.6175536525
30
0.0000000000
10
73.3129018847
20
23.0210972132
30
0.0000000000
10
73.2312136102
20
22.6112330300
30
0.0000000000
10
73.1901041181
20
22.4003921592
30
0.0000000000
11
73.5644037334
21
24.1896165464
31
0.0000000000
11
73.4410111647
21
23.6287714450
31
0.0000000000
11
73.3161986160
21
23.0323691729
31
0.0000000000
11
73.1901041181
21
22.4003921592
31
0.0000000000
0
SPLINE
5
32D
100
AcDbEntity
8
0
100
AcDbSpline
62
0
6
CONTINUOUS
70
0
71
3
72
8
73
4
74
2
42
0.0000001000
43
0.0000001000
44
0.0000000001
12
0.0000000000
22
0.8609204854
32
0.0000000000
13
-0.3087736836
23
0.8091343652
33
0.0000000000
40
0.0000000000
40
0.0000000000
40
0.0000000000
40
0.0000000000
40
1.0000000000
40
1.0000000000
40
1.0000000000
40
1.0000000000
10
6.4786812869
20
33.9963190133
30
0.0000000000
10
6.4786812869
20
34.2832925085
30
0.0000000000
10
6.4218231113
20
34.5725706539
30
0.0000000000
10
6.3188985501
20
34.8422821090
30
0.0000000000
11
6.4786812869
21
33.9963190133
31
0.0000000000
11
6.3188985501
21
34.8422821090
31
0.0000000000
0
SPLINE
5
32E
100
AcDbEntity
8
0
100
AcDbSpline
62
0
6
CONTINUOUS
70
0
71
3
72
8
73
4
74
2
42
0.0000001000
43
0.0000001000
44
0.0000000001
12
-0.1069346875
22
0.2802198993
32
0.0000000000
13
-0.1379442013
23
0.2656481901
33
0.0000000000
40
0.0000000000
40
0.0000000000
40
0.0000000000
40
0.0000000000
40
1.0000000000
40
1.0000000000
40
1.0000000000
40
1.0000000000
10
6.3188985501
20
34.8422821090
30
0.0000000000
10
6.2832536543
20
34.9356887421
30
0.0000000000
10
6.2420836502
20
35.0267485863
30
0.0000000000
10
6.1961022497
20
35.1152979830
30
0.0000000000
11
6.3188985501
21
34.8422821090
31
0.0000000000
11
6.1961022497
21
35.1152979830
31
0.0000000000
0
SPLINE
5
32F
100
AcDbEntity
8
0
100
AcDbSpline
62
0
6
CONTINUOUS
70
0
71
3
72
10
73
6
74
4
42
0.0000001000
43
0.0000001000
44
0.0000000001
12
-1.0484465672
22
2.0190622749
32
0.0000000000
13
-1.9833589237
23
1.1044236424
33
0.0000000000
40
0.0000000000
40
0.0000000000
40
0.0000000000
40
0.0000000000
40
0.2766979657
40
0.7308572619
40
1.0000000000
40
1.0000000000
40
1.0000000000
40
1.0000000000
10
6.1961022497
20
35.1152979830
30
0.0000000000
10
6.0994012390
20
35.3015214576
30
0.0000000000
10
5.7877720003
20
35.7640760432
30
0.0000000000
10
5.2216171015
20
36.2764467806
30
0.0000000000
10
4.7583083137
20
36.5692134991
30
0.0000000000
10
4.5803727632
20
36.6682960335
30
0.0000000000
11
6.1961022497
21
35.1152979830
31
0.0000000000
11
5.8487981279
21
35.6391365116
31
0.0000000000
11
5.0956550856
21
36.3405581767
31
0.0000000000
11
4.5803727632
21
36.6682960335
31
0.0000000000
0
SPLINE
5
330
100
AcDbEntity
8
0
100
AcDbSpline
62
0
6
CONTINUOUS
70
0
71
3
72
8
73
4
74
2
42
0.0000001000
43
0.0000001000
44
0.0000000001
12
-0.1230108541
22
0.0684979879
32
0.0000000000
13
-0.1247048163
23
0.0653912076
33
0.0000000000
40
0.0000000000
40
0.0000000000
40
0.0000000000
40
0.0000000000
40
1.0000000000
40
1.0000000000
40
1.0000000000
40
1.0000000000
10
4.5803727632
20
36.6682960335
30
0.0000000000
10
4.5393691452
20
36.6911286961
30
0.0000000000
10
4.4980714940
20
36.7134379337
30
0.0000000000
10
4.4565032219
20
36.7352350029
30
0.0000000000
11
4.5803727632
21
36.6682960335
31
0.0000000000
11
4.4565032219
21
36.7352350029
31
0.0000000000
0
SPLINE
5
331
100
AcDbEntity
8
0
100
AcDbSpline
62
0
6
CONTINUOUS
70
0
71
3
72
14
73
10
74
8
42
0.0000001000
43
0.0000001000
44
0.0000000001
12
-6.3834906515
22
3.3472978418
32
0.0000000000
13
-6.3834906515
23
-3.3472978418
33
0.0000000000
40
0.0000000000
40
0.0000000000
40
0.0000000000
40
0.0000000000
40
0.0544362307
40
0.2266638449
40
0.4078462681
40
0.5921537319
40
0.7733361551
40
0.9455637693
40
1.0000000000
40
1.0000000000
40
1.0000000000
40
1.0000000000
10
4.4565032219
20
36.7352350029
30
0.0000000000
10
4.3406721652
20
36.7959730955
30
0.0000000000
10
3.8496205188
20
37.0323179346
30
0.0000000000
10
2.9162998038
20
37.3411188816
30
0.0000000000
10
1.6367627293
20
37.5402974396
30
0.0000000000
10
0.3205998444
20
37.5402974396
30
0.0000000000
10
-0.9589372301
20
37.3411188816
30
0.0000000000
10
-1.8922579451
20
37.0323179346
30
0.0000000000
10
-2.3833095915
20
36.7959730955
30
0.0000000000
10
-2.4991406482
20
36.7352350029
30
0.0000000000
11
4.4565032219
21
36.7352350029
31
0.0000000000
11
4.1032127223
21
36.9057622955
31
0.0000000000
11
2.9291410343
21
37.3018793278
31
0.0000000000
11
1.6416824150
21
37.5058704623
31
0.0000000000
11
0.3156801587
21
37.5058704623
31
0.0000000000
11
-0.9717784606
21
37.3018793278
31
0.0000000000
11
-2.1458501486
21
36.9057622955
31
0.0000000000
11
-2.4991406482
21
36.7352350029
31
0.0000000000
0
SPLINE
5
332
100
AcDbEntity
8
0
100
AcDbSpline
62
0
6
CONTINUOUS
70
0
71
3
72
8
73
4
74
2
42
0.0000001000
43
0.0000001000
44
0.0000000001
12
-0.1247048163
22
-0.0653912076
32
0.0000000000
13
-0.1230108541
23
-0.0684979879
33
0.0000000000
40
0.0000000000
40
0.0000000000
40
0.0000000000
40
0.0000000000
40
1.0000000000
40
1.0000000000
40
1.0000000000
40
1.0000000000
10
-2.4991406482
20
36.7352350029
30
0.0000000000
10
-2.5407089203
20
36.7134379337
30
0.0000000000
10
-2.5820065715
20
36.6911286961
30
0.0000000000
10
-2.6230101895
20
36.6682960335
30
0.0000000000
11
-2.4991406482
21
36.7352350029
31
0.0000000000
11
-2.6230101895
21
36.6682960335
31
0.0000000000
0
SPLINE
5
333
100
AcDbEntity
8
0
100
AcDbSpline
62
0
6
CONTINUOUS
70
0
71
3
72
10
73
6
74
4
42
0.0000001000
43
0.0000001000
44
0.0000000001
12
-1.9833589237
22
-1.1044236424
32
0.0000000000
13
-1.0484465672
23
-2.0190622749
33
0.0000000000
40
0.0000000000
40
0.0000000000
40
0.0000000000
40
0.0000000000
40
0.2691427381
40
0.7233020343
40
1.0000000000
40
1.0000000000
40
1.0000000000
40
1.0000000000
10
-2.6230101895
20
36.6682960335
30
0.0000000000
10
-2.8009457400
20
36.5692134991
30
0.0000000000
10
-3.2642545278
20
36.2764467806
30
0.0000000000
10
-3.8304094266
20
35.7640760432
30
0.0000000000
10
-4.1420386653
20
35.3015214576
30
0.0000000000
10
-4.2387396760
20
35.1152979830
30
0.0000000000
11
-2.6230101895
21
36.6682960335
31
0.0000000000
11
-3.1382925119
21
36.3405581767
31
0.0000000000
11
-3.8914355541
21
35.6391365116
31
0.0000000000
11
-4.2387396760
21
35.1152979830
31
0.0000000000
0
SPLINE
5
334
100
AcDbEntity
8
0
100
AcDbSpline
62
0
6
CONTINUOUS
70
0
71
3
72
8
73
4
74
2
42
0.0000001000
43
0.0000001000
44
0.0000000001
12
-0.1379442013
22
-0.2656481901
32
0.0000000000
13
-0.1069346875
23
-0.2802198993
33
0.0000000000
40
0.0000000000
40
0.0000000000
40
0.0000000000
40
0.0000000000
40
1.0000000000
40
1.0000000000
40
1.0000000000
40
1.0000000000
10
-4.2387396760
20
35.1152979830
30
0.0000000000
10
-4.2847210765
20
35.0267485863
30
0.0000000000
10
-4.3258910805
20
34.9356887421
30
0.0000000000
10
-4.3615359764
20
34.8422821090
30
0.0000000000
11
-4.2387396760
21
35.1152979830
31
0.0000000000
11
-4.3615359764
21
34.8422821090
31
0.0000000000
0
SPLINE
5
335
100
AcDbEntity
8
0
100
AcDbSpline
62
0
6
CONTINUOUS
70
0
71
3
72
8
73
4
74
2
42
0.0000001000
43
0.0000001000
44
0.0000000001
12
-0.3087736836
22
-0.8091343652
32
0.0000000000
13
0.0000000000
23
-0.8609204854
33
0.0000000000
40
0.0000000000
40
0.0000000000
40
0.0000000000
40
0.0000000000
40
1.0000000000
40
1.0000000000
40
1.0000000000
40
1.0000000000
10
-4.3615359764
20
34.8422821090
30
0.0000000000
10
-4.4644605376
20
34.5725706539
30
0.0000000000
10
-4.5213187131
20
34.2832925085
30
0.0000000000
10
-4.5213187131
20
33.9963190133
30
0.0000000000
11
-4.3615359764
21
34.8422821090
31
0.0000000000
11
-4.5213187131
21
33.9963190133
31
0.0000000000
0
SPLINE
5
336
100
AcDbEntity
8
0
100
AcDbSpline
62
0
6
CONTINUOUS
70
0
71
3
72
13
73
9
74
7
42
0.0000001000
43
0.0000001000
44
0.0000000001
12
0.6461470394
22
2.8613836391
32
0.0000000000
13
-0.0706973680
23
2.9325797873
33
0.0000000000
40
0.0000000000
40
0.0000000000
40
0.0000000000
40
0.0000000000
40
0.0750723780
40
0.1972729134
40
0.3582411108
40
0.5534908320
40
0.7731104079
40
1.0000000000
40
1.0000000000
40
1.0000000000
40
1.0000000000
10
73.5644037334
20
24.1896165464
30
0.0000000000
10
73.5805729984
20
24.2612201711
30
0.0000000000
10
73.5996694365
20
24.4539240555
30
0.0000000000
10
73.6204885102
20
24.8032496430
30
0.0000000000
10
73.6329193915
20
25.2711133695
30
0.0000000000
10
73.6380316456
20
25.8341043116
30
0.0000000000
10
73.6343911712
20
26.4616539291
30
0.0000000000
10
73.6264824611
20
26.8981903745
30
0.0000000000
10
73.6211356288
20
27.1199809850
30
0.0000000000
11
73.5644037334
21
24.1896165464
31
0.0000000000
11
73.5940020747
21
24.4078381219
31
0.0000000000
11
73.6165410813
21
24.7655957784
31
0.0000000000
11
73.6307844284
21
25.2375701424
31
0.0000000000
11
73.6364782330
21
25.8102935880
31
0.0000000000
11
73.6331318646
21
26.4545239524
31
0.0000000000
11
73.6211356288
21
27.1199809850
31
0.0000000000
0
SPLINE
5
337
100
AcDbEntity
8
0
100
AcDbSpline
62
0
6
CONTINUOUS
70
0
71
3
72
13
73
9
74
7
42
0.0000001000
43
0.0000001000
44
0.0000000001
12
-0.0706973842
22
-2.9325804597
32
0.0000000000
13
0.6461471876
23
-2.8613842952
33
0.0000000000
40
0.0000000000
40
0.0000000000
40
0.0000000000
40
0.0000000000
40
0.2272882147
40
0.4472415878
40
0.6426484130
40
0.8037348475
40
0.9251319109
40
1.0000000000
40
1.0000000000
40
1.0000000000
40
1.0000000000
10
-71.6637730550
20
27.1199809850
30
0.0000000000
10
-71.6691292825
20
26.8978006593
30
0.0000000000
10
-71.6770464036
20
26.4605479409
30
0.0000000000
10
-71.6806716298
20
25.8321281063
30
0.0000000000
10
-71.6755162152
20
25.2685418237
30
0.0000000000
10
-71.6630436446
20
24.8011954277
30
0.0000000000
10
-71.6422028591
20
24.4527395453
30
0.0000000000
10
-71.6231664281
20
24.2610253379
30
0.0000000000
10
-71.6070411597
20
24.1896165464
30
0.0000000000
11
-71.6637730550
21
27.1199809850
31
0.0000000000
11
-71.6757831004
21
26.4533545261
31
0.0000000000
11
-71.6791113535
21
25.8081447358
31
0.0000000000
11
-71.6733717237
21
25.2349607389
31
0.0000000000
11
-71.6590479830
21
24.7626416996
31
0.0000000000
11
-71.6365853642
21
24.4072407593
31
0.0000000000
11
-71.6070411597
21
24.1896165464
31
0.0000000000
0
SPLINE
5
338
100
AcDbEntity
8
0
100
AcDbSpline
62
0
6
CONTINUOUS
70
0
71
3
72
10
73
6
74
4
42
0.0000001000
43
0.0000001000
44
0.0000000001
12
0.5572218601
22
0.5063496426
32
0.0000000000
13
0.7529166920
23
0.0016176481
33
0.0000000000
40
0.0000000000
40
0.0000000000
40
0.0000000000
40
0.0000000000
40
0.3306182712
40
0.6644472192
40
1.0000000000
40
1.0000000000
40
1.0000000000
40
1.0000000000
10
18.4754101910
20
40.7982041684
30
0.0000000000
10
18.5368194336
20
40.8540069829
30
0.0000000000
10
18.6750952130
20
40.9508722636
30
0.0000000000
10
18.9116650010
20
41.0412207288
30
0.0000000000
10
19.0803475188
20
41.0619977821
30
0.0000000000
10
19.1645619487
20
41.0621787176
30
0.0000000000
11
18.4754101910
21
40.7982041684
31
0.0000000000
11
18.6791095570
21
40.9412846037
31
0.0000000000
11
18.9138256700
21
41.0311908973
31
0.0000000000
11
19.1645619487
21
41.0621787176
31
0.0000000000
0
SPLINE
5
339
100
AcDbEntity
8
0
100
AcDbSpline
62
0
6
CONTINUOUS
70
0
71
3
72
10
73
6
74
4
42
0.0000001000
43
0.0000001000
44
0.0000000001
12
0.5516009180
22
0.5218116943
32
0.0000000000
13
0.7591973120
23
0.0130559767
33
0.0000000000
40
0.0000000000
40
0.0000000000
40
0.0000000000
40
0.0000000000
40
0.3325368721
40
0.6663141447
40
1.0000000000
40
1.0000000000
40
1.0000000000
40
1.0000000000
10
18.0585311554
20
43.7435444741
30
0.0000000000
10
18.1196737033
20
43.8013850170
30
0.0000000000
10
18.2573402162
20
43.9023445170
30
0.0000000000
10
18.4939448882
20
43.9985632260
30
0.0000000000
10
18.6632399322
20
44.0225326085
30
0.0000000000
10
18.7476844004
20
44.0239848067
30
0.0000000000
11
18.0585311554
21
43.7435444741
31
0.0000000000
11
18.2620619840
21
43.8929789346
31
0.0000000000
11
18.4968098340
21
43.9885060008
31
0.0000000000
11
18.7476844004
21
44.0239848067
31
0.0000000000
0
SPLINE
5
33A
100
AcDbEntity
8
0
100
AcDbSpline
62
0
6
CONTINUOUS
70
0
71
3
72
10
73
6
74
4
42
0.0000001000
43
0.0000001000
44
0.0000000001
12
-0.5516001224
22
0.5218134957
32
0.0000000000
13
-0.7591977684
23
0.0130678141
33
0.0000000000
40
0.0000000000
40
0.0000000000
40
0.0000000000
40
0.0000000000
40
0.3325371117
40
0.6663145288
40
1.0000000000
40
1.0000000000
40
1.0000000000
40
1.0000000000
10
-16.1011700690
20
43.7435429867
30
0.0000000000
10
-16.1623125728
20
43.8013837709
30
0.0000000000
10
-16.2999787718
20
43.9023439914
30
0.0000000000
10
-16.5365826751
20
43.9985649329
30
0.0000000000
10
-16.7058774051
20
44.0225366623
30
0.0000000000
10
-16.7903218268
20
44.0239901756
30
0.0000000000
11
-16.1011700690
21
43.7435429867
31
0.0000000000
11
-16.3047005346
21
43.8929786197
31
0.0000000000
11
-16.5394478144
21
43.9885079629
31
0.0000000000
11
-16.7903218268
21
44.0239901756
31
0.0000000000
0
SPLINE
5
33B
100
AcDbEntity
8
0
100
AcDbSpline
62
0
6
CONTINUOUS
70
0
71
3
72
10
73
6
74
4
42
0.0000001000
43
0.0000001000
44
0.0000000001
12
-0.5558689748
22
0.5078343380
32
0.0000000000
13
-0.7529120902
23
0.0030686130
33
0.0000000000
40
0.0000000000
40
0.0000000000
40
0.0000000000
40
0.0000000000
40
0.3310015057
40
0.6652164147
40
1.0000000000
40
1.0000000000
40
1.0000000000
40
1.0000000000
10
-16.5180476172
20
40.7982041684
30
0.0000000000
10
-16.5793787731
20
40.8542354786
30
0.0000000000
10
-16.7180520230
20
40.9509327414
30
0.0000000000
10
-16.9545761553
20
41.0413791271
30
0.0000000000
10
-17.1231785054
20
41.0618362771
30
0.0000000000
10
-17.2071993750
20
41.0621787176
30
0.0000000000
11
-16.5180476172
21
40.7982041684
31
0.0000000000
11
-16.7220037911
21
40.9414209438
31
0.0000000000
11
-16.9570292603
21
41.0313318713
31
0.0000000000
11
-17.2071993750
21
41.0621787176
31
0.0000000000
0
SPLINE
5
33C
100
AcDbEntity
8
0
100
AcDbSpline
62
0
6
CONTINUOUS
70
0
71
3
72
13
73
9
74
7
42
0.0000001000
43
0.0000001000
44
0.0000000001
12
-3.0333251270
22
-0.0269268381
32
0.0000000000
13
-0.1245523261
23
-3.0308865202
33
0.0000000000
40
0.0000000000
40
0.0000000000
40
0.0000000000
40
0.0000000000
40
0.1569821411
40
0.3224359765
40
0.4918552989
40
0.6615317368
40
0.8305433182
40
1.0000000000
40
1.0000000000
40
1.0000000000
40
1.0000000000
10
-68.2085836334
20
41.0621744448
30
0.0000000000
10
-68.3673095911
20
41.0607654339
30
0.0000000000
10
-68.6942723846
20
41.0185432398
30
0.0000000000
10
-69.1619439001
20
40.8349086567
30
0.0000000000
10
-69.5791631881
20
40.5314434045
30
0.0000000000
10
-69.9073920987
20
40.1286993886
30
0.0000000000
10
-70.1223252099
20
39.6560567983
30
0.0000000000
10
-70.1808348205
20
39.3143092215
30
0.0000000000
10
-70.1878702285
20
39.1431078972
30
0.0000000000
11
-68.2085836334
21
41.0621744448
31
0.0000000000
11
-68.6808508474
21
41.0011259955
31
0.0000000000
11
-69.1480434968
21
40.8177420549
31
0.0000000000
11
-69.5636356000
21
40.5154157069
31
0.0000000000
11
-69.8888649106
21
40.1164844016
31
0.0000000000
11
-70.1010289668
21
39.6497567982
31
0.0000000000
11
-70.1878702285
21
39.1431078972
31
0.0000000000
0
SPLINE
5
33D
100
AcDbEntity
8
0
100
AcDbSpline
62
0
6
CONTINUOUS
70
0
71
3
72
13
73
9
74
7
42
0.0000001000
43
0.0000001000
44
0.0000000001
12
-0.1245529451
22
3.0308864860
32
0.0000000000
13
-3.0333251077
23
0.0269280122
33
0.0000000000
40
0.0000000000
40
0.0000000000
40
0.0000000000
40
0.0000000000
40
0.1694566016
40
0.3384684603
40
0.5081450946
40
0.6775645179
40
0.8430188874
40
1.0000000000
40
1.0000000000
40
1.0000000000
40
1.0000000000
10
72.1452328021
20
39.1431078926
30
0.0000000000
10
72.1381973625
20
39.3143091338
30
0.0000000000
10
72.0796877985
20
39.6560569079
30
0.0000000000
10
71.8647544510
20
40.1286998694
30
0.0000000000
10
71.5365249567
20
40.5314441666
30
0.0000000000
10
71.1193048356
20
40.8349097316
30
0.0000000000
10
70.6516333706
20
41.0185435007
30
0.0000000000
10
70.3246711237
20
41.0607653775
30
0.0000000000
10
70.1659462069
20
41.0621744406
30
0.0000000000
11
72.1452328021
21
39.1431078926
31
0.0000000000
11
72.0583916179
21
39.6497565582
31
0.0000000000
11
71.8462271697
21
40.1164849060
31
0.0000000000
11
71.5209972957
21
40.5154165189
31
0.0000000000
11
71.1054047651
21
40.8177427971
31
0.0000000000
11
70.6382103670
21
41.0011267125
31
0.0000000000
11
70.1659462069
21
41.0621744406
31
0.0000000000
0
SPLINE
5
33E
100
AcDbEntity
8
0
100
AcDbSpline
62
0
6
CONTINUOUS
70
0
71
3
72
10
73
6
74
4
42
0.0000001000
43
0.0000001000
44
0.0000000001
12
-0.3672127822
22
-12.1289463886
32
0.0000000000
13
-0.3956010808
23
-12.1280536571
33
0.0000000000
40
0.0000000000
40
0.0000000000
40
0.0000000000
40
0.0000000000
40
0.3429631567
40
0.6762144158
40
1.0000000000
40
1.0000000000
40
1.0000000000
40
1.0000000000
10
-69.1909646172
20
39.1129260294
30
0.0000000000
10
-69.2329447689
20
37.7263321158
30
0.0000000000
10
-69.3166231354
20
34.9924366462
30
0.0000000000
10
-69.4434084306
20
30.9495891566
30
0.0000000000
10
-69.5288771242
20
28.2933580838
30
0.0000000000
10
-69.5715737665
20
26.9843951042
30
0.0000000000
11
-69.1909646172
21
39.1129260294
31
0.0000000000
11
-69.3183537247
21
34.9531884001
31
0.0000000000
11
-69.4451657752
21
30.9113385450
31
0.0000000000
11
-69.5715737665
21
26.9843951042
31
0.0000000000
0
SPLINE
5
33F
100
AcDbEntity
8
0
100
AcDbSpline
62
0
6
CONTINUOUS
70
0
71
3
72
13
73
9
74
7
42
0.0000001000
43
0.0000001000
44
0.0000000001
12
-1.5444845053
22
0.0003538002
32
0.0000000000
13
-0.0462422586
23
-1.5437921382
33
0.0000000000
40
0.0000000000
40
0.0000000000
40
0.0000000000
40
0.0000000000
40
0.1539938997
40
0.3168031710
40
0.4846957308
40
0.6548172619
40
0.8264516094
40
1.0000000000
40
1.0000000000
40
1.0000000000
40
1.0000000000
10
-68.2085835895
20
40.1090500544
30
0.0000000000
10
-68.2878639868
20
40.1090682154
30
0.0000000000
10
-68.4516883796
20
40.0885239056
30
0.0000000000
10
-68.6857369674
20
39.9941760793
30
0.0000000000
10
-68.8936759353
20
39.8365431705
30
0.0000000000
10
-69.0560150860
20
39.6266019159
30
0.0000000000
10
-69.1609632965
20
39.3800096939
30
0.0000000000
10
-69.1882895274
20
39.2022335764
30
0.0000000000
10
-69.1909646172
20
39.1129260294
30
0.0000000000
11
-68.2085835895
21
40.1090500544
31
0.0000000000
11
-68.4445667881
21
40.0793790997
31
0.0000000000
11
-68.6778573339
21
39.9855396405
31
0.0000000000
11
-68.8846895238
21
39.8291401326
31
0.0000000000
11
-69.0458056101
21
39.6215848171
31
0.0000000000
11
-69.1499486482
21
39.3778121121
31
0.0000000000
11
-69.1909646172
21
39.1129260294
31
0.0000000000
0
SPLINE
5
340
100
AcDbEntity
8
0
100
AcDbSpline
62
0
6
CONTINUOUS
70
0
71
3
72
12
73
8
74
6
42
0.0000001000
43
0.0000001000
44
0.0000000001
12
-2.0503539323
22
0.0002111963
32
0.0000000000
13
-1.4499580667
23
1.4496802741
33
0.0000000000
40
0.0000000000
40
0.0000000000
40
0.0000000000
40
0.0000000000
40
0.1699290118
40
0.3532688166
40
0.5513431650
40
0.7662052333
40
1.0000000000
40
1.0000000000
40
1.0000000000
40
1.0000000000
10
-4.7288297523
20
28.5830035968
30
0.0000000000
10
-4.8449679582
20
28.5830155596
30
0.0000000000
10
-5.0868403764
20
28.6068387542
30
0.0000000000
10
-5.4512459932
20
28.7090225897
30
0.0000000000
10
-5.8226466271
20
28.8806880877
30
0.0000000000
10
-6.1934985594
20
29.1238016835
30
0.0000000000
10
-6.4248834216
20
29.3267581060
30
0.0000000000
10
-6.5378809576
20
29.4397339932
30
0.0000000000
11
-4.7288297523
21
28.5830035968
31
0.0000000000
11
-5.0757189070
21
28.6155713937
31
0.0000000000
11
-5.4381518416
21
28.7153301900
31
0.0000000000
11
-5.8074926259
21
28.8842173933
31
0.0000000000
11
-6.1767051680
21
29.1245515112
31
0.0000000000
11
-6.5378809576
21
29.4397339932
31
0.0000000000
0
SPLINE
5
341
100
AcDbEntity
8
0
100
AcDbSpline
62
0
6
CONTINUOUS
70
0
71
3
72
12
73
8
74
6
42
0.0000001000
43
0.0000001000
44
0.0000000001
12
-1.4499575010
22
-1.4496808863
32
0.0000000000
13
-2.0503539658
23
-0.0002035669
33
0.0000000000
40
0.0000000000
40
0.0000000000
40
0.0000000000
40
0.0000000000
40
0.2337947635
40
0.4486568299
40
0.6467311718
40
0.8300709801
40
1.0000000000
40
1.0000000000
40
1.0000000000
40
1.0000000000
10
8.4952435313
20
29.4397339932
30
0.0000000000
10
8.3822460410
20
29.3267580599
30
0.0000000000
10
8.1508611134
20
29.1238017156
30
0.0000000000
10
7.7800092575
20
28.8806879753
30
0.0000000000
10
7.4086084601
20
28.7090228487
30
0.0000000000
10
7.0442030442
20
28.6068384592
30
0.0000000000
10
6.8023305393
20
28.5830151274
30
0.0000000000
10
6.6861923260
20
28.5830035968
30
0.0000000000
11
8.4952435313
21
29.4397339932
31
0.0000000000
11
8.1340677515
21
29.1245514983
31
0.0000000000
11
7.7648552122
21
28.8842173705
31
0.0000000000
11
7.3955143777
21
28.7153302934
31
0.0000000000
11
7.0330815264
21
28.6155711449
31
0.0000000000
11
6.6861923260
21
28.5830035968
31
0.0000000000
0
SPLINE
5
342
100
AcDbEntity
8
0
100
AcDbSpline
62
0
6
CONTINUOUS
70
0
71
3
72
15
73
11
74
9
42
0.0000001000
43
0.0000001000
44
0.0000000001
12
0.0906797416
22
1.7564140788
32
0.0000000000
13
-1.6685738190
23
-0.5559448195
33
0.0000000000
40
0.0000000000
40
0.0000000000
40
0.0000000000
40
0.0000000000
40
0.0244013203
40
0.0667527201
40
0.1405787248
40
0.2494548565
40
0.3915688879
40
0.5644734043
40
0.7675059770
40
1.0000000000
40
1.0000000000
40
1.0000000000
40
1.0000000000
10
18.0585326427
20
43.7435429867
30
0.0000000000
10
18.0592702112
20
43.7578292608
30
0.0000000000
10
18.0352149106
20
43.7969390227
30
0.0000000000
10
17.9484881209
20
43.8089065436
30
0.0000000000
10
17.8187598285
20
43.8087004508
30
0.0000000000
10
17.6286143963
20
43.7818181870
30
0.0000000000
10
17.3855005086
20
43.7326386190
30
0.0000000000
10
17.0907142343
20
43.6583566155
30
0.0000000000
10
16.7479842819
20
43.5596140031
30
0.0000000000
10
16.5047350731
20
43.4818224018
30
0.0000000000
10
16.3754239265
20
43.4387377859
30
0.0000000000
11
18.0585326427
21
43.7435429867
31
0.0000000000
11
18.0393949797
21
43.7819555443
31
0.0000000000
11
17.9685308261
21
43.8048986483
31
0.0000000000
11
17.8386965607
21
43.8062909673
31
0.0000000000
11
17.6486322578
21
43.7829983149
31
0.0000000000
11
17.4034477787
21
43.7344562034
31
0.0000000000
11
17.1083135065
21
43.6611733486
31
0.0000000000
11
16.7650327243
21
43.5628502171
31
0.0000000000
11
16.3754239265
21
43.4387377859
31
0.0000000000
0
SPLINE
5
343
100
AcDbEntity
8
0
100
AcDbSpline
62
0
6
CONTINUOUS
70
0
71
3
72
10
73
6
74
4
42
0.0000001000
43
0.0000001000
44
0.0000000001
12
0.6890894078
22
-0.1744665457
32
0.0000000000
13
0.5947691418
23
0.3892716987
33
0.0000000000
40
0.0000000000
40
0.0000000000
40
0.0000000000
40
0.0000000000
40
0.3626529934
40
0.6963683951
40
1.0000000000
40
1.0000000000
40
1.0000000000
40
1.0000000000
10
12.4375906646
20
38.7348600810
30
0.0000000000
10
12.5208907768
20
38.7137698093
30
0.0000000000
10
12.6858265598
20
38.6896749503
30
0.0000000000
10
12.9241395913
20
38.7130496018
30
0.0000000000
10
13.0665455194
20
38.7723543695
30
0.0000000000
10
13.1267424224
20
38.8117527663
30
0.0000000000
11
12.4375906646
21
38.7348600810
31
0.0000000000
11
12.6929565255
21
38.6996230081
31
0.0000000000
11
12.9287093415
21
38.7259273263
31
0.0000000000
11
13.1267424224
21
38.8117527663
31
0.0000000000
0
SPLINE
5
344
100
AcDbEntity
8
0
100
AcDbSpline
62
0
6
CONTINUOUS
70
0
71
3
72
12
73
8
74
6
42
0.0000001000
43
0.0000001000
44
0.0000000001
12
-0.9032075246
22
-1.0522803656
32
0.0000000000
13
-1.3615047578
23
-0.2634057608
33
0.0000000000
40
0.0000000000
40
0.0000000000
40
0.0000000000
40
0.0000000000
40
0.2514009783
40
0.4760145331
40
0.6748639701
40
0.8491461525
40
1.0000000000
40
1.0000000000
40
1.0000000000
40
1.0000000000
10
7.8060917735
20
30.1288857510
30
0.0000000000
10
7.7304026884
20
30.0407043132
30
0.0000000000
10
7.5795087852
20
29.8799980118
30
0.0000000000
10
7.3438720130
20
29.6747352433
30
0.0000000000
10
7.1157939694
20
29.5175004506
30
0.0000000000
10
6.8991174370
20
29.4075048758
30
0.0000000000
10
6.7546550697
20
29.3622932974
30
0.0000000000
10
6.6861923260
20
29.3490480399
30
0.0000000000
11
7.8060917735
21
30.1288857510
31
0.0000000000
11
7.5667463019
21
29.8753961508
31
0.0000000000
11
7.3310157859
21
29.6717965419
31
0.0000000000
11
7.1030339754
21
29.5166678759
31
0.0000000000
11
6.8865523462
21
29.4092071574
31
0.0000000000
11
6.6861923260
21
29.3490480399
31
0.0000000000
0
SPLINE
5
345
100
AcDbEntity
8
0
100
AcDbSpline
62
0
6
CONTINUOUS
70
0
71
3
72
10
73
6
74
4
42
0.0000001000
43
0.0000001000
44
0.0000000001
12
-0.6890896590
22
-0.1744666093
32
0.0000000000
13
-0.5947693586
23
0.3892718407
33
0.0000000000
40
0.0000000000
40
0.0000000000
40
0.0000000000
40
0.0000000000
40
0.3625018685
40
0.6966355479
40
1.0000000000
40
1.0000000000
40
1.0000000000
40
1.0000000000
10
-10.4802280909
20
38.7348600810
30
0.0000000000
10
-10.5634935206
20
38.7137785904
30
0.0000000000
10
-10.7284882607
20
38.6896676308
30
0.0000000000
10
-10.9668111300
20
38.7130493385
30
0.0000000000
10
-11.1092358885
20
38.7723890201
30
0.0000000000
10
-11.1693798487
20
38.8117527663
30
0.0000000000
11
-10.4802280909
21
38.7348600810
31
0.0000000000
11
-10.7354858759
21
38.6996249797
31
0.0000000000
11
-10.9715328009
21
38.7259754392
31
0.0000000000
11
-11.1693798487
21
38.8117527663
31
0.0000000000
0
SPLINE
5
346
100
AcDbEntity
8
0
100
AcDbSpline
62
0
6
CONTINUOUS
70
0
71
3
72
10
73
6
74
4
42
0.0000001000
43
0.0000001000
44
0.0000000001
12
-0.0700932984
22
2.9798137208
32
0.0000000000
13
-0.8234759541
23
2.8646274163
33
0.0000000000
40
0.0000000000
40
0.0000000000
40
0.0000000000
40
0.0000000000
40
0.3260286948
40
0.6602702983
40
1.0000000000
40
1.0000000000
40
1.0000000000
40
1.0000000000
10
18.4767401583
20
40.7995341357
30
0.0000000000
10
18.4691226828
20
41.1233690617
30
0.0000000000
10
18.4307360382
20
41.7788729148
30
0.0000000000
10
18.3011993332
20
42.7649080988
30
0.0000000000
10
18.1517857228
20
43.4191433141
30
0.0000000000
10
18.0585326427
20
43.7435429867
30
0.0000000000
11
18.4767401583
21
40.7995341357
31
0.0000000000
11
18.4197192428
21
41.7696332968
31
0.0000000000
11
18.2866346936
21
42.7569574532
31
0.0000000000
11
18.0585326427
21
43.7435429867
31
0.0000000000
0
SPLINE
5
347
100
AcDbEntity
8
0
100
AcDbSpline
62
0
6
CONTINUOUS
70
0
71
3
72
10
73
6
74
4
42
0.0000001000
43
0.0000001000
44
0.0000000001
12
-0.8234759099
22
-2.8646274283
32
0.0000000000
13
-0.0700932518
23
-2.9798137212
33
0.0000000000
40
0.0000000000
40
0.0000000000
40
0.0000000000
40
0.0000000000
40
0.3397297015
40
0.6739713066
40
1.0000000000
40
1.0000000000
40
1.0000000000
40
1.0000000000
10
-16.1011700690
20
43.7435429867
30
0.0000000000
10
-16.1944231440
20
43.4191433129
30
0.0000000000
10
-16.3438367676
20
42.7649080993
30
0.0000000000
10
-16.4733734518
20
41.7788729129
30
0.0000000000
10
-16.5117601147
20
41.1233690610
30
0.0000000000
10
-16.5193775851
20
40.7995341363
30
0.0000000000
11
-16.1011700690
21
43.7435429867
31
0.0000000000
11
-16.3292721210
21
42.7569574542
31
0.0000000000
11
-16.4623566647
21
41.7696332928
31
0.0000000000
11
-16.5193775851
21
40.7995341363
31
0.0000000000
0
SPLINE
5
348
100
AcDbEntity
8
0
100
AcDbSpline
62
0
6
CONTINUOUS
70
0
71
3
72
12
73
8
74
6
42
0.0000001000
43
0.0000001000
44
0.0000000001
12
-1.3615046922
22
0.2634060329
32
0.0000000000
13
-0.9032076563
23
1.0522802359
33
0.0000000000
40
0.0000000000
40
0.0000000000
40
0.0000000000
40
0.0000000000
40
0.1508538203
40
0.3251360293
40
0.5239854606
40
0.7485990229
40
1.0000000000
40
1.0000000000
40
1.0000000000
40
1.0000000000
10
-4.7288297523
20
29.3490480399
30
0.0000000000
10
-4.7972924804
20
29.3622933087
30
0.0000000000
10
-4.9417547912
20
29.4075050361
30
0.0000000000
10
-5.1584314337
20
29.5175003634
30
0.0000000000
10
-5.3865094215
20
29.6747352802
30
0.0000000000
10
-5.6221462314
20
29.8799979891
30
0.0000000000
10
-5.7730401040
20
30.0407043245
30
0.0000000000
10
-5.8487291998
20
30.1288857510
30
0.0000000000
11
-4.7288297523
21
29.3490480399
31
0.0000000000
11
-4.9291897084
21
29.4092072327
31
0.0000000000
11
-5.1456714206
21
29.5166678623
31
0.0000000000
11
-5.3736532080
21
29.6717965435
31
0.0000000000
11
-5.6093837363
21
29.8753961498
31
0.0000000000
11
-5.8487291998
21
30.1288857510
31
0.0000000000
0
SPLINE
5
349
100
AcDbEntity
8
0
100
AcDbSpline
62
0
6
CONTINUOUS
70
0
71
3
72
15
73
11
74
9
42
0.0000001000
43
0.0000001000
44
0.0000000001
12
-1.6685736492
22
0.5559453173
32
0.0000000000
13
0.0906778816
23
-1.7564141711
33
0.0000000000
40
0.0000000000
40
0.0000000000
40
0.0000000000
40
0.0000000000
40
0.2324940236
40
0.4355265966
40
0.6084311134
40
0.7505451452
40
0.8594212766
40
0.9332472832
40
0.9755986808
40
1.0000000000
40
1.0000000000
40
1.0000000000
40
1.0000000000
10
-14.4180613527
20
43.4387377859
30
0.0000000000
10
-14.5473724865
20
43.4818224405
30
0.0000000000
10
-14.7906217128
20
43.5596139894
30
0.0000000000
10
-15.1333516600
20
43.6583566170
30
0.0000000000
10
-15.4281379351
20
43.7326386181
30
0.0000000000
10
-15.6712518217
20
43.7818181908
30
0.0000000000
10
-15.8613972568
20
43.8087004420
30
0.0000000000
10
-15.9911255447
20
43.8089065567
30
0.0000000000
10
-16.0778523403
20
43.7969390127
30
0.0000000000
10
-16.1019076223
20
43.7578292609
30
0.0000000000
10
-16.1011700690
20
43.7435429867
30
0.0000000000
11
-14.4180613527
21
43.4387377859
31
0.0000000000
11
-14.8076701504
21
43.5628502179
31
0.0000000000
11
-15.1509509330
21
43.6611733476
31
0.0000000000
11
-15.4460852050
21
43.7344562039
31
0.0000000000
11
-15.6912696841
21
43.7829983151
31
0.0000000000
11
-15.8813339864
21
43.8062909659
31
0.0000000000
11
-16.0111682549
21
43.8048986520
31
0.0000000000
11
-16.0820324016
21
43.7819555398
31
0.0000000000
11
-16.1011700690
21
43.7435429867
31
0.0000000000
0
SPLINE
5
34A
100
AcDbEntity
8
0
100
AcDbSpline
62
0
6
CONTINUOUS
70
0
71
3
72
13
73
9
74
7
42
0.0000001000
43
0.0000001000
44
0.0000000001
12
-0.0462418833
22
1.5437921270
32
0.0000000000
13
-1.5444844826
23
-0.0003553269
33
0.0000000000
40
0.0000000000
40
0.0000000000
40
0.0000000000
40
0.0000000000
40
0.1735483934
40
0.3451827456
40
0.5153042861
40
0.6831968622
40
0.8460061365
40
1.0000000000
40
1.0000000000
40
1.0000000000
40
1.0000000000
10
71.1483271909
20
39.1129260249
30
0.0000000000
10
71.1456521228
20
39.2022335727
30
0.0000000000
10
71.1183257748
20
39.3800096618
30
0.0000000000
10
71.0133777444
20
39.6266019837
30
0.0000000000
10
70.8510383944
20
39.8365430666
30
0.0000000000
10
70.6430996256
20
39.9941763131
30
0.0000000000
10
70.4090508502
20
40.0885235922
30
0.0000000000
10
70.2452265406
20
40.1090682918
30
0.0000000000
10
70.1659461631
20
40.1090500524
30
0.0000000000
11
71.1483271909
21
39.1129260249
31
0.0000000000
11
71.1073111864
21
39.3778121025
31
0.0000000000
11
71.0031682071
21
39.6215848363
31
0.0000000000
11
70.8420520520
21
39.8291401118
31
0.0000000000
11
70.6352199176
21
39.9855397288
31
0.0000000000
11
70.4019292870
21
40.0793789799
31
0.0000000000
11
70.1659461631
21
40.1090500524
31
0.0000000000
0
SPLINE
5
34B
100
AcDbEntity
8
0
100
AcDbSpline
62
0
6
CONTINUOUS
70
0
71
3
72
10
73
6
74
4
42
0.0000001000
43
0.0000001000
44
0.0000000001
12
-0.3956010813
22
12.1280536525
32
0.0000000000
13
-0.3672127819
23
12.1289463840
33
0.0000000000
40
0.0000000000
40
0.0000000000
40
0.0000000000
40
0.0000000000
40
0.3237855905
40
0.6570368498
40
1.0000000000
40
1.0000000000
40
1.0000000000
40
1.0000000000
10
71.5289363402
20
26.9843951043
30
0.0000000000
10
71.4862396970
20
28.2933581086
30
0.0000000000
10
71.4007710027
20
30.9495892069
30
0.0000000000
10
71.2739857077
20
34.9924366949
30
0.0000000000
10
71.1903073418
20
37.7263321382
30
0.0000000000
10
71.1483271909
20
39.1129260249
30
0.0000000000
11
71.5289363402
21
26.9843951043
31
0.0000000000
11
71.4025283465
21
30.9113386194
31
0.0000000000
11
71.2757162960
21
34.9531884764
31
0.0000000000
11
71.1483271909
21
39.1129260249
31
0.0000000000
0
SPLINE
5
34C
100
AcDbEntity
8
0
100
AcDbSpline
62
0
6
CONTINUOUS
70
0
71
3
72
10
73
6
74
4
42
0.0000001000
43
0.0000001000
44
0.0000000001
12
-0.2329641605
22
7.2574648668
32
0.0000000000
13
-0.2367250369
23
7.2573431674
33
0.0000000000
40
0.0000000000
40
0.0000000000
40
0.0000000000
40
0.0000000000
40
0.3332401865
40
0.6665735415
40
1.0000000000
40
1.0000000000
40
1.0000000000
40
1.0000000000
10
71.7638378762
20
19.7269927584
30
0.0000000000
10
71.7379602027
20
20.5331524070
30
0.0000000000
10
71.6860469126
20
22.1456922593
30
0.0000000000
10
71.6077327844
20
24.5648259689
30
0.0000000000
10
71.5552464705
20
26.1777983607
30
0.0000000000
10
71.5289363402
20
26.9843951043
30
0.0000000000
11
71.7638378762
21
19.7269927584
31
0.0000000000
11
71.6859819799
21
22.1454645397
31
0.0000000000
11
71.6076726944
21
24.5645985523
31
0.0000000000
11
71.5289363402
21
26.9843951043
31
0.0000000000
0
SPLINE
5
34D
100
AcDbEntity
8
0
100
AcDbSpline
62
0
6
CONTINUOUS
70
0
71
3
72
11
73
7
74
5
42
0.0000001000
43
0.0000001000
44
0.0000000001
12
0.0000000000
22
3.5657503979
32
0.0000000000
13
3.1637912899
23
1.6589907207
33
0.0000000000
40
0.0000000000
40
0.0000000000
40
0.0000000000
40
0.0000000000
40
0.2414416012
40
0.5009065361
40
0.7895365496
40
1.0000000000
40
1.0000000000
40
1.0000000000
40
1.0000000000
10
-4.5213187131
20
35.1453856780
30
0.0000000000
10
-4.5213187131
20
35.4323591731
30
0.0000000000
10
-4.4033579656
20
36.0325097401
30
0.0000000000
10
-3.9048984733
20
36.8457300477
30
0.0000000000
10
-3.2291407635
20
37.4572914363
30
0.0000000000
10
-2.7210947919
20
37.7679160305
30
0.0000000000
10
-2.4991406482
20
37.8843016676
30
0.0000000000
11
-4.5213187131
21
35.1453856780
31
0.0000000000
11
-4.3615359764
21
35.9913487737
31
0.0000000000
11
-3.8914355541
21
36.7882031762
31
0.0000000000
11
-3.1382925119
21
37.4896248414
31
0.0000000000
11
-2.4991406482
21
37.8843016676
31
0.0000000000
0
SPLINE
5
34E
100
AcDbEntity
8
0
100
AcDbSpline
62
0
6
CONTINUOUS
70
0
71
3
72
8
73
4
74
2
42
0.0000001000
43
0.0000001000
44
0.0000000001
12
0.0404816275
22
0.0212272676
32
0.0000000000
13
0.0406503297
23
0.0209045955
33
0.0000000000
40
0.0000000000
40
0.0000000000
40
0.0000000000
40
0.0000000000
40
1.0000000000
40
1.0000000000
40
1.0000000000
40
1.0000000000
10
-2.4991406482
20
37.8843016676
30
0.0000000000
10
-2.4856467723
20
37.8913774235
30
0.0000000000
10
-2.4721243790
20
37.8983992081
30
0.0000000000
10
-2.4585742691
20
37.9053674066
30
0.0000000000
11
-2.4991406482
21
37.8843016676
31
0.0000000000
11
-2.4585742691
21
37.9053674066
31
0.0000000000
0
SPLINE
5
34F
100
AcDbEntity
8
0
100
AcDbSpline
62
0
6
CONTINUOUS
70
0
71
3
72
14
73
10
74
8
42
0.0000001000
43
0.0000001000
44
0.0000000001
12
6.3287923905
22
3.2546069371
32
0.0000000000
13
6.3287923905
23
-3.2546069371
33
0.0000000000
40
0.0000000000
40
0.0000000000
40
0.0000000000
40
0.0000000000
40
0.0487124487
40
0.2231525258
40
0.4066624468
40
0.5933375532
40
0.7768474742
40
0.9512875513
40
1.0000000000
40
1.0000000000
40
1.0000000000
40
1.0000000000
10
-2.4585742691
20
37.9053674066
30
0.0000000000
10
-2.3558106109
20
37.9582140311
30
0.0000000000
10
-1.8777457151
20
38.1861861538
30
0.0000000000
10
-0.9589372301
20
38.4901855463
30
0.0000000000
10
0.3205998444
20
38.6893641043
30
0.0000000000
10
1.6367627293
20
38.6893641043
30
0.0000000000
10
2.9162998038
20
38.4901855463
30
0.0000000000
10
3.8351082889
20
38.1861861538
30
0.0000000000
10
4.3131731846
20
37.9582140311
30
0.0000000000
10
4.4159368429
20
37.9053674066
30
0.0000000000
11
-2.4585742691
21
37.9053674066
31
0.0000000000
11
-2.1458501486
21
38.0548289602
31
0.0000000000
11
-0.9717784606
21
38.4509459925
31
0.0000000000
11
0.3156801587
21
38.6549371269
31
0.0000000000
11
1.6416824150
21
38.6549371269
31
0.0000000000
11
2.9291410343
21
38.4509459925
31
0.0000000000
11
4.1032127223
21
38.0548289602
31
0.0000000000
11
4.4159368429
21
37.9053674066
31
0.0000000000
0
SPLINE
5
350
100
AcDbEntity
8
0
100
AcDbSpline
62
0
6
CONTINUOUS
70
0
71
3
72
8
73
4
74
2
42
0.0000001000
43
0.0000001000
44
0.0000000001
12
0.0406503297
22
-0.0209045955
32
0.0000000000
13
0.0404816275
23
-0.0212272676
33
0.0000000000
40
0.0000000000
40
0.0000000000
40
0.0000000000
40
0.0000000000
40
1.0000000000
40
1.0000000000
40
1.0000000000
40
1.0000000000
10
4.4159368429
20
37.9053674066
30
0.0000000000
10
4.4294869527
20
37.8983992081
30
0.0000000000
10
4.4430093460
20
37.8913774235
30
0.0000000000
10
4.4565032219
20
37.8843016676
30
0.0000000000
11
4.4159368429
21
37.9053674066
31
0.0000000000
11
4.4565032219
21
37.8843016676
31
0.0000000000
0
SPLINE
5
351
100
AcDbEntity
8
0
100
AcDbSpline
62
0
6
CONTINUOUS
70
0
71
3
72
11
73
7
74
5
42
0.0000001000
43
0.0000001000
44
0.0000000001
12
3.1637912899
22
-1.6589907207
32
0.0000000000
13
0.0000000000
23
-3.5657503979
33
0.0000000000
40
0.0000000000
40
0.0000000000
40
0.0000000000
40
0.0000000000
40
0.2104634504
40
0.4990934639
40
0.7585583988
40
1.0000000000
40
1.0000000000
40
1.0000000000
40
1.0000000000
10
4.4565032219
20
37.8843016676
30
0.0000000000
10
4.6784573656
20
37.7679160305
30
0.0000000000
10
5.1865033373
20
37.4572914363
30
0.0000000000
10
5.8622610470
20
36.8457300477
30
0.0000000000
10
6.3607205393
20
36.0325097401
30
0.0000000000
10
6.4786812869
20
35.4323591731
30
0.0000000000
10
6.4786812869
20
35.1453856780
30
0.0000000000
11
4.4565032219
21
37.8843016676
31
0.0000000000
11
5.0956550856
21
37.4896248414
31
0.0000000000
11
5.8487981279
21
36.7882031762
31
0.0000000000
11
6.3188985501
21
35.9913487737
31
0.0000000000
11
6.4786812869
21
35.1453856780
31
0.0000000000
0
SPLINE
5
352
100
AcDbEntity
8
0
100
AcDbSpline
62
0
6
CONTINUOUS
70
0
71
3
72
10
73
6
74
4
42
0.0000001000
43
0.0000001000
44
0.0000000001
12
0.9404428001
22
4.7254196332
32
0.0000000000
13
1.3252400021
23
4.6322524011
33
0.0000000000
40
0.0000000000
40
0.0000000000
40
0.0000000000
40
0.0000000000
40
0.3780175214
40
0.7105994361
40
1.0000000000
40
1.0000000000
40
1.0000000000
40
1.0000000000
10
72.1452303601
20
39.1431078623
30
0.0000000000
10
72.2637316456
20
39.7385383347
30
0.0000000000
10
72.4968948519
20
40.8558185793
30
0.0000000000
10
72.8618597269
20
42.4199946609
30
0.0000000000
10
73.1177399370
20
43.3858233460
30
0.0000000000
10
73.2455816716
20
43.8326821650
30
0.0000000000
11
72.1452303601
21
39.1431078623
31
0.0000000000
11
72.5192121755
21
40.9256222720
31
0.0000000000
11
72.8858762623
21
42.4855189094
31
0.0000000000
11
73.2455816716
21
43.8326821650
31
0.0000000000
0
SPLINE
5
353
100
AcDbEntity
8
0
100
AcDbSpline
62
0
6
CONTINUOUS
70
0
71
3
72
10
73
6
74
4
42
0.0000001000
43
0.0000001000
44
0.0000000001
12
-0.3958948341
22
12.1257077531
32
0.0000000000
13
-0.3675357779
23
12.1266004587
33
0.0000000000
40
0.0000000000
40
0.0000000000
40
0.0000000000
40
0.0000000000
40
0.3237785198
40
0.6570294433
40
1.0000000000
40
1.0000000000
40
1.0000000000
40
1.0000000000
10
72.5261469835
20
27.0169228106
30
0.0000000000
10
72.4834195691
20
28.3256040466
30
0.0000000000
10
72.3978867751
20
30.9812914392
30
0.0000000000
10
72.2710005683
20
35.0233570201
30
0.0000000000
10
72.1872483436
20
37.7567522256
30
0.0000000000
10
72.1452303601
20
39.1431078623
30
0.0000000000
11
72.5261469835
21
27.0169228106
31
0.0000000000
11
72.3996456151
21
30.9430210376
31
0.0000000000
11
72.2727319605
21
34.9840850801
31
0.0000000000
11
72.1452303601
21
39.1431078623
31
0.0000000000
0
SPLINE
5
354
100
AcDbEntity
8
0
100
AcDbSpline
62
0
6
CONTINUOUS
70
0
71
3
72
9
73
5
74
3
42
0.0000001000
43
0.0000001000
44
0.0000000001
12
-0.6254298764
22
4.6219384713
32
0.0000000000
13
-0.7023786256
23
4.6108721549
33
0.0000000000
40
0.0000000000
40
0.0000000000
40
0.0000000000
40
0.0000000000
40
0.2498378969
40
1.0000000000
40
1.0000000000
40
1.0000000000
40
1.0000000000
10
73.1901041181
20
22.4003921592
30
0.0000000000
10
73.1380187565
20
22.7853039550
30
0.0000000000
10
72.9263261378
20
24.3255132500
30
0.0000000000
10
72.7017795925
20
25.8639556264
30
0.0000000000
10
72.5261469835
20
27.0169228106
30
0.0000000000
11
73.1901041181
21
22.4003921592
31
0.0000000000
11
73.0314387502
21
23.5547989680
31
0.0000000000
11
72.5261469835
21
27.0169228106
31
0.0000000000
0
SPLINE
5
355
100
AcDbEntity
8
0
100
AcDbSpline
62
0
6
CONTINUOUS
70
0
71
3
72
10
73
6
74
4
42
0.0000001000
43
0.0000001000
44
0.0000000001
12
-0.2247314205
22
6.9921845021
32
0.0000000000
13
-0.2282090281
23
6.9920718648
33
0.0000000000
40
0.0000000000
40
0.0000000000
40
0.0000000000
40
0.0000000000
40
0.3332450164
40
0.6665783681
40
1.0000000000
40
1.0000000000
40
1.0000000000
40
1.0000000000
10
72.7526689953
20
20.0247961524
30
0.0000000000
10
72.7277054534
20
20.8014996987
30
0.0000000000
10
72.6776315158
20
22.3551081731
30
0.0000000000
10
72.6021127645
20
24.6858167204
30
0.0000000000
10
72.5515102591
20
26.2398201401
30
0.0000000000
10
72.5261469835
20
27.0169228106
30
0.0000000000
11
72.7526689953
21
20.0247961524
31
0.0000000000
11
72.6775718621
21
22.3549001450
31
0.0000000000
11
72.6020569474
21
24.6856089357
31
0.0000000000
11
72.5261469835
21
27.0169228106
31
0.0000000000
0
SPLINE
5
356
100
AcDbEntity
8
0
100
AcDbSpline
62
0
6
CONTINUOUS
70
0
71
3
72
10
73
6
74
4
42
0.0000001000
43
0.0000001000
44
0.0000000001
12
1.3251725081
22
-4.6320218745
32
0.0000000000
13
0.9403959223
23
-4.7251840527
33
0.0000000000
40
0.0000000000
40
0.0000000000
40
0.0000000000
40
0.0000000000
40
0.2894070059
40
0.6220036460
40
1.0000000000
40
1.0000000000
40
1.0000000000
40
1.0000000000
10
-71.2882244634
20
43.8324321292
30
0.0000000000
10
-71.1603863941
20
43.3855856018
30
0.0000000000
10
-70.9044099504
20
42.4197989434
30
0.0000000000
10
-70.5395176765
20
40.8556865295
30
0.0000000000
10
-70.3063565296
20
39.7384753148
30
0.0000000000
10
-70.1878677863
20
39.1431078668
30
0.0000000000
11
-71.2882244634
21
43.8324321292
31
0.0000000000
11
-70.9284647608
21
42.4853231969
31
0.0000000000
11
-70.5618078504
21
40.9254340582
31
0.0000000000
11
-70.1878677863
21
39.1431078668
31
0.0000000000
0
SPLINE
5
357
100
AcDbEntity
8
0
100
AcDbSpline
62
0
6
CONTINUOUS
70
0
71
3
72
10
73
6
74
4
42
0.0000001000
43
0.0000001000
44
0.0000000001
12
-0.2367250369
22
-7.2573431674
32
0.0000000000
13
-0.2329641605
23
-7.2574648667
33
0.0000000000
40
0.0000000000
40
0.0000000000
40
0.0000000000
40
0.0000000000
40
0.3334264585
40
0.6667598135
40
1.0000000000
40
1.0000000000
40
1.0000000000
40
1.0000000000
10
-69.5715737665
20
26.9843951042
30
0.0000000000
10
-69.5978838967
20
26.1777983607
30
0.0000000000
10
-69.6503702106
20
24.5648259689
30
0.0000000000
10
-69.7286843389
20
22.1456922593
30
0.0000000000
10
-69.7805976290
20
20.5331524070
30
0.0000000000
10
-69.8064753025
20
19.7269927584
30
0.0000000000
11
-69.5715737665
21
26.9843951042
31
0.0000000000
11
-69.6503101207
21
24.5645985523
31
0.0000000000
11
-69.7286194062
21
22.1454645397
31
0.0000000000
11
-69.8064753025
21
19.7269927584
31
0.0000000000
0
SPLINE
5
358
100
AcDbEntity
8
0
100
AcDbSpline
62
0
6
CONTINUOUS
70
0
71
3
72
10
73
6
74
4
42
0.0000001000
43
0.0000001000
44
0.0000000001
12
-0.3675357781
22
-12.1266004632
32
0.0000000000
13
-0.3958948339
23
-12.1257077576
33
0.0000000000
40
0.0000000000
40
0.0000000000
40
0.0000000000
40
0.0000000000
40
0.3429705632
40
0.6762214864
40
1.0000000000
40
1.0000000000
40
1.0000000000
40
1.0000000000
10
-70.1878677863
20
39.1431078668
30
0.0000000000
10
-70.2298857706
20
37.7567522032
30
0.0000000000
10
-70.3136379961
20
35.0233569714
30
0.0000000000
10
-70.4405242030
20
30.9812913890
30
0.0000000000
10
-70.5260569962
20
28.3256040218
30
0.0000000000
10
-70.5687844098
20
27.0169228106
30
0.0000000000
11
-70.1878677863
21
39.1431078668
31
0.0000000000
11
-70.3153693891
21
34.9840850039
31
0.0000000000
11
-70.4422830438
21
30.9430209633
31
0.0000000000
11
-70.5687844098
21
27.0169228106
31
0.0000000000
0
SPLINE
5
359
100
AcDbEntity
8
0
100
AcDbSpline
62
0
6
CONTINUOUS
70
0
71
3
72
9
73
5
74
3
42
0.0000001000
43
0.0000001000
44
0.0000000001
12
0.6254298764
22
4.6219384713
32
0.0000000000
13
0.7023786256
23
4.6108721549
33
0.0000000000
40
0.0000000000
40
0.0000000000
40
0.0000000000
40
0.0000000000
40
0.2498378969
40
1.0000000000
40
1.0000000000
40
1.0000000000
40
1.0000000000
10
-71.2327415444
20
22.4003921592
30
0.0000000000
10
-71.1806561827
20
22.7853039550
30
0.0000000000
10
-70.9689635640
20
24.3255132500
30
0.0000000000
10
-70.7444170188
20
25.8639556264
30
0.0000000000
10
-70.5687844098
20
27.0169228106
30
0.0000000000
11
-71.2327415444
21
22.4003921592
31
0.0000000000
11
-71.0740761765
21
23.5547989680
31
0.0000000000
11
-70.5687844098
21
27.0169228106
31
0.0000000000
0
SPLINE
5
35A
100
AcDbEntity
8
0
100
AcDbSpline
62
0
6
CONTINUOUS
70
0
71
3
72
10
73
6
74
4
42
0.0000001000
43
0.0000001000
44
0.0000000001
12
-0.2282090281
22
-6.9920718648
32
0.0000000000
13
-0.2247314205
23
-6.9921845021
33
0.0000000000
40
0.0000000000
40
0.0000000000
40
0.0000000000
40
0.0000000000
40
0.3334216319
40
0.6667549836
40
1.0000000000
40
1.0000000000
40
1.0000000000
40
1.0000000000
10
-70.5687844098
20
27.0169228106
30
0.0000000000
10
-70.5941476853
20
26.2398201401
30
0.0000000000
10
-70.6447501907
20
24.6858167204
30
0.0000000000
10
-70.7202689421
20
22.3551081731
30
0.0000000000
10
-70.7703428796
20
20.8014996987
30
0.0000000000
10
-70.7953064216
20
20.0247961524
30
0.0000000000
11
-70.5687844098
21
27.0169228106
31
0.0000000000
11
-70.6446943737
21
24.6856089358
31
0.0000000000
11
-70.7202092884
21
22.3549001450
31
0.0000000000
11
-70.7953064216
21
20.0247961524
31
0.0000000000
0
SPLINE
5
35B
100
AcDbEntity
8
0
100
AcDbSpline
62
0
6
CONTINUOUS
70
0
71
3
72
10
73
6
74
4
42
0.0000001000
43
0.0000001000
44
0.0000000001
12
-0.8240815857
22
-2.8827640954
32
0.0000000000
13
-0.0701152991
23
-2.9974194125
33
0.0000000000
40
0.0000000000
40
0.0000000000
40
0.0000000000
40
0.0000000000
40
0.3395259155
40
0.6736263991
40
1.0000000000
40
1.0000000000
40
1.0000000000
40
1.0000000000
10
-16.7903218268
20
44.0239903480
30
0.0000000000
10
-16.8835875117
20
43.6977326418
30
0.0000000000
10
-17.0329928206
20
43.0398019274
30
0.0000000000
10
-17.1626119211
20
42.0478625206
30
0.0000000000
10
-17.2009076228
20
41.3882715074
30
0.0000000000
10
-17.2085355504
20
41.0621786517
30
0.0000000000
11
-16.7903218268
21
44.0239903480
31
0.0000000000
11
-17.0184224784
21
43.0318949381
31
0.0000000000
11
-17.1515064998
21
42.0390616076
31
0.0000000000
11
-17.2085355504
21
41.0621786517
31
0.0000000000
0
SPLINE
5
35C
100
AcDbEntity
8
0
100
AcDbSpline
62
0
6
CONTINUOUS
70
0
71
3
72
15
73
11
74
9
42
0.0000001000
43
0.0000001000
44
0.0000000001
12
-2.4504936162
22
-0.0000630703
32
0.0000000000
13
-0.6702688910
23
-2.3570444588
33
0.0000000000
40
0.0000000000
40
0.0000000000
40
0.0000000000
40
0.0000000000
40
0.2131980928
40
0.4035246162
40
0.5699541905
40
0.7116405653
40
0.8258744262
40
0.9102031632
40
0.9661613556
40
1.0000000000
40
1.0000000000
40
1.0000000000
40
1.0000000000
10
-14.4180613527
20
44.4104864943
30
0.0000000000
10
-14.5922082079
20
44.4104820122
30
0.0000000000
10
-14.9218526338
20
44.4053026403
30
0.0000000000
10
-15.3869143700
20
44.3817695456
30
0.0000000000
10
-15.7925311929
20
44.3451237998
30
0.0000000000
10
-16.1343360360
20
44.2969059740
30
0.0000000000
10
-16.4065873081
20
44.2398762852
30
0.0000000000
10
-16.6050350647
20
44.1751939064
30
0.0000000000
10
-16.7318043467
20
44.1098130544
30
0.0000000000
10
-16.7827614966
20
44.0505767444
30
0.0000000000
10
-16.7903218268
20
44.0239903480
30
0.0000000000
11
-14.4180613527
21
44.4104864943
31
0.0000000000
11
-14.9404297653
21
44.4018039750
31
0.0000000000
11
-15.4061905521
21
44.3775101865
31
0.0000000000
11
-15.8122641094
21
44.3396507806
31
0.0000000000
11
-16.1558361951
21
44.2895793997
31
0.0000000000
11
-16.4291712809
21
44.2291776602
31
0.0000000000
11
-16.6245367265
21
44.1618327386
31
0.0000000000
11
-16.7423091358
21
44.0915975747
31
0.0000000000
11
-16.7903218268
21
44.0239903480
31
0.0000000000
0
SPLINE
5
35D
100
AcDbEntity
8
0
100
AcDbSpline
62
0
6
CONTINUOUS
70
0
71
3
72
15
73
11
74
9
42
0.0000001000
43
0.0000001000
44
0.0000000001
12
-0.6702671293
22
2.3570449627
32
0.0000000000
13
-2.4504936190
23
0.0000631933
33
0.0000000000
40
0.0000000000
40
0.0000000000
40
0.0000000000
40
0.0000000000
40
0.0338386418
40
0.0897968396
40
0.1741255743
40
0.2883594355
40
0.4300458109
40
0.5964753829
40
0.7868019094
40
1.0000000000
40
1.0000000000
40
1.0000000000
40
1.0000000000
10
18.7476844005
20
44.0239903480
30
0.0000000000
10
18.7401240907
20
44.0505767481
30
0.0000000000
10
18.6891669191
20
44.1098130616
30
0.0000000000
10
18.5623976407
20
44.1751938975
30
0.0000000000
10
18.3639498810
20
44.2398762899
30
0.0000000000
10
18.0916986098
20
44.2969059731
30
0.0000000000
10
17.7498937670
20
44.3451237967
30
0.0000000000
10
17.3442769434
20
44.3817695542
30
0.0000000000
10
16.8792152065
20
44.4053026264
30
0.0000000000
10
16.5495707800
20
44.4104820034
30
0.0000000000
10
16.3754239265
20
44.4104864943
30
0.0000000000
11
18.7476844005
21
44.0239903480
31
0.0000000000
11
18.6996717212
21
44.0915975755
31
0.0000000000
11
18.5818992955
21
44.1618327379
31
0.0000000000
11
18.3865338560
21
44.2291776605
31
0.0000000000
11
18.1131987691
21
44.2895793998
31
0.0000000000
11
17.7696266814
21
44.3396507798
31
0.0000000000
11
17.3635531295
21
44.3775101893
31
0.0000000000
11
16.8977923339
21
44.4018039668
31
0.0000000000
11
16.3754239265
21
44.4104864943
31
0.0000000000
0
SPLINE
5
35E
100
AcDbEntity
8
0
100
AcDbSpline
62
0
6
CONTINUOUS
70
0
71
3
72
10
73
6
74
4
42
0.0000001000
43
0.0000001000
44
0.0000000001
12
-0.0701153457
22
2.9974194119
32
0.0000000000
13
-0.8240816238
23
2.8827640850
33
0.0000000000
40
0.0000000000
40
0.0000000000
40
0.0000000000
40
0.0000000000
40
0.3263736008
40
0.6604740847
40
1.0000000000
40
1.0000000000
40
1.0000000000
40
1.0000000000
10
19.1658981236
20
41.0621786514
30
0.0000000000
10
19.1582701910
20
41.3882715070
30
0.0000000000
10
19.1199745069
20
42.0478625215
30
0.0000000000
10
18.9903553872
20
43.0398019260
30
0.0000000000
10
18.8409500897
20
43.6977326431
30
0.0000000000
10
18.7476844005
20
44.0239903480
30
0.0000000000
11
19.1658981236
21
41.0621786514
31
0.0000000000
11
19.1088690780
21
42.0390616076
31
0.0000000000
11
18.9757850510
21
43.0318949381
31
0.0000000000
11
18.7476844005
21
44.0239903480
31
0.0000000000
0
SPLINE
5
35F
100
AcDbEntity
8
0
100
AcDbSpline
62
0
6
CONTINUOUS
70
0
71
3
72
10
73
6
74
4
42
0.0000001000
43
0.0000001000
44
0.0000000001
12
0.9402000135
22
4.7814209844
32
0.0000000000
13
1.3263139596
23
4.6890141796
33
0.0000000000
40
0.0000000000
40
0.0000000000
40
0.0000000000
40
0.0000000000
40
0.3780380856
40
0.7105714461
40
1.0000000000
40
1.0000000000
40
1.0000000000
40
1.0000000000
10
70.1659461829
20
41.0621786135
30
0.0000000000
10
70.2844233206
20
41.6646983586
30
0.0000000000
10
70.5174429243
20
42.7952451802
30
0.0000000000
10
70.8828549994
20
44.3780862962
30
0.0000000000
10
71.1380338838
20
45.3558326945
30
0.0000000000
10
71.2659915943
20
45.8082108923
30
0.0000000000
11
70.1659461829
21
41.0621786135
31
0.0000000000
11
70.5399034061
21
42.8659961968
31
0.0000000000
11
70.9065831722
21
44.4443932829
31
0.0000000000
11
71.2659915943
21
45.8082108923
31
0.0000000000
0
SPLINE
5
360
100
AcDbEntity
8
0
100
AcDbSpline
62
0
6
CONTINUOUS
70
0
71
3
72
10
73
6
74
4
42
0.0000001000
43
0.0000001000
44
0.0000000001
12
1.3263083968
22
-4.6889945248
32
0.0000000000
13
0.9401960752
23
-4.7814009409
33
0.0000000000
40
0.0000000000
40
0.0000000000
40
0.0000000000
40
0.0000000000
40
0.2894702908
40
0.6220091383
40
1.0000000000
40
1.0000000000
40
1.0000000000
40
1.0000000000
10
-69.3085488848
20
45.8082108923
30
0.0000000000
10
-69.1805732590
20
45.3557693560
30
0.0000000000
10
-68.9254940854
20
44.3779216676
30
0.0000000000
10
-68.5600351810
20
42.7951001472
30
0.0000000000
10
-68.3270454508
20
41.6646205678
30
0.0000000000
10
-68.2085836093
20
41.0621786139
30
0.0000000000
11
-69.3085488848
21
45.8082108923
31
0.0000000000
11
-68.9491683241
21
44.4441817308
31
0.0000000000
11
-68.5824898989
21
42.8657638568
31
0.0000000000
11
-68.2085836093
21
41.0621786139
31
0.0000000000
0
SPLINE
5
361
100
AcDbEntity
8
0
100
AcDbSpline
62
0
6
CONTINUOUS
70
0
71
3
72
8
73
4
74
2
42
0.0000001000
43
0.0000001000
44
0.0000000001
12
-0.1116415543
22
0.1996620012
32
0.0000000000
13
-0.0814072771
23
0.2138553281
33
0.0000000000
40
0.0000000000
40
0.0000000000
40
0.0000000000
40
0.0000000000
40
1.0000000000
40
1.0000000000
40
1.0000000000
40
1.0000000000
10
-73.0219935164
20
-34.9212526869
30
0.0000000000
10
-73.0592073678
20
-34.8546986865
30
0.0000000000
10
-73.0916335308
20
-34.7854447300
30
0.0000000000
10
-73.1187692899
20
-34.7141596206
30
0.0000000000
11
-73.0219935164
21
-34.9212526869
31
0.0000000000
11
-73.1187692899
21
-34.7141596206
31
0.0000000000
0
SPLINE
5
362
100
AcDbEntity
8
0
100
AcDbSpline
62
0
6
CONTINUOUS
70
0
71
3
72
8
73
4
74
2
42
0.0000001000
43
0.0000001000
44
0.0000000001
12
0.1190712821
22
0.0000000000
32
0.0000000000
13
0.1189770698
23
-0.0085030803
33
0.0000000000
40
0.0000000000
40
0.0000000000
40
0.0000000000
40
0.0000000000
40
1.0000000000
40
1.0000000000
40
1.0000000000
40
1.0000000000
10
73.3010284777
20
49.8769172767
30
0.0000000000
10
73.3407189051
20
49.8769172767
30
0.0000000000
10
73.3804532549
20
49.8754931778
30
0.0000000000
10
73.4201122782
20
49.8726588177
30
0.0000000000
11
73.3010284777
21
49.8769172767
31
0.0000000000
11
73.4201122782
21
49.8726588177
31
0.0000000000
0
SPLINE
5
363
100
AcDbEntity
8
0
100
AcDbSpline
62
0
6
CONTINUOUS
70
0
71
3
72
8
73
4
74
2
42
0.0000001000
43
0.0000001000
44
0.0000000001
12
0.1190133294
22
-0.0085056717
32
0.0000000000
13
0.1182030201
23
-0.0169308453
33
0.0000000000
40
0.0000000000
40
0.0000000000
40
0.0000000000
40
0.0000000000
40
1.0000000000
40
1.0000000000
40
1.0000000000
40
1.0000000000
10
73.4201122782
20
49.8726588177
30
0.0000000000
10
73.4597833880
20
49.8698235937
30
0.0000000000
10
73.4993791253
20
49.8655772490
30
0.0000000000
10
73.5387801320
20
49.8599336339
30
0.0000000000
11
73.4201122782
21
49.8726588177
31
0.0000000000
11
73.5387801320
21
49.8599336339
31
0.0000000000
0
SPLINE
5
364
100
AcDbEntity
8
0
100
AcDbSpline
62
0
6
CONTINUOUS
70
0
71
3
72
13
73
9
74
7
42
0.0000001000
43
0.0000001000
44
0.0000000001
12
1.9260641143
22
-0.2758803751
32
0.0000000000
13
0.8361280552
23
-1.7546483657
33
0.0000000000
40
0.0000000000
40
0.0000000000
40
0.0000000000
40
0.0000000000
40
0.0615427283
40
0.2483363708
40
0.4422057707
40
0.6481889564
40
0.8683954401
40
1.0000000000
40
1.0000000000
40
1.0000000000
40
1.0000000000
10
73.5387801320
20
49.8599336339
30
0.0000000000
10
73.5782918788
20
49.8542741569
30
0.0000000000
10
73.7369389388
20
49.8257671290
30
0.0000000000
10
74.0102696139
20
49.7346696298
30
0.0000000000
10
74.3400950374
20
49.5415414932
30
0.0000000000
10
74.6403792564
20
49.2715918806
30
0.0000000000
10
74.8581322788
20
48.9810604538
30
0.0000000000
10
74.9669100111
20
48.7804144984
30
0.0000000000
10
75.0035894327
20
48.7034412564
30
0.0000000000
11
73.5387801320
21
49.8599336339
31
0.0000000000
11
73.6566075248
21
49.8387537635
31
0.0000000000
11
74.0007735352
21
49.7248346683
31
0.0000000000
11
74.3259583120
21
49.5355511774
31
0.0000000000
11
74.6241429007
21
49.2692725866
31
0.0000000000
11
74.8815304843
21
48.9280935383
31
0.0000000000
11
75.0035894327
21
48.7034412564
31
0.0000000000
0
SPLINE
5
365
100
AcDbEntity
8
0
100
AcDbSpline
62
0
6
CONTINUOUS
70
0
71
3
72
12
73
8
74
6
42
0.0000001000
43
0.0000001000
44
0.0000000001
12
0.8216470366
22
1.7166742438
32
0.0000000000
13
1.8803191513
23
0.3109996309
33
0.0000000000
40
0.0000000000
40
0.0000000000
40
0.0000000000
40
0.0000000000
40
0.2274558611
40
0.4748390726
40
0.7040060159
40
0.9271759401
40
1.0000000000
40
1.0000000000
40
1.0000000000
40
1.0000000000
10
-73.0444825797
20
48.7070917027
30
0.0000000000
10
-72.9821864350
20
48.8372475755
30
0.0000000000
10
-72.8281277716
20
49.0975516800
30
0.0000000000
10
-72.5265857240
20
49.4307694325
30
0.0000000000
10
-72.1600251510
20
49.6865159753
30
0.0000000000
10
-71.8472831698
20
49.8084926355
30
0.0000000000
10
-71.6629846814
20
49.8467916687
30
0.0000000000
10
-71.6173405232
20
49.8543410873
30
0.0000000000
11
-73.0444825797
21
48.7070917027
31
0.0000000000
11
-72.8232749086
21
49.0784693024
31
0.0000000000
11
-72.5065134951
21
49.4255455002
31
0.0000000000
11
-72.1485648702
21
49.6732391706
31
0.0000000000
11
-71.7531853954
21
49.8261028746
31
0.0000000000
11
-71.6173405232
21
49.8543410873
31
0.0000000000
0
SPLINE
5
366
100
AcDbEntity
8
0
100
AcDbSpline
62
0
6
CONTINUOUS
70
0
71
3
72
8
73
4
74
2
42
0.0000001000
43
0.0000001000
44
0.0000000001
12
0.1360156281
22
0.0224966119
32
0.0000000000
13
0.1372516735
23
0.0113176367
33
0.0000000000
40
0.0000000000
40
0.0000000000
40
0.0000000000
40
0.0000000000
40
1.0000000000
40
1.0000000000
40
1.0000000000
40
1.0000000000
10
-71.6173405232
20
49.8543410873
30
0.0000000000
10
-71.5720019805
20
49.8618399579
30
0.0000000000
10
-71.5263666621
20
49.8674904534
30
0.0000000000
10
-71.4806161043
20
49.8712629990
30
0.0000000000
11
-71.6173405232
21
49.8543410873
31
0.0000000000
11
-71.4806161043
21
49.8712629990
31
0.0000000000
0
SPLINE
5
367
100
AcDbEntity
8
0
100
AcDbSpline
62
0
6
CONTINUOUS
70
0
71
3
72
8
73
4
74
2
42
0.0000001000
43
0.0000001000
44
0.0000000001
12
0.1367865179
22
0.0112792804
32
0.0000000000
13
0.1369341859
23
0.0000000000
33
0.0000000000
40
0.0000000000
40
0.0000000000
40
0.0000000000
40
0.0000000000
40
1.0000000000
40
1.0000000000
40
1.0000000000
40
1.0000000000
10
-71.4806161043
20
49.8712629990
30
0.0000000000
10
-71.4350205983
20
49.8750227591
30
0.0000000000
10
-71.3893106327
20
49.8769172767
30
0.0000000000
10
-71.3436659040
20
49.8769172767
30
0.0000000000
11
-71.4806161043
21
49.8712629990
31
0.0000000000
11
-71.3436659040
21
49.8769172767
31
0.0000000000
0
SPLINE
5
368
100
AcDbEntity
8
0
100
AcDbSpline
62
0
6
CONTINUOUS
70
0
71
3
72
8
73
4
74
2
42
0.0000001000
43
0.0000001000
44
0.0000000001
12
-0.0814104528
22
-0.2138724880
32
0.0000000000
13
-0.1116495994
23
-0.1996775751
33
0.0000000000
40
0.0000000000
40
0.0000000000
40
0.0000000000
40
0.0000000000
40
1.0000000000
40
1.0000000000
40
1.0000000000
40
1.0000000000
10
75.0761394895
20
-34.7141397992
30
0.0000000000
10
75.0490026719
20
-34.7854306285
30
0.0000000000
10
75.0165745615
20
-34.8546900137
30
0.0000000000
10
74.9793580283
20
-34.9212492054
30
0.0000000000
11
75.0761394895
21
-34.7141397992
31
0.0000000000
11
74.9793580283
21
-34.9212492054
31
0.0000000000
0
SPLINE
5
369
100
AcDbEntity
8
0
100
AcDbSpline
62
0
6
CONTINUOUS
70
0
71
3
72
8
73
4
74
2
42
0.0000001000
43
0.0000001000
44
0.0000000001
12
0.1502058356
22
0.0002260699
32
0.0000000000
13
0.1499583466
23
0.0098709093
33
0.0000000000
40
0.0000000000
40
0.0000000000
40
0.0000000000
40
0.0000000000
40
1.0000000000
40
1.0000000000
40
1.0000000000
40
1.0000000000
10
73.1932048636
20
-35.8512202127
30
0.0000000000
10
73.2432734754
20
-35.8511448561
30
0.0000000000
10
73.2933625628
20
-35.8494674532
30
0.0000000000
10
73.3433486783
20
-35.8461771501
30
0.0000000000
11
73.1932048636
21
-35.8512202127
31
0.0000000000
11
73.3433486783
21
-35.8461771501
31
0.0000000000
0
SPLINE
5
36A
100
AcDbEntity
8
0
100
AcDbSpline
62
0
6
CONTINUOUS
70
0
71
3
72
9
73
5
74
3
42
0.0000001000
43
0.0000001000
44
0.0000000001
12
0.1477294043
22
0.0097241906
32
0.0000000000
13
0.1467888634
23
0.0191473227
33
0.0000000000
40
0.0000000000
40
0.0000000000
40
0.0000000000
40
0.0000000000
40
0.5010291559
40
1.0000000000
40
1.0000000000
40
1.0000000000
40
1.0000000000
10
73.3433486783
20
-35.8461771501
30
0.0000000000
10
73.3680209245
20
-35.8445531158
30
0.0000000000
10
73.4172139897
20
-35.8405274534
30
0.0000000000
10
73.4662479880
20
-35.8349312827
30
0.0000000000
10
73.4906624424
20
-35.8317466307
30
0.0000000000
11
73.3433486783
21
-35.8461771501
31
0.0000000000
11
73.4172753138
21
-35.8401249223
31
0.0000000000
11
73.4906624424
21
-35.8317466307
31
0.0000000000
0
SPLINE
5
36B
100
AcDbEntity
8
0
100
AcDbSpline
62
0
6
CONTINUOUS
70
0
71
3
72
16
73
12
74
10
42
0.0000001000
43
0.0000001000
44
0.0000000001
12
1.6503131261
22
0.2152689061
32
0.0000000000
13
0.9260953132
23
1.3832489471
33
0.0000000000
40
0.0000000000
40
0.0000000000
40
0.0000000000
40
0.0000000000
40
0.0883849854
40
0.2200400046
40
0.3495032980
40
0.4758124819
40
0.5999166831
40
0.7229026771
40
0.8436691671
40
0.9612804385
40
1.0000000000
40
1.0000000000
40
1.0000000000
40
1.0000000000
10
73.4906624424
20
-35.8317466307
30
0.0000000000
10
73.5392834095
20
-35.8254044510
30
0.0000000000
10
73.6598141495
20
-35.8057415182
30
0.0000000000
10
73.8482570119
20
-35.7590897376
30
0.0000000000
10
74.0510008745
20
-35.6869213264
30
0.0000000000
10
74.2416385174
20
-35.5964288846
30
0.0000000000
10
74.4188275595
20
-35.4885443764
30
0.0000000000
10
74.5809933657
20
-35.3641127687
30
0.0000000000
10
74.7256807497
20
-35.2248420346
30
0.0000000000
10
74.8236249983
20
-35.1059885844
30
0.0000000000
10
74.8733205908
20
-35.0348687001
30
0.0000000000
10
74.8852732590
20
-35.0170157692
30
0.0000000000
11
73.4906624424
21
-35.8317466307
31
0.0000000000
11
73.6358071282
21
-35.8080418195
31
0.0000000000
11
73.8483855819
21
-35.7552926059
31
0.0000000000
11
74.0512447138
21
-35.6829302083
31
0.0000000000
11
74.2410050452
21
-35.5926728589
31
0.0000000000
11
74.4172581906
21
-35.4851460504
31
0.0000000000
11
74.5794619561
21
-35.3604366941
31
0.0000000000
11
74.7240729363
21
-35.2209633435
31
0.0000000000
11
74.8483624846
21
-35.0698488054
31
0.0000000000
11
74.8852732590
21
-35.0170157692
31
0.0000000000
0
SPLINE
5
36C
100
AcDbEntity
8
0
100
AcDbSpline
62
0
6
CONTINUOUS
70
0
71
3
72
9
73
5
74
3
42
0.0000001000
43
0.0000001000
44
0.0000000001
12
0.0818490544
22
0.1222526630
32
0.0000000000
13
0.0702066696
23
0.1292945271
33
0.0000000000
40
0.0000000000
40
0.0000000000
40
0.0000000000
40
0.0000000000
40
0.8724360007
40
1.0000000000
40
1.0000000000
40
1.0000000000
40
1.0000000000
10
74.8852732590
20
-35.0170157692
30
0.0000000000
10
74.9090759462
20
-34.9814632277
30
0.0000000000
10
74.9347416936
20
-34.9396297351
30
0.0000000000
10
74.9584022061
20
-34.8966721319
30
0.0000000000
10
74.9613874873
20
-34.8911743563
30
0.0000000000
11
74.8852732590
21
-35.0170157692
31
0.0000000000
11
74.9523331166
21
-34.9076135271
31
0.0000000000
11
74.9613874873
21
-34.8911743563
31
0.0000000000
0
SPLINE
5
36D
100
AcDbEntity
8
0
100
AcDbSpline
62
0
6
CONTINUOUS
70
0
71
3
72
8
73
4
74
2
42
0.0000001000
43
0.0000001000
44
0.0000000001
12
-0.0004126499
22
0.1608251059
32
0.0000000000
13
0.0001487025
23
0.1608258251
33
0.0000000000
40
0.0000000000
40
0.0000000000
40
0.0000000000
40
0.0000000000
40
1.0000000000
40
1.0000000000
40
1.0000000000
40
1.0000000000
10
73.1932048648
20
-35.8512228045
30
0.0000000000
10
73.1930673149
20
-35.7976144359
30
0.0000000000
10
73.1931076628
20
-35.7440058377
30
0.0000000000
10
73.1931572303
20
-35.6903972293
30
0.0000000000
11
73.1932048648
21
-35.8512228045
31
0.0000000000
11
73.1931572303
21
-35.6903972293
31
0.0000000000
0
SPLINE
5
36E
100
AcDbEntity
8
0
100
AcDbSpline
62
0
6
CONTINUOUS
70
0
71
3
72
8
73
4
74
2
42
0.0000001000
43
0.0000001000
44
0.0000000001
12
0.0004122912
22
0.1608251066
32
0.0000000000
13
-0.0001485732
23
0.1608258246
33
0.0000000000
40
0.0000000000
40
0.0000000000
40
0.0000000000
40
0.0000000000
40
1.0000000000
40
1.0000000000
40
1.0000000000
40
1.0000000000
10
-71.2358422948
20
-35.8512228045
30
0.0000000000
10
-71.2357048644
20
-35.7976144356
30
0.0000000000
10
-71.2357451773
20
-35.7440058376
30
0.0000000000
10
-71.2357947017
20
-35.6903972294
30
0.0000000000
11
-71.2358422948
21
-35.8512228045
31
0.0000000000
11
-71.2357947017
21
-35.6903972294
31
0.0000000000
0
SPLINE
5
36F
100
AcDbEntity
8
0
100
AcDbSpline
62
0
6
CONTINUOUS
70
0
71
3
72
10
73
6
74
4
42
0.0000001000
43
0.0000001000
44
0.0000000001
12
3.6538880978
22
2.3009463405
32
0.0000000000
13
2.0779756678
23
3.7851379653
33
0.0000000000
40
0.0000000000
40
0.0000000000
40
0.0000000000
40
0.0000000000
40
0.3103395386
40
0.6417415356
40
1.0000000000
40
1.0000000000
40
1.0000000000
40
1.0000000000
10
70.3563226912
20
-39.0782572489
30
0.0000000000
10
70.7343046732
20
-38.8402323737
30
0.0000000000
10
71.4648713480
20
-38.2632471362
30
0.0000000000
10
72.4138967034
20
-37.1727719939
30
0.0000000000
10
72.9450539821
20
-36.3297005365
30
0.0000000000
10
73.1932047727
20
-35.8776812981
30
0.0000000000
11
70.3563226912
21
-39.0782572489
31
0.0000000000
11
71.4124709083
21
-38.2534621693
31
0.0000000000
11
72.3599271585
21
-37.1810424445
31
0.0000000000
11
73.1932047727
21
-35.8776812981
31
0.0000000000
0
SPLINE
5
370
100
AcDbEntity
8
0
100
AcDbSpline
62
0
6
CONTINUOUS
70
0
71
3
72
9
73
5
74
3
42
0.0000001000
43
0.0000001000
44
0.0000000001
12
0.0702066972
22
-0.1292945915
32
0.0000000000
13
0.0818490932
23
-0.1222527210
33
0.0000000000
40
0.0000000000
40
0.0000000000
40
0.0000000000
40
0.0000000000
40
0.1275644127
40
1.0000000000
40
1.0000000000
40
1.0000000000
40
1.0000000000
10
-73.0040249525
20
-34.8911743047
30
0.0000000000
10
-73.0010396604
20
-34.8966721009
30
0.0000000000
10
-72.9773791377
20
-34.9396297251
30
0.0000000000
10
-72.9517133781
20
-34.9814632375
30
0.0000000000
10
-72.9279106908
20
-35.0170157790
30
0.0000000000
11
-73.0040249525
21
-34.8911743047
31
0.0000000000
11
-72.9949705485
21
-34.9076135368
31
0.0000000000
11
-72.9279106908
21
-35.0170157790
31
0.0000000000
0
SPLINE
5
371
100
AcDbEntity
8
0
100
AcDbSpline
62
0
6
CONTINUOUS
70
0
71
3
72
16
73
12
74
10
42
0.0000001000
43
0.0000001000
44
0.0000000001
12
0.9260953143
22
-1.3832489482
32
0.0000000000
13
1.6503131275
23
-0.2152689072
33
0.0000000000
40
0.0000000000
40
0.0000000000
40
0.0000000000
40
0.0000000000
40
0.0387195615
40
0.1563308329
40
0.2770973229
40
0.4000833169
40
0.5241875180
40
0.6504967018
40
0.7799599954
40
0.9116150146
40
1.0000000000
40
1.0000000000
40
1.0000000000
40
1.0000000000
10
-72.9279106908
20
-35.0170157790
30
0.0000000000
10
-72.9159580226
20
-35.0348687099
30
0.0000000000
10
-72.8662624301
20
-35.1059885942
30
0.0000000000
10
-72.7683181814
20
-35.2248420445
30
0.0000000000
10
-72.6236307974
20
-35.3641127789
30
0.0000000000
10
-72.4614649911
20
-35.4885443868
30
0.0000000000
10
-72.2842759491
20
-35.5964288951
30
0.0000000000
10
-72.0936383061
20
-35.6869213373
30
0.0000000000
10
-71.8908944433
20
-35.7590897487
30
0.0000000000
10
-71.7024515806
20
-35.8057415295
30
0.0000000000
10
-71.5819208405
20
-35.8254044625
30
0.0000000000
10
-71.5332998733
20
-35.8317466422
30
0.0000000000
11
-72.9279106908
21
-35.0170157790
31
0.0000000000
11
-72.8909999164
21
-35.0698488152
31
0.0000000000
11
-72.7667103681
21
-35.2209633535
31
0.0000000000
11
-72.6220993878
21
-35.3604367042
31
0.0000000000
11
-72.4598956222
21
-35.4851460608
31
0.0000000000
11
-72.2836424769
21
-35.5926728695
31
0.0000000000
11
-72.0938821455
21
-35.6829302191
31
0.0000000000
11
-71.8910230132
21
-35.7552926170
31
0.0000000000
11
-71.6784445592
21
-35.8080418308
31
0.0000000000
11
-71.5332998733
21
-35.8317466422
31
0.0000000000
0
SPLINE
5
372
100
AcDbEntity
8
0
100
AcDbSpline
62
0
6
CONTINUOUS
70
0
71
3
72
9
73
5
74
3
42
0.0000001000
43
0.0000001000
44
0.0000000001
12
0.2055235161
22
-0.0268087443
32
0.0000000000
13
0.2070969416
23
-0.0083604721
33
0.0000000000
40
0.0000000000
40
0.0000000000
40
0.0000000000
40
0.0000000000
40
0.3563746116
40
1.0000000000
40
1.0000000000
40
1.0000000000
40
1.0000000000
10
-71.5332998733
20
-35.8317466422
30
0.0000000000
10
-71.5088854189
20
-35.8349312942
30
0.0000000000
10
-71.4402314387
20
-35.8427666617
30
0.0000000000
10
-71.3712656292
20
-35.8475232603
30
0.0000000000
10
-71.3268346794
20
-35.8493169310
30
0.0000000000
11
-71.5332998733
21
-35.8317466422
31
0.0000000000
11
-71.4599127446
21
-35.8401249338
31
0.0000000000
11
-71.3268346794
21
-35.8493169310
31
0.0000000000
0
SPLINE
5
373
100
AcDbEntity
8
0
100
AcDbSpline
62
0
6
CONTINUOUS
70
0
71
3
72
8
73
4
74
2
42
0.0000001000
43
0.0000001000
44
0.0000000001
12
0.0909600348
22
-0.0036720428
32
0.0000000000
13
0.0909972892
23
-0.0001369570
33
0.0000000000
40
0.0000000000
40
0.0000000000
40
0.0000000000
40
0.0000000000
40
1.0000000000
40
1.0000000000
40
1.0000000000
40
1.0000000000
10
-71.3268346794
20
-35.8493169310
30
0.0000000000
10
-71.2965146678
20
-35.8505409453
30
0.0000000000
10
-71.2661747233
20
-35.8511745719
30
0.0000000000
10
-71.2358422935
20
-35.8512202243
30
0.0000000000
11
-71.3268346794
21
-35.8493169310
31
0.0000000000
11
-71.2358422935
21
-35.8512202243
31
0.0000000000
0
SPLINE
5
374
100
AcDbEntity
8
0
100
AcDbSpline
62
0
6
CONTINUOUS
70
0
71
3
72
10
73
6
74
4
42
0.0000001000
43
0.0000001000
44
0.0000000001
12
-0.9018792709
22
-0.0065593421
32
0.0000000000
13
-0.8245348725
23
0.3685914130
33
0.0000000000
40
0.0000000000
40
0.0000000000
40
0.0000000000
40
0.0000000000
40
0.3987920933
40
0.7978180258
40
1.0000000000
40
1.0000000000
40
1.0000000000
40
1.0000000000
10
-68.3989602913
20
-39.0782558425
30
0.0000000000
10
-68.5188477320
20
-39.0791277804
30
0.0000000000
10
-68.7593108985
20
-39.0619300411
30
0.0000000000
10
-69.0528565406
20
-38.9906729497
30
0.0000000000
10
-69.2215900654
20
-38.9246084576
30
0.0000000000
10
-69.2771587615
20
-38.8997676111
30
0.0000000000
11
-68.3989602913
21
-39.0782558425
31
0.0000000000
11
-68.7576745470
21
-39.0520277787
31
0.0000000000
11
-69.1072259859
21
-38.9664160129
31
0.0000000000
11
-69.2771587615
21
-38.8997676111
31
0.0000000000
0
SPLINE
5
375
100
AcDbEntity
8
0
100
AcDbSpline
62
0
6
CONTINUOUS
70
0
71
3
72
8
73
4
74
2
42
0.0000001000
43
0.0000001000
44
0.0000000001
12
-0.0545974382
22
0.0244066656
32
0.0000000000
13
-0.0538096214
23
0.0260949879
33
0.0000000000
40
0.0000000000
40
0.0000000000
40
0.0000000000
40
0.0000000000
40
1.0000000000
40
1.0000000000
40
1.0000000000
40
1.0000000000
10
-69.2771587615
20
-38.8997676111
30
0.0000000000
10
-69.2953579076
20
-38.8916320559
30
0.0000000000
10
-69.3134310009
20
-38.8832150668
30
0.0000000000
10
-69.3313675414
20
-38.8745167375
30
0.0000000000
11
-69.2771587615
21
-38.8997676111
31
0.0000000000
11
-69.3313675414
21
-38.8745167375
31
0.0000000000
0
SPLINE
5
376
100
AcDbEntity
8
0
100
AcDbSpline
62
0
6
CONTINUOUS
70
0
71
3
72
8
73
4
74
2
42
0.0000001000
43
0.0000001000
44
0.0000000001
12
-0.0445750175
22
0.0216166646
32
0.0000000000
13
-0.0439948796
23
0.0227748723
33
0.0000000000
40
0.0000000000
40
0.0000000000
40
0.0000000000
40
0.0000000000
40
1.0000000000
40
1.0000000000
40
1.0000000000
40
1.0000000000
10
-69.3313675414
20
-38.8745167375
30
0.0000000000
10
-69.3462258805
20
-38.8673111827
30
0.0000000000
10
-69.3609905145
20
-38.8599125666
30
0.0000000000
10
-69.3756554743
20
-38.8523209425
30
0.0000000000
11
-69.3313675414
21
-38.8745167375
31
0.0000000000
11
-69.3756554743
21
-38.8523209425
31
0.0000000000
0
SPLINE
5
377
100
AcDbEntity
8
0
100
AcDbSpline
62
0
6
CONTINUOUS
70
0
71
3
72
9
73
5
74
3
42
0.0000001000
43
0.0000001000
44
0.0000000001
12
-0.0741109252
22
0.0383650750
32
0.0000000000
13
-0.0723276516
23
0.0416489156
33
0.0000000000
40
0.0000000000
40
0.0000000000
40
0.0000000000
40
0.0000000000
40
0.7350299708
40
1.0000000000
40
1.0000000000
40
1.0000000000
40
1.0000000000
10
-69.3756554743
20
-38.8523209425
30
0.0000000000
10
-69.3938133914
20
-38.8429211158
30
0.0000000000
10
-69.4183091365
20
-38.8297301882
30
0.0000000000
10
-69.4425010689
20
-38.8159917568
30
0.0000000000
10
-69.4488892889
20
-38.8123131853
30
0.0000000000
11
-69.3756554743
21
-38.8523209425
31
0.0000000000
11
-69.4296594644
21
-38.8232338622
31
0.0000000000
11
-69.4488892889
21
-38.8123131853
31
0.0000000000
0
SPLINE
5
378
100
AcDbEntity
8
0
100
AcDbSpline
62
0
6
CONTINUOUS
70
0
71
3
72
8
73
4
74
2
42
0.0000001000
43
0.0000001000
44
0.0000000001
12
-0.0534350584
22
0.0307698672
32
0.0000000000
13
-0.0523745979
23
0.0325471416
33
0.0000000000
40
0.0000000000
40
0.0000000000
40
0.0000000000
40
0.0000000000
40
1.0000000000
40
1.0000000000
40
1.0000000000
40
1.0000000000
10
-69.4488892889
20
-38.8123131853
30
0.0000000000
10
-69.4667009750
20
-38.8020565629
30
0.0000000000
10
-69.4843422757
20
-38.7915022011
30
0.0000000000
10
-69.5018004750
20
-38.7806531539
30
0.0000000000
11
-69.4488892889
21
-38.8123131853
31
0.0000000000
11
-69.5018004750
21
-38.7806531539
31
0.0000000000
0
SPLINE
5
379
100
AcDbEntity
8
0
100
AcDbSpline
62
0
6
CONTINUOUS
70
0
71
3
72
8
73
4
74
2
42
0.0000001000
43
0.0000001000
44
0.0000000001
12
-0.1513472328
22
0.0000000079
32
0.0000000000
13
-0.1512535026
23
0.0096861093
33
0.0000000000
40
0.0000000000
40
0.0000000000
40
0.0000000000
40
0.0000000000
40
1.0000000000
40
1.0000000000
40
1.0000000000
40
1.0000000000
10
-71.2358422933
20
-35.8776785055
30
0.0000000000
10
-71.2862913709
20
-35.8776785029
30
0.0000000000
10
-71.3367877440
20
-35.8760698853
30
0.0000000000
10
-71.3872055782
20
-35.8728411822
30
0.0000000000
11
-71.2358422933
21
-35.8776785055
31
0.0000000000
11
-71.3872055782
21
-35.8728411822
31
0.0000000000
0
SPLINE
5
37A
100
AcDbEntity
8
0
100
AcDbSpline
62
0
6
CONTINUOUS
70
0
71
3
72
8
73
4
74
2
42
0.0000001000
43
0.0000001000
44
0.0000000001
12
-0.1502365230
22
0.0096209831
32
0.0000000000
13
-0.1494016660
23
0.0192449436
33
0.0000000000
40
0.0000000000
40
0.0000000000
40
0.0000000000
40
0.0000000000
40
1.0000000000
40
1.0000000000
40
1.0000000000
40
1.0000000000
10
-71.3872055782
20
-35.8728411822
30
0.0000000000
10
-71.4372844192
20
-35.8696341879
30
0.0000000000
10
-71.4872857739
20
-35.8648288205
30
0.0000000000
10
-71.5370863293
20
-35.8584138393
30
0.0000000000
11
-71.3872055782
21
-35.8728411822
31
0.0000000000
11
-71.5370863293
21
-35.8584138393
31
0.0000000000
0
SPLINE
5
37B
100
AcDbEntity
8
0
100
AcDbSpline
62
0
6
CONTINUOUS
70
0
71
3
72
12
73
8
74
6
42
0.0000001000
43
0.0000001000
44
0.0000000001
12
-1.8057270490
22
0.2326019263
32
0.0000000000
13
-0.8887691224
23
1.5894925740
33
0.0000000000
40
0.0000000000
40
0.0000000000
40
0.0000000000
40
0.0000000000
40
0.0821388410
40
0.3243942579
40
0.5585636996
40
0.7829994199
40
1.0000000000
40
1.0000000000
40
1.0000000000
40
1.0000000000
10
-71.5370863293
20
-35.8584138393
30
0.0000000000
10
-71.5865264383
20
-35.8520452884
30
0.0000000000
10
-71.7810006796
20
-35.8206284857
30
0.0000000000
10
-72.1073040736
20
-35.7236325212
30
0.0000000000
10
-72.4842271041
20
-35.5217007782
30
0.0000000000
10
-72.7978685257
20
-35.2537323755
30
0.0000000000
10
-72.9577057113
20
-35.0362262904
30
0.0000000000
10
-73.0219935164
20
-34.9212526869
30
0.0000000000
11
-71.5370863293
21
-35.8584138393
31
0.0000000000
11
-71.6846922916
21
-35.8345379939
31
0.0000000000
11
-72.1063141840
21
-35.7081278954
31
0.0000000000
11
-72.4806659954
21
-35.5059212342
31
0.0000000000
11
-72.7896637279
21
-35.2398187888
31
0.0000000000
11
-73.0219935164
21
-34.9212526869
31
0.0000000000
0
SPLINE
5
37C
100
AcDbEntity
8
0
100
AcDbSpline
62
0
6
CONTINUOUS
70
0
71
3
72
12
73
8
74
6
42
0.0000001000
43
0.0000001000
44
0.0000000001
12
-0.8887468972
22
-1.5894622665
32
0.0000000000
13
-1.8056826973
23
-0.2326323330
33
0.0000000000
40
0.0000000000
40
0.0000000000
40
0.0000000000
40
0.0000000000
40
0.2172481100
40
0.4415614418
40
0.6755873263
40
0.9178516696
40
1.0000000000
40
1.0000000000
40
1.0000000000
40
1.0000000000
10
74.9793580283
20
-34.9212492054
30
0.0000000000
10
74.9149985004
20
-35.0363517632
30
0.0000000000
10
74.7550865446
20
-35.2538968944
30
0.0000000000
10
74.4414185775
20
-35.5217943067
30
0.0000000000
10
74.0646397877
20
-35.7236341063
30
0.0000000000
10
73.7384192896
20
-35.8206155099
30
0.0000000000
10
73.5439389815
20
-35.8520378479
30
0.0000000000
10
73.4944943752
20
-35.8584079672
30
0.0000000000
11
74.9793580283
21
-34.9212492054
31
0.0000000000
11
74.7467280760
21
-35.2401408491
31
0.0000000000
11
74.4378589180
21
-35.5060377072
31
0.0000000000
11
74.0637378982
21
-35.7081025994
31
0.0000000000
11
73.6421135925
21
-35.8345265103
31
0.0000000000
11
73.4944943752
21
-35.8584079672
31
0.0000000000
0
SPLINE
5
37D
100
AcDbEntity
8
0
100
AcDbSpline
62
0
6
CONTINUOUS
70
0
71
3
72
8
73
4
74
2
42
0.0000001000
43
0.0000001000
44
0.0000000001
12
-0.2087835737
22
-0.0268983083
32
0.0000000000
13
-0.2101271945
23
-0.0081296419
33
0.0000000000
40
0.0000000000
40
0.0000000000
40
0.0000000000
40
0.0000000000
40
1.0000000000
40
1.0000000000
40
1.0000000000
40
1.0000000000
10
73.4944943752
20
-35.8584079672
30
0.0000000000
10
73.4248998507
20
-35.8673740699
30
0.0000000000
10
73.3549131203
20
-35.8731967211
30
0.0000000000
10
73.2848707221
20
-35.8759066017
30
0.0000000000
11
73.4944943752
21
-35.8584079672
31
0.0000000000
11
73.2848707221
21
-35.8759066017
31
0.0000000000
0
SPLINE
5
37E
100
AcDbEntity
8
0
100
AcDbSpline
62
0
6
CONTINUOUS
70
0
71
3
72
8
73
4
74
2
42
0.0000001000
43
0.0000001000
44
0.0000000001
12
-0.0916620152
22
-0.0035463252
32
0.0000000000
13
-0.0916417668
23
-0.0000000048
33
0.0000000000
40
0.0000000000
40
0.0000000000
40
0.0000000000
40
0.0000000000
40
1.0000000000
40
1.0000000000
40
1.0000000000
40
1.0000000000
10
73.2848707221
20
-35.8759066017
30
0.0000000000
10
73.2543167170
20
-35.8770887101
30
0.0000000000
10
73.2237521190
20
-35.8776784917
30
0.0000000000
10
73.1932048634
20
-35.8776784933
30
0.0000000000
11
73.2848707221
21
-35.8759066017
31
0.0000000000
11
73.1932048634
21
-35.8776784933
31
0.0000000000
0
SPLINE
5
37F
100
AcDbEntity
8
0
100
AcDbSpline
62
0
6
CONTINUOUS
70
0
71
3
72
8
73
4
74
2
42
0.0000001000
43
0.0000001000
44
0.0000000001
12
-0.0483517917
22
-0.0300480841
32
0.0000000000
13
-0.0492581627
23
-0.0285340329
33
0.0000000000
40
0.0000000000
40
0.0000000000
40
0.0000000000
40
0.0000000000
40
1.0000000000
40
1.0000000000
40
1.0000000000
40
1.0000000000
10
71.4591835180
20
-38.7806403819
30
0.0000000000
10
71.4430662541
20
-38.7906564100
30
0.0000000000
10
71.4267929269
20
-38.8004212921
30
0.0000000000
10
71.4103735393
20
-38.8099326364
30
0.0000000000
11
71.4591835180
21
-38.7806403819
31
0.0000000000
11
71.4103735393
21
-38.8099326364
31
0.0000000000
0
SPLINE
5
380
100
AcDbEntity
8
0
100
AcDbSpline
62
0
6
CONTINUOUS
70
0
71
3
72
9
73
5
74
3
42
0.0000001000
43
0.0000001000
44
0.0000000001
12
-0.0702719815
22
-0.0407068174
32
0.0000000000
13
-0.0719719893
23
-0.0375986162
33
0.0000000000
40
0.0000000000
40
0.0000000000
40
0.0000000000
40
0.0000000000
40
0.3456667609
40
1.0000000000
40
1.0000000000
40
1.0000000000
40
1.0000000000
10
71.4103735393
20
-38.8099326364
30
0.0000000000
10
71.4022766432
20
-38.8146229676
30
0.0000000000
10
71.3787498956
20
-38.8280135423
30
0.0000000000
10
71.3549359243
20
-38.8408857153
30
0.0000000000
10
71.3392380361
20
-38.8490863900
30
0.0000000000
11
71.4103735393
21
-38.8099326364
31
0.0000000000
11
71.3859774949
21
-38.8238183793
31
0.0000000000
11
71.3392380361
21
-38.8490863900
31
0.0000000000
0
SPLINE
5
381
100
AcDbEntity
8
0
100
AcDbSpline
62
0
6
CONTINUOUS
70
0
71
3
72
8
73
4
74
2
42
0.0000001000
43
0.0000001000
44
0.0000000001
12
-0.0470239520
22
-0.0245656059
32
0.0000000000
13
-0.0476936099
23
-0.0232372688
33
0.0000000000
40
0.0000000000
40
0.0000000000
40
0.0000000000
40
0.0000000000
40
1.0000000000
40
1.0000000000
40
1.0000000000
40
1.0000000000
10
71.3392380361
20
-38.8490863900
30
0.0000000000
10
71.3235633854
20
-38.8572749253
30
0.0000000000
10
71.3077734614
20
-38.8652421015
30
0.0000000000
10
71.2918755915
20
-38.8729878578
30
0.0000000000
11
71.3392380361
21
-38.8490863900
31
0.0000000000
11
71.2918755915
21
-38.8729878578
31
0.0000000000
0
SPLINE
5
382
100
AcDbEntity
8
0
100
AcDbSpline
62
0
6
CONTINUOUS
70
0
71
3
72
8
73
4
74
2
42
0.0000001000
43
0.0000001000
44
0.0000000001
12
-0.0543653144
22
-0.0264878550
32
0.0000000000
13
-0.0551743091
23
-0.0247613831
33
0.0000000000
40
0.0000000000
40
0.0000000000
40
0.0000000000
40
0.0000000000
40
1.0000000000
40
1.0000000000
40
1.0000000000
40
1.0000000000
10
71.2918755915
20
-38.8729878578
30
0.0000000000
10
71.2737538200
20
-38.8818171428
30
0.0000000000
10
71.2554917898
20
-38.8903587276
30
0.0000000000
10
71.2371003535
20
-38.8986125220
30
0.0000000000
11
71.2918755915
21
-38.8729878578
31
0.0000000000
11
71.2371003535
21
-38.8986125220
31
0.0000000000
0
SPLINE
5
383
100
AcDbEntity
8
0
100
AcDbSpline
62
0
6
CONTINUOUS
70
0
71
3
72
10
73
6
74
4
42
0.0000001000
43
0.0000001000
44
0.0000000001
12
-0.8265715637
22
-0.3709526324
32
0.0000000000
13
-0.9047037222
23
0.0065798879
33
0.0000000000
40
0.0000000000
40
0.0000000000
40
0.0000000000
40
0.0000000000
40
0.2055935091
40
0.6028676491
40
1.0000000000
40
1.0000000000
40
1.0000000000
40
1.0000000000
10
71.2371003535
20
-38.8986125220
30
0.0000000000
10
71.1804544374
20
-38.9240343398
30
0.0000000000
10
71.0107502595
20
-38.9905738367
30
0.0000000000
10
70.7162688919
20
-39.0619688455
30
0.0000000000
10
70.4760852394
20
-39.0791268770
30
0.0000000000
10
70.3563228674
20
-39.0782558482
30
0.0000000000
11
71.2371003535
21
-38.8986125220
31
0.0000000000
11
71.0637968670
21
-38.9666849709
31
0.0000000000
11
70.7146651445
21
-39.0520857812
31
0.0000000000
11
70.3563228674
21
-39.0782558482
31
0.0000000000
0
SPLINE
5
384
100
AcDbEntity
8
0
100
AcDbSpline
62
0
6
CONTINUOUS
70
0
71
3
72
8
73
4
74
2
42
0.0000001000
43
0.0000001000
44
0.0000000001
12
-0.1303020926
22
0.0000284850
32
0.0000000000
13
-0.1300049331
23
-0.0101691363
33
0.0000000000
40
0.0000000000
40
0.0000000000
40
0.0000000000
40
0.0000000000
40
1.0000000000
40
1.0000000000
40
1.0000000000
40
1.0000000000
10
-71.3436659044
20
49.8492888853
30
0.0000000000
10
-71.3870999353
20
49.8492983803
30
0.0000000000
10
-71.4305679407
20
49.8476432914
30
0.0000000000
10
-71.4739029184
20
49.8442535793
30
0.0000000000
11
-71.3436659044
21
49.8492888853
31
0.0000000000
11
-71.4739029184
21
49.8442535793
31
0.0000000000
0
SPLINE
5
385
100
AcDbEntity
8
0
100
AcDbSpline
62
0
6
CONTINUOUS
70
0
71
3
72
9
73
5
74
3
42
0.0000001000
43
0.0000001000
44
0.0000000001
12
-0.1306751790
22
-0.0102215637
32
0.0000000000
13
-0.1293894795
23
-0.0208435795
33
0.0000000000
40
0.0000000000
40
0.0000000000
40
0.0000000000
40
0.0000000000
40
0.4985873558
40
1.0000000000
40
1.0000000000
40
1.0000000000
40
1.0000000000
10
-71.4739029184
20
49.8442535793
30
0.0000000000
10
-71.4956205824
20
49.8425547985
30
0.0000000000
10
-71.5391119638
20
49.8382738088
30
0.0000000000
10
-71.5823843827
20
49.8322048003
30
0.0000000000
10
-71.6040102231
20
49.8287210556
30
0.0000000000
11
-71.4739029184
21
49.8442535793
31
0.0000000000
11
-71.5389346564
21
49.8378414214
31
0.0000000000
11
-71.6040102231
21
49.8287210556
31
0.0000000000
0
SPLINE
5
386
100
AcDbEntity
8
0
100
AcDbSpline
62
0
6
CONTINUOUS
70
0
71
3
72
15
73
11
74
9
42
0.0000001000
43
0.0000001000
44
0.0000000001
12
-1.5892566160
22
-0.2560161514
32
0.0000000000
13
-0.8575671619
23
-1.3620014116
33
0.0000000000
40
0.0000000000
40
0.0000000000
40
0.0000000000
40
0.0000000000
40
0.0828222955
40
0.2109726643
40
0.3425418473
40
0.4763913263
40
0.6142136646
40
0.7576563017
40
0.9056313444
40
1.0000000000
40
1.0000000000
40
1.0000000000
40
1.0000000000
10
-71.6040102231
20
49.8287210556
30
0.0000000000
10
-71.6478855168
20
49.8216531071
30
0.0000000000
10
-71.7588990904
20
49.7990285265
30
0.0000000000
10
-71.9345966850
20
49.7439651280
30
0.0000000000
10
-72.1276418338
20
49.6574098089
30
0.0000000000
10
-72.3130373611
20
49.5451060488
30
0.0000000000
10
-72.4891578643
20
49.4081778922
30
0.0000000000
10
-72.6538327755
20
49.2466433350
30
0.0000000000
10
-72.7846631768
20
49.0858488153
30
0.0000000000
10
-72.8575732445
20
48.9781168243
30
0.0000000000
10
-72.8845490646
20
48.9352734103
30
0.0000000000
11
-71.6040102231
21
49.8287210556
31
0.0000000000
11
-71.7346158616
21
49.8021496653
31
0.0000000000
11
-71.9314251768
21
49.7407729813
31
0.0000000000
11
-72.1245188166
21
49.6540908311
31
0.0000000000
11
-72.3088701066
21
49.5428259368
31
0.0000000000
11
-72.4840296454
21
49.4068934378
31
0.0000000000
11
-72.6489508337
21
49.2454915867
31
0.0000000000
11
-72.7993844628
21
49.0609989538
31
0.0000000000
11
-72.8845490646
21
48.9352734103
31
0.0000000000
0
SPLINE
5
387
100
AcDbEntity
8
0
100
AcDbSpline
62
0
6
CONTINUOUS
70
0
71
3
72
10
73
6
74
4
42
0.0000001000
43
0.0000001000
44
0.0000000001
12
2.0779756292
22
-3.7851379862
32
0.0000000000
13
3.6538880339
23
-2.3009464413
33
0.0000000000
40
0.0000000000
40
0.0000000000
40
0.0000000000
40
0.0000000000
40
0.3582574195
40
0.6896595086
40
1.0000000000
40
1.0000000000
40
1.0000000000
40
1.0000000000
10
-71.2358422031
20
-35.8776812974
30
0.0000000000
10
-70.9876921408
20
-36.3296992199
30
0.0000000000
10
-70.4565357444
20
-37.1727695724
30
0.0000000000
10
-69.5075109691
20
-38.2632452048
30
0.0000000000
10
-68.7769432506
20
-38.8402316324
30
0.0000000000
10
-68.3989601146
20
-39.0782572488
30
0.0000000000
11
-71.2358422031
21
-35.8776812974
31
0.0000000000
11
-70.4025672970
21
-37.1810388199
31
0.0000000000
11
-69.4551113329
21
-38.2534593276
31
0.0000000000
11
-68.3989601146
21
-39.0782572488
31
0.0000000000
0
SPLINE
5
388
100
AcDbEntity
8
0
100
AcDbSpline
62
0
6
CONTINUOUS
70
0
71
3
72
15
73
11
74
9
42
0.0000001000
43
0.0000001000
44
0.0000000001
12
-0.8575671621
22
1.3620014064
32
0.0000000000
13
-1.5892566117
23
0.2560161508
33
0.0000000000
40
0.0000000000
40
0.0000000000
40
0.0000000000
40
0.0000000000
40
0.0943686532
40
0.2423436963
40
0.3857863338
40
0.5236086724
40
0.6574581518
40
0.7890273352
40
0.9171777042
40
1.0000000000
40
1.0000000000
40
1.0000000000
40
1.0000000000
10
74.8419116359
20
48.9352734139
30
0.0000000000
10
74.8149358166
20
48.9781168266
30
0.0000000000
10
74.7420257495
20
49.0858488164
30
0.0000000000
10
74.6111953491
20
49.2466433351
30
0.0000000000
10
74.4465204379
20
49.4081778922
30
0.0000000000
10
74.2703999348
20
49.5451060488
30
0.0000000000
10
74.0850044075
20
49.6574098089
30
0.0000000000
10
73.8919592587
20
49.7439651280
30
0.0000000000
10
73.7162616641
20
49.7990285265
30
0.0000000000
10
73.6052480905
20
49.8216531071
30
0.0000000000
10
73.5613727968
20
49.8287210556
30
0.0000000000
11
74.8419116359
21
48.9352734139
31
0.0000000000
11
74.7567470364
21
49.0609989539
31
0.0000000000
11
74.6063134073
21
49.2454915867
31
0.0000000000
11
74.4413922190
21
49.4068934378
31
0.0000000000
11
74.2662326803
21
49.5428259368
31
0.0000000000
11
74.0818813902
21
49.6540908311
31
0.0000000000
11
73.8887877505
21
49.7407729813
31
0.0000000000
11
73.6919784353
21
49.8021496653
31
0.0000000000
11
73.5613727968
21
49.8287210556
31
0.0000000000
0
SPLINE
5
389
100
AcDbEntity
8
0
100
AcDbSpline
62
0
6
CONTINUOUS
70
0
71
3
72
9
73
5
74
3
42
0.0000001000
43
0.0000001000
44
0.0000000001
12
-0.1293894795
22
0.0208435795
32
0.0000000000
13
-0.1306751790
23
0.0102215637
33
0.0000000000
40
0.0000000000
40
0.0000000000
40
0.0000000000
40
0.0000000000
40
0.5014126442
40
1.0000000000
40
1.0000000000
40
1.0000000000
40
1.0000000000
10
73.5613727968
20
49.8287210556
30
0.0000000000
10
73.5397469564
20
49.8322048003
30
0.0000000000
10
73.4964745375
20
49.8382738088
30
0.0000000000
10
73.4529831561
20
49.8425547985
30
0.0000000000
10
73.4312654921
20
49.8442535793
30
0.0000000000
11
73.5613727968
21
49.8287210556
31
0.0000000000
11
73.4962972301
21
49.8378414214
31
0.0000000000
11
73.4312654921
21
49.8442535793
31
0.0000000000
0
SPLINE
5
38A
100
AcDbEntity
8
0
100
AcDbSpline
62
0
6
CONTINUOUS
70
0
71
3
72
8
73
4
74
2
42
0.0000001000
43
0.0000001000
44
0.0000000001
12
-0.1300049331
22
0.0101691363
32
0.0000000000
13
-0.1303020926
23
-0.0000284850
33
0.0000000000
40
0.0000000000
40
0.0000000000
40
0.0000000000
40
0.0000000000
40
1.0000000000
40
1.0000000000
40
1.0000000000
40
1.0000000000
10
73.4312654921
20
49.8442535793
30
0.0000000000
10
73.3879305144
20
49.8476432914
30
0.0000000000
10
73.3444625090
20
49.8492983803
30
0.0000000000
10
73.3010284781
20
49.8492888853
30
0.0000000000
11
73.4312654921
21
49.8442535793
31
0.0000000000
11
73.3010284781
21
49.8492888853
31
0.0000000000
0
SPLINE
5
38B
100
AcDbEntity
8
0
100
AcDbSpline
62
0
6
CONTINUOUS
70
0
71
3
72
12
73
8
74
6
42
0.0000001000
43
0.0000001000
44
0.0000000001
12
3.1261215935
22
0.0000020881
32
0.0000000000
13
0.0000105543
23
-3.1261215935
33
0.0000000000
40
0.0000000000
40
0.0000000000
40
0.0000000000
40
0.0000000000
40
0.1991030781
40
0.4003486027
40
0.5998212011
40
0.8013039840
40
1.0000000000
40
1.0000000000
40
1.0000000000
40
1.0000000000
10
73.2792136232
20
49.6900687263
30
0.0000000000
10
73.4866871005
20
49.6900688649
30
0.0000000000
10
73.9067531632
20
49.6242017276
30
0.0000000000
10
74.4729158061
20
49.3364371508
30
0.0000000000
10
74.9244427426
20
48.8856638191
30
0.0000000000
10
75.2127636531
20
48.3198915251
30
0.0000000000
10
75.2786843301
20
47.9000000136
30
0.0000000000
10
75.2786850291
20
47.6929507115
30
0.0000000000
11
73.2792136232
21
49.6900687263
31
0.0000000000
11
73.8940720799
21
49.5933409009
31
0.0000000000
11
74.4549728485
21
49.3084202797
31
0.0000000000
11
74.8962429140
21
48.8678215338
31
0.0000000000
11
75.1820388638
21
48.3065338274
31
0.0000000000
11
75.2786850291
21
47.6929507115
31
0.0000000000
0
SPLINE
5
38C
100
AcDbEntity
8
0
100
AcDbSpline
62
0
6
CONTINUOUS
70
0
71
3
72
12
73
8
74
6
42
0.0000001000
43
0.0000001000
44
0.0000000001
12
0.0000105554
22
3.1261215933
32
0.0000000000
13
3.1261215933
23
-0.0000001883
33
0.0000000000
40
0.0000000000
40
0.0000000000
40
0.0000000000
40
0.0000000000
40
0.1986960163
40
0.4001787993
40
0.5996513977
40
0.8008969222
40
1.0000000000
40
1.0000000000
40
1.0000000000
40
1.0000000000
10
-73.3213224555
20
47.6929507111
30
0.0000000000
10
-73.3213217563
20
47.9000000134
30
0.0000000000
10
-73.2554010798
20
48.3198915243
30
0.0000000000
10
-72.9670801682
20
48.8856638236
30
0.0000000000
10
-72.5155532313
20
49.3364371351
30
0.0000000000
10
-71.9493905884
20
49.6242017850
30
0.0000000000
10
-71.5293245264
20
49.6900687388
30
0.0000000000
10
-71.3218510495
20
49.6900687263
30
0.0000000000
11
-73.3213224555
21
47.6929507111
31
0.0000000000
11
-73.2246762902
21
48.3065338277
31
0.0000000000
11
-72.9388803396
21
48.8678215343
31
0.0000000000
11
-72.4976102737
21
49.3084202795
31
0.0000000000
11
-71.9367095050
21
49.5933409000
31
0.0000000000
11
-71.3218510495
21
49.6900687263
31
0.0000000000
0
SPLINE
5
38D
100
AcDbEntity
8
0
100
AcDbSpline
62
0
6
CONTINUOUS
70
0
71
3
72
15
73
11
74
9
42
0.0000001000
43
0.0000001000
44
0.0000000001
12
1.2420576025
22
-1.5106877730
32
0.0000000000
13
0.0000000000
23
-6.0028179033
33
0.0000000000
40
0.0000000000
40
0.0000000000
40
0.0000000000
40
0.0000000000
40
0.0007556529
40
0.0174632674
40
0.0862514835
40
0.2025507097
40
0.3623373908
40
0.5545001420
40
0.7715595737
40
1.0000000000
40
1.0000000000
40
1.0000000000
40
1.0000000000
10
40.7334681137
20
-12.0318890539
30
0.0000000000
10
40.7337809685
20
-12.0322695724
30
0.0000000000
10
40.7411205747
20
-12.0425968868
30
0.0000000000
10
40.7901208511
20
-12.2729603295
30
0.0000000000
10
40.7719360906
20
-12.6115199225
30
0.0000000000
10
40.8122771989
20
-13.3396692623
30
0.0000000000
10
40.8192358437
20
-14.2600503066
30
0.0000000000
10
40.8350417973
20
-15.4044392693
30
0.0000000000
10
40.8417529864
20
-16.6784107939
30
0.0000000000
10
40.8437711570
20
-17.5702956537
30
0.0000000000
10
40.8437711570
20
-18.0273910807
30
0.0000000000
11
40.7334681137
21
-12.0318890539
31
0.0000000000
11
40.7344209860
21
-12.0332313126
31
0.0000000000
11
40.7583842667
21
-12.1306191986
31
0.0000000000
11
40.7815118257
21
-12.5428941456
31
0.0000000000
11
40.8021878119
21
-13.2407109801
31
0.0000000000
11
40.8196917554
21
-14.1997216013
31
0.0000000000
11
40.8327933429
21
-15.3531651988
31
0.0000000000
11
40.8409992392
21
-16.6561076013
31
0.0000000000
11
40.8437711570
21
-18.0273910807
31
0.0000000000
0
SPLINE
5
38E
100
AcDbEntity
8
0
100
AcDbSpline
62
0
6
CONTINUOUS
70
0
71
3
72
15
73
11
74
9
42
0.0000001000
43
0.0000001000
44
0.0000000001
12
-1.2420579979
22
-1.5106881178
32
0.0000000000
13
0.0000000000
23
-6.0028179060
33
0.0000000000
40
0.0000000000
40
0.0000000000
40
0.0000000000
40
0.0000000000
40
0.0007556547
40
0.0174632621
40
0.0862514736
40
0.2025506978
40
0.3623373793
40
0.5545001331
40
0.7715595688
40
1.0000000000
40
1.0000000000
40
1.0000000000
40
1.0000000000
10
-38.7761055336
20
-12.0318890595
30
0.0000000000
10
-38.7764183893
20
-12.0322695790
30
0.0000000000
10
-38.7837579959
20
-12.0425968958
30
0.0000000000
10
-38.8327582883
20
-12.2729602755
30
0.0000000000
10
-38.8145735047
20
-12.6115198798
30
0.0000000000
10
-38.8549146287
20
-13.3396691874
30
0.0000000000
10
-38.8618732673
20
-14.2600502423
30
0.0000000000
10
-38.8776792238
20
-15.4044392170
30
0.0000000000
10
-38.8843904124
20
-16.6784107660
30
0.0000000000
10
-38.8864085833
20
-17.5702956438
30
0.0000000000
10
-38.8864085833
20
-18.0273910807
30
0.0000000000
11
-38.7761055336
21
-12.0318890595
31
0.0000000000
11
-38.7770584085
21
-12.0332313221
31
0.0000000000
11
-38.8010216898
21
-12.1306191645
31
0.0000000000
11
-38.8241492495
21
-12.5428940835
31
0.0000000000
11
-38.8448252364
21
-13.2407109061
31
0.0000000000
11
-38.8623291806
21
-14.1997215308
31
0.0000000000
11
-38.8754307687
21
-15.3531651442
31
0.0000000000
11
-38.8836366653
21
-16.6561075716
31
0.0000000000
11
-38.8864085833
21
-18.0273910807
31
0.0000000000
0
SPLINE
5
38F
100
AcDbEntity
8
0
100
AcDbSpline
62
0
6
CONTINUOUS
70
0
71
3
72
8
73
4
74
2
42
0.0000001000
43
0.0000001000
44
0.0000000001
12
0.0000000210
22
-0.5405641312
32
0.0000000000
13
-0.1895843685
23
-0.5097895714
33
0.0000000000
40
0.0000000000
40
0.0000000000
40
0.0000000000
40
0.0000000000
40
1.0000000000
40
1.0000000000
40
1.0000000000
40
1.0000000000
10
75.2786812869
20
-33.9592037242
30
0.0000000000
10
75.2786812938
20
-34.1393917680
30
0.0000000000
10
75.2452117726
20
-34.3211249669
30
0.0000000000
10
75.1820169831
20
-34.4910548240
30
0.0000000000
11
75.2786812869
21
-33.9592037242
31
0.0000000000
11
75.1820169831
21
-34.4910548240
31
0.0000000000
0
SPLINE
5
390
100
AcDbEntity
8
0
100
AcDbSpline
62
0
6
CONTINUOUS
70
0
71
3
72
8
73
4
74
2
42
0.0000001000
43
0.0000001000
44
0.0000000001
12
-0.0647599515
22
-0.1741385548
32
0.0000000000
13
-0.0845979733
23
-0.1651357225
33
0.0000000000
40
0.0000000000
40
0.0000000000
40
0.0000000000
40
0.0000000000
40
1.0000000000
40
1.0000000000
40
1.0000000000
40
1.0000000000
10
75.1820169831
20
-34.4910548240
30
0.0000000000
10
75.1604303326
20
-34.5491010090
30
0.0000000000
10
75.1353752455
20
-34.6057699433
30
0.0000000000
10
75.1071759211
20
-34.6608151842
30
0.0000000000
11
75.1820169831
21
-34.4910548240
31
0.0000000000
11
75.1071759211
21
-34.6608151842
31
0.0000000000
0
SPLINE
5
391
100
AcDbEntity
8
0
100
AcDbSpline
62
0
6
CONTINUOUS
70
0
71
3
72
8
73
4
74
2
42
0.0000001000
43
0.0000001000
44
0.0000000001
12
-0.0282029206
22
-0.0550522606
32
0.0000000000
13
-0.0302635776
23
-0.0539421291
33
0.0000000000
40
0.0000000000
40
0.0000000000
40
0.0000000000
40
0.0000000000
40
1.0000000000
40
1.0000000000
40
1.0000000000
40
1.0000000000
10
75.1071759211
20
-34.6608151842
30
0.0000000000
10
75.0977749475
20
-34.6791659377
30
0.0000000000
10
75.0880245252
20
-34.6973362348
30
0.0000000000
10
75.0779366660
20
-34.7153169446
30
0.0000000000
11
75.1071759211
21
-34.6608151842
31
0.0000000000
11
75.0779366660
21
-34.7153169446
31
0.0000000000
0
SPLINE
5
392
100
AcDbEntity
8
0
100
AcDbSpline
62
0
6
CONTINUOUS
70
0
71
3
72
9
73
5
74
3
42
0.0000001000
43
0.0000001000
44
0.0000000001
12
-0.2504116805
22
-0.4463364972
32
0.0000000000
13
-0.3686956673
23
-0.3542877502
33
0.0000000000
40
0.0000000000
40
0.0000000000
40
0.0000000000
40
0.0000000000
40
0.6245414873
40
1.0000000000
40
1.0000000000
40
1.0000000000
40
1.0000000000
10
75.0779366660
20
-34.7153169446
30
0.0000000000
10
75.0258058382
20
-34.8082354978
30
0.0000000000
10
74.9279067370
20
-34.9489077171
30
0.0000000000
10
74.8111549216
20
-35.0733692336
30
0.0000000000
10
74.7650116126
20
-35.1177093509
30
0.0000000000
11
75.0779366660
21
-34.7153169446
31
0.0000000000
11
74.8961681975
21
-34.9776237538
31
0.0000000000
11
74.7650116126
21
-35.1177093509
31
0.0000000000
0
SPLINE
5
393
100
AcDbEntity
8
0
100
AcDbSpline
62
0
6
CONTINUOUS
70
0
71
3
72
10
73
6
74
4
42
0.0000001000
43
0.0000001000
44
0.0000000001
12
-1.1770077944
22
-1.1310125952
32
0.0000000000
13
-1.6260390147
23
-0.0000021056
33
0.0000000000
40
0.0000000000
40
0.0000000000
40
0.0000000000
40
0.0000000000
40
0.2413593563
40
0.6183419802
40
1.0000000000
40
1.0000000000
40
1.0000000000
40
1.0000000000
10
74.7650116126
20
-35.1177093509
30
0.0000000000
10
74.6703176647
20
-35.2087028416
30
0.0000000000
10
74.4028199428
20
-35.4160338369
30
0.0000000000
10
73.8991393881
20
-35.6348816832
30
0.0000000000
10
73.4857254926
20
-35.6903970055
30
0.0000000000
10
73.2788618824
20
-35.6903972733
30
0.0000000000
11
74.7650116126
21
-35.1177093509
31
0.0000000000
11
74.4547951382
21
-35.3595879883
31
0.0000000000
11
73.8937651110
21
-35.6065700800
31
0.0000000000
11
73.2788618824
21
-35.6903972733
31
0.0000000000
0
SPLINE
5
394
100
AcDbEntity
8
0
100
AcDbSpline
62
0
6
CONTINUOUS
70
0
71
3
72
10
73
6
74
4
42
0.0000001000
43
0.0000001000
44
0.0000000001
12
-1.6260390153
22
0.0000009058
32
0.0000000000
13
-1.1770077943
23
1.1310126245
33
0.0000000000
40
0.0000000000
40
0.0000000000
40
0.0000000000
40
0.0000000000
40
0.3816580195
40
0.7586406425
40
1.0000000000
40
1.0000000000
40
1.0000000000
40
1.0000000000
10
-71.3214993087
20
-35.6903972733
30
0.0000000000
10
-71.5283629188
20
-35.6903971581
30
0.0000000000
10
-71.9417768133
20
-35.6348816099
30
0.0000000000
10
-72.4454573684
20
-35.4160338435
30
0.0000000000
10
-72.7129550907
20
-35.2087028451
30
0.0000000000
10
-72.8076490391
20
-35.1177093517
30
0.0000000000
11
-71.3214993087
21
-35.6903972733
31
0.0000000000
11
-71.9364025367
21
-35.6065700778
31
0.0000000000
11
-72.4974325629
21
-35.3595879868
31
0.0000000000
11
-72.8076490391
21
-35.1177093517
31
0.0000000000
0
SPLINE
5
395
100
AcDbEntity
8
0
100
AcDbSpline
62
0
6
CONTINUOUS
70
0
71
3
72
9
73
5
74
3
42
0.0000001000
43
0.0000001000
44
0.0000000001
12
-0.3686801317
22
0.3542728310
32
0.0000000000
13
-0.2504069693
23
0.4463144072
33
0.0000000000
40
0.0000000000
40
0.0000000000
40
0.0000000000
40
0.0000000000
40
0.3754743291
40
1.0000000000
40
1.0000000000
40
1.0000000000
40
1.0000000000
10
-72.8076490391
20
-35.1177093517
30
0.0000000000
10
-72.8537923474
20
-35.0733692338
30
0.0000000000
10
-72.9705392434
20
-34.9489129579
30
0.0000000000
10
-73.0684350137
20
-34.8082473490
30
0.0000000000
10
-73.1205635406
20
-34.7153357475
30
0.0000000000
11
-72.8076490391
21
-35.1177093517
31
0.0000000000
11
-72.9388056223
21
-34.9776237529
31
0.0000000000
11
-73.1205635406
21
-34.7153357475
31
0.0000000000
0
SPLINE
5
396
100
AcDbEntity
8
0
100
AcDbSpline
62
0
6
CONTINUOUS
70
0
71
3
72
8
73
4
74
2
42
0.0000001000
43
0.0000001000
44
0.0000000001
12
-0.0302748334
22
0.0539605362
32
0.0000000000
13
-0.0282127521
23
0.0550714513
33
0.0000000000
40
0.0000000000
40
0.0000000000
40
0.0000000000
40
0.0000000000
40
1.0000000000
40
1.0000000000
40
1.0000000000
40
1.0000000000
10
-73.1205635406
20
-34.7153357475
30
0.0000000000
10
-73.1306551517
20
-34.6973489021
30
0.0000000000
10
-73.1404090949
20
-34.6791723339
30
0.0000000000
10
-73.1498133456
20
-34.6608151835
30
0.0000000000
11
-73.1205635406
21
-34.7153357475
31
0.0000000000
11
-73.1498133456
21
-34.6608151835
31
0.0000000000
0
SPLINE
5
397
100
AcDbEntity
8
0
100
AcDbSpline
62
0
6
CONTINUOUS
70
0
71
3
72
8
73
4
74
2
42
0.0000001000
43
0.0000001000
44
0.0000000001
12
-0.0845979738
22
0.1651357220
32
0.0000000000
13
-0.0647599522
23
0.1741385547
33
0.0000000000
40
0.0000000000
40
0.0000000000
40
0.0000000000
40
0.0000000000
40
1.0000000000
40
1.0000000000
40
1.0000000000
40
1.0000000000
10
-73.1498133456
20
-34.6608151835
30
0.0000000000
10
-73.1780126702
20
-34.6057699428
30
0.0000000000
10
-73.2030677575
20
-34.5491010087
30
0.0000000000
10
-73.2246544083
20
-34.4910548238
30
0.0000000000
11
-73.1498133456
21
-34.6608151835
31
0.0000000000
11
-73.2246544083
21
-34.4910548238
31
0.0000000000
0
SPLINE
5
398
100
AcDbEntity
8
0
100
AcDbSpline
62
0
6
CONTINUOUS
70
0
71
3
72
8
73
4
74
2
42
0.0000001000
43
0.0000001000
44
0.0000000001
12
-0.1895843699
22
0.5097895693
32
0.0000000000
13
0.0000000218
23
0.5405641312
33
0.0000000000
40
0.0000000000
40
0.0000000000
40
0.0000000000
40
0.0000000000
40
1.0000000000
40
1.0000000000
40
1.0000000000
40
1.0000000000
10
-73.2246544083
20
-34.4910548238
30
0.0000000000
10
-73.2878491983
20
-34.3211249674
30
0.0000000000
10
-73.3213187204
20
-34.1393917680
30
0.0000000000
10
-73.3213187131
20
-33.9592037242
30
0.0000000000
11
-73.2246544083
21
-34.4910548238
31
0.0000000000
11
-73.3213187131
21
-33.9592037242
31
0.0000000000
0
SPLINE
5
399
100
AcDbEntity
8
0
100
AcDbSpline
62
0
6
CONTINUOUS
70
0
71
3
72
13
73
9
74
7
42
0.0000001000
43
0.0000001000
44
0.0000000001
12
-6.5293541262
22
3.6336469177
32
0.0000000000
13
-6.5293541262
23
-3.6336469177
33
0.0000000000
40
0.0000000000
40
0.0000000000
40
0.0000000000
40
0.0000000000
40
0.1576902746
40
0.3259766273
40
0.5000000000
40
0.6740233727
40
0.8423097254
40
1.0000000000
40
1.0000000000
40
1.0000000000
40
1.0000000000
10
4.5786812869
20
36.4794302981
30
0.0000000000
10
4.2354760718
20
36.6704272248
30
0.0000000000
10
3.4833117739
20
36.9909815209
30
0.0000000000
10
2.2661487357
20
37.2774162318
30
0.0000000000
10
0.9786812869
20
37.3747896364
30
0.0000000000
10
-0.3087861620
20
37.2774162318
30
0.0000000000
10
-1.5259492002
20
36.9909815209
30
0.0000000000
10
-2.2781134981
20
36.6704272248
30
0.0000000000
10
-2.6213187131
20
36.4794302981
30
0.0000000000
11
4.5786812869
21
36.4794302981
31
0.0000000000
11
3.4980805142
21
36.9492481149
31
0.0000000000
11
2.2752203424
21
37.2423367977
31
0.0000000000
11
0.9786812869
21
37.3419711935
31
0.0000000000
11
-0.3178577686
21
37.2423367977
31
0.0000000000
11
-1.5407179405
21
36.9492481149
31
0.0000000000
11
-2.6213187131
21
36.4794302981
31
0.0000000000
0
SPLINE
5
39A
100
AcDbEntity
8
0
100
AcDbSpline
62
0
6
CONTINUOUS
70
0
71
3
72
8
73
4
74
2
42
0.0000001000
43
0.0000001000
44
0.0000000001
12
-0.0049850614
22
-0.0169574025
32
0.0000000000
13
-0.0049795566
23
-0.0169589849
33
0.0000000000
40
0.0000000000
40
0.0000000000
40
0.0000000000
40
0.0000000000
40
1.0000000000
40
1.0000000000
40
1.0000000000
40
1.0000000000
10
59.9586409213
20
20.8898967519
30
0.0000000000
10
59.9569792342
20
20.8842442844
30
0.0000000000
10
59.9553184661
20
20.8785915525
30
0.0000000000
10
59.9536586139
20
20.8729385575
30
0.0000000000
11
59.9586409213
21
20.8898967519
31
0.0000000000
11
59.9536586139
21
20.8729385575
31
0.0000000000
0
SPLINE
5
39B
100
AcDbEntity
8
0
100
AcDbSpline
62
0
6
CONTINUOUS
70
0
71
3
72
8
73
4
74
2
42
0.0000001000
43
0.0000001000
44
0.0000000001
12
-0.0049795566
22
0.0169589849
32
0.0000000000
13
-0.0049850614
23
0.0169574025
33
0.0000000000
40
0.0000000000
40
0.0000000000
40
0.0000000000
40
0.0000000000
40
1.0000000000
40
1.0000000000
40
1.0000000000
40
1.0000000000
10
-57.9962960402
20
20.8729385575
30
0.0000000000
10
-57.9979558924
20
20.8785915524
30
0.0000000000
10
-57.9996166605
20
20.8842442844
30
0.0000000000
10
-58.0012783476
20
20.8898967519
30
0.0000000000
11
-57.9962960402
21
20.8729385575
31
0.0000000000
11
-58.0012783476
21
20.8898967519
31
0.0000000000
0
SPLINE
5
39C
100
AcDbEntity
8
0
100
AcDbSpline
62
0
6
CONTINUOUS
70
0
71
3
72
9
73
5
74
3
42
0.0000001000
43
0.0000001000
44
0.0000000001
12
0.1912562705
22
0.6980308500
32
0.0000000000
13
0.1995314374
23
0.6957120760
33
0.0000000000
40
0.0000000000
40
0.0000000000
40
0.0000000000
40
0.0000000000
40
0.5047841289
40
1.0000000000
40
1.0000000000
40
1.0000000000
40
1.0000000000
10
59.6603888153
20
19.8384729062
30
0.0000000000
10
59.6925698586
20
19.9559245377
30
0.0000000000
10
59.7569803386
20
20.1884217841
30
0.0000000000
10
59.8227687946
20
20.4205325518
30
0.0000000000
10
59.8557058395
20
20.5353751057
30
0.0000000000
11
59.6603888153
21
19.8384729062
31
0.0000000000
11
59.7579477527
21
20.1905479002
31
0.0000000000
11
59.8557058395
21
20.5353751057
31
0.0000000000
0
SPLINE
5
39D
100
AcDbEntity
8
0
100
AcDbSpline
62
0
6
CONTINUOUS
70
0
71
3
72
8
73
4
74
2
42
0.0000001000
43
0.0000001000
44
0.0000000001
12
0.0648126511
22
0.2259841588
32
0.0000000000
13
0.0657537534
23
0.2257120103
33
0.0000000000
40
0.0000000000
40
0.0000000000
40
0.0000000000
40
0.0000000000
40
1.0000000000
40
1.0000000000
40
1.0000000000
40
1.0000000000
10
59.8557058395
20
20.5353751057
30
0.0000000000
10
59.8773100565
20
20.6107031586
30
0.0000000000
10
59.8990681079
20
20.6859871630
30
0.0000000000
10
59.9209860257
20
20.7612244998
30
0.0000000000
11
59.8557058395
21
20.5353751057
31
0.0000000000
11
59.9209860257
21
20.7612244998
31
0.0000000000
0
SPLINE
5
39E
100
AcDbEntity
8
0
100
AcDbSpline
62
0
6
CONTINUOUS
70
0
71
3
72
8
73
4
74
2
42
0.0000001000
43
0.0000001000
44
0.0000000001
12
0.0325542977
22
0.1117486928
32
0.0000000000
13
0.0327916107
23
0.1116791048
33
0.0000000000
40
0.0000000000
40
0.0000000000
40
0.0000000000
40
0.0000000000
40
1.0000000000
40
1.0000000000
40
1.0000000000
40
1.0000000000
10
59.9209860257
20
20.7612244998
30
0.0000000000
10
59.9318374583
20
20.7984740640
30
0.0000000000
10
59.9427280770
20
20.8357121892
30
0.0000000000
10
59.9536586139
20
20.8729385575
30
0.0000000000
11
59.9209860257
21
20.7612244998
31
0.0000000000
11
59.9536586139
21
20.8729385575
31
0.0000000000
0
SPLINE
5
39F
100
AcDbEntity
8
0
100
AcDbSpline
62
0
6
CONTINUOUS
70
0
71
3
72
8
73
4
74
2
42
0.0000001000
43
0.0000001000
44
0.0000000001
12
0.0990246929
22
-0.3372505600
32
0.0000000000
13
0.0969010146
23
-0.3378675908
33
0.0000000000
40
0.0000000000
40
0.0000000000
40
0.0000000000
40
0.0000000000
40
1.0000000000
40
1.0000000000
40
1.0000000000
40
1.0000000000
10
-57.9962960402
20
20.8729385575
30
0.0000000000
10
-57.9632878092
20
20.7605217042
30
0.0000000000
10
-57.9306436039
20
20.6479976359
30
0.0000000000
10
-57.8983432657
20
20.5353751057
30
0.0000000000
11
-57.9962960402
21
20.8729385575
31
0.0000000000
11
-57.8983432657
21
20.5353751057
31
0.0000000000
0
SPLINE
5
3A0
100
AcDbEntity
8
0
100
AcDbSpline
62
0
6
CONTINUOUS
70
0
71
3
72
8
73
4
74
2
42
0.0000001000
43
0.0000001000
44
0.0000000001
12
0.0327247931
22
-0.1141024894
32
0.0000000000
13
0.0324916224
23
-0.1141690388
33
0.0000000000
40
0.0000000000
40
0.0000000000
40
0.0000000000
40
0.0000000000
40
1.0000000000
40
1.0000000000
40
1.0000000000
40
1.0000000000
10
-57.8983432657
20
20.5353751057
30
0.0000000000
10
-57.8874350014
20
20.4973409425
30
0.0000000000
10
-57.8765659552
20
20.4592955497
30
0.0000000000
10
-57.8657354144
20
20.4212392035
30
0.0000000000
11
-57.8983432657
21
20.5353751057
31
0.0000000000
11
-57.8657354144
21
20.4212392035
31
0.0000000000
0
SPLINE
5
3A1
100
AcDbEntity
8
0
100
AcDbSpline
62
0
6
CONTINUOUS
70
0
71
3
72
8
73
4
74
2
42
0.0000001000
43
0.0000001000
44
0.0000000001
12
0.0327024902
22
-0.1149099857
32
0.0000000000
13
0.0324706301
23
-0.1149757176
33
0.0000000000
40
0.0000000000
40
0.0000000000
40
0.0000000000
40
0.0000000000
40
1.0000000000
40
1.0000000000
40
1.0000000000
40
1.0000000000
10
-57.8657354144
20
20.4212392035
30
0.0000000000
10
-57.8548345844
20
20.3829358749
30
0.0000000000
10
-57.8439727611
20
20.3446214502
30
0.0000000000
10
-57.8331492177
20
20.3062962110
30
0.0000000000
11
-57.8657354144
21
20.4212392035
31
0.0000000000
11
-57.8331492177
21
20.3062962110
31
0.0000000000
0
SPLINE
5
3A2
100
AcDbEntity
8
0
100
AcDbSpline
62
0
6
CONTINUOUS
70
0
71
3
72
9
73
5
74
3
42
0.0000001000
43
0.0000001000
44
0.0000000001
12
0.1319732543
22
-0.4673059802
32
0.0000000000
13
0.1283175020
23
-0.4683222921
33
0.0000000000
40
0.0000000000
40
0.0000000000
40
0.0000000000
40
0.0000000000
40
0.2476230567
40
1.0000000000
40
1.0000000000
40
1.0000000000
40
1.0000000000
10
-57.8331492177
20
20.3062962110
30
0.0000000000
10
-57.8222560108
20
20.2677242993
30
0.0000000000
10
-57.7784215120
20
20.1119114018
30
0.0000000000
10
-57.7352072849
20
19.9559245377
30
0.0000000000
10
-57.7030262416
20
19.8384729062
30
0.0000000000
11
-57.8331492177
21
20.3062962110
31
0.0000000000
11
-57.8005851789
21
20.1905479002
31
0.0000000000
11
-57.7030262416
21
19.8384729062
31
0.0000000000
0
SPLINE
5
3A3
100
AcDbEntity
8
0
100
AcDbSpline
62
0
6
CONTINUOUS
70
0
71
3
72
9
73
5
74
3
42
0.0000001000
43
0.0000001000
44
0.0000000001
12
-0.8961846589
22
13.4516358547
32
0.0000000000
13
-1.2090269017
23
13.4271332779
33
0.0000000000
40
0.0000000000
40
0.0000000000
40
0.0000000000
40
0.0000000000
40
0.4761136214
40
1.0000000000
40
1.0000000000
40
1.0000000000
40
1.0000000000
10
73.2787375976
20
-35.6903972733
30
0.0000000000
10
73.1365090231
20
-33.5555615864
30
0.0000000000
10
72.8034483533
20
-29.0739489882
30
0.0000000000
10
72.4190097746
20
-24.5965292015
30
0.0000000000
10
72.2078788662
20
-22.2517651257
30
0.0000000000
11
73.2787375976
21
-35.6903972733
31
0.0000000000
11
72.8077130206
21
-29.2889984225
31
0.0000000000
11
72.2078788662
21
-22.2517651257
31
0.0000000000
0
SPLINE
5
3A4
100
AcDbEntity
8
0
100
AcDbSpline
62
0
6
CONTINUOUS
70
0
71
3
72
9
73
5
74
3
42
0.0000001000
43
0.0000001000
44
0.0000000001
12
-1.2090273147
22
-13.4271378681
32
0.0000000000
13
-0.8961849909
23
-13.4516404516
33
0.0000000000
40
0.0000000000
40
0.0000000000
40
0.0000000000
40
0.0000000000
40
0.5238873542
40
1.0000000000
40
1.0000000000
40
1.0000000000
40
1.0000000000
10
-70.2505162900
20
-22.2517651230
30
0.0000000000
10
-70.4616476637
20
-24.5965343670
30
0.0000000000
10
-70.8460519934
20
-29.0739582154
30
0.0000000000
10
-71.1792094492
20
-33.5555652313
30
0.0000000000
10
-71.3214377849
20
-35.6903972733
30
0.0000000000
11
-70.2505162900
21
-22.2517651230
31
0.0000000000
11
-70.8503516857
21
-29.2890139375
31
0.0000000000
11
-71.3214377849
21
-35.6903972733
31
0.0000000000
0
SPLINE
5
3A5
100
AcDbEntity
8
0
100
AcDbSpline
62
0
6
CONTINUOUS
70
0
71
3
72
11
73
7
74
5
42
0.0000001000
43
0.0000001000
44
0.0000000001
12
0.1262999935
22
-0.4609589616
32
0.0000000000
13
0.0000000000
23
-0.4779485878
33
0.0000000000
40
0.0000000000
40
0.0000000000
40
0.0000000000
40
0.0000000000
40
0.1490269150
40
0.3839274221
40
0.6777015596
40
1.0000000000
40
1.0000000000
40
1.0000000000
40
1.0000000000
10
-57.7030262416
20
19.8384729062
30
0.0000000000
10
-57.6967522088
20
19.8155744755
30
0.0000000000
10
-57.6884961362
20
19.7546781390
30
0.0000000000
10
-57.6794783158
20
19.6471968195
30
0.0000000000
10
-57.6739146000
20
19.5116512755
30
0.0000000000
10
-57.6725879851
20
19.4135127047
30
0.0000000000
10
-57.6725879851
20
19.3621653432
30
0.0000000000
11
-57.7030262416
21
19.8384729062
31
0.0000000000
11
-57.6908169999
21
19.7682999132
31
0.0000000000
11
-57.6809681419
21
19.6564623748
31
0.0000000000
11
-57.6747153325
21
19.5161927374
31
0.0000000000
11
-57.6725879851
21
19.3621653432
31
0.0000000000
0
SPLINE
5
3A6
100
AcDbEntity
8
0
100
AcDbSpline
62
0
6
CONTINUOUS
70
0
71
3
72
10
73
6
74
4
42
0.0000001000
43
0.0000001000
44
0.0000000001
12
0.0267569301
22
0.5097247096
32
0.0000000000
13
0.4643895966
23
0.2268681900
33
0.0000000000
40
0.0000000000
40
0.0000000000
40
0.0000000000
40
0.0000000000
40
0.4725983169
40
0.9565454221
40
1.0000000000
40
1.0000000000
40
1.0000000000
40
1.0000000000
10
-71.0113043150
20
19.5267445959
30
0.0000000000
10
-71.0070892216
20
19.6070429425
30
0.0000000000
10
-70.9531374492
20
19.7699587192
30
0.0000000000
10
-70.8225449975
20
19.8890503990
30
0.0000000000
10
-70.7417886339
20
19.9306976509
30
0.0000000000
10
-70.7350620159
20
19.9339838047
30
0.0000000000
11
-71.0113043150
21
19.5267445959
31
0.0000000000
11
-70.9364545764
21
19.7560649831
31
0.0000000000
11
-70.7550156042
21
19.9236910460
31
0.0000000000
11
-70.7350620159
21
19.9339838047
31
0.0000000000
0
SPLINE
5
3A7
100
AcDbEntity
8
0
100
AcDbSpline
62
0
6
CONTINUOUS
70
0
71
3
72
9
73
5
74
3
42
0.0000001000
43
0.0000001000
44
0.0000000001
12
0.0210437316
22
0.4695737024
32
0.0000000000
13
0.4046586384
23
0.2496587530
33
0.0000000000
40
0.0000000000
40
0.0000000000
40
0.0000000000
40
0.0000000000
40
0.5217060855
40
1.0000000000
40
1.0000000000
40
1.0000000000
40
1.0000000000
10
-71.4781562333
20
22.0632302615
30
0.0000000000
10
-71.4744966857
20
22.1448900809
30
0.0000000000
10
-71.4243509782
20
22.3022203771
30
0.0000000000
10
-71.3085879271
20
22.4155481247
30
0.0000000000
10
-71.2440726723
20
22.4553515454
30
0.0000000000
11
-71.4781562333
21
22.0632302615
31
0.0000000000
11
-71.4043144967
21
22.2970739346
31
0.0000000000
11
-71.2440726723
21
22.4553515454
31
0.0000000000
0
SPLINE
5
3A8
100
AcDbEntity
8
0
100
AcDbSpline
62
0
6
CONTINUOUS
70
0
71
3
72
9
73
5
74
3
42
0.0000001000
43
0.0000001000
44
0.0000000001
12
0.0179050070
22
0.4747335315
32
0.0000000000
13
0.4079665144
23
0.2540841443
33
0.0000000000
40
0.0000000000
40
0.0000000000
40
0.0000000000
40
0.0000000000
40
0.5224211259
40
1.0000000000
40
1.0000000000
40
1.0000000000
40
1.0000000000
10
-71.8237168546
20
23.7141524993
30
0.0000000000
10
-71.8205988699
20
23.7968227747
30
0.0000000000
10
-71.7713652945
20
23.9562500795
30
0.0000000000
10
-71.6551599017
20
24.0717522073
30
0.0000000000
10
-71.5902145055
20
24.1122006139
30
0.0000000000
11
-71.8237168546
21
23.7141524993
31
0.0000000000
11
-71.7508793450
21
23.9514109312
31
0.0000000000
11
-71.5902145055
21
24.1122006139
31
0.0000000000
0
SPLINE
5
3A9
100
AcDbEntity
8
0
100
AcDbSpline
62
0
6
CONTINUOUS
70
0
71
3
72
9
73
5
74
3
42
0.0000001000
43
0.0000001000
44
0.0000000001
12
-0.0179660854
22
0.4747047049
32
0.0000000000
13
-0.4079564487
23
0.2540478577
33
0.0000000000
40
0.0000000000
40
0.0000000000
40
0.0000000000
40
0.0000000000
40
0.5224208325
40
1.0000000000
40
1.0000000000
40
1.0000000000
40
1.0000000000
10
73.7810953289
20
23.7141529094
30
0.0000000000
10
73.7779667098
20
23.7968181184
30
0.0000000000
10
73.7287181693
20
23.9562297604
30
0.0000000000
10
73.6125114069
20
24.0717161213
30
0.0000000000
10
73.5475675732
20
24.1121587761
30
0.0000000000
11
73.7810953289
21
23.7141529094
31
0.0000000000
11
73.7082353087
21
23.9513898013
31
0.0000000000
11
73.5475675732
21
24.1121587761
31
0.0000000000
0
SPLINE
5
3AA
100
AcDbEntity
8
0
100
AcDbSpline
62
0
6
CONTINUOUS
70
0
71
3
72
9
73
5
74
3
42
0.0000001000
43
0.0000001000
44
0.0000000001
12
-0.0210437346
22
0.4695736957
32
0.0000000000
13
-0.4046586310
23
0.2496587522
33
0.0000000000
40
0.0000000000
40
0.0000000000
40
0.0000000000
40
0.0000000000
40
0.5217060880
40
1.0000000000
40
1.0000000000
40
1.0000000000
40
1.0000000000
10
73.4355188030
20
22.0632302614
30
0.0000000000
10
73.4318592548
20
22.1448900800
30
0.0000000000
10
73.3817135474
20
22.3022203736
30
0.0000000000
10
73.2659504983
20
22.4155481198
30
0.0000000000
10
73.2014352450
20
22.4553515402
30
0.0000000000
11
73.4355188030
21
22.0632302614
31
0.0000000000
11
73.3616770660
21
22.2970739320
31
0.0000000000
11
73.2014352450
21
22.4553515402
31
0.0000000000
0
SPLINE
5
3AB
100
AcDbEntity
8
0
100
AcDbSpline
62
0
6
CONTINUOUS
70
0
71
3
72
10
73
6
74
4
42
0.0000001000
43
0.0000001000
44
0.0000000001
12
-0.0267557460
22
0.5097037001
32
0.0000000000
13
-0.4643608847
23
0.2268779351
33
0.0000000000
40
0.0000000000
40
0.0000000000
40
0.0000000000
40
0.0000000000
40
0.4726178575
40
0.9565849841
40
1.0000000000
40
1.0000000000
40
1.0000000000
40
1.0000000000
10
72.9686669348
20
19.5267445922
30
0.0000000000
10
72.9644518537
20
19.6070429491
30
0.0000000000
10
72.9105000911
20
19.7699587560
30
0.0000000000
10
72.7799130246
20
19.8890455306
30
0.0000000000
10
72.6991639139
20
19.9306911824
30
0.0000000000
10
72.6924438355
20
19.9339744854
30
0.0000000000
11
72.9686669348
21
19.5267445922
31
0.0000000000
11
72.8938172131
21
19.7560650152
31
0.0000000000
11
72.7123782206
21
19.9236911083
31
0.0000000000
11
72.6924438355
21
19.9339744854
31
0.0000000000
0
SPLINE
5
3AC
100
AcDbEntity
8
0
100
AcDbSpline
62
0
6
CONTINUOUS
70
0
71
3
72
11
73
7
74
5
42
0.0000001000
43
0.0000001000
44
0.0000000001
12
0.0000000000
22
0.4779485878
32
0.0000000000
13
0.1262999935
23
0.4609589616
33
0.0000000000
40
0.0000000000
40
0.0000000000
40
0.0000000000
40
0.0000000000
40
0.3222984404
40
0.6160725779
40
0.8509730850
40
1.0000000000
40
1.0000000000
40
1.0000000000
40
1.0000000000
10
59.6299505589
20
19.3621653432
30
0.0000000000
10
59.6299505589
20
19.4135127047
30
0.0000000000
10
59.6312771737
20
19.5116512755
30
0.0000000000
10
59.6368408895
20
19.6471968195
30
0.0000000000
10
59.6458587099
20
19.7546781390
30
0.0000000000
10
59.6541147825
20
19.8155744755
30
0.0000000000
10
59.6603888153
20
19.8384729062
30
0.0000000000
11
59.6299505589
21
19.3621653432
31
0.0000000000
11
59.6320779062
21
19.5161927374
31
0.0000000000
11
59.6383307156
21
19.6564623748
31
0.0000000000
11
59.6481795736
21
19.7682999132
31
0.0000000000
11
59.6603888153
21
19.8384729062
31
0.0000000000
0
SPLINE
5
3AD
100
AcDbEntity
8
0
100
AcDbSpline
62
0
6
CONTINUOUS
70
0
71
3
72
14
73
10
74
8
42
0.0000001000
43
0.0000001000
44
0.0000000001
12
-1.0207651423
22
0.0164304483
32
0.0000000000
13
-0.3603579887
23
0.9551824722
33
0.0000000000
40
0.0000000000
40
0.0000000000
40
0.0000000000
40
0.0000000000
40
0.1966417347
40
0.3944335075
40
0.5869497965
40
0.7523228446
40
0.8773277666
40
0.9564565116
40
1.0000000000
40
1.0000000000
40
1.0000000000
40
1.0000000000
10
-70.0181819054
20
19.3621653432
30
0.0000000000
10
-70.0850902481
20
19.3632423138
30
0.0000000000
10
-70.2192818426
20
19.3675230940
30
0.0000000000
10
-70.4185997909
20
19.3806102139
30
0.0000000000
10
-70.6068104662
20
19.4007045168
30
0.0000000000
10
-70.7688482006
20
19.4265311825
30
0.0000000000
10
-70.8920541191
20
19.4566477921
30
0.0000000000
10
-70.9695356697
20
19.4858585394
30
0.0000000000
10
-71.0060738653
20
19.5128805973
30
0.0000000000
10
-71.0113042799
20
19.5267445896
30
0.0000000000
11
-70.0181819054
21
19.3621653432
31
0.0000000000
11
-70.2188287385
21
19.3686325010
31
0.0000000000
11
-70.4203030541
21
19.3821175394
31
0.0000000000
11
-70.6156780185
21
19.4034798488
31
0.0000000000
11
-70.7821941044
21
19.4313293336
31
0.0000000000
11
-70.9057738139
21
19.4631759045
31
0.0000000000
11
-70.9799032745
21
19.4952789808
31
0.0000000000
11
-71.0113042799
21
19.5267445896
31
0.0000000000
0
SPLINE
5
3AE
100
AcDbEntity
8
0
100
AcDbSpline
62
0
6
CONTINUOUS
70
0
71
3
72
15
73
11
74
9
42
0.0000001000
43
0.0000001000
44
0.0000000001
12
-0.3604430473
22
-0.9554044226
32
0.0000000000
13
-1.0210028457
23
-0.0164313802
33
0.0000000000
40
0.0000000000
40
0.0000000000
40
0.0000000000
40
0.0000000000
40
0.0364549649
40
0.0989307086
40
0.1952621255
40
0.3253431988
40
0.4820859152
40
0.6539445558
40
0.8275026445
40
1.0000000000
40
1.0000000000
40
1.0000000000
40
1.0000000000
10
72.9686668536
20
19.5267445896
30
0.0000000000
10
72.9642868741
20
19.5151348447
30
0.0000000000
10
72.9366240740
20
19.4917933483
30
0.0000000000
10
72.8762081832
20
19.4658256434
30
0.0000000000
10
72.7810128737
20
19.4387120341
30
0.0000000000
10
72.6530394700
20
19.4140599325
30
0.0000000000
10
72.4982207219
20
19.3929680987
30
0.0000000000
10
72.3280140462
20
19.3770951502
30
0.0000000000
10
72.1520055014
20
19.3666366951
30
0.0000000000
10
72.0342512427
20
19.3631101331
30
0.0000000000
10
71.9755444791
20
19.3621653432
30
0.0000000000
11
72.9686668536
21
19.5267445896
31
0.0000000000
11
72.9434997562
21
19.4993155760
31
0.0000000000
11
72.8861890744
21
19.4712899215
31
0.0000000000
11
72.7919507119
21
19.4430893221
31
0.0000000000
11
72.6617361529
21
19.4168582543
31
0.0000000000
11
72.5032166066
21
19.3947378824
31
0.0000000000
11
72.3285138240
21
19.3781250082
31
0.0000000000
11
72.1516071995
21
19.3674859584
31
0.0000000000
11
71.9755444791
21
19.3621653432
31
0.0000000000
0
SPLINE
5
3AF
100
AcDbEntity
8
0
100
AcDbSpline
62
0
6
CONTINUOUS
70
0
71
3
72
16
73
12
74
10
42
0.0000001000
43
0.0000001000
44
0.0000000001
12
3.0831498604
22
-0.0087232006
32
0.0000000000
13
0.0728819576
23
-3.0823006628
33
0.0000000000
40
0.0000000000
40
0.0000000000
40
0.0000000000
40
0.0000000000
40
0.0768704777
40
0.1585654033
40
0.2488136290
40
0.3503503643
40
0.4646313084
40
0.5922178999
40
0.7291211268
40
0.8675569740
40
1.0000000000
40
1.0000000000
40
1.0000000000
40
1.0000000000
10
71.4852982448
20
46.0941496365
30
0.0000000000
10
71.5642993124
20
46.0939261176
30
0.0000000000
10
71.7273962335
20
46.0837002686
30
0.0000000000
10
71.9793354454
20
46.0362316129
30
0.0000000000
10
72.2469888417
20
45.9474380160
30
0.0000000000
10
72.5286147917
20
45.8044128645
30
0.0000000000
10
72.8136208673
20
45.5931193070
30
0.0000000000
10
73.0793141359
20
45.3051566948
30
0.0000000000
10
73.2941922241
20
44.9475328411
30
0.0000000000
10
73.4310358212
20
44.5482218809
30
0.0000000000
10
73.4656976877
20
44.2697846330
30
0.0000000000
10
73.4689152567
20
44.1337082240
30
0.0000000000
11
71.4852982448
21
46.0941496365
31
0.0000000000
11
71.7218370515
21
46.0793050887
31
0.0000000000
11
71.9693601363
21
46.0326659924
31
0.0000000000
11
72.2334544570
21
45.9450463215
31
0.0000000000
11
72.5125791104
21
45.8032987454
31
0.0000000000
11
72.7956403184
21
45.5934784883
31
0.0000000000
11
73.0624288151
21
45.3044041418
31
0.0000000000
11
73.2799163485
21
44.9426538980
31
0.0000000000
11
73.4183579688
21
44.5389097012
31
0.0000000000
11
73.4689152567
21
44.1337082240
31
0.0000000000
0
SPLINE
5
3B0
100
AcDbEntity
8
0
100
AcDbSpline
62
0
6
CONTINUOUS
70
0
71
3
72
16
73
12
74
10
42
0.0000001000
43
0.0000001000
44
0.0000000001
12
0.0728835106
22
3.0823263418
32
0.0000000000
13
3.0831755715
23
0.0087223079
33
0.0000000000
40
0.0000000000
40
0.0000000000
40
0.0000000000
40
0.0000000000
40
0.1314920358
40
0.2689125923
40
0.4050426590
40
0.5323934885
40
0.6469908371
40
0.7491946940
40
0.8402521158
40
0.9226732042
40
1.0000000000
40
1.0000000000
40
1.0000000000
40
1.0000000000
10
-71.5115526836
20
44.1337082358
30
0.0000000000
10
-71.5083581499
20
44.2688086911
30
0.0000000000
10
-71.4741499507
20
44.5452207490
30
0.0000000000
10
-71.3391244514
20
44.9421118579
30
0.0000000000
10
-71.1266344635
20
45.2986835620
30
0.0000000000
10
-70.8627090670
20
45.5872881545
30
0.0000000000
10
-70.5780045673
20
45.8003023923
30
0.0000000000
10
-70.2952357256
20
45.9452031148
30
0.0000000000
10
-70.0256311704
20
46.0353873940
30
0.0000000000
10
-69.7717224536
20
46.0835639105
30
0.0000000000
10
-69.6074063678
20
46.0939248271
30
0.0000000000
10
-69.5279356719
20
46.0941496498
30
0.0000000000
11
-71.5115526836
21
44.1337082358
31
0.0000000000
11
-71.4616492605
21
44.5360398042
31
0.0000000000
11
-71.3251173010
21
44.9371322120
31
0.0000000000
11
-71.1101624220
21
45.2976245490
31
0.0000000000
11
-70.8451461946
21
45.5873445914
31
0.0000000000
11
-70.5622251843
21
45.7989913972
31
0.0000000000
11
-70.2817844004
21
45.9426911114
31
0.0000000000
11
-70.0155401135
21
46.0317581510
31
0.0000000000
11
-69.7658752663
21
46.0791320642
31
0.0000000000
11
-69.5279356719
21
46.0941496498
31
0.0000000000
0
SPLINE
5
3B1
100
AcDbEntity
8
0
100
AcDbSpline
62
0
6
CONTINUOUS
70
0
71
3
72
17
73
13
74
11
42
0.0000001000
43
0.0000001000
44
0.0000000001
12
-0.0375830950
22
-3.1621484039
32
0.0000000000
13
3.1618820902
23
-0.0556476834
33
0.0000000000
40
0.0000000000
40
0.0000000000
40
0.0000000000
40
0.0000000000
40
0.1141624270
40
0.2339586348
40
0.3547491348
40
0.4719128958
40
0.5809780120
40
0.6807503261
40
0.7715673931
40
0.8540814096
40
0.9292531278
40
1.0000000000
40
1.0000000000
40
1.0000000000
40
1.0000000000
10
-72.2051178177
20
-20.1747698743
30
0.0000000000
10
-72.2065480102
20
-20.2951027197
30
0.0000000000
10
-72.1884845819
20
-20.5424575258
30
0.0000000000
10
-72.0962871224
20
-20.9068716900
30
0.0000000000
10
-71.9383568315
20
-21.2516965406
30
0.0000000000
10
-71.7270180444
20
-21.5527335727
30
0.0000000000
10
-71.4820514146
20
-21.7961471451
30
0.0000000000
10
-71.2232651515
20
-21.9795968438
30
0.0000000000
10
-70.9648389157
20
-22.1087816892
30
0.0000000000
10
-70.7156803729
20
-22.1921871734
30
0.0000000000
10
-70.4788604259
20
-22.2388499116
30
0.0000000000
10
-70.3250807312
20
-22.2504640127
30
0.0000000000
10
-70.2505163085
20
-22.2517763125
30
0.0000000000
11
-72.2051178177
21
-20.1747698743
31
0.0000000000
11
-72.1787426652
21
-20.5348291799
31
0.0000000000
11
-72.0857154410
21
-20.9020699574
31
0.0000000000
11
-71.9264818658
21
-21.2492828590
31
0.0000000000
11
-71.7134441436
21
-21.5524273227
31
0.0000000000
11
-71.4686784711
21
-21.7954269916
31
0.0000000000
11
-71.2112148366
21
-21.9778099586
31
0.0000000000
11
-70.9542992749
21
-22.1061715506
31
0.0000000000
11
-70.7068472720
21
-22.1889796825
31
0.0000000000
11
-70.4736087247
21
-22.2349254605
31
0.0000000000
11
-70.2505163085
21
-22.2517763125
31
0.0000000000
0
SPLINE
5
3B2
100
AcDbEntity
8
0
100
AcDbSpline
62
0
6
CONTINUOUS
70
0
71
3
72
17
73
13
74
11
42
0.0000001000
43
0.0000001000
44
0.0000000001
12
3.1618497825
22
0.0556681543
32
0.0000000000
13
-0.0375910277
23
3.1621163648
33
0.0000000000
40
0.0000000000
40
0.0000000000
40
0.0000000000
40
0.0000000000
40
0.0703159035
40
0.1444028408
40
0.2255629407
40
0.3150677133
40
0.4138961972
40
0.5226876154
40
0.6405101339
40
0.7626514687
40
0.8841380301
40
1.0000000000
40
1.0000000000
40
1.0000000000
40
1.0000000000
10
72.2078788841
20
-22.2517763233
30
0.0000000000
10
72.2819883255
20
-22.2504715378
30
0.0000000000
10
72.4341690242
20
-22.2390334161
30
0.0000000000
10
72.6680676842
20
-22.1933326793
30
0.0000000000
10
72.9137307030
20
-22.1120724261
30
0.0000000000
10
73.1694361042
20
-21.9860677349
30
0.0000000000
10
73.4273645934
20
-21.8061004114
30
0.0000000000
10
73.6739131074
20
-21.5651491840
30
0.0000000000
10
73.8886940827
20
-21.2642667055
30
0.0000000000
10
74.0504331276
20
-20.9168268215
30
0.0000000000
10
74.1452872171
20
-20.5478505270
30
0.0000000000
10
74.1639322081
20
-20.2968950122
30
0.0000000000
10
74.1624804179
20
-20.1747720018
30
0.0000000000
11
72.2078788841
21
-22.2517763233
31
0.0000000000
11
72.4296159801
21
-22.2351070062
31
0.0000000000
11
72.6595581830
21
-22.1901906027
31
0.0000000000
11
72.9032366088
21
-22.1096112539
31
0.0000000000
11
73.1571543193
21
-21.9845513173
31
0.0000000000
11
73.4135175960
21
-21.8057989717
31
0.0000000000
11
73.6596690999
21
-21.5654454504
31
0.0000000000
11
73.8762935156
21
-21.2622940414
31
0.0000000000
11
74.0394825041
21
-20.9122079472
31
0.0000000000
11
74.1352487100
21
-20.5401535426
31
0.0000000000
11
74.1624804179
21
-20.1747720018
31
0.0000000000
0
SPLINE
5
3B3
100
AcDbEntity
8
0
100
AcDbSpline
62
0
6
CONTINUOUS
70
0
71
3
72
10
73
6
74
4
42
0.0000001000
43
0.0000001000
44
0.0000000001
12
-1.0900490240
22
39.5672797989
32
0.0000000000
13
-1.2688032455
23
39.5619511132
33
0.0000000000
40
0.0000000000
40
0.0000000000
40
0.0000000000
40
0.0000000000
40
0.3277242881
40
0.6609711246
40
1.0000000000
40
1.0000000000
40
1.0000000000
40
1.0000000000
10
73.1641990089
20
-20.2022448663
30
0.0000000000
10
73.0451204954
20
-15.8798586648
30
0.0000000000
10
72.7965251776
20
-7.1624795649
30
0.0000000000
10
72.3985817992
20
6.0256197480
30
0.0000000000
10
72.1189314582
20
14.8912840788
30
0.0000000000
10
71.9755444790
20
19.3621653432
30
0.0000000000
11
73.1641990089
21
-20.2022448663
31
0.0000000000
11
72.7950538476
21
-7.2354198364
31
0.0000000000
11
72.3979039626
21
5.9492736183
31
0.0000000000
11
71.9755444790
21
19.3621653432
31
0.0000000000
0
SPLINE
5
3B4
100
AcDbEntity
8
0
100
AcDbSpline
62
0
6
CONTINUOUS
70
0
71
3
72
17
73
13
74
11
42
0.0000001000
43
0.0000001000
44
0.0000000001
12
1.7654840674
22
0.0000153973
32
0.0000000000
13
-0.0486321865
23
1.7648141270
33
0.0000000000
40
0.0000000000
40
0.0000000000
40
0.0000000000
40
0.0000000000
40
0.0629751906
40
0.1295087582
40
0.2031894349
40
0.2860887115
40
0.3803086424
40
0.4878050761
40
0.6087811713
40
0.7386662312
40
0.8713686682
40
1.0000000000
40
1.0000000000
40
1.0000000000
40
1.0000000000
10
72.2078788871
20
-21.4705802536
30
0.0000000000
10
72.2449394523
20
-21.4705799303
30
0.0000000000
10
72.3212662548
20
-21.4651567366
30
0.0000000000
10
72.4384309655
20
-21.4392057303
30
0.0000000000
10
72.5612149202
20
-21.3911076953
30
0.0000000000
10
72.6885333180
20
-21.3150751397
30
0.0000000000
10
72.8161850631
20
-21.2053322883
30
0.0000000000
10
72.9370412559
20
-21.0575847030
30
0.0000000000
10
73.0407621274
20
-20.8727527386
30
0.0000000000
10
73.1171262475
20
-20.6592511871
30
0.0000000000
10
73.1599111616
20
-20.4321599957
30
0.0000000000
10
73.1662842165
20
-20.2779149968
30
0.0000000000
10
73.1641990089
20
-20.2022448663
30
0.0000000000
11
72.2078788871
21
-21.4705802536
31
0.0000000000
11
72.3187793302
21
-21.4626770163
31
0.0000000000
11
72.4334791888
21
-21.4373447674
31
0.0000000000
11
72.5546622662
21
-21.3900583604
31
0.0000000000
11
72.6804916011
21
-21.3153090930
31
0.0000000000
11
72.8069746084
21
-21.2072706542
31
0.0000000000
11
72.9276891677
21
-21.0608272393
31
0.0000000000
11
73.0329129773
21
-20.8749645187
31
0.0000000000
11
73.1108006885
21
-20.6592874862
31
0.0000000000
11
73.1546302632
21
-20.4291397534
31
0.0000000000
11
73.1641990089
21
-20.2022448663
31
0.0000000000
0
SPLINE
5
3B5
100
AcDbEntity
8
0
100
AcDbSpline
62
0
6
CONTINUOUS
70
0
71
3
72
17
73
13
74
11
42
0.0000001000
43
0.0000001000
44
0.0000000001
12
-0.0486313772
22
-1.7648222875
32
0.0000000000
13
1.7654922025
23
-0.0000109069
33
0.0000000000
40
0.0000000000
40
0.0000000000
40
0.0000000000
40
0.0000000000
40
0.1267549785
40
0.2576702815
40
0.3862545641
40
0.5067526356
40
0.6147211847
40
0.7099897367
40
0.7941862256
40
0.8691264685
40
0.9366394047
40
1.0000000000
40
1.0000000000
40
1.0000000000
40
1.0000000000
10
-71.2068364339
20
-20.2022448532
30
0.0000000000
10
-71.2088911903
20
-20.2768115236
30
0.0000000000
10
-71.2027593977
20
-20.4288842305
30
0.0000000000
10
-71.1612253676
20
-20.6532012981
30
0.0000000000
10
-71.0867190916
20
-20.8650965670
30
0.0000000000
10
-70.9847463895
20
-21.0499937895
30
0.0000000000
10
-70.8647620705
20
-21.1992382177
30
0.0000000000
10
-70.7367535908
20
-21.3111302331
30
0.0000000000
10
-70.6081084194
20
-21.3891285673
30
0.0000000000
10
-70.4835754969
20
-21.4385406942
30
0.0000000000
10
-70.3649362162
20
-21.4650654578
30
0.0000000000
10
-70.2878038571
20
-21.4705800165
30
0.0000000000
10
-70.2505163115
20
-21.4705802468
30
0.0000000000
11
-71.2068364339
21
-20.2022448532
31
0.0000000000
11
-71.1976372875
21
-20.4258406243
31
0.0000000000
11
-71.1551270210
21
-20.6530276167
31
0.0000000000
11
-71.0791909009
21
-20.8669652496
31
0.0000000000
11
-70.9757642047
21
-21.0528699235
31
0.0000000000
11
-70.8557690917
21
-21.2009788508
31
0.0000000000
11
-70.7287720604
21
-21.3112585408
31
0.0000000000
11
-70.6014775056
21
-21.3880204905
31
0.0000000000
11
-70.4784305552
21
-21.4366459499
31
0.0000000000
11
-70.3620924725
21
-21.4625796316
31
0.0000000000
11
-70.2505163115
21
-21.4705802468
31
0.0000000000
0
SPLINE
5
3B6
100
AcDbEntity
8
0
100
AcDbSpline
62
0
6
CONTINUOUS
70
0
71
3
72
10
73
6
74
4
42
0.0000001000
43
0.0000001000
44
0.0000000001
12
-1.2688032452
22
-39.5619511002
32
0.0000000000
13
-1.0900490239
23
-39.5672797858
33
0.0000000000
40
0.0000000000
40
0.0000000000
40
0.0000000000
40
0.0000000000
40
0.3390288737
40
0.6722757111
40
1.0000000000
40
1.0000000000
40
1.0000000000
40
1.0000000000
10
-70.0181819053
20
19.3621653432
30
0.0000000000
10
-70.1615688836
20
14.8912841027
30
0.0000000000
10
-70.4412192242
20
6.0256197859
30
0.0000000000
10
-70.8391626030
20
-7.1624795227
30
0.0000000000
10
-71.0877579202
20
-15.8798586421
30
0.0000000000
10
-71.2068364339
20
-20.2022448532
30
0.0000000000
11
-70.0181819053
21
19.3621653432
31
0.0000000000
11
-70.4405413866
21
5.9492736901
31
0.0000000000
11
-70.8376912726
21
-7.2354197945
31
0.0000000000
11
-71.2068364339
21
-20.2022448532
31
0.0000000000
0
SPLINE
5
3B7
100
AcDbEntity
8
0
100
AcDbSpline
62
0
6
CONTINUOUS
70
0
71
3
72
10
73
6
74
4
42
0.0000001000
43
0.0000001000
44
0.0000000001
12
-0.4956597732
22
-2.5310569391
32
0.0000000000
13
-0.4420741972
23
-2.5409640383
33
0.0000000000
40
0.0000000000
40
0.0000000000
40
0.0000000000
40
0.0000000000
40
0.3139457580
40
0.6473185508
40
1.0000000000
40
1.0000000000
40
1.0000000000
40
1.0000000000
10
73.4355188051
20
22.0632302615
30
0.0000000000
10
73.3836487107
20
21.7983587317
30
0.0000000000
10
73.2789808685
20
21.2517766225
30
0.0000000000
10
73.1234638664
20
20.4062423648
30
0.0000000000
10
73.0206373641
20
19.8254615563
30
0.0000000000
10
72.9686669079
20
19.5267445965
30
0.0000000000
11
73.4355188051
21
22.0632302615
31
0.0000000000
11
73.2830627087
21
21.2680044793
31
0.0000000000
11
73.1273796939
21
20.4224035747
31
0.0000000000
11
72.9686669079
21
19.5267445965
31
0.0000000000
0
SPLINE
5
3B8
100
AcDbEntity
8
0
100
AcDbSpline
62
0
6
CONTINUOUS
70
0
71
3
72
9
73
5
74
3
42
0.0000001000
43
0.0000001000
44
0.0000000001
12
-1.2273669303
22
18.4264829835
32
0.0000000000
13
-2.4540700009
23
18.3035309477
33
0.0000000000
40
0.0000000000
40
0.0000000000
40
0.0000000000
40
0.0000000000
40
0.2495811003
40
1.0000000000
40
1.0000000000
40
1.0000000000
40
1.0000000000
10
75.2786812869
20
3.6900687263
30
0.0000000000
10
75.1765720905
20
5.2230360258
30
0.0000000000
10
74.7159308200
20
11.3616625854
30
0.0000000000
10
74.0493789750
20
17.4847917436
30
0.0000000000
10
73.4355188051
20
22.0632302615
30
0.0000000000
11
75.2786812869
21
3.6900687263
31
0.0000000000
11
74.9338110611
21
8.2862410241
31
0.0000000000
11
73.4355188051
21
22.0632302615
31
0.0000000000
0
SPLINE
5
3B9
100
AcDbEntity
8
0
100
AcDbSpline
62
0
6
CONTINUOUS
70
0
71
3
72
9
73
5
74
3
42
0.0000001000
43
0.0000001000
44
0.0000000001
12
-0.9292902732
22
13.7986318989
32
0.0000000000
13
-1.2626849900
23
13.7721258094
33
0.0000000000
40
0.0000000000
40
0.0000000000
40
0.0000000000
40
0.0000000000
40
0.4755457443
40
1.0000000000
40
1.0000000000
40
1.0000000000
40
1.0000000000
10
75.2786812869
20
-33.9593013568
30
0.0000000000
10
75.1313746086
20
-31.7720077979
30
0.0000000000
10
74.7845431551
20
-27.1749387905
30
0.0000000000
10
74.3832428020
20
-22.5823946734
30
0.0000000000
10
74.1625026298
20
-20.1747780098
30
0.0000000000
11
75.2786812869
21
-33.9593013568
31
0.0000000000
11
74.7891883637
21
-27.4007978681
31
0.0000000000
11
74.1625026298
21
-20.1747780098
31
0.0000000000
0
SPLINE
5
3BA
100
AcDbEntity
8
0
100
AcDbSpline
62
0
6
CONTINUOUS
70
0
71
3
72
10
73
6
74
4
42
0.0000001000
43
0.0000001000
44
0.0000000001
12
-1.0945883841
22
39.7044131928
32
0.0000000000
13
-1.2743991062
23
39.6990485734
33
0.0000000000
40
0.0000000000
40
0.0000000000
40
0.0000000000
40
0.0000000000
40
0.3277136995
40
0.6609593413
40
1.0000000000
40
1.0000000000
40
1.0000000000
40
1.0000000000
10
74.1625026298
20
-20.1747780098
30
0.0000000000
10
74.0429320935
20
-15.8375512988
30
0.0000000000
10
73.7932649932
20
-7.0901166677
30
0.0000000000
10
73.3935845494
20
6.1436865337
30
0.0000000000
10
73.1126912787
20
15.0402140709
30
0.0000000000
10
72.9686669079
20
19.5267445965
30
0.0000000000
11
74.1625026298
21
-20.1747780098
31
0.0000000000
11
73.7917886907
21
-7.1634343021
31
0.0000000000
11
73.3929046354
21
6.0669037749
31
0.0000000000
11
72.9686669079
21
19.5267445965
31
0.0000000000
0
SPLINE
5
3BB
100
AcDbEntity
8
0
100
AcDbSpline
62
0
6
CONTINUOUS
70
0
71
3
72
10
73
6
74
4
42
0.0000001000
43
0.0000001000
44
0.0000000001
12
-0.3700007607
22
-1.6456695511
32
0.0000000000
13
-0.3243132094
23
-1.6552793651
33
0.0000000000
40
0.0000000000
40
0.0000000000
40
0.0000000000
40
0.0000000000
40
0.3152893505
40
0.6486150943
40
1.0000000000
40
1.0000000000
40
1.0000000000
40
1.0000000000
10
73.7810953230
20
23.7141529092
30
0.0000000000
10
73.7422095565
20
23.5411988813
30
0.0000000000
10
73.6641325532
20
23.1849632590
30
0.0000000000
10
73.5490161843
20
22.6346165393
30
0.0000000000
10
73.4735050606
20
22.2571103227
30
0.0000000000
10
73.4355188051
20
22.0632302615
30
0.0000000000
11
73.7810953230
21
23.7141529092
31
0.0000000000
11
73.6671096167
21
23.1946973805
31
0.0000000000
11
73.5518795810
21
22.6443946733
31
0.0000000000
11
73.4355188051
21
22.0632302615
31
0.0000000000
0
SPLINE
5
3BC
100
AcDbEntity
8
0
100
AcDbSpline
62
0
6
CONTINUOUS
70
0
71
3
72
12
73
8
74
6
42
0.0000001000
43
0.0000001000
44
0.0000000001
12
0.0816479425
22
-3.4202269340
32
0.0000000000
13
-0.7510873667
23
-3.3377367233
33
0.0000000000
40
0.0000000000
40
0.0000000000
40
0.0000000000
40
0.0000000000
40
0.2607274598
40
0.5216731080
40
0.7465477737
40
0.9097865272
40
1.0000000000
40
1.0000000000
40
1.0000000000
40
1.0000000000
10
73.8467922872
20
27.1318980872
30
0.0000000000
10
73.8538882408
20
26.8346490604
30
0.0000000000
10
73.8641594955
20
26.2397654275
30
0.0000000000
10
73.8659139533
20
25.3885093567
30
0.0000000000
10
73.8549283401
20
24.6479483846
30
0.0000000000
10
73.8281699542
20
24.1038411884
30
0.0000000000
10
73.8036813895
20
23.8145225162
30
0.0000000000
10
73.7810953230
20
23.7141529092
30
0.0000000000
11
73.8467922872
21
27.1318980872
31
0.0000000000
11
73.8618957724
21
26.2400248266
31
0.0000000000
11
73.8632970618
21
25.3472783227
31
0.0000000000
11
73.8488015736
21
24.5780733831
31
0.0000000000
11
73.8198080455
21
24.0203538576
31
0.0000000000
11
73.7810953230
21
23.7141529092
31
0.0000000000
0
SPLINE
5
3BD
100
AcDbEntity
8
0
100
AcDbSpline
62
0
6
CONTINUOUS
70
0
71
3
72
10
73
6
74
4
42
0.0000001000
43
0.0000001000
44
0.0000000001
12
0.3505901146
22
-17.0024014553
32
0.0000000000
13
0.4061547908
23
-17.0011648707
33
0.0000000000
40
0.0000000000
40
0.0000000000
40
0.0000000000
40
0.0000000000
40
0.3469704764
40
0.6801648203
40
1.0000000000
40
1.0000000000
40
1.0000000000
40
1.0000000000
10
73.4689151495
20
44.1337082292
30
0.0000000000
10
73.5094632891
20
42.1672644517
30
0.0000000000
10
73.5910069126
20
38.3124947214
30
0.0000000000
10
73.7171089777
20
32.6452245817
30
0.0000000000
10
73.8034914237
20
28.9444216277
30
0.0000000000
10
73.8467922872
20
27.1318980872
30
0.0000000000
11
73.4689151495
21
44.1337082292
31
0.0000000000
11
73.5937583834
21
38.2344437240
31
0.0000000000
11
73.7198437995
21
32.5695384790
31
0.0000000000
11
73.8467922872
21
27.1318980872
31
0.0000000000
0
SPLINE
5
3BE
100
AcDbEntity
8
0
100
AcDbSpline
62
0
6
CONTINUOUS
70
0
71
3
72
15
73
11
74
9
42
0.0000001000
43
0.0000001000
44
0.0000000001
12
1.1452351592
22
3.9456021336
32
0.0000000000
13
4.1069459768
23
-0.1110608410
33
0.0000000000
40
0.0000000000
40
0.0000000000
40
0.0000000000
40
0.0000000000
40
0.2910752135
40
0.5102884235
40
0.6723175713
40
0.7895659409
40
0.8725314184
40
0.9301733868
40
0.9703154831
40
1.0000000000
40
1.0000000000
40
1.0000000000
40
1.0000000000
10
73.4689151495
20
44.1337082292
30
0.0000000000
10
73.5800316723
20
44.5165305571
30
0.0000000000
10
73.7867591669
20
45.1843754469
30
0.0000000000
10
74.1030901086
20
46.0495566446
30
0.0000000000
10
74.3779663904
20
46.6750673952
30
0.0000000000
10
74.6149166575
20
47.1117899926
30
0.0000000000
10
74.8179516805
20
47.4018847236
30
0.0000000000
10
74.9917488215
20
47.5804453633
30
0.0000000000
10
75.1417849037
20
47.6738578606
30
0.0000000000
10
75.2380474584
20
47.6946814952
30
0.0000000000
10
75.2786850274
20
47.6935825660
30
0.0000000000
11
73.4689151495
21
44.1337082292
31
0.0000000000
11
73.8267286134
21
45.2747901159
31
0.0000000000
11
74.1401939891
21
46.1191043544
31
0.0000000000
11
74.4123138209
21
46.7266334576
31
0.0000000000
11
74.6464929582
21
47.1475888668
31
0.0000000000
11
74.8464160780
21
47.4236609714
31
0.0000000000
11
75.0158982989
21
47.5890665711
31
0.0000000000
11
75.1587451079
21
47.6714920098
31
0.0000000000
11
75.2786850274
21
47.6935825660
31
0.0000000000
0
SPLINE
5
3BF
100
AcDbEntity
8
0
100
AcDbSpline
62
0
6
CONTINUOUS
70
0
71
3
72
10
73
6
74
4
42
0.0000001000
43
0.0000001000
44
0.0000000001
12
-0.4420741972
22
2.5409640383
32
0.0000000000
13
-0.4956597732
23
2.5310569391
33
0.0000000000
40
0.0000000000
40
0.0000000000
40
0.0000000000
40
0.0000000000
40
0.3526814492
40
0.6860542420
40
1.0000000000
40
1.0000000000
40
1.0000000000
40
1.0000000000
10
-71.0113043342
20
19.5267445965
30
0.0000000000
10
-71.0632747903
20
19.8254615563
30
0.0000000000
10
-71.1661012927
20
20.4062423648
30
0.0000000000
10
-71.3216182948
20
21.2517766224
30
0.0000000000
10
-71.4262861370
20
21.7983587317
30
0.0000000000
10
-71.4781562314
20
22.0632302615
30
0.0000000000
11
-71.0113043342
21
19.5267445965
31
0.0000000000
11
-71.1700171202
21
20.4224035746
31
0.0000000000
11
-71.3257001350
21
21.2680044793
31
0.0000000000
11
-71.4781562314
21
22.0632302615
31
0.0000000000
0
SPLINE
5
3C0
100
AcDbEntity
8
0
100
AcDbSpline
62
0
6
CONTINUOUS
70
0
71
3
72
10
73
6
74
4
42
0.0000001000
43
0.0000001000
44
0.0000000001
12
-1.2743990211
22
-39.6990459189
32
0.0000000000
13
-1.0945883177
23
-39.7044105377
33
0.0000000000
40
0.0000000000
40
0.0000000000
40
0.0000000000
40
0.0000000000
40
0.3390406813
40
0.6722863449
40
1.0000000000
40
1.0000000000
40
1.0000000000
40
1.0000000000
10
-71.0113043342
20
19.5267445965
30
0.0000000000
10
-71.1553287049
20
15.0402140721
30
0.0000000000
10
-71.4362219755
20
6.1436865430
30
0.0000000000
10
-71.8359023920
20
-7.0901157735
30
0.0000000000
10
-72.0855694701
20
-15.8375495208
30
0.0000000000
10
-72.2051399829
20
-20.1747753549
30
0.0000000000
11
-71.0113043342
21
19.5267445965
31
0.0000000000
11
-71.4355420615
21
6.0669037785
31
0.0000000000
11
-71.8344261163
21
-7.1634342780
31
0.0000000000
11
-72.2051399829
21
-20.1747753549
31
0.0000000000
0
SPLINE
5
3C1
100
AcDbEntity
8
0
100
AcDbSpline
62
0
6
CONTINUOUS
70
0
71
3
72
9
73
5
74
3
42
0.0000001000
43
0.0000001000
44
0.0000000001
12
-1.2626834556
22
-13.7721090199
32
0.0000000000
13
-0.9292891302
23
-13.7986150782
33
0.0000000000
40
0.0000000000
40
0.0000000000
40
0.0000000000
40
0.0000000000
40
0.5244554323
40
1.0000000000
40
1.0000000000
40
1.0000000000
40
1.0000000000
10
-72.2051399829
20
-20.1747753549
30
0.0000000000
10
-72.4258803821
20
-22.5823944847
30
0.0000000000
10
-72.8271792265
20
-27.1749330823
30
0.0000000000
10
-73.1740125806
20
-31.7719963109
30
0.0000000000
10
-73.3213187131
20
-33.9592817917
30
0.0000000000
11
-72.2051399829
21
-20.1747753549
31
0.0000000000
11
-72.8318261762
21
-27.4008026312
31
0.0000000000
11
-73.3213187131
21
-33.9592817917
31
0.0000000000
0
SPLINE
5
3C2
100
AcDbEntity
8
0
100
AcDbSpline
62
0
6
CONTINUOUS
70
0
71
3
72
9
73
5
74
3
42
0.0000001000
43
0.0000001000
44
0.0000000001
12
1.2273669303
22
18.4264829835
32
0.0000000000
13
2.4540700009
23
18.3035309477
33
0.0000000000
40
0.0000000000
40
0.0000000000
40
0.0000000000
40
0.0000000000
40
0.2495811003
40
1.0000000000
40
1.0000000000
40
1.0000000000
40
1.0000000000
10
-73.3213187131
20
3.6900687263
30
0.0000000000
10
-73.2192095168
20
5.2230360258
30
0.0000000000
10
-72.7585682462
20
11.3616625854
30
0.0000000000
10
-72.0920164013
20
17.4847917436
30
0.0000000000
10
-71.4781562314
20
22.0632302615
30
0.0000000000
11
-73.3213187131
21
3.6900687263
31
0.0000000000
11
-72.9764484874
21
8.2862410241
31
0.0000000000
11
-71.4781562314
21
22.0632302615
31
0.0000000000
0
SPLINE
5
3C3
100
AcDbEntity
8
0
100
AcDbSpline
62
0
6
CONTINUOUS
70
0
71
3
72
10
73
6
74
4
42
0.0000001000
43
0.0000001000
44
0.0000000001
12
0.4061547800
22
17.0011648831
32
0.0000000000
13
0.3505901206
23
17.0024014673
33
0.0000000000
40
0.0000000000
40
0.0000000000
40
0.0000000000
40
0.0000000000
40
0.3198351827
40
0.6530295269
40
1.0000000000
40
1.0000000000
40
1.0000000000
40
1.0000000000
10
-71.8894297135
20
27.1318980872
30
0.0000000000
10
-71.8461288507
20
28.9444216461
30
0.0000000000
10
-71.7597464025
20
32.6452246213
30
0.0000000000
10
-71.6336443378
20
38.3124947651
30
0.0000000000
10
-71.5521007155
20
42.1672644810
30
0.0000000000
10
-71.5115525755
20
44.1337082413
30
0.0000000000
11
-71.8894297135
21
27.1318980872
31
0.0000000000
11
-71.7624812245
21
32.5695385341
31
0.0000000000
11
-71.6363958083
21
38.2344437878
31
0.0000000000
11
-71.5115525755
21
44.1337082413
31
0.0000000000
0
SPLINE
5
3C4
100
AcDbEntity
8
0
100
AcDbSpline
62
0
6
CONTINUOUS
70
0
71
3
72
12
73
8
74
6
42
0.0000001000
43
0.0000001000
44
0.0000000001
12
-0.7500239031
22
3.3379821473
32
0.0000000000
13
0.0817736510
23
3.4202300713
33
0.0000000000
40
0.0000000000
40
0.0000000000
40
0.0000000000
40
0.0000000000
40
0.0879933739
40
0.2494150431
40
0.4742626759
40
0.7364643422
40
1.0000000000
40
1.0000000000
40
1.0000000000
40
1.0000000000
10
-71.8237327492
20
23.7141529092
30
0.0000000000
10
-71.8457317938
20
23.8120596796
30
0.0000000000
10
-71.8704185214
20
24.0966802649
30
0.0000000000
10
-71.8971875222
20
24.6361864952
30
0.0000000000
10
-71.9085144138
20
25.3760609429
30
0.0000000000
10
-71.9069016433
20
26.2319272084
30
0.0000000000
10
-71.8966131378
20
26.8314472266
30
0.0000000000
10
-71.8894297135
20
27.1318980872
30
0.0000000000
11
-71.8237327492
21
23.7141529092
31
0.0000000000
11
-71.8618302403
21
24.0127761234
31
0.0000000000
11
-71.8909782795
21
24.5642633959
31
0.0000000000
11
-71.9058258023
21
25.3333704990
31
0.0000000000
11
-71.9046263992
21
26.2304160012
31
0.0000000000
11
-71.8894297135
21
27.1318980872
31
0.0000000000
0
SPLINE
5
3C5
100
AcDbEntity
8
0
100
AcDbSpline
62
0
6
CONTINUOUS
70
0
71
3
72
10
73
6
74
4
42
0.0000001000
43
0.0000001000
44
0.0000000001
12
-0.3243132094
22
1.6552793651
32
0.0000000000
13
-0.3700007607
23
1.6456695511
33
0.0000000000
40
0.0000000000
40
0.0000000000
40
0.0000000000
40
0.0000000000
40
0.3513849057
40
0.6847106496
40
1.0000000000
40
1.0000000000
40
1.0000000000
40
1.0000000000
10
-71.4781562314
20
22.0632302615
30
0.0000000000
10
-71.5161424869
20
22.2571103227
30
0.0000000000
10
-71.5916536106
20
22.6346165393
30
0.0000000000
10
-71.7067699794
20
23.1849632590
30
0.0000000000
10
-71.7848469828
20
23.5411988813
30
0.0000000000
10
-71.8237327492
20
23.7141529092
30
0.0000000000
11
-71.4781562314
21
22.0632302615
31
0.0000000000
11
-71.5945170073
21
22.6443946732
31
0.0000000000
11
-71.7097470430
21
23.1946973806
31
0.0000000000
11
-71.8237327492
21
23.7141529092
31
0.0000000000
0
SPLINE
5
3C6
100
AcDbEntity
8
0
100
AcDbSpline
62
0
6
CONTINUOUS
70
0
71
3
72
15
73
11
74
9
42
0.0000001000
43
0.0000001000
44
0.0000000001
12
4.1068221904
22
0.1110562192
32
0.0000000000
13
1.1452005655
23
-3.9454831963
33
0.0000000000
40
0.0000000000
40
0.0000000000
40
0.0000000000
40
0.0000000000
40
0.0317658834
40
0.0736196218
40
0.1324112401
40
0.2155410514
40
0.3317622515
40
0.4918311106
40
0.7090730783
40
1.0000000000
40
1.0000000000
40
1.0000000000
40
1.0000000000
10
-73.3213224543
20
47.6933717890
30
0.0000000000
10
-73.2778368426
20
47.6945477219
30
0.0000000000
10
-73.1763140000
20
47.6712388925
30
0.0000000000
10
-73.0228159097
20
47.5706293944
30
0.0000000000
10
-72.8486889425
20
47.3868672861
30
0.0000000000
10
-72.6476729199
20
47.0949557913
30
0.0000000000
10
-72.4140549753
20
46.6609245286
30
0.0000000000
10
-72.1426729769
20
46.0413410444
30
0.0000000000
10
-71.8284627006
20
45.1813800191
30
0.0000000000
10
-71.6226091339
20
44.5163240017
30
0.0000000000
10
-71.5115525755
20
44.1337082413
30
0.0000000000
11
-73.3213224543
21
47.6933717890
31
0.0000000000
11
-73.1932375774
21
47.6683578836
31
0.0000000000
11
-73.0461367559
21
47.5793202360
31
0.0000000000
11
-72.8758604196
21
47.4080160643
31
0.0000000000
11
-72.6779031835
21
47.1297146399
31
0.0000000000
11
-72.4474495113
21
46.7115366868
31
0.0000000000
11
-72.1795213046
21
46.1109773548
31
0.0000000000
11
-71.8691575085
21
45.2741792515
31
0.0000000000
11
-71.5115525755
21
44.1337082413
31
0.0000000000
0
SPLINE
5
3C7
100
AcDbEntity
8
0
100
AcDbSpline
62
0
6
CONTINUOUS
70
0
71
3
72
15
73
11
74
9
42
0.0000001000
43
0.0000001000
44
0.0000000001
12
4.1289469479
22
-0.0000040626
32
0.0000000000
13
1.1370960504
23
-3.9692839998
33
0.0000000000
40
0.0000000000
40
0.0000000000
40
0.0000000000
40
0.0000000000
40
0.0315837610
40
0.0735444186
40
0.1326229144
40
0.2161095115
40
0.3326395477
40
0.4928273284
40
0.7098147214
40
1.0000000000
40
1.0000000000
40
1.0000000000
40
1.0000000000
10
-71.3218776081
20
49.6900687263
30
0.0000000000
10
-71.2784083836
20
49.6900686835
30
0.0000000000
10
-71.1770937336
20
49.6643381988
30
0.0000000000
10
-71.0251363470
20
49.5592816907
30
0.0000000000
10
-70.8524519323
20
49.3712428743
30
0.0000000000
10
-70.6531922818
20
49.0744050158
30
0.0000000000
10
-70.4216805726
20
48.6352910984
30
0.0000000000
10
-70.1529123177
20
48.0106300108
30
0.0000000000
10
-69.8418378973
20
47.1459556330
30
0.0000000000
10
-69.6379251761
20
46.4780926063
30
0.0000000000
10
-69.5279356647
20
46.0941500118
30
0.0000000000
11
-71.3218776081
21
49.6900687263
31
0.0000000000
11
-71.1945331639
21
49.6619697251
31
0.0000000000
11
-71.0484084018
21
49.5688876646
31
0.0000000000
11
-70.8793765375
21
49.3930154460
31
0.0000000000
11
-70.6830071374
21
49.1097042469
31
0.0000000000
11
-70.4545658651
21
48.6862465949
31
0.0000000000
11
-70.1891579270
21
48.0804267822
31
0.0000000000
11
-69.8819052172
21
47.2388298938
31
0.0000000000
11
-69.5279356647
21
46.0941500118
31
0.0000000000
0
SPLINE
5
3C8
100
AcDbEntity
8
0
100
AcDbSpline
62
0
6
CONTINUOUS
70
0
71
3
72
15
73
11
74
9
42
0.0000001000
43
0.0000001000
44
0.0000000001
12
1.1371278707
22
3.9693950943
32
0.0000000000
13
4.1290625097
23
0.0000034295
33
0.0000000000
40
0.0000000000
40
0.0000000000
40
0.0000000000
40
0.0000000000
40
0.2903658821
40
0.5093401612
40
0.6714860609
40
0.7890361631
40
0.8723480261
40
0.9302606615
40
0.9704916461
40
1.0000000000
40
1.0000000000
40
1.0000000000
40
1.0000000000
10
71.4852982376
20
46.0941500118
30
0.0000000000
10
71.5953592833
20
46.4783423145
30
0.0000000000
10
71.8001592232
20
47.1490741622
30
0.0000000000
10
72.1133634879
20
48.0190572796
30
0.0000000000
10
72.3855993225
20
48.6497155833
30
0.0000000000
10
72.6203986339
20
49.0915285905
30
0.0000000000
10
72.8216241617
20
49.3866022869
30
0.0000000000
10
72.9939638001
20
49.5693203887
30
0.0000000000
10
73.1424900037
20
49.6673425757
30
0.0000000000
10
73.2386512664
20
49.6900686925
30
0.0000000000
10
73.2792652123
20
49.6900687263
30
0.0000000000
11
71.4852982376
21
46.0941500118
31
0.0000000000
11
71.8395162974
21
47.2395687121
31
0.0000000000
11
72.1498709278
21
48.0887934007
31
0.0000000000
11
72.4194290673
21
48.7016415008
31
0.0000000000
11
72.6515422187
21
49.1279151116
31
0.0000000000
11
72.8498357876
21
49.4090122214
31
0.0000000000
11
73.0180620814
21
49.5789552347
31
0.0000000000
11
73.1599637789
21
49.6653179403
31
0.0000000000
11
73.2792652123
21
49.6900687263
31
0.0000000000
0
ENDSEC
0
SECTION
2
OBJECTS
0
DICTIONARY
5
C
100
AcDbDictionary
280
0
281
1
3
ACAD_GROUP
350
D
3
ACAD_MLINESTYLE
350
17
3
ACAD_LAYOUT
350
1A
3
ACAD_PLOTSETTINGS
350
19
3
ACAD_PLOTSTYLENAME
350
E
0
DICTIONARY
5
D
102
{ACAD_REACTORS
330
C
102
}
100
AcDbDictionary
280
0
281
1
0
ACDBDICTIONARYWDFLT
5
E
102
{ACAD_REACTORS
330
C
102
}
100
AcDbDictionary
281
1
3
Normal
350
F
100
AcDbDictionaryWithDefault
340
F
0
DICTIONARY
5
17
102
{ACAD_REACTORS
330
C
102
}
100
AcDbDictionary
280
0
281
1
3
Standard
350
18
0
DICTIONARY
5
19
102
{ACAD_REACTORS
330
C
102
}
100
AcDbDictionary
281
1
0
DICTIONARY
5
1A
102
{ACAD_REACTORS
330
C
102
}
100
AcDbDictionary
281
1
3
Layout1
350
1E
3
Model
350
22
0
ACDBPLACEHOLDER
5
F
102
{ACAD_REACTORS
330
E
102
}
0
MLINESTYLE
5
18
102
{ACAD_REACTORS
330
17
102
}
100
AcDbMlineStyle
2
STANDARD
70
0
3

62
256
51
90.0
52
90.0
71
2
49
0.5
62
256
6
BYLAYER
49
-0.5
62
256
6
BYLAYER
0
LAYOUT
5
1E
102
{ACAD_REACTORS
330
1A
102
}
100
AcDbPlotSettings
1

2

4

6

40
0.0
41
0.0
42
0.0
43
0.0
44
0.0
45
0.0
46
0.0
47
0.0
48
0.0
49
0.0
140
0.0
141
0.0
142
1.0
143
1.0
70
0
72
0
73
0
74
0
7

75
0
147
1.0
148
0.0
149
0.0
100
AcDbLayout
1
Layout1
70
0
71
0
10
0.0
20
0.0
11
0.0
21
0.0
12
0.0
22
0.0
32
0.0
14
0.0
24
0.0
34
0.0
15
0.0
25
0.0
35
0.0
146
0.0
13
0.0
23
0.0
33
0.0
16
0.0
26
0.0
36
0.0
17
0.0
27
0.0
37
0.0
76
0
330
1B
331
0
345
0
346
0
0
LAYOUT
5
22
102
{ACAD_REACTORS
330
1A
102
}
100
AcDbPlotSettings
1

2

4

6

40
0.0
41
0.0
42
0.0
43
0.0
44
0.0
45
0.0
46
0.0
47
0.0
48
0.0
49
0.0
140
0.0
141
0.0
142
1.0
143
1.0
70
0
72
0
73
0
74
0
7

75
0
147
1.0
148
0.0
149
0.0
100
AcDbLayout
1
Model
70
0
71
0
10
0.0
20
0.0
11
0.0
21
0.0
12
0.0
22
0.0
32
0.0
14
0.0
24
0.0
34
0.0
15
0.0
25
0.0
35
0.0
146
0.0
13
0.0
23
0.0
33
0.0
16
0.0
26
0.0
36
0.0
17
0.0
27
0.0
37
0.0
76
0
330
1F
331
0
345
0
346
0
0
ENDSEC
0
EOF
