  0
SECTION
  2
HEADER
  9
$ACADVER
  1
AC1015
  9
$DWGCODEPAGE
  3
ANSI_1252
  9
$EXTMAX
 10
297.0
 20
210.0
 30
0.0
  9
$EXTMIN
 10
0.0
 20
0.0
 30
0.0
  9
$LIMMIN
 10
0.0
 20
0.0
  9
$LIMMAX
 10
297.0
 20
210.0
  9
$VIEWCTR
 10
148.5
 20
105.0
  9
$VIEWSIZE
 40
210.0
  9
$CLAYER
  8
0
  9
$LTSCALE
 40
16.335
  9
$CELTYPE
  6
BYLAYER
  9
$DIMSCALE
 40
1.0
  9
$DIMASZ
 40
3.0
  9
$DIMEXO
 40
0.5
  9
$DIMDLI
 40
11.286
  9
$DIMEXE
 40
1.5
  9
$DIMCEN
 40
2.673
  9
$DIMLFAC
 40
1.0
  9
$DIMBLK
  1
_FILLED
  9
$DIMTXT
 40
3.0
  9
$DIMTOL
 70
1
  9
$DIMLIM
 70
0
  9
$DIMTFAC
 40
1.0
  9
$DIMTP
 40
0.01
  9
$DIMTM
 40
0.01
  9
$DIMGAP
 40
0.625
  9
$DIMDSEP
 70
44
  9
$PDMODE
 70
3
  9
$PDSIZE
 40
3.0
  9
$HANDSEED
  5
916
  9
$TILEMODE
 70
1
  9
$MEASUREMENT
 70
1
  9
$INSUNITS
 70
4
  0
ENDSEC
  0
SECTION
  2
CLASSES
  0
CLASS
  1
ACDBDICTIONARYWDFLT
  2
AcDbDictionaryWithDefault
  3
AutoCAD 2000
 90
0
280
0
281
0
  0
CLASS
  1
ACDBPLACEHOLDER
  2
AcDbPlaceHolder
  3
AutoCAD 2000
 90
0
280
0
281
0
  0
CLASS
  1
LAYOUT
  2
AcDbLayout
  3
AutoCAD 2000
 90
0
280
0
281
0
  0
ENDSEC
  0
SECTION
  2
TABLES
  0
TABLE
  2
VPORT
  5
8
100
AcDbSymbolTable
 70
2
  0
VPORT
  5
1F4
100
AcDbSymbolTableRecord
100
AcDbViewportTableRecord
  2
*ACTIVE
 70
0
 10
0.0
 20
0.0
 11
1.0
 21
1.0
 12
148.5
 22
105.0
 13
0.0
 23
0.0
 14
1.0
 24
1.0
 15
0.0
 25
0.0
 16
0.0
 26
0.0
 36
1.0
 17
0.0
 27
0.0
 37
0.0
 40
210.0
 41
1.4142857143
 42
50.0
 43
0.0
 44
0.0
 50
0.0
 51
0.0
 71
0
 72
100
 73
1
 74
1
 75
0
 76
0
 77
0
 78
0
  0
ENDTAB
  0
TABLE
  2
LTYPE
  5
5
100
AcDbSymbolTable
 70
6
  0
LTYPE
  5
14
100
AcDbSymbolTableRecord
100
AcDbLinetypeTableRecord
  2
BYBLOCK
 70
0
  3

 72
65
 73
0
 40
0.0
  0
LTYPE
  5
15
100
AcDbSymbolTableRecord
100
AcDbLinetypeTableRecord
  2
BYLAYER
 70
0
  3

 72
65
 73
0
 40
0.0
  0
LTYPE
  5
16
100
AcDbSymbolTableRecord
100
AcDbLinetypeTableRecord
  2
CONTINUOUS
 70
64
  3
Solid line
 72
65
 73
0
 40
0.0
  0
LTYPE
  5
1F5
100
AcDbSymbolTableRecord
100
AcDbLinetypeTableRecord
  2
CENTER
 70
64
  3
____ _ ____ _ ____ _ ____ _ ____ _ ____ _ ____
 72
65
 73
4
 40
0.6
 49
0.375
 74
0
 49
-0.075
 74
0
 49
0.075
 74
0
 49
-0.075
 74
0
  0
LTYPE
  5
1F6
100
AcDbSymbolTableRecord
100
AcDbLinetypeTableRecord
  2
HIDDEN
 70
64
  3
- - - - - - - - - - - - - - - - - - - -
 72
65
 73
2
 40
0.2
 49
0.1
 74
0
 49
-0.1
 74
0
  0
LTYPE
  5
1F7
100
AcDbSymbolTableRecord
100
AcDbLinetypeTableRecord
  2
PHANTOM
 70
64
  3
_____ _ _ _____ _ _ _____ _ _ _____
 72
65
 73
6
 40
0.8
 49
0.45
 74
0
 49
-0.05
 74
0
 49
0.1
 74
0
 49
-0.05
 74
0
 49
0.1
 74
0
 49
-0.05
 74
0
  0
LTYPE
  5
1F8
100
AcDbSymbolTableRecord
100
AcDbLinetypeTableRecord
  2
DOT
 70
64
  3
. . . . . . . . . . . . . . . . . . . .
 72
65
 73
2
 40
0.2
 49
0.1
 74
0
 49
-0.1
 74
0
  0
LTYPE
  5
1F9
100
AcDbSymbolTableRecord
100
AcDbLinetypeTableRecord
  2
DASHED
 70
64
  3
- - - - - - - - - - - - - - - - - - - -
 72
65
 73
2
 40
0.2
 49
0.1
 74
0
 49
-0.1
 74
0
  0
ENDTAB
  0
TABLE
  2
LAYER
  5
2
100
AcDbSymbolTable
 70
36
  0
LAYER
  5
10
100
AcDbSymbolTableRecord
100
AcDbLayerTableRecord
  2
0
 70
0
 62
7
  6
CONTINUOUS
370
-3
390
F
  0
LAYER
  5
1FA
100
AcDbSymbolTableRecord
100
AcDbLayerTableRecord
  2
DEFAULT_1
 70
0
 62
7
  6
CENTER
370
-3
390
F
  0
LAYER
  5
1FB
100
AcDbSymbolTableRecord
100
AcDbLayerTableRecord
  2
DEFAULT_2
 70
0
 62
7
  6
HIDDEN
370
-3
390
F
  0
LAYER
  5
1FC
100
AcDbSymbolTableRecord
100
AcDbLayerTableRecord
  2
DEFAULT_3
 70
0
 62
7
  6
PHANTOM
370
-3
390
F
  0
LAYER
  5
1FD
100
AcDbSymbolTableRecord
100
AcDbLayerTableRecord
  2
ASSI
 70
0
 62
7
  6
CONTINUOUS
370
-3
390
F
  0
LAYER
  5
1FE
100
AcDbSymbolTableRecord
100
AcDbLayerTableRecord
  2
COLOR4
 70
0
 62
7
  6
CONTINUOUS
370
-3
390
F
  0
LAYER
  5
1FF
100
AcDbSymbolTableRecord
100
AcDbLayerTableRecord
  2
COLOR9
 70
0
 62
7
  6
CONTINUOUS
370
-3
390
F
  0
LAYER
  5
200
100
AcDbSymbolTableRecord
100
AcDbLayerTableRecord
  2
COLORE_MATERIALE
 70
0
 62
7
  6
CONTINUOUS
370
-3
390
F
  0
LAYER
  5
201
100
AcDbSymbolTableRecord
100
AcDbLayerTableRecord
  2
COORDINATE
 70
0
 62
7
  6
CONTINUOUS
370
-3
390
F
  0
LAYER
  5
202
100
AcDbSymbolTableRecord
100
AcDbLayerTableRecord
  2
COORD_ORIGINE
 70
0
 62
7
  6
CONTINUOUS
370
-3
390
F
  0
LAYER
  5
203
100
AcDbSymbolTableRecord
100
AcDbLayerTableRecord
  2
COPY
 70
0
 62
7
  6
CONTINUOUS
370
-3
390
F
  0
LAYER
  5
204
100
AcDbSymbolTableRecord
100
AcDbLayerTableRecord
  2
COPY_GEOMETRY
 70
0
 62
7
  6
CONTINUOUS
370
-3
390
F
  0
LAYER
  5
205
100
AcDbSymbolTableRecord
100
AcDbLayerTableRecord
  2
COPY_PUBLISH
 70
0
 62
7
  6
CONTINUOUS
370
-3
390
F
  0
LAYER
  5
206
100
AcDbSymbolTableRecord
100
AcDbLayerTableRecord
  2
COSMETIC
 70
0
 62
7
  6
CONTINUOUS
370
-3
390
F
  0
LAYER
  5
207
100
AcDbSymbolTableRecord
100
AcDbLayerTableRecord
  2
COSMETICI
 70
0
 62
7
  6
CONTINUOUS
370
-3
390
F
  0
LAYER
  5
208
100
AcDbSymbolTableRecord
100
AcDbLayerTableRecord
  2
CURVE
 70
0
 62
7
  6
CONTINUOUS
370
-3
390
F
  0
LAYER
  5
209
100
AcDbSymbolTableRecord
100
AcDbLayerTableRecord
  2
DRAFT
 70
0
 62
7
  6
CONTINUOUS
370
-3
390
F
  0
LAYER
  5
20A
100
AcDbSymbolTableRecord
100
AcDbLayerTableRecord
  2
IGES
 70
0
 62
7
  6
CONTINUOUS
370
-3
390
F
  0
LAYER
  5
20B
100
AcDbSymbolTableRecord
100
AcDbLayerTableRecord
  2
IGS
 70
0
 62
7
  6
CONTINUOUS
370
-3
390
F
  0
LAYER
  5
20C
100
AcDbSymbolTableRecord
100
AcDbLayerTableRecord
  2
IGS_SCRITTE
 70
0
 62
7
  6
CONTINUOUS
370
-3
390
F
  0
LAYER
  5
20D
100
AcDbSymbolTableRecord
100
AcDbLayerTableRecord
  2
IMPORT_IGES
 70
0
 62
7
  6
CONTINUOUS
370
-3
390
F
  0
LAYER
  5
20E
100
AcDbSymbolTableRecord
100
AcDbLayerTableRecord
  2
INTFCLR_137
 70
0
 62
7
  6
CONTINUOUS
370
-3
390
F
  0
LAYER
  5
20F
100
AcDbSymbolTableRecord
100
AcDbLayerTableRecord
  2
INTFCLR_20107
 70
0
 62
7
  6
CONTINUOUS
370
-3
390
F
  0
LAYER
  5
210
100
AcDbSymbolTableRecord
100
AcDbLayerTableRecord
  2
INTFCLR_20625
 70
0
 62
7
  6
CONTINUOUS
370
-3
390
F
  0
LAYER
  5
211
100
AcDbSymbolTableRecord
100
AcDbLayerTableRecord
  2
INTFCLR_4627
 70
0
 62
7
  6
CONTINUOUS
370
-3
390
F
  0
LAYER
  5
212
100
AcDbSymbolTableRecord
100
AcDbLayerTableRecord
  2
INTFCLR_6275
 70
0
 62
7
  6
CONTINUOUS
370
-3
390
F
  0
LAYER
  5
213
100
AcDbSymbolTableRecord
100
AcDbLayerTableRecord
  2
INTF_1
 70
0
 62
7
  6
CONTINUOUS
370
-3
390
F
  0
LAYER
  5
214
100
AcDbSymbolTableRecord
100
AcDbLayerTableRecord
  2
INTF_11
 70
0
 62
7
  6
CONTINUOUS
370
-3
390
F
  0
LAYER
  5
215
100
AcDbSymbolTableRecord
100
AcDbLayerTableRecord
  2
INTF_12
 70
0
 62
7
  6
CONTINUOUS
370
-3
390
F
  0
LAYER
  5
216
100
AcDbSymbolTableRecord
100
AcDbLayerTableRecord
  2
INTF_6
 70
0
 62
7
  6
CONTINUOUS
370
-3
390
F
  0
LAYER
  5
217
100
AcDbSymbolTableRecord
100
AcDbLayerTableRecord
  2
INTF_YELLOW
 70
0
 62
7
  6
CONTINUOUS
370
-3
390
F
  0
LAYER
  5
218
100
AcDbSymbolTableRecord
100
AcDbLayerTableRecord
  2
NOTE
 70
0
 62
7
  6
CONTINUOUS
370
-3
390
F
  0
LAYER
  5
219
100
AcDbSymbolTableRecord
100
AcDbLayerTableRecord
  2
PIANI
 70
0
 62
7
  6
CONTINUOUS
370
-3
390
F
  0
LAYER
  5
21A
100
AcDbSymbolTableRecord
100
AcDbLayerTableRecord
  2
PIANI_ORIGINE
 70
0
 62
7
  6
CONTINUOUS
370
-3
390
F
  0
LAYER
  5
21B
100
AcDbSymbolTableRecord
100
AcDbLayerTableRecord
  2
PIANI_RIFERIMENTO
 70
0
 62
7
  6
CONTINUOUS
370
-3
390
F
  0
LAYER
  5
21C
100
AcDbSymbolTableRecord
100
AcDbLayerTableRecord
  2
PIANI_SFORMO
 70
0
 62
7
  6
CONTINUOUS
370
-3
390
F
  0
LAYER
  5
21D
100
AcDbSymbolTableRecord
100
AcDbLayerTableRecord
  2
PUBLISH_GEOMETRY
 70
0
 62
7
  6
CONTINUOUS
370
-3
390
F
  0
LAYER
  5
21E
100
AcDbSymbolTableRecord
100
AcDbLayerTableRecord
  2
PUNTI
 70
0
 62
7
  6
CONTINUOUS
370
-3
390
F
  0
LAYER
  5
21F
100
AcDbSymbolTableRecord
100
AcDbLayerTableRecord
  2
RACCORDO
 70
0
 62
7
  6
CONTINUOUS
370
-3
390
F
  0
LAYER
  5
220
100
AcDbSymbolTableRecord
100
AcDbLayerTableRecord
  2
SIMBOLI
 70
0
 62
7
  6
CONTINUOUS
370
-3
390
F
  0
LAYER
  5
221
100
AcDbSymbolTableRecord
100
AcDbLayerTableRecord
  2
SMUSSO
 70
0
 62
7
  6
CONTINUOUS
370
-3
390
F
  0
LAYER
  5
222
100
AcDbSymbolTableRecord
100
AcDbLayerTableRecord
  2
SNAPLINE
 70
0
 62
7
  6
CONTINUOUS
370
-3
390
F
  0
LAYER
  5
223
100
AcDbSymbolTableRecord
100
AcDbLayerTableRecord
  2
SOLIDO
 70
0
 62
7
  6
CONTINUOUS
370
-3
390
F
  0
LAYER
  5
224
100
AcDbSymbolTableRecord
100
AcDbLayerTableRecord
  2
SUPERFICI
 70
0
 62
7
  6
CONTINUOUS
370
-3
390
F
  0
LAYER
  5
225
100
AcDbSymbolTableRecord
100
AcDbLayerTableRecord
  2
TRASH
 70
0
 62
7
  6
CONTINUOUS
370
-3
390
F
  0
LAYER
  5
226
100
AcDbSymbolTableRecord
100
AcDbLayerTableRecord
  2
WHITE
 70
0
 62
7
  6
CONTINUOUS
370
-3
390
F
  0
LAYER
  5
227
100
AcDbSymbolTableRecord
100
AcDbLayerTableRecord
  2
XSEC_DATUMS
 70
0
 62
7
  6
CONTINUOUS
370
-3
390
F
  0
ENDTAB
  0
TABLE
  2
STYLE
  5
3
100
AcDbSymbolTable
 70
1
  0
STYLE
  5
11
100
AcDbSymbolTableRecord
100
AcDbTextStyleTableRecord
  2
STANDARD
 70
0
 40
0.0
 41
0.8
 50
0.0
 71
0
 42
0.2
  3
txt
  4

  0
STYLE
  5
228
100
AcDbSymbolTableRecord
100
AcDbTextStyleTableRecord
  2
TEXTSTYLE_1
 70
0
 40
0.0
 41
0.8
 50
0.0
 71
0
 42
0.2
  3
gdt
  4

  0
ENDTAB
  0
TABLE
  2
VIEW
  5
6
100
AcDbSymbolTable
 70
0
  0
ENDTAB
  0
TABLE
  2
UCS
  5
7
100
AcDbSymbolTable
 70
0
  0
ENDTAB
  0
TABLE
  2
APPID
  5
9
100
AcDbSymbolTable
 70
1
  0
APPID
  5
229
100
AcDbSymbolTableRecord
100
AcDbRegAppTableRecord
  2
ACAD
 70
0
  0
ENDTAB
  0
TABLE
  2
BLOCK_RECORD
  5
1
100
AcDbSymbolTable
 70
0
  0
BLOCK_RECORD
  5
22A
100
AcDbSymbolTableRecord
100
AcDbBlockTableRecord
  2
*Model_Space
  0
BLOCK_RECORD
  5
22B
100
AcDbSymbolTableRecord
100
AcDbBlockTableRecord
  2
*Paper_Space
  0
ENDTAB
  0
TABLE
  2
DIMSTYLE
  5
A
100
AcDbSymbolTable
 70
1
100
AcDbDimStyleTable
 71
0
  0
DIMSTYLE
105
22C
100
AcDbSymbolTableRecord
100
AcDbDimStyleTableRecord
  2
STANDARD
 70
0
  3

  4

 40
1.0
 41
3.0
 42
0.5
 43
0.38
 44
1.5
 45
0.0
 46
0.0
 47
0.01
 48
0.01
140
3.0
141
0.09
142
0.0
143
25.4
144
1.0
145
0.0
146
1.0
147
0.625
 71
1.0
 72
0.0
 73
0
 74
0
 75
0
 76
0
 77
1
 78
8
170
0
171
2
172
0
173
0
174
0
175
0
176
0
177
0
178
0
270
2
271
2
272
2
273
2
274
2
275
0
280
0
281
0
282
0
283
1
284
8
285
0
286
0
287
3
288
0
340
11
278
44
  0
ENDTAB
  0
ENDSEC
  0
SECTION
  2
BLOCKS
  0
BLOCK
  5
20
100
AcDbEntity
  8
0
100
AcDbBlockBegin
  2
*Model_Space
 70
0
 10
0.0
 20
0.0
 30
0.0
  3
*Model_Space
  1

  0
ENDBLK
  5
21
100
AcDbEntity
  8
0
100
AcDbBlockEnd
  0
BLOCK
  5
1C
100
AcDbEntity
  8
0
100
AcDbBlockBegin
  2
*Paper_Space
 70
0
 10
0.0
 20
0.0
 30
0.0
  3
*Paper_Space
  1

  0
ENDBLK
  5
1D
100
AcDbEntity
  8
0
100
AcDbBlockEnd
  0
ENDSEC
  0
SECTION
  2
ENTITIES
  0
LWPOLYLINE
  5
22D
100
AcDbEntity
  8
0
100
AcDbPolyline
 62
7
  6
CONTINUOUS
 90
6
 70
0
 10
-2.6994176339
 20
1.4875445259
 10
-2.6876837125
 20
1.4895176323
 10
-2.6760569612
 20
1.4920468183
 10
-2.664563721
 20
1.4951263583
 10
-2.6532300262
 20
1.4987492787
 10
-2.6420815507
 20
1.5029073742
  0
LWPOLYLINE
  5
22E
100
AcDbEntity
  8
0
100
AcDbPolyline
 62
7
  6
CONTINUOUS
 90
18
 70
0
 10
-22.6279184493
 20
50.4670926258
 10
-22.6388564463
 20
50.4624087722
 10
-22.6495591876
 20
50.4572097688
 10
-22.6600024283
 20
50.4515073916
 10
-22.6701625059
 20
50.4453145581
 10
-22.6800164051
 20
50.4386452955
 10
-22.6895418038
 20
50.4315147107
 10
-22.6987171191
 20
50.4239389589
 10
-22.7075215661
 20
50.4159352005
 10
-22.7159352005
 20
50.4075215661
 10
-22.7239389589
 20
50.3987171191
 10
-22.7315147107
 20
50.3895418038
 10
-22.7386452955
 20
50.3800164051
 10
-22.7453145581
 20
50.3701625059
 10
-22.7515073916
 20
50.3600024283
 10
-22.7572097688
 20
50.3495591876
 10
-22.7624087722
 20
50.3388564463
 10
-22.7670926258
 20
50.3279184493
  0
LWPOLYLINE
  5
22F
100
AcDbEntity
  8
0
100
AcDbPolyline
 62
7
  6
CONTINUOUS
 90
6
 70
0
 10
-20.0994176339
 20
1.4875445259
 10
-20.0876837125
 20
1.4895176323
 10
-20.0760569612
 20
1.4920468183
 10
-20.064563721
 20
1.4951263583
 10
-20.0532300262
 20
1.4987492787
 10
-20.0420815507
 20
1.5029073742
  0
LWPOLYLINE
  5
230
100
AcDbEntity
  8
0
100
AcDbPolyline
 62
7
  6
CONTINUOUS
 90
4
 70
0
 10
-2.7349957692
 20
1.485
 10
-2.723100484
 20
1.4852831502
 10
-2.7112321444
 20
1.4861319658
 10
-2.6994176339
 20
1.4875445259
  0
LWPOLYLINE
  5
231
100
AcDbEntity
  8
0
100
AcDbPolyline
 62
7
  6
CONTINUOUS
 90
34
 70
0
 10
-2.7393676032
 20
1.489371834
 10
-2.7274921317
 20
1.4896544537
 10
-2.7156383891
 20
1.4905013555
 10
-2.7038332136
 20
1.4919113514
 10
-2.692101719
 20
1.4938822974
 10
-2.6804722837
 20
1.4964102873
 10
-2.6689763181
 20
1.4994888659
 10
-2.657641553
 20
1.5031104757
 10
-2.646491941
 20
1.5072673301
 10
-2.6355525399
 20
1.5119501037
 10
-2.6248480051
 20
1.517148289
 10
-2.6144027516
 20
1.5228500775
 10
-2.604240676
 20
1.5290424399
 10
-2.5943848913
 20
1.5357112771
 10
-2.5848576298
 20
1.5428415305
 10
-2.5756804166
 20
1.5504170914
 10
-2.566874025
 20
1.5584208229
 10
-2.5584584388
 20
1.5668345745
 10
-2.5504527446
 20
1.5756392701
 10
-2.5428750881
 20
1.5848149571
 10
-2.5357426371
 20
1.5943408513
 10
-2.529071557
 20
1.6041953674
 10
-2.5228769647
 20
1.6143561796
 10
-2.5171728994
 20
1.6248002648
 10
-2.5119722918
 20
1.6355039512
 10
-2.5072869275
 20
1.6464429848
 10
-2.5031274232
 20
1.6575925811
 10
-2.499503206
 20
1.6689274736
 10
-2.4964224874
 20
1.6804219847
 10
-2.4938922504
 20
1.692050064
 10
-2.4919182318
 20
1.7037853437
 10
-2.490504903
 20
1.715601226
 10
-2.4896554629
 20
1.7274709443
 10
-2.489371834
 20
1.7393676032
  0
LWPOLYLINE
  5
232
100
AcDbEntity
  8
0
100
AcDbPolyline
 62
7
  6
CONTINUOUS
 90
4
 70
0
 10
-20.1349957692
 20
1.485
 10
-20.123100484
 20
1.4852831502
 10
-20.1112321444
 20
1.4861319658
 10
-20.0994176339
 20
1.4875445259
  0
LWPOLYLINE
  5
233
100
AcDbEntity
  8
0
100
AcDbPolyline
 62
7
  6
CONTINUOUS
 90
34
 70
0
 10
-20.1393676032
 20
1.489371834
 10
-20.1274921317
 20
1.4896544537
 10
-20.1156383891
 20
1.4905013555
 10
-20.1038332136
 20
1.4919113514
 10
-20.092101719
 20
1.4938822974
 10
-20.0804722837
 20
1.4964102873
 10
-20.0689763181
 20
1.4994888659
 10
-20.057641553
 20
1.5031104757
 10
-20.046491941
 20
1.5072673301
 10
-20.0355525399
 20
1.5119501037
 10
-20.0248480051
 20
1.517148289
 10
-20.0144027516
 20
1.5228500775
 10
-20.004240676
 20
1.5290424399
 10
-19.9943848913
 20
1.5357112771
 10
-19.9848576298
 20
1.5428415305
 10
-19.9756804166
 20
1.5504170914
 10
-19.966874025
 20
1.5584208229
 10
-19.9584584388
 20
1.5668345745
 10
-19.9504527446
 20
1.5756392701
 10
-19.9428750881
 20
1.5848149571
 10
-19.9357426371
 20
1.5943408513
 10
-19.929071557
 20
1.6041953674
 10
-19.9228769647
 20
1.6143561796
 10
-19.9171728994
 20
1.6248002648
 10
-19.9119722918
 20
1.6355039512
 10
-19.9072869275
 20
1.6464429848
 10
-19.9031274232
 20
1.6575925811
 10
-19.899503206
 20
1.6689274736
 10
-19.8964224874
 20
1.6804219847
 10
-19.8938922504
 20
1.692050064
 10
-19.8919182318
 20
1.7037853437
 10
-19.890504903
 20
1.715601226
 10
-19.8896554629
 20
1.7274709443
 10
-19.889371834
 20
1.7393676032
  0
LWPOLYLINE
  5
234
100
AcDbEntity
  8
0
100
AcDbPolyline
 62
7
  6
CONTINUOUS
 90
37
 70
0
 10
-13.8349974616
 20
1.985
 10
-13.8262738079
 20
1.9851903337
 10
-13.8175667532
 20
1.9857609789
 10
-13.8088928689
 20
1.9867108522
 10
-13.8002686621
 20
1.9880381478
 10
-13.7917105486
 20
1.9897403427
 10
-13.7832348219
 20
1.9918142014
 10
-13.7748576138
 20
1.9942557793
 10
-13.7665948698
 20
1.9970604317
 10
-13.7584623227
 20
2.0002228232
 10
-13.750475452
 20
2.003736937
 10
-13.7426494607
 20
2.0075960861
 10
-13.7349992512
 20
2.0117929266
 10
-13.7275393856
 20
2.0163194719
 10
-13.720284064
 20
2.0211671073
 10
-13.713247103
 20
2.0263266054
 10
-13.7064418978
 20
2.0317881465
 10
-13.6998814023
 20
2.0375413355
 10
-13.6935781102
 20
2.0435752194
 10
-13.6875440201
 20
2.0498783134
 10
-13.6817906181
 20
2.0564386201
 10
-13.6763288602
 20
2.0632436486
 10
-13.6711691431
 20
2.0702804455
 10
-13.6663212881
 20
2.0775356166
 10
-13.6617945259
 20
2.0849953473
 10
-13.6575974731
 20
2.0926454378
 10
-13.653738118
 20
2.1004713262
 10
-13.6502238078
 20
2.1084581114
 10
-13.6470612314
 20
2.1165905902
 10
-13.6442564078
 20
2.1248532828
 10
-13.6418146748
 20
2.1332304572
 10
-13.6397406795
 20
2.1417061672
 10
-13.6380383682
 20
2.1502642802
 10
-13.6367109789
 20
2.1588885029
 10
-13.6357610365
 20
2.1675624189
 10
-13.6351903485
 20
2.1762695192
 10
-13.635
 20
2.1849932308
  0
LINE
  5
235
100
AcDbEntity
  8
0
100
AcDbLine
 62
7
  6
CONTINUOUS
 10
-22.5306323968
 20
1.489371834
 11
-20.1393676032
 21
1.489371834
  0
LINE
  5
236
100
AcDbEntity
  8
0
100
AcDbLine
 62
7
  6
CONTINUOUS
 10
-5.1306323968
 20
1.489371834
 11
-2.7393676032
 21
1.489371834
  0
LINE
  5
237
100
AcDbEntity
  8
0
100
AcDbLine
 62
253
  6
CONTINUOUS
 10
-2.489371834
 20
1.7393676032
 11
-5.380628166
 21
1.7393676032
  0
LINE
  5
238
100
AcDbEntity
  8
0
100
AcDbLine
 62
253
  6
CONTINUOUS
 10
-19.889371834
 20
1.7393676032
 11
-22.780628166
 21
1.7393676032
  0
LINE
  5
239
100
AcDbEntity
  8
0
100
AcDbLine
 62
7
  6
CONTINUOUS
 10
-17.085
 20
1.985
 11
-13.8349974616
 21
1.985
  0
LINE
  5
23A
100
AcDbEntity
  8
0
100
AcDbLine
 62
7
  6
CONTINUOUS
 10
-11.4350025384
 20
1.985
 11
-8.185
 21
1.985
  0
LINE
  5
23B
100
AcDbEntity
  8
0
100
AcDbLine
 62
7
  6
CONTINUOUS
 10
-16.1698577163
 20
1.990701345
 11
-13.8435495996
 21
1.990701345
  0
LINE
  5
23C
100
AcDbEntity
  8
0
100
AcDbLine
 62
7
  6
CONTINUOUS
 10
-11.4264504004
 20
1.990701345
 11
-9.1001422837
 21
1.990701345
  0
LINE
  5
23D
100
AcDbEntity
  8
0
100
AcDbLine
 62
7
  6
CONTINUOUS
 10
-8.2286506469
 20
2.0286506469
 11
-9.1004734623
 21
2.0286506469
  0
LINE
  5
23E
100
AcDbEntity
  8
0
100
AcDbLine
 62
7
  6
CONTINUOUS
 10
-16.1695265377
 20
2.0286506469
 11
-17.0413493531
 21
2.0286506469
  0
LINE
  5
23F
100
AcDbEntity
  8
0
100
AcDbLine
 62
253
  6
CONTINUOUS
 10
-2.489371834
 20
2.1406624327
 11
-5.380628166
 21
2.1406624327
  0
LINE
  5
240
100
AcDbEntity
  8
0
100
AcDbLine
 62
253
  6
CONTINUOUS
 10
-19.889371834
 20
2.1406624327
 11
-22.780628166
 21
2.1406624327
  0
LINE
  5
241
100
AcDbEntity
  8
0
100
AcDbLine
 62
253
  6
CONTINUOUS
 10
-2.7393676032
 20
2.3571687836
 11
-5.1306323968
 21
2.3571687836
  0
LINE
  5
242
100
AcDbEntity
  8
0
100
AcDbLine
 62
253
  6
CONTINUOUS
 10
-20.1393676032
 20
2.3571687836
 11
-22.5306323968
 21
2.3571687836
  0
LWPOLYLINE
  5
243
100
AcDbEntity
  8
0
100
AcDbPolyline
 62
7
  6
CONTINUOUS
 90
37
 70
0
 10
-11.4350025384
 20
1.985
 10
-11.4437261921
 20
1.9851903337
 10
-11.4524332468
 20
1.9857609789
 10
-11.4611071311
 20
1.9867108522
 10
-11.4697313379
 20
1.9880381478
 10
-11.4782894514
 20
1.9897403427
 10
-11.4867651781
 20
1.9918142014
 10
-11.4951423862
 20
1.9942557793
 10
-11.5034051302
 20
1.9970604317
 10
-11.5115376773
 20
2.0002228232
 10
-11.519524548
 20
2.003736937
 10
-11.5273505393
 20
2.0075960861
 10
-11.5350007488
 20
2.0117929266
 10
-11.5424606144
 20
2.0163194719
 10
-11.549715936
 20
2.0211671073
 10
-11.556752897
 20
2.0263266054
 10
-11.5635581022
 20
2.0317881465
 10
-11.5701185977
 20
2.0375413355
 10
-11.5764218898
 20
2.0435752194
 10
-11.5824559799
 20
2.0498783134
 10
-11.5882093819
 20
2.0564386201
 10
-11.5936711398
 20
2.0632436486
 10
-11.5988308569
 20
2.0702804455
 10
-11.6036787119
 20
2.0775356166
 10
-11.6082054741
 20
2.0849953473
 10
-11.6124025269
 20
2.0926454378
 10
-11.616261882
 20
2.1004713262
 10
-11.6197761922
 20
2.1084581114
 10
-11.6229387686
 20
2.1165905902
 10
-11.6257435922
 20
2.1248532828
 10
-11.6281853252
 20
2.1332304572
 10
-11.6302593205
 20
2.1417061672
 10
-11.6319616318
 20
2.1502642802
 10
-11.6332890211
 20
2.1588885029
 10
-11.6342389635
 20
2.1675624189
 10
-11.6348096515
 20
2.1762695192
 10
-11.635
 20
2.1849932308
  0
LWPOLYLINE
  5
244
100
AcDbEntity
  8
0
100
AcDbPolyline
 62
7
  6
CONTINUOUS
 90
9
 70
0
 10
-22.6279184493
 20
1.5029073742
 10
-22.6167699738
 20
1.4987492787
 10
-22.605436279
 20
1.4951263583
 10
-22.5939430388
 20
1.4920468183
 10
-22.5823162875
 20
1.4895176323
 10
-22.5705823661
 20
1.4875445259
 10
-22.5587678556
 20
1.4861319658
 10
-22.546899516
 20
1.4852831502
 10
-22.5350042308
 20
1.485
  0
LWPOLYLINE
  5
245
100
AcDbEntity
  8
0
100
AcDbPolyline
 62
7
  6
CONTINUOUS
 90
40
 70
0
 10
-1.9846194003
 20
3.585
 10
-1.9646241008
 20
3.5854133739
 10
-1.9446342564
 20
3.5866282928
 10
-1.9246821328
 20
3.5886460321
 10
-1.9047928233
 20
3.591467703
 10
-1.885006289
 20
3.5950914147
 10
-1.8653767708
 20
3.5995093381
 10
-1.8459473559
 20
3.6047116648
 10
-1.8267382404
 20
3.6106928414
 10
-1.8077688991
 20
3.617448324
 10
-1.7890573674
 20
3.6249748748
 10
-1.7706487308
 20
3.633257575
 10
-1.7526014858
 20
3.642270447
 10
-1.7349608201
 20
3.6519878003
 10
-1.7177372917
 20
3.6624006205
 10
-1.7009364446
 20
3.6735055532
 10
-1.68457193
 20
3.685296702
 10
-1.6686865154
 20
3.6977464677
 10
-1.6533279897
 20
3.7108172502
 10
-1.6385344203
 20
3.7244726369
 10
-1.6243131602
 20
3.7387016959
 10
-1.6106650469
 20
3.7535037425
 10
-1.5976006555
 20
3.7688719895
 10
-1.5851569134
 20
3.7847679395
 10
-1.5733726911
 20
3.8011423102
 10
-1.5622757886
 20
3.8179516393
 10
-1.5518715539
 20
3.835182788
 10
-1.5421632859
 20
3.8528304058
 10
-1.533160259
 20
3.8708829088
 10
-1.5248874842
 20
3.8892960439
 10
-1.5173698156
 20
3.9080146317
 10
-1.5106212706
 20
3.9269966422
 10
-1.5046465771
 20
3.9462213439
 10
-1.4994523538
 20
3.9656638599
 10
-1.4950460573
 20
3.9852908588
 10
-1.4914334106
 20
4.0050720931
 10
-1.4886184331
 20
4.0249874271
 10
-1.4866056737
 20
4.0450088054
 10
-1.4853988458
 20
4.0651000567
 10
-1.485
 20
4.0852288521
  0
LINE
  5
246
100
AcDbEntity
  8
0
100
AcDbLine
 62
7
  6
CONTINUOUS
 10
-22.5357229979
 20
2.8623502692
 11
-20.1342770021
 21
2.8623502692
  0
LINE
  5
247
100
AcDbEntity
  8
0
100
AcDbLine
 62
7
  6
CONTINUOUS
 10
-2.7342770021
 20
2.8623502692
 11
-5.1357229979
 21
2.8623502692
  0
LINE
  5
248
100
AcDbEntity
  8
0
100
AcDbLine
 62
7
  6
CONTINUOUS
 10
-13.635
 20
3.585
 11
-11.635
 21
3.585
  0
LINE
  5
249
100
AcDbEntity
  8
0
100
AcDbLine
 62
7
  6
CONTINUOUS
 10
-1.9849936539
 20
3.585
 11
-8.185
 21
3.585
  0
LINE
  5
24A
100
AcDbEntity
  8
0
100
AcDbLine
 62
7
  6
CONTINUOUS
 10
-17.085
 20
3.585
 11
-23.2850063461
 21
3.585
  0
LINE
  5
24B
100
AcDbEntity
  8
0
100
AcDbLine
 62
7
  6
CONTINUOUS
 10
-11.6263260466
 20
3.5902042875
 11
-13.6436739534
 21
3.5902042875
  0
LINE
  5
24C
100
AcDbEntity
  8
0
100
AcDbLine
 62
7
  6
CONTINUOUS
 10
-1.9937205217
 20
3.5908178298
 11
-5.3791821702
 21
3.5908178298
  0
LINE
  5
24D
100
AcDbEntity
  8
0
100
AcDbLine
 62
7
  6
CONTINUOUS
 10
-19.8908178298
 20
3.5908178298
 11
-23.2762794783
 21
3.5908178298
  0
LINE
  5
24E
100
AcDbEntity
  8
0
100
AcDbLine
 62
253
  6
CONTINUOUS
 10
-19.8255416262
 20
3.6490299745
 11
-15.6405500263
 21
3.6490299745
  0
LINE
  5
24F
100
AcDbEntity
  8
0
100
AcDbLine
 62
253
  6
CONTINUOUS
 10
-9.6294499737
 20
3.6490299745
 11
-5.4444583738
 21
3.6490299745
  0
LINE
  5
250
100
AcDbEntity
  8
0
100
AcDbLine
 62
7
  6
CONTINUOUS
 10
-15.635
 20
4.285
 11
-9.635
 21
4.285
  0
LINE
  5
251
100
AcDbEntity
  8
0
100
AcDbLine
 62
7
  6
CONTINUOUS
 10
-20.7015695018
 20
46.9767082642
 11
-20.8675449351
 21
46.8937268678
  0
LINE
  5
252
100
AcDbEntity
  8
0
100
AcDbLine
 62
7
  6
CONTINUOUS
 10
-20.7015695018
 20
47.4387354271
 11
-20.8675449351
 21
47.3901134101
  0
LWPOLYLINE
  5
253
100
AcDbEntity
  8
0
100
AcDbPolyline
 62
7
  6
CONTINUOUS
 90
13
 70
0
 10
-14.1365242349
 20
6.1005133204
 10
-14.2593964614
 20
6.1003711835
 10
-14.3772682896
 20
6.0999907095
 10
-14.4901397193
 20
6.0993718982
 10
-14.5994955018
 20
6.0984999336
 10
-14.7038508859
 20
6.0973896317
 10
-14.7987516183
 20
6.0960854409
 10
-14.8838197026
 20
6.0945754189
 10
-14.9594331351
 20
6.0928715079
 10
-15.0222716511
 20
6.091053983
 10
-15.0712284958
 20
6.0891496026
 10
-15.1074104239
 20
6.0871316082
 10
-15.1308174355
 20
6.085
  0
LINE
  5
254
100
AcDbEntity
  8
0
100
AcDbLine
 62
253
  6
CONTINUOUS
 10
-20.2016456542
 20
4.6490130513
 11
-15.6318233062
 21
4.6490130513
  0
LINE
  5
255
100
AcDbEntity
  8
0
100
AcDbLine
 62
253
  6
CONTINUOUS
 10
-9.6381766938
 20
4.6490130513
 11
-5.0683543458
 21
4.6490130513
  0
LINE
  5
256
100
AcDbEntity
  8
DRAFT
100
AcDbLine
 62
7
  6
CONTINUOUS
 10
-20.2016456542
 20
4.9890044543
 11
-19.8302775865
 21
4.9890044543
  0
LINE
  5
257
100
AcDbEntity
  8
DRAFT
100
AcDbLine
 62
7
  6
CONTINUOUS
 10
-5.0683543458
 20
4.9890044543
 11
-5.4397224135
 21
4.9890044543
  0
LINE
  5
258
100
AcDbEntity
  8
0
100
AcDbLine
 62
7
  6
CONTINUOUS
 10
-20.8675449351
 20
5.0762731322
 11
-20.7015695018
 21
5.0762731322
  0
LINE
  5
259
100
AcDbEntity
  8
0
100
AcDbLine
 62
7
  6
CONTINUOUS
 10
-4.5684304982
 20
5.0762731322
 11
-4.4024550649
 21
5.0762731322
  0
LINE
  5
25A
100
AcDbEntity
  8
DRAFT
100
AcDbLine
 62
7
  6
CONTINUOUS
 10
-5.335
 20
5.085
 11
-5.0163708499
 21
5.085
  0
LINE
  5
25B
100
AcDbEntity
  8
DRAFT
100
AcDbLine
 62
7
  6
CONTINUOUS
 10
-4.5684304982
 20
5.085
 11
-5.0040291951
 21
5.085
  0
LINE
  5
25C
100
AcDbEntity
  8
DRAFT
100
AcDbLine
 62
7
  6
CONTINUOUS
 10
-19.9262731322
 20
5.085
 11
-20.2536291501
 21
5.085
  0
LINE
  5
25D
100
AcDbEntity
  8
DRAFT
100
AcDbLine
 62
7
  6
CONTINUOUS
 10
-20.2659708049
 20
5.085
 11
-20.7015695018
 21
5.085
  0
LINE
  5
25E
100
AcDbEntity
  8
0
100
AcDbLine
 62
7
  6
CONTINUOUS
 10
-3.835
 20
5.135
 11
-5.235
 21
5.135
  0
LINE
  5
25F
100
AcDbEntity
  8
DRAFT
100
AcDbLine
 62
7
  6
CONTINUOUS
 10
-3.835
 20
5.135
 11
-5.235
 21
5.135
  0
LINE
  5
260
100
AcDbEntity
  8
0
100
AcDbLine
 62
7
  6
CONTINUOUS
 10
-20.035
 20
5.135
 11
-21.435
 21
5.135
  0
LINE
  5
261
100
AcDbEntity
  8
DRAFT
100
AcDbLine
 62
7
  6
CONTINUOUS
 10
-20.035
 20
5.135
 11
-21.435
 21
5.135
  0
LINE
  5
262
100
AcDbEntity
  8
0
100
AcDbLine
 62
7
  6
CONTINUOUS
 10
-9.642854181
 20
5.185
 11
-15.627145819
 21
5.185
  0
LINE
  5
263
100
AcDbEntity
  8
DRAFT
100
AcDbLine
 62
7
  6
CONTINUOUS
 10
-19.2397224135
 20
5.8802775865
 11
-6.0302775865
 21
5.8802775865
  0
LINE
  5
264
100
AcDbEntity
  8
DRAFT
100
AcDbLine
 62
7
  6
CONTINUOUS
 10
-15.135
 20
5.914306987
 11
-15.0762605819
 21
5.914306987
  0
LINE
  5
265
100
AcDbEntity
  8
DRAFT
100
AcDbLine
 62
7
  6
CONTINUOUS
 10
-10.1937394181
 20
5.914306987
 11
-10.135
 21
5.914306987
  0
LINE
  5
266
100
AcDbEntity
  8
DRAFT
100
AcDbLine
 62
7
  6
CONTINUOUS
 10
-9.1348465654
 20
5.9674181344
 11
-10.135616033
 21
5.9674181344
  0
LINE
  5
267
100
AcDbEntity
  8
DRAFT
100
AcDbLine
 62
7
  6
CONTINUOUS
 10
-15.134383967
 20
5.9674181344
 11
-16.1351534346
 21
5.9674181344
  0
LINE
  5
268
100
AcDbEntity
  8
DRAFT
100
AcDbLine
 62
7
  6
CONTINUOUS
 10
-19.1393634339
 20
5.9806365661
 11
-15.1343600697
 21
5.9806365661
  0
LINE
  5
269
100
AcDbEntity
  8
DRAFT
100
AcDbLine
 62
7
  6
CONTINUOUS
 10
-10.1356399303
 20
5.9806365661
 11
-6.1306365661
 21
5.9806365661
  0
LINE
  5
26A
100
AcDbEntity
  8
DRAFT
100
AcDbLine
 62
7
  6
CONTINUOUS
 10
-5.235
 20
5.985
 11
-5.3393634339
 21
5.985
  0
LINE
  5
26B
100
AcDbEntity
  8
DRAFT
100
AcDbLine
 62
7
  6
CONTINUOUS
 10
-19.9306365661
 20
5.985
 11
-20.035
 21
5.985
  0
LINE
  5
26C
100
AcDbEntity
  8
0
100
AcDbLine
 62
7
  6
CONTINUOUS
 10
-16.135
 20
6.085
 11
-15.1294782802
 21
6.085
  0
LINE
  5
26D
100
AcDbEntity
  8
0
100
AcDbLine
 62
7
  6
CONTINUOUS
 10
-10.1405217198
 20
6.085
 11
-9.135
 21
6.085
  0
LINE
  5
26E
100
AcDbEntity
  8
0
100
AcDbLine
 62
7
  6
CONTINUOUS
 10
-14.1365242349
 20
6.1005133204
 11
-11.1334757651
 21
6.1005133204
  0
LINE
  5
26F
100
AcDbEntity
  8
0
100
AcDbLine
 62
7
  6
CONTINUOUS
 10
-16.0983443637
 20
6.1216556363
 11
-9.1716556363
 21
6.1216556363
  0
LINE
  5
270
100
AcDbEntity
  8
DRAFT
100
AcDbLine
 62
7
  6
CONTINUOUS
 10
-16.0983443637
 20
6.1216556363
 11
-9.1716556363
 21
6.1216556363
  0
LINE
  5
271
100
AcDbEntity
  8
DRAFT
100
AcDbLine
 62
7
  6
CONTINUOUS
 10
-19.8302775865
 20
6.1802775865
 11
-19.2397224135
 21
6.1802775865
  0
LINE
  5
272
100
AcDbEntity
  8
DRAFT
100
AcDbLine
 62
7
  6
CONTINUOUS
 10
-6.0302775865
 20
6.1802775865
 11
-5.4397224135
 21
6.1802775865
  0
LINE
  5
273
100
AcDbEntity
  8
DRAFT
100
AcDbLine
 62
7
  6
CONTINUOUS
 10
-19.9306365661
 20
6.2806365661
 11
-19.1393634339
 21
6.2806365661
  0
LINE
  5
274
100
AcDbEntity
  8
DRAFT
100
AcDbLine
 62
7
  6
CONTINUOUS
 10
-6.1306365661
 20
6.2806365661
 11
-5.3393634339
 21
6.2806365661
  0
LINE
  5
275
100
AcDbEntity
  8
0
100
AcDbLine
 62
7
  6
CONTINUOUS
 10
-20.035
 20
6.285
 11
-16.135
 21
6.285
  0
LINE
  5
276
100
AcDbEntity
  8
DRAFT
100
AcDbLine
 62
7
  6
CONTINUOUS
 10
-20.035
 20
6.285
 11
-16.135
 21
6.285
  0
LINE
  5
277
100
AcDbEntity
  8
0
100
AcDbLine
 62
7
  6
CONTINUOUS
 10
-9.135
 20
6.285
 11
-5.235
 21
6.285
  0
LINE
  5
278
100
AcDbEntity
  8
DRAFT
100
AcDbLine
 62
7
  6
CONTINUOUS
 10
-9.135
 20
6.285
 11
-5.235
 21
6.285
  0
LINE
  5
279
100
AcDbEntity
  8
0
100
AcDbLine
 62
7
  6
CONTINUOUS
 10
-20.0716556363
 20
6.3216556363
 11
-16.0983443637
 21
6.3216556363
  0
LINE
  5
27A
100
AcDbEntity
  8
DRAFT
100
AcDbLine
 62
7
  6
CONTINUOUS
 10
-20.0716556363
 20
6.3216556363
 11
-16.0983443637
 21
6.3216556363
  0
LINE
  5
27B
100
AcDbEntity
  8
0
100
AcDbLine
 62
7
  6
CONTINUOUS
 10
-9.1716556363
 20
6.3216556363
 11
-5.1983443637
 21
6.3216556363
  0
LINE
  5
27C
100
AcDbEntity
  8
DRAFT
100
AcDbLine
 62
7
  6
CONTINUOUS
 10
-9.1716556363
 20
6.3216556363
 11
-5.1983443637
 21
6.3216556363
  0
LINE
  5
27D
100
AcDbEntity
  8
RACCORDO
100
AcDbLine
 62
7
  6
CONTINUOUS
 10
-22.0262243901
 20
6.3719096983
 11
-8.9218982752
 21
6.3719096983
  0
LINE
  5
27E
100
AcDbEntity
  8
ASSI
100
AcDbLine
 62
7
  6
CONTINUOUS
 10
-22.0262243901
 20
6.3719096983
 11
-8.9218982752
 21
6.3719096983
  0
LWPOLYLINE
  5
27F
100
AcDbEntity
  8
0
100
AcDbPolyline
 62
7
  6
CONTINUOUS
 90
13
 70
0
 10
-11.1334757651
 20
6.1005133204
 10
-11.0106035386
 20
6.1003711835
 10
-10.8927317104
 20
6.0999907095
 10
-10.7798602807
 20
6.0993718982
 10
-10.6705044982
 20
6.0984999336
 10
-10.5661491141
 20
6.0973896317
 10
-10.4712483817
 20
6.0960854409
 10
-10.3861802974
 20
6.0945754189
 10
-10.3105668649
 20
6.0928715079
 10
-10.2477283489
 20
6.091053983
 10
-10.1987715042
 20
6.0891496026
 10
-10.1625895761
 20
6.0871316082
 10
-10.1391825645
 20
6.085
  0
LINE
  5
280
100
AcDbEntity
  8
0
100
AcDbLine
 62
7
  6
CONTINUOUS
 10
-20.7015695018
 20
4.5312645729
 11
-20.8675449351
 21
4.5798865899
  0
LINE
  5
281
100
AcDbEntity
  8
0
100
AcDbLine
 62
7
  6
CONTINUOUS
 10
-20.7015695018
 20
4.9932917358
 11
-20.8675449351
 21
5.0762731322
  0
LINE
  5
282
100
AcDbEntity
  8
0
100
AcDbLine
 62
7
  6
CONTINUOUS
 10
-14.7814466094
 20
7.7524599833
 11
-15.1355617456
 21
7.7493696674
  0
LINE
  5
283
100
AcDbEntity
  8
RACCORDO
100
AcDbLine
 62
7
  6
CONTINUOUS
 10
-14.7814466094
 20
7.7524599833
 11
-15.1355617456
 21
7.7493696674
  0
LINE
  5
284
100
AcDbEntity
  8
0
100
AcDbLine
 62
7
  6
CONTINUOUS
 10
-10.135
 20
7.685
 11
-15.135
 21
7.685
  0
LINE
  5
285
100
AcDbEntity
  8
ASSI
100
AcDbLine
 62
7
  6
CONTINUOUS
 10
-10.135
 20
7.685
 11
-15.135
 21
7.685
  0
LINE
  5
286
100
AcDbEntity
  8
0
100
AcDbLine
 62
7
  6
CONTINUOUS
 10
-8.4917176452
 20
7.7188305324
 11
-5.1983443637
 21
7.7188305324
  0
LINE
  5
287
100
AcDbEntity
  8
DRAFT
100
AcDbLine
 62
7
  6
CONTINUOUS
 10
-8.4917176452
 20
7.7188305324
 11
-5.1983443637
 21
7.7188305324
  0
LINE
  5
288
100
AcDbEntity
  8
0
100
AcDbLine
 62
7
  6
CONTINUOUS
 10
-4.035
 20
7.7188305324
 11
-3.3688114939
 21
7.7188305324
  0
LINE
  5
289
100
AcDbEntity
  8
RACCORDO
100
AcDbLine
 62
7
  6
CONTINUOUS
 10
-4.035
 20
7.7188305324
 11
-3.3688114939
 21
7.7188305324
  0
LINE
  5
28A
100
AcDbEntity
  8
0
100
AcDbLine
 62
7
  6
CONTINUOUS
 10
-4.035
 20
7.7275574002
 11
-5.1808892987
 21
7.7275574002
  0
LINE
  5
28B
100
AcDbEntity
  8
DRAFT
100
AcDbLine
 62
7
  6
CONTINUOUS
 10
-4.035
 20
7.7275574002
 11
-5.1808892987
 21
7.7275574002
  0
LINE
  5
28C
100
AcDbEntity
  8
RACCORDO
100
AcDbLine
 62
7
  6
CONTINUOUS
 10
-3.2437756099
 20
7.7719096983
 11
-8.3219211214
 21
7.7719096983
  0
LINE
  5
28D
100
AcDbEntity
  8
ASSI
100
AcDbLine
 62
7
  6
CONTINUOUS
 10
-3.2437756099
 20
7.7719096983
 11
-8.3219211214
 21
7.7719096983
  0
LINE
  5
28E
100
AcDbEntity
  8
ASSI
100
AcDbLine
 62
7
  6
CONTINUOUS
 10
-15.135
 20
7.785
 11
-10.135
 21
7.785
  0
LINE
  5
28F
100
AcDbEntity
  8
0
100
AcDbLine
 62
7
  6
CONTINUOUS
 10
-10.4885533906
 20
7.7524599833
 11
-10.1344382544
 21
7.7493696674
  0
LINE
  5
290
100
AcDbEntity
  8
RACCORDO
100
AcDbLine
 62
7
  6
CONTINUOUS
 10
-10.4885533906
 20
7.7524599833
 11
-10.1344382544
 21
7.7493696674
  0
LWPOLYLINE
  5
291
100
AcDbEntity
  8
0
100
AcDbPolyline
 62
7
  6
CONTINUOUS
 90
9
 70
0
 10
-5.2279184493
 20
1.5029073742
 10
-5.2167699738
 20
1.4987492787
 10
-5.205436279
 20
1.4951263583
 10
-5.1939430388
 20
1.4920468183
 10
-5.1823162875
 20
1.4895176323
 10
-5.1705823661
 20
1.4875445259
 10
-5.1587678556
 20
1.4861319658
 10
-5.146899516
 20
1.4852831502
 10
-5.1350042308
 20
1.485
  0
LINE
  5
292
100
AcDbEntity
  8
RACCORDO
100
AcDbLine
 62
7
  6
CONTINUOUS
 10
-21.435
 20
46.835
 11
-23.1993027805
 21
45.0706972195
  0
LINE
  5
293
100
AcDbEntity
  8
0
100
AcDbLine
 62
7
  6
CONTINUOUS
 10
-23.7762731322
 20
44.4937268678
 11
-19.8908178298
 21
48.3791821702
  0
LINE
  5
294
100
AcDbEntity
  8
0
100
AcDbLine
 62
7
  6
CONTINUOUS
 10
-20.8675449351
 20
47.3901134101
 11
-20.7015695018
 21
47.5560888434
  0
LINE
  5
295
100
AcDbEntity
  8
0
100
AcDbLine
 62
7
  6
CONTINUOUS
 10
-21.2622036731
 20
46.835
 11
-23.077117326
 21
45.0200863471
  0
LINE
  5
296
100
AcDbEntity
  8
RACCORDO
100
AcDbLine
 62
7
  6
CONTINUOUS
 10
-21.2622036731
 20
46.835
 11
-23.077117326
 21
45.0200863471
  0
LINE
  5
297
100
AcDbEntity
  8
RACCORDO
100
AcDbLine
 62
7
  6
CONTINUOUS
 10
-23.3552082353
 20
44.6833042468
 11
-22.7333042468
 21
45.3052082353
  0
LINE
  5
298
100
AcDbEntity
  8
ASSI
100
AcDbLine
 62
7
  6
CONTINUOUS
 10
-23.3552082353
 20
44.6833042468
 11
-22.7333042468
 21
45.3052082353
  0
LINE
  5
299
100
AcDbEntity
  8
RACCORDO
100
AcDbLine
 62
7
  6
CONTINUOUS
 10
-22.6253116728
 20
45.3983907652
 11
-22.4360843877
 21
45.5876179435
  0
LINE
  5
29A
100
AcDbEntity
  8
ASSI
100
AcDbLine
 62
7
  6
CONTINUOUS
 10
-22.6253116728
 20
45.3983907652
 11
-22.4360843877
 21
45.5876179435
  0
LINE
  5
29B
100
AcDbEntity
  8
DRAFT
100
AcDbLine
 62
7
  6
CONTINUOUS
 10
-20.2783124597
 20
46.885
 11
-20.3283124597
 21
46.835
  0
LINE
  5
29C
100
AcDbEntity
  8
DRAFT
100
AcDbLine
 62
7
  6
CONTINUOUS
 10
-20.2536291501
 20
46.885
 11
-20.3036291501
 21
46.835
  0
LINE
  5
29D
100
AcDbEntity
  8
DRAFT
100
AcDbLine
 62
7
  6
CONTINUOUS
 10
-19.9262734645
 20
46.8937265355
 11
-19.935
 21
46.885
  0
LINE
  5
29E
100
AcDbEntity
  8
DRAFT
100
AcDbLine
 62
7
  6
CONTINUOUS
 10
-19.8302775865
 20
46.9809955457
 11
-19.9262734645
 21
46.8850003323
  0
LINE
  5
29F
100
AcDbEntity
  8
0
100
AcDbLine
 62
253
  6
CONTINUOUS
 10
-13.8435495996
 20
49.979298655
 11
-13.8349974616
 21
49.985
  0
LINE
  5
2A0
100
AcDbEntity
  8
0
100
AcDbLine
 62
253
  6
CONTINUOUS
 10
-13.64356737
 20
49.7792952698
 11
-13.635
 21
49.7850067692
  0
LINE
  5
2A1
100
AcDbEntity
  8
0
100
AcDbLine
 62
7
  6
CONTINUOUS
 10
-13.635
 20
48.385
 11
-13.6436739534
 21
48.3797957125
  0
LWPOLYLINE
  5
2A2
100
AcDbEntity
  8
0
100
AcDbPolyline
 62
7
  6
CONTINUOUS
 90
18
 70
0
 10
-5.2279184493
 20
50.4670926258
 10
-5.2388564463
 20
50.4624087722
 10
-5.2495591876
 20
50.4572097688
 10
-5.2600024283
 20
50.4515073916
 10
-5.2701625059
 20
50.4453145581
 10
-5.2800164051
 20
50.4386452955
 10
-5.2895418038
 20
50.4315147107
 10
-5.2987171191
 20
50.4239389589
 10
-5.3075215661
 20
50.4159352005
 10
-5.3159352005
 20
50.4075215661
 10
-5.3239389589
 20
50.3987171191
 10
-5.3315147107
 20
50.3895418038
 10
-5.3386452955
 20
50.3800164051
 10
-5.3453145581
 20
50.3701625059
 10
-5.3515073916
 20
50.3600024283
 10
-5.3572097688
 20
50.3495591876
 10
-5.3624087722
 20
50.3388564463
 10
-5.3670926258
 20
50.3279184493
  0
LINE
  5
2A3
100
AcDbEntity
  8
0
100
AcDbLine
 62
253
  6
CONTINUOUS
 10
-14.3871424653
 20
8.699244074
 11
-14.335
 21
8.7033281573
  0
LINE
  5
2A4
100
AcDbEntity
  8
RACCORDO
100
AcDbLine
 62
253
  6
CONTINUOUS
 10
-14.3871424653
 20
8.699244074
 11
-14.335
 21
8.7033281573
  0
LINE
  5
2A5
100
AcDbEntity
  8
ASSI
100
AcDbLine
 62
7
  6
CONTINUOUS
 10
-15.135
 20
8.485
 11
-10.135
 21
8.485
  0
LINE
  5
2A6
100
AcDbEntity
  8
RACCORDO
100
AcDbLine
 62
7
  6
CONTINUOUS
 10
-14.2389930308
 20
8.685
 11
-11.0310069692
 21
8.685
  0
LINE
  5
2A7
100
AcDbEntity
  8
ASSI
100
AcDbLine
 62
7
  6
CONTINUOUS
 10
-14.2389930308
 20
8.685
 11
-11.0310069692
 21
8.685
  0
LINE
  5
2A8
100
AcDbEntity
  8
0
100
AcDbLine
 62
253
  6
CONTINUOUS
 10
-10.935
 20
8.7033281573
 11
-14.335
 21
8.7033281573
  0
LINE
  5
2A9
100
AcDbEntity
  8
RACCORDO
100
AcDbLine
 62
253
  6
CONTINUOUS
 10
-10.935
 20
8.7033281573
 11
-14.335
 21
8.7033281573
  0
LINE
  5
2AA
100
AcDbEntity
  8
0
100
AcDbLine
 62
7
  6
CONTINUOUS
 10
-10.935
 20
8.735
 11
-14.335
 21
8.735
  0
LINE
  5
2AB
100
AcDbEntity
  8
RACCORDO
100
AcDbLine
 62
7
  6
CONTINUOUS
 10
-10.935
 20
8.735
 11
-14.335
 21
8.735
  0
LINE
  5
2AC
100
AcDbEntity
  8
CURVE
100
AcDbLine
 62
253
  6
CONTINUOUS
 10
-1.5782457138
 20
8.849285326
 11
-1.5924569592
 21
8.849285326
  0
LINE
  5
2AD
100
AcDbEntity
  8
CURVE
100
AcDbLine
 62
7
  6
CONTINUOUS
 10
-1.5112025873
 20
8.983563
 11
-1.561791048
 21
8.983563
  0
LINE
  5
2AE
100
AcDbEntity
  8
0
100
AcDbLine
 62
7
  6
CONTINUOUS
 10
-15.135
 20
9.385
 11
-10.135
 21
9.385
  0
LINE
  5
2AF
100
AcDbEntity
  8
ASSI
100
AcDbLine
 62
7
  6
CONTINUOUS
 10
-15.135
 20
9.385
 11
-10.135
 21
9.385
  0
LINE
  5
2B0
100
AcDbEntity
  8
SMUSSO
100
AcDbLine
 62
7
  6
CONTINUOUS
 10
-12.385
 20
9.735
 11
-17.385
 21
9.735
  0
LINE
  5
2B1
100
AcDbEntity
  8
ASSI
100
AcDbLine
 62
7
  6
CONTINUOUS
 10
-12.385
 20
9.735
 11
-17.385
 21
9.735
  0
LINE
  5
2B2
100
AcDbEntity
  8
CURVE
100
AcDbLine
 62
253
  6
CONTINUOUS
 10
-1.5924569592
 20
9.799285326
 11
-1.5782457138
 21
9.799285326
  0
LINE
  5
2B3
100
AcDbEntity
  8
RACCORDO
100
AcDbLine
 62
7
  6
CONTINUOUS
 10
-1.9219211218
 20
9.835
 11
-2.835
 21
9.835
  0
LINE
  5
2B4
100
AcDbEntity
  8
ASSI
100
AcDbLine
 62
7
  6
CONTINUOUS
 10
-1.9219211218
 20
9.835
 11
-2.835
 21
9.835
  0
LINE
  5
2B5
100
AcDbEntity
  8
SMUSSO
100
AcDbLine
 62
7
  6
CONTINUOUS
 10
-12.885
 20
10.235
 11
-16.885
 21
10.235
  0
LINE
  5
2B6
100
AcDbEntity
  8
ASSI
100
AcDbLine
 62
7
  6
CONTINUOUS
 10
-12.885
 20
10.235
 11
-16.885
 21
10.235
  0
LINE
  5
2B7
100
AcDbEntity
  8
CURVE
100
AcDbLine
 62
253
  6
CONTINUOUS
 10
-1.5782457138
 20
10.342143116
 11
-1.5735086324
 21
10.342143116
  0
LINE
  5
2B8
100
AcDbEntity
  8
CURVE
100
AcDbLine
 62
7
  6
CONTINUOUS
 10
-1.5469322383
 20
9.482001
 11
-1.5112025873
 21
9.481991
  0
LINE
  5
2B9
100
AcDbEntity
  8
0
100
AcDbLine
 62
253
  6
CONTINUOUS
 10
-10.8828575347
 20
8.699244074
 11
-10.935
 21
8.7033281573
  0
LINE
  5
2BA
100
AcDbEntity
  8
RACCORDO
100
AcDbLine
 62
253
  6
CONTINUOUS
 10
-10.8828575347
 20
8.699244074
 11
-10.935
 21
8.7033281573
  0
LINE
  5
2BB
100
AcDbEntity
  8
0
100
AcDbLine
 62
7
  6
CONTINUOUS
 10
-13.6436739534
 20
3.5902042875
 11
-13.635
 21
3.585
  0
LINE
  5
2BC
100
AcDbEntity
  8
0
100
AcDbLine
 62
253
  6
CONTINUOUS
 10
-13.8349974616
 20
1.985
 11
-13.8435495996
 21
1.990701345
  0
LINE
  5
2BD
100
AcDbEntity
  8
0
100
AcDbLine
 62
253
  6
CONTINUOUS
 10
-13.635
 20
2.1849932308
 11
-13.64356737
 21
2.1907047302
  0
LINE
  5
2BE
100
AcDbEntity
  8
RACCORDO
100
AcDbLine
 62
7
  6
CONTINUOUS
 10
-23.1993027805
 20
6.8993027805
 11
-21.435
 21
5.135
  0
LINE
  5
2BF
100
AcDbEntity
  8
0
100
AcDbLine
 62
7
  6
CONTINUOUS
 10
-19.8908178298
 20
3.5908178298
 11
-23.7762731322
 21
7.4762731322
  0
LINE
  5
2C0
100
AcDbEntity
  8
0
100
AcDbLine
 62
7
  6
CONTINUOUS
 10
-20.8675449351
 20
4.5798865899
 11
-20.7015695018
 21
4.4139111566
  0
LINE
  5
2C1
100
AcDbEntity
  8
0
100
AcDbLine
 62
7
  6
CONTINUOUS
 10
-23.077117326
 20
6.9499136529
 11
-21.2622036731
 21
5.135
  0
LINE
  5
2C2
100
AcDbEntity
  8
RACCORDO
100
AcDbLine
 62
7
  6
CONTINUOUS
 10
-23.077117326
 20
6.9499136529
 11
-21.2622036731
 21
5.135
  0
LINE
  5
2C3
100
AcDbEntity
  8
RACCORDO
100
AcDbLine
 62
7
  6
CONTINUOUS
 10
-22.7333042468
 20
6.6647917647
 11
-23.3552082353
 21
7.2866957532
  0
LINE
  5
2C4
100
AcDbEntity
  8
ASSI
100
AcDbLine
 62
7
  6
CONTINUOUS
 10
-22.7333042468
 20
6.6647917647
 11
-23.3552082353
 21
7.2866957532
  0
LINE
  5
2C5
100
AcDbEntity
  8
DRAFT
100
AcDbLine
 62
7
  6
CONTINUOUS
 10
-20.3283124597
 20
5.135
 11
-20.2783124597
 21
5.085
  0
LINE
  5
2C6
100
AcDbEntity
  8
DRAFT
100
AcDbLine
 62
7
  6
CONTINUOUS
 10
-20.3036291501
 20
5.135
 11
-20.2536291501
 21
5.085
  0
LINE
  5
2C7
100
AcDbEntity
  8
DRAFT
100
AcDbLine
 62
7
  6
CONTINUOUS
 10
-19.8302775865
 20
4.9890044543
 11
-19.9262731322
 21
5.085
  0
LWPOLYLINE
  5
2C8
100
AcDbEntity
  8
0
100
AcDbPolyline
 62
7
  6
CONTINUOUS
 90
5
 70
0
 10
-16.1690842777
 20
49.8906713724
 10
-16.1756092046
 20
49.8830214189
 10
-16.1827997176
 20
49.8746773368
 10
-16.1906736036
 20
49.8656391262
 10
-16.1992451476
 20
49.8559233186
  0
LINE
  5
2C9
100
AcDbEntity
  8
0
100
AcDbLine
 62
7
  6
CONTINUOUS
 10
-16.1992451476
 20
49.8559233186
 11
-16.218552219
 21
49.834359723
  0
LINE
  5
2CA
100
AcDbEntity
  8
0
100
AcDbLine
 62
7
  6
CONTINUOUS
 10
-16.218552219
 20
49.834359723
 11
-16.2408724745
 21
49.8097811188
  0
LINE
  5
2CB
100
AcDbEntity
  8
0
100
AcDbLine
 62
7
  6
CONTINUOUS
 10
-16.2408724745
 20
49.8097811188
 11
-16.2661595745
 21
49.7822576022
  0
LINE
  5
2CC
100
AcDbEntity
  8
0
100
AcDbLine
 62
7
  6
CONTINUOUS
 10
-16.2661595745
 20
49.7822576022
 11
-16.2943838725
 21
49.7518156104
  0
LINE
  5
2CD
100
AcDbEntity
  8
0
100
AcDbLine
 62
7
  6
CONTINUOUS
 10
-16.2943838725
 20
49.7518156104
 11
-16.325450968
 21
49.7185362197
  0
LINE
  5
2CE
100
AcDbEntity
  8
0
100
AcDbLine
 62
7
  6
CONTINUOUS
 10
-16.325450968
 20
49.7185362197
 11
-16.3776374126
 21
49.6630165838
  0
LINE
  5
2CF
100
AcDbEntity
  8
0
100
AcDbLine
 62
7
  6
CONTINUOUS
 10
-16.3776374126
 20
49.6630165838
 11
-16.4366056655
 21
49.6006471228
  0
LWPOLYLINE
  5
2D0
100
AcDbEntity
  8
0
100
AcDbPolyline
 62
7
  6
CONTINUOUS
 90
4
 70
0
 10
-16.4366056655
 20
49.6006471228
 10
-16.522595441
 20
49.5101302579
 10
-16.5444436441
 20
49.487235851
 10
-16.5880427099
 20
49.4413578147
  0
LINE
  5
2D1
100
AcDbEntity
  8
0
100
AcDbLine
 62
7
  6
CONTINUOUS
 10
-20.035
 20
45.685
 11
-20.0716556363
 21
45.6483443637
  0
LINE
  5
2D2
100
AcDbEntity
  8
DRAFT
100
AcDbLine
 62
7
  6
CONTINUOUS
 10
-20.035
 20
45.685
 11
-20.0716556363
 21
45.6483443637
  0
LINE
  5
2D3
100
AcDbEntity
  8
DRAFT
100
AcDbLine
 62
7
  6
CONTINUOUS
 10
-19.8302775865
 20
45.7897224135
 11
-19.9306365661
 21
45.6893634339
  0
LINE
  5
2D4
100
AcDbEntity
  8
0
100
AcDbLine
 62
7
  6
CONTINUOUS
 10
-16.175
 20
10.485
 11
-13.235
 21
10.485
  0
LINE
  5
2D5
100
AcDbEntity
  8
0
100
AcDbLine
 62
7
  6
CONTINUOUS
 10
-2.7764334782
 20
11.1071854545
 11
-2.835
 21
11.1071854545
  0
LINE
  5
2D6
100
AcDbEntity
  8
RACCORDO
100
AcDbLine
 62
7
  6
CONTINUOUS
 10
-2.7764334782
 20
11.1071854545
 11
-2.835
 21
11.1071854545
  0
LINE
  5
2D7
100
AcDbEntity
  8
0
100
AcDbLine
 62
253
  6
CONTINUOUS
 10
-2.7763866801
 20
11.1194953898
 11
-2.835
 21
11.1194953898
  0
LINE
  5
2D8
100
AcDbEntity
  8
RACCORDO
100
AcDbLine
 62
253
  6
CONTINUOUS
 10
-2.7763866801
 20
11.1194953898
 11
-2.835
 21
11.1194953898
  0
LINE
  5
2D9
100
AcDbEntity
  8
CURVE
100
AcDbLine
 62
7
  6
CONTINUOUS
 10
-1.561791048
 20
11.32479
 11
-1.5112025873
 21
11.32479
  0
LINE
  5
2DA
100
AcDbEntity
  8
0
100
AcDbLine
 62
253
  6
CONTINUOUS
 10
-2.7754592275
 20
11.4194496984
 11
-2.835
 21
11.4194496984
  0
LINE
  5
2DB
100
AcDbEntity
  8
RACCORDO
100
AcDbLine
 62
253
  6
CONTINUOUS
 10
-2.7754592275
 20
11.4194496984
 11
-2.835
 21
11.4194496984
  0
LINE
  5
2DC
100
AcDbEntity
  8
CURVE
100
AcDbLine
 62
253
  6
CONTINUOUS
 10
-20.535
 20
11.685
 11
-18.635
 21
11.685
  0
LINE
  5
2DD
100
AcDbEntity
  8
CURVE
100
AcDbLine
 62
253
  6
CONTINUOUS
 10
-1.5687715509
 20
11.835
 11
-1.6019311231
 21
11.835
  0
LINE
  5
2DE
100
AcDbEntity
  8
0
100
AcDbLine
 62
7
  6
CONTINUOUS
 10
-20.035
 20
6.285
 11
-20.0716556363
 21
6.3216556363
  0
LINE
  5
2DF
100
AcDbEntity
  8
DRAFT
100
AcDbLine
 62
7
  6
CONTINUOUS
 10
-20.035
 20
6.285
 11
-20.0716556363
 21
6.3216556363
  0
LINE
  5
2E0
100
AcDbEntity
  8
DRAFT
100
AcDbLine
 62
7
  6
CONTINUOUS
 10
-19.8302775865
 20
6.1802775865
 11
-19.9306365661
 21
6.2806365661
  0
LINE
  5
2E1
100
AcDbEntity
  8
0
100
AcDbLine
 62
7
  6
CONTINUOUS
 10
-16.5663276076
 20
2.5057410513
 11
-16.5007454691
 21
2.4369156007
  0
LINE
  5
2E2
100
AcDbEntity
  8
0
100
AcDbLine
 62
7
  6
CONTINUOUS
 10
-16.5880427099
 20
2.5286421853
 11
-16.5663276076
 21
2.5057410513
  0
LINE
  5
2E3
100
AcDbEntity
  8
0
100
AcDbLine
 62
7
  6
CONTINUOUS
 10
-16.5007454691
 20
2.4369156007
 11
-16.4161552739
 21
2.3477398806
  0
LINE
  5
2E4
100
AcDbEntity
  8
0
100
AcDbLine
 62
7
  6
CONTINUOUS
 10
-16.4161552739
 20
2.3477398806
 11
-16.3594793029
 21
2.2876998166
  0
LINE
  5
2E5
100
AcDbEntity
  8
0
100
AcDbLine
 62
7
  6
CONTINUOUS
 10
-16.3594793029
 20
2.2876998166
 11
-16.3254526235
 21
2.2514652728
  0
LINE
  5
2E6
100
AcDbEntity
  8
0
100
AcDbLine
 62
7
  6
CONTINUOUS
 10
-16.3254526235
 20
2.2514652728
 11
-16.2943916139
 21
2.2181927088
  0
LINE
  5
2E7
100
AcDbEntity
  8
0
100
AcDbLine
 62
7
  6
CONTINUOUS
 10
-16.2943916139
 20
2.2181927088
 11
-16.2661363041
 21
2.1877179732
  0
LINE
  5
2E8
100
AcDbEntity
  8
0
100
AcDbLine
 62
7
  6
CONTINUOUS
 10
-16.2661363041
 20
2.1877179732
 11
-16.2408289104
 21
2.1601711973
  0
LINE
  5
2E9
100
AcDbEntity
  8
0
100
AcDbLine
 62
7
  6
CONTINUOUS
 10
-16.2408289104
 20
2.1601711973
 11
-16.2185069741
 21
2.1355901186
  0
LWPOLYLINE
  5
2EA
100
AcDbEntity
  8
0
100
AcDbPolyline
 62
7
  6
CONTINUOUS
 90
6
 70
0
 10
-16.2185069741
 20
2.1355901186
 10
-16.1992154451
 20
2.1140429485
 10
-16.1906527146
 20
2.1043370874
 10
-16.1827863172
 20
2.0953070928
 10
-16.1756028007
 20
2.0869709396
 10
-16.1690842777
 20
2.0793286276
  0
LWPOLYLINE
  5
2EB
100
AcDbEntity
  8
0
100
AcDbPolyline
 62
7
  6
CONTINUOUS
 90
18
 70
0
 10
-22.7670926258
 20
1.6420815507
 10
-22.7624087722
 20
1.6311435537
 10
-22.7572097688
 20
1.6204408124
 10
-22.7515073916
 20
1.6099975717
 10
-22.7453145581
 20
1.5998374941
 10
-22.7386452955
 20
1.5899835949
 10
-22.7315147107
 20
1.5804581962
 10
-22.7239389589
 20
1.5712828809
 10
-22.7159352005
 20
1.5624784339
 10
-22.7075215661
 20
1.5540647995
 10
-22.6987171191
 20
1.5460610411
 10
-22.6895418038
 20
1.5384852893
 10
-22.6800164051
 20
1.5313547045
 10
-22.6701625059
 20
1.5246854419
 10
-22.6600024283
 20
1.5184926084
 10
-22.6495591876
 20
1.5127902312
 10
-22.6388564463
 20
1.5075912278
 10
-22.6279184493
 20
1.5029073742
  0
LWPOLYLINE
  5
2EC
100
AcDbEntity
  8
0
100
AcDbPolyline
 62
7
  6
CONTINUOUS
 90
9
 70
0
 10
-22.7670926258
 20
50.3279184493
 10
-22.7712507213
 20
50.3167699738
 10
-22.7748736417
 20
50.305436279
 10
-22.7779531817
 20
50.2939430388
 10
-22.7804823677
 20
50.2823162875
 10
-22.7824554741
 20
50.2705823661
 10
-22.7838680342
 20
50.2587678556
 10
-22.7847168498
 20
50.246899516
 10
-22.785
 20
50.2350042308
  0
LINE
  5
2ED
100
AcDbEntity
  8
CURVE
100
AcDbLine
 62
253
  6
CONTINUOUS
 10
-22.935
 20
12.856428588
 11
-21.635
 21
12.856428588
  0
LINE
  5
2EE
100
AcDbEntity
  8
0
100
AcDbLine
 62
7
  6
CONTINUOUS
 10
-13.235
 20
13.485
 11
-16.175
 21
13.485
  0
LINE
  5
2EF
100
AcDbEntity
  8
SMUSSO
100
AcDbLine
 62
7
  6
CONTINUOUS
 10
-16.885
 20
13.735
 11
-12.885
 21
13.735
  0
LINE
  5
2F0
100
AcDbEntity
  8
ASSI
100
AcDbLine
 62
7
  6
CONTINUOUS
 10
-16.885
 20
13.735
 11
-12.885
 21
13.735
  0
LINE
  5
2F1
100
AcDbEntity
  8
CURVE
100
AcDbLine
 62
253
  6
CONTINUOUS
 10
-22.5635714507
 20
13.8778570986
 11
-22.7492857254
 21
13.8778570986
  0
LINE
  5
2F2
100
AcDbEntity
  8
CURVE
100
AcDbLine
 62
253
  6
CONTINUOUS
 10
-1.5877198777
 20
14.006428442
 11
-1.5971940412
 21
14.006428442
  0
LINE
  5
2F3
100
AcDbEntity
  8
CURVE
100
AcDbLine
 62
253
  6
CONTINUOUS
 10
-1.5735086324
 20
14.0969047403
 11
-1.5806142555
 21
14.0969047403
  0
LINE
  5
2F4
100
AcDbEntity
  8
RACCORDO
100
AcDbLine
 62
7
  6
CONTINUOUS
 10
-1.9219211218
 20
14.135
 11
-2.835
 21
14.135
  0
LINE
  5
2F5
100
AcDbEntity
  8
ASSI
100
AcDbLine
 62
7
  6
CONTINUOUS
 10
-1.9219211218
 20
14.135
 11
-2.835
 21
14.135
  0
LINE
  5
2F6
100
AcDbEntity
  8
SMUSSO
100
AcDbLine
 62
7
  6
CONTINUOUS
 10
-17.385
 20
14.235
 11
-12.385
 21
14.235
  0
LINE
  5
2F7
100
AcDbEntity
  8
ASSI
100
AcDbLine
 62
7
  6
CONTINUOUS
 10
-17.385
 20
14.235
 11
-12.385
 21
14.235
  0
LINE
  5
2F8
100
AcDbEntity
  8
CURVE
100
AcDbLine
 62
253
  6
CONTINUOUS
 10
-22.006428588
 20
14.2492856479
 11
-22.5635714507
 21
14.2492856479
  0
LINE
  5
2F9
100
AcDbEntity
  8
CURVE
100
AcDbLine
 62
253
  6
CONTINUOUS
 10
-22.5635714507
 20
14.2492856479
 11
-22.7492857254
 21
14.3421429014
  0
LINE
  5
2FA
100
AcDbEntity
  8
CURVE
100
AcDbLine
 62
253
  6
CONTINUOUS
 10
-22.935
 20
13.4135714507
 11
-22.6564285493
 21
13.2278571761
  0
LINE
  5
2FB
100
AcDbEntity
  8
CURVE
100
AcDbLine
 62
253
  6
CONTINUOUS
 10
-21.635
 20
13.2278571761
 11
-22.5635714507
 21
13.8778570986
  0
LINE
  5
2FC
100
AcDbEntity
  8
CURVE
100
AcDbLine
 62
253
  6
CONTINUOUS
 10
-22.5635714507
 20
12.485
 11
-22.935
 21
12.856428588
  0
LINE
  5
2FD
100
AcDbEntity
  8
0
100
AcDbLine
 62
7
  6
CONTINUOUS
 10
-8.2286506469
 20
49.9413493531
 11
-8.185
 21
49.985
  0
LWPOLYLINE
  5
2FE
100
AcDbEntity
  8
0
100
AcDbPolyline
 62
253
  6
CONTINUOUS
 90
3
 70
0
 10
-10.7416778093
 20
43.3298141709
 10
-10.7847233433
 20
43.3027640399
 10
-10.8322480634
 20
43.2829015438
  0
LWPOLYLINE
  5
2FF
100
AcDbEntity
  8
RACCORDO
100
AcDbPolyline
 62
253
  6
CONTINUOUS
 90
3
 70
0
 10
-10.7416778093
 20
43.3298141709
 10
-10.7847233433
 20
43.3027640399
 10
-10.8322480634
 20
43.2829015438
  0
LINE
  5
300
100
AcDbEntity
  8
0
100
AcDbLine
 62
253
  6
CONTINUOUS
 10
-2.0706972195
 20
45.0706972195
 11
-2.192882674
 21
45.0200863471
  0
LINE
  5
301
100
AcDbEntity
  8
RACCORDO
100
AcDbLine
 62
253
  6
CONTINUOUS
 10
-2.0706972195
 20
45.0706972195
 11
-2.192882674
 21
45.0200863471
  0
LINE
  5
302
100
AcDbEntity
  8
0
100
AcDbLine
 62
253
  6
CONTINUOUS
 10
-1.485
 20
43.6566990487
 11
-1.6071854545
 21
43.6060881763
  0
LINE
  5
303
100
AcDbEntity
  8
RACCORDO
100
AcDbLine
 62
253
  6
CONTINUOUS
 10
-1.485
 20
43.6566990487
 11
-1.6071854545
 21
43.6060881763
  0
LINE
  5
304
100
AcDbEntity
  8
SMUSSO
100
AcDbLine
 62
7
  6
CONTINUOUS
 10
-12.385
 20
14.735
 11
-17.385
 21
14.735
  0
LINE
  5
305
100
AcDbEntity
  8
ASSI
100
AcDbLine
 62
7
  6
CONTINUOUS
 10
-12.385
 20
14.735
 11
-17.385
 21
14.735
  0
LINE
  5
306
100
AcDbEntity
  8
RACCORDO
100
AcDbLine
 62
7
  6
CONTINUOUS
 10
-1.9219211218
 20
14.835
 11
-2.835
 21
14.835
  0
LINE
  5
307
100
AcDbEntity
  8
ASSI
100
AcDbLine
 62
7
  6
CONTINUOUS
 10
-1.9219211218
 20
14.835
 11
-2.835
 21
14.835
  0
LINE
  5
308
100
AcDbEntity
  8
CURVE
100
AcDbLine
 62
253
  6
CONTINUOUS
 10
-1.5806142555
 20
14.8659525967
 11
-1.5735086324
 21
14.8659525967
  0
LINE
  5
309
100
AcDbEntity
  8
CURVE
100
AcDbLine
 62
253
  6
CONTINUOUS
 10
-22.5635714507
 20
14.8992856479
 11
-22.006428588
 21
14.8992856479
  0
LINE
  5
30A
100
AcDbEntity
  8
CURVE
100
AcDbLine
 62
253
  6
CONTINUOUS
 10
-1.5971940412
 20
14.956428442
 11
-1.5877198777
 21
14.956428442
  0
LINE
  5
30B
100
AcDbEntity
  8
SMUSSO
100
AcDbLine
 62
7
  6
CONTINUOUS
 10
-12.885
 20
15.235
 11
-16.885
 21
15.235
  0
LINE
  5
30C
100
AcDbEntity
  8
ASSI
100
AcDbLine
 62
7
  6
CONTINUOUS
 10
-12.885
 20
15.235
 11
-16.885
 21
15.235
  0
LINE
  5
30D
100
AcDbEntity
  8
0
100
AcDbLine
 62
7
  6
CONTINUOUS
 10
-16.175
 20
15.485
 11
-13.235
 21
15.485
  0
LINE
  5
30E
100
AcDbEntity
  8
CURVE
100
AcDbLine
 62
253
  6
CONTINUOUS
 10
-1.5995625822
 20
15.499285779
 11
-1.5877198777
 21
15.499285779
  0
LINE
  5
30F
100
AcDbEntity
  8
CURVE
100
AcDbLine
 62
253
  6
CONTINUOUS
 10
-1.5806142555
 20
15.5445237017
 11
-1.5735086324
 21
15.5445237017
  0
LINE
  5
310
100
AcDbEntity
  8
CURVE
100
AcDbLine
 62
7
  6
CONTINUOUS
 10
-1.526451364
 20
10.819344
 11
-1.561791048
 21
10.826368
  0
LINE
  5
311
100
AcDbEntity
  8
CURVE
100
AcDbLine
 62
253
  6
CONTINUOUS
 10
-21.635
 20
15.6421429014
 11
-22.935
 21
16.0135712957
  0
LINE
  5
312
100
AcDbEntity
  8
0
100
AcDbLine
 62
253
  6
CONTINUOUS
 10
-2.192882674
 20
6.9499136529
 11
-2.0706972195
 21
6.8993027805
  0
LINE
  5
313
100
AcDbEntity
  8
RACCORDO
100
AcDbLine
 62
253
  6
CONTINUOUS
 10
-2.192882674
 20
6.9499136529
 11
-2.0706972195
 21
6.8993027805
  0
LINE
  5
314
100
AcDbEntity
  8
0
100
AcDbLine
 62
253
  6
CONTINUOUS
 10
-1.6071854545
 20
8.3639118237
 11
-1.485
 21
8.3133009513
  0
LINE
  5
315
100
AcDbEntity
  8
RACCORDO
100
AcDbLine
 62
253
  6
CONTINUOUS
 10
-1.6071854545
 20
8.3639118237
 11
-1.485
 21
8.3133009513
  0
LINE
  5
316
100
AcDbEntity
  8
CURVE
100
AcDbLine
 62
253
  6
CONTINUOUS
 10
-22.006428588
 20
14.8992856479
 11
-21.820714294
 21
14.8064285493
  0
LWPOLYLINE
  5
317
100
AcDbEntity
  8
0
100
AcDbPolyline
 62
253
  6
CONTINUOUS
 90
4
 70
0
 10
-10.7416778093
 20
8.6401858291
 10
-10.7847233433
 20
8.6672359601
 10
-10.8322480634
 20
8.6870984562
 10
-10.8828575347
 20
8.699244074
  0
LWPOLYLINE
  5
318
100
AcDbEntity
  8
RACCORDO
100
AcDbPolyline
 62
253
  6
CONTINUOUS
 90
4
 70
0
 10
-10.7416778093
 20
8.6401858291
 10
-10.7847233433
 20
8.6672359601
 10
-10.8322480634
 20
8.6870984562
 10
-10.8828575347
 20
8.699244074
  0
LINE
  5
319
100
AcDbEntity
  8
CURVE
100
AcDbLine
 62
253
  6
CONTINUOUS
 10
-22.7492857254
 20
14.3421429014
 11
-22.935
 21
14.5278570986
  0
LINE
  5
31A
100
AcDbEntity
  8
CURVE
100
AcDbLine
 62
253
  6
CONTINUOUS
 10
-21.820714294
 20
14.8064285493
 11
-21.635
 21
14.6207143521
  0
LINE
  5
31B
100
AcDbEntity
  8
0
100
AcDbLine
 62
7
  6
CONTINUOUS
 10
-8.2286506469
 20
2.0286506469
 11
-8.185
 21
1.985
  0
LINE
  5
31C
100
AcDbEntity
  8
0
100
AcDbLine
 62
7
  6
CONTINUOUS
 10
-8.2976600798
 20
49.850863904
 11
-8.3169884621
 21
49.8293548279
  0
LINE
  5
31D
100
AcDbEntity
  8
0
100
AcDbLine
 62
7
  6
CONTINUOUS
 10
-8.3169884621
 20
49.8293548279
 11
-8.3391341291
 21
49.8050336263
  0
LINE
  5
31E
100
AcDbEntity
  8
0
100
AcDbLine
 62
7
  6
CONTINUOUS
 10
-8.3391341291
 20
49.8050336263
 11
-8.364206526
 21
49.7777829281
  0
LINE
  5
31F
100
AcDbEntity
  8
0
100
AcDbLine
 62
7
  6
CONTINUOUS
 10
-8.364206526
 20
49.7777829281
 11
-8.3922582846
 21
49.7475622048
  0
LINE
  5
320
100
AcDbEntity
  8
0
100
AcDbLine
 62
7
  6
CONTINUOUS
 10
-8.3922582846
 20
49.7475622048
 11
-8.4232893978
 21
49.7143429978
  0
LINE
  5
321
100
AcDbEntity
  8
0
100
AcDbLine
 62
7
  6
CONTINUOUS
 10
-8.4232893978
 20
49.7143429978
 11
-8.4751705174
 21
49.6591772238
  0
LINE
  5
322
100
AcDbEntity
  8
0
100
AcDbLine
 62
7
  6
CONTINUOUS
 10
-8.4751705174
 20
49.6591772238
 11
-8.5530225658
 21
49.576944006
  0
LWPOLYLINE
  5
323
100
AcDbEntity
  8
0
100
AcDbPolyline
 62
7
  6
CONTINUOUS
 90
3
 70
0
 10
-8.5530225658
 20
49.576944006
 10
-8.6163379387
 20
49.5103111742
 10
-8.6819572901
 20
49.4413578147
  0
LINE
  5
324
100
AcDbEntity
  8
0
100
AcDbLine
 62
7
  6
CONTINUOUS
 10
-8.185
 20
48.385
 11
-8.228922247
 21
48.341077753
  0
LINE
  5
325
100
AcDbEntity
  8
0
100
AcDbLine
 62
7
  6
CONTINUOUS
 10
-5.4444583738
 20
48.3209700255
 11
-5.3791821702
 21
48.3791821702
  0
LINE
  5
326
100
AcDbEntity
  8
0
100
AcDbLine
 62
253
  6
CONTINUOUS
 10
-1.9849936539
 20
48.385
 11
-1.9937205217
 21
48.3791821702
  0
LINE
  5
327
100
AcDbEntity
  8
0
100
AcDbLine
 62
253
  6
CONTINUOUS
 10
-1.485
 20
47.885016923
 11
-1.4937268678
 21
47.8791990932
  0
LINE
  5
328
100
AcDbEntity
  8
CURVE
100
AcDbLine
 62
7
  6
CONTINUOUS
 10
-1.54425871
 20
16.613425
 11
-1.561791048
 21
16.613415
  0
LINE
  5
329
100
AcDbEntity
  8
CURVE
100
AcDbLine
 62
253
  6
CONTINUOUS
 10
-18.635
 20
16.485
 11
-20.535
 21
16.485
  0
LINE
  5
32A
100
AcDbEntity
  8
CURVE
100
AcDbLine
 62
253
  6
CONTINUOUS
 10
-1.5687715509
 20
16.8564286685
 11
-1.6019311231
 21
16.8564286685
  0
LINE
  5
32B
100
AcDbEntity
  8
CURVE
100
AcDbLine
 62
7
  6
CONTINUOUS
 10
-1.561791048
 20
17.131162
 11
-1.5112025873
 21
17.131162
  0
LINE
  5
32C
100
AcDbEntity
  8
CURVE
100
AcDbLine
 62
253
  6
CONTINUOUS
 10
-20.2635714447
 20
17.435
 11
-19.7207143342
 21
17.435
  0
LINE
  5
32D
100
AcDbEntity
  8
CURVE
100
AcDbLine
 62
7
  6
CONTINUOUS
 10
-1.5112025873
 20
17.746893
 11
-1.561791048
 21
17.746893
  0
LINE
  5
32E
100
AcDbEntity
  8
CURVE
100
AcDbLine
 62
253
  6
CONTINUOUS
 10
-1.5782457138
 20
17.9421428895
 11
-1.5924569592
 21
17.9421428895
  0
LINE
  5
32F
100
AcDbEntity
  8
CURVE
100
AcDbLine
 62
7
  6
CONTINUOUS
 10
-1.561791048
 20
18.264662
 11
-1.5112025873
 21
18.264662
  0
LINE
  5
330
100
AcDbEntity
  8
CURVE
100
AcDbLine
 62
7
  6
CONTINUOUS
 10
-1.5112025873
 20
16.613415
 11
-1.5332592437
 21
16.613425
  0
LINE
  5
331
100
AcDbEntity
  8
0
100
AcDbLine
 62
253
  6
CONTINUOUS
 10
-1.9937205217
 20
3.5908178298
 11
-1.9849936539
 21
3.585
  0
LINE
  5
332
100
AcDbEntity
  8
0
100
AcDbLine
 62
253
  6
CONTINUOUS
 10
-1.4937268678
 20
4.0908009068
 11
-1.485
 21
4.084983077
  0
LINE
  5
333
100
AcDbEntity
  8
0
100
AcDbLine
 62
7
  6
CONTINUOUS
 10
-5.4444583738
 20
3.6490299745
 11
-5.3791821702
 21
3.5908178298
  0
LINE
  5
334
100
AcDbEntity
  8
0
100
AcDbLine
 62
7
  6
CONTINUOUS
 10
-8.185
 20
3.585
 11
-8.228922247
 21
3.628922247
  0
LINE
  5
335
100
AcDbEntity
  8
0
100
AcDbLine
 62
7
  6
CONTINUOUS
 10
-8.6599300661
 20
2.5054219286
 11
-8.5949320549
 21
2.4371972793
  0
LINE
  5
336
100
AcDbEntity
  8
0
100
AcDbLine
 62
7
  6
CONTINUOUS
 10
-8.6819572901
 20
2.5286421853
 11
-8.6599300661
 21
2.5054219286
  0
LINE
  5
337
100
AcDbEntity
  8
0
100
AcDbLine
 62
7
  6
CONTINUOUS
 10
-8.5949320549
 20
2.4371972793
 11
-8.5130300464
 21
2.3508608474
  0
LINE
  5
338
100
AcDbEntity
  8
0
100
AcDbLine
 62
7
  6
CONTINUOUS
 10
-8.5130300464
 20
2.3508608474
 11
-8.4572876955
 21
2.2918371196
  0
LINE
  5
339
100
AcDbEntity
  8
0
100
AcDbLine
 62
7
  6
CONTINUOUS
 10
-8.4572876955
 20
2.2918371196
 11
-8.4075284722
 21
2.2388091646
  0
LINE
  5
33A
100
AcDbEntity
  8
0
100
AcDbLine
 62
7
  6
CONTINUOUS
 10
-8.4075284722
 20
2.2388091646
 11
-8.3779829093
 21
2.2070888443
  0
LINE
  5
33B
100
AcDbEntity
  8
0
100
AcDbLine
 62
7
  6
CONTINUOUS
 10
-8.3779829093
 20
2.2070888443
 11
-8.3514149808
 21
2.1783440833
  0
LINE
  5
33C
100
AcDbEntity
  8
0
100
AcDbLine
 62
7
  6
CONTINUOUS
 10
-8.3514149808
 20
2.1783440833
 11
-8.3278151751
 21
2.1525769356
  0
LWPOLYLINE
  5
33D
100
AcDbEntity
  8
0
100
AcDbPolyline
 62
7
  6
CONTINUOUS
 90
19
 70
0
 10
-8.3278151751
 20
2.1525769356
 10
-8.3070886472
 20
2.1296634871
 10
-8.2977745136
 20
2.1192642511
 10
-8.2891291857
 20
2.1095167728
 10
-8.2811459255
 20
2.1004260244
 10
-8.2738057382
 20
2.0919870337
 10
-8.2670702772
 20
2.0841334224
 10
-8.2609331061
 20
2.0768635066
 10
-8.2553794371
 20
2.0701789703
 10
-8.2503710981
 20
2.0640184874
 10
-8.2458993366
 20
2.0583703771
 10
-8.2419651512
 20
2.0532463202
 10
-8.2385557981
 20
2.0486200327
 10
-8.2356671429
 20
2.0444885006
 10
-8.2332977153
 20
2.040854738
 10
-8.2314423479
 20
2.0377015034
 10
-8.2300972395
 20
2.0350230498
 10
-8.229258769
 20
2.0328251243
 10
-8.228922247
 20
2.0311077269
  0
LWPOLYLINE
  5
33E
100
AcDbEntity
  8
0
100
AcDbPolyline
 62
7
  6
CONTINUOUS
 90
6
 70
0
 10
-22.7824554741
 20
1.6994176339
 10
-22.7804823677
 20
1.6876837125
 10
-22.7779531817
 20
1.6760569612
 10
-22.7748736417
 20
1.664563721
 10
-22.7712507213
 20
1.6532300262
 10
-22.7670926258
 20
1.6420815507
  0
LWPOLYLINE
  5
33F
100
AcDbEntity
  8
0
100
AcDbPolyline
 62
7
  6
CONTINUOUS
 90
40
 70
0
 10
-23.785
 20
4.0852288521
 10
-23.7846011542
 20
4.0651000567
 10
-23.7833943263
 20
4.0450088054
 10
-23.7813815669
 20
4.0249874271
 10
-23.7785665894
 20
4.0050720931
 10
-23.7749539427
 20
3.9852908588
 10
-23.7705476462
 20
3.9656638599
 10
-23.7653534229
 20
3.9462213439
 10
-23.7593787294
 20
3.9269966422
 10
-23.7526301844
 20
3.9080146317
 10
-23.7451125158
 20
3.8892960439
 10
-23.736839741
 20
3.8708829088
 10
-23.7278367141
 20
3.8528304058
 10
-23.7181284461
 20
3.835182788
 10
-23.7077242114
 20
3.8179516393
 10
-23.6966273089
 20
3.8011423102
 10
-23.6848430866
 20
3.7847679395
 10
-23.6723993445
 20
3.7688719895
 10
-23.6593349531
 20
3.7535037425
 10
-23.6456868398
 20
3.7387016959
 10
-23.6314655797
 20
3.7244726369
 10
-23.6166720103
 20
3.7108172502
 10
-23.6013134846
 20
3.6977464677
 10
-23.58542807
 20
3.685296702
 10
-23.5690635554
 20
3.6735055532
 10
-23.5522627083
 20
3.6624006205
 10
-23.5350391799
 20
3.6519878003
 10
-23.5173985142
 20
3.642270447
 10
-23.4993512692
 20
3.633257575
 10
-23.4809426326
 20
3.6249748748
 10
-23.4622311009
 20
3.617448324
 10
-23.4432617596
 20
3.6106928414
 10
-23.4240526441
 20
3.6047116648
 10
-23.4046232292
 20
3.5995093381
 10
-23.384993711
 20
3.5950914147
 10
-23.3652071767
 20
3.591467703
 10
-23.3453178672
 20
3.5886460321
 10
-23.3253657436
 20
3.5866282928
 10
-23.3053758992
 20
3.5854133739
 10
-23.2853805997
 20
3.585
  0
LWPOLYLINE
  5
340
100
AcDbEntity
  8
0
100
AcDbPolyline
 62
7
  6
CONTINUOUS
 90
40
 70
0
 10
-23.785
 20
47.8847711479
 10
-23.7846011542
 20
47.9048999433
 10
-23.7833943263
 20
47.9249911946
 10
-23.7813815669
 20
47.9450125729
 10
-23.7785665894
 20
47.9649279069
 10
-23.7749539427
 20
47.9847091412
 10
-23.7705476462
 20
48.0043361401
 10
-23.7653534229
 20
48.0237786561
 10
-23.7593787294
 20
48.0430033578
 10
-23.7526301844
 20
48.0619853683
 10
-23.7451125158
 20
48.0807039561
 10
-23.736839741
 20
48.0991170912
 10
-23.7278367141
 20
48.1171695942
 10
-23.7181284461
 20
48.134817212
 10
-23.7077242114
 20
48.1520483607
 10
-23.6966273089
 20
48.1688576898
 10
-23.6848430866
 20
48.1852320605
 10
-23.6723993445
 20
48.2011280105
 10
-23.6593349531
 20
48.2164962575
 10
-23.6456868398
 20
48.2312983041
 10
-23.6314655797
 20
48.2455273631
 10
-23.6166720103
 20
48.2591827498
 10
-23.6013134846
 20
48.2722535323
 10
-23.58542807
 20
48.284703298
 10
-23.5690635554
 20
48.2964944468
 10
-23.5522627083
 20
48.3075993795
 10
-23.5350391799
 20
48.3180121997
 10
-23.5173985142
 20
48.327729553
 10
-23.4993512692
 20
48.336742425
 10
-23.4809426326
 20
48.3450251252
 10
-23.4622311009
 20
48.352551676
 10
-23.4432617596
 20
48.3593071586
 10
-23.4240526441
 20
48.3652883352
 10
-23.4046232292
 20
48.3704906619
 10
-23.384993711
 20
48.3749085853
 10
-23.3652071767
 20
48.378532297
 10
-23.3453178672
 20
48.3813539679
 10
-23.3253657436
 20
48.3833717072
 10
-23.3053758992
 20
48.3845866261
 10
-23.2853805997
 20
48.385
  0
LINE
  5
341
100
AcDbEntity
  8
0
100
AcDbLine
 62
7
  6
CONTINUOUS
 10
-9.135
 20
45.885
 11
-9.1716556363
 21
45.8483443637
  0
LINE
  5
342
100
AcDbEntity
  8
DRAFT
100
AcDbLine
 62
7
  6
CONTINUOUS
 10
-9.135
 20
45.885
 11
-9.1716556363
 21
45.8483443637
  0
LINE
  5
343
100
AcDbEntity
  8
0
100
AcDbLine
 62
7
  6
CONTINUOUS
 10
-9.135
 20
45.685
 11
-9.1716556363
 21
45.6483443637
  0
LINE
  5
344
100
AcDbEntity
  8
DRAFT
100
AcDbLine
 62
7
  6
CONTINUOUS
 10
-9.135
 20
45.685
 11
-9.1716556363
 21
45.6483443637
  0
LINE
  5
345
100
AcDbEntity
  8
0
100
AcDbLine
 62
7
  6
CONTINUOUS
 10
-13.235
 20
18.485
 11
-16.175
 21
18.485
  0
LINE
  5
346
100
AcDbEntity
  8
SMUSSO
100
AcDbLine
 62
7
  6
CONTINUOUS
 10
-16.885
 20
18.735
 11
-12.885
 21
18.735
  0
LINE
  5
347
100
AcDbEntity
  8
ASSI
100
AcDbLine
 62
7
  6
CONTINUOUS
 10
-16.885
 20
18.735
 11
-12.885
 21
18.735
  0
LINE
  5
348
100
AcDbEntity
  8
CURVE
100
AcDbLine
 62
7
  6
CONTINUOUS
 10
-1.5537620698
 20
18.887334
 11
-1.561791048
 21
18.887334
  0
LINE
  5
349
100
AcDbEntity
  8
CURVE
100
AcDbLine
 62
253
  6
CONTINUOUS
 10
-1.5924569592
 20
18.8921428895
 11
-1.5782457138
 21
18.8921428895
  0
LINE
  5
34A
100
AcDbEntity
  8
CURVE
100
AcDbLine
 62
7
  6
CONTINUOUS
 10
-1.5112025873
 20
18.898987
 11
-1.5192315655
 21
18.898987
  0
LINE
  5
34B
100
AcDbEntity
  8
CURVE
100
AcDbLine
 62
7
  6
CONTINUOUS
 10
-1.5318106354
 20
19.002873
 11
-1.5398397881
 21
19.002873
  0
LINE
  5
34C
100
AcDbEntity
  8
RACCORDO
100
AcDbLine
 62
7
  6
CONTINUOUS
 10
-1.9219211218
 20
19.135
 11
-2.835
 21
19.135
  0
LINE
  5
34D
100
AcDbEntity
  8
ASSI
100
AcDbLine
 62
7
  6
CONTINUOUS
 10
-1.9219211218
 20
19.135
 11
-2.835
 21
19.135
  0
LINE
  5
34E
100
AcDbEntity
  8
SMUSSO
100
AcDbLine
 62
7
  6
CONTINUOUS
 10
-17.385
 20
19.235
 11
-12.385
 21
19.235
  0
LINE
  5
34F
100
AcDbEntity
  8
ASSI
100
AcDbLine
 62
7
  6
CONTINUOUS
 10
-17.385
 20
19.235
 11
-12.385
 21
19.235
  0
LINE
  5
350
100
AcDbEntity
  8
CURVE
100
AcDbLine
 62
253
  6
CONTINUOUS
 10
-22.285
 20
19.41833354
 11
-21.820714294
 21
19.41833354
  0
LINE
  5
351
100
AcDbEntity
  8
CURVE
100
AcDbLine
 62
253
  6
CONTINUOUS
 10
-1.5782457138
 20
19.435
 11
-1.5735086324
 21
19.435
  0
LINE
  5
352
100
AcDbEntity
  8
SMUSSO
100
AcDbLine
 62
7
  6
CONTINUOUS
 10
-12.385
 20
19.735
 11
-17.385
 21
19.735
  0
LINE
  5
353
100
AcDbEntity
  8
ASSI
100
AcDbLine
 62
7
  6
CONTINUOUS
 10
-12.385
 20
19.735
 11
-17.385
 21
19.735
  0
LINE
  5
354
100
AcDbEntity
  8
RACCORDO
100
AcDbLine
 62
7
  6
CONTINUOUS
 10
-1.9219211218
 20
19.835
 11
-2.835
 21
19.835
  0
LINE
  5
355
100
AcDbEntity
  8
ASSI
100
AcDbLine
 62
7
  6
CONTINUOUS
 10
-1.9219211218
 20
19.835
 11
-2.835
 21
19.835
  0
LINE
  5
356
100
AcDbEntity
  8
CURVE
100
AcDbLine
 62
253
  6
CONTINUOUS
 10
-21.820714294
 20
20.06833354
 11
-22.1921428627
 21
20.06833354
  0
LINE
  5
357
100
AcDbEntity
  8
SMUSSO
100
AcDbLine
 62
7
  6
CONTINUOUS
 10
-12.885
 20
20.235
 11
-16.885
 21
20.235
  0
LINE
  5
358
100
AcDbEntity
  8
ASSI
100
AcDbLine
 62
7
  6
CONTINUOUS
 10
-12.885
 20
20.235
 11
-16.885
 21
20.235
  0
LINE
  5
359
100
AcDbEntity
  8
CURVE
100
AcDbLine
 62
253
  6
CONTINUOUS
 10
-22.6564285493
 20
19.6040477371
 11
-22.285
 21
19.41833354
  0
LINE
  5
35A
100
AcDbEntity
  8
CURVE
100
AcDbLine
 62
253
  6
CONTINUOUS
 10
-22.5635714507
 20
20.4397619343
 11
-22.7492857254
 21
20.5326193428
  0
LINE
  5
35B
100
AcDbEntity
  8
CURVE
100
AcDbLine
 62
253
  6
CONTINUOUS
 10
-22.006428588
 20
21.0897619343
 11
-21.820714294
 21
20.9969045258
  0
LINE
  5
35C
100
AcDbEntity
  8
SMUSSO
100
AcDbLine
 62
7
  6
CONTINUOUS
 10
-17.385
 20
14.235
 11
-16.885
 21
13.735
  0
LINE
  5
35D
100
AcDbEntity
  8
ASSI
100
AcDbLine
 62
7
  6
CONTINUOUS
 10
-17.385
 20
14.235
 11
-16.885
 21
13.735
  0
LINE
  5
35E
100
AcDbEntity
  8
CURVE
100
AcDbLine
 62
253
  6
CONTINUOUS
 10
-22.935
 20
19.8826193428
 11
-22.6564285493
 21
19.6040477371
  0
LINE
  5
35F
100
AcDbEntity
  8
0
100
AcDbLine
 62
7
  6
CONTINUOUS
 10
-9.1716556363
 20
6.1216556363
 11
-9.135
 21
6.085
  0
LINE
  5
360
100
AcDbEntity
  8
DRAFT
100
AcDbLine
 62
7
  6
CONTINUOUS
 10
-9.1716556363
 20
6.1216556363
 11
-9.135
 21
6.085
  0
LINE
  5
361
100
AcDbEntity
  8
0
100
AcDbLine
 62
7
  6
CONTINUOUS
 10
-9.135
 20
6.285
 11
-9.1716556363
 21
6.3216556363
  0
LINE
  5
362
100
AcDbEntity
  8
DRAFT
100
AcDbLine
 62
7
  6
CONTINUOUS
 10
-9.135
 20
6.285
 11
-9.1716556363
 21
6.3216556363
  0
LINE
  5
363
100
AcDbEntity
  8
SMUSSO
100
AcDbLine
 62
7
  6
CONTINUOUS
 10
-12.385
 20
9.735
 11
-12.885
 21
10.235
  0
LINE
  5
364
100
AcDbEntity
  8
ASSI
100
AcDbLine
 62
7
  6
CONTINUOUS
 10
-12.385
 20
9.735
 11
-12.885
 21
10.235
  0
LINE
  5
365
100
AcDbEntity
  8
CURVE
100
AcDbLine
 62
253
  6
CONTINUOUS
 10
-19.7207143342
 20
17.435
 11
-19.4492857224
 21
17.1635714447
  0
LINE
  5
366
100
AcDbEntity
  8
CURVE
100
AcDbLine
 62
253
  6
CONTINUOUS
 10
-22.7492857254
 20
20.5326193428
 11
-22.935
 21
20.71833354
  0
LINE
  5
367
100
AcDbEntity
  8
CURVE
100
AcDbLine
 62
253
  6
CONTINUOUS
 10
-21.635
 20
19.8826193428
 11
-21.820714294
 21
20.06833354
  0
LINE
  5
368
100
AcDbEntity
  8
CURVE
100
AcDbLine
 62
253
  6
CONTINUOUS
 10
-21.820714294
 20
20.9969045258
 11
-21.635
 21
20.8111903286
  0
LINE
  5
369
100
AcDbEntity
  8
CURVE
100
AcDbLine
 62
253
  6
CONTINUOUS
 10
-22.0373809671
 20
16.385
 11
-22.1302381045
 21
16.60166677
  0
LINE
  5
36A
100
AcDbEntity
  8
CURVE
100
AcDbLine
 62
253
  6
CONTINUOUS
 10
-21.9445238104
 20
16.8492858028
 11
-22.0373809671
 21
17.0969048357
  0
LWPOLYLINE
  5
36B
100
AcDbEntity
  8
0
100
AcDbPolyline
 62
253
  6
CONTINUOUS
 90
34
 70
0
 10
-22.780628166
 20
49.8293375673
 10
-22.780311504
 20
49.8190546062
 10
-22.7794313098
 20
49.808794854
 10
-22.7779895699
 20
49.7985814673
 10
-22.7759895398
 20
49.7884375035
 10
-22.7734357329
 20
49.7783858521
 10
-22.7703339075
 20
49.7684491834
 10
-22.7666910568
 20
49.758649913
 10
-22.7625154039
 20
49.7490101717
 10
-22.7578163816
 20
49.7395517387
 10
-22.7526046015
 20
49.7302959695
 10
-22.7468918239
 20
49.7212637463
 10
-22.7406909407
 20
49.7124754512
 10
-22.7340159471
 20
49.7039509186
 10
-22.7268819095
 20
49.6957093898
 10
-22.71930493
 20
49.6877694659
 10
-22.7113021104
 20
49.6801490678
 10
-22.7028915133
 20
49.6728653946
 10
-22.6940921207
 20
49.665934885
 10
-22.6849237948
 20
49.6593731824
 10
-22.6754072274
 20
49.6531950956
 10
-22.6655638912
 20
49.6474145653
 10
-22.6554159898
 20
49.6420446328
 10
-22.6449864389
 20
49.6370974265
 10
-22.6342988113
 20
49.6325841265
 10
-22.6233772514
 20
49.6285149235
 10
-22.6122463916
 20
49.6248989896
 10
-22.6009313281
 20
49.6217444758
 10
-22.589457306
 20
49.6190584395
 10
-22.5778505087
 20
49.6168470295
 10
-22.5661379997
 20
49.615115347
 10
-22.5543465228
 20
49.6138672183
 10
-22.542502412
 20
49.6131053043
 10
-22.5306323968
 20
49.6128312164
  0
LWPOLYLINE
  5
36C
100
AcDbEntity
  8
0
100
AcDbPolyline
 62
7
  6
CONTINUOUS
 90
4
 70
0
 10
-22.785
 20
1.7349957692
 10
-22.7847168498
 20
1.723100484
 10
-22.7838680342
 20
1.7112321444
 10
-22.7824554741
 20
1.6994176339
  0
LWPOLYLINE
  5
36D
100
AcDbEntity
  8
0
100
AcDbPolyline
 62
7
  6
CONTINUOUS
 90
34
 70
0
 10
-22.780628166
 20
1.7393676032
 10
-22.7803445371
 20
1.7274709443
 10
-22.779495097
 20
1.715601226
 10
-22.7780817682
 20
1.7037853437
 10
-22.7761077496
 20
1.692050064
 10
-22.7735775126
 20
1.6804219847
 10
-22.770496794
 20
1.6689274736
 10
-22.7668725768
 20
1.6575925811
 10
-22.7627130725
 20
1.6464429848
 10
-22.7580277082
 20
1.6355039512
 10
-22.7528271006
 20
1.6248002648
 10
-22.7471230353
 20
1.6143561796
 10
-22.740928443
 20
1.6041953674
 10
-22.7342573629
 20
1.5943408513
 10
-22.7271249119
 20
1.5848149571
 10
-22.7195472554
 20
1.5756392701
 10
-22.7115415612
 20
1.5668345745
 10
-22.703125975
 20
1.5584208229
 10
-22.6943195834
 20
1.5504170914
 10
-22.6851423702
 20
1.5428415305
 10
-22.6756151087
 20
1.5357112771
 10
-22.665759324
 20
1.5290424399
 10
-22.6555972484
 20
1.5228500775
 10
-22.6451519949
 20
1.517148289
 10
-22.6344474601
 20
1.5119501037
 10
-22.623508059
 20
1.5072673301
 10
-22.612358447
 20
1.5031104757
 10
-22.6010236819
 20
1.4994888659
 10
-22.5895277163
 20
1.4964102873
 10
-22.577898281
 20
1.4938822974
 10
-22.5661667864
 20
1.4919113514
 10
-22.5543616109
 20
1.4905013555
 10
-22.5425078683
 20
1.4896544537
 10
-22.5306323968
 20
1.489371834
  0
LINE
  5
36E
100
AcDbEntity
  8
0
100
AcDbLine
 62
253
  6
CONTINUOUS
 10
-22.780628166
 20
2.1406624327
 11
-22.785
 21
2.5745148518
  0
LINE
  5
36F
100
AcDbEntity
  8
0
100
AcDbLine
 62
253
  6
CONTINUOUS
 10
-22.5306323968
 20
2.3571687836
 11
-22.5357229979
 21
2.8623502692
  0
LINE
  5
370
100
AcDbEntity
  8
RACCORDO
100
AcDbLine
 62
7
  6
CONTINUOUS
 10
-23.785
 20
43.6566990487
 11
-23.785
 21
8.3133009513
  0
LINE
  5
371
100
AcDbEntity
  8
0
100
AcDbLine
 62
7
  6
CONTINUOUS
 10
-23.785
 20
4.084983077
 11
-23.785
 21
47.885016923
  0
LINE
  5
372
100
AcDbEntity
  8
0
100
AcDbLine
 62
7
  6
CONTINUOUS
 10
-23.7762731322
 20
4.0908009068
 11
-23.7762731322
 21
7.4762731322
  0
LINE
  5
373
100
AcDbEntity
  8
0
100
AcDbLine
 62
7
  6
CONTINUOUS
 10
-23.7762731322
 20
44.4937268678
 11
-23.7762731322
 21
47.8791990932
  0
LINE
  5
374
100
AcDbEntity
  8
0
100
AcDbLine
 62
7
  6
CONTINUOUS
 10
-23.7675462644
 20
44.5024537356
 11
-23.7675462644
 21
43.9042894123
  0
LINE
  5
375
100
AcDbEntity
  8
0
100
AcDbLine
 62
7
  6
CONTINUOUS
 10
-23.7675462644
 20
8.0657105877
 11
-23.7675462644
 21
7.4675462644
  0
LINE
  5
376
100
AcDbEntity
  8
0
100
AcDbLine
 62
7
  6
CONTINUOUS
 10
-23.6628145455
 20
43.6060881763
 11
-23.6628145455
 21
8.3639118237
  0
LINE
  5
377
100
AcDbEntity
  8
RACCORDO
100
AcDbLine
 62
7
  6
CONTINUOUS
 10
-23.6628145455
 20
43.6060881763
 11
-23.6628145455
 21
8.3639118237
  0
LINE
  5
378
100
AcDbEntity
  8
RACCORDO
100
AcDbLine
 62
7
  6
CONTINUOUS
 10
-23.6480903017
 20
43.9762243901
 11
-23.6480903017
 21
7.9937756099
  0
LINE
  5
379
100
AcDbEntity
  8
ASSI
100
AcDbLine
 62
7
  6
CONTINUOUS
 10
-23.6480903017
 20
43.9762243901
 11
-23.6480903017
 21
7.9937756099
  0
LINE
  5
37A
100
AcDbEntity
  8
CURVE
100
AcDbLine
 62
253
  6
CONTINUOUS
 10
-23.01
 20
26.6725
 11
-23.01
 21
26.5475
  0
LINE
  5
37B
100
AcDbEntity
  8
CURVE
100
AcDbLine
 62
253
  6
CONTINUOUS
 10
-22.935
 20
13.6921428239
 11
-22.935
 21
13.4135714507
  0
LINE
  5
37C
100
AcDbEntity
  8
CURVE
100
AcDbLine
 62
253
  6
CONTINUOUS
 10
-22.935
 20
14.5278570986
 11
-22.935
 21
14.6207143521
  0
LINE
  5
37D
100
AcDbEntity
  8
CURVE
100
AcDbLine
 62
253
  6
CONTINUOUS
 10
-22.935
 20
20.71833354
 11
-22.935
 21
20.8111903286
  0
LINE
  5
37E
100
AcDbEntity
  8
0
100
AcDbLine
 62
7
  6
CONTINUOUS
 10
-22.785
 20
2.1406624327
 11
-22.785
 21
3.585
  0
LINE
  5
37F
100
AcDbEntity
  8
0
100
AcDbLine
 62
7
  6
CONTINUOUS
 10
-22.785
 20
48.385
 11
-22.785
 21
49.8293375673
  0
LINE
  5
380
100
AcDbEntity
  8
0
100
AcDbLine
 62
7
  6
CONTINUOUS
 10
-22.780628166
 20
50.2306323968
 11
-22.780628166
 21
49.8293375673
  0
LINE
  5
381
100
AcDbEntity
  8
0
100
AcDbLine
 62
7
  6
CONTINUOUS
 10
-22.780628166
 20
2.1406624327
 11
-22.780628166
 21
1.7393676032
  0
LINE
  5
382
100
AcDbEntity
  8
CURVE
100
AcDbLine
 62
253
  6
CONTINUOUS
 10
-22.5635714507
 20
22.4826193428
 11
-22.5635714507
 21
23.0397613144
  0
LINE
  5
383
100
AcDbEntity
  8
0
100
AcDbLine
 62
253
  6
CONTINUOUS
 10
-22.5306323968
 20
1.489371834
 11
-22.5306323968
 21
2.3571687836
  0
LINE
  5
384
100
AcDbEntity
  8
0
100
AcDbLine
 62
253
  6
CONTINUOUS
 10
-22.5306323968
 20
49.6128312164
 11
-22.5306323968
 21
50.480628166
  0
LINE
  5
385
100
AcDbEntity
  8
RACCORDO
100
AcDbLine
 62
7
  6
CONTINUOUS
 10
-22.4323819397
 20
45.5113078747
 11
-22.4323819397
 21
45.5876183423
  0
LINE
  5
386
100
AcDbEntity
  8
ASSI
100
AcDbLine
 62
7
  6
CONTINUOUS
 10
-22.4323819397
 20
45.5113078747
 11
-22.4323819397
 21
45.5876183423
  0
LINE
  5
387
100
AcDbEntity
  8
CURVE
100
AcDbLine
 62
253
  6
CONTINUOUS
 10
-22.3778571761
 20
19.8826193428
 11
-22.3778571761
 21
19.4802380657
  0
LINE
  5
388
100
AcDbEntity
  8
CURVE
100
AcDbLine
 62
253
  6
CONTINUOUS
 10
-22.3778571761
 20
21.4611903286
 11
-22.3778571761
 21
22.1111903286
  0
LINE
  5
389
100
AcDbEntity
  8
CURVE
100
AcDbLine
 62
253
  6
CONTINUOUS
 10
-22.26
 20
26.61
 11
-22.26
 21
26.6725
  0
LINE
  5
38A
100
AcDbEntity
  8
0
100
AcDbLine
 62
253
  6
CONTINUOUS
 10
-22.785
 20
49.3954851482
 11
-22.780628166
 21
49.8293375673
  0
LINE
  5
38B
100
AcDbEntity
  8
0
100
AcDbLine
 62
253
  6
CONTINUOUS
 10
-22.5357229979
 20
49.1076497308
 11
-22.5306323968
 21
49.6128312164
  0
LWPOLYLINE
  5
38C
100
AcDbEntity
  8
0
100
AcDbPolyline
 62
253
  6
CONTINUOUS
 90
34
 70
0
 10
-22.780628166
 20
2.1406624327
 10
-22.7803115153
 20
2.1509452002
 10
-22.7794313535
 20
2.1612047602
 10
-22.7779896672
 20
2.1714179573
 10
-22.7759897102
 20
2.181561741
 10
-22.7734359962
 20
2.1916132174
 10
-22.7703342888
 20
2.2015497009
 10
-22.7666915884
 20
2.2113487654
 10
-22.7625161163
 20
2.220988295
 10
-22.7578172964
 20
2.2304465339
 10
-22.7526057336
 20
2.2397021354
 10
-22.7468931901
 20
2.2487342102
 10
-22.7406925587
 20
2.2575223733
 10
-22.7340178339
 20
2.2660467904
 10
-22.7268840803
 20
2.2742882225
 10
-22.7193073982
 20
2.282228069
 10
-22.7113048877
 20
2.2898484103
 10
-22.7028946101
 20
2.2971320476
 10
-22.6940955469
 20
2.3040625422
 10
-22.684927557
 20
2.3106242524
 10
-22.675411332
 20
2.3168023689
 10
-22.6655683495
 20
2.3225829479
 10
-22.6554208246
 20
2.3279529431
 10
-22.6449916595
 20
2.3329002346
 10
-22.6343043923
 20
2.3374136568
 10
-22.6233831436
 20
2.3414830231
 10
-22.6122525619
 20
2.3450991491
 10
-22.6009377683
 20
2.3482538736
 10
-22.5894642997
 20
2.3509400765
 10
-22.5778580509
 20
2.3531516951
 10
-22.5661452166
 20
2.354883738
 10
-22.554352232
 20
2.3561322961
 10
-22.5425057131
 20
2.3568945514
 10
-22.5306323968
 20
2.3571687836
  0
LINE
  5
38D
100
AcDbEntity
  8
CURVE
100
AcDbLine
 62
253
  6
CONTINUOUS
 10
-22.9475
 20
26.9225
 11
-23.01
 21
26.6725
  0
LINE
  5
38E
100
AcDbEntity
  8
CURVE
100
AcDbLine
 62
253
  6
CONTINUOUS
 10
-22.885
 20
27.11
 11
-22.9475
 21
26.9225
  0
LINE
  5
38F
100
AcDbEntity
  8
CURVE
100
AcDbLine
 62
253
  6
CONTINUOUS
 10
-22.3225
 20
26.4225
 11
-22.26
 21
26.61
  0
LINE
  5
390
100
AcDbEntity
  8
CURVE
100
AcDbLine
 62
253
  6
CONTINUOUS
 10
-22.8225
 20
27.235
 11
-22.885
 21
27.11
  0
LINE
  5
391
100
AcDbEntity
  8
CURVE
100
AcDbLine
 62
253
  6
CONTINUOUS
 10
-22.385
 20
26.2975
 11
-22.3225
 21
26.4225
  0
LINE
  5
392
100
AcDbEntity
  8
DRAFT
100
AcDbLine
 62
7
  6
CONTINUOUS
 10
-6.0302775865
 20
46.0897224135
 11
-6.1306365661
 21
45.9893634339
  0
LINE
  5
393
100
AcDbEntity
  8
DRAFT
100
AcDbLine
 62
7
  6
CONTINUOUS
 10
-6.0302775865
 20
45.7897224135
 11
-6.1306365661
 21
45.6893634339
  0
LINE
  5
394
100
AcDbEntity
  8
CURVE
100
AcDbLine
 62
7
  6
CONTINUOUS
 10
-1.5398399626
 20
20.430168
 11
-1.553762349
 21
20.430168
  0
LINE
  5
395
100
AcDbEntity
  8
CURVE
100
AcDbLine
 62
7
  6
CONTINUOUS
 10
-1.5192314608
 20
20.430168
 11
-1.5318104609
 21
20.430168
  0
LINE
  5
396
100
AcDbEntity
  8
CURVE
100
AcDbLine
 62
253
  6
CONTINUOUS
 10
-22.006428588
 20
20.4397619343
 11
-22.5635714507
 21
20.4397619343
  0
LINE
  5
397
100
AcDbEntity
  8
0
100
AcDbLine
 62
7
  6
CONTINUOUS
 10
-16.175
 20
20.485
 11
-13.235
 21
20.485
  0
LINE
  5
398
100
AcDbEntity
  8
CURVE
100
AcDbLine
 62
7
  6
CONTINUOUS
 10
-1.561791048
 20
20.947906
 11
-1.5112025873
 21
20.947906
  0
LINE
  5
399
100
AcDbEntity
  8
CURVE
100
AcDbLine
 62
253
  6
CONTINUOUS
 10
-22.5635714507
 20
21.0897619343
 11
-22.006428588
 21
21.0897619343
  0
LINE
  5
39A
100
AcDbEntity
  8
CURVE
100
AcDbLine
 62
253
  6
CONTINUOUS
 10
-18.635
 20
21.385
 11
-20.535
 21
21.385
  0
LINE
  5
39B
100
AcDbEntity
  8
CURVE
100
AcDbLine
 62
253
  6
CONTINUOUS
 10
-21.635
 20
21.4611903286
 11
-22.935
 21
21.4611903286
  0
LINE
  5
39C
100
AcDbEntity
  8
CURVE
100
AcDbLine
 62
253
  6
CONTINUOUS
 10
-22.935
 20
22.1111903286
 11
-21.635
 21
22.1111903286
  0
LWPOLYLINE
  5
39D
100
AcDbEntity
  8
CURVE
100
AcDbPolyline
 62
7
  6
CONTINUOUS
 90
17
 70
0
 10
-1.5364966321
 20
12.3552780512
 10
-1.5369493424
 20
12.3554921597
 10
-1.5374031055
 20
12.3561382172
 10
-1.5378576477
 20
12.3572218214
 10
-1.5383126951
 20
12.3587485702
 10
-1.5387679742
 20
12.3607240613
 10
-1.539223211
 20
12.3631538926
 10
-1.5396781319
 20
12.3660436619
 10
-1.5401324632
 20
12.3693989671
 10
-1.540585931
 20
12.3732254058
 10
-1.5410382616
 20
12.3775285759
 10
-1.5414891813
 20
12.3823140753
 10
-1.5419384164
 20
12.3875875017
 10
-1.5423856931
 20
12.393354453
 10
-1.5428307376
 20
12.3996205269
 10
-1.5432732762
 20
12.4063913213
 10
-1.5437130351
 20
12.413672434
  0
LINE
  5
39E
100
AcDbEntity
  8
CURVE
100
AcDbLine
 62
253
  6
CONTINUOUS
 10
-22.5635714507
 20
23.0397613144
 11
-21.635
 21
22.4826193428
  0
LINE
  5
39F
100
AcDbEntity
  8
DRAFT
100
AcDbLine
 62
7
  6
CONTINUOUS
 10
-6.0302775865
 20
5.8802775865
 11
-6.1306365661
 21
5.9806365661
  0
LINE
  5
3A0
100
AcDbEntity
  8
DRAFT
100
AcDbLine
 62
7
  6
CONTINUOUS
 10
-6.0302775865
 20
6.1802775865
 11
-6.1306365661
 21
6.2806365661
  0
LINE
  5
3A1
100
AcDbEntity
  8
SMUSSO
100
AcDbLine
 62
7
  6
CONTINUOUS
 10
-17.385
 20
19.235
 11
-16.885
 21
18.735
  0
LINE
  5
3A2
100
AcDbEntity
  8
ASSI
100
AcDbLine
 62
7
  6
CONTINUOUS
 10
-17.385
 20
19.235
 11
-16.885
 21
18.735
  0
LINE
  5
3A3
100
AcDbEntity
  8
SMUSSO
100
AcDbLine
 62
7
  6
CONTINUOUS
 10
-12.385
 20
14.735
 11
-12.885
 21
15.235
  0
LINE
  5
3A4
100
AcDbEntity
  8
ASSI
100
AcDbLine
 62
7
  6
CONTINUOUS
 10
-12.385
 20
14.735
 11
-12.885
 21
15.235
  0
LINE
  5
3A5
100
AcDbEntity
  8
CURVE
100
AcDbLine
 62
253
  6
CONTINUOUS
 10
-23.01
 20
26.5475
 11
-22.9475
 21
26.36
  0
LWPOLYLINE
  5
3A6
100
AcDbEntity
  8
0
100
AcDbPolyline
 62
253
  6
CONTINUOUS
 90
34
 70
0
 10
-19.889371834
 20
2.1406624327
 10
-19.8896884847
 20
2.1509452002
 10
-19.8905686465
 20
2.1612047602
 10
-19.8920103328
 20
2.1714179573
 10
-19.8940102898
 20
2.181561741
 10
-19.8965640038
 20
2.1916132174
 10
-19.8996657112
 20
2.2015497009
 10
-19.9033084116
 20
2.2113487654
 10
-19.9074838837
 20
2.220988295
 10
-19.9121827036
 20
2.2304465339
 10
-19.9173942664
 20
2.2397021354
 10
-19.9231068099
 20
2.2487342102
 10
-19.9293074413
 20
2.2575223733
 10
-19.9359821661
 20
2.2660467904
 10
-19.9431159197
 20
2.2742882225
 10
-19.9506926018
 20
2.282228069
 10
-19.9586951123
 20
2.2898484103
 10
-19.9671053899
 20
2.2971320476
 10
-19.9759044531
 20
2.3040625422
 10
-19.985072443
 20
2.3106242524
 10
-19.994588668
 20
2.3168023689
 10
-20.0044316505
 20
2.3225829479
 10
-20.0145791754
 20
2.3279529431
 10
-20.0250083405
 20
2.3329002346
 10
-20.0356956077
 20
2.3374136568
 10
-20.0466168564
 20
2.3414830231
 10
-20.0577474381
 20
2.3450991491
 10
-20.0690622317
 20
2.3482538736
 10
-20.0805357003
 20
2.3509400765
 10
-20.0921419491
 20
2.3531516951
 10
-20.1038547834
 20
2.354883738
 10
-20.115647768
 20
2.3561322961
 10
-20.1274942869
 20
2.3568945514
 10
-20.1393676032
 20
2.3571687836
  0
LINE
  5
3A7
100
AcDbEntity
  8
CURVE
100
AcDbLine
 62
253
  6
CONTINUOUS
 10
-21.635
 20
20.8111903286
 11
-21.635
 21
20.71833354
  0
LINE
  5
3A8
100
AcDbEntity
  8
CURVE
100
AcDbLine
 62
253
  6
CONTINUOUS
 10
-21.635
 20
14.6207143521
 11
-21.635
 21
14.5278570986
  0
LINE
  5
3A9
100
AcDbEntity
  8
CURVE
100
AcDbLine
 62
253
  6
CONTINUOUS
 10
-21.635
 20
13.8778570986
 11
-21.635
 21
13.2278571761
  0
LINE
  5
3AA
100
AcDbEntity
  8
CURVE
100
AcDbLine
 62
253
  6
CONTINUOUS
 10
-21.635
 20
19.6040477371
 11
-21.635
 21
19.8826193428
  0
LINE
  5
3AB
100
AcDbEntity
  8
CURVE
100
AcDbLine
 62
253
  6
CONTINUOUS
 10
-21.635
 20
22.4826193428
 11
-21.635
 21
23.0397613144
  0
LINE
  5
3AC
100
AcDbEntity
  8
CURVE
100
AcDbLine
 62
253
  6
CONTINUOUS
 10
-21.135
 20
26.485
 11
-21.135
 21
26.6725
  0
LINE
  5
3AD
100
AcDbEntity
  8
0
100
AcDbLine
 62
7
  6
CONTINUOUS
 10
-20.8675449351
 20
4.5798865899
 11
-20.8675449351
 21
5.0762731322
  0
LINE
  5
3AE
100
AcDbEntity
  8
0
100
AcDbLine
 62
7
  6
CONTINUOUS
 10
-20.8675449351
 20
46.8937268678
 11
-20.8675449351
 21
47.3901134101
  0
LINE
  5
3AF
100
AcDbEntity
  8
0
100
AcDbLine
 62
7
  6
CONTINUOUS
 10
-20.7015695018
 20
47.5684304982
 11
-20.7015695018
 21
47.5560888434
  0
LINE
  5
3B0
100
AcDbEntity
  8
0
100
AcDbLine
 62
7
  6
CONTINUOUS
 10
-20.7015695018
 20
46.8937268678
 11
-20.7015695018
 21
46.885
  0
LINE
  5
3B1
100
AcDbEntity
  8
0
100
AcDbLine
 62
7
  6
CONTINUOUS
 10
-20.7015695018
 20
5.085
 11
-20.7015695018
 21
5.0762731322
  0
LINE
  5
3B2
100
AcDbEntity
  8
0
100
AcDbLine
 62
7
  6
CONTINUOUS
 10
-20.7015695018
 20
4.4139111566
 11
-20.7015695018
 21
4.4015695018
  0
LINE
  5
3B3
100
AcDbEntity
  8
0
100
AcDbLine
 62
253
  6
CONTINUOUS
 10
-20.7015695018
 20
4.5312645729
 11
-20.7015695018
 21
4.9932917358
  0
LINE
  5
3B4
100
AcDbEntity
  8
0
100
AcDbLine
 62
253
  6
CONTINUOUS
 10
-20.7015695018
 20
46.9767082642
 11
-20.7015695018
 21
47.4387354271
  0
LINE
  5
3B5
100
AcDbEntity
  8
CURVE
100
AcDbLine
 62
253
  6
CONTINUOUS
 10
-20.535
 20
16.485
 11
-20.535
 21
17.1635714447
  0
LINE
  5
3B6
100
AcDbEntity
  8
CURVE
100
AcDbLine
 62
253
  6
CONTINUOUS
 10
-20.535
 20
26.7564285836
 11
-20.535
 21
27.2992857224
  0
LINE
  5
3B7
100
AcDbEntity
  8
0
100
AcDbLine
 62
253
  6
CONTINUOUS
 10
-20.2016456542
 20
4.6490130513
 11
-20.2016456542
 21
4.9890044543
  0
LINE
  5
3B8
100
AcDbEntity
  8
0
100
AcDbLine
 62
253
  6
CONTINUOUS
 10
-20.2016456542
 20
46.9809955457
 11
-20.2016456542
 21
47.3209869487
  0
LINE
  5
3B9
100
AcDbEntity
  8
0
100
AcDbLine
 62
253
  6
CONTINUOUS
 10
-20.1393676032
 20
1.489371834
 11
-20.1393676032
 21
2.3571687836
  0
LINE
  5
3BA
100
AcDbEntity
  8
0
100
AcDbLine
 62
253
  6
CONTINUOUS
 10
-20.1393676032
 20
49.6128312164
 11
-20.1393676032
 21
50.480628166
  0
LINE
  5
3BB
100
AcDbEntity
  8
0
100
AcDbLine
 62
7
  6
CONTINUOUS
 10
-20.0716556363
 20
5.135
 11
-20.0716556363
 21
6.3216556363
  0
LINE
  5
3BC
100
AcDbEntity
  8
DRAFT
100
AcDbLine
 62
7
  6
CONTINUOUS
 10
-20.0716556363
 20
5.135
 11
-20.0716556363
 21
6.3216556363
  0
LINE
  5
3BD
100
AcDbEntity
  8
0
100
AcDbLine
 62
7
  6
CONTINUOUS
 10
-20.0716556363
 20
45.6483443637
 11
-20.0716556363
 21
46.835
  0
LINE
  5
3BE
100
AcDbEntity
  8
DRAFT
100
AcDbLine
 62
7
  6
CONTINUOUS
 10
-20.0716556363
 20
45.6483443637
 11
-20.0716556363
 21
46.835
  0
LINE
  5
3BF
100
AcDbEntity
  8
0
100
AcDbLine
 62
7
  6
CONTINUOUS
 10
-20.035
 20
5.135
 11
-20.035
 21
6.285
  0
LINE
  5
3C0
100
AcDbEntity
  8
DRAFT
100
AcDbLine
 62
7
  6
CONTINUOUS
 10
-20.035
 20
5.135
 11
-20.035
 21
6.285
  0
LINE
  5
3C1
100
AcDbEntity
  8
0
100
AcDbLine
 62
7
  6
CONTINUOUS
 10
-20.035
 20
45.685
 11
-20.035
 21
46.835
  0
LINE
  5
3C2
100
AcDbEntity
  8
DRAFT
100
AcDbLine
 62
7
  6
CONTINUOUS
 10
-20.035
 20
45.685
 11
-20.035
 21
46.835
  0
LWPOLYLINE
  5
3C3
100
AcDbEntity
  8
0
100
AcDbPolyline
 62
253
  6
CONTINUOUS
 90
34
 70
0
 10
-19.889371834
 20
49.8293375673
 10
-19.8896879612
 20
49.8190637895
 10
-19.8905668735
 20
49.8088108791
 10
-19.892006965
 20
49.7986019692
 10
-19.8940055309
 20
49.7884593699
 10
-19.8965583468
 20
49.7784067803
 10
-19.8996592669
 20
49.7684691596
 10
-19.9033009749
 20
49.7586697274
 10
-19.9074754803
 20
49.7490297916
 10
-19.9121734609
 20
49.7395709211
 10
-19.9173844175
 20
49.7303143541
 10
-19.9230965586
 20
49.7212811256
 10
-19.9292968909
 20
49.7124918143
 10
-19.9359713669
 20
49.7039663226
 10
-19.9431049647
 20
49.6957238287
 10
-19.9506815988
 20
49.6877829214
 10
-19.958684181
 20
49.6801615168
 10
-19.9670946393
 20
49.6728768325
 10
-19.9758939717
 20
49.6659453292
 10
-19.9850623086
 20
49.6593826581
 10
-19.9945789604
 20
49.6532036281
 10
-20.0044224454
 20
49.6474221869
 10
-20.0145705442
 20
49.6420513849
 10
-20.0250003491
 20
49.6371033459
 10
-20.0356883165
 20
49.6325892394
 10
-20.0466103331
 20
49.6285192505
 10
-20.0577417323
 20
49.6249025721
 10
-20.0690573467
 20
49.6217473785
 10
-20.0805316046
 20
49.6190607927
 10
-20.0921386303
 20
49.6168488662
 10
-20.103852264
 20
49.6151165815
 10
-20.1156460789
 20
49.6138678476
 10
-20.1274934395
 20
49.6131054856
 10
-20.1393676032
 20
49.6128312164
  0
LINE
  5
3C4
100
AcDbEntity
  8
CURVE
100
AcDbLine
 62
253
  6
CONTINUOUS
 10
-21.1975
 20
26.2975
 11
-21.135
 21
26.485
  0
LINE
  5
3C5
100
AcDbEntity
  8
CURVE
100
AcDbLine
 62
253
  6
CONTINUOUS
 10
-21.26
 20
26.1725
 11
-21.1975
 21
26.2975
  0
LINE
  5
3C6
100
AcDbEntity
  8
CURVE
100
AcDbLine
 62
253
  6
CONTINUOUS
 10
-22.4475
 20
26.235
 11
-22.385
 21
26.2975
  0
LINE
  5
3C7
100
AcDbEntity
  8
CURVE
100
AcDbLine
 62
253
  6
CONTINUOUS
 10
-20.535
 20
27.2992857224
 11
-20.3992856658
 21
27.435
  0
LINE
  5
3C8
100
AcDbEntity
  8
CURVE
100
AcDbLine
 62
253
  6
CONTINUOUS
 10
-21.385
 20
26.0475
 11
-21.26
 21
26.1725
  0
LINE
  5
3C9
100
AcDbEntity
  8
CURVE
100
AcDbLine
 62
253
  6
CONTINUOUS
 10
-22.5725
 20
26.1725
 11
-22.4475
 21
26.235
  0
LINE
  5
3CA
100
AcDbEntity
  8
CURVE
100
AcDbLine
 62
253
  6
CONTINUOUS
 10
-18.635
 20
22.335
 11
-20.535
 21
22.335
  0
LINE
  5
3CB
100
AcDbEntity
  8
0
100
AcDbLine
 62
7
  6
CONTINUOUS
 10
-13.235
 20
23.485
 11
-16.175
 21
23.485
  0
LINE
  5
3CC
100
AcDbEntity
  8
SMUSSO
100
AcDbLine
 62
7
  6
CONTINUOUS
 10
-16.885
 20
23.735
 11
-12.885
 21
23.735
  0
LINE
  5
3CD
100
AcDbEntity
  8
ASSI
100
AcDbLine
 62
7
  6
CONTINUOUS
 10
-16.885
 20
23.735
 11
-12.885
 21
23.735
  0
LINE
  5
3CE
100
AcDbEntity
  8
RACCORDO
100
AcDbLine
 62
7
  6
CONTINUOUS
 10
-1.9219211218
 20
24.135
 11
-2.835
 21
24.135
  0
LINE
  5
3CF
100
AcDbEntity
  8
ASSI
100
AcDbLine
 62
7
  6
CONTINUOUS
 10
-1.9219211218
 20
24.135
 11
-2.835
 21
24.135
  0
LINE
  5
3D0
100
AcDbEntity
  8
CURVE
100
AcDbLine
 62
253
  6
CONTINUOUS
 10
-1.5889664778
 20
24.1611903435
 11
-1.6019311231
 21
24.1611903435
  0
LINE
  5
3D1
100
AcDbEntity
  8
SMUSSO
100
AcDbLine
 62
7
  6
CONTINUOUS
 10
-17.385
 20
24.235
 11
-12.385
 21
24.235
  0
LINE
  5
3D2
100
AcDbEntity
  8
ASSI
100
AcDbLine
 62
7
  6
CONTINUOUS
 10
-17.385
 20
24.235
 11
-12.385
 21
24.235
  0
LWPOLYLINE
  5
3D3
100
AcDbEntity
  8
CURVE
100
AcDbPolyline
 62
7
  6
CONTINUOUS
 90
18
 70
0
 10
-1.5364966321
 20
14.1016901526
 10
-1.5360439131
 20
14.1014760435
 10
-1.5355901412
 20
14.1008299838
 10
-1.5351355901
 20
14.0997463748
 10
-1.5346805337
 20
14.0982196175
 10
-1.5342252456
 20
14.0962441133
 10
-1.5337699997
 20
14.0938142633
 10
-1.5333150697
 20
14.0909244688
 10
-1.5328607294
 20
14.0875691309
 10
-1.5324072525
 20
14.0837426509
 10
-1.5319549128
 20
14.07943943
 10
-1.5315039841
 20
14.0746538694
 10
-1.53105474
 20
14.0693803704
 10
-1.5306074545
 20
14.063613334
 10
-1.5301624013
 20
14.0573471616
 10
-1.529719854
 20
14.0505762544
 10
-1.5292800866
 20
14.0432950135
 10
-1.5288433727
 20
14.0354978403
  0
LINE
  5
3D4
100
AcDbEntity
  8
CURVE
100
AcDbLine
 62
253
  6
CONTINUOUS
 10
-22.9475
 20
26.36
 11
-22.8225
 21
26.235
  0
LINE
  5
3D5
100
AcDbEntity
  8
CURVE
100
AcDbLine
 62
253
  6
CONTINUOUS
 10
-22.0725
 20
26.1725
 11
-21.9475
 21
26.0475
  0
LINE
  5
3D6
100
AcDbEntity
  8
CURVE
100
AcDbLine
 62
253
  6
CONTINUOUS
 10
-21.1975
 20
26.9225
 11
-21.3225
 21
27.11
  0
LINE
  5
3D7
100
AcDbEntity
  8
CURVE
100
AcDbLine
 62
253
  6
CONTINUOUS
 10
-22.1975
 20
26.4225
 11
-22.0725
 21
26.1725
  0
LINE
  5
3D8
100
AcDbEntity
  8
CURVE
100
AcDbLine
 62
253
  6
CONTINUOUS
 10
-22.26
 20
26.6725
 11
-22.1975
 21
26.4225
  0
LINE
  5
3D9
100
AcDbEntity
  8
CURVE
100
AcDbLine
 62
253
  6
CONTINUOUS
 10
-21.135
 20
26.6725
 11
-21.1975
 21
26.9225
  0
LWPOLYLINE
  5
3DA
100
AcDbEntity
  8
0
100
AcDbPolyline
 62
7
  6
CONTINUOUS
 90
34
 70
0
 10
-19.889371834
 20
50.2306323968
 10
-19.8896553848
 20
50.2425274183
 10
-19.8905045897
 20
50.254395495
 10
-19.8919175251
 20
50.2662097429
 10
-19.8938909904
 20
50.2779434001
 10
-19.8964205152
 20
50.2895698874
 10
-19.8995003696
 20
50.301062868
 10
-19.903123577
 20
50.3123963078
 10
-19.90728193
 20
50.323544534
 10
-19.9119660091
 20
50.3344822935
 10
-19.9171652038
 20
50.3451848096
 10
-19.9228677366
 20
50.3556278389
 10
-19.9290606902
 20
50.3657877255
 10
-19.935730036
 20
50.375641455
 10
-19.9428606666
 20
50.3851667064
 10
-19.9504364293
 20
50.3943419031
 10
-19.9584401635
 20
50.4031462611
 10
-19.9668537389
 20
50.4115598365
 10
-19.9756580969
 20
50.4195635707
 10
-19.9848332936
 20
50.4271393334
 10
-19.994358545
 20
50.434269964
 10
-20.0042122745
 20
50.4409393098
 10
-20.0143721611
 20
50.4471322634
 10
-20.0248151904
 20
50.4528347962
 10
-20.0355177065
 20
50.4580339909
 10
-20.046455466
 20
50.46271807
 10
-20.0576036922
 20
50.466876423
 10
-20.068937132
 20
50.4704996304
 10
-20.0804301126
 20
50.4735794848
 10
-20.0920565999
 20
50.4761090096
 10
-20.1037902571
 20
50.4780824749
 10
-20.115604505
 20
50.4794954103
 10
-20.1274725817
 20
50.4803446152
 10
-20.1393676032
 20
50.480628166
  0
LWPOLYLINE
  5
3DB
100
AcDbEntity
  8
0
100
AcDbPolyline
 62
7
  6
CONTINUOUS
 90
4
 70
0
 10
-19.885
 20
50.2350042308
 10
-19.8852831502
 20
50.246899516
 10
-19.8861319658
 20
50.2587678556
 10
-19.8875445259
 20
50.2705823661
  0
LINE
  5
3DC
100
AcDbEntity
  8
0
100
AcDbLine
 62
253
  6
CONTINUOUS
 10
-20.1393676032
 20
49.6128312164
 11
-20.1342770021
 21
49.1076497308
  0
LINE
  5
3DD
100
AcDbEntity
  8
0
100
AcDbLine
 62
253
  6
CONTINUOUS
 10
-19.889371834
 20
49.8293375673
 11
-19.885
 21
49.3954851482
  0
LINE
  5
3DE
100
AcDbEntity
  8
DRAFT
100
AcDbLine
 62
7
  6
CONTINUOUS
 10
-19.935
 20
5.085
 11
-19.935
 21
5.985
  0
LINE
  5
3DF
100
AcDbEntity
  8
DRAFT
100
AcDbLine
 62
7
  6
CONTINUOUS
 10
-19.935
 20
45.985
 11
-19.935
 21
46.885
  0
LINE
  5
3E0
100
AcDbEntity
  8
DRAFT
100
AcDbLine
 62
7
  6
CONTINUOUS
 10
-19.9306365661
 20
6.2806365661
 11
-19.9306365661
 21
5.985
  0
LINE
  5
3E1
100
AcDbEntity
  8
DRAFT
100
AcDbLine
 62
7
  6
CONTINUOUS
 10
-19.9306365661
 20
45.6893634339
 11
-19.9306365661
 21
45.985
  0
LINE
  5
3E2
100
AcDbEntity
  8
0
100
AcDbLine
 62
7
  6
CONTINUOUS
 10
-19.889371834
 20
1.7393676032
 11
-19.889371834
 21
2.1406624327
  0
LINE
  5
3E3
100
AcDbEntity
  8
0
100
AcDbLine
 62
7
  6
CONTINUOUS
 10
-19.889371834
 20
49.8293375673
 11
-19.889371834
 21
50.2306323968
  0
LINE
  5
3E4
100
AcDbEntity
  8
0
100
AcDbLine
 62
7
  6
CONTINUOUS
 10
-19.885
 20
2.1406624327
 11
-19.885
 21
3.585
  0
LINE
  5
3E5
100
AcDbEntity
  8
0
100
AcDbLine
 62
7
  6
CONTINUOUS
 10
-19.885
 20
48.385
 11
-19.885
 21
49.8293375673
  0
LINE
  5
3E6
100
AcDbEntity
  8
DRAFT
100
AcDbLine
 62
7
  6
CONTINUOUS
 10
-19.8302775865
 20
46.9809955457
 11
-19.8302775865
 21
45.7897224135
  0
LINE
  5
3E7
100
AcDbEntity
  8
DRAFT
100
AcDbLine
 62
7
  6
CONTINUOUS
 10
-19.8302775865
 20
6.1802775865
 11
-19.8302775865
 21
4.9890044543
  0
LINE
  5
3E8
100
AcDbEntity
  8
CURVE
100
AcDbLine
 62
253
  6
CONTINUOUS
 10
-19.4492857224
 20
17.1635714447
 11
-19.4492857224
 21
16.485
  0
LINE
  5
3E9
100
AcDbEntity
  8
DRAFT
100
AcDbLine
 62
7
  6
CONTINUOUS
 10
-19.2397224135
 20
46.0897224135
 11
-19.2397224135
 21
45.7897224135
  0
LINE
  5
3EA
100
AcDbEntity
  8
DRAFT
100
AcDbLine
 62
7
  6
CONTINUOUS
 10
-19.2397224135
 20
6.1802775865
 11
-19.2397224135
 21
5.8802775865
  0
LINE
  5
3EB
100
AcDbEntity
  8
DRAFT
100
AcDbLine
 62
7
  6
CONTINUOUS
 10
-19.1393634339
 20
45.9893634339
 11
-19.1393634339
 21
45.6893634339
  0
LINE
  5
3EC
100
AcDbEntity
  8
DRAFT
100
AcDbLine
 62
7
  6
CONTINUOUS
 10
-19.1393634339
 20
6.2806365661
 11
-19.1393634339
 21
5.9806365661
  0
LINE
  5
3ED
100
AcDbEntity
  8
CURVE
100
AcDbLine
 62
253
  6
CONTINUOUS
 10
-18.635
 20
11.685
 11
-18.635
 21
12.3635714447
  0
LINE
  5
3EE
100
AcDbEntity
  8
CURVE
100
AcDbLine
 62
253
  6
CONTINUOUS
 10
-18.635
 20
26.6207142918
 11
-18.635
 21
27.1635714447
  0
LINE
  5
3EF
100
AcDbEntity
  8
0
100
AcDbLine
 62
253
  6
CONTINUOUS
 10
-20.1342770021
 20
2.8623502692
 11
-20.1393676032
 21
2.3571687836
  0
LINE
  5
3F0
100
AcDbEntity
  8
0
100
AcDbLine
 62
253
  6
CONTINUOUS
 10
-19.885
 20
2.5745148518
 11
-19.889371834
 21
2.1406624327
  0
LWPOLYLINE
  5
3F1
100
AcDbEntity
  8
0
100
AcDbPolyline
 62
253
  6
CONTINUOUS
 90
4
 70
0
 10
-10.6527535542
 20
43.4440629059
 10
-10.6746148244
 20
43.4017346696
 10
-10.704540065
 20
43.3632135783
 10
-10.7416778093
 20
43.3298141709
  0
LWPOLYLINE
  5
3F2
100
AcDbEntity
  8
RACCORDO
100
AcDbPolyline
 62
253
  6
CONTINUOUS
 90
4
 70
0
 10
-10.6527535542
 20
43.4440629059
 10
-10.6746148244
 20
43.4017346696
 10
-10.704540065
 20
43.3632135783
 10
-10.7416778093
 20
43.3298141709
  0
LWPOLYLINE
  5
3F3
100
AcDbEntity
  8
0
100
AcDbPolyline
 62
7
  6
CONTINUOUS
 90
5
 70
0
 10
-4.8173132921
 20
47.6823892622
 10
-4.8439621435
 20
47.6429919507
 10
-4.8709694763
 20
47.6032592016
 10
-4.8983352903
 20
47.5632691211
 10
-4.9261226945
 20
47.5231379605
  0
LWPOLYLINE
  5
3F4
100
AcDbEntity
  8
0
100
AcDbPolyline
 62
7
  6
CONTINUOUS
 90
4
 70
0
 10
-4.9261226945
 20
47.5231379605
 10
-5.0110047072
 20
47.4019965568
 10
-5.039594949
 20
47.3614658744
 10
-5.0683543458
 20
47.3209869487
  0
LINE
  5
3F5
100
AcDbEntity
  8
CURVE
100
AcDbLine
 62
253
  6
CONTINUOUS
 10
-19.1778571671
 20
27.435
 11
-19.9921428895
 21
26.485
  0
LINE
  5
3F6
100
AcDbEntity
  8
CURVE
100
AcDbLine
 62
253
  6
CONTINUOUS
 10
-18.7707142918
 20
26.485
 11
-18.635
 21
26.6207142918
  0
LINE
  5
3F7
100
AcDbEntity
  8
CURVE
100
AcDbLine
 62
253
  6
CONTINUOUS
 10
-21.5725
 20
25.985
 11
-21.385
 21
26.0475
  0
LINE
  5
3F8
100
AcDbEntity
  8
SMUSSO
100
AcDbLine
 62
7
  6
CONTINUOUS
 10
-12.385
 20
24.485
 11
-17.385
 21
24.485
  0
LINE
  5
3F9
100
AcDbEntity
  8
ASSI
100
AcDbLine
 62
7
  6
CONTINUOUS
 10
-12.385
 20
24.485
 11
-17.385
 21
24.485
  0
LINE
  5
3FA
100
AcDbEntity
  8
CURVE
100
AcDbLine
 62
253
  6
CONTINUOUS
 10
-1.5425929412
 20
24.7504761624
 11
-1.5199048129
 21
24.7504761624
  0
LINE
  5
3FB
100
AcDbEntity
  8
RACCORDO
100
AcDbLine
 62
7
  6
CONTINUOUS
 10
-1.9219211218
 20
24.835
 11
-2.835
 21
24.835
  0
LINE
  5
3FC
100
AcDbEntity
  8
ASSI
100
AcDbLine
 62
7
  6
CONTINUOUS
 10
-1.9219211218
 20
24.835
 11
-2.835
 21
24.835
  0
LINE
  5
3FD
100
AcDbEntity
  8
SMUSSO
100
AcDbLine
 62
7
  6
CONTINUOUS
 10
-12.885
 20
24.985
 11
-16.885
 21
24.985
  0
LINE
  5
3FE
100
AcDbEntity
  8
ASSI
100
AcDbLine
 62
7
  6
CONTINUOUS
 10
-12.885
 20
24.985
 11
-16.885
 21
24.985
  0
LINE
  5
3FF
100
AcDbEntity
  8
CURVE
100
AcDbLine
 62
253
  6
CONTINUOUS
 10
-1.5231459739
 20
25.250357269
 11
-1.5393517799
 21
25.250357269
  0
LINE
  5
400
100
AcDbEntity
  8
CURVE
100
AcDbLine
 62
253
  6
CONTINUOUS
 10
-1.5792429948
 20
25.3683332449
 11
-1.6019311231
 21
25.3683332449
  0
LINE
  5
401
100
AcDbEntity
  8
0
100
AcDbLine
 62
7
  6
CONTINUOUS
 10
-16.175
 20
25.485
 11
-13.235
 21
25.485
  0
LINE
  5
402
100
AcDbEntity
  8
CURVE
100
AcDbLine
 62
253
  6
CONTINUOUS
 10
-1.5722620322
 20
25.5469046956
 11
-1.5495739038
 21
25.5469046956
  0
LINE
  5
403
100
AcDbEntity
  8
CURVE
100
AcDbLine
 62
253
  6
CONTINUOUS
 10
-1.5425929412
 20
25.8678571218
 11
-1.5199048129
 21
25.8678571218
  0
LINE
  5
404
100
AcDbEntity
  8
CURVE
100
AcDbLine
 62
253
  6
CONTINUOUS
 10
-21.76
 20
25.985
 11
-21.5725
 21
25.985
  0
LINE
  5
405
100
AcDbEntity
  8
CURVE
100
AcDbLine
 62
253
  6
CONTINUOUS
 10
-22.635
 20
26.1725
 11
-22.5725
 21
26.1725
  0
LINE
  5
406
100
AcDbEntity
  8
CURVE
100
AcDbLine
 62
253
  6
CONTINUOUS
 10
-1.5722620322
 20
26.1969047731
 11
-1.5495739038
 21
26.1969047731
  0
LINE
  5
407
100
AcDbEntity
  8
CURVE
100
AcDbLine
 62
253
  6
CONTINUOUS
 10
-22.8225
 20
26.235
 11
-22.635
 21
26.1725
  0
LINE
  5
408
100
AcDbEntity
  8
CURVE
100
AcDbLine
 62
253
  6
CONTINUOUS
 10
-21.9475
 20
26.0475
 11
-21.76
 21
25.985
  0
LINE
  5
409
100
AcDbEntity
  8
CURVE
100
AcDbLine
 62
253
  6
CONTINUOUS
 10
-21.3225
 20
27.11
 11
-21.4475
 21
27.235
  0
LINE
  5
40A
100
AcDbEntity
  8
CURVE
100
AcDbLine
 62
253
  6
CONTINUOUS
 10
-20.2635714447
 20
26.485
 11
-20.535
 21
26.7564285836
  0
LINE
  5
40B
100
AcDbEntity
  8
SMUSSO
100
AcDbLine
 62
7
  6
CONTINUOUS
 10
-17.385
 20
24.235
 11
-16.885
 21
23.735
  0
LINE
  5
40C
100
AcDbEntity
  8
ASSI
100
AcDbLine
 62
7
  6
CONTINUOUS
 10
-17.385
 20
24.235
 11
-16.885
 21
23.735
  0
LINE
  5
40D
100
AcDbEntity
  8
SMUSSO
100
AcDbLine
 62
7
  6
CONTINUOUS
 10
-12.385
 20
19.735
 11
-12.885
 21
20.235
  0
LINE
  5
40E
100
AcDbEntity
  8
ASSI
100
AcDbLine
 62
7
  6
CONTINUOUS
 10
-12.385
 20
19.735
 11
-12.885
 21
20.235
  0
LWPOLYLINE
  5
40F
100
AcDbEntity
  8
0
100
AcDbPolyline
 62
7
  6
CONTINUOUS
 90
3
 70
0
 10
-5.0683543458
 20
4.6490130513
 10
-5.039594949
 20
4.6085341256
 10
-5.0110047072
 20
4.5680034432
  0
LWPOLYLINE
  5
410
100
AcDbEntity
  8
0
100
AcDbPolyline
 62
7
  6
CONTINUOUS
 90
6
 70
0
 10
-5.0110047072
 20
4.5680034432
 10
-4.9261226945
 20
4.4468620395
 10
-4.8983352903
 20
4.4067308789
 10
-4.8709694763
 20
4.3667407984
 10
-4.8439621435
 20
4.3270080493
 10
-4.8173132921
 20
4.2876107378
  0
LINE
  5
411
100
AcDbEntity
  8
SMUSSO
100
AcDbLine
 62
7
  6
CONTINUOUS
 10
-17.385
 20
9.735
 11
-17.385
 21
14.235
  0
LINE
  5
412
100
AcDbEntity
  8
ASSI
100
AcDbLine
 62
7
  6
CONTINUOUS
 10
-17.385
 20
9.735
 11
-17.385
 21
14.235
  0
LINE
  5
413
100
AcDbEntity
  8
SMUSSO
100
AcDbLine
 62
7
  6
CONTINUOUS
 10
-17.385
 20
14.735
 11
-17.385
 21
19.235
  0
LINE
  5
414
100
AcDbEntity
  8
ASSI
100
AcDbLine
 62
7
  6
CONTINUOUS
 10
-17.385
 20
14.735
 11
-17.385
 21
19.235
  0
LINE
  5
415
100
AcDbEntity
  8
SMUSSO
100
AcDbLine
 62
7
  6
CONTINUOUS
 10
-17.385
 20
19.735
 11
-17.385
 21
24.235
  0
LINE
  5
416
100
AcDbEntity
  8
ASSI
100
AcDbLine
 62
7
  6
CONTINUOUS
 10
-17.385
 20
19.735
 11
-17.385
 21
24.235
  0
LINE
  5
417
100
AcDbEntity
  8
SMUSSO
100
AcDbLine
 62
7
  6
CONTINUOUS
 10
-17.385
 20
24.485
 11
-17.385
 21
29.485
  0
LINE
  5
418
100
AcDbEntity
  8
ASSI
100
AcDbLine
 62
7
  6
CONTINUOUS
 10
-17.385
 20
24.485
 11
-17.385
 21
29.485
  0
LINE
  5
419
100
AcDbEntity
  8
0
100
AcDbLine
 62
7
  6
CONTINUOUS
 10
-17.085
 20
49.985
 11
-17.085
 21
49.3529449472
  0
LINE
  5
41A
100
AcDbEntity
  8
0
100
AcDbLine
 62
7
  6
CONTINUOUS
 10
-17.085
 20
48.9170550528
 11
-17.085
 21
48.385
  0
LINE
  5
41B
100
AcDbEntity
  8
0
100
AcDbLine
 62
7
  6
CONTINUOUS
 10
-17.085
 20
3.585
 11
-17.085
 21
3.0529449472
  0
LINE
  5
41C
100
AcDbEntity
  8
0
100
AcDbLine
 62
7
  6
CONTINUOUS
 10
-17.085
 20
2.6170550528
 11
-17.085
 21
1.985
  0
LINE
  5
41D
100
AcDbEntity
  8
0
100
AcDbLine
 62
7
  6
CONTINUOUS
 10
-17.041077753
 20
49.9388922731
 11
-17.041077753
 21
48.341077753
  0
LINE
  5
41E
100
AcDbEntity
  8
0
100
AcDbLine
 62
7
  6
CONTINUOUS
 10
-17.041077753
 20
3.628922247
 11
-17.041077753
 21
2.0311077269
  0
LINE
  5
41F
100
AcDbEntity
  8
SMUSSO
100
AcDbLine
 62
7
  6
CONTINUOUS
 10
-16.885
 20
10.235
 11
-16.885
 21
13.735
  0
LINE
  5
420
100
AcDbEntity
  8
ASSI
100
AcDbLine
 62
7
  6
CONTINUOUS
 10
-16.885
 20
10.235
 11
-16.885
 21
13.735
  0
LINE
  5
421
100
AcDbEntity
  8
SMUSSO
100
AcDbLine
 62
7
  6
CONTINUOUS
 10
-16.885
 20
15.235
 11
-16.885
 21
18.735
  0
LINE
  5
422
100
AcDbEntity
  8
ASSI
100
AcDbLine
 62
7
  6
CONTINUOUS
 10
-16.885
 20
15.235
 11
-16.885
 21
18.735
  0
LINE
  5
423
100
AcDbEntity
  8
SMUSSO
100
AcDbLine
 62
7
  6
CONTINUOUS
 10
-16.885
 20
20.235
 11
-16.885
 21
23.735
  0
LINE
  5
424
100
AcDbEntity
  8
ASSI
100
AcDbLine
 62
7
  6
CONTINUOUS
 10
-16.885
 20
20.235
 11
-16.885
 21
23.735
  0
LINE
  5
425
100
AcDbEntity
  8
SMUSSO
100
AcDbLine
 62
7
  6
CONTINUOUS
 10
-16.885
 20
24.985
 11
-16.885
 21
28.985
  0
LINE
  5
426
100
AcDbEntity
  8
ASSI
100
AcDbLine
 62
7
  6
CONTINUOUS
 10
-16.885
 20
24.985
 11
-16.885
 21
28.985
  0
LINE
  5
427
100
AcDbEntity
  8
0
100
AcDbLine
 62
7
  6
CONTINUOUS
 10
-16.175
 20
28.985
 11
-16.175
 21
24.985
  0
LINE
  5
428
100
AcDbEntity
  8
0
100
AcDbLine
 62
7
  6
CONTINUOUS
 10
-16.175
 20
23.735
 11
-16.175
 21
20.235
  0
LINE
  5
429
100
AcDbEntity
  8
0
100
AcDbLine
 62
7
  6
CONTINUOUS
 10
-16.175
 20
18.735
 11
-16.175
 21
15.235
  0
LINE
  5
42A
100
AcDbEntity
  8
0
100
AcDbLine
 62
7
  6
CONTINUOUS
 10
-16.175
 20
13.735
 11
-16.175
 21
10.235
  0
LINE
  5
42B
100
AcDbEntity
  8
0
100
AcDbLine
 62
7
  6
CONTINUOUS
 10
-16.135
 20
45.885
 11
-16.135
 21
45.685
  0
LINE
  5
42C
100
AcDbEntity
  8
DRAFT
100
AcDbLine
 62
7
  6
CONTINUOUS
 10
-16.135
 20
45.885
 11
-16.135
 21
45.685
  0
LINE
  5
42D
100
AcDbEntity
  8
0
100
AcDbLine
 62
7
  6
CONTINUOUS
 10
-16.135
 20
6.285
 11
-16.135
 21
6.085
  0
LINE
  5
42E
100
AcDbEntity
  8
DRAFT
100
AcDbLine
 62
7
  6
CONTINUOUS
 10
-16.135
 20
6.285
 11
-16.135
 21
6.085
  0
LINE
  5
42F
100
AcDbEntity
  8
0
100
AcDbLine
 62
7
  6
CONTINUOUS
 10
-16.0983443637
 20
45.8483443637
 11
-16.0983443637
 21
45.6483443637
  0
LINE
  5
430
100
AcDbEntity
  8
DRAFT
100
AcDbLine
 62
7
  6
CONTINUOUS
 10
-16.0983443637
 20
45.8483443637
 11
-16.0983443637
 21
45.6483443637
  0
LINE
  5
431
100
AcDbEntity
  8
0
100
AcDbLine
 62
7
  6
CONTINUOUS
 10
-16.0983443637
 20
6.3216556363
 11
-16.0983443637
 21
6.1216556363
  0
LINE
  5
432
100
AcDbEntity
  8
DRAFT
100
AcDbLine
 62
7
  6
CONTINUOUS
 10
-16.0983443637
 20
6.3216556363
 11
-16.0983443637
 21
6.1216556363
  0
LINE
  5
433
100
AcDbEntity
  8
CURVE
100
AcDbLine
 62
253
  6
CONTINUOUS
 10
-22.935
 20
20.8111903286
 11
-22.7492857254
 21
20.9969045258
  0
LINE
  5
434
100
AcDbEntity
  8
CURVE
100
AcDbLine
 62
253
  6
CONTINUOUS
 10
-21.635
 20
20.71833354
 11
-21.820714294
 21
20.5326193428
  0
LINE
  5
435
100
AcDbEntity
  8
CURVE
100
AcDbLine
 62
253
  6
CONTINUOUS
 10
-22.1921428627
 20
20.06833354
 11
-22.3778571761
 21
19.8826193428
  0
LINE
  5
436
100
AcDbEntity
  8
SMUSSO
100
AcDbLine
 62
7
  6
CONTINUOUS
 10
-12.385
 20
29.485
 11
-12.885
 21
28.985
  0
LINE
  5
437
100
AcDbEntity
  8
ASSI
100
AcDbLine
 62
7
  6
CONTINUOUS
 10
-12.385
 20
29.485
 11
-12.885
 21
28.985
  0
LINE
  5
438
100
AcDbEntity
  8
SMUSSO
100
AcDbLine
 62
7
  6
CONTINUOUS
 10
-17.385
 20
24.485
 11
-16.885
 21
24.985
  0
LINE
  5
439
100
AcDbEntity
  8
ASSI
100
AcDbLine
 62
7
  6
CONTINUOUS
 10
-17.385
 20
24.485
 11
-16.885
 21
24.985
  0
LINE
  5
43A
100
AcDbEntity
  8
CURVE
100
AcDbLine
 62
253
  6
CONTINUOUS
 10
-21.820714294
 20
19.41833354
 11
-21.635
 21
19.6040477371
  0
LINE
  5
43B
100
AcDbEntity
  8
CURVE
100
AcDbLine
 62
253
  6
CONTINUOUS
 10
-19.9921428895
 20
26.485
 11
-20.2635714447
 21
26.485
  0
LINE
  5
43C
100
AcDbEntity
  8
CURVE
100
AcDbLine
 62
253
  6
CONTINUOUS
 10
-1.5722620322
 20
26.7849999955
 11
-1.5495739038
 21
26.7849999955
  0
LINE
  5
43D
100
AcDbEntity
  8
CURVE
100
AcDbLine
 62
253
  6
CONTINUOUS
 10
-1.6019311231
 20
27.2254762238
 11
-1.5792429948
 21
27.2254762238
  0
LINE
  5
43E
100
AcDbEntity
  8
CURVE
100
AcDbLine
 62
253
  6
CONTINUOUS
 10
-1.5199048129
 20
27.2792856827
 11
-1.5425929412
 21
27.2792856827
  0
LINE
  5
43F
100
AcDbEntity
  8
CURVE
100
AcDbLine
 62
253
  6
CONTINUOUS
 10
-18.9064285836
 20
27.435
 11
-19.1778571671
 21
27.435
  0
LINE
  5
440
100
AcDbEntity
  8
CURVE
100
AcDbLine
 62
253
  6
CONTINUOUS
 10
-1.5425929412
 20
27.985
 11
-1.5199048129
 21
27.985
  0
LINE
  5
441
100
AcDbEntity
  8
CURVE
100
AcDbLine
 62
253
  6
CONTINUOUS
 10
-1.6019311231
 20
28.1849999955
 11
-1.5792429948
 21
28.1849999955
  0
LINE
  5
442
100
AcDbEntity
  8
CURVE
100
AcDbLine
 62
253
  6
CONTINUOUS
 10
-18.635
 20
27.1635714447
 11
-18.9064285836
 21
27.435
  0
LINE
  5
443
100
AcDbEntity
  8
0
100
AcDbLine
 62
7
  6
CONTINUOUS
 10
-10.6539886151
 20
7.785
 11
-10.6444276524
 21
7.7533825015
  0
LINE
  5
444
100
AcDbEntity
  8
RACCORDO
100
AcDbLine
 62
7
  6
CONTINUOUS
 10
-10.6539886151
 20
7.785
 11
-10.6444276524
 21
7.7533825015
  0
LINE
  5
445
100
AcDbEntity
  8
DRAFT
100
AcDbLine
 62
7
  6
CONTINUOUS
 10
-16.1351534346
 20
46.0025818656
 11
-16.1355407234
 21
46.0469607613
  0
LINE
  5
446
100
AcDbEntity
  8
0
100
AcDbLine
 62
7
  6
CONTINUOUS
 10
-16.1555544631
 20
48.340308184
 11
-16.1698577163
 21
49.979298655
  0
LINE
  5
447
100
AcDbEntity
  8
0
100
AcDbLine
 62
7
  6
CONTINUOUS
 10
-15.627145819
 20
46.785
 11
-15.6407033248
 21
48.3385362903
  0
LINE
  5
448
100
AcDbEntity
  8
0
100
AcDbLine
 62
253
  6
CONTINUOUS
 10
-14.1359544263
 20
5.9153782482
 11
-14.1365242349
 21
6.1005133204
  0
LINE
  5
449
100
AcDbEntity
  8
0
100
AcDbLine
 62
7
  6
CONTINUOUS
 10
-15.135
 20
7.685
 11
-15.135
 21
9.385
  0
LINE
  5
44A
100
AcDbEntity
  8
ASSI
100
AcDbLine
 62
7
  6
CONTINUOUS
 10
-15.135
 20
7.685
 11
-15.135
 21
9.385
  0
LINE
  5
44B
100
AcDbEntity
  8
0
100
AcDbLine
 62
7
  6
CONTINUOUS
 10
-15.135
 20
42.585
 11
-15.135
 21
44.285
  0
LINE
  5
44C
100
AcDbEntity
  8
ASSI
100
AcDbLine
 62
7
  6
CONTINUOUS
 10
-15.135
 20
42.585
 11
-15.135
 21
44.285
  0
LINE
  5
44D
100
AcDbEntity
  8
0
100
AcDbLine
 62
253
  6
CONTINUOUS
 10
-14.7814466094
 20
7.685
 11
-14.7814466094
 21
7.7524599833
  0
LINE
  5
44E
100
AcDbEntity
  8
RACCORDO
100
AcDbLine
 62
253
  6
CONTINUOUS
 10
-14.7814466094
 20
7.685
 11
-14.7814466094
 21
7.7524599833
  0
LINE
  5
44F
100
AcDbEntity
  8
0
100
AcDbLine
 62
7
  6
CONTINUOUS
 10
-14.735
 20
7.785
 11
-14.735
 21
7.752818798
  0
LINE
  5
450
100
AcDbEntity
  8
0
100
AcDbLine
 62
7
  6
CONTINUOUS
 10
-14.635
 20
7.7519514111
 11
-14.635
 21
7.785
  0
LINE
  5
451
100
AcDbEntity
  8
RACCORDO
100
AcDbLine
 62
7
  6
CONTINUOUS
 10
-14.635
 20
7.7519514111
 11
-14.635
 21
7.785
  0
LINE
  5
452
100
AcDbEntity
  8
RACCORDO
100
AcDbLine
 62
7
  6
CONTINUOUS
 10
-14.6175893107
 20
44.285
 11
-14.6175893107
 21
44.185
  0
LINE
  5
453
100
AcDbEntity
  8
ASSI
100
AcDbLine
 62
7
  6
CONTINUOUS
 10
-14.6175893107
 20
44.285
 11
-14.6175893107
 21
44.185
  0
LINE
  5
454
100
AcDbEntity
  8
RACCORDO
100
AcDbLine
 62
7
  6
CONTINUOUS
 10
-14.5390044543
 20
7.785
 11
-14.5390044543
 21
7.685
  0
LINE
  5
455
100
AcDbEntity
  8
ASSI
100
AcDbLine
 62
7
  6
CONTINUOUS
 10
-14.5390044543
 20
7.785
 11
-14.5390044543
 21
7.685
  0
LINE
  5
456
100
AcDbEntity
  8
0
100
AcDbLine
 62
253
  6
CONTINUOUS
 10
-14.335
 20
8.6690320816
 11
-14.335
 21
8.735
  0
LINE
  5
457
100
AcDbEntity
  8
RACCORDO
100
AcDbLine
 62
253
  6
CONTINUOUS
 10
-14.335
 20
8.6690320816
 11
-14.335
 21
8.735
  0
LINE
  5
458
100
AcDbEntity
  8
0
100
AcDbLine
 62
253
  6
CONTINUOUS
 10
-14.335
 20
43.235
 11
-14.335
 21
43.285
  0
LINE
  5
459
100
AcDbEntity
  8
RACCORDO
100
AcDbLine
 62
253
  6
CONTINUOUS
 10
-14.335
 20
43.235
 11
-14.335
 21
43.285
  0
LINE
  5
45A
100
AcDbEntity
  8
0
100
AcDbLine
 62
253
  6
CONTINUOUS
 10
-14.1365242349
 20
45.8694866796
 11
-14.1359544263
 21
46.0546217518
  0
LINE
  5
45B
100
AcDbEntity
  8
DRAFT
100
AcDbLine
 62
7
  6
CONTINUOUS
 10
-16.1351534346
 20
5.9674181344
 11
-16.1355407234
 21
5.9230392387
  0
LINE
  5
45C
100
AcDbEntity
  8
0
100
AcDbLine
 62
7
  6
CONTINUOUS
 10
-16.1698577163
 20
1.990701345
 11
-16.1555544631
 21
3.629691816
  0
LINE
  5
45D
100
AcDbEntity
  8
0
100
AcDbLine
 62
7
  6
CONTINUOUS
 10
-15.6407033248
 20
3.6314637097
 11
-15.627145819
 21
5.185
  0
LINE
  5
45E
100
AcDbEntity
  8
0
100
AcDbLine
 62
253
  6
CONTINUOUS
 10
-10.6394526381
 20
43.488941282
 11
-10.6527535542
 21
43.4440629059
  0
LINE
  5
45F
100
AcDbEntity
  8
RACCORDO
100
AcDbLine
 62
253
  6
CONTINUOUS
 10
-10.6394526381
 20
43.488941282
 11
-10.6527535542
 21
43.4440629059
  0
LWPOLYLINE
  5
460
100
AcDbEntity
  8
0
100
AcDbPolyline
 62
7
  6
CONTINUOUS
 90
9
 70
0
 10
-5.3670926258
 20
50.3279184493
 10
-5.3712507213
 20
50.3167699738
 10
-5.3748736417
 20
50.305436279
 10
-5.3779531817
 20
50.2939430388
 10
-5.3804823677
 20
50.2823162875
 10
-5.3824554741
 20
50.2705823661
 10
-5.3838680342
 20
50.2587678556
 10
-5.3847168498
 20
50.246899516
 10
-5.385
 20
50.2350042308
  0
LINE
  5
461
100
AcDbEntity
  8
CURVE
100
AcDbLine
 62
253
  6
CONTINUOUS
 10
-22.1302381045
 20
16.60166677
 11
-21.9445238104
 21
16.8492858028
  0
LINE
  5
462
100
AcDbEntity
  8
CURVE
100
AcDbLine
 62
253
  6
CONTINUOUS
 10
-22.7492857254
 20
20.9969045258
 11
-22.5635714507
 21
21.0897619343
  0
LINE
  5
463
100
AcDbEntity
  8
CURVE
100
AcDbLine
 62
253
  6
CONTINUOUS
 10
-20.535
 20
21.385
 11
-18.635
 21
22.335
  0
LINE
  5
464
100
AcDbEntity
  8
CURVE
100
AcDbLine
 62
253
  6
CONTINUOUS
 10
-21.820714294
 20
20.5326193428
 11
-22.006428588
 21
20.4397619343
  0
LWPOLYLINE
  5
465
100
AcDbEntity
  8
CURVE
100
AcDbPolyline
 62
7
  6
CONTINUOUS
 90
15
 70
0
 10
-1.5257115683
 20
32.4477200261
 10
-1.5259307935
 20
32.4476808006
 10
-1.5261516831
 20
32.4479498901
 10
-1.5263739335
 20
32.4485283562
 10
-1.5265972414
 20
32.4494172607
 10
-1.5268213034
 20
32.4506176651
 10
-1.5270458161
 20
32.4521306311
 10
-1.527270476
 20
32.4539572203
 10
-1.5274949797
 20
32.4560984944
 10
-1.5277190238
 20
32.4585555149
 10
-1.5279423049
 20
32.4613293435
 10
-1.5281645196
 20
32.4644210418
 10
-1.5283853644
 20
32.4678316715
 10
-1.528604536
 20
32.4715622942
 10
-1.5288217308
 20
32.4756139715
  0
LINE
  5
466
100
AcDbEntity
  8
0
100
AcDbLine
 62
7
  6
CONTINUOUS
 10
-13.235
 20
28.485
 11
-16.175
 21
28.485
  0
LINE
  5
467
100
AcDbEntity
  8
SMUSSO
100
AcDbLine
 62
7
  6
CONTINUOUS
 10
-16.885
 20
28.985
 11
-12.885
 21
28.985
  0
LINE
  5
468
100
AcDbEntity
  8
ASSI
100
AcDbLine
 62
7
  6
CONTINUOUS
 10
-16.885
 20
28.985
 11
-12.885
 21
28.985
  0
LINE
  5
469
100
AcDbEntity
  8
RACCORDO
100
AcDbLine
 62
7
  6
CONTINUOUS
 10
-1.9219211218
 20
29.135
 11
-2.835
 21
29.135
  0
LINE
  5
46A
100
AcDbEntity
  8
ASSI
100
AcDbLine
 62
7
  6
CONTINUOUS
 10
-1.9219211218
 20
29.135
 11
-2.835
 21
29.135
  0
LINE
  5
46B
100
AcDbEntity
  8
SMUSSO
100
AcDbLine
 62
7
  6
CONTINUOUS
 10
-17.385
 20
29.485
 11
-12.385
 21
29.485
  0
LINE
  5
46C
100
AcDbEntity
  8
ASSI
100
AcDbLine
 62
7
  6
CONTINUOUS
 10
-17.385
 20
29.485
 11
-12.385
 21
29.485
  0
LINE
  5
46D
100
AcDbEntity
  8
SMUSSO
100
AcDbLine
 62
7
  6
CONTINUOUS
 10
-17.385
 20
29.485
 11
-16.885
 21
28.985
  0
LINE
  5
46E
100
AcDbEntity
  8
ASSI
100
AcDbLine
 62
7
  6
CONTINUOUS
 10
-17.385
 20
29.485
 11
-16.885
 21
28.985
  0
LINE
  5
46F
100
AcDbEntity
  8
SMUSSO
100
AcDbLine
 62
7
  6
CONTINUOUS
 10
-12.385
 20
24.485
 11
-12.885
 21
24.985
  0
LINE
  5
470
100
AcDbEntity
  8
ASSI
100
AcDbLine
 62
7
  6
CONTINUOUS
 10
-12.385
 20
24.485
 11
-12.885
 21
24.985
  0
LWPOLYLINE
  5
471
100
AcDbEntity
  8
0
100
AcDbPolyline
 62
7
  6
CONTINUOUS
 90
18
 70
0
 10
-5.3670926258
 20
1.6420815507
 10
-5.3624087722
 20
1.6311435537
 10
-5.3572097688
 20
1.6204408124
 10
-5.3515073916
 20
1.6099975717
 10
-5.3453145581
 20
1.5998374941
 10
-5.3386452955
 20
1.5899835949
 10
-5.3315147107
 20
1.5804581962
 10
-5.3239389589
 20
1.5712828809
 10
-5.3159352005
 20
1.5624784339
 10
-5.3075215661
 20
1.5540647995
 10
-5.2987171191
 20
1.5460610411
 10
-5.2895418038
 20
1.5384852893
 10
-5.2800164051
 20
1.5313547045
 10
-5.2701625059
 20
1.5246854419
 10
-5.2600024283
 20
1.5184926084
 10
-5.2495591876
 20
1.5127902312
 10
-5.2388564463
 20
1.5075912278
 10
-5.2279184493
 20
1.5029073742
  0
LWPOLYLINE
  5
472
100
AcDbEntity
  8
0
100
AcDbPolyline
 62
253
  6
CONTINUOUS
 90
5
 70
0
 10
-10.6394526381
 20
8.481058718
 10
-10.6527535542
 20
8.5259370941
 10
-10.6746148244
 20
8.5682653304
 10
-10.704540065
 20
8.6067864217
 10
-10.7416778093
 20
8.6401858291
  0
LWPOLYLINE
  5
473
100
AcDbEntity
  8
RACCORDO
100
AcDbPolyline
 62
253
  6
CONTINUOUS
 90
5
 70
0
 10
-10.6394526381
 20
8.481058718
 10
-10.6527535542
 20
8.5259370941
 10
-10.6746148244
 20
8.5682653304
 10
-10.704540065
 20
8.6067864217
 10
-10.7416778093
 20
8.6401858291
  0
LWPOLYLINE
  5
474
100
AcDbEntity
  8
0
100
AcDbPolyline
 62
7
  6
CONTINUOUS
 90
6
 70
0
 10
-19.8875445259
 20
50.2705823661
 10
-19.8895176323
 20
50.2823162875
 10
-19.8920468183
 20
50.2939430388
 10
-19.8951263583
 20
50.305436279
 10
-19.8987492787
 20
50.3167699738
 10
-19.9029073742
 20
50.3279184493
  0
LINE
  5
475
100
AcDbEntity
  8
0
100
AcDbLine
 62
7
  6
CONTINUOUS
 10
-13.6436739534
 20
3.5902042875
 11
-13.64356737
 21
2.1907047302
  0
LINE
  5
476
100
AcDbEntity
  8
0
100
AcDbLine
 62
7
  6
CONTINUOUS
 10
-13.635
 20
2.1849932308
 11
-13.635
 21
3.585
  0
LINE
  5
477
100
AcDbEntity
  8
0
100
AcDbLine
 62
7
  6
CONTINUOUS
 10
-13.635
 20
48.385
 11
-13.635
 21
49.7850067692
  0
LINE
  5
478
100
AcDbEntity
  8
0
100
AcDbLine
 62
7
  6
CONTINUOUS
 10
-13.235
 20
10.485
 11
-13.235
 21
13.485
  0
LINE
  5
479
100
AcDbEntity
  8
0
100
AcDbLine
 62
7
  6
CONTINUOUS
 10
-13.235
 20
15.485
 11
-13.235
 21
18.485
  0
LINE
  5
47A
100
AcDbEntity
  8
0
100
AcDbLine
 62
7
  6
CONTINUOUS
 10
-13.235
 20
20.485
 11
-13.235
 21
23.485
  0
LINE
  5
47B
100
AcDbEntity
  8
0
100
AcDbLine
 62
7
  6
CONTINUOUS
 10
-13.235
 20
25.485
 11
-13.235
 21
28.485
  0
LINE
  5
47C
100
AcDbEntity
  8
SMUSSO
100
AcDbLine
 62
7
  6
CONTINUOUS
 10
-12.885
 20
28.985
 11
-12.885
 21
24.985
  0
LINE
  5
47D
100
AcDbEntity
  8
ASSI
100
AcDbLine
 62
7
  6
CONTINUOUS
 10
-12.885
 20
28.985
 11
-12.885
 21
24.985
  0
LINE
  5
47E
100
AcDbEntity
  8
SMUSSO
100
AcDbLine
 62
7
  6
CONTINUOUS
 10
-12.885
 20
23.735
 11
-12.885
 21
20.235
  0
LINE
  5
47F
100
AcDbEntity
  8
ASSI
100
AcDbLine
 62
7
  6
CONTINUOUS
 10
-12.885
 20
23.735
 11
-12.885
 21
20.235
  0
LINE
  5
480
100
AcDbEntity
  8
SMUSSO
100
AcDbLine
 62
7
  6
CONTINUOUS
 10
-12.885
 20
18.735
 11
-12.885
 21
15.235
  0
LINE
  5
481
100
AcDbEntity
  8
ASSI
100
AcDbLine
 62
7
  6
CONTINUOUS
 10
-12.885
 20
18.735
 11
-12.885
 21
15.235
  0
LINE
  5
482
100
AcDbEntity
  8
SMUSSO
100
AcDbLine
 62
7
  6
CONTINUOUS
 10
-12.885
 20
13.735
 11
-12.885
 21
10.235
  0
LINE
  5
483
100
AcDbEntity
  8
ASSI
100
AcDbLine
 62
7
  6
CONTINUOUS
 10
-12.885
 20
13.735
 11
-12.885
 21
10.235
  0
LINE
  5
484
100
AcDbEntity
  8
SMUSSO
100
AcDbLine
 62
7
  6
CONTINUOUS
 10
-12.385
 20
29.485
 11
-12.385
 21
24.485
  0
LINE
  5
485
100
AcDbEntity
  8
ASSI
100
AcDbLine
 62
7
  6
CONTINUOUS
 10
-12.385
 20
29.485
 11
-12.385
 21
24.485
  0
LINE
  5
486
100
AcDbEntity
  8
SMUSSO
100
AcDbLine
 62
7
  6
CONTINUOUS
 10
-12.385
 20
24.235
 11
-12.385
 21
19.735
  0
LINE
  5
487
100
AcDbEntity
  8
ASSI
100
AcDbLine
 62
7
  6
CONTINUOUS
 10
-12.385
 20
24.235
 11
-12.385
 21
19.735
  0
LINE
  5
488
100
AcDbEntity
  8
SMUSSO
100
AcDbLine
 62
7
  6
CONTINUOUS
 10
-12.385
 20
19.235
 11
-12.385
 21
14.735
  0
LINE
  5
489
100
AcDbEntity
  8
ASSI
100
AcDbLine
 62
7
  6
CONTINUOUS
 10
-12.385
 20
19.235
 11
-12.385
 21
14.735
  0
LINE
  5
48A
100
AcDbEntity
  8
SMUSSO
100
AcDbLine
 62
7
  6
CONTINUOUS
 10
-12.385
 20
14.235
 11
-12.385
 21
9.735
  0
LINE
  5
48B
100
AcDbEntity
  8
ASSI
100
AcDbLine
 62
7
  6
CONTINUOUS
 10
-12.385
 20
14.235
 11
-12.385
 21
9.735
  0
LINE
  5
48C
100
AcDbEntity
  8
0
100
AcDbLine
 62
7
  6
CONTINUOUS
 10
-13.6436739534
 20
48.3797957125
 11
-13.64356737
 21
49.7792952698
  0
LWPOLYLINE
  5
48D
100
AcDbEntity
  8
0
100
AcDbPolyline
 62
7
  6
CONTINUOUS
 90
17
 70
0
 10
-8.228922247
 20
49.9388922731
 10
-8.2292582284
 20
49.9371758189
 10
-8.2300948387
 20
49.934981613
 10
-8.2314362161
 20
49.9323096556
 10
-8.2332851675
 20
49.9291659044
 10
-8.2356450878
 20
49.9255444016
 10
-8.2385217814
 20
49.9214272733
 10
-8.2419163659
 20
49.9168190368
 10
-8.2458333028
 20
49.9117151748
 10
-8.2502886203
 20
49.9060842611
 10
-8.2552842152
 20
49.899936303
 10
-8.2608284861
 20
49.8932612933
 10
-8.2669585509
 20
49.885997784
 10
-8.2736897828
 20
49.8781467931
 10
-8.2810291804
 20
49.8697073027
 10
-8.2890129808
 20
49.8606148111
 10
-8.2976600798
 20
49.850863904
  0
LWPOLYLINE
  5
48E
100
AcDbEntity
  8
0
100
AcDbPolyline
 62
7
  6
CONTINUOUS
 90
17
 70
0
 10
-17.041077753
 20
2.0311077269
 10
-17.0407416006
 20
2.0328237529
 10
-17.0399040642
 20
2.0350200331
 10
-17.0385603649
 20
2.0376965674
 10
-17.0367068149
 20
2.0408474566
 10
-17.034339508
 20
2.0444786
 10
-17.0314530753
 20
2.0486076953
 10
-17.0280458222
 20
2.053231814
 10
-17.0241135245
 20
2.0583538847
 10
-17.0196434307
 20
2.0640003911
 10
-17.0146364065
 20
2.0701597595
 10
-17.0090836251
 20
2.0768435636
 10
-17.0029471077
 20
2.0841130086
 10
-16.9962120551
 20
2.0919664693
 10
-16.9888719842
 20
2.1004055708
 10
-16.9808888129
 20
2.1094963934
 10
-16.9722436276
 20
2.119243902
  0
LINE
  5
48F
100
AcDbEntity
  8
CURVE
100
AcDbLine
 62
253
  6
CONTINUOUS
 10
-20.535
 20
17.1635714447
 11
-20.2635714447
 21
17.435
  0
LINE
  5
490
100
AcDbEntity
  8
CURVE
100
AcDbLine
 62
253
  6
CONTINUOUS
 10
-22.935
 20
14.6207143521
 11
-22.7492857254
 21
14.8064285493
  0
LINE
  5
491
100
AcDbEntity
  8
SMUSSO
100
AcDbLine
 62
7
  6
CONTINUOUS
 10
-17.385
 20
19.735
 11
-16.885
 21
20.235
  0
LINE
  5
492
100
AcDbEntity
  8
ASSI
100
AcDbLine
 62
7
  6
CONTINUOUS
 10
-17.385
 20
19.735
 11
-16.885
 21
20.235
  0
LINE
  5
493
100
AcDbEntity
  8
CURVE
100
AcDbLine
 62
253
  6
CONTINUOUS
 10
-22.7492857254
 20
13.8778570986
 11
-22.935
 21
13.6921428239
  0
LINE
  5
494
100
AcDbEntity
  8
SMUSSO
100
AcDbLine
 62
7
  6
CONTINUOUS
 10
-12.385
 20
24.235
 11
-12.885
 21
23.735
  0
LINE
  5
495
100
AcDbEntity
  8
ASSI
100
AcDbLine
 62
7
  6
CONTINUOUS
 10
-12.385
 20
24.235
 11
-12.885
 21
23.735
  0
LINE
  5
496
100
AcDbEntity
  8
CURVE
100
AcDbLine
 62
253
  6
CONTINUOUS
 10
-21.635
 20
14.5278570986
 11
-21.820714294
 21
14.3421429014
  0
LINE
  5
497
100
AcDbEntity
  8
0
100
AcDbLine
 62
253
  6
CONTINUOUS
 10
-11.1340455737
 20
46.0546217518
 11
-11.1334757651
 21
45.8694866796
  0
LINE
  5
498
100
AcDbEntity
  8
0
100
AcDbLine
 62
7
  6
CONTINUOUS
 10
-11.635
 20
2.1849932308
 11
-11.635
 21
3.585
  0
LINE
  5
499
100
AcDbEntity
  8
0
100
AcDbLine
 62
7
  6
CONTINUOUS
 10
-11.635
 20
48.385
 11
-11.635
 21
49.7850067692
  0
LINE
  5
49A
100
AcDbEntity
  8
0
100
AcDbLine
 62
7
  6
CONTINUOUS
 10
-11.6263260466
 20
48.3797957125
 11
-11.62643263
 21
49.7792952698
  0
LINE
  5
49B
100
AcDbEntity
  8
0
100
AcDbLine
 62
253
  6
CONTINUOUS
 10
-10.935
 20
43.285
 11
-10.935
 21
43.235
  0
LINE
  5
49C
100
AcDbEntity
  8
RACCORDO
100
AcDbLine
 62
253
  6
CONTINUOUS
 10
-10.935
 20
43.285
 11
-10.935
 21
43.235
  0
LINE
  5
49D
100
AcDbEntity
  8
0
100
AcDbLine
 62
253
  6
CONTINUOUS
 10
-10.935
 20
8.6690320816
 11
-10.935
 21
8.735
  0
LINE
  5
49E
100
AcDbEntity
  8
RACCORDO
100
AcDbLine
 62
253
  6
CONTINUOUS
 10
-10.935
 20
8.6690320816
 11
-10.935
 21
8.735
  0
LINE
  5
49F
100
AcDbEntity
  8
RACCORDO
100
AcDbLine
 62
7
  6
CONTINUOUS
 10
-10.7309955457
 20
7.785
 11
-10.7309955457
 21
7.685
  0
LINE
  5
4A0
100
AcDbEntity
  8
ASSI
100
AcDbLine
 62
7
  6
CONTINUOUS
 10
-10.7309955457
 20
7.785
 11
-10.7309955457
 21
7.685
  0
LINE
  5
4A1
100
AcDbEntity
  8
RACCORDO
100
AcDbLine
 62
7
  6
CONTINUOUS
 10
-10.6524106893
 20
44.285
 11
-10.6524106893
 21
44.185
  0
LINE
  5
4A2
100
AcDbEntity
  8
ASSI
100
AcDbLine
 62
7
  6
CONTINUOUS
 10
-10.6524106893
 20
44.285
 11
-10.6524106893
 21
44.185
  0
LINE
  5
4A3
100
AcDbEntity
  8
0
100
AcDbLine
 62
7
  6
CONTINUOUS
 10
-10.635
 20
7.785
 11
-10.635
 21
7.7519514111
  0
LINE
  5
4A4
100
AcDbEntity
  8
RACCORDO
100
AcDbLine
 62
7
  6
CONTINUOUS
 10
-10.635
 20
7.785
 11
-10.635
 21
7.7519514111
  0
LINE
  5
4A5
100
AcDbEntity
  8
0
100
AcDbLine
 62
7
  6
CONTINUOUS
 10
-10.535
 20
7.785
 11
-10.535
 21
7.752818798
  0
LINE
  5
4A6
100
AcDbEntity
  8
0
100
AcDbLine
 62
253
  6
CONTINUOUS
 10
-10.4885533906
 20
7.7524599833
 11
-10.4885533906
 21
7.685
  0
LINE
  5
4A7
100
AcDbEntity
  8
RACCORDO
100
AcDbLine
 62
253
  6
CONTINUOUS
 10
-10.4885533906
 20
7.7524599833
 11
-10.4885533906
 21
7.685
  0
LINE
  5
4A8
100
AcDbEntity
  8
0
100
AcDbLine
 62
7
  6
CONTINUOUS
 10
-10.135
 20
44.285
 11
-10.135
 21
42.585
  0
LINE
  5
4A9
100
AcDbEntity
  8
ASSI
100
AcDbLine
 62
7
  6
CONTINUOUS
 10
-10.135
 20
44.285
 11
-10.135
 21
42.585
  0
LINE
  5
4AA
100
AcDbEntity
  8
0
100
AcDbLine
 62
7
  6
CONTINUOUS
 10
-10.135
 20
9.385
 11
-10.135
 21
7.685
  0
LINE
  5
4AB
100
AcDbEntity
  8
ASSI
100
AcDbLine
 62
7
  6
CONTINUOUS
 10
-10.135
 20
9.385
 11
-10.135
 21
7.685
  0
LINE
  5
4AC
100
AcDbEntity
  8
0
100
AcDbLine
 62
7
  6
CONTINUOUS
 10
-11.6263260466
 20
3.5902042875
 11
-11.62643263
 21
2.1907047302
  0
LINE
  5
4AD
100
AcDbEntity
  8
0
100
AcDbLine
 62
253
  6
CONTINUOUS
 10
-11.1334757651
 20
6.1005133204
 11
-11.1340455737
 21
5.9153782482
  0
LWPOLYLINE
  5
4AE
100
AcDbEntity
  8
0
100
AcDbPolyline
 62
7
  6
CONTINUOUS
 90
9
 70
0
 10
-19.9029073742
 20
1.6420815507
 10
-19.8987492787
 20
1.6532300262
 10
-19.8951263583
 20
1.664563721
 10
-19.8920468183
 20
1.6760569612
 10
-19.8895176323
 20
1.6876837125
 10
-19.8875445259
 20
1.6994176339
 10
-19.8861319658
 20
1.7112321444
 10
-19.8852831502
 20
1.723100484
 10
-19.885
 20
1.7349957692
  0
LINE
  5
4AF
100
AcDbEntity
  8
CURVE
100
AcDbLine
 62
253
  6
CONTINUOUS
 10
-22.7492857254
 20
14.8064285493
 11
-22.5635714507
 21
14.8992856479
  0
LINE
  5
4B0
100
AcDbEntity
  8
CURVE
100
AcDbLine
 62
7
  6
CONTINUOUS
 10
-1.5380438239
 20
32.29044429
 11
-1.5377448325
 21
32.29044429
  0
LINE
  5
4B1
100
AcDbEntity
  8
CURVE
100
AcDbLine
 62
253
  6
CONTINUOUS
 10
-1.5824841558
 20
33.0802380657
 11
-1.5889664778
 21
33.0802380657
  0
LINE
  5
4B2
100
AcDbEntity
  8
CURVE
100
AcDbLine
 62
7
  6
CONTINUOUS
 10
-1.561662624
 20
33.2437313832
 11
-1.5418612758
 21
33.2437313832
  0
LINE
  5
4B3
100
AcDbEntity
  8
CURVE
100
AcDbLine
 62
7
  6
CONTINUOUS
 10
-1.53357451
 20
33.2638012718
 11
-1.5196843122
 21
33.2638012718
  0
LINE
  5
4B4
100
AcDbEntity
  8
CURVE
100
AcDbLine
 62
253
  6
CONTINUOUS
 10
-1.6019311231
 20
33.7302380657
 11
-1.5792429948
 21
33.7302380657
  0
LINE
  5
4B5
100
AcDbEntity
  8
CURVE
100
AcDbLine
 62
7
  6
CONTINUOUS
 10
-1.5116555593
 20
33.8465673444
 11
-1.561662624
 21
33.8465673444
  0
LWPOLYLINE
  5
4B6
100
AcDbEntity
  8
0
100
AcDbPolyline
 62
7
  6
CONTINUOUS
 90
18
 70
0
 10
-19.9029073742
 20
50.3279184493
 10
-19.9075912278
 20
50.3388564463
 10
-19.9127902312
 20
50.3495591876
 10
-19.9184926084
 20
50.3600024283
 10
-19.9246854419
 20
50.3701625059
 10
-19.9313547045
 20
50.3800164051
 10
-19.9384852893
 20
50.3895418038
 10
-19.9460610411
 20
50.3987171191
 10
-19.9540647995
 20
50.4075215661
 10
-19.9624784339
 20
50.4159352005
 10
-19.9712828809
 20
50.4239389589
 10
-19.9804581962
 20
50.4315147107
 10
-19.9899835949
 20
50.4386452955
 10
-19.9998374941
 20
50.4453145581
 10
-20.0099975717
 20
50.4515073916
 10
-20.0204408124
 20
50.4572097688
 10
-20.0311435537
 20
50.4624087722
 10
-20.0420815507
 20
50.4670926258
  0
LINE
  5
4B7
100
AcDbEntity
  8
0
100
AcDbLine
 62
7
  6
CONTINUOUS
 10
-9.6292966752
 20
3.6314637097
 11
-9.642854181
 21
5.185
  0
LINE
  5
4B8
100
AcDbEntity
  8
0
100
AcDbLine
 62
7
  6
CONTINUOUS
 10
-9.1001422837
 20
1.990701345
 11
-9.1144455369
 21
3.629691816
  0
LINE
  5
4B9
100
AcDbEntity
  8
DRAFT
100
AcDbLine
 62
7
  6
CONTINUOUS
 10
-9.1344592766
 20
5.9230392387
 11
-9.1348465654
 21
5.9674181344
  0
LINE
  5
4BA
100
AcDbEntity
  8
0
100
AcDbLine
 62
7
  6
CONTINUOUS
 10
-9.1716556363
 20
45.8483443637
 11
-9.1716556363
 21
45.6483443637
  0
LINE
  5
4BB
100
AcDbEntity
  8
DRAFT
100
AcDbLine
 62
7
  6
CONTINUOUS
 10
-9.1716556363
 20
45.8483443637
 11
-9.1716556363
 21
45.6483443637
  0
LINE
  5
4BC
100
AcDbEntity
  8
0
100
AcDbLine
 62
7
  6
CONTINUOUS
 10
-9.1716556363
 20
6.3216556363
 11
-9.1716556363
 21
6.1216556363
  0
LINE
  5
4BD
100
AcDbEntity
  8
DRAFT
100
AcDbLine
 62
7
  6
CONTINUOUS
 10
-9.1716556363
 20
6.3216556363
 11
-9.1716556363
 21
6.1216556363
  0
LINE
  5
4BE
100
AcDbEntity
  8
0
100
AcDbLine
 62
7
  6
CONTINUOUS
 10
-9.135
 20
45.885
 11
-9.135
 21
45.685
  0
LINE
  5
4BF
100
AcDbEntity
  8
DRAFT
100
AcDbLine
 62
7
  6
CONTINUOUS
 10
-9.135
 20
45.885
 11
-9.135
 21
45.685
  0
LINE
  5
4C0
100
AcDbEntity
  8
0
100
AcDbLine
 62
7
  6
CONTINUOUS
 10
-9.135
 20
6.285
 11
-9.135
 21
6.085
  0
LINE
  5
4C1
100
AcDbEntity
  8
DRAFT
100
AcDbLine
 62
7
  6
CONTINUOUS
 10
-9.135
 20
6.285
 11
-9.135
 21
6.085
  0
LINE
  5
4C2
100
AcDbEntity
  8
RACCORDO
100
AcDbLine
 62
7
  6
CONTINUOUS
 10
-8.6219096983
 20
45.2981017248
 11
-8.6219096983
 21
44.1980903017
  0
LINE
  5
4C3
100
AcDbEntity
  8
ASSI
100
AcDbLine
 62
7
  6
CONTINUOUS
 10
-8.6219096983
 20
45.2981017248
 11
-8.6219096983
 21
44.1980903017
  0
LINE
  5
4C4
100
AcDbEntity
  8
RACCORDO
100
AcDbLine
 62
7
  6
CONTINUOUS
 10
-8.6219096983
 20
6.6718982752
 11
-8.6219096983
 21
7.4719211214
  0
LINE
  5
4C5
100
AcDbEntity
  8
ASSI
100
AcDbLine
 62
7
  6
CONTINUOUS
 10
-8.6219096983
 20
6.6718982752
 11
-8.6219096983
 21
7.4719211214
  0
LINE
  5
4C6
100
AcDbEntity
  8
0
100
AcDbLine
 62
7
  6
CONTINUOUS
 10
-8.228922247
 20
49.9388922731
 11
-8.228922247
 21
48.341077753
  0
LINE
  5
4C7
100
AcDbEntity
  8
0
100
AcDbLine
 62
7
  6
CONTINUOUS
 10
-8.228922247
 20
3.628922247
 11
-8.228922247
 21
2.0311077269
  0
LINE
  5
4C8
100
AcDbEntity
  8
0
100
AcDbLine
 62
7
  6
CONTINUOUS
 10
-8.185
 20
1.985
 11
-8.185
 21
2.6170550528
  0
LINE
  5
4C9
100
AcDbEntity
  8
0
100
AcDbLine
 62
7
  6
CONTINUOUS
 10
-8.185
 20
3.0529449472
 11
-8.185
 21
3.585
  0
LINE
  5
4CA
100
AcDbEntity
  8
0
100
AcDbLine
 62
7
  6
CONTINUOUS
 10
-8.185
 20
48.385
 11
-8.185
 21
48.9170550528
  0
LINE
  5
4CB
100
AcDbEntity
  8
0
100
AcDbLine
 62
7
  6
CONTINUOUS
 10
-8.185
 20
49.3529449472
 11
-8.185
 21
49.985
  0
LINE
  5
4CC
100
AcDbEntity
  8
0
100
AcDbLine
 62
7
  6
CONTINUOUS
 10
-9.642854181
 20
46.785
 11
-9.6292966752
 21
48.3385362903
  0
LINE
  5
4CD
100
AcDbEntity
  8
DRAFT
100
AcDbLine
 62
7
  6
CONTINUOUS
 10
-9.1344592766
 20
46.0469607613
 11
-9.1348465654
 21
46.0025818656
  0
LINE
  5
4CE
100
AcDbEntity
  8
0
100
AcDbLine
 62
7
  6
CONTINUOUS
 10
-9.1144455369
 20
48.340308184
 11
-9.1001422837
 21
49.979298655
  0
LWPOLYLINE
  5
4CF
100
AcDbEntity
  8
0
100
AcDbPolyline
 62
253
  6
CONTINUOUS
 90
5
 70
0
 10
-14.6305473619
 20
8.481058718
 10
-14.6172464458
 20
8.5259370941
 10
-14.5953851756
 20
8.5682653304
 10
-14.565459935
 20
8.6067864217
 10
-14.5283221907
 20
8.6401858291
  0
LWPOLYLINE
  5
4D0
100
AcDbEntity
  8
RACCORDO
100
AcDbPolyline
 62
253
  6
CONTINUOUS
 90
5
 70
0
 10
-14.6305473619
 20
8.481058718
 10
-14.6172464458
 20
8.5259370941
 10
-14.5953851756
 20
8.5682653304
 10
-14.565459935
 20
8.6067864217
 10
-14.5283221907
 20
8.6401858291
  0
LINE
  5
4D1
100
AcDbEntity
  8
0
100
AcDbLine
 62
7
  6
CONTINUOUS
 10
-14.6255723476
 20
7.7533825015
 11
-14.616003484
 21
7.785
  0
LINE
  5
4D2
100
AcDbEntity
  8
RACCORDO
100
AcDbLine
 62
7
  6
CONTINUOUS
 10
-14.6255723476
 20
7.7533825015
 11
-14.616003484
 21
7.785
  0
LINE
  5
4D3
100
AcDbEntity
  8
SMUSSO
100
AcDbLine
 62
7
  6
CONTINUOUS
 10
-17.385
 20
14.735
 11
-16.885
 21
15.235
  0
LINE
  5
4D4
100
AcDbEntity
  8
ASSI
100
AcDbLine
 62
7
  6
CONTINUOUS
 10
-17.385
 20
14.735
 11
-16.885
 21
15.235
  0
LINE
  5
4D5
100
AcDbEntity
  8
SMUSSO
100
AcDbLine
 62
7
  6
CONTINUOUS
 10
-12.385
 20
19.235
 11
-12.885
 21
18.735
  0
LINE
  5
4D6
100
AcDbEntity
  8
ASSI
100
AcDbLine
 62
7
  6
CONTINUOUS
 10
-12.385
 20
19.235
 11
-12.885
 21
18.735
  0
LINE
  5
4D7
100
AcDbEntity
  8
CURVE
100
AcDbLine
 62
253
  6
CONTINUOUS
 10
-21.820714294
 20
14.3421429014
 11
-22.006428588
 21
14.2492856479
  0
LINE
  5
4D8
100
AcDbEntity
  8
CURVE
100
AcDbLine
 62
253
  6
CONTINUOUS
 10
-22.935
 20
15.2707141972
 11
-21.635
 21
15.6421429014
  0
LINE
  5
4D9
100
AcDbEntity
  8
CURVE
100
AcDbLine
 62
253
  6
CONTINUOUS
 10
-1.6019311231
 20
34.6588096714
 11
-1.5792429948
 21
34.6588096714
  0
LINE
  5
4DA
100
AcDbEntity
  8
CURVE
100
AcDbLine
 62
253
  6
CONTINUOUS
 10
-1.5792429948
 20
35.0302380657
 11
-1.6019311231
 21
35.0302380657
  0
LINE
  5
4DB
100
AcDbEntity
  8
CURVE
100
AcDbLine
 62
253
  6
CONTINUOUS
 10
-1.6019311231
 20
35.7730954742
 11
-1.5792429948
 21
35.7730954742
  0
LINE
  5
4DC
100
AcDbEntity
  8
CURVE
100
AcDbLine
 62
253
  6
CONTINUOUS
 10
-1.5792429948
 20
36.1445238686
 11
-1.6019311231
 21
36.1445238686
  0
LINE
  5
4DD
100
AcDbEntity
  8
0
100
AcDbLine
 62
253
  6
CONTINUOUS
 10
-14.6169077862
 20
43.4432263652
 11
-14.6304423259
 21
43.4884053045
  0
LINE
  5
4DE
100
AcDbEntity
  8
RACCORDO
100
AcDbLine
 62
253
  6
CONTINUOUS
 10
-14.6169077862
 20
43.4432263652
 11
-14.6304423259
 21
43.4884053045
  0
LWPOLYLINE
  5
4DF
100
AcDbEntity
  8
0
100
AcDbPolyline
 62
7
  6
CONTINUOUS
 90
6
 70
0
 10
-5.3824554741
 20
1.6994176339
 10
-5.3804823677
 20
1.6876837125
 10
-5.3779531817
 20
1.6760569612
 10
-5.3748736417
 20
1.664563721
 10
-5.3712507213
 20
1.6532300262
 10
-5.3670926258
 20
1.6420815507
  0
LINE
  5
4E0
100
AcDbEntity
  8
ASSI
100
AcDbLine
 62
7
  6
CONTINUOUS
 10
-7.935
 20
44.585
 11
-7.935
 21
44.1980903017
  0
LINE
  5
4E1
100
AcDbEntity
  8
ASSI
100
AcDbLine
 62
253
  6
CONTINUOUS
 10
-6.935
 20
44.585
 11
-6.935
 21
44.1980903017
  0
LWPOLYLINE
  5
4E2
100
AcDbEntity
  8
0
100
AcDbPolyline
 62
7
  6
CONTINUOUS
 90
5
 70
0
 10
-20.4526867079
 20
4.2876107378
 10
-20.4260378565
 20
4.3270080493
 10
-20.3990305237
 20
4.3667407984
 10
-20.3716647097
 20
4.4067308789
 10
-20.3438773055
 20
4.4468620395
  0
LWPOLYLINE
  5
4E3
100
AcDbEntity
  8
0
100
AcDbPolyline
 62
7
  6
CONTINUOUS
 90
4
 70
0
 10
-20.3438773055
 20
4.4468620395
 10
-20.2589952928
 20
4.5680034432
 10
-20.230405051
 20
4.6085341256
 10
-20.2016456542
 20
4.6490130513
  0
LINE
  5
4E4
100
AcDbEntity
  8
SMUSSO
100
AcDbLine
 62
7
  6
CONTINUOUS
 10
-17.385
 20
9.735
 11
-16.885
 21
10.235
  0
LINE
  5
4E5
100
AcDbEntity
  8
ASSI
100
AcDbLine
 62
7
  6
CONTINUOUS
 10
-17.385
 20
9.735
 11
-16.885
 21
10.235
  0
LINE
  5
4E6
100
AcDbEntity
  8
CURVE
100
AcDbLine
 62
253
  6
CONTINUOUS
 10
-1.6019311231
 20
36.8873806572
 11
-1.5792429948
 21
36.8873806572
  0
LINE
  5
4E7
100
AcDbEntity
  8
CURVE
100
AcDbLine
 62
253
  6
CONTINUOUS
 10
-1.6019311231
 20
37.4754761314
 11
-1.5792429948
 21
37.4754761314
  0
LWPOLYLINE
  5
4E8
100
AcDbEntity
  8
0
100
AcDbPolyline
 62
7
  6
CONTINUOUS
 90
3
 70
0
 10
-20.2016456542
 20
47.3209869487
 10
-20.230405051
 20
47.3614658744
 10
-20.2589952928
 20
47.4019965568
  0
LWPOLYLINE
  5
4E9
100
AcDbEntity
  8
0
100
AcDbPolyline
 62
7
  6
CONTINUOUS
 90
6
 70
0
 10
-20.2589952928
 20
47.4019965568
 10
-20.3438773055
 20
47.5231379605
 10
-20.3716647097
 20
47.5632691211
 10
-20.3990305237
 20
47.6032592016
 10
-20.4260378565
 20
47.6429919507
 10
-20.4526867079
 20
47.6823892622
  0
LWPOLYLINE
  5
4EA
100
AcDbEntity
  8
0
100
AcDbPolyline
 62
253
  6
CONTINUOUS
 90
34
 70
0
 10
-5.380628166
 20
49.8293375673
 10
-5.3803120388
 20
49.8190637895
 10
-5.3794331265
 20
49.8088108791
 10
-5.377993035
 20
49.7986019692
 10
-5.3759944691
 20
49.7884593699
 10
-5.3734416532
 20
49.7784067803
 10
-5.3703407331
 20
49.7684691596
 10
-5.3666990251
 20
49.7586697274
 10
-5.3625245197
 20
49.7490297916
 10
-5.3578265391
 20
49.7395709211
 10
-5.3526155825
 20
49.7303143541
 10
-5.3469034414
 20
49.7212811256
 10
-5.3407031091
 20
49.7124918143
 10
-5.3340286331
 20
49.7039663226
 10
-5.3268950353
 20
49.6957238287
 10
-5.3193184012
 20
49.6877829214
 10
-5.311315819
 20
49.6801615168
 10
-5.3029053607
 20
49.6728768325
 10
-5.2941060283
 20
49.6659453292
 10
-5.2849376914
 20
49.6593826581
 10
-5.2754210396
 20
49.6532036281
 10
-5.2655775546
 20
49.6474221869
 10
-5.2554294558
 20
49.6420513849
 10
-5.2449996509
 20
49.6371033459
 10
-5.2343116835
 20
49.6325892394
 10
-5.2233896669
 20
49.6285192505
 10
-5.2122582677
 20
49.6249025721
 10
-5.2009426533
 20
49.6217473785
 10
-5.1894683954
 20
49.6190607927
 10
-5.1778613697
 20
49.6168488662
 10
-5.166147736
 20
49.6151165815
 10
-5.1543539211
 20
49.6138678476
 10
-5.1425065605
 20
49.6131054856
 10
-5.1306323968
 20
49.6128312164
  0
LWPOLYLINE
  5
4EB
100
AcDbEntity
  8
0
100
AcDbPolyline
 62
7
  6
CONTINUOUS
 90
4
 70
0
 10
-5.385
 20
1.7349957692
 10
-5.3847168498
 20
1.723100484
 10
-5.3838680342
 20
1.7112321444
 10
-5.3824554741
 20
1.6994176339
  0
LWPOLYLINE
  5
4EC
100
AcDbEntity
  8
0
100
AcDbPolyline
 62
7
  6
CONTINUOUS
 90
34
 70
0
 10
-5.380628166
 20
1.7393676032
 10
-5.3803446152
 20
1.7274725817
 10
-5.3794954103
 20
1.715604505
 10
-5.3780824749
 20
1.7037902571
 10
-5.3761090096
 20
1.6920565999
 10
-5.3735794848
 20
1.6804301126
 10
-5.3704996304
 20
1.668937132
 10
-5.366876423
 20
1.6576036922
 10
-5.36271807
 20
1.646455466
 10
-5.3580339909
 20
1.6355177065
 10
-5.3528347962
 20
1.6248151904
 10
-5.3471322634
 20
1.6143721611
 10
-5.3409393098
 20
1.6042122745
 10
-5.334269964
 20
1.594358545
 10
-5.3271393334
 20
1.5848332936
 10
-5.3195635707
 20
1.5756580969
 10
-5.3115598365
 20
1.5668537389
 10
-5.3031462611
 20
1.5584401635
 10
-5.2943419031
 20
1.5504364293
 10
-5.2851667064
 20
1.5428606666
 10
-5.275641455
 20
1.535730036
 10
-5.2657877255
 20
1.5290606902
 10
-5.2556278389
 20
1.5228677366
 10
-5.2451848096
 20
1.5171652038
 10
-5.2344822935
 20
1.5119660091
 10
-5.223544534
 20
1.50728193
 10
-5.2123963078
 20
1.503123577
 10
-5.201062868
 20
1.4995003696
 10
-5.1895698874
 20
1.4964205152
 10
-5.1779434001
 20
1.4938909904
 10
-5.1662097429
 20
1.4919175251
 10
-5.154395495
 20
1.4905045897
 10
-5.1425274183
 20
1.4896553848
 10
-5.1306323968
 20
1.489371834
  0
LINE
  5
4ED
100
AcDbEntity
  8
0
100
AcDbLine
 62
253
  6
CONTINUOUS
 10
-5.380628166
 20
2.1406624327
 11
-5.385
 21
2.5745148518
  0
LINE
  5
4EE
100
AcDbEntity
  8
0
100
AcDbLine
 62
253
  6
CONTINUOUS
 10
-5.1306323968
 20
2.3571687836
 11
-5.1357229979
 21
2.8623502692
  0
LINE
  5
4EF
100
AcDbEntity
  8
DRAFT
100
AcDbLine
 62
7
  6
CONTINUOUS
 10
-6.1306365661
 20
5.9806365661
 11
-6.1306365661
 21
6.2806365661
  0
LINE
  5
4F0
100
AcDbEntity
  8
DRAFT
100
AcDbLine
 62
7
  6
CONTINUOUS
 10
-6.1306365661
 20
45.6893634339
 11
-6.1306365661
 21
45.9893634339
  0
LINE
  5
4F1
100
AcDbEntity
  8
DRAFT
100
AcDbLine
 62
7
  6
CONTINUOUS
 10
-6.0302775865
 20
5.8802775865
 11
-6.0302775865
 21
6.1802775865
  0
LINE
  5
4F2
100
AcDbEntity
  8
DRAFT
100
AcDbLine
 62
7
  6
CONTINUOUS
 10
-6.0302775865
 20
45.7897224135
 11
-6.0302775865
 21
46.0897224135
  0
LINE
  5
4F3
100
AcDbEntity
  8
DRAFT
100
AcDbLine
 62
7
  6
CONTINUOUS
 10
-5.4397224135
 20
4.9890044543
 11
-5.4397224135
 21
6.1802775865
  0
LINE
  5
4F4
100
AcDbEntity
  8
DRAFT
100
AcDbLine
 62
7
  6
CONTINUOUS
 10
-5.4397224135
 20
45.7897224135
 11
-5.4397224135
 21
46.9809955457
  0
LINE
  5
4F5
100
AcDbEntity
  8
0
100
AcDbLine
 62
7
  6
CONTINUOUS
 10
-5.385
 20
2.1406624327
 11
-5.385
 21
3.585
  0
LINE
  5
4F6
100
AcDbEntity
  8
0
100
AcDbLine
 62
7
  6
CONTINUOUS
 10
-5.385
 20
48.385
 11
-5.385
 21
49.8293375673
  0
LINE
  5
4F7
100
AcDbEntity
  8
0
100
AcDbLine
 62
7
  6
CONTINUOUS
 10
-5.380628166
 20
50.2306323968
 11
-5.380628166
 21
49.8293375673
  0
LINE
  5
4F8
100
AcDbEntity
  8
0
100
AcDbLine
 62
7
  6
CONTINUOUS
 10
-5.380628166
 20
2.1406624327
 11
-5.380628166
 21
1.7393676032
  0
LINE
  5
4F9
100
AcDbEntity
  8
DRAFT
100
AcDbLine
 62
7
  6
CONTINUOUS
 10
-5.3393634339
 20
6.2806365661
 11
-5.3393634339
 21
5.985
  0
LINE
  5
4FA
100
AcDbEntity
  8
DRAFT
100
AcDbLine
 62
7
  6
CONTINUOUS
 10
-5.3393634339
 20
45.6893634339
 11
-5.3393634339
 21
45.985
  0
LINE
  5
4FB
100
AcDbEntity
  8
DRAFT
100
AcDbLine
 62
7
  6
CONTINUOUS
 10
-5.335
 20
46.885
 11
-5.335
 21
45.985
  0
LINE
  5
4FC
100
AcDbEntity
  8
DRAFT
100
AcDbLine
 62
7
  6
CONTINUOUS
 10
-5.335
 20
5.985
 11
-5.335
 21
5.085
  0
LINE
  5
4FD
100
AcDbEntity
  8
0
100
AcDbLine
 62
7
  6
CONTINUOUS
 10
-5.235
 20
46.835
 11
-5.235
 21
45.685
  0
LINE
  5
4FE
100
AcDbEntity
  8
DRAFT
100
AcDbLine
 62
7
  6
CONTINUOUS
 10
-5.235
 20
46.835
 11
-5.235
 21
45.685
  0
LINE
  5
4FF
100
AcDbEntity
  8
0
100
AcDbLine
 62
7
  6
CONTINUOUS
 10
-5.235
 20
6.285
 11
-5.235
 21
5.135
  0
LINE
  5
500
100
AcDbEntity
  8
DRAFT
100
AcDbLine
 62
7
  6
CONTINUOUS
 10
-5.235
 20
6.285
 11
-5.235
 21
5.135
  0
LINE
  5
501
100
AcDbEntity
  8
0
100
AcDbLine
 62
7
  6
CONTINUOUS
 10
-5.1983443637
 20
45.6483443637
 11
-5.1983443637
 21
44.585
  0
LINE
  5
502
100
AcDbEntity
  8
DRAFT
100
AcDbLine
 62
7
  6
CONTINUOUS
 10
-5.1983443637
 20
45.6483443637
 11
-5.1983443637
 21
44.585
  0
LINE
  5
503
100
AcDbEntity
  8
0
100
AcDbLine
 62
7
  6
CONTINUOUS
 10
-5.1983443637
 20
6.3216556363
 11
-5.1983443637
 21
7.7188305324
  0
LINE
  5
504
100
AcDbEntity
  8
DRAFT
100
AcDbLine
 62
7
  6
CONTINUOUS
 10
-5.1983443637
 20
6.3216556363
 11
-5.1983443637
 21
7.7188305324
  0
LINE
  5
505
100
AcDbEntity
  8
0
100
AcDbLine
 62
7
  6
CONTINUOUS
 10
-5.1808892987
 20
46.835
 11
-5.1808892987
 21
44.585
  0
LINE
  5
506
100
AcDbEntity
  8
DRAFT
100
AcDbLine
 62
7
  6
CONTINUOUS
 10
-5.1808892987
 20
46.835
 11
-5.1808892987
 21
44.585
  0
LINE
  5
507
100
AcDbEntity
  8
0
100
AcDbLine
 62
7
  6
CONTINUOUS
 10
-5.1808892987
 20
7.7275574002
 11
-5.1808892987
 21
5.135
  0
LINE
  5
508
100
AcDbEntity
  8
DRAFT
100
AcDbLine
 62
7
  6
CONTINUOUS
 10
-5.1808892987
 20
7.7275574002
 11
-5.1808892987
 21
5.135
  0
LINE
  5
509
100
AcDbEntity
  8
0
100
AcDbLine
 62
253
  6
CONTINUOUS
 10
-5.1306323968
 20
1.489371834
 11
-5.1306323968
 21
2.3571687836
  0
LINE
  5
50A
100
AcDbEntity
  8
0
100
AcDbLine
 62
253
  6
CONTINUOUS
 10
-5.1306323968
 20
49.6128312164
 11
-5.1306323968
 21
50.480628166
  0
LINE
  5
50B
100
AcDbEntity
  8
0
100
AcDbLine
 62
253
  6
CONTINUOUS
 10
-5.0683543458
 20
4.6490130513
 11
-5.0683543458
 21
4.9890044543
  0
LINE
  5
50C
100
AcDbEntity
  8
0
100
AcDbLine
 62
253
  6
CONTINUOUS
 10
-5.0683543458
 20
46.9809955457
 11
-5.0683543458
 21
47.3209869487
  0
LINE
  5
50D
100
AcDbEntity
  8
0
100
AcDbLine
 62
7
  6
CONTINUOUS
 10
-4.5684304982
 20
4.4015695018
 11
-4.5684304982
 21
4.4139111566
  0
LINE
  5
50E
100
AcDbEntity
  8
0
100
AcDbLine
 62
7
  6
CONTINUOUS
 10
-4.5684304982
 20
5.0762731322
 11
-4.5684304982
 21
5.085
  0
LINE
  5
50F
100
AcDbEntity
  8
0
100
AcDbLine
 62
253
  6
CONTINUOUS
 10
-4.5684304982
 20
4.5312645729
 11
-4.5684304982
 21
4.9932917358
  0
LINE
  5
510
100
AcDbEntity
  8
0
100
AcDbLine
 62
7
  6
CONTINUOUS
 10
-4.5684304982
 20
46.885
 11
-4.5684304982
 21
46.8937268678
  0
LINE
  5
511
100
AcDbEntity
  8
0
100
AcDbLine
 62
7
  6
CONTINUOUS
 10
-4.5684304982
 20
47.5560888434
 11
-4.5684304982
 21
47.5684304982
  0
LINE
  5
512
100
AcDbEntity
  8
0
100
AcDbLine
 62
253
  6
CONTINUOUS
 10
-4.5684304982
 20
46.9767082642
 11
-4.5684304982
 21
47.4387354271
  0
LINE
  5
513
100
AcDbEntity
  8
0
100
AcDbLine
 62
7
  6
CONTINUOUS
 10
-4.4024550649
 20
47.3901134101
 11
-4.4024550649
 21
46.8937268678
  0
LINE
  5
514
100
AcDbEntity
  8
0
100
AcDbLine
 62
7
  6
CONTINUOUS
 10
-4.4024550649
 20
5.0762731322
 11
-4.4024550649
 21
4.5798865899
  0
LINE
  5
515
100
AcDbEntity
  8
0
100
AcDbLine
 62
253
  6
CONTINUOUS
 10
-5.385
 20
49.3954851482
 11
-5.380628166
 21
49.8293375673
  0
LINE
  5
516
100
AcDbEntity
  8
0
100
AcDbLine
 62
253
  6
CONTINUOUS
 10
-5.1357229979
 20
49.1076497308
 11
-5.1306323968
 21
49.6128312164
  0
LWPOLYLINE
  5
517
100
AcDbEntity
  8
0
100
AcDbPolyline
 62
253
  6
CONTINUOUS
 90
34
 70
0
 10
-5.380628166
 20
2.1406624327
 10
-5.3803115153
 20
2.1509452002
 10
-5.3794313535
 20
2.1612047602
 10
-5.3779896672
 20
2.1714179573
 10
-5.3759897102
 20
2.181561741
 10
-5.3734359962
 20
2.1916132174
 10
-5.3703342888
 20
2.2015497009
 10
-5.3666915884
 20
2.2113487654
 10
-5.3625161163
 20
2.220988295
 10
-5.3578172964
 20
2.2304465339
 10
-5.3526057336
 20
2.2397021354
 10
-5.3468931901
 20
2.2487342102
 10
-5.3406925587
 20
2.2575223733
 10
-5.3340178339
 20
2.2660467904
 10
-5.3268840803
 20
2.2742882225
 10
-5.3193073982
 20
2.282228069
 10
-5.3113048877
 20
2.2898484103
 10
-5.3028946101
 20
2.2971320476
 10
-5.2940955469
 20
2.3040625422
 10
-5.284927557
 20
2.3106242524
 10
-5.275411332
 20
2.3168023689
 10
-5.2655683495
 20
2.3225829479
 10
-5.2554208246
 20
2.3279529431
 10
-5.2449916595
 20
2.3329002346
 10
-5.2343043923
 20
2.3374136568
 10
-5.2233831436
 20
2.3414830231
 10
-5.2122525619
 20
2.3450991491
 10
-5.2009377683
 20
2.3482538736
 10
-5.1894642997
 20
2.3509400765
 10
-5.1778580509
 20
2.3531516951
 10
-5.1661452166
 20
2.354883738
 10
-5.154352232
 20
2.3561322961
 10
-5.1425057131
 20
2.3568945514
 10
-5.1306323968
 20
2.3571687836
  0
LINE
  5
518
100
AcDbEntity
  8
CURVE
100
AcDbLine
 62
7
  6
CONTINUOUS
 10
-1.5616626179
 20
37.096193
 11
-1.5287606637
 21
37.220548
  0
LINE
  5
519
100
AcDbEntity
  8
SMUSSO
100
AcDbLine
 62
7
  6
CONTINUOUS
 10
-12.385
 20
14.235
 11
-12.885
 21
13.735
  0
LINE
  5
51A
100
AcDbEntity
  8
ASSI
100
AcDbLine
 62
7
  6
CONTINUOUS
 10
-12.385
 20
14.235
 11
-12.885
 21
13.735
  0
LINE
  5
51B
100
AcDbEntity
  8
DRAFT
100
AcDbLine
 62
7
  6
CONTINUOUS
 10
-19.2397224135
 20
6.1802775865
 11
-19.1393634339
 21
6.2806365661
  0
LINE
  5
51C
100
AcDbEntity
  8
DRAFT
100
AcDbLine
 62
7
  6
CONTINUOUS
 10
-19.2397224135
 20
5.8802775865
 11
-19.1393634339
 21
5.9806365661
  0
LINE
  5
51D
100
AcDbEntity
  8
CURVE
100
AcDbLine
 62
253
  6
CONTINUOUS
 10
-1.5824841558
 20
38.2492858028
 11
-1.5986899618
 21
38.2492858028
  0
LINE
  5
51E
100
AcDbEntity
  8
CURVE
100
AcDbLine
 62
253
  6
CONTINUOUS
 10
-1.6019311231
 20
38.8992858028
 11
-1.5792429948
 21
38.8992858028
  0
LINE
  5
51F
100
AcDbEntity
  8
CURVE
100
AcDbLine
 62
7
  6
CONTINUOUS
 10
-1.5616626179
 20
39.770664
 11
-1.5110613665
 21
39.770664
  0
LINE
  5
520
100
AcDbEntity
  8
DRAFT
100
AcDbLine
 62
7
  6
CONTINUOUS
 10
-19.2397224135
 20
45.7897224135
 11
-19.1393634339
 21
45.6893634339
  0
LINE
  5
521
100
AcDbEntity
  8
DRAFT
100
AcDbLine
 62
7
  6
CONTINUOUS
 10
-19.2397224135
 20
46.0897224135
 11
-19.1393634339
 21
45.9893634339
  0
LWPOLYLINE
  5
522
100
AcDbEntity
  8
CURVE
100
AcDbPolyline
 62
7
  6
CONTINUOUS
 90
16
 70
0
 10
-1.5452533155
 20
11.9041138759
 10
-1.5446772017
 20
11.8950829428
 10
-1.5440982211
 20
11.8866813771
 10
-1.5435167716
 20
11.8789082088
 10
-1.5429332513
 20
11.871762468
 10
-1.5423480585
 20
11.8652431847
 10
-1.5417615912
 20
11.8593493889
 10
-1.5411742475
 20
11.8540801108
 10
-1.5405864255
 20
11.8494343803
 10
-1.5399985235
 20
11.8454112275
 10
-1.5394109394
 20
11.8420096824
 10
-1.5388240714
 20
11.8392287751
 10
-1.5382383176
 20
11.8370675357
 10
-1.5376540762
 20
11.8355249941
 10
-1.5370717452
 20
11.8346001804
 10
-1.5364917227
 20
11.8342921248
  0
LWPOLYLINE
  5
523
100
AcDbEntity
  8
CURVE
100
AcDbPolyline
 62
7
  6
CONTINUOUS
 90
17
 70
0
 10
-1.5271571591
 20
14.5431918071
 10
-1.5277300149
 20
14.5528533338
 10
-1.5283061362
 20
14.5618844864
 10
-1.5288851248
 20
14.5702862375
 10
-1.5294665826
 20
14.5780595601
 10
-1.5300501112
 20
14.5852054268
 10
-1.5306353126
 20
14.5917248103
 10
-1.5312217885
 20
14.5976186835
 10
-1.5318091407
 20
14.602888019
 10
-1.532396971
 20
14.6075337897
 10
-1.5329848813
 20
14.6115569683
 10
-1.5335724733
 20
14.6149585274
 10
-1.5341593489
 20
14.61773944
 10
-1.5347451098
 20
14.6199006786
 10
-1.5353293579
 20
14.6214432162
 10
-1.5359116949
 20
14.6223680254
 10
-1.5364917227
 20
14.6226760789
  0
LINE
  5
524
100
AcDbEntity
  8
CURVE
100
AcDbLine
 62
7
  6
CONTINUOUS
 10
-1.5463953496
 20
11.924067724
 11
-1.5452533155
 21
11.9041138759
  0
LWPOLYLINE
  5
525
100
AcDbEntity
  8
CURVE
100
AcDbPolyline
 62
7
  6
CONTINUOUS
 90
3
 70
0
 10
-1.5437130351
 20
12.413672434
 10
-1.5445831191
 20
12.4297880055
 10
-1.5450128967
 20
12.4386336599
  0
LWPOLYLINE
  5
526
100
AcDbEntity
  8
CURVE
100
AcDbPolyline
 62
7
  6
CONTINUOUS
 90
3
 70
0
 10
-1.5480769456
 20
11.9587430002
 10
-1.5475211384
 20
11.9465506809
 10
-1.5463953496
 20
11.924067724
  0
LINE
  5
527
100
AcDbEntity
  8
CURVE
100
AcDbLine
 62
253
  6
CONTINUOUS
 10
-1.5924569592
 20
8.849285326
 11
-1.5971940412
 21
8.985
  0
LWPOLYLINE
  5
528
100
AcDbEntity
  8
0
100
AcDbPolyline
 62
253
  6
CONTINUOUS
 90
34
 70
0
 10
-2.489371834
 20
2.1406624327
 10
-2.4896884847
 20
2.1509452002
 10
-2.4905686465
 20
2.1612047602
 10
-2.4920103328
 20
2.1714179573
 10
-2.4940102898
 20
2.181561741
 10
-2.4965640038
 20
2.1916132174
 10
-2.4996657112
 20
2.2015497009
 10
-2.5033084116
 20
2.2113487654
 10
-2.5074838837
 20
2.220988295
 10
-2.5121827036
 20
2.2304465339
 10
-2.5173942664
 20
2.2397021354
 10
-2.5231068099
 20
2.2487342102
 10
-2.5293074413
 20
2.2575223733
 10
-2.5359821661
 20
2.2660467904
 10
-2.5431159197
 20
2.2742882225
 10
-2.5506926018
 20
2.282228069
 10
-2.5586951123
 20
2.2898484103
 10
-2.5671053899
 20
2.2971320476
 10
-2.5759044531
 20
2.3040625422
 10
-2.585072443
 20
2.3106242524
 10
-2.594588668
 20
2.3168023689
 10
-2.6044316505
 20
2.3225829479
 10
-2.6145791754
 20
2.3279529431
 10
-2.6250083405
 20
2.3329002346
 10
-2.6356956077
 20
2.3374136568
 10
-2.6466168564
 20
2.3414830231
 10
-2.6577474381
 20
2.3450991491
 10
-2.6690622317
 20
2.3482538736
 10
-2.6805357003
 20
2.3509400765
 10
-2.6921419491
 20
2.3531516951
 10
-2.7038547834
 20
2.354883738
 10
-2.715647768
 20
2.3561322961
 10
-2.7274942869
 20
2.3568945514
 10
-2.7393676032
 20
2.3571687836
  0
LINE
  5
529
100
AcDbEntity
  8
0
100
AcDbLine
 62
253
  6
CONTINUOUS
 10
-2.7393676032
 20
49.6128312164
 11
-2.7342770021
 21
49.1076497308
  0
LINE
  5
52A
100
AcDbEntity
  8
0
100
AcDbLine
 62
253
  6
CONTINUOUS
 10
-2.489371834
 20
49.8293375673
 11
-2.485
 21
49.3954851482
  0
LINE
  5
52B
100
AcDbEntity
  8
0
100
AcDbLine
 62
7
  6
CONTINUOUS
 10
-4.035
 20
5.135
 11
-4.035
 21
7.7275574002
  0
LINE
  5
52C
100
AcDbEntity
  8
DRAFT
100
AcDbLine
 62
7
  6
CONTINUOUS
 10
-4.035
 20
5.135
 11
-4.035
 21
7.7275574002
  0
LINE
  5
52D
100
AcDbEntity
  8
0
100
AcDbLine
 62
7
  6
CONTINUOUS
 10
-4.035
 20
44.585
 11
-4.035
 21
46.835
  0
LINE
  5
52E
100
AcDbEntity
  8
DRAFT
100
AcDbLine
 62
7
  6
CONTINUOUS
 10
-4.035
 20
44.585
 11
-4.035
 21
46.835
  0
LINE
  5
52F
100
AcDbEntity
  8
0
100
AcDbLine
 62
253
  6
CONTINUOUS
 10
-3.435
 20
44.585
 11
-3.435
 21
44.1980903017
  0
LINE
  5
530
100
AcDbEntity
  8
ASSI
100
AcDbLine
 62
7
  6
CONTINUOUS
 10
-2.835
 20
29.135
 11
-2.835
 21
24.835
  0
LINE
  5
531
100
AcDbEntity
  8
ASSI
100
AcDbLine
 62
7
  6
CONTINUOUS
 10
-2.835
 20
24.135
 11
-2.835
 21
19.835
  0
LINE
  5
532
100
AcDbEntity
  8
ASSI
100
AcDbLine
 62
7
  6
CONTINUOUS
 10
-2.835
 20
19.135
 11
-2.835
 21
14.835
  0
LINE
  5
533
100
AcDbEntity
  8
ASSI
100
AcDbLine
 62
7
  6
CONTINUOUS
 10
-2.835
 20
14.135
 11
-2.835
 21
9.835
  0
LINE
  5
534
100
AcDbEntity
  8
0
100
AcDbLine
 62
253
  6
CONTINUOUS
 10
-2.7393676032
 20
1.489371834
 11
-2.7393676032
 21
2.3571687836
  0
LINE
  5
535
100
AcDbEntity
  8
0
100
AcDbLine
 62
253
  6
CONTINUOUS
 10
-2.7393676032
 20
49.6128312164
 11
-2.7393676032
 21
50.480628166
  0
LINE
  5
536
100
AcDbEntity
  8
0
100
AcDbLine
 62
7
  6
CONTINUOUS
 10
-2.489371834
 20
1.7393676032
 11
-2.489371834
 21
2.1406624327
  0
LINE
  5
537
100
AcDbEntity
  8
0
100
AcDbLine
 62
7
  6
CONTINUOUS
 10
-2.489371834
 20
49.8293375673
 11
-2.489371834
 21
50.2306323968
  0
LINE
  5
538
100
AcDbEntity
  8
0
100
AcDbLine
 62
7
  6
CONTINUOUS
 10
-2.485
 20
2.1406624327
 11
-2.485
 21
3.585
  0
LINE
  5
539
100
AcDbEntity
  8
0
100
AcDbLine
 62
7
  6
CONTINUOUS
 10
-2.485
 20
48.385
 11
-2.485
 21
49.8293375673
  0
LINE
  5
53A
100
AcDbEntity
  8
0
100
AcDbLine
 62
253
  6
CONTINUOUS
 10
-2.7342770021
 20
2.8623502692
 11
-2.7393676032
 21
2.3571687836
  0
LINE
  5
53B
100
AcDbEntity
  8
0
100
AcDbLine
 62
253
  6
CONTINUOUS
 10
-2.485
 20
2.5745148518
 11
-2.489371834
 21
2.1406624327
  0
LWPOLYLINE
  5
53C
100
AcDbEntity
  8
0
100
AcDbPolyline
 62
253
  6
CONTINUOUS
 90
34
 70
0
 10
-2.489371834
 20
49.8293375673
 10
-2.489688496
 20
49.8190546062
 10
-2.4905686902
 20
49.808794854
 10
-2.4920104301
 20
49.7985814673
 10
-2.4940104602
 20
49.7884375035
 10
-2.4965642671
 20
49.7783858521
 10
-2.4996660925
 20
49.7684491834
 10
-2.5033089432
 20
49.758649913
 10
-2.5074845961
 20
49.7490101717
 10
-2.5121836184
 20
49.7395517387
 10
-2.5173953985
 20
49.7302959695
 10
-2.5231081761
 20
49.7212637463
 10
-2.5293090593
 20
49.7124754512
 10
-2.5359840529
 20
49.7039509186
 10
-2.5431180905
 20
49.6957093898
 10
-2.55069507
 20
49.6877694659
 10
-2.5586978896
 20
49.6801490678
 10
-2.5671084867
 20
49.6728653946
 10
-2.5759078793
 20
49.665934885
 10
-2.5850762052
 20
49.6593731824
 10
-2.5945927726
 20
49.6531950956
 10
-2.6044361088
 20
49.6474145653
 10
-2.6145840102
 20
49.6420446328
 10
-2.6250135611
 20
49.6370974265
 10
-2.6357011887
 20
49.6325841265
 10
-2.6466227486
 20
49.6285149235
 10
-2.6577536084
 20
49.6248989896
 10
-2.6690686719
 20
49.6217444758
 10
-2.680542694
 20
49.6190584395
 10
-2.6921494913
 20
49.6168470295
 10
-2.7038620003
 20
49.615115347
 10
-2.7156534772
 20
49.6138672183
 10
-2.727497588
 20
49.6131053043
 10
-2.7393676032
 20
49.6128312164
  0
LINE
  5
53D
100
AcDbEntity
  8
CURVE
100
AcDbLine
 62
7
  6
CONTINUOUS
 10
-1.5616626179
 20
42.066013
 11
-1.5110644027
 21
42.98526
  0
LINE
  5
53E
100
AcDbEntity
  8
CURVE
100
AcDbLine
 62
7
  6
CONTINUOUS
 10
-1.5110644027
 20
42.327748
 11
-1.5458927219
 21
41.775021
  0
LINE
  5
53F
100
AcDbEntity
  8
CURVE
100
AcDbLine
 62
7
  6
CONTINUOUS
 10
-1.5110644027
 20
36.775227
 11
-1.5616626179
 21
36.504077
  0
LWPOLYLINE
  5
540
100
AcDbEntity
  8
RACCORDO
100
AcDbPolyline
 62
253
  6
CONTINUOUS
 90
4
 70
0
 10
-1.9764640455
 20
29.135
 10
-1.9779835292
 20
29.1296495539
 10
-1.979478566
 20
29.1136599447
 10
-1.9809491559
 20
29.0871628602
  0
LWPOLYLINE
  5
541
100
AcDbEntity
  8
ASSI
100
AcDbPolyline
 62
253
  6
CONTINUOUS
 90
4
 70
0
 10
-1.9764640455
 20
29.135
 10
-1.9779835292
 20
29.1296495539
 10
-1.979478566
 20
29.1136599447
 10
-1.9809491559
 20
29.0871628602
  0
LINE
  5
542
100
AcDbEntity
  8
0
100
AcDbLine
 62
7
  6
CONTINUOUS
 10
-16.135
 20
6.285
 11
-16.0983443637
 21
6.3216556363
  0
LINE
  5
543
100
AcDbEntity
  8
DRAFT
100
AcDbLine
 62
7
  6
CONTINUOUS
 10
-16.135
 20
6.285
 11
-16.0983443637
 21
6.3216556363
  0
LINE
  5
544
100
AcDbEntity
  8
0
100
AcDbLine
 62
7
  6
CONTINUOUS
 10
-16.0983443637
 20
6.1216556363
 11
-16.135
 21
6.085
  0
LINE
  5
545
100
AcDbEntity
  8
DRAFT
100
AcDbLine
 62
7
  6
CONTINUOUS
 10
-16.0983443637
 20
6.1216556363
 11
-16.135
 21
6.085
  0
LINE
  5
546
100
AcDbEntity
  8
0
100
AcDbLine
 62
7
  6
CONTINUOUS
 10
-19.8255416262
 20
3.6490299745
 11
-19.8908178298
 21
3.5908178298
  0
LINE
  5
547
100
AcDbEntity
  8
0
100
AcDbLine
 62
253
  6
CONTINUOUS
 10
-23.785
 20
4.084983077
 11
-23.7762731322
 21
4.0908009068
  0
LINE
  5
548
100
AcDbEntity
  8
0
100
AcDbLine
 62
253
  6
CONTINUOUS
 10
-23.2850063461
 20
3.585
 11
-23.2762794783
 21
3.5908178298
  0
LINE
  5
549
100
AcDbEntity
  8
0
100
AcDbLine
 62
253
  6
CONTINUOUS
 10
-23.785
 20
8.3133009513
 11
-23.6628145455
 21
8.3639118237
  0
LINE
  5
54A
100
AcDbEntity
  8
RACCORDO
100
AcDbLine
 62
253
  6
CONTINUOUS
 10
-23.785
 20
8.3133009513
 11
-23.6628145455
 21
8.3639118237
  0
LINE
  5
54B
100
AcDbEntity
  8
0
100
AcDbLine
 62
253
  6
CONTINUOUS
 10
-23.1993027805
 20
6.8993027805
 11
-23.077117326
 21
6.9499136529
  0
LINE
  5
54C
100
AcDbEntity
  8
RACCORDO
100
AcDbLine
 62
253
  6
CONTINUOUS
 10
-23.1993027805
 20
6.8993027805
 11
-23.077117326
 21
6.9499136529
  0
LWPOLYLINE
  5
54D
100
AcDbEntity
  8
0
100
AcDbPolyline
 62
253
  6
CONTINUOUS
 90
3
 70
0
 10
-10.8322480634
 20
43.2829015438
 10
-10.8828575347
 20
43.270755926
 10
-10.935
 20
43.2666718427
  0
LWPOLYLINE
  5
54E
100
AcDbEntity
  8
RACCORDO
100
AcDbPolyline
 62
253
  6
CONTINUOUS
 90
3
 70
0
 10
-10.8322480634
 20
43.2829015438
 10
-10.8828575347
 20
43.270755926
 10
-10.935
 20
43.2666718427
  0
LINE
  5
54F
100
AcDbEntity
  8
CURVE
100
AcDbLine
 62
253
  6
CONTINUOUS
 10
-1.5938282199
 20
40.2921429014
 11
-1.5986899618
 21
40.2921429014
  0
LINE
  5
550
100
AcDbEntity
  8
CURVE
100
AcDbLine
 62
7
  6
CONTINUOUS
 10
-1.5110613665
 20
40.375935
 11
-1.5616626179
 21
40.375935
  0
LINE
  5
551
100
AcDbEntity
  8
CURVE
100
AcDbLine
 62
253
  6
CONTINUOUS
 10
-1.5824841558
 20
40.385
 11
-1.5873458979
 21
40.385
  0
LINE
  5
552
100
AcDbEntity
  8
CURVE
100
AcDbLine
 62
253
  6
CONTINUOUS
 10
-1.6019311231
 20
40.9421429014
 11
-1.5792429948
 21
40.9421429014
  0
LINE
  5
553
100
AcDbEntity
  8
CURVE
100
AcDbLine
 62
253
  6
CONTINUOUS
 10
-1.5889664778
 20
41.3135714507
 11
-1.6019311231
 21
41.3135714507
  0
LINE
  5
554
100
AcDbEntity
  8
CURVE
100
AcDbLine
 62
253
  6
CONTINUOUS
 10
-1.5986899618
 20
41.9635714507
 11
-1.5824841558
 21
41.9635714507
  0
LINE
  5
555
100
AcDbEntity
  8
0
100
AcDbLine
 62
253
  6
CONTINUOUS
 10
-23.6628145455
 20
43.6060881763
 11
-23.785
 21
43.6566990487
  0
LINE
  5
556
100
AcDbEntity
  8
RACCORDO
100
AcDbLine
 62
253
  6
CONTINUOUS
 10
-23.6628145455
 20
43.6060881763
 11
-23.785
 21
43.6566990487
  0
LINE
  5
557
100
AcDbEntity
  8
0
100
AcDbLine
 62
253
  6
CONTINUOUS
 10
-23.077117326
 20
45.0200863471
 11
-23.1993027805
 21
45.0706972195
  0
LINE
  5
558
100
AcDbEntity
  8
RACCORDO
100
AcDbLine
 62
253
  6
CONTINUOUS
 10
-23.077117326
 20
45.0200863471
 11
-23.1993027805
 21
45.0706972195
  0
LINE
  5
559
100
AcDbEntity
  8
0
100
AcDbLine
 62
253
  6
CONTINUOUS
 10
-23.7762731322
 20
47.8791990932
 11
-23.785
 21
47.885016923
  0
LINE
  5
55A
100
AcDbEntity
  8
0
100
AcDbLine
 62
253
  6
CONTINUOUS
 10
-23.2762794783
 20
48.3791821702
 11
-23.2850063461
 21
48.385
  0
LINE
  5
55B
100
AcDbEntity
  8
0
100
AcDbLine
 62
7
  6
CONTINUOUS
 10
-19.8255416262
 20
48.3209700255
 11
-19.8908178298
 21
48.3791821702
  0
LWPOLYLINE
  5
55C
100
AcDbEntity
  8
0
100
AcDbPolyline
 62
253
  6
CONTINUOUS
 90
4
 70
0
 10
-14.5278362829
 20
43.3294487062
 10
-14.5648133329
 20
43.3625219852
 10
-14.5948076211
 20
43.4008359214
 10
-14.6169077862
 20
43.4432263652
  0
LWPOLYLINE
  5
55D
100
AcDbEntity
  8
RACCORDO
100
AcDbPolyline
 62
253
  6
CONTINUOUS
 90
4
 70
0
 10
-14.5278362829
 20
43.3294487062
 10
-14.5648133329
 20
43.3625219852
 10
-14.5948076211
 20
43.4008359214
 10
-14.6169077862
 20
43.4432263652
  0
LINE
  5
55E
100
AcDbEntity
  8
0
100
AcDbLine
 62
7
  6
CONTINUOUS
 10
-16.135
 20
45.685
 11
-16.0983443637
 21
45.6483443637
  0
LINE
  5
55F
100
AcDbEntity
  8
DRAFT
100
AcDbLine
 62
7
  6
CONTINUOUS
 10
-16.135
 20
45.685
 11
-16.0983443637
 21
45.6483443637
  0
LINE
  5
560
100
AcDbEntity
  8
0
100
AcDbLine
 62
7
  6
CONTINUOUS
 10
-16.135
 20
45.885
 11
-16.0983443637
 21
45.8483443637
  0
LINE
  5
561
100
AcDbEntity
  8
DRAFT
100
AcDbLine
 62
7
  6
CONTINUOUS
 10
-16.135
 20
45.885
 11
-16.0983443637
 21
45.8483443637
  0
LINE
  5
562
100
AcDbEntity
  8
CURVE
100
AcDbLine
 62
253
  6
CONTINUOUS
 10
-1.5425929412
 20
26.9264285609
 11
-1.5199048129
 21
26.5735713655
  0
LINE
  5
563
100
AcDbEntity
  8
CURVE
100
AcDbLine
 62
7
  6
CONTINUOUS
 10
-1.5249675072
 20
35.218126
 11
-1.5437451465
 21
35.5195
  0
LINE
  5
564
100
AcDbEntity
  8
CURVE
100
AcDbLine
 62
7
  6
CONTINUOUS
 10
-1.5458927219
 20
41.775021
 11
-1.5110644027
 21
41.20541
  0
LINE
  5
565
100
AcDbEntity
  8
CURVE
100
AcDbLine
 62
253
  6
CONTINUOUS
 10
-1.6019311231
 20
26.4826190478
 11
-1.5792429948
 21
26.1111904985
  0
LINE
  5
566
100
AcDbEntity
  8
CURVE
100
AcDbLine
 62
7
  6
CONTINUOUS
 10
-1.5515614123
 20
35.643312
 11
-1.5616626179
 21
35.810329
  0
LINE
  5
567
100
AcDbEntity
  8
CURVE
100
AcDbLine
 62
7
  6
CONTINUOUS
 10
-1.5616626179
 20
36.409033
 11
-1.5110644027
 21
35.499517
  0
LINE
  5
568
100
AcDbEntity
  8
CURVE
100
AcDbLine
 62
7
  6
CONTINUOUS
 10
-1.5110644027
 20
40.600552
 11
-1.5616626179
 21
41.532617
  0
LINE
  5
569
100
AcDbEntity
  8
CURVE
100
AcDbLine
 62
7
  6
CONTINUOUS
 10
-1.5260228367
 20
14.5219737404
 11
-1.5271571591
 21
14.5431918071
  0
LINE
  5
56A
100
AcDbEntity
  8
CURVE
100
AcDbLine
 62
7
  6
CONTINUOUS
 10
-1.5288433727
 20
14.0354978403
 11
-1.5279802006
 21
14.0183333013
  0
LWPOLYLINE
  5
56B
100
AcDbEntity
  8
CURVE
100
AcDbPolyline
 62
7
  6
CONTINUOUS
 90
26
 70
0
 10
-1.530925765
 20
31.9398829905
 10
-1.5304613654
 20
31.9298983562
 10
-1.5299911771
 20
31.9208226033
 10
-1.5295158805
 20
31.9126625757
 10
-1.5290361558
 20
31.9054251176
 10
-1.5285526835
 20
31.899117073
 10
-1.5280685511
 20
31.8937657588
 10
-1.5275818169
 20
31.8893233645
 10
-1.5270929157
 20
31.885771919
 10
-1.5266022821
 20
31.8830934514
 10
-1.526110351
 20
31.8812699906
 10
-1.5256175572
 20
31.8802835656
 10
-1.5251243353
 20
31.8801162053
 10
-1.5246311202
 20
31.8807499389
 10
-1.5241383102
 20
31.8821737689
 10
-1.5236464587
 20
31.8844036451
 10
-1.5231560825
 20
31.8874623317
 10
-1.5226676985
 20
31.8913725927
 10
-1.5221818236
 20
31.8961571921
 10
-1.5216989746
 20
31.901838894
 10
-1.5212196684
 20
31.9084404624
 10
-1.5207444218
 20
31.9159846614
 10
-1.5202734117
 20
31.9244959632
 10
-1.5198077217
 20
31.9339638599
 10
-1.5193480883
 20
31.9443779986
 10
-1.5184499369
 20
31.9680035901
  0
LINE
  5
56C
100
AcDbEntity
  8
CURVE
100
AcDbLine
 62
7
  6
CONTINUOUS
 10
-1.5391566828
 20
37.979355
 11
-1.5110644027
 21
37.374084
  0
LINE
  5
56D
100
AcDbEntity
  8
CURVE
100
AcDbLine
 62
7
  6
CONTINUOUS
 10
-1.5287606637
 20
37.220548
 11
-1.5616626179
 21
37.940216
  0
LINE
  5
56E
100
AcDbEntity
  8
CURVE
100
AcDbLine
 62
7
  6
CONTINUOUS
 10
-1.5249063547
 20
14.4982225041
 11
-1.5260228367
 21
14.5219737404
  0
LINE
  5
56F
100
AcDbEntity
  8
CURVE
100
AcDbLine
 62
7
  6
CONTINUOUS
 10
-1.5288217308
 20
32.4756139715
 11
-1.5292489769
 21
32.4846847366
  0
LINE
  5
570
100
AcDbEntity
  8
CURVE
100
AcDbLine
 62
7
  6
CONTINUOUS
 10
-1.5450128967
 20
12.4386336599
 11
-1.5458605542
 21
12.4579286951
  0
LINE
  5
571
100
AcDbEntity
  8
CURVE
100
AcDbLine
 62
7
  6
CONTINUOUS
 10
-1.5279802006
 20
14.0183333013
 11
-1.5271325279
 21
13.9990378473
  0
LINE
  5
572
100
AcDbEntity
  8
CURVE
100
AcDbLine
 62
7
  6
CONTINUOUS
 10
-1.5491723949
 20
11.9850341698
 11
-1.5480769456
 21
11.9587430002
  0
LINE
  5
573
100
AcDbEntity
  8
CURVE
100
AcDbLine
 62
7
  6
CONTINUOUS
 10
-1.5238108986
 20
14.4719303163
 11
-1.5249063547
 21
14.4982225041
  0
LINE
  5
574
100
AcDbEntity
  8
CURVE
100
AcDbLine
 62
7
  6
CONTINUOUS
 10
-1.5292489769
 20
32.4846847366
 11
-1.5296646752
 21
32.4950524598
  0
LINE
  5
575
100
AcDbEntity
  8
CURVE
100
AcDbLine
 62
7
  6
CONTINUOUS
 10
-1.5318344765
 20
31.9625515264
 11
-1.530925765
 21
31.9398829905
  0
LINE
  5
576
100
AcDbEntity
  8
CURVE
100
AcDbLine
 62
7
  6
CONTINUOUS
 10
-1.5458605542
 20
12.4579286951
 11
-1.5466905232
 21
12.4793993509
  0
LINE
  5
577
100
AcDbEntity
  8
CURVE
100
AcDbLine
 62
7
  6
CONTINUOUS
 10
-1.5271325279
 20
13.9990378473
 11
-1.5263025447
 21
13.9775666879
  0
LINE
  5
578
100
AcDbEntity
  8
CURVE
100
AcDbLine
 62
253
  6
CONTINUOUS
 10
-1.5328694576
 20
27.6321428414
 11
-1.5199048129
 21
27.2792856827
  0
LINE
  5
579
100
AcDbEntity
  8
CURVE
100
AcDbLine
 62
253
  6
CONTINUOUS
 10
-1.5782457138
 20
9.799285326
 11
-1.5735086324
 21
9.663571558
  0
LINE
  5
57A
100
AcDbEntity
  8
CURVE
100
AcDbLine
 62
253
  6
CONTINUOUS
 10
-1.5924569592
 20
17.9421428895
 11
-1.5971940412
 21
18.0778571105
  0
LINE
  5
57B
100
AcDbEntity
  8
CURVE
100
AcDbLine
 62
253
  6
CONTINUOUS
 10
-1.5782457138
 20
18.8921428895
 11
-1.5735086324
 21
18.7564285553
  0
LINE
  5
57C
100
AcDbEntity
  8
CURVE
100
AcDbLine
 62
253
  6
CONTINUOUS
 10
-1.5922076394
 20
35.40166646
 11
-1.5792429948
 21
35.0302380657
  0
LINE
  5
57D
100
AcDbEntity
  8
CURVE
100
AcDbLine
 62
253
  6
CONTINUOUS
 10
-1.5922076394
 20
36.5159522629
 11
-1.5792429948
 21
36.1445238686
  0
LINE
  5
57E
100
AcDbEntity
  8
CURVE
100
AcDbLine
 62
7
  6
CONTINUOUS
 10
-1.5507691843
 20
12.0292518017
 11
-1.5491723949
 21
11.9850341698
  0
LINE
  5
57F
100
AcDbEntity
  8
CURVE
100
AcDbLine
 62
7
  6
CONTINUOUS
 10
-1.5222141064
 20
14.4277107273
 11
-1.5238108986
 21
14.4719303163
  0
LINE
  5
580
100
AcDbEntity
  8
CURVE
100
AcDbLine
 62
7
  6
CONTINUOUS
 10
-1.5296646752
 20
32.4950524598
 11
-1.5300663985
 21
32.5067256342
  0
LINE
  5
581
100
AcDbEntity
  8
CURVE
100
AcDbLine
 62
7
  6
CONTINUOUS
 10
-1.5327115877
 20
31.9887702092
 11
-1.5318344765
 21
31.9625515264
  0
LINE
  5
582
100
AcDbEntity
  8
CURVE
100
AcDbLine
 62
7
  6
CONTINUOUS
 10
-1.5466905232
 20
12.4793993509
 11
-1.5478314384
 21
12.5136185415
  0
LINE
  5
583
100
AcDbEntity
  8
CURVE
100
AcDbLine
 62
7
  6
CONTINUOUS
 10
-1.5263025447
 20
13.9775666879
 11
-1.5251616114
 21
13.943346625
  0
LINE
  5
584
100
AcDbEntity
  8
CURVE
100
AcDbLine
 62
7
  6
CONTINUOUS
 10
-1.5523007575
 20
12.0792297654
 11
-1.5507691843
 21
12.0292518017
  0
LINE
  5
585
100
AcDbEntity
  8
CURVE
100
AcDbLine
 62
7
  6
CONTINUOUS
 10
-1.5206825413
 20
14.3777302236
 11
-1.5222141064
 21
14.4277107273
  0
LINE
  5
586
100
AcDbEntity
  8
CURVE
100
AcDbLine
 62
7
  6
CONTINUOUS
 10
-1.5478314384
 20
12.5136185415
 11
-1.54879756
 21
12.5476210908
  0
LINE
  5
587
100
AcDbEntity
  8
CURVE
100
AcDbLine
 62
7
  6
CONTINUOUS
 10
-1.5251616114
 20
13.943346625
 11
-1.5241954748
 21
13.9093432153
  0
LINE
  5
588
100
AcDbEntity
  8
CURVE
100
AcDbLine
 62
7
  6
CONTINUOUS
 10
-1.5335515272
 20
32.0186171054
 11
-1.5327115877
 21
31.9887702092
  0
LINE
  5
589
100
AcDbEntity
  8
CURVE
100
AcDbLine
 62
7
  6
CONTINUOUS
 10
-1.5300663985
 20
32.5067256342
 11
-1.5306374703
 21
32.5267016952
  0
LINE
  5
58A
100
AcDbEntity
  8
CURVE
100
AcDbLine
 62
253
  6
CONTINUOUS
 10
-1.5687715509
 20
11.020714674
 11
-1.5758771741
 21
11.292143116
  0
LINE
  5
58B
100
AcDbEntity
  8
CURVE
100
AcDbLine
 62
253
  6
CONTINUOUS
 10
-1.5735086324
 20
14.8659525967
 11
-1.5687715509
 21
14.685
  0
LINE
  5
58C
100
AcDbEntity
  8
CURVE
100
AcDbLine
 62
253
  6
CONTINUOUS
 10
-1.5687715509
 20
20.1135714164
 11
-1.5758771741
 21
20.385
  0
LINE
  5
58D
100
AcDbEntity
  8
CURVE
100
AcDbLine
 62
253
  6
CONTINUOUS
 10
-1.5889664778
 20
24.1611903435
 11
-1.5792429948
 21
23.7897619492
  0
LINE
  5
58E
100
AcDbEntity
  8
CURVE
100
AcDbLine
 62
253
  6
CONTINUOUS
 10
-1.6019311231
 20
11.292143116
 11
-1.5782457138
 21
10.342143116
  0
LINE
  5
58F
100
AcDbEntity
  8
CURVE
100
AcDbLine
 62
253
  6
CONTINUOUS
 10
-1.6019311231
 20
20.385
 11
-1.5782457138
 21
19.435
  0
LWPOLYLINE
  5
590
100
AcDbEntity
  8
0
100
AcDbPolyline
 62
7
  6
CONTINUOUS
 90
34
 70
0
 10
-2.489371834
 20
50.2306323968
 10
-2.4896554629
 20
50.2425290557
 10
-2.490504903
 20
50.254398774
 10
-2.4919182318
 20
50.2662146563
 10
-2.4938922504
 20
50.277949936
 10
-2.4964224874
 20
50.2895780153
 10
-2.499503206
 20
50.3010725264
 10
-2.5031274232
 20
50.3124074189
 10
-2.5072869275
 20
50.3235570152
 10
-2.5119722918
 20
50.3344960488
 10
-2.5171728994
 20
50.3451997352
 10
-2.5228769647
 20
50.3556438204
 10
-2.529071557
 20
50.3658046326
 10
-2.5357426371
 20
50.3756591487
 10
-2.5428750881
 20
50.3851850429
 10
-2.5504527446
 20
50.3943607299
 10
-2.5584584388
 20
50.4031654255
 10
-2.566874025
 20
50.4115791771
 10
-2.5756804166
 20
50.4195829086
 10
-2.5848576298
 20
50.4271584695
 10
-2.5943848913
 20
50.4342887229
 10
-2.604240676
 20
50.4409575601
 10
-2.6144027516
 20
50.4471499225
 10
-2.6248480051
 20
50.452851711
 10
-2.6355525399
 20
50.4580498963
 10
-2.646491941
 20
50.4627326699
 10
-2.657641553
 20
50.4668895243
 10
-2.6689763181
 20
50.4705111341
 10
-2.6804722837
 20
50.4735897127
 10
-2.692101719
 20
50.4761177026
 10
-2.7038332136
 20
50.4780886486
 10
-2.7156383891
 20
50.4794986445
 10
-2.7274921317
 20
50.4803455463
 10
-2.7393676032
 20
50.480628166
  0
LWPOLYLINE
  5
591
100
AcDbEntity
  8
0
100
AcDbPolyline
 62
7
  6
CONTINUOUS
 90
4
 70
0
 10
-2.485
 20
50.2350042308
 10
-2.4852831502
 20
50.246899516
 10
-2.4861319658
 20
50.2587678556
 10
-2.4875445259
 20
50.2705823661
  0
LINE
  5
592
100
AcDbEntity
  8
CURVE
100
AcDbLine
 62
7
  6
CONTINUOUS
 10
-1.554222829
 20
12.1548728307
 11
-1.5523007575
 21
12.0792297654
  0
LINE
  5
593
100
AcDbEntity
  8
CURVE
100
AcDbLine
 62
7
  6
CONTINUOUS
 10
-1.5187605013
 20
14.3020827341
 11
-1.5206825413
 21
14.3777302236
  0
LINE
  5
594
100
AcDbEntity
  8
CURVE
100
AcDbLine
 62
7
  6
CONTINUOUS
 10
-1.54879756
 20
12.5476210908
 11
-1.5497170021
 21
12.5853827833
  0
LINE
  5
595
100
AcDbEntity
  8
CURVE
100
AcDbLine
 62
7
  6
CONTINUOUS
 10
-1.5241954748
 20
13.9093432153
 11
-1.5232760159
 21
13.8715807652
  0
LINE
  5
596
100
AcDbEntity
  8
CURVE
100
AcDbLine
 62
7
  6
CONTINUOUS
 10
-1.5306374703
 20
32.5267016952
 11
-1.5311634445
 21
32.5496627948
  0
LINE
  5
597
100
AcDbEntity
  8
CURVE
100
AcDbLine
 62
7
  6
CONTINUOUS
 10
-1.534718871
 20
32.0699693937
 11
-1.5335515272
 21
32.0186171054
  0
LWPOLYLINE
  5
598
100
AcDbEntity
  8
0
100
AcDbPolyline
 62
7
  6
CONTINUOUS
 90
40
 70
0
 10
-1.485
 20
47.8847711479
 10
-1.4853988458
 20
47.9048999433
 10
-1.4866056737
 20
47.9249911946
 10
-1.4886184331
 20
47.9450125729
 10
-1.4914334106
 20
47.9649279069
 10
-1.4950460573
 20
47.9847091412
 10
-1.4994523538
 20
48.0043361401
 10
-1.5046465771
 20
48.0237786561
 10
-1.5106212706
 20
48.0430033578
 10
-1.5173698156
 20
48.0619853683
 10
-1.5248874842
 20
48.0807039561
 10
-1.533160259
 20
48.0991170912
 10
-1.5421632859
 20
48.1171695942
 10
-1.5518715539
 20
48.134817212
 10
-1.5622757886
 20
48.1520483607
 10
-1.5733726911
 20
48.1688576898
 10
-1.5851569134
 20
48.1852320605
 10
-1.5976006555
 20
48.2011280105
 10
-1.6106650469
 20
48.2164962575
 10
-1.6243131602
 20
48.2312983041
 10
-1.6385344203
 20
48.2455273631
 10
-1.6533279897
 20
48.2591827498
 10
-1.6686865154
 20
48.2722535323
 10
-1.68457193
 20
48.284703298
 10
-1.7009364446
 20
48.2964944468
 10
-1.7177372917
 20
48.3075993795
 10
-1.7349608201
 20
48.3180121997
 10
-1.7526014858
 20
48.327729553
 10
-1.7706487308
 20
48.336742425
 10
-1.7890573674
 20
48.3450251252
 10
-1.8077688991
 20
48.352551676
 10
-1.8267382404
 20
48.3593071586
 10
-1.8459473559
 20
48.3652883352
 10
-1.8653767708
 20
48.3704906619
 10
-1.885006289
 20
48.3749085853
 10
-1.9047928233
 20
48.378532297
 10
-1.9246821328
 20
48.3813539679
 10
-1.9446342564
 20
48.3833717072
 10
-1.9646241008
 20
48.3845866261
 10
-1.9846194003
 20
48.385
  0
LINE
  5
599
100
AcDbEntity
  8
CURVE
100
AcDbLine
 62
7
  6
CONTINUOUS
 10
-1.5497170021
 20
12.5853827833
 11
-1.5505805701
 21
12.6270732206
  0
LINE
  5
59A
100
AcDbEntity
  8
CURVE
100
AcDbLine
 62
7
  6
CONTINUOUS
 10
-1.5232760159
 20
13.8715807652
 11
-1.5224124263
 21
13.8298898678
  0
LINE
  5
59B
100
AcDbEntity
  8
ASSI
100
AcDbLine
 62
7
  6
CONTINUOUS
 10
-1.6844992734
 20
9.7178624531
 11
-1.6856667074
 21
9.776195818
  0
LINE
  5
59C
100
AcDbEntity
  8
RACCORDO
100
AcDbLine
 62
7
  6
CONTINUOUS
 10
-1.6844987938
 20
9.7178618618
 11
-1.6856770609
 21
9.7767562907
  0
LINE
  5
59D
100
AcDbEntity
  8
ASSI
100
AcDbLine
 62
7
  6
CONTINUOUS
 10
-1.6844992734
 20
14.7178624531
 11
-1.6856667074
 21
14.776195818
  0
LINE
  5
59E
100
AcDbEntity
  8
RACCORDO
100
AcDbLine
 62
7
  6
CONTINUOUS
 10
-1.6844987938
 20
14.7178618618
 11
-1.6856770609
 21
14.7767562907
  0
LINE
  5
59F
100
AcDbEntity
  8
CURVE
100
AcDbLine
 62
7
  6
CONTINUOUS
 10
-1.5558933563
 20
12.2363207803
 11
-1.554222829
 21
12.1548728307
  0
LINE
  5
5A0
100
AcDbEntity
  8
ASSI
100
AcDbLine
 62
7
  6
CONTINUOUS
 10
-1.6844992734
 20
19.7178624531
 11
-1.6856667074
 21
19.776195818
  0
LINE
  5
5A1
100
AcDbEntity
  8
RACCORDO
100
AcDbLine
 62
7
  6
CONTINUOUS
 10
-1.6844987938
 20
19.7178618618
 11
-1.6856770609
 21
19.7767562907
  0
LINE
  5
5A2
100
AcDbEntity
  8
CURVE
100
AcDbLine
 62
7
  6
CONTINUOUS
 10
-1.517089927
 20
14.2206260497
 11
-1.5187605013
 21
14.3020827341
  0
LINE
  5
5A3
100
AcDbEntity
  8
ASSI
100
AcDbLine
 62
7
  6
CONTINUOUS
 10
-1.6844992734
 20
24.7178624531
 11
-1.6856667074
 21
24.776195818
  0
LINE
  5
5A4
100
AcDbEntity
  8
RACCORDO
100
AcDbLine
 62
7
  6
CONTINUOUS
 10
-1.6844987938
 20
24.7178618618
 11
-1.6856770609
 21
24.7767562907
  0
LINE
  5
5A5
100
AcDbEntity
  8
CURVE
100
AcDbLine
 62
253
  6
CONTINUOUS
 10
-1.5393517799
 20
25.250357269
 11
-1.5425929412
 21
25.4267857563
  0
LINE
  5
5A6
100
AcDbEntity
  8
CURVE
100
AcDbLine
 62
253
  6
CONTINUOUS
 10
-1.5735086324
 20
9.663571558
 11
-1.5687715509
 21
9.392143116
  0
LINE
  5
5A7
100
AcDbEntity
  8
CURVE
100
AcDbLine
 62
253
  6
CONTINUOUS
 10
-1.5782457138
 20
12.377856884
 11
-1.5687715509
 21
11.835
  0
LINE
  5
5A8
100
AcDbEntity
  8
CURVE
100
AcDbLine
 62
253
  6
CONTINUOUS
 10
-1.5877198777
 20
14.956428442
 11
-1.5829827953
 21
14.685
  0
LINE
  5
5A9
100
AcDbEntity
  8
CURVE
100
AcDbLine
 62
253
  6
CONTINUOUS
 10
-1.5782457138
 20
17.399285779
 11
-1.5687715509
 21
16.8564286685
  0
LINE
  5
5AA
100
AcDbEntity
  8
CURVE
100
AcDbLine
 62
253
  6
CONTINUOUS
 10
-1.5735086324
 20
18.7564285553
 11
-1.5687715509
 21
18.485
  0
LINE
  5
5AB
100
AcDbEntity
  8
CURVE
100
AcDbLine
 62
253
  6
CONTINUOUS
 10
-1.5889664778
 20
33.0802380657
 11
-1.5922076394
 21
33.2659522629
  0
LINE
  5
5AC
100
AcDbEntity
  8
CURVE
100
AcDbLine
 62
253
  6
CONTINUOUS
 10
-1.5873458979
 20
40.385
 11
-1.5905870589
 21
40.5707143521
  0
LINE
  5
5AD
100
AcDbEntity
  8
CURVE
100
AcDbLine
 62
253
  6
CONTINUOUS
 10
-1.5824841558
 20
41.9635714507
 11
-1.5792429948
 21
41.7778571761
  0
LINE
  5
5AE
100
AcDbEntity
  8
CURVE
100
AcDbLine
 62
253
  6
CONTINUOUS
 10
-1.5889664778
 20
42.335
 11
-1.5922076394
 21
42.5207142746
  0
LINE
  5
5AF
100
AcDbEntity
  8
CURVE
100
AcDbLine
 62
7
  6
CONTINUOUS
 10
-1.5332592437
 20
16.613425
 11
-1.5112025873
 21
15.328164
  0
LINE
  5
5B0
100
AcDbEntity
  8
CURVE
100
AcDbLine
 62
7
  6
CONTINUOUS
 10
-1.5112025873
 20
14.63395
 11
-1.5320192646
 21
15.88078
  0
LINE
  5
5B1
100
AcDbEntity
  8
CURVE
100
AcDbLine
 62
7
  6
CONTINUOUS
 10
-1.5382333817
 20
16.243181
 11
-1.54425871
 21
16.613425
  0
LINE
  5
5B2
100
AcDbEntity
  8
RACCORDO
100
AcDbLine
 62
7
  6
CONTINUOUS
 10
-1.6856770609
 20
9.7767562907
 11
-1.6867997946
 21
9.8424015077
  0
LINE
  5
5B3
100
AcDbEntity
  8
ASSI
100
AcDbLine
 62
7
  6
CONTINUOUS
 10
-1.6856667074
 20
9.776195818
 11
-1.6868296625
 21
9.8442850682
  0
LINE
  5
5B4
100
AcDbEntity
  8
RACCORDO
100
AcDbLine
 62
7
  6
CONTINUOUS
 10
-1.6856770609
 20
14.7767562907
 11
-1.6867997946
 21
14.8424015077
  0
LINE
  5
5B5
100
AcDbEntity
  8
ASSI
100
AcDbLine
 62
7
  6
CONTINUOUS
 10
-1.6856667074
 20
14.776195818
 11
-1.6868296625
 21
14.8442850682
  0
LINE
  5
5B6
100
AcDbEntity
  8
RACCORDO
100
AcDbLine
 62
7
  6
CONTINUOUS
 10
-1.6856770609
 20
19.7767562907
 11
-1.6867997946
 21
19.8424015077
  0
LINE
  5
5B7
100
AcDbEntity
  8
ASSI
100
AcDbLine
 62
7
  6
CONTINUOUS
 10
-1.6856667074
 20
19.776195818
 11
-1.6868296625
 21
19.8442850682
  0
LINE
  5
5B8
100
AcDbEntity
  8
RACCORDO
100
AcDbLine
 62
7
  6
CONTINUOUS
 10
-1.6856770609
 20
24.7767562907
 11
-1.6867997946
 21
24.8424015077
  0
LINE
  5
5B9
100
AcDbEntity
  8
ASSI
100
AcDbLine
 62
7
  6
CONTINUOUS
 10
-1.6856667074
 20
24.776195818
 11
-1.6868296625
 21
24.8442850682
  0
LINE
  5
5BA
100
AcDbEntity
  8
CURVE
100
AcDbLine
 62
7
  6
CONTINUOUS
 10
-1.5505805701
 20
12.6270732206
 11
-1.551439484
 21
12.6775379341
  0
LINE
  5
5BB
100
AcDbEntity
  8
CURVE
100
AcDbLine
 62
7
  6
CONTINUOUS
 10
-1.5224124263
 20
13.8298898678
 11
-1.5215505517
 21
13.7792075394
  0
LINE
  5
5BC
100
AcDbEntity
  8
CURVE
100
AcDbLine
 62
7
  6
CONTINUOUS
 10
-1.5311634445
 20
32.5496627948
 11
-1.53177936
 21
32.5848907667
  0
LINE
  5
5BD
100
AcDbEntity
  8
CURVE
100
AcDbLine
 62
7
  6
CONTINUOUS
 10
-1.5364295847
 20
32.1704704217
 11
-1.534718871
 21
32.0699693937
  0
LINE
  5
5BE
100
AcDbEntity
  8
CURVE
100
AcDbLine
 62
7
  6
CONTINUOUS
 10
-1.5576520543
 20
12.3469367593
 11
-1.5558933563
 21
12.2363207803
  0
LINE
  5
5BF
100
AcDbEntity
  8
CURVE
100
AcDbLine
 62
7
  6
CONTINUOUS
 10
-1.5153311189
 20
14.1099928419
 11
-1.517089927
 21
14.2206260497
  0
LINE
  5
5C0
100
AcDbEntity
  8
RACCORDO
100
AcDbLine
 62
7
  6
CONTINUOUS
 10
-1.6867997946
 20
9.8424015077
 11
-1.6879171224
 21
9.9180654039
  0
LINE
  5
5C1
100
AcDbEntity
  8
RACCORDO
100
AcDbLine
 62
7
  6
CONTINUOUS
 10
-1.6867997946
 20
14.8424015077
 11
-1.6879171224
 21
14.9180654039
  0
LINE
  5
5C2
100
AcDbEntity
  8
RACCORDO
100
AcDbLine
 62
7
  6
CONTINUOUS
 10
-1.6867997946
 20
19.8424015077
 11
-1.6879171224
 21
19.9180654039
  0
LINE
  5
5C3
100
AcDbEntity
  8
RACCORDO
100
AcDbLine
 62
7
  6
CONTINUOUS
 10
-1.6867997946
 20
24.8424015077
 11
-1.6879171224
 21
24.9180654039
  0
LINE
  5
5C4
100
AcDbEntity
  8
ASSI
100
AcDbLine
 62
7
  6
CONTINUOUS
 10
-1.6868296625
 20
9.8442850682
 11
-1.6879872879
 21
9.9231847593
  0
LINE
  5
5C5
100
AcDbEntity
  8
ASSI
100
AcDbLine
 62
7
  6
CONTINUOUS
 10
-1.6868296625
 20
14.8442850682
 11
-1.6879872879
 21
14.9231847593
  0
LINE
  5
5C6
100
AcDbEntity
  8
ASSI
100
AcDbLine
 62
7
  6
CONTINUOUS
 10
-1.6868296625
 20
19.8442850682
 11
-1.6879872879
 21
19.9231847593
  0
LINE
  5
5C7
100
AcDbEntity
  8
ASSI
100
AcDbLine
 62
7
  6
CONTINUOUS
 10
-1.6868296625
 20
24.8442850682
 11
-1.6879872879
 21
24.9231847593
  0
LINE
  5
5C8
100
AcDbEntity
  8
CURVE
100
AcDbLine
 62
253
  6
CONTINUOUS
 10
-1.5806142555
 20
14.0969047403
 11
-1.5829827953
 21
14.277857337
  0
LINE
  5
5C9
100
AcDbEntity
  8
CURVE
100
AcDbLine
 62
7
  6
CONTINUOUS
 10
-1.551439484
 20
12.6775379341
 11
-1.5522088473
 21
12.7335512439
  0
LINE
  5
5CA
100
AcDbEntity
  8
CURVE
100
AcDbLine
 62
7
  6
CONTINUOUS
 10
-1.5215505517
 20
13.7792075394
 11
-1.5207795762
 21
13.7229302477
  0
LINE
  5
5CB
100
AcDbEntity
  8
RACCORDO
100
AcDbLine
 62
7
  6
CONTINUOUS
 10
-1.6879171224
 20
9.9180654039
 11
-1.6892391149
 21
10.0221518185
  0
LINE
  5
5CC
100
AcDbEntity
  8
RACCORDO
100
AcDbLine
 62
7
  6
CONTINUOUS
 10
-1.6879171224
 20
14.9180654039
 11
-1.6892391149
 21
15.0221518185
  0
LINE
  5
5CD
100
AcDbEntity
  8
RACCORDO
100
AcDbLine
 62
7
  6
CONTINUOUS
 10
-1.6879171224
 20
19.9180654039
 11
-1.6892391149
 21
20.0221518185
  0
LINE
  5
5CE
100
AcDbEntity
  8
RACCORDO
100
AcDbLine
 62
7
  6
CONTINUOUS
 10
-1.6879171224
 20
24.9180654039
 11
-1.6892391149
 21
25.0221518185
  0
LINE
  5
5CF
100
AcDbEntity
  8
ASSI
100
AcDbLine
 62
7
  6
CONTINUOUS
 10
-1.6879872879
 20
9.9231847593
 11
-1.6893568264
 21
10.0322290049
  0
LINE
  5
5D0
100
AcDbEntity
  8
ASSI
100
AcDbLine
 62
7
  6
CONTINUOUS
 10
-1.6879872879
 20
14.9231847593
 11
-1.6893568264
 21
15.0322290049
  0
LINE
  5
5D1
100
AcDbEntity
  8
ASSI
100
AcDbLine
 62
7
  6
CONTINUOUS
 10
-1.6879872879
 20
19.9231847593
 11
-1.6893568264
 21
20.0322290049
  0
LINE
  5
5D2
100
AcDbEntity
  8
ASSI
100
AcDbLine
 62
7
  6
CONTINUOUS
 10
-1.6879872879
 20
24.9231847593
 11
-1.6893568264
 21
25.0322290049
  0
LINE
  5
5D3
100
AcDbEntity
  8
CURVE
100
AcDbLine
 62
7
  6
CONTINUOUS
 10
-1.5374337397
 20
32.2429238142
 11
-1.5364295847
 21
32.1704704217
  0
LINE
  5
5D4
100
AcDbEntity
  8
CURVE
100
AcDbLine
 62
7
  6
CONTINUOUS
 10
-1.53177936
 20
32.5848907667
 11
-1.5322876043
 21
32.6249281828
  0
LINE
  5
5D5
100
AcDbEntity
  8
CURVE
100
AcDbLine
 62
7
  6
CONTINUOUS
 10
-1.5594479059
 20
12.4975818376
 11
-1.5576520543
 21
12.3469367593
  0
LINE
  5
5D6
100
AcDbEntity
  8
CURVE
100
AcDbLine
 62
253
  6
CONTINUOUS
 10
-1.5829827953
 20
15.770714221
 11
-1.5806142555
 21
15.5445237017
  0
LINE
  5
5D7
100
AcDbEntity
  8
CURVE
100
AcDbLine
 62
7
  6
CONTINUOUS
 10
-1.5135352437
 20
13.9593239374
 11
-1.5153311189
 21
14.1099928419
  0
LINE
  5
5D8
100
AcDbEntity
  8
ASSI
100
AcDbLine
 62
7
  6
CONTINUOUS
 10
-1.6893568264
 20
10.0322290049
 11
-1.6904690892
 21
10.1350084408
  0
LINE
  5
5D9
100
AcDbEntity
  8
RACCORDO
100
AcDbLine
 62
7
  6
CONTINUOUS
 10
-1.6892391149
 20
10.0221518185
 11
-1.6905259019
 21
10.1406567534
  0
LINE
  5
5DA
100
AcDbEntity
  8
ASSI
100
AcDbLine
 62
7
  6
CONTINUOUS
 10
-1.6893568264
 20
15.0322290049
 11
-1.6904690892
 21
15.1350084408
  0
LINE
  5
5DB
100
AcDbEntity
  8
RACCORDO
100
AcDbLine
 62
7
  6
CONTINUOUS
 10
-1.6892391149
 20
15.0221518185
 11
-1.6905259019
 21
15.1406567534
  0
LINE
  5
5DC
100
AcDbEntity
  8
ASSI
100
AcDbLine
 62
7
  6
CONTINUOUS
 10
-1.6893568264
 20
20.0322290049
 11
-1.6904690892
 21
20.1350084408
  0
LINE
  5
5DD
100
AcDbEntity
  8
RACCORDO
100
AcDbLine
 62
7
  6
CONTINUOUS
 10
-1.6892391149
 20
20.0221518185
 11
-1.6905259019
 21
20.1406567534
  0
LINE
  5
5DE
100
AcDbEntity
  8
ASSI
100
AcDbLine
 62
7
  6
CONTINUOUS
 10
-1.6893568264
 20
25.0322290049
 11
-1.6904690892
 21
25.1350084408
  0
LINE
  5
5DF
100
AcDbEntity
  8
RACCORDO
100
AcDbLine
 62
7
  6
CONTINUOUS
 10
-1.6892391149
 20
25.0221518185
 11
-1.6905259019
 21
25.1406567534
  0
LINE
  5
5E0
100
AcDbEntity
  8
CURVE
100
AcDbLine
 62
7
  6
CONTINUOUS
 10
-1.5522088473
 20
12.7335512439
 11
-1.5530412315
 21
12.8100730811
  0
LINE
  5
5E1
100
AcDbEntity
  8
CURVE
100
AcDbLine
 62
7
  6
CONTINUOUS
 10
-1.5207795762
 20
13.7229302477
 11
-1.5199466754
 21
13.6460283889
  0
LINE
  5
5E2
100
AcDbEntity
  8
ASSI
100
AcDbLine
 62
7
  6
CONTINUOUS
 10
-1.6904690892
 20
10.1350084408
 11
-1.6917449493
 21
10.2725963284
  0
LINE
  5
5E3
100
AcDbEntity
  8
RACCORDO
100
AcDbLine
 62
7
  6
CONTINUOUS
 10
-1.6905259019
 20
10.1406567534
 11
-1.6917532076
 21
10.2735647873
  0
LINE
  5
5E4
100
AcDbEntity
  8
ASSI
100
AcDbLine
 62
7
  6
CONTINUOUS
 10
-1.6904690892
 20
15.1350084408
 11
-1.6917449493
 21
15.2725963284
  0
LINE
  5
5E5
100
AcDbEntity
  8
RACCORDO
100
AcDbLine
 62
7
  6
CONTINUOUS
 10
-1.6905259019
 20
15.1406567534
 11
-1.6917532076
 21
15.2735647873
  0
LINE
  5
5E6
100
AcDbEntity
  8
ASSI
100
AcDbLine
 62
7
  6
CONTINUOUS
 10
-1.6904690892
 20
20.1350084408
 11
-1.6917449493
 21
20.2725963284
  0
LINE
  5
5E7
100
AcDbEntity
  8
RACCORDO
100
AcDbLine
 62
7
  6
CONTINUOUS
 10
-1.6905259019
 20
20.1406567534
 11
-1.6917532076
 21
20.2735647873
  0
LINE
  5
5E8
100
AcDbEntity
  8
ASSI
100
AcDbLine
 62
7
  6
CONTINUOUS
 10
-1.6904690892
 20
25.1350084408
 11
-1.6917449493
 21
25.2725963284
  0
LINE
  5
5E9
100
AcDbEntity
  8
RACCORDO
100
AcDbLine
 62
7
  6
CONTINUOUS
 10
-1.6905259019
 20
25.1406567534
 11
-1.6917532076
 21
25.2735647873
  0
LINE
  5
5EA
100
AcDbEntity
  8
CURVE
100
AcDbLine
 62
7
  6
CONTINUOUS
 10
-1.5322876043
 20
32.6249281828
 11
-1.5327868622
 21
32.6806517047
  0
LINE
  5
5EB
100
AcDbEntity
  8
RACCORDO
100
AcDbLine
 62
7
  6
CONTINUOUS
 10
-1.6917532076
 20
10.2735647873
 11
-1.6929135076
 21
10.4207429379
  0
LINE
  5
5EC
100
AcDbEntity
  8
ASSI
100
AcDbLine
 62
7
  6
CONTINUOUS
 10
-1.6917449493
 20
10.2725963284
 11
-1.6929483714
 21
10.4255436341
  0
LINE
  5
5ED
100
AcDbEntity
  8
RACCORDO
100
AcDbLine
 62
7
  6
CONTINUOUS
 10
-1.6917532076
 20
15.2735647873
 11
-1.6929135076
 21
15.4207429379
  0
LINE
  5
5EE
100
AcDbEntity
  8
ASSI
100
AcDbLine
 62
7
  6
CONTINUOUS
 10
-1.6917449493
 20
15.2725963284
 11
-1.6929483714
 21
15.4255436341
  0
LINE
  5
5EF
100
AcDbEntity
  8
RACCORDO
100
AcDbLine
 62
7
  6
CONTINUOUS
 10
-1.6917532076
 20
20.2735647873
 11
-1.6929135076
 21
20.4207429379
  0
LINE
  5
5F0
100
AcDbEntity
  8
ASSI
100
AcDbLine
 62
7
  6
CONTINUOUS
 10
-1.6917449493
 20
20.2725963284
 11
-1.6929483714
 21
20.4255436341
  0
LINE
  5
5F1
100
AcDbEntity
  8
RACCORDO
100
AcDbLine
 62
7
  6
CONTINUOUS
 10
-1.6917532076
 20
25.2735647873
 11
-1.6929135076
 21
25.4207429379
  0
LINE
  5
5F2
100
AcDbEntity
  8
ASSI
100
AcDbLine
 62
7
  6
CONTINUOUS
 10
-1.6917449493
 20
25.2725963284
 11
-1.6929483714
 21
25.4255436341
  0
LINE
  5
5F3
100
AcDbEntity
  8
CURVE
100
AcDbLine
 62
7
  6
CONTINUOUS
 10
-1.5530412315
 20
12.8100730811
 11
-1.5537258709
 21
12.8922703374
  0
LINE
  5
5F4
100
AcDbEntity
  8
CURVE
100
AcDbLine
 62
7
  6
CONTINUOUS
 10
-1.5199466754
 20
13.6460283889
 11
-1.5192627089
 21
13.563413646
  0
LINE
  5
5F5
100
AcDbEntity
  8
CURVE
100
AcDbLine
 62
7
  6
CONTINUOUS
 10
-1.5610903114
 20
12.6917333814
 11
-1.5594479059
 21
12.4975818376
  0
LINE
  5
5F6
100
AcDbEntity
  8
CURVE
100
AcDbLine
 62
7
  6
CONTINUOUS
 10
-1.511892909
 20
13.7651420068
 11
-1.5135352437
 21
13.9593239374
  0
LINE
  5
5F7
100
AcDbEntity
  8
CURVE
100
AcDbLine
 62
7
  6
CONTINUOUS
 10
-1.5376639211
 20
32.2706463252
 11
-1.5374337397
 21
32.2429238142
  0
LINE
  5
5F8
100
AcDbEntity
  8
RACCORDO
100
AcDbLine
 62
7
  6
CONTINUOUS
 10
-1.6929135076
 20
10.4207429379
 11
-1.6939881158
 21
10.5818003473
  0
LINE
  5
5F9
100
AcDbEntity
  8
ASSI
100
AcDbLine
 62
7
  6
CONTINUOUS
 10
-1.6929483714
 20
10.4255436341
 11
-1.6940580592
 21
10.593348232
  0
LINE
  5
5FA
100
AcDbEntity
  8
RACCORDO
100
AcDbLine
 62
7
  6
CONTINUOUS
 10
-1.6929135076
 20
15.4207429379
 11
-1.6939881158
 21
15.5818003473
  0
LINE
  5
5FB
100
AcDbEntity
  8
ASSI
100
AcDbLine
 62
7
  6
CONTINUOUS
 10
-1.6929483714
 20
15.4255436341
 11
-1.6940580592
 21
15.593348232
  0
LINE
  5
5FC
100
AcDbEntity
  8
RACCORDO
100
AcDbLine
 62
7
  6
CONTINUOUS
 10
-1.6929135076
 20
20.4207429379
 11
-1.6939881158
 21
20.5818003473
  0
LINE
  5
5FD
100
AcDbEntity
  8
ASSI
100
AcDbLine
 62
7
  6
CONTINUOUS
 10
-1.6929483714
 20
20.4255436341
 11
-1.6940580592
 21
20.593348232
  0
LINE
  5
5FE
100
AcDbEntity
  8
RACCORDO
100
AcDbLine
 62
7
  6
CONTINUOUS
 10
-1.6929135076
 20
25.4207429379
 11
-1.6939881158
 21
25.5818003473
  0
LINE
  5
5FF
100
AcDbEntity
  8
ASSI
100
AcDbLine
 62
7
  6
CONTINUOUS
 10
-1.6929483714
 20
25.4255436341
 11
-1.6940580592
 21
25.593348232
  0
LINE
  5
600
100
AcDbEntity
  8
CURVE
100
AcDbLine
 62
7
  6
CONTINUOUS
 10
-1.5537258709
 20
12.8922703374
 11
-1.5542584199
 21
12.9784795335
  0
LINE
  5
601
100
AcDbEntity
  8
CURVE
100
AcDbLine
 62
7
  6
CONTINUOUS
 10
-1.5192627089
 20
13.563413646
 11
-1.5187315124
 21
13.4767689333
  0
LINE
  5
602
100
AcDbEntity
  8
RACCORDO
100
AcDbLine
 62
7
  6
CONTINUOUS
 10
-1.6939881158
 20
10.5818003473
 11
-1.6949571679
 21
10.7561622437
  0
LINE
  5
603
100
AcDbEntity
  8
ASSI
100
AcDbLine
 62
7
  6
CONTINUOUS
 10
-1.6940580592
 20
10.593348232
 11
-1.6950531831
 21
10.775281209
  0
LINE
  5
604
100
AcDbEntity
  8
RACCORDO
100
AcDbLine
 62
7
  6
CONTINUOUS
 10
-1.6939881158
 20
15.5818003473
 11
-1.6949571679
 21
15.7561622437
  0
LINE
  5
605
100
AcDbEntity
  8
ASSI
100
AcDbLine
 62
7
  6
CONTINUOUS
 10
-1.6940580592
 20
15.593348232
 11
-1.6950531831
 21
15.775281209
  0
LINE
  5
606
100
AcDbEntity
  8
RACCORDO
100
AcDbLine
 62
7
  6
CONTINUOUS
 10
-1.6939881158
 20
20.5818003473
 11
-1.6949571679
 21
20.7561622437
  0
LINE
  5
607
100
AcDbEntity
  8
ASSI
100
AcDbLine
 62
7
  6
CONTINUOUS
 10
-1.6940580592
 20
20.593348232
 11
-1.6950531831
 21
20.775281209
  0
LINE
  5
608
100
AcDbEntity
  8
RACCORDO
100
AcDbLine
 62
7
  6
CONTINUOUS
 10
-1.6939881158
 20
25.5818003473
 11
-1.6949571679
 21
25.7561622437
  0
LINE
  5
609
100
AcDbEntity
  8
ASSI
100
AcDbLine
 62
7
  6
CONTINUOUS
 10
-1.6940580592
 20
25.593348232
 11
-1.6950531831
 21
25.775281209
  0
LINE
  5
60A
100
AcDbEntity
  8
RACCORDO
100
AcDbLine
 62
7
  6
CONTINUOUS
 10
-1.6949571679
 20
10.7561622437
 11
-1.6952567556
 21
10.817113156
  0
LINE
  5
60B
100
AcDbEntity
  8
RACCORDO
100
AcDbLine
 62
7
  6
CONTINUOUS
 10
-1.6949571679
 20
15.7561622437
 11
-1.6952567556
 21
15.817113156
  0
LINE
  5
60C
100
AcDbEntity
  8
RACCORDO
100
AcDbLine
 62
7
  6
CONTINUOUS
 10
-1.6949571679
 20
20.7561622437
 11
-1.6952567556
 21
20.817113156
  0
LINE
  5
60D
100
AcDbEntity
  8
CURVE
100
AcDbLine
 62
7
  6
CONTINUOUS
 10
-1.5327868622
 20
32.6806517047
 11
-1.5332072992
 21
32.7533622402
  0
LINE
  5
60E
100
AcDbEntity
  8
RACCORDO
100
AcDbLine
 62
7
  6
CONTINUOUS
 10
-1.6949571679
 20
25.7561622437
 11
-1.6958154107
 21
25.9430460503
  0
LINE
  5
60F
100
AcDbEntity
  8
ASSI
100
AcDbLine
 62
7
  6
CONTINUOUS
 10
-1.6950531831
 20
10.775281209
 11
-1.6959259333
 21
10.9703542933
  0
LINE
  5
610
100
AcDbEntity
  8
ASSI
100
AcDbLine
 62
7
  6
CONTINUOUS
 10
-1.6950531831
 20
15.775281209
 11
-1.6959259333
 21
15.9703542933
  0
LINE
  5
611
100
AcDbEntity
  8
ASSI
100
AcDbLine
 62
7
  6
CONTINUOUS
 10
-1.6950531831
 20
20.775281209
 11
-1.6959259333
 21
20.9703542933
  0
LINE
  5
612
100
AcDbEntity
  8
ASSI
100
AcDbLine
 62
7
  6
CONTINUOUS
 10
-1.6950531831
 20
25.775281209
 11
-1.6959259333
 21
25.9703542933
  0
LINE
  5
613
100
AcDbEntity
  8
RACCORDO
100
AcDbLine
 62
7
  6
CONTINUOUS
 10
-1.6952567556
 20
10.817113156
 11
-1.6960720495
 21
11.0079479368
  0
LINE
  5
614
100
AcDbEntity
  8
RACCORDO
100
AcDbLine
 62
7
  6
CONTINUOUS
 10
-1.6952567556
 20
15.817113156
 11
-1.6960720495
 21
16.0079479368
  0
LINE
  5
615
100
AcDbEntity
  8
RACCORDO
100
AcDbLine
 62
7
  6
CONTINUOUS
 10
-1.6952567556
 20
20.817113156
 11
-1.6960720495
 21
21.0079479368
  0
LINE
  5
616
100
AcDbEntity
  8
CURVE
100
AcDbLine
 62
7
  6
CONTINUOUS
 10
-1.5623410642
 20
12.9282070762
 11
-1.5610903114
 21
12.6917333814
  0
LINE
  5
617
100
AcDbEntity
  8
CURVE
100
AcDbLine
 62
7
  6
CONTINUOUS
 10
-1.5106422864
 20
13.5286328709
 11
-1.511892909
 21
13.7651420068
  0
LINE
  5
618
100
AcDbEntity
  8
CURVE
100
AcDbLine
 62
7
  6
CONTINUOUS
 10
-1.5542584199
 20
12.9784795335
 11
-1.554634533
 21
13.0670371901
  0
LINE
  5
619
100
AcDbEntity
  8
CURVE
100
AcDbLine
 62
7
  6
CONTINUOUS
 10
-1.5187315124
 20
13.4767689333
 11
-1.5183569218
 21
13.3877771652
  0
LINE
  5
61A
100
AcDbEntity
  8
RACCORDO
100
AcDbLine
 62
7
  6
CONTINUOUS
 10
-1.6960720495
 20
11.0079479368
 11
-1.6965369504
 21
11.1414035622
  0
LINE
  5
61B
100
AcDbEntity
  8
ASSI
100
AcDbLine
 62
7
  6
CONTINUOUS
 10
-1.6959259333
 20
10.9703542933
 11
-1.6965389463
 21
11.1420304126
  0
LINE
  5
61C
100
AcDbEntity
  8
RACCORDO
100
AcDbLine
 62
7
  6
CONTINUOUS
 10
-1.6960720495
 20
16.0079479368
 11
-1.6965369504
 21
16.1414035622
  0
LINE
  5
61D
100
AcDbEntity
  8
ASSI
100
AcDbLine
 62
7
  6
CONTINUOUS
 10
-1.6959259333
 20
15.9703542933
 11
-1.6965389463
 21
16.1420304126
  0
LINE
  5
61E
100
AcDbEntity
  8
RACCORDO
100
AcDbLine
 62
7
  6
CONTINUOUS
 10
-1.6960720495
 20
21.0079479368
 11
-1.6965369504
 21
21.1414035622
  0
LINE
  5
61F
100
AcDbEntity
  8
ASSI
100
AcDbLine
 62
7
  6
CONTINUOUS
 10
-1.6959259333
 20
20.9703542933
 11
-1.6965389463
 21
21.1420304126
  0
LINE
  5
620
100
AcDbEntity
  8
RACCORDO
100
AcDbLine
 62
7
  6
CONTINUOUS
 10
-1.6958154107
 20
25.9430460503
 11
-1.6965369504
 21
26.1414035622
  0
LINE
  5
621
100
AcDbEntity
  8
CURVE
100
AcDbLine
 62
7
  6
CONTINUOUS
 10
-1.5377448325
 20
32.29044429
 11
-1.5376639211
 21
32.2706463252
  0
LINE
  5
622
100
AcDbEntity
  8
RACCORDO
100
AcDbLine
 62
7
  6
CONTINUOUS
 10
-1.6965369504
 20
11.1414035622
 11
-1.6969384002
 21
11.2794038526
  0
LINE
  5
623
100
AcDbEntity
  8
RACCORDO
100
AcDbLine
 62
7
  6
CONTINUOUS
 10
-1.6965369504
 20
16.1414035622
 11
-1.6969384002
 21
16.2794038526
  0
LINE
  5
624
100
AcDbEntity
  8
RACCORDO
100
AcDbLine
 62
7
  6
CONTINUOUS
 10
-1.6965369504
 20
21.1414035622
 11
-1.6969384002
 21
21.2794038526
  0
LINE
  5
625
100
AcDbEntity
  8
ASSI
100
AcDbLine
 62
7
  6
CONTINUOUS
 10
-1.6965389463
 20
11.1420304126
 11
-1.6970450742
 21
11.3210503471
  0
LINE
  5
626
100
AcDbEntity
  8
ASSI
100
AcDbLine
 62
7
  6
CONTINUOUS
 10
-1.6965389463
 20
16.1420304126
 11
-1.6970450742
 21
16.3210503471
  0
LINE
  5
627
100
AcDbEntity
  8
ASSI
100
AcDbLine
 62
7
  6
CONTINUOUS
 10
-1.6965389463
 20
21.1420304126
 11
-1.6970450742
 21
21.3210503471
  0
LINE
  5
628
100
AcDbEntity
  8
ASSI
100
AcDbLine
 62
7
  6
CONTINUOUS
 10
-1.6959259333
 20
25.9703542933
 11
-1.697133105
 21
26.3576305096
  0
LINE
  5
629
100
AcDbEntity
  8
CURVE
100
AcDbLine
 62
7
  6
CONTINUOUS
 10
-1.5332072992
 20
32.7533622402
 11
-1.5334859784
 21
32.8421372849
  0
LINE
  5
62A
100
AcDbEntity
  8
RACCORDO
100
AcDbLine
 62
7
  6
CONTINUOUS
 10
-1.6969384002
 20
11.2794038526
 11
-1.6974130621
 21
11.4935571147
  0
LINE
  5
62B
100
AcDbEntity
  8
RACCORDO
100
AcDbLine
 62
7
  6
CONTINUOUS
 10
-1.6969384002
 20
16.2794038526
 11
-1.6974130621
 21
16.4935571147
  0
LINE
  5
62C
100
AcDbEntity
  8
RACCORDO
100
AcDbLine
 62
7
  6
CONTINUOUS
 10
-1.6969384002
 20
21.2794038526
 11
-1.6974130621
 21
21.4935571146
  0
LINE
  5
62D
100
AcDbEntity
  8
RACCORDO
100
AcDbLine
 62
7
  6
CONTINUOUS
 10
-1.6965369504
 20
26.1414035622
 11
-1.6974753957
 21
26.5299201649
  0
LINE
  5
62E
100
AcDbEntity
  8
CURVE
100
AcDbLine
 62
7
  6
CONTINUOUS
 10
-1.5196843122
 20
33.2638012718
 11
-1.5193665871
 21
33.1290963929
  0
LWPOLYLINE
  5
62F
100
AcDbEntity
  8
ASSI
100
AcDbPolyline
 62
7
  6
CONTINUOUS
 90
3
 70
0
 10
-1.6970450742
 20
11.3210503471
 10
-1.6974974828
 20
11.5435919962
 10
-1.6975546377
 20
11.5813029563
  0
LWPOLYLINE
  5
630
100
AcDbEntity
  8
ASSI
100
AcDbPolyline
 62
7
  6
CONTINUOUS
 90
3
 70
0
 10
-1.6970450742
 20
16.3210503471
 10
-1.6974974828
 20
16.5435919962
 10
-1.6975546377
 20
16.5813029563
  0
LWPOLYLINE
  5
631
100
AcDbEntity
  8
ASSI
100
AcDbPolyline
 62
7
  6
CONTINUOUS
 90
3
 70
0
 10
-1.6970450742
 20
21.3210503471
 10
-1.6974974828
 20
21.5435919962
 10
-1.6975546377
 20
21.5813029563
  0
LINE
  5
632
100
AcDbEntity
  8
CURVE
100
AcDbLine
 62
7
  6
CONTINUOUS
 10
-1.554634533
 20
13.0670371901
 11
-1.5548498646
 21
13.1562798279
  0
LINE
  5
633
100
AcDbEntity
  8
CURVE
100
AcDbLine
 62
7
  6
CONTINUOUS
 10
-1.5183569218
 20
13.3877771652
 11
-1.5181427729
 21
13.2981212564
  0
LINE
  5
634
100
AcDbEntity
  8
ASSI
100
AcDbLine
 62
7
  6
CONTINUOUS
 10
-1.697133105
 20
26.3576305096
 11
-1.6975546377
 21
26.5813029563
  0
LINE
  5
635
100
AcDbEntity
  8
CURVE
100
AcDbLine
 62
7
  6
CONTINUOUS
 10
-1.5104988673
 20
33.2674725541
 11
-1.5116555593
 21
33.8465673444
  0
LINE
  5
636
100
AcDbEntity
  8
RACCORDO
100
AcDbLine
 62
7
  6
CONTINUOUS
 10
-1.6974130621
 20
11.4935571147
 11
-1.6976753799
 21
11.6767504104
  0
LINE
  5
637
100
AcDbEntity
  8
RACCORDO
100
AcDbLine
 62
7
  6
CONTINUOUS
 10
-1.6974130621
 20
16.4935571147
 11
-1.6976753799
 21
16.6767504104
  0
LINE
  5
638
100
AcDbEntity
  8
RACCORDO
100
AcDbLine
 62
7
  6
CONTINUOUS
 10
-1.6974130621
 20
21.4935571146
 11
-1.6976753799
 21
21.6767504104
  0
LINE
  5
639
100
AcDbEntity
  8
ASSI
100
AcDbLine
 62
7
  6
CONTINUOUS
 10
-1.6975546377
 20
11.5813029563
 11
-1.6977316575
 21
11.7333321302
  0
LINE
  5
63A
100
AcDbEntity
  8
ASSI
100
AcDbLine
 62
7
  6
CONTINUOUS
 10
-1.6975546377
 20
16.5813029563
 11
-1.6977316575
 21
16.7333321302
  0
LINE
  5
63B
100
AcDbEntity
  8
ASSI
100
AcDbLine
 62
7
  6
CONTINUOUS
 10
-1.6975546377
 20
21.5813029563
 11
-1.6977316575
 21
21.7333321302
  0
LINE
  5
63C
100
AcDbEntity
  8
CURVE
100
AcDbLine
 62
7
  6
CONTINUOUS
 10
-1.5628896204
 20
13.1689352141
 11
-1.5623410642
 21
12.9282070762
  0
LINE
  5
63D
100
AcDbEntity
  8
CURVE
100
AcDbLine
 62
7
  6
CONTINUOUS
 10
-1.5100938202
 20
13.2878716869
 11
-1.5106422864
 21
13.5286328709
  0
LINE
  5
63E
100
AcDbEntity
  8
RACCORDO
100
AcDbLine
 62
7
  6
CONTINUOUS
 10
-1.6976753799
 20
11.6767504104
 11
-1.697775878
 21
11.7879392816
  0
LINE
  5
63F
100
AcDbEntity
  8
RACCORDO
100
AcDbLine
 62
7
  6
CONTINUOUS
 10
-1.6976753799
 20
16.6767504104
 11
-1.697775878
 21
16.7879392816
  0
LINE
  5
640
100
AcDbEntity
  8
RACCORDO
100
AcDbLine
 62
7
  6
CONTINUOUS
 10
-1.6976753799
 20
21.6767504104
 11
-1.697775878
 21
21.7879392816
  0
LINE
  5
641
100
AcDbEntity
  8
RACCORDO
100
AcDbLine
 62
7
  6
CONTINUOUS
 10
-1.6974753957
 20
26.5299201649
 11
-1.6978002088
 21
26.8251251963
  0
LINE
  5
642
100
AcDbEntity
  8
CURVE
100
AcDbLine
 62
7
  6
CONTINUOUS
 10
-1.5193665871
 20
33.1290963929
 11
-1.519223929
 21
32.9931211653
  0
LINE
  5
643
100
AcDbEntity
  8
ASSI
100
AcDbLine
 62
7
  6
CONTINUOUS
 10
-1.6977316575
 20
11.7333321302
 11
-1.6978411467
 21
11.9249089167
  0
LINE
  5
644
100
AcDbEntity
  8
ASSI
100
AcDbLine
 62
7
  6
CONTINUOUS
 10
-1.6977316575
 20
16.7333321302
 11
-1.6978411467
 21
16.9249089166
  0
LINE
  5
645
100
AcDbEntity
  8
ASSI
100
AcDbLine
 62
7
  6
CONTINUOUS
 10
-1.6977316575
 20
21.7333321302
 11
-1.6978411467
 21
21.9249089166
  0
LINE
  5
646
100
AcDbEntity
  8
ASSI
100
AcDbLine
 62
7
  6
CONTINUOUS
 10
-1.6975546377
 20
26.5813029563
 11
-1.6978471483
 21
26.9632673416
  0
LINE
  5
647
100
AcDbEntity
  8
RACCORDO
100
AcDbLine
 62
7
  6
CONTINUOUS
 10
-1.697775878
 20
11.7879392816
 11
-1.6978478485
 21
11.974110396
  0
LINE
  5
648
100
AcDbEntity
  8
RACCORDO
100
AcDbLine
 62
7
  6
CONTINUOUS
 10
-1.697775878
 20
16.7879392816
 11
-1.6978478485
 21
16.974110396
  0
LINE
  5
649
100
AcDbEntity
  8
RACCORDO
100
AcDbLine
 62
7
  6
CONTINUOUS
 10
-1.697775878
 20
21.7879392816
 11
-1.6978478485
 21
21.974110396
  0
LINE
  5
64A
100
AcDbEntity
  8
ASSI
100
AcDbLine
 62
7
  6
CONTINUOUS
 10
-1.635
 20
9.621772105
 11
-1.635
 21
14.348227895
  0
LINE
  5
64B
100
AcDbEntity
  8
ASSI
100
AcDbLine
 62
7
  6
CONTINUOUS
 10
-1.635
 20
14.621772105
 11
-1.635
 21
19.348227895
  0
LINE
  5
64C
100
AcDbEntity
  8
ASSI
100
AcDbLine
 62
7
  6
CONTINUOUS
 10
-1.635
 20
19.621772105
 11
-1.635
 21
24.348227895
  0
LINE
  5
64D
100
AcDbEntity
  8
ASSI
100
AcDbLine
 62
7
  6
CONTINUOUS
 10
-1.635
 20
24.621772105
 11
-1.635
 21
29.348227895
  0
LINE
  5
64E
100
AcDbEntity
  8
RACCORDO
100
AcDbLine
 62
7
  6
CONTINUOUS
 10
-1.6219096983
 20
9.3937756099
 11
-1.6219096983
 21
9.535
  0
LINE
  5
64F
100
AcDbEntity
  8
ASSI
100
AcDbLine
 62
7
  6
CONTINUOUS
 10
-1.6219096983
 20
9.3937756099
 11
-1.6219096983
 21
9.535
  0
LINE
  5
650
100
AcDbEntity
  8
RACCORDO
100
AcDbLine
 62
7
  6
CONTINUOUS
 10
-1.6219096983
 20
14.435
 11
-1.6219096983
 21
14.535
  0
LINE
  5
651
100
AcDbEntity
  8
ASSI
100
AcDbLine
 62
7
  6
CONTINUOUS
 10
-1.6219096983
 20
14.435
 11
-1.6219096983
 21
14.535
  0
LINE
  5
652
100
AcDbEntity
  8
RACCORDO
100
AcDbLine
 62
7
  6
CONTINUOUS
 10
-1.6219096983
 20
19.435
 11
-1.6219096983
 21
19.535
  0
LINE
  5
653
100
AcDbEntity
  8
ASSI
100
AcDbLine
 62
7
  6
CONTINUOUS
 10
-1.6219096983
 20
19.435
 11
-1.6219096983
 21
19.535
  0
LINE
  5
654
100
AcDbEntity
  8
RACCORDO
100
AcDbLine
 62
7
  6
CONTINUOUS
 10
-1.6219096983
 20
24.435
 11
-1.6219096983
 21
24.535
  0
LINE
  5
655
100
AcDbEntity
  8
ASSI
100
AcDbLine
 62
7
  6
CONTINUOUS
 10
-1.6219096983
 20
24.435
 11
-1.6219096983
 21
24.535
  0
LINE
  5
656
100
AcDbEntity
  8
RACCORDO
100
AcDbLine
 62
7
  6
CONTINUOUS
 10
-1.6219096983
 20
29.435
 11
-1.6219096983
 21
42.5762243901
  0
LINE
  5
657
100
AcDbEntity
  8
ASSI
100
AcDbLine
 62
7
  6
CONTINUOUS
 10
-1.6219096983
 20
29.435
 11
-1.6219096983
 21
42.5762243901
  0
LINE
  5
658
100
AcDbEntity
  8
0
100
AcDbLine
 62
7
  6
CONTINUOUS
 10
-1.6071854545
 20
8.3639118237
 11
-1.6071854545
 21
43.6060881763
  0
LINE
  5
659
100
AcDbEntity
  8
RACCORDO
100
AcDbLine
 62
7
  6
CONTINUOUS
 10
-1.6071854545
 20
8.3639118237
 11
-1.6071854545
 21
43.6060881763
  0
LINE
  5
65A
100
AcDbEntity
  8
CURVE
100
AcDbLine
 62
253
  6
CONTINUOUS
 10
-1.5964045276
 20
13.1469047403
 11
-1.5964045276
 21
13.056428442
  0
LINE
  5
65B
100
AcDbEntity
  8
CURVE
100
AcDbLine
 62
253
  6
CONTINUOUS
 10
-1.5954488004
 20
26.3588095313
 11
-1.5954488004
 21
25.8635714656
  0
LINE
  5
65C
100
AcDbEntity
  8
CURVE
100
AcDbLine
 62
253
  6
CONTINUOUS
 10
-1.5922076394
 20
33.2659522629
 11
-1.5922076394
 21
33.7302380657
  0
LINE
  5
65D
100
AcDbEntity
  8
CURVE
100
AcDbLine
 62
253
  6
CONTINUOUS
 10
-1.5922076394
 20
42.5207142746
 11
-1.5922076394
 21
42.985
  0
LINE
  5
65E
100
AcDbEntity
  8
CURVE
100
AcDbLine
 62
253
  6
CONTINUOUS
 10
-1.5905870589
 20
40.4778570986
 11
-1.5905870589
 21
40.9421429014
  0
LINE
  5
65F
100
AcDbEntity
  8
CURVE
100
AcDbLine
 62
253
  6
CONTINUOUS
 10
-1.5889664778
 20
41.5921429014
 11
-1.5889664778
 21
41.3135714507
  0
LINE
  5
660
100
AcDbEntity
  8
CURVE
100
AcDbLine
 62
253
  6
CONTINUOUS
 10
-1.5889664778
 20
34.2873806572
 11
-1.5889664778
 21
34.6588096714
  0
LINE
  5
661
100
AcDbEntity
  8
CURVE
100
AcDbLine
 62
253
  6
CONTINUOUS
 10
-1.5829827953
 20
14.685
 11
-1.5829827953
 21
14.277857337
  0
LINE
  5
662
100
AcDbEntity
  8
CURVE
100
AcDbLine
 62
253
  6
CONTINUOUS
 10
-1.5829827953
 20
15.770714221
 11
-1.5829827953
 21
16.042142663
  0
LINE
  5
663
100
AcDbEntity
  8
CURVE
100
AcDbLine
 62
253
  6
CONTINUOUS
 10
-1.5792429948
 20
42.985
 11
-1.5792429948
 21
42.5207142746
  0
LINE
  5
664
100
AcDbEntity
  8
CURVE
100
AcDbLine
 62
253
  6
CONTINUOUS
 10
-1.5792429948
 20
41.7778571761
 11
-1.5792429948
 21
41.3135714507
  0
LINE
  5
665
100
AcDbEntity
  8
CURVE
100
AcDbLine
 62
253
  6
CONTINUOUS
 10
-1.5792429948
 20
40.9421429014
 11
-1.5792429948
 21
40.6635714507
  0
LINE
  5
666
100
AcDbEntity
  8
CURVE
100
AcDbLine
 62
253
  6
CONTINUOUS
 10
-1.5792429948
 20
38.8992858028
 11
-1.5792429948
 21
38.435
  0
LINE
  5
667
100
AcDbEntity
  8
CURVE
100
AcDbLine
 62
253
  6
CONTINUOUS
 10
-1.5792429948
 20
34.6588096714
 11
-1.5792429948
 21
34.10166646
  0
LINE
  5
668
100
AcDbEntity
  8
CURVE
100
AcDbLine
 62
253
  6
CONTINUOUS
 10
-1.5792429948
 20
33.7302380657
 11
-1.5792429948
 21
33.2659522629
  0
LINE
  5
669
100
AcDbEntity
  8
CURVE
100
AcDbLine
 62
253
  6
CONTINUOUS
 10
-1.5792429948
 20
27.5969047731
 11
-1.5792429948
 21
26.8540475971
  0
LINE
  5
66A
100
AcDbEntity
  8
CURVE
100
AcDbLine
 62
253
  6
CONTINUOUS
 10
-1.5687715509
 20
18.485
 11
-1.5687715509
 21
18.349285779
  0
LINE
  5
66B
100
AcDbEntity
  8
CURVE
100
AcDbLine
 62
253
  6
CONTINUOUS
 10
-1.5687715509
 20
14.685
 11
-1.5687715509
 21
14.277857337
  0
LINE
  5
66C
100
AcDbEntity
  8
CURVE
100
AcDbLine
 62
253
  6
CONTINUOUS
 10
-1.5687715509
 20
9.392143116
 11
-1.5687715509
 21
9.256428442
  0
LINE
  5
66D
100
AcDbEntity
  8
CURVE
100
AcDbLine
 62
253
  6
CONTINUOUS
 10
-1.5687715509
 20
10.613571558
 11
-1.5687715509
 21
11.020714674
  0
LINE
  5
66E
100
AcDbEntity
  8
CURVE
100
AcDbLine
 62
253
  6
CONTINUOUS
 10
-1.5687715509
 20
15.770714221
 11
-1.5687715509
 21
16.313571558
  0
LINE
  5
66F
100
AcDbEntity
  8
CURVE
100
AcDbLine
 62
253
  6
CONTINUOUS
 10
-1.5687715509
 20
19.7064285553
 11
-1.5687715509
 21
20.1135714164
  0
LINE
  5
670
100
AcDbEntity
  8
CURVE
100
AcDbLine
 62
7
  6
CONTINUOUS
 10
-1.561791048
 20
8.983563
 11
-1.561791048
 21
9.500922
  0
LINE
  5
671
100
AcDbEntity
  8
CURVE
100
AcDbLine
 62
7
  6
CONTINUOUS
 10
-1.561791048
 20
10.826368
 11
-1.561791048
 21
11.32479
  0
LINE
  5
672
100
AcDbEntity
  8
CURVE
100
AcDbLine
 62
7
  6
CONTINUOUS
 10
-1.561791048
 20
14.627116
 11
-1.561791048
 21
15.278419
  0
LINE
  5
673
100
AcDbEntity
  8
CURVE
100
AcDbLine
 62
7
  6
CONTINUOUS
 10
-1.561791048
 20
16.613415
 11
-1.561791048
 21
17.131162
  0
LINE
  5
674
100
AcDbEntity
  8
CURVE
100
AcDbLine
 62
7
  6
CONTINUOUS
 10
-1.561791048
 20
17.746893
 11
-1.561791048
 21
18.264662
  0
LINE
  5
675
100
AcDbEntity
  8
CURVE
100
AcDbLine
 62
7
  6
CONTINUOUS
 10
-1.561791048
 20
18.887334
 11
-1.561791048
 21
20.947906
  0
LINE
  5
676
100
AcDbEntity
  8
CURVE
100
AcDbLine
 62
7
  6
CONTINUOUS
 10
-1.5616626179
 20
40.375935
 11
-1.5616626179
 21
39.770664
  0
LINE
  5
677
100
AcDbEntity
  8
CURVE
100
AcDbLine
 62
7
  6
CONTINUOUS
 10
-1.561662624
 20
33.8465673444
 11
-1.561662624
 21
33.2437313832
  0
LINE
  5
678
100
AcDbEntity
  8
CURVE
100
AcDbLine
 62
7
  6
CONTINUOUS
 10
-1.561662624
 20
32.3168417383
 11
-1.561662624
 21
31.7346410148
  0
LINE
  5
679
100
AcDbEntity
  8
CURVE
100
AcDbLine
 62
7
  6
CONTINUOUS
 10
-1.5616626179
 20
34.024304
 11
-1.5616626179
 21
34.662235
  0
LINE
  5
67A
100
AcDbEntity
  8
CURVE
100
AcDbLine
 62
7
  6
CONTINUOUS
 10
-1.5616626179
 20
35.810329
 11
-1.5616626179
 21
36.409033
  0
LINE
  5
67B
100
AcDbEntity
  8
CURVE
100
AcDbLine
 62
7
  6
CONTINUOUS
 10
-1.5616626179
 20
36.504077
 11
-1.5616626179
 21
37.096193
  0
LINE
  5
67C
100
AcDbEntity
  8
CURVE
100
AcDbLine
 62
7
  6
CONTINUOUS
 10
-1.5616626179
 20
37.940216
 11
-1.5616626179
 21
38.025105
  0
LINE
  5
67D
100
AcDbEntity
  8
CURVE
100
AcDbLine
 62
7
  6
CONTINUOUS
 10
-1.5616626179
 20
38.865779
 11
-1.5616626179
 21
39.444827
  0
LINE
  5
67E
100
AcDbEntity
  8
CURVE
100
AcDbLine
 62
7
  6
CONTINUOUS
 10
-1.5616626179
 20
41.532617
 11
-1.5616626179
 21
42.066013
  0
LINE
  5
67F
100
AcDbEntity
  8
CURVE
100
AcDbLine
 62
7
  6
CONTINUOUS
 10
-1.553762349
 20
20.430168
 11
-1.5537620698
 21
18.887334
  0
LINE
  5
680
100
AcDbEntity
  8
CURVE
100
AcDbLine
 62
7
  6
CONTINUOUS
 10
-1.5515614123
 20
34.819033
 11
-1.5515614123
 21
35.643312
  0
LINE
  5
681
100
AcDbEntity
  8
CURVE
100
AcDbLine
 62
7
  6
CONTINUOUS
 10
-1.5437451465
 20
35.5195
 11
-1.5437451465
 21
34.939996
  0
LINE
  5
682
100
AcDbEntity
  8
CURVE
100
AcDbLine
 62
253
  6
CONTINUOUS
 10
-1.5425929412
 20
24.7504761624
 11
-1.5425929412
 21
24.2211904061
  0
LINE
  5
683
100
AcDbEntity
  8
CURVE
100
AcDbLine
 62
253
  6
CONTINUOUS
 10
-1.5425929412
 20
25.4267857563
 11
-1.5425929412
 21
25.8678571218
  0
LINE
  5
684
100
AcDbEntity
  8
CURVE
100
AcDbLine
 62
7
  6
CONTINUOUS
 10
-1.5398397881
 20
19.002873
 11
-1.5398399626
 21
20.430168
  0
LINE
  5
685
100
AcDbEntity
  8
CURVE
100
AcDbLine
 62
253
  6
CONTINUOUS
 10
-1.5361106186
 20
26.8088095203
 11
-1.5361106186
 21
26.3383332843
  0
LINE
  5
686
100
AcDbEntity
  8
CURVE
100
AcDbLine
 62
7
  6
CONTINUOUS
 10
-1.5334859784
 20
32.8421372849
 11
-1.53357451
 21
33.2638012718
  0
LINE
  5
687
100
AcDbEntity
  8
CURVE
100
AcDbLine
 62
7
  6
CONTINUOUS
 10
-1.5318104609
 20
20.430168
 11
-1.5318106354
 21
19.002873
  0
LINE
  5
688
100
AcDbEntity
  8
CURVE
100
AcDbLine
 62
253
  6
CONTINUOUS
 10
-1.5296282959
 20
24.3976191878
 11
-1.5296282959
 21
24.7504761624
  0
LINE
  5
689
100
AcDbEntity
  8
CURVE
100
AcDbLine
 62
253
  6
CONTINUOUS
 10
-1.5199048129
 20
25.8678571218
 11
-1.5199048129
 21
25.4267857563
  0
LINE
  5
68A
100
AcDbEntity
  8
CURVE
100
AcDbLine
 62
253
  6
CONTINUOUS
 10
-1.5199048129
 20
24.7504761624
 11
-1.5199048129
 21
24.2211904061
  0
LINE
  5
68B
100
AcDbEntity
  8
CURVE
100
AcDbLine
 62
7
  6
CONTINUOUS
 10
-1.5192315655
 20
18.898987
 11
-1.5192314608
 21
20.430168
  0
LINE
  5
68C
100
AcDbEntity
  8
CURVE
100
AcDbLine
 62
7
  6
CONTINUOUS
 10
-1.5112025873
 20
20.947906
 11
-1.5112025873
 21
18.898987
  0
LINE
  5
68D
100
AcDbEntity
  8
CURVE
100
AcDbLine
 62
7
  6
CONTINUOUS
 10
-1.5112025873
 20
18.264662
 11
-1.5112025873
 21
17.746893
  0
LINE
  5
68E
100
AcDbEntity
  8
CURVE
100
AcDbLine
 62
7
  6
CONTINUOUS
 10
-1.5112025873
 20
17.131162
 11
-1.5112025873
 21
16.613415
  0
LINE
  5
68F
100
AcDbEntity
  8
CURVE
100
AcDbLine
 62
7
  6
CONTINUOUS
 10
-1.5112025873
 20
15.328164
 11
-1.5112025873
 21
14.63395
  0
LINE
  5
690
100
AcDbEntity
  8
CURVE
100
AcDbLine
 62
7
  6
CONTINUOUS
 10
-1.5112025873
 20
11.32479
 11
-1.5112025873
 21
10.818899
  0
LINE
  5
691
100
AcDbEntity
  8
CURVE
100
AcDbLine
 62
7
  6
CONTINUOUS
 10
-1.5112025873
 20
9.481991
 11
-1.5112025873
 21
8.983563
  0
LINE
  5
692
100
AcDbEntity
  8
CURVE
100
AcDbLine
 62
7
  6
CONTINUOUS
 10
-1.5110644027
 20
42.98526
 11
-1.5110644027
 21
42.327748
  0
LINE
  5
693
100
AcDbEntity
  8
CURVE
100
AcDbLine
 62
7
  6
CONTINUOUS
 10
-1.5110644027
 20
41.20541
 11
-1.5110644027
 21
40.600552
  0
LINE
  5
694
100
AcDbEntity
  8
CURVE
100
AcDbLine
 62
7
  6
CONTINUOUS
 10
-1.5110644027
 20
39.183005
 11
-1.5110644027
 21
38.578234
  0
LINE
  5
695
100
AcDbEntity
  8
CURVE
100
AcDbLine
 62
7
  6
CONTINUOUS
 10
-1.5110644027
 20
37.374084
 11
-1.5110644027
 21
36.775227
  0
LINE
  5
696
100
AcDbEntity
  8
CURVE
100
AcDbLine
 62
7
  6
CONTINUOUS
 10
-1.5110644027
 20
35.499517
 11
-1.5110644027
 21
34.91399
  0
LINE
  5
697
100
AcDbEntity
  8
CURVE
100
AcDbLine
 62
7
  6
CONTINUOUS
 10
-1.5110613665
 20
39.770664
 11
-1.5110613665
 21
40.375935
  0
LINE
  5
698
100
AcDbEntity
  8
0
100
AcDbLine
 62
7
  6
CONTINUOUS
 10
-1.5024537356
 20
7.4675462644
 11
-1.5024537356
 21
8.0657105877
  0
LINE
  5
699
100
AcDbEntity
  8
0
100
AcDbLine
 62
7
  6
CONTINUOUS
 10
-1.5024537356
 20
43.9042894123
 11
-1.5024537356
 21
44.5024537356
  0
LINE
  5
69A
100
AcDbEntity
  8
0
100
AcDbLine
 62
7
  6
CONTINUOUS
 10
-1.4937268678
 20
4.0908009068
 11
-1.4937268678
 21
7.4762731322
  0
LINE
  5
69B
100
AcDbEntity
  8
0
100
AcDbLine
 62
7
  6
CONTINUOUS
 10
-1.4937268678
 20
44.4937268678
 11
-1.4937268678
 21
47.8791990932
  0
LINE
  5
69C
100
AcDbEntity
  8
RACCORDO
100
AcDbLine
 62
7
  6
CONTINUOUS
 10
-1.485
 20
8.3133009513
 11
-1.485
 21
43.6566990487
  0
LINE
  5
69D
100
AcDbEntity
  8
0
100
AcDbLine
 62
7
  6
CONTINUOUS
 10
-1.485
 20
4.084983077
 11
-1.485
 21
47.885016923
  0
LINE
  5
69E
100
AcDbEntity
  8
CURVE
100
AcDbLine
 62
7
  6
CONTINUOUS
 10
-1.5548498646
 20
13.1562798279
 11
-1.5549001052
 21
13.2447090212
  0
LINE
  5
69F
100
AcDbEntity
  8
CURVE
100
AcDbLine
 62
7
  6
CONTINUOUS
 10
-1.5181427729
 20
13.2981212564
 11
-1.5180929156
 21
13.2094621885
  0
LINE
  5
6A0
100
AcDbEntity
  8
ASSI
100
AcDbLine
 62
7
  6
CONTINUOUS
 10
-1.6978411467
 20
21.9249089166
 11
-1.6978162689
 21
22.1163275166
  0
LINE
  5
6A1
100
AcDbEntity
  8
ASSI
100
AcDbLine
 62
7
  6
CONTINUOUS
 10
-1.6978411467
 20
16.9249089166
 11
-1.6978162689
 21
17.1163275166
  0
LINE
  5
6A2
100
AcDbEntity
  8
ASSI
100
AcDbLine
 62
7
  6
CONTINUOUS
 10
-1.6978411467
 20
11.9249089167
 11
-1.6978162689
 21
12.1163275166
  0
LINE
  5
6A3
100
AcDbEntity
  8
RACCORDO
100
AcDbLine
 62
7
  6
CONTINUOUS
 10
-1.6978002088
 20
26.8251251963
 11
-1.6977655517
 21
27.1966348401
  0
LINE
  5
6A4
100
AcDbEntity
  8
RACCORDO
100
AcDbLine
 62
7
  6
CONTINUOUS
 10
-1.6978478485
 20
21.974110396
 11
-1.6977917271
 21
22.1597329985
  0
LINE
  5
6A5
100
AcDbEntity
  8
RACCORDO
100
AcDbLine
 62
7
  6
CONTINUOUS
 10
-1.6978478485
 20
16.974110396
 11
-1.6977917271
 21
17.1597329985
  0
LINE
  5
6A6
100
AcDbEntity
  8
RACCORDO
100
AcDbLine
 62
7
  6
CONTINUOUS
 10
-1.6978478485
 20
11.974110396
 11
-1.6977917271
 21
12.1597329985
  0
LINE
  5
6A7
100
AcDbEntity
  8
CURVE
100
AcDbLine
 62
7
  6
CONTINUOUS
 10
-1.5104384171
 20
32.9049789375
 11
-1.5104988673
 21
33.2674725541
  0
LINE
  5
6A8
100
AcDbEntity
  8
ASSI
100
AcDbLine
 62
7
  6
CONTINUOUS
 10
-1.6978471483
 20
26.9632673416
 11
-1.6976610572
 21
27.3056209472
  0
LINE
  5
6A9
100
AcDbEntity
  8
ASSI
100
AcDbLine
 62
7
  6
CONTINUOUS
 10
-1.6978162689
 20
22.1163275166
 11
-1.6977015718
 21
22.2680286631
  0
LINE
  5
6AA
100
AcDbEntity
  8
RACCORDO
100
AcDbLine
 62
7
  6
CONTINUOUS
 10
-1.6977917271
 20
22.1597329985
 11
-1.6976994801
 21
22.2700822835
  0
LINE
  5
6AB
100
AcDbEntity
  8
ASSI
100
AcDbLine
 62
7
  6
CONTINUOUS
 10
-1.6978162689
 20
17.1163275166
 11
-1.6977015718
 21
17.2680286631
  0
LINE
  5
6AC
100
AcDbEntity
  8
RACCORDO
100
AcDbLine
 62
7
  6
CONTINUOUS
 10
-1.6977917271
 20
17.1597329985
 11
-1.6976994801
 21
17.2700822835
  0
LINE
  5
6AD
100
AcDbEntity
  8
ASSI
100
AcDbLine
 62
7
  6
CONTINUOUS
 10
-1.6978162689
 20
12.1163275166
 11
-1.6977015718
 21
12.2680286631
  0
LINE
  5
6AE
100
AcDbEntity
  8
RACCORDO
100
AcDbLine
 62
7
  6
CONTINUOUS
 10
-1.6977917271
 20
12.1597329985
 11
-1.6976994801
 21
12.2700822835
  0
LINE
  5
6AF
100
AcDbEntity
  8
CURVE
100
AcDbLine
 62
7
  6
CONTINUOUS
 10
-1.519223929
 20
32.9931211653
 11
-1.5192784026
 21
32.8571781128
  0
LINE
  5
6B0
100
AcDbEntity
  8
RACCORDO
100
AcDbLine
 62
7
  6
CONTINUOUS
 10
-1.6977655517
 20
27.1966348401
 11
-1.6974567697
 21
27.4510512752
  0
LINE
  5
6B1
100
AcDbEntity
  8
RACCORDO
100
AcDbLine
 62
7
  6
CONTINUOUS
 10
-1.6976994801
 20
22.2700822835
 11
-1.6975144599
 21
22.4152189488
  0
LINE
  5
6B2
100
AcDbEntity
  8
RACCORDO
100
AcDbLine
 62
7
  6
CONTINUOUS
 10
-1.6976994801
 20
17.2700822835
 11
-1.6975144599
 21
17.4152189488
  0
LINE
  5
6B3
100
AcDbEntity
  8
RACCORDO
100
AcDbLine
 62
7
  6
CONTINUOUS
 10
-1.6976994801
 20
12.2700822835
 11
-1.6975144599
 21
12.4152189488
  0
LINE
  5
6B4
100
AcDbEntity
  8
ASSI
100
AcDbLine
 62
7
  6
CONTINUOUS
 10
-1.6977015718
 20
22.2680286631
 11
-1.6974514116
 21
22.4542295087
  0
LINE
  5
6B5
100
AcDbEntity
  8
ASSI
100
AcDbLine
 62
7
  6
CONTINUOUS
 10
-1.6977015718
 20
17.2680286631
 11
-1.6974514116
 21
17.4542295087
  0
LINE
  5
6B6
100
AcDbEntity
  8
ASSI
100
AcDbLine
 62
7
  6
CONTINUOUS
 10
-1.6977015718
 20
12.2680286631
 11
-1.6974514116
 21
12.4542295087
  0
LINE
  5
6B7
100
AcDbEntity
  8
CURVE
100
AcDbLine
 62
7
  6
CONTINUOUS
 10
-1.562705366
 20
13.4080457276
 11
-1.5628896204
 21
13.1689352141
  0
LINE
  5
6B8
100
AcDbEntity
  8
CURVE
100
AcDbLine
 62
7
  6
CONTINUOUS
 10
-1.5549001052
 20
13.2447090212
 11
-1.554784065
 21
13.3339557735
  0
LINE
  5
6B9
100
AcDbEntity
  8
CURVE
100
AcDbLine
 62
7
  6
CONTINUOUS
 10
-1.5180929156
 20
13.2094621885
 11
-1.5182096897
 21
13.1206068629
  0
LINE
  5
6BA
100
AcDbEntity
  8
CURVE
100
AcDbLine
 62
7
  6
CONTINUOUS
 10
-1.5102781064
 20
13.0487775251
 11
-1.5100938202
 21
13.2878716869
  0
LINE
  5
6BB
100
AcDbEntity
  8
RACCORDO
100
AcDbLine
 62
7
  6
CONTINUOUS
 10
-1.6975144599
 20
22.4152189488
 11
-1.6970994873
 21
22.6268760776
  0
LINE
  5
6BC
100
AcDbEntity
  8
RACCORDO
100
AcDbLine
 62
7
  6
CONTINUOUS
 10
-1.6975144599
 20
17.4152189488
 11
-1.6970994873
 21
17.6268760776
  0
LINE
  5
6BD
100
AcDbEntity
  8
RACCORDO
100
AcDbLine
 62
7
  6
CONTINUOUS
 10
-1.6975144599
 20
12.4152189488
 11
-1.6970994873
 21
12.6268760776
  0
LINE
  5
6BE
100
AcDbEntity
  8
ASSI
100
AcDbLine
 62
7
  6
CONTINUOUS
 10
-1.6976610572
 20
27.3056209472
 11
-1.6968995719
 21
27.7053324083
  0
LINE
  5
6BF
100
AcDbEntity
  8
ASSI
100
AcDbLine
 62
7
  6
CONTINUOUS
 10
-1.6974514116
 20
22.4542295087
 11
-1.6969919341
 21
22.6702903115
  0
LINE
  5
6C0
100
AcDbEntity
  8
ASSI
100
AcDbLine
 62
7
  6
CONTINUOUS
 10
-1.6974514116
 20
17.4542295087
 11
-1.6969919341
 21
17.6702903115
  0
LINE
  5
6C1
100
AcDbEntity
  8
ASSI
100
AcDbLine
 62
7
  6
CONTINUOUS
 10
-1.6974514116
 20
12.4542295087
 11
-1.6969919341
 21
12.6702903115
  0
LINE
  5
6C2
100
AcDbEntity
  8
CURVE
100
AcDbLine
 62
7
  6
CONTINUOUS
 10
-1.5418612758
 20
33.2437313832
 11
-1.5419381642
 21
32.8648990323
  0
LINE
  5
6C3
100
AcDbEntity
  8
RACCORDO
100
AcDbLine
 62
7
  6
CONTINUOUS
 10
-1.6974567697
 20
27.4510512752
 11
-1.6966381856
 21
27.7959906027
  0
LINE
  5
6C4
100
AcDbEntity
  8
RACCORDO
100
AcDbLine
 62
7
  6
CONTINUOUS
 10
-1.6970994873
 20
22.6268760776
 11
-1.6967376458
 21
22.7627738924
  0
LINE
  5
6C5
100
AcDbEntity
  8
RACCORDO
100
AcDbLine
 62
7
  6
CONTINUOUS
 10
-1.6970994873
 20
17.6268760776
 11
-1.6967376458
 21
17.7627738924
  0
LINE
  5
6C6
100
AcDbEntity
  8
RACCORDO
100
AcDbLine
 62
7
  6
CONTINUOUS
 10
-1.6970994873
 20
12.6268760776
 11
-1.6967376458
 21
12.7627738924
  0
LINE
  5
6C7
100
AcDbEntity
  8
ASSI
100
AcDbLine
 62
7
  6
CONTINUOUS
 10
-1.6969919341
 20
22.6702903115
 11
-1.6965995134
 21
22.8085340045
  0
LINE
  5
6C8
100
AcDbEntity
  8
ASSI
100
AcDbLine
 62
7
  6
CONTINUOUS
 10
-1.6969919341
 20
17.6702903115
 11
-1.6965995134
 21
17.8085340045
  0
LINE
  5
6C9
100
AcDbEntity
  8
ASSI
100
AcDbLine
 62
7
  6
CONTINUOUS
 10
-1.6969919341
 20
12.6702903115
 11
-1.6965995134
 21
12.8085340045
  0
LINE
  5
6CA
100
AcDbEntity
  8
CURVE
100
AcDbLine
 62
7
  6
CONTINUOUS
 10
-1.5192784026
 20
32.8571781128
 11
-1.5194770686
 21
32.756443063
  0
LINE
  5
6CB
100
AcDbEntity
  8
CURVE
100
AcDbLine
 62
7
  6
CONTINUOUS
 10
-1.5111450333
 20
32.569343346
 11
-1.5104384171
 21
32.9049789375
  0
LINE
  5
6CC
100
AcDbEntity
  8
RACCORDO
100
AcDbLine
 62
7
  6
CONTINUOUS
 10
-1.6967376458
 20
22.7627738924
 11
-1.6962064291
 21
22.925670725
  0
LINE
  5
6CD
100
AcDbEntity
  8
RACCORDO
100
AcDbLine
 62
7
  6
CONTINUOUS
 10
-1.6967376458
 20
17.7627738924
 11
-1.6962064291
 21
17.925670725
  0
LINE
  5
6CE
100
AcDbEntity
  8
RACCORDO
100
AcDbLine
 62
7
  6
CONTINUOUS
 10
-1.6967376458
 20
12.7627738924
 11
-1.6962064291
 21
12.925670725
  0
LINE
  5
6CF
100
AcDbEntity
  8
RACCORDO
100
AcDbLine
 62
7
  6
CONTINUOUS
 10
-1.6966381856
 20
27.7959906027
 11
-1.695969632
 21
27.9885602688
  0
LINE
  5
6D0
100
AcDbEntity
  8
CURVE
100
AcDbLine
 62
7
  6
CONTINUOUS
 10
-1.554784065
 20
13.3339557735
 11
-1.5545052838
 21
13.4235482725
  0
LINE
  5
6D1
100
AcDbEntity
  8
CURVE
100
AcDbLine
 62
7
  6
CONTINUOUS
 10
-1.5182096897
 20
13.1206068629
 11
-1.5184898502
 21
13.0314382822
  0
LINE
  5
6D2
100
AcDbEntity
  8
ASSI
100
AcDbLine
 62
7
  6
CONTINUOUS
 10
-1.6965995134
 20
22.8085340045
 11
-1.6959011941
 21
23.005843555
  0
LINE
  5
6D3
100
AcDbEntity
  8
ASSI
100
AcDbLine
 62
7
  6
CONTINUOUS
 10
-1.6965995134
 20
17.8085340045
 11
-1.6959011941
 21
18.005843555
  0
LINE
  5
6D4
100
AcDbEntity
  8
ASSI
100
AcDbLine
 62
7
  6
CONTINUOUS
 10
-1.6965995134
 20
12.8085340045
 11
-1.6959011941
 21
13.005843555
  0
LINE
  5
6D5
100
AcDbEntity
  8
ASSI
100
AcDbLine
 62
7
  6
CONTINUOUS
 10
-1.6968995719
 20
27.7053324083
 11
-1.6957719077
 21
28.0375166239
  0
LINE
  5
6D6
100
AcDbEntity
  8
ASSI
100
AcDbLine
 62
7
  6
CONTINUOUS
 10
-1.6959011941
 20
23.005843555
 11
-1.6956390558
 21
23.0688374838
  0
LINE
  5
6D7
100
AcDbEntity
  8
ASSI
100
AcDbLine
 62
7
  6
CONTINUOUS
 10
-1.6959011941
 20
18.005843555
 11
-1.6956390558
 21
18.0688374838
  0
LINE
  5
6D8
100
AcDbEntity
  8
ASSI
100
AcDbLine
 62
7
  6
CONTINUOUS
 10
-1.6959011941
 20
13.005843555
 11
-1.6956390558
 21
13.0688374838
  0
LINE
  5
6D9
100
AcDbEntity
  8
RACCORDO
100
AcDbLine
 62
7
  6
CONTINUOUS
 10
-1.6962064291
 20
22.925670725
 11
-1.6954551622
 21
23.1103530766
  0
LINE
  5
6DA
100
AcDbEntity
  8
RACCORDO
100
AcDbLine
 62
7
  6
CONTINUOUS
 10
-1.6962064291
 20
17.925670725
 11
-1.6954551622
 21
18.1103530766
  0
LINE
  5
6DB
100
AcDbEntity
  8
RACCORDO
100
AcDbLine
 62
7
  6
CONTINUOUS
 10
-1.6962064291
 20
12.925670725
 11
-1.6954551622
 21
13.1103530766
  0
LINE
  5
6DC
100
AcDbEntity
  8
RACCORDO
100
AcDbLine
 62
7
  6
CONTINUOUS
 10
-1.695969632
 20
27.9885602688
 11
-1.6951788916
 21
28.1692324911
  0
LINE
  5
6DD
100
AcDbEntity
  8
RACCORDO
100
AcDbLine
 62
7
  6
CONTINUOUS
 10
-1.6954551622
 20
23.1103530766
 11
-1.6951788916
 21
23.1692324911
  0
LINE
  5
6DE
100
AcDbEntity
  8
RACCORDO
100
AcDbLine
 62
7
  6
CONTINUOUS
 10
-1.6954551622
 20
18.1103530766
 11
-1.6951788916
 21
18.1692324911
  0
LINE
  5
6DF
100
AcDbEntity
  8
RACCORDO
100
AcDbLine
 62
7
  6
CONTINUOUS
 10
-1.6954551622
 20
13.1103530766
 11
-1.6951788916
 21
13.1692324911
  0
LINE
  5
6E0
100
AcDbEntity
  8
ASSI
100
AcDbLine
 62
7
  6
CONTINUOUS
 10
-1.6957719077
 20
28.0375166239
 11
-1.6949255568
 21
28.2200921787
  0
LINE
  5
6E1
100
AcDbEntity
  8
CURVE
100
AcDbLine
 62
7
  6
CONTINUOUS
 10
-1.5618013204
 20
13.6481532111
 11
-1.562705366
 21
13.4080457276
  0
LINE
  5
6E2
100
AcDbEntity
  8
CURVE
100
AcDbLine
 62
7
  6
CONTINUOUS
 10
-1.5111822319
 20
12.8087044664
 11
-1.5102781064
 21
13.0487775251
  0
LINE
  5
6E3
100
AcDbEntity
  8
ASSI
100
AcDbLine
 62
7
  6
CONTINUOUS
 10
-1.6956390558
 20
23.0688374838
 11
-1.6947741318
 21
23.2492632489
  0
LINE
  5
6E4
100
AcDbEntity
  8
ASSI
100
AcDbLine
 62
7
  6
CONTINUOUS
 10
-1.6956390558
 20
18.0688374838
 11
-1.6947741318
 21
18.2492632489
  0
LINE
  5
6E5
100
AcDbEntity
  8
ASSI
100
AcDbLine
 62
7
  6
CONTINUOUS
 10
-1.6956390558
 20
13.0688374838
 11
-1.6947741318
 21
13.2492632489
  0
LINE
  5
6E6
100
AcDbEntity
  8
CURVE
100
AcDbLine
 62
7
  6
CONTINUOUS
 10
-1.5545052838
 20
13.4235482725
 11
-1.5540675958
 21
13.5118034942
  0
LINE
  5
6E7
100
AcDbEntity
  8
CURVE
100
AcDbLine
 62
7
  6
CONTINUOUS
 10
-1.5184898502
 20
13.0314382822
 11
-1.5189290536
 21
12.9436200431
  0
LINE
  5
6E8
100
AcDbEntity
  8
RACCORDO
100
AcDbLine
 62
7
  6
CONTINUOUS
 10
-1.6951788916
 20
28.1692324911
 11
-1.6941299349
 21
28.3645254388
  0
LINE
  5
6E9
100
AcDbEntity
  8
RACCORDO
100
AcDbLine
 62
7
  6
CONTINUOUS
 10
-1.6951788916
 20
23.1692324911
 11
-1.6941299349
 21
23.3645254388
  0
LINE
  5
6EA
100
AcDbEntity
  8
CURVE
100
AcDbLine
 62
253
  6
CONTINUOUS
 10
-1.5792429948
 20
40.6635714507
 11
-1.5797831889
 21
40.5707143521
  0
LINE
  5
6EB
100
AcDbEntity
  8
RACCORDO
100
AcDbLine
 62
7
  6
CONTINUOUS
 10
-1.6951788916
 20
18.1692324911
 11
-1.6941299349
 21
18.3645254388
  0
LINE
  5
6EC
100
AcDbEntity
  8
RACCORDO
100
AcDbLine
 62
7
  6
CONTINUOUS
 10
-1.6951788916
 20
13.1692324911
 11
-1.6941299349
 21
13.3645254388
  0
LINE
  5
6ED
100
AcDbEntity
  8
CURVE
100
AcDbLine
 62
7
  6
CONTINUOUS
 10
-1.5419381642
 20
32.8648990323
 11
-1.5421754412
 21
32.8121496619
  0
LINE
  5
6EE
100
AcDbEntity
  8
ASSI
100
AcDbLine
 62
7
  6
CONTINUOUS
 10
-1.6949255568
 20
28.2200921787
 11
-1.6939788133
 21
28.3896434
  0
LINE
  5
6EF
100
AcDbEntity
  8
ASSI
100
AcDbLine
 62
7
  6
CONTINUOUS
 10
-1.6947741318
 20
23.2492632489
 11
-1.6938118165
 21
23.4166214271
  0
LINE
  5
6F0
100
AcDbEntity
  8
ASSI
100
AcDbLine
 62
7
  6
CONTINUOUS
 10
-1.6947741318
 20
18.2492632489
 11
-1.6938118165
 21
18.4166214271
  0
LINE
  5
6F1
100
AcDbEntity
  8
ASSI
100
AcDbLine
 62
7
  6
CONTINUOUS
 10
-1.6947741318
 20
13.2492632489
 11
-1.6938118165
 21
13.4166214271
  0
LINE
  5
6F2
100
AcDbEntity
  8
CURVE
100
AcDbLine
 62
7
  6
CONTINUOUS
 10
-1.5194770686
 20
32.756443063
 11
-1.5197975225
 21
32.6910405019
  0
LINE
  5
6F3
100
AcDbEntity
  8
RACCORDO
100
AcDbLine
 62
7
  6
CONTINUOUS
 10
-1.6941299349
 20
28.3645254388
 11
-1.6931346849
 21
28.5184373142
  0
LINE
  5
6F4
100
AcDbEntity
  8
RACCORDO
100
AcDbLine
 62
7
  6
CONTINUOUS
 10
-1.6941299349
 20
23.3645254388
 11
-1.6931346849
 21
23.5184373142
  0
LINE
  5
6F5
100
AcDbEntity
  8
RACCORDO
100
AcDbLine
 62
7
  6
CONTINUOUS
 10
-1.6941299349
 20
18.3645254388
 11
-1.6931346849
 21
18.5184373142
  0
LINE
  5
6F6
100
AcDbEntity
  8
RACCORDO
100
AcDbLine
 62
7
  6
CONTINUOUS
 10
-1.6941299349
 20
13.3645254388
 11
-1.6931346849
 21
13.5184373142
  0
LINE
  5
6F7
100
AcDbEntity
  8
ASSI
100
AcDbLine
 62
7
  6
CONTINUOUS
 10
-1.6939788133
 20
28.3896434
 11
-1.6929378313
 21
28.5459986206
  0
LINE
  5
6F8
100
AcDbEntity
  8
ASSI
100
AcDbLine
 62
7
  6
CONTINUOUS
 10
-1.6938118165
 20
23.4166214271
 11
-1.6927557045
 21
23.5707715764
  0
LINE
  5
6F9
100
AcDbEntity
  8
ASSI
100
AcDbLine
 62
7
  6
CONTINUOUS
 10
-1.6938118165
 20
18.4166214271
 11
-1.6927557045
 21
18.5707715764
  0
LINE
  5
6FA
100
AcDbEntity
  8
ASSI
100
AcDbLine
 62
7
  6
CONTINUOUS
 10
-1.6938118165
 20
13.4166214271
 11
-1.6927557045
 21
13.5707715764
  0
LINE
  5
6FB
100
AcDbEntity
  8
CURVE
100
AcDbLine
 62
7
  6
CONTINUOUS
 10
-1.5124876612
 20
32.311173549
 11
-1.5111450333
 21
32.569343346
  0
LINE
  5
6FC
100
AcDbEntity
  8
CURVE
100
AcDbLine
 62
7
  6
CONTINUOUS
 10
-1.5540675958
 20
13.5118034942
 11
-1.5534748349
 21
13.5970384143
  0
LINE
  5
6FD
100
AcDbEntity
  8
CURVE
100
AcDbLine
 62
7
  6
CONTINUOUS
 10
-1.5189290536
 20
12.9436200431
 11
-1.519522956
 21
12.8588157422
  0
LINE
  5
6FE
100
AcDbEntity
  8
RACCORDO
100
AcDbLine
 62
7
  6
CONTINUOUS
 10
-1.6931346849
 20
28.5184373142
 11
-1.6920586146
 21
28.6598630589
  0
LINE
  5
6FF
100
AcDbEntity
  8
RACCORDO
100
AcDbLine
 62
7
  6
CONTINUOUS
 10
-1.6931346849
 20
23.5184373142
 11
-1.6920586146
 21
23.6598630589
  0
LINE
  5
700
100
AcDbEntity
  8
RACCORDO
100
AcDbLine
 62
7
  6
CONTINUOUS
 10
-1.6931346849
 20
18.5184373142
 11
-1.6920586146
 21
18.6598630589
  0
LINE
  5
701
100
AcDbEntity
  8
RACCORDO
100
AcDbLine
 62
7
  6
CONTINUOUS
 10
-1.6931346849
 20
13.5184373142
 11
-1.6920586146
 21
13.6598630589
  0
LINE
  5
702
100
AcDbEntity
  8
ASSI
100
AcDbLine
 62
7
  6
CONTINUOUS
 10
-1.6929378313
 20
28.5459986206
 11
-1.6918149156
 21
28.6891154016
  0
LINE
  5
703
100
AcDbEntity
  8
ASSI
100
AcDbLine
 62
7
  6
CONTINUOUS
 10
-1.6927557045
 20
23.5707715764
 11
-1.6916215857
 21
23.7116799111
  0
LINE
  5
704
100
AcDbEntity
  8
ASSI
100
AcDbLine
 62
7
  6
CONTINUOUS
 10
-1.6927557045
 20
18.5707715764
 11
-1.6916215857
 21
18.7116799111
  0
LINE
  5
705
100
AcDbEntity
  8
ASSI
100
AcDbLine
 62
7
  6
CONTINUOUS
 10
-1.6927557045
 20
13.5707715764
 11
-1.6916215857
 21
13.7116799111
  0
LINE
  5
706
100
AcDbEntity
  8
CURVE
100
AcDbLine
 62
7
  6
CONTINUOUS
 10
-1.5602128928
 20
13.8781093794
 11
-1.5618013204
 21
13.6481532111
  0
LINE
  5
707
100
AcDbEntity
  8
CURVE
100
AcDbLine
 62
7
  6
CONTINUOUS
 10
-1.5127707185
 20
12.5787832031
 11
-1.5111822319
 21
12.8087044664
  0
LINE
  5
708
100
AcDbEntity
  8
RACCORDO
100
AcDbLine
 62
7
  6
CONTINUOUS
 10
-1.6920586146
 20
28.6598630589
 11
-1.6909213486
 21
28.7888076398
  0
LINE
  5
709
100
AcDbEntity
  8
RACCORDO
100
AcDbLine
 62
7
  6
CONTINUOUS
 10
-1.6920586146
 20
23.6598630589
 11
-1.6909213486
 21
23.7888076398
  0
LINE
  5
70A
100
AcDbEntity
  8
RACCORDO
100
AcDbLine
 62
7
  6
CONTINUOUS
 10
-1.6920586146
 20
18.6598630589
 11
-1.6909213486
 21
18.7888076398
  0
LINE
  5
70B
100
AcDbEntity
  8
RACCORDO
100
AcDbLine
 62
7
  6
CONTINUOUS
 10
-1.6920586146
 20
13.6598630589
 11
-1.6909213486
 21
13.7888076398
  0
LINE
  5
70C
100
AcDbEntity
  8
ASSI
100
AcDbLine
 62
7
  6
CONTINUOUS
 10
-1.6918149156
 20
28.6891154016
 11
-1.6906287479
 21
28.8189989231
  0
LINE
  5
70D
100
AcDbEntity
  8
CURVE
100
AcDbLine
 62
7
  6
CONTINUOUS
 10
-1.5197975225
 20
32.6910405019
 11
-1.5203011545
 21
32.6291032918
  0
LINE
  5
70E
100
AcDbEntity
  8
CURVE
100
AcDbLine
 62
7
  6
CONTINUOUS
 10
-1.5421754412
 20
32.8121496619
 11
-1.5425921795
 21
32.7613199985
  0
LINE
  5
70F
100
AcDbEntity
  8
ASSI
100
AcDbLine
 62
7
  6
CONTINUOUS
 10
-1.6916215857
 20
23.7116799111
 11
-1.6904248482
 21
23.8393678279
  0
LINE
  5
710
100
AcDbEntity
  8
ASSI
100
AcDbLine
 62
7
  6
CONTINUOUS
 10
-1.6916215857
 20
18.7116799111
 11
-1.6904248482
 21
18.8393678279
  0
LINE
  5
711
100
AcDbEntity
  8
ASSI
100
AcDbLine
 62
7
  6
CONTINUOUS
 10
-1.6916215857
 20
13.7116799111
 11
-1.6904248482
 21
13.8393678279
  0
LINE
  5
712
100
AcDbEntity
  8
CURVE
100
AcDbLine
 62
7
  6
CONTINUOUS
 10
-1.5534748349
 20
13.5970384143
 11
-1.5527308353
 21
13.6775700089
  0
LINE
  5
713
100
AcDbEntity
  8
CURVE
100
AcDbLine
 62
7
  6
CONTINUOUS
 10
-1.519522956
 20
12.8588157422
 11
-1.5202672138
 21
12.7786889766
  0
LINE
  5
714
100
AcDbEntity
  8
RACCORDO
100
AcDbLine
 62
7
  6
CONTINUOUS
 10
-1.6909213486
 20
28.7888076398
 11
-1.6897248876
 21
28.9053726732
  0
LINE
  5
715
100
AcDbEntity
  8
RACCORDO
100
AcDbLine
 62
7
  6
CONTINUOUS
 10
-1.6909213486
 20
23.7888076398
 11
-1.6897248876
 21
23.9053726732
  0
LINE
  5
716
100
AcDbEntity
  8
RACCORDO
100
AcDbLine
 62
7
  6
CONTINUOUS
 10
-1.6909213486
 20
18.7888076398
 11
-1.6897248876
 21
18.9053726732
  0
LINE
  5
717
100
AcDbEntity
  8
RACCORDO
100
AcDbLine
 62
7
  6
CONTINUOUS
 10
-1.6909213486
 20
13.7888076398
 11
-1.6897248876
 21
13.9053726732
  0
LINE
  5
718
100
AcDbEntity
  8
ASSI
100
AcDbLine
 62
7
  6
CONTINUOUS
 10
-1.6906287479
 20
28.8189989231
 11
-1.689380567
 21
28.9357727824
  0
LINE
  5
719
100
AcDbEntity
  8
ASSI
100
AcDbLine
 62
7
  6
CONTINUOUS
 10
-1.6904248482
 20
23.8393678279
 11
-1.6891672654
 21
23.9539722776
  0
LINE
  5
71A
100
AcDbEntity
  8
CURVE
100
AcDbLine
 62
7
  6
CONTINUOUS
 10
-1.5386626758
 20
32.224854844
 11
-1.5380438239
 21
32.29044429
  0
LINE
  5
71B
100
AcDbEntity
  8
ASSI
100
AcDbLine
 62
7
  6
CONTINUOUS
 10
-1.6904248482
 20
18.8393678279
 11
-1.6891672654
 21
18.9539722776
  0
LINE
  5
71C
100
AcDbEntity
  8
ASSI
100
AcDbLine
 62
7
  6
CONTINUOUS
 10
-1.6904248482
 20
13.8393678279
 11
-1.6891672654
 21
13.9539722776
  0
LINE
  5
71D
100
AcDbEntity
  8
CURVE
100
AcDbLine
 62
7
  6
CONTINUOUS
 10
-1.5582895914
 20
14.0617200904
 11
-1.5602128928
 21
13.8781093794
  0
LINE
  5
71E
100
AcDbEntity
  8
CURVE
100
AcDbLine
 62
7
  6
CONTINUOUS
 10
-1.5146939935
 20
12.3952012709
 11
-1.5127707185
 21
12.5787832031
  0
LINE
  5
71F
100
AcDbEntity
  8
RACCORDO
100
AcDbLine
 62
7
  6
CONTINUOUS
 10
-1.6897248876
 20
28.9053726732
 11
-1.6884781844
 21
29.0097062161
  0
LINE
  5
720
100
AcDbEntity
  8
RACCORDO
100
AcDbLine
 62
7
  6
CONTINUOUS
 10
-1.6897248876
 20
23.9053726732
 11
-1.6884781844
 21
24.0097062161
  0
LINE
  5
721
100
AcDbEntity
  8
RACCORDO
100
AcDbLine
 62
7
  6
CONTINUOUS
 10
-1.6897248876
 20
18.9053726732
 11
-1.6884781844
 21
19.0097062161
  0
LINE
  5
722
100
AcDbEntity
  8
RACCORDO
100
AcDbLine
 62
7
  6
CONTINUOUS
 10
-1.6897248876
 20
13.9053726732
 11
-1.6884781844
 21
14.0097062161
  0
LINE
  5
723
100
AcDbEntity
  8
CURVE
100
AcDbLine
 62
7
  6
CONTINUOUS
 10
-1.5527308353
 20
13.6775700089
 11
-1.5520293202
 21
13.7374778979
  0
LINE
  5
724
100
AcDbEntity
  8
CURVE
100
AcDbLine
 62
7
  6
CONTINUOUS
 10
-1.5137185693
 20
32.1952119919
 11
-1.5124876612
 21
32.311173549
  0
LINE
  5
725
100
AcDbEntity
  8
CURVE
100
AcDbLine
 62
253
  6
CONTINUOUS
 10
-1.5829827953
 20
14.685
 11
-1.5806142555
 21
14.8659525967
  0
LINE
  5
726
100
AcDbEntity
  8
ASSI
100
AcDbLine
 62
7
  6
CONTINUOUS
 10
-1.689380567
 20
28.9357727824
 11
-1.6880847783
 21
29.0395690442
  0
LINE
  5
727
100
AcDbEntity
  8
CURVE
100
AcDbLine
 62
7
  6
CONTINUOUS
 10
-1.5203011545
 20
32.6291032918
 11
-1.5208586388
 21
32.5820249301
  0
LINE
  5
728
100
AcDbEntity
  8
CURVE
100
AcDbLine
 62
7
  6
CONTINUOUS
 10
-1.5202672138
 20
12.7786889766
 11
-1.5211574833
 21
12.7049033428
  0
LINE
  5
729
100
AcDbEntity
  8
ASSI
100
AcDbLine
 62
7
  6
CONTINUOUS
 10
-1.6891672654
 20
23.9539722776
 11
-1.6878657029
 21
24.0555975083
  0
LINE
  5
72A
100
AcDbEntity
  8
CURVE
100
AcDbLine
 62
7
  6
CONTINUOUS
 10
-1.5425921795
 20
32.7613199985
 11
-1.5431530065
 21
32.7147828661
  0
LINE
  5
72B
100
AcDbEntity
  8
ASSI
100
AcDbLine
 62
7
  6
CONTINUOUS
 10
-1.6891672654
 20
18.9539722776
 11
-1.6878657029
 21
19.0555975083
  0
LINE
  5
72C
100
AcDbEntity
  8
ASSI
100
AcDbLine
 62
7
  6
CONTINUOUS
 10
-1.6891672654
 20
13.9539722776
 11
-1.6878657029
 21
14.0555975083
  0
LINE
  5
72D
100
AcDbEntity
  8
CURVE
100
AcDbLine
 62
253
  6
CONTINUOUS
 10
-1.5797831889
 20
40.5707143521
 11
-1.5824841558
 21
40.385
  0
LINE
  5
72E
100
AcDbEntity
  8
RACCORDO
100
AcDbLine
 62
7
  6
CONTINUOUS
 10
-1.6884781844
 20
29.0097062161
 11
-1.6871994553
 21
29.1017411664
  0
LINE
  5
72F
100
AcDbEntity
  8
RACCORDO
100
AcDbLine
 62
7
  6
CONTINUOUS
 10
-1.6884781844
 20
24.0097062161
 11
-1.6871994553
 21
24.1017411664
  0
LINE
  5
730
100
AcDbEntity
  8
RACCORDO
100
AcDbLine
 62
7
  6
CONTINUOUS
 10
-1.6884781844
 20
19.0097062161
 11
-1.6871994553
 21
19.1017411664
  0
LINE
  5
731
100
AcDbEntity
  8
RACCORDO
100
AcDbLine
 62
7
  6
CONTINUOUS
 10
-1.6884781844
 20
14.0097062161
 11
-1.6871994553
 21
14.1017411664
  0
LINE
  5
732
100
AcDbEntity
  8
ASSI
100
AcDbLine
 62
7
  6
CONTINUOUS
 10
-1.6880847783
 20
29.0395690442
 11
-1.6867582443
 21
29.130200788
  0
LINE
  5
733
100
AcDbEntity
  8
ASSI
100
AcDbLine
 62
7
  6
CONTINUOUS
 10
-1.6878657029
 20
24.0555975083
 11
-1.6867582443
 21
24.130200788
  0
LINE
  5
734
100
AcDbEntity
  8
ASSI
100
AcDbLine
 62
7
  6
CONTINUOUS
 10
-1.6878657029
 20
19.0555975083
 11
-1.6867582443
 21
19.130200788
  0
LINE
  5
735
100
AcDbEntity
  8
ASSI
100
AcDbLine
 62
7
  6
CONTINUOUS
 10
-1.6878657029
 20
14.0555975083
 11
-1.6867582443
 21
14.130200788
  0
LINE
  5
736
100
AcDbEntity
  8
CURVE
100
AcDbLine
 62
7
  6
CONTINUOUS
 10
-1.5520293202
 20
13.7374778979
 11
-1.5512354292
 21
13.7924368147
  0
LINE
  5
737
100
AcDbEntity
  8
CURVE
100
AcDbLine
 62
7
  6
CONTINUOUS
 10
-1.5393570941
 20
32.1761636877
 11
-1.5386626758
 21
32.224854844
  0
LINE
  5
738
100
AcDbEntity
  8
CURVE
100
AcDbLine
 62
7
  6
CONTINUOUS
 10
-1.5211574833
 20
12.7049033428
 11
-1.5219719084
 21
12.6515583878
  0
LINE
  5
739
100
AcDbEntity
  8
CURVE
100
AcDbLine
 62
7
  6
CONTINUOUS
 10
-1.5562637648
 20
14.1997357405
 11
-1.5582895914
 21
14.0617200904
  0
LINE
  5
73A
100
AcDbEntity
  8
CURVE
100
AcDbLine
 62
7
  6
CONTINUOUS
 10
-1.5167196979
 20
12.2572075157
 11
-1.5146939935
 21
12.3952012709
  0
LINE
  5
73B
100
AcDbEntity
  8
CURVE
100
AcDbLine
 62
253
  6
CONTINUOUS
 10
-1.5792429948
 20
42.5207142746
 11
-1.5824841558
 21
42.335
  0
LINE
  5
73C
100
AcDbEntity
  8
CURVE
100
AcDbLine
 62
253
  6
CONTINUOUS
 10
-1.5905870589
 20
40.4778570986
 11
-1.5938282199
 21
40.2921429014
  0
LINE
  5
73D
100
AcDbEntity
  8
CURVE
100
AcDbLine
 62
253
  6
CONTINUOUS
 10
-1.5792429948
 20
38.435
 11
-1.5824841558
 21
38.2492858028
  0
LINE
  5
73E
100
AcDbEntity
  8
CURVE
100
AcDbLine
 62
253
  6
CONTINUOUS
 10
-1.5792429948
 20
33.2659522629
 11
-1.5824841558
 21
33.0802380657
  0
LINE
  5
73F
100
AcDbEntity
  8
CURVE
100
AcDbLine
 62
253
  6
CONTINUOUS
 10
-1.5735086324
 20
19.435
 11
-1.5687715509
 21
19.7064285553
  0
LINE
  5
740
100
AcDbEntity
  8
CURVE
100
AcDbLine
 62
253
  6
CONTINUOUS
 10
-1.5687715509
 20
18.349285779
 11
-1.5735086324
 21
18.0778571105
  0
LINE
  5
741
100
AcDbEntity
  8
CURVE
100
AcDbLine
 62
253
  6
CONTINUOUS
 10
-1.5877198777
 20
15.499285779
 11
-1.5829827953
 21
15.770714221
  0
LINE
  5
742
100
AcDbEntity
  8
CURVE
100
AcDbLine
 62
253
  6
CONTINUOUS
 10
-1.5829827953
 20
14.277857337
 11
-1.5877198777
 21
14.006428442
  0
LINE
  5
743
100
AcDbEntity
  8
CURVE
100
AcDbLine
 62
253
  6
CONTINUOUS
 10
-1.5735086324
 20
10.342143116
 11
-1.5687715509
 21
10.613571558
  0
LINE
  5
744
100
AcDbEntity
  8
CURVE
100
AcDbLine
 62
253
  6
CONTINUOUS
 10
-1.5687715509
 20
9.256428442
 11
-1.5735086324
 21
8.985
  0
LINE
  5
745
100
AcDbEntity
  8
RACCORDO
100
AcDbLine
 62
7
  6
CONTINUOUS
 10
-1.6871994553
 20
29.1017411664
 11
-1.6858966975
 21
29.1812046788
  0
LINE
  5
746
100
AcDbEntity
  8
RACCORDO
100
AcDbLine
 62
7
  6
CONTINUOUS
 10
-1.6871994553
 20
24.1017411664
 11
-1.6858966975
 21
24.1812046788
  0
LINE
  5
747
100
AcDbEntity
  8
CURVE
100
AcDbLine
 62
7
  6
CONTINUOUS
 10
-1.5208586388
 20
32.5820249301
 11
-1.5213935827
 21
32.5484221249
  0
LINE
  5
748
100
AcDbEntity
  8
RACCORDO
100
AcDbLine
 62
7
  6
CONTINUOUS
 10
-1.6871994553
 20
19.1017411664
 11
-1.6858966975
 21
19.1812046788
  0
LINE
  5
749
100
AcDbEntity
  8
RACCORDO
100
AcDbLine
 62
7
  6
CONTINUOUS
 10
-1.6871994553
 20
14.1017411664
 11
-1.6858966975
 21
14.1812046788
  0
LINE
  5
74A
100
AcDbEntity
  8
CURVE
100
AcDbLine
 62
7
  6
CONTINUOUS
 10
-1.5431530065
 20
32.7147828661
 11
-1.5438249004
 21
32.6726576463
  0
LINE
  5
74B
100
AcDbEntity
  8
CURVE
100
AcDbLine
 62
7
  6
CONTINUOUS
 10
-1.5152361568
 20
32.0979559419
 11
-1.5137185693
 21
32.1952119919
  0
LINE
  5
74C
100
AcDbEntity
  8
ASSI
100
AcDbLine
 62
7
  6
CONTINUOUS
 10
-1.6867582443
 20
29.130200788
 11
-1.6856361659
 21
29.1954959171
  0
LINE
  5
74D
100
AcDbEntity
  8
ASSI
100
AcDbLine
 62
7
  6
CONTINUOUS
 10
-1.6867582443
 20
24.130200788
 11
-1.6856361659
 21
24.1954959171
  0
LINE
  5
74E
100
AcDbEntity
  8
ASSI
100
AcDbLine
 62
7
  6
CONTINUOUS
 10
-1.6867582443
 20
19.130200788
 11
-1.6856361659
 21
19.1954959171
  0
LINE
  5
74F
100
AcDbEntity
  8
CURVE
100
AcDbLine
 62
253
  6
CONTINUOUS
 10
-1.5199048129
 20
25.4267857563
 11
-1.5231459739
 21
25.250357269
  0
LINE
  5
750
100
AcDbEntity
  8
ASSI
100
AcDbLine
 62
7
  6
CONTINUOUS
 10
-1.6867582443
 20
14.130200788
 11
-1.6856361659
 21
14.1954959171
  0
LINE
  5
751
100
AcDbEntity
  8
CURVE
100
AcDbLine
 62
7
  6
CONTINUOUS
 10
-1.5512354292
 20
13.7924368147
 11
-1.5502799574
 21
13.8452138381
  0
LINE
  5
752
100
AcDbEntity
  8
RACCORDO
100
AcDbLine
 62
7
  6
CONTINUOUS
 10
-1.6858966975
 20
29.1812046788
 11
-1.6848055783
 21
29.2377710156
  0
LINE
  5
753
100
AcDbEntity
  8
RACCORDO
100
AcDbLine
 62
7
  6
CONTINUOUS
 10
-1.6858966975
 20
24.1812046788
 11
-1.6848055783
 21
24.2377710156
  0
LINE
  5
754
100
AcDbEntity
  8
RACCORDO
100
AcDbLine
 62
7
  6
CONTINUOUS
 10
-1.6858966975
 20
19.1812046788
 11
-1.6848055783
 21
19.2377710156
  0
LINE
  5
755
100
AcDbEntity
  8
RACCORDO
100
AcDbLine
 62
7
  6
CONTINUOUS
 10
-1.6858966975
 20
14.1812046788
 11
-1.6848055783
 21
14.2377710156
  0
LINE
  5
756
100
AcDbEntity
  8
CURVE
100
AcDbLine
 62
7
  6
CONTINUOUS
 10
-1.5219719084
 20
12.6515583878
 11
-1.5230213587
 21
12.5969185383
  0
LINE
  5
757
100
AcDbEntity
  8
CURVE
100
AcDbLine
 62
7
  6
CONTINUOUS
 10
-1.5401777065
 20
32.1327880285
 11
-1.5393570941
 21
32.1761636877
  0
LINE
  5
758
100
AcDbEntity
  8
CURVE
100
AcDbLine
 62
253
  6
CONTINUOUS
 10
-1.5735086324
 20
15.5445237017
 11
-1.5687715509
 21
15.770714221
  0
LINE
  5
759
100
AcDbEntity
  8
CURVE
100
AcDbLine
 62
7
  6
CONTINUOUS
 10
-1.5546792818
 20
14.2815563698
 11
-1.5562637648
 21
14.1997357405
  0
LINE
  5
75A
100
AcDbEntity
  8
CURVE
100
AcDbLine
 62
7
  6
CONTINUOUS
 10
-1.5183040838
 20
12.1753971508
 11
-1.5167196979
 21
12.2572075157
  0
LINE
  5
75B
100
AcDbEntity
  8
RACCORDO
100
AcDbLine
 62
7
  6
CONTINUOUS
 10
-1.6848055783
 20
29.2377710156
 11
-1.6844988636
 21
29.2521380522
  0
LINE
  5
75C
100
AcDbEntity
  8
CURVE
100
AcDbLine
 62
7
  6
CONTINUOUS
 10
-1.5438249004
 20
32.6726576463
 11
-1.5444282671
 21
32.642710766
  0
LINE
  5
75D
100
AcDbEntity
  8
RACCORDO
100
AcDbLine
 62
7
  6
CONTINUOUS
 10
-1.6848055783
 20
24.2377710156
 11
-1.6844988636
 21
24.2521380522
  0
LINE
  5
75E
100
AcDbEntity
  8
RACCORDO
100
AcDbLine
 62
7
  6
CONTINUOUS
 10
-1.6848055783
 20
19.2377710156
 11
-1.6844988636
 21
19.2521380522
  0
LINE
  5
75F
100
AcDbEntity
  8
RACCORDO
100
AcDbLine
 62
7
  6
CONTINUOUS
 10
-1.6848055783
 20
14.2377710156
 11
-1.6844988636
 21
14.2521380522
  0
LINE
  5
760
100
AcDbEntity
  8
CURVE
100
AcDbLine
 62
7
  6
CONTINUOUS
 10
-1.5163613125
 20
32.042885094
 11
-1.5152361568
 21
32.0979559419
  0
LINE
  5
761
100
AcDbEntity
  8
ASSI
100
AcDbLine
 62
7
  6
CONTINUOUS
 10
-1.6856361659
 20
29.1954959171
 11
-1.6844994825
 21
29.2521372892
  0
LINE
  5
762
100
AcDbEntity
  8
ASSI
100
AcDbLine
 62
7
  6
CONTINUOUS
 10
-1.6856361659
 20
24.1954959171
 11
-1.6844994825
 21
24.2521372892
  0
LINE
  5
763
100
AcDbEntity
  8
ASSI
100
AcDbLine
 62
7
  6
CONTINUOUS
 10
-1.6856361659
 20
19.1954959171
 11
-1.6844994825
 21
19.2521372892
  0
LINE
  5
764
100
AcDbEntity
  8
ASSI
100
AcDbLine
 62
7
  6
CONTINUOUS
 10
-1.6856361659
 20
14.1954959171
 11
-1.6844994825
 21
14.2521372892
  0
LINE
  5
765
100
AcDbEntity
  8
CURVE
100
AcDbLine
 62
7
  6
CONTINUOUS
 10
-1.5213935827
 20
32.5484221249
 11
-1.5220041063
 21
32.5191869293
  0
LINE
  5
766
100
AcDbEntity
  8
CURVE
100
AcDbLine
 62
7
  6
CONTINUOUS
 10
-1.5502799574
 20
13.8452138381
 11
-1.54933303
 21
13.8882335973
  0
LINE
  5
767
100
AcDbEntity
  8
CURVE
100
AcDbLine
 62
7
  6
CONTINUOUS
 10
-1.5320192646
 20
15.88078
 11
-1.561791048
 21
14.627116
  0
LINE
  5
768
100
AcDbEntity
  8
CURVE
100
AcDbLine
 62
7
  6
CONTINUOUS
 10
-1.561791048
 20
15.278419
 11
-1.5382333817
 21
16.243181
  0
LINE
  5
769
100
AcDbEntity
  8
CURVE
100
AcDbLine
 62
7
  6
CONTINUOUS
 10
-1.5230213587
 20
12.5969185383
 11
-1.5239896104
 21
12.5553553243
  0
LINE
  5
76A
100
AcDbEntity
  8
CURVE
100
AcDbLine
 62
253
  6
CONTINUOUS
 10
-1.5922076394
 20
42.7064285687
 11
-1.595634211
 21
42.5755365344
  0
LINE
  5
76B
100
AcDbEntity
  8
CURVE
100
AcDbLine
 62
7
  6
CONTINUOUS
 10
-1.5410905117
 20
32.0946258759
 11
-1.5401777065
 21
32.1327880285
  0
LINE
  5
76C
100
AcDbEntity
  8
CURVE
100
AcDbLine
 62
253
  6
CONTINUOUS
 10
-1.5792429948
 20
24.5326190478
 11
-1.5889664778
 21
24.1611903435
  0
LINE
  5
76D
100
AcDbEntity
  8
CURVE
100
AcDbLine
 62
253
  6
CONTINUOUS
 10
-1.5687715509
 20
14.277857337
 11
-1.5735086324
 21
14.0969047403
  0
LINE
  5
76E
100
AcDbEntity
  8
CURVE
100
AcDbLine
 62
7
  6
CONTINUOUS
 10
-1.5527950193
 20
14.3597866775
 11
-1.5546792818
 21
14.2815563698
  0
LINE
  5
76F
100
AcDbEntity
  8
CURVE
100
AcDbLine
 62
7
  6
CONTINUOUS
 10
-1.5201883778
 20
12.0971694868
 11
-1.5183040838
 21
12.1753971508
  0
LINE
  5
770
100
AcDbEntity
  8
CURVE
100
AcDbLine
 62
7
  6
CONTINUOUS
 10
-1.5112025873
 20
10.818899
 11
-1.5469322383
 21
9.482001
  0
LINE
  5
771
100
AcDbEntity
  8
CURVE
100
AcDbLine
 62
7
  6
CONTINUOUS
 10
-1.561791048
 20
9.500922
 11
-1.526451364
 21
10.819344
  0
LINE
  5
772
100
AcDbEntity
  8
CURVE
100
AcDbLine
 62
7
  6
CONTINUOUS
 10
-1.5444282671
 20
32.642710766
 11
-1.5450813746
 21
32.6165984137
  0
LINE
  5
773
100
AcDbEntity
  8
CURVE
100
AcDbLine
 62
7
  6
CONTINUOUS
 10
-1.54933303
 20
13.8882335973
 11
-1.5483248598
 21
13.926918425
  0
LINE
  5
774
100
AcDbEntity
  8
CURVE
100
AcDbLine
 62
7
  6
CONTINUOUS
 10
-1.5175848483
 20
31.9952899148
 11
-1.5163613125
 21
32.042885094
  0
LINE
  5
775
100
AcDbEntity
  8
CURVE
100
AcDbLine
 62
7
  6
CONTINUOUS
 10
-1.5220041063
 20
32.5191869293
 11
-1.5225043588
 21
32.5003160589
  0
LINE
  5
776
100
AcDbEntity
  8
CURVE
100
AcDbLine
 62
7
  6
CONTINUOUS
 10
-1.5239896104
 20
12.5553553243
 11
-1.5250163794
 21
12.5180879375
  0
LINE
  5
777
100
AcDbEntity
  8
CURVE
100
AcDbLine
 62
7
  6
CONTINUOUS
 10
-1.5418642859
 20
32.0677813411
 11
-1.5410905117
 21
32.0946258759
  0
LINE
  5
778
100
AcDbEntity
  8
CURVE
100
AcDbLine
 62
7
  6
CONTINUOUS
 10
-1.5512876002
 20
14.411693713
 11
-1.5527950193
 21
14.3597866775
  0
LINE
  5
779
100
AcDbEntity
  8
CURVE
100
AcDbLine
 62
7
  6
CONTINUOUS
 10
-1.5216958143
 20
12.0452643913
 11
-1.5201883778
 21
12.0971694868
  0
LINE
  5
77A
100
AcDbEntity
  8
CURVE
100
AcDbLine
 62
7
  6
CONTINUOUS
 10
-1.5483248598
 20
13.926918425
 11
-1.5472636636
 21
13.9613882736
  0
LINE
  5
77B
100
AcDbEntity
  8
CURVE
100
AcDbLine
 62
7
  6
CONTINUOUS
 10
-1.5225043588
 20
32.5003160589
 11
-1.5228545754
 21
32.4892441876
  0
LINE
  5
77C
100
AcDbEntity
  8
CURVE
100
AcDbLine
 62
7
  6
CONTINUOUS
 10
-1.5450813746
 20
32.6165984137
 11
-1.5455989646
 21
32.5998072396
  0
LINE
  5
77D
100
AcDbEntity
  8
CURVE
100
AcDbLine
 62
7
  6
CONTINUOUS
 10
-1.5184499369
 20
31.9680035901
 11
-1.5175848483
 21
31.9952899148
  0
LINE
  5
77E
100
AcDbEntity
  8
CURVE
100
AcDbLine
 62
7
  6
CONTINUOUS
 10
-1.5250163794
 20
12.5180879375
 11
-1.526093446
 21
12.4849962907
  0
LINE
  5
77F
100
AcDbEntity
  8
CURVE
100
AcDbLine
 62
7
  6
CONTINUOUS
 10
-1.5425667377
 20
32.0466951617
 11
-1.5418642859
 21
32.0677813411
  0
LINE
  5
780
100
AcDbEntity
  8
CURVE
100
AcDbLine
 62
253
  6
CONTINUOUS
 10
-1.5792429948
 20
36.8873806572
 11
-1.5922076394
 21
36.5159522629
  0
LINE
  5
781
100
AcDbEntity
  8
CURVE
100
AcDbLine
 62
253
  6
CONTINUOUS
 10
-1.5792429948
 20
35.7730954742
 11
-1.5922076394
 21
35.40166646
  0
LINE
  5
782
100
AcDbEntity
  8
CURVE
100
AcDbLine
 62
253
  6
CONTINUOUS
 10
-1.5495739038
 20
26.1969047731
 11
-1.5722620322
 21
25.5469046956
  0
LINE
  5
783
100
AcDbEntity
  8
CURVE
100
AcDbLine
 62
253
  6
CONTINUOUS
 10
-1.5971940412
 20
18.7564285553
 11
-1.5924569592
 21
18.8921428895
  0
LINE
  5
784
100
AcDbEntity
  8
CURVE
100
AcDbLine
 62
253
  6
CONTINUOUS
 10
-1.5735086324
 20
18.0778571105
 11
-1.5782457138
 21
17.9421428895
  0
LINE
  5
785
100
AcDbEntity
  8
CURVE
100
AcDbLine
 62
253
  6
CONTINUOUS
 10
-1.5964045276
 20
13.056428442
 11
-1.597983555
 21
13.0111905193
  0
LINE
  5
786
100
AcDbEntity
  8
CURVE
100
AcDbLine
 62
253
  6
CONTINUOUS
 10
-1.5971940412
 20
9.663571558
 11
-1.5924569592
 21
9.799285326
  0
LINE
  5
787
100
AcDbEntity
  8
CURVE
100
AcDbLine
 62
253
  6
CONTINUOUS
 10
-1.5735086324
 20
8.985
 11
-1.5782457138
 21
8.849285326
  0
LINE
  5
788
100
AcDbEntity
  8
CURVE
100
AcDbLine
 62
7
  6
CONTINUOUS
 10
-1.549711366
 20
14.457830822
 11
-1.5512876002
 21
14.411693713
  0
LINE
  5
789
100
AcDbEntity
  8
CURVE
100
AcDbLine
 62
7
  6
CONTINUOUS
 10
-1.5232720615
 20
11.9991291481
 11
-1.5216958143
 21
12.0452643913
  0
LINE
  5
78A
100
AcDbEntity
  8
CURVE
100
AcDbLine
 62
253
  6
CONTINUOUS
 10
-1.5199048129
 20
27.985
 11
-1.5328694576
 21
27.6321428414
  0
LINE
  5
78B
100
AcDbEntity
  8
CURVE
100
AcDbLine
 62
7
  6
CONTINUOUS
 10
-1.5455989646
 20
32.5998072396
 11
-1.5459553408
 21
32.5900509642
  0
LINE
  5
78C
100
AcDbEntity
  8
CURVE
100
AcDbLine
 62
7
  6
CONTINUOUS
 10
-1.5228545754
 20
32.4892441876
 11
-1.5232160133
 21
32.4794126945
  0
LINE
  5
78D
100
AcDbEntity
  8
CURVE
100
AcDbLine
 62
7
  6
CONTINUOUS
 10
-1.5472636636
 20
13.9613882736
 11
-1.5461576586
 21
13.9917630951
  0
LINE
  5
78E
100
AcDbEntity
  8
CURVE
100
AcDbLine
 62
7
  6
CONTINUOUS
 10
-1.526093446
 20
12.4849962907
 11
-1.5268353744
 21
12.4651957461
  0
LWPOLYLINE
  5
78F
100
AcDbEntity
  8
RACCORDO
100
AcDbPolyline
 62
253
  6
CONTINUOUS
 90
43
 70
0
 10
-1.9809491559
 20
29.0871628602
 10
-1.9824020336
 20
29.0503431812
 10
-1.9838304643
 20
29.0034321774
 10
-1.9852142443
 20
28.9467007353
 10
-1.9865524783
 20
28.8804799106
 10
-1.9878460615
 20
28.8051287863
 10
-1.9890774758
 20
28.7210070144
 10
-1.9902458327
 20
28.6285515895
 10
-1.9913520207
 20
28.5282317402
 10
-1.9923811882
 20
28.4204831661
 10
-1.9933323909
 20
28.3058348504
 10
-1.994206573
 20
28.1848462051
 10
-1.9949917159
 20
28.0580198565
 10
-1.9956868133
 20
27.9259381301
 10
-1.9962928714
 20
27.7892574587
 10
-1.99680089
 20
27.6486171596
 10
-1.9972094996
 20
27.5046821225
 10
-1.9975200696
 20
27.3581571526
 10
-1.997727708
 20
27.2097667883
 10
-1.9978307802
 20
27.0601980423
 10
-1.9978309207
 20
26.9102092761
 10
-1.9977281411
 20
26.7606430429
 10
-1.9975208151
 20
26.6122591369
 10
-1.9972105689
 20
26.4657427344
 10
-1.9968022926
 20
26.3218135019
 10
-1.9962946264
 20
26.1811757274
 10
-1.9956889302
 20
26.0444945585
 10
-1.994994173
 20
25.9124061401
 10
-1.9942093563
 20
25.7855672744
 10
-1.9933354788
 20
25.6645606462
 10
-1.9923845059
 20
25.549886608
 10
-1.9913554807
 20
25.4421045694
 10
-1.9902493601
 20
25.3417461616
 10
-1.9890809808
 20
25.2492492851
 10
-1.9878494451
 20
25.1650844235
 10
-1.9865556506
 20
25.0896902053
 10
-1.9852171275
 20
25.0234286236
 10
-1.9838329675
 20
24.9666597352
 10
-1.9824040789
 20
24.9197161001
 10
-1.9809507169
 20
24.8828706073
 10
-1.9794796332
 20
24.8563550506
 10
-1.9779840761
 20
24.8403542191
 10
-1.9764640455
 20
24.835
  0
LWPOLYLINE
  5
790
100
AcDbEntity
  8
ASSI
100
AcDbPolyline
 62
253
  6
CONTINUOUS
 90
43
 70
0
 10
-1.9809491559
 20
29.0871628602
 10
-1.9824020336
 20
29.0503431812
 10
-1.9838304643
 20
29.0034321774
 10
-1.9852142443
 20
28.9467007353
 10
-1.9865524783
 20
28.8804799106
 10
-1.9878460615
 20
28.8051287863
 10
-1.9890774758
 20
28.7210070144
 10
-1.9902458327
 20
28.6285515895
 10
-1.9913520207
 20
28.5282317402
 10
-1.9923811882
 20
28.4204831661
 10
-1.9933323909
 20
28.3058348504
 10
-1.994206573
 20
28.1848462051
 10
-1.9949917159
 20
28.0580198565
 10
-1.9956868133
 20
27.9259381301
 10
-1.9962928714
 20
27.7892574587
 10
-1.99680089
 20
27.6486171596
 10
-1.9972094996
 20
27.5046821225
 10
-1.9975200696
 20
27.3581571526
 10
-1.997727708
 20
27.2097667883
 10
-1.9978307802
 20
27.0601980423
 10
-1.9978309207
 20
26.9102092761
 10
-1.9977281411
 20
26.7606430429
 10
-1.9975208151
 20
26.6122591369
 10
-1.9972105689
 20
26.4657427344
 10
-1.9968022926
 20
26.3218135019
 10
-1.9962946264
 20
26.1811757274
 10
-1.9956889302
 20
26.0444945585
 10
-1.994994173
 20
25.9124061401
 10
-1.9942093563
 20
25.7855672744
 10
-1.9933354788
 20
25.6645606462
 10
-1.9923845059
 20
25.549886608
 10
-1.9913554807
 20
25.4421045694
 10
-1.9902493601
 20
25.3417461616
 10
-1.9890809808
 20
25.2492492851
 10
-1.9878494451
 20
25.1650844235
 10
-1.9865556506
 20
25.0896902053
 10
-1.9852171275
 20
25.0234286236
 10
-1.9838329675
 20
24.9666597352
 10
-1.9824040789
 20
24.9197161001
 10
-1.9809507169
 20
24.8828706073
 10
-1.9794796332
 20
24.8563550506
 10
-1.9779840761
 20
24.8403542191
 10
-1.9764640455
 20
24.835
  0
LWPOLYLINE
  5
791
100
AcDbEntity
  8
RACCORDO
100
AcDbPolyline
 62
253
  6
CONTINUOUS
 90
43
 70
0
 10
-1.9809491559
 20
24.0871628602
 10
-1.9824020336
 20
24.0503431812
 10
-1.9838304643
 20
24.0034321774
 10
-1.9852142443
 20
23.9467007353
 10
-1.9865524783
 20
23.8804799106
 10
-1.9878460615
 20
23.8051287863
 10
-1.9890774758
 20
23.7210070144
 10
-1.9902458327
 20
23.6285515895
 10
-1.9913520207
 20
23.5282317402
 10
-1.9923811882
 20
23.4204831661
 10
-1.9933323909
 20
23.3058348504
 10
-1.994206573
 20
23.1848462051
 10
-1.9949917159
 20
23.0580198565
 10
-1.9956868133
 20
22.9259381301
 10
-1.9962928714
 20
22.7892574587
 10
-1.99680089
 20
22.6486171596
 10
-1.9972094996
 20
22.5046821225
 10
-1.9975200696
 20
22.3581571526
 10
-1.997727708
 20
22.2097667883
 10
-1.9978307802
 20
22.0601980423
 10
-1.9978309207
 20
21.9102092761
 10
-1.9977281411
 20
21.7606430429
 10
-1.9975208151
 20
21.6122591369
 10
-1.9972105689
 20
21.4657427344
 10
-1.9968022926
 20
21.3218135019
 10
-1.9962946264
 20
21.1811757274
 10
-1.9956889302
 20
21.0444945585
 10
-1.994994173
 20
20.9124061401
 10
-1.9942093563
 20
20.7855672744
 10
-1.9933354788
 20
20.6645606462
 10
-1.9923845059
 20
20.549886608
 10
-1.9913554807
 20
20.4421045694
 10
-1.9902493601
 20
20.3417461616
 10
-1.9890809808
 20
20.2492492851
 10
-1.9878494451
 20
20.1650844235
 10
-1.9865556506
 20
20.0896902053
 10
-1.9852171275
 20
20.0234286236
 10
-1.9838329675
 20
19.9666597352
 10
-1.9824040789
 20
19.9197161001
 10
-1.9809507169
 20
19.8828706073
 10
-1.9794796332
 20
19.8563550506
 10
-1.9779840761
 20
19.8403542191
 10
-1.9764640455
 20
19.835
  0
LWPOLYLINE
  5
792
100
AcDbEntity
  8
ASSI
100
AcDbPolyline
 62
253
  6
CONTINUOUS
 90
43
 70
0
 10
-1.9809491559
 20
24.0871628602
 10
-1.9824020336
 20
24.0503431812
 10
-1.9838304643
 20
24.0034321774
 10
-1.9852142443
 20
23.9467007353
 10
-1.9865524783
 20
23.8804799106
 10
-1.9878460615
 20
23.8051287863
 10
-1.9890774758
 20
23.7210070144
 10
-1.9902458327
 20
23.6285515895
 10
-1.9913520207
 20
23.5282317402
 10
-1.9923811882
 20
23.4204831661
 10
-1.9933323909
 20
23.3058348504
 10
-1.994206573
 20
23.1848462051
 10
-1.9949917159
 20
23.0580198565
 10
-1.9956868133
 20
22.9259381301
 10
-1.9962928714
 20
22.7892574587
 10
-1.99680089
 20
22.6486171596
 10
-1.9972094996
 20
22.5046821225
 10
-1.9975200696
 20
22.3581571526
 10
-1.997727708
 20
22.2097667883
 10
-1.9978307802
 20
22.0601980423
 10
-1.9978309207
 20
21.9102092761
 10
-1.9977281411
 20
21.7606430429
 10
-1.9975208151
 20
21.6122591369
 10
-1.9972105689
 20
21.4657427344
 10
-1.9968022926
 20
21.3218135019
 10
-1.9962946264
 20
21.1811757274
 10
-1.9956889302
 20
21.0444945585
 10
-1.994994173
 20
20.9124061401
 10
-1.9942093563
 20
20.7855672744
 10
-1.9933354788
 20
20.6645606462
 10
-1.9923845059
 20
20.549886608
 10
-1.9913554807
 20
20.4421045694
 10
-1.9902493601
 20
20.3417461616
 10
-1.9890809808
 20
20.2492492851
 10
-1.9878494451
 20
20.1650844235
 10
-1.9865556506
 20
20.0896902053
 10
-1.9852171275
 20
20.0234286236
 10
-1.9838329675
 20
19.9666597352
 10
-1.9824040789
 20
19.9197161001
 10
-1.9809507169
 20
19.8828706073
 10
-1.9794796332
 20
19.8563550506
 10
-1.9779840761
 20
19.8403542191
 10
-1.9764640455
 20
19.835
  0
LWPOLYLINE
  5
793
100
AcDbEntity
  8
RACCORDO
100
AcDbPolyline
 62
253
  6
CONTINUOUS
 90
43
 70
0
 10
-1.9809491559
 20
19.0871628602
 10
-1.9824020336
 20
19.0503431812
 10
-1.9838304643
 20
19.0034321774
 10
-1.9852142443
 20
18.9467007353
 10
-1.9865524783
 20
18.8804799106
 10
-1.9878460615
 20
18.8051287863
 10
-1.9890774758
 20
18.7210070144
 10
-1.9902458327
 20
18.6285515895
 10
-1.9913520207
 20
18.5282317402
 10
-1.9923811882
 20
18.4204831661
 10
-1.9933323909
 20
18.3058348504
 10
-1.994206573
 20
18.1848462051
 10
-1.9949917159
 20
18.0580198565
 10
-1.9956868133
 20
17.9259381301
 10
-1.9962928714
 20
17.7892574587
 10
-1.99680089
 20
17.6486171596
 10
-1.9972094996
 20
17.5046821225
 10
-1.9975200696
 20
17.3581571526
 10
-1.997727708
 20
17.2097667883
 10
-1.9978307802
 20
17.0601980423
 10
-1.9978309207
 20
16.9102092761
 10
-1.9977281411
 20
16.7606430429
 10
-1.9975208151
 20
16.6122591369
 10
-1.9972105689
 20
16.4657427344
 10
-1.9968022926
 20
16.3218135019
 10
-1.9962946264
 20
16.1811757274
 10
-1.9956889302
 20
16.0444945585
 10
-1.994994173
 20
15.9124061401
 10
-1.9942093563
 20
15.7855672744
 10
-1.9933354788
 20
15.6645606462
 10
-1.9923845059
 20
15.549886608
 10
-1.9913554807
 20
15.4421045694
 10
-1.9902493601
 20
15.3417461616
 10
-1.9890809808
 20
15.2492492851
 10
-1.9878494451
 20
15.1650844235
 10
-1.9865556506
 20
15.0896902053
 10
-1.9852171275
 20
15.0234286236
 10
-1.9838329675
 20
14.9666597352
 10
-1.9824040789
 20
14.9197161001
 10
-1.9809507169
 20
14.8828706073
 10
-1.9794796332
 20
14.8563550506
 10
-1.9779840761
 20
14.8403542191
 10
-1.9764640455
 20
14.835
  0
LWPOLYLINE
  5
794
100
AcDbEntity
  8
ASSI
100
AcDbPolyline
 62
253
  6
CONTINUOUS
 90
43
 70
0
 10
-1.9809491559
 20
19.0871628602
 10
-1.9824020336
 20
19.0503431812
 10
-1.9838304643
 20
19.0034321774
 10
-1.9852142443
 20
18.9467007353
 10
-1.9865524783
 20
18.8804799106
 10
-1.9878460615
 20
18.8051287863
 10
-1.9890774758
 20
18.7210070144
 10
-1.9902458327
 20
18.6285515895
 10
-1.9913520207
 20
18.5282317402
 10
-1.9923811882
 20
18.4204831661
 10
-1.9933323909
 20
18.3058348504
 10
-1.994206573
 20
18.1848462051
 10
-1.9949917159
 20
18.0580198565
 10
-1.9956868133
 20
17.9259381301
 10
-1.9962928714
 20
17.7892574587
 10
-1.99680089
 20
17.6486171596
 10
-1.9972094996
 20
17.5046821225
 10
-1.9975200696
 20
17.3581571526
 10
-1.997727708
 20
17.2097667883
 10
-1.9978307802
 20
17.0601980423
 10
-1.9978309207
 20
16.9102092761
 10
-1.9977281411
 20
16.7606430429
 10
-1.9975208151
 20
16.6122591369
 10
-1.9972105689
 20
16.4657427344
 10
-1.9968022926
 20
16.3218135019
 10
-1.9962946264
 20
16.1811757274
 10
-1.9956889302
 20
16.0444945585
 10
-1.994994173
 20
15.9124061401
 10
-1.9942093563
 20
15.7855672744
 10
-1.9933354788
 20
15.6645606462
 10
-1.9923845059
 20
15.549886608
 10
-1.9913554807
 20
15.4421045694
 10
-1.9902493601
 20
15.3417461616
 10
-1.9890809808
 20
15.2492492851
 10
-1.9878494451
 20
15.1650844235
 10
-1.9865556506
 20
15.0896902053
 10
-1.9852171275
 20
15.0234286236
 10
-1.9838329675
 20
14.9666597352
 10
-1.9824040789
 20
14.9197161001
 10
-1.9809507169
 20
14.8828706073
 10
-1.9794796332
 20
14.8563550506
 10
-1.9779840761
 20
14.8403542191
 10
-1.9764640455
 20
14.835
  0
LWPOLYLINE
  5
795
100
AcDbEntity
  8
RACCORDO
100
AcDbPolyline
 62
253
  6
CONTINUOUS
 90
43
 70
0
 10
-1.9809491559
 20
14.0871628602
 10
-1.9824020336
 20
14.0503431812
 10
-1.9838304643
 20
14.0034321774
 10
-1.9852142443
 20
13.9467007353
 10
-1.9865524783
 20
13.8804799106
 10
-1.9878460615
 20
13.8051287863
 10
-1.9890774758
 20
13.7210070144
 10
-1.9902458327
 20
13.6285515895
 10
-1.9913520207
 20
13.5282317402
 10
-1.9923811882
 20
13.4204831661
 10
-1.9933323909
 20
13.3058348504
 10
-1.994206573
 20
13.1848462051
 10
-1.9949917159
 20
13.0580198565
 10
-1.9956868133
 20
12.9259381301
 10
-1.9962928714
 20
12.7892574587
 10
-1.99680089
 20
12.6486171596
 10
-1.9972094996
 20
12.5046821225
 10
-1.9975200696
 20
12.3581571526
 10
-1.997727708
 20
12.2097667883
 10
-1.9978307802
 20
12.0601980423
 10
-1.9978309207
 20
11.9102092761
 10
-1.9977281411
 20
11.7606430429
 10
-1.9975208151
 20
11.6122591369
 10
-1.9972105689
 20
11.4657427344
 10
-1.9968022926
 20
11.3218135019
 10
-1.9962946264
 20
11.1811757274
 10
-1.9956889302
 20
11.0444945585
 10
-1.994994173
 20
10.9124061401
 10
-1.9942093563
 20
10.7855672744
 10
-1.9933354788
 20
10.6645606462
 10
-1.9923845059
 20
10.549886608
 10
-1.9913554807
 20
10.4421045694
 10
-1.9902493601
 20
10.3417461616
 10
-1.9890809808
 20
10.2492492851
 10
-1.9878494451
 20
10.1650844235
 10
-1.9865556506
 20
10.0896902053
 10
-1.9852171275
 20
10.0234286236
 10
-1.9838329675
 20
9.9666597352
 10
-1.9824040789
 20
9.9197161001
 10
-1.9809507169
 20
9.8828706073
 10
-1.9794796332
 20
9.8563550506
 10
-1.9779840761
 20
9.8403542191
 10
-1.9764640455
 20
9.835
  0
LWPOLYLINE
  5
796
100
AcDbEntity
  8
ASSI
100
AcDbPolyline
 62
253
  6
CONTINUOUS
 90
43
 70
0
 10
-1.9809491559
 20
14.0871628602
 10
-1.9824020336
 20
14.0503431812
 10
-1.9838304643
 20
14.0034321774
 10
-1.9852142443
 20
13.9467007353
 10
-1.9865524783
 20
13.8804799106
 10
-1.9878460615
 20
13.8051287863
 10
-1.9890774758
 20
13.7210070144
 10
-1.9902458327
 20
13.6285515895
 10
-1.9913520207
 20
13.5282317402
 10
-1.9923811882
 20
13.4204831661
 10
-1.9933323909
 20
13.3058348504
 10
-1.994206573
 20
13.1848462051
 10
-1.9949917159
 20
13.0580198565
 10
-1.9956868133
 20
12.9259381301
 10
-1.9962928714
 20
12.7892574587
 10
-1.99680089
 20
12.6486171596
 10
-1.9972094996
 20
12.5046821225
 10
-1.9975200696
 20
12.3581571526
 10
-1.997727708
 20
12.2097667883
 10
-1.9978307802
 20
12.0601980423
 10
-1.9978309207
 20
11.9102092761
 10
-1.9977281411
 20
11.7606430429
 10
-1.9975208151
 20
11.6122591369
 10
-1.9972105689
 20
11.4657427344
 10
-1.9968022926
 20
11.3218135019
 10
-1.9962946264
 20
11.1811757274
 10
-1.9956889302
 20
11.0444945585
 10
-1.994994173
 20
10.9124061401
 10
-1.9942093563
 20
10.7855672744
 10
-1.9933354788
 20
10.6645606462
 10
-1.9923845059
 20
10.549886608
 10
-1.9913554807
 20
10.4421045694
 10
-1.9902493601
 20
10.3417461616
 10
-1.9890809808
 20
10.2492492851
 10
-1.9878494451
 20
10.1650844235
 10
-1.9865556506
 20
10.0896902053
 10
-1.9852171275
 20
10.0234286236
 10
-1.9838329675
 20
9.9666597352
 10
-1.9824040789
 20
9.9197161001
 10
-1.9809507169
 20
9.8828706073
 10
-1.9794796332
 20
9.8563550506
 10
-1.9779840761
 20
9.8403542191
 10
-1.9764640455
 20
9.835
  0
LINE
  5
797
100
AcDbEntity
  8
CURVE
100
AcDbLine
 62
7
  6
CONTINUOUS
 10
-1.5486276223
 20
14.4853963759
 11
-1.549711366
 21
14.457830822
  0
LINE
  5
798
100
AcDbEntity
  8
CURVE
100
AcDbLine
 62
7
  6
CONTINUOUS
 10
-1.5243558117
 20
11.9715647803
 11
-1.5232720615
 21
11.9991291481
  0
LINE
  5
799
100
AcDbEntity
  8
CURVE
100
AcDbLine
 62
7
  6
CONTINUOUS
 10
-1.5434970398
 20
32.0226419873
 11
-1.5425667377
 21
32.0466951617
  0
LINE
  5
79A
100
AcDbEntity
  8
CURVE
100
AcDbLine
 62
7
  6
CONTINUOUS
 10
-1.5461576586
 20
13.9917630951
 11
-1.5453994858
 21
14.0097971968
  0
LINE
  5
79B
100
AcDbEntity
  8
CURVE
100
AcDbLine
 62
7
  6
CONTINUOUS
 10
-1.5268353744
 20
12.4651957461
 11
-1.5275935686
 21
12.4471621326
  0
LINE
  5
79C
100
AcDbEntity
  8
CURVE
100
AcDbLine
 62
7
  6
CONTINUOUS
 10
-1.5459553408
 20
32.5900509642
 11
-1.5463195862
 21
32.5815120355
  0
LWPOLYLINE
  5
79D
100
AcDbEntity
  8
CURVE
100
AcDbPolyline
 62
7
  6
CONTINUOUS
 90
13
 70
0
 10
-1.5232160133
 20
32.4794126945
 10
-1.5235868291
 20
32.4708502177
 10
-1.5237751776
 20
32.4670538098
 10
-1.5239651793
 20
32.4635853953
 10
-1.5241566038
 20
32.4604485539
 10
-1.5243492206
 20
32.4576468654
 10
-1.5245427994
 20
32.4551839095
 10
-1.5247371096
 20
32.453063266
 10
-1.5249319209
 20
32.4512885147
 10
-1.5251270029
 20
32.4498632352
 10
-1.5253221251
 20
32.4487910075
 10
-1.525517057
 20
32.4480754112
 10
-1.5257115683
 20
32.4477200261
  0
LINE
  5
79E
100
AcDbEntity
  8
CURVE
100
AcDbLine
 62
7
  6
CONTINUOUS
 10
-1.5441241561
 20
32.0084707421
 11
-1.5434970398
 21
32.0226419873
  0
LINE
  5
79F
100
AcDbEntity
  8
CURVE
100
AcDbLine
 62
7
  6
CONTINUOUS
 10
-1.5475212587
 20
14.510417012
 11
-1.5486276223
 21
14.4853963759
  0
LINE
  5
7A0
100
AcDbEntity
  8
CURVE
100
AcDbLine
 62
7
  6
CONTINUOUS
 10
-1.5254621803
 20
11.9465452724
 11
-1.5243558117
 21
11.9715647803
  0
LINE
  5
7A1
100
AcDbEntity
  8
CURVE
100
AcDbLine
 62
7
  6
CONTINUOUS
 10
-1.5616626179
 20
38.025105
 11
-1.5286229328
 21
38.735162
  0
LINE
  5
7A2
100
AcDbEntity
  8
CURVE
100
AcDbLine
 62
7
  6
CONTINUOUS
 10
-1.5110644027
 20
38.578234
 11
-1.5391566828
 21
37.979355
  0
LINE
  5
7A3
100
AcDbEntity
  8
CURVE
100
AcDbLine
 62
7
  6
CONTINUOUS
 10
-1.5453994858
 20
14.0097971968
 11
-1.5446274846
 21
14.02610014
  0
LINE
  5
7A4
100
AcDbEntity
  8
CURVE
100
AcDbLine
 62
7
  6
CONTINUOUS
 10
-1.5275935686
 20
12.4471621326
 11
-1.528365593
 21
12.4308598687
  0
LINE
  5
7A5
100
AcDbEntity
  8
CURVE
100
AcDbLine
 62
7
  6
CONTINUOUS
 10
-1.5463195862
 20
32.5815120355
 11
-1.5476905336
 21
32.5533752311
  0
LINE
  5
7A6
100
AcDbEntity
  8
CURVE
100
AcDbLine
 62
7
  6
CONTINUOUS
 10
-1.5447561143
 20
31.9955319749
 11
-1.5441241561
 21
32.0084707421
  0
LINE
  5
7A7
100
AcDbEntity
  8
CURVE
100
AcDbLine
 62
7
  6
CONTINUOUS
 10
-1.5463954609
 20
14.5329005279
 11
-1.5475212587
 21
14.510417012
  0
LINE
  5
7A8
100
AcDbEntity
  8
CURVE
100
AcDbLine
 62
7
  6
CONTINUOUS
 10
-1.5265879817
 20
11.9240628168
 11
-1.5254621803
 21
11.9465452724
  0
LINE
  5
7A9
100
AcDbEntity
  8
CURVE
100
AcDbLine
 62
7
  6
CONTINUOUS
 10
-1.5446274846
 20
14.02610014
 11
-1.5438440896
 21
14.0407074661
  0
LINE
  5
7AA
100
AcDbEntity
  8
CURVE
100
AcDbLine
 62
7
  6
CONTINUOUS
 10
-1.528365593
 20
12.4308598687
 11
-1.5291490124
 21
12.4162533732
  0
LINE
  5
7AB
100
AcDbEntity
  8
CURVE
100
AcDbLine
 62
7
  6
CONTINUOUS
 10
-1.5476905336
 20
32.5533752311
 11
-1.5497695375
 21
32.5149168024
  0
LINE
  5
7AC
100
AcDbEntity
  8
CURVE
100
AcDbLine
 62
7
  6
CONTINUOUS
 10
-1.5457118364
 20
31.9779493098
 11
-1.5447561143
 21
31.9955319749
  0
LINE
  5
7AD
100
AcDbEntity
  8
CURVE
100
AcDbLine
 62
7
  6
CONTINUOUS
 10
-1.5110644027
 20
34.91399
 11
-1.5616626179
 21
34.024304
  0
LWPOLYLINE
  5
7AE
100
AcDbEntity
  8
CURVE
100
AcDbPolyline
 62
7
  6
CONTINUOUS
 90
3
 70
0
 10
-1.5497695375
 20
32.5149168024
 10
-1.5532674264
 20
32.4563923076
 10
-1.561662624
 20
32.3168417383
  0
LINE
  5
7AF
100
AcDbEntity
  8
CURVE
100
AcDbLine
 62
253
  6
CONTINUOUS
 10
-1.5792429948
 20
26.1111904985
 11
-1.6019311231
 21
25.7397619492
  0
LINE
  5
7B0
100
AcDbEntity
  8
CURVE
100
AcDbLine
 62
7
  6
CONTINUOUS
 10
-1.5469975589
 20
31.9567483441
 11
-1.5457118364
 21
31.9779493098
  0
LWPOLYLINE
  5
7B1
100
AcDbEntity
  8
CURVE
100
AcDbPolyline
 62
7
  6
CONTINUOUS
 90
16
 70
0
 10
-1.5438440896
 20
14.0407074661
 10
-1.5430517355
 20
14.0536547165
 10
-1.5426529596
 20
14.0595169199
 10
-1.542252857
 20
14.0649774325
 10
-1.5418517319
 20
14.0700406968
 10
-1.5414498887
 20
14.0747111556
 10
-1.5410476317
 20
14.0789932515
 10
-1.5406452653
 20
14.0828914272
 10
-1.5402430937
 20
14.0864101253
 10
-1.5397074066
 20
14.0905197557
 10
-1.5391723341
 20
14.0939716447
 10
-1.5386376033
 20
14.0967750834
 10
-1.5381029408
 20
14.0989393625
 10
-1.5375680736
 20
14.1004737732
 10
-1.5370327284
 20
14.1013876062
 10
-1.5364966321
 20
14.1016901526
  0
LWPOLYLINE
  5
7B2
100
AcDbEntity
  8
CURVE
100
AcDbPolyline
 62
7
  6
CONTINUOUS
 90
16
 70
0
 10
-1.5291490124
 20
12.4162533732
 10
-1.5299413911
 20
12.4033070646
 10
-1.5303401791
 20
12.3974453612
 10
-1.5307402936
 20
12.3919853615
 10
-1.5311414303
 20
12.3869226179
 10
-1.5315432846
 20
12.3822526826
 10
-1.5319455522
 20
12.3779711081
 10
-1.5323479286
 20
12.3740734466
 10
-1.5327501093
 20
12.3705552504
 10
-1.5332858074
 20
12.3664462614
 10
-1.5338208895
 20
12.3629949649
 10
-1.5343556291
 20
12.3601920517
 10
-1.5348902998
 20
12.3580282128
 10
-1.5354251748
 20
12.3564941392
 10
-1.5359605277
 20
12.3555805217
 10
-1.5364966321
 20
12.3552780512
  0
LINE
  5
7B3
100
AcDbEntity
  8
CURVE
100
AcDbLine
 62
253
  6
CONTINUOUS
 10
-1.5199048129
 20
26.5735713655
 11
-1.5425929412
 21
26.2207142437
  0
LINE
  5
7B4
100
AcDbEntity
  8
CURVE
100
AcDbLine
 62
7
  6
CONTINUOUS
 10
-1.5616626179
 20
34.662235
 11
-1.5515614123
 21
34.819033
  0
LINE
  5
7B5
100
AcDbEntity
  8
CURVE
100
AcDbLine
 62
7
  6
CONTINUOUS
 10
-1.5531013588
 20
31.8635334756
 11
-1.5469975589
 21
31.9567483441
  0
LWPOLYLINE
  5
7B6
100
AcDbEntity
  8
CURVE
100
AcDbPolyline
 62
7
  6
CONTINUOUS
 90
3
 70
0
 10
-1.561662624
 20
31.7346410148
 10
-1.5565284105
 20
31.8125214288
 10
-1.5531013588
 20
31.8635334756
  0
LINE
  5
7B7
100
AcDbEntity
  8
CURVE
100
AcDbLine
 62
7
  6
CONTINUOUS
 10
-1.5437451465
 20
34.939996
 11
-1.5249675072
 21
35.218126
  0
LWPOLYLINE
  5
7B8
100
AcDbEntity
  8
RACCORDO
100
AcDbPolyline
 62
253
  6
CONTINUOUS
 90
4
 70
0
 10
-1.9764640455
 20
24.135
 10
-1.9779835292
 20
24.1296495539
 10
-1.979478566
 20
24.1136599447
 10
-1.9809491559
 20
24.0871628602
  0
LWPOLYLINE
  5
7B9
100
AcDbEntity
  8
ASSI
100
AcDbPolyline
 62
253
  6
CONTINUOUS
 90
4
 70
0
 10
-1.9764640455
 20
24.135
 10
-1.9779835292
 20
24.1296495539
 10
-1.979478566
 20
24.1136599447
 10
-1.9809491559
 20
24.0871628602
  0
LWPOLYLINE
  5
7BA
100
AcDbEntity
  8
RACCORDO
100
AcDbPolyline
 62
253
  6
CONTINUOUS
 90
4
 70
0
 10
-1.9764640455
 20
19.135
 10
-1.9779835292
 20
19.1296495539
 10
-1.979478566
 20
19.1136599447
 10
-1.9809491559
 20
19.0871628602
  0
LWPOLYLINE
  5
7BB
100
AcDbEntity
  8
ASSI
100
AcDbPolyline
 62
253
  6
CONTINUOUS
 90
4
 70
0
 10
-1.9764640455
 20
19.135
 10
-1.9779835292
 20
19.1296495539
 10
-1.979478566
 20
19.1136599447
 10
-1.9809491559
 20
19.0871628602
  0
LINE
  5
7BC
100
AcDbEntity
  8
0
100
AcDbLine
 62
7
  6
CONTINUOUS
 10
-16.9722436276
 20
2.119243902
 11
-16.9529209671
 21
2.1407452688
  0
LINE
  5
7BD
100
AcDbEntity
  8
0
100
AcDbLine
 62
7
  6
CONTINUOUS
 10
-16.9529209671
 20
2.1407452688
 11
-16.9307724793
 21
2.1650685287
  0
LINE
  5
7BE
100
AcDbEntity
  8
0
100
AcDbLine
 62
7
  6
CONTINUOUS
 10
-16.9307724793
 20
2.1650685287
 11
-16.9056965286
 21
2.1923219836
  0
LINE
  5
7BF
100
AcDbEntity
  8
0
100
AcDbLine
 62
7
  6
CONTINUOUS
 10
-16.9056965286
 20
2.1923219836
 11
-16.8776431367
 21
2.2225436324
  0
LINE
  5
7C0
100
AcDbEntity
  8
0
100
AcDbLine
 62
7
  6
CONTINUOUS
 10
-16.8776431367
 20
2.2225436324
 11
-16.8466123231
 21
2.25576208
  0
LINE
  5
7C1
100
AcDbEntity
  8
0
100
AcDbLine
 62
7
  6
CONTINUOUS
 10
-16.8466123231
 20
2.25576208
 11
-16.7947626973
 21
2.3108932672
  0
LINE
  5
7C2
100
AcDbEntity
  8
0
100
AcDbLine
 62
7
  6
CONTINUOUS
 10
-16.7947626973
 20
2.3108932672
 11
-16.7569779812
 21
2.3508523171
  0
LINE
  5
7C3
100
AcDbEntity
  8
0
100
AcDbLine
 62
7
  6
CONTINUOUS
 10
-16.7569779812
 20
2.3508523171
 11
-16.6750769586
 21
2.4371877617
  0
LINE
  5
7C4
100
AcDbEntity
  8
0
100
AcDbLine
 62
7
  6
CONTINUOUS
 10
-16.6750769586
 20
2.4371877617
 11
-16.5880427099
 21
2.5286421853
  0
LINE
  5
7C5
100
AcDbEntity
  8
0
100
AcDbLine
 62
7
  6
CONTINUOUS
 10
-17.085
 20
3.585
 11
-17.041077753
 21
3.628922247
  0
LINE
  5
7C6
100
AcDbEntity
  8
0
100
AcDbLine
 62
7
  6
CONTINUOUS
 10
-17.0413493531
 20
2.0286506469
 11
-17.085
 21
1.985
  0
LWPOLYLINE
  5
7C7
100
AcDbEntity
  8
0
100
AcDbPolyline
 62
253
  6
CONTINUOUS
 90
4
 70
0
 10
-14.5283221907
 20
8.6401858291
 10
-14.4852766567
 20
8.6672359601
 10
-14.4377519366
 20
8.6870984562
 10
-14.3871424653
 20
8.699244074
  0
LWPOLYLINE
  5
7C8
100
AcDbEntity
  8
RACCORDO
100
AcDbPolyline
 62
253
  6
CONTINUOUS
 90
4
 70
0
 10
-14.5283221907
 20
8.6401858291
 10
-14.4852766567
 20
8.6672359601
 10
-14.4377519366
 20
8.6870984562
 10
-14.3871424653
 20
8.699244074
  0
LWPOLYLINE
  5
7C9
100
AcDbEntity
  8
CURVE
100
AcDbPolyline
 62
7
  6
CONTINUOUS
 90
17
 70
0
 10
-1.5364917227
 20
14.6226760789
 10
-1.5370717482
 20
14.6223680361
 10
-1.5376540833
 20
14.6214432577
 10
-1.5382383296
 20
14.6199007692
 10
-1.5388240891
 20
14.6177395957
 10
-1.5394109634
 20
14.6149587627
 10
-1.5399985544
 20
14.6115572954
 10
-1.5405864638
 20
14.607534219
 10
-1.5411742934
 20
14.602888559
 10
-1.541761645
 20
14.5976193406
 10
-1.5423481203
 20
14.5917255891
 10
-1.5429333211
 20
14.5852063299
 10
-1.5435168492
 20
14.5780605881
 10
-1.5440983063
 20
14.5702873892
 10
-1.5446772943
 20
14.5618857584
 10
-1.5452534149
 20
14.5528547211
 10
-1.5463954609
 20
14.5329005279
  0
LINE
  5
7CA
100
AcDbEntity
  8
CURVE
100
AcDbLine
 62
253
  6
CONTINUOUS
 10
-1.5824841558
 20
42.335
 11
-1.5889664778
 21
42.335
  0
LINE
  5
7CB
100
AcDbEntity
  8
0
100
AcDbLine
 62
7
  6
CONTINUOUS
 10
-10.135
 20
42.585
 11
-15.135
 21
42.585
  0
LINE
  5
7CC
100
AcDbEntity
  8
ASSI
100
AcDbLine
 62
7
  6
CONTINUOUS
 10
-10.135
 20
42.585
 11
-15.135
 21
42.585
  0
LINE
  5
7CD
100
AcDbEntity
  8
CURVE
100
AcDbLine
 62
253
  6
CONTINUOUS
 10
-1.6019311231
 20
42.985
 11
-1.5792429948
 21
42.985
  0
LINE
  5
7CE
100
AcDbEntity
  8
0
100
AcDbLine
 62
7
  6
CONTINUOUS
 10
-15.135
 20
43.035
 11
-10.135
 21
43.035
  0
LINE
  5
7CF
100
AcDbEntity
  8
0
100
AcDbLine
 62
7
  6
CONTINUOUS
 10
-10.935
 20
43.235
 11
-14.335
 21
43.235
  0
LINE
  5
7D0
100
AcDbEntity
  8
RACCORDO
100
AcDbLine
 62
7
  6
CONTINUOUS
 10
-10.935
 20
43.235
 11
-14.335
 21
43.235
  0
LINE
  5
7D1
100
AcDbEntity
  8
0
100
AcDbLine
 62
253
  6
CONTINUOUS
 10
-10.935
 20
43.2666718427
 11
-14.335
 21
43.2666718427
  0
LINE
  5
7D2
100
AcDbEntity
  8
RACCORDO
100
AcDbLine
 62
253
  6
CONTINUOUS
 10
-10.935
 20
43.2666718427
 11
-14.335
 21
43.2666718427
  0
LINE
  5
7D3
100
AcDbEntity
  8
RACCORDO
100
AcDbLine
 62
7
  6
CONTINUOUS
 10
-14.3175778872
 20
43.285
 11
-10.9524221128
 21
43.285
  0
LINE
  5
7D4
100
AcDbEntity
  8
ASSI
100
AcDbLine
 62
7
  6
CONTINUOUS
 10
-14.3175778872
 20
43.285
 11
-10.9524221128
 21
43.285
  0
LINE
  5
7D5
100
AcDbEntity
  8
ASSI
100
AcDbLine
 62
7
  6
CONTINUOUS
 10
-10.135
 20
43.485
 11
-15.135
 21
43.485
  0
LINE
  5
7D6
100
AcDbEntity
  8
0
100
AcDbLine
 62
253
  6
CONTINUOUS
 10
-14.335
 20
43.2666718427
 11
-14.3870944533
 21
43.2707483503
  0
LINE
  5
7D7
100
AcDbEntity
  8
RACCORDO
100
AcDbLine
 62
253
  6
CONTINUOUS
 10
-14.335
 20
43.2666718427
 11
-14.3870944533
 21
43.2707483503
  0
LINE
  5
7D8
100
AcDbEntity
  8
0
100
AcDbLine
 62
253
  6
CONTINUOUS
 10
-14.3870944533
 20
43.2707483503
 11
-14.437606043
 21
43.2828540106
  0
LINE
  5
7D9
100
AcDbEntity
  8
RACCORDO
100
AcDbLine
 62
253
  6
CONTINUOUS
 10
-14.3870944533
 20
43.2707483503
 11
-14.437606043
 21
43.2828540106
  0
LWPOLYLINE
  5
7DA
100
AcDbEntity
  8
0
100
AcDbPolyline
 62
253
  6
CONTINUOUS
 90
3
 70
0
 10
-14.437606043
 20
43.2828540106
 10
-14.485
 20
43.3026209992
 10
-14.5278362829
 20
43.3294487062
  0
LWPOLYLINE
  5
7DB
100
AcDbEntity
  8
RACCORDO
100
AcDbPolyline
 62
253
  6
CONTINUOUS
 90
3
 70
0
 10
-14.437606043
 20
43.2828540106
 10
-14.485
 20
43.3026209992
 10
-14.5278362829
 20
43.3294487062
  0
LINE
  5
7DC
100
AcDbEntity
  8
0
100
AcDbLine
 62
7
  6
CONTINUOUS
 10
-17.085
 20
48.385
 11
-17.041077753
 21
48.341077753
  0
LINE
  5
7DD
100
AcDbEntity
  8
0
100
AcDbLine
 62
7
  6
CONTINUOUS
 10
-17.085
 20
49.985
 11
-17.0413493531
 21
49.9413493531
  0
LINE
  5
7DE
100
AcDbEntity
  8
0
100
AcDbLine
 62
7
  6
CONTINUOUS
 10
-16.6100948753
 20
49.4646041607
 11
-16.6751157569
 21
49.5328532803
  0
LINE
  5
7DF
100
AcDbEntity
  8
0
100
AcDbLine
 62
7
  6
CONTINUOUS
 10
-16.5880427099
 20
49.4413578147
 11
-16.6100948753
 21
49.4646041607
  0
LINE
  5
7E0
100
AcDbEntity
  8
0
100
AcDbLine
 62
7
  6
CONTINUOUS
 10
-16.6751157569
 20
49.5328532803
 11
-16.7570224224
 21
49.6191947032
  0
LINE
  5
7E1
100
AcDbEntity
  8
0
100
AcDbLine
 62
7
  6
CONTINUOUS
 10
-16.7570224224
 20
49.6191947032
 11
-16.8128281881
 21
49.6782854467
  0
LINE
  5
7E2
100
AcDbEntity
  8
0
100
AcDbLine
 62
7
  6
CONTINUOUS
 10
-16.8128281881
 20
49.6782854467
 11
-16.8626161524
 21
49.7313456692
  0
LINE
  5
7E3
100
AcDbEntity
  8
0
100
AcDbLine
 62
7
  6
CONTINUOUS
 10
-16.8626161524
 20
49.7313456692
 11
-16.8921600652
 21
49.763065367
  0
LINE
  5
7E4
100
AcDbEntity
  8
0
100
AcDbLine
 62
7
  6
CONTINUOUS
 10
-16.8921600652
 20
49.763065367
 11
-16.9187203587
 21
49.7918029827
  0
LINE
  5
7E5
100
AcDbEntity
  8
0
100
AcDbLine
 62
7
  6
CONTINUOUS
 10
-16.9187203587
 20
49.7918029827
 11
-16.9423109388
 21
49.8175619336
  0
LWPOLYLINE
  5
7E6
100
AcDbEntity
  8
0
100
AcDbPolyline
 62
7
  6
CONTINUOUS
 90
19
 70
0
 10
-16.9423109388
 20
49.8175619336
 10
-16.9630371281
 20
49.8404761219
 10
-16.9723545384
 20
49.8508802923
 10
-16.9810017322
 20
49.8606314726
 10
-16.9889855775
 20
49.8697241713
 10
-16.9963249818
 20
49.87816388
 10
-17.0030560579
 20
49.8860149424
 10
-17.009185929
 20
49.893278441
 10
-17.0147298268
 20
49.8999532933
 10
-17.0197244888
 20
49.9061005962
 10
-17.0241783161
 20
49.9117301175
 10
-17.0280934804
 20
49.9168320894
 10
-17.0314861493
 20
49.9214383061
 10
-17.0343608958
 20
49.9255532939
 10
-17.0367189632
 20
49.9291725265
 10
-17.0385662906
 20
49.9323142192
 10
-17.0399063765
 20
49.9349844437
 10
-17.0407421188
 20
49.9371771283
 10
-17.041077753
 20
49.9388922731
  0
LWPOLYLINE
  5
7E7
100
AcDbEntity
  8
RACCORDO
100
AcDbPolyline
 62
253
  6
CONTINUOUS
 90
4
 70
0
 10
-1.9764640455
 20
14.135
 10
-1.9779835292
 20
14.1296495539
 10
-1.979478566
 20
14.1136599447
 10
-1.9809491559
 20
14.0871628602
  0
LWPOLYLINE
  5
7E8
100
AcDbEntity
  8
ASSI
100
AcDbPolyline
 62
253
  6
CONTINUOUS
 90
4
 70
0
 10
-1.9764640455
 20
14.135
 10
-1.9779835292
 20
14.1296495539
 10
-1.979478566
 20
14.1136599447
 10
-1.9809491559
 20
14.0871628602
  0
LWPOLYLINE
  5
7E9
100
AcDbEntity
  8
0
100
AcDbPolyline
 62
7
  6
CONTINUOUS
 90
13
 70
0
 10
-11.1334757651
 20
45.8694866796
 10
-11.0106035386
 20
45.8696288165
 10
-10.8927317104
 20
45.8700092905
 10
-10.7798602807
 20
45.8706281018
 10
-10.6705044982
 20
45.8715000664
 10
-10.5661491141
 20
45.8726103683
 10
-10.4712483817
 20
45.8739145591
 10
-10.3861802974
 20
45.8754245811
 10
-10.3105668649
 20
45.8771284921
 10
-10.2477283489
 20
45.878946017
 10
-10.1987715042
 20
45.8808503974
 10
-10.1625895761
 20
45.8828683918
 10
-10.1391825645
 20
45.885
  0
LINE
  5
7EA
100
AcDbEntity
  8
ASSI
100
AcDbLine
 62
7
  6
CONTINUOUS
 10
-10.135
 20
44.185
 11
-15.135
 21
44.185
  0
LINE
  5
7EB
100
AcDbEntity
  8
RACCORDO
100
AcDbLine
 62
7
  6
CONTINUOUS
 10
-3.2437756099
 20
44.1980903017
 11
-8.6219096983
 21
44.1980903017
  0
LINE
  5
7EC
100
AcDbEntity
  8
ASSI
100
AcDbLine
 62
7
  6
CONTINUOUS
 10
-3.2437756099
 20
44.1980903017
 11
-8.6219096983
 21
44.1980903017
  0
LINE
  5
7ED
100
AcDbEntity
  8
0
100
AcDbLine
 62
7
  6
CONTINUOUS
 10
-15.135
 20
44.285
 11
-10.135
 21
44.285
  0
LINE
  5
7EE
100
AcDbEntity
  8
ASSI
100
AcDbLine
 62
7
  6
CONTINUOUS
 10
-15.135
 20
44.285
 11
-10.135
 21
44.285
  0
LINE
  5
7EF
100
AcDbEntity
  8
ASSI
100
AcDbLine
 62
7
  6
CONTINUOUS
 10
-3.435
 20
44.585
 11
-8.6219096983
 21
44.585
  0
LINE
  5
7F0
100
AcDbEntity
  8
RACCORDO
100
AcDbLine
 62
7
  6
CONTINUOUS
 10
-8.9218982752
 20
45.5980903017
 11
-22.0262243901
 21
45.5980903017
  0
LINE
  5
7F1
100
AcDbEntity
  8
ASSI
100
AcDbLine
 62
7
  6
CONTINUOUS
 10
-8.9218982752
 20
45.5980903017
 11
-22.0262243901
 21
45.5980903017
  0
LINE
  5
7F2
100
AcDbEntity
  8
0
100
AcDbLine
 62
7
  6
CONTINUOUS
 10
-5.1983443637
 20
45.6483443637
 11
-9.1716556363
 21
45.6483443637
  0
LINE
  5
7F3
100
AcDbEntity
  8
DRAFT
100
AcDbLine
 62
7
  6
CONTINUOUS
 10
-5.1983443637
 20
45.6483443637
 11
-9.1716556363
 21
45.6483443637
  0
LINE
  5
7F4
100
AcDbEntity
  8
0
100
AcDbLine
 62
7
  6
CONTINUOUS
 10
-16.0983443637
 20
45.6483443637
 11
-20.0716556363
 21
45.6483443637
  0
LINE
  5
7F5
100
AcDbEntity
  8
DRAFT
100
AcDbLine
 62
7
  6
CONTINUOUS
 10
-16.0983443637
 20
45.6483443637
 11
-20.0716556363
 21
45.6483443637
  0
LINE
  5
7F6
100
AcDbEntity
  8
0
100
AcDbLine
 62
7
  6
CONTINUOUS
 10
-5.235
 20
45.685
 11
-9.135
 21
45.685
  0
LINE
  5
7F7
100
AcDbEntity
  8
DRAFT
100
AcDbLine
 62
7
  6
CONTINUOUS
 10
-5.235
 20
45.685
 11
-9.135
 21
45.685
  0
LINE
  5
7F8
100
AcDbEntity
  8
0
100
AcDbLine
 62
7
  6
CONTINUOUS
 10
-16.135
 20
45.685
 11
-20.035
 21
45.685
  0
LINE
  5
7F9
100
AcDbEntity
  8
DRAFT
100
AcDbLine
 62
7
  6
CONTINUOUS
 10
-16.135
 20
45.685
 11
-20.035
 21
45.685
  0
LINE
  5
7FA
100
AcDbEntity
  8
DRAFT
100
AcDbLine
 62
7
  6
CONTINUOUS
 10
-5.3393634339
 20
45.6893634339
 11
-6.1306365661
 21
45.6893634339
  0
LINE
  5
7FB
100
AcDbEntity
  8
DRAFT
100
AcDbLine
 62
7
  6
CONTINUOUS
 10
-19.1393634339
 20
45.6893634339
 11
-19.9306365661
 21
45.6893634339
  0
LINE
  5
7FC
100
AcDbEntity
  8
DRAFT
100
AcDbLine
 62
7
  6
CONTINUOUS
 10
-5.4397224135
 20
45.7897224135
 11
-6.0302775865
 21
45.7897224135
  0
LINE
  5
7FD
100
AcDbEntity
  8
DRAFT
100
AcDbLine
 62
7
  6
CONTINUOUS
 10
-19.2397224135
 20
45.7897224135
 11
-19.8302775865
 21
45.7897224135
  0
LINE
  5
7FE
100
AcDbEntity
  8
0
100
AcDbLine
 62
7
  6
CONTINUOUS
 10
-16.0983443637
 20
45.8483443637
 11
-9.1716556363
 21
45.8483443637
  0
LINE
  5
7FF
100
AcDbEntity
  8
DRAFT
100
AcDbLine
 62
7
  6
CONTINUOUS
 10
-16.0983443637
 20
45.8483443637
 11
-9.1716556363
 21
45.8483443637
  0
LINE
  5
800
100
AcDbEntity
  8
0
100
AcDbLine
 62
7
  6
CONTINUOUS
 10
-14.1365242349
 20
45.8694866796
 11
-11.1334757651
 21
45.8694866796
  0
LINE
  5
801
100
AcDbEntity
  8
0
100
AcDbLine
 62
7
  6
CONTINUOUS
 10
-16.135
 20
45.885
 11
-15.1294782802
 21
45.885
  0
LINE
  5
802
100
AcDbEntity
  8
0
100
AcDbLine
 62
7
  6
CONTINUOUS
 10
-10.1405217198
 20
45.885
 11
-9.135
 21
45.885
  0
LINE
  5
803
100
AcDbEntity
  8
DRAFT
100
AcDbLine
 62
7
  6
CONTINUOUS
 10
-5.235
 20
45.985
 11
-5.3393634339
 21
45.985
  0
LINE
  5
804
100
AcDbEntity
  8
DRAFT
100
AcDbLine
 62
7
  6
CONTINUOUS
 10
-19.9306365661
 20
45.985
 11
-20.035
 21
45.985
  0
LINE
  5
805
100
AcDbEntity
  8
DRAFT
100
AcDbLine
 62
7
  6
CONTINUOUS
 10
-6.1306365661
 20
45.9893634339
 11
-10.1356399303
 21
45.9893634339
  0
LINE
  5
806
100
AcDbEntity
  8
DRAFT
100
AcDbLine
 62
7
  6
CONTINUOUS
 10
-15.1343600697
 20
45.9893634339
 11
-19.1393634339
 21
45.9893634339
  0
LINE
  5
807
100
AcDbEntity
  8
DRAFT
100
AcDbLine
 62
7
  6
CONTINUOUS
 10
-9.1348465654
 20
46.0025818656
 11
-10.135616033
 21
46.0025818656
  0
LINE
  5
808
100
AcDbEntity
  8
DRAFT
100
AcDbLine
 62
7
  6
CONTINUOUS
 10
-15.134383967
 20
46.0025818656
 11
-16.1351534346
 21
46.0025818656
  0
LINE
  5
809
100
AcDbEntity
  8
DRAFT
100
AcDbLine
 62
7
  6
CONTINUOUS
 10
-15.135
 20
46.055693013
 11
-15.0762605819
 21
46.055693013
  0
LINE
  5
80A
100
AcDbEntity
  8
DRAFT
100
AcDbLine
 62
7
  6
CONTINUOUS
 10
-10.1937394181
 20
46.055693013
 11
-10.135
 21
46.055693013
  0
LWPOLYLINE
  5
80B
100
AcDbEntity
  8
0
100
AcDbPolyline
 62
7
  6
CONTINUOUS
 90
13
 70
0
 10
-14.1365242349
 20
45.8694866796
 10
-14.2593964614
 20
45.8696288165
 10
-14.3772682896
 20
45.8700092905
 10
-14.4901397193
 20
45.8706281018
 10
-14.5994955018
 20
45.8715000664
 10
-14.7038508859
 20
45.8726103683
 10
-14.7987516183
 20
45.8739145591
 10
-14.8838197026
 20
45.8754245811
 10
-14.9594331351
 20
45.8771284921
 10
-15.0222716511
 20
45.878946017
 10
-15.0712284958
 20
45.8808503974
 10
-15.1074104239
 20
45.8828683918
 10
-15.1308174355
 20
45.885
  0
LINE
  5
80C
100
AcDbEntity
  8
CURVE
100
AcDbLine
 62
7
  6
CONTINUOUS
 10
-1.5286229328
 20
38.735162
 11
-1.5616626179
 21
38.865779
  0
LINE
  5
80D
100
AcDbEntity
  8
CURVE
100
AcDbLine
 62
7
  6
CONTINUOUS
 10
-1.5616626179
 20
39.444827
 11
-1.5110644027
 21
39.183005
  0
LWPOLYLINE
  5
80E
100
AcDbEntity
  8
0
100
AcDbPolyline
 62
7
  6
CONTINUOUS
 90
6
 70
0
 10
-2.4875445259
 20
50.2705823661
 10
-2.4895176323
 20
50.2823162875
 10
-2.4920468183
 20
50.2939430388
 10
-2.4951263583
 20
50.305436279
 10
-2.4987492787
 20
50.3167699738
 10
-2.5029073742
 20
50.3279184493
  0
LWPOLYLINE
  5
80F
100
AcDbEntity
  8
CURVE
100
AcDbPolyline
 62
7
  6
CONTINUOUS
 90
17
 70
0
 10
-1.5364917227
 20
11.8342921248
 10
-1.5359116973
 20
11.8346001475
 10
-1.5353293625
 20
11.8355248662
 10
-1.5347451164
 20
11.837067257
 10
-1.5341593572
 20
11.8392282957
 10
-1.5335724831
 20
11.8420089583
 10
-1.5329848924
 20
11.8454102207
 10
-1.5323969833
 20
11.8494330588
 10
-1.5318091539
 20
11.8540784488
 10
-1.5312218024
 20
11.8593473663
 10
-1.5306353271
 20
11.8652407876
 10
-1.5300501262
 20
11.8717596883
 10
-1.5294665978
 20
11.8789050446
 10
-1.5288851403
 20
11.8866778323
 10
-1.5283061516
 20
11.8950790275
 10
-1.5277300302
 20
11.904109606
 10
-1.5265879817
 20
11.9240628168
  0
LWPOLYLINE
  5
810
100
AcDbEntity
  8
0
100
AcDbPolyline
 62
7
  6
CONTINUOUS
 90
18
 70
0
 10
-20.0420815507
 20
1.5029073742
 10
-20.0311435537
 20
1.5075912278
 10
-20.0204408124
 20
1.5127902312
 10
-20.0099975717
 20
1.5184926084
 10
-19.9998374941
 20
1.5246854419
 10
-19.9899835949
 20
1.5313547045
 10
-19.9804581962
 20
1.5384852893
 10
-19.9712828809
 20
1.5460610411
 10
-19.9624784339
 20
1.5540647995
 10
-19.9540647995
 20
1.5624784339
 10
-19.9460610411
 20
1.5712828809
 10
-19.9384852893
 20
1.5804581962
 10
-19.9313547045
 20
1.5899835949
 10
-19.9246854419
 20
1.5998374941
 10
-19.9184926084
 20
1.6099975717
 10
-19.9127902312
 20
1.6204408124
 10
-19.9075912278
 20
1.6311435537
 10
-19.9029073742
 20
1.6420815507
  0
LWPOLYLINE
  5
811
100
AcDbEntity
  8
0
100
AcDbPolyline
 62
7
  6
CONTINUOUS
 90
6
 70
0
 10
-5.1705823661
 20
50.4824554741
 10
-5.1823162875
 20
50.4804823677
 10
-5.1939430388
 20
50.4779531817
 10
-5.205436279
 20
50.4748736417
 10
-5.2167699738
 20
50.4712507213
 10
-5.2279184493
 20
50.4670926258
  0
LINE
  5
812
100
AcDbEntity
  8
DRAFT
100
AcDbLine
 62
7
  6
CONTINUOUS
 10
-6.0302775865
 20
46.0897224135
 11
-19.2397224135
 21
46.0897224135
  0
LINE
  5
813
100
AcDbEntity
  8
0
100
AcDbLine
 62
7
  6
CONTINUOUS
 10
-9.642854181
 20
46.785
 11
-15.627145819
 21
46.785
  0
LINE
  5
814
100
AcDbEntity
  8
0
100
AcDbLine
 62
7
  6
CONTINUOUS
 10
-3.835
 20
46.835
 11
-5.235
 21
46.835
  0
LINE
  5
815
100
AcDbEntity
  8
DRAFT
100
AcDbLine
 62
7
  6
CONTINUOUS
 10
-3.835
 20
46.835
 11
-5.235
 21
46.835
  0
LINE
  5
816
100
AcDbEntity
  8
0
100
AcDbLine
 62
7
  6
CONTINUOUS
 10
-20.035
 20
46.835
 11
-21.435
 21
46.835
  0
LINE
  5
817
100
AcDbEntity
  8
DRAFT
100
AcDbLine
 62
7
  6
CONTINUOUS
 10
-20.035
 20
46.835
 11
-21.435
 21
46.835
  0
LINE
  5
818
100
AcDbEntity
  8
DRAFT
100
AcDbLine
 62
7
  6
CONTINUOUS
 10
-20.7015695018
 20
46.885
 11
-20.2659708049
 21
46.885
  0
LINE
  5
819
100
AcDbEntity
  8
DRAFT
100
AcDbLine
 62
7
  6
CONTINUOUS
 10
-4.5684304982
 20
46.885
 11
-5.0040291951
 21
46.885
  0
LINE
  5
81A
100
AcDbEntity
  8
DRAFT
100
AcDbLine
 62
7
  6
CONTINUOUS
 10
-5.0163708499
 20
46.885
 11
-5.3437268678
 21
46.885
  0
LINE
  5
81B
100
AcDbEntity
  8
DRAFT
100
AcDbLine
 62
7
  6
CONTINUOUS
 10
-19.935
 20
46.885
 11
-20.2536291501
 21
46.885
  0
LINE
  5
81C
100
AcDbEntity
  8
0
100
AcDbLine
 62
7
  6
CONTINUOUS
 10
-4.4024550649
 20
46.8937268678
 11
-4.5684304982
 21
46.8937268678
  0
LINE
  5
81D
100
AcDbEntity
  8
0
100
AcDbLine
 62
7
  6
CONTINUOUS
 10
-20.7015695018
 20
46.8937268678
 11
-20.8675449351
 21
46.8937268678
  0
LINE
  5
81E
100
AcDbEntity
  8
DRAFT
100
AcDbLine
 62
7
  6
CONTINUOUS
 10
-20.2016456542
 20
46.9809955457
 11
-19.8302775865
 21
46.9809955457
  0
LINE
  5
81F
100
AcDbEntity
  8
DRAFT
100
AcDbLine
 62
7
  6
CONTINUOUS
 10
-5.0683543458
 20
46.9809955457
 11
-5.4397224135
 21
46.9809955457
  0
LINE
  5
820
100
AcDbEntity
  8
0
100
AcDbLine
 62
253
  6
CONTINUOUS
 10
-5.0683543458
 20
47.3209869487
 11
-9.6381766938
 21
47.3209869487
  0
LINE
  5
821
100
AcDbEntity
  8
0
100
AcDbLine
 62
253
  6
CONTINUOUS
 10
-15.6318233062
 20
47.3209869487
 11
-20.2016456542
 21
47.3209869487
  0
LINE
  5
822
100
AcDbEntity
  8
0
100
AcDbLine
 62
7
  6
CONTINUOUS
 10
-9.635
 20
47.685
 11
-15.635
 21
47.685
  0
LWPOLYLINE
  5
823
100
AcDbEntity
  8
0
100
AcDbPolyline
 62
7
  6
CONTINUOUS
 90
9
 70
0
 10
-2.5029073742
 20
1.6420815507
 10
-2.4987492787
 20
1.6532300262
 10
-2.4951263583
 20
1.664563721
 10
-2.4920468183
 20
1.6760569612
 10
-2.4895176323
 20
1.6876837125
 10
-2.4875445259
 20
1.6994176339
 10
-2.4861319658
 20
1.7112321444
 10
-2.4852831502
 20
1.723100484
 10
-2.485
 20
1.7349957692
  0
LWPOLYLINE
  5
824
100
AcDbEntity
  8
0
100
AcDbPolyline
 62
7
  6
CONTINUOUS
 90
5
 70
0
 10
-9.1009157223
 20
2.0793286276
 10
-9.0943308036
 20
2.0870541922
 10
-9.0870860793
 20
2.0954586703
 10
-9.0791672595
 20
2.1045420619
 10
-9.0705574546
 20
2.1142998218
  0
LINE
  5
825
100
AcDbEntity
  8
0
100
AcDbLine
 62
7
  6
CONTINUOUS
 10
-9.0705574546
 20
2.1142998218
 11
-9.0512444065
 21
2.1358657178
  0
LINE
  5
826
100
AcDbEntity
  8
0
100
AcDbLine
 62
7
  6
CONTINUOUS
 10
-9.0512444065
 20
2.1358657178
 11
-9.0291429207
 21
2.1601991896
  0
LINE
  5
827
100
AcDbEntity
  8
0
100
AcDbLine
 62
7
  6
CONTINUOUS
 10
-9.0291429207
 20
2.1601991896
 11
-9.0042103469
 21
2.1873367311
  0
LINE
  5
828
100
AcDbEntity
  8
0
100
AcDbLine
 62
7
  6
CONTINUOUS
 10
-9.0042103469
 20
2.1873367311
 11
-8.9763739029
 21
2.2173699798
  0
LINE
  5
829
100
AcDbEntity
  8
0
100
AcDbLine
 62
7
  6
CONTINUOUS
 10
-8.9763739029
 20
2.2173699798
 11
-8.9453614329
 21
2.2505990707
  0
LINE
  5
82A
100
AcDbEntity
  8
0
100
AcDbLine
 62
7
  6
CONTINUOUS
 10
-8.9453614329
 20
2.2505990707
 11
-8.8930416397
 21
2.3062656143
  0
LINE
  5
82B
100
AcDbEntity
  8
0
100
AcDbLine
 62
7
  6
CONTINUOUS
 10
-8.8930416397
 20
2.3062656143
 11
-8.8340698289
 21
2.3686384857
  0
LWPOLYLINE
  5
82C
100
AcDbEntity
  8
0
100
AcDbPolyline
 62
7
  6
CONTINUOUS
 90
4
 70
0
 10
-8.8340698289
 20
2.3686384857
 10
-8.7479155037
 20
2.4593325661
 10
-8.7259341586
 20
2.4823668146
 10
-8.6819572901
 20
2.5286421853
  0
LINE
  5
82D
100
AcDbEntity
  8
DRAFT
100
AcDbLine
 62
7
  6
CONTINUOUS
 10
-5.4397224135
 20
6.1802775865
 11
-5.3393634339
 21
6.2806365661
  0
LINE
  5
82E
100
AcDbEntity
  8
0
100
AcDbLine
 62
7
  6
CONTINUOUS
 10
-5.235
 20
6.285
 11
-5.1983443637
 21
6.3216556363
  0
LINE
  5
82F
100
AcDbEntity
  8
DRAFT
100
AcDbLine
 62
7
  6
CONTINUOUS
 10
-5.235
 20
6.285
 11
-5.1983443637
 21
6.3216556363
  0
LINE
  5
830
100
AcDbEntity
  8
RACCORDO
100
AcDbLine
 62
7
  6
CONTINUOUS
 10
-1.9147917647
 20
8.6866957532
 11
-2.5366957532
 21
8.0647917647
  0
LINE
  5
831
100
AcDbEntity
  8
ASSI
100
AcDbLine
 62
7
  6
CONTINUOUS
 10
-1.9147917647
 20
8.6866957532
 11
-2.5366957532
 21
8.0647917647
  0
LINE
  5
832
100
AcDbEntity
  8
DRAFT
100
AcDbLine
 62
7
  6
CONTINUOUS
 10
-5.4397224135
 20
4.9890044543
 11
-5.3437265355
 21
5.0849996677
  0
LINE
  5
833
100
AcDbEntity
  8
DRAFT
100
AcDbLine
 62
7
  6
CONTINUOUS
 10
-5.3437265355
 20
5.0762734645
 11
-5.335
 21
5.085
  0
LINE
  5
834
100
AcDbEntity
  8
0
100
AcDbLine
 62
253
  6
CONTINUOUS
 10
-11.62643263
 20
2.1907047302
 11
-11.635
 21
2.1849932308
  0
LINE
  5
835
100
AcDbEntity
  8
0
100
AcDbLine
 62
253
  6
CONTINUOUS
 10
-11.4264504004
 20
1.990701345
 11
-11.4350025384
 21
1.985
  0
LINE
  5
836
100
AcDbEntity
  8
0
100
AcDbLine
 62
7
  6
CONTINUOUS
 10
-11.6263260466
 20
3.5902042875
 11
-11.635
 21
3.585
  0
LINE
  5
837
100
AcDbEntity
  8
0
100
AcDbLine
 62
7
  6
CONTINUOUS
 10
-5.1983443637
 20
7.7188305324
 11
-5.1808892987
 21
7.7275574002
  0
LINE
  5
838
100
AcDbEntity
  8
DRAFT
100
AcDbLine
 62
7
  6
CONTINUOUS
 10
-5.1983443637
 20
7.7188305324
 11
-5.1808892987
 21
7.7275574002
  0
LWPOLYLINE
  5
839
100
AcDbEntity
  8
0
100
AcDbPolyline
 62
7
  6
CONTINUOUS
 90
37
 70
0
 10
-11.4350025384
 20
49.985
 10
-11.4437261921
 20
49.9848096663
 10
-11.4524332468
 20
49.9842390211
 10
-11.4611071311
 20
49.9832891478
 10
-11.4697313379
 20
49.9819618522
 10
-11.4782894514
 20
49.9802596573
 10
-11.4867651781
 20
49.9781857986
 10
-11.4951423862
 20
49.9757442207
 10
-11.5034051302
 20
49.9729395683
 10
-11.5115376773
 20
49.9697771768
 10
-11.519524548
 20
49.966263063
 10
-11.5273505393
 20
49.9624039139
 10
-11.5350007488
 20
49.9582070734
 10
-11.5424606144
 20
49.9536805281
 10
-11.549715936
 20
49.9488328927
 10
-11.556752897
 20
49.9436733946
 10
-11.5635581022
 20
49.9382118535
 10
-11.5701185977
 20
49.9324586645
 10
-11.5764218898
 20
49.9264247806
 10
-11.5824559799
 20
49.9201216866
 10
-11.5882093819
 20
49.9135613799
 10
-11.5936711398
 20
49.9067563514
 10
-11.5988308569
 20
49.8997195545
 10
-11.6036787119
 20
49.8924643834
 10
-11.6082054741
 20
49.8850046527
 10
-11.6124025269
 20
49.8773545622
 10
-11.616261882
 20
49.8695286738
 10
-11.6197761922
 20
49.8615418886
 10
-11.6229387686
 20
49.8534094098
 10
-11.6257435922
 20
49.8451467172
 10
-11.6281853252
 20
49.8367695428
 10
-11.6302593205
 20
49.8282938328
 10
-11.6319616318
 20
49.8197357198
 10
-11.6332890211
 20
49.8111114971
 10
-11.6342389635
 20
49.8024375811
 10
-11.6348096515
 20
49.7937304808
 10
-11.635
 20
49.7850067692
  0
LINE
  5
83A
100
AcDbEntity
  8
0
100
AcDbLine
 62
253
  6
CONTINUOUS
 10
-5.4444583738
 20
48.3209700255
 11
-9.6294499737
 21
48.3209700255
  0
LINE
  5
83B
100
AcDbEntity
  8
0
100
AcDbLine
 62
253
  6
CONTINUOUS
 10
-15.6405500263
 20
48.3209700255
 11
-19.8255416262
 21
48.3209700255
  0
LINE
  5
83C
100
AcDbEntity
  8
0
100
AcDbLine
 62
7
  6
CONTINUOUS
 10
-1.9937205217
 20
48.3791821702
 11
-5.3791821702
 21
48.3791821702
  0
LINE
  5
83D
100
AcDbEntity
  8
0
100
AcDbLine
 62
7
  6
CONTINUOUS
 10
-19.8908178298
 20
48.3791821702
 11
-23.2762794783
 21
48.3791821702
  0
LINE
  5
83E
100
AcDbEntity
  8
0
100
AcDbLine
 62
7
  6
CONTINUOUS
 10
-11.6263260466
 20
48.3797957125
 11
-13.6436739534
 21
48.3797957125
  0
LINE
  5
83F
100
AcDbEntity
  8
0
100
AcDbLine
 62
7
  6
CONTINUOUS
 10
-13.635
 20
48.385
 11
-11.635
 21
48.385
  0
LINE
  5
840
100
AcDbEntity
  8
0
100
AcDbLine
 62
7
  6
CONTINUOUS
 10
-1.9846194003
 20
48.385
 11
-8.185
 21
48.385
  0
LINE
  5
841
100
AcDbEntity
  8
0
100
AcDbLine
 62
7
  6
CONTINUOUS
 10
-17.085
 20
48.385
 11
-23.2853805997
 21
48.385
  0
LINE
  5
842
100
AcDbEntity
  8
0
100
AcDbLine
 62
7
  6
CONTINUOUS
 10
-22.5357229979
 20
49.1076497308
 11
-20.1342770021
 21
49.1076497308
  0
LINE
  5
843
100
AcDbEntity
  8
0
100
AcDbLine
 62
7
  6
CONTINUOUS
 10
-2.7342770021
 20
49.1076497308
 11
-5.1357229979
 21
49.1076497308
  0
LINE
  5
844
100
AcDbEntity
  8
0
100
AcDbLine
 62
253
  6
CONTINUOUS
 10
-22.5306323968
 20
49.6128312164
 11
-20.1393676032
 21
49.6128312164
  0
LINE
  5
845
100
AcDbEntity
  8
0
100
AcDbLine
 62
253
  6
CONTINUOUS
 10
-5.1306323968
 20
49.6128312164
 11
-2.7393676032
 21
49.6128312164
  0
LINE
  5
846
100
AcDbEntity
  8
0
100
AcDbLine
 62
253
  6
CONTINUOUS
 10
-2.489371834
 20
49.8293375673
 11
-5.380628166
 21
49.8293375673
  0
LINE
  5
847
100
AcDbEntity
  8
0
100
AcDbLine
 62
253
  6
CONTINUOUS
 10
-19.889371834
 20
49.8293375673
 11
-22.780628166
 21
49.8293375673
  0
LINE
  5
848
100
AcDbEntity
  8
0
100
AcDbLine
 62
7
  6
CONTINUOUS
 10
-8.2286506469
 20
49.9413493531
 11
-9.1004734623
 21
49.9413493531
  0
LINE
  5
849
100
AcDbEntity
  8
0
100
AcDbLine
 62
7
  6
CONTINUOUS
 10
-16.1695265377
 20
49.9413493531
 11
-17.0413493531
 21
49.9413493531
  0
LINE
  5
84A
100
AcDbEntity
  8
0
100
AcDbLine
 62
7
  6
CONTINUOUS
 10
-9.1001422837
 20
49.979298655
 11
-11.4264504004
 21
49.979298655
  0
LINE
  5
84B
100
AcDbEntity
  8
0
100
AcDbLine
 62
7
  6
CONTINUOUS
 10
-13.8435495996
 20
49.979298655
 11
-16.1698577163
 21
49.979298655
  0
LINE
  5
84C
100
AcDbEntity
  8
0
100
AcDbLine
 62
7
  6
CONTINUOUS
 10
-8.185
 20
49.985
 11
-11.4350025384
 21
49.985
  0
LINE
  5
84D
100
AcDbEntity
  8
0
100
AcDbLine
 62
7
  6
CONTINUOUS
 10
-13.8349974616
 20
49.985
 11
-17.085
 21
49.985
  0
LWPOLYLINE
  5
84E
100
AcDbEntity
  8
0
100
AcDbPolyline
 62
7
  6
CONTINUOUS
 90
9
 70
0
 10
-20.0420815507
 20
50.4670926258
 10
-20.0532300262
 20
50.4712507213
 10
-20.064563721
 20
50.4748736417
 10
-20.0760569612
 20
50.4779531817
 10
-20.0876837125
 20
50.4804823677
 10
-20.0994176339
 20
50.4824554741
 10
-20.1112321444
 20
50.4838680342
 10
-20.123100484
 20
50.4847168498
 10
-20.1349957692
 20
50.485
  0
LINE
  5
84F
100
AcDbEntity
  8
0
100
AcDbLine
 62
7
  6
CONTINUOUS
 10
-11.635
 20
48.385
 11
-11.6263260466
 21
48.3797957125
  0
LINE
  5
850
100
AcDbEntity
  8
0
100
AcDbLine
 62
253
  6
CONTINUOUS
 10
-11.635
 20
49.7850067692
 11
-11.62643263
 21
49.7792952698
  0
LINE
  5
851
100
AcDbEntity
  8
0
100
AcDbLine
 62
253
  6
CONTINUOUS
 10
-11.4350025384
 20
49.985
 11
-11.4264504004
 21
49.979298655
  0
LINE
  5
852
100
AcDbEntity
  8
DRAFT
100
AcDbLine
 62
7
  6
CONTINUOUS
 10
-5.4397224135
 20
45.7897224135
 11
-5.3393634339
 21
45.6893634339
  0
LINE
  5
853
100
AcDbEntity
  8
0
100
AcDbLine
 62
7
  6
CONTINUOUS
 10
-5.235
 20
45.685
 11
-5.1983443637
 21
45.6483443637
  0
LINE
  5
854
100
AcDbEntity
  8
DRAFT
100
AcDbLine
 62
7
  6
CONTINUOUS
 10
-5.235
 20
45.685
 11
-5.1983443637
 21
45.6483443637
  0
LINE
  5
855
100
AcDbEntity
  8
RACCORDO
100
AcDbLine
 62
7
  6
CONTINUOUS
 10
-1.9147917647
 20
43.2833042468
 11
-2.5366957532
 21
43.9052082353
  0
LINE
  5
856
100
AcDbEntity
  8
ASSI
100
AcDbLine
 62
7
  6
CONTINUOUS
 10
-1.9147917647
 20
43.2833042468
 11
-2.5366957532
 21
43.9052082353
  0
LINE
  5
857
100
AcDbEntity
  8
DRAFT
100
AcDbLine
 62
7
  6
CONTINUOUS
 10
-5.4397224135
 20
46.9809955457
 11
-5.3437268678
 21
46.885
  0
LINE
  5
858
100
AcDbEntity
  8
0
100
AcDbLine
 62
7
  6
CONTINUOUS
 10
-8.703748802
 20
49.4643385419
 11
-8.7693621945
 21
49.5331984312
  0
LINE
  5
859
100
AcDbEntity
  8
0
100
AcDbLine
 62
7
  6
CONTINUOUS
 10
-8.6819572901
 20
49.4413578147
 11
-8.703748802
 21
49.4643385419
  0
LINE
  5
85A
100
AcDbEntity
  8
0
100
AcDbLine
 62
7
  6
CONTINUOUS
 10
-8.7693621945
 20
49.5331984312
 11
-8.8538215639
 21
49.6222358124
  0
LINE
  5
85B
100
AcDbEntity
  8
0
100
AcDbLine
 62
7
  6
CONTINUOUS
 10
-8.8538215639
 20
49.6222358124
 11
-8.9105191164
 21
49.6822982073
  0
LINE
  5
85C
100
AcDbEntity
  8
0
100
AcDbLine
 62
7
  6
CONTINUOUS
 10
-8.9105191164
 20
49.6822982073
 11
-8.9445688415
 21
49.718557251
  0
LINE
  5
85D
100
AcDbEntity
  8
0
100
AcDbLine
 62
7
  6
CONTINUOUS
 10
-8.9445688415
 20
49.718557251
 11
-8.9756398295
 21
49.7518410816
  0
LINE
  5
85E
100
AcDbEntity
  8
0
100
AcDbLine
 62
7
  6
CONTINUOUS
 10
-8.9756398295
 20
49.7518410816
 11
-9.0038655103
 21
49.7822846575
  0
LINE
  5
85F
100
AcDbEntity
  8
0
100
AcDbLine
 62
7
  6
CONTINUOUS
 10
-9.0038655103
 20
49.7822846575
 11
-9.0291492392
 21
49.8098049937
  0
LINE
  5
860
100
AcDbEntity
  8
0
100
AcDbLine
 62
7
  6
CONTINUOUS
 10
-9.0291492392
 20
49.8098049937
 11
-9.0514625758
 21
49.8343761243
  0
LWPOLYLINE
  5
861
100
AcDbEntity
  8
0
100
AcDbPolyline
 62
7
  6
CONTINUOUS
 90
6
 70
0
 10
-9.0514625758
 20
49.8343761243
 10
-9.0707629945
 20
49.8559325511
 10
-9.0793317513
 20
49.8656452238
 10
-9.0872034432
 20
49.8746809346
 10
-9.0943921831
 20
49.8830229841
 10
-9.1009157223
 20
49.8906713724
  0
LINE
  5
862
100
AcDbEntity
  8
DRAFT
100
AcDbLine
 62
7
  6
CONTINUOUS
 10
-5.0163708499
 20
5.085
 11
-4.9663708499
 21
5.135
  0
LINE
  5
863
100
AcDbEntity
  8
DRAFT
100
AcDbLine
 62
7
  6
CONTINUOUS
 10
-4.9916875403
 20
5.085
 11
-4.9416875403
 21
5.135
  0
LINE
  5
864
100
AcDbEntity
  8
0
100
AcDbLine
 62
7
  6
CONTINUOUS
 10
-4.0077963269
 20
5.135
 11
-2.192882674
 21
6.9499136529
  0
LINE
  5
865
100
AcDbEntity
  8
RACCORDO
100
AcDbLine
 62
7
  6
CONTINUOUS
 10
-4.0077963269
 20
5.135
 11
-2.192882674
 21
6.9499136529
  0
LINE
  5
866
100
AcDbEntity
  8
0
100
AcDbLine
 62
7
  6
CONTINUOUS
 10
-4.4024550649
 20
4.5798865899
 11
-4.5684304982
 21
4.4139111566
  0
LINE
  5
867
100
AcDbEntity
  8
RACCORDO
100
AcDbLine
 62
7
  6
CONTINUOUS
 10
-3.835
 20
5.135
 11
-2.0706972195
 21
6.8993027805
  0
LINE
  5
868
100
AcDbEntity
  8
0
100
AcDbLine
 62
7
  6
CONTINUOUS
 10
-5.3791821702
 20
3.5908178298
 11
-1.4937268678
 21
7.4762731322
  0
LINE
  5
869
100
AcDbEntity
  8
0
100
AcDbLine
 62
7
  6
CONTINUOUS
 10
-4.5684304982
 20
4.9932917358
 11
-4.4024550649
 21
5.0762731322
  0
LINE
  5
86A
100
AcDbEntity
  8
0
100
AcDbLine
 62
7
  6
CONTINUOUS
 10
-4.5684304982
 20
4.5312645729
 11
-4.4024550649
 21
4.5798865899
  0
LWPOLYLINE
  5
86B
100
AcDbEntity
  8
0
100
AcDbPolyline
 62
7
  6
CONTINUOUS
 90
6
 70
0
 10
-22.5705823661
 20
50.4824554741
 10
-22.5823162875
 20
50.4804823677
 10
-22.5939430388
 20
50.4779531817
 10
-22.605436279
 20
50.4748736417
 10
-22.6167699738
 20
50.4712507213
 10
-22.6279184493
 20
50.4670926258
  0
LWPOLYLINE
  5
86C
100
AcDbEntity
  8
0
100
AcDbPolyline
 62
7
  6
CONTINUOUS
 90
34
 70
0
 10
-5.1306323968
 20
50.480628166
 10
-5.1425274183
 20
50.4803446152
 10
-5.154395495
 20
50.4794954103
 10
-5.1662097429
 20
50.4780824749
 10
-5.1779434001
 20
50.4761090096
 10
-5.1895698874
 20
50.4735794848
 10
-5.201062868
 20
50.4704996304
 10
-5.2123963078
 20
50.466876423
 10
-5.223544534
 20
50.46271807
 10
-5.2344822935
 20
50.4580339909
 10
-5.2451848096
 20
50.4528347962
 10
-5.2556278389
 20
50.4471322634
 10
-5.2657877255
 20
50.4409393098
 10
-5.275641455
 20
50.434269964
 10
-5.2851667064
 20
50.4271393334
 10
-5.2943419031
 20
50.4195635707
 10
-5.3031462611
 20
50.4115598365
 10
-5.3115598365
 20
50.4031462611
 10
-5.3195635707
 20
50.3943419031
 10
-5.3271393334
 20
50.3851667064
 10
-5.334269964
 20
50.375641455
 10
-5.3409393098
 20
50.3657877255
 10
-5.3471322634
 20
50.3556278389
 10
-5.3528347962
 20
50.3451848096
 10
-5.3580339909
 20
50.3344822935
 10
-5.36271807
 20
50.323544534
 10
-5.366876423
 20
50.3123963078
 10
-5.3704996304
 20
50.301062868
 10
-5.3735794848
 20
50.2895698874
 10
-5.3761090096
 20
50.2779434001
 10
-5.3780824749
 20
50.2662097429
 10
-5.3794954103
 20
50.254395495
 10
-5.3803446152
 20
50.2425274183
 10
-5.380628166
 20
50.2306323968
  0
LWPOLYLINE
  5
86D
100
AcDbEntity
  8
0
100
AcDbPolyline
 62
7
  6
CONTINUOUS
 90
4
 70
0
 10
-5.1350042308
 20
50.485
 10
-5.146899516
 20
50.4847168498
 10
-5.1587678556
 20
50.4838680342
 10
-5.1705823661
 20
50.4824554741
  0
LWPOLYLINE
  5
86E
100
AcDbEntity
  8
0
100
AcDbPolyline
 62
7
  6
CONTINUOUS
 90
34
 70
0
 10
-22.5306323968
 20
50.480628166
 10
-22.5425078683
 20
50.4803455463
 10
-22.5543616109
 20
50.4794986445
 10
-22.5661667864
 20
50.4780886486
 10
-22.577898281
 20
50.4761177026
 10
-22.5895277163
 20
50.4735897127
 10
-22.6010236819
 20
50.4705111341
 10
-22.612358447
 20
50.4668895243
 10
-22.623508059
 20
50.4627326699
 10
-22.6344474601
 20
50.4580498963
 10
-22.6451519949
 20
50.452851711
 10
-22.6555972484
 20
50.4471499225
 10
-22.665759324
 20
50.4409575601
 10
-22.6756151087
 20
50.4342887229
 10
-22.6851423702
 20
50.4271584695
 10
-22.6943195834
 20
50.4195829086
 10
-22.703125975
 20
50.4115791771
 10
-22.7115415612
 20
50.4031654255
 10
-22.7195472554
 20
50.3943607299
 10
-22.7271249119
 20
50.3851850429
 10
-22.7342573629
 20
50.3756591487
 10
-22.740928443
 20
50.3658046326
 10
-22.7471230353
 20
50.3556438204
 10
-22.7528271006
 20
50.3451997352
 10
-22.7580277082
 20
50.3344960488
 10
-22.7627130725
 20
50.3235570152
 10
-22.7668725768
 20
50.3124074189
 10
-22.770496794
 20
50.3010725264
 10
-22.7735775126
 20
50.2895780153
 10
-22.7761077496
 20
50.277949936
 10
-22.7780817682
 20
50.2662146563
 10
-22.779495097
 20
50.254398774
 10
-22.7803445371
 20
50.2425290557
 10
-22.780628166
 20
50.2306323968
  0
LWPOLYLINE
  5
86F
100
AcDbEntity
  8
0
100
AcDbPolyline
 62
7
  6
CONTINUOUS
 90
4
 70
0
 10
-22.5350042308
 20
50.485
 10
-22.546899516
 20
50.4847168498
 10
-22.5587678556
 20
50.4838680342
 10
-22.5705823661
 20
50.4824554741
  0
LINE
  5
870
100
AcDbEntity
  8
0
100
AcDbLine
 62
253
  6
CONTINUOUS
 10
-2.489371834
 20
50.2306323968
 11
-5.380628166
 21
50.2306323968
  0
LINE
  5
871
100
AcDbEntity
  8
0
100
AcDbLine
 62
253
  6
CONTINUOUS
 10
-19.889371834
 20
50.2306323968
 11
-22.780628166
 21
50.2306323968
  0
LINE
  5
872
100
AcDbEntity
  8
0
100
AcDbLine
 62
7
  6
CONTINUOUS
 10
-2.7393676032
 20
50.480628166
 11
-5.1306323968
 21
50.480628166
  0
LINE
  5
873
100
AcDbEntity
  8
0
100
AcDbLine
 62
7
  6
CONTINUOUS
 10
-20.1393676032
 20
50.480628166
 11
-22.5306323968
 21
50.480628166
  0
LWPOLYLINE
  5
874
100
AcDbEntity
  8
0
100
AcDbPolyline
 62
7
  6
CONTINUOUS
 90
37
 70
0
 10
-13.8349974616
 20
49.985
 10
-13.8262738079
 20
49.9848096663
 10
-13.8175667532
 20
49.9842390211
 10
-13.8088928689
 20
49.9832891478
 10
-13.8002686621
 20
49.9819618522
 10
-13.7917105486
 20
49.9802596573
 10
-13.7832348219
 20
49.9781857986
 10
-13.7748576138
 20
49.9757442207
 10
-13.7665948698
 20
49.9729395683
 10
-13.7584623227
 20
49.9697771768
 10
-13.750475452
 20
49.966263063
 10
-13.7426494607
 20
49.9624039139
 10
-13.7349992512
 20
49.9582070734
 10
-13.7275393856
 20
49.9536805281
 10
-13.720284064
 20
49.9488328927
 10
-13.713247103
 20
49.9436733946
 10
-13.7064418978
 20
49.9382118535
 10
-13.6998814023
 20
49.9324586645
 10
-13.6935781102
 20
49.9264247806
 10
-13.6875440201
 20
49.9201216866
 10
-13.6817906181
 20
49.9135613799
 10
-13.6763288602
 20
49.9067563514
 10
-13.6711691431
 20
49.8997195545
 10
-13.6663212881
 20
49.8924643834
 10
-13.6617945259
 20
49.8850046527
 10
-13.6575974731
 20
49.8773545622
 10
-13.653738118
 20
49.8695286738
 10
-13.6502238078
 20
49.8615418886
 10
-13.6470612314
 20
49.8534094098
 10
-13.6442564078
 20
49.8451467172
 10
-13.6418146748
 20
49.8367695428
 10
-13.6397406795
 20
49.8282938328
 10
-13.6380383682
 20
49.8197357198
 10
-13.6367109789
 20
49.8111114971
 10
-13.6357610365
 20
49.8024375811
 10
-13.6351903485
 20
49.7937304808
 10
-13.635
 20
49.7850067692
  0
LINE
  5
875
100
AcDbEntity
  8
0
100
AcDbLine
 62
7
  6
CONTINUOUS
 10
-4.5684304982
 20
47.4387354271
 11
-4.4024550649
 21
47.3901134101
  0
LINE
  5
876
100
AcDbEntity
  8
0
100
AcDbLine
 62
7
  6
CONTINUOUS
 10
-4.5684304982
 20
46.9767082642
 11
-4.4024550649
 21
46.8937268678
  0
LINE
  5
877
100
AcDbEntity
  8
DRAFT
100
AcDbLine
 62
7
  6
CONTINUOUS
 10
-4.9663708499
 20
46.835
 11
-5.0163708499
 21
46.885
  0
LINE
  5
878
100
AcDbEntity
  8
DRAFT
100
AcDbLine
 62
7
  6
CONTINUOUS
 10
-4.9416875403
 20
46.835
 11
-4.9916875403
 21
46.885
  0
LINE
  5
879
100
AcDbEntity
  8
0
100
AcDbLine
 62
7
  6
CONTINUOUS
 10
-2.192882674
 20
45.0200863471
 11
-4.0077963269
 21
46.835
  0
LINE
  5
87A
100
AcDbEntity
  8
RACCORDO
100
AcDbLine
 62
7
  6
CONTINUOUS
 10
-2.192882674
 20
45.0200863471
 11
-4.0077963269
 21
46.835
  0
LINE
  5
87B
100
AcDbEntity
  8
0
100
AcDbLine
 62
7
  6
CONTINUOUS
 10
-4.4024550649
 20
47.3901134101
 11
-4.5684304982
 21
47.5560888434
  0
LINE
  5
87C
100
AcDbEntity
  8
RACCORDO
100
AcDbLine
 62
7
  6
CONTINUOUS
 10
-2.0706972195
 20
45.0706972195
 11
-3.835
 21
46.835
  0
LINE
  5
87D
100
AcDbEntity
  8
0
100
AcDbLine
 62
7
  6
CONTINUOUS
 10
-1.4937268678
 20
44.4937268678
 11
-5.3791821702
 21
48.3791821702
  0
LWPOLYLINE
  5
87E
100
AcDbEntity
  8
0
100
AcDbPolyline
 62
7
  6
CONTINUOUS
 90
18
 70
0
 10
-2.5029073742
 20
50.3279184493
 10
-2.5075912278
 20
50.3388564463
 10
-2.5127902312
 20
50.3495591876
 10
-2.5184926084
 20
50.3600024283
 10
-2.5246854419
 20
50.3701625059
 10
-2.5313547045
 20
50.3800164051
 10
-2.5384852893
 20
50.3895418038
 10
-2.5460610411
 20
50.3987171191
 10
-2.5540647995
 20
50.4075215661
 10
-2.5624784339
 20
50.4159352005
 10
-2.5712828809
 20
50.4239389589
 10
-2.5804581962
 20
50.4315147107
 10
-2.5899835949
 20
50.4386452955
 10
-2.5998374941
 20
50.4453145581
 10
-2.6099975717
 20
50.4515073916
 10
-2.6204408124
 20
50.4572097688
 10
-2.6311435537
 20
50.4624087722
 10
-2.6420815507
 20
50.4670926258
  0
LWPOLYLINE
  5
87F
100
AcDbEntity
  8
0
100
AcDbPolyline
 62
7
  6
CONTINUOUS
 90
18
 70
0
 10
-2.6420815507
 20
1.5029073742
 10
-2.6311435537
 20
1.5075912278
 10
-2.6204408124
 20
1.5127902312
 10
-2.6099975717
 20
1.5184926084
 10
-2.5998374941
 20
1.5246854419
 10
-2.5899835949
 20
1.5313547045
 10
-2.5804581962
 20
1.5384852893
 10
-2.5712828809
 20
1.5460610411
 10
-2.5624784339
 20
1.5540647995
 10
-2.5540647995
 20
1.5624784339
 10
-2.5460610411
 20
1.5712828809
 10
-2.5384852893
 20
1.5804581962
 10
-2.5313547045
 20
1.5899835949
 10
-2.5246854419
 20
1.5998374941
 10
-2.5184926084
 20
1.6099975717
 10
-2.5127902312
 20
1.6204408124
 10
-2.5075912278
 20
1.6311435537
 10
-2.5029073742
 20
1.6420815507
  0
LWPOLYLINE
  5
880
100
AcDbEntity
  8
0
100
AcDbPolyline
 62
7
  6
CONTINUOUS
 90
9
 70
0
 10
-2.6420815507
 20
50.4670926258
 10
-2.6532300262
 20
50.4712507213
 10
-2.664563721
 20
50.4748736417
 10
-2.6760569612
 20
50.4779531817
 10
-2.6876837125
 20
50.4804823677
 10
-2.6994176339
 20
50.4824554741
 10
-2.7112321444
 20
50.4838680342
 10
-2.723100484
 20
50.4847168498
 10
-2.7349957692
 20
50.485
  0
ARC
  5
881
100
AcDbEntity
  8
ASSI
100
AcDbCircle
 62
7
  6
CONTINUOUS
 10
-22.1409083707
 20
7.095
 40
0.71
100
AcDbArc
 50
229.7020215745
 51
265.2988538673
  0
ARC
  5
882
100
AcDbEntity
  8
ASSI
100
AcDbCircle
 62
7
  6
CONTINUOUS
 10
-22.925
 20
7.8790916293
 40
0.71
100
AcDbArc
 50
184.7020215745
 51
220.2988538673
  0
ARC
  5
883
100
AcDbEntity
  8
0
100
AcDbCircle
 62
7
  6
CONTINUOUS
 10
-16.635
 20
2.835
 40
0.5
100
AcDbArc
 50
144.3637748935
 51
215.6362251065
  0
ARC
  5
884
100
AcDbEntity
  8
0
100
AcDbCircle
 62
7
  6
CONTINUOUS
 10
-14.335
 20
8.435
 40
0.3
100
AcDbArc
 50
90.0
 51
170.0
  0
ARC
  5
885
100
AcDbEntity
  8
RACCORDO
100
AcDbCircle
 62
7
  6
CONTINUOUS
 10
-14.335
 20
8.435
 40
0.3
100
AcDbArc
 50
90.0
 51
170.0
  0
ARC
  5
886
100
AcDbEntity
  8
ASSI
100
AcDbCircle
 62
7
  6
CONTINUOUS
 10
-22.1409083707
 20
44.875
 40
0.71
100
AcDbArc
 50
109.9961491498
 51
114.2412807351
  0
ARC
  5
887
100
AcDbEntity
  8
ASSI
100
AcDbCircle
 62
7
  6
CONTINUOUS
 10
-22.925
 20
44.0909083707
 40
0.71
100
AcDbArc
 50
139.7010712477
 51
175.2998279782
  0
ARC
  5
888
100
AcDbEntity
  8
0
100
AcDbCircle
 62
7
  6
CONTINUOUS
 10
-16.635
 20
49.135
 40
0.5
100
AcDbArc
 50
144.3637748935
 51
215.6362251065
  0
ARC
  5
889
100
AcDbEntity
  8
0
100
AcDbCircle
 62
7
  6
CONTINUOUS
 10
-14.335
 20
43.535
 40
0.3
100
AcDbArc
 50
189.8838085533
 51
270.0
  0
ARC
  5
88A
100
AcDbEntity
  8
RACCORDO
100
AcDbCircle
 62
7
  6
CONTINUOUS
 10
-14.335
 20
43.535
 40
0.3
100
AcDbArc
 50
189.8838085533
 51
270.0
  0
ARC
  5
88B
100
AcDbEntity
  8
ASSI
100
AcDbCircle
 62
7
  6
CONTINUOUS
 10
-2.345
 20
9.2790916293
 40
0.71
100
AcDbArc
 50
319.7020215745
 51
355.2988538673
  0
ARC
  5
88C
100
AcDbEntity
  8
ASSI
100
AcDbCircle
 62
7
  6
CONTINUOUS
 10
-3.1290916293
 20
8.495
 40
0.71
100
AcDbArc
 50
274.7020215745
 51
310.2988538673
  0
ARC
  5
88D
100
AcDbEntity
  8
0
100
AcDbCircle
 62
7
  6
CONTINUOUS
 10
-8.635
 20
2.835
 40
0.5
100
AcDbArc
 50
324.3637748935
 51
35.6362251065
  0
ARC
  5
88E
100
AcDbEntity
  8
0
100
AcDbCircle
 62
7
  6
CONTINUOUS
 10
-10.935
 20
8.435
 40
0.3
100
AcDbArc
 50
10.0
 51
90.0
  0
ARC
  5
88F
100
AcDbEntity
  8
RACCORDO
100
AcDbCircle
 62
7
  6
CONTINUOUS
 10
-10.935
 20
8.435
 40
0.3
100
AcDbArc
 50
10.0
 51
90.0
  0
ARC
  5
890
100
AcDbEntity
  8
0
100
AcDbCircle
 62
7
  6
CONTINUOUS
 10
-3.435
 20
43.185
 40
1.4
100
AcDbArc
 50
9.8532892494
 51
90.0
  0
ARC
  5
891
100
AcDbEntity
  8
ASSI
100
AcDbCircle
 62
7
  6
CONTINUOUS
 10
-3.1290916293
 20
43.475
 40
0.71
100
AcDbArc
 50
49.7010712477
 51
85.2998279782
  0
ARC
  5
892
100
AcDbEntity
  8
ASSI
100
AcDbCircle
 62
7
  6
CONTINUOUS
 10
-2.345
 20
42.6909083707
 40
0.71
100
AcDbArc
 50
4.7001961556
 51
40.2989529286
  0
ARC
  5
893
100
AcDbEntity
  8
0
100
AcDbCircle
 62
7
  6
CONTINUOUS
 10
-8.635
 20
49.135
 40
0.5
100
AcDbArc
 50
324.3637748935
 51
35.6362251065
  0
ARC
  5
894
100
AcDbEntity
  8
0
100
AcDbCircle
 62
7
  6
CONTINUOUS
 10
-10.935
 20
43.535
 40
0.3
100
AcDbArc
 50
270.0
 51
350.0
  0
ARC
  5
895
100
AcDbEntity
  8
RACCORDO
100
AcDbCircle
 62
7
  6
CONTINUOUS
 10
-10.935
 20
43.535
 40
0.3
100
AcDbArc
 50
270.0
 51
350.0
  0
ELLIPSE
  5
896
100
AcDbEntity
  8
0
100
AcDbEllipse
 62
7
  6
CONTINUOUS
 10
-10.8421067812
 20
7.7493745696
 30
0.0
 11
0.5
 21
-0.0
 31
0.0
 40
0.0087268678
 41
0.7853981634
 42
1.1643384736
  0
ELLIPSE
  5
897
100
AcDbEntity
  8
0
100
AcDbEllipse
 62
7
  6
CONTINUOUS
 10
-14.4278932188
 20
7.7493745696
 30
0.0
 11
0.5
 21
0.0
 31
0.0
 40
0.0087268678
 41
1.97725418
 42
2.3561944902
  0
ELLIPSE
  5
898
100
AcDbEntity
  8
0
100
AcDbEllipse
 62
7
  6
CONTINUOUS
 10
-21.7846953439
 20
43.6564466826
 30
0.0
 11
1.8480888181
 21
-0.7655034529
 31
0.0
 40
0.9998215708
 41
2.7489566578
 42
3.5342286494
  0
ELLIPSE
  5
899
100
AcDbEntity
  8
0
100
AcDbEllipse
 62
7
  6
CONTINUOUS
 10
-21.7846953439
 20
8.3135533174
 30
0.0
 11
1.8480888181
 21
0.7655034529
 31
0.0
 40
0.9998215708
 41
2.7489566578
 42
3.5342286494
  0
ELLIPSE
  5
89A
100
AcDbEntity
  8
0
100
AcDbEllipse
 62
7
  6
CONTINUOUS
 10
-3.4853046561
 20
8.3135533174
 30
0.0
 11
1.8480888181
 21
-0.7655034529
 31
0.0
 40
0.9998215708
 41
-0.3926359958
 42
0.3926359958
  0
ELLIPSE
  5
89B
100
AcDbEntity
  8
0
100
AcDbEllipse
 62
7
  6
CONTINUOUS
 10
-3.4853046561
 20
43.6564466826
 30
0.0
 11
1.8480888181
 21
0.7655034529
 31
0.0
 40
0.9998215708
 41
-0.3926359958
 42
0.3926359958
  0
ELLIPSE
  5
89C
100
AcDbEntity
  8
0
100
AcDbEllipse
 62
7
  6
CONTINUOUS
 10
-3.3688495716
 20
8.2188495716
 30
0.0
 11
0.3535803156
 21
-0.3535803156
 31
0.0
 40
0.9999238505
 41
-0.7853600872
 42
-0.2962124934
  0
ELLIPSE
  5
89D
100
AcDbEntity
  8
0
100
AcDbEllipse
 62
7
  6
CONTINUOUS
 10
-21.6625098894
 20
43.6058358102
 30
0.0
 11
1.8480888181
 21
-0.7655034529
 31
0.0
 40
0.9998215708
 41
9.032141965
 42
9.2322752141
  0
ELLIPSE
  5
89E
100
AcDbEntity
  8
0
100
AcDbEllipse
 62
7
  6
CONTINUOUS
 10
-21.6625098894
 20
43.6058358102
 30
0.0
 11
1.8480888181
 21
-0.7655034529
 31
0.0
 40
0.9998215708
 41
3.4204543746
 42
3.5342286494
  0
ELLIPSE
  5
89F
100
AcDbEntity
  8
0
100
AcDbEllipse
 62
7
  6
CONTINUOUS
 10
-21.6625098894
 20
8.3641641898
 30
0.0
 11
-1.8480888181
 21
-0.7655034529
 31
0.0
 40
0.9998215708
 41
-0.3926359958
 42
-0.278861721
  0
ELLIPSE
  5
8A0
100
AcDbEntity
  8
0
100
AcDbEllipse
 62
7
  6
CONTINUOUS
 10
-21.6625098894
 20
8.3641641898
 30
0.0
 11
-1.8480888181
 21
-0.7655034529
 31
0.0
 40
0.9998215708
 41
6.4756880539
 42
6.675821303
  0
ELLIPSE
  5
8A1
100
AcDbEntity
  8
0
100
AcDbEllipse
 62
7
  6
CONTINUOUS
 10
-3.6074901106
 20
8.3641641898
 30
0.0
 11
-1.8480888181
 21
0.7655034529
 31
0.0
 40
0.9998215708
 41
2.7489566578
 42
3.5342286494
  0
ELLIPSE
  5
8A2
100
AcDbEntity
  8
0
100
AcDbEllipse
 62
7
  6
CONTINUOUS
 10
-3.6074901106
 20
43.6058358102
 30
0.0
 11
1.8480888181
 21
0.7655034529
 31
0.0
 40
0.9998215708
 41
-0.3926359958
 42
0.3926359958
  0
ELLIPSE
  5
8A3
100
AcDbEntity
  8
RACCORDO
100
AcDbEllipse
 62
7
  6
CONTINUOUS
 10
-3.3688495716
 20
8.2188495716
 30
0.0
 11
0.3535803156
 21
-0.3535803156
 31
0.0
 40
0.9999238505
 41
-0.7853600872
 42
-0.2962124934
  0
ELLIPSE
  5
8A4
100
AcDbEntity
  8
RACCORDO
100
AcDbEllipse
 62
7
  6
CONTINUOUS
 10
-10.8421067812
 20
7.7493745696
 30
0.0
 11
0.5
 21
-0.0
 31
0.0
 40
0.0087268678
 41
0.7853981634
 42
1.1643384736
  0
ELLIPSE
  5
8A5
100
AcDbEntity
  8
RACCORDO
100
AcDbEllipse
 62
7
  6
CONTINUOUS
 10
-14.4278932188
 20
7.7493745696
 30
0.0
 11
0.5
 21
0.0
 31
0.0
 40
0.0087268678
 41
1.97725418
 42
2.3561944902
  0
ELLIPSE
  5
8A6
100
AcDbEntity
  8
RACCORDO
100
AcDbEllipse
 62
7
  6
CONTINUOUS
 10
-3.4853046561
 20
43.6564466826
 30
0.0
 11
1.8480888181
 21
0.7655034529
 31
0.0
 40
0.9998215708
 41
-0.3926359958
 42
0.3926359958
  0
ELLIPSE
  5
8A7
100
AcDbEntity
  8
RACCORDO
100
AcDbEllipse
 62
7
  6
CONTINUOUS
 10
-3.4853046561
 20
8.3135533174
 30
0.0
 11
1.8480888181
 21
-0.7655034529
 31
0.0
 40
0.9998215708
 41
-0.3926359958
 42
0.3926359958
  0
ELLIPSE
  5
8A8
100
AcDbEntity
  8
RACCORDO
100
AcDbEllipse
 62
7
  6
CONTINUOUS
 10
-21.7846953439
 20
8.3135533174
 30
0.0
 11
1.8480888181
 21
0.7655034529
 31
0.0
 40
0.9998215708
 41
2.7489566578
 42
3.5342286494
  0
ELLIPSE
  5
8A9
100
AcDbEntity
  8
RACCORDO
100
AcDbEllipse
 62
7
  6
CONTINUOUS
 10
-21.7846953439
 20
43.6564466826
 30
0.0
 11
1.8480888181
 21
-0.7655034529
 31
0.0
 40
0.9998215708
 41
2.7489566578
 42
3.5342286494
  0
ELLIPSE
  5
8AA
100
AcDbEntity
  8
0
100
AcDbEllipse
 62
7
  6
CONTINUOUS
 10
-14.634923836
 20
-115.890642436
 30
0.0
 11
-0.4997620717
 21
162.4815824859
 31
0.0
 40
0.000109066
 41
6.3643762205
 42
6.3764914216
  0
ELLIPSE
  5
8AB
100
AcDbEntity
  8
0
100
AcDbEllipse
 62
7
  6
CONTINUOUS
 10
-14.634923836
 20
167.860642436
 30
0.0
 11
0.4997620717
 21
162.4815824859
 31
0.0
 40
0.000109066
 41
-3.234898768
 42
-3.2227835669
  0
ELLIPSE
  5
8AC
100
AcDbEntity
  8
0
100
AcDbEllipse
 62
7
  6
CONTINUOUS
 10
-10.635076164
 20
-115.890642436
 30
0.0
 11
0.4997620717
 21
162.4815824859
 31
0.0
 40
0.000109066
 41
-0.0933061144
 42
-0.0811909133
  0
ELLIPSE
  5
8AD
100
AcDbEntity
  8
0
100
AcDbEllipse
 62
7
  6
CONTINUOUS
 10
-10.635076164
 20
167.860642436
 30
0.0
 11
-0.4997620717
 21
162.4815824859
 31
0.0
 40
0.000109066
 41
3.2227835669
 42
3.234898768
  0
ELLIPSE
  5
8AE
100
AcDbEntity
  8
RACCORDO
100
AcDbEllipse
 62
7
  6
CONTINUOUS
 10
-3.6074901106
 20
43.6058358102
 30
0.0
 11
1.8480888181
 21
0.7655034529
 31
0.0
 40
0.9998215708
 41
-0.3926359958
 42
0.3926359958
  0
ELLIPSE
  5
8AF
100
AcDbEntity
  8
RACCORDO
100
AcDbEllipse
 62
7
  6
CONTINUOUS
 10
-3.6074901106
 20
8.3641641898
 30
0.0
 11
-1.8480888181
 21
0.7655034529
 31
0.0
 40
0.9998215708
 41
2.7489566578
 42
3.5342286494
  0
ELLIPSE
  5
8B0
100
AcDbEntity
  8
RACCORDO
100
AcDbEllipse
 62
7
  6
CONTINUOUS
 10
-21.6625098894
 20
8.3641641898
 30
0.0
 11
-1.8480888181
 21
-0.7655034529
 31
0.0
 40
0.9998215708
 41
-0.3926359958
 42
-0.278861721
  0
ELLIPSE
  5
8B1
100
AcDbEntity
  8
RACCORDO
100
AcDbEllipse
 62
7
  6
CONTINUOUS
 10
-21.6625098894
 20
8.3641641898
 30
0.0
 11
-1.8480888181
 21
-0.7655034529
 31
0.0
 40
0.9998215708
 41
6.4756880539
 42
6.675821303
  0
ELLIPSE
  5
8B2
100
AcDbEntity
  8
RACCORDO
100
AcDbEllipse
 62
7
  6
CONTINUOUS
 10
-21.6625098894
 20
43.6058358102
 30
0.0
 11
1.8480888181
 21
-0.7655034529
 31
0.0
 40
0.9998215708
 41
9.032141965
 42
9.2322752141
  0
ELLIPSE
  5
8B3
100
AcDbEntity
  8
RACCORDO
100
AcDbEllipse
 62
7
  6
CONTINUOUS
 10
-21.6625098894
 20
43.6058358102
 30
0.0
 11
1.8480888181
 21
-0.7655034529
 31
0.0
 40
0.9998215708
 41
3.4204543746
 42
3.5342286494
  0
ELLIPSE
  5
8B4
100
AcDbEntity
  8
0
100
AcDbEllipse
 62
7
  6
CONTINUOUS
 10
-15.135
 20
48.3436937098
 30
0.0
 11
1.0205840068
 21
0.0
 31
0.0
 40
0.0058178298
 41
-3.1415418822
 42
-2.0892111528
  0
ELLIPSE
  5
8B5
100
AcDbEntity
  8
0
100
AcDbEllipse
 62
7
  6
CONTINUOUS
 10
-10.135
 20
48.3436937098
 30
0.0
 11
1.0205840068
 21
0.0
 31
0.0
 40
0.0058178298
 41
5.2308038064
 42
6.2831345357
  0
ELLIPSE
  5
8B6
100
AcDbEntity
  8
0
100
AcDbEllipse
 62
7
  6
CONTINUOUS
 10
-10.135
 20
3.6263062902
 30
0.0
 11
1.0205840068
 21
-0.0
 31
0.0
 40
0.0058178298
 41
0.0000507714
 42
1.0523815008
  0
ELLIPSE
  5
8B7
100
AcDbEntity
  8
DRAFT
100
AcDbEllipse
 62
7
  6
CONTINUOUS
 10
-15.135
 20
46.0469614263
 30
0.0
 11
1.0005407263
 21
-0.0
 31
0.0
 40
0.0087268678
 41
1.5707963268
 42
3.1416688118
  0
ELLIPSE
  5
8B8
100
AcDbEntity
  8
DRAFT
100
AcDbEllipse
 62
7
  6
CONTINUOUS
 10
-15.135
 20
5.9230385737
 30
0.0
 11
1.0005407263
 21
0.0
 31
0.0
 40
0.0087268678
 41
3.1415164954
 42
4.7123889804
  0
ELLIPSE
  5
8B9
100
AcDbEntity
  8
0
100
AcDbEllipse
 62
7
  6
CONTINUOUS
 10
-15.135
 20
3.6263062902
 30
0.0
 11
1.0205840068
 21
0.0
 31
0.0
 40
0.0058178298
 41
2.0892111528
 42
3.1415418822
  0
ELLIPSE
  5
8BA
100
AcDbEntity
  8
DRAFT
100
AcDbEllipse
 62
7
  6
CONTINUOUS
 10
-10.135
 20
5.9230385737
 30
0.0
 11
1.0005407263
 21
0.0
 31
0.0
 40
0.0087268678
 41
-1.5707963268
 42
0.0000761582
  0
ELLIPSE
  5
8BB
100
AcDbEntity
  8
DRAFT
100
AcDbEllipse
 62
7
  6
CONTINUOUS
 10
-12.635
 20
5.7851646958
 30
0.0
 11
14.9982560202
 21
-0.0
 31
0.0
 40
0.0087268678
 41
1.4072992552
 42
1.7342933984
  0
ELLIPSE
  5
8BC
100
AcDbEntity
  8
DRAFT
100
AcDbEllipse
 62
7
  6
CONTINUOUS
 10
-12.635
 20
46.1848353042
 30
0.0
 11
14.9982560202
 21
-0.0
 31
0.0
 40
0.0087268678
 41
-1.7342933984
 42
-1.4072992552
  0
ELLIPSE
  5
8BD
100
AcDbEntity
  8
DRAFT
100
AcDbEllipse
 62
7
  6
CONTINUOUS
 10
-10.135
 20
46.0469614263
 30
0.0
 11
1.0005407263
 21
0.0
 31
0.0
 40
0.0087268678
 41
-0.0000761582
 42
1.5707963268
  0
ELLIPSE
  5
8BE
100
AcDbEntity
  8
0
100
AcDbEllipse
 62
7
  6
CONTINUOUS
 10
-16.5880427099
 20
48.3410930869
 30
0.0
 11
0.4530427099
 21
0.0
 31
0.0
 40
0.0058178298
 41
-3.1357748894
 42
-0.3023808704
  0
ELLIPSE
  5
8BF
100
AcDbEntity
  8
0
100
AcDbEllipse
 62
7
  6
CONTINUOUS
 10
-8.6819572901
 20
48.3410930869
 30
0.0
 11
0.4530427099
 21
-0.0
 31
0.0
 40
0.0058178298
 41
-2.8392117832
 42
-0.0058177642
  0
ELLIPSE
  5
8C0
100
AcDbEntity
  8
0
100
AcDbEllipse
 62
7
  6
CONTINUOUS
 10
-8.6819572901
 20
3.6289069131
 30
0.0
 11
0.4530427099
 21
0.0
 31
0.0
 40
0.0058178298
 41
0.0058177642
 42
2.8392117832
  0
ELLIPSE
  5
8C1
100
AcDbEntity
  8
0
100
AcDbEllipse
 62
7
  6
CONTINUOUS
 10
-16.5880427099
 20
3.6289069131
 30
0.0
 11
0.4530427099
 21
-0.0
 31
0.0
 40
0.0058178298
 41
0.3023808704
 42
3.1357748894
  0
ELLIPSE
  5
8C2
100
AcDbEntity
  8
0
100
AcDbEllipse
 62
7
  6
CONTINUOUS
 10
-4.4444034965
 20
4.6490130513
 30
0.0
 11
1.0000571192
 21
0.9999809595
 31
0.0
 40
0.0061705924
 41
1.9467387334
 42
3.1419458735
  0
ELLIPSE
  5
8C3
100
AcDbEntity
  8
0
100
AcDbEllipse
 62
7
  6
CONTINUOUS
 10
-20.8255965035
 20
4.6490130513
 30
0.0
 11
1.0000571192
 21
-0.9999809595
 31
0.0
 40
0.0061705924
 41
-0.0003532199
 42
1.1948539202
  0
ELLIPSE
  5
8C4
100
AcDbEntity
  8
0
100
AcDbEllipse
 62
7
  6
CONTINUOUS
 10
-20.8255965035
 20
47.3209869487
 30
0.0
 11
1.0000571192
 21
0.9999809595
 31
0.0
 40
0.0061705924
 41
-1.1948539202
 42
0.0003532199
  0
ELLIPSE
  5
8C5
100
AcDbEntity
  8
0
100
AcDbEllipse
 62
7
  6
CONTINUOUS
 10
-4.4444034965
 20
47.3209869487
 30
0.0
 11
1.0000571192
 21
-0.9999809595
 31
0.0
 40
0.0061705924
 41
3.1412394337
 42
4.3364465738
  0
ELLIPSE
  5
8C6
100
AcDbEntity
  8
0
100
AcDbEllipse
 62
7
  6
CONTINUOUS
 10
-22.5349957691
 20
2.5736751346
 30
0.0
 11
-0.0029088041
 21
0.2886641433
 31
0.0
 40
0.8660144118
 41
-0.0087264124
 42
1.5591610446
  0
ELLIPSE
  5
8C7
100
AcDbEntity
  8
0
100
AcDbEllipse
 62
7
  6
CONTINUOUS
 10
-20.1350042309
 20
2.5736751346
 30
0.0
 11
0.0029088041
 21
0.2886641433
 31
0.0
 40
0.8660144118
 41
-1.5591610446
 42
0.0087264124
  0
ELLIPSE
  5
8C8
100
AcDbEntity
  8
0
100
AcDbEllipse
 62
7
  6
CONTINUOUS
 10
-5.1349957691
 20
2.5736751346
 30
0.0
 11
-0.0029088041
 21
0.2886641433
 31
0.0
 40
0.8660144118
 41
-0.0087264124
 42
1.5591610446
  0
ELLIPSE
  5
8C9
100
AcDbEntity
  8
0
100
AcDbEllipse
 62
7
  6
CONTINUOUS
 10
-2.7350042309
 20
2.5736751346
 30
0.0
 11
0.0029088041
 21
0.2886641433
 31
0.0
 40
0.8660144118
 41
-1.5591610446
 42
0.0087264124
  0
ELLIPSE
  5
8CA
100
AcDbEntity
  8
0
100
AcDbEllipse
 62
7
  6
CONTINUOUS
 10
-22.5349957691
 20
49.3963248654
 30
0.0
 11
0.0029088041
 21
0.2886641433
 31
0.0
 40
0.8660144118
 41
-4.7007536982
 42
-3.1328662412
  0
ELLIPSE
  5
8CB
100
AcDbEntity
  8
0
100
AcDbEllipse
 62
7
  6
CONTINUOUS
 10
-20.1350042309
 20
49.3963248654
 30
0.0
 11
-0.0029088041
 21
0.2886641433
 31
0.0
 40
0.8660144118
 41
-3.150319066
 42
-1.582431609
  0
ELLIPSE
  5
8CC
100
AcDbEntity
  8
0
100
AcDbEllipse
 62
7
  6
CONTINUOUS
 10
-2.7350042309
 20
49.3963248654
 30
0.0
 11
-0.0029088041
 21
0.2886641433
 31
0.0
 40
0.8660144118
 41
-3.150319066
 42
-1.582431609
  0
ELLIPSE
  5
8CD
100
AcDbEntity
  8
0
100
AcDbEllipse
 62
7
  6
CONTINUOUS
 10
-5.1349957691
 20
49.3963248654
 30
0.0
 11
0.0029088041
 21
0.2886641433
 31
0.0
 40
0.8660144118
 41
-4.7007536982
 42
-3.1328662412
  0
ELLIPSE
  5
8CE
100
AcDbEntity
  8
0
100
AcDbEllipse
 62
7
  6
CONTINUOUS
 10
-23.276254093
 20
4.0908262915
 30
0.0
 11
0.4160498344
 21
0.2773626446
 31
0.0
 40
0.9999450019
 41
2.5536219432
 42
4.1243675013
  0
ELLIPSE
  5
8CF
100
AcDbEntity
  8
0
100
AcDbEllipse
 62
7
  6
CONTINUOUS
 10
-23.276254093
 20
47.8791737085
 30
0.0
 11
-0.4160498344
 21
0.2773626446
 31
0.0
 40
0.9999450019
 41
-0.9827748477
 42
0.5879707104
  0
ELLIPSE
  5
8D0
100
AcDbEntity
  8
0
100
AcDbEllipse
 62
7
  6
CONTINUOUS
 10
-1.993745907
 20
47.8791737085
 30
0.0
 11
-0.4160498344
 21
-0.2773626446
 31
0.0
 40
0.9999450019
 41
2.5536219432
 42
4.1243675013
  0
ELLIPSE
  5
8D1
100
AcDbEntity
  8
0
100
AcDbEllipse
 62
7
  6
CONTINUOUS
 10
-1.993745907
 20
4.0908262915
 30
0.0
 11
0.4160498344
 21
-0.2773626446
 31
0.0
 40
0.9999450019
 41
-0.9827748477
 42
0.5879707104
  0
ELLIPSE
  5
8D2
100
AcDbEntity
  8
0
100
AcDbEllipse
 62
7
  6
CONTINUOUS
 10
-20.2016456542
 20
47.9387669705
 30
0.0
 11
0.4999904798
 21
0.5000285596
 31
0.0
 40
0.0061705924
 41
-3.1303103451
 42
-2.1029719701
  0
ELLIPSE
  5
8D3
100
AcDbEntity
  8
0
100
AcDbEllipse
 62
7
  6
CONTINUOUS
 10
-5.0683543458
 20
47.9387669705
 30
0.0
 11
-0.4999904798
 21
0.5000285596
 31
0.0
 40
0.0061705924
 41
-4.1802133371
 42
-3.1528749621
  0
ELLIPSE
  5
8D4
100
AcDbEntity
  8
0
100
AcDbEllipse
 62
7
  6
CONTINUOUS
 10
-5.0683543458
 20
4.0312330295
 30
0.0
 11
0.4999904798
 21
0.5000285596
 31
0.0
 40
0.0061705924
 41
0.0112823085
 42
1.0386206835
  0
ELLIPSE
  5
8D5
100
AcDbEntity
  8
0
100
AcDbEllipse
 62
7
  6
CONTINUOUS
 10
-20.2016456542
 20
4.0312330295
 30
0.0
 11
-0.4999904798
 21
0.5000285596
 31
0.0
 40
0.0061705924
 41
-1.0386206835
 42
-0.0112823085
  0
ELLIPSE
  5
8D6
100
AcDbEntity
  8
0
100
AcDbEllipse
 62
7
  6
CONTINUOUS
 10
-20.2016456542
 20
46.9766321118
 30
0.0
 11
0.5
 21
-0.0
 31
0.0
 40
0.0087268678
 41
1.5707963268
 42
3.1241393611
  0
ELLIPSE
  5
8D7
100
AcDbEntity
  8
0
100
AcDbEllipse
 62
7
  6
CONTINUOUS
 10
-5.0683543458
 20
46.9766321118
 30
0.0
 11
0.5
 21
-0.0
 31
0.0
 40
0.0087268678
 41
0.0174532925
 42
1.5707963268
  0
ELLIPSE
  5
8D8
100
AcDbEntity
  8
0
100
AcDbEllipse
 62
7
  6
CONTINUOUS
 10
-5.0683543458
 20
4.9933678882
 30
0.0
 11
0.5
 21
0.0
 31
0.0
 40
0.0087268678
 41
-1.5707963268
 42
-0.0174532925
  0
ELLIPSE
  5
8D9
100
AcDbEntity
  8
0
100
AcDbEllipse
 62
7
  6
CONTINUOUS
 10
-20.2016456542
 20
4.9933678882
 30
0.0
 11
0.5
 21
0.0
 31
0.0
 40
0.0087268678
 41
-3.1241393611
 42
-1.5707963268
  0
ELLIPSE
  5
8DA
100
AcDbEntity
  8
0
100
AcDbEllipse
 62
7
  6
CONTINUOUS
 10
-11.4264250136
 20
2.1907148846
 30
0.0
 11
0.1243375101
 21
0.1566832125
 31
0.0
 40
0.9998696711
 41
-4.0415999954
 42
-2.4708544373
  0
ELLIPSE
  5
8DB
100
AcDbEntity
  8
0
100
AcDbEllipse
 62
7
  6
CONTINUOUS
 10
-13.8435749864
 20
2.1907148846
 30
0.0
 11
-0.1243375101
 21
0.1566832125
 31
0.0
 40
0.9998696711
 41
-3.8123308699
 42
-2.2415853117
  0
ELLIPSE
  5
8DC
100
AcDbEntity
  8
0
100
AcDbEllipse
 62
7
  6
CONTINUOUS
 10
-13.8435749864
 20
49.7792851154
 30
0.0
 11
0.1243375101
 21
0.1566832126
 31
0.0
 40
0.9998696711
 41
-0.900007342
 42
0.6707382161
  0
ELLIPSE
  5
8DD
100
AcDbEntity
  8
0
100
AcDbEllipse
 62
7
  6
CONTINUOUS
 10
-11.4264250136
 20
49.7792851154
 30
0.0
 11
-0.1243375101
 21
0.1566832125
 31
0.0
 40
0.9998696711
 41
-0.6707382164
 42
0.9000073418
  0
ELLIPSE
  5
8DE
100
AcDbEntity
  8
RACCORDO
100
AcDbEllipse
 62
7
  6
CONTINUOUS
 10
-10.9524221128
 20
43.585
 30
0.0
 11
-0.3000114235
 21
0.0
 31
0.0
 40
0.9999619231
 41
1.5707963268
 42
2.80137059
  0
ELLIPSE
  5
8DF
100
AcDbEntity
  8
RACCORDO
100
AcDbEllipse
 62
7
  6
CONTINUOUS
 10
-1.9219211218
 20
29.435
 30
0.0
 11
-0.3000114235
 21
0.0
 31
0.0
 40
0.9999619231
 41
1.5707963268
 42
3.1415926536
  0
ELLIPSE
  5
8E0
100
AcDbEntity
  8
RACCORDO
100
AcDbEllipse
 62
7
  6
CONTINUOUS
 10
-1.9219211218
 20
24.435
 30
0.0
 11
-0.3000114235
 21
0.0
 31
0.0
 40
0.9999619231
 41
1.5707963268
 42
3.1415926536
  0
ELLIPSE
  5
8E1
100
AcDbEntity
  8
RACCORDO
100
AcDbEllipse
 62
7
  6
CONTINUOUS
 10
-1.9219211218
 20
19.435
 30
0.0
 11
-0.3000114235
 21
0.0
 31
0.0
 40
0.9999619231
 41
1.5707963268
 42
3.1415926536
  0
ELLIPSE
  5
8E2
100
AcDbEntity
  8
RACCORDO
100
AcDbEllipse
 62
7
  6
CONTINUOUS
 10
-1.9219211218
 20
14.435
 30
0.0
 11
-0.3000114235
 21
0.0
 31
0.0
 40
0.9999619231
 41
1.5707963268
 42
3.1415926536
  0
ELLIPSE
  5
8E3
100
AcDbEntity
  8
DRAFT
100
AcDbEllipse
 62
7
  6
CONTINUOUS
 10
-2.793547378
 20
26.985
 30
0.0
 11
0.0
 21
2.15
 31
0.0
 40
0.0087268678
 41
3.1415926536
 42
6.2831853072
  0
ELLIPSE
  5
8E4
100
AcDbEntity
  8
DRAFT
100
AcDbEllipse
 62
7
  6
CONTINUOUS
 10
-2.793547378
 20
11.985
 30
0.0
 11
0.0
 21
2.15
 31
0.0
 40
0.0087268678
 41
3.1415926536
 42
6.2831853072
  0
ELLIPSE
  5
8E5
100
AcDbEntity
  8
RACCORDO
100
AcDbEllipse
 62
7
  6
CONTINUOUS
 10
-8.9219211218
 20
6.6719211218
 30
0.0
 11
-0.2121481893
 21
0.2121481893
 31
0.0
 40
0.9999238505
 41
2.3562325664
 42
3.9269527408
  0
ELLIPSE
  5
8E6
100
AcDbEntity
  8
RACCORDO
100
AcDbEllipse
 62
7
  6
CONTINUOUS
 10
-22.0261928455
 20
7.3719477767
 30
0.0
 11
-0.3827005044
 21
-0.9239207481
 31
0.0
 40
0.9999553905
 41
-0.3926833098
 42
0.3926833098
  0
ELLIPSE
  5
8E7
100
AcDbEntity
  8
RACCORDO
100
AcDbEllipse
 62
7
  6
CONTINUOUS
 10
-22.6480522233
 20
7.9938071545
 30
0.0
 11
-0.9239207481
 21
-0.3827005044
 31
0.0
 40
0.9999553905
 41
-0.3926833098
 42
0.3926833098
  0
ELLIPSE
  5
8E8
100
AcDbEntity
  8
RACCORDO
100
AcDbEllipse
 62
7
  6
CONTINUOUS
 10
-22.6480522233
 20
43.9761928455
 30
0.0
 11
-0.9239207481
 21
0.3827005044
 31
0.0
 40
0.9999553905
 41
-0.3926833098
 42
0.3926833098
  0
ELLIPSE
  5
8E9
100
AcDbEntity
  8
RACCORDO
100
AcDbEllipse
 62
7
  6
CONTINUOUS
 10
-22.0261928455
 20
44.5980522233
 30
0.0
 11
0.3827005044
 21
-0.9239207481
 31
0.0
 40
0.9999553905
 41
2.7489093438
 42
3.5342759634
  0
ELLIPSE
  5
8EA
100
AcDbEntity
  8
RACCORDO
100
AcDbEllipse
 62
7
  6
CONTINUOUS
 10
-8.9219211218
 20
45.2980788782
 30
0.0
 11
0.2121481893
 21
0.2121481893
 31
0.0
 40
0.9999238505
 41
-0.7853600872
 42
0.7853600872
  0
ELLIPSE
  5
8EB
100
AcDbEntity
  8
RACCORDO
100
AcDbEllipse
 62
7
  6
CONTINUOUS
 10
-3.2438071545
 20
43.1980522233
 30
0.0
 11
0.3827005044
 21
0.9239207481
 31
0.0
 40
0.9999553905
 41
-0.3926833098
 42
0.3926833098
  0
ELLIPSE
  5
8EC
100
AcDbEntity
  8
RACCORDO
100
AcDbEllipse
 62
7
  6
CONTINUOUS
 10
-2.6219477767
 20
42.5761928455
 30
0.0
 11
-0.9239207481
 21
-0.3827005044
 31
0.0
 40
0.9999553905
 41
2.7489093438
 42
3.5342759634
  0
ELLIPSE
  5
8ED
100
AcDbEntity
  8
DRAFT
100
AcDbEllipse
 62
7
  6
CONTINUOUS
 10
-2.793547378
 20
16.985
 30
0.0
 11
0.0
 21
2.15
 31
0.0
 40
0.0087268678
 41
3.1415926536
 42
6.2831853072
  0
ELLIPSE
  5
8EE
100
AcDbEntity
  8
RACCORDO
100
AcDbEllipse
 62
7
  6
CONTINUOUS
 10
-1.9219211218
 20
24.535
 30
0.0
 11
0.3000114235
 21
-0.0
 31
0.0
 40
0.9999619231
 41
0.0
 42
1.5707963268
  0
ELLIPSE
  5
8EF
100
AcDbEntity
  8
DRAFT
100
AcDbEllipse
 62
7
  6
CONTINUOUS
 10
-2.793547378
 20
21.985
 30
0.0
 11
0.0
 21
2.15
 31
0.0
 40
0.0087268678
 41
3.1415926536
 42
6.2831853072
  0
ELLIPSE
  5
8F0
100
AcDbEntity
  8
RACCORDO
100
AcDbEllipse
 62
7
  6
CONTINUOUS
 10
-1.9219211218
 20
19.535
 30
0.0
 11
0.3000114235
 21
-0.0
 31
0.0
 40
0.9999619231
 41
0.0
 42
1.5707963268
  0
ELLIPSE
  5
8F1
100
AcDbEntity
  8
RACCORDO
100
AcDbEllipse
 62
7
  6
CONTINUOUS
 10
-1.9219211218
 20
14.535
 30
0.0
 11
0.3000114235
 21
-0.0
 31
0.0
 40
0.9999619231
 41
0.0
 42
1.5707963268
  0
ELLIPSE
  5
8F2
100
AcDbEntity
  8
RACCORDO
100
AcDbEllipse
 62
7
  6
CONTINUOUS
 10
-1.9219211218
 20
9.535
 30
0.0
 11
0.3000114235
 21
-0.0
 31
0.0
 40
0.9999619231
 41
0.0
 42
1.5707963268
  0
ELLIPSE
  5
8F3
100
AcDbEntity
  8
RACCORDO
100
AcDbEllipse
 62
7
  6
CONTINUOUS
 10
-2.6219477767
 20
9.3938071545
 30
0.0
 11
0.9239207481
 21
-0.3827005044
 31
0.0
 40
0.9999553905
 41
-0.3926833098
 42
0.3926833098
  0
ELLIPSE
  5
8F4
100
AcDbEntity
  8
RACCORDO
100
AcDbEllipse
 62
7
  6
CONTINUOUS
 10
-3.2438071545
 20
8.7719477767
 30
0.0
 11
0.3827005044
 21
-0.9239207481
 31
0.0
 40
0.9999553905
 41
-0.3926833098
 42
0.3926833098
  0
ELLIPSE
  5
8F5
100
AcDbEntity
  8
RACCORDO
100
AcDbEllipse
 62
7
  6
CONTINUOUS
 10
-8.3218982748
 20
7.4718982748
 30
0.0
 11
0.2121481893
 21
-0.2121481893
 31
0.0
 40
0.9999238505
 41
2.3562325664
 42
3.9269527408
  0
ELLIPSE
  5
8F6
100
AcDbEntity
  8
RACCORDO
100
AcDbEllipse
 62
7
  6
CONTINUOUS
 10
-14.3175778872
 20
43.585
 30
0.0
 11
-0.3000114235
 21
0.0
 31
0.0
 40
0.9999619231
 41
0.3402220636
 42
1.5707963268
  0
ELLIPSE
  5
8F7
100
AcDbEntity
  8
RACCORDO
100
AcDbEllipse
 62
7
  6
CONTINUOUS
 10
-14.2389930308
 20
8.385
 30
0.0
 11
0.3000114235
 21
-0.0
 31
0.0
 40
0.9999619231
 41
1.5707963268
 42
2.80137059
  0
ELLIPSE
  5
8F8
100
AcDbEntity
  8
RACCORDO
100
AcDbEllipse
 62
7
  6
CONTINUOUS
 10
-11.0310069692
 20
8.385
 30
0.0
 11
0.3000114235
 21
-0.0
 31
0.0
 40
0.9999619231
 41
0.3402220636
 42
1.5707963268
  0
ELLIPSE
  5
8F9
100
AcDbEntity
  8
ASSI
100
AcDbEllipse
 62
7
  6
CONTINUOUS
 10
-8.9219211218
 20
6.6719211218
 30
0.0
 11
-0.2121481893
 21
0.2121481893
 31
0.0
 40
0.9999238505
 41
2.3562325664
 42
3.9269527408
  0
ELLIPSE
  5
8FA
100
AcDbEntity
  8
ASSI
100
AcDbEllipse
 62
7
  6
CONTINUOUS
 10
-22.0261928455
 20
7.3719477767
 30
0.0
 11
-0.3827005044
 21
-0.9239207481
 31
0.0
 40
0.9999553905
 41
-0.3926833098
 42
0.3926833098
  0
ELLIPSE
  5
8FB
100
AcDbEntity
  8
ASSI
100
AcDbEllipse
 62
7
  6
CONTINUOUS
 10
-22.6480522233
 20
7.9938071545
 30
0.0
 11
-0.9239207481
 21
-0.3827005044
 31
0.0
 40
0.9999553905
 41
-0.3926833098
 42
0.3926833098
  0
ELLIPSE
  5
8FC
100
AcDbEntity
  8
ASSI
100
AcDbEllipse
 62
7
  6
CONTINUOUS
 10
-22.6480522233
 20
43.9761928455
 30
0.0
 11
-0.9239207481
 21
0.3827005044
 31
0.0
 40
0.9999553905
 41
-0.3926833098
 42
0.3926833098
  0
ELLIPSE
  5
8FD
100
AcDbEntity
  8
ASSI
100
AcDbEllipse
 62
7
  6
CONTINUOUS
 10
-22.0261928455
 20
44.5980522233
 30
0.0
 11
0.3827005044
 21
-0.9239207481
 31
0.0
 40
0.9999553905
 41
2.7489093438
 42
3.5342759634
  0
ELLIPSE
  5
8FE
100
AcDbEntity
  8
ASSI
100
AcDbEllipse
 62
7
  6
CONTINUOUS
 10
-8.9219211218
 20
45.2980788782
 30
0.0
 11
0.2121481893
 21
0.2121481893
 31
0.0
 40
0.9999238505
 41
-0.7853600872
 42
0.7853600872
  0
ELLIPSE
  5
8FF
100
AcDbEntity
  8
ASSI
100
AcDbEllipse
 62
7
  6
CONTINUOUS
 10
-3.2438071545
 20
43.1980522233
 30
0.0
 11
0.3827005044
 21
0.9239207481
 31
0.0
 40
0.9999553905
 41
-0.3926833098
 42
0.3926833098
  0
ELLIPSE
  5
900
100
AcDbEntity
  8
ASSI
100
AcDbEllipse
 62
7
  6
CONTINUOUS
 10
-2.6219477767
 20
42.5761928455
 30
0.0
 11
-0.9239207481
 21
-0.3827005044
 31
0.0
 40
0.9999553905
 41
2.7489093438
 42
3.5342759634
  0
ELLIPSE
  5
901
100
AcDbEntity
  8
ASSI
100
AcDbEllipse
 62
7
  6
CONTINUOUS
 10
-1.9219211218
 20
24.535
 30
0.0
 11
0.3000114235
 21
-0.0
 31
0.0
 40
0.9999619231
 41
0.0
 42
1.5707963268
  0
ELLIPSE
  5
902
100
AcDbEntity
  8
ASSI
100
AcDbEllipse
 62
7
  6
CONTINUOUS
 10
-1.9219211218
 20
19.535
 30
0.0
 11
0.3000114235
 21
-0.0
 31
0.0
 40
0.9999619231
 41
0.0
 42
1.5707963268
  0
ELLIPSE
  5
903
100
AcDbEntity
  8
ASSI
100
AcDbEllipse
 62
7
  6
CONTINUOUS
 10
-1.9219211218
 20
14.535
 30
0.0
 11
0.3000114235
 21
-0.0
 31
0.0
 40
0.9999619231
 41
0.0
 42
1.5707963268
  0
ELLIPSE
  5
904
100
AcDbEntity
  8
ASSI
100
AcDbEllipse
 62
7
  6
CONTINUOUS
 10
-1.9219211218
 20
9.535
 30
0.0
 11
0.3000114235
 21
-0.0
 31
0.0
 40
0.9999619231
 41
0.0
 42
1.5707963268
  0
ELLIPSE
  5
905
100
AcDbEntity
  8
ASSI
100
AcDbEllipse
 62
7
  6
CONTINUOUS
 10
-2.6219477767
 20
9.3938071545
 30
0.0
 11
0.9239207481
 21
-0.3827005044
 31
0.0
 40
0.9999553905
 41
-0.3926833098
 42
0.3926833098
  0
ELLIPSE
  5
906
100
AcDbEntity
  8
ASSI
100
AcDbEllipse
 62
7
  6
CONTINUOUS
 10
-3.2438071545
 20
8.7719477767
 30
0.0
 11
0.3827005044
 21
-0.9239207481
 31
0.0
 40
0.9999553905
 41
-0.3926833098
 42
0.3926833098
  0
ELLIPSE
  5
907
100
AcDbEntity
  8
ASSI
100
AcDbEllipse
 62
7
  6
CONTINUOUS
 10
-14.3175778872
 20
43.585
 30
0.0
 11
-0.3000114235
 21
0.0
 31
0.0
 40
0.9999619231
 41
0.3402220636
 42
1.5707963268
  0
ELLIPSE
  5
908
100
AcDbEntity
  8
ASSI
100
AcDbEllipse
 62
7
  6
CONTINUOUS
 10
-14.2389930308
 20
8.385
 30
0.0
 11
0.3000114235
 21
-0.0
 31
0.0
 40
0.9999619231
 41
1.5707963268
 42
2.80137059
  0
ELLIPSE
  5
909
100
AcDbEntity
  8
ASSI
100
AcDbEllipse
 62
7
  6
CONTINUOUS
 10
-11.0310069692
 20
8.385
 30
0.0
 11
0.3000114235
 21
-0.0
 31
0.0
 40
0.9999619231
 41
0.3402220636
 42
1.5707963268
  0
ELLIPSE
  5
90A
100
AcDbEntity
  8
ASSI
100
AcDbEllipse
 62
7
  6
CONTINUOUS
 10
-10.9524221128
 20
43.585
 30
0.0
 11
-0.3000114235
 21
0.0
 31
0.0
 40
0.9999619231
 41
1.5707963268
 42
2.80137059
  0
ELLIPSE
  5
90B
100
AcDbEntity
  8
ASSI
100
AcDbEllipse
 62
7
  6
CONTINUOUS
 10
-1.9219211218
 20
29.435
 30
0.0
 11
-0.3000114235
 21
0.0
 31
0.0
 40
0.9999619231
 41
1.5707963268
 42
3.1415926536
  0
ELLIPSE
  5
90C
100
AcDbEntity
  8
ASSI
100
AcDbEllipse
 62
7
  6
CONTINUOUS
 10
-1.9219211218
 20
24.435
 30
0.0
 11
-0.3000114235
 21
0.0
 31
0.0
 40
0.9999619231
 41
1.5707963268
 42
3.1415926536
  0
ELLIPSE
  5
90D
100
AcDbEntity
  8
ASSI
100
AcDbEllipse
 62
7
  6
CONTINUOUS
 10
-1.9219211218
 20
19.435
 30
0.0
 11
-0.3000114235
 21
0.0
 31
0.0
 40
0.9999619231
 41
1.5707963268
 42
3.1415926536
  0
ELLIPSE
  5
90E
100
AcDbEntity
  8
ASSI
100
AcDbEllipse
 62
7
  6
CONTINUOUS
 10
-1.9219211218
 20
14.435
 30
0.0
 11
-0.3000114235
 21
0.0
 31
0.0
 40
0.9999619231
 41
1.5707963268
 42
3.1415926536
  0
ELLIPSE
  5
90F
100
AcDbEntity
  8
ASSI
100
AcDbEllipse
 62
7
  6
CONTINUOUS
 10
-2.793547378
 20
26.985
 30
0.0
 11
0.0
 21
2.15
 31
0.0
 40
0.0087268678
 41
3.1415926536
 42
6.2831853072
  0
ELLIPSE
  5
910
100
AcDbEntity
  8
ASSI
100
AcDbEllipse
 62
7
  6
CONTINUOUS
 10
-2.793547378
 20
11.985
 30
0.0
 11
0.0
 21
2.15
 31
0.0
 40
0.0087268678
 41
3.1415926536
 42
6.2831853072
  0
ELLIPSE
  5
911
100
AcDbEntity
  8
ASSI
100
AcDbEllipse
 62
7
  6
CONTINUOUS
 10
-2.793547378
 20
16.985
 30
0.0
 11
0.0
 21
2.15
 31
0.0
 40
0.0087268678
 41
3.1415926536
 42
6.2831853072
  0
ELLIPSE
  5
912
100
AcDbEntity
  8
ASSI
100
AcDbEllipse
 62
7
  6
CONTINUOUS
 10
-2.793547378
 20
21.985
 30
0.0
 11
0.0
 21
2.15
 31
0.0
 40
0.0087268678
 41
3.1415926536
 42
6.2831853072
  0
ELLIPSE
  5
913
100
AcDbEntity
  8
ASSI
100
AcDbEllipse
 62
7
  6
CONTINUOUS
 10
-8.3218982748
 20
7.4718982748
 30
0.0
 11
0.2121481893
 21
-0.2121481893
 31
0.0
 40
0.9999238505
 41
2.3562325664
 42
3.9269527408
  0
ENDSEC
  0
SECTION
  2
OBJECTS
  0
DICTIONARY
  5
C
100
AcDbDictionary
280
0
281
1
  3
ACAD_GROUP
350
D
  3
ACAD_MLINESTYLE
350
17
  3
ACAD_LAYOUT
350
1A
  3
ACAD_PLOTSETTINGS
350
19
  3
ACAD_PLOTSTYLENAME
350
E
  0
DICTIONARY
  5
D
102
{ACAD_REACTORS
330
C
102
}
100
AcDbDictionary
280
0
281
1
  0
ACDBDICTIONARYWDFLT
  5
E
102
{ACAD_REACTORS
330
C
102
}
100
AcDbDictionary
281
1
  3
Normal
350
F
100
AcDbDictionaryWithDefault
340
F
  0
DICTIONARY
  5
17
102
{ACAD_REACTORS
330
C
102
}
100
AcDbDictionary
280
0
281
1
  3
Standard
350
18
  0
DICTIONARY
  5
19
102
{ACAD_REACTORS
330
C
102
}
100
AcDbDictionary
281
1
  0
DICTIONARY
  5
1A
102
{ACAD_REACTORS
330
C
102
}
100
AcDbDictionary
281
1
  3
Model
350
914
  3
Layout1
350
915
  0
ACDBPLACEHOLDER
  5
F
102
{ACAD_REACTORS
330
E
102
}
  0
MLINESTYLE
  5
18
102
{ACAD_REACTORS
330
17
102
}
100
AcDbMlineStyle
  2
STANDARD
 70
0
  3

 62
256
 51
90.0
 52
90.0
 71
2
 49
0.5
 62
256
  6
BYLAYER
 49
-0.5
 62
256
  6
BYLAYER
  0
LAYOUT
  5
914
102
{ACAD_REACTORS
330
1A
102
}
100
AcDbPlotSettings
  1

  2
none_device
  4
ISO_A4_(297.00_x_210.00_MM)
  6

 40
0.0
 41
0.0
 42
0.0
 43
0.0
 44
297.0
 45
210.0
 46
0.0
 47
0.0
 48
0.0
 49
0.0
140
0.0
141
0.0
142
1.0
143
1.0
 70
1024
 72
1
 73
0
 74
0
  7

 75
0
147
1.0
148
0.0
149
0.0
100
AcDbLayout
  1
Model
 70
0
 71
0
 10
0.0
 20
0.0
 11
297.0
 21
210.0
 12
0.0
 22
0.0
 32
0.0
 14
0.0
 24
0.0
 34
0.0
 15
0.0
 25
0.0
 35
0.0
146
0.0
 13
0.0
 23
0.0
 33
0.0
 16
1.0
 26
0.0
 36
0.0
 17
0.0
 27
1.0
 37
0.0
 76
0
330
22A
345
0
346
0
  0
LAYOUT
  5
915
102
{ACAD_REACTORS
330
1A
102
}
100
AcDbPlotSettings
  1

  2
none_device
  4
ISO_A4_(297.00_x_210.00_MM)
  6

 40
0.0
 41
0.0
 42
0.0
 43
0.0
 44
297.0
 45
210.0
 46
0.0
 47
0.0
 48
0.0
 49
0.0
140
0.0
141
0.0
142
1.0
143
1.0
 70
0
 72
1
 73
0
 74
0
  7

 75
0
147
1.0
148
0.0
149
0.0
100
AcDbLayout
  1
Layout1
 70
0
 71
1
 10
0.0
 20
0.0
 11
297.0
 21
210.0
 12
0.0
 22
0.0
 32
0.0
 14
0.0
 24
0.0
 34
0.0
 15
0.0
 25
0.0
 35
0.0
146
0.0
 13
0.0
 23
0.0
 33
0.0
 16
1.0
 26
0.0
 36
0.0
 17
0.0
 27
1.0
 37
0.0
 76
0
330
22B
345
0
346
0
  0
ENDSEC
  0
EOF
