  0
SECTION
  2
HEADER
  9
$ACADVER
  1
AC1015
  9
$DWGCODEPAGE
  3
ANSI_1252
  9
$EXTMAX
 10
297.0
 20
210.0
 30
0.0
  9
$EXTMIN
 10
0.0
 20
0.0
 30
0.0
  9
$LIMMIN
 10
0.0
 20
0.0
  9
$LIMMAX
 10
297.0
 20
210.0
  9
$VIEWCTR
 10
148.5
 20
105.0
  9
$VIEWSIZE
 40
210.0
  9
$CLAYER
  8
0
  9
$LTSCALE
 40
16.335
  9
$CELTYPE
  6
BYLAYER
  9
$DIMSCALE
 40
1.0
  9
$DIMASZ
 40
3.0
  9
$DIMEXO
 40
1.85625
  9
$DIMDLI
 40
11.286
  9
$DIMEXE
 40
5.346
  9
$DIMCEN
 40
2.673
  9
$DIMLFAC
 40
1.0
  9
$DIMBLK
  1
_FILLED
  9
$DIMTXT
 40
3.0
  9
$DIMTOL
 70
1
  9
$DIMLIM
 70
0
  9
$DIMTFAC
 40
1.0
  9
$DIMTP
 40
0.01
  9
$DIMTM
 40
0.01
  9
$PDMODE
 70
3
  9
$PDSIZE
 40
3.0
  9
$HANDSEED
  5
42F
  9
$TILEMODE
 70
1
  9
$MEASUREMENT
 70
1
  9
$INSUNITS
 70
4
  0
ENDSEC
  0
SECTION
  2
CLASSES
  0
CLASS
  1
ACDBDICTIONARYWDFLT
  2
AcDbDictionaryWithDefault
  3
AutoCAD 2000
 90
0
280
0
281
0
  0
CLASS
  1
ACDBPLACEHOLDER
  2
AcDbPlaceHolder
  3
AutoCAD 2000
 90
0
280
0
281
0
  0
CLASS
  1
LAYOUT
  2
AcDbLayout
  3
AutoCAD 2000
 90
0
280
0
281
0
  0
ENDSEC
  0
SECTION
  2
TABLES
  0
TABLE
  2
VPORT
  5
8
100
AcDbSymbolTable
 70
2
  0
VPORT
  5
1F4
100
AcDbSymbolTableRecord
100
AcDbViewportTableRecord
  2
*ACTIVE
 70
0
 10
0.0
 20
0.0
 11
1.0
 21
1.0
 12
148.5
 22
105.0
 13
0.0
 23
0.0
 14
1.0
 24
1.0
 15
0.0
 25
0.0
 16
0.0
 26
0.0
 36
1.0
 17
0.0
 27
0.0
 37
0.0
 40
210.0
 41
1.4142857143
 42
50.0
 43
0.0
 44
0.0
 50
0.0
 51
0.0
 71
0
 72
100
 73
1
 74
1
 75
0
 76
0
 77
0
 78
0
  0
ENDTAB
  0
TABLE
  2
LTYPE
  5
5
100
AcDbSymbolTable
 70
6
  0
LTYPE
  5
14
100
AcDbSymbolTableRecord
100
AcDbLinetypeTableRecord
  2
BYBLOCK
 70
0
  3

 72
65
 73
0
 40
0.0
  0
LTYPE
  5
15
100
AcDbSymbolTableRecord
100
AcDbLinetypeTableRecord
  2
BYLAYER
 70
0
  3

 72
65
 73
0
 40
0.0
  0
LTYPE
  5
16
100
AcDbSymbolTableRecord
100
AcDbLinetypeTableRecord
  2
CONTINUOUS
 70
64
  3
Solid line
 72
65
 73
0
 40
0.0
  0
LTYPE
  5
1F5
100
AcDbSymbolTableRecord
100
AcDbLinetypeTableRecord
  2
CENTER
 70
64
  3
____ _ ____ _ ____ _ ____ _ ____ _ ____ _ ____
 72
65
 73
4
 40
0.6
 49
0.375
 74
0
 49
-0.075
 74
0
 49
0.075
 74
0
 49
-0.075
 74
0
  0
LTYPE
  5
1F6
100
AcDbSymbolTableRecord
100
AcDbLinetypeTableRecord
  2
HIDDEN
 70
64
  3
- - - - - - - - - - - - - - - - - - - -
 72
65
 73
2
 40
0.2
 49
0.1
 74
0
 49
-0.1
 74
0
  0
LTYPE
  5
1F7
100
AcDbSymbolTableRecord
100
AcDbLinetypeTableRecord
  2
PHANTOM
 70
64
  3
_____ _ _ _____ _ _ _____ _ _ _____
 72
65
 73
6
 40
0.8
 49
0.45
 74
0
 49
-0.05
 74
0
 49
0.1
 74
0
 49
-0.05
 74
0
 49
0.1
 74
0
 49
-0.05
 74
0
  0
LTYPE
  5
1F8
100
AcDbSymbolTableRecord
100
AcDbLinetypeTableRecord
  2
DOT
 70
64
  3
. . . . . . . . . . . . . . . . . . . .
 72
65
 73
2
 40
0.2
 49
0.1
 74
0
 49
-0.1
 74
0
  0
LTYPE
  5
1F9
100
AcDbSymbolTableRecord
100
AcDbLinetypeTableRecord
  2
DASHED
 70
64
  3
- - - - - - - - - - - - - - - - - - - -
 72
65
 73
2
 40
0.2
 49
0.1
 74
0
 49
-0.1
 74
0
  0
ENDTAB
  0
TABLE
  2
LAYER
  5
2
100
AcDbSymbolTable
 70
36
  0
LAYER
  5
10
100
AcDbSymbolTableRecord
100
AcDbLayerTableRecord
  2
0
 70
0
 62
7
  6
CONTINUOUS
370
-3
390
F
  0
LAYER
  5
1FA
100
AcDbSymbolTableRecord
100
AcDbLayerTableRecord
  2
DEFAULT_1
 70
0
 62
7
  6
CENTER
370
-3
390
F
  0
LAYER
  5
1FB
100
AcDbSymbolTableRecord
100
AcDbLayerTableRecord
  2
DEFAULT_2
 70
0
 62
7
  6
HIDDEN
370
-3
390
F
  0
LAYER
  5
1FC
100
AcDbSymbolTableRecord
100
AcDbLayerTableRecord
  2
DEFAULT_3
 70
0
 62
7
  6
PHANTOM
370
-3
390
F
  0
LAYER
  5
1FD
100
AcDbSymbolTableRecord
100
AcDbLayerTableRecord
  2
ASSI
 70
0
 62
7
  6
CONTINUOUS
370
-3
390
F
  0
LAYER
  5
1FE
100
AcDbSymbolTableRecord
100
AcDbLayerTableRecord
  2
COLOR9
 70
0
 62
7
  6
CONTINUOUS
370
-3
390
F
  0
LAYER
  5
1FF
100
AcDbSymbolTableRecord
100
AcDbLayerTableRecord
  2
COORDINATE
 70
0
 62
7
  6
CONTINUOUS
370
-3
390
F
  0
LAYER
  5
200
100
AcDbSymbolTableRecord
100
AcDbLayerTableRecord
  2
COORD_ORIGINE
 70
0
 62
7
  6
CONTINUOUS
370
-3
390
F
  0
LAYER
  5
201
100
AcDbSymbolTableRecord
100
AcDbLayerTableRecord
  2
COSMETICI
 70
0
 62
7
  6
CONTINUOUS
370
-3
390
F
  0
LAYER
  5
202
100
AcDbSymbolTableRecord
100
AcDbLayerTableRecord
  2
CURVE
 70
0
 62
7
  6
CONTINUOUS
370
-3
390
F
  0
LAYER
  5
203
100
AcDbSymbolTableRecord
100
AcDbLayerTableRecord
  2
DRAFT
 70
0
 62
7
  6
CONTINUOUS
370
-3
390
F
  0
LAYER
  5
204
100
AcDbSymbolTableRecord
100
AcDbLayerTableRecord
  2
IMPORT_IGES
 70
0
 62
7
  6
CONTINUOUS
370
-3
390
F
  0
LAYER
  5
205
100
AcDbSymbolTableRecord
100
AcDbLayerTableRecord
  2
INTF_1
 70
0
 62
7
  6
CONTINUOUS
370
-3
390
F
  0
LAYER
  5
206
100
AcDbSymbolTableRecord
100
AcDbLayerTableRecord
  2
INTF_YELLOW
 70
0
 62
7
  6
CONTINUOUS
370
-3
390
F
  0
LAYER
  5
207
100
AcDbSymbolTableRecord
100
AcDbLayerTableRecord
  2
NOTE
 70
0
 62
7
  6
CONTINUOUS
370
-3
390
F
  0
LAYER
  5
208
100
AcDbSymbolTableRecord
100
AcDbLayerTableRecord
  2
PIANI
 70
0
 62
7
  6
CONTINUOUS
370
-3
390
F
  0
LAYER
  5
209
100
AcDbSymbolTableRecord
100
AcDbLayerTableRecord
  2
PIANI_ORIGINE
 70
0
 62
7
  6
CONTINUOUS
370
-3
390
F
  0
LAYER
  5
20A
100
AcDbSymbolTableRecord
100
AcDbLayerTableRecord
  2
PIANI_RIFERIMENTO
 70
0
 62
7
  6
CONTINUOUS
370
-3
390
F
  0
LAYER
  5
20B
100
AcDbSymbolTableRecord
100
AcDbLayerTableRecord
  2
PUNTI
 70
0
 62
7
  6
CONTINUOUS
370
-3
390
F
  0
LAYER
  5
20C
100
AcDbSymbolTableRecord
100
AcDbLayerTableRecord
  2
RACCORDO
 70
0
 62
7
  6
CONTINUOUS
370
-3
390
F
  0
LAYER
  5
20D
100
AcDbSymbolTableRecord
100
AcDbLayerTableRecord
  2
SIMBOLI
 70
0
 62
7
  6
CONTINUOUS
370
-3
390
F
  0
LAYER
  5
20E
100
AcDbSymbolTableRecord
100
AcDbLayerTableRecord
  2
SMUSSO
 70
0
 62
7
  6
CONTINUOUS
370
-3
390
F
  0
LAYER
  5
20F
100
AcDbSymbolTableRecord
100
AcDbLayerTableRecord
  2
SNAPLINE
 70
0
 62
7
  6
CONTINUOUS
370
-3
390
F
  0
LAYER
  5
210
100
AcDbSymbolTableRecord
100
AcDbLayerTableRecord
  2
SUPERFICI
 70
0
 62
7
  6
CONTINUOUS
370
-3
390
F
  0
LAYER
  5
211
100
AcDbSymbolTableRecord
100
AcDbLayerTableRecord
  2
TRASH
 70
0
 62
7
  6
CONTINUOUS
370
-3
390
F
  0
LAYER
  5
212
100
AcDbSymbolTableRecord
100
AcDbLayerTableRecord
  2
XSEC_DATUMS
 70
0
 62
7
  6
CONTINUOUS
370
-3
390
F
  0
ENDTAB
  0
TABLE
  2
STYLE
  5
3
100
AcDbSymbolTable
 70
1
  0
STYLE
  5
11
100
AcDbSymbolTableRecord
100
AcDbTextStyleTableRecord
  2
STANDARD
 70
0
 40
0.0
 41
0.8
 50
0.0
 71
0
 42
0.2
  3
txt
  4

  0
STYLE
  5
213
100
AcDbSymbolTableRecord
100
AcDbTextStyleTableRecord
  2
TEXTSTYLE_1
 70
0
 40
0.0
 41
0.8
 50
0.0
 71
0
 42
0.2
  3
gdt
  4

  0
ENDTAB
  0
TABLE
  2
VIEW
  5
6
100
AcDbSymbolTable
 70
0
  0
ENDTAB
  0
TABLE
  2
UCS
  5
7
100
AcDbSymbolTable
 70
0
  0
ENDTAB
  0
TABLE
  2
APPID
  5
9
100
AcDbSymbolTable
 70
1
  0
APPID
  5
214
100
AcDbSymbolTableRecord
100
AcDbRegAppTableRecord
  2
ACAD
 70
0
  0
ENDTAB
  0
TABLE
  2
BLOCK_RECORD
  5
1
100
AcDbSymbolTable
 70
0
  0
BLOCK_RECORD
  5
215
100
AcDbSymbolTableRecord
100
AcDbBlockTableRecord
  2
*Model_Space
  0
BLOCK_RECORD
  5
216
100
AcDbSymbolTableRecord
100
AcDbBlockTableRecord
  2
*Paper_Space
  0
ENDTAB
  0
TABLE
  2
DIMSTYLE
  5
A
100
AcDbSymbolTable
 70
1
100
AcDbDimStyleTable
 71
0
  0
DIMSTYLE
105
217
100
AcDbSymbolTableRecord
100
AcDbDimStyleTableRecord
  2
STANDARD
 70
0
  3

  4

 40
1.0
 41
3.0
 42
0.0625
 43
0.38
 44
0.18
 45
0.0
 46
0.0
 47
0.01
 48
0.01
140
3.0
141
0.09
142
0.0
143
25.4
144
1.0
145
0.0
146
1.0
147
0.09
 71
1.0
 72
0.0
 73
0
 74
0
 75
0
 76
0
 77
1
 78
8
170
0
171
2
172
0
173
0
174
0
175
0
176
0
177
0
178
0
270
2
271
2
272
2
273
2
274
2
275
0
280
0
281
0
282
0
283
1
284
8
285
0
286
0
287
3
288
0
340
11
  0
ENDTAB
  0
ENDSEC
  0
SECTION
  2
BLOCKS
  0
BLOCK
  5
20
100
AcDbEntity
  8
0
100
AcDbBlockBegin
  2
*Model_Space
 70
0
 10
0.0
 20
0.0
 30
0.0
  3
*Model_Space
  1

  0
ENDBLK
  5
21
100
AcDbEntity
  8
0
100
AcDbBlockEnd
  0
BLOCK
  5
1C
100
AcDbEntity
  8
0
100
AcDbBlockBegin
  2
*Paper_Space
 70
0
 10
0.0
 20
0.0
 30
0.0
  3
*Paper_Space
  1

  0
ENDBLK
  5
1D
100
AcDbEntity
  8
0
100
AcDbBlockEnd
  0
ENDSEC
  0
SECTION
  2
ENTITIES
  0
LWPOLYLINE
  5
218
100
AcDbEntity
  8
RACCORDO
100
AcDbPolyline
 62
7
  6
CONTINUOUS
 90
25
 70
0
 10
-21.0506086115
 20
-20.610711414
 10
-21.0500521069
 20
-20.6302495866
 10
-21.048232784
 20
-20.6497112776
 10
-21.0451572612
 20
-20.6690147051
 10
-21.0408385379
 20
-20.6880761791
 10
-21.0352930911
 20
-20.7068177988
 10
-21.0285390431
 20
-20.725167261
 10
-21.0206015123
 20
-20.7430479681
 10
-21.0115122769
 20
-20.7603813734
 10
-21.0013050547
 20
-20.7770940266
 10
-20.9900205839
 20
-20.7931130133
 10
-20.9777041682
 20
-20.8083685582
 10
-20.9644025438
 20
-20.8227951495
 10
-20.9501673109
 20
-20.8363304133
 10
-20.9350588738
 20
-20.8489110977
 10
-20.91914381
 20
-20.8604760301
 10
-20.9024889713
 20
-20.8709729241
 10
-20.8851646448
 20
-20.8803541347
 10
-20.8672489772
 20
-20.8885738688
 10
-20.8488173736
 20
-20.8955951555
 10
-20.8299502047
 20
-20.9013852701
 10
-20.8107377335
 20
-20.9059151287
 10
-20.7912662562
 20
-20.9091644508
 10
-20.7716171364
 20
-20.9111198624
 10
-20.7518754742
 20
-20.9117726717
  0
LINE
  5
219
100
AcDbEntity
  8
0
100
AcDbLine
 62
7
  6
CONTINUOUS
 10
-22.3014422353
 20
21.6116135728
 11
-22.3014422353
 21
-21.6116135728
  0
LINE
  5
21A
100
AcDbEntity
  8
0
100
AcDbLine
 62
7
  6
CONTINUOUS
 10
-21.3
 20
3.25
 11
-21.3
 21
1.3228756555
  0
LINE
  5
21B
100
AcDbEntity
  8
0
100
AcDbLine
 62
7
  6
CONTINUOUS
 10
-21.3
 20
-1.3228756555
 11
-21.3
 21
-3.25
  0
LINE
  5
21C
100
AcDbEntity
  8
0
100
AcDbLine
 62
7
  6
CONTINUOUS
 10
-21.0714422353
 20
-20.6315450378
 11
-21.0714422353
 21
-3.25
  0
LINE
  5
21D
100
AcDbEntity
  8
0
100
AcDbLine
 62
7
  6
CONTINUOUS
 10
-21.0714422353
 20
3.25
 11
-21.0714422353
 21
20.6315450378
  0
LINE
  5
21E
100
AcDbEntity
  8
0
100
AcDbLine
 62
7
  6
CONTINUOUS
 10
-21.0321633529
 20
10.4
 11
-21.0321633529
 21
9.6
  0
LINE
  5
21F
100
AcDbEntity
  8
0
100
AcDbLine
 62
7
  6
CONTINUOUS
 10
-21.0321633529
 20
-9.6
 11
-21.0321633529
 21
-10.4
  0
LWPOLYLINE
  5
220
100
AcDbEntity
  8
RACCORDO
100
AcDbPolyline
 62
7
  6
CONTINUOUS
 90
25
 70
0
 10
20.7518754742
 20
-20.9117726717
 10
20.7716187281
 20
-20.9111197586
 10
20.7912704146
 20
-20.9091638988
 10
20.8107453806
 20
-20.9059135908
 10
20.8299624934
 20
-20.9013819384
 10
20.8488350319
 20
-20.8955890885
 10
20.867271715
 20
-20.8885643328
 10
20.8851921603
 20
-20.8803403888
 10
20.9025208253
 20
-20.8709542839
 10
20.9191785253
 20
-20.8604525099
 10
20.9350948611
 20
-20.8488830835
 10
20.9502032781
 20
-20.836298394
 10
20.9644369859
 20
-20.8227601666
 10
20.9777355812
 20
-20.808332155
 10
20.9900479634
 20
-20.7930767241
 10
21.001327958
 20
-20.7770591368
 10
21.0115303685
 20
-20.7603494481
 10
21.02061481
 20
-20.7430204625
 10
21.0285482353
 20
-20.7251445873
 10
21.035298917
 20
-20.706800227
 10
21.0408417233
 20
-20.6880639714
 10
21.0451587223
 20
-20.6690071227
 10
21.0482333023
 20
-20.6497071658
 10
21.0500522016
 20
-20.6302480193
 10
21.0506086115
 20
-20.610711414
  0
LINE
  5
221
100
AcDbEntity
  8
0
100
AcDbLine
 62
7
  6
CONTINUOUS
 10
-21.8016135728
 20
-22.1114422353
 11
21.8016135728
 21
-22.1114422353
  0
LINE
  5
222
100
AcDbEntity
  8
RACCORDO
100
AcDbLine
 62
7
  6
CONTINUOUS
 10
20.7715450378
 20
-20.9314422353
 11
-20.7715450378
 21
-20.9314422353
  0
LINE
  5
223
100
AcDbEntity
  8
RACCORDO
100
AcDbLine
 62
7
  6
CONTINUOUS
 10
-20.7518754742
 20
-20.9117726717
 11
20.7518754742
 21
-20.9117726717
  0
LINE
  5
224
100
AcDbEntity
  8
0
100
AcDbLine
 62
7
  6
CONTINUOUS
 10
-20.2674550649
 20
3.25
 11
-20.2674550649
 21
-3.25
  0
LINE
  5
225
100
AcDbEntity
  8
0
100
AcDbLine
 62
253
  6
CONTINUOUS
 10
-20.2551451296
 20
-3.25
 11
-20.2551451296
 21
3.25
  0
LINE
  5
226
100
AcDbEntity
  8
0
100
AcDbLine
 62
253
  6
CONTINUOUS
 10
-19.9551908211
 20
-3.25
 11
-19.9551908211
 21
3.25
  0
LINE
  5
227
100
AcDbEntity
  8
0
100
AcDbLine
 62
7
  6
CONTINUOUS
 10
-21.0272527777
 20
10.4032733012
 11
-21.0321633529
 21
10.4
  0
LINE
  5
228
100
AcDbEntity
  8
0
100
AcDbLine
 62
7
  6
CONTINUOUS
 10
-21.0272527777
 20
-10.4032733012
 11
-21.0321633529
 21
-10.4
  0
LINE
  5
229
100
AcDbEntity
  8
0
100
AcDbLine
 62
7
  6
CONTINUOUS
 10
-13.8698659872
 20
9.711153461
 11
-13.9810194482
 21
9.6
  0
LINE
  5
22A
100
AcDbEntity
  8
0
100
AcDbLine
 62
7
  6
CONTINUOUS
 10
1.1224998808
 20
-16.75
 11
1.2475001192
 21
-16.7180851074
  0
LINE
  5
22B
100
AcDbEntity
  8
0
100
AcDbLine
 62
7
  6
CONTINUOUS
 10
-3.5
 20
-17.5
 11
3.5
 21
-17.5
  0
LINE
  5
22C
100
AcDbEntity
  8
0
100
AcDbLine
 62
7
  6
CONTINUOUS
 10
-2.94
 20
-16.75
 11
-1.815
 21
-16.75
  0
LINE
  5
22D
100
AcDbEntity
  8
0
100
AcDbLine
 62
7
  6
CONTINUOUS
 10
-0.0024999404
 20
-16.75
 11
0.1849998808
 21
-16.75
  0
LINE
  5
22E
100
AcDbEntity
  8
0
100
AcDbLine
 62
7
  6
CONTINUOUS
 10
0.8725001192
 20
-16.75
 11
1.1224998808
 21
-16.75
  0
LINE
  5
22F
100
AcDbEntity
  8
0
100
AcDbLine
 62
7
  6
CONTINUOUS
 10
1.8100001192
 20
-16.75
 11
2.9350001192
 21
-16.75
  0
LINE
  5
230
100
AcDbEntity
  8
0
100
AcDbLine
 62
7
  6
CONTINUOUS
 10
2.9350001192
 20
-16.5904255286
 11
2.0599998808
 21
-16.5904255286
  0
LINE
  5
231
100
AcDbEntity
  8
0
100
AcDbLine
 62
7
  6
CONTINUOUS
 10
1.09125
 20
-16.5904255286
 11
0.90375
 21
-16.5904255286
  0
LINE
  5
232
100
AcDbEntity
  8
0
100
AcDbLine
 62
7
  6
CONTINUOUS
 10
-1.815
 20
-16.5904255286
 11
-2.6899999925
 21
-16.5904255286
  0
LINE
  5
233
100
AcDbEntity
  8
0
100
AcDbLine
 62
7
  6
CONTINUOUS
 10
-1.1900000596
 20
-16.7180851074
 11
-1.0025000596
 21
-16.75
  0
LINE
  5
234
100
AcDbEntity
  8
0
100
AcDbLine
 62
7
  6
CONTINUOUS
 10
-13.8698659872
 20
-9.711153461
 11
-13.9810194482
 21
-9.6
  0
LINE
  5
235
100
AcDbEntity
  8
0
100
AcDbLine
 62
7
  6
CONTINUOUS
 10
-12.85
 20
13.2962124327
 11
-12.8521427854
 21
13.2897788489
  0
LINE
  5
236
100
AcDbEntity
  8
0
100
AcDbLine
 62
7
  6
CONTINUOUS
 10
-21.0267229342
 20
-9.5891116965
 11
-21.0321633529
 21
-9.6
  0
LWPOLYLINE
  5
237
100
AcDbEntity
  8
0
100
AcDbPolyline
 62
7
  6
CONTINUOUS
 90
7
 70
0
 10
3.2864526086
 20
17.4795638075
 10
3.2926047669
 20
17.4814712338
 10
3.2988055709
 20
17.4838393031
 10
3.3050550209
 20
17.4866680114
 10
3.3113409562
 20
17.4900408334
 10
3.3176755374
 20
17.493874283
 10
3.3306125527
 20
17.502062735
  0
LINE
  5
238
100
AcDbEntity
  8
0
100
AcDbLine
 62
7
  6
CONTINUOUS
 10
1.2475001192
 20
-16.5585106388
 11
1.09125
 21
-16.5904255286
  0
LINE
  5
239
100
AcDbEntity
  8
0
100
AcDbLine
 62
7
  6
CONTINUOUS
 10
-0.8462499404
 20
-16.5585106388
 11
-1.0025000596
 21
-16.5904255286
  0
LINE
  5
23A
100
AcDbEntity
  8
0
100
AcDbLine
 62
7
  6
CONTINUOUS
 10
2.1537498808
 20
-15.4414893389
 11
2.31
 21
-15.4095744491
  0
LINE
  5
23B
100
AcDbEntity
  8
0
100
AcDbLine
 62
7
  6
CONTINUOUS
 10
0.7787501192
 20
-15.4414893389
 11
0.9349998808
 21
-15.4095744491
  0
LINE
  5
23C
100
AcDbEntity
  8
0
100
AcDbLine
 62
7
  6
CONTINUOUS
 10
-1.15875
 20
-15.4414893389
 11
-1.0025000596
 21
-15.4095744491
  0
LINE
  5
23D
100
AcDbEntity
  8
0
100
AcDbLine
 62
7
  6
CONTINUOUS
 10
-2.5962499925
 20
-15.4414893389
 11
-2.4399999851
 21
-15.4095744491
  0
LINE
  5
23E
100
AcDbEntity
  8
0
100
AcDbLine
 62
7
  6
CONTINUOUS
 10
-1.0025000596
 20
-16.75
 11
-0.8150000596
 21
-16.7180851074
  0
LINE
  5
23F
100
AcDbEntity
  8
0
100
AcDbLine
 62
7
  6
CONTINUOUS
 10
-1.0025000596
 20
-15.25
 11
-1.1900000596
 21
-15.2819148898
  0
LINE
  5
240
100
AcDbEntity
  8
0
100
AcDbLine
 62
7
  6
CONTINUOUS
 10
2.3412498808
 20
-15.25
 11
2.1225
 21
-15.2819148898
  0
LINE
  5
241
100
AcDbEntity
  8
0
100
AcDbLine
 62
7
  6
CONTINUOUS
 10
0.9662501192
 20
-15.25
 11
0.7474998808
 21
-15.2819148898
  0
LINE
  5
242
100
AcDbEntity
  8
0
100
AcDbLine
 62
7
  6
CONTINUOUS
 10
-2.4087500149
 20
-15.25
 11
-2.6275000075
 21
-15.2819148898
  0
LINE
  5
243
100
AcDbEntity
  8
0
100
AcDbLine
 62
7
  6
CONTINUOUS
 10
0.5912501192
 20
-16.3989361674
 11
0.435
 21
-16.3989361674
  0
LINE
  5
244
100
AcDbEntity
  8
0
100
AcDbLine
 62
7
  6
CONTINUOUS
 10
0.9349998808
 20
-16.0478723347
 11
1.0600001192
 21
-16.0478723347
  0
LINE
  5
245
100
AcDbEntity
  8
0
100
AcDbLine
 62
7
  6
CONTINUOUS
 10
1.0600001192
 20
-15.9202127755
 11
0.9349998808
 21
-15.9202127755
  0
LINE
  5
246
100
AcDbEntity
  8
0
100
AcDbLine
 62
7
  6
CONTINUOUS
 10
-2.9087499991
 20
-15.6010637879
 11
-2.7525
 21
-15.6010637879
  0
LINE
  5
247
100
AcDbEntity
  8
0
100
AcDbLine
 62
7
  6
CONTINUOUS
 10
0.4662498808
 20
-15.6010637879
 11
0.6225
 21
-15.6010637879
  0
LINE
  5
248
100
AcDbEntity
  8
0
100
AcDbLine
 62
7
  6
CONTINUOUS
 10
1.84125
 20
-15.6010637879
 11
1.9975001192
 21
-15.6010637879
  0
LINE
  5
249
100
AcDbEntity
  8
0
100
AcDbLine
 62
7
  6
CONTINUOUS
 10
-2.4399999851
 20
-15.4095744491
 11
-2.3150000149
 21
-15.4095744491
  0
LINE
  5
24A
100
AcDbEntity
  8
0
100
AcDbLine
 62
7
  6
CONTINUOUS
 10
0.9349998808
 20
-15.4095744491
 11
1.0600001192
 21
-15.4095744491
  0
LINE
  5
24B
100
AcDbEntity
  8
0
100
AcDbLine
 62
7
  6
CONTINUOUS
 10
2.31
 20
-15.4095744491
 11
2.4349998808
 21
-15.4095744491
  0
LINE
  5
24C
100
AcDbEntity
  8
0
100
AcDbLine
 62
7
  6
CONTINUOUS
 10
2.4662501192
 20
-15.25
 11
2.3412498808
 21
-15.25
  0
LINE
  5
24D
100
AcDbEntity
  8
0
100
AcDbLine
 62
7
  6
CONTINUOUS
 10
1.0287498808
 20
-15.25
 11
0.9662501192
 21
-15.25
  0
LINE
  5
24E
100
AcDbEntity
  8
0
100
AcDbLine
 62
7
  6
CONTINUOUS
 10
0.1849998808
 20
-15.25
 11
-0.0024999404
 21
-15.25
  0
LINE
  5
24F
100
AcDbEntity
  8
0
100
AcDbLine
 62
7
  6
CONTINUOUS
 10
-2.28375
 20
-15.25
 11
-2.4087500149
 21
-15.25
  0
LINE
  5
250
100
AcDbEntity
  8
0
100
AcDbLine
 62
7
  6
CONTINUOUS
 10
-3.5
 20
-14.5
 11
3.5
 21
-14.5
  0
LINE
  5
251
100
AcDbEntity
  8
0
100
AcDbLine
 62
7
  6
CONTINUOUS
 10
1.2475001192
 20
-15.2819148898
 11
1.0287498808
 21
-15.25
  0
LINE
  5
252
100
AcDbEntity
  8
0
100
AcDbLine
 62
7
  6
CONTINUOUS
 10
1.0600001192
 20
-16.0478723347
 11
1.2475001192
 21
-16.0797872245
  0
LINE
  5
253
100
AcDbEntity
  8
0
100
AcDbLine
 62
7
  6
CONTINUOUS
 10
-2.09625
 20
-15.2819148898
 11
-2.28375
 21
-15.25
  0
LINE
  5
254
100
AcDbEntity
  8
0
100
AcDbLine
 62
7
  6
CONTINUOUS
 10
-0.8150000596
 20
-15.2819148898
 11
-1.0025000596
 21
-15.25
  0
LINE
  5
255
100
AcDbEntity
  8
0
100
AcDbLine
 62
7
  6
CONTINUOUS
 10
2.6537501192
 20
-15.2819148898
 11
2.4662501192
 21
-15.25
  0
LINE
  5
256
100
AcDbEntity
  8
0
100
AcDbLine
 62
7
  6
CONTINUOUS
 10
-1.0025000596
 20
-16.5904255286
 11
-1.15875
 21
-16.5585106388
  0
LINE
  5
257
100
AcDbEntity
  8
0
100
AcDbLine
 62
7
  6
CONTINUOUS
 10
0.90375
 20
-16.5904255286
 11
0.7474998808
 21
-16.5585106388
  0
LINE
  5
258
100
AcDbEntity
  8
0
100
AcDbLine
 62
7
  6
CONTINUOUS
 10
-2.3150000149
 20
-15.4095744491
 11
-2.1587500298
 21
-15.4414893389
  0
LINE
  5
259
100
AcDbEntity
  8
0
100
AcDbLine
 62
7
  6
CONTINUOUS
 10
-1.0025000596
 20
-15.4095744491
 11
-0.8462499404
 21
-15.4414893389
  0
LINE
  5
25A
100
AcDbEntity
  8
0
100
AcDbLine
 62
7
  6
CONTINUOUS
 10
1.0600001192
 20
-15.4095744491
 11
1.2162498808
 21
-15.4414893389
  0
LINE
  5
25B
100
AcDbEntity
  8
0
100
AcDbLine
 62
7
  6
CONTINUOUS
 10
2.4349998808
 20
-15.4095744491
 11
2.59125
 21
-15.4414893389
  0
LINE
  5
25C
100
AcDbEntity
  8
0
100
AcDbLine
 62
7
  6
CONTINUOUS
 10
0.7474998808
 20
-16.7180851074
 11
0.8725001192
 21
-16.75
  0
LINE
  5
25D
100
AcDbEntity
  8
0
100
AcDbLine
 62
7
  6
CONTINUOUS
 10
-1.9712500298
 20
-15.3457446694
 11
-2.09625
 21
-15.2819148898
  0
LINE
  5
25E
100
AcDbEntity
  8
0
100
AcDbLine
 62
7
  6
CONTINUOUS
 10
0.6225
 20
-16.6542553194
 11
0.7474998808
 21
-16.7180851074
  0
LINE
  5
25F
100
AcDbEntity
  8
0
100
AcDbLine
 62
7
  6
CONTINUOUS
 10
0.7474998808
 20
-16.5585106388
 11
0.6850001192
 21
-16.526595749
  0
LINE
  5
260
100
AcDbEntity
  8
0
100
AcDbLine
 62
7
  6
CONTINUOUS
 10
-1.34625
 20
-16.6223404296
 11
-1.1900000596
 21
-16.7180851074
  0
LINE
  5
261
100
AcDbEntity
  8
0
100
AcDbLine
 62
7
  6
CONTINUOUS
 10
-21.0267229342
 20
9.5891116965
 11
-21.0321633529
 21
9.6
  0
LINE
  5
262
100
AcDbEntity
  8
0
100
AcDbLine
 62
7
  6
CONTINUOUS
 10
-12.85
 20
-13.2962124327
 11
-12.8521427854
 21
-13.2897788489
  0
LINE
  5
263
100
AcDbEntity
  8
0
100
AcDbLine
 62
7
  6
CONTINUOUS
 10
-13.9810194482
 20
10.4
 11
-13.9810194482
 21
9.6
  0
LINE
  5
264
100
AcDbEntity
  8
0
100
AcDbLine
 62
7
  6
CONTINUOUS
 10
-13.9810194482
 20
-10.4
 11
-13.9810194482
 21
-9.6
  0
LINE
  5
265
100
AcDbEntity
  8
0
100
AcDbLine
 62
253
  6
CONTINUOUS
 10
-13.8698659872
 20
-13.288846539
 11
-13.8698659872
 21
-9.711153461
  0
LINE
  5
266
100
AcDbEntity
  8
0
100
AcDbLine
 62
253
  6
CONTINUOUS
 10
-13.8698659872
 20
9.711153461
 11
-13.8698659872
 21
13.288846539
  0
LINE
  5
267
100
AcDbEntity
  8
0
100
AcDbLine
 62
253
  6
CONTINUOUS
 10
-13.4704141733
 20
-13.2689805518
 11
-13.4704141733
 21
-9.7310194482
  0
LINE
  5
268
100
AcDbEntity
  8
0
100
AcDbLine
 62
253
  6
CONTINUOUS
 10
-13.4704141733
 20
9.7310194482
 11
-13.4704141733
 21
13.2689805518
  0
LINE
  5
269
100
AcDbEntity
  8
0
100
AcDbLine
 62
253
  6
CONTINUOUS
 10
-13.2524579547
 20
-13.2689805518
 11
-13.2524579547
 21
-9.7310194482
  0
LINE
  5
26A
100
AcDbEntity
  8
0
100
AcDbLine
 62
253
  6
CONTINUOUS
 10
-13.2524579547
 20
9.7310194482
 11
-13.2524579547
 21
13.2689805518
  0
LINE
  5
26B
100
AcDbEntity
  8
0
100
AcDbLine
 62
7
  6
CONTINUOUS
 10
-13.15
 20
13.4025387708
 11
-13.15
 21
13.3004252194
  0
LINE
  5
26C
100
AcDbEntity
  8
0
100
AcDbLine
 62
7
  6
CONTINUOUS
 10
-13.15
 20
-9.6
 11
-13.15
 21
-9.6995747806
  0
LINE
  5
26D
100
AcDbEntity
  8
0
100
AcDbLine
 62
7
  6
CONTINUOUS
 10
-13.15
 20
-13.4025387708
 11
-13.15
 21
-13.3004252194
  0
LINE
  5
26E
100
AcDbEntity
  8
0
100
AcDbLine
 62
7
  6
CONTINUOUS
 10
-13.15
 20
9.6
 11
-13.15
 21
9.6995747806
  0
LINE
  5
26F
100
AcDbEntity
  8
0
100
AcDbLine
 62
253
  6
CONTINUOUS
 10
-13.1110365985
 20
-13.2720505284
 11
-13.1110365985
 21
-9.7279494716
  0
LINE
  5
270
100
AcDbEntity
  8
0
100
AcDbLine
 62
253
  6
CONTINUOUS
 10
-13.1110365985
 20
9.7279494716
 11
-13.1110365985
 21
13.2720505284
  0
LINE
  5
271
100
AcDbEntity
  8
0
100
AcDbLine
 62
253
  6
CONTINUOUS
 10
-12.9106909682
 20
-13.282550198
 11
-12.9106909682
 21
-9.717449802
  0
LINE
  5
272
100
AcDbEntity
  8
0
100
AcDbLine
 62
253
  6
CONTINUOUS
 10
-12.9106909682
 20
9.717449802
 11
-12.9106909682
 21
13.282550198
  0
LINE
  5
273
100
AcDbEntity
  8
0
100
AcDbLine
 62
253
  6
CONTINUOUS
 10
-12.8521427854
 20
-13.2897788489
 11
-12.8521427854
 21
-9.7102211511
  0
LINE
  5
274
100
AcDbEntity
  8
0
100
AcDbLine
 62
253
  6
CONTINUOUS
 10
-12.8521427854
 20
9.7102211511
 11
-12.8521427854
 21
13.2897788489
  0
LINE
  5
275
100
AcDbEntity
  8
0
100
AcDbLine
 62
7
  6
CONTINUOUS
 10
-12.85
 20
-9.7037875673
 11
-12.85
 21
-13.2962124327
  0
LINE
  5
276
100
AcDbEntity
  8
0
100
AcDbLine
 62
7
  6
CONTINUOUS
 10
-12.85
 20
9.7037875673
 11
-12.85
 21
13.2962124327
  0
LWPOLYLINE
  5
277
100
AcDbEntity
  8
0
100
AcDbPolyline
 62
7
  6
CONTINUOUS
 90
4
 70
0
 10
3.3306125527
 20
17.502062735
 10
3.3372149867
 20
17.5064177321
 10
3.3439016194
 20
17.5110594634
 10
3.3506757513
 20
17.5160049571
  0
LINE
  5
278
100
AcDbEntity
  8
0
100
AcDbLine
 62
7
  6
CONTINUOUS
 10
13.1110365985
 20
-13.2720505284
 11
12.9106909682
 21
-13.282550198
  0
LINE
  5
279
100
AcDbEntity
  8
0
100
AcDbLine
 62
7
  6
CONTINUOUS
 10
-13.15
 20
-13.3004252194
 11
-12.85
 21
-13.2962124327
  0
LINE
  5
27A
100
AcDbEntity
  8
0
100
AcDbLine
 62
7
  6
CONTINUOUS
 10
-13.983558219
 20
-13.4025387708
 11
-13.15
 21
-13.4025387708
  0
LINE
  5
27B
100
AcDbEntity
  8
0
100
AcDbLine
 62
7
  6
CONTINUOUS
 10
13.15
 20
-13.4025387708
 11
13.983558219
 21
-13.4025387708
  0
LINE
  5
27C
100
AcDbEntity
  8
0
100
AcDbLine
 62
7
  6
CONTINUOUS
 10
13.4704141733
 20
-13.2689805518
 11
13.2524579547
 21
-13.2689805518
  0
LINE
  5
27D
100
AcDbEntity
  8
0
100
AcDbLine
 62
7
  6
CONTINUOUS
 10
-13.2524579547
 20
-13.2689805518
 11
-13.4704141733
 21
-13.2689805518
  0
LINE
  5
27E
100
AcDbEntity
  8
0
100
AcDbLine
 62
7
  6
CONTINUOUS
 10
12.85
 20
-13.2962124327
 11
13.15
 21
-13.3004252194
  0
LINE
  5
27F
100
AcDbEntity
  8
0
100
AcDbLine
 62
7
  6
CONTINUOUS
 10
-12.9106909682
 20
-13.282550198
 11
-13.1110365985
 21
-13.2720505284
  0
LINE
  5
280
100
AcDbEntity
  8
0
100
AcDbLine
 62
7
  6
CONTINUOUS
 10
1.46625
 20
-16.0478723347
 11
1.3099998808
 21
-15.9840425551
  0
LINE
  5
281
100
AcDbEntity
  8
0
100
AcDbLine
 62
7
  6
CONTINUOUS
 10
1.3725
 20
-15.3457446694
 11
1.2475001192
 21
-15.2819148898
  0
LINE
  5
282
100
AcDbEntity
  8
0
100
AcDbLine
 62
7
  6
CONTINUOUS
 10
2.77875
 20
-15.3457446694
 11
2.6537501192
 21
-15.2819148898
  0
LINE
  5
283
100
AcDbEntity
  8
0
100
AcDbLine
 62
7
  6
CONTINUOUS
 10
-0.6587499404
 20
-15.3776595592
 11
-0.8150000596
 21
-15.2819148898
  0
LINE
  5
284
100
AcDbEntity
  8
0
100
AcDbLine
 62
7
  6
CONTINUOUS
 10
-1.15875
 20
-16.5585106388
 11
-1.2525
 21
-16.4946808591
  0
LINE
  5
285
100
AcDbEntity
  8
0
100
AcDbLine
 62
7
  6
CONTINUOUS
 10
-2.1587500298
 20
-15.4414893389
 11
-2.0650000298
 21
-15.5053191185
  0
LINE
  5
286
100
AcDbEntity
  8
0
100
AcDbLine
 62
7
  6
CONTINUOUS
 10
0.52875
 20
-16.5904255286
 11
0.6225
 21
-16.6542553194
  0
LINE
  5
287
100
AcDbEntity
  8
0
100
AcDbLine
 62
7
  6
CONTINUOUS
 10
-0.8462499404
 20
-15.4414893389
 11
-0.7524999404
 21
-15.5053191185
  0
LINE
  5
288
100
AcDbEntity
  8
0
100
AcDbLine
 62
7
  6
CONTINUOUS
 10
1.2475001192
 20
-16.0797872245
 11
1.3412501192
 21
-16.1436170042
  0
LINE
  5
289
100
AcDbEntity
  8
0
100
AcDbLine
 62
7
  6
CONTINUOUS
 10
-1.44
 20
-16.526595749
 11
-1.34625
 21
-16.6223404296
  0
LWPOLYLINE
  5
28A
100
AcDbEntity
  8
0
100
AcDbPolyline
 62
7
  6
CONTINUOUS
 90
10
 70
0
 10
0.7441745085
 20
15.5288156973
 10
0.7744665553
 20
15.5589496789
 10
0.8086491877
 20
15.5864107576
 10
0.8467224056
 20
15.6111991498
 10
0.8893426895
 20
15.6337850515
 10
0.935853559
 20
15.6536986205
 10
0.9842855729
 20
15.669530068
 10
1.033982251
 20
15.6808096112
 10
1.0856000735
 20
15.6880073793
 10
1.1391390405
 20
15.6911234612
  0
LINE
  5
28B
100
AcDbEntity
  8
0
100
AcDbLine
 62
7
  6
CONTINUOUS
 10
-0.237454
 20
15.949703
 11
-1.079521
 21
15.121559
  0
LINE
  5
28C
100
AcDbEntity
  8
0
100
AcDbLine
 62
7
  6
CONTINUOUS
 10
-0.599511
 20
15.168115
 11
0.217376
 21
15.949703
  0
LINE
  5
28D
100
AcDbEntity
  8
0
100
AcDbLine
 62
7
  6
CONTINUOUS
 10
-1.079521
 20
14.70857
 11
-0.836947
 21
14.934799
  0
LWPOLYLINE
  5
28E
100
AcDbEntity
  8
0
100
AcDbPolyline
 62
7
  6
CONTINUOUS
 90
54
 70
0
 10
3.3506757513
 20
17.5160049571
 10
3.3575340819
 20
17.5212371746
 10
3.3644657806
 20
17.5267815686
 10
3.3714665357
 20
17.5326398918
 10
3.378540659
 20
17.5388103782
 10
3.3856902554
 20
17.5453132009
 10
3.3929224047
 20
17.5521416075
 10
3.4002300271
 20
17.559302334
 10
3.4075939882
 20
17.5668357843
 10
3.4150199447
 20
17.5747357627
 10
3.42250224
 20
17.5830084434
 10
3.43000477
 20
17.591712782
 10
3.4375323141
 20
17.6008482864
 10
3.445080093
 20
17.6104154194
 10
3.4525976651
 20
17.6204745649
 10
3.4600916674
 20
17.6310268764
 10
3.467555463
 20
17.6420711617
 10
3.474918699
 20
17.6536642792
 10
3.4821853537
 20
17.6657990883
 10
3.4893514487
 20
17.6784826801
 10
3.496334696
 20
17.6917932532
 10
3.5031480858
 20
17.7057392477
 10
3.5097786277
 20
17.7203121574
 10
3.5161050632
 20
17.7355647528
 10
3.5221323767
 20
17.7514943524
 10
3.5278555837
 20
17.7681035556
 10
3.5331384721
 20
17.7854530442
 10
3.5379895841
 20
17.8035683987
 10
3.5424003775
 20
17.8224239348
 10
3.5462090139
 20
17.8420034318
 10
3.5494113726
 20
17.8622905677
 10
3.5520115743
 20
17.8833015513
 10
3.5538601423
 20
17.9050689537
 10
3.5549839782
 20
17.927565903
 10
3.5553561805
 20
17.9508191391
 10
3.5547465678
 20
17.9749416333
 10
3.553250988
 20
17.9999709607
 10
3.5507735932
 20
18.025869372
 10
3.546796659
 20
18.0526368359
 10
3.5413378481
 20
18.0804265966
 10
3.5343794978
 20
18.1090852058
 10
3.5253508956
 20
18.1381526407
 10
3.5141341442
 20
18.1677854593
 10
3.5008471409
 20
18.1978269888
 10
3.4852728651
 20
18.2273475218
 10
3.4673446527
 20
18.2562628775
 10
3.4471291678
 20
18.2846573592
 10
3.4246093818
 20
18.3118541728
 10
3.3995975944
 20
18.3379810384
 10
3.372281506
 20
18.362910481
 10
3.3432071895
 20
18.3855830901
 10
3.3125566693
 20
18.405645906
 10
3.280147921
 20
18.4234523007
 10
3.2459809447
 20
18.4390024381
  0
LINE
  5
28F
100
AcDbEntity
  8
0
100
AcDbLine
 62
7
  6
CONTINUOUS
 10
-21.0272527777
 20
-10.4032733012
 11
-13.9908473377
 21
-10.4032733012
  0
LINE
  5
290
100
AcDbEntity
  8
0
100
AcDbLine
 62
7
  6
CONTINUOUS
 10
13.9908473377
 20
-10.4032733012
 11
21.0272527777
 21
-10.4032733012
  0
LINE
  5
291
100
AcDbEntity
  8
0
100
AcDbLine
 62
7
  6
CONTINUOUS
 10
-21.0321633529
 20
-10.4
 11
-13.9810194482
 21
-10.4
  0
LINE
  5
292
100
AcDbEntity
  8
0
100
AcDbLine
 62
7
  6
CONTINUOUS
 10
-12.85
 20
-10.4
 11
-6.0
 21
-10.4
  0
LINE
  5
293
100
AcDbEntity
  8
0
100
AcDbLine
 62
7
  6
CONTINUOUS
 10
6.0
 20
-10.4
 11
12.85
 21
-10.4
  0
LINE
  5
294
100
AcDbEntity
  8
0
100
AcDbLine
 62
7
  6
CONTINUOUS
 10
13.9810194482
 20
-10.4
 11
21.0321633529
 21
-10.4
  0
LINE
  5
295
100
AcDbEntity
  8
0
100
AcDbLine
 62
7
  6
CONTINUOUS
 10
1.2162498808
 20
-15.4414893389
 11
1.3099998808
 21
-15.5053191185
  0
LINE
  5
296
100
AcDbEntity
  8
0
100
AcDbLine
 62
7
  6
CONTINUOUS
 10
2.59125
 20
-15.4414893389
 11
2.685
 21
-15.5053191185
  0
LINE
  5
297
100
AcDbEntity
  8
0
100
AcDbLine
 62
7
  6
CONTINUOUS
 10
-1.8462499702
 20
-15.4734042287
 11
-1.9712500298
 21
-15.3457446694
  0
LINE
  5
298
100
AcDbEntity
  8
0
100
AcDbLine
 62
7
  6
CONTINUOUS
 10
-0.5649999404
 20
-15.4734042287
 11
-0.6587499404
 21
-15.3776595592
  0
LINE
  5
299
100
AcDbEntity
  8
0
100
AcDbLine
 62
7
  6
CONTINUOUS
 10
0.6850001192
 20
-16.526595749
 11
0.6225
 21
-16.462765947
  0
LINE
  5
29A
100
AcDbEntity
  8
0
100
AcDbLine
 62
7
  6
CONTINUOUS
 10
-12.85
 20
-9.7037875673
 11
-12.8521427854
 21
-9.7102211511
  0
LWPOLYLINE
  5
29B
100
AcDbEntity
  8
0
100
AcDbPolyline
 62
7
  6
CONTINUOUS
 90
10
 70
0
 10
0.4610032079
 20
15.6984891933
 10
0.4165831452
 20
15.6419112044
 10
0.3762861978
 20
15.5796255757
 10
0.3401123658
 20
15.5116312729
 10
0.3075020914
 20
15.4373172554
 10
0.2790149324
 20
15.3572921696
 10
0.2563295618
 20
15.2733848265
 10
0.2400055372
 20
15.1862044395
 10
0.2294833009
 20
15.0951401543
 10
0.224762853
 20
15.0001910737
  0
LWPOLYLINE
  5
29C
100
AcDbEntity
  8
0
100
AcDbPolyline
 62
7
  6
CONTINUOUS
 90
10
 70
0
 10
1.5322267946
 20
14.4712078515
 10
1.5019892714
 20
14.44109843
 10
1.4678749359
 20
14.4136468447
 10
1.4298837881
 20
14.3888532836
 10
1.3873263761
 20
14.3662371437
 10
1.3408921518
 20
14.3462793306
 10
1.2926494705
 20
14.3304223377
 10
1.2432877841
 20
14.3191471194
 10
1.1921176408
 20
14.3119730115
 10
1.1391390405
 20
14.3089000876
  0
LINE
  5
29D
100
AcDbEntity
  8
0
100
AcDbLine
 62
7
  6
CONTINUOUS
 10
-12.9106909682
 20
-9.717449802
 11
-13.1110365985
 21
-9.7279494716
  0
LINE
  5
29E
100
AcDbEntity
  8
0
100
AcDbLine
 62
7
  6
CONTINUOUS
 10
12.85
 20
-9.7037875673
 11
13.15
 21
-9.6995747806
  0
LINE
  5
29F
100
AcDbEntity
  8
0
100
AcDbLine
 62
7
  6
CONTINUOUS
 10
13.4704141733
 20
-9.7310194482
 11
13.2524579547
 21
-9.7310194482
  0
LINE
  5
2A0
100
AcDbEntity
  8
0
100
AcDbLine
 62
7
  6
CONTINUOUS
 10
-13.2524579547
 20
-9.7310194482
 11
-13.4704141733
 21
-9.7310194482
  0
LINE
  5
2A1
100
AcDbEntity
  8
0
100
AcDbLine
 62
7
  6
CONTINUOUS
 10
21.0321633529
 20
-9.6
 11
13.9810194482
 21
-9.6
  0
LINE
  5
2A2
100
AcDbEntity
  8
0
100
AcDbLine
 62
7
  6
CONTINUOUS
 10
13.15
 20
-9.6
 11
6.0
 21
-9.6
  0
LINE
  5
2A3
100
AcDbEntity
  8
0
100
AcDbLine
 62
7
  6
CONTINUOUS
 10
-6.0
 20
-9.6
 11
-13.15
 21
-9.6
  0
LINE
  5
2A4
100
AcDbEntity
  8
0
100
AcDbLine
 62
7
  6
CONTINUOUS
 10
-13.9810194482
 20
-9.6
 11
-21.0321633529
 21
-9.6
  0
LINE
  5
2A5
100
AcDbEntity
  8
0
100
AcDbLine
 62
7
  6
CONTINUOUS
 10
-21.0267229342
 20
-9.5891116965
 11
-6.0
 21
-9.5891116965
  0
LINE
  5
2A6
100
AcDbEntity
  8
0
100
AcDbLine
 62
7
  6
CONTINUOUS
 10
6.0
 20
-9.5891116965
 11
21.0267229342
 21
-9.5891116965
  0
LINE
  5
2A7
100
AcDbEntity
  8
0
100
AcDbLine
 62
253
  6
CONTINUOUS
 10
-21.0266653968
 20
-9.4772
 11
-0.2123208892
 21
-9.4772
  0
LINE
  5
2A8
100
AcDbEntity
  8
0
100
AcDbLine
 62
253
  6
CONTINUOUS
 10
0.2123208892
 20
-9.4772
 11
21.0266653968
 21
-9.4772
  0
LINE
  5
2A9
100
AcDbEntity
  8
0
100
AcDbLine
 62
7
  6
CONTINUOUS
 10
4.1
 20
-8.5
 11
1.4142135624
 21
-8.5
  0
LINE
  5
2AA
100
AcDbEntity
  8
0
100
AcDbLine
 62
7
  6
CONTINUOUS
 10
-1.4142135624
 20
-8.5
 11
-4.1
 21
-8.5
  0
LINE
  5
2AB
100
AcDbEntity
  8
0
100
AcDbLine
 62
7
  6
CONTINUOUS
 10
-13.15
 20
-9.6995747806
 11
-12.85
 21
-9.7037875673
  0
LINE
  5
2AC
100
AcDbEntity
  8
0
100
AcDbLine
 62
7
  6
CONTINUOUS
 10
13.1110365985
 20
-9.7279494716
 11
12.9106909682
 21
-9.717449802
  0
LINE
  5
2AD
100
AcDbEntity
  8
0
100
AcDbLine
 62
7
  6
CONTINUOUS
 10
1.4974998808
 20
-15.4734042287
 11
1.3725
 21
-15.3457446694
  0
LINE
  5
2AE
100
AcDbEntity
  8
0
100
AcDbLine
 62
7
  6
CONTINUOUS
 10
2.9037498808
 20
-15.4734042287
 11
2.77875
 21
-15.3457446694
  0
LINE
  5
2AF
100
AcDbEntity
  8
0
100
AcDbLine
 62
7
  6
CONTINUOUS
 10
-2.0650000298
 20
-15.5053191185
 11
-2.0025
 21
-15.6010637879
  0
LINE
  5
2B0
100
AcDbEntity
  8
0
100
AcDbLine
 62
7
  6
CONTINUOUS
 10
-1.2525
 20
-16.4946808591
 11
-1.3775000596
 21
-16.3031914979
  0
LINE
  5
2B1
100
AcDbEntity
  8
0
100
AcDbLine
 62
7
  6
CONTINUOUS
 10
-0.7524999404
 20
-15.5053191185
 11
-0.6275000596
 21
-15.6968085468
  0
LINE
  5
2B2
100
AcDbEntity
  8
0
100
AcDbLine
 62
7
  6
CONTINUOUS
 10
0.4662498808
 20
-16.4946808591
 11
0.52875
 21
-16.5904255286
  0
LINE
  5
2B3
100
AcDbEntity
  8
0
100
AcDbLine
 62
7
  6
CONTINUOUS
 10
-1.5025000298
 20
-16.3989361674
 11
-1.44
 21
-16.526595749
  0
LINE
  5
2B4
100
AcDbEntity
  8
0
100
AcDbLine
 62
7
  6
CONTINUOUS
 10
-12.85
 20
9.7037875673
 11
-12.8521427854
 21
9.7102211511
  0
LINE
  5
2B5
100
AcDbEntity
  8
0
100
AcDbLine
 62
7
  6
CONTINUOUS
 10
-2.554611
 20
18.481352
 11
-2.927819
 21
17.173629
  0
LINE
  5
2B6
100
AcDbEntity
  8
0
100
AcDbLine
 62
7
  6
CONTINUOUS
 10
-2.768996
 20
16.581506
 11
-2.15831
 21
18.481352
  0
LINE
  5
2B7
100
AcDbEntity
  8
0
100
AcDbLine
 62
7
  6
CONTINUOUS
 10
-0.044336
 20
18.481352
 11
-0.440908
 21
17.426552
  0
LINE
  5
2B8
100
AcDbEntity
  8
0
100
AcDbLine
 62
7
  6
CONTINUOUS
 10
-0.415264
 20
16.581506
 11
0.056261
 21
17.816898
  0
LWPOLYLINE
  5
2B9
100
AcDbEntity
  8
0
100
AcDbPolyline
 62
7
  6
CONTINUOUS
 90
10
 70
0
 10
1.8142796834
 20
14.3005718861
 10
1.8588954979
 20
14.3571635922
 10
1.8993728203
 20
14.4194991587
 10
1.9357116507
 20
14.48757765
 10
1.9684749966
 20
14.562005421
 10
1.9970998504
 20
14.6421738497
 10
2.0198971898
 20
14.7262597541
 10
2.0363040072
 20
14.8136549298
 10
2.0468833102
 20
14.9049657253
 10
2.0516350988
 20
15.0001910737
  0
LINE
  5
2BA
100
AcDbEntity
  8
0
100
AcDbLine
 62
7
  6
CONTINUOUS
 10
1.5287501192
 20
-16.1436170042
 11
1.46625
 21
-16.0478723347
  0
LINE
  5
2BB
100
AcDbEntity
  8
0
100
AcDbLine
 62
7
  6
CONTINUOUS
 10
1.3099998808
 20
-15.5053191185
 11
1.3725
 21
-15.6010637879
  0
LINE
  5
2BC
100
AcDbEntity
  8
0
100
AcDbLine
 62
7
  6
CONTINUOUS
 10
2.685
 20
-15.5053191185
 11
2.7475001192
 21
-15.6010637879
  0
LINE
  5
2BD
100
AcDbEntity
  8
0
100
AcDbLine
 62
7
  6
CONTINUOUS
 10
-0.5025
 20
-15.6010637879
 11
-0.5649999404
 21
-15.4734042287
  0
LINE
  5
2BE
100
AcDbEntity
  8
0
100
AcDbLine
 62
7
  6
CONTINUOUS
 10
0.6225
 20
-16.462765947
 11
0.5912501192
 21
-16.3989361674
  0
LINE
  5
2BF
100
AcDbEntity
  8
0
100
AcDbLine
 62
7
  6
CONTINUOUS
 10
-1.53375
 20
-16.3031914979
 11
-1.5025000298
 21
-16.3989361674
  0
LINE
  5
2C0
100
AcDbEntity
  8
0
100
AcDbLine
 62
7
  6
CONTINUOUS
 10
-6.0
 20
-10.4
 11
-6.0
 21
-9.5891116965
  0
LINE
  5
2C1
100
AcDbEntity
  8
0
100
AcDbLine
 62
7
  6
CONTINUOUS
 10
-6.0
 20
9.5891116965
 11
-6.0
 21
10.4
  0
LINE
  5
2C2
100
AcDbEntity
  8
0
100
AcDbLine
 62
7
  6
CONTINUOUS
 10
-4.6
 20
-8.0
 11
-4.6
 21
-3.75
  0
LINE
  5
2C3
100
AcDbEntity
  8
0
100
AcDbLine
 62
7
  6
CONTINUOUS
 10
-4.6
 20
3.75
 11
-4.6
 21
8.0
  0
LINE
  5
2C4
100
AcDbEntity
  8
0
100
AcDbLine
 62
7
  6
CONTINUOUS
 10
-4.5
 20
13.55
 11
-4.5
 21
19.05
  0
LINE
  5
2C5
100
AcDbEntity
  8
0
100
AcDbLine
 62
7
  6
CONTINUOUS
 10
-3.919354
 20
15.949703
 11
-3.919354
 21
14.050297
  0
LINE
  5
2C6
100
AcDbEntity
  8
0
100
AcDbLine
 62
7
  6
CONTINUOUS
 10
1.183876
 20
18.481352
 11
0.587963
 21
16.581506
  0
LINE
  5
2C7
100
AcDbEntity
  8
0
100
AcDbLine
 62
7
  6
CONTINUOUS
 10
13.9908473377
 20
10.4032733012
 11
13.9810194482
 21
10.4
  0
LINE
  5
2C8
100
AcDbEntity
  8
0
100
AcDbLine
 62
7
  6
CONTINUOUS
 10
13.9908473377
 20
-10.4032733012
 11
13.9810194482
 21
-10.4
  0
LINE
  5
2C9
100
AcDbEntity
  8
0
100
AcDbLine
 62
7
  6
CONTINUOUS
 10
1.3412501192
 20
-16.1436170042
 11
1.4037498808
 21
-16.2712766081
  0
LINE
  5
2CA
100
AcDbEntity
  8
0
100
AcDbLine
 62
7
  6
CONTINUOUS
 10
-0.4712499404
 20
-15.6968085468
 11
-0.5025
 21
-15.6010637879
  0
LINE
  5
2CB
100
AcDbEntity
  8
0
100
AcDbLine
 62
7
  6
CONTINUOUS
 10
0.435
 20
-16.3989361674
 11
0.4662498808
 21
-16.4946808591
  0
LINE
  5
2CC
100
AcDbEntity
  8
0
100
AcDbLine
 62
7
  6
CONTINUOUS
 10
-1.815
 20
-15.6010637879
 11
-1.8462499702
 21
-15.4734042287
  0
LINE
  5
2CD
100
AcDbEntity
  8
0
100
AcDbLine
 62
7
  6
CONTINUOUS
 10
-1.5649999702
 20
-16.1436170042
 11
-1.53375
 21
-16.3031914979
  0
LINE
  5
2CE
100
AcDbEntity
  8
0
100
AcDbLine
 62
7
  6
CONTINUOUS
 10
-1.3775000596
 20
-16.3031914979
 11
-1.4087499404
 21
-16.1117021143
  0
LINE
  5
2CF
100
AcDbEntity
  8
0
100
AcDbLine
 62
7
  6
CONTINUOUS
 10
-3.580146
 20
14.351743
 11
-3.580146
 21
14.874477
  0
LINE
  5
2D0
100
AcDbEntity
  8
0
100
AcDbLine
 62
7
  6
CONTINUOUS
 10
-3.580146
 20
15.175955
 11
-3.580146
 21
15.648249
  0
LINE
  5
2D1
100
AcDbEntity
  8
0
100
AcDbLine
 62
7
  6
CONTINUOUS
 10
-3.5
 20
-17.5
 11
-3.5
 21
-14.5
  0
LINE
  5
2D2
100
AcDbEntity
  8
0
100
AcDbLine
 62
7
  6
CONTINUOUS
 10
-2.94
 20
-16.5904255286
 11
-2.94
 21
-16.75
  0
LINE
  5
2D3
100
AcDbEntity
  8
0
100
AcDbLine
 62
7
  6
CONTINUOUS
 10
-2.645022
 20
14.874484
 11
-2.645022
 21
15.175948
  0
LINE
  5
2D4
100
AcDbEntity
  8
0
100
AcDbLine
 62
7
  6
CONTINUOUS
 10
-2.576958
 20
15.648245
 11
-2.576958
 21
15.949703
  0
LINE
  5
2D5
100
AcDbEntity
  8
0
100
AcDbLine
 62
7
  6
CONTINUOUS
 10
-2.569324
 20
14.050297
 11
-2.569324
 21
14.351755
  0
LINE
  5
2D6
100
AcDbEntity
  8
0
100
AcDbLine
 62
7
  6
CONTINUOUS
 10
-2.161366
 20
15.949703
 11
-2.161366
 21
14.050297
  0
LINE
  5
2D7
100
AcDbEntity
  8
0
100
AcDbLine
 62
7
  6
CONTINUOUS
 10
-2.011141
 20
18.481466
 11
-2.011141
 21
16.581506
  0
LINE
  5
2D8
100
AcDbEntity
  8
0
100
AcDbLine
 62
7
  6
CONTINUOUS
 10
-2.0025
 20
-15.6010637879
 11
-2.0025
 21
-15.664893657
  0
LINE
  5
2D9
100
AcDbEntity
  8
0
100
AcDbLine
 62
7
  6
CONTINUOUS
 10
-1.822139
 20
14.050297
 11
-1.822139
 21
15.949703
  0
LINE
  5
2DA
100
AcDbEntity
  8
0
100
AcDbLine
 62
7
  6
CONTINUOUS
 10
-1.021691
 20
16.581506
 11
-0.93611
 21
17.82207
  0
LINE
  5
2DB
100
AcDbEntity
  8
0
100
AcDbLine
 62
7
  6
CONTINUOUS
 10
-1.229536
 20
18.481352
 11
-1.401081
 21
16.581506
  0
LINE
  5
2DC
100
AcDbEntity
  8
0
100
AcDbLine
 62
7
  6
CONTINUOUS
 10
1.170783
 20
17.254266
 11
1.368243
 21
17.959323
  0
LINE
  5
2DD
100
AcDbEntity
  8
0
100
AcDbLine
 62
7
  6
CONTINUOUS
 10
0.980233
 20
16.581506
 11
1.089662
 21
16.960783
  0
LINE
  5
2DE
100
AcDbEntity
  8
0
100
AcDbLine
 62
7
  6
CONTINUOUS
 10
5.1
 20
-3.25
 11
21.3
 21
-3.25
  0
LINE
  5
2DF
100
AcDbEntity
  8
0
100
AcDbLine
 62
7
  6
CONTINUOUS
 10
-5.1
 20
-3.25
 11
-21.3
 21
-3.25
  0
LINE
  5
2E0
100
AcDbEntity
  8
0
100
AcDbLine
 62
7
  6
CONTINUOUS
 10
1.56
 20
-16.2712766081
 11
1.5287501192
 21
-16.1436170042
  0
LINE
  5
2E1
100
AcDbEntity
  8
0
100
AcDbLine
 62
7
  6
CONTINUOUS
 10
1.5287501192
 20
-15.6010637879
 11
1.4974998808
 21
-15.4734042287
  0
LINE
  5
2E2
100
AcDbEntity
  8
0
100
AcDbLine
 62
7
  6
CONTINUOUS
 10
-0.4400000596
 20
-15.8563829958
 11
-0.4712499404
 21
-15.6968085468
  0
LINE
  5
2E3
100
AcDbEntity
  8
0
100
AcDbLine
 62
7
  6
CONTINUOUS
 10
-0.6275000596
 20
-15.6968085468
 11
-0.59625
 21
-15.8882978857
  0
LINE
  5
2E4
100
AcDbEntity
  8
0
100
AcDbLine
 62
7
  6
CONTINUOUS
 10
-1.815
 20
-16.75
 11
-1.815
 21
-16.5904255286
  0
LINE
  5
2E5
100
AcDbEntity
  8
0
100
AcDbLine
 62
7
  6
CONTINUOUS
 10
-1.815
 20
-15.664893657
 11
-1.815
 21
-15.6010637879
  0
LINE
  5
2E6
100
AcDbEntity
  8
0
100
AcDbLine
 62
7
  6
CONTINUOUS
 10
-1.614569
 20
16.581506
 11
-1.614569
 21
18.481466
  0
LINE
  5
2E7
100
AcDbEntity
  8
0
100
AcDbLine
 62
7
  6
CONTINUOUS
 10
-1.5649999702
 20
-15.8563829958
 11
-1.5649999702
 21
-16.1436170042
  0
LINE
  5
2E8
100
AcDbEntity
  8
0
100
AcDbLine
 62
7
  6
CONTINUOUS
 10
-1.418727
 20
15.949703
 11
-1.418727
 21
14.050297
  0
LINE
  5
2E9
100
AcDbEntity
  8
0
100
AcDbLine
 62
7
  6
CONTINUOUS
 10
-1.4087499404
 20
-16.1117021143
 11
-1.4087499404
 21
-15.8882978857
  0
LINE
  5
2EA
100
AcDbEntity
  8
0
100
AcDbLine
 62
7
  6
CONTINUOUS
 10
-1.079521
 20
15.121559
 11
-1.079515
 21
15.949703
  0
LINE
  5
2EB
100
AcDbEntity
  8
0
100
AcDbLine
 62
7
  6
CONTINUOUS
 10
-1.079515
 20
14.050297
 11
-1.079521
 21
14.70857
  0
LINE
  5
2EC
100
AcDbEntity
  8
0
100
AcDbLine
 62
7
  6
CONTINUOUS
 10
-0.59625
 20
-15.8882978857
 11
-0.59625
 21
-16.1117021143
  0
LINE
  5
2ED
100
AcDbEntity
  8
0
100
AcDbLine
 62
7
  6
CONTINUOUS
 10
-0.4400000596
 20
-16.1436170042
 11
-0.4400000596
 21
-15.8563829958
  0
LINE
  5
2EE
100
AcDbEntity
  8
0
100
AcDbLine
 62
7
  6
CONTINUOUS
 10
-0.1899999404
 20
-15.4734042287
 11
-0.1899999404
 21
-15.7287234366
  0
LINE
  5
2EF
100
AcDbEntity
  8
0
100
AcDbLine
 62
7
  6
CONTINUOUS
 10
-0.0024999404
 20
-15.5053191185
 11
-0.0024999404
 21
-16.75
  0
LINE
  5
2F0
100
AcDbEntity
  8
0
100
AcDbLine
 62
7
  6
CONTINUOUS
 10
0.1849998808
 20
-16.75
 11
0.1849998808
 21
-15.25
  0
LWPOLYLINE
  5
2F1
100
AcDbEntity
  8
0
100
AcDbPolyline
 62
7
  6
CONTINUOUS
 90
10
 70
0
 10
0.5660984599
 20
15.0000067473
 10
0.5694594931
 20
15.0750179845
 10
0.5771756971
 20
15.1461107893
 10
0.5892470719
 20
15.2132858957
 10
0.6060054469
 20
15.2767398505
 10
0.6271189928
 20
15.3362774643
 10
0.6515922207
 20
15.3913119215
 10
0.6790933012
 20
15.4416481091
 10
0.7099540638
 20
15.487482503
 10
0.7441745085
 20
15.5288156973
  0
LINE
  5
2F2
100
AcDbEntity
  8
0
100
AcDbLine
 62
7
  6
CONTINUOUS
 10
-13.8698659872
 20
-13.288846539
 11
-13.983558219
 21
-13.4025387708
  0
LINE
  5
2F3
100
AcDbEntity
  8
RACCORDO
100
AcDbLine
 62
253
  6
CONTINUOUS
 10
-21.0506086115
 20
-20.610711414
 11
-21.0714422353
 21
-20.6315450378
  0
LINE
  5
2F4
100
AcDbEntity
  8
RACCORDO
100
AcDbLine
 62
253
  6
CONTINUOUS
 10
20.7518754742
 20
20.9117726717
 11
20.7715450378
 21
20.9314422353
  0
LINE
  5
2F5
100
AcDbEntity
  8
RACCORDO
100
AcDbLine
 62
253
  6
CONTINUOUS
 10
-20.7518754742
 20
-20.9117726717
 11
-20.7715450378
 21
-20.9314422353
  0
LINE
  5
2F6
100
AcDbEntity
  8
0
100
AcDbLine
 62
7
  6
CONTINUOUS
 10
-13.8698659872
 20
13.288846539
 11
-13.983558219
 21
13.4025387708
  0
LINE
  5
2F7
100
AcDbEntity
  8
RACCORDO
100
AcDbLine
 62
253
  6
CONTINUOUS
 10
-21.0506086115
 20
20.610711414
 11
-21.0714422353
 21
20.6315450378
  0
LINE
  5
2F8
100
AcDbEntity
  8
RACCORDO
100
AcDbLine
 62
253
  6
CONTINUOUS
 10
20.7518754742
 20
-20.9117726717
 11
20.7715450378
 21
-20.9314422353
  0
LINE
  5
2F9
100
AcDbEntity
  8
RACCORDO
100
AcDbLine
 62
253
  6
CONTINUOUS
 10
-20.7518754742
 20
20.9117726717
 11
-20.7715450378
 21
20.9314422353
  0
LINE
  5
2FA
100
AcDbEntity
  8
0
100
AcDbLine
 62
7
  6
CONTINUOUS
 10
2.9350001192
 20
-15.6010637879
 11
2.9037498808
 21
-15.4734042287
  0
LINE
  5
2FB
100
AcDbEntity
  8
0
100
AcDbLine
 62
7
  6
CONTINUOUS
 10
0.525691
 20
16.581506
 11
0.348034
 21
18.481352
  0
LINE
  5
2FC
100
AcDbEntity
  8
0
100
AcDbLine
 62
7
  6
CONTINUOUS
 10
0.056261
 20
17.816898
 11
0.137738
 21
16.581506
  0
LWPOLYLINE
  5
2FD
100
AcDbEntity
  8
0
100
AcDbPolyline
 62
7
  6
CONTINUOUS
 90
10
 70
0
 10
0.224762853
 20
15.0001910737
 10
0.2296051923
 20
14.9037103369
 10
0.2402855789
 20
14.8115779091
 10
0.256804013
 20
14.7237949764
 10
0.2797673569
 20
14.6399154409
 10
0.3085687483
 20
14.5603874807
 10
0.3413875993
 20
14.4865538605
 10
0.3776170473
 20
14.4188630077
 10
0.4178639551
 20
14.3568687087
 10
0.4621283224
 20
14.3005718862
  0
LINE
  5
2FE
100
AcDbEntity
  8
0
100
AcDbLine
 62
7
  6
CONTINUOUS
 10
0.9349998808
 20
-15.9202127755
 11
0.9349998808
 21
-16.0478723347
  0
LINE
  5
2FF
100
AcDbEntity
  8
0
100
AcDbLine
 62
7
  6
CONTINUOUS
 10
1.3725
 20
-15.6010637879
 11
1.3725
 21
-15.664893657
  0
LINE
  5
300
100
AcDbEntity
  8
0
100
AcDbLine
 62
7
  6
CONTINUOUS
 10
1.4037498808
 20
-16.2712766081
 11
1.4037498808
 21
-16.3989361674
  0
LINE
  5
301
100
AcDbEntity
  8
0
100
AcDbLine
 62
7
  6
CONTINUOUS
 10
1.5287501192
 20
-15.664893657
 11
1.5287501192
 21
-15.6010637879
  0
LINE
  5
302
100
AcDbEntity
  8
0
100
AcDbLine
 62
7
  6
CONTINUOUS
 10
1.56
 20
-16.3989361674
 11
1.56
 21
-16.2712766081
  0
LINE
  5
303
100
AcDbEntity
  8
0
100
AcDbLine
 62
7
  6
CONTINUOUS
 10
1.8100001192
 20
-16.5904255286
 11
1.8100001192
 21
-16.75
  0
LINE
  5
304
100
AcDbEntity
  8
0
100
AcDbLine
 62
7
  6
CONTINUOUS
 10
2.2668846027
 20
18.4591554587
 11
2.2668846027
 21
16.581506254
  0
LWPOLYLINE
  5
305
100
AcDbEntity
  8
0
100
AcDbPolyline
 62
7
  6
CONTINUOUS
 90
10
 70
0
 10
1.7102994918
 20
15.0000067473
 10
1.7069421887
 20
14.9250186531
 10
1.6992289714
 20
14.8539395711
 10
1.6871598399
 20
14.7867703035
 10
1.6704030929
 20
14.7233150141
 10
1.6492904317
 20
14.6637709579
 10
1.6248169609
 20
14.6087285857
 10
1.5973143818
 20
14.5583851798
 10
1.5664509931
 20
14.5125447532
 10
1.5322267946
 20
14.4712078515
  0
LINE
  5
306
100
AcDbEntity
  8
0
100
AcDbLine
 62
7
  6
CONTINUOUS
 10
-1.4087499404
 20
-15.8882978857
 11
-1.3775000596
 21
-15.6968085468
  0
LINE
  5
307
100
AcDbEntity
  8
0
100
AcDbLine
 62
7
  6
CONTINUOUS
 10
-0.59625
 20
-16.1117021143
 11
-0.6275000596
 21
-16.3031914979
  0
LINE
  5
308
100
AcDbEntity
  8
0
100
AcDbLine
 62
7
  6
CONTINUOUS
 10
-1.53375
 20
-15.6968085468
 11
-1.5649999702
 21
-15.8563829958
  0
LINE
  5
309
100
AcDbEntity
  8
0
100
AcDbLine
 62
7
  6
CONTINUOUS
 10
-2.8774999981
 20
-15.4734042287
 11
-2.9087499991
 21
-15.6010637879
  0
LINE
  5
30A
100
AcDbEntity
  8
0
100
AcDbLine
 62
7
  6
CONTINUOUS
 10
-1.8462499702
 20
-15.7925532162
 11
-1.815
 21
-15.664893657
  0
LINE
  5
30B
100
AcDbEntity
  8
RACCORDO
100
AcDbLine
 62
253
  6
CONTINUOUS
 10
21.0506086115
 20
20.610711414
 11
21.0714422353
 21
20.6315450378
  0
LINE
  5
30C
100
AcDbEntity
  8
0
100
AcDbLine
 62
7
  6
CONTINUOUS
 10
13.983558219
 20
13.4025387708
 11
13.8698659872
 21
13.288846539
  0
LINE
  5
30D
100
AcDbEntity
  8
RACCORDO
100
AcDbLine
 62
253
  6
CONTINUOUS
 10
21.0506086115
 20
-20.610711414
 11
21.0714422353
 21
-20.6315450378
  0
LINE
  5
30E
100
AcDbEntity
  8
0
100
AcDbLine
 62
7
  6
CONTINUOUS
 10
13.983558219
 20
-13.4025387708
 11
13.8698659872
 21
-13.288846539
  0
LINE
  5
30F
100
AcDbEntity
  8
0
100
AcDbLine
 62
7
  6
CONTINUOUS
 10
-3.720764
 20
18.481352
 11
-3.118476
 21
16.581506
  0
LINE
  5
310
100
AcDbEntity
  8
0
100
AcDbLine
 62
7
  6
CONTINUOUS
 10
-2.927819
 20
17.173629
 11
-3.289964
 21
18.481352
  0
LWPOLYLINE
  5
311
100
AcDbEntity
  8
0
100
AcDbPolyline
 62
7
  6
CONTINUOUS
 90
10
 70
0
 10
2.0516350988
 20
15.0001910737
 10
2.046796365
 20
15.0966646952
 10
2.0361186901
 20
15.1887901189
 10
2.0196020741
 20
15.2765683706
 10
1.9966392924
 20
15.3604519893
 10
1.9678375697
 20
15.4399903356
 10
1.93501858
 20
15.5138299381
 10
1.8987895481
 20
15.581520542
 10
1.8585432492
 20
15.6435147577
 10
1.8142796835
 20
15.6998136126
  0
LWPOLYLINE
  5
312
100
AcDbEntity
  8
0
100
AcDbPolyline
 62
7
  6
CONTINUOUS
 90
25
 70
0
 10
3.183408459
 20
17.9312194933
 10
3.1834998857
 20
17.9110926868
 10
3.182489627
 20
17.8911125191
 10
3.1803776828
 20
17.8712790026
 10
3.1772769262
 20
17.8514928847
 10
3.1730744842
 20
17.8318534377
 10
3.1674317373
 20
17.8126584837
 10
3.1602218347
 20
17.7938492596
 10
3.1515716272
 20
17.7754845928
 10
3.1415230486
 20
17.7580387451
 10
3.1300155832
 20
17.7415462305
 10
3.1171097467
 20
17.7259726576
 10
3.1030290201
 20
17.7116889812
 10
3.0877196474
 20
17.6988088898
 10
3.0712353846
 20
17.6872188335
 10
3.0539609802
 20
17.6769489236
 10
3.0358950699
 20
17.6680816869
 10
3.017039018
 20
17.6605346951
 10
2.997781666
 20
17.6540906117
 10
2.9782244527
 20
17.648751222
 10
2.9582659393
 20
17.6445147903
 10
2.9379906504
 20
17.6411586814
 10
2.917426761
 20
17.6386086889
 10
2.8965460962
 20
17.6369390385
 10
2.8753486559
 20
17.6361497358
  0
LINE
  5
313
100
AcDbEntity
  8
0
100
AcDbLine
 62
7
  6
CONTINUOUS
 10
2.385447
 20
15.949703
 11
2.385447
 21
14.050297
  0
LINE
  5
314
100
AcDbEntity
  8
0
100
AcDbLine
 62
7
  6
CONTINUOUS
 10
2.6487115031
 20
17.6361497358
 11
2.6487115031
 21
18.1576944232
  0
LINE
  5
315
100
AcDbEntity
  8
0
100
AcDbLine
 62
7
  6
CONTINUOUS
 10
2.6618612449
 20
16.581506254
 11
2.6618612449
 21
17.3250009165
  0
LINE
  5
316
100
AcDbEntity
  8
0
100
AcDbLine
 62
7
  6
CONTINUOUS
 10
2.7475001192
 20
-15.6010637879
 11
2.7475001192
 21
-15.664893657
  0
LINE
  5
317
100
AcDbEntity
  8
0
100
AcDbLine
 62
7
  6
CONTINUOUS
 10
2.9350001192
 20
-16.75
 11
2.9350001192
 21
-16.5904255286
  0
LINE
  5
318
100
AcDbEntity
  8
0
100
AcDbLine
 62
7
  6
CONTINUOUS
 10
2.9350001192
 20
-15.664893657
 11
2.9350001192
 21
-15.6010637879
  0
LINE
  5
319
100
AcDbEntity
  8
0
100
AcDbLine
 62
7
  6
CONTINUOUS
 10
3.2864526086
 20
17.4683373758
 11
3.2864526086
 21
17.4795638075
  0
LINE
  5
31A
100
AcDbEntity
  8
0
100
AcDbLine
 62
7
  6
CONTINUOUS
 10
3.5
 20
-17.5
 11
3.5
 21
-14.5
  0
LINE
  5
31B
100
AcDbEntity
  8
0
100
AcDbLine
 62
7
  6
CONTINUOUS
 10
3.592798
 20
15.949703
 11
3.592791
 21
14.608189
  0
LINE
  5
31C
100
AcDbEntity
  8
0
100
AcDbLine
 62
7
  6
CONTINUOUS
 10
3.919354
 20
14.050297
 11
3.919354
 21
15.949703
  0
LINE
  5
31D
100
AcDbEntity
  8
0
100
AcDbLine
 62
7
  6
CONTINUOUS
 10
2.711999
 20
14.050297
 11
2.716602
 21
15.377168
  0
LINE
  5
31E
100
AcDbEntity
  8
0
100
AcDbLine
 62
7
  6
CONTINUOUS
 10
-0.4712499404
 20
-16.3031914979
 11
-0.4400000596
 21
-16.1436170042
  0
LINE
  5
31F
100
AcDbEntity
  8
0
100
AcDbLine
 62
7
  6
CONTINUOUS
 10
0.4975001192
 20
-15.4734042287
 11
0.4662498808
 21
-15.6010637879
  0
LINE
  5
320
100
AcDbEntity
  8
0
100
AcDbLine
 62
7
  6
CONTINUOUS
 10
-1.5025000298
 20
-15.6010637879
 11
-1.53375
 21
-15.6968085468
  0
LINE
  5
321
100
AcDbEntity
  8
0
100
AcDbLine
 62
7
  6
CONTINUOUS
 10
-5.1
 20
3.25
 11
-21.3
 21
3.25
  0
LINE
  5
322
100
AcDbEntity
  8
0
100
AcDbLine
 62
7
  6
CONTINUOUS
 10
5.1
 20
3.25
 11
21.3
 21
3.25
  0
LINE
  5
323
100
AcDbEntity
  8
0
100
AcDbLine
 62
7
  6
CONTINUOUS
 10
4.5
 20
13.55
 11
4.5
 21
19.05
  0
LINE
  5
324
100
AcDbEntity
  8
0
100
AcDbLine
 62
7
  6
CONTINUOUS
 10
4.6
 20
8.0
 11
4.6
 21
3.75
  0
LINE
  5
325
100
AcDbEntity
  8
0
100
AcDbLine
 62
7
  6
CONTINUOUS
 10
4.6
 20
-3.75
 11
4.6
 21
-8.0
  0
LINE
  5
326
100
AcDbEntity
  8
0
100
AcDbLine
 62
7
  6
CONTINUOUS
 10
6.0
 20
10.4
 11
6.0
 21
9.5891116965
  0
LINE
  5
327
100
AcDbEntity
  8
0
100
AcDbLine
 62
7
  6
CONTINUOUS
 10
6.0
 20
-10.4
 11
6.0
 21
-9.5891116965
  0
LINE
  5
328
100
AcDbEntity
  8
0
100
AcDbLine
 62
7
  6
CONTINUOUS
 10
1.4974998808
 20
-15.7925532162
 11
1.5287501192
 21
-15.664893657
  0
LINE
  5
329
100
AcDbEntity
  8
0
100
AcDbLine
 62
7
  6
CONTINUOUS
 10
1.8724998808
 20
-15.4734042287
 11
1.84125
 21
-15.6010637879
  0
LINE
  5
32A
100
AcDbEntity
  8
0
100
AcDbLine
 62
7
  6
CONTINUOUS
 10
-0.5025
 20
-16.3989361674
 11
-0.4712499404
 21
-16.3031914979
  0
LINE
  5
32B
100
AcDbEntity
  8
0
100
AcDbLine
 62
7
  6
CONTINUOUS
 10
1.5287501192
 20
-16.4946808591
 11
1.56
 21
-16.3989361674
  0
LINE
  5
32C
100
AcDbEntity
  8
0
100
AcDbLine
 62
7
  6
CONTINUOUS
 10
-2.0025
 20
-15.664893657
 11
-2.0650000298
 21
-15.7925532162
  0
LINE
  5
32D
100
AcDbEntity
  8
0
100
AcDbLine
 62
7
  6
CONTINUOUS
 10
-1.44
 20
-15.4734042287
 11
-1.5025000298
 21
-15.6010637879
  0
LINE
  5
32E
100
AcDbEntity
  8
0
100
AcDbLine
 62
7
  6
CONTINUOUS
 10
-2.7525
 20
-15.6010637879
 11
-2.6899999925
 21
-15.5053191185
  0
LINE
  5
32F
100
AcDbEntity
  8
0
100
AcDbLine
 62
7
  6
CONTINUOUS
 10
-13.9908473377
 20
-10.4032733012
 11
-13.9810194482
 21
-10.4
  0
LINE
  5
330
100
AcDbEntity
  8
0
100
AcDbLine
 62
7
  6
CONTINUOUS
 10
-13.9908473377
 20
10.4032733012
 11
-13.9810194482
 21
10.4
  0
LINE
  5
331
100
AcDbEntity
  8
0
100
AcDbLine
 62
7
  6
CONTINUOUS
 10
-0.93611
 20
17.82207
 11
-0.470883
 21
16.581506
  0
LINE
  5
332
100
AcDbEntity
  8
0
100
AcDbLine
 62
7
  6
CONTINUOUS
 10
-0.440908
 20
17.426552
 11
-0.833292
 21
18.481352
  0
LINE
  5
333
100
AcDbEntity
  8
0
100
AcDbLine
 62
7
  6
CONTINUOUS
 10
1.629728
 20
16.960783
 11
1.732461
 21
16.581506
  0
LINE
  5
334
100
AcDbEntity
  8
0
100
AcDbLine
 62
7
  6
CONTINUOUS
 10
1.368243
 20
17.959323
 11
1.550473
 21
17.254266
  0
LINE
  5
335
100
AcDbEntity
  8
0
100
AcDbLine
 62
7
  6
CONTINUOUS
 10
2.9037498808
 20
-15.7925532162
 11
2.9350001192
 21
-15.664893657
  0
LINE
  5
336
100
AcDbEntity
  8
0
100
AcDbLine
 62
7
  6
CONTINUOUS
 10
-0.5649999404
 20
-16.526595749
 11
-0.5025
 21
-16.3989361674
  0
LINE
  5
337
100
AcDbEntity
  8
0
100
AcDbLine
 62
7
  6
CONTINUOUS
 10
1.3725
 20
-15.664893657
 11
1.3099998808
 21
-15.7925532162
  0
LINE
  5
338
100
AcDbEntity
  8
0
100
AcDbLine
 62
7
  6
CONTINUOUS
 10
1.4037498808
 20
-16.3989361674
 11
1.3725
 21
-16.462765947
  0
LINE
  5
339
100
AcDbEntity
  8
0
100
AcDbLine
 62
7
  6
CONTINUOUS
 10
-1.90875
 20
-15.8882978857
 11
-1.8462499702
 21
-15.7925532162
  0
LINE
  5
33A
100
AcDbEntity
  8
0
100
AcDbLine
 62
7
  6
CONTINUOUS
 10
-1.3775000596
 20
-15.6968085468
 11
-1.2525
 21
-15.5053191185
  0
LINE
  5
33B
100
AcDbEntity
  8
0
100
AcDbLine
 62
7
  6
CONTINUOUS
 10
-0.6275000596
 20
-16.3031914979
 11
-0.7524999404
 21
-16.4946808591
  0
LINE
  5
33C
100
AcDbEntity
  8
0
100
AcDbLine
 62
7
  6
CONTINUOUS
 10
-4.1
 20
8.5
 11
-1.4142135624
 21
8.5
  0
LINE
  5
33D
100
AcDbEntity
  8
0
100
AcDbLine
 62
7
  6
CONTINUOUS
 10
1.4142135624
 20
8.5
 11
4.1
 21
8.5
  0
LINE
  5
33E
100
AcDbEntity
  8
0
100
AcDbLine
 62
7
  6
CONTINUOUS
 10
0.221854
 20
14.050297
 11
-0.599511
 21
15.168115
  0
LINE
  5
33F
100
AcDbEntity
  8
0
100
AcDbLine
 62
7
  6
CONTINUOUS
 10
-0.836947
 20
14.934799
 11
-0.204862
 21
14.050297
  0
LWPOLYLINE
  5
340
100
AcDbEntity
  8
0
100
AcDbPolyline
 62
7
  6
CONTINUOUS
 90
5
 70
0
 10
3.0955914198
 20
17.1580121761
 10
3.1145411307
 20
17.0992947921
 10
3.1335242825
 20
17.0392582129
 10
3.1525408752
 20
16.9779021843
 10
3.1715237098
 20
16.9152463244
  0
LINE
  5
341
100
AcDbEntity
  8
0
100
AcDbLine
 62
7
  6
CONTINUOUS
 10
2.150432
 20
16.581506
 11
1.567512
 21
18.481352
  0
LINE
  5
342
100
AcDbEntity
  8
0
100
AcDbLine
 62
7
  6
CONTINUOUS
 10
3.1715237098
 20
16.9152463244
 11
3.2293448496
 21
16.7191591413
  0
LINE
  5
343
100
AcDbEntity
  8
0
100
AcDbLine
 62
7
  6
CONTINUOUS
 10
3.2293448496
 20
16.7191591413
 11
3.2691570653
 21
16.581506254
  0
LWPOLYLINE
  5
344
100
AcDbEntity
  8
0
100
AcDbPolyline
 62
7
  6
CONTINUOUS
 90
24
 70
0
 10
3.5091816557
 20
17.1176212319
 10
3.5032981825
 20
17.1388805676
 10
3.4973911454
 20
17.1594919252
 10
3.4915222172
 20
17.1794123532
 10
3.4856297251
 20
17.1986848977
 10
3.4795286506
 20
17.2174385924
 10
3.4732054619
 20
17.2356842103
 10
3.4666736909
 20
17.253411046
 10
3.459788914
 20
17.2707158992
 10
3.4525615462
 20
17.2876135862
 10
3.4449811725
 20
17.3040893415
 10
3.4368721245
 20
17.3201955825
 10
3.428236816
 20
17.3359970302
 10
3.4190728331
 20
17.3514290032
 10
3.409197266
 20
17.3663498201
 10
3.3985731647
 20
17.3807927004
 10
3.3872374792
 20
17.3947244778
 10
3.3751181498
 20
17.4079039114
 10
3.3621670425
 20
17.4203381521
 10
3.3484322912
 20
17.4320201196
 10
3.3339862379
 20
17.4426872467
 10
3.3188529968
 20
17.4522520412
 10
3.3030084537
 20
17.4608020735
 10
3.2864526086
 20
17.4683373758
  0
LINE
  5
345
100
AcDbEntity
  8
0
100
AcDbLine
 62
7
  6
CONTINUOUS
 10
3.5615018781
 20
16.9215747764
 11
3.5091816557
 21
17.1176212319
  0
LINE
  5
346
100
AcDbEntity
  8
0
100
AcDbLine
 62
7
  6
CONTINUOUS
 10
3.6506135504
 20
16.581506254
 11
3.5615018781
 21
16.9215747764
  0
LINE
  5
347
100
AcDbEntity
  8
0
100
AcDbLine
 62
7
  6
CONTINUOUS
 10
12.8521427854
 20
9.7102211511
 11
12.85
 21
9.7037875673
  0
LINE
  5
348
100
AcDbEntity
  8
0
100
AcDbLine
 62
7
  6
CONTINUOUS
 10
2.7475001192
 20
-15.664893657
 11
2.685
 21
-15.7925532162
  0
LINE
  5
349
100
AcDbEntity
  8
0
100
AcDbLine
 62
7
  6
CONTINUOUS
 10
0.6225
 20
-15.6010637879
 11
0.6850001192
 21
-15.5053191185
  0
LINE
  5
34A
100
AcDbEntity
  8
0
100
AcDbLine
 62
7
  6
CONTINUOUS
 10
1.4350001192
 20
-15.8882978857
 11
1.4974998808
 21
-15.7925532162
  0
LINE
  5
34B
100
AcDbEntity
  8
0
100
AcDbLine
 62
7
  6
CONTINUOUS
 10
1.9975001192
 20
-15.6010637879
 11
2.0599998808
 21
-15.5053191185
  0
LINE
  5
34C
100
AcDbEntity
  8
0
100
AcDbLine
 62
7
  6
CONTINUOUS
 10
1.46625
 20
-16.5904255286
 11
1.5287501192
 21
-16.4946808591
  0
LINE
  5
34D
100
AcDbEntity
  8
0
100
AcDbLine
 62
7
  6
CONTINUOUS
 10
-0.0024999404
 20
-15.25
 11
-0.1899999404
 21
-15.4734042287
  0
LINE
  5
34E
100
AcDbEntity
  8
0
100
AcDbLine
 62
7
  6
CONTINUOUS
 10
-0.1899999404
 20
-15.7287234366
 11
-0.0024999404
 21
-15.5053191185
  0
LINE
  5
34F
100
AcDbEntity
  8
0
100
AcDbLine
 62
7
  6
CONTINUOUS
 10
-2.7525
 20
-15.3457446694
 11
-2.8774999981
 21
-15.4734042287
  0
LINE
  5
350
100
AcDbEntity
  8
0
100
AcDbLine
 62
7
  6
CONTINUOUS
 10
-1.34625
 20
-15.3776595592
 11
-1.44
 21
-15.4734042287
  0
LINE
  5
351
100
AcDbEntity
  8
0
100
AcDbLine
 62
7
  6
CONTINUOUS
 10
-2.0650000298
 20
-15.7925532162
 11
-2.94
 21
-16.5904255286
  0
LINE
  5
352
100
AcDbEntity
  8
0
100
AcDbLine
 62
7
  6
CONTINUOUS
 10
-2.6899999925
 20
-16.5904255286
 11
-1.90875
 21
-15.8882978857
  0
LINE
  5
353
100
AcDbEntity
  8
0
100
AcDbLine
 62
7
  6
CONTINUOUS
 10
13.1110365985
 20
9.7279494716
 11
12.9106909682
 21
9.717449802
  0
LINE
  5
354
100
AcDbEntity
  8
0
100
AcDbLine
 62
7
  6
CONTINUOUS
 10
-13.15
 20
9.6995747806
 11
-12.85
 21
9.7037875673
  0
LINE
  5
355
100
AcDbEntity
  8
0
100
AcDbLine
 62
253
  6
CONTINUOUS
 10
-21.0266653968
 20
9.4772
 11
-0.2123208891
 21
9.4772
  0
LINE
  5
356
100
AcDbEntity
  8
0
100
AcDbLine
 62
253
  6
CONTINUOUS
 10
0.2123208871
 20
9.4772
 11
21.0266653968
 21
9.4772
  0
LINE
  5
357
100
AcDbEntity
  8
0
100
AcDbLine
 62
7
  6
CONTINUOUS
 10
-21.0267229342
 20
9.5891116965
 11
-6.0
 21
9.5891116965
  0
LINE
  5
358
100
AcDbEntity
  8
0
100
AcDbLine
 62
7
  6
CONTINUOUS
 10
6.0
 20
9.5891116965
 11
21.0267229342
 21
9.5891116965
  0
LINE
  5
359
100
AcDbEntity
  8
0
100
AcDbLine
 62
7
  6
CONTINUOUS
 10
-21.0321633529
 20
9.6
 11
-13.9810194482
 21
9.6
  0
LINE
  5
35A
100
AcDbEntity
  8
0
100
AcDbLine
 62
7
  6
CONTINUOUS
 10
-13.15
 20
9.6
 11
-6.0
 21
9.6
  0
LINE
  5
35B
100
AcDbEntity
  8
0
100
AcDbLine
 62
7
  6
CONTINUOUS
 10
6.0
 20
9.6
 11
13.15
 21
9.6
  0
LINE
  5
35C
100
AcDbEntity
  8
0
100
AcDbLine
 62
7
  6
CONTINUOUS
 10
13.9810194482
 20
9.6
 11
21.0321633529
 21
9.6
  0
LINE
  5
35D
100
AcDbEntity
  8
0
100
AcDbLine
 62
7
  6
CONTINUOUS
 10
13.4704141733
 20
9.7310194482
 11
13.2524579547
 21
9.7310194482
  0
LINE
  5
35E
100
AcDbEntity
  8
0
100
AcDbLine
 62
7
  6
CONTINUOUS
 10
-13.2524579547
 20
9.7310194482
 11
-13.4704141733
 21
9.7310194482
  0
LINE
  5
35F
100
AcDbEntity
  8
0
100
AcDbLine
 62
7
  6
CONTINUOUS
 10
21.0321633529
 20
10.4
 11
13.9810194482
 21
10.4
  0
LINE
  5
360
100
AcDbEntity
  8
0
100
AcDbLine
 62
7
  6
CONTINUOUS
 10
12.85
 20
10.4
 11
6.0
 21
10.4
  0
LINE
  5
361
100
AcDbEntity
  8
0
100
AcDbLine
 62
7
  6
CONTINUOUS
 10
-6.0
 20
10.4
 11
-12.85
 21
10.4
  0
LINE
  5
362
100
AcDbEntity
  8
0
100
AcDbLine
 62
7
  6
CONTINUOUS
 10
-13.9810194482
 20
10.4
 11
-21.0321633529
 21
10.4
  0
LINE
  5
363
100
AcDbEntity
  8
0
100
AcDbLine
 62
7
  6
CONTINUOUS
 10
-21.0272527777
 20
10.4032733012
 11
-13.9908473377
 21
10.4032733012
  0
LINE
  5
364
100
AcDbEntity
  8
0
100
AcDbLine
 62
7
  6
CONTINUOUS
 10
13.9908473377
 20
10.4032733012
 11
21.0272527777
 21
10.4032733012
  0
LINE
  5
365
100
AcDbEntity
  8
0
100
AcDbLine
 62
7
  6
CONTINUOUS
 10
12.85
 20
9.7037875673
 11
13.15
 21
9.6995747806
  0
LINE
  5
366
100
AcDbEntity
  8
0
100
AcDbLine
 62
7
  6
CONTINUOUS
 10
-12.9106909682
 20
9.717449802
 11
-13.1110365985
 21
9.7279494716
  0
LWPOLYLINE
  5
367
100
AcDbEntity
  8
0
100
AcDbPolyline
 62
7
  6
CONTINUOUS
 90
13
 70
0
 10
0.4621283224
 20
14.3005718862
 10
0.4999695766
 20
14.259359293
 10
0.5414797945
 20
14.2206850707
 10
0.5866589761
 20
14.184549469
 10
0.6356789199
 20
14.1506499663
 10
0.6883678275
 20
14.1192895132
 10
0.7442103029
 20
14.0913766089
 10
0.8032643632
 20
14.0668420181
 10
0.8654719914
 20
14.045755414
 10
0.9301437412
 20
14.0292337372
 10
0.9970497971
 20
14.017649427
 10
1.0664199747
 20
14.0106303595
 10
1.1382542738
 20
14.0081766112
  0
LWPOLYLINE
  5
368
100
AcDbEntity
  8
0
100
AcDbPolyline
 62
7
  6
CONTINUOUS
 90
10
 70
0
 10
0.7441745085
 20
14.4712078515
 10
0.7097864318
 20
14.5126354698
 10
0.6788353521
 20
14.5585623468
 10
0.6513212696
 20
14.6089879362
 10
0.626959564
 20
14.6641327813
 10
0.6060348555
 20
14.72377504
 10
0.5894010048
 20
14.7872505992
 10
0.577342632
 20
14.8543376644
 10
0.5695751171
 20
14.9252566422
 10
0.5660984599
 20
15.0000067473
  0
LINE
  5
369
100
AcDbEntity
  8
0
100
AcDbLine
 62
7
  6
CONTINUOUS
 10
2.716602
 20
15.377168
 11
3.580395
 21
14.050297
  0
LINE
  5
36A
100
AcDbEntity
  8
0
100
AcDbLine
 62
7
  6
CONTINUOUS
 10
12.8521427854
 20
-9.7102211511
 11
12.85
 21
-9.7037875673
  0
LINE
  5
36B
100
AcDbEntity
  8
0
100
AcDbLine
 62
7
  6
CONTINUOUS
 10
12.85
 20
-9.7037875673
 11
12.85
 21
-13.2962124327
  0
LINE
  5
36C
100
AcDbEntity
  8
0
100
AcDbLine
 62
7
  6
CONTINUOUS
 10
12.85
 20
9.7037875673
 11
12.85
 21
13.2962124327
  0
LINE
  5
36D
100
AcDbEntity
  8
0
100
AcDbLine
 62
253
  6
CONTINUOUS
 10
12.8521427854
 20
-13.2897788489
 11
12.8521427854
 21
-9.7102211511
  0
LINE
  5
36E
100
AcDbEntity
  8
0
100
AcDbLine
 62
253
  6
CONTINUOUS
 10
12.8521427854
 20
9.7102211511
 11
12.8521427854
 21
13.2897788489
  0
LINE
  5
36F
100
AcDbEntity
  8
0
100
AcDbLine
 62
7
  6
CONTINUOUS
 10
2.8412501192
 20
-15.8882978857
 11
2.9037498808
 21
-15.7925532162
  0
LINE
  5
370
100
AcDbEntity
  8
0
100
AcDbLine
 62
7
  6
CONTINUOUS
 10
-0.6587499404
 20
-16.6223404296
 11
-0.5649999404
 21
-16.526595749
  0
LINE
  5
371
100
AcDbEntity
  8
0
100
AcDbLine
 62
7
  6
CONTINUOUS
 10
0.6225
 20
-15.3457446694
 11
0.4975001192
 21
-15.4734042287
  0
LINE
  5
372
100
AcDbEntity
  8
0
100
AcDbLine
 62
7
  6
CONTINUOUS
 10
1.3099998808
 20
-15.7925532162
 11
1.2475001192
 21
-15.8563829958
  0
LINE
  5
373
100
AcDbEntity
  8
0
100
AcDbLine
 62
7
  6
CONTINUOUS
 10
1.9975001192
 20
-15.3457446694
 11
1.8724998808
 21
-15.4734042287
  0
LINE
  5
374
100
AcDbEntity
  8
0
100
AcDbLine
 62
7
  6
CONTINUOUS
 10
1.3725
 20
-16.462765947
 11
1.3099998808
 21
-16.526595749
  0
LINE
  5
375
100
AcDbEntity
  8
0
100
AcDbLine
 62
7
  6
CONTINUOUS
 10
-2.6899999925
 20
-15.5053191185
 11
-2.5962499925
 21
-15.4414893389
  0
LINE
  5
376
100
AcDbEntity
  8
0
100
AcDbLine
 62
7
  6
CONTINUOUS
 10
-1.2525
 20
-15.5053191185
 11
-1.15875
 21
-15.4414893389
  0
LINE
  5
377
100
AcDbEntity
  8
0
100
AcDbLine
 62
7
  6
CONTINUOUS
 10
-1.1900000596
 20
-15.2819148898
 11
-1.34625
 21
-15.3776595592
  0
LINE
  5
378
100
AcDbEntity
  8
0
100
AcDbLine
 62
7
  6
CONTINUOUS
 10
-2.6275000075
 20
-15.2819148898
 11
-2.7525
 21
-15.3457446694
  0
LWPOLYLINE
  5
379
100
AcDbEntity
  8
0
100
AcDbPolyline
 62
7
  6
CONTINUOUS
 90
13
 70
0
 10
1.8142796835
 20
15.6998136126
 10
1.776390334
 20
15.7410722233
 10
1.7348385141
 20
15.779780487
 10
1.6896242239
 20
15.8159386977
 10
1.6405733537
 20
15.8498491449
 10
1.5878600132
 20
15.8812100559
 10
1.5320065309
 20
15.9091156934
 10
1.4729549066
 20
15.933634229
 10
1.4107631405
 20
15.9546980465
 10
1.3461275613
 20
15.9711978343
 10
1.2792802785
 20
15.982763986
 10
1.2099891827
 20
15.9897665198
 10
1.1382542738
 20
15.9922055362
  0
LWPOLYLINE
  5
37A
100
AcDbEntity
  8
0
100
AcDbPolyline
 62
7
  6
CONTINUOUS
 90
10
 70
0
 10
1.5322267946
 20
15.5288156973
 10
1.5666115975
 20
15.4873936851
 10
1.5975600968
 20
15.4414741798
 10
1.6250722923
 20
15.3910565866
 10
1.6494327619
 20
15.3359197719
 10
1.6703569278
 20
15.2762835029
 10
1.686991057
 20
15.2128085755
 10
1.6990505719
 20
15.145714855
 10
1.7068200502
 20
15.0747811513
 10
1.7102994918
 20
15.0000067473
  0
LINE
  5
37B
100
AcDbEntity
  8
0
100
AcDbLine
 62
7
  6
CONTINUOUS
 10
3.592791
 20
14.608189
 11
2.716892
 21
15.949703
  0
LINE
  5
37C
100
AcDbEntity
  8
0
100
AcDbLine
 62
253
  6
CONTINUOUS
 10
12.9106909682
 20
-13.282550198
 11
12.9106909682
 21
-9.717449802
  0
LINE
  5
37D
100
AcDbEntity
  8
0
100
AcDbLine
 62
253
  6
CONTINUOUS
 10
12.9106909682
 20
9.717449802
 11
12.9106909682
 21
13.282550198
  0
LINE
  5
37E
100
AcDbEntity
  8
0
100
AcDbLine
 62
253
  6
CONTINUOUS
 10
13.1110365985
 20
-13.2720505284
 11
13.1110365985
 21
-9.7279494716
  0
LINE
  5
37F
100
AcDbEntity
  8
0
100
AcDbLine
 62
253
  6
CONTINUOUS
 10
13.1110365985
 20
9.7279494716
 11
13.1110365985
 21
13.2720505284
  0
LINE
  5
380
100
AcDbEntity
  8
0
100
AcDbLine
 62
7
  6
CONTINUOUS
 10
13.15
 20
9.6995747806
 11
13.15
 21
9.6
  0
LINE
  5
381
100
AcDbEntity
  8
0
100
AcDbLine
 62
7
  6
CONTINUOUS
 10
13.15
 20
-13.3004252194
 11
13.15
 21
-13.4025387708
  0
LINE
  5
382
100
AcDbEntity
  8
0
100
AcDbLine
 62
7
  6
CONTINUOUS
 10
13.15
 20
-9.6995747806
 11
13.15
 21
-9.6
  0
LINE
  5
383
100
AcDbEntity
  8
0
100
AcDbLine
 62
7
  6
CONTINUOUS
 10
13.15
 20
13.3004252194
 11
13.15
 21
13.4025387708
  0
LINE
  5
384
100
AcDbEntity
  8
0
100
AcDbLine
 62
253
  6
CONTINUOUS
 10
13.2524579547
 20
-13.2689805518
 11
13.2524579547
 21
-9.7310194482
  0
LINE
  5
385
100
AcDbEntity
  8
0
100
AcDbLine
 62
253
  6
CONTINUOUS
 10
13.2524579547
 20
9.7310194482
 11
13.2524579547
 21
13.2689805518
  0
LINE
  5
386
100
AcDbEntity
  8
0
100
AcDbLine
 62
253
  6
CONTINUOUS
 10
13.4704141733
 20
-13.2689805518
 11
13.4704141733
 21
-9.7310194482
  0
LINE
  5
387
100
AcDbEntity
  8
0
100
AcDbLine
 62
253
  6
CONTINUOUS
 10
13.4704141733
 20
9.7310194482
 11
13.4704141733
 21
13.2689805518
  0
LINE
  5
388
100
AcDbEntity
  8
0
100
AcDbLine
 62
253
  6
CONTINUOUS
 10
13.8698659872
 20
-13.288846539
 11
13.8698659872
 21
-9.711153461
  0
LINE
  5
389
100
AcDbEntity
  8
0
100
AcDbLine
 62
253
  6
CONTINUOUS
 10
13.8698659872
 20
9.711153461
 11
13.8698659872
 21
13.288846539
  0
LINE
  5
38A
100
AcDbEntity
  8
0
100
AcDbLine
 62
7
  6
CONTINUOUS
 10
13.9810194482
 20
10.4
 11
13.9810194482
 21
9.6
  0
LINE
  5
38B
100
AcDbEntity
  8
0
100
AcDbLine
 62
7
  6
CONTINUOUS
 10
13.9810194482
 20
-10.4
 11
13.9810194482
 21
-9.6
  0
LINE
  5
38C
100
AcDbEntity
  8
0
100
AcDbLine
 62
7
  6
CONTINUOUS
 10
21.0267229342
 20
9.5891116965
 11
21.0321633529
 21
9.6
  0
LINE
  5
38D
100
AcDbEntity
  8
0
100
AcDbLine
 62
7
  6
CONTINUOUS
 10
2.685
 20
-15.7925532162
 11
1.8100001192
 21
-16.5904255286
  0
LINE
  5
38E
100
AcDbEntity
  8
0
100
AcDbLine
 62
7
  6
CONTINUOUS
 10
2.0599998808
 20
-16.5904255286
 11
2.8412501192
 21
-15.8882978857
  0
LINE
  5
38F
100
AcDbEntity
  8
0
100
AcDbLine
 62
7
  6
CONTINUOUS
 10
1.3099998808
 20
-15.9840425551
 11
1.4350001192
 21
-15.8882978857
  0
LINE
  5
390
100
AcDbEntity
  8
0
100
AcDbLine
 62
7
  6
CONTINUOUS
 10
0.6850001192
 20
-15.5053191185
 11
0.7787501192
 21
-15.4414893389
  0
LINE
  5
391
100
AcDbEntity
  8
0
100
AcDbLine
 62
7
  6
CONTINUOUS
 10
-0.7524999404
 20
-16.4946808591
 11
-0.8462499404
 21
-16.5585106388
  0
LINE
  5
392
100
AcDbEntity
  8
0
100
AcDbLine
 62
7
  6
CONTINUOUS
 10
2.0599998808
 20
-15.5053191185
 11
2.1537498808
 21
-15.4414893389
  0
LINE
  5
393
100
AcDbEntity
  8
0
100
AcDbLine
 62
7
  6
CONTINUOUS
 10
1.3725
 20
-16.6542553194
 11
1.46625
 21
-16.5904255286
  0
LINE
  5
394
100
AcDbEntity
  8
0
100
AcDbLine
 62
7
  6
CONTINUOUS
 10
-0.8150000596
 20
-16.7180851074
 11
-0.6587499404
 21
-16.6223404296
  0
LINE
  5
395
100
AcDbEntity
  8
0
100
AcDbLine
 62
7
  6
CONTINUOUS
 10
0.7474998808
 20
-15.2819148898
 11
0.6225
 21
-15.3457446694
  0
LINE
  5
396
100
AcDbEntity
  8
0
100
AcDbLine
 62
7
  6
CONTINUOUS
 10
2.1225
 20
-15.2819148898
 11
1.9975001192
 21
-15.3457446694
  0
LINE
  5
397
100
AcDbEntity
  8
0
100
AcDbLine
 62
7
  6
CONTINUOUS
 10
-12.9106909682
 20
13.282550198
 11
-13.1110365985
 21
13.2720505284
  0
LWPOLYLINE
  5
398
100
AcDbEntity
  8
0
100
AcDbPolyline
 62
7
  6
CONTINUOUS
 90
13
 70
0
 10
1.1382542738
 20
14.0081766112
 10
1.2092305394
 20
14.0112327389
 10
1.2777379948
 20
14.0183891437
 10
1.3437766401
 20
14.0296457558
 10
1.4074587144
 20
14.0451545801
 10
1.4686719786
 20
14.0647633458
 10
1.5270797155
 20
14.0880155298
 10
1.5827051288
 20
14.1148529875
 10
1.6355250148
 20
14.145333422
 10
1.685133046
 20
14.1791740727
 10
1.7313937799
 20
14.2162804978
 10
1.7744426591
 20
14.2567465502
 10
1.8142796834
 20
14.3005718861
  0
LINE
  5
399
100
AcDbEntity
  8
0
100
AcDbLine
 62
7
  6
CONTINUOUS
 10
12.85
 20
13.2962124327
 11
13.15
 21
13.3004252194
  0
LINE
  5
39A
100
AcDbEntity
  8
0
100
AcDbLine
 62
7
  6
CONTINUOUS
 10
13.4704141733
 20
13.2689805518
 11
13.2524579547
 21
13.2689805518
  0
LINE
  5
39B
100
AcDbEntity
  8
0
100
AcDbLine
 62
7
  6
CONTINUOUS
 10
-13.2524579547
 20
13.2689805518
 11
-13.4704141733
 21
13.2689805518
  0
LINE
  5
39C
100
AcDbEntity
  8
0
100
AcDbLine
 62
7
  6
CONTINUOUS
 10
-13.983558219
 20
13.4025387708
 11
-13.15
 21
13.4025387708
  0
LINE
  5
39D
100
AcDbEntity
  8
0
100
AcDbLine
 62
7
  6
CONTINUOUS
 10
13.15
 20
13.4025387708
 11
13.983558219
 21
13.4025387708
  0
LINE
  5
39E
100
AcDbEntity
  8
0
100
AcDbLine
 62
7
  6
CONTINUOUS
 10
-4.5
 20
13.55
 11
4.5
 21
13.55
  0
LINE
  5
39F
100
AcDbEntity
  8
0
100
AcDbLine
 62
7
  6
CONTINUOUS
 10
-3.919354
 20
14.050297
 11
-2.569324
 21
14.050297
  0
LINE
  5
3A0
100
AcDbEntity
  8
0
100
AcDbLine
 62
7
  6
CONTINUOUS
 10
-2.161366
 20
14.050297
 11
-1.822139
 21
14.050297
  0
LINE
  5
3A1
100
AcDbEntity
  8
0
100
AcDbLine
 62
7
  6
CONTINUOUS
 10
-1.418727
 20
14.050297
 11
-1.079515
 21
14.050297
  0
LINE
  5
3A2
100
AcDbEntity
  8
0
100
AcDbLine
 62
7
  6
CONTINUOUS
 10
-0.204862
 20
14.050297
 11
0.221854
 21
14.050297
  0
LINE
  5
3A3
100
AcDbEntity
  8
0
100
AcDbLine
 62
7
  6
CONTINUOUS
 10
2.385447
 20
14.050297
 11
2.711999
 21
14.050297
  0
LINE
  5
3A4
100
AcDbEntity
  8
0
100
AcDbLine
 62
7
  6
CONTINUOUS
 10
3.580395
 20
14.050297
 11
3.919354
 21
14.050297
  0
LINE
  5
3A5
100
AcDbEntity
  8
0
100
AcDbLine
 62
7
  6
CONTINUOUS
 10
-2.569324
 20
14.351755
 11
-3.580146
 21
14.351743
  0
LINE
  5
3A6
100
AcDbEntity
  8
0
100
AcDbLine
 62
7
  6
CONTINUOUS
 10
-3.580146
 20
14.874477
 11
-2.645022
 21
14.874484
  0
LINE
  5
3A7
100
AcDbEntity
  8
0
100
AcDbLine
 62
7
  6
CONTINUOUS
 10
-13.15
 20
13.3004252194
 11
-12.85
 21
13.2962124327
  0
LINE
  5
3A8
100
AcDbEntity
  8
0
100
AcDbLine
 62
7
  6
CONTINUOUS
 10
13.1110365985
 20
13.2720505284
 11
12.9106909682
 21
13.282550198
  0
LWPOLYLINE
  5
3A9
100
AcDbEntity
  8
0
100
AcDbPolyline
 62
7
  6
CONTINUOUS
 90
10
 70
0
 10
1.1391390405
 20
14.3089000876
 10
1.085568716
 20
14.3120239665
 10
1.0339313802
 20
14.3192270654
 10
0.9842270331
 20
14.3305093109
 10
0.9358045341
 20
14.3463390681
 10
0.8893150238
 20
14.3662476838
 10
0.8467119239
 20
14.3888295625
 10
0.808646375
 20
14.4136160967
 10
0.7744672365
 20
14.4410755894
 10
0.7441745085
 20
14.4712078515
  0
LINE
  5
3AA
100
AcDbEntity
  8
0
100
AcDbLine
 62
7
  6
CONTINUOUS
 10
21.0267229342
 20
-9.5891116965
 11
21.0321633529
 21
-9.6
  0
LINE
  5
3AB
100
AcDbEntity
  8
0
100
AcDbLine
 62
7
  6
CONTINUOUS
 10
12.8521427854
 20
-13.2897788489
 11
12.85
 21
-13.2962124327
  0
LINE
  5
3AC
100
AcDbEntity
  8
0
100
AcDbLine
 62
7
  6
CONTINUOUS
 10
13.9810194482
 20
-9.6
 11
13.8698659872
 21
-9.711153461
  0
LINE
  5
3AD
100
AcDbEntity
  8
0
100
AcDbLine
 62
7
  6
CONTINUOUS
 10
1.3099998808
 20
-16.526595749
 11
1.2475001192
 21
-16.5585106388
  0
LINE
  5
3AE
100
AcDbEntity
  8
0
100
AcDbLine
 62
7
  6
CONTINUOUS
 10
1.2475001192
 20
-16.7180851074
 11
1.3725
 21
-16.6542553194
  0
LINE
  5
3AF
100
AcDbEntity
  8
0
100
AcDbLine
 62
7
  6
CONTINUOUS
 10
1.2475001192
 20
-15.8563829958
 11
1.0600001192
 21
-15.9202127755
  0
LWPOLYLINE
  5
3B0
100
AcDbEntity
  8
0
100
AcDbPolyline
 62
7
  6
CONTINUOUS
 90
13
 70
0
 10
1.1382542738
 20
15.9922055362
 10
1.0671075669
 20
15.9891356929
 10
0.9984413038
 20
15.9819485001
 10
0.9322554844
 20
15.9706438649
 10
0.8684372966
 20
15.9550692091
 10
0.8070995526
 20
15.9353767599
 10
0.7485806883
 20
15.912023582
 10
0.6928578727
 20
15.8850669554
 10
0.6399539369
 20
15.8544490335
 10
0.5902758096
 20
15.8204541865
 10
0.5439591338
 20
15.7831769733
 10
0.5008682666
 20
15.7425221125
 10
0.4610032079
 20
15.6984891933
  0
LINE
  5
3B1
100
AcDbEntity
  8
0
100
AcDbLine
 62
7
  6
CONTINUOUS
 10
-2.645022
 20
15.175948
 11
-3.580146
 21
15.175955
  0
LINE
  5
3B2
100
AcDbEntity
  8
0
100
AcDbLine
 62
7
  6
CONTINUOUS
 10
-3.580146
 20
15.648249
 11
-2.576958
 21
15.648245
  0
LINE
  5
3B3
100
AcDbEntity
  8
0
100
AcDbLine
 62
7
  6
CONTINUOUS
 10
3.919354
 20
15.949703
 11
3.592798
 21
15.949703
  0
LINE
  5
3B4
100
AcDbEntity
  8
0
100
AcDbLine
 62
7
  6
CONTINUOUS
 10
2.716892
 20
15.949703
 11
2.385447
 21
15.949703
  0
LINE
  5
3B5
100
AcDbEntity
  8
0
100
AcDbLine
 62
7
  6
CONTINUOUS
 10
0.217376
 20
15.949703
 11
-0.237454
 21
15.949703
  0
LINE
  5
3B6
100
AcDbEntity
  8
0
100
AcDbLine
 62
7
  6
CONTINUOUS
 10
-1.079515
 20
15.949703
 11
-1.418727
 21
15.949703
  0
LINE
  5
3B7
100
AcDbEntity
  8
0
100
AcDbLine
 62
7
  6
CONTINUOUS
 10
-1.822139
 20
15.949703
 11
-2.161366
 21
15.949703
  0
LINE
  5
3B8
100
AcDbEntity
  8
0
100
AcDbLine
 62
7
  6
CONTINUOUS
 10
-2.576958
 20
15.949703
 11
-3.919354
 21
15.949703
  0
LINE
  5
3B9
100
AcDbEntity
  8
0
100
AcDbLine
 62
7
  6
CONTINUOUS
 10
-3.118476
 20
16.581506
 11
-2.768996
 21
16.581506
  0
LINE
  5
3BA
100
AcDbEntity
  8
0
100
AcDbLine
 62
7
  6
CONTINUOUS
 10
-2.011141
 20
16.581506
 11
-1.614569
 21
16.581506
  0
LINE
  5
3BB
100
AcDbEntity
  8
0
100
AcDbLine
 62
7
  6
CONTINUOUS
 10
-1.401081
 20
16.581506
 11
-1.021691
 21
16.581506
  0
LINE
  5
3BC
100
AcDbEntity
  8
0
100
AcDbLine
 62
7
  6
CONTINUOUS
 10
-0.470883
 20
16.581506
 11
-0.415264
 21
16.581506
  0
LINE
  5
3BD
100
AcDbEntity
  8
0
100
AcDbLine
 62
7
  6
CONTINUOUS
 10
0.137738
 20
16.581506
 11
0.525691
 21
16.581506
  0
LINE
  5
3BE
100
AcDbEntity
  8
0
100
AcDbLine
 62
7
  6
CONTINUOUS
 10
0.587963
 20
16.581506
 11
0.980233
 21
16.581506
  0
LINE
  5
3BF
100
AcDbEntity
  8
0
100
AcDbLine
 62
7
  6
CONTINUOUS
 10
1.732461
 20
16.581506
 11
2.150432
 21
16.581506
  0
LINE
  5
3C0
100
AcDbEntity
  8
0
100
AcDbLine
 62
7
  6
CONTINUOUS
 10
2.2668846027
 20
16.581506254
 11
2.6618612449
 21
16.581506254
  0
LINE
  5
3C1
100
AcDbEntity
  8
0
100
AcDbLine
 62
7
  6
CONTINUOUS
 10
3.2691570653
 20
16.581506254
 11
3.6506135504
 21
16.581506254
  0
LINE
  5
3C2
100
AcDbEntity
  8
0
100
AcDbLine
 62
7
  6
CONTINUOUS
 10
1.089662
 20
16.960783
 11
1.629728
 21
16.960783
  0
LWPOLYLINE
  5
3C3
100
AcDbEntity
  8
0
100
AcDbPolyline
 62
7
  6
CONTINUOUS
 90
10
 70
0
 10
1.1391390405
 20
15.6911234612
 10
1.1920894917
 20
15.6880578997
 10
1.2432422981
 20
15.6808888636
 10
1.2925974595
 20
15.6696162641
 10
1.340849461
 20
15.6537577588
 10
1.3873038175
 20
15.6337953414
 10
1.4298770746
 20
15.6111754365
 10
1.4678747474
 20
15.5863801006
 10
1.5019913207
 20
15.5589269258
 10
1.5322267946
 20
15.5288156973
  0
LINE
  5
3C4
100
AcDbEntity
  8
0
100
AcDbLine
 62
7
  6
CONTINUOUS
 10
13.9810194482
 20
9.6
 11
13.8698659872
 21
9.711153461
  0
LINE
  5
3C5
100
AcDbEntity
  8
0
100
AcDbLine
 62
7
  6
CONTINUOUS
 10
12.8521427854
 20
13.2897788489
 11
12.85
 21
13.2962124327
  0
LWPOLYLINE
  5
3C6
100
AcDbEntity
  8
0
100
AcDbPolyline
 62
7
  6
CONTINUOUS
 90
10
 70
0
 10
2.6487115031
 20
18.1576944232
 10
2.6847617615
 20
18.1636398186
 10
2.7203105146
 20
18.1684174312
 10
2.7553577625
 20
18.1720272833
 10
2.7897449668
 20
18.1744799796
 10
2.8236306658
 20
18.1757649437
 10
2.8574904751
 20
18.1758504181
 10
2.8914829331
 20
18.1747258154
 10
2.9254495014
 20
18.172401718
 10
2.9593901799
 20
18.1688781148
  0
LINE
  5
3C7
100
AcDbEntity
  8
0
100
AcDbLine
 62
7
  6
CONTINUOUS
 10
1.550473
 20
17.254266
 11
1.170783
 21
17.254266
  0
LINE
  5
3C8
100
AcDbEntity
  8
0
100
AcDbLine
 62
7
  6
CONTINUOUS
 10
2.6618612449
 20
17.3250009165
 11
2.8744938515
 21
17.3250009165
  0
LINE
  5
3C9
100
AcDbEntity
  8
0
100
AcDbLine
 62
7
  6
CONTINUOUS
 10
2.8753486559
 20
17.6361497358
 11
2.6487115031
 21
17.6361497358
  0
LINE
  5
3CA
100
AcDbEntity
  8
0
100
AcDbLine
 62
7
  6
CONTINUOUS
 10
1.567512
 20
18.481352
 11
1.183876
 21
18.481352
  0
LINE
  5
3CB
100
AcDbEntity
  8
0
100
AcDbLine
 62
7
  6
CONTINUOUS
 10
0.348034
 20
18.481352
 11
-0.044336
 21
18.481352
  0
LINE
  5
3CC
100
AcDbEntity
  8
0
100
AcDbLine
 62
7
  6
CONTINUOUS
 10
-0.833292
 20
18.481352
 11
-1.229536
 21
18.481352
  0
LINE
  5
3CD
100
AcDbEntity
  8
0
100
AcDbLine
 62
7
  6
CONTINUOUS
 10
-2.15831
 20
18.481352
 11
-2.554611
 21
18.481352
  0
LINE
  5
3CE
100
AcDbEntity
  8
0
100
AcDbLine
 62
7
  6
CONTINUOUS
 10
-3.289964
 20
18.481352
 11
-3.720764
 21
18.481352
  0
LINE
  5
3CF
100
AcDbEntity
  8
0
100
AcDbLine
 62
7
  6
CONTINUOUS
 10
-1.614569
 20
18.481466
 11
-2.011141
 21
18.481466
  0
LINE
  5
3D0
100
AcDbEntity
  8
0
100
AcDbLine
 62
7
  6
CONTINUOUS
 10
-4.5
 20
19.05
 11
4.5
 21
19.05
  0
LWPOLYLINE
  5
3D1
100
AcDbEntity
  8
0
100
AcDbPolyline
 62
7
  6
CONTINUOUS
 90
13
 70
0
 10
2.8744938515
 20
17.3250009165
 10
2.8987602665
 20
17.3237106545
 10
2.9221513599
 20
17.3200865841
 10
2.9446671316
 20
17.3141286741
 10
2.9664295464
 20
17.3058233096
 10
2.9873166396
 20
17.2951839835
 10
3.0069625164
 20
17.2822512985
 10
3.0253359168
 20
17.2669852558
 10
3.0424681009
 20
17.2494256173
 10
3.0580869547
 20
17.229732611
 10
3.0721017734
 20
17.2079595444
 10
3.0846032618
 20
17.1840527937
 10
3.0955914198
 20
17.1580121761
  0
LWPOLYLINE
  5
3D2
100
AcDbEntity
  8
0
100
AcDbPolyline
 62
7
  6
CONTINUOUS
 90
25
 70
0
 10
2.9593901799
 20
18.1688781148
 10
2.9749487219
 20
18.1665942239
 10
2.990189941
 20
18.1635159464
 10
3.0051138372
 20
18.1596432725
 10
3.0197616709
 20
18.1549627377
 10
3.0340921817
 20
18.1494877791
 10
3.0479815886
 20
18.1432587368
 10
3.0614474477
 20
18.136273611
 10
3.0744722029
 20
18.1285343617
 10
3.0868794041
 20
18.1200872672
 10
3.0986581138
 20
18.1109145943
 10
3.1098192695
 20
18.1010340264
 10
3.1202192342
 20
18.0905449685
 10
3.1298148756
 20
18.0794254824
 10
3.138649326
 20
18.0676974538
 10
3.1467083447
 20
18.0555260343
 10
3.1539919032
 20
18.0429199535
 10
3.16050003
 20
18.029870439
 10
3.1662185699
 20
18.0165164025
 10
3.1711617569
 20
18.0028691335
 10
3.1753153569
 20
17.988917311
 10
3.1786225129
 20
17.9747659435
 10
3.1810642723
 20
17.9604500291
 10
3.1826595877
 20
17.9459345493
 10
3.183408459
 20
17.9312194933
  0
LWPOLYLINE
  5
3D3
100
AcDbEntity
  8
0
100
AcDbPolyline
 62
7
  6
CONTINUOUS
 90
13
 70
0
 10
3.2459809447
 20
18.4390024381
 10
3.1803164723
 20
18.4590042832
 10
3.1115390428
 20
18.4752571718
 10
3.0396486561
 20
18.4877613541
 10
2.9644849327
 20
18.4962292887
 10
2.8862082521
 20
18.5009488497
 10
2.8052997533
 20
18.5027833075
 10
2.7218701215
 20
18.5018638617
 10
2.6358086716
 20
18.4980593235
 10
2.5472644864
 20
18.4918393189
 10
2.4562872604
 20
18.4833603447
 10
2.3628272992
 20
18.4724657608
 10
2.2668846027
 20
18.4591554587
  0
LINE
  5
3D4
100
AcDbEntity
  8
0
100
AcDbLine
 62
253
  6
CONTINUOUS
 10
19.9551908211
 20
3.25
 11
19.9551908211
 21
-3.25
  0
LINE
  5
3D5
100
AcDbEntity
  8
0
100
AcDbLine
 62
253
  6
CONTINUOUS
 10
20.2551451296
 20
3.25
 11
20.2551451296
 21
-3.25
  0
LINE
  5
3D6
100
AcDbEntity
  8
0
100
AcDbLine
 62
7
  6
CONTINUOUS
 10
20.2674550649
 20
3.25
 11
20.2674550649
 21
-3.25
  0
LINE
  5
3D7
100
AcDbEntity
  8
0
100
AcDbLine
 62
7
  6
CONTINUOUS
 10
21.0321633529
 20
10.4
 11
21.0321633529
 21
9.6
  0
LINE
  5
3D8
100
AcDbEntity
  8
0
100
AcDbLine
 62
7
  6
CONTINUOUS
 10
21.0321633529
 20
-9.6
 11
21.0321633529
 21
-10.4
  0
LINE
  5
3D9
100
AcDbEntity
  8
0
100
AcDbLine
 62
7
  6
CONTINUOUS
 10
21.0714422353
 20
20.6315450378
 11
21.0714422353
 21
3.25
  0
LINE
  5
3DA
100
AcDbEntity
  8
0
100
AcDbLine
 62
7
  6
CONTINUOUS
 10
21.0714422353
 20
-3.25
 11
21.0714422353
 21
-20.6315450378
  0
LINE
  5
3DB
100
AcDbEntity
  8
0
100
AcDbLine
 62
7
  6
CONTINUOUS
 10
21.0272527777
 20
-10.4032733012
 11
21.0321633529
 21
-10.4
  0
LINE
  5
3DC
100
AcDbEntity
  8
RACCORDO
100
AcDbLine
 62
7
  6
CONTINUOUS
 10
-20.7518754742
 20
20.9117726717
 11
20.7518754742
 21
20.9117726717
  0
LINE
  5
3DD
100
AcDbEntity
  8
RACCORDO
100
AcDbLine
 62
7
  6
CONTINUOUS
 10
-20.7715450378
 20
20.9314422353
 11
20.7715450378
 21
20.9314422353
  0
LINE
  5
3DE
100
AcDbEntity
  8
0
100
AcDbLine
 62
7
  6
CONTINUOUS
 10
21.0272527777
 20
10.4032733012
 11
21.0321633529
 21
10.4
  0
LWPOLYLINE
  5
3DF
100
AcDbEntity
  8
RACCORDO
100
AcDbPolyline
 62
7
  6
CONTINUOUS
 90
25
 70
0
 10
21.0506086115
 20
20.610711414
 10
21.0500521069
 20
20.6302495866
 10
21.048232784
 20
20.6497112776
 10
21.0451572612
 20
20.6690147051
 10
21.0408385379
 20
20.6880761791
 10
21.0352930911
 20
20.7068177988
 10
21.0285390431
 20
20.725167261
 10
21.0206015123
 20
20.7430479681
 10
21.0115122769
 20
20.7603813734
 10
21.0013050547
 20
20.7770940266
 10
20.9900205839
 20
20.7931130133
 10
20.9777041682
 20
20.8083685582
 10
20.9644025438
 20
20.8227951495
 10
20.9501673109
 20
20.8363304133
 10
20.9350588738
 20
20.8489110977
 10
20.91914381
 20
20.8604760301
 10
20.9024889713
 20
20.8709729241
 10
20.8851646448
 20
20.8803541347
 10
20.8672489772
 20
20.8885738688
 10
20.8488173736
 20
20.8955951555
 10
20.8299502047
 20
20.9013852701
 10
20.8107377335
 20
20.9059151287
 10
20.7912662562
 20
20.9091644508
 10
20.7716171364
 20
20.9111198624
 10
20.7518754742
 20
20.9117726717
  0
LINE
  5
3E0
100
AcDbEntity
  8
0
100
AcDbLine
 62
7
  6
CONTINUOUS
 10
21.3
 20
3.25
 11
21.3
 21
1.3228756555
  0
LINE
  5
3E1
100
AcDbEntity
  8
0
100
AcDbLine
 62
7
  6
CONTINUOUS
 10
21.3
 20
-1.3228756555
 11
21.3
 21
-3.25
  0
LINE
  5
3E2
100
AcDbEntity
  8
0
100
AcDbLine
 62
7
  6
CONTINUOUS
 10
22.3014422353
 20
21.6116135728
 11
22.3014422353
 21
-21.6116135728
  0
LWPOLYLINE
  5
3E3
100
AcDbEntity
  8
RACCORDO
100
AcDbPolyline
 62
7
  6
CONTINUOUS
 90
25
 70
0
 10
-20.7518754742
 20
20.9117726717
 10
-20.7716187281
 20
20.9111197586
 10
-20.7912704146
 20
20.9091638988
 10
-20.8107453806
 20
20.9059135908
 10
-20.8299624934
 20
20.9013819384
 10
-20.8488350319
 20
20.8955890885
 10
-20.867271715
 20
20.8885643328
 10
-20.8851921603
 20
20.8803403888
 10
-20.9025208253
 20
20.8709542839
 10
-20.9191785253
 20
20.8604525099
 10
-20.9350948611
 20
20.8488830835
 10
-20.9502032781
 20
20.836298394
 10
-20.9644369859
 20
20.8227601666
 10
-20.9777355812
 20
20.808332155
 10
-20.9900479634
 20
20.7930767241
 10
-21.001327958
 20
20.7770591368
 10
-21.0115303685
 20
20.7603494481
 10
-21.02061481
 20
20.7430204625
 10
-21.0285482353
 20
20.7251445873
 10
-21.035298917
 20
20.706800227
 10
-21.0408417233
 20
20.6880639714
 10
-21.0451587223
 20
20.6690071227
 10
-21.0482333023
 20
20.6497071658
 10
-21.0500522016
 20
20.6302480193
 10
-21.0506086115
 20
20.610711414
  0
LINE
  5
3E4
100
AcDbEntity
  8
0
100
AcDbLine
 62
7
  6
CONTINUOUS
 10
-21.8016135728
 20
22.1114422353
 11
21.8016135728
 21
22.1114422353
  0
CIRCLE
  5
3E5
100
AcDbEntity
  8
0
100
AcDbCircle
 62
7
  6
CONTINUOUS
 10
-3.75
 20
-6.5
 40
0.5
  0
ARC
  5
3E6
100
AcDbEntity
  8
0
100
AcDbCircle
 62
7
  6
CONTINUOUS
 10
-1.4142135624
 20
-9.0
 40
0.5
100
AcDbArc
 50
19.4712206345
 51
90.0
  0
ARC
  5
3E7
100
AcDbEntity
  8
0
100
AcDbCircle
 62
7
  6
CONTINUOUS
 10
-4.1
 20
-8.0
 40
0.5
100
AcDbArc
 50
180.0
 51
270.0
  0
ARC
  5
3E8
100
AcDbEntity
  8
0
100
AcDbCircle
 62
7
  6
CONTINUOUS
 10
-5.1
 20
-3.75
 40
0.5
100
AcDbArc
 50
0.0
 51
90.0
  0
ARC
  5
3E9
100
AcDbEntity
  8
0
100
AcDbCircle
 62
7
  6
CONTINUOUS
 10
-21.8
 20
-1.3228756555
 40
0.5
100
AcDbArc
 50
0.0
 51
41.4096221093
  0
ARC
  5
3EA
100
AcDbEntity
  8
0
100
AcDbCircle
 62
7
  6
CONTINUOUS
 10
-20.3
 20
0.0
 40
1.5
100
AcDbArc
 50
138.5903778907
 51
221.4096221093
  0
CIRCLE
  5
3EB
100
AcDbEntity
  8
0
100
AcDbCircle
 62
7
  6
CONTINUOUS
 10
-3.75
 20
6.5
 40
0.5
  0
ARC
  5
3EC
100
AcDbEntity
  8
0
100
AcDbCircle
 62
7
  6
CONTINUOUS
 10
-1.4142135624
 20
9.0
 40
0.5
100
AcDbArc
 50
270.0
 51
340.5287793655
  0
ARC
  5
3ED
100
AcDbEntity
  8
0
100
AcDbCircle
 62
7
  6
CONTINUOUS
 10
-4.1
 20
8.0
 40
0.5
100
AcDbArc
 50
90.0
 51
180.0
  0
ARC
  5
3EE
100
AcDbEntity
  8
0
100
AcDbCircle
 62
7
  6
CONTINUOUS
 10
-5.1
 20
3.75
 40
0.5
100
AcDbArc
 50
270.0
 51
360.0
  0
ARC
  5
3EF
100
AcDbEntity
  8
0
100
AcDbCircle
 62
7
  6
CONTINUOUS
 10
-21.8
 20
1.3228756555
 40
0.5
100
AcDbArc
 50
318.5903778907
 51
360.0
  0
ARC
  5
3F0
100
AcDbEntity
  8
0
100
AcDbCircle
 62
7
  6
CONTINUOUS
 10
-0.0
 20
-8.5
 40
1.0
100
AcDbArc
 50
199.4712206345
 51
340.5287793655
  0
ARC
  5
3F1
100
AcDbEntity
  8
0
100
AcDbCircle
 62
7
  6
CONTINUOUS
 10
5.1
 20
-3.75
 40
0.5
100
AcDbArc
 50
90.0
 51
180.0
  0
CIRCLE
  5
3F2
100
AcDbEntity
  8
0
100
AcDbCircle
 62
7
  6
CONTINUOUS
 10
3.75
 20
-6.5
 40
0.5
  0
ARC
  5
3F3
100
AcDbEntity
  8
0
100
AcDbCircle
 62
7
  6
CONTINUOUS
 10
4.1
 20
-8.0
 40
0.5
100
AcDbArc
 50
270.0
 51
360.0
  0
ARC
  5
3F4
100
AcDbEntity
  8
0
100
AcDbCircle
 62
7
  6
CONTINUOUS
 10
1.4142135624
 20
-9.0
 40
0.5
100
AcDbArc
 50
90.0
 51
160.5287793655
  0
ARC
  5
3F5
100
AcDbEntity
  8
0
100
AcDbCircle
 62
7
  6
CONTINUOUS
 10
21.8
 20
-1.3228756555
 40
0.5
100
AcDbArc
 50
138.5903778907
 51
180.0
  0
ARC
  5
3F6
100
AcDbEntity
  8
0
100
AcDbCircle
 62
7
  6
CONTINUOUS
 10
20.3
 20
-0.0
 40
1.5
100
AcDbArc
 50
318.5903778907
 51
41.4096221093
  0
ARC
  5
3F7
100
AcDbEntity
  8
0
100
AcDbCircle
 62
7
  6
CONTINUOUS
 10
0.0
 20
8.5
 40
1.0
100
AcDbArc
 50
19.4712206345
 51
160.5287793655
  0
CIRCLE
  5
3F8
100
AcDbEntity
  8
0
100
AcDbCircle
 62
7
  6
CONTINUOUS
 10
3.75
 20
6.5
 40
0.5
  0
ARC
  5
3F9
100
AcDbEntity
  8
0
100
AcDbCircle
 62
7
  6
CONTINUOUS
 10
5.1
 20
3.75
 40
0.5
100
AcDbArc
 50
180.0
 51
270.0
  0
ARC
  5
3FA
100
AcDbEntity
  8
0
100
AcDbCircle
 62
7
  6
CONTINUOUS
 10
4.1
 20
8.0
 40
0.5
100
AcDbArc
 50
0.0
 51
90.0
  0
ARC
  5
3FB
100
AcDbEntity
  8
0
100
AcDbCircle
 62
7
  6
CONTINUOUS
 10
1.4142135624
 20
9.0
 40
0.5
100
AcDbArc
 50
199.4712206345
 51
270.0
  0
ARC
  5
3FC
100
AcDbEntity
  8
0
100
AcDbCircle
 62
7
  6
CONTINUOUS
 10
21.8
 20
1.3228756555
 40
0.5
100
AcDbArc
 50
180.0
 51
221.4096221093
  0
ELLIPSE
  5
3FD
100
AcDbEntity
  8
0
100
AcDbEllipse
 62
7
  6
CONTINUOUS
 10
21.801270839
 20
-21.611270839
 30
0.0
 11
-0.35379574
 21
0.35379574
 31
0.0
 40
0.999315002
 41
-3.9266482006
 42
-2.3565371065
  0
ELLIPSE
  5
3FE
100
AcDbEntity
  8
0
100
AcDbEllipse
 62
7
  6
CONTINUOUS
 10
21.801270839
 20
21.611270839
 30
0.0
 11
-0.35379574
 21
-0.35379574
 31
0.0
 40
0.999315002
 41
2.3565371065
 42
3.9266482006
  0
ELLIPSE
  5
3FF
100
AcDbEntity
  8
0
100
AcDbEllipse
 62
7
  6
CONTINUOUS
 10
-21.801270839
 20
-21.611270839
 30
0.0
 11
0.35379574
 21
0.35379574
 31
0.0
 40
0.999315002
 41
2.3565371065
 42
3.9266482006
  0
ELLIPSE
  5
400
100
AcDbEntity
  8
0
100
AcDbEllipse
 62
7
  6
CONTINUOUS
 10
-21.801270839
 20
21.611270839
 30
0.0
 11
-0.35379574
 21
0.35379574
 31
0.0
 40
0.999315002
 41
-0.7850555471
 42
0.7850555471
  0
ELLIPSE
  5
401
100
AcDbEntity
  8
0
100
AcDbEllipse
 62
7
  6
CONTINUOUS
 10
13.2524579547
 20
-13.2794621076
 30
0.0
 11
0.2
 21
0.0
 31
0.0
 40
0.0524077793
 41
1.5707963268
 42
2.3561944902
  0
ELLIPSE
  5
402
100
AcDbEntity
  8
0
100
AcDbEllipse
 62
7
  6
CONTINUOUS
 10
13.4704141733
 20
-13.2899436635
 30
0.0
 11
0.4
 21
0.0
 31
0.0
 40
0.0524077793
 41
0.0523598776
 42
1.5707963268
  0
ELLIPSE
  5
403
100
AcDbEntity
  8
0
100
AcDbEllipse
 62
7
  6
CONTINUOUS
 10
13.0521123244
 20
-13.2899617772
 30
0.0
 11
0.2
 21
-0.0
 31
0.0
 40
0.0524077793
 41
2.3561944902
 42
3.1241393611
  0
ELLIPSE
  5
404
100
AcDbEntity
  8
0
100
AcDbEllipse
 62
7
  6
CONTINUOUS
 10
-13.2524579547
 20
-13.2794621076
 30
0.0
 11
0.2
 21
0.0
 31
0.0
 40
0.0524077793
 41
0.7853981634
 42
1.5707963268
  0
ELLIPSE
  5
405
100
AcDbEntity
  8
0
100
AcDbEllipse
 62
7
  6
CONTINUOUS
 10
-13.0521123244
 20
-13.2899617772
 30
0.0
 11
0.2
 21
0.0
 31
0.0
 40
0.0524077793
 41
0.0174532925
 42
0.7853981634
  0
ELLIPSE
  5
406
100
AcDbEntity
  8
RACCORDO
100
AcDbEllipse
 62
7
  6
CONTINUOUS
 10
20.7713393975
 20
-20.6313393975
 30
0.0
 11
-0.212277444
 21
0.212277444
 31
0.0
 40
0.999315002
 41
-3.9266482006
 42
-2.3565371065
  0
ELLIPSE
  5
407
100
AcDbEntity
  8
0
100
AcDbEllipse
 62
7
  6
CONTINUOUS
 10
-13.4704141733
 20
-13.2899436635
 30
0.0
 11
0.4
 21
-0.0
 31
0.0
 40
0.0524077793
 41
1.5707963268
 42
3.089232776
  0
ELLIPSE
  5
408
100
AcDbEntity
  8
RACCORDO
100
AcDbEllipse
 62
7
  6
CONTINUOUS
 10
-20.7713393975
 20
-20.6313393975
 30
0.0
 11
0.212277444
 21
0.212277444
 31
0.0
 40
0.999315002
 41
2.3565371065
 42
3.9266482006
  0
ELLIPSE
  5
409
100
AcDbEntity
  8
0
100
AcDbEllipse
 62
7
  6
CONTINUOUS
 10
13.2524579547
 20
13.2794621076
 30
0.0
 11
0.2
 21
0.0
 31
0.0
 40
0.0524077793
 41
-2.3561944902
 42
-1.5707963268
  0
ELLIPSE
  5
40A
100
AcDbEntity
  8
0
100
AcDbEllipse
 62
7
  6
CONTINUOUS
 10
13.0521123244
 20
13.2899617772
 30
0.0
 11
0.2
 21
0.0
 31
0.0
 40
0.0524077793
 41
-3.1241393611
 42
-2.3561944902
  0
ELLIPSE
  5
40B
100
AcDbEntity
  8
0
100
AcDbEllipse
 62
7
  6
CONTINUOUS
 10
13.4704141733
 20
13.2899436635
 30
0.0
 11
0.4
 21
-0.0
 31
0.0
 40
0.0524077793
 41
-1.5707963268
 42
-0.0523598776
  0
ELLIPSE
  5
40C
100
AcDbEntity
  8
0
100
AcDbEllipse
 62
7
  6
CONTINUOUS
 10
-13.2524579547
 20
13.2794621076
 30
0.0
 11
0.2
 21
0.0
 31
0.0
 40
0.0524077793
 41
-1.5707963268
 42
-0.7853981634
  0
ELLIPSE
  5
40D
100
AcDbEntity
  8
0
100
AcDbEllipse
 62
7
  6
CONTINUOUS
 10
-13.4704141733
 20
13.2899436635
 30
0.0
 11
0.4
 21
0.0
 31
0.0
 40
0.0524077793
 41
-3.089232776
 42
-1.5707963268
  0
ELLIPSE
  5
40E
100
AcDbEntity
  8
RACCORDO
100
AcDbEllipse
 62
7
  6
CONTINUOUS
 10
20.7713393975
 20
20.6313393975
 30
0.0
 11
0.212277444
 21
0.212277444
 31
0.0
 40
0.999315002
 41
-0.7850555471
 42
0.7850555471
  0
ELLIPSE
  5
40F
100
AcDbEntity
  8
0
100
AcDbEllipse
 62
7
  6
CONTINUOUS
 10
-13.0521123244
 20
13.2899617772
 30
0.0
 11
0.2
 21
-0.0
 31
0.0
 40
0.0524077793
 41
-0.7853981634
 42
-0.0174532925
  0
ELLIPSE
  5
410
100
AcDbEntity
  8
RACCORDO
100
AcDbEllipse
 62
7
  6
CONTINUOUS
 10
-20.7713393975
 20
20.6313393975
 30
0.0
 11
0.212277444
 21
-0.212277444
 31
0.0
 40
0.999315002
 41
2.3565371065
 42
3.9266482007
  0
ELLIPSE
  5
411
100
AcDbEntity
  8
0
100
AcDbEllipse
 62
7
  6
CONTINUOUS
 10
34.0858452552
 20
0.0
 30
0.0
 11
0.0
 21
498.8
 31
0.0
 40
0.0261859216
 41
-4.7058732968
 42
-4.693387837
  0
ELLIPSE
  5
412
100
AcDbEntity
  8
0
100
AcDbEllipse
 62
7
  6
CONTINUOUS
 10
-34.0858452552
 20
0.0
 30
0.0
 11
0.0
 21
498.8
 31
0.0
 40
0.0261859216
 41
-1.5897974701
 42
-1.5773120104
  0
ELLIPSE
  5
413
100
AcDbEntity
  8
0
100
AcDbEllipse
 62
7
  6
CONTINUOUS
 10
-34.0858452552
 20
0.0
 30
0.0
 11
0.0
 21
498.8
 31
0.0
 40
0.0261859216
 41
-1.5642806432
 42
-1.5517951834
  0
ELLIPSE
  5
414
100
AcDbEntity
  8
0
100
AcDbEllipse
 62
7
  6
CONTINUOUS
 10
9.3390521939
 20
7.79
 30
0.0
 11
0.0
 21
88.8
 31
0.0
 40
0.0524077793
 41
-1.5413633239
 42
-1.5075499043
  0
ELLIPSE
  5
415
100
AcDbEntity
  8
0
100
AcDbEllipse
 62
7
  6
CONTINUOUS
 10
34.0858452552
 20
-0.0
 30
0.0
 11
0.0
 21
498.8
 31
0.0
 40
0.0261859216
 41
1.5517951834
 42
1.5642806432
  0
ELLIPSE
  5
416
100
AcDbEntity
  8
0
100
AcDbEllipse
 62
7
  6
CONTINUOUS
 10
23.3515554759
 20
7.79
 30
0.0
 11
0.0
 21
88.8
 31
0.0
 40
0.0261859216
 41
1.5505346736
 42
1.5517951834
  0
ELLIPSE
  5
417
100
AcDbEntity
  8
0
100
AcDbEllipse
 62
7
  6
CONTINUOUS
 10
13.2524579547
 20
9.7205378924
 30
0.0
 11
0.2
 21
0.0
 31
0.0
 40
0.0524077793
 41
1.5707963268
 42
2.3561944902
  0
ELLIPSE
  5
418
100
AcDbEntity
  8
0
100
AcDbEllipse
 62
7
  6
CONTINUOUS
 10
13.4704141733
 20
9.7100563365
 30
0.0
 11
0.4
 21
0.0
 31
0.0
 40
0.0524077793
 41
0.0523598776
 42
1.5707963268
  0
ELLIPSE
  5
419
100
AcDbEntity
  8
0
100
AcDbEllipse
 62
7
  6
CONTINUOUS
 10
-23.3515554759
 20
7.79
 30
0.0
 11
0.0
 21
88.8
 31
0.0
 40
0.0261859216
 41
-1.5517951834
 42
-1.5505346736
  0
ELLIPSE
  5
41A
100
AcDbEntity
  8
0
100
AcDbEllipse
 62
7
  6
CONTINUOUS
 10
13.0521123244
 20
9.7100382228
 30
0.0
 11
0.2
 21
-0.0
 31
0.0
 40
0.0524077793
 41
2.3561944902
 42
3.1241393611
  0
ELLIPSE
  5
41B
100
AcDbEntity
  8
0
100
AcDbEllipse
 62
7
  6
CONTINUOUS
 10
-13.2524579547
 20
9.7205378924
 30
0.0
 11
0.2
 21
0.0
 31
0.0
 40
0.0524077793
 41
0.7853981634
 42
1.5707963268
  0
ELLIPSE
  5
41C
100
AcDbEntity
  8
0
100
AcDbEllipse
 62
7
  6
CONTINUOUS
 10
-13.0521123244
 20
9.7100382228
 30
0.0
 11
0.2
 21
0.0
 31
0.0
 40
0.0524077793
 41
0.0174532925
 42
0.7853981634
  0
ELLIPSE
  5
41D
100
AcDbEntity
  8
0
100
AcDbEllipse
 62
7
  6
CONTINUOUS
 10
-13.4704141733
 20
9.7100563365
 30
0.0
 11
0.4
 21
-0.0
 31
0.0
 40
0.0524077793
 41
1.5707963268
 42
3.089232776
  0
ELLIPSE
  5
41E
100
AcDbEntity
  8
0
100
AcDbEllipse
 62
7
  6
CONTINUOUS
 10
9.3390521939
 20
-7.79
 30
0.0
 11
0.0
 21
88.8
 31
0.0
 40
0.0524077793
 41
-1.6340427492
 42
-1.6002293296
  0
ELLIPSE
  5
41F
100
AcDbEntity
  8
0
100
AcDbEllipse
 62
7
  6
CONTINUOUS
 10
23.3515554759
 20
-7.79
 30
0.0
 11
0.0
 21
88.8
 31
0.0
 40
0.0261859216
 41
-4.6829559775
 42
-4.5675052485
  0
ELLIPSE
  5
420
100
AcDbEntity
  8
0
100
AcDbEllipse
 62
7
  6
CONTINUOUS
 10
13.2524579547
 20
-9.7205378924
 30
0.0
 11
0.2
 21
0.0
 31
0.0
 40
0.0524077793
 41
-2.3561944902
 42
-1.5707963268
  0
ELLIPSE
  5
421
100
AcDbEntity
  8
0
100
AcDbEllipse
 62
7
  6
CONTINUOUS
 10
13.0521123244
 20
-9.7100382228
 30
0.0
 11
0.2
 21
-0.0
 31
0.0
 40
0.0524077793
 41
-3.1241393611
 42
-2.3561944902
  0
ELLIPSE
  5
422
100
AcDbEntity
  8
0
100
AcDbEllipse
 62
7
  6
CONTINUOUS
 10
13.4704141733
 20
-9.7100563365
 30
0.0
 11
0.4
 21
-0.0
 31
0.0
 40
0.0524077793
 41
-1.5707963268
 42
-0.0523598776
  0
ELLIPSE
  5
423
100
AcDbEntity
  8
0
100
AcDbEllipse
 62
7
  6
CONTINUOUS
 10
-13.2524579547
 20
-9.7205378924
 30
0.0
 11
0.2
 21
0.0
 31
0.0
 40
0.0524077793
 41
-1.5707963268
 42
-0.7853981634
  0
ELLIPSE
  5
424
100
AcDbEntity
  8
0
100
AcDbEllipse
 62
7
  6
CONTINUOUS
 10
-13.4704141733
 20
-9.7100563365
 30
0.0
 11
0.4
 21
0.0
 31
0.0
 40
0.0524077793
 41
-3.089232776
 42
-1.5707963268
  0
ELLIPSE
  5
425
100
AcDbEntity
  8
0
100
AcDbEllipse
 62
7
  6
CONTINUOUS
 10
-13.0521123244
 20
-9.7100382228
 30
0.0
 11
0.2
 21
0.0
 31
0.0
 40
0.0524077793
 41
-0.7853981634
 42
-0.0174532925
  0
ELLIPSE
  5
426
100
AcDbEntity
  8
0
100
AcDbEllipse
 62
7
  6
CONTINUOUS
 10
-23.3515554759
 20
-7.79
 30
0.0
 11
0.0
 21
88.8
 31
0.0
 40
0.0261859216
 41
-1.7156800587
 42
-1.6002293296
  0
ELLIPSE
  5
427
100
AcDbEntity
  8
0
100
AcDbEllipse
 62
7
  6
CONTINUOUS
 10
-9.3390521939
 20
-7.79
 30
0.0
 11
0.0
 21
88.8
 31
0.0
 40
0.0524077793
 41
-4.6829559775
 42
-4.6491425579
  0
ELLIPSE
  5
428
100
AcDbEntity
  8
0
100
AcDbEllipse
 62
7
  6
CONTINUOUS
 10
-23.3515554759
 20
-7.79
 30
0.0
 11
0.0
 21
88.8
 31
0.0
 40
0.0261859216
 41
-1.59105798
 42
-1.5897974701
  0
ELLIPSE
  5
429
100
AcDbEntity
  8
0
100
AcDbEllipse
 62
7
  6
CONTINUOUS
 10
23.3515554759
 20
-7.79
 30
0.0
 11
0.0
 21
88.8
 31
0.0
 40
0.0261859216
 41
-4.693387837
 42
-4.6921273272
  0
ELLIPSE
  5
42A
100
AcDbEntity
  8
0
100
AcDbEllipse
 62
7
  6
CONTINUOUS
 10
-9.3390521939
 20
7.79
 30
0.0
 11
0.0
 21
88.8
 31
0.0
 40
0.0524077793
 41
1.5075499043
 42
1.5413633239
  0
ELLIPSE
  5
42B
100
AcDbEntity
  8
0
100
AcDbEllipse
 62
7
  6
CONTINUOUS
 10
-23.3515554759
 20
7.79
 30
0.0
 11
0.0
 21
88.8
 31
0.0
 40
0.0261859216
 41
-1.5413633239
 42
-1.4259125949
  0
ELLIPSE
  5
42C
100
AcDbEntity
  8
0
100
AcDbEllipse
 62
7
  6
CONTINUOUS
 10
23.3515554759
 20
7.79
 30
0.0
 11
0.0
 21
88.8
 31
0.0
 40
0.0261859216
 41
1.4259125949
 42
1.5413633239
  0
ENDSEC
  0
SECTION
  2
OBJECTS
  0
DICTIONARY
  5
C
100
AcDbDictionary
280
0
281
1
  3
ACAD_GROUP
350
D
  3
ACAD_MLINESTYLE
350
17
  3
ACAD_LAYOUT
350
1A
  3
ACAD_PLOTSETTINGS
350
19
  3
ACAD_PLOTSTYLENAME
350
E
  0
DICTIONARY
  5
D
102
{ACAD_REACTORS
330
C
102
}
100
AcDbDictionary
280
0
281
1
  0
ACDBDICTIONARYWDFLT
  5
E
102
{ACAD_REACTORS
330
C
102
}
100
AcDbDictionary
281
1
  3
Normal
350
F
100
AcDbDictionaryWithDefault
340
F
  0
DICTIONARY
  5
17
102
{ACAD_REACTORS
330
C
102
}
100
AcDbDictionary
280
0
281
1
  3
Standard
350
18
  0
DICTIONARY
  5
19
102
{ACAD_REACTORS
330
C
102
}
100
AcDbDictionary
281
1
  0
DICTIONARY
  5
1A
102
{ACAD_REACTORS
330
C
102
}
100
AcDbDictionary
281
1
  3
Model
350
42D
  3
Layout1
350
42E
  0
ACDBPLACEHOLDER
  5
F
102
{ACAD_REACTORS
330
E
102
}
  0
MLINESTYLE
  5
18
102
{ACAD_REACTORS
330
17
102
}
100
AcDbMlineStyle
  2
STANDARD
 70
0
  3

 62
256
 51
90.0
 52
90.0
 71
2
 49
0.5
 62
256
  6
BYLAYER
 49
-0.5
 62
256
  6
BYLAYER
  0
LAYOUT
  5
42D
102
{ACAD_REACTORS
330
1A
102
}
100
AcDbPlotSettings
  1

  2
none_device
  4
ISO_A4_(297.00_x_210.00_MM)
  6

 40
0.0
 41
0.0
 42
0.0
 43
0.0
 44
297.0
 45
210.0
 46
0.0
 47
0.0
 48
0.0
 49
0.0
140
0.0
141
0.0
142
1.0
143
1.0
 70
1024
 72
1
 73
0
 74
0
  7

 75
0
147
1.0
148
0.0
149
0.0
100
AcDbLayout
  1
Model
 70
0
 71
0
 10
0.0
 20
0.0
 11
297.0
 21
210.0
 12
0.0
 22
0.0
 32
0.0
 14
0.0
 24
0.0
 34
0.0
 15
0.0
 25
0.0
 35
0.0
146
0.0
 13
0.0
 23
0.0
 33
0.0
 16
1.0
 26
0.0
 36
0.0
 17
0.0
 27
1.0
 37
0.0
 76
0
330
215
345
0
346
0
  0
LAYOUT
  5
42E
102
{ACAD_REACTORS
330
1A
102
}
100
AcDbPlotSettings
  1

  2
none_device
  4
ISO_A4_(297.00_x_210.00_MM)
  6

 40
0.0
 41
0.0
 42
0.0
 43
0.0
 44
297.0
 45
210.0
 46
0.0
 47
0.0
 48
0.0
 49
0.0
140
0.0
141
0.0
142
1.0
143
1.0
 70
0
 72
1
 73
0
 74
0
  7

 75
0
147
1.0
148
0.0
149
0.0
100
AcDbLayout
  1
Layout1
 70
0
 71
1
 10
0.0
 20
0.0
 11
297.0
 21
210.0
 12
0.0
 22
0.0
 32
0.0
 14
0.0
 24
0.0
 34
0.0
 15
0.0
 25
0.0
 35
0.0
146
0.0
 13
0.0
 23
0.0
 33
0.0
 16
1.0
 26
0.0
 36
0.0
 17
0.0
 27
1.0
 37
0.0
 76
0
330
216
345
0
346
0
  0
ENDSEC
  0
EOF
