  0
SECTION
  2
HEADER
  9
$ACADVER
  1
AC1015
  9
$DWGCODEPAGE
  3
ANSI_1252
  9
$EXTMAX
 10
297.0
 20
210.0
 30
0.0
  9
$EXTMIN
 10
0.0
 20
0.0
 30
0.0
  9
$LIMMIN
 10
0.0
 20
0.0
  9
$LIMMAX
 10
297.0
 20
210.0
  9
$VIEWCTR
 10
148.5
 20
105.0
  9
$VIEWSIZE
 40
210.0
  9
$CLAYER
  8
0
  9
$LTSCALE
 40
16.335
  9
$CELTYPE
  6
BYLAYER
  9
$DIMSCALE
 40
1.0
  9
$DIMASZ
 40
3.0
  9
$DIMEXO
 40
1.85625
  9
$DIMDLI
 40
11.286
  9
$DIMEXE
 40
5.346
  9
$DIMCEN
 40
2.673
  9
$DIMLFAC
 40
1.0
  9
$DIMBLK
  1
_FILLED
  9
$DIMTXT
 40
3.0
  9
$DIMTOL
 70
1
  9
$DIMLIM
 70
0
  9
$DIMTFAC
 40
1.0
  9
$DIMTP
 40
0.01
  9
$DIMTM
 40
0.01
  9
$PDMODE
 70
3
  9
$PDSIZE
 40
3.0
  9
$HANDSEED
  5
410
  9
$TILEMODE
 70
1
  9
$MEASUREMENT
 70
1
  9
$INSUNITS
 70
4
  0
ENDSEC
  0
SECTION
  2
CLASSES
  0
CLASS
  1
ACDBDICTIONARYWDFLT
  2
AcDbDictionaryWithDefault
  3
AutoCAD 2000
 90
0
280
0
281
0
  0
CLASS
  1
ACDBPLACEHOLDER
  2
AcDbPlaceHolder
  3
AutoCAD 2000
 90
0
280
0
281
0
  0
CLASS
  1
LAYOUT
  2
AcDbLayout
  3
AutoCAD 2000
 90
0
280
0
281
0
  0
ENDSEC
  0
SECTION
  2
TABLES
  0
TABLE
  2
VPORT
  5
8
100
AcDbSymbolTable
 70
2
  0
VPORT
  5
1F4
100
AcDbSymbolTableRecord
100
AcDbViewportTableRecord
  2
*ACTIVE
 70
0
 10
0.0
 20
0.0
 11
1.0
 21
1.0
 12
148.5
 22
105.0
 13
0.0
 23
0.0
 14
1.0
 24
1.0
 15
0.0
 25
0.0
 16
0.0
 26
0.0
 36
1.0
 17
0.0
 27
0.0
 37
0.0
 40
210.0
 41
1.4142857143
 42
50.0
 43
0.0
 44
0.0
 50
0.0
 51
0.0
 71
0
 72
100
 73
1
 74
1
 75
0
 76
0
 77
0
 78
0
  0
ENDTAB
  0
TABLE
  2
LTYPE
  5
5
100
AcDbSymbolTable
 70
6
  0
LTYPE
  5
14
100
AcDbSymbolTableRecord
100
AcDbLinetypeTableRecord
  2
BYBLOCK
 70
0
  3

 72
65
 73
0
 40
0.0
  0
LTYPE
  5
15
100
AcDbSymbolTableRecord
100
AcDbLinetypeTableRecord
  2
BYLAYER
 70
0
  3

 72
65
 73
0
 40
0.0
  0
LTYPE
  5
16
100
AcDbSymbolTableRecord
100
AcDbLinetypeTableRecord
  2
CONTINUOUS
 70
64
  3
Solid line
 72
65
 73
0
 40
0.0
  0
LTYPE
  5
1F5
100
AcDbSymbolTableRecord
100
AcDbLinetypeTableRecord
  2
CENTER
 70
64
  3
____ _ ____ _ ____ _ ____ _ ____ _ ____ _ ____
 72
65
 73
4
 40
0.6
 49
0.375
 74
0
 49
-0.075
 74
0
 49
0.075
 74
0
 49
-0.075
 74
0
  0
LTYPE
  5
1F6
100
AcDbSymbolTableRecord
100
AcDbLinetypeTableRecord
  2
HIDDEN
 70
64
  3
- - - - - - - - - - - - - - - - - - - -
 72
65
 73
2
 40
0.2
 49
0.1
 74
0
 49
-0.1
 74
0
  0
LTYPE
  5
1F7
100
AcDbSymbolTableRecord
100
AcDbLinetypeTableRecord
  2
PHANTOM
 70
64
  3
_____ _ _ _____ _ _ _____ _ _ _____
 72
65
 73
6
 40
0.8
 49
0.45
 74
0
 49
-0.05
 74
0
 49
0.1
 74
0
 49
-0.05
 74
0
 49
0.1
 74
0
 49
-0.05
 74
0
  0
LTYPE
  5
1F8
100
AcDbSymbolTableRecord
100
AcDbLinetypeTableRecord
  2
DOT
 70
64
  3
. . . . . . . . . . . . . . . . . . . .
 72
65
 73
2
 40
0.2
 49
0.1
 74
0
 49
-0.1
 74
0
  0
LTYPE
  5
1F9
100
AcDbSymbolTableRecord
100
AcDbLinetypeTableRecord
  2
DASHED
 70
64
  3
- - - - - - - - - - - - - - - - - - - -
 72
65
 73
2
 40
0.2
 49
0.1
 74
0
 49
-0.1
 74
0
  0
ENDTAB
  0
TABLE
  2
LAYER
  5
2
100
AcDbSymbolTable
 70
36
  0
LAYER
  5
10
100
AcDbSymbolTableRecord
100
AcDbLayerTableRecord
  2
0
 70
0
 62
7
  6
CONTINUOUS
370
-3
390
F
  0
LAYER
  5
1FA
100
AcDbSymbolTableRecord
100
AcDbLayerTableRecord
  2
DEFAULT_1
 70
0
 62
7
  6
CENTER
370
-3
390
F
  0
LAYER
  5
1FB
100
AcDbSymbolTableRecord
100
AcDbLayerTableRecord
  2
DEFAULT_2
 70
0
 62
7
  6
HIDDEN
370
-3
390
F
  0
LAYER
  5
1FC
100
AcDbSymbolTableRecord
100
AcDbLayerTableRecord
  2
DEFAULT_3
 70
0
 62
7
  6
PHANTOM
370
-3
390
F
  0
LAYER
  5
1FD
100
AcDbSymbolTableRecord
100
AcDbLayerTableRecord
  2
ASSI
 70
0
 62
7
  6
CONTINUOUS
370
-3
390
F
  0
LAYER
  5
1FE
100
AcDbSymbolTableRecord
100
AcDbLayerTableRecord
  2
COLOR9
 70
0
 62
7
  6
CONTINUOUS
370
-3
390
F
  0
LAYER
  5
1FF
100
AcDbSymbolTableRecord
100
AcDbLayerTableRecord
  2
COORDINATE
 70
0
 62
7
  6
CONTINUOUS
370
-3
390
F
  0
LAYER
  5
200
100
AcDbSymbolTableRecord
100
AcDbLayerTableRecord
  2
COORD_ORIGINE
 70
0
 62
7
  6
CONTINUOUS
370
-3
390
F
  0
LAYER
  5
201
100
AcDbSymbolTableRecord
100
AcDbLayerTableRecord
  2
COSMETICI
 70
0
 62
7
  6
CONTINUOUS
370
-3
390
F
  0
LAYER
  5
202
100
AcDbSymbolTableRecord
100
AcDbLayerTableRecord
  2
CURVE
 70
0
 62
7
  6
CONTINUOUS
370
-3
390
F
  0
LAYER
  5
203
100
AcDbSymbolTableRecord
100
AcDbLayerTableRecord
  2
DRAFT
 70
0
 62
7
  6
CONTINUOUS
370
-3
390
F
  0
LAYER
  5
204
100
AcDbSymbolTableRecord
100
AcDbLayerTableRecord
  2
IMPORT_IGES
 70
0
 62
7
  6
CONTINUOUS
370
-3
390
F
  0
LAYER
  5
205
100
AcDbSymbolTableRecord
100
AcDbLayerTableRecord
  2
INTF_1
 70
0
 62
7
  6
CONTINUOUS
370
-3
390
F
  0
LAYER
  5
206
100
AcDbSymbolTableRecord
100
AcDbLayerTableRecord
  2
INTF_8
 70
0
 62
7
  6
CONTINUOUS
370
-3
390
F
  0
LAYER
  5
207
100
AcDbSymbolTableRecord
100
AcDbLayerTableRecord
  2
INTF_YELLOW
 70
0
 62
7
  6
CONTINUOUS
370
-3
390
F
  0
LAYER
  5
208
100
AcDbSymbolTableRecord
100
AcDbLayerTableRecord
  2
NOTE
 70
0
 62
7
  6
CONTINUOUS
370
-3
390
F
  0
LAYER
  5
209
100
AcDbSymbolTableRecord
100
AcDbLayerTableRecord
  2
PIANI
 70
0
 62
7
  6
CONTINUOUS
370
-3
390
F
  0
LAYER
  5
20A
100
AcDbSymbolTableRecord
100
AcDbLayerTableRecord
  2
PIANI_ORIGINE
 70
0
 62
7
  6
CONTINUOUS
370
-3
390
F
  0
LAYER
  5
20B
100
AcDbSymbolTableRecord
100
AcDbLayerTableRecord
  2
PIANI_RIFERIMENTO
 70
0
 62
7
  6
CONTINUOUS
370
-3
390
F
  0
LAYER
  5
20C
100
AcDbSymbolTableRecord
100
AcDbLayerTableRecord
  2
PUNTI
 70
0
 62
7
  6
CONTINUOUS
370
-3
390
F
  0
LAYER
  5
20D
100
AcDbSymbolTableRecord
100
AcDbLayerTableRecord
  2
RACCORDO
 70
0
 62
7
  6
CONTINUOUS
370
-3
390
F
  0
LAYER
  5
20E
100
AcDbSymbolTableRecord
100
AcDbLayerTableRecord
  2
RGB__255__255__255__
 70
0
 62
7
  6
CONTINUOUS
370
-3
390
F
  0
LAYER
  5
20F
100
AcDbSymbolTableRecord
100
AcDbLayerTableRecord
  2
RGB____0____0____0__
 70
0
 62
7
  6
CONTINUOUS
370
-3
390
F
  0
LAYER
  5
210
100
AcDbSymbolTableRecord
100
AcDbLayerTableRecord
  2
SIMBOLI
 70
0
 62
7
  6
CONTINUOUS
370
-3
390
F
  0
LAYER
  5
211
100
AcDbSymbolTableRecord
100
AcDbLayerTableRecord
  2
SMUSSO
 70
0
 62
7
  6
CONTINUOUS
370
-3
390
F
  0
LAYER
  5
212
100
AcDbSymbolTableRecord
100
AcDbLayerTableRecord
  2
SNAPLINE
 70
0
 62
7
  6
CONTINUOUS
370
-3
390
F
  0
LAYER
  5
213
100
AcDbSymbolTableRecord
100
AcDbLayerTableRecord
  2
SUPERFICI
 70
0
 62
7
  6
CONTINUOUS
370
-3
390
F
  0
LAYER
  5
214
100
AcDbSymbolTableRecord
100
AcDbLayerTableRecord
  2
TRASH
 70
0
 62
7
  6
CONTINUOUS
370
-3
390
F
  0
LAYER
  5
215
100
AcDbSymbolTableRecord
100
AcDbLayerTableRecord
  2
XSEC_DATUMS
 70
0
 62
7
  6
CONTINUOUS
370
-3
390
F
  0
ENDTAB
  0
TABLE
  2
STYLE
  5
3
100
AcDbSymbolTable
 70
1
  0
STYLE
  5
11
100
AcDbSymbolTableRecord
100
AcDbTextStyleTableRecord
  2
STANDARD
 70
0
 40
0.0
 41
0.8
 50
0.0
 71
0
 42
0.2
  3
txt
  4

  0
STYLE
  5
216
100
AcDbSymbolTableRecord
100
AcDbTextStyleTableRecord
  2
TEXTSTYLE_1
 70
0
 40
0.0
 41
0.8
 50
0.0
 71
0
 42
0.2
  3
gdt
  4

  0
ENDTAB
  0
TABLE
  2
VIEW
  5
6
100
AcDbSymbolTable
 70
0
  0
ENDTAB
  0
TABLE
  2
UCS
  5
7
100
AcDbSymbolTable
 70
0
  0
ENDTAB
  0
TABLE
  2
APPID
  5
9
100
AcDbSymbolTable
 70
1
  0
APPID
  5
217
100
AcDbSymbolTableRecord
100
AcDbRegAppTableRecord
  2
ACAD
 70
0
  0
ENDTAB
  0
TABLE
  2
BLOCK_RECORD
  5
1
100
AcDbSymbolTable
 70
0
  0
BLOCK_RECORD
  5
218
100
AcDbSymbolTableRecord
100
AcDbBlockTableRecord
  2
*Model_Space
  0
BLOCK_RECORD
  5
219
100
AcDbSymbolTableRecord
100
AcDbBlockTableRecord
  2
*Paper_Space
  0
ENDTAB
  0
TABLE
  2
DIMSTYLE
  5
A
100
AcDbSymbolTable
 70
1
100
AcDbDimStyleTable
 71
0
  0
DIMSTYLE
105
21A
100
AcDbSymbolTableRecord
100
AcDbDimStyleTableRecord
  2
STANDARD
 70
0
  3

  4

 40
1.0
 41
3.0
 42
0.0625
 43
0.38
 44
0.18
 45
0.0
 46
0.0
 47
0.01
 48
0.01
140
3.0
141
0.09
142
0.0
143
25.4
144
1.0
145
0.0
146
1.0
147
0.09
 71
1.0
 72
0.0
 73
0
 74
0
 75
0
 76
0
 77
1
 78
8
170
0
171
2
172
0
173
0
174
0
175
0
176
0
177
0
178
0
270
2
271
2
272
2
273
2
274
2
275
0
280
0
281
0
282
0
283
1
284
8
285
0
286
0
287
3
288
0
340
11
  0
ENDTAB
  0
ENDSEC
  0
SECTION
  2
BLOCKS
  0
BLOCK
  5
20
100
AcDbEntity
  8
0
100
AcDbBlockBegin
  2
*Model_Space
 70
0
 10
0.0
 20
0.0
 30
0.0
  3
*Model_Space
  1

  0
ENDBLK
  5
21
100
AcDbEntity
  8
0
100
AcDbBlockEnd
  0
BLOCK
  5
1C
100
AcDbEntity
  8
0
100
AcDbBlockBegin
  2
*Paper_Space
 70
0
 10
0.0
 20
0.0
 30
0.0
  3
*Paper_Space
  1

  0
ENDBLK
  5
1D
100
AcDbEntity
  8
0
100
AcDbBlockEnd
  0
ENDSEC
  0
SECTION
  2
ENTITIES
  0
LINE
  5
21B
100
AcDbEntity
  8
0
100
AcDbLine
 62
7
  6
CONTINUOUS
 10
-10.5516135728
 20
-22.1114422353
 11
10.5516135728
 21
-22.1114422353
  0
LWPOLYLINE
  5
21C
100
AcDbEntity
  8
RACCORDO
100
AcDbPolyline
 62
7
  6
CONTINUOUS
 90
25
 70
0
 10
9.5018754742
 20
-20.9117726717
 10
9.521618601
 20
-20.9111197669
 10
9.5412700787
 20
-20.9091639434
 10
9.5607447586
 20
-20.9059137159
 10
9.5799614886
 20
-20.9013822108
 10
9.598833583
 20
-20.8955895864
 10
9.6172698459
 20
-20.8885651167
 10
9.6351898961
 20
-20.8803415201
 10
9.6525182023
 20
-20.870955819
 10
9.6691756664
 20
-20.8604544471
 10
9.6850918985
 20
-20.84888539
 10
9.7002003191
 20
-20.8363010285
 10
9.7144341557
 20
-20.8227630417
 10
9.7277330051
 20
-20.8083351408
 10
9.7400457245
 20
-20.7930796921
 10
9.7513260914
 20
-20.7770619807
 10
9.7615289007
 20
-20.7603520386
 10
9.7706137383
 20
-20.7430226797
 10
9.7785475007
 20
-20.7251463996
 10
9.7852984569
 20
-20.7068016148
 10
9.7908414768
 20
-20.6880649162
 10
9.7951586127
 20
-20.6690076915
 10
9.7982332651
 20
-20.649707461
 10
9.8000521953
 20
-20.6302481235
 10
9.8006086115
 20
-20.610711414
  0
LINE
  5
21D
100
AcDbEntity
  8
RACCORDO
100
AcDbLine
 62
7
  6
CONTINUOUS
 10
9.5215450378
 20
-20.9314422353
 11
-9.5215450378
 21
-20.9314422353
  0
LINE
  5
21E
100
AcDbEntity
  8
RACCORDO
100
AcDbLine
 62
7
  6
CONTINUOUS
 10
-9.5018754742
 20
-20.9117726717
 11
9.5018754742
 21
-20.9117726717
  0
LINE
  5
21F
100
AcDbEntity
  8
0
100
AcDbLine
 62
7
  6
CONTINUOUS
 10
1.4974999753
 20
-16.75
 11
1.6225002166
 21
-16.7180851074
  0
LINE
  5
220
100
AcDbEntity
  8
0
100
AcDbLine
 62
7
  6
CONTINUOUS
 10
1.6225002166
 20
-16.5585106388
 11
1.4662500938
 21
-16.5904255286
  0
LINE
  5
221
100
AcDbEntity
  8
0
100
AcDbLine
 62
7
  6
CONTINUOUS
 10
-0.6275000145
 20
-16.75
 11
-0.4400000102
 21
-16.7180851074
  0
LINE
  5
222
100
AcDbEntity
  8
0
100
AcDbLine
 62
7
  6
CONTINUOUS
 10
-3.5
 20
-17.5
 11
3.5
 21
-17.5
  0
LINE
  5
223
100
AcDbEntity
  8
0
100
AcDbLine
 62
7
  6
CONTINUOUS
 10
-2.565
 20
-16.75
 11
-1.4399999738
 21
-16.75
  0
LINE
  5
224
100
AcDbEntity
  8
0
100
AcDbLine
 62
7
  6
CONTINUOUS
 10
0.3725001279
 20
-16.75
 11
0.5599999535
 21
-16.75
  0
LINE
  5
225
100
AcDbEntity
  8
0
100
AcDbLine
 62
7
  6
CONTINUOUS
 10
1.2475002079
 20
-16.75
 11
1.4974999753
 21
-16.75
  0
LINE
  5
226
100
AcDbEntity
  8
0
100
AcDbLine
 62
7
  6
CONTINUOUS
 10
2.3725002341
 20
-16.75
 11
2.5600002384
 21
-16.75
  0
LINE
  5
227
100
AcDbEntity
  8
0
100
AcDbLine
 62
7
  6
CONTINUOUS
 10
1.4662500938
 20
-16.5904255286
 11
1.2787500894
 21
-16.5904255286
  0
LINE
  5
228
100
AcDbEntity
  8
0
100
AcDbLine
 62
7
  6
CONTINUOUS
 10
-1.4399999738
 20
-16.5904255286
 11
-2.3149999867
 21
-16.5904255286
  0
LINE
  5
229
100
AcDbEntity
  8
0
100
AcDbLine
 62
7
  6
CONTINUOUS
 10
0.9662502013
 20
-16.3989361674
 11
0.8100000785
 21
-16.3989361674
  0
LINE
  5
22A
100
AcDbEntity
  8
0
100
AcDbLine
 62
7
  6
CONTINUOUS
 10
-0.8150000189
 20
-16.7180851074
 11
-0.6275000145
 21
-16.75
  0
LINE
  5
22B
100
AcDbEntity
  8
0
100
AcDbLine
 62
7
  6
CONTINUOUS
 10
-0.6275000145
 20
-16.5904255286
 11
-0.7837499586
 21
-16.5585106388
  0
LWPOLYLINE
  5
22C
100
AcDbEntity
  8
0
100
AcDbPolyline
 62
7
  6
CONTINUOUS
 90
11
 70
0
 10
3.2864526086
 20
17.4795638075
 10
3.2927906626
 20
17.4815671269
 10
3.2991761295
 20
17.4840383678
 10
3.3056090095
 20
17.4869775257
 10
3.3120757535
 20
17.490465645
 10
3.3185899105
 20
17.4944216694
 10
3.3251921278
 20
17.4986024468
 10
3.3319024731
 20
17.5029051952
 10
3.3387008788
 20
17.5074326905
 10
3.3455677893
 20
17.512250119
 10
3.3524961491
 20
17.5173693442
  0
LINE
  5
22D
100
AcDbEntity
  8
0
100
AcDbLine
 62
7
  6
CONTINUOUS
 10
-0.4712498917
 20
-16.5585106388
 11
-0.6275000145
 21
-16.5904255286
  0
LINE
  5
22E
100
AcDbEntity
  8
0
100
AcDbLine
 62
7
  6
CONTINUOUS
 10
1.1537502057
 20
-15.4414893389
 11
1.3099999709
 21
-15.4095744491
  0
LINE
  5
22F
100
AcDbEntity
  8
0
100
AcDbLine
 62
7
  6
CONTINUOUS
 10
-0.7837499586
 20
-15.4414893389
 11
-0.6275000145
 21
-15.4095744491
  0
LINE
  5
230
100
AcDbEntity
  8
0
100
AcDbLine
 62
7
  6
CONTINUOUS
 10
-2.2212499846
 20
-15.4414893389
 11
-2.0649999735
 21
-15.4095744491
  0
LINE
  5
231
100
AcDbEntity
  8
0
100
AcDbLine
 62
7
  6
CONTINUOUS
 10
-0.6275000145
 20
-15.25
 11
-0.8150000189
 21
-15.2819148898
  0
LINE
  5
232
100
AcDbEntity
  8
0
100
AcDbLine
 62
7
  6
CONTINUOUS
 10
1.3412502101
 20
-15.25
 11
1.1224999666
 21
-15.2819148898
  0
LINE
  5
233
100
AcDbEntity
  8
0
100
AcDbLine
 62
7
  6
CONTINUOUS
 10
-2.0337500025
 20
-15.25
 11
-2.2525000002
 21
-15.2819148898
  0
LINE
  5
234
100
AcDbEntity
  8
0
100
AcDbLine
 62
7
  6
CONTINUOUS
 10
1.3099999709
 20
-16.0478723347
 11
1.4350002123
 21
-16.0478723347
  0
LINE
  5
235
100
AcDbEntity
  8
0
100
AcDbLine
 62
7
  6
CONTINUOUS
 10
1.4350002123
 20
-15.9202127755
 11
1.3099999709
 21
-15.9202127755
  0
LINE
  5
236
100
AcDbEntity
  8
0
100
AcDbLine
 62
7
  6
CONTINUOUS
 10
-2.5337499983
 20
-15.6010637879
 11
-2.3774999956
 21
-15.6010637879
  0
LINE
  5
237
100
AcDbEntity
  8
0
100
AcDbLine
 62
7
  6
CONTINUOUS
 10
0.84124996
 20
-15.6010637879
 11
0.9975000829
 21
-15.6010637879
  0
LINE
  5
238
100
AcDbEntity
  8
0
100
AcDbLine
 62
7
  6
CONTINUOUS
 10
-2.0649999735
 20
-15.4095744491
 11
-1.9400000004
 21
-15.4095744491
  0
LINE
  5
239
100
AcDbEntity
  8
0
100
AcDbLine
 62
7
  6
CONTINUOUS
 10
1.3099999709
 20
-15.4095744491
 11
1.4350002123
 21
-15.4095744491
  0
LINE
  5
23A
100
AcDbEntity
  8
0
100
AcDbLine
 62
7
  6
CONTINUOUS
 10
2.5600002384
 20
-15.25
 11
2.3725002341
 21
-15.25
  0
LINE
  5
23B
100
AcDbEntity
  8
0
100
AcDbLine
 62
7
  6
CONTINUOUS
 10
1.4037499731
 20
-15.25
 11
1.3412502101
 21
-15.25
  0
LINE
  5
23C
100
AcDbEntity
  8
0
100
AcDbLine
 62
7
  6
CONTINUOUS
 10
0.5599999535
 20
-15.25
 11
0.3725001279
 21
-15.25
  0
LINE
  5
23D
100
AcDbEntity
  8
0
100
AcDbLine
 62
7
  6
CONTINUOUS
 10
-1.9087499847
 20
-15.25
 11
-2.0337500025
 21
-15.25
  0
LINE
  5
23E
100
AcDbEntity
  8
0
100
AcDbLine
 62
7
  6
CONTINUOUS
 10
1.6225002166
 20
-15.2819148898
 11
1.4037499731
 21
-15.25
  0
LINE
  5
23F
100
AcDbEntity
  8
0
100
AcDbLine
 62
7
  6
CONTINUOUS
 10
1.4350002123
 20
-16.0478723347
 11
1.6225002166
 21
-16.0797872245
  0
LINE
  5
240
100
AcDbEntity
  8
0
100
AcDbLine
 62
7
  6
CONTINUOUS
 10
-1.7212499804
 20
-15.2819148898
 11
-1.9087499847
 21
-15.25
  0
LINE
  5
241
100
AcDbEntity
  8
0
100
AcDbLine
 62
7
  6
CONTINUOUS
 10
-0.4400000102
 20
-15.2819148898
 11
-0.6275000145
 21
-15.25
  0
LINE
  5
242
100
AcDbEntity
  8
0
100
AcDbLine
 62
7
  6
CONTINUOUS
 10
1.2787500894
 20
-16.5904255286
 11
1.1224999666
 21
-16.5585106388
  0
LINE
  5
243
100
AcDbEntity
  8
0
100
AcDbLine
 62
7
  6
CONTINUOUS
 10
-1.9400000004
 20
-15.4095744491
 11
-1.7837500116
 21
-15.4414893389
  0
LINE
  5
244
100
AcDbEntity
  8
0
100
AcDbLine
 62
7
  6
CONTINUOUS
 10
-0.6275000145
 20
-15.4095744491
 11
-0.4712498917
 21
-15.4414893389
  0
LINE
  5
245
100
AcDbEntity
  8
0
100
AcDbLine
 62
7
  6
CONTINUOUS
 10
1.4350002123
 20
-15.4095744491
 11
1.5912499775
 21
-15.4414893389
  0
LINE
  5
246
100
AcDbEntity
  8
0
100
AcDbLine
 62
7
  6
CONTINUOUS
 10
1.1224999666
 20
-16.7180851074
 11
1.2475002079
 21
-16.75
  0
LINE
  5
247
100
AcDbEntity
  8
0
100
AcDbLine
 62
7
  6
CONTINUOUS
 10
-0.9712499629
 20
-16.6223404296
 11
-0.8150000189
 21
-16.7180851074
  0
LINE
  5
248
100
AcDbEntity
  8
0
100
AcDbLine
 62
7
  6
CONTINUOUS
 10
-9.7772527777
 20
10.4032733012
 11
-9.7821633529
 21
10.4
  0
LINE
  5
249
100
AcDbEntity
  8
0
100
AcDbLine
 62
7
  6
CONTINUOUS
 10
5.6110365985
 20
-13.2720505284
 11
5.4106909682
 21
-13.282550198
  0
LINE
  5
24A
100
AcDbEntity
  8
0
100
AcDbLine
 62
7
  6
CONTINUOUS
 10
-5.65
 20
-13.3004252194
 11
-5.35
 21
-13.2962124327
  0
LINE
  5
24B
100
AcDbEntity
  8
0
100
AcDbLine
 62
7
  6
CONTINUOUS
 10
-3.5
 20
-14.5
 11
3.5
 21
-14.5
  0
LINE
  5
24C
100
AcDbEntity
  8
0
100
AcDbLine
 62
7
  6
CONTINUOUS
 10
-6.483558219
 20
-13.4025387708
 11
-5.65
 21
-13.4025387708
  0
LINE
  5
24D
100
AcDbEntity
  8
0
100
AcDbLine
 62
7
  6
CONTINUOUS
 10
5.65
 20
-13.4025387708
 11
6.483558219
 21
-13.4025387708
  0
LINE
  5
24E
100
AcDbEntity
  8
0
100
AcDbLine
 62
7
  6
CONTINUOUS
 10
5.9704141733
 20
-13.2689805518
 11
5.7524579547
 21
-13.2689805518
  0
LINE
  5
24F
100
AcDbEntity
  8
0
100
AcDbLine
 62
7
  6
CONTINUOUS
 10
-5.7524579547
 20
-13.2689805518
 11
-5.9704141733
 21
-13.2689805518
  0
LINE
  5
250
100
AcDbEntity
  8
0
100
AcDbLine
 62
7
  6
CONTINUOUS
 10
5.35
 20
-13.2962124327
 11
5.65
 21
-13.3004252194
  0
LINE
  5
251
100
AcDbEntity
  8
0
100
AcDbLine
 62
7
  6
CONTINUOUS
 10
-5.4106909682
 20
-13.282550198
 11
-5.6110365985
 21
-13.2720505284
  0
LINE
  5
252
100
AcDbEntity
  8
0
100
AcDbLine
 62
7
  6
CONTINUOUS
 10
1.8412501025
 20
-16.0478723347
 11
1.6849999796
 21
-15.9840425551
  0
LINE
  5
253
100
AcDbEntity
  8
0
100
AcDbLine
 62
7
  6
CONTINUOUS
 10
-1.5962500073
 20
-15.3457446694
 11
-1.7212499804
 21
-15.2819148898
  0
LINE
  5
254
100
AcDbEntity
  8
0
100
AcDbLine
 62
7
  6
CONTINUOUS
 10
0.9975000829
 20
-16.6542553194
 11
1.1224999666
 21
-16.7180851074
  0
LINE
  5
255
100
AcDbEntity
  8
0
100
AcDbLine
 62
7
  6
CONTINUOUS
 10
1.1224999666
 20
-16.5585106388
 11
1.0600002035
 21
-16.526595749
  0
LINE
  5
256
100
AcDbEntity
  8
0
100
AcDbLine
 62
7
  6
CONTINUOUS
 10
-0.2837498873
 20
-15.3776595592
 11
-0.4400000102
 21
-15.2819148898
  0
LINE
  5
257
100
AcDbEntity
  8
0
100
AcDbLine
 62
7
  6
CONTINUOUS
 10
-9.7772527777
 20
-10.4032733012
 11
-9.7821633529
 21
-10.4
  0
LINE
  5
258
100
AcDbEntity
  8
0
100
AcDbLine
 62
7
  6
CONTINUOUS
 10
-0.7837499586
 20
-16.5585106388
 11
-0.8774999607
 21
-16.4946808591
  0
LINE
  5
259
100
AcDbEntity
  8
0
100
AcDbLine
 62
7
  6
CONTINUOUS
 10
-1.7837500116
 20
-15.4414893389
 11
-1.6900000094
 21
-15.5053191185
  0
LINE
  5
25A
100
AcDbEntity
  8
0
100
AcDbLine
 62
7
  6
CONTINUOUS
 10
0.9037500807
 20
-16.5904255286
 11
0.9975000829
 21
-16.6542553194
  0
LINE
  5
25B
100
AcDbEntity
  8
0
100
AcDbLine
 62
7
  6
CONTINUOUS
 10
-0.4712498917
 20
-15.4414893389
 11
-0.3774998895
 21
-15.5053191185
  0
LINE
  5
25C
100
AcDbEntity
  8
0
100
AcDbLine
 62
7
  6
CONTINUOUS
 10
-6.3698659872
 20
9.711153461
 11
-6.4810194482
 21
9.6
  0
LINE
  5
25D
100
AcDbEntity
  8
0
100
AcDbLine
 62
7
  6
CONTINUOUS
 10
-0.237454
 20
15.949703
 11
-1.079521
 21
15.121559
  0
LINE
  5
25E
100
AcDbEntity
  8
0
100
AcDbLine
 62
7
  6
CONTINUOUS
 10
-0.599511
 20
15.168115
 11
0.217376
 21
15.949703
  0
LINE
  5
25F
100
AcDbEntity
  8
0
100
AcDbLine
 62
7
  6
CONTINUOUS
 10
-1.079521
 20
14.70857
 11
-0.836947
 21
14.934799
  0
LWPOLYLINE
  5
260
100
AcDbEntity
  8
0
100
AcDbPolyline
 62
7
  6
CONTINUOUS
 90
54
 70
0
 10
3.3524961491
 20
17.5173693442
 10
3.3594930137
 20
17.5227784917
 10
3.3665599946
 20
17.5285071393
 10
3.3736997074
 20
17.5345609496
 10
3.3809095364
 20
17.5409342457
 10
3.3881832462
 20
17.5476395954
 10
3.3955243274
 20
17.5546653189
 10
3.4029292893
 20
17.562023079
 10
3.4103814243
 20
17.5697604547
 10
3.4178901048
 20
17.5778767402
 10
3.4254459585
 20
17.5863726186
 10
3.4330041601
 20
17.5952977487
 10
3.4405652896
 20
17.6046473601
 10
3.4481287672
 20
17.6144261934
 10
3.4556480284
 20
17.6246981687
 10
3.4631302809
 20
17.6354637111
 10
3.4705683171
 20
17.6467223558
 10
3.4778939498
 20
17.6585366822
 10
3.4851159349
 20
17.6709097411
 10
3.4922255165
 20
17.6838384299
 10
3.4991282396
 20
17.697376091
 10
3.5058300276
 20
17.7115181607
 10
3.5123249572
 20
17.7262691378
 10
3.518500803
 20
17.7416959492
 10
3.5243679245
 20
17.7578196234
 10
3.5299159622
 20
17.7746190482
 10
3.5350016126
 20
17.7920979323
 10
3.5396238165
 20
17.8102503357
 10
3.5437836331
 20
17.8290821038
 10
3.5473409366
 20
17.8486146194
 10
3.5502972557
 20
17.8688237581
 10
3.5526510618
 20
17.8897335354
 10
3.5542576433
 20
17.9114375313
 10
3.5551494121
 20
17.9339591004
 10
3.5552939563
 20
17.9572747469
 10
3.5544493283
 20
17.9814077613
 10
3.552697666
 20
18.0063864479
 10
3.5499568315
 20
18.0321823389
 10
3.5457384631
 20
18.0587335662
 10
3.5400294695
 20
18.0861999519
 10
3.532842942
 20
18.1144214955
 10
3.523729793
 20
18.1428566583
 10
3.5126350528
 20
18.1715327155
 10
3.4996136912
 20
18.2004223348
 10
3.4843815295
 20
18.2289021979
 10
3.4668957425
 20
18.2569631288
 10
3.4471991553
 20
18.2846143915
 10
3.4251360654
 20
18.3112604651
 10
3.4005348908
 20
18.3370674494
 10
3.3735672135
 20
18.3618694421
 10
3.3445920759
 20
18.3845730901
 10
3.3137291591
 20
18.404814112
 10
3.280858782
 20
18.4229571763
 10
3.2459809447
 20
18.4390024381
  0
LINE
  5
261
100
AcDbEntity
  8
0
100
AcDbLine
 62
7
  6
CONTINUOUS
 10
1.7475001003
 20
-15.3457446694
 11
1.6225002166
 21
-15.2819148898
  0
LINE
  5
262
100
AcDbEntity
  8
0
100
AcDbLine
 62
7
  6
CONTINUOUS
 10
1.6225002166
 20
-16.0797872245
 11
1.7162502188
 21
-16.1436170042
  0
LINE
  5
263
100
AcDbEntity
  8
0
100
AcDbLine
 62
7
  6
CONTINUOUS
 10
1.5912499775
 20
-15.4414893389
 11
1.6849999796
 21
-15.5053191185
  0
LINE
  5
264
100
AcDbEntity
  8
0
100
AcDbLine
 62
7
  6
CONTINUOUS
 10
-6.3698659872
 20
-9.711153461
 11
-6.4810194482
 21
-9.6
  0
LINE
  5
265
100
AcDbEntity
  8
0
100
AcDbLine
 62
7
  6
CONTINUOUS
 10
-1.0649999651
 20
-16.526595749
 11
-0.9712499629
 21
-16.6223404296
  0
LINE
  5
266
100
AcDbEntity
  8
0
100
AcDbLine
 62
7
  6
CONTINUOUS
 10
-1.4712499448
 20
-15.4734042287
 11
-1.5962500073
 21
-15.3457446694
  0
LWPOLYLINE
  5
267
100
AcDbEntity
  8
RACCORDO
100
AcDbPolyline
 62
7
  6
CONTINUOUS
 90
25
 70
0
 10
-9.8006086115
 20
-20.610711414
 10
-9.8000521005
 20
-20.6302496925
 10
-9.7982327463
 20
-20.649711577
 10
-9.7951571501
 20
-20.6690152815
 10
-9.7908382882
 20
-20.688077136
 10
-9.7852926253
 20
-20.7068192037
 10
-9.7785382994
 20
-20.725169095
 10
-9.7706004276
 20
-20.7430502113
 10
-9.7615107917
 20
-20.7603839938
 10
-9.7513031663
 20
-20.7770969028
 10
-9.7400183191
 20
-20.7931160146
 10
-9.7277015627
 20
-20.808371577
 10
-9.7143996818
 20
-20.8227980559
 10
-9.7001643192
 20
-20.8363330762
 10
-9.6850558788
 20
-20.8489134287
 10
-9.6691409202
 20
-20.8604779876
 10
-9.6524863202
 20
-20.8709744751
 10
-9.6351623567
 20
-20.8803552776
 10
-9.6172470886
 20
-20.8885746608
 10
-9.5988159097
 20
-20.8955956584
 10
-9.5799491897
 20
-20.9013855452
 10
-9.5607371054
 20
-20.905915255
 10
-9.5412659171
 20
-20.9091644958
 10
-9.5216170082
 20
-20.9111198707
 10
-9.5018754742
 20
-20.9117726717
  0
LINE
  5
268
100
AcDbEntity
  8
0
100
AcDbLine
 62
7
  6
CONTINUOUS
 10
-11.0514422353
 20
21.6116135728
 11
-11.0514422353
 21
-21.6116135728
  0
LINE
  5
269
100
AcDbEntity
  8
0
100
AcDbLine
 62
7
  6
CONTINUOUS
 10
-10.0593484794
 20
3.25
 11
-10.0593484794
 21
1.3228756555
  0
LINE
  5
26A
100
AcDbEntity
  8
0
100
AcDbLine
 62
7
  6
CONTINUOUS
 10
-10.0593484794
 20
-1.3228756555
 11
-10.0593484794
 21
-3.25
  0
LINE
  5
26B
100
AcDbEntity
  8
0
100
AcDbLine
 62
7
  6
CONTINUOUS
 10
-9.8214422353
 20
-20.6315450378
 11
-9.8214422353
 21
-3.25
  0
LINE
  5
26C
100
AcDbEntity
  8
0
100
AcDbLine
 62
7
  6
CONTINUOUS
 10
-9.8214422353
 20
3.25
 11
-9.8214422353
 21
20.6315450378
  0
LINE
  5
26D
100
AcDbEntity
  8
0
100
AcDbLine
 62
7
  6
CONTINUOUS
 10
-9.7821633529
 20
10.4
 11
-9.7821633529
 21
9.6
  0
LINE
  5
26E
100
AcDbEntity
  8
0
100
AcDbLine
 62
7
  6
CONTINUOUS
 10
-9.7821633529
 20
-9.6
 11
-9.7821633529
 21
-10.4
  0
LWPOLYLINE
  5
26F
100
AcDbEntity
  8
0
100
AcDbPolyline
 62
7
  6
CONTINUOUS
 90
10
 70
0
 10
0.7441745085
 20
15.5288156973
 10
0.774682562
 20
15.5590782843
 10
0.8089949048
 20
15.5866165502
 10
0.8471115372
 20
15.6114307163
 10
0.88964588
 20
15.6339653031
 10
0.9359845122
 20
15.6537761521
 10
0.9842871707
 20
15.669530513
 10
1.0339404344
 20
15.6807842789
 10
1.0855577243
 20
15.6879818989
 10
1.1391390405
 20
15.6911234612
  0
LINE
  5
270
100
AcDbEntity
  8
0
100
AcDbLine
 62
7
  6
CONTINUOUS
 10
5.35
 20
-9.7037875673
 11
5.65
 21
-9.6995747806
  0
LINE
  5
271
100
AcDbEntity
  8
0
100
AcDbLine
 62
7
  6
CONTINUOUS
 10
-9.7772527777
 20
-10.4032733012
 11
-6.4908473377
 21
-10.4032733012
  0
LINE
  5
272
100
AcDbEntity
  8
0
100
AcDbLine
 62
7
  6
CONTINUOUS
 10
6.4908473377
 20
-10.4032733012
 11
9.7772527777
 21
-10.4032733012
  0
LINE
  5
273
100
AcDbEntity
  8
0
100
AcDbLine
 62
7
  6
CONTINUOUS
 10
-9.7821633529
 20
-10.4
 11
-6.4810194482
 21
-10.4
  0
LINE
  5
274
100
AcDbEntity
  8
0
100
AcDbLine
 62
7
  6
CONTINUOUS
 10
6.4810194482
 20
-10.4
 11
9.7821633529
 21
-10.4
  0
LINE
  5
275
100
AcDbEntity
  8
0
100
AcDbLine
 62
7
  6
CONTINUOUS
 10
5.9704141733
 20
-9.7310194482
 11
5.7524579547
 21
-9.7310194482
  0
LINE
  5
276
100
AcDbEntity
  8
0
100
AcDbLine
 62
7
  6
CONTINUOUS
 10
-5.7524579547
 20
-9.7310194482
 11
-5.9704141733
 21
-9.7310194482
  0
LINE
  5
277
100
AcDbEntity
  8
0
100
AcDbLine
 62
7
  6
CONTINUOUS
 10
-5.65
 20
-9.6995747806
 11
-5.35
 21
-9.7037875673
  0
LINE
  5
278
100
AcDbEntity
  8
0
100
AcDbLine
 62
7
  6
CONTINUOUS
 10
-0.1899998852
 20
-15.4734042287
 11
-0.2837498873
 21
-15.3776595592
  0
LINE
  5
279
100
AcDbEntity
  8
0
100
AcDbLine
 62
7
  6
CONTINUOUS
 10
1.0600002035
 20
-16.526595749
 11
0.9975000829
 21
-16.462765947
  0
LINE
  5
27A
100
AcDbEntity
  8
0
100
AcDbLine
 62
7
  6
CONTINUOUS
 10
-1.6900000094
 20
-15.5053191185
 11
-1.6274999782
 21
-15.6010637879
  0
LINE
  5
27B
100
AcDbEntity
  8
0
100
AcDbLine
 62
7
  6
CONTINUOUS
 10
-0.8774999607
 20
-16.4946808591
 11
-1.0025000233
 21
-16.3031914979
  0
LINE
  5
27C
100
AcDbEntity
  8
0
100
AcDbLine
 62
7
  6
CONTINUOUS
 10
-9.0174550649
 20
3.25
 11
-9.0174550649
 21
-3.25
  0
LINE
  5
27D
100
AcDbEntity
  8
0
100
AcDbLine
 62
253
  6
CONTINUOUS
 10
-9.0051451296
 20
-3.25
 11
-9.0051451296
 21
3.25
  0
LINE
  5
27E
100
AcDbEntity
  8
0
100
AcDbLine
 62
253
  6
CONTINUOUS
 10
-8.7051908211
 20
-3.25
 11
-8.7051908211
 21
3.25
  0
LINE
  5
27F
100
AcDbEntity
  8
0
100
AcDbLine
 62
7
  6
CONTINUOUS
 10
-5.35
 20
13.2962124327
 11
-5.3521427854
 21
13.2897788489
  0
LWPOLYLINE
  5
280
100
AcDbEntity
  8
0
100
AcDbPolyline
 62
7
  6
CONTINUOUS
 90
10
 70
0
 10
0.4610032079
 20
15.6984891933
 10
0.4163974309
 20
15.6415330842
 10
0.3759885561
 20
15.5790183996
 10
0.3397765835
 20
15.5109441295
 10
0.3072384333
 20
15.4367720396
 10
0.2788971852
 20
15.3570380442
 10
0.2563220792
 20
15.2733526256
 10
0.2400361951
 20
15.1862521873
 10
0.229516453
 20
15.0951986417
 10
0.224762853
 20
15.0001910737
  0
LINE
  5
281
100
AcDbEntity
  8
RACCORDO
100
AcDbLine
 62
253
  6
CONTINUOUS
 10
9.5018754742
 20
20.9117726717
 11
9.5215450378
 21
20.9314422353
  0
LWPOLYLINE
  5
282
100
AcDbEntity
  8
0
100
AcDbPolyline
 62
7
  6
CONTINUOUS
 90
10
 70
0
 10
1.5322267946
 20
14.4712078515
 10
1.5017733127
 20
14.4409695059
 10
1.4675294089
 20
14.4134405633
 10
1.4294950834
 20
14.3886212158
 10
1.3870240853
 20
14.366056653
 10
1.3407626654
 20
14.3462019948
 10
1.2926495758
 20
14.3304223672
 10
1.2433310671
 20
14.3191729324
 10
1.1921608887
 20
14.3119988148
 10
1.1391390405
 20
14.3089000876
  0
LINE
  5
283
100
AcDbEntity
  8
0
100
AcDbLine
 62
7
  6
CONTINUOUS
 10
-5.4106909682
 20
-9.717449802
 11
-5.6110365985
 21
-9.7279494716
  0
LINE
  5
284
100
AcDbEntity
  8
0
100
AcDbLine
 62
7
  6
CONTINUOUS
 10
9.7821633529
 20
-9.6
 11
6.4810194482
 21
-9.6
  0
LINE
  5
285
100
AcDbEntity
  8
0
100
AcDbLine
 62
7
  6
CONTINUOUS
 10
-6.4810194482
 20
-9.6
 11
-9.7821633529
 21
-9.6
  0
LINE
  5
286
100
AcDbEntity
  8
0
100
AcDbLine
 62
7
  6
CONTINUOUS
 10
-9.7767229342
 20
-9.5891116965
 11
-5.65
 21
-9.5891116965
  0
LINE
  5
287
100
AcDbEntity
  8
0
100
AcDbLine
 62
7
  6
CONTINUOUS
 10
5.65
 20
-9.5891116965
 11
9.7767229342
 21
-9.5891116965
  0
LINE
  5
288
100
AcDbEntity
  8
0
100
AcDbLine
 62
253
  6
CONTINUOUS
 10
-9.7766653968
 20
-9.4772
 11
-0.2123208892
 21
-9.4772
  0
LINE
  5
289
100
AcDbEntity
  8
0
100
AcDbLine
 62
253
  6
CONTINUOUS
 10
0.2123208892
 20
-9.4772
 11
9.7766653968
 21
-9.4772
  0
LINE
  5
28A
100
AcDbEntity
  8
0
100
AcDbLine
 62
7
  6
CONTINUOUS
 10
4.1
 20
-8.5
 11
1.4142135624
 21
-8.5
  0
LINE
  5
28B
100
AcDbEntity
  8
0
100
AcDbLine
 62
7
  6
CONTINUOUS
 10
-1.4142135624
 20
-8.5
 11
-4.1
 21
-8.5
  0
LINE
  5
28C
100
AcDbEntity
  8
0
100
AcDbLine
 62
7
  6
CONTINUOUS
 10
5.6110365985
 20
-9.7279494716
 11
5.4106909682
 21
-9.717449802
  0
LINE
  5
28D
100
AcDbEntity
  8
RACCORDO
100
AcDbLine
 62
253
  6
CONTINUOUS
 10
9.5018754742
 20
-20.9117726717
 11
9.5215450378
 21
-20.9314422353
  0
LINE
  5
28E
100
AcDbEntity
  8
0
100
AcDbLine
 62
7
  6
CONTINUOUS
 10
1.872499984
 20
-15.4734042287
 11
1.7475001003
 21
-15.3457446694
  0
LINE
  5
28F
100
AcDbEntity
  8
0
100
AcDbLine
 62
7
  6
CONTINUOUS
 10
-0.3774998895
 20
-15.5053191185
 11
-0.2525000058
 21
-15.6968085468
  0
LINE
  5
290
100
AcDbEntity
  8
0
100
AcDbLine
 62
7
  6
CONTINUOUS
 10
0.84124996
 20
-16.4946808591
 11
0.9037500807
 21
-16.5904255286
  0
LINE
  5
291
100
AcDbEntity
  8
0
100
AcDbLine
 62
7
  6
CONTINUOUS
 10
-1.1274999964
 20
-16.3989361674
 11
-1.0649999651
 21
-16.526595749
  0
LINE
  5
292
100
AcDbEntity
  8
0
100
AcDbLine
 62
7
  6
CONTINUOUS
 10
-5.35
 20
-13.2962124327
 11
-5.3521427854
 21
-13.2897788489
  0
LINE
  5
293
100
AcDbEntity
  8
0
100
AcDbLine
 62
7
  6
CONTINUOUS
 10
-6.4810194482
 20
10.4
 11
-6.4810194482
 21
9.6
  0
LINE
  5
294
100
AcDbEntity
  8
0
100
AcDbLine
 62
7
  6
CONTINUOUS
 10
-6.4810194482
 20
-10.4
 11
-6.4810194482
 21
-9.6
  0
LINE
  5
295
100
AcDbEntity
  8
0
100
AcDbLine
 62
7
  6
CONTINUOUS
 10
-2.554611
 20
18.481352
 11
-2.927819
 21
17.173629
  0
LINE
  5
296
100
AcDbEntity
  8
0
100
AcDbLine
 62
7
  6
CONTINUOUS
 10
-2.768996
 20
16.581506
 11
-2.15831
 21
18.481352
  0
LINE
  5
297
100
AcDbEntity
  8
0
100
AcDbLine
 62
7
  6
CONTINUOUS
 10
-0.044336
 20
18.481352
 11
-0.440908
 21
17.426552
  0
LWPOLYLINE
  5
298
100
AcDbEntity
  8
0
100
AcDbPolyline
 62
7
  6
CONTINUOUS
 90
10
 70
0
 10
1.8142796834
 20
14.3005718861
 10
1.8590830026
 20
14.3575441094
 10
1.8996733575
 20
14.4201102276
 10
1.9360507482
 20
14.4882693251
 10
1.9687413872
 20
14.5625547216
 10
1.9972190619
 20
14.6424308948
 10
2.0199051342
 20
14.7262938455
 10
2.0362733914
 20
14.8136084
 10
2.0468500463
 20
14.9049078373
 10
2.0516350988
 20
15.0001910737
  0
LINE
  5
299
100
AcDbEntity
  8
RACCORDO
100
AcDbLine
 62
253
  6
CONTINUOUS
 10
9.8006086115
 20
20.610711414
 11
9.8214422353
 21
20.6315450378
  0
LINE
  5
29A
100
AcDbEntity
  8
0
100
AcDbLine
 62
7
  6
CONTINUOUS
 10
6.4908473377
 20
10.4032733012
 11
6.4810194482
 21
10.4
  0
LINE
  5
29B
100
AcDbEntity
  8
0
100
AcDbLine
 62
7
  6
CONTINUOUS
 10
6.4908473377
 20
-10.4032733012
 11
6.4810194482
 21
-10.4
  0
LINE
  5
29C
100
AcDbEntity
  8
RACCORDO
100
AcDbLine
 62
253
  6
CONTINUOUS
 10
9.8006086115
 20
-20.610711414
 11
9.8214422353
 21
-20.6315450378
  0
LINE
  5
29D
100
AcDbEntity
  8
0
100
AcDbLine
 62
7
  6
CONTINUOUS
 10
1.9037502232
 20
-16.1436170042
 11
1.8412501025
 21
-16.0478723347
  0
LINE
  5
29E
100
AcDbEntity
  8
0
100
AcDbLine
 62
7
  6
CONTINUOUS
 10
1.6849999796
 20
-15.5053191185
 11
1.7475001003
 21
-15.6010637879
  0
LINE
  5
29F
100
AcDbEntity
  8
0
100
AcDbLine
 62
7
  6
CONTINUOUS
 10
-0.1274999433
 20
-15.6010637879
 11
-0.1899998852
 21
-15.4734042287
  0
LINE
  5
2A0
100
AcDbEntity
  8
0
100
AcDbLine
 62
253
  6
CONTINUOUS
 10
-6.3698659872
 20
-13.288846539
 11
-6.3698659872
 21
-9.711153461
  0
LINE
  5
2A1
100
AcDbEntity
  8
0
100
AcDbLine
 62
253
  6
CONTINUOUS
 10
-6.3698659872
 20
9.711153461
 11
-6.3698659872
 21
13.288846539
  0
LINE
  5
2A2
100
AcDbEntity
  8
0
100
AcDbLine
 62
253
  6
CONTINUOUS
 10
-5.9704141733
 20
-13.2689805518
 11
-5.9704141733
 21
-9.7310194482
  0
LINE
  5
2A3
100
AcDbEntity
  8
0
100
AcDbLine
 62
253
  6
CONTINUOUS
 10
-5.9704141733
 20
9.7310194482
 11
-5.9704141733
 21
13.2689805518
  0
LINE
  5
2A4
100
AcDbEntity
  8
0
100
AcDbLine
 62
253
  6
CONTINUOUS
 10
-5.7524579547
 20
-13.2689805518
 11
-5.7524579547
 21
-9.7310194482
  0
LINE
  5
2A5
100
AcDbEntity
  8
0
100
AcDbLine
 62
253
  6
CONTINUOUS
 10
-5.7524579547
 20
9.7310194482
 11
-5.7524579547
 21
13.2689805518
  0
LINE
  5
2A6
100
AcDbEntity
  8
0
100
AcDbLine
 62
7
  6
CONTINUOUS
 10
-5.65
 20
13.4025387708
 11
-5.65
 21
13.3004252194
  0
LINE
  5
2A7
100
AcDbEntity
  8
0
100
AcDbLine
 62
7
  6
CONTINUOUS
 10
-5.65
 20
-9.5891116965
 11
-5.65
 21
-9.6995747806
  0
LINE
  5
2A8
100
AcDbEntity
  8
0
100
AcDbLine
 62
7
  6
CONTINUOUS
 10
-5.65
 20
-13.4025387708
 11
-5.65
 21
-13.3004252194
  0
LINE
  5
2A9
100
AcDbEntity
  8
0
100
AcDbLine
 62
7
  6
CONTINUOUS
 10
-5.65
 20
9.5891116965
 11
-5.65
 21
9.6995747806
  0
LINE
  5
2AA
100
AcDbEntity
  8
0
100
AcDbLine
 62
253
  6
CONTINUOUS
 10
-5.6110365985
 20
-13.2720505284
 11
-5.6110365985
 21
-9.7279494716
  0
LINE
  5
2AB
100
AcDbEntity
  8
0
100
AcDbLine
 62
253
  6
CONTINUOUS
 10
-5.6110365985
 20
9.7279494716
 11
-5.6110365985
 21
13.2720505284
  0
LINE
  5
2AC
100
AcDbEntity
  8
0
100
AcDbLine
 62
253
  6
CONTINUOUS
 10
-5.4106909682
 20
-13.282550198
 11
-5.4106909682
 21
-9.717449802
  0
LINE
  5
2AD
100
AcDbEntity
  8
0
100
AcDbLine
 62
253
  6
CONTINUOUS
 10
-5.4106909682
 20
9.717449802
 11
-5.4106909682
 21
13.282550198
  0
LINE
  5
2AE
100
AcDbEntity
  8
0
100
AcDbLine
 62
253
  6
CONTINUOUS
 10
-5.3521427854
 20
-13.2897788489
 11
-5.3521427854
 21
-9.7102211511
  0
LINE
  5
2AF
100
AcDbEntity
  8
0
100
AcDbLine
 62
253
  6
CONTINUOUS
 10
-5.3521427854
 20
9.7102211511
 11
-5.3521427854
 21
13.2897788489
  0
LINE
  5
2B0
100
AcDbEntity
  8
0
100
AcDbLine
 62
7
  6
CONTINUOUS
 10
-5.35
 20
-9.7037875673
 11
-5.35
 21
-13.2962124327
  0
LINE
  5
2B1
100
AcDbEntity
  8
0
100
AcDbLine
 62
7
  6
CONTINUOUS
 10
-5.35
 20
9.7037875673
 11
-5.35
 21
13.2962124327
  0
LINE
  5
2B2
100
AcDbEntity
  8
0
100
AcDbLine
 62
7
  6
CONTINUOUS
 10
-0.415264
 20
16.581506
 11
0.056261
 21
17.816898
  0
LINE
  5
2B3
100
AcDbEntity
  8
0
100
AcDbLine
 62
7
  6
CONTINUOUS
 10
6.483558219
 20
13.4025387708
 11
6.3698659872
 21
13.288846539
  0
LINE
  5
2B4
100
AcDbEntity
  8
0
100
AcDbLine
 62
7
  6
CONTINUOUS
 10
6.483558219
 20
-13.4025387708
 11
6.3698659872
 21
-13.288846539
  0
LINE
  5
2B5
100
AcDbEntity
  8
0
100
AcDbLine
 62
7
  6
CONTINUOUS
 10
0.9975000829
 20
-16.462765947
 11
0.9662502013
 21
-16.3989361674
  0
LINE
  5
2B6
100
AcDbEntity
  8
0
100
AcDbLine
 62
7
  6
CONTINUOUS
 10
1.7162502188
 20
-16.1436170042
 11
1.7787499818
 21
-16.2712766081
  0
LINE
  5
2B7
100
AcDbEntity
  8
0
100
AcDbLine
 62
7
  6
CONTINUOUS
 10
-1.1587499673
 20
-16.3031914979
 11
-1.1274999964
 21
-16.3989361674
  0
LINE
  5
2B8
100
AcDbEntity
  8
0
100
AcDbLine
 62
7
  6
CONTINUOUS
 10
-0.096249883
 20
-15.6968085468
 11
-0.1274999433
 21
-15.6010637879
  0
LINE
  5
2B9
100
AcDbEntity
  8
0
100
AcDbLine
 62
7
  6
CONTINUOUS
 10
-1.4399999738
 20
-15.6010637879
 11
-1.4712499448
 21
-15.4734042287
  0
LINE
  5
2BA
100
AcDbEntity
  8
0
100
AcDbLine
 62
7
  6
CONTINUOUS
 10
-4.6
 20
-8.0
 11
-4.6
 21
-3.75
  0
LINE
  5
2BB
100
AcDbEntity
  8
0
100
AcDbLine
 62
7
  6
CONTINUOUS
 10
-4.6
 20
3.75
 11
-4.6
 21
8.0
  0
LINE
  5
2BC
100
AcDbEntity
  8
0
100
AcDbLine
 62
7
  6
CONTINUOUS
 10
-4.5
 20
13.55
 11
-4.5
 21
19.05
  0
LINE
  5
2BD
100
AcDbEntity
  8
0
100
AcDbLine
 62
7
  6
CONTINUOUS
 10
-3.919354
 20
15.949703
 11
-3.919354
 21
14.050297
  0
LINE
  5
2BE
100
AcDbEntity
  8
0
100
AcDbLine
 62
7
  6
CONTINUOUS
 10
-3.580146
 20
14.351743
 11
-3.580146
 21
14.874477
  0
LINE
  5
2BF
100
AcDbEntity
  8
0
100
AcDbLine
 62
7
  6
CONTINUOUS
 10
-3.580146
 20
15.175955
 11
-3.580146
 21
15.648249
  0
LINE
  5
2C0
100
AcDbEntity
  8
0
100
AcDbLine
 62
7
  6
CONTINUOUS
 10
-3.5
 20
-17.5
 11
-3.5
 21
-14.5
  0
LINE
  5
2C1
100
AcDbEntity
  8
0
100
AcDbLine
 62
7
  6
CONTINUOUS
 10
1.170783
 20
17.254266
 11
1.368243
 21
17.959323
  0
LINE
  5
2C2
100
AcDbEntity
  8
0
100
AcDbLine
 62
7
  6
CONTINUOUS
 10
0.980233
 20
16.581506
 11
1.089662
 21
16.960783
  0
LINE
  5
2C3
100
AcDbEntity
  8
0
100
AcDbLine
 62
7
  6
CONTINUOUS
 10
1.183876
 20
18.481352
 11
0.587963
 21
16.581506
  0
LINE
  5
2C4
100
AcDbEntity
  8
0
100
AcDbLine
 62
7
  6
CONTINUOUS
 10
-9.7767229342
 20
-9.5891116965
 11
-9.7821633529
 21
-9.6
  0
LINE
  5
2C5
100
AcDbEntity
  8
0
100
AcDbLine
 62
7
  6
CONTINUOUS
 10
5.1
 20
-3.25
 11
10.0593484794
 21
-3.25
  0
LINE
  5
2C6
100
AcDbEntity
  8
0
100
AcDbLine
 62
7
  6
CONTINUOUS
 10
-5.1
 20
-3.25
 11
-10.0593484794
 21
-3.25
  0
LINE
  5
2C7
100
AcDbEntity
  8
0
100
AcDbLine
 62
7
  6
CONTINUOUS
 10
-9.7767229342
 20
9.5891116965
 11
-9.7821633529
 21
9.6
  0
LINE
  5
2C8
100
AcDbEntity
  8
0
100
AcDbLine
 62
7
  6
CONTINUOUS
 10
0.8100000785
 20
-16.3989361674
 11
0.84124996
 21
-16.4946808591
  0
LINE
  5
2C9
100
AcDbEntity
  8
0
100
AcDbLine
 62
7
  6
CONTINUOUS
 10
-1.1899999382
 20
-16.1436170042
 11
-1.1587499673
 21
-16.3031914979
  0
LINE
  5
2CA
100
AcDbEntity
  8
0
100
AcDbLine
 62
7
  6
CONTINUOUS
 10
-0.0650000015
 20
-15.8563829958
 11
-0.096249883
 21
-15.6968085468
  0
LINE
  5
2CB
100
AcDbEntity
  8
0
100
AcDbLine
 62
7
  6
CONTINUOUS
 10
-1.0025000233
 20
-16.3031914979
 11
-1.0337499048
 21
-16.1117021143
  0
LINE
  5
2CC
100
AcDbEntity
  8
0
100
AcDbLine
 62
7
  6
CONTINUOUS
 10
-2.645022
 20
14.874484
 11
-2.645022
 21
15.175948
  0
LINE
  5
2CD
100
AcDbEntity
  8
0
100
AcDbLine
 62
7
  6
CONTINUOUS
 10
-2.576958
 20
15.648245
 11
-2.576958
 21
15.949703
  0
LINE
  5
2CE
100
AcDbEntity
  8
0
100
AcDbLine
 62
7
  6
CONTINUOUS
 10
-2.569324
 20
14.050297
 11
-2.569324
 21
14.351755
  0
LINE
  5
2CF
100
AcDbEntity
  8
0
100
AcDbLine
 62
7
  6
CONTINUOUS
 10
-2.565
 20
-16.5904255286
 11
-2.565
 21
-16.75
  0
LINE
  5
2D0
100
AcDbEntity
  8
0
100
AcDbLine
 62
7
  6
CONTINUOUS
 10
-2.161366
 20
15.949703
 11
-2.161366
 21
14.050297
  0
LINE
  5
2D1
100
AcDbEntity
  8
0
100
AcDbLine
 62
7
  6
CONTINUOUS
 10
-2.011141
 20
18.481466
 11
-2.011141
 21
16.581506
  0
LINE
  5
2D2
100
AcDbEntity
  8
0
100
AcDbLine
 62
7
  6
CONTINUOUS
 10
-1.822139
 20
14.050297
 11
-1.822139
 21
15.949703
  0
LINE
  5
2D3
100
AcDbEntity
  8
0
100
AcDbLine
 62
7
  6
CONTINUOUS
 10
-1.6274999782
 20
-15.6010637879
 11
-1.6274999782
 21
-15.664893657
  0
LINE
  5
2D4
100
AcDbEntity
  8
0
100
AcDbLine
 62
7
  6
CONTINUOUS
 10
-1.614569
 20
16.581506
 11
-1.614569
 21
18.481466
  0
LINE
  5
2D5
100
AcDbEntity
  8
0
100
AcDbLine
 62
7
  6
CONTINUOUS
 10
-1.4399999738
 20
-16.75
 11
-1.4399999738
 21
-16.5904255286
  0
LINE
  5
2D6
100
AcDbEntity
  8
0
100
AcDbLine
 62
7
  6
CONTINUOUS
 10
-1.4399999738
 20
-15.664893657
 11
-1.4399999738
 21
-15.6010637879
  0
LINE
  5
2D7
100
AcDbEntity
  8
0
100
AcDbLine
 62
7
  6
CONTINUOUS
 10
-1.021691
 20
16.581506
 11
-0.93611
 21
17.82207
  0
LINE
  5
2D8
100
AcDbEntity
  8
0
100
AcDbLine
 62
7
  6
CONTINUOUS
 10
-1.229536
 20
18.481352
 11
-1.401081
 21
16.581506
  0
LINE
  5
2D9
100
AcDbEntity
  8
0
100
AcDbLine
 62
7
  6
CONTINUOUS
 10
-5.35
 20
-9.7037875673
 11
-5.3521427854
 21
-9.7102211511
  0
LINE
  5
2DA
100
AcDbEntity
  8
0
100
AcDbLine
 62
7
  6
CONTINUOUS
 10
-5.35
 20
9.7037875673
 11
-5.3521427854
 21
9.7102211511
  0
LINE
  5
2DB
100
AcDbEntity
  8
0
100
AcDbLine
 62
7
  6
CONTINUOUS
 10
1.9350001047
 20
-16.2712766081
 11
1.9037502232
 21
-16.1436170042
  0
LINE
  5
2DC
100
AcDbEntity
  8
0
100
AcDbLine
 62
7
  6
CONTINUOUS
 10
1.9037502232
 20
-15.6010637879
 11
1.872499984
 21
-15.4734042287
  0
LINE
  5
2DD
100
AcDbEntity
  8
0
100
AcDbLine
 62
7
  6
CONTINUOUS
 10
-0.2525000058
 20
-15.6968085468
 11
-0.2212499455
 21
-15.8882978857
  0
LINE
  5
2DE
100
AcDbEntity
  8
0
100
AcDbLine
 62
7
  6
CONTINUOUS
 10
-1.418727
 20
15.949703
 11
-1.418727
 21
14.050297
  0
LINE
  5
2DF
100
AcDbEntity
  8
0
100
AcDbLine
 62
7
  6
CONTINUOUS
 10
-1.1899999382
 20
-15.8563829958
 11
-1.1899999382
 21
-16.1436170042
  0
LINE
  5
2E0
100
AcDbEntity
  8
0
100
AcDbLine
 62
7
  6
CONTINUOUS
 10
-1.079521
 20
15.121559
 11
-1.079515
 21
15.949703
  0
LINE
  5
2E1
100
AcDbEntity
  8
0
100
AcDbLine
 62
7
  6
CONTINUOUS
 10
-1.079515
 20
14.050297
 11
-1.079521
 21
14.70857
  0
LINE
  5
2E2
100
AcDbEntity
  8
0
100
AcDbLine
 62
7
  6
CONTINUOUS
 10
-1.0337499048
 20
-16.1117021143
 11
-1.0337499048
 21
-15.8882978857
  0
LINE
  5
2E3
100
AcDbEntity
  8
0
100
AcDbLine
 62
7
  6
CONTINUOUS
 10
-0.2212499455
 20
-15.8882978857
 11
-0.2212499455
 21
-16.1117021143
  0
LINE
  5
2E4
100
AcDbEntity
  8
0
100
AcDbLine
 62
7
  6
CONTINUOUS
 10
-0.0650000015
 20
-16.1436170042
 11
-0.0650000015
 21
-15.8563829958
  0
LINE
  5
2E5
100
AcDbEntity
  8
0
100
AcDbLine
 62
7
  6
CONTINUOUS
 10
0.1850001236
 20
-15.4734042287
 11
0.1850001236
 21
-15.7287234366
  0
LWPOLYLINE
  5
2E6
100
AcDbEntity
  8
0
100
AcDbPolyline
 62
7
  6
CONTINUOUS
 90
10
 70
0
 10
0.5660984599
 20
15.0000067473
 10
0.5693639313
 20
15.0744574611
 10
0.5769893808
 20
15.1451466149
 10
0.5889748084
 20
15.2120749081
 10
0.6056265993
 20
15.2754610882
 10
0.6266383683
 20
15.3350877011
 10
0.6510909593
 20
15.3903012135
 10
0.678677987
 20
15.4408842708
 10
0.7097058368
 20
15.48705557
 10
0.7441745085
 20
15.5288156973
  0
LINE
  5
2E7
100
AcDbEntity
  8
0
100
AcDbLine
 62
7
  6
CONTINUOUS
 10
0.056261
 20
17.816898
 11
0.137738
 21
16.581506
  0
LWPOLYLINE
  5
2E8
100
AcDbEntity
  8
0
100
AcDbPolyline
 62
7
  6
CONTINUOUS
 90
10
 70
0
 10
0.224762853
 20
15.0001910737
 10
0.2296365756
 20
14.9036617885
 10
0.2403128925
 20
14.8115466293
 10
0.2567918036
 20
14.7238467985
 10
0.2796433617
 20
14.6401878063
 10
0.308297514
 20
14.5609462593
 10
0.341044102
 20
14.4872501216
 10
0.377313073
 20
14.4194761825
 10
0.4176744798
 20
14.3572498031
 10
0.4621283224
 20
14.3005718862
  0
LINE
  5
2E9
100
AcDbEntity
  8
0
100
AcDbLine
 62
7
  6
CONTINUOUS
 10
0.3725001279
 20
-15.5053191185
 11
0.3725001279
 21
-16.75
  0
LINE
  5
2EA
100
AcDbEntity
  8
0
100
AcDbLine
 62
7
  6
CONTINUOUS
 10
0.5599999535
 20
-16.75
 11
0.5599999535
 21
-15.25
  0
LINE
  5
2EB
100
AcDbEntity
  8
0
100
AcDbLine
 62
7
  6
CONTINUOUS
 10
1.3099999709
 20
-15.9202127755
 11
1.3099999709
 21
-16.0478723347
  0
LINE
  5
2EC
100
AcDbEntity
  8
0
100
AcDbLine
 62
7
  6
CONTINUOUS
 10
1.7475001003
 20
-15.6010637879
 11
1.7475001003
 21
-15.664893657
  0
LINE
  5
2ED
100
AcDbEntity
  8
0
100
AcDbLine
 62
7
  6
CONTINUOUS
 10
1.7787499818
 20
-16.2712766081
 11
1.7787499818
 21
-16.3989361674
  0
LWPOLYLINE
  5
2EE
100
AcDbEntity
  8
0
100
AcDbPolyline
 62
7
  6
CONTINUOUS
 90
10
 70
0
 10
1.7102994918
 20
15.0000067473
 10
1.7070377281
 20
14.9255791485
 10
1.699415264
 20
14.8549038173
 10
1.6874320995
 20
14.787981521
 10
1.6707819979
 20
14.7245941447
 10
1.6497711958
 20
14.664961161
 10
1.6253184034
 20
14.6097397458
 10
1.5977298575
 20
14.5591494213
 10
1.5666993212
 20
14.5129719436
 10
1.5322267946
 20
14.4712078515
  0
LINE
  5
2EF
100
AcDbEntity
  8
0
100
AcDbLine
 62
7
  6
CONTINUOUS
 10
-1.0337499048
 20
-15.8882978857
 11
-1.0025000233
 21
-15.6968085468
  0
LINE
  5
2F0
100
AcDbEntity
  8
0
100
AcDbLine
 62
7
  6
CONTINUOUS
 10
-2.5024999967
 20
-15.4734042287
 11
-2.5337499983
 21
-15.6010637879
  0
LINE
  5
2F1
100
AcDbEntity
  8
0
100
AcDbLine
 62
7
  6
CONTINUOUS
 10
-2.927819
 20
17.173629
 11
-3.289964
 21
18.481352
  0
LINE
  5
2F2
100
AcDbEntity
  8
0
100
AcDbLine
 62
7
  6
CONTINUOUS
 10
0.525691
 20
16.581506
 11
0.348034
 21
18.481352
  0
LWPOLYLINE
  5
2F3
100
AcDbEntity
  8
0
100
AcDbPolyline
 62
7
  6
CONTINUOUS
 90
10
 70
0
 10
2.0516350988
 20
15.0001910737
 10
2.0467649197
 20
15.0967136511
 10
2.0360912511
 20
15.1888220615
 10
2.0196140932
 20
15.2765173476
 10
1.9967630084
 20
15.3601804452
 10
1.9681084341
 20
15.4394323597
 10
1.9353616833
 20
15.5131344544
 10
1.8990931933
 20
15.5809080434
 10
1.8587325267
 20
15.643134095
 10
1.8142796835
 20
15.6998136126
  0
LWPOLYLINE
  5
2F4
100
AcDbEntity
  8
0
100
AcDbPolyline
 62
7
  6
CONTINUOUS
 90
25
 70
0
 10
3.183408459
 20
17.9312194933
 10
3.1835001855
 20
17.9110029622
 10
3.1824789918
 20
17.8909356164
 10
3.180344878
 20
17.8710174688
 10
3.1772115866
 20
17.8511473943
 10
3.1729653751
 20
17.8314265378
 10
3.1672650155
 20
17.8121583396
 10
3.15998252
 20
17.7932853031
 10
3.1512458764
 20
17.7748649904
 10
3.1410978199
 20
17.7573734858
 10
3.1294716568
 20
17.7408411083
 10
3.1164340808
 20
17.7252376627
 10
3.1022279082
 20
17.7109485132
 10
3.0867998796
 20
17.6980970515
 10
3.0702032544
 20
17.6865600272
 10
3.0528406266
 20
17.6763528542
 10
3.0347091392
 20
17.6675562354
 10
3.0158116491
 20
17.6600895664
 10
2.996559321
 20
17.6537262841
 10
2.9770546701
 20
17.6484692481
 10
2.9571951811
 20
17.6443156477
 10
2.9370844732
 20
17.6410303973
 10
2.9167570863
 20
17.6385351398
 10
2.8961784805
 20
17.6369082509
 10
2.8753486559
 20
17.6361497358
  0
LINE
  5
2F5
100
AcDbEntity
  8
0
100
AcDbLine
 62
7
  6
CONTINUOUS
 10
1.9037502232
 20
-15.664893657
 11
1.9037502232
 21
-15.6010637879
  0
LINE
  5
2F6
100
AcDbEntity
  8
0
100
AcDbLine
 62
7
  6
CONTINUOUS
 10
1.9350001047
 20
-16.3989361674
 11
1.9350001047
 21
-16.2712766081
  0
LINE
  5
2F7
100
AcDbEntity
  8
0
100
AcDbLine
 62
7
  6
CONTINUOUS
 10
2.1850002297
 20
-15.4734042287
 11
2.1850002297
 21
-15.7287234366
  0
LINE
  5
2F8
100
AcDbEntity
  8
0
100
AcDbLine
 62
7
  6
CONTINUOUS
 10
2.2668846027
 20
18.4591554587
 11
2.2668846027
 21
16.581506254
  0
LINE
  5
2F9
100
AcDbEntity
  8
0
100
AcDbLine
 62
7
  6
CONTINUOUS
 10
2.3725002341
 20
-15.5053191185
 11
2.3725002341
 21
-16.75
  0
LINE
  5
2FA
100
AcDbEntity
  8
0
100
AcDbLine
 62
7
  6
CONTINUOUS
 10
2.385447
 20
15.949703
 11
2.385447
 21
14.050297
  0
LINE
  5
2FB
100
AcDbEntity
  8
0
100
AcDbLine
 62
7
  6
CONTINUOUS
 10
2.5600002384
 20
-16.75
 11
2.5600002384
 21
-15.25
  0
LINE
  5
2FC
100
AcDbEntity
  8
0
100
AcDbLine
 62
7
  6
CONTINUOUS
 10
2.6487115031
 20
17.6361497358
 11
2.6487115031
 21
18.1576944232
  0
LINE
  5
2FD
100
AcDbEntity
  8
0
100
AcDbLine
 62
7
  6
CONTINUOUS
 10
2.6618612449
 20
16.581506254
 11
2.6618612449
 21
17.3250009165
  0
LINE
  5
2FE
100
AcDbEntity
  8
0
100
AcDbLine
 62
7
  6
CONTINUOUS
 10
3.2864526086
 20
17.4683373758
 11
3.2864526086
 21
17.4795638075
  0
LINE
  5
2FF
100
AcDbEntity
  8
0
100
AcDbLine
 62
7
  6
CONTINUOUS
 10
3.5
 20
-17.5
 11
3.5
 21
-14.5
  0
LINE
  5
300
100
AcDbEntity
  8
0
100
AcDbLine
 62
7
  6
CONTINUOUS
 10
2.711999
 20
14.050297
 11
2.716602
 21
15.377168
  0
LINE
  5
301
100
AcDbEntity
  8
0
100
AcDbLine
 62
7
  6
CONTINUOUS
 10
-0.2212499455
 20
-16.1117021143
 11
-0.2525000058
 21
-16.3031914979
  0
LINE
  5
302
100
AcDbEntity
  8
0
100
AcDbLine
 62
7
  6
CONTINUOUS
 10
-1.1587499673
 20
-15.6968085468
 11
-1.1899999382
 21
-15.8563829958
  0
LINE
  5
303
100
AcDbEntity
  8
0
100
AcDbLine
 62
7
  6
CONTINUOUS
 10
-0.096249883
 20
-16.3031914979
 11
-0.0650000015
 21
-16.1436170042
  0
LINE
  5
304
100
AcDbEntity
  8
0
100
AcDbLine
 62
7
  6
CONTINUOUS
 10
-1.4712499448
 20
-15.7925532162
 11
-1.4399999738
 21
-15.664893657
  0
LINE
  5
305
100
AcDbEntity
  8
0
100
AcDbLine
 62
7
  6
CONTINUOUS
 10
5.3521427854
 20
9.7102211511
 11
5.35
 21
9.7037875673
  0
LINE
  5
306
100
AcDbEntity
  8
0
100
AcDbLine
 62
7
  6
CONTINUOUS
 10
-5.1
 20
3.25
 11
-10.0593484794
 21
3.25
  0
LINE
  5
307
100
AcDbEntity
  8
0
100
AcDbLine
 62
7
  6
CONTINUOUS
 10
5.1
 20
3.25
 11
10.0593484794
 21
3.25
  0
LINE
  5
308
100
AcDbEntity
  8
0
100
AcDbLine
 62
7
  6
CONTINUOUS
 10
5.3521427854
 20
-9.7102211511
 11
5.35
 21
-9.7037875673
  0
LINE
  5
309
100
AcDbEntity
  8
0
100
AcDbLine
 62
7
  6
CONTINUOUS
 10
-3.720764
 20
18.481352
 11
-3.118476
 21
16.581506
  0
LINE
  5
30A
100
AcDbEntity
  8
0
100
AcDbLine
 62
7
  6
CONTINUOUS
 10
3.592798
 20
15.949703
 11
3.592791
 21
14.608189
  0
LINE
  5
30B
100
AcDbEntity
  8
0
100
AcDbLine
 62
7
  6
CONTINUOUS
 10
3.919354
 20
14.050297
 11
3.919354
 21
15.949703
  0
LINE
  5
30C
100
AcDbEntity
  8
0
100
AcDbLine
 62
7
  6
CONTINUOUS
 10
4.5
 20
13.55
 11
4.5
 21
19.05
  0
LINE
  5
30D
100
AcDbEntity
  8
0
100
AcDbLine
 62
7
  6
CONTINUOUS
 10
4.6
 20
8.0
 11
4.6
 21
3.75
  0
LINE
  5
30E
100
AcDbEntity
  8
0
100
AcDbLine
 62
7
  6
CONTINUOUS
 10
4.6
 20
-3.75
 11
4.6
 21
-8.0
  0
LINE
  5
30F
100
AcDbEntity
  8
0
100
AcDbLine
 62
7
  6
CONTINUOUS
 10
0.8725001992
 20
-15.4734042287
 11
0.84124996
 21
-15.6010637879
  0
LINE
  5
310
100
AcDbEntity
  8
0
100
AcDbLine
 62
7
  6
CONTINUOUS
 10
-1.1274999964
 20
-15.6010637879
 11
-1.1587499673
 21
-15.6968085468
  0
LINE
  5
311
100
AcDbEntity
  8
0
100
AcDbLine
 62
7
  6
CONTINUOUS
 10
-0.1274999433
 20
-16.3989361674
 11
-0.096249883
 21
-16.3031914979
  0
LINE
  5
312
100
AcDbEntity
  8
0
100
AcDbLine
 62
7
  6
CONTINUOUS
 10
9.7767229342
 20
9.5891116965
 11
9.7821633529
 21
9.6
  0
LINE
  5
313
100
AcDbEntity
  8
0
100
AcDbLine
 62
7
  6
CONTINUOUS
 10
-6.3698659872
 20
-13.288846539
 11
-6.483558219
 21
-13.4025387708
  0
LINE
  5
314
100
AcDbEntity
  8
0
100
AcDbLine
 62
7
  6
CONTINUOUS
 10
-6.3698659872
 20
13.288846539
 11
-6.483558219
 21
13.4025387708
  0
LINE
  5
315
100
AcDbEntity
  8
0
100
AcDbLine
 62
7
  6
CONTINUOUS
 10
9.7767229342
 20
-9.5891116965
 11
9.7821633529
 21
-9.6
  0
LINE
  5
316
100
AcDbEntity
  8
0
100
AcDbLine
 62
7
  6
CONTINUOUS
 10
5.35
 20
-9.7037875673
 11
5.35
 21
-13.2962124327
  0
LINE
  5
317
100
AcDbEntity
  8
0
100
AcDbLine
 62
7
  6
CONTINUOUS
 10
5.35
 20
9.7037875673
 11
5.35
 21
13.2962124327
  0
LINE
  5
318
100
AcDbEntity
  8
0
100
AcDbLine
 62
253
  6
CONTINUOUS
 10
5.3521427854
 20
-13.2897788489
 11
5.3521427854
 21
-9.7102211511
  0
LINE
  5
319
100
AcDbEntity
  8
0
100
AcDbLine
 62
253
  6
CONTINUOUS
 10
5.3521427854
 20
9.7102211511
 11
5.3521427854
 21
13.2897788489
  0
LINE
  5
31A
100
AcDbEntity
  8
0
100
AcDbLine
 62
253
  6
CONTINUOUS
 10
5.4106909682
 20
-13.282550198
 11
5.4106909682
 21
-9.717449802
  0
LINE
  5
31B
100
AcDbEntity
  8
0
100
AcDbLine
 62
253
  6
CONTINUOUS
 10
5.4106909682
 20
9.717449802
 11
5.4106909682
 21
13.282550198
  0
LINE
  5
31C
100
AcDbEntity
  8
0
100
AcDbLine
 62
253
  6
CONTINUOUS
 10
5.6110365985
 20
-13.2720505284
 11
5.6110365985
 21
-9.7279494716
  0
LINE
  5
31D
100
AcDbEntity
  8
0
100
AcDbLine
 62
253
  6
CONTINUOUS
 10
5.6110365985
 20
9.7279494716
 11
5.6110365985
 21
13.2720505284
  0
LINE
  5
31E
100
AcDbEntity
  8
0
100
AcDbLine
 62
7
  6
CONTINUOUS
 10
5.65
 20
9.6995747806
 11
5.65
 21
9.5891116965
  0
LINE
  5
31F
100
AcDbEntity
  8
0
100
AcDbLine
 62
7
  6
CONTINUOUS
 10
5.65
 20
-13.3004252194
 11
5.65
 21
-13.4025387708
  0
LINE
  5
320
100
AcDbEntity
  8
0
100
AcDbLine
 62
7
  6
CONTINUOUS
 10
5.65
 20
-9.6995747806
 11
5.65
 21
-9.5891116965
  0
LINE
  5
321
100
AcDbEntity
  8
0
100
AcDbLine
 62
7
  6
CONTINUOUS
 10
5.65
 20
13.3004252194
 11
5.65
 21
13.4025387708
  0
LINE
  5
322
100
AcDbEntity
  8
0
100
AcDbLine
 62
253
  6
CONTINUOUS
 10
5.7524579547
 20
-13.2689805518
 11
5.7524579547
 21
-9.7310194482
  0
LINE
  5
323
100
AcDbEntity
  8
0
100
AcDbLine
 62
253
  6
CONTINUOUS
 10
5.7524579547
 20
9.7310194482
 11
5.7524579547
 21
13.2689805518
  0
LINE
  5
324
100
AcDbEntity
  8
0
100
AcDbLine
 62
253
  6
CONTINUOUS
 10
5.9704141733
 20
-13.2689805518
 11
5.9704141733
 21
-9.7310194482
  0
LINE
  5
325
100
AcDbEntity
  8
0
100
AcDbLine
 62
253
  6
CONTINUOUS
 10
5.9704141733
 20
9.7310194482
 11
5.9704141733
 21
13.2689805518
  0
LINE
  5
326
100
AcDbEntity
  8
0
100
AcDbLine
 62
253
  6
CONTINUOUS
 10
6.3698659872
 20
-13.288846539
 11
6.3698659872
 21
-9.711153461
  0
LINE
  5
327
100
AcDbEntity
  8
0
100
AcDbLine
 62
253
  6
CONTINUOUS
 10
6.3698659872
 20
9.711153461
 11
6.3698659872
 21
13.288846539
  0
LINE
  5
328
100
AcDbEntity
  8
0
100
AcDbLine
 62
7
  6
CONTINUOUS
 10
6.4810194482
 20
10.4
 11
6.4810194482
 21
9.6
  0
LINE
  5
329
100
AcDbEntity
  8
0
100
AcDbLine
 62
7
  6
CONTINUOUS
 10
6.4810194482
 20
-10.4
 11
6.4810194482
 21
-9.6
  0
LINE
  5
32A
100
AcDbEntity
  8
0
100
AcDbLine
 62
7
  6
CONTINUOUS
 10
1.872499984
 20
-15.7925532162
 11
1.9037502232
 21
-15.664893657
  0
LINE
  5
32B
100
AcDbEntity
  8
0
100
AcDbLine
 62
7
  6
CONTINUOUS
 10
-1.6274999782
 20
-15.664893657
 11
-1.6900000094
 21
-15.7925532162
  0
LINE
  5
32C
100
AcDbEntity
  8
0
100
AcDbLine
 62
7
  6
CONTINUOUS
 10
-1.0649999651
 20
-15.4734042287
 11
-1.1274999964
 21
-15.6010637879
  0
LINE
  5
32D
100
AcDbEntity
  8
0
100
AcDbLine
 62
7
  6
CONTINUOUS
 10
-2.3774999956
 20
-15.6010637879
 11
-2.3149999867
 21
-15.5053191185
  0
LINE
  5
32E
100
AcDbEntity
  8
0
100
AcDbLine
 62
7
  6
CONTINUOUS
 10
-0.93611
 20
17.82207
 11
-0.470883
 21
16.581506
  0
LINE
  5
32F
100
AcDbEntity
  8
0
100
AcDbLine
 62
7
  6
CONTINUOUS
 10
-0.440908
 20
17.426552
 11
-0.833292
 21
18.481352
  0
LINE
  5
330
100
AcDbEntity
  8
0
100
AcDbLine
 62
7
  6
CONTINUOUS
 10
1.629728
 20
16.960783
 11
1.732461
 21
16.581506
  0
LINE
  5
331
100
AcDbEntity
  8
0
100
AcDbLine
 62
7
  6
CONTINUOUS
 10
1.368243
 20
17.959323
 11
1.550473
 21
17.254266
  0
LINE
  5
332
100
AcDbEntity
  8
0
100
AcDbLine
 62
7
  6
CONTINUOUS
 10
1.9037502232
 20
-16.4946808591
 11
1.9350001047
 21
-16.3989361674
  0
LINE
  5
333
100
AcDbEntity
  8
0
100
AcDbLine
 62
7
  6
CONTINUOUS
 10
-0.1899998852
 20
-16.526595749
 11
-0.1274999433
 21
-16.3989361674
  0
LINE
  5
334
100
AcDbEntity
  8
0
100
AcDbLine
 62
7
  6
CONTINUOUS
 10
1.7475001003
 20
-15.664893657
 11
1.6849999796
 21
-15.7925532162
  0
LINE
  5
335
100
AcDbEntity
  8
0
100
AcDbLine
 62
7
  6
CONTINUOUS
 10
-1.533749976
 20
-15.8882978857
 11
-1.4712499448
 21
-15.7925532162
  0
LINE
  5
336
100
AcDbEntity
  8
0
100
AcDbLine
 62
7
  6
CONTINUOUS
 10
-1.0025000233
 20
-15.6968085468
 11
-0.8774999607
 21
-15.5053191185
  0
LINE
  5
337
100
AcDbEntity
  8
RACCORDO
100
AcDbLine
 62
253
  6
CONTINUOUS
 10
-9.8006086115
 20
-20.610711414
 11
-9.8214422353
 21
-20.6315450378
  0
LINE
  5
338
100
AcDbEntity
  8
RACCORDO
100
AcDbLine
 62
253
  6
CONTINUOUS
 10
-9.5018754742
 20
-20.9117726717
 11
-9.5215450378
 21
-20.9314422353
  0
LINE
  5
339
100
AcDbEntity
  8
0
100
AcDbLine
 62
7
  6
CONTINUOUS
 10
-6.4908473377
 20
-10.4032733012
 11
-6.4810194482
 21
-10.4
  0
LINE
  5
33A
100
AcDbEntity
  8
0
100
AcDbLine
 62
7
  6
CONTINUOUS
 10
-6.4908473377
 20
10.4032733012
 11
-6.4810194482
 21
10.4
  0
LINE
  5
33B
100
AcDbEntity
  8
RACCORDO
100
AcDbLine
 62
253
  6
CONTINUOUS
 10
-9.8006086115
 20
20.610711414
 11
-9.8214422353
 21
20.6315450378
  0
LINE
  5
33C
100
AcDbEntity
  8
RACCORDO
100
AcDbLine
 62
253
  6
CONTINUOUS
 10
-9.5018754742
 20
20.9117726717
 11
-9.5215450378
 21
20.9314422353
  0
LINE
  5
33D
100
AcDbEntity
  8
0
100
AcDbLine
 62
7
  6
CONTINUOUS
 10
-0.836947
 20
14.934799
 11
-0.204862
 21
14.050297
  0
LWPOLYLINE
  5
33E
100
AcDbEntity
  8
0
100
AcDbPolyline
 62
7
  6
CONTINUOUS
 90
5
 70
0
 10
3.0955914198
 20
17.1580121761
 10
3.1146151229
 20
17.0990498623
 10
3.1336543077
 20
17.0388266556
 10
3.1527089742
 20
16.9773423139
 10
3.1717126419
 20
16.914612601
  0
LINE
  5
33F
100
AcDbEntity
  8
0
100
AcDbLine
 62
7
  6
CONTINUOUS
 10
2.150432
 20
16.581506
 11
1.567512
 21
18.481352
  0
LINE
  5
340
100
AcDbEntity
  8
0
100
AcDbLine
 62
7
  6
CONTINUOUS
 10
3.1717126419
 20
16.914612601
 11
3.2294813411
 21
16.7186926169
  0
LINE
  5
341
100
AcDbEntity
  8
0
100
AcDbLine
 62
7
  6
CONTINUOUS
 10
3.2294813411
 20
16.7186926169
 11
3.2691570653
 21
16.581506254
  0
LWPOLYLINE
  5
342
100
AcDbEntity
  8
0
100
AcDbPolyline
 62
7
  6
CONTINUOUS
 90
24
 70
0
 10
3.5092306795
 20
17.1174400557
 10
3.5033893976
 20
17.1385525007
 10
3.4975177192
 20
17.1590512502
 10
3.4916768032
 20
17.1788974789
 10
3.4858054908
 20
17.198130101
 10
3.4797203054
 20
17.2168657614
 10
3.4734078751
 20
17.2351153765
 10
3.4668815719
 20
17.2528680943
 10
3.4599980347
 20
17.270207892
 10
3.4527670346
 20
17.2871487423
 10
3.4451788006
 20
17.3036767222
 10
3.437060659
 20
17.319833956
 10
3.4284150617
 20
17.3356832599
 10
3.4192395568
 20
17.3511618578
 10
3.4093541145
 20
17.3661234907
 10
3.3987242555
 20
17.3805981666
 10
3.3873844592
 20
17.3945559318
 10
3.3752581335
 20
17.4077606043
 10
3.3622966839
 20
17.420221115
 10
3.348548705
 20
17.4319286038
 10
3.3340833889
 20
17.4426202231
 10
3.3189237994
 20
17.4522083875
 10
3.3030468727
 20
17.460780761
 10
3.2864526086
 20
17.4683373758
  0
LINE
  5
343
100
AcDbEntity
  8
0
100
AcDbLine
 62
7
  6
CONTINUOUS
 10
3.5614654966
 20
16.9217133932
 11
3.5092306795
 21
17.1174400557
  0
LINE
  5
344
100
AcDbEntity
  8
0
100
AcDbLine
 62
7
  6
CONTINUOUS
 10
3.6506135504
 20
16.581506254
 11
3.5614654966
 21
16.9217133932
  0
LINE
  5
345
100
AcDbEntity
  8
0
100
AcDbLine
 62
253
  6
CONTINUOUS
 10
8.7051908211
 20
3.25
 11
8.7051908211
 21
-3.25
  0
LINE
  5
346
100
AcDbEntity
  8
0
100
AcDbLine
 62
253
  6
CONTINUOUS
 10
9.0051451296
 20
3.25
 11
9.0051451296
 21
-3.25
  0
LINE
  5
347
100
AcDbEntity
  8
0
100
AcDbLine
 62
7
  6
CONTINUOUS
 10
9.0174550649
 20
3.25
 11
9.0174550649
 21
-3.25
  0
LINE
  5
348
100
AcDbEntity
  8
0
100
AcDbLine
 62
7
  6
CONTINUOUS
 10
9.7821633529
 20
10.4
 11
9.7821633529
 21
9.6
  0
LINE
  5
349
100
AcDbEntity
  8
0
100
AcDbLine
 62
7
  6
CONTINUOUS
 10
9.7821633529
 20
-9.6
 11
9.7821633529
 21
-10.4
  0
LINE
  5
34A
100
AcDbEntity
  8
0
100
AcDbLine
 62
7
  6
CONTINUOUS
 10
9.8214422353
 20
20.6315450378
 11
9.8214422353
 21
3.25
  0
LINE
  5
34B
100
AcDbEntity
  8
0
100
AcDbLine
 62
7
  6
CONTINUOUS
 10
9.8214422353
 20
-3.25
 11
9.8214422353
 21
-20.6315450378
  0
LINE
  5
34C
100
AcDbEntity
  8
0
100
AcDbLine
 62
7
  6
CONTINUOUS
 10
10.0593484794
 20
3.25
 11
10.0593484794
 21
1.3228756555
  0
LINE
  5
34D
100
AcDbEntity
  8
0
100
AcDbLine
 62
7
  6
CONTINUOUS
 10
10.0593484794
 20
-1.3228756555
 11
10.0593484794
 21
-3.25
  0
LINE
  5
34E
100
AcDbEntity
  8
0
100
AcDbLine
 62
7
  6
CONTINUOUS
 10
5.3521427854
 20
-13.2897788489
 11
5.35
 21
-13.2962124327
  0
LINE
  5
34F
100
AcDbEntity
  8
0
100
AcDbLine
 62
7
  6
CONTINUOUS
 10
1.7787499818
 20
-16.3989361674
 11
1.7475001003
 21
-16.462765947
  0
LINE
  5
350
100
AcDbEntity
  8
0
100
AcDbLine
 62
7
  6
CONTINUOUS
 10
-0.2525000058
 20
-16.3031914979
 11
-0.3774998895
 21
-16.4946808591
  0
LINE
  5
351
100
AcDbEntity
  8
0
100
AcDbLine
 62
7
  6
CONTINUOUS
 10
0.9975000829
 20
-15.6010637879
 11
1.0600002035
 21
-15.5053191185
  0
LINE
  5
352
100
AcDbEntity
  8
0
100
AcDbLine
 62
7
  6
CONTINUOUS
 10
0.3725001279
 20
-15.25
 11
0.1850001236
 21
-15.4734042287
  0
LINE
  5
353
100
AcDbEntity
  8
0
100
AcDbLine
 62
7
  6
CONTINUOUS
 10
-2.3774999956
 20
-15.3457446694
 11
-2.5024999967
 21
-15.4734042287
  0
LINE
  5
354
100
AcDbEntity
  8
0
100
AcDbLine
 62
7
  6
CONTINUOUS
 10
-0.9712499629
 20
-15.3776595592
 11
-1.0649999651
 21
-15.4734042287
  0
LINE
  5
355
100
AcDbEntity
  8
0
100
AcDbLine
 62
7
  6
CONTINUOUS
 10
5.6110365985
 20
9.7279494716
 11
5.4106909682
 21
9.717449802
  0
LINE
  5
356
100
AcDbEntity
  8
0
100
AcDbLine
 62
7
  6
CONTINUOUS
 10
-5.65
 20
9.6995747806
 11
-5.35
 21
9.7037875673
  0
LINE
  5
357
100
AcDbEntity
  8
0
100
AcDbLine
 62
7
  6
CONTINUOUS
 10
-4.1
 20
8.5
 11
-1.4142135624
 21
8.5
  0
LINE
  5
358
100
AcDbEntity
  8
0
100
AcDbLine
 62
7
  6
CONTINUOUS
 10
1.4142135624
 20
8.5
 11
4.1
 21
8.5
  0
LINE
  5
359
100
AcDbEntity
  8
0
100
AcDbLine
 62
253
  6
CONTINUOUS
 10
-9.7766653968
 20
9.4772
 11
-0.2123208892
 21
9.4772
  0
LINE
  5
35A
100
AcDbEntity
  8
0
100
AcDbLine
 62
253
  6
CONTINUOUS
 10
0.2123208892
 20
9.4772
 11
9.7766653968
 21
9.4772
  0
LINE
  5
35B
100
AcDbEntity
  8
0
100
AcDbLine
 62
7
  6
CONTINUOUS
 10
9.7767229342
 20
9.5891116965
 11
5.65
 21
9.5891116965
  0
LINE
  5
35C
100
AcDbEntity
  8
0
100
AcDbLine
 62
7
  6
CONTINUOUS
 10
-5.65
 20
9.5891116965
 11
-9.7767229342
 21
9.5891116965
  0
LINE
  5
35D
100
AcDbEntity
  8
0
100
AcDbLine
 62
7
  6
CONTINUOUS
 10
-9.7821633529
 20
9.6
 11
-6.4810194482
 21
9.6
  0
LINE
  5
35E
100
AcDbEntity
  8
0
100
AcDbLine
 62
7
  6
CONTINUOUS
 10
6.4810194482
 20
9.6
 11
9.7821633529
 21
9.6
  0
LINE
  5
35F
100
AcDbEntity
  8
0
100
AcDbLine
 62
7
  6
CONTINUOUS
 10
5.9704141733
 20
9.7310194482
 11
5.7524579547
 21
9.7310194482
  0
LINE
  5
360
100
AcDbEntity
  8
0
100
AcDbLine
 62
7
  6
CONTINUOUS
 10
-5.7524579547
 20
9.7310194482
 11
-5.9704141733
 21
9.7310194482
  0
LINE
  5
361
100
AcDbEntity
  8
0
100
AcDbLine
 62
7
  6
CONTINUOUS
 10
5.35
 20
9.7037875673
 11
5.65
 21
9.6995747806
  0
LINE
  5
362
100
AcDbEntity
  8
0
100
AcDbLine
 62
7
  6
CONTINUOUS
 10
-5.4106909682
 20
9.717449802
 11
-5.6110365985
 21
9.7279494716
  0
LWPOLYLINE
  5
363
100
AcDbEntity
  8
0
100
AcDbPolyline
 62
7
  6
CONTINUOUS
 90
10
 70
0
 10
0.7441745085
 20
14.4712078515
 10
0.7095423036
 20
14.5130591329
 10
0.678426885
 20
14.5593197264
 10
0.6508282527
 20
14.6099890925
 10
0.6264867961
 20
14.6653091123
 10
0.6056621258
 20
14.7250366232
 10
0.5891330738
 20
14.7884435437
 10
0.5771592508
 20
14.8552867804
 10
0.5694810462
 20
14.9258080986
 10
0.5660984599
 20
15.0000067473
  0
LINE
  5
364
100
AcDbEntity
  8
0
100
AcDbLine
 62
7
  6
CONTINUOUS
 10
0.221854
 20
14.050297
 11
-0.599511
 21
15.168115
  0
LINE
  5
365
100
AcDbEntity
  8
0
100
AcDbLine
 62
7
  6
CONTINUOUS
 10
5.3521427854
 20
13.2897788489
 11
5.35
 21
13.2962124327
  0
LWPOLYLINE
  5
366
100
AcDbEntity
  8
RACCORDO
100
AcDbPolyline
 62
7
  6
CONTINUOUS
 90
25
 70
0
 10
9.8006086115
 20
20.610711414
 10
9.8000521005
 20
20.6302496925
 10
9.7982327463
 20
20.649711577
 10
9.7951571501
 20
20.6690152815
 10
9.7908382882
 20
20.688077136
 10
9.7852926253
 20
20.7068192037
 10
9.7785382994
 20
20.725169095
 10
9.7706004276
 20
20.7430502113
 10
9.7615107917
 20
20.7603839938
 10
9.7513031663
 20
20.7770969028
 10
9.7400183191
 20
20.7931160146
 10
9.7277015627
 20
20.808371577
 10
9.7143996818
 20
20.8227980559
 10
9.7001643192
 20
20.8363330762
 10
9.6850558788
 20
20.8489134287
 10
9.6691409202
 20
20.8604779876
 10
9.6524863202
 20
20.8709744751
 10
9.6351623567
 20
20.8803552776
 10
9.6172470886
 20
20.8885746608
 10
9.5988159097
 20
20.8955956584
 10
9.5799491897
 20
20.9013855452
 10
9.5607371054
 20
20.905915255
 10
9.5412659171
 20
20.9091644958
 10
9.5216170082
 20
20.9111198707
 10
9.5018754742
 20
20.9117726717
  0
LINE
  5
367
100
AcDbEntity
  8
0
100
AcDbLine
 62
7
  6
CONTINUOUS
 10
11.0514422353
 20
21.6116135728
 11
11.0514422353
 21
-21.6116135728
  0
LINE
  5
368
100
AcDbEntity
  8
0
100
AcDbLine
 62
7
  6
CONTINUOUS
 10
1.810000221
 20
-15.8882978857
 11
1.872499984
 21
-15.7925532162
  0
LINE
  5
369
100
AcDbEntity
  8
0
100
AcDbLine
 62
7
  6
CONTINUOUS
 10
1.8412501025
 20
-16.5904255286
 11
1.9037502232
 21
-16.4946808591
  0
LINE
  5
36A
100
AcDbEntity
  8
0
100
AcDbLine
 62
7
  6
CONTINUOUS
 10
0.1850001236
 20
-15.7287234366
 11
0.3725001279
 21
-15.5053191185
  0
LINE
  5
36B
100
AcDbEntity
  8
0
100
AcDbLine
 62
7
  6
CONTINUOUS
 10
2.3725002341
 20
-15.25
 11
2.1850002297
 21
-15.4734042287
  0
LINE
  5
36C
100
AcDbEntity
  8
0
100
AcDbLine
 62
7
  6
CONTINUOUS
 10
-0.2837498873
 20
-16.6223404296
 11
-0.1899998852
 21
-16.526595749
  0
LINE
  5
36D
100
AcDbEntity
  8
0
100
AcDbLine
 62
7
  6
CONTINUOUS
 10
0.9975000829
 20
-15.3457446694
 11
0.8725001992
 21
-15.4734042287
  0
LINE
  5
36E
100
AcDbEntity
  8
0
100
AcDbLine
 62
7
  6
CONTINUOUS
 10
6.4810194482
 20
-9.6
 11
6.3698659872
 21
-9.711153461
  0
LINE
  5
36F
100
AcDbEntity
  8
0
100
AcDbLine
 62
7
  6
CONTINUOUS
 10
-1.6900000094
 20
-15.7925532162
 11
-2.565
 21
-16.5904255286
  0
LINE
  5
370
100
AcDbEntity
  8
0
100
AcDbLine
 62
7
  6
CONTINUOUS
 10
-2.3149999867
 20
-16.5904255286
 11
-1.533749976
 21
-15.8882978857
  0
LINE
  5
371
100
AcDbEntity
  8
0
100
AcDbLine
 62
7
  6
CONTINUOUS
 10
-2.3149999867
 20
-15.5053191185
 11
-2.2212499846
 21
-15.4414893389
  0
LINE
  5
372
100
AcDbEntity
  8
0
100
AcDbLine
 62
7
  6
CONTINUOUS
 10
9.7821633529
 20
10.4
 11
6.4810194482
 21
10.4
  0
LINE
  5
373
100
AcDbEntity
  8
0
100
AcDbLine
 62
7
  6
CONTINUOUS
 10
-6.4810194482
 20
10.4
 11
-9.7821633529
 21
10.4
  0
LINE
  5
374
100
AcDbEntity
  8
0
100
AcDbLine
 62
7
  6
CONTINUOUS
 10
-9.7772527777
 20
10.4032733012
 11
-6.4908473377
 21
10.4032733012
  0
LINE
  5
375
100
AcDbEntity
  8
0
100
AcDbLine
 62
7
  6
CONTINUOUS
 10
6.4908473377
 20
10.4032733012
 11
9.7772527777
 21
10.4032733012
  0
LINE
  5
376
100
AcDbEntity
  8
0
100
AcDbLine
 62
7
  6
CONTINUOUS
 10
6.4810194482
 20
9.6
 11
6.3698659872
 21
9.711153461
  0
LWPOLYLINE
  5
377
100
AcDbEntity
  8
0
100
AcDbPolyline
 62
7
  6
CONTINUOUS
 90
10
 70
0
 10
0.4621283224
 20
14.3005718862
 10
0.513782365
 20
14.2455505218
 10
0.5716581494
 20
14.1955544045
 10
0.6357556757
 20
14.1505841687
 10
0.7065469117
 20
14.1098314337
 10
0.7835598896
 20
14.0741055933
 10
0.8653787052
 20
14.0458340471
 10
0.9515313904
 20
14.0258263028
 10
1.0424899132
 20
14.0132737497
 10
1.1382542738
 20
14.0081766112
  0
LWPOLYLINE
  5
378
100
AcDbEntity
  8
0
100
AcDbPolyline
 62
7
  6
CONTINUOUS
 90
10
 70
0
 10
1.5322267946
 20
15.5288156973
 10
1.5668556493
 20
15.4869702307
 10
1.5979684418
 20
15.4407171167
 10
1.625565172
 20
15.3900557688
 10
1.6499054234
 20
15.3347437489
 10
1.6707296126
 20
15.2750221491
 10
1.6872589891
 20
15.2116157323
 10
1.6992339694
 20
15.1447657109
 10
1.706914137
 20
15.0742296103
 10
1.7102994918
 20
15.0000067473
  0
LINE
  5
379
100
AcDbEntity
  8
0
100
AcDbLine
 62
7
  6
CONTINUOUS
 10
3.592791
 20
14.608189
 11
2.716892
 21
15.949703
  0
LINE
  5
37A
100
AcDbEntity
  8
0
100
AcDbLine
 62
7
  6
CONTINUOUS
 10
2.716602
 20
15.377168
 11
3.580395
 21
14.050297
  0
LINE
  5
37B
100
AcDbEntity
  8
0
100
AcDbLine
 62
7
  6
CONTINUOUS
 10
2.1850002297
 20
-15.7287234366
 11
2.3725002341
 21
-15.5053191185
  0
LINE
  5
37C
100
AcDbEntity
  8
0
100
AcDbLine
 62
7
  6
CONTINUOUS
 10
1.6849999796
 20
-15.7925532162
 11
1.6225002166
 21
-15.8563829958
  0
LINE
  5
37D
100
AcDbEntity
  8
0
100
AcDbLine
 62
7
  6
CONTINUOUS
 10
1.7475001003
 20
-16.462765947
 11
1.6849999796
 21
-16.526595749
  0
LINE
  5
37E
100
AcDbEntity
  8
0
100
AcDbLine
 62
7
  6
CONTINUOUS
 10
-0.8774999607
 20
-15.5053191185
 11
-0.7837499586
 21
-15.4414893389
  0
LINE
  5
37F
100
AcDbEntity
  8
0
100
AcDbLine
 62
7
  6
CONTINUOUS
 10
1.0600002035
 20
-15.5053191185
 11
1.1537502057
 21
-15.4414893389
  0
LINE
  5
380
100
AcDbEntity
  8
0
100
AcDbLine
 62
7
  6
CONTINUOUS
 10
-0.3774998895
 20
-16.4946808591
 11
-0.4712498917
 21
-16.5585106388
  0
LINE
  5
381
100
AcDbEntity
  8
0
100
AcDbLine
 62
7
  6
CONTINUOUS
 10
-0.8150000189
 20
-15.2819148898
 11
-0.9712499629
 21
-15.3776595592
  0
LINE
  5
382
100
AcDbEntity
  8
0
100
AcDbLine
 62
7
  6
CONTINUOUS
 10
-2.2525000002
 20
-15.2819148898
 11
-2.3774999956
 21
-15.3457446694
  0
LINE
  5
383
100
AcDbEntity
  8
0
100
AcDbLine
 62
7
  6
CONTINUOUS
 10
5.35
 20
13.2962124327
 11
5.65
 21
13.3004252194
  0
LINE
  5
384
100
AcDbEntity
  8
0
100
AcDbLine
 62
7
  6
CONTINUOUS
 10
5.9704141733
 20
13.2689805518
 11
5.7524579547
 21
13.2689805518
  0
LINE
  5
385
100
AcDbEntity
  8
0
100
AcDbLine
 62
7
  6
CONTINUOUS
 10
-5.7524579547
 20
13.2689805518
 11
-5.9704141733
 21
13.2689805518
  0
LINE
  5
386
100
AcDbEntity
  8
0
100
AcDbLine
 62
7
  6
CONTINUOUS
 10
-6.483558219
 20
13.4025387708
 11
-5.65
 21
13.4025387708
  0
LINE
  5
387
100
AcDbEntity
  8
0
100
AcDbLine
 62
7
  6
CONTINUOUS
 10
5.65
 20
13.4025387708
 11
6.483558219
 21
13.4025387708
  0
LINE
  5
388
100
AcDbEntity
  8
0
100
AcDbLine
 62
7
  6
CONTINUOUS
 10
-5.65
 20
13.3004252194
 11
-5.35
 21
13.2962124327
  0
LWPOLYLINE
  5
389
100
AcDbEntity
  8
0
100
AcDbPolyline
 62
7
  6
CONTINUOUS
 90
10
 70
0
 10
1.8142796835
 20
15.6998136126
 10
1.7625583458
 20
15.7548920033
 10
1.7046306282
 20
15.8049253522
 10
1.6404965309
 20
15.8499144161
 10
1.5696784128
 20
15.8906654093
 10
1.4926539149
 20
15.9263733618
 10
1.4108559598
 20
15.9546224127
 10
1.3247621883
 20
15.9746077619
 10
1.2338949597
 20
15.987135372
 10
1.1382542738
 20
15.9922055362
  0
LINE
  5
38A
100
AcDbEntity
  8
0
100
AcDbLine
 62
7
  6
CONTINUOUS
 10
1.6849999796
 20
-15.9840425551
 11
1.810000221
 21
-15.8882978857
  0
LINE
  5
38B
100
AcDbEntity
  8
0
100
AcDbLine
 62
7
  6
CONTINUOUS
 10
1.7475001003
 20
-16.6542553194
 11
1.8412501025
 21
-16.5904255286
  0
LINE
  5
38C
100
AcDbEntity
  8
0
100
AcDbLine
 62
7
  6
CONTINUOUS
 10
9.7772527777
 20
-10.4032733012
 11
9.7821633529
 21
-10.4
  0
LINE
  5
38D
100
AcDbEntity
  8
0
100
AcDbLine
 62
7
  6
CONTINUOUS
 10
-0.4400000102
 20
-16.7180851074
 11
-0.2837498873
 21
-16.6223404296
  0
LINE
  5
38E
100
AcDbEntity
  8
0
100
AcDbLine
 62
7
  6
CONTINUOUS
 10
1.1224999666
 20
-15.2819148898
 11
0.9975000829
 21
-15.3457446694
  0
LWPOLYLINE
  5
38F
100
AcDbEntity
  8
0
100
AcDbPolyline
 62
7
  6
CONTINUOUS
 90
10
 70
0
 10
1.1382542738
 20
14.0081766112
 10
1.23239551
 20
14.013548989
 10
1.3220015027
 20
14.025890686
 10
1.4070722518
 20
14.045201497
 10
1.4879031998
 20
14.0717337149
 10
1.5641989042
 20
14.1052342693
 10
1.6350730375
 20
14.1449447914
 10
1.7002301573
 20
14.1906120844
 10
1.7599657059
 20
14.2424880526
 10
1.8142796834
 20
14.3005718861
  0
LINE
  5
390
100
AcDbEntity
  8
0
100
AcDbLine
 62
7
  6
CONTINUOUS
 10
-5.4106909682
 20
13.282550198
 11
-5.6110365985
 21
13.2720505284
  0
LINE
  5
391
100
AcDbEntity
  8
0
100
AcDbLine
 62
7
  6
CONTINUOUS
 10
-4.5
 20
13.55
 11
4.5
 21
13.55
  0
LINE
  5
392
100
AcDbEntity
  8
0
100
AcDbLine
 62
7
  6
CONTINUOUS
 10
-3.919354
 20
14.050297
 11
-2.569324
 21
14.050297
  0
LINE
  5
393
100
AcDbEntity
  8
0
100
AcDbLine
 62
7
  6
CONTINUOUS
 10
-2.161366
 20
14.050297
 11
-1.822139
 21
14.050297
  0
LINE
  5
394
100
AcDbEntity
  8
0
100
AcDbLine
 62
7
  6
CONTINUOUS
 10
-1.418727
 20
14.050297
 11
-1.079515
 21
14.050297
  0
LINE
  5
395
100
AcDbEntity
  8
0
100
AcDbLine
 62
7
  6
CONTINUOUS
 10
-0.204862
 20
14.050297
 11
0.221854
 21
14.050297
  0
LINE
  5
396
100
AcDbEntity
  8
0
100
AcDbLine
 62
7
  6
CONTINUOUS
 10
2.385447
 20
14.050297
 11
2.711999
 21
14.050297
  0
LINE
  5
397
100
AcDbEntity
  8
0
100
AcDbLine
 62
7
  6
CONTINUOUS
 10
3.580395
 20
14.050297
 11
3.919354
 21
14.050297
  0
LINE
  5
398
100
AcDbEntity
  8
0
100
AcDbLine
 62
7
  6
CONTINUOUS
 10
-2.569324
 20
14.351755
 11
-3.580146
 21
14.351743
  0
LINE
  5
399
100
AcDbEntity
  8
0
100
AcDbLine
 62
7
  6
CONTINUOUS
 10
-3.580146
 20
14.874477
 11
-2.645022
 21
14.874484
  0
LINE
  5
39A
100
AcDbEntity
  8
0
100
AcDbLine
 62
7
  6
CONTINUOUS
 10
5.6110365985
 20
13.2720505284
 11
5.4106909682
 21
13.282550198
  0
LWPOLYLINE
  5
39B
100
AcDbEntity
  8
0
100
AcDbPolyline
 62
7
  6
CONTINUOUS
 90
10
 70
0
 10
1.1391390405
 20
14.3089000876
 10
1.0855266789
 20
14.3120493681
 10
1.0338900692
 20
14.3192522646
 10
0.9842292114
 20
14.330508704
 10
0.9359359701
 20
14.3462613819
 10
0.8896184807
 20
14.366067318
 10
0.8471011492
 20
14.3885979281
 10
0.808992111
 20
14.4134102712
 10
0.7746832308
 20
14.4409469767
 10
0.7441745085
 20
14.4712078515
  0
LINE
  5
39C
100
AcDbEntity
  8
0
100
AcDbLine
 62
7
  6
CONTINUOUS
 10
9.7772527777
 20
10.4032733012
 11
9.7821633529
 21
10.4
  0
LINE
  5
39D
100
AcDbEntity
  8
0
100
AcDbLine
 62
7
  6
CONTINUOUS
 10
1.6849999796
 20
-16.526595749
 11
1.6225002166
 21
-16.5585106388
  0
LINE
  5
39E
100
AcDbEntity
  8
0
100
AcDbLine
 62
7
  6
CONTINUOUS
 10
1.6225002166
 20
-16.7180851074
 11
1.7475001003
 21
-16.6542553194
  0
LINE
  5
39F
100
AcDbEntity
  8
0
100
AcDbLine
 62
7
  6
CONTINUOUS
 10
1.6225002166
 20
-15.8563829958
 11
1.4350002123
 21
-15.9202127755
  0
LWPOLYLINE
  5
3A0
100
AcDbEntity
  8
0
100
AcDbPolyline
 62
7
  6
CONTINUOUS
 90
10
 70
0
 10
1.1382542738
 20
15.9922055362
 10
1.0438885824
 20
15.9868101174
 10
0.9540792245
 20
15.9744157638
 10
0.8688262
 20
15.9550222031
 10
0.7878327626
 20
15.9283755208
 10
0.7113956586
 20
15.8947286139
 10
0.6404051272
 20
15.8548412816
 10
0.5751579148
 20
15.8089662817
 10
0.515357275
 20
15.7568492451
 10
0.4610032079
 20
15.6984891933
  0
LINE
  5
3A1
100
AcDbEntity
  8
0
100
AcDbLine
 62
7
  6
CONTINUOUS
 10
-2.645022
 20
15.175948
 11
-3.580146
 21
15.175955
  0
LINE
  5
3A2
100
AcDbEntity
  8
0
100
AcDbLine
 62
7
  6
CONTINUOUS
 10
-3.580146
 20
15.648249
 11
-2.576958
 21
15.648245
  0
LINE
  5
3A3
100
AcDbEntity
  8
0
100
AcDbLine
 62
7
  6
CONTINUOUS
 10
3.919354
 20
15.949703
 11
3.592798
 21
15.949703
  0
LINE
  5
3A4
100
AcDbEntity
  8
0
100
AcDbLine
 62
7
  6
CONTINUOUS
 10
2.716892
 20
15.949703
 11
2.385447
 21
15.949703
  0
LINE
  5
3A5
100
AcDbEntity
  8
0
100
AcDbLine
 62
7
  6
CONTINUOUS
 10
0.217376
 20
15.949703
 11
-0.237454
 21
15.949703
  0
LINE
  5
3A6
100
AcDbEntity
  8
0
100
AcDbLine
 62
7
  6
CONTINUOUS
 10
-1.079515
 20
15.949703
 11
-1.418727
 21
15.949703
  0
LINE
  5
3A7
100
AcDbEntity
  8
0
100
AcDbLine
 62
7
  6
CONTINUOUS
 10
-1.822139
 20
15.949703
 11
-2.161366
 21
15.949703
  0
LINE
  5
3A8
100
AcDbEntity
  8
0
100
AcDbLine
 62
7
  6
CONTINUOUS
 10
-2.576958
 20
15.949703
 11
-3.919354
 21
15.949703
  0
LINE
  5
3A9
100
AcDbEntity
  8
0
100
AcDbLine
 62
7
  6
CONTINUOUS
 10
-3.118476
 20
16.581506
 11
-2.768996
 21
16.581506
  0
LINE
  5
3AA
100
AcDbEntity
  8
0
100
AcDbLine
 62
7
  6
CONTINUOUS
 10
-2.011141
 20
16.581506
 11
-1.614569
 21
16.581506
  0
LINE
  5
3AB
100
AcDbEntity
  8
0
100
AcDbLine
 62
7
  6
CONTINUOUS
 10
-1.401081
 20
16.581506
 11
-1.021691
 21
16.581506
  0
LINE
  5
3AC
100
AcDbEntity
  8
0
100
AcDbLine
 62
7
  6
CONTINUOUS
 10
-0.470883
 20
16.581506
 11
-0.415264
 21
16.581506
  0
LINE
  5
3AD
100
AcDbEntity
  8
0
100
AcDbLine
 62
7
  6
CONTINUOUS
 10
0.137738
 20
16.581506
 11
0.525691
 21
16.581506
  0
LINE
  5
3AE
100
AcDbEntity
  8
0
100
AcDbLine
 62
7
  6
CONTINUOUS
 10
0.587963
 20
16.581506
 11
0.980233
 21
16.581506
  0
LINE
  5
3AF
100
AcDbEntity
  8
0
100
AcDbLine
 62
7
  6
CONTINUOUS
 10
1.732461
 20
16.581506
 11
2.150432
 21
16.581506
  0
LINE
  5
3B0
100
AcDbEntity
  8
0
100
AcDbLine
 62
7
  6
CONTINUOUS
 10
2.2668846027
 20
16.581506254
 11
2.6618612449
 21
16.581506254
  0
LINE
  5
3B1
100
AcDbEntity
  8
0
100
AcDbLine
 62
7
  6
CONTINUOUS
 10
3.2691570653
 20
16.581506254
 11
3.6506135504
 21
16.581506254
  0
LWPOLYLINE
  5
3B2
100
AcDbEntity
  8
0
100
AcDbPolyline
 62
7
  6
CONTINUOUS
 90
10
 70
0
 10
1.1391390405
 20
15.6911234612
 10
1.1921330397
 20
15.6880320205
 10
1.2432860678
 20
15.6808629223
 10
1.2925981247
 20
15.6696160781
 10
1.3407204428
 20
15.6538349445
 10
1.3870017897
 20
15.6339757203
 10
1.429488468
 20
15.6114074373
 10
1.4675292454
 20
15.5865863493
 10
1.5017753543
 20
15.5590558425
 10
1.5322267946
 20
15.5288156973
  0
LWPOLYLINE
  5
3B3
100
AcDbEntity
  8
0
100
AcDbPolyline
 62
7
  6
CONTINUOUS
 90
10
 70
0
 10
2.6487115031
 20
18.1576944232
 10
2.6846648326
 20
18.1636297799
 10
2.7201488136
 20
18.1684014882
 10
2.7551634463
 20
18.1720095703
 10
2.789560758
 20
18.174466797
 10
2.8234887214
 20
18.1757604256
 10
2.8573912535
 20
18.1758522004
 10
2.8914163269
 20
18.1747293678
 10
2.925415969
 20
18.1724046763
 10
2.9593901799
 20
18.1688781148
  0
LINE
  5
3B4
100
AcDbEntity
  8
0
100
AcDbLine
 62
7
  6
CONTINUOUS
 10
1.089662
 20
16.960783
 11
1.629728
 21
16.960783
  0
LINE
  5
3B5
100
AcDbEntity
  8
0
100
AcDbLine
 62
7
  6
CONTINUOUS
 10
1.550473
 20
17.254266
 11
1.170783
 21
17.254266
  0
LINE
  5
3B6
100
AcDbEntity
  8
0
100
AcDbLine
 62
7
  6
CONTINUOUS
 10
2.6618612449
 20
17.3250009165
 11
2.8744938515
 21
17.3250009165
  0
LINE
  5
3B7
100
AcDbEntity
  8
0
100
AcDbLine
 62
7
  6
CONTINUOUS
 10
2.8753486559
 20
17.6361497358
 11
2.6487115031
 21
17.6361497358
  0
LWPOLYLINE
  5
3B8
100
AcDbEntity
  8
0
100
AcDbPolyline
 62
7
  6
CONTINUOUS
 90
13
 70
0
 10
2.8744938515
 20
17.3250009165
 10
2.898765667
 20
17.3237139858
 10
2.9221671896
 20
17.3200865851
 10
2.9446984194
 20
17.3141186833
 10
2.9664861267
 20
17.3057940915
 10
2.9874035411
 20
17.2951288758
 10
3.0070703516
 20
17.2821713598
 10
3.0254507691
 20
17.2668770355
 10
3.0425805827
 20
17.2492901736
 10
3.0581868489
 20
17.2295922508
 10
3.0721785866
 20
17.2078436594
 10
3.0846467769
 20
17.1839836946
 10
3.0955914198
 20
17.1580121761
  0
LINE
  5
3B9
100
AcDbEntity
  8
0
100
AcDbLine
 62
7
  6
CONTINUOUS
 10
1.567512
 20
18.481352
 11
1.183876
 21
18.481352
  0
LINE
  5
3BA
100
AcDbEntity
  8
0
100
AcDbLine
 62
7
  6
CONTINUOUS
 10
0.348034
 20
18.481352
 11
-0.044336
 21
18.481352
  0
LINE
  5
3BB
100
AcDbEntity
  8
0
100
AcDbLine
 62
7
  6
CONTINUOUS
 10
-0.833292
 20
18.481352
 11
-1.229536
 21
18.481352
  0
LINE
  5
3BC
100
AcDbEntity
  8
0
100
AcDbLine
 62
7
  6
CONTINUOUS
 10
-2.15831
 20
18.481352
 11
-2.554611
 21
18.481352
  0
LINE
  5
3BD
100
AcDbEntity
  8
0
100
AcDbLine
 62
7
  6
CONTINUOUS
 10
-3.289964
 20
18.481352
 11
-3.720764
 21
18.481352
  0
LINE
  5
3BE
100
AcDbEntity
  8
0
100
AcDbLine
 62
7
  6
CONTINUOUS
 10
-1.614569
 20
18.481466
 11
-2.011141
 21
18.481466
  0
LINE
  5
3BF
100
AcDbEntity
  8
0
100
AcDbLine
 62
7
  6
CONTINUOUS
 10
-4.5
 20
19.05
 11
4.5
 21
19.05
  0
LWPOLYLINE
  5
3C0
100
AcDbEntity
  8
0
100
AcDbPolyline
 62
7
  6
CONTINUOUS
 90
25
 70
0
 10
2.9593901799
 20
18.1688781148
 10
2.974808683
 20
18.1666238659
 10
2.9899317833
 20
18.1635797709
 10
3.004759481
 20
18.15974582
 10
3.0193345074
 20
18.1551107734
 10
3.0336141311
 20
18.1496858441
 10
3.0474701574
 20
18.1435046991
 10
3.060920439
 20
18.1365646792
 10
3.0739471233
 20
18.128868404
 10
3.086368457
 20
18.120457458
 10
3.0981740381
 20
18.1113141027
 10
3.1093742687
 20
18.1014560265
 10
3.1198186026
 20
18.0909779558
 10
3.1294642762
 20
18.0798553437
 10
3.138354053
 20
18.0681126835
 10
3.1464656776
 20
18.0559182723
 10
3.1537974018
 20
18.0432803385
 10
3.1603509739
 20
18.0301906101
 10
3.1661093827
 20
18.0167926464
 10
3.1710861775
 20
18.003097212
 10
3.1752678091
 20
17.9890935105
 10
3.1785966188
 20
17.9748927732
 10
3.1810533873
 20
17.9605320726
 10
3.182657334
 20
17.9459743163
 10
3.183408459
 20
17.9312194933
  0
LWPOLYLINE
  5
3C1
100
AcDbEntity
  8
0
100
AcDbPolyline
 62
7
  6
CONTINUOUS
 90
13
 70
0
 10
3.2459809447
 20
18.4390024381
 10
3.1796794251
 20
18.459123189
 10
3.1103707664
 20
18.475447968
 10
3.0380549685
 20
18.4879770297
 10
2.9625647809
 20
18.496405091
 10
2.8840674542
 20
18.5010377719
 10
2.8030647401
 20
18.5027915756
 10
2.7196703417
 20
18.5018066131
 10
2.6337705559
 20
18.4979427824
 10
2.5455260248
 20
18.4916962057
 10
2.454990296
 20
18.4832322128
 10
2.362109822
 20
18.4723853326
 10
2.2668846027
 20
18.4591554587
  0
LWPOLYLINE
  5
3C2
100
AcDbEntity
  8
RACCORDO
100
AcDbPolyline
 62
7
  6
CONTINUOUS
 90
25
 70
0
 10
-9.5018754742
 20
20.9117726717
 10
-9.521618601
 20
20.9111197669
 10
-9.5412700787
 20
20.9091639434
 10
-9.5607447586
 20
20.9059137159
 10
-9.5799614886
 20
20.9013822108
 10
-9.598833583
 20
20.8955895864
 10
-9.6172698459
 20
20.8885651167
 10
-9.6351898961
 20
20.8803415201
 10
-9.6525182023
 20
20.870955819
 10
-9.6691756664
 20
20.8604544471
 10
-9.6850918985
 20
20.84888539
 10
-9.7002003191
 20
20.8363010285
 10
-9.7144341557
 20
20.8227630417
 10
-9.7277330051
 20
20.8083351408
 10
-9.7400457245
 20
20.7930796921
 10
-9.7513260914
 20
20.7770619807
 10
-9.7615289007
 20
20.7603520386
 10
-9.7706137383
 20
20.7430226797
 10
-9.7785475007
 20
20.7251463996
 10
-9.7852984569
 20
20.7068016148
 10
-9.7908414768
 20
20.6880649162
 10
-9.7951586127
 20
20.6690076915
 10
-9.7982332651
 20
20.649707461
 10
-9.8000521953
 20
20.6302481235
 10
-9.8006086115
 20
20.610711414
  0
LINE
  5
3C3
100
AcDbEntity
  8
RACCORDO
100
AcDbLine
 62
7
  6
CONTINUOUS
 10
-9.5018754742
 20
20.9117726717
 11
9.5018754742
 21
20.9117726717
  0
LINE
  5
3C4
100
AcDbEntity
  8
RACCORDO
100
AcDbLine
 62
7
  6
CONTINUOUS
 10
-9.5215450378
 20
20.9314422353
 11
9.5215450378
 21
20.9314422353
  0
LINE
  5
3C5
100
AcDbEntity
  8
0
100
AcDbLine
 62
7
  6
CONTINUOUS
 10
-10.5516135728
 20
22.1114422353
 11
10.5516135728
 21
22.1114422353
  0
CIRCLE
  5
3C6
100
AcDbEntity
  8
0
100
AcDbCircle
 62
7
  6
CONTINUOUS
 10
-3.75
 20
-6.5
 40
0.5
  0
ARC
  5
3C7
100
AcDbEntity
  8
0
100
AcDbCircle
 62
7
  6
CONTINUOUS
 10
-1.4142135624
 20
-9.0
 40
0.5
100
AcDbArc
 50
19.4712206345
 51
90.0
  0
ARC
  5
3C8
100
AcDbEntity
  8
0
100
AcDbCircle
 62
7
  6
CONTINUOUS
 10
-4.1
 20
-8.0
 40
0.5
100
AcDbArc
 50
180.0
 51
270.0
  0
ARC
  5
3C9
100
AcDbEntity
  8
0
100
AcDbCircle
 62
7
  6
CONTINUOUS
 10
-5.1
 20
-3.75
 40
0.5
100
AcDbArc
 50
0.0
 51
90.0
  0
ARC
  5
3CA
100
AcDbEntity
  8
0
100
AcDbCircle
 62
7
  6
CONTINUOUS
 10
-10.5593484794
 20
-1.3228756555
 40
0.5
100
AcDbArc
 50
0.0
 51
41.4096221093
  0
ARC
  5
3CB
100
AcDbEntity
  8
0
100
AcDbCircle
 62
7
  6
CONTINUOUS
 10
-9.0593484794
 20
0.0
 40
1.5
100
AcDbArc
 50
138.5903778907
 51
221.4096221093
  0
CIRCLE
  5
3CC
100
AcDbEntity
  8
0
100
AcDbCircle
 62
7
  6
CONTINUOUS
 10
-3.75
 20
6.5
 40
0.5
  0
ARC
  5
3CD
100
AcDbEntity
  8
0
100
AcDbCircle
 62
7
  6
CONTINUOUS
 10
-1.4142135624
 20
9.0
 40
0.5
100
AcDbArc
 50
270.0
 51
340.5287793655
  0
ARC
  5
3CE
100
AcDbEntity
  8
0
100
AcDbCircle
 62
7
  6
CONTINUOUS
 10
-4.1
 20
8.0
 40
0.5
100
AcDbArc
 50
90.0
 51
180.0
  0
ARC
  5
3CF
100
AcDbEntity
  8
0
100
AcDbCircle
 62
7
  6
CONTINUOUS
 10
-5.1
 20
3.75
 40
0.5
100
AcDbArc
 50
270.0
 51
360.0
  0
ARC
  5
3D0
100
AcDbEntity
  8
0
100
AcDbCircle
 62
7
  6
CONTINUOUS
 10
-10.5593484794
 20
1.3228756555
 40
0.5
100
AcDbArc
 50
318.5903778907
 51
360.0
  0
ARC
  5
3D1
100
AcDbEntity
  8
0
100
AcDbCircle
 62
7
  6
CONTINUOUS
 10
-0.0
 20
-8.5
 40
1.0
100
AcDbArc
 50
199.4712206345
 51
340.5287793655
  0
ARC
  5
3D2
100
AcDbEntity
  8
0
100
AcDbCircle
 62
7
  6
CONTINUOUS
 10
5.1
 20
-3.75
 40
0.5
100
AcDbArc
 50
90.0
 51
180.0
  0
CIRCLE
  5
3D3
100
AcDbEntity
  8
0
100
AcDbCircle
 62
7
  6
CONTINUOUS
 10
3.75
 20
-6.5
 40
0.5
  0
ARC
  5
3D4
100
AcDbEntity
  8
0
100
AcDbCircle
 62
7
  6
CONTINUOUS
 10
4.1
 20
-8.0
 40
0.5
100
AcDbArc
 50
270.0
 51
360.0
  0
ARC
  5
3D5
100
AcDbEntity
  8
0
100
AcDbCircle
 62
7
  6
CONTINUOUS
 10
1.4142135624
 20
-9.0
 40
0.5
100
AcDbArc
 50
90.0
 51
160.5287793655
  0
ARC
  5
3D6
100
AcDbEntity
  8
0
100
AcDbCircle
 62
7
  6
CONTINUOUS
 10
10.5593484794
 20
-1.3228756555
 40
0.5
100
AcDbArc
 50
138.5903778907
 51
180.0
  0
ARC
  5
3D7
100
AcDbEntity
  8
0
100
AcDbCircle
 62
7
  6
CONTINUOUS
 10
9.0593484794
 20
0.0
 40
1.5
100
AcDbArc
 50
318.5903778907
 51
41.4096221093
  0
ARC
  5
3D8
100
AcDbEntity
  8
0
100
AcDbCircle
 62
7
  6
CONTINUOUS
 10
0.0
 20
8.5
 40
1.0
100
AcDbArc
 50
19.4712206345
 51
160.5287793655
  0
CIRCLE
  5
3D9
100
AcDbEntity
  8
0
100
AcDbCircle
 62
7
  6
CONTINUOUS
 10
3.75
 20
6.5
 40
0.5
  0
ARC
  5
3DA
100
AcDbEntity
  8
0
100
AcDbCircle
 62
7
  6
CONTINUOUS
 10
5.1
 20
3.75
 40
0.5
100
AcDbArc
 50
180.0
 51
270.0
  0
ARC
  5
3DB
100
AcDbEntity
  8
0
100
AcDbCircle
 62
7
  6
CONTINUOUS
 10
4.1
 20
8.0
 40
0.5
100
AcDbArc
 50
0.0
 51
90.0
  0
ARC
  5
3DC
100
AcDbEntity
  8
0
100
AcDbCircle
 62
7
  6
CONTINUOUS
 10
1.4142135624
 20
9.0
 40
0.5
100
AcDbArc
 50
199.4712206345
 51
270.0
  0
ARC
  5
3DD
100
AcDbEntity
  8
0
100
AcDbCircle
 62
7
  6
CONTINUOUS
 10
10.5593484794
 20
1.3228756555
 40
0.5
100
AcDbArc
 50
180.0
 51
221.4096221093
  0
ELLIPSE
  5
3DE
100
AcDbEntity
  8
0
100
AcDbEllipse
 62
7
  6
CONTINUOUS
 10
10.551270839
 20
-21.611270839
 30
0.0
 11
-0.35379574
 21
0.35379574
 31
0.0
 40
0.999315002
 41
-3.9266482006
 42
-2.3565371065
  0
ELLIPSE
  5
3DF
100
AcDbEntity
  8
0
100
AcDbEllipse
 62
7
  6
CONTINUOUS
 10
10.551270839
 20
21.611270839
 30
0.0
 11
-0.35379574
 21
-0.35379574
 31
0.0
 40
0.999315002
 41
2.3565371065
 42
3.9266482006
  0
ELLIPSE
  5
3E0
100
AcDbEntity
  8
0
100
AcDbEllipse
 62
7
  6
CONTINUOUS
 10
-10.551270839
 20
-21.611270839
 30
0.0
 11
0.35379574
 21
0.35379574
 31
0.0
 40
0.999315002
 41
2.3565371065
 42
3.9266482006
  0
ELLIPSE
  5
3E1
100
AcDbEntity
  8
0
100
AcDbEllipse
 62
7
  6
CONTINUOUS
 10
-10.551270839
 20
21.611270839
 30
0.0
 11
-0.35379574
 21
0.35379574
 31
0.0
 40
0.999315002
 41
-0.785055547
 42
0.7850555471
  0
ELLIPSE
  5
3E2
100
AcDbEntity
  8
0
100
AcDbEllipse
 62
7
  6
CONTINUOUS
 10
5.7524579547
 20
-13.2794621076
 30
0.0
 11
0.2
 21
0.0
 31
0.0
 40
0.0524077793
 41
1.5707963268
 42
2.3561944902
  0
ELLIPSE
  5
3E3
100
AcDbEntity
  8
0
100
AcDbEllipse
 62
7
  6
CONTINUOUS
 10
5.9704141733
 20
-13.2899436635
 30
0.0
 11
0.4
 21
-0.0
 31
0.0
 40
0.0524077793
 41
0.0523598776
 42
1.5707963268
  0
ELLIPSE
  5
3E4
100
AcDbEntity
  8
0
100
AcDbEllipse
 62
7
  6
CONTINUOUS
 10
5.5521123244
 20
-13.2899617772
 30
0.0
 11
0.2
 21
0.0
 31
0.0
 40
0.0524077793
 41
2.3561944902
 42
3.1241393611
  0
ELLIPSE
  5
3E5
100
AcDbEntity
  8
0
100
AcDbEllipse
 62
7
  6
CONTINUOUS
 10
-5.7524579547
 20
-13.2794621076
 30
0.0
 11
0.2
 21
0.0
 31
0.0
 40
0.0524077793
 41
0.7853981634
 42
1.5707963268
  0
ELLIPSE
  5
3E6
100
AcDbEntity
  8
0
100
AcDbEllipse
 62
7
  6
CONTINUOUS
 10
-5.5521123244
 20
-13.2899617772
 30
0.0
 11
0.2
 21
0.0
 31
0.0
 40
0.0524077793
 41
0.0174532925
 42
0.7853981634
  0
ELLIPSE
  5
3E7
100
AcDbEntity
  8
0
100
AcDbEllipse
 62
7
  6
CONTINUOUS
 10
-5.9704141733
 20
-13.2899436635
 30
0.0
 11
0.4
 21
-0.0
 31
0.0
 40
0.0524077793
 41
1.5707963268
 42
3.089232776
  0
ELLIPSE
  5
3E8
100
AcDbEntity
  8
0
100
AcDbEllipse
 62
7
  6
CONTINUOUS
 10
5.7524579547
 20
13.2794621076
 30
0.0
 11
0.2
 21
0.0
 31
0.0
 40
0.0524077793
 41
-2.3561944902
 42
-1.5707963268
  0
ELLIPSE
  5
3E9
100
AcDbEntity
  8
0
100
AcDbEllipse
 62
7
  6
CONTINUOUS
 10
5.5521123244
 20
13.2899617772
 30
0.0
 11
0.2
 21
0.0
 31
0.0
 40
0.0524077793
 41
-3.1241393611
 42
-2.3561944902
  0
ELLIPSE
  5
3EA
100
AcDbEntity
  8
0
100
AcDbEllipse
 62
7
  6
CONTINUOUS
 10
12.1015554759
 20
7.79
 30
0.0
 11
0.0
 21
88.8
 31
0.0
 40
0.0261859216
 41
1.4259125949
 42
1.5413633239
  0
ELLIPSE
  5
3EB
100
AcDbEntity
  8
0
100
AcDbEllipse
 62
7
  6
CONTINUOUS
 10
5.9704141733
 20
13.2899436635
 30
0.0
 11
0.4
 21
-0.0
 31
0.0
 40
0.0524077793
 41
-1.5707963268
 42
-0.0523598776
  0
ELLIPSE
  5
3EC
100
AcDbEntity
  8
0
100
AcDbEllipse
 62
7
  6
CONTINUOUS
 10
-5.7524579547
 20
13.2794621076
 30
0.0
 11
0.2
 21
0.0
 31
0.0
 40
0.0524077793
 41
-1.5707963268
 42
-0.7853981634
  0
ELLIPSE
  5
3ED
100
AcDbEntity
  8
0
100
AcDbEllipse
 62
7
  6
CONTINUOUS
 10
-5.9704141733
 20
13.2899436635
 30
0.0
 11
0.4
 21
0.0
 31
0.0
 40
0.0524077793
 41
-3.089232776
 42
-1.5707963268
  0
ELLIPSE
  5
3EE
100
AcDbEntity
  8
0
100
AcDbEllipse
 62
7
  6
CONTINUOUS
 10
-5.5521123244
 20
13.2899617772
 30
0.0
 11
0.2
 21
0.0
 31
0.0
 40
0.0524077793
 41
-0.7853981634
 42
-0.0174532925
  0
ELLIPSE
  5
3EF
100
AcDbEntity
  8
0
100
AcDbEllipse
 62
7
  6
CONTINUOUS
 10
1.8390521939
 20
7.79
 30
0.0
 11
0.0
 21
88.8
 31
0.0
 40
0.0524077793
 41
-1.5413633239
 42
-1.5075499043
  0
ELLIPSE
  5
3F0
100
AcDbEntity
  8
0
100
AcDbEllipse
 62
7
  6
CONTINUOUS
 10
12.1015554759
 20
7.79
 30
0.0
 11
0.0
 21
88.8
 31
0.0
 40
0.0261859216
 41
1.5505346736
 42
1.5517951834
  0
ELLIPSE
  5
3F1
100
AcDbEntity
  8
RACCORDO
100
AcDbEllipse
 62
7
  6
CONTINUOUS
 10
9.5213393975
 20
-20.6313393975
 30
0.0
 11
-0.212277444
 21
0.212277444
 31
0.0
 40
0.999315002
 41
-3.9266482006
 42
-2.3565371065
  0
ELLIPSE
  5
3F2
100
AcDbEntity
  8
RACCORDO
100
AcDbEllipse
 62
7
  6
CONTINUOUS
 10
-9.5213393975
 20
-20.6313393975
 30
0.0
 11
0.212277444
 21
0.212277444
 31
0.0
 40
0.999315002
 41
2.3565371065
 42
3.9266482006
  0
ELLIPSE
  5
3F3
100
AcDbEntity
  8
RACCORDO
100
AcDbEllipse
 62
7
  6
CONTINUOUS
 10
9.5213393975
 20
20.6313393975
 30
0.0
 11
0.212277444
 21
0.212277444
 31
0.0
 40
0.999315002
 41
-0.785055547
 42
0.7850555471
  0
ELLIPSE
  5
3F4
100
AcDbEntity
  8
RACCORDO
100
AcDbEllipse
 62
7
  6
CONTINUOUS
 10
-9.5213393975
 20
20.6313393975
 30
0.0
 11
0.212277444
 21
-0.212277444
 31
0.0
 40
0.999315002
 41
2.3565371065
 42
3.9266482007
  0
ELLIPSE
  5
3F5
100
AcDbEntity
  8
0
100
AcDbEllipse
 62
7
  6
CONTINUOUS
 10
12.1015554759
 20
-7.79
 30
0.0
 11
0.0
 21
88.8
 31
0.0
 40
0.0261859216
 41
-4.6829559775
 42
-4.5675052485
  0
ELLIPSE
  5
3F6
100
AcDbEntity
  8
0
100
AcDbEllipse
 62
7
  6
CONTINUOUS
 10
-12.1015554759
 20
7.79
 30
0.0
 11
0.0
 21
88.8
 31
0.0
 40
0.0261859216
 41
-1.5517951834
 42
-1.5505346736
  0
ELLIPSE
  5
3F7
100
AcDbEntity
  8
0
100
AcDbEllipse
 62
7
  6
CONTINUOUS
 10
-12.1015554759
 20
-7.79
 30
0.0
 11
0.0
 21
88.8
 31
0.0
 40
0.0261859216
 41
-1.7156800587
 42
-1.6002293296
  0
ELLIPSE
  5
3F8
100
AcDbEntity
  8
0
100
AcDbEllipse
 62
7
  6
CONTINUOUS
 10
-1.8390521939
 20
-7.79
 30
0.0
 11
0.0
 21
88.8
 31
0.0
 40
0.0524077793
 41
-4.6829559775
 42
-4.6491425579
  0
ELLIPSE
  5
3F9
100
AcDbEntity
  8
0
100
AcDbEllipse
 62
7
  6
CONTINUOUS
 10
22.8358452552
 20
0.0
 30
0.0
 11
0.0
 21
498.8
 31
0.0
 40
0.0261859216
 41
-4.7058732968
 42
-4.693387837
  0
ELLIPSE
  5
3FA
100
AcDbEntity
  8
0
100
AcDbEllipse
 62
7
  6
CONTINUOUS
 10
-22.8358452552
 20
0.0
 30
0.0
 11
0.0
 21
498.8
 31
0.0
 40
0.0261859216
 41
-1.5897974701
 42
-1.5773120104
  0
ELLIPSE
  5
3FB
100
AcDbEntity
  8
0
100
AcDbEllipse
 62
7
  6
CONTINUOUS
 10
-22.8358452552
 20
-0.0
 30
0.0
 11
0.0
 21
498.8
 31
0.0
 40
0.0261859216
 41
-1.5642806432
 42
-1.5517951834
  0
ELLIPSE
  5
3FC
100
AcDbEntity
  8
0
100
AcDbEllipse
 62
7
  6
CONTINUOUS
 10
12.1015554759
 20
-7.79
 30
0.0
 11
0.0
 21
88.8
 31
0.0
 40
0.0261859216
 41
-4.693387837
 42
-4.6921273272
  0
ELLIPSE
  5
3FD
100
AcDbEntity
  8
0
100
AcDbEllipse
 62
7
  6
CONTINUOUS
 10
-12.1015554759
 20
-7.79
 30
0.0
 11
0.0
 21
88.8
 31
0.0
 40
0.0261859216
 41
-1.59105798
 42
-1.5897974701
  0
ELLIPSE
  5
3FE
100
AcDbEntity
  8
0
100
AcDbEllipse
 62
7
  6
CONTINUOUS
 10
1.8390521939
 20
-7.79
 30
0.0
 11
0.0
 21
88.8
 31
0.0
 40
0.0524077793
 41
-1.6340427492
 42
-1.6002293296
  0
ELLIPSE
  5
3FF
100
AcDbEntity
  8
0
100
AcDbEllipse
 62
7
  6
CONTINUOUS
 10
22.8358452552
 20
-0.0
 30
0.0
 11
0.0
 21
498.8
 31
0.0
 40
0.0261859216
 41
1.5517951834
 42
1.5642806432
  0
ELLIPSE
  5
400
100
AcDbEntity
  8
0
100
AcDbEllipse
 62
7
  6
CONTINUOUS
 10
5.7524579547
 20
9.7205378924
 30
0.0
 11
0.2
 21
0.0
 31
0.0
 40
0.0524077793
 41
1.5707963268
 42
2.3561944902
  0
ELLIPSE
  5
401
100
AcDbEntity
  8
0
100
AcDbEllipse
 62
7
  6
CONTINUOUS
 10
5.9704141733
 20
9.7100563365
 30
0.0
 11
0.4
 21
-0.0
 31
0.0
 40
0.0524077793
 41
0.0523598776
 42
1.5707963268
  0
ELLIPSE
  5
402
100
AcDbEntity
  8
0
100
AcDbEllipse
 62
7
  6
CONTINUOUS
 10
-1.8390521939
 20
7.79
 30
0.0
 11
0.0
 21
88.8
 31
0.0
 40
0.0524077793
 41
1.5075499043
 42
1.5413633239
  0
ELLIPSE
  5
403
100
AcDbEntity
  8
0
100
AcDbEllipse
 62
7
  6
CONTINUOUS
 10
5.5521123244
 20
9.7100382228
 30
0.0
 11
0.2
 21
0.0
 31
0.0
 40
0.0524077793
 41
2.3561944902
 42
3.1241393611
  0
ELLIPSE
  5
404
100
AcDbEntity
  8
0
100
AcDbEllipse
 62
7
  6
CONTINUOUS
 10
-5.7524579547
 20
9.7205378924
 30
0.0
 11
0.2
 21
-0.0
 31
0.0
 40
0.0524077793
 41
0.7853981634
 42
1.5707963268
  0
ELLIPSE
  5
405
100
AcDbEntity
  8
0
100
AcDbEllipse
 62
7
  6
CONTINUOUS
 10
-5.5521123244
 20
9.7100382228
 30
0.0
 11
0.2
 21
0.0
 31
0.0
 40
0.0524077793
 41
0.0174532925
 42
0.7853981634
  0
ELLIPSE
  5
406
100
AcDbEntity
  8
0
100
AcDbEllipse
 62
7
  6
CONTINUOUS
 10
-12.1015554759
 20
7.79
 30
0.0
 11
0.0
 21
88.8
 31
0.0
 40
0.0261859216
 41
-1.5413633239
 42
-1.4259125949
  0
ELLIPSE
  5
407
100
AcDbEntity
  8
0
100
AcDbEllipse
 62
7
  6
CONTINUOUS
 10
-5.9704141733
 20
9.7100563365
 30
0.0
 11
0.4
 21
-0.0
 31
0.0
 40
0.0524077793
 41
1.5707963268
 42
3.089232776
  0
ELLIPSE
  5
408
100
AcDbEntity
  8
0
100
AcDbEllipse
 62
7
  6
CONTINUOUS
 10
5.7524579547
 20
-9.7205378924
 30
0.0
 11
0.2
 21
0.0
 31
0.0
 40
0.0524077793
 41
-2.3561944902
 42
-1.5707963268
  0
ELLIPSE
  5
409
100
AcDbEntity
  8
0
100
AcDbEllipse
 62
7
  6
CONTINUOUS
 10
5.5521123244
 20
-9.7100382228
 30
0.0
 11
0.2
 21
-0.0
 31
0.0
 40
0.0524077793
 41
-3.1241393611
 42
-2.3561944902
  0
ELLIPSE
  5
40A
100
AcDbEntity
  8
0
100
AcDbEllipse
 62
7
  6
CONTINUOUS
 10
5.9704141733
 20
-9.7100563365
 30
0.0
 11
0.4
 21
-0.0
 31
0.0
 40
0.0524077793
 41
-1.5707963268
 42
-0.0523598776
  0
ELLIPSE
  5
40B
100
AcDbEntity
  8
0
100
AcDbEllipse
 62
7
  6
CONTINUOUS
 10
-5.7524579547
 20
-9.7205378924
 30
0.0
 11
0.2
 21
-0.0
 31
0.0
 40
0.0524077793
 41
-1.5707963268
 42
-0.7853981634
  0
ELLIPSE
  5
40C
100
AcDbEntity
  8
0
100
AcDbEllipse
 62
7
  6
CONTINUOUS
 10
-5.9704141733
 20
-9.7100563365
 30
0.0
 11
0.4
 21
0.0
 31
0.0
 40
0.0524077793
 41
-3.089232776
 42
-1.5707963268
  0
ELLIPSE
  5
40D
100
AcDbEntity
  8
0
100
AcDbEllipse
 62
7
  6
CONTINUOUS
 10
-5.5521123244
 20
-9.7100382228
 30
0.0
 11
0.2
 21
-0.0
 31
0.0
 40
0.0524077793
 41
-0.7853981634
 42
-0.0174532925
  0
ENDSEC
  0
SECTION
  2
OBJECTS
  0
DICTIONARY
  5
C
100
AcDbDictionary
280
0
281
1
  3
ACAD_GROUP
350
D
  3
ACAD_MLINESTYLE
350
17
  3
ACAD_LAYOUT
350
1A
  3
ACAD_PLOTSETTINGS
350
19
  3
ACAD_PLOTSTYLENAME
350
E
  0
DICTIONARY
  5
D
102
{ACAD_REACTORS
330
C
102
}
100
AcDbDictionary
280
0
281
1
  0
ACDBDICTIONARYWDFLT
  5
E
102
{ACAD_REACTORS
330
C
102
}
100
AcDbDictionary
281
1
  3
Normal
350
F
100
AcDbDictionaryWithDefault
340
F
  0
DICTIONARY
  5
17
102
{ACAD_REACTORS
330
C
102
}
100
AcDbDictionary
280
0
281
1
  3
Standard
350
18
  0
DICTIONARY
  5
19
102
{ACAD_REACTORS
330
C
102
}
100
AcDbDictionary
281
1
  0
DICTIONARY
  5
1A
102
{ACAD_REACTORS
330
C
102
}
100
AcDbDictionary
281
1
  3
Model
350
40E
  3
Layout1
350
40F
  0
ACDBPLACEHOLDER
  5
F
102
{ACAD_REACTORS
330
E
102
}
  0
MLINESTYLE
  5
18
102
{ACAD_REACTORS
330
17
102
}
100
AcDbMlineStyle
  2
STANDARD
 70
0
  3

 62
256
 51
90.0
 52
90.0
 71
2
 49
0.5
 62
256
  6
BYLAYER
 49
-0.5
 62
256
  6
BYLAYER
  0
LAYOUT
  5
40E
102
{ACAD_REACTORS
330
1A
102
}
100
AcDbPlotSettings
  1

  2
none_device
  4
ISO_A4_(297.00_x_210.00_MM)
  6

 40
0.0
 41
0.0
 42
0.0
 43
0.0
 44
297.0
 45
210.0
 46
0.0
 47
0.0
 48
0.0
 49
0.0
140
0.0
141
0.0
142
1.0
143
1.0
 70
1024
 72
1
 73
0
 74
0
  7

 75
0
147
1.0
148
0.0
149
0.0
100
AcDbLayout
  1
Model
 70
0
 71
0
 10
0.0
 20
0.0
 11
297.0
 21
210.0
 12
0.0
 22
0.0
 32
0.0
 14
0.0
 24
0.0
 34
0.0
 15
0.0
 25
0.0
 35
0.0
146
0.0
 13
0.0
 23
0.0
 33
0.0
 16
1.0
 26
0.0
 36
0.0
 17
0.0
 27
1.0
 37
0.0
 76
0
330
218
345
0
346
0
  0
LAYOUT
  5
40F
102
{ACAD_REACTORS
330
1A
102
}
100
AcDbPlotSettings
  1

  2
none_device
  4
ISO_A4_(297.00_x_210.00_MM)
  6

 40
0.0
 41
0.0
 42
0.0
 43
0.0
 44
297.0
 45
210.0
 46
0.0
 47
0.0
 48
0.0
 49
0.0
140
0.0
141
0.0
142
1.0
143
1.0
 70
0
 72
1
 73
0
 74
0
  7

 75
0
147
1.0
148
0.0
149
0.0
100
AcDbLayout
  1
Layout1
 70
0
 71
1
 10
0.0
 20
0.0
 11
297.0
 21
210.0
 12
0.0
 22
0.0
 32
0.0
 14
0.0
 24
0.0
 34
0.0
 15
0.0
 25
0.0
 35
0.0
146
0.0
 13
0.0
 23
0.0
 33
0.0
 16
1.0
 26
0.0
 36
0.0
 17
0.0
 27
1.0
 37
0.0
 76
0
330
219
345
0
346
0
  0
ENDSEC
  0
EOF
