  0
SECTION
  2
HEADER
  9
$ACADVER
  1
AC1015
  9
$DWGCODEPAGE
  3
ANSI_1252
  9
$EXTMAX
 10
297.0
 20
210.0
 30
0.0
  9
$EXTMIN
 10
0.0
 20
0.0
 30
0.0
  9
$LIMMIN
 10
0.0
 20
0.0
  9
$LIMMAX
 10
297.0
 20
210.0
  9
$VIEWCTR
 10
148.5
 20
105.0
  9
$VIEWSIZE
 40
210.0
  9
$CLAYER
  8
0
  9
$LTSCALE
 40
16.335
  9
$CELTYPE
  6
BYLAYER
  9
$DIMSCALE
 40
1.0
  9
$DIMASZ
 40
3.0
  9
$DIMEXO
 40
0.5
  9
$DIMDLI
 40
11.286
  9
$DIMEXE
 40
1.5
  9
$DIMCEN
 40
2.673
  9
$DIMLFAC
 40
1.0
  9
$DIMBLK
  1
_FILLED
  9
$DIMTXT
 40
3.0
  9
$DIMTOL
 70
1
  9
$DIMLIM
 70
0
  9
$DIMTFAC
 40
1.0
  9
$DIMTP
 40
0.01
  9
$DIMTM
 40
0.01
  9
$DIMGAP
 40
0.625
  9
$DIMDSEP
 70
44
  9
$PDMODE
 70
3
  9
$PDSIZE
 40
3.0
  9
$HANDSEED
  5
9CA
  9
$TILEMODE
 70
1
  9
$MEASUREMENT
 70
1
  9
$INSUNITS
 70
4
  0
ENDSEC
  0
SECTION
  2
CLASSES
  0
CLASS
  1
ACDBDICTIONARYWDFLT
  2
AcDbDictionaryWithDefault
  3
AutoCAD 2000
 90
0
280
0
281
0
  0
CLASS
  1
ACDBPLACEHOLDER
  2
AcDbPlaceHolder
  3
AutoCAD 2000
 90
0
280
0
281
0
  0
CLASS
  1
LAYOUT
  2
AcDbLayout
  3
AutoCAD 2000
 90
0
280
0
281
0
  0
ENDSEC
  0
SECTION
  2
TABLES
  0
TABLE
  2
VPORT
  5
8
100
AcDbSymbolTable
 70
2
  0
VPORT
  5
1F4
100
AcDbSymbolTableRecord
100
AcDbViewportTableRecord
  2
*ACTIVE
 70
0
 10
0.0
 20
0.0
 11
1.0
 21
1.0
 12
148.5
 22
105.0
 13
0.0
 23
0.0
 14
1.0
 24
1.0
 15
0.0
 25
0.0
 16
0.0
 26
0.0
 36
1.0
 17
0.0
 27
0.0
 37
0.0
 40
210.0
 41
1.4142857143
 42
50.0
 43
0.0
 44
0.0
 50
0.0
 51
0.0
 71
0
 72
100
 73
1
 74
1
 75
0
 76
0
 77
0
 78
0
  0
ENDTAB
  0
TABLE
  2
LTYPE
  5
5
100
AcDbSymbolTable
 70
6
  0
LTYPE
  5
14
100
AcDbSymbolTableRecord
100
AcDbLinetypeTableRecord
  2
BYBLOCK
 70
0
  3

 72
65
 73
0
 40
0.0
  0
LTYPE
  5
15
100
AcDbSymbolTableRecord
100
AcDbLinetypeTableRecord
  2
BYLAYER
 70
0
  3

 72
65
 73
0
 40
0.0
  0
LTYPE
  5
16
100
AcDbSymbolTableRecord
100
AcDbLinetypeTableRecord
  2
CONTINUOUS
 70
64
  3
Solid line
 72
65
 73
0
 40
0.0
  0
LTYPE
  5
1F5
100
AcDbSymbolTableRecord
100
AcDbLinetypeTableRecord
  2
CENTER
 70
64
  3
____ _ ____ _ ____ _ ____ _ ____ _ ____ _ ____
 72
65
 73
4
 40
0.6
 49
0.375
 74
0
 49
-0.075
 74
0
 49
0.075
 74
0
 49
-0.075
 74
0
  0
LTYPE
  5
1F6
100
AcDbSymbolTableRecord
100
AcDbLinetypeTableRecord
  2
HIDDEN
 70
64
  3
- - - - - - - - - - - - - - - - - - - -
 72
65
 73
2
 40
0.2
 49
0.1
 74
0
 49
-0.1
 74
0
  0
LTYPE
  5
1F7
100
AcDbSymbolTableRecord
100
AcDbLinetypeTableRecord
  2
PHANTOM
 70
64
  3
_____ _ _ _____ _ _ _____ _ _ _____
 72
65
 73
6
 40
0.8
 49
0.45
 74
0
 49
-0.05
 74
0
 49
0.1
 74
0
 49
-0.05
 74
0
 49
0.1
 74
0
 49
-0.05
 74
0
  0
LTYPE
  5
1F8
100
AcDbSymbolTableRecord
100
AcDbLinetypeTableRecord
  2
DOT
 70
64
  3
. . . . . . . . . . . . . . . . . . . .
 72
65
 73
2
 40
0.2
 49
0.1
 74
0
 49
-0.1
 74
0
  0
LTYPE
  5
1F9
100
AcDbSymbolTableRecord
100
AcDbLinetypeTableRecord
  2
DASHED
 70
64
  3
- - - - - - - - - - - - - - - - - - - -
 72
65
 73
2
 40
0.2
 49
0.1
 74
0
 49
-0.1
 74
0
  0
ENDTAB
  0
TABLE
  2
LAYER
  5
2
100
AcDbSymbolTable
 70
36
  0
LAYER
  5
10
100
AcDbSymbolTableRecord
100
AcDbLayerTableRecord
  2
0
 70
0
 62
7
  6
CONTINUOUS
370
-3
390
F
  0
LAYER
  5
1FA
100
AcDbSymbolTableRecord
100
AcDbLayerTableRecord
  2
DEFAULT_1
 70
0
 62
7
  6
CENTER
370
-3
390
F
  0
LAYER
  5
1FB
100
AcDbSymbolTableRecord
100
AcDbLayerTableRecord
  2
DEFAULT_2
 70
0
 62
7
  6
HIDDEN
370
-3
390
F
  0
LAYER
  5
1FC
100
AcDbSymbolTableRecord
100
AcDbLayerTableRecord
  2
DEFAULT_3
 70
0
 62
7
  6
PHANTOM
370
-3
390
F
  0
LAYER
  5
1FD
100
AcDbSymbolTableRecord
100
AcDbLayerTableRecord
  2
ASSI
 70
0
 62
7
  6
CONTINUOUS
370
-3
390
F
  0
LAYER
  5
1FE
100
AcDbSymbolTableRecord
100
AcDbLayerTableRecord
  2
COLOR4
 70
0
 62
7
  6
CONTINUOUS
370
-3
390
F
  0
LAYER
  5
1FF
100
AcDbSymbolTableRecord
100
AcDbLayerTableRecord
  2
COORDINATE
 70
0
 62
7
  6
CONTINUOUS
370
-3
390
F
  0
LAYER
  5
200
100
AcDbSymbolTableRecord
100
AcDbLayerTableRecord
  2
COORD_ORIGINE
 70
0
 62
7
  6
CONTINUOUS
370
-3
390
F
  0
LAYER
  5
201
100
AcDbSymbolTableRecord
100
AcDbLayerTableRecord
  2
COPY
 70
0
 62
7
  6
CONTINUOUS
370
-3
390
F
  0
LAYER
  5
202
100
AcDbSymbolTableRecord
100
AcDbLayerTableRecord
  2
COPY_PUBLISH
 70
0
 62
7
  6
CONTINUOUS
370
-3
390
F
  0
LAYER
  5
203
100
AcDbSymbolTableRecord
100
AcDbLayerTableRecord
  2
COSMETIC
 70
0
 62
7
  6
CONTINUOUS
370
-3
390
F
  0
LAYER
  5
204
100
AcDbSymbolTableRecord
100
AcDbLayerTableRecord
  2
COSMETICI
 70
0
 62
7
  6
CONTINUOUS
370
-3
390
F
  0
LAYER
  5
205
100
AcDbSymbolTableRecord
100
AcDbLayerTableRecord
  2
CURVE
 70
0
 62
7
  6
CONTINUOUS
370
-3
390
F
  0
LAYER
  5
206
100
AcDbSymbolTableRecord
100
AcDbLayerTableRecord
  2
DRAFT
 70
0
 62
7
  6
CONTINUOUS
370
-3
390
F
  0
LAYER
  5
207
100
AcDbSymbolTableRecord
100
AcDbLayerTableRecord
  2
IMPORT_IGES
 70
0
 62
7
  6
CONTINUOUS
370
-3
390
F
  0
LAYER
  5
208
100
AcDbSymbolTableRecord
100
AcDbLayerTableRecord
  2
INTFCLR_1
 70
0
 62
7
  6
CONTINUOUS
370
-3
390
F
  0
LAYER
  5
209
100
AcDbSymbolTableRecord
100
AcDbLayerTableRecord
  2
INTFCLR_137
 70
0
 62
7
  6
CONTINUOUS
370
-3
390
F
  0
LAYER
  5
20A
100
AcDbSymbolTableRecord
100
AcDbLayerTableRecord
  2
INTFCLR_2
 70
0
 62
7
  6
CONTINUOUS
370
-3
390
F
  0
LAYER
  5
20B
100
AcDbSymbolTableRecord
100
AcDbLayerTableRecord
  2
INTFCLR_383
 70
0
 62
7
  6
CONTINUOUS
370
-3
390
F
  0
LAYER
  5
20C
100
AcDbSymbolTableRecord
100
AcDbLayerTableRecord
  2
INTFCLR_4627
 70
0
 62
7
  6
CONTINUOUS
370
-3
390
F
  0
LAYER
  5
20D
100
AcDbSymbolTableRecord
100
AcDbLayerTableRecord
  2
INTFCLR_6275
 70
0
 62
7
  6
CONTINUOUS
370
-3
390
F
  0
LAYER
  5
20E
100
AcDbSymbolTableRecord
100
AcDbLayerTableRecord
  2
INTF_1
 70
0
 62
7
  6
CONTINUOUS
370
-3
390
F
  0
LAYER
  5
20F
100
AcDbSymbolTableRecord
100
AcDbLayerTableRecord
  2
INTF_12
 70
0
 62
7
  6
CONTINUOUS
370
-3
390
F
  0
LAYER
  5
210
100
AcDbSymbolTableRecord
100
AcDbLayerTableRecord
  2
INTF_2
 70
0
 62
7
  6
CONTINUOUS
370
-3
390
F
  0
LAYER
  5
211
100
AcDbSymbolTableRecord
100
AcDbLayerTableRecord
  2
INTF_5
 70
0
 62
7
  6
CONTINUOUS
370
-3
390
F
  0
LAYER
  5
212
100
AcDbSymbolTableRecord
100
AcDbLayerTableRecord
  2
INTF_6
 70
0
 62
7
  6
CONTINUOUS
370
-3
390
F
  0
LAYER
  5
213
100
AcDbSymbolTableRecord
100
AcDbLayerTableRecord
  2
INTF_9
 70
0
 62
7
  6
CONTINUOUS
370
-3
390
F
  0
LAYER
  5
214
100
AcDbSymbolTableRecord
100
AcDbLayerTableRecord
  2
NOTE
 70
0
 62
7
  6
CONTINUOUS
370
-3
390
F
  0
LAYER
  5
215
100
AcDbSymbolTableRecord
100
AcDbLayerTableRecord
  2
PIANI
 70
0
 62
7
  6
CONTINUOUS
370
-3
390
F
  0
LAYER
  5
216
100
AcDbSymbolTableRecord
100
AcDbLayerTableRecord
  2
PIANI_ORIGINE
 70
0
 62
7
  6
CONTINUOUS
370
-3
390
F
  0
LAYER
  5
217
100
AcDbSymbolTableRecord
100
AcDbLayerTableRecord
  2
PIANI_RIFERIMENTO
 70
0
 62
7
  6
CONTINUOUS
370
-3
390
F
  0
LAYER
  5
218
100
AcDbSymbolTableRecord
100
AcDbLayerTableRecord
  2
PIANI_SFORMO
 70
0
 62
7
  6
CONTINUOUS
370
-3
390
F
  0
LAYER
  5
219
100
AcDbSymbolTableRecord
100
AcDbLayerTableRecord
  2
PUNTI
 70
0
 62
7
  6
CONTINUOUS
370
-3
390
F
  0
LAYER
  5
21A
100
AcDbSymbolTableRecord
100
AcDbLayerTableRecord
  2
RACCORDO
 70
0
 62
7
  6
CONTINUOUS
370
-3
390
F
  0
LAYER
  5
21B
100
AcDbSymbolTableRecord
100
AcDbLayerTableRecord
  2
SIMBOLI
 70
0
 62
7
  6
CONTINUOUS
370
-3
390
F
  0
LAYER
  5
21C
100
AcDbSymbolTableRecord
100
AcDbLayerTableRecord
  2
SMUSSO
 70
0
 62
7
  6
CONTINUOUS
370
-3
390
F
  0
LAYER
  5
21D
100
AcDbSymbolTableRecord
100
AcDbLayerTableRecord
  2
SNAPLINE
 70
0
 62
7
  6
CONTINUOUS
370
-3
390
F
  0
LAYER
  5
21E
100
AcDbSymbolTableRecord
100
AcDbLayerTableRecord
  2
SUPERFICI
 70
0
 62
7
  6
CONTINUOUS
370
-3
390
F
  0
LAYER
  5
21F
100
AcDbSymbolTableRecord
100
AcDbLayerTableRecord
  2
TRASH
 70
0
 62
7
  6
CONTINUOUS
370
-3
390
F
  0
LAYER
  5
220
100
AcDbSymbolTableRecord
100
AcDbLayerTableRecord
  2
XSEC_DATUMS
 70
0
 62
7
  6
CONTINUOUS
370
-3
390
F
  0
ENDTAB
  0
TABLE
  2
STYLE
  5
3
100
AcDbSymbolTable
 70
1
  0
STYLE
  5
11
100
AcDbSymbolTableRecord
100
AcDbTextStyleTableRecord
  2
STANDARD
 70
0
 40
0.0
 41
0.8
 50
0.0
 71
0
 42
0.2
  3
txt
  4

  0
STYLE
  5
221
100
AcDbSymbolTableRecord
100
AcDbTextStyleTableRecord
  2
TEXTSTYLE_1
 70
0
 40
0.0
 41
0.8
 50
0.0
 71
0
 42
0.2
  3
gdt
  4

  0
ENDTAB
  0
TABLE
  2
VIEW
  5
6
100
AcDbSymbolTable
 70
0
  0
ENDTAB
  0
TABLE
  2
UCS
  5
7
100
AcDbSymbolTable
 70
0
  0
ENDTAB
  0
TABLE
  2
APPID
  5
9
100
AcDbSymbolTable
 70
1
  0
APPID
  5
222
100
AcDbSymbolTableRecord
100
AcDbRegAppTableRecord
  2
ACAD
 70
0
  0
ENDTAB
  0
TABLE
  2
BLOCK_RECORD
  5
1
100
AcDbSymbolTable
 70
0
  0
BLOCK_RECORD
  5
223
100
AcDbSymbolTableRecord
100
AcDbBlockTableRecord
  2
*Model_Space
  0
BLOCK_RECORD
  5
224
100
AcDbSymbolTableRecord
100
AcDbBlockTableRecord
  2
*Paper_Space
  0
ENDTAB
  0
TABLE
  2
DIMSTYLE
  5
A
100
AcDbSymbolTable
 70
1
100
AcDbDimStyleTable
 71
0
  0
DIMSTYLE
105
225
100
AcDbSymbolTableRecord
100
AcDbDimStyleTableRecord
  2
STANDARD
 70
0
  3

  4

 40
1.0
 41
3.0
 42
0.5
 43
0.38
 44
1.5
 45
0.0
 46
0.0
 47
0.01
 48
0.01
140
3.0
141
0.09
142
0.0
143
25.4
144
1.0
145
0.0
146
1.0
147
0.625
 71
1.0
 72
0.0
 73
0
 74
0
 75
0
 76
0
 77
1
 78
8
170
0
171
2
172
0
173
0
174
0
175
0
176
0
177
0
178
0
270
2
271
2
272
2
273
2
274
2
275
0
280
0
281
0
282
0
283
1
284
8
285
0
286
0
287
3
288
0
340
11
278
44
  0
ENDTAB
  0
ENDSEC
  0
SECTION
  2
BLOCKS
  0
BLOCK
  5
20
100
AcDbEntity
  8
0
100
AcDbBlockBegin
  2
*Model_Space
 70
0
 10
0.0
 20
0.0
 30
0.0
  3
*Model_Space
  1

  0
ENDBLK
  5
21
100
AcDbEntity
  8
0
100
AcDbBlockEnd
  0
BLOCK
  5
1C
100
AcDbEntity
  8
0
100
AcDbBlockBegin
  2
*Paper_Space
 70
0
 10
0.0
 20
0.0
 30
0.0
  3
*Paper_Space
  1

  0
ENDBLK
  5
1D
100
AcDbEntity
  8
0
100
AcDbBlockEnd
  0
ENDSEC
  0
SECTION
  2
ENTITIES
  0
LWPOLYLINE
  5
226
100
AcDbEntity
  8
ASSI
100
AcDbPolyline
 62
7
  6
CONTINUOUS
 90
13
 70
0
 10
-0.2483287227
 20
0.2879836735
 10
-0.2222265959
 20
0.2896939377
 10
-0.1965714176
 20
0.294796114
 10
-0.1718018962
 20
0.3032030952
 10
-0.1483414393
 20
0.3147713363
 10
-0.1265916334
 20
0.3293031235
 10
-0.1069252114
 20
0.3465497012
 10
-0.0896786337
 20
0.3662161232
 10
-0.0751468465
 20
0.3879659291
 10
-0.0635786054
 20
0.411426386
 10
-0.0551716242
 20
0.4361959074
 10
-0.0500694479
 20
0.4618510856
 10
-0.0483591837
 20
0.4879532125
  0
LWPOLYLINE
  5
227
100
AcDbEntity
  8
ASSI
100
AcDbPolyline
 62
7
  6
CONTINUOUS
 90
13
 70
0
 10
-21.0483896446
 20
0.2879836735
 10
-21.0744917715
 20
0.2896939377
 10
-21.1001469498
 20
0.294796114
 10
-21.1249164712
 20
0.3032030952
 10
-21.148376928
 20
0.3147713363
 10
-21.1701267339
 20
0.3293031235
 10
-21.1897931559
 20
0.3465497012
 10
-21.2070397337
 20
0.3662161232
 10
-21.2215715208
 20
0.3879659291
 10
-21.2331397619
 20
0.411426386
 10
-21.2415467431
 20
0.4361959074
 10
-21.2466489195
 20
0.4618510856
 10
-21.2483591837
 20
0.4879532125
  0
LWPOLYLINE
  5
228
100
AcDbEntity
  8
RACCORDO
100
AcDbPolyline
 62
253
  6
CONTINUOUS
 90
13
 70
0
 10
-6.545739872
 20
0.885402438
 10
-6.513122231
 20
0.8875496547
 10
-6.4810619183
 20
0.8939348405
 10
-6.4501072451
 20
0.9044489829
 10
-6.4207876773
 20
0.9189124333
 10
-6.3936047042
 20
0.9370780073
 10
-6.3690232776
 20
0.9586352346
 10
-6.3474639133
 20
0.9832156479
 10
-6.3292955993
 20
1.010398911
 10
-6.3148293516
 20
1.0397200118
 10
-6.3043127627
 20
1.0706774155
 10
-6.2979258295
 20
1.1027416841
 10
-6.2957779482
 20
1.1353643618
  0
LWPOLYLINE
  5
229
100
AcDbEntity
  8
ASSI
100
AcDbPolyline
 62
253
  6
CONTINUOUS
 90
13
 70
0
 10
-18.0614961796
 20
0.3011511304
 10
-18.0353999092
 20
0.3028691888
 10
-18.0097499878
 20
0.30797808
 10
-17.9849851233
 20
0.3163904207
 10
-17.9615288845
 20
0.327962327
 10
-17.9397824593
 20
0.3424958743
 10
-17.920117792
 20
0.3597424815
 10
-17.9028712191
 20
0.3794071646
 10
-17.8883377158
 20
0.4011535844
 10
-17.8767658541
 20
0.4246097983
 10
-17.8683535521
 20
0.4493746194
 10
-17.8632446885
 20
0.4750244784
 10
-17.8615266406
 20
0.5011206694
  0
LWPOLYLINE
  5
22A
100
AcDbEntity
  8
RACCORDO
100
AcDbPolyline
 62
253
  6
CONTINUOUS
 90
12
 70
0
 10
-14.3983591837
 20
0.8853487242
 10
-14.3657302858
 20
0.8874868339
 10
-14.3336591243
 20
0.8938647099
 10
-14.3026944088
 20
0.9043734225
 10
-14.2733659818
 20
0.9188333467
 10
-14.2461756787
 20
0.9369972627
 10
-14.2215887568
 20
0.9585546082
 10
-14.2000259889
 20
0.9831367712
 10
-14.1818565644
 20
1.0103232229
 10
-14.1673916387
 20
1.0396487163
 10
-14.1568788778
 20
1.0706114471
 10
-14.1504982828
 20
1.1026816811
  0
LWPOLYLINE
  5
22B
100
AcDbEntity
  8
ASSI
100
AcDbPolyline
 62
253
  6
CONTINUOUS
 90
13
 70
0
 10
-3.2348010427
 20
1.1601524571
 10
-3.2607591559
 20
1.1584908555
 10
-3.2862780247
 20
1.1539265647
 10
-3.3109258446
 20
1.1465368193
 10
-3.3342855515
 20
1.1364466631
 10
-3.3559618761
 20
1.1238268337
 10
-3.3755880331
 20
1.1088908747
 10
-3.39283193
 20
1.0918915208
 10
-3.4074017878
 20
1.0731164186
 10
-3.4190510748
 20
1.0528832604
 10
-3.4275826768
 20
1.0315344106
 10
-3.4328522335
 20
1.0094311131
 10
-3.4347705818
 20
0.9869473764
  0
LWPOLYLINE
  5
22C
100
AcDbEntity
  8
RACCORDO
100
AcDbPolyline
 62
253
  6
CONTINUOUS
 90
7
 70
0
 10
-6.8650415759
 20
0.887149029
 10
-6.874937189
 20
0.8868802335
 10
-6.8832925265
 20
0.8865920361
 10
-6.8898392305
 20
0.8862938456
 10
-6.8944878484
 20
0.8859887982
 10
-6.8973278328
 20
0.8856737577
 10
-6.8983591837
 20
0.8853487242
  0
LWPOLYLINE
  5
22D
100
AcDbEntity
  8
RACCORDO
100
AcDbPolyline
 62
253
  6
CONTINUOUS
 90
7
 70
0
 10
-14.7158659811
 20
0.8871923178
 10
-14.7260288339
 20
0.8869265776
 10
-14.7346710472
 20
0.8866409692
 10
-14.7415148928
 20
0.8863448184
 10
-14.7464677947
 20
0.8860412339
 10
-14.7496223289
 20
0.8857271071
 10
-14.7509784954
 20
0.885402438
  0
LWPOLYLINE
  5
22E
100
AcDbEntity
  8
RACCORDO
100
AcDbPolyline
 62
253
  6
CONTINUOUS
 90
4
 70
0
 10
-14.978020166
 20
1.1363078657
 10
-14.9901845052
 20
1.1360042713
 10
-14.9978503043
 20
1.1356900313
 10
-15.000938473
 20
1.1353651459
  0
LWPOLYLINE
  5
22F
100
AcDbEntity
  8
RACCORDO
100
AcDbPolyline
 62
253
  6
CONTINUOUS
 90
5
 70
0
 10
-7.1119068609
 20
1.1365549737
 10
-7.1277225673
 20
1.1362569001
 10
-7.1391407124
 20
1.1359518414
 10
-7.1460431888
 20
1.1356366864
 10
-7.1483591693
 20
1.1353114352
  0
LINE
  5
230
100
AcDbEntity
  8
RACCORDO
100
AcDbLine
 62
253
  6
CONTINUOUS
 10
-6.8405309865
 20
0.8876270312
 11
-6.8650415759
 21
0.887149029
  0
LINE
  5
231
100
AcDbEntity
  8
RACCORDO
100
AcDbLine
 62
253
  6
CONTINUOUS
 10
-14.6908812227
 20
0.8876627805
 11
-14.7158659811
 21
0.8871923178
  0
LINE
  5
232
100
AcDbEntity
  8
RACCORDO
100
AcDbLine
 62
253
  6
CONTINUOUS
 10
-14.9407506988
 20
1.1368892838
 11
-14.978020166
 21
1.1363078657
  0
LINE
  5
233
100
AcDbEntity
  8
RACCORDO
100
AcDbLine
 62
253
  6
CONTINUOUS
 10
-6.811071251
 20
0.8880045565
 11
-6.8405309865
 21
0.8876270312
  0
LINE
  5
234
100
AcDbEntity
  8
RACCORDO
100
AcDbLine
 62
253
  6
CONTINUOUS
 10
-7.067809629
 20
1.1371114987
 11
-7.1119068609
 21
1.1365549737
  0
LINE
  5
235
100
AcDbEntity
  8
RACCORDO
100
AcDbLine
 62
253
  6
CONTINUOUS
 10
-14.661048536
 20
0.888031274
 11
-14.6908812227
 21
0.8876627805
  0
LINE
  5
236
100
AcDbEntity
  8
RACCORDO
100
AcDbLine
 62
253
  6
CONTINUOUS
 10
-14.8558676674
 20
1.1376246557
 11
-14.9407506988
 21
1.1368892838
  0
LINE
  5
237
100
AcDbEntity
  8
RACCORDO
100
AcDbLine
 62
253
  6
CONTINUOUS
 10
-6.9744225544
 20
1.1377912298
 11
-7.067809629
 21
1.1371114987
  0
LINE
  5
238
100
AcDbEntity
  8
RACCORDO
100
AcDbLine
 62
253
  6
CONTINUOUS
 10
-6.7599540484
 20
0.8883538153
 11
-6.811071251
 21
0.8880045565
  0
LINE
  5
239
100
AcDbEntity
  8
RACCORDO
100
AcDbLine
 62
253
  6
CONTINUOUS
 10
-14.6095899471
 20
0.8883649081
 11
-14.661048536
 21
0.888031274
  0
LINE
  5
23A
100
AcDbEntity
  8
RACCORDO
100
AcDbLine
 62
253
  6
CONTINUOUS
 10
-14.7021685491
 20
1.1382474246
 11
-14.8558676674
 21
1.1376246557
  0
LINE
  5
23B
100
AcDbEntity
  8
RACCORDO
100
AcDbLine
 62
253
  6
CONTINUOUS
 10
-6.770049629
 20
1.1383681482
 11
-6.9744225544
 21
1.1377912298
  0
LINE
  5
23C
100
AcDbEntity
  8
ASSI
100
AcDbLine
 62
7
  6
CONTINUOUS
 10
-0.2483287227
 20
0.2879836735
 11
-3.2483896446
 21
0.2879836735
  0
LINE
  5
23D
100
AcDbEntity
  8
ASSI
100
AcDbLine
 62
7
  6
CONTINUOUS
 10
-18.0483287227
 20
0.2879836735
 11
-21.0483896446
 21
0.2879836735
  0
LINE
  5
23E
100
AcDbEntity
  8
ASSI
100
AcDbLine
 62
253
  6
CONTINUOUS
 10
-21.0352221877
 20
0.3011511304
 11
-18.0614961796
 21
0.3011511304
  0
LINE
  5
23F
100
AcDbEntity
  8
ASSI
100
AcDbLine
 62
253
  6
CONTINUOUS
 10
-3.2352221877
 20
0.3011511304
 11
-0.2614961796
 21
0.3011511304
  0
LINE
  5
240
100
AcDbEntity
  8
ASSI
100
AcDbLine
 62
253
  6
CONTINUOUS
 10
-21.2343342052
 20
0.5511130542
 11
-17.8623841622
 21
0.5511130542
  0
LINE
  5
241
100
AcDbEntity
  8
ASSI
100
AcDbLine
 62
253
  6
CONTINUOUS
 10
-0.0623841622
 20
0.5511130542
 11
-3.4343342052
 21
0.5511130542
  0
LINE
  5
242
100
AcDbEntity
  8
RACCORDO
100
AcDbLine
 62
7
  6
CONTINUOUS
 10
-6.4483211075
 20
0.7879836735
 11
-9.5983972599
 21
0.7879836735
  0
LINE
  5
243
100
AcDbEntity
  8
RACCORDO
100
AcDbLine
 62
7
  6
CONTINUOUS
 10
-11.6983211075
 20
0.7879836735
 11
-14.8483972599
 21
0.7879836735
  0
LINE
  5
244
100
AcDbEntity
  8
RACCORDO
100
AcDbLine
 62
7
  6
CONTINUOUS
 10
-6.8983591837
 20
0.8054387384
 11
-9.580942195
 21
0.8054387384
  0
LINE
  5
245
100
AcDbEntity
  8
RACCORDO
100
AcDbLine
 62
7
  6
CONTINUOUS
 10
-11.7157761724
 20
0.8054387384
 11
-14.3983591837
 21
0.8054387384
  0
LINE
  5
246
100
AcDbEntity
  8
ASSI
100
AcDbLine
 62
253
  6
CONTINUOUS
 10
-19.4114885644
 20
0.9436461062
 11
-17.8623841622
 21
0.9436461062
  0
LINE
  5
247
100
AcDbEntity
  8
ASSI
100
AcDbLine
 62
253
  6
CONTINUOUS
 10
-0.0623841622
 20
0.9436461062
 11
-1.6114885644
 21
0.9436461062
  0
LINE
  5
248
100
AcDbEntity
  8
ASSI
100
AcDbLine
 62
253
  6
CONTINUOUS
 10
-1.885229803
 20
0.9436461062
 11
-3.4343342052
 21
0.9436461062
  0
LINE
  5
249
100
AcDbEntity
  8
ASSI
100
AcDbLine
 62
253
  6
CONTINUOUS
 10
-21.2343342052
 20
0.9436461062
 11
-19.685229803
 21
0.9436461062
  0
LINE
  5
24A
100
AcDbEntity
  8
ASSI
100
AcDbLine
 62
253
  6
CONTINUOUS
 10
-0.2619172852
 20
1.1601537591
 11
-1.3949822134
 21
1.1601524571
  0
LINE
  5
24B
100
AcDbEntity
  8
ASSI
100
AcDbLine
 62
253
  6
CONTINUOUS
 10
-2.1017361539
 20
1.1601524571
 11
-3.2348010427
 21
1.1601524571
  0
LINE
  5
24C
100
AcDbEntity
  8
ASSI
100
AcDbLine
 62
253
  6
CONTINUOUS
 10
-18.0619173246
 20
1.1601524571
 11
-19.1949822134
 21
1.1601524571
  0
LINE
  5
24D
100
AcDbEntity
  8
ASSI
100
AcDbLine
 62
253
  6
CONTINUOUS
 10
-19.9017361539
 20
1.1601524571
 11
-21.0348010427
 21
1.1601524571
  0
LINE
  5
24E
100
AcDbEntity
  8
ASSI
100
AcDbLine
 62
7
  6
CONTINUOUS
 10
-0.2466441428
 20
1.6653339427
 11
-1.3483591837
 21
1.6653339427
  0
LINE
  5
24F
100
AcDbEntity
  8
ASSI
100
AcDbLine
 62
7
  6
CONTINUOUS
 10
-2.1483591837
 20
1.6653339427
 11
-3.2500742246
 21
1.6653339427
  0
LINE
  5
250
100
AcDbEntity
  8
ASSI
100
AcDbLine
 62
7
  6
CONTINUOUS
 10
-18.0466441428
 20
1.6653339427
 11
-19.1483591837
 21
1.6653339427
  0
LINE
  5
251
100
AcDbEntity
  8
ASSI
100
AcDbLine
 62
7
  6
CONTINUOUS
 10
-19.9483591837
 20
1.6653339427
 11
-21.0500742246
 21
1.6653339427
  0
LINE
  5
252
100
AcDbEntity
  8
RACCORDO
100
AcDbLine
 62
253
  6
CONTINUOUS
 10
-6.7051629349
 20
0.8884117063
 11
-6.7599540484
 21
0.8883538153
  0
LINE
  5
253
100
AcDbEntity
  8
RACCORDO
100
AcDbLine
 62
253
  6
CONTINUOUS
 10
-14.5547493026
 20
0.8884061
 11
-14.6095899471
 21
0.8883649081
  0
LINE
  5
254
100
AcDbEntity
  8
RACCORDO
100
AcDbLine
 62
253
  6
CONTINUOUS
 10
-14.4828939021
 20
1.1383150254
 11
-14.7021685491
 21
1.1382474246
  0
LINE
  5
255
100
AcDbEntity
  8
RACCORDO
100
AcDbLine
 62
253
  6
CONTINUOUS
 10
-6.5529514675
 20
1.1381355243
 11
-6.770049629
 21
1.1383681482
  0
LINE
  5
256
100
AcDbEntity
  8
RACCORDO
100
AcDbLine
 62
253
  6
CONTINUOUS
 10
-14.2879465608
 20
1.1375883046
 11
-14.4828939021
 21
1.1383150254
  0
LINE
  5
257
100
AcDbEntity
  8
RACCORDO
100
AcDbLine
 62
253
  6
CONTINUOUS
 10
-6.6520090536
 20
0.8881726411
 11
-6.7051629349
 21
0.8884117063
  0
LINE
  5
258
100
AcDbEntity
  8
RACCORDO
100
AcDbLine
 62
253
  6
CONTINUOUS
 10
-14.5018425233
 20
0.8881508795
 11
-14.5547493026
 21
0.8884061
  0
LINE
  5
259
100
AcDbEntity
  8
RACCORDO
100
AcDbLine
 62
253
  6
CONTINUOUS
 10
-6.4090626106
 20
1.1373989518
 11
-6.5529514675
 21
1.1381355243
  0
LINE
  5
25A
100
AcDbEntity
  8
RACCORDO
100
AcDbLine
 62
253
  6
CONTINUOUS
 10
-6.3559689294
 20
1.1368886408
 11
-6.4090626106
 21
1.1373989518
  0
LINE
  5
25B
100
AcDbEntity
  8
RACCORDO
100
AcDbLine
 62
253
  6
CONTINUOUS
 10
-6.6199765324
 20
0.8878583763
 11
-6.6520090536
 21
0.8881726411
  0
LINE
  5
25C
100
AcDbEntity
  8
RACCORDO
100
AcDbLine
 62
253
  6
CONTINUOUS
 10
-14.4701290637
 20
0.8878269045
 11
-14.5018425233
 21
0.8881508795
  0
LWPOLYLINE
  5
25D
100
AcDbEntity
  8
ASSI
100
AcDbPolyline
 62
253
  6
CONTINUOUS
 90
13
 70
0
 10
-18.0619173246
 20
1.1601524571
 10
-18.035959253
 20
1.1584908605
 10
-18.0104404171
 20
1.1539265824
 10
-17.9857926202
 20
1.1465368548
 10
-17.9624329268
 20
1.136446719
 10
-17.9407566056
 20
1.1238269099
 10
-17.9211304408
 20
1.1088909669
 10
-17.903886526
 20
1.0918916205
 10
-17.8893166451
 20
1.0731165161
 10
-17.8776673344
 20
1.0528833466
 10
-17.8691357116
 20
1.0315344768
 10
-17.8638661399
 20
1.0094311502
 10
-17.8619477856
 20
0.9869473764
  0
LWPOLYLINE
  5
25E
100
AcDbEntity
  8
RACCORDO
100
AcDbPolyline
 62
7
  6
CONTINUOUS
 90
13
 70
0
 10
-6.8983591837
 20
0.8853487242
 10
-6.9309907317
 20
0.8874871831
 10
-6.9630639448
 20
0.8938659701
 10
-6.9940300416
 20
0.9043759426
 10
-7.0233591834
 20
0.9188372718
 10
-7.0505495406
 20
0.9370025205
 10
-7.0751358786
 20
0.9585608763
 10
-7.0966975184
 20
0.9831434697
 10
-7.1148655343
 20
1.0103296857
 10
-7.1293290666
 20
1.0396543606
 10
-7.1398406401
 20
1.0706157412
 10
-7.146220399
 20
1.1026840697
 10
-7.1483591837
 20
1.135310648
  0
LWPOLYLINE
  5
25F
100
AcDbEntity
  8
RACCORDO
100
AcDbPolyline
 62
253
  6
CONTINUOUS
 90
13
 70
0
 10
-14.7509784954
 20
0.885402438
 10
-14.7835987846
 20
0.8875500045
 10
-14.8156611478
 20
0.8939361015
 10
-14.8466172014
 20
0.9044515034
 10
-14.8759374838
 20
0.9189163584
 10
-14.9031205112
 20
0.9370832646
 10
-14.9277013546
 20
0.9586415017
 10
-14.9492595918
 20
0.9832223451
 10
-14.9674264982
 20
1.0104053726
 10
-14.9818913533
 20
1.0397256552
 10
-14.9924067554
 20
1.0706817089
 10
-14.9987928525
 20
1.1027440723
 10
-15.0009404192
 20
1.1353643618
  0
LWPOLYLINE
  5
260
100
AcDbEntity
  8
ASSI
100
AcDbPolyline
 62
253
  6
CONTINUOUS
 90
13
 70
0
 10
-3.2352221877
 20
0.3011511304
 10
-3.2613184192
 20
0.3028691836
 10
-3.2869683098
 20
0.3079780613
 10
-3.3117331527
 20
0.3163903828
 10
-3.3351893787
 20
0.3279622668
 10
-3.3569358007
 20
0.3424957919
 10
-3.3766004755
 20
0.3597423817
 10
-3.3938470652
 20
0.3794070564
 10
-3.4083805903
 20
0.4011534784
 10
-3.4199524743
 20
0.4246097044
 10
-3.4283647959
 20
0.4493745474
 10
-3.4334736735
 20
0.475024438
 10
-3.4351917268
 20
0.5011206694
  0
LWPOLYLINE
  5
261
100
AcDbEntity
  8
RACCORDO
100
AcDbPolyline
 62
253
  6
CONTINUOUS
 90
7
 70
0
 10
-14.1483591837
 20
1.135310648
 10
-14.1506687407
 20
1.1356361287
 10
-14.1575724298
 20
1.1359514232
 10
-14.1689955125
 20
1.1362565316
 10
-14.1848143142
 20
1.1365545109
 10
-14.2048574781
 20
1.1368423041
 10
-14.2879465608
 20
1.1375883046
  0
LWPOLYLINE
  5
262
100
AcDbEntity
  8
RACCORDO
100
AcDbPolyline
 62
253
  6
CONTINUOUS
 90
9
 70
0
 10
-14.3983591837
 20
0.8853487242
 10
-14.3993663112
 20
0.8856719475
 10
-14.4021821186
 20
0.8859856632
 10
-14.4068066062
 20
0.8862898714
 10
-14.4133289125
 20
0.8865878518
 10
-14.4216598988
 20
0.8868763247
 10
-14.4315321487
 20
0.8871454504
 10
-14.4429948019
 20
0.8873943994
 10
-14.4701290637
 20
0.8878269045
  0
LWPOLYLINE
  5
263
100
AcDbEntity
  8
ASSI
100
AcDbPolyline
 62
7
  6
CONTINUOUS
 90
10
 70
0
 10
-19.9017361539
 20
1.1601524571
 10
-19.8824232871
 20
1.1418597746
 10
-19.8617005
 20
1.1209181147
 10
-19.8395677927
 20
1.0979840959
 10
-19.8157264028
 20
1.0738459218
 10
-19.7904750927
 20
1.0489182123
 10
-19.764710149
 20
1.0231264522
 10
-19.7387303339
 20
0.996655041
 10
-19.7122368852
 20
0.9700498107
 10
-19.685229803
 20
0.9436461062
  0
LWPOLYLINE
  5
264
100
AcDbEntity
  8
ASSI
100
AcDbPolyline
 62
7
  6
CONTINUOUS
 90
10
 70
0
 10
-19.9017361539
 20
48.4158148898
 10
-19.8834434714
 20
48.4351277566
 10
-19.8625018115
 20
48.4558505437
 10
-19.8395677927
 20
48.477983251
 10
-19.8154296186
 20
48.5018246409
 10
-19.7905019091
 20
48.527075951
 10
-19.764710149
 20
48.5528408947
 10
-19.7382387378
 20
48.5788207098
 10
-19.7116335075
 20
48.6053141585
 10
-19.685229803
 20
48.6323212408
  0
LINE
  5
265
100
AcDbEntity
  8
ASSI
100
AcDbLine
 62
253
  6
CONTINUOUS
 10
-18.0614961796
 20
49.2748162166
 11
-18.0483287227
 21
49.2879836735
  0
LINE
  5
266
100
AcDbEntity
  8
ASSI
100
AcDbLine
 62
253
  6
CONTINUOUS
 10
-17.8615266406
 20
49.0748466775
 11
-17.8483591837
 21
49.0880141344
  0
LINE
  5
267
100
AcDbEntity
  8
ASSI
100
AcDbLine
 62
7
  6
CONTINUOUS
 10
-19.1483591837
 20
47.1879836735
 11
-19.1615266406
 21
47.1748162166
  0
LINE
  5
268
100
AcDbEntity
  8
ASSI
100
AcDbLine
 62
7
  6
CONTINUOUS
 10
-18.7063534695
 20
45.7752523514
 11
-18.8809041187
 21
45.6879836735
  0
LINE
  5
269
100
AcDbEntity
  8
ASSI
100
AcDbLine
 62
7
  6
CONTINUOUS
 10
-18.7068247865
 20
46.2440931141
 11
-18.8809041187
 21
46.1930970836
  0
LINE
  5
26A
100
AcDbEntity
  8
ASSI
100
AcDbLine
 62
7
  6
CONTINUOUS
 10
-9.8309041187
 20
2.3897290045
 11
-9.8483591837
 21
2.3879836735
  0
LINE
  5
26B
100
AcDbEntity
  8
ASSI
100
AcDbLine
 62
7
  6
CONTINUOUS
 10
-0.0483591837
 20
2.3879836735
 11
-1.3483591837
 21
2.3879836735
  0
LINE
  5
26C
100
AcDbEntity
  8
ASSI
100
AcDbLine
 62
7
  6
CONTINUOUS
 10
-2.1483591837
 20
2.3879836735
 11
-6.1983591837
 21
2.3879836735
  0
LINE
  5
26D
100
AcDbEntity
  8
ASSI
100
AcDbLine
 62
7
  6
CONTINUOUS
 10
-15.0983591837
 20
2.3879836735
 11
-19.1483591837
 21
2.3879836735
  0
LINE
  5
26E
100
AcDbEntity
  8
ASSI
100
AcDbLine
 62
7
  6
CONTINUOUS
 10
-19.9483591837
 20
2.3879836735
 11
-21.2483592483
 21
2.387983738
  0
LINE
  5
26F
100
AcDbEntity
  8
ASSI
100
AcDbLine
 62
7
  6
CONTINUOUS
 10
-9.8309041187
 20
2.3897290045
 11
-11.4658142486
 21
2.3897290045
  0
LINE
  5
270
100
AcDbEntity
  8
ASSI
100
AcDbLine
 62
7
  6
CONTINUOUS
 10
-21.2309802712
 20
2.4054387384
 11
-19.685229803
 21
2.4054387384
  0
LINE
  5
271
100
AcDbEntity
  8
ASSI
100
AcDbLine
 62
7
  6
CONTINUOUS
 10
-19.4114885644
 20
2.4054387384
 11
-17.9034725938
 21
2.4054387384
  0
LINE
  5
272
100
AcDbEntity
  8
ASSI
100
AcDbLine
 62
7
  6
CONTINUOUS
 10
-3.3932457735
 20
2.4054387384
 11
-1.885229803
 21
2.4054387384
  0
LINE
  5
273
100
AcDbEntity
  8
ASSI
100
AcDbLine
 62
7
  6
CONTINUOUS
 10
-1.6114885644
 20
2.4054387384
 11
-0.0657380962
 21
2.4054387384
  0
LINE
  5
274
100
AcDbEntity
  8
ASSI
100
AcDbLine
 62
253
  6
CONTINUOUS
 10
-17.9495825264
 20
2.5628389556
 11
-13.7232351773
 21
2.5628389556
  0
LINE
  5
275
100
AcDbEntity
  8
ASSI
100
AcDbLine
 62
253
  6
CONTINUOUS
 10
-7.5734831901
 20
2.5628389556
 11
-3.3471358409
 21
2.5628389556
  0
LINE
  5
276
100
AcDbEntity
  8
ASSI
100
AcDbLine
 62
7
  6
CONTINUOUS
 10
-7.5826496252
 20
3.0879836735
 11
-13.7140687421
 21
3.0879836735
  0
LINE
  5
277
100
AcDbEntity
  8
ASSI
100
AcDbLine
 62
7
  6
CONTINUOUS
 10
-11.4658142486
 20
2.3897290045
 11
-11.4483591837
 21
2.3879836735
  0
LWPOLYLINE
  5
278
100
AcDbEntity
  8
RACCORDO
100
AcDbPolyline
 62
253
  6
CONTINUOUS
 90
5
 70
0
 10
-6.2957779482
 20
1.1353643618
 10
-6.298860561
 20
1.1356894752
 10
-6.3065282145
 20
1.136003854
 10
-6.3186978989
 20
1.1363074982
 10
-6.3559689294
 20
1.1368886408
  0
LWPOLYLINE
  5
279
100
AcDbEntity
  8
RACCORDO
100
AcDbPolyline
 62
253
  6
CONTINUOUS
 90
9
 70
0
 10
-6.545739872
 20
0.885402438
 10
-6.5470700112
 20
0.8857253046
 10
-6.5501990478
 20
0.8860381142
 10
-6.555126982
 20
0.8863408669
 10
-6.5619462174
 20
0.886636815
 10
-6.5705643502
 20
0.886922706
 10
-6.5807041693
 20
0.8871887834
 10
-6.5924139796
 20
0.8874342027
 10
-6.6199765324
 20
0.8878583763
  0
LINE
  5
27A
100
AcDbEntity
  8
ASSI
100
AcDbLine
 62
7
  6
CONTINUOUS
 10
-18.7068247865
 20
3.3318742328
 11
-18.8809041187
 21
3.3828702633
  0
LINE
  5
27B
100
AcDbEntity
  8
ASSI
100
AcDbLine
 62
7
  6
CONTINUOUS
 10
-18.7063534695
 20
3.8007149956
 11
-18.8809041187
 21
3.8879836735
  0
LINE
  5
27C
100
AcDbEntity
  8
ASSI
100
AcDbLine
 62
253
  6
CONTINUOUS
 10
-18.0483287227
 20
0.2879836735
 11
-18.0614961796
 21
0.3011511304
  0
LINE
  5
27D
100
AcDbEntity
  8
ASSI
100
AcDbLine
 62
253
  6
CONTINUOUS
 10
-17.8483591837
 20
0.4879532125
 11
-17.8615266406
 21
0.5011206694
  0
LINE
  5
27E
100
AcDbEntity
  8
ASSI
100
AcDbLine
 62
7
  6
CONTINUOUS
 10
-19.1483591837
 20
2.3879836735
 11
-19.1615266406
 21
2.4011511304
  0
LINE
  5
27F
100
AcDbEntity
  8
0
100
AcDbLine
 62
7
  6
CONTINUOUS
 10
-19.4483591837
 20
45.6379836735
 11
-21.2126619642
 21
43.873680893
  0
LINE
  5
280
100
AcDbEntity
  8
RACCORDO
100
AcDbLine
 62
7
  6
CONTINUOUS
 10
-19.4483591837
 20
45.6379836735
 11
-21.2126619642
 21
43.873680893
  0
LINE
  5
281
100
AcDbEntity
  8
ASSI
100
AcDbLine
 62
7
  6
CONTINUOUS
 10
-18.8809041187
 20
46.1930970836
 11
-17.9034725938
 21
47.1705286085
  0
LINE
  5
282
100
AcDbEntity
  8
0
100
AcDbLine
 62
7
  6
CONTINUOUS
 10
-19.2755628568
 20
45.6379836735
 11
-21.0904765097
 21
43.8230700206
  0
LINE
  5
283
100
AcDbEntity
  8
RACCORDO
100
AcDbLine
 62
7
  6
CONTINUOUS
 10
-19.2755628568
 20
45.6379836735
 11
-21.0904765097
 21
43.8230700206
  0
LINE
  5
284
100
AcDbEntity
  8
RACCORDO
100
AcDbLine
 62
7
  6
CONTINUOUS
 10
-21.368567419
 20
43.4862879203
 11
-20.7466634305
 21
44.1081919088
  0
LINE
  5
285
100
AcDbEntity
  8
ASSI
100
AcDbLine
 62
7
  6
CONTINUOUS
 10
-21.368567419
 20
43.4862879203
 11
-20.7466634305
 21
44.1081919088
  0
LINE
  5
286
100
AcDbEntity
  8
RACCORDO
100
AcDbLine
 62
7
  6
CONTINUOUS
 10
-20.6386708565
 20
44.2013744387
 11
-20.4494435714
 21
44.390601617
  0
LINE
  5
287
100
AcDbEntity
  8
ASSI
100
AcDbLine
 62
7
  6
CONTINUOUS
 10
-20.6386708565
 20
44.2013744387
 11
-20.4494435714
 21
44.390601617
  0
LINE
  5
288
100
AcDbEntity
  8
ASSI
100
AcDbLine
 62
7
  6
CONTINUOUS
 10
-17.9483591837
 20
45.6879836735
 11
-17.8610905058
 21
45.7752523514
  0
LINE
  5
289
100
AcDbEntity
  8
0
100
AcDbLine
 62
7
  6
CONTINUOUS
 10
-15.9483591837
 20
44.7879836735
 11
-15.7738085344
 21
44.8752523514
  0
LWPOLYLINE
  5
28A
100
AcDbEntity
  8
0
100
AcDbPolyline
 62
7
  6
CONTINUOUS
 90
12
 70
0
 10
-12.2727556451
 20
4.903354857
 10
-12.3906274732
 20
4.9029743829
 10
-12.503498903
 20
4.9023555716
 10
-12.6128546855
 20
4.901483607
 10
-12.7172100696
 20
4.9003733052
 10
-12.8121108019
 20
4.8990691144
 10
-12.8971788863
 20
4.8975590924
 10
-12.9727923188
 20
4.8958551814
 10
-13.0356308348
 20
4.8940376565
 10
-13.0845876794
 20
4.892133276
 10
-13.1207696076
 20
4.8901152817
 10
-13.1441766192
 20
4.8879836735
  0
LINE
  5
28B
100
AcDbEntity
  8
ASSI
100
AcDbLine
 62
253
  6
CONTINUOUS
 10
-18.7063534695
 20
3.5626866508
 11
-13.7057827708
 21
3.5626866508
  0
LINE
  5
28C
100
AcDbEntity
  8
ASSI
100
AcDbLine
 62
253
  6
CONTINUOUS
 10
-7.5909355965
 20
3.5626866508
 11
-2.5903648979
 21
3.5626866508
  0
LINE
  5
28D
100
AcDbEntity
  8
ASSI
100
AcDbLine
 62
7
  6
CONTINUOUS
 10
-17.2356278616
 20
3.7134330242
 11
-15.7738085344
 21
3.7134330242
  0
LINE
  5
28E
100
AcDbEntity
  8
ASSI
100
AcDbLine
 62
7
  6
CONTINUOUS
 10
-5.522909833
 20
3.7134330242
 11
-4.0610905058
 21
3.7134330242
  0
LINE
  5
28F
100
AcDbEntity
  8
ASSI
100
AcDbLine
 62
7
  6
CONTINUOUS
 10
-2.5903648979
 20
3.8007149956
 11
-3.4356278616
 21
3.8007149956
  0
LINE
  5
290
100
AcDbEntity
  8
ASSI
100
AcDbLine
 62
7
  6
CONTINUOUS
 10
-17.8610905058
 20
3.8007149956
 11
-18.7063534695
 21
3.8007149956
  0
LINE
  5
291
100
AcDbEntity
  8
0
100
AcDbLine
 62
7
  6
CONTINUOUS
 10
-17.1483591837
 20
3.8879836735
 11
-15.9483591837
 21
3.8879836735
  0
LINE
  5
292
100
AcDbEntity
  8
0
100
AcDbLine
 62
7
  6
CONTINUOUS
 10
-5.3483591837
 20
3.8879836735
 11
-4.1483591837
 21
3.8879836735
  0
LINE
  5
293
100
AcDbEntity
  8
ASSI
100
AcDbLine
 62
7
  6
CONTINUOUS
 10
-2.4158142486
 20
3.8879836735
 11
-3.3483591837
 21
3.8879836735
  0
LINE
  5
294
100
AcDbEntity
  8
ASSI
100
AcDbLine
 62
7
  6
CONTINUOUS
 10
-17.9483591837
 20
3.8879836735
 11
-18.8809041187
 21
3.8879836735
  0
LINE
  5
295
100
AcDbEntity
  8
0
100
AcDbLine
 62
7
  6
CONTINUOUS
 10
-1.8483591837
 20
3.9379836735
 11
-3.2483591837
 21
3.9379836735
  0
LINE
  5
296
100
AcDbEntity
  8
DRAFT
100
AcDbLine
 62
7
  6
CONTINUOUS
 10
-1.8483591837
 20
3.9379836735
 11
-3.2483591837
 21
3.9379836735
  0
LINE
  5
297
100
AcDbEntity
  8
0
100
AcDbLine
 62
7
  6
CONTINUOUS
 10
-18.0483591837
 20
3.9379836735
 11
-19.4483591837
 21
3.9379836735
  0
LINE
  5
298
100
AcDbEntity
  8
DRAFT
100
AcDbLine
 62
7
  6
CONTINUOUS
 10
-18.0483591837
 20
3.9379836735
 11
-19.4483591837
 21
3.9379836735
  0
LINE
  5
299
100
AcDbEntity
  8
ASSI
100
AcDbLine
 62
7
  6
CONTINUOUS
 10
-7.5983591837
 20
3.9879836735
 11
-13.6983591837
 21
3.9879836735
  0
LINE
  5
29A
100
AcDbEntity
  8
ASSI
100
AcDbLine
 62
7
  6
CONTINUOUS
 10
-15.7738085344
 20
4.7007149956
 11
-5.522909833
 21
4.7007149956
  0
LINE
  5
29B
100
AcDbEntity
  8
RACCORDO
100
AcDbLine
 62
7
  6
CONTINUOUS
 10
-8.1483591837
 20
4.7347497799
 11
-8.2070480605
 21
4.7347497799
  0
LINE
  5
29C
100
AcDbEntity
  8
RACCORDO
100
AcDbLine
 62
7
  6
CONTINUOUS
 10
-13.0896703068
 20
4.7347497799
 11
-13.1483591837
 21
4.7347497799
  0
LINE
  5
29D
100
AcDbEntity
  8
DRAFT
100
AcDbLine
 62
7
  6
CONTINUOUS
 10
-18.0483591837
 20
4.7879836735
 11
-17.9483591837
 21
4.7879836735
  0
LINE
  5
29E
100
AcDbEntity
  8
0
100
AcDbLine
 62
7
  6
CONTINUOUS
 10
-15.9483591837
 20
4.7879836735
 11
-13.1477113648
 21
4.7879836735
  0
LINE
  5
29F
100
AcDbEntity
  8
0
100
AcDbLine
 62
7
  6
CONTINUOUS
 10
-8.1490070026
 20
4.7879836735
 11
-5.3483591837
 21
4.7879836735
  0
LINE
  5
2A0
100
AcDbEntity
  8
DRAFT
100
AcDbLine
 62
7
  6
CONTINUOUS
 10
-3.3483591837
 20
4.7879836735
 11
-3.2483591837
 21
4.7879836735
  0
LINE
  5
2A1
100
AcDbEntity
  8
0
100
AcDbLine
 62
7
  6
CONTINUOUS
 10
-14.1483591837
 20
4.8879836735
 11
-13.1428374639
 21
4.8879836735
  0
LINE
  5
2A2
100
AcDbEntity
  8
0
100
AcDbLine
 62
7
  6
CONTINUOUS
 10
-8.1538809035
 20
4.8879836735
 11
-7.1483591837
 21
4.8879836735
  0
LINE
  5
2A3
100
AcDbEntity
  8
0
100
AcDbLine
 62
7
  6
CONTINUOUS
 10
-12.2727556451
 20
4.903354857
 11
-9.1468349488
 21
4.9034969938
  0
LINE
  5
2A4
100
AcDbEntity
  8
0
100
AcDbLine
 62
7
  6
CONTINUOUS
 10
-14.1117035473
 20
4.9246393098
 11
-7.18501482
 21
4.9246393098
  0
LINE
  5
2A5
100
AcDbEntity
  8
DRAFT
100
AcDbLine
 62
7
  6
CONTINUOUS
 10
-14.1117035473
 20
4.9246393098
 11
-7.18501482
 21
4.9246393098
  0
LINE
  5
2A6
100
AcDbEntity
  8
ASSI
100
AcDbLine
 62
7
  6
CONTINUOUS
 10
-3.4356278616
 20
5.0007149956
 11
-4.0610905058
 21
5.0007149956
  0
LINE
  5
2A7
100
AcDbEntity
  8
ASSI
100
AcDbLine
 62
7
  6
CONTINUOUS
 10
-17.2356278616
 20
5.0007149956
 11
-17.8610905058
 21
5.0007149956
  0
LINE
  5
2A8
100
AcDbEntity
  8
0
100
AcDbLine
 62
7
  6
CONTINUOUS
 10
-18.0483591837
 20
5.0879836735
 11
-14.1483591837
 21
5.0879836735
  0
LINE
  5
2A9
100
AcDbEntity
  8
DRAFT
100
AcDbLine
 62
7
  6
CONTINUOUS
 10
-18.0483591837
 20
5.0879836735
 11
-14.1483591837
 21
5.0879836735
  0
LINE
  5
2AA
100
AcDbEntity
  8
0
100
AcDbLine
 62
7
  6
CONTINUOUS
 10
-7.1483591837
 20
5.0879836735
 11
-3.2483591837
 21
5.0879836735
  0
LINE
  5
2AB
100
AcDbEntity
  8
DRAFT
100
AcDbLine
 62
7
  6
CONTINUOUS
 10
-7.1483591837
 20
5.0879836735
 11
-3.2483591837
 21
5.0879836735
  0
LINE
  5
2AC
100
AcDbEntity
  8
0
100
AcDbLine
 62
7
  6
CONTINUOUS
 10
-18.08501482
 20
5.1246393098
 11
-14.1117035473
 21
5.1246393098
  0
LINE
  5
2AD
100
AcDbEntity
  8
DRAFT
100
AcDbLine
 62
7
  6
CONTINUOUS
 10
-18.08501482
 20
5.1246393098
 11
-14.1117035473
 21
5.1246393098
  0
LINE
  5
2AE
100
AcDbEntity
  8
0
100
AcDbLine
 62
7
  6
CONTINUOUS
 10
-7.18501482
 20
5.1246393098
 11
-3.2117035473
 21
5.1246393098
  0
LINE
  5
2AF
100
AcDbEntity
  8
DRAFT
100
AcDbLine
 62
7
  6
CONTINUOUS
 10
-7.18501482
 20
5.1246393098
 11
-3.2117035473
 21
5.1246393098
  0
LINE
  5
2B0
100
AcDbEntity
  8
RACCORDO
100
AcDbLine
 62
7
  6
CONTINUOUS
 10
-20.0395835738
 20
5.1748933718
 11
-6.9352574589
 21
5.1748933718
  0
LINE
  5
2B1
100
AcDbEntity
  8
ASSI
100
AcDbLine
 62
7
  6
CONTINUOUS
 10
-20.0395835738
 20
5.1748933718
 11
-6.9352574589
 21
5.1748933718
  0
LWPOLYLINE
  5
2B2
100
AcDbEntity
  8
0
100
AcDbPolyline
 62
7
  6
CONTINUOUS
 90
13
 70
0
 10
-9.1468349488
 20
4.9034969938
 10
-9.0239627223
 20
4.903354857
 10
-8.9060908941
 20
4.9029743829
 10
-8.7932194644
 20
4.9023555716
 10
-8.6838636819
 20
4.901483607
 10
-8.5795082977
 20
4.9003733052
 10
-8.4846075654
 20
4.8990691144
 10
-8.3995394811
 20
4.8975590924
 10
-8.3239260486
 20
4.8958551814
 10
-8.2610875325
 20
4.8940376565
 10
-8.2121306879
 20
4.892133276
 10
-8.1759487598
 20
4.8901152817
 10
-8.1525417482
 20
4.8879836735
  0
LINE
  5
2B3
100
AcDbEntity
  8
0
100
AcDbLine
 62
7
  6
CONTINUOUS
 10
-15.9483591837
 20
4.7879836735
 11
-15.7738085344
 21
4.7007149956
  0
LINE
  5
2B4
100
AcDbEntity
  8
0
100
AcDbLine
 62
7
  6
CONTINUOUS
 10
-21.2126619642
 20
5.702286454
 11
-19.4483591837
 21
3.9379836735
  0
LINE
  5
2B5
100
AcDbEntity
  8
RACCORDO
100
AcDbLine
 62
7
  6
CONTINUOUS
 10
-21.2126619642
 20
5.702286454
 11
-19.4483591837
 21
3.9379836735
  0
LINE
  5
2B6
100
AcDbEntity
  8
ASSI
100
AcDbLine
 62
7
  6
CONTINUOUS
 10
-17.9034725938
 20
2.4054387384
 11
-18.8809041187
 21
3.3828702633
  0
LINE
  5
2B7
100
AcDbEntity
  8
0
100
AcDbLine
 62
7
  6
CONTINUOUS
 10
-21.0904765097
 20
5.7528973263
 11
-19.2755628568
 21
3.9379836735
  0
LINE
  5
2B8
100
AcDbEntity
  8
RACCORDO
100
AcDbLine
 62
7
  6
CONTINUOUS
 10
-21.0904765097
 20
5.7528973263
 11
-19.2755628568
 21
3.9379836735
  0
LINE
  5
2B9
100
AcDbEntity
  8
RACCORDO
100
AcDbLine
 62
7
  6
CONTINUOUS
 10
-20.7466634305
 20
5.4677754381
 11
-21.368567419
 21
6.0896794266
  0
LINE
  5
2BA
100
AcDbEntity
  8
ASSI
100
AcDbLine
 62
7
  6
CONTINUOUS
 10
-20.7466634305
 20
5.4677754381
 11
-21.368567419
 21
6.0896794266
  0
LINE
  5
2BB
100
AcDbEntity
  8
ASSI
100
AcDbLine
 62
7
  6
CONTINUOUS
 10
-17.9483591837
 20
3.8879836735
 11
-17.8610905058
 21
3.8007149956
  0
LINE
  5
2BC
100
AcDbEntity
  8
0
100
AcDbLine
 62
7
  6
CONTINUOUS
 10
-18.0483591837
 20
44.4879836735
 11
-18.08501482
 21
44.4513280371
  0
LINE
  5
2BD
100
AcDbEntity
  8
DRAFT
100
AcDbLine
 62
7
  6
CONTINUOUS
 10
-18.0483591837
 20
44.4879836735
 11
-18.08501482
 21
44.4513280371
  0
LINE
  5
2BE
100
AcDbEntity
  8
0
100
AcDbLine
 62
7
  6
CONTINUOUS
 10
-17.8610905058
 20
44.5752523514
 11
-17.9483591837
 21
44.4879836735
  0
LINE
  5
2BF
100
AcDbEntity
  8
0
100
AcDbLine
 62
7
  6
CONTINUOUS
 10
-15.7738085344
 20
45.8625343228
 11
-15.9483591837
 21
45.6879836735
  0
LINE
  5
2C0
100
AcDbEntity
  8
RACCORDO
100
AcDbLine
 62
253
  6
CONTINUOUS
 10
-11.7157761724
 20
48.7705286085
 11
-11.6983211075
 21
48.7879836735
  0
LINE
  5
2C1
100
AcDbEntity
  8
0
100
AcDbLine
 62
7
  6
CONTINUOUS
 10
-12.7948057931
 20
6.5554436568
 11
-13.1489209293
 21
6.5523533408
  0
LINE
  5
2C2
100
AcDbEntity
  8
RACCORDO
100
AcDbLine
 62
7
  6
CONTINUOUS
 10
-12.7948057931
 20
6.5554436568
 11
-13.1489209293
 21
6.5523533408
  0
LINE
  5
2C3
100
AcDbEntity
  8
ASSI
100
AcDbLine
 62
7
  6
CONTINUOUS
 10
-21.7745451052
 20
6.3653339427
 11
-21.7309041187
 21
6.3653339427
  0
LINE
  5
2C4
100
AcDbEntity
  8
ASSI
100
AcDbLine
 62
7
  6
CONTINUOUS
 10
0.4778267379
 20
6.3653339427
 11
0.4341857514
 21
6.3653339427
  0
LINE
  5
2C5
100
AcDbEntity
  8
0
100
AcDbLine
 62
7
  6
CONTINUOUS
 10
-8.1483591837
 20
6.4879836735
 11
-13.1483591837
 21
6.4879836735
  0
LINE
  5
2C6
100
AcDbEntity
  8
ASSI
100
AcDbLine
 62
7
  6
CONTINUOUS
 10
-8.1483591837
 20
6.4879836735
 11
-13.1483591837
 21
6.4879836735
  0
LINE
  5
2C7
100
AcDbEntity
  8
0
100
AcDbLine
 62
7
  6
CONTINUOUS
 10
-6.5050768289
 20
6.5218142059
 11
-3.2117035473
 21
6.5218142059
  0
LINE
  5
2C8
100
AcDbEntity
  8
DRAFT
100
AcDbLine
 62
7
  6
CONTINUOUS
 10
-6.5050768289
 20
6.5218142059
 11
-3.2117035473
 21
6.5218142059
  0
LINE
  5
2C9
100
AcDbEntity
  8
0
100
AcDbLine
 62
7
  6
CONTINUOUS
 10
-2.0483591837
 20
6.5218142059
 11
-1.3821706776
 21
6.5218142059
  0
LINE
  5
2CA
100
AcDbEntity
  8
RACCORDO
100
AcDbLine
 62
7
  6
CONTINUOUS
 10
-2.0483591837
 20
6.5218142059
 11
-1.3821706776
 21
6.5218142059
  0
LINE
  5
2CB
100
AcDbEntity
  8
0
100
AcDbLine
 62
7
  6
CONTINUOUS
 10
-2.0483591837
 20
6.5305410736
 11
-3.1942484824
 21
6.5305410736
  0
LINE
  5
2CC
100
AcDbEntity
  8
DRAFT
100
AcDbLine
 62
7
  6
CONTINUOUS
 10
-2.0483591837
 20
6.5305410736
 11
-3.1942484824
 21
6.5305410736
  0
LINE
  5
2CD
100
AcDbEntity
  8
RACCORDO
100
AcDbLine
 62
7
  6
CONTINUOUS
 10
-1.2571347936
 20
6.5748933718
 11
-6.3352803051
 21
6.5748933718
  0
LINE
  5
2CE
100
AcDbEntity
  8
ASSI
100
AcDbLine
 62
7
  6
CONTINUOUS
 10
-1.2571347936
 20
6.5748933718
 11
-6.3352803051
 21
6.5748933718
  0
LINE
  5
2CF
100
AcDbEntity
  8
ASSI
100
AcDbLine
 62
7
  6
CONTINUOUS
 10
-13.1483591837
 20
6.5879836735
 11
-8.1483591837
 21
6.5879836735
  0
LINE
  5
2D0
100
AcDbEntity
  8
0
100
AcDbLine
 62
7
  6
CONTINUOUS
 10
-8.5019125743
 20
6.5554436568
 11
-8.1477974381
 21
6.5523533408
  0
LINE
  5
2D1
100
AcDbEntity
  8
RACCORDO
100
AcDbLine
 62
7
  6
CONTINUOUS
 10
-8.5019125743
 20
6.5554436568
 11
-8.1477974381
 21
6.5523533408
  0
LINE
  5
2D2
100
AcDbEntity
  8
0
100
AcDbLine
 62
7
  6
CONTINUOUS
 10
-18.0483591837
 20
5.0879836735
 11
-18.08501482
 21
5.1246393098
  0
LINE
  5
2D3
100
AcDbEntity
  8
DRAFT
100
AcDbLine
 62
7
  6
CONTINUOUS
 10
-18.0483591837
 20
5.0879836735
 11
-18.08501482
 21
5.1246393098
  0
LINE
  5
2D4
100
AcDbEntity
  8
0
100
AcDbLine
 62
7
  6
CONTINUOUS
 10
-17.8610905058
 20
5.0007149956
 11
-17.9483591837
 21
5.0879836735
  0
LINE
  5
2D5
100
AcDbEntity
  8
0
100
AcDbLine
 62
7
  6
CONTINUOUS
 10
-15.7738085344
 20
3.7134330242
 11
-15.9483591837
 21
3.8879836735
  0
LINE
  5
2D6
100
AcDbEntity
  8
RACCORDO
100
AcDbLine
 62
253
  6
CONTINUOUS
 10
-11.6983211075
 20
0.7879836735
 11
-11.7157761724
 21
0.8054387384
  0
LINE
  5
2D7
100
AcDbEntity
  8
RACCORDO
100
AcDbLine
 62
253
  6
CONTINUOUS
 10
-11.4658142486
 20
48.5205666848
 11
-11.4483591837
 21
48.5380217497
  0
LINE
  5
2D8
100
AcDbEntity
  8
0
100
AcDbLine
 62
253
  6
CONTINUOUS
 10
-12.400501649
 20
7.5022277475
 11
-12.3483591837
 21
7.5063118308
  0
LINE
  5
2D9
100
AcDbEntity
  8
RACCORDO
100
AcDbLine
 62
253
  6
CONTINUOUS
 10
-12.400501649
 20
7.5022277475
 11
-12.3483591837
 21
7.5063118308
  0
LINE
  5
2DA
100
AcDbEntity
  8
ASSI
100
AcDbLine
 62
7
  6
CONTINUOUS
 10
-13.1483591837
 20
7.2879836735
 11
-8.1483591837
 21
7.2879836735
  0
LINE
  5
2DB
100
AcDbEntity
  8
RACCORDO
100
AcDbLine
 62
7
  6
CONTINUOUS
 10
-12.2523522145
 20
7.4879836735
 11
-9.0443661529
 21
7.4879836735
  0
LINE
  5
2DC
100
AcDbEntity
  8
ASSI
100
AcDbLine
 62
7
  6
CONTINUOUS
 10
-12.2523522145
 20
7.4879836735
 11
-9.0443661529
 21
7.4879836735
  0
LINE
  5
2DD
100
AcDbEntity
  8
0
100
AcDbLine
 62
253
  6
CONTINUOUS
 10
-8.9483591837
 20
7.5063118308
 11
-12.3483591837
 21
7.5063118308
  0
LINE
  5
2DE
100
AcDbEntity
  8
RACCORDO
100
AcDbLine
 62
253
  6
CONTINUOUS
 10
-8.9483591837
 20
7.5063118308
 11
-12.3483591837
 21
7.5063118308
  0
LINE
  5
2DF
100
AcDbEntity
  8
0
100
AcDbLine
 62
7
  6
CONTINUOUS
 10
-8.9483591837
 20
7.5379836735
 11
-12.3483591837
 21
7.5379836735
  0
LINE
  5
2E0
100
AcDbEntity
  8
RACCORDO
100
AcDbLine
 62
7
  6
CONTINUOUS
 10
-8.9483591837
 20
7.5379836735
 11
-12.3483591837
 21
7.5379836735
  0
LINE
  5
2E1
100
AcDbEntity
  8
CURVE
100
AcDbLine
 62
7
  6
CONTINUOUS
 10
0.4248385306
 20
7.7879836735
 11
0.4283570456
 21
7.7879836735
  0
LINE
  5
2E2
100
AcDbEntity
  8
CURVE
100
AcDbLine
 62
7
  6
CONTINUOUS
 10
0.4718775206
 20
7.8126496735
 11
0.4753960355
 21
7.8126496735
  0
LINE
  5
2E3
100
AcDbEntity
  8
CURVE
100
AcDbLine
 62
7
  6
CONTINUOUS
 10
0.4477761551
 20
7.8676826735
 11
0.4512748645
 21
7.8676826735
  0
LINE
  5
2E4
100
AcDbEntity
  8
CURVE
100
AcDbLine
 62
253
  6
CONTINUOUS
 10
0.4083951025
 20
8.0594121155
 11
0.3941838571
 21
8.0594121155
  0
LINE
  5
2E5
100
AcDbEntity
  8
0
100
AcDbLine
 62
7
  6
CONTINUOUS
 10
-13.1483591837
 20
8.1879836735
 11
-8.1483591837
 21
8.1879836735
  0
LINE
  5
2E6
100
AcDbEntity
  8
ASSI
100
AcDbLine
 62
7
  6
CONTINUOUS
 10
-13.1483591837
 20
8.1879836735
 11
-8.1483591837
 21
8.1879836735
  0
LINE
  5
2E7
100
AcDbEntity
  8
SMUSSO
100
AcDbLine
 62
7
  6
CONTINUOUS
 10
-10.3983591837
 20
8.5379836735
 11
-15.3983591837
 21
8.5379836735
  0
LINE
  5
2E8
100
AcDbEntity
  8
ASSI
100
AcDbLine
 62
7
  6
CONTINUOUS
 10
-10.3983591837
 20
8.5379836735
 11
-15.3983591837
 21
8.5379836735
  0
LINE
  5
2E9
100
AcDbEntity
  8
RACCORDO
100
AcDbLine
 62
7
  6
CONTINUOUS
 10
0.0647196945
 20
8.6379836735
 11
-0.8483591837
 21
8.6379836735
  0
LINE
  5
2EA
100
AcDbEntity
  8
ASSI
100
AcDbLine
 62
7
  6
CONTINUOUS
 10
0.0647196945
 20
8.6379836735
 11
-0.8483591837
 21
8.6379836735
  0
LINE
  5
2EB
100
AcDbEntity
  8
CURVE
100
AcDbLine
 62
7
  6
CONTINUOUS
 10
0.4512748645
 20
8.8679696735
 11
0.4477761551
 21
8.8679696735
  0
LINE
  5
2EC
100
AcDbEntity
  8
0
100
AcDbLine
 62
253
  6
CONTINUOUS
 10
-8.8962167184
 20
7.5022277475
 11
-8.9483591837
 21
7.5063118308
  0
LINE
  5
2ED
100
AcDbEntity
  8
RACCORDO
100
AcDbLine
 62
253
  6
CONTINUOUS
 10
-8.8962167184
 20
7.5022277475
 11
-8.9483591837
 21
7.5063118308
  0
LINE
  5
2EE
100
AcDbEntity
  8
CURVE
100
AcDbLine
 62
253
  6
CONTINUOUS
 10
-20.9483591837
 20
12.2165551242
 11
-20.669787733
 21
12.0308408495
  0
LINE
  5
2EF
100
AcDbEntity
  8
RACCORDO
100
AcDbLine
 62
253
  6
CONTINUOUS
 10
-11.4483591837
 20
1.0379455973
 11
-11.4658142486
 21
1.0554006622
  0
LINE
  5
2F0
100
AcDbEntity
  8
CURVE
100
AcDbLine
 62
253
  6
CONTINUOUS
 10
-20.5769306344
 20
11.2879836735
 11
-20.9483591837
 21
11.6594122615
  0
LWPOLYLINE
  5
2F1
100
AcDbEntity
  8
ASSI
100
AcDbPolyline
 62
253
  6
CONTINUOUS
 90
10
 70
0
 10
-17.8615266406
 20
0.5011206694
 10
-17.8615688303
 20
0.501204454
 10
-17.8616118306
 20
0.5014311133
 10
-17.8616556415
 20
0.5018006472
 10
-17.861700538
 20
0.502307056
 10
-17.8617462451
 20
0.5029563395
 10
-17.8617919377
 20
0.5037664967
 10
-17.8618376343
 20
0.5047431633
 10
-17.8618833164
 20
0.5058807036
 10
-17.8619281038
 20
0.5071802091
  0
LINE
  5
2F2
100
AcDbEntity
  8
CURVE
100
AcDbLine
 62
253
  6
CONTINUOUS
 10
0.3941838571
 20
9.0094121155
 11
0.4083951025
 21
9.0094121155
  0
LINE
  5
2F3
100
AcDbEntity
  8
SMUSSO
100
AcDbLine
 62
7
  6
CONTINUOUS
 10
-10.8983591837
 20
9.0379836735
 11
-14.8983591837
 21
9.0379836735
  0
LINE
  5
2F4
100
AcDbEntity
  8
ASSI
100
AcDbLine
 62
7
  6
CONTINUOUS
 10
-10.8983591837
 20
9.0379836735
 11
-14.8983591837
 21
9.0379836735
  0
LINE
  5
2F5
100
AcDbEntity
  8
0
100
AcDbLine
 62
7
  6
CONTINUOUS
 10
-14.1883591837
 20
9.2879836735
 11
-11.2483591837
 21
9.2879836735
  0
LINE
  5
2F6
100
AcDbEntity
  8
CURVE
100
AcDbLine
 62
7
  6
CONTINUOUS
 10
0.4283570456
 20
9.5068656735
 11
0.4718775206
 21
9.5068656735
  0
LINE
  5
2F7
100
AcDbEntity
  8
CURVE
100
AcDbLine
 62
253
  6
CONTINUOUS
 10
0.4083951025
 20
9.5522689995
 11
0.413132184
 21
9.5522689995
  0
LINE
  5
2F8
100
AcDbEntity
  8
CURVE
100
AcDbLine
 62
7
  6
CONTINUOUS
 10
0.4753960355
 20
9.7085026735
 11
0.4248385306
 21
9.7085026735
  0
LINE
  5
2F9
100
AcDbEntity
  8
0
100
AcDbLine
 62
7
  6
CONTINUOUS
 10
-0.7897926619
 20
9.910169128
 11
-0.8483591837
 21
9.910169128
  0
LINE
  5
2FA
100
AcDbEntity
  8
RACCORDO
100
AcDbLine
 62
7
  6
CONTINUOUS
 10
-0.7897926619
 20
9.910169128
 11
-0.8483591837
 21
9.910169128
  0
LINE
  5
2FB
100
AcDbEntity
  8
0
100
AcDbLine
 62
253
  6
CONTINUOUS
 10
-0.7897458638
 20
9.9224790633
 11
-0.8483591837
 21
9.9224790633
  0
LINE
  5
2FC
100
AcDbEntity
  8
RACCORDO
100
AcDbLine
 62
253
  6
CONTINUOUS
 10
-0.7897458638
 20
9.9224790633
 11
-0.8483591837
 21
9.9224790633
  0
LINE
  5
2FD
100
AcDbEntity
  8
0
100
AcDbLine
 62
253
  6
CONTINUOUS
 10
-0.7888184111
 20
10.2224333718
 11
-0.8483591837
 21
10.2224333718
  0
LINE
  5
2FE
100
AcDbEntity
  8
RACCORDO
100
AcDbLine
 62
253
  6
CONTINUOUS
 10
-0.7888184111
 20
10.2224333718
 11
-0.8483591837
 21
10.2224333718
  0
LINE
  5
2FF
100
AcDbEntity
  8
CURVE
100
AcDbLine
 62
253
  6
CONTINUOUS
 10
-18.5483591837
 20
10.4879836735
 11
-16.6483591837
 21
10.4879836735
  0
LINE
  5
300
100
AcDbEntity
  8
CURVE
100
AcDbLine
 62
253
  6
CONTINUOUS
 10
-20.5769306344
 20
13.0522693213
 11
-20.762644909
 21
13.1451265749
  0
LINE
  5
301
100
AcDbEntity
  8
CURVE
100
AcDbLine
 62
253
  6
CONTINUOUS
 10
-19.6483591837
 20
12.0308408495
 11
-20.5769306344
 21
12.680840772
  0
LINE
  5
302
100
AcDbEntity
  8
CURVE
100
AcDbLine
 62
253
  6
CONTINUOUS
 10
-20.762644909
 20
13.1451265749
 11
-20.9483591837
 21
13.330840772
  0
LINE
  5
303
100
AcDbEntity
  8
CURVE
100
AcDbLine
 62
253
  6
CONTINUOUS
 10
-19.8340734777
 20
13.6094122228
 11
-19.6483591837
 21
13.4236980256
  0
LINE
  5
304
100
AcDbEntity
  8
ASSI
100
AcDbLine
 62
7
  6
CONTINUOUS
 10
-17.9495825264
 20
47.0131283913
 11
-17.9034725938
 21
47.1705286085
  0
LINE
  5
305
100
AcDbEntity
  8
RACCORDO
100
AcDbLine
 62
253
  6
CONTINUOUS
 10
-6.545739872
 20
48.690564909
 11
-6.4483211075
 21
48.7879836735
  0
LINE
  5
306
100
AcDbEntity
  8
RACCORDO
100
AcDbLine
 62
253
  6
CONTINUOUS
 10
-6.2957779482
 20
48.4406029852
 11
-6.1983591837
 21
48.5380217497
  0
LINE
  5
307
100
AcDbEntity
  8
RACCORDO
100
AcDbLine
 62
7
  6
CONTINUOUS
 10
-6.1983591837
 20
47.1879836735
 11
-6.2957779482
 21
47.090564909
  0
LWPOLYLINE
  5
308
100
AcDbEntity
  8
0
100
AcDbPolyline
 62
253
  6
CONTINUOUS
 90
3
 70
0
 10
-8.755036993
 20
42.1327978444
 10
-8.798082527
 20
42.1057477134
 10
-8.8456072471
 20
42.0858852173
  0
LWPOLYLINE
  5
309
100
AcDbEntity
  8
RACCORDO
100
AcDbPolyline
 62
253
  6
CONTINUOUS
 90
3
 70
0
 10
-8.755036993
 20
42.1327978444
 10
-8.798082527
 20
42.1057477134
 10
-8.8456072471
 20
42.0858852173
  0
LINE
  5
30A
100
AcDbEntity
  8
0
100
AcDbLine
 62
253
  6
CONTINUOUS
 10
-0.0840564032
 20
43.873680893
 11
-0.2062418577
 21
43.8230700206
  0
LINE
  5
30B
100
AcDbEntity
  8
RACCORDO
100
AcDbLine
 62
253
  6
CONTINUOUS
 10
-0.0840564032
 20
43.873680893
 11
-0.2062418577
 21
43.8230700206
  0
LINE
  5
30C
100
AcDbEntity
  8
CURVE
100
AcDbLine
 62
253
  6
CONTINUOUS
 10
0.4178692654
 20
11.0451267895
 11
0.3847096932
 21
11.0451267895
  0
LINE
  5
30D
100
AcDbEntity
  8
CURVE
100
AcDbLine
 62
253
  6
CONTINUOUS
 10
-20.9483591837
 20
11.6594122615
 11
-19.6483591837
 21
11.6594122615
  0
LINE
  5
30E
100
AcDbEntity
  8
CURVE
100
AcDbLine
 62
7
  6
CONTINUOUS
 10
0.4247114092
 20
11.9756316735
 11
0.4753589199
 21
11.9756316735
  0
LINE
  5
30F
100
AcDbEntity
  8
CURVE
100
AcDbLine
 62
7
  6
CONTINUOUS
 10
0.4753589199
 20
12.1772686735
 11
0.4247114092
 21
12.1772686735
  0
LINE
  5
310
100
AcDbEntity
  8
0
100
AcDbLine
 62
7
  6
CONTINUOUS
 10
-11.2483591837
 20
12.2879836735
 11
-14.1883591837
 21
12.2879836735
  0
LINE
  5
311
100
AcDbEntity
  8
CURVE
100
AcDbLine
 62
253
  6
CONTINUOUS
 10
-19.6483591837
 20
14.4451265749
 11
-20.9483591837
 21
14.8165549692
  0
LINE
  5
312
100
AcDbEntity
  8
0
100
AcDbLine
 62
253
  6
CONTINUOUS
 10
-0.2062418577
 20
5.7528973263
 11
-0.0840564032
 21
5.702286454
  0
LINE
  5
313
100
AcDbEntity
  8
RACCORDO
100
AcDbLine
 62
253
  6
CONTINUOUS
 10
-0.2062418577
 20
5.7528973263
 11
-0.0840564032
 21
5.702286454
  0
LINE
  5
314
100
AcDbEntity
  8
CURVE
100
AcDbLine
 62
253
  6
CONTINUOUS
 10
-20.0197877717
 20
13.7022693213
 11
-19.8340734777
 21
13.6094122228
  0
LWPOLYLINE
  5
315
100
AcDbEntity
  8
0
100
AcDbPolyline
 62
253
  6
CONTINUOUS
 90
4
 70
0
 10
-8.755036993
 20
7.4431695026
 10
-8.798082527
 20
7.4702196336
 10
-8.8456072471
 20
7.4900821297
 10
-8.8962167184
 20
7.5022277475
  0
LWPOLYLINE
  5
316
100
AcDbEntity
  8
RACCORDO
100
AcDbPolyline
 62
253
  6
CONTINUOUS
 90
4
 70
0
 10
-8.755036993
 20
7.4431695026
 10
-8.798082527
 20
7.4702196336
 10
-8.8456072471
 20
7.4900821297
 10
-8.8962167184
 20
7.5022277475
  0
LINE
  5
317
100
AcDbEntity
  8
RACCORDO
100
AcDbLine
 62
253
  6
CONTINUOUS
 10
-6.4483211075
 20
0.7879836735
 11
-6.545739872
 21
0.885402438
  0
LINE
  5
318
100
AcDbEntity
  8
RACCORDO
100
AcDbLine
 62
253
  6
CONTINUOUS
 10
-6.1983591837
 20
1.0379455973
 11
-6.2957779482
 21
1.1353643618
  0
LINE
  5
319
100
AcDbEntity
  8
RACCORDO
100
AcDbLine
 62
7
  6
CONTINUOUS
 10
-6.1983591837
 20
2.3879836735
 11
-6.2957779482
 21
2.485402438
  0
LINE
  5
31A
100
AcDbEntity
  8
CURVE
100
AcDbLine
 62
253
  6
CONTINUOUS
 10
-20.0507401508
 20
15.1879836735
 11
-20.1435972881
 21
15.4046504435
  0
LINE
  5
31B
100
AcDbEntity
  8
ASSI
100
AcDbLine
 62
7
  6
CONTINUOUS
 10
-17.9495825264
 20
2.5628389556
 11
-17.9034725938
 21
2.4054387384
  0
LWPOLYLINE
  5
31C
100
AcDbEntity
  8
ASSI
100
AcDbPolyline
 62
253
  6
CONTINUOUS
 90
13
 70
0
 10
-21.2351917268
 20
0.5011206694
 10
-21.2334736797
 20
0.4750244848
 10
-21.2283648183
 20
0.4493746309
 10
-21.2199525194
 20
0.4246098133
 10
-21.2083806613
 20
0.4011536013
 10
-21.1938471615
 20
0.3794071818
 10
-21.1766005912
 20
0.3597424974
 10
-21.1569359252
 20
0.3424958874
 10
-21.1351894995
 20
0.3279623366
 10
-21.1117332587
 20
0.3163904267
 10
-21.0869683907
 20
0.307978083
 10
-21.0613184643
 20
0.3028691896
 10
-21.0352221877
 20
0.3011511304
  0
LWPOLYLINE
  5
31D
100
AcDbEntity
  8
ASSI
100
AcDbPolyline
 62
7
  6
CONTINUOUS
 90
16
 70
0
 10
-21.7483591837
 20
2.887907521
 10
-21.7456624719
 20
2.8360308738
 10
-21.7375541154
 20
2.7844998546
 10
-21.7240548189
 20
2.7338857175
 10
-21.7051666022
 20
2.6845800617
 10
-21.6810757046
 20
2.6373515016
 10
-21.6523392027
 20
2.5932437924
 10
-21.6196734699
 20
2.5530138456
 10
-21.5832954796
 20
2.5166335887
 10
-21.5430671805
 20
2.4839665232
 10
-21.4989613183
 20
2.4552297855
 10
-21.4517340551
 20
2.4311395591
 10
-21.4024249672
 20
2.4122545349
 10
-21.351801088
 20
2.398762202
 10
-21.3002553815
 20
2.3906648093
 10
-21.2483592483
 20
2.3879837438
  0
LINE
  5
31E
100
AcDbEntity
  8
ASSI
100
AcDbLine
 62
7
  6
CONTINUOUS
 10
-21.7745451052
 20
6.3653339427
 11
-21.7483591837
 21
5.7879836735
  0
LINE
  5
31F
100
AcDbEntity
  8
ASSI
100
AcDbLine
 62
253
  6
CONTINUOUS
 10
-21.0348010427
 20
1.1601524571
 11
-21.0500742246
 21
1.6653339427
  0
LINE
  5
320
100
AcDbEntity
  8
ASSI
100
AcDbLine
 62
253
  6
CONTINUOUS
 10
-21.2347294077
 20
0.9854755785
 11
-21.2483591837
 21
1.4364090653
  0
LINE
  5
321
100
AcDbEntity
  8
ASSI
100
AcDbLine
 62
253
  6
CONTINUOUS
 10
-21.2346541404
 20
0.9823363603
 11
-21.2347294077
 21
0.9854755785
  0
LINE
  5
322
100
AcDbEntity
  8
ASSI
100
AcDbLine
 62
253
  6
CONTINUOUS
 10
-21.2345589414
 20
0.9771384768
 11
-21.2346541404
 21
0.9823363603
  0
LINE
  5
323
100
AcDbEntity
  8
ASSI
100
AcDbLine
 62
253
  6
CONTINUOUS
 10
-21.2344623573
 20
0.969733382
 11
-21.2345589414
 21
0.9771384768
  0
LINE
  5
324
100
AcDbEntity
  8
ASSI
100
AcDbLine
 62
253
  6
CONTINUOUS
 10
-21.2343729575
 20
0.9583861985
 11
-21.2344623573
 21
0.969733382
  0
LINE
  5
325
100
AcDbEntity
  8
ASSI
100
AcDbLine
 62
253
  6
CONTINUOUS
 10
-21.2343347675
 20
0.9454782035
 11
-21.2343729575
 21
0.9583861985
  0
LINE
  5
326
100
AcDbEntity
  8
0
100
AcDbLine
 62
7
  6
CONTINUOUS
 10
-21.7983591837
 20
42.4596827222
 11
-21.7983591837
 21
7.1162846248
  0
LINE
  5
327
100
AcDbEntity
  8
RACCORDO
100
AcDbLine
 62
7
  6
CONTINUOUS
 10
-21.7983591837
 20
42.4596827222
 11
-21.7983591837
 21
7.1162846248
  0
LINE
  5
328
100
AcDbEntity
  8
DRAFT
100
AcDbLine
 62
7
  6
CONTINUOUS
 10
-21.7745451052
 20
43.2106334043
 11
-21.7745451052
 21
42.7555854397
  0
LINE
  5
329
100
AcDbEntity
  8
DRAFT
100
AcDbLine
 62
7
  6
CONTINUOUS
 10
-21.7745451052
 20
6.8203819073
 11
-21.7745451052
 21
6.3653339427
  0
LINE
  5
32A
100
AcDbEntity
  8
ASSI
100
AcDbLine
 62
7
  6
CONTINUOUS
 10
-21.7483591837
 20
46.6879834383
 11
-21.7483591837
 21
43.7879836735
  0
LINE
  5
32B
100
AcDbEntity
  8
ASSI
100
AcDbLine
 62
7
  6
CONTINUOUS
 10
-21.7483591837
 20
2.8879839086
 11
-21.7483591837
 21
5.7879836735
  0
LINE
  5
32C
100
AcDbEntity
  8
ASSI
100
AcDbLine
 62
7
  6
CONTINUOUS
 10
-21.7309041187
 20
2.905362586
 11
-21.7309041187
 21
6.3653339427
  0
LINE
  5
32D
100
AcDbEntity
  8
ASSI
100
AcDbLine
 62
7
  6
CONTINUOUS
 10
-21.7309041187
 20
43.2106334043
 11
-21.7309041187
 21
46.670604761
  0
LINE
  5
32E
100
AcDbEntity
  8
0
100
AcDbLine
 62
7
  6
CONTINUOUS
 10
-21.6761737292
 20
42.4090718498
 11
-21.6761737292
 21
7.1668954971
  0
LINE
  5
32F
100
AcDbEntity
  8
RACCORDO
100
AcDbLine
 62
7
  6
CONTINUOUS
 10
-21.6761737292
 20
42.4090718498
 11
-21.6761737292
 21
7.1668954971
  0
LINE
  5
330
100
AcDbEntity
  8
RACCORDO
100
AcDbLine
 62
7
  6
CONTINUOUS
 10
-21.6614494854
 20
42.7792080636
 11
-21.6614494854
 21
6.7967592834
  0
LINE
  5
331
100
AcDbEntity
  8
ASSI
100
AcDbLine
 62
7
  6
CONTINUOUS
 10
-21.6614494854
 20
42.7792080636
 11
-21.6614494854
 21
6.7967592834
  0
LINE
  5
332
100
AcDbEntity
  8
ASSI
100
AcDbLine
 62
7
  6
CONTINUOUS
 10
-21.2483591837
 20
0.4879532125
 11
-21.2483592483
 21
2.3879837438
  0
LINE
  5
333
100
AcDbEntity
  8
ASSI
100
AcDbLine
 62
7
  6
CONTINUOUS
 10
-21.2483591837
 20
47.1879836735
 11
-21.2483591837
 21
49.0880141344
  0
LINE
  5
334
100
AcDbEntity
  8
ASSI
100
AcDbLine
 62
253
  6
CONTINUOUS
 10
-21.234339694
 20
48.626848236
 11
-21.2343450304
 21
49.0327043199
  0
LINE
  5
335
100
AcDbEntity
  8
ASSI
100
AcDbLine
 62
253
  6
CONTINUOUS
 10
-21.234340212
 20
0.5452631459
 11
-21.2343347675
 21
0.9454782035
  0
LINE
  5
336
100
AcDbEntity
  8
ASSI
100
AcDbLine
 62
253
  6
CONTINUOUS
 10
-21.2343904279
 20
48.6146566884
 11
-21.234339694
 21
48.626848236
  0
LINE
  5
337
100
AcDbEntity
  8
ASSI
100
AcDbLine
 62
253
  6
CONTINUOUS
 10
-21.2344793075
 20
48.6047135582
 11
-21.2343904279
 21
48.6146566884
  0
LINE
  5
338
100
AcDbEntity
  8
ASSI
100
AcDbLine
 62
253
  6
CONTINUOUS
 10
-21.2345671415
 20
48.598312536
 11
-21.2344793075
 21
48.6047135582
  0
LINE
  5
339
100
AcDbEntity
  8
ASSI
100
AcDbLine
 62
253
  6
CONTINUOUS
 10
-21.2346644743
 20
48.5931526254
 11
-21.2345671415
 21
48.598312536
  0
LINE
  5
33A
100
AcDbEntity
  8
ASSI
100
AcDbLine
 62
253
  6
CONTINUOUS
 10
-21.2347431687
 20
48.5899638959
 11
-21.2346644743
 21
48.5931526254
  0
LINE
  5
33B
100
AcDbEntity
  8
ASSI
100
AcDbLine
 62
253
  6
CONTINUOUS
 10
-21.2483591837
 20
48.1395582816
 11
-21.2347431687
 21
48.5899638959
  0
LINE
  5
33C
100
AcDbEntity
  8
ASSI
100
AcDbLine
 62
253
  6
CONTINUOUS
 10
-21.0500742246
 20
47.9106334043
 11
-21.0348010452
 21
48.4158148096
  0
LINE
  5
33D
100
AcDbEntity
  8
ASSI
100
AcDbLine
 62
7
  6
CONTINUOUS
 10
-21.7483591837
 20
43.7879836735
 11
-21.7745451052
 21
43.2106334043
  0
LWPOLYLINE
  5
33E
100
AcDbEntity
  8
ASSI
100
AcDbPolyline
 62
7
  6
CONTINUOUS
 90
16
 70
0
 10
-21.7483591837
 20
46.6879834383
 10
-21.7456629009
 20
46.7398934643
 10
-21.7375557443
 20
46.7914448802
 10
-21.7240592213
 20
46.8420680261
 10
-21.7051763118
 20
46.8913687276
 10
-21.6810941
 20
46.9385846294
 10
-21.6523671169
 20
46.9826852759
 10
-21.61970678
 20
47.0229174116
 10
-21.5833295462
 20
47.0593032251
 10
-21.5430999527
 20
47.0919769188
 10
-21.4989908092
 20
47.1207202879
 10
-21.4517573522
 20
47.1448167347
 10
-21.4024417531
 20
47.163707381
 10
-21.3518120892
 20
47.1772041921
 10
-21.300260646
 20
47.1853036632
 10
-21.2483591839
 20
47.18798341
  0
LWPOLYLINE
  5
33F
100
AcDbEntity
  8
ASSI
100
AcDbPolyline
 62
253
  6
CONTINUOUS
 90
13
 70
0
 10
-21.2351917268
 20
49.0748466775
 10
-21.2334736735
 20
49.100942909
 10
-21.2283647959
 20
49.1265927996
 10
-21.2199524743
 20
49.1513576425
 10
-21.2083805903
 20
49.1748138685
 10
-21.1938470652
 20
49.1965602905
 10
-21.1766004755
 20
49.2162249653
 10
-21.1569358007
 20
49.233471555
 10
-21.1351893787
 20
49.2480050801
 10
-21.1117331527
 20
49.2595769641
 10
-21.0869683098
 20
49.2679892857
 10
-21.0613184192
 20
49.2730981633
 10
-21.0352221877
 20
49.2748162166
  0
LINE
  5
340
100
AcDbEntity
  8
0
100
AcDbLine
 62
7
  6
CONTINUOUS
 10
-7.1483591837
 20
44.6879836735
 11
-7.18501482
 21
44.6513280371
  0
LINE
  5
341
100
AcDbEntity
  8
DRAFT
100
AcDbLine
 62
7
  6
CONTINUOUS
 10
-7.1483591837
 20
44.6879836735
 11
-7.18501482
 21
44.6513280371
  0
LINE
  5
342
100
AcDbEntity
  8
0
100
AcDbLine
 62
7
  6
CONTINUOUS
 10
-7.1483591837
 20
44.4879836735
 11
-7.18501482
 21
44.4513280371
  0
LINE
  5
343
100
AcDbEntity
  8
DRAFT
100
AcDbLine
 62
7
  6
CONTINUOUS
 10
-7.1483591837
 20
44.4879836735
 11
-7.18501482
 21
44.4513280371
  0
LINE
  5
344
100
AcDbEntity
  8
0
100
AcDbLine
 62
253
  6
CONTINUOUS
 10
0.5016408163
 20
42.4596827222
 11
0.3794553618
 21
42.4090718498
  0
LINE
  5
345
100
AcDbEntity
  8
RACCORDO
100
AcDbLine
 62
253
  6
CONTINUOUS
 10
0.5016408163
 20
42.4596827222
 11
0.3794553618
 21
42.4090718498
  0
LINE
  5
346
100
AcDbEntity
  8
SMUSSO
100
AcDbLine
 62
7
  6
CONTINUOUS
 10
-14.8983591837
 20
12.5379836735
 11
-10.8983591837
 21
12.5379836735
  0
LINE
  5
347
100
AcDbEntity
  8
ASSI
100
AcDbLine
 62
7
  6
CONTINUOUS
 10
-14.8983591837
 20
12.5379836735
 11
-10.8983591837
 21
12.5379836735
  0
LINE
  5
348
100
AcDbEntity
  8
CURVE
100
AcDbLine
 62
253
  6
CONTINUOUS
 10
-20.5769306344
 20
12.680840772
 11
-20.762644909
 21
12.680840772
  0
LINE
  5
349
100
AcDbEntity
  8
RACCORDO
100
AcDbLine
 62
7
  6
CONTINUOUS
 10
0.0647196945
 20
12.9379836735
 11
-0.8483591837
 21
12.9379836735
  0
LINE
  5
34A
100
AcDbEntity
  8
ASSI
100
AcDbLine
 62
7
  6
CONTINUOUS
 10
0.0647196945
 20
12.9379836735
 11
-0.8483591837
 21
12.9379836735
  0
LINE
  5
34B
100
AcDbEntity
  8
SMUSSO
100
AcDbLine
 62
7
  6
CONTINUOUS
 10
-15.3983591837
 20
13.0379836735
 11
-10.3983591837
 21
13.0379836735
  0
LINE
  5
34C
100
AcDbEntity
  8
ASSI
100
AcDbLine
 62
7
  6
CONTINUOUS
 10
-15.3983591837
 20
13.0379836735
 11
-10.3983591837
 21
13.0379836735
  0
LINE
  5
34D
100
AcDbEntity
  8
CURVE
100
AcDbLine
 62
253
  6
CONTINUOUS
 10
-20.0197877717
 20
13.0522693213
 11
-20.5769306344
 21
13.0522693213
  0
LINE
  5
34E
100
AcDbEntity
  8
CURVE
100
AcDbLine
 62
253
  6
CONTINUOUS
 10
0.403658021
 20
13.2165552315
 11
0.413132184
 21
13.2165552315
  0
LINE
  5
34F
100
AcDbEntity
  8
SMUSSO
100
AcDbLine
 62
7
  6
CONTINUOUS
 10
-10.3983591837
 20
13.5379836735
 11
-15.3983591837
 21
13.5379836735
  0
LINE
  5
350
100
AcDbEntity
  8
ASSI
100
AcDbLine
 62
7
  6
CONTINUOUS
 10
-10.3983591837
 20
13.5379836735
 11
-15.3983591837
 21
13.5379836735
  0
LINE
  5
351
100
AcDbEntity
  8
RACCORDO
100
AcDbLine
 62
7
  6
CONTINUOUS
 10
0.0647196945
 20
13.6379836735
 11
-0.8483591837
 21
13.6379836735
  0
LINE
  5
352
100
AcDbEntity
  8
ASSI
100
AcDbLine
 62
7
  6
CONTINUOUS
 10
0.0647196945
 20
13.6379836735
 11
-0.8483591837
 21
13.6379836735
  0
LINE
  5
353
100
AcDbEntity
  8
CURVE
100
AcDbLine
 62
253
  6
CONTINUOUS
 10
-20.5769306344
 20
13.7022693213
 11
-20.0197877717
 21
13.7022693213
  0
LINE
  5
354
100
AcDbEntity
  8
SMUSSO
100
AcDbLine
 62
7
  6
CONTINUOUS
 10
-10.8983591837
 20
14.0379836735
 11
-14.8983591837
 21
14.0379836735
  0
LINE
  5
355
100
AcDbEntity
  8
ASSI
100
AcDbLine
 62
7
  6
CONTINUOUS
 10
-10.8983591837
 20
14.0379836735
 11
-14.8983591837
 21
14.0379836735
  0
LINE
  5
356
100
AcDbEntity
  8
CURVE
100
AcDbLine
 62
253
  6
CONTINUOUS
 10
0.413132184
 20
14.1665552315
 11
0.403658021
 21
14.1665552315
  0
LINE
  5
357
100
AcDbEntity
  8
0
100
AcDbLine
 62
253
  6
CONTINUOUS
 10
0.3794553618
 20
7.1668954971
 11
0.5016408163
 21
7.1162846248
  0
LINE
  5
358
100
AcDbEntity
  8
RACCORDO
100
AcDbLine
 62
253
  6
CONTINUOUS
 10
0.3794553618
 20
7.1668954971
 11
0.5016408163
 21
7.1162846248
  0
LWPOLYLINE
  5
359
100
AcDbEntity
  8
ASSI
100
AcDbPolyline
 62
7
  6
CONTINUOUS
 90
10
 70
0
 10
-2.1017361539
 20
1.1601524571
 10
-2.0824232871
 20
1.1418597746
 10
-2.0617005
 20
1.1209181147
 10
-2.0395677927
 20
1.0979840959
 10
-2.0157264028
 20
1.0738459218
 10
-1.9904750927
 20
1.0489182123
 10
-1.964710149
 20
1.0231264522
 10
-1.9387303339
 20
0.996655041
 10
-1.9122368852
 20
0.9700498107
 10
-1.885229803
 20
0.9436461062
  0
LINE
  5
35A
100
AcDbEntity
  8
SMUSSO
100
AcDbLine
 62
7
  6
CONTINUOUS
 10
-15.3983591837
 20
13.0379836735
 11
-14.8983591837
 21
12.5379836735
  0
LINE
  5
35B
100
AcDbEntity
  8
ASSI
100
AcDbLine
 62
7
  6
CONTINUOUS
 10
-15.3983591837
 20
13.0379836735
 11
-14.8983591837
 21
12.5379836735
  0
LINE
  5
35C
100
AcDbEntity
  8
CURVE
100
AcDbLine
 62
253
  6
CONTINUOUS
 10
-20.9483591837
 20
18.6856030163
 11
-20.669787733
 21
18.4070314106
  0
LINE
  5
35D
100
AcDbEntity
  8
0
100
AcDbLine
 62
7
  6
CONTINUOUS
 10
-7.18501482
 20
4.9246393098
 11
-7.1483591837
 21
4.8879836735
  0
LINE
  5
35E
100
AcDbEntity
  8
DRAFT
100
AcDbLine
 62
7
  6
CONTINUOUS
 10
-7.18501482
 20
4.9246393098
 11
-7.1483591837
 21
4.8879836735
  0
LINE
  5
35F
100
AcDbEntity
  8
0
100
AcDbLine
 62
7
  6
CONTINUOUS
 10
-7.1483591837
 20
5.0879836735
 11
-7.18501482
 21
5.1246393098
  0
LINE
  5
360
100
AcDbEntity
  8
DRAFT
100
AcDbLine
 62
7
  6
CONTINUOUS
 10
-7.1483591837
 20
5.0879836735
 11
-7.18501482
 21
5.1246393098
  0
LINE
  5
361
100
AcDbEntity
  8
SMUSSO
100
AcDbLine
 62
7
  6
CONTINUOUS
 10
-10.3983591837
 20
8.5379836735
 11
-10.8983591837
 21
9.0379836735
  0
LINE
  5
362
100
AcDbEntity
  8
ASSI
100
AcDbLine
 62
7
  6
CONTINUOUS
 10
-10.3983591837
 20
8.5379836735
 11
-10.8983591837
 21
9.0379836735
  0
LINE
  5
363
100
AcDbEntity
  8
CURVE
100
AcDbLine
 62
253
  6
CONTINUOUS
 10
-17.7340735179
 20
16.2379836735
 11
-17.462644906
 21
15.9665551182
  0
LINE
  5
364
100
AcDbEntity
  8
CURVE
100
AcDbLine
 62
253
  6
CONTINUOUS
 10
-20.762644909
 20
19.3356030163
 11
-20.9483591837
 21
19.5213172134
  0
LINE
  5
365
100
AcDbEntity
  8
CURVE
100
AcDbLine
 62
253
  6
CONTINUOUS
 10
-19.6483591837
 20
18.6856030163
 11
-19.8340734777
 21
18.8713172134
  0
LINE
  5
366
100
AcDbEntity
  8
CURVE
100
AcDbLine
 62
253
  6
CONTINUOUS
 10
-19.9578829941
 20
15.6522694763
 11
-20.0507401508
 21
15.8998885092
  0
LWPOLYLINE
  5
367
100
AcDbEntity
  8
ASSI
100
AcDbPolyline
 62
253
  6
CONTINUOUS
 90
4
 70
0
 10
-18.0614961796
 20
0.3011511304
 10
-18.0615383581
 20
0.3016503275
 10
-18.0615813489
 20
0.3027671432
 10
-18.0616251519
 20
0.3045507882
  0
LWPOLYLINE
  5
368
100
AcDbEntity
  8
ASSI
100
AcDbPolyline
 62
253
  6
CONTINUOUS
 90
9
 70
0
 10
-21.2347996736
 20
49.0690750817
 10
-21.2348456338
 20
49.0703669909
 10
-21.2348926529
 20
49.0714992808
 10
-21.2349407395
 20
49.0724705082
 10
-21.2349898851
 20
49.0732821163
 10
-21.2350396051
 20
49.0739263162
 10
-21.235089738
 20
49.0744005115
 10
-21.2351404452
 20
49.0747072987
 10
-21.2351917268
 20
49.0748466775
  0
LINE
  5
369
100
AcDbEntity
  8
ASSI
100
AcDbLine
 62
7
  6
CONTINUOUS
 10
-21.7483591837
 20
43.7879836735
 11
-21.7309041187
 21
43.2106334043
  0
LINE
  5
36A
100
AcDbEntity
  8
ASSI
100
AcDbLine
 62
7
  6
CONTINUOUS
 10
-19.9351917268
 20
1.2298022029
 11
-19.9483591837
 21
1.6653339427
  0
LINE
  5
36B
100
AcDbEntity
  8
ASSI
100
AcDbLine
 62
253
  6
CONTINUOUS
 10
-21.2347123234
 20
49.066047518
 11
-21.2347996736
 21
49.0690750817
  0
LINE
  5
36C
100
AcDbEntity
  8
ASSI
100
AcDbLine
 62
253
  6
CONTINUOUS
 10
-21.234631481
 20
49.062444558
 11
-21.2347123234
 21
49.066047518
  0
LWPOLYLINE
  5
36D
100
AcDbEntity
  8
ASSI
100
AcDbPolyline
 62
253
  6
CONTINUOUS
 90
4
 70
0
 10
-21.0350699423
 20
49.2702155038
 10
-21.0351200962
 20
49.2725981643
 10
-21.0351708447
 20
49.2741335414
 10
-21.0352221877
 20
49.2748162166
  0
LINE
  5
36E
100
AcDbEntity
  8
ASSI
100
AcDbLine
 62
253
  6
CONTINUOUS
 10
-21.2345251699
 20
49.0560685841
 11
-21.234631481
 21
49.062444558
  0
LINE
  5
36F
100
AcDbEntity
  8
ASSI
100
AcDbLine
 62
253
  6
CONTINUOUS
 10
-21.034971112
 20
49.2629455645
 11
-21.0350699423
 21
49.2702155038
  0
LINE
  5
370
100
AcDbEntity
  8
ASSI
100
AcDbLine
 62
253
  6
CONTINUOUS
 10
-21.2344173023
 20
49.0461435932
 11
-21.2345251699
 21
49.0560685841
  0
LINE
  5
371
100
AcDbEntity
  8
ASSI
100
AcDbLine
 62
253
  6
CONTINUOUS
 10
-21.0347856393
 20
49.2387649721
 11
-21.034971112
 21
49.2629455645
  0
LINE
  5
372
100
AcDbEntity
  8
ASSI
100
AcDbLine
 62
253
  6
CONTINUOUS
 10
-21.2343450304
 20
49.0327043199
 11
-21.2344173023
 21
49.0461435932
  0
LINE
  5
373
100
AcDbEntity
  8
ASSI
100
AcDbLine
 62
253
  6
CONTINUOUS
 10
-21.0344266838
 20
1.0361792968
 11
-21.0348010427
 21
1.1601524571
  0
LINE
  5
374
100
AcDbEntity
  8
ASSI
100
AcDbLine
 62
253
  6
CONTINUOUS
 10
-21.0343959058
 20
49.0911096388
 11
-21.0347856393
 21
49.2387649721
  0
LINE
  5
375
100
AcDbEntity
  8
ASSI
100
AcDbLine
 62
253
  6
CONTINUOUS
 10
-21.0343940788
 20
1.0079819007
 11
-21.0344266838
 21
1.0361792968
  0
LINE
  5
376
100
AcDbEntity
  8
ASSI
100
AcDbLine
 62
253
  6
CONTINUOUS
 10
-21.034369959
 20
0.9711388768
 11
-21.0343940788
 21
1.0079819007
  0
LINE
  5
377
100
AcDbEntity
  8
ASSI
100
AcDbLine
 62
253
  6
CONTINUOUS
 10
-21.0343646661
 20
0.9436459425
 11
-21.034369959
 21
0.9711388768
  0
LINE
  5
378
100
AcDbEntity
  8
CURVE
100
AcDbLine
 62
253
  6
CONTINUOUS
 10
-21.0233591837
 20
25.4754836735
 11
-21.0233591837
 21
25.3504836735
  0
LINE
  5
379
100
AcDbEntity
  8
CURVE
100
AcDbLine
 62
253
  6
CONTINUOUS
 10
-20.9483591837
 20
12.4951264974
 11
-20.9483591837
 21
12.2165551242
  0
LINE
  5
37A
100
AcDbEntity
  8
CURVE
100
AcDbLine
 62
253
  6
CONTINUOUS
 10
-20.9483591837
 20
13.330840772
 11
-20.9483591837
 21
13.4236980256
  0
LINE
  5
37B
100
AcDbEntity
  8
CURVE
100
AcDbLine
 62
253
  6
CONTINUOUS
 10
-20.9483591837
 20
19.5213172134
 11
-20.9483591837
 21
19.6141740021
  0
LINE
  5
37C
100
AcDbEntity
  8
CURVE
100
AcDbLine
 62
253
  6
CONTINUOUS
 10
-20.5769306344
 20
21.2856030163
 11
-20.5769306344
 21
21.8427449879
  0
LINE
  5
37D
100
AcDbEntity
  8
RACCORDO
100
AcDbLine
 62
7
  6
CONTINUOUS
 10
-20.4457411233
 20
44.3142915481
 11
-20.4457411233
 21
44.3906020158
  0
LINE
  5
37E
100
AcDbEntity
  8
ASSI
100
AcDbLine
 62
7
  6
CONTINUOUS
 10
-20.4457411233
 20
44.3142915481
 11
-20.4457411233
 21
44.3906020158
  0
LINE
  5
37F
100
AcDbEntity
  8
CURVE
100
AcDbLine
 62
253
  6
CONTINUOUS
 10
-20.3912163597
 20
18.6856030163
 11
-20.3912163597
 21
18.2832217392
  0
LINE
  5
380
100
AcDbEntity
  8
CURVE
100
AcDbLine
 62
253
  6
CONTINUOUS
 10
-20.3912163597
 20
20.2641740021
 11
-20.3912163597
 21
20.9141740021
  0
LINE
  5
381
100
AcDbEntity
  8
CURVE
100
AcDbLine
 62
253
  6
CONTINUOUS
 10
-20.2733591837
 20
25.4129836735
 11
-20.2733591837
 21
25.4754836735
  0
LINE
  5
382
100
AcDbEntity
  8
ASSI
100
AcDbLine
 62
7
  6
CONTINUOUS
 10
-19.9483591837
 20
1.6653339427
 11
-19.9483591837
 21
2.3879836735
  0
LINE
  5
383
100
AcDbEntity
  8
ASSI
100
AcDbLine
 62
7
  6
CONTINUOUS
 10
-19.9483591837
 20
47.1879836735
 11
-19.9483591837
 21
47.9106334043
  0
LINE
  5
384
100
AcDbEntity
  8
ASSI
100
AcDbLine
 62
253
  6
CONTINUOUS
 10
-19.9351917268
 20
1.2298022029
 11
-19.9351917268
 21
2.4011511304
  0
LINE
  5
385
100
AcDbEntity
  8
ASSI
100
AcDbLine
 62
253
  6
CONTINUOUS
 10
-19.9351917268
 20
47.1748162166
 11
-19.9351917268
 21
48.3461651441
  0
LINE
  5
386
100
AcDbEntity
  8
ASSI
100
AcDbLine
 62
253
  6
CONTINUOUS
 10
-19.685229803
 20
0.9436461062
 11
-19.685229803
 21
2.4054387384
  0
LINE
  5
387
100
AcDbEntity
  8
ASSI
100
AcDbLine
 62
253
  6
CONTINUOUS
 10
-19.685229803
 20
47.1705286085
 11
-19.685229803
 21
48.6323212408
  0
LINE
  5
388
100
AcDbEntity
  8
CURVE
100
AcDbLine
 62
253
  6
CONTINUOUS
 10
-19.6483591837
 20
19.6141740021
 11
-19.6483591837
 21
19.5213172134
  0
LINE
  5
389
100
AcDbEntity
  8
CURVE
100
AcDbLine
 62
253
  6
CONTINUOUS
 10
-19.6483591837
 20
13.4236980256
 11
-19.6483591837
 21
13.330840772
  0
LINE
  5
38A
100
AcDbEntity
  8
CURVE
100
AcDbLine
 62
253
  6
CONTINUOUS
 10
-19.6483591837
 20
12.680840772
 11
-19.6483591837
 21
12.0308408495
  0
LINE
  5
38B
100
AcDbEntity
  8
CURVE
100
AcDbLine
 62
253
  6
CONTINUOUS
 10
-19.6483591837
 20
18.4070314106
 11
-19.6483591837
 21
18.6856030163
  0
LINE
  5
38C
100
AcDbEntity
  8
CURVE
100
AcDbLine
 62
253
  6
CONTINUOUS
 10
-19.6483591837
 20
21.2856030163
 11
-19.6483591837
 21
21.8427449879
  0
LINE
  5
38D
100
AcDbEntity
  8
ASSI
100
AcDbLine
 62
253
  6
CONTINUOUS
 10
-19.4114885644
 20
0.9436461062
 11
-19.4114885644
 21
2.4054387384
  0
LINE
  5
38E
100
AcDbEntity
  8
ASSI
100
AcDbLine
 62
253
  6
CONTINUOUS
 10
-19.4114885644
 20
47.1705286085
 11
-19.4114885644
 21
48.6323212408
  0
LINE
  5
38F
100
AcDbEntity
  8
ASSI
100
AcDbLine
 62
253
  6
CONTINUOUS
 10
-21.0346212259
 20
48.4552739542
 11
-21.0343959058
 21
49.0911096388
  0
LINE
  5
390
100
AcDbEntity
  8
ASSI
100
AcDbLine
 62
253
  6
CONTINUOUS
 10
-21.0346808041
 20
0.3585723453
 11
-21.0343646661
 21
0.9436459425
  0
LINE
  5
391
100
AcDbEntity
  8
ASSI
100
AcDbLine
 62
253
  6
CONTINUOUS
 10
-21.0348010432
 20
48.4158148096
 11
-21.0346212259
 21
48.4552739542
  0
LINE
  5
392
100
AcDbEntity
  8
ASSI
100
AcDbLine
 62
253
  6
CONTINUOUS
 10
-21.234387407
 20
0.5339231142
 11
-21.234340212
 21
0.5452631459
  0
LINE
  5
393
100
AcDbEntity
  8
ASSI
100
AcDbLine
 62
253
  6
CONTINUOUS
 10
-21.0348981859
 20
0.3207855516
 11
-21.0346808041
 21
0.3585723453
  0
LINE
  5
394
100
AcDbEntity
  8
ASSI
100
AcDbLine
 62
253
  6
CONTINUOUS
 10
-21.234479408
 20
0.5234984073
 11
-21.234387407
 21
0.5339231142
  0
LINE
  5
395
100
AcDbEntity
  8
ASSI
100
AcDbLine
 62
253
  6
CONTINUOUS
 10
-21.234575166
 20
0.5166206907
 11
-21.234479408
 21
0.5234984073
  0
LINE
  5
396
100
AcDbEntity
  8
ASSI
100
AcDbLine
 62
253
  6
CONTINUOUS
 10
-21.2346502996
 20
0.5126039157
 11
-21.234575166
 21
0.5166206907
  0
LINE
  5
397
100
AcDbEntity
  8
ASSI
100
AcDbLine
 62
253
  6
CONTINUOUS
 10
-21.2347331818
 20
0.5091257053
 11
-21.2346502996
 21
0.5126039157
  0
LINE
  5
398
100
AcDbEntity
  8
ASSI
100
AcDbLine
 62
7
  6
CONTINUOUS
 10
-21.7309041187
 20
6.3653339427
 11
-21.7483591837
 21
5.7879836735
  0
LINE
  5
399
100
AcDbEntity
  8
ASSI
100
AcDbLine
 62
7
  6
CONTINUOUS
 10
-19.9483591837
 20
47.9106334043
 11
-19.9351917268
 21
48.3461651441
  0
LINE
  5
39A
100
AcDbEntity
  8
CURVE
100
AcDbLine
 62
253
  6
CONTINUOUS
 10
-20.9608591837
 20
25.7254836735
 11
-21.0233591837
 21
25.4754836735
  0
LINE
  5
39B
100
AcDbEntity
  8
CURVE
100
AcDbLine
 62
253
  6
CONTINUOUS
 10
-20.8983591837
 20
25.9129836735
 11
-20.9608591837
 21
25.7254836735
  0
LINE
  5
39C
100
AcDbEntity
  8
CURVE
100
AcDbLine
 62
253
  6
CONTINUOUS
 10
-20.3358591837
 20
25.2254836735
 11
-20.2733591837
 21
25.4129836735
  0
LINE
  5
39D
100
AcDbEntity
  8
CURVE
100
AcDbLine
 62
253
  6
CONTINUOUS
 10
-20.8358591837
 20
26.0379836735
 11
-20.8983591837
 21
25.9129836735
  0
LINE
  5
39E
100
AcDbEntity
  8
CURVE
100
AcDbLine
 62
253
  6
CONTINUOUS
 10
-20.3983591837
 20
25.1004836735
 11
-20.3358591837
 21
25.2254836735
  0
LWPOLYLINE
  5
39F
100
AcDbEntity
  8
ASSI
100
AcDbPolyline
 62
7
  6
CONTINUOUS
 90
10
 70
0
 10
-2.1017361539
 20
48.4158148898
 10
-2.0834434714
 20
48.4351277566
 10
-2.0625018115
 20
48.4558505437
 10
-2.0395677927
 20
48.477983251
 10
-2.0154296186
 20
48.5018246409
 10
-1.9905019091
 20
48.527075951
 10
-1.964710149
 20
48.5528408947
 10
-1.9382387378
 20
48.5788207098
 10
-1.9116335075
 20
48.6053141585
 10
-1.885229803
 20
48.6323212408
  0
LINE
  5
3A0
100
AcDbEntity
  8
ASSI
100
AcDbLine
 62
253
  6
CONTINUOUS
 10
-0.2483287227
 20
49.2879836735
 11
-0.2614961796
 21
49.2748162166
  0
LINE
  5
3A1
100
AcDbEntity
  8
ASSI
100
AcDbLine
 62
253
  6
CONTINUOUS
 10
-0.0483591837
 20
49.0880141344
 11
-0.0615266406
 21
49.0748466775
  0
LINE
  5
3A2
100
AcDbEntity
  8
0
100
AcDbLine
 62
7
  6
CONTINUOUS
 10
-4.0610905058
 20
44.5752523514
 11
-4.1483591837
 21
44.4879836735
  0
LINE
  5
3A3
100
AcDbEntity
  8
ASSI
100
AcDbLine
 62
7
  6
CONTINUOUS
 10
-1.3483591837
 20
47.1879836735
 11
-1.3615266406
 21
47.1748162166
  0
LINE
  5
3A4
100
AcDbEntity
  8
0
100
AcDbLine
 62
7
  6
CONTINUOUS
 10
-14.1883591837
 20
14.2879836735
 11
-11.2483591837
 21
14.2879836735
  0
LINE
  5
3A5
100
AcDbEntity
  8
CURVE
100
AcDbLine
 62
7
  6
CONTINUOUS
 10
0.475191365
 20
14.6562036193
 11
0.471672848
 21
14.6562036193
  0
LINE
  5
3A6
100
AcDbEntity
  8
CURVE
100
AcDbLine
 62
253
  6
CONTINUOUS
 10
0.3870782342
 20
14.7094121155
 11
0.3989209386
 21
14.7094121155
  0
LINE
  5
3A7
100
AcDbEntity
  8
CURVE
100
AcDbLine
 62
253
  6
CONTINUOUS
 10
0.4060265608
 20
14.7546504911
 11
0.413132184
 21
14.7546504911
  0
LINE
  5
3A8
100
AcDbEntity
  8
CURVE
100
AcDbLine
 62
7
  6
CONTINUOUS
 10
0.4247114092
 20
15.0876216735
 11
0.4754612452
 21
15.0876216735
  0
LINE
  5
3A9
100
AcDbEntity
  8
CURVE
100
AcDbLine
 62
253
  6
CONTINUOUS
 10
-16.6483591837
 20
15.2879836735
 11
-18.5483591837
 21
15.2879836735
  0
LINE
  5
3AA
100
AcDbEntity
  8
CURVE
100
AcDbLine
 62
7
  6
CONTINUOUS
 10
0.4477579899
 20
15.2892586735
 11
0.4247114092
 21
15.2892586735
  0
LINE
  5
3AB
100
AcDbEntity
  8
CURVE
100
AcDbLine
 62
7
  6
CONTINUOUS
 10
0.4701797823
 20
15.2892586735
 11
0.4512765048
 21
15.2892586735
  0
LINE
  5
3AC
100
AcDbEntity
  8
CURVE
100
AcDbLine
 62
7
  6
CONTINUOUS
 10
0.4512765048
 20
16.0101946735
 11
0.4477579899
 21
16.0101946735
  0
LINE
  5
3AD
100
AcDbEntity
  8
CURVE
100
AcDbLine
 62
253
  6
CONTINUOUS
 10
-20.669787733
 20
18.4070314106
 11
-20.2983591837
 21
18.2213172134
  0
LINE
  5
3AE
100
AcDbEntity
  8
CURVE
100
AcDbLine
 62
253
  6
CONTINUOUS
 10
-20.5769306344
 20
19.2427456077
 11
-20.762644909
 21
19.3356030163
  0
LINE
  5
3AF
100
AcDbEntity
  8
CURVE
100
AcDbLine
 62
253
  6
CONTINUOUS
 10
-19.8340734777
 20
19.7998881992
 11
-19.6483591837
 21
19.6141740021
  0
LINE
  5
3B0
100
AcDbEntity
  8
ASSI
100
AcDbLine
 62
253
  6
CONTINUOUS
 10
-0.2614961796
 20
0.3011511304
 11
-0.2483287227
 21
0.2879836735
  0
LINE
  5
3B1
100
AcDbEntity
  8
ASSI
100
AcDbLine
 62
253
  6
CONTINUOUS
 10
-0.0615266406
 20
0.5011206694
 11
-0.0483591837
 21
0.4879532125
  0
LINE
  5
3B2
100
AcDbEntity
  8
0
100
AcDbLine
 62
7
  6
CONTINUOUS
 10
-4.0610905058
 20
5.0007149956
 11
-4.1483591837
 21
5.0879836735
  0
LINE
  5
3B3
100
AcDbEntity
  8
ASSI
100
AcDbLine
 62
7
  6
CONTINUOUS
 10
-1.3483591837
 20
2.3879836735
 11
-1.3615266406
 21
2.4011511304
  0
LINE
  5
3B4
100
AcDbEntity
  8
CURVE
100
AcDbLine
 62
253
  6
CONTINUOUS
 10
-21.0233591837
 20
25.3504836735
 11
-20.9608591837
 21
25.1629836735
  0
LINE
  5
3B5
100
AcDbEntity
  8
CURVE
100
AcDbLine
 62
253
  6
CONTINUOUS
 10
-20.2733591837
 20
25.4754836735
 11
-20.2108591837
 21
25.2254836735
  0
LWPOLYLINE
  5
3B6
100
AcDbEntity
  8
ASSI
100
AcDbPolyline
 62
253
  6
CONTINUOUS
 90
13
 70
0
 10
-21.2347705818
 20
48.5890199706
 10
-21.2328522274
 20
48.5665361961
 10
-21.2275826554
 20
48.5444328689
 10
-21.2190510321
 20
48.5230839987
 10
-21.2074017209
 20
48.502850829
 10
-21.1928318396
 20
48.4840757245
 10
-21.1755879245
 20
48.4670763783
 10
-21.1559617595
 20
48.4521404356
 10
-21.1342854383
 20
48.4395206269
 10
-21.1109257452
 20
48.4294304915
 10
-21.0862779488
 20
48.4220407642
 10
-21.0607591135
 20
48.4174764864
 10
-21.0348010427
 20
48.4158148898
  0
LINE
  5
3B7
100
AcDbEntity
  8
ASSI
100
AcDbLine
 62
7
  6
CONTINUOUS
 10
-19.1483591837
 20
47.9106334043
 11
-19.1615266406
 21
48.3461651441
  0
LINE
  5
3B8
100
AcDbEntity
  8
ASSI
100
AcDbLine
 62
253
  6
CONTINUOUS
 10
-17.8619281038
 20
0.5071802091
 11
-17.8620149525
 21
0.5102767485
  0
LINE
  5
3B9
100
AcDbEntity
  8
ASSI
100
AcDbLine
 62
253
  6
CONTINUOUS
 10
-17.8620149525
 20
0.5102767485
 11
-17.862095697
 21
0.5139756182
  0
LINE
  5
3BA
100
AcDbEntity
  8
ASSI
100
AcDbLine
 62
253
  6
CONTINUOUS
 10
-17.862095697
 20
0.5139756182
 11
-17.8622019704
 21
0.5205403696
  0
LINE
  5
3BB
100
AcDbEntity
  8
ASSI
100
AcDbLine
 62
253
  6
CONTINUOUS
 10
-18.0616251519
 20
0.3045507882
 11
-18.0617157456
 21
0.3103279758
  0
LINE
  5
3BC
100
AcDbEntity
  8
ASSI
100
AcDbLine
 62
253
  6
CONTINUOUS
 10
-17.8622019704
 20
0.5205403696
 11
-17.8623088176
 21
0.5307928608
  0
LINE
  5
3BD
100
AcDbEntity
  8
ASSI
100
AcDbLine
 62
253
  6
CONTINUOUS
 10
-18.0617157456
 20
0.3103279758
 11
-18.0618528061
 21
0.3249415113
  0
LINE
  5
3BE
100
AcDbEntity
  8
ASSI
100
AcDbLine
 62
253
  6
CONTINUOUS
 10
-17.8622246025
 20
48.6035022203
 11
-17.8623241941
 21
48.6141074449
  0
LINE
  5
3BF
100
AcDbEntity
  8
ASSI
100
AcDbLine
 62
253
  6
CONTINUOUS
 10
-17.8623088176
 20
0.5307928608
 11
-17.8623701602
 21
0.5421933361
  0
LINE
  5
3C0
100
AcDbEntity
  8
ASSI
100
AcDbLine
 62
253
  6
CONTINUOUS
 10
-17.8623241941
 20
48.6141074449
 11
-17.8623773294
 21
48.6260916841
  0
LINE
  5
3C1
100
AcDbEntity
  8
ASSI
100
AcDbLine
 62
253
  6
CONTINUOUS
 10
-18.0618528061
 20
0.3249415113
 11
-18.0622021863
 21
0.4103660056
  0
LINE
  5
3C2
100
AcDbEntity
  8
ASSI
100
AcDbLine
 62
253
  6
CONTINUOUS
 10
-18.0619173246
 20
48.4158148898
 11
-18.0622487731
 21
48.5135641734
  0
LINE
  5
3C3
100
AcDbEntity
  8
ASSI
100
AcDbLine
 62
253
  6
CONTINUOUS
 10
-19.1615266406
 20
1.2298022029
 11
-19.1615266406
 21
2.4011511304
  0
LINE
  5
3C4
100
AcDbEntity
  8
ASSI
100
AcDbLine
 62
253
  6
CONTINUOUS
 10
-19.1615266406
 20
47.1748162166
 11
-19.1615266406
 21
48.3461651441
  0
LINE
  5
3C5
100
AcDbEntity
  8
ASSI
100
AcDbLine
 62
7
  6
CONTINUOUS
 10
-19.1483591837
 20
1.6653339427
 11
-19.1483591837
 21
2.3879836735
  0
LINE
  5
3C6
100
AcDbEntity
  8
CURVE
100
AcDbLine
 62
253
  6
CONTINUOUS
 10
-19.1483591837
 20
25.2879836735
 11
-19.1483591837
 21
25.4754836735
  0
LINE
  5
3C7
100
AcDbEntity
  8
ASSI
100
AcDbLine
 62
7
  6
CONTINUOUS
 10
-19.1483591837
 20
47.1879836735
 11
-19.1483591837
 21
47.9106334043
  0
LINE
  5
3C8
100
AcDbEntity
  8
ASSI
100
AcDbLine
 62
7
  6
CONTINUOUS
 10
-18.8809041187
 20
46.1930970836
 11
-18.8809041187
 21
45.6879836735
  0
LINE
  5
3C9
100
AcDbEntity
  8
ASSI
100
AcDbLine
 62
7
  6
CONTINUOUS
 10
-18.8809041187
 20
3.3828702633
 11
-18.8809041187
 21
3.8879836735
  0
LINE
  5
3CA
100
AcDbEntity
  8
ASSI
100
AcDbLine
 62
7
  6
CONTINUOUS
 10
-18.7063534695
 20
3.5626866508
 11
-18.7063534695
 21
3.8007149956
  0
LINE
  5
3CB
100
AcDbEntity
  8
ASSI
100
AcDbLine
 62
7
  6
CONTINUOUS
 10
-18.7063534695
 20
45.7752523514
 11
-18.7063534695
 21
46.0132806961
  0
LINE
  5
3CC
100
AcDbEntity
  8
CURVE
100
AcDbLine
 62
253
  6
CONTINUOUS
 10
-18.5483591837
 20
15.2879836735
 11
-18.5483591837
 21
15.9665551182
  0
LINE
  5
3CD
100
AcDbEntity
  8
CURVE
100
AcDbLine
 62
253
  6
CONTINUOUS
 10
-18.5483591837
 20
25.559412257
 11
-18.5483591837
 21
26.1022693958
  0
LINE
  5
3CE
100
AcDbEntity
  8
0
100
AcDbLine
 62
7
  6
CONTINUOUS
 10
-18.08501482
 20
3.9379836735
 11
-18.08501482
 21
5.1246393098
  0
LINE
  5
3CF
100
AcDbEntity
  8
DRAFT
100
AcDbLine
 62
7
  6
CONTINUOUS
 10
-18.08501482
 20
3.9379836735
 11
-18.08501482
 21
5.1246393098
  0
LINE
  5
3D0
100
AcDbEntity
  8
0
100
AcDbLine
 62
7
  6
CONTINUOUS
 10
-18.08501482
 20
44.4513280371
 11
-18.08501482
 21
45.6379836735
  0
LINE
  5
3D1
100
AcDbEntity
  8
DRAFT
100
AcDbLine
 62
7
  6
CONTINUOUS
 10
-18.08501482
 20
44.4513280371
 11
-18.08501482
 21
45.6379836735
  0
LINE
  5
3D2
100
AcDbEntity
  8
ASSI
100
AcDbLine
 62
253
  6
CONTINUOUS
 10
-18.0622021863
 20
0.4103660056
 11
-18.0623537012
 21
0.5511130542
  0
LINE
  5
3D3
100
AcDbEntity
  8
0
100
AcDbLine
 62
7
  6
CONTINUOUS
 10
-18.0483591837
 20
3.9379836735
 11
-18.0483591837
 21
5.0879836735
  0
LINE
  5
3D4
100
AcDbEntity
  8
DRAFT
100
AcDbLine
 62
7
  6
CONTINUOUS
 10
-18.0483591837
 20
3.9379836735
 11
-18.0483591837
 21
5.0879836735
  0
LINE
  5
3D5
100
AcDbEntity
  8
0
100
AcDbLine
 62
7
  6
CONTINUOUS
 10
-18.0483591837
 20
44.4879836735
 11
-18.0483591837
 21
45.6379836735
  0
LINE
  5
3D6
100
AcDbEntity
  8
DRAFT
100
AcDbLine
 62
7
  6
CONTINUOUS
 10
-18.0483591837
 20
44.4879836735
 11
-18.0483591837
 21
45.6379836735
  0
LINE
  5
3D7
100
AcDbEntity
  8
0
100
AcDbLine
 62
7
  6
CONTINUOUS
 10
-17.9483591837
 20
5.0879836735
 11
-17.9483591837
 21
3.8879836735
  0
LINE
  5
3D8
100
AcDbEntity
  8
0
100
AcDbLine
 62
7
  6
CONTINUOUS
 10
-17.9483591837
 20
44.4879836735
 11
-17.9483591837
 21
45.6879836735
  0
LINE
  5
3D9
100
AcDbEntity
  8
ASSI
100
AcDbLine
 62
7
  6
CONTINUOUS
 10
-17.8610905058
 20
45.7752523514
 11
-17.8610905058
 21
44.5752523514
  0
LINE
  5
3DA
100
AcDbEntity
  8
ASSI
100
AcDbLine
 62
7
  6
CONTINUOUS
 10
-17.8610905058
 20
5.0007149956
 11
-17.8610905058
 21
3.8007149956
  0
LINE
  5
3DB
100
AcDbEntity
  8
ASSI
100
AcDbLine
 62
7
  6
CONTINUOUS
 10
-17.8483591837
 20
0.4879532125
 11
-17.8483591837
 21
2.3879836735
  0
LINE
  5
3DC
100
AcDbEntity
  8
ASSI
100
AcDbLine
 62
7
  6
CONTINUOUS
 10
-17.8483591837
 20
47.1879836735
 11
-17.8483591837
 21
49.0880141344
  0
LINE
  5
3DD
100
AcDbEntity
  8
ASSI
100
AcDbLine
 62
253
  6
CONTINUOUS
 10
-18.0622487731
 20
48.5135641734
 11
-18.0623529715
 21
49.0368794186
  0
LINE
  5
3DE
100
AcDbEntity
  8
ASSI
100
AcDbLine
 62
253
  6
CONTINUOUS
 10
-17.8623773294
 20
48.6260916841
 11
-17.8623834363
 21
49.0272724356
  0
LINE
  5
3DF
100
AcDbEntity
  8
ASSI
100
AcDbLine
 62
253
  6
CONTINUOUS
 10
-17.8623701602
 20
0.5421933361
 11
-17.8623834127
 21
0.946115964
  0
LINE
  5
3E0
100
AcDbEntity
  8
ASSI
100
AcDbLine
 62
253
  6
CONTINUOUS
 10
-18.0623537012
 20
0.5511130542
 11
-18.0622239797
 21
1.0747865336
  0
LINE
  5
3E1
100
AcDbEntity
  8
ASSI
100
AcDbLine
 62
253
  6
CONTINUOUS
 10
-18.0623529715
 20
49.0368794186
 11
-18.0621721946
 21
49.1774902161
  0
LINE
  5
3E2
100
AcDbEntity
  8
ASSI
100
AcDbLine
 62
253
  6
CONTINUOUS
 10
-17.8623834363
 20
49.0272724356
 11
-17.862342616
 21
49.0400970636
  0
LINE
  5
3E3
100
AcDbEntity
  8
ASSI
100
AcDbLine
 62
253
  6
CONTINUOUS
 10
-17.8623834127
 20
0.946115964
 11
-17.8623407065
 21
0.9592265006
  0
LINE
  5
3E4
100
AcDbEntity
  8
ASSI
100
AcDbLine
 62
253
  6
CONTINUOUS
 10
-18.0622239797
 20
1.0747865336
 11
-18.0619173246
 21
1.1601524571
  0
LINE
  5
3E5
100
AcDbEntity
  8
ASSI
100
AcDbLine
 62
253
  6
CONTINUOUS
 10
-18.0621721946
 20
49.1774902161
 11
-18.0618495741
 21
49.2514642142
  0
LINE
  5
3E6
100
AcDbEntity
  8
ASSI
100
AcDbLine
 62
253
  6
CONTINUOUS
 10
-17.862342616
 20
49.0400970636
 11
-17.8622605722
 21
49.0504950773
  0
LWPOLYLINE
  5
3E7
100
AcDbEntity
  8
ASSI
100
AcDbPolyline
 62
253
  6
CONTINUOUS
 90
3
 70
0
 10
-17.8623407065
 20
0.9592265006
 10
-17.8622543995
 20
0.9698688011
 10
-17.8622251608
 20
0.9724174378
  0
LWPOLYLINE
  5
3E8
100
AcDbEntity
  8
ASSI
100
AcDbPolyline
 62
253
  6
CONTINUOUS
 90
6
 70
0
 10
-18.0618495741
 20
49.2514642142
 10
-18.0617025307
 20
49.2666692427
 10
-18.0616517521
 20
49.2700288969
 10
-18.0616005197
 20
49.272511653
 10
-18.0615486622
 20
49.2741092007
 10
-18.0614961796
 20
49.2748162166
  0
LINE
  5
3E9
100
AcDbEntity
  8
ASSI
100
AcDbLine
 62
253
  6
CONTINUOUS
 10
-17.8622605722
 20
49.0504950773
 11
-17.8621697423
 21
49.0576749975
  0
LINE
  5
3EA
100
AcDbEntity
  8
ASSI
100
AcDbLine
 62
253
  6
CONTINUOUS
 10
-17.8621697423
 20
49.0576749975
 11
-17.86209671
 21
49.0619433972
  0
LINE
  5
3EB
100
AcDbEntity
  8
ASSI
100
AcDbLine
 62
253
  6
CONTINUOUS
 10
-17.86209671
 20
49.0619433972
 11
-17.8620152312
 21
49.0656800859
  0
LWPOLYLINE
  5
3EC
100
AcDbEntity
  8
ASSI
100
AcDbPolyline
 62
253
  6
CONTINUOUS
 90
10
 70
0
 10
-17.8620152312
 20
49.0656800859
 10
-17.8619266983
 20
49.0688297025
 10
-17.8618799601
 20
49.0701762611
 10
-17.8618320777
 20
49.0713569125
 10
-17.861783037
 20
49.0723698454
 10
-17.8617328521
 20
49.0732168711
 10
-17.8616820657
 20
49.0738889692
 10
-17.8616308588
 20
49.0743831329
 10
-17.8615790504
 20
49.074702369
 10
-17.8615266406
 20
49.0748466775
  0
LINE
  5
3ED
100
AcDbEntity
  8
ASSI
100
AcDbLine
 62
7
  6
CONTINUOUS
 10
-19.1615266406
 20
1.2298022029
 11
-19.1483591837
 21
1.6653339427
  0
LWPOLYLINE
  5
3EE
100
AcDbEntity
  8
ASSI
100
AcDbPolyline
 62
253
  6
CONTINUOUS
 90
6
 70
0
 10
-21.0352221877
 20
0.3011511304
 10
-21.0351770327
 20
0.3017072687
 10
-21.0351314355
 20
0.3029564703
 10
-21.0350853961
 20
0.3049362387
 10
-21.0350386403
 20
0.3076891095
 10
-21.0348981859
 20
0.3207855516
  0
LWPOLYLINE
  5
3EF
100
AcDbEntity
  8
ASSI
100
AcDbPolyline
 62
253
  6
CONTINUOUS
 90
13
 70
0
 10
-21.2347705818
 20
0.9869473764
 10
-21.2328522275
 20
1.0094311502
 10
-21.2275826558
 20
1.0315344768
 10
-21.2190510329
 20
1.0528833466
 10
-21.2074017222
 20
1.0731165161
 10
-21.1928318413
 20
1.0918916205
 10
-21.1755879266
 20
1.1088909669
 10
-21.1559617618
 20
1.1238269099
 10
-21.1342854405
 20
1.136446719
 10
-21.1109257472
 20
1.1465368548
 10
-21.0862779502
 20
1.1539265824
 10
-21.0607591143
 20
1.1584908605
 10
-21.0348010427
 20
1.1601524571
  0
LINE
  5
3F0
100
AcDbEntity
  8
CURVE
100
AcDbLine
 62
253
  6
CONTINUOUS
 10
-19.2108591837
 20
25.1004836735
 11
-19.1483591837
 21
25.2879836735
  0
LINE
  5
3F1
100
AcDbEntity
  8
CURVE
100
AcDbLine
 62
253
  6
CONTINUOUS
 10
-19.2733591837
 20
24.9754836735
 11
-19.2108591837
 21
25.1004836735
  0
LINE
  5
3F2
100
AcDbEntity
  8
ASSI
100
AcDbLine
 62
253
  6
CONTINUOUS
 10
-0.0483591191
 20
47.1879836089
 11
-0.0657380962
 21
47.1705286085
  0
LINE
  5
3F3
100
AcDbEntity
  8
ASSI
100
AcDbLine
 62
253
  6
CONTINUOUS
 10
0.4516408163
 20
46.6880598259
 11
0.4341857514
 21
46.670604761
  0
LINE
  5
3F4
100
AcDbEntity
  8
CURVE
100
AcDbLine
 62
253
  6
CONTINUOUS
 10
-20.4608591837
 20
25.0379836735
 11
-20.3983591837
 21
25.1004836735
  0
LINE
  5
3F5
100
AcDbEntity
  8
CURVE
100
AcDbLine
 62
253
  6
CONTINUOUS
 10
0.4178692654
 20
16.066555005
 11
0.3847096932
 21
16.066555005
  0
LINE
  5
3F6
100
AcDbEntity
  8
CURVE
100
AcDbLine
 62
253
  6
CONTINUOUS
 10
-18.2769306284
 20
16.2379836735
 11
-17.7340735179
 21
16.2379836735
  0
LINE
  5
3F7
100
AcDbEntity
  8
CURVE
100
AcDbLine
 62
253
  6
CONTINUOUS
 10
0.403658021
 20
17.1522694525
 11
0.413132184
 21
17.1522694525
  0
LINE
  5
3F8
100
AcDbEntity
  8
0
100
AcDbLine
 62
7
  6
CONTINUOUS
 10
-11.2483591837
 20
17.2879836735
 11
-14.1883591837
 21
17.2879836735
  0
LINE
  5
3F9
100
AcDbEntity
  8
SMUSSO
100
AcDbLine
 62
7
  6
CONTINUOUS
 10
-14.8983591837
 20
17.5379836735
 11
-10.8983591837
 21
17.5379836735
  0
LINE
  5
3FA
100
AcDbEntity
  8
ASSI
100
AcDbLine
 62
7
  6
CONTINUOUS
 10
-14.8983591837
 20
17.5379836735
 11
-10.8983591837
 21
17.5379836735
  0
LINE
  5
3FB
100
AcDbEntity
  8
CURVE
100
AcDbLine
 62
253
  6
CONTINUOUS
 10
-20.0197877717
 20
19.8927456077
 11
-19.8340734777
 21
19.7998881992
  0
LINE
  5
3FC
100
AcDbEntity
  8
CURVE
100
AcDbLine
 62
253
  6
CONTINUOUS
 10
-20.5769306344
 20
21.8427449879
 11
-19.6483591837
 21
21.2856030163
  0
LINE
  5
3FD
100
AcDbEntity
  8
SMUSSO
100
AcDbLine
 62
7
  6
CONTINUOUS
 10
-15.3983591837
 20
18.0379836735
 11
-14.8983591837
 21
17.5379836735
  0
LINE
  5
3FE
100
AcDbEntity
  8
ASSI
100
AcDbLine
 62
7
  6
CONTINUOUS
 10
-15.3983591837
 20
18.0379836735
 11
-14.8983591837
 21
17.5379836735
  0
LINE
  5
3FF
100
AcDbEntity
  8
SMUSSO
100
AcDbLine
 62
7
  6
CONTINUOUS
 10
-10.3983591837
 20
13.5379836735
 11
-10.8983591837
 21
14.0379836735
  0
LINE
  5
400
100
AcDbEntity
  8
ASSI
100
AcDbLine
 62
7
  6
CONTINUOUS
 10
-10.3983591837
 20
13.5379836735
 11
-10.8983591837
 21
14.0379836735
  0
LINE
  5
401
100
AcDbEntity
  8
ASSI
100
AcDbLine
 62
253
  6
CONTINUOUS
 10
0.4341857514
 20
2.905362586
 11
0.4516408163
 21
2.887907521
  0
LINE
  5
402
100
AcDbEntity
  8
CURVE
100
AcDbLine
 62
253
  6
CONTINUOUS
 10
-20.9608591837
 20
25.1629836735
 11
-20.8358591837
 21
25.0379836735
  0
LINE
  5
403
100
AcDbEntity
  8
ASSI
100
AcDbLine
 62
253
  6
CONTINUOUS
 10
-0.0657380962
 20
2.4054387384
 11
-0.0483591837
 21
2.3879836735
  0
LINE
  5
404
100
AcDbEntity
  8
CURVE
100
AcDbLine
 62
253
  6
CONTINUOUS
 10
-20.2108591837
 20
25.2254836735
 11
-20.0858591837
 21
24.9754836735
  0
LINE
  5
405
100
AcDbEntity
  8
CURVE
100
AcDbLine
 62
253
  6
CONTINUOUS
 10
-19.1483591837
 20
25.4754836735
 11
-19.2108591837
 21
25.7254836735
  0
LWPOLYLINE
  5
406
100
AcDbEntity
  8
RACCORDO
100
AcDbPolyline
 62
7
  6
CONTINUOUS
 90
13
 70
0
 10
-15.0983591837
 20
1.0379455973
 10
-15.0962213534
 20
1.0053179387
 10
-15.089843633
 20
0.9732489659
 10
-15.0793349065
 20
0.9422870641
 10
-15.0648746051
 20
0.912961493
 10
-15.0467098711
 20
0.8857742357
 10
-15.025151649
 20
0.8611912082
 10
-15.0005686215
 20
0.839632986
 10
-14.9733813641
 20
0.821468252
 10
-14.9440557931
 20
0.8070079507
 10
-14.9130938913
 20
0.7964992242
 10
-14.8810249185
 20
0.7901215037
 10
-14.8483972599
 20
0.7879836735
  0
LWPOLYLINE
  5
407
100
AcDbEntity
  8
ASSI
100
AcDbPolyline
 62
7
  6
CONTINUOUS
 90
13
 70
0
 10
-17.8483591837
 20
49.0880141344
 10
-17.8500694479
 20
49.1141162613
 10
-17.8551716242
 20
49.1397714396
 10
-17.8635786054
 20
49.164540961
 10
-17.8751468465
 20
49.1880014178
 10
-17.8896786337
 20
49.2097512237
 10
-17.9069252114
 20
49.2294176457
 10
-17.9265916334
 20
49.2466642234
 10
-17.9483414393
 20
49.2611960106
 10
-17.9718018962
 20
49.2727642517
 10
-17.9965714176
 20
49.2811712329
 10
-18.0222265959
 20
49.2862734093
 10
-18.0483287227
 20
49.2879836735
  0
LINE
  5
408
100
AcDbEntity
  8
ASSI
100
AcDbLine
 62
253
  6
CONTINUOUS
 10
-18.0466441428
 20
47.9106334043
 11
-18.0619173246
 21
48.4158148898
  0
LINE
  5
409
100
AcDbEntity
  8
ASSI
100
AcDbLine
 62
253
  6
CONTINUOUS
 10
-17.8483591837
 20
48.1395582816
 11
-17.8619847466
 21
48.590292085
  0
LINE
  5
40A
100
AcDbEntity
  8
ASSI
100
AcDbLine
 62
253
  6
CONTINUOUS
 10
-17.8619847466
 20
48.590292085
 11
-17.8620570741
 21
48.5932990268
  0
LINE
  5
40B
100
AcDbEntity
  8
ASSI
100
AcDbLine
 62
253
  6
CONTINUOUS
 10
-17.8620570741
 20
48.5932990268
 11
-17.8621615796
 21
48.5989662218
  0
LINE
  5
40C
100
AcDbEntity
  8
ASSI
100
AcDbLine
 62
253
  6
CONTINUOUS
 10
-17.8621615796
 20
48.5989662218
 11
-17.8622246025
 21
48.6035022203
  0
LINE
  5
40D
100
AcDbEntity
  8
CURVE
100
AcDbLine
 62
253
  6
CONTINUOUS
 10
-17.462644906
 20
15.9665551182
 11
-17.462644906
 21
15.2879836735
  0
LINE
  5
40E
100
AcDbEntity
  8
ASSI
100
AcDbLine
 62
7
  6
CONTINUOUS
 10
-17.2356278616
 20
3.7134330242
 11
-17.2356278616
 21
5.0007149956
  0
LINE
  5
40F
100
AcDbEntity
  8
ASSI
100
AcDbLine
 62
7
  6
CONTINUOUS
 10
-17.2356278616
 20
44.5752523514
 11
-17.2356278616
 21
45.8625343228
  0
LINE
  5
410
100
AcDbEntity
  8
0
100
AcDbLine
 62
7
  6
CONTINUOUS
 10
-17.1483591837
 20
5.0879836735
 11
-17.1483591837
 21
3.8879836735
  0
LINE
  5
411
100
AcDbEntity
  8
0
100
AcDbLine
 62
7
  6
CONTINUOUS
 10
-17.1483591837
 20
44.4879836735
 11
-17.1483591837
 21
45.6879836735
  0
LINE
  5
412
100
AcDbEntity
  8
CURVE
100
AcDbLine
 62
253
  6
CONTINUOUS
 10
-16.6483591837
 20
10.4879836735
 11
-16.6483591837
 21
11.1665551182
  0
LINE
  5
413
100
AcDbEntity
  8
CURVE
100
AcDbLine
 62
253
  6
CONTINUOUS
 10
-16.6483591837
 20
25.4236979653
 11
-16.6483591837
 21
25.9665551182
  0
LINE
  5
414
100
AcDbEntity
  8
0
100
AcDbLine
 62
7
  6
CONTINUOUS
 10
-15.9483591837
 20
4.7879836735
 11
-15.9483591837
 21
3.8879836735
  0
LINE
  5
415
100
AcDbEntity
  8
0
100
AcDbLine
 62
7
  6
CONTINUOUS
 10
-15.9483591837
 20
44.7879836735
 11
-15.9483591837
 21
45.6879836735
  0
LINE
  5
416
100
AcDbEntity
  8
ASSI
100
AcDbLine
 62
253
  6
CONTINUOUS
 10
-17.8622251608
 20
0.9724174378
 11
-17.8621205036
 21
0.9794519963
  0
LINE
  5
417
100
AcDbEntity
  8
ASSI
100
AcDbLine
 62
253
  6
CONTINUOUS
 10
-17.8621205036
 20
0.9794519963
 11
-17.8620385391
 21
0.9834935636
  0
LINE
  5
418
100
AcDbEntity
  8
ASSI
100
AcDbLine
 62
253
  6
CONTINUOUS
 10
-17.8620385391
 20
0.9834935636
 11
-17.8619477856
 21
0.9869473764
  0
LINE
  5
419
100
AcDbEntity
  8
ASSI
100
AcDbLine
 62
253
  6
CONTINUOUS
 10
-18.0619173246
 20
1.1601524571
 11
-18.0466441428
 21
1.6653339427
  0
LINE
  5
41A
100
AcDbEntity
  8
ASSI
100
AcDbLine
 62
253
  6
CONTINUOUS
 10
-17.8619477856
 20
0.9869473764
 11
-17.8483591837
 21
1.4364090653
  0
LWPOLYLINE
  5
41B
100
AcDbEntity
  8
RACCORDO
100
AcDbPolyline
 62
7
  6
CONTINUOUS
 90
13
 70
0
 10
-15.0983591837
 20
48.5380217497
 10
-15.0962213534
 20
48.5706494082
 10
-15.089843633
 20
48.6027183811
 10
-15.0793349065
 20
48.6336802828
 10
-15.0648746051
 20
48.6630058539
 10
-15.0467098711
 20
48.6901931113
 10
-15.025151649
 20
48.7147761388
 10
-15.0005686215
 20
48.7363343609
 10
-14.9733813641
 20
48.7544990949
 10
-14.9440557931
 20
48.7689593963
 10
-14.9130938913
 20
48.7794681228
 10
-14.8810249185
 20
48.7858458432
 10
-14.8483972599
 20
48.7879836735
  0
LWPOLYLINE
  5
41C
100
AcDbEntity
  8
ASSI
100
AcDbPolyline
 62
7
  6
CONTINUOUS
 90
13
 70
0
 10
-17.8483591837
 20
0.4879532125
 10
-17.8500694479
 20
0.4618510856
 10
-17.8551716242
 20
0.4361959074
 10
-17.8635786054
 20
0.411426386
 10
-17.8751468465
 20
0.3879659291
 10
-17.8896786337
 20
0.3662161232
 10
-17.9069252114
 20
0.3465497012
 10
-17.9265916334
 20
0.3293031235
 10
-17.9483414393
 20
0.3147713363
 10
-17.9718018962
 20
0.3032030952
 10
-17.9965714176
 20
0.294796114
 10
-18.0222265959
 20
0.2896939377
 10
-18.0483287227
 20
0.2879836735
  0
LWPOLYLINE
  5
41D
100
AcDbEntity
  8
0
100
AcDbPolyline
 62
253
  6
CONTINUOUS
 90
4
 70
0
 10
-8.6661127379
 20
42.2470465793
 10
-8.6879740081
 20
42.2047183431
 10
-8.7178992486
 20
42.1661972518
 10
-8.755036993
 20
42.1327978444
  0
LWPOLYLINE
  5
41E
100
AcDbEntity
  8
RACCORDO
100
AcDbPolyline
 62
253
  6
CONTINUOUS
 90
4
 70
0
 10
-8.6661127379
 20
42.2470465793
 10
-8.6879740081
 20
42.2047183431
 10
-8.7178992486
 20
42.1661972518
 10
-8.755036993
 20
42.1327978444
  0
LINE
  5
41F
100
AcDbEntity
  8
CURVE
100
AcDbLine
 62
253
  6
CONTINUOUS
 10
-17.1912163508
 20
26.2379836735
 11
-18.0055020732
 21
25.2879836735
  0
LINE
  5
420
100
AcDbEntity
  8
CURVE
100
AcDbLine
 62
253
  6
CONTINUOUS
 10
-18.5483591837
 20
26.1022693958
 11
-18.4126448494
 21
26.2379836735
  0
LINE
  5
421
100
AcDbEntity
  8
CURVE
100
AcDbLine
 62
253
  6
CONTINUOUS
 10
-19.3983591837
 20
24.8504836735
 11
-19.2733591837
 21
24.9754836735
  0
LINE
  5
422
100
AcDbEntity
  8
RACCORDO
100
AcDbLine
 62
7
  6
CONTINUOUS
 10
0.0647196945
 20
17.9379836735
 11
-0.8483591837
 21
17.9379836735
  0
LINE
  5
423
100
AcDbEntity
  8
ASSI
100
AcDbLine
 62
7
  6
CONTINUOUS
 10
0.0647196945
 20
17.9379836735
 11
-0.8483591837
 21
17.9379836735
  0
LINE
  5
424
100
AcDbEntity
  8
SMUSSO
100
AcDbLine
 62
7
  6
CONTINUOUS
 10
-15.3983591837
 20
18.0379836735
 11
-10.3983591837
 21
18.0379836735
  0
LINE
  5
425
100
AcDbEntity
  8
ASSI
100
AcDbLine
 62
7
  6
CONTINUOUS
 10
-15.3983591837
 20
18.0379836735
 11
-10.3983591837
 21
18.0379836735
  0
LINE
  5
426
100
AcDbEntity
  8
CURVE
100
AcDbLine
 62
253
  6
CONTINUOUS
 10
0.413132184
 20
18.1022693392
 11
0.403658021
 21
18.1022693392
  0
LINE
  5
427
100
AcDbEntity
  8
CURVE
100
AcDbLine
 62
253
  6
CONTINUOUS
 10
-20.2983591837
 20
18.2213172134
 11
-19.8340734777
 21
18.2213172134
  0
LINE
  5
428
100
AcDbEntity
  8
SMUSSO
100
AcDbLine
 62
7
  6
CONTINUOUS
 10
-10.3983591837
 20
18.5379836735
 11
-15.3983591837
 21
18.5379836735
  0
LINE
  5
429
100
AcDbEntity
  8
ASSI
100
AcDbLine
 62
7
  6
CONTINUOUS
 10
-10.3983591837
 20
18.5379836735
 11
-15.3983591837
 21
18.5379836735
  0
LINE
  5
42A
100
AcDbEntity
  8
RACCORDO
100
AcDbLine
 62
7
  6
CONTINUOUS
 10
0.0647196945
 20
18.6379836735
 11
-0.8483591837
 21
18.6379836735
  0
LINE
  5
42B
100
AcDbEntity
  8
ASSI
100
AcDbLine
 62
7
  6
CONTINUOUS
 10
0.0647196945
 20
18.6379836735
 11
-0.8483591837
 21
18.6379836735
  0
LINE
  5
42C
100
AcDbEntity
  8
CURVE
100
AcDbLine
 62
253
  6
CONTINUOUS
 10
0.4178692654
 20
18.6451265063
 11
0.3847096932
 21
18.6451265063
  0
LINE
  5
42D
100
AcDbEntity
  8
CURVE
100
AcDbLine
 62
253
  6
CONTINUOUS
 10
-19.8340734777
 20
18.8713172134
 11
-20.2055020464
 21
18.8713172134
  0
LINE
  5
42E
100
AcDbEntity
  8
SMUSSO
100
AcDbLine
 62
7
  6
CONTINUOUS
 10
-10.8983591837
 20
19.0379836735
 11
-14.8983591837
 21
19.0379836735
  0
LINE
  5
42F
100
AcDbEntity
  8
ASSI
100
AcDbLine
 62
7
  6
CONTINUOUS
 10
-10.8983591837
 20
19.0379836735
 11
-14.8983591837
 21
19.0379836735
  0
LINE
  5
430
100
AcDbEntity
  8
CURVE
100
AcDbLine
 62
253
  6
CONTINUOUS
 10
-20.0197877717
 20
19.2427456077
 11
-20.5769306344
 21
19.2427456077
  0
LINE
  5
431
100
AcDbEntity
  8
0
100
AcDbLine
 62
7
  6
CONTINUOUS
 10
-14.1883591837
 20
19.2879836735
 11
-11.2483591837
 21
19.2879836735
  0
LINE
  5
432
100
AcDbEntity
  8
CURVE
100
AcDbLine
 62
253
  6
CONTINUOUS
 10
-20.0858591837
 20
24.9754836735
 11
-19.9608591837
 21
24.8504836735
  0
LINE
  5
433
100
AcDbEntity
  8
CURVE
100
AcDbLine
 62
253
  6
CONTINUOUS
 10
-19.3358591837
 20
25.9129836735
 11
-19.4608591837
 21
26.0379836735
  0
LINE
  5
434
100
AcDbEntity
  8
CURVE
100
AcDbLine
 62
253
  6
CONTINUOUS
 10
-19.2108591837
 20
25.7254836735
 11
-19.3358591837
 21
25.9129836735
  0
LINE
  5
435
100
AcDbEntity
  8
ASSI
100
AcDbLine
 62
7
  6
CONTINUOUS
 10
-15.7738085344
 20
3.7134330242
 11
-15.7738085344
 21
4.7007149956
  0
LINE
  5
436
100
AcDbEntity
  8
ASSI
100
AcDbLine
 62
7
  6
CONTINUOUS
 10
-15.7738085344
 20
44.8752523514
 11
-15.7738085344
 21
45.8625343228
  0
LINE
  5
437
100
AcDbEntity
  8
SMUSSO
100
AcDbLine
 62
7
  6
CONTINUOUS
 10
-15.3983591837
 20
8.5379836735
 11
-15.3983591837
 21
13.0379836735
  0
LINE
  5
438
100
AcDbEntity
  8
ASSI
100
AcDbLine
 62
7
  6
CONTINUOUS
 10
-15.3983591837
 20
8.5379836735
 11
-15.3983591837
 21
13.0379836735
  0
LINE
  5
439
100
AcDbEntity
  8
SMUSSO
100
AcDbLine
 62
7
  6
CONTINUOUS
 10
-15.3983591837
 20
13.5379836735
 11
-15.3983591837
 21
18.0379836735
  0
LINE
  5
43A
100
AcDbEntity
  8
ASSI
100
AcDbLine
 62
7
  6
CONTINUOUS
 10
-15.3983591837
 20
13.5379836735
 11
-15.3983591837
 21
18.0379836735
  0
LINE
  5
43B
100
AcDbEntity
  8
SMUSSO
100
AcDbLine
 62
7
  6
CONTINUOUS
 10
-15.3983591837
 20
18.5379836735
 11
-15.3983591837
 21
23.0379836735
  0
LINE
  5
43C
100
AcDbEntity
  8
ASSI
100
AcDbLine
 62
7
  6
CONTINUOUS
 10
-15.3983591837
 20
18.5379836735
 11
-15.3983591837
 21
23.0379836735
  0
LINE
  5
43D
100
AcDbEntity
  8
SMUSSO
100
AcDbLine
 62
7
  6
CONTINUOUS
 10
-15.3983591837
 20
23.2879836735
 11
-15.3983591837
 21
28.2879836735
  0
LINE
  5
43E
100
AcDbEntity
  8
ASSI
100
AcDbLine
 62
7
  6
CONTINUOUS
 10
-15.3983591837
 20
23.2879836735
 11
-15.3983591837
 21
28.2879836735
  0
LINE
  5
43F
100
AcDbEntity
  8
RACCORDO
100
AcDbLine
 62
7
  6
CONTINUOUS
 10
-15.0983591837
 20
48.5380217497
 11
-15.0983591837
 21
48.2059286206
  0
LINE
  5
440
100
AcDbEntity
  8
ASSI
100
AcDbLine
 62
7
  6
CONTINUOUS
 10
-15.0983591837
 20
47.7700387263
 11
-15.0983591837
 21
47.1879836735
  0
LINE
  5
441
100
AcDbEntity
  8
ASSI
100
AcDbLine
 62
7
  6
CONTINUOUS
 10
-15.0983591837
 20
2.3879836735
 11
-15.0983591837
 21
1.8059286206
  0
LINE
  5
442
100
AcDbEntity
  8
RACCORDO
100
AcDbLine
 62
7
  6
CONTINUOUS
 10
-15.0983591837
 20
1.3700387263
 11
-15.0983591837
 21
1.0379455973
  0
LINE
  5
443
100
AcDbEntity
  8
ASSI
100
AcDbLine
 62
7
  6
CONTINUOUS
 10
-15.0023563266
 20
1.2486035781
 11
-15.0023563266
 21
1.9273637689
  0
LINE
  5
444
100
AcDbEntity
  8
ASSI
100
AcDbLine
 62
7
  6
CONTINUOUS
 10
-15.0023563266
 20
47.6486035781
 11
-15.0023563266
 21
48.3273637689
  0
LINE
  5
445
100
AcDbEntity
  8
RACCORDO
100
AcDbLine
 62
253
  6
CONTINUOUS
 10
-15.0009384874
 20
48.4406010534
 11
-15.0009404192
 21
47.090564909
  0
LINE
  5
446
100
AcDbEntity
  8
RACCORDO
100
AcDbLine
 62
253
  6
CONTINUOUS
 10
-15.0009404192
 20
2.485402438
 11
-15.0009384874
 21
1.1353662935
  0
LINE
  5
447
100
AcDbEntity
  8
SMUSSO
100
AcDbLine
 62
7
  6
CONTINUOUS
 10
-14.8983591837
 20
9.0379836735
 11
-14.8983591837
 21
12.5379836735
  0
LINE
  5
448
100
AcDbEntity
  8
ASSI
100
AcDbLine
 62
7
  6
CONTINUOUS
 10
-14.8983591837
 20
9.0379836735
 11
-14.8983591837
 21
12.5379836735
  0
LINE
  5
449
100
AcDbEntity
  8
SMUSSO
100
AcDbLine
 62
7
  6
CONTINUOUS
 10
-14.8983591837
 20
14.0379836735
 11
-14.8983591837
 21
17.5379836735
  0
LINE
  5
44A
100
AcDbEntity
  8
ASSI
100
AcDbLine
 62
7
  6
CONTINUOUS
 10
-14.8983591837
 20
14.0379836735
 11
-14.8983591837
 21
17.5379836735
  0
LINE
  5
44B
100
AcDbEntity
  8
SMUSSO
100
AcDbLine
 62
7
  6
CONTINUOUS
 10
-14.8983591837
 20
19.0379836735
 11
-14.8983591837
 21
22.5379836735
  0
LINE
  5
44C
100
AcDbEntity
  8
ASSI
100
AcDbLine
 62
7
  6
CONTINUOUS
 10
-14.8983591837
 20
19.0379836735
 11
-14.8983591837
 21
22.5379836735
  0
LINE
  5
44D
100
AcDbEntity
  8
SMUSSO
100
AcDbLine
 62
7
  6
CONTINUOUS
 10
-14.8983591837
 20
23.7879836735
 11
-14.8983591837
 21
27.7879836735
  0
LINE
  5
44E
100
AcDbEntity
  8
ASSI
100
AcDbLine
 62
7
  6
CONTINUOUS
 10
-14.8983591837
 20
23.7879836735
 11
-14.8983591837
 21
27.7879836735
  0
LINE
  5
44F
100
AcDbEntity
  8
RACCORDO
100
AcDbLine
 62
253
  6
CONTINUOUS
 10
-14.3983591837
 20
0.8054387384
 11
-14.3983591837
 21
0.8853487242
  0
LINE
  5
450
100
AcDbEntity
  8
RACCORDO
100
AcDbLine
 62
253
  6
CONTINUOUS
 10
-14.3983591837
 20
48.6906186228
 11
-14.3983591837
 21
48.7705286085
  0
LINE
  5
451
100
AcDbEntity
  8
0
100
AcDbLine
 62
7
  6
CONTINUOUS
 10
-14.1883591837
 20
27.7879836735
 11
-14.1883591837
 21
23.7879836735
  0
LINE
  5
452
100
AcDbEntity
  8
0
100
AcDbLine
 62
7
  6
CONTINUOUS
 10
-14.1883591837
 20
22.5379836735
 11
-14.1883591837
 21
19.0379836735
  0
LINE
  5
453
100
AcDbEntity
  8
0
100
AcDbLine
 62
7
  6
CONTINUOUS
 10
-14.1883591837
 20
17.5379836735
 11
-14.1883591837
 21
14.0379836735
  0
LINE
  5
454
100
AcDbEntity
  8
0
100
AcDbLine
 62
7
  6
CONTINUOUS
 10
-14.1883591837
 20
12.5379836735
 11
-14.1883591837
 21
9.0379836735
  0
LINE
  5
455
100
AcDbEntity
  8
RACCORDO
100
AcDbLine
 62
7
  6
CONTINUOUS
 10
-14.1483591837
 20
44.8324906992
 11
-14.1483591837
 21
44.7879836735
  0
LINE
  5
456
100
AcDbEntity
  8
0
100
AcDbLine
 62
7
  6
CONTINUOUS
 10
-14.1483591837
 20
44.6879836735
 11
-14.1483591837
 21
44.4879836735
  0
LINE
  5
457
100
AcDbEntity
  8
DRAFT
100
AcDbLine
 62
7
  6
CONTINUOUS
 10
-14.1483591837
 20
44.6879836735
 11
-14.1483591837
 21
44.4879836735
  0
LINE
  5
458
100
AcDbEntity
  8
0
100
AcDbLine
 62
7
  6
CONTINUOUS
 10
-14.1483591837
 20
5.0879836735
 11
-14.1483591837
 21
4.8879836735
  0
LINE
  5
459
100
AcDbEntity
  8
DRAFT
100
AcDbLine
 62
7
  6
CONTINUOUS
 10
-14.1483591837
 20
5.0879836735
 11
-14.1483591837
 21
4.8879836735
  0
LINE
  5
45A
100
AcDbEntity
  8
RACCORDO
100
AcDbLine
 62
7
  6
CONTINUOUS
 10
-14.1483591837
 20
1.0554768204
 11
-14.1483591837
 21
2.4944595695
  0
LINE
  5
45B
100
AcDbEntity
  8
RACCORDO
100
AcDbLine
 62
7
  6
CONTINUOUS
 10
-14.1483591837
 20
4.7434766477
 11
-14.1483591837
 21
4.7879836735
  0
LINE
  5
45C
100
AcDbEntity
  8
RACCORDO
100
AcDbLine
 62
7
  6
CONTINUOUS
 10
-14.1483591837
 20
47.0815077774
 11
-14.1483591837
 21
48.5204905265
  0
LINE
  5
45D
100
AcDbEntity
  8
0
100
AcDbLine
 62
7
  6
CONTINUOUS
 10
-14.1117035473
 20
44.6513280371
 11
-14.1117035473
 21
44.4513280371
  0
LINE
  5
45E
100
AcDbEntity
  8
DRAFT
100
AcDbLine
 62
7
  6
CONTINUOUS
 10
-14.1117035473
 20
44.6513280371
 11
-14.1117035473
 21
44.4513280371
  0
LINE
  5
45F
100
AcDbEntity
  8
0
100
AcDbLine
 62
7
  6
CONTINUOUS
 10
-14.1117035473
 20
5.1246393098
 11
-14.1117035473
 21
4.9246393098
  0
LINE
  5
460
100
AcDbEntity
  8
DRAFT
100
AcDbLine
 62
7
  6
CONTINUOUS
 10
-14.1117035473
 20
5.1246393098
 11
-14.1117035473
 21
4.9246393098
  0
LINE
  5
461
100
AcDbEntity
  8
0
100
AcDbLine
 62
7
  6
CONTINUOUS
 10
-4.0610905058
 20
45.8625343228
 11
-4.1483591837
 21
45.6879836735
  0
LINE
  5
462
100
AcDbEntity
  8
CURVE
100
AcDbLine
 62
253
  6
CONTINUOUS
 10
-16.7840734755
 20
25.2879836735
 11
-16.6483591837
 21
25.4236979653
  0
LINE
  5
463
100
AcDbEntity
  8
CURVE
100
AcDbLine
 62
253
  6
CONTINUOUS
 10
-20.9483591837
 20
19.6141740021
 11
-20.762644909
 21
19.7998881992
  0
LINE
  5
464
100
AcDbEntity
  8
CURVE
100
AcDbLine
 62
253
  6
CONTINUOUS
 10
-20.5858591837
 20
24.9754836735
 11
-20.4608591837
 21
25.0379836735
  0
LINE
  5
465
100
AcDbEntity
  8
CURVE
100
AcDbLine
 62
253
  6
CONTINUOUS
 10
-20.5769306344
 20
19.8927456077
 11
-20.0197877717
 21
19.8927456077
  0
LINE
  5
466
100
AcDbEntity
  8
CURVE
100
AcDbLine
 62
253
  6
CONTINUOUS
 10
-16.6483591837
 20
20.1879836735
 11
-18.5483591837
 21
20.1879836735
  0
LINE
  5
467
100
AcDbEntity
  8
CURVE
100
AcDbLine
 62
253
  6
CONTINUOUS
 10
-19.6483591837
 20
20.2641740021
 11
-20.9483591837
 21
20.2641740021
  0
LINE
  5
468
100
AcDbEntity
  8
CURVE
100
AcDbLine
 62
253
  6
CONTINUOUS
 10
-20.9483591837
 20
20.9141740021
 11
-19.6483591837
 21
20.9141740021
  0
LINE
  5
469
100
AcDbEntity
  8
CURVE
100
AcDbLine
 62
253
  6
CONTINUOUS
 10
-16.6483591837
 20
21.1379836735
 11
-18.5483591837
 21
21.1379836735
  0
LINE
  5
46A
100
AcDbEntity
  8
CURVE
100
AcDbLine
 62
253
  6
CONTINUOUS
 10
-18.2769306284
 20
25.2879836735
 11
-18.5483591837
 21
25.559412257
  0
LINE
  5
46B
100
AcDbEntity
  8
SMUSSO
100
AcDbLine
 62
7
  6
CONTINUOUS
 10
-15.3983591837
 20
23.0379836735
 11
-14.8983591837
 21
22.5379836735
  0
LINE
  5
46C
100
AcDbEntity
  8
ASSI
100
AcDbLine
 62
7
  6
CONTINUOUS
 10
-15.3983591837
 20
23.0379836735
 11
-14.8983591837
 21
22.5379836735
  0
LINE
  5
46D
100
AcDbEntity
  8
SMUSSO
100
AcDbLine
 62
7
  6
CONTINUOUS
 10
-10.3983591837
 20
18.5379836735
 11
-10.8983591837
 21
19.0379836735
  0
LINE
  5
46E
100
AcDbEntity
  8
ASSI
100
AcDbLine
 62
7
  6
CONTINUOUS
 10
-10.3983591837
 20
18.5379836735
 11
-10.8983591837
 21
19.0379836735
  0
LINE
  5
46F
100
AcDbEntity
  8
CURVE
100
AcDbLine
 62
253
  6
CONTINUOUS
 10
-16.6483591837
 20
25.9665551182
 11
-16.9197877672
 21
26.2379836735
  0
LINE
  5
470
100
AcDbEntity
  8
0
100
AcDbLine
 62
7
  6
CONTINUOUS
 10
-4.0610905058
 20
3.7134330242
 11
-4.1483591837
 21
3.8879836735
  0
LINE
  5
471
100
AcDbEntity
  8
0
100
AcDbLine
 62
7
  6
CONTINUOUS
 10
-8.6673477988
 20
6.5879836735
 11
-8.6577868361
 21
6.556366175
  0
LINE
  5
472
100
AcDbEntity
  8
RACCORDO
100
AcDbLine
 62
7
  6
CONTINUOUS
 10
-8.6673477988
 20
6.5879836735
 11
-8.6577868361
 21
6.556366175
  0
LINE
  5
473
100
AcDbEntity
  8
ASSI
100
AcDbLine
 62
7
  6
CONTINUOUS
 10
-13.6983591837
 20
45.5879836735
 11
-13.7232351773
 21
47.0131283913
  0
LINE
  5
474
100
AcDbEntity
  8
RACCORDO
100
AcDbLine
 62
7
  6
CONTINUOUS
 10
-13.7232351773
 20
47.0131283913
 11
-13.7241796454
 21
47.0672369323
  0
LINE
  5
475
100
AcDbEntity
  8
0
100
AcDbLine
 62
253
  6
CONTINUOUS
 10
-12.1493673457
 20
4.7358210471
 11
-12.1498834185
 21
4.9034969938
  0
LINE
  5
476
100
AcDbEntity
  8
0
100
AcDbLine
 62
7
  6
CONTINUOUS
 10
-13.1483591837
 20
6.4879836735
 11
-13.1483591837
 21
8.1879836735
  0
LINE
  5
477
100
AcDbEntity
  8
ASSI
100
AcDbLine
 62
7
  6
CONTINUOUS
 10
-13.1483591837
 20
6.4879836735
 11
-13.1483591837
 21
8.1879836735
  0
LINE
  5
478
100
AcDbEntity
  8
0
100
AcDbLine
 62
7
  6
CONTINUOUS
 10
-13.1483591837
 20
41.3879836735
 11
-13.1483591837
 21
43.0879836735
  0
LINE
  5
479
100
AcDbEntity
  8
ASSI
100
AcDbLine
 62
7
  6
CONTINUOUS
 10
-13.1483591837
 20
41.3879836735
 11
-13.1483591837
 21
43.0879836735
  0
LINE
  5
47A
100
AcDbEntity
  8
0
100
AcDbLine
 62
253
  6
CONTINUOUS
 10
-12.7948057931
 20
6.4879836735
 11
-12.7948057931
 21
6.5554436568
  0
LINE
  5
47B
100
AcDbEntity
  8
RACCORDO
100
AcDbLine
 62
253
  6
CONTINUOUS
 10
-12.7948057931
 20
6.4879836735
 11
-12.7948057931
 21
6.5554436568
  0
LINE
  5
47C
100
AcDbEntity
  8
0
100
AcDbLine
 62
7
  6
CONTINUOUS
 10
-12.7483591837
 20
6.5879836735
 11
-12.7483591837
 21
6.5558024714
  0
LINE
  5
47D
100
AcDbEntity
  8
0
100
AcDbLine
 62
7
  6
CONTINUOUS
 10
-12.6483591837
 20
6.5549350846
 11
-12.6483591837
 21
6.5879836735
  0
LINE
  5
47E
100
AcDbEntity
  8
RACCORDO
100
AcDbLine
 62
7
  6
CONTINUOUS
 10
-12.6483591837
 20
6.5549350846
 11
-12.6483591837
 21
6.5879836735
  0
LINE
  5
47F
100
AcDbEntity
  8
RACCORDO
100
AcDbLine
 62
7
  6
CONTINUOUS
 10
-12.6309484944
 20
43.0879836735
 11
-12.6309484944
 21
42.9879836735
  0
LINE
  5
480
100
AcDbEntity
  8
ASSI
100
AcDbLine
 62
7
  6
CONTINUOUS
 10
-12.6309484944
 20
43.0879836735
 11
-12.6309484944
 21
42.9879836735
  0
LINE
  5
481
100
AcDbEntity
  8
RACCORDO
100
AcDbLine
 62
7
  6
CONTINUOUS
 10
-12.552363638
 20
6.5879836735
 11
-12.552363638
 21
6.4879836735
  0
LINE
  5
482
100
AcDbEntity
  8
ASSI
100
AcDbLine
 62
7
  6
CONTINUOUS
 10
-12.552363638
 20
6.5879836735
 11
-12.552363638
 21
6.4879836735
  0
LINE
  5
483
100
AcDbEntity
  8
0
100
AcDbLine
 62
253
  6
CONTINUOUS
 10
-12.3483591837
 20
7.4720157551
 11
-12.3483591837
 21
7.5379836735
  0
LINE
  5
484
100
AcDbEntity
  8
RACCORDO
100
AcDbLine
 62
253
  6
CONTINUOUS
 10
-12.3483591837
 20
7.4720157551
 11
-12.3483591837
 21
7.5379836735
  0
LINE
  5
485
100
AcDbEntity
  8
0
100
AcDbLine
 62
253
  6
CONTINUOUS
 10
-12.3483591837
 20
42.0379836735
 11
-12.3483591837
 21
42.0879836735
  0
LINE
  5
486
100
AcDbEntity
  8
RACCORDO
100
AcDbLine
 62
253
  6
CONTINUOUS
 10
-12.3483591837
 20
42.0379836735
 11
-12.3483591837
 21
42.0879836735
  0
LINE
  5
487
100
AcDbEntity
  8
0
100
AcDbLine
 62
253
  6
CONTINUOUS
 10
-12.1498834185
 20
44.6724703531
 11
-12.1493673457
 21
44.8401462999
  0
LINE
  5
488
100
AcDbEntity
  8
RACCORDO
100
AcDbLine
 62
7
  6
CONTINUOUS
 10
-13.7241796454
 20
2.5087304147
 11
-13.7232351773
 21
2.5628389556
  0
LINE
  5
489
100
AcDbEntity
  8
ASSI
100
AcDbLine
 62
7
  6
CONTINUOUS
 10
-13.7232351773
 20
2.5628389556
 11
-13.6983591837
 21
3.9879836735
  0
LINE
  5
48A
100
AcDbEntity
  8
RACCORDO
100
AcDbLine
 62
253
  6
CONTINUOUS
 10
-14.1504982828
 20
1.1026816811
 11
-14.1483591837
 21
1.135310648
  0
LINE
  5
48B
100
AcDbEntity
  8
0
100
AcDbLine
 62
253
  6
CONTINUOUS
 10
-8.6528118218
 20
42.2919249555
 11
-8.6661127379
 21
42.2470465793
  0
LINE
  5
48C
100
AcDbEntity
  8
RACCORDO
100
AcDbLine
 62
253
  6
CONTINUOUS
 10
-8.6528118218
 20
42.2919249555
 11
-8.6661127379
 21
42.2470465793
  0
LINE
  5
48D
100
AcDbEntity
  8
CURVE
100
AcDbLine
 62
253
  6
CONTINUOUS
 10
-20.1435972881
 20
15.4046504435
 11
-19.9578829941
 21
15.6522694763
  0
LINE
  5
48E
100
AcDbEntity
  8
CURVE
100
AcDbLine
 62
253
  6
CONTINUOUS
 10
-19.6483591837
 20
19.5213172134
 11
-19.8340734777
 21
19.3356030163
  0
LINE
  5
48F
100
AcDbEntity
  8
CURVE
100
AcDbLine
 62
253
  6
CONTINUOUS
 10
-20.2055020464
 20
18.8713172134
 11
-20.3912163597
 21
18.6856030163
  0
LINE
  5
490
100
AcDbEntity
  8
SMUSSO
100
AcDbLine
 62
7
  6
CONTINUOUS
 10
-10.3983591837
 20
28.2879836735
 11
-10.8983591837
 21
27.7879836735
  0
LINE
  5
491
100
AcDbEntity
  8
ASSI
100
AcDbLine
 62
7
  6
CONTINUOUS
 10
-10.3983591837
 20
28.2879836735
 11
-10.8983591837
 21
27.7879836735
  0
LINE
  5
492
100
AcDbEntity
  8
SMUSSO
100
AcDbLine
 62
7
  6
CONTINUOUS
 10
-15.3983591837
 20
23.2879836735
 11
-14.8983591837
 21
23.7879836735
  0
LINE
  5
493
100
AcDbEntity
  8
ASSI
100
AcDbLine
 62
7
  6
CONTINUOUS
 10
-15.3983591837
 20
23.2879836735
 11
-14.8983591837
 21
23.7879836735
  0
LINE
  5
494
100
AcDbEntity
  8
CURVE
100
AcDbLine
 62
253
  6
CONTINUOUS
 10
-19.8340734777
 20
18.2213172134
 11
-19.6483591837
 21
18.4070314106
  0
LINE
  5
495
100
AcDbEntity
  8
CURVE
100
AcDbLine
 62
253
  6
CONTINUOUS
 10
-19.5858591837
 20
24.7879836735
 11
-19.3983591837
 21
24.8504836735
  0
LINE
  5
496
100
AcDbEntity
  8
0
100
AcDbLine
 62
7
  6
CONTINUOUS
 10
-11.2483591837
 20
22.2879836735
 11
-14.1883591837
 21
22.2879836735
  0
LINE
  5
497
100
AcDbEntity
  8
SMUSSO
100
AcDbLine
 62
7
  6
CONTINUOUS
 10
-14.8983591837
 20
22.5379836735
 11
-10.8983591837
 21
22.5379836735
  0
LINE
  5
498
100
AcDbEntity
  8
ASSI
100
AcDbLine
 62
7
  6
CONTINUOUS
 10
-14.8983591837
 20
22.5379836735
 11
-10.8983591837
 21
22.5379836735
  0
LINE
  5
499
100
AcDbEntity
  8
RACCORDO
100
AcDbLine
 62
7
  6
CONTINUOUS
 10
0.0647196945
 20
22.9379836735
 11
-0.8483591837
 21
22.9379836735
  0
LINE
  5
49A
100
AcDbEntity
  8
ASSI
100
AcDbLine
 62
7
  6
CONTINUOUS
 10
0.0647196945
 20
22.9379836735
 11
-0.8483591837
 21
22.9379836735
  0
LINE
  5
49B
100
AcDbEntity
  8
CURVE
100
AcDbLine
 62
253
  6
CONTINUOUS
 10
0.3976743386
 20
22.964174017
 11
0.3847096932
 21
22.964174017
  0
LINE
  5
49C
100
AcDbEntity
  8
SMUSSO
100
AcDbLine
 62
7
  6
CONTINUOUS
 10
-15.3983591837
 20
23.0379836735
 11
-10.3983591837
 21
23.0379836735
  0
LINE
  5
49D
100
AcDbEntity
  8
ASSI
100
AcDbLine
 62
7
  6
CONTINUOUS
 10
-15.3983591837
 20
23.0379836735
 11
-10.3983591837
 21
23.0379836735
  0
LINE
  5
49E
100
AcDbEntity
  8
CURVE
100
AcDbLine
 62
253
  6
CONTINUOUS
 10
-20.8358591837
 20
25.0379836735
 11
-20.6483591837
 21
24.9754836735
  0
LINE
  5
49F
100
AcDbEntity
  8
CURVE
100
AcDbLine
 62
253
  6
CONTINUOUS
 10
-19.9608591837
 20
24.8504836735
 11
-19.7733591837
 21
24.7879836735
  0
LWPOLYLINE
  5
4A0
100
AcDbEntity
  8
0
100
AcDbPolyline
 62
253
  6
CONTINUOUS
 90
5
 70
0
 10
-8.6528118218
 20
7.2840423915
 10
-8.6661127379
 20
7.3289207676
 10
-8.6879740081
 20
7.3712490038
 10
-8.7178992486
 20
7.4097700952
 10
-8.755036993
 20
7.4431695026
  0
LWPOLYLINE
  5
4A1
100
AcDbEntity
  8
RACCORDO
100
AcDbPolyline
 62
253
  6
CONTINUOUS
 90
5
 70
0
 10
-8.6528118218
 20
7.2840423915
 10
-8.6661127379
 20
7.3289207676
 10
-8.6879740081
 20
7.3712490038
 10
-8.7178992486
 20
7.4097700952
 10
-8.755036993
 20
7.4431695026
  0
LWPOLYLINE
  5
4A2
100
AcDbEntity
  8
RACCORDO
100
AcDbPolyline
 62
7
  6
CONTINUOUS
 90
13
 70
0
 10
-9.8483591837
 20
1.0379455973
 10
-9.8462213534
 20
1.0053179387
 10
-9.839843633
 20
0.9732489659
 10
-9.8293349065
 20
0.9422870641
 10
-9.8148746051
 20
0.912961493
 10
-9.7967098711
 20
0.8857742357
 10
-9.775151649
 20
0.8611912082
 10
-9.7505686215
 20
0.839632986
 10
-9.7233813641
 20
0.821468252
 10
-9.6940557931
 20
0.8070079507
 10
-9.6630938913
 20
0.7964992242
 10
-9.6310249185
 20
0.7901215037
 10
-9.5983972599
 20
0.7879836735
  0
LINE
  5
4A3
100
AcDbEntity
  8
RACCORDO
100
AcDbLine
 62
7
  6
CONTINUOUS
 10
-11.4658142486
 20
1.0554006622
 11
-11.4658142486
 21
2.3897290045
  0
LINE
  5
4A4
100
AcDbEntity
  8
RACCORDO
100
AcDbLine
 62
7
  6
CONTINUOUS
 10
-11.4658142486
 20
47.1862383424
 11
-11.4658142486
 21
48.5205666848
  0
LINE
  5
4A5
100
AcDbEntity
  8
RACCORDO
100
AcDbLine
 62
7
  6
CONTINUOUS
 10
-11.4483591837
 20
1.0379455973
 11
-11.4483591837
 21
2.3879836735
  0
LINE
  5
4A6
100
AcDbEntity
  8
RACCORDO
100
AcDbLine
 62
7
  6
CONTINUOUS
 10
-11.4483591837
 20
47.1879836735
 11
-11.4483591837
 21
48.5380217497
  0
LINE
  5
4A7
100
AcDbEntity
  8
0
100
AcDbLine
 62
7
  6
CONTINUOUS
 10
-11.2483591837
 20
9.2879836735
 11
-11.2483591837
 21
12.2879836735
  0
LINE
  5
4A8
100
AcDbEntity
  8
0
100
AcDbLine
 62
7
  6
CONTINUOUS
 10
-11.2483591837
 20
14.2879836735
 11
-11.2483591837
 21
17.2879836735
  0
LINE
  5
4A9
100
AcDbEntity
  8
0
100
AcDbLine
 62
7
  6
CONTINUOUS
 10
-11.2483591837
 20
19.2879836735
 11
-11.2483591837
 21
22.2879836735
  0
LINE
  5
4AA
100
AcDbEntity
  8
0
100
AcDbLine
 62
7
  6
CONTINUOUS
 10
-11.2483591837
 20
24.2879836735
 11
-11.2483591837
 21
27.2879836735
  0
LINE
  5
4AB
100
AcDbEntity
  8
SMUSSO
100
AcDbLine
 62
7
  6
CONTINUOUS
 10
-10.8983591837
 20
27.7879836735
 11
-10.8983591837
 21
23.7879836735
  0
LINE
  5
4AC
100
AcDbEntity
  8
ASSI
100
AcDbLine
 62
7
  6
CONTINUOUS
 10
-10.8983591837
 20
27.7879836735
 11
-10.8983591837
 21
23.7879836735
  0
LINE
  5
4AD
100
AcDbEntity
  8
SMUSSO
100
AcDbLine
 62
7
  6
CONTINUOUS
 10
-10.8983591837
 20
22.5379836735
 11
-10.8983591837
 21
19.0379836735
  0
LINE
  5
4AE
100
AcDbEntity
  8
ASSI
100
AcDbLine
 62
7
  6
CONTINUOUS
 10
-10.8983591837
 20
22.5379836735
 11
-10.8983591837
 21
19.0379836735
  0
LINE
  5
4AF
100
AcDbEntity
  8
SMUSSO
100
AcDbLine
 62
7
  6
CONTINUOUS
 10
-10.8983591837
 20
17.5379836735
 11
-10.8983591837
 21
14.0379836735
  0
LINE
  5
4B0
100
AcDbEntity
  8
ASSI
100
AcDbLine
 62
7
  6
CONTINUOUS
 10
-10.8983591837
 20
17.5379836735
 11
-10.8983591837
 21
14.0379836735
  0
LINE
  5
4B1
100
AcDbEntity
  8
SMUSSO
100
AcDbLine
 62
7
  6
CONTINUOUS
 10
-10.8983591837
 20
12.5379836735
 11
-10.8983591837
 21
9.0379836735
  0
LINE
  5
4B2
100
AcDbEntity
  8
ASSI
100
AcDbLine
 62
7
  6
CONTINUOUS
 10
-10.8983591837
 20
12.5379836735
 11
-10.8983591837
 21
9.0379836735
  0
LWPOLYLINE
  5
4B3
100
AcDbEntity
  8
RACCORDO
100
AcDbPolyline
 62
7
  6
CONTINUOUS
 90
13
 70
0
 10
-9.8483591837
 20
48.5380217497
 10
-9.8462213534
 20
48.5706494082
 10
-9.839843633
 20
48.6027183811
 10
-9.8293349065
 20
48.6336802828
 10
-9.8148746051
 20
48.6630058539
 10
-9.7967098711
 20
48.6901931113
 10
-9.775151649
 20
48.7147761388
 10
-9.7505686215
 20
48.7363343609
 10
-9.7233813641
 20
48.7544990949
 10
-9.6940557931
 20
48.7689593963
 10
-9.6630938913
 20
48.7794681228
 10
-9.6310249185
 20
48.7858458432
 10
-9.5983972599
 20
48.7879836735
  0
LWPOLYLINE
  5
4B4
100
AcDbEntity
  8
ASSI
100
AcDbPolyline
 62
253
  6
CONTINUOUS
 90
12
 70
0
 10
-0.0615266406
 20
49.0748466775
 10
-0.0615690366
 20
49.0747620476
 10
-0.0616122295
 20
49.0745335394
 10
-0.0616562195
 20
49.074161153
 10
-0.0617012818
 20
49.0736508342
 10
-0.0617471412
 20
49.0729966373
 10
-0.0617929713
 20
49.0721807241
 10
-0.0618387902
 20
49.0711974653
 10
-0.0618845798
 20
49.0700524903
 10
-0.0619294596
 20
49.0687448491
 10
-0.061973412
 20
49.0672685205
 10
-0.062057759
 20
49.0638449784
  0
LINE
  5
4B5
100
AcDbEntity
  8
CURVE
100
AcDbLine
 62
253
  6
CONTINUOUS
 10
-20.762644909
 20
19.7998881992
 11
-20.5769306344
 21
19.8927456077
  0
LINE
  5
4B6
100
AcDbEntity
  8
SMUSSO
100
AcDbLine
 62
7
  6
CONTINUOUS
 10
-10.3983591837
 20
23.2879836735
 11
-15.3983591837
 21
23.2879836735
  0
LINE
  5
4B7
100
AcDbEntity
  8
ASSI
100
AcDbLine
 62
7
  6
CONTINUOUS
 10
-10.3983591837
 20
23.2879836735
 11
-15.3983591837
 21
23.2879836735
  0
LINE
  5
4B8
100
AcDbEntity
  8
CURVE
100
AcDbLine
 62
253
  6
CONTINUOUS
 10
0.4440478751
 20
23.5534598359
 11
0.4667360035
 21
23.5534598359
  0
LINE
  5
4B9
100
AcDbEntity
  8
RACCORDO
100
AcDbLine
 62
7
  6
CONTINUOUS
 10
0.0647196945
 20
23.6379836735
 11
-0.8483591837
 21
23.6379836735
  0
LINE
  5
4BA
100
AcDbEntity
  8
ASSI
100
AcDbLine
 62
7
  6
CONTINUOUS
 10
0.0647196945
 20
23.6379836735
 11
-0.8483591837
 21
23.6379836735
  0
LINE
  5
4BB
100
AcDbEntity
  8
SMUSSO
100
AcDbLine
 62
7
  6
CONTINUOUS
 10
-10.8983591837
 20
23.7879836735
 11
-14.8983591837
 21
23.7879836735
  0
LINE
  5
4BC
100
AcDbEntity
  8
ASSI
100
AcDbLine
 62
7
  6
CONTINUOUS
 10
-10.8983591837
 20
23.7879836735
 11
-14.8983591837
 21
23.7879836735
  0
LINE
  5
4BD
100
AcDbEntity
  8
CURVE
100
AcDbLine
 62
253
  6
CONTINUOUS
 10
0.4634948424
 20
24.0533409425
 11
0.4472890364
 21
24.0533409425
  0
LINE
  5
4BE
100
AcDbEntity
  8
CURVE
100
AcDbLine
 62
253
  6
CONTINUOUS
 10
0.4073978216
 20
24.1713169184
 11
0.3847096932
 21
24.1713169184
  0
LINE
  5
4BF
100
AcDbEntity
  8
0
100
AcDbLine
 62
7
  6
CONTINUOUS
 10
-14.1883591837
 20
24.2879836735
 11
-11.2483591837
 21
24.2879836735
  0
LINE
  5
4C0
100
AcDbEntity
  8
CURVE
100
AcDbLine
 62
253
  6
CONTINUOUS
 10
0.4143787841
 20
24.3498883691
 11
0.4370669125
 21
24.3498883691
  0
LINE
  5
4C1
100
AcDbEntity
  8
CURVE
100
AcDbLine
 62
253
  6
CONTINUOUS
 10
0.4440478751
 20
24.6708407953
 11
0.4667360035
 21
24.6708407953
  0
LINE
  5
4C2
100
AcDbEntity
  8
CURVE
100
AcDbLine
 62
253
  6
CONTINUOUS
 10
-19.7733591837
 20
24.7879836735
 11
-19.5858591837
 21
24.7879836735
  0
LINE
  5
4C3
100
AcDbEntity
  8
CURVE
100
AcDbLine
 62
253
  6
CONTINUOUS
 10
-20.6483591837
 20
24.9754836735
 11
-20.5858591837
 21
24.9754836735
  0
LINE
  5
4C4
100
AcDbEntity
  8
CURVE
100
AcDbLine
 62
253
  6
CONTINUOUS
 10
0.4143787841
 20
24.9998884466
 11
0.4370669125
 21
24.9998884466
  0
LINE
  5
4C5
100
AcDbEntity
  8
SMUSSO
100
AcDbLine
 62
7
  6
CONTINUOUS
 10
-15.3983591837
 20
28.2879836735
 11
-14.8983591837
 21
27.7879836735
  0
LINE
  5
4C6
100
AcDbEntity
  8
ASSI
100
AcDbLine
 62
7
  6
CONTINUOUS
 10
-15.3983591837
 20
28.2879836735
 11
-14.8983591837
 21
27.7879836735
  0
LINE
  5
4C7
100
AcDbEntity
  8
SMUSSO
100
AcDbLine
 62
7
  6
CONTINUOUS
 10
-10.3983591837
 20
23.2879836735
 11
-10.8983591837
 21
23.7879836735
  0
LINE
  5
4C8
100
AcDbEntity
  8
ASSI
100
AcDbLine
 62
7
  6
CONTINUOUS
 10
-10.3983591837
 20
23.2879836735
 11
-10.8983591837
 21
23.7879836735
  0
LWPOLYLINE
  5
4C9
100
AcDbEntity
  8
RACCORDO
100
AcDbPolyline
 62
7
  6
CONTINUOUS
 90
13
 70
0
 10
-11.4483591837
 20
48.5380217497
 10
-11.4504970139
 20
48.5706494082
 10
-11.4568747344
 20
48.6027183811
 10
-11.4673834609
 20
48.6336802828
 10
-11.4818437622
 20
48.6630058539
 10
-11.5000084962
 20
48.6901931113
 10
-11.5215667184
 20
48.7147761388
 10
-11.5461497459
 20
48.7363343609
 10
-11.5733370032
 20
48.7544990949
 10
-11.6026625743
 20
48.7689593963
 10
-11.6336244761
 20
48.7794681228
 10
-11.6656934489
 20
48.7858458432
 10
-11.6983211075
 20
48.7879836735
  0
LINE
  5
4CA
100
AcDbEntity
  8
0
100
AcDbLine
 62
253
  6
CONTINUOUS
 10
-9.1473510217
 20
44.8401462999
 11
-9.1468349488
 21
44.6724703531
  0
LINE
  5
4CB
100
AcDbEntity
  8
SMUSSO
100
AcDbLine
 62
7
  6
CONTINUOUS
 10
-10.3983591837
 20
28.2879836735
 11
-10.3983591837
 21
23.2879836735
  0
LINE
  5
4CC
100
AcDbEntity
  8
ASSI
100
AcDbLine
 62
7
  6
CONTINUOUS
 10
-10.3983591837
 20
28.2879836735
 11
-10.3983591837
 21
23.2879836735
  0
LINE
  5
4CD
100
AcDbEntity
  8
SMUSSO
100
AcDbLine
 62
7
  6
CONTINUOUS
 10
-10.3983591837
 20
23.0379836735
 11
-10.3983591837
 21
18.5379836735
  0
LINE
  5
4CE
100
AcDbEntity
  8
ASSI
100
AcDbLine
 62
7
  6
CONTINUOUS
 10
-10.3983591837
 20
23.0379836735
 11
-10.3983591837
 21
18.5379836735
  0
LINE
  5
4CF
100
AcDbEntity
  8
SMUSSO
100
AcDbLine
 62
7
  6
CONTINUOUS
 10
-10.3983591837
 20
18.0379836735
 11
-10.3983591837
 21
13.5379836735
  0
LINE
  5
4D0
100
AcDbEntity
  8
ASSI
100
AcDbLine
 62
7
  6
CONTINUOUS
 10
-10.3983591837
 20
18.0379836735
 11
-10.3983591837
 21
13.5379836735
  0
LINE
  5
4D1
100
AcDbEntity
  8
SMUSSO
100
AcDbLine
 62
7
  6
CONTINUOUS
 10
-10.3983591837
 20
13.0379836735
 11
-10.3983591837
 21
8.5379836735
  0
LINE
  5
4D2
100
AcDbEntity
  8
ASSI
100
AcDbLine
 62
7
  6
CONTINUOUS
 10
-10.3983591837
 20
13.0379836735
 11
-10.3983591837
 21
8.5379836735
  0
LINE
  5
4D3
100
AcDbEntity
  8
RACCORDO
100
AcDbLine
 62
7
  6
CONTINUOUS
 10
-9.8483591837
 20
1.0379455973
 11
-9.8483591837
 21
2.3879836735
  0
LINE
  5
4D4
100
AcDbEntity
  8
RACCORDO
100
AcDbLine
 62
7
  6
CONTINUOUS
 10
-9.8483591837
 20
47.1879836735
 11
-9.8483591837
 21
48.5380217497
  0
LINE
  5
4D5
100
AcDbEntity
  8
RACCORDO
100
AcDbLine
 62
7
  6
CONTINUOUS
 10
-9.8309041187
 20
1.0554006622
 11
-9.8309041187
 21
2.3897290045
  0
LINE
  5
4D6
100
AcDbEntity
  8
RACCORDO
100
AcDbLine
 62
7
  6
CONTINUOUS
 10
-9.8309041187
 20
47.1862383424
 11
-9.8309041187
 21
48.5205666848
  0
LINE
  5
4D7
100
AcDbEntity
  8
0
100
AcDbLine
 62
253
  6
CONTINUOUS
 10
-8.9483591837
 20
42.0879836735
 11
-8.9483591837
 21
42.0379836735
  0
LINE
  5
4D8
100
AcDbEntity
  8
RACCORDO
100
AcDbLine
 62
253
  6
CONTINUOUS
 10
-8.9483591837
 20
42.0879836735
 11
-8.9483591837
 21
42.0379836735
  0
LINE
  5
4D9
100
AcDbEntity
  8
0
100
AcDbLine
 62
253
  6
CONTINUOUS
 10
-8.9483591837
 20
7.4720157551
 11
-8.9483591837
 21
7.5379836735
  0
LINE
  5
4DA
100
AcDbEntity
  8
RACCORDO
100
AcDbLine
 62
253
  6
CONTINUOUS
 10
-8.9483591837
 20
7.4720157551
 11
-8.9483591837
 21
7.5379836735
  0
LINE
  5
4DB
100
AcDbEntity
  8
RACCORDO
100
AcDbLine
 62
7
  6
CONTINUOUS
 10
-8.7443547294
 20
6.5879836735
 11
-8.7443547294
 21
6.4879836735
  0
LINE
  5
4DC
100
AcDbEntity
  8
ASSI
100
AcDbLine
 62
7
  6
CONTINUOUS
 10
-8.7443547294
 20
6.5879836735
 11
-8.7443547294
 21
6.4879836735
  0
LINE
  5
4DD
100
AcDbEntity
  8
RACCORDO
100
AcDbLine
 62
7
  6
CONTINUOUS
 10
-8.665769873
 20
43.0879836735
 11
-8.665769873
 21
42.9879836735
  0
LINE
  5
4DE
100
AcDbEntity
  8
ASSI
100
AcDbLine
 62
7
  6
CONTINUOUS
 10
-8.665769873
 20
43.0879836735
 11
-8.665769873
 21
42.9879836735
  0
LINE
  5
4DF
100
AcDbEntity
  8
0
100
AcDbLine
 62
7
  6
CONTINUOUS
 10
-8.6483591837
 20
6.5879836735
 11
-8.6483591837
 21
6.5549350846
  0
LINE
  5
4E0
100
AcDbEntity
  8
RACCORDO
100
AcDbLine
 62
7
  6
CONTINUOUS
 10
-8.6483591837
 20
6.5879836735
 11
-8.6483591837
 21
6.5549350846
  0
LINE
  5
4E1
100
AcDbEntity
  8
0
100
AcDbLine
 62
253
  6
CONTINUOUS
 10
-9.1468349488
 20
4.9034969938
 11
-9.1473510217
 21
4.7358210471
  0
LWPOLYLINE
  5
4E2
100
AcDbEntity
  8
RACCORDO
100
AcDbPolyline
 62
7
  6
CONTINUOUS
 90
13
 70
0
 10
-11.4483591837
 20
1.0379455973
 10
-11.4504970139
 20
1.0053179387
 10
-11.4568747344
 20
0.9732489659
 10
-11.4673834609
 20
0.9422870641
 10
-11.4818437622
 20
0.912961493
 10
-11.5000084962
 20
0.8857742357
 10
-11.5215667184
 20
0.8611912082
 10
-11.5461497459
 20
0.839632986
 10
-11.5733370032
 20
0.821468252
 10
-11.6026625743
 20
0.8070079507
 10
-11.6336244761
 20
0.7964992242
 10
-11.6656934489
 20
0.7901215037
 10
-11.6983211075
 20
0.7879836735
  0
LINE
  5
4E3
100
AcDbEntity
  8
RACCORDO
100
AcDbLine
 62
7
  6
CONTINUOUS
 10
-7.1462202243
 20
48.4732846042
 11
-7.1483591837
 21
48.4406566989
  0
LWPOLYLINE
  5
4E4
100
AcDbEntity
  8
ASSI
100
AcDbPolyline
 62
253
  6
CONTINUOUS
 90
10
 70
0
 10
-21.2351917268
 20
0.5011206694
 10
-21.235146564
 20
0.5012200614
 10
-21.2351009602
 20
0.5014724183
 10
-21.2350549153
 20
0.5018777401
 10
-21.2350081553
 20
0.5024328065
 10
-21.2349609542
 20
0.5031408377
 10
-21.2349141338
 20
0.5040114949
 10
-21.2348676922
 20
0.5050504428
 10
-21.2348216314
 20
0.5062520167
 10
-21.2347331818
 20
0.5091257053
  0
LINE
  5
4E5
100
AcDbEntity
  8
CURVE
100
AcDbLine
 62
253
  6
CONTINUOUS
 10
-18.5483591837
 20
15.9665551182
 11
-18.2769306284
 21
16.2379836735
  0
LINE
  5
4E6
100
AcDbEntity
  8
CURVE
100
AcDbLine
 62
253
  6
CONTINUOUS
 10
-20.9483591837
 20
13.4236980256
 11
-20.762644909
 21
13.6094122228
  0
LINE
  5
4E7
100
AcDbEntity
  8
SMUSSO
100
AcDbLine
 62
7
  6
CONTINUOUS
 10
-15.3983591837
 20
18.5379836735
 11
-14.8983591837
 21
19.0379836735
  0
LINE
  5
4E8
100
AcDbEntity
  8
ASSI
100
AcDbLine
 62
7
  6
CONTINUOUS
 10
-15.3983591837
 20
18.5379836735
 11
-14.8983591837
 21
19.0379836735
  0
LINE
  5
4E9
100
AcDbEntity
  8
CURVE
100
AcDbLine
 62
253
  6
CONTINUOUS
 10
-20.762644909
 20
12.680840772
 11
-20.9483591837
 21
12.4951264974
  0
LINE
  5
4EA
100
AcDbEntity
  8
SMUSSO
100
AcDbLine
 62
7
  6
CONTINUOUS
 10
-10.3983591837
 20
23.0379836735
 11
-10.8983591837
 21
22.5379836735
  0
LINE
  5
4EB
100
AcDbEntity
  8
ASSI
100
AcDbLine
 62
7
  6
CONTINUOUS
 10
-10.3983591837
 20
23.0379836735
 11
-10.8983591837
 21
22.5379836735
  0
LINE
  5
4EC
100
AcDbEntity
  8
CURVE
100
AcDbLine
 62
253
  6
CONTINUOUS
 10
-19.6483591837
 20
13.330840772
 11
-19.8340734777
 21
13.1451265749
  0
LINE
  5
4ED
100
AcDbEntity
  8
CURVE
100
AcDbLine
 62
253
  6
CONTINUOUS
 10
-18.5483591837
 20
20.1879836735
 11
-16.6483591837
 21
21.1379836735
  0
LINE
  5
4EE
100
AcDbEntity
  8
CURVE
100
AcDbLine
 62
253
  6
CONTINUOUS
 10
-19.8340734777
 20
19.3356030163
 11
-20.0197877717
 21
19.2427456077
  0
LINE
  5
4EF
100
AcDbEntity
  8
CURVE
100
AcDbLine
 62
253
  6
CONTINUOUS
 10
-18.0055020732
 20
25.2879836735
 11
-18.2769306284
 21
25.2879836735
  0
LINE
  5
4F0
100
AcDbEntity
  8
CURVE
100
AcDbLine
 62
253
  6
CONTINUOUS
 10
0.4143787841
 20
25.587983669
 11
0.4370669125
 21
25.587983669
  0
LINE
  5
4F1
100
AcDbEntity
  8
CURVE
100
AcDbLine
 62
253
  6
CONTINUOUS
 10
0.3847096932
 20
26.0284598973
 11
0.4073978216
 21
26.0284598973
  0
LINE
  5
4F2
100
AcDbEntity
  8
CURVE
100
AcDbLine
 62
253
  6
CONTINUOUS
 10
0.4667360035
 20
26.0822693562
 11
0.4440478751
 21
26.0822693562
  0
LINE
  5
4F3
100
AcDbEntity
  8
CURVE
100
AcDbLine
 62
253
  6
CONTINUOUS
 10
-16.9197877672
 20
26.2379836735
 11
-17.1912163508
 21
26.2379836735
  0
LINE
  5
4F4
100
AcDbEntity
  8
CURVE
100
AcDbLine
 62
253
  6
CONTINUOUS
 10
0.4440478751
 20
26.7879836735
 11
0.4667360035
 21
26.7879836735
  0
LINE
  5
4F5
100
AcDbEntity
  8
RACCORDO
100
AcDbLine
 62
7
  6
CONTINUOUS
 10
-7.572538722
 20
2.5087304147
 11
-7.5734831901
 21
2.5628389556
  0
LINE
  5
4F6
100
AcDbEntity
  8
ASSI
100
AcDbLine
 62
7
  6
CONTINUOUS
 10
-7.5734831901
 20
2.5628389556
 11
-7.5983591837
 21
3.9879836735
  0
LINE
  5
4F7
100
AcDbEntity
  8
0
100
AcDbLine
 62
7
  6
CONTINUOUS
 10
-8.5483591837
 20
6.5879836735
 11
-8.5483591837
 21
6.5558024714
  0
LINE
  5
4F8
100
AcDbEntity
  8
0
100
AcDbLine
 62
253
  6
CONTINUOUS
 10
-8.5019125743
 20
6.5554436568
 11
-8.5019125743
 21
6.4879836735
  0
LINE
  5
4F9
100
AcDbEntity
  8
RACCORDO
100
AcDbLine
 62
253
  6
CONTINUOUS
 10
-8.5019125743
 20
6.5554436568
 11
-8.5019125743
 21
6.4879836735
  0
LINE
  5
4FA
100
AcDbEntity
  8
0
100
AcDbLine
 62
7
  6
CONTINUOUS
 10
-8.1483591837
 20
43.0879836735
 11
-8.1483591837
 21
41.3879836735
  0
LINE
  5
4FB
100
AcDbEntity
  8
ASSI
100
AcDbLine
 62
7
  6
CONTINUOUS
 10
-8.1483591837
 20
43.0879836735
 11
-8.1483591837
 21
41.3879836735
  0
LINE
  5
4FC
100
AcDbEntity
  8
0
100
AcDbLine
 62
7
  6
CONTINUOUS
 10
-8.1483591837
 20
8.1879836735
 11
-8.1483591837
 21
6.4879836735
  0
LINE
  5
4FD
100
AcDbEntity
  8
ASSI
100
AcDbLine
 62
7
  6
CONTINUOUS
 10
-8.1483591837
 20
8.1879836735
 11
-8.1483591837
 21
6.4879836735
  0
LINE
  5
4FE
100
AcDbEntity
  8
0
100
AcDbLine
 62
7
  6
CONTINUOUS
 10
-7.18501482
 20
44.6513280371
 11
-7.18501482
 21
44.4513280371
  0
LINE
  5
4FF
100
AcDbEntity
  8
DRAFT
100
AcDbLine
 62
7
  6
CONTINUOUS
 10
-7.18501482
 20
44.6513280371
 11
-7.18501482
 21
44.4513280371
  0
LINE
  5
500
100
AcDbEntity
  8
0
100
AcDbLine
 62
7
  6
CONTINUOUS
 10
-7.18501482
 20
5.1246393098
 11
-7.18501482
 21
4.9246393098
  0
LINE
  5
501
100
AcDbEntity
  8
DRAFT
100
AcDbLine
 62
7
  6
CONTINUOUS
 10
-7.18501482
 20
5.1246393098
 11
-7.18501482
 21
4.9246393098
  0
LINE
  5
502
100
AcDbEntity
  8
RACCORDO
100
AcDbLine
 62
7
  6
CONTINUOUS
 10
-7.1483591837
 20
44.8324906992
 11
-7.1483591837
 21
44.7879836735
  0
LINE
  5
503
100
AcDbEntity
  8
0
100
AcDbLine
 62
7
  6
CONTINUOUS
 10
-7.1483591837
 20
44.6879836735
 11
-7.1483591837
 21
44.4879836735
  0
LINE
  5
504
100
AcDbEntity
  8
DRAFT
100
AcDbLine
 62
7
  6
CONTINUOUS
 10
-7.1483591837
 20
44.6879836735
 11
-7.1483591837
 21
44.4879836735
  0
LINE
  5
505
100
AcDbEntity
  8
0
100
AcDbLine
 62
7
  6
CONTINUOUS
 10
-7.1483591837
 20
5.0879836735
 11
-7.1483591837
 21
4.8879836735
  0
LINE
  5
506
100
AcDbEntity
  8
DRAFT
100
AcDbLine
 62
7
  6
CONTINUOUS
 10
-7.1483591837
 20
5.0879836735
 11
-7.1483591837
 21
4.8879836735
  0
LINE
  5
507
100
AcDbEntity
  8
RACCORDO
100
AcDbLine
 62
7
  6
CONTINUOUS
 10
-7.1483591837
 20
1.0554768204
 11
-7.1483591837
 21
2.4944595695
  0
LINE
  5
508
100
AcDbEntity
  8
RACCORDO
100
AcDbLine
 62
7
  6
CONTINUOUS
 10
-7.1483591837
 20
4.7434766477
 11
-7.1483591837
 21
4.7879836735
  0
LINE
  5
509
100
AcDbEntity
  8
RACCORDO
100
AcDbLine
 62
7
  6
CONTINUOUS
 10
-7.1483591837
 20
47.0815077774
 11
-7.1483591837
 21
48.5204905265
  0
LINE
  5
50A
100
AcDbEntity
  8
RACCORDO
100
AcDbLine
 62
253
  6
CONTINUOUS
 10
-6.8983591837
 20
48.7705286085
 11
-6.8983591837
 21
48.6906186228
  0
LINE
  5
50B
100
AcDbEntity
  8
RACCORDO
100
AcDbLine
 62
253
  6
CONTINUOUS
 10
-6.8983591837
 20
0.8853487242
 11
-6.8983591837
 21
0.8054387384
  0
LINE
  5
50C
100
AcDbEntity
  8
RACCORDO
100
AcDbLine
 62
7
  6
CONTINUOUS
 10
-7.572538722
 20
47.0672369323
 11
-7.5734831901
 21
47.0131283913
  0
LINE
  5
50D
100
AcDbEntity
  8
ASSI
100
AcDbLine
 62
7
  6
CONTINUOUS
 10
-7.5983591837
 20
45.5879836735
 11
-7.5734831901
 21
47.0131283913
  0
LWPOLYLINE
  5
50E
100
AcDbEntity
  8
0
100
AcDbPolyline
 62
253
  6
CONTINUOUS
 90
5
 70
0
 10
-12.6439065456
 20
7.2840423915
 10
-12.6306056294
 20
7.3289207676
 10
-12.6087443592
 20
7.3712490038
 10
-12.5788191187
 20
7.4097700952
 10
-12.5416813744
 20
7.4431695026
  0
LWPOLYLINE
  5
50F
100
AcDbEntity
  8
RACCORDO
100
AcDbPolyline
 62
253
  6
CONTINUOUS
 90
5
 70
0
 10
-12.6439065456
 20
7.2840423915
 10
-12.6306056294
 20
7.3289207676
 10
-12.6087443592
 20
7.3712490038
 10
-12.5788191187
 20
7.4097700952
 10
-12.5416813744
 20
7.4431695026
  0
LINE
  5
510
100
AcDbEntity
  8
0
100
AcDbLine
 62
7
  6
CONTINUOUS
 10
-12.6389315313
 20
6.556366175
 11
-12.6293626677
 21
6.5879836735
  0
LINE
  5
511
100
AcDbEntity
  8
RACCORDO
100
AcDbLine
 62
7
  6
CONTINUOUS
 10
-12.6389315313
 20
6.556366175
 11
-12.6293626677
 21
6.5879836735
  0
LINE
  5
512
100
AcDbEntity
  8
0
100
AcDbLine
 62
7
  6
CONTINUOUS
 10
-17.2356278616
 20
3.7134330242
 11
-17.1483591837
 21
3.8879836735
  0
LINE
  5
513
100
AcDbEntity
  8
CURVE
100
AcDbLine
 62
253
  6
CONTINUOUS
 10
0.3847096932
 20
26.987983669
 11
0.4073978216
 21
26.987983669
  0
LINE
  5
514
100
AcDbEntity
  8
0
100
AcDbLine
 62
7
  6
CONTINUOUS
 10
-11.2483591837
 20
27.2879836735
 11
-14.1883591837
 21
27.2879836735
  0
LINE
  5
515
100
AcDbEntity
  8
SMUSSO
100
AcDbLine
 62
7
  6
CONTINUOUS
 10
-14.8983591837
 20
27.7879836735
 11
-10.8983591837
 21
27.7879836735
  0
LINE
  5
516
100
AcDbEntity
  8
ASSI
100
AcDbLine
 62
7
  6
CONTINUOUS
 10
-14.8983591837
 20
27.7879836735
 11
-10.8983591837
 21
27.7879836735
  0
LINE
  5
517
100
AcDbEntity
  8
RACCORDO
100
AcDbLine
 62
7
  6
CONTINUOUS
 10
0.0647196945
 20
27.9379836735
 11
-0.8483591837
 21
27.9379836735
  0
LINE
  5
518
100
AcDbEntity
  8
ASSI
100
AcDbLine
 62
7
  6
CONTINUOUS
 10
0.0647196945
 20
27.9379836735
 11
-0.8483591837
 21
27.9379836735
  0
LINE
  5
519
100
AcDbEntity
  8
SMUSSO
100
AcDbLine
 62
7
  6
CONTINUOUS
 10
-15.3983591837
 20
28.2879836735
 11
-10.3983591837
 21
28.2879836735
  0
LINE
  5
51A
100
AcDbEntity
  8
ASSI
100
AcDbLine
 62
7
  6
CONTINUOUS
 10
-15.3983591837
 20
28.2879836735
 11
-10.3983591837
 21
28.2879836735
  0
LINE
  5
51B
100
AcDbEntity
  8
0
100
AcDbLine
 62
7
  6
CONTINUOUS
 10
-17.2356278616
 20
45.8625343228
 11
-17.1483591837
 21
45.6879836735
  0
LINE
  5
51C
100
AcDbEntity
  8
0
100
AcDbLine
 62
253
  6
CONTINUOUS
 10
-12.6302669699
 20
42.2462100387
 11
-12.6438015096
 21
42.2913889779
  0
LINE
  5
51D
100
AcDbEntity
  8
RACCORDO
100
AcDbLine
 62
253
  6
CONTINUOUS
 10
-12.6302669699
 20
42.2462100387
 11
-12.6438015096
 21
42.2913889779
  0
LWPOLYLINE
  5
51E
100
AcDbEntity
  8
ASSI
100
AcDbPolyline
 62
7
  6
CONTINUOUS
 90
13
 70
0
 10
-3.4483591837
 20
0.4879532125
 10
-3.4466489195
 20
0.4618510856
 10
-3.4415467431
 20
0.4361959074
 10
-3.4331397619
 20
0.411426386
 10
-3.4215715208
 20
0.3879659291
 10
-3.4070397337
 20
0.3662161232
 10
-3.3897931559
 20
0.3465497012
 10
-3.3701267339
 20
0.3293031235
 10
-3.348376928
 20
0.3147713363
 10
-3.3249164712
 20
0.3032030952
 10
-3.3001469498
 20
0.294796114
 10
-3.2744917715
 20
0.2896939377
 10
-3.2483896446
 20
0.2879836735
  0
LINE
  5
51F
100
AcDbEntity
  8
RACCORDO
100
AcDbLine
 62
7
  6
CONTINUOUS
 10
-6.635268882
 20
44.1010853982
 11
-6.635268882
 21
43.0010739752
  0
LINE
  5
520
100
AcDbEntity
  8
ASSI
100
AcDbLine
 62
7
  6
CONTINUOUS
 10
-6.635268882
 20
44.1010853982
 11
-6.635268882
 21
43.0010739752
  0
LINE
  5
521
100
AcDbEntity
  8
RACCORDO
100
AcDbLine
 62
7
  6
CONTINUOUS
 10
-6.635268882
 20
5.4748819487
 11
-6.635268882
 21
6.2749047949
  0
LINE
  5
522
100
AcDbEntity
  8
ASSI
100
AcDbLine
 62
7
  6
CONTINUOUS
 10
-6.635268882
 20
5.4748819487
 11
-6.635268882
 21
6.2749047949
  0
LINE
  5
523
100
AcDbEntity
  8
RACCORDO
100
AcDbLine
 62
253
  6
CONTINUOUS
 10
-6.2957779482
 20
48.4406029852
 11
-6.2957779482
 21
47.090564909
  0
LINE
  5
524
100
AcDbEntity
  8
RACCORDO
100
AcDbLine
 62
253
  6
CONTINUOUS
 10
-6.2957779482
 20
2.485402438
 11
-6.2957779482
 21
1.1353643618
  0
LINE
  5
525
100
AcDbEntity
  8
ASSI
100
AcDbLine
 62
7
  6
CONTINUOUS
 10
-6.2943620408
 20
1.2486035781
 11
-6.2943620408
 21
1.9273637689
  0
LINE
  5
526
100
AcDbEntity
  8
ASSI
100
AcDbLine
 62
7
  6
CONTINUOUS
 10
-6.2943620408
 20
47.6486035781
 11
-6.2943620408
 21
48.3273637689
  0
LINE
  5
527
100
AcDbEntity
  8
RACCORDO
100
AcDbLine
 62
7
  6
CONTINUOUS
 10
-6.1983591837
 20
48.5380217497
 11
-6.1983591837
 21
48.2059286206
  0
LINE
  5
528
100
AcDbEntity
  8
ASSI
100
AcDbLine
 62
7
  6
CONTINUOUS
 10
-6.1983591837
 20
47.7700387263
 11
-6.1983591837
 21
47.1879836735
  0
LINE
  5
529
100
AcDbEntity
  8
ASSI
100
AcDbLine
 62
7
  6
CONTINUOUS
 10
-6.1983591837
 20
2.3879836735
 11
-6.1983591837
 21
1.8059286206
  0
LINE
  5
52A
100
AcDbEntity
  8
RACCORDO
100
AcDbLine
 62
7
  6
CONTINUOUS
 10
-6.1983591837
 20
1.3700387263
 11
-6.1983591837
 21
1.0379455973
  0
LINE
  5
52B
100
AcDbEntity
  8
ASSI
100
AcDbLine
 62
7
  6
CONTINUOUS
 10
-5.9483591837
 20
43.3879836735
 11
-5.9483591837
 21
43.0010739752
  0
LINE
  5
52C
100
AcDbEntity
  8
ASSI
100
AcDbLine
 62
7
  6
CONTINUOUS
 10
-5.522909833
 20
45.8625343228
 11
-5.522909833
 21
44.8752523514
  0
LINE
  5
52D
100
AcDbEntity
  8
ASSI
100
AcDbLine
 62
7
  6
CONTINUOUS
 10
-5.522909833
 20
4.7007149956
 11
-5.522909833
 21
3.7134330242
  0
LINE
  5
52E
100
AcDbEntity
  8
0
100
AcDbLine
 62
7
  6
CONTINUOUS
 10
-5.3483591837
 20
4.7879836735
 11
-5.3483591837
 21
3.8879836735
  0
LINE
  5
52F
100
AcDbEntity
  8
0
100
AcDbLine
 62
7
  6
CONTINUOUS
 10
-5.3483591837
 20
44.7879836735
 11
-5.3483591837
 21
45.6879836735
  0
LWPOLYLINE
  5
530
100
AcDbEntity
  8
ASSI
100
AcDbPolyline
 62
7
  6
CONTINUOUS
 90
13
 70
0
 10
-3.4483591837
 20
49.0880141344
 10
-3.4466489195
 20
49.1141162613
 10
-3.4415467431
 20
49.1397714396
 10
-3.4331397619
 20
49.164540961
 10
-3.4215715208
 20
49.1880014178
 10
-3.4070397337
 20
49.2097512237
 10
-3.3897931559
 20
49.2294176457
 10
-3.3701267339
 20
49.2466642234
 10
-3.348376928
 20
49.2611960106
 10
-3.3249164712
 20
49.2727642517
 10
-3.3001469498
 20
49.2811712329
 10
-3.2744917715
 20
49.2862734093
 10
-3.2483896446
 20
49.2879836735
  0
LINE
  5
531
100
AcDbEntity
  8
SMUSSO
100
AcDbLine
 62
7
  6
CONTINUOUS
 10
-15.3983591837
 20
13.5379836735
 11
-14.8983591837
 21
14.0379836735
  0
LINE
  5
532
100
AcDbEntity
  8
ASSI
100
AcDbLine
 62
7
  6
CONTINUOUS
 10
-15.3983591837
 20
13.5379836735
 11
-14.8983591837
 21
14.0379836735
  0
LINE
  5
533
100
AcDbEntity
  8
SMUSSO
100
AcDbLine
 62
7
  6
CONTINUOUS
 10
-10.3983591837
 20
18.0379836735
 11
-10.8983591837
 21
17.5379836735
  0
LINE
  5
534
100
AcDbEntity
  8
ASSI
100
AcDbLine
 62
7
  6
CONTINUOUS
 10
-10.3983591837
 20
18.0379836735
 11
-10.8983591837
 21
17.5379836735
  0
LINE
  5
535
100
AcDbEntity
  8
CURVE
100
AcDbLine
 62
253
  6
CONTINUOUS
 10
-20.762644909
 20
13.6094122228
 11
-20.5769306344
 21
13.7022693213
  0
LWPOLYLINE
  5
536
100
AcDbEntity
  8
CURVE
100
AcDbPolyline
 62
7
  6
CONTINUOUS
 90
15
 70
0
 10
0.460929248
 20
31.2507036996
 10
0.4607100228
 20
31.250664474
 10
0.4604891333
 20
31.2509335635
 10
0.4602668828
 20
31.2515120297
 10
0.4600435749
 20
31.2524009342
 10
0.4598195129
 20
31.2536013386
 10
0.4595950002
 20
31.2551143046
 10
0.4593703404
 20
31.2569408938
 10
0.4591458366
 20
31.2590821678
 10
0.4589217925
 20
31.2615391883
 10
0.4586985114
 20
31.2643130169
 10
0.4584762968
 20
31.2674047153
 10
0.4582554519
 20
31.270815345
 10
0.4580362804
 20
31.2745459677
 10
0.4578190855
 20
31.278597645
  0
LWPOLYLINE
  5
537
100
AcDbEntity
  8
RACCORDO
100
AcDbPolyline
 62
7
  6
CONTINUOUS
 90
13
 70
0
 10
-6.1983591837
 20
48.5380217497
 10
-6.2004970139
 20
48.5706494082
 10
-6.2068747344
 20
48.6027183811
 10
-6.2173834609
 20
48.6336802828
 10
-6.2318437622
 20
48.6630058539
 10
-6.2500084962
 20
48.6901931113
 10
-6.2715667184
 20
48.7147761388
 10
-6.2961497459
 20
48.7363343609
 10
-6.3233370032
 20
48.7544990949
 10
-6.3526625743
 20
48.7689593963
 10
-6.3836244761
 20
48.7794681228
 10
-6.4156934489
 20
48.7858458432
 10
-6.4483211075
 20
48.7879836735
  0
LINE
  5
538
100
AcDbEntity
  8
ASSI
100
AcDbLine
 62
253
  6
CONTINUOUS
 10
-3.2500742246
 20
1.6653339427
 11
-3.2348010427
 21
1.1601524571
  0
LINE
  5
539
100
AcDbEntity
  8
ASSI
100
AcDbLine
 62
253
  6
CONTINUOUS
 10
-3.4483591837
 20
1.4364090653
 11
-3.4347331768
 21
0.9856577661
  0
LINE
  5
53A
100
AcDbEntity
  8
ASSI
100
AcDbLine
 62
253
  6
CONTINUOUS
 10
-3.4347331768
 20
0.9856577661
 11
-3.4346602049
 21
0.982618277
  0
LINE
  5
53B
100
AcDbEntity
  8
ASSI
100
AcDbLine
 62
253
  6
CONTINUOUS
 10
-3.4346602049
 20
0.982618277
 11
-3.4345553421
 21
0.976908372
  0
LINE
  5
53C
100
AcDbEntity
  8
ASSI
100
AcDbLine
 62
253
  6
CONTINUOUS
 10
-3.4345553421
 20
0.976908372
 11
-3.4344640035
 21
0.9698816223
  0
LINE
  5
53D
100
AcDbEntity
  8
ASSI
100
AcDbLine
 62
253
  6
CONTINUOUS
 10
-3.4344640035
 20
0.9698816223
 11
-3.4343756453
 21
0.9588568061
  0
LINE
  5
53E
100
AcDbEntity
  8
ASSI
100
AcDbLine
 62
253
  6
CONTINUOUS
 10
-3.4344314102
 20
49.0477838373
 11
-3.4343588375
 21
49.0366444593
  0
LINE
  5
53F
100
AcDbEntity
  8
ASSI
100
AcDbLine
 62
253
  6
CONTINUOUS
 10
-3.2348010427
 20
1.1601524571
 11
-3.2344684607
 21
1.061825073
  0
LINE
  5
540
100
AcDbEntity
  8
ASSI
100
AcDbLine
 62
253
  6
CONTINUOUS
 10
-3.4343756453
 20
0.9588568061
 11
-3.4343359342
 21
0.9467545713
  0
LINE
  5
541
100
AcDbEntity
  8
ASSI
100
AcDbLine
 62
253
  6
CONTINUOUS
 10
-4.9483591837
 20
43.3879836735
 11
-4.9483591837
 21
43.0010739752
  0
LINE
  5
542
100
AcDbEntity
  8
0
100
AcDbLine
 62
7
  6
CONTINUOUS
 10
-4.1483591837
 20
5.0879836735
 11
-4.1483591837
 21
3.8879836735
  0
LINE
  5
543
100
AcDbEntity
  8
0
100
AcDbLine
 62
7
  6
CONTINUOUS
 10
-4.1483591837
 20
44.4879836735
 11
-4.1483591837
 21
45.6879836735
  0
LINE
  5
544
100
AcDbEntity
  8
ASSI
100
AcDbLine
 62
7
  6
CONTINUOUS
 10
-4.0610905058
 20
45.8625343228
 11
-4.0610905058
 21
44.5752523514
  0
LINE
  5
545
100
AcDbEntity
  8
ASSI
100
AcDbLine
 62
7
  6
CONTINUOUS
 10
-4.0610905058
 20
5.0007149956
 11
-4.0610905058
 21
3.7134330242
  0
LINE
  5
546
100
AcDbEntity
  8
ASSI
100
AcDbLine
 62
7
  6
CONTINUOUS
 10
-3.4483591837
 20
0.4879532125
 11
-3.4483591837
 21
2.3879836735
  0
LINE
  5
547
100
AcDbEntity
  8
ASSI
100
AcDbLine
 62
7
  6
CONTINUOUS
 10
-3.4483591837
 20
47.1879836735
 11
-3.4483591837
 21
49.0880141344
  0
LINE
  5
548
100
AcDbEntity
  8
ASSI
100
AcDbLine
 62
7
  6
CONTINUOUS
 10
-3.4356278616
 20
3.8007149956
 11
-3.4356278616
 21
5.0007149956
  0
LINE
  5
549
100
AcDbEntity
  8
ASSI
100
AcDbLine
 62
7
  6
CONTINUOUS
 10
-3.4356278616
 20
44.5752523514
 11
-3.4356278616
 21
45.7752523514
  0
LINE
  5
54A
100
AcDbEntity
  8
0
100
AcDbLine
 62
7
  6
CONTINUOUS
 10
-3.3483591837
 20
3.8879836735
 11
-3.3483591837
 21
5.0879836735
  0
LINE
  5
54B
100
AcDbEntity
  8
0
100
AcDbLine
 62
7
  6
CONTINUOUS
 10
-3.3483591837
 20
44.4879836735
 11
-3.3483591837
 21
45.6879836735
  0
LINE
  5
54C
100
AcDbEntity
  8
0
100
AcDbLine
 62
7
  6
CONTINUOUS
 10
-3.2483591837
 20
45.6379836735
 11
-3.2483591837
 21
44.4879836735
  0
LINE
  5
54D
100
AcDbEntity
  8
DRAFT
100
AcDbLine
 62
7
  6
CONTINUOUS
 10
-3.2483591837
 20
45.6379836735
 11
-3.2483591837
 21
44.4879836735
  0
LINE
  5
54E
100
AcDbEntity
  8
0
100
AcDbLine
 62
7
  6
CONTINUOUS
 10
-3.2483591837
 20
5.0879836735
 11
-3.2483591837
 21
3.9379836735
  0
LINE
  5
54F
100
AcDbEntity
  8
DRAFT
100
AcDbLine
 62
7
  6
CONTINUOUS
 10
-3.2483591837
 20
5.0879836735
 11
-3.2483591837
 21
3.9379836735
  0
LINE
  5
550
100
AcDbEntity
  8
ASSI
100
AcDbLine
 62
253
  6
CONTINUOUS
 10
-3.2344684607
 20
1.061825073
 11
-3.2343646661
 21
0.9436461062
  0
LINE
  5
551
100
AcDbEntity
  8
ASSI
100
AcDbLine
 62
253
  6
CONTINUOUS
 10
-3.2343646661
 20
0.9436461062
 11
-3.2343654448
 21
0.5389058435
  0
LINE
  5
552
100
AcDbEntity
  8
ASSI
100
AcDbLine
 62
253
  6
CONTINUOUS
 10
-3.4343588375
 20
49.0366444593
 11
-3.4343349971
 21
48.6298206092
  0
LINE
  5
553
100
AcDbEntity
  8
ASSI
100
AcDbLine
 62
253
  6
CONTINUOUS
 10
-3.4343359342
 20
0.9467545713
 11
-3.4343349774
 21
0.5486579533
  0
LINE
  5
554
100
AcDbEntity
  8
ASSI
100
AcDbLine
 62
253
  6
CONTINUOUS
 10
-3.2343662746
 20
49.0397240716
 11
-3.2344461877
 21
48.5268562437
  0
LWPOLYLINE
  5
555
100
AcDbEntity
  8
ASSI
100
AcDbPolyline
 62
253
  6
CONTINUOUS
 90
3
 70
0
 10
-3.2344461877
 20
48.5268562437
 10
-3.2347548982
 20
48.4239516287
 10
-3.2348010427
 20
48.4158148898
  0
LINE
  5
556
100
AcDbEntity
  8
ASSI
100
AcDbLine
 62
253
  6
CONTINUOUS
 10
-3.4343349971
 20
48.6298206092
 11
-3.43437834
 21
48.6166227486
  0
LINE
  5
557
100
AcDbEntity
  8
ASSI
100
AcDbLine
 62
253
  6
CONTINUOUS
 10
-3.4343349774
 20
0.5486579533
 11
-3.4343766115
 21
0.5357171865
  0
LINE
  5
558
100
AcDbEntity
  8
ASSI
100
AcDbLine
 62
253
  6
CONTINUOUS
 10
-3.4343766115
 20
0.5357171865
 11
-3.4344123778
 21
0.5304320138
  0
LINE
  5
559
100
AcDbEntity
  8
ASSI
100
AcDbLine
 62
253
  6
CONTINUOUS
 10
-3.43437834
 20
48.6166227486
 11
-3.434465179
 21
48.60598586
  0
LINE
  5
55A
100
AcDbEntity
  8
ASSI
100
AcDbLine
 62
253
  6
CONTINUOUS
 10
-3.434465179
 20
48.60598586
 11
-3.434561368
 21
48.5986814063
  0
LINE
  5
55B
100
AcDbEntity
  8
ASSI
100
AcDbLine
 62
253
  6
CONTINUOUS
 10
-3.434561368
 20
48.5986814063
 11
-3.4346387415
 21
48.5943703231
  0
LINE
  5
55C
100
AcDbEntity
  8
ASSI
100
AcDbLine
 62
253
  6
CONTINUOUS
 10
-3.4346387415
 20
48.5943703231
 11
-3.4347244567
 21
48.5906600025
  0
LINE
  5
55D
100
AcDbEntity
  8
ASSI
100
AcDbLine
 62
253
  6
CONTINUOUS
 10
-3.4347244567
 20
48.5906600025
 11
-3.4483591837
 21
48.1395582816
  0
LINE
  5
55E
100
AcDbEntity
  8
ASSI
100
AcDbLine
 62
253
  6
CONTINUOUS
 10
-3.2348010427
 20
48.4158148898
 11
-3.2500742246
 21
47.9106334043
  0
LWPOLYLINE
  5
55F
100
AcDbEntity
  8
RACCORDO
100
AcDbPolyline
 62
7
  6
CONTINUOUS
 90
13
 70
0
 10
-6.1983591837
 20
1.0379455973
 10
-6.2004970139
 20
1.0053179387
 10
-6.2068747344
 20
0.9732489659
 10
-6.2173834609
 20
0.9422870641
 10
-6.2318437622
 20
0.912961493
 10
-6.2500084962
 20
0.8857742357
 10
-6.2715667184
 20
0.8611912082
 10
-6.2961497459
 20
0.839632986
 10
-6.3233370032
 20
0.821468252
 10
-6.3526625743
 20
0.8070079507
 10
-6.3836244761
 20
0.7964992242
 10
-6.4156934489
 20
0.7901215037
 10
-6.4483211075
 20
0.7879836735
  0
LINE
  5
560
100
AcDbEntity
  8
CURVE
100
AcDbLine
 62
253
  6
CONTINUOUS
 10
-19.8340734777
 20
13.1451265749
 11
-20.0197877717
 21
13.0522693213
  0
LINE
  5
561
100
AcDbEntity
  8
CURVE
100
AcDbLine
 62
7
  6
CONTINUOUS
 10
0.4485969925
 20
31.0934279635
 11
0.4488959838
 21
31.0934279635
  0
LINE
  5
562
100
AcDbEntity
  8
CURVE
100
AcDbLine
 62
7
  6
CONTINUOUS
 10
0.4249781923
 20
32.0467150567
 11
0.4447795405
 21
32.0467150567
  0
LINE
  5
563
100
AcDbEntity
  8
CURVE
100
AcDbLine
 62
7
  6
CONTINUOUS
 10
0.4530663063
 20
32.0667849453
 11
0.4669565042
 21
32.0667849453
  0
LWPOLYLINE
  5
564
100
AcDbEntity
  8
ASSI
100
AcDbPolyline
 62
253
  6
CONTINUOUS
 90
13
 70
0
 10
-0.0619477856
 20
0.9869473764
 10
-0.0638661395
 20
1.0094311476
 10
-0.0691357101
 20
1.0315344721
 10
-0.0776673314
 20
1.0528833406
 10
-0.0893166405
 20
1.0731165093
 10
-0.1038865198
 20
1.0918916135
 10
-0.1211304332
 20
1.1088909604
 10
-0.1407565975
 20
1.1238269046
 10
-0.162432919
 20
1.1364467151
 10
-0.1857926133
 20
1.1465368523
 10
-0.2104404118
 20
1.1539265812
 10
-0.2359592501
 20
1.1584908602
 10
-0.2619173246
 20
1.1601524571
  0
LINE
  5
565
100
AcDbEntity
  8
ASSI
100
AcDbLine
 62
7
  6
CONTINUOUS
 10
-2.1351917268
 20
1.2298022029
 11
-2.1483591837
 21
1.6653339427
  0
LINE
  5
566
100
AcDbEntity
  8
ASSI
100
AcDbLine
 62
253
  6
CONTINUOUS
 10
-3.4347873629
 20
49.0686964186
 11
-3.4347007139
 21
49.0655806447
  0
LINE
  5
567
100
AcDbEntity
  8
ASSI
100
AcDbLine
 62
253
  6
CONTINUOUS
 10
-3.4347007139
 20
49.0655806447
 11
-3.4346203768
 21
49.0618734501
  0
LINE
  5
568
100
AcDbEntity
  8
ASSI
100
AcDbLine
 62
253
  6
CONTINUOUS
 10
-3.4346203768
 20
49.0618734501
 11
-3.4345148948
 21
49.0553154111
  0
LINE
  5
569
100
AcDbEntity
  8
ASSI
100
AcDbLine
 62
253
  6
CONTINUOUS
 10
-3.2350914561
 20
49.2713355058
 11
-3.2350001315
 21
49.2654465154
  0
LINE
  5
56A
100
AcDbEntity
  8
ASSI
100
AcDbLine
 62
253
  6
CONTINUOUS
 10
-3.4345148948
 20
49.0553154111
 11
-3.4344314102
 21
49.0477838373
  0
LINE
  5
56B
100
AcDbEntity
  8
ASSI
100
AcDbLine
 62
253
  6
CONTINUOUS
 10
-3.2350001315
 20
49.2654465154
 11
-3.234817805
 21
49.2440663697
  0
LINE
  5
56C
100
AcDbEntity
  8
ASSI
100
AcDbLine
 62
253
  6
CONTINUOUS
 10
-3.234817805
 20
49.2440663697
 11
-3.234487049
 21
49.1525075151
  0
LINE
  5
56D
100
AcDbEntity
  8
ASSI
100
AcDbLine
 62
253
  6
CONTINUOUS
 10
-3.234487049
 20
49.1525075151
 11
-3.2343662746
 21
49.0397240716
  0
LINE
  5
56E
100
AcDbEntity
  8
0
100
AcDbLine
 62
7
  6
CONTINUOUS
 10
-3.2117035473
 20
44.4513280371
 11
-3.2117035473
 21
43.3879836735
  0
LINE
  5
56F
100
AcDbEntity
  8
DRAFT
100
AcDbLine
 62
7
  6
CONTINUOUS
 10
-3.2117035473
 20
44.4513280371
 11
-3.2117035473
 21
43.3879836735
  0
LINE
  5
570
100
AcDbEntity
  8
0
100
AcDbLine
 62
7
  6
CONTINUOUS
 10
-3.2117035473
 20
5.1246393098
 11
-3.2117035473
 21
6.5218142059
  0
LINE
  5
571
100
AcDbEntity
  8
DRAFT
100
AcDbLine
 62
7
  6
CONTINUOUS
 10
-3.2117035473
 20
5.1246393098
 11
-3.2117035473
 21
6.5218142059
  0
LINE
  5
572
100
AcDbEntity
  8
0
100
AcDbLine
 62
7
  6
CONTINUOUS
 10
-3.1942484824
 20
45.6379836735
 11
-3.1942484824
 21
43.3879836735
  0
LINE
  5
573
100
AcDbEntity
  8
DRAFT
100
AcDbLine
 62
7
  6
CONTINUOUS
 10
-3.1942484824
 20
45.6379836735
 11
-3.1942484824
 21
43.3879836735
  0
LINE
  5
574
100
AcDbEntity
  8
0
100
AcDbLine
 62
7
  6
CONTINUOUS
 10
-3.1942484824
 20
6.5305410736
 11
-3.1942484824
 21
3.9379836735
  0
LINE
  5
575
100
AcDbEntity
  8
DRAFT
100
AcDbLine
 62
7
  6
CONTINUOUS
 10
-3.1942484824
 20
6.5305410736
 11
-3.1942484824
 21
3.9379836735
  0
LINE
  5
576
100
AcDbEntity
  8
ASSI
100
AcDbLine
 62
7
  6
CONTINUOUS
 10
-2.5903648979
 20
46.0132806961
 11
-2.5903648979
 21
45.7752523514
  0
LINE
  5
577
100
AcDbEntity
  8
ASSI
100
AcDbLine
 62
7
  6
CONTINUOUS
 10
-2.5903648979
 20
3.8007149956
 11
-2.5903648979
 21
3.5626866508
  0
LINE
  5
578
100
AcDbEntity
  8
ASSI
100
AcDbLine
 62
7
  6
CONTINUOUS
 10
-2.4158142486
 20
46.1930970836
 11
-2.4158142486
 21
45.6879836735
  0
LINE
  5
579
100
AcDbEntity
  8
ASSI
100
AcDbLine
 62
7
  6
CONTINUOUS
 10
-2.4158142486
 20
3.3828702633
 11
-2.4158142486
 21
3.8879836735
  0
LINE
  5
57A
100
AcDbEntity
  8
ASSI
100
AcDbLine
 62
7
  6
CONTINUOUS
 10
-2.1483591837
 20
1.6653339427
 11
-2.1483591837
 21
2.3879836735
  0
LINE
  5
57B
100
AcDbEntity
  8
ASSI
100
AcDbLine
 62
7
  6
CONTINUOUS
 10
-2.1483591837
 20
47.1879836735
 11
-2.1483591837
 21
47.9106334043
  0
LINE
  5
57C
100
AcDbEntity
  8
ASSI
100
AcDbLine
 62
253
  6
CONTINUOUS
 10
-2.1351917268
 20
1.2298022029
 11
-2.1351917268
 21
2.4011511304
  0
LINE
  5
57D
100
AcDbEntity
  8
ASSI
100
AcDbLine
 62
253
  6
CONTINUOUS
 10
-2.1351917268
 20
47.1748162166
 11
-2.1351917268
 21
48.3461651441
  0
LINE
  5
57E
100
AcDbEntity
  8
0
100
AcDbLine
 62
7
  6
CONTINUOUS
 10
-2.0483591837
 20
3.9379836735
 11
-2.0483591837
 21
6.5305410736
  0
LINE
  5
57F
100
AcDbEntity
  8
DRAFT
100
AcDbLine
 62
7
  6
CONTINUOUS
 10
-2.0483591837
 20
3.9379836735
 11
-2.0483591837
 21
6.5305410736
  0
LINE
  5
580
100
AcDbEntity
  8
0
100
AcDbLine
 62
7
  6
CONTINUOUS
 10
-2.0483591837
 20
43.3879836735
 11
-2.0483591837
 21
45.6379836735
  0
LINE
  5
581
100
AcDbEntity
  8
DRAFT
100
AcDbLine
 62
7
  6
CONTINUOUS
 10
-2.0483591837
 20
43.3879836735
 11
-2.0483591837
 21
45.6379836735
  0
LINE
  5
582
100
AcDbEntity
  8
ASSI
100
AcDbLine
 62
253
  6
CONTINUOUS
 10
-1.885229803
 20
0.9436461062
 11
-1.885229803
 21
2.4054387384
  0
LINE
  5
583
100
AcDbEntity
  8
ASSI
100
AcDbLine
 62
253
  6
CONTINUOUS
 10
-1.885229803
 20
47.1705286085
 11
-1.885229803
 21
48.6323212408
  0
LINE
  5
584
100
AcDbEntity
  8
ASSI
100
AcDbLine
 62
253
  6
CONTINUOUS
 10
-1.6114885644
 20
0.9436461062
 11
-1.6114885644
 21
2.4054387384
  0
LINE
  5
585
100
AcDbEntity
  8
ASSI
100
AcDbLine
 62
253
  6
CONTINUOUS
 10
-1.6114885644
 20
47.1705286085
 11
-1.6114885644
 21
48.6323212408
  0
LINE
  5
586
100
AcDbEntity
  8
0
100
AcDbLine
 62
253
  6
CONTINUOUS
 10
-1.4483591837
 20
43.3879836735
 11
-1.4483591837
 21
43.0010739752
  0
LINE
  5
587
100
AcDbEntity
  8
ASSI
100
AcDbLine
 62
253
  6
CONTINUOUS
 10
-3.2343654448
 20
0.5389058435
 11
-3.2345482067
 21
0.3977508869
  0
LINE
  5
588
100
AcDbEntity
  8
ASSI
100
AcDbLine
 62
253
  6
CONTINUOUS
 10
-3.2345482067
 20
0.3977508869
 11
-3.2348702862
 21
0.324314881
  0
LWPOLYLINE
  5
589
100
AcDbEntity
  8
ASSI
100
AcDbPolyline
 62
253
  6
CONTINUOUS
 90
6
 70
0
 10
-3.2348702862
 20
0.324314881
 10
-3.2350167919
 20
0.30923306
 10
-3.2350673607
 20
0.3059008128
 10
-3.2351183632
 20
0.3034381375
 10
-3.2351699722
 20
0.3018531787
 10
-3.2352221877
 20
0.3011511304
  0
LINE
  5
58A
100
AcDbEntity
  8
ASSI
100
AcDbLine
 62
253
  6
CONTINUOUS
 10
-3.4344123778
 20
0.5304320138
 11
-3.4345177155
 21
0.5204408291
  0
LINE
  5
58B
100
AcDbEntity
  8
ASSI
100
AcDbLine
 62
253
  6
CONTINUOUS
 10
-3.4345177155
 20
0.5204408291
 11
-3.4346236421
 21
0.513921503
  0
LINE
  5
58C
100
AcDbEntity
  8
ASSI
100
AcDbLine
 62
253
  6
CONTINUOUS
 10
-3.4346236421
 20
0.513921503
 11
-3.4347049635
 21
0.5102134023
  0
LINE
  5
58D
100
AcDbEntity
  8
ASSI
100
AcDbLine
 62
7
  6
CONTINUOUS
 10
-2.1483591837
 20
47.9106334043
 11
-2.1351917268
 21
48.3461651441
  0
LWPOLYLINE
  5
58E
100
AcDbEntity
  8
ASSI
100
AcDbPolyline
 62
253
  6
CONTINUOUS
 90
10
 70
0
 10
-3.4347049635
 20
0.5102134023
 10
-3.4347932499
 20
0.5070887963
 10
-3.4348398357
 20
0.5057530885
 10
-3.43488755
 20
0.5045820153
 10
-3.4349364064
 20
0.5035773808
 10
-3.4349863915
 20
0.5027373809
 10
-3.4350369696
 20
0.5020708286
 10
-3.4350879622
 20
0.5015806614
 10
-3.435139548
 20
0.5012639416
 10
-3.4351917268
 20
0.5011206694
  0
LWPOLYLINE
  5
58F
100
AcDbEntity
  8
ASSI
100
AcDbPolyline
 62
253
  6
CONTINUOUS
 90
5
 70
0
 10
-0.2614961796
 20
49.2748162166
 10
-0.2615385922
 20
49.2743132196
 10
-0.261581798
 20
49.273187182
 10
-0.261625797
 20
49.2713890975
 10
-0.2617167236
 20
49.2655685671
  0
LWPOLYLINE
  5
590
100
AcDbEntity
  8
ASSI
100
AcDbPolyline
 62
253
  6
CONTINUOUS
 90
13
 70
0
 10
-0.0619477856
 20
48.5890199706
 10
-0.0638661399
 20
48.5665361968
 10
-0.0691357116
 20
48.5444328701
 10
-0.0776673344
 20
48.5230840003
 10
-0.0893166451
 20
48.5028508308
 10
-0.103886526
 20
48.4840757264
 10
-0.1211304408
 20
48.46707638
 10
-0.1407566056
 20
48.452140437
 10
-0.1624329268
 20
48.4395206279
 10
-0.1857926202
 20
48.4294304922
 10
-0.2104404171
 20
48.4220407646
 10
-0.235959253
 20
48.4174764864
 10
-0.2619173246
 20
48.4158148898
  0
LINE
  5
591
100
AcDbEntity
  8
CURVE
100
AcDbLine
 62
7
  6
CONTINUOUS
 10
0.4755764136
 20
35.5782106735
 11
0.4249781984
 21
35.3070606735
  0
LINE
  5
592
100
AcDbEntity
  8
CURVE
100
AcDbLine
 62
7
  6
CONTINUOUS
 10
0.4249781984
 20
35.8991766735
 11
0.4578801526
 21
36.0235316735
  0
LINE
  5
593
100
AcDbEntity
  8
ASSI
100
AcDbLine
 62
253
  6
CONTINUOUS
 10
-21.2483592483
 20
2.387983738
 11
-21.2309802712
 21
2.4054387384
  0
LINE
  5
594
100
AcDbEntity
  8
ASSI
100
AcDbLine
 62
253
  6
CONTINUOUS
 10
-21.7483591837
 20
2.887907521
 11
-21.7309041187
 21
2.905362586
  0
LINE
  5
595
100
AcDbEntity
  8
SMUSSO
100
AcDbLine
 62
7
  6
CONTINUOUS
 10
-15.3983591837
 20
8.5379836735
 11
-14.8983591837
 21
9.0379836735
  0
LINE
  5
596
100
AcDbEntity
  8
ASSI
100
AcDbLine
 62
7
  6
CONTINUOUS
 10
-15.3983591837
 20
8.5379836735
 11
-14.8983591837
 21
9.0379836735
  0
LINE
  5
597
100
AcDbEntity
  8
SMUSSO
100
AcDbLine
 62
7
  6
CONTINUOUS
 10
-10.3983591837
 20
13.0379836735
 11
-10.8983591837
 21
12.5379836735
  0
LINE
  5
598
100
AcDbEntity
  8
ASSI
100
AcDbLine
 62
7
  6
CONTINUOUS
 10
-10.3983591837
 20
13.0379836735
 11
-10.8983591837
 21
12.5379836735
  0
LINE
  5
599
100
AcDbEntity
  8
CURVE
100
AcDbLine
 62
253
  6
CONTINUOUS
 10
-20.9483591837
 20
14.0736978706
 11
-19.6483591837
 21
14.4451265749
  0
LINE
  5
59A
100
AcDbEntity
  8
CURVE
100
AcDbLine
 62
7
  6
CONTINUOUS
 10
0.4749852571
 20
32.6495510178
 11
0.4249781923
 21
32.6495510178
  0
LINE
  5
59B
100
AcDbEntity
  8
ASSI
100
AcDbLine
 62
253
  6
CONTINUOUS
 10
-21.7309041187
 20
46.670604761
 11
-21.7483591837
 21
46.6880598259
  0
LINE
  5
59C
100
AcDbEntity
  8
ASSI
100
AcDbLine
 62
253
  6
CONTINUOUS
 10
-21.2309802712
 20
47.1705286085
 11
-21.2483591837
 21
47.1879836735
  0
LWPOLYLINE
  5
59D
100
AcDbEntity
  8
ASSI
100
AcDbPolyline
 62
253
  6
CONTINUOUS
 90
4
 70
0
 10
-3.2352221877
 20
49.2748162166
 10
-3.2351793352
 20
49.2743050091
 10
-3.235135758
 20
49.273160368
 10
-3.2350914561
 20
49.2713355058
  0
LINE
  5
59E
100
AcDbEntity
  8
CURVE
100
AcDbLine
 62
253
  6
CONTINUOUS
 10
0.3941838571
 20
13.3522694525
 11
0.403658021
 21
13.2165552315
  0
LINE
  5
59F
100
AcDbEntity
  8
CURVE
100
AcDbLine
 62
253
  6
CONTINUOUS
 10
0.3941838571
 20
17.2879836735
 11
0.403658021
 21
17.1522694525
  0
LWPOLYLINE
  5
5A0
100
AcDbEntity
  8
CURVE
100
AcDbPolyline
 62
7
  6
CONTINUOUS
 90
22
 70
0
 10
0.4565126698
 20
12.6685496305
 10
0.4570321454
 20
12.6569317128
 10
0.4575601528
 20
12.6465343208
 10
0.4580953952
 20
12.6373836709
 10
0.4586368833
 20
12.6294965886
 10
0.4591836277
 20
12.6228898994
 10
0.4597346391
 20
12.6175804289
 10
0.460288928
 20
12.6135850026
 10
0.4608455051
 20
12.6109204459
 10
0.4614033811
 20
12.6096035846
 10
0.4619615665
 20
12.6096512439
 10
0.462519072
 20
12.6110802496
 10
0.4630787162
 20
12.6139256034
 10
0.4636357097
 20
12.6181692199
 10
0.4641890938
 20
12.6237919696
 10
0.4647379099
 20
12.6307747225
 10
0.4652811996
 20
12.6390983489
 10
0.4658180043
 20
12.6487437192
 10
0.4663473654
 20
12.6596917033
 10
0.4668683243
 20
12.6719231717
 10
0.4673799225
 20
12.6854189946
 10
0.4683654451
 20
12.7159275678
  0
LINE
  5
5A1
100
AcDbEntity
  8
CURVE
100
AcDbLine
 62
7
  6
CONTINUOUS
 10
0.4555012512
 20
12.6953778628
 11
0.4565126698
 21
12.6685496305
  0
LINE
  5
5A2
100
AcDbEntity
  8
CURVE
100
AcDbLine
 62
7
  6
CONTINUOUS
 10
0.4579584364
 20
12.8548657635
 11
0.4572050134
 21
12.8749951072
  0
LWPOLYLINE
  5
5A3
100
AcDbEntity
  8
ASSI
100
AcDbPolyline
 62
253
  6
CONTINUOUS
 90
9
 70
0
 10
-0.0619248449
 20
0.5070799856
 10
-0.0618782236
 20
0.5057448506
 10
-0.0618305016
 20
0.5045749141
 10
-0.0617816691
 20
0.5035716576
 10
-0.0617317361
 20
0.5027335996
 10
-0.0616812154
 20
0.502068678
 10
-0.0616302781
 20
0.5015795388
 10
-0.0615787531
 20
0.5012635359
 10
-0.0615266406
 20
0.5011206694
  0
LINE
  5
5A4
100
AcDbEntity
  8
CURVE
100
AcDbLine
 62
253
  6
CONTINUOUS
 10
0.3941838571
 20
8.0594121155
 11
0.3894467752
 21
8.1951267895
  0
LINE
  5
5A5
100
AcDbEntity
  8
CURVE
100
AcDbLine
 62
253
  6
CONTINUOUS
 10
0.4083951025
 20
9.0094121155
 11
0.413132184
 21
8.8736983475
  0
LINE
  5
5A6
100
AcDbEntity
  8
ASSI
100
AcDbLine
 62
7
  6
CONTINUOUS
 10
-1.3483591837
 20
47.9106334043
 11
-1.3615266406
 21
48.3461651441
  0
LINE
  5
5A7
100
AcDbEntity
  8
ASSI
100
AcDbLine
 62
7
  6
CONTINUOUS
 10
0.4341857514
 20
6.3653339427
 11
0.4516408163
 21
5.7879836735
  0
LINE
  5
5A8
100
AcDbEntity
  8
CURVE
100
AcDbLine
 62
7
  6
CONTINUOUS
 10
0.4572050134
 20
12.8749951072
 11
0.4564820138
 21
12.8984502615
  0
LINE
  5
5A9
100
AcDbEntity
  8
CURVE
100
AcDbLine
 62
7
  6
CONTINUOUS
 10
0.4545313645
 20
12.7268420862
 11
0.4555012512
 21
12.6953778628
  0
LINE
  5
5AA
100
AcDbEntity
  8
ASSI
100
AcDbLine
 62
253
  6
CONTINUOUS
 10
-0.0620133418
 20
0.5102113247
 11
-0.0619248449
 21
0.5070799856
  0
LINE
  5
5AB
100
AcDbEntity
  8
CURVE
100
AcDbLine
 62
253
  6
CONTINUOUS
 10
0.4178692654
 20
10.2308405575
 11
0.4107636422
 21
10.5022689995
  0
LINE
  5
5AC
100
AcDbEntity
  8
CURVE
100
AcDbLine
 62
253
  6
CONTINUOUS
 10
0.3976743386
 20
22.964174017
 11
0.4073978216
 21
22.5927456227
  0
LINE
  5
5AD
100
AcDbEntity
  8
CURVE
100
AcDbLine
 62
253
  6
CONTINUOUS
 10
0.3847096932
 20
10.5022689995
 11
0.4083951025
 21
9.5522689995
  0
LINE
  5
5AE
100
AcDbEntity
  8
CURVE
100
AcDbLine
 62
7
  6
CONTINUOUS
 10
0.4564820138
 20
12.8984502615
 11
0.4554636414
 21
12.9394181041
  0
LINE
  5
5AF
100
AcDbEntity
  8
CURVE
100
AcDbLine
 62
7
  6
CONTINUOUS
 10
0.4531670637
 20
12.7823269917
 11
0.4545313645
 21
12.7268420862
  0
LWPOLYLINE
  5
5B0
100
AcDbEntity
  8
ASSI
100
AcDbPolyline
 62
253
  6
CONTINUOUS
 90
4
 70
0
 10
-0.2616506998
 20
0.305890404
 10
-0.2615997753
 20
0.3034331495
 10
-0.2615482686
 20
0.3018517296
 10
-0.2614961796
 20
0.3011511304
  0
LINE
  5
5B1
100
AcDbEntity
  8
ASSI
100
AcDbLine
 62
253
  6
CONTINUOUS
 10
-0.062095013
 20
0.5139363052
 11
-0.0620133418
 21
0.5102113247
  0
LINE
  5
5B2
100
AcDbEntity
  8
CURVE
100
AcDbLine
 62
7
  6
CONTINUOUS
 10
0.4701797823
 20
15.2892586735
 11
0.4247114092
 21
17.5351736735
  0
LINE
  5
5B3
100
AcDbEntity
  8
CURVE
100
AcDbLine
 62
7
  6
CONTINUOUS
 10
0.4754612452
 20
15.2945786735
 11
0.4247114092
 21
17.8013976735
  0
LINE
  5
5B4
100
AcDbEntity
  8
ASSI
100
AcDbLine
 62
7
  6
CONTINUOUS
 10
0.3021415429
 20
8.5208461266
 11
0.300741903
 21
8.5919404218
  0
LINE
  5
5B5
100
AcDbEntity
  8
ASSI
100
AcDbLine
 62
7
  6
CONTINUOUS
 10
0.3021415429
 20
13.5208461266
 11
0.300741903
 21
13.5919404218
  0
LINE
  5
5B6
100
AcDbEntity
  8
ASSI
100
AcDbLine
 62
7
  6
CONTINUOUS
 10
0.3021415429
 20
18.5208461266
 11
0.300741903
 21
18.5919404218
  0
LINE
  5
5B7
100
AcDbEntity
  8
ASSI
100
AcDbLine
 62
7
  6
CONTINUOUS
 10
0.3021415429
 20
23.5208461266
 11
0.300741903
 21
23.5919404218
  0
LINE
  5
5B8
100
AcDbEntity
  8
RACCORDO
100
AcDbLine
 62
7
  6
CONTINUOUS
 10
0.3021420225
 20
8.5208455353
 11
0.3005149508
 21
8.6048048918
  0
LINE
  5
5B9
100
AcDbEntity
  8
RACCORDO
100
AcDbLine
 62
7
  6
CONTINUOUS
 10
0.3021420225
 20
13.5208455353
 11
0.3005149508
 21
13.6048048918
  0
LINE
  5
5BA
100
AcDbEntity
  8
RACCORDO
100
AcDbLine
 62
7
  6
CONTINUOUS
 10
0.3021420225
 20
18.5208455353
 11
0.3005149508
 21
18.6048048918
  0
LINE
  5
5BB
100
AcDbEntity
  8
RACCORDO
100
AcDbLine
 62
7
  6
CONTINUOUS
 10
0.3021420225
 20
23.5208455353
 11
0.3005149508
 21
23.6048048918
  0
LINE
  5
5BC
100
AcDbEntity
  8
CURVE
100
AcDbLine
 62
253
  6
CONTINUOUS
 10
0.413132184
 20
8.8736983475
 11
0.4178692654
 21
8.6022689995
  0
LINE
  5
5BD
100
AcDbEntity
  8
CURVE
100
AcDbLine
 62
253
  6
CONTINUOUS
 10
0.4083951025
 20
11.5879836735
 11
0.4178692654
 21
11.0451267895
  0
LINE
  5
5BE
100
AcDbEntity
  8
CURVE
100
AcDbLine
 62
253
  6
CONTINUOUS
 10
0.3847096932
 20
13.8951263365
 11
0.3941838571
 21
13.3522694525
  0
LINE
  5
5BF
100
AcDbEntity
  8
CURVE
100
AcDbLine
 62
7
  6
CONTINUOUS
 10
0.4803185223
 20
8.8051326735
 11
0.4925379878
 21
8.1048896735
  0
LINE
  5
5C0
100
AcDbEntity
  8
CURVE
100
AcDbLine
 62
7
  6
CONTINUOUS
 10
0.4925379878
 20
8.3900096735
 11
0.4803185223
 21
9.0902766735
  0
LINE
  5
5C1
100
AcDbEntity
  8
CURVE
100
AcDbLine
 62
7
  6
CONTINUOUS
 10
0.4500558076
 20
11.5860266735
 11
0.4754612452
 21
10.1301526735
  0
LINE
  5
5C2
100
AcDbEntity
  8
CURVE
100
AcDbLine
 62
7
  6
CONTINUOUS
 10
0.4754612452
 20
10.4152736735
 11
0.4500558076
 21
11.8711936735
  0
LINE
  5
5C3
100
AcDbEntity
  8
CURVE
100
AcDbLine
 62
253
  6
CONTINUOUS
 10
0.4178692654
 20
13.8951263365
 11
0.413132184
 21
14.1665552315
  0
LINE
  5
5C4
100
AcDbEntity
  8
CURVE
100
AcDbLine
 62
7
  6
CONTINUOUS
 10
0.4519133322
 20
12.8481091916
 11
0.4531670637
 21
12.7823269917
  0
LINE
  5
5C5
100
AcDbEntity
  8
CURVE
100
AcDbLine
 62
253
  6
CONTINUOUS
 10
0.3847096932
 20
17.830840784
 11
0.3941838571
 21
17.2879836735
  0
LINE
  5
5C6
100
AcDbEntity
  8
CURVE
100
AcDbLine
 62
253
  6
CONTINUOUS
 10
0.4083951025
 20
16.609412342
 11
0.4178692654
 21
16.066555005
  0
LINE
  5
5C7
100
AcDbEntity
  8
CURVE
100
AcDbLine
 62
253
  6
CONTINUOUS
 10
0.4178692654
 20
17.830840784
 11
0.413132184
 21
18.1022693392
  0
LINE
  5
5C8
100
AcDbEntity
  8
CURVE
100
AcDbLine
 62
253
  6
CONTINUOUS
 10
0.4083951025
 20
19.1879836735
 11
0.4178692654
 21
18.6451265063
  0
LINE
  5
5C9
100
AcDbEntity
  8
CURVE
100
AcDbLine
 62
7
  6
CONTINUOUS
 10
0.4554636414
 20
12.9394181041
 11
0.4542471394
 21
13.0037650354
  0
LWPOLYLINE
  5
5CA
100
AcDbEntity
  8
RACCORDO
100
AcDbPolyline
 62
253
  6
CONTINUOUS
 90
10
 70
0
 10
-0.0024401645
 20
9.0522329585
 10
-0.0012086287
 20
8.968068097
 10
0.0000851658
 20
8.8926738787
 10
0.0014236888
 20
8.8264122971
 10
0.0028078488
 20
8.7696434087
 10
0.0042367374
 20
8.7226997736
 10
0.0056900994
 20
8.6858542807
 10
0.0071611831
 20
8.659338724
 10
0.0086567402
 20
8.6433378926
 10
0.0101767708
 20
8.6379836735
  0
LWPOLYLINE
  5
5CB
100
AcDbEntity
  8
ASSI
100
AcDbPolyline
 62
253
  6
CONTINUOUS
 90
10
 70
0
 10
-0.0024401645
 20
9.0522329585
 10
-0.0012086287
 20
8.968068097
 10
0.0000851658
 20
8.8926738787
 10
0.0014236888
 20
8.8264122971
 10
0.0028078488
 20
8.7696434087
 10
0.0042367374
 20
8.7226997736
 10
0.0056900994
 20
8.6858542807
 10
0.0071611831
 20
8.659338724
 10
0.0086567402
 20
8.6433378926
 10
0.0101767708
 20
8.6379836735
  0
LWPOLYLINE
  5
5CC
100
AcDbEntity
  8
RACCORDO
100
AcDbPolyline
 62
253
  6
CONTINUOUS
 90
10
 70
0
 10
-0.0024401645
 20
14.0522329585
 10
-0.0012086287
 20
13.968068097
 10
0.0000851658
 20
13.8926738787
 10
0.0014236888
 20
13.8264122971
 10
0.0028078488
 20
13.7696434087
 10
0.0042367374
 20
13.7226997736
 10
0.0056900994
 20
13.6858542807
 10
0.0071611831
 20
13.659338724
 10
0.0086567402
 20
13.6433378926
 10
0.0101767708
 20
13.6379836735
  0
LWPOLYLINE
  5
5CD
100
AcDbEntity
  8
ASSI
100
AcDbPolyline
 62
253
  6
CONTINUOUS
 90
10
 70
0
 10
-0.0024401645
 20
14.0522329585
 10
-0.0012086287
 20
13.968068097
 10
0.0000851658
 20
13.8926738787
 10
0.0014236888
 20
13.8264122971
 10
0.0028078488
 20
13.7696434087
 10
0.0042367374
 20
13.7226997736
 10
0.0056900994
 20
13.6858542807
 10
0.0071611831
 20
13.659338724
 10
0.0086567402
 20
13.6433378926
 10
0.0101767708
 20
13.6379836735
  0
LWPOLYLINE
  5
5CE
100
AcDbEntity
  8
RACCORDO
100
AcDbPolyline
 62
253
  6
CONTINUOUS
 90
10
 70
0
 10
-0.0024401645
 20
19.0522329585
 10
-0.0012086287
 20
18.968068097
 10
0.0000851658
 20
18.8926738787
 10
0.0014236888
 20
18.8264122971
 10
0.0028078488
 20
18.7696434087
 10
0.0042367374
 20
18.7226997736
 10
0.0056900994
 20
18.6858542807
 10
0.0071611831
 20
18.659338724
 10
0.0086567402
 20
18.6433378926
 10
0.0101767708
 20
18.6379836735
  0
LWPOLYLINE
  5
5CF
100
AcDbEntity
  8
ASSI
100
AcDbPolyline
 62
253
  6
CONTINUOUS
 90
10
 70
0
 10
-0.0024401645
 20
19.0522329585
 10
-0.0012086287
 20
18.968068097
 10
0.0000851658
 20
18.8926738787
 10
0.0014236888
 20
18.8264122971
 10
0.0028078488
 20
18.7696434087
 10
0.0042367374
 20
18.7226997736
 10
0.0056900994
 20
18.6858542807
 10
0.0071611831
 20
18.659338724
 10
0.0086567402
 20
18.6433378926
 10
0.0101767708
 20
18.6379836735
  0
LWPOLYLINE
  5
5D0
100
AcDbEntity
  8
RACCORDO
100
AcDbPolyline
 62
253
  6
CONTINUOUS
 90
10
 70
0
 10
-0.0024401645
 20
24.0522329585
 10
-0.0012086287
 20
23.968068097
 10
0.0000851658
 20
23.8926738787
 10
0.0014236888
 20
23.8264122971
 10
0.0028078488
 20
23.7696434087
 10
0.0042367374
 20
23.7226997736
 10
0.0056900994
 20
23.6858542807
 10
0.0071611831
 20
23.659338724
 10
0.0086567402
 20
23.6433378926
 10
0.0101767708
 20
23.6379836735
  0
LWPOLYLINE
  5
5D1
100
AcDbEntity
  8
ASSI
100
AcDbPolyline
 62
253
  6
CONTINUOUS
 90
10
 70
0
 10
-0.0024401645
 20
24.0522329585
 10
-0.0012086287
 20
23.968068097
 10
0.0000851658
 20
23.8926738787
 10
0.0014236888
 20
23.8264122971
 10
0.0028078488
 20
23.7696434087
 10
0.0042367374
 20
23.7226997736
 10
0.0056900994
 20
23.6858542807
 10
0.0071611831
 20
23.659338724
 10
0.0086567402
 20
23.6433378926
 10
0.0101767708
 20
23.6379836735
  0
LINE
  5
5D2
100
AcDbEntity
  8
ASSI
100
AcDbLine
 62
7
  6
CONTINUOUS
 10
0.300741903
 20
8.5919404218
 11
0.2991150953
 21
8.6933035986
  0
LINE
  5
5D3
100
AcDbEntity
  8
ASSI
100
AcDbLine
 62
7
  6
CONTINUOUS
 10
0.300741903
 20
13.5919404218
 11
0.2991150953
 21
13.6933035986
  0
LINE
  5
5D4
100
AcDbEntity
  8
ASSI
100
AcDbLine
 62
7
  6
CONTINUOUS
 10
0.300741903
 20
18.5919404218
 11
0.2991150953
 21
18.6933035986
  0
LINE
  5
5D5
100
AcDbEntity
  8
ASSI
100
AcDbLine
 62
7
  6
CONTINUOUS
 10
0.300741903
 20
23.5919404218
 11
0.2991150953
 21
23.6933035986
  0
LINE
  5
5D6
100
AcDbEntity
  8
ASSI
100
AcDbLine
 62
253
  6
CONTINUOUS
 10
-0.062201424
 20
0.5204978256
 11
-0.062095013
 21
0.5139363052
  0
LINE
  5
5D7
100
AcDbEntity
  8
RACCORDO
100
AcDbLine
 62
7
  6
CONTINUOUS
 10
0.3005149508
 20
8.6048048918
 11
0.2989461616
 21
8.7051110815
  0
LINE
  5
5D8
100
AcDbEntity
  8
RACCORDO
100
AcDbLine
 62
7
  6
CONTINUOUS
 10
0.3005149508
 20
13.6048048918
 11
0.2989461616
 21
13.7051110815
  0
LINE
  5
5D9
100
AcDbEntity
  8
RACCORDO
100
AcDbLine
 62
7
  6
CONTINUOUS
 10
0.3005149508
 20
18.6048048918
 11
0.2989461616
 21
18.7051110815
  0
LINE
  5
5DA
100
AcDbEntity
  8
RACCORDO
100
AcDbLine
 62
7
  6
CONTINUOUS
 10
0.3005149508
 20
23.6048048918
 11
0.2989461616
 21
23.7051110815
  0
LINE
  5
5DB
100
AcDbEntity
  8
ASSI
100
AcDbLine
 62
253
  6
CONTINUOUS
 10
-0.0622304792
 20
48.603985241
 11
-0.0621267479
 21
48.596866816
  0
LINE
  5
5DC
100
AcDbEntity
  8
CURVE
100
AcDbLine
 62
7
  6
CONTINUOUS
 10
0.4504316948
 20
12.951836498
 11
0.4519133322
 21
12.8481091916
  0
LINE
  5
5DD
100
AcDbEntity
  8
CURVE
100
AcDbLine
 62
7
  6
CONTINUOUS
 10
0.4542471394
 20
13.0037650354
 11
0.4531932836
 21
13.0797272625
  0
LINE
  5
5DE
100
AcDbEntity
  8
ASSI
100
AcDbLine
 62
7
  6
CONTINUOUS
 10
0.2991150953
 20
8.6933035986
 11
0.2975103822
 21
8.8159558228
  0
LINE
  5
5DF
100
AcDbEntity
  8
ASSI
100
AcDbLine
 62
7
  6
CONTINUOUS
 10
0.2991150953
 20
13.6933035986
 11
0.2975103822
 21
13.8159558228
  0
LINE
  5
5E0
100
AcDbEntity
  8
ASSI
100
AcDbLine
 62
7
  6
CONTINUOUS
 10
0.2991150953
 20
18.6933035986
 11
0.2975103822
 21
18.8159558228
  0
LINE
  5
5E1
100
AcDbEntity
  8
ASSI
100
AcDbLine
 62
7
  6
CONTINUOUS
 10
0.2991150953
 20
23.6933035986
 11
0.2975103822
 21
23.8159558228
  0
LINE
  5
5E2
100
AcDbEntity
  8
ASSI
100
AcDbLine
 62
253
  6
CONTINUOUS
 10
-0.2617511474
 20
0.3133958816
 11
-0.2616506998
 21
0.305890404
  0
LINE
  5
5E3
100
AcDbEntity
  8
RACCORDO
100
AcDbLine
 62
7
  6
CONTINUOUS
 10
0.2989461616
 20
8.7051110815
 11
0.2971840015
 21
8.8438850576
  0
LINE
  5
5E4
100
AcDbEntity
  8
RACCORDO
100
AcDbLine
 62
7
  6
CONTINUOUS
 10
0.2989461616
 20
13.7051110815
 11
0.2971840015
 21
13.8438850576
  0
LINE
  5
5E5
100
AcDbEntity
  8
RACCORDO
100
AcDbLine
 62
7
  6
CONTINUOUS
 10
0.2989461616
 20
18.7051110815
 11
0.2971840015
 21
18.8438850576
  0
LINE
  5
5E6
100
AcDbEntity
  8
RACCORDO
100
AcDbLine
 62
7
  6
CONTINUOUS
 10
0.2989461616
 20
23.7051110815
 11
0.2971840015
 21
23.8438850576
  0
LINE
  5
5E7
100
AcDbEntity
  8
RACCORDO
100
AcDbLine
 62
253
  6
CONTINUOUS
 10
-0.0047146643
 20
9.2450882429
 11
-0.0024401645
 21
9.0522329585
  0
LINE
  5
5E8
100
AcDbEntity
  8
ASSI
100
AcDbLine
 62
253
  6
CONTINUOUS
 10
-0.0047146643
 20
9.2450882429
 11
-0.0024401645
 21
9.0522329585
  0
LINE
  5
5E9
100
AcDbEntity
  8
RACCORDO
100
AcDbLine
 62
253
  6
CONTINUOUS
 10
-0.0047146643
 20
14.2450882429
 11
-0.0024401645
 21
14.0522329585
  0
LINE
  5
5EA
100
AcDbEntity
  8
ASSI
100
AcDbLine
 62
253
  6
CONTINUOUS
 10
-0.0047146643
 20
14.2450882429
 11
-0.0024401645
 21
14.0522329585
  0
LINE
  5
5EB
100
AcDbEntity
  8
RACCORDO
100
AcDbLine
 62
253
  6
CONTINUOUS
 10
-0.0047146643
 20
19.2450882429
 11
-0.0024401645
 21
19.0522329585
  0
LINE
  5
5EC
100
AcDbEntity
  8
ASSI
100
AcDbLine
 62
253
  6
CONTINUOUS
 10
-0.0047146643
 20
19.2450882429
 11
-0.0024401645
 21
19.0522329585
  0
LINE
  5
5ED
100
AcDbEntity
  8
RACCORDO
100
AcDbLine
 62
253
  6
CONTINUOUS
 10
-0.0047146643
 20
24.2450882429
 11
-0.0024401645
 21
24.0522329585
  0
LINE
  5
5EE
100
AcDbEntity
  8
ASSI
100
AcDbLine
 62
253
  6
CONTINUOUS
 10
-0.0047146643
 20
24.2450882429
 11
-0.0024401645
 21
24.0522329585
  0
LINE
  5
5EF
100
AcDbEntity
  8
CURVE
100
AcDbLine
 62
253
  6
CONTINUOUS
 10
0.403658021
 20
14.9808410105
 11
0.4060265608
 21
14.7546504911
  0
LINE
  5
5F0
100
AcDbEntity
  8
ASSI
100
AcDbLine
 62
7
  6
CONTINUOUS
 10
0.2975103822
 20
8.8159558228
 11
0.2959542036
 21
8.9598457755
  0
LINE
  5
5F1
100
AcDbEntity
  8
ASSI
100
AcDbLine
 62
7
  6
CONTINUOUS
 10
0.2975103822
 20
13.8159558228
 11
0.2959542036
 21
13.9598457755
  0
LINE
  5
5F2
100
AcDbEntity
  8
ASSI
100
AcDbLine
 62
7
  6
CONTINUOUS
 10
0.2975103822
 20
18.8159558228
 11
0.2959542036
 21
18.9598457755
  0
LINE
  5
5F3
100
AcDbEntity
  8
ASSI
100
AcDbLine
 62
7
  6
CONTINUOUS
 10
0.2975103822
 20
23.8159558228
 11
0.2959542036
 21
23.9598457755
  0
LINE
  5
5F4
100
AcDbEntity
  8
RACCORDO
100
AcDbLine
 62
7
  6
CONTINUOUS
 10
0.2971840015
 20
8.8438850576
 11
0.2954929513
 21
9.0082981245
  0
LINE
  5
5F5
100
AcDbEntity
  8
RACCORDO
100
AcDbLine
 62
7
  6
CONTINUOUS
 10
0.2971840015
 20
13.8438850576
 11
0.2954929513
 21
14.0082981245
  0
LINE
  5
5F6
100
AcDbEntity
  8
RACCORDO
100
AcDbLine
 62
7
  6
CONTINUOUS
 10
0.2971840015
 20
18.8438850576
 11
0.2954929513
 21
19.0082981245
  0
LINE
  5
5F7
100
AcDbEntity
  8
RACCORDO
100
AcDbLine
 62
7
  6
CONTINUOUS
 10
0.2971840015
 20
23.8438850576
 11
0.2954929513
 21
24.0082981245
  0
LINE
  5
5F8
100
AcDbEntity
  8
CURVE
100
AcDbLine
 62
7
  6
CONTINUOUS
 10
0.4531932836
 20
13.0797272625
 11
0.4522956857
 21
13.1704397551
  0
LINE
  5
5F9
100
AcDbEntity
  8
ASSI
100
AcDbLine
 62
253
  6
CONTINUOUS
 10
-0.0623067384
 20
0.5305261076
 11
-0.062201424
 21
0.5204978256
  0
LINE
  5
5FA
100
AcDbEntity
  8
RACCORDO
100
AcDbLine
 62
253
  6
CONTINUOUS
 10
-0.0066946625
 20
9.4675443197
 11
-0.0047146643
 21
9.2450882429
  0
LINE
  5
5FB
100
AcDbEntity
  8
ASSI
100
AcDbLine
 62
253
  6
CONTINUOUS
 10
-0.0066946625
 20
9.4675443197
 11
-0.0047146643
 21
9.2450882429
  0
LINE
  5
5FC
100
AcDbEntity
  8
RACCORDO
100
AcDbLine
 62
253
  6
CONTINUOUS
 10
-0.0066946625
 20
14.4675443197
 11
-0.0047146643
 21
14.2450882429
  0
LINE
  5
5FD
100
AcDbEntity
  8
ASSI
100
AcDbLine
 62
253
  6
CONTINUOUS
 10
-0.0066946625
 20
14.4675443197
 11
-0.0047146643
 21
14.2450882429
  0
LINE
  5
5FE
100
AcDbEntity
  8
RACCORDO
100
AcDbLine
 62
253
  6
CONTINUOUS
 10
-0.0066946625
 20
19.4675443197
 11
-0.0047146643
 21
19.2450882429
  0
LINE
  5
5FF
100
AcDbEntity
  8
ASSI
100
AcDbLine
 62
253
  6
CONTINUOUS
 10
-0.0066946625
 20
19.4675443197
 11
-0.0047146643
 21
19.2450882429
  0
LINE
  5
600
100
AcDbEntity
  8
RACCORDO
100
AcDbLine
 62
253
  6
CONTINUOUS
 10
-0.0066946625
 20
24.4675443197
 11
-0.0047146643
 21
24.2450882429
  0
LINE
  5
601
100
AcDbEntity
  8
ASSI
100
AcDbLine
 62
253
  6
CONTINUOUS
 10
-0.0066946625
 20
24.4675443197
 11
-0.0047146643
 21
24.2450882429
  0
LINE
  5
602
100
AcDbEntity
  8
ASSI
100
AcDbLine
 62
7
  6
CONTINUOUS
 10
0.2959542036
 20
8.9598457755
 11
0.2942847278
 21
9.1501580363
  0
LINE
  5
603
100
AcDbEntity
  8
ASSI
100
AcDbLine
 62
7
  6
CONTINUOUS
 10
0.2959542036
 20
13.9598457755
 11
0.2942847278
 21
14.1501580363
  0
LINE
  5
604
100
AcDbEntity
  8
ASSI
100
AcDbLine
 62
7
  6
CONTINUOUS
 10
0.2959542036
 20
18.9598457755
 11
0.2942847278
 21
19.1501580363
  0
LINE
  5
605
100
AcDbEntity
  8
ASSI
100
AcDbLine
 62
7
  6
CONTINUOUS
 10
0.2959542036
 20
23.9598457755
 11
0.2942847278
 21
24.1501580363
  0
LINE
  5
606
100
AcDbEntity
  8
ASSI
100
AcDbLine
 62
253
  6
CONTINUOUS
 10
-0.0623180762
 20
48.6132371763
 11
-0.0622304792
 21
48.603985241
  0
LINE
  5
607
100
AcDbEntity
  8
RACCORDO
100
AcDbLine
 62
7
  6
CONTINUOUS
 10
0.2954929513
 20
9.0082981245
 11
0.2939156195
 21
9.1982197466
  0
LINE
  5
608
100
AcDbEntity
  8
RACCORDO
100
AcDbLine
 62
7
  6
CONTINUOUS
 10
0.2954929513
 20
14.0082981245
 11
0.2939156195
 21
14.1982197466
  0
LINE
  5
609
100
AcDbEntity
  8
RACCORDO
100
AcDbLine
 62
7
  6
CONTINUOUS
 10
0.2954929513
 20
19.0082981245
 11
0.2939156195
 21
19.1982197466
  0
LINE
  5
60A
100
AcDbEntity
  8
RACCORDO
100
AcDbLine
 62
7
  6
CONTINUOUS
 10
0.2954929513
 20
24.0082981245
 11
0.2939156195
 21
24.1982197466
  0
LINE
  5
60B
100
AcDbEntity
  8
CURVE
100
AcDbLine
 62
7
  6
CONTINUOUS
 10
0.4487392438
 20
13.1296306453
 11
0.4504316948
 21
12.951836498
  0
LINE
  5
60C
100
AcDbEntity
  8
ASSI
100
AcDbLine
 62
7
  6
CONTINUOUS
 10
0.2942847278
 20
9.1501580363
 11
0.2927599263
 21
9.3673614242
  0
LINE
  5
60D
100
AcDbEntity
  8
ASSI
100
AcDbLine
 62
7
  6
CONTINUOUS
 10
0.2942847278
 20
14.1501580363
 11
0.2927599263
 21
14.3673614242
  0
LINE
  5
60E
100
AcDbEntity
  8
ASSI
100
AcDbLine
 62
7
  6
CONTINUOUS
 10
0.2942847278
 20
19.1501580363
 11
0.2927599263
 21
19.3673614242
  0
LINE
  5
60F
100
AcDbEntity
  8
ASSI
100
AcDbLine
 62
7
  6
CONTINUOUS
 10
0.2942847278
 20
24.1501580363
 11
0.2927599263
 21
24.3673614242
  0
LINE
  5
610
100
AcDbEntity
  8
RACCORDO
100
AcDbLine
 62
253
  6
CONTINUOUS
 10
-0.0083533567
 20
9.7153898136
 11
-0.0066946625
 21
9.4675443197
  0
LINE
  5
611
100
AcDbEntity
  8
ASSI
100
AcDbLine
 62
253
  6
CONTINUOUS
 10
-0.0083533567
 20
9.7153898136
 11
-0.0066946625
 21
9.4675443197
  0
LINE
  5
612
100
AcDbEntity
  8
RACCORDO
100
AcDbLine
 62
253
  6
CONTINUOUS
 10
-0.0083533567
 20
14.7153898136
 11
-0.0066946625
 21
14.4675443197
  0
LINE
  5
613
100
AcDbEntity
  8
ASSI
100
AcDbLine
 62
253
  6
CONTINUOUS
 10
-0.0083533567
 20
14.7153898136
 11
-0.0066946625
 21
14.4675443197
  0
LINE
  5
614
100
AcDbEntity
  8
RACCORDO
100
AcDbLine
 62
253
  6
CONTINUOUS
 10
-0.0083533567
 20
19.7153898136
 11
-0.0066946625
 21
19.4675443197
  0
LINE
  5
615
100
AcDbEntity
  8
ASSI
100
AcDbLine
 62
253
  6
CONTINUOUS
 10
-0.0083533567
 20
19.7153898136
 11
-0.0066946625
 21
19.4675443197
  0
LINE
  5
616
100
AcDbEntity
  8
RACCORDO
100
AcDbLine
 62
253
  6
CONTINUOUS
 10
-0.0083533567
 20
24.7153898136
 11
-0.0066946625
 21
24.4675443197
  0
LINE
  5
617
100
AcDbEntity
  8
ASSI
100
AcDbLine
 62
253
  6
CONTINUOUS
 10
-0.0083533567
 20
24.7153898136
 11
-0.0066946625
 21
24.4675443197
  0
LINE
  5
618
100
AcDbEntity
  8
ASSI
100
AcDbLine
 62
253
  6
CONTINUOUS
 10
-0.2619393574
 20
0.3383852264
 11
-0.2617511474
 21
0.3133958816
  0
LINE
  5
619
100
AcDbEntity
  8
RACCORDO
100
AcDbLine
 62
7
  6
CONTINUOUS
 10
0.2939156195
 20
9.1982197466
 11
0.2924837189
 21
9.4129381821
  0
LINE
  5
61A
100
AcDbEntity
  8
RACCORDO
100
AcDbLine
 62
7
  6
CONTINUOUS
 10
0.2939156195
 20
14.1982197466
 11
0.2924837189
 21
14.4129381821
  0
LINE
  5
61B
100
AcDbEntity
  8
RACCORDO
100
AcDbLine
 62
7
  6
CONTINUOUS
 10
0.2939156195
 20
19.1982197466
 11
0.2924837189
 21
19.4129381821
  0
LINE
  5
61C
100
AcDbEntity
  8
RACCORDO
100
AcDbLine
 62
7
  6
CONTINUOUS
 10
0.2939156195
 20
24.1982197466
 11
0.2924837189
 21
24.4129381821
  0
LINE
  5
61D
100
AcDbEntity
  8
ASSI
100
AcDbLine
 62
7
  6
CONTINUOUS
 10
0.2927599263
 20
9.3673614242
 11
0.291432875
 21
9.6098961148
  0
LINE
  5
61E
100
AcDbEntity
  8
ASSI
100
AcDbLine
 62
7
  6
CONTINUOUS
 10
0.2927599263
 20
14.3673614242
 11
0.291432875
 21
14.6098961148
  0
LINE
  5
61F
100
AcDbEntity
  8
ASSI
100
AcDbLine
 62
7
  6
CONTINUOUS
 10
0.2927599263
 20
19.3673614242
 11
0.291432875
 21
19.6098961148
  0
LINE
  5
620
100
AcDbEntity
  8
ASSI
100
AcDbLine
 62
7
  6
CONTINUOUS
 10
0.2927599263
 20
24.3673614242
 11
0.291432875
 21
24.6098961148
  0
LINE
  5
621
100
AcDbEntity
  8
RACCORDO
100
AcDbLine
 62
7
  6
CONTINUOUS
 10
0.2924837189
 20
9.4129381821
 11
0.2913840607
 21
9.6200968295
  0
LINE
  5
622
100
AcDbEntity
  8
RACCORDO
100
AcDbLine
 62
7
  6
CONTINUOUS
 10
0.2924837189
 20
14.4129381821
 11
0.2913840607
 21
14.6200968295
  0
LINE
  5
623
100
AcDbEntity
  8
RACCORDO
100
AcDbLine
 62
7
  6
CONTINUOUS
 10
0.2924837189
 20
19.4129381821
 11
0.2913840607
 21
19.6200968295
  0
LINE
  5
624
100
AcDbEntity
  8
RACCORDO
100
AcDbLine
 62
7
  6
CONTINUOUS
 10
0.2924837189
 20
24.4129381821
 11
0.2912390594
 21
24.6510834059
  0
LINE
  5
625
100
AcDbEntity
  8
RACCORDO
100
AcDbLine
 62
253
  6
CONTINUOUS
 10
-0.0096538101
 20
9.9841594008
 11
-0.0083533567
 21
9.7153898136
  0
LINE
  5
626
100
AcDbEntity
  8
ASSI
100
AcDbLine
 62
253
  6
CONTINUOUS
 10
-0.0096538101
 20
9.9841594008
 11
-0.0083533567
 21
9.7153898136
  0
LINE
  5
627
100
AcDbEntity
  8
RACCORDO
100
AcDbLine
 62
253
  6
CONTINUOUS
 10
-0.0096538101
 20
14.9841594008
 11
-0.0083533567
 21
14.7153898136
  0
LINE
  5
628
100
AcDbEntity
  8
ASSI
100
AcDbLine
 62
253
  6
CONTINUOUS
 10
-0.0096538101
 20
14.9841594008
 11
-0.0083533567
 21
14.7153898136
  0
LINE
  5
629
100
AcDbEntity
  8
RACCORDO
100
AcDbLine
 62
253
  6
CONTINUOUS
 10
-0.0096538101
 20
19.9841594008
 11
-0.0083533567
 21
19.7153898136
  0
LINE
  5
62A
100
AcDbEntity
  8
ASSI
100
AcDbLine
 62
253
  6
CONTINUOUS
 10
-0.0096538101
 20
19.9841594008
 11
-0.0083533567
 21
19.7153898136
  0
LINE
  5
62B
100
AcDbEntity
  8
RACCORDO
100
AcDbLine
 62
253
  6
CONTINUOUS
 10
-0.0096538101
 20
24.9841594008
 11
-0.0083533567
 21
24.7153898136
  0
LINE
  5
62C
100
AcDbEntity
  8
ASSI
100
AcDbLine
 62
253
  6
CONTINUOUS
 10
-0.0096538101
 20
24.9841594008
 11
-0.0083533567
 21
24.7153898136
  0
LINE
  5
62D
100
AcDbEntity
  8
ASSI
100
AcDbLine
 62
7
  6
CONTINUOUS
 10
0.291432875
 20
9.6098961148
 11
0.2903339818
 21
9.8754079383
  0
LINE
  5
62E
100
AcDbEntity
  8
RACCORDO
100
AcDbLine
 62
7
  6
CONTINUOUS
 10
0.2913840607
 20
9.6200968295
 11
0.2903282013
 21
9.8770657837
  0
LINE
  5
62F
100
AcDbEntity
  8
ASSI
100
AcDbLine
 62
7
  6
CONTINUOUS
 10
0.291432875
 20
14.6098961148
 11
0.2903339818
 21
14.8754079383
  0
LINE
  5
630
100
AcDbEntity
  8
RACCORDO
100
AcDbLine
 62
7
  6
CONTINUOUS
 10
0.2913840607
 20
14.6200968295
 11
0.2903282013
 21
14.8770657837
  0
LINE
  5
631
100
AcDbEntity
  8
ASSI
100
AcDbLine
 62
7
  6
CONTINUOUS
 10
0.291432875
 20
19.6098961148
 11
0.2903339818
 21
19.8754079383
  0
LINE
  5
632
100
AcDbEntity
  8
RACCORDO
100
AcDbLine
 62
7
  6
CONTINUOUS
 10
0.2913840607
 20
19.6200968295
 11
0.2903282013
 21
19.8770657837
  0
LINE
  5
633
100
AcDbEntity
  8
ASSI
100
AcDbLine
 62
7
  6
CONTINUOUS
 10
0.291432875
 20
24.6098961148
 11
0.2903339818
 21
24.8754079383
  0
LINE
  5
634
100
AcDbEntity
  8
RACCORDO
100
AcDbLine
 62
7
  6
CONTINUOUS
 10
0.2912390594
 20
24.6510834059
 11
0.2902140117
 21
24.9105814075
  0
LINE
  5
635
100
AcDbEntity
  8
ASSI
100
AcDbLine
 62
253
  6
CONTINUOUS
 10
-0.0623744596
 20
0.5436786345
 11
-0.0623067384
 21
0.5305261076
  0
LINE
  5
636
100
AcDbEntity
  8
ASSI
100
AcDbLine
 62
253
  6
CONTINUOUS
 10
-0.062373202
 20
48.624399767
 11
-0.0623180762
 21
48.6132371763
  0
LINE
  5
637
100
AcDbEntity
  8
RACCORDO
100
AcDbLine
 62
7
  6
CONTINUOUS
 10
0.2903282013
 20
9.8770657837
 11
0.2901038659
 21
9.9443872357
  0
LINE
  5
638
100
AcDbEntity
  8
ASSI
100
AcDbLine
 62
7
  6
CONTINUOUS
 10
0.2903339818
 20
9.8754079383
 11
0.29010187
 21
9.9450140861
  0
LINE
  5
639
100
AcDbEntity
  8
RACCORDO
100
AcDbLine
 62
7
  6
CONTINUOUS
 10
0.2903282013
 20
14.8770657837
 11
0.2901038659
 21
14.9443872357
  0
LINE
  5
63A
100
AcDbEntity
  8
ASSI
100
AcDbLine
 62
7
  6
CONTINUOUS
 10
0.2903339818
 20
14.8754079383
 11
0.29010187
 21
14.9450140861
  0
LINE
  5
63B
100
AcDbEntity
  8
RACCORDO
100
AcDbLine
 62
7
  6
CONTINUOUS
 10
0.2903282013
 20
19.8770657837
 11
0.2901038659
 21
19.9443872357
  0
LINE
  5
63C
100
AcDbEntity
  8
ASSI
100
AcDbLine
 62
7
  6
CONTINUOUS
 10
0.2903339818
 20
19.8754079383
 11
0.29010187
 21
19.9450140861
  0
LINE
  5
63D
100
AcDbEntity
  8
RACCORDO
100
AcDbLine
 62
253
  6
CONTINUOUS
 10
-0.0105697526
 20
10.2687264079
 11
-0.0096538101
 21
9.9841594008
  0
LINE
  5
63E
100
AcDbEntity
  8
ASSI
100
AcDbLine
 62
253
  6
CONTINUOUS
 10
-0.0105697526
 20
10.2687264079
 11
-0.0096538101
 21
9.9841594008
  0
LINE
  5
63F
100
AcDbEntity
  8
RACCORDO
100
AcDbLine
 62
253
  6
CONTINUOUS
 10
-0.0105697526
 20
15.2687264079
 11
-0.0096538101
 21
14.9841594008
  0
LINE
  5
640
100
AcDbEntity
  8
ASSI
100
AcDbLine
 62
253
  6
CONTINUOUS
 10
-0.0105697526
 20
15.2687264079
 11
-0.0096538101
 21
14.9841594008
  0
LINE
  5
641
100
AcDbEntity
  8
RACCORDO
100
AcDbLine
 62
253
  6
CONTINUOUS
 10
-0.0105697526
 20
20.2687264079
 11
-0.0096538101
 21
19.9841594008
  0
LINE
  5
642
100
AcDbEntity
  8
ASSI
100
AcDbLine
 62
253
  6
CONTINUOUS
 10
-0.0105697526
 20
20.2687264079
 11
-0.0096538101
 21
19.9841594008
  0
LINE
  5
643
100
AcDbEntity
  8
RACCORDO
100
AcDbLine
 62
253
  6
CONTINUOUS
 10
-0.0105697526
 20
25.2687264079
 11
-0.0096538101
 21
24.9841594008
  0
LINE
  5
644
100
AcDbEntity
  8
ASSI
100
AcDbLine
 62
253
  6
CONTINUOUS
 10
-0.0105697526
 20
25.2687264079
 11
-0.0096538101
 21
24.9841594008
  0
LINE
  5
645
100
AcDbEntity
  8
RACCORDO
100
AcDbLine
 62
7
  6
CONTINUOUS
 10
0.2901038659
 20
9.9443872357
 11
0.2897024161
 21
10.0823875261
  0
LINE
  5
646
100
AcDbEntity
  8
RACCORDO
100
AcDbLine
 62
7
  6
CONTINUOUS
 10
0.2901038659
 20
14.9443872357
 11
0.2897024161
 21
15.0823875261
  0
LINE
  5
647
100
AcDbEntity
  8
RACCORDO
100
AcDbLine
 62
7
  6
CONTINUOUS
 10
0.2901038659
 20
19.9443872357
 11
0.2897024161
 21
20.0823875261
  0
LINE
  5
648
100
AcDbEntity
  8
ASSI
100
AcDbLine
 62
7
  6
CONTINUOUS
 10
0.29010187
 20
9.9450140861
 11
0.2895957421
 21
10.1240340206
  0
LINE
  5
649
100
AcDbEntity
  8
ASSI
100
AcDbLine
 62
7
  6
CONTINUOUS
 10
0.29010187
 20
14.9450140861
 11
0.2895957421
 21
15.1240340206
  0
LINE
  5
64A
100
AcDbEntity
  8
ASSI
100
AcDbLine
 62
7
  6
CONTINUOUS
 10
0.29010187
 20
19.9450140861
 11
0.2895957421
 21
20.1240340206
  0
LINE
  5
64B
100
AcDbEntity
  8
RACCORDO
100
AcDbLine
 62
7
  6
CONTINUOUS
 10
0.2897024161
 20
10.0823875261
 11
0.2892277542
 21
10.2965407881
  0
LINE
  5
64C
100
AcDbEntity
  8
RACCORDO
100
AcDbLine
 62
7
  6
CONTINUOUS
 10
0.2897024161
 20
15.0823875261
 11
0.2892277542
 21
15.2965407881
  0
LINE
  5
64D
100
AcDbEntity
  8
RACCORDO
100
AcDbLine
 62
7
  6
CONTINUOUS
 10
0.2897024161
 20
20.0823875261
 11
0.2892277542
 21
20.2965407881
  0
LINE
  5
64E
100
AcDbEntity
  8
RACCORDO
100
AcDbLine
 62
7
  6
CONTINUOUS
 10
0.2902140117
 20
24.9105814075
 11
0.2891654207
 21
25.3329038384
  0
LINE
  5
64F
100
AcDbEntity
  8
RACCORDO
100
AcDbLine
 62
253
  6
CONTINUOUS
 10
-0.0110873247
 20
10.5636267164
 11
-0.0105697526
 21
10.2687264079
  0
LINE
  5
650
100
AcDbEntity
  8
ASSI
100
AcDbLine
 62
253
  6
CONTINUOUS
 10
-0.0110873247
 20
10.5636267164
 11
-0.0105697526
 21
10.2687264079
  0
LINE
  5
651
100
AcDbEntity
  8
RACCORDO
100
AcDbLine
 62
253
  6
CONTINUOUS
 10
-0.0110873247
 20
15.5636267164
 11
-0.0105697526
 21
15.2687264079
  0
LINE
  5
652
100
AcDbEntity
  8
ASSI
100
AcDbLine
 62
253
  6
CONTINUOUS
 10
-0.0110873247
 20
15.5636267164
 11
-0.0105697526
 21
15.2687264079
  0
LINE
  5
653
100
AcDbEntity
  8
RACCORDO
100
AcDbLine
 62
253
  6
CONTINUOUS
 10
-0.0110873247
 20
20.5636267164
 11
-0.0105697526
 21
20.2687264079
  0
LINE
  5
654
100
AcDbEntity
  8
ASSI
100
AcDbLine
 62
253
  6
CONTINUOUS
 10
-0.0110873247
 20
20.5636267164
 11
-0.0105697526
 21
20.2687264079
  0
LINE
  5
655
100
AcDbEntity
  8
RACCORDO
100
AcDbLine
 62
253
  6
CONTINUOUS
 10
-0.0110873247
 20
25.5636267164
 11
-0.0105697526
 21
25.2687264079
  0
LINE
  5
656
100
AcDbEntity
  8
ASSI
100
AcDbLine
 62
253
  6
CONTINUOUS
 10
-0.0110873247
 20
25.5636267164
 11
-0.0105697526
 21
25.2687264079
  0
LINE
  5
657
100
AcDbEntity
  8
ASSI
100
AcDbLine
 62
7
  6
CONTINUOUS
 10
0.2895957421
 20
10.1240340206
 11
0.2890861786
 21
10.3842866297
  0
LINE
  5
658
100
AcDbEntity
  8
ASSI
100
AcDbLine
 62
7
  6
CONTINUOUS
 10
0.2895957421
 20
15.1240340206
 11
0.2890861786
 21
15.3842866297
  0
LINE
  5
659
100
AcDbEntity
  8
ASSI
100
AcDbLine
 62
7
  6
CONTINUOUS
 10
0.2895957421
 20
20.1240340206
 11
0.2890861786
 21
20.3842866297
  0
LINE
  5
65A
100
AcDbEntity
  8
ASSI
100
AcDbLine
 62
7
  6
CONTINUOUS
 10
0.2903339818
 20
24.8754079383
 11
0.2890342865
 21
25.4221270997
  0
LINE
  5
65B
100
AcDbEntity
  8
ASSI
100
AcDbLine
 62
253
  6
CONTINUOUS
 10
-0.2623114718
 20
48.555471719
 11
-0.2619173246
 21
48.4158148898
  0
LINE
  5
65C
100
AcDbEntity
  8
ASSI
100
AcDbLine
 62
253
  6
CONTINUOUS
 10
-0.2623252377
 20
0.4878213132
 11
-0.2619393574
 21
0.3383852264
  0
LINE
  5
65D
100
AcDbEntity
  8
RACCORDO
100
AcDbLine
 62
7
  6
CONTINUOUS
 10
0.2892277542
 20
10.2965407881
 11
0.2889654364
 21
10.4797340839
  0
LINE
  5
65E
100
AcDbEntity
  8
RACCORDO
100
AcDbLine
 62
7
  6
CONTINUOUS
 10
0.2892277542
 20
15.2965407881
 11
0.2889654364
 21
15.4797340839
  0
LINE
  5
65F
100
AcDbEntity
  8
RACCORDO
100
AcDbLine
 62
7
  6
CONTINUOUS
 10
0.2892277542
 20
20.2965407881
 11
0.2889654364
 21
20.4797340839
  0
LINE
  5
660
100
AcDbEntity
  8
ASSI
100
AcDbLine
 62
7
  6
CONTINUOUS
 10
0.2890861786
 20
10.3842866297
 11
0.2889091588
 21
10.5363158037
  0
LINE
  5
661
100
AcDbEntity
  8
ASSI
100
AcDbLine
 62
7
  6
CONTINUOUS
 10
0.2890861786
 20
15.3842866297
 11
0.2889091588
 21
15.5363158037
  0
LINE
  5
662
100
AcDbEntity
  8
ASSI
100
AcDbLine
 62
7
  6
CONTINUOUS
 10
0.2890861786
 20
20.3842866297
 11
0.2889091588
 21
20.5363158037
  0
LINE
  5
663
100
AcDbEntity
  8
RACCORDO
100
AcDbLine
 62
7
  6
CONTINUOUS
 10
0.2889654364
 20
10.4797340839
 11
0.2888649383
 21
10.5909229551
  0
LINE
  5
664
100
AcDbEntity
  8
RACCORDO
100
AcDbLine
 62
7
  6
CONTINUOUS
 10
0.2889654364
 20
15.4797340839
 11
0.2888649383
 21
15.5909229551
  0
LINE
  5
665
100
AcDbEntity
  8
RACCORDO
100
AcDbLine
 62
7
  6
CONTINUOUS
 10
0.2889654364
 20
20.4797340839
 11
0.2888649383
 21
20.5909229551
  0
LINE
  5
666
100
AcDbEntity
  8
ASSI
100
AcDbLine
 62
7
  6
CONTINUOUS
 10
0.2889091588
 20
10.5363158037
 11
0.2887996696
 21
10.7278925901
  0
LINE
  5
667
100
AcDbEntity
  8
ASSI
100
AcDbLine
 62
7
  6
CONTINUOUS
 10
0.2889091588
 20
15.5363158037
 11
0.2887996696
 21
15.7278925901
  0
LINE
  5
668
100
AcDbEntity
  8
ASSI
100
AcDbLine
 62
7
  6
CONTINUOUS
 10
0.2889091588
 20
20.5363158037
 11
0.2887996696
 21
20.7278925901
  0
LINE
  5
669
100
AcDbEntity
  8
ASSI
100
AcDbLine
 62
7
  6
CONTINUOUS
 10
0.2890342865
 20
25.4221270997
 11
0.288793668
 21
25.7662510151
  0
LINE
  5
66A
100
AcDbEntity
  8
ASSI
100
AcDbLine
 62
253
  6
CONTINUOUS
 10
-1.3615266406
 20
1.2298022029
 11
-1.3615266406
 21
2.4011511304
  0
LINE
  5
66B
100
AcDbEntity
  8
ASSI
100
AcDbLine
 62
253
  6
CONTINUOUS
 10
-1.3615266406
 20
47.1748162166
 11
-1.3615266406
 21
48.3461651441
  0
LINE
  5
66C
100
AcDbEntity
  8
ASSI
100
AcDbLine
 62
7
  6
CONTINUOUS
 10
-1.3483591837
 20
1.6653339427
 11
-1.3483591837
 21
2.3879836735
  0
LINE
  5
66D
100
AcDbEntity
  8
ASSI
100
AcDbLine
 62
7
  6
CONTINUOUS
 10
-1.3483591837
 20
47.1879836735
 11
-1.3483591837
 21
47.9106334043
  0
LINE
  5
66E
100
AcDbEntity
  8
ASSI
100
AcDbLine
 62
7
  6
CONTINUOUS
 10
-0.8483591837
 20
27.9379836735
 11
-0.8483591837
 21
23.6379836735
  0
LINE
  5
66F
100
AcDbEntity
  8
ASSI
100
AcDbLine
 62
7
  6
CONTINUOUS
 10
-0.8483591837
 20
22.9379836735
 11
-0.8483591837
 21
18.6379836735
  0
LINE
  5
670
100
AcDbEntity
  8
ASSI
100
AcDbLine
 62
7
  6
CONTINUOUS
 10
-0.8483591837
 20
17.9379836735
 11
-0.8483591837
 21
13.6379836735
  0
LINE
  5
671
100
AcDbEntity
  8
ASSI
100
AcDbLine
 62
7
  6
CONTINUOUS
 10
-0.8483591837
 20
12.9379836735
 11
-0.8483591837
 21
8.6379836735
  0
LINE
  5
672
100
AcDbEntity
  8
ASSI
100
AcDbLine
 62
253
  6
CONTINUOUS
 10
-0.2623537012
 20
0.5511130542
 11
-0.2623252377
 21
0.4878213132
  0
LINE
  5
673
100
AcDbEntity
  8
ASSI
100
AcDbLine
 62
7
  6
CONTINUOUS
 10
-0.0483591837
 20
0.4879532125
 11
-0.0483591837
 21
2.3879836735
  0
LINE
  5
674
100
AcDbEntity
  8
ASSI
100
AcDbLine
 62
7
  6
CONTINUOUS
 10
-0.0483591837
 20
49.0880141344
 11
-0.0483591191
 21
47.1879836031
  0
LINE
  5
675
100
AcDbEntity
  8
RACCORDO
100
AcDbLine
 62
253
  6
CONTINUOUS
 10
-0.0111899639
 20
25.8631817157
 11
-0.0110873247
 21
25.5636267164
  0
LINE
  5
676
100
AcDbEntity
  8
ASSI
100
AcDbLine
 62
253
  6
CONTINUOUS
 10
-0.0111899639
 20
25.8631817157
 11
-0.0110873247
 21
25.5636267164
  0
LINE
  5
677
100
AcDbEntity
  8
RACCORDO
100
AcDbLine
 62
253
  6
CONTINUOUS
 10
-0.0111899639
 20
20.8631817157
 11
-0.0110873247
 21
20.5636267164
  0
LINE
  5
678
100
AcDbEntity
  8
ASSI
100
AcDbLine
 62
253
  6
CONTINUOUS
 10
-0.0111899639
 20
20.8631817157
 11
-0.0110873247
 21
20.5636267164
  0
LINE
  5
679
100
AcDbEntity
  8
RACCORDO
100
AcDbLine
 62
253
  6
CONTINUOUS
 10
-0.0111899639
 20
15.8631817157
 11
-0.0110873247
 21
15.5636267164
  0
LINE
  5
67A
100
AcDbEntity
  8
ASSI
100
AcDbLine
 62
253
  6
CONTINUOUS
 10
-0.0111899639
 20
15.8631817157
 11
-0.0110873247
 21
15.5636267164
  0
LINE
  5
67B
100
AcDbEntity
  8
RACCORDO
100
AcDbLine
 62
253
  6
CONTINUOUS
 10
-0.0111899639
 20
10.8631817157
 11
-0.0110873247
 21
10.5636267164
  0
LINE
  5
67C
100
AcDbEntity
  8
ASSI
100
AcDbLine
 62
253
  6
CONTINUOUS
 10
-0.0111899639
 20
10.8631817157
 11
-0.0110873247
 21
10.5636267164
  0
LINE
  5
67D
100
AcDbEntity
  8
RACCORDO
100
AcDbLine
 62
7
  6
CONTINUOUS
 10
0.2888649383
 20
10.5909229551
 11
0.2887929679
 21
10.7770940695
  0
LINE
  5
67E
100
AcDbEntity
  8
RACCORDO
100
AcDbLine
 62
7
  6
CONTINUOUS
 10
0.2888649383
 20
15.5909229551
 11
0.2887929679
 21
15.7770940695
  0
LINE
  5
67F
100
AcDbEntity
  8
RACCORDO
100
AcDbLine
 62
7
  6
CONTINUOUS
 10
0.2888649383
 20
20.5909229551
 11
0.2887929679
 21
20.7770940695
  0
LINE
  5
680
100
AcDbEntity
  8
RACCORDO
100
AcDbLine
 62
7
  6
CONTINUOUS
 10
0.2891654207
 20
25.3329038384
 11
0.2887939199
 21
25.8143201064
  0
LINE
  5
681
100
AcDbEntity
  8
ASSI
100
AcDbLine
 62
7
  6
CONTINUOUS
 10
0.3516408163
 20
8.4247557784
 11
0.3516408163
 21
13.1512115685
  0
LINE
  5
682
100
AcDbEntity
  8
ASSI
100
AcDbLine
 62
7
  6
CONTINUOUS
 10
0.3516408163
 20
13.4247557784
 11
0.3516408163
 21
18.1512115685
  0
LINE
  5
683
100
AcDbEntity
  8
ASSI
100
AcDbLine
 62
7
  6
CONTINUOUS
 10
0.3516408163
 20
18.4247557784
 11
0.3516408163
 21
23.1512115685
  0
LINE
  5
684
100
AcDbEntity
  8
ASSI
100
AcDbLine
 62
7
  6
CONTINUOUS
 10
0.3516408163
 20
23.4247557784
 11
0.3516408163
 21
28.1512115685
  0
LINE
  5
685
100
AcDbEntity
  8
ASSI
100
AcDbLine
 62
7
  6
CONTINUOUS
 10
0.2887996696
 20
20.7278925901
 11
0.2888245474
 21
20.9193111901
  0
LINE
  5
686
100
AcDbEntity
  8
ASSI
100
AcDbLine
 62
7
  6
CONTINUOUS
 10
0.2887996696
 20
15.7278925901
 11
0.2888245474
 21
15.9193111901
  0
LINE
  5
687
100
AcDbEntity
  8
ASSI
100
AcDbLine
 62
7
  6
CONTINUOUS
 10
0.2887996696
 20
10.7278925901
 11
0.2888245474
 21
10.9193111901
  0
LINE
  5
688
100
AcDbEntity
  8
RACCORDO
100
AcDbLine
 62
7
  6
CONTINUOUS
 10
0.2887929679
 20
20.7770940695
 11
0.2888490892
 21
20.962716672
  0
LINE
  5
689
100
AcDbEntity
  8
RACCORDO
100
AcDbLine
 62
7
  6
CONTINUOUS
 10
0.2887929679
 20
15.7770940695
 11
0.2888490892
 21
15.962716672
  0
LINE
  5
68A
100
AcDbEntity
  8
RACCORDO
100
AcDbLine
 62
7
  6
CONTINUOUS
 10
0.2887929679
 20
10.7770940695
 11
0.2888490892
 21
10.962716672
  0
LINE
  5
68B
100
AcDbEntity
  8
ASSI
100
AcDbLine
 62
7
  6
CONTINUOUS
 10
0.288793668
 20
25.7662510151
 11
0.2889797591
 21
26.1086046207
  0
LINE
  5
68C
100
AcDbEntity
  8
ASSI
100
AcDbLine
 62
7
  6
CONTINUOUS
 10
0.2888245474
 20
20.9193111901
 11
0.2889392445
 21
21.0710123365
  0
LINE
  5
68D
100
AcDbEntity
  8
ASSI
100
AcDbLine
 62
7
  6
CONTINUOUS
 10
0.2888245474
 20
15.9193111901
 11
0.2889392445
 21
16.0710123365
  0
LINE
  5
68E
100
AcDbEntity
  8
RACCORDO
100
AcDbLine
 62
7
  6
CONTINUOUS
 10
0.2888490892
 20
15.962716672
 11
0.2889413362
 21
16.073065957
  0
LINE
  5
68F
100
AcDbEntity
  8
ASSI
100
AcDbLine
 62
7
  6
CONTINUOUS
 10
0.2888245474
 20
10.9193111901
 11
0.2889392445
 21
11.0710123365
  0
LINE
  5
690
100
AcDbEntity
  8
RACCORDO
100
AcDbLine
 62
7
  6
CONTINUOUS
 10
0.2888490892
 20
10.962716672
 11
0.2889413362
 21
11.073065957
  0
LINE
  5
691
100
AcDbEntity
  8
ASSI
100
AcDbLine
 62
253
  6
CONTINUOUS
 10
-0.06237888
 20
0.9490150533
 11
-0.0623744596
 21
0.5436786345
  0
LINE
  5
692
100
AcDbEntity
  8
RACCORDO
100
AcDbLine
 62
253
  6
CONTINUOUS
 10
-0.0108792533
 20
26.161140826
 11
-0.0111899639
 21
25.8631817157
  0
LINE
  5
693
100
AcDbEntity
  8
ASSI
100
AcDbLine
 62
253
  6
CONTINUOUS
 10
-0.0108792533
 20
26.161140826
 11
-0.0111899639
 21
25.8631817157
  0
LINE
  5
694
100
AcDbEntity
  8
RACCORDO
100
AcDbLine
 62
253
  6
CONTINUOUS
 10
-0.0108792533
 20
21.161140826
 11
-0.0111899639
 21
20.8631817157
  0
LINE
  5
695
100
AcDbEntity
  8
ASSI
100
AcDbLine
 62
253
  6
CONTINUOUS
 10
-0.0108792533
 20
21.161140826
 11
-0.0111899639
 21
20.8631817157
  0
LINE
  5
696
100
AcDbEntity
  8
RACCORDO
100
AcDbLine
 62
253
  6
CONTINUOUS
 10
-0.0108792533
 20
16.161140826
 11
-0.0111899639
 21
15.8631817157
  0
LINE
  5
697
100
AcDbEntity
  8
ASSI
100
AcDbLine
 62
253
  6
CONTINUOUS
 10
-0.0108792533
 20
16.161140826
 11
-0.0111899639
 21
15.8631817157
  0
LINE
  5
698
100
AcDbEntity
  8
RACCORDO
100
AcDbLine
 62
253
  6
CONTINUOUS
 10
-0.0108792533
 20
11.161140826
 11
-0.0111899639
 21
10.8631817157
  0
LINE
  5
699
100
AcDbEntity
  8
ASSI
100
AcDbLine
 62
253
  6
CONTINUOUS
 10
-0.0108792533
 20
11.161140826
 11
-0.0111899639
 21
10.8631817157
  0
LINE
  5
69A
100
AcDbEntity
  8
ASSI
100
AcDbLine
 62
253
  6
CONTINUOUS
 10
-0.0623779625
 20
49.0307988194
 11
-0.062373202
 21
48.624399767
  0
LINE
  5
69B
100
AcDbEntity
  8
RACCORDO
100
AcDbLine
 62
7
  6
CONTINUOUS
 10
0.2887939199
 20
25.8143201064
 11
0.2891840466
 21
26.2540349487
  0
LINE
  5
69C
100
AcDbEntity
  8
RACCORDO
100
AcDbLine
 62
7
  6
CONTINUOUS
 10
0.2888490892
 20
20.962716672
 11
0.2891263565
 21
21.2182026223
  0
LINE
  5
69D
100
AcDbEntity
  8
RACCORDO
100
AcDbLine
 62
7
  6
CONTINUOUS
 10
0.2889413362
 20
16.073065957
 11
0.2891263565
 21
16.2182026223
  0
LINE
  5
69E
100
AcDbEntity
  8
RACCORDO
100
AcDbLine
 62
7
  6
CONTINUOUS
 10
0.2889413362
 20
11.073065957
 11
0.2891263565
 21
11.2182026223
  0
LINE
  5
69F
100
AcDbEntity
  8
ASSI
100
AcDbLine
 62
7
  6
CONTINUOUS
 10
0.2889392445
 20
21.0710123365
 11
0.2891894047
 21
21.2572131821
  0
LINE
  5
6A0
100
AcDbEntity
  8
ASSI
100
AcDbLine
 62
7
  6
CONTINUOUS
 10
0.2889392445
 20
16.0710123365
 11
0.2891894047
 21
16.2572131821
  0
LINE
  5
6A1
100
AcDbEntity
  8
ASSI
100
AcDbLine
 62
7
  6
CONTINUOUS
 10
0.2889392445
 20
11.0710123365
 11
0.2891894047
 21
11.2572131821
  0
LINE
  5
6A2
100
AcDbEntity
  8
RACCORDO
100
AcDbLine
 62
7
  6
CONTINUOUS
 10
0.2891263565
 20
21.2182026223
 11
0.289541329
 21
21.429859751
  0
LINE
  5
6A3
100
AcDbEntity
  8
RACCORDO
100
AcDbLine
 62
7
  6
CONTINUOUS
 10
0.2891263565
 20
16.2182026223
 11
0.289541329
 21
16.429859751
  0
LINE
  5
6A4
100
AcDbEntity
  8
RACCORDO
100
AcDbLine
 62
7
  6
CONTINUOUS
 10
0.2891263565
 20
11.2182026223
 11
0.289541329
 21
11.429859751
  0
LINE
  5
6A5
100
AcDbEntity
  8
ASSI
100
AcDbLine
 62
7
  6
CONTINUOUS
 10
0.2889797591
 20
26.1086046207
 11
0.2897412444
 21
26.5083160818
  0
LINE
  5
6A6
100
AcDbEntity
  8
ASSI
100
AcDbLine
 62
7
  6
CONTINUOUS
 10
0.2891894047
 20
21.2572131821
 11
0.2896488823
 21
21.473273985
  0
LINE
  5
6A7
100
AcDbEntity
  8
ASSI
100
AcDbLine
 62
7
  6
CONTINUOUS
 10
0.2891894047
 20
16.2572131821
 11
0.2896488823
 21
16.473273985
  0
LINE
  5
6A8
100
AcDbEntity
  8
ASSI
100
AcDbLine
 62
7
  6
CONTINUOUS
 10
0.2891894047
 20
11.2572131821
 11
0.2896488823
 21
11.473273985
  0
LINE
  5
6A9
100
AcDbEntity
  8
RACCORDO
100
AcDbLine
 62
253
  6
CONTINUOUS
 10
-0.0101600737
 20
26.4516008331
 11
-0.0108792533
 21
26.161140826
  0
LINE
  5
6AA
100
AcDbEntity
  8
ASSI
100
AcDbLine
 62
253
  6
CONTINUOUS
 10
-0.0101600737
 20
26.4516008331
 11
-0.0108792533
 21
26.161140826
  0
LINE
  5
6AB
100
AcDbEntity
  8
RACCORDO
100
AcDbLine
 62
253
  6
CONTINUOUS
 10
-0.0101600737
 20
21.4516008331
 11
-0.0108792533
 21
21.161140826
  0
LINE
  5
6AC
100
AcDbEntity
  8
ASSI
100
AcDbLine
 62
253
  6
CONTINUOUS
 10
-0.0101600737
 20
21.4516008331
 11
-0.0108792533
 21
21.161140826
  0
LINE
  5
6AD
100
AcDbEntity
  8
RACCORDO
100
AcDbLine
 62
253
  6
CONTINUOUS
 10
-0.0101600737
 20
16.4516008331
 11
-0.0108792533
 21
16.161140826
  0
LINE
  5
6AE
100
AcDbEntity
  8
ASSI
100
AcDbLine
 62
253
  6
CONTINUOUS
 10
-0.0101600737
 20
16.4516008331
 11
-0.0108792533
 21
16.161140826
  0
LINE
  5
6AF
100
AcDbEntity
  8
RACCORDO
100
AcDbLine
 62
253
  6
CONTINUOUS
 10
-0.0101600737
 20
11.4516008331
 11
-0.0108792533
 21
11.161140826
  0
LINE
  5
6B0
100
AcDbEntity
  8
ASSI
100
AcDbLine
 62
253
  6
CONTINUOUS
 10
-0.0101600737
 20
11.4516008331
 11
-0.0108792533
 21
11.161140826
  0
LINE
  5
6B1
100
AcDbEntity
  8
RACCORDO
100
AcDbLine
 62
7
  6
CONTINUOUS
 10
0.2891840466
 20
26.2540349487
 11
0.2900026307
 21
26.5989742762
  0
LINE
  5
6B2
100
AcDbEntity
  8
RACCORDO
100
AcDbLine
 62
7
  6
CONTINUOUS
 10
0.289541329
 20
16.429859751
 11
0.2899031705
 21
16.5657575658
  0
LINE
  5
6B3
100
AcDbEntity
  8
RACCORDO
100
AcDbLine
 62
7
  6
CONTINUOUS
 10
0.289541329
 20
11.429859751
 11
0.2899031705
 21
11.5657575658
  0
LINE
  5
6B4
100
AcDbEntity
  8
ASSI
100
AcDbLine
 62
7
  6
CONTINUOUS
 10
0.2896488823
 20
16.473273985
 11
0.2900413029
 21
16.611517678
  0
LINE
  5
6B5
100
AcDbEntity
  8
ASSI
100
AcDbLine
 62
7
  6
CONTINUOUS
 10
0.2896488823
 20
11.473273985
 11
0.2900413029
 21
11.611517678
  0
LINE
  5
6B6
100
AcDbEntity
  8
ASSI
100
AcDbLine
 62
253
  6
CONTINUOUS
 10
-0.2621045837
 20
49.1997601974
 11
-0.2623114718
 21
48.555471719
  0
LINE
  5
6B7
100
AcDbEntity
  8
RACCORDO
100
AcDbLine
 62
7
  6
CONTINUOUS
 10
0.289541329
 20
21.429859751
 11
0.2903212495
 21
21.6967201564
  0
LINE
  5
6B8
100
AcDbEntity
  8
ASSI
100
AcDbLine
 62
7
  6
CONTINUOUS
 10
0.2896488823
 20
21.473273985
 11
0.2904920332
 21
21.7444345354
  0
LINE
  5
6B9
100
AcDbEntity
  8
RACCORDO
100
AcDbLine
 62
7
  6
CONTINUOUS
 10
0.2899031705
 20
16.5657575658
 11
0.2904343872
 21
16.7286543985
  0
LINE
  5
6BA
100
AcDbEntity
  8
RACCORDO
100
AcDbLine
 62
7
  6
CONTINUOUS
 10
0.2899031705
 20
11.5657575658
 11
0.2904343872
 21
11.7286543985
  0
LINE
  5
6BB
100
AcDbEntity
  8
ASSI
100
AcDbLine
 62
253
  6
CONTINUOUS
 10
-0.2620316021
 20
1.1376134612
 11
-0.2623537012
 21
0.5511130542
  0
LINE
  5
6BC
100
AcDbEntity
  8
ASSI
100
AcDbLine
 62
7
  6
CONTINUOUS
 10
0.2897412444
 20
26.5083160818
 11
0.2911380709
 21
26.9027862299
  0
LINE
  5
6BD
100
AcDbEntity
  8
ASSI
100
AcDbLine
 62
7
  6
CONTINUOUS
 10
0.2900413029
 20
16.611517678
 11
0.2910017605
 21
16.8718211572
  0
LINE
  5
6BE
100
AcDbEntity
  8
ASSI
100
AcDbLine
 62
7
  6
CONTINUOUS
 10
0.2900413029
 20
11.611517678
 11
0.2910017605
 21
11.8718211572
  0
LINE
  5
6BF
100
AcDbEntity
  8
RACCORDO
100
AcDbLine
 62
253
  6
CONTINUOUS
 10
-0.009045997
 20
26.7289218036
 11
-0.0101600737
 21
26.4516008331
  0
LINE
  5
6C0
100
AcDbEntity
  8
ASSI
100
AcDbLine
 62
253
  6
CONTINUOUS
 10
-0.009045997
 20
26.7289218036
 11
-0.0101600737
 21
26.4516008331
  0
LINE
  5
6C1
100
AcDbEntity
  8
RACCORDO
100
AcDbLine
 62
253
  6
CONTINUOUS
 10
-0.009045997
 20
21.7289218036
 11
-0.0101600737
 21
21.4516008331
  0
LINE
  5
6C2
100
AcDbEntity
  8
ASSI
100
AcDbLine
 62
253
  6
CONTINUOUS
 10
-0.009045997
 20
21.7289218036
 11
-0.0101600737
 21
21.4516008331
  0
LINE
  5
6C3
100
AcDbEntity
  8
RACCORDO
100
AcDbLine
 62
253
  6
CONTINUOUS
 10
-0.009045997
 20
16.7289218036
 11
-0.0101600737
 21
16.4516008331
  0
LINE
  5
6C4
100
AcDbEntity
  8
ASSI
100
AcDbLine
 62
253
  6
CONTINUOUS
 10
-0.009045997
 20
16.7289218036
 11
-0.0101600737
 21
16.4516008331
  0
LINE
  5
6C5
100
AcDbEntity
  8
RACCORDO
100
AcDbLine
 62
253
  6
CONTINUOUS
 10
-0.009045997
 20
11.7289218036
 11
-0.0101600737
 21
11.4516008331
  0
LINE
  5
6C6
100
AcDbEntity
  8
ASSI
100
AcDbLine
 62
253
  6
CONTINUOUS
 10
-0.009045997
 20
11.7289218036
 11
-0.0101600737
 21
11.4516008331
  0
LINE
  5
6C7
100
AcDbEntity
  8
RACCORDO
100
AcDbLine
 62
7
  6
CONTINUOUS
 10
0.2903212495
 20
21.6967201564
 11
0.2913223057
 21
21.9429459087
  0
LINE
  5
6C8
100
AcDbEntity
  8
RACCORDO
100
AcDbLine
 62
7
  6
CONTINUOUS
 10
0.2900026307
 20
26.5989742762
 11
0.2916043493
 21
27.0011445622
  0
LINE
  5
6C9
100
AcDbEntity
  8
ASSI
100
AcDbLine
 62
7
  6
CONTINUOUS
 10
0.2904920332
 20
21.7444345354
 11
0.2915664956
 21
21.9935426868
  0
LINE
  5
6CA
100
AcDbEntity
  8
RACCORDO
100
AcDbLine
 62
7
  6
CONTINUOUS
 10
0.2904343872
 20
16.7286543985
 11
0.2914619247
 21
16.9722161646
  0
LINE
  5
6CB
100
AcDbEntity
  8
RACCORDO
100
AcDbLine
 62
7
  6
CONTINUOUS
 10
0.2904343872
 20
11.7286543985
 11
0.2914619247
 21
11.9722161646
  0
LINE
  5
6CC
100
AcDbEntity
  8
ASSI
100
AcDbLine
 62
7
  6
CONTINUOUS
 10
0.2910017605
 20
11.8718211572
 11
0.2918666845
 21
12.0522469224
  0
LINE
  5
6CD
100
AcDbEntity
  8
RACCORDO
100
AcDbLine
 62
7
  6
CONTINUOUS
 10
0.2914619247
 20
11.9722161646
 11
0.2918969557
 21
12.0579781647
  0
LINE
  5
6CE
100
AcDbEntity
  8
ASSI
100
AcDbLine
 62
7
  6
CONTINUOUS
 10
0.2910017605
 20
16.8718211572
 11
0.2921770195
 21
17.1094955703
  0
LINE
  5
6CF
100
AcDbEntity
  8
ASSI
100
AcDbLine
 62
253
  6
CONTINUOUS
 10
-0.261917317
 20
1.1601537591
 11
-0.2620316021
 21
1.1376134612
  0
LINE
  5
6D0
100
AcDbEntity
  8
ASSI
100
AcDbLine
 62
7
  6
CONTINUOUS
 10
0.2911380709
 20
26.9027862299
 11
0.2923360355
 21
27.1375726319
  0
LINE
  5
6D1
100
AcDbEntity
  8
ASSI
100
AcDbLine
 62
253
  6
CONTINUOUS
 10
-0.0623291798
 20
49.0423202047
 11
-0.0623779625
 21
49.0307988194
  0
LINE
  5
6D2
100
AcDbEntity
  8
ASSI
100
AcDbLine
 62
253
  6
CONTINUOUS
 10
-0.0623301196
 20
0.9609762663
 11
-0.06237888
 21
0.9490150533
  0
LINE
  5
6D3
100
AcDbEntity
  8
CURVE
100
AcDbLine
 62
253
  6
CONTINUOUS
 10
0.4073978216
 20
39.4665551242
 11
0.4068576274
 21
39.3736980256
  0
LINE
  5
6D4
100
AcDbEntity
  8
RACCORDO
100
AcDbLine
 62
7
  6
CONTINUOUS
 10
0.2913223057
 20
21.9429459087
 11
0.2926705544
 21
22.1940280844
  0
LINE
  5
6D5
100
AcDbEntity
  8
RACCORDO
100
AcDbLine
 62
253
  6
CONTINUOUS
 10
-0.0075657567
 20
26.9878298786
 11
-0.009045997
 21
26.7289218036
  0
LINE
  5
6D6
100
AcDbEntity
  8
ASSI
100
AcDbLine
 62
253
  6
CONTINUOUS
 10
-0.0075657567
 20
26.9878298786
 11
-0.009045997
 21
26.7289218036
  0
LINE
  5
6D7
100
AcDbEntity
  8
RACCORDO
100
AcDbLine
 62
253
  6
CONTINUOUS
 10
-0.0075657567
 20
21.9878298786
 11
-0.009045997
 21
21.7289218036
  0
LINE
  5
6D8
100
AcDbEntity
  8
ASSI
100
AcDbLine
 62
253
  6
CONTINUOUS
 10
-0.0075657567
 20
21.9878298786
 11
-0.009045997
 21
21.7289218036
  0
LINE
  5
6D9
100
AcDbEntity
  8
RACCORDO
100
AcDbLine
 62
253
  6
CONTINUOUS
 10
-0.0075657567
 20
16.9878298786
 11
-0.009045997
 21
16.7289218036
  0
LINE
  5
6DA
100
AcDbEntity
  8
ASSI
100
AcDbLine
 62
253
  6
CONTINUOUS
 10
-0.0075657567
 20
16.9878298786
 11
-0.009045997
 21
16.7289218036
  0
LINE
  5
6DB
100
AcDbEntity
  8
RACCORDO
100
AcDbLine
 62
253
  6
CONTINUOUS
 10
-0.0075657567
 20
11.9878298786
 11
-0.009045997
 21
11.7289218036
  0
LINE
  5
6DC
100
AcDbEntity
  8
ASSI
100
AcDbLine
 62
253
  6
CONTINUOUS
 10
-0.0075657567
 20
11.9878298786
 11
-0.009045997
 21
11.7289218036
  0
LINE
  5
6DD
100
AcDbEntity
  8
ASSI
100
AcDbLine
 62
7
  6
CONTINUOUS
 10
0.2915664956
 20
21.9935426868
 11
0.2928289998
 21
22.2196051006
  0
LINE
  5
6DE
100
AcDbEntity
  8
RACCORDO
100
AcDbLine
 62
7
  6
CONTINUOUS
 10
0.2914619247
 20
16.9722161646
 11
0.2928327425
 21
17.2202006546
  0
LINE
  5
6DF
100
AcDbEntity
  8
RACCORDO
100
AcDbLine
 62
7
  6
CONTINUOUS
 10
0.2916043493
 20
27.0011445622
 11
0.2929974246
 21
27.2460252225
  0
LINE
  5
6E0
100
AcDbEntity
  8
ASSI
100
AcDbLine
 62
7
  6
CONTINUOUS
 10
0.2921770195
 20
17.1094955703
 11
0.2935231799
 21
17.3238415139
  0
LINE
  5
6E1
100
AcDbEntity
  8
ASSI
100
AcDbLine
 62
7
  6
CONTINUOUS
 10
0.2923360355
 20
27.1375726319
 11
0.2937029851
 21
27.3489822941
  0
LINE
  5
6E2
100
AcDbEntity
  8
RACCORDO
100
AcDbLine
 62
7
  6
CONTINUOUS
 10
0.2926705544
 20
22.1940280844
 11
0.294035342
 21
22.3936943845
  0
LINE
  5
6E3
100
AcDbEntity
  8
RACCORDO
100
AcDbLine
 62
7
  6
CONTINUOUS
 10
0.2928327425
 20
17.2202006546
 11
0.2942158427
 21
17.4170921548
  0
LINE
  5
6E4
100
AcDbEntity
  8
ASSI
100
AcDbLine
 62
7
  6
CONTINUOUS
 10
0.2928289998
 20
22.2196051006
 11
0.2942558273
 21
22.422196069
  0
LINE
  5
6E5
100
AcDbEntity
  8
ASSI
100
AcDbLine
 62
253
  6
CONTINUOUS
 10
-0.2618083731
 20
49.2565919326
 11
-0.2621045837
 21
49.1997601974
  0
LINE
  5
6E6
100
AcDbEntity
  8
RACCORDO
100
AcDbLine
 62
7
  6
CONTINUOUS
 10
0.2929974246
 20
27.2460252225
 11
0.2943981822
 21
27.4401434582
  0
LINE
  5
6E7
100
AcDbEntity
  8
RACCORDO
100
AcDbLine
 62
253
  6
CONTINUOUS
 10
-0.0057403719
 20
27.2234668396
 11
-0.0075657567
 21
26.9878298786
  0
LINE
  5
6E8
100
AcDbEntity
  8
ASSI
100
AcDbLine
 62
253
  6
CONTINUOUS
 10
-0.0057403719
 20
27.2234668396
 11
-0.0075657567
 21
26.9878298786
  0
LINE
  5
6E9
100
AcDbEntity
  8
RACCORDO
100
AcDbLine
 62
253
  6
CONTINUOUS
 10
-0.0057403719
 20
22.2234668396
 11
-0.0075657567
 21
21.9878298786
  0
LINE
  5
6EA
100
AcDbEntity
  8
ASSI
100
AcDbLine
 62
253
  6
CONTINUOUS
 10
-0.0057403719
 20
22.2234668396
 11
-0.0075657567
 21
21.9878298786
  0
LINE
  5
6EB
100
AcDbEntity
  8
RACCORDO
100
AcDbLine
 62
253
  6
CONTINUOUS
 10
-0.0057403719
 20
17.2234668396
 11
-0.0075657567
 21
16.9878298786
  0
LINE
  5
6EC
100
AcDbEntity
  8
ASSI
100
AcDbLine
 62
253
  6
CONTINUOUS
 10
-0.0057403719
 20
17.2234668396
 11
-0.0075657567
 21
16.9878298786
  0
LINE
  5
6ED
100
AcDbEntity
  8
RACCORDO
100
AcDbLine
 62
253
  6
CONTINUOUS
 10
-0.0057403719
 20
12.2234668396
 11
-0.0075657567
 21
11.9878298786
  0
LINE
  5
6EE
100
AcDbEntity
  8
ASSI
100
AcDbLine
 62
253
  6
CONTINUOUS
 10
-0.0057403719
 20
12.2234668396
 11
-0.0075657567
 21
11.9878298786
  0
LWPOLYLINE
  5
6EF
100
AcDbEntity
  8
ASSI
100
AcDbPolyline
 62
7
  6
CONTINUOUS
 90
3
 70
0
 10
0.2935231799
 20
17.3238415139
 10
0.2950192306
 20
17.5146635846
 10
0.295214255
 20
17.5368593583
  0
LINE
  5
6F0
100
AcDbEntity
  8
ASSI
100
AcDbLine
 62
7
  6
CONTINUOUS
 10
0.2937029851
 20
27.3489822941
 11
0.295214255
 21
27.5368593583
  0
LINE
  5
6F1
100
AcDbEntity
  8
RACCORDO
100
AcDbLine
 62
7
  6
CONTINUOUS
 10
0.2942158427
 20
17.4170921548
 11
0.2953338473
 21
17.5501931873
  0
LINE
  5
6F2
100
AcDbEntity
  8
RACCORDO
100
AcDbLine
 62
7
  6
CONTINUOUS
 10
0.294035342
 20
22.3936943845
 11
0.2955258225
 21
22.5711651408
  0
LINE
  5
6F3
100
AcDbEntity
  8
RACCORDO
100
AcDbLine
 62
7
  6
CONTINUOUS
 10
0.2943981822
 20
27.4401434582
 11
0.2959148086
 21
27.6120748112
  0
LINE
  5
6F4
100
AcDbEntity
  8
ASSI
100
AcDbLine
 62
7
  6
CONTINUOUS
 10
0.2942558273
 20
22.422196069
 11
0.2958099348
 21
22.601249535
  0
LINE
  5
6F5
100
AcDbEntity
  8
ASSI
100
AcDbLine
 62
253
  6
CONTINUOUS
 10
-0.0622444412
 20
0.9707825531
 11
-0.0623301196
 21
0.9609762663
  0
LINE
  5
6F6
100
AcDbEntity
  8
ASSI
100
AcDbLine
 62
7
  6
CONTINUOUS
 10
0.295214255
 20
27.5368593583
 11
0.2968378408
 21
27.7012793472
  0
LINE
  5
6F7
100
AcDbEntity
  8
ASSI
100
AcDbLine
 62
253
  6
CONTINUOUS
 10
-0.0622340012
 20
49.0528919065
 11
-0.0623291798
 21
49.0423202047
  0
LINE
  5
6F8
100
AcDbEntity
  8
ASSI
100
AcDbLine
 62
253
  6
CONTINUOUS
 10
-0.2617167236
 20
49.2655685671
 11
-0.2618083731
 21
49.2565919326
  0
LINE
  5
6F9
100
AcDbEntity
  8
RACCORDO
100
AcDbLine
 62
7
  6
CONTINUOUS
 10
0.2955258225
 20
22.5711651408
 11
0.297120701
 21
22.7265911503
  0
LINE
  5
6FA
100
AcDbEntity
  8
ASSI
100
AcDbLine
 62
7
  6
CONTINUOUS
 10
0.2958099348
 20
22.601249535
 11
0.297473551
 21
22.756955951
  0
LINE
  5
6FB
100
AcDbEntity
  8
RACCORDO
100
AcDbLine
 62
7
  6
CONTINUOUS
 10
0.2959148086
 20
27.6120748112
 11
0.2975341722
 21
27.7620433363
  0
LINE
  5
6FC
100
AcDbEntity
  8
ASSI
100
AcDbLine
 62
7
  6
CONTINUOUS
 10
0.2968378408
 20
27.7012793472
 11
0.298556038
 21
27.8425527177
  0
LINE
  5
6FD
100
AcDbEntity
  8
RACCORDO
100
AcDbLine
 62
7
  6
CONTINUOUS
 10
0.297120701
 20
22.7265911503
 11
0.2987984812
 21
22.8602656215
  0
LINE
  5
6FE
100
AcDbEntity
  8
RACCORDO
100
AcDbLine
 62
7
  6
CONTINUOUS
 10
0.2975341722
 20
27.7620433363
 11
0.2992262919
 21
27.8902523245
  0
LINE
  5
6FF
100
AcDbEntity
  8
ASSI
100
AcDbLine
 62
7
  6
CONTINUOUS
 10
0.297473551
 20
22.756955951
 11
0.2992157876
 21
22.8895352324
  0
LINE
  5
700
100
AcDbEntity
  8
CURVE
100
AcDbLine
 62
253
  6
CONTINUOUS
 10
0.4068576274
 20
39.3736980256
 11
0.4041566606
 21
39.1879836735
  0
LINE
  5
701
100
AcDbEntity
  8
CURVE
100
AcDbLine
 62
253
  6
CONTINUOUS
 10
0.3911920159
 20
37.0522694763
 11
0.4009154996
 21
37.7022694763
  0
LINE
  5
702
100
AcDbEntity
  8
ASSI
100
AcDbLine
 62
253
  6
CONTINUOUS
 10
-0.0621590402
 20
0.977166803
 11
-0.0622444412
 21
0.9707825531
  0
LINE
  5
703
100
AcDbEntity
  8
CURVE
100
AcDbLine
 62
7
  6
CONTINUOUS
 10
0.4437838424
 20
31.5404945546
 11
0.4430964097
 21
31.4919089776
  0
LINE
  5
704
100
AcDbEntity
  8
ASSI
100
AcDbLine
 62
253
  6
CONTINUOUS
 10
-0.0621350099
 20
49.0598314865
 11
-0.0622340012
 21
49.0528919065
  0
LINE
  5
705
100
AcDbEntity
  8
ASSI
100
AcDbLine
 62
7
  6
CONTINUOUS
 10
0.298556038
 20
27.8425527177
 11
0.300106144
 21
27.9469888978
  0
LINE
  5
706
100
AcDbEntity
  8
RACCORDO
100
AcDbLine
 62
7
  6
CONTINUOUS
 10
0.2987984812
 20
22.8602656215
 11
0.3003079978
 21
22.9591050767
  0
LINE
  5
707
100
AcDbEntity
  8
CURVE
100
AcDbLine
 62
253
  6
CONTINUOUS
 10
0.4073978216
 20
41.3236979481
 11
0.4041566606
 21
41.1379836735
  0
LINE
  5
708
100
AcDbEntity
  8
CURVE
100
AcDbLine
 62
253
  6
CONTINUOUS
 10
0.3960537574
 20
39.280840772
 11
0.3928125964
 21
39.0951265749
  0
LINE
  5
709
100
AcDbEntity
  8
CURVE
100
AcDbLine
 62
253
  6
CONTINUOUS
 10
0.4073978216
 20
37.1451265749
 11
0.4057772404
 21
37.0522694763
  0
LINE
  5
70A
100
AcDbEntity
  8
CURVE
100
AcDbLine
 62
253
  6
CONTINUOUS
 10
0.4073978216
 20
35.1951262649
 11
0.4041566606
 21
35.0094120678
  0
LINE
  5
70B
100
AcDbEntity
  8
RACCORDO
100
AcDbLine
 62
7
  6
CONTINUOUS
 10
0.2992262919
 20
27.8902523245
 11
0.3007441188
 21
27.9841883522
  0
LINE
  5
70C
100
AcDbEntity
  8
ASSI
100
AcDbLine
 62
7
  6
CONTINUOUS
 10
0.2992157876
 20
22.8895352324
 11
0.3007796154
 21
22.9861655073
  0
LINE
  5
70D
100
AcDbEntity
  8
ASSI
100
AcDbLine
 62
253
  6
CONTINUOUS
 10
-0.0621120052
 20
0.9799239271
 11
-0.0621590402
 21
0.977166803
  0
LINE
  5
70E
100
AcDbEntity
  8
CURVE
100
AcDbLine
 62
7
  6
CONTINUOUS
 10
0.4469687165
 20
30.9611649493
 11
0.4477176926
 21
31.0077176679
  0
LINE
  5
70F
100
AcDbEntity
  8
ASSI
100
AcDbLine
 62
7
  6
CONTINUOUS
 10
0.300106144
 20
27.9469888978
 11
0.3016792794
 21
28.0331862396
  0
LINE
  5
710
100
AcDbEntity
  8
CURVE
100
AcDbLine
 62
7
  6
CONTINUOUS
 10
0.4655245256
 20
31.3676995387
 11
0.4649508084
 21
31.3362181281
  0
LINE
  5
711
100
AcDbEntity
  8
ASSI
100
AcDbLine
 62
253
  6
CONTINUOUS
 10
-0.062057759
 20
49.0638449784
 11
-0.0621350099
 21
49.0598314865
  0
LINE
  5
712
100
AcDbEntity
  8
RACCORDO
100
AcDbLine
 62
7
  6
CONTINUOUS
 10
0.3003079978
 20
22.9591050767
 11
0.301835238
 21
23.0407546891
  0
LINE
  5
713
100
AcDbEntity
  8
CURVE
100
AcDbLine
 62
7
  6
CONTINUOUS
 10
0.4430964097
 20
31.4919089776
 11
0.4423683712
 21
31.4528396388
  0
LINE
  5
714
100
AcDbEntity
  8
RACCORDO
100
AcDbLine
 62
7
  6
CONTINUOUS
 10
0.3007441188
 20
27.9841883522
 11
0.3021419527
 21
28.0551217257
  0
LINE
  5
715
100
AcDbEntity
  8
RACCORDO
100
AcDbLine
 62
7
  6
CONTINUOUS
 10
0.301835238
 20
23.0407546891
 11
0.3021419527
 21
23.0551217257
  0
LINE
  5
716
100
AcDbEntity
  8
CURVE
100
AcDbLine
 62
7
  6
CONTINUOUS
 10
0.4702795039
 20
30.8458687675
 11
0.4714046595
 21
30.9009396154
  0
LINE
  5
717
100
AcDbEntity
  8
ASSI
100
AcDbLine
 62
7
  6
CONTINUOUS
 10
0.3016792794
 20
28.0331862396
 11
0.3021413339
 21
28.0551209627
  0
LINE
  5
718
100
AcDbEntity
  8
ASSI
100
AcDbLine
 62
7
  6
CONTINUOUS
 10
0.3007796154
 20
22.9861655073
 11
0.3021413339
 21
23.0551209627
  0
LINE
  5
719
100
AcDbEntity
  8
CURVE
100
AcDbLine
 62
7
  6
CONTINUOUS
 10
0.4461071468
 20
30.9198869316
 11
0.4469687165
 21
30.9611649493
  0
LINE
  5
71A
100
AcDbEntity
  8
CURVE
100
AcDbLine
 62
7
  6
CONTINUOUS
 10
0.4649508084
 20
31.3362181281
 11
0.4644736094
 21
31.3155833439
  0
LINE
  5
71B
100
AcDbEntity
  8
CURVE
100
AcDbLine
 62
7
  6
CONTINUOUS
 10
0.4423683712
 20
31.4528396388
 11
0.4417269379
 21
31.4257255354
  0
LINE
  5
71C
100
AcDbEntity
  8
CURVE
100
AcDbLine
 62
253
  6
CONTINUOUS
 10
0.3944331769
 20
41.5094122421
 11
0.3910066053
 21
41.3785202078
  0
LINE
  5
71D
100
AcDbEntity
  8
CURVE
100
AcDbLine
 62
7
  6
CONTINUOUS
 10
0.469055968
 20
30.7982735882
 11
0.4702795039
 21
30.8458687675
  0
LINE
  5
71E
100
AcDbEntity
  8
CURVE
100
AcDbLine
 62
7
  6
CONTINUOUS
 10
0.4451669848
 20
30.8837816244
 11
0.4461071468
 21
30.9198869316
  0
LINE
  5
71F
100
AcDbEntity
  8
ASSI
100
AcDbLine
 62
7
  6
CONTINUOUS
 10
-1.3615266406
 20
1.2298022029
 11
-1.3483591837
 21
1.6653339427
  0
LINE
  5
720
100
AcDbEntity
  8
ASSI
100
AcDbLine
 62
7
  6
CONTINUOUS
 10
0.4516408163
 20
43.7879836735
 11
0.4341857514
 21
43.2106334043
  0
LINE
  5
721
100
AcDbEntity
  8
CURVE
100
AcDbLine
 62
7
  6
CONTINUOUS
 10
0.4644736094
 20
31.3155833439
 11
0.4639628671
 21
31.2976105393
  0
LINE
  5
722
100
AcDbEntity
  8
CURVE
100
AcDbLine
 62
7
  6
CONTINUOUS
 10
0.4417269379
 20
31.4257255354
 11
0.4412167718
 21
31.4081075895
  0
LINE
  5
723
100
AcDbEntity
  8
CURVE
100
AcDbLine
 62
7
  6
CONTINUOUS
 10
0.4443811177
 20
30.8585531927
 11
0.4451669848
 21
30.8837816244
  0
LINE
  5
724
100
AcDbEntity
  8
CURVE
100
AcDbLine
 62
7
  6
CONTINUOUS
 10
0.4681908794
 20
30.7709872636
 11
0.469055968
 21
30.7982735882
  0
LINE
  5
725
100
AcDbEntity
  8
CURVE
100
AcDbLine
 62
7
  6
CONTINUOUS
 10
0.4412167718
 20
31.4081075895
 11
0.4408647107
 21
31.3977642003
  0
LINE
  5
726
100
AcDbEntity
  8
CURVE
100
AcDbLine
 62
7
  6
CONTINUOUS
 10
0.4639628671
 20
31.2976105393
 11
0.4636068094
 21
31.2871552773
  0
LINE
  5
727
100
AcDbEntity
  8
CURVE
100
AcDbLine
 62
7
  6
CONTINUOUS
 10
0.4434553342
 20
30.8332428069
 11
0.4443811177
 21
30.8585531927
  0
LWPOLYLINE
  5
728
100
AcDbEntity
  8
RACCORDO
100
AcDbPolyline
 62
253
  6
CONTINUOUS
 90
9
 70
0
 10
0.0056916604
 20
27.8901465336
 10
0.0042387828
 20
27.8533268547
 10
0.002810352
 20
27.8064158509
 10
0.001426572
 20
27.7496844088
 10
0.0000883381
 20
27.6834635841
 10
-0.0012052451
 20
27.6081124598
 10
-0.0024366595
 20
27.5239906879
 10
-0.0036050163
 20
27.4315352629
 10
-0.0057403719
 20
27.2234668396
  0
LWPOLYLINE
  5
729
100
AcDbEntity
  8
ASSI
100
AcDbPolyline
 62
253
  6
CONTINUOUS
 90
9
 70
0
 10
0.0056916604
 20
27.8901465336
 10
0.0042387828
 20
27.8533268547
 10
0.002810352
 20
27.8064158509
 10
0.001426572
 20
27.7496844088
 10
0.0000883381
 20
27.6834635841
 10
-0.0012052451
 20
27.6081124598
 10
-0.0024366595
 20
27.5239906879
 10
-0.0036050163
 20
27.4315352629
 10
-0.0057403719
 20
27.2234668396
  0
LWPOLYLINE
  5
72A
100
AcDbEntity
  8
RACCORDO
100
AcDbPolyline
 62
253
  6
CONTINUOUS
 90
9
 70
0
 10
0.0056916604
 20
22.8901465336
 10
0.0042387828
 20
22.8533268547
 10
0.002810352
 20
22.8064158509
 10
0.001426572
 20
22.7496844088
 10
0.0000883381
 20
22.6834635841
 10
-0.0012052451
 20
22.6081124598
 10
-0.0024366595
 20
22.5239906879
 10
-0.0036050163
 20
22.4315352629
 10
-0.0057403719
 20
22.2234668396
  0
LWPOLYLINE
  5
72B
100
AcDbEntity
  8
ASSI
100
AcDbPolyline
 62
253
  6
CONTINUOUS
 90
9
 70
0
 10
0.0056916604
 20
22.8901465336
 10
0.0042387828
 20
22.8533268547
 10
0.002810352
 20
22.8064158509
 10
0.001426572
 20
22.7496844088
 10
0.0000883381
 20
22.6834635841
 10
-0.0012052451
 20
22.6081124598
 10
-0.0024366595
 20
22.5239906879
 10
-0.0036050163
 20
22.4315352629
 10
-0.0057403719
 20
22.2234668396
  0
LWPOLYLINE
  5
72C
100
AcDbEntity
  8
RACCORDO
100
AcDbPolyline
 62
253
  6
CONTINUOUS
 90
9
 70
0
 10
0.0056916604
 20
17.8901465336
 10
0.0042387828
 20
17.8533268547
 10
0.002810352
 20
17.8064158509
 10
0.001426572
 20
17.7496844088
 10
0.0000883381
 20
17.6834635841
 10
-0.0012052451
 20
17.6081124598
 10
-0.0024366595
 20
17.5239906879
 10
-0.0036050163
 20
17.4315352629
 10
-0.0057403719
 20
17.2234668396
  0
LWPOLYLINE
  5
72D
100
AcDbEntity
  8
ASSI
100
AcDbPolyline
 62
253
  6
CONTINUOUS
 90
9
 70
0
 10
0.0056916604
 20
17.8901465336
 10
0.0042387828
 20
17.8533268547
 10
0.002810352
 20
17.8064158509
 10
0.001426572
 20
17.7496844088
 10
0.0000883381
 20
17.6834635841
 10
-0.0012052451
 20
17.6081124598
 10
-0.0024366595
 20
17.5239906879
 10
-0.0036050163
 20
17.4315352629
 10
-0.0057403719
 20
17.2234668396
  0
LINE
  5
72E
100
AcDbEntity
  8
CURVE
100
AcDbLine
 62
7
  6
CONTINUOUS
 10
0.4408647107
 20
31.3977642003
 11
0.4405042731
 21
31.3886094117
  0
LINE
  5
72F
100
AcDbEntity
  8
CURVE
100
AcDbLine
 62
7
  6
CONTINUOUS
 10
0.4636068094
 20
31.2871552773
 11
0.4632404522
 21
31.2779547126
  0
LINE
  5
730
100
AcDbEntity
  8
CURVE
100
AcDbLine
 62
7
  6
CONTINUOUS
 10
0.4428308606
 20
30.8183721096
 11
0.4434553342
 21
30.8332428069
  0
LINE
  5
731
100
AcDbEntity
  8
CURVE
100
AcDbLine
 62
7
  6
CONTINUOUS
 10
0.4249781984
 20
36.8280886735
 11
0.4580178835
 21
37.5381456735
  0
LINE
  5
732
100
AcDbEntity
  8
CURVE
100
AcDbLine
 62
7
  6
CONTINUOUS
 10
0.4755764136
 20
37.3812176735
 11
0.4474841335
 21
36.7823386735
  0
LINE
  5
733
100
AcDbEntity
  8
CURVE
100
AcDbLine
 62
7
  6
CONTINUOUS
 10
0.4405042731
 20
31.3886094117
 11
0.4396375354
 21
31.3701333364
  0
LINE
  5
734
100
AcDbEntity
  8
CURVE
100
AcDbLine
 62
7
  6
CONTINUOUS
 10
0.4422012494
 20
30.8048448411
 11
0.4428308606
 21
30.8183721096
  0
LWPOLYLINE
  5
735
100
AcDbEntity
  8
CURVE
100
AcDbPolyline
 62
7
  6
CONTINUOUS
 90
12
 70
0
 10
0.4632404522
 20
31.2779547126
 10
0.4628656387
 20
31.2700374833
 10
0.462675637
 20
31.2665690688
 10
0.4624842125
 20
31.2634322274
 10
0.4622915957
 20
31.2606305388
 10
0.4620980169
 20
31.258167583
 10
0.4619037067
 20
31.2560469395
 10
0.4617088954
 20
31.2542721881
 10
0.4615138134
 20
31.2528469087
 10
0.4613186913
 20
31.251774681
 10
0.4611237593
 20
31.2510590847
 10
0.460929248
 20
31.2507036996
  0
LINE
  5
736
100
AcDbEntity
  8
CURVE
100
AcDbLine
 62
7
  6
CONTINUOUS
 10
0.4415670921
 20
30.7924390997
 11
0.4422012494
 21
30.8048448411
  0
LINE
  5
737
100
AcDbEntity
  8
CURVE
100
AcDbLine
 62
7
  6
CONTINUOUS
 10
0.4396375354
 20
31.3701333364
 11
0.4375667444
 21
31.3303087522
  0
LINE
  5
738
100
AcDbEntity
  8
CURVE
100
AcDbLine
 62
7
  6
CONTINUOUS
 10
0.4249781984
 20
40.8689966735
 11
0.4755764136
 21
41.7882436735
  0
LINE
  5
739
100
AcDbEntity
  8
CURVE
100
AcDbLine
 62
7
  6
CONTINUOUS
 10
0.4755764136
 20
33.7169736735
 11
0.4249781984
 21
32.8272876735
  0
LINE
  5
73A
100
AcDbEntity
  8
CURVE
100
AcDbLine
 62
253
  6
CONTINUOUS
 10
0.4009154996
 20
34.080841082
 11
0.3847096932
 21
33.8022694763
  0
LINE
  5
73B
100
AcDbEntity
  8
CURVE
100
AcDbLine
 62
7
  6
CONTINUOUS
 10
0.4406086257
 20
30.77544794
 11
0.4415670921
 21
30.7924390997
  0
LINE
  5
73C
100
AcDbEntity
  8
CURVE
100
AcDbLine
 62
7
  6
CONTINUOUS
 10
0.4375667444
 20
31.3303087522
 11
0.4347750174
 21
31.2823475129
  0
LINE
  5
73D
100
AcDbEntity
  8
CURVE
100
AcDbLine
 62
7
  6
CONTINUOUS
 10
0.4347750174
 20
31.2823475129
 11
0.4249781923
 21
31.1198254118
  0
LINE
  5
73E
100
AcDbEntity
  8
CURVE
100
AcDbLine
 62
7
  6
CONTINUOUS
 10
0.4755764136
 20
41.1307316735
 11
0.4407480944
 21
40.5780046735
  0
LINE
  5
73F
100
AcDbEntity
  8
CURVE
100
AcDbLine
 62
7
  6
CONTINUOUS
 10
0.4386729834
 20
30.7445424132
 11
0.4406086257
 21
30.77544794
  0
LINE
  5
740
100
AcDbEntity
  8
CURVE
100
AcDbLine
 62
7
  6
CONTINUOUS
 10
0.4249781984
 20
33.4652186735
 11
0.4350794041
 21
33.6220166735
  0
LWPOLYLINE
  5
741
100
AcDbEntity
  8
CURVE
100
AcDbPolyline
 62
7
  6
CONTINUOUS
 90
3
 70
0
 10
0.4249781923
 20
30.5376246883
 10
0.4318259546
 20
30.6410062973
 10
0.4386729834
 20
30.7445424132
  0
LINE
  5
742
100
AcDbEntity
  8
CURVE
100
AcDbLine
 62
7
  6
CONTINUOUS
 10
0.4428956698
 20
33.7429796735
 11
0.4616733091
 21
34.0211096735
  0
LINE
  5
743
100
AcDbEntity
  8
CURVE
100
AcDbLine
 62
253
  6
CONTINUOUS
 10
0.4073978216
 20
34.6379836735
 11
0.3847096932
 21
34.3594120678
  0
LWPOLYLINE
  5
744
100
AcDbEntity
  8
RACCORDO
100
AcDbPolyline
 62
253
  6
CONTINUOUS
 90
4
 70
0
 10
0.0101767708
 20
27.9379836735
 10
0.0086572871
 20
27.9326332273
 10
0.0071622503
 20
27.9166436182
 10
0.0056916604
 20
27.8901465336
  0
LWPOLYLINE
  5
745
100
AcDbEntity
  8
ASSI
100
AcDbPolyline
 62
253
  6
CONTINUOUS
 90
4
 70
0
 10
0.0101767708
 20
27.9379836735
 10
0.0086572871
 20
27.9326332273
 10
0.0071622503
 20
27.9166436182
 10
0.0056916604
 20
27.8901465336
  0
LWPOLYLINE
  5
746
100
AcDbEntity
  8
RACCORDO
100
AcDbPolyline
 62
253
  6
CONTINUOUS
 90
4
 70
0
 10
0.0101767708
 20
22.9379836735
 10
0.0086572871
 20
22.9326332273
 10
0.0071622503
 20
22.9166436182
 10
0.0056916604
 20
22.8901465336
  0
LWPOLYLINE
  5
747
100
AcDbEntity
  8
ASSI
100
AcDbPolyline
 62
253
  6
CONTINUOUS
 90
4
 70
0
 10
0.0101767708
 20
22.9379836735
 10
0.0086572871
 20
22.9326332273
 10
0.0071622503
 20
22.9166436182
 10
0.0056916604
 20
22.8901465336
  0
LWPOLYLINE
  5
748
100
AcDbEntity
  8
ASSI
100
AcDbPolyline
 62
7
  6
CONTINUOUS
 90
10
 70
0
 10
-19.1949822134
 20
1.1601524571
 10
-19.2132748959
 20
1.1408395903
 10
-19.2342165558
 20
1.1201168032
 10
-19.2571505747
 20
1.0979840959
 10
-19.2812887488
 20
1.074142706
 10
-19.3062164582
 20
1.0488913959
 10
-19.3320082183
 20
1.0231264522
 10
-19.3584796295
 20
0.9971466371
 10
-19.3850848598
 20
0.9706531885
 10
-19.4114885644
 20
0.9436461062
  0
LINE
  5
749
100
AcDbEntity
  8
ASSI
100
AcDbLine
 62
7
  6
CONTINUOUS
 10
-19.9483591837
 20
2.3879836735
 11
-19.9351917268
 21
2.4011511304
  0
LINE
  5
74A
100
AcDbEntity
  8
0
100
AcDbLine
 62
7
  6
CONTINUOUS
 10
-17.2356278616
 20
5.0007149956
 11
-17.1483591837
 21
5.0879836735
  0
LINE
  5
74B
100
AcDbEntity
  8
ASSI
100
AcDbLine
 62
253
  6
CONTINUOUS
 10
-21.2483591837
 20
0.4879532125
 11
-21.2351917268
 21
0.5011206694
  0
LINE
  5
74C
100
AcDbEntity
  8
ASSI
100
AcDbLine
 62
253
  6
CONTINUOUS
 10
-21.0483896446
 20
0.2879836735
 11
-21.0352221877
 21
0.3011511304
  0
LINE
  5
74D
100
AcDbEntity
  8
CURVE
100
AcDbLine
 62
253
  6
CONTINUOUS
 10
0.4041566606
 20
35.0094120678
 11
0.3879508545
 21
35.0094120678
  0
LINE
  5
74E
100
AcDbEntity
  8
CURVE
100
AcDbLine
 62
253
  6
CONTINUOUS
 10
0.3879508545
 20
35.6594120678
 11
0.4041566606
 21
35.6594120678
  0
LINE
  5
74F
100
AcDbEntity
  8
ASSI
100
AcDbLine
 62
7
  6
CONTINUOUS
 10
-19.9483591837
 20
47.1879836735
 11
-19.9351917268
 21
47.1748162166
  0
LINE
  5
750
100
AcDbEntity
  8
0
100
AcDbLine
 62
7
  6
CONTINUOUS
 10
-17.2356278616
 20
44.5752523514
 11
-17.1483591837
 21
44.4879836735
  0
LINE
  5
751
100
AcDbEntity
  8
ASSI
100
AcDbLine
 62
253
  6
CONTINUOUS
 10
-21.2351917268
 20
49.0748466775
 11
-21.2483591837
 21
49.0880141344
  0
LINE
  5
752
100
AcDbEntity
  8
ASSI
100
AcDbLine
 62
253
  6
CONTINUOUS
 10
-21.0352221877
 20
49.2748162166
 11
-21.0483896446
 21
49.2879836735
  0
LINE
  5
753
100
AcDbEntity
  8
CURVE
100
AcDbLine
 62
253
  6
CONTINUOUS
 10
0.3847096932
 20
33.8022694763
 11
0.4073978216
 21
33.5236978706
  0
LWPOLYLINE
  5
754
100
AcDbEntity
  8
ASSI
100
AcDbPolyline
 62
253
  6
CONTINUOUS
 90
13
 70
0
 10
-0.0615266406
 20
49.0748466775
 10
-0.0632446896
 20
49.1009428767
 10
-0.068353556
 20
49.1265927421
 10
-0.076765862
 20
49.1513575676
 10
-0.0883377282
 20
49.174813784
 10
-0.1028712359
 20
49.1965602043
 10
-0.1201178122
 20
49.2162248857
 10
-0.139782481
 20
49.2334714893
 10
-0.1615289056
 20
49.2480050321
 10
-0.1849851417
 20
49.2595769339
 10
-0.2097500019
 20
49.2679892708
 10
-0.2353999171
 20
49.2730981592
 10
-0.2614961796
 20
49.2748162166
  0
LINE
  5
755
100
AcDbEntity
  8
CURVE
100
AcDbLine
 62
253
  6
CONTINUOUS
 10
0.4440478751
 20
25.7294122344
 11
0.4667360035
 21
25.3765550389
  0
LINE
  5
756
100
AcDbEntity
  8
CURVE
100
AcDbLine
 62
7
  6
CONTINUOUS
 10
0.4616733091
 20
34.0211096735
 11
0.4428956698
 21
34.3224836735
  0
LINE
  5
757
100
AcDbEntity
  8
CURVE
100
AcDbLine
 62
7
  6
CONTINUOUS
 10
0.4407480944
 20
40.5780046735
 11
0.4755764136
 21
40.0083936735
  0
LINE
  5
758
100
AcDbEntity
  8
CURVE
100
AcDbLine
 62
253
  6
CONTINUOUS
 10
0.3847096932
 20
25.2856027212
 11
0.4073978216
 21
24.9141741719
  0
LINE
  5
759
100
AcDbEntity
  8
CURVE
100
AcDbLine
 62
7
  6
CONTINUOUS
 10
0.4350794041
 20
34.4462956735
 11
0.4249781984
 21
34.6133126735
  0
LINE
  5
75A
100
AcDbEntity
  8
CURVE
100
AcDbLine
 62
253
  6
CONTINUOUS
 10
0.3847096932
 20
34.3594120678
 11
0.4009154996
 21
34.080841082
  0
LINE
  5
75B
100
AcDbEntity
  8
CURVE
100
AcDbLine
 62
7
  6
CONTINUOUS
 10
0.4249781984
 20
35.2120166735
 11
0.4755764136
 21
34.3025006735
  0
LINE
  5
75C
100
AcDbEntity
  8
CURVE
100
AcDbLine
 62
7
  6
CONTINUOUS
 10
0.4755764136
 20
39.4035356735
 11
0.4249781984
 21
40.3356006735
  0
LWPOLYLINE
  5
75D
100
AcDbEntity
  8
ASSI
100
AcDbPolyline
 62
7
  6
CONTINUOUS
 90
16
 70
0
 10
0.4516408163
 20
46.6880598259
 10
0.4489441045
 20
46.7399364731
 10
0.440835748
 20
46.7914674923
 10
0.4273364515
 20
46.8420816295
 10
0.4084482349
 20
46.8913872853
 10
0.3843573372
 20
46.9386158453
 10
0.3556208354
 20
46.9827235545
 10
0.3229551026
 20
47.0229535013
 10
0.2865771123
 20
47.0593337582
 10
0.2463488131
 20
47.0920008238
 10
0.2022429509
 20
47.1207375614
 10
0.1550156877
 20
47.1448277879
 10
0.1057065999
 20
47.163712812
 10
0.0550827206
 20
47.177205145
 10
0.0035370141
 20
47.1853025376
 10
-0.0483591191
 20
47.1879836031
  0
LWPOLYLINE
  5
75E
100
AcDbEntity
  8
CURVE
100
AcDbPolyline
 62
7
  6
CONTINUOUS
 90
26
 70
0
 10
0.4557150513
 20
30.7428666639
 10
0.4561794509
 20
30.7328820297
 10
0.4566496392
 20
30.7238062767
 10
0.4571249359
 20
30.7156462491
 10
0.4576046605
 20
30.708408791
 10
0.4580881328
 20
30.7021007465
 10
0.4585722652
 20
30.6967494323
 10
0.4590589994
 20
30.692307038
 10
0.4595479007
 20
30.6887555925
 10
0.4600385342
 20
30.6860771249
 10
0.4605304653
 20
30.684253664
 10
0.4610232592
 20
30.683267239
 10
0.461516481
 20
30.6830998788
 10
0.4620096961
 20
30.6837336124
 10
0.4625025061
 20
30.6851574423
 10
0.4629943576
 20
30.6873873186
 10
0.4634847338
 20
30.6904460052
 10
0.4639731178
 20
30.6943562662
 10
0.4644589927
 20
30.6991408656
 10
0.4649418417
 20
30.7048225675
 10
0.4654211479
 20
30.7114241359
 10
0.4658963945
 20
30.7189683348
 10
0.4663674047
 20
30.7274796367
 10
0.4668330946
 20
30.7369475334
 10
0.467292728
 20
30.747361672
 10
0.4681908794
 20
30.7709872636
  0
LINE
  5
75F
100
AcDbEntity
  8
CURVE
100
AcDbLine
 62
7
  6
CONTINUOUS
 10
0.4474841335
 20
36.7823386735
 11
0.4755764136
 21
36.1770676735
  0
LINE
  5
760
100
AcDbEntity
  8
CURVE
100
AcDbLine
 62
7
  6
CONTINUOUS
 10
0.4578801526
 20
36.0235316735
 11
0.4249781984
 21
36.7431996735
  0
LINE
  5
761
100
AcDbEntity
  8
CURVE
100
AcDbLine
 62
7
  6
CONTINUOUS
 10
0.4578190855
 20
31.278597645
 11
0.4573918394
 21
31.2876684101
  0
LINE
  5
762
100
AcDbEntity
  8
ASSI
100
AcDbLine
 62
7
  6
CONTINUOUS
 10
0.4516408163
 20
43.7879836735
 11
0.4778267379
 21
43.2106334043
  0
LINE
  5
763
100
AcDbEntity
  8
CURVE
100
AcDbLine
 62
7
  6
CONTINUOUS
 10
0.4573918394
 20
31.2876684101
 11
0.4569761411
 21
31.2980361333
  0
LINE
  5
764
100
AcDbEntity
  8
CURVE
100
AcDbLine
 62
7
  6
CONTINUOUS
 10
0.4548063398
 20
30.7655351999
 11
0.4557150513
 21
30.7428666639
  0
LINE
  5
765
100
AcDbEntity
  8
CURVE
100
AcDbLine
 62
253
  6
CONTINUOUS
 10
0.4537713588
 20
26.4351265148
 11
0.4667360035
 21
26.0822693562
  0
LINE
  5
766
100
AcDbEntity
  8
CURVE
100
AcDbLine
 62
7
  6
CONTINUOUS
 10
0.4569761411
 20
31.2980361333
 11
0.4565744179
 21
31.3097093076
  0
LINE
  5
767
100
AcDbEntity
  8
CURVE
100
AcDbLine
 62
7
  6
CONTINUOUS
 10
0.4539292286
 20
30.7917538826
 11
0.4548063398
 21
30.7655351999
  0
LINE
  5
768
100
AcDbEntity
  8
ASSI
100
AcDbLine
 62
253
  6
CONTINUOUS
 10
-0.2619173246
 20
48.4158148898
 11
-0.2466441428
 21
47.9106334043
  0
LINE
  5
769
100
AcDbEntity
  8
ASSI
100
AcDbLine
 62
253
  6
CONTINUOUS
 10
-0.0619881917
 20
48.5904623581
 11
-0.0483591837
 21
48.1395582816
  0
LINE
  5
76A
100
AcDbEntity
  8
CURVE
100
AcDbLine
 62
7
  6
CONTINUOUS
 10
0.4530892891
 20
30.8216007789
 11
0.4539292286
 21
30.7917538826
  0
LINE
  5
76B
100
AcDbEntity
  8
CURVE
100
AcDbLine
 62
7
  6
CONTINUOUS
 10
0.4565744179
 20
31.3097093076
 11
0.456003346
 21
31.3296853686
  0
LINE
  5
76C
100
AcDbEntity
  8
ASSI
100
AcDbLine
 62
253
  6
CONTINUOUS
 10
-0.06206212
 20
48.5935323093
 11
-0.0619881917
 21
48.5904623581
  0
LINE
  5
76D
100
AcDbEntity
  8
CURVE
100
AcDbLine
 62
7
  6
CONTINUOUS
 10
0.456003346
 20
31.3296853686
 11
0.4554773719
 21
31.3526464682
  0
LINE
  5
76E
100
AcDbEntity
  8
CURVE
100
AcDbLine
 62
7
  6
CONTINUOUS
 10
0.4519219453
 20
30.8729530671
 11
0.4530892891
 21
30.8216007789
  0
LINE
  5
76F
100
AcDbEntity
  8
ASSI
100
AcDbLine
 62
253
  6
CONTINUOUS
 10
-0.0621267479
 20
48.596866816
 11
-0.06206212
 21
48.5935323093
  0
LINE
  5
770
100
AcDbEntity
  8
CURVE
100
AcDbLine
 62
253
  6
CONTINUOUS
 10
0.4472890364
 20
24.0533409425
 11
0.4440478751
 21
24.2297694298
  0
LINE
  5
771
100
AcDbEntity
  8
CURVE
100
AcDbLine
 62
253
  6
CONTINUOUS
 10
0.4041566606
 20
35.6594120678
 11
0.4073978216
 21
35.4736978706
  0
LINE
  5
772
100
AcDbEntity
  8
CURVE
100
AcDbLine
 62
253
  6
CONTINUOUS
 10
0.4041566606
 20
37.7022694763
 11
0.4073978216
 21
37.5165549692
  0
LINE
  5
773
100
AcDbEntity
  8
CURVE
100
AcDbLine
 62
253
  6
CONTINUOUS
 10
0.3992949184
 20
39.1879836735
 11
0.3960537574
 21
39.3736980256
  0
LINE
  5
774
100
AcDbEntity
  8
CURVE
100
AcDbLine
 62
253
  6
CONTINUOUS
 10
0.4041566606
 20
40.7665551242
 11
0.4073978216
 21
40.5808408495
  0
LINE
  5
775
100
AcDbEntity
  8
CURVE
100
AcDbLine
 62
253
  6
CONTINUOUS
 10
0.3976743386
 20
41.1379836735
 11
0.3944331769
 21
41.3236979481
  0
LINE
  5
776
100
AcDbEntity
  8
CURVE
100
AcDbLine
 62
7
  6
CONTINUOUS
 10
0.4554773719
 20
31.3526464682
 11
0.4548614564
 21
31.3878744402
  0
LINE
  5
777
100
AcDbEntity
  8
CURVE
100
AcDbLine
 62
7
  6
CONTINUOUS
 10
0.4502112316
 20
30.9734540952
 11
0.4519219453
 21
30.8729530671
  0
LINE
  5
778
100
AcDbEntity
  8
CURVE
100
AcDbLine
 62
7
  6
CONTINUOUS
 10
0.4492070767
 20
31.0459074877
 11
0.4502112316
 21
30.9734540952
  0
LINE
  5
779
100
AcDbEntity
  8
CURVE
100
AcDbLine
 62
7
  6
CONTINUOUS
 10
0.4548614564
 20
31.3878744402
 11
0.4542416888
 21
31.438602134
  0
LINE
  5
77A
100
AcDbEntity
  8
CURVE
100
AcDbLine
 62
7
  6
CONTINUOUS
 10
0.4489768952
 20
31.0736299987
 11
0.4492070767
 21
31.0459074877
  0
LINE
  5
77B
100
AcDbEntity
  8
CURVE
100
AcDbLine
 62
7
  6
CONTINUOUS
 10
0.4542416888
 20
31.438602134
 11
0.4536208886
 21
31.5193745924
  0
LINE
  5
77C
100
AcDbEntity
  8
CURVE
100
AcDbLine
 62
7
  6
CONTINUOUS
 10
0.4522956857
 20
13.1704397551
 11
0.4514958715
 21
13.2928181091
  0
LINE
  5
77D
100
AcDbEntity
  8
CURVE
100
AcDbLine
 62
7
  6
CONTINUOUS
 10
0.4488959838
 20
31.0934279635
 11
0.4489768952
 21
31.0736299987
  0
LINE
  5
77E
100
AcDbEntity
  8
CURVE
100
AcDbLine
 62
7
  6
CONTINUOUS
 10
0.4514958715
 20
13.2928181091
 11
0.4510637935
 21
13.4058638302
  0
LINE
  5
77F
100
AcDbEntity
  8
CURVE
100
AcDbLine
 62
7
  6
CONTINUOUS
 10
0.4536208886
 20
31.5193745924
 11
0.4532135007
 21
31.6195989789
  0
LWPOLYLINE
  5
780
100
AcDbEntity
  8
CURVE
100
AcDbPolyline
 62
7
  6
CONTINUOUS
 90
3
 70
0
 10
0.4475301922
 20
13.3881317417
 10
0.4476132244
 20
13.3553819106
 10
0.4487392438
 20
13.1296306453
  0
LINE
  5
781
100
AcDbEntity
  8
CURVE
100
AcDbLine
 62
7
  6
CONTINUOUS
 10
0.4669565042
 20
32.0667849453
 11
0.4673423234
 21
31.8868318182
  0
LINE
  5
782
100
AcDbEntity
  8
CURVE
100
AcDbLine
 62
7
  6
CONTINUOUS
 10
0.4510637935
 20
13.4058638302
 11
0.4508737325
 21
13.5496353664
  0
LINE
  5
783
100
AcDbEntity
  8
RACCORDO
100
AcDbLine
 62
7
  6
CONTINUOUS
 10
0.364731118
 20
8.1967592834
 11
0.364731118
 21
8.3379836735
  0
LINE
  5
784
100
AcDbEntity
  8
ASSI
100
AcDbLine
 62
7
  6
CONTINUOUS
 10
0.364731118
 20
8.1967592834
 11
0.364731118
 21
8.3379836735
  0
LINE
  5
785
100
AcDbEntity
  8
RACCORDO
100
AcDbLine
 62
7
  6
CONTINUOUS
 10
0.364731118
 20
13.2379836735
 11
0.364731118
 21
13.3379836735
  0
LINE
  5
786
100
AcDbEntity
  8
ASSI
100
AcDbLine
 62
7
  6
CONTINUOUS
 10
0.364731118
 20
13.2379836735
 11
0.364731118
 21
13.3379836735
  0
LINE
  5
787
100
AcDbEntity
  8
RACCORDO
100
AcDbLine
 62
7
  6
CONTINUOUS
 10
0.364731118
 20
18.2379836735
 11
0.364731118
 21
18.3379836735
  0
LINE
  5
788
100
AcDbEntity
  8
ASSI
100
AcDbLine
 62
7
  6
CONTINUOUS
 10
0.364731118
 20
18.2379836735
 11
0.364731118
 21
18.3379836735
  0
LINE
  5
789
100
AcDbEntity
  8
RACCORDO
100
AcDbLine
 62
7
  6
CONTINUOUS
 10
0.364731118
 20
23.2379836735
 11
0.364731118
 21
23.3379836735
  0
LINE
  5
78A
100
AcDbEntity
  8
ASSI
100
AcDbLine
 62
7
  6
CONTINUOUS
 10
0.364731118
 20
23.2379836735
 11
0.364731118
 21
23.3379836735
  0
LINE
  5
78B
100
AcDbEntity
  8
RACCORDO
100
AcDbLine
 62
7
  6
CONTINUOUS
 10
0.364731118
 20
28.2379836735
 11
0.364731118
 21
41.3792080636
  0
LINE
  5
78C
100
AcDbEntity
  8
ASSI
100
AcDbLine
 62
7
  6
CONTINUOUS
 10
0.364731118
 20
28.2379836735
 11
0.364731118
 21
41.3792080636
  0
LINE
  5
78D
100
AcDbEntity
  8
0
100
AcDbLine
 62
7
  6
CONTINUOUS
 10
0.3794553618
 20
7.1668954971
 11
0.3794553618
 21
42.4090718498
  0
LINE
  5
78E
100
AcDbEntity
  8
RACCORDO
100
AcDbLine
 62
7
  6
CONTINUOUS
 10
0.3794553618
 20
7.1668954971
 11
0.3794553618
 21
42.4090718498
  0
LINE
  5
78F
100
AcDbEntity
  8
CURVE
100
AcDbLine
 62
253
  6
CONTINUOUS
 10
0.3902362887
 20
12.3570310768
 11
0.3902362887
 21
12.2665552315
  0
LINE
  5
790
100
AcDbEntity
  8
CURVE
100
AcDbLine
 62
253
  6
CONTINUOUS
 10
0.3911920159
 20
25.1617932048
 11
0.3911920159
 21
24.6665551391
  0
LINE
  5
791
100
AcDbEntity
  8
CURVE
100
AcDbLine
 62
253
  6
CONTINUOUS
 10
0.3944331769
 20
41.3236979481
 11
0.3944331769
 21
41.7879836735
  0
LINE
  5
792
100
AcDbEntity
  8
CURVE
100
AcDbLine
 62
253
  6
CONTINUOUS
 10
0.3960537574
 20
39.280840772
 11
0.3960537574
 21
39.7451265749
  0
LINE
  5
793
100
AcDbEntity
  8
CURVE
100
AcDbLine
 62
253
  6
CONTINUOUS
 10
0.3976743386
 20
40.3951265749
 11
0.3976743386
 21
40.1165551242
  0
LINE
  5
794
100
AcDbEntity
  8
CURVE
100
AcDbLine
 62
253
  6
CONTINUOUS
 10
0.3976743386
 20
36.680840772
 11
0.3976743386
 21
36.030841082
  0
LINE
  5
795
100
AcDbEntity
  8
CURVE
100
AcDbLine
 62
253
  6
CONTINUOUS
 10
0.3989209386
 20
17.830840784
 11
0.3989209386
 21
17.2427455243
  0
LINE
  5
796
100
AcDbEntity
  8
CURVE
100
AcDbLine
 62
253
  6
CONTINUOUS
 10
0.3989209386
 20
13.8951263365
 11
0.3989209386
 21
13.3070310768
  0
LINE
  5
797
100
AcDbEntity
  8
CURVE
100
AcDbLine
 62
253
  6
CONTINUOUS
 10
0.403658021
 20
14.9808410105
 11
0.403658021
 21
15.2522694525
  0
LINE
  5
798
100
AcDbEntity
  8
CURVE
100
AcDbLine
 62
253
  6
CONTINUOUS
 10
0.4073978216
 20
41.7879836735
 11
0.4073978216
 21
41.3236979481
  0
LINE
  5
799
100
AcDbEntity
  8
CURVE
100
AcDbLine
 62
253
  6
CONTINUOUS
 10
0.4073978216
 20
40.5808408495
 11
0.4073978216
 21
40.1165551242
  0
LINE
  5
79A
100
AcDbEntity
  8
CURVE
100
AcDbLine
 62
253
  6
CONTINUOUS
 10
0.4073978216
 20
39.7451265749
 11
0.4073978216
 21
39.4665551242
  0
LINE
  5
79B
100
AcDbEntity
  8
CURVE
100
AcDbLine
 62
253
  6
CONTINUOUS
 10
0.4073978216
 20
37.5165549692
 11
0.4073978216
 21
37.1451265749
  0
LINE
  5
79C
100
AcDbEntity
  8
CURVE
100
AcDbLine
 62
253
  6
CONTINUOUS
 10
0.4073978216
 20
35.4736978706
 11
0.4073978216
 21
35.1951262649
  0
LINE
  5
79D
100
AcDbEntity
  8
CURVE
100
AcDbLine
 62
253
  6
CONTINUOUS
 10
0.4073978216
 20
26.3998884466
 11
0.4073978216
 21
25.6570312705
  0
LINE
  5
79E
100
AcDbEntity
  8
CURVE
100
AcDbLine
 62
253
  6
CONTINUOUS
 10
0.4178692654
 20
8.6022689995
 11
0.4178692654
 21
8.4665552315
  0
LINE
  5
79F
100
AcDbEntity
  8
CURVE
100
AcDbLine
 62
253
  6
CONTINUOUS
 10
0.4178692654
 20
9.8236983475
 11
0.4178692654
 21
10.2308405575
  0
LINE
  5
7A0
100
AcDbEntity
  8
CURVE
100
AcDbLine
 62
253
  6
CONTINUOUS
 10
0.4178692654
 20
13.4879836735
 11
0.4178692654
 21
13.8951263365
  0
LINE
  5
7A1
100
AcDbEntity
  8
CURVE
100
AcDbLine
 62
253
  6
CONTINUOUS
 10
0.4178692654
 20
14.9808410105
 11
0.4178692654
 21
15.5236978945
  0
LINE
  5
7A2
100
AcDbEntity
  8
CURVE
100
AcDbLine
 62
253
  6
CONTINUOUS
 10
0.4178692654
 20
17.4236980077
 11
0.4178692654
 21
17.830840784
  0
LINE
  5
7A3
100
AcDbEntity
  8
CURVE
100
AcDbLine
 62
7
  6
CONTINUOUS
 10
0.4247114092
 20
17.8013976735
 11
0.4247114092
 21
17.5351736735
  0
LINE
  5
7A4
100
AcDbEntity
  8
CURVE
100
AcDbLine
 62
7
  6
CONTINUOUS
 10
0.4247114092
 20
15.2892586735
 11
0.4247114092
 21
15.0876216735
  0
LINE
  5
7A5
100
AcDbEntity
  8
CURVE
100
AcDbLine
 62
7
  6
CONTINUOUS
 10
0.4247114166
 20
12.9296591588
 11
0.4247114166
 21
12.7019364465
  0
LINE
  5
7A6
100
AcDbEntity
  8
CURVE
100
AcDbLine
 62
7
  6
CONTINUOUS
 10
0.4247114092
 20
12.1772686735
 11
0.4247114092
 21
11.9756316735
  0
LINE
  5
7A7
100
AcDbEntity
  8
CURVE
100
AcDbLine
 62
7
  6
CONTINUOUS
 10
0.4247114092
 20
10.4187736735
 11
0.4247114092
 21
10.1336526735
  0
LINE
  5
7A8
100
AcDbEntity
  8
CURVE
100
AcDbLine
 62
7
  6
CONTINUOUS
 10
0.4248385306
 20
9.7085026735
 11
0.4248385306
 21
7.7879836735
  0
LINE
  5
7A9
100
AcDbEntity
  8
CURVE
100
AcDbLine
 62
7
  6
CONTINUOUS
 10
0.4249781984
 20
39.1789186735
 11
0.4249781984
 21
38.5736476735
  0
LINE
  5
7AA
100
AcDbEntity
  8
CURVE
100
AcDbLine
 62
7
  6
CONTINUOUS
 10
0.4249781923
 20
32.6495510178
 11
0.4249781923
 21
32.0467150567
  0
LINE
  5
7AB
100
AcDbEntity
  8
CURVE
100
AcDbLine
 62
7
  6
CONTINUOUS
 10
0.4249781923
 20
31.1198254118
 11
0.4249781923
 21
30.5376246883
  0
LINE
  5
7AC
100
AcDbEntity
  8
CURVE
100
AcDbLine
 62
7
  6
CONTINUOUS
 10
0.4249781984
 20
32.8272876735
 11
0.4249781984
 21
33.4652186735
  0
LINE
  5
7AD
100
AcDbEntity
  8
CURVE
100
AcDbLine
 62
7
  6
CONTINUOUS
 10
0.4249781984
 20
34.6133126735
 11
0.4249781984
 21
35.2120166735
  0
LINE
  5
7AE
100
AcDbEntity
  8
CURVE
100
AcDbLine
 62
7
  6
CONTINUOUS
 10
0.4249781984
 20
35.3070606735
 11
0.4249781984
 21
35.8991766735
  0
LINE
  5
7AF
100
AcDbEntity
  8
CURVE
100
AcDbLine
 62
7
  6
CONTINUOUS
 10
0.4249781984
 20
36.7431996735
 11
0.4249781984
 21
36.8280886735
  0
LINE
  5
7B0
100
AcDbEntity
  8
CURVE
100
AcDbLine
 62
7
  6
CONTINUOUS
 10
0.4249781984
 20
37.6687626735
 11
0.4249781984
 21
38.2478106735
  0
LINE
  5
7B1
100
AcDbEntity
  8
CURVE
100
AcDbLine
 62
7
  6
CONTINUOUS
 10
0.4249781984
 20
40.3356006735
 11
0.4249781984
 21
40.8689966735
  0
LINE
  5
7B2
100
AcDbEntity
  8
CURVE
100
AcDbLine
 62
7
  6
CONTINUOUS
 10
0.4283570456
 20
7.7879836735
 11
0.4283570456
 21
9.5068656735
  0
LINE
  5
7B3
100
AcDbEntity
  8
ASSI
100
AcDbLine
 62
7
  6
CONTINUOUS
 10
0.4341857514
 20
46.670604761
 11
0.4341857514
 21
43.2106334043
  0
LINE
  5
7B4
100
AcDbEntity
  8
ASSI
100
AcDbLine
 62
7
  6
CONTINUOUS
 10
0.4341857514
 20
6.3653339427
 11
0.4341857514
 21
2.905362586
  0
LINE
  5
7B5
100
AcDbEntity
  8
CURVE
100
AcDbLine
 62
7
  6
CONTINUOUS
 10
0.4350794041
 20
33.6220166735
 11
0.4350794041
 21
34.4462956735
  0
LINE
  5
7B6
100
AcDbEntity
  8
CURVE
100
AcDbLine
 62
7
  6
CONTINUOUS
 10
0.4428956698
 20
34.3224836735
 11
0.4428956698
 21
33.7429796735
  0
LINE
  5
7B7
100
AcDbEntity
  8
CURVE
100
AcDbLine
 62
253
  6
CONTINUOUS
 10
0.4440478751
 20
23.5534598359
 11
0.4440478751
 21
23.0241740796
  0
LINE
  5
7B8
100
AcDbEntity
  8
CURVE
100
AcDbLine
 62
253
  6
CONTINUOUS
 10
0.4440478751
 20
24.2297694298
 11
0.4440478751
 21
24.6708407953
  0
LINE
  5
7B9
100
AcDbEntity
  8
CURVE
100
AcDbLine
 62
7
  6
CONTINUOUS
 10
0.4477579899
 20
16.0101946735
 11
0.4477579899
 21
15.2892586735
  0
LINE
  5
7BA
100
AcDbEntity
  8
CURVE
100
AcDbLine
 62
7
  6
CONTINUOUS
 10
0.4477761551
 20
8.8679696735
 11
0.4477761551
 21
7.8676826735
  0
LINE
  5
7BB
100
AcDbEntity
  8
CURVE
100
AcDbLine
 62
253
  6
CONTINUOUS
 10
0.4505301978
 20
25.6117931938
 11
0.4505301978
 21
25.1413169577
  0
LINE
  5
7BC
100
AcDbEntity
  8
CURVE
100
AcDbLine
 62
7
  6
CONTINUOUS
 10
0.4508737325
 20
13.5496353664
 11
0.4508737325
 21
13.7163892187
  0
LINE
  5
7BD
100
AcDbEntity
  8
CURVE
100
AcDbLine
 62
7
  6
CONTINUOUS
 10
0.4512748645
 20
7.8676826735
 11
0.4512748645
 21
8.8679696735
  0
LINE
  5
7BE
100
AcDbEntity
  8
CURVE
100
AcDbLine
 62
7
  6
CONTINUOUS
 10
0.4512765048
 20
16.0101946735
 11
0.4512765048
 21
15.2892586735
  0
LINE
  5
7BF
100
AcDbEntity
  8
ASSI
100
AcDbLine
 62
7
  6
CONTINUOUS
 10
0.4516408163
 20
46.6879834383
 11
0.4516408163
 21
43.7879836735
  0
LINE
  5
7C0
100
AcDbEntity
  8
ASSI
100
AcDbLine
 62
7
  6
CONTINUOUS
 10
0.4516408163
 20
2.8879839086
 11
0.4516408163
 21
5.7879836735
  0
LINE
  5
7C1
100
AcDbEntity
  8
CURVE
100
AcDbLine
 62
7
  6
CONTINUOUS
 10
0.4532135007
 20
31.6195989789
 11
0.4530663063
 21
32.0667849453
  0
LINE
  5
7C2
100
AcDbEntity
  8
CURVE
100
AcDbLine
 62
253
  6
CONTINUOUS
 10
0.4570125204
 20
23.2006028613
 11
0.4570125204
 21
23.5534598359
  0
LINE
  5
7C3
100
AcDbEntity
  8
CURVE
100
AcDbLine
 62
253
  6
CONTINUOUS
 10
0.4667360035
 20
24.6708407953
 11
0.4667360035
 21
24.2297694298
  0
LINE
  5
7C4
100
AcDbEntity
  8
CURVE
100
AcDbLine
 62
253
  6
CONTINUOUS
 10
0.4667360035
 20
23.5534598359
 11
0.4667360035
 21
23.0241740796
  0
LINE
  5
7C5
100
AcDbEntity
  8
CURVE
100
AcDbLine
 62
7
  6
CONTINUOUS
 10
0.4718775206
 20
9.5068656735
 11
0.4718775206
 21
7.8126496735
  0
LINE
  5
7C6
100
AcDbEntity
  8
CURVE
100
AcDbLine
 62
7
  6
CONTINUOUS
 10
0.4753589199
 20
11.9756316735
 11
0.4753589199
 21
12.1772686735
  0
LINE
  5
7C7
100
AcDbEntity
  8
CURVE
100
AcDbLine
 62
7
  6
CONTINUOUS
 10
0.4753960355
 20
7.8126496735
 11
0.4753960355
 21
9.7085026735
  0
LINE
  5
7C8
100
AcDbEntity
  8
CURVE
100
AcDbLine
 62
7
  6
CONTINUOUS
 10
0.4754612452
 20
10.1301526735
 11
0.4754612452
 21
10.4152736735
  0
LINE
  5
7C9
100
AcDbEntity
  8
CURVE
100
AcDbLine
 62
7
  6
CONTINUOUS
 10
0.4754612452
 20
15.0876216735
 11
0.4754612452
 21
15.2945786735
  0
LINE
  5
7CA
100
AcDbEntity
  8
CURVE
100
AcDbLine
 62
7
  6
CONTINUOUS
 10
0.4755764136
 20
41.7882436735
 11
0.4755764136
 21
41.1307316735
  0
LINE
  5
7CB
100
AcDbEntity
  8
CURVE
100
AcDbLine
 62
7
  6
CONTINUOUS
 10
0.4755764136
 20
40.0083936735
 11
0.4755764136
 21
39.4035356735
  0
LINE
  5
7CC
100
AcDbEntity
  8
CURVE
100
AcDbLine
 62
7
  6
CONTINUOUS
 10
0.4755764136
 20
37.9859886735
 11
0.4755764136
 21
37.3812176735
  0
LINE
  5
7CD
100
AcDbEntity
  8
CURVE
100
AcDbLine
 62
7
  6
CONTINUOUS
 10
0.4755764136
 20
36.1770676735
 11
0.4755764136
 21
35.5782106735
  0
LINE
  5
7CE
100
AcDbEntity
  8
CURVE
100
AcDbLine
 62
7
  6
CONTINUOUS
 10
0.4755764136
 20
34.3025006735
 11
0.4755764136
 21
33.7169736735
  0
LINE
  5
7CF
100
AcDbEntity
  8
CURVE
100
AcDbLine
 62
7
  6
CONTINUOUS
 10
0.4755794498
 20
38.5736476735
 11
0.4755794498
 21
39.1789186735
  0
LINE
  5
7D0
100
AcDbEntity
  8
DRAFT
100
AcDbLine
 62
7
  6
CONTINUOUS
 10
0.4778267379
 20
43.2106334043
 11
0.4778267379
 21
42.7555854397
  0
LINE
  5
7D1
100
AcDbEntity
  8
DRAFT
100
AcDbLine
 62
7
  6
CONTINUOUS
 10
0.4778267379
 20
6.8203819073
 11
0.4778267379
 21
6.3653339427
  0
LINE
  5
7D2
100
AcDbEntity
  8
CURVE
100
AcDbLine
 62
7
  6
CONTINUOUS
 10
0.4803185223
 20
9.0902766735
 11
0.4803185223
 21
8.8051326735
  0
LINE
  5
7D3
100
AcDbEntity
  8
CURVE
100
AcDbLine
 62
7
  6
CONTINUOUS
 10
0.4925379878
 20
8.1048896735
 11
0.4925379878
 21
8.3900096735
  0
LINE
  5
7D4
100
AcDbEntity
  8
0
100
AcDbLine
 62
7
  6
CONTINUOUS
 10
0.5016408163
 20
7.1162846248
 11
0.5016408163
 21
42.4596827222
  0
LINE
  5
7D5
100
AcDbEntity
  8
RACCORDO
100
AcDbLine
 62
7
  6
CONTINUOUS
 10
0.5016408163
 20
7.1162846248
 11
0.5016408163
 21
42.4596827222
  0
LINE
  5
7D6
100
AcDbEntity
  8
CURVE
100
AcDbLine
 62
7
  6
CONTINUOUS
 10
0.4673423234
 20
31.8868318182
 11
0.4674038371
 21
31.7053921594
  0
LINE
  5
7D7
100
AcDbEntity
  8
CURVE
100
AcDbLine
 62
7
  6
CONTINUOUS
 10
0.4762023992
 20
31.707962611
 11
0.4749852571
 21
32.6495510178
  0
LINE
  5
7D8
100
AcDbEntity
  8
CURVE
100
AcDbLine
 62
7
  6
CONTINUOUS
 10
0.471672848
 20
14.6562036193
 11
0.4715650961
 21
13.3951713163
  0
LINE
  5
7D9
100
AcDbEntity
  8
CURVE
100
AcDbLine
 62
7
  6
CONTINUOUS
 10
0.4674038371
 20
31.7053921594
 11
0.4671637477
 21
31.5594267365
  0
LINE
  5
7DA
100
AcDbEntity
  8
CURVE
100
AcDbLine
 62
7
  6
CONTINUOUS
 10
0.4447795405
 20
32.0467150567
 11
0.4446418706
 21
31.6500088224
  0
LINE
  5
7DB
100
AcDbEntity
  8
CURVE
100
AcDbLine
 62
7
  6
CONTINUOUS
 10
0.4715650961
 20
13.3951713163
 11
0.4712235738
 21
13.2804540835
  0
LINE
  5
7DC
100
AcDbEntity
  8
CURVE
100
AcDbLine
 62
7
  6
CONTINUOUS
 10
0.4746096904
 20
13.2286821678
 11
0.475191365
 21
14.6562036193
  0
LINE
  5
7DD
100
AcDbEntity
  8
CURVE
100
AcDbLine
 62
7
  6
CONTINUOUS
 10
0.4748624743
 20
31.2268969133
 11
0.4762023992
 21
31.707962611
  0
LINE
  5
7DE
100
AcDbEntity
  8
RACCORDO
100
AcDbLine
 62
7
  6
CONTINUOUS
 10
0.2918969557
 20
12.0579781647
 11
0.2931645898
 21
12.2715044966
  0
LINE
  5
7DF
100
AcDbEntity
  8
ASSI
100
AcDbLine
 62
7
  6
CONTINUOUS
 10
0.2918666845
 20
12.0522469224
 11
0.2931709397
 21
12.272458281
  0
LINE
  5
7E0
100
AcDbEntity
  8
CURVE
100
AcDbLine
 62
7
  6
CONTINUOUS
 10
0.4712235738
 20
13.2804540835
 11
0.4705734219
 21
13.162133546
  0
LINE
  5
7E1
100
AcDbEntity
  8
CURVE
100
AcDbLine
 62
7
  6
CONTINUOUS
 10
0.4671637477
 20
31.5594267365
 11
0.4666956234
 21
31.4728641103
  0
LINE
  5
7E2
100
AcDbEntity
  8
RACCORDO
100
AcDbLine
 62
7
  6
CONTINUOUS
 10
0.2931645898
 20
12.2715044966
 11
0.2945822017
 21
12.4628467324
  0
LINE
  5
7E3
100
AcDbEntity
  8
ASSI
100
AcDbLine
 62
7
  6
CONTINUOUS
 10
0.2931709397
 20
12.272458281
 11
0.2946342121
 21
12.4691661355
  0
LINE
  5
7E4
100
AcDbEntity
  8
CURVE
100
AcDbLine
 62
7
  6
CONTINUOUS
 10
0.4446418706
 20
31.6500088224
 11
0.4442054495
 21
31.5807730937
  0
LINE
  5
7E5
100
AcDbEntity
  8
CURVE
100
AcDbLine
 62
7
  6
CONTINUOUS
 10
0.4731517523
 20
13.004163699
 11
0.4746096904
 21
13.2286821678
  0
LINE
  5
7E6
100
AcDbEntity
  8
CURVE
100
AcDbLine
 62
7
  6
CONTINUOUS
 10
0.473793527
 20
31.0739524955
 11
0.4748624743
 21
31.2268969133
  0
LINE
  5
7E7
100
AcDbEntity
  8
CURVE
100
AcDbLine
 62
7
  6
CONTINUOUS
 10
0.4705734219
 20
13.162133546
 11
0.4698464851
 21
13.0772246824
  0
LINE
  5
7E8
100
AcDbEntity
  8
RACCORDO
100
AcDbLine
 62
7
  6
CONTINUOUS
 10
0.2945822017
 20
12.4628467324
 11
0.2961118235
 21
12.6320151267
  0
LINE
  5
7E9
100
AcDbEntity
  8
ASSI
100
AcDbLine
 62
7
  6
CONTINUOUS
 10
0.2946342121
 20
12.4691661355
 11
0.2962159682
 21
12.6423515013
  0
LINE
  5
7EA
100
AcDbEntity
  8
ASSI
100
AcDbLine
 62
7
  6
CONTINUOUS
 10
0.295214255
 20
17.5368593583
 11
0.2968378408
 21
17.7012793472
  0
LINE
  5
7EB
100
AcDbEntity
  8
RACCORDO
100
AcDbLine
 62
7
  6
CONTINUOUS
 10
0.2953338473
 20
17.5501931873
 11
0.2969159287
 21
17.7083563467
  0
LINE
  5
7EC
100
AcDbEntity
  8
CURVE
100
AcDbLine
 62
7
  6
CONTINUOUS
 10
0.4479781405
 20
31.0278385175
 11
0.4485969925
 21
31.0934279635
  0
LINE
  5
7ED
100
AcDbEntity
  8
CURVE
100
AcDbLine
 62
7
  6
CONTINUOUS
 10
0.4442054495
 20
31.5807730937
 11
0.4437838424
 21
31.5404945546
  0
LINE
  5
7EE
100
AcDbEntity
  8
CURVE
100
AcDbLine
 62
7
  6
CONTINUOUS
 10
0.4666956234
 20
31.4728641103
 11
0.4660200796
 21
31.4032360262
  0
LINE
  5
7EF
100
AcDbEntity
  8
RACCORDO
100
AcDbLine
 62
7
  6
CONTINUOUS
 10
0.2961118235
 20
12.6320151267
 11
0.2977426699
 21
12.7792620985
  0
LINE
  5
7F0
100
AcDbEntity
  8
ASSI
100
AcDbLine
 62
7
  6
CONTINUOUS
 10
0.2962159682
 20
12.6423515013
 11
0.2979037139
 21
12.7922743705
  0
LINE
  5
7F1
100
AcDbEntity
  8
ASSI
100
AcDbLine
 62
7
  6
CONTINUOUS
 10
0.2968378408
 20
17.7012793472
 11
0.298556038
 21
17.8425527177
  0
LINE
  5
7F2
100
AcDbEntity
  8
CURVE
100
AcDbLine
 62
7
  6
CONTINUOUS
 10
0.4477176926
 20
31.0077176679
 11
0.4479781405
 21
31.0278385175
  0
LINE
  5
7F3
100
AcDbEntity
  8
RACCORDO
100
AcDbLine
 62
7
  6
CONTINUOUS
 10
0.2969159287
 20
17.7083563467
 11
0.298585722
 21
17.8447496332
  0
LINE
  5
7F4
100
AcDbEntity
  8
CURVE
100
AcDbLine
 62
7
  6
CONTINUOUS
 10
0.4717276231
 20
12.88093306
 11
0.4731517523
 21
13.004163699
  0
LINE
  5
7F5
100
AcDbEntity
  8
CURVE
100
AcDbLine
 62
7
  6
CONTINUOUS
 10
0.4698464851
 20
13.0772246824
 11
0.4688937609
 21
13.000595109
  0
LINE
  5
7F6
100
AcDbEntity
  8
CURVE
100
AcDbLine
 62
7
  6
CONTINUOUS
 10
0.4724249537
 20
30.9627621093
 11
0.473793527
 21
31.0739524955
  0
LINE
  5
7F7
100
AcDbEntity
  8
RACCORDO
100
AcDbLine
 62
7
  6
CONTINUOUS
 10
0.2977426699
 20
12.7792620985
 11
0.2994413611
 21
12.9047248398
  0
LINE
  5
7F8
100
AcDbEntity
  8
CURVE
100
AcDbLine
 62
7
  6
CONTINUOUS
 10
0.4660200796
 20
31.4032360262
 11
0.4655245256
 21
31.3676995387
  0
LINE
  5
7F9
100
AcDbEntity
  8
ASSI
100
AcDbLine
 62
7
  6
CONTINUOUS
 10
0.2979037139
 20
12.7922743705
 11
0.2996596138
 21
12.9190073662
  0
LINE
  5
7FA
100
AcDbEntity
  8
RACCORDO
100
AcDbLine
 62
7
  6
CONTINUOUS
 10
0.298585722
 20
17.8447496332
 11
0.3000905151
 21
17.9460371252
  0
LINE
  5
7FB
100
AcDbEntity
  8
ASSI
100
AcDbLine
 62
7
  6
CONTINUOUS
 10
0.298556038
 20
17.8425527177
 11
0.300106144
 21
17.9469888978
  0
LINE
  5
7FC
100
AcDbEntity
  8
CURVE
100
AcDbLine
 62
253
  6
CONTINUOUS
 10
0.403658021
 20
18.1022693392
 11
0.3989209386
 21
17.830840784
  0
LINE
  5
7FD
100
AcDbEntity
  8
CURVE
100
AcDbLine
 62
253
  6
CONTINUOUS
 10
0.413132184
 20
17.1522694525
 11
0.4178692654
 21
17.4236980077
  0
LINE
  5
7FE
100
AcDbEntity
  8
CURVE
100
AcDbLine
 62
253
  6
CONTINUOUS
 10
0.3989209386
 20
14.7094121155
 11
0.403658021
 21
14.9808410105
  0
LINE
  5
7FF
100
AcDbEntity
  8
CURVE
100
AcDbLine
 62
253
  6
CONTINUOUS
 10
0.403658021
 20
14.1665552315
 11
0.3989209386
 21
13.8951263365
  0
LINE
  5
800
100
AcDbEntity
  8
CURVE
100
AcDbLine
 62
253
  6
CONTINUOUS
 10
0.413132184
 20
13.2165552315
 11
0.4178692654
 21
13.4879836735
  0
LINE
  5
801
100
AcDbEntity
  8
CURVE
100
AcDbLine
 62
7
  6
CONTINUOUS
 10
0.4500558076
 20
11.8711936735
 11
0.4247114092
 21
10.4187736735
  0
LINE
  5
802
100
AcDbEntity
  8
CURVE
100
AcDbLine
 62
253
  6
CONTINUOUS
 10
0.413132184
 20
9.5522689995
 11
0.4178692654
 21
9.8236983475
  0
LINE
  5
803
100
AcDbEntity
  8
CURVE
100
AcDbLine
 62
7
  6
CONTINUOUS
 10
0.4247114092
 20
10.1336526735
 11
0.4500558076
 21
11.5860266735
  0
LINE
  5
804
100
AcDbEntity
  8
CURVE
100
AcDbLine
 62
253
  6
CONTINUOUS
 10
0.4178692654
 20
8.4665552315
 11
0.413132184
 21
8.1951267895
  0
LINE
  5
805
100
AcDbEntity
  8
CURVE
100
AcDbLine
 62
7
  6
CONTINUOUS
 10
0.4714046595
 20
30.9009396154
 11
0.4724249537
 21
30.9627621093
  0
LINE
  5
806
100
AcDbEntity
  8
CURVE
100
AcDbLine
 62
7
  6
CONTINUOUS
 10
0.4705878451
 20
12.811488014
 11
0.4717276231
 21
12.88093306
  0
LINE
  5
807
100
AcDbEntity
  8
RACCORDO
100
AcDbLine
 62
7
  6
CONTINUOUS
 10
0.2994413611
 20
12.9047248398
 11
0.3009625015
 21
12.9962019208
  0
LINE
  5
808
100
AcDbEntity
  8
CURVE
100
AcDbLine
 62
253
  6
CONTINUOUS
 10
0.4667360035
 20
24.2297694298
 11
0.4634948424
 21
24.0533409425
  0
LINE
  5
809
100
AcDbEntity
  8
ASSI
100
AcDbLine
 62
7
  6
CONTINUOUS
 10
0.2996596138
 20
12.9190073662
 11
0.3012296831
 21
13.0104191766
  0
LINE
  5
80A
100
AcDbEntity
  8
CURVE
100
AcDbLine
 62
7
  6
CONTINUOUS
 10
0.4688937609
 20
13.000595109
 11
0.4680309556
 21
12.9503061071
  0
LINE
  5
80B
100
AcDbEntity
  8
RACCORDO
100
AcDbLine
 62
7
  6
CONTINUOUS
 10
0.3000905151
 20
17.9460371252
 11
0.3016174748
 21
18.0301406549
  0
LINE
  5
80C
100
AcDbEntity
  8
ASSI
100
AcDbLine
 62
7
  6
CONTINUOUS
 10
0.300106144
 20
17.9469888978
 11
0.3016792794
 21
18.0331862396
  0
LINE
  5
80D
100
AcDbEntity
  8
CURVE
100
AcDbLine
 62
253
  6
CONTINUOUS
 10
0.413132184
 20
14.7546504911
 11
0.4178692654
 21
14.9808410105
  0
LINE
  5
80E
100
AcDbEntity
  8
RACCORDO
100
AcDbLine
 62
7
  6
CONTINUOUS
 10
0.3016174748
 20
18.0301406549
 11
0.3021419527
 21
18.0551217257
  0
LINE
  5
80F
100
AcDbEntity
  8
RACCORDO
100
AcDbLine
 62
7
  6
CONTINUOUS
 10
0.3009625015
 20
12.9962019208
 11
0.3021419527
 21
13.0551217257
  0
LINE
  5
810
100
AcDbEntity
  8
ASSI
100
AcDbLine
 62
7
  6
CONTINUOUS
 10
0.3016792794
 20
18.0331862396
 11
0.3021413339
 21
18.0551209627
  0
LINE
  5
811
100
AcDbEntity
  8
ASSI
100
AcDbLine
 62
7
  6
CONTINUOUS
 10
0.3012296831
 20
13.0104191766
 11
0.3021413339
 21
13.0551209627
  0
LINE
  5
812
100
AcDbEntity
  8
ASSI
100
AcDbLine
 62
253
  6
CONTINUOUS
 10
-0.0620354409
 20
0.9836297675
 11
-0.0621120052
 21
0.9799239271
  0
LINE
  5
813
100
AcDbEntity
  8
CURVE
100
AcDbLine
 62
7
  6
CONTINUOUS
 10
0.4692970527
 20
12.7509129724
 11
0.4705878451
 21
12.811488014
  0
LINE
  5
814
100
AcDbEntity
  8
CURVE
100
AcDbLine
 62
7
  6
CONTINUOUS
 10
0.4680309556
 20
12.9503061071
 11
0.4670570818
 21
12.9067624082
  0
LINE
  5
815
100
AcDbEntity
  8
CURVE
100
AcDbLine
 62
253
  6
CONTINUOUS
 10
0.4073978216
 20
23.3356027212
 11
0.3976743386
 21
22.964174017
  0
LINE
  5
816
100
AcDbEntity
  8
CURVE
100
AcDbLine
 62
7
  6
CONTINUOUS
 10
0.4683654451
 20
12.7159275678
 11
0.4692970527
 21
12.7509129724
  0
LINE
  5
817
100
AcDbEntity
  8
ASSI
100
AcDbLine
 62
253
  6
CONTINUOUS
 10
-0.0619477856
 20
0.9869473764
 11
-0.0620354409
 21
0.9836297675
  0
LINE
  5
818
100
AcDbEntity
  8
CURVE
100
AcDbLine
 62
7
  6
CONTINUOUS
 10
0.4670570818
 20
12.9067624082
 11
0.4663558027
 21
12.8818230545
  0
LINE
  5
819
100
AcDbEntity
  8
ASSI
100
AcDbLine
 62
253
  6
CONTINUOUS
 10
-0.2466441428
 20
1.6653339427
 11
-0.2619172852
 21
1.1601537591
  0
LINE
  5
81A
100
AcDbEntity
  8
ASSI
100
AcDbLine
 62
253
  6
CONTINUOUS
 10
-0.0483591837
 20
1.4364090653
 11
-0.0619477856
 21
0.9869473764
  0
LINE
  5
81B
100
AcDbEntity
  8
CURVE
100
AcDbLine
 62
7
  6
CONTINUOUS
 10
0.4508737325
 20
13.7163892187
 11
0.4247114166
 21
12.9296591588
  0
LINE
  5
81C
100
AcDbEntity
  8
CURVE
100
AcDbLine
 62
7
  6
CONTINUOUS
 10
0.4247114166
 20
12.7019364465
 11
0.4475301922
 21
13.3881317417
  0
LINE
  5
81D
100
AcDbEntity
  8
CURVE
100
AcDbLine
 62
253
  6
CONTINUOUS
 10
0.4370669125
 20
24.9998884466
 11
0.4143787841
 21
24.3498883691
  0
LINE
  5
81E
100
AcDbEntity
  8
CURVE
100
AcDbLine
 62
253
  6
CONTINUOUS
 10
0.3902362887
 20
12.2665552315
 11
0.3886572613
 21
12.2213168558
  0
LINE
  5
81F
100
AcDbEntity
  8
CURVE
100
AcDbLine
 62
253
  6
CONTINUOUS
 10
0.3894467752
 20
8.8736983475
 11
0.3941838571
 21
9.0094121155
  0
LINE
  5
820
100
AcDbEntity
  8
CURVE
100
AcDbLine
 62
253
  6
CONTINUOUS
 10
0.413132184
 20
8.1951267895
 11
0.4083951025
 21
8.0594121155
  0
LWPOLYLINE
  5
821
100
AcDbEntity
  8
CURVE
100
AcDbPolyline
 62
7
  6
CONTINUOUS
 90
21
 70
0
 10
0.4663558027
 20
12.8818230545
 10
0.4656196722
 20
12.8603951956
 10
0.4652368619
 20
12.8509791874
 10
0.4648474347
 20
12.8425225345
 10
0.4644521684
 20
12.835038311
 10
0.4640518409
 20
12.8285395912
 10
0.4636472301
 20
12.8230394492
 10
0.4632391138
 20
12.8185509592
 10
0.46282827
 20
12.8150871954
 10
0.4624154766
 20
12.812661232
 10
0.4620015113
 20
12.8112861431
 10
0.4615871522
 20
12.810975003
 10
0.461173177
 20
12.8117408858
 10
0.4607605069
 20
12.8135894349
 10
0.460349642
 20
12.8165014712
 10
0.4599412264
 20
12.8204512598
 10
0.4595359044
 20
12.8254130658
 10
0.4591343202
 20
12.8313611541
 10
0.458737118
 20
12.8382697898
 10
0.458344942
 20
12.8461132379
 10
0.4579584364
 20
12.8548657635
  0
LINE
  5
822
100
AcDbEntity
  8
CURVE
100
AcDbLine
 62
253
  6
CONTINUOUS
 10
0.4667360035
 20
26.7879836735
 11
0.4537713588
 21
26.4351265148
  0
LWPOLYLINE
  5
823
100
AcDbEntity
  8
RACCORDO
100
AcDbPolyline
 62
253
  6
CONTINUOUS
 90
9
 70
0
 10
0.0056916604
 20
12.8901465336
 10
0.0042387828
 20
12.8533268547
 10
0.002810352
 20
12.8064158509
 10
0.001426572
 20
12.7496844088
 10
0.0000883381
 20
12.6834635841
 10
-0.0012052451
 20
12.6081124598
 10
-0.0024366595
 20
12.5239906879
 10
-0.0036050163
 20
12.4315352629
 10
-0.0057403719
 20
12.2234668396
  0
LWPOLYLINE
  5
824
100
AcDbEntity
  8
ASSI
100
AcDbPolyline
 62
253
  6
CONTINUOUS
 90
9
 70
0
 10
0.0056916604
 20
12.8901465336
 10
0.0042387828
 20
12.8533268547
 10
0.002810352
 20
12.8064158509
 10
0.001426572
 20
12.7496844088
 10
0.0000883381
 20
12.6834635841
 10
-0.0012052451
 20
12.6081124598
 10
-0.0024366595
 20
12.5239906879
 10
-0.0036050163
 20
12.4315352629
 10
-0.0057403719
 20
12.2234668396
  0
LINE
  5
825
100
AcDbEntity
  8
ASSI
100
AcDbLine
 62
7
  6
CONTINUOUS
 10
0.4778267379
 20
6.3653339427
 11
0.4516408163
 21
5.7879836735
  0
LWPOLYLINE
  5
826
100
AcDbEntity
  8
ASSI
100
AcDbPolyline
 62
7
  6
CONTINUOUS
 90
16
 70
0
 10
0.4516408163
 20
2.8879839086
 10
0.4489445335
 20
2.8360738826
 10
0.440837377
 20
2.7845224668
 10
0.427340854
 20
2.7338993209
 10
0.4084579445
 20
2.6845986193
 10
0.3843757327
 20
2.6373827176
 10
0.3556487495
 20
2.593282071
 10
0.3229884126
 20
2.5530499354
 10
0.2866111789
 20
2.5166641218
 10
0.2463815854
 20
2.4839904282
 10
0.2022724419
 20
2.455247059
 10
0.1550389849
 20
2.4311506123
 10
0.1057233857
 20
2.412259966
 10
0.0550937219
 20
2.3987631548
 10
0.0035422787
 20
2.3906636838
 10
-0.0483591834
 20
2.387983937
  0
LINE
  5
827
100
AcDbEntity
  8
CURVE
100
AcDbLine
 62
253
  6
CONTINUOUS
 10
0.4073978216
 20
24.9141741719
 11
0.3847096932
 21
24.5427456227
  0
LINE
  5
828
100
AcDbEntity
  8
CURVE
100
AcDbLine
 62
253
  6
CONTINUOUS
 10
0.4667360035
 20
25.3765550389
 11
0.4440478751
 21
25.0236979171
  0
LWPOLYLINE
  5
829
100
AcDbEntity
  8
ASSI
100
AcDbPolyline
 62
253
  6
CONTINUOUS
 90
13
 70
0
 10
-0.0615266406
 20
0.5011206694
 10
-0.0632446938
 20
0.475024438
 10
-0.0683535715
 20
0.4493745474
 10
-0.076765893
 20
0.4246097044
 10
-0.088337777
 20
0.4011534784
 10
-0.1028713021
 20
0.3794070564
 10
-0.1201178919
 20
0.3597423817
 10
-0.1397825666
 20
0.3424957919
 10
-0.1615289886
 20
0.3279622668
 10
-0.1849852146
 20
0.3163903828
 10
-0.2097500576
 20
0.3079780613
 10
-0.2353999482
 20
0.3028691836
 10
-0.2614961796
 20
0.3011511304
  0
LWPOLYLINE
  5
82A
100
AcDbEntity
  8
RACCORDO
100
AcDbPolyline
 62
253
  6
CONTINUOUS
 90
4
 70
0
 10
0.0101767708
 20
17.9379836735
 10
0.0086572871
 20
17.9326332273
 10
0.0071622503
 20
17.9166436182
 10
0.0056916604
 20
17.8901465336
  0
LWPOLYLINE
  5
82B
100
AcDbEntity
  8
ASSI
100
AcDbPolyline
 62
253
  6
CONTINUOUS
 90
4
 70
0
 10
0.0101767708
 20
17.9379836735
 10
0.0086572871
 20
17.9326332273
 10
0.0071622503
 20
17.9166436182
 10
0.0056916604
 20
17.8901465336
  0
LINE
  5
82C
100
AcDbEntity
  8
0
100
AcDbLine
 62
7
  6
CONTINUOUS
 10
-14.1483591837
 20
5.0879836735
 11
-14.1117035473
 21
5.1246393098
  0
LINE
  5
82D
100
AcDbEntity
  8
DRAFT
100
AcDbLine
 62
7
  6
CONTINUOUS
 10
-14.1483591837
 20
5.0879836735
 11
-14.1117035473
 21
5.1246393098
  0
LINE
  5
82E
100
AcDbEntity
  8
0
100
AcDbLine
 62
7
  6
CONTINUOUS
 10
-14.1117035473
 20
4.9246393098
 11
-14.1483591837
 21
4.8879836735
  0
LINE
  5
82F
100
AcDbEntity
  8
DRAFT
100
AcDbLine
 62
7
  6
CONTINUOUS
 10
-14.1117035473
 20
4.9246393098
 11
-14.1483591837
 21
4.8879836735
  0
LINE
  5
830
100
AcDbEntity
  8
RACCORDO
100
AcDbLine
 62
7
  6
CONTINUOUS
 10
-15.0983591837
 20
2.3879836735
 11
-15.0009404192
 21
2.485402438
  0
LINE
  5
831
100
AcDbEntity
  8
0
100
AcDbLine
 62
253
  6
CONTINUOUS
 10
-21.7983591837
 20
7.1162846248
 11
-21.6761737292
 21
7.1668954971
  0
LINE
  5
832
100
AcDbEntity
  8
RACCORDO
100
AcDbLine
 62
253
  6
CONTINUOUS
 10
-21.7983591837
 20
7.1162846248
 11
-21.6761737292
 21
7.1668954971
  0
LINE
  5
833
100
AcDbEntity
  8
CURVE
100
AcDbLine
 62
253
  6
CONTINUOUS
 10
0.4073978216
 20
36.030841082
 11
0.3847096932
 21
36.030841082
  0
LINE
  5
834
100
AcDbEntity
  8
CURVE
100
AcDbLine
 62
253
  6
CONTINUOUS
 10
0.3847096932
 20
36.680840772
 11
0.4073978216
 21
36.680840772
  0
LINE
  5
835
100
AcDbEntity
  8
CURVE
100
AcDbLine
 62
253
  6
CONTINUOUS
 10
0.3879508545
 20
37.0522694763
 11
0.3911920159
 21
37.0522694763
  0
LINE
  5
836
100
AcDbEntity
  8
0
100
AcDbLine
 62
253
  6
CONTINUOUS
 10
-21.6761737292
 20
42.4090718498
 11
-21.7983591837
 21
42.4596827222
  0
LINE
  5
837
100
AcDbEntity
  8
RACCORDO
100
AcDbLine
 62
253
  6
CONTINUOUS
 10
-21.6761737292
 20
42.4090718498
 11
-21.7983591837
 21
42.4596827222
  0
LWPOLYLINE
  5
838
100
AcDbEntity
  8
0
100
AcDbPolyline
 62
253
  6
CONTINUOUS
 90
4
 70
0
 10
-12.5411954666
 20
42.1324323796
 10
-12.5781725166
 20
42.1655056586
 10
-12.6081668048
 20
42.2038195948
 10
-12.6302669699
 20
42.2462100387
  0
LWPOLYLINE
  5
839
100
AcDbEntity
  8
RACCORDO
100
AcDbPolyline
 62
253
  6
CONTINUOUS
 90
4
 70
0
 10
-12.5411954666
 20
42.1324323796
 10
-12.5781725166
 20
42.1655056586
 10
-12.6081668048
 20
42.2038195948
 10
-12.6302669699
 20
42.2462100387
  0
LWPOLYLINE
  5
83A
100
AcDbEntity
  8
ASSI
100
AcDbPolyline
 62
7
  6
CONTINUOUS
 90
10
 70
0
 10
-19.1949822134
 20
48.4158148898
 10
-19.2142950802
 20
48.4341075723
 10
-19.2350178673
 20
48.4550492322
 10
-19.2571505747
 20
48.477983251
 10
-19.2809919645
 20
48.5021214251
 10
-19.3062432746
 20
48.5270491346
 10
-19.3320082183
 20
48.5528408947
 10
-19.3579880334
 20
48.5793123059
 10
-19.3844814821
 20
48.6059175362
 10
-19.4114885644
 20
48.6323212408
  0
LINE
  5
83B
100
AcDbEntity
  8
0
100
AcDbLine
 62
7
  6
CONTINUOUS
 10
-14.1483591837
 20
44.4879836735
 11
-14.1117035473
 21
44.4513280371
  0
LINE
  5
83C
100
AcDbEntity
  8
DRAFT
100
AcDbLine
 62
7
  6
CONTINUOUS
 10
-14.1483591837
 20
44.4879836735
 11
-14.1117035473
 21
44.4513280371
  0
LINE
  5
83D
100
AcDbEntity
  8
0
100
AcDbLine
 62
7
  6
CONTINUOUS
 10
-14.1483591837
 20
44.6879836735
 11
-14.1117035473
 21
44.6513280371
  0
LINE
  5
83E
100
AcDbEntity
  8
DRAFT
100
AcDbLine
 62
7
  6
CONTINUOUS
 10
-14.1483591837
 20
44.6879836735
 11
-14.1117035473
 21
44.6513280371
  0
LINE
  5
83F
100
AcDbEntity
  8
RACCORDO
100
AcDbLine
 62
7
  6
CONTINUOUS
 10
-15.0983591837
 20
47.1879836735
 11
-15.0009404192
 21
47.090564909
  0
LWPOLYLINE
  5
840
100
AcDbEntity
  8
RACCORDO
100
AcDbPolyline
 62
253
  6
CONTINUOUS
 90
4
 70
0
 10
0.0101767708
 20
12.9379836735
 10
0.0086572871
 20
12.9326332273
 10
0.0071622503
 20
12.9166436182
 10
0.0056916604
 20
12.8901465336
  0
LWPOLYLINE
  5
841
100
AcDbEntity
  8
ASSI
100
AcDbPolyline
 62
253
  6
CONTINUOUS
 90
4
 70
0
 10
0.0101767708
 20
12.9379836735
 10
0.0086572871
 20
12.9326332273
 10
0.0071622503
 20
12.9166436182
 10
0.0056916604
 20
12.8901465336
  0
LINE
  5
842
100
AcDbEntity
  8
ASSI
100
AcDbLine
 62
7
  6
CONTINUOUS
 10
-3.3471358409
 20
2.5628389556
 11
-3.3932457735
 21
2.4054387384
  0
LINE
  5
843
100
AcDbEntity
  8
RACCORDO
100
AcDbLine
 62
253
  6
CONTINUOUS
 10
-15.0009384874
 20
1.1353662935
 11
-15.0983591837
 21
1.0379455973
  0
LINE
  5
844
100
AcDbEntity
  8
RACCORDO
100
AcDbLine
 62
253
  6
CONTINUOUS
 10
-14.7509784954
 20
0.885402438
 11
-14.8483972599
 21
0.7879836735
  0
LWPOLYLINE
  5
845
100
AcDbEntity
  8
0
100
AcDbPolyline
 62
253
  6
CONTINUOUS
 90
4
 70
0
 10
-12.5416813744
 20
7.4431695026
 10
-12.4986358404
 20
7.4702196336
 10
-12.4511111203
 20
7.4900821297
 10
-12.400501649
 20
7.5022277475
  0
LWPOLYLINE
  5
846
100
AcDbEntity
  8
RACCORDO
100
AcDbPolyline
 62
253
  6
CONTINUOUS
 90
4
 70
0
 10
-12.5416813744
 20
7.4431695026
 10
-12.4986358404
 20
7.4702196336
 10
-12.4511111203
 20
7.4900821297
 10
-12.400501649
 20
7.5022277475
  0
LINE
  5
847
100
AcDbEntity
  8
0
100
AcDbLine
 62
253
  6
CONTINUOUS
 10
-21.2126619642
 20
5.702286454
 11
-21.0904765097
 21
5.7528973263
  0
LINE
  5
848
100
AcDbEntity
  8
RACCORDO
100
AcDbLine
 62
253
  6
CONTINUOUS
 10
-21.2126619642
 20
5.702286454
 11
-21.0904765097
 21
5.7528973263
  0
LINE
  5
849
100
AcDbEntity
  8
CURVE
100
AcDbLine
 62
253
  6
CONTINUOUS
 10
0.4009154996
 20
37.7022694763
 11
0.4041566606
 21
37.7022694763
  0
LINE
  5
84A
100
AcDbEntity
  8
CURVE
100
AcDbLine
 62
7
  6
CONTINUOUS
 10
0.4249781984
 20
38.5736476735
 11
0.4755794498
 21
38.5736476735
  0
LINE
  5
84B
100
AcDbEntity
  8
CURVE
100
AcDbLine
 62
253
  6
CONTINUOUS
 10
0.3928125964
 20
39.0951265749
 11
0.3879508545
 21
39.0951265749
  0
LINE
  5
84C
100
AcDbEntity
  8
CURVE
100
AcDbLine
 62
7
  6
CONTINUOUS
 10
0.4755794498
 20
39.1789186735
 11
0.4249781984
 21
39.1789186735
  0
LINE
  5
84D
100
AcDbEntity
  8
CURVE
100
AcDbLine
 62
253
  6
CONTINUOUS
 10
0.4041566606
 20
39.1879836735
 11
0.3992949184
 21
39.1879836735
  0
LINE
  5
84E
100
AcDbEntity
  8
0
100
AcDbLine
 62
253
  6
CONTINUOUS
 10
-21.0904765097
 20
43.8230700206
 11
-21.2126619642
 21
43.873680893
  0
LINE
  5
84F
100
AcDbEntity
  8
RACCORDO
100
AcDbLine
 62
253
  6
CONTINUOUS
 10
-21.0904765097
 20
43.8230700206
 11
-21.2126619642
 21
43.873680893
  0
LINE
  5
850
100
AcDbEntity
  8
RACCORDO
100
AcDbLine
 62
253
  6
CONTINUOUS
 10
-15.0983591837
 20
48.5380217497
 11
-15.0009384874
 21
48.4406010534
  0
LINE
  5
851
100
AcDbEntity
  8
RACCORDO
100
AcDbLine
 62
253
  6
CONTINUOUS
 10
-14.8483972599
 20
48.7879836735
 11
-14.7509784954
 21
48.690564909
  0
LINE
  5
852
100
AcDbEntity
  8
ASSI
100
AcDbLine
 62
7
  6
CONTINUOUS
 10
-3.3471358409
 20
47.0131283913
 11
-3.3932457735
 21
47.1705286085
  0
LINE
  5
853
100
AcDbEntity
  8
CURVE
100
AcDbLine
 62
7
  6
CONTINUOUS
 10
0.4580178835
 20
37.5381456735
 11
0.4249781984
 21
37.6687626735
  0
LINE
  5
854
100
AcDbEntity
  8
CURVE
100
AcDbLine
 62
7
  6
CONTINUOUS
 10
0.4249781984
 20
38.2478106735
 11
0.4755764136
 21
37.9859886735
  0
LINE
  5
855
100
AcDbEntity
  8
CURVE
100
AcDbLine
 62
253
  6
CONTINUOUS
 10
0.3847096932
 20
39.7451265749
 11
0.4073978216
 21
39.7451265749
  0
LINE
  5
856
100
AcDbEntity
  8
CURVE
100
AcDbLine
 62
253
  6
CONTINUOUS
 10
0.3976743386
 20
40.1165551242
 11
0.3847096932
 21
40.1165551242
  0
LINE
  5
857
100
AcDbEntity
  8
CURVE
100
AcDbLine
 62
253
  6
CONTINUOUS
 10
0.3879508545
 20
40.7665551242
 11
0.4041566606
 21
40.7665551242
  0
LINE
  5
858
100
AcDbEntity
  8
CURVE
100
AcDbLine
 62
253
  6
CONTINUOUS
 10
0.4041566606
 20
41.1379836735
 11
0.3976743386
 21
41.1379836735
  0
LWPOLYLINE
  5
859
100
AcDbEntity
  8
0
100
AcDbPolyline
 62
253
  6
CONTINUOUS
 90
3
 70
0
 10
-12.4509652267
 20
42.0858376841
 10
-12.4983591837
 20
42.1056046727
 10
-12.5411954666
 20
42.1324323796
  0
LWPOLYLINE
  5
85A
100
AcDbEntity
  8
RACCORDO
100
AcDbPolyline
 62
253
  6
CONTINUOUS
 90
3
 70
0
 10
-12.4509652267
 20
42.0858376841
 10
-12.4983591837
 20
42.1056046727
 10
-12.5411954666
 20
42.1324323796
  0
LINE
  5
85B
100
AcDbEntity
  8
RACCORDO
100
AcDbLine
 62
253
  6
CONTINUOUS
 10
-9.8309041187
 20
1.0554006622
 11
-9.8483591837
 21
1.0379455973
  0
LINE
  5
85C
100
AcDbEntity
  8
RACCORDO
100
AcDbLine
 62
253
  6
CONTINUOUS
 10
-9.580942195
 20
0.8054387384
 11
-9.5983972599
 21
0.7879836735
  0
LWPOLYLINE
  5
85D
100
AcDbEntity
  8
0
100
AcDbPolyline
 62
253
  6
CONTINUOUS
 90
3
 70
0
 10
-8.8456072471
 20
42.0858852173
 10
-8.8962167184
 20
42.0737395995
 10
-8.9483591837
 20
42.0696555162
  0
LWPOLYLINE
  5
85E
100
AcDbEntity
  8
RACCORDO
100
AcDbPolyline
 62
253
  6
CONTINUOUS
 90
3
 70
0
 10
-8.8456072471
 20
42.0858852173
 10
-8.8962167184
 20
42.0737395995
 10
-8.9483591837
 20
42.0696555162
  0
LINE
  5
85F
100
AcDbEntity
  8
0
100
AcDbLine
 62
7
  6
CONTINUOUS
 10
-8.1483591837
 20
41.3879836735
 11
-13.1483591837
 21
41.3879836735
  0
LINE
  5
860
100
AcDbEntity
  8
ASSI
100
AcDbLine
 62
7
  6
CONTINUOUS
 10
-8.1483591837
 20
41.3879836735
 11
-13.1483591837
 21
41.3879836735
  0
LINE
  5
861
100
AcDbEntity
  8
CURVE
100
AcDbLine
 62
253
  6
CONTINUOUS
 10
0.3847096932
 20
41.7879836735
 11
0.4073978216
 21
41.7879836735
  0
LINE
  5
862
100
AcDbEntity
  8
0
100
AcDbLine
 62
7
  6
CONTINUOUS
 10
-13.1483591837
 20
41.8379836735
 11
-8.1483591837
 21
41.8379836735
  0
LINE
  5
863
100
AcDbEntity
  8
0
100
AcDbLine
 62
7
  6
CONTINUOUS
 10
-8.9483591837
 20
42.0379836735
 11
-12.3483591837
 21
42.0379836735
  0
LINE
  5
864
100
AcDbEntity
  8
RACCORDO
100
AcDbLine
 62
7
  6
CONTINUOUS
 10
-8.9483591837
 20
42.0379836735
 11
-12.3483591837
 21
42.0379836735
  0
LINE
  5
865
100
AcDbEntity
  8
0
100
AcDbLine
 62
253
  6
CONTINUOUS
 10
-8.9483591837
 20
42.0696555162
 11
-12.3483591837
 21
42.0696555162
  0
LINE
  5
866
100
AcDbEntity
  8
RACCORDO
100
AcDbLine
 62
253
  6
CONTINUOUS
 10
-8.9483591837
 20
42.0696555162
 11
-12.3483591837
 21
42.0696555162
  0
LINE
  5
867
100
AcDbEntity
  8
RACCORDO
100
AcDbLine
 62
7
  6
CONTINUOUS
 10
-12.3309370709
 20
42.0879836735
 11
-8.9657812965
 21
42.0879836735
  0
LINE
  5
868
100
AcDbEntity
  8
ASSI
100
AcDbLine
 62
7
  6
CONTINUOUS
 10
-12.3309370709
 20
42.0879836735
 11
-8.9657812965
 21
42.0879836735
  0
LINE
  5
869
100
AcDbEntity
  8
ASSI
100
AcDbLine
 62
7
  6
CONTINUOUS
 10
-8.1483591837
 20
42.2879836735
 11
-13.1483591837
 21
42.2879836735
  0
LINE
  5
86A
100
AcDbEntity
  8
0
100
AcDbLine
 62
253
  6
CONTINUOUS
 10
-12.3483591837
 20
42.0696555162
 11
-12.400453637
 21
42.0737320238
  0
LINE
  5
86B
100
AcDbEntity
  8
RACCORDO
100
AcDbLine
 62
253
  6
CONTINUOUS
 10
-12.3483591837
 20
42.0696555162
 11
-12.400453637
 21
42.0737320238
  0
LINE
  5
86C
100
AcDbEntity
  8
0
100
AcDbLine
 62
253
  6
CONTINUOUS
 10
-12.400453637
 20
42.0737320238
 11
-12.4509652267
 21
42.0858376841
  0
LINE
  5
86D
100
AcDbEntity
  8
RACCORDO
100
AcDbLine
 62
253
  6
CONTINUOUS
 10
-12.400453637
 20
42.0737320238
 11
-12.4509652267
 21
42.0858376841
  0
LINE
  5
86E
100
AcDbEntity
  8
RACCORDO
100
AcDbLine
 62
253
  6
CONTINUOUS
 10
-9.8483591837
 20
48.5380217497
 11
-9.8309041187
 21
48.5205666848
  0
LINE
  5
86F
100
AcDbEntity
  8
RACCORDO
100
AcDbLine
 62
253
  6
CONTINUOUS
 10
-9.5983972599
 20
48.7879836735
 11
-9.580942195
 21
48.7705286085
  0
LWPOLYLINE
  5
870
100
AcDbEntity
  8
ASSI
100
AcDbPolyline
 62
253
  6
CONTINUOUS
 90
10
 70
0
 10
-3.4351917268
 20
49.0748466775
 10
-3.4351488929
 20
49.0747595949
 10
-3.4351053291
 20
49.0745274947
 10
-3.4350610351
 20
49.0741503767
 10
-3.4350157363
 20
49.073633644
 10
-3.4349697074
 20
49.0729718935
 10
-3.4349237731
 20
49.0721489166
 10
-3.4348779186
 20
49.0711590549
 10
-3.4348321588
 20
49.0700079667
 10
-3.4347873629
 20
49.0686964186
  0
LINE
  5
871
100
AcDbEntity
  8
DRAFT
100
AcDbLine
 62
7
  6
CONTINUOUS
 10
-1.2333572301
 20
6.5511310936
 11
-1.2080140857
 21
6.5764905403
  0
LINE
  5
872
100
AcDbEntity
  8
DRAFT
100
AcDbLine
 62
7
  6
CONTINUOUS
 10
-1.2139763561
 20
6.5520059973
 11
-1.1886788696
 21
6.5773197566
  0
LINE
  5
873
100
AcDbEntity
  8
0
100
AcDbLine
 62
7
  6
CONTINUOUS
 10
-5.522909833
 20
3.7134330242
 11
-5.3483591837
 21
3.8879836735
  0
LINE
  5
874
100
AcDbEntity
  8
0
100
AcDbLine
 62
7
  6
CONTINUOUS
 10
-3.4356278616
 20
5.0007149956
 11
-3.3483591837
 21
5.0879836735
  0
LINE
  5
875
100
AcDbEntity
  8
0
100
AcDbLine
 62
7
  6
CONTINUOUS
 10
-3.2483591837
 20
5.0879836735
 11
-3.2117035473
 21
5.1246393098
  0
LINE
  5
876
100
AcDbEntity
  8
DRAFT
100
AcDbLine
 62
7
  6
CONTINUOUS
 10
-3.2483591837
 20
5.0879836735
 11
-3.2117035473
 21
5.1246393098
  0
LINE
  5
877
100
AcDbEntity
  8
RACCORDO
100
AcDbLine
 62
7
  6
CONTINUOUS
 10
0.0718490517
 20
7.4896794266
 11
-0.5500549368
 21
6.8677754381
  0
LINE
  5
878
100
AcDbEntity
  8
ASSI
100
AcDbLine
 62
7
  6
CONTINUOUS
 10
0.0718490517
 20
7.4896794266
 11
-0.5500549368
 21
6.8677754381
  0
LINE
  5
879
100
AcDbEntity
  8
ASSI
100
AcDbLine
 62
7
  6
CONTINUOUS
 10
-3.3483591837
 20
3.8879836735
 11
-3.4356278616
 21
3.8007149956
  0
LINE
  5
87A
100
AcDbEntity
  8
0
100
AcDbLine
 62
7
  6
CONTINUOUS
 10
-3.2117035473
 20
6.5218142059
 11
-3.1942484824
 21
6.5305410736
  0
LINE
  5
87B
100
AcDbEntity
  8
DRAFT
100
AcDbLine
 62
7
  6
CONTINUOUS
 10
-3.2117035473
 20
6.5218142059
 11
-3.1942484824
 21
6.5305410736
  0
LWPOLYLINE
  5
87C
100
AcDbEntity
  8
0
100
AcDbPolyline
 62
7
  6
CONTINUOUS
 90
12
 70
0
 10
-9.0239627223
 20
44.6726124899
 10
-8.9060908941
 20
44.672992964
 10
-8.7932194644
 20
44.6736117753
 10
-8.6838636819
 20
44.6744837399
 10
-8.5795082977
 20
44.6755940417
 10
-8.4846075654
 20
44.6768982325
 10
-8.3995394811
 20
44.6784082546
 10
-8.3239260486
 20
44.6801121656
 10
-8.2610875325
 20
44.6819296905
 10
-8.2121306879
 20
44.6838340709
 10
-8.1759487598
 20
44.6858520652
 10
-8.1525417482
 20
44.6879836735
  0
LINE
  5
87D
100
AcDbEntity
  8
ASSI
100
AcDbLine
 62
7
  6
CONTINUOUS
 10
-8.1483591837
 20
42.9879836735
 11
-13.1483591837
 21
42.9879836735
  0
LINE
  5
87E
100
AcDbEntity
  8
RACCORDO
100
AcDbLine
 62
7
  6
CONTINUOUS
 10
-1.2571347936
 20
43.0010739752
 11
-6.635268882
 21
43.0010739752
  0
LINE
  5
87F
100
AcDbEntity
  8
ASSI
100
AcDbLine
 62
7
  6
CONTINUOUS
 10
-1.2571347936
 20
43.0010739752
 11
-6.635268882
 21
43.0010739752
  0
LINE
  5
880
100
AcDbEntity
  8
0
100
AcDbLine
 62
7
  6
CONTINUOUS
 10
-13.1483591837
 20
43.0879836735
 11
-8.1483591837
 21
43.0879836735
  0
LINE
  5
881
100
AcDbEntity
  8
ASSI
100
AcDbLine
 62
7
  6
CONTINUOUS
 10
-13.1483591837
 20
43.0879836735
 11
-8.1483591837
 21
43.0879836735
  0
LINE
  5
882
100
AcDbEntity
  8
ASSI
100
AcDbLine
 62
7
  6
CONTINUOUS
 10
0.4341857514
 20
43.2106334043
 11
0.4778267379
 21
43.2106334043
  0
LINE
  5
883
100
AcDbEntity
  8
ASSI
100
AcDbLine
 62
7
  6
CONTINUOUS
 10
-21.7309041187
 20
43.2106334043
 11
-21.7745451052
 21
43.2106334043
  0
LINE
  5
884
100
AcDbEntity
  8
ASSI
100
AcDbLine
 62
7
  6
CONTINUOUS
 10
-1.4483591837
 20
43.3879836735
 11
-6.635268882
 21
43.3879836735
  0
LINE
  5
885
100
AcDbEntity
  8
RACCORDO
100
AcDbLine
 62
7
  6
CONTINUOUS
 10
-6.9352574589
 20
44.4010739752
 11
-20.0395835738
 21
44.4010739752
  0
LINE
  5
886
100
AcDbEntity
  8
ASSI
100
AcDbLine
 62
7
  6
CONTINUOUS
 10
-6.9352574589
 20
44.4010739752
 11
-20.0395835738
 21
44.4010739752
  0
LINE
  5
887
100
AcDbEntity
  8
0
100
AcDbLine
 62
7
  6
CONTINUOUS
 10
-3.2117035473
 20
44.4513280371
 11
-7.18501482
 21
44.4513280371
  0
LINE
  5
888
100
AcDbEntity
  8
DRAFT
100
AcDbLine
 62
7
  6
CONTINUOUS
 10
-3.2117035473
 20
44.4513280371
 11
-7.18501482
 21
44.4513280371
  0
LINE
  5
889
100
AcDbEntity
  8
0
100
AcDbLine
 62
7
  6
CONTINUOUS
 10
-14.1117035473
 20
44.4513280371
 11
-18.08501482
 21
44.4513280371
  0
LINE
  5
88A
100
AcDbEntity
  8
DRAFT
100
AcDbLine
 62
7
  6
CONTINUOUS
 10
-14.1117035473
 20
44.4513280371
 11
-18.08501482
 21
44.4513280371
  0
LINE
  5
88B
100
AcDbEntity
  8
0
100
AcDbLine
 62
7
  6
CONTINUOUS
 10
-3.2483591837
 20
44.4879836735
 11
-7.1483591837
 21
44.4879836735
  0
LINE
  5
88C
100
AcDbEntity
  8
DRAFT
100
AcDbLine
 62
7
  6
CONTINUOUS
 10
-3.2483591837
 20
44.4879836735
 11
-7.1483591837
 21
44.4879836735
  0
LINE
  5
88D
100
AcDbEntity
  8
0
100
AcDbLine
 62
7
  6
CONTINUOUS
 10
-14.1483591837
 20
44.4879836735
 11
-18.0483591837
 21
44.4879836735
  0
LINE
  5
88E
100
AcDbEntity
  8
DRAFT
100
AcDbLine
 62
7
  6
CONTINUOUS
 10
-14.1483591837
 20
44.4879836735
 11
-18.0483591837
 21
44.4879836735
  0
LINE
  5
88F
100
AcDbEntity
  8
ASSI
100
AcDbLine
 62
7
  6
CONTINUOUS
 10
-17.8610905058
 20
44.5752523514
 11
-17.2356278616
 21
44.5752523514
  0
LINE
  5
890
100
AcDbEntity
  8
ASSI
100
AcDbLine
 62
7
  6
CONTINUOUS
 10
-4.0610905058
 20
44.5752523514
 11
-3.4356278616
 21
44.5752523514
  0
LINE
  5
891
100
AcDbEntity
  8
0
100
AcDbLine
 62
7
  6
CONTINUOUS
 10
-14.1117035473
 20
44.6513280371
 11
-7.18501482
 21
44.6513280371
  0
LINE
  5
892
100
AcDbEntity
  8
DRAFT
100
AcDbLine
 62
7
  6
CONTINUOUS
 10
-14.1117035473
 20
44.6513280371
 11
-7.18501482
 21
44.6513280371
  0
LINE
  5
893
100
AcDbEntity
  8
0
100
AcDbLine
 62
7
  6
CONTINUOUS
 10
-12.1498834185
 20
44.6724703531
 11
-9.0239627223
 21
44.6726124899
  0
LINE
  5
894
100
AcDbEntity
  8
0
100
AcDbLine
 62
7
  6
CONTINUOUS
 10
-14.1483591837
 20
44.6879836735
 11
-13.1428374639
 21
44.6879836735
  0
LINE
  5
895
100
AcDbEntity
  8
0
100
AcDbLine
 62
7
  6
CONTINUOUS
 10
-8.1538809035
 20
44.6879836735
 11
-7.1483591837
 21
44.6879836735
  0
LWPOLYLINE
  5
896
100
AcDbEntity
  8
0
100
AcDbPolyline
 62
7
  6
CONTINUOUS
 90
13
 70
0
 10
-12.1498834185
 20
44.6724703531
 10
-12.2727556451
 20
44.6726124899
 10
-12.3906274732
 20
44.672992964
 10
-12.503498903
 20
44.6736117753
 10
-12.6128546855
 20
44.6744837399
 10
-12.7172100696
 20
44.6755940417
 10
-12.8121108019
 20
44.6768982325
 10
-12.8971788863
 20
44.6784082546
 10
-12.9727923188
 20
44.6801121656
 10
-13.0356308348
 20
44.6819296905
 10
-13.0845876794
 20
44.6838340709
 10
-13.1207696076
 20
44.6858520652
 10
-13.1441766192
 20
44.6879836735
  0
LINE
  5
897
100
AcDbEntity
  8
0
100
AcDbLine
 62
7
  6
CONTINUOUS
 10
-5.522909833
 20
45.8625343228
 11
-5.3483591837
 21
45.6879836735
  0
LINE
  5
898
100
AcDbEntity
  8
0
100
AcDbLine
 62
7
  6
CONTINUOUS
 10
-3.4356278616
 20
44.5752523514
 11
-3.3483591837
 21
44.4879836735
  0
LINE
  5
899
100
AcDbEntity
  8
0
100
AcDbLine
 62
7
  6
CONTINUOUS
 10
-3.2483591837
 20
44.4879836735
 11
-3.2117035473
 21
44.4513280371
  0
LINE
  5
89A
100
AcDbEntity
  8
DRAFT
100
AcDbLine
 62
7
  6
CONTINUOUS
 10
-3.2483591837
 20
44.4879836735
 11
-3.2117035473
 21
44.4513280371
  0
LINE
  5
89B
100
AcDbEntity
  8
RACCORDO
100
AcDbLine
 62
7
  6
CONTINUOUS
 10
0.0718490517
 20
42.0862879203
 11
-0.5500549368
 21
42.7081919088
  0
LINE
  5
89C
100
AcDbEntity
  8
ASSI
100
AcDbLine
 62
7
  6
CONTINUOUS
 10
0.0718490517
 20
42.0862879203
 11
-0.5500549368
 21
42.7081919088
  0
LINE
  5
89D
100
AcDbEntity
  8
ASSI
100
AcDbLine
 62
7
  6
CONTINUOUS
 10
-3.3483591837
 20
45.6879836735
 11
-3.4356278616
 21
45.7752523514
  0
LINE
  5
89E
100
AcDbEntity
  8
0
100
AcDbLine
 62
7
  6
CONTINUOUS
 10
-2.0211555105
 20
3.9379836735
 11
-0.2062418577
 21
5.7528973263
  0
LINE
  5
89F
100
AcDbEntity
  8
RACCORDO
100
AcDbLine
 62
7
  6
CONTINUOUS
 10
-2.0211555105
 20
3.9379836735
 11
-0.2062418577
 21
5.7528973263
  0
LINE
  5
8A0
100
AcDbEntity
  8
ASSI
100
AcDbLine
 62
7
  6
CONTINUOUS
 10
-2.4158142486
 20
3.3828702633
 11
-3.3932457735
 21
2.4054387384
  0
LINE
  5
8A1
100
AcDbEntity
  8
0
100
AcDbLine
 62
7
  6
CONTINUOUS
 10
-1.8483591837
 20
3.9379836735
 11
-0.0840564032
 21
5.702286454
  0
LINE
  5
8A2
100
AcDbEntity
  8
RACCORDO
100
AcDbLine
 62
7
  6
CONTINUOUS
 10
-1.8483591837
 20
3.9379836735
 11
-0.0840564032
 21
5.702286454
  0
LINE
  5
8A3
100
AcDbEntity
  8
0
100
AcDbLine
 62
7
  6
CONTINUOUS
 10
-5.3483591837
 20
4.7879836735
 11
-5.522909833
 21
4.7007149956
  0
LINE
  5
8A4
100
AcDbEntity
  8
DRAFT
100
AcDbLine
 62
7
  6
CONTINUOUS
 10
-3.2483591837
 20
44.7879836735
 11
-3.3483591837
 21
44.7879836735
  0
LINE
  5
8A5
100
AcDbEntity
  8
0
100
AcDbLine
 62
7
  6
CONTINUOUS
 10
-5.3483591837
 20
44.7879836735
 11
-8.1490070026
 21
44.7879836735
  0
LINE
  5
8A6
100
AcDbEntity
  8
0
100
AcDbLine
 62
7
  6
CONTINUOUS
 10
-13.1477113648
 20
44.7879836735
 11
-15.9483591837
 21
44.7879836735
  0
LINE
  5
8A7
100
AcDbEntity
  8
DRAFT
100
AcDbLine
 62
7
  6
CONTINUOUS
 10
-17.9483591837
 20
44.7879836735
 11
-18.0483591837
 21
44.7879836735
  0
LINE
  5
8A8
100
AcDbEntity
  8
RACCORDO
100
AcDbLine
 62
7
  6
CONTINUOUS
 10
-8.1483591837
 20
44.841217567
 11
-8.2070480605
 21
44.841217567
  0
LINE
  5
8A9
100
AcDbEntity
  8
RACCORDO
100
AcDbLine
 62
7
  6
CONTINUOUS
 10
-13.0896703068
 20
44.841217567
 11
-13.1483591837
 21
44.841217567
  0
LINE
  5
8AA
100
AcDbEntity
  8
ASSI
100
AcDbLine
 62
7
  6
CONTINUOUS
 10
-5.522909833
 20
44.8752523514
 11
-15.7738085344
 21
44.8752523514
  0
LINE
  5
8AB
100
AcDbEntity
  8
ASSI
100
AcDbLine
 62
7
  6
CONTINUOUS
 10
-7.5983591837
 20
45.5879836735
 11
-13.6983591837
 21
45.5879836735
  0
LINE
  5
8AC
100
AcDbEntity
  8
0
100
AcDbLine
 62
7
  6
CONTINUOUS
 10
-1.8483591837
 20
45.6379836735
 11
-3.2483591837
 21
45.6379836735
  0
LINE
  5
8AD
100
AcDbEntity
  8
DRAFT
100
AcDbLine
 62
7
  6
CONTINUOUS
 10
-1.8483591837
 20
45.6379836735
 11
-3.2483591837
 21
45.6379836735
  0
LINE
  5
8AE
100
AcDbEntity
  8
0
100
AcDbLine
 62
7
  6
CONTINUOUS
 10
-18.0483591837
 20
45.6379836735
 11
-19.4483591837
 21
45.6379836735
  0
LINE
  5
8AF
100
AcDbEntity
  8
DRAFT
100
AcDbLine
 62
7
  6
CONTINUOUS
 10
-18.0483591837
 20
45.6379836735
 11
-19.4483591837
 21
45.6379836735
  0
LINE
  5
8B0
100
AcDbEntity
  8
ASSI
100
AcDbLine
 62
7
  6
CONTINUOUS
 10
-18.8809041187
 20
45.6879836735
 11
-17.9483591837
 21
45.6879836735
  0
LINE
  5
8B1
100
AcDbEntity
  8
ASSI
100
AcDbLine
 62
7
  6
CONTINUOUS
 10
-3.3483591837
 20
45.6879836735
 11
-2.4158142486
 21
45.6879836735
  0
LINE
  5
8B2
100
AcDbEntity
  8
0
100
AcDbLine
 62
7
  6
CONTINUOUS
 10
-4.1483591837
 20
45.6879836735
 11
-5.3483591837
 21
45.6879836735
  0
LINE
  5
8B3
100
AcDbEntity
  8
0
100
AcDbLine
 62
7
  6
CONTINUOUS
 10
-15.9483591837
 20
45.6879836735
 11
-17.1483591837
 21
45.6879836735
  0
LINE
  5
8B4
100
AcDbEntity
  8
ASSI
100
AcDbLine
 62
7
  6
CONTINUOUS
 10
-2.5903648979
 20
45.7752523514
 11
-3.4356278616
 21
45.7752523514
  0
LINE
  5
8B5
100
AcDbEntity
  8
ASSI
100
AcDbLine
 62
7
  6
CONTINUOUS
 10
-17.8610905058
 20
45.7752523514
 11
-18.7063534695
 21
45.7752523514
  0
LINE
  5
8B6
100
AcDbEntity
  8
ASSI
100
AcDbLine
 62
7
  6
CONTINUOUS
 10
-4.0610905058
 20
45.8625343228
 11
-5.522909833
 21
45.8625343228
  0
LINE
  5
8B7
100
AcDbEntity
  8
ASSI
100
AcDbLine
 62
7
  6
CONTINUOUS
 10
-15.7738085344
 20
45.8625343228
 11
-17.2356278616
 21
45.8625343228
  0
LINE
  5
8B8
100
AcDbEntity
  8
ASSI
100
AcDbLine
 62
253
  6
CONTINUOUS
 10
-2.5903648979
 20
46.0132806961
 11
-7.5909355965
 21
46.0132806961
  0
LINE
  5
8B9
100
AcDbEntity
  8
ASSI
100
AcDbLine
 62
253
  6
CONTINUOUS
 10
-13.7057827708
 20
46.0132806961
 11
-18.7063534695
 21
46.0132806961
  0
LINE
  5
8BA
100
AcDbEntity
  8
ASSI
100
AcDbLine
 62
7
  6
CONTINUOUS
 10
-13.7140687421
 20
46.4879836735
 11
-7.5826496252
 21
46.4879836735
  0
LINE
  5
8BB
100
AcDbEntity
  8
0
100
AcDbLine
 62
7
  6
CONTINUOUS
 10
-5.3483591837
 20
44.7879836735
 11
-5.522909833
 21
44.8752523514
  0
LINE
  5
8BC
100
AcDbEntity
  8
0
100
AcDbLine
 62
7
  6
CONTINUOUS
 10
-0.2062418577
 20
43.8230700206
 11
-2.0211555105
 21
45.6379836735
  0
LINE
  5
8BD
100
AcDbEntity
  8
RACCORDO
100
AcDbLine
 62
7
  6
CONTINUOUS
 10
-0.2062418577
 20
43.8230700206
 11
-2.0211555105
 21
45.6379836735
  0
LINE
  5
8BE
100
AcDbEntity
  8
ASSI
100
AcDbLine
 62
7
  6
CONTINUOUS
 10
-3.3932457735
 20
47.1705286085
 11
-2.4158142486
 21
46.1930970836
  0
LINE
  5
8BF
100
AcDbEntity
  8
0
100
AcDbLine
 62
7
  6
CONTINUOUS
 10
-0.0840564032
 20
43.873680893
 11
-1.8483591837
 21
45.6379836735
  0
LINE
  5
8C0
100
AcDbEntity
  8
RACCORDO
100
AcDbLine
 62
7
  6
CONTINUOUS
 10
-0.0840564032
 20
43.873680893
 11
-1.8483591837
 21
45.6379836735
  0
LWPOLYLINE
  5
8C1
100
AcDbEntity
  8
ASSI
100
AcDbPolyline
 62
7
  6
CONTINUOUS
 90
10
 70
0
 10
-1.3949822134
 20
1.1601524571
 10
-1.4132748959
 20
1.1408395903
 10
-1.4342165558
 20
1.1201168032
 10
-1.4571505747
 20
1.0979840959
 10
-1.4812887488
 20
1.074142706
 10
-1.5062164582
 20
1.0488913959
 10
-1.5320082183
 20
1.0231264522
 10
-1.5584796295
 20
0.9971466371
 10
-1.5850848598
 20
0.9706531885
 10
-1.6114885644
 20
0.9436461062
  0
LINE
  5
8C2
100
AcDbEntity
  8
ASSI
100
AcDbLine
 62
7
  6
CONTINUOUS
 10
-2.1483591837
 20
2.3879836735
 11
-2.1351917268
 21
2.4011511304
  0
LINE
  5
8C3
100
AcDbEntity
  8
ASSI
100
AcDbLine
 62
253
  6
CONTINUOUS
 10
-3.4351917268
 20
0.5011206694
 11
-3.4483591837
 21
0.4879532125
  0
LINE
  5
8C4
100
AcDbEntity
  8
ASSI
100
AcDbLine
 62
253
  6
CONTINUOUS
 10
-3.2352221877
 20
0.3011511304
 11
-3.2483896446
 21
0.2879836735
  0
LINE
  5
8C5
100
AcDbEntity
  8
ASSI
100
AcDbLine
 62
7
  6
CONTINUOUS
 10
-2.5903648979
 20
3.8007149956
 11
-2.4158142486
 21
3.8879836735
  0
LINE
  5
8C6
100
AcDbEntity
  8
ASSI
100
AcDbLine
 62
7
  6
CONTINUOUS
 10
-2.5898935809
 20
3.3318742328
 11
-2.4158142486
 21
3.3828702633
  0
LINE
  5
8C7
100
AcDbEntity
  8
ASSI
100
AcDbLine
 62
7
  6
CONTINUOUS
 10
-11.4483591837
 20
47.1879836735
 11
-11.4658142486
 21
47.1862383424
  0
LWPOLYLINE
  5
8C8
100
AcDbEntity
  8
RACCORDO
100
AcDbPolyline
 62
253
  6
CONTINUOUS
 90
4
 70
0
 10
-6.3186978989
 20
48.4396598487
 10
-6.3065282145
 20
48.4399634929
 10
-6.298860561
 20
48.4402778717
 10
-6.2957779482
 20
48.4406029852
  0
LINE
  5
8C9
100
AcDbEntity
  8
ASSI
100
AcDbLine
 62
253
  6
CONTINUOUS
 10
-3.3471358409
 20
47.0131283913
 11
-7.5734831901
 21
47.0131283913
  0
LINE
  5
8CA
100
AcDbEntity
  8
ASSI
100
AcDbLine
 62
253
  6
CONTINUOUS
 10
-13.7232351773
 20
47.0131283913
 11
-17.9495825264
 21
47.0131283913
  0
LINE
  5
8CB
100
AcDbEntity
  8
ASSI
100
AcDbLine
 62
7
  6
CONTINUOUS
 10
-0.0657380962
 20
47.1705286085
 11
-1.6114885644
 21
47.1705286085
  0
LINE
  5
8CC
100
AcDbEntity
  8
ASSI
100
AcDbLine
 62
7
  6
CONTINUOUS
 10
-1.885229803
 20
47.1705286085
 11
-3.3932457735
 21
47.1705286085
  0
LINE
  5
8CD
100
AcDbEntity
  8
ASSI
100
AcDbLine
 62
7
  6
CONTINUOUS
 10
-17.9034725938
 20
47.1705286085
 11
-19.4114885644
 21
47.1705286085
  0
LINE
  5
8CE
100
AcDbEntity
  8
ASSI
100
AcDbLine
 62
7
  6
CONTINUOUS
 10
-19.685229803
 20
47.1705286085
 11
-21.2309802712
 21
47.1705286085
  0
LINE
  5
8CF
100
AcDbEntity
  8
ASSI
100
AcDbLine
 62
7
  6
CONTINUOUS
 10
-9.8309041187
 20
47.1862383424
 11
-11.4658142486
 21
47.1862383424
  0
LINE
  5
8D0
100
AcDbEntity
  8
ASSI
100
AcDbLine
 62
7
  6
CONTINUOUS
 10
-0.0483591191
 20
47.1879836089
 11
-1.3483591837
 21
47.1879836735
  0
LINE
  5
8D1
100
AcDbEntity
  8
ASSI
100
AcDbLine
 62
7
  6
CONTINUOUS
 10
-2.1483591837
 20
47.1879836735
 11
-6.1983591837
 21
47.1879836735
  0
LINE
  5
8D2
100
AcDbEntity
  8
ASSI
100
AcDbLine
 62
7
  6
CONTINUOUS
 10
-15.0983591837
 20
47.1879836735
 11
-19.1483591837
 21
47.1879836735
  0
LINE
  5
8D3
100
AcDbEntity
  8
ASSI
100
AcDbLine
 62
7
  6
CONTINUOUS
 10
-19.9483591837
 20
47.1879836735
 11
-21.2483591837
 21
47.1879836735
  0
LINE
  5
8D4
100
AcDbEntity
  8
ASSI
100
AcDbLine
 62
7
  6
CONTINUOUS
 10
-0.2466441428
 20
47.9106334043
 11
-1.3483591837
 21
47.9106334043
  0
LINE
  5
8D5
100
AcDbEntity
  8
ASSI
100
AcDbLine
 62
7
  6
CONTINUOUS
 10
-2.1483591837
 20
47.9106334043
 11
-3.2500742246
 21
47.9106334043
  0
LINE
  5
8D6
100
AcDbEntity
  8
ASSI
100
AcDbLine
 62
7
  6
CONTINUOUS
 10
-18.0466441428
 20
47.9106334043
 11
-19.1483591837
 21
47.9106334043
  0
LINE
  5
8D7
100
AcDbEntity
  8
ASSI
100
AcDbLine
 62
7
  6
CONTINUOUS
 10
-19.9483591837
 20
47.9106334043
 11
-21.0500742246
 21
47.9106334043
  0
LINE
  5
8D8
100
AcDbEntity
  8
ASSI
100
AcDbLine
 62
7
  6
CONTINUOUS
 10
-9.8483591837
 20
47.1879836735
 11
-9.8309041187
 21
47.1862383424
  0
LWPOLYLINE
  5
8D9
100
AcDbEntity
  8
RACCORDO
100
AcDbPolyline
 62
253
  6
CONTINUOUS
 90
5
 70
0
 10
-15.000938473
 20
48.4406022011
 10
-14.9978503043
 20
48.4402773156
 10
-14.9901845052
 20
48.4399630756
 10
-14.978020166
 20
48.4396594812
 10
-14.9407506988
 20
48.4390780631
  0
LWPOLYLINE
  5
8DA
100
AcDbEntity
  8
RACCORDO
100
AcDbPolyline
 62
253
  6
CONTINUOUS
 90
9
 70
0
 10
-14.7509784954
 20
48.690564909
 10
-14.7496223289
 20
48.6902402398
 10
-14.7464677947
 20
48.689926113
 10
-14.7415148928
 20
48.6896225285
 10
-14.7346710472
 20
48.6893263778
 10
-14.7260288339
 20
48.6890407694
 10
-14.7158659811
 20
48.6887750291
 10
-14.7041339217
 20
48.6885298637
 10
-14.6765313134
 20
48.6881063433
  0
LINE
  5
8DB
100
AcDbEntity
  8
ASSI
100
AcDbLine
 62
7
  6
CONTINUOUS
 10
-2.5898935809
 20
46.2440931141
 11
-2.4158142486
 21
46.1930970836
  0
LINE
  5
8DC
100
AcDbEntity
  8
ASSI
100
AcDbLine
 62
7
  6
CONTINUOUS
 10
-2.5903648979
 20
45.7752523514
 11
-2.4158142486
 21
45.6879836735
  0
LWPOLYLINE
  5
8DD
100
AcDbEntity
  8
ASSI
100
AcDbPolyline
 62
7
  6
CONTINUOUS
 90
10
 70
0
 10
-1.3949822134
 20
48.4158148898
 10
-1.4142950802
 20
48.4341075723
 10
-1.4350178673
 20
48.4550492322
 10
-1.4571505747
 20
48.477983251
 10
-1.4809919645
 20
48.5021214251
 10
-1.5062432746
 20
48.5270491346
 10
-1.5320082183
 20
48.5528408947
 10
-1.5579880334
 20
48.5793123059
 10
-1.5844814821
 20
48.6059175362
 10
-1.6114885644
 20
48.6323212408
  0
LINE
  5
8DE
100
AcDbEntity
  8
ASSI
100
AcDbLine
 62
7
  6
CONTINUOUS
 10
-2.1483591837
 20
47.1879836735
 11
-2.1351917268
 21
47.1748162166
  0
LINE
  5
8DF
100
AcDbEntity
  8
ASSI
100
AcDbLine
 62
253
  6
CONTINUOUS
 10
-3.4483591837
 20
49.0880141344
 11
-3.4351917268
 21
49.0748466775
  0
LINE
  5
8E0
100
AcDbEntity
  8
ASSI
100
AcDbLine
 62
253
  6
CONTINUOUS
 10
-3.2483896446
 20
49.2879836735
 11
-3.2352221877
 21
49.2748162166
  0
LWPOLYLINE
  5
8E1
100
AcDbEntity
  8
ASSI
100
AcDbPolyline
 62
253
  6
CONTINUOUS
 90
13
 70
0
 10
-3.2352221877
 20
49.2748162166
 10
-3.2613184522
 20
49.2730981589
 10
-3.286968369
 20
49.2679892698
 10
-3.3117332303
 20
49.259576932
 10
-3.3351894671
 20
49.248005029
 10
-3.3569358918
 20
49.2334714851
 10
-3.3766005602
 20
49.2162248805
 10
-3.3938471357
 20
49.1965601987
 10
-3.4083806423
 20
49.1748137785
 10
-3.4199525074
 20
49.1513575628
 10
-3.4283648123
 20
49.1265927384
 10
-3.433473678
 20
49.1009428747
 10
-3.4351917268
 20
49.0748466775
  0
LWPOLYLINE
  5
8E2
100
AcDbEntity
  8
RACCORDO
100
AcDbPolyline
 62
253
  6
CONTINUOUS
 90
13
 70
0
 10
-14.7509784954
 20
48.690564909
 10
-14.7835973172
 20
48.6884175364
 10
-14.8156585437
 20
48.6820319447
 10
-14.8466138315
 20
48.6715172414
 10
-14.8759337164
 20
48.657053166
 10
-14.9031167121
 20
48.6388869999
 10
-14.927697878
 20
48.6173293242
 10
-14.9492567402
 20
48.5927487202
 10
-14.9674244275
 20
48.5655655626
 10
-14.9818900555
 20
48.5362448262
 10
-14.9924061165
 20
48.5052880229
 10
-14.9987926778
 20
48.4732246013
 10
-15.000940419
 20
48.4406029851
  0
LWPOLYLINE
  5
8E3
100
AcDbEntity
  8
RACCORDO
100
AcDbPolyline
 62
7
  6
CONTINUOUS
 90
12
 70
0
 10
-6.8983591837
 20
48.6906186228
 10
-6.930989263
 20
48.6884803576
 10
-6.9630613386
 20
48.6821020757
 10
-6.994026669
 20
48.671592802
 10
-7.0233554131
 20
48.6571322526
 10
-7.0505457387
 20
48.6389677444
 10
-7.0751323996
 20
48.6174099503
 10
-7.0966946649
 20
48.5928275965
 10
-7.1148634624
 20
48.5656412503
 10
-7.1293277682
 20
48.5363161213
 10
-7.139840001
 20
48.5053539911
 10
-7.1462202243
 20
48.4732846042
  0
LWPOLYLINE
  5
8E4
100
AcDbEntity
  8
ASSI
100
AcDbPolyline
 62
7
  6
CONTINUOUS
 90
13
 70
0
 10
-21.0483896446
 20
49.2879836735
 10
-21.0744917715
 20
49.2862734093
 10
-21.1001469498
 20
49.2811712329
 10
-21.1249164712
 20
49.2727642517
 10
-21.148376928
 20
49.2611960106
 10
-21.1701267339
 20
49.2466642234
 10
-21.1897931559
 20
49.2294176457
 10
-21.2070397337
 20
49.2097512237
 10
-21.2215715208
 20
49.1880014178
 10
-21.2331397619
 20
49.164540961
 10
-21.2415467431
 20
49.1397714396
 10
-21.2466489195
 20
49.1141162613
 10
-21.2483591837
 20
49.0880141344
  0
LWPOLYLINE
  5
8E5
100
AcDbEntity
  8
ASSI
100
AcDbPolyline
 62
253
  6
CONTINUOUS
 90
13
 70
0
 10
-18.0619173246
 20
48.4158148898
 10
-18.0359592129
 20
48.4174764913
 10
-18.0104403452
 20
48.4220407817
 10
-17.9857925261
 20
48.4294305264
 10
-17.9624328196
 20
48.4395206819
 10
-17.9407564951
 20
48.4521405107
 10
-17.9211303379
 20
48.4670764691
 10
-17.9038864404
 20
48.4840758227
 10
-17.8893165818
 20
48.502850925
 10
-17.877667294
 20
48.5230840836
 10
-17.8691356913
 20
48.544432934
 10
-17.8638661341
 20
48.5665362326
 10
-17.8619477856
 20
48.5890199706
  0
LWPOLYLINE
  5
8E6
100
AcDbEntity
  8
RACCORDO
100
AcDbPolyline
 62
253
  6
CONTINUOUS
 90
7
 70
0
 10
-14.4315321487
 20
48.6888218965
 10
-14.4216598988
 20
48.6890910222
 10
-14.4133289125
 20
48.6893794951
 10
-14.4068066062
 20
48.6896774756
 10
-14.4021821186
 20
48.6899816837
 10
-14.3993663112
 20
48.6902953995
 10
-14.3983591837
 20
48.6906186228
  0
LWPOLYLINE
  5
8E7
100
AcDbEntity
  8
RACCORDO
100
AcDbPolyline
 62
253
  6
CONTINUOUS
 90
7
 70
0
 10
-6.5807041693
 20
48.6887785636
 10
-6.5705643502
 20
48.6890446409
 10
-6.5619462174
 20
48.689330532
 10
-6.555126982
 20
48.68962648
 10
-6.5501990478
 20
48.6899292327
 10
-6.5470700112
 20
48.6902420424
 10
-6.545739872
 20
48.690564909
  0
LWPOLYLINE
  5
8E8
100
AcDbEntity
  8
RACCORDO
100
AcDbPolyline
 62
253
  6
CONTINUOUS
 90
5
 70
0
 10
-14.1848143142
 20
48.439412836
 10
-14.1689955125
 20
48.4397108153
 10
-14.1575724298
 20
48.4400159237
 10
-14.1506687407
 20
48.4403312183
 10
-14.1483591837
 20
48.440656699
  0
LINE
  5
8E9
100
AcDbEntity
  8
RACCORDO
100
AcDbLine
 62
253
  6
CONTINUOUS
 10
-14.4559987186
 20
48.6883433458
 11
-14.4315321487
 21
48.6888218965
  0
LINE
  5
8EA
100
AcDbEntity
  8
RACCORDO
100
AcDbLine
 62
253
  6
CONTINUOUS
 10
-6.605645476
 20
48.6883075387
 11
-6.5807041693
 21
48.6887785636
  0
LINE
  5
8EB
100
AcDbEntity
  8
RACCORDO
100
AcDbLine
 62
253
  6
CONTINUOUS
 10
-6.3559689294
 20
48.4390787062
 11
-6.3186978989
 21
48.4396598487
  0
LINE
  5
8EC
100
AcDbEntity
  8
RACCORDO
100
AcDbLine
 62
253
  6
CONTINUOUS
 10
-14.4854225793
 20
48.6879651057
 11
-14.4559987186
 21
48.6883433458
  0
LINE
  5
8ED
100
AcDbEntity
  8
RACCORDO
100
AcDbLine
 62
253
  6
CONTINUOUS
 10
-14.2289077423
 20
48.4388566073
 11
-14.1848143142
 21
48.439412836
  0
LINE
  5
8EE
100
AcDbEntity
  8
RACCORDO
100
AcDbLine
 62
253
  6
CONTINUOUS
 10
-6.6354430131
 20
48.6879383195
 11
-6.605645476
 21
48.6883075387
  0
LINE
  5
8EF
100
AcDbEntity
  8
RACCORDO
100
AcDbLine
 62
253
  6
CONTINUOUS
 10
-6.440849921
 20
48.438343288
 11
-6.3559689294
 21
48.4390787062
  0
LINE
  5
8F0
100
AcDbEntity
  8
RACCORDO
100
AcDbLine
 62
253
  6
CONTINUOUS
 10
-14.3222952224
 20
48.4381766167
 11
-14.2289077423
 21
48.4388566073
  0
LINE
  5
8F1
100
AcDbEntity
  8
RACCORDO
100
AcDbLine
 62
253
  6
CONTINUOUS
 10
-14.5365058849
 20
48.6876145381
 11
-14.4854225793
 21
48.6879651057
  0
LINE
  5
8F2
100
AcDbEntity
  8
RACCORDO
100
AcDbLine
 62
253
  6
CONTINUOUS
 10
-6.6868690146
 20
48.6876033664
 11
-6.6354430131
 21
48.6879383195
  0
LINE
  5
8F3
100
AcDbEntity
  8
RACCORDO
100
AcDbLine
 62
253
  6
CONTINUOUS
 10
-6.5945486377
 20
48.4377202159
 11
-6.440849921
 21
48.438343288
  0
LINE
  5
8F4
100
AcDbEntity
  8
RACCORDO
100
AcDbLine
 62
253
  6
CONTINUOUS
 10
-14.5266676536
 20
48.43759931
 11
-14.3222952224
 21
48.4381766167
  0
LINE
  5
8F5
100
AcDbEntity
  8
ASSI
100
AcDbLine
 62
253
  6
CONTINUOUS
 10
-19.1949822134
 20
48.4158148898
 11
-18.0619173246
 21
48.4158148898
  0
LINE
  5
8F6
100
AcDbEntity
  8
ASSI
100
AcDbLine
 62
253
  6
CONTINUOUS
 10
-3.2348010427
 20
48.4158148898
 11
-2.1017361539
 21
48.4158148898
  0
LINE
  5
8F7
100
AcDbEntity
  8
ASSI
100
AcDbLine
 62
253
  6
CONTINUOUS
 10
-1.3949822134
 20
48.4158148898
 11
-0.2619173246
 21
48.4158148898
  0
LINE
  5
8F8
100
AcDbEntity
  8
ASSI
100
AcDbLine
 62
253
  6
CONTINUOUS
 10
-21.0348010452
 20
48.4158148096
 11
-19.9017361539
 21
48.4158148898
  0
LINE
  5
8F9
100
AcDbEntity
  8
ASSI
100
AcDbLine
 62
253
  6
CONTINUOUS
 10
-21.2343342052
 20
48.6323212408
 11
-19.685229803
 21
48.6323212408
  0
LINE
  5
8FA
100
AcDbEntity
  8
ASSI
100
AcDbLine
 62
253
  6
CONTINUOUS
 10
-19.4114885644
 20
48.6323212408
 11
-17.8623841622
 21
48.6323212408
  0
LINE
  5
8FB
100
AcDbEntity
  8
ASSI
100
AcDbLine
 62
253
  6
CONTINUOUS
 10
-0.0623841622
 20
48.6323212408
 11
-1.6114885644
 21
48.6323212408
  0
LINE
  5
8FC
100
AcDbEntity
  8
ASSI
100
AcDbLine
 62
253
  6
CONTINUOUS
 10
-1.885229803
 20
48.6323212408
 11
-3.4343342052
 21
48.6323212408
  0
LINE
  5
8FD
100
AcDbEntity
  8
RACCORDO
100
AcDbLine
 62
7
  6
CONTINUOUS
 10
-14.3983591837
 20
48.7705286085
 11
-11.7157761724
 21
48.7705286085
  0
LINE
  5
8FE
100
AcDbEntity
  8
RACCORDO
100
AcDbLine
 62
7
  6
CONTINUOUS
 10
-9.580942195
 20
48.7705286085
 11
-6.8983591837
 21
48.7705286085
  0
LINE
  5
8FF
100
AcDbEntity
  8
RACCORDO
100
AcDbLine
 62
7
  6
CONTINUOUS
 10
-6.4483211075
 20
48.7879836735
 11
-9.5983972599
 21
48.7879836735
  0
LINE
  5
900
100
AcDbEntity
  8
RACCORDO
100
AcDbLine
 62
7
  6
CONTINUOUS
 10
-11.6983211075
 20
48.7879836735
 11
-14.8483972599
 21
48.7879836735
  0
LINE
  5
901
100
AcDbEntity
  8
ASSI
100
AcDbLine
 62
253
  6
CONTINUOUS
 10
-21.2343342052
 20
49.0248542928
 11
-17.8623841622
 21
49.0248542928
  0
LINE
  5
902
100
AcDbEntity
  8
ASSI
100
AcDbLine
 62
253
  6
CONTINUOUS
 10
-0.0623841622
 20
49.0248542928
 11
-3.4343342052
 21
49.0248542928
  0
LINE
  5
903
100
AcDbEntity
  8
ASSI
100
AcDbLine
 62
253
  6
CONTINUOUS
 10
-21.0352221877
 20
49.2748162166
 11
-18.0614961796
 21
49.2748162166
  0
LINE
  5
904
100
AcDbEntity
  8
ASSI
100
AcDbLine
 62
253
  6
CONTINUOUS
 10
-3.2352221877
 20
49.2748162166
 11
-0.2614961796
 21
49.2748162166
  0
LINE
  5
905
100
AcDbEntity
  8
ASSI
100
AcDbLine
 62
7
  6
CONTINUOUS
 10
-0.2483287227
 20
49.2879836735
 11
-3.2483896446
 21
49.2879836735
  0
LINE
  5
906
100
AcDbEntity
  8
ASSI
100
AcDbLine
 62
7
  6
CONTINUOUS
 10
-18.0483287227
 20
49.2879836735
 11
-21.0483896446
 21
49.2879836735
  0
LINE
  5
907
100
AcDbEntity
  8
RACCORDO
100
AcDbLine
 62
253
  6
CONTINUOUS
 10
-14.5912913337
 20
48.6875551973
 11
-14.5365058849
 21
48.6876145381
  0
LINE
  5
908
100
AcDbEntity
  8
RACCORDO
100
AcDbLine
 62
253
  6
CONTINUOUS
 10
-6.7417054519
 20
48.6875607233
 11
-6.6868690146
 21
48.6876033664
  0
LINE
  5
909
100
AcDbEntity
  8
RACCORDO
100
AcDbLine
 62
253
  6
CONTINUOUS
 10
-6.8138232989
 20
48.4376521063
 11
-6.5945486377
 21
48.4377202159
  0
LINE
  5
90A
100
AcDbEntity
  8
RACCORDO
100
AcDbLine
 62
253
  6
CONTINUOUS
 10
-14.7437659229
 20
48.4378314583
 11
-14.5266676536
 21
48.43759931
  0
LINE
  5
90B
100
AcDbEntity
  8
RACCORDO
100
AcDbLine
 62
253
  6
CONTINUOUS
 10
-7.0087710574
 20
48.4383784372
 11
-6.8138232989
 21
48.4376521063
  0
LINE
  5
90C
100
AcDbEntity
  8
RACCORDO
100
AcDbLine
 62
253
  6
CONTINUOUS
 10
-14.6444685482
 20
48.6877928766
 11
-14.5912913337
 21
48.6875551973
  0
LINE
  5
90D
100
AcDbEntity
  8
RACCORDO
100
AcDbLine
 62
253
  6
CONTINUOUS
 10
-6.7946369479
 20
48.6878145652
 11
-6.7417054519
 21
48.6875607233
  0
LINE
  5
90E
100
AcDbEntity
  8
RACCORDO
100
AcDbLine
 62
253
  6
CONTINUOUS
 10
-14.8876547302
 20
48.4385676841
 11
-14.7437659229
 21
48.4378314583
  0
LINE
  5
90F
100
AcDbEntity
  8
RACCORDO
100
AcDbLine
 62
253
  6
CONTINUOUS
 10
-14.9407506988
 20
48.4390780631
 11
-14.8876547302
 21
48.4385676841
  0
LINE
  5
910
100
AcDbEntity
  8
RACCORDO
100
AcDbLine
 62
253
  6
CONTINUOUS
 10
-14.6765313134
 20
48.6881063433
 11
-14.6444685482
 21
48.6877928766
  0
LINE
  5
911
100
AcDbEntity
  8
RACCORDO
100
AcDbLine
 62
253
  6
CONTINUOUS
 10
-6.8263814407
 20
48.6881377514
 11
-6.7946369479
 21
48.6878145652
  0
LWPOLYLINE
  5
912
100
AcDbEntity
  8
ASSI
100
AcDbPolyline
 62
253
  6
CONTINUOUS
 90
13
 70
0
 10
-3.2348010427
 20
48.4158148898
 10
-3.2607591143
 20
48.4174764865
 10
-3.2862779502
 20
48.4220407646
 10
-3.3109257472
 20
48.4294304922
 10
-3.3342854405
 20
48.4395206279
 10
-3.3559617618
 20
48.452140437
 10
-3.3755879266
 20
48.4670763801
 10
-3.3928318413
 20
48.4840757264
 10
-3.4074017222
 20
48.5028508308
 10
-3.4190510329
 20
48.5230840003
 10
-3.4275826558
 20
48.5444328701
 10
-3.4328522275
 20
48.5665361968
 10
-3.4347705818
 20
48.5890199706
  0
LWPOLYLINE
  5
913
100
AcDbEntity
  8
RACCORDO
100
AcDbPolyline
 62
7
  6
CONTINUOUS
 90
13
 70
0
 10
-14.3983591837
 20
48.6906186228
 10
-14.3657276358
 20
48.6884801639
 10
-14.3336544228
 20
48.6821013769
 10
-14.3026883263
 20
48.6715914046
 10
-14.2733591847
 20
48.6571300755
 10
-14.2461688277
 20
48.6389648271
 10
-14.2215824897
 20
48.6174064716
 10
-14.2000208498
 20
48.5928238784
 10
-14.1818528337
 20
48.5656376625
 10
-14.1673893012
 20
48.5363129875
 10
-14.1568777275
 20
48.5053516067
 10
-14.1504979684
 20
48.4732832778
 10
-14.1483591837
 20
48.440656699
  0
LWPOLYLINE
  5
914
100
AcDbEntity
  8
ASSI
100
AcDbPolyline
 62
7
  6
CONTINUOUS
 90
13
 70
0
 10
-0.2483287227
 20
49.2879836735
 10
-0.2222265959
 20
49.2862734093
 10
-0.1965714176
 20
49.2811712329
 10
-0.1718018962
 20
49.2727642517
 10
-0.1483414393
 20
49.2611960106
 10
-0.1265916334
 20
49.2466642234
 10
-0.1069252114
 20
49.2294176457
 10
-0.0896786337
 20
49.2097512237
 10
-0.0751468465
 20
49.1880014178
 10
-0.0635786054
 20
49.164540961
 10
-0.0551716242
 20
49.1397714396
 10
-0.0500694479
 20
49.1141162613
 10
-0.0483591837
 20
49.0880141344
  0
LWPOLYLINE
  5
915
100
AcDbEntity
  8
ASSI
100
AcDbPolyline
 62
253
  6
CONTINUOUS
 90
13
 70
0
 10
-18.0614961796
 20
49.2748162166
 10
-18.0353999482
 20
49.2730981633
 10
-18.0097500576
 20
49.2679892857
 10
-17.9849852146
 20
49.2595769641
 10
-17.9615289886
 20
49.2480050801
 10
-17.9397825666
 20
49.233471555
 10
-17.9201178919
 20
49.2162249653
 10
-17.9028713021
 20
49.1965602905
 10
-17.8883377771
 20
49.1748138685
 10
-17.876765893
 20
49.1513576425
 10
-17.8683535715
 20
49.1265927996
 10
-17.8632446938
 20
49.100942909
 10
-17.8615266406
 20
49.0748466775
  0
LWPOLYLINE
  5
916
100
AcDbEntity
  8
RACCORDO
100
AcDbPolyline
 62
253
  6
CONTINUOUS
 90
13
 70
0
 10
-6.545739872
 20
48.690564909
 10
-6.5131195829
 20
48.6884173424
 10
-6.4810572199
 20
48.6820312455
 10
-6.4501011664
 20
48.6715158437
 10
-6.4207808842
 20
48.6570509889
 10
-6.393597857
 20
48.638884083
 10
-6.3690170136
 20
48.6173258462
 10
-6.3474587763
 20
48.592745003
 10
-6.3292918698
 20
48.5655619756
 10
-6.3148270144
 20
48.536241693
 10
-6.3043116122
 20
48.505285639
 10
-6.2979255149
 20
48.4732232752
 10
-6.2957779482
 20
48.4406029852
  0
LWPOLYLINE
  5
917
100
AcDbEntity
  8
RACCORDO
100
AcDbPolyline
 62
253
  6
CONTINUOUS
 90
7
 70
0
 10
-7.1483591693
 20
48.4406559118
 10
-7.1460431888
 20
48.4403306605
 10
-7.1391407124
 20
48.4400155055
 10
-7.1277225673
 20
48.4397104468
 10
-7.1119068609
 20
48.4394123732
 10
-7.0918621439
 20
48.4391243959
 10
-7.0087710574
 20
48.4383784372
  0
LWPOLYLINE
  5
918
100
AcDbEntity
  8
RACCORDO
100
AcDbPolyline
 62
253
  6
CONTINUOUS
 90
9
 70
0
 10
-6.8983591837
 20
48.6906186228
 10
-6.8973278328
 20
48.6902935892
 10
-6.8944878484
 20
48.6899785487
 10
-6.8898392305
 20
48.6896735014
 10
-6.8832925265
 20
48.6893753109
 10
-6.874937189
 20
48.6890871135
 10
-6.8650415759
 20
48.6888183179
 10
-6.853556419
 20
48.6885696159
 10
-6.8263814407
 20
48.6881377514
  0
ARC
  5
919
100
AcDbEntity
  8
ASSI
100
AcDbCircle
 62
7
  6
CONTINUOUS
 10
-20.1542675544
 20
5.8979836735
 40
0.71
100
AcDbArc
 50
229.7020215745
 51
265.2988538673
  0
ARC
  5
91A
100
AcDbEntity
  8
ASSI
100
AcDbCircle
 62
7
  6
CONTINUOUS
 10
-20.9383591837
 20
6.6820753028
 40
0.71
100
AcDbArc
 50
184.7020215745
 51
220.2988538673
  0
ARC
  5
91B
100
AcDbEntity
  8
ASSI
100
AcDbCircle
 62
7
  6
CONTINUOUS
 10
-14.6483591837
 20
1.5879836735
 40
0.5
100
AcDbArc
 50
154.1580672368
 51
205.8419327632
  0
ARC
  5
91C
100
AcDbEntity
  8
ASSI
100
AcDbCircle
 62
7
  6
CONTINUOUS
 10
-14.6483591837
 20
1.5879836735
 40
0.4904006794
100
AcDbArc
 50
136.2076703059
 51
223.7923296941
  0
ARC
  5
91D
100
AcDbEntity
  8
0
100
AcDbCircle
 62
7
  6
CONTINUOUS
 10
-12.3483591837
 20
7.2379836735
 40
0.3
100
AcDbArc
 50
90.0
 51
170.0
  0
ARC
  5
91E
100
AcDbEntity
  8
RACCORDO
100
AcDbCircle
 62
7
  6
CONTINUOUS
 10
-12.3483591837
 20
7.2379836735
 40
0.3
100
AcDbArc
 50
90.0
 51
170.0
  0
ARC
  5
91F
100
AcDbEntity
  8
ASSI
100
AcDbCircle
 62
7
  6
CONTINUOUS
 10
-20.1542675544
 20
43.6779836735
 40
0.71
100
AcDbArc
 50
109.9961491498
 51
114.2412807351
  0
ARC
  5
920
100
AcDbEntity
  8
ASSI
100
AcDbCircle
 62
7
  6
CONTINUOUS
 10
-20.9383591837
 20
42.8938920442
 40
0.71
100
AcDbArc
 50
139.7010712477
 51
175.2998279782
  0
ARC
  5
921
100
AcDbEntity
  8
ASSI
100
AcDbCircle
 62
7
  6
CONTINUOUS
 10
-14.6483591837
 20
47.9879836735
 40
0.5
100
AcDbArc
 50
154.1580672368
 51
205.8419327632
  0
ARC
  5
922
100
AcDbEntity
  8
ASSI
100
AcDbCircle
 62
7
  6
CONTINUOUS
 10
-14.6483591837
 20
47.9879836735
 40
0.4904006794
100
AcDbArc
 50
136.2076703059
 51
223.7923296941
  0
ARC
  5
923
100
AcDbEntity
  8
0
100
AcDbCircle
 62
7
  6
CONTINUOUS
 10
-12.3483591837
 20
42.3379836735
 40
0.3
100
AcDbArc
 50
189.8838085533
 51
270.0
  0
ARC
  5
924
100
AcDbEntity
  8
RACCORDO
100
AcDbCircle
 62
7
  6
CONTINUOUS
 10
-12.3483591837
 20
42.3379836735
 40
0.3
100
AcDbArc
 50
189.8838085533
 51
270.0
  0
ARC
  5
925
100
AcDbEntity
  8
ASSI
100
AcDbCircle
 62
7
  6
CONTINUOUS
 10
-0.3583591837
 20
8.0820753028
 40
0.71
100
AcDbArc
 50
319.7020215745
 51
355.2988538673
  0
ARC
  5
926
100
AcDbEntity
  8
ASSI
100
AcDbCircle
 62
7
  6
CONTINUOUS
 10
-1.142450813
 20
7.2979836735
 40
0.71
100
AcDbArc
 50
274.7020215745
 51
310.2988538673
  0
ARC
  5
927
100
AcDbEntity
  8
ASSI
100
AcDbCircle
 62
7
  6
CONTINUOUS
 10
-6.6483591837
 20
1.5879836735
 40
0.5
100
AcDbArc
 50
334.1580672368
 51
25.8419327632
  0
ARC
  5
928
100
AcDbEntity
  8
ASSI
100
AcDbCircle
 62
7
  6
CONTINUOUS
 10
-6.6483591837
 20
1.5879836735
 40
0.4904006794
100
AcDbArc
 50
316.2076703059
 51
43.7923296941
  0
ARC
  5
929
100
AcDbEntity
  8
0
100
AcDbCircle
 62
7
  6
CONTINUOUS
 10
-8.9483591837
 20
7.2379836735
 40
0.3
100
AcDbArc
 50
10.0
 51
90.0
  0
ARC
  5
92A
100
AcDbEntity
  8
RACCORDO
100
AcDbCircle
 62
7
  6
CONTINUOUS
 10
-8.9483591837
 20
7.2379836735
 40
0.3
100
AcDbArc
 50
10.0
 51
90.0
  0
ARC
  5
92B
100
AcDbEntity
  8
0
100
AcDbCircle
 62
7
  6
CONTINUOUS
 10
-1.4483591837
 20
41.9879836735
 40
1.4
100
AcDbArc
 50
9.8532892494
 51
90.0
  0
ARC
  5
92C
100
AcDbEntity
  8
ASSI
100
AcDbCircle
 62
7
  6
CONTINUOUS
 10
-1.142450813
 20
42.2779836735
 40
0.71
100
AcDbArc
 50
49.7010712477
 51
85.2998279782
  0
ARC
  5
92D
100
AcDbEntity
  8
ASSI
100
AcDbCircle
 62
7
  6
CONTINUOUS
 10
-0.3583591837
 20
41.4938920442
 40
0.71
100
AcDbArc
 50
4.7001961556
 51
40.2989529286
  0
ARC
  5
92E
100
AcDbEntity
  8
ASSI
100
AcDbCircle
 62
7
  6
CONTINUOUS
 10
-6.6483591837
 20
47.9879836735
 40
0.5
100
AcDbArc
 50
334.1580672368
 51
25.8419327632
  0
ARC
  5
92F
100
AcDbEntity
  8
ASSI
100
AcDbCircle
 62
7
  6
CONTINUOUS
 10
-6.6483591837
 20
47.9879836735
 40
0.4904006794
100
AcDbArc
 50
316.2076703059
 51
43.7923296941
  0
ARC
  5
930
100
AcDbEntity
  8
0
100
AcDbCircle
 62
7
  6
CONTINUOUS
 10
-8.9483591837
 20
42.3379836735
 40
0.3
100
AcDbArc
 50
270.0
 51
350.0
  0
ARC
  5
931
100
AcDbEntity
  8
RACCORDO
100
AcDbCircle
 62
7
  6
CONTINUOUS
 10
-8.9483591837
 20
42.3379836735
 40
0.3
100
AcDbArc
 50
270.0
 51
350.0
  0
ELLIPSE
  5
932
100
AcDbEntity
  8
0
100
AcDbEllipse
 62
7
  6
CONTINUOUS
 10
-8.8554659649
 20
6.5523582431
 30
0.0
 11
0.5
 21
-0.0
 31
0.0
 40
0.0087268678
 41
0.7853981634
 42
1.1434651843
  0
ELLIPSE
  5
933
100
AcDbEntity
  8
0
100
AcDbEllipse
 62
7
  6
CONTINUOUS
 10
-12.4412524025
 20
6.5523582431
 30
0.0
 11
0.5
 21
0.0
 31
0.0
 40
0.0087268678
 41
1.97725418
 42
2.3561944902
  0
ELLIPSE
  5
934
100
AcDbEntity
  8
0
100
AcDbEllipse
 62
7
  6
CONTINUOUS
 10
-19.7980545276
 20
42.459430356
 30
0.0
 11
1.8480888181
 21
-0.7655034529
 31
0.0
 40
0.9998215708
 41
2.7489566578
 42
3.5342286494
  0
ELLIPSE
  5
935
100
AcDbEntity
  8
0
100
AcDbEllipse
 62
7
  6
CONTINUOUS
 10
-19.7980545276
 20
7.1165369909
 30
0.0
 11
1.8480888181
 21
0.7655034529
 31
0.0
 40
0.9998215708
 41
2.7489566578
 42
3.5342286494
  0
ELLIPSE
  5
936
100
AcDbEntity
  8
0
100
AcDbEllipse
 62
7
  6
CONTINUOUS
 10
-1.4986638398
 20
7.1165369909
 30
0.0
 11
1.8480888181
 21
-0.7655034529
 31
0.0
 40
0.9998215708
 41
-0.3926359958
 42
0.3926359958
  0
ELLIPSE
  5
937
100
AcDbEntity
  8
0
100
AcDbEllipse
 62
7
  6
CONTINUOUS
 10
-1.4986638398
 20
42.459430356
 30
0.0
 11
1.8480888181
 21
0.7655034529
 31
0.0
 40
0.9998215708
 41
-0.3926359958
 42
0.3926359958
  0
ELLIPSE
  5
938
100
AcDbEntity
  8
0
100
AcDbEllipse
 62
7
  6
CONTINUOUS
 10
-1.3822087552
 20
7.021833245
 30
0.0
 11
-0.3535803156
 21
0.3535803156
 31
0.0
 40
0.9999238505
 41
-3.7928914266
 42
-3.437805147
  0
ELLIPSE
  5
939
100
AcDbEntity
  8
0
100
AcDbEllipse
 62
7
  6
CONTINUOUS
 10
-1.3822087552
 20
7.021833245
 30
0.0
 11
0.3535803156
 21
-0.3535803156
 31
0.0
 40
0.9999238505
 41
-0.7853600872
 42
-0.651298773
  0
ELLIPSE
  5
93A
100
AcDbEntity
  8
0
100
AcDbEllipse
 62
7
  6
CONTINUOUS
 10
-19.6758690731
 20
42.4088194837
 30
0.0
 11
1.8480888181
 21
-0.7655034529
 31
0.0
 40
0.9998215708
 41
9.032141965
 42
9.2322752141
  0
ELLIPSE
  5
93B
100
AcDbEntity
  8
0
100
AcDbEllipse
 62
7
  6
CONTINUOUS
 10
-19.6758690731
 20
42.4088194837
 30
0.0
 11
1.8480888181
 21
-0.7655034529
 31
0.0
 40
0.9998215708
 41
3.4204543746
 42
3.5342286494
  0
ELLIPSE
  5
93C
100
AcDbEntity
  8
0
100
AcDbEllipse
 62
7
  6
CONTINUOUS
 10
-19.6758690731
 20
7.1671478633
 30
0.0
 11
-1.8480888181
 21
-0.7655034529
 31
0.0
 40
0.9998215708
 41
-0.3926359958
 42
-0.278861721
  0
ELLIPSE
  5
93D
100
AcDbEntity
  8
0
100
AcDbEllipse
 62
7
  6
CONTINUOUS
 10
-19.6758690731
 20
7.1671478633
 30
0.0
 11
-1.8480888181
 21
-0.7655034529
 31
0.0
 40
0.9998215708
 41
6.4756880539
 42
6.675821303
  0
ELLIPSE
  5
93E
100
AcDbEntity
  8
0
100
AcDbEllipse
 62
7
  6
CONTINUOUS
 10
-1.6208492943
 20
7.1671478633
 30
0.0
 11
-1.8480888181
 21
0.7655034529
 31
0.0
 40
0.9998215708
 41
2.7489566578
 42
3.5342286494
  0
ELLIPSE
  5
93F
100
AcDbEntity
  8
0
100
AcDbEllipse
 62
7
  6
CONTINUOUS
 10
-1.6208492943
 20
42.4088194837
 30
0.0
 11
1.8480888181
 21
0.7655034529
 31
0.0
 40
0.9998215708
 41
-0.3926359958
 42
0.3926359958
  0
ELLIPSE
  5
940
100
AcDbEntity
  8
RACCORDO
100
AcDbEllipse
 62
7
  6
CONTINUOUS
 10
-1.3822087552
 20
7.021833245
 30
0.0
 11
-0.3535803156
 21
0.3535803156
 31
0.0
 40
0.9999238505
 41
-3.7928914266
 42
-3.437805147
  0
ELLIPSE
  5
941
100
AcDbEntity
  8
RACCORDO
100
AcDbEllipse
 62
7
  6
CONTINUOUS
 10
-1.3822087552
 20
7.021833245
 30
0.0
 11
0.3535803156
 21
-0.3535803156
 31
0.0
 40
0.9999238505
 41
-0.7853600872
 42
-0.651298773
  0
ELLIPSE
  5
942
100
AcDbEntity
  8
RACCORDO
100
AcDbEllipse
 62
7
  6
CONTINUOUS
 10
-8.8554659649
 20
6.5523582431
 30
0.0
 11
0.5
 21
-0.0
 31
0.0
 40
0.0087268678
 41
0.7853981634
 42
1.1434651843
  0
ELLIPSE
  5
943
100
AcDbEntity
  8
RACCORDO
100
AcDbEllipse
 62
7
  6
CONTINUOUS
 10
-12.4412524025
 20
6.5523582431
 30
0.0
 11
0.5
 21
0.0
 31
0.0
 40
0.0087268678
 41
1.97725418
 42
2.3561944902
  0
ELLIPSE
  5
944
100
AcDbEntity
  8
RACCORDO
100
AcDbEllipse
 62
7
  6
CONTINUOUS
 10
-1.4986638398
 20
42.459430356
 30
0.0
 11
1.8480888181
 21
0.7655034529
 31
0.0
 40
0.9998215708
 41
-0.3926359958
 42
0.3926359958
  0
ELLIPSE
  5
945
100
AcDbEntity
  8
RACCORDO
100
AcDbEllipse
 62
7
  6
CONTINUOUS
 10
-1.4986638398
 20
7.1165369909
 30
0.0
 11
1.8480888181
 21
-0.7655034529
 31
0.0
 40
0.9998215708
 41
-0.3926359958
 42
0.3926359958
  0
ELLIPSE
  5
946
100
AcDbEntity
  8
RACCORDO
100
AcDbEllipse
 62
7
  6
CONTINUOUS
 10
-19.7980545276
 20
7.1165369909
 30
0.0
 11
1.8480888181
 21
0.7655034529
 31
0.0
 40
0.9998215708
 41
2.7489566578
 42
3.5342286494
  0
ELLIPSE
  5
947
100
AcDbEntity
  8
RACCORDO
100
AcDbEllipse
 62
7
  6
CONTINUOUS
 10
-19.7980545276
 20
42.459430356
 30
0.0
 11
1.8480888181
 21
-0.7655034529
 31
0.0
 40
0.9998215708
 41
2.7489566578
 42
3.5342286494
  0
ELLIPSE
  5
948
100
AcDbEntity
  8
0
100
AcDbEllipse
 62
7
  6
CONTINUOUS
 10
-12.6482830197
 20
-117.0876587626
 30
0.0
 11
-0.4997620717
 21
162.4815824859
 31
0.0
 40
0.000109066
 41
6.3656902426
 42
6.3764914216
  0
ELLIPSE
  5
949
100
AcDbEntity
  8
0
100
AcDbEllipse
 62
7
  6
CONTINUOUS
 10
-12.6482830197
 20
166.6636261095
 30
0.0
 11
0.4997620717
 21
162.4815824859
 31
0.0
 40
0.000109066
 41
-3.234898768
 42
-3.224097589
  0
ELLIPSE
  5
94A
100
AcDbEntity
  8
0
100
AcDbEllipse
 62
7
  6
CONTINUOUS
 10
-8.6484353477
 20
-117.0876587626
 30
0.0
 11
0.4997620717
 21
162.4815824859
 31
0.0
 40
0.000109066
 41
-0.0933061144
 42
-0.0825049354
  0
ELLIPSE
  5
94B
100
AcDbEntity
  8
0
100
AcDbEllipse
 62
7
  6
CONTINUOUS
 10
-8.6484353477
 20
166.6636261095
 30
0.0
 11
-0.4997620717
 21
162.4815824859
 31
0.0
 40
0.000109066
 41
3.224097589
 42
3.234898768
  0
ELLIPSE
  5
94C
100
AcDbEntity
  8
RACCORDO
100
AcDbEllipse
 62
7
  6
CONTINUOUS
 10
-1.6208492943
 20
42.4088194837
 30
0.0
 11
1.8480888181
 21
0.7655034529
 31
0.0
 40
0.9998215708
 41
-0.3926359958
 42
0.3926359958
  0
ELLIPSE
  5
94D
100
AcDbEntity
  8
RACCORDO
100
AcDbEllipse
 62
7
  6
CONTINUOUS
 10
-1.6208492943
 20
7.1671478633
 30
0.0
 11
-1.8480888181
 21
0.7655034529
 31
0.0
 40
0.9998215708
 41
2.7489566578
 42
3.5342286494
  0
ELLIPSE
  5
94E
100
AcDbEntity
  8
RACCORDO
100
AcDbEllipse
 62
7
  6
CONTINUOUS
 10
-19.6758690731
 20
7.1671478633
 30
0.0
 11
-1.8480888181
 21
-0.7655034529
 31
0.0
 40
0.9998215708
 41
-0.3926359958
 42
-0.278861721
  0
ELLIPSE
  5
94F
100
AcDbEntity
  8
RACCORDO
100
AcDbEllipse
 62
7
  6
CONTINUOUS
 10
-19.6758690731
 20
7.1671478633
 30
0.0
 11
-1.8480888181
 21
-0.7655034529
 31
0.0
 40
0.9998215708
 41
6.4756880539
 42
6.675821303
  0
ELLIPSE
  5
950
100
AcDbEntity
  8
RACCORDO
100
AcDbEllipse
 62
7
  6
CONTINUOUS
 10
-19.6758690731
 20
42.4088194837
 30
0.0
 11
1.8480888181
 21
-0.7655034529
 31
0.0
 40
0.9998215708
 41
9.032141965
 42
9.2322752141
  0
ELLIPSE
  5
951
100
AcDbEntity
  8
RACCORDO
100
AcDbEllipse
 62
7
  6
CONTINUOUS
 10
-19.6758690731
 20
42.4088194837
 30
0.0
 11
1.8480888181
 21
-0.7655034529
 31
0.0
 40
0.9998215708
 41
3.4204543746
 42
3.5342286494
  0
ELLIPSE
  5
952
100
AcDbEntity
  8
RACCORDO
100
AcDbEllipse
 62
7
  6
CONTINUOUS
 10
-13.1483591837
 20
44.8324906992
 30
0.0
 11
1.0
 21
-0.0
 31
0.0
 40
0.0087268678
 41
1.5707963268
 42
3.1415926536
  0
ELLIPSE
  5
953
100
AcDbEntity
  8
RACCORDO
100
AcDbEllipse
 62
7
  6
CONTINUOUS
 10
-13.1483591837
 20
2.4944595695
 30
0.0
 11
1.0
 21
0.0
 31
0.0
 40
0.0174550649
 41
2.18440365
 42
3.1415926536
  0
ELLIPSE
  5
954
100
AcDbEntity
  8
RACCORDO
100
AcDbEllipse
 62
7
  6
CONTINUOUS
 10
-8.1483591837
 20
47.0815077774
 30
0.0
 11
1.0
 21
0.0
 31
0.0
 40
0.0174550649
 41
-0.9571890036
 42
0.0
  0
ELLIPSE
  5
955
100
AcDbEntity
  8
RACCORDO
100
AcDbEllipse
 62
7
  6
CONTINUOUS
 10
-8.1483591837
 20
44.8324906992
 30
0.0
 11
1.0
 21
-0.0
 31
0.0
 40
0.0087268678
 41
0.0
 42
1.5707963268
  0
ELLIPSE
  5
956
100
AcDbEntity
  8
RACCORDO
100
AcDbEllipse
 62
7
  6
CONTINUOUS
 10
-13.1483591837
 20
47.0815077774
 30
0.0
 11
1.0
 21
-0.0
 31
0.0
 40
0.0174550649
 41
3.1415926536
 42
4.0987816572
  0
ELLIPSE
  5
957
100
AcDbEntity
  8
RACCORDO
100
AcDbEllipse
 62
7
  6
CONTINUOUS
 10
-13.1483591837
 20
4.7434766477
 30
0.0
 11
1.0
 21
0.0
 31
0.0
 40
0.0087268678
 41
-3.1415926536
 42
-1.5707963268
  0
ELLIPSE
  5
958
100
AcDbEntity
  8
RACCORDO
100
AcDbEllipse
 62
7
  6
CONTINUOUS
 10
-8.1483591837
 20
4.7434766477
 30
0.0
 11
1.0
 21
0.0
 31
0.0
 40
0.0087268678
 41
-1.5707963268
 42
-0.0
  0
ELLIPSE
  5
959
100
AcDbEntity
  8
RACCORDO
100
AcDbEllipse
 62
7
  6
CONTINUOUS
 10
-8.1483591837
 20
2.4944595695
 30
0.0
 11
1.0
 21
0.0
 31
0.0
 40
0.0174550649
 41
-0.0
 42
0.9571890036
  0
ELLIPSE
  5
95A
100
AcDbEntity
  8
ASSI
100
AcDbEllipse
 62
7
  6
CONTINUOUS
 10
-10.6483591837
 20
44.9703752103
 30
0.0
 11
15.0
 21
-0.0
 31
0.0
 40
0.0087268678
 41
-1.7342776332
 42
-1.4073150204
  0
ELLIPSE
  5
95B
100
AcDbEntity
  8
ASSI
100
AcDbEllipse
 62
7
  6
CONTINUOUS
 10
-10.6483591837
 20
4.6055921366
 30
0.0
 11
15.0
 21
0.0
 31
0.0
 40
0.0087268678
 41
1.4073150204
 42
1.7342776332
  0
ELLIPSE
  5
95C
100
AcDbEntity
  8
ASSI
100
AcDbEllipse
 62
7
  6
CONTINUOUS
 10
-0.0658904126
 20
46.6704524445
 30
0.0
 11
0.3536610946
 21
0.3536610946
 31
0.0
 40
0.9996954599
 41
-0.7852458701
 42
0.7852458701
  0
ELLIPSE
  5
95D
100
AcDbEntity
  8
RACCORDO
100
AcDbEllipse
 62
7
  6
CONTINUOUS
 10
-6.8983591837
 20
48.5204905265
 30
0.0
 11
0.0
 21
0.250038082
 31
0.0
 40
0.9998476952
 41
0.0
 42
1.5707963268
  0
ELLIPSE
  5
95E
100
AcDbEntity
  8
RACCORDO
100
AcDbEllipse
 62
7
  6
CONTINUOUS
 10
-14.3983591837
 20
1.0554768204
 30
0.0
 11
0.0
 21
0.250038082
 31
0.0
 40
0.9998476952
 41
-3.1415926536
 42
-1.5707963268
  0
ELLIPSE
  5
95F
100
AcDbEntity
  8
ASSI
100
AcDbEllipse
 62
7
  6
CONTINUOUS
 10
-6.6024038443
 20
1.5879836735
 30
0.0
 11
0.4595995956
 21
-0.0
 31
0.0
 40
0.9949884474
 41
-0.8362648721
 42
-0.4967770086
  0
ELLIPSE
  5
960
100
AcDbEntity
  8
ASSI
100
AcDbEllipse
 62
7
  6
CONTINUOUS
 10
-6.6024038443
 20
47.9879836735
 30
0.0
 11
0.4595995956
 21
-0.0
 31
0.0
 40
0.9949884474
 41
-0.8362648721
 42
-0.4967770086
  0
ELLIPSE
  5
961
100
AcDbEntity
  8
ASSI
100
AcDbEllipse
 62
7
  6
CONTINUOUS
 10
-1.6114885644
 20
1.2323212408
 30
0.0
 11
0.25
 21
0.0
 31
0.0
 40
0.5773502692
 41
-0.5235987756
 42
-0.0174532925
  0
ELLIPSE
  5
962
100
AcDbEntity
  8
ASSI
100
AcDbEllipse
 62
7
  6
CONTINUOUS
 10
-19.4114885644
 20
1.2323212408
 30
0.0
 11
0.25
 21
-0.0
 31
0.0
 40
0.5773502692
 41
-0.5235987756
 42
-0.0174532925
  0
ELLIPSE
  5
963
100
AcDbEntity
  8
ASSI
100
AcDbEllipse
 62
7
  6
CONTINUOUS
 10
-19.685229803
 20
48.3436461062
 30
0.0
 11
0.25
 21
-0.0
 31
0.0
 40
0.5773502692
 41
2.617993878
 42
3.1241393611
  0
ELLIPSE
  5
964
100
AcDbEntity
  8
ASSI
100
AcDbEllipse
 62
7
  6
CONTINUOUS
 10
-1.885229803
 20
48.3436461062
 30
0.0
 11
0.25
 21
0.0
 31
0.0
 40
0.5773502692
 41
2.617993878
 42
3.1241393611
  0
ELLIPSE
  5
965
100
AcDbEntity
  8
ASSI
100
AcDbEllipse
 62
7
  6
CONTINUOUS
 10
-21.2308279547
 20
2.9055149024
 30
0.0
 11
-0.3536610946
 21
-0.3536610946
 31
0.0
 40
0.9996954599
 41
-0.7852458701
 42
0.7852458701
  0
ELLIPSE
  5
966
100
AcDbEntity
  8
RACCORDO
100
AcDbEllipse
 62
7
  6
CONTINUOUS
 10
-14.3983591837
 20
48.5204905265
 30
0.0
 11
-0.0
 21
0.250038082
 31
0.0
 40
0.9998476952
 41
-1.5707963268
 42
0.0
  0
ELLIPSE
  5
967
100
AcDbEntity
  8
ASSI
100
AcDbEllipse
 62
7
  6
CONTINUOUS
 10
-21.2308279547
 20
46.6704524445
 30
0.0
 11
0.3536610946
 21
-0.3536610946
 31
0.0
 40
0.9996954599
 41
2.3563467834
 42
3.9268385237
  0
ELLIPSE
  5
968
100
AcDbEntity
  8
RACCORDO
100
AcDbEllipse
 62
7
  6
CONTINUOUS
 10
-9.5808660367
 20
1.0554768204
 30
0.0
 11
0.1768305473
 21
0.1768305473
 31
0.0
 40
0.9996954599
 41
2.3563467834
 42
3.9268385237
  0
ELLIPSE
  5
969
100
AcDbEntity
  8
RACCORDO
100
AcDbEllipse
 62
7
  6
CONTINUOUS
 10
-6.8983591837
 20
1.0554768204
 30
0.0
 11
0.0
 21
0.250038082
 31
0.0
 40
0.9998476952
 41
-4.7123889804
 42
-3.1415926536
  0
ELLIPSE
  5
96A
100
AcDbEntity
  8
RACCORDO
100
AcDbEllipse
 62
7
  6
CONTINUOUS
 10
-6.7220361004
 20
2.4852725659
 30
0.0
 11
0.4263230833
 21
0.0
 31
0.0
 40
0.0174550649
 41
0.0174532925
 42
3.1415926536
  0
ELLIPSE
  5
96B
100
AcDbEntity
  8
RACCORDO
100
AcDbEllipse
 62
7
  6
CONTINUOUS
 10
-6.7220361004
 20
47.090694781
 30
0.0
 11
0.4263230833
 21
0.0
 31
0.0
 40
0.0174550649
 41
-3.1415926536
 42
-0.0174532925
  0
ELLIPSE
  5
96C
100
AcDbEntity
  8
RACCORDO
100
AcDbEllipse
 62
7
  6
CONTINUOUS
 10
-11.7158523306
 20
1.0554768204
 30
0.0
 11
0.1768305473
 21
-0.1768305473
 31
0.0
 40
0.9996954599
 41
-0.7852458701
 42
0.7852458701
  0
ELLIPSE
  5
96D
100
AcDbEntity
  8
RACCORDO
100
AcDbEllipse
 62
7
  6
CONTINUOUS
 10
-11.7158523306
 20
48.5204905265
 30
0.0
 11
-0.1768305473
 21
-0.1768305473
 31
0.0
 40
0.9996954599
 41
2.3563467834
 42
3.9268385237
  0
ELLIPSE
  5
96E
100
AcDbEntity
  8
ASSI
100
AcDbEllipse
 62
7
  6
CONTINUOUS
 10
-14.6943145231
 20
1.5879836735
 30
0.0
 11
0.4595995956
 21
0.0
 31
0.0
 40
0.9949884474
 41
-2.644815645
 42
-2.3053277814
  0
ELLIPSE
  5
96F
100
AcDbEntity
  8
ASSI
100
AcDbEllipse
 62
7
  6
CONTINUOUS
 10
-14.6943145231
 20
1.5879836735
 30
0.0
 11
0.4595995956
 21
0.0
 31
0.0
 40
0.9949884474
 41
2.3053277814
 42
2.644815645
  0
ELLIPSE
  5
970
100
AcDbEntity
  8
ASSI
100
AcDbEllipse
 62
7
  6
CONTINUOUS
 10
-14.6943145231
 20
47.9879836735
 30
0.0
 11
0.4595995956
 21
0.0
 31
0.0
 40
0.9949884474
 41
-2.644815645
 42
-2.3053277814
  0
ELLIPSE
  5
971
100
AcDbEntity
  8
ASSI
100
AcDbEllipse
 62
7
  6
CONTINUOUS
 10
-14.6943145231
 20
47.9879836735
 30
0.0
 11
0.4595995956
 21
-0.0
 31
0.0
 40
0.9949884474
 41
2.3053277814
 42
2.644815645
  0
ELLIPSE
  5
972
100
AcDbEntity
  8
RACCORDO
100
AcDbEllipse
 62
7
  6
CONTINUOUS
 10
-14.574682267
 20
2.4852725659
 30
0.0
 11
0.4263230833
 21
0.0
 31
0.0
 40
0.0174550649
 41
0.0
 42
3.1241393611
  0
ELLIPSE
  5
973
100
AcDbEntity
  8
RACCORDO
100
AcDbEllipse
 62
7
  6
CONTINUOUS
 10
-14.574682267
 20
47.090694781
 30
0.0
 11
0.4263230833
 21
-0.0
 31
0.0
 40
0.0174550649
 41
-3.1241393611
 42
-0.0
  0
ELLIPSE
  5
974
100
AcDbEntity
  8
RACCORDO
100
AcDbEllipse
 62
7
  6
CONTINUOUS
 10
-9.5808660367
 20
48.5204905265
 30
0.0
 11
-0.1768305473
 21
0.1768305473
 31
0.0
 40
0.9996954599
 41
-0.7852458701
 42
0.7852458701
  0
ELLIPSE
  5
975
100
AcDbEntity
  8
ASSI
100
AcDbEllipse
 62
7
  6
CONTINUOUS
 10
-0.0658904126
 20
2.9055149024
 30
0.0
 11
-0.3536610946
 21
0.3536610946
 31
0.0
 40
0.9996954599
 41
2.3563467834
 42
3.9268385237
  0
ELLIPSE
  5
976
100
AcDbEntity
  8
ASSI
100
AcDbEllipse
 62
7
  6
CONTINUOUS
 10
-2.572909833
 20
46.0132806961
 30
0.0
 11
0.0
 21
1.0
 31
0.0
 40
0.0174550649
 41
1.3378837631
 42
1.5707963268
  0
ELLIPSE
  5
977
100
AcDbEntity
  8
ASSI
100
AcDbEllipse
 62
7
  6
CONTINUOUS
 10
-18.7238085344
 20
46.0132806961
 30
0.0
 11
0.0
 21
1.0
 31
0.0
 40
0.0174550649
 41
-1.5707963268
 42
-1.3378837631
  0
ELLIPSE
  5
978
100
AcDbEntity
  8
ASSI
100
AcDbEllipse
 62
7
  6
CONTINUOUS
 10
-18.7238085344
 20
3.5626866508
 30
0.0
 11
-0.0
 21
1.0
 31
0.0
 40
0.0174550649
 41
-1.8037088905
 42
-1.5707963268
  0
ELLIPSE
  5
979
100
AcDbEntity
  8
ASSI
100
AcDbEllipse
 62
7
  6
CONTINUOUS
 10
-2.572909833
 20
3.5626866508
 30
0.0
 11
0.0
 21
1.0
 31
0.0
 40
0.0174550649
 41
-4.7123889804
 42
-4.4794764167
  0
ELLIPSE
  5
97A
100
AcDbEntity
  8
ASSI
100
AcDbEllipse
 62
7
  6
CONTINUOUS
 10
-18.9496456131
 20
3.5626866508
 30
0.0
 11
1.0000571192
 21
-0.9999809595
 31
0.0
 40
0.0061705924
 41
0.0112823085
 42
1.3317127791
  0
ELLIPSE
  5
97B
100
AcDbEntity
  8
ASSI
100
AcDbEllipse
 62
7
  6
CONTINUOUS
 10
-2.3470727542
 20
3.5626866508
 30
0.0
 11
1.0000571192
 21
0.9999809595
 31
0.0
 40
0.0061705924
 41
1.8098798745
 42
3.1303103451
  0
ELLIPSE
  5
97C
100
AcDbEntity
  8
ASSI
100
AcDbEllipse
 62
7
  6
CONTINUOUS
 10
-18.9496456131
 20
46.0132806961
 30
0.0
 11
1.0000571192
 21
0.9999809595
 31
0.0
 40
0.0061705924
 41
-1.3317127791
 42
-0.0112823085
  0
ELLIPSE
  5
97D
100
AcDbEntity
  8
ASSI
100
AcDbEllipse
 62
7
  6
CONTINUOUS
 10
-2.3470727542
 20
46.0132806961
 30
0.0
 11
1.0000571192
 21
-0.9999809595
 31
0.0
 40
0.0061705924
 41
-3.1303103451
 42
-1.8098798745
  0
ELLIPSE
  5
97E
100
AcDbEntity
  8
ASSI
100
AcDbEllipse
 62
7
  6
CONTINUOUS
 10
-19.685229803
 20
1.2323212408
 30
0.0
 11
0.25
 21
0.0
 31
0.0
 40
0.5773502692
 41
-3.1241393611
 42
-2.617993878
  0
ELLIPSE
  5
97F
100
AcDbEntity
  8
ASSI
100
AcDbEllipse
 62
7
  6
CONTINUOUS
 10
-19.685229803
 20
2.4010749722
 30
0.0
 11
0.25
 21
0.0
 31
0.0
 40
0.0174550649
 41
1.5707963268
 42
3.1241393611
  0
ELLIPSE
  5
980
100
AcDbEntity
  8
ASSI
100
AcDbEllipse
 62
7
  6
CONTINUOUS
 10
-19.4114885644
 20
2.4010749722
 30
0.0
 11
0.25
 21
0.0
 31
0.0
 40
0.0174550649
 41
0.0174532925
 42
1.5707963268
  0
ELLIPSE
  5
981
100
AcDbEntity
  8
ASSI
100
AcDbEllipse
 62
7
  6
CONTINUOUS
 10
-1.6114885644
 20
2.4010749722
 30
0.0
 11
0.25
 21
-0.0
 31
0.0
 40
0.0174550649
 41
0.0174532925
 42
1.5707963268
  0
ELLIPSE
  5
982
100
AcDbEntity
  8
ASSI
100
AcDbEllipse
 62
7
  6
CONTINUOUS
 10
-1.885229803
 20
1.2323212408
 30
0.0
 11
0.25
 21
-0.0
 31
0.0
 40
0.5773502692
 41
-3.1241393611
 42
-2.617993878
  0
ELLIPSE
  5
983
100
AcDbEntity
  8
ASSI
100
AcDbEllipse
 62
7
  6
CONTINUOUS
 10
-1.885229803
 20
2.4010749722
 30
0.0
 11
0.25
 21
0.0
 31
0.0
 40
0.0174550649
 41
1.5707963268
 42
3.1241393611
  0
ELLIPSE
  5
984
100
AcDbEntity
  8
ASSI
100
AcDbEllipse
 62
7
  6
CONTINUOUS
 10
-19.685229803
 20
47.1748923748
 30
0.0
 11
0.25
 21
0.0
 31
0.0
 40
0.0174550649
 41
-3.1241393611
 42
-1.5707963268
  0
ELLIPSE
  5
985
100
AcDbEntity
  8
ASSI
100
AcDbEllipse
 62
7
  6
CONTINUOUS
 10
-19.4114885644
 20
48.3436461062
 30
0.0
 11
0.25
 21
0.0
 31
0.0
 40
0.5773502692
 41
0.0174532925
 42
0.5235987756
  0
ELLIPSE
  5
986
100
AcDbEntity
  8
ASSI
100
AcDbEllipse
 62
7
  6
CONTINUOUS
 10
-19.4114885644
 20
47.1748923748
 30
0.0
 11
0.25
 21
-0.0
 31
0.0
 40
0.0174550649
 41
-1.5707963268
 42
-0.0174532925
  0
ELLIPSE
  5
987
100
AcDbEntity
  8
ASSI
100
AcDbEllipse
 62
7
  6
CONTINUOUS
 10
-3.2483287181
 20
48.141573512
 30
0.0
 11
0.0069796346
 21
0.2308610084
 31
0.0
 40
0.8659264732
 41
-4.6774890306
 42
-3.1154190256
  0
ELLIPSE
  5
988
100
AcDbEntity
  8
ASSI
100
AcDbEllipse
 62
7
  6
CONTINUOUS
 10
-1.885229803
 20
47.1748923748
 30
0.0
 11
0.25
 21
-0.0
 31
0.0
 40
0.0174550649
 41
-3.1241393611
 42
-1.5707963268
  0
ELLIPSE
  5
989
100
AcDbEntity
  8
ASSI
100
AcDbEllipse
 62
7
  6
CONTINUOUS
 10
-1.6114885644
 20
48.3436461062
 30
0.0
 11
0.25
 21
-0.0
 31
0.0
 40
0.5773502692
 41
0.0174532925
 42
0.5235987756
  0
ELLIPSE
  5
98A
100
AcDbEntity
  8
ASSI
100
AcDbEllipse
 62
7
  6
CONTINUOUS
 10
-1.6114885644
 20
47.1748923748
 30
0.0
 11
0.25
 21
-0.0
 31
0.0
 40
0.0174550649
 41
-1.5707963268
 42
-0.0174532925
  0
ELLIPSE
  5
98B
100
AcDbEntity
  8
ASSI
100
AcDbEllipse
 62
7
  6
CONTINUOUS
 10
-0.2483896493
 20
1.434393835
 30
0.0
 11
0.0069796346
 21
0.2308610084
 31
0.0
 40
0.8659264732
 41
-1.535896377
 42
0.026173628
  0
ELLIPSE
  5
98C
100
AcDbEntity
  8
ASSI
100
AcDbEllipse
 62
7
  6
CONTINUOUS
 10
-3.2483287181
 20
1.434393835
 30
0.0
 11
-0.0069796346
 21
0.2308610084
 31
0.0
 40
0.8659264732
 41
-0.026173628
 42
1.535896377
  0
ELLIPSE
  5
98D
100
AcDbEntity
  8
ASSI
100
AcDbEllipse
 62
7
  6
CONTINUOUS
 10
-21.0483287181
 20
48.141573512
 30
0.0
 11
0.0069796346
 21
0.2308610084
 31
0.0
 40
0.8659264732
 41
-4.6774890306
 42
-3.1154190256
  0
ELLIPSE
  5
98E
100
AcDbEntity
  8
ASSI
100
AcDbEllipse
 62
7
  6
CONTINUOUS
 10
-18.0483896493
 20
1.434393835
 30
0.0
 11
0.0069796346
 21
0.2308610084
 31
0.0
 40
0.8659264732
 41
-1.535896377
 42
0.026173628
  0
ELLIPSE
  5
98F
100
AcDbEntity
  8
ASSI
100
AcDbEllipse
 62
7
  6
CONTINUOUS
 10
-18.0483896493
 20
48.141573512
 30
0.0
 11
-0.0069796346
 21
0.2308610084
 31
0.0
 40
0.8659264732
 41
-3.1677662815
 42
-1.6056962766
  0
ELLIPSE
  5
990
100
AcDbEntity
  8
ASSI
100
AcDbEllipse
 62
7
  6
CONTINUOUS
 10
-21.0483287181
 20
1.434393835
 30
0.0
 11
-0.0069796346
 21
0.2308610084
 31
0.0
 40
0.8659264732
 41
-0.026173628
 42
1.535896377
  0
ELLIPSE
  5
991
100
AcDbEntity
  8
ASSI
100
AcDbEllipse
 62
7
  6
CONTINUOUS
 10
-0.2483896493
 20
48.141573512
 30
0.0
 11
-0.0069796346
 21
0.2308610084
 31
0.0
 40
0.8659264732
 41
-3.1677662815
 42
-1.6056962766
  0
ELLIPSE
  5
992
100
AcDbEntity
  8
RACCORDO
100
AcDbEllipse
 62
7
  6
CONTINUOUS
 10
-8.9657812965
 20
42.3879836735
 30
0.0
 11
-0.3000114235
 21
0.0
 31
0.0
 40
0.9999619231
 41
1.5707963268
 42
2.80137059
  0
ELLIPSE
  5
993
100
AcDbEntity
  8
RACCORDO
100
AcDbEllipse
 62
7
  6
CONTINUOUS
 10
0.0647196945
 20
28.2379836735
 30
0.0
 11
-0.3000114235
 21
0.0
 31
0.0
 40
0.9999619231
 41
1.5707963268
 42
3.1415926536
  0
ELLIPSE
  5
994
100
AcDbEntity
  8
RACCORDO
100
AcDbEllipse
 62
7
  6
CONTINUOUS
 10
0.0647196945
 20
23.2379836735
 30
0.0
 11
-0.3000114235
 21
0.0
 31
0.0
 40
0.9999619231
 41
1.5707963268
 42
3.1415926536
  0
ELLIPSE
  5
995
100
AcDbEntity
  8
RACCORDO
100
AcDbEllipse
 62
7
  6
CONTINUOUS
 10
0.0647196945
 20
18.2379836735
 30
0.0
 11
-0.3000114235
 21
0.0
 31
0.0
 40
0.9999619231
 41
1.5707963268
 42
3.1415926536
  0
ELLIPSE
  5
996
100
AcDbEntity
  8
RACCORDO
100
AcDbEllipse
 62
7
  6
CONTINUOUS
 10
0.0647196945
 20
13.2379836735
 30
0.0
 11
-0.3000114235
 21
0.0
 31
0.0
 40
0.9999619231
 41
1.5707963268
 42
3.1415926536
  0
ELLIPSE
  5
997
100
AcDbEntity
  8
DRAFT
100
AcDbEllipse
 62
7
  6
CONTINUOUS
 10
-0.8069065617
 20
25.7879836735
 30
0.0
 11
0.0
 21
2.15
 31
0.0
 40
0.0087268678
 41
3.1415926536
 42
6.2831853072
  0
ELLIPSE
  5
998
100
AcDbEntity
  8
DRAFT
100
AcDbEllipse
 62
7
  6
CONTINUOUS
 10
-0.8069065617
 20
10.7879836735
 30
0.0
 11
0.0
 21
2.15
 31
0.0
 40
0.0087268678
 41
3.1415926536
 42
6.2831853072
  0
ELLIPSE
  5
999
100
AcDbEntity
  8
RACCORDO
100
AcDbEllipse
 62
7
  6
CONTINUOUS
 10
-6.9352803055
 20
5.4749047953
 30
0.0
 11
-0.2121481893
 21
0.2121481893
 31
0.0
 40
0.9999238505
 41
2.3562325664
 42
3.9269527408
  0
ELLIPSE
  5
99A
100
AcDbEntity
  8
RACCORDO
100
AcDbEllipse
 62
7
  6
CONTINUOUS
 10
-20.0395520292
 20
6.1749314502
 30
0.0
 11
-0.3827005044
 21
-0.9239207481
 31
0.0
 40
0.9999553905
 41
-0.3926833098
 42
0.3926833098
  0
ELLIPSE
  5
99B
100
AcDbEntity
  8
RACCORDO
100
AcDbEllipse
 62
7
  6
CONTINUOUS
 10
-20.661411407
 20
6.7967908279
 30
0.0
 11
-0.9239207481
 21
-0.3827005044
 31
0.0
 40
0.9999553905
 41
-0.3926833098
 42
0.3926833098
  0
ELLIPSE
  5
99C
100
AcDbEntity
  8
RACCORDO
100
AcDbEllipse
 62
7
  6
CONTINUOUS
 10
-20.661411407
 20
42.779176519
 30
0.0
 11
-0.9239207481
 21
0.3827005044
 31
0.0
 40
0.9999553905
 41
-0.3926833098
 42
0.3926833098
  0
ELLIPSE
  5
99D
100
AcDbEntity
  8
RACCORDO
100
AcDbEllipse
 62
7
  6
CONTINUOUS
 10
-20.0395520292
 20
43.4010358968
 30
0.0
 11
0.3827005044
 21
-0.9239207481
 31
0.0
 40
0.9999553905
 41
2.7489093438
 42
3.5342759634
  0
ELLIPSE
  5
99E
100
AcDbEntity
  8
RACCORDO
100
AcDbEllipse
 62
7
  6
CONTINUOUS
 10
-6.9352803055
 20
44.1010625516
 30
0.0
 11
0.2121481893
 21
0.2121481893
 31
0.0
 40
0.9999238505
 41
-0.7853600872
 42
0.7853600872
  0
ELLIPSE
  5
99F
100
AcDbEntity
  8
RACCORDO
100
AcDbEllipse
 62
7
  6
CONTINUOUS
 10
-1.2571663381
 20
42.0010358968
 30
0.0
 11
0.3827005044
 21
0.9239207481
 31
0.0
 40
0.9999553905
 41
-0.3926833098
 42
0.3926833098
  0
ELLIPSE
  5
9A0
100
AcDbEntity
  8
RACCORDO
100
AcDbEllipse
 62
7
  6
CONTINUOUS
 10
-0.6353069604
 20
41.379176519
 30
0.0
 11
-0.9239207481
 21
-0.3827005044
 31
0.0
 40
0.9999553905
 41
2.7489093438
 42
3.5342759634
  0
ELLIPSE
  5
9A1
100
AcDbEntity
  8
DRAFT
100
AcDbEllipse
 62
7
  6
CONTINUOUS
 10
-0.8069065617
 20
15.7879836735
 30
0.0
 11
0.0
 21
2.15
 31
0.0
 40
0.0087268678
 41
3.1415926536
 42
6.2831853072
  0
ELLIPSE
  5
9A2
100
AcDbEntity
  8
RACCORDO
100
AcDbEllipse
 62
7
  6
CONTINUOUS
 10
0.0647196945
 20
23.3379836735
 30
0.0
 11
0.3000114235
 21
-0.0
 31
0.0
 40
0.9999619231
 41
0.0
 42
1.5707963268
  0
ELLIPSE
  5
9A3
100
AcDbEntity
  8
DRAFT
100
AcDbEllipse
 62
7
  6
CONTINUOUS
 10
-0.8069065617
 20
20.7879836735
 30
0.0
 11
0.0
 21
2.15
 31
0.0
 40
0.0087268678
 41
3.1415926536
 42
6.2831853072
  0
ELLIPSE
  5
9A4
100
AcDbEntity
  8
RACCORDO
100
AcDbEllipse
 62
7
  6
CONTINUOUS
 10
0.0647196945
 20
18.3379836735
 30
0.0
 11
0.3000114235
 21
-0.0
 31
0.0
 40
0.9999619231
 41
0.0
 42
1.5707963268
  0
ELLIPSE
  5
9A5
100
AcDbEntity
  8
RACCORDO
100
AcDbEllipse
 62
7
  6
CONTINUOUS
 10
0.0647196945
 20
13.3379836735
 30
0.0
 11
0.3000114235
 21
-0.0
 31
0.0
 40
0.9999619231
 41
0.0
 42
1.5707963268
  0
ELLIPSE
  5
9A6
100
AcDbEntity
  8
RACCORDO
100
AcDbEllipse
 62
7
  6
CONTINUOUS
 10
0.0647196945
 20
8.3379836735
 30
0.0
 11
0.3000114235
 21
-0.0
 31
0.0
 40
0.9999619231
 41
0.0
 42
1.5707963268
  0
ELLIPSE
  5
9A7
100
AcDbEntity
  8
RACCORDO
100
AcDbEllipse
 62
7
  6
CONTINUOUS
 10
-0.6353069604
 20
8.1967908279
 30
0.0
 11
0.9239207481
 21
-0.3827005044
 31
0.0
 40
0.9999553905
 41
-0.3926833098
 42
0.3926833098
  0
ELLIPSE
  5
9A8
100
AcDbEntity
  8
RACCORDO
100
AcDbEllipse
 62
7
  6
CONTINUOUS
 10
-1.2571663381
 20
7.5749314502
 30
0.0
 11
0.3827005044
 21
-0.9239207481
 31
0.0
 40
0.9999553905
 41
-0.3926833098
 42
0.3926833098
  0
ELLIPSE
  5
9A9
100
AcDbEntity
  8
RACCORDO
100
AcDbEllipse
 62
7
  6
CONTINUOUS
 10
-6.3352574585
 20
6.2748819483
 30
0.0
 11
0.2121481893
 21
-0.2121481893
 31
0.0
 40
0.9999238505
 41
2.3562325664
 42
3.9269527408
  0
ELLIPSE
  5
9AA
100
AcDbEntity
  8
RACCORDO
100
AcDbEllipse
 62
7
  6
CONTINUOUS
 10
-12.3309370709
 20
42.3879836735
 30
0.0
 11
-0.3000114235
 21
0.0
 31
0.0
 40
0.9999619231
 41
0.3402220636
 42
1.5707963268
  0
ELLIPSE
  5
9AB
100
AcDbEntity
  8
RACCORDO
100
AcDbEllipse
 62
7
  6
CONTINUOUS
 10
-12.2523522145
 20
7.1879836735
 30
0.0
 11
0.3000114235
 21
-0.0
 31
0.0
 40
0.9999619231
 41
1.5707963268
 42
2.80137059
  0
ELLIPSE
  5
9AC
100
AcDbEntity
  8
RACCORDO
100
AcDbEllipse
 62
7
  6
CONTINUOUS
 10
-9.0443661529
 20
7.1879836735
 30
0.0
 11
0.3000114235
 21
-0.0
 31
0.0
 40
0.9999619231
 41
0.3402220636
 42
1.5707963268
  0
ELLIPSE
  5
9AD
100
AcDbEntity
  8
ASSI
100
AcDbEllipse
 62
7
  6
CONTINUOUS
 10
-6.9352803055
 20
5.4749047953
 30
0.0
 11
-0.2121481893
 21
0.2121481893
 31
0.0
 40
0.9999238505
 41
2.3562325664
 42
3.9269527408
  0
ELLIPSE
  5
9AE
100
AcDbEntity
  8
ASSI
100
AcDbEllipse
 62
7
  6
CONTINUOUS
 10
-20.0395520292
 20
6.1749314502
 30
0.0
 11
-0.3827005044
 21
-0.9239207481
 31
0.0
 40
0.9999553905
 41
-0.3926833098
 42
0.3926833098
  0
ELLIPSE
  5
9AF
100
AcDbEntity
  8
ASSI
100
AcDbEllipse
 62
7
  6
CONTINUOUS
 10
-20.661411407
 20
6.7967908279
 30
0.0
 11
-0.9239207481
 21
-0.3827005044
 31
0.0
 40
0.9999553905
 41
-0.3926833098
 42
0.3926833098
  0
ELLIPSE
  5
9B0
100
AcDbEntity
  8
ASSI
100
AcDbEllipse
 62
7
  6
CONTINUOUS
 10
-20.661411407
 20
42.779176519
 30
0.0
 11
-0.9239207481
 21
0.3827005044
 31
0.0
 40
0.9999553905
 41
-0.3926833098
 42
0.3926833098
  0
ELLIPSE
  5
9B1
100
AcDbEntity
  8
ASSI
100
AcDbEllipse
 62
7
  6
CONTINUOUS
 10
-20.0395520292
 20
43.4010358968
 30
0.0
 11
0.3827005044
 21
-0.9239207481
 31
0.0
 40
0.9999553905
 41
2.7489093438
 42
3.5342759634
  0
ELLIPSE
  5
9B2
100
AcDbEntity
  8
ASSI
100
AcDbEllipse
 62
7
  6
CONTINUOUS
 10
-6.9352803055
 20
44.1010625516
 30
0.0
 11
0.2121481893
 21
0.2121481893
 31
0.0
 40
0.9999238505
 41
-0.7853600872
 42
0.7853600872
  0
ELLIPSE
  5
9B3
100
AcDbEntity
  8
ASSI
100
AcDbEllipse
 62
7
  6
CONTINUOUS
 10
-1.2571663381
 20
42.0010358968
 30
0.0
 11
0.3827005044
 21
0.9239207481
 31
0.0
 40
0.9999553905
 41
-0.3926833098
 42
0.3926833098
  0
ELLIPSE
  5
9B4
100
AcDbEntity
  8
ASSI
100
AcDbEllipse
 62
7
  6
CONTINUOUS
 10
-0.6353069604
 20
41.379176519
 30
0.0
 11
-0.9239207481
 21
-0.3827005044
 31
0.0
 40
0.9999553905
 41
2.7489093438
 42
3.5342759634
  0
ELLIPSE
  5
9B5
100
AcDbEntity
  8
ASSI
100
AcDbEllipse
 62
7
  6
CONTINUOUS
 10
0.0647196945
 20
23.3379836735
 30
0.0
 11
0.3000114235
 21
-0.0
 31
0.0
 40
0.9999619231
 41
0.0
 42
1.5707963268
  0
ELLIPSE
  5
9B6
100
AcDbEntity
  8
ASSI
100
AcDbEllipse
 62
7
  6
CONTINUOUS
 10
0.0647196945
 20
18.3379836735
 30
0.0
 11
0.3000114235
 21
-0.0
 31
0.0
 40
0.9999619231
 41
0.0
 42
1.5707963268
  0
ELLIPSE
  5
9B7
100
AcDbEntity
  8
ASSI
100
AcDbEllipse
 62
7
  6
CONTINUOUS
 10
0.0647196945
 20
13.3379836735
 30
0.0
 11
0.3000114235
 21
-0.0
 31
0.0
 40
0.9999619231
 41
0.0
 42
1.5707963268
  0
ELLIPSE
  5
9B8
100
AcDbEntity
  8
ASSI
100
AcDbEllipse
 62
7
  6
CONTINUOUS
 10
0.0647196945
 20
8.3379836735
 30
0.0
 11
0.3000114235
 21
-0.0
 31
0.0
 40
0.9999619231
 41
0.0
 42
1.5707963268
  0
ELLIPSE
  5
9B9
100
AcDbEntity
  8
ASSI
100
AcDbEllipse
 62
7
  6
CONTINUOUS
 10
-0.6353069604
 20
8.1967908279
 30
0.0
 11
0.9239207481
 21
-0.3827005044
 31
0.0
 40
0.9999553905
 41
-0.3926833098
 42
0.3926833098
  0
ELLIPSE
  5
9BA
100
AcDbEntity
  8
ASSI
100
AcDbEllipse
 62
7
  6
CONTINUOUS
 10
-1.2571663381
 20
7.5749314502
 30
0.0
 11
0.3827005044
 21
-0.9239207481
 31
0.0
 40
0.9999553905
 41
-0.3926833098
 42
0.3926833098
  0
ELLIPSE
  5
9BB
100
AcDbEntity
  8
ASSI
100
AcDbEllipse
 62
7
  6
CONTINUOUS
 10
-12.3309370709
 20
42.3879836735
 30
0.0
 11
-0.3000114235
 21
0.0
 31
0.0
 40
0.9999619231
 41
0.3402220636
 42
1.5707963268
  0
ELLIPSE
  5
9BC
100
AcDbEntity
  8
ASSI
100
AcDbEllipse
 62
7
  6
CONTINUOUS
 10
-12.2523522145
 20
7.1879836735
 30
0.0
 11
0.3000114235
 21
-0.0
 31
0.0
 40
0.9999619231
 41
1.5707963268
 42
2.80137059
  0
ELLIPSE
  5
9BD
100
AcDbEntity
  8
ASSI
100
AcDbEllipse
 62
7
  6
CONTINUOUS
 10
-9.0443661529
 20
7.1879836735
 30
0.0
 11
0.3000114235
 21
-0.0
 31
0.0
 40
0.9999619231
 41
0.3402220636
 42
1.5707963268
  0
ELLIPSE
  5
9BE
100
AcDbEntity
  8
ASSI
100
AcDbEllipse
 62
7
  6
CONTINUOUS
 10
-8.9657812965
 20
42.3879836735
 30
0.0
 11
-0.3000114235
 21
0.0
 31
0.0
 40
0.9999619231
 41
1.5707963268
 42
2.80137059
  0
ELLIPSE
  5
9BF
100
AcDbEntity
  8
ASSI
100
AcDbEllipse
 62
7
  6
CONTINUOUS
 10
0.0647196945
 20
28.2379836735
 30
0.0
 11
-0.3000114235
 21
0.0
 31
0.0
 40
0.9999619231
 41
1.5707963268
 42
3.1415926536
  0
ELLIPSE
  5
9C0
100
AcDbEntity
  8
ASSI
100
AcDbEllipse
 62
7
  6
CONTINUOUS
 10
0.0647196945
 20
23.2379836735
 30
0.0
 11
-0.3000114235
 21
0.0
 31
0.0
 40
0.9999619231
 41
1.5707963268
 42
3.1415926536
  0
ELLIPSE
  5
9C1
100
AcDbEntity
  8
ASSI
100
AcDbEllipse
 62
7
  6
CONTINUOUS
 10
0.0647196945
 20
18.2379836735
 30
0.0
 11
-0.3000114235
 21
0.0
 31
0.0
 40
0.9999619231
 41
1.5707963268
 42
3.1415926536
  0
ELLIPSE
  5
9C2
100
AcDbEntity
  8
ASSI
100
AcDbEllipse
 62
7
  6
CONTINUOUS
 10
0.0647196945
 20
13.2379836735
 30
0.0
 11
-0.3000114235
 21
0.0
 31
0.0
 40
0.9999619231
 41
1.5707963268
 42
3.1415926536
  0
ELLIPSE
  5
9C3
100
AcDbEntity
  8
ASSI
100
AcDbEllipse
 62
7
  6
CONTINUOUS
 10
-0.8069065617
 20
25.7879836735
 30
0.0
 11
0.0
 21
2.15
 31
0.0
 40
0.0087268678
 41
3.1415926536
 42
6.2831853072
  0
ELLIPSE
  5
9C4
100
AcDbEntity
  8
ASSI
100
AcDbEllipse
 62
7
  6
CONTINUOUS
 10
-0.8069065617
 20
10.7879836735
 30
0.0
 11
0.0
 21
2.15
 31
0.0
 40
0.0087268678
 41
3.1415926536
 42
6.2831853072
  0
ELLIPSE
  5
9C5
100
AcDbEntity
  8
ASSI
100
AcDbEllipse
 62
7
  6
CONTINUOUS
 10
-0.8069065617
 20
15.7879836735
 30
0.0
 11
0.0
 21
2.15
 31
0.0
 40
0.0087268678
 41
3.1415926536
 42
6.2831853072
  0
ELLIPSE
  5
9C6
100
AcDbEntity
  8
ASSI
100
AcDbEllipse
 62
7
  6
CONTINUOUS
 10
-0.8069065617
 20
20.7879836735
 30
0.0
 11
0.0
 21
2.15
 31
0.0
 40
0.0087268678
 41
3.1415926536
 42
6.2831853072
  0
ELLIPSE
  5
9C7
100
AcDbEntity
  8
ASSI
100
AcDbEllipse
 62
7
  6
CONTINUOUS
 10
-6.3352574585
 20
6.2748819483
 30
0.0
 11
0.2121481893
 21
-0.2121481893
 31
0.0
 40
0.9999238505
 41
2.3562325664
 42
3.9269527408
  0
ENDSEC
  0
SECTION
  2
OBJECTS
  0
DICTIONARY
  5
C
100
AcDbDictionary
280
0
281
1
  3
ACAD_GROUP
350
D
  3
ACAD_MLINESTYLE
350
17
  3
ACAD_LAYOUT
350
1A
  3
ACAD_PLOTSETTINGS
350
19
  3
ACAD_PLOTSTYLENAME
350
E
  0
DICTIONARY
  5
D
102
{ACAD_REACTORS
330
C
102
}
100
AcDbDictionary
280
0
281
1
  0
ACDBDICTIONARYWDFLT
  5
E
102
{ACAD_REACTORS
330
C
102
}
100
AcDbDictionary
281
1
  3
Normal
350
F
100
AcDbDictionaryWithDefault
340
F
  0
DICTIONARY
  5
17
102
{ACAD_REACTORS
330
C
102
}
100
AcDbDictionary
280
0
281
1
  3
Standard
350
18
  0
DICTIONARY
  5
19
102
{ACAD_REACTORS
330
C
102
}
100
AcDbDictionary
281
1
  0
DICTIONARY
  5
1A
102
{ACAD_REACTORS
330
C
102
}
100
AcDbDictionary
281
1
  3
Model
350
9C8
  3
Layout1
350
9C9
  0
ACDBPLACEHOLDER
  5
F
102
{ACAD_REACTORS
330
E
102
}
  0
MLINESTYLE
  5
18
102
{ACAD_REACTORS
330
17
102
}
100
AcDbMlineStyle
  2
STANDARD
 70
0
  3

 62
256
 51
90.0
 52
90.0
 71
2
 49
0.5
 62
256
  6
BYLAYER
 49
-0.5
 62
256
  6
BYLAYER
  0
LAYOUT
  5
9C8
102
{ACAD_REACTORS
330
1A
102
}
100
AcDbPlotSettings
  1

  2
none_device
  4
ISO_A4_(297.00_x_210.00_MM)
  6

 40
0.0
 41
0.0
 42
0.0
 43
0.0
 44
297.0
 45
210.0
 46
0.0
 47
0.0
 48
0.0
 49
0.0
140
0.0
141
0.0
142
1.0
143
1.0
 70
1024
 72
1
 73
0
 74
0
  7

 75
0
147
1.0
148
0.0
149
0.0
100
AcDbLayout
  1
Model
 70
0
 71
0
 10
0.0
 20
0.0
 11
297.0
 21
210.0
 12
0.0
 22
0.0
 32
0.0
 14
0.0
 24
0.0
 34
0.0
 15
0.0
 25
0.0
 35
0.0
146
0.0
 13
0.0
 23
0.0
 33
0.0
 16
1.0
 26
0.0
 36
0.0
 17
0.0
 27
1.0
 37
0.0
 76
0
330
223
345
0
346
0
  0
LAYOUT
  5
9C9
102
{ACAD_REACTORS
330
1A
102
}
100
AcDbPlotSettings
  1

  2
none_device
  4
ISO_A4_(297.00_x_210.00_MM)
  6

 40
0.0
 41
0.0
 42
0.0
 43
0.0
 44
297.0
 45
210.0
 46
0.0
 47
0.0
 48
0.0
 49
0.0
140
0.0
141
0.0
142
1.0
143
1.0
 70
0
 72
1
 73
0
 74
0
  7

 75
0
147
1.0
148
0.0
149
0.0
100
AcDbLayout
  1
Layout1
 70
0
 71
1
 10
0.0
 20
0.0
 11
297.0
 21
210.0
 12
0.0
 22
0.0
 32
0.0
 14
0.0
 24
0.0
 34
0.0
 15
0.0
 25
0.0
 35
0.0
146
0.0
 13
0.0
 23
0.0
 33
0.0
 16
1.0
 26
0.0
 36
0.0
 17
0.0
 27
1.0
 37
0.0
 76
0
330
224
345
0
346
0
  0
ENDSEC
  0
EOF
