  0
SECTION
  2
HEADER
  9
$ACADVER
  1
AC1015
  9
$DWGCODEPAGE
  3
ANSI_1252
  9
$EXTMAX
 10
297.0
 20
210.0
 30
0.0
  9
$EXTMIN
 10
0.0
 20
0.0
 30
0.0
  9
$LIMMIN
 10
0.0
 20
0.0
  9
$LIMMAX
 10
297.0
 20
210.0
  9
$VIEWCTR
 10
148.5
 20
105.0
  9
$VIEWSIZE
 40
210.0
  9
$CLAYER
  8
0
  9
$LTSCALE
 40
16.335
  9
$CELTYPE
  6
BYLAYER
  9
$DIMSCALE
 40
1.0
  9
$DIMASZ
 40
3.0
  9
$DIMEXO
 40
1.85625
  9
$DIMDLI
 40
11.286
  9
$DIMEXE
 40
5.346
  9
$DIMCEN
 40
2.673
  9
$DIMLFAC
 40
1.0
  9
$DIMBLK
  1
_FILLED
  9
$DIMTXT
 40
3.0
  9
$DIMTOL
 70
1
  9
$DIMLIM
 70
0
  9
$DIMTFAC
 40
1.0
  9
$DIMTP
 40
0.01
  9
$DIMTM
 40
0.01
  9
$PDMODE
 70
3
  9
$PDSIZE
 40
3.0
  9
$HANDSEED
  5
5FB
  9
$TILEMODE
 70
1
  9
$MEASUREMENT
 70
1
  9
$INSUNITS
 70
4
  0
ENDSEC
  0
SECTION
  2
CLASSES
  0
CLASS
  1
ACDBDICTIONARYWDFLT
  2
AcDbDictionaryWithDefault
  3
AutoCAD 2000
 90
0
280
0
281
0
  0
CLASS
  1
ACDBPLACEHOLDER
  2
AcDbPlaceHolder
  3
AutoCAD 2000
 90
0
280
0
281
0
  0
CLASS
  1
LAYOUT
  2
AcDbLayout
  3
AutoCAD 2000
 90
0
280
0
281
0
  0
ENDSEC
  0
SECTION
  2
TABLES
  0
TABLE
  2
VPORT
  5
8
100
AcDbSymbolTable
 70
2
  0
VPORT
  5
1F4
100
AcDbSymbolTableRecord
100
AcDbViewportTableRecord
  2
*ACTIVE
 70
0
 10
0.0
 20
0.0
 11
1.0
 21
1.0
 12
148.5
 22
105.0
 13
0.0
 23
0.0
 14
1.0
 24
1.0
 15
0.0
 25
0.0
 16
0.0
 26
0.0
 36
1.0
 17
0.0
 27
0.0
 37
0.0
 40
210.0
 41
1.4142857143
 42
50.0
 43
0.0
 44
0.0
 50
0.0
 51
0.0
 71
0
 72
100
 73
1
 74
1
 75
0
 76
0
 77
0
 78
0
  0
ENDTAB
  0
TABLE
  2
LTYPE
  5
5
100
AcDbSymbolTable
 70
6
  0
LTYPE
  5
14
100
AcDbSymbolTableRecord
100
AcDbLinetypeTableRecord
  2
BYBLOCK
 70
0
  3

 72
65
 73
0
 40
0.0
  0
LTYPE
  5
15
100
AcDbSymbolTableRecord
100
AcDbLinetypeTableRecord
  2
BYLAYER
 70
0
  3

 72
65
 73
0
 40
0.0
  0
LTYPE
  5
16
100
AcDbSymbolTableRecord
100
AcDbLinetypeTableRecord
  2
CONTINUOUS
 70
64
  3
Solid line
 72
65
 73
0
 40
0.0
  0
LTYPE
  5
1F5
100
AcDbSymbolTableRecord
100
AcDbLinetypeTableRecord
  2
CENTER
 70
64
  3
____ _ ____ _ ____ _ ____ _ ____ _ ____ _ ____
 72
65
 73
4
 40
0.6
 49
0.375
 74
0
 49
-0.075
 74
0
 49
0.075
 74
0
 49
-0.075
 74
0
  0
LTYPE
  5
1F6
100
AcDbSymbolTableRecord
100
AcDbLinetypeTableRecord
  2
HIDDEN
 70
64
  3
- - - - - - - - - - - - - - - - - - - -
 72
65
 73
2
 40
0.2
 49
0.1
 74
0
 49
-0.1
 74
0
  0
LTYPE
  5
1F7
100
AcDbSymbolTableRecord
100
AcDbLinetypeTableRecord
  2
PHANTOM
 70
64
  3
_____ _ _ _____ _ _ _____ _ _ _____
 72
65
 73
6
 40
0.8
 49
0.45
 74
0
 49
-0.05
 74
0
 49
0.1
 74
0
 49
-0.05
 74
0
 49
0.1
 74
0
 49
-0.05
 74
0
  0
LTYPE
  5
1F8
100
AcDbSymbolTableRecord
100
AcDbLinetypeTableRecord
  2
DOT
 70
64
  3
. . . . . . . . . . . . . . . . . . . .
 72
65
 73
2
 40
0.2
 49
0.1
 74
0
 49
-0.1
 74
0
  0
LTYPE
  5
1F9
100
AcDbSymbolTableRecord
100
AcDbLinetypeTableRecord
  2
DASHED
 70
64
  3
- - - - - - - - - - - - - - - - - - - -
 72
65
 73
2
 40
0.2
 49
0.1
 74
0
 49
-0.1
 74
0
  0
ENDTAB
  0
TABLE
  2
LAYER
  5
2
100
AcDbSymbolTable
 70
36
  0
LAYER
  5
10
100
AcDbSymbolTableRecord
100
AcDbLayerTableRecord
  2
0
 70
0
 62
7
  6
CONTINUOUS
370
-3
390
F
  0
LAYER
  5
1FA
100
AcDbSymbolTableRecord
100
AcDbLayerTableRecord
  2
DEFAULT_1
 70
0
 62
7
  6
CENTER
370
-3
390
F
  0
LAYER
  5
1FB
100
AcDbSymbolTableRecord
100
AcDbLayerTableRecord
  2
DEFAULT_2
 70
0
 62
7
  6
HIDDEN
370
-3
390
F
  0
LAYER
  5
1FC
100
AcDbSymbolTableRecord
100
AcDbLayerTableRecord
  2
DEFAULT_3
 70
0
 62
7
  6
PHANTOM
370
-3
390
F
  0
LAYER
  5
1FD
100
AcDbSymbolTableRecord
100
AcDbLayerTableRecord
  2
ASSI
 70
0
 62
7
  6
CONTINUOUS
370
-3
390
F
  0
LAYER
  5
1FE
100
AcDbSymbolTableRecord
100
AcDbLayerTableRecord
  2
COORDINATE
 70
0
 62
7
  6
CONTINUOUS
370
-3
390
F
  0
LAYER
  5
1FF
100
AcDbSymbolTableRecord
100
AcDbLayerTableRecord
  2
COPY_PUBLISH
 70
0
 62
7
  6
CONTINUOUS
370
-3
390
F
  0
LAYER
  5
200
100
AcDbSymbolTableRecord
100
AcDbLayerTableRecord
  2
COSMETIC
 70
0
 62
7
  6
CONTINUOUS
370
-3
390
F
  0
LAYER
  5
201
100
AcDbSymbolTableRecord
100
AcDbLayerTableRecord
  2
CURVE
 70
0
 62
7
  6
CONTINUOUS
370
-3
390
F
  0
LAYER
  5
202
100
AcDbSymbolTableRecord
100
AcDbLayerTableRecord
  2
DRAFT
 70
0
 62
7
  6
CONTINUOUS
370
-3
390
F
  0
LAYER
  5
203
100
AcDbSymbolTableRecord
100
AcDbLayerTableRecord
  2
IMPORT_IGES
 70
0
 62
7
  6
CONTINUOUS
370
-3
390
F
  0
LAYER
  5
204
100
AcDbSymbolTableRecord
100
AcDbLayerTableRecord
  2
INTFCLR_1
 70
0
 62
7
  6
CONTINUOUS
370
-3
390
F
  0
LAYER
  5
205
100
AcDbSymbolTableRecord
100
AcDbLayerTableRecord
  2
INTF_1
 70
0
 62
7
  6
CONTINUOUS
370
-3
390
F
  0
LAYER
  5
206
100
AcDbSymbolTableRecord
100
AcDbLayerTableRecord
  2
INTF_15
 70
0
 62
7
  6
CONTINUOUS
370
-3
390
F
  0
LAYER
  5
207
100
AcDbSymbolTableRecord
100
AcDbLayerTableRecord
  2
INTF_16
 70
0
 62
7
  6
CONTINUOUS
370
-3
390
F
  0
LAYER
  5
208
100
AcDbSymbolTableRecord
100
AcDbLayerTableRecord
  2
NOTE
 70
0
 62
7
  6
CONTINUOUS
370
-3
390
F
  0
LAYER
  5
209
100
AcDbSymbolTableRecord
100
AcDbLayerTableRecord
  2
PIANI
 70
0
 62
7
  6
CONTINUOUS
370
-3
390
F
  0
LAYER
  5
20A
100
AcDbSymbolTableRecord
100
AcDbLayerTableRecord
  2
PUNTI
 70
0
 62
7
  6
CONTINUOUS
370
-3
390
F
  0
LAYER
  5
20B
100
AcDbSymbolTableRecord
100
AcDbLayerTableRecord
  2
RACCORDO
 70
0
 62
7
  6
CONTINUOUS
370
-3
390
F
  0
LAYER
  5
20C
100
AcDbSymbolTableRecord
100
AcDbLayerTableRecord
  2
SNAPLINE
 70
0
 62
7
  6
CONTINUOUS
370
-3
390
F
  0
LAYER
  5
20D
100
AcDbSymbolTableRecord
100
AcDbLayerTableRecord
  2
SUPERFICI
 70
0
 62
7
  6
CONTINUOUS
370
-3
390
F
  0
LAYER
  5
20E
100
AcDbSymbolTableRecord
100
AcDbLayerTableRecord
  2
SUPERFICI_SKEL
 70
0
 62
7
  6
CONTINUOUS
370
-3
390
F
  0
LAYER
  5
20F
100
AcDbSymbolTableRecord
100
AcDbLayerTableRecord
  2
TRASH
 70
0
 62
7
  6
CONTINUOUS
370
-3
390
F
  0
ENDTAB
  0
TABLE
  2
STYLE
  5
3
100
AcDbSymbolTable
 70
1
  0
STYLE
  5
11
100
AcDbSymbolTableRecord
100
AcDbTextStyleTableRecord
  2
STANDARD
 70
0
 40
0.0
 41
0.8
 50
0.0
 71
0
 42
0.2
  3
txt
  4

  0
STYLE
  5
210
100
AcDbSymbolTableRecord
100
AcDbTextStyleTableRecord
  2
TEXTSTYLE_1
 70
0
 40
0.0
 41
0.8
 50
0.0
 71
0
 42
0.2
  3
gdt
  4

  0
ENDTAB
  0
TABLE
  2
VIEW
  5
6
100
AcDbSymbolTable
 70
0
  0
ENDTAB
  0
TABLE
  2
UCS
  5
7
100
AcDbSymbolTable
 70
0
  0
ENDTAB
  0
TABLE
  2
APPID
  5
9
100
AcDbSymbolTable
 70
1
  0
APPID
  5
211
100
AcDbSymbolTableRecord
100
AcDbRegAppTableRecord
  2
ACAD
 70
0
  0
ENDTAB
  0
TABLE
  2
BLOCK_RECORD
  5
1
100
AcDbSymbolTable
 70
0
  0
BLOCK_RECORD
  5
212
100
AcDbSymbolTableRecord
100
AcDbBlockTableRecord
  2
*Model_Space
  0
BLOCK_RECORD
  5
213
100
AcDbSymbolTableRecord
100
AcDbBlockTableRecord
  2
*Paper_Space
  0
ENDTAB
  0
TABLE
  2
DIMSTYLE
  5
A
100
AcDbSymbolTable
 70
1
100
AcDbDimStyleTable
 71
0
  0
DIMSTYLE
105
214
100
AcDbSymbolTableRecord
100
AcDbDimStyleTableRecord
  2
STANDARD
 70
0
  3

  4

 40
1.0
 41
3.0
 42
0.0625
 43
0.38
 44
0.18
 45
0.0
 46
0.0
 47
0.01
 48
0.01
140
3.0
141
0.09
142
0.0
143
25.4
144
1.0
145
0.0
146
1.0
147
0.09
 71
1.0
 72
0.0
 73
0
 74
0
 75
0
 76
0
 77
1
 78
8
170
0
171
2
172
0
173
0
174
0
175
0
176
0
177
0
178
0
270
2
271
2
272
2
273
2
274
2
275
0
280
0
281
0
282
0
283
1
284
8
285
0
286
0
287
3
288
0
340
11
  0
ENDTAB
  0
ENDSEC
  0
SECTION
  2
BLOCKS
  0
BLOCK
  5
20
100
AcDbEntity
  8
0
100
AcDbBlockBegin
  2
*Model_Space
 70
0
 10
0.0
 20
0.0
 30
0.0
  3
*Model_Space
  1

  0
ENDBLK
  5
21
100
AcDbEntity
  8
0
100
AcDbBlockEnd
  0
BLOCK
  5
1C
100
AcDbEntity
  8
0
100
AcDbBlockBegin
  2
*Paper_Space
 70
0
 10
0.0
 20
0.0
 30
0.0
  3
*Paper_Space
  1

  0
ENDBLK
  5
1D
100
AcDbEntity
  8
0
100
AcDbBlockEnd
  0
ENDSEC
  0
SECTION
  2
ENTITIES
  0
LINE
  5
215
100
AcDbEntity
  8
0
100
AcDbLine
 62
7
  6
CONTINUOUS
 10
-10.400030461
 20
-24.5
 11
-7.399969539
 21
-24.5
  0
LINE
  5
216
100
AcDbEntity
  8
0
100
AcDbLine
 62
7
  6
CONTINUOUS
 10
7.399969539
 20
-24.5
 11
10.400030461
 21
-24.5
  0
LINE
  5
217
100
AcDbEntity
  8
0
100
AcDbLine
 62
253
  6
CONTINUOUS
 10
10.3868630041
 20
-24.4868325431
 11
7.4131369959
 21
-24.4868325431
  0
LINE
  5
218
100
AcDbEntity
  8
0
100
AcDbLine
 62
253
  6
CONTINUOUS
 10
-7.4131370461
 20
-24.486832493
 11
-10.3868630041
 21
-24.4868325431
  0
LINE
  5
219
100
AcDbEntity
  8
0
100
AcDbLine
 62
253
  6
CONTINUOUS
 10
10.5859750215
 20
-24.2368706193
 11
7.2140249785
 21
-24.2368706193
  0
LINE
  5
21A
100
AcDbEntity
  8
0
100
AcDbLine
 62
253
  6
CONTINUOUS
 10
-7.2140249785
 20
-24.2368706193
 11
-10.5859750215
 21
-24.2368706193
  0
LINE
  5
21B
100
AcDbEntity
  8
0
100
AcDbLine
 62
7
  6
CONTINUOUS
 10
-4.2000380762
 20
-24.0
 11
-1.0499619238
 21
-24.0
  0
LINE
  5
21C
100
AcDbEntity
  8
0
100
AcDbLine
 62
7
  6
CONTINUOUS
 10
1.0499619238
 20
-24.0
 11
4.2000380762
 21
-24.0
  0
LINE
  5
21D
100
AcDbEntity
  8
0
100
AcDbLine
 62
7
  6
CONTINUOUS
 10
3.7499619238
 20
-23.9825449351
 11
1.0674169887
 21
-23.9825449351
  0
LINE
  5
21E
100
AcDbEntity
  8
0
100
AcDbLine
 62
7
  6
CONTINUOUS
 10
-1.0674169887
 20
-23.9825449351
 11
-3.7499619238
 21
-23.9825449351
  0
LINE
  5
21F
100
AcDbEntity
  8
0
100
AcDbLine
 62
253
  6
CONTINUOUS
 10
10.5859750215
 20
-23.8443375673
 11
9.0368706193
 21
-23.8443375673
  0
LINE
  5
220
100
AcDbEntity
  8
0
100
AcDbLine
 62
253
  6
CONTINUOUS
 10
-7.2140249785
 20
-23.8443375673
 11
-8.7631293807
 21
-23.8443375673
  0
LINE
  5
221
100
AcDbEntity
  8
0
100
AcDbLine
 62
253
  6
CONTINUOUS
 10
8.7631293807
 20
-23.8443375673
 11
7.2140249785
 21
-23.8443375673
  0
LINE
  5
222
100
AcDbEntity
  8
0
100
AcDbLine
 62
253
  6
CONTINUOUS
 10
10.3864421555
 20
-23.6278214108
 11
9.2533769702
 21
-23.6278312163
  0
LINE
  5
223
100
AcDbEntity
  8
0
100
AcDbLine
 62
253
  6
CONTINUOUS
 10
-9.2533769702
 20
-23.6278312163
 11
-10.3864421556
 21
-23.6278214068
  0
LINE
  5
224
100
AcDbEntity
  8
0
100
AcDbLine
 62
253
  6
CONTINUOUS
 10
8.5466230298
 20
-23.6278312163
 11
7.4135581409
 21
-23.6278312163
  0
LINE
  5
225
100
AcDbEntity
  8
0
100
AcDbLine
 62
253
  6
CONTINUOUS
 10
-7.4135581409
 20
-23.6278312163
 11
-8.5466230298
 21
-23.6278312163
  0
LINE
  5
226
100
AcDbEntity
  8
0
100
AcDbLine
 62
7
  6
CONTINUOUS
 10
-10.4017150409
 20
-23.1226497308
 11
-9.3
 21
-23.1226497308
  0
LINE
  5
227
100
AcDbEntity
  8
0
100
AcDbLine
 62
7
  6
CONTINUOUS
 10
-8.5
 20
-23.1226497308
 11
-7.3982849591
 21
-23.1226497308
  0
LINE
  5
228
100
AcDbEntity
  8
0
100
AcDbLine
 62
7
  6
CONTINUOUS
 10
7.3982849591
 20
-23.1226497308
 11
8.5
 21
-23.1226497308
  0
LINE
  5
229
100
AcDbEntity
  8
0
100
AcDbLine
 62
7
  6
CONTINUOUS
 10
9.3
 20
-23.1226497308
 11
10.4017150409
 21
-23.1226497308
  0
LINE
  5
22A
100
AcDbEntity
  8
0
100
AcDbLine
 62
253
  6
CONTINUOUS
 10
-9.0368706193
 20
-23.8443375673
 11
-10.5859750215
 21
-23.8443375673
  0
LINE
  5
22B
100
AcDbEntity
  8
0
100
AcDbLine
 62
253
  6
CONTINUOUS
 10
-7.4131369959
 20
24.4868325431
 11
-7.399969539
 21
24.5
  0
LINE
  5
22C
100
AcDbEntity
  8
0
100
AcDbLine
 62
253
  6
CONTINUOUS
 10
-7.2131674569
 20
24.2868630041
 11
-7.2
 21
24.300030461
  0
LINE
  5
22D
100
AcDbEntity
  8
0
100
AcDbLine
 62
7
  6
CONTINUOUS
 10
-8.5
 20
22.4
 11
-8.5131674569
 21
22.3868325431
  0
LINE
  5
22E
100
AcDbEntity
  8
0
100
AcDbLine
 62
7
  6
CONTINUOUS
 10
-7.2551134101
 20
22.3825449351
 11
-8.2325449351
 21
21.4051134101
  0
LINE
  5
22F
100
AcDbEntity
  8
0
100
AcDbLine
 62
7
  6
CONTINUOUS
 10
-8.0579942858
 20
20.9872686779
 11
-8.2325449351
 21
20.9
  0
LINE
  5
230
100
AcDbEntity
  8
0
100
AcDbLine
 62
7
  6
CONTINUOUS
 10
-8.0584656028
 20
21.4561094406
 11
-8.2325449351
 21
21.4051134101
  0
LINE
  5
231
100
AcDbEntity
  8
0
100
AcDbLine
 62
7
  6
CONTINUOUS
 10
0.8
 20
-22.4
 11
0.8174550649
 21
-22.398254669
  0
LINE
  5
232
100
AcDbEntity
  8
0
100
AcDbLine
 62
7
  6
CONTINUOUS
 10
-10.6
 20
-22.3999999999
 11
-9.3
 21
-22.4
  0
LINE
  5
233
100
AcDbEntity
  8
0
100
AcDbLine
 62
7
  6
CONTINUOUS
 10
-8.5
 20
-22.4
 11
-4.45
 21
-22.4
  0
LINE
  5
234
100
AcDbEntity
  8
0
100
AcDbLine
 62
7
  6
CONTINUOUS
 10
4.45
 20
-22.4
 11
8.5
 21
-22.4
  0
LINE
  5
235
100
AcDbEntity
  8
0
100
AcDbLine
 62
7
  6
CONTINUOUS
 10
9.3
 20
-22.4
 11
10.6000000646
 21
-22.3999999354
  0
LINE
  5
236
100
AcDbEntity
  8
0
100
AcDbLine
 62
7
  6
CONTINUOUS
 10
-0.8174550649
 20
-22.398254669
 11
0.8174550649
 21
-22.398254669
  0
LINE
  5
237
100
AcDbEntity
  8
0
100
AcDbLine
 62
7
  6
CONTINUOUS
 10
-10.5826210875
 20
-22.3825449351
 11
-9.0368706193
 21
-22.3825449351
  0
LINE
  5
238
100
AcDbEntity
  8
0
100
AcDbLine
 62
7
  6
CONTINUOUS
 10
-8.7631293807
 20
-22.3825449351
 11
-7.2551134101
 21
-22.3825449351
  0
LINE
  5
239
100
AcDbEntity
  8
0
100
AcDbLine
 62
7
  6
CONTINUOUS
 10
3.5
 20
-22.3825449351
 11
2.7999714434
 21
-22.3825449351
  0
LINE
  5
23A
100
AcDbEntity
  8
0
100
AcDbLine
 62
7
  6
CONTINUOUS
 10
-2.7999714434
 20
-22.3825449351
 11
-3.5
 21
-22.3825449351
  0
LINE
  5
23B
100
AcDbEntity
  8
0
100
AcDbLine
 62
7
  6
CONTINUOUS
 10
7.2551134101
 20
-22.3825449351
 11
8.7631293807
 21
-22.3825449351
  0
LINE
  5
23C
100
AcDbEntity
  8
0
100
AcDbLine
 62
7
  6
CONTINUOUS
 10
9.0368706193
 20
-22.3825449351
 11
10.5826210875
 21
-22.3825449351
  0
LINE
  5
23D
100
AcDbEntity
  8
0
100
AcDbLine
 62
253
  6
CONTINUOUS
 10
-7.3012233427
 20
-22.2251447178
 11
-2.8786655583
 21
-22.2251447178
  0
LINE
  5
23E
100
AcDbEntity
  8
0
100
AcDbLine
 62
253
  6
CONTINUOUS
 10
2.8786655583
 20
-22.2251447178
 11
7.3012233427
 21
-22.2251447178
  0
LINE
  5
23F
100
AcDbEntity
  8
0
100
AcDbLine
 62
7
  6
CONTINUOUS
 10
2.55
 20
-21.7
 11
-2.55
 21
-21.7
  0
LINE
  5
240
100
AcDbEntity
  8
0
100
AcDbLine
 62
7
  6
CONTINUOUS
 10
2.6173032135
 20
-21.6326967865
 11
-2.6173032135
 21
-21.6326967865
  0
LINE
  5
241
100
AcDbEntity
  8
0
100
AcDbLine
 62
253
  6
CONTINUOUS
 10
-8.0579942858
 20
-21.2252970227
 11
-2.6351059998
 21
-21.2252970227
  0
LINE
  5
242
100
AcDbEntity
  8
0
100
AcDbLine
 62
253
  6
CONTINUOUS
 10
2.6351059998
 20
-21.2252970227
 11
8.0579942858
 21
-21.2252970227
  0
LINE
  5
243
100
AcDbEntity
  8
RACCORDO
100
AcDbLine
 62
7
  6
CONTINUOUS
 10
8.0579942858
 20
-20.9872686779
 11
6.9153379589
 21
-20.9872686779
  0
LINE
  5
244
100
AcDbEntity
  8
RACCORDO
100
AcDbLine
 62
7
  6
CONTINUOUS
 10
-6.9153379589
 20
-20.9872686779
 11
-8.0579942858
 21
-20.9872686779
  0
LINE
  5
245
100
AcDbEntity
  8
0
100
AcDbLine
 62
7
  6
CONTINUOUS
 10
-9.65
 20
-20.9
 11
-8.2325449351
 21
-20.9
  0
LINE
  5
246
100
AcDbEntity
  8
0
100
AcDbLine
 62
7
  6
CONTINUOUS
 10
8.2325449351
 20
-20.9
 11
9.65
 21
-20.9
  0
LINE
  5
247
100
AcDbEntity
  8
0
100
AcDbLine
 62
7
  6
CONTINUOUS
 10
-0.8
 20
-22.4
 11
-0.8174550649
 21
-22.398254669
  0
LINE
  5
248
100
AcDbEntity
  8
0
100
AcDbLine
 62
7
  6
CONTINUOUS
 10
-8.0584656028
 20
-21.4561094406
 11
-8.2325449351
 21
-21.4051134101
  0
LINE
  5
249
100
AcDbEntity
  8
0
100
AcDbLine
 62
7
  6
CONTINUOUS
 10
-8.0579942858
 20
-20.9872686779
 11
-8.2325449351
 21
-20.9
  0
LINE
  5
24A
100
AcDbEntity
  8
0
100
AcDbLine
 62
253
  6
CONTINUOUS
 10
-7.399969539
 20
-24.5
 11
-7.4131370461
 21
-24.486832493
  0
LINE
  5
24B
100
AcDbEntity
  8
0
100
AcDbLine
 62
253
  6
CONTINUOUS
 10
-7.2
 20
-24.300030461
 11
-7.2131674569
 21
-24.286863004
  0
LINE
  5
24C
100
AcDbEntity
  8
0
100
AcDbLine
 62
7
  6
CONTINUOUS
 10
-8.5
 20
-22.4
 11
-8.5131674569
 21
-22.3868325431
  0
LINE
  5
24D
100
AcDbEntity
  8
0
100
AcDbLine
 62
7
  6
CONTINUOUS
 10
-8.2325449351
 20
-21.4051134101
 11
-7.2551134101
 21
-22.3825449351
  0
LINE
  5
24E
100
AcDbEntity
  8
RACCORDO
100
AcDbLine
 62
7
  6
CONTINUOUS
 10
-7.3696313037
 20
20.8303686963
 11
-7.2153265358
 21
20.9846734642
  0
LINE
  5
24F
100
AcDbEntity
  8
0
100
AcDbLine
 62
253
  6
CONTINUOUS
 10
-3.8306228363
 20
23.9018840226
 11
-3.7499619238
 21
23.9825449351
  0
LINE
  5
250
100
AcDbEntity
  8
0
100
AcDbLine
 62
253
  6
CONTINUOUS
 10
-3.5806626995
 20
23.6519203118
 11
-3.5
 21
23.7325830113
  0
LINE
  5
251
100
AcDbEntity
  8
0
100
AcDbLine
 62
7
  6
CONTINUOUS
 10
-2.8850964806
 20
-20.8
 11
2.8850964806
 21
-20.8
  0
LINE
  5
252
100
AcDbEntity
  8
0
100
AcDbLine
 62
7
  6
CONTINUOUS
 10
-11.1261859216
 20
-20.4226497308
 11
-11.0825449351
 21
-20.4226497308
  0
LINE
  5
253
100
AcDbEntity
  8
0
100
AcDbLine
 62
7
  6
CONTINUOUS
 10
11.1261859216
 20
-20.4226497308
 11
11.0825449351
 21
-20.4226497308
  0
LINE
  5
254
100
AcDbEntity
  8
RACCORDO
100
AcDbLine
 62
7
  6
CONTINUOUS
 10
6.8846620411
 20
-20.0872686779
 11
-6.886691934
 21
-20.0872686779
  0
LINE
  5
255
100
AcDbEntity
  8
RACCORDO
100
AcDbLine
 62
253
  6
CONTINUOUS
 10
6.5846734642
 20
-19.0001037691
 11
7.2153265358
 21
-19.0001037691
  0
LINE
  5
256
100
AcDbEntity
  8
RACCORDO
100
AcDbLine
 62
253
  6
CONTINUOUS
 10
-6.5867033571
 20
-19.0001037691
 11
-7.2153265358
 21
-19.0001037691
  0
LINE
  5
257
100
AcDbEntity
  8
RACCORDO
100
AcDbLine
 62
7
  6
CONTINUOUS
 10
-7.2153265358
 20
-20.9846734642
 11
-7.3696313037
 21
-20.8303686963
  0
LINE
  5
258
100
AcDbEntity
  8
0
100
AcDbLine
 62
253
  6
CONTINUOUS
 10
-3.7499619238
 20
-23.9825449351
 11
-3.8306228363
 21
-23.9018840226
  0
LINE
  5
259
100
AcDbEntity
  8
0
100
AcDbLine
 62
253
  6
CONTINUOUS
 10
-3.5
 20
-23.7325830113
 11
-3.5806626995
 21
-23.6519203118
  0
LINE
  5
25A
100
AcDbEntity
  8
0
100
AcDbLine
 62
7
  6
CONTINUOUS
 10
-3.5806609125
 20
22.3018840226
 11
-3.5
 21
22.3825449351
  0
LINE
  5
25B
100
AcDbEntity
  8
0
100
AcDbLine
 62
253
  6
CONTINUOUS
 10
-1.0674169887
 20
23.9825449351
 11
-1.0499619238
 21
24.0
  0
LINE
  5
25C
100
AcDbEntity
  8
0
100
AcDbLine
 62
253
  6
CONTINUOUS
 10
-0.8174550649
 20
23.7325830113
 11
-0.8
 21
23.7500380762
  0
LINE
  5
25D
100
AcDbEntity
  8
0
100
AcDbLine
 62
7
  6
CONTINUOUS
 10
-2.55
 20
21.7
 11
-2.6173032135
 21
21.6326967865
  0
LINE
  5
25E
100
AcDbEntity
  8
0
100
AcDbLine
 62
7
  6
CONTINUOUS
 10
9.4440317018
 20
20.8313578442
 11
9.65
 21
20.9
  0
LINE
  5
25F
100
AcDbEntity
  8
RACCORDO
100
AcDbLine
 62
253
  6
CONTINUOUS
 10
6.9164857863
 20
-18.5302821996
 11
6.8835142137
 21
-18.5302821997
  0
LINE
  5
260
100
AcDbEntity
  8
RACCORDO
100
AcDbLine
 62
253
  6
CONTINUOUS
 10
-6.8855441066
 20
-18.5302821996
 11
-6.9164857863
 21
-18.5302821997
  0
LINE
  5
261
100
AcDbEntity
  8
0
100
AcDbLine
 62
7
  6
CONTINUOUS
 10
-5.421902
 20
-15.785169
 11
-3.49478
 21
-16.335146
  0
LINE
  5
262
100
AcDbEntity
  8
0
100
AcDbLine
 62
7
  6
CONTINUOUS
 10
9.4440317018
 20
-20.8313578442
 11
9.65
 21
-20.9
  0
LINE
  5
263
100
AcDbEntity
  8
0
100
AcDbLine
 62
7
  6
CONTINUOUS
 10
-3.5
 20
-22.3825449351
 11
-3.5806609125
 21
-22.3018840226
  0
LINE
  5
264
100
AcDbEntity
  8
0
100
AcDbLine
 62
253
  6
CONTINUOUS
 10
-1.0499619238
 20
-24.0
 11
-1.0674169887
 21
-23.9825449351
  0
LINE
  5
265
100
AcDbEntity
  8
0
100
AcDbLine
 62
253
  6
CONTINUOUS
 10
-0.8
 20
-23.7500380762
 11
-0.8174550649
 21
-23.7325830113
  0
LINE
  5
266
100
AcDbEntity
  8
0
100
AcDbLine
 62
7
  6
CONTINUOUS
 10
-2.55
 20
-21.7
 11
-2.6173032135
 21
-21.6326967865
  0
LINE
  5
267
100
AcDbEntity
  8
0
100
AcDbLine
 62
7
  6
CONTINUOUS
 10
-3.49478
 20
-16.335146
 11
-5.421902
 21
-16.86882
  0
LINE
  5
268
100
AcDbEntity
  8
0
100
AcDbLine
 62
7
  6
CONTINUOUS
 10
-5.42207
 20
-14.984285
 11
-2.622199
 21
-14.984285
  0
LINE
  5
269
100
AcDbEntity
  8
0
100
AcDbLine
 62
7
  6
CONTINUOUS
 10
-2.622199
 20
-16.101097
 11
-5.421902
 21
-15.20116
  0
LINE
  5
26A
100
AcDbEntity
  8
0
100
AcDbLine
 62
7
  6
CONTINUOUS
 10
-7.3012233427
 20
22.2251447178
 11
-7.2551134101
 21
22.3825449351
  0
LINE
  5
26B
100
AcDbEntity
  8
0
100
AcDbLine
 62
253
  6
CONTINUOUS
 10
-2.8786655583
 20
22.2251447178
 11
-2.7999714434
 21
22.3825449351
  0
LINE
  5
26C
100
AcDbEntity
  8
0
100
AcDbLine
 62
253
  6
CONTINUOUS
 10
4.1019220988
 20
23.9018840226
 11
4.2000380762
 21
24.0
  0
LINE
  5
26D
100
AcDbEntity
  8
0
100
AcDbLine
 62
253
  6
CONTINUOUS
 10
4.3518822356
 20
23.6519203118
 11
4.45
 21
23.7500380762
  0
LINE
  5
26E
100
AcDbEntity
  8
0
100
AcDbLine
 62
7
  6
CONTINUOUS
 10
4.45
 20
22.4
 11
4.3518840226
 21
22.3018840226
  0
LINE
  5
26F
100
AcDbEntity
  8
0
100
AcDbLine
 62
7
  6
CONTINUOUS
 10
-2.622199
 20
-14.399877
 11
-5.42207
 21
-14.399877
  0
LINE
  5
270
100
AcDbEntity
  8
ASSI
100
AcDbLine
 62
7
  6
CONTINUOUS
 10
5.548037
 20
-12.867554
 11
4.79722
 21
-12.867554
  0
LINE
  5
271
100
AcDbEntity
  8
ASSI
100
AcDbLine
 62
7
  6
CONTINUOUS
 10
1.20278
 20
-12.867554
 11
0.451963
 21
-12.867554
  0
LINE
  5
272
100
AcDbEntity
  8
0
100
AcDbLine
 62
7
  6
CONTINUOUS
 10
-2.622199
 20
-13.526183
 11
-4.450353
 21
-13.400068
  0
LINE
  5
273
100
AcDbEntity
  8
0
100
AcDbLine
 62
7
  6
CONTINUOUS
 10
-5.421902
 20
-13.832475
 11
-2.622199
 21
-14.085272
  0
LINE
  5
274
100
AcDbEntity
  8
0
100
AcDbLine
 62
7
  6
CONTINUOUS
 10
-5.421902
 20
-12.085906
 11
-3.867498
 21
-12.670314
  0
LINE
  5
275
100
AcDbEntity
  8
0
100
AcDbLine
 62
7
  6
CONTINUOUS
 10
-2.622199
 20
-12.632524
 11
-4.442731
 21
-11.937663
  0
LINE
  5
276
100
AcDbEntity
  8
0
100
AcDbLine
 62
253
  6
CONTINUOUS
 10
4.2000380762
 20
-24.0
 11
4.1019220988
 21
-23.9018840226
  0
LINE
  5
277
100
AcDbEntity
  8
0
100
AcDbLine
 62
253
  6
CONTINUOUS
 10
4.45
 20
-23.7500380762
 11
4.3518822356
 21
-23.6519203118
  0
LINE
  5
278
100
AcDbEntity
  8
0
100
AcDbLine
 62
7
  6
CONTINUOUS
 10
4.45
 20
-22.4
 11
4.3518840226
 21
-22.3018840226
  0
LINE
  5
279
100
AcDbEntity
  8
0
100
AcDbLine
 62
253
  6
CONTINUOUS
 10
-2.7999714434
 20
-22.3825449351
 11
-2.8786655583
 21
-22.2251447178
  0
LINE
  5
27A
100
AcDbEntity
  8
0
100
AcDbLine
 62
7
  6
CONTINUOUS
 10
-7.3012233427
 20
-22.2251447178
 11
-7.2551134101
 21
-22.3825449351
  0
LINE
  5
27B
100
AcDbEntity
  8
0
100
AcDbLine
 62
7
  6
CONTINUOUS
 10
-11.1261859216
 20
-20.4226497308
 11
-11.1
 21
-21.0
  0
LINE
  5
27C
100
AcDbEntity
  8
0
100
AcDbLine
 62
253
  6
CONTINUOUS
 10
-10.5864113981
 20
-23.8010362971
 11
-10.6
 21
-23.3515746082
  0
LINE
  5
27D
100
AcDbEntity
  8
0
100
AcDbLine
 62
253
  6
CONTINUOUS
 10
-10.3864421556
 20
-23.6278214068
 11
-10.4017150409
 21
-23.1226497308
  0
LINE
  5
27E
100
AcDbEntity
  8
0
100
AcDbLine
 62
7
  6
CONTINUOUS
 10
-11.1
 20
21.0
 11
-11.0825449351
 21
20.4226497308
  0
LINE
  5
27F
100
AcDbEntity
  8
0
100
AcDbLine
 62
7
  6
CONTINUOUS
 10
-11.1261859216
 20
20.4226497308
 11
-11.1261859216
 21
-20.4226497308
  0
LINE
  5
280
100
AcDbEntity
  8
0
100
AcDbLine
 62
7
  6
CONTINUOUS
 10
-11.1
 20
21.9000761524
 11
-11.1
 21
21.0
  0
LINE
  5
281
100
AcDbEntity
  8
0
100
AcDbLine
 62
7
  6
CONTINUOUS
 10
-11.1
 20
-21.9000761524
 11
-11.1
 21
-21.0
  0
LINE
  5
282
100
AcDbEntity
  8
0
100
AcDbLine
 62
7
  6
CONTINUOUS
 10
-11.0825449351
 20
-21.8826210875
 11
-11.0825449351
 21
-20.4226497308
  0
LINE
  5
283
100
AcDbEntity
  8
0
100
AcDbLine
 62
7
  6
CONTINUOUS
 10
-11.0825449351
 20
20.4226497308
 11
-11.0825449351
 21
21.8826210875
  0
LINE
  5
284
100
AcDbEntity
  8
0
100
AcDbLine
 62
7
  6
CONTINUOUS
 10
-10.6
 20
24.300030461
 11
-10.6000000646
 21
22.3999999296
  0
LINE
  5
285
100
AcDbEntity
  8
0
100
AcDbLine
 62
7
  6
CONTINUOUS
 10
-10.6
 20
-22.3999997358
 11
-10.6
 21
-24.300030461
  0
LINE
  5
286
100
AcDbEntity
  8
0
100
AcDbLine
 62
253
  6
CONTINUOUS
 10
-10.5859750215
 20
-24.2368706193
 11
-10.5859750215
 21
-23.8443375673
  0
LINE
  5
287
100
AcDbEntity
  8
0
100
AcDbLine
 62
253
  6
CONTINUOUS
 10
-10.5859750215
 20
23.8443375673
 11
-10.5859750215
 21
24.2368706193
  0
LINE
  5
288
100
AcDbEntity
  8
0
100
AcDbLine
 62
253
  6
CONTINUOUS
 10
-10.3860054824
 20
-24.2368706193
 11
-10.3860054824
 21
-23.844250724
  0
LINE
  5
289
100
AcDbEntity
  8
0
100
AcDbLine
 62
253
  6
CONTINUOUS
 10
-10.3860054824
 20
23.844357602
 11
-10.3860054824
 21
24.2368706193
  0
LINE
  5
28A
100
AcDbEntity
  8
0
100
AcDbLine
 62
253
  6
CONTINUOUS
 10
-10.6
 20
23.3515746082
 11
-10.5864113981
 21
23.8010362971
  0
LINE
  5
28B
100
AcDbEntity
  8
0
100
AcDbLine
 62
253
  6
CONTINUOUS
 10
-10.4017150409
 20
23.1226497308
 11
-10.3864405812
 21
23.6278734826
  0
LINE
  5
28C
100
AcDbEntity
  8
0
100
AcDbLine
 62
7
  6
CONTINUOUS
 10
-11.0825449351
 20
-20.4226497308
 11
-11.1
 21
-21.0
  0
LINE
  5
28D
100
AcDbEntity
  8
0
100
AcDbLine
 62
7
  6
CONTINUOUS
 10
-11.1
 20
21.0
 11
-11.1261859216
 21
20.4226497308
  0
LINE
  5
28E
100
AcDbEntity
  8
0
100
AcDbLine
 62
253
  6
CONTINUOUS
 10
-2.6286750776
 20
21.975182794
 11
-2.55
 21
22.1325449336
  0
LINE
  5
28F
100
AcDbEntity
  8
0
100
AcDbLine
 62
7
  6
CONTINUOUS
 10
-2.332602
 20
14.884218
 11
-3.734084
 21
13.482781
  0
LINE
  5
290
100
AcDbEntity
  8
0
100
AcDbLine
 62
7
  6
CONTINUOUS
 10
-3.734085
 20
12.977428
 11
-2.332602
 21
14.378908
  0
LINE
  5
291
100
AcDbEntity
  8
0
100
AcDbLine
 62
7
  6
CONTINUOUS
 10
-2.3326022667
 20
12.0091102667
 11
-3.5390401333
 21
11.3760414667
  0
LINE
  5
292
100
AcDbEntity
  8
0
100
AcDbLine
 62
7
  6
CONTINUOUS
 10
-3.8639484
 20
10.8020069333
 11
-2.3326022667
 21
11.6055537333
  0
LINE
  5
293
100
AcDbEntity
  8
0
100
AcDbLine
 62
7
  6
CONTINUOUS
 10
-2.622199
 20
-11.245888
 11
-5.421902
 21
-11.507692
  0
LINE
  5
294
100
AcDbEntity
  8
0
100
AcDbLine
 62
7
  6
CONTINUOUS
 10
-4.442731
 20
-11.937663
 11
-2.622199
 21
-11.817594
  0
LINE
  5
295
100
AcDbEntity
  8
0
100
AcDbLine
 62
7
  6
CONTINUOUS
 10
-3.613609
 20
-10.295249
 11
-4.652615
 21
-10.004263
  0
LINE
  5
296
100
AcDbEntity
  8
0
100
AcDbLine
 62
7
  6
CONTINUOUS
 10
-2.622199
 20
-10.576053
 11
-3.181119
 21
-10.414793
  0
LINE
  5
297
100
AcDbEntity
  8
0
100
AcDbLine
 62
7
  6
CONTINUOUS
 10
-5.421902
 20
-10.275955
 11
-2.622199
 21
-11.15412
  0
LINE
  5
298
100
AcDbEntity
  8
0
100
AcDbLine
 62
253
  6
CONTINUOUS
 10
-2.55
 20
-22.1325449336
 11
-2.6286750776
 21
-21.975182794
  0
LINE
  5
299
100
AcDbEntity
  8
0
100
AcDbLine
 62
7
  6
CONTINUOUS
 10
-9.3
 20
-23.1226497308
 11
-9.2868325431
 21
-23.5581814706
  0
LINE
  5
29A
100
AcDbEntity
  8
0
100
AcDbLine
 62
7
  6
CONTINUOUS
 10
-9.65
 20
-20.9
 11
-9.65
 21
20.9
  0
LINE
  5
29B
100
AcDbEntity
  8
0
100
AcDbLine
 62
7
  6
CONTINUOUS
 10
-9.3
 20
23.1226497308
 11
-9.3
 21
22.4
  0
LINE
  5
29C
100
AcDbEntity
  8
0
100
AcDbLine
 62
7
  6
CONTINUOUS
 10
-9.3
 20
-22.4
 11
-9.3
 21
-23.1226497308
  0
LINE
  5
29D
100
AcDbEntity
  8
0
100
AcDbLine
 62
253
  6
CONTINUOUS
 10
-9.2868325431
 20
23.5581814706
 11
-9.2868325431
 21
22.3868325431
  0
LINE
  5
29E
100
AcDbEntity
  8
0
100
AcDbLine
 62
253
  6
CONTINUOUS
 10
-9.2868325431
 20
-22.3868325431
 11
-9.2868325431
 21
-23.5581814706
  0
LINE
  5
29F
100
AcDbEntity
  8
0
100
AcDbLine
 62
253
  6
CONTINUOUS
 10
-9.0368706193
 20
23.8443375673
 11
-9.0368706193
 21
22.3825449351
  0
LINE
  5
2A0
100
AcDbEntity
  8
0
100
AcDbLine
 62
253
  6
CONTINUOUS
 10
-9.0368706193
 20
-22.3825449351
 11
-9.0368706193
 21
-23.8443375673
  0
LINE
  5
2A1
100
AcDbEntity
  8
0
100
AcDbLine
 62
253
  6
CONTINUOUS
 10
-8.7631293807
 20
23.8443375673
 11
-8.7631293807
 21
22.3825449351
  0
LINE
  5
2A2
100
AcDbEntity
  8
0
100
AcDbLine
 62
253
  6
CONTINUOUS
 10
-8.7631293807
 20
-22.3825449351
 11
-8.7631293807
 21
-23.8443375673
  0
LINE
  5
2A3
100
AcDbEntity
  8
0
100
AcDbLine
 62
253
  6
CONTINUOUS
 10
-8.5131674569
 20
23.5581814706
 11
-8.5131674569
 21
22.3868325431
  0
LINE
  5
2A4
100
AcDbEntity
  8
0
100
AcDbLine
 62
253
  6
CONTINUOUS
 10
-8.5131674569
 20
-22.3868325431
 11
-8.5131674569
 21
-23.5581814706
  0
LINE
  5
2A5
100
AcDbEntity
  8
0
100
AcDbLine
 62
7
  6
CONTINUOUS
 10
-8.5
 20
23.1226497308
 11
-8.5
 21
22.4
  0
LINE
  5
2A6
100
AcDbEntity
  8
0
100
AcDbLine
 62
7
  6
CONTINUOUS
 10
-8.5
 20
-22.4
 11
-8.5
 21
-23.1226497308
  0
LINE
  5
2A7
100
AcDbEntity
  8
0
100
AcDbLine
 62
7
  6
CONTINUOUS
 10
-8.2325449351
 20
21.4051134101
 11
-8.2325449351
 21
20.9
  0
LINE
  5
2A8
100
AcDbEntity
  8
0
100
AcDbLine
 62
7
  6
CONTINUOUS
 10
-8.2325449351
 20
-21.4051134101
 11
-8.2325449351
 21
-20.9
  0
LINE
  5
2A9
100
AcDbEntity
  8
0
100
AcDbLine
 62
7
  6
CONTINUOUS
 10
-9.2868325431
 20
23.5581814706
 11
-9.3
 21
23.1226497308
  0
LINE
  5
2AA
100
AcDbEntity
  8
0
100
AcDbLine
 62
253
  6
CONTINUOUS
 10
10.6
 20
22.3999999999
 11
10.5826210875
 21
22.3825449351
  0
LINE
  5
2AB
100
AcDbEntity
  8
0
100
AcDbLine
 62
253
  6
CONTINUOUS
 10
10.400030461
 20
24.5
 11
10.3868630041
 21
24.4868325431
  0
LINE
  5
2AC
100
AcDbEntity
  8
0
100
AcDbLine
 62
253
  6
CONTINUOUS
 10
10.6
 20
24.300030461
 11
10.5868325431
 21
24.2868630041
  0
LINE
  5
2AD
100
AcDbEntity
  8
RACCORDO
100
AcDbLine
 62
7
  6
CONTINUOUS
 10
6.5846734642
 20
20.0846734642
 11
6.4296263217
 21
19.9296263217
  0
LINE
  5
2AE
100
AcDbEntity
  8
0
100
AcDbLine
 62
7
  6
CONTINUOUS
 10
9.3
 20
22.4
 11
9.2868325431
 21
22.3868325431
  0
LINE
  5
2AF
100
AcDbEntity
  8
ASSI
100
AcDbLine
 62
7
  6
CONTINUOUS
 10
4.177022
 20
12.772879
 11
4.518741
 21
12.964676
  0
LINE
  5
2B0
100
AcDbEntity
  8
0
100
AcDbLine
 62
7
  6
CONTINUOUS
 10
-3.181119
 20
-9.618926
 11
-2.622199
 21
-9.467534
  0
LINE
  5
2B1
100
AcDbEntity
  8
0
100
AcDbLine
 62
7
  6
CONTINUOUS
 10
-4.652615
 20
-10.004263
 11
-3.613609
 21
-9.73572
  0
LINE
  5
2B2
100
AcDbEntity
  8
ASSI
100
AcDbLine
 62
7
  6
CONTINUOUS
 10
3.375
 20
-8.882444
 11
2.625
 21
-8.882444
  0
LINE
  5
2B3
100
AcDbEntity
  8
0
100
AcDbLine
 62
7
  6
CONTINUOUS
 10
-5.389192659
 20
-8.6799811977
 11
-2.6221986456
 21
-8.6799811977
  0
LINE
  5
2B4
100
AcDbEntity
  8
ASSI
100
AcDbLine
 62
7
  6
CONTINUOUS
 10
5.5480371177
 20
-8.482444
 11
4.7972169516
 21
-8.482444
  0
LINE
  5
2B5
100
AcDbEntity
  8
ASSI
100
AcDbLine
 62
7
  6
CONTINUOUS
 10
1.20278
 20
-8.482444
 11
0.4519628823
 21
-8.482444
  0
LINE
  5
2B6
100
AcDbEntity
  8
0
100
AcDbLine
 62
253
  6
CONTINUOUS
 10
10.3868630041
 20
-24.4868325431
 11
10.400030461
 21
-24.5
  0
LINE
  5
2B7
100
AcDbEntity
  8
0
100
AcDbLine
 62
253
  6
CONTINUOUS
 10
10.5868325431
 20
-24.286863004
 11
10.6
 21
-24.300030461
  0
LINE
  5
2B8
100
AcDbEntity
  8
RACCORDO
100
AcDbLine
 62
7
  6
CONTINUOUS
 10
6.5846734642
 20
-20.0846734642
 11
6.4296263217
 21
-19.9296263217
  0
LINE
  5
2B9
100
AcDbEntity
  8
0
100
AcDbLine
 62
7
  6
CONTINUOUS
 10
9.3
 20
-22.4
 11
9.2868325431
 21
-22.3868325431
  0
LINE
  5
2BA
100
AcDbEntity
  8
0
100
AcDbLine
 62
253
  6
CONTINUOUS
 10
10.5826210875
 20
-22.3825449351
 11
10.6000000646
 21
-22.3999999354
  0
LINE
  5
2BB
100
AcDbEntity
  8
0
100
AcDbLine
 62
7
  6
CONTINUOUS
 10
-8.5131674569
 20
23.5581814706
 11
-8.5
 21
23.1226497308
  0
LINE
  5
2BC
100
AcDbEntity
  8
0
100
AcDbLine
 62
253
  6
CONTINUOUS
 10
-7.3982849591
 20
23.1226497308
 11
-7.4135581657
 21
23.6278320349
  0
LINE
  5
2BD
100
AcDbEntity
  8
0
100
AcDbLine
 62
253
  6
CONTINUOUS
 10
-7.2
 20
23.3515746082
 11
-7.2135886019
 21
23.8010362971
  0
LINE
  5
2BE
100
AcDbEntity
  8
RACCORDO
100
AcDbLine
 62
253
  6
CONTINUOUS
 10
-7.2164749565
 20
-18.8121652449
 11
-7.3724455921
 21
-12.3071201189
  0
LINE
  5
2BF
100
AcDbEntity
  8
RACCORDO
100
AcDbLine
 62
253
  6
CONTINUOUS
 10
-6.9164857863
 20
-18.5302821997
 11
-7.0735541154
 21
-11.9794557283
  0
LINE
  5
2C0
100
AcDbEntity
  8
RACCORDO
100
AcDbLine
 62
253
  6
CONTINUOUS
 10
-6.8855435134
 20
18.5302574587
 11
-6.7283138838
 21
11.9727036537
  0
LINE
  5
2C1
100
AcDbEntity
  8
RACCORDO
100
AcDbLine
 62
253
  6
CONTINUOUS
 10
-6.5855549364
 20
18.8121652449
 11
-6.4291437218
 21
12.2887449546
  0
LINE
  5
2C2
100
AcDbEntity
  8
0
100
AcDbLine
 62
7
  6
CONTINUOUS
 10
-8.0579942858
 20
-21.2252970227
 11
-8.0579942858
 21
-20.9872686779
  0
LINE
  5
2C3
100
AcDbEntity
  8
0
100
AcDbLine
 62
7
  6
CONTINUOUS
 10
-8.0579942858
 20
20.9872686779
 11
-8.0579942858
 21
21.2252970227
  0
LINE
  5
2C4
100
AcDbEntity
  8
0
100
AcDbLine
 62
253
  6
CONTINUOUS
 10
-7.4139945176
 20
-24.2368706193
 11
-7.4139945176
 21
-23.8443359174
  0
LINE
  5
2C5
100
AcDbEntity
  8
0
100
AcDbLine
 62
253
  6
CONTINUOUS
 10
-7.4139945176
 20
23.8443375673
 11
-7.4139945176
 21
24.2368735057
  0
LINE
  5
2C6
100
AcDbEntity
  8
RACCORDO
100
AcDbLine
 62
7
  6
CONTINUOUS
 10
-7.2153265358
 20
-20.9846734642
 11
-7.2153265358
 21
-19.0001037691
  0
LINE
  5
2C7
100
AcDbEntity
  8
RACCORDO
100
AcDbLine
 62
7
  6
CONTINUOUS
 10
-7.2153265358
 20
19.0001037691
 11
-7.2153265358
 21
20.9846734642
  0
LINE
  5
2C8
100
AcDbEntity
  8
0
100
AcDbLine
 62
253
  6
CONTINUOUS
 10
-7.2140249785
 20
-24.2368706193
 11
-7.2140249785
 21
-23.8443375673
  0
LINE
  5
2C9
100
AcDbEntity
  8
0
100
AcDbLine
 62
253
  6
CONTINUOUS
 10
-7.2140249785
 20
23.8443375673
 11
-7.2140249785
 21
24.2368706193
  0
LINE
  5
2CA
100
AcDbEntity
  8
0
100
AcDbLine
 62
7
  6
CONTINUOUS
 10
-7.2
 20
24.300030461
 11
-7.2
 21
22.4
  0
LINE
  5
2CB
100
AcDbEntity
  8
0
100
AcDbLine
 62
7
  6
CONTINUOUS
 10
-7.2
 20
-22.4
 11
-7.2
 21
-24.300030461
  0
LINE
  5
2CC
100
AcDbEntity
  8
RACCORDO
100
AcDbLine
 62
253
  6
CONTINUOUS
 10
-6.9153379589
 20
-20.9872686779
 11
-6.9153379589
 21
-19.0001037691
  0
LINE
  5
2CD
100
AcDbEntity
  8
RACCORDO
100
AcDbLine
 62
253
  6
CONTINUOUS
 10
-6.9153379589
 20
19.0000303104
 11
-6.9153379589
 21
20.9872686779
  0
LINE
  5
2CE
100
AcDbEntity
  8
RACCORDO
100
AcDbLine
 62
253
  6
CONTINUOUS
 10
-6.886691934
 20
20.0872686779
 11
-6.886691934
 21
19.0000303104
  0
LINE
  5
2CF
100
AcDbEntity
  8
RACCORDO
100
AcDbLine
 62
253
  6
CONTINUOUS
 10
-6.886691934
 20
-19.0001037691
 11
-6.886691934
 21
-20.0872686779
  0
LINE
  5
2D0
100
AcDbEntity
  8
RACCORDO
100
AcDbLine
 62
7
  6
CONTINUOUS
 10
-6.5867033571
 20
20.0846734642
 11
-6.5867033571
 21
19.0001037691
  0
LINE
  5
2D1
100
AcDbEntity
  8
RACCORDO
100
AcDbLine
 62
7
  6
CONTINUOUS
 10
-6.5867033571
 20
-19.0001037691
 11
-6.5867033571
 21
-20.0846734642
  0
LINE
  5
2D2
100
AcDbEntity
  8
RACCORDO
100
AcDbLine
 62
253
  6
CONTINUOUS
 10
-7.3724455921
 20
12.3071201189
 11
-7.2164749565
 21
18.8121652449
  0
LINE
  5
2D3
100
AcDbEntity
  8
RACCORDO
100
AcDbLine
 62
253
  6
CONTINUOUS
 10
-7.0735541154
 20
11.9794557283
 11
-6.9164863796
 21
18.5302574587
  0
LINE
  5
2D4
100
AcDbEntity
  8
RACCORDO
100
AcDbLine
 62
253
  6
CONTINUOUS
 10
-6.7283138838
 20
-11.9727036537
 11
-6.8855441066
 21
-18.5302821996
  0
LINE
  5
2D5
100
AcDbEntity
  8
RACCORDO
100
AcDbLine
 62
253
  6
CONTINUOUS
 10
-6.4291437218
 20
-12.2887449546
 11
-6.5855549364
 21
-18.8121652449
  0
LINE
  5
2D6
100
AcDbEntity
  8
0
100
AcDbLine
 62
7
  6
CONTINUOUS
 10
-8.5
 20
-23.1226497308
 11
-8.5131674569
 21
-23.5581814706
  0
LINE
  5
2D7
100
AcDbEntity
  8
0
100
AcDbLine
 62
253
  6
CONTINUOUS
 10
-7.4135581409
 20
-23.6278312163
 11
-7.3982849591
 21
-23.1226497308
  0
LINE
  5
2D8
100
AcDbEntity
  8
0
100
AcDbLine
 62
253
  6
CONTINUOUS
 10
-7.2135886019
 20
-23.8010362971
 11
-7.2
 21
-23.3515746082
  0
LINE
  5
2D9
100
AcDbEntity
  8
0
100
AcDbLine
 62
253
  6
CONTINUOUS
 10
11.1
 20
21.9000761524
 11
11.0825449351
 21
21.8826210875
  0
LINE
  5
2DA
100
AcDbEntity
  8
0
100
AcDbLine
 62
7
  6
CONTINUOUS
 10
-4.1763719134
 20
-8.1173027459
 11
-4.9449452041
 21
-8.1173027459
  0
LINE
  5
2DB
100
AcDbEntity
  8
0
100
AcDbLine
 62
7
  6
CONTINUOUS
 10
-2.6221986456
 20
-8.0979246551
 11
-3.7178480752
 21
-8.0979246551
  0
LINE
  5
2DC
100
AcDbEntity
  8
0
100
AcDbLine
 62
7
  6
CONTINUOUS
 10
-3.9290755631
 20
-7.1774968351
 11
-3.945619372
 21
-7.1774968351
  0
LINE
  5
2DD
100
AcDbEntity
  8
0
100
AcDbLine
 62
7
  6
CONTINUOUS
 10
7.3
 20
-6.958315
 11
8.7
 21
-6.958315
  0
LINE
  5
2DE
100
AcDbEntity
  8
0
100
AcDbLine
 62
7
  6
CONTINUOUS
 10
8.7
 20
-6.775036
 11
7.526106
 21
-6.775036
  0
LINE
  5
2DF
100
AcDbEntity
  8
0
100
AcDbLine
 62
253
  6
CONTINUOUS
 10
11.0825449351
 20
-21.8826210875
 11
11.1
 21
-21.9000761524
  0
LINE
  5
2E0
100
AcDbEntity
  8
0
100
AcDbLine
 62
7
  6
CONTINUOUS
 10
-6.017517
 20
17.002039
 11
-6.017517
 21
16.49673
  0
LINE
  5
2E1
100
AcDbEntity
  8
0
100
AcDbLine
 62
7
  6
CONTINUOUS
 10
-5.42207
 20
-14.399877
 11
-5.42207
 21
-14.984285
  0
LINE
  5
2E2
100
AcDbEntity
  8
0
100
AcDbLine
 62
7
  6
CONTINUOUS
 10
-5.421902
 20
-9.71061
 11
-5.421902
 21
-10.275955
  0
LINE
  5
2E3
100
AcDbEntity
  8
0
100
AcDbLine
 62
7
  6
CONTINUOUS
 10
-5.421902
 20
-11.507692
 11
-5.421902
 21
-12.085906
  0
LINE
  5
2E4
100
AcDbEntity
  8
0
100
AcDbLine
 62
7
  6
CONTINUOUS
 10
-5.421902
 20
-13.24855
 11
-5.421902
 21
-13.832475
  0
LINE
  5
2E5
100
AcDbEntity
  8
0
100
AcDbLine
 62
7
  6
CONTINUOUS
 10
-5.421902
 20
-15.20116
 11
-5.421902
 21
-15.785169
  0
LINE
  5
2E6
100
AcDbEntity
  8
0
100
AcDbLine
 62
7
  6
CONTINUOUS
 10
-5.421902
 20
-16.86882
 11
-5.421902
 21
-17.503668
  0
LINE
  5
2E7
100
AcDbEntity
  8
0
100
AcDbLine
 62
7
  6
CONTINUOUS
 10
-5.383976
 20
15.863188
 11
-5.383976
 21
16.368519
  0
LINE
  5
2E8
100
AcDbEntity
  8
0
100
AcDbLine
 62
7
  6
CONTINUOUS
 10
-5.138732
 20
14.887385
 11
-5.138732
 21
14.382075
  0
LINE
  5
2E9
100
AcDbEntity
  8
0
100
AcDbLine
 62
7
  6
CONTINUOUS
 10
-5.133427
 20
12.826972
 11
-5.133427
 21
12.469637
  0
LINE
  5
2EA
100
AcDbEntity
  8
0
100
AcDbLine
 62
7
  6
CONTINUOUS
 10
-5.128761
 20
17.142756
 11
-5.128761
 21
15.252639
  0
LINE
  5
2EB
100
AcDbEntity
  8
0
100
AcDbLine
 62
7
  6
CONTINUOUS
 10
-5.1247398667
 20
11.1333281333
 11
-5.1247398667
 21
10.0089424
  0
LINE
  5
2EC
100
AcDbEntity
  8
0
100
AcDbLine
 62
7
  6
CONTINUOUS
 10
-5.12474
 20
9.640522
 11
-5.12474
 21
9.325752
  0
LINE
  5
2ED
100
AcDbEntity
  8
0
100
AcDbLine
 62
7
  6
CONTINUOUS
 10
-4.771426
 20
15.609976
 11
-4.771426
 21
17.142756
  0
LINE
  5
2EE
100
AcDbEntity
  8
0
100
AcDbLine
 62
7
  6
CONTINUOUS
 10
-4.45
 20
-23.7500380762
 11
-4.45
 21
-23.4179449472
  0
LINE
  5
2EF
100
AcDbEntity
  8
0
100
AcDbLine
 62
7
  6
CONTINUOUS
 10
-4.45
 20
-22.9820550528
 11
-4.45
 21
-22.4
  0
LINE
  5
2F0
100
AcDbEntity
  8
0
100
AcDbLine
 62
7
  6
CONTINUOUS
 10
-4.45
 20
22.4
 11
-4.45
 21
22.9820550528
  0
LINE
  5
2F1
100
AcDbEntity
  8
0
100
AcDbLine
 62
7
  6
CONTINUOUS
 10
-4.45
 20
23.4179449472
 11
-4.45
 21
23.7500380762
  0
LINE
  5
2F2
100
AcDbEntity
  8
0
100
AcDbLine
 62
7
  6
CONTINUOUS
 10
-4.3539971429
 20
23.5393800954
 11
-4.3539971429
 21
22.8606199046
  0
LINE
  5
2F3
100
AcDbEntity
  8
0
100
AcDbLine
 62
7
  6
CONTINUOUS
 10
-4.3539971429
 20
-22.8606199046
 11
-4.3539971429
 21
-23.5393800954
  0
LINE
  5
2F4
100
AcDbEntity
  8
0
100
AcDbLine
 62
253
  6
CONTINUOUS
 10
-4.3518840226
 20
-23.6519220988
 11
-4.3518840226
 21
-22.3018840226
  0
LINE
  5
2F5
100
AcDbEntity
  8
0
100
AcDbLine
 62
253
  6
CONTINUOUS
 10
-4.3518840226
 20
22.3018840226
 11
-4.3518840226
 21
23.6519220988
  0
LINE
  5
2F6
100
AcDbEntity
  8
0
100
AcDbLine
 62
7
  6
CONTINUOUS
 10
-4.1763719134
 20
-7.7833193568
 11
-4.1763719134
 21
-8.1173027459
  0
LINE
  5
2F7
100
AcDbEntity
  8
ASSI
100
AcDbLine
 62
7
  6
CONTINUOUS
 10
2.391613
 20
11.780825
 11
1.4039
 21
10.608751
  0
LINE
  5
2F8
100
AcDbEntity
  8
ASSI
100
AcDbLine
 62
7
  6
CONTINUOUS
 10
1.963833
 20
10.660464
 11
2.907969
 21
11.780825
  0
LINE
  5
2F9
100
AcDbEntity
  8
0
100
AcDbLine
 62
7
  6
CONTINUOUS
 10
7.524181
 20
-5.800106
 11
8.7
 21
-5.800106
  0
LINE
  5
2FA
100
AcDbEntity
  8
0
100
AcDbLine
 62
7
  6
CONTINUOUS
 10
8.7
 20
-5.616753
 11
7.3
 21
-5.616753
  0
LINE
  5
2FB
100
AcDbEntity
  8
0
100
AcDbLine
 62
7
  6
CONTINUOUS
 10
7.3
 20
-4.017877
 11
8.7
 21
-4.017877
  0
LINE
  5
2FC
100
AcDbEntity
  8
0
100
AcDbLine
 62
7
  6
CONTINUOUS
 10
-2.6173032135
 20
-21.6326967865
 11
-2.6351059998
 21
-20.8901985088
  0
LINE
  5
2FD
100
AcDbEntity
  8
0
100
AcDbLine
 62
7
  6
CONTINUOUS
 10
-3.878155
 20
17.092968
 11
-3.878155
 21
16.013082
  0
LINE
  5
2FE
100
AcDbEntity
  8
0
100
AcDbLine
 62
7
  6
CONTINUOUS
 10
-3.870837
 20
9.283186
 11
-3.870837
 21
8.907261
  0
LINE
  5
2FF
100
AcDbEntity
  8
0
100
AcDbLine
 62
7
  6
CONTINUOUS
 10
-3.7178480752
 20
-8.0979246551
 11
-3.7178480752
 21
-7.7845790377
  0
LINE
  5
300
100
AcDbEntity
  8
0
100
AcDbLine
 62
7
  6
CONTINUOUS
 10
-3.613609
 20
-9.73572
 11
-3.613609
 21
-10.295249
  0
LINE
  5
301
100
AcDbEntity
  8
0
100
AcDbLine
 62
253
  6
CONTINUOUS
 10
-3.5806626995
 20
-23.6519203118
 11
-3.5806609125
 21
-22.3018840226
  0
LINE
  5
302
100
AcDbEntity
  8
0
100
AcDbLine
 62
253
  6
CONTINUOUS
 10
-3.5806609125
 20
22.3018840226
 11
-3.5806626995
 21
23.6519203118
  0
LINE
  5
303
100
AcDbEntity
  8
0
100
AcDbLine
 62
7
  6
CONTINUOUS
 10
-3.521845
 20
16.013082
 11
-3.521845
 21
17.092968
  0
LINE
  5
304
100
AcDbEntity
  8
0
100
AcDbLine
 62
7
  6
CONTINUOUS
 10
-3.513502
 20
8.907261
 11
-3.513502
 21
9.283186
  0
LINE
  5
305
100
AcDbEntity
  8
0
100
AcDbLine
 62
7
  6
CONTINUOUS
 10
-3.5
 20
23.7325830113
 11
-3.5
 21
22.3825449351
  0
LINE
  5
306
100
AcDbEntity
  8
0
100
AcDbLine
 62
7
  6
CONTINUOUS
 10
-3.5
 20
-22.3825449351
 11
-3.5
 21
-23.7325830113
  0
LINE
  5
307
100
AcDbEntity
  8
0
100
AcDbLine
 62
7
  6
CONTINUOUS
 10
-3.181119
 20
-10.414793
 11
-3.181119
 21
-9.618926
  0
LINE
  5
308
100
AcDbEntity
  8
0
100
AcDbLine
 62
253
  6
CONTINUOUS
 10
-2.8850964806
 20
-21.2252970227
 11
-2.8850964806
 21
-20.8
  0
LINE
  5
309
100
AcDbEntity
  8
0
100
AcDbLine
 62
253
  6
CONTINUOUS
 10
-2.8850964806
 20
20.8
 11
-2.8850964806
 21
21.2252970227
  0
LINE
  5
30A
100
AcDbEntity
  8
0
100
AcDbLine
 62
7
  6
CONTINUOUS
 10
-2.689937
 20
17.165072
 11
-2.689937
 21
15.609976
  0
LINE
  5
30B
100
AcDbEntity
  8
0
100
AcDbLine
 62
7
  6
CONTINUOUS
 10
-2.6351059998
 20
-21.2252970227
 11
-2.6351059998
 21
-20.8901985088
  0
LINE
  5
30C
100
AcDbEntity
  8
0
100
AcDbLine
 62
7
  6
CONTINUOUS
 10
-2.6351059998
 20
20.8901985088
 11
-2.6351059998
 21
21.2252970227
  0
LINE
  5
30D
100
AcDbEntity
  8
0
100
AcDbLine
 62
7
  6
CONTINUOUS
 10
-2.622199
 20
-16.616107
 11
-2.622199
 21
-16.101097
  0
LINE
  5
30E
100
AcDbEntity
  8
0
100
AcDbLine
 62
7
  6
CONTINUOUS
 10
-2.622199
 20
-14.984285
 11
-2.622199
 21
-14.399877
  0
LINE
  5
30F
100
AcDbEntity
  8
0
100
AcDbLine
 62
7
  6
CONTINUOUS
 10
-2.622199
 20
-14.085272
 11
-2.622199
 21
-13.526183
  0
LINE
  5
310
100
AcDbEntity
  8
0
100
AcDbLine
 62
7
  6
CONTINUOUS
 10
-2.622199
 20
-12.714487
 11
-2.622199
 21
-12.632524
  0
LINE
  5
311
100
AcDbEntity
  8
0
100
AcDbLine
 62
7
  6
CONTINUOUS
 10
-2.622199
 20
-11.817594
 11
-2.622199
 21
-11.245888
  0
LINE
  5
312
100
AcDbEntity
  8
0
100
AcDbLine
 62
7
  6
CONTINUOUS
 10
-2.622199
 20
-11.15412
 11
-2.622199
 21
-10.576053
  0
LINE
  5
313
100
AcDbEntity
  8
0
100
AcDbLine
 62
7
  6
CONTINUOUS
 10
-2.622199
 20
-9.467534
 11
-2.622199
 21
-8.851592
  0
LINE
  5
314
100
AcDbEntity
  8
0
100
AcDbLine
 62
7
  6
CONTINUOUS
 10
-2.6221986456
 20
-8.6799811977
 11
-2.6221986456
 21
-8.0979246551
  0
LINE
  5
315
100
AcDbEntity
  8
0
100
AcDbLine
 62
7
  6
CONTINUOUS
 10
-2.6221986456
 20
-7.2029843781
 11
-2.6221986456
 21
-6.6408517881
  0
LINE
  5
316
100
AcDbEntity
  8
0
100
AcDbLine
 62
7
  6
CONTINUOUS
 10
-2.55
 20
-22.1325449336
 11
-2.55
 21
-21.7
  0
LINE
  5
317
100
AcDbEntity
  8
0
100
AcDbLine
 62
7
  6
CONTINUOUS
 10
-2.55
 20
21.7
 11
-2.55
 21
22.1325449336
  0
LINE
  5
318
100
AcDbEntity
  8
0
100
AcDbLine
 62
7
  6
CONTINUOUS
 10
-2.3326022667
 20
11.6055537333
 11
-2.3326022667
 21
12.0091102667
  0
LINE
  5
319
100
AcDbEntity
  8
0
100
AcDbLine
 62
7
  6
CONTINUOUS
 10
-2.332602
 20
12.469637
 11
-2.332602
 21
12.826972
  0
LINE
  5
31A
100
AcDbEntity
  8
0
100
AcDbLine
 62
7
  6
CONTINUOUS
 10
-2.332602
 20
14.378908
 11
-2.332602
 21
14.884218
  0
LINE
  5
31B
100
AcDbEntity
  8
0
100
AcDbLine
 62
7
  6
CONTINUOUS
 10
-2.332602
 20
15.252639
 11
-2.332602
 21
17.165072
  0
LINE
  5
31C
100
AcDbEntity
  8
0
100
AcDbLine
 62
7
  6
CONTINUOUS
 10
-2.31861
 20
6.907032
 11
-2.31861
 21
7.378809
  0
LINE
  5
31D
100
AcDbEntity
  8
0
100
AcDbLine
 62
7
  6
CONTINUOUS
 10
-2.31861
 20
9.283186
 11
-2.31861
 21
9.640522
  0
LINE
  5
31E
100
AcDbEntity
  8
0
100
AcDbLine
 62
7
  6
CONTINUOUS
 10
-2.6351059998
 20
20.8901985088
 11
-2.6173032135
 21
21.6326967865
  0
LINE
  5
31F
100
AcDbEntity
  8
0
100
AcDbLine
 62
7
  6
CONTINUOUS
 10
8.538205
 20
-3.828682
 11
7.461795
 21
-3.828682
  0
LINE
  5
320
100
AcDbEntity
  8
0
100
AcDbLine
 62
7
  6
CONTINUOUS
 10
7.3
 20
-2.600271
 11
8.7
 21
-2.600271
  0
LINE
  5
321
100
AcDbEntity
  8
0
100
AcDbLine
 62
7
  6
CONTINUOUS
 10
2.2234042287
 20
-2.5
 11
2.4787234366
 21
-2.5
  0
LINE
  5
322
100
AcDbEntity
  8
0
100
AcDbLine
 62
7
  6
CONTINUOUS
 10
8.532317
 20
-2.411087
 11
8.064367
 21
-2.411087
  0
LINE
  5
323
100
AcDbEntity
  8
0
100
AcDbLine
 62
7
  6
CONTINUOUS
 10
7.896684
 20
-2.411087
 11
7.467683
 21
-2.411087
  0
LINE
  5
324
100
AcDbEntity
  8
0
100
AcDbLine
 62
7
  6
CONTINUOUS
 10
2.2553191185
 20
-2.3125
 11
3.5
 21
-2.3125
  0
LINE
  5
325
100
AcDbEntity
  8
0
100
AcDbLine
 62
7
  6
CONTINUOUS
 10
3.5
 20
-2.125
 11
2.0
 21
-2.125
  0
LINE
  5
326
100
AcDbEntity
  8
0
100
AcDbLine
 62
7
  6
CONTINUOUS
 10
2.414893657
 20
-1.8750000149
 11
2.5425532162
 21
-1.8750000149
  0
LINE
  5
327
100
AcDbEntity
  8
0
100
AcDbLine
 62
7
  6
CONTINUOUS
 10
8.7
 20
-6.193936
 11
7.524181
 21
-5.800106
  0
LINE
  5
328
100
AcDbEntity
  8
0
100
AcDbLine
 62
7
  6
CONTINUOUS
 10
7.3
 20
-5.885872
 11
8.489326
 21
-6.285609
  0
LINE
  5
329
100
AcDbEntity
  8
0
100
AcDbLine
 62
7
  6
CONTINUOUS
 10
8.7
 20
-5.254089
 11
8.292511
 21
-5.107828
  0
LINE
  5
32A
100
AcDbEntity
  8
0
100
AcDbLine
 62
7
  6
CONTINUOUS
 10
8.124828
 20
-5.049314
 11
7.503068
 21
-4.823061
  0
LINE
  5
32B
100
AcDbEntity
  8
0
100
AcDbLine
 62
7
  6
CONTINUOUS
 10
7.3
 20
-4.922618
 11
8.7
 21
-5.449059
  0
LINE
  5
32C
100
AcDbEntity
  8
0
100
AcDbLine
 62
7
  6
CONTINUOUS
 10
-0.8174550649
 20
23.7325830113
 11
-0.8174550649
 21
22.398254669
  0
LINE
  5
32D
100
AcDbEntity
  8
0
100
AcDbLine
 62
7
  6
CONTINUOUS
 10
-0.8174550649
 20
-23.7325830113
 11
-0.8174550649
 21
-22.398254669
  0
LINE
  5
32E
100
AcDbEntity
  8
0
100
AcDbLine
 62
7
  6
CONTINUOUS
 10
-0.8
 20
23.7500380762
 11
-0.8
 21
22.4
  0
LINE
  5
32F
100
AcDbEntity
  8
0
100
AcDbLine
 62
7
  6
CONTINUOUS
 10
-0.8
 20
-22.4
 11
-0.8
 21
-23.7500380762
  0
LINE
  5
330
100
AcDbEntity
  8
0
100
AcDbLine
 62
7
  6
CONTINUOUS
 10
7.3
 20
5.712298
 11
8.13649
 21
6.240709
  0
LINE
  5
331
100
AcDbEntity
  8
0
100
AcDbLine
 62
7
  6
CONTINUOUS
 10
7.97277
 20
6.334344
 11
7.3
 21
5.93263
  0
LINE
  5
332
100
AcDbEntity
  8
0
100
AcDbLine
 62
7
  6
CONTINUOUS
 10
8.7
 20
4.575541
 11
7.3
 21
4.068496
  0
LINE
  5
333
100
AcDbEntity
  8
0
100
AcDbLine
 62
7
  6
CONTINUOUS
 10
8.292511
 20
4.230359
 11
8.7
 21
4.368796
  0
LINE
  5
334
100
AcDbEntity
  8
0
100
AcDbLine
 62
7
  6
CONTINUOUS
 10
7.503068
 20
3.953507
 11
8.124828
 21
4.162097
  0
LINE
  5
335
100
AcDbEntity
  8
0
100
AcDbLine
 62
7
  6
CONTINUOUS
 10
2.4468085468
 20
0.59375
 11
2.3510637879
 21
0.5625001192
  0
LINE
  5
336
100
AcDbEntity
  8
0
100
AcDbLine
 62
7
  6
CONTINUOUS
 10
2.8936170042
 20
-0.4999999404
 11
3.0531914979
 21
-0.4687500596
  0
LINE
  5
337
100
AcDbEntity
  8
0
100
AcDbLine
 62
7
  6
CONTINUOUS
 10
2.6063829958
 20
0.6249998808
 11
2.4468085468
 21
0.59375
  0
LINE
  5
338
100
AcDbEntity
  8
0
100
AcDbLine
 62
7
  6
CONTINUOUS
 10
3.0531914979
 20
-0.3124999404
 11
2.8617021143
 21
-0.34375
  0
LINE
  5
339
100
AcDbEntity
  8
0
100
AcDbLine
 62
7
  6
CONTINUOUS
 10
2.4468085468
 20
0.4375000596
 11
2.6382978857
 21
0.4687499404
  0
LINE
  5
33A
100
AcDbEntity
  8
0
100
AcDbLine
 62
7
  6
CONTINUOUS
 10
2.6382978857
 20
-0.7500000596
 11
2.414893657
 21
-0.7812499404
  0
LINE
  5
33B
100
AcDbEntity
  8
0
100
AcDbLine
 62
7
  6
CONTINUOUS
 10
2.5106383264
 20
-1.7187500298
 11
2.4468085468
 21
-1.7187500298
  0
LINE
  5
33C
100
AcDbEntity
  8
0
100
AcDbLine
 62
7
  6
CONTINUOUS
 10
8.064367
 20
-1.644784
 11
7.896684
 21
-1.644784
  0
LINE
  5
33D
100
AcDbEntity
  8
0
100
AcDbLine
 62
7
  6
CONTINUOUS
 10
7.467683
 20
-1.580439
 11
7.3
 21
-1.580439
  0
LINE
  5
33E
100
AcDbEntity
  8
0
100
AcDbLine
 62
7
  6
CONTINUOUS
 10
8.7
 20
-1.566773
 11
8.532317
 21
-1.566773
  0
LINE
  5
33F
100
AcDbEntity
  8
0
100
AcDbLine
 62
7
  6
CONTINUOUS
 10
2.4468085468
 20
-0.9375000596
 11
2.5106383264
 21
-0.9375000596
  0
LINE
  5
340
100
AcDbEntity
  8
0
100
AcDbLine
 62
7
  6
CONTINUOUS
 10
2.7978723347
 20
-0.90625
 11
2.8617021143
 21
-0.90625
  0
LINE
  5
341
100
AcDbEntity
  8
0
100
AcDbLine
 62
7
  6
CONTINUOUS
 10
2.8617021143
 20
-0.7500000596
 11
2.6382978857
 21
-0.7500000596
  0
LINE
  5
342
100
AcDbEntity
  8
0
100
AcDbLine
 62
7
  6
CONTINUOUS
 10
7.3
 20
-0.747788
 11
8.7
 21
-0.747788
  0
LINE
  5
343
100
AcDbEntity
  8
0
100
AcDbLine
 62
7
  6
CONTINUOUS
 10
8.7
 20
-0.55866
 11
7.3
 21
-0.55866
  0
LINE
  5
344
100
AcDbEntity
  8
0
100
AcDbLine
 62
7
  6
CONTINUOUS
 10
2.6063829958
 20
-0.4999999404
 11
2.8936170042
 21
-0.4999999404
  0
LINE
  5
345
100
AcDbEntity
  8
0
100
AcDbLine
 62
7
  6
CONTINUOUS
 10
2.8617021143
 20
-0.34375
 11
2.6382978857
 21
-0.34375
  0
LINE
  5
346
100
AcDbEntity
  8
0
100
AcDbLine
 62
7
  6
CONTINUOUS
 10
7.3
 20
-0.235024
 11
8.7
 21
-0.235024
  0
LINE
  5
347
100
AcDbEntity
  8
0
100
AcDbLine
 62
7
  6
CONTINUOUS
 10
8.7
 20
-0.05166
 11
7.563032
 21
-0.05166
  0
LINE
  5
348
100
AcDbEntity
  8
0
100
AcDbLine
 62
7
  6
CONTINUOUS
 10
3.0851063877
 20
-0.7812499404
 11
2.8617021143
 21
-0.7500000596
  0
LINE
  5
349
100
AcDbEntity
  8
0
100
AcDbLine
 62
7
  6
CONTINUOUS
 10
2.8617021143
 20
-0.90625
 11
3.0531914979
 21
-0.9375000596
  0
LINE
  5
34A
100
AcDbEntity
  8
0
100
AcDbLine
 62
7
  6
CONTINUOUS
 10
2.6382978857
 20
-0.34375
 11
2.4468085468
 21
-0.3124999404
  0
LINE
  5
34B
100
AcDbEntity
  8
0
100
AcDbLine
 62
7
  6
CONTINUOUS
 10
2.4468085468
 20
-0.4687500596
 11
2.6063829958
 21
-0.4999999404
  0
LINE
  5
34C
100
AcDbEntity
  8
0
100
AcDbLine
 62
7
  6
CONTINUOUS
 10
2.4468085468
 20
-1.7187500298
 11
2.3510637879
 21
-1.6874999702
  0
LINE
  5
34D
100
AcDbEntity
  8
0
100
AcDbLine
 62
7
  6
CONTINUOUS
 10
2.5106383264
 20
-0.9375000596
 11
2.6063829958
 21
-0.9687499404
  0
LINE
  5
34E
100
AcDbEntity
  8
0
100
AcDbLine
 62
7
  6
CONTINUOUS
 10
3.0531914979
 20
-0.9375000596
 11
3.1489361674
 21
-0.9687499404
  0
LINE
  5
34F
100
AcDbEntity
  8
0
100
AcDbLine
 62
7
  6
CONTINUOUS
 10
2.2553191185
 20
-1.8124999851
 11
2.414893657
 21
-1.8750000149
  0
LINE
  5
350
100
AcDbEntity
  8
0
100
AcDbLine
 62
7
  6
CONTINUOUS
 10
2.3510637879
 20
-1.6874999702
 11
2.2553191185
 21
-1.6250000298
  0
LINE
  5
351
100
AcDbEntity
  8
0
100
AcDbLine
 62
7
  6
CONTINUOUS
 10
2.1276595593
 20
-1.7187500298
 11
2.2553191185
 21
-1.8124999851
  0
LINE
  5
352
100
AcDbEntity
  8
0
100
AcDbLine
 62
7
  6
CONTINUOUS
 10
2.0
 20
-2.3125
 11
2.2234042287
 21
-2.5
  0
LINE
  5
353
100
AcDbEntity
  8
0
100
AcDbLine
 62
7
  6
CONTINUOUS
 10
2.4787234366
 20
-2.5
 11
2.2553191185
 21
-2.3125
  0
LINE
  5
354
100
AcDbEntity
  8
0
100
AcDbLine
 62
7
  6
CONTINUOUS
 10
0.8
 20
23.7500380762
 11
0.8
 21
22.4
  0
LINE
  5
355
100
AcDbEntity
  8
0
100
AcDbLine
 62
7
  6
CONTINUOUS
 10
0.8
 20
-22.4
 11
0.8
 21
-23.7500380762
  0
LINE
  5
356
100
AcDbEntity
  8
0
100
AcDbLine
 62
7
  6
CONTINUOUS
 10
0.8174550649
 20
23.7325830113
 11
0.8174550649
 21
22.398254669
  0
LINE
  5
357
100
AcDbEntity
  8
0
100
AcDbLine
 62
7
  6
CONTINUOUS
 10
0.8174550649
 20
-23.7325830113
 11
0.8174550649
 21
-22.398254669
  0
LINE
  5
358
100
AcDbEntity
  8
ASSI
100
AcDbLine
 62
7
  6
CONTINUOUS
 10
0.910297
 20
12.580209
 11
0.910297
 21
11.425177
  0
LINE
  5
359
100
AcDbEntity
  8
ASSI
100
AcDbLine
 62
7
  6
CONTINUOUS
 10
1.329254
 20
11.425177
 11
1.329254
 21
11.780825
  0
LINE
  5
35A
100
AcDbEntity
  8
ASSI
100
AcDbLine
 62
7
  6
CONTINUOUS
 10
1.329254
 20
12.224704
 11
1.329254
 21
12.580209
  0
LINE
  5
35B
100
AcDbEntity
  8
0
100
AcDbLine
 62
7
  6
CONTINUOUS
 10
2.0
 20
2.75
 11
2.0
 21
2.5625
  0
LINE
  5
35C
100
AcDbEntity
  8
0
100
AcDbLine
 62
7
  6
CONTINUOUS
 10
2.0
 20
1.8125
 11
2.0
 21
1.625
  0
LINE
  5
35D
100
AcDbEntity
  8
0
100
AcDbLine
 62
7
  6
CONTINUOUS
 10
2.0
 20
-1.2500000298
 11
2.0
 21
-1.4062499702
  0
LINE
  5
35E
100
AcDbEntity
  8
0
100
AcDbLine
 62
7
  6
CONTINUOUS
 10
2.0
 20
-2.125
 11
2.0
 21
-2.3125
  0
LINE
  5
35F
100
AcDbEntity
  8
0
100
AcDbLine
 62
7
  6
CONTINUOUS
 10
2.1595744491
 20
-1.4375000298
 11
2.1595744491
 21
-1.2187499702
  0
LINE
  5
360
100
AcDbEntity
  8
ASSI
100
AcDbLine
 62
7
  6
CONTINUOUS
 10
1.2002499737
 20
-12.9975468536
 11
1.20278
 21
-12.867554
  0
LINE
  5
361
100
AcDbEntity
  8
0
100
AcDbLine
 62
7
  6
CONTINUOUS
 10
2.0319148898
 20
0.2500000596
 11
2.0
 21
0.0625000596
  0
LINE
  5
362
100
AcDbEntity
  8
0
100
AcDbLine
 62
7
  6
CONTINUOUS
 10
2.1595744491
 20
0.0625000596
 11
2.1914893389
 21
0.21875
  0
LINE
  5
363
100
AcDbEntity
  8
0
100
AcDbLine
 62
7
  6
CONTINUOUS
 10
2.0319148898
 20
-1.09375
 11
2.0
 21
-1.2500000298
  0
LINE
  5
364
100
AcDbEntity
  8
0
100
AcDbLine
 62
7
  6
CONTINUOUS
 10
2.1276595593
 20
0.40625
 11
2.0319148898
 21
0.2500000596
  0
LINE
  5
365
100
AcDbEntity
  8
0
100
AcDbLine
 62
7
  6
CONTINUOUS
 10
2.1276595593
 20
-0.9375000596
 11
2.0319148898
 21
-1.09375
  0
LINE
  5
366
100
AcDbEntity
  8
0
100
AcDbLine
 62
7
  6
CONTINUOUS
 10
2.1914893389
 20
0.21875
 11
2.2553191185
 21
0.3125
  0
LINE
  5
367
100
AcDbEntity
  8
0
100
AcDbLine
 62
7
  6
CONTINUOUS
 10
2.2234042287
 20
0.5
 11
2.1276595593
 21
0.40625
  0
LINE
  5
368
100
AcDbEntity
  8
0
100
AcDbLine
 62
7
  6
CONTINUOUS
 10
2.2553191185
 20
-0.8437500596
 11
2.1276595593
 21
-0.9375000596
  0
LINE
  5
369
100
AcDbEntity
  8
0
100
AcDbLine
 62
7
  6
CONTINUOUS
 10
2.2553191185
 20
0.3125
 11
2.4468085468
 21
0.4375000596
  0
LINE
  5
36A
100
AcDbEntity
  8
0
100
AcDbLine
 62
7
  6
CONTINUOUS
 10
3.2446808591
 20
-0.1875000596
 11
3.0531914979
 21
-0.3124999404
  0
LINE
  5
36B
100
AcDbEntity
  8
0
100
AcDbLine
 62
7
  6
CONTINUOUS
 10
2.2553191185
 20
-1.0312499702
 11
2.3510637879
 21
-0.9687499404
  0
LINE
  5
36C
100
AcDbEntity
  8
0
100
AcDbLine
 62
7
  6
CONTINUOUS
 10
2.3510637879
 20
0.5625001192
 11
2.2234042287
 21
0.5
  0
LINE
  5
36D
100
AcDbEntity
  8
0
100
AcDbLine
 62
7
  6
CONTINUOUS
 10
3.1489361674
 20
-0.4375
 11
3.276595749
 21
-0.3750000596
  0
LINE
  5
36E
100
AcDbEntity
  8
0
100
AcDbLine
 62
7
  6
CONTINUOUS
 10
2.414893657
 20
-0.7812499404
 11
2.2553191185
 21
-0.8437500596
  0
LINE
  5
36F
100
AcDbEntity
  8
0
100
AcDbLine
 62
7
  6
CONTINUOUS
 10
3.0531914979
 20
-0.4687500596
 11
3.1489361674
 21
-0.4375
  0
LINE
  5
370
100
AcDbEntity
  8
0
100
AcDbLine
 62
7
  6
CONTINUOUS
 10
2.3510637879
 20
-0.9687499404
 11
2.4468085468
 21
-0.9375000596
  0
LINE
  5
371
100
AcDbEntity
  8
0
100
AcDbLine
 62
7
  6
CONTINUOUS
 10
2.6382978857
 20
0.4687499404
 11
2.8617021143
 21
0.4687499404
  0
LINE
  5
372
100
AcDbEntity
  8
0
100
AcDbLine
 62
7
  6
CONTINUOUS
 10
2.8936170042
 20
0.6249998808
 11
2.6063829958
 21
0.6249998808
  0
LINE
  5
373
100
AcDbEntity
  8
0
100
AcDbLine
 62
7
  6
CONTINUOUS
 10
7.3
 20
0.693222
 11
8.437198
 21
0.693222
  0
LINE
  5
374
100
AcDbEntity
  8
0
100
AcDbLine
 62
7
  6
CONTINUOUS
 10
2.8617021143
 20
0.875
 11
3.0531914979
 21
0.875
  0
LINE
  5
375
100
AcDbEntity
  8
0
100
AcDbLine
 62
7
  6
CONTINUOUS
 10
8.7
 20
0.876496
 11
7.3
 21
0.876496
  0
LINE
  5
376
100
AcDbEntity
  8
0
100
AcDbLine
 62
7
  6
CONTINUOUS
 10
2.2553191185
 20
1.625
 11
2.8617021143
 21
1.625
  0
LINE
  5
377
100
AcDbEntity
  8
0
100
AcDbLine
 62
7
  6
CONTINUOUS
 10
3.0531914979
 20
1.625
 11
3.5
 21
1.625
  0
LINE
  5
378
100
AcDbEntity
  8
0
100
AcDbLine
 62
7
  6
CONTINUOUS
 10
7.3
 20
1.744167
 11
8.7
 21
1.744167
  0
LINE
  5
379
100
AcDbEntity
  8
0
100
AcDbLine
 62
7
  6
CONTINUOUS
 10
3.5
 20
1.8125
 11
3.0531914979
 21
1.8125
  0
LINE
  5
37A
100
AcDbEntity
  8
0
100
AcDbLine
 62
7
  6
CONTINUOUS
 10
2.8617021143
 20
1.8125
 11
2.0
 21
1.8125
  0
LINE
  5
37B
100
AcDbEntity
  8
0
100
AcDbLine
 62
7
  6
CONTINUOUS
 10
8.7
 20
1.933351
 11
7.3
 21
1.933351
  0
LINE
  5
37C
100
AcDbEntity
  8
0
100
AcDbLine
 62
7
  6
CONTINUOUS
 10
3.0531914979
 20
2.1249998808
 11
2.8617021143
 21
2.1249998808
  0
LINE
  5
37D
100
AcDbEntity
  8
0
100
AcDbLine
 62
7
  6
CONTINUOUS
 10
7.3
 20
2.136145
 11
7.467683
 21
2.136145
  0
LINE
  5
37E
100
AcDbEntity
  8
0
100
AcDbLine
 62
7
  6
CONTINUOUS
 10
2.2234042287
 20
2.375
 11
2.4787234366
 21
2.375
  0
LINE
  5
37F
100
AcDbEntity
  8
0
100
AcDbLine
 62
7
  6
CONTINUOUS
 10
2.8617021143
 20
0.4687499404
 11
3.0531914979
 21
0.4375000596
  0
LINE
  5
380
100
AcDbEntity
  8
0
100
AcDbLine
 62
7
  6
CONTINUOUS
 10
3.0531914979
 20
0.59375
 11
2.8936170042
 21
0.6249998808
  0
LINE
  5
381
100
AcDbEntity
  8
0
100
AcDbLine
 62
7
  6
CONTINUOUS
 10
2.3510637879
 20
-0.4375
 11
2.4468085468
 21
-0.4687500596
  0
LINE
  5
382
100
AcDbEntity
  8
0
100
AcDbLine
 62
7
  6
CONTINUOUS
 10
3.1489361674
 20
0.5625001192
 11
3.0531914979
 21
0.59375
  0
LINE
  5
383
100
AcDbEntity
  8
0
100
AcDbLine
 62
7
  6
CONTINUOUS
 10
3.2446808591
 20
-0.8437500596
 11
3.0851063877
 21
-0.7812499404
  0
LINE
  5
384
100
AcDbEntity
  8
0
100
AcDbLine
 62
7
  6
CONTINUOUS
 10
2.2234042287
 20
-0.3750000596
 11
2.3510637879
 21
-0.4375
  0
LINE
  5
385
100
AcDbEntity
  8
0
100
AcDbLine
 62
7
  6
CONTINUOUS
 10
3.276595749
 20
0.5
 11
3.1489361674
 21
0.5625001192
  0
LINE
  5
386
100
AcDbEntity
  8
0
100
AcDbLine
 62
7
  6
CONTINUOUS
 10
2.6063829958
 20
-0.9687499404
 11
2.7021276653
 21
-1.0312499702
  0
LINE
  5
387
100
AcDbEntity
  8
0
100
AcDbLine
 62
7
  6
CONTINUOUS
 10
3.1489361674
 20
-0.9687499404
 11
3.2446808591
 21
-1.0312499702
  0
LINE
  5
388
100
AcDbEntity
  8
0
100
AcDbLine
 62
7
  6
CONTINUOUS
 10
2.4468085468
 20
-0.3124999404
 11
2.2553191185
 21
-0.1875000596
  0
LINE
  5
389
100
AcDbEntity
  8
0
100
AcDbLine
 62
7
  6
CONTINUOUS
 10
3.0531914979
 20
0.4375000596
 11
3.2446808591
 21
0.3125
  0
LINE
  5
38A
100
AcDbEntity
  8
0
100
AcDbLine
 62
7
  6
CONTINUOUS
 10
3.3723404296
 20
-0.9375000596
 11
3.2446808591
 21
-0.8437500596
  0
LINE
  5
38B
100
AcDbEntity
  8
0
100
AcDbLine
 62
7
  6
CONTINUOUS
 10
2.1276595593
 20
-0.2812500596
 11
2.2234042287
 21
-0.3750000596
  0
LINE
  5
38C
100
AcDbEntity
  8
0
100
AcDbLine
 62
7
  6
CONTINUOUS
 10
2.2553191185
 20
-1.6250000298
 11
2.1914893389
 21
-1.5312500298
  0
LINE
  5
38D
100
AcDbEntity
  8
0
100
AcDbLine
 62
7
  6
CONTINUOUS
 10
2.7021276653
 20
-1.0312499702
 11
2.7659574449
 21
-1.1249999702
  0
LINE
  5
38E
100
AcDbEntity
  8
0
100
AcDbLine
 62
7
  6
CONTINUOUS
 10
2.2553191185
 20
-0.1875000596
 11
2.1914893389
 21
-0.0937500596
  0
LINE
  5
38F
100
AcDbEntity
  8
0
100
AcDbLine
 62
7
  6
CONTINUOUS
 10
2.925531894
 20
-1.09375
 11
2.7978723347
 21
-0.90625
  0
LINE
  5
390
100
AcDbEntity
  8
0
100
AcDbLine
 62
7
  6
CONTINUOUS
 10
3.2446808591
 20
-1.0312499702
 11
3.3085106388
 21
-1.1249999702
  0
LINE
  5
391
100
AcDbEntity
  8
0
100
AcDbLine
 62
7
  6
CONTINUOUS
 10
2.0319148898
 20
-1.5625
 11
2.1276595593
 21
-1.7187500298
  0
LINE
  5
392
100
AcDbEntity
  8
0
100
AcDbLine
 62
7
  6
CONTINUOUS
 10
2.0319148898
 20
-0.1249999404
 11
2.1276595593
 21
-0.2812500596
  0
LINE
  5
393
100
AcDbEntity
  8
0
100
AcDbLine
 62
7
  6
CONTINUOUS
 10
3.4680851074
 20
-1.09375
 11
3.3723404296
 21
-0.9375000596
  0
LINE
  5
394
100
AcDbEntity
  8
0
100
AcDbLine
 62
7
  6
CONTINUOUS
 10
2.1914893389
 20
-1.5312500298
 11
2.1595744491
 21
-1.4375000298
  0
LINE
  5
395
100
AcDbEntity
  8
0
100
AcDbLine
 62
7
  6
CONTINUOUS
 10
2.7659574449
 20
-1.1249999702
 11
2.7978723347
 21
-1.2187499702
  0
LINE
  5
396
100
AcDbEntity
  8
0
100
AcDbLine
 62
7
  6
CONTINUOUS
 10
2.0
 20
-1.4062499702
 11
2.0319148898
 21
-1.5625
  0
LINE
  5
397
100
AcDbEntity
  8
0
100
AcDbLine
 62
7
  6
CONTINUOUS
 10
2.1914893389
 20
-0.0937500596
 11
2.1595744491
 21
0.0625000596
  0
LINE
  5
398
100
AcDbEntity
  8
0
100
AcDbLine
 62
7
  6
CONTINUOUS
 10
2.0
 20
0.0625000596
 11
2.0319148898
 21
-0.1249999404
  0
LINE
  5
399
100
AcDbEntity
  8
0
100
AcDbLine
 62
7
  6
CONTINUOUS
 10
2.6351059998
 20
20.8901985088
 11
2.6173032135
 21
21.6326967865
  0
LINE
  5
39A
100
AcDbEntity
  8
0
100
AcDbLine
 62
7
  6
CONTINUOUS
 10
2.55
 20
-22.1325449336
 11
2.55
 21
-21.7
  0
LINE
  5
39B
100
AcDbEntity
  8
0
100
AcDbLine
 62
7
  6
CONTINUOUS
 10
2.55
 20
21.7
 11
2.55
 21
22.1325449336
  0
LINE
  5
39C
100
AcDbEntity
  8
ASSI
100
AcDbLine
 62
7
  6
CONTINUOUS
 10
2.625
 20
-8.882444
 11
2.625
 21
-10.342948112
  0
LINE
  5
39D
100
AcDbEntity
  8
0
100
AcDbLine
 62
7
  6
CONTINUOUS
 10
2.6351059998
 20
21.2252970227
 11
2.6351059998
 21
20.8901985088
  0
LINE
  5
39E
100
AcDbEntity
  8
0
100
AcDbLine
 62
7
  6
CONTINUOUS
 10
2.6351059998
 20
-20.8901985088
 11
2.6351059998
 21
-21.2252970227
  0
LINE
  5
39F
100
AcDbEntity
  8
0
100
AcDbLine
 62
7
  6
CONTINUOUS
 10
2.7978723347
 20
-1.2187499702
 11
2.7978723347
 21
-1.4375000298
  0
LINE
  5
3A0
100
AcDbEntity
  8
0
100
AcDbLine
 62
7
  6
CONTINUOUS
 10
2.8617021143
 20
2.1249998808
 11
2.8617021143
 21
1.8125
  0
LINE
  5
3A1
100
AcDbEntity
  8
0
100
AcDbLine
 62
7
  6
CONTINUOUS
 10
2.8617021143
 20
1.625
 11
2.8617021143
 21
1.0937498808
  0
LINE
  5
3A2
100
AcDbEntity
  8
0
100
AcDbLine
 62
253
  6
CONTINUOUS
 10
2.8850964806
 20
21.2252970227
 11
2.8850964806
 21
20.8
  0
LINE
  5
3A3
100
AcDbEntity
  8
0
100
AcDbLine
 62
253
  6
CONTINUOUS
 10
2.8850964806
 20
-20.8
 11
2.8850964806
 21
-21.2252970227
  0
LINE
  5
3A4
100
AcDbEntity
  8
0
100
AcDbLine
 62
7
  6
CONTINUOUS
 10
2.9574468285
 20
-1.4062499702
 11
2.9574468285
 21
-1.2500000298
  0
LINE
  5
3A5
100
AcDbEntity
  8
0
100
AcDbLine
 62
7
  6
CONTINUOUS
 10
3.0531914979
 20
0.875
 11
3.0531914979
 21
1.625
  0
LINE
  5
3A6
100
AcDbEntity
  8
0
100
AcDbLine
 62
7
  6
CONTINUOUS
 10
3.0531914979
 20
1.8125
 11
3.0531914979
 21
2.1249998808
  0
LINE
  5
3A7
100
AcDbEntity
  8
0
100
AcDbLine
 62
7
  6
CONTINUOUS
 10
3.1489361674
 20
-1.65625
 11
3.1489361674
 21
-1.8124999851
  0
LINE
  5
3A8
100
AcDbEntity
  8
0
100
AcDbLine
 62
7
  6
CONTINUOUS
 10
3.3404255286
 20
-1.2187499702
 11
3.3404255286
 21
-1.4062499702
  0
LINE
  5
3A9
100
AcDbEntity
  8
ASSI
100
AcDbLine
 62
7
  6
CONTINUOUS
 10
3.375
 20
-10.342945
 11
3.375
 21
-8.882444
  0
LINE
  5
3AA
100
AcDbEntity
  8
0
100
AcDbLine
 62
7
  6
CONTINUOUS
 10
3.5
 20
23.7325830113
 11
3.5
 21
22.3825449351
  0
LINE
  5
3AB
100
AcDbEntity
  8
0
100
AcDbLine
 62
7
  6
CONTINUOUS
 10
3.5
 20
-22.3825449351
 11
3.5
 21
-23.7325830113
  0
LINE
  5
3AC
100
AcDbEntity
  8
0
100
AcDbLine
 62
7
  6
CONTINUOUS
 10
3.5
 20
-2.3125
 11
3.5
 21
-2.125
  0
LINE
  5
3AD
100
AcDbEntity
  8
0
100
AcDbLine
 62
7
  6
CONTINUOUS
 10
3.5
 20
-1.375
 11
3.5
 21
-1.2500000298
  0
LINE
  5
3AE
100
AcDbEntity
  8
0
100
AcDbLine
 62
7
  6
CONTINUOUS
 10
3.5
 20
1.625
 11
3.5
 21
1.8125
  0
LINE
  5
3AF
100
AcDbEntity
  8
0
100
AcDbLine
 62
7
  6
CONTINUOUS
 10
3.5
 20
2.5625
 11
3.5
 21
2.75
  0
LINE
  5
3B0
100
AcDbEntity
  8
0
100
AcDbLine
 62
253
  6
CONTINUOUS
 10
3.5806609125
 20
-23.6519220988
 11
3.5806609125
 21
-22.3018840226
  0
LINE
  5
3B1
100
AcDbEntity
  8
0
100
AcDbLine
 62
253
  6
CONTINUOUS
 10
3.5806609125
 20
22.3018840226
 11
3.5806609125
 21
23.6519220988
  0
LINE
  5
3B2
100
AcDbEntity
  8
ASSI
100
AcDbLine
 62
7
  6
CONTINUOUS
 10
4.289452
 20
12.593816
 11
4.289452
 21
12.224704
  0
LINE
  5
3B3
100
AcDbEntity
  8
ASSI
100
AcDbLine
 62
7
  6
CONTINUOUS
 10
4.289452
 20
11.780825
 11
4.289452
 21
11.41157
  0
LINE
  5
3B4
100
AcDbEntity
  8
0
100
AcDbLine
 62
253
  6
CONTINUOUS
 10
4.3518822356
 20
-23.6519203118
 11
4.3518840226
 21
-22.3018840226
  0
LINE
  5
3B5
100
AcDbEntity
  8
0
100
AcDbLine
 62
253
  6
CONTINUOUS
 10
4.3518840226
 20
22.3018840226
 11
4.3518822356
 21
23.6519203118
  0
LINE
  5
3B6
100
AcDbEntity
  8
0
100
AcDbLine
 62
7
  6
CONTINUOUS
 10
4.3539971429
 20
23.5393800954
 11
4.3539971429
 21
22.8606199046
  0
LINE
  5
3B7
100
AcDbEntity
  8
0
100
AcDbLine
 62
7
  6
CONTINUOUS
 10
4.3539971429
 20
-22.8606199046
 11
4.3539971429
 21
-23.5393800954
  0
LINE
  5
3B8
100
AcDbEntity
  8
0
100
AcDbLine
 62
7
  6
CONTINUOUS
 10
4.45
 20
-23.7500380762
 11
4.45
 21
-23.4179449472
  0
LINE
  5
3B9
100
AcDbEntity
  8
0
100
AcDbLine
 62
7
  6
CONTINUOUS
 10
4.45
 20
-22.9820550528
 11
4.45
 21
-22.4
  0
LINE
  5
3BA
100
AcDbEntity
  8
0
100
AcDbLine
 62
7
  6
CONTINUOUS
 10
4.45
 20
22.4
 11
4.45
 21
22.9820550528
  0
LINE
  5
3BB
100
AcDbEntity
  8
0
100
AcDbLine
 62
7
  6
CONTINUOUS
 10
4.45
 20
23.4179449472
 11
4.45
 21
23.7500380762
  0
LINE
  5
3BC
100
AcDbEntity
  8
0
100
AcDbLine
 62
7
  6
CONTINUOUS
 10
2.6173032135
 20
-21.6326967865
 11
2.6351059998
 21
-20.8901985088
  0
LINE
  5
3BD
100
AcDbEntity
  8
0
100
AcDbLine
 62
7
  6
CONTINUOUS
 10
3.4680851074
 20
-0.1249999404
 11
3.5
 21
0.0625000596
  0
LINE
  5
3BE
100
AcDbEntity
  8
0
100
AcDbLine
 62
7
  6
CONTINUOUS
 10
2.925531894
 20
-1.5625
 11
2.9574468285
 21
-1.4062499702
  0
LINE
  5
3BF
100
AcDbEntity
  8
0
100
AcDbLine
 62
7
  6
CONTINUOUS
 10
3.3404255286
 20
0.0625000596
 11
3.3085106388
 21
-0.0937500596
  0
LINE
  5
3C0
100
AcDbEntity
  8
0
100
AcDbLine
 62
7
  6
CONTINUOUS
 10
3.4680851074
 20
-1.5312500298
 11
3.5
 21
-1.375
  0
LINE
  5
3C1
100
AcDbEntity
  8
0
100
AcDbLine
 62
7
  6
CONTINUOUS
 10
2.1595744491
 20
-1.2187499702
 11
2.1914893389
 21
-1.1249999702
  0
LINE
  5
3C2
100
AcDbEntity
  8
0
100
AcDbLine
 62
7
  6
CONTINUOUS
 10
2.7978723347
 20
-1.4375000298
 11
2.7659574449
 21
-1.5312500298
  0
LINE
  5
3C3
100
AcDbEntity
  8
0
100
AcDbLine
 62
7
  6
CONTINUOUS
 10
3.3404255286
 20
-1.4062499702
 11
3.3085106388
 21
-1.4999999702
  0
LINE
  5
3C4
100
AcDbEntity
  8
0
100
AcDbLine
 62
7
  6
CONTINUOUS
 10
3.3723404296
 20
-0.2812500596
 11
3.4680851074
 21
-0.1249999404
  0
LINE
  5
3C5
100
AcDbEntity
  8
0
100
AcDbLine
 62
7
  6
CONTINUOUS
 10
2.8297872245
 20
-1.7187500298
 11
2.925531894
 21
-1.5625
  0
LINE
  5
3C6
100
AcDbEntity
  8
0
100
AcDbLine
 62
7
  6
CONTINUOUS
 10
3.3723404296
 20
-1.6874999702
 11
3.4680851074
 21
-1.5312500298
  0
LINE
  5
3C7
100
AcDbEntity
  8
0
100
AcDbLine
 62
7
  6
CONTINUOUS
 10
2.1914893389
 20
-1.1249999702
 11
2.2553191185
 21
-1.0312499702
  0
LINE
  5
3C8
100
AcDbEntity
  8
0
100
AcDbLine
 62
7
  6
CONTINUOUS
 10
3.3085106388
 20
-0.0937500596
 11
3.2446808591
 21
-0.1875000596
  0
LINE
  5
3C9
100
AcDbEntity
  8
0
100
AcDbLine
 62
7
  6
CONTINUOUS
 10
2.7659574449
 20
-1.5312500298
 11
2.7021276653
 21
-1.6250000298
  0
LINE
  5
3CA
100
AcDbEntity
  8
0
100
AcDbLine
 62
7
  6
CONTINUOUS
 10
3.3085106388
 20
-1.4999999702
 11
3.2446808591
 21
-1.5937499702
  0
LINE
  5
3CB
100
AcDbEntity
  8
0
100
AcDbLine
 62
7
  6
CONTINUOUS
 10
3.276595749
 20
-0.3750000596
 11
3.3723404296
 21
-0.2812500596
  0
LINE
  5
3CC
100
AcDbEntity
  8
0
100
AcDbLine
 62
7
  6
CONTINUOUS
 10
2.7021276653
 20
-1.8124999851
 11
2.8297872245
 21
-1.7187500298
  0
LINE
  5
3CD
100
AcDbEntity
  8
0
100
AcDbLine
 62
7
  6
CONTINUOUS
 10
3.2446808591
 20
-1.7812500149
 11
3.3723404296
 21
-1.6874999702
  0
LINE
  5
3CE
100
AcDbEntity
  8
0
100
AcDbLine
 62
7
  6
CONTINUOUS
 10
2.7021276653
 20
-1.6250000298
 11
2.6063829958
 21
-1.6874999702
  0
LINE
  5
3CF
100
AcDbEntity
  8
0
100
AcDbLine
 62
7
  6
CONTINUOUS
 10
3.2446808591
 20
-1.5937499702
 11
3.1489361674
 21
-1.65625
  0
LINE
  5
3D0
100
AcDbEntity
  8
0
100
AcDbLine
 62
7
  6
CONTINUOUS
 10
7.563032
 20
-0.05166
 11
8.7
 21
0.663965
  0
LINE
  5
3D1
100
AcDbEntity
  8
0
100
AcDbLine
 62
7
  6
CONTINUOUS
 10
8.437198
 20
0.693222
 11
7.3
 21
-0.010741
  0
LINE
  5
3D2
100
AcDbEntity
  8
0
100
AcDbLine
 62
7
  6
CONTINUOUS
 10
2.5425532162
 20
-1.8750000149
 11
2.7021276653
 21
-1.8124999851
  0
LINE
  5
3D3
100
AcDbEntity
  8
0
100
AcDbLine
 62
7
  6
CONTINUOUS
 10
2.6063829958
 20
-1.6874999702
 11
2.5106383264
 21
-1.7187500298
  0
LINE
  5
3D4
100
AcDbEntity
  8
0
100
AcDbLine
 62
7
  6
CONTINUOUS
 10
3.1489361674
 20
-1.8124999851
 11
3.2446808591
 21
-1.7812500149
  0
LINE
  5
3D5
100
AcDbEntity
  8
0
100
AcDbLine
 62
7
  6
CONTINUOUS
 10
2.2553191185
 20
2.5625
 11
3.5
 21
2.5625
  0
LINE
  5
3D6
100
AcDbEntity
  8
0
100
AcDbLine
 62
7
  6
CONTINUOUS
 10
7.467683
 20
2.609982
 11
8.7
 21
2.609982
  0
LINE
  5
3D7
100
AcDbEntity
  8
0
100
AcDbLine
 62
7
  6
CONTINUOUS
 10
3.5
 20
2.75
 11
2.0
 21
2.75
  0
LINE
  5
3D8
100
AcDbEntity
  8
0
100
AcDbLine
 62
7
  6
CONTINUOUS
 10
8.7
 20
2.799098
 11
7.467683
 21
2.799098
  0
LINE
  5
3D9
100
AcDbEntity
  8
0
100
AcDbLine
 62
7
  6
CONTINUOUS
 10
7.467683
 20
3.272935
 11
7.3
 21
3.272935
  0
LINE
  5
3DA
100
AcDbEntity
  8
0
100
AcDbLine
 62
7
  6
CONTINUOUS
 10
2.0
 20
2.5625
 11
2.2234042287
 21
2.375
  0
LINE
  5
3DB
100
AcDbEntity
  8
0
100
AcDbLine
 62
7
  6
CONTINUOUS
 10
2.4787234366
 20
2.375
 11
2.2553191185
 21
2.5625
  0
LINE
  5
3DC
100
AcDbEntity
  8
0
100
AcDbLine
 62
7
  6
CONTINUOUS
 10
-5.12474
 20
9.325752
 11
-2.31861
 21
6.907032
  0
LINE
  5
3DD
100
AcDbEntity
  8
0
100
AcDbLine
 62
7
  6
CONTINUOUS
 10
-2.31861
 20
7.378809
 11
-4.528039
 21
9.283186
  0
LINE
  5
3DE
100
AcDbEntity
  8
0
100
AcDbLine
 62
7
  6
CONTINUOUS
 10
2.0
 20
1.625
 11
2.8617021143
 21
0.875
  0
LINE
  5
3DF
100
AcDbEntity
  8
0
100
AcDbLine
 62
7
  6
CONTINUOUS
 10
2.8617021143
 20
1.0937498808
 11
2.2553191185
 21
1.625
  0
LINE
  5
3E0
100
AcDbEntity
  8
0
100
AcDbLine
 62
7
  6
CONTINUOUS
 10
3.3723404296
 20
0.40625
 11
3.276595749
 21
0.5
  0
LINE
  5
3E1
100
AcDbEntity
  8
0
100
AcDbLine
 62
7
  6
CONTINUOUS
 10
3.2446808591
 20
0.3125
 11
3.3085106388
 21
0.21875
  0
LINE
  5
3E2
100
AcDbEntity
  8
0
100
AcDbLine
 62
7
  6
CONTINUOUS
 10
3.4680851074
 20
0.2500000596
 11
3.3723404296
 21
0.40625
  0
LINE
  5
3E3
100
AcDbEntity
  8
0
100
AcDbLine
 62
7
  6
CONTINUOUS
 10
3.3085106388
 20
-1.1249999702
 11
3.3404255286
 21
-1.2187499702
  0
LINE
  5
3E4
100
AcDbEntity
  8
0
100
AcDbLine
 62
7
  6
CONTINUOUS
 10
2.9574468285
 20
-1.2500000298
 11
2.925531894
 21
-1.09375
  0
LINE
  5
3E5
100
AcDbEntity
  8
0
100
AcDbLine
 62
7
  6
CONTINUOUS
 10
3.5
 20
-1.2500000298
 11
3.4680851074
 21
-1.09375
  0
LINE
  5
3E6
100
AcDbEntity
  8
0
100
AcDbLine
 62
7
  6
CONTINUOUS
 10
3.3085106388
 20
0.21875
 11
3.3404255286
 21
0.0625000596
  0
LINE
  5
3E7
100
AcDbEntity
  8
0
100
AcDbLine
 62
7
  6
CONTINUOUS
 10
3.5
 20
0.0625000596
 11
3.4680851074
 21
0.2500000596
  0
LINE
  5
3E8
100
AcDbEntity
  8
0
100
AcDbLine
 62
253
  6
CONTINUOUS
 10
7.2
 20
-23.3515746082
 11
7.2135886019
 21
-23.8010362971
  0
LINE
  5
3E9
100
AcDbEntity
  8
RACCORDO
100
AcDbLine
 62
253
  6
CONTINUOUS
 10
6.5835250435
 20
-18.8121652449
 11
6.4271129453
 21
-12.2887081019
  0
LINE
  5
3EA
100
AcDbEntity
  8
RACCORDO
100
AcDbLine
 62
253
  6
CONTINUOUS
 10
6.8835142137
 20
-18.5302821997
 11
6.7262830625
 21
-11.9726649338
  0
LINE
  5
3EB
100
AcDbEntity
  8
ASSI
100
AcDbLine
 62
7
  6
CONTINUOUS
 10
4.706117
 20
11.41157
 11
4.706117
 21
12.593816
  0
LINE
  5
3EC
100
AcDbEntity
  8
RACCORDO
100
AcDbLine
 62
7
  6
CONTINUOUS
 10
6.5846734642
 20
-20.0846734642
 11
6.5846734642
 21
-19.0001037691
  0
LINE
  5
3ED
100
AcDbEntity
  8
RACCORDO
100
AcDbLine
 62
7
  6
CONTINUOUS
 10
6.5846734642
 20
19.0001037691
 11
6.5846734642
 21
20.0846734642
  0
LINE
  5
3EE
100
AcDbEntity
  8
RACCORDO
100
AcDbLine
 62
253
  6
CONTINUOUS
 10
6.4271129453
 20
12.2887081019
 11
6.5835250435
 21
18.8121652449
  0
LINE
  5
3EF
100
AcDbEntity
  8
RACCORDO
100
AcDbLine
 62
253
  6
CONTINUOUS
 10
6.7262830625
 20
11.9726649338
 11
6.8835136204
 21
18.5302574587
  0
LINE
  5
3F0
100
AcDbEntity
  8
0
100
AcDbLine
 62
253
  6
CONTINUOUS
 10
7.2135886019
 20
23.8010362971
 11
7.2
 21
23.3515746082
  0
LINE
  5
3F1
100
AcDbEntity
  8
0
100
AcDbLine
 62
7
  6
CONTINUOUS
 10
7.3
 20
4.748999
 11
8.7
 21
4.748999
  0
LINE
  5
3F2
100
AcDbEntity
  8
0
100
AcDbLine
 62
7
  6
CONTINUOUS
 10
8.532317
 20
4.938194
 11
7.3
 21
4.938194
  0
LINE
  5
3F3
100
AcDbEntity
  8
0
100
AcDbLine
 62
7
  6
CONTINUOUS
 10
8.7
 20
5.647988
 11
8.532317
 21
5.647988
  0
LINE
  5
3F4
100
AcDbEntity
  8
0
100
AcDbLine
 62
7
  6
CONTINUOUS
 10
8.13649
 20
6.240709
 11
8.7
 21
6.240709
  0
LINE
  5
3F5
100
AcDbEntity
  8
0
100
AcDbLine
 62
7
  6
CONTINUOUS
 10
8.7
 20
6.429791
 11
8.13649
 21
6.429791
  0
LINE
  5
3F6
100
AcDbEntity
  8
0
100
AcDbLine
 62
7
  6
CONTINUOUS
 10
8.7
 20
3.52249
 11
8.292511
 21
3.668762
  0
LINE
  5
3F7
100
AcDbEntity
  8
0
100
AcDbLine
 62
7
  6
CONTINUOUS
 10
8.124828
 20
3.727265
 11
7.503068
 21
3.953507
  0
LINE
  5
3F8
100
AcDbEntity
  8
0
100
AcDbLine
 62
7
  6
CONTINUOUS
 10
7.3
 20
3.85404
 11
8.7
 21
3.327532
  0
LINE
  5
3F9
100
AcDbEntity
  8
0
100
AcDbLine
 62
7
  6
CONTINUOUS
 10
-5.138732
 20
14.382075
 11
-3.734085
 21
12.977428
  0
LINE
  5
3FA
100
AcDbEntity
  8
0
100
AcDbLine
 62
253
  6
CONTINUOUS
 10
7.3982849591
 20
-23.1226497308
 11
7.4135581409
 21
-23.6278312163
  0
LINE
  5
3FB
100
AcDbEntity
  8
0
100
AcDbLine
 62
7
  6
CONTINUOUS
 10
8.5
 20
-23.1226497308
 11
8.5131674569
 21
-23.5581814706
  0
LINE
  5
3FC
100
AcDbEntity
  8
RACCORDO
100
AcDbLine
 62
253
  6
CONTINUOUS
 10
6.9164863796
 20
18.5302574587
 11
7.0735541154
 21
11.9794557283
  0
LINE
  5
3FD
100
AcDbEntity
  8
RACCORDO
100
AcDbLine
 62
253
  6
CONTINUOUS
 10
7.2164749565
 20
18.8121652449
 11
7.3724455921
 21
12.3071201189
  0
LINE
  5
3FE
100
AcDbEntity
  8
RACCORDO
100
AcDbLine
 62
253
  6
CONTINUOUS
 10
6.8846620411
 20
-20.0872686779
 11
6.8846620411
 21
-19.0001037691
  0
LINE
  5
3FF
100
AcDbEntity
  8
RACCORDO
100
AcDbLine
 62
253
  6
CONTINUOUS
 10
6.8846620411
 20
19.0000303104
 11
6.8846620411
 21
20.0872686779
  0
LINE
  5
400
100
AcDbEntity
  8
RACCORDO
100
AcDbLine
 62
253
  6
CONTINUOUS
 10
6.9153379589
 20
20.9872686779
 11
6.9153379589
 21
19.0000303104
  0
LINE
  5
401
100
AcDbEntity
  8
RACCORDO
100
AcDbLine
 62
253
  6
CONTINUOUS
 10
6.9153379589
 20
-19.0001037691
 11
6.9153379589
 21
-20.9872686779
  0
LINE
  5
402
100
AcDbEntity
  8
0
100
AcDbLine
 62
7
  6
CONTINUOUS
 10
7.2
 20
-22.4
 11
7.2
 21
-24.300030461
  0
LINE
  5
403
100
AcDbEntity
  8
0
100
AcDbLine
 62
7
  6
CONTINUOUS
 10
7.2
 20
22.4
 11
7.2
 21
24.300030461
  0
LINE
  5
404
100
AcDbEntity
  8
0
100
AcDbLine
 62
253
  6
CONTINUOUS
 10
7.2140249785
 20
24.2368706193
 11
7.2140249785
 21
23.8443375673
  0
LINE
  5
405
100
AcDbEntity
  8
0
100
AcDbLine
 62
253
  6
CONTINUOUS
 10
7.2140249785
 20
-23.8443375673
 11
7.2140249785
 21
-24.2368706193
  0
LINE
  5
406
100
AcDbEntity
  8
RACCORDO
100
AcDbLine
 62
7
  6
CONTINUOUS
 10
7.2153265358
 20
20.9846734642
 11
7.2153265358
 21
19.0001037691
  0
LINE
  5
407
100
AcDbEntity
  8
RACCORDO
100
AcDbLine
 62
7
  6
CONTINUOUS
 10
7.2153265358
 20
-19.0001037691
 11
7.2153265358
 21
-20.9846734642
  0
LINE
  5
408
100
AcDbEntity
  8
0
100
AcDbLine
 62
7
  6
CONTINUOUS
 10
7.3
 20
6.958315
 11
7.3
 21
6.735946
  0
LINE
  5
409
100
AcDbEntity
  8
0
100
AcDbLine
 62
7
  6
CONTINUOUS
 10
7.3
 20
5.93263
 11
7.3
 21
5.712298
  0
LINE
  5
40A
100
AcDbEntity
  8
0
100
AcDbLine
 62
7
  6
CONTINUOUS
 10
7.3
 20
4.938194
 11
7.3
 21
4.748999
  0
LINE
  5
40B
100
AcDbEntity
  8
0
100
AcDbLine
 62
7
  6
CONTINUOUS
 10
7.3
 20
4.068496
 11
7.3
 21
3.85404
  0
LINE
  5
40C
100
AcDbEntity
  8
0
100
AcDbLine
 62
7
  6
CONTINUOUS
 10
7.3
 20
3.272935
 11
7.3
 21
2.136145
  0
LINE
  5
40D
100
AcDbEntity
  8
0
100
AcDbLine
 62
7
  6
CONTINUOUS
 10
7.3
 20
1.933351
 11
7.3
 21
1.744167
  0
LINE
  5
40E
100
AcDbEntity
  8
0
100
AcDbLine
 62
7
  6
CONTINUOUS
 10
7.3
 20
0.876496
 11
7.3
 21
0.693222
  0
LINE
  5
40F
100
AcDbEntity
  8
0
100
AcDbLine
 62
7
  6
CONTINUOUS
 10
7.3
 20
-0.010741
 11
7.3
 21
-0.235024
  0
LINE
  5
410
100
AcDbEntity
  8
0
100
AcDbLine
 62
7
  6
CONTINUOUS
 10
7.3
 20
-0.55866
 11
7.3
 21
-0.747788
  0
LINE
  5
411
100
AcDbEntity
  8
0
100
AcDbLine
 62
7
  6
CONTINUOUS
 10
7.3
 20
-1.580439
 11
7.3
 21
-2.600271
  0
LINE
  5
412
100
AcDbEntity
  8
0
100
AcDbLine
 62
7
  6
CONTINUOUS
 10
7.3
 20
-3.4444861015
 11
7.3
 21
-4.017877
  0
LINE
  5
413
100
AcDbEntity
  8
0
100
AcDbLine
 62
7
  6
CONTINUOUS
 10
7.3
 20
-4.708095
 11
7.3
 21
-4.922618
  0
LINE
  5
414
100
AcDbEntity
  8
0
100
AcDbLine
 62
7
  6
CONTINUOUS
 10
7.3
 20
-5.616753
 11
7.3
 21
-5.885872
  0
LINE
  5
415
100
AcDbEntity
  8
0
100
AcDbLine
 62
7
  6
CONTINUOUS
 10
7.3
 20
-6.687273
 11
7.3
 21
-6.958315
  0
LINE
  5
416
100
AcDbEntity
  8
0
100
AcDbLine
 62
253
  6
CONTINUOUS
 10
7.4139945176
 20
24.2368706193
 11
7.4139945176
 21
23.8443375673
  0
LINE
  5
417
100
AcDbEntity
  8
0
100
AcDbLine
 62
253
  6
CONTINUOUS
 10
7.4139945176
 20
-23.8443354981
 11
7.4139945176
 21
-24.2368706193
  0
LINE
  5
418
100
AcDbEntity
  8
0
100
AcDbLine
 62
7
  6
CONTINUOUS
 10
7.461795
 20
-3.828682
 11
7.461795
 21
-3.455267649
  0
LINE
  5
419
100
AcDbEntity
  8
0
100
AcDbLine
 62
7
  6
CONTINUOUS
 10
7.467683
 20
-2.411087
 11
7.467683
 21
-1.580439
  0
LINE
  5
41A
100
AcDbEntity
  8
0
100
AcDbLine
 62
7
  6
CONTINUOUS
 10
7.467683
 20
2.136145
 11
7.467683
 21
2.609982
  0
LINE
  5
41B
100
AcDbEntity
  8
0
100
AcDbLine
 62
7
  6
CONTINUOUS
 10
7.467683
 20
2.799098
 11
7.467683
 21
3.272935
  0
LINE
  5
41C
100
AcDbEntity
  8
0
100
AcDbLine
 62
7
  6
CONTINUOUS
 10
7.896684
 20
-1.644784
 11
7.896684
 21
-2.411087
  0
LINE
  5
41D
100
AcDbEntity
  8
0
100
AcDbLine
 62
7
  6
CONTINUOUS
 10
8.0579942858
 20
21.2252970227
 11
8.0579942858
 21
20.9872686779
  0
LINE
  5
41E
100
AcDbEntity
  8
0
100
AcDbLine
 62
7
  6
CONTINUOUS
 10
8.0579942858
 20
-20.9872686779
 11
8.0579942858
 21
-21.2252970227
  0
LINE
  5
41F
100
AcDbEntity
  8
0
100
AcDbLine
 62
7
  6
CONTINUOUS
 10
8.064367
 20
-2.411087
 11
8.064367
 21
-1.644784
  0
LINE
  5
420
100
AcDbEntity
  8
0
100
AcDbLine
 62
7
  6
CONTINUOUS
 10
8.124828
 20
4.162097
 11
8.124828
 21
3.727265
  0
LINE
  5
421
100
AcDbEntity
  8
0
100
AcDbLine
 62
7
  6
CONTINUOUS
 10
8.124828
 20
-4.614482
 11
8.124828
 21
-5.049314
  0
LINE
  5
422
100
AcDbEntity
  8
0
100
AcDbLine
 62
7
  6
CONTINUOUS
 10
8.2325449351
 20
21.4051134101
 11
8.2325449351
 21
20.9
  0
LINE
  5
423
100
AcDbEntity
  8
0
100
AcDbLine
 62
7
  6
CONTINUOUS
 10
8.2325449351
 20
-21.4051134101
 11
8.2325449351
 21
-20.9
  0
LINE
  5
424
100
AcDbEntity
  8
0
100
AcDbLine
 62
7
  6
CONTINUOUS
 10
8.292511
 20
-5.107828
 11
8.292511
 21
-4.546288
  0
LINE
  5
425
100
AcDbEntity
  8
0
100
AcDbLine
 62
7
  6
CONTINUOUS
 10
8.292511
 20
3.668762
 11
8.292511
 21
4.230359
  0
LINE
  5
426
100
AcDbEntity
  8
0
100
AcDbLine
 62
7
  6
CONTINUOUS
 10
8.5
 20
23.1226497308
 11
8.5
 21
22.4
  0
LINE
  5
427
100
AcDbEntity
  8
0
100
AcDbLine
 62
7
  6
CONTINUOUS
 10
8.5
 20
-22.4
 11
8.5
 21
-23.1226497308
  0
LINE
  5
428
100
AcDbEntity
  8
0
100
AcDbLine
 62
253
  6
CONTINUOUS
 10
8.5131674569
 20
23.5581814706
 11
8.5131674569
 21
22.3868325431
  0
LINE
  5
429
100
AcDbEntity
  8
0
100
AcDbLine
 62
253
  6
CONTINUOUS
 10
8.5131674569
 20
-22.3868325431
 11
8.5131674569
 21
-23.5581814706
  0
LINE
  5
42A
100
AcDbEntity
  8
0
100
AcDbLine
 62
7
  6
CONTINUOUS
 10
8.532317
 20
5.647988
 11
8.532317
 21
4.938194
  0
LINE
  5
42B
100
AcDbEntity
  8
0
100
AcDbLine
 62
7
  6
CONTINUOUS
 10
8.532317
 20
-1.566773
 11
8.532317
 21
-2.411087
  0
LINE
  5
42C
100
AcDbEntity
  8
0
100
AcDbLine
 62
7
  6
CONTINUOUS
 10
8.538205
 20
-3.455267649
 11
8.538205
 21
-3.828682
  0
LINE
  5
42D
100
AcDbEntity
  8
0
100
AcDbLine
 62
7
  6
CONTINUOUS
 10
8.7
 20
-6.958315
 11
8.7
 21
-6.775036
  0
LINE
  5
42E
100
AcDbEntity
  8
0
100
AcDbLine
 62
7
  6
CONTINUOUS
 10
8.7
 20
-6.381131
 11
8.7
 21
-6.193936
  0
LINE
  5
42F
100
AcDbEntity
  8
0
100
AcDbLine
 62
7
  6
CONTINUOUS
 10
8.7
 20
-5.800106
 11
8.7
 21
-5.616753
  0
LINE
  5
430
100
AcDbEntity
  8
0
100
AcDbLine
 62
7
  6
CONTINUOUS
 10
8.7
 20
-5.449059
 11
8.7
 21
-5.254089
  0
LINE
  5
431
100
AcDbEntity
  8
0
100
AcDbLine
 62
7
  6
CONTINUOUS
 10
8.7
 20
-4.407862
 11
8.7
 21
-4.201151
  0
LINE
  5
432
100
AcDbEntity
  8
0
100
AcDbLine
 62
7
  6
CONTINUOUS
 10
8.7
 20
-4.017877
 11
8.7
 21
-3.4504385847
  0
LINE
  5
433
100
AcDbEntity
  8
0
100
AcDbLine
 62
7
  6
CONTINUOUS
 10
8.7
 20
-2.600271
 11
8.7
 21
-1.566773
  0
LINE
  5
434
100
AcDbEntity
  8
0
100
AcDbLine
 62
7
  6
CONTINUOUS
 10
8.7
 20
-0.747788
 11
8.7
 21
-0.55866
  0
LINE
  5
435
100
AcDbEntity
  8
0
100
AcDbLine
 62
7
  6
CONTINUOUS
 10
8.7
 20
-0.235024
 11
8.7
 21
-0.05166
  0
LINE
  5
436
100
AcDbEntity
  8
0
100
AcDbLine
 62
7
  6
CONTINUOUS
 10
8.7
 20
0.663965
 11
8.7
 21
0.876496
  0
LINE
  5
437
100
AcDbEntity
  8
0
100
AcDbLine
 62
7
  6
CONTINUOUS
 10
8.7
 20
1.744167
 11
8.7
 21
1.933351
  0
LINE
  5
438
100
AcDbEntity
  8
0
100
AcDbLine
 62
7
  6
CONTINUOUS
 10
8.7
 20
2.609982
 11
8.7
 21
2.799098
  0
LINE
  5
439
100
AcDbEntity
  8
0
100
AcDbLine
 62
7
  6
CONTINUOUS
 10
8.7
 20
3.327532
 11
8.7
 21
3.52249
  0
LINE
  5
43A
100
AcDbEntity
  8
0
100
AcDbLine
 62
7
  6
CONTINUOUS
 10
8.7
 20
4.368796
 11
8.7
 21
4.575541
  0
LINE
  5
43B
100
AcDbEntity
  8
0
100
AcDbLine
 62
7
  6
CONTINUOUS
 10
8.7
 20
4.748999
 11
8.7
 21
5.647988
  0
LINE
  5
43C
100
AcDbEntity
  8
0
100
AcDbLine
 62
7
  6
CONTINUOUS
 10
8.7
 20
6.240709
 11
8.7
 21
6.429791
  0
LINE
  5
43D
100
AcDbEntity
  8
RACCORDO
100
AcDbLine
 62
253
  6
CONTINUOUS
 10
7.0735541154
 20
-11.9794557283
 11
6.9164857863
 21
-18.5302821996
  0
LINE
  5
43E
100
AcDbEntity
  8
RACCORDO
100
AcDbLine
 62
253
  6
CONTINUOUS
 10
7.3724455921
 20
-12.3071201189
 11
7.2164749565
 21
-18.8121652449
  0
LINE
  5
43F
100
AcDbEntity
  8
0
100
AcDbLine
 62
253
  6
CONTINUOUS
 10
7.4135581719
 20
23.6278322392
 11
7.3982849591
 21
23.1226497308
  0
LINE
  5
440
100
AcDbEntity
  8
0
100
AcDbLine
 62
7
  6
CONTINUOUS
 10
8.5131674569
 20
23.5581814706
 11
8.5
 21
23.1226497308
  0
LINE
  5
441
100
AcDbEntity
  8
0
100
AcDbLine
 62
253
  6
CONTINUOUS
 10
-10.6
 20
-22.3999999999
 11
-10.5826210875
 21
-22.3825449351
  0
LINE
  5
442
100
AcDbEntity
  8
0
100
AcDbLine
 62
253
  6
CONTINUOUS
 10
-11.1
 20
-21.9000761524
 11
-11.0825449351
 21
-21.8826210875
  0
LINE
  5
443
100
AcDbEntity
  8
0
100
AcDbLine
 62
7
  6
CONTINUOUS
 10
8.7
 20
-4.201151
 11
7.3
 21
-4.708095
  0
LINE
  5
444
100
AcDbEntity
  8
0
100
AcDbLine
 62
7
  6
CONTINUOUS
 10
8.292511
 20
-4.546288
 11
8.7
 21
-4.407862
  0
LINE
  5
445
100
AcDbEntity
  8
0
100
AcDbLine
 62
7
  6
CONTINUOUS
 10
8.489326
 20
-6.285609
 11
7.3
 21
-6.687273
  0
LINE
  5
446
100
AcDbEntity
  8
0
100
AcDbLine
 62
7
  6
CONTINUOUS
 10
7.503068
 20
-4.823061
 11
8.124828
 21
-4.614482
  0
LINE
  5
447
100
AcDbEntity
  8
0
100
AcDbLine
 62
7
  6
CONTINUOUS
 10
-2.622199
 20
-8.851592
 11
-5.421902
 21
-9.71061
  0
LINE
  5
448
100
AcDbEntity
  8
0
100
AcDbLine
 62
7
  6
CONTINUOUS
 10
-3.734084
 20
13.482781
 11
-5.138732
 21
14.887385
  0
LINE
  5
449
100
AcDbEntity
  8
0
100
AcDbLine
 62
7
  6
CONTINUOUS
 10
-6.017517
 20
16.49673
 11
-5.383976
 21
15.863188
  0
LINE
  5
44A
100
AcDbEntity
  8
0
100
AcDbLine
 62
253
  6
CONTINUOUS
 10
-11.0825449351
 20
21.8826210875
 11
-11.1
 21
21.9000761524
  0
LINE
  5
44B
100
AcDbEntity
  8
0
100
AcDbLine
 62
7
  6
CONTINUOUS
 10
-5.383976
 20
16.368519
 11
-6.017517
 21
17.002039
  0
LINE
  5
44C
100
AcDbEntity
  8
0
100
AcDbLine
 62
253
  6
CONTINUOUS
 10
-10.5826210875
 20
22.3825449351
 11
-10.6000000646
 21
22.3999999354
  0
LINE
  5
44D
100
AcDbEntity
  8
0
100
AcDbLine
 62
7
  6
CONTINUOUS
 10
9.2868325431
 20
23.5581814706
 11
9.3
 21
23.1226497308
  0
LINE
  5
44E
100
AcDbEntity
  8
0
100
AcDbLine
 62
7
  6
CONTINUOUS
 10
11.0825449351
 20
-20.4226497308
 11
11.1
 21
-21.0
  0
LINE
  5
44F
100
AcDbEntity
  8
0
100
AcDbLine
 62
253
  6
CONTINUOUS
 10
8.7631293807
 20
23.8443375673
 11
8.7631293807
 21
22.3825449351
  0
LINE
  5
450
100
AcDbEntity
  8
0
100
AcDbLine
 62
253
  6
CONTINUOUS
 10
8.7631293807
 20
-22.3825449351
 11
8.7631293807
 21
-23.8443375673
  0
LINE
  5
451
100
AcDbEntity
  8
0
100
AcDbLine
 62
253
  6
CONTINUOUS
 10
9.0368706193
 20
23.8443375673
 11
9.0368706193
 21
22.3825449351
  0
LINE
  5
452
100
AcDbEntity
  8
0
100
AcDbLine
 62
253
  6
CONTINUOUS
 10
9.0368706193
 20
-22.3825449351
 11
9.0368706193
 21
-23.8443375673
  0
LINE
  5
453
100
AcDbEntity
  8
0
100
AcDbLine
 62
253
  6
CONTINUOUS
 10
9.2868325431
 20
23.5581814706
 11
9.2868325431
 21
22.3868325431
  0
LINE
  5
454
100
AcDbEntity
  8
0
100
AcDbLine
 62
253
  6
CONTINUOUS
 10
9.2868325431
 20
-22.3868325431
 11
9.2868325431
 21
-23.5581814706
  0
LINE
  5
455
100
AcDbEntity
  8
0
100
AcDbLine
 62
7
  6
CONTINUOUS
 10
9.3
 20
23.1226497308
 11
9.3
 21
22.4
  0
LINE
  5
456
100
AcDbEntity
  8
0
100
AcDbLine
 62
7
  6
CONTINUOUS
 10
9.3
 20
-22.4
 11
9.3
 21
-23.1226497308
  0
LINE
  5
457
100
AcDbEntity
  8
0
100
AcDbLine
 62
7
  6
CONTINUOUS
 10
9.65
 20
20.9
 11
9.65
 21
-20.9
  0
LINE
  5
458
100
AcDbEntity
  8
0
100
AcDbLine
 62
253
  6
CONTINUOUS
 10
10.3860054824
 20
24.2368706193
 11
10.3860054824
 21
23.8443575944
  0
LINE
  5
459
100
AcDbEntity
  8
0
100
AcDbLine
 62
253
  6
CONTINUOUS
 10
10.3860054824
 20
-23.8442507367
 11
10.3860054824
 21
-24.2368706193
  0
LINE
  5
45A
100
AcDbEntity
  8
0
100
AcDbLine
 62
253
  6
CONTINUOUS
 10
10.5859750215
 20
24.2368706193
 11
10.5859750215
 21
23.8443375673
  0
LINE
  5
45B
100
AcDbEntity
  8
0
100
AcDbLine
 62
253
  6
CONTINUOUS
 10
10.5859750215
 20
-23.8443375673
 11
10.5859750215
 21
-24.2368706193
  0
LINE
  5
45C
100
AcDbEntity
  8
0
100
AcDbLine
 62
7
  6
CONTINUOUS
 10
10.6
 20
24.300030461
 11
10.6
 21
22.3999997358
  0
LINE
  5
45D
100
AcDbEntity
  8
0
100
AcDbLine
 62
7
  6
CONTINUOUS
 10
10.6000000646
 20
-22.3999999296
 11
10.6
 21
-24.300030461
  0
LINE
  5
45E
100
AcDbEntity
  8
0
100
AcDbLine
 62
7
  6
CONTINUOUS
 10
9.3
 20
-23.1226497308
 11
9.2868325431
 21
-23.5581814706
  0
LINE
  5
45F
100
AcDbEntity
  8
0
100
AcDbLine
 62
7
  6
CONTINUOUS
 10
11.1
 20
21.0
 11
11.0825449351
 21
20.4226497308
  0
LINE
  5
460
100
AcDbEntity
  8
0
100
AcDbLine
 62
7
  6
CONTINUOUS
 10
-9.3
 20
-22.4
 11
-9.2868325431
 21
-22.3868325431
  0
LINE
  5
461
100
AcDbEntity
  8
RACCORDO
100
AcDbLine
 62
7
  6
CONTINUOUS
 10
-6.4316569722
 20
-19.9296270793
 11
-6.5867033571
 21
-20.0846734642
  0
LINE
  5
462
100
AcDbEntity
  8
0
100
AcDbLine
 62
253
  6
CONTINUOUS
 10
-10.6
 20
-24.300030461
 11
-10.5868325431
 21
-24.286863004
  0
LINE
  5
463
100
AcDbEntity
  8
0
100
AcDbLine
 62
253
  6
CONTINUOUS
 10
-10.400030461
 20
-24.5
 11
-10.3868630041
 21
-24.4868325431
  0
LINE
  5
464
100
AcDbEntity
  8
0
100
AcDbLine
 62
7
  6
CONTINUOUS
 10
-3.867498
 20
-12.670314
 11
-5.421902
 21
-13.24855
  0
LINE
  5
465
100
AcDbEntity
  8
0
100
AcDbLine
 62
7
  6
CONTINUOUS
 10
7.526106
 20
-6.775036
 11
8.7
 21
-6.381131
  0
LINE
  5
466
100
AcDbEntity
  8
0
100
AcDbLine
 62
7
  6
CONTINUOUS
 10
-3.870837
 20
8.907261
 11
-3.513502
 21
8.907261
  0
LINE
  5
467
100
AcDbEntity
  8
0
100
AcDbLine
 62
7
  6
CONTINUOUS
 10
-4.528039
 20
9.283186
 11
-3.870837
 21
9.283186
  0
LINE
  5
468
100
AcDbEntity
  8
0
100
AcDbLine
 62
7
  6
CONTINUOUS
 10
-3.513502
 20
9.283186
 11
-2.31861
 21
9.283186
  0
LINE
  5
469
100
AcDbEntity
  8
0
100
AcDbLine
 62
7
  6
CONTINUOUS
 10
-2.31861
 20
9.640522
 11
-5.12474
 21
9.640522
  0
LINE
  5
46A
100
AcDbEntity
  8
0
100
AcDbLine
 62
7
  6
CONTINUOUS
 10
-5.1247398667
 20
10.0089424
 11
-4.7674048
 21
10.0089424
  0
LINE
  5
46B
100
AcDbEntity
  8
0
100
AcDbLine
 62
7
  6
CONTINUOUS
 10
7.3
 20
6.735946
 11
7.97277
 21
6.334344
  0
LINE
  5
46C
100
AcDbEntity
  8
0
100
AcDbLine
 62
7
  6
CONTINUOUS
 10
8.13649
 20
6.429791
 11
7.3
 21
6.958315
  0
LINE
  5
46D
100
AcDbEntity
  8
0
100
AcDbLine
 62
7
  6
CONTINUOUS
 10
-9.3
 20
22.4
 11
-9.2868325431
 21
22.3868325431
  0
LINE
  5
46E
100
AcDbEntity
  8
RACCORDO
100
AcDbLine
 62
7
  6
CONTINUOUS
 10
-6.5867033571
 20
20.0846734642
 11
-6.4316569722
 21
19.9296270793
  0
LINE
  5
46F
100
AcDbEntity
  8
0
100
AcDbLine
 62
253
  6
CONTINUOUS
 10
-10.5868325431
 20
24.2868630041
 11
-10.6
 21
24.300030461
  0
LINE
  5
470
100
AcDbEntity
  8
0
100
AcDbLine
 62
253
  6
CONTINUOUS
 10
-10.3868630041
 20
24.4868325431
 11
-10.400030461
 21
24.5
  0
LINE
  5
471
100
AcDbEntity
  8
ASSI
100
AcDbLine
 62
7
  6
CONTINUOUS
 10
1.4064256693
 20
13.3937793925
 11
2.391613
 21
12.224704
  0
LINE
  5
472
100
AcDbEntity
  8
ASSI
100
AcDbLine
 62
7
  6
CONTINUOUS
 10
2.903309
 20
12.224704
 11
1.9638330845
 21
13.3395358997
  0
LINE
  5
473
100
AcDbEntity
  8
0
100
AcDbLine
 62
7
  6
CONTINUOUS
 10
11.1
 20
21.0
 11
11.1261859216
 21
20.4226497308
  0
LINE
  5
474
100
AcDbEntity
  8
0
100
AcDbLine
 62
253
  6
CONTINUOUS
 10
10.3864405814
 20
23.6278734767
 11
10.4017150409
 21
23.1226497308
  0
LINE
  5
475
100
AcDbEntity
  8
0
100
AcDbLine
 62
253
  6
CONTINUOUS
 10
10.5864113981
 20
23.8010362971
 11
10.6
 21
23.3515746082
  0
LINE
  5
476
100
AcDbEntity
  8
0
100
AcDbLine
 62
7
  6
CONTINUOUS
 10
11.0825449351
 20
21.8826210875
 11
11.0825449351
 21
20.4226497308
  0
LINE
  5
477
100
AcDbEntity
  8
0
100
AcDbLine
 62
7
  6
CONTINUOUS
 10
11.0825449351
 20
-20.4226497308
 11
11.0825449351
 21
-21.8826210875
  0
LINE
  5
478
100
AcDbEntity
  8
0
100
AcDbLine
 62
7
  6
CONTINUOUS
 10
11.1
 20
21.9000761524
 11
11.1
 21
21.0
  0
LINE
  5
479
100
AcDbEntity
  8
0
100
AcDbLine
 62
7
  6
CONTINUOUS
 10
11.1
 20
-21.9000761524
 11
11.1
 21
-21.0
  0
LINE
  5
47A
100
AcDbEntity
  8
0
100
AcDbLine
 62
7
  6
CONTINUOUS
 10
11.1261859216
 20
20.4226497308
 11
11.1261859216
 21
-20.4226497308
  0
LINE
  5
47B
100
AcDbEntity
  8
0
100
AcDbLine
 62
253
  6
CONTINUOUS
 10
10.4017150409
 20
-23.1226497308
 11
10.3864421555
 21
-23.6278214108
  0
LINE
  5
47C
100
AcDbEntity
  8
0
100
AcDbLine
 62
253
  6
CONTINUOUS
 10
10.6
 20
-23.3515746082
 11
10.5864113981
 21
-23.8010362971
  0
LINE
  5
47D
100
AcDbEntity
  8
0
100
AcDbLine
 62
7
  6
CONTINUOUS
 10
11.1261859216
 20
-20.4226497308
 11
11.1
 21
-21.0
  0
LINE
  5
47E
100
AcDbEntity
  8
0
100
AcDbLine
 62
253
  6
CONTINUOUS
 10
2.6286750776
 20
-21.975182794
 11
2.55
 21
-22.1325449336
  0
LINE
  5
47F
100
AcDbEntity
  8
0
100
AcDbLine
 62
253
  6
CONTINUOUS
 10
2.8786655583
 20
-22.2251447178
 11
2.7999714434
 21
-22.3825449351
  0
LINE
  5
480
100
AcDbEntity
  8
0
100
AcDbLine
 62
7
  6
CONTINUOUS
 10
-4.45
 20
-22.4
 11
-4.3518840226
 21
-22.3018840226
  0
LINE
  5
481
100
AcDbEntity
  8
0
100
AcDbLine
 62
7
  6
CONTINUOUS
 10
-4.450353
 20
-13.400068
 11
-2.622199
 21
-12.714487
  0
LINE
  5
482
100
AcDbEntity
  8
ASSI
100
AcDbLine
 62
7
  6
CONTINUOUS
 10
4.289452
 20
11.41157
 11
4.706117
 21
11.41157
  0
LINE
  5
483
100
AcDbEntity
  8
ASSI
100
AcDbLine
 62
7
  6
CONTINUOUS
 10
0.910297
 20
11.425177
 11
1.329254
 21
11.425177
  0
LINE
  5
484
100
AcDbEntity
  8
ASSI
100
AcDbLine
 62
7
  6
CONTINUOUS
 10
1.329254
 20
11.780825
 11
2.391613
 21
11.780825
  0
LINE
  5
485
100
AcDbEntity
  8
ASSI
100
AcDbLine
 62
7
  6
CONTINUOUS
 10
2.907969
 20
11.780825
 11
4.289452
 21
11.780825
  0
LINE
  5
486
100
AcDbEntity
  8
ASSI
100
AcDbLine
 62
7
  6
CONTINUOUS
 10
4.289452
 20
12.224704
 11
2.903309
 21
12.224704
  0
LINE
  5
487
100
AcDbEntity
  8
ASSI
100
AcDbLine
 62
7
  6
CONTINUOUS
 10
2.391613
 20
12.224704
 11
1.329254
 21
12.224704
  0
LINE
  5
488
100
AcDbEntity
  8
0
100
AcDbLine
 62
7
  6
CONTINUOUS
 10
-5.133427
 20
12.469637
 11
-2.332602
 21
12.469637
  0
LINE
  5
489
100
AcDbEntity
  8
ASSI
100
AcDbLine
 62
7
  6
CONTINUOUS
 10
1.329254
 20
12.580209
 11
0.910297
 21
12.580209
  0
LINE
  5
48A
100
AcDbEntity
  8
ASSI
100
AcDbLine
 62
7
  6
CONTINUOUS
 10
4.706117
 20
12.593816
 11
4.289452
 21
12.593816
  0
LINE
  5
48B
100
AcDbEntity
  8
0
100
AcDbLine
 62
7
  6
CONTINUOUS
 10
-2.332602
 20
12.826972
 11
-5.133427
 21
12.826972
  0
LINE
  5
48C
100
AcDbEntity
  8
ASSI
100
AcDbLine
 62
7
  6
CONTINUOUS
 10
4.5187406859
 20
11.0353241763
 11
4.1770221132
 21
11.2271209365
  0
LINE
  5
48D
100
AcDbEntity
  8
0
100
AcDbLine
 62
7
  6
CONTINUOUS
 10
-4.45
 20
22.4
 11
-4.3518840226
 21
22.3018840226
  0
LINE
  5
48E
100
AcDbEntity
  8
0
100
AcDbLine
 62
253
  6
CONTINUOUS
 10
2.55
 20
22.1325449336
 11
2.6286750776
 21
21.975182794
  0
LINE
  5
48F
100
AcDbEntity
  8
0
100
AcDbLine
 62
253
  6
CONTINUOUS
 10
2.7999714434
 20
22.3825449351
 11
2.8786655583
 21
22.2251447178
  0
LINE
  5
490
100
AcDbEntity
  8
0
100
AcDbLine
 62
7
  6
CONTINUOUS
 10
7.3012233427
 20
-22.2251447178
 11
7.2551134101
 21
-22.3825449351
  0
LINE
  5
491
100
AcDbEntity
  8
0
100
AcDbLine
 62
253
  6
CONTINUOUS
 10
-4.3518840226
 20
-23.6519220988
 11
-4.45
 21
-23.7500380762
  0
LINE
  5
492
100
AcDbEntity
  8
0
100
AcDbLine
 62
253
  6
CONTINUOUS
 10
-4.1019220988
 20
-23.9018840226
 11
-4.2000380762
 21
-24.0
  0
LINE
  5
493
100
AcDbEntity
  8
0
100
AcDbLine
 62
7
  6
CONTINUOUS
 10
-5.421902
 20
-17.503668
 11
-2.622199
 21
-16.616107
  0
LINE
  5
494
100
AcDbEntity
  8
ASSI
100
AcDbLine
 62
7
  6
CONTINUOUS
 10
6.029018
 20
13.508932
 11
5.72078
 21
13.72636
  0
LINE
  5
495
100
AcDbEntity
  8
0
100
AcDbLine
 62
253
  6
CONTINUOUS
 10
-4.45
 20
23.7500380762
 11
-4.3518840226
 21
23.6519220988
  0
LINE
  5
496
100
AcDbEntity
  8
0
100
AcDbLine
 62
253
  6
CONTINUOUS
 10
-4.2000380762
 20
24.0
 11
-4.1019220988
 21
23.9018840226
  0
LINE
  5
497
100
AcDbEntity
  8
0
100
AcDbLine
 62
7
  6
CONTINUOUS
 10
7.3012233427
 20
22.2251447178
 11
7.2551134101
 21
22.3825449351
  0
LINE
  5
498
100
AcDbEntity
  8
0
100
AcDbLine
 62
7
  6
CONTINUOUS
 10
2.55
 20
-21.7
 11
2.6173032135
 21
-21.6326967865
  0
LINE
  5
499
100
AcDbEntity
  8
0
100
AcDbLine
 62
7
  6
CONTINUOUS
 10
-9.4440317018
 20
-20.8313578442
 11
-9.65
 21
-20.9
  0
LINE
  5
49A
100
AcDbEntity
  8
0
100
AcDbLine
 62
7
  6
CONTINUOUS
 10
-5.128761
 20
15.252639
 11
-2.332602
 21
15.252639
  0
LINE
  5
49B
100
AcDbEntity
  8
0
100
AcDbLine
 62
7
  6
CONTINUOUS
 10
-2.689937
 20
15.609976
 11
-4.771426
 21
15.609976
  0
LINE
  5
49C
100
AcDbEntity
  8
0
100
AcDbLine
 62
7
  6
CONTINUOUS
 10
-3.878155
 20
16.013082
 11
-3.521845
 21
16.013082
  0
LINE
  5
49D
100
AcDbEntity
  8
0
100
AcDbLine
 62
7
  6
CONTINUOUS
 10
-3.521845
 20
17.092968
 11
-3.878155
 21
17.092968
  0
LINE
  5
49E
100
AcDbEntity
  8
0
100
AcDbLine
 62
7
  6
CONTINUOUS
 10
-4.771426
 20
17.142756
 11
-5.128761
 21
17.142756
  0
LINE
  5
49F
100
AcDbEntity
  8
0
100
AcDbLine
 62
7
  6
CONTINUOUS
 10
-2.332602
 20
17.165072
 11
-2.689937
 21
17.165072
  0
LINE
  5
4A0
100
AcDbEntity
  8
0
100
AcDbLine
 62
7
  6
CONTINUOUS
 10
-9.4440317018
 20
20.8313578442
 11
-9.65
 21
20.9
  0
LINE
  5
4A1
100
AcDbEntity
  8
0
100
AcDbLine
 62
7
  6
CONTINUOUS
 10
2.55
 20
21.7
 11
2.6173032135
 21
21.6326967865
  0
LINE
  5
4A2
100
AcDbEntity
  8
0
100
AcDbLine
 62
253
  6
CONTINUOUS
 10
0.8174550649
 20
-23.7325830113
 11
0.8
 21
-23.7500380762
  0
LINE
  5
4A3
100
AcDbEntity
  8
0
100
AcDbLine
 62
253
  6
CONTINUOUS
 10
1.0674169887
 20
-23.9825449351
 11
1.0499619238
 21
-24.0
  0
LINE
  5
4A4
100
AcDbEntity
  8
0
100
AcDbLine
 62
7
  6
CONTINUOUS
 10
3.5
 20
-22.3825449351
 11
3.5806609125
 21
-22.3018840226
  0
LINE
  5
4A5
100
AcDbEntity
  8
0
100
AcDbLine
 62
253
  6
CONTINUOUS
 10
3.5806609125
 20
-23.6519220988
 11
3.5
 21
-23.7325830113
  0
LINE
  5
4A6
100
AcDbEntity
  8
RACCORDO
100
AcDbLine
 62
253
  6
CONTINUOUS
 10
6.9164863796
 20
18.5302574587
 11
6.8835136204
 21
18.5302574587
  0
LINE
  5
4A7
100
AcDbEntity
  8
RACCORDO
100
AcDbLine
 62
253
  6
CONTINUOUS
 10
-6.8855435134
 20
18.5302574587
 11
-6.9164863796
 21
18.5302574587
  0
LINE
  5
4A8
100
AcDbEntity
  8
RACCORDO
100
AcDbLine
 62
253
  6
CONTINUOUS
 10
6.5846734642
 20
19.0001037691
 11
7.2153265358
 21
19.0001037691
  0
LINE
  5
4A9
100
AcDbEntity
  8
RACCORDO
100
AcDbLine
 62
253
  6
CONTINUOUS
 10
-6.5867033571
 20
19.0001037691
 11
-7.2153265358
 21
19.0001037691
  0
LINE
  5
4AA
100
AcDbEntity
  8
0
100
AcDbLine
 62
253
  6
CONTINUOUS
 10
0.8
 20
23.7500380762
 11
0.8174550649
 21
23.7325830113
  0
LINE
  5
4AB
100
AcDbEntity
  8
0
100
AcDbLine
 62
253
  6
CONTINUOUS
 10
1.0499619238
 20
24.0
 11
1.0674169887
 21
23.9825449351
  0
LINE
  5
4AC
100
AcDbEntity
  8
0
100
AcDbLine
 62
7
  6
CONTINUOUS
 10
3.5806609125
 20
22.3018840226
 11
3.5
 21
22.3825449351
  0
LINE
  5
4AD
100
AcDbEntity
  8
0
100
AcDbLine
 62
253
  6
CONTINUOUS
 10
3.5
 20
23.7325830113
 11
3.5806609125
 21
23.6519220988
  0
LINE
  5
4AE
100
AcDbEntity
  8
0
100
AcDbLine
 62
253
  6
CONTINUOUS
 10
3.8306228363
 20
-23.9018840226
 11
3.7499619238
 21
-23.9825449351
  0
LINE
  5
4AF
100
AcDbEntity
  8
RACCORDO
100
AcDbLine
 62
7
  6
CONTINUOUS
 10
7.3696313037
 20
-20.8303686963
 11
7.2153265358
 21
-20.9846734642
  0
LINE
  5
4B0
100
AcDbEntity
  8
0
100
AcDbLine
 62
7
  6
CONTINUOUS
 10
7.2551134101
 20
-22.3825449351
 11
8.2325449351
 21
-21.4051134101
  0
LINE
  5
4B1
100
AcDbEntity
  8
RACCORDO
100
AcDbLine
 62
7
  6
CONTINUOUS
 10
-6.886691934
 20
20.0872686779
 11
6.8846620411
 21
20.0872686779
  0
LINE
  5
4B2
100
AcDbEntity
  8
0
100
AcDbLine
 62
7
  6
CONTINUOUS
 10
-11.1261859216
 20
20.4226497308
 11
-11.0825449351
 21
20.4226497308
  0
LINE
  5
4B3
100
AcDbEntity
  8
0
100
AcDbLine
 62
7
  6
CONTINUOUS
 10
11.1261859216
 20
20.4226497308
 11
11.0825449351
 21
20.4226497308
  0
LINE
  5
4B4
100
AcDbEntity
  8
0
100
AcDbLine
 62
7
  6
CONTINUOUS
 10
2.8850964806
 20
20.8
 11
-2.8850964806
 21
20.8
  0
LINE
  5
4B5
100
AcDbEntity
  8
0
100
AcDbLine
 62
7
  6
CONTINUOUS
 10
9.65
 20
20.9
 11
8.2325449351
 21
20.9
  0
LINE
  5
4B6
100
AcDbEntity
  8
0
100
AcDbLine
 62
7
  6
CONTINUOUS
 10
-8.2325449351
 20
20.9
 11
-9.65
 21
20.9
  0
LINE
  5
4B7
100
AcDbEntity
  8
RACCORDO
100
AcDbLine
 62
7
  6
CONTINUOUS
 10
-8.0579942858
 20
20.9872686779
 11
-6.9153379589
 21
20.9872686779
  0
LINE
  5
4B8
100
AcDbEntity
  8
RACCORDO
100
AcDbLine
 62
7
  6
CONTINUOUS
 10
6.9153379589
 20
20.9872686779
 11
8.0579942858
 21
20.9872686779
  0
LINE
  5
4B9
100
AcDbEntity
  8
0
100
AcDbLine
 62
253
  6
CONTINUOUS
 10
-8.0579942858
 20
21.2252970227
 11
-2.6351059998
 21
21.2252970227
  0
LINE
  5
4BA
100
AcDbEntity
  8
0
100
AcDbLine
 62
253
  6
CONTINUOUS
 10
2.6351059998
 20
21.2252970227
 11
8.0579942858
 21
21.2252970227
  0
LINE
  5
4BB
100
AcDbEntity
  8
0
100
AcDbLine
 62
253
  6
CONTINUOUS
 10
3.7499619238
 20
23.9825449351
 11
3.8306228363
 21
23.9018840226
  0
LINE
  5
4BC
100
AcDbEntity
  8
RACCORDO
100
AcDbLine
 62
7
  6
CONTINUOUS
 10
7.2153265358
 20
20.9846734642
 11
7.3696313037
 21
20.8303686963
  0
LINE
  5
4BD
100
AcDbEntity
  8
0
100
AcDbLine
 62
7
  6
CONTINUOUS
 10
8.2325449351
 20
21.4051134101
 11
7.2551134101
 21
22.3825449351
  0
LINE
  5
4BE
100
AcDbEntity
  8
0
100
AcDbLine
 62
7
  6
CONTINUOUS
 10
8.5
 20
-22.4
 11
8.5131674569
 21
-22.3868325431
  0
LINE
  5
4BF
100
AcDbEntity
  8
0
100
AcDbLine
 62
253
  6
CONTINUOUS
 10
7.2131674569
 20
-24.286863004
 11
7.2
 21
-24.300030461
  0
LINE
  5
4C0
100
AcDbEntity
  8
0
100
AcDbLine
 62
253
  6
CONTINUOUS
 10
7.4131369959
 20
-24.4868325431
 11
7.399969539
 21
-24.5
  0
LINE
  5
4C1
100
AcDbEntity
  8
0
100
AcDbLine
 62
7
  6
CONTINUOUS
 10
8.0579942858
 20
-20.9872686779
 11
8.2325449351
 21
-20.9
  0
LINE
  5
4C2
100
AcDbEntity
  8
0
100
AcDbLine
 62
7
  6
CONTINUOUS
 10
8.0584656028
 20
-21.4561094406
 11
8.2325449351
 21
-21.4051134101
  0
LINE
  5
4C3
100
AcDbEntity
  8
0
100
AcDbLine
 62
7
  6
CONTINUOUS
 10
-0.8174550649
 20
22.398254669
 11
-0.8
 21
22.4
  0
LINE
  5
4C4
100
AcDbEntity
  8
0
100
AcDbLine
 62
7
  6
CONTINUOUS
 10
2.6173032135
 20
21.6326967865
 11
-2.6173032135
 21
21.6326967865
  0
LINE
  5
4C5
100
AcDbEntity
  8
0
100
AcDbLine
 62
7
  6
CONTINUOUS
 10
-2.55
 20
21.7
 11
2.55
 21
21.7
  0
LINE
  5
4C6
100
AcDbEntity
  8
0
100
AcDbLine
 62
253
  6
CONTINUOUS
 10
7.3012233427
 20
22.2251447178
 11
2.8786655583
 21
22.2251447178
  0
LINE
  5
4C7
100
AcDbEntity
  8
0
100
AcDbLine
 62
253
  6
CONTINUOUS
 10
-2.8786655583
 20
22.2251447178
 11
-7.3012233427
 21
22.2251447178
  0
LINE
  5
4C8
100
AcDbEntity
  8
0
100
AcDbLine
 62
7
  6
CONTINUOUS
 10
10.5826210875
 20
22.3825449351
 11
9.0368706193
 21
22.3825449351
  0
LINE
  5
4C9
100
AcDbEntity
  8
0
100
AcDbLine
 62
7
  6
CONTINUOUS
 10
8.7631293807
 20
22.3825449351
 11
7.2551134101
 21
22.3825449351
  0
LINE
  5
4CA
100
AcDbEntity
  8
0
100
AcDbLine
 62
7
  6
CONTINUOUS
 10
-3.5
 20
22.3825449351
 11
-2.7999714434
 21
22.3825449351
  0
LINE
  5
4CB
100
AcDbEntity
  8
0
100
AcDbLine
 62
7
  6
CONTINUOUS
 10
2.7999714434
 20
22.3825449351
 11
3.5
 21
22.3825449351
  0
LINE
  5
4CC
100
AcDbEntity
  8
0
100
AcDbLine
 62
7
  6
CONTINUOUS
 10
-7.2551134101
 20
22.3825449351
 11
-8.7631293807
 21
22.3825449351
  0
LINE
  5
4CD
100
AcDbEntity
  8
0
100
AcDbLine
 62
7
  6
CONTINUOUS
 10
-9.0368706193
 20
22.3825449351
 11
-10.5826210875
 21
22.3825449351
  0
LINE
  5
4CE
100
AcDbEntity
  8
0
100
AcDbLine
 62
7
  6
CONTINUOUS
 10
-0.8174550649
 20
22.398254669
 11
0.8174550649
 21
22.398254669
  0
LINE
  5
4CF
100
AcDbEntity
  8
0
100
AcDbLine
 62
7
  6
CONTINUOUS
 10
-10.6000000646
 20
22.3999999354
 11
-9.3
 21
22.4
  0
LINE
  5
4D0
100
AcDbEntity
  8
0
100
AcDbLine
 62
7
  6
CONTINUOUS
 10
-8.5
 20
22.4
 11
-4.45
 21
22.4
  0
LINE
  5
4D1
100
AcDbEntity
  8
0
100
AcDbLine
 62
7
  6
CONTINUOUS
 10
4.45
 20
22.4
 11
8.5
 21
22.4
  0
LINE
  5
4D2
100
AcDbEntity
  8
0
100
AcDbLine
 62
7
  6
CONTINUOUS
 10
9.3
 20
22.4
 11
10.6
 21
22.3999999999
  0
LINE
  5
4D3
100
AcDbEntity
  8
0
100
AcDbLine
 62
7
  6
CONTINUOUS
 10
-10.4017150409
 20
23.1226497308
 11
-9.3
 21
23.1226497308
  0
LINE
  5
4D4
100
AcDbEntity
  8
0
100
AcDbLine
 62
7
  6
CONTINUOUS
 10
-8.5
 20
23.1226497308
 11
-7.3982849591
 21
23.1226497308
  0
LINE
  5
4D5
100
AcDbEntity
  8
0
100
AcDbLine
 62
7
  6
CONTINUOUS
 10
7.3982849591
 20
23.1226497308
 11
8.5
 21
23.1226497308
  0
LINE
  5
4D6
100
AcDbEntity
  8
0
100
AcDbLine
 62
7
  6
CONTINUOUS
 10
9.3
 20
23.1226497308
 11
10.4017150409
 21
23.1226497308
  0
LINE
  5
4D7
100
AcDbEntity
  8
0
100
AcDbLine
 62
7
  6
CONTINUOUS
 10
0.8174550649
 20
22.398254669
 11
0.8
 21
22.4
  0
LINE
  5
4D8
100
AcDbEntity
  8
0
100
AcDbLine
 62
7
  6
CONTINUOUS
 10
8.0584656028
 20
21.4561094406
 11
8.2325449351
 21
21.4051134101
  0
LINE
  5
4D9
100
AcDbEntity
  8
0
100
AcDbLine
 62
7
  6
CONTINUOUS
 10
8.0579942858
 20
20.9872686779
 11
8.2325449351
 21
20.9
  0
LINE
  5
4DA
100
AcDbEntity
  8
0
100
AcDbLine
 62
7
  6
CONTINUOUS
 10
8.5
 20
22.4
 11
8.5131674569
 21
22.3868325431
  0
LINE
  5
4DB
100
AcDbEntity
  8
0
100
AcDbLine
 62
253
  6
CONTINUOUS
 10
7.2
 20
24.300030461
 11
7.2131674569
 21
24.2868630041
  0
LINE
  5
4DC
100
AcDbEntity
  8
0
100
AcDbLine
 62
253
  6
CONTINUOUS
 10
7.399969539
 20
24.5
 11
7.4131369959
 21
24.4868325431
  0
LINE
  5
4DD
100
AcDbEntity
  8
0
100
AcDbLine
 62
253
  6
CONTINUOUS
 10
-10.3864405812
 20
23.6278734826
 11
-9.2533769702
 21
23.6278312164
  0
LINE
  5
4DE
100
AcDbEntity
  8
0
100
AcDbLine
 62
253
  6
CONTINUOUS
 10
9.2533769702
 20
23.6278312164
 11
10.3864405814
 21
23.6278734767
  0
LINE
  5
4DF
100
AcDbEntity
  8
0
100
AcDbLine
 62
253
  6
CONTINUOUS
 10
-8.5466230298
 20
23.6278312164
 11
-7.4135581657
 21
23.6278320349
  0
LINE
  5
4E0
100
AcDbEntity
  8
0
100
AcDbLine
 62
253
  6
CONTINUOUS
 10
7.4135581719
 20
23.6278322392
 11
8.5466230298
 21
23.6278312164
  0
LINE
  5
4E1
100
AcDbEntity
  8
0
100
AcDbLine
 62
253
  6
CONTINUOUS
 10
-10.5859750215
 20
23.8443375673
 11
-9.0368706193
 21
23.8443375673
  0
LINE
  5
4E2
100
AcDbEntity
  8
0
100
AcDbLine
 62
253
  6
CONTINUOUS
 10
10.5859750215
 20
23.8443375673
 11
9.0368706193
 21
23.8443375673
  0
LINE
  5
4E3
100
AcDbEntity
  8
0
100
AcDbLine
 62
253
  6
CONTINUOUS
 10
8.7631293807
 20
23.8443375673
 11
7.2140249785
 21
23.8443375673
  0
LINE
  5
4E4
100
AcDbEntity
  8
0
100
AcDbLine
 62
253
  6
CONTINUOUS
 10
-7.2140249785
 20
23.8443375673
 11
-8.7631293807
 21
23.8443375673
  0
LINE
  5
4E5
100
AcDbEntity
  8
0
100
AcDbLine
 62
7
  6
CONTINUOUS
 10
-3.7499619238
 20
23.9825449351
 11
-1.0674169887
 21
23.9825449351
  0
LINE
  5
4E6
100
AcDbEntity
  8
0
100
AcDbLine
 62
7
  6
CONTINUOUS
 10
1.0674169887
 20
23.9825449351
 11
3.7499619238
 21
23.9825449351
  0
LINE
  5
4E7
100
AcDbEntity
  8
0
100
AcDbLine
 62
7
  6
CONTINUOUS
 10
-4.2000380762
 20
24.0
 11
-1.0499619238
 21
24.0
  0
LINE
  5
4E8
100
AcDbEntity
  8
0
100
AcDbLine
 62
7
  6
CONTINUOUS
 10
1.0499619238
 20
24.0
 11
4.2000380762
 21
24.0
  0
LINE
  5
4E9
100
AcDbEntity
  8
0
100
AcDbLine
 62
253
  6
CONTINUOUS
 10
10.5859750215
 20
24.2368706193
 11
7.2140249785
 21
24.2368706193
  0
LINE
  5
4EA
100
AcDbEntity
  8
0
100
AcDbLine
 62
253
  6
CONTINUOUS
 10
-7.2140249785
 20
24.2368706193
 11
-10.5859750215
 21
24.2368706193
  0
LINE
  5
4EB
100
AcDbEntity
  8
0
100
AcDbLine
 62
253
  6
CONTINUOUS
 10
10.3868630041
 20
24.4868325431
 11
7.4131369959
 21
24.4868325431
  0
LINE
  5
4EC
100
AcDbEntity
  8
0
100
AcDbLine
 62
253
  6
CONTINUOUS
 10
-7.4131369959
 20
24.4868325431
 11
-10.3868630041
 21
24.4868325431
  0
LINE
  5
4ED
100
AcDbEntity
  8
0
100
AcDbLine
 62
7
  6
CONTINUOUS
 10
-10.400030461
 20
24.5
 11
-7.399969539
 21
24.5
  0
LINE
  5
4EE
100
AcDbEntity
  8
0
100
AcDbLine
 62
7
  6
CONTINUOUS
 10
7.399969539
 20
24.5
 11
10.400030461
 21
24.5
  0
ARC
  5
4EF
100
AcDbEntity
  8
0
100
AcDbCircle
 62
253
  6
CONTINUOUS
 10
-27.4626192189
 20
-23.8063786102
 40
34.8766343905
100
AcDbArc
 50
359.9376439284
 51
0.2933212156
  0
ARC
  5
4F0
100
AcDbEntity
  8
0
100
AcDbCircle
 62
7
  6
CONTINUOUS
 10
-4.0
 20
-23.2
 40
0.5
100
AcDbArc
 50
154.1580672368
 51
205.8419327632
  0
ARC
  5
4F1
100
AcDbEntity
  8
0
100
AcDbCircle
 62
7
  6
CONTINUOUS
 10
-10.6001595988
 20
-21.9001682181
 40
0.4998372685
100
AcDbArc
 50
179.9806905174
 51
270.0182948342
  0
ARC
  5
4F2
100
AcDbEntity
  8
0
100
AcDbCircle
 62
7
  6
CONTINUOUS
 10
-4.0
 20
-23.2
 40
0.4904006794
100
AcDbArc
 50
136.2076703059
 51
223.7923296941
  0
ARC
  5
4F3
100
AcDbEntity
  8
0
100
AcDbCircle
 62
253
  6
CONTINUOUS
 10
-4.1018306317
 20
-23.6518306317
 40
0.2500538638
100
AcDbArc
 50
180.020958236
 51
269.979041764
  0
ARC
  5
4F4
100
AcDbEntity
  8
0
100
AcDbCircle
 62
253
  6
CONTINUOUS
 10
-3.8307142387
 20
-23.6518306964
 40
0.2500538605
100
AcDbArc
 50
270.0209434272
 51
359.9790566038
  0
ARC
  5
4F5
100
AcDbEntity
  8
0
100
AcDbCircle
 62
253
  6
CONTINUOUS
 10
-2.8786960099
 20
-21.9751217953
 40
0.2500221687
100
AcDbArc
 50
270.0069783445
 51
359.9860212836
  0
ARC
  5
4F6
100
AcDbEntity
  8
0
100
AcDbCircle
 62
7
  6
CONTINUOUS
 10
-1.0499674725
 20
-23.7500325275
 40
0.2499699324
100
AcDbArc
 50
270.0012718308
 51
359.9987281692
  0
ARC
  5
4F7
100
AcDbEntity
  8
0
100
AcDbCircle
 62
7
  6
CONTINUOUS
 10
-4.2000395761
 20
-23.7500395761
 40
0.2499612619
100
AcDbArc
 50
179.999656207
 51
270.000343793
  0
ARC
  5
4F8
100
AcDbEntity
  8
0
100
AcDbCircle
 62
253
  6
CONTINUOUS
 10
-10.3867898305
 20
-24.2867898305
 40
0.2000430909
100
AcDbArc
 50
180.02095819
 51
269.97904181
  0
ARC
  5
4F9
100
AcDbEntity
  8
0
100
AcDbCircle
 62
253
  6
CONTINUOUS
 10
-7.4132101695
 20
-24.2867898305
 40
0.2000430909
100
AcDbArc
 50
270.0209581896
 51
359.9790418103
  0
ARC
  5
4FA
100
AcDbEntity
  8
0
100
AcDbCircle
 62
7
  6
CONTINUOUS
 10
-10.4000426585
 20
-24.3000426585
 40
0.1999569277
100
AcDbArc
 50
179.9965049109
 51
270.0034950891
  0
ARC
  5
4FB
100
AcDbEntity
  8
0
100
AcDbCircle
 62
7
  6
CONTINUOUS
 10
-7.3999572982
 20
-24.3000427018
 40
0.1999569277
100
AcDbArc
 50
269.9964925066
 51
0.0035074934
  0
ARC
  5
4FC
100
AcDbEntity
  8
0
100
AcDbCircle
 62
7
  6
CONTINUOUS
 10
-17831.3874859617
 20
0.0
 40
17821.9556287268
100
AcDbArc
 50
359.9330292824
 51
0.0669707176
  0
ARC
  5
4FD
100
AcDbEntity
  8
0
100
AcDbCircle
 62
253
  6
CONTINUOUS
 10
-45.2599106764
 20
23.806377655
 40
34.8739258872
100
AcDbArc
 50
359.7067270348
 51
0.0623987992
  0
ARC
  5
4FE
100
AcDbEntity
  8
0
100
AcDbCircle
 62
7
  6
CONTINUOUS
 10
-4.0
 20
23.2
 40
0.5
100
AcDbArc
 50
154.1580672368
 51
205.8419327632
  0
ARC
  5
4FF
100
AcDbEntity
  8
0
100
AcDbCircle
 62
7
  6
CONTINUOUS
 10
-10.6001587126
 20
21.9001678853
 40
0.4998378818
100
AcDbArc
 50
89.9818141665
 51
180.010515155
  0
ARC
  5
500
100
AcDbEntity
  8
0
100
AcDbCircle
 62
7
  6
CONTINUOUS
 10
-4.0
 20
23.2
 40
0.4904006794
100
AcDbArc
 50
136.2076703059
 51
223.7923296941
  0
ARC
  5
501
100
AcDbEntity
  8
0
100
AcDbCircle
 62
253
  6
CONTINUOUS
 10
-3.8307142419
 20
23.6518306932
 40
0.2500538637
100
AcDbArc
 50
0.0209441593
 51
89.9790558407
  0
ARC
  5
502
100
AcDbEntity
  8
0
100
AcDbCircle
 62
253
  6
CONTINUOUS
 10
-4.1018306367
 20
23.6518306368
 40
0.2500538587
100
AcDbArc
 50
90.0209570929
 51
179.9790429448
  0
ARC
  5
503
100
AcDbEntity
  8
0
100
AcDbCircle
 62
253
  6
CONTINUOUS
 10
-2.8786960169
 20
21.9751217896
 40
0.2500221685
100
AcDbArc
 50
0.0139800264
 51
89.993020061
  0
ARC
  5
504
100
AcDbEntity
  8
0
100
AcDbCircle
 62
7
  6
CONTINUOUS
 10
-1.0499674725
 20
23.7500325275
 40
0.2499699324
100
AcDbArc
 50
0.0012718308
 51
89.9987281692
  0
ARC
  5
505
100
AcDbEntity
  8
0
100
AcDbCircle
 62
7
  6
CONTINUOUS
 10
-4.2000395761
 20
23.7500395761
 40
0.2499612619
100
AcDbArc
 50
89.9996562029
 51
180.0003437971
  0
ARC
  5
506
100
AcDbEntity
  8
0
100
AcDbCircle
 62
253
  6
CONTINUOUS
 10
-10.3867898305
 20
24.2867898305
 40
0.2000430909
100
AcDbArc
 50
90.0209581928
 51
179.9790418072
  0
ARC
  5
507
100
AcDbEntity
  8
0
100
AcDbCircle
 62
253
  6
CONTINUOUS
 10
-7.4132101203
 20
24.2867898797
 40
0.2000430909
100
AcDbArc
 50
0.020944126
 51
89.979055874
  0
ARC
  5
508
100
AcDbEntity
  8
0
100
AcDbCircle
 62
7
  6
CONTINUOUS
 10
-10.4000426585
 20
24.3000426585
 40
0.1999569277
100
AcDbArc
 50
89.9965049109
 51
180.0034950891
  0
ARC
  5
509
100
AcDbEntity
  8
0
100
AcDbCircle
 62
7
  6
CONTINUOUS
 10
-7.3999572982
 20
24.3000427018
 40
0.1999569277
100
AcDbArc
 50
359.9964925066
 51
90.0035074934
  0
ARC
  5
50A
100
AcDbEntity
  8
0
100
AcDbCircle
 62
253
  6
CONTINUOUS
 10
45.6667535895
 20
-23.8071705124
 40
35.2807675404
100
AcDbArc
 50
179.708736756
 51
180.0602180988
  0
ARC
  5
50B
100
AcDbEntity
  8
ASSI
100
AcDbCircle
 62
7
  6
CONTINUOUS
 10
3.0
 20
-8.582444
 40
2.5499986575
100
AcDbArc
 50
177.752529198
 51
2.247470802
  0
ARC
  5
50C
100
AcDbEntity
  8
ASSI
100
AcDbCircle
 62
7
  6
CONTINUOUS
 10
3.0
 20
-12.967554
 40
2.5499985399
100
AcDbArc
 50
177.7525290943
 51
2.2474709057
  0
ARC
  5
50D
100
AcDbEntity
  8
ASSI
100
AcDbCircle
 62
7
  6
CONTINUOUS
 10
3.0
 20
-12.967554
 40
1.7999999246
100
AcDbArc
 50
180.9547464041
 51
3.1847386703
  0
ARC
  5
50E
100
AcDbEntity
  8
ASSI
100
AcDbCircle
 62
7
  6
CONTINUOUS
 10
3.0
 20
-8.582444
 40
1.7999999246
100
AcDbArc
 50
176.8152613297
 51
257.9753003079
  0
ARC
  5
50F
100
AcDbEntity
  8
ASSI
100
AcDbCircle
 62
7
  6
CONTINUOUS
 10
3.0
 20
-8.582444
 40
1.7999968808
100
AcDbArc
 50
282.0247203293
 51
3.1847440612
  0
ARC
  5
510
100
AcDbEntity
  8
0
100
AcDbCircle
 62
7
  6
CONTINUOUS
 10
4.0
 20
-23.2
 40
0.5
100
AcDbArc
 50
334.1580672368
 51
25.8419327632
  0
ARC
  5
511
100
AcDbEntity
  8
0
100
AcDbCircle
 62
7
  6
CONTINUOUS
 10
10.6001586991
 20
-21.9001678667
 40
0.4998379147
100
AcDbArc
 50
269.9818157208
 51
0.0105130175
  0
ARC
  5
512
100
AcDbEntity
  8
0
100
AcDbCircle
 62
7
  6
CONTINUOUS
 10
4.0
 20
-23.2
 40
0.4904006794
100
AcDbArc
 50
316.2076703059
 51
43.7923296941
  0
ARC
  5
513
100
AcDbEntity
  8
0
100
AcDbCircle
 62
253
  6
CONTINUOUS
 10
3.8307143033
 20
-23.6518306317
 40
0.2500538638
100
AcDbArc
 50
180.020958236
 51
269.979041764
  0
ARC
  5
514
100
AcDbEntity
  8
0
100
AcDbCircle
 62
253
  6
CONTINUOUS
 10
4.1018306964
 20
-23.6518306964
 40
0.2500538605
100
AcDbArc
 50
270.0209434272
 51
359.9790566038
  0
ARC
  5
515
100
AcDbEntity
  8
0
100
AcDbCircle
 62
253
  6
CONTINUOUS
 10
2.8786960115
 20
-21.9751217973
 40
0.2500221685
100
AcDbArc
 50
180.0139782614
 51
269.9930212821
  0
ARC
  5
516
100
AcDbEntity
  8
0
100
AcDbCircle
 62
7
  6
CONTINUOUS
 10
4.2000325275
 20
-23.7500325275
 40
0.2499699324
100
AcDbArc
 50
270.0012718308
 51
359.9987281692
  0
ARC
  5
517
100
AcDbEntity
  8
0
100
AcDbCircle
 62
7
  6
CONTINUOUS
 10
1.0499604239
 20
-23.7500395761
 40
0.2499612619
100
AcDbArc
 50
179.9996561997
 51
270.0003438003
  0
ARC
  5
518
100
AcDbEntity
  8
0
100
AcDbCircle
 62
253
  6
CONTINUOUS
 10
7.4132101695
 20
-24.2867898305
 40
0.2000430909
100
AcDbArc
 50
180.020958193
 51
269.979041807
  0
ARC
  5
519
100
AcDbEntity
  8
0
100
AcDbCircle
 62
253
  6
CONTINUOUS
 10
10.3867898305
 20
-24.2867898305
 40
0.2000430909
100
AcDbArc
 50
270.020958193
 51
359.979041807
  0
ARC
  5
51A
100
AcDbEntity
  8
0
100
AcDbCircle
 62
7
  6
CONTINUOUS
 10
7.3999573415
 20
-24.3000426585
 40
0.1999569277
100
AcDbArc
 50
179.9965049109
 51
270.0034950891
  0
ARC
  5
51B
100
AcDbEntity
  8
0
100
AcDbCircle
 62
7
  6
CONTINUOUS
 10
10.4000426585
 20
-24.3000426585
 40
0.1999569277
100
AcDbArc
 50
269.9965049109
 51
0.0034950891
  0
ARC
  5
51C
100
AcDbEntity
  8
0
100
AcDbCircle
 62
7
  6
CONTINUOUS
 10
17831.3874858572
 20
-0.0
 40
17821.9556286224
100
AcDbArc
 50
179.9330292824
 51
180.0669707176
  0
ARC
  5
51D
100
AcDbEntity
  8
0
100
AcDbCircle
 62
253
  6
CONTINUOUS
 10
27.4472628226
 20
23.8063480255
 40
34.8612780394
100
AcDbArc
 50
179.9375627928
 51
180.2933988113
  0
ARC
  5
51E
100
AcDbEntity
  8
ASSI
100
AcDbCircle
 62
7
  6
CONTINUOUS
 10
2.8
 20
12.0
 40
2.6237424326
100
AcDbArc
 50
22.0885393584
 51
3.4297246723
  0
ARC
  5
51F
100
AcDbEntity
  8
ASSI
100
AcDbCircle
 62
7
  6
CONTINUOUS
 10
7.746093
 20
11.920643
 40
2.3390187052
100
AcDbArc
 50
137.2312712626
 51
174.2012841963
  0
ARC
  5
520
100
AcDbEntity
  8
ASSI
100
AcDbCircle
 62
7
  6
CONTINUOUS
 10
7.367224
 20
12.104722
 40
2.3109495123
100
AcDbArc
 50
135.4348886633
 51
157.5658613447
  0
CIRCLE
  5
521
100
AcDbEntity
  8
ASSI
100
AcDbCircle
 62
7
  6
CONTINUOUS
 10
2.8
 20
12.0
 40
2.20376
  0
ARC
  5
522
100
AcDbEntity
  8
ASSI
100
AcDbCircle
 62
7
  6
CONTINUOUS
 10
2.8
 20
12.0
 40
1.9709567246
100
AcDbArc
 50
29.3041457634
 51
134.9957848293
  0
ARC
  5
523
100
AcDbEntity
  8
ASSI
100
AcDbCircle
 62
7
  6
CONTINUOUS
 10
2.8
 20
12.0
 40
1.9709563643
100
AcDbArc
 50
224.9002846268
 51
330.6958542366
  0
ARC
  5
524
100
AcDbEntity
  8
ASSI
100
AcDbCircle
 62
7
  6
CONTINUOUS
 10
2.8
 20
12.0
 40
1.5790921275
100
AcDbArc
 50
238.0267086216
 51
330.6958772397
  0
ARC
  5
525
100
AcDbEntity
  8
ASSI
100
AcDbCircle
 62
7
  6
CONTINUOUS
 10
2.8
 20
12.0
 40
1.5790919977
100
AcDbArc
 50
29.3041227603
 51
121.9732907039
  0
ARC
  5
526
100
AcDbEntity
  8
0
100
AcDbCircle
 62
7
  6
CONTINUOUS
 10
4.0
 20
23.2
 40
0.5
100
AcDbArc
 50
334.1580672368
 51
25.8419327632
  0
ARC
  5
527
100
AcDbEntity
  8
0
100
AcDbCircle
 62
7
  6
CONTINUOUS
 10
10.6001595972
 20
21.9001682196
 40
0.4998372686
100
AcDbArc
 50
359.9806903501
 51
90.0182946608
  0
ARC
  5
528
100
AcDbEntity
  8
0
100
AcDbCircle
 62
7
  6
CONTINUOUS
 10
4.0
 20
23.2
 40
0.4904006794
100
AcDbArc
 50
316.2076703059
 51
43.7923296941
  0
ARC
  5
529
100
AcDbEntity
  8
0
100
AcDbCircle
 62
253
  6
CONTINUOUS
 10
4.1018306932
 20
23.6518306932
 40
0.2500538637
100
AcDbArc
 50
0.0209441593
 51
89.9790558407
  0
ARC
  5
52A
100
AcDbEntity
  8
0
100
AcDbCircle
 62
253
  6
CONTINUOUS
 10
3.8307142984
 20
23.6518306368
 40
0.2500538587
100
AcDbArc
 50
90.0209570929
 51
179.9790429448
  0
ARC
  5
52B
100
AcDbEntity
  8
0
100
AcDbCircle
 62
253
  6
CONTINUOUS
 10
2.8786960177
 20
21.9751217899
 40
0.2500221687
100
AcDbArc
 50
90.0069801199
 51
179.9860200517
  0
ARC
  5
52C
100
AcDbEntity
  8
0
100
AcDbCircle
 62
7
  6
CONTINUOUS
 10
4.2000325275
 20
23.7500325275
 40
0.2499699324
100
AcDbArc
 50
0.0012718308
 51
89.9987281692
  0
ARC
  5
52D
100
AcDbEntity
  8
0
100
AcDbCircle
 62
7
  6
CONTINUOUS
 10
1.0499604239
 20
23.7500395761
 40
0.2499612619
100
AcDbArc
 50
89.9996562036
 51
180.0003437964
  0
ARC
  5
52E
100
AcDbEntity
  8
0
100
AcDbCircle
 62
253
  6
CONTINUOUS
 10
7.4132101203
 20
24.2867898797
 40
0.2000430909
100
AcDbArc
 50
90.0209441219
 51
179.9790558781
  0
ARC
  5
52F
100
AcDbEntity
  8
0
100
AcDbCircle
 62
253
  6
CONTINUOUS
 10
10.3867898797
 20
24.2867898797
 40
0.2000430909
100
AcDbArc
 50
0.0209441271
 51
89.979055873
  0
ARC
  5
530
100
AcDbEntity
  8
0
100
AcDbCircle
 62
7
  6
CONTINUOUS
 10
7.3999573415
 20
24.3000426585
 40
0.1999569277
100
AcDbArc
 50
89.9965049109
 51
180.0034950891
  0
ARC
  5
531
100
AcDbEntity
  8
0
100
AcDbCircle
 62
7
  6
CONTINUOUS
 10
10.4000427018
 20
24.3000427018
 40
0.1999569277
100
AcDbArc
 50
359.9964925066
 51
90.0035074934
  0
SPLINE
  5
532
100
AcDbEntity
  8
0
100
AcDbSpline
 62
7
  6
CONTINUOUS
 70
0
 71
3
 72
35
 73
31
 74
29
 42
0.0000001
 43
0.0000001
 44
0.0000000001
 12
1.1814666805
 22
0.1694026797
 32
0.0
 13
0.1375338134
 23
-1.1855991039
 33
0.0
 40
0.0
 40
0.0
 40
0.0
 40
0.0
 40
0.024719433
 40
0.0498170664
 40
0.075018804
 40
0.1011425502
 40
0.1094855939
 40
0.1357468386
 40
0.1613075526
 40
0.1869543224
 40
0.2126906907
 40
0.2385338178
 40
0.2645034898
 40
0.2906351525
 40
0.3169722926
 40
0.3435729208
 40
0.3704970999
 40
0.3978231214
 40
0.4256317419
 40
0.4540110525
 40
0.4830614728
 40
0.5128809814
 40
0.5435752613
 40
0.575256911
 40
0.6080346519
 40
0.6420219399
 40
0.6773375651
 40
0.7140952384
 40
0.7533271743
 40
1.0
 40
1.0
 40
1.0
 40
1.0
 10
-4.3990013333
 20
11.6741752
 30
0.0
 10
-4.3892662712
 20
11.6755710461
 30
0.0
 10
-4.3695387452
 20
11.6776762663
 30
0.0
 10
-4.3396863218
 20
11.6787228878
 30
0.0
 10
-4.3092774263
 20
11.677636261
 30
0.0
 10
-4.2856462994
 20
11.6751392365
 30
0.0
 10
-4.2617721377
 20
11.6714223446
 30
0.0
 10
-4.2383118202
 20
11.6665523335
 30
0.0
 10
-4.2086095244
 20
11.6582394498
 30
0.0
 10
-4.1797606677
 20
11.6479235303
 30
0.0
 10
-4.1515926372
 20
11.6355929364
 30
0.0
 10
-4.1242313258
 20
11.6212824611
 30
0.0
 10
-4.0977893105
 20
11.6050353097
 30
0.0
 10
-4.0723633633
 20
11.5868995609
 30
0.0
 10
-4.0480421273
 20
11.5669095073
 30
0.0
 10
-4.024904299
 20
11.5450987281
 30
0.0
 10
-4.0030201054
 20
11.5214912131
 30
0.0
 10
-3.9824542862
 20
11.4961053581
 30
0.0
 10
-3.9632723398
 20
11.4689465129
 30
0.0
 10
-3.9455385582
 20
11.440013206
 30
0.0
 10
-3.9293164317
 20
11.4092985603
 30
0.0
 10
-3.9146792386
 20
11.3767853338
 30
0.0
 10
-3.9016988542
 20
11.3424547012
 30
0.0
 10
-3.8904607016
 20
11.3062810327
 30
0.0
 10
-3.8810420584
 20
11.2682410336
 30
0.0
 10
-3.873545611
 20
11.2283037188
 30
0.0
 10
-3.868071641
 20
11.1864448755
 30
0.0
 10
-3.8646652809
 20
11.1422665164
 30
0.0
 10
-3.8618158809
 20
11.0139261427
 30
0.0
 10
-3.8752570181
 20
10.8994919604
 30
0.0
 10
-3.8639484
 20
10.8020069333
 30
0.0
 11
-4.3990013333
 21
11.6741752
 31
0.0
 11
-4.3696648
 21
11.6773130667
 31
0.0
 11
-4.3397281333
 21
11.6783686667
 31
0.0
 11
-4.3096673333
 21
11.6773074667
 31
0.0
 11
-4.278662
 21
11.6740118667
 31
0.0
 11
-4.2688228
 21
11.6724793333
 31
0.0
 11
-4.2381254667
 21
11.6661448
 31
0.0
 11
-4.2087506667
 21
11.6579072
 31
0.0
 11
-4.1799246667
 21
11.6476078667
 31
0.0
 11
-4.1517846667
 21
11.6352906667
 31
0.0
 11
-4.1244510667
 21
11.6209976
 31
0.0
 11
-4.0980396
 21
11.6047744
 31
0.0
 11
-4.0726454667
 21
11.5866658667
 31
0.0
 11
-4.0483573333
 21
11.5667102667
 31
0.0
 11
-4.0252498667
 21
11.5449374667
 31
0.0
 11
-4.0033968
 21
11.5213764
 31
0.0
 11
-3.9828588
 21
11.4960401333
 31
0.0
 11
-3.9637012
 21
11.4689361333
 31
0.0
 11
-3.9459884
 21
11.4400644
 31
0.0
 11
-3.929782
 21
11.4094118667
 31
0.0
 11
-3.9151548
 21
11.3769654667
 31
0.0
 11
-3.9021805333
 21
11.3427046667
 31
0.0
 11
-3.8909394667
 21
11.3066005333
 31
0.0
 11
-3.8815156
 21
11.2686306667
 31
0.0
 11
-3.8740069333
 21
11.2287661333
 31
0.0
 11
-3.8685096
 21
11.1869752
 31
0.0
 11
-3.8651281333
 21
11.1432336
 31
0.0
 11
-3.8639484
 21
11.0964232
 31
0.0
 11
-3.8639484
 21
10.8020069333
 31
0.0
  0
SPLINE
  5
533
100
AcDbEntity
  8
0
100
AcDbSpline
 62
7
  6
CONTINUOUS
 70
0
 71
3
 72
59
 73
55
 74
53
 42
0.0000001
 43
0.0000001
 44
0.0000000001
 12
-0.5579977691
 22
2.3955800187
 32
0.0
 13
-0.0000489358
 23
-2.4597083432
 33
0.0
 40
0.0
 40
0.0
 40
0.0
 40
0.0
 40
0.0165237569
 40
0.0379156057
 40
0.0589589481
 40
0.0796962367
 40
0.1001687078
 40
0.1204150975
 40
0.1404693707
 40
0.1603684409
 40
0.1801417867
 40
0.1998176273
 40
0.2194218182
 40
0.2389760372
 40
0.2584994004
 40
0.2780057541
 40
0.2975067662
 40
0.3170102722
 40
0.3365190561
 40
0.3560363464
 40
0.3755563824
 40
0.3950751317
 40
0.4141100607
 40
0.4171716289
 40
0.436178181
 40
0.4556124804
 40
0.4749750509
 40
0.4942030806
 40
0.5133193237
 40
0.5323439758
 40
0.5508123132
 40
0.5542093555
 40
0.5726143173
 40
0.5914678209
 40
0.6103066163
 40
0.62914989
 40
0.6480180596
 40
0.6669341813
 40
0.6859196952
 40
0.7049984958
 40
0.7241629198
 40
0.7434363241
 40
0.7628731569
 40
0.7825254107
 40
0.8024456706
 40
0.8226849779
 40
0.8432939619
 40
0.8643204568
 40
0.8858130799
 40
0.9078161957
 40
0.930373877
 40
0.9535250091
 40
0.9772890752
 40
1.0
 40
1.0
 40
1.0
 40
1.0
 10
-3.5390401333
 20
11.3760414667
 30
0.0
 10
-3.5421135398
 20
11.3892361273
 30
0.0
 10
-3.5499434823
 20
11.4193359223
 30
0.0
 10
-3.5645946417
 20
11.4654284637
 30
0.0
 10
-3.5828209516
 20
11.5139364134
 30
0.0
 10
-3.6034044646
 20
11.5606728026
 30
0.0
 10
-3.6262551429
 20
11.6056109599
 30
0.0
 10
-3.6513276941
 20
11.6487026636
 30
0.0
 10
-3.6785664739
 20
11.689896615
 30
0.0
 10
-3.7079074425
 20
11.7291378265
 30
0.0
 10
-3.7392855169
 20
11.7663654319
 30
0.0
 10
-3.772627238
 20
11.8015129637
 30
0.0
 10
-3.8078552085
 20
11.8345075703
 30
0.0
 10
-3.8448768878
 20
11.8652809894
 30
0.0
 10
-3.8835965611
 20
11.89375368
 30
0.0
 10
-3.9239052486
 20
11.9198482371
 30
0.0
 10
-3.965681488
 20
11.9434893072
 30
0.0
 10
-4.0087935373
 20
11.9646009558
 30
0.0
 10
-4.0530994339
 20
11.9831109665
 30
0.0
 10
-4.0984436448
 20
11.9989494599
 30
0.0
 10
-4.1446601875
 20
12.0120539577
 30
0.0
 10
-4.1911861947
 20
12.0223112655
 30
0.0
 10
-4.2249146699
 20
12.0276157987
 30
0.0
 10
-4.2583579869
 20
12.031767504
 30
0.0
 10
-4.2922675818
 20
12.0348639965
 30
0.0
 10
-4.3396684176
 20
12.0362713264
 30
0.0
 10
-4.3872506469
 20
12.0348524387
 30
0.0
 10
-4.4343991607
 20
12.030556401
 30
0.0
 10
-4.4809211703
 20
12.0234195916
 30
0.0
 10
-4.5263096792
 20
12.0135747326
 30
0.0
 10
-4.5585819721
 20
12.0044050587
 30
0.0
 10
-4.5900113332
 20
11.994288821
 30
0.0
 10
-4.6213933525
 20
11.9829800705
 30
0.0
 10
-4.6636110461
 20
11.9646518857
 30
0.0
 10
-4.7049261385
 20
11.9435681856
 30
0.0
 10
-4.7448449441
 20
11.9199228481
 30
0.0
 10
-4.783258393
 20
11.8937909777
 30
0.0
 10
-4.8200579991
 20
11.8652410046
 30
0.0
 10
-4.8551411119
 20
11.8343444772
 30
0.0
 10
-4.8883879436
 20
11.8011916861
 30
0.0
 10
-4.9197011015
 20
11.7658911256
 30
0.0
 10
-4.9489872547
 20
11.7285181272
 30
0.0
 10
-4.9761927696
 20
11.6891178634
 30
0.0
 10
-5.0012790525
 20
11.6477148761
 30
0.0
 10
-5.0242098274
 20
11.60433529
 30
0.0
 10
-5.04493477
 20
11.5589964387
 30
0.0
 10
-5.063414101
 20
11.5117225259
 30
0.0
 10
-5.0795922715
 20
11.4625303219
 30
0.0
 10
-5.0934196595
 20
11.4114420686
 30
0.0
 10
-5.1048386077
 20
11.3584779676
 30
0.0
 10
-5.1137899736
 20
11.3036639935
 30
0.0
 10
-5.1202079618
 20
11.2470433937
 30
0.0
 10
-5.1239454755
 20
11.1900589728
 30
0.0
 10
-5.1247394962
 20
11.1519488837
 30
0.0
 10
-5.1247398667
 20
11.1333281333
 30
0.0
 11
-3.5390401333
 21
11.3760414667
 31
0.0
 11
-3.5492405333
 21
11.4153842667
 31
0.0
 11
-3.5651128
 21
11.4655509333
 31
0.0
 11
-3.5833557333
 21
11.51399
 31
0.0
 11
-3.6039217333
 21
11.5606678667
 31
0.0
 11
-3.6267585333
 21
11.6055481333
 31
0.0
 11
-3.6518129333
 21
11.6485869333
 31
0.0
 11
-3.6790270667
 21
11.6897282667
 31
0.0
 11
-3.7083430667
 21
11.7289236
 31
0.0
 11
-3.7396928
 21
11.7661085333
 31
0.0
 11
-3.7730044
 21
11.8012168
 31
0.0
 11
-3.8082004
 21
11.8341784
 31
0.0
 11
-3.8451902667
 21
11.8649214667
 31
0.0
 11
-3.8838788
 21
11.8933694667
 31
0.0
 11
-3.9241558667
 21
11.9194430667
 31
0.0
 11
-3.965902
 21
11.9430666667
 31
0.0
 11
-4.0089865333
 21
11.9641646667
 31
0.0
 11
-4.0532638667
 21
11.9826624
 31
0.0
 11
-4.0985856
 21
11.9984926667
 31
0.0
 11
-4.1447772
 21
12.0115938667
 31
0.0
 11
-4.191666
 21
12.0219109333
 31
0.0
 11
-4.2379126667
 21
12.029218
 31
0.0
 11
-4.2453858667
 21
12.0301457333
 31
0.0
 11
-4.2919461333
 21
12.0343597333
 31
0.0
 11
-4.3397272
 21
12.035798
 31
0.0
 11
-4.3873318667
 21
12.0343634667
 31
0.0
 11
-4.4344316
 21
12.0300664
 31
0.0
 11
-4.4809078667
 21
12.0229338667
 31
0.0
 11
-4.5266346667
 21
12.012992
 31
0.0
 11
-4.5703398667
 21
12.0006048
 31
0.0
 11
-4.5782937333
 21
11.9980446667
 31
0.0
 11
-4.6208714667
 21
11.9826633333
 31
0.0
 11
-4.6634165333
 21
11.9642113333
 31
0.0
 11
-4.7046885333
 21
11.9431441333
 31
0.0
 11
-4.744568
 21
11.9195252
 31
0.0
 11
-4.782942
 21
11.8934226667
 31
0.0
 11
-4.819706
 21
11.8649046667
 31
0.0
 11
-4.8547545333
 21
11.834044
 31
0.0
 11
-4.8879905333
 21
11.8009134667
 31
0.0
 11
-4.9192749333
 21
11.7656521333
 31
0.0
 11
-4.9485218667
 21
11.7283421333
 31
0.0
 11
-4.9756958667
 21
11.6890068
 31
0.0
 11
-5.0007577333
 21
11.6476722667
 31
0.0
 11
-5.0236692
 21
11.6043609333
 31
0.0
 11
-5.0443836
 21
11.5590924
 31
0.0
 11
-5.0628570667
 21
11.5118862667
 31
0.0
 11
-5.0790364
 21
11.4627630667
 31
0.0
 11
-5.0928702667
 21
11.4117396
 31
0.0
 11
-5.1043008
 21
11.3588392
 31
0.0
 11
-5.1132682667
 21
11.3040833333
 31
0.0
 11
-5.1197092
 21
11.2475037333
 31
0.0
 11
-5.1235573333
 21
11.1891778667
 31
0.0
 11
-5.1247398667
 21
11.1333281333
 31
0.0
  0
SPLINE
  5
534
100
AcDbEntity
  8
0
100
AcDbSpline
 62
7
  6
CONTINUOUS
 70
0
 71
3
 72
9
 73
5
 74
3
 42
0.0000001
 43
0.0000001
 44
0.0000000001
 12
0.0
 22
1.1414637429
 32
0.0
 13
0.0107031025
 23
1.1414135622
 33
0.0
 40
0.0
 40
0.0
 40
0.0
 40
0.0
 40
0.983867606
 40
1.0
 40
1.0
 40
1.0
 40
1.0
 10
-4.7674048
 20
10.0089424
 30
0.0
 10
-4.7674048
 20
10.3832921333
 30
0.0
 10
-4.7709149453
 20
10.7637965047
 30
0.0
 10
-4.7672896889
 20
11.1442674222
 30
0.0
 10
-4.7672321333
 20
11.1504053333
 30
0.0
 11
-4.7674048
 21
10.0089424
 31
0.0
 11
-4.7674048
 21
11.1319916
 31
0.0
 11
-4.7672321333
 21
11.1504053333
 31
0.0
  0
SPLINE
  5
535
100
AcDbEntity
  8
0
100
AcDbSpline
 62
7
  6
CONTINUOUS
 70
0
 71
3
 72
29
 73
25
 74
23
 42
0.0000001
 43
0.0000001
 44
0.0000000001
 12
0.0132983311
 22
0.7008948297
 32
0.0
 13
0.6898804367
 23
0.1244804841
 33
0.0
 40
0.0
 40
0.0
 40
0.0
 40
0.0
 40
0.0671668931
 40
0.1302001866
 40
0.1901730507
 40
0.2472435899
 40
0.3015950387
 40
0.3534280937
 40
0.4029593351
 40
0.450436275
 40
0.4961083485
 40
0.5402498028
 40
0.5831525573
 40
0.6251124083
 40
0.6663407767
 40
0.7071541837
 40
0.7477018765
 40
0.7881142182
 40
0.8285057617
 40
0.8689993574
 40
0.9097053859
 40
0.9525826066
 40
0.9566100659
 40
1.0
 40
1.0
 40
1.0
 40
1.0
 10
-4.7672321333
 20
11.1504053333
 30
0.0
 10
-4.7669343975
 20
11.1660976427
 30
0.0
 10
-4.7656398679
 20
11.1965093525
 30
0.0
 10
-4.7614850505
 20
11.2407723592
 30
0.0
 10
-4.7553301773
 20
11.2824199956
 30
0.0
 10
-4.747292871
 20
11.3216772709
 30
0.0
 10
-4.7375007003
 20
11.3585701215
 30
0.0
 10
-4.7260760911
 20
11.3931403432
 30
0.0
 10
-4.7131311887
 20
11.4254466723
 30
0.0
 10
-4.6987618491
 20
11.4555580324
 30
0.0
 10
-4.6830489758
 20
11.4835553264
 30
0.0
 10
-4.6660565783
 20
11.5095272692
 30
0.0
 10
-4.6478199034
 20
11.5335613028
 30
0.0
 10
-4.6283753681
 20
11.5557315986
 30
0.0
 10
-4.6077326334
 20
11.5761021265
 30
0.0
 10
-4.5859075592
 20
11.5946957924
 30
0.0
 10
-4.5629343759
 20
11.6115298506
 30
0.0
 10
-4.5388685124
 20
11.6265764714
 30
0.0
 10
-4.5137699987
 20
11.6398008455
 30
0.0
 10
-4.4877045823
 20
11.6511757114
 30
0.0
 10
-4.4603207359
 20
11.6607736929
 30
0.0
 10
-4.4405445898
 20
11.6661513391
 30
0.0
 10
-4.4199652694
 20
11.6708122207
 30
0.0
 10
-4.4089792889
 20
11.6723748
 30
0.0
 10
-4.3990013333
 20
11.6741752
 30
0.0
 11
-4.7672321333
 21
11.1504053333
 31
0.0
 11
-4.7651862667
 21
11.1974462667
 31
0.0
 11
-4.7610198667
 21
11.2414370667
 31
0.0
 11
-4.7548402667
 21
11.2830226667
 31
0.0
 11
-4.7467828
 21
11.3222105333
 31
0.0
 11
-4.7369772
 21
11.3590286667
 31
0.0
 11
-4.7255466667
 21
11.39352
 31
0.0
 11
-4.7126050667
 21
11.4257405333
 31
0.0
 11
-4.6982476
 21
11.4557668
 31
0.0
 11
-4.6825582667
 21
11.4836762667
 31
0.0
 11
-4.6655996
 21
11.5095594667
 31
0.0
 11
-4.647408
 21
11.5335097333
 31
0.0
 11
-4.6280030667
 21
11.5556157333
 31
0.0
 11
-4.607424
 21
11.5759092
 31
0.0
 11
-4.5856428
 21
11.5944610667
 31
0.0
 11
-4.5627126667
 21
11.6112592
 31
0.0
 11
-4.5386905333
 21
11.6262765333
 31
0.0
 11
-4.5136408
 21
11.6394776
 31
0.0
 11
-4.4876222667
 21
11.6508288
 31
0.0
 11
-4.4607002667
 21
11.6602890667
 31
0.0
 11
-4.4316894667
 21
11.6681533333
 31
0.0
 11
-4.4289352
 21
11.668774
 31
0.0
 11
-4.3990013333
 21
11.6741752
 31
0.0
  0
SPLINE
  5
536
100
AcDbEntity
  8
0
100
AcDbSpline
 62
7
  6
CONTINUOUS
 70
0
 71
3
 72
14
 73
10
 74
8
 42
0.0000001
 43
0.0000001
 44
0.0000000001
 12
0.0184776581
 22
0.7512224831
 32
0.0
 13
0.7511774973
 23
-0.0202691263
 33
0.0
 40
0.0
 40
0.0
 40
0.0
 40
0.0
 40
0.1344330985
 40
0.2465035959
 40
0.3932406336
 40
0.5898752532
 40
0.725779467
 40
0.8770606799
 40
1.0
 40
1.0
 40
1.0
 40
1.0
 10
7.461795
 20
-3.455267649
 30
0.0
 10
7.4626230029
 20
-3.4216045936
 30
0.0
 10
7.4716593013
 20
-3.3597448702
 30
0.0
 10
7.5083262802
 20
-3.2675504627
 30
0.0
 10
7.5779757053
 20
-3.174916857
 30
0.0
 10
7.6817953706
 20
-3.1083828288
 30
0.0
 10
7.7987259692
 20
-3.074831441
 30
0.0
 10
7.9003758799
 20
-3.0583744771
 30
0.0
 10
7.9692169164
 20
-3.0560057068
 30
0.0
 10
8.0
 20
-3.056836331
 30
0.0
 11
7.461795
 21
-3.455267649
 31
0.0
 11
7.4766275778
 21
-3.3553427497
 31
0.0
 11
7.5079902952
 21
-3.2771850465
 31
0.0
 11
7.5743388597
 21
-3.1891146866
 31
0.0
 11
7.6978649414
 21
-3.1080301739
 31
0.0
 11
7.795406389
 21
-3.07777704
 31
0.0
 11
7.9076668015
 21
-3.0598651921
 31
0.0
 11
8.0
 21
-3.056836331
 31
0.0
  0
SPLINE
  5
537
100
AcDbEntity
  8
0
100
AcDbSpline
 62
7
  6
CONTINUOUS
 70
0
 71
3
 72
14
 73
10
 74
8
 42
0.0000001
 43
0.0000001
 44
0.0000000001
 12
0.7511774973
 22
0.0202691263
 32
0.0
 13
0.0184776581
 23
-0.7512224831
 33
0.0
 40
0.0
 40
0.0
 40
0.0
 40
0.0
 40
0.1229393201
 40
0.274220533
 40
0.4101247468
 40
0.6067593664
 40
0.7534964041
 40
0.8655669015
 40
1.0
 40
1.0
 40
1.0
 40
1.0
 10
8.0
 20
-3.056836331
 30
0.0
 10
8.0307830836
 20
-3.0560057068
 30
0.0
 10
8.0996241201
 20
-3.0583744771
 30
0.0
 10
8.2012740308
 20
-3.074831441
 30
0.0
 10
8.3182046294
 20
-3.1083828288
 30
0.0
 10
8.4220242947
 20
-3.174916857
 30
0.0
 10
8.4916737198
 20
-3.2675504627
 30
0.0
 10
8.5283406987
 20
-3.3597448702
 30
0.0
 10
8.5373769971
 20
-3.4216045936
 30
0.0
 10
8.538205
 20
-3.455267649
 30
0.0
 11
8.0
 21
-3.056836331
 31
0.0
 11
8.0923331985
 21
-3.0598651921
 31
0.0
 11
8.204593611
 21
-3.07777704
 31
0.0
 11
8.3021350586
 21
-3.1080301739
 31
0.0
 11
8.4256611403
 21
-3.1891146866
 31
0.0
 11
8.4920097048
 21
-3.2771850465
 31
0.0
 11
8.5233724222
 21
-3.3553427497
 31
0.0
 11
8.538205
 21
-3.455267649
 31
0.0
  0
SPLINE
  5
538
100
AcDbEntity
  8
0
100
AcDbSpline
 62
7
  6
CONTINUOUS
 70
0
 71
3
 72
15
 73
11
 74
9
 42
0.0000001
 43
0.0000001
 44
0.0000000001
 12
0.0047329155
 22
1.0305172883
 32
0.0
 13
-1.0303749964
 23
-0.0177665018
 33
0.0
 40
0.0
 40
0.0
 40
0.0
 40
0.0
 40
0.1666104649
 40
0.3201400637
 40
0.432791991
 40
0.5473463999
 40
0.6677209668
 40
0.7950987643
 40
0.8857287116
 40
1.0
 40
1.0
 40
1.0
 40
1.0
 10
8.7
 20
-3.4504385847
 30
0.0
 10
8.7002628511
 20
-3.3932069299
 30
0.0
 10
8.6865363198
 20
-3.2826133393
 30
0.0
 10
8.6266498493
 20
-3.1435967927
 30
0.0
 10
8.5407650315
 20
-3.043761567
 30
0.0
 10
8.4483348873
 20
-2.9666579208
 30
0.0
 10
8.3344168302
 20
-2.9142066673
 30
0.0
 10
8.2230652663
 20
-2.8795797085
 30
0.0
 10
8.1097587346
 20
-2.8633809624
 30
0.0
 10
8.0392474261
 20
-2.8615506617
 30
0.0
 10
8.0
 20
-2.8622273954
 30
0.0
 11
8.7
 21
-3.4504385847
 31
0.0
 11
8.6776951072
 21
-3.2801967731
 31
0.0
 11
8.6132713304
 21
-3.1356905055
 31
0.0
 11
8.538940558
 21
-3.0465162232
 31
0.0
 11
8.4471734735
 21
-2.9722533846
 31
0.0
 11
8.3357622321
 21
-2.9177026365
 31
0.0
 11
8.2100849171
 21
-2.8798069632
 31
0.0
 11
8.1176951072
 21
-2.8661296482
 31
0.0
 11
8.0
 21
-2.8622273954
 31
0.0
  0
SPLINE
  5
539
100
AcDbEntity
  8
0
100
AcDbSpline
 62
7
  6
CONTINUOUS
 70
0
 71
3
 72
15
 73
11
 74
9
 42
0.0000001
 43
0.0000001
 44
0.0000000001
 12
-1.024475635
 22
0.0176647805
 32
0.0
 13
-0.0047040249
 23
-1.0246171204
 33
0.0
 40
0.0
 40
0.0
 40
0.0
 40
0.0
 40
0.1149293105
 40
0.2060811432
 40
0.3341924356
 40
0.4552601699
 40
0.5704742312
 40
0.6837748557
 40
0.8381885424
 40
1.0
 40
1.0
 40
1.0
 40
1.0
 10
8.0
 20
-2.8622273954
 30
0.0
 10
7.9607525739
 20
-2.8615506617
 30
0.0
 10
7.8902412638
 20
-2.8633809656
 30
0.0
 10
7.7769347386
 20
-2.8795796985
 30
0.0
 10
7.6655831437
 20
-2.9142067208
 30
0.0
 10
7.5516652013
 20
-2.966657739
 30
0.0
 10
7.4592346578
 20
-3.0437622052
 30
0.0
 10
7.3733514657
 20
-3.1435940924
 30
0.0
 10
7.3142488479
 20
-3.2807888071
 30
0.0
 10
7.3002537217
 20
-3.3892211716
 30
0.0
 10
7.3
 20
-3.4444861015
 30
0.0
 11
8.0
 21
-2.8622273954
 31
0.0
 11
7.8823048928
 21
-2.8661296482
 31
0.0
 11
7.7899150829
 21
-2.8798069632
 31
0.0
 11
7.6642377679
 21
-2.9177026365
 31
0.0
 11
7.5528265265
 21
-2.9722533846
 31
0.0
 11
7.461059442
 21
-3.0465162232
 31
0.0
 11
7.3867286696
 21
-3.1356905055
 31
0.0
 11
7.3223048928
 21
-3.2801967731
 31
0.0
 11
7.3
 21
-3.4444861015
 31
0.0
  0
SPLINE
  5
53A
100
AcDbEntity
  8
0
100
AcDbSpline
 62
7
  6
CONTINUOUS
 70
0
 71
3
 72
9
 73
5
 74
3
 42
0.0000001
 43
0.0000001
 44
0.0000000001
 12
-0.0772156247
 22
0.4525207467
 32
0.0
 13
0.052919916
 23
0.4560012697
 33
0.0
 40
0.0
 40
0.0
 40
0.0
 40
0.0
 40
0.270412968
 40
1.0
 40
1.0
 40
1.0
 40
1.0
 10
-4.9449452041
 20
-8.1173027459
 30
0.0
 10
-4.9519052395
 20
-8.0765135865
 30
0.0
 10
-4.9747947515
 20
-7.9252014022
 30
0.0
 10
-4.9742993681
 20
-7.7703989478
 30
0.0
 10
-4.9614294733
 20
-7.6595014101
 30
0.0
 11
-4.9449452041
 21
-8.1173027459
 31
0.0
 11
-4.9625745035
 21
-7.9944248131
 31
0.0
 11
-4.9614294733
 21
-7.6595014101
 31
0.0
  0
SPLINE
  5
53B
100
AcDbEntity
  8
0
100
AcDbSpline
 62
7
  6
CONTINUOUS
 70
0
 71
3
 72
9
 73
5
 74
3
 42
0.0000001
 43
0.0000001
 44
0.0000000001
 12
0.0594689854
 22
0.51255329
 32
0.0
 13
0.5159346948
 23
0.0080694709
 33
0.0
 40
0.0
 40
0.0
 40
0.0
 40
0.0
 40
0.5013799113
 40
1.0
 40
1.0
 40
1.0
 40
1.0
 10
-4.9614294733
 20
-7.6595014101
 30
0.0
 10
-4.9514906218
 20
-7.5738401025
 30
0.0
 10
-4.8760634823
 20
-7.4005835308
 30
0.0
 10
-4.6971964937
 20
-7.3306925646
 30
0.0
 10
-4.6114446926
 20
-7.3293513645
 30
0.0
 11
-4.9614294733
 21
-7.6595014101
 31
0.0
 11
-4.8498524197
 21
-7.4260896069
 31
0.0
 11
-4.6114446926
 21
-7.3293513645
 31
0.0
  0
SPLINE
  5
53C
100
AcDbEntity
  8
0
100
AcDbSpline
 62
7
  6
CONTINUOUS
 70
0
 71
3
 72
9
 73
5
 74
3
 42
0.0000001
 43
0.0000001
 44
0.0000000001
 12
0.6974334282
 22
0.0107616108
 32
0.0
 13
0.0155756533
 23
-0.6973425256
 33
0.0
 40
0.0
 40
0.0
 40
0.0
 40
0.0
 40
0.5206208722
 40
1.0
 40
1.0
 40
1.0
 40
1.0
 10
-4.6114446926
 20
-7.3293513645
 30
0.0
 10
-4.4904118927
 20
-7.3274837914
 30
0.0
 10
-4.2260169321
 20
-7.4129875897
 30
0.0
 10
-4.1788607944
 20
-7.6718888729
 30
0.0
 10
-4.1763719134
 20
-7.7833193568
 30
0.0
 11
-4.6114446926
 21
-7.3293513645
 31
0.0
 11
-4.2739945568
 21
-7.4635126262
 31
0.0
 11
-4.1763719134
 21
-7.7833193568
 31
0.0
  0
SPLINE
  5
53D
100
AcDbEntity
  8
0
100
AcDbSpline
 62
7
  6
CONTINUOUS
 70
0
 71
3
 72
9
 73
5
 74
3
 42
0.0000001
 43
0.0000001
 44
0.0000000001
 12
-0.0
 22
0.4288867262
 32
0.0
 13
0.4015049063
 23
0.1510685361
 33
0.0
 40
0.0
 40
0.0
 40
0.0
 40
0.0
 40
0.3562265231
 40
1.0
 40
1.0
 40
1.0
 40
1.0
 10
-3.7178480752
 20
-7.7845790377
 30
0.0
 10
-3.7178480752
 20
-7.7336520953
 30
0.0
 10
-3.6870372364
 20
-7.5872774013
 30
0.0
 10
-3.5576723615
 20
-7.4910820277
 30
0.0
 10
-3.4715129583
 20
-7.4586640554
 30
0.0
 11
-3.7178480752
 21
-7.7845790377
 31
0.0
 11
-3.6833905547
 21
-7.6357346208
 31
0.0
 11
-3.4715129583
 21
-7.4586640554
 31
0.0
  0
SPLINE
  5
53E
100
AcDbEntity
  8
0
100
AcDbSpline
 62
7
  6
CONTINUOUS
 70
0
 71
3
 72
9
 73
5
 74
3
 42
0.0000001
 43
0.0000001
 44
0.0000000001
 12
0.8302871244
 22
0.3120695847
 32
0.0
 13
0.85246146
 23
0.2450860927
 33
0.0
 40
0.0
 40
0.0
 40
0.0
 40
0.0
 40
0.5588087407
 40
1.0
 40
1.0
 40
1.0
 40
1.0
 10
-3.4715129583
 20
-7.4586640554
 30
0.0
 10
-3.3168557242
 20
-7.4005349849
 30
0.0
 10
-3.0305537948
 20
-7.3241502511
 30
0.0
 10
-2.7475648273
 20
-7.2390276588
 30
0.0
 10
-2.6221986456
 20
-7.2029843781
 30
0.0
 11
-3.4715129583
 21
-7.4586640554
 31
0.0
 11
-2.9979142123
 21
-7.3124375244
 31
0.0
 11
-2.6221986456
 21
-7.2029843781
 31
0.0
  0
SPLINE
  5
53F
100
AcDbEntity
  8
0
100
AcDbSpline
 62
7
  6
CONTINUOUS
 70
0
 71
3
 72
9
 73
5
 74
3
 42
0.0000001
 43
0.0000001
 44
0.0000000001
 12
-0.7562592206
 22
-0.2053978623
 32
0.0
 13
-0.7560968956
 23
-0.2059945995
 33
0.0
 40
0.0
 40
0.0
 40
0.0
 40
0.0
 40
0.1980141723
 40
1.0
 40
1.0
 40
1.0
 40
1.0
 10
-2.6221986456
 20
-6.6408517881
 30
0.0
 10
-2.6721153268
 20
-6.6544090173
 30
0.0
 10
-2.9247683575
 20
-6.7207655796
 30
0.0
 10
-3.1778333439
 20
-6.7855689249
 30
0.0
 10
-3.3799596754
 20
-6.8406371747
 30
0.0
 11
-2.6221986456
 21
-6.6408517881
 31
0.0
 11
-2.772189241
 21
-6.6806271958
 31
0.0
 11
-3.3799596754
 21
-6.8406371747
 31
0.0
  0
SPLINE
  5
540
100
AcDbEntity
  8
0
100
AcDbSpline
 62
7
  6
CONTINUOUS
 70
0
 71
3
 72
9
 73
5
 74
3
 42
0.0000001
 43
0.0000001
 44
0.0000000001
 12
-0.6289740724
 22
-0.1713514803
 32
0.0
 13
-0.2414558186
 23
-0.6055318334
 33
0.0
 40
0.0
 40
0.0
 40
0.0
 40
0.0
 40
0.2426586216
 40
1.0
 40
1.0
 40
1.0
 40
1.0
 10
-3.3799596754
 20
-6.8406371747
 30
0.0
 10
-3.4308350026
 20
-6.854497146
 30
0.0
 10
-3.6362819717
 20
-6.9074400975
 30
0.0
 10
-3.8681207357
 20
-7.024632064
 30
0.0
 10
-3.9290755631
 20
-7.1774968351
 30
0.0
 11
-3.3799596754
 21
-6.8406371747
 31
0.0
 11
-3.5320959928
 21
-6.8839744613
 31
0.0
 11
-3.9290755631
 21
-7.1774968351
 31
0.0
  0
SPLINE
  5
541
100
AcDbEntity
  8
0
100
AcDbSpline
 62
7
  6
CONTINUOUS
 70
0
 71
3
 72
8
 73
4
 74
2
 42
0.0000001
 43
0.0000001
 44
0.0000000001
 12
-0.0092712662
 22
0.071852313
 32
0.0
 13
-0.0451743265
 23
0.0599158893
 33
0.0
 40
0.0
 40
0.0
 40
0.0
 40
0.0
 40
1.0
 40
1.0
 40
1.0
 40
1.0
 10
-3.945619372
 20
-7.1774968351
 30
0.0
 10
-3.948709794
 20
-7.1535460641
 30
0.0
 10
-3.9613084948
 20
-7.13238229
 30
0.0
 10
-3.9763666036
 20
-7.1124103269
 30
0.0
 11
-3.945619372
 21
-7.1774968351
 31
0.0
 11
-3.9763666036
 21
-7.1124103269
 31
0.0
  0
SPLINE
  5
542
100
AcDbEntity
  8
0
100
AcDbSpline
 62
7
  6
CONTINUOUS
 70
0
 71
3
 72
17
 73
13
 74
11
 42
0.0000001
 43
0.0000001
 44
0.0000000001
 12
-1.042436777
 22
1.3826111284
 32
0.0
 13
-0.5673202037
 23
-1.5725977796
 33
0.0
 40
0.0
 40
0.0
 40
0.0
 40
0.0
 40
0.0150686083
 40
0.1327317328
 40
0.291581825
 40
0.3868058391
 40
0.4956655045
 40
0.5841193504
 40
0.6636310355
 40
0.8021233918
 40
0.9165754123
 40
1.0
 40
1.0
 40
1.0
 40
1.0
 10
-3.9763666036
 20
-7.1124103269
 30
0.0
 10
-3.9816026274
 20
-7.1054656518
 30
0.0
 10
-4.0303434636
 20
-7.0455628489
 30
0.0
 10
-4.1375885593
 20
-6.927100299
 30
0.0
 10
-4.3272112299
 20
-6.8269103853
 30
0.0
 10
-4.5250305961
 20
-6.7822780747
 30
0.0
 10
-4.6892165407
 20
-6.7780849586
 30
0.0
 10
-4.8425648811
 20
-6.8001831475
 30
0.0
 10
-5.0055094555
 20
-6.8537415701
 30
0.0
 10
-5.1651986906
 20
-6.954335248
 30
0.0
 10
-5.2900798674
 20
-7.096365694
 30
0.0
 10
-5.3439399752
 20
-7.1940204631
 30
0.0
 10
-5.3597161265
 20
-7.2377515703
 30
0.0
 11
-3.9763666036
 21
-7.1124103269
 31
0.0
 11
-3.9926704209
 21
-7.0919415408
 31
0.0
 11
-4.1295642716
 21
-6.9506807964
 31
0.0
 11
-4.3631386294
 21
-6.8243157783
 31
0.0
 11
-4.5183177814
 21
-6.7887820343
 31
0.0
 11
-4.7002311996
 21
-6.783447663
 31
0.0
 11
-4.8464819533
 21
-6.8053193643
 31
0.0
 11
-4.9726594955
 21
-6.8471402772
 31
0.0
 11
-5.1684755752
 21
-6.9706834789
 31
0.0
 11
-5.2950406988
 21
-7.1141847495
 31
0.0
 11
-5.3597161265
 21
-7.2377515703
 31
0.0
  0
SPLINE
  5
543
100
AcDbEntity
  8
0
100
AcDbSpline
 62
7
  6
CONTINUOUS
 70
0
 71
3
 72
9
 73
5
 74
3
 42
0.0000001
 43
0.0000001
 44
0.0000000001
 12
-0.4933856579
 22
-1.3656708806
 32
0.0
 13
0.2113482566
 23
-1.4365995531
 33
0.0
 40
0.0
 40
0.0
 40
0.0
 40
0.0
 40
0.2957417834
 40
1.0
 40
1.0
 40
1.0
 40
1.0
 10
-5.3597161265
 20
-7.2377515703
 30
0.0
 10
-5.408354378
 20
-7.3723802175
 30
0.0
 10
-5.4876376268
 20
-7.856288705
 30
0.0
 10
-5.4388072411
 20
-8.3427355179
 30
0.0
 10
-5.389192659
 20
-8.6799811977
 30
0.0
 11
-5.3597161265
 21
-7.2377515703
 31
0.0
 11
-5.444043888
 21
-7.6588261458
 31
0.0
 11
-5.389192659
 21
-8.6799811977
 31
0.0
  0
SPLINE
  5
544
100
AcDbEntity
  8
0
100
AcDbSpline
 62
253
  6
CONTINUOUS
 70
0
 71
3
 72
9
 73
5
 74
3
 42
0.0000001
 43
0.0000001
 44
0.0000000001
 12
0.0013086734
 22
-0.0432844709
 32
0.0
 13
-0.0000000099
 23
-0.0433042498
 33
0.0
 40
0.0
 40
0.0
 40
0.0
 40
0.0
 40
0.183482616
 40
1.0
 40
1.0
 40
1.0
 40
1.0
 10
7.2135886019
 20
-23.8010362971
 30
0.0
 10
7.2136686415
 20
-23.8036836131
 30
0.0
 10
7.2139645803
 20
-23.8181157399
 30
0.0
 10
7.2140249812
 20
-23.8325513431
 30
0.0
 10
7.2140249785
 20
-23.8443375673
 30
0.0
 11
7.2135886019
 21
-23.8010362971
 31
0.0
 11
7.2137693112
 21
-23.8089798189
 31
0.0
 11
7.2140249785
 21
-23.8443375673
 31
0.0
  0
SPLINE
  5
545
100
AcDbEntity
  8
0
100
AcDbSpline
 62
253
  6
CONTINUOUS
 70
0
 71
3
 72
14
 73
10
 74
8
 42
0.0000001
 43
0.0000001
 44
0.0000000001
 12
0.0000000046
 22
-0.0500143989
 32
0.0
 13
-0.0353848633
 23
-0.0353461674
 33
0.0
 40
0.0
 40
0.0
 40
0.0
 40
0.0
 40
0.3784712214
 40
0.5499084536
 40
0.7006913151
 40
0.8251503658
 40
0.9186144536
 40
0.9775916124
 40
1.0
 40
1.0
 40
1.0
 40
1.0
 10
7.2140249785
 20
-24.2368706193
 30
0.0
 10
7.2140249791
 20
-24.2431802895
 30
0.0
 10
7.2140004569
 20
-24.2523508019
 30
0.0
 10
7.2138852549
 20
-24.2640254185
 30
0.0
 10
7.2138080005
 20
-24.2714870517
 30
0.0
 10
7.2136161172
 20
-24.277589333
 30
0.0
 10
7.2136474124
 20
-24.2823090177
 30
0.0
 10
7.213195583
 20
-24.2850232201
 30
0.0
 10
7.2134317628
 20
-24.2865989872
 30
0.0
 10
7.2131674569
 20
-24.286863004
 30
0.0
 11
7.2140249785
 21
-24.2368706193
 31
0.0
 11
7.2139600142
 21
-24.2557995185
 31
0.0
 11
7.21388108
 21
-24.2643734852
 31
0.0
 11
7.213774746
 21
-24.2719140497
 31
0.0
 11
7.213645012
 21
-24.2781374423
 31
0.0
 11
7.2134967534
 21
-24.2828096407
 31
0.0
 11
7.2133355534
 21
-24.2857549398
 31
0.0
 11
7.2131674569
 21
-24.286863004
 31
0.0
  0
SPLINE
  5
546
100
AcDbEntity
  8
0
100
AcDbSpline
 62
253
  6
CONTINUOUS
 70
0
 71
3
 72
9
 73
5
 74
3
 42
0.0000001
 43
0.0000001
 44
0.0000000001
 12
0.0000001007
 22
-0.0433040262
 32
0.0
 13
0.0013110356
 23
-0.0432841757
 33
0.0
 40
0.0
 40
0.0
 40
0.0
 40
0.0
 40
0.2986840764
 40
1.0
 40
1.0
 40
1.0
 40
1.0
 10
10.5859750215
 20
23.8443375673
 30
0.0
 10
10.5859750315
 20
23.8400261596
 30
0.0
 10
10.586018476
 20
23.8255919674
 30
0.0
 10
10.5861049147
 20
23.8111549243
 30
0.0
 10
10.5864113981
 20
23.8010362971
 30
0.0
 11
10.5859750215
 21
23.8443375673
 31
0.0
 11
10.5860048195
 21
23.8314033786
 31
0.0
 11
10.5864113981
 21
23.8010362971
 31
0.0
  0
SPLINE
  5
547
100
AcDbEntity
  8
0
100
AcDbSpline
 62
253
  6
CONTINUOUS
 70
0
 71
3
 72
14
 73
10
 74
8
 42
0.0000001
 43
0.0000001
 44
0.0000000001
 12
0.0353708696
 22
-0.0353601741
 32
0.0
 13
-0.0000000167
 23
-0.0500144012
 33
0.0
 40
0.0
 40
0.0
 40
0.0
 40
0.0
 40
0.0223888774
 40
0.0813291623
 40
0.1747527001
 40
0.2991804371
 40
0.4499462781
 40
0.6213924665
 40
1.0
 40
1.0
 40
1.0
 40
1.0
 10
7.2131674569
 20
24.2868630041
 30
0.0
 10
7.2134314283
 20
24.2865991125
 30
0.0
 10
7.2131958083
 20
24.2850247044
 30
0.0
 10
7.2136471428
 20
24.2823117879
 30
0.0
 10
7.213616056
 20
24.2775940677
 30
0.0
 10
7.2138078821
 20
24.2714932163
 30
0.0
 10
7.2138851847
 20
24.264032255
 30
0.0
 10
7.2140004409
 20
24.2523554959
 30
0.0
 10
7.2140249806
 20
24.2431825623
 30
0.0
 10
7.2140249785
 20
24.2368706193
 30
0.0
 11
7.2131674569
 21
24.2868630041
 31
0.0
 11
7.2133354761
 21
24.285755915
 31
0.0
 11
7.2134966353
 21
24.2828124605
 31
0.0
 11
7.2136448867
 21
24.2781422907
 31
0.0
 11
7.2137746359
 21
24.2719204647
 31
0.0
 11
7.2138809976
 21
24.2643807516
 31
0.0
 11
7.213959967
 21
24.2558063368
 31
0.0
 11
7.2140249785
 21
24.2368706193
 31
0.0
  0
SPLINE
  5
548
100
AcDbEntity
  8
0
100
AcDbSpline
 62
253
  6
CONTINUOUS
 70
0
 71
3
 72
9
 73
5
 74
3
 42
0.0000001
 43
0.0000001
 44
0.0000000001
 12
0.0000000129
 22
-0.0433040273
 32
0.0
 13
-0.0013086547
 23
-0.043284249
 33
0.0
 40
0.0
 40
0.0
 40
0.0
 40
0.0
 40
0.29878921
 40
1.0
 40
1.0
 40
1.0
 40
1.0
 10
7.2140249785
 20
23.8443375673
 30
0.0
 10
7.2140249798
 20
23.8400246419
 30
0.0
 10
7.2139818312
 20
23.8255904452
 30
0.0
 10
7.2138944828
 20
23.8111534246
 30
0.0
 10
7.2135886019
 20
23.8010362971
 30
0.0
 11
7.2140249785
 21
23.8443375673
 31
0.0
 11
7.2139952492
 21
23.8313988253
 31
0.0
 11
7.2135886019
 21
23.8010362971
 31
0.0
  0
SPLINE
  5
549
100
AcDbEntity
  8
0
100
AcDbSpline
 62
253
  6
CONTINUOUS
 70
0
 71
3
 72
25
 73
21
 74
19
 42
0.0000001
 43
0.0000001
 44
0.0000000001
 12
-0.1885513154
 22
0.1952558163
 32
0.0
 13
-0.1903870649
 23
-0.1934662706
 33
0.0
 40
0.0
 40
0.0
 40
0.0
 40
0.0
 40
0.0032993224
 40
0.0112229513
 40
0.0237271288
 40
0.0407190122
 40
0.0874357045
 40
0.1496533678
 40
0.2250209446
 40
0.3107340552
 40
0.5000006095
 40
0.6892666206
 40
0.7749788229
 40
0.8503426385
 40
0.9125597899
 40
0.9592803118
 40
0.9762710712
 40
0.9887708994
 40
0.9966927945
 40
1.0
 40
1.0
 40
1.0
 40
1.0
 10
-3.8306228363
 20
-23.9018840226
 30
0.0
 10
-3.8308302001
 20
-23.9016692853
 30
0.0
 10
-3.8319787547
 20
-23.9016688371
 30
0.0
 10
-3.8339950011
 20
-23.9013302221
 30
0.0
 10
-3.8374383151
 20
-23.9011950848
 30
0.0
 10
-3.8442904436
 20
-23.9008432663
 30
0.0
 10
-3.8557057013
 20
-23.9005408964
 30
0.0
 10
-3.8723658356
 20
-23.9001926342
 30
0.0
 10
-3.8925718869
 20
-23.8999212826
 30
0.0
 10
-3.9242676949
 20
-23.8996345298
 30
0.0
 10
-3.9662725553
 20
-23.8995040986
 30
0.0
 10
-4.0082772989
 20
-23.8996345596
 30
0.0
 10
-4.039972685
 20
-23.8999212766
 30
0.0
 10
-4.0601781483
 20
-23.9001927377
 30
0.0
 10
-4.0768385747
 20
-23.9005407828
 30
0.0
 10
-4.088253299
 20
-23.9008436703
 30
0.0
 10
-4.0951063157
 20
-23.9011946585
 30
0.0
 10
-4.0985471548
 20
-23.901331217
 30
0.0
 10
-4.1005669907
 20
-23.9016673067
 30
0.0
 10
-4.1017122158
 20
-23.901670745
 30
0.0
 10
-4.1019220988
 20
-23.9018840226
 30
0.0
 11
-3.8306228363
 21
-23.9018840226
 31
0.0
 11
-3.8314886627
 21
-23.9016552184
 31
0.0
 11
-3.8336274068
 21
-23.9014283546
 31
0.0
 11
-3.8370141724
 21
-23.901205965
 31
0.0
 11
-3.8416213132
 21
-23.9009905227
 31
0.0
 11
-3.8542954345
 21
-23.9005883653
 31
0.0
 11
-3.8711797587
 21
-23.9002364582
 31
0.0
 11
-3.8916350477
 21
-23.8999478441
 31
0.0
 11
-3.9148995167
 21
-23.8997336478
 31
0.0
 11
-3.9662725974
 21
-23.8995572797
 31
0.0
 11
-4.0176455306
 21
-23.8997336642
 31
0.0
 11
-4.040909753
 21
-23.8999478674
 31
0.0
 11
-4.0613640208
 21
-23.9002364928
 31
0.0
 11
-4.0782482058
 21
-23.9005884107
 31
0.0
 11
-4.0909233674
 21
-23.9009905596
 31
0.0
 11
-4.0955302034
 21
-23.901205989
 31
0.0
 11
-4.0989157867
 21
-23.9014283662
 31
0.0
 11
-4.1010540584
 21
-23.9016552219
 31
0.0
 11
-4.1019220988
 21
-23.9018840226
 31
0.0
  0
SPLINE
  5
54A
100
AcDbEntity
  8
0
100
AcDbSpline
 62
253
  6
CONTINUOUS
 70
0
 71
3
 72
25
 73
21
 74
19
 42
0.0000001
 43
0.0000001
 44
0.0000000001
 12
-0.1885513154
 22
0.1952558163
 32
0.0
 13
-0.1903870649
 23
-0.1934662706
 33
0.0
 40
0.0
 40
0.0
 40
0.0
 40
0.0
 40
0.0032993224
 40
0.0112229513
 40
0.0237271288
 40
0.0407190122
 40
0.0874357045
 40
0.1496533678
 40
0.2250209446
 40
0.3107340552
 40
0.5000006095
 40
0.6892666206
 40
0.7749788229
 40
0.8503426385
 40
0.9125597899
 40
0.9592803118
 40
0.9762710712
 40
0.9887708994
 40
0.9966927945
 40
1.0
 40
1.0
 40
1.0
 40
1.0
 10
4.1019220988
 20
-23.9018840226
 30
0.0
 10
4.101714735
 20
-23.9016692853
 30
0.0
 10
4.1005661804
 20
-23.9016688371
 30
0.0
 10
4.098549934
 20
-23.9013302221
 30
0.0
 10
4.09510662
 20
-23.9011950848
 30
0.0
 10
4.0882544915
 20
-23.9008432663
 30
0.0
 10
4.0768392338
 20
-23.9005408964
 30
0.0
 10
4.0601790994
 20
-23.9001926342
 30
0.0
 10
4.0399730481
 20
-23.8999212826
 30
0.0
 10
4.0082772402
 20
-23.8996345298
 30
0.0
 10
3.9662723797
 20
-23.8995040986
 30
0.0
 10
3.9242676361
 20
-23.8996345596
 30
0.0
 10
3.89257225
 20
-23.8999212766
 30
0.0
 10
3.8723667868
 20
-23.9001927377
 30
0.0
 10
3.8557063604
 20
-23.9005407828
 30
0.0
 10
3.844291636
 20
-23.9008436703
 30
0.0
 10
3.8374386194
 20
-23.9011946585
 30
0.0
 10
3.8339977802
 20
-23.901331217
 30
0.0
 10
3.8319779444
 20
-23.9016673067
 30
0.0
 10
3.8308327193
 20
-23.901670745
 30
0.0
 10
3.8306228363
 20
-23.9018840226
 30
0.0
 11
4.1019220988
 21
-23.9018840226
 31
0.0
 11
4.1010562723
 21
-23.9016552184
 31
0.0
 11
4.0989175283
 21
-23.9014283546
 31
0.0
 11
4.0955307626
 21
-23.901205965
 31
0.0
 11
4.0909236219
 21
-23.9009905227
 31
0.0
 11
4.0782495006
 21
-23.9005883653
 31
0.0
 11
4.0613651764
 21
-23.9002364582
 31
0.0
 11
4.0409098873
 21
-23.8999478441
 31
0.0
 11
4.0176454184
 21
-23.8997336478
 31
0.0
 11
3.9662723376
 21
-23.8995572797
 31
0.0
 11
3.9148994044
 21
-23.8997336642
 31
0.0
 11
3.8916351821
 21
-23.8999478674
 31
0.0
 11
3.8711809142
 21
-23.9002364928
 31
0.0
 11
3.8542967292
 21
-23.9005884107
 31
0.0
 11
3.8416215677
 21
-23.9009905596
 31
0.0
 11
3.8370147317
 21
-23.901205989
 31
0.0
 11
3.8336291484
 21
-23.9014283662
 31
0.0
 11
3.8314908767
 21
-23.9016552219
 31
0.0
 11
3.8306228363
 21
-23.9018840226
 31
0.0
  0
SPLINE
  5
54B
100
AcDbEntity
  8
0
100
AcDbSpline
 62
253
  6
CONTINUOUS
 70
0
 71
3
 72
14
 73
10
 74
8
 42
0.0000001
 43
0.0000001
 44
0.0000000001
 12
-0.0353766991
 22
-0.0353543411
 32
0.0
 13
0.0000000128
 23
-0.0500144006
 33
0.0
 40
0.0
 40
0.0
 40
0.0
 40
0.0
 40
0.0223938169
 40
0.081343507
 40
0.1747762356
 40
0.2992083366
 40
0.4499726905
 40
0.6214130518
 40
1.0
 40
1.0
 40
1.0
 40
1.0
 10
10.5868325431
 20
24.2868630041
 30
0.0
 10
10.58656847
 20
24.2865990978
 30
0.0
 10
10.5868042696
 20
24.285024306
 30
0.0
 10
10.5863527813
 20
24.2823111138
 30
0.0
 10
10.5863839349
 20
24.2775929564
 30
0.0
 10
10.5861920926
 20
24.2714919227
 30
0.0
 10
10.5861148036
 20
24.2640310048
 30
0.0
 10
10.585999556
 20
24.252354713
 30
0.0
 10
10.5859750199
 20
24.2431822191
 30
0.0
 10
10.5859750215
 20
24.2368706193
 30
0.0
 11
10.5868325431
 21
24.2868630041
 31
0.0
 11
10.5866645041
 21
24.2857556682
 31
0.0
 11
10.5865033362
 21
24.2828117431
 31
0.0
 11
10.5863550838
 21
24.2781411135
 31
0.0
 11
10.5862253408
 21
24.2719190691
 31
0.0
 11
10.5861189877
 21
24.2643794303
 31
0.0
 11
10.5860400261
 21
24.255805307
 31
0.0
 11
10.5859750215
 21
24.2368706193
 31
0.0
  0
SPLINE
  5
54C
100
AcDbEntity
  8
0
100
AcDbSpline
 62
253
  6
CONTINUOUS
 70
0
 71
3
 72
9
 73
5
 74
3
 42
0.0000001
 43
0.0000001
 44
0.0000000001
 12
0.0000006052
 22
0.0433040268
 32
0.0
 13
-0.0013082134
 23
0.0432842617
 33
0.0
 40
0.0
 40
0.0
 40
0.0
 40
0.0
 40
0.2986883658
 40
1.0
 40
1.0
 40
1.0
 40
1.0
 10
-10.5859750215
 20
-23.8443375673
 30
0.0
 10
-10.5859749612
 20
-23.8400260976
 30
0.0
 10
-10.5860182947
 20
-23.8255919006
 30
0.0
 10
-10.5861055763
 20
-23.8111548825
 30
0.0
 10
-10.5864113981
 20
-23.8010362971
 30
0.0
 11
-10.5859750215
 21
-23.8443375673
 31
0.0
 11
-10.5860047684
 21
-23.8314031925
 31
0.0
 11
-10.5864113981
 21
-23.8010362971
 31
0.0
  0
SPLINE
  5
54D
100
AcDbEntity
  8
0
100
AcDbSpline
 62
253
  6
CONTINUOUS
 70
0
 71
3
 72
14
 73
10
 74
8
 42
0.0000001
 43
0.0000001
 44
0.0000000001
 12
0.0353853364
 22
0.0353456974
 32
0.0
 13
0.0000000241
 23
0.0500144015
 33
0.0
 40
0.0
 40
0.0
 40
0.0
 40
0.0
 40
0.0223887733
 40
0.081330048
 40
0.174755207
 40
0.299184792
 40
0.44995127
 40
0.6213968764
 40
1.0
 40
1.0
 40
1.0
 40
1.0
 10
-10.5868325431
 20
-24.286863004
 30
0.0
 10
-10.586568465
 20
-24.2865992218
 30
0.0
 10
-10.5868043236
 20
-24.2850245546
 30
0.0
 10
-10.5863527733
 20
-24.2823118149
 30
0.0
 10
-10.5863839743
 20
-24.2775939037
 30
0.0
 10
-10.5861921021
 20
-24.2714930317
 30
0.0
 10
-10.5861148161
 20
-24.2640320217
 30
0.0
 10
-10.5859995564
 20
-24.2523553421
 30
0.0
 10
-10.5859750245
 20
-24.2431824888
 30
0.0
 10
-10.5859750215
 20
-24.2368706193
 30
0.0
 11
-10.5868325431
 21
-24.286863004
 31
0.0
 11
-10.5866645219
 21
-24.2857559206
 31
0.0
 11
-10.5865033614
 21
-24.2828124166
 31
0.0
 11
-10.5863551092
 21
-24.2781421656
 31
0.0
 11
-10.58622536
 21
-24.2719202471
 31
0.0
 11
-10.5861189992
 21
-24.2643805021
 31
0.0
 11
-10.586040032
 21
-24.2558061163
 31
0.0
 11
-10.5859750215
 21
-24.2368706193
 31
0.0
  0
LINE
  5
54E
100
AcDbEntity
  8
RACCORDO
100
AcDbLine
 62
7
  6
CONTINUOUS
 10
-6.7283138838
 20
-11.9727036537
 11
-7.0735541154
 21
-11.9794557283
  0
LINE
  5
54F
100
AcDbEntity
  8
0
100
AcDbLine
 62
7
  6
CONTINUOUS
 10
-7.3696313037
 20
-20.8303686963
 11
-9.4440317018
 21
-20.8313578442
  0
LINE
  5
550
100
AcDbEntity
  8
0
100
AcDbLine
 62
7
  6
CONTINUOUS
 10
-9.4440317018
 20
20.8313578442
 11
-7.3696313037
 21
20.8303686963
  0
LINE
  5
551
100
AcDbEntity
  8
RACCORDO
100
AcDbLine
 62
7
  6
CONTINUOUS
 10
-7.0735541154
 20
11.9794557283
 11
-6.7283138838
 21
11.9727036537
  0
SPLINE
  5
552
100
AcDbEntity
  8
RACCORDO
100
AcDbSpline
 62
7
  6
CONTINUOUS
 70
0
 71
3
 72
9
 73
5
 74
3
 42
0.0000001
 43
0.0000001
 44
0.0000000001
 12
-0.0019165384
 22
7.6408823021
 32
0.0
 13
-0.0031104347
 23
7.6408819094
 33
0.0
 40
0.0
 40
0.0
 40
0.0
 40
0.0
 40
0.2500606383
 40
1.0
 40
1.0
 40
1.0
 40
1.0
 10
-6.4291437218
 20
12.2887449546
 30
0.0
 10
-6.4293034721
 20
12.9256395898
 30
0.0
 10
-6.4299920253
 20
15.4726003445
 30
0.0
 10
-6.4308794264
 20
18.0195610454
 30
0.0
 10
-6.4316569722
 20
19.9296270793
 30
0.0
 11
-6.4291437218
 21
12.2887449546
 31
0.0
 11
-6.4296602662
 21
14.1994288507
 31
0.0
 11
-6.4316569722
 21
19.9296270793
 31
0.0
  0
LINE
  5
553
100
AcDbEntity
  8
RACCORDO
100
AcDbLine
 62
7
  6
CONTINUOUS
 10
6.7262830625
 20
11.9726649338
 11
7.0735541154
 21
11.9794557283
  0
LINE
  5
554
100
AcDbEntity
  8
0
100
AcDbLine
 62
7
  6
CONTINUOUS
 10
7.3696313037
 20
20.8303686963
 11
9.4440317018
 21
20.8313578442
  0
LINE
  5
555
100
AcDbEntity
  8
0
100
AcDbLine
 62
7
  6
CONTINUOUS
 10
9.4440317018
 20
-20.8313578442
 11
7.3696313037
 21
-20.8303686963
  0
LINE
  5
556
100
AcDbEntity
  8
RACCORDO
100
AcDbLine
 62
7
  6
CONTINUOUS
 10
7.0735541154
 20
-11.9794557283
 11
6.7262830625
 21
-11.9726649338
  0
SPLINE
  5
557
100
AcDbEntity
  8
RACCORDO
100
AcDbSpline
 62
7
  6
CONTINUOUS
 70
0
 71
3
 72
9
 73
5
 74
3
 42
0.0000001
 43
0.0000001
 44
0.0000000001
 12
0.0031104347
 22
7.6408819094
 32
0.0
 13
0.0019165384
 23
7.6408823021
 33
0.0
 40
0.0
 40
0.0
 40
0.0
 40
0.0
 40
0.2499342897
 40
1.0
 40
1.0
 40
1.0
 40
1.0
 10
-6.4316569722
 20
-19.9296270793
 30
0.0
 10
-6.4313978375
 20
-19.2930542818
 30
0.0
 10
-6.4304108259
 20
-16.7460936253
 30
0.0
 10
-6.4296228984
 20
-14.1991328917
 30
0.0
 10
-6.4291437218
 20
-12.2887449546
 30
0.0
 11
-6.4316569722
 21
-19.9296270793
 31
0.0
 11
-6.4309168976
 21
-18.0199086719
 31
0.0
 11
-6.4291437218
 21
-12.2887449546
 31
0.0
  0
SPLINE
  5
558
100
AcDbEntity
  8
0
100
AcDbSpline
 62
253
  6
CONTINUOUS
 70
0
 71
3
 72
14
 73
10
 74
8
 42
0.0000001
 43
0.0000001
 44
0.0000000001
 12
0.0000000171
 22
0.0500143994
 32
0.0
 13
-0.0353375939
 23
0.035393426
 33
0.0
 40
0.0
 40
0.0
 40
0.0
 40
0.0
 40
0.3784749852
 40
0.5499132458
 40
0.7006959891
 40
0.8251541655
 40
0.9186156704
 40
0.977592881
 40
1.0
 40
1.0
 40
1.0
 40
1.0
 10
-10.5859750215
 20
24.2368706193
 30
0.0
 10
-10.5859750193
 20
24.2431803523
 30
0.0
 10
-10.5859995531
 20
24.2523509352
 30
0.0
 10
-10.5861147326
 20
24.2640256529
 30
0.0
 10
-10.5861920462
 20
24.2714872316
 30
0.0
 10
-10.5863837683
 20
24.2775896085
 30
0.0
 10
-10.5863528656
 20
24.2823088588
 30
0.0
 10
-10.5868039645
 20
24.2850237059
 30
0.0
 10
-10.5865686052
 20
24.2865986491
 30
0.0
 10
-10.5868325431
 20
24.2868630041
 30
0.0
 11
-10.5859750215
 21
24.2368706193
 31
0.0
 11
-10.5860399865
 21
24.2557997069
 31
0.0
 11
-10.5861189221
 21
24.2643737252
 31
0.0
 11
-10.5862252577
 21
24.2719142838
 31
0.0
 11
-10.5863549922
 21
24.2781376326
 31
0.0
 11
-10.5865032504
 21
24.2828097019
 31
0.0
 11
-10.5866644481
 21
24.2857550038
 31
0.0
 11
-10.5868325431
 21
24.2868630041
 31
0.0
  0
SPLINE
  5
559
100
AcDbEntity
  8
0
100
AcDbSpline
 62
253
  6
CONTINUOUS
 70
0
 71
3
 72
9
 73
5
 74
3
 42
0.0000001
 43
0.0000001
 44
0.0000000001
 12
0.0013110427
 22
0.0432843983
 32
0.0
 13
0.0000001007
 23
0.0433042489
 33
0.0
 40
0.0
 40
0.0
 40
0.0
 40
0.0
 40
0.1834520378
 40
1.0
 40
1.0
 40
1.0
 40
1.0
 10
-10.5864113981
 20
23.8010362971
 30
0.0
 10
-10.586331227
 20
23.8036831675
 30
0.0
 10
-10.5860359079
 20
23.8181153116
 30
0.0
 10
-10.5859750489
 20
23.8325509019
 30
0.0
 10
-10.5859750215
 20
23.8443375673
 30
0.0
 11
-10.5864113981
 21
23.8010362971
 31
0.0
 11
-10.5862307638
 21
23.8089784959
 31
0.0
 11
-10.5859750215
 21
23.8443375673
 31
0.0
  0
SPLINE
  5
55A
100
AcDbEntity
  8
0
100
AcDbSpline
 62
253
  6
CONTINUOUS
 70
0
 71
3
 72
25
 73
21
 74
19
 42
0.0000001
 43
0.0000001
 44
0.0000000001
 12
0.1903870567
 22
-0.1934662786
 32
0.0
 13
0.1885513186
 23
0.1952558131
 33
0.0
 40
0.0
 40
0.0
 40
0.0
 40
0.0
 40
0.0033072054
 40
0.0112291006
 40
0.0237289288
 40
0.0407196882
 40
0.0874402101
 40
0.1496573615
 40
0.2250211771
 40
0.3107333794
 40
0.4999993905
 40
0.6892659448
 40
0.7749790554
 40
0.8503466322
 40
0.9125642955
 40
0.9592809878
 40
0.9762728712
 40
0.9887770487
 40
0.9967006776
 40
1.0
 40
1.0
 40
1.0
 40
1.0
 10
3.8306228363
 20
23.9018840226
 30
0.0
 10
3.8308327193
 20
23.901670745
 30
0.0
 10
3.8319779444
 20
23.9016673067
 30
0.0
 10
3.8339977802
 20
23.901331217
 30
0.0
 10
3.8374386194
 20
23.9011946585
 30
0.0
 10
3.844291636
 20
23.9008436703
 30
0.0
 10
3.8557063604
 20
23.9005407828
 30
0.0
 10
3.8723667868
 20
23.9001927377
 30
0.0
 10
3.89257225
 20
23.8999212766
 30
0.0
 10
3.9242676361
 20
23.8996345596
 30
0.0
 10
3.9662723797
 20
23.8995040986
 30
0.0
 10
4.0082772402
 20
23.8996345298
 30
0.0
 10
4.0399730481
 20
23.8999212826
 30
0.0
 10
4.0601790994
 20
23.9001926342
 30
0.0
 10
4.0768392338
 20
23.9005408964
 30
0.0
 10
4.0882544915
 20
23.9008432663
 30
0.0
 10
4.09510662
 20
23.9011950848
 30
0.0
 10
4.098549934
 20
23.9013302221
 30
0.0
 10
4.1005661804
 20
23.9016688371
 30
0.0
 10
4.101714735
 20
23.9016692853
 30
0.0
 10
4.1019220988
 20
23.9018840226
 30
0.0
 11
3.8306228363
 21
23.9018840226
 31
0.0
 11
3.8314908767
 21
23.9016552219
 31
0.0
 11
3.8336291484
 21
23.9014283662
 31
0.0
 11
3.8370147317
 21
23.901205989
 31
0.0
 11
3.8416215677
 21
23.9009905596
 31
0.0
 11
3.8542967292
 21
23.9005884107
 31
0.0
 11
3.8711809142
 21
23.9002364928
 31
0.0
 11
3.8916351821
 21
23.8999478674
 31
0.0
 11
3.9148994044
 21
23.8997336642
 31
0.0
 11
3.9662723376
 21
23.8995572797
 31
0.0
 11
4.0176454184
 21
23.8997336478
 31
0.0
 11
4.0409098873
 21
23.8999478441
 31
0.0
 11
4.0613651764
 21
23.9002364582
 31
0.0
 11
4.0782495006
 21
23.9005883653
 31
0.0
 11
4.0909236219
 21
23.9009905227
 31
0.0
 11
4.0955307626
 21
23.901205965
 31
0.0
 11
4.0989175283
 21
23.9014283546
 31
0.0
 11
4.1010562723
 21
23.9016552184
 31
0.0
 11
4.1019220988
 21
23.9018840226
 31
0.0
  0
SPLINE
  5
55B
100
AcDbEntity
  8
0
100
AcDbSpline
 62
253
  6
CONTINUOUS
 70
0
 71
3
 72
25
 73
21
 74
19
 42
0.0000001
 43
0.0000001
 44
0.0000000001
 12
0.1903870567
 22
-0.1934662786
 32
0.0
 13
0.1885513186
 23
0.1952558131
 33
0.0
 40
0.0
 40
0.0
 40
0.0
 40
0.0
 40
0.0033072054
 40
0.0112291006
 40
0.0237289288
 40
0.0407196882
 40
0.0874402101
 40
0.1496573615
 40
0.2250211771
 40
0.3107333794
 40
0.4999993905
 40
0.6892659448
 40
0.7749790554
 40
0.8503466322
 40
0.9125642955
 40
0.9592809878
 40
0.9762728712
 40
0.9887770487
 40
0.9967006776
 40
1.0
 40
1.0
 40
1.0
 40
1.0
 10
-4.1019220988
 20
23.9018840226
 30
0.0
 10
-4.1017122158
 20
23.901670745
 30
0.0
 10
-4.1005669907
 20
23.9016673067
 30
0.0
 10
-4.0985471548
 20
23.901331217
 30
0.0
 10
-4.0951063157
 20
23.9011946585
 30
0.0
 10
-4.088253299
 20
23.9008436703
 30
0.0
 10
-4.0768385747
 20
23.9005407828
 30
0.0
 10
-4.0601781483
 20
23.9001927377
 30
0.0
 10
-4.039972685
 20
23.8999212766
 30
0.0
 10
-4.0082772989
 20
23.8996345596
 30
0.0
 10
-3.9662725553
 20
23.8995040986
 30
0.0
 10
-3.9242676949
 20
23.8996345298
 30
0.0
 10
-3.8925718869
 20
23.8999212826
 30
0.0
 10
-3.8723658356
 20
23.9001926342
 30
0.0
 10
-3.8557057013
 20
23.9005408964
 30
0.0
 10
-3.8442904436
 20
23.9008432663
 30
0.0
 10
-3.8374383151
 20
23.9011950848
 30
0.0
 10
-3.8339950011
 20
23.9013302221
 30
0.0
 10
-3.8319787547
 20
23.9016688371
 30
0.0
 10
-3.8308302001
 20
23.9016692853
 30
0.0
 10
-3.8306228363
 20
23.9018840226
 30
0.0
 11
-4.1019220988
 21
23.9018840226
 31
0.0
 11
-4.1010540584
 21
23.9016552219
 31
0.0
 11
-4.0989157867
 21
23.9014283662
 31
0.0
 11
-4.0955302034
 21
23.901205989
 31
0.0
 11
-4.0909233674
 21
23.9009905596
 31
0.0
 11
-4.0782482058
 21
23.9005884107
 31
0.0
 11
-4.0613640208
 21
23.9002364928
 31
0.0
 11
-4.040909753
 21
23.8999478674
 31
0.0
 11
-4.0176455306
 21
23.8997336642
 31
0.0
 11
-3.9662725974
 21
23.8995572797
 31
0.0
 11
-3.9148995167
 21
23.8997336478
 31
0.0
 11
-3.8916350477
 21
23.8999478441
 31
0.0
 11
-3.8711797587
 21
23.9002364582
 31
0.0
 11
-3.8542954345
 21
23.9005883653
 31
0.0
 11
-3.8416213132
 21
23.9009905227
 31
0.0
 11
-3.8370141724
 21
23.901205965
 31
0.0
 11
-3.8336274068
 21
23.9014283546
 31
0.0
 11
-3.8314886627
 21
23.9016552184
 31
0.0
 11
-3.8306228363
 21
23.9018840226
 31
0.0
  0
SPLINE
  5
55C
100
AcDbEntity
  8
0
100
AcDbSpline
 62
253
  6
CONTINUOUS
 70
0
 71
3
 72
14
 73
10
 74
8
 42
0.0000001
 43
0.0000001
 44
0.0000000001
 12
-0.0353890363
 22
0.0353419927
 32
0.0
 13
0.0000000042
 23
0.0500144013
 33
0.0
 40
0.0
 40
0.0
 40
0.0
 40
0.0
 40
0.0223894862
 40
0.0813317476
 40
0.1747573579
 40
0.2991859872
 40
0.4499515839
 40
0.6213967272
 40
1.0
 40
1.0
 40
1.0
 40
1.0
 10
-7.2131674569
 20
-24.286863004
 30
0.0
 10
-7.213431571
 20
-24.286599241
 30
0.0
 10
-7.2131956378
 20
-24.2850244771
 30
0.0
 10
-7.2136472507
 20
-24.2823117595
 30
0.0
 10
-7.2136160178
 20
-24.277593811
 30
0.0
 10
-7.2138079016
 20
-24.2714929736
 30
0.0
 10
-7.2138851817
 20
-24.2640319979
 30
0.0
 10
-7.2140004445
 20
-24.2523553401
 30
0.0
 10
-7.214024979
 20
-24.2431824913
 30
0.0
 10
-7.2140249785
 20
-24.2368706193
 30
0.0
 11
-7.2131674569
 21
-24.286863004
 31
0.0
 11
-7.2133354803
 21
-24.2857558849
 31
0.0
 11
-7.2134966412
 21
-24.2828123315
 31
0.0
 11
-7.2136448926
 21
-24.2781420579
 31
0.0
 11
-7.2137746403
 21
-24.2719201872
 31
0.0
 11
-7.213881
 21
-24.2643804863
 31
0.0
 11
-7.2139599679
 21
-24.2558061237
 31
0.0
 11
-7.2140249785
 21
-24.2368706193
 31
0.0
  0
SPLINE
  5
55D
100
AcDbEntity
  8
0
100
AcDbSpline
 62
253
  6
CONTINUOUS
 70
0
 71
3
 72
9
 73
5
 74
3
 42
0.0000001
 43
0.0000001
 44
0.0000000001
 12
-0.0000000101
 22
0.0433040274
 32
0.0
 13
0.0013086635
 23
0.0432842487
 33
0.0
 40
0.0
 40
0.0
 40
0.0
 40
0.0
 40
0.2987936565
 40
1.0
 40
1.0
 40
1.0
 40
1.0
 10
-7.2140249785
 20
-23.8443375673
 30
0.0
 10
-7.2140249795
 20
-23.8400245777
 30
0.0
 10
-7.2139818319
 20
-23.825590381
 30
0.0
 10
-7.2138944829
 20
-23.8111533604
 30
0.0
 10
-7.2135886019
 20
-23.8010362971
 30
0.0
 11
-7.2140249785
 21
-23.8443375673
 31
0.0
 11
-7.2139952489
 21
-23.8313986328
 31
0.0
 11
-7.2135886019
 21
-23.8010362971
 31
0.0
  0
SPLINE
  5
55E
100
AcDbEntity
  8
0
100
AcDbSpline
 62
253
  6
CONTINUOUS
 70
0
 71
3
 72
9
 73
5
 74
3
 42
0.0000001
 43
0.0000001
 44
0.0000000001
 12
-0.0013086622
 22
0.0432844713
 32
0.0
 13
0.0000000121
 23
0.0433042498
 33
0.0
 40
0.0
 40
0.0
 40
0.0
 40
0.0
 40
0.183485244
 40
1.0
 40
1.0
 40
1.0
 40
1.0
 10
-7.2135886019
 20
23.8010362971
 30
0.0
 10
-7.213668642
 20
23.803683651
 30
0.0
 10
-7.2139645839
 20
23.8181157778
 30
0.0
 10
-7.2140249818
 20
23.832551381
 30
0.0
 10
-7.2140249785
 20
23.8443375673
 30
0.0
 11
-7.2135886019
 21
23.8010362971
 31
0.0
 11
-7.2137693139
 21
23.8089799327
 31
0.0
 11
-7.2140249785
 21
23.8443375673
 31
0.0
  0
SPLINE
  5
55F
100
AcDbEntity
  8
RACCORDO
100
AcDbSpline
 62
7
  6
CONTINUOUS
 70
0
 71
3
 72
11
 73
7
 74
5
 42
0.0000001
 43
0.0000001
 44
0.0000000001
 12
0.0001195417
 22
-0.4876821406
 32
0.0
 13
-0.4875841973
 23
-0.0097742031
 33
0.0
 40
0.0
 40
0.0
 40
0.0
 40
0.0
 40
0.2504102782
 40
0.5005147517
 40
0.750326751
 40
1.0
 40
1.0
 40
1.0
 40
1.0
 10
7.3724455921
 20
12.3071201189
 30
0.0
 10
7.3724555703
 20
12.2664132454
 30
0.0
 10
7.357958972
 20
12.1843221358
 30
0.0
 10
7.2946545687
 20
12.0769723038
 30
0.0
 10
7.1959310252
 20
12.0003138845
 30
0.0
 10
7.1141330257
 20
11.9802691807
 30
0.0
 10
7.0735541154
 20
11.9794557283
 30
0.0
 11
7.3724455921
 21
12.3071201189
 31
0.0
 11
7.3510087936
 21
12.1868957015
 31
0.0
 11
7.2887071668
 21
12.082036027
 31
0.0
 11
7.191907008
 21
12.0080630659
 31
0.0
 11
7.0735541154
 21
11.9794557283
 31
0.0
  0
SPLINE
  5
560
100
AcDbEntity
  8
RACCORDO
100
AcDbSpline
 62
253
  6
CONTINUOUS
 70
0
 71
3
 72
11
 73
7
 74
5
 42
0.0000001
 43
0.0000001
 44
0.0000000001
 12
-0.0014412722
 22
-0.4537898867
 32
0.0
 13
-0.4537903906
 23
-0.0012727756
 33
0.0
 40
0.0
 40
0.0
 40
0.0
 40
0.0
 40
0.2427003814
 40
0.489884901
 40
0.7429862623
 40
1.0
 40
1.0
 40
1.0
 40
1.0
 10
7.2164749565
 20
18.8121652449
 30
0.0
 10
7.2163583574
 20
18.7754535854
 30
0.0
 10
7.2001871602
 20
18.7005388547
 30
0.0
 10
7.1327034578
 20
18.6070207701
 30
0.0
 10
7.0332484631
 20
18.5449224322
 30
0.0
 10
6.9553631677
 20
18.530366499
 30
0.0
 10
6.9164863796
 20
18.5302574587
 30
0.0
 11
7.2164749565
 21
18.8121652449
 31
0.0
 11
7.1933832446
 21
18.7044776936
 31
0.0
 11
7.1282944854
 21
18.6131231521
 31
0.0
 11
7.0310807145
 21
18.5519573965
 31
0.0
 11
6.9164863796
 21
18.5302574587
 31
0.0
  0
SPLINE
  5
561
100
AcDbEntity
  8
RACCORDO
100
AcDbSpline
 62
7
  6
CONTINUOUS
 70
0
 71
3
 72
11
 73
7
 74
5
 42
0.0000001
 43
0.0000001
 44
0.0000000001
 12
-0.4816861548
 22
-0.0091825097
 32
0.0
 13
0.000120847
 23
0.481773656
 33
0.0
 40
0.0
 40
0.0
 40
0.0
 40
0.0
 40
0.2496415241
 40
0.4995269994
 40
0.7496852792
 40
1.0
 40
1.0
 40
1.0
 40
1.0
 10
6.7262830625
 20
11.9726649338
 30
0.0
 10
6.6862001073
 20
11.9719008219
 30
0.0
 10
6.6045626431
 20
11.988317758
 30
0.0
 10
6.5047288456
 20
12.0615813074
 30
0.0
 10
6.4412549459
 20
12.1673682776
 30
0.0
 10
6.4271028621
 20
12.2485097558
 30
0.0
 10
6.4271129453
 20
12.2887081019
 30
0.0
 11
6.7262830625
 21
11.9726649338
 31
0.0
 11
6.6083779834
 21
11.9964017586
 31
0.0
 11
6.5108311037
 21
12.0669562429
 31
0.0
 11
6.4483096865
 21
12.1699905282
 31
0.0
 11
6.4271129453
 21
12.2887081019
 31
0.0
  0
SPLINE
  5
562
100
AcDbEntity
  8
RACCORDO
100
AcDbSpline
 62
253
  6
CONTINUOUS
 70
0
 71
3
 72
11
 73
7
 74
5
 42
0.0000001
 43
0.0000001
 44
0.0000000001
 12
0.0014412708
 22
-0.4537898951
 32
0.0
 13
0.4537903991
 23
-0.0012727307
 33
0.0
 40
0.0
 40
0.0
 40
0.0
 40
0.0
 40
0.242700317
 40
0.4898847856
 40
0.7429861921
 40
1.0
 40
1.0
 40
1.0
 40
1.0
 10
6.5835250435
 20
18.8121652449
 30
0.0
 10
6.5836416425
 20
18.7754535945
 30
0.0
 10
6.5998128249
 20
18.7005388795
 30
0.0
 10
6.6672965056
 20
18.6070207898
 30
0.0
 10
6.7667515049
 20
18.5449224335
 30
0.0
 10
6.844636821
 20
18.5303664955
 30
0.0
 10
6.8835136204
 20
18.5302574591
 30
0.0
 11
6.5835250435
 21
18.8121652449
 31
0.0
 11
6.6066167383
 21
18.7044777178
 31
0.0
 11
6.6717054693
 21
18.613123182
 31
0.0
 11
6.7689192519
 21
18.5519574026
 31
0.0
 11
6.8835136204
 21
18.5302574591
 31
0.0
  0
SPLINE
  5
563
100
AcDbEntity
  8
RACCORDO
100
AcDbSpline
 62
7
  6
CONTINUOUS
 70
0
 71
3
 72
11
 73
7
 74
5
 42
0.0000001
 43
0.0000001
 44
0.0000000001
 12
-0.4875841973
 22
0.0097742031
 32
0.0
 13
0.0001195417
 23
0.4876821406
 33
0.0
 40
0.0
 40
0.0
 40
0.0
 40
0.0
 40
0.249673249
 40
0.4994852483
 40
0.7495897218
 40
1.0
 40
1.0
 40
1.0
 40
1.0
 10
-7.0735541154
 20
11.9794557283
 30
0.0
 10
-7.1141330257
 20
11.9802691807
 30
0.0
 10
-7.1959310252
 20
12.0003138845
 30
0.0
 10
-7.2946545687
 20
12.0769723038
 30
0.0
 10
-7.357958972
 20
12.1843221358
 30
0.0
 10
-7.3724555703
 20
12.2664132454
 30
0.0
 10
-7.3724455921
 20
12.3071201189
 30
0.0
 11
-7.0735541154
 21
11.9794557283
 31
0.0
 11
-7.191907008
 21
12.0080630659
 31
0.0
 11
-7.2887071668
 21
12.082036027
 31
0.0
 11
-7.3510087936
 21
12.1868957015
 31
0.0
 11
-7.3724455921
 21
12.3071201189
 31
0.0
  0
SPLINE
  5
564
100
AcDbEntity
  8
RACCORDO
100
AcDbSpline
 62
253
  6
CONTINUOUS
 70
0
 71
3
 72
11
 73
7
 74
5
 42
0.0000001
 43
0.0000001
 44
0.0000000001
 12
0.0014412708
 22
-0.4537898951
 32
0.0
 13
0.4537903991
 23
-0.0012727307
 33
0.0
 40
0.0
 40
0.0
 40
0.0
 40
0.0
 40
0.242700317
 40
0.4898847856
 40
0.7429861921
 40
1.0
 40
1.0
 40
1.0
 40
1.0
 10
-7.2164749565
 20
18.8121652449
 30
0.0
 10
-7.2163583575
 20
18.7754535945
 30
0.0
 10
-7.2001871751
 20
18.7005388795
 30
0.0
 10
-7.1327034944
 20
18.6070207898
 30
0.0
 10
-7.0332484951
 20
18.5449224335
 30
0.0
 10
-6.955363179
 20
18.5303664955
 30
0.0
 10
-6.9164863796
 20
18.5302574591
 30
0.0
 11
-7.2164749565
 21
18.8121652449
 31
0.0
 11
-7.1933832617
 21
18.7044777178
 31
0.0
 11
-7.1282945307
 21
18.613123182
 31
0.0
 11
-7.0310807481
 21
18.5519574026
 31
0.0
 11
-6.9164863796
 21
18.5302574591
 31
0.0
  0
SPLINE
  5
565
100
AcDbEntity
  8
RACCORDO
100
AcDbSpline
 62
7
  6
CONTINUOUS
 70
0
 71
3
 72
11
 73
7
 74
5
 42
0.0000001
 43
0.0000001
 44
0.0000000001
 12
0.0001208415
 22
-0.4817726838
 32
0.0
 13
-0.48168513
 23
0.0091852592
 33
0.0
 40
0.0
 40
0.0
 40
0.0
 40
0.0
 40
0.2503148039
 40
0.500473134
 40
0.7503585798
 40
1.0
 40
1.0
 40
1.0
 40
1.0
 10
-6.4291437218
 20
12.2887449546
 30
0.0
 10
-6.429133639
 20
12.2485466763
 30
0.0
 10
-6.4432856913
 20
12.167405331
 30
0.0
 10
-6.5067596729
 20
12.0616186311
 30
0.0
 10
-6.6065936448
 20
11.9883556812
 30
0.0
 10
-6.6882310305
 20
11.9719393134
 30
0.0
 10
-6.7283138838
 20
11.9727036537
 30
0.0
 11
-6.4291437218
 21
12.2887449546
 31
0.0
 11
-6.4503404567
 21
12.1700275862
 31
0.0
 11
-6.5128619587
 21
12.0669936086
 31
0.0
 11
-6.6104089501
 21
11.9964397174
 31
0.0
 11
-6.7283138838
 21
11.9727036537
 31
0.0
  0
SPLINE
  5
566
100
AcDbEntity
  8
RACCORDO
100
AcDbSpline
 62
253
  6
CONTINUOUS
 70
0
 71
3
 72
11
 73
7
 74
5
 42
0.0000001
 43
0.0000001
 44
0.0000000001
 12
-0.0014412722
 22
-0.4537898867
 32
0.0
 13
-0.4537903906
 23
-0.0012727756
 33
0.0
 40
0.0
 40
0.0
 40
0.0
 40
0.0
 40
0.2427003814
 40
0.489884901
 40
0.7429862623
 40
1.0
 40
1.0
 40
1.0
 40
1.0
 10
-6.5855549364
 20
18.8121652449
 30
0.0
 10
-6.5856715355
 20
18.7754535854
 30
0.0
 10
-6.6018427327
 20
18.7005388547
 30
0.0
 10
-6.6693264351
 20
18.6070207701
 30
0.0
 10
-6.7687814298
 20
18.5449224322
 30
0.0
 10
-6.8466667252
 20
18.530366499
 30
0.0
 10
-6.8855435134
 20
18.5302574587
 30
0.0
 11
-6.5855549364
 21
18.8121652449
 31
0.0
 11
-6.6086466483
 21
18.7044776936
 31
0.0
 11
-6.6737354075
 21
18.6131231521
 31
0.0
 11
-6.7709491784
 21
18.5519573965
 31
0.0
 11
-6.8855435134
 21
18.5302574587
 31
0.0
  0
SPLINE
  5
567
100
AcDbEntity
  8
RACCORDO
100
AcDbSpline
 62
7
  6
CONTINUOUS
 70
0
 71
3
 72
11
 73
7
 74
5
 42
0.0000001
 43
0.0000001
 44
0.0000000001
 12
-0.000120847
 22
0.481773656
 32
0.0
 13
0.4816861548
 23
-0.0091825097
 33
0.0
 40
0.0
 40
0.0
 40
0.0
 40
0.0
 40
0.2503147208
 40
0.5004730006
 40
0.7503584759
 40
1.0
 40
1.0
 40
1.0
 40
1.0
 10
6.4271129453
 20
-12.2887081019
 30
0.0
 10
6.4271028621
 20
-12.2485097558
 30
0.0
 10
6.4412549459
 20
-12.1673682776
 30
0.0
 10
6.5047288456
 20
-12.0615813073
 30
0.0
 10
6.6045626431
 20
-11.988317758
 30
0.0
 10
6.6862001073
 20
-11.9719008219
 30
0.0
 10
6.7262830625
 20
-11.9726649338
 30
0.0
 11
6.4271129453
 21
-12.2887081019
 31
0.0
 11
6.4483096865
 21
-12.1699905281
 31
0.0
 11
6.5108311037
 21
-12.0669562429
 31
0.0
 11
6.6083779834
 21
-11.9964017586
 31
0.0
 11
6.7262830625
 21
-11.9726649338
 31
0.0
  0
SPLINE
  5
568
100
AcDbEntity
  8
RACCORDO
100
AcDbSpline
 62
253
  6
CONTINUOUS
 70
0
 71
3
 72
11
 73
7
 74
5
 42
0.0000001
 43
0.0000001
 44
0.0000000001
 12
0.0014412722
 22
0.4537898865
 32
0.0
 13
0.4537903904
 23
0.0012727786
 33
0.0
 40
0.0
 40
0.0
 40
0.0
 40
0.0
 40
0.2427003815
 40
0.4898849008
 40
0.742986262
 40
1.0
 40
1.0
 40
1.0
 40
1.0
 10
6.5835250435
 20
-18.8121652449
 30
0.0
 10
6.5836416426
 20
-18.7754535854
 30
0.0
 10
6.5998128398
 20
-18.7005388548
 30
0.0
 10
6.6672965422
 20
-18.6070207703
 30
0.0
 10
6.766751537
 20
-18.5449224327
 30
0.0
 10
6.8446368323
 20
-18.5303664992
 30
0.0
 10
6.8835136204
 20
-18.5302574587
 30
0.0
 11
6.5835250435
 21
-18.8121652449
 31
0.0
 11
6.6066167554
 21
-18.7044776937
 31
0.0
 11
6.6717055146
 21
-18.6131231523
 31
0.0
 11
6.7689192855
 21
-18.551957397
 31
0.0
 11
6.8835136204
 21
-18.5302574587
 31
0.0
  0
SPLINE
  5
569
100
AcDbEntity
  8
RACCORDO
100
AcDbSpline
 62
7
  6
CONTINUOUS
 70
0
 71
3
 72
11
 73
7
 74
5
 42
0.0000001
 43
0.0000001
 44
0.0000000001
 12
0.4875841973
 22
-0.0097742031
 32
0.0
 13
-0.0001195417
 23
-0.4876821406
 33
0.0
 40
0.0
 40
0.0
 40
0.0
 40
0.0
 40
0.249673249
 40
0.4994852483
 40
0.7495897218
 40
1.0
 40
1.0
 40
1.0
 40
1.0
 10
7.0735541154
 20
-11.9794557283
 30
0.0
 10
7.1141330257
 20
-11.9802691807
 30
0.0
 10
7.1959310252
 20
-12.0003138845
 30
0.0
 10
7.2946545687
 20
-12.0769723038
 30
0.0
 10
7.357958972
 20
-12.1843221358
 30
0.0
 10
7.3724555703
 20
-12.2664132454
 30
0.0
 10
7.3724455921
 20
-12.3071201189
 30
0.0
 11
7.0735541154
 21
-11.9794557283
 31
0.0
 11
7.191907008
 21
-12.0080630659
 31
0.0
 11
7.2887071668
 21
-12.082036027
 31
0.0
 11
7.3510087936
 21
-12.1868957015
 31
0.0
 11
7.3724455921
 21
-12.3071201189
 31
0.0
  0
SPLINE
  5
56A
100
AcDbEntity
  8
RACCORDO
100
AcDbSpline
 62
253
  6
CONTINUOUS
 70
0
 71
3
 72
11
 73
7
 74
5
 42
0.0000001
 43
0.0000001
 44
0.0000000001
 12
-0.001441271
 22
0.4537898933
 32
0.0
 13
-0.4537903973
 23
0.0012727389
 33
0.0
 40
0.0
 40
0.0
 40
0.0
 40
0.0
 40
0.2427003568
 40
0.4898848526
 40
0.742986232
 40
1.0
 40
1.0
 40
1.0
 40
1.0
 10
7.2164749565
 20
-18.8121652449
 30
0.0
 10
7.2163583575
 20
-18.7754535886
 30
0.0
 10
7.2001871678
 20
-18.7005388639
 30
0.0
 10
7.1327034757
 20
-18.6070207752
 30
0.0
 10
7.0332484781
 20
-18.5449224297
 30
0.0
 10
6.9553631728
 20
-18.5303664965
 30
0.0
 10
6.9164863795
 20
-18.5302574593
 30
0.0
 11
7.2164749565
 21
-18.8121652449
 31
0.0
 11
7.1933832527
 21
-18.7044777017
 31
0.0
 11
7.1282945068
 21
-18.6131231619
 31
0.0
 11
7.0310807303
 21
-18.5519573966
 31
0.0
 11
6.9164863795
 21
-18.5302574593
 31
0.0
  0
SPLINE
  5
56B
100
AcDbEntity
  8
RACCORDO
100
AcDbSpline
 62
7
  6
CONTINUOUS
 70
0
 71
3
 72
11
 73
7
 74
5
 42
0.0000001
 43
0.0000001
 44
0.0000000001
 12
-0.0001195417
 22
0.4876821406
 32
0.0
 13
0.4875841973
 23
0.0097742031
 33
0.0
 40
0.0
 40
0.0
 40
0.0
 40
0.0
 40
0.2504102782
 40
0.5005147517
 40
0.750326751
 40
1.0
 40
1.0
 40
1.0
 40
1.0
 10
-7.3724455921
 20
-12.3071201189
 30
0.0
 10
-7.3724555703
 20
-12.2664132454
 30
0.0
 10
-7.357958972
 20
-12.1843221358
 30
0.0
 10
-7.2946545687
 20
-12.0769723038
 30
0.0
 10
-7.1959310252
 20
-12.0003138845
 30
0.0
 10
-7.1141330257
 20
-11.9802691807
 30
0.0
 10
-7.0735541154
 20
-11.9794557283
 30
0.0
 11
-7.3724455921
 21
-12.3071201189
 31
0.0
 11
-7.3510087936
 21
-12.1868957015
 31
0.0
 11
-7.2887071668
 21
-12.082036027
 31
0.0
 11
-7.191907008
 21
-12.0080630659
 31
0.0
 11
-7.0735541154
 21
-11.9794557283
 31
0.0
  0
SPLINE
  5
56C
100
AcDbEntity
  8
RACCORDO
100
AcDbSpline
 62
253
  6
CONTINUOUS
 70
0
 71
3
 72
11
 73
7
 74
5
 42
0.0000001
 43
0.0000001
 44
0.0000000001
 12
0.0014412722
 22
0.4537898865
 32
0.0
 13
0.4537903904
 23
0.0012727786
 33
0.0
 40
0.0
 40
0.0
 40
0.0
 40
0.0
 40
0.2427003815
 40
0.4898849008
 40
0.742986262
 40
1.0
 40
1.0
 40
1.0
 40
1.0
 10
-7.2164749565
 20
-18.8121652449
 30
0.0
 10
-7.2163583574
 20
-18.7754535854
 30
0.0
 10
-7.2001871602
 20
-18.7005388548
 30
0.0
 10
-7.1327034578
 20
-18.6070207703
 30
0.0
 10
-7.033248463
 20
-18.5449224327
 30
0.0
 10
-6.9553631677
 20
-18.5303664992
 30
0.0
 10
-6.9164863796
 20
-18.5302574587
 30
0.0
 11
-7.2164749565
 21
-18.8121652449
 31
0.0
 11
-7.1933832446
 21
-18.7044776937
 31
0.0
 11
-7.1282944854
 21
-18.6131231523
 31
0.0
 11
-7.0310807145
 21
-18.551957397
 31
0.0
 11
-6.9164863796
 21
-18.5302574587
 31
0.0
  0
SPLINE
  5
56D
100
AcDbEntity
  8
RACCORDO
100
AcDbSpline
 62
7
  6
CONTINUOUS
 70
0
 71
3
 72
11
 73
7
 74
5
 42
0.0000001
 43
0.0000001
 44
0.0000000001
 12
0.48168513
 22
0.0091852592
 32
0.0
 13
-0.0001208415
 23
-0.4817726838
 33
0.0
 40
0.0
 40
0.0
 40
0.0
 40
0.0
 40
0.2496414202
 40
0.499526866
 40
0.7496851961
 40
1.0
 40
1.0
 40
1.0
 40
1.0
 10
-6.7283138838
 20
-11.9727036537
 30
0.0
 10
-6.6882310305
 20
-11.9719393134
 30
0.0
 10
-6.6065936448
 20
-11.9883556811
 30
0.0
 10
-6.5067596729
 20
-12.0616186311
 30
0.0
 10
-6.4432856913
 20
-12.167405331
 30
0.0
 10
-6.429133639
 20
-12.2485466763
 30
0.0
 10
-6.4291437218
 20
-12.2887449546
 30
0.0
 11
-6.7283138838
 21
-11.9727036537
 31
0.0
 11
-6.6104089501
 21
-11.9964397174
 31
0.0
 11
-6.5128619587
 21
-12.0669936086
 31
0.0
 11
-6.4503404567
 21
-12.1700275862
 31
0.0
 11
-6.4291437218
 21
-12.2887449546
 31
0.0
  0
SPLINE
  5
56E
100
AcDbEntity
  8
RACCORDO
100
AcDbSpline
 62
253
  6
CONTINUOUS
 70
0
 71
3
 72
11
 73
7
 74
5
 42
0.0000001
 43
0.0000001
 44
0.0000000001
 12
-0.001441271
 22
0.4537898933
 32
0.0
 13
-0.4537903973
 23
0.0012727389
 33
0.0
 40
0.0
 40
0.0
 40
0.0
 40
0.0
 40
0.2427003568
 40
0.4898848526
 40
0.742986232
 40
1.0
 40
1.0
 40
1.0
 40
1.0
 10
-6.5855549364
 20
-18.8121652449
 30
0.0
 10
-6.5856715354
 20
-18.7754535886
 30
0.0
 10
-6.6018427251
 20
-18.7005388639
 30
0.0
 10
-6.6693264172
 20
-18.6070207752
 30
0.0
 10
-6.7687814148
 20
-18.5449224297
 30
0.0
 10
-6.8466667201
 20
-18.5303664965
 30
0.0
 10
-6.8855435134
 20
-18.5302574593
 30
0.0
 11
-6.5855549364
 21
-18.8121652449
 31
0.0
 11
-6.6086466402
 21
-18.7044777017
 31
0.0
 11
-6.6737353861
 21
-18.6131231619
 31
0.0
 11
-6.7709491626
 21
-18.5519573966
 31
0.0
 11
-6.8855435134
 21
-18.5302574593
 31
0.0
  0
SPLINE
  5
56F
100
AcDbEntity
  8
RACCORDO
100
AcDbSpline
 62
253
  6
CONTINUOUS
 70
0
 71
3
 72
9
 73
5
 74
3
 42
0.0000001
 43
0.0000001
 44
0.0000000001
 12
0.004526582
 22
0.4697531102
 32
0.0
 13
-0.0000016877
 23
0.469774919
 33
0.0
 40
0.0
 40
0.0
 40
0.0
 40
0.0
 40
0.389621807
 40
1.0
 40
1.0
 40
1.0
 40
1.0
 10
-6.9164863796
 20
18.5302574587
 30
0.0
 10
-6.9158984945
 20
18.5912661439
 30
0.0
 10
-6.9155631593
 20
18.7478595137
 30
0.0
 10
-6.9153376467
 20
18.9044501883
 30
0.0
 10
-6.9153379901
 20
19.0000303104
 30
0.0
 11
-6.9164863796
 21
18.5302574587
 31
0.0
 11
-6.9156538584
 21
18.7132901182
 31
0.0
 11
-6.9153379901
 21
19.0000303104
 31
0.0
  0
SPLINE
  5
570
100
AcDbEntity
  8
RACCORDO
100
AcDbSpline
 62
253
  6
CONTINUOUS
 70
0
 71
3
 72
9
 73
5
 74
3
 42
0.0000001
 43
0.0000001
 44
0.0000000001
 12
-0.0000016877
 22
-0.469774919
 32
0.0
 13
0.004526582
 23
-0.4697531102
 33
0.0
 40
0.0
 40
0.0
 40
0.0
 40
0.0
 40
0.610378193
 40
1.0
 40
1.0
 40
1.0
 40
1.0
 10
-6.8866919028
 20
19.0000303104
 30
0.0
 10
-6.8866922462
 20
18.9044501883
 30
0.0
 10
-6.8864667336
 20
18.7478595137
 30
0.0
 10
-6.8861313984
 20
18.5912661439
 30
0.0
 10
-6.8855435134
 20
18.5302574587
 30
0.0
 11
-6.8866919028
 21
19.0000303104
 31
0.0
 11
-6.8863760346
 21
18.7132901182
 31
0.0
 11
-6.8855435134
 21
18.5302574587
 31
0.0
  0
SPLINE
  5
571
100
AcDbEntity
  8
RACCORDO
100
AcDbSpline
 62
253
  6
CONTINUOUS
 70
0
 71
3
 72
9
 73
5
 74
3
 42
0.0000001
 43
0.0000001
 44
0.0000000001
 12
-0.0000016877
 22
-0.469774919
 32
0.0
 13
0.004526582
 23
-0.4697531102
 33
0.0
 40
0.0
 40
0.0
 40
0.0
 40
0.0
 40
0.610378193
 40
1.0
 40
1.0
 40
1.0
 40
1.0
 10
6.9153379901
 20
19.0000303104
 30
0.0
 10
6.9153376467
 20
18.9044501883
 30
0.0
 10
6.9155631593
 20
18.7478595137
 30
0.0
 10
6.9158984945
 20
18.5912661439
 30
0.0
 10
6.9164863796
 20
18.5302574587
 30
0.0
 11
6.9153379901
 21
19.0000303104
 31
0.0
 11
6.9156538584
 21
18.7132901182
 31
0.0
 11
6.9164863796
 21
18.5302574587
 31
0.0
  0
SPLINE
  5
572
100
AcDbEntity
  8
RACCORDO
100
AcDbSpline
 62
253
  6
CONTINUOUS
 70
0
 71
3
 72
9
 73
5
 74
3
 42
0.0000001
 43
0.0000001
 44
0.0000000001
 12
0.004526582
 22
0.4697531102
 32
0.0
 13
-0.0000016877
 23
0.469774919
 33
0.0
 40
0.0
 40
0.0
 40
0.0
 40
0.0
 40
0.389621807
 40
1.0
 40
1.0
 40
1.0
 40
1.0
 10
6.8835136204
 20
18.5302574587
 30
0.0
 10
6.8841015055
 20
18.5912661439
 30
0.0
 10
6.8844368407
 20
18.7478595137
 30
0.0
 10
6.8846623533
 20
18.9044501883
 30
0.0
 10
6.8846620099
 20
19.0000303104
 30
0.0
 11
6.8835136204
 21
18.5302574587
 31
0.0
 11
6.8843461416
 21
18.7132901182
 31
0.0
 11
6.8846620099
 21
19.0000303104
 31
0.0
  0
SPLINE
  5
573
100
AcDbEntity
  8
RACCORDO
100
AcDbSpline
 62
253
  6
CONTINUOUS
 70
0
 71
3
 72
9
 73
5
 74
3
 42
0.0000001
 43
0.0000001
 44
0.0000000001
 12
0.0000003739
 22
0.4698236316
 32
0.0
 13
-0.0045101161
 23
0.4698019834
 33
0.0
 40
0.0
 40
0.0
 40
0.0
 40
0.0
 40
0.6103452467
 40
1.0
 40
1.0
 40
1.0
 40
1.0
 10
6.8846620411
 20
-19.0001037691
 30
0.0
 10
6.8846621172
 20
-18.9045188957
 30
0.0
 10
6.8844389951
 20
-18.7479119668
 30
0.0
 10
6.884099641
 20
-18.5913023966
 30
0.0
 10
6.8835138449
 20
-18.5302822046
 30
0.0
 11
6.8846620411
 21
-19.0001037691
 31
0.0
 11
6.8843464552
 21
-18.7133493224
 31
0.0
 11
6.8835138449
 21
-18.5302822046
 31
0.0
  0
SPLINE
  5
574
100
AcDbEntity
  8
RACCORDO
100
AcDbSpline
 62
253
  6
CONTINUOUS
 70
0
 71
3
 72
9
 73
5
 74
3
 42
0.0000001
 43
0.0000001
 44
0.0000000001
 12
-0.0045101161
 22
-0.4698019835
 32
0.0
 13
0.0000003739
 23
-0.4698236316
 33
0.0
 40
0.0
 40
0.0
 40
0.0
 40
0.0
 40
0.3896547533
 40
1.0
 40
1.0
 40
1.0
 40
1.0
 10
6.9164861551
 20
-18.5302822046
 30
0.0
 10
6.915900359
 20
-18.5913023965
 30
0.0
 10
6.9155610049
 20
-18.7479119668
 30
0.0
 10
6.9153378828
 20
-18.9045188957
 30
0.0
 10
6.9153379589
 20
-19.0001037691
 30
0.0
 11
6.9164861551
 21
-18.5302822046
 31
0.0
 11
6.9156535448
 21
-18.7133493224
 31
0.0
 11
6.9153379589
 21
-19.0001037691
 31
0.0
  0
SPLINE
  5
575
100
AcDbEntity
  8
RACCORDO
100
AcDbSpline
 62
253
  6
CONTINUOUS
 70
0
 71
3
 72
9
 73
5
 74
3
 42
0.0000001
 43
0.0000001
 44
0.0000000001
 12
0.0000003739
 22
0.4698236316
 32
0.0
 13
-0.0045101161
 23
0.4698019834
 33
0.0
 40
0.0
 40
0.0
 40
0.0
 40
0.0
 40
0.6103452467
 40
1.0
 40
1.0
 40
1.0
 40
1.0
 10
-6.9153379589
 20
-19.0001037691
 30
0.0
 10
-6.9153378828
 20
-18.9045188957
 30
0.0
 10
-6.9155610049
 20
-18.7479119668
 30
0.0
 10
-6.915900359
 20
-18.5913023966
 30
0.0
 10
-6.9164861551
 20
-18.5302822046
 30
0.0
 11
-6.9153379589
 21
-19.0001037691
 31
0.0
 11
-6.9156535448
 21
-18.7133493224
 31
0.0
 11
-6.9164861551
 21
-18.5302822046
 31
0.0
  0
SPLINE
  5
576
100
AcDbEntity
  8
RACCORDO
100
AcDbSpline
 62
253
  6
CONTINUOUS
 70
0
 71
3
 72
9
 73
5
 74
3
 42
0.0000001
 43
0.0000001
 44
0.0000000001
 12
-0.0045101161
 22
-0.4698019835
 32
0.0
 13
0.0000003739
 23
-0.4698236316
 33
0.0
 40
0.0
 40
0.0
 40
0.0
 40
0.0
 40
0.3896547533
 40
1.0
 40
1.0
 40
1.0
 40
1.0
 10
-6.8855437378
 20
-18.5302822046
 30
0.0
 10
-6.8861295339
 20
-18.5913023965
 30
0.0
 10
-6.886468888
 20
-18.7479119668
 30
0.0
 10
-6.8866920101
 20
-18.9045188957
 30
0.0
 10
-6.886691934
 20
-19.0001037691
 30
0.0
 11
-6.8855437378
 21
-18.5302822046
 31
0.0
 11
-6.8863763482
 21
-18.7133493224
 31
0.0
 11
-6.886691934
 21
-19.0001037691
 31
0.0
  0
SPLINE
  5
577
100
AcDbEntity
  8
0
100
AcDbSpline
 62
253
  6
CONTINUOUS
 70
0
 71
3
 72
21
 73
17
 74
15
 42
0.0000001
 43
0.0000001
 44
0.0000000001
 12
-0.0000012325
 22
-0.7499863808
 32
0.0
 13
-0.3322042713
 23
-0.6723986121
 33
0.0
 40
0.0
 40
0.0
 40
0.0
 40
0.0
 40
0.1929371282
 40
0.378667002
 40
0.5501270664
 40
0.7009326565
 40
0.7667749775
 40
0.8253866968
 40
0.8762351023
 40
0.9188319936
 40
0.952779617
 40
0.9777576669
 40
0.9868000953
 40
0.9935251162
 40
0.9979238936
 40
1.0
 40
1.0
 40
1.0
 40
1.0
 10
2.6351059998
 20
-21.2252970227
 30
0.0
 10
2.6351059205
 20
-21.2735304288
 30
0.0
 10
2.635026982
 20
-21.3681954785
 30
0.0
 10
2.6346745702
 20
-21.5057243778
 30
0.0
 10
2.6341028526
 20
-21.6327197305
 30
0.0
 10
2.6334403343
 20
-21.7297428911
 30
0.0
 10
2.6327969291
 20
-21.7985534981
 30
0.0
 10
2.6322988145
 20
-21.8423757134
 30
0.0
 10
2.6317670658
 20
-21.8803850302
 30
0.0
 10
2.6312153759
 20
-21.9122296448
 30
0.0
 10
2.6306325941
 20
-21.9375989641
 30
0.0
 10
2.6301325644
 20
-21.9545927577
 30
0.0
 10
2.6296553819
 20
-21.9647559773
 30
0.0
 10
2.6293993086
 20
-21.9698120037
 30
0.0
 10
2.6290323071
 20
-21.9730542087
 30
0.0
 10
2.6289049747
 20
-21.9747174703
 30
0.0
 10
2.6286750776
 20
-21.975182794
 30
0.0
 11
2.6351059998
 21
-21.2252970227
 31
0.0
 11
2.6349829985
 21
-21.3699971889
 31
0.0
 11
2.6346186058
 21
-21.5092915881
 31
0.0
 11
2.6340265503
 21
-21.6378829383
 31
0.0
 11
2.6332291225
 21
-21.7509822659
 31
0.0
 11
2.6327624714
 21
-21.800360905
 31
0.0
 11
2.6322561805
 21
-21.8443159804
 31
0.0
 11
2.6317151454
 21
-21.882447754
 31
0.0
 11
2.6311444998
 21
-21.9143897454
 31
0.0
 11
2.630549492
 21
-21.939843047
 31
0.0
 11
2.6299354721
 21
-21.9585661787
 31
0.0
 11
2.6296231247
 21
-21.9653406801
 31
0.0
 11
2.6293083566
 21
-21.9703745224
 31
0.0
 11
2.6289920476
 21
-21.9736583468
 31
0.0
 11
2.6286750776
 21
-21.975182794
 31
0.0
  0
SPLINE
  5
578
100
AcDbEntity
  8
0
100
AcDbSpline
 62
253
  6
CONTINUOUS
 70
0
 71
3
 72
21
 73
17
 74
15
 42
0.0000001
 43
0.0000001
 44
0.0000000001
 12
0.3322042724
 22
-0.6723986115
 32
0.0
 13
0.0000012325
 23
-0.7499863808
 33
0.0
 40
0.0
 40
0.0
 40
0.0
 40
0.0
 40
0.0020761064
 40
0.0064748838
 40
0.0131999047
 40
0.0222423331
 40
0.047220383
 40
0.0811680064
 40
0.1237648977
 40
0.1746133032
 40
0.2332250225
 40
0.2990673435
 40
0.4498729336
 40
0.621332998
 40
0.8070628718
 40
1.0
 40
1.0
 40
1.0
 40
1.0
 10
2.6286750776
 20
21.975182794
 30
0.0
 10
2.6289049747
 20
21.9747174704
 30
0.0
 10
2.6290323071
 20
21.9730542087
 30
0.0
 10
2.6293993086
 20
21.9698120037
 30
0.0
 10
2.6296553819
 20
21.9647559773
 30
0.0
 10
2.6301325644
 20
21.9545927577
 30
0.0
 10
2.6306325941
 20
21.9375989641
 30
0.0
 10
2.6312153759
 20
21.9122296448
 30
0.0
 10
2.6317670658
 20
21.8803850302
 30
0.0
 10
2.6322988145
 20
21.8423757134
 30
0.0
 10
2.6327969291
 20
21.7985534981
 30
0.0
 10
2.6334403343
 20
21.7297428911
 30
0.0
 10
2.6341028526
 20
21.6327197305
 30
0.0
 10
2.6346745702
 20
21.5057243778
 30
0.0
 10
2.635026982
 20
21.3681954785
 30
0.0
 10
2.6351059205
 20
21.2735304288
 30
0.0
 10
2.6351059998
 20
21.2252970227
 30
0.0
 11
2.6286750776
 21
21.975182794
 31
0.0
 11
2.6289920476
 21
21.9736583468
 31
0.0
 11
2.6293083566
 21
21.9703745224
 31
0.0
 11
2.6296231247
 21
21.9653406801
 31
0.0
 11
2.6299354721
 21
21.9585661787
 31
0.0
 11
2.630549492
 21
21.939843047
 31
0.0
 11
2.6311444998
 21
21.9143897454
 31
0.0
 11
2.6317151454
 21
21.882447754
 31
0.0
 11
2.6322561805
 21
21.8443159804
 31
0.0
 11
2.6327624714
 21
21.800360905
 31
0.0
 11
2.6332291225
 21
21.7509822659
 31
0.0
 11
2.6340265503
 21
21.6378829383
 31
0.0
 11
2.6346186058
 21
21.5092915881
 31
0.0
 11
2.6349829985
 21
21.3699971889
 31
0.0
 11
2.6351059998
 21
21.2252970227
 31
0.0
  0
SPLINE
  5
579
100
AcDbEntity
  8
0
100
AcDbSpline
 62
253
  6
CONTINUOUS
 70
0
 71
3
 72
21
 73
17
 74
15
 42
0.0000001
 43
0.0000001
 44
0.0000000001
 12
-0.3322042724
 22
0.6723986115
 32
0.0
 13
-0.0000012325
 23
0.7499863808
 33
0.0
 40
0.0
 40
0.0
 40
0.0
 40
0.0
 40
0.0020761064
 40
0.0064748838
 40
0.0131999047
 40
0.0222423331
 40
0.047220383
 40
0.0811680064
 40
0.1237648977
 40
0.1746133032
 40
0.2332250225
 40
0.2990673435
 40
0.4498729336
 40
0.621332998
 40
0.8070628718
 40
1.0
 40
1.0
 40
1.0
 40
1.0
 10
-2.6286750776
 20
-21.975182794
 30
0.0
 10
-2.6289049747
 20
-21.9747174704
 30
0.0
 10
-2.6290323071
 20
-21.9730542087
 30
0.0
 10
-2.6293993086
 20
-21.9698120037
 30
0.0
 10
-2.6296553819
 20
-21.9647559773
 30
0.0
 10
-2.6301325644
 20
-21.9545927577
 30
0.0
 10
-2.6306325941
 20
-21.9375989641
 30
0.0
 10
-2.6312153759
 20
-21.9122296448
 30
0.0
 10
-2.6317670658
 20
-21.8803850302
 30
0.0
 10
-2.6322988145
 20
-21.8423757134
 30
0.0
 10
-2.6327969291
 20
-21.7985534981
 30
0.0
 10
-2.6334403343
 20
-21.7297428911
 30
0.0
 10
-2.6341028526
 20
-21.6327197305
 30
0.0
 10
-2.6346745702
 20
-21.5057243778
 30
0.0
 10
-2.635026982
 20
-21.3681954785
 30
0.0
 10
-2.6351059205
 20
-21.2735304288
 30
0.0
 10
-2.6351059998
 20
-21.2252970227
 30
0.0
 11
-2.6286750776
 21
-21.975182794
 31
0.0
 11
-2.6289920476
 21
-21.9736583468
 31
0.0
 11
-2.6293083566
 21
-21.9703745224
 31
0.0
 11
-2.6296231247
 21
-21.9653406801
 31
0.0
 11
-2.6299354721
 21
-21.9585661787
 31
0.0
 11
-2.630549492
 21
-21.939843047
 31
0.0
 11
-2.6311444998
 21
-21.9143897454
 31
0.0
 11
-2.6317151454
 21
-21.882447754
 31
0.0
 11
-2.6322561805
 21
-21.8443159804
 31
0.0
 11
-2.6327624714
 21
-21.800360905
 31
0.0
 11
-2.6332291225
 21
-21.7509822659
 31
0.0
 11
-2.6340265503
 21
-21.6378829383
 31
0.0
 11
-2.6346186058
 21
-21.5092915881
 31
0.0
 11
-2.6349829985
 21
-21.3699971889
 31
0.0
 11
-2.6351059998
 21
-21.2252970227
 31
0.0
  0
SPLINE
  5
57A
100
AcDbEntity
  8
0
100
AcDbSpline
 62
253
  6
CONTINUOUS
 70
0
 71
3
 72
21
 73
17
 74
15
 42
0.0000001
 43
0.0000001
 44
0.0000000001
 12
0.0000012325
 22
0.7499863808
 32
0.0
 13
0.3322042713
 23
0.6723986121
 33
0.0
 40
0.0
 40
0.0
 40
0.0
 40
0.0
 40
0.1929371282
 40
0.378667002
 40
0.5501270664
 40
0.7009326565
 40
0.7667749775
 40
0.8253866968
 40
0.8762351023
 40
0.9188319936
 40
0.952779617
 40
0.9777576669
 40
0.9868000953
 40
0.9935251162
 40
0.9979238936
 40
1.0
 40
1.0
 40
1.0
 40
1.0
 10
-2.6351059998
 20
21.2252970227
 30
0.0
 10
-2.6351059205
 20
21.2735304288
 30
0.0
 10
-2.635026982
 20
21.3681954785
 30
0.0
 10
-2.6346745702
 20
21.5057243778
 30
0.0
 10
-2.6341028526
 20
21.6327197305
 30
0.0
 10
-2.6334403343
 20
21.7297428911
 30
0.0
 10
-2.6327969291
 20
21.7985534981
 30
0.0
 10
-2.6322988145
 20
21.8423757134
 30
0.0
 10
-2.6317670658
 20
21.8803850302
 30
0.0
 10
-2.6312153759
 20
21.9122296448
 30
0.0
 10
-2.6306325941
 20
21.9375989641
 30
0.0
 10
-2.6301325644
 20
21.9545927577
 30
0.0
 10
-2.6296553819
 20
21.9647559773
 30
0.0
 10
-2.6293993086
 20
21.9698120037
 30
0.0
 10
-2.6290323071
 20
21.9730542087
 30
0.0
 10
-2.6289049747
 20
21.9747174704
 30
0.0
 10
-2.6286750776
 20
21.975182794
 30
0.0
 11
-2.6351059998
 21
21.2252970227
 31
0.0
 11
-2.6349829985
 21
21.3699971889
 31
0.0
 11
-2.6346186058
 21
21.5092915881
 31
0.0
 11
-2.6340265503
 21
21.6378829383
 31
0.0
 11
-2.6332291225
 21
21.7509822659
 31
0.0
 11
-2.6327624714
 21
21.800360905
 31
0.0
 11
-2.6322561805
 21
21.8443159804
 31
0.0
 11
-2.6317151454
 21
21.882447754
 31
0.0
 11
-2.6311444998
 21
21.9143897454
 31
0.0
 11
-2.630549492
 21
21.939843047
 31
0.0
 11
-2.6299354721
 21
21.9585661787
 31
0.0
 11
-2.6296231247
 21
21.9653406801
 31
0.0
 11
-2.6293083566
 21
21.9703745224
 31
0.0
 11
-2.6289920476
 21
21.9736583468
 31
0.0
 11
-2.6286750776
 21
21.975182794
 31
0.0
  0
SPLINE
  5
57B
100
AcDbEntity
  8
RACCORDO
100
AcDbSpline
 62
253
  6
CONTINUOUS
 70
0
 71
3
 72
9
 73
5
 74
3
 42
0.0000001
 43
0.0000001
 44
0.0000000001
 12
-0.0000005396
 22
-0.1879436932
 32
0.0
 13
0.0045064782
 23
-0.1878896577
 33
0.0
 40
0.0
 40
0.0
 40
0.0
 40
0.0
 40
0.6103592152
 40
1.0
 40
1.0
 40
1.0
 40
1.0
 10
-6.5867033571
 20
19.0001037691
 30
0.0
 10
-6.5867034669
 20
18.9618660474
 30
0.0
 10
-6.5864806386
 20
18.8992205112
 30
0.0
 10
-6.586140239
 20
18.8365684028
 30
0.0
 10
-6.5855549364
 20
18.8121652449
 30
0.0
 11
-6.5867033571
 21
19.0001037691
 31
0.0
 11
-6.5863876565
 21
18.8853910384
 31
0.0
 11
-6.5855549364
 21
18.8121652449
 31
0.0
  0
SPLINE
  5
57C
100
AcDbEntity
  8
RACCORDO
100
AcDbSpline
 62
253
  6
CONTINUOUS
 70
0
 71
3
 72
9
 73
5
 74
3
 42
0.0000001
 43
0.0000001
 44
0.0000000001
 12
-0.0045096198
 22
-0.1878895824
 32
0.0
 13
0.0000001722
 23
-0.1879436932
 33
0.0
 40
0.0
 40
0.0
 40
0.0
 40
0.0
 40
0.3896427716
 40
1.0
 40
1.0
 40
1.0
 40
1.0
 10
-6.5855549364
 20
-18.8121652449
 30
0.0
 10
-6.58614065
 20
-18.8365685175
 30
0.0
 10
-6.5864803429
 20
-18.8992206434
 30
0.0
 10
-6.5867033921
 20
-18.9618661719
 30
0.0
 10
-6.5867033571
 20
-19.0001037691
 30
0.0
 11
-6.5855549364
 21
-18.8121652449
 31
0.0
 11
-6.5863876587
 21
-18.8853914118
 31
0.0
 11
-6.5867033571
 21
-19.0001037691
 31
0.0
  0
SPLINE
  5
57D
100
AcDbEntity
  8
RACCORDO
100
AcDbSpline
 62
7
  6
CONTINUOUS
 70
0
 71
3
 72
9
 73
5
 74
3
 42
0.0000001
 43
0.0000001
 44
0.0000000001
 12
0.001916631
 22
7.6409183972
 32
0.0
 13
0.003110594
 23
7.6409180044
 33
0.0
 40
0.0
 40
0.0
 40
0.0
 40
0.0
 40
0.2500606442
 40
1.0
 40
1.0
 40
1.0
 40
1.0
 10
6.4271129453
 20
12.2887081019
 30
0.0
 10
6.4272727033
 20
12.9256057607
 30
0.0
 10
6.4279612901
 20
15.472578547
 30
0.0
 10
6.4288487361
 20
18.0195512796
 30
0.0
 10
6.4296263217
 20
19.9296263217
 30
0.0
 11
6.4271129453
 21
12.2887081019
 31
0.0
 11
6.427629515
 21
14.1994010685
 31
0.0
 11
6.4296263217
 21
19.9296263217
 31
0.0
  0
SPLINE
  5
57E
100
AcDbEntity
  8
RACCORDO
100
AcDbSpline
 62
253
  6
CONTINUOUS
 70
0
 71
3
 72
9
 73
5
 74
3
 42
0.0000001
 43
0.0000001
 44
0.0000000001
 12
0.0045064782
 22
0.1878896577
 32
0.0
 13
-0.0000005396
 23
0.1879436932
 33
0.0
 40
0.0
 40
0.0
 40
0.0
 40
0.0
 40
0.3896407848
 40
1.0
 40
1.0
 40
1.0
 40
1.0
 10
6.5835250435
 20
18.8121652449
 30
0.0
 10
6.5841103461
 20
18.8365684028
 30
0.0
 10
6.5844507457
 20
18.8992205112
 30
0.0
 10
6.584673574
 20
18.9618660474
 30
0.0
 10
6.5846734642
 20
19.0001037691
 30
0.0
 11
6.5835250435
 21
18.8121652449
 31
0.0
 11
6.5843577635
 21
18.8853910384
 31
0.0
 11
6.5846734642
 21
19.0001037691
 31
0.0
  0
SPLINE
  5
57F
100
AcDbEntity
  8
RACCORDO
100
AcDbSpline
 62
7
  6
CONTINUOUS
 70
0
 71
3
 72
9
 73
5
 74
3
 42
0.0000001
 43
0.0000001
 44
0.0000000001
 12
-0.003110594
 22
7.6409180044
 32
0.0
 13
-0.001916631
 23
7.6409183972
 33
0.0
 40
0.0
 40
0.0
 40
0.0
 40
0.0
 40
0.2499342833
 40
1.0
 40
1.0
 40
1.0
 40
1.0
 10
6.4296263217
 20
-19.9296263217
 30
0.0
 10
6.4293671737
 20
-19.2930505332
 30
0.0
 10
6.4283801117
 20
-16.746077845
 30
0.0
 10
6.4275921451
 20
-14.1991050797
 30
0.0
 10
6.4271129453
 20
-12.2887081019
 30
0.0
 11
6.4296263217
 21
-19.9296263217
 31
0.0
 11
6.4288862093
 21
-18.0198989414
 31
0.0
 11
6.4271129453
 21
-12.2887081019
 31
0.0
  0
SPLINE
  5
580
100
AcDbEntity
  8
RACCORDO
100
AcDbSpline
 62
253
  6
CONTINUOUS
 70
0
 71
3
 72
9
 73
5
 74
3
 42
0.0000001
 43
0.0000001
 44
0.0000000001
 12
0.0000001722
 22
0.1879436932
 32
0.0
 13
-0.0045096198
 23
0.1878895824
 33
0.0
 40
0.0
 40
0.0
 40
0.0
 40
0.0
 40
0.6103572284
 40
1.0
 40
1.0
 40
1.0
 40
1.0
 10
6.5846734642
 20
-19.0001037691
 30
0.0
 10
6.5846734992
 20
-18.9618661719
 30
0.0
 10
6.5844504499
 20
-18.8992206434
 30
0.0
 10
6.5841107571
 20
-18.8365685175
 30
0.0
 10
6.5835250435
 20
-18.8121652449
 30
0.0
 11
6.5846734642
 21
-19.0001037691
 31
0.0
 11
6.5843577658
 21
-18.8853914118
 31
0.0
 11
6.5835250435
 21
-18.8121652449
 31
0.0
  0
SPLINE
  5
581
100
AcDbEntity
  8
0
100
AcDbSpline
 62
253
  6
CONTINUOUS
 70
0
 71
3
 72
14
 73
10
 74
8
 42
0.0000001
 43
0.0000001
 44
0.0000000001
 12
-0.0000000203
 22
0.0500143983
 32
0.0
 13
0.0353703802
 23
0.0353606595
 33
0.0
 40
0.0
 40
0.0
 40
0.0
 40
0.0
 40
0.3784780211
 40
0.5499153469
 40
0.7006964619
 40
0.8251532518
 40
0.9186155577
 40
0.9775909287
 40
1.0
 40
1.0
 40
1.0
 40
1.0
 10
-7.2140249785
 20
24.2368706193
 30
0.0
 10
-7.2140249811
 20
24.2431804028
 30
0.0
 10
-7.2140004536
 20
24.2523510272
 30
0.0
 10
-7.2138852553
 20
24.2640257364
 30
0.0
 10
-7.2138079839
 20
24.2714872873
 30
0.0
 10
-7.2136161456
 20
24.27758952
 30
0.0
 10
-7.2136473315
 20
24.2823089904
 30
0.0
 10
-7.2131957107
 20
24.2850233649
 30
0.0
 10
-7.2134316627
 20
24.2865988709
 30
0.0
 10
-7.2131674569
 20
24.2868630041
 30
0.0
 11
-7.2140249785
 21
24.2368706193
 31
0.0
 11
-7.213960012
 21
24.2557998583
 31
0.0
 11
-7.2138810761
 21
24.2643738297
 31
0.0
 11
-7.2137747412
 21
24.2719143067
 31
0.0
 11
-7.2136450075
 21
24.2781375861
 31
0.0
 11
-7.2134967497
 21
24.2828096954
 31
0.0
 11
-7.2133355514
 21
24.285754905
 31
0.0
 11
-7.2131674569
 21
24.2868630041
 31
0.0
  0
SPLINE
  5
582
100
AcDbEntity
  8
0
100
AcDbSpline
 62
253
  6
CONTINUOUS
 70
0
 71
3
 72
29
 73
25
 74
23
 42
0.0000001
 43
0.0000001
 44
0.0000000001
 12
0.7263583892
 22
-0.2593445438
 32
0.0
 13
0.7271099964
 23
0.2572297712
 33
0.0
 40
0.0
 40
0.0
 40
0.0
 40
0.0
 40
0.0032179334
 40
0.0111037242
 40
0.0235808853
 40
0.0405568207
 40
0.061856361
 40
0.0872674045
 40
0.1494958333
 40
0.2248813731
 40
0.3106157828
 40
0.4034610831
 40
0.4999353888
 40
0.5964121872
 40
0.6892647352
 40
0.7750110185
 40
0.850413202
 40
0.9126602499
 40
0.9380808928
 40
0.9593917734
 40
0.9763823864
 40
0.9888767887
 40
0.9967768829
 40
1.0
 40
1.0
 40
1.0
 40
1.0
 10
-4.3518840226
 20
23.6519220988
 30
0.0
 10
-4.3511048983
 20
23.6516439143
 30
0.0
 10
-4.3481684923
 20
23.6517775732
 30
0.0
 10
-4.3421822413
 20
23.6513246894
 30
0.0
 10
-4.3325462021
 20
23.6512524891
 30
0.0
 10
-4.3195162475
 20
23.6509884274
 30
0.0
 10
-4.303138163
 20
23.6508088207
 30
0.0
 10
-4.2751351899
 20
23.6505241103
 30
0.0
 10
-4.2332223457
 20
23.6502372817
 30
0.0
 10
-4.1758031272
 20
23.649957762
 30
0.0
 10
-4.110511341
 20
23.6497522438
 30
0.0
 10
-4.0397979482
 20
23.6496243194
 30
0.0
 10
-3.9663226121
 20
23.649581034
 30
0.0
 10
-3.892845413
 20
23.6496239558
 30
0.0
 10
-3.8221264616
 20
23.6497515729
 30
0.0
 10
-3.7568254838
 20
23.649956869
 30
0.0
 10
-3.699394134
 20
23.6502362193
 30
0.0
 10
-3.6574697843
 20
23.650522861
 30
0.0
 10
-3.629456591
 20
23.6508072777
 30
0.0
 10
-3.613069452
 20
23.6509871158
 30
0.0
 10
-3.6000281162
 20
23.6512513621
 30
0.0
 10
-3.590380816
 20
23.6513253656
 30
0.0
 10
-3.5843840353
 20
23.6517775988
 30
0.0
 10
-3.5814439
 20
23.6516451211
 30
0.0
 10
-3.5806627131
 20
23.6519214817
 30
0.0
 11
-4.3518840226
 21
23.6519220988
 31
0.0
 11
-4.3494127961
 21
23.6516922484
 31
0.0
 11
-4.3433349529
 21
23.6514656152
 31
0.0
 11
-4.3337142577
 21
23.6512439079
 31
0.0
 11
-4.3206230085
 21
23.6510288629
 31
0.0
 11
-4.3041966274
 21
23.6508224232
 31
0.0
 11
-4.2845988515
 21
23.6506266247
 31
0.0
 11
-4.2366052742
 21
23.650274723
 31
0.0
 11
-4.1784634483
 21
23.6499863128
 31
0.0
 11
-4.1123394898
 21
23.6497721635
 31
0.0
 11
-4.0407308953
 21
23.6496402878
 31
0.0
 11
-3.966323253
 21
23.6495955842
 31
0.0
 11
-3.8919136879
 21
23.6496399248
 31
0.0
 11
-3.8202995029
 21
23.649771491
 31
0.0
 11
-3.7541663859
 21
23.6499854062
 31
0.0
 11
-3.6960117221
 21
23.6502736235
 31
0.0
 11
-3.6480037821
 21
23.6506252526
 31
0.0
 11
-3.6283986011
 21
23.6508209404
 31
0.0
 11
-3.6119634746
 21
23.6510275278
 31
0.0
 11
-3.5988609138
 21
23.6512431999
 31
0.0
 11
-3.58922694
 21
23.6514658777
 31
0.0
 11
-3.5831380714
 21
23.6516928893
 31
0.0
 11
-3.5806627131
 21
23.6519214817
 31
0.0
  0
SPLINE
  5
583
100
AcDbEntity
  8
0
100
AcDbSpline
 62
253
  6
CONTINUOUS
 70
0
 71
3
 72
29
 73
25
 74
23
 42
0.0000001
 43
0.0000001
 44
0.0000000001
 12
-0.727109997
 22
0.2572297694
 32
0.0
 13
-0.7263583895
 23
-0.2593445431
 33
0.0
 40
0.0
 40
0.0
 40
0.0
 40
0.0
 40
0.0032231171
 40
0.0111232113
 40
0.0236176136
 40
0.0406082266
 40
0.0619191072
 40
0.0873397501
 40
0.149586798
 40
0.2249889815
 40
0.3107352647
 40
0.4035878127
 40
0.5000646111
 40
0.5965389168
 40
0.6893842172
 40
0.7751186269
 40
0.8505041667
 40
0.9127325955
 40
0.938143639
 40
0.9594431793
 40
0.9764191147
 40
0.9888962758
 40
0.9967820666
 40
1.0
 40
1.0
 40
1.0
 40
1.0
 10
-3.5806627131
 20
-23.6519214817
 30
0.0
 10
-3.5814439
 20
-23.6516451211
 30
0.0
 10
-3.5843840353
 20
-23.6517775988
 30
0.0
 10
-3.590380816
 20
-23.6513253656
 30
0.0
 10
-3.6000281162
 20
-23.6512513621
 30
0.0
 10
-3.613069452
 20
-23.6509871158
 30
0.0
 10
-3.629456591
 20
-23.6508072777
 30
0.0
 10
-3.6574697843
 20
-23.650522861
 30
0.0
 10
-3.699394134
 20
-23.6502362193
 30
0.0
 10
-3.7568254838
 20
-23.649956869
 30
0.0
 10
-3.8221264616
 20
-23.6497515729
 30
0.0
 10
-3.8928454129
 20
-23.6496239558
 30
0.0
 10
-3.9663226121
 20
-23.649581034
 30
0.0
 10
-4.0397979481
 20
-23.6496243194
 30
0.0
 10
-4.110511341
 20
-23.6497522438
 30
0.0
 10
-4.1758031271
 20
-23.649957762
 30
0.0
 10
-4.2332223457
 20
-23.6502372817
 30
0.0
 10
-4.2751351899
 20
-23.6505241103
 30
0.0
 10
-4.303138163
 20
-23.6508088207
 30
0.0
 10
-4.3195162475
 20
-23.6509884274
 30
0.0
 10
-4.3325462021
 20
-23.6512524891
 30
0.0
 10
-4.3421822413
 20
-23.6513246894
 30
0.0
 10
-4.3481684923
 20
-23.6517775732
 30
0.0
 10
-4.3511048983
 20
-23.6516439143
 30
0.0
 10
-4.3518840226
 20
-23.6519220988
 30
0.0
 11
-3.5806627131
 21
-23.6519214817
 31
0.0
 11
-3.5831380714
 21
-23.6516928893
 31
0.0
 11
-3.5892269399
 21
-23.6514658777
 31
0.0
 11
-3.5988609138
 21
-23.6512431999
 31
0.0
 11
-3.6119634746
 21
-23.6510275278
 31
0.0
 11
-3.628398601
 21
-23.6508209404
 31
0.0
 11
-3.6480037821
 21
-23.6506252526
 31
0.0
 11
-3.6960117221
 21
-23.6502736235
 31
0.0
 11
-3.7541663859
 21
-23.6499854062
 31
0.0
 11
-3.8202995029
 21
-23.649771491
 31
0.0
 11
-3.8919136879
 21
-23.6496399248
 31
0.0
 11
-3.9663232529
 21
-23.6495955842
 31
0.0
 11
-4.0407308953
 21
-23.6496402878
 31
0.0
 11
-4.1123394898
 21
-23.6497721635
 31
0.0
 11
-4.1784634483
 21
-23.6499863128
 31
0.0
 11
-4.2366052742
 21
-23.650274723
 31
0.0
 11
-4.2845988515
 21
-23.6506266247
 31
0.0
 11
-4.3041966274
 21
-23.6508224232
 31
0.0
 11
-4.3206230085
 21
-23.6510288629
 31
0.0
 11
-4.3337142577
 21
-23.6512439079
 31
0.0
 11
-4.3433349528
 21
-23.6514656152
 31
0.0
 11
-4.3494127961
 21
-23.6516922484
 31
0.0
 11
-4.3518840226
 21
-23.6519220988
 31
0.0
  0
SPLINE
  5
584
100
AcDbEntity
  8
0
100
AcDbSpline
 62
253
  6
CONTINUOUS
 70
0
 71
3
 72
29
 73
25
 74
23
 42
0.0000001
 43
0.0000001
 44
0.0000000001
 12
0.7263583892
 22
-0.2593445438
 32
0.0
 13
0.7271099964
 23
0.2572297712
 33
0.0
 40
0.0
 40
0.0
 40
0.0
 40
0.0
 40
0.0032179334
 40
0.0111037242
 40
0.0235808853
 40
0.0405568207
 40
0.061856361
 40
0.0872674045
 40
0.1494958333
 40
0.2248813731
 40
0.3106157828
 40
0.4034610831
 40
0.4999353888
 40
0.5964121872
 40
0.6892647352
 40
0.7750110185
 40
0.850413202
 40
0.9126602499
 40
0.9380808928
 40
0.9593917734
 40
0.9763823864
 40
0.9888767887
 40
0.9967768829
 40
1.0
 40
1.0
 40
1.0
 40
1.0
 10
3.5806609125
 20
23.6519220988
 30
0.0
 10
3.5814400368
 20
23.6516439143
 30
0.0
 10
3.5843764427
 20
23.6517775732
 30
0.0
 10
3.5903626937
 20
23.6513246894
 30
0.0
 10
3.599998733
 20
23.6512524891
 30
0.0
 10
3.6130286875
 20
23.6509884274
 30
0.0
 10
3.6294067721
 20
23.6508088207
 30
0.0
 10
3.6574097452
 20
23.6505241103
 30
0.0
 10
3.6993225893
 20
23.6502372817
 30
0.0
 10
3.7567418079
 20
23.649957762
 30
0.0
 10
3.8220335941
 20
23.6497522438
 30
0.0
 10
3.8927469869
 20
23.6496243194
 30
0.0
 10
3.966222323
 20
23.649581034
 30
0.0
 10
4.0396995221
 20
23.6496239558
 30
0.0
 10
4.1104184735
 20
23.6497515729
 30
0.0
 10
4.1757194512
 20
23.649956869
 30
0.0
 10
4.2331508011
 20
23.6502362193
 30
0.0
 10
4.2750751508
 20
23.650522861
 30
0.0
 10
4.3030883441
 20
23.6508072777
 30
0.0
 10
4.319475483
 20
23.6509871158
 30
0.0
 10
4.3325168189
 20
23.6512513621
 30
0.0
 10
4.3421641191
 20
23.6513253656
 30
0.0
 10
4.3481608997
 20
23.6517775988
 30
0.0
 10
4.3511010351
 20
23.6516451211
 30
0.0
 10
4.351882222
 20
23.6519214817
 30
0.0
 11
3.5806609125
 21
23.6519220988
 31
0.0
 11
3.583132139
 21
23.6516922484
 31
0.0
 11
3.5892099822
 21
23.6514656152
 31
0.0
 11
3.5988306774
 21
23.6512439079
 31
0.0
 11
3.6119219266
 21
23.6510288629
 31
0.0
 11
3.6283483077
 21
23.6508224232
 31
0.0
 11
3.6479460836
 21
23.6506266247
 31
0.0
 11
3.6959396609
 21
23.650274723
 31
0.0
 11
3.7540814868
 21
23.6499863128
 31
0.0
 11
3.8202054453
 21
23.6497721635
 31
0.0
 11
3.8918140398
 21
23.6496402878
 31
0.0
 11
3.9662216821
 21
23.6495955842
 31
0.0
 11
4.0406312472
 21
23.6496399248
 31
0.0
 11
4.1122454321
 21
23.649771491
 31
0.0
 11
4.1783785492
 21
23.6499854062
 31
0.0
 11
4.236533213
 21
23.6502736235
 31
0.0
 11
4.284541153
 21
23.6506252526
 31
0.0
 11
4.304146334
 21
23.6508209404
 31
0.0
 11
4.3205814605
 21
23.6510275278
 31
0.0
 11
4.3336840212
 21
23.6512431999
 31
0.0
 11
4.3433179951
 21
23.6514658777
 31
0.0
 11
4.3494068637
 21
23.6516928893
 31
0.0
 11
4.351882222
 21
23.6519214817
 31
0.0
  0
SPLINE
  5
585
100
AcDbEntity
  8
0
100
AcDbSpline
 62
253
  6
CONTINUOUS
 70
0
 71
3
 72
29
 73
25
 74
23
 42
0.0000001
 43
0.0000001
 44
0.0000000001
 12
-0.727109997
 22
0.2572297694
 32
0.0
 13
-0.7263583895
 23
-0.2593445431
 33
0.0
 40
0.0
 40
0.0
 40
0.0
 40
0.0
 40
0.0032231171
 40
0.0111232113
 40
0.0236176136
 40
0.0406082266
 40
0.0619191072
 40
0.0873397501
 40
0.149586798
 40
0.2249889815
 40
0.3107352647
 40
0.4035878127
 40
0.5000646111
 40
0.5965389168
 40
0.6893842172
 40
0.7751186269
 40
0.8505041667
 40
0.9127325955
 40
0.938143639
 40
0.9594431793
 40
0.9764191147
 40
0.9888962758
 40
0.9967820666
 40
1.0
 40
1.0
 40
1.0
 40
1.0
 10
4.351882222
 20
-23.6519214817
 30
0.0
 10
4.3511010351
 20
-23.6516451211
 30
0.0
 10
4.3481608997
 20
-23.6517775988
 30
0.0
 10
4.3421641191
 20
-23.6513253656
 30
0.0
 10
4.3325168189
 20
-23.6512513621
 30
0.0
 10
4.319475483
 20
-23.6509871158
 30
0.0
 10
4.3030883441
 20
-23.6508072777
 30
0.0
 10
4.2750751508
 20
-23.650522861
 30
0.0
 10
4.2331508011
 20
-23.6502362193
 30
0.0
 10
4.1757194513
 20
-23.649956869
 30
0.0
 10
4.1104184735
 20
-23.6497515729
 30
0.0
 10
4.0396995221
 20
-23.6496239558
 30
0.0
 10
3.966222323
 20
-23.649581034
 30
0.0
 10
3.8927469869
 20
-23.6496243194
 30
0.0
 10
3.8220335941
 20
-23.6497522438
 30
0.0
 10
3.7567418079
 20
-23.649957762
 30
0.0
 10
3.6993225893
 20
-23.6502372817
 30
0.0
 10
3.6574097452
 20
-23.6505241103
 30
0.0
 10
3.6294067721
 20
-23.6508088207
 30
0.0
 10
3.6130286875
 20
-23.6509884274
 30
0.0
 10
3.599998733
 20
-23.6512524891
 30
0.0
 10
3.5903626937
 20
-23.6513246894
 30
0.0
 10
3.5843764427
 20
-23.6517775732
 30
0.0
 10
3.5814400368
 20
-23.6516439143
 30
0.0
 10
3.5806609125
 20
-23.6519220988
 30
0.0
 11
4.351882222
 21
-23.6519214817
 31
0.0
 11
4.3494068637
 21
-23.6516928893
 31
0.0
 11
4.3433179951
 21
-23.6514658777
 31
0.0
 11
4.3336840213
 21
-23.6512431999
 31
0.0
 11
4.3205814605
 21
-23.6510275278
 31
0.0
 11
4.304146334
 21
-23.6508209404
 31
0.0
 11
4.284541153
 21
-23.6506252526
 31
0.0
 11
4.236533213
 21
-23.6502736235
 31
0.0
 11
4.1783785492
 21
-23.6499854062
 31
0.0
 11
4.1122454322
 21
-23.649771491
 31
0.0
 11
4.0406312472
 21
-23.6496399248
 31
0.0
 11
3.9662216821
 21
-23.6495955842
 31
0.0
 11
3.8918140398
 21
-23.6496402878
 31
0.0
 11
3.8202054453
 21
-23.6497721635
 31
0.0
 11
3.7540814868
 21
-23.6499863128
 31
0.0
 11
3.6959396609
 21
-23.650274723
 31
0.0
 11
3.6479460836
 21
-23.6506266247
 31
0.0
 11
3.6283483077
 21
-23.6508224232
 31
0.0
 11
3.6119219266
 21
-23.6510288629
 31
0.0
 11
3.5988306774
 21
-23.6512439079
 31
0.0
 11
3.5892099822
 21
-23.6514656152
 31
0.0
 11
3.583132139
 21
-23.6516922484
 31
0.0
 11
3.5806609125
 21
-23.6519220988
 31
0.0
  0
SPLINE
  5
586
100
AcDbEntity
  8
0
100
AcDbSpline
 62
253
  6
CONTINUOUS
 70
0
 71
3
 72
21
 73
17
 74
15
 42
0.0000001
 43
0.0000001
 44
0.0000000001
 12
0.0000017991
 22
0.9999233193
 32
0.0
 13
0.3493460799
 23
0.9369119281
 33
0.0
 40
0.0
 40
0.0
 40
0.0
 40
0.0
 40
0.1929492424
 40
0.3786907806
 40
0.5501571062
 40
0.7009672482
 40
0.7668124905
 40
0.8254280196
 40
0.8762789659
 40
0.9188741767
 40
0.9528173782
 40
0.9777920672
 40
0.9868332511
 40
0.9935550849
 40
0.9979456172
 40
1.0
 40
1.0
 40
1.0
 40
1.0
 10
-2.8850964806
 20
21.2252970227
 30
0.0
 10
-2.8850963648
 20
21.289608505
 30
0.0
 10
-2.885017461
 20
21.4158290992
 30
0.0
 10
-2.884665085
 20
21.5992004624
 30
0.0
 10
-2.8840933472
 20
21.7685258935
 30
0.0
 10
-2.8834308525
 20
21.8978883273
 30
0.0
 10
-2.8827874221
 20
21.9896359664
 30
0.0
 10
-2.8822893409
 20
22.0480667933
 30
0.0
 10
-2.8817574022
 20
22.098746892
 30
0.0
 10
-2.8812062018
 20
22.141204643
 30
0.0
 10
-2.8806220981
 20
22.1750311627
 30
0.0
 10
-2.8801249242
 20
22.1976849519
 30
0.0
 10
-2.8796438709
 20
22.2112446031
 30
0.0
 10
-2.8793948843
 20
22.2179751779
 30
0.0
 10
-2.879014647
 20
22.2223159522
 30
0.0
 10
-2.8789047885
 20
22.2245031259
 30
0.0
 10
-2.8786655583
 20
22.2251447178
 30
0.0
 11
-2.8850964806
 21
21.2252970227
 31
0.0
 11
-2.8849734751
 21
21.4182314304
 31
0.0
 11
-2.8846091063
 21
21.6039583684
 31
0.0
 11
-2.8840170513
 21
21.7754105236
 31
0.0
 11
-2.8832196342
 21
21.9262069931
 31
0.0
 11
-2.8827529776
 21
21.9920455325
 31
0.0
 11
-2.8822466579
 21
22.0506543799
 31
0.0
 11
-2.8817055901
 21
22.1014985481
 31
0.0
 11
-2.8811349364
 21
22.1440866696
 31
0.0
 11
-2.8805399523
 21
22.1780220528
 31
0.0
 11
-2.8799259761
 21
22.2029872781
 31
0.0
 11
-2.8796136517
 21
22.2120223721
 31
0.0
 11
-2.879298895
 21
22.2187363164
 31
0.0
 11
-2.8789825744
 21
22.2231151015
 31
0.0
 11
-2.8786655583
 21
22.2251447178
 31
0.0
  0
SPLINE
  5
587
100
AcDbEntity
  8
0
100
AcDbSpline
 62
253
  6
CONTINUOUS
 70
0
 71
3
 72
21
 73
17
 74
15
 42
0.0000001
 43
0.0000001
 44
0.0000000001
 12
0.3493460813
 22
-0.9369119276
 32
0.0
 13
0.0000017991
 23
-0.9999233193
 33
0.0
 40
0.0
 40
0.0
 40
0.0
 40
0.0
 40
0.0020543828
 40
0.0064449151
 40
0.0131667489
 40
0.0222079328
 40
0.0471826218
 40
0.0811258233
 40
0.1237210341
 40
0.1745719804
 40
0.2331875095
 40
0.2990327518
 40
0.4498428938
 40
0.6213092194
 40
0.8070507576
 40
1.0
 40
1.0
 40
1.0
 40
1.0
 10
2.8786655583
 20
22.2251447178
 30
0.0
 10
2.8789047885
 20
22.2245031259
 30
0.0
 10
2.879014647
 20
22.2223159522
 30
0.0
 10
2.8793948843
 20
22.2179751779
 30
0.0
 10
2.8796438709
 20
22.2112446031
 30
0.0
 10
2.8801249242
 20
22.1976849519
 30
0.0
 10
2.8806220981
 20
22.1750311627
 30
0.0
 10
2.8812062018
 20
22.141204643
 30
0.0
 10
2.8817574022
 20
22.098746892
 30
0.0
 10
2.8822893409
 20
22.0480667933
 30
0.0
 10
2.8827874221
 20
21.9896359664
 30
0.0
 10
2.8834308525
 20
21.8978883273
 30
0.0
 10
2.8840933472
 20
21.7685258935
 30
0.0
 10
2.884665085
 20
21.5992004624
 30
0.0
 10
2.885017461
 20
21.4158290992
 30
0.0
 10
2.8850963648
 20
21.289608505
 30
0.0
 10
2.8850964806
 20
21.2252970227
 30
0.0
 11
2.8786655583
 21
22.2251447178
 31
0.0
 11
2.8789825744
 21
22.2231151015
 31
0.0
 11
2.879298895
 21
22.2187363164
 31
0.0
 11
2.8796136517
 21
22.2120223721
 31
0.0
 11
2.8799259761
 21
22.2029872781
 31
0.0
 11
2.8805399523
 21
22.1780220528
 31
0.0
 11
2.8811349364
 21
22.1440866696
 31
0.0
 11
2.8817055901
 21
22.1014985481
 31
0.0
 11
2.8822466579
 21
22.0506543799
 31
0.0
 11
2.8827529776
 21
21.9920455325
 31
0.0
 11
2.8832196342
 21
21.9262069931
 31
0.0
 11
2.8840170513
 21
21.7754105236
 31
0.0
 11
2.8846091063
 21
21.6039583684
 31
0.0
 11
2.8849734751
 21
21.4182314304
 31
0.0
 11
2.8850964806
 21
21.2252970227
 31
0.0
  0
SPLINE
  5
588
100
AcDbEntity
  8
0
100
AcDbSpline
 62
253
  6
CONTINUOUS
 70
0
 71
3
 72
21
 73
17
 74
15
 42
0.0000001
 43
0.0000001
 44
0.0000000001
 12
-0.0000017991
 22
-0.9999233193
 32
0.0
 13
-0.3493460799
 23
-0.9369119281
 33
0.0
 40
0.0
 40
0.0
 40
0.0
 40
0.0
 40
0.1929492424
 40
0.3786907806
 40
0.5501571062
 40
0.7009672482
 40
0.7668124905
 40
0.8254280196
 40
0.8762789659
 40
0.9188741767
 40
0.9528173782
 40
0.9777920672
 40
0.9868332511
 40
0.9935550849
 40
0.9979456172
 40
1.0
 40
1.0
 40
1.0
 40
1.0
 10
2.8850964806
 20
-21.2252970227
 30
0.0
 10
2.8850963648
 20
-21.289608505
 30
0.0
 10
2.885017461
 20
-21.4158290992
 30
0.0
 10
2.884665085
 20
-21.5992004624
 30
0.0
 10
2.8840933472
 20
-21.7685258935
 30
0.0
 10
2.8834308525
 20
-21.8978883273
 30
0.0
 10
2.8827874221
 20
-21.9896359664
 30
0.0
 10
2.8822893409
 20
-22.0480667933
 30
0.0
 10
2.8817574022
 20
-22.098746892
 30
0.0
 10
2.8812062018
 20
-22.141204643
 30
0.0
 10
2.8806220981
 20
-22.1750311627
 30
0.0
 10
2.8801249242
 20
-22.1976849519
 30
0.0
 10
2.8796438709
 20
-22.2112446031
 30
0.0
 10
2.8793948843
 20
-22.2179751779
 30
0.0
 10
2.879014647
 20
-22.2223159522
 30
0.0
 10
2.8789047885
 20
-22.2245031259
 30
0.0
 10
2.8786655583
 20
-22.2251447178
 30
0.0
 11
2.8850964806
 21
-21.2252970227
 31
0.0
 11
2.8849734751
 21
-21.4182314304
 31
0.0
 11
2.8846091063
 21
-21.6039583684
 31
0.0
 11
2.8840170513
 21
-21.7754105236
 31
0.0
 11
2.8832196342
 21
-21.9262069931
 31
0.0
 11
2.8827529776
 21
-21.9920455325
 31
0.0
 11
2.8822466579
 21
-22.0506543799
 31
0.0
 11
2.8817055901
 21
-22.1014985481
 31
0.0
 11
2.8811349364
 21
-22.1440866696
 31
0.0
 11
2.8805399523
 21
-22.1780220528
 31
0.0
 11
2.8799259761
 21
-22.2029872781
 31
0.0
 11
2.8796136517
 21
-22.2120223721
 31
0.0
 11
2.879298895
 21
-22.2187363164
 31
0.0
 11
2.8789825744
 21
-22.2231151015
 31
0.0
 11
2.8786655583
 21
-22.2251447178
 31
0.0
  0
SPLINE
  5
589
100
AcDbEntity
  8
0
100
AcDbSpline
 62
253
  6
CONTINUOUS
 70
0
 71
3
 72
21
 73
17
 74
15
 42
0.0000001
 43
0.0000001
 44
0.0000000001
 12
-0.3493460813
 22
0.9369119276
 32
0.0
 13
-0.0000017991
 23
0.9999233193
 33
0.0
 40
0.0
 40
0.0
 40
0.0
 40
0.0
 40
0.0020543828
 40
0.0064449151
 40
0.0131667489
 40
0.0222079328
 40
0.0471826218
 40
0.0811258233
 40
0.1237210341
 40
0.1745719804
 40
0.2331875095
 40
0.2990327518
 40
0.4498428938
 40
0.6213092194
 40
0.8070507576
 40
1.0
 40
1.0
 40
1.0
 40
1.0
 10
-2.8786655583
 20
-22.2251447178
 30
0.0
 10
-2.8789047885
 20
-22.2245031259
 30
0.0
 10
-2.879014647
 20
-22.2223159522
 30
0.0
 10
-2.8793948843
 20
-22.2179751779
 30
0.0
 10
-2.8796438709
 20
-22.2112446031
 30
0.0
 10
-2.8801249242
 20
-22.1976849519
 30
0.0
 10
-2.8806220981
 20
-22.1750311627
 30
0.0
 10
-2.8812062018
 20
-22.141204643
 30
0.0
 10
-2.8817574022
 20
-22.098746892
 30
0.0
 10
-2.8822893409
 20
-22.0480667933
 30
0.0
 10
-2.8827874221
 20
-21.9896359664
 30
0.0
 10
-2.8834308525
 20
-21.8978883273
 30
0.0
 10
-2.8840933472
 20
-21.7685258935
 30
0.0
 10
-2.884665085
 20
-21.5992004624
 30
0.0
 10
-2.885017461
 20
-21.4158290992
 30
0.0
 10
-2.8850963648
 20
-21.289608505
 30
0.0
 10
-2.8850964806
 20
-21.2252970227
 30
0.0
 11
-2.8786655583
 21
-22.2251447178
 31
0.0
 11
-2.8789825744
 21
-22.2231151015
 31
0.0
 11
-2.879298895
 21
-22.2187363164
 31
0.0
 11
-2.8796136517
 21
-22.2120223721
 31
0.0
 11
-2.8799259761
 21
-22.2029872781
 31
0.0
 11
-2.8805399523
 21
-22.1780220528
 31
0.0
 11
-2.8811349364
 21
-22.1440866696
 31
0.0
 11
-2.8817055901
 21
-22.1014985481
 31
0.0
 11
-2.8822466579
 21
-22.0506543799
 31
0.0
 11
-2.8827529776
 21
-21.9920455325
 31
0.0
 11
-2.8832196342
 21
-21.9262069931
 31
0.0
 11
-2.8840170513
 21
-21.7754105236
 31
0.0
 11
-2.8846091063
 21
-21.6039583684
 31
0.0
 11
-2.8849734751
 21
-21.4182314304
 31
0.0
 11
-2.8850964806
 21
-21.2252970227
 31
0.0
  0
SPLINE
  5
58A
100
AcDbEntity
  8
0
100
AcDbSpline
 62
253
  6
CONTINUOUS
 70
0
 71
3
 72
11
 73
7
 74
5
 42
0.0000001
 43
0.0000001
 44
0.0000000001
 12
0.0029298744
 22
-0.2908179843
 32
0.0
 13
0.2908244364
 23
-0.0021980406
 33
0.0
 40
0.0
 40
0.0
 40
0.0
 40
0.0
 40
0.2330683041
 40
0.4768288064
 40
0.7340987915
 40
1.0
 40
1.0
 40
1.0
 40
1.0
 10
-10.5864113981
 20
23.8010362971
 30
0.0
 10
-10.5861837778
 20
23.7784428123
 30
0.0
 10
-10.5747821307
 20
23.7317691306
 30
0.0
 10
-10.5292239105
 20
23.674634778
 30
0.0
 10
-10.4633039672
 20
23.636974425
 30
0.0
 10
-10.4122187154
 20
23.6280260394
 30
0.0
 10
-10.386441859
 20
23.6278312189
 30
0.0
 11
-10.5864113981
 21
23.8010362971
 31
0.0
 11
-10.570691861
 21
23.7351003247
 31
0.0
 11
-10.5272287738
 21
23.6790927054
 31
0.0
 11
-10.4625665866
 21
23.6414468114
 31
0.0
 11
-10.386441859
 21
23.6278312189
 31
0.0
  0
SPLINE
  5
58B
100
AcDbEntity
  8
0
100
AcDbSpline
 62
253
  6
CONTINUOUS
 70
0
 71
3
 72
11
 73
7
 74
5
 42
0.0000001
 43
0.0000001
 44
0.0000000001
 12
-0.290824418
 22
0.002198128
 32
0.0
 13
-0.0029298796
 23
0.2908179665
 33
0.0
 40
0.0
 40
0.0
 40
0.0
 40
0.0
 40
0.2659011522
 40
0.5231711191
 40
0.7669316794
 40
1.0
 40
1.0
 40
1.0
 40
1.0
 10
7.4135581409
 20
23.6278312164
 30
0.0
 10
7.3877812917
 20
23.6280260446
 30
0.0
 10
7.336696053
 20
23.6369744364
 30
0.0
 10
7.2707761173
 20
23.6746347862
 30
0.0
 10
7.2252178837
 20
23.7317691273
 30
0.0
 10
7.2138162226
 20
23.7784428121
 30
0.0
 10
7.2135886019
 20
23.8010362971
 30
0.0
 11
7.4135581409
 21
23.6278312164
 31
0.0
 11
7.3374334365
 21
23.6414468187
 31
0.0
 11
7.2727712571
 21
23.6790927066
 31
0.0
 11
7.2293081507
 21
23.7351003269
 31
0.0
 11
7.2135886019
 21
23.8010362971
 31
0.0
  0
SPLINE
  5
58C
100
AcDbEntity
  8
0
100
AcDbSpline
 62
253
  6
CONTINUOUS
 70
0
 71
3
 72
11
 73
7
 74
5
 42
0.0000001
 43
0.0000001
 44
0.0000000001
 12
0.290824418
 22
0.0021981279
 32
0.0
 13
0.0029298796
 23
0.2908179665
 33
0.0
 40
0.0
 40
0.0
 40
0.0
 40
0.0
 40
0.2659011524
 40
0.5231711195
 40
0.7669316796
 40
1.0
 40
1.0
 40
1.0
 40
1.0
 10
-7.4135581409
 20
23.6278312164
 30
0.0
 10
-7.3877812916
 20
23.6280260446
 30
0.0
 10
-7.336696053
 20
23.6369744365
 30
0.0
 10
-7.2707761173
 20
23.6746347863
 30
0.0
 10
-7.2252178837
 20
23.7317691274
 30
0.0
 10
-7.2138162226
 20
23.7784428121
 30
0.0
 10
-7.2135886019
 20
23.8010362971
 30
0.0
 11
-7.4135581409
 21
23.6278312164
 31
0.0
 11
-7.3374334365
 21
23.6414468187
 31
0.0
 11
-7.272771257
 21
23.6790927066
 31
0.0
 11
-7.2293081507
 21
23.7351003269
 31
0.0
 11
-7.2135886019
 21
23.8010362971
 31
0.0
  0
SPLINE
  5
58D
100
AcDbEntity
  8
0
100
AcDbSpline
 62
253
  6
CONTINUOUS
 70
0
 71
3
 72
11
 73
7
 74
5
 42
0.0000001
 43
0.0000001
 44
0.0000000001
 12
-0.0029298796
 22
-0.290817965
 32
0.0
 13
-0.2908244163
 23
-0.0021981479
 33
0.0
 40
0.0
 40
0.0
 40
0.0
 40
0.0
 40
0.2330683208
 40
0.4768288792
 40
0.7340988449
 40
1.0
 40
1.0
 40
1.0
 40
1.0
 10
10.5864113981
 20
23.8010362971
 30
0.0
 10
10.5861837774
 20
23.7784428122
 30
0.0
 10
10.5747821164
 20
23.7317691278
 30
0.0
 10
10.5292238826
 20
23.6746347873
 30
0.0
 10
10.4633039461
 20
23.6369744404
 30
0.0
 10
10.4122187085
 20
23.6280260464
 30
0.0
 10
10.3864418591
 20
23.6278312164
 30
0.0
 11
10.5864113981
 21
23.8010362971
 31
0.0
 11
10.5706918493
 21
23.7351003272
 31
0.0
 11
10.5272287429
 21
23.6790927081
 31
0.0
 11
10.4625665634
 21
23.6414468218
 31
0.0
 11
10.3864418591
 21
23.6278312164
 31
0.0
  0
SPLINE
  5
58E
100
AcDbEntity
  8
0
100
AcDbSpline
 62
253
  6
CONTINUOUS
 70
0
 71
3
 72
11
 73
7
 74
5
 42
0.0000001
 43
0.0000001
 44
0.0000000001
 12
0.0029298796
 22
0.2908179665
 32
0.0
 13
0.2908244179
 23
0.0021981283
 33
0.0
 40
0.0
 40
0.0
 40
0.0
 40
0.0
 40
0.2330683206
 40
0.4768288809
 40
0.7340988478
 40
1.0
 40
1.0
 40
1.0
 40
1.0
 10
-10.5864113981
 20
-23.8010362971
 30
0.0
 10
-10.5861837774
 20
-23.7784428121
 30
0.0
 10
-10.5747821163
 20
-23.7317691273
 30
0.0
 10
-10.5292238827
 20
-23.6746347862
 30
0.0
 10
-10.463303947
 20
-23.6369744365
 30
0.0
 10
-10.4122187083
 20
-23.6280260446
 30
0.0
 10
-10.3864418591
 20
-23.6278312163
 30
0.0
 11
-10.5864113981
 21
-23.8010362971
 31
0.0
 11
-10.5706918493
 21
-23.7351003269
 31
0.0
 11
-10.5272287429
 21
-23.6790927066
 31
0.0
 11
-10.4625665635
 21
-23.6414468188
 31
0.0
 11
-10.3864418591
 21
-23.6278312163
 31
0.0
  0
SPLINE
  5
58F
100
AcDbEntity
  8
0
100
AcDbSpline
 62
253
  6
CONTINUOUS
 70
0
 71
3
 72
11
 73
7
 74
5
 42
0.0000001
 43
0.0000001
 44
0.0000000001
 12
0.290824418
 22
-0.002198128
 32
0.0
 13
0.0029298796
 23
-0.2908179665
 33
0.0
 40
0.0
 40
0.0
 40
0.0
 40
0.0
 40
0.2659011522
 40
0.5231711191
 40
0.7669316794
 40
1.0
 40
1.0
 40
1.0
 40
1.0
 10
-7.4135581409
 20
-23.6278312163
 30
0.0
 10
-7.3877812917
 20
-23.6280260446
 30
0.0
 10
-7.336696053
 20
-23.6369744364
 30
0.0
 10
-7.2707761173
 20
-23.6746347862
 30
0.0
 10
-7.2252178837
 20
-23.7317691273
 30
0.0
 10
-7.2138162226
 20
-23.7784428121
 30
0.0
 10
-7.2135886019
 20
-23.8010362971
 30
0.0
 11
-7.4135581409
 21
-23.6278312163
 31
0.0
 11
-7.3374334365
 21
-23.6414468187
 31
0.0
 11
-7.2727712571
 21
-23.6790927066
 31
0.0
 11
-7.2293081507
 21
-23.7351003269
 31
0.0
 11
-7.2135886019
 21
-23.8010362971
 31
0.0
  0
SPLINE
  5
590
100
AcDbEntity
  8
0
100
AcDbSpline
 62
253
  6
CONTINUOUS
 70
0
 71
3
 72
11
 73
7
 74
5
 42
0.0000001
 43
0.0000001
 44
0.0000000001
 12
-0.290824418
 22
-0.0021981279
 32
0.0
 13
-0.0029298796
 23
-0.2908179665
 33
0.0
 40
0.0
 40
0.0
 40
0.0
 40
0.0
 40
0.2659011537
 40
0.5231711216
 40
0.7669316808
 40
1.0
 40
1.0
 40
1.0
 40
1.0
 10
7.4135581409
 20
-23.6278312163
 30
0.0
 10
7.3877812915
 20
-23.6280260446
 30
0.0
 10
7.3366960526
 20
-23.6369744366
 30
0.0
 10
7.2707761169
 20
-23.6746347866
 30
0.0
 10
7.2252178835
 20
-23.7317691277
 30
0.0
 10
7.2138162226
 20
-23.7784428122
 30
0.0
 10
7.2135886019
 20
-23.8010362971
 30
0.0
 11
7.4135581409
 21
-23.6278312163
 31
0.0
 11
7.3374334361
 21
-23.6414468189
 31
0.0
 11
7.2727712565
 21
-23.6790927071
 31
0.0
 11
7.2293081505
 21
-23.7351003272
 31
0.0
 11
7.2135886019
 21
-23.8010362971
 31
0.0
  0
SPLINE
  5
591
100
AcDbEntity
  8
0
100
AcDbSpline
 62
253
  6
CONTINUOUS
 70
0
 71
3
 72
11
 73
7
 74
5
 42
0.0000001
 43
0.0000001
 44
0.0000000001
 12
-0.0029298877
 22
0.290817936
 32
0.0
 13
-0.2908243864
 23
0.0021982718
 33
0.0
 40
0.0
 40
0.0
 40
0.0
 40
0.0
 40
0.2330682335
 40
0.4768287988
 40
0.7340988118
 40
1.0
 40
1.0
 40
1.0
 40
1.0
 10
10.5864113981
 20
-23.8010362971
 30
0.0
 10
10.5861837769
 20
-23.7784428229
 30
0.0
 10
10.5747821072
 20
-23.7317691528
 30
0.0
 10
10.5292238729
 20
-23.6746348299
 30
0.0
 10
10.4633039456
 20
-23.6369744694
 30
0.0
 10
10.412218709
 20
-23.6280260574
 30
0.0
 10
10.3864418591
 20
-23.6278312164
 30
0.0
 11
10.5864113981
 21
-23.8010362971
 31
0.0
 11
10.5706918472
 21
-23.7351003607
 31
0.0
 11
10.5272287389
 21
-23.6790927495
 31
0.0
 11
10.4625665606
 21
-23.6414468486
 31
0.0
 11
10.3864418591
 21
-23.6278312164
 31
0.0
  0
LINE
  5
592
100
AcDbEntity
  8
0
100
AcDbLine
 62
7
  6
CONTINUOUS
 10
-9.2533769702
 20
-23.6278312163
 11
-9.0368706193
 21
-23.8443375673
  0
SPLINE
  5
593
100
AcDbEntity
  8
0
100
AcDbSpline
 62
253
  6
CONTINUOUS
 70
0
 71
3
 72
9
 73
5
 74
3
 42
0.0000001
 43
0.0000001
 44
0.0000000001
 12
0.0000041288
 22
0.2164298683
 32
0.0
 13
-0.0012987802
 23
0.2164259713
 33
0.0
 40
0.0
 40
0.0
 40
0.0
 40
0.0
 40
0.2987119025
 40
1.0
 40
1.0
 40
1.0
 40
1.0
 10
-10.3860055349
 20
-23.844250724
 30
0.0
 10
-10.3860051238
 20
-23.8227006648
 30
0.0
 10
-10.3860484515
 20
-23.750557468
 30
0.0
 10
-10.3861383046
 20
-23.6784137267
 30
0.0
 10
-10.386441911
 20
-23.6278214075
 30
0.0
 11
-10.3860055349
 21
-23.844250724
 31
0.0
 11
-10.3860351602
 21
-23.7796005531
 31
0.0
 11
-10.386441911
 21
-23.6278214075
 31
0.0
  0
SPLINE
  5
594
100
AcDbEntity
  8
0
100
AcDbSpline
 62
253
  6
CONTINUOUS
 70
0
 71
3
 72
14
 73
10
 74
8
 42
0.0000001
 43
0.0000001
 44
0.0000000001
 12
0.049114046
 22
0.245093826
 32
0.0
 13
0.0000001694
 23
0.2499663439
 33
0.0
 40
0.0
 40
0.0
 40
0.0
 40
0.0
 40
0.0221565314
 40
0.0810451339
 40
0.1744731537
 40
0.2989362923
 40
0.4497544396
 40
0.6212615068
 40
1.0
 40
1.0
 40
1.0
 40
1.0
 10
-10.3868630041
 20
-24.4868325431
 30
0.0
 10
-10.3865002717
 20
-24.4850224001
 30
0.0
 10
-10.3869606059
 20
-24.4781936441
 30
0.0
 10
-10.3863079196
 20
-24.4637251477
 30
0.0
 10
-10.3864468351
 20
-24.4406271906
 30
0.0
 10
-10.3862105132
 20
-24.4099208368
 30
0.0
 10
-10.3861491412
 20
-24.3726882444
 30
0.0
 10
-10.3860272632
 20
-24.3142764744
 30
0.0
 10
-10.3860055038
 20
-24.2684279114
 30
0.0
 10
-10.3860054824
 20
-24.2368706193
 30
0.0
 11
-10.3868630041
 21
-24.4868325431
 31
0.0
 11
-10.386694904
 21
-24.4812967076
 31
0.0
 11
-10.3865337259
 21
-24.4665774214
 31
0.0
 11
-10.3863854759
 21
-24.4432240314
 31
0.0
 11
-10.3862557436
 21
-24.4121127062
 31
0.0
 11
-10.3861494084
 21
-24.3744133953
 31
0.0
 11
-10.3860704693
 21
-24.3315424734
 31
0.0
 11
-10.3860054824
 21
-24.2368706193
 31
0.0
  0
SPLINE
  5
595
100
AcDbEntity
  8
0
100
AcDbSpline
 62
253
  6
CONTINUOUS
 70
0
 71
3
 72
14
 73
10
 74
8
 42
0.0000001
 43
0.0000001
 44
0.0000000001
 12
-0.0490895383
 22
0.2450986842
 32
0.0
 13
0.0000000528
 23
0.2499662933
 33
0.0
 40
0.0
 40
0.0
 40
0.0
 40
0.0
 40
0.0221590326
 40
0.0810497444
 40
0.174478782
 40
0.2989411458
 40
0.4497578551
 40
0.6212639873
 40
1.0
 40
1.0
 40
1.0
 40
1.0
 10
-7.4131370059
 20
-24.486832493
 30
0.0
 10
-7.4134995982
 20
-24.4850221097
 30
0.0
 10
-7.4130396215
 20
-24.4781930473
 30
0.0
 10
-7.4136919389
 20
-24.4637240131
 30
0.0
 10
-7.4135532036
 20
-24.440625904
 30
0.0
 10
-7.413789428
 20
-24.4099196393
 30
0.0
 10
-7.4138508162
 20
-24.3726873227
 30
0.0
 10
-7.4139726972
 20
-24.3142759664
 30
0.0
 10
-7.4139945242
 20
-24.2684276984
 30
0.0
 10
-7.4139945176
 20
-24.2368706193
 30
0.0
 11
-7.4131370059
 21
-24.486832493
 31
0.0
 11
-7.4133051147
 21
-24.4812960333
 31
0.0
 11
-7.4134662747
 21
-24.4665762226
 31
0.0
 11
-7.4136145057
 21
-24.4432225828
 31
0.0
 11
-7.4137442219
 21
-24.4121114575
 31
0.0
 11
-7.4138505459
 21
-24.3744125136
 31
0.0
 11
-7.4139294966
 21
-24.3315418342
 31
0.0
 11
-7.4139945176
 21
-24.2368706193
 31
0.0
  0
SPLINE
  5
596
100
AcDbEntity
  8
0
100
AcDbSpline
 62
253
  6
CONTINUOUS
 70
0
 71
3
 72
14
 73
10
 74
8
 42
0.0000001
 43
0.0000001
 44
0.0000000001
 12
0.0000000316
 22
-0.2499663453
 32
0.0
 13
-0.0490876294
 23
-0.2450991195
 33
0.0
 40
0.0
 40
0.0
 40
0.0
 40
0.0
 40
0.3786066962
 40
0.5501057471
 40
0.7009402767
 40
0.825433203
 40
0.9188999329
 40
0.9778256633
 40
1.0
 40
1.0
 40
1.0
 40
1.0
 10
7.4139945176
 20
-24.2368706193
 30
0.0
 10
7.4139945215
 20
-24.26841693
 30
0.0
 10
7.4139727085
 20
-24.3142538419
 30
0.0
 10
7.4138509229
 20
-24.3726553316
 30
0.0
 10
7.4137895178
 20
-24.409891096
 30
0.0
 10
7.4135533789
 20
-24.44060454
 30
0.0
 10
7.4136920266
 20
-24.4637112645
 30
0.0
 10
7.4130396942
 20
-24.4781876106
 30
0.0
 10
7.4134998245
 20
-24.4850209063
 30
0.0
 10
7.4131369959
 20
-24.4868325431
 30
0.0
 11
7.4139945176
 21
-24.2368706193
 31
0.0
 11
7.4139295549
 21
-24.3315095291
 31
0.0
 11
7.4138506467
 21
-24.3743784475
 31
0.0
 11
7.4137443439
 21
-24.4120818537
 31
0.0
 11
7.4136146489
 21
-24.4432006253
 31
0.0
 11
7.4134663983
 21
-24.4665636918
 31
0.0
 11
7.4133052621
 21
-24.4812922598
 31
0.0
 11
7.4131369959
 21
-24.4868325431
 31
0.0
  0
SPLINE
  5
597
100
AcDbEntity
  8
0
100
AcDbSpline
 62
253
  6
CONTINUOUS
 70
0
 71
3
 72
14
 73
10
 74
8
 42
0.0000001
 43
0.0000001
 44
0.0000000001
 12
-0.0000000677
 22
-0.2499663444
 32
0.0
 13
0.0491135085
 23
-0.2450939342
 33
0.0
 40
0.0
 40
0.0
 40
0.0
 40
0.0
 40
0.378639668
 40
0.5501399824
 40
0.7009674195
 40
0.8254504889
 40
0.91890819
 40
0.9778278202
 40
1.0
 40
1.0
 40
1.0
 40
1.0
 10
10.3860054824
 20
-24.2368706193
 30
0.0
 10
10.3860054739
 20
-24.2684196772
 30
0.0
 10
10.3860272974
 20
-24.3142594426
 30
0.0
 10
10.386149122
 20
-24.3726631909
 30
0.0
 10
10.3862104998
 20
-24.4098976543
 30
0.0
 10
10.3864467422
 20
-24.4406089172
 30
0.0
 10
10.3863078655
 20
-24.4637135986
 30
0.0
 10
10.386960603
 20
-24.478188432
 30
0.0
 10
10.3865000195
 20
-24.4850211208
 30
0.0
 10
10.3868630041
 20
-24.4868325431
 30
0.0
 11
10.3860054824
 21
-24.2368706193
 31
0.0
 11
10.386070468
 21
-24.3315177706
 31
0.0
 11
10.386149391
 21
-24.3743870046
 31
0.0
 11
10.3862557028
 21
-24.4120886378
 31
0.0
 11
10.3863854024
 21
-24.4432049453
 31
0.0
 11
10.3865336465
 21
-24.4665657548
 31
0.0
 11
10.3866947825
 21
-24.4812927979
 31
0.0
 11
10.3868630041
 21
-24.4868325431
 31
0.0
  0
LINE
  5
598
100
AcDbEntity
  8
0
100
AcDbLine
 62
7
  6
CONTINUOUS
 10
8.5466230298
 20
-23.6278312163
 11
8.7631293807
 21
-23.8443375673
  0
SPLINE
  5
599
100
AcDbEntity
  8
0
100
AcDbSpline
 62
253
  6
CONTINUOUS
 70
0
 71
3
 72
9
 73
5
 74
3
 42
0.0000001
 43
0.0000001
 44
0.0000000001
 12
0.0000000894
 22
-0.2165058795
 32
0.0
 13
-0.0013063451
 23
-0.2165019383
 33
0.0
 40
0.0
 40
0.0
 40
0.0
 40
0.0
 40
0.2987948397
 40
1.0
 40
1.0
 40
1.0
 40
1.0
 10
7.4139945176
 20
23.8443375673
 30
0.0
 10
7.4139945265
 20
23.8227739541
 30
0.0
 10
7.4139514468
 20
23.7506054227
 30
0.0
 10
7.4138634855
 20
23.6784363314
 30
0.0
 10
7.4135581468
 20
23.6278322393
 30
0.0
 11
7.4139945176
 21
23.8443375673
 31
0.0
 11
7.4139647755
 21
23.7796467346
 31
0.0
 11
7.4135581468
 21
23.6278322393
 31
0.0
  0
LINE
  5
59A
100
AcDbEntity
  8
0
100
AcDbLine
 62
7
  6
CONTINUOUS
 10
8.5466230298
 20
23.6278312164
 11
8.7631293807
 21
23.8443375673
  0
SPLINE
  5
59B
100
AcDbEntity
  8
0
100
AcDbSpline
 62
253
  6
CONTINUOUS
 70
0
 71
3
 72
14
 73
10
 74
8
 42
0.0000001
 43
0.0000001
 44
0.0000000001
 12
0.0491604488
 22
-0.24508452
 32
0.0
 13
-0.000000147
 23
-0.2499663411
 33
0.0
 40
0.0
 40
0.0
 40
0.0
 40
0.0
 40
0.0221560382
 40
0.0810435912
 40
0.1744700487
 40
0.2989316111
 40
0.4497491635
 40
0.6212572333
 40
1.0
 40
1.0
 40
1.0
 40
1.0
 10
7.4131369959
 20
24.4868325431
 30
0.0
 10
7.4135000629
 20
24.4850225091
 30
0.0
 10
7.4130387693
 20
24.4781937216
 30
0.0
 10
7.4136922946
 20
24.4637256266
 30
0.0
 10
7.4135528884
 20
24.4406279425
 30
0.0
 10
7.4137894171
 20
24.4099219317
 30
0.0
 10
7.4138507262
 20
24.3726894257
 30
0.0
 10
7.4139726908
 20
24.3142772712
 30
0.0
 10
7.4139945361
 20
24.2684282672
 30
0.0
 10
7.4139945176
 20
24.2368706193
 30
0.0
 11
7.4131369959
 21
24.4868325431
 31
0.0
 11
7.4133050073
 21
24.4812968283
 31
0.0
 11
7.4134661721
 21
24.4665778045
 31
0.0
 11
7.413614396
 21
24.4432248051
 31
0.0
 11
7.4137441318
 21
24.4121138742
 31
0.0
 11
7.4138504802
 21
24.3744147125
 31
0.0
 11
7.4139294606
 21
24.3315435406
 31
0.0
 11
7.4139945176
 21
24.2368706193
 31
0.0
  0
SPLINE
  5
59C
100
AcDbEntity
  8
0
100
AcDbSpline
 62
253
  6
CONTINUOUS
 70
0
 71
3
 72
14
 73
10
 74
8
 42
0.0000001
 43
0.0000001
 44
0.0000000001
 12
-0.0491708119
 22
-0.2450824418
 32
0.0
 13
0.0000001167
 23
-0.2499663418
 33
0.0
 40
0.0
 40
0.0
 40
0.0
 40
0.0
 40
0.022160649
 40
0.0810578314
 40
0.1744935263
 40
0.2989595177
 40
0.4497755697
 40
0.6212777996
 40
1.0
 40
1.0
 40
1.0
 40
1.0
 10
10.3868630041
 20
24.4868325431
 30
0.0
 10
10.386499785
 20
24.4850221478
 30
0.0
 10
10.3869613093
 20
24.4781921258
 30
0.0
 10
10.386307597
 20
24.4637221138
 30
0.0
 10
10.3864470764
 20
24.4406224703
 30
0.0
 10
10.3862105355
 20
24.409915452
 30
0.0
 10
10.3861492427
 20
24.3726831866
 30
0.0
 10
10.3860272974
 20
24.3142733578
 30
0.0
 10
10.3860054677
 20
24.2684265536
 30
0.0
 10
10.3860054824
 20
24.2368706193
 30
0.0
 11
10.3868630041
 21
24.4868325431
 31
0.0
 11
10.3866949466
 21
24.4812956766
 31
0.0
 11
10.3865337753
 21
24.4665742456
 31
0.0
 11
10.3863855488
 21
24.4432189371
 31
0.0
 11
10.3862558217
 21
24.4121068991
 31
0.0
 11
10.3861494863
 21
24.3744081122
 31
0.0
 11
10.386070521
 21
24.3315383999
 31
0.0
 11
10.3860054824
 21
24.2368706193
 31
0.0
  0
LINE
  5
59D
100
AcDbEntity
  8
0
100
AcDbLine
 62
7
  6
CONTINUOUS
 10
-9.2533769702
 20
23.6278312164
 11
-9.0368706193
 21
23.8443375673
  0
SPLINE
  5
59E
100
AcDbEntity
  8
0
100
AcDbSpline
 62
253
  6
CONTINUOUS
 70
0
 71
3
 72
14
 73
10
 74
8
 42
0.0000001
 43
0.0000001
 44
0.0000000001
 12
0.0000001187
 22
0.249966339
 32
0.0
 13
-0.0492103035
 23
0.2450745124
 33
0.0
 40
0.0
 40
0.0
 40
0.0
 40
0.0
 40
0.3786102122
 40
0.550110195
 40
0.7009447699
 40
0.8254366722
 40
0.9189016359
 40
0.9778261742
 40
1.0
 40
1.0
 40
1.0
 40
1.0
 10
-10.3860054824
 20
24.2368706193
 30
0.0
 10
-10.3860054675
 20
24.2684172222
 30
0.0
 10
-10.3860272746
 20
24.3142545087
 30
0.0
 10
-10.3861492046
 20
24.3726563585
 30
0.0
 10
-10.3862104415
 20
24.4098921483
 30
0.0
 10
-10.3864471954
 20
24.4406052781
 30
0.0
 10
-10.3863072136
 20
24.4637118744
 30
0.0
 10
-10.3869620359
 20
24.4781875483
 30
0.0
 10
-10.3864992772
 20
24.4850211299
 30
0.0
 10
-10.3868630041
 20
24.4868325431
 30
0.0
 11
-10.3860054824
 21
24.2368706193
 31
0.0
 11
-10.3860704826
 21
24.3315104056
 31
0.0
 11
-10.3861494321
 21
24.3743795558
 31
0.0
 11
-10.3862557752
 21
24.4120829723
 31
0.0
 11
-10.386385516
 21
24.4432014869
 31
0.0
 11
-10.3865337696
 21
24.4665641113
 31
0.0
 11
-10.3866949937
 21
24.48129238
 31
0.0
 11
-10.3868630041
 21
24.4868325431
 31
0.0
  0
SPLINE
  5
59F
100
AcDbEntity
  8
0
100
AcDbSpline
 62
253
  6
CONTINUOUS
 70
0
 71
3
 72
14
 73
10
 74
8
 42
0.0000001
 43
0.0000001
 44
0.0000000001
 12
-0.000000161
 22
0.2499634559
 32
0.0
 13
0.0491541604
 23
0.2450828386
 33
0.0
 40
0.0
 40
0.0
 40
0.0
 40
0.0
 40
0.3786143138
 40
0.5501135625
 40
0.7009463438
 40
0.8254370374
 40
0.9189018018
 40
0.9778262026
 40
1.0
 40
1.0
 40
1.0
 40
1.0
 10
-7.4139945168
 20
24.2368735057
 30
0.0
 10
-7.4139945371
 20
24.2684200865
 30
0.0
 10
-7.4139726979
 20
24.3142571225
 30
0.0
 10
-7.413850825
 20
24.3726584357
 30
0.0
 10
-7.4137895065
 20
24.4098934707
 30
0.0
 10
-7.4135530605
 20
24.4406060187
 30
0.0
 10
-7.4136924003
 20
24.4637121256
 30
0.0
 10
-7.4130388175
 20
24.4781877786
 30
0.0
 10
-7.4135003074
 20
24.4850210707
 30
0.0
 10
-7.4131369959
 20
24.4868325431
 30
0.0
 11
-7.4139945168
 21
24.2368735057
 31
0.0
 11
-7.4139295136
 21
24.3315132257
 31
0.0
 11
-7.4138505748
 21
24.3743816979
 31
0.0
 11
-7.4137442524
 21
24.4120842312
 31
0.0
 11
-7.4136145416
 21
24.4432020849
 31
0.0
 11
-7.4134663042
 21
24.4665643901
 31
0.0
 11
-7.4133051467
 21
24.4812924553
 31
0.0
 11
-7.4131369959
 21
24.4868325431
 31
0.0
  0
LINE
  5
5A0
100
AcDbEntity
  8
0
100
AcDbLine
 62
7
  6
CONTINUOUS
 10
-8.5466230298
 20
-23.6278312163
 11
-8.7631293807
 21
-23.8443375673
  0
SPLINE
  5
5A1
100
AcDbEntity
  8
0
100
AcDbSpline
 62
253
  6
CONTINUOUS
 70
0
 71
3
 72
9
 73
5
 74
3
 42
0.0000001
 43
0.0000001
 44
0.0000000001
 12
-0.0000000798
 22
0.2165052525
 32
0.0
 13
0.0013107489
 23
0.2165012847
 33
0.0
 40
0.0
 40
0.0
 40
0.0
 40
0.0
 40
0.2988002074
 40
1.0
 40
1.0
 40
1.0
 40
1.0
 10
-7.4139945172
 20
-23.8443359174
 30
0.0
 10
-7.4139945251
 20
-23.8227719793
 30
0.0
 10
-7.4139512004
 20
-23.7506036582
 30
0.0
 10
-7.4138645065
 20
-23.6784347683
 30
0.0
 10
-7.4135581409
 20
-23.6278312163
 30
0.0
 11
-7.4139945172
 21
-23.8443359174
 31
0.0
 11
-7.4139647622
 21
-23.7796441099
 31
0.0
 11
-7.4135581409
 21
-23.6278312163
 31
0.0
  0
LINE
  5
5A2
100
AcDbEntity
  8
0
100
AcDbLine
 62
7
  6
CONTINUOUS
 10
9.2533769702
 20
-23.6278312163
 11
9.0368706193
 21
-23.8443375673
  0
LINE
  5
5A3
100
AcDbEntity
  8
0
100
AcDbLine
 62
7
  6
CONTINUOUS
 10
-8.5466230298
 20
23.6278312164
 11
-8.7631293807
 21
23.8443375673
  0
LINE
  5
5A4
100
AcDbEntity
  8
0
100
AcDbLine
 62
7
  6
CONTINUOUS
 10
9.2533769702
 20
23.6278312164
 11
9.0368706193
 21
23.8443375673
  0
SPLINE
  5
5A5
100
AcDbEntity
  8
0
100
AcDbSpline
 62
253
  6
CONTINUOUS
 70
0
 71
3
 72
9
 73
5
 74
3
 42
0.0000001
 43
0.0000001
 44
0.0000000001
 12
0.0000009928
 22
-0.2164846565
 32
0.0
 13
0.0013081016
 23
-0.2164807044
 33
0.0
 40
0.0
 40
0.0
 40
0.0
 40
0.0
 40
0.2986608327
 40
1.0
 40
1.0
 40
1.0
 40
1.0
 10
10.3860054704
 20
23.8443575944
 30
0.0
 10
10.3860055693
 20
23.8228057652
 30
0.0
 10
10.3860481938
 20
23.7506443085
 30
0.0
 10
10.3861358263
 20
23.6784822881
 30
0.0
 10
10.386441634
 20
23.6278734891
 30
0.0
 11
10.3860054704
 21
23.8443575944
 31
0.0
 11
10.3860350445
 21
23.7797021134
 31
0.0
 11
10.386441634
 21
23.6278734891
 31
0.0
  0
SPLINE
  5
5A6
100
AcDbEntity
  8
RACCORDO
100
AcDbSpline
 62
253
  6
CONTINUOUS
 70
0
 71
3
 72
9
 73
5
 74
3
 42
0.0000001
 43
0.0000001
 44
0.0000000001
 12
0.0000001722
 22
0.1879436932
 32
0.0
 13
-0.0045096198
 23
0.1878895824
 33
0.0
 40
0.0
 40
0.0
 40
0.0
 40
0.0
 40
0.6103572284
 40
1.0
 40
1.0
 40
1.0
 40
1.0
 10
-7.2153265358
 20
-19.0001037691
 30
0.0
 10
-7.2153265008
 20
-18.9618661719
 30
0.0
 10
-7.2155495501
 20
-18.8992206434
 30
0.0
 10
-7.2158892429
 20
-18.8365685175
 30
0.0
 10
-7.2164749565
 20
-18.8121652449
 30
0.0
 11
-7.2153265358
 21
-19.0001037691
 31
0.0
 11
-7.2156422342
 21
-18.8853914118
 31
0.0
 11
-7.2164749565
 21
-18.8121652449
 31
0.0
  0
SPLINE
  5
5A7
100
AcDbEntity
  8
RACCORDO
100
AcDbSpline
 62
7
  6
CONTINUOUS
 70
0
 71
3
 72
9
 73
5
 74
3
 42
0.0000001
 43
0.0000001
 44
0.0000000001
 12
-0.0035402595
 22
8.5232483126
 32
0.0
 13
-0.0020892369
 23
8.5232487918
 33
0.0
 40
0.0
 40
0.0
 40
0.0
 40
0.0
 40
0.2499278574
 40
1.0
 40
1.0
 40
1.0
 40
1.0
 10
-7.3696313037
 20
-20.8303686963
 30
0.0
 10
-7.3699262402
 20
-20.1203029667
 30
0.0
 10
-7.3710457537
 20
-17.279220171
 30
0.0
 10
-7.3719232326
 20
-14.4381372799
 30
0.0
 10
-7.3724455921
 20
-12.3071201189
 30
0.0
 11
-7.3696313037
 21
-20.8303686963
 31
0.0
 11
-7.370470717
 21
-18.7001714891
 31
0.0
 11
-7.3724455921
 21
-12.3071201189
 31
0.0
  0
SPLINE
  5
5A8
100
AcDbEntity
  8
RACCORDO
100
AcDbSpline
 62
253
  6
CONTINUOUS
 70
0
 71
3
 72
9
 73
5
 74
3
 42
0.0000001
 43
0.0000001
 44
0.0000000001
 12
0.0045064782
 22
0.1878896577
 32
0.0
 13
-0.0000005396
 23
0.1879436932
 33
0.0
 40
0.0
 40
0.0
 40
0.0
 40
0.0
 40
0.3896407848
 40
1.0
 40
1.0
 40
1.0
 40
1.0
 10
-7.2164749565
 20
18.8121652449
 30
0.0
 10
-7.2158896539
 20
18.8365684028
 30
0.0
 10
-7.2155492543
 20
18.8992205112
 30
0.0
 10
-7.215326426
 20
18.9618660474
 30
0.0
 10
-7.2153265358
 20
19.0001037691
 30
0.0
 11
-7.2164749565
 21
18.8121652449
 31
0.0
 11
-7.2156422365
 21
18.8853910384
 31
0.0
 11
-7.2153265358
 21
19.0001037691
 31
0.0
  0
SPLINE
  5
5A9
100
AcDbEntity
  8
RACCORDO
100
AcDbSpline
 62
7
  6
CONTINUOUS
 70
0
 71
3
 72
9
 73
5
 74
3
 42
0.0000001
 43
0.0000001
 44
0.0000000001
 12
0.0020892369
 22
8.5232487918
 32
0.0
 13
0.0035402595
 23
8.5232483126
 33
0.0
 40
0.0
 40
0.0
 40
0.0
 40
0.0
 40
0.2500660812
 40
1.0
 40
1.0
 40
1.0
 40
1.0
 10
-7.3724455921
 20
12.3071201189
 30
0.0
 10
-7.372271443
 20
13.0175785938
 30
0.0
 10
-7.3715146543
 20
15.8586615092
 30
0.0
 10
-7.3705162906
 20
18.6997443604
 30
0.0
 10
-7.3696313037
 20
20.8303686963
 30
0.0
 11
-7.3724455921
 21
12.3071201189
 31
0.0
 11
-7.3718778422
 21
14.4384955319
 31
0.0
 11
-7.3696313037
 21
20.8303686963
 31
0.0
  0
SPLINE
  5
5AA
100
AcDbEntity
  8
0
100
AcDbSpline
 62
253
  6
CONTINUOUS
 70
0
 71
3
 72
14
 73
10
 74
8
 42
0.0000001
 43
0.0000001
 44
0.0000000001
 12
-0.0000000096
 22
-0.0500143991
 32
0.0
 13
0.0353803488
 23
-0.0353506865
 33
0.0
 40
0.0
 40
0.0
 40
0.0
 40
0.0
 40
0.3785041649
 40
0.5499426895
 40
0.7007184935
 40
0.8251676513
 40
0.9186227152
 40
0.9775936171
 40
1.0
 40
1.0
 40
1.0
 40
1.0
 10
10.5859750215
 20
-24.2368706193
 30
0.0
 10
10.5859750203
 20
-24.2431808387
 30
0.0
 10
10.585999548
 20
-24.2523519214
 30
0.0
 10
10.5861147615
 20
-24.2640269928
 30
0.0
 10
10.5861920275
 20
-24.2714883592
 30
0.0
 10
10.5863838892
 20
-24.2775902255
 30
0.0
 10
10.5863526465
 20
-24.2823094438
 30
0.0
 10
10.5868043613
 20
-24.2850234477
 30
0.0
 10
10.5865682945
 20
-24.286598977
 30
0.0
 10
10.5868325431
 20
-24.286863004
 30
0.0
 11
10.5859750215
 21
-24.2368706193
 31
0.0
 11
10.5860399979
 21
-24.2558011661
 31
0.0
 11
10.58611894
 21
-24.2643751975
 31
0.0
 11
10.586225278
 21
-24.271915409
 31
0.0
 11
10.5863550108
 21
-24.2781383066
 31
0.0
 11
10.5865032644
 21
-24.2828100537
 31
0.0
 11
10.5866644551
 21
-24.28575504
 31
0.0
 11
10.5868325431
 21
-24.286863004
 31
0.0
  0
SPLINE
  5
5AB
100
AcDbEntity
  8
RACCORDO
100
AcDbSpline
 62
253
  6
CONTINUOUS
 70
0
 71
3
 72
9
 73
5
 74
3
 42
0.0000001
 43
0.0000001
 44
0.0000000001
 12
-0.0045096198
 22
-0.1878895824
 32
0.0
 13
0.0000001722
 23
-0.1879436932
 33
0.0
 40
0.0
 40
0.0
 40
0.0
 40
0.0
 40
0.3896427716
 40
1.0
 40
1.0
 40
1.0
 40
1.0
 10
7.2164749565
 20
-18.8121652449
 30
0.0
 10
7.2158892429
 20
-18.8365685175
 30
0.0
 10
7.2155495501
 20
-18.8992206434
 30
0.0
 10
7.2153265008
 20
-18.9618661719
 30
0.0
 10
7.2153265358
 20
-19.0001037691
 30
0.0
 11
7.2164749565
 21
-18.8121652449
 31
0.0
 11
7.2156422342
 21
-18.8853914118
 31
0.0
 11
7.2153265358
 21
-19.0001037691
 31
0.0
  0
SPLINE
  5
5AC
100
AcDbEntity
  8
RACCORDO
100
AcDbSpline
 62
7
  6
CONTINUOUS
 70
0
 71
3
 72
9
 73
5
 74
3
 42
0.0000001
 43
0.0000001
 44
0.0000000001
 12
-0.0020892369
 22
-8.5232487918
 32
0.0
 13
-0.0035402595
 23
-8.5232483126
 33
0.0
 40
0.0
 40
0.0
 40
0.0
 40
0.0
 40
0.2500660812
 40
1.0
 40
1.0
 40
1.0
 40
1.0
 10
7.3724455921
 20
-12.3071201189
 30
0.0
 10
7.372271443
 20
-13.0175785938
 30
0.0
 10
7.3715146543
 20
-15.8586615092
 30
0.0
 10
7.3705162906
 20
-18.6997443604
 30
0.0
 10
7.3696313037
 20
-20.8303686963
 30
0.0
 11
7.3724455921
 21
-12.3071201189
 31
0.0
 11
7.3718778422
 21
-14.4384955319
 31
0.0
 11
7.3696313037
 21
-20.8303686963
 31
0.0
  0
SPLINE
  5
5AD
100
AcDbEntity
  8
RACCORDO
100
AcDbSpline
 62
253
  6
CONTINUOUS
 70
0
 71
3
 72
9
 73
5
 74
3
 42
0.0000001
 43
0.0000001
 44
0.0000000001
 12
-0.0000005396
 22
-0.1879436932
 32
0.0
 13
0.0045064782
 23
-0.1878896577
 33
0.0
 40
0.0
 40
0.0
 40
0.0
 40
0.0
 40
0.6103592152
 40
1.0
 40
1.0
 40
1.0
 40
1.0
 10
7.2153265358
 20
19.0001037691
 30
0.0
 10
7.215326426
 20
18.9618660474
 30
0.0
 10
7.2155492543
 20
18.8992205112
 30
0.0
 10
7.2158896539
 20
18.8365684028
 30
0.0
 10
7.2164749565
 20
18.8121652449
 30
0.0
 11
7.2153265358
 21
19.0001037691
 31
0.0
 11
7.2156422365
 21
18.8853910384
 31
0.0
 11
7.2164749565
 21
18.8121652449
 31
0.0
  0
SPLINE
  5
5AE
100
AcDbEntity
  8
RACCORDO
100
AcDbSpline
 62
7
  6
CONTINUOUS
 70
0
 71
3
 72
9
 73
5
 74
3
 42
0.0000001
 43
0.0000001
 44
0.0000000001
 12
0.0035402595
 22
-8.5232483126
 32
0.0
 13
0.0020892369
 23
-8.5232487918
 33
0.0
 40
0.0
 40
0.0
 40
0.0
 40
0.0
 40
0.2499278574
 40
1.0
 40
1.0
 40
1.0
 40
1.0
 10
7.3696313037
 20
20.8303686963
 30
0.0
 10
7.3699262402
 20
20.1203029667
 30
0.0
 10
7.3710457537
 20
17.279220171
 30
0.0
 10
7.3719232326
 20
14.4381372799
 30
0.0
 10
7.3724455921
 20
12.3071201189
 30
0.0
 11
7.3696313037
 21
20.8303686963
 31
0.0
 11
7.370470717
 21
18.7001714891
 31
0.0
 11
7.3724455921
 21
12.3071201189
 31
0.0
  0
SPLINE
  5
5AF
100
AcDbEntity
  8
DRAFT
100
AcDbSpline
 62
7
  6
CONTINUOUS
 70
0
 71
3
 72
9
 73
5
 74
3
 42
0.0000001
 43
0.0000001
 44
0.0000000001
 12
-12.8612825668
 22
-0.0047978014
 32
0.0
 13
-12.8612825662
 23
0.0047993194
 33
0.0
 40
0.0
 40
0.0
 40
0.0
 40
0.0
 40
0.2499421482
 40
1.0
 40
1.0
 40
1.0
 40
1.0
 10
6.4296263217
 20
19.9296263217
 30
0.0
 10
5.3581007908
 20
19.9292265974
 30
0.0
 10
1.0710064619
 20
19.9280278717
 30
0.0
 10
-3.2160883144
 20
19.9284271569
 30
0.0
 10
-6.4316569722
 20
19.9296270793
 30
0.0
 11
6.4296263217
 21
19.9296263217
 31
0.0
 11
3.215049631
 21
19.9287272027
 31
0.0
 11
-6.4316569722
 21
19.9296270793
 31
0.0
  0
SPLINE
  5
5B0
100
AcDbEntity
  8
DRAFT
100
AcDbSpline
 62
7
  6
CONTINUOUS
 70
0
 71
3
 72
9
 73
5
 74
3
 42
0.0000001
 43
0.0000001
 44
0.0000000001
 12
12.8612825662
 22
0.0047993194
 32
0.0
 13
12.8612825668
 23
-0.0047978014
 33
0.0
 40
0.0
 40
0.0
 40
0.0
 40
0.0
 40
0.24994204
 40
1.0
 40
1.0
 40
1.0
 40
1.0
 10
-6.4316569722
 20
-19.9296270793
 30
0.0
 10
-5.3601319051
 20
-19.9292272288
 30
0.0
 10
-1.0730375763
 20
-19.9280279977
 30
0.0
 10
3.2140572
 20
-19.9284267786
 30
0.0
 10
6.4296263217
 20
-19.9296263217
 30
0.0
 11
-6.4316569722
 21
-19.9296270793
 31
0.0
 11
-3.2170816728
 21
-19.9287275817
 31
0.0
 11
6.4296263217
 21
-19.9296263217
 31
0.0
  0
SPLINE
  5
5B1
100
AcDbEntity
  8
0
100
AcDbSpline
 62
253
  6
CONTINUOUS
 70
0
 71
3
 72
9
 73
5
 74
3
 42
0.0000001
 43
0.0000001
 44
0.0000000001
 12
-0.0013082203
 22
-0.0432844827
 32
0.0
 13
0.0000006052
 23
-0.0433042479
 33
0.0
 40
0.0
 40
0.0
 40
0.0
 40
0.0
 40
0.1835083404
 40
1.0
 40
1.0
 40
1.0
 40
1.0
 10
10.5864113981
 20
-23.8010362971
 30
0.0
 10
10.586331375
 20
-23.803683985
 30
0.0
 10
10.5860357894
 20
-23.818116118
 30
0.0
 10
10.5859748568
 20
-23.8325517149
 30
0.0
 10
10.5859750215
 20
-23.8443375673
 30
0.0
 11
10.5864113981
 21
-23.8010362971
 31
0.0
 11
10.5862307922
 21
-23.8089809352
 31
0.0
 11
10.5859750215
 21
-23.8443375673
 31
0.0
  0
ELLIPSE
  5
5B2
100
AcDbEntity
  8
0
100
AcDbEllipse
 62
7
  6
CONTINUOUS
 10
-10.582468771
 20
-21.882468771
 30
0.0
 11
-0.3536610946
 21
-0.3536610946
 31
0.0
 40
0.9996954599
 41
-0.7852458701
 42
0.7852458701
  0
ELLIPSE
  5
5B3
100
AcDbEntity
  8
0
100
AcDbEllipse
 62
7
  6
CONTINUOUS
 10
-10.582468771
 20
21.8824687711
 30
0.0
 11
0.3536610946
 21
-0.3536610946
 31
0.0
 40
0.9996954599
 41
2.3563467834
 42
3.9268385237
  0
ELLIPSE
  5
5B4
100
AcDbEntity
  8
0
100
AcDbEllipse
 62
7
  6
CONTINUOUS
 10
-4.0459553394
 20
23.2
 30
0.0
 11
0.4595995956
 21
0.0
 31
0.0
 40
0.9949884474
 41
2.3053277814
 42
2.644815645
  0
ELLIPSE
  5
5B5
100
AcDbEntity
  8
0
100
AcDbEllipse
 62
7
  6
CONTINUOUS
 10
-4.0459553394
 20
-23.2
 30
0.0
 11
0.4595995956
 21
0.0
 31
0.0
 40
0.9949884474
 41
-2.644815645
 42
-2.3053277814
  0
ELLIPSE
  5
5B6
100
AcDbEntity
  8
0
100
AcDbEllipse
 62
7
  6
CONTINUOUS
 10
-4.0459553394
 20
-23.2
 30
0.0
 11
0.4595995956
 21
0.0
 31
0.0
 40
0.9949884474
 41
2.3053277814
 42
2.644815645
  0
ELLIPSE
  5
5B7
100
AcDbEntity
  8
0
100
AcDbEllipse
 62
7
  6
CONTINUOUS
 10
8.7631293807
 20
23.5556624327
 30
0.0
 11
0.25
 21
-0.0
 31
0.0
 40
0.5773502692
 41
2.617993878
 42
3.1241393611
  0
ELLIPSE
  5
5B8
100
AcDbEntity
  8
0
100
AcDbEllipse
 62
7
  6
CONTINUOUS
 10
-9.0368706193
 20
23.5556624327
 30
0.0
 11
0.25
 21
0.0
 31
0.0
 40
0.5773502692
 41
2.617993878
 42
3.1241393611
  0
ELLIPSE
  5
5B9
100
AcDbEntity
  8
0
100
AcDbEllipse
 62
7
  6
CONTINUOUS
 10
9.0368706193
 20
-23.5556624327
 30
0.0
 11
0.25
 21
0.0
 31
0.0
 40
0.5773502692
 41
-0.5235987756
 42
-0.0174532925
  0
ELLIPSE
  5
5BA
100
AcDbEntity
  8
0
100
AcDbEllipse
 62
7
  6
CONTINUOUS
 10
-8.7631293807
 20
-23.5556624327
 30
0.0
 11
0.25
 21
0.0
 31
0.0
 40
0.5773502692
 41
-0.5235987756
 42
-0.0174532925
  0
ELLIPSE
  5
5BB
100
AcDbEntity
  8
0
100
AcDbEllipse
 62
7
  6
CONTINUOUS
 10
-2.8000095196
 20
-22.1325068531
 30
0.0
 11
-0.1118178731
 21
0.2236527791
 31
0.0
 40
0.9998096356
 41
-3.6051336537
 42
-2.0344896259
  0
ELLIPSE
  5
5BC
100
AcDbEntity
  8
0
100
AcDbEllipse
 62
7
  6
CONTINUOUS
 10
-2.8850964806
 20
-20.8909925586
 30
0.0
 11
0.25
 21
-0.0
 31
0.0
 40
0.3639702343
 41
0.0087266463
 42
1.5707963268
  0
ELLIPSE
  5
5BD
100
AcDbEntity
  8
0
100
AcDbEllipse
 62
7
  6
CONTINUOUS
 10
2.8850964806
 20
-20.8909925586
 30
0.0
 11
0.25
 21
-0.0
 31
0.0
 40
0.3639702343
 41
1.5707963268
 42
3.1328660073
  0
ELLIPSE
  5
5BE
100
AcDbEntity
  8
0
100
AcDbEllipse
 62
7
  6
CONTINUOUS
 10
2.8000095196
 20
-22.1325068531
 30
0.0
 11
0.1118178731
 21
0.2236527791
 31
0.0
 40
0.9998096356
 41
-4.2486956813
 42
-2.6780516535
  0
ELLIPSE
  5
5BF
100
AcDbEntity
  8
0
100
AcDbEllipse
 62
7
  6
CONTINUOUS
 10
2.8000095196
 20
22.1325068531
 30
0.0
 11
-0.1118178731
 21
0.2236527791
 31
0.0
 40
0.9998096356
 41
-0.4635410001
 42
1.1071030276
  0
ELLIPSE
  5
5C0
100
AcDbEntity
  8
0
100
AcDbEllipse
 62
7
  6
CONTINUOUS
 10
2.8850964806
 20
20.8909925586
 30
0.0
 11
0.25
 21
-0.0
 31
0.0
 40
0.3639702343
 41
-3.1328660073
 42
-1.5707963268
  0
ELLIPSE
  5
5C1
100
AcDbEntity
  8
0
100
AcDbEllipse
 62
7
  6
CONTINUOUS
 10
-2.8850964806
 20
20.8909925586
 30
0.0
 11
0.25
 21
-0.0
 31
0.0
 40
0.3639702343
 41
-1.5707963268
 42
-0.0087266463
  0
ELLIPSE
  5
5C2
100
AcDbEntity
  8
0
100
AcDbEllipse
 62
7
  6
CONTINUOUS
 10
-2.8000095196
 20
22.1325068531
 30
0.0
 11
0.1118178731
 21
0.2236527791
 31
0.0
 40
0.9998096356
 41
-1.1071030276
 42
0.4635410001
  0
ELLIPSE
  5
5C3
100
AcDbEntity
  8
RACCORDO
100
AcDbEllipse
 62
7
  6
CONTINUOUS
 10
6.9153379589
 20
20.9846506176
 30
0.0
 11
0.3
 21
0.0
 31
0.0
 40
0.0087268678
 41
0.0087266463
 42
1.5707963268
  0
ELLIPSE
  5
5C4
100
AcDbEntity
  8
RACCORDO
100
AcDbEllipse
 62
7
  6
CONTINUOUS
 10
6.8846620411
 20
20.0846506176
 30
0.0
 11
0.3
 21
0.0
 31
0.0
 40
0.0087268678
 41
1.5707963268
 42
3.1328660073
  0
ELLIPSE
  5
5C5
100
AcDbEntity
  8
RACCORDO
100
AcDbEllipse
 62
7
  6
CONTINUOUS
 10
-6.9153379589
 20
20.9846506176
 30
0.0
 11
0.3
 21
0.0
 31
0.0
 40
0.0087268678
 41
1.5707963268
 42
3.1328660073
  0
ELLIPSE
  5
5C6
100
AcDbEntity
  8
RACCORDO
100
AcDbEllipse
 62
7
  6
CONTINUOUS
 10
-6.886691934
 20
20.0846506176
 30
0.0
 11
0.3
 21
0.0
 31
0.0
 40
0.0087268678
 41
0.0087266463
 42
1.5707963268
  0
ELLIPSE
  5
5C7
100
AcDbEntity
  8
RACCORDO
100
AcDbEllipse
 62
7
  6
CONTINUOUS
 10
6.8846620411
 20
-20.0846506176
 30
0.0
 11
0.3
 21
-0.0
 31
0.0
 40
0.0087268678
 41
-3.1328660073
 42
-1.5707963268
  0
ELLIPSE
  5
5C8
100
AcDbEntity
  8
RACCORDO
100
AcDbEllipse
 62
7
  6
CONTINUOUS
 10
6.9153379589
 20
-20.9846506176
 30
0.0
 11
0.3
 21
-0.0
 31
0.0
 40
0.0087268678
 41
-1.5707963268
 42
-0.0087266463
  0
ELLIPSE
  5
5C9
100
AcDbEntity
  8
RACCORDO
100
AcDbEllipse
 62
7
  6
CONTINUOUS
 10
-6.9153379589
 20
-20.9846506176
 30
0.0
 11
0.3
 21
-0.0
 31
0.0
 40
0.0087268678
 41
-3.1328660073
 42
-1.5707963268
  0
ELLIPSE
  5
5CA
100
AcDbEntity
  8
RACCORDO
100
AcDbEllipse
 62
7
  6
CONTINUOUS
 10
-6.886691934
 20
-20.0846506176
 30
0.0
 11
0.3
 21
-0.0
 31
0.0
 40
0.0087268678
 41
-1.5707963268
 42
-0.0087266463
  0
ELLIPSE
  5
5CB
100
AcDbEntity
  8
0
100
AcDbEllipse
 62
7
  6
CONTINUOUS
 10
3.750038082
 20
-23.7325068531
 30
0.0
 11
0.1768305473
 21
0.1768305473
 31
0.0
 40
0.9996954599
 41
-3.9268385237
 42
-2.3563467834
  0
ELLIPSE
  5
5CC
100
AcDbEntity
  8
0
100
AcDbEllipse
 62
7
  6
CONTINUOUS
 10
-3.750038082
 20
-23.7325068531
 30
0.0
 11
0.1768305473
 21
-0.1768305473
 31
0.0
 40
0.9996954599
 41
-0.7852458702
 42
0.7852458701
  0
ELLIPSE
  5
5CD
100
AcDbEntity
  8
0
100
AcDbEllipse
 62
7
  6
CONTINUOUS
 10
-3.750038082
 20
23.7325068531
 30
0.0
 11
0.1768305473
 21
0.1768305473
 31
0.0
 40
0.9996954599
 41
-0.7852458701
 42
0.7852458702
  0
ELLIPSE
  5
5CE
100
AcDbEntity
  8
0
100
AcDbEllipse
 62
7
  6
CONTINUOUS
 10
3.750038082
 20
23.7325068531
 30
0.0
 11
-0.1768305473
 21
0.1768305473
 31
0.0
 40
0.9996954599
 41
-0.7852458701
 42
0.7852458702
  0
ELLIPSE
  5
5CF
100
AcDbEntity
  8
0
100
AcDbEllipse
 62
7
  6
CONTINUOUS
 10
-3.9662724675
 20
22.3020015105
 30
0.0
 11
0.3856702945
 21
0.0
 31
0.0
 40
0.0174550649
 41
-3.1241393611
 42
-0.0174532925
  0
ELLIPSE
  5
5D0
100
AcDbEntity
  8
0
100
AcDbEllipse
 62
7
  6
CONTINUOUS
 10
-3.9662724675
 20
-22.3020015105
 30
0.0
 11
0.3856702945
 21
-0.0
 31
0.0
 40
0.0174550649
 41
0.0174532925
 42
3.1241393611
  0
ELLIPSE
  5
5D1
100
AcDbEntity
  8
0
100
AcDbEllipse
 62
7
  6
CONTINUOUS
 10
3.9662724675
 20
22.3020015105
 30
0.0
 11
0.3856702945
 21
0.0
 31
0.0
 40
0.0174550649
 41
-3.1241393611
 42
-0.0174532925
  0
ELLIPSE
  5
5D2
100
AcDbEntity
  8
0
100
AcDbEllipse
 62
7
  6
CONTINUOUS
 10
3.9662724675
 20
-22.3020015105
 30
0.0
 11
0.3856702945
 21
-0.0
 31
0.0
 40
0.0174550649
 41
0.0174532925
 42
3.1241393611
  0
ELLIPSE
  5
5D3
100
AcDbEntity
  8
0
100
AcDbEllipse
 62
7
  6
CONTINUOUS
 10
-10.3999695344
 20
23.3535898385
 30
0.0
 11
0.0069796346
 21
0.2308610084
 31
0.0
 40
0.8659264732
 41
-4.6774890294
 42
-3.1154190256
  0
ELLIPSE
  5
5D4
100
AcDbEntity
  8
0
100
AcDbEllipse
 62
7
  6
CONTINUOUS
 10
7.4000304656
 20
23.3535898385
 30
0.0
 11
0.0069796346
 21
0.2308610084
 31
0.0
 40
0.8659264732
 41
-4.6774890294
 42
-3.1154190256
  0
ELLIPSE
  5
5D5
100
AcDbEntity
  8
0
100
AcDbEllipse
 62
7
  6
CONTINUOUS
 10
-7.4000304656
 20
23.3535898385
 30
0.0
 11
-0.0069796346
 21
0.2308610084
 31
0.0
 40
0.8659264732
 41
-3.1677662815
 42
-1.6056962779
  0
ELLIPSE
  5
5D6
100
AcDbEntity
  8
0
100
AcDbEllipse
 62
7
  6
CONTINUOUS
 10
10.3999695344
 20
23.3535898385
 30
0.0
 11
-0.0069796346
 21
0.2308610084
 31
0.0
 40
0.8659264732
 41
-3.1677662815
 42
-1.6056962779
  0
ELLIPSE
  5
5D7
100
AcDbEntity
  8
0
100
AcDbEllipse
 62
7
  6
CONTINUOUS
 10
-10.3999695344
 20
-23.3535898385
 30
0.0
 11
-0.0069796346
 21
0.2308610084
 31
0.0
 40
0.8659264732
 41
-0.026173628
 42
1.5358963756
  0
ELLIPSE
  5
5D8
100
AcDbEntity
  8
0
100
AcDbEllipse
 62
7
  6
CONTINUOUS
 10
-7.4000304656
 20
-23.3535898385
 30
0.0
 11
0.0069796346
 21
0.2308610084
 31
0.0
 40
0.8659264732
 41
-1.5358963758
 42
0.026173628
  0
ELLIPSE
  5
5D9
100
AcDbEntity
  8
0
100
AcDbEllipse
 62
7
  6
CONTINUOUS
 10
7.4000304656
 20
-23.3535898385
 30
0.0
 11
-0.0069796346
 21
0.2308610084
 31
0.0
 40
0.8659264732
 41
-0.026173628
 42
1.5358963756
  0
ELLIPSE
  5
5DA
100
AcDbEntity
  8
0
100
AcDbEllipse
 62
7
  6
CONTINUOUS
 10
10.3999695344
 20
-23.3535898385
 30
0.0
 11
0.0069796346
 21
0.2308610084
 31
0.0
 40
0.8659264732
 41
-1.5358963758
 42
0.026173628
  0
ELLIPSE
  5
5DB
100
AcDbEntity
  8
0
100
AcDbEllipse
 62
7
  6
CONTINUOUS
 10
-9.0368706193
 20
-22.3869087013
 30
0.0
 11
0.25
 21
0.0
 31
0.0
 40
0.0174550649
 41
1.5707963268
 42
3.1241393611
  0
ELLIPSE
  5
5DC
100
AcDbEntity
  8
0
100
AcDbEllipse
 62
7
  6
CONTINUOUS
 10
-9.0368706193
 20
-23.5556624327
 30
0.0
 11
0.25
 21
-0.0
 31
0.0
 40
0.5773502692
 41
-3.1241393611
 42
-2.617993878
  0
ELLIPSE
  5
5DD
100
AcDbEntity
  8
0
100
AcDbEllipse
 62
7
  6
CONTINUOUS
 10
8.7631293807
 20
-23.5556624327
 30
0.0
 11
0.25
 21
0.0
 31
0.0
 40
0.5773502692
 41
-3.1241393611
 42
-2.617993878
  0
ELLIPSE
  5
5DE
100
AcDbEntity
  8
0
100
AcDbEllipse
 62
7
  6
CONTINUOUS
 10
8.7631293807
 20
-22.3869087013
 30
0.0
 11
0.25
 21
-0.0
 31
0.0
 40
0.0174550649
 41
1.5707963268
 42
3.1241393611
  0
ELLIPSE
  5
5DF
100
AcDbEntity
  8
0
100
AcDbEllipse
 62
7
  6
CONTINUOUS
 10
8.7631293807
 20
22.3869087013
 30
0.0
 11
0.25
 21
0.0
 31
0.0
 40
0.0174550649
 41
-3.1241393611
 42
-1.5707963268
  0
ELLIPSE
  5
5E0
100
AcDbEntity
  8
0
100
AcDbEllipse
 62
7
  6
CONTINUOUS
 10
-9.0368706193
 20
22.3869087013
 30
0.0
 11
0.25
 21
0.0
 31
0.0
 40
0.0174550649
 41
-3.1241393611
 42
-1.5707963268
  0
ELLIPSE
  5
5E1
100
AcDbEntity
  8
0
100
AcDbEllipse
 62
7
  6
CONTINUOUS
 10
-8.7631293807
 20
-22.3869087013
 30
0.0
 11
0.25
 21
0.0
 31
0.0
 40
0.0174550649
 41
0.0174532925
 42
1.5707963268
  0
ELLIPSE
  5
5E2
100
AcDbEntity
  8
0
100
AcDbEllipse
 62
7
  6
CONTINUOUS
 10
9.0368706193
 20
-22.3869087013
 30
0.0
 11
0.25
 21
0.0
 31
0.0
 40
0.0174550649
 41
0.0174532925
 42
1.5707963268
  0
ELLIPSE
  5
5E3
100
AcDbEntity
  8
0
100
AcDbEllipse
 62
7
  6
CONTINUOUS
 10
-8.7631293807
 20
22.3869087013
 30
0.0
 11
0.25
 21
-0.0
 31
0.0
 40
0.0174550649
 41
-1.5707963268
 42
-0.0174532925
  0
ELLIPSE
  5
5E4
100
AcDbEntity
  8
0
100
AcDbEllipse
 62
7
  6
CONTINUOUS
 10
-8.7631293807
 20
23.5556624327
 30
0.0
 11
0.25
 21
-0.0
 31
0.0
 40
0.5773502692
 41
0.0174532925
 42
0.5235987756
  0
ELLIPSE
  5
5E5
100
AcDbEntity
  8
0
100
AcDbEllipse
 62
7
  6
CONTINUOUS
 10
9.0368706193
 20
22.3869087013
 30
0.0
 11
0.25
 21
0.0
 31
0.0
 40
0.0174550649
 41
-1.5707963268
 42
-0.0174532925
  0
ELLIPSE
  5
5E6
100
AcDbEntity
  8
0
100
AcDbEllipse
 62
7
  6
CONTINUOUS
 10
9.0368706193
 20
23.5556624327
 30
0.0
 11
0.25
 21
0.0
 31
0.0
 40
0.5773502692
 41
0.0174532925
 42
0.5235987756
  0
ELLIPSE
  5
5E7
100
AcDbEntity
  8
0
100
AcDbEllipse
 62
7
  6
CONTINUOUS
 10
-8.3012864295
 20
-21.2252970227
 30
0.0
 11
1.0000571192
 21
-0.9999809595
 31
0.0
 40
0.0061705924
 41
0.0112823085
 42
1.3317127791
  0
ELLIPSE
  5
5E8
100
AcDbEntity
  8
0
100
AcDbEllipse
 62
7
  6
CONTINUOUS
 10
8.3012864295
 20
-21.2252970227
 30
0.0
 11
1.0000571192
 21
0.9999809595
 31
0.0
 40
0.0061705924
 41
1.8098798745
 42
3.1303103451
  0
ELLIPSE
  5
5E9
100
AcDbEntity
  8
0
100
AcDbEllipse
 62
7
  6
CONTINUOUS
 10
-8.3012864295
 20
21.2252970227
 30
0.0
 11
1.0000571192
 21
0.9999809595
 31
0.0
 40
0.0061705924
 41
-1.3317127791
 42
-0.0112823085
  0
ELLIPSE
  5
5EA
100
AcDbEntity
  8
0
100
AcDbEllipse
 62
7
  6
CONTINUOUS
 10
8.3012864295
 20
21.2252970227
 30
0.0
 11
1.0000571192
 21
-0.9999809595
 31
0.0
 40
0.0061705924
 41
-3.1303103451
 42
-1.8098798745
  0
ELLIPSE
  5
5EB
100
AcDbEntity
  8
0
100
AcDbEllipse
 62
7
  6
CONTINUOUS
 10
10.5824687711
 20
21.8824687711
 30
0.0
 11
0.3536610946
 21
0.3536610946
 31
0.0
 40
0.9996954599
 41
-0.7852458701
 42
0.7852458701
  0
ELLIPSE
  5
5EC
100
AcDbEntity
  8
0
100
AcDbEllipse
 62
7
  6
CONTINUOUS
 10
4.0459553394
 20
23.2
 30
0.0
 11
0.4595995956
 21
0.0
 31
0.0
 40
0.9949884474
 41
0.4967770086
 42
0.8362648721
  0
ELLIPSE
  5
5ED
100
AcDbEntity
  8
0
100
AcDbEllipse
 62
7
  6
CONTINUOUS
 10
4.0459553394
 20
23.2
 30
0.0
 11
0.4595995956
 21
-0.0
 31
0.0
 40
0.9949884474
 41
-0.8362648721
 42
-0.4967770086
  0
ELLIPSE
  5
5EE
100
AcDbEntity
  8
0
100
AcDbEllipse
 62
7
  6
CONTINUOUS
 10
10.5824687711
 20
-21.882468771
 30
0.0
 11
-0.3536610946
 21
0.3536610946
 31
0.0
 40
0.9996954599
 41
2.3563467834
 42
3.9268385237
  0
ELLIPSE
  5
5EF
100
AcDbEntity
  8
0
100
AcDbEllipse
 62
7
  6
CONTINUOUS
 10
4.0459553394
 20
-23.2
 30
0.0
 11
0.4595995956
 21
-0.0
 31
0.0
 40
0.9949884474
 41
0.4967770086
 42
0.8362648721
  0
ELLIPSE
  5
5F0
100
AcDbEntity
  8
0
100
AcDbEllipse
 62
7
  6
CONTINUOUS
 10
4.0459553394
 20
-23.2
 30
0.0
 11
0.4595995956
 21
-0.0
 31
0.0
 40
0.9949884474
 41
-0.8362648721
 42
-0.4967770086
  0
ELLIPSE
  5
5F1
100
AcDbEntity
  8
0
100
AcDbEllipse
 62
7
  6
CONTINUOUS
 10
-8.0754493507
 20
21.2252970227
 30
0.0
 11
0.0
 21
1.0
 31
0.0
 40
0.0174550649
 41
-1.5707963268
 42
-1.3378837631
  0
ELLIPSE
  5
5F2
100
AcDbEntity
  8
0
100
AcDbEllipse
 62
7
  6
CONTINUOUS
 10
-1.0674931469
 20
23.7325068531
 30
0.0
 11
-0.1768305473
 21
-0.1768305473
 31
0.0
 40
0.9996954599
 41
2.3563467834
 42
3.9268385237
  0
ELLIPSE
  5
5F3
100
AcDbEntity
  8
0
100
AcDbEllipse
 62
7
  6
CONTINUOUS
 10
1.0674931469
 20
23.7325068531
 30
0.0
 11
-0.1768305473
 21
0.1768305473
 31
0.0
 40
0.9996954599
 41
-0.7852458701
 42
0.7852458701
  0
ELLIPSE
  5
5F4
100
AcDbEntity
  8
0
100
AcDbEllipse
 62
7
  6
CONTINUOUS
 10
1.0674931469
 20
-23.7325068531
 30
0.0
 11
0.1768305473
 21
0.1768305473
 31
0.0
 40
0.9996954599
 41
2.3563467834
 42
3.9268385237
  0
ELLIPSE
  5
5F5
100
AcDbEntity
  8
0
100
AcDbEllipse
 62
7
  6
CONTINUOUS
 10
-1.0674931469
 20
-23.7325068531
 30
0.0
 11
0.1768305473
 21
-0.1768305473
 31
0.0
 40
0.9996954599
 41
-0.7852458701
 42
0.7852458701
  0
ELLIPSE
  5
5F6
100
AcDbEntity
  8
0
100
AcDbEllipse
 62
7
  6
CONTINUOUS
 10
-8.0754493507
 20
-21.2252970227
 30
0.0
 11
0.0
 21
1.0
 31
0.0
 40
0.0174550649
 41
-1.8037088905
 42
-1.5707963268
  0
ELLIPSE
  5
5F7
100
AcDbEntity
  8
0
100
AcDbEllipse
 62
7
  6
CONTINUOUS
 10
8.0754493507
 20
-21.2252970227
 30
0.0
 11
-0.0
 21
1.0
 31
0.0
 40
0.0174550649
 41
-4.7123889804
 42
-4.4794764167
  0
ELLIPSE
  5
5F8
100
AcDbEntity
  8
0
100
AcDbEllipse
 62
7
  6
CONTINUOUS
 10
8.0754493507
 20
21.2252970227
 30
0.0
 11
0.0
 21
1.0
 31
0.0
 40
0.0174550649
 41
1.3378837631
 42
1.5707963268
  0
ENDSEC
  0
SECTION
  2
OBJECTS
  0
DICTIONARY
  5
C
100
AcDbDictionary
280
0
281
1
  3
ACAD_GROUP
350
D
  3
ACAD_MLINESTYLE
350
17
  3
ACAD_LAYOUT
350
1A
  3
ACAD_PLOTSETTINGS
350
19
  3
ACAD_PLOTSTYLENAME
350
E
  0
DICTIONARY
  5
D
102
{ACAD_REACTORS
330
C
102
}
100
AcDbDictionary
280
0
281
1
  0
ACDBDICTIONARYWDFLT
  5
E
102
{ACAD_REACTORS
330
C
102
}
100
AcDbDictionary
281
1
  3
Normal
350
F
100
AcDbDictionaryWithDefault
340
F
  0
DICTIONARY
  5
17
102
{ACAD_REACTORS
330
C
102
}
100
AcDbDictionary
280
0
281
1
  3
Standard
350
18
  0
DICTIONARY
  5
19
102
{ACAD_REACTORS
330
C
102
}
100
AcDbDictionary
281
1
  0
DICTIONARY
  5
1A
102
{ACAD_REACTORS
330
C
102
}
100
AcDbDictionary
281
1
  3
Model
350
5F9
  3
Layout1
350
5FA
  0
ACDBPLACEHOLDER
  5
F
102
{ACAD_REACTORS
330
E
102
}
  0
MLINESTYLE
  5
18
102
{ACAD_REACTORS
330
17
102
}
100
AcDbMlineStyle
  2
STANDARD
 70
0
  3

 62
256
 51
90.0
 52
90.0
 71
2
 49
0.5
 62
256
  6
BYLAYER
 49
-0.5
 62
256
  6
BYLAYER
  0
LAYOUT
  5
5F9
102
{ACAD_REACTORS
330
1A
102
}
100
AcDbPlotSettings
  1

  2
none_device
  4
ISO_A4_(297.00_x_210.00_MM)
  6

 40
0.0
 41
0.0
 42
0.0
 43
0.0
 44
297.0
 45
210.0
 46
0.0
 47
0.0
 48
0.0
 49
0.0
140
0.0
141
0.0
142
1.0
143
1.0
 70
1024
 72
1
 73
0
 74
0
  7

 75
0
147
1.0
148
0.0
149
0.0
100
AcDbLayout
  1
Model
 70
0
 71
0
 10
0.0
 20
0.0
 11
297.0
 21
210.0
 12
0.0
 22
0.0
 32
0.0
 14
0.0
 24
0.0
 34
0.0
 15
0.0
 25
0.0
 35
0.0
146
0.0
 13
0.0
 23
0.0
 33
0.0
 16
1.0
 26
0.0
 36
0.0
 17
0.0
 27
1.0
 37
0.0
 76
0
330
212
345
0
346
0
  0
LAYOUT
  5
5FA
102
{ACAD_REACTORS
330
1A
102
}
100
AcDbPlotSettings
  1

  2
none_device
  4
ISO_A4_(297.00_x_210.00_MM)
  6

 40
0.0
 41
0.0
 42
0.0
 43
0.0
 44
297.0
 45
210.0
 46
0.0
 47
0.0
 48
0.0
 49
0.0
140
0.0
141
0.0
142
1.0
143
1.0
 70
0
 72
1
 73
0
 74
0
  7

 75
0
147
1.0
148
0.0
149
0.0
100
AcDbLayout
  1
Layout1
 70
0
 71
1
 10
0.0
 20
0.0
 11
297.0
 21
210.0
 12
0.0
 22
0.0
 32
0.0
 14
0.0
 24
0.0
 34
0.0
 15
0.0
 25
0.0
 35
0.0
146
0.0
 13
0.0
 23
0.0
 33
0.0
 16
1.0
 26
0.0
 36
0.0
 17
0.0
 27
1.0
 37
0.0
 76
0
330
213
345
0
346
0
  0
ENDSEC
  0
EOF
