  0
SECTION
  2
HEADER
  9
$ACADVER
  1
AC1015
  9
$DWGCODEPAGE
  3
ANSI_1252
  9
$EXTMAX
 10
297.0
 20
210.0
 30
0.0
  9
$EXTMIN
 10
0.0
 20
0.0
 30
0.0
  9
$LIMMIN
 10
0.0
 20
0.0
  9
$LIMMAX
 10
297.0
 20
210.0
  9
$VIEWCTR
 10
148.5
 20
105.0
  9
$VIEWSIZE
 40
210.0
  9
$CLAYER
  8
0
  9
$LTSCALE
 40
16.335
  9
$CELTYPE
  6
BYLAYER
  9
$DIMSCALE
 40
1.0
  9
$DIMASZ
 40
3.0
  9
$DIMEXO
 40
1.85625
  9
$DIMDLI
 40
11.286
  9
$DIMEXE
 40
5.346
  9
$DIMCEN
 40
2.673
  9
$DIMLFAC
 40
1.0
  9
$DIMBLK
  1
_FILLED
  9
$DIMTXT
 40
3.0
  9
$DIMTOL
 70
1
  9
$DIMLIM
 70
0
  9
$DIMTFAC
 40
1.0
  9
$DIMTP
 40
0.01
  9
$DIMTM
 40
0.01
  9
$PDMODE
 70
3
  9
$PDSIZE
 40
3.0
  9
$HANDSEED
  5
788
  9
$TILEMODE
 70
1
  9
$MEASUREMENT
 70
1
  9
$INSUNITS
 70
4
  0
ENDSEC
  0
SECTION
  2
CLASSES
  0
CLASS
  1
ACDBDICTIONARYWDFLT
  2
AcDbDictionaryWithDefault
  3
AutoCAD 2000
 90
0
280
0
281
0
  0
CLASS
  1
ACDBPLACEHOLDER
  2
AcDbPlaceHolder
  3
AutoCAD 2000
 90
0
280
0
281
0
  0
CLASS
  1
LAYOUT
  2
AcDbLayout
  3
AutoCAD 2000
 90
0
280
0
281
0
  0
ENDSEC
  0
SECTION
  2
TABLES
  0
TABLE
  2
VPORT
  5
8
100
AcDbSymbolTable
 70
2
  0
VPORT
  5
1F4
100
AcDbSymbolTableRecord
100
AcDbViewportTableRecord
  2
*ACTIVE
 70
0
 10
0.0
 20
0.0
 11
1.0
 21
1.0
 12
148.5
 22
105.0
 13
0.0
 23
0.0
 14
1.0
 24
1.0
 15
0.0
 25
0.0
 16
0.0
 26
0.0
 36
1.0
 17
0.0
 27
0.0
 37
0.0
 40
210.0
 41
1.4142857143
 42
50.0
 43
0.0
 44
0.0
 50
0.0
 51
0.0
 71
0
 72
100
 73
1
 74
1
 75
0
 76
0
 77
0
 78
0
  0
ENDTAB
  0
TABLE
  2
LTYPE
  5
5
100
AcDbSymbolTable
 70
6
  0
LTYPE
  5
14
100
AcDbSymbolTableRecord
100
AcDbLinetypeTableRecord
  2
BYBLOCK
 70
0
  3

 72
65
 73
0
 40
0.0
  0
LTYPE
  5
15
100
AcDbSymbolTableRecord
100
AcDbLinetypeTableRecord
  2
BYLAYER
 70
0
  3

 72
65
 73
0
 40
0.0
  0
LTYPE
  5
16
100
AcDbSymbolTableRecord
100
AcDbLinetypeTableRecord
  2
CONTINUOUS
 70
64
  3
Solid line
 72
65
 73
0
 40
0.0
  0
LTYPE
  5
1F5
100
AcDbSymbolTableRecord
100
AcDbLinetypeTableRecord
  2
CENTER
 70
64
  3
____ _ ____ _ ____ _ ____ _ ____ _ ____ _ ____
 72
65
 73
4
 40
0.6
 49
0.375
 74
0
 49
-0.075
 74
0
 49
0.075
 74
0
 49
-0.075
 74
0
  0
LTYPE
  5
1F6
100
AcDbSymbolTableRecord
100
AcDbLinetypeTableRecord
  2
HIDDEN
 70
64
  3
- - - - - - - - - - - - - - - - - - - -
 72
65
 73
2
 40
0.2
 49
0.1
 74
0
 49
-0.1
 74
0
  0
LTYPE
  5
1F7
100
AcDbSymbolTableRecord
100
AcDbLinetypeTableRecord
  2
PHANTOM
 70
64
  3
_____ _ _ _____ _ _ _____ _ _ _____
 72
65
 73
6
 40
0.8
 49
0.45
 74
0
 49
-0.05
 74
0
 49
0.1
 74
0
 49
-0.05
 74
0
 49
0.1
 74
0
 49
-0.05
 74
0
  0
LTYPE
  5
1F8
100
AcDbSymbolTableRecord
100
AcDbLinetypeTableRecord
  2
DOT
 70
64
  3
. . . . . . . . . . . . . . . . . . . .
 72
65
 73
2
 40
0.2
 49
0.1
 74
0
 49
-0.1
 74
0
  0
LTYPE
  5
1F9
100
AcDbSymbolTableRecord
100
AcDbLinetypeTableRecord
  2
DASHED
 70
64
  3
- - - - - - - - - - - - - - - - - - - -
 72
65
 73
2
 40
0.2
 49
0.1
 74
0
 49
-0.1
 74
0
  0
ENDTAB
  0
TABLE
  2
LAYER
  5
2
100
AcDbSymbolTable
 70
36
  0
LAYER
  5
10
100
AcDbSymbolTableRecord
100
AcDbLayerTableRecord
  2
0
 70
0
 62
7
  6
CONTINUOUS
370
-3
390
F
  0
LAYER
  5
1FA
100
AcDbSymbolTableRecord
100
AcDbLayerTableRecord
  2
DEFAULT_1
 70
0
 62
7
  6
CENTER
370
-3
390
F
  0
LAYER
  5
1FB
100
AcDbSymbolTableRecord
100
AcDbLayerTableRecord
  2
DEFAULT_2
 70
0
 62
7
  6
HIDDEN
370
-3
390
F
  0
LAYER
  5
1FC
100
AcDbSymbolTableRecord
100
AcDbLayerTableRecord
  2
DEFAULT_3
 70
0
 62
7
  6
PHANTOM
370
-3
390
F
  0
LAYER
  5
1FD
100
AcDbSymbolTableRecord
100
AcDbLayerTableRecord
  2
ASSI
 70
0
 62
7
  6
CONTINUOUS
370
-3
390
F
  0
LAYER
  5
1FE
100
AcDbSymbolTableRecord
100
AcDbLayerTableRecord
  2
COORDINATE
 70
0
 62
7
  6
CONTINUOUS
370
-3
390
F
  0
LAYER
  5
1FF
100
AcDbSymbolTableRecord
100
AcDbLayerTableRecord
  2
COORD_ORIGINE
 70
0
 62
7
  6
CONTINUOUS
370
-3
390
F
  0
LAYER
  5
200
100
AcDbSymbolTableRecord
100
AcDbLayerTableRecord
  2
COPY_PUBLISH
 70
0
 62
7
  6
CONTINUOUS
370
-3
390
F
  0
LAYER
  5
201
100
AcDbSymbolTableRecord
100
AcDbLayerTableRecord
  2
COSMETIC
 70
0
 62
7
  6
CONTINUOUS
370
-3
390
F
  0
LAYER
  5
202
100
AcDbSymbolTableRecord
100
AcDbLayerTableRecord
  2
CURVE
 70
0
 62
7
  6
CONTINUOUS
370
-3
390
F
  0
LAYER
  5
203
100
AcDbSymbolTableRecord
100
AcDbLayerTableRecord
  2
DRAFT
 70
0
 62
7
  6
CONTINUOUS
370
-3
390
F
  0
LAYER
  5
204
100
AcDbSymbolTableRecord
100
AcDbLayerTableRecord
  2
IGES
 70
0
 62
7
  6
CONTINUOUS
370
-3
390
F
  0
LAYER
  5
205
100
AcDbSymbolTableRecord
100
AcDbLayerTableRecord
  2
IMPORT_IGES
 70
0
 62
7
  6
CONTINUOUS
370
-3
390
F
  0
LAYER
  5
206
100
AcDbSymbolTableRecord
100
AcDbLayerTableRecord
  2
INTF_12
 70
0
 62
7
  6
CONTINUOUS
370
-3
390
F
  0
LAYER
  5
207
100
AcDbSymbolTableRecord
100
AcDbLayerTableRecord
  2
NOTE
 70
0
 62
7
  6
CONTINUOUS
370
-3
390
F
  0
LAYER
  5
208
100
AcDbSymbolTableRecord
100
AcDbLayerTableRecord
  2
PIANI
 70
0
 62
7
  6
CONTINUOUS
370
-3
390
F
  0
LAYER
  5
209
100
AcDbSymbolTableRecord
100
AcDbLayerTableRecord
  2
PIANI_ORIGINE
 70
0
 62
7
  6
CONTINUOUS
370
-3
390
F
  0
LAYER
  5
20A
100
AcDbSymbolTableRecord
100
AcDbLayerTableRecord
  2
RACCORDO
 70
0
 62
7
  6
CONTINUOUS
370
-3
390
F
  0
LAYER
  5
20B
100
AcDbSymbolTableRecord
100
AcDbLayerTableRecord
  2
SMUSSO
 70
0
 62
7
  6
CONTINUOUS
370
-3
390
F
  0
LAYER
  5
20C
100
AcDbSymbolTableRecord
100
AcDbLayerTableRecord
  2
SNAPLINE
 70
0
 62
7
  6
CONTINUOUS
370
-3
390
F
  0
LAYER
  5
20D
100
AcDbSymbolTableRecord
100
AcDbLayerTableRecord
  2
SUPERFICI
 70
0
 62
7
  6
CONTINUOUS
370
-3
390
F
  0
LAYER
  5
20E
100
AcDbSymbolTableRecord
100
AcDbLayerTableRecord
  2
TRASH
 70
0
 62
7
  6
CONTINUOUS
370
-3
390
F
  0
ENDTAB
  0
TABLE
  2
STYLE
  5
3
100
AcDbSymbolTable
 70
1
  0
STYLE
  5
11
100
AcDbSymbolTableRecord
100
AcDbTextStyleTableRecord
  2
STANDARD
 70
0
 40
0.0
 41
0.8
 50
0.0
 71
0
 42
0.2
  3
txt
  4

  0
STYLE
  5
20F
100
AcDbSymbolTableRecord
100
AcDbTextStyleTableRecord
  2
TEXTSTYLE_1
 70
0
 40
0.0
 41
0.8
 50
0.0
 71
0
 42
0.2
  3
gdt
  4

  0
ENDTAB
  0
TABLE
  2
VIEW
  5
6
100
AcDbSymbolTable
 70
0
  0
ENDTAB
  0
TABLE
  2
UCS
  5
7
100
AcDbSymbolTable
 70
0
  0
ENDTAB
  0
TABLE
  2
APPID
  5
9
100
AcDbSymbolTable
 70
1
  0
APPID
  5
210
100
AcDbSymbolTableRecord
100
AcDbRegAppTableRecord
  2
ACAD
 70
0
  0
ENDTAB
  0
TABLE
  2
BLOCK_RECORD
  5
1
100
AcDbSymbolTable
 70
0
  0
BLOCK_RECORD
  5
211
100
AcDbSymbolTableRecord
100
AcDbBlockTableRecord
  2
*Model_Space
  0
BLOCK_RECORD
  5
212
100
AcDbSymbolTableRecord
100
AcDbBlockTableRecord
  2
*Paper_Space
  0
ENDTAB
  0
TABLE
  2
DIMSTYLE
  5
A
100
AcDbSymbolTable
 70
1
100
AcDbDimStyleTable
 71
0
  0
DIMSTYLE
105
213
100
AcDbSymbolTableRecord
100
AcDbDimStyleTableRecord
  2
STANDARD
 70
0
  3

  4

 40
1.0
 41
3.0
 42
0.0625
 43
0.38
 44
0.18
 45
0.0
 46
0.0
 47
0.01
 48
0.01
140
3.0
141
0.09
142
0.0
143
25.4
144
1.0
145
0.0
146
1.0
147
0.09
 71
1.0
 72
0.0
 73
0
 74
0
 75
0
 76
0
 77
1
 78
8
170
0
171
2
172
0
173
0
174
0
175
0
176
0
177
0
178
0
270
2
271
2
272
2
273
2
274
2
275
0
280
0
281
0
282
0
283
1
284
8
285
0
286
0
287
3
288
0
340
11
  0
ENDTAB
  0
ENDSEC
  0
SECTION
  2
BLOCKS
  0
BLOCK
  5
20
100
AcDbEntity
  8
0
100
AcDbBlockBegin
  2
*Model_Space
 70
0
 10
0.0
 20
0.0
 30
0.0
  3
*Model_Space
  1

  0
ENDBLK
  5
21
100
AcDbEntity
  8
0
100
AcDbBlockEnd
  0
BLOCK
  5
1C
100
AcDbEntity
  8
0
100
AcDbBlockBegin
  2
*Paper_Space
 70
0
 10
0.0
 20
0.0
 30
0.0
  3
*Paper_Space
  1

  0
ENDBLK
  5
1D
100
AcDbEntity
  8
0
100
AcDbBlockEnd
  0
ENDSEC
  0
SECTION
  2
ENTITIES
  0
LINE
  5
214
100
AcDbEntity
  8
RACCORDO
100
AcDbLine
 62
7
  6
CONTINUOUS
 10
-24.9226637715
 20
-9.0877611112
 11
-24.9361568492
 21
-1.7329870163
  0
LINE
  5
215
100
AcDbEntity
  8
ASSI
100
AcDbLine
 62
7
  6
CONTINUOUS
 10
-24.9226637715
 20
-9.0877611112
 11
-24.9361568492
 21
-1.7329870163
  0
LINE
  5
216
100
AcDbEntity
  8
DRAFT
100
AcDbLine
 62
7
  6
CONTINUOUS
 10
-24.9361568492
 20
7.8961741996
 11
-24.9361568492
 21
-1.7329870163
  0
LINE
  5
217
100
AcDbEntity
  8
ASSI
100
AcDbLine
 62
7
  6
CONTINUOUS
 10
-24.9361568492
 20
7.8961741996
 11
-24.9361568492
 21
-1.7329870163
  0
LINE
  5
218
100
AcDbEntity
  8
RACCORDO
100
AcDbLine
 62
7
  6
CONTINUOUS
 10
-24.9291748233
 20
8.1979654045
 11
-24.9291748233
 21
8.8985774706
  0
LINE
  5
219
100
AcDbEntity
  8
ASSI
100
AcDbLine
 62
7
  6
CONTINUOUS
 10
-24.9291748233
 20
8.1979654045
 11
-24.9291748233
 21
8.8985774706
  0
LINE
  5
21A
100
AcDbEntity
  8
DRAFT
100
AcDbLine
 62
7
  6
CONTINUOUS
 10
-23.8221946298
 20
-9.3424799574
 11
-23.8316492642
 21
-4.1899709946
  0
LINE
  5
21B
100
AcDbEntity
  8
ASSI
100
AcDbLine
 62
7
  6
CONTINUOUS
 10
-23.8221946298
 20
-9.3424799574
 11
-23.8316492642
 21
-4.1899709946
  0
LINE
  5
21C
100
AcDbEntity
  8
DRAFT
100
AcDbLine
 62
7
  6
CONTINUOUS
 10
-24.1316492634
 20
-4.1899709938
 11
-24.1361568492
 21
-1.6944785796
  0
LINE
  5
21D
100
AcDbEntity
  8
ASSI
100
AcDbLine
 62
7
  6
CONTINUOUS
 10
-24.1316492634
 20
-4.1899709938
 11
-24.1361568492
 21
-1.6944785796
  0
LINE
  5
21E
100
AcDbEntity
  8
DRAFT
100
AcDbLine
 62
7
  6
CONTINUOUS
 10
-23.8361568492
 20
7.8961741996
 11
-23.8361568492
 21
-1.6944785796
  0
LINE
  5
21F
100
AcDbEntity
  8
ASSI
100
AcDbLine
 62
7
  6
CONTINUOUS
 10
-23.8361568492
 20
7.8961741996
 11
-23.8361568492
 21
-1.6944785796
  0
LINE
  5
220
100
AcDbEntity
  8
RACCORDO
100
AcDbLine
 62
7
  6
CONTINUOUS
 10
-23.8291748233
 20
8.1979654045
 11
-23.8291748233
 21
8.0078866152
  0
LINE
  5
221
100
AcDbEntity
  8
ASSI
100
AcDbLine
 62
7
  6
CONTINUOUS
 10
-23.8291748233
 20
8.1979654045
 11
-23.8291748233
 21
8.0078866152
  0
LINE
  5
222
100
AcDbEntity
  8
RACCORDO
100
AcDbLine
 62
7
  6
CONTINUOUS
 10
-23.8221927973
 20
-9.3375002843
 11
-23.8221927973
 21
-7.9497122105
  0
LINE
  5
223
100
AcDbEntity
  8
ASSI
100
AcDbLine
 62
7
  6
CONTINUOUS
 10
-23.8221927973
 20
-9.3375002843
 11
-23.8221927973
 21
-7.9497122105
  0
LINE
  5
224
100
AcDbEntity
  8
DRAFT
100
AcDbLine
 62
7
  6
CONTINUOUS
 10
-23.8187017843
 20
-4.8025864238
 11
-23.8187017843
 21
-4.1770235147
  0
LINE
  5
225
100
AcDbEntity
  8
ASSI
100
AcDbLine
 62
7
  6
CONTINUOUS
 10
-23.8187017843
 20
-4.8025864238
 11
-23.8187017843
 21
-4.1770235147
  0
LINE
  5
226
100
AcDbEntity
  8
DRAFT
100
AcDbLine
 62
7
  6
CONTINUOUS
 10
-23.8187017843
 20
-1.7119336446
 11
-23.8187017843
 21
-1.0863707355
  0
LINE
  5
227
100
AcDbEntity
  8
ASSI
100
AcDbLine
 62
7
  6
CONTINUOUS
 10
-23.8187017843
 20
-1.7119336446
 11
-23.8187017843
 21
-1.0863707355
  0
LINE
  5
228
100
AcDbEntity
  8
DRAFT
100
AcDbLine
 62
7
  6
CONTINUOUS
 10
-23.8117197583
 20
1.7206112905
 11
-23.8117197583
 21
1.0904315502
  0
LINE
  5
229
100
AcDbEntity
  8
ASSI
100
AcDbLine
 62
7
  6
CONTINUOUS
 10
-23.8117197583
 20
1.7206112905
 11
-23.8117197583
 21
1.0904315502
  0
LINE
  5
22A
100
AcDbEntity
  8
DRAFT
100
AcDbLine
 62
7
  6
CONTINUOUS
 10
-23.8117197583
 20
-6.1793887095
 11
-23.8117197583
 21
-6.8095684498
  0
LINE
  5
22B
100
AcDbEntity
  8
ASSI
100
AcDbLine
 62
7
  6
CONTINUOUS
 10
-23.8117197583
 20
-6.1793887095
 11
-23.8117197583
 21
-6.8095684498
  0
LINE
  5
22C
100
AcDbEntity
  8
DRAFT
100
AcDbLine
 62
7
  6
CONTINUOUS
 10
-23.0536119142
 20
-4.1770235147
 11
-23.0536119142
 21
-1.7119336446
  0
LINE
  5
22D
100
AcDbEntity
  8
ASSI
100
AcDbLine
 62
7
  6
CONTINUOUS
 10
-23.0536119142
 20
-4.1770235147
 11
-23.0536119142
 21
-1.7119336446
  0
LINE
  5
22E
100
AcDbEntity
  8
RACCORDO
100
AcDbLine
 62
253
  6
CONTINUOUS
 10
-23.460490338
 20
1.7770306943
 11
-23.4593497041
 21
7.9328707044
  0
LINE
  5
22F
100
AcDbEntity
  8
ASSI
100
AcDbLine
 62
253
  6
CONTINUOUS
 10
-23.460490338
 20
1.7770306943
 11
-23.4593497041
 21
7.9328707044
  0
LINE
  5
230
100
AcDbEntity
  8
RACCORDO
100
AcDbLine
 62
253
  6
CONTINUOUS
 10
-23.4615259628
 20
-1.0240056643
 11
-23.4607334744
 21
1.0342554552
  0
LINE
  5
231
100
AcDbEntity
  8
ASSI
100
AcDbLine
 62
253
  6
CONTINUOUS
 10
-23.4615259628
 20
-1.0240056643
 11
-23.4607334744
 21
1.0342554552
  0
LINE
  5
232
100
AcDbEntity
  8
RACCORDO
100
AcDbLine
 62
253
  6
CONTINUOUS
 10
-23.4642436261
 20
-6.1267252539
 11
-23.4634705694
 21
-4.8630055106
  0
LINE
  5
233
100
AcDbEntity
  8
ASSI
100
AcDbLine
 62
253
  6
CONTINUOUS
 10
-23.4642436261
 20
-6.1267252539
 11
-23.4634705694
 21
-4.8630055106
  0
LINE
  5
234
100
AcDbEntity
  8
RACCORDO
100
AcDbLine
 62
253
  6
CONTINUOUS
 10
-23.4652460523
 20
-7.6257603502
 11
-23.4647235642
 21
-6.8617516279
  0
LINE
  5
235
100
AcDbEntity
  8
ASSI
100
AcDbLine
 62
253
  6
CONTINUOUS
 10
-23.4652460523
 20
-7.6257603502
 11
-23.4647235642
 21
-6.8617516279
  0
LINE
  5
236
100
AcDbEntity
  8
RACCORDO
100
AcDbLine
 62
253
  6
CONTINUOUS
 10
-23.8221927973
 20
-7.9497122105
 11
-23.7650325219
 21
-7.3722924858
  0
LINE
  5
237
100
AcDbEntity
  8
ASSI
100
AcDbLine
 62
253
  6
CONTINUOUS
 10
-23.8221927973
 20
-7.9497122105
 11
-23.7650325219
 21
-7.3722924858
  0
LINE
  5
238
100
AcDbEntity
  8
RACCORDO
100
AcDbLine
 62
253
  6
CONTINUOUS
 10
-22.815876158
 20
-6.8095684498
 11
-22.815876158
 21
-6.1793887095
  0
LINE
  5
239
100
AcDbEntity
  8
ASSI
100
AcDbLine
 62
253
  6
CONTINUOUS
 10
-22.815876158
 20
-6.8095684498
 11
-22.815876158
 21
-6.1793887095
  0
LINE
  5
23A
100
AcDbEntity
  8
RACCORDO
100
AcDbLine
 62
253
  6
CONTINUOUS
 10
-22.815876158
 20
1.0904315502
 11
-22.815876158
 21
1.7206112905
  0
LINE
  5
23B
100
AcDbEntity
  8
ASSI
100
AcDbLine
 62
253
  6
CONTINUOUS
 10
-22.815876158
 20
1.0904315502
 11
-22.815876158
 21
1.7206112905
  0
LINE
  5
23C
100
AcDbEntity
  8
DRAFT
100
AcDbLine
 62
7
  6
CONTINUOUS
 10
-22.7861568492
 20
-4.8025864238
 11
-22.7861568492
 21
-1.0863707355
  0
LINE
  5
23D
100
AcDbEntity
  8
ASSI
100
AcDbLine
 62
7
  6
CONTINUOUS
 10
-22.7861568492
 20
-4.8025864238
 11
-22.7861568492
 21
-1.0863707355
  0
LINE
  5
23E
100
AcDbEntity
  8
DRAFT
100
AcDbLine
 62
7
  6
CONTINUOUS
 10
-22.5361568492
 20
-4.8630055104
 11
-22.5361568492
 21
-4.8283770267
  0
LINE
  5
23F
100
AcDbEntity
  8
ASSI
100
AcDbLine
 62
7
  6
CONTINUOUS
 10
-22.5361568492
 20
-4.8630055104
 11
-22.5361568492
 21
-4.8283770267
  0
LINE
  5
240
100
AcDbEntity
  8
DRAFT
100
AcDbLine
 62
7
  6
CONTINUOUS
 10
-22.5361568492
 20
-1.0605801326
 11
-22.5361568492
 21
-1.0240056644
  0
LINE
  5
241
100
AcDbEntity
  8
ASSI
100
AcDbLine
 62
7
  6
CONTINUOUS
 10
-22.5361568492
 20
-1.0605801326
 11
-22.5361568492
 21
-1.0240056644
  0
LINE
  5
242
100
AcDbEntity
  8
RACCORDO
100
AcDbLine
 62
253
  6
CONTINUOUS
 10
-22.5159218495
 20
-6.8147135794
 11
-22.5159218495
 21
-6.1742435799
  0
LINE
  5
243
100
AcDbEntity
  8
ASSI
100
AcDbLine
 62
253
  6
CONTINUOUS
 10
-22.5159218495
 20
-6.8147135794
 11
-22.5159218495
 21
-6.1742435799
  0
LINE
  5
244
100
AcDbEntity
  8
RACCORDO
100
AcDbLine
 62
253
  6
CONTINUOUS
 10
-22.5159218495
 20
1.0852864206
 11
-22.5159218495
 21
1.7257564201
  0
LINE
  5
245
100
AcDbEntity
  8
ASSI
100
AcDbLine
 62
253
  6
CONTINUOUS
 10
-22.5159218495
 20
1.0852864206
 11
-22.5159218495
 21
1.7257564201
  0
LINE
  5
246
100
AcDbEntity
  8
DRAFT
100
AcDbLine
 62
7
  6
CONTINUOUS
 10
-21.9861568492
 20
-4.8165504757
 11
-21.9861568492
 21
-1.0724066835
  0
LINE
  5
247
100
AcDbEntity
  8
ASSI
100
AcDbLine
 62
7
  6
CONTINUOUS
 10
-21.9861568492
 20
-4.8165504757
 11
-21.9861568492
 21
-1.0724066835
  0
LINE
  5
248
100
AcDbEntity
  8
DRAFT
100
AcDbLine
 62
7
  6
CONTINUOUS
 10
-21.4486228398
 20
9.1485393944
 11
-21.4486228398
 21
8.0078866152
  0
LINE
  5
249
100
AcDbEntity
  8
ASSI
100
AcDbLine
 62
7
  6
CONTINUOUS
 10
-21.4486228398
 20
9.1485393944
 11
-21.4486228398
 21
8.0078866152
  0
LINE
  5
24A
100
AcDbEntity
  8
DRAFT
100
AcDbLine
 62
7
  6
CONTINUOUS
 10
-21.1861568492
 20
9.0961741996
 11
-21.1861568492
 21
7.9555214204
  0
LINE
  5
24B
100
AcDbEntity
  8
ASSI
100
AcDbLine
 62
7
  6
CONTINUOUS
 10
-21.1861568492
 20
9.0961741996
 11
-21.1861568492
 21
7.9555214204
  0
LINE
  5
24C
100
AcDbEntity
  8
RACCORDO
100
AcDbLine
 62
253
  6
CONTINUOUS
 10
-23.523056411
 20
-8.2534169951
 11
-23.4609230526
 21
-7.6257603502
  0
LINE
  5
24D
100
AcDbEntity
  8
ASSI
100
AcDbLine
 62
253
  6
CONTINUOUS
 10
-23.523056411
 20
-8.2534169951
 11
-23.4609230526
 21
-7.6257603502
  0
LINE
  5
24E
100
AcDbEntity
  8
RACCORDO
100
AcDbLine
 62
7
  6
CONTINUOUS
 10
-23.8361568492
 20
7.8961741996
 11
-23.8343199529
 21
7.898011096
  0
LINE
  5
24F
100
AcDbEntity
  8
ASSI
100
AcDbLine
 62
7
  6
CONTINUOUS
 10
-23.8361568492
 20
7.8961741996
 11
-23.8343199529
 21
7.898011096
  0
LINE
  5
250
100
AcDbEntity
  8
RACCORDO
100
AcDbLine
 62
7
  6
CONTINUOUS
 10
-23.7646821105
 20
-6.8566060976
 11
-23.8117197583
 21
-6.8095684498
  0
LINE
  5
251
100
AcDbEntity
  8
ASSI
100
AcDbLine
 62
7
  6
CONTINUOUS
 10
-23.7646821105
 20
-6.8566060976
 11
-23.8117197583
 21
-6.8095684498
  0
LINE
  5
252
100
AcDbEntity
  8
RACCORDO
100
AcDbLine
 62
7
  6
CONTINUOUS
 10
-18.6703621038
 20
-7.6257603502
 11
-18.6413019789
 21
-7.9193189308
  0
LINE
  5
253
100
AcDbEntity
  8
ASSI
100
AcDbLine
 62
7
  6
CONTINUOUS
 10
-18.6703621038
 20
-7.6257603502
 11
-18.6413019789
 21
-7.9193189308
  0
LINE
  5
254
100
AcDbEntity
  8
RACCORDO
100
AcDbLine
 62
253
  6
CONTINUOUS
 10
-20.174869408
 20
5.0898359954
 11
-20.1872120027
 21
5.7969427766
  0
LINE
  5
255
100
AcDbEntity
  8
ASSI
100
AcDbLine
 62
253
  6
CONTINUOUS
 10
-20.174869408
 20
5.0898359954
 11
-20.1872120027
 21
5.7969427766
  0
LINE
  5
256
100
AcDbEntity
  8
RACCORDO
100
AcDbLine
 62
253
  6
CONTINUOUS
 10
-19.874913959
 20
5.3019026943
 11
-19.887257888
 21
6.0090859134
  0
LINE
  5
257
100
AcDbEntity
  8
ASSI
100
AcDbLine
 62
253
  6
CONTINUOUS
 10
-19.874913959
 20
5.3019026943
 11
-19.887257888
 21
6.0090859134
  0
LINE
  5
258
100
AcDbEntity
  8
RACCORDO
100
AcDbLine
 62
253
  6
CONTINUOUS
 10
-20.1913019789
 20
6.3626282016
 11
-20.1913019789
 21
7.9503762908
  0
LINE
  5
259
100
AcDbEntity
  8
ASSI
100
AcDbLine
 62
253
  6
CONTINUOUS
 10
-20.1913019789
 20
6.3626282016
 11
-20.1913019789
 21
7.9503762908
  0
LINE
  5
25A
100
AcDbEntity
  8
RACCORDO
100
AcDbLine
 62
253
  6
CONTINUOUS
 10
-20.1738469139
 20
3.5643251169
 11
-20.1738469139
 21
4.9484146392
  0
LINE
  5
25B
100
AcDbEntity
  8
ASSI
100
AcDbLine
 62
253
  6
CONTINUOUS
 10
-20.1738469139
 20
3.5643251169
 11
-20.1738469139
 21
4.9484146392
  0
LINE
  5
25C
100
AcDbEntity
  8
RACCORDO
100
AcDbLine
 62
253
  6
CONTINUOUS
 10
-19.8913476703
 20
6.362639708
 11
-19.8913476703
 21
7.9555214204
  0
LINE
  5
25D
100
AcDbEntity
  8
ASSI
100
AcDbLine
 62
253
  6
CONTINUOUS
 10
-19.8913476703
 20
6.362639708
 11
-19.8913476703
 21
7.9555214204
  0
LINE
  5
25E
100
AcDbEntity
  8
RACCORDO
100
AcDbLine
 62
253
  6
CONTINUOUS
 10
-19.8738926054
 20
3.5643251169
 11
-19.8738926054
 21
4.9484146392
  0
LINE
  5
25F
100
AcDbEntity
  8
ASSI
100
AcDbLine
 62
253
  6
CONTINUOUS
 10
-19.8738926054
 20
3.5643251169
 11
-19.8738926054
 21
4.9484146392
  0
LINE
  5
260
100
AcDbEntity
  8
RACCORDO
100
AcDbLine
 62
253
  6
CONTINUOUS
 10
-19.6984210931
 20
4.9484146392
 11
-19.6984210931
 21
3.5643251169
  0
LINE
  5
261
100
AcDbEntity
  8
ASSI
100
AcDbLine
 62
253
  6
CONTINUOUS
 10
-19.6984210931
 20
4.9484146392
 11
-19.6984210931
 21
3.5643251169
  0
LINE
  5
262
100
AcDbEntity
  8
RACCORDO
100
AcDbLine
 62
253
  6
CONTINUOUS
 10
-19.6809660282
 20
7.9555214204
 11
-19.6809660282
 21
6.3626393776
  0
LINE
  5
263
100
AcDbEntity
  8
ASSI
100
AcDbLine
 62
253
  6
CONTINUOUS
 10
-19.6809660282
 20
7.9555214204
 11
-19.6809660282
 21
6.3626393776
  0
LINE
  5
264
100
AcDbEntity
  8
RACCORDO
100
AcDbLine
 62
253
  6
CONTINUOUS
 10
-19.3984667846
 20
4.9484146392
 11
-19.3984667846
 21
3.5643251169
  0
LINE
  5
265
100
AcDbEntity
  8
ASSI
100
AcDbLine
 62
253
  6
CONTINUOUS
 10
-19.3984667846
 20
4.9484146392
 11
-19.3984667846
 21
3.5643251169
  0
LINE
  5
266
100
AcDbEntity
  8
RACCORDO
100
AcDbLine
 62
253
  6
CONTINUOUS
 10
-19.3810117196
 20
7.9503762908
 11
-19.3810117196
 21
6.3626282016
  0
LINE
  5
267
100
AcDbEntity
  8
ASSI
100
AcDbLine
 62
253
  6
CONTINUOUS
 10
-19.3810117196
 20
7.9503762908
 11
-19.3810117196
 21
6.3626282016
  0
LINE
  5
268
100
AcDbEntity
  8
RACCORDO
100
AcDbLine
 62
253
  6
CONTINUOUS
 10
-19.6850558009
 20
6.0090864633
 11
-19.6973997394
 21
5.3019027021
  0
LINE
  5
269
100
AcDbEntity
  8
ASSI
100
AcDbLine
 62
253
  6
CONTINUOUS
 10
-19.6850558009
 20
6.0090864633
 11
-19.6973997394
 21
5.3019027021
  0
LINE
  5
26A
100
AcDbEntity
  8
RACCORDO
100
AcDbLine
 62
253
  6
CONTINUOUS
 10
-19.3851016958
 20
5.7969427766
 11
-19.3974442905
 21
5.0898359954
  0
LINE
  5
26B
100
AcDbEntity
  8
ASSI
100
AcDbLine
 62
253
  6
CONTINUOUS
 10
-19.3851016958
 20
5.7969427766
 11
-19.3974442905
 21
5.0898359954
  0
LINE
  5
26C
100
AcDbEntity
  8
RACCORDO
100
AcDbLine
 62
7
  6
CONTINUOUS
 10
-20.1913019789
 20
7.9503762908
 11
-20.2088075652
 21
7.9328707044
  0
LINE
  5
26D
100
AcDbEntity
  8
ASSI
100
AcDbLine
 62
7
  6
CONTINUOUS
 10
-20.1913019789
 20
7.9503762908
 11
-20.2088075652
 21
7.9328707044
  0
LINE
  5
26E
100
AcDbEntity
  8
RACCORDO
100
AcDbLine
 62
7
  6
CONTINUOUS
 10
-22.5159218495
 20
-6.8147135794
 11
-22.4688838011
 21
-6.8617516278
  0
LINE
  5
26F
100
AcDbEntity
  8
ASSI
100
AcDbLine
 62
7
  6
CONTINUOUS
 10
-22.5159218495
 20
-6.8147135794
 11
-22.4688838011
 21
-6.8617516278
  0
LINE
  5
270
100
AcDbEntity
  8
RACCORDO
100
AcDbLine
 62
7
  6
CONTINUOUS
 10
-23.7634277634
 20
-4.8578604447
 11
-23.8187017843
 21
-4.8025864238
  0
LINE
  5
271
100
AcDbEntity
  8
ASSI
100
AcDbLine
 62
7
  6
CONTINUOUS
 10
-23.7634277634
 20
-4.8578604447
 11
-23.8187017843
 21
-4.8025864238
  0
LINE
  5
272
100
AcDbEntity
  8
RACCORDO
100
AcDbLine
 62
253
  6
CONTINUOUS
 10
-18.6413019789
 20
-7.9193189308
 11
-18.6413019789
 21
-6.6392877586
  0
LINE
  5
273
100
AcDbEntity
  8
ASSI
100
AcDbLine
 62
253
  6
CONTINUOUS
 10
-18.6413019789
 20
-7.9193189308
 11
-18.6413019789
 21
-6.6392877586
  0
LINE
  5
274
100
AcDbEntity
  8
RACCORDO
100
AcDbLine
 62
253
  6
CONTINUOUS
 10
-18.3413476703
 20
-7.9712938259
 11
-18.3413476703
 21
-6.33933345
  0
LINE
  5
275
100
AcDbEntity
  8
ASSI
100
AcDbLine
 62
253
  6
CONTINUOUS
 10
-18.3413476703
 20
-7.9712938259
 11
-18.3413476703
 21
-6.33933345
  0
LINE
  5
276
100
AcDbEntity
  8
RACCORDO
100
AcDbLine
 62
253
  6
CONTINUOUS
 10
-18.1309660282
 20
-6.33933345
 11
-18.1309660282
 21
-7.9712938259
  0
LINE
  5
277
100
AcDbEntity
  8
ASSI
100
AcDbLine
 62
253
  6
CONTINUOUS
 10
-18.1309660282
 20
-6.33933345
 11
-18.1309660282
 21
-7.9712938259
  0
LINE
  5
278
100
AcDbEntity
  8
RACCORDO
100
AcDbLine
 62
253
  6
CONTINUOUS
 10
-17.8310117196
 20
-6.6392877586
 11
-17.8310117196
 21
-7.9193189308
  0
LINE
  5
279
100
AcDbEntity
  8
ASSI
100
AcDbLine
 62
253
  6
CONTINUOUS
 10
-17.8310117196
 20
-6.6392877586
 11
-17.8310117196
 21
-7.9193189308
  0
LINE
  5
27A
100
AcDbEntity
  8
RACCORDO
100
AcDbLine
 62
7
  6
CONTINUOUS
 10
-23.7604479318
 20
1.7718831171
 11
-23.8117197583
 21
1.7206112905
  0
LINE
  5
27B
100
AcDbEntity
  8
ASSI
100
AcDbLine
 62
7
  6
CONTINUOUS
 10
-23.7604479318
 20
1.7718831171
 11
-23.8117197583
 21
1.7206112905
  0
LINE
  5
27C
100
AcDbEntity
  8
DRAFT
100
AcDbLine
 62
7
  6
CONTINUOUS
 10
-23.0536119142
 20
-4.1770235147
 11
-23.1144571992
 21
-4.1161782297
  0
LINE
  5
27D
100
AcDbEntity
  8
ASSI
100
AcDbLine
 62
7
  6
CONTINUOUS
 10
-23.0536119142
 20
-4.1770235147
 11
-23.1144571992
 21
-4.1161782297
  0
LINE
  5
27E
100
AcDbEntity
  8
DRAFT
100
AcDbLine
 62
7
  6
CONTINUOUS
 10
-24.1361568492
 20
-1.6944785796
 11
-24.0566690912
 21
-1.7739663377
  0
LINE
  5
27F
100
AcDbEntity
  8
ASSI
100
AcDbLine
 62
7
  6
CONTINUOUS
 10
-24.1361568492
 20
-1.6944785796
 11
-24.0566690912
 21
-1.7739663377
  0
LINE
  5
280
100
AcDbEntity
  8
DRAFT
100
AcDbLine
 62
7
  6
CONTINUOUS
 10
-23.8361568492
 20
-1.6944785796
 11
-23.8187017843
 21
-1.7119336446
  0
LINE
  5
281
100
AcDbEntity
  8
ASSI
100
AcDbLine
 62
7
  6
CONTINUOUS
 10
-23.8361568492
 20
-1.6944785796
 11
-23.8187017843
 21
-1.7119336446
  0
LINE
  5
282
100
AcDbEntity
  8
RACCORDO
100
AcDbLine
 62
253
  6
CONTINUOUS
 10
-18.6413019789
 20
-6.6392877586
 11
-18.6710522768
 21
-6.6095374607
  0
LINE
  5
283
100
AcDbEntity
  8
ASSI
100
AcDbLine
 62
253
  6
CONTINUOUS
 10
-18.6413019789
 20
-6.6392877586
 11
-18.6710522768
 21
-6.6095374607
  0
LINE
  5
284
100
AcDbEntity
  8
RACCORDO
100
AcDbLine
 62
7
  6
CONTINUOUS
 10
-17.8061067554
 20
-7.6677348106
 11
-17.8310117196
 21
-7.9193189308
  0
LINE
  5
285
100
AcDbEntity
  8
ASSI
100
AcDbLine
 62
7
  6
CONTINUOUS
 10
-17.8061067554
 20
-7.6677348106
 11
-17.8310117196
 21
-7.9193189308
  0
LINE
  5
286
100
AcDbEntity
  8
RACCORDO
100
AcDbLine
 62
7
  6
CONTINUOUS
 10
-22.5159218495
 20
1.7257564201
 11
-22.4646475754
 21
1.7770306942
  0
LINE
  5
287
100
AcDbEntity
  8
ASSI
100
AcDbLine
 62
7
  6
CONTINUOUS
 10
-22.5159218495
 20
1.7257564201
 11
-22.4646475754
 21
1.7770306942
  0
LINE
  5
288
100
AcDbEntity
  8
RACCORDO
100
AcDbLine
 62
253
  6
CONTINUOUS
 10
-20.20810223
 20
3.3335303481
 11
-20.1772770003
 21
3.3643555778
  0
LINE
  5
289
100
AcDbEntity
  8
ASSI
100
AcDbLine
 62
253
  6
CONTINUOUS
 10
-20.20810223
 20
3.3335303481
 11
-20.1772770003
 21
3.3643555778
  0
LINE
  5
28A
100
AcDbEntity
  8
RACCORDO
100
AcDbLine
 62
253
  6
CONTINUOUS
 10
-19.9080716653
 20
3.0336522957
 11
-19.8773226918
 21
3.0644012693
  0
LINE
  5
28B
100
AcDbEntity
  8
ASSI
100
AcDbLine
 62
253
  6
CONTINUOUS
 10
-19.9080716653
 20
3.0336522957
 11
-19.8773226918
 21
3.0644012693
  0
LINE
  5
28C
100
AcDbEntity
  8
RACCORDO
100
AcDbLine
 62
7
  6
CONTINUOUS
 10
-23.7614856204
 20
-1.0291545716
 11
-23.8187017843
 21
-1.0863707355
  0
LINE
  5
28D
100
AcDbEntity
  8
ASSI
100
AcDbLine
 62
7
  6
CONTINUOUS
 10
-23.7614856204
 20
-1.0291545716
 11
-23.8187017843
 21
-1.0863707355
  0
LINE
  5
28E
100
AcDbEntity
  8
RACCORDO
100
AcDbLine
 62
253
  6
CONTINUOUS
 10
-18.3413476703
 20
-6.33933345
 11
-18.3712936601
 21
-6.3093874602
  0
LINE
  5
28F
100
AcDbEntity
  8
ASSI
100
AcDbLine
 62
253
  6
CONTINUOUS
 10
-18.3413476703
 20
-6.33933345
 11
-18.3712936601
 21
-6.3093874602
  0
LINE
  5
290
100
AcDbEntity
  8
RACCORDO
100
AcDbLine
 62
7
  6
CONTINUOUS
 10
-23.7606880392
 20
1.0393998311
 11
-23.8117197583
 21
1.0904315502
  0
LINE
  5
291
100
AcDbEntity
  8
ASSI
100
AcDbLine
 62
7
  6
CONTINUOUS
 10
-23.7606880392
 20
1.0393998311
 11
-23.8117197583
 21
1.0904315502
  0
LINE
  5
292
100
AcDbEntity
  8
0
100
AcDbLine
 62
7
  6
CONTINUOUS
 10
-14.0361568492
 20
-2.4193328078
 11
-14.0361568492
 21
-2.1299710388
  0
LINE
  5
293
100
AcDbEntity
  8
ASSI
100
AcDbLine
 62
7
  6
CONTINUOUS
 10
-14.0361568492
 20
-2.4193328078
 11
-14.0361568492
 21
-2.1299710388
  0
LINE
  5
294
100
AcDbEntity
  8
DRAFT
100
AcDbLine
 62
7
  6
CONTINUOUS
 10
-23.0536119142
 20
-1.7119336446
 11
-23.1156446073
 21
-1.7739663377
  0
LINE
  5
295
100
AcDbEntity
  8
ASSI
100
AcDbLine
 62
7
  6
CONTINUOUS
 10
-23.0536119142
 20
-1.7119336446
 11
-23.1156446073
 21
-1.7739663377
  0
LINE
  5
296
100
AcDbEntity
  8
DRAFT
100
AcDbLine
 62
7
  6
CONTINUOUS
 10
-24.1316492634
 20
-4.1899709938
 11
-24.0578564993
 21
-4.1161782297
  0
LINE
  5
297
100
AcDbEntity
  8
ASSI
100
AcDbLine
 62
7
  6
CONTINUOUS
 10
-24.1316492634
 20
-4.1899709938
 11
-24.0578564993
 21
-4.1161782297
  0
LINE
  5
298
100
AcDbEntity
  8
RACCORDO
100
AcDbLine
 62
7
  6
CONTINUOUS
 10
-22.5159218495
 20
1.0852864206
 11
-22.464890884
 21
1.0342554552
  0
LINE
  5
299
100
AcDbEntity
  8
ASSI
100
AcDbLine
 62
7
  6
CONTINUOUS
 10
-22.5159218495
 20
1.0852864206
 11
-22.464890884
 21
1.0342554552
  0
LINE
  5
29A
100
AcDbEntity
  8
0
100
AcDbLine
 62
7
  6
CONTINUOUS
 10
-13.8236568492
 20
-3.5767795796
 11
-13.8236568492
 21
-2.1661412473
  0
LINE
  5
29B
100
AcDbEntity
  8
ASSI
100
AcDbLine
 62
7
  6
CONTINUOUS
 10
-13.8236568492
 20
-3.5767795796
 11
-13.8236568492
 21
-2.1661412473
  0
LINE
  5
29C
100
AcDbEntity
  8
0
100
AcDbLine
 62
7
  6
CONTINUOUS
 10
-13.6111568492
 20
-3.5767795796
 11
-13.6111568492
 21
-1.8767795796
  0
LINE
  5
29D
100
AcDbEntity
  8
ASSI
100
AcDbLine
 62
7
  6
CONTINUOUS
 10
-13.6111568492
 20
-3.5767795796
 11
-13.6111568492
 21
-1.8767795796
  0
LINE
  5
29E
100
AcDbEntity
  8
0
100
AcDbLine
 62
7
  6
CONTINUOUS
 10
-13.3278235328
 20
-2.8533753092
 11
-13.3278235328
 21
-2.60018385
  0
LINE
  5
29F
100
AcDbEntity
  8
ASSI
100
AcDbLine
 62
7
  6
CONTINUOUS
 10
-13.3278235328
 20
-2.8533753092
 11
-13.3278235328
 21
-2.60018385
  0
LINE
  5
2A0
100
AcDbEntity
  8
0
100
AcDbLine
 62
7
  6
CONTINUOUS
 10
-13.1507402164
 20
-2.6725242669
 11
-13.1507402164
 21
-2.60018385
  0
LINE
  5
2A1
100
AcDbEntity
  8
ASSI
100
AcDbLine
 62
7
  6
CONTINUOUS
 10
-13.1507402164
 20
-2.6725242669
 11
-13.1507402164
 21
-2.60018385
  0
LINE
  5
2A2
100
AcDbEntity
  8
0
100
AcDbLine
 62
7
  6
CONTINUOUS
 10
-13.1153234821
 20
-3.0703966106
 11
-13.1153234821
 21
-2.9618859852
  0
LINE
  5
2A3
100
AcDbEntity
  8
ASSI
100
AcDbLine
 62
7
  6
CONTINUOUS
 10
-13.1153234821
 20
-3.0703966106
 11
-13.1153234821
 21
-2.9618859852
  0
LINE
  5
2A4
100
AcDbEntity
  8
0
100
AcDbLine
 62
7
  6
CONTINUOUS
 10
-13.3278235328
 20
-2.60018385
 11
-13.2924068492
 21
-2.3469923909
  0
LINE
  5
2A5
100
AcDbEntity
  8
ASSI
100
AcDbLine
 62
7
  6
CONTINUOUS
 10
-13.3278235328
 20
-2.60018385
 11
-13.2924068492
 21
-2.3469923909
  0
LINE
  5
2A6
100
AcDbEntity
  8
0
100
AcDbLine
 62
7
  6
CONTINUOUS
 10
-13.1507402164
 20
-2.60018385
 11
-13.1153234821
 21
-2.3831625993
  0
LINE
  5
2A7
100
AcDbEntity
  8
ASSI
100
AcDbLine
 62
7
  6
CONTINUOUS
 10
-13.1507402164
 20
-2.60018385
 11
-13.1153234821
 21
-2.3831625993
  0
LINE
  5
2A8
100
AcDbEntity
  8
DRAFT
100
AcDbLine
 62
7
  6
CONTINUOUS
 10
-23.8316492642
 20
-4.1899709946
 11
-23.8187017843
 21
-4.1770235147
  0
LINE
  5
2A9
100
AcDbEntity
  8
ASSI
100
AcDbLine
 62
7
  6
CONTINUOUS
 10
-23.8316492642
 20
-4.1899709946
 11
-23.8187017843
 21
-4.1770235147
  0
LINE
  5
2AA
100
AcDbEntity
  8
RACCORDO
100
AcDbLine
 62
7
  6
CONTINUOUS
 10
-23.7642082248
 20
-6.1318771759
 11
-23.8117197583
 21
-6.1793887095
  0
LINE
  5
2AB
100
AcDbEntity
  8
ASSI
100
AcDbLine
 62
7
  6
CONTINUOUS
 10
-23.7642082248
 20
-6.1318771759
 11
-23.8117197583
 21
-6.1793887095
  0
LINE
  5
2AC
100
AcDbEntity
  8
0
100
AcDbLine
 62
7
  6
CONTINUOUS
 10
-13.1153234821
 20
-3.4320987331
 11
-13.2215735328
 21
-3.2874178867
  0
LINE
  5
2AD
100
AcDbEntity
  8
ASSI
100
AcDbLine
 62
7
  6
CONTINUOUS
 10
-13.1153234821
 20
-3.4320987331
 11
-13.2215735328
 21
-3.2874178867
  0
LINE
  5
2AE
100
AcDbEntity
  8
0
100
AcDbLine
 62
7
  6
CONTINUOUS
 10
-13.0090734821
 20
-3.2874178867
 11
-13.0799068492
 21
-3.178907236
  0
LINE
  5
2AF
100
AcDbEntity
  8
ASSI
100
AcDbLine
 62
7
  6
CONTINUOUS
 10
-13.0090734821
 20
-3.2874178867
 11
-13.0799068492
 21
-3.178907236
  0
LINE
  5
2B0
100
AcDbEntity
  8
0
100
AcDbLine
 62
7
  6
CONTINUOUS
 10
-13.2215735328
 20
-3.2874178867
 11
-13.2924068492
 21
-3.1065668191
  0
LINE
  5
2B1
100
AcDbEntity
  8
ASSI
100
AcDbLine
 62
7
  6
CONTINUOUS
 10
-13.2215735328
 20
-3.2874178867
 11
-13.2924068492
 21
-3.1065668191
  0
LINE
  5
2B2
100
AcDbEntity
  8
0
100
AcDbLine
 62
7
  6
CONTINUOUS
 10
-12.0528235835
 20
-2.9257157261
 11
-12.1236568492
 21
-2.7448646839
  0
LINE
  5
2B3
100
AcDbEntity
  8
ASSI
100
AcDbLine
 62
7
  6
CONTINUOUS
 10
-12.0528235835
 20
-2.9257157261
 11
-12.1236568492
 21
-2.7448646839
  0
LINE
  5
2B4
100
AcDbEntity
  8
0
100
AcDbLine
 62
7
  6
CONTINUOUS
 10
-13.0799068492
 20
-3.178907236
 11
-13.1153234821
 21
-3.0703966106
  0
LINE
  5
2B5
100
AcDbEntity
  8
ASSI
100
AcDbLine
 62
7
  6
CONTINUOUS
 10
-13.0799068492
 20
-3.178907236
 11
-13.1153234821
 21
-3.0703966106
  0
LINE
  5
2B6
100
AcDbEntity
  8
0
100
AcDbLine
 62
7
  6
CONTINUOUS
 10
-12.2299068492
 20
-2.9618859852
 11
-12.2653235835
 21
-2.8533753092
  0
LINE
  5
2B7
100
AcDbEntity
  8
ASSI
100
AcDbLine
 62
7
  6
CONTINUOUS
 10
-12.2299068492
 20
-2.9618859852
 11
-12.2653235835
 21
-2.8533753092
  0
LINE
  5
2B8
100
AcDbEntity
  8
0
100
AcDbLine
 62
7
  6
CONTINUOUS
 10
-13.2924068492
 20
-3.1065668191
 11
-13.3278235328
 21
-2.8533753092
  0
LINE
  5
2B9
100
AcDbEntity
  8
ASSI
100
AcDbLine
 62
7
  6
CONTINUOUS
 10
-13.2924068492
 20
-3.1065668191
 11
-13.3278235328
 21
-2.8533753092
  0
LINE
  5
2BA
100
AcDbEntity
  8
0
100
AcDbLine
 62
7
  6
CONTINUOUS
 10
-12.2299068492
 20
-3.0703966106
 11
-12.2299068492
 21
-2.9618859852
  0
LINE
  5
2BB
100
AcDbEntity
  8
ASSI
100
AcDbLine
 62
7
  6
CONTINUOUS
 10
-12.2299068492
 20
-3.0703966106
 11
-12.2299068492
 21
-2.9618859852
  0
LINE
  5
2BC
100
AcDbEntity
  8
0
100
AcDbLine
 62
7
  6
CONTINUOUS
 10
-12.0528235835
 20
-3.1065668191
 11
-12.0528235835
 21
-2.9257157261
  0
LINE
  5
2BD
100
AcDbEntity
  8
ASSI
100
AcDbLine
 62
7
  6
CONTINUOUS
 10
-12.0528235835
 20
-3.1065668191
 11
-12.0528235835
 21
-2.9257157261
  0
LINE
  5
2BE
100
AcDbEntity
  8
0
100
AcDbLine
 62
7
  6
CONTINUOUS
 10
-11.769490115
 20
-3.1427370275
 11
-11.769490115
 21
-3.0342264022
  0
LINE
  5
2BF
100
AcDbEntity
  8
ASSI
100
AcDbLine
 62
7
  6
CONTINUOUS
 10
-11.769490115
 20
-3.1427370275
 11
-11.769490115
 21
-3.0342264022
  0
LINE
  5
2C0
100
AcDbEntity
  8
0
100
AcDbLine
 62
7
  6
CONTINUOUS
 10
-11.7340735835
 20
-2.4193328078
 11
-11.7340735835
 21
-2.3108221824
  0
LINE
  5
2C1
100
AcDbEntity
  8
ASSI
100
AcDbLine
 62
7
  6
CONTINUOUS
 10
-11.7340735835
 20
-2.4193328078
 11
-11.7340735835
 21
-2.3108221824
  0
LINE
  5
2C2
100
AcDbEntity
  8
0
100
AcDbLine
 62
7
  6
CONTINUOUS
 10
-11.5924068492
 20
-3.1427370275
 11
-11.5924068492
 21
-3.0342264022
  0
LINE
  5
2C3
100
AcDbEntity
  8
ASSI
100
AcDbLine
 62
7
  6
CONTINUOUS
 10
-11.5924068492
 20
-3.1427370275
 11
-11.5924068492
 21
-3.0342264022
  0
LINE
  5
2C4
100
AcDbEntity
  8
0
100
AcDbLine
 62
7
  6
CONTINUOUS
 10
-11.556990115
 20
-2.3831625993
 11
-11.556990115
 21
-2.3108221824
  0
LINE
  5
2C5
100
AcDbEntity
  8
ASSI
100
AcDbLine
 62
7
  6
CONTINUOUS
 10
-11.556990115
 20
-2.3831625993
 11
-11.556990115
 21
-2.3108221824
  0
LINE
  5
2C6
100
AcDbEntity
  8
0
100
AcDbLine
 62
7
  6
CONTINUOUS
 10
-10.706990115
 20
-2.3831625993
 11
-10.706990115
 21
-2.3108221824
  0
LINE
  5
2C7
100
AcDbEntity
  8
ASSI
100
AcDbLine
 62
7
  6
CONTINUOUS
 10
-10.706990115
 20
-2.3831625993
 11
-10.706990115
 21
-2.3108221824
  0
LINE
  5
2C8
100
AcDbEntity
  8
0
100
AcDbLine
 62
7
  6
CONTINUOUS
 10
-10.6715735835
 20
-3.1427370275
 11
-10.6715735835
 21
-3.0342264022
  0
LINE
  5
2C9
100
AcDbEntity
  8
ASSI
100
AcDbLine
 62
7
  6
CONTINUOUS
 10
-10.6715735835
 20
-3.1427370275
 11
-10.6715735835
 21
-3.0342264022
  0
LINE
  5
2CA
100
AcDbEntity
  8
0
100
AcDbLine
 62
7
  6
CONTINUOUS
 10
-10.5299068492
 20
-2.4193328078
 11
-10.5299068492
 21
-2.3108221824
  0
LINE
  5
2CB
100
AcDbEntity
  8
ASSI
100
AcDbLine
 62
7
  6
CONTINUOUS
 10
-10.5299068492
 20
-2.4193328078
 11
-10.5299068492
 21
-2.3108221824
  0
LINE
  5
2CC
100
AcDbEntity
  8
0
100
AcDbLine
 62
7
  6
CONTINUOUS
 10
-10.4944903177
 20
-3.1427370275
 11
-10.4944903177
 21
-3.0342264022
  0
LINE
  5
2CD
100
AcDbEntity
  8
ASSI
100
AcDbLine
 62
7
  6
CONTINUOUS
 10
-10.4944903177
 20
-3.1427370275
 11
-10.4944903177
 21
-3.0342264022
  0
LINE
  5
2CE
100
AcDbEntity
  8
0
100
AcDbLine
 62
7
  6
CONTINUOUS
 10
-13.1153234821
 20
-2.3831625993
 11
-13.0799068492
 21
-2.2746518726
  0
LINE
  5
2CF
100
AcDbEntity
  8
ASSI
100
AcDbLine
 62
7
  6
CONTINUOUS
 10
-13.1153234821
 20
-2.3831625993
 11
-13.0799068492
 21
-2.2746518726
  0
LINE
  5
2D0
100
AcDbEntity
  8
0
100
AcDbLine
 62
7
  6
CONTINUOUS
 10
-13.1153234821
 20
-2.9618859852
 11
-13.0799068492
 21
-2.8533753092
  0
LINE
  5
2D1
100
AcDbEntity
  8
ASSI
100
AcDbLine
 62
7
  6
CONTINUOUS
 10
-13.1153234821
 20
-2.9618859852
 11
-13.0799068492
 21
-2.8533753092
  0
LINE
  5
2D2
100
AcDbEntity
  8
0
100
AcDbLine
 62
7
  6
CONTINUOUS
 10
-12.2653235835
 20
-3.178907236
 11
-12.2299068492
 21
-3.0703966106
  0
LINE
  5
2D3
100
AcDbEntity
  8
ASSI
100
AcDbLine
 62
7
  6
CONTINUOUS
 10
-12.2653235835
 20
-3.178907236
 11
-12.2299068492
 21
-3.0703966106
  0
LINE
  5
2D4
100
AcDbEntity
  8
0
100
AcDbLine
 62
7
  6
CONTINUOUS
 10
-13.2924068492
 20
-2.3469923909
 11
-13.2215735328
 21
-2.1661412473
  0
LINE
  5
2D5
100
AcDbEntity
  8
ASSI
100
AcDbLine
 62
7
  6
CONTINUOUS
 10
-13.2924068492
 20
-2.3469923909
 11
-13.2215735328
 21
-2.1661412473
  0
LINE
  5
2D6
100
AcDbEntity
  8
RACCORDO
100
AcDbLine
 62
7
  6
CONTINUOUS
 10
-22.5159218495
 20
-6.1742435799
 11
-22.4684035229
 21
-6.1267252533
  0
LINE
  5
2D7
100
AcDbEntity
  8
ASSI
100
AcDbLine
 62
7
  6
CONTINUOUS
 10
-22.5159218495
 20
-6.1742435799
 11
-22.4684035229
 21
-6.1267252533
  0
LINE
  5
2D8
100
AcDbEntity
  8
RACCORDO
100
AcDbLine
 62
253
  6
CONTINUOUS
 10
-19.6949910067
 20
3.0644012693
 11
-19.6642420331
 21
3.0336522957
  0
LINE
  5
2D9
100
AcDbEntity
  8
ASSI
100
AcDbLine
 62
253
  6
CONTINUOUS
 10
-19.6949910067
 20
3.0644012693
 11
-19.6642420331
 21
3.0336522957
  0
LINE
  5
2DA
100
AcDbEntity
  8
RACCORDO
100
AcDbLine
 62
253
  6
CONTINUOUS
 10
-19.3950366982
 20
3.3643555778
 11
-19.3642114685
 21
3.3335303481
  0
LINE
  5
2DB
100
AcDbEntity
  8
ASSI
100
AcDbLine
 62
253
  6
CONTINUOUS
 10
-19.3950366982
 20
3.3643555778
 11
-19.3642114685
 21
3.3335303481
  0
LINE
  5
2DC
100
AcDbEntity
  8
RACCORDO
100
AcDbLine
 62
7
  6
CONTINUOUS
 10
-23.8291748233
 20
8.0078866152
 11
-23.7593037705
 21
7.9380155624
  0
LINE
  5
2DD
100
AcDbEntity
  8
ASSI
100
AcDbLine
 62
7
  6
CONTINUOUS
 10
-23.8291748233
 20
8.0078866152
 11
-23.7593037705
 21
7.9380155624
  0
LINE
  5
2DE
100
AcDbEntity
  8
0
100
AcDbLine
 62
7
  6
CONTINUOUS
 10
-12.2653235835
 20
-2.8533753092
 11
-12.3361568492
 21
-2.7810348923
  0
LINE
  5
2DF
100
AcDbEntity
  8
ASSI
100
AcDbLine
 62
7
  6
CONTINUOUS
 10
-12.2653235835
 20
-2.8533753092
 11
-12.3361568492
 21
-2.7810348923
  0
LINE
  5
2E0
100
AcDbEntity
  8
0
100
AcDbLine
 62
7
  6
CONTINUOUS
 10
-11.5924068492
 20
-3.4320987331
 11
-11.6986568492
 21
-3.3235880951
  0
LINE
  5
2E1
100
AcDbEntity
  8
ASSI
100
AcDbLine
 62
7
  6
CONTINUOUS
 10
-11.5924068492
 20
-3.4320987331
 11
-11.6986568492
 21
-3.3235880951
  0
LINE
  5
2E2
100
AcDbEntity
  8
0
100
AcDbLine
 62
7
  6
CONTINUOUS
 10
-12.1236568492
 20
-2.7448646839
 11
-12.2299068492
 21
-2.6363540585
  0
LINE
  5
2E3
100
AcDbEntity
  8
ASSI
100
AcDbLine
 62
7
  6
CONTINUOUS
 10
-12.1236568492
 20
-2.7448646839
 11
-12.2299068492
 21
-2.6363540585
  0
LINE
  5
2E4
100
AcDbEntity
  8
0
100
AcDbLine
 62
7
  6
CONTINUOUS
 10
-11.4861568492
 20
-3.2874178867
 11
-11.5924068492
 21
-3.1427370275
  0
LINE
  5
2E5
100
AcDbEntity
  8
ASSI
100
AcDbLine
 62
7
  6
CONTINUOUS
 10
-11.4861568492
 20
-3.2874178867
 11
-11.5924068492
 21
-3.1427370275
  0
LINE
  5
2E6
100
AcDbEntity
  8
0
100
AcDbLine
 62
7
  6
CONTINUOUS
 10
-12.1590735835
 20
-2.1661412473
 11
-12.2653235835
 21
-2.0214604134
  0
LINE
  5
2E7
100
AcDbEntity
  8
ASSI
100
AcDbLine
 62
7
  6
CONTINUOUS
 10
-12.1590735835
 20
-2.1661412473
 11
-12.2653235835
 21
-2.0214604134
  0
LINE
  5
2E8
100
AcDbEntity
  8
0
100
AcDbLine
 62
7
  6
CONTINUOUS
 10
-12.300740115
 20
-2.2746518726
 11
-12.3715734821
 21
-2.1661412473
  0
LINE
  5
2E9
100
AcDbEntity
  8
ASSI
100
AcDbLine
 62
7
  6
CONTINUOUS
 10
-12.300740115
 20
-2.2746518726
 11
-12.3715734821
 21
-2.1661412473
  0
LINE
  5
2EA
100
AcDbEntity
  8
0
100
AcDbLine
 62
7
  6
CONTINUOUS
 10
-11.4861568492
 20
-2.4916732247
 11
-11.556990115
 21
-2.3831625993
  0
LINE
  5
2EB
100
AcDbEntity
  8
ASSI
100
AcDbLine
 62
7
  6
CONTINUOUS
 10
-11.4861568492
 20
-2.4916732247
 11
-11.556990115
 21
-2.3831625993
  0
LINE
  5
2EC
100
AcDbEntity
  8
0
100
AcDbLine
 62
7
  6
CONTINUOUS
 10
-11.663240115
 20
-2.5640136416
 11
-11.7340735835
 21
-2.4193328078
  0
LINE
  5
2ED
100
AcDbEntity
  8
ASSI
100
AcDbLine
 62
7
  6
CONTINUOUS
 10
-11.663240115
 20
-2.5640136416
 11
-11.7340735835
 21
-2.4193328078
  0
LINE
  5
2EE
100
AcDbEntity
  8
0
100
AcDbLine
 62
7
  6
CONTINUOUS
 10
-11.6986568492
 20
-3.3235880951
 11
-11.769490115
 21
-3.1427370275
  0
LINE
  5
2EF
100
AcDbEntity
  8
ASSI
100
AcDbLine
 62
7
  6
CONTINUOUS
 10
-11.6986568492
 20
-3.3235880951
 11
-11.769490115
 21
-3.1427370275
  0
LINE
  5
2F0
100
AcDbEntity
  8
0
100
AcDbLine
 62
7
  6
CONTINUOUS
 10
-10.4944903177
 20
-3.0342264022
 11
-10.5653233808
 21
-2.8533753092
  0
LINE
  5
2F1
100
AcDbEntity
  8
ASSI
100
AcDbLine
 62
7
  6
CONTINUOUS
 10
-10.4944903177
 20
-3.0342264022
 11
-10.5653233808
 21
-2.8533753092
  0
LINE
  5
2F2
100
AcDbEntity
  8
0
100
AcDbLine
 62
7
  6
CONTINUOUS
 10
-10.5299068492
 20
-2.3108221824
 11
-10.6007403177
 21
-2.1299710388
  0
LINE
  5
2F3
100
AcDbEntity
  8
ASSI
100
AcDbLine
 62
7
  6
CONTINUOUS
 10
-10.5299068492
 20
-2.3108221824
 11
-10.6007403177
 21
-2.1299710388
  0
LINE
  5
2F4
100
AcDbEntity
  8
0
100
AcDbLine
 62
7
  6
CONTINUOUS
 10
-12.1236568492
 20
-2.2746518726
 11
-12.1590735835
 21
-2.1661412473
  0
LINE
  5
2F5
100
AcDbEntity
  8
ASSI
100
AcDbLine
 62
7
  6
CONTINUOUS
 10
-12.1236568492
 20
-2.2746518726
 11
-12.1590735835
 21
-2.1661412473
  0
LINE
  5
2F6
100
AcDbEntity
  8
0
100
AcDbLine
 62
7
  6
CONTINUOUS
 10
-10.2111568492
 20
-3.0703966106
 11
-10.2111568492
 21
-2.8533753092
  0
LINE
  5
2F7
100
AcDbEntity
  8
ASSI
100
AcDbLine
 62
7
  6
CONTINUOUS
 10
-10.2111568492
 20
-3.0703966106
 11
-10.2111568492
 21
-2.8533753092
  0
LINE
  5
2F8
100
AcDbEntity
  8
0
100
AcDbLine
 62
7
  6
CONTINUOUS
 10
-9.3611568492
 20
-3.5767795796
 11
-9.3611568492
 21
-3.0703966106
  0
LINE
  5
2F9
100
AcDbEntity
  8
ASSI
100
AcDbLine
 62
7
  6
CONTINUOUS
 10
-9.3611568492
 20
-3.5767795796
 11
-9.3611568492
 21
-3.0703966106
  0
LINE
  5
2FA
100
AcDbEntity
  8
0
100
AcDbLine
 62
7
  6
CONTINUOUS
 10
-9.3611568492
 20
-2.8533753092
 11
-9.3611568492
 21
-2.1661412473
  0
LINE
  5
2FB
100
AcDbEntity
  8
ASSI
100
AcDbLine
 62
7
  6
CONTINUOUS
 10
-9.3611568492
 20
-2.8533753092
 11
-9.3611568492
 21
-2.1661412473
  0
LINE
  5
2FC
100
AcDbEntity
  8
0
100
AcDbLine
 62
7
  6
CONTINUOUS
 10
-9.1486568492
 20
-3.5767795796
 11
-9.1486568492
 21
-3.0703966106
  0
LINE
  5
2FD
100
AcDbEntity
  8
ASSI
100
AcDbLine
 62
7
  6
CONTINUOUS
 10
-9.1486568492
 20
-3.5767795796
 11
-9.1486568492
 21
-3.0703966106
  0
LINE
  5
2FE
100
AcDbEntity
  8
0
100
AcDbLine
 62
7
  6
CONTINUOUS
 10
-9.1486568492
 20
-2.8533753092
 11
-9.1486568492
 21
-1.8767795796
  0
LINE
  5
2FF
100
AcDbEntity
  8
ASSI
100
AcDbLine
 62
7
  6
CONTINUOUS
 10
-9.1486568492
 20
-2.8533753092
 11
-9.1486568492
 21
-1.8767795796
  0
LINE
  5
300
100
AcDbEntity
  8
0
100
AcDbLine
 62
7
  6
CONTINUOUS
 10
-8.7944903177
 20
-3.0703966106
 11
-8.7944903177
 21
-2.8533753092
  0
LINE
  5
301
100
AcDbEntity
  8
ASSI
100
AcDbLine
 62
7
  6
CONTINUOUS
 10
-8.7944903177
 20
-3.0703966106
 11
-8.7944903177
 21
-2.8533753092
  0
LINE
  5
302
100
AcDbEntity
  8
0
100
AcDbLine
 62
7
  6
CONTINUOUS
 10
-12.1236568492
 20
-3.2874178867
 11
-12.0528235835
 21
-3.1065668191
  0
LINE
  5
303
100
AcDbEntity
  8
ASSI
100
AcDbLine
 62
7
  6
CONTINUOUS
 10
-12.1236568492
 20
-3.2874178867
 11
-12.0528235835
 21
-3.1065668191
  0
LINE
  5
304
100
AcDbEntity
  8
0
100
AcDbLine
 62
7
  6
CONTINUOUS
 10
-11.7340735835
 20
-2.3108221824
 11
-11.663240115
 21
-2.1299710388
  0
LINE
  5
305
100
AcDbEntity
  8
ASSI
100
AcDbLine
 62
7
  6
CONTINUOUS
 10
-11.7340735835
 20
-2.3108221824
 11
-11.663240115
 21
-2.1299710388
  0
LINE
  5
306
100
AcDbEntity
  8
0
100
AcDbLine
 62
7
  6
CONTINUOUS
 10
-11.769490115
 20
-3.0342264022
 11
-11.6986568492
 21
-2.8533753092
  0
LINE
  5
307
100
AcDbEntity
  8
ASSI
100
AcDbLine
 62
7
  6
CONTINUOUS
 10
-11.769490115
 20
-3.0342264022
 11
-11.6986568492
 21
-2.8533753092
  0
LINE
  5
308
100
AcDbEntity
  8
0
100
AcDbLine
 62
7
  6
CONTINUOUS
 10
-13.0799068492
 20
-2.2746518726
 11
-13.0090734821
 21
-2.1661412473
  0
LINE
  5
309
100
AcDbEntity
  8
ASSI
100
AcDbLine
 62
7
  6
CONTINUOUS
 10
-13.0799068492
 20
-2.2746518726
 11
-13.0090734821
 21
-2.1661412473
  0
LINE
  5
30A
100
AcDbEntity
  8
0
100
AcDbLine
 62
7
  6
CONTINUOUS
 10
-13.2215735328
 20
-2.1661412473
 11
-13.1153234821
 21
-2.0214604134
  0
LINE
  5
30B
100
AcDbEntity
  8
ASSI
100
AcDbLine
 62
7
  6
CONTINUOUS
 10
-13.2215735328
 20
-2.1661412473
 11
-13.1153234821
 21
-2.0214604134
  0
LINE
  5
30C
100
AcDbEntity
  8
0
100
AcDbLine
 62
7
  6
CONTINUOUS
 10
-14.0361568492
 20
-2.1299710388
 11
-13.8236568492
 21
-1.8767795796
  0
LINE
  5
30D
100
AcDbEntity
  8
ASSI
100
AcDbLine
 62
7
  6
CONTINUOUS
 10
-14.0361568492
 20
-2.1299710388
 11
-13.8236568492
 21
-1.8767795796
  0
LINE
  5
30E
100
AcDbEntity
  8
0
100
AcDbLine
 62
7
  6
CONTINUOUS
 10
-14.0361568492
 20
-2.4193328078
 11
-13.8236568492
 21
-2.1661412473
  0
LINE
  5
30F
100
AcDbEntity
  8
ASSI
100
AcDbLine
 62
7
  6
CONTINUOUS
 10
-14.0361568492
 20
-2.4193328078
 11
-13.8236568492
 21
-2.1661412473
  0
LINE
  5
310
100
AcDbEntity
  8
RACCORDO
100
AcDbLine
 62
7
  6
CONTINUOUS
 10
24.3998918939
 20
-9.3375034832
 11
23.5498918953
 21
-9.3375034832
  0
LINE
  5
311
100
AcDbEntity
  8
RACCORDO
100
AcDbLine
 62
7
  6
CONTINUOUS
 10
-23.8222055938
 20
-9.3375034832
 11
-24.6722055924
 21
-9.3375034832
  0
LINE
  5
312
100
AcDbEntity
  8
DRAFT
100
AcDbLine
 62
7
  6
CONTINUOUS
 10
-23.8222023947
 20
-9.3375018837
 11
23.5498886962
 21
-9.3375018837
  0
LINE
  5
313
100
AcDbEntity
  8
ASSI
100
AcDbLine
 62
7
  6
CONTINUOUS
 10
-24.6722055924
 20
-9.3375034832
 11
24.3998918939
 21
-9.3375034832
  0
LINE
  5
314
100
AcDbEntity
  8
0
100
AcDbLine
 62
7
  6
CONTINUOUS
 10
-12.9382402164
 20
-3.540609368
 11
-13.1153234821
 21
-3.4320987331
  0
LINE
  5
315
100
AcDbEntity
  8
ASSI
100
AcDbLine
 62
7
  6
CONTINUOUS
 10
-12.9382402164
 20
-3.540609368
 11
-13.1153234821
 21
-3.4320987331
  0
LINE
  5
316
100
AcDbEntity
  8
0
100
AcDbLine
 62
7
  6
CONTINUOUS
 10
-11.4153235835
 20
-3.540609368
 11
-11.5924068492
 21
-3.4320987331
  0
LINE
  5
317
100
AcDbEntity
  8
ASSI
100
AcDbLine
 62
7
  6
CONTINUOUS
 10
-11.4153235835
 20
-3.540609368
 11
-11.5924068492
 21
-3.4320987331
  0
LINE
  5
318
100
AcDbEntity
  8
0
100
AcDbLine
 62
7
  6
CONTINUOUS
 10
-12.9028234821
 20
-3.3597583036
 11
-13.0090734821
 21
-3.2874178867
  0
LINE
  5
319
100
AcDbEntity
  8
ASSI
100
AcDbLine
 62
7
  6
CONTINUOUS
 10
-12.9028234821
 20
-3.3597583036
 11
-13.0090734821
 21
-3.2874178867
  0
LINE
  5
31A
100
AcDbEntity
  8
0
100
AcDbLine
 62
7
  6
CONTINUOUS
 10
-12.3361568492
 20
-2.7810348923
 11
-12.4424068492
 21
-2.7086944754
  0
LINE
  5
31B
100
AcDbEntity
  8
ASSI
100
AcDbLine
 62
7
  6
CONTINUOUS
 10
-12.3361568492
 20
-2.7810348923
 11
-12.4424068492
 21
-2.7086944754
  0
LINE
  5
31C
100
AcDbEntity
  8
0
100
AcDbLine
 62
7
  6
CONTINUOUS
 10
-12.3715734821
 20
-2.1661412473
 11
-12.4778234821
 21
-2.0938008304
  0
LINE
  5
31D
100
AcDbEntity
  8
ASSI
100
AcDbLine
 62
7
  6
CONTINUOUS
 10
-12.3715734821
 20
-2.1661412473
 11
-12.4778234821
 21
-2.0938008304
  0
LINE
  5
31E
100
AcDbEntity
  8
0
100
AcDbLine
 62
7
  6
CONTINUOUS
 10
-11.344490115
 20
-2.60018385
 11
-11.4861568492
 21
-2.4916732247
  0
LINE
  5
31F
100
AcDbEntity
  8
ASSI
100
AcDbLine
 62
7
  6
CONTINUOUS
 10
-11.344490115
 20
-2.60018385
 11
-11.4861568492
 21
-2.4916732247
  0
LINE
  5
320
100
AcDbEntity
  8
RACCORDO
100
AcDbLine
 62
253
  6
CONTINUOUS
 10
-7.4413019789
 20
-6.6392877586
 11
-7.4710522768
 21
-6.6095374607
  0
LINE
  5
321
100
AcDbEntity
  8
ASSI
100
AcDbLine
 62
253
  6
CONTINUOUS
 10
-7.4413019789
 20
-6.6392877586
 11
-7.4710522768
 21
-6.6095374607
  0
LINE
  5
322
100
AcDbEntity
  8
RACCORDO
100
AcDbLine
 62
253
  6
CONTINUOUS
 10
-7.1413476703
 20
-6.33933345
 11
-7.1712936601
 21
-6.3093874602
  0
LINE
  5
323
100
AcDbEntity
  8
ASSI
100
AcDbLine
 62
253
  6
CONTINUOUS
 10
-7.1413476703
 20
-6.33933345
 11
-7.1712936601
 21
-6.3093874602
  0
LINE
  5
324
100
AcDbEntity
  8
0
100
AcDbLine
 62
7
  6
CONTINUOUS
 10
-11.556990115
 20
-2.6725242669
 11
-11.663240115
 21
-2.5640136416
  0
LINE
  5
325
100
AcDbEntity
  8
ASSI
100
AcDbLine
 62
7
  6
CONTINUOUS
 10
-11.556990115
 20
-2.6725242669
 11
-11.663240115
 21
-2.5640136416
  0
LINE
  5
326
100
AcDbEntity
  8
0
100
AcDbLine
 62
7
  6
CONTINUOUS
 10
-10.6007403177
 20
-2.1299710388
 11
-10.706990115
 21
-2.0214604134
  0
LINE
  5
327
100
AcDbEntity
  8
ASSI
100
AcDbLine
 62
7
  6
CONTINUOUS
 10
-10.6007403177
 20
-2.1299710388
 11
-10.706990115
 21
-2.0214604134
  0
LINE
  5
328
100
AcDbEntity
  8
0
100
AcDbLine
 62
7
  6
CONTINUOUS
 10
-10.6715735835
 20
-3.0342264022
 11
-10.7778235835
 21
-2.8895455177
  0
LINE
  5
329
100
AcDbEntity
  8
ASSI
100
AcDbLine
 62
7
  6
CONTINUOUS
 10
-10.6715735835
 20
-3.0342264022
 11
-10.7778235835
 21
-2.8895455177
  0
LINE
  5
32A
100
AcDbEntity
  8
0
100
AcDbLine
 62
7
  6
CONTINUOUS
 10
-10.706990115
 20
-2.3108221824
 11
-10.7778235835
 21
-2.2023114557
  0
LINE
  5
32B
100
AcDbEntity
  8
ASSI
100
AcDbLine
 62
7
  6
CONTINUOUS
 10
-10.706990115
 20
-2.3108221824
 11
-10.7778235835
 21
-2.2023114557
  0
LINE
  5
32C
100
AcDbEntity
  8
RACCORDO
100
AcDbLine
 62
7
  6
CONTINUOUS
 10
-7.4662069431
 20
-7.6677348106
 11
-7.4413019789
 21
-7.9193189308
  0
LINE
  5
32D
100
AcDbEntity
  8
ASSI
100
AcDbLine
 62
7
  6
CONTINUOUS
 10
-7.4662069431
 20
-7.6677348106
 11
-7.4413019789
 21
-7.9193189308
  0
LINE
  5
32E
100
AcDbEntity
  8
0
100
AcDbLine
 62
7
  6
CONTINUOUS
 10
-8.5111568492
 20
-3.5767795796
 11
-8.5111568492
 21
-3.395928512
  0
LINE
  5
32F
100
AcDbEntity
  8
ASSI
100
AcDbLine
 62
7
  6
CONTINUOUS
 10
-8.5111568492
 20
-3.5767795796
 11
-8.5111568492
 21
-3.395928512
  0
LINE
  5
330
100
AcDbEntity
  8
0
100
AcDbLine
 62
7
  6
CONTINUOUS
 10
-7.4486568492
 20
-2.3469923909
 11
-7.4486568492
 21
-2.2746518726
  0
LINE
  5
331
100
AcDbEntity
  8
ASSI
100
AcDbLine
 62
7
  6
CONTINUOUS
 10
-7.4486568492
 20
-2.3469923909
 11
-7.4486568492
 21
-2.2746518726
  0
LINE
  5
332
100
AcDbEntity
  8
RACCORDO
100
AcDbLine
 62
253
  6
CONTINUOUS
 10
-7.4413019789
 20
-7.9193189308
 11
-7.4413019789
 21
-6.6392877586
  0
LINE
  5
333
100
AcDbEntity
  8
ASSI
100
AcDbLine
 62
253
  6
CONTINUOUS
 10
-7.4413019789
 20
-7.9193189308
 11
-7.4413019789
 21
-6.6392877586
  0
LINE
  5
334
100
AcDbEntity
  8
0
100
AcDbLine
 62
7
  6
CONTINUOUS
 10
-7.2361568492
 20
-3.5767795796
 11
-7.2361568492
 21
-3.395928512
  0
LINE
  5
335
100
AcDbEntity
  8
ASSI
100
AcDbLine
 62
7
  6
CONTINUOUS
 10
-7.2361568492
 20
-3.5767795796
 11
-7.2361568492
 21
-3.395928512
  0
LINE
  5
336
100
AcDbEntity
  8
0
100
AcDbLine
 62
7
  6
CONTINUOUS
 10
-7.2361568492
 20
-2.3469923909
 11
-7.2361568492
 21
-2.2746518726
  0
LINE
  5
337
100
AcDbEntity
  8
ASSI
100
AcDbLine
 62
7
  6
CONTINUOUS
 10
-7.2361568492
 20
-2.3469923909
 11
-7.2361568492
 21
-2.2746518726
  0
LINE
  5
338
100
AcDbEntity
  8
RACCORDO
100
AcDbLine
 62
253
  6
CONTINUOUS
 10
-7.1413476703
 20
-7.9712938259
 11
-7.1413476703
 21
-6.33933345
  0
LINE
  5
339
100
AcDbEntity
  8
ASSI
100
AcDbLine
 62
253
  6
CONTINUOUS
 10
-7.1413476703
 20
-7.9712938259
 11
-7.1413476703
 21
-6.33933345
  0
LINE
  5
33A
100
AcDbEntity
  8
0
100
AcDbLine
 62
7
  6
CONTINUOUS
 10
-8.4757403177
 20
-2.2746518726
 11
-8.4403233808
 21
-2.1299710388
  0
LINE
  5
33B
100
AcDbEntity
  8
ASSI
100
AcDbLine
 62
7
  6
CONTINUOUS
 10
-8.4757403177
 20
-2.2746518726
 11
-8.4403233808
 21
-2.1299710388
  0
LINE
  5
33C
100
AcDbEntity
  8
0
100
AcDbLine
 62
7
  6
CONTINUOUS
 10
-10.5653233808
 20
-3.3235880951
 11
-10.4944903177
 21
-3.1427370275
  0
LINE
  5
33D
100
AcDbEntity
  8
ASSI
100
AcDbLine
 62
7
  6
CONTINUOUS
 10
-10.5653233808
 20
-3.3235880951
 11
-10.4944903177
 21
-3.1427370275
  0
LINE
  5
33E
100
AcDbEntity
  8
0
100
AcDbLine
 62
7
  6
CONTINUOUS
 10
-10.6007403177
 20
-2.5640136416
 11
-10.5299068492
 21
-2.4193328078
  0
LINE
  5
33F
100
AcDbEntity
  8
ASSI
100
AcDbLine
 62
7
  6
CONTINUOUS
 10
-10.6007403177
 20
-2.5640136416
 11
-10.5299068492
 21
-2.4193328078
  0
LINE
  5
340
100
AcDbEntity
  8
0
100
AcDbLine
 62
7
  6
CONTINUOUS
 10
-12.3361568492
 20
-3.2874178867
 11
-12.2653235835
 21
-3.178907236
  0
LINE
  5
341
100
AcDbEntity
  8
ASSI
100
AcDbLine
 62
7
  6
CONTINUOUS
 10
-12.3361568492
 20
-3.2874178867
 11
-12.2653235835
 21
-3.178907236
  0
LINE
  5
342
100
AcDbEntity
  8
0
100
AcDbLine
 62
7
  6
CONTINUOUS
 10
-11.556990115
 20
-2.3108221824
 11
-11.4861568492
 21
-2.2023114557
  0
LINE
  5
343
100
AcDbEntity
  8
ASSI
100
AcDbLine
 62
7
  6
CONTINUOUS
 10
-11.556990115
 20
-2.3108221824
 11
-11.4861568492
 21
-2.2023114557
  0
LINE
  5
344
100
AcDbEntity
  8
0
100
AcDbLine
 62
7
  6
CONTINUOUS
 10
-10.7778235835
 20
-2.4916732247
 11
-10.706990115
 21
-2.3831625993
  0
LINE
  5
345
100
AcDbEntity
  8
ASSI
100
AcDbLine
 62
7
  6
CONTINUOUS
 10
-10.7778235835
 20
-2.4916732247
 11
-10.706990115
 21
-2.3831625993
  0
LINE
  5
346
100
AcDbEntity
  8
0
100
AcDbLine
 62
7
  6
CONTINUOUS
 10
-12.2299068492
 20
-3.4320987331
 11
-12.1236568492
 21
-3.2874178867
  0
LINE
  5
347
100
AcDbEntity
  8
ASSI
100
AcDbLine
 62
7
  6
CONTINUOUS
 10
-12.2299068492
 20
-3.4320987331
 11
-12.1236568492
 21
-3.2874178867
  0
LINE
  5
348
100
AcDbEntity
  8
0
100
AcDbLine
 62
7
  6
CONTINUOUS
 10
-11.5924068492
 20
-3.0342264022
 11
-11.4861568492
 21
-2.8895455177
  0
LINE
  5
349
100
AcDbEntity
  8
ASSI
100
AcDbLine
 62
7
  6
CONTINUOUS
 10
-11.5924068492
 20
-3.0342264022
 11
-11.4861568492
 21
-2.8895455177
  0
LINE
  5
34A
100
AcDbEntity
  8
0
100
AcDbLine
 62
7
  6
CONTINUOUS
 10
-13.0799068492
 20
-2.8533753092
 11
-13.0090734821
 21
-2.7810348923
  0
LINE
  5
34B
100
AcDbEntity
  8
ASSI
100
AcDbLine
 62
7
  6
CONTINUOUS
 10
-13.0799068492
 20
-2.8533753092
 11
-13.0090734821
 21
-2.7810348923
  0
LINE
  5
34C
100
AcDbEntity
  8
RACCORDO
100
AcDbLine
 62
253
  6
CONTINUOUS
 10
-18.1010200384
 20
-6.3093874602
 11
-18.1309660282
 21
-6.33933345
  0
LINE
  5
34D
100
AcDbEntity
  8
ASSI
100
AcDbLine
 62
253
  6
CONTINUOUS
 10
-18.1010200384
 20
-6.3093874602
 11
-18.1309660282
 21
-6.33933345
  0
LINE
  5
34E
100
AcDbEntity
  8
RACCORDO
100
AcDbLine
 62
253
  6
CONTINUOUS
 10
-17.8012614217
 20
-6.6095374607
 11
-17.8310117196
 21
-6.6392877586
  0
LINE
  5
34F
100
AcDbEntity
  8
ASSI
100
AcDbLine
 62
253
  6
CONTINUOUS
 10
-17.8012614217
 20
-6.6095374607
 11
-17.8310117196
 21
-6.6392877586
  0
LINE
  5
350
100
AcDbEntity
  8
RACCORDO
100
AcDbLine
 62
7
  6
CONTINUOUS
 10
-23.523056411
 20
-8.2534169951
 11
23.2507427125
 21
-8.2534169951
  0
LINE
  5
351
100
AcDbEntity
  8
ASSI
100
AcDbLine
 62
7
  6
CONTINUOUS
 10
-23.523056411
 20
-8.2534169951
 11
23.2507427125
 21
-8.2534169951
  0
LINE
  5
352
100
AcDbEntity
  8
RACCORDO
100
AcDbLine
 62
7
  6
CONTINUOUS
 10
-7.1413476703
 20
-7.9712938259
 11
-6.9309660282
 21
-7.9712938259
  0
LINE
  5
353
100
AcDbEntity
  8
ASSI
100
AcDbLine
 62
7
  6
CONTINUOUS
 10
-7.1413476703
 20
-7.9712938259
 11
-6.9309660282
 21
-7.9712938259
  0
LINE
  5
354
100
AcDbEntity
  8
RACCORDO
100
AcDbLine
 62
7
  6
CONTINUOUS
 10
6.8690339718
 20
-7.9712938259
 11
6.6586523297
 21
-7.9712938259
  0
LINE
  5
355
100
AcDbEntity
  8
ASSI
100
AcDbLine
 62
7
  6
CONTINUOUS
 10
6.8690339718
 20
-7.9712938259
 11
6.6586523297
 21
-7.9712938259
  0
LINE
  5
356
100
AcDbEntity
  8
RACCORDO
100
AcDbLine
 62
7
  6
CONTINUOUS
 10
17.8586523297
 20
-7.9712938259
 11
18.0690339718
 21
-7.9712938259
  0
LINE
  5
357
100
AcDbEntity
  8
ASSI
100
AcDbLine
 62
7
  6
CONTINUOUS
 10
17.8586523297
 20
-7.9712938259
 11
18.0690339718
 21
-7.9712938259
  0
LINE
  5
358
100
AcDbEntity
  8
RACCORDO
100
AcDbLine
 62
7
  6
CONTINUOUS
 10
-18.1309660282
 20
-7.9712938259
 11
-18.3413476703
 21
-7.9712938259
  0
LINE
  5
359
100
AcDbEntity
  8
ASSI
100
AcDbLine
 62
7
  6
CONTINUOUS
 10
-18.1309660282
 20
-7.9712938259
 11
-18.3413476703
 21
-7.9712938259
  0
LINE
  5
35A
100
AcDbEntity
  8
RACCORDO
100
AcDbLine
 62
253
  6
CONTINUOUS
 10
23.1927645147
 20
-7.6677348106
 11
18.3938932446
 21
-7.6677348106
  0
LINE
  5
35B
100
AcDbEntity
  8
ASSI
100
AcDbLine
 62
253
  6
CONTINUOUS
 10
23.1927645147
 20
-7.6677348106
 11
18.3938932446
 21
-7.6677348106
  0
LINE
  5
35C
100
AcDbEntity
  8
RACCORDO
100
AcDbLine
 62
253
  6
CONTINUOUS
 10
6.3337930569
 20
-7.6677348106
 11
-6.6061067554
 21
-7.6677348106
  0
LINE
  5
35D
100
AcDbEntity
  8
ASSI
100
AcDbLine
 62
253
  6
CONTINUOUS
 10
6.3337930569
 20
-7.6677348106
 11
-6.6061067554
 21
-7.6677348106
  0
LINE
  5
35E
100
AcDbEntity
  8
RACCORDO
100
AcDbLine
 62
253
  6
CONTINUOUS
 10
-7.4662069431
 20
-7.6677348106
 11
-17.8061067554
 21
-7.6677348106
  0
LINE
  5
35F
100
AcDbEntity
  8
ASSI
100
AcDbLine
 62
253
  6
CONTINUOUS
 10
-7.4662069431
 20
-7.6677348106
 11
-17.8061067554
 21
-7.6677348106
  0
LINE
  5
360
100
AcDbEntity
  8
DRAFT
100
AcDbLine
 62
7
  6
CONTINUOUS
 10
17.5296378962
 20
-7.6257603502
 11
7.1980484053
 21
-7.6257603502
  0
LINE
  5
361
100
AcDbEntity
  8
ASSI
100
AcDbLine
 62
7
  6
CONTINUOUS
 10
17.5296378962
 20
-7.6257603502
 11
7.1980484053
 21
-7.6257603502
  0
LINE
  5
362
100
AcDbEntity
  8
RACCORDO
100
AcDbLine
 62
7
  6
CONTINUOUS
 10
-18.6703621038
 20
-7.6257603502
 11
-23.4609230526
 21
-7.6257603502
  0
LINE
  5
363
100
AcDbEntity
  8
ASSI
100
AcDbLine
 62
7
  6
CONTINUOUS
 10
-18.6703621038
 20
-7.6257603502
 11
-23.4609230526
 21
-7.6257603502
  0
LINE
  5
364
100
AcDbEntity
  8
RACCORDO
100
AcDbLine
 62
253
  6
CONTINUOUS
 10
23.1927645148
 20
-7.3841449745
 11
18.3982163636
 21
-7.3841449745
  0
LINE
  5
365
100
AcDbEntity
  8
ASSI
100
AcDbLine
 62
253
  6
CONTINUOUS
 10
23.1927645148
 20
-7.3841449745
 11
18.3982163636
 21
-7.3841449745
  0
LINE
  5
366
100
AcDbEntity
  8
RACCORDO
100
AcDbLine
 62
253
  6
CONTINUOUS
 10
6.3294699379
 20
-7.3841449745
 11
-6.6017836364
 21
-7.3841449745
  0
LINE
  5
367
100
AcDbEntity
  8
ASSI
100
AcDbLine
 62
253
  6
CONTINUOUS
 10
6.3294699379
 20
-7.3841449745
 11
-6.6017836364
 21
-7.3841449745
  0
LINE
  5
368
100
AcDbEntity
  8
RACCORDO
100
AcDbLine
 62
253
  6
CONTINUOUS
 10
-7.4705300621
 20
-7.3841449745
 11
-17.8017836364
 21
-7.3841449745
  0
LINE
  5
369
100
AcDbEntity
  8
ASSI
100
AcDbLine
 62
253
  6
CONTINUOUS
 10
-7.4705300621
 20
-7.3841449745
 11
-17.8017836364
 21
-7.3841449745
  0
LINE
  5
36A
100
AcDbEntity
  8
0
100
AcDbLine
 62
7
  6
CONTINUOUS
 10
-12.7965734821
 20
-3.395928512
 11
-12.9028234821
 21
-3.3597583036
  0
LINE
  5
36B
100
AcDbEntity
  8
ASSI
100
AcDbLine
 62
7
  6
CONTINUOUS
 10
-12.7965734821
 20
-3.395928512
 11
-12.9028234821
 21
-3.3597583036
  0
LINE
  5
36C
100
AcDbEntity
  8
0
100
AcDbLine
 62
7
  6
CONTINUOUS
 10
-11.344490115
 20
-3.3597583036
 11
-11.4861568492
 21
-3.2874178867
  0
LINE
  5
36D
100
AcDbEntity
  8
ASSI
100
AcDbLine
 62
7
  6
CONTINUOUS
 10
-11.344490115
 20
-3.3597583036
 11
-11.4861568492
 21
-3.2874178867
  0
LINE
  5
36E
100
AcDbEntity
  8
0
100
AcDbLine
 62
7
  6
CONTINUOUS
 10
-11.4861568492
 20
-2.7086944754
 11
-11.556990115
 21
-2.6725242669
  0
LINE
  5
36F
100
AcDbEntity
  8
ASSI
100
AcDbLine
 62
7
  6
CONTINUOUS
 10
-11.4861568492
 20
-2.7086944754
 11
-11.556990115
 21
-2.6725242669
  0
LINE
  5
370
100
AcDbEntity
  8
0
100
AcDbLine
 62
7
  6
CONTINUOUS
 10
-10.7778235835
 20
-2.8895455177
 11
-10.919490115
 21
-2.8172051008
  0
LINE
  5
371
100
AcDbEntity
  8
ASSI
100
AcDbLine
 62
7
  6
CONTINUOUS
 10
-10.7778235835
 20
-2.8895455177
 11
-10.919490115
 21
-2.8172051008
  0
LINE
  5
372
100
AcDbEntity
  8
0
100
AcDbLine
 62
7
  6
CONTINUOUS
 10
-10.706990115
 20
-2.7448646839
 11
-10.7778235835
 21
-2.7086944754
  0
LINE
  5
373
100
AcDbEntity
  8
ASSI
100
AcDbLine
 62
7
  6
CONTINUOUS
 10
-10.706990115
 20
-2.7448646839
 11
-10.7778235835
 21
-2.7086944754
  0
LINE
  5
374
100
AcDbEntity
  8
0
100
AcDbLine
 62
7
  6
CONTINUOUS
 10
-12.2299068492
 20
-2.6363540585
 11
-12.4069902164
 21
-2.5278434331
  0
LINE
  5
375
100
AcDbEntity
  8
ASSI
100
AcDbLine
 62
7
  6
CONTINUOUS
 10
-12.2299068492
 20
-2.6363540585
 11
-12.4069902164
 21
-2.5278434331
  0
LINE
  5
376
100
AcDbEntity
  8
0
100
AcDbLine
 62
7
  6
CONTINUOUS
 10
-12.2653235835
 20
-2.0214604134
 11
-12.4424068492
 21
-1.9129497881
  0
LINE
  5
377
100
AcDbEntity
  8
ASSI
100
AcDbLine
 62
7
  6
CONTINUOUS
 10
-12.2653235835
 20
-2.0214604134
 11
-12.4424068492
 21
-1.9129497881
  0
LINE
  5
378
100
AcDbEntity
  8
0
100
AcDbLine
 62
7
  6
CONTINUOUS
 10
-10.706990115
 20
-2.0214604134
 11
-10.8840735835
 21
-1.9129497881
  0
LINE
  5
379
100
AcDbEntity
  8
ASSI
100
AcDbLine
 62
7
  6
CONTINUOUS
 10
-10.706990115
 20
-2.0214604134
 11
-10.8840735835
 21
-1.9129497881
  0
LINE
  5
37A
100
AcDbEntity
  8
0
100
AcDbLine
 62
7
  6
CONTINUOUS
 10
-10.5653233808
 20
-2.8533753092
 11
-10.706990115
 21
-2.7448646839
  0
LINE
  5
37B
100
AcDbEntity
  8
ASSI
100
AcDbLine
 62
7
  6
CONTINUOUS
 10
-10.5653233808
 20
-2.8533753092
 11
-10.706990115
 21
-2.7448646839
  0
LINE
  5
37C
100
AcDbEntity
  8
0
100
AcDbLine
 62
7
  6
CONTINUOUS
 10
-10.7778235835
 20
-2.2023114557
 11
-10.919490115
 21
-2.0938008304
  0
LINE
  5
37D
100
AcDbEntity
  8
ASSI
100
AcDbLine
 62
7
  6
CONTINUOUS
 10
-10.7778235835
 20
-2.2023114557
 11
-10.919490115
 21
-2.0938008304
  0
LINE
  5
37E
100
AcDbEntity
  8
RACCORDO
100
AcDbLine
 62
7
  6
CONTINUOUS
 10
-19.3810117196
 20
7.9503762908
 11
-19.3635061333
 21
7.9328707044
  0
LINE
  5
37F
100
AcDbEntity
  8
ASSI
100
AcDbLine
 62
7
  6
CONTINUOUS
 10
-19.3810117196
 20
7.9503762908
 11
-19.3635061333
 21
7.9328707044
  0
LINE
  5
380
100
AcDbEntity
  8
0
100
AcDbLine
 62
7
  6
CONTINUOUS
 10
-7.4486568492
 20
-2.2746518726
 11
-7.5194903177
 21
-2.1661412473
  0
LINE
  5
381
100
AcDbEntity
  8
ASSI
100
AcDbLine
 62
7
  6
CONTINUOUS
 10
-7.4486568492
 20
-2.2746518726
 11
-7.5194903177
 21
-2.1661412473
  0
LINE
  5
382
100
AcDbEntity
  8
0
100
AcDbLine
 62
7
  6
CONTINUOUS
 10
-7.2361568492
 20
-2.2746518726
 11
-7.2715733808
 21
-2.1299710388
  0
LINE
  5
383
100
AcDbEntity
  8
ASSI
100
AcDbLine
 62
7
  6
CONTINUOUS
 10
-7.2361568492
 20
-2.2746518726
 11
-7.2715733808
 21
-2.1299710388
  0
LINE
  5
384
100
AcDbEntity
  8
RACCORDO
100
AcDbLine
 62
253
  6
CONTINUOUS
 10
-6.9309660282
 20
-6.33933345
 11
-6.9309660282
 21
-7.9712938259
  0
LINE
  5
385
100
AcDbEntity
  8
ASSI
100
AcDbLine
 62
253
  6
CONTINUOUS
 10
-6.9309660282
 20
-6.33933345
 11
-6.9309660282
 21
-7.9712938259
  0
LINE
  5
386
100
AcDbEntity
  8
RACCORDO
100
AcDbLine
 62
253
  6
CONTINUOUS
 10
-6.6310117196
 20
-6.6392877586
 11
-6.6310117196
 21
-7.9193189308
  0
LINE
  5
387
100
AcDbEntity
  8
ASSI
100
AcDbLine
 62
253
  6
CONTINUOUS
 10
-6.6310117196
 20
-6.6392877586
 11
-6.6310117196
 21
-7.9193189308
  0
LINE
  5
388
100
AcDbEntity
  8
RACCORDO
100
AcDbLine
 62
7
  6
CONTINUOUS
 10
-6.6061067554
 20
-7.6677348106
 11
-6.6310117196
 21
-7.9193189308
  0
LINE
  5
389
100
AcDbEntity
  8
ASSI
100
AcDbLine
 62
7
  6
CONTINUOUS
 10
-6.6061067554
 20
-7.6677348106
 11
-6.6310117196
 21
-7.9193189308
  0
LINE
  5
38A
100
AcDbEntity
  8
0
100
AcDbLine
 62
7
  6
CONTINUOUS
 10
-7.2715733808
 20
-2.4916732247
 11
-7.2361568492
 21
-2.3469923909
  0
LINE
  5
38B
100
AcDbEntity
  8
ASSI
100
AcDbLine
 62
7
  6
CONTINUOUS
 10
-7.2715733808
 20
-2.4916732247
 11
-7.2361568492
 21
-2.3469923909
  0
LINE
  5
38C
100
AcDbEntity
  8
0
100
AcDbLine
 62
7
  6
CONTINUOUS
 10
-7.5194903177
 20
-2.4916732247
 11
-7.4486568492
 21
-2.3469923909
  0
LINE
  5
38D
100
AcDbEntity
  8
ASSI
100
AcDbLine
 62
7
  6
CONTINUOUS
 10
-7.5194903177
 20
-2.4916732247
 11
-7.4486568492
 21
-2.3469923909
  0
LINE
  5
38E
100
AcDbEntity
  8
0
100
AcDbLine
 62
7
  6
CONTINUOUS
 10
-8.2986568492
 20
-2.2746518726
 11
-8.2278233808
 21
-2.1661412473
  0
LINE
  5
38F
100
AcDbEntity
  8
ASSI
100
AcDbLine
 62
7
  6
CONTINUOUS
 10
-8.2986568492
 20
-2.2746518726
 11
-8.2278233808
 21
-2.1661412473
  0
LINE
  5
390
100
AcDbEntity
  8
0
100
AcDbLine
 62
7
  6
CONTINUOUS
 10
-10.7778235835
 20
-3.2874178867
 11
-10.6715735835
 21
-3.1427370275
  0
LINE
  5
391
100
AcDbEntity
  8
ASSI
100
AcDbLine
 62
7
  6
CONTINUOUS
 10
-10.7778235835
 20
-3.2874178867
 11
-10.6715735835
 21
-3.1427370275
  0
LINE
  5
392
100
AcDbEntity
  8
0
100
AcDbLine
 62
7
  6
CONTINUOUS
 10
-10.2111568492
 20
-2.8533753092
 11
-9.3611568492
 21
-1.8767795796
  0
LINE
  5
393
100
AcDbEntity
  8
ASSI
100
AcDbLine
 62
7
  6
CONTINUOUS
 10
-10.2111568492
 20
-2.8533753092
 11
-9.3611568492
 21
-1.8767795796
  0
LINE
  5
394
100
AcDbEntity
  8
0
100
AcDbLine
 62
7
  6
CONTINUOUS
 10
-9.9632403177
 20
-2.8533753092
 11
-9.3611568492
 21
-2.1661412473
  0
LINE
  5
395
100
AcDbEntity
  8
ASSI
100
AcDbLine
 62
7
  6
CONTINUOUS
 10
-9.9632403177
 20
-2.8533753092
 11
-9.3611568492
 21
-2.1661412473
  0
LINE
  5
396
100
AcDbEntity
  8
0
100
AcDbLine
 62
7
  6
CONTINUOUS
 10
-11.663240115
 20
-2.1299710388
 11
-11.556990115
 21
-2.0214604134
  0
LINE
  5
397
100
AcDbEntity
  8
ASSI
100
AcDbLine
 62
7
  6
CONTINUOUS
 10
-11.663240115
 20
-2.1299710388
 11
-11.556990115
 21
-2.0214604134
  0
LINE
  5
398
100
AcDbEntity
  8
0
100
AcDbLine
 62
7
  6
CONTINUOUS
 10
-10.706990115
 20
-2.6725242669
 11
-10.6007403177
 21
-2.5640136416
  0
LINE
  5
399
100
AcDbEntity
  8
ASSI
100
AcDbLine
 62
7
  6
CONTINUOUS
 10
-10.706990115
 20
-2.6725242669
 11
-10.6007403177
 21
-2.5640136416
  0
LINE
  5
39A
100
AcDbEntity
  8
0
100
AcDbLine
 62
7
  6
CONTINUOUS
 10
-10.6715735835
 20
-3.4320987331
 11
-10.5653233808
 21
-3.3235880951
  0
LINE
  5
39B
100
AcDbEntity
  8
ASSI
100
AcDbLine
 62
7
  6
CONTINUOUS
 10
-10.6715735835
 20
-3.4320987331
 11
-10.5653233808
 21
-3.3235880951
  0
LINE
  5
39C
100
AcDbEntity
  8
0
100
AcDbLine
 62
7
  6
CONTINUOUS
 10
-11.4861568492
 20
-2.2023114557
 11
-11.344490115
 21
-2.0938008304
  0
LINE
  5
39D
100
AcDbEntity
  8
ASSI
100
AcDbLine
 62
7
  6
CONTINUOUS
 10
-11.4861568492
 20
-2.2023114557
 11
-11.344490115
 21
-2.0938008304
  0
LINE
  5
39E
100
AcDbEntity
  8
0
100
AcDbLine
 62
7
  6
CONTINUOUS
 10
-13.0090734821
 20
-2.1661412473
 11
-12.9028234821
 21
-2.0938008304
  0
LINE
  5
39F
100
AcDbEntity
  8
ASSI
100
AcDbLine
 62
7
  6
CONTINUOUS
 10
-13.0090734821
 20
-2.1661412473
 11
-12.9028234821
 21
-2.0938008304
  0
LINE
  5
3A0
100
AcDbEntity
  8
0
100
AcDbLine
 62
7
  6
CONTINUOUS
 10
-13.1507402164
 20
-2.6725242669
 11
-12.9382402164
 21
-2.5278434331
  0
LINE
  5
3A1
100
AcDbEntity
  8
ASSI
100
AcDbLine
 62
7
  6
CONTINUOUS
 10
-13.1507402164
 20
-2.6725242669
 11
-12.9382402164
 21
-2.5278434331
  0
LINE
  5
3A2
100
AcDbEntity
  8
0
100
AcDbLine
 62
7
  6
CONTINUOUS
 10
-13.1153234821
 20
-2.0214604134
 11
-12.9382402164
 21
-1.9129497881
  0
LINE
  5
3A3
100
AcDbEntity
  8
ASSI
100
AcDbLine
 62
7
  6
CONTINUOUS
 10
-13.1153234821
 20
-2.0214604134
 11
-12.9382402164
 21
-1.9129497881
  0
LINE
  5
3A4
100
AcDbEntity
  8
DRAFT
100
AcDbLine
 62
7
  6
CONTINUOUS
 10
21.7138431508
 20
-4.8165504757
 11
22.5138431508
 21
-4.8025864238
  0
LINE
  5
3A5
100
AcDbEntity
  8
ASSI
100
AcDbLine
 62
7
  6
CONTINUOUS
 10
21.7138431508
 20
-4.8165504757
 11
22.5138431508
 21
-4.8025864238
  0
LINE
  5
3A6
100
AcDbEntity
  8
RACCORDO
100
AcDbLine
 62
7
  6
CONTINUOUS
 10
23.1924098658
 20
-6.8617516278
 11
22.1965701026
 21
-6.8617516278
  0
LINE
  5
3A7
100
AcDbEntity
  8
ASSI
100
AcDbLine
 62
7
  6
CONTINUOUS
 10
23.1924098658
 20
-6.8617516278
 11
22.1965701026
 21
-6.8617516278
  0
LINE
  5
3A8
100
AcDbEntity
  8
RACCORDO
100
AcDbLine
 62
7
  6
CONTINUOUS
 10
-22.4688838011
 20
-6.8617516278
 11
-23.4647235643
 21
-6.8617516278
  0
LINE
  5
3A9
100
AcDbEntity
  8
ASSI
100
AcDbLine
 62
7
  6
CONTINUOUS
 10
-22.4688838011
 20
-6.8617516278
 11
-23.4647235643
 21
-6.8617516278
  0
LINE
  5
3AA
100
AcDbEntity
  8
RACCORDO
100
AcDbLine
 62
7
  6
CONTINUOUS
 10
-23.8117197583
 20
-6.8095684498
 11
-22.815876158
 21
-6.8095684498
  0
LINE
  5
3AB
100
AcDbEntity
  8
ASSI
100
AcDbLine
 62
7
  6
CONTINUOUS
 10
-23.8117197583
 20
-6.8095684498
 11
-22.815876158
 21
-6.8095684498
  0
LINE
  5
3AC
100
AcDbEntity
  8
RACCORDO
100
AcDbLine
 62
7
  6
CONTINUOUS
 10
22.5435624595
 20
-6.8095684498
 11
23.5394060599
 21
-6.8095684498
  0
LINE
  5
3AD
100
AcDbEntity
  8
ASSI
100
AcDbLine
 62
7
  6
CONTINUOUS
 10
22.5435624595
 20
-6.8095684498
 11
23.5394060599
 21
-6.8095684498
  0
LINE
  5
3AE
100
AcDbEntity
  8
RACCORDO
100
AcDbLine
 62
253
  6
CONTINUOUS
 10
6.3586980211
 20
-6.6392877586
 11
7.1689882804
 21
-6.6392877586
  0
LINE
  5
3AF
100
AcDbEntity
  8
ASSI
100
AcDbLine
 62
253
  6
CONTINUOUS
 10
6.3586980211
 20
-6.6392877586
 11
7.1689882804
 21
-6.6392877586
  0
LINE
  5
3B0
100
AcDbEntity
  8
RACCORDO
100
AcDbLine
 62
253
  6
CONTINUOUS
 10
-6.6310117196
 20
-6.6392877586
 11
-7.4413019789
 21
-6.6392877586
  0
LINE
  5
3B1
100
AcDbEntity
  8
ASSI
100
AcDbLine
 62
253
  6
CONTINUOUS
 10
-6.6310117196
 20
-6.6392877586
 11
-7.4413019789
 21
-6.6392877586
  0
LINE
  5
3B2
100
AcDbEntity
  8
RACCORDO
100
AcDbLine
 62
253
  6
CONTINUOUS
 10
17.5586980211
 20
-6.6392877586
 11
18.3689882804
 21
-6.6392877586
  0
LINE
  5
3B3
100
AcDbEntity
  8
ASSI
100
AcDbLine
 62
253
  6
CONTINUOUS
 10
17.5586980211
 20
-6.6392877586
 11
18.3689882804
 21
-6.6392877586
  0
LINE
  5
3B4
100
AcDbEntity
  8
RACCORDO
100
AcDbLine
 62
253
  6
CONTINUOUS
 10
-17.8310117196
 20
-6.6392877586
 11
-18.6413019789
 21
-6.6392877586
  0
LINE
  5
3B5
100
AcDbEntity
  8
ASSI
100
AcDbLine
 62
253
  6
CONTINUOUS
 10
-17.8310117196
 20
-6.6392877586
 11
-18.6413019789
 21
-6.6392877586
  0
LINE
  5
3B6
100
AcDbEntity
  8
RACCORDO
100
AcDbLine
 62
253
  6
CONTINUOUS
 10
18.0690339718
 20
-6.33933345
 11
17.8586523297
 21
-6.33933345
  0
LINE
  5
3B7
100
AcDbEntity
  8
ASSI
100
AcDbLine
 62
253
  6
CONTINUOUS
 10
18.0690339718
 20
-6.33933345
 11
17.8586523297
 21
-6.33933345
  0
LINE
  5
3B8
100
AcDbEntity
  8
RACCORDO
100
AcDbLine
 62
253
  6
CONTINUOUS
 10
6.8690339718
 20
-6.33933345
 11
6.6586523297
 21
-6.33933345
  0
LINE
  5
3B9
100
AcDbEntity
  8
ASSI
100
AcDbLine
 62
253
  6
CONTINUOUS
 10
6.8690339718
 20
-6.33933345
 11
6.6586523297
 21
-6.33933345
  0
LINE
  5
3BA
100
AcDbEntity
  8
RACCORDO
100
AcDbLine
 62
253
  6
CONTINUOUS
 10
-6.9309660282
 20
-6.33933345
 11
-7.1413476703
 21
-6.33933345
  0
LINE
  5
3BB
100
AcDbEntity
  8
ASSI
100
AcDbLine
 62
253
  6
CONTINUOUS
 10
-6.9309660282
 20
-6.33933345
 11
-7.1413476703
 21
-6.33933345
  0
LINE
  5
3BC
100
AcDbEntity
  8
RACCORDO
100
AcDbLine
 62
253
  6
CONTINUOUS
 10
-18.1309660282
 20
-6.33933345
 11
-18.3413476703
 21
-6.33933345
  0
LINE
  5
3BD
100
AcDbEntity
  8
ASSI
100
AcDbLine
 62
253
  6
CONTINUOUS
 10
-18.1309660282
 20
-6.33933345
 11
-18.3413476703
 21
-6.33933345
  0
LINE
  5
3BE
100
AcDbEntity
  8
RACCORDO
100
AcDbLine
 62
7
  6
CONTINUOUS
 10
-18.3712936601
 20
-6.3093874602
 11
-18.1010200384
 21
-6.3093874602
  0
LINE
  5
3BF
100
AcDbEntity
  8
ASSI
100
AcDbLine
 62
7
  6
CONTINUOUS
 10
-18.3712936601
 20
-6.3093874602
 11
-18.1010200384
 21
-6.3093874602
  0
LINE
  5
3C0
100
AcDbEntity
  8
RACCORDO
100
AcDbLine
 62
7
  6
CONTINUOUS
 10
-7.1712936601
 20
-6.3093874602
 11
-6.9010200384
 21
-6.3093874602
  0
LINE
  5
3C1
100
AcDbEntity
  8
ASSI
100
AcDbLine
 62
7
  6
CONTINUOUS
 10
-7.1712936601
 20
-6.3093874602
 11
-6.9010200384
 21
-6.3093874602
  0
LINE
  5
3C2
100
AcDbEntity
  8
RACCORDO
100
AcDbLine
 62
7
  6
CONTINUOUS
 10
6.6287063399
 20
-6.3093874602
 11
6.8989799616
 21
-6.3093874602
  0
LINE
  5
3C3
100
AcDbEntity
  8
ASSI
100
AcDbLine
 62
7
  6
CONTINUOUS
 10
6.6287063399
 20
-6.3093874602
 11
6.8989799616
 21
-6.3093874602
  0
LINE
  5
3C4
100
AcDbEntity
  8
RACCORDO
100
AcDbLine
 62
7
  6
CONTINUOUS
 10
17.8287063399
 20
-6.3093874602
 11
18.0989799616
 21
-6.3093874602
  0
LINE
  5
3C5
100
AcDbEntity
  8
ASSI
100
AcDbLine
 62
7
  6
CONTINUOUS
 10
17.8287063399
 20
-6.3093874602
 11
18.0989799616
 21
-6.3093874602
  0
LINE
  5
3C6
100
AcDbEntity
  8
RACCORDO
100
AcDbLine
 62
7
  6
CONTINUOUS
 10
23.5394060599
 20
-6.1793887095
 11
22.5435624595
 21
-6.1793887095
  0
LINE
  5
3C7
100
AcDbEntity
  8
ASSI
100
AcDbLine
 62
7
  6
CONTINUOUS
 10
23.5394060599
 20
-6.1793887095
 11
22.5435624595
 21
-6.1793887095
  0
LINE
  5
3C8
100
AcDbEntity
  8
RACCORDO
100
AcDbLine
 62
7
  6
CONTINUOUS
 10
-22.815876158
 20
-6.1793887095
 11
-23.8117197583
 21
-6.1793887095
  0
LINE
  5
3C9
100
AcDbEntity
  8
ASSI
100
AcDbLine
 62
7
  6
CONTINUOUS
 10
-22.815876158
 20
-6.1793887095
 11
-23.8117197583
 21
-6.1793887095
  0
LINE
  5
3CA
100
AcDbEntity
  8
RACCORDO
100
AcDbLine
 62
7
  6
CONTINUOUS
 10
-23.4642436263
 20
-6.1267252533
 11
-22.4684035229
 21
-6.1267252533
  0
LINE
  5
3CB
100
AcDbEntity
  8
ASSI
100
AcDbLine
 62
7
  6
CONTINUOUS
 10
-23.4642436263
 20
-6.1267252533
 11
-22.4684035229
 21
-6.1267252533
  0
LINE
  5
3CC
100
AcDbEntity
  8
RACCORDO
100
AcDbLine
 62
7
  6
CONTINUOUS
 10
22.1960898244
 20
-6.1267252533
 11
23.1919299278
 21
-6.1267252533
  0
LINE
  5
3CD
100
AcDbEntity
  8
ASSI
100
AcDbLine
 62
7
  6
CONTINUOUS
 10
22.1960898244
 20
-6.1267252533
 11
23.1919299278
 21
-6.1267252533
  0
LINE
  5
3CE
100
AcDbEntity
  8
DRAFT
100
AcDbLine
 62
7
  6
CONTINUOUS
 10
-22.7861568492
 20
-4.8025864238
 11
-21.9861568492
 21
-4.8165504757
  0
LINE
  5
3CF
100
AcDbEntity
  8
ASSI
100
AcDbLine
 62
7
  6
CONTINUOUS
 10
-22.7861568492
 20
-4.8025864238
 11
-21.9861568492
 21
-4.8165504757
  0
LINE
  5
3D0
100
AcDbEntity
  8
0
100
AcDbLine
 62
7
  6
CONTINUOUS
 10
-12.7611568492
 20
-3.5767795796
 11
-12.9382402164
 21
-3.540609368
  0
LINE
  5
3D1
100
AcDbEntity
  8
ASSI
100
AcDbLine
 62
7
  6
CONTINUOUS
 10
-12.7611568492
 20
-3.5767795796
 11
-12.9382402164
 21
-3.540609368
  0
LINE
  5
3D2
100
AcDbEntity
  8
0
100
AcDbLine
 62
7
  6
CONTINUOUS
 10
-11.238240115
 20
-3.5767795796
 11
-11.4153235835
 21
-3.540609368
  0
LINE
  5
3D3
100
AcDbEntity
  8
ASSI
100
AcDbLine
 62
7
  6
CONTINUOUS
 10
-11.238240115
 20
-3.5767795796
 11
-11.4153235835
 21
-3.540609368
  0
LINE
  5
3D4
100
AcDbEntity
  8
0
100
AcDbLine
 62
7
  6
CONTINUOUS
 10
-11.2028235835
 20
-3.395928512
 11
-11.344490115
 21
-3.3597583036
  0
LINE
  5
3D5
100
AcDbEntity
  8
ASSI
100
AcDbLine
 62
7
  6
CONTINUOUS
 10
-11.2028235835
 20
-3.395928512
 11
-11.344490115
 21
-3.3597583036
  0
LINE
  5
3D6
100
AcDbEntity
  8
0
100
AcDbLine
 62
7
  6
CONTINUOUS
 10
-10.919490115
 20
-2.8172051008
 11
-11.0611568492
 21
-2.7810348923
  0
LINE
  5
3D7
100
AcDbEntity
  8
ASSI
100
AcDbLine
 62
7
  6
CONTINUOUS
 10
-10.919490115
 20
-2.8172051008
 11
-11.0611568492
 21
-2.7810348923
  0
LINE
  5
3D8
100
AcDbEntity
  8
0
100
AcDbLine
 62
7
  6
CONTINUOUS
 10
-11.2028235835
 20
-2.6363540585
 11
-11.344490115
 21
-2.60018385
  0
LINE
  5
3D9
100
AcDbEntity
  8
ASSI
100
AcDbLine
 62
7
  6
CONTINUOUS
 10
-11.2028235835
 20
-2.6363540585
 11
-11.344490115
 21
-2.60018385
  0
LINE
  5
3DA
100
AcDbEntity
  8
0
100
AcDbLine
 62
7
  6
CONTINUOUS
 10
-12.4424068492
 20
-2.7086944754
 11
-12.5486568492
 21
-2.6725242669
  0
LINE
  5
3DB
100
AcDbEntity
  8
ASSI
100
AcDbLine
 62
7
  6
CONTINUOUS
 10
-12.4424068492
 20
-2.7086944754
 11
-12.5486568492
 21
-2.6725242669
  0
LINE
  5
3DC
100
AcDbEntity
  8
0
100
AcDbLine
 62
7
  6
CONTINUOUS
 10
-12.4778234821
 20
-2.0938008304
 11
-12.5840734821
 21
-2.0576306219
  0
LINE
  5
3DD
100
AcDbEntity
  8
ASSI
100
AcDbLine
 62
7
  6
CONTINUOUS
 10
-12.4778234821
 20
-2.0938008304
 11
-12.5840734821
 21
-2.0576306219
  0
LINE
  5
3DE
100
AcDbEntity
  8
0
100
AcDbLine
 62
7
  6
CONTINUOUS
 10
-7.5194903177
 20
-2.1661412473
 11
-7.6257403177
 21
-2.0938008304
  0
LINE
  5
3DF
100
AcDbEntity
  8
ASSI
100
AcDbLine
 62
7
  6
CONTINUOUS
 10
-7.5194903177
 20
-2.1661412473
 11
-7.6257403177
 21
-2.0938008304
  0
LINE
  5
3E0
100
AcDbEntity
  8
0
100
AcDbLine
 62
7
  6
CONTINUOUS
 10
-7.2715733808
 20
-2.1299710388
 11
-7.4132403177
 21
-1.985290205
  0
LINE
  5
3E1
100
AcDbEntity
  8
ASSI
100
AcDbLine
 62
7
  6
CONTINUOUS
 10
-7.2715733808
 20
-2.1299710388
 11
-7.4132403177
 21
-1.985290205
  0
LINE
  5
3E2
100
AcDbEntity
  8
RACCORDO
100
AcDbLine
 62
253
  6
CONTINUOUS
 10
-4.5660556162
 20
5.581411432
 11
-4.5595327114
 21
3.9299443785
  0
LINE
  5
3E3
100
AcDbEntity
  8
ASSI
100
AcDbLine
 62
253
  6
CONTINUOUS
 10
-4.5660556162
 20
5.581411432
 11
-4.5595327114
 21
3.9299443785
  0
LINE
  5
3E4
100
AcDbEntity
  8
RACCORDO
100
AcDbLine
 62
253
  6
CONTINUOUS
 10
-3.958002374
 20
3.952075896
 11
-3.958002374
 21
5.5589669447
  0
LINE
  5
3E5
100
AcDbEntity
  8
ASSI
100
AcDbLine
 62
253
  6
CONTINUOUS
 10
-3.958002374
 20
3.952075896
 11
-3.958002374
 21
5.5589669447
  0
LINE
  5
3E6
100
AcDbEntity
  8
RACCORDO
100
AcDbLine
 62
253
  6
CONTINUOUS
 10
-3.6760945878
 20
3.9555214204
 11
-3.6760945878
 21
5.5555214204
  0
LINE
  5
3E7
100
AcDbEntity
  8
ASSI
100
AcDbLine
 62
253
  6
CONTINUOUS
 10
-3.6760945878
 20
3.9555214204
 11
-3.6760945878
 21
5.5555214204
  0
LINE
  5
3E8
100
AcDbEntity
  8
0
100
AcDbLine
 62
7
  6
CONTINUOUS
 10
-7.3424068492
 20
-2.60018385
 11
-7.2715733808
 21
-2.4916732247
  0
LINE
  5
3E9
100
AcDbEntity
  8
ASSI
100
AcDbLine
 62
7
  6
CONTINUOUS
 10
-7.3424068492
 20
-2.60018385
 11
-7.2715733808
 21
-2.4916732247
  0
LINE
  5
3EA
100
AcDbEntity
  8
0
100
AcDbLine
 62
7
  6
CONTINUOUS
 10
-8.4403233808
 20
-2.1299710388
 11
-8.2986568492
 21
-1.985290205
  0
LINE
  5
3EB
100
AcDbEntity
  8
ASSI
100
AcDbLine
 62
7
  6
CONTINUOUS
 10
-8.4403233808
 20
-2.1299710388
 11
-8.2986568492
 21
-1.985290205
  0
LINE
  5
3EC
100
AcDbEntity
  8
0
100
AcDbLine
 62
7
  6
CONTINUOUS
 10
-11.6986568492
 20
-2.8533753092
 11
-11.556990115
 21
-2.7448646839
  0
LINE
  5
3ED
100
AcDbEntity
  8
ASSI
100
AcDbLine
 62
7
  6
CONTINUOUS
 10
-11.6986568492
 20
-2.8533753092
 11
-11.556990115
 21
-2.7448646839
  0
LINE
  5
3EE
100
AcDbEntity
  8
0
100
AcDbLine
 62
7
  6
CONTINUOUS
 10
-10.919490115
 20
-2.60018385
 11
-10.7778235835
 21
-2.4916732247
  0
LINE
  5
3EF
100
AcDbEntity
  8
ASSI
100
AcDbLine
 62
7
  6
CONTINUOUS
 10
-10.919490115
 20
-2.60018385
 11
-10.7778235835
 21
-2.4916732247
  0
LINE
  5
3F0
100
AcDbEntity
  8
0
100
AcDbLine
 62
7
  6
CONTINUOUS
 10
-13.0090734821
 20
-2.7810348923
 11
-12.9028234821
 21
-2.7086944754
  0
LINE
  5
3F1
100
AcDbEntity
  8
ASSI
100
AcDbLine
 62
7
  6
CONTINUOUS
 10
-13.0090734821
 20
-2.7810348923
 11
-12.9028234821
 21
-2.7086944754
  0
LINE
  5
3F2
100
AcDbEntity
  8
0
100
AcDbLine
 62
7
  6
CONTINUOUS
 10
-12.4424068492
 20
-3.3597583036
 11
-12.3361568492
 21
-3.2874178867
  0
LINE
  5
3F3
100
AcDbEntity
  8
ASSI
100
AcDbLine
 62
7
  6
CONTINUOUS
 10
-12.4424068492
 20
-3.3597583036
 11
-12.3361568492
 21
-3.2874178867
  0
LINE
  5
3F4
100
AcDbEntity
  8
0
100
AcDbLine
 62
7
  6
CONTINUOUS
 10
-11.556990115
 20
-2.0214604134
 11
-11.3799068492
 21
-1.9129497881
  0
LINE
  5
3F5
100
AcDbEntity
  8
ASSI
100
AcDbLine
 62
7
  6
CONTINUOUS
 10
-11.556990115
 20
-2.0214604134
 11
-11.3799068492
 21
-1.9129497881
  0
LINE
  5
3F6
100
AcDbEntity
  8
0
100
AcDbLine
 62
7
  6
CONTINUOUS
 10
-12.4069902164
 20
-3.540609368
 11
-12.2299068492
 21
-3.4320987331
  0
LINE
  5
3F7
100
AcDbEntity
  8
ASSI
100
AcDbLine
 62
7
  6
CONTINUOUS
 10
-12.4069902164
 20
-3.540609368
 11
-12.2299068492
 21
-3.4320987331
  0
LINE
  5
3F8
100
AcDbEntity
  8
DRAFT
100
AcDbLine
 62
7
  6
CONTINUOUS
 10
-21.9861568492
 20
-4.8228342991
 11
-22.5361568492
 21
-4.8283770267
  0
LINE
  5
3F9
100
AcDbEntity
  8
ASSI
100
AcDbLine
 62
7
  6
CONTINUOUS
 10
-21.9861568492
 20
-4.8228342991
 11
-22.5361568492
 21
-4.8283770267
  0
LINE
  5
3FA
100
AcDbEntity
  8
RACCORDO
100
AcDbLine
 62
7
  6
CONTINUOUS
 10
23.191156871
 20
-4.8630055104
 11
22.2638431508
 21
-4.8630055104
  0
LINE
  5
3FB
100
AcDbEntity
  8
ASSI
100
AcDbLine
 62
7
  6
CONTINUOUS
 10
23.191156871
 20
-4.8630055104
 11
22.2638431508
 21
-4.8630055104
  0
LINE
  5
3FC
100
AcDbEntity
  8
RACCORDO
100
AcDbLine
 62
7
  6
CONTINUOUS
 10
-22.5361568492
 20
-4.8630055104
 11
-23.4634705695
 21
-4.8630055104
  0
LINE
  5
3FD
100
AcDbEntity
  8
ASSI
100
AcDbLine
 62
7
  6
CONTINUOUS
 10
-22.5361568492
 20
-4.8630055104
 11
-23.4634705695
 21
-4.8630055104
  0
LINE
  5
3FE
100
AcDbEntity
  8
DRAFT
100
AcDbLine
 62
7
  6
CONTINUOUS
 10
-23.8187017843
 20
-4.8025864238
 11
-22.7861568492
 21
-4.8025864238
  0
LINE
  5
3FF
100
AcDbEntity
  8
ASSI
100
AcDbLine
 62
7
  6
CONTINUOUS
 10
-23.8187017843
 20
-4.8025864238
 11
-22.7861568492
 21
-4.8025864238
  0
LINE
  5
400
100
AcDbEntity
  8
DRAFT
100
AcDbLine
 62
7
  6
CONTINUOUS
 10
22.5138431508
 20
-4.8025864238
 11
23.5463880858
 21
-4.8025864238
  0
LINE
  5
401
100
AcDbEntity
  8
ASSI
100
AcDbLine
 62
7
  6
CONTINUOUS
 10
22.5138431508
 20
-4.8025864238
 11
23.5463880858
 21
-4.8025864238
  0
LINE
  5
402
100
AcDbEntity
  8
DRAFT
100
AcDbLine
 62
7
  6
CONTINUOUS
 10
23.8593355649
 20
-4.1899709938
 11
23.5593355649
 21
-4.1899709938
  0
LINE
  5
403
100
AcDbEntity
  8
ASSI
100
AcDbLine
 62
7
  6
CONTINUOUS
 10
23.8593355649
 20
-4.1899709938
 11
23.5593355649
 21
-4.1899709938
  0
LINE
  5
404
100
AcDbEntity
  8
DRAFT
100
AcDbLine
 62
7
  6
CONTINUOUS
 10
-23.8316492634
 20
-4.1899709938
 11
-24.1316492634
 21
-4.1899709938
  0
LINE
  5
405
100
AcDbEntity
  8
ASSI
100
AcDbLine
 62
7
  6
CONTINUOUS
 10
-23.8316492634
 20
-4.1899709938
 11
-24.1316492634
 21
-4.1899709938
  0
LINE
  5
406
100
AcDbEntity
  8
DRAFT
100
AcDbLine
 62
7
  6
CONTINUOUS
 10
-23.8187017843
 20
-4.1770235147
 11
-23.0536119142
 21
-4.1770235147
  0
LINE
  5
407
100
AcDbEntity
  8
ASSI
100
AcDbLine
 62
7
  6
CONTINUOUS
 10
-23.8187017843
 20
-4.1770235147
 11
-23.0536119142
 21
-4.1770235147
  0
LINE
  5
408
100
AcDbEntity
  8
DRAFT
100
AcDbLine
 62
7
  6
CONTINUOUS
 10
23.5463880858
 20
-4.1770235147
 11
22.7812982157
 21
-4.1770235147
  0
LINE
  5
409
100
AcDbEntity
  8
ASSI
100
AcDbLine
 62
7
  6
CONTINUOUS
 10
23.5463880858
 20
-4.1770235147
 11
22.7812982157
 21
-4.1770235147
  0
LINE
  5
40A
100
AcDbEntity
  8
DRAFT
100
AcDbLine
 62
7
  6
CONTINUOUS
 10
-24.0578564993
 20
-4.1161782297
 11
-23.1144571992
 21
-4.1161782297
  0
LINE
  5
40B
100
AcDbEntity
  8
ASSI
100
AcDbLine
 62
7
  6
CONTINUOUS
 10
-24.0578564993
 20
-4.1161782297
 11
-23.1144571992
 21
-4.1161782297
  0
LINE
  5
40C
100
AcDbEntity
  8
DRAFT
100
AcDbLine
 62
7
  6
CONTINUOUS
 10
22.8421435007
 20
-4.1161782297
 11
23.7855428008
 21
-4.1161782297
  0
LINE
  5
40D
100
AcDbEntity
  8
ASSI
100
AcDbLine
 62
7
  6
CONTINUOUS
 10
22.8421435007
 20
-4.1161782297
 11
23.7855428008
 21
-4.1161782297
  0
LINE
  5
40E
100
AcDbEntity
  8
0
100
AcDbLine
 62
7
  6
CONTINUOUS
 10
-13.8236568492
 20
-3.5767795796
 11
-13.6111568492
 21
-3.5767795796
  0
LINE
  5
40F
100
AcDbEntity
  8
ASSI
100
AcDbLine
 62
7
  6
CONTINUOUS
 10
-13.8236568492
 20
-3.5767795796
 11
-13.6111568492
 21
-3.5767795796
  0
LINE
  5
410
100
AcDbEntity
  8
0
100
AcDbLine
 62
7
  6
CONTINUOUS
 10
-12.7611568492
 20
-3.5767795796
 11
-12.5840734821
 21
-3.5767795796
  0
LINE
  5
411
100
AcDbEntity
  8
ASSI
100
AcDbLine
 62
7
  6
CONTINUOUS
 10
-12.7611568492
 20
-3.5767795796
 11
-12.5840734821
 21
-3.5767795796
  0
LINE
  5
412
100
AcDbEntity
  8
0
100
AcDbLine
 62
7
  6
CONTINUOUS
 10
-11.238240115
 20
-3.5767795796
 11
-11.025740115
 21
-3.5767795796
  0
LINE
  5
413
100
AcDbEntity
  8
ASSI
100
AcDbLine
 62
7
  6
CONTINUOUS
 10
-11.238240115
 20
-3.5767795796
 11
-11.025740115
 21
-3.5767795796
  0
LINE
  5
414
100
AcDbEntity
  8
0
100
AcDbLine
 62
7
  6
CONTINUOUS
 10
-9.3611568492
 20
-3.5767795796
 11
-9.1486568492
 21
-3.5767795796
  0
LINE
  5
415
100
AcDbEntity
  8
ASSI
100
AcDbLine
 62
7
  6
CONTINUOUS
 10
-9.3611568492
 20
-3.5767795796
 11
-9.1486568492
 21
-3.5767795796
  0
LINE
  5
416
100
AcDbEntity
  8
0
100
AcDbLine
 62
7
  6
CONTINUOUS
 10
-8.5111568492
 20
-3.5767795796
 11
-7.2361568492
 21
-3.5767795796
  0
LINE
  5
417
100
AcDbEntity
  8
ASSI
100
AcDbLine
 62
7
  6
CONTINUOUS
 10
-8.5111568492
 20
-3.5767795796
 11
-7.2361568492
 21
-3.5767795796
  0
LINE
  5
418
100
AcDbEntity
  8
0
100
AcDbLine
 62
7
  6
CONTINUOUS
 10
7.5615671508
 20
-3.5767795796
 11
7.8742591508
 21
-3.5767795796
  0
LINE
  5
419
100
AcDbEntity
  8
ASSI
100
AcDbLine
 62
7
  6
CONTINUOUS
 10
7.5615671508
 20
-3.5767795796
 11
7.8742591508
 21
-3.5767795796
  0
LINE
  5
41A
100
AcDbEntity
  8
0
100
AcDbLine
 62
7
  6
CONTINUOUS
 10
8.5523411508
 20
-3.5767795796
 11
8.9071691508
 21
-3.5767795796
  0
LINE
  5
41B
100
AcDbEntity
  8
ASSI
100
AcDbLine
 62
7
  6
CONTINUOUS
 10
8.5523411508
 20
-3.5767795796
 11
8.9071691508
 21
-3.5767795796
  0
LINE
  5
41C
100
AcDbEntity
  8
0
100
AcDbLine
 62
7
  6
CONTINUOUS
 10
9.0981841508
 20
-3.5767795796
 11
9.4376391508
 21
-3.5767795796
  0
LINE
  5
41D
100
AcDbEntity
  8
ASSI
100
AcDbLine
 62
7
  6
CONTINUOUS
 10
9.0981841508
 20
-3.5767795796
 11
9.4376391508
 21
-3.5767795796
  0
LINE
  5
41E
100
AcDbEntity
  8
0
100
AcDbLine
 62
7
  6
CONTINUOUS
 10
9.9304671508
 20
-3.5767795796
 11
9.9802311508
 21
-3.5767795796
  0
LINE
  5
41F
100
AcDbEntity
  8
ASSI
100
AcDbLine
 62
7
  6
CONTINUOUS
 10
9.9304671508
 20
-3.5767795796
 11
9.9802311508
 21
-3.5767795796
  0
LINE
  5
420
100
AcDbEntity
  8
0
100
AcDbLine
 62
7
  6
CONTINUOUS
 10
10.4750231508
 20
-3.5767795796
 11
10.8221391508
 21
-3.5767795796
  0
LINE
  5
421
100
AcDbEntity
  8
ASSI
100
AcDbLine
 62
7
  6
CONTINUOUS
 10
10.4750231508
 20
-3.5767795796
 11
10.8221391508
 21
-3.5767795796
  0
LINE
  5
422
100
AcDbEntity
  8
0
100
AcDbLine
 62
7
  6
CONTINUOUS
 10
10.8778561508
 20
-3.5767795796
 11
11.2288341508
 21
-3.5767795796
  0
LINE
  5
423
100
AcDbEntity
  8
ASSI
100
AcDbLine
 62
7
  6
CONTINUOUS
 10
10.8778561508
 20
-3.5767795796
 11
11.2288341508
 21
-3.5767795796
  0
LINE
  5
424
100
AcDbEntity
  8
0
100
AcDbLine
 62
7
  6
CONTINUOUS
 10
11.9018811508
 20
-3.5767795796
 11
12.2758551508
 21
-3.5767795796
  0
LINE
  5
425
100
AcDbEntity
  8
ASSI
100
AcDbLine
 62
7
  6
CONTINUOUS
 10
11.9018811508
 20
-3.5767795796
 11
12.2758551508
 21
-3.5767795796
  0
LINE
  5
426
100
AcDbEntity
  8
0
100
AcDbLine
 62
7
  6
CONTINUOUS
 10
12.3800498147
 20
-3.5767792663
 11
12.7334501467
 21
-3.5767792663
  0
LINE
  5
427
100
AcDbEntity
  8
ASSI
100
AcDbLine
 62
7
  6
CONTINUOUS
 10
12.3800498147
 20
-3.5767792663
 11
12.7334501467
 21
-3.5767792663
  0
LINE
  5
428
100
AcDbEntity
  8
0
100
AcDbLine
 62
7
  6
CONTINUOUS
 10
13.2768203659
 20
-3.5767792663
 11
13.6181237092
 21
-3.5767792663
  0
LINE
  5
429
100
AcDbEntity
  8
ASSI
100
AcDbLine
 62
7
  6
CONTINUOUS
 10
13.2768203659
 20
-3.5767792663
 11
13.6181237092
 21
-3.5767792663
  0
LINE
  5
42A
100
AcDbEntity
  8
0
100
AcDbLine
 62
7
  6
CONTINUOUS
 10
-12.7965734821
 20
-3.395928512
 11
-12.5486568492
 21
-3.395928512
  0
LINE
  5
42B
100
AcDbEntity
  8
ASSI
100
AcDbLine
 62
7
  6
CONTINUOUS
 10
-12.7965734821
 20
-3.395928512
 11
-12.5486568492
 21
-3.395928512
  0
LINE
  5
42C
100
AcDbEntity
  8
0
100
AcDbLine
 62
7
  6
CONTINUOUS
 10
-11.2028235835
 20
-3.395928512
 11
-11.0611568492
 21
-3.395928512
  0
LINE
  5
42D
100
AcDbEntity
  8
ASSI
100
AcDbLine
 62
7
  6
CONTINUOUS
 10
-11.2028235835
 20
-3.395928512
 11
-11.0611568492
 21
-3.395928512
  0
LINE
  5
42E
100
AcDbEntity
  8
0
100
AcDbLine
 62
7
  6
CONTINUOUS
 10
-8.2278233808
 20
-3.395928512
 11
-7.2361568492
 21
-3.395928512
  0
LINE
  5
42F
100
AcDbEntity
  8
ASSI
100
AcDbLine
 62
7
  6
CONTINUOUS
 10
-8.2278233808
 20
-3.395928512
 11
-7.2361568492
 21
-3.395928512
  0
LINE
  5
430
100
AcDbEntity
  8
DRAFT
100
AcDbLine
 62
7
  6
CONTINUOUS
 10
22.2638431508
 20
-4.8283770267
 11
21.7138431508
 21
-4.8228342991
  0
LINE
  5
431
100
AcDbEntity
  8
ASSI
100
AcDbLine
 62
7
  6
CONTINUOUS
 10
22.2638431508
 20
-4.8283770267
 11
21.7138431508
 21
-4.8228342991
  0
LINE
  5
432
100
AcDbEntity
  8
0
100
AcDbLine
 62
7
  6
CONTINUOUS
 10
-12.4069902164
 20
-2.5278434331
 11
-12.5840734821
 21
-2.4916732247
  0
LINE
  5
433
100
AcDbEntity
  8
ASSI
100
AcDbLine
 62
7
  6
CONTINUOUS
 10
-12.4069902164
 20
-2.5278434331
 11
-12.5840734821
 21
-2.4916732247
  0
LINE
  5
434
100
AcDbEntity
  8
0
100
AcDbLine
 62
7
  6
CONTINUOUS
 10
-12.4424068492
 20
-1.9129497881
 11
-12.6194902164
 21
-1.8767795796
  0
LINE
  5
435
100
AcDbEntity
  8
ASSI
100
AcDbLine
 62
7
  6
CONTINUOUS
 10
-12.4424068492
 20
-1.9129497881
 11
-12.6194902164
 21
-1.8767795796
  0
LINE
  5
436
100
AcDbEntity
  8
0
100
AcDbLine
 62
7
  6
CONTINUOUS
 10
-10.8840735835
 20
-1.9129497881
 11
-11.0611568492
 21
-1.8767795796
  0
LINE
  5
437
100
AcDbEntity
  8
ASSI
100
AcDbLine
 62
7
  6
CONTINUOUS
 10
-10.8840735835
 20
-1.9129497881
 11
-11.0611568492
 21
-1.8767795796
  0
LINE
  5
438
100
AcDbEntity
  8
0
100
AcDbLine
 62
7
  6
CONTINUOUS
 10
-7.6257403177
 20
-2.0938008304
 11
-7.8028233808
 21
-2.0576306219
  0
LINE
  5
439
100
AcDbEntity
  8
ASSI
100
AcDbLine
 62
7
  6
CONTINUOUS
 10
-7.6257403177
 20
-2.0938008304
 11
-7.8028233808
 21
-2.0576306219
  0
LINE
  5
43A
100
AcDbEntity
  8
0
100
AcDbLine
 62
7
  6
CONTINUOUS
 10
-10.919490115
 20
-2.0938008304
 11
-11.0611568492
 21
-2.0576306219
  0
LINE
  5
43B
100
AcDbEntity
  8
ASSI
100
AcDbLine
 62
7
  6
CONTINUOUS
 10
-10.919490115
 20
-2.0938008304
 11
-11.0611568492
 21
-2.0576306219
  0
LINE
  5
43C
100
AcDbEntity
  8
0
100
AcDbLine
 62
7
  6
CONTINUOUS
 10
-7.4132403177
 20
-1.985290205
 11
-7.5549068492
 21
-1.9129497881
  0
LINE
  5
43D
100
AcDbEntity
  8
ASSI
100
AcDbLine
 62
7
  6
CONTINUOUS
 10
-7.4132403177
 20
-1.985290205
 11
-7.5549068492
 21
-1.9129497881
  0
LINE
  5
43E
100
AcDbEntity
  8
DRAFT
100
AcDbLine
 62
7
  6
CONTINUOUS
 10
-3.2784218223
 20
5.5555214204
 11
-3.2784218223
 21
3.9555214204
  0
LINE
  5
43F
100
AcDbEntity
  8
ASSI
100
AcDbLine
 62
7
  6
CONTINUOUS
 10
-3.2784218223
 20
5.5555214204
 11
-3.2784218223
 21
3.9555214204
  0
LINE
  5
440
100
AcDbEntity
  8
DRAFT
100
AcDbLine
 62
7
  6
CONTINUOUS
 10
-3.1361568492
 20
0.7555214204
 11
-3.1361568492
 21
3.9467938879
  0
LINE
  5
441
100
AcDbEntity
  8
ASSI
100
AcDbLine
 62
7
  6
CONTINUOUS
 10
-3.1361568492
 20
0.7555214204
 11
-3.1361568492
 21
3.9467938879
  0
LINE
  5
442
100
AcDbEntity
  8
DRAFT
100
AcDbLine
 62
7
  6
CONTINUOUS
 10
-3.1361568492
 20
5.5642489528
 11
-3.1361568492
 21
7.2555214204
  0
LINE
  5
443
100
AcDbEntity
  8
ASSI
100
AcDbLine
 62
7
  6
CONTINUOUS
 10
-3.1361568492
 20
5.5642489528
 11
-3.1361568492
 21
7.2555214204
  0
LINE
  5
444
100
AcDbEntity
  8
DRAFT
100
AcDbLine
 62
7
  6
CONTINUOUS
 10
-3.1036119142
 20
2.3380663554
 11
-3.1036119142
 21
3.9467938879
  0
LINE
  5
445
100
AcDbEntity
  8
DRAFT
100
AcDbLine
 62
7
  6
CONTINUOUS
 10
-3.1036119142
 20
5.5642489528
 11
-3.1036119142
 21
7.1729764853
  0
LINE
  5
446
100
AcDbEntity
  8
DRAFT
100
AcDbLine
 62
7
  6
CONTINUOUS
 10
-3.0361568492
 20
5.5597501712
 11
-3.0361568492
 21
3.9512926695
  0
LINE
  5
447
100
AcDbEntity
  8
ASSI
100
AcDbLine
 62
7
  6
CONTINUOUS
 10
-3.0361568492
 20
5.5597501712
 11
-3.0361568492
 21
3.9512926695
  0
LINE
  5
448
100
AcDbEntity
  8
DRAFT
100
AcDbLine
 62
7
  6
CONTINUOUS
 10
-2.6326658363
 20
7.1764674983
 11
-2.6326658363
 21
2.3345753425
  0
LINE
  5
449
100
AcDbEntity
  8
0
100
AcDbLine
 62
7
  6
CONTINUOUS
 10
-8.5111568492
 20
-3.395928512
 11
-7.5194903177
 21
-2.4916732247
  0
LINE
  5
44A
100
AcDbEntity
  8
ASSI
100
AcDbLine
 62
7
  6
CONTINUOUS
 10
-8.5111568492
 20
-3.395928512
 11
-7.5194903177
 21
-2.4916732247
  0
LINE
  5
44B
100
AcDbEntity
  8
0
100
AcDbLine
 62
7
  6
CONTINUOUS
 10
-8.2278233808
 20
-3.395928512
 11
-7.3424068492
 21
-2.60018385
  0
LINE
  5
44C
100
AcDbEntity
  8
ASSI
100
AcDbLine
 62
7
  6
CONTINUOUS
 10
-8.2278233808
 20
-3.395928512
 11
-7.3424068492
 21
-2.60018385
  0
LINE
  5
44D
100
AcDbEntity
  8
0
100
AcDbLine
 62
7
  6
CONTINUOUS
 10
-8.2278233808
 20
-2.1661412473
 11
-8.1215733808
 21
-2.0938008304
  0
LINE
  5
44E
100
AcDbEntity
  8
ASSI
100
AcDbLine
 62
7
  6
CONTINUOUS
 10
-8.2278233808
 20
-2.1661412473
 11
-8.1215733808
 21
-2.0938008304
  0
LINE
  5
44F
100
AcDbEntity
  8
0
100
AcDbLine
 62
7
  6
CONTINUOUS
 10
-10.8486568492
 20
-3.540609368
 11
-10.6715735835
 21
-3.4320987331
  0
LINE
  5
450
100
AcDbEntity
  8
ASSI
100
AcDbLine
 62
7
  6
CONTINUOUS
 10
-10.8486568492
 20
-3.540609368
 11
-10.6715735835
 21
-3.4320987331
  0
LINE
  5
451
100
AcDbEntity
  8
0
100
AcDbLine
 62
7
  6
CONTINUOUS
 10
-11.556990115
 20
-2.7448646839
 11
-11.4861568492
 21
-2.7086944754
  0
LINE
  5
452
100
AcDbEntity
  8
ASSI
100
AcDbLine
 62
7
  6
CONTINUOUS
 10
-11.556990115
 20
-2.7448646839
 11
-11.4861568492
 21
-2.7086944754
  0
LINE
  5
453
100
AcDbEntity
  8
0
100
AcDbLine
 62
7
  6
CONTINUOUS
 10
-11.4861568492
 20
-2.8895455177
 11
-11.344490115
 21
-2.8172051008
  0
LINE
  5
454
100
AcDbEntity
  8
ASSI
100
AcDbLine
 62
7
  6
CONTINUOUS
 10
-11.4861568492
 20
-2.8895455177
 11
-11.344490115
 21
-2.8172051008
  0
LINE
  5
455
100
AcDbEntity
  8
0
100
AcDbLine
 62
7
  6
CONTINUOUS
 10
-10.7778235835
 20
-2.7086944754
 11
-10.706990115
 21
-2.6725242669
  0
LINE
  5
456
100
AcDbEntity
  8
ASSI
100
AcDbLine
 62
7
  6
CONTINUOUS
 10
-10.7778235835
 20
-2.7086944754
 11
-10.706990115
 21
-2.6725242669
  0
LINE
  5
457
100
AcDbEntity
  8
0
100
AcDbLine
 62
7
  6
CONTINUOUS
 10
-8.2986568492
 20
-1.985290205
 11
-8.1569903177
 21
-1.9129497881
  0
LINE
  5
458
100
AcDbEntity
  8
ASSI
100
AcDbLine
 62
7
  6
CONTINUOUS
 10
-8.2986568492
 20
-1.985290205
 11
-8.1569903177
 21
-1.9129497881
  0
LINE
  5
459
100
AcDbEntity
  8
0
100
AcDbLine
 62
7
  6
CONTINUOUS
 10
-10.919490115
 20
-3.3597583036
 11
-10.7778235835
 21
-3.2874178867
  0
LINE
  5
45A
100
AcDbEntity
  8
ASSI
100
AcDbLine
 62
7
  6
CONTINUOUS
 10
-10.919490115
 20
-3.3597583036
 11
-10.7778235835
 21
-3.2874178867
  0
LINE
  5
45B
100
AcDbEntity
  8
0
100
AcDbLine
 62
7
  6
CONTINUOUS
 10
-12.9028234821
 20
-2.0938008304
 11
-12.7965734821
 21
-2.0576306219
  0
LINE
  5
45C
100
AcDbEntity
  8
ASSI
100
AcDbLine
 62
7
  6
CONTINUOUS
 10
-12.9028234821
 20
-2.0938008304
 11
-12.7965734821
 21
-2.0576306219
  0
LINE
  5
45D
100
AcDbEntity
  8
0
100
AcDbLine
 62
7
  6
CONTINUOUS
 10
-12.9028234821
 20
-2.7086944754
 11
-12.7965734821
 21
-2.6725242669
  0
LINE
  5
45E
100
AcDbEntity
  8
ASSI
100
AcDbLine
 62
7
  6
CONTINUOUS
 10
-12.9028234821
 20
-2.7086944754
 11
-12.7965734821
 21
-2.6725242669
  0
LINE
  5
45F
100
AcDbEntity
  8
0
100
AcDbLine
 62
7
  6
CONTINUOUS
 10
11.3267451508
 20
-3.2374265796
 11
11.8099621508
 21
-3.2374265796
  0
LINE
  5
460
100
AcDbEntity
  8
ASSI
100
AcDbLine
 62
7
  6
CONTINUOUS
 10
11.3267451508
 20
-3.2374265796
 11
11.8099621508
 21
-3.2374265796
  0
LINE
  5
461
100
AcDbEntity
  8
0
100
AcDbLine
 62
7
  6
CONTINUOUS
 10
-10.2111568492
 20
-3.0703966106
 11
-9.3611568492
 21
-3.0703966106
  0
LINE
  5
462
100
AcDbEntity
  8
ASSI
100
AcDbLine
 62
7
  6
CONTINUOUS
 10
-10.2111568492
 20
-3.0703966106
 11
-9.3611568492
 21
-3.0703966106
  0
LINE
  5
463
100
AcDbEntity
  8
0
100
AcDbLine
 62
7
  6
CONTINUOUS
 10
-9.1486568492
 20
-3.0703966106
 11
-8.7944903177
 21
-3.0703966106
  0
LINE
  5
464
100
AcDbEntity
  8
ASSI
100
AcDbLine
 62
7
  6
CONTINUOUS
 10
-9.1486568492
 20
-3.0703966106
 11
-8.7944903177
 21
-3.0703966106
  0
LINE
  5
465
100
AcDbEntity
  8
0
100
AcDbLine
 62
7
  6
CONTINUOUS
 10
11.3993271508
 20
-2.9748365796
 11
11.7390491508
 21
-2.9748365796
  0
LINE
  5
466
100
AcDbEntity
  8
ASSI
100
AcDbLine
 62
7
  6
CONTINUOUS
 10
11.3993271508
 20
-2.9748365796
 11
11.7390491508
 21
-2.9748365796
  0
LINE
  5
467
100
AcDbEntity
  8
0
100
AcDbLine
 62
7
  6
CONTINUOUS
 10
12.7334501467
 20
-2.9115468637
 11
12.9237004698
 21
-2.9115468637
  0
LINE
  5
468
100
AcDbEntity
  8
ASSI
100
AcDbLine
 62
7
  6
CONTINUOUS
 10
12.7334501467
 20
-2.9115468637
 11
12.9237004698
 21
-2.9115468637
  0
LINE
  5
469
100
AcDbEntity
  8
0
100
AcDbLine
 62
7
  6
CONTINUOUS
 10
-9.9632403177
 20
-2.8533753092
 11
-9.3611568492
 21
-2.8533753092
  0
LINE
  5
46A
100
AcDbEntity
  8
ASSI
100
AcDbLine
 62
7
  6
CONTINUOUS
 10
-9.9632403177
 20
-2.8533753092
 11
-9.3611568492
 21
-2.8533753092
  0
LINE
  5
46B
100
AcDbEntity
  8
0
100
AcDbLine
 62
7
  6
CONTINUOUS
 10
-9.1486568492
 20
-2.8533753092
 11
-8.7944903177
 21
-2.8533753092
  0
LINE
  5
46C
100
AcDbEntity
  8
ASSI
100
AcDbLine
 62
7
  6
CONTINUOUS
 10
-9.1486568492
 20
-2.8533753092
 11
-8.7944903177
 21
-2.8533753092
  0
LINE
  5
46D
100
AcDbEntity
  8
0
100
AcDbLine
 62
7
  6
CONTINUOUS
 10
-11.2028235835
 20
-2.7810348923
 11
-11.0611568492
 21
-2.7810348923
  0
LINE
  5
46E
100
AcDbEntity
  8
ASSI
100
AcDbLine
 62
7
  6
CONTINUOUS
 10
-11.2028235835
 20
-2.7810348923
 11
-11.0611568492
 21
-2.7810348923
  0
LINE
  5
46F
100
AcDbEntity
  8
0
100
AcDbLine
 62
7
  6
CONTINUOUS
 10
-12.7965734821
 20
-2.6725242669
 11
-12.5486568492
 21
-2.6725242669
  0
LINE
  5
470
100
AcDbEntity
  8
ASSI
100
AcDbLine
 62
7
  6
CONTINUOUS
 10
-12.7965734821
 20
-2.6725242669
 11
-12.5486568492
 21
-2.6725242669
  0
LINE
  5
471
100
AcDbEntity
  8
0
100
AcDbLine
 62
7
  6
CONTINUOUS
 10
-11.2028235835
 20
-2.6363540585
 11
-11.0611568492
 21
-2.6363540585
  0
LINE
  5
472
100
AcDbEntity
  8
ASSI
100
AcDbLine
 62
7
  6
CONTINUOUS
 10
-11.2028235835
 20
-2.6363540585
 11
-11.0611568492
 21
-2.6363540585
  0
LINE
  5
473
100
AcDbEntity
  8
0
100
AcDbLine
 62
7
  6
CONTINUOUS
 10
12.7216845824
 20
-2.6331504111
 11
12.9244652952
 21
-2.6331504111
  0
LINE
  5
474
100
AcDbEntity
  8
ASSI
100
AcDbLine
 62
7
  6
CONTINUOUS
 10
12.7216845824
 20
-2.6331504111
 11
12.9244652952
 21
-2.6331504111
  0
LINE
  5
475
100
AcDbEntity
  8
0
100
AcDbLine
 62
7
  6
CONTINUOUS
 10
-12.7611568492
 20
-2.4916732247
 11
-12.5840734821
 21
-2.4916732247
  0
LINE
  5
476
100
AcDbEntity
  8
ASSI
100
AcDbLine
 62
7
  6
CONTINUOUS
 10
-12.7611568492
 20
-2.4916732247
 11
-12.5840734821
 21
-2.4916732247
  0
LINE
  5
477
100
AcDbEntity
  8
0
100
AcDbLine
 62
7
  6
CONTINUOUS
 10
-12.300740115
 20
-2.2746518726
 11
-12.1236568492
 21
-2.2746518726
  0
LINE
  5
478
100
AcDbEntity
  8
ASSI
100
AcDbLine
 62
7
  6
CONTINUOUS
 10
-12.300740115
 20
-2.2746518726
 11
-12.1236568492
 21
-2.2746518726
  0
LINE
  5
479
100
AcDbEntity
  8
0
100
AcDbLine
 62
7
  6
CONTINUOUS
 10
-8.4757403177
 20
-2.2746518726
 11
-8.2986568492
 21
-2.2746518726
  0
LINE
  5
47A
100
AcDbEntity
  8
ASSI
100
AcDbLine
 62
7
  6
CONTINUOUS
 10
-8.4757403177
 20
-2.2746518726
 11
-8.2986568492
 21
-2.2746518726
  0
LINE
  5
47B
100
AcDbEntity
  8
0
100
AcDbLine
 62
7
  6
CONTINUOUS
 10
-12.7965734821
 20
-2.0576306219
 11
-12.5840734821
 21
-2.0576306219
  0
LINE
  5
47C
100
AcDbEntity
  8
ASSI
100
AcDbLine
 62
7
  6
CONTINUOUS
 10
-12.7965734821
 20
-2.0576306219
 11
-12.5840734821
 21
-2.0576306219
  0
LINE
  5
47D
100
AcDbEntity
  8
0
100
AcDbLine
 62
7
  6
CONTINUOUS
 10
-11.2028235835
 20
-2.0576306219
 11
-11.0611568492
 21
-2.0576306219
  0
LINE
  5
47E
100
AcDbEntity
  8
ASSI
100
AcDbLine
 62
7
  6
CONTINUOUS
 10
-11.2028235835
 20
-2.0576306219
 11
-11.0611568492
 21
-2.0576306219
  0
LINE
  5
47F
100
AcDbEntity
  8
0
100
AcDbLine
 62
7
  6
CONTINUOUS
 10
-7.9444903177
 20
-2.0576306219
 11
-7.8028233808
 21
-2.0576306219
  0
LINE
  5
480
100
AcDbEntity
  8
ASSI
100
AcDbLine
 62
7
  6
CONTINUOUS
 10
-7.9444903177
 20
-2.0576306219
 11
-7.8028233808
 21
-2.0576306219
  0
LINE
  5
481
100
AcDbEntity
  8
0
100
AcDbLine
 62
7
  6
CONTINUOUS
 10
7.0226771508
 20
-1.8769165796
 11
7.4081301508
 21
-1.8769165796
  0
LINE
  5
482
100
AcDbEntity
  8
ASSI
100
AcDbLine
 62
7
  6
CONTINUOUS
 10
7.0226771508
 20
-1.8769165796
 11
7.4081301508
 21
-1.8769165796
  0
LINE
  5
483
100
AcDbEntity
  8
0
100
AcDbLine
 62
7
  6
CONTINUOUS
 10
8.0660771508
 20
-1.8769165796
 11
8.4206631508
 21
-1.8769165796
  0
LINE
  5
484
100
AcDbEntity
  8
ASSI
100
AcDbLine
 62
7
  6
CONTINUOUS
 10
8.0660771508
 20
-1.8769165796
 11
8.4206631508
 21
-1.8769165796
  0
LINE
  5
485
100
AcDbEntity
  8
0
100
AcDbLine
 62
7
  6
CONTINUOUS
 10
9.2516711508
 20
-1.8769165796
 11
9.6062061508
 21
-1.8769165796
  0
LINE
  5
486
100
AcDbEntity
  8
ASSI
100
AcDbLine
 62
7
  6
CONTINUOUS
 10
9.2516711508
 20
-1.8769165796
 11
9.6062061508
 21
-1.8769165796
  0
LINE
  5
487
100
AcDbEntity
  8
0
100
AcDbLine
 62
7
  6
CONTINUOUS
 10
10.3121151508
 20
-1.8769165796
 11
10.6631821508
 21
-1.8769165796
  0
LINE
  5
488
100
AcDbEntity
  8
ASSI
100
AcDbLine
 62
7
  6
CONTINUOUS
 10
10.3121151508
 20
-1.8769165796
 11
10.6631821508
 21
-1.8769165796
  0
LINE
  5
489
100
AcDbEntity
  8
0
100
AcDbLine
 62
7
  6
CONTINUOUS
 10
11.4110411508
 20
-1.8769165796
 11
11.7542951508
 21
-1.8769165796
  0
LINE
  5
48A
100
AcDbEntity
  8
ASSI
100
AcDbLine
 62
7
  6
CONTINUOUS
 10
11.4110411508
 20
-1.8769165796
 11
11.7542951508
 21
-1.8769165796
  0
LINE
  5
48B
100
AcDbEntity
  8
0
100
AcDbLine
 62
7
  6
CONTINUOUS
 10
8.5523411508
 20
-1.8768145796
 11
8.9071691508
 21
-1.8768145796
  0
LINE
  5
48C
100
AcDbEntity
  8
ASSI
100
AcDbLine
 62
7
  6
CONTINUOUS
 10
8.5523411508
 20
-1.8768145796
 11
8.9071691508
 21
-1.8768145796
  0
LINE
  5
48D
100
AcDbEntity
  8
0
100
AcDbLine
 62
7
  6
CONTINUOUS
 10
-13.8236568492
 20
-1.8767795796
 11
-13.6111568492
 21
-1.8767795796
  0
LINE
  5
48E
100
AcDbEntity
  8
ASSI
100
AcDbLine
 62
7
  6
CONTINUOUS
 10
-13.8236568492
 20
-1.8767795796
 11
-13.6111568492
 21
-1.8767795796
  0
LINE
  5
48F
100
AcDbEntity
  8
0
100
AcDbLine
 62
7
  6
CONTINUOUS
 10
-12.7611568492
 20
-1.8767795796
 11
-12.6194902164
 21
-1.8767795796
  0
LINE
  5
490
100
AcDbEntity
  8
ASSI
100
AcDbLine
 62
7
  6
CONTINUOUS
 10
-12.7611568492
 20
-1.8767795796
 11
-12.6194902164
 21
-1.8767795796
  0
LINE
  5
491
100
AcDbEntity
  8
0
100
AcDbLine
 62
7
  6
CONTINUOUS
 10
-11.2028235835
 20
-1.8767795796
 11
-11.0611568492
 21
-1.8767795796
  0
LINE
  5
492
100
AcDbEntity
  8
ASSI
100
AcDbLine
 62
7
  6
CONTINUOUS
 10
-11.2028235835
 20
-1.8767795796
 11
-11.0611568492
 21
-1.8767795796
  0
LINE
  5
493
100
AcDbEntity
  8
0
100
AcDbLine
 62
7
  6
CONTINUOUS
 10
-9.3611568492
 20
-1.8767795796
 11
-9.1486568492
 21
-1.8767795796
  0
LINE
  5
494
100
AcDbEntity
  8
ASSI
100
AcDbLine
 62
7
  6
CONTINUOUS
 10
-9.3611568492
 20
-1.8767795796
 11
-9.1486568492
 21
-1.8767795796
  0
LINE
  5
495
100
AcDbEntity
  8
0
100
AcDbLine
 62
7
  6
CONTINUOUS
 10
-7.9090733808
 20
-1.8767795796
 11
-7.7674068492
 21
-1.8767795796
  0
LINE
  5
496
100
AcDbEntity
  8
ASSI
100
AcDbLine
 62
7
  6
CONTINUOUS
 10
-7.9090733808
 20
-1.8767795796
 11
-7.7674068492
 21
-1.8767795796
  0
LINE
  5
497
100
AcDbEntity
  8
DRAFT
100
AcDbLine
 62
7
  6
CONTINUOUS
 10
-24.0566690912
 20
-1.7739663377
 11
-23.1156446073
 21
-1.7739663377
  0
LINE
  5
498
100
AcDbEntity
  8
ASSI
100
AcDbLine
 62
7
  6
CONTINUOUS
 10
-24.0566690912
 20
-1.7739663377
 11
-23.1156446073
 21
-1.7739663377
  0
LINE
  5
499
100
AcDbEntity
  8
DRAFT
100
AcDbLine
 62
7
  6
CONTINUOUS
 10
22.8433309088
 20
-1.7739663377
 11
23.7843553927
 21
-1.7739663377
  0
LINE
  5
49A
100
AcDbEntity
  8
ASSI
100
AcDbLine
 62
7
  6
CONTINUOUS
 10
22.8433309088
 20
-1.7739663377
 11
23.7843553927
 21
-1.7739663377
  0
LINE
  5
49B
100
AcDbEntity
  8
DRAFT
100
AcDbLine
 62
7
  6
CONTINUOUS
 10
-24.9361568492
 20
-1.7329870163
 11
-24.1361568492
 21
-1.7329870163
  0
LINE
  5
49C
100
AcDbEntity
  8
ASSI
100
AcDbLine
 62
7
  6
CONTINUOUS
 10
-24.9361568492
 20
-1.7329870163
 11
-24.1361568492
 21
-1.7329870163
  0
LINE
  5
49D
100
AcDbEntity
  8
DRAFT
100
AcDbLine
 62
7
  6
CONTINUOUS
 10
23.8638431508
 20
-1.7329870163
 11
24.6638431508
 21
-1.7329870163
  0
LINE
  5
49E
100
AcDbEntity
  8
ASSI
100
AcDbLine
 62
7
  6
CONTINUOUS
 10
23.8638431508
 20
-1.7329870163
 11
24.6638431508
 21
-1.7329870163
  0
LINE
  5
49F
100
AcDbEntity
  8
DRAFT
100
AcDbLine
 62
7
  6
CONTINUOUS
 10
-23.8187017843
 20
-1.7119336446
 11
-23.0536119142
 21
-1.7119336446
  0
LINE
  5
4A0
100
AcDbEntity
  8
ASSI
100
AcDbLine
 62
7
  6
CONTINUOUS
 10
-23.8187017843
 20
-1.7119336446
 11
-23.0536119142
 21
-1.7119336446
  0
LINE
  5
4A1
100
AcDbEntity
  8
DRAFT
100
AcDbLine
 62
7
  6
CONTINUOUS
 10
23.5463880858
 20
-1.7119336446
 11
22.7812982157
 21
-1.7119336446
  0
LINE
  5
4A2
100
AcDbEntity
  8
ASSI
100
AcDbLine
 62
7
  6
CONTINUOUS
 10
23.5463880858
 20
-1.7119336446
 11
22.7812982157
 21
-1.7119336446
  0
LINE
  5
4A3
100
AcDbEntity
  8
DRAFT
100
AcDbLine
 62
7
  6
CONTINUOUS
 10
-24.1361568492
 20
-1.6944785796
 11
-23.8361568492
 21
-1.6944785796
  0
LINE
  5
4A4
100
AcDbEntity
  8
ASSI
100
AcDbLine
 62
7
  6
CONTINUOUS
 10
-24.1361568492
 20
-1.6944785796
 11
-23.8361568492
 21
-1.6944785796
  0
LINE
  5
4A5
100
AcDbEntity
  8
DRAFT
100
AcDbLine
 62
7
  6
CONTINUOUS
 10
23.5638431508
 20
-1.6944785796
 11
23.8638431508
 21
-1.6944785796
  0
LINE
  5
4A6
100
AcDbEntity
  8
ASSI
100
AcDbLine
 62
7
  6
CONTINUOUS
 10
23.5638431508
 20
-1.6944785796
 11
23.8638431508
 21
-1.6944785796
  0
LINE
  5
4A7
100
AcDbEntity
  8
0
100
AcDbLine
 62
7
  6
CONTINUOUS
 10
-7.5549068492
 20
-1.9129497881
 11
-7.7674068492
 21
-1.8767795796
  0
LINE
  5
4A8
100
AcDbEntity
  8
ASSI
100
AcDbLine
 62
7
  6
CONTINUOUS
 10
-7.5549068492
 20
-1.9129497881
 11
-7.7674068492
 21
-1.8767795796
  0
LINE
  5
4A9
100
AcDbEntity
  8
RACCORDO
100
AcDbLine
 62
253
  6
CONTINUOUS
 10
-6.9010200384
 20
-6.3093874602
 11
-6.9309660282
 21
-6.33933345
  0
LINE
  5
4AA
100
AcDbEntity
  8
ASSI
100
AcDbLine
 62
253
  6
CONTINUOUS
 10
-6.9010200384
 20
-6.3093874602
 11
-6.9309660282
 21
-6.33933345
  0
LINE
  5
4AB
100
AcDbEntity
  8
RACCORDO
100
AcDbLine
 62
253
  6
CONTINUOUS
 10
-6.6012614217
 20
-6.6095374607
 11
-6.6310117196
 21
-6.6392877586
  0
LINE
  5
4AC
100
AcDbEntity
  8
ASSI
100
AcDbLine
 62
253
  6
CONTINUOUS
 10
-6.6012614217
 20
-6.6095374607
 11
-6.6310117196
 21
-6.6392877586
  0
LINE
  5
4AD
100
AcDbEntity
  8
0
100
AcDbLine
 62
7
  6
CONTINUOUS
 10
-12.5486568492
 20
-3.395928512
 11
-12.4424068492
 21
-3.3597583036
  0
LINE
  5
4AE
100
AcDbEntity
  8
ASSI
100
AcDbLine
 62
7
  6
CONTINUOUS
 10
-12.5486568492
 20
-3.395928512
 11
-12.4424068492
 21
-3.3597583036
  0
LINE
  5
4AF
100
AcDbEntity
  8
0
100
AcDbLine
 62
7
  6
CONTINUOUS
 10
-11.0611568492
 20
-3.395928512
 11
-10.919490115
 21
-3.3597583036
  0
LINE
  5
4B0
100
AcDbEntity
  8
ASSI
100
AcDbLine
 62
7
  6
CONTINUOUS
 10
-11.0611568492
 20
-3.395928512
 11
-10.919490115
 21
-3.3597583036
  0
LINE
  5
4B1
100
AcDbEntity
  8
0
100
AcDbLine
 62
7
  6
CONTINUOUS
 10
-11.344490115
 20
-2.8172051008
 11
-11.2028235835
 21
-2.7810348923
  0
LINE
  5
4B2
100
AcDbEntity
  8
ASSI
100
AcDbLine
 62
7
  6
CONTINUOUS
 10
-11.344490115
 20
-2.8172051008
 11
-11.2028235835
 21
-2.7810348923
  0
LINE
  5
4B3
100
AcDbEntity
  8
0
100
AcDbLine
 62
7
  6
CONTINUOUS
 10
-11.025740115
 20
-3.5767795796
 11
-10.8486568492
 21
-3.540609368
  0
LINE
  5
4B4
100
AcDbEntity
  8
ASSI
100
AcDbLine
 62
7
  6
CONTINUOUS
 10
-11.025740115
 20
-3.5767795796
 11
-10.8486568492
 21
-3.540609368
  0
LINE
  5
4B5
100
AcDbEntity
  8
0
100
AcDbLine
 62
7
  6
CONTINUOUS
 10
-12.5840734821
 20
-3.5767795796
 11
-12.4069902164
 21
-3.540609368
  0
LINE
  5
4B6
100
AcDbEntity
  8
ASSI
100
AcDbLine
 62
7
  6
CONTINUOUS
 10
-12.5840734821
 20
-3.5767795796
 11
-12.4069902164
 21
-3.540609368
  0
LINE
  5
4B7
100
AcDbEntity
  8
0
100
AcDbLine
 62
7
  6
CONTINUOUS
 10
-8.1215733808
 20
-2.0938008304
 11
-7.9444903177
 21
-2.0576306219
  0
LINE
  5
4B8
100
AcDbEntity
  8
ASSI
100
AcDbLine
 62
7
  6
CONTINUOUS
 10
-8.1215733808
 20
-2.0938008304
 11
-7.9444903177
 21
-2.0576306219
  0
LINE
  5
4B9
100
AcDbEntity
  8
0
100
AcDbLine
 62
7
  6
CONTINUOUS
 10
-12.9382402164
 20
-2.5278434331
 11
-12.7611568492
 21
-2.4916732247
  0
LINE
  5
4BA
100
AcDbEntity
  8
ASSI
100
AcDbLine
 62
7
  6
CONTINUOUS
 10
-12.9382402164
 20
-2.5278434331
 11
-12.7611568492
 21
-2.4916732247
  0
LINE
  5
4BB
100
AcDbEntity
  8
0
100
AcDbLine
 62
7
  6
CONTINUOUS
 10
-8.1569903177
 20
-1.9129497881
 11
-7.9090733808
 21
-1.8767795796
  0
LINE
  5
4BC
100
AcDbEntity
  8
ASSI
100
AcDbLine
 62
7
  6
CONTINUOUS
 10
-8.1569903177
 20
-1.9129497881
 11
-7.9090733808
 21
-1.8767795796
  0
LINE
  5
4BD
100
AcDbEntity
  8
DRAFT
100
AcDbLine
 62
7
  6
CONTINUOUS
 10
-21.9861568492
 20
-1.0724066835
 11
-22.7861568492
 21
-1.0863707355
  0
LINE
  5
4BE
100
AcDbEntity
  8
ASSI
100
AcDbLine
 62
7
  6
CONTINUOUS
 10
-21.9861568492
 20
-1.0724066835
 11
-22.7861568492
 21
-1.0863707355
  0
LINE
  5
4BF
100
AcDbEntity
  8
DRAFT
100
AcDbLine
 62
7
  6
CONTINUOUS
 10
21.7138431508
 20
-1.0661228601
 11
22.2638431508
 21
-1.0605801326
  0
LINE
  5
4C0
100
AcDbEntity
  8
ASSI
100
AcDbLine
 62
7
  6
CONTINUOUS
 10
21.7138431508
 20
-1.0661228601
 11
22.2638431508
 21
-1.0605801326
  0
LINE
  5
4C1
100
AcDbEntity
  8
DRAFT
100
AcDbLine
 62
7
  6
CONTINUOUS
 10
23.5463880858
 20
-1.0863707355
 11
22.5138431508
 21
-1.0863707355
  0
LINE
  5
4C2
100
AcDbEntity
  8
ASSI
100
AcDbLine
 62
7
  6
CONTINUOUS
 10
23.5463880858
 20
-1.0863707355
 11
22.5138431508
 21
-1.0863707355
  0
LINE
  5
4C3
100
AcDbEntity
  8
DRAFT
100
AcDbLine
 62
7
  6
CONTINUOUS
 10
-22.7861568492
 20
-1.0863707355
 11
-23.8187017843
 21
-1.0863707355
  0
LINE
  5
4C4
100
AcDbEntity
  8
ASSI
100
AcDbLine
 62
7
  6
CONTINUOUS
 10
-22.7861568492
 20
-1.0863707355
 11
-23.8187017843
 21
-1.0863707355
  0
LINE
  5
4C5
100
AcDbEntity
  8
RACCORDO
100
AcDbLine
 62
7
  6
CONTINUOUS
 10
-23.4615259628
 20
-1.0240056644
 11
-22.5361568492
 21
-1.0240056644
  0
LINE
  5
4C6
100
AcDbEntity
  8
ASSI
100
AcDbLine
 62
7
  6
CONTINUOUS
 10
-23.4615259628
 20
-1.0240056644
 11
-22.5361568492
 21
-1.0240056644
  0
LINE
  5
4C7
100
AcDbEntity
  8
RACCORDO
100
AcDbLine
 62
7
  6
CONTINUOUS
 10
22.2638431508
 20
-1.0240056644
 11
23.1892122643
 21
-1.0240056644
  0
LINE
  5
4C8
100
AcDbEntity
  8
ASSI
100
AcDbLine
 62
7
  6
CONTINUOUS
 10
22.2638431508
 20
-1.0240056644
 11
23.1892122643
 21
-1.0240056644
  0
LINE
  5
4C9
100
AcDbEntity
  8
DRAFT
100
AcDbLine
 62
7
  6
CONTINUOUS
 10
-22.5361568492
 20
-1.0605801326
 11
-21.9861568492
 21
-1.0661228601
  0
LINE
  5
4CA
100
AcDbEntity
  8
ASSI
100
AcDbLine
 62
7
  6
CONTINUOUS
 10
-22.5361568492
 20
-1.0605801326
 11
-21.9861568492
 21
-1.0661228601
  0
LINE
  5
4CB
100
AcDbEntity
  8
DRAFT
100
AcDbLine
 62
7
  6
CONTINUOUS
 10
22.5138431508
 20
-1.0863707355
 11
21.7138431508
 21
-1.0724066835
  0
LINE
  5
4CC
100
AcDbEntity
  8
ASSI
100
AcDbLine
 62
7
  6
CONTINUOUS
 10
22.5138431508
 20
-1.0863707355
 11
21.7138431508
 21
-1.0724066835
  0
LINE
  5
4CD
100
AcDbEntity
  8
RACCORDO
100
AcDbLine
 62
253
  6
CONTINUOUS
 10
6.3586980211
 20
-6.6392877586
 11
6.3289477232
 21
-6.6095374607
  0
LINE
  5
4CE
100
AcDbEntity
  8
ASSI
100
AcDbLine
 62
253
  6
CONTINUOUS
 10
6.3586980211
 20
-6.6392877586
 11
6.3289477232
 21
-6.6095374607
  0
LINE
  5
4CF
100
AcDbEntity
  8
0
100
AcDbLine
 62
7
  6
CONTINUOUS
 10
-11.0611568492
 20
-2.6363540585
 11
-10.919490115
 21
-2.60018385
  0
LINE
  5
4D0
100
AcDbEntity
  8
ASSI
100
AcDbLine
 62
7
  6
CONTINUOUS
 10
-11.0611568492
 20
-2.6363540585
 11
-10.919490115
 21
-2.60018385
  0
LINE
  5
4D1
100
AcDbEntity
  8
0
100
AcDbLine
 62
7
  6
CONTINUOUS
 10
-11.344490115
 20
-2.0938008304
 11
-11.2028235835
 21
-2.0576306219
  0
LINE
  5
4D2
100
AcDbEntity
  8
ASSI
100
AcDbLine
 62
7
  6
CONTINUOUS
 10
-11.344490115
 20
-2.0938008304
 11
-11.2028235835
 21
-2.0576306219
  0
LINE
  5
4D3
100
AcDbEntity
  8
0
100
AcDbLine
 62
7
  6
CONTINUOUS
 10
-11.3799068492
 20
-1.9129497881
 11
-11.2028235835
 21
-1.8767795796
  0
LINE
  5
4D4
100
AcDbEntity
  8
ASSI
100
AcDbLine
 62
7
  6
CONTINUOUS
 10
-11.3799068492
 20
-1.9129497881
 11
-11.2028235835
 21
-1.8767795796
  0
LINE
  5
4D5
100
AcDbEntity
  8
0
100
AcDbLine
 62
7
  6
CONTINUOUS
 10
-12.9382402164
 20
-1.9129497881
 11
-12.7611568492
 21
-1.8767795796
  0
LINE
  5
4D6
100
AcDbEntity
  8
ASSI
100
AcDbLine
 62
7
  6
CONTINUOUS
 10
-12.9382402164
 20
-1.9129497881
 11
-12.7611568492
 21
-1.8767795796
  0
LINE
  5
4D7
100
AcDbEntity
  8
0
100
AcDbLine
 62
7
  6
CONTINUOUS
 10
-3.1361568492
 20
0.7555214204
 11
2.8638431508
 21
0.7555214204
  0
LINE
  5
4D8
100
AcDbEntity
  8
ASSI
100
AcDbLine
 62
7
  6
CONTINUOUS
 10
-3.1361568492
 20
0.7555214204
 11
2.8638431508
 21
0.7555214204
  0
LINE
  5
4D9
100
AcDbEntity
  8
RACCORDO
100
AcDbLine
 62
7
  6
CONTINUOUS
 10
23.1884197759
 20
1.0342554552
 11
22.1925771856
 21
1.0342554552
  0
LINE
  5
4DA
100
AcDbEntity
  8
ASSI
100
AcDbLine
 62
7
  6
CONTINUOUS
 10
23.1884197759
 20
1.0342554552
 11
22.1925771856
 21
1.0342554552
  0
LINE
  5
4DB
100
AcDbEntity
  8
RACCORDO
100
AcDbLine
 62
7
  6
CONTINUOUS
 10
-22.464890884
 20
1.0342554552
 11
-23.4607334744
 21
1.0342554552
  0
LINE
  5
4DC
100
AcDbEntity
  8
ASSI
100
AcDbLine
 62
7
  6
CONTINUOUS
 10
-22.464890884
 20
1.0342554552
 11
-23.4607334744
 21
1.0342554552
  0
LINE
  5
4DD
100
AcDbEntity
  8
RACCORDO
100
AcDbLine
 62
7
  6
CONTINUOUS
 10
-23.8117197583
 20
1.0904315502
 11
-22.815876158
 21
1.0904315502
  0
LINE
  5
4DE
100
AcDbEntity
  8
ASSI
100
AcDbLine
 62
7
  6
CONTINUOUS
 10
-23.8117197583
 20
1.0904315502
 11
-22.815876158
 21
1.0904315502
  0
LINE
  5
4DF
100
AcDbEntity
  8
RACCORDO
100
AcDbLine
 62
7
  6
CONTINUOUS
 10
22.5435624595
 20
1.0904315502
 11
23.5394060599
 21
1.0904315502
  0
LINE
  5
4E0
100
AcDbEntity
  8
ASSI
100
AcDbLine
 62
7
  6
CONTINUOUS
 10
22.5435624595
 20
1.0904315502
 11
23.5394060599
 21
1.0904315502
  0
LINE
  5
4E1
100
AcDbEntity
  8
RACCORDO
100
AcDbLine
 62
7
  6
CONTINUOUS
 10
23.5394060599
 20
1.7206112905
 11
22.5435624595
 21
1.7206112905
  0
LINE
  5
4E2
100
AcDbEntity
  8
ASSI
100
AcDbLine
 62
7
  6
CONTINUOUS
 10
23.5394060599
 20
1.7206112905
 11
22.5435624595
 21
1.7206112905
  0
LINE
  5
4E3
100
AcDbEntity
  8
RACCORDO
100
AcDbLine
 62
7
  6
CONTINUOUS
 10
-22.815876158
 20
1.7206112905
 11
-23.8117197583
 21
1.7206112905
  0
LINE
  5
4E4
100
AcDbEntity
  8
ASSI
100
AcDbLine
 62
7
  6
CONTINUOUS
 10
-22.815876158
 20
1.7206112905
 11
-23.8117197583
 21
1.7206112905
  0
LINE
  5
4E5
100
AcDbEntity
  8
RACCORDO
100
AcDbLine
 62
7
  6
CONTINUOUS
 10
-23.460490338
 20
1.7770306942
 11
-22.4646475754
 21
1.7770306942
  0
LINE
  5
4E6
100
AcDbEntity
  8
ASSI
100
AcDbLine
 62
7
  6
CONTINUOUS
 10
-23.460490338
 20
1.7770306942
 11
-22.4646475754
 21
1.7770306942
  0
LINE
  5
4E7
100
AcDbEntity
  8
RACCORDO
100
AcDbLine
 62
7
  6
CONTINUOUS
 10
22.1923338769
 20
1.7770306942
 11
23.1881766395
 21
1.7770306942
  0
LINE
  5
4E8
100
AcDbEntity
  8
ASSI
100
AcDbLine
 62
7
  6
CONTINUOUS
 10
22.1923338769
 20
1.7770306942
 11
23.1881766395
 21
1.7770306942
  0
LINE
  5
4E9
100
AcDbEntity
  8
RACCORDO
100
AcDbLine
 62
253
  6
CONTINUOUS
 10
6.6586523297
 20
-6.33933345
 11
6.6287063399
 21
-6.3093874602
  0
LINE
  5
4EA
100
AcDbEntity
  8
ASSI
100
AcDbLine
 62
253
  6
CONTINUOUS
 10
6.6586523297
 20
-6.33933345
 11
6.6287063399
 21
-6.3093874602
  0
LINE
  5
4EB
100
AcDbEntity
  8
DRAFT
100
AcDbLine
 62
7
  6
CONTINUOUS
 10
2.3603521378
 20
7.1764674983
 11
2.3603521378
 21
2.3345753425
  0
LINE
  5
4EC
100
AcDbEntity
  8
DRAFT
100
AcDbLine
 62
7
  6
CONTINUOUS
 10
2.7638431508
 20
5.5597501712
 11
2.7638431508
 21
3.9512926695
  0
LINE
  5
4ED
100
AcDbEntity
  8
ASSI
100
AcDbLine
 62
7
  6
CONTINUOUS
 10
2.7638431508
 20
5.5597501712
 11
2.7638431508
 21
3.9512926695
  0
LINE
  5
4EE
100
AcDbEntity
  8
DRAFT
100
AcDbLine
 62
7
  6
CONTINUOUS
 10
2.8312982157
 20
7.1729764853
 11
2.8312982157
 21
5.5642489528
  0
LINE
  5
4EF
100
AcDbEntity
  8
DRAFT
100
AcDbLine
 62
7
  6
CONTINUOUS
 10
2.8312982157
 20
3.9467938879
 11
2.8312982157
 21
2.3380663554
  0
LINE
  5
4F0
100
AcDbEntity
  8
DRAFT
100
AcDbLine
 62
7
  6
CONTINUOUS
 10
2.8638431508
 20
0.7555214204
 11
2.8638431508
 21
3.9467938879
  0
LINE
  5
4F1
100
AcDbEntity
  8
ASSI
100
AcDbLine
 62
7
  6
CONTINUOUS
 10
2.8638431508
 20
0.7555214204
 11
2.8638431508
 21
3.9467938879
  0
LINE
  5
4F2
100
AcDbEntity
  8
DRAFT
100
AcDbLine
 62
7
  6
CONTINUOUS
 10
2.8638431508
 20
5.5642489528
 11
2.8638431508
 21
7.2555214204
  0
LINE
  5
4F3
100
AcDbEntity
  8
ASSI
100
AcDbLine
 62
7
  6
CONTINUOUS
 10
2.8638431508
 20
5.5642489528
 11
2.8638431508
 21
7.2555214204
  0
LINE
  5
4F4
100
AcDbEntity
  8
DRAFT
100
AcDbLine
 62
7
  6
CONTINUOUS
 10
3.0061081238
 20
5.5555214204
 11
3.0061081238
 21
3.9555214204
  0
LINE
  5
4F5
100
AcDbEntity
  8
ASSI
100
AcDbLine
 62
7
  6
CONTINUOUS
 10
3.0061081238
 20
5.5555214204
 11
3.0061081238
 21
3.9555214204
  0
LINE
  5
4F6
100
AcDbEntity
  8
RACCORDO
100
AcDbLine
 62
253
  6
CONTINUOUS
 10
3.4037808893
 20
3.9555214204
 11
3.4037808893
 21
5.5555214204
  0
LINE
  5
4F7
100
AcDbEntity
  8
ASSI
100
AcDbLine
 62
253
  6
CONTINUOUS
 10
3.4037808893
 20
3.9555214204
 11
3.4037808893
 21
5.5555214204
  0
LINE
  5
4F8
100
AcDbEntity
  8
DRAFT
100
AcDbLine
 62
7
  6
CONTINUOUS
 10
2.3603521378
 20
2.3345753425
 11
-2.6326658363
 21
2.3345753425
  0
LINE
  5
4F9
100
AcDbEntity
  8
DRAFT
100
AcDbLine
 62
7
  6
CONTINUOUS
 10
-3.1036119142
 20
2.3380663554
 11
-2.6361568492
 21
2.3380663554
  0
LINE
  5
4FA
100
AcDbEntity
  8
DRAFT
100
AcDbLine
 62
7
  6
CONTINUOUS
 10
2.8312982157
 20
2.3380663554
 11
2.3638431508
 21
2.3380663554
  0
LINE
  5
4FB
100
AcDbEntity
  8
RACCORDO
100
AcDbLine
 62
7
  6
CONTINUOUS
 10
-19.9080716653
 20
3.0336522957
 11
-19.6642420331
 21
3.0336522957
  0
LINE
  5
4FC
100
AcDbEntity
  8
ASSI
100
AcDbLine
 62
7
  6
CONTINUOUS
 10
-19.9080716653
 20
3.0336522957
 11
-19.6642420331
 21
3.0336522957
  0
LINE
  5
4FD
100
AcDbEntity
  8
RACCORDO
100
AcDbLine
 62
7
  6
CONTINUOUS
 10
19.3919283347
 20
3.0336522957
 11
19.6357579669
 21
3.0336522957
  0
LINE
  5
4FE
100
AcDbEntity
  8
ASSI
100
AcDbLine
 62
7
  6
CONTINUOUS
 10
19.3919283347
 20
3.0336522957
 11
19.6357579669
 21
3.0336522957
  0
LINE
  5
4FF
100
AcDbEntity
  8
RACCORDO
100
AcDbLine
 62
253
  6
CONTINUOUS
 10
-19.8773226918
 20
3.0644012693
 11
-19.6949910067
 21
3.0644012693
  0
LINE
  5
500
100
AcDbEntity
  8
ASSI
100
AcDbLine
 62
253
  6
CONTINUOUS
 10
-19.8773226918
 20
3.0644012693
 11
-19.6949910067
 21
3.0644012693
  0
LINE
  5
501
100
AcDbEntity
  8
RACCORDO
100
AcDbLine
 62
253
  6
CONTINUOUS
 10
19.4226773082
 20
3.0644012693
 11
19.6050089933
 21
3.0644012693
  0
LINE
  5
502
100
AcDbEntity
  8
ASSI
100
AcDbLine
 62
253
  6
CONTINUOUS
 10
19.4226773082
 20
3.0644012693
 11
19.6050089933
 21
3.0644012693
  0
LINE
  5
503
100
AcDbEntity
  8
RACCORDO
100
AcDbLine
 62
253
  6
CONTINUOUS
 10
-20.1738469139
 20
3.5643251169
 11
-19.3984667846
 21
3.5643251169
  0
LINE
  5
504
100
AcDbEntity
  8
ASSI
100
AcDbLine
 62
253
  6
CONTINUOUS
 10
-20.1738469139
 20
3.5643251169
 11
-19.3984667846
 21
3.5643251169
  0
LINE
  5
505
100
AcDbEntity
  8
RACCORDO
100
AcDbLine
 62
253
  6
CONTINUOUS
 10
19.9015332154
 20
3.5643251169
 11
19.1261530861
 21
3.5643251169
  0
LINE
  5
506
100
AcDbEntity
  8
ASSI
100
AcDbLine
 62
253
  6
CONTINUOUS
 10
19.9015332154
 20
3.5643251169
 11
19.1261530861
 21
3.5643251169
  0
LINE
  5
507
100
AcDbEntity
  8
RACCORDO
100
AcDbLine
 62
253
  6
CONTINUOUS
 10
3.6856886755
 20
3.952075896
 11
3.6856886755
 21
5.5589669447
  0
LINE
  5
508
100
AcDbEntity
  8
ASSI
100
AcDbLine
 62
253
  6
CONTINUOUS
 10
3.6856886755
 20
3.952075896
 11
3.6856886755
 21
5.5589669447
  0
LINE
  5
509
100
AcDbEntity
  8
RACCORDO
100
AcDbLine
 62
253
  6
CONTINUOUS
 10
4.2872190129
 20
3.9299443785
 11
4.2937419177
 21
5.581411432
  0
LINE
  5
50A
100
AcDbEntity
  8
ASSI
100
AcDbLine
 62
253
  6
CONTINUOUS
 10
4.2872190129
 20
3.9299443785
 11
4.2937419177
 21
5.581411432
  0
LINE
  5
50B
100
AcDbEntity
  8
DRAFT
100
AcDbLine
 62
7
  6
CONTINUOUS
 10
21.1763091413
 20
8.0078866152
 11
20.9138431508
 21
7.9555214204
  0
LINE
  5
50C
100
AcDbEntity
  8
ASSI
100
AcDbLine
 62
7
  6
CONTINUOUS
 10
21.1763091413
 20
8.0078866152
 11
20.9138431508
 21
7.9555214204
  0
LINE
  5
50D
100
AcDbEntity
  8
DRAFT
100
AcDbLine
 62
7
  6
CONTINUOUS
 10
21.1763091413
 20
9.1485393944
 11
20.9138431508
 21
9.0961741996
  0
LINE
  5
50E
100
AcDbEntity
  8
ASSI
100
AcDbLine
 62
7
  6
CONTINUOUS
 10
21.1763091413
 20
9.1485393944
 11
20.9138431508
 21
9.0961741996
  0
LINE
  5
50F
100
AcDbEntity
  8
RACCORDO
100
AcDbLine
 62
7
  6
CONTINUOUS
 10
-3.958002374
 20
3.952075896
 11
-4.3715929732
 21
3.9322411676
  0
LINE
  5
510
100
AcDbEntity
  8
ASSI
100
AcDbLine
 62
7
  6
CONTINUOUS
 10
-3.958002374
 20
3.952075896
 11
-4.3715929732
 21
3.9322411676
  0
LINE
  5
511
100
AcDbEntity
  8
RACCORDO
100
AcDbLine
 62
7
  6
CONTINUOUS
 10
4.1057901898
 20
5.5791139197
 11
3.6856886755
 21
5.5589669447
  0
LINE
  5
512
100
AcDbEntity
  8
ASSI
100
AcDbLine
 62
7
  6
CONTINUOUS
 10
4.1057901898
 20
5.5791139197
 11
3.6856886755
 21
5.5589669447
  0
LINE
  5
513
100
AcDbEntity
  8
DRAFT
100
AcDbLine
 62
7
  6
CONTINUOUS
 10
3.0061081238
 20
3.9555214204
 11
2.7638431508
 21
3.9512926695
  0
LINE
  5
514
100
AcDbEntity
  8
ASSI
100
AcDbLine
 62
7
  6
CONTINUOUS
 10
3.0061081238
 20
3.9555214204
 11
2.7638431508
 21
3.9512926695
  0
LINE
  5
515
100
AcDbEntity
  8
DRAFT
100
AcDbLine
 62
7
  6
CONTINUOUS
 10
-3.1361568492
 20
3.9467938879
 11
-3.0361568492
 21
3.9478016565
  0
LINE
  5
516
100
AcDbEntity
  8
ASSI
100
AcDbLine
 62
7
  6
CONTINUOUS
 10
-3.1361568492
 20
3.9467938879
 11
-3.1036119142
 21
3.9471218656
  0
LINE
  5
517
100
AcDbEntity
  8
RACCORDO
100
AcDbLine
 62
7
  6
CONTINUOUS
 10
4.2872190129
 20
3.9299443785
 11
2.8638431508
 21
3.9299443785
  0
LINE
  5
518
100
AcDbEntity
  8
ASSI
100
AcDbLine
 62
7
  6
CONTINUOUS
 10
4.2872190129
 20
3.9299443785
 11
2.8638431508
 21
3.9299443785
  0
LINE
  5
519
100
AcDbEntity
  8
RACCORDO
100
AcDbLine
 62
7
  6
CONTINUOUS
 10
-3.1361568492
 20
3.9299443785
 11
-4.5595327114
 21
3.9299443785
  0
LINE
  5
51A
100
AcDbEntity
  8
ASSI
100
AcDbLine
 62
7
  6
CONTINUOUS
 10
-3.1361568492
 20
3.9299443785
 11
-4.5595327114
 21
3.9299443785
  0
LINE
  5
51B
100
AcDbEntity
  8
RACCORDO
100
AcDbLine
 62
7
  6
CONTINUOUS
 10
3.4037808893
 20
3.9555214204
 11
3.0061081238
 21
3.9555214204
  0
LINE
  5
51C
100
AcDbEntity
  8
ASSI
100
AcDbLine
 62
7
  6
CONTINUOUS
 10
3.4037808893
 20
3.9555214204
 11
3.0061081238
 21
3.9555214204
  0
LINE
  5
51D
100
AcDbEntity
  8
RACCORDO
100
AcDbLine
 62
7
  6
CONTINUOUS
 10
-3.2784218223
 20
3.9555214204
 11
-3.6760945878
 21
3.9555214204
  0
LINE
  5
51E
100
AcDbEntity
  8
ASSI
100
AcDbLine
 62
7
  6
CONTINUOUS
 10
-3.2784218223
 20
3.9555214204
 11
-3.6760945878
 21
3.9555214204
  0
LINE
  5
51F
100
AcDbEntity
  8
RACCORDO
100
AcDbLine
 62
253
  6
CONTINUOUS
 10
19.1261530861
 20
4.9484146392
 11
19.9015332154
 21
4.9484146392
  0
LINE
  5
520
100
AcDbEntity
  8
ASSI
100
AcDbLine
 62
253
  6
CONTINUOUS
 10
19.1261530861
 20
4.9484146392
 11
19.9015332154
 21
4.9484146392
  0
LINE
  5
521
100
AcDbEntity
  8
RACCORDO
100
AcDbLine
 62
253
  6
CONTINUOUS
 10
-19.3984667846
 20
4.9484146392
 11
-20.1738469139
 21
4.9484146392
  0
LINE
  5
522
100
AcDbEntity
  8
ASSI
100
AcDbLine
 62
253
  6
CONTINUOUS
 10
-19.3984667846
 20
4.9484146392
 11
-20.1738469139
 21
4.9484146392
  0
LINE
  5
523
100
AcDbEntity
  8
RACCORDO
100
AcDbLine
 62
253
  6
CONTINUOUS
 10
19.6026002606
 20
5.3019027021
 11
19.425086041
 21
5.3019026943
  0
LINE
  5
524
100
AcDbEntity
  8
ASSI
100
AcDbLine
 62
253
  6
CONTINUOUS
 10
19.6026002606
 20
5.3019027021
 11
19.425086041
 21
5.3019026943
  0
LINE
  5
525
100
AcDbEntity
  8
RACCORDO
100
AcDbLine
 62
253
  6
CONTINUOUS
 10
-19.6973997394
 20
5.3019027021
 11
-19.874913959
 21
5.3019026943
  0
LINE
  5
526
100
AcDbEntity
  8
ASSI
100
AcDbLine
 62
253
  6
CONTINUOUS
 10
-19.6973997394
 20
5.3019027021
 11
-19.874913959
 21
5.3019026943
  0
LINE
  5
527
100
AcDbEntity
  8
DRAFT
100
AcDbLine
 62
7
  6
CONTINUOUS
 10
2.7638431508
 20
3.9478016565
 11
2.8638431508
 21
3.9467938879
  0
LINE
  5
528
100
AcDbEntity
  8
ASSI
100
AcDbLine
 62
7
  6
CONTINUOUS
 10
2.8312982157
 20
3.9471218656
 11
2.8638431508
 21
3.9467938879
  0
LINE
  5
529
100
AcDbEntity
  8
DRAFT
100
AcDbLine
 62
7
  6
CONTINUOUS
 10
-3.0361568492
 20
3.9512926695
 11
-3.2784218223
 21
3.9555214204
  0
LINE
  5
52A
100
AcDbEntity
  8
ASSI
100
AcDbLine
 62
7
  6
CONTINUOUS
 10
-3.0361568492
 20
3.9512926695
 11
-3.2784218223
 21
3.9555214204
  0
LINE
  5
52B
100
AcDbEntity
  8
RACCORDO
100
AcDbLine
 62
7
  6
CONTINUOUS
 10
4.0992792747
 20
3.9322411676
 11
3.6856886755
 21
3.952075896
  0
LINE
  5
52C
100
AcDbEntity
  8
ASSI
100
AcDbLine
 62
7
  6
CONTINUOUS
 10
4.0992792747
 20
3.9322411676
 11
3.6856886755
 21
3.952075896
  0
LINE
  5
52D
100
AcDbEntity
  8
RACCORDO
100
AcDbLine
 62
7
  6
CONTINUOUS
 10
-3.958002374
 20
5.5589669447
 11
-4.3781038883
 21
5.5791139197
  0
LINE
  5
52E
100
AcDbEntity
  8
ASSI
100
AcDbLine
 62
7
  6
CONTINUOUS
 10
-3.958002374
 20
5.5589669447
 11
-4.3781038883
 21
5.5791139197
  0
LINE
  5
52F
100
AcDbEntity
  8
DRAFT
100
AcDbLine
 62
7
  6
CONTINUOUS
 10
-21.4486228398
 20
8.0078866152
 11
-21.1861568492
 21
7.9555214204
  0
LINE
  5
530
100
AcDbEntity
  8
ASSI
100
AcDbLine
 62
7
  6
CONTINUOUS
 10
-21.4486228398
 20
8.0078866152
 11
-21.1861568492
 21
7.9555214204
  0
LINE
  5
531
100
AcDbEntity
  8
DRAFT
100
AcDbLine
 62
7
  6
CONTINUOUS
 10
-21.4486228398
 20
9.1485393944
 11
-21.1861568492
 21
9.0961741996
  0
LINE
  5
532
100
AcDbEntity
  8
ASSI
100
AcDbLine
 62
7
  6
CONTINUOUS
 10
-21.4486228398
 20
9.1485393944
 11
-21.1861568492
 21
9.0961741996
  0
LINE
  5
533
100
AcDbEntity
  8
RACCORDO
100
AcDbLine
 62
7
  6
CONTINUOUS
 10
6.3337930569
 20
-7.6677348106
 11
6.3586980211
 21
-7.9193189308
  0
LINE
  5
534
100
AcDbEntity
  8
ASSI
100
AcDbLine
 62
7
  6
CONTINUOUS
 10
6.3337930569
 20
-7.6677348106
 11
6.3586980211
 21
-7.9193189308
  0
LINE
  5
535
100
AcDbEntity
  8
RACCORDO
100
AcDbLine
 62
253
  6
CONTINUOUS
 10
6.3586980211
 20
-7.9193189308
 11
6.3586980211
 21
-6.6392877586
  0
LINE
  5
536
100
AcDbEntity
  8
ASSI
100
AcDbLine
 62
253
  6
CONTINUOUS
 10
6.3586980211
 20
-7.9193189308
 11
6.3586980211
 21
-6.6392877586
  0
LINE
  5
537
100
AcDbEntity
  8
RACCORDO
100
AcDbLine
 62
253
  6
CONTINUOUS
 10
6.6586523297
 20
-7.9712938259
 11
6.6586523297
 21
-6.33933345
  0
LINE
  5
538
100
AcDbEntity
  8
ASSI
100
AcDbLine
 62
253
  6
CONTINUOUS
 10
6.6586523297
 20
-7.9712938259
 11
6.6586523297
 21
-6.33933345
  0
LINE
  5
539
100
AcDbEntity
  8
RACCORDO
100
AcDbLine
 62
253
  6
CONTINUOUS
 10
6.8690339718
 20
-6.33933345
 11
6.8690339718
 21
-7.9712938259
  0
LINE
  5
53A
100
AcDbEntity
  8
ASSI
100
AcDbLine
 62
253
  6
CONTINUOUS
 10
6.8690339718
 20
-6.33933345
 11
6.8690339718
 21
-7.9712938259
  0
LINE
  5
53B
100
AcDbEntity
  8
DRAFT
100
AcDbLine
 62
7
  6
CONTINUOUS
 10
-3.0361568492
 20
5.5597501712
 11
-3.2784218223
 21
5.5555214204
  0
LINE
  5
53C
100
AcDbEntity
  8
ASSI
100
AcDbLine
 62
7
  6
CONTINUOUS
 10
-3.0361568492
 20
5.5597501712
 11
-3.2784218223
 21
5.5555214204
  0
LINE
  5
53D
100
AcDbEntity
  8
DRAFT
100
AcDbLine
 62
7
  6
CONTINUOUS
 10
2.7638431508
 20
5.5632411842
 11
2.8638431508
 21
5.5642489528
  0
LINE
  5
53E
100
AcDbEntity
  8
ASSI
100
AcDbLine
 62
7
  6
CONTINUOUS
 10
2.8312982157
 20
5.5639209752
 11
2.8638431508
 21
5.5642489528
  0
LINE
  5
53F
100
AcDbEntity
  8
RACCORDO
100
AcDbLine
 62
7
  6
CONTINUOUS
 10
3.4037808893
 20
5.5555214204
 11
3.0061081238
 21
5.5555214204
  0
LINE
  5
540
100
AcDbEntity
  8
ASSI
100
AcDbLine
 62
7
  6
CONTINUOUS
 10
3.4037808893
 20
5.5555214204
 11
3.0061081238
 21
5.5555214204
  0
LINE
  5
541
100
AcDbEntity
  8
RACCORDO
100
AcDbLine
 62
7
  6
CONTINUOUS
 10
-3.2784218223
 20
5.5555214204
 11
-3.6760945878
 21
5.5555214204
  0
LINE
  5
542
100
AcDbEntity
  8
ASSI
100
AcDbLine
 62
7
  6
CONTINUOUS
 10
-3.2784218223
 20
5.5555214204
 11
-3.6760945878
 21
5.5555214204
  0
LINE
  5
543
100
AcDbEntity
  8
RACCORDO
100
AcDbLine
 62
7
  6
CONTINUOUS
 10
-4.5660556162
 20
5.581411432
 11
-3.1361568492
 21
5.581411432
  0
LINE
  5
544
100
AcDbEntity
  8
ASSI
100
AcDbLine
 62
7
  6
CONTINUOUS
 10
-4.5660556162
 20
5.581411432
 11
-3.1361568492
 21
5.581411432
  0
LINE
  5
545
100
AcDbEntity
  8
RACCORDO
100
AcDbLine
 62
7
  6
CONTINUOUS
 10
2.8638431508
 20
5.581411432
 11
4.2937419177
 21
5.581411432
  0
LINE
  5
546
100
AcDbEntity
  8
ASSI
100
AcDbLine
 62
7
  6
CONTINUOUS
 10
2.8638431508
 20
5.581411432
 11
4.2937419177
 21
5.581411432
  0
LINE
  5
547
100
AcDbEntity
  8
RACCORDO
100
AcDbLine
 62
253
  6
CONTINUOUS
 10
19.412742112
 20
6.0090859134
 11
19.6149441991
 21
6.0090864633
  0
LINE
  5
548
100
AcDbEntity
  8
ASSI
100
AcDbLine
 62
253
  6
CONTINUOUS
 10
19.412742112
 20
6.0090859134
 11
19.6149441991
 21
6.0090864633
  0
LINE
  5
549
100
AcDbEntity
  8
RACCORDO
100
AcDbLine
 62
253
  6
CONTINUOUS
 10
-19.887257888
 20
6.0090859134
 11
-19.6850558009
 21
6.0090864633
  0
LINE
  5
54A
100
AcDbEntity
  8
ASSI
100
AcDbLine
 62
253
  6
CONTINUOUS
 10
-19.887257888
 20
6.0090859134
 11
-19.6850558009
 21
6.0090864633
  0
LINE
  5
54B
100
AcDbEntity
  8
RACCORDO
100
AcDbLine
 62
253
  6
CONTINUOUS
 10
-19.3810117196
 20
6.3626282016
 11
-20.1913019789
 21
6.3626282016
  0
LINE
  5
54C
100
AcDbEntity
  8
ASSI
100
AcDbLine
 62
253
  6
CONTINUOUS
 10
-19.3810117196
 20
6.3626282016
 11
-20.1913019789
 21
6.3626282016
  0
LINE
  5
54D
100
AcDbEntity
  8
RACCORDO
100
AcDbLine
 62
253
  6
CONTINUOUS
 10
19.1086980211
 20
6.3626282016
 11
19.9189882804
 21
6.3626282016
  0
LINE
  5
54E
100
AcDbEntity
  8
ASSI
100
AcDbLine
 62
253
  6
CONTINUOUS
 10
19.1086980211
 20
6.3626282016
 11
19.9189882804
 21
6.3626282016
  0
LINE
  5
54F
100
AcDbEntity
  8
DRAFT
100
AcDbLine
 62
7
  6
CONTINUOUS
 10
-3.1036119142
 20
7.1729764853
 11
-2.6361568492
 21
7.1729764853
  0
LINE
  5
550
100
AcDbEntity
  8
DRAFT
100
AcDbLine
 62
7
  6
CONTINUOUS
 10
2.8312982157
 20
7.1729764853
 11
2.3638431508
 21
7.1729764853
  0
LINE
  5
551
100
AcDbEntity
  8
DRAFT
100
AcDbLine
 62
7
  6
CONTINUOUS
 10
-2.6326658363
 20
7.1764674983
 11
2.3603521378
 21
7.1764674983
  0
LINE
  5
552
100
AcDbEntity
  8
DRAFT
100
AcDbLine
 62
7
  6
CONTINUOUS
 10
-3.1361568492
 20
5.5642489528
 11
-3.0361568492
 21
5.5632411842
  0
LINE
  5
553
100
AcDbEntity
  8
ASSI
100
AcDbLine
 62
7
  6
CONTINUOUS
 10
-3.1361568492
 20
5.5642489528
 11
-3.1036119142
 21
5.5639209752
  0
LINE
  5
554
100
AcDbEntity
  8
DRAFT
100
AcDbLine
 62
7
  6
CONTINUOUS
 10
3.0061081238
 20
5.5555214204
 11
2.7638431508
 21
5.5597501712
  0
LINE
  5
555
100
AcDbEntity
  8
ASSI
100
AcDbLine
 62
7
  6
CONTINUOUS
 10
3.0061081238
 20
5.5555214204
 11
2.7638431508
 21
5.5597501712
  0
LINE
  5
556
100
AcDbEntity
  8
0
100
AcDbLine
 62
7
  6
CONTINUOUS
 10
7.5615671508
 20
-3.5767795796
 11
7.0226771508
 21
-1.8769165796
  0
LINE
  5
557
100
AcDbEntity
  8
ASSI
100
AcDbLine
 62
7
  6
CONTINUOUS
 10
7.5615671508
 20
-3.5767795796
 11
7.0226771508
 21
-1.8769165796
  0
LINE
  5
558
100
AcDbEntity
  8
0
100
AcDbLine
 62
7
  6
CONTINUOUS
 10
7.7321551508
 20
-3.0469845796
 11
7.4081301508
 21
-1.8769165796
  0
LINE
  5
559
100
AcDbEntity
  8
ASSI
100
AcDbLine
 62
7
  6
CONTINUOUS
 10
7.7321551508
 20
-3.0469845796
 11
7.4081301508
 21
-1.8769165796
  0
LINE
  5
55A
100
AcDbEntity
  8
RACCORDO
100
AcDbLine
 62
253
  6
CONTINUOUS
 10
7.1689882804
 20
-6.6392877586
 11
7.1689882804
 21
-7.9193189308
  0
LINE
  5
55B
100
AcDbEntity
  8
ASSI
100
AcDbLine
 62
253
  6
CONTINUOUS
 10
7.1689882804
 20
-6.6392877586
 11
7.1689882804
 21
-7.9193189308
  0
LINE
  5
55C
100
AcDbEntity
  8
0
100
AcDbLine
 62
7
  6
CONTINUOUS
 10
8.5523411508
 20
-3.5767795796
 11
8.5523411508
 21
-1.8768145796
  0
LINE
  5
55D
100
AcDbEntity
  8
ASSI
100
AcDbLine
 62
7
  6
CONTINUOUS
 10
8.5523411508
 20
-3.5767795796
 11
8.5523411508
 21
-1.8768145796
  0
LINE
  5
55E
100
AcDbEntity
  8
0
100
AcDbLine
 62
7
  6
CONTINUOUS
 10
8.9071691508
 20
-3.5767795796
 11
8.9071691508
 21
-1.8768145796
  0
LINE
  5
55F
100
AcDbEntity
  8
ASSI
100
AcDbLine
 62
7
  6
CONTINUOUS
 10
8.9071691508
 20
-3.5767795796
 11
8.9071691508
 21
-1.8768145796
  0
LINE
  5
560
100
AcDbEntity
  8
RACCORDO
100
AcDbLine
 62
7
  6
CONTINUOUS
 10
7.1980484053
 20
-7.6257603502
 11
7.1689882804
 21
-7.9193189308
  0
LINE
  5
561
100
AcDbEntity
  8
ASSI
100
AcDbLine
 62
7
  6
CONTINUOUS
 10
7.1980484053
 20
-7.6257603502
 11
7.1689882804
 21
-7.9193189308
  0
LINE
  5
562
100
AcDbEntity
  8
0
100
AcDbLine
 62
7
  6
CONTINUOUS
 10
7.7321551508
 20
-3.0469845796
 11
8.0660771508
 21
-1.8769165796
  0
LINE
  5
563
100
AcDbEntity
  8
ASSI
100
AcDbLine
 62
7
  6
CONTINUOUS
 10
7.7321551508
 20
-3.0469845796
 11
8.0660771508
 21
-1.8769165796
  0
LINE
  5
564
100
AcDbEntity
  8
0
100
AcDbLine
 62
7
  6
CONTINUOUS
 10
7.8742591508
 20
-3.5767795796
 11
8.4206631508
 21
-1.8769165796
  0
LINE
  5
565
100
AcDbEntity
  8
ASSI
100
AcDbLine
 62
7
  6
CONTINUOUS
 10
7.8742591508
 20
-3.5767795796
 11
8.4206631508
 21
-1.8769165796
  0
LINE
  5
566
100
AcDbEntity
  8
RACCORDO
100
AcDbLine
 62
7
  6
CONTINUOUS
 10
19.1086980211
 20
7.9503762908
 11
19.0911924348
 21
7.9328707044
  0
LINE
  5
567
100
AcDbEntity
  8
ASSI
100
AcDbLine
 62
7
  6
CONTINUOUS
 10
19.1086980211
 20
7.9503762908
 11
19.0911924348
 21
7.9328707044
  0
LINE
  5
568
100
AcDbEntity
  8
0
100
AcDbLine
 62
7
  6
CONTINUOUS
 10
-3.1361568492
 20
7.2555214204
 11
2.8638431508
 21
7.2555214204
  0
LINE
  5
569
100
AcDbEntity
  8
ASSI
100
AcDbLine
 62
7
  6
CONTINUOUS
 10
-3.1361568492
 20
7.2555214204
 11
2.8638431508
 21
7.2555214204
  0
LINE
  5
56A
100
AcDbEntity
  8
DRAFT
100
AcDbLine
 62
7
  6
CONTINUOUS
 10
-24.9361568492
 20
7.8961741996
 11
-23.8361568492
 21
7.8961741996
  0
LINE
  5
56B
100
AcDbEntity
  8
ASSI
100
AcDbLine
 62
7
  6
CONTINUOUS
 10
-24.9361568492
 20
7.8961741996
 11
-23.8361568492
 21
7.8961741996
  0
LINE
  5
56C
100
AcDbEntity
  8
DRAFT
100
AcDbLine
 62
7
  6
CONTINUOUS
 10
23.5638431508
 20
7.8961741996
 11
24.6638431508
 21
7.8961741996
  0
LINE
  5
56D
100
AcDbEntity
  8
ASSI
100
AcDbLine
 62
7
  6
CONTINUOUS
 10
23.5638431508
 20
7.8961741996
 11
24.6638431508
 21
7.8961741996
  0
LINE
  5
56E
100
AcDbEntity
  8
RACCORDO
100
AcDbLine
 62
253
  6
CONTINUOUS
 10
-24.9343199529
 20
7.898011096
 11
-23.8343199529
 21
7.898011096
  0
LINE
  5
56F
100
AcDbEntity
  8
ASSI
100
AcDbLine
 62
253
  6
CONTINUOUS
 10
-24.9343199529
 20
7.898011096
 11
-23.8343199529
 21
7.898011096
  0
LINE
  5
570
100
AcDbEntity
  8
RACCORDO
100
AcDbLine
 62
253
  6
CONTINUOUS
 10
23.5620062544
 20
7.898011096
 11
24.6620062544
 21
7.898011096
  0
LINE
  5
571
100
AcDbEntity
  8
ASSI
100
AcDbLine
 62
253
  6
CONTINUOUS
 10
23.5620062544
 20
7.898011096
 11
24.6620062544
 21
7.898011096
  0
LINE
  5
572
100
AcDbEntity
  8
RACCORDO
100
AcDbLine
 62
7
  6
CONTINUOUS
 10
-23.4593497041
 20
7.9328707044
 11
-20.2088075652
 21
7.9328707044
  0
LINE
  5
573
100
AcDbEntity
  8
ASSI
100
AcDbLine
 62
7
  6
CONTINUOUS
 10
-23.4593497041
 20
7.9328707044
 11
-20.2088075652
 21
7.9328707044
  0
LINE
  5
574
100
AcDbEntity
  8
DRAFT
100
AcDbLine
 62
7
  6
CONTINUOUS
 10
-19.3635061333
 20
7.9328707044
 11
19.0911924348
 21
7.9328707044
  0
LINE
  5
575
100
AcDbEntity
  8
ASSI
100
AcDbLine
 62
7
  6
CONTINUOUS
 10
-19.3635061333
 20
7.9328707044
 11
19.0911924348
 21
7.9328707044
  0
LINE
  5
576
100
AcDbEntity
  8
RACCORDO
100
AcDbLine
 62
7
  6
CONTINUOUS
 10
19.9364938667
 20
7.9328707044
 11
23.1870360056
 21
7.9328707044
  0
LINE
  5
577
100
AcDbEntity
  8
ASSI
100
AcDbLine
 62
7
  6
CONTINUOUS
 10
19.9364938667
 20
7.9328707044
 11
23.1870360056
 21
7.9328707044
  0
LINE
  5
578
100
AcDbEntity
  8
RACCORDO
100
AcDbLine
 62
7
  6
CONTINUOUS
 10
-21.1861568492
 20
7.9555214204
 11
-19.8913476703
 21
7.9555214204
  0
LINE
  5
579
100
AcDbEntity
  8
ASSI
100
AcDbLine
 62
7
  6
CONTINUOUS
 10
-21.1861568492
 20
7.9555214204
 11
-19.8913476703
 21
7.9555214204
  0
LINE
  5
57A
100
AcDbEntity
  8
RACCORDO
100
AcDbLine
 62
7
  6
CONTINUOUS
 10
-19.6809660282
 20
7.9555214204
 11
19.4086523297
 21
7.9555214204
  0
LINE
  5
57B
100
AcDbEntity
  8
ASSI
100
AcDbLine
 62
7
  6
CONTINUOUS
 10
-19.6809660282
 20
7.9555214204
 11
19.4086523297
 21
7.9555214204
  0
LINE
  5
57C
100
AcDbEntity
  8
RACCORDO
100
AcDbLine
 62
7
  6
CONTINUOUS
 10
19.6190339718
 20
7.9555214204
 11
20.9138431508
 21
7.9555214204
  0
LINE
  5
57D
100
AcDbEntity
  8
ASSI
100
AcDbLine
 62
7
  6
CONTINUOUS
 10
19.6190339718
 20
7.9555214204
 11
20.9138431508
 21
7.9555214204
  0
LINE
  5
57E
100
AcDbEntity
  8
DRAFT
100
AcDbLine
 62
7
  6
CONTINUOUS
 10
-23.8291748233
 20
8.0078866152
 11
-21.4486228398
 21
8.0078866152
  0
LINE
  5
57F
100
AcDbEntity
  8
ASSI
100
AcDbLine
 62
7
  6
CONTINUOUS
 10
-23.8291748233
 20
8.0078866152
 11
-21.4486228398
 21
8.0078866152
  0
LINE
  5
580
100
AcDbEntity
  8
DRAFT
100
AcDbLine
 62
7
  6
CONTINUOUS
 10
21.1763091413
 20
8.0078866152
 11
23.5568611248
 21
8.0078866152
  0
LINE
  5
581
100
AcDbEntity
  8
ASSI
100
AcDbLine
 62
7
  6
CONTINUOUS
 10
21.1763091413
 20
8.0078866152
 11
23.5568611248
 21
8.0078866152
  0
LINE
  5
582
100
AcDbEntity
  8
RACCORDO
100
AcDbLine
 62
253
  6
CONTINUOUS
 10
-24.9291748233
 20
8.1979654045
 11
-23.8291748233
 21
8.1979654045
  0
LINE
  5
583
100
AcDbEntity
  8
ASSI
100
AcDbLine
 62
253
  6
CONTINUOUS
 10
-24.9291748233
 20
8.1979654045
 11
-23.8291748233
 21
8.1979654045
  0
LINE
  5
584
100
AcDbEntity
  8
RACCORDO
100
AcDbLine
 62
253
  6
CONTINUOUS
 10
23.5568611248
 20
8.1979654045
 11
24.6568611248
 21
8.1979654045
  0
LINE
  5
585
100
AcDbEntity
  8
ASSI
100
AcDbLine
 62
253
  6
CONTINUOUS
 10
23.5568611248
 20
8.1979654045
 11
24.6568611248
 21
8.1979654045
  0
LINE
  5
586
100
AcDbEntity
  8
RACCORDO
100
AcDbLine
 62
253
  6
CONTINUOUS
 10
17.5586980211
 20
-6.6392877586
 11
17.5289477232
 21
-6.6095374607
  0
LINE
  5
587
100
AcDbEntity
  8
ASSI
100
AcDbLine
 62
253
  6
CONTINUOUS
 10
17.5586980211
 20
-6.6392877586
 11
17.5289477232
 21
-6.6095374607
  0
LINE
  5
588
100
AcDbEntity
  8
RACCORDO
100
AcDbLine
 62
253
  6
CONTINUOUS
 10
17.8586523297
 20
-6.33933345
 11
17.8287063399
 21
-6.3093874602
  0
LINE
  5
589
100
AcDbEntity
  8
ASSI
100
AcDbLine
 62
253
  6
CONTINUOUS
 10
17.8586523297
 20
-6.33933345
 11
17.8287063399
 21
-6.3093874602
  0
LINE
  5
58A
100
AcDbEntity
  8
0
100
AcDbLine
 62
7
  6
CONTINUOUS
 10
9.9304671508
 20
-3.5767795796
 11
9.5142111508
 21
-2.4668005796
  0
LINE
  5
58B
100
AcDbEntity
  8
ASSI
100
AcDbLine
 62
7
  6
CONTINUOUS
 10
9.9304671508
 20
-3.5767795796
 11
9.5142111508
 21
-2.4668005796
  0
LINE
  5
58C
100
AcDbEntity
  8
0
100
AcDbLine
 62
7
  6
CONTINUOUS
 10
9.9572871508
 20
-2.8206855796
 11
9.6062061508
 21
-1.8769165796
  0
LINE
  5
58D
100
AcDbEntity
  8
ASSI
100
AcDbLine
 62
7
  6
CONTINUOUS
 10
9.9572871508
 20
-2.8206855796
 11
9.6062061508
 21
-1.8769165796
  0
LINE
  5
58E
100
AcDbEntity
  8
0
100
AcDbLine
 62
7
  6
CONTINUOUS
 10
10.8221391508
 20
-3.5767795796
 11
10.6631821508
 21
-1.8769165796
  0
LINE
  5
58F
100
AcDbEntity
  8
ASSI
100
AcDbLine
 62
7
  6
CONTINUOUS
 10
10.8221391508
 20
-3.5767795796
 11
10.6631821508
 21
-1.8769165796
  0
LINE
  5
590
100
AcDbEntity
  8
0
100
AcDbLine
 62
7
  6
CONTINUOUS
 10
10.4750231508
 20
-3.5767795796
 11
10.4021221508
 21
-2.4714275796
  0
LINE
  5
591
100
AcDbEntity
  8
ASSI
100
AcDbLine
 62
7
  6
CONTINUOUS
 10
10.4750231508
 20
-3.5767795796
 11
10.4021221508
 21
-2.4714275796
  0
LINE
  5
592
100
AcDbEntity
  8
0
100
AcDbLine
 62
7
  6
CONTINUOUS
 10
9.4376391508
 20
-3.5767795796
 11
9.5142111508
 21
-2.4668005796
  0
LINE
  5
593
100
AcDbEntity
  8
ASSI
100
AcDbLine
 62
7
  6
CONTINUOUS
 10
9.4376391508
 20
-3.5767795796
 11
9.5142111508
 21
-2.4668005796
  0
LINE
  5
594
100
AcDbEntity
  8
0
100
AcDbLine
 62
7
  6
CONTINUOUS
 10
9.0981841508
 20
-3.5767795796
 11
9.2516711508
 21
-1.8769165796
  0
LINE
  5
595
100
AcDbEntity
  8
ASSI
100
AcDbLine
 62
7
  6
CONTINUOUS
 10
9.0981841508
 20
-3.5767795796
 11
9.2516711508
 21
-1.8769165796
  0
LINE
  5
596
100
AcDbEntity
  8
0
100
AcDbLine
 62
7
  6
CONTINUOUS
 10
9.9572871508
 20
-2.8206855796
 11
10.3121151508
 21
-1.8769165796
  0
LINE
  5
597
100
AcDbEntity
  8
ASSI
100
AcDbLine
 62
7
  6
CONTINUOUS
 10
9.9572871508
 20
-2.8206855796
 11
10.3121151508
 21
-1.8769165796
  0
LINE
  5
598
100
AcDbEntity
  8
0
100
AcDbLine
 62
7
  6
CONTINUOUS
 10
9.9802311508
 20
-3.5767795796
 11
10.4021221508
 21
-2.4714275796
  0
LINE
  5
599
100
AcDbEntity
  8
ASSI
100
AcDbLine
 62
7
  6
CONTINUOUS
 10
9.9802311508
 20
-3.5767795796
 11
10.4021221508
 21
-2.4714275796
  0
LINE
  5
59A
100
AcDbEntity
  8
RACCORDO
100
AcDbLine
 62
253
  6
CONTINUOUS
 10
6.8989799616
 20
-6.3093874602
 11
6.8690339718
 21
-6.33933345
  0
LINE
  5
59B
100
AcDbEntity
  8
ASSI
100
AcDbLine
 62
253
  6
CONTINUOUS
 10
6.8989799616
 20
-6.3093874602
 11
6.8690339718
 21
-6.33933345
  0
LINE
  5
59C
100
AcDbEntity
  8
RACCORDO
100
AcDbLine
 62
253
  6
CONTINUOUS
 10
7.1987385783
 20
-6.6095374607
 11
7.1689882804
 21
-6.6392877586
  0
LINE
  5
59D
100
AcDbEntity
  8
ASSI
100
AcDbLine
 62
253
  6
CONTINUOUS
 10
7.1987385783
 20
-6.6095374607
 11
7.1689882804
 21
-6.6392877586
  0
LINE
  5
59E
100
AcDbEntity
  8
DRAFT
100
AcDbLine
 62
7
  6
CONTINUOUS
 10
-21.1861568492
 20
9.0961741996
 11
20.9138431508
 21
9.0961741996
  0
LINE
  5
59F
100
AcDbEntity
  8
ASSI
100
AcDbLine
 62
7
  6
CONTINUOUS
 10
-21.1861568492
 20
9.0961741996
 11
20.9138431508
 21
9.0961741996
  0
LINE
  5
5A0
100
AcDbEntity
  8
RACCORDO
100
AcDbLine
 62
7
  6
CONTINUOUS
 10
-24.6792128995
 20
9.1485393944
 11
-21.4486228398
 21
9.1485393944
  0
LINE
  5
5A1
100
AcDbEntity
  8
ASSI
100
AcDbLine
 62
7
  6
CONTINUOUS
 10
-24.6792128995
 20
9.1485393944
 11
-21.4486228398
 21
9.1485393944
  0
LINE
  5
5A2
100
AcDbEntity
  8
RACCORDO
100
AcDbLine
 62
7
  6
CONTINUOUS
 10
21.1763091413
 20
9.1485393944
 11
24.406899201
 21
9.1485393944
  0
LINE
  5
5A3
100
AcDbEntity
  8
ASSI
100
AcDbLine
 62
7
  6
CONTINUOUS
 10
21.1763091413
 20
9.1485393944
 11
24.406899201
 21
9.1485393944
  0
LINE
  5
5A4
100
AcDbEntity
  8
0
100
AcDbLine
 62
7
  6
CONTINUOUS
 10
11.9018811508
 20
-3.5767795796
 11
11.8099621508
 21
-3.2374265796
  0
LINE
  5
5A5
100
AcDbEntity
  8
ASSI
100
AcDbLine
 62
7
  6
CONTINUOUS
 10
11.9018811508
 20
-3.5767795796
 11
11.8099621508
 21
-3.2374265796
  0
LINE
  5
5A6
100
AcDbEntity
  8
0
100
AcDbLine
 62
7
  6
CONTINUOUS
 10
11.7390491508
 20
-2.9748365796
 11
11.5760011508
 21
-2.3439955796
  0
LINE
  5
5A7
100
AcDbEntity
  8
ASSI
100
AcDbLine
 62
7
  6
CONTINUOUS
 10
11.7390491508
 20
-2.9748365796
 11
11.5760011508
 21
-2.3439955796
  0
LINE
  5
5A8
100
AcDbEntity
  8
0
100
AcDbLine
 62
7
  6
CONTINUOUS
 10
12.3800498147
 20
-3.5767792663
 11
12.3800498147
 21
-1.8967764975
  0
LINE
  5
5A9
100
AcDbEntity
  8
ASSI
100
AcDbLine
 62
7
  6
CONTINUOUS
 10
12.3800498147
 20
-3.5767792663
 11
12.3800498147
 21
-1.8967764975
  0
LINE
  5
5AA
100
AcDbEntity
  8
0
100
AcDbLine
 62
7
  6
CONTINUOUS
 10
11.3993271508
 20
-2.9748365796
 11
11.5760011508
 21
-2.3439955796
  0
LINE
  5
5AB
100
AcDbEntity
  8
ASSI
100
AcDbLine
 62
7
  6
CONTINUOUS
 10
11.3993271508
 20
-2.9748365796
 11
11.5760011508
 21
-2.3439955796
  0
LINE
  5
5AC
100
AcDbEntity
  8
0
100
AcDbLine
 62
7
  6
CONTINUOUS
 10
11.2288341508
 20
-3.5767795796
 11
11.3267451508
 21
-3.2374265796
  0
LINE
  5
5AD
100
AcDbEntity
  8
ASSI
100
AcDbLine
 62
7
  6
CONTINUOUS
 10
11.2288341508
 20
-3.5767795796
 11
11.3267451508
 21
-3.2374265796
  0
LINE
  5
5AE
100
AcDbEntity
  8
0
100
AcDbLine
 62
7
  6
CONTINUOUS
 10
10.8778561508
 20
-3.5767795796
 11
11.4110411508
 21
-1.8769165796
  0
LINE
  5
5AF
100
AcDbEntity
  8
ASSI
100
AcDbLine
 62
7
  6
CONTINUOUS
 10
10.8778561508
 20
-3.5767795796
 11
11.4110411508
 21
-1.8769165796
  0
LINE
  5
5B0
100
AcDbEntity
  8
RACCORDO
100
AcDbLine
 62
7
  6
CONTINUOUS
 10
23.486990072
 20
7.9380155624
 11
23.5568611248
 21
8.0078866152
  0
LINE
  5
5B1
100
AcDbEntity
  8
ASSI
100
AcDbLine
 62
7
  6
CONTINUOUS
 10
23.486990072
 20
7.9380155624
 11
23.5568611248
 21
8.0078866152
  0
LINE
  5
5B2
100
AcDbEntity
  8
RACCORDO
100
AcDbLine
 62
253
  6
CONTINUOUS
 10
19.09189777
 20
3.3335303481
 11
19.1227229997
 21
3.3643555778
  0
LINE
  5
5B3
100
AcDbEntity
  8
ASSI
100
AcDbLine
 62
253
  6
CONTINUOUS
 10
19.09189777
 20
3.3335303481
 11
19.1227229997
 21
3.3643555778
  0
LINE
  5
5B4
100
AcDbEntity
  8
RACCORDO
100
AcDbLine
 62
253
  6
CONTINUOUS
 10
19.3919283347
 20
3.0336522957
 11
19.4226773082
 21
3.0644012693
  0
LINE
  5
5B5
100
AcDbEntity
  8
ASSI
100
AcDbLine
 62
253
  6
CONTINUOUS
 10
19.3919283347
 20
3.0336522957
 11
19.4226773082
 21
3.0644012693
  0
LINE
  5
5B6
100
AcDbEntity
  8
RACCORDO
100
AcDbLine
 62
7
  6
CONTINUOUS
 10
22.243608151
 20
-6.1742435799
 11
22.1960898244
 21
-6.1267252533
  0
LINE
  5
5B7
100
AcDbEntity
  8
ASSI
100
AcDbLine
 62
7
  6
CONTINUOUS
 10
22.243608151
 20
-6.1742435799
 11
22.1960898244
 21
-6.1267252533
  0
LINE
  5
5B8
100
AcDbEntity
  8
RACCORDO
100
AcDbLine
 62
7
  6
CONTINUOUS
 10
23.4918945263
 20
-6.1318771759
 11
23.5394060599
 21
-6.1793887095
  0
LINE
  5
5B9
100
AcDbEntity
  8
ASSI
100
AcDbLine
 62
7
  6
CONTINUOUS
 10
23.4918945263
 20
-6.1318771759
 11
23.5394060599
 21
-6.1793887095
  0
LINE
  5
5BA
100
AcDbEntity
  8
0
100
AcDbLine
 62
7
  6
CONTINUOUS
 10
12.2758551508
 20
-3.5767795796
 11
11.7542951508
 21
-1.8769165796
  0
LINE
  5
5BB
100
AcDbEntity
  8
ASSI
100
AcDbLine
 62
7
  6
CONTINUOUS
 10
12.2758551508
 20
-3.5767795796
 11
11.7542951508
 21
-1.8769165796
  0
LINE
  5
5BC
100
AcDbEntity
  8
0
100
AcDbLine
 62
7
  6
CONTINUOUS
 10
12.7216845824
 20
-2.6331504111
 11
12.7216845824
 21
-2.1665049286
  0
LINE
  5
5BD
100
AcDbEntity
  8
ASSI
100
AcDbLine
 62
7
  6
CONTINUOUS
 10
12.7216845824
 20
-2.6331504111
 11
12.7216845824
 21
-2.1665049286
  0
LINE
  5
5BE
100
AcDbEntity
  8
0
100
AcDbLine
 62
7
  6
CONTINUOUS
 10
12.7334501467
 20
-3.5767792663
 11
12.7334501467
 21
-2.9115468637
  0
LINE
  5
5BF
100
AcDbEntity
  8
ASSI
100
AcDbLine
 62
7
  6
CONTINUOUS
 10
12.7334501467
 20
-3.5767792663
 11
12.7334501467
 21
-2.9115468637
  0
LINE
  5
5C0
100
AcDbEntity
  8
0
100
AcDbLine
 62
7
  6
CONTINUOUS
 10
13.2922953335
 20
-2.783298388
 11
13.2922953335
 21
-2.7732536808
  0
LINE
  5
5C1
100
AcDbEntity
  8
ASSI
100
AcDbLine
 62
7
  6
CONTINUOUS
 10
13.2922953335
 20
-2.783298388
 11
13.2922953335
 21
-2.7732536808
  0
LINE
  5
5C2
100
AcDbEntity
  8
DRAFT
100
AcDbLine
 62
7
  6
CONTINUOUS
 10
23.5593355657
 20
-4.1899709946
 11
23.5463880858
 21
-4.1770235147
  0
LINE
  5
5C3
100
AcDbEntity
  8
ASSI
100
AcDbLine
 62
7
  6
CONTINUOUS
 10
23.5593355657
 20
-4.1899709946
 11
23.5463880858
 21
-4.1770235147
  0
LINE
  5
5C4
100
AcDbEntity
  8
DRAFT
100
AcDbLine
 62
7
  6
CONTINUOUS
 10
23.8593355649
 20
-4.1899709938
 11
23.7855428008
 21
-4.1161782297
  0
LINE
  5
5C5
100
AcDbEntity
  8
ASSI
100
AcDbLine
 62
7
  6
CONTINUOUS
 10
23.8593355649
 20
-4.1899709938
 11
23.7855428008
 21
-4.1161782297
  0
LINE
  5
5C6
100
AcDbEntity
  8
RACCORDO
100
AcDbLine
 62
7
  6
CONTINUOUS
 10
22.243608151
 20
1.0852864206
 11
22.1925771856
 21
1.0342554552
  0
LINE
  5
5C7
100
AcDbEntity
  8
ASSI
100
AcDbLine
 62
7
  6
CONTINUOUS
 10
22.243608151
 20
1.0852864206
 11
22.1925771856
 21
1.0342554552
  0
LINE
  5
5C8
100
AcDbEntity
  8
RACCORDO
100
AcDbLine
 62
7
  6
CONTINUOUS
 10
23.4883743407
 20
1.0393998311
 11
23.5394060599
 21
1.0904315502
  0
LINE
  5
5C9
100
AcDbEntity
  8
ASSI
100
AcDbLine
 62
7
  6
CONTINUOUS
 10
23.4883743407
 20
1.0393998311
 11
23.5394060599
 21
1.0904315502
  0
LINE
  5
5CA
100
AcDbEntity
  8
DRAFT
100
AcDbLine
 62
7
  6
CONTINUOUS
 10
22.7812982157
 20
-1.7119336446
 11
22.8433309088
 21
-1.7739663377
  0
LINE
  5
5CB
100
AcDbEntity
  8
ASSI
100
AcDbLine
 62
7
  6
CONTINUOUS
 10
22.7812982157
 20
-1.7119336446
 11
22.8433309088
 21
-1.7739663377
  0
LINE
  5
5CC
100
AcDbEntity
  8
RACCORDO
100
AcDbLine
 62
7
  6
CONTINUOUS
 10
23.489171922
 20
-1.0291545716
 11
23.5463880858
 21
-1.0863707355
  0
LINE
  5
5CD
100
AcDbEntity
  8
ASSI
100
AcDbLine
 62
7
  6
CONTINUOUS
 10
23.489171922
 20
-1.0291545716
 11
23.5463880858
 21
-1.0863707355
  0
LINE
  5
5CE
100
AcDbEntity
  8
RACCORDO
100
AcDbLine
 62
7
  6
CONTINUOUS
 10
17.5296378962
 20
-7.6257603502
 11
17.5586980211
 21
-7.9193189308
  0
LINE
  5
5CF
100
AcDbEntity
  8
ASSI
100
AcDbLine
 62
7
  6
CONTINUOUS
 10
17.5296378962
 20
-7.6257603502
 11
17.5586980211
 21
-7.9193189308
  0
LINE
  5
5D0
100
AcDbEntity
  8
RACCORDO
100
AcDbLine
 62
253
  6
CONTINUOUS
 10
17.5586980211
 20
-7.9193189308
 11
17.5586980211
 21
-6.6392877586
  0
LINE
  5
5D1
100
AcDbEntity
  8
ASSI
100
AcDbLine
 62
253
  6
CONTINUOUS
 10
17.5586980211
 20
-7.9193189308
 11
17.5586980211
 21
-6.6392877586
  0
LINE
  5
5D2
100
AcDbEntity
  8
RACCORDO
100
AcDbLine
 62
253
  6
CONTINUOUS
 10
18.0989799616
 20
-6.3093874602
 11
18.0690339718
 21
-6.33933345
  0
LINE
  5
5D3
100
AcDbEntity
  8
ASSI
100
AcDbLine
 62
253
  6
CONTINUOUS
 10
18.0989799616
 20
-6.3093874602
 11
18.0690339718
 21
-6.33933345
  0
LINE
  5
5D4
100
AcDbEntity
  8
RACCORDO
100
AcDbLine
 62
253
  6
CONTINUOUS
 10
18.3987385783
 20
-6.6095374607
 11
18.3689882804
 21
-6.6392877586
  0
LINE
  5
5D5
100
AcDbEntity
  8
ASSI
100
AcDbLine
 62
253
  6
CONTINUOUS
 10
18.3987385783
 20
-6.6095374607
 11
18.3689882804
 21
-6.6392877586
  0
LINE
  5
5D6
100
AcDbEntity
  8
RACCORDO
100
AcDbLine
 62
253
  6
CONTINUOUS
 10
19.6050089933
 20
3.0644012693
 11
19.6357579669
 21
3.0336522957
  0
LINE
  5
5D7
100
AcDbEntity
  8
ASSI
100
AcDbLine
 62
253
  6
CONTINUOUS
 10
19.6050089933
 20
3.0644012693
 11
19.6357579669
 21
3.0336522957
  0
LINE
  5
5D8
100
AcDbEntity
  8
RACCORDO
100
AcDbLine
 62
253
  6
CONTINUOUS
 10
19.9049633018
 20
3.3643555778
 11
19.9357885315
 21
3.3335303481
  0
LINE
  5
5D9
100
AcDbEntity
  8
ASSI
100
AcDbLine
 62
253
  6
CONTINUOUS
 10
19.9049633018
 20
3.3643555778
 11
19.9357885315
 21
3.3335303481
  0
LINE
  5
5DA
100
AcDbEntity
  8
RACCORDO
100
AcDbLine
 62
7
  6
CONTINUOUS
 10
22.243608151
 20
1.7257564201
 11
22.1923338769
 21
1.7770306942
  0
LINE
  5
5DB
100
AcDbEntity
  8
ASSI
100
AcDbLine
 62
7
  6
CONTINUOUS
 10
22.243608151
 20
1.7257564201
 11
22.1923338769
 21
1.7770306942
  0
LINE
  5
5DC
100
AcDbEntity
  8
RACCORDO
100
AcDbLine
 62
253
  6
CONTINUOUS
 10
19.125130592
 20
5.0898359954
 11
19.1127879973
 21
5.7969427766
  0
LINE
  5
5DD
100
AcDbEntity
  8
ASSI
100
AcDbLine
 62
253
  6
CONTINUOUS
 10
19.125130592
 20
5.0898359954
 11
19.1127879973
 21
5.7969427766
  0
LINE
  5
5DE
100
AcDbEntity
  8
RACCORDO
100
AcDbLine
 62
253
  6
CONTINUOUS
 10
17.8586523297
 20
-7.9712938259
 11
17.8586523297
 21
-6.33933345
  0
LINE
  5
5DF
100
AcDbEntity
  8
ASSI
100
AcDbLine
 62
253
  6
CONTINUOUS
 10
17.8586523297
 20
-7.9712938259
 11
17.8586523297
 21
-6.33933345
  0
LINE
  5
5E0
100
AcDbEntity
  8
RACCORDO
100
AcDbLine
 62
253
  6
CONTINUOUS
 10
18.0690339718
 20
-6.33933345
 11
18.0690339718
 21
-7.9712938259
  0
LINE
  5
5E1
100
AcDbEntity
  8
ASSI
100
AcDbLine
 62
253
  6
CONTINUOUS
 10
18.0690339718
 20
-6.33933345
 11
18.0690339718
 21
-7.9712938259
  0
LINE
  5
5E2
100
AcDbEntity
  8
RACCORDO
100
AcDbLine
 62
253
  6
CONTINUOUS
 10
18.3689882804
 20
-6.6392877586
 11
18.3689882804
 21
-7.9193189308
  0
LINE
  5
5E3
100
AcDbEntity
  8
ASSI
100
AcDbLine
 62
253
  6
CONTINUOUS
 10
18.3689882804
 20
-6.6392877586
 11
18.3689882804
 21
-7.9193189308
  0
LINE
  5
5E4
100
AcDbEntity
  8
RACCORDO
100
AcDbLine
 62
253
  6
CONTINUOUS
 10
19.1086980211
 20
6.3626282016
 11
19.1086980211
 21
7.9503762908
  0
LINE
  5
5E5
100
AcDbEntity
  8
ASSI
100
AcDbLine
 62
253
  6
CONTINUOUS
 10
19.1086980211
 20
6.3626282016
 11
19.1086980211
 21
7.9503762908
  0
LINE
  5
5E6
100
AcDbEntity
  8
RACCORDO
100
AcDbLine
 62
253
  6
CONTINUOUS
 10
19.1261530861
 20
3.5643251169
 11
19.1261530861
 21
4.9484146392
  0
LINE
  5
5E7
100
AcDbEntity
  8
ASSI
100
AcDbLine
 62
253
  6
CONTINUOUS
 10
19.1261530861
 20
3.5643251169
 11
19.1261530861
 21
4.9484146392
  0
LINE
  5
5E8
100
AcDbEntity
  8
RACCORDO
100
AcDbLine
 62
253
  6
CONTINUOUS
 10
19.4086523297
 20
6.362639708
 11
19.4086523297
 21
7.9555214204
  0
LINE
  5
5E9
100
AcDbEntity
  8
ASSI
100
AcDbLine
 62
253
  6
CONTINUOUS
 10
19.4086523297
 20
6.362639708
 11
19.4086523297
 21
7.9555214204
  0
LINE
  5
5EA
100
AcDbEntity
  8
RACCORDO
100
AcDbLine
 62
253
  6
CONTINUOUS
 10
19.4261073946
 20
3.5643251169
 11
19.4261073946
 21
4.9484146392
  0
LINE
  5
5EB
100
AcDbEntity
  8
ASSI
100
AcDbLine
 62
253
  6
CONTINUOUS
 10
19.4261073946
 20
3.5643251169
 11
19.4261073946
 21
4.9484146392
  0
LINE
  5
5EC
100
AcDbEntity
  8
RACCORDO
100
AcDbLine
 62
253
  6
CONTINUOUS
 10
19.6149441991
 20
6.0090864633
 11
19.6026002606
 21
5.3019027021
  0
LINE
  5
5ED
100
AcDbEntity
  8
ASSI
100
AcDbLine
 62
253
  6
CONTINUOUS
 10
19.6149441991
 20
6.0090864633
 11
19.6026002606
 21
5.3019027021
  0
LINE
  5
5EE
100
AcDbEntity
  8
RACCORDO
100
AcDbLine
 62
7
  6
CONTINUOUS
 10
18.3938932446
 20
-7.6677348106
 11
18.3689882804
 21
-7.9193189308
  0
LINE
  5
5EF
100
AcDbEntity
  8
ASSI
100
AcDbLine
 62
7
  6
CONTINUOUS
 10
18.3938932446
 20
-7.6677348106
 11
18.3689882804
 21
-7.9193189308
  0
LINE
  5
5F0
100
AcDbEntity
  8
DRAFT
100
AcDbLine
 62
7
  6
CONTINUOUS
 10
23.5638431508
 20
-1.6944785796
 11
23.5463880858
 21
-1.7119336446
  0
LINE
  5
5F1
100
AcDbEntity
  8
ASSI
100
AcDbLine
 62
7
  6
CONTINUOUS
 10
23.5638431508
 20
-1.6944785796
 11
23.5463880858
 21
-1.7119336446
  0
LINE
  5
5F2
100
AcDbEntity
  8
DRAFT
100
AcDbLine
 62
7
  6
CONTINUOUS
 10
23.8638431508
 20
-1.6944785796
 11
23.7843553927
 21
-1.7739663377
  0
LINE
  5
5F3
100
AcDbEntity
  8
ASSI
100
AcDbLine
 62
7
  6
CONTINUOUS
 10
23.8638431508
 20
-1.6944785796
 11
23.7843553927
 21
-1.7739663377
  0
LINE
  5
5F4
100
AcDbEntity
  8
DRAFT
100
AcDbLine
 62
7
  6
CONTINUOUS
 10
22.7812982157
 20
-4.1770235147
 11
22.8421435007
 21
-4.1161782297
  0
LINE
  5
5F5
100
AcDbEntity
  8
ASSI
100
AcDbLine
 62
7
  6
CONTINUOUS
 10
22.7812982157
 20
-4.1770235147
 11
22.8421435007
 21
-4.1161782297
  0
LINE
  5
5F6
100
AcDbEntity
  8
RACCORDO
100
AcDbLine
 62
7
  6
CONTINUOUS
 10
23.4881342333
 20
1.7718831171
 11
23.5394060599
 21
1.7206112905
  0
LINE
  5
5F7
100
AcDbEntity
  8
ASSI
100
AcDbLine
 62
7
  6
CONTINUOUS
 10
23.4881342333
 20
1.7718831171
 11
23.5394060599
 21
1.7206112905
  0
LINE
  5
5F8
100
AcDbEntity
  8
RACCORDO
100
AcDbLine
 62
253
  6
CONTINUOUS
 10
19.425086041
 20
5.3019026943
 11
19.412742112
 21
6.0090859134
  0
LINE
  5
5F9
100
AcDbEntity
  8
ASSI
100
AcDbLine
 62
253
  6
CONTINUOUS
 10
19.425086041
 20
5.3019026943
 11
19.412742112
 21
6.0090859134
  0
LINE
  5
5FA
100
AcDbEntity
  8
RACCORDO
100
AcDbLine
 62
253
  6
CONTINUOUS
 10
19.6015789069
 20
4.9484146392
 11
19.6015789069
 21
3.5643251169
  0
LINE
  5
5FB
100
AcDbEntity
  8
ASSI
100
AcDbLine
 62
253
  6
CONTINUOUS
 10
19.6015789069
 20
4.9484146392
 11
19.6015789069
 21
3.5643251169
  0
LINE
  5
5FC
100
AcDbEntity
  8
RACCORDO
100
AcDbLine
 62
253
  6
CONTINUOUS
 10
19.6190339718
 20
7.9555214204
 11
19.6190339718
 21
6.3626393776
  0
LINE
  5
5FD
100
AcDbEntity
  8
ASSI
100
AcDbLine
 62
253
  6
CONTINUOUS
 10
19.6190339718
 20
7.9555214204
 11
19.6190339718
 21
6.3626393776
  0
LINE
  5
5FE
100
AcDbEntity
  8
RACCORDO
100
AcDbLine
 62
253
  6
CONTINUOUS
 10
19.9015332154
 20
4.9484146392
 11
19.9015332154
 21
3.5643251169
  0
LINE
  5
5FF
100
AcDbEntity
  8
ASSI
100
AcDbLine
 62
253
  6
CONTINUOUS
 10
19.9015332154
 20
4.9484146392
 11
19.9015332154
 21
3.5643251169
  0
LINE
  5
600
100
AcDbEntity
  8
RACCORDO
100
AcDbLine
 62
253
  6
CONTINUOUS
 10
19.9189882804
 20
7.9503762908
 11
19.9189882804
 21
6.3626282016
  0
LINE
  5
601
100
AcDbEntity
  8
ASSI
100
AcDbLine
 62
253
  6
CONTINUOUS
 10
19.9189882804
 20
7.9503762908
 11
19.9189882804
 21
6.3626282016
  0
LINE
  5
602
100
AcDbEntity
  8
DRAFT
100
AcDbLine
 62
7
  6
CONTINUOUS
 10
20.9138431508
 20
9.0961741996
 11
20.9138431508
 21
7.9555214204
  0
LINE
  5
603
100
AcDbEntity
  8
ASSI
100
AcDbLine
 62
7
  6
CONTINUOUS
 10
20.9138431508
 20
9.0961741996
 11
20.9138431508
 21
7.9555214204
  0
LINE
  5
604
100
AcDbEntity
  8
DRAFT
100
AcDbLine
 62
7
  6
CONTINUOUS
 10
21.1763091413
 20
9.1485393944
 11
21.1763091413
 21
8.0078866152
  0
LINE
  5
605
100
AcDbEntity
  8
ASSI
100
AcDbLine
 62
7
  6
CONTINUOUS
 10
21.1763091413
 20
9.1485393944
 11
21.1763091413
 21
8.0078866152
  0
LINE
  5
606
100
AcDbEntity
  8
RACCORDO
100
AcDbLine
 62
253
  6
CONTINUOUS
 10
19.9148983042
 20
5.7969427766
 11
19.9025557095
 21
5.0898359954
  0
LINE
  5
607
100
AcDbEntity
  8
ASSI
100
AcDbLine
 62
253
  6
CONTINUOUS
 10
19.9148983042
 20
5.7969427766
 11
19.9025557095
 21
5.0898359954
  0
LINE
  5
608
100
AcDbEntity
  8
RACCORDO
100
AcDbLine
 62
7
  6
CONTINUOUS
 10
23.4911140649
 20
-4.8578604447
 11
23.5463880858
 21
-4.8025864238
  0
LINE
  5
609
100
AcDbEntity
  8
ASSI
100
AcDbLine
 62
7
  6
CONTINUOUS
 10
23.4911140649
 20
-4.8578604447
 11
23.5463880858
 21
-4.8025864238
  0
LINE
  5
60A
100
AcDbEntity
  8
RACCORDO
100
AcDbLine
 62
7
  6
CONTINUOUS
 10
22.243608151
 20
-6.8147135794
 11
22.1965701026
 21
-6.8617516278
  0
LINE
  5
60B
100
AcDbEntity
  8
ASSI
100
AcDbLine
 62
7
  6
CONTINUOUS
 10
22.243608151
 20
-6.8147135794
 11
22.1965701026
 21
-6.8617516278
  0
LINE
  5
60C
100
AcDbEntity
  8
RACCORDO
100
AcDbLine
 62
7
  6
CONTINUOUS
 10
19.9189882804
 20
7.9503762908
 11
19.9364938667
 21
7.9328707044
  0
LINE
  5
60D
100
AcDbEntity
  8
ASSI
100
AcDbLine
 62
7
  6
CONTINUOUS
 10
19.9189882804
 20
7.9503762908
 11
19.9364938667
 21
7.9328707044
  0
LINE
  5
60E
100
AcDbEntity
  8
RACCORDO
100
AcDbLine
 62
253
  6
CONTINUOUS
 10
23.1927645147
 20
-7.6677348106
 11
23.2507427125
 21
-8.2534169951
  0
LINE
  5
60F
100
AcDbEntity
  8
ASSI
100
AcDbLine
 62
253
  6
CONTINUOUS
 10
23.1927645147
 20
-7.6677348106
 11
23.2507427125
 21
-8.2534169951
  0
LINE
  5
610
100
AcDbEntity
  8
RACCORDO
100
AcDbLine
 62
253
  6
CONTINUOUS
 10
23.4927188234
 20
-7.3722924858
 11
23.5498790988
 21
-7.9497122105
  0
LINE
  5
611
100
AcDbEntity
  8
ASSI
100
AcDbLine
 62
253
  6
CONTINUOUS
 10
23.4927188234
 20
-7.3722924858
 11
23.5498790988
 21
-7.9497122105
  0
LINE
  5
612
100
AcDbEntity
  8
DRAFT
100
AcDbLine
 62
7
  6
CONTINUOUS
 10
21.7138431508
 20
-4.8165504757
 11
21.7138431508
 21
-1.0724066835
  0
LINE
  5
613
100
AcDbEntity
  8
ASSI
100
AcDbLine
 62
7
  6
CONTINUOUS
 10
21.7138431508
 20
-4.8165504757
 11
21.7138431508
 21
-1.0724066835
  0
LINE
  5
614
100
AcDbEntity
  8
RACCORDO
100
AcDbLine
 62
253
  6
CONTINUOUS
 10
22.243608151
 20
1.7257564201
 11
22.243608151
 21
1.0852864206
  0
LINE
  5
615
100
AcDbEntity
  8
ASSI
100
AcDbLine
 62
253
  6
CONTINUOUS
 10
22.243608151
 20
1.7257564201
 11
22.243608151
 21
1.0852864206
  0
LINE
  5
616
100
AcDbEntity
  8
RACCORDO
100
AcDbLine
 62
253
  6
CONTINUOUS
 10
22.243608151
 20
-6.1742435799
 11
22.243608151
 21
-6.8147135794
  0
LINE
  5
617
100
AcDbEntity
  8
ASSI
100
AcDbLine
 62
253
  6
CONTINUOUS
 10
22.243608151
 20
-6.1742435799
 11
22.243608151
 21
-6.8147135794
  0
LINE
  5
618
100
AcDbEntity
  8
DRAFT
100
AcDbLine
 62
7
  6
CONTINUOUS
 10
22.2638431508
 20
-1.0240056644
 11
22.2638431508
 21
-1.0605801326
  0
LINE
  5
619
100
AcDbEntity
  8
ASSI
100
AcDbLine
 62
7
  6
CONTINUOUS
 10
22.2638431508
 20
-1.0240056644
 11
22.2638431508
 21
-1.0605801326
  0
LINE
  5
61A
100
AcDbEntity
  8
DRAFT
100
AcDbLine
 62
7
  6
CONTINUOUS
 10
22.2638431508
 20
-4.8283770267
 11
22.2638431508
 21
-4.8630055104
  0
LINE
  5
61B
100
AcDbEntity
  8
ASSI
100
AcDbLine
 62
7
  6
CONTINUOUS
 10
22.2638431508
 20
-4.8283770267
 11
22.2638431508
 21
-4.8630055104
  0
LINE
  5
61C
100
AcDbEntity
  8
DRAFT
100
AcDbLine
 62
7
  6
CONTINUOUS
 10
22.5138431508
 20
-4.8025864238
 11
22.5138431508
 21
-1.0863707355
  0
LINE
  5
61D
100
AcDbEntity
  8
ASSI
100
AcDbLine
 62
7
  6
CONTINUOUS
 10
22.5138431508
 20
-4.8025864238
 11
22.5138431508
 21
-1.0863707355
  0
LINE
  5
61E
100
AcDbEntity
  8
RACCORDO
100
AcDbLine
 62
253
  6
CONTINUOUS
 10
22.5435624595
 20
1.7206112905
 11
22.5435624595
 21
1.0904315502
  0
LINE
  5
61F
100
AcDbEntity
  8
ASSI
100
AcDbLine
 62
253
  6
CONTINUOUS
 10
22.5435624595
 20
1.7206112905
 11
22.5435624595
 21
1.0904315502
  0
LINE
  5
620
100
AcDbEntity
  8
RACCORDO
100
AcDbLine
 62
253
  6
CONTINUOUS
 10
22.5435624595
 20
-6.1793887095
 11
22.5435624595
 21
-6.8095684498
  0
LINE
  5
621
100
AcDbEntity
  8
ASSI
100
AcDbLine
 62
253
  6
CONTINUOUS
 10
22.5435624595
 20
-6.1793887095
 11
22.5435624595
 21
-6.8095684498
  0
LINE
  5
622
100
AcDbEntity
  8
DRAFT
100
AcDbLine
 62
7
  6
CONTINUOUS
 10
22.7812982157
 20
-1.7119336446
 11
22.7812982157
 21
-4.1770235147
  0
LINE
  5
623
100
AcDbEntity
  8
ASSI
100
AcDbLine
 62
7
  6
CONTINUOUS
 10
22.7812982157
 20
-1.7119336446
 11
22.7812982157
 21
-4.1770235147
  0
LINE
  5
624
100
AcDbEntity
  8
RACCORDO
100
AcDbLine
 62
7
  6
CONTINUOUS
 10
23.492368412
 20
-6.8566060976
 11
23.5394060599
 21
-6.8095684498
  0
LINE
  5
625
100
AcDbEntity
  8
ASSI
100
AcDbLine
 62
7
  6
CONTINUOUS
 10
23.492368412
 20
-6.8566060976
 11
23.5394060599
 21
-6.8095684498
  0
LINE
  5
626
100
AcDbEntity
  8
RACCORDO
100
AcDbLine
 62
7
  6
CONTINUOUS
 10
23.5638431508
 20
7.8961741996
 11
23.5620062544
 21
7.898011096
  0
LINE
  5
627
100
AcDbEntity
  8
ASSI
100
AcDbLine
 62
7
  6
CONTINUOUS
 10
23.5638431508
 20
7.8961741996
 11
23.5620062544
 21
7.898011096
  0
LINE
  5
628
100
AcDbEntity
  8
RACCORDO
100
AcDbLine
 62
253
  6
CONTINUOUS
 10
23.1924098658
 20
-6.8617516279
 11
23.1927645148
 21
-7.3841449745
  0
LINE
  5
629
100
AcDbEntity
  8
ASSI
100
AcDbLine
 62
253
  6
CONTINUOUS
 10
23.1924098658
 20
-6.8617516279
 11
23.1927645148
 21
-7.3841449745
  0
LINE
  5
62A
100
AcDbEntity
  8
RACCORDO
100
AcDbLine
 62
253
  6
CONTINUOUS
 10
23.191156871
 20
-4.8630055106
 11
23.1919299276
 21
-6.1267252539
  0
LINE
  5
62B
100
AcDbEntity
  8
ASSI
100
AcDbLine
 62
253
  6
CONTINUOUS
 10
23.191156871
 20
-4.8630055106
 11
23.1919299276
 21
-6.1267252539
  0
LINE
  5
62C
100
AcDbEntity
  8
RACCORDO
100
AcDbLine
 62
253
  6
CONTINUOUS
 10
23.1884197759
 20
1.0342554552
 11
23.1892122644
 21
-1.0240056643
  0
LINE
  5
62D
100
AcDbEntity
  8
ASSI
100
AcDbLine
 62
253
  6
CONTINUOUS
 10
23.1884197759
 20
1.0342554552
 11
23.1892122644
 21
-1.0240056643
  0
LINE
  5
62E
100
AcDbEntity
  8
RACCORDO
100
AcDbLine
 62
253
  6
CONTINUOUS
 10
23.1870360056
 20
7.9328707044
 11
23.1881766395
 21
1.7770306943
  0
LINE
  5
62F
100
AcDbEntity
  8
ASSI
100
AcDbLine
 62
253
  6
CONTINUOUS
 10
23.1870360056
 20
7.9328707044
 11
23.1881766395
 21
1.7770306943
  0
LINE
  5
630
100
AcDbEntity
  8
DRAFT
100
AcDbLine
 62
7
  6
CONTINUOUS
 10
23.5394060599
 20
1.7206112905
 11
23.5394060599
 21
1.0904315502
  0
LINE
  5
631
100
AcDbEntity
  8
ASSI
100
AcDbLine
 62
7
  6
CONTINUOUS
 10
23.5394060599
 20
1.7206112905
 11
23.5394060599
 21
1.0904315502
  0
LINE
  5
632
100
AcDbEntity
  8
DRAFT
100
AcDbLine
 62
7
  6
CONTINUOUS
 10
23.5394060599
 20
-6.1793887095
 11
23.5394060599
 21
-6.8095684498
  0
LINE
  5
633
100
AcDbEntity
  8
ASSI
100
AcDbLine
 62
7
  6
CONTINUOUS
 10
23.5394060599
 20
-6.1793887095
 11
23.5394060599
 21
-6.8095684498
  0
LINE
  5
634
100
AcDbEntity
  8
DRAFT
100
AcDbLine
 62
7
  6
CONTINUOUS
 10
23.5463880858
 20
-1.0863707355
 11
23.5463880858
 21
-1.7119336446
  0
LINE
  5
635
100
AcDbEntity
  8
ASSI
100
AcDbLine
 62
7
  6
CONTINUOUS
 10
23.5463880858
 20
-1.0863707355
 11
23.5463880858
 21
-1.7119336446
  0
LINE
  5
636
100
AcDbEntity
  8
DRAFT
100
AcDbLine
 62
7
  6
CONTINUOUS
 10
23.5463880858
 20
-4.1770235147
 11
23.5463880858
 21
-4.8025864238
  0
LINE
  5
637
100
AcDbEntity
  8
ASSI
100
AcDbLine
 62
7
  6
CONTINUOUS
 10
23.5463880858
 20
-4.1770235147
 11
23.5463880858
 21
-4.8025864238
  0
LINE
  5
638
100
AcDbEntity
  8
RACCORDO
100
AcDbLine
 62
7
  6
CONTINUOUS
 10
23.5498790988
 20
-7.9497122105
 11
23.5498790988
 21
-9.3375002843
  0
LINE
  5
639
100
AcDbEntity
  8
ASSI
100
AcDbLine
 62
7
  6
CONTINUOUS
 10
23.5498790988
 20
-7.9497122105
 11
23.5498790988
 21
-9.3375002843
  0
LINE
  5
63A
100
AcDbEntity
  8
RACCORDO
100
AcDbLine
 62
7
  6
CONTINUOUS
 10
23.5568611248
 20
8.1979654045
 11
23.5568611248
 21
8.0078866152
  0
LINE
  5
63B
100
AcDbEntity
  8
ASSI
100
AcDbLine
 62
7
  6
CONTINUOUS
 10
23.5568611248
 20
8.1979654045
 11
23.5568611248
 21
8.0078866152
  0
LINE
  5
63C
100
AcDbEntity
  8
DRAFT
100
AcDbLine
 62
7
  6
CONTINUOUS
 10
23.5638431508
 20
7.8961741996
 11
23.5638431508
 21
-1.6944785796
  0
LINE
  5
63D
100
AcDbEntity
  8
ASSI
100
AcDbLine
 62
7
  6
CONTINUOUS
 10
23.5638431508
 20
7.8961741996
 11
23.5638431508
 21
-1.6944785796
  0
LINE
  5
63E
100
AcDbEntity
  8
RACCORDO
100
AcDbLine
 62
7
  6
CONTINUOUS
 10
24.6568611248
 20
8.8985774706
 11
24.6568611248
 21
8.1979654045
  0
LINE
  5
63F
100
AcDbEntity
  8
ASSI
100
AcDbLine
 62
7
  6
CONTINUOUS
 10
24.6568611248
 20
8.8985774706
 11
24.6568611248
 21
8.1979654045
  0
LINE
  5
640
100
AcDbEntity
  8
DRAFT
100
AcDbLine
 62
7
  6
CONTINUOUS
 10
24.6638431508
 20
7.8961741996
 11
24.6638431508
 21
-1.7329870163
  0
LINE
  5
641
100
AcDbEntity
  8
ASSI
100
AcDbLine
 62
7
  6
CONTINUOUS
 10
24.6638431508
 20
7.8961741996
 11
24.6638431508
 21
-1.7329870163
  0
LINE
  5
642
100
AcDbEntity
  8
DRAFT
100
AcDbLine
 62
7
  6
CONTINUOUS
 10
23.5593355657
 20
-4.1899709946
 11
23.5498809313
 21
-9.3424799574
  0
LINE
  5
643
100
AcDbEntity
  8
ASSI
100
AcDbLine
 62
7
  6
CONTINUOUS
 10
23.5593355657
 20
-4.1899709946
 11
23.5498809313
 21
-9.3424799574
  0
LINE
  5
644
100
AcDbEntity
  8
DRAFT
100
AcDbLine
 62
7
  6
CONTINUOUS
 10
23.8638431508
 20
-1.6944785796
 11
23.8593355649
 21
-4.1899709938
  0
LINE
  5
645
100
AcDbEntity
  8
ASSI
100
AcDbLine
 62
7
  6
CONTINUOUS
 10
23.8638431508
 20
-1.6944785796
 11
23.8593355649
 21
-4.1899709938
  0
LINE
  5
646
100
AcDbEntity
  8
RACCORDO
100
AcDbLine
 62
7
  6
CONTINUOUS
 10
24.650350073
 20
-9.0877611112
 11
24.6638431508
 21
-1.7329870163
  0
LINE
  5
647
100
AcDbEntity
  8
ASSI
100
AcDbLine
 62
7
  6
CONTINUOUS
 10
24.650350073
 20
-9.0877611112
 11
24.6638431508
 21
-1.7329870163
  0
ARC
  5
648
100
AcDbEntity
  8
RACCORDO
100
AcDbCircle
 62
253
  6
CONTINUOUS
 10
-18.1310749904
 20
-6.6393967205
 40
0.3000637852
100
AcDbArc
 50
0.0208058113
 51
89.9791941349
  0
ARC
  5
649
100
AcDbEntity
  8
RACCORDO
100
AcDbCircle
 62
253
  6
CONTINUOUS
 10
-18.3412387081
 20
-6.6393967205
 40
0.3000637852
100
AcDbArc
 50
90.0208058651
 51
179.9791941887
  0
ARC
  5
64A
100
AcDbEntity
  8
RACCORDO
100
AcDbCircle
 62
253
  6
CONTINUOUS
 10
-6.9310749904
 20
-6.6393967205
 40
0.3000637852
100
AcDbArc
 50
0.0208058113
 51
89.9791941349
  0
ARC
  5
64B
100
AcDbEntity
  8
RACCORDO
100
AcDbCircle
 62
253
  6
CONTINUOUS
 10
-7.1412387081
 20
-6.6393967205
 40
0.3000637852
100
AcDbArc
 50
90.0208058651
 51
179.9791941887
  0
ARC
  5
64C
100
AcDbEntity
  8
ASSI
100
AcDbCircle
 62
253
  6
CONTINUOUS
 10
-18.1310749904
 20
-6.6393967205
 40
0.3000637852
100
AcDbArc
 50
0.0208058113
 51
89.9791941349
  0
ARC
  5
64D
100
AcDbEntity
  8
ASSI
100
AcDbCircle
 62
253
  6
CONTINUOUS
 10
-6.9310749904
 20
-6.6393967205
 40
0.3000637852
100
AcDbArc
 50
0.0208058113
 51
89.9791941349
  0
ARC
  5
64E
100
AcDbEntity
  8
ASSI
100
AcDbCircle
 62
253
  6
CONTINUOUS
 10
-7.1412387081
 20
-6.6393967205
 40
0.3000637852
100
AcDbArc
 50
90.0208058651
 51
179.9791941887
  0
ARC
  5
64F
100
AcDbEntity
  8
ASSI
100
AcDbCircle
 62
253
  6
CONTINUOUS
 10
-18.3412387081
 20
-6.6393967205
 40
0.3000637852
100
AcDbArc
 50
90.0208058651
 51
179.9791941887
  0
ARC
  5
650
100
AcDbEntity
  8
RACCORDO
100
AcDbCircle
 62
7
  6
CONTINUOUS
 10
-18.1010706781
 20
-6.6091801693
 40
0.2997999466
100
AcDbArc
 50
359.9317190043
 51
89.99032184
  0
ARC
  5
651
100
AcDbEntity
  8
RACCORDO
100
AcDbCircle
 62
7
  6
CONTINUOUS
 10
-18.3712430211
 20
-6.6091801695
 40
0.2997999466
100
AcDbArc
 50
90.0096780216
 51
180.0682809747
  0
ARC
  5
652
100
AcDbEntity
  8
RACCORDO
100
AcDbCircle
 62
7
  6
CONTINUOUS
 10
-6.9010706781
 20
-6.6091801693
 40
0.2997999466
100
AcDbArc
 50
359.9317190043
 51
89.99032184
  0
ARC
  5
653
100
AcDbEntity
  8
RACCORDO
100
AcDbCircle
 62
7
  6
CONTINUOUS
 10
-7.1712430211
 20
-6.6091801695
 40
0.2997999466
100
AcDbArc
 50
90.009678022
 51
180.0682809743
  0
ARC
  5
654
100
AcDbEntity
  8
ASSI
100
AcDbCircle
 62
7
  6
CONTINUOUS
 10
-18.1010706781
 20
-6.6091801693
 40
0.2997999466
100
AcDbArc
 50
359.9317190043
 51
89.99032184
  0
ARC
  5
655
100
AcDbEntity
  8
ASSI
100
AcDbCircle
 62
7
  6
CONTINUOUS
 10
-6.9010706781
 20
-6.6091801693
 40
0.2997999466
100
AcDbArc
 50
359.9317190043
 51
89.99032184
  0
ARC
  5
656
100
AcDbEntity
  8
ASSI
100
AcDbCircle
 62
7
  6
CONTINUOUS
 10
-7.1712430211
 20
-6.6091801695
 40
0.2997999466
100
AcDbArc
 50
90.009678022
 51
180.0682809743
  0
ARC
  5
657
100
AcDbEntity
  8
ASSI
100
AcDbCircle
 62
7
  6
CONTINUOUS
 10
-18.3712430211
 20
-6.6091801695
 40
0.2997999466
100
AcDbArc
 50
90.0096780216
 51
180.0682809747
  0
ARC
  5
658
100
AcDbEntity
  8
RACCORDO
100
AcDbCircle
 62
253
  6
CONTINUOUS
 10
-31.2820406757
 20
4.9797385516
 40
50.7081457223
100
AcDbArc
 50
359.9646067187
 51
0.3640197827
  0
ARC
  5
659
100
AcDbEntity
  8
ASSI
100
AcDbCircle
 62
253
  6
CONTINUOUS
 10
-31.2820406757
 20
4.9797385516
 40
50.7081457223
100
AcDbArc
 50
359.9646067187
 51
0.3640197827
  0
ARC
  5
65A
100
AcDbEntity
  8
RACCORDO
100
AcDbCircle
 62
253
  6
CONTINUOUS
 10
-70.5820406748
 20
4.979738552
 40
50.7081457215
100
AcDbArc
 50
359.9646067182
 51
0.3640197823
  0
ARC
  5
65B
100
AcDbEntity
  8
ASSI
100
AcDbCircle
 62
253
  6
CONTINUOUS
 10
-70.5820406748
 20
4.979738552
 40
50.7081457215
100
AcDbArc
 50
359.9646067182
 51
0.3640197823
  0
CIRCLE
  5
65C
100
AcDbEntity
  8
0
100
AcDbCircle
 62
7
  6
CONTINUOUS
 10
-0.1361568492
 20
4.7555214204
 40
1.1
  0
CIRCLE
  5
65D
100
AcDbEntity
  8
0
100
AcDbCircle
 62
7
  6
CONTINUOUS
 10
-0.1361568492
 20
4.7555214204
 40
0.9
  0
ARC
  5
65E
100
AcDbEntity
  8
RACCORDO
100
AcDbCircle
 62
253
  6
CONTINUOUS
 10
-19.6951007671
 20
3.3644653382
 40
0.3000646364
100
AcDbArc
 50
270.0209582141
 51
359.9790417859
  0
ARC
  5
65F
100
AcDbEntity
  8
ASSI
100
AcDbCircle
 62
253
  6
CONTINUOUS
 10
-19.6951007671
 20
3.3644653382
 40
0.3000646364
100
AcDbArc
 50
270.0209582141
 51
359.9790417859
  0
ARC
  5
660
100
AcDbEntity
  8
RACCORDO
100
AcDbCircle
 62
253
  6
CONTINUOUS
 10
-19.8772129376
 20
3.3644653322
 40
0.3000646302
100
AcDbArc
 50
180.0209570569
 51
269.9790429984
  0
ARC
  5
661
100
AcDbEntity
  8
ASSI
100
AcDbCircle
 62
253
  6
CONTINUOUS
 10
-19.8772129376
 20
3.3644653322
 40
0.3000646302
100
AcDbArc
 50
180.0209570569
 51
269.9790429984
  0
ARC
  5
662
100
AcDbEntity
  8
RACCORDO
100
AcDbCircle
 62
7
  6
CONTINUOUS
 10
-19.6641963654
 20
3.3336440202
 40
0.2999882567
100
AcDbArc
 50
269.9912778673
 51
359.9782891346
  0
ARC
  5
663
100
AcDbEntity
  8
RACCORDO
100
AcDbCircle
 62
7
  6
CONTINUOUS
 10
-19.9081173277
 20
3.3336440149
 40
0.2999882567
100
AcDbArc
 50
180.0217098431
 51
270.0087211105
  0
ARC
  5
664
100
AcDbEntity
  8
ASSI
100
AcDbCircle
 62
7
  6
CONTINUOUS
 10
-19.6641963654
 20
3.3336440202
 40
0.2999882567
100
AcDbArc
 50
269.9912778673
 51
359.9782891346
  0
ARC
  5
665
100
AcDbEntity
  8
ASSI
100
AcDbCircle
 62
7
  6
CONTINUOUS
 10
-19.9081173277
 20
3.3336440149
 40
0.2999882567
100
AcDbArc
 50
180.0217098431
 51
270.0087211105
  0
ARC
  5
666
100
AcDbEntity
  8
RACCORDO
100
AcDbCircle
 62
253
  6
CONTINUOUS
 10
6.6587612919
 20
-6.6393967205
 40
0.3000637852
100
AcDbArc
 50
90.0208058651
 51
179.9791941887
  0
ARC
  5
667
100
AcDbEntity
  8
RACCORDO
100
AcDbCircle
 62
253
  6
CONTINUOUS
 10
6.8689250096
 20
-6.6393967205
 40
0.3000637852
100
AcDbArc
 50
0.0208058113
 51
89.9791941349
  0
ARC
  5
668
100
AcDbEntity
  8
RACCORDO
100
AcDbCircle
 62
253
  6
CONTINUOUS
 10
18.0689250096
 20
-6.6393967205
 40
0.3000637852
100
AcDbArc
 50
0.0208058113
 51
89.9791941349
  0
ARC
  5
669
100
AcDbEntity
  8
RACCORDO
100
AcDbCircle
 62
253
  6
CONTINUOUS
 10
17.8587612919
 20
-6.6393967205
 40
0.3000637852
100
AcDbArc
 50
90.0208058651
 51
179.9791941887
  0
ARC
  5
66A
100
AcDbEntity
  8
ASSI
100
AcDbCircle
 62
253
  6
CONTINUOUS
 10
6.6587612919
 20
-6.6393967205
 40
0.3000637852
100
AcDbArc
 50
90.0208058651
 51
179.9791941887
  0
ARC
  5
66B
100
AcDbEntity
  8
ASSI
100
AcDbCircle
 62
253
  6
CONTINUOUS
 10
6.8689250096
 20
-6.6393967205
 40
0.3000637852
100
AcDbArc
 50
0.0208058113
 51
89.9791941349
  0
ARC
  5
66C
100
AcDbEntity
  8
ASSI
100
AcDbCircle
 62
253
  6
CONTINUOUS
 10
18.0689250096
 20
-6.6393967205
 40
0.3000637852
100
AcDbArc
 50
0.0208058113
 51
89.9791941349
  0
ARC
  5
66D
100
AcDbEntity
  8
ASSI
100
AcDbCircle
 62
253
  6
CONTINUOUS
 10
17.8587612919
 20
-6.6393967205
 40
0.3000637852
100
AcDbArc
 50
90.0208058651
 51
179.9791941887
  0
ARC
  5
66E
100
AcDbEntity
  8
RACCORDO
100
AcDbCircle
 62
7
  6
CONTINUOUS
 10
6.6287569789
 20
-6.6091801695
 40
0.2997999466
100
AcDbArc
 50
90.0096780222
 51
180.068280974
  0
ARC
  5
66F
100
AcDbEntity
  8
RACCORDO
100
AcDbCircle
 62
7
  6
CONTINUOUS
 10
6.8989293219
 20
-6.6091801694
 40
0.2997999466
100
AcDbArc
 50
359.9317190079
 51
89.9903218364
  0
ARC
  5
670
100
AcDbEntity
  8
RACCORDO
100
AcDbCircle
 62
7
  6
CONTINUOUS
 10
18.0989293219
 20
-6.6091801693
 40
0.2997999466
100
AcDbArc
 50
359.9317190043
 51
89.99032184
  0
ARC
  5
671
100
AcDbEntity
  8
RACCORDO
100
AcDbCircle
 62
7
  6
CONTINUOUS
 10
17.8287569789
 20
-6.6091801695
 40
0.2997999466
100
AcDbArc
 50
90.0096780219
 51
180.0682809744
  0
ARC
  5
672
100
AcDbEntity
  8
ASSI
100
AcDbCircle
 62
7
  6
CONTINUOUS
 10
6.6287569789
 20
-6.6091801695
 40
0.2997999466
100
AcDbArc
 50
90.0096780222
 51
180.068280974
  0
ARC
  5
673
100
AcDbEntity
  8
ASSI
100
AcDbCircle
 62
7
  6
CONTINUOUS
 10
6.8989293219
 20
-6.6091801694
 40
0.2997999466
100
AcDbArc
 50
359.9317190079
 51
89.9903218364
  0
ARC
  5
674
100
AcDbEntity
  8
ASSI
100
AcDbCircle
 62
7
  6
CONTINUOUS
 10
18.0989293219
 20
-6.6091801693
 40
0.2997999466
100
AcDbArc
 50
359.9317190043
 51
89.99032184
  0
ARC
  5
675
100
AcDbEntity
  8
ASSI
100
AcDbCircle
 62
7
  6
CONTINUOUS
 10
17.8287569789
 20
-6.6091801695
 40
0.2997999466
100
AcDbArc
 50
90.0096780219
 51
180.0682809744
  0
ARC
  5
676
100
AcDbEntity
  8
0
100
AcDbCircle
 62
7
  6
CONTINUOUS
 10
13.1988343558
 20
-2.9959916487
 40
0.2330561558
100
AcDbArc
 50
48.1418264782
 51
53.9796874654
  0
ARC
  5
677
100
AcDbEntity
  8
ASSI
100
AcDbCircle
 62
7
  6
CONTINUOUS
 10
13.1988343558
 20
-2.9959916487
 40
0.2330561558
100
AcDbArc
 50
48.1418264782
 51
53.9796874654
  0
ARC
  5
678
100
AcDbEntity
  8
RACCORDO
100
AcDbCircle
 62
253
  6
CONTINUOUS
 10
76.4210494698
 20
4.9623560908
 40
56.8194743415
100
AcDbArc
 50
179.657604944
 51
180.0140583204
  0
ARC
  5
679
100
AcDbEntity
  8
RACCORDO
100
AcDbCircle
 62
253
  6
CONTINUOUS
 10
37.1210494698
 20
4.9623560905
 40
56.8194743415
100
AcDbArc
 50
179.6576049437
 51
180.0140583201
  0
ARC
  5
67A
100
AcDbEntity
  8
ASSI
100
AcDbCircle
 62
253
  6
CONTINUOUS
 10
76.4210494698
 20
4.9623560908
 40
56.8194743415
100
AcDbArc
 50
179.657604944
 51
180.0140583204
  0
ARC
  5
67B
100
AcDbEntity
  8
ASSI
100
AcDbCircle
 62
253
  6
CONTINUOUS
 10
37.1210494698
 20
4.9623560905
 40
56.8194743415
100
AcDbArc
 50
179.6576049437
 51
180.0140583201
  0
ARC
  5
67C
100
AcDbEntity
  8
RACCORDO
100
AcDbCircle
 62
253
  6
CONTINUOUS
 10
19.6048992329
 20
3.3644653382
 40
0.3000646364
100
AcDbArc
 50
270.0209582141
 51
359.9790417859
  0
ARC
  5
67D
100
AcDbEntity
  8
ASSI
100
AcDbCircle
 62
253
  6
CONTINUOUS
 10
19.6048992329
 20
3.3644653382
 40
0.3000646364
100
AcDbArc
 50
270.0209582141
 51
359.9790417859
  0
ARC
  5
67E
100
AcDbEntity
  8
RACCORDO
100
AcDbCircle
 62
253
  6
CONTINUOUS
 10
19.4227870624
 20
3.3644653322
 40
0.3000646302
100
AcDbArc
 50
180.0209570569
 51
269.9790429984
  0
ARC
  5
67F
100
AcDbEntity
  8
ASSI
100
AcDbCircle
 62
253
  6
CONTINUOUS
 10
19.4227870624
 20
3.3644653322
 40
0.3000646302
100
AcDbArc
 50
180.0209570569
 51
269.9790429984
  0
ARC
  5
680
100
AcDbEntity
  8
RACCORDO
100
AcDbCircle
 62
7
  6
CONTINUOUS
 10
19.3918826723
 20
3.3336440149
 40
0.2999882567
100
AcDbArc
 50
180.0217098416
 51
270.0087211121
  0
ARC
  5
681
100
AcDbEntity
  8
RACCORDO
100
AcDbCircle
 62
7
  6
CONTINUOUS
 10
19.6358036346
 20
3.3336440203
 40
0.2999882567
100
AcDbArc
 50
269.9912778705
 51
359.9782891314
  0
ARC
  5
682
100
AcDbEntity
  8
ASSI
100
AcDbCircle
 62
7
  6
CONTINUOUS
 10
19.3918826723
 20
3.3336440149
 40
0.2999882567
100
AcDbArc
 50
180.0217098416
 51
270.0087211121
  0
ARC
  5
683
100
AcDbEntity
  8
ASSI
100
AcDbCircle
 62
7
  6
CONTINUOUS
 10
19.6358036346
 20
3.3336440203
 40
0.2999882567
100
AcDbArc
 50
269.9912778705
 51
359.9782891314
  0
SPLINE
  5
684
100
AcDbEntity
  8
0
100
AcDbSpline
 62
7
  6
CONTINUOUS
 70
0
 71
3
 72
9
 73
5
 74
3
 42
0.0000001
 43
0.0000001
 44
0.0000000001
 12
-0.0046820729
 22
0.3133621937
 32
0.0
 13
-0.3113313703
 23
0.0361338596
 33
0.0
 40
0.0
 40
0.0
 40
0.0
 40
0.0
 40
0.4988583766
 40
1.0
 40
1.0
 40
1.0
 40
1.0
 10
13.2000977687
 20
-2.3691323742
 30
0.0
 10
13.1993192049
 20
-2.3170245891
 30
0.0
 10
13.1568946588
 20
-2.2083506233
 30
0.0
 10
13.0516584081
 20
-2.1625334773
 30
0.0
 10
12.999651372
 20
-2.156497417
 30
0.0
 11
13.2000977687
 21
-2.3691323742
 31
0.0
 11
13.1413602238
 21
-2.2242412809
 31
0.0
 11
12.999651372
 21
-2.156497417
 31
0.0
  0
SPLINE
  5
685
100
AcDbEntity
  8
0
100
AcDbSpline
 62
7
  6
CONTINUOUS
 70
0
 71
3
 72
9
 73
5
 74
3
 42
0.0000001
 43
0.0000001
 44
0.0000000001
 12
-0.2768734096
 22
0.0321345862
 32
0.0
 13
-0.2747605685
 23
-0.046883616
 33
0.0
 40
0.0
 40
0.0
 40
0.0
 40
0.0
 40
0.7295958319
 40
1.0
 40
1.0
 40
1.0
 40
1.0
 10
12.999651372
 20
-2.1564974171
 30
0.0
 10
12.9323161434
 20
-2.1486823304
 30
0.0
 10
12.838323455
 20
-2.1483810825
 30
0.0
 10
12.74645005
 20
-2.1622790869
 30
0.0
 10
12.7216845824
 20
-2.1665049286
 30
0.0
 11
12.999651372
 21
-2.1564974171
 31
0.0
 11
12.7962909119
 21
-2.1558011571
 31
0.0
 11
12.7216845824
 21
-2.1665049286
 31
0.0
  0
SPLINE
  5
686
100
AcDbEntity
  8
0
100
AcDbSpline
 62
7
  6
CONTINUOUS
 70
0
 71
3
 72
9
 73
5
 74
3
 42
0.0000001
 43
0.0000001
 44
0.0000000001
 12
0.4232572624
 22
0.0094537593
 32
0.0
 13
-0.0063259437
 23
0.4233860928
 33
0.0
 40
0.0
 40
0.0
 40
0.0
 40
0.0
 40
0.4795375616
 40
1.0
 40
1.0
 40
1.0
 40
1.0
 10
12.9244652952
 20
-2.6331504111
 30
0.0
 10
12.9921212137
 20
-2.6316392669
 30
0.0
 10
13.1492632843
 20
-2.6030174964
 30
0.0
 10
13.201195226
 20
-2.4425845605
 30
0.0
 10
13.200097754
 20
-2.3691323744
 30
0.0
 11
12.9244652952
 21
-2.6331504111
 31
0.0
 11
13.1186385353
 21
-2.5738780345
 31
0.0
 11
13.200097754
 21
-2.3691323744
 31
0.0
  0
SPLINE
  5
687
100
AcDbEntity
  8
0
100
AcDbSpline
 62
7
  6
CONTINUOUS
 70
0
 71
3
 72
17
 73
13
 74
11
 42
0.0000001
 43
0.0000001
 44
0.0000000001
 12
0.9958819045
 22
-0.3598342768
 32
0.0
 13
-1.050193894
 23
-0.1355088895
 33
0.0
 40
0.0
 40
0.0
 40
0.0
 40
0.0
 40
0.0798430187
 40
0.1895551228
 40
0.3223119562
 40
0.398530744
 40
0.483321362
 40
0.5876727129
 40
0.6789531193
 40
0.8312245932
 40
0.9440148167
 40
1.0
 40
1.0
 40
1.0
 40
1.0
 10
13.2558372974
 20
-1.9147189439
 30
0.0
 10
13.2823420365
 20
-1.9242956955
 30
0.0
 10
13.3415886261
 20
-1.9569834054
 30
0.0
 10
13.427789694
 20
-2.0327762449
 30
0.0
 10
13.4888659582
 20
-2.1297328541
 30
0.0
 10
13.5213843871
 20
-2.2286659688
 30
0.0
 10
13.5348014811
 20
-2.3217726526
 30
0.0
 10
13.5322555967
 20
-2.4214594752
 30
0.0
 10
13.5051567288
 20
-2.5415671016
 30
0.0
 10
13.4443256133
 20
-2.6566980379
 30
0.0
 10
13.3617104474
 20
-2.7314902096
 30
0.0
 10
13.3118937661
 20
-2.7707248508
 30
0.0
 10
13.2922953335
 20
-2.7732536808
 30
0.0
 11
13.2558372974
 21
-1.9147189439
 31
0.0
 11
13.3307357778
 21
-1.9539416207
 31
0.0
 11
13.4178637335
 21
-2.030786658
 31
0.0
 11
13.4928739865
 21
-2.1496779727
 31
0.0
 11
13.5182658917
 21
-2.2262876868
 31
0.0
 11
13.5315454718
 21
-2.3150850134
 31
0.0
 11
13.5283066652
 21
-2.4255352149
 31
0.0
 11
13.5067320654
 21
-2.5197534907
 31
0.0
 11
13.4300085238
 21
-2.661570049
 31
0.0
 11
13.3442409216
 21
-2.7446862564
 31
0.0
 11
13.2922953335
 21
-2.7732536808
 31
0.0
  0
SPLINE
  5
688
100
AcDbEntity
  8
0
100
AcDbSpline
 62
7
  6
CONTINUOUS
 70
0
 71
3
 72
8
 73
4
 74
2
 42
0.0000001
 43
0.0000001
 44
0.0000000001
 12
0.0468153254
 22
-0.018667611
 32
0.0
 13
0.0404489985
 23
-0.0293488028
 33
0.0
 40
0.0
 40
0.0
 40
0.0
 40
0.0
 40
1.0
 40
1.0
 40
1.0
 40
1.0
 10
13.2922953335
 20
-2.783298388
 30
0.0
 10
13.307900442
 20
-2.789520925
 30
0.0
 10
13.3224051626
 20
-2.7977109003
 30
0.0
 10
13.3358881621
 20
-2.8074938346
 30
0.0
 11
13.2922953335
 21
-2.783298388
 31
0.0
 11
13.3358881621
 21
-2.8074938346
 31
0.0
  0
SPLINE
  5
689
100
AcDbEntity
  8
0
100
AcDbSpline
 62
7
  6
CONTINUOUS
 70
0
 71
3
 72
9
 73
5
 74
3
 42
0.0000001
 43
0.0000001
 44
0.0000000001
 12
0.2399260035
 22
-0.2145228187
 32
0.0
 13
0.0845359266
 23
-0.3102902278
 33
0.0
 40
0.0
 40
0.0
 40
0.0
 40
0.0
 40
0.7012282199
 40
1.0
 40
1.0
 40
1.0
 40
1.0
 10
13.3543501703
 20
-2.8224116867
 30
0.0
 10
13.4104311318
 20
-2.8725548381
 30
0.0
 10
13.46229855
 20
-2.9844831448
 30
0.0
 10
13.488413332
 20
-3.0858329502
 30
0.0
 10
13.4968323151
 20
-3.1167349381
 30
0.0
 11
13.3543501703
 21
-2.8224116867
 31
0.0
 11
13.470509814
 21
-3.0243277412
 31
0.0
 11
13.4968323151
 21
-3.1167349381
 31
0.0
  0
SPLINE
  5
68A
100
AcDbEntity
  8
0
100
AcDbSpline
 62
7
  6
CONTINUOUS
 70
0
 71
3
 72
9
 73
5
 74
3
 42
0.0000001
 43
0.0000001
 44
0.0000000001
 12
0.1250599769
 22
-0.4590343077
 32
0.0
 13
0.1246990825
 23
-0.4591324849
 33
0.0
 40
0.0
 40
0.0
 40
0.0
 40
0.0
 40
0.8019701246
 40
1.0
 40
1.0
 40
1.0
 40
1.0
 10
13.4968323154
 20
-3.116734938
 30
0.0
 10
13.5302637704
 20
-3.2394455383
 30
0.0
 10
13.5696065998
 20
-3.3930837855
 30
0.0
 10
13.609892328
 20
-3.5464719501
 30
0.0
 10
13.6181237092
 20
-3.5767792663
 30
0.0
 11
13.4968323154
 21
-3.116734938
 31
0.0
 11
13.5939737491
 21
-3.4857112647
 31
0.0
 11
13.6181237092
 21
-3.5767792663
 31
0.0
  0
SPLINE
  5
68B
100
AcDbEntity
  8
0
100
AcDbSpline
 62
7
  6
CONTINUOUS
 70
0
 71
3
 72
9
 73
5
 74
3
 42
0.0000001
 43
0.0000001
 44
0.0000000001
 12
-0.1487666252
 22
0.5174419044
 32
0.0
 13
-0.1893777802
 23
0.5039985871
 33
0.0
 40
0.0
 40
0.0
 40
0.0
 40
0.0
 40
0.4413080349
 40
1.0
 40
1.0
 40
1.0
 40
1.0
 10
13.2768203659
 20
-3.5767792663
 30
0.0
 10
13.2549363968
 20
-3.5006621763
 30
0.0
 10
13.2032672032
 20
-3.328888604
 30
0.0
 10
13.1569004636
 20
-3.1551046045
 30
0.0
 10
13.1216325155
 20
-3.0612446175
 30
0.0
 11
13.2768203659
 21
-3.5767792663
 31
0.0
 11
13.2103650039
 21
-3.3486605247
 31
0.0
 11
13.1216325155
 21
-3.0612446175
 31
0.0
  0
SPLINE
  5
68C
100
AcDbEntity
  8
0
100
AcDbSpline
 62
7
  6
CONTINUOUS
 70
0
 71
3
 72
9
 73
5
 74
3
 42
0.0000001
 43
0.0000001
 44
0.0000000001
 12
-0.0895737501
 22
0.2383859055
 32
0.0
 13
-0.2546300208
 23
-0.0
 33
0.0
 40
0.0
 40
0.0
 40
0.0
 40
0.0
 40
0.8563651185
 40
1.0
 40
1.0
 40
1.0
 40
1.0
 10
13.1216325296
 20
-3.0612446122
 30
0.0
 10
13.0960632512
 20
-2.9931961541
 30
0.0
 10
13.0210142858
 20
-2.9175643912
 30
0.0
 10
12.9358917207
 20
-2.9115468637
 30
0.0
 10
12.9237004698
 20
-2.9115468637
 30
0.0
 11
13.1216325296
 21
-3.0612446122
 31
0.0
 11
12.9601370316
 21
-2.9147117273
 31
0.0
 11
12.9237004698
 21
-2.9115468637
 31
0.0
  0
SPLINE
  5
68D
100
AcDbEntity
  8
0
100
AcDbSpline
 62
7
  6
CONTINUOUS
 70
0
 71
3
 72
9
 73
5
 74
3
 42
0.0000001
 43
0.0000001
 44
0.0000000001
 12
0.870352019
 22
0.1280436023
 32
0.0
 13
0.8273203445
 23
-0.2990739652
 33
0.0
 40
0.0
 40
0.0
 40
0.0
 40
0.0
 40
0.8916594654
 40
1.0
 40
1.0
 40
1.0
 40
1.0
 10
12.3800498147
 20
-1.8967764975
 30
0.0
 10
12.6387356867
 20
-1.8587194008
 30
0.0
 10
12.9430601408
 20
-1.8232257629
 30
0.0
 10
13.225959839
 20
-1.9039183712
 30
0.0
 10
13.2558372818
 20
-1.9147189823
 30
0.0
 11
12.3800498147
 21
-1.8967764975
 31
0.0
 11
13.1644093532
 21
-1.8877975665
 31
0.0
 11
13.2558372818
 21
-1.9147189823
 31
0.0
  0
SPLINE
  5
68E
100
AcDbEntity
  8
RACCORDO
100
AcDbSpline
 62
7
  6
CONTINUOUS
 70
0
 71
3
 72
10
 73
6
 74
4
 42
0.0000001
 43
0.0000001
 44
0.0000000001
 12
-0.1883406519
 22
0.1821745431
 32
0.0
 13
-0.1853866352
 23
0.1851798068
 33
0.0
 40
0.0
 40
0.0
 40
0.0
 40
0.0
 40
0.2866167254
 40
0.6201205121
 40
1.0
 40
1.0
 40
1.0
 40
1.0
 10
23.3794383357
 20
-7.568023819
 30
0.0
 10
23.3614444754
 20
-7.550619062
 30
0.0
 10
23.3226534688
 20
-7.5128172459
 30
0.0
 10
23.2604239901
 20
-7.4515277298
 30
0.0
 10
23.2162393748
 20
-7.407593639
 30
0.0
 10
23.1927645148
 20
-7.3841449689
 30
0.0
 11
23.3794383357
 21
-7.568023819
 31
0.0
 11
23.3256294289
 21
-7.515631618
 31
0.0
 11
23.2633555714
 21
-7.4543239213
 31
0.0
 11
23.1927645148
 21
-7.3841449689
 31
0.0
  0
SPLINE
  5
68F
100
AcDbEntity
  8
RACCORDO
100
AcDbSpline
 62
7
  6
CONTINUOUS
 70
0
 71
3
 72
10
 73
6
 74
4
 42
0.0000001
 43
0.0000001
 44
0.0000000001
 12
0.1932247375
 22
0.1319117349
 32
0.0
 13
0.0047953966
 23
0.23390919
 33
0.0
 40
0.0
 40
0.0
 40
0.0
 40
0.0
 40
0.3373558539
 40
0.6687258877
 40
1.0
 40
1.0
 40
1.0
 40
1.0
 10
23.3794383357
 20
-7.568023819
 30
0.0
 10
23.4011668344
 20
-7.553190087
 30
0.0
 10
23.4405491165
 20
-7.5177836992
 30
0.0
 10
23.4815288569
 20
-7.4500288987
 30
0.0
 10
23.4921892931
 20
-7.3981218385
 30
0.0
 10
23.4927188233
 20
-7.3722924854
 30
0.0
 11
23.3794383357
 21
-7.568023819
 31
0.0
 11
23.4378532651
 21
-7.5149465038
 31
0.0
 11
23.4774079566
 21
-7.4482694576
 31
0.0
 11
23.4927188233
 21
-7.3722924854
 31
0.0
  0
SPLINE
  5
690
100
AcDbEntity
  8
RACCORDO
100
AcDbSpline
 62
7
  6
CONTINUOUS
 70
0
 71
3
 72
10
 73
6
 74
4
 42
0.0000001
 43
0.0000001
 44
0.0000000001
 12
0.2111537282
 22
0.0378702165
 32
0.0
 13
0.151821365
 23
0.1515596362
 33
0.0
 40
0.0
 40
0.0
 40
0.0
 40
0.0
 40
0.3429101549
 40
0.6755847515
 40
1.0
 40
1.0
 40
1.0
 40
1.0
 10
23.1927645147
 20
-7.6677348106
 30
0.0
 10
23.2169001006
 20
-7.6634061167
 30
0.0
 10
23.2636316507
 20
-7.6493607065
 30
0.0
 10
23.3265977947
 20
-7.6145928481
 30
0.0
 10
23.3630206137
 20
-7.584413238
 30
0.0
 10
23.3794383357
 20
-7.568023819
 30
0.0
 11
23.1927645147
 21
-7.6677348106
 31
0.0
 11
23.2632595181
 21
-7.6467150255
 31
0.0
 11
23.32584864
 21
-7.612425805
 31
0.0
 11
23.3794383357
 21
-7.568023819
 31
0.0
  0
SPLINE
  5
691
100
AcDbEntity
  8
RACCORDO
100
AcDbSpline
 62
7
  6
CONTINUOUS
 70
0
 71
3
 72
13
 73
9
 74
7
 42
0.0000001
 43
0.0000001
 44
0.0000000001
 12
-0.4360540282
 22
-0.0003592369
 32
0.0
 13
-0.0089035972
 23
0.4359632674
 33
0.0
 40
0.0
 40
0.0
 40
0.0
 40
0.0
 40
0.1762313956
 40
0.3431225387
 40
0.5099732983
 40
0.6748732839
 40
0.8372164229
 40
1.0
 40
1.0
 40
1.0
 40
1.0
 10
-23.460915958
 20
-7.6256886825
 30
0.0
 10
-23.486531428
 20
-7.6257097854
 30
0.0
 10
-23.5365776614
 20
-7.6201522746
 30
0.0
 10
-23.6073392681
 20
-7.5963775899
 30
0.0
 10
-23.6698555754
 20
-7.558408345
 30
0.0
 10
-23.7208724479
 20
-7.5066915903
 30
0.0
 10
-23.7555834109
 20
-7.4433671911
 30
0.0
 10
-23.764549402
 20
-7.3959483721
 30
0.0
 10
-23.7650325218
 20
-7.3722924854
 30
0.0
 11
-23.460915958
 21
-7.6256886825
 31
0.0
 11
-23.537297356
 21
-7.6172473106
 31
0.0
 11
-23.606228038
 21
-7.5939116079
 31
0.0
 11
-23.6682439498
 21
-7.555866136
 31
0.0
 11
-23.7184426569
 21
-7.5043834601
 31
0.0
 11
-23.7520456554
 21
-7.4420768012
 31
0.0
 11
-23.7650325218
 21
-7.3722924854
 31
0.0
  0
SPLINE
  5
692
100
AcDbEntity
  8
RACCORDO
100
AcDbSpline
 62
253
  6
CONTINUOUS
 70
0
 71
3
 72
11
 73
7
 74
5
 42
0.0000001
 43
0.0000001
 44
0.0000000001
 12
-0.0069988224
 22
0.4010844298
 32
0.0
 13
-0.4011302123
 23
0.0035008769
 33
0.0
 40
0.0
 40
0.0
 40
0.0
 40
0.0
 40
0.2095153874
 40
0.4453794694
 40
0.7128570698
 40
1.0
 40
1.0
 40
1.0
 40
1.0
 10
-19.3851016958
 20
5.7969427766
 30
0.0
 10
-19.3855904827
 20
5.8249538965
 30
0.0
 10
-19.404685975
 20
5.8848211286
 30
0.0
 10
-19.4745328647
 20
5.9534755481
 30
0.0
 10
-19.5721382511
 20
5.9980999225
 30
0.0
 10
-19.6466621028
 20
6.0087397269
 30
0.0
 10
-19.6850560043
 20
6.009074811
 30
0.0
 11
-19.3851016958
 21
5.7969427766
 31
0.0
 11
-19.4089876379
 21
5.87752328
 31
0.0
 11
-19.47425302
 21
5.9460257023
 31
0.0
 11
-19.5711153199
 21
5.9921823265
 31
0.0
 11
-19.6850560043
 21
6.009074811
 31
0.0
  0
SPLINE
  5
693
100
AcDbEntity
  8
RACCORDO
100
AcDbSpline
 62
253
  6
CONTINUOUS
 70
0
 71
3
 72
11
 73
7
 74
5
 42
0.0000001
 43
0.0000001
 44
0.0000000001
 12
-0.0069988137
 22
0.401084489
 32
0.0
 13
-0.401130273
 23
0.0035006841
 33
0.0
 40
0.0
 40
0.0
 40
0.0
 40
0.0
 40
0.2095120489
 40
0.4453745127
 40
0.7128531963
 40
1.0
 40
1.0
 40
1.0
 40
1.0
 10
-19.3974442905
 20
5.0898359954
 30
0.0
 10
-19.3979330691
 20
5.1178466731
 30
0.0
 10
-19.4170280072
 20
5.1777132563
 30
0.0
 10
-19.4868739955
 20
5.2463678841
 30
0.0
 10
-19.5844796265
 20
5.2909929471
 30
0.0
 10
-19.6590041739
 20
5.3016329569
 30
0.0
 10
-19.6973985991
 20
5.301968027
 30
0.0
 11
-19.3974442905
 21
5.0898359954
 31
0.0
 11
-19.4213295073
 21
5.1704153299
 31
0.0
 11
-19.4865939311
 21
5.238917788
 31
0.0
 11
-19.583456388
 21
5.2850751292
 31
0.0
 11
-19.6973985991
 21
5.301968027
 31
0.0
  0
SPLINE
  5
694
100
AcDbEntity
  8
RACCORDO
100
AcDbSpline
 62
253
  6
CONTINUOUS
 70
0
 71
3
 72
11
 73
7
 74
5
 42
0.0000001
 43
0.0000001
 44
0.0000000001
 12
0.0069988224
 22
0.4010844293
 32
0.0
 13
0.4011302117
 23
0.0035008838
 33
0.0
 40
0.0
 40
0.0
 40
0.0
 40
0.0
 40
0.2095153873
 40
0.4453794686
 40
0.7128570688
 40
1.0
 40
1.0
 40
1.0
 40
1.0
 10
-20.174869408
 20
5.0898359954
 30
0.0
 10
-20.174380621
 20
5.1178471153
 30
0.0
 10
-20.1552851288
 20
5.1777143472
 30
0.0
 10
-20.085438239
 20
5.2463687664
 30
0.0
 10
-19.9878328524
 20
5.2909931398
 30
0.0
 10
-19.913309001
 20
5.3016329451
 30
0.0
 10
-19.8749150994
 20
5.3019680298
 30
0.0
 11
-20.174869408
 21
5.0898359954
 31
0.0
 11
-20.1509834659
 21
5.1704164986
 31
0.0
 11
-20.0857180837
 21
5.2389189205
 31
0.0
 11
-19.9888557839
 21
5.2850755441
 31
0.0
 11
-19.8749150994
 21
5.3019680298
 31
0.0
  0
SPLINE
  5
695
100
AcDbEntity
  8
RACCORDO
100
AcDbSpline
 62
253
  6
CONTINUOUS
 70
0
 71
3
 72
11
 73
7
 74
5
 42
0.0000001
 43
0.0000001
 44
0.0000000001
 12
0.0069988223
 22
0.4010844284
 32
0.0
 13
0.4011302109
 23
0.003500877
 33
0.0
 40
0.0
 40
0.0
 40
0.0
 40
0.0
 40
0.209515632
 40
0.4453798145
 40
0.7128573246
 40
1.0
 40
1.0
 40
1.0
 40
1.0
 10
-20.1872120027
 20
5.7969427766
 30
0.0
 10
-20.1867232152
 20
5.8249539291
 30
0.0
 10
-20.1676276847
 20
5.884821207
 30
0.0
 10
-20.0977807341
 20
5.9534756118
 30
0.0
 10
-20.0001753658
 20
5.9980999383
 30
0.0
 10
-19.9256515615
 20
6.0087397273
 30
0.0
 10
-19.8872576942
 20
6.009074811
 30
0.0
 11
-20.1872120027
 21
5.7969427766
 31
0.0
 11
-20.1633260088
 21
5.8775233666
 31
0.0
 11
-20.0980605632
 21
5.9460257838
 31
0.0
 11
-20.0011982793
 21
5.9921823562
 31
0.0
 11
-19.8872576942
 21
6.009074811
 31
0.0
  0
SPLINE
  5
696
100
AcDbEntity
  8
RACCORDO
100
AcDbSpline
 62
253
  6
CONTINUOUS
 70
0
 71
3
 72
11
 73
7
 74
5
 42
0.0000001
 43
0.0000001
 44
0.0000000001
 12
0.0069988224
 22
0.4010844293
 32
0.0
 13
0.4011302117
 23
0.0035008838
 33
0.0
 40
0.0
 40
0.0
 40
0.0
 40
0.0
 40
0.2095153873
 40
0.4453794686
 40
0.7128570688
 40
1.0
 40
1.0
 40
1.0
 40
1.0
 10
19.125130592
 20
5.0898359954
 30
0.0
 10
19.125619379
 20
5.1178471153
 30
0.0
 10
19.1447148712
 20
5.1777143472
 30
0.0
 10
19.214561761
 20
5.2463687664
 30
0.0
 10
19.3121671476
 20
5.2909931398
 30
0.0
 10
19.386690999
 20
5.3016329451
 30
0.0
 10
19.4250849006
 20
5.3019680298
 30
0.0
 11
19.125130592
 21
5.0898359954
 31
0.0
 11
19.1490165341
 21
5.1704164986
 31
0.0
 11
19.2142819163
 21
5.2389189205
 31
0.0
 11
19.3111442161
 21
5.2850755441
 31
0.0
 11
19.4250849006
 21
5.3019680298
 31
0.0
  0
SPLINE
  5
697
100
AcDbEntity
  8
RACCORDO
100
AcDbSpline
 62
253
  6
CONTINUOUS
 70
0
 71
3
 72
11
 73
7
 74
5
 42
0.0000001
 43
0.0000001
 44
0.0000000001
 12
0.0069988223
 22
0.4010844284
 32
0.0
 13
0.4011302109
 23
0.003500877
 33
0.0
 40
0.0
 40
0.0
 40
0.0
 40
0.0
 40
0.209515632
 40
0.4453798145
 40
0.7128573246
 40
1.0
 40
1.0
 40
1.0
 40
1.0
 10
19.1127879973
 20
5.7969427766
 30
0.0
 10
19.1132767848
 20
5.8249539291
 30
0.0
 10
19.1323723153
 20
5.884821207
 30
0.0
 10
19.2022192659
 20
5.9534756118
 30
0.0
 10
19.2998246342
 20
5.9980999383
 30
0.0
 10
19.3743484385
 20
6.0087397273
 30
0.0
 10
19.4127423058
 20
6.009074811
 30
0.0
 11
19.1127879973
 21
5.7969427766
 31
0.0
 11
19.1366739912
 21
5.8775233666
 31
0.0
 11
19.2019394368
 21
5.9460257838
 31
0.0
 11
19.2988017207
 21
5.9921823562
 31
0.0
 11
19.4127423058
 21
6.009074811
 31
0.0
  0
SPLINE
  5
698
100
AcDbEntity
  8
RACCORDO
100
AcDbSpline
 62
7
  6
CONTINUOUS
 70
0
 71
3
 72
12
 73
8
 74
6
 42
0.0000001
 43
0.0000001
 44
0.0000000001
 12
0.3000739778
 22
-0.0
 32
0.0
 13
0.212185585
 23
0.2121831041
 33
0.0
 40
0.0
 40
0.0
 40
0.0
 40
0.0
 40
0.3053475036
 40
0.5820489604
 40
0.8022991747
 40
0.9467217969
 40
1.0
 40
1.0
 40
1.0
 40
1.0
 10
23.191156871
 20
-4.8630055104
 30
0.0
 10
23.221699151
 20
-4.8630055104
 30
0.0
 10
23.2800734687
 20
-4.8631370261
 30
0.0
 10
23.3597203216
 20
-4.8613740184
 30
0.0
 10
23.4254175788
 20
-4.8631978033
 30
0.0
 10
23.4641696967
 20
-4.856469727
 30
0.0
 10
23.487345776
 20
-4.8616286895
 30
0.0
 10
23.4911140649
 20
-4.8578604447
 30
0.0
 11
23.191156871
 21
-4.8630055104
 31
0.0
 11
23.2827833694
 21
-4.8627553003
 31
0.0
 11
23.3658110786
 21
-4.8620266204
 31
0.0
 11
23.4318927271
 21
-4.8608937776
 31
0.0
 11
23.475206272
 21
-4.8594539181
 31
0.0
 11
23.4911140649
 21
-4.8578604447
 31
0.0
  0
SPLINE
  5
699
100
AcDbEntity
  8
RACCORDO
100
AcDbSpline
 62
7
  6
CONTINUOUS
 70
0
 71
3
 72
12
 73
8
 74
6
 42
0.0000001
 43
0.0000001
 44
0.0000000001
 12
0.212185585
 22
-0.2121831041
 32
0.0
 13
0.3000739778
 23
0.0
 33
0.0
 40
0.0
 40
0.0
 40
0.0
 40
0.0
 40
0.0532782031
 40
0.1977008253
 40
0.4179510396
 40
0.6946524964
 40
1.0
 40
1.0
 40
1.0
 40
1.0
 10
-23.7634277634
 20
-4.8578604447
 30
0.0
 10
-23.7596594745
 20
-4.8616286895
 30
0.0
 10
-23.7364833952
 20
-4.856469727
 30
0.0
 10
-23.6977312773
 20
-4.8631978033
 30
0.0
 10
-23.6320340201
 20
-4.8613740184
 30
0.0
 10
-23.5523871672
 20
-4.8631370261
 30
0.0
 10
-23.4940128495
 20
-4.8630055104
 30
0.0
 10
-23.4634705695
 20
-4.8630055104
 30
0.0
 11
-23.7634277634
 21
-4.8578604447
 31
0.0
 11
-23.7475199705
 21
-4.8594539181
 31
0.0
 11
-23.7042064256
 21
-4.8608937776
 31
0.0
 11
-23.6381247771
 21
-4.8620266204
 31
0.0
 11
-23.5550970678
 21
-4.8627553003
 31
0.0
 11
-23.4634705695
 21
-4.8630055104
 31
0.0
  0
SPLINE
  5
69A
100
AcDbEntity
  8
RACCORDO
100
AcDbSpline
 62
7
  6
CONTINUOUS
 70
0
 71
3
 72
12
 73
8
 74
6
 42
0.0000001
 43
0.0000001
 44
0.0000000001
 12
-0.2121858917
 22
0.2121865075
 32
0.0
 13
-0.3000766013
 23
0.0
 33
0.0
 40
0.0
 40
0.0
 40
0.0
 40
0.0
 40
0.0533078243
 40
0.1977742039
 40
0.4180472247
 40
0.6947316031
 40
1.0
 40
1.0
 40
1.0
 40
1.0
 10
23.489171922
 20
-1.0291545716
 30
0.0
 10
23.4854015325
 20
-1.0253841712
 30
0.0
 10
23.4622166087
 20
-1.0305438777
 30
0.0
 10
23.4234551053
 20
-1.0238145479
 30
0.0
 10
23.3577524117
 20
-1.0256372265
 30
0.0
 10
23.2781120297
 20
-1.0238743738
 30
0.0
 10
23.2197468987
 20
-1.0240056644
 30
0.0
 10
23.1892122643
 20
-1.0240056644
 30
0.0
 11
23.489171922
 21
-1.0291545716
 31
0.0
 11
23.4732552152
 21
-1.0275595038
 31
0.0
 11
23.4299281917
 21
-1.02611849
 31
0.0
 11
23.3638391328
 21
-1.0249849404
 31
0.0
 11
23.2808158255
 21
-1.0242559319
 31
0.0
 11
23.1892122643
 21
-1.0240056644
 31
0.0
  0
SPLINE
  5
69B
100
AcDbEntity
  8
RACCORDO
100
AcDbSpline
 62
7
  6
CONTINUOUS
 70
0
 71
3
 72
12
 73
8
 74
6
 42
0.0000001
 43
0.0000001
 44
0.0000000001
 12
-0.3000766013
 22
-0.0
 32
0.0
 13
-0.2121858917
 23
-0.2121865075
 33
0.0
 40
0.0
 40
0.0
 40
0.0
 40
0.0
 40
0.3052683969
 40
0.5819527753
 40
0.8022257961
 40
0.9466921757
 40
1.0
 40
1.0
 40
1.0
 40
1.0
 10
-23.4615259628
 20
-1.0240056644
 30
0.0
 10
-23.4920605971
 20
-1.0240056644
 30
0.0
 10
-23.5504257282
 20
-1.0238743738
 30
0.0
 10
-23.6300661102
 20
-1.0256372265
 30
0.0
 10
-23.6957688038
 20
-1.0238145479
 30
0.0
 10
-23.7345303072
 20
-1.0305438777
 30
0.0
 10
-23.757715231
 20
-1.0253841712
 30
0.0
 10
-23.7614856204
 20
-1.0291545716
 30
0.0
 11
-23.4615259628
 21
-1.0240056644
 31
0.0
 11
-23.553129524
 21
-1.0242559319
 31
0.0
 11
-23.6361528313
 21
-1.0249849404
 31
0.0
 11
-23.7022418902
 21
-1.02611849
 31
0.0
 11
-23.7455689136
 21
-1.0275595038
 31
0.0
 11
-23.7614856204
 21
-1.0291545716
 31
0.0
  0
SPLINE
  5
69C
100
AcDbEntity
  8
RACCORDO
100
AcDbSpline
 62
7
  6
CONTINUOUS
 70
0
 71
3
 72
12
 73
8
 74
6
 42
0.0000001
 43
0.0000001
 44
0.0000000001
 12
0.2121856603
 22
-0.2121849679
 32
0.0
 13
0.300075349
 23
0.0
 33
0.0
 40
0.0
 40
0.0
 40
0.0
 40
0.0
 40
0.0532816106
 40
0.1977093993
 40
0.417962435
 40
0.694661992
 40
1.0
 40
1.0
 40
1.0
 40
1.0
 10
-23.7646821105
 20
-6.8566060976
 30
0.0
 10
-23.7609135793
 20
-6.8603746165
 30
0.0
 10
-23.7377363557
 20
-6.8552155181
 30
0.0
 10
-23.6989830159
 20
-6.8619437954
 30
0.0
 10
-23.633284845
 20
-6.860120117
 30
0.0
 10
-23.553638471
 20
-6.8618831195
 30
0.0
 10
-23.495265034
 20
-6.8617516278
 30
0.0
 10
-23.4647235643
 20
-6.8617516278
 30
0.0
 11
-23.7646821105
 21
-6.8566060976
 31
0.0
 11
-23.7487732355
 21
-6.85819976
 31
0.0
 11
-23.7054579459
 21
-6.8596397592
 31
0.0
 11
-23.6393751501
 21
-6.8607726892
 31
0.0
 11
-23.5563476319
 21
-6.8615014106
 31
0.0
 11
-23.4647235643
 21
-6.8617516278
 31
0.0
  0
SPLINE
  5
69D
100
AcDbEntity
  8
RACCORDO
100
AcDbSpline
 62
7
  6
CONTINUOUS
 70
0
 71
3
 72
12
 73
8
 74
6
 42
0.0000001
 43
0.0000001
 44
0.0000000001
 12
-0.3000816659
 22
0.0
 32
0.0
 13
-0.2121905985
 23
-0.2121889631
 33
0.0
 40
0.0
 40
0.0
 40
0.0
 40
0.0
 40
0.305206335
 40
0.5818776397
 40
0.8021687507
 40
0.9466692379
 40
1.0
 40
1.0
 40
1.0
 40
1.0
 10
-23.4642436263
 20
-6.1267252533
 30
0.0
 10
-23.4947725681
 20
-6.1267252533
 30
0.0
 10
-23.5531311051
 20
-6.1265941432
 30
0.0
 10
-23.6327672749
 20
-6.1283568796
 30
0.0
 10
-23.6984748842
 20
-6.1265350679
 30
0.0
 10
-23.7372441891
 20
-6.133265377
 30
0.0
 10
-23.7604361293
 20
-6.1281051095
 30
0.0
 10
-23.7642082248
 20
-6.1318771759
 30
0.0
 11
-23.4642436263
 21
-6.1267252533
 31
0.0
 11
-23.5558301097
 21
-6.1269755695
 31
0.0
 11
-23.6388508927
 21
-6.12770484
 31
0.0
 11
-23.7049464871
 21
-6.1288389483
 31
0.0
 11
-23.7482844533
 21
-6.1302808675
 31
0.0
 11
-23.7642082248
 21
-6.1318771759
 31
0.0
  0
SPLINE
  5
69E
100
AcDbEntity
  8
RACCORDO
100
AcDbSpline
 62
7
  6
CONTINUOUS
 70
0
 71
3
 72
12
 73
8
 74
6
 42
0.0000001
 43
0.0000001
 44
0.0000000001
 12
0.2121821519
 22
-0.2121827803
 32
0.0
 13
0.3000713213
 23
-0.0
 33
0.0
 40
0.0
 40
0.0
 40
0.0
 40
0.0
 40
0.0532731
 40
0.1976880308
 40
0.4179339921
 40
0.6946382695
 40
1.0
 40
1.0
 40
1.0
 40
1.0
 10
-23.7606880392
 20
1.0393998311
 30
0.0
 10
-23.7569201722
 20
1.0356319529
 30
0.0
 10
-23.733745732
 20
1.0407908023
 30
0.0
 10
-23.6949956236
 20
1.0340629437
 30
0.0
 10
-23.629299815
 20
1.0358869284
 30
0.0
 10
-23.5496524299
 20
1.0341238958
 30
0.0
 10
-23.491276907
 20
1.0342554552
 30
0.0
 10
-23.4607334744
 20
1.0342554552
 30
0.0
 11
-23.7606880392
 21
1.0393998311
 31
0.0
 11
-23.7447818996
 21
1.0378066359
 31
0.0
 11
-23.7014710409
 21
1.036366983
 31
0.0
 11
-23.6353912519
 21
1.03523427
 31
0.0
 11
-23.5523634307
 21
1.0345056522
 31
0.0
 11
-23.4607334744
 21
1.0342554552
 31
0.0
  0
SPLINE
  5
69F
100
AcDbEntity
  8
RACCORDO
100
AcDbSpline
 62
7
  6
CONTINUOUS
 70
0
 71
3
 72
12
 73
8
 74
6
 42
0.0000001
 43
0.0000001
 44
0.0000000001
 12
-0.3000744827
 22
-0.0
 32
0.0
 13
-0.2121844225
 23
-0.2121849807
 33
0.0
 40
0.0
 40
0.0
 40
0.0
 40
0.0
 40
0.3052957572
 40
0.5819859076
 40
0.8022509535
 40
0.9467022877
 40
1.0
 40
1.0
 40
1.0
 40
1.0
 10
-23.460490338
 20
1.7770306942
 30
0.0
 10
-23.4910274935
 20
1.7770306942
 30
0.0
 10
-23.5493955536
 20
1.777162063
 30
0.0
 10
-23.6290378273
 20
1.7753991621
 30
0.0
 10
-23.6947383693
 20
1.7772222155
 30
0.0
 10
-23.7334964663
 20
1.7704933325
 30
0.0
 10
-23.7566782837
 20
1.7756527751
 30
0.0
 10
-23.7604479318
 20
1.7718831171
 30
0.0
 11
-23.460490338
 21
1.7770306942
 31
0.0
 11
-23.5521014626
 21
1.7767804477
 31
0.0
 11
-23.6351259169
 21
1.7760515548
 31
0.0
 11
-23.7012121199
 21
1.7749182515
 31
0.0
 11
-23.7445343331
 21
1.7734776372
 31
0.0
 11
-23.7604479318
 21
1.7718831171
 31
0.0
  0
SPLINE
  5
6A0
100
AcDbEntity
  8
RACCORDO
100
AcDbSpline
 62
7
  6
CONTINUOUS
 70
0
 71
3
 72
12
 73
8
 74
6
 42
0.0000001
 43
0.0000001
 44
0.0000000001
 12
-0.2121905985
 22
0.2121889632
 32
0.0
 13
-0.3000816659
 23
-0.0
 33
0.0
 40
0.0
 40
0.0
 40
0.0
 40
0.0
 40
0.0533307621
 40
0.1978312493
 40
0.4181223603
 40
0.694793665
 40
1.0
 40
1.0
 40
1.0
 40
1.0
 10
23.4918945263
 20
-6.1318771759
 30
0.0
 10
23.4881224308
 20
-6.1281051095
 30
0.0
 10
23.4649304906
 20
-6.133265377
 30
0.0
 10
23.4261611857
 20
-6.1265350679
 30
0.0
 10
23.3604535764
 20
-6.1283568796
 30
0.0
 10
23.2808174067
 20
-6.1265941432
 30
0.0
 10
23.2224588696
 20
-6.1267252533
 30
0.0
 10
23.1919299278
 20
-6.1267252533
 30
0.0
 11
23.4918945263
 21
-6.1318771759
 31
0.0
 11
23.4759707548
 21
-6.1302808675
 31
0.0
 11
23.4326327887
 21
-6.1288389483
 31
0.0
 11
23.3665371942
 21
-6.12770484
 31
0.0
 11
23.2835164112
 21
-6.1269755695
 31
0.0
 11
23.1919299278
 21
-6.1267252533
 31
0.0
  0
SPLINE
  5
6A1
100
AcDbEntity
  8
RACCORDO
100
AcDbSpline
 62
7
  6
CONTINUOUS
 70
0
 71
3
 72
12
 73
8
 74
6
 42
0.0000001
 43
0.0000001
 44
0.0000000001
 12
0.300075349
 22
-0.0
 32
0.0
 13
0.2121856603
 23
0.2121849679
 33
0.0
 40
0.0
 40
0.0
 40
0.0
 40
0.0
 40
0.305338008
 40
0.582037565
 40
0.8022906007
 40
0.9467183894
 40
1.0
 40
1.0
 40
1.0
 40
1.0
 10
23.1924098658
 20
-6.8617516278
 30
0.0
 10
23.2229513355
 20
-6.8617516278
 30
0.0
 10
23.2813247726
 20
-6.8618831195
 30
0.0
 10
23.3609711465
 20
-6.860120117
 30
0.0
 10
23.4266693174
 20
-6.8619437954
 30
0.0
 10
23.4654226572
 20
-6.8552155181
 30
0.0
 10
23.4885998808
 20
-6.8603746165
 30
0.0
 10
23.492368412
 20
-6.8566060976
 30
0.0
 11
23.1924098658
 21
-6.8617516278
 31
0.0
 11
23.2840339334
 21
-6.8615014106
 31
0.0
 11
23.3670614516
 21
-6.8607726892
 31
0.0
 11
23.4331442474
 21
-6.8596397592
 31
0.0
 11
23.476459537
 21
-6.85819976
 31
0.0
 11
23.492368412
 21
-6.8566060976
 31
0.0
  0
SPLINE
  5
6A2
100
AcDbEntity
  8
RACCORDO
100
AcDbSpline
 62
7
  6
CONTINUOUS
 70
0
 71
3
 72
12
 73
8
 74
6
 42
0.0000001
 43
0.0000001
 44
0.0000000001
 12
-0.2121844225
 22
0.2121849807
 32
0.0
 13
-0.3000744827
 23
0.0
 33
0.0
 40
0.0
 40
0.0
 40
0.0
 40
0.0
 40
0.0532977123
 40
0.1977490465
 40
0.4180140924
 40
0.6947042428
 40
1.0
 40
1.0
 40
1.0
 40
1.0
 10
23.4881342333
 20
1.7718831171
 30
0.0
 10
23.4843645852
 20
1.7756527751
 30
0.0
 10
23.4611827678
 20
1.7704933325
 30
0.0
 10
23.4224246708
 20
1.7772222155
 30
0.0
 10
23.3567241288
 20
1.7753991621
 30
0.0
 10
23.2770818551
 20
1.777162063
 30
0.0
 10
23.218713795
 20
1.7770306942
 30
0.0
 10
23.1881766395
 20
1.7770306942
 30
0.0
 11
23.4881342333
 21
1.7718831171
 31
0.0
 11
23.4722206347
 21
1.7734776372
 31
0.0
 11
23.4288984214
 21
1.7749182515
 31
0.0
 11
23.3628122184
 21
1.7760515548
 31
0.0
 11
23.2797877641
 21
1.7767804477
 31
0.0
 11
23.1881766395
 21
1.7770306942
 31
0.0
  0
SPLINE
  5
6A3
100
AcDbEntity
  8
RACCORDO
100
AcDbSpline
 62
7
  6
CONTINUOUS
 70
0
 71
3
 72
12
 73
8
 74
6
 42
0.0000001
 43
0.0000001
 44
0.0000000001
 12
0.3000713213
 22
0.0
 32
0.0
 13
0.2121821519
 23
0.2121827803
 33
0.0
 40
0.0
 40
0.0
 40
0.0
 40
0.0
 40
0.3053617305
 40
0.5820660079
 40
0.8023119692
 40
0.9467269
 40
1.0
 40
1.0
 40
1.0
 40
1.0
 10
23.1884197759
 20
1.0342554552
 30
0.0
 10
23.2189632085
 20
1.0342554552
 30
0.0
 10
23.2773387314
 20
1.0341238958
 30
0.0
 10
23.3569861165
 20
1.0358869284
 30
0.0
 10
23.4226819251
 20
1.0340629437
 30
0.0
 10
23.4614320335
 20
1.0407908023
 30
0.0
 10
23.4846064737
 20
1.0356319529
 30
0.0
 10
23.4883743407
 20
1.0393998311
 30
0.0
 11
23.1884197759
 21
1.0342554552
 31
0.0
 11
23.2800497322
 21
1.0345056522
 31
0.0
 11
23.3630775534
 21
1.03523427
 31
0.0
 11
23.4291573425
 21
1.036366983
 31
0.0
 11
23.4724682011
 21
1.0378066359
 31
0.0
 11
23.4883743407
 21
1.0393998311
 31
0.0
  0
SPLINE
  5
6A4
100
AcDbEntity
  8
RACCORDO
100
AcDbSpline
 62
253
  6
CONTINUOUS
 70
0
 71
3
 72
11
 73
7
 74
5
 42
0.0000001
 43
0.0000001
 44
0.0000000001
 12
-0.0069988224
 22
0.4010844298
 32
0.0
 13
-0.4011302123
 23
0.0035008769
 33
0.0
 40
0.0
 40
0.0
 40
0.0
 40
0.0
 40
0.2095153874
 40
0.4453794694
 40
0.7128570698
 40
1.0
 40
1.0
 40
1.0
 40
1.0
 10
19.9148983042
 20
5.7969427766
 30
0.0
 10
19.9144095173
 20
5.8249538965
 30
0.0
 10
19.895314025
 20
5.8848211286
 30
0.0
 10
19.8254671353
 20
5.9534755481
 30
0.0
 10
19.7278617489
 20
5.9980999225
 30
0.0
 10
19.6533378972
 20
6.0087397269
 30
0.0
 10
19.6149439957
 20
6.009074811
 30
0.0
 11
19.9148983042
 21
5.7969427766
 31
0.0
 11
19.8910123621
 21
5.87752328
 31
0.0
 11
19.82574698
 21
5.9460257023
 31
0.0
 11
19.7288846801
 21
5.9921823265
 31
0.0
 11
19.6149439957
 21
6.009074811
 31
0.0
  0
SPLINE
  5
6A5
100
AcDbEntity
  8
RACCORDO
100
AcDbSpline
 62
253
  6
CONTINUOUS
 70
0
 71
3
 72
11
 73
7
 74
5
 42
0.0000001
 43
0.0000001
 44
0.0000000001
 12
-0.0069988137
 22
0.401084489
 32
0.0
 13
-0.401130273
 23
0.0035006841
 33
0.0
 40
0.0
 40
0.0
 40
0.0
 40
0.0
 40
0.2095120489
 40
0.4453745127
 40
0.7128531963
 40
1.0
 40
1.0
 40
1.0
 40
1.0
 10
19.9025557095
 20
5.0898359954
 30
0.0
 10
19.9020669309
 20
5.1178466731
 30
0.0
 10
19.8829719928
 20
5.1777132563
 30
0.0
 10
19.8131260045
 20
5.2463678841
 30
0.0
 10
19.7155203735
 20
5.2909929471
 30
0.0
 10
19.6409958261
 20
5.3016329569
 30
0.0
 10
19.6026014009
 20
5.301968027
 30
0.0
 11
19.9025557095
 21
5.0898359954
 31
0.0
 11
19.8786704927
 21
5.1704153299
 31
0.0
 11
19.8134060689
 21
5.238917788
 31
0.0
 11
19.716543612
 21
5.2850751292
 31
0.0
 11
19.6026014009
 21
5.301968027
 31
0.0
  0
SPLINE
  5
6A6
100
AcDbEntity
  8
RACCORDO
100
AcDbSpline
 62
253
  6
CONTINUOUS
 70
0
 71
3
 72
12
 73
8
 74
6
 42
0.0000001
 43
0.0000001
 44
0.0000000001
 12
0.188162755
 22
0.4631952088
 32
0.0
 13
0.000001281
 23
0.4999550218
 33
0.0
 40
0.0
 40
0.0
 40
0.0
 40
0.0
 40
0.0533471248
 40
0.1972618061
 40
0.417998053
 40
0.6944311848
 40
1.0
 40
1.0
 40
1.0
 40
1.0
 10
19.4226773082
 20
3.0644012693
 30
0.0
 10
19.4260232889
 20
3.0726379801
 30
0.0
 10
19.4206929735
 20
3.1069594191
 30
0.0
 10
19.42685181
 20
3.1753264649
 30
0.0
 10
19.424772461
 20
3.2828222498
 30
0.0
 10
19.4262811751
 20
3.416344048
 30
0.0
 10
19.4261072641
 20
3.5134015623
 30
0.0
 10
19.4261073946
 20
3.5643251169
 30
0.0
 11
19.4226773082
 21
3.0644012693
 31
0.0
 11
19.4237426602
 21
3.0910511465
 31
0.0
 11
19.424698819
 21
3.1629956607
 31
0.0
 11
19.4254551817
 21
3.2733512638
 31
0.0
 11
19.4259404142
 21
3.4115545444
 31
0.0
 11
19.4261073946
 21
3.5643251169
 31
0.0
  0
SPLINE
  5
6A7
100
AcDbEntity
  8
RACCORDO
100
AcDbSpline
 62
253
  6
CONTINUOUS
 70
0
 71
3
 72
12
 73
8
 74
6
 42
0.0000001
 43
0.0000001
 44
0.0000000001
 12
0.000001281
 22
-0.4999550218
 32
0.0
 13
0.1881627568
 23
-0.4631952081
 33
0.0
 40
0.0
 40
0.0
 40
0.0
 40
0.0
 40
0.305568815
 40
0.5820019468
 40
0.8027381938
 40
0.9466528751
 40
1.0
 40
1.0
 40
1.0
 40
1.0
 10
19.6015789069
 20
3.5643251169
 30
0.0
 10
19.6015790374
 20
3.5134015623
 30
0.0
 10
19.6014051264
 20
3.4163440481
 30
0.0
 10
19.6029138405
 20
3.2828222499
 30
0.0
 10
19.6008344915
 20
3.175326465
 30
0.0
 10
19.606993328
 20
3.1069594191
 30
0.0
 10
19.6016630126
 20
3.0726379801
 30
0.0
 10
19.6050089933
 20
3.0644012693
 30
0.0
 11
19.6015789069
 21
3.5643251169
 31
0.0
 11
19.6017458873
 21
3.4115545445
 31
0.0
 11
19.6022311198
 21
3.2733512639
 31
0.0
 11
19.6029874825
 21
3.1629956607
 31
0.0
 11
19.6039436413
 21
3.0910511466
 31
0.0
 11
19.6050089933
 21
3.0644012693
 31
0.0
  0
SPLINE
  5
6A8
100
AcDbEntity
  8
RACCORDO
100
AcDbSpline
 62
253
  6
CONTINUOUS
 70
0
 71
3
 72
12
 73
8
 74
6
 42
0.0000001
 43
0.0000001
 44
0.0000000001
 12
0.000001281
 22
-0.4999550218
 32
0.0
 13
0.1881627568
 23
-0.4631952081
 33
0.0
 40
0.0
 40
0.0
 40
0.0
 40
0.0
 40
0.305568815
 40
0.5820019468
 40
0.8027381938
 40
0.9466528751
 40
1.0
 40
1.0
 40
1.0
 40
1.0
 10
-19.6984210931
 20
3.5643251169
 30
0.0
 10
-19.6984209626
 20
3.5134015623
 30
0.0
 10
-19.6985948736
 20
3.4163440481
 30
0.0
 10
-19.6970861595
 20
3.2828222499
 30
0.0
 10
-19.6991655085
 20
3.175326465
 30
0.0
 10
-19.693006672
 20
3.1069594191
 30
0.0
 10
-19.6983369874
 20
3.0726379801
 30
0.0
 10
-19.6949910067
 20
3.0644012693
 30
0.0
 11
-19.6984210931
 21
3.5643251169
 31
0.0
 11
-19.6982541127
 21
3.4115545445
 31
0.0
 11
-19.6977688802
 21
3.2733512639
 31
0.0
 11
-19.6970125175
 21
3.1629956607
 31
0.0
 11
-19.6960563587
 21
3.0910511466
 31
0.0
 11
-19.6949910067
 21
3.0644012693
 31
0.0
  0
SPLINE
  5
6A9
100
AcDbEntity
  8
RACCORDO
100
AcDbSpline
 62
253
  6
CONTINUOUS
 70
0
 71
3
 72
12
 73
8
 74
6
 42
0.0000001
 43
0.0000001
 44
0.0000000001
 12
0.188162755
 22
0.4631952088
 32
0.0
 13
0.000001281
 23
0.4999550218
 33
0.0
 40
0.0
 40
0.0
 40
0.0
 40
0.0
 40
0.0533471248
 40
0.1972618061
 40
0.417998053
 40
0.6944311848
 40
1.0
 40
1.0
 40
1.0
 40
1.0
 10
-19.8773226918
 20
3.0644012693
 30
0.0
 10
-19.8739767111
 20
3.0726379801
 30
0.0
 10
-19.8793070265
 20
3.1069594191
 30
0.0
 10
-19.87314819
 20
3.1753264649
 30
0.0
 10
-19.875227539
 20
3.2828222498
 30
0.0
 10
-19.8737188249
 20
3.416344048
 30
0.0
 10
-19.8738927359
 20
3.5134015623
 30
0.0
 10
-19.8738926054
 20
3.5643251169
 30
0.0
 11
-19.8773226918
 21
3.0644012693
 31
0.0
 11
-19.8762573398
 21
3.0910511465
 31
0.0
 11
-19.875301181
 21
3.1629956607
 31
0.0
 11
-19.8745448183
 21
3.2733512638
 31
0.0
 11
-19.8740595858
 21
3.4115545444
 31
0.0
 11
-19.8738926054
 21
3.5643251169
 31
0.0
  0
SPLINE
  5
6AA
100
AcDbEntity
  8
RACCORDO
100
AcDbSpline
 62
253
  6
CONTINUOUS
 70
0
 71
3
 72
11
 73
7
 74
5
 42
0.0000001
 43
0.0000001
 44
0.0000000001
 12
-0.0098689072
 22
0.3534493123
 32
0.0
 13
-0.0000004971
 23
0.3535870638
 33
0.0
 40
0.0
 40
0.0
 40
0.0
 40
0.0
 40
0.2035823994
 40
0.4531925193
 40
0.7278954329
 40
1.0
 40
1.0
 40
1.0
 40
1.0
 10
19.4127420265
 20
6.0090859136
 30
0.0
 10
19.4120723145
 20
6.0330712666
 30
0.0
 10
19.410872552
 20
6.0864729593
 30
0.0
 10
19.4096038399
 20
6.172255676
 30
0.0
 10
19.408823919
 20
6.2661206755
 30
0.0
 10
19.4086523438
 20
6.3305688231
 30
0.0
 10
19.4086522987
 20
6.362639708
 30
0.0
 11
19.4127420265
 21
6.0090859136
 31
0.0
 11
19.4110771112
 21
6.08105076
 31
0.0
 11
19.4097383284
 21
6.1692995149
 31
0.0
 11
19.4089132176
 21
6.2664274069
 31
0.0
 11
19.4086522987
 21
6.362639708
 31
0.0
  0
SPLINE
  5
6AB
100
AcDbEntity
  8
RACCORDO
100
AcDbSpline
 62
253
  6
CONTINUOUS
 70
0
 71
3
 72
11
 73
7
 74
5
 42
0.0000001
 43
0.0000001
 44
0.0000000001
 12
-0.0000004828
 22
-0.3535861826
 32
0.0
 13
-0.0098690566
 23
-0.3534484266
 33
0.0
 40
0.0
 40
0.0
 40
0.0
 40
0.0
 40
0.2713497641
 40
0.5458509931
 40
0.7957709277
 40
1.0
 40
1.0
 40
1.0
 40
1.0
 10
19.6190340019
 20
6.3626393776
 30
0.0
 10
19.6190339582
 20
6.3306575352
 30
0.0
 10
19.6188631421
 20
6.2663222832
 30
0.0
 10
19.6180856078
 20
6.1725337201
 30
0.0
 10
19.6168175486
 20
6.0866622358
 30
0.0
 10
19.6156161382
 20
6.0331479449
 30
0.0
 10
19.6149442888
 20
6.0090864635
 30
0.0
 11
19.6190340019
 21
6.3626393776
 31
0.0
 11
19.6187745404
 21
6.2666942012
 31
0.0
 11
19.6179519299
 21
6.1696378455
 31
0.0
 11
19.6166135499
 21
6.0812797457
 31
0.0
 11
19.6149442888
 21
6.0090864635
 31
0.0
  0
SPLINE
  5
6AC
100
AcDbEntity
  8
RACCORDO
100
AcDbSpline
 62
253
  6
CONTINUOUS
 70
0
 71
3
 72
9
 73
5
 74
3
 42
0.0000001
 43
0.0000001
 44
0.0000000001
 12
0.0053452793
 22
-1.6468770511
 32
0.0
 13
0.0076765735
 23
-1.6468678343
 33
0.0
 40
0.0
 40
0.0
 40
0.0
 40
0.0
 40
0.5000137269
 40
1.0
 40
1.0
 40
1.0
 40
1.0
 10
-4.3781038883
 20
5.5791139197
 30
0.0
 10
-4.3772129839
 20
5.3046268757
 30
0.0
 10
-4.3752369031
 20
4.7556684722
 30
0.0
 10
-4.372872367
 20
4.2067116045
 30
0.0
 10
-4.3715929732
 20
3.9322411676
 30
0.0
 11
-4.3781038883
 21
5.5791139197
 31
0.0
 11
-4.3751397297
 21
4.7556537852
 31
0.0
 11
-4.3715929732
 21
3.9322411676
 31
0.0
  0
SPLINE
  5
6AD
100
AcDbEntity
  8
RACCORDO
100
AcDbSpline
 62
253
  6
CONTINUOUS
 70
0
 71
3
 72
9
 73
5
 74
3
 42
0.0000001
 43
0.0000001
 44
0.0000000001
 12
0.0076765735
 22
1.6468678343
 32
0.0
 13
0.0053452793
 23
1.6468770511
 33
0.0
 40
0.0
 40
0.0
 40
0.0
 40
0.0
 40
0.499986712
 40
1.0
 40
1.0
 40
1.0
 40
1.0
 10
4.0992792747
 20
3.9322411676
 30
0.0
 10
4.1005586697
 20
4.2067118455
 30
0.0
 10
4.1029232056
 20
4.7556687132
 30
0.0
 10
4.1048992862
 20
5.3046271166
 30
0.0
 10
4.1057901898
 20
5.5791139197
 30
0.0
 11
4.0992792747
 21
3.9322411676
 31
0.0
 11
4.1028260341
 21
4.755654508
 31
0.0
 11
4.1057901898
 21
5.5791139197
 31
0.0
  0
SPLINE
  5
6AE
100
AcDbEntity
  8
RACCORDO
100
AcDbSpline
 62
253
  6
CONTINUOUS
 70
0
 71
3
 72
11
 73
7
 74
5
 42
0.0000001
 43
0.0000001
 44
0.0000000001
 12
-0.0000004828
 22
-0.3535861826
 32
0.0
 13
-0.0098690566
 23
-0.3534484266
 33
0.0
 40
0.0
 40
0.0
 40
0.0
 40
0.0
 40
0.2713497641
 40
0.5458509931
 40
0.7957709277
 40
1.0
 40
1.0
 40
1.0
 40
1.0
 10
-19.6809659981
 20
6.3626393776
 30
0.0
 10
-19.6809660418
 20
6.3306575352
 30
0.0
 10
-19.6811368579
 20
6.2663222832
 30
0.0
 10
-19.6819143922
 20
6.1725337201
 30
0.0
 10
-19.6831824514
 20
6.0866622358
 30
0.0
 10
-19.6843838618
 20
6.0331479449
 30
0.0
 10
-19.6850557112
 20
6.0090864635
 30
0.0
 11
-19.6809659981
 21
6.3626393776
 31
0.0
 11
-19.6812254596
 21
6.2666942012
 31
0.0
 11
-19.6820480701
 21
6.1696378455
 31
0.0
 11
-19.6833864501
 21
6.0812797457
 31
0.0
 11
-19.6850557112
 21
6.0090864635
 31
0.0
  0
SPLINE
  5
6AF
100
AcDbEntity
  8
RACCORDO
100
AcDbSpline
 62
253
  6
CONTINUOUS
 70
0
 71
3
 72
11
 73
7
 74
5
 42
0.0000001
 43
0.0000001
 44
0.0000000001
 12
-0.0098905691
 22
0.5656197527
 32
0.0
 13
-0.0000105791
 23
0.5657062205
 33
0.0
 40
0.0
 40
0.0
 40
0.0
 40
0.0
 40
0.203753628
 40
0.4534050995
 40
0.7280845227
 40
1.0
 40
1.0
 40
1.0
 40
1.0
 10
19.1127879973
 20
5.7969427766
 30
0.0
 10
19.1121162508
 20
5.8353584688
 30
0.0
 10
19.1109182032
 20
5.9208486314
 30
0.0
 10
19.1096487762
 20
6.0581371268
 30
0.0
 10
19.1088691662
 20
6.2082826508
 30
0.0
 10
19.10869898
 20
6.3113534426
 30
0.0
 10
19.1086980211
 20
6.3626282016
 30
0.0
 11
19.1127879973
 21
5.7969427766
 31
0.0
 11
19.1111217799
 21
5.9121954277
 31
0.0
 11
19.1097832762
 21
6.0534184752
 31
0.0
 11
19.1089586322
 21
6.2088041453
 31
0.0
 11
19.1086980211
 21
6.3626282016
 31
0.0
  0
SPLINE
  5
6B0
100
AcDbEntity
  8
RACCORDO
100
AcDbSpline
 62
253
  6
CONTINUOUS
 70
0
 71
3
 72
10
 73
6
 74
4
 42
0.0000001
 43
0.0000001
 44
0.0000000001
 12
0.000000142
 22
0.1414264683
 32
0.0
 13
-0.0024701873
 23
0.1414048942
 33
0.0
 40
0.0
 40
0.0
 40
0.0
 40
0.0
 40
0.3658056966
 40
0.7062804612
 40
1.0
 40
1.0
 40
1.0
 40
1.0
 10
19.1261530861
 20
4.9484146392
 30
0.0
 10
19.1261531034
 20
4.9656595084
 30
0.0
 10
19.1260793196
 20
4.9989551618
 30
0.0
 10
19.1257509014
 20
5.0460963155
 30
0.0
 10
19.1253724395
 20
5.0759915353
 30
0.0
 10
19.125130592
 20
5.0898359954
 30
0.0
 11
19.1261530861
 21
4.9484146392
 31
0.0
 11
19.1260342431
 21
5.0001491104
 31
0.0
 11
19.1256864965
 21
5.0482999982
 31
0.0
 11
19.125130592
 21
5.0898359954
 31
0.0
  0
SPLINE
  5
6B1
100
AcDbEntity
  8
RACCORDO
100
AcDbSpline
 62
253
  6
CONTINUOUS
 70
0
 71
3
 72
12
 73
8
 74
6
 42
0.0000001
 43
0.0000001
 44
0.0000000001
 12
0.1431629629
 22
0.1397257719
 32
0.0
 13
0.0000002731
 23
0.2000473076
 33
0.0
 40
0.0
 40
0.0
 40
0.0
 40
0.0
 40
0.053680495
 40
0.1976944885
 40
0.4183849018
 40
0.6946711573
 40
1.0
 40
1.0
 40
1.0
 40
1.0
 10
19.1227229997
 20
3.3643555778
 30
0.0
 10
19.1252846859
 20
3.3668557607
 30
0.0
 10
19.1217612792
 20
3.3823806461
 30
0.0
 10
19.1263068406
 20
3.4081852691
 30
0.0
 10
19.1250569303
 20
3.4519888976
 30
0.0
 10
19.1262439267
 20
3.5050751649
 30
0.0
 10
19.1261530583
 20
3.5439650459
 30
0.0
 10
19.1261530861
 20
3.5643251169
 30
0.0
 11
19.1227229997
 21
3.3643555778
 31
0.0
 11
19.1237893887
 21
3.3750411368
 31
0.0
 11
19.1247450499
 21
3.4038348937
 31
0.0
 11
19.1255014301
 21
3.4479769368
 31
0.0
 11
19.1259862791
 21
3.5032451317
 31
0.0
 11
19.1261530861
 21
3.5643251169
 31
0.0
  0
SPLINE
  5
6B2
100
AcDbEntity
  8
RACCORDO
100
AcDbSpline
 62
253
  6
CONTINUOUS
 70
0
 71
3
 72
12
 73
8
 74
6
 42
0.0000001
 43
0.0000001
 44
0.0000000001
 12
0.0000002731
 22
-0.2000473076
 32
0.0
 13
0.1431629629
 23
-0.1397257719
 33
0.0
 40
0.0
 40
0.0
 40
0.0
 40
0.0
 40
0.3053288425
 40
0.581615098
 40
0.8023055113
 40
0.9463195049
 40
1.0
 40
1.0
 40
1.0
 40
1.0
 10
19.9015332154
 20
3.5643251169
 30
0.0
 10
19.9015332432
 20
3.5439650459
 30
0.0
 10
19.9014423748
 20
3.505075165
 30
0.0
 10
19.9026293712
 20
3.4519888977
 30
0.0
 10
19.9013794609
 20
3.4081852691
 30
0.0
 10
19.9059250223
 20
3.3823806461
 30
0.0
 10
19.9024016156
 20
3.3668557607
 30
0.0
 10
19.9049633018
 20
3.3643555778
 30
0.0
 11
19.9015332154
 21
3.5643251169
 31
0.0
 11
19.9017000224
 21
3.5032451318
 31
0.0
 11
19.9021848715
 21
3.4479769369
 31
0.0
 11
19.9029412516
 21
3.4038348937
 31
0.0
 11
19.9038969128
 21
3.3750411368
 31
0.0
 11
19.9049633018
 21
3.3643555778
 31
0.0
  0
SPLINE
  5
6B3
100
AcDbEntity
  8
RACCORDO
100
AcDbSpline
 62
253
  6
CONTINUOUS
 70
0
 71
3
 72
10
 73
6
 74
4
 42
0.0000001
 43
0.0000001
 44
0.0000000001
 12
-0.0024701868
 22
-0.1414048942
 32
0.0
 13
0.0000001414
 23
-0.1414264683
 33
0.0
 40
0.0
 40
0.0
 40
0.0
 40
0.0
 40
0.2937195618
 40
0.6341943926
 40
1.0
 40
1.0
 40
1.0
 40
1.0
 10
19.9025557095
 20
5.0898359954
 30
0.0
 10
19.9023138621
 20
5.0759915342
 30
0.0
 10
19.9019354001
 20
5.0460963102
 30
0.0
 10
19.9016069818
 20
4.9989551565
 30
0.0
 10
19.9015331982
 20
4.9656595042
 30
0.0
 10
19.9015332154
 20
4.9484146392
 30
0.0
 11
19.9025557095
 21
5.0898359954
 31
0.0
 11
19.901999805
 21
5.048299995
 31
0.0
 11
19.9016520583
 21
5.0001490978
 31
0.0
 11
19.9015332154
 21
4.9484146392
 31
0.0
  0
SPLINE
  5
6B4
100
AcDbEntity
  8
RACCORDO
100
AcDbSpline
 62
253
  6
CONTINUOUS
 70
0
 71
3
 72
11
 73
7
 74
5
 42
0.0000001
 43
0.0000001
 44
0.0000000001
 12
-0.0000102035
 22
-0.56570622
 32
0.0
 13
-0.0098911393
 23
-0.5656197423
 33
0.0
 40
0.0
 40
0.0
 40
0.0
 40
0.0
 40
0.27116473
 40
0.5456360084
 40
0.7955929365
 40
1.0
 40
1.0
 40
1.0
 40
1.0
 10
19.9189882804
 20
6.3626282016
 30
0.0
 10
19.9189873581
 20
6.3114950101
 30
0.0
 10
19.9188178767
 20
6.2086050363
 30
0.0
 10
19.9180406813
 20
6.0585827201
 30
0.0
 10
19.9167718842
 20
5.921152646
 30
0.0
 10
19.9155722438
 20
5.8354816668
 30
0.0
 10
19.9148983042
 20
5.7969427766
 30
0.0
 11
19.9189882804
 21
6.3626282016
 31
0.0
 11
19.9187291176
 21
6.209228846
 31
0.0
 11
19.9179069875
 21
6.0539609131
 31
0.0
 11
19.9165689132
 21
5.9125650553
 31
0.0
 11
19.9148983042
 21
5.7969427766
 31
0.0
  0
SPLINE
  5
6B5
100
AcDbEntity
  8
RACCORDO
100
AcDbSpline
 62
253
  6
CONTINUOUS
 70
0
 71
3
 72
12
 73
8
 74
6
 42
0.0000001
 43
0.0000001
 44
0.0000000001
 12
0.0000002731
 22
-0.2000473076
 32
0.0
 13
0.1431629629
 23
-0.1397257719
 33
0.0
 40
0.0
 40
0.0
 40
0.0
 40
0.0
 40
0.3053288425
 40
0.581615098
 40
0.8023055113
 40
0.9463195049
 40
1.0
 40
1.0
 40
1.0
 40
1.0
 10
-19.3984667846
 20
3.5643251169
 30
0.0
 10
-19.3984667568
 20
3.5439650459
 30
0.0
 10
-19.3985576252
 20
3.505075165
 30
0.0
 10
-19.3973706288
 20
3.4519888977
 30
0.0
 10
-19.3986205391
 20
3.4081852691
 30
0.0
 10
-19.3940749777
 20
3.3823806461
 30
0.0
 10
-19.3975983844
 20
3.3668557607
 30
0.0
 10
-19.3950366982
 20
3.3643555778
 30
0.0
 11
-19.3984667846
 21
3.5643251169
 31
0.0
 11
-19.3982999776
 21
3.5032451318
 31
0.0
 11
-19.3978151285
 21
3.4479769369
 31
0.0
 11
-19.3970587484
 21
3.4038348937
 31
0.0
 11
-19.3961030872
 21
3.3750411368
 31
0.0
 11
-19.3950366982
 21
3.3643555778
 31
0.0
  0
SPLINE
  5
6B6
100
AcDbEntity
  8
RACCORDO
100
AcDbSpline
 62
253
  6
CONTINUOUS
 70
0
 71
3
 72
10
 73
6
 74
4
 42
0.0000001
 43
0.0000001
 44
0.0000000001
 12
-0.0024701868
 22
-0.1414048942
 32
0.0
 13
0.0000001414
 23
-0.1414264683
 33
0.0
 40
0.0
 40
0.0
 40
0.0
 40
0.0
 40
0.2937195618
 40
0.6341943926
 40
1.0
 40
1.0
 40
1.0
 40
1.0
 10
-19.3974442905
 20
5.0898359954
 30
0.0
 10
-19.3976861379
 20
5.0759915342
 30
0.0
 10
-19.3980645999
 20
5.0460963102
 30
0.0
 10
-19.3983930182
 20
4.9989551565
 30
0.0
 10
-19.3984668018
 20
4.9656595042
 30
0.0
 10
-19.3984667846
 20
4.9484146392
 30
0.0
 11
-19.3974442905
 21
5.0898359954
 31
0.0
 11
-19.398000195
 21
5.048299995
 31
0.0
 11
-19.3983479417
 21
5.0001490978
 31
0.0
 11
-19.3984667846
 21
4.9484146392
 31
0.0
  0
SPLINE
  5
6B7
100
AcDbEntity
  8
RACCORDO
100
AcDbSpline
 62
253
  6
CONTINUOUS
 70
0
 71
3
 72
11
 73
7
 74
5
 42
0.0000001
 43
0.0000001
 44
0.0000000001
 12
-0.0000102035
 22
-0.56570622
 32
0.0
 13
-0.0098911393
 23
-0.5656197423
 33
0.0
 40
0.0
 40
0.0
 40
0.0
 40
0.0
 40
0.27116473
 40
0.5456360084
 40
0.7955929365
 40
1.0
 40
1.0
 40
1.0
 40
1.0
 10
-19.3810117196
 20
6.3626282016
 30
0.0
 10
-19.3810126419
 20
6.3114950101
 30
0.0
 10
-19.3811821233
 20
6.2086050363
 30
0.0
 10
-19.3819593187
 20
6.0585827201
 30
0.0
 10
-19.3832281158
 20
5.921152646
 30
0.0
 10
-19.3844277562
 20
5.8354816668
 30
0.0
 10
-19.3851016958
 20
5.7969427766
 30
0.0
 11
-19.3810117196
 21
6.3626282016
 31
0.0
 11
-19.3812708824
 21
6.209228846
 31
0.0
 11
-19.3820930125
 21
6.0539609131
 31
0.0
 11
-19.3834310868
 21
5.9125650553
 31
0.0
 11
-19.3851016958
 21
5.7969427766
 31
0.0
  0
SPLINE
  5
6B8
100
AcDbEntity
  8
RACCORDO
100
AcDbSpline
 62
253
  6
CONTINUOUS
 70
0
 71
3
 72
11
 73
7
 74
5
 42
0.0000001
 43
0.0000001
 44
0.0000000001
 12
-0.0098905691
 22
0.5656197527
 32
0.0
 13
-0.0000105791
 23
0.5657062205
 33
0.0
 40
0.0
 40
0.0
 40
0.0
 40
0.0
 40
0.203753628
 40
0.4534050995
 40
0.7280845227
 40
1.0
 40
1.0
 40
1.0
 40
1.0
 10
-20.1872120027
 20
5.7969427766
 30
0.0
 10
-20.1878837492
 20
5.8353584688
 30
0.0
 10
-20.1890817968
 20
5.9208486314
 30
0.0
 10
-20.1903512238
 20
6.0581371268
 30
0.0
 10
-20.1911308338
 20
6.2082826508
 30
0.0
 10
-20.19130102
 20
6.3113534426
 30
0.0
 10
-20.1913019789
 20
6.3626282016
 30
0.0
 11
-20.1872120027
 21
5.7969427766
 31
0.0
 11
-20.1888782201
 21
5.9121954277
 31
0.0
 11
-20.1902167238
 21
6.0534184752
 31
0.0
 11
-20.1910413678
 21
6.2088041453
 31
0.0
 11
-20.1913019789
 21
6.3626282016
 31
0.0
  0
SPLINE
  5
6B9
100
AcDbEntity
  8
RACCORDO
100
AcDbSpline
 62
253
  6
CONTINUOUS
 70
0
 71
3
 72
10
 73
6
 74
4
 42
0.0000001
 43
0.0000001
 44
0.0000000001
 12
0.000000142
 22
0.1414264683
 32
0.0
 13
-0.0024701873
 23
0.1414048942
 33
0.0
 40
0.0
 40
0.0
 40
0.0
 40
0.0
 40
0.3658056966
 40
0.7062804612
 40
1.0
 40
1.0
 40
1.0
 40
1.0
 10
-20.1738469139
 20
4.9484146392
 30
0.0
 10
-20.1738468966
 20
4.9656595084
 30
0.0
 10
-20.1739206804
 20
4.9989551618
 30
0.0
 10
-20.1742490986
 20
5.0460963155
 30
0.0
 10
-20.1746275605
 20
5.0759915353
 30
0.0
 10
-20.174869408
 20
5.0898359954
 30
0.0
 11
-20.1738469139
 21
4.9484146392
 31
0.0
 11
-20.1739657569
 21
5.0001491104
 31
0.0
 11
-20.1743135035
 21
5.0482999982
 31
0.0
 11
-20.174869408
 21
5.0898359954
 31
0.0
  0
SPLINE
  5
6BA
100
AcDbEntity
  8
RACCORDO
100
AcDbSpline
 62
253
  6
CONTINUOUS
 70
0
 71
3
 72
12
 73
8
 74
6
 42
0.0000001
 43
0.0000001
 44
0.0000000001
 12
0.1431629629
 22
0.1397257719
 32
0.0
 13
0.0000002731
 23
0.2000473076
 33
0.0
 40
0.0
 40
0.0
 40
0.0
 40
0.0
 40
0.053680495
 40
0.1976944885
 40
0.4183849018
 40
0.6946711573
 40
1.0
 40
1.0
 40
1.0
 40
1.0
 10
-20.1772770003
 20
3.3643555778
 30
0.0
 10
-20.1747153141
 20
3.3668557607
 30
0.0
 10
-20.1782387208
 20
3.3823806461
 30
0.0
 10
-20.1736931594
 20
3.4081852691
 30
0.0
 10
-20.1749430697
 20
3.4519888976
 30
0.0
 10
-20.1737560733
 20
3.5050751649
 30
0.0
 10
-20.1738469417
 20
3.5439650459
 30
0.0
 10
-20.1738469139
 20
3.5643251169
 30
0.0
 11
-20.1772770003
 21
3.3643555778
 31
0.0
 11
-20.1762106113
 21
3.3750411368
 31
0.0
 11
-20.1752549501
 21
3.4038348937
 31
0.0
 11
-20.1744985699
 21
3.4479769368
 31
0.0
 11
-20.1740137209
 21
3.5032451317
 31
0.0
 11
-20.1738469139
 21
3.5643251169
 31
0.0
  0
SPLINE
  5
6BB
100
AcDbEntity
  8
RACCORDO
100
AcDbSpline
 62
253
  6
CONTINUOUS
 70
0
 71
3
 72
9
 73
5
 74
3
 42
0.0000001
 43
0.0000001
 44
0.0000000001
 12
0.0003603394
 22
-6.1661325534
 32
0.0
 13
0.0019281047
 23
-6.1661322625
 33
0.0
 40
0.0
 40
0.0
 40
0.0
 40
0.0
 40
0.500035562
 40
1.0
 40
1.0
 40
1.0
 40
1.0
 10
23.486990072
 20
7.9380155624
 30
0.0
 10
23.4870501329
 20
6.9102537103
 30
0.0
 10
23.4873008789
 20
4.854876198
 30
0.0
 10
23.4878129054
 20
2.7994987343
 30
0.0
 10
23.4881342333
 20
1.7718831171
 30
0.0
 11
23.486990072
 21
7.9380155624
 31
0.0
 11
23.4873662261
 21
4.8547300237
 31
0.0
 11
23.4881342333
 21
1.7718831171
 31
0.0
  0
LINE
  5
6BC
100
AcDbEntity
  8
RACCORDO
100
AcDbLine
 62
253
  6
CONTINUOUS
 10
23.4883743407
 20
1.0393998311
 11
23.489171922
 21
-1.0291545716
  0
LINE
  5
6BD
100
AcDbEntity
  8
RACCORDO
100
AcDbLine
 62
253
  6
CONTINUOUS
 10
23.4911140649
 20
-4.8578604447
 11
23.4918945263
 21
-6.1318771759
  0
LINE
  5
6BE
100
AcDbEntity
  8
RACCORDO
100
AcDbLine
 62
253
  6
CONTINUOUS
 10
23.492368412
 20
-6.8566060976
 11
23.4927188234
 21
-7.3722924858
  0
LINE
  5
6BF
100
AcDbEntity
  8
RACCORDO
100
AcDbLine
 62
253
  6
CONTINUOUS
 10
-23.7642082248
 20
-6.1318771759
 11
-23.7634277634
 21
-4.8578604447
  0
LINE
  5
6C0
100
AcDbEntity
  8
RACCORDO
100
AcDbLine
 62
253
  6
CONTINUOUS
 10
-23.7650325219
 20
-7.3722924858
 11
-23.7646821105
 21
-6.8566060976
  0
LINE
  5
6C1
100
AcDbEntity
  8
RACCORDO
100
AcDbLine
 62
253
  6
CONTINUOUS
 10
-23.7614856204
 20
-1.0291545716
 11
-23.7606880392
 21
1.0393998311
  0
SPLINE
  5
6C2
100
AcDbEntity
  8
RACCORDO
100
AcDbSpline
 62
253
  6
CONTINUOUS
 70
0
 71
3
 72
9
 73
5
 74
3
 42
0.0000001
 43
0.0000001
 44
0.0000000001
 12
0.0019281047
 22
6.1661322625
 32
0.0
 13
0.0003603394
 23
6.1661325534
 33
0.0
 40
0.0
 40
0.0
 40
0.0
 40
0.0
 40
0.4999644739
 40
1.0
 40
1.0
 40
1.0
 40
1.0
 10
-23.7604479318
 20
1.7718831171
 30
0.0
 10
-23.7601266038
 20
2.799498808
 30
0.0
 10
-23.7596145774
 20
4.8548762718
 30
0.0
 10
-23.7593638313
 20
6.910253784
 30
0.0
 10
-23.7593037705
 20
7.9380155624
 30
0.0
 11
-23.7604479318
 21
1.7718831171
 31
0.0
 11
-23.7596799246
 21
4.854730245
 31
0.0
 11
-23.7593037705
 21
7.9380155624
 31
0.0
  0
SPLINE
  5
6C3
100
AcDbEntity
  8
RACCORDO
100
AcDbSpline
 62
7
  6
CONTINUOUS
 70
0
 71
3
 72
12
 73
8
 74
6
 42
0.0000001
 43
0.0000001
 44
0.0000000001
 12
0.3000708432
 22
-0.0
 32
0.0
 13
0.2121821359
 23
0.2121821203
 33
0.0
 40
0.0
 40
0.0
 40
0.0
 40
0.0
 40
0.3053517528
 40
0.5820537449
 40
0.8023025256
 40
0.9467230498
 40
1.0
 40
1.0
 40
1.0
 40
1.0
 10
23.1870360056
 20
7.9328707044
 30
0.0
 10
23.2175783916
 20
7.9328707044
 30
0.0
 10
23.2759525842
 20
7.9327391757
 30
0.0
 10
23.3555989241
 20
7.9345021787
 30
0.0
 10
23.4212952187
 20
7.9326783532
 30
0.0
 10
23.4600464384
 20
7.9394063324
 30
0.0
 10
23.483221933
 20
7.9342474236
 30
0.0
 10
23.486990072
 20
7.9380155624
 30
0.0
 11
23.1870360056
 21
7.9328707044
 31
0.0
 11
23.278662822
 21
7.9331209086
 31
0.0
 11
23.3616898247
 21
7.9338495663
 31
0.0
 11
23.4277703531
 21
7.9349823666
 31
0.0
 11
23.4710828172
 21
7.9364221643
 31
0.0
 11
23.486990072
 21
7.9380155624
 31
0.0
  0
SPLINE
  5
6C4
100
AcDbEntity
  8
RACCORDO
100
AcDbSpline
 62
7
  6
CONTINUOUS
 70
0
 71
3
 72
12
 73
8
 74
6
 42
0.0000001
 43
0.0000001
 44
0.0000000001
 12
0.2121821359
 22
-0.2121821203
 32
0.0
 13
0.3000708432
 23
0.0
 33
0.0
 40
0.0
 40
0.0
 40
0.0
 40
0.0
 40
0.0532769502
 40
0.1976974744
 40
0.4179462551
 40
0.6946482472
 40
1.0
 40
1.0
 40
1.0
 40
1.0
 10
-23.7593037705
 20
7.9380155624
 30
0.0
 10
-23.7555356315
 20
7.9342474236
 30
0.0
 10
-23.7323601369
 20
7.9394063324
 30
0.0
 10
-23.6936089172
 20
7.9326783532
 30
0.0
 10
-23.6279126225
 20
7.9345021787
 30
0.0
 10
-23.5482662827
 20
7.9327391757
 30
0.0
 10
-23.4898920901
 20
7.9328707044
 30
0.0
 10
-23.4593497041
 20
7.9328707044
 30
0.0
 11
-23.7593037705
 21
7.9380155624
 31
0.0
 11
-23.7433965157
 21
7.9364221643
 31
0.0
 11
-23.7000840516
 21
7.9349823666
 31
0.0
 11
-23.6340035232
 21
7.9338495663
 31
0.0
 11
-23.5509765204
 21
7.9331209086
 31
0.0
 11
-23.4593497041
 21
7.9328707044
 31
0.0
  0
SPLINE
  5
6C5
100
AcDbEntity
  8
RACCORDO
100
AcDbSpline
 62
253
  6
CONTINUOUS
 70
0
 71
3
 72
11
 73
7
 74
5
 42
0.0000001
 43
0.0000001
 44
0.0000000001
 12
-0.0098689072
 22
0.3534493123
 32
0.0
 13
-0.0000004971
 23
0.3535870638
 33
0.0
 40
0.0
 40
0.0
 40
0.0
 40
0.0
 40
0.2035823994
 40
0.4531925193
 40
0.7278954329
 40
1.0
 40
1.0
 40
1.0
 40
1.0
 10
-19.8872579735
 20
6.0090859136
 30
0.0
 10
-19.8879276855
 20
6.0330712666
 30
0.0
 10
-19.889127448
 20
6.0864729593
 30
0.0
 10
-19.8903961601
 20
6.172255676
 30
0.0
 10
-19.891176081
 20
6.2661206755
 30
0.0
 10
-19.8913476562
 20
6.3305688231
 30
0.0
 10
-19.8913477013
 20
6.362639708
 30
0.0
 11
-19.8872579735
 21
6.0090859136
 31
0.0
 11
-19.8889228888
 21
6.08105076
 31
0.0
 11
-19.8902616716
 21
6.1692995149
 31
0.0
 11
-19.8910867824
 21
6.2664274069
 31
0.0
 11
-19.8913477013
 21
6.362639708
 31
0.0
  0
SPLINE
  5
6C6
100
AcDbEntity
  8
RACCORDO
100
AcDbSpline
 62
7
  6
CONTINUOUS
 70
0
 71
3
 72
11
 73
7
 74
5
 42
0.0000001
 43
0.0000001
 44
0.0000000001
 12
0.1877591259
 22
0.0090044273
 32
0.0
 13
0.1879749161
 23
0.0
 33
0.0
 40
0.0
 40
0.0
 40
0.0
 40
0.0
 40
0.1566793638
 40
0.3898272684
 40
0.6785348125
 40
1.0
 40
1.0
 40
1.0
 40
1.0
 10
4.1057901898
 20
5.5791139197
 30
0.0
 10
4.1155961833
 20
5.579584189
 30
0.0
 10
4.1400174628
 20
5.5802100743
 30
0.0
 10
4.18252682
 20
5.5808874175
 30
0.0
 10
4.2353671691
 20
5.5813107122
 30
0.0
 10
4.2735994538
 20
5.581411432
 30
0.0
 10
4.2937419177
 20
5.581411432
 30
0.0
 11
4.1057901898
 21
5.5791139197
 31
0.0
 11
4.1352271303
 21
5.5800490573
 31
0.0
 11
4.1790469879
 21
5.5807802588
 31
0.0
 11
4.2333147464
 21
5.581248252
 31
0.0
 11
4.2937419177
 21
5.581411432
 31
0.0
  0
SPLINE
  5
6C7
100
AcDbEntity
  8
RACCORDO
100
AcDbSpline
 62
7
  6
CONTINUOUS
 70
0
 71
3
 72
11
 73
7
 74
5
 42
0.0000001
 43
0.0000001
 44
0.0000000001
 12
-0.1879629154
 22
0.0
 32
0.0
 13
-0.1877471389
 23
0.0090038568
 33
0.0
 40
0.0
 40
0.0
 40
0.0
 40
0.0
 40
0.3215242523
 40
0.6102453572
 40
0.8433660718
 40
1.0
 40
1.0
 40
1.0
 40
1.0
 10
4.2872190129
 20
3.9299443785
 30
0.0
 10
4.2670741343
 20
3.9299443785
 30
0.0
 10
4.2288397402
 20
3.9300450814
 30
0.0
 10
4.1759999169
 20
3.9304682848
 30
0.0
 10
4.133496973
 20
3.931145433
 30
0.0
 10
4.1090817987
 20
3.9317710644
 30
0.0
 10
4.0992792747
 20
3.9322411676
 30
0.0
 11
4.2872190129
 21
3.9299443785
 31
0.0
 11
4.2267845973
 21
3.9301075468
 31
0.0
 11
4.1725177539
 21
3.9305754555
 31
0.0
 11
4.1287058022
 21
3.9313064278
 31
0.0
 11
4.0992792747
 21
3.9322411676
 31
0.0
  0
SPLINE
  5
6C8
100
AcDbEntity
  8
RACCORDO
100
AcDbSpline
 62
7
  6
CONTINUOUS
 70
0
 71
3
 72
11
 73
7
 74
5
 42
0.0000001
 43
0.0000001
 44
0.0000000001
 12
-0.1877471389
 22
-0.0090038568
 32
0.0
 13
-0.1879629155
 23
-0.0
 33
0.0
 40
0.0
 40
0.0
 40
0.0
 40
0.0
 40
0.1566339282
 40
0.3897546428
 40
0.6784757477
 40
1.0
 40
1.0
 40
1.0
 40
1.0
 10
-4.3715929732
 20
3.9322411676
 30
0.0
 10
-4.3813954972
 20
3.9317710644
 30
0.0
 10
-4.4058106715
 20
3.931145433
 30
0.0
 10
-4.4483136154
 20
3.9304682848
 30
0.0
 10
-4.5011534387
 20
3.9300450814
 30
0.0
 10
-4.5393878328
 20
3.9299443785
 30
0.0
 10
-4.5595327114
 20
3.9299443785
 30
0.0
 11
-4.3715929732
 21
3.9322411676
 31
0.0
 11
-4.4010195007
 21
3.9313064278
 31
0.0
 11
-4.4448314524
 21
3.9305754555
 31
0.0
 11
-4.4990982958
 21
3.9301075468
 31
0.0
 11
-4.5595327114
 21
3.9299443785
 31
0.0
  0
SPLINE
  5
6C9
100
AcDbEntity
  8
RACCORDO
100
AcDbSpline
 62
7
  6
CONTINUOUS
 70
0
 71
3
 72
11
 73
7
 74
5
 42
0.0000001
 43
0.0000001
 44
0.0000000001
 12
0.1879749161
 22
0.0
 32
0.0
 13
0.1877591259
 23
-0.0090044273
 33
0.0
 40
0.0
 40
0.0
 40
0.0
 40
0.0
 40
0.3214651875
 40
0.6101727316
 40
0.8433206362
 40
1.0
 40
1.0
 40
1.0
 40
1.0
 10
-4.5660556162
 20
5.581411432
 30
0.0
 10
-4.5459131523
 20
5.581411432
 30
0.0
 10
-4.5076808676
 20
5.5813107122
 30
0.0
 10
-4.4548405185
 20
5.5808874175
 30
0.0
 10
-4.4123311613
 20
5.5802100743
 30
0.0
 10
-4.3879098817
 20
5.579584189
 30
0.0
 10
-4.3781038883
 20
5.5791139197
 30
0.0
 11
-4.5660556162
 21
5.581411432
 31
0.0
 11
-4.5056284449
 21
5.581248252
 31
0.0
 11
-4.4513606864
 21
5.5807802588
 31
0.0
 11
-4.4075408288
 21
5.5800490573
 31
0.0
 11
-4.3781038883
 21
5.5791139197
 31
0.0
  0
SPLINE
  5
6CA
100
AcDbEntity
  8
ASSI
100
AcDbSpline
 62
7
  6
CONTINUOUS
 70
0
 71
3
 72
9
 73
5
 74
3
 42
0.0000001
 43
0.0000001
 44
0.0000000001
 12
-0.0046820729
 22
0.3133621937
 32
0.0
 13
-0.3113313703
 23
0.0361338596
 33
0.0
 40
0.0
 40
0.0
 40
0.0
 40
0.0
 40
0.4988583766
 40
1.0
 40
1.0
 40
1.0
 40
1.0
 10
13.2000977687
 20
-2.3691323742
 30
0.0
 10
13.1993192049
 20
-2.3170245891
 30
0.0
 10
13.1568946588
 20
-2.2083506233
 30
0.0
 10
13.0516584081
 20
-2.1625334773
 30
0.0
 10
12.999651372
 20
-2.156497417
 30
0.0
 11
13.2000977687
 21
-2.3691323742
 31
0.0
 11
13.1413602238
 21
-2.2242412809
 31
0.0
 11
12.999651372
 21
-2.156497417
 31
0.0
  0
SPLINE
  5
6CB
100
AcDbEntity
  8
ASSI
100
AcDbSpline
 62
7
  6
CONTINUOUS
 70
0
 71
3
 72
9
 73
5
 74
3
 42
0.0000001
 43
0.0000001
 44
0.0000000001
 12
-0.2768734096
 22
0.0321345862
 32
0.0
 13
-0.2747605685
 23
-0.046883616
 33
0.0
 40
0.0
 40
0.0
 40
0.0
 40
0.0
 40
0.7295958319
 40
1.0
 40
1.0
 40
1.0
 40
1.0
 10
12.999651372
 20
-2.1564974171
 30
0.0
 10
12.9323161434
 20
-2.1486823304
 30
0.0
 10
12.838323455
 20
-2.1483810825
 30
0.0
 10
12.74645005
 20
-2.1622790869
 30
0.0
 10
12.7216845824
 20
-2.1665049286
 30
0.0
 11
12.999651372
 21
-2.1564974171
 31
0.0
 11
12.7962909119
 21
-2.1558011571
 31
0.0
 11
12.7216845824
 21
-2.1665049286
 31
0.0
  0
SPLINE
  5
6CC
100
AcDbEntity
  8
ASSI
100
AcDbSpline
 62
7
  6
CONTINUOUS
 70
0
 71
3
 72
9
 73
5
 74
3
 42
0.0000001
 43
0.0000001
 44
0.0000000001
 12
0.4232572624
 22
0.0094537593
 32
0.0
 13
-0.0063259437
 23
0.4233860928
 33
0.0
 40
0.0
 40
0.0
 40
0.0
 40
0.0
 40
0.4795375616
 40
1.0
 40
1.0
 40
1.0
 40
1.0
 10
12.9244652952
 20
-2.6331504111
 30
0.0
 10
12.9921212137
 20
-2.6316392669
 30
0.0
 10
13.1492632843
 20
-2.6030174964
 30
0.0
 10
13.201195226
 20
-2.4425845605
 30
0.0
 10
13.200097754
 20
-2.3691323744
 30
0.0
 11
12.9244652952
 21
-2.6331504111
 31
0.0
 11
13.1186385353
 21
-2.5738780345
 31
0.0
 11
13.200097754
 21
-2.3691323744
 31
0.0
  0
SPLINE
  5
6CD
100
AcDbEntity
  8
ASSI
100
AcDbSpline
 62
7
  6
CONTINUOUS
 70
0
 71
3
 72
17
 73
13
 74
11
 42
0.0000001
 43
0.0000001
 44
0.0000000001
 12
0.9958819045
 22
-0.3598342768
 32
0.0
 13
-1.050193894
 23
-0.1355088895
 33
0.0
 40
0.0
 40
0.0
 40
0.0
 40
0.0
 40
0.0798430187
 40
0.1895551228
 40
0.3223119562
 40
0.398530744
 40
0.483321362
 40
0.5876727129
 40
0.6789531193
 40
0.8312245932
 40
0.9440148167
 40
1.0
 40
1.0
 40
1.0
 40
1.0
 10
13.2558372974
 20
-1.9147189439
 30
0.0
 10
13.2823420365
 20
-1.9242956955
 30
0.0
 10
13.3415886261
 20
-1.9569834054
 30
0.0
 10
13.427789694
 20
-2.0327762449
 30
0.0
 10
13.4888659582
 20
-2.1297328541
 30
0.0
 10
13.5213843871
 20
-2.2286659688
 30
0.0
 10
13.5348014811
 20
-2.3217726526
 30
0.0
 10
13.5322555967
 20
-2.4214594752
 30
0.0
 10
13.5051567288
 20
-2.5415671016
 30
0.0
 10
13.4443256133
 20
-2.6566980379
 30
0.0
 10
13.3617104474
 20
-2.7314902096
 30
0.0
 10
13.3118937661
 20
-2.7707248508
 30
0.0
 10
13.2922953335
 20
-2.7732536808
 30
0.0
 11
13.2558372974
 21
-1.9147189439
 31
0.0
 11
13.3307357778
 21
-1.9539416207
 31
0.0
 11
13.4178637335
 21
-2.030786658
 31
0.0
 11
13.4928739865
 21
-2.1496779727
 31
0.0
 11
13.5182658917
 21
-2.2262876868
 31
0.0
 11
13.5315454718
 21
-2.3150850134
 31
0.0
 11
13.5283066652
 21
-2.4255352149
 31
0.0
 11
13.5067320654
 21
-2.5197534907
 31
0.0
 11
13.4300085238
 21
-2.661570049
 31
0.0
 11
13.3442409216
 21
-2.7446862564
 31
0.0
 11
13.2922953335
 21
-2.7732536808
 31
0.0
  0
SPLINE
  5
6CE
100
AcDbEntity
  8
ASSI
100
AcDbSpline
 62
7
  6
CONTINUOUS
 70
0
 71
3
 72
8
 73
4
 74
2
 42
0.0000001
 43
0.0000001
 44
0.0000000001
 12
0.0468153254
 22
-0.018667611
 32
0.0
 13
0.0404489985
 23
-0.0293488028
 33
0.0
 40
0.0
 40
0.0
 40
0.0
 40
0.0
 40
1.0
 40
1.0
 40
1.0
 40
1.0
 10
13.2922953335
 20
-2.783298388
 30
0.0
 10
13.307900442
 20
-2.789520925
 30
0.0
 10
13.3224051626
 20
-2.7977109003
 30
0.0
 10
13.3358881621
 20
-2.8074938346
 30
0.0
 11
13.2922953335
 21
-2.783298388
 31
0.0
 11
13.3358881621
 21
-2.8074938346
 31
0.0
  0
SPLINE
  5
6CF
100
AcDbEntity
  8
ASSI
100
AcDbSpline
 62
7
  6
CONTINUOUS
 70
0
 71
3
 72
9
 73
5
 74
3
 42
0.0000001
 43
0.0000001
 44
0.0000000001
 12
0.2399260035
 22
-0.2145228187
 32
0.0
 13
0.0845359266
 23
-0.3102902278
 33
0.0
 40
0.0
 40
0.0
 40
0.0
 40
0.0
 40
0.7012282199
 40
1.0
 40
1.0
 40
1.0
 40
1.0
 10
13.3543501703
 20
-2.8224116867
 30
0.0
 10
13.4104311318
 20
-2.8725548381
 30
0.0
 10
13.46229855
 20
-2.9844831448
 30
0.0
 10
13.488413332
 20
-3.0858329502
 30
0.0
 10
13.4968323151
 20
-3.1167349381
 30
0.0
 11
13.3543501703
 21
-2.8224116867
 31
0.0
 11
13.470509814
 21
-3.0243277412
 31
0.0
 11
13.4968323151
 21
-3.1167349381
 31
0.0
  0
SPLINE
  5
6D0
100
AcDbEntity
  8
ASSI
100
AcDbSpline
 62
7
  6
CONTINUOUS
 70
0
 71
3
 72
9
 73
5
 74
3
 42
0.0000001
 43
0.0000001
 44
0.0000000001
 12
0.1250599769
 22
-0.4590343077
 32
0.0
 13
0.1246990825
 23
-0.4591324849
 33
0.0
 40
0.0
 40
0.0
 40
0.0
 40
0.0
 40
0.8019701246
 40
1.0
 40
1.0
 40
1.0
 40
1.0
 10
13.4968323154
 20
-3.116734938
 30
0.0
 10
13.5302637704
 20
-3.2394455383
 30
0.0
 10
13.5696065998
 20
-3.3930837855
 30
0.0
 10
13.609892328
 20
-3.5464719501
 30
0.0
 10
13.6181237092
 20
-3.5767792663
 30
0.0
 11
13.4968323154
 21
-3.116734938
 31
0.0
 11
13.5939737491
 21
-3.4857112647
 31
0.0
 11
13.6181237092
 21
-3.5767792663
 31
0.0
  0
SPLINE
  5
6D1
100
AcDbEntity
  8
ASSI
100
AcDbSpline
 62
7
  6
CONTINUOUS
 70
0
 71
3
 72
9
 73
5
 74
3
 42
0.0000001
 43
0.0000001
 44
0.0000000001
 12
-0.1487666252
 22
0.5174419044
 32
0.0
 13
-0.1893777802
 23
0.5039985871
 33
0.0
 40
0.0
 40
0.0
 40
0.0
 40
0.0
 40
0.4413080349
 40
1.0
 40
1.0
 40
1.0
 40
1.0
 10
13.2768203659
 20
-3.5767792663
 30
0.0
 10
13.2549363968
 20
-3.5006621763
 30
0.0
 10
13.2032672032
 20
-3.328888604
 30
0.0
 10
13.1569004636
 20
-3.1551046045
 30
0.0
 10
13.1216325155
 20
-3.0612446175
 30
0.0
 11
13.2768203659
 21
-3.5767792663
 31
0.0
 11
13.2103650039
 21
-3.3486605247
 31
0.0
 11
13.1216325155
 21
-3.0612446175
 31
0.0
  0
SPLINE
  5
6D2
100
AcDbEntity
  8
ASSI
100
AcDbSpline
 62
7
  6
CONTINUOUS
 70
0
 71
3
 72
9
 73
5
 74
3
 42
0.0000001
 43
0.0000001
 44
0.0000000001
 12
-0.0895737501
 22
0.2383859055
 32
0.0
 13
-0.2546300208
 23
-0.0
 33
0.0
 40
0.0
 40
0.0
 40
0.0
 40
0.0
 40
0.8563651185
 40
1.0
 40
1.0
 40
1.0
 40
1.0
 10
13.1216325296
 20
-3.0612446122
 30
0.0
 10
13.0960632512
 20
-2.9931961541
 30
0.0
 10
13.0210142858
 20
-2.9175643912
 30
0.0
 10
12.9358917207
 20
-2.9115468637
 30
0.0
 10
12.9237004698
 20
-2.9115468637
 30
0.0
 11
13.1216325296
 21
-3.0612446122
 31
0.0
 11
12.9601370316
 21
-2.9147117273
 31
0.0
 11
12.9237004698
 21
-2.9115468637
 31
0.0
  0
SPLINE
  5
6D3
100
AcDbEntity
  8
ASSI
100
AcDbSpline
 62
7
  6
CONTINUOUS
 70
0
 71
3
 72
9
 73
5
 74
3
 42
0.0000001
 43
0.0000001
 44
0.0000000001
 12
0.870352019
 22
0.1280436023
 32
0.0
 13
0.8273203445
 23
-0.2990739652
 33
0.0
 40
0.0
 40
0.0
 40
0.0
 40
0.0
 40
0.8916594654
 40
1.0
 40
1.0
 40
1.0
 40
1.0
 10
12.3800498147
 20
-1.8967764975
 30
0.0
 10
12.6387356867
 20
-1.8587194008
 30
0.0
 10
12.9430601408
 20
-1.8232257629
 30
0.0
 10
13.225959839
 20
-1.9039183712
 30
0.0
 10
13.2558372818
 20
-1.9147189823
 30
0.0
 11
12.3800498147
 21
-1.8967764975
 31
0.0
 11
13.1644093532
 21
-1.8877975665
 31
0.0
 11
13.2558372818
 21
-1.9147189823
 31
0.0
  0
SPLINE
  5
6D4
100
AcDbEntity
  8
ASSI
100
AcDbSpline
 62
7
  6
CONTINUOUS
 70
0
 71
3
 72
10
 73
6
 74
4
 42
0.0000001
 43
0.0000001
 44
0.0000000001
 12
-0.1883406519
 22
0.1821745431
 32
0.0
 13
-0.1853866352
 23
0.1851798068
 33
0.0
 40
0.0
 40
0.0
 40
0.0
 40
0.0
 40
0.2866167254
 40
0.6201205121
 40
1.0
 40
1.0
 40
1.0
 40
1.0
 10
23.3794383357
 20
-7.568023819
 30
0.0
 10
23.3614444754
 20
-7.550619062
 30
0.0
 10
23.3226534688
 20
-7.5128172459
 30
0.0
 10
23.2604239901
 20
-7.4515277298
 30
0.0
 10
23.2162393748
 20
-7.407593639
 30
0.0
 10
23.1927645148
 20
-7.3841449689
 30
0.0
 11
23.3794383357
 21
-7.568023819
 31
0.0
 11
23.3256294289
 21
-7.515631618
 31
0.0
 11
23.2633555714
 21
-7.4543239213
 31
0.0
 11
23.1927645148
 21
-7.3841449689
 31
0.0
  0
SPLINE
  5
6D5
100
AcDbEntity
  8
ASSI
100
AcDbSpline
 62
7
  6
CONTINUOUS
 70
0
 71
3
 72
10
 73
6
 74
4
 42
0.0000001
 43
0.0000001
 44
0.0000000001
 12
0.1932247375
 22
0.1319117349
 32
0.0
 13
0.0047953966
 23
0.23390919
 33
0.0
 40
0.0
 40
0.0
 40
0.0
 40
0.0
 40
0.3373558539
 40
0.6687258877
 40
1.0
 40
1.0
 40
1.0
 40
1.0
 10
23.3794383357
 20
-7.568023819
 30
0.0
 10
23.4011668344
 20
-7.553190087
 30
0.0
 10
23.4405491165
 20
-7.5177836992
 30
0.0
 10
23.4815288569
 20
-7.4500288987
 30
0.0
 10
23.4921892931
 20
-7.3981218385
 30
0.0
 10
23.4927188233
 20
-7.3722924854
 30
0.0
 11
23.3794383357
 21
-7.568023819
 31
0.0
 11
23.4378532651
 21
-7.5149465038
 31
0.0
 11
23.4774079566
 21
-7.4482694576
 31
0.0
 11
23.4927188233
 21
-7.3722924854
 31
0.0
  0
SPLINE
  5
6D6
100
AcDbEntity
  8
ASSI
100
AcDbSpline
 62
7
  6
CONTINUOUS
 70
0
 71
3
 72
10
 73
6
 74
4
 42
0.0000001
 43
0.0000001
 44
0.0000000001
 12
0.2111537282
 22
0.0378702165
 32
0.0
 13
0.151821365
 23
0.1515596362
 33
0.0
 40
0.0
 40
0.0
 40
0.0
 40
0.0
 40
0.3429101549
 40
0.6755847515
 40
1.0
 40
1.0
 40
1.0
 40
1.0
 10
23.1927645147
 20
-7.6677348106
 30
0.0
 10
23.2169001006
 20
-7.6634061167
 30
0.0
 10
23.2636316507
 20
-7.6493607065
 30
0.0
 10
23.3265977947
 20
-7.6145928481
 30
0.0
 10
23.3630206137
 20
-7.584413238
 30
0.0
 10
23.3794383357
 20
-7.568023819
 30
0.0
 11
23.1927645147
 21
-7.6677348106
 31
0.0
 11
23.2632595181
 21
-7.6467150255
 31
0.0
 11
23.32584864
 21
-7.612425805
 31
0.0
 11
23.3794383357
 21
-7.568023819
 31
0.0
  0
SPLINE
  5
6D7
100
AcDbEntity
  8
ASSI
100
AcDbSpline
 62
7
  6
CONTINUOUS
 70
0
 71
3
 72
13
 73
9
 74
7
 42
0.0000001
 43
0.0000001
 44
0.0000000001
 12
-0.4360540282
 22
-0.0003592369
 32
0.0
 13
-0.0089035972
 23
0.4359632674
 33
0.0
 40
0.0
 40
0.0
 40
0.0
 40
0.0
 40
0.1762313956
 40
0.3431225387
 40
0.5099732983
 40
0.6748732839
 40
0.8372164229
 40
1.0
 40
1.0
 40
1.0
 40
1.0
 10
-23.460915958
 20
-7.6256886825
 30
0.0
 10
-23.486531428
 20
-7.6257097854
 30
0.0
 10
-23.5365776614
 20
-7.6201522746
 30
0.0
 10
-23.6073392681
 20
-7.5963775899
 30
0.0
 10
-23.6698555754
 20
-7.558408345
 30
0.0
 10
-23.7208724479
 20
-7.5066915903
 30
0.0
 10
-23.7555834109
 20
-7.4433671911
 30
0.0
 10
-23.764549402
 20
-7.3959483721
 30
0.0
 10
-23.7650325218
 20
-7.3722924854
 30
0.0
 11
-23.460915958
 21
-7.6256886825
 31
0.0
 11
-23.537297356
 21
-7.6172473106
 31
0.0
 11
-23.606228038
 21
-7.5939116079
 31
0.0
 11
-23.6682439498
 21
-7.555866136
 31
0.0
 11
-23.7184426569
 21
-7.5043834601
 31
0.0
 11
-23.7520456554
 21
-7.4420768012
 31
0.0
 11
-23.7650325218
 21
-7.3722924854
 31
0.0
  0
SPLINE
  5
6D8
100
AcDbEntity
  8
ASSI
100
AcDbSpline
 62
253
  6
CONTINUOUS
 70
0
 71
3
 72
11
 73
7
 74
5
 42
0.0000001
 43
0.0000001
 44
0.0000000001
 12
-0.0069988224
 22
0.4010844298
 32
0.0
 13
-0.4011302123
 23
0.0035008769
 33
0.0
 40
0.0
 40
0.0
 40
0.0
 40
0.0
 40
0.2095153874
 40
0.4453794694
 40
0.7128570698
 40
1.0
 40
1.0
 40
1.0
 40
1.0
 10
-19.3851016958
 20
5.7969427766
 30
0.0
 10
-19.3855904827
 20
5.8249538965
 30
0.0
 10
-19.404685975
 20
5.8848211286
 30
0.0
 10
-19.4745328647
 20
5.9534755481
 30
0.0
 10
-19.5721382511
 20
5.9980999225
 30
0.0
 10
-19.6466621028
 20
6.0087397269
 30
0.0
 10
-19.6850560043
 20
6.009074811
 30
0.0
 11
-19.3851016958
 21
5.7969427766
 31
0.0
 11
-19.4089876379
 21
5.87752328
 31
0.0
 11
-19.47425302
 21
5.9460257023
 31
0.0
 11
-19.5711153199
 21
5.9921823265
 31
0.0
 11
-19.6850560043
 21
6.009074811
 31
0.0
  0
SPLINE
  5
6D9
100
AcDbEntity
  8
ASSI
100
AcDbSpline
 62
253
  6
CONTINUOUS
 70
0
 71
3
 72
11
 73
7
 74
5
 42
0.0000001
 43
0.0000001
 44
0.0000000001
 12
-0.0069988137
 22
0.401084489
 32
0.0
 13
-0.401130273
 23
0.0035006841
 33
0.0
 40
0.0
 40
0.0
 40
0.0
 40
0.0
 40
0.2095120489
 40
0.4453745127
 40
0.7128531963
 40
1.0
 40
1.0
 40
1.0
 40
1.0
 10
-19.3974442905
 20
5.0898359954
 30
0.0
 10
-19.3979330691
 20
5.1178466731
 30
0.0
 10
-19.4170280072
 20
5.1777132563
 30
0.0
 10
-19.4868739955
 20
5.2463678841
 30
0.0
 10
-19.5844796265
 20
5.2909929471
 30
0.0
 10
-19.6590041739
 20
5.3016329569
 30
0.0
 10
-19.6973985991
 20
5.301968027
 30
0.0
 11
-19.3974442905
 21
5.0898359954
 31
0.0
 11
-19.4213295073
 21
5.1704153299
 31
0.0
 11
-19.4865939311
 21
5.238917788
 31
0.0
 11
-19.583456388
 21
5.2850751292
 31
0.0
 11
-19.6973985991
 21
5.301968027
 31
0.0
  0
SPLINE
  5
6DA
100
AcDbEntity
  8
ASSI
100
AcDbSpline
 62
253
  6
CONTINUOUS
 70
0
 71
3
 72
11
 73
7
 74
5
 42
0.0000001
 43
0.0000001
 44
0.0000000001
 12
0.0069988224
 22
0.4010844293
 32
0.0
 13
0.4011302117
 23
0.0035008838
 33
0.0
 40
0.0
 40
0.0
 40
0.0
 40
0.0
 40
0.2095153873
 40
0.4453794686
 40
0.7128570688
 40
1.0
 40
1.0
 40
1.0
 40
1.0
 10
-20.174869408
 20
5.0898359954
 30
0.0
 10
-20.174380621
 20
5.1178471153
 30
0.0
 10
-20.1552851288
 20
5.1777143472
 30
0.0
 10
-20.085438239
 20
5.2463687664
 30
0.0
 10
-19.9878328524
 20
5.2909931398
 30
0.0
 10
-19.913309001
 20
5.3016329451
 30
0.0
 10
-19.8749150994
 20
5.3019680298
 30
0.0
 11
-20.174869408
 21
5.0898359954
 31
0.0
 11
-20.1509834659
 21
5.1704164986
 31
0.0
 11
-20.0857180837
 21
5.2389189205
 31
0.0
 11
-19.9888557839
 21
5.2850755441
 31
0.0
 11
-19.8749150994
 21
5.3019680298
 31
0.0
  0
SPLINE
  5
6DB
100
AcDbEntity
  8
ASSI
100
AcDbSpline
 62
253
  6
CONTINUOUS
 70
0
 71
3
 72
11
 73
7
 74
5
 42
0.0000001
 43
0.0000001
 44
0.0000000001
 12
0.0069988223
 22
0.4010844284
 32
0.0
 13
0.4011302109
 23
0.003500877
 33
0.0
 40
0.0
 40
0.0
 40
0.0
 40
0.0
 40
0.209515632
 40
0.4453798145
 40
0.7128573246
 40
1.0
 40
1.0
 40
1.0
 40
1.0
 10
-20.1872120027
 20
5.7969427766
 30
0.0
 10
-20.1867232152
 20
5.8249539291
 30
0.0
 10
-20.1676276847
 20
5.884821207
 30
0.0
 10
-20.0977807341
 20
5.9534756118
 30
0.0
 10
-20.0001753658
 20
5.9980999383
 30
0.0
 10
-19.9256515615
 20
6.0087397273
 30
0.0
 10
-19.8872576942
 20
6.009074811
 30
0.0
 11
-20.1872120027
 21
5.7969427766
 31
0.0
 11
-20.1633260088
 21
5.8775233666
 31
0.0
 11
-20.0980605632
 21
5.9460257838
 31
0.0
 11
-20.0011982793
 21
5.9921823562
 31
0.0
 11
-19.8872576942
 21
6.009074811
 31
0.0
  0
SPLINE
  5
6DC
100
AcDbEntity
  8
ASSI
100
AcDbSpline
 62
7
  6
CONTINUOUS
 70
0
 71
3
 72
12
 73
8
 74
6
 42
0.0000001
 43
0.0000001
 44
0.0000000001
 12
0.3000739778
 22
-0.0
 32
0.0
 13
0.212185585
 23
0.2121831041
 33
0.0
 40
0.0
 40
0.0
 40
0.0
 40
0.0
 40
0.3053475036
 40
0.5820489604
 40
0.8022991747
 40
0.9467217969
 40
1.0
 40
1.0
 40
1.0
 40
1.0
 10
23.191156871
 20
-4.8630055104
 30
0.0
 10
23.221699151
 20
-4.8630055104
 30
0.0
 10
23.2800734687
 20
-4.8631370261
 30
0.0
 10
23.3597203216
 20
-4.8613740184
 30
0.0
 10
23.4254175788
 20
-4.8631978033
 30
0.0
 10
23.4641696967
 20
-4.856469727
 30
0.0
 10
23.487345776
 20
-4.8616286895
 30
0.0
 10
23.4911140649
 20
-4.8578604447
 30
0.0
 11
23.191156871
 21
-4.8630055104
 31
0.0
 11
23.2827833694
 21
-4.8627553003
 31
0.0
 11
23.3658110786
 21
-4.8620266204
 31
0.0
 11
23.4318927271
 21
-4.8608937776
 31
0.0
 11
23.475206272
 21
-4.8594539181
 31
0.0
 11
23.4911140649
 21
-4.8578604447
 31
0.0
  0
SPLINE
  5
6DD
100
AcDbEntity
  8
ASSI
100
AcDbSpline
 62
7
  6
CONTINUOUS
 70
0
 71
3
 72
12
 73
8
 74
6
 42
0.0000001
 43
0.0000001
 44
0.0000000001
 12
0.212185585
 22
-0.2121831041
 32
0.0
 13
0.3000739778
 23
0.0
 33
0.0
 40
0.0
 40
0.0
 40
0.0
 40
0.0
 40
0.0532782031
 40
0.1977008253
 40
0.4179510396
 40
0.6946524964
 40
1.0
 40
1.0
 40
1.0
 40
1.0
 10
-23.7634277634
 20
-4.8578604447
 30
0.0
 10
-23.7596594745
 20
-4.8616286895
 30
0.0
 10
-23.7364833952
 20
-4.856469727
 30
0.0
 10
-23.6977312773
 20
-4.8631978033
 30
0.0
 10
-23.6320340201
 20
-4.8613740184
 30
0.0
 10
-23.5523871672
 20
-4.8631370261
 30
0.0
 10
-23.4940128495
 20
-4.8630055104
 30
0.0
 10
-23.4634705695
 20
-4.8630055104
 30
0.0
 11
-23.7634277634
 21
-4.8578604447
 31
0.0
 11
-23.7475199705
 21
-4.8594539181
 31
0.0
 11
-23.7042064256
 21
-4.8608937776
 31
0.0
 11
-23.6381247771
 21
-4.8620266204
 31
0.0
 11
-23.5550970678
 21
-4.8627553003
 31
0.0
 11
-23.4634705695
 21
-4.8630055104
 31
0.0
  0
SPLINE
  5
6DE
100
AcDbEntity
  8
ASSI
100
AcDbSpline
 62
7
  6
CONTINUOUS
 70
0
 71
3
 72
12
 73
8
 74
6
 42
0.0000001
 43
0.0000001
 44
0.0000000001
 12
-0.2121858917
 22
0.2121865075
 32
0.0
 13
-0.3000766013
 23
0.0
 33
0.0
 40
0.0
 40
0.0
 40
0.0
 40
0.0
 40
0.0533078243
 40
0.1977742039
 40
0.4180472247
 40
0.6947316031
 40
1.0
 40
1.0
 40
1.0
 40
1.0
 10
23.489171922
 20
-1.0291545716
 30
0.0
 10
23.4854015325
 20
-1.0253841712
 30
0.0
 10
23.4622166087
 20
-1.0305438777
 30
0.0
 10
23.4234551053
 20
-1.0238145479
 30
0.0
 10
23.3577524117
 20
-1.0256372265
 30
0.0
 10
23.2781120297
 20
-1.0238743738
 30
0.0
 10
23.2197468987
 20
-1.0240056644
 30
0.0
 10
23.1892122643
 20
-1.0240056644
 30
0.0
 11
23.489171922
 21
-1.0291545716
 31
0.0
 11
23.4732552152
 21
-1.0275595038
 31
0.0
 11
23.4299281917
 21
-1.02611849
 31
0.0
 11
23.3638391328
 21
-1.0249849404
 31
0.0
 11
23.2808158255
 21
-1.0242559319
 31
0.0
 11
23.1892122643
 21
-1.0240056644
 31
0.0
  0
SPLINE
  5
6DF
100
AcDbEntity
  8
ASSI
100
AcDbSpline
 62
7
  6
CONTINUOUS
 70
0
 71
3
 72
12
 73
8
 74
6
 42
0.0000001
 43
0.0000001
 44
0.0000000001
 12
-0.3000766013
 22
-0.0
 32
0.0
 13
-0.2121858917
 23
-0.2121865075
 33
0.0
 40
0.0
 40
0.0
 40
0.0
 40
0.0
 40
0.3052683969
 40
0.5819527753
 40
0.8022257961
 40
0.9466921757
 40
1.0
 40
1.0
 40
1.0
 40
1.0
 10
-23.4615259628
 20
-1.0240056644
 30
0.0
 10
-23.4920605971
 20
-1.0240056644
 30
0.0
 10
-23.5504257282
 20
-1.0238743738
 30
0.0
 10
-23.6300661102
 20
-1.0256372265
 30
0.0
 10
-23.6957688038
 20
-1.0238145479
 30
0.0
 10
-23.7345303072
 20
-1.0305438777
 30
0.0
 10
-23.757715231
 20
-1.0253841712
 30
0.0
 10
-23.7614856204
 20
-1.0291545716
 30
0.0
 11
-23.4615259628
 21
-1.0240056644
 31
0.0
 11
-23.553129524
 21
-1.0242559319
 31
0.0
 11
-23.6361528313
 21
-1.0249849404
 31
0.0
 11
-23.7022418902
 21
-1.02611849
 31
0.0
 11
-23.7455689136
 21
-1.0275595038
 31
0.0
 11
-23.7614856204
 21
-1.0291545716
 31
0.0
  0
SPLINE
  5
6E0
100
AcDbEntity
  8
ASSI
100
AcDbSpline
 62
7
  6
CONTINUOUS
 70
0
 71
3
 72
12
 73
8
 74
6
 42
0.0000001
 43
0.0000001
 44
0.0000000001
 12
0.2121856603
 22
-0.2121849679
 32
0.0
 13
0.300075349
 23
0.0
 33
0.0
 40
0.0
 40
0.0
 40
0.0
 40
0.0
 40
0.0532816106
 40
0.1977093993
 40
0.417962435
 40
0.694661992
 40
1.0
 40
1.0
 40
1.0
 40
1.0
 10
-23.7646821105
 20
-6.8566060976
 30
0.0
 10
-23.7609135793
 20
-6.8603746165
 30
0.0
 10
-23.7377363557
 20
-6.8552155181
 30
0.0
 10
-23.6989830159
 20
-6.8619437954
 30
0.0
 10
-23.633284845
 20
-6.860120117
 30
0.0
 10
-23.553638471
 20
-6.8618831195
 30
0.0
 10
-23.495265034
 20
-6.8617516278
 30
0.0
 10
-23.4647235643
 20
-6.8617516278
 30
0.0
 11
-23.7646821105
 21
-6.8566060976
 31
0.0
 11
-23.7487732355
 21
-6.85819976
 31
0.0
 11
-23.7054579459
 21
-6.8596397592
 31
0.0
 11
-23.6393751501
 21
-6.8607726892
 31
0.0
 11
-23.5563476319
 21
-6.8615014106
 31
0.0
 11
-23.4647235643
 21
-6.8617516278
 31
0.0
  0
SPLINE
  5
6E1
100
AcDbEntity
  8
ASSI
100
AcDbSpline
 62
7
  6
CONTINUOUS
 70
0
 71
3
 72
12
 73
8
 74
6
 42
0.0000001
 43
0.0000001
 44
0.0000000001
 12
-0.3000816659
 22
0.0
 32
0.0
 13
-0.2121905985
 23
-0.2121889631
 33
0.0
 40
0.0
 40
0.0
 40
0.0
 40
0.0
 40
0.305206335
 40
0.5818776397
 40
0.8021687507
 40
0.9466692379
 40
1.0
 40
1.0
 40
1.0
 40
1.0
 10
-23.4642436263
 20
-6.1267252533
 30
0.0
 10
-23.4947725681
 20
-6.1267252533
 30
0.0
 10
-23.5531311051
 20
-6.1265941432
 30
0.0
 10
-23.6327672749
 20
-6.1283568796
 30
0.0
 10
-23.6984748842
 20
-6.1265350679
 30
0.0
 10
-23.7372441891
 20
-6.133265377
 30
0.0
 10
-23.7604361293
 20
-6.1281051095
 30
0.0
 10
-23.7642082248
 20
-6.1318771759
 30
0.0
 11
-23.4642436263
 21
-6.1267252533
 31
0.0
 11
-23.5558301097
 21
-6.1269755695
 31
0.0
 11
-23.6388508927
 21
-6.12770484
 31
0.0
 11
-23.7049464871
 21
-6.1288389483
 31
0.0
 11
-23.7482844533
 21
-6.1302808675
 31
0.0
 11
-23.7642082248
 21
-6.1318771759
 31
0.0
  0
SPLINE
  5
6E2
100
AcDbEntity
  8
ASSI
100
AcDbSpline
 62
7
  6
CONTINUOUS
 70
0
 71
3
 72
12
 73
8
 74
6
 42
0.0000001
 43
0.0000001
 44
0.0000000001
 12
0.2121821519
 22
-0.2121827803
 32
0.0
 13
0.3000713213
 23
-0.0
 33
0.0
 40
0.0
 40
0.0
 40
0.0
 40
0.0
 40
0.0532731
 40
0.1976880308
 40
0.4179339921
 40
0.6946382695
 40
1.0
 40
1.0
 40
1.0
 40
1.0
 10
-23.7606880392
 20
1.0393998311
 30
0.0
 10
-23.7569201722
 20
1.0356319529
 30
0.0
 10
-23.733745732
 20
1.0407908023
 30
0.0
 10
-23.6949956236
 20
1.0340629437
 30
0.0
 10
-23.629299815
 20
1.0358869284
 30
0.0
 10
-23.5496524299
 20
1.0341238958
 30
0.0
 10
-23.491276907
 20
1.0342554552
 30
0.0
 10
-23.4607334744
 20
1.0342554552
 30
0.0
 11
-23.7606880392
 21
1.0393998311
 31
0.0
 11
-23.7447818996
 21
1.0378066359
 31
0.0
 11
-23.7014710409
 21
1.036366983
 31
0.0
 11
-23.6353912519
 21
1.03523427
 31
0.0
 11
-23.5523634307
 21
1.0345056522
 31
0.0
 11
-23.4607334744
 21
1.0342554552
 31
0.0
  0
SPLINE
  5
6E3
100
AcDbEntity
  8
ASSI
100
AcDbSpline
 62
7
  6
CONTINUOUS
 70
0
 71
3
 72
12
 73
8
 74
6
 42
0.0000001
 43
0.0000001
 44
0.0000000001
 12
-0.3000744827
 22
-0.0
 32
0.0
 13
-0.2121844225
 23
-0.2121849807
 33
0.0
 40
0.0
 40
0.0
 40
0.0
 40
0.0
 40
0.3052957572
 40
0.5819859076
 40
0.8022509535
 40
0.9467022877
 40
1.0
 40
1.0
 40
1.0
 40
1.0
 10
-23.460490338
 20
1.7770306942
 30
0.0
 10
-23.4910274935
 20
1.7770306942
 30
0.0
 10
-23.5493955536
 20
1.777162063
 30
0.0
 10
-23.6290378273
 20
1.7753991621
 30
0.0
 10
-23.6947383693
 20
1.7772222155
 30
0.0
 10
-23.7334964663
 20
1.7704933325
 30
0.0
 10
-23.7566782837
 20
1.7756527751
 30
0.0
 10
-23.7604479318
 20
1.7718831171
 30
0.0
 11
-23.460490338
 21
1.7770306942
 31
0.0
 11
-23.5521014626
 21
1.7767804477
 31
0.0
 11
-23.6351259169
 21
1.7760515548
 31
0.0
 11
-23.7012121199
 21
1.7749182515
 31
0.0
 11
-23.7445343331
 21
1.7734776372
 31
0.0
 11
-23.7604479318
 21
1.7718831171
 31
0.0
  0
SPLINE
  5
6E4
100
AcDbEntity
  8
ASSI
100
AcDbSpline
 62
7
  6
CONTINUOUS
 70
0
 71
3
 72
12
 73
8
 74
6
 42
0.0000001
 43
0.0000001
 44
0.0000000001
 12
-0.2121905985
 22
0.2121889632
 32
0.0
 13
-0.3000816659
 23
-0.0
 33
0.0
 40
0.0
 40
0.0
 40
0.0
 40
0.0
 40
0.0533307621
 40
0.1978312493
 40
0.4181223603
 40
0.694793665
 40
1.0
 40
1.0
 40
1.0
 40
1.0
 10
23.4918945263
 20
-6.1318771759
 30
0.0
 10
23.4881224308
 20
-6.1281051095
 30
0.0
 10
23.4649304906
 20
-6.133265377
 30
0.0
 10
23.4261611857
 20
-6.1265350679
 30
0.0
 10
23.3604535764
 20
-6.1283568796
 30
0.0
 10
23.2808174067
 20
-6.1265941432
 30
0.0
 10
23.2224588696
 20
-6.1267252533
 30
0.0
 10
23.1919299278
 20
-6.1267252533
 30
0.0
 11
23.4918945263
 21
-6.1318771759
 31
0.0
 11
23.4759707548
 21
-6.1302808675
 31
0.0
 11
23.4326327887
 21
-6.1288389483
 31
0.0
 11
23.3665371942
 21
-6.12770484
 31
0.0
 11
23.2835164112
 21
-6.1269755695
 31
0.0
 11
23.1919299278
 21
-6.1267252533
 31
0.0
  0
SPLINE
  5
6E5
100
AcDbEntity
  8
ASSI
100
AcDbSpline
 62
7
  6
CONTINUOUS
 70
0
 71
3
 72
12
 73
8
 74
6
 42
0.0000001
 43
0.0000001
 44
0.0000000001
 12
0.300075349
 22
-0.0
 32
0.0
 13
0.2121856603
 23
0.2121849679
 33
0.0
 40
0.0
 40
0.0
 40
0.0
 40
0.0
 40
0.305338008
 40
0.582037565
 40
0.8022906007
 40
0.9467183894
 40
1.0
 40
1.0
 40
1.0
 40
1.0
 10
23.1924098658
 20
-6.8617516278
 30
0.0
 10
23.2229513355
 20
-6.8617516278
 30
0.0
 10
23.2813247726
 20
-6.8618831195
 30
0.0
 10
23.3609711465
 20
-6.860120117
 30
0.0
 10
23.4266693174
 20
-6.8619437954
 30
0.0
 10
23.4654226572
 20
-6.8552155181
 30
0.0
 10
23.4885998808
 20
-6.8603746165
 30
0.0
 10
23.492368412
 20
-6.8566060976
 30
0.0
 11
23.1924098658
 21
-6.8617516278
 31
0.0
 11
23.2840339334
 21
-6.8615014106
 31
0.0
 11
23.3670614516
 21
-6.8607726892
 31
0.0
 11
23.4331442474
 21
-6.8596397592
 31
0.0
 11
23.476459537
 21
-6.85819976
 31
0.0
 11
23.492368412
 21
-6.8566060976
 31
0.0
  0
SPLINE
  5
6E6
100
AcDbEntity
  8
ASSI
100
AcDbSpline
 62
7
  6
CONTINUOUS
 70
0
 71
3
 72
12
 73
8
 74
6
 42
0.0000001
 43
0.0000001
 44
0.0000000001
 12
-0.2121844225
 22
0.2121849807
 32
0.0
 13
-0.3000744827
 23
0.0
 33
0.0
 40
0.0
 40
0.0
 40
0.0
 40
0.0
 40
0.0532977123
 40
0.1977490465
 40
0.4180140924
 40
0.6947042428
 40
1.0
 40
1.0
 40
1.0
 40
1.0
 10
23.4881342333
 20
1.7718831171
 30
0.0
 10
23.4843645852
 20
1.7756527751
 30
0.0
 10
23.4611827678
 20
1.7704933325
 30
0.0
 10
23.4224246708
 20
1.7772222155
 30
0.0
 10
23.3567241288
 20
1.7753991621
 30
0.0
 10
23.2770818551
 20
1.777162063
 30
0.0
 10
23.218713795
 20
1.7770306942
 30
0.0
 10
23.1881766395
 20
1.7770306942
 30
0.0
 11
23.4881342333
 21
1.7718831171
 31
0.0
 11
23.4722206347
 21
1.7734776372
 31
0.0
 11
23.4288984214
 21
1.7749182515
 31
0.0
 11
23.3628122184
 21
1.7760515548
 31
0.0
 11
23.2797877641
 21
1.7767804477
 31
0.0
 11
23.1881766395
 21
1.7770306942
 31
0.0
  0
SPLINE
  5
6E7
100
AcDbEntity
  8
ASSI
100
AcDbSpline
 62
7
  6
CONTINUOUS
 70
0
 71
3
 72
12
 73
8
 74
6
 42
0.0000001
 43
0.0000001
 44
0.0000000001
 12
0.3000713213
 22
0.0
 32
0.0
 13
0.2121821519
 23
0.2121827803
 33
0.0
 40
0.0
 40
0.0
 40
0.0
 40
0.0
 40
0.3053617305
 40
0.5820660079
 40
0.8023119692
 40
0.9467269
 40
1.0
 40
1.0
 40
1.0
 40
1.0
 10
23.1884197759
 20
1.0342554552
 30
0.0
 10
23.2189632085
 20
1.0342554552
 30
0.0
 10
23.2773387314
 20
1.0341238958
 30
0.0
 10
23.3569861165
 20
1.0358869284
 30
0.0
 10
23.4226819251
 20
1.0340629437
 30
0.0
 10
23.4614320335
 20
1.0407908023
 30
0.0
 10
23.4846064737
 20
1.0356319529
 30
0.0
 10
23.4883743407
 20
1.0393998311
 30
0.0
 11
23.1884197759
 21
1.0342554552
 31
0.0
 11
23.2800497322
 21
1.0345056522
 31
0.0
 11
23.3630775534
 21
1.03523427
 31
0.0
 11
23.4291573425
 21
1.036366983
 31
0.0
 11
23.4724682011
 21
1.0378066359
 31
0.0
 11
23.4883743407
 21
1.0393998311
 31
0.0
  0
SPLINE
  5
6E8
100
AcDbEntity
  8
ASSI
100
AcDbSpline
 62
253
  6
CONTINUOUS
 70
0
 71
3
 72
11
 73
7
 74
5
 42
0.0000001
 43
0.0000001
 44
0.0000000001
 12
0.0069988224
 22
0.4010844293
 32
0.0
 13
0.4011302117
 23
0.0035008838
 33
0.0
 40
0.0
 40
0.0
 40
0.0
 40
0.0
 40
0.2095153873
 40
0.4453794686
 40
0.7128570688
 40
1.0
 40
1.0
 40
1.0
 40
1.0
 10
19.125130592
 20
5.0898359954
 30
0.0
 10
19.125619379
 20
5.1178471153
 30
0.0
 10
19.1447148712
 20
5.1777143472
 30
0.0
 10
19.214561761
 20
5.2463687664
 30
0.0
 10
19.3121671476
 20
5.2909931398
 30
0.0
 10
19.386690999
 20
5.3016329451
 30
0.0
 10
19.4250849006
 20
5.3019680298
 30
0.0
 11
19.125130592
 21
5.0898359954
 31
0.0
 11
19.1490165341
 21
5.1704164986
 31
0.0
 11
19.2142819163
 21
5.2389189205
 31
0.0
 11
19.3111442161
 21
5.2850755441
 31
0.0
 11
19.4250849006
 21
5.3019680298
 31
0.0
  0
SPLINE
  5
6E9
100
AcDbEntity
  8
ASSI
100
AcDbSpline
 62
253
  6
CONTINUOUS
 70
0
 71
3
 72
11
 73
7
 74
5
 42
0.0000001
 43
0.0000001
 44
0.0000000001
 12
0.0069988223
 22
0.4010844284
 32
0.0
 13
0.4011302109
 23
0.003500877
 33
0.0
 40
0.0
 40
0.0
 40
0.0
 40
0.0
 40
0.209515632
 40
0.4453798145
 40
0.7128573246
 40
1.0
 40
1.0
 40
1.0
 40
1.0
 10
19.1127879973
 20
5.7969427766
 30
0.0
 10
19.1132767848
 20
5.8249539291
 30
0.0
 10
19.1323723153
 20
5.884821207
 30
0.0
 10
19.2022192659
 20
5.9534756118
 30
0.0
 10
19.2998246342
 20
5.9980999383
 30
0.0
 10
19.3743484385
 20
6.0087397273
 30
0.0
 10
19.4127423058
 20
6.009074811
 30
0.0
 11
19.1127879973
 21
5.7969427766
 31
0.0
 11
19.1366739912
 21
5.8775233666
 31
0.0
 11
19.2019394368
 21
5.9460257838
 31
0.0
 11
19.2988017207
 21
5.9921823562
 31
0.0
 11
19.4127423058
 21
6.009074811
 31
0.0
  0
SPLINE
  5
6EA
100
AcDbEntity
  8
ASSI
100
AcDbSpline
 62
253
  6
CONTINUOUS
 70
0
 71
3
 72
11
 73
7
 74
5
 42
0.0000001
 43
0.0000001
 44
0.0000000001
 12
-0.0069988224
 22
0.4010844298
 32
0.0
 13
-0.4011302123
 23
0.0035008769
 33
0.0
 40
0.0
 40
0.0
 40
0.0
 40
0.0
 40
0.2095153874
 40
0.4453794694
 40
0.7128570698
 40
1.0
 40
1.0
 40
1.0
 40
1.0
 10
19.9148983042
 20
5.7969427766
 30
0.0
 10
19.9144095173
 20
5.8249538965
 30
0.0
 10
19.895314025
 20
5.8848211286
 30
0.0
 10
19.8254671353
 20
5.9534755481
 30
0.0
 10
19.7278617489
 20
5.9980999225
 30
0.0
 10
19.6533378972
 20
6.0087397269
 30
0.0
 10
19.6149439957
 20
6.009074811
 30
0.0
 11
19.9148983042
 21
5.7969427766
 31
0.0
 11
19.8910123621
 21
5.87752328
 31
0.0
 11
19.82574698
 21
5.9460257023
 31
0.0
 11
19.7288846801
 21
5.9921823265
 31
0.0
 11
19.6149439957
 21
6.009074811
 31
0.0
  0
SPLINE
  5
6EB
100
AcDbEntity
  8
ASSI
100
AcDbSpline
 62
253
  6
CONTINUOUS
 70
0
 71
3
 72
11
 73
7
 74
5
 42
0.0000001
 43
0.0000001
 44
0.0000000001
 12
-0.0069988137
 22
0.401084489
 32
0.0
 13
-0.401130273
 23
0.0035006841
 33
0.0
 40
0.0
 40
0.0
 40
0.0
 40
0.0
 40
0.2095120489
 40
0.4453745127
 40
0.7128531963
 40
1.0
 40
1.0
 40
1.0
 40
1.0
 10
19.9025557095
 20
5.0898359954
 30
0.0
 10
19.9020669309
 20
5.1178466731
 30
0.0
 10
19.8829719928
 20
5.1777132563
 30
0.0
 10
19.8131260045
 20
5.2463678841
 30
0.0
 10
19.7155203735
 20
5.2909929471
 30
0.0
 10
19.6409958261
 20
5.3016329569
 30
0.0
 10
19.6026014009
 20
5.301968027
 30
0.0
 11
19.9025557095
 21
5.0898359954
 31
0.0
 11
19.8786704927
 21
5.1704153299
 31
0.0
 11
19.8134060689
 21
5.238917788
 31
0.0
 11
19.716543612
 21
5.2850751292
 31
0.0
 11
19.6026014009
 21
5.301968027
 31
0.0
  0
SPLINE
  5
6EC
100
AcDbEntity
  8
ASSI
100
AcDbSpline
 62
253
  6
CONTINUOUS
 70
0
 71
3
 72
12
 73
8
 74
6
 42
0.0000001
 43
0.0000001
 44
0.0000000001
 12
0.188162755
 22
0.4631952088
 32
0.0
 13
0.000001281
 23
0.4999550218
 33
0.0
 40
0.0
 40
0.0
 40
0.0
 40
0.0
 40
0.0533471248
 40
0.1972618061
 40
0.417998053
 40
0.6944311848
 40
1.0
 40
1.0
 40
1.0
 40
1.0
 10
19.4226773082
 20
3.0644012693
 30
0.0
 10
19.4260232889
 20
3.0726379801
 30
0.0
 10
19.4206929735
 20
3.1069594191
 30
0.0
 10
19.42685181
 20
3.1753264649
 30
0.0
 10
19.424772461
 20
3.2828222498
 30
0.0
 10
19.4262811751
 20
3.416344048
 30
0.0
 10
19.4261072641
 20
3.5134015623
 30
0.0
 10
19.4261073946
 20
3.5643251169
 30
0.0
 11
19.4226773082
 21
3.0644012693
 31
0.0
 11
19.4237426602
 21
3.0910511465
 31
0.0
 11
19.424698819
 21
3.1629956607
 31
0.0
 11
19.4254551817
 21
3.2733512638
 31
0.0
 11
19.4259404142
 21
3.4115545444
 31
0.0
 11
19.4261073946
 21
3.5643251169
 31
0.0
  0
SPLINE
  5
6ED
100
AcDbEntity
  8
ASSI
100
AcDbSpline
 62
253
  6
CONTINUOUS
 70
0
 71
3
 72
12
 73
8
 74
6
 42
0.0000001
 43
0.0000001
 44
0.0000000001
 12
0.000001281
 22
-0.4999550218
 32
0.0
 13
0.1881627568
 23
-0.4631952081
 33
0.0
 40
0.0
 40
0.0
 40
0.0
 40
0.0
 40
0.305568815
 40
0.5820019468
 40
0.8027381938
 40
0.9466528751
 40
1.0
 40
1.0
 40
1.0
 40
1.0
 10
19.6015789069
 20
3.5643251169
 30
0.0
 10
19.6015790374
 20
3.5134015623
 30
0.0
 10
19.6014051264
 20
3.4163440481
 30
0.0
 10
19.6029138405
 20
3.2828222499
 30
0.0
 10
19.6008344915
 20
3.175326465
 30
0.0
 10
19.606993328
 20
3.1069594191
 30
0.0
 10
19.6016630126
 20
3.0726379801
 30
0.0
 10
19.6050089933
 20
3.0644012693
 30
0.0
 11
19.6015789069
 21
3.5643251169
 31
0.0
 11
19.6017458873
 21
3.4115545445
 31
0.0
 11
19.6022311198
 21
3.2733512639
 31
0.0
 11
19.6029874825
 21
3.1629956607
 31
0.0
 11
19.6039436413
 21
3.0910511466
 31
0.0
 11
19.6050089933
 21
3.0644012693
 31
0.0
  0
SPLINE
  5
6EE
100
AcDbEntity
  8
ASSI
100
AcDbSpline
 62
253
  6
CONTINUOUS
 70
0
 71
3
 72
9
 73
5
 74
3
 42
0.0000001
 43
0.0000001
 44
0.0000000001
 12
0.0053452793
 22
-1.6468770511
 32
0.0
 13
0.0076765735
 23
-1.6468678343
 33
0.0
 40
0.0
 40
0.0
 40
0.0
 40
0.0
 40
0.5000137269
 40
1.0
 40
1.0
 40
1.0
 40
1.0
 10
-4.3781038883
 20
5.5791139197
 30
0.0
 10
-4.3772129839
 20
5.3046268757
 30
0.0
 10
-4.3752369031
 20
4.7556684722
 30
0.0
 10
-4.372872367
 20
4.2067116045
 30
0.0
 10
-4.3715929732
 20
3.9322411676
 30
0.0
 11
-4.3781038883
 21
5.5791139197
 31
0.0
 11
-4.3751397297
 21
4.7556537852
 31
0.0
 11
-4.3715929732
 21
3.9322411676
 31
0.0
  0
SPLINE
  5
6EF
100
AcDbEntity
  8
ASSI
100
AcDbSpline
 62
253
  6
CONTINUOUS
 70
0
 71
3
 72
9
 73
5
 74
3
 42
0.0000001
 43
0.0000001
 44
0.0000000001
 12
0.0076765735
 22
1.6468678343
 32
0.0
 13
0.0053452793
 23
1.6468770511
 33
0.0
 40
0.0
 40
0.0
 40
0.0
 40
0.0
 40
0.499986712
 40
1.0
 40
1.0
 40
1.0
 40
1.0
 10
4.0992792747
 20
3.9322411676
 30
0.0
 10
4.1005586697
 20
4.2067118455
 30
0.0
 10
4.1029232056
 20
4.7556687132
 30
0.0
 10
4.1048992862
 20
5.3046271166
 30
0.0
 10
4.1057901898
 20
5.5791139197
 30
0.0
 11
4.0992792747
 21
3.9322411676
 31
0.0
 11
4.1028260341
 21
4.755654508
 31
0.0
 11
4.1057901898
 21
5.5791139197
 31
0.0
  0
SPLINE
  5
6F0
100
AcDbEntity
  8
ASSI
100
AcDbSpline
 62
253
  6
CONTINUOUS
 70
0
 71
3
 72
11
 73
7
 74
5
 42
0.0000001
 43
0.0000001
 44
0.0000000001
 12
-0.0098905691
 22
0.5656197527
 32
0.0
 13
-0.0000105791
 23
0.5657062205
 33
0.0
 40
0.0
 40
0.0
 40
0.0
 40
0.0
 40
0.203753628
 40
0.4534050995
 40
0.7280845227
 40
1.0
 40
1.0
 40
1.0
 40
1.0
 10
19.1127879973
 20
5.7969427766
 30
0.0
 10
19.1121162508
 20
5.8353584688
 30
0.0
 10
19.1109182032
 20
5.9208486314
 30
0.0
 10
19.1096487762
 20
6.0581371268
 30
0.0
 10
19.1088691662
 20
6.2082826508
 30
0.0
 10
19.10869898
 20
6.3113534426
 30
0.0
 10
19.1086980211
 20
6.3626282016
 30
0.0
 11
19.1127879973
 21
5.7969427766
 31
0.0
 11
19.1111217799
 21
5.9121954277
 31
0.0
 11
19.1097832762
 21
6.0534184752
 31
0.0
 11
19.1089586322
 21
6.2088041453
 31
0.0
 11
19.1086980211
 21
6.3626282016
 31
0.0
  0
SPLINE
  5
6F1
100
AcDbEntity
  8
ASSI
100
AcDbSpline
 62
253
  6
CONTINUOUS
 70
0
 71
3
 72
10
 73
6
 74
4
 42
0.0000001
 43
0.0000001
 44
0.0000000001
 12
0.000000142
 22
0.1414264683
 32
0.0
 13
-0.0024701873
 23
0.1414048942
 33
0.0
 40
0.0
 40
0.0
 40
0.0
 40
0.0
 40
0.3658056966
 40
0.7062804612
 40
1.0
 40
1.0
 40
1.0
 40
1.0
 10
19.1261530861
 20
4.9484146392
 30
0.0
 10
19.1261531034
 20
4.9656595084
 30
0.0
 10
19.1260793196
 20
4.9989551618
 30
0.0
 10
19.1257509014
 20
5.0460963155
 30
0.0
 10
19.1253724395
 20
5.0759915353
 30
0.0
 10
19.125130592
 20
5.0898359954
 30
0.0
 11
19.1261530861
 21
4.9484146392
 31
0.0
 11
19.1260342431
 21
5.0001491104
 31
0.0
 11
19.1256864965
 21
5.0482999982
 31
0.0
 11
19.125130592
 21
5.0898359954
 31
0.0
  0
SPLINE
  5
6F2
100
AcDbEntity
  8
ASSI
100
AcDbSpline
 62
253
  6
CONTINUOUS
 70
0
 71
3
 72
12
 73
8
 74
6
 42
0.0000001
 43
0.0000001
 44
0.0000000001
 12
0.1431629629
 22
0.1397257719
 32
0.0
 13
0.0000002731
 23
0.2000473076
 33
0.0
 40
0.0
 40
0.0
 40
0.0
 40
0.0
 40
0.053680495
 40
0.1976944885
 40
0.4183849018
 40
0.6946711573
 40
1.0
 40
1.0
 40
1.0
 40
1.0
 10
19.1227229997
 20
3.3643555778
 30
0.0
 10
19.1252846859
 20
3.3668557607
 30
0.0
 10
19.1217612792
 20
3.3823806461
 30
0.0
 10
19.1263068406
 20
3.4081852691
 30
0.0
 10
19.1250569303
 20
3.4519888976
 30
0.0
 10
19.1262439267
 20
3.5050751649
 30
0.0
 10
19.1261530583
 20
3.5439650459
 30
0.0
 10
19.1261530861
 20
3.5643251169
 30
0.0
 11
19.1227229997
 21
3.3643555778
 31
0.0
 11
19.1237893887
 21
3.3750411368
 31
0.0
 11
19.1247450499
 21
3.4038348937
 31
0.0
 11
19.1255014301
 21
3.4479769368
 31
0.0
 11
19.1259862791
 21
3.5032451317
 31
0.0
 11
19.1261530861
 21
3.5643251169
 31
0.0
  0
SPLINE
  5
6F3
100
AcDbEntity
  8
ASSI
100
AcDbSpline
 62
253
  6
CONTINUOUS
 70
0
 71
3
 72
12
 73
8
 74
6
 42
0.0000001
 43
0.0000001
 44
0.0000000001
 12
0.0000002731
 22
-0.2000473076
 32
0.0
 13
0.1431629629
 23
-0.1397257719
 33
0.0
 40
0.0
 40
0.0
 40
0.0
 40
0.0
 40
0.3053288425
 40
0.581615098
 40
0.8023055113
 40
0.9463195049
 40
1.0
 40
1.0
 40
1.0
 40
1.0
 10
19.9015332154
 20
3.5643251169
 30
0.0
 10
19.9015332432
 20
3.5439650459
 30
0.0
 10
19.9014423748
 20
3.505075165
 30
0.0
 10
19.9026293712
 20
3.4519888977
 30
0.0
 10
19.9013794609
 20
3.4081852691
 30
0.0
 10
19.9059250223
 20
3.3823806461
 30
0.0
 10
19.9024016156
 20
3.3668557607
 30
0.0
 10
19.9049633018
 20
3.3643555778
 30
0.0
 11
19.9015332154
 21
3.5643251169
 31
0.0
 11
19.9017000224
 21
3.5032451318
 31
0.0
 11
19.9021848715
 21
3.4479769369
 31
0.0
 11
19.9029412516
 21
3.4038348937
 31
0.0
 11
19.9038969128
 21
3.3750411368
 31
0.0
 11
19.9049633018
 21
3.3643555778
 31
0.0
  0
SPLINE
  5
6F4
100
AcDbEntity
  8
ASSI
100
AcDbSpline
 62
253
  6
CONTINUOUS
 70
0
 71
3
 72
10
 73
6
 74
4
 42
0.0000001
 43
0.0000001
 44
0.0000000001
 12
-0.0024701868
 22
-0.1414048942
 32
0.0
 13
0.0000001414
 23
-0.1414264683
 33
0.0
 40
0.0
 40
0.0
 40
0.0
 40
0.0
 40
0.2937195618
 40
0.6341943926
 40
1.0
 40
1.0
 40
1.0
 40
1.0
 10
19.9025557095
 20
5.0898359954
 30
0.0
 10
19.9023138621
 20
5.0759915342
 30
0.0
 10
19.9019354001
 20
5.0460963102
 30
0.0
 10
19.9016069818
 20
4.9989551565
 30
0.0
 10
19.9015331982
 20
4.9656595042
 30
0.0
 10
19.9015332154
 20
4.9484146392
 30
0.0
 11
19.9025557095
 21
5.0898359954
 31
0.0
 11
19.901999805
 21
5.048299995
 31
0.0
 11
19.9016520583
 21
5.0001490978
 31
0.0
 11
19.9015332154
 21
4.9484146392
 31
0.0
  0
SPLINE
  5
6F5
100
AcDbEntity
  8
ASSI
100
AcDbSpline
 62
253
  6
CONTINUOUS
 70
0
 71
3
 72
11
 73
7
 74
5
 42
0.0000001
 43
0.0000001
 44
0.0000000001
 12
-0.0000102035
 22
-0.56570622
 32
0.0
 13
-0.0098911393
 23
-0.5656197423
 33
0.0
 40
0.0
 40
0.0
 40
0.0
 40
0.0
 40
0.27116473
 40
0.5456360084
 40
0.7955929365
 40
1.0
 40
1.0
 40
1.0
 40
1.0
 10
19.9189882804
 20
6.3626282016
 30
0.0
 10
19.9189873581
 20
6.3114950101
 30
0.0
 10
19.9188178767
 20
6.2086050363
 30
0.0
 10
19.9180406813
 20
6.0585827201
 30
0.0
 10
19.9167718842
 20
5.921152646
 30
0.0
 10
19.9155722438
 20
5.8354816668
 30
0.0
 10
19.9148983042
 20
5.7969427766
 30
0.0
 11
19.9189882804
 21
6.3626282016
 31
0.0
 11
19.9187291176
 21
6.209228846
 31
0.0
 11
19.9179069875
 21
6.0539609131
 31
0.0
 11
19.9165689132
 21
5.9125650553
 31
0.0
 11
19.9148983042
 21
5.7969427766
 31
0.0
  0
SPLINE
  5
6F6
100
AcDbEntity
  8
ASSI
100
AcDbSpline
 62
253
  6
CONTINUOUS
 70
0
 71
3
 72
12
 73
8
 74
6
 42
0.0000001
 43
0.0000001
 44
0.0000000001
 12
0.0000002731
 22
-0.2000473076
 32
0.0
 13
0.1431629629
 23
-0.1397257719
 33
0.0
 40
0.0
 40
0.0
 40
0.0
 40
0.0
 40
0.3053288425
 40
0.581615098
 40
0.8023055113
 40
0.9463195049
 40
1.0
 40
1.0
 40
1.0
 40
1.0
 10
-19.3984667846
 20
3.5643251169
 30
0.0
 10
-19.3984667568
 20
3.5439650459
 30
0.0
 10
-19.3985576252
 20
3.505075165
 30
0.0
 10
-19.3973706288
 20
3.4519888977
 30
0.0
 10
-19.3986205391
 20
3.4081852691
 30
0.0
 10
-19.3940749777
 20
3.3823806461
 30
0.0
 10
-19.3975983844
 20
3.3668557607
 30
0.0
 10
-19.3950366982
 20
3.3643555778
 30
0.0
 11
-19.3984667846
 21
3.5643251169
 31
0.0
 11
-19.3982999776
 21
3.5032451318
 31
0.0
 11
-19.3978151285
 21
3.4479769369
 31
0.0
 11
-19.3970587484
 21
3.4038348937
 31
0.0
 11
-19.3961030872
 21
3.3750411368
 31
0.0
 11
-19.3950366982
 21
3.3643555778
 31
0.0
  0
SPLINE
  5
6F7
100
AcDbEntity
  8
ASSI
100
AcDbSpline
 62
253
  6
CONTINUOUS
 70
0
 71
3
 72
10
 73
6
 74
4
 42
0.0000001
 43
0.0000001
 44
0.0000000001
 12
-0.0024701868
 22
-0.1414048942
 32
0.0
 13
0.0000001414
 23
-0.1414264683
 33
0.0
 40
0.0
 40
0.0
 40
0.0
 40
0.0
 40
0.2937195618
 40
0.6341943926
 40
1.0
 40
1.0
 40
1.0
 40
1.0
 10
-19.3974442905
 20
5.0898359954
 30
0.0
 10
-19.3976861379
 20
5.0759915342
 30
0.0
 10
-19.3980645999
 20
5.0460963102
 30
0.0
 10
-19.3983930182
 20
4.9989551565
 30
0.0
 10
-19.3984668018
 20
4.9656595042
 30
0.0
 10
-19.3984667846
 20
4.9484146392
 30
0.0
 11
-19.3974442905
 21
5.0898359954
 31
0.0
 11
-19.398000195
 21
5.048299995
 31
0.0
 11
-19.3983479417
 21
5.0001490978
 31
0.0
 11
-19.3984667846
 21
4.9484146392
 31
0.0
  0
SPLINE
  5
6F8
100
AcDbEntity
  8
ASSI
100
AcDbSpline
 62
253
  6
CONTINUOUS
 70
0
 71
3
 72
11
 73
7
 74
5
 42
0.0000001
 43
0.0000001
 44
0.0000000001
 12
-0.0000102035
 22
-0.56570622
 32
0.0
 13
-0.0098911393
 23
-0.5656197423
 33
0.0
 40
0.0
 40
0.0
 40
0.0
 40
0.0
 40
0.27116473
 40
0.5456360084
 40
0.7955929365
 40
1.0
 40
1.0
 40
1.0
 40
1.0
 10
-19.3810117196
 20
6.3626282016
 30
0.0
 10
-19.3810126419
 20
6.3114950101
 30
0.0
 10
-19.3811821233
 20
6.2086050363
 30
0.0
 10
-19.3819593187
 20
6.0585827201
 30
0.0
 10
-19.3832281158
 20
5.921152646
 30
0.0
 10
-19.3844277562
 20
5.8354816668
 30
0.0
 10
-19.3851016958
 20
5.7969427766
 30
0.0
 11
-19.3810117196
 21
6.3626282016
 31
0.0
 11
-19.3812708824
 21
6.209228846
 31
0.0
 11
-19.3820930125
 21
6.0539609131
 31
0.0
 11
-19.3834310868
 21
5.9125650553
 31
0.0
 11
-19.3851016958
 21
5.7969427766
 31
0.0
  0
SPLINE
  5
6F9
100
AcDbEntity
  8
ASSI
100
AcDbSpline
 62
253
  6
CONTINUOUS
 70
0
 71
3
 72
11
 73
7
 74
5
 42
0.0000001
 43
0.0000001
 44
0.0000000001
 12
-0.0098905691
 22
0.5656197527
 32
0.0
 13
-0.0000105791
 23
0.5657062205
 33
0.0
 40
0.0
 40
0.0
 40
0.0
 40
0.0
 40
0.203753628
 40
0.4534050995
 40
0.7280845227
 40
1.0
 40
1.0
 40
1.0
 40
1.0
 10
-20.1872120027
 20
5.7969427766
 30
0.0
 10
-20.1878837492
 20
5.8353584688
 30
0.0
 10
-20.1890817968
 20
5.9208486314
 30
0.0
 10
-20.1903512238
 20
6.0581371268
 30
0.0
 10
-20.1911308338
 20
6.2082826508
 30
0.0
 10
-20.19130102
 20
6.3113534426
 30
0.0
 10
-20.1913019789
 20
6.3626282016
 30
0.0
 11
-20.1872120027
 21
5.7969427766
 31
0.0
 11
-20.1888782201
 21
5.9121954277
 31
0.0
 11
-20.1902167238
 21
6.0534184752
 31
0.0
 11
-20.1910413678
 21
6.2088041453
 31
0.0
 11
-20.1913019789
 21
6.3626282016
 31
0.0
  0
SPLINE
  5
6FA
100
AcDbEntity
  8
ASSI
100
AcDbSpline
 62
253
  6
CONTINUOUS
 70
0
 71
3
 72
10
 73
6
 74
4
 42
0.0000001
 43
0.0000001
 44
0.0000000001
 12
0.000000142
 22
0.1414264683
 32
0.0
 13
-0.0024701873
 23
0.1414048942
 33
0.0
 40
0.0
 40
0.0
 40
0.0
 40
0.0
 40
0.3658056966
 40
0.7062804612
 40
1.0
 40
1.0
 40
1.0
 40
1.0
 10
-20.1738469139
 20
4.9484146392
 30
0.0
 10
-20.1738468966
 20
4.9656595084
 30
0.0
 10
-20.1739206804
 20
4.9989551618
 30
0.0
 10
-20.1742490986
 20
5.0460963155
 30
0.0
 10
-20.1746275605
 20
5.0759915353
 30
0.0
 10
-20.174869408
 20
5.0898359954
 30
0.0
 11
-20.1738469139
 21
4.9484146392
 31
0.0
 11
-20.1739657569
 21
5.0001491104
 31
0.0
 11
-20.1743135035
 21
5.0482999982
 31
0.0
 11
-20.174869408
 21
5.0898359954
 31
0.0
  0
SPLINE
  5
6FB
100
AcDbEntity
  8
ASSI
100
AcDbSpline
 62
253
  6
CONTINUOUS
 70
0
 71
3
 72
12
 73
8
 74
6
 42
0.0000001
 43
0.0000001
 44
0.0000000001
 12
0.1431629629
 22
0.1397257719
 32
0.0
 13
0.0000002731
 23
0.2000473076
 33
0.0
 40
0.0
 40
0.0
 40
0.0
 40
0.0
 40
0.053680495
 40
0.1976944885
 40
0.4183849018
 40
0.6946711573
 40
1.0
 40
1.0
 40
1.0
 40
1.0
 10
-20.1772770003
 20
3.3643555778
 30
0.0
 10
-20.1747153141
 20
3.3668557607
 30
0.0
 10
-20.1782387208
 20
3.3823806461
 30
0.0
 10
-20.1736931594
 20
3.4081852691
 30
0.0
 10
-20.1749430697
 20
3.4519888976
 30
0.0
 10
-20.1737560733
 20
3.5050751649
 30
0.0
 10
-20.1738469417
 20
3.5439650459
 30
0.0
 10
-20.1738469139
 20
3.5643251169
 30
0.0
 11
-20.1772770003
 21
3.3643555778
 31
0.0
 11
-20.1762106113
 21
3.3750411368
 31
0.0
 11
-20.1752549501
 21
3.4038348937
 31
0.0
 11
-20.1744985699
 21
3.4479769368
 31
0.0
 11
-20.1740137209
 21
3.5032451317
 31
0.0
 11
-20.1738469139
 21
3.5643251169
 31
0.0
  0
SPLINE
  5
6FC
100
AcDbEntity
  8
ASSI
100
AcDbSpline
 62
253
  6
CONTINUOUS
 70
0
 71
3
 72
9
 73
5
 74
3
 42
0.0000001
 43
0.0000001
 44
0.0000000001
 12
0.0003603394
 22
-6.1661325534
 32
0.0
 13
0.0019281047
 23
-6.1661322625
 33
0.0
 40
0.0
 40
0.0
 40
0.0
 40
0.0
 40
0.500035562
 40
1.0
 40
1.0
 40
1.0
 40
1.0
 10
23.486990072
 20
7.9380155624
 30
0.0
 10
23.4870501329
 20
6.9102537103
 30
0.0
 10
23.4873008789
 20
4.854876198
 30
0.0
 10
23.4878129054
 20
2.7994987343
 30
0.0
 10
23.4881342333
 20
1.7718831171
 30
0.0
 11
23.486990072
 21
7.9380155624
 31
0.0
 11
23.4873662261
 21
4.8547300237
 31
0.0
 11
23.4881342333
 21
1.7718831171
 31
0.0
  0
LINE
  5
6FD
100
AcDbEntity
  8
ASSI
100
AcDbLine
 62
253
  6
CONTINUOUS
 10
23.4883743407
 20
1.0393998311
 11
23.489171922
 21
-1.0291545716
  0
LINE
  5
6FE
100
AcDbEntity
  8
ASSI
100
AcDbLine
 62
253
  6
CONTINUOUS
 10
23.4911140649
 20
-4.8578604447
 11
23.4918945263
 21
-6.1318771759
  0
LINE
  5
6FF
100
AcDbEntity
  8
ASSI
100
AcDbLine
 62
253
  6
CONTINUOUS
 10
23.492368412
 20
-6.8566060976
 11
23.4927188234
 21
-7.3722924858
  0
LINE
  5
700
100
AcDbEntity
  8
ASSI
100
AcDbLine
 62
253
  6
CONTINUOUS
 10
-23.7642082248
 20
-6.1318771759
 11
-23.7634277634
 21
-4.8578604447
  0
LINE
  5
701
100
AcDbEntity
  8
ASSI
100
AcDbLine
 62
253
  6
CONTINUOUS
 10
-23.7650325219
 20
-7.3722924858
 11
-23.7646821105
 21
-6.8566060976
  0
LINE
  5
702
100
AcDbEntity
  8
ASSI
100
AcDbLine
 62
253
  6
CONTINUOUS
 10
-23.7614856204
 20
-1.0291545716
 11
-23.7606880392
 21
1.0393998311
  0
SPLINE
  5
703
100
AcDbEntity
  8
ASSI
100
AcDbSpline
 62
253
  6
CONTINUOUS
 70
0
 71
3
 72
9
 73
5
 74
3
 42
0.0000001
 43
0.0000001
 44
0.0000000001
 12
0.0019281047
 22
6.1661322625
 32
0.0
 13
0.0003603394
 23
6.1661325534
 33
0.0
 40
0.0
 40
0.0
 40
0.0
 40
0.0
 40
0.4999644739
 40
1.0
 40
1.0
 40
1.0
 40
1.0
 10
-23.7604479318
 20
1.7718831171
 30
0.0
 10
-23.7601266038
 20
2.799498808
 30
0.0
 10
-23.7596145774
 20
4.8548762718
 30
0.0
 10
-23.7593638313
 20
6.910253784
 30
0.0
 10
-23.7593037705
 20
7.9380155624
 30
0.0
 11
-23.7604479318
 21
1.7718831171
 31
0.0
 11
-23.7596799246
 21
4.854730245
 31
0.0
 11
-23.7593037705
 21
7.9380155624
 31
0.0
  0
SPLINE
  5
704
100
AcDbEntity
  8
ASSI
100
AcDbSpline
 62
7
  6
CONTINUOUS
 70
0
 71
3
 72
12
 73
8
 74
6
 42
0.0000001
 43
0.0000001
 44
0.0000000001
 12
0.3000708432
 22
-0.0
 32
0.0
 13
0.2121821359
 23
0.2121821203
 33
0.0
 40
0.0
 40
0.0
 40
0.0
 40
0.0
 40
0.3053517528
 40
0.5820537449
 40
0.8023025256
 40
0.9467230498
 40
1.0
 40
1.0
 40
1.0
 40
1.0
 10
23.1870360056
 20
7.9328707044
 30
0.0
 10
23.2175783916
 20
7.9328707044
 30
0.0
 10
23.2759525842
 20
7.9327391757
 30
0.0
 10
23.3555989241
 20
7.9345021787
 30
0.0
 10
23.4212952187
 20
7.9326783532
 30
0.0
 10
23.4600464384
 20
7.9394063324
 30
0.0
 10
23.483221933
 20
7.9342474236
 30
0.0
 10
23.486990072
 20
7.9380155624
 30
0.0
 11
23.1870360056
 21
7.9328707044
 31
0.0
 11
23.278662822
 21
7.9331209086
 31
0.0
 11
23.3616898247
 21
7.9338495663
 31
0.0
 11
23.4277703531
 21
7.9349823666
 31
0.0
 11
23.4710828172
 21
7.9364221643
 31
0.0
 11
23.486990072
 21
7.9380155624
 31
0.0
  0
SPLINE
  5
705
100
AcDbEntity
  8
ASSI
100
AcDbSpline
 62
7
  6
CONTINUOUS
 70
0
 71
3
 72
12
 73
8
 74
6
 42
0.0000001
 43
0.0000001
 44
0.0000000001
 12
0.2121821359
 22
-0.2121821203
 32
0.0
 13
0.3000708432
 23
0.0
 33
0.0
 40
0.0
 40
0.0
 40
0.0
 40
0.0
 40
0.0532769502
 40
0.1976974744
 40
0.4179462551
 40
0.6946482472
 40
1.0
 40
1.0
 40
1.0
 40
1.0
 10
-23.7593037705
 20
7.9380155624
 30
0.0
 10
-23.7555356315
 20
7.9342474236
 30
0.0
 10
-23.7323601369
 20
7.9394063324
 30
0.0
 10
-23.6936089172
 20
7.9326783532
 30
0.0
 10
-23.6279126225
 20
7.9345021787
 30
0.0
 10
-23.5482662827
 20
7.9327391757
 30
0.0
 10
-23.4898920901
 20
7.9328707044
 30
0.0
 10
-23.4593497041
 20
7.9328707044
 30
0.0
 11
-23.7593037705
 21
7.9380155624
 31
0.0
 11
-23.7433965157
 21
7.9364221643
 31
0.0
 11
-23.7000840516
 21
7.9349823666
 31
0.0
 11
-23.6340035232
 21
7.9338495663
 31
0.0
 11
-23.5509765204
 21
7.9331209086
 31
0.0
 11
-23.4593497041
 21
7.9328707044
 31
0.0
  0
SPLINE
  5
706
100
AcDbEntity
  8
ASSI
100
AcDbSpline
 62
253
  6
CONTINUOUS
 70
0
 71
3
 72
12
 73
8
 74
6
 42
0.0000001
 43
0.0000001
 44
0.0000000001
 12
0.000001281
 22
-0.4999550218
 32
0.0
 13
0.1881627568
 23
-0.4631952081
 33
0.0
 40
0.0
 40
0.0
 40
0.0
 40
0.0
 40
0.305568815
 40
0.5820019468
 40
0.8027381938
 40
0.9466528751
 40
1.0
 40
1.0
 40
1.0
 40
1.0
 10
-19.6984210931
 20
3.5643251169
 30
0.0
 10
-19.6984209626
 20
3.5134015623
 30
0.0
 10
-19.6985948736
 20
3.4163440481
 30
0.0
 10
-19.6970861595
 20
3.2828222499
 30
0.0
 10
-19.6991655085
 20
3.175326465
 30
0.0
 10
-19.693006672
 20
3.1069594191
 30
0.0
 10
-19.6983369874
 20
3.0726379801
 30
0.0
 10
-19.6949910067
 20
3.0644012693
 30
0.0
 11
-19.6984210931
 21
3.5643251169
 31
0.0
 11
-19.6982541127
 21
3.4115545445
 31
0.0
 11
-19.6977688802
 21
3.2733512639
 31
0.0
 11
-19.6970125175
 21
3.1629956607
 31
0.0
 11
-19.6960563587
 21
3.0910511466
 31
0.0
 11
-19.6949910067
 21
3.0644012693
 31
0.0
  0
SPLINE
  5
707
100
AcDbEntity
  8
ASSI
100
AcDbSpline
 62
253
  6
CONTINUOUS
 70
0
 71
3
 72
12
 73
8
 74
6
 42
0.0000001
 43
0.0000001
 44
0.0000000001
 12
0.188162755
 22
0.4631952088
 32
0.0
 13
0.000001281
 23
0.4999550218
 33
0.0
 40
0.0
 40
0.0
 40
0.0
 40
0.0
 40
0.0533471248
 40
0.1972618061
 40
0.417998053
 40
0.6944311848
 40
1.0
 40
1.0
 40
1.0
 40
1.0
 10
-19.8773226918
 20
3.0644012693
 30
0.0
 10
-19.8739767111
 20
3.0726379801
 30
0.0
 10
-19.8793070265
 20
3.1069594191
 30
0.0
 10
-19.87314819
 20
3.1753264649
 30
0.0
 10
-19.875227539
 20
3.2828222498
 30
0.0
 10
-19.8737188249
 20
3.416344048
 30
0.0
 10
-19.8738927359
 20
3.5134015623
 30
0.0
 10
-19.8738926054
 20
3.5643251169
 30
0.0
 11
-19.8773226918
 21
3.0644012693
 31
0.0
 11
-19.8762573398
 21
3.0910511465
 31
0.0
 11
-19.875301181
 21
3.1629956607
 31
0.0
 11
-19.8745448183
 21
3.2733512638
 31
0.0
 11
-19.8740595858
 21
3.4115545444
 31
0.0
 11
-19.8738926054
 21
3.5643251169
 31
0.0
  0
SPLINE
  5
708
100
AcDbEntity
  8
ASSI
100
AcDbSpline
 62
253
  6
CONTINUOUS
 70
0
 71
3
 72
11
 73
7
 74
5
 42
0.0000001
 43
0.0000001
 44
0.0000000001
 12
-0.0098689072
 22
0.3534493123
 32
0.0
 13
-0.0000004971
 23
0.3535870638
 33
0.0
 40
0.0
 40
0.0
 40
0.0
 40
0.0
 40
0.2035823994
 40
0.4531925193
 40
0.7278954329
 40
1.0
 40
1.0
 40
1.0
 40
1.0
 10
19.4127420265
 20
6.0090859136
 30
0.0
 10
19.4120723145
 20
6.0330712666
 30
0.0
 10
19.410872552
 20
6.0864729593
 30
0.0
 10
19.4096038399
 20
6.172255676
 30
0.0
 10
19.408823919
 20
6.2661206755
 30
0.0
 10
19.4086523438
 20
6.3305688231
 30
0.0
 10
19.4086522987
 20
6.362639708
 30
0.0
 11
19.4127420265
 21
6.0090859136
 31
0.0
 11
19.4110771112
 21
6.08105076
 31
0.0
 11
19.4097383284
 21
6.1692995149
 31
0.0
 11
19.4089132176
 21
6.2664274069
 31
0.0
 11
19.4086522987
 21
6.362639708
 31
0.0
  0
SPLINE
  5
709
100
AcDbEntity
  8
ASSI
100
AcDbSpline
 62
253
  6
CONTINUOUS
 70
0
 71
3
 72
11
 73
7
 74
5
 42
0.0000001
 43
0.0000001
 44
0.0000000001
 12
-0.0000004828
 22
-0.3535861826
 32
0.0
 13
-0.0098690566
 23
-0.3534484266
 33
0.0
 40
0.0
 40
0.0
 40
0.0
 40
0.0
 40
0.2713497641
 40
0.5458509931
 40
0.7957709277
 40
1.0
 40
1.0
 40
1.0
 40
1.0
 10
19.6190340019
 20
6.3626393776
 30
0.0
 10
19.6190339582
 20
6.3306575352
 30
0.0
 10
19.6188631421
 20
6.2663222832
 30
0.0
 10
19.6180856078
 20
6.1725337201
 30
0.0
 10
19.6168175486
 20
6.0866622358
 30
0.0
 10
19.6156161382
 20
6.0331479449
 30
0.0
 10
19.6149442888
 20
6.0090864635
 30
0.0
 11
19.6190340019
 21
6.3626393776
 31
0.0
 11
19.6187745404
 21
6.2666942012
 31
0.0
 11
19.6179519299
 21
6.1696378455
 31
0.0
 11
19.6166135499
 21
6.0812797457
 31
0.0
 11
19.6149442888
 21
6.0090864635
 31
0.0
  0
SPLINE
  5
70A
100
AcDbEntity
  8
ASSI
100
AcDbSpline
 62
253
  6
CONTINUOUS
 70
0
 71
3
 72
11
 73
7
 74
5
 42
0.0000001
 43
0.0000001
 44
0.0000000001
 12
-0.0000004828
 22
-0.3535861826
 32
0.0
 13
-0.0098690566
 23
-0.3534484266
 33
0.0
 40
0.0
 40
0.0
 40
0.0
 40
0.0
 40
0.2713497641
 40
0.5458509931
 40
0.7957709277
 40
1.0
 40
1.0
 40
1.0
 40
1.0
 10
-19.6809659981
 20
6.3626393776
 30
0.0
 10
-19.6809660418
 20
6.3306575352
 30
0.0
 10
-19.6811368579
 20
6.2663222832
 30
0.0
 10
-19.6819143922
 20
6.1725337201
 30
0.0
 10
-19.6831824514
 20
6.0866622358
 30
0.0
 10
-19.6843838618
 20
6.0331479449
 30
0.0
 10
-19.6850557112
 20
6.0090864635
 30
0.0
 11
-19.6809659981
 21
6.3626393776
 31
0.0
 11
-19.6812254596
 21
6.2666942012
 31
0.0
 11
-19.6820480701
 21
6.1696378455
 31
0.0
 11
-19.6833864501
 21
6.0812797457
 31
0.0
 11
-19.6850557112
 21
6.0090864635
 31
0.0
  0
SPLINE
  5
70B
100
AcDbEntity
  8
ASSI
100
AcDbSpline
 62
253
  6
CONTINUOUS
 70
0
 71
3
 72
11
 73
7
 74
5
 42
0.0000001
 43
0.0000001
 44
0.0000000001
 12
-0.0098689072
 22
0.3534493123
 32
0.0
 13
-0.0000004971
 23
0.3535870638
 33
0.0
 40
0.0
 40
0.0
 40
0.0
 40
0.0
 40
0.2035823994
 40
0.4531925193
 40
0.7278954329
 40
1.0
 40
1.0
 40
1.0
 40
1.0
 10
-19.8872579735
 20
6.0090859136
 30
0.0
 10
-19.8879276855
 20
6.0330712666
 30
0.0
 10
-19.889127448
 20
6.0864729593
 30
0.0
 10
-19.8903961601
 20
6.172255676
 30
0.0
 10
-19.891176081
 20
6.2661206755
 30
0.0
 10
-19.8913476562
 20
6.3305688231
 30
0.0
 10
-19.8913477013
 20
6.362639708
 30
0.0
 11
-19.8872579735
 21
6.0090859136
 31
0.0
 11
-19.8889228888
 21
6.08105076
 31
0.0
 11
-19.8902616716
 21
6.1692995149
 31
0.0
 11
-19.8910867824
 21
6.2664274069
 31
0.0
 11
-19.8913477013
 21
6.362639708
 31
0.0
  0
SPLINE
  5
70C
100
AcDbEntity
  8
ASSI
100
AcDbSpline
 62
7
  6
CONTINUOUS
 70
0
 71
3
 72
11
 73
7
 74
5
 42
0.0000001
 43
0.0000001
 44
0.0000000001
 12
0.1877591259
 22
0.0090044273
 32
0.0
 13
0.1879749161
 23
0.0
 33
0.0
 40
0.0
 40
0.0
 40
0.0
 40
0.0
 40
0.1566793638
 40
0.3898272684
 40
0.6785348125
 40
1.0
 40
1.0
 40
1.0
 40
1.0
 10
4.1057901898
 20
5.5791139197
 30
0.0
 10
4.1155961833
 20
5.579584189
 30
0.0
 10
4.1400174628
 20
5.5802100743
 30
0.0
 10
4.18252682
 20
5.5808874175
 30
0.0
 10
4.2353671691
 20
5.5813107122
 30
0.0
 10
4.2735994538
 20
5.581411432
 30
0.0
 10
4.2937419177
 20
5.581411432
 30
0.0
 11
4.1057901898
 21
5.5791139197
 31
0.0
 11
4.1352271303
 21
5.5800490573
 31
0.0
 11
4.1790469879
 21
5.5807802588
 31
0.0
 11
4.2333147464
 21
5.581248252
 31
0.0
 11
4.2937419177
 21
5.581411432
 31
0.0
  0
SPLINE
  5
70D
100
AcDbEntity
  8
ASSI
100
AcDbSpline
 62
7
  6
CONTINUOUS
 70
0
 71
3
 72
11
 73
7
 74
5
 42
0.0000001
 43
0.0000001
 44
0.0000000001
 12
-0.1879629154
 22
0.0
 32
0.0
 13
-0.1877471389
 23
0.0090038568
 33
0.0
 40
0.0
 40
0.0
 40
0.0
 40
0.0
 40
0.3215242523
 40
0.6102453572
 40
0.8433660718
 40
1.0
 40
1.0
 40
1.0
 40
1.0
 10
4.2872190129
 20
3.9299443785
 30
0.0
 10
4.2670741343
 20
3.9299443785
 30
0.0
 10
4.2288397402
 20
3.9300450814
 30
0.0
 10
4.1759999169
 20
3.9304682848
 30
0.0
 10
4.133496973
 20
3.931145433
 30
0.0
 10
4.1090817987
 20
3.9317710644
 30
0.0
 10
4.0992792747
 20
3.9322411676
 30
0.0
 11
4.2872190129
 21
3.9299443785
 31
0.0
 11
4.2267845973
 21
3.9301075468
 31
0.0
 11
4.1725177539
 21
3.9305754555
 31
0.0
 11
4.1287058022
 21
3.9313064278
 31
0.0
 11
4.0992792747
 21
3.9322411676
 31
0.0
  0
SPLINE
  5
70E
100
AcDbEntity
  8
ASSI
100
AcDbSpline
 62
7
  6
CONTINUOUS
 70
0
 71
3
 72
11
 73
7
 74
5
 42
0.0000001
 43
0.0000001
 44
0.0000000001
 12
-0.1877471389
 22
-0.0090038568
 32
0.0
 13
-0.1879629155
 23
-0.0
 33
0.0
 40
0.0
 40
0.0
 40
0.0
 40
0.0
 40
0.1566339282
 40
0.3897546428
 40
0.6784757477
 40
1.0
 40
1.0
 40
1.0
 40
1.0
 10
-4.3715929732
 20
3.9322411676
 30
0.0
 10
-4.3813954972
 20
3.9317710644
 30
0.0
 10
-4.4058106715
 20
3.931145433
 30
0.0
 10
-4.4483136154
 20
3.9304682848
 30
0.0
 10
-4.5011534387
 20
3.9300450814
 30
0.0
 10
-4.5393878328
 20
3.9299443785
 30
0.0
 10
-4.5595327114
 20
3.9299443785
 30
0.0
 11
-4.3715929732
 21
3.9322411676
 31
0.0
 11
-4.4010195007
 21
3.9313064278
 31
0.0
 11
-4.4448314524
 21
3.9305754555
 31
0.0
 11
-4.4990982958
 21
3.9301075468
 31
0.0
 11
-4.5595327114
 21
3.9299443785
 31
0.0
  0
SPLINE
  5
70F
100
AcDbEntity
  8
ASSI
100
AcDbSpline
 62
7
  6
CONTINUOUS
 70
0
 71
3
 72
11
 73
7
 74
5
 42
0.0000001
 43
0.0000001
 44
0.0000000001
 12
0.1879749161
 22
0.0
 32
0.0
 13
0.1877591259
 23
-0.0090044273
 33
0.0
 40
0.0
 40
0.0
 40
0.0
 40
0.0
 40
0.3214651875
 40
0.6101727316
 40
0.8433206362
 40
1.0
 40
1.0
 40
1.0
 40
1.0
 10
-4.5660556162
 20
5.581411432
 30
0.0
 10
-4.5459131523
 20
5.581411432
 30
0.0
 10
-4.5076808676
 20
5.5813107122
 30
0.0
 10
-4.4548405185
 20
5.5808874175
 30
0.0
 10
-4.4123311613
 20
5.5802100743
 30
0.0
 10
-4.3879098817
 20
5.579584189
 30
0.0
 10
-4.3781038883
 20
5.5791139197
 30
0.0
 11
-4.5660556162
 21
5.581411432
 31
0.0
 11
-4.5056284449
 21
5.581248252
 31
0.0
 11
-4.4513606864
 21
5.5807802588
 31
0.0
 11
-4.4075408288
 21
5.5800490573
 31
0.0
 11
-4.3781038883
 21
5.5791139197
 31
0.0
  0
ELLIPSE
  5
710
100
AcDbEntity
  8
RACCORDO
100
AcDbEllipse
 62
7
  6
CONTINUOUS
 10
24.4003120608
 20
-9.0877230699
 30
0.0
 11
0.2183310446
 21
0.1221043275
 31
0.0
 40
0.9980297029
 41
-2.0815635429
 42
-0.5109195152
  0
ELLIPSE
  5
711
100
AcDbEntity
  8
RACCORDO
100
AcDbEllipse
 62
7
  6
CONTINUOUS
 10
-24.6726257593
 20
-9.0877230699
 30
0.0
 11
0.2183310446
 21
-0.1221043275
 31
0.0
 40
0.9980297029
 41
-2.6306731384
 42
-1.0600291107
  0
ELLIPSE
  5
712
100
AcDbEntity
  8
RACCORDO
100
AcDbEllipse
 62
7
  6
CONTINUOUS
 10
-24.6791367413
 20
8.8985013124
 30
0.0
 11
-0.1768305473
 21
0.1768305473
 31
0.0
 40
0.9996954599
 41
-0.7852458701
 42
0.7852458701
  0
ELLIPSE
  5
713
100
AcDbEntity
  8
RACCORDO
100
AcDbEllipse
 62
7
  6
CONTINUOUS
 10
24.4068230428
 20
8.8985013124
 30
0.0
 11
-0.1768305473
 21
-0.1768305473
 31
0.0
 40
0.9996954599
 41
2.3563467834
 42
3.9268385237
  0
ELLIPSE
  5
714
100
AcDbEntity
  8
RACCORDO
100
AcDbEllipse
 62
7
  6
CONTINUOUS
 10
-24.9344113428
 20
8.1979654045
 30
0.0
 11
-0.0
 21
0.3
 31
0.0
 40
0.0174550649
 41
-3.1241393611
 42
-1.5707963268
  0
ELLIPSE
  5
715
100
AcDbEntity
  8
RACCORDO
100
AcDbEllipse
 62
7
  6
CONTINUOUS
 10
24.6620976443
 20
8.1979654045
 30
0.0
 11
-0.0
 21
0.3
 31
0.0
 40
0.0174550649
 41
-4.7123889804
 42
-3.1590459461
  0
ELLIPSE
  5
716
100
AcDbEntity
  8
DRAFT
100
AcDbEllipse
 62
7
  6
CONTINUOUS
 10
29.586861755
 20
9.3555214204
 30
0.0
 11
0.0
 21
423.7
 31
0.0
 40
0.0174550649
 41
-4.6945015721
 42
-4.6927481945
  0
ELLIPSE
  5
717
100
AcDbEntity
  8
DRAFT
100
AcDbEllipse
 62
7
  6
CONTINUOUS
 10
29.586861755
 20
9.3555214204
 30
0.0
 11
0.0
 21
423.7
 31
0.0
 40
0.0174550649
 41
-4.675840257
 42
-4.6741042615
  0
ELLIPSE
  5
718
100
AcDbEntity
  8
RACCORDO
100
AcDbEllipse
 62
7
  6
CONTINUOUS
 10
11.0082796114
 20
9.3555214204
 30
0.0
 11
0.0
 21
423.7
 31
0.0
 40
0.0174550649
 41
-1.6103149114
 42
-1.60848535
  0
ELLIPSE
  5
719
100
AcDbEntity
  8
RACCORDO
100
AcDbEllipse
 62
7
  6
CONTINUOUS
 10
24.9194066901
 20
9.3555214204
 30
0.0
 11
0.0
 21
423.7
 31
0.0
 40
0.0174550649
 41
-4.6746999572
 42
-4.6722996927
  0
ELLIPSE
  5
71A
100
AcDbEntity
  8
RACCORDO
100
AcDbEllipse
 62
7
  6
CONTINUOUS
 10
-0.1917203886
 20
9.3555214204
 30
0.0
 11
0.0
 21
423.7
 31
0.0
 40
0.0174550649
 41
-1.6108856145
 42
-1.60848535
  0
ELLIPSE
  5
71B
100
AcDbEntity
  8
RACCORDO
100
AcDbEllipse
 62
7
  6
CONTINUOUS
 10
13.7194066901
 20
9.3555214204
 30
0.0
 11
0.0
 21
423.7
 31
0.0
 40
0.0174550649
 41
-4.6746999572
 42
-4.6728703958
  0
ELLIPSE
  5
71C
100
AcDbEntity
  8
RACCORDO
100
AcDbEllipse
 62
7
  6
CONTINUOUS
 10
-13.9917203886
 20
9.3555214204
 30
0.0
 11
0.0
 21
423.7
 31
0.0
 40
0.0174550649
 41
-1.6103149114
 42
-1.60848535
  0
ELLIPSE
  5
71D
100
AcDbEntity
  8
RACCORDO
100
AcDbEllipse
 62
7
  6
CONTINUOUS
 10
23.2498334004
 20
-7.9487890115
 30
0.0
 11
-0.0300136675
 21
0.3031910442
 31
0.0
 40
0.9846622838
 41
-3.2387599651
 42
-1.6709942215
  0
ELLIPSE
  5
71E
100
AcDbEntity
  8
RACCORDO
100
AcDbEllipse
 62
7
  6
CONTINUOUS
 10
-23.5221470989
 20
-7.9487890115
 30
0.0
 11
0.0300136675
 21
0.3031910442
 31
0.0
 40
0.9846622838
 41
-4.6121910857
 42
-3.0444253421
  0
ELLIPSE
  5
71F
100
AcDbEntity
  8
RACCORDO
100
AcDbEllipse
 62
7
  6
CONTINUOUS
 10
-19.6809660282
 20
7.9502849009
 30
0.0
 11
0.3
 21
-0.0
 31
0.0
 40
0.0174550649
 41
0.0174532925
 42
1.5707963268
  0
ELLIPSE
  5
720
100
AcDbEntity
  8
RACCORDO
100
AcDbEllipse
 62
7
  6
CONTINUOUS
 10
-0.0805933099
 20
9.3555214204
 30
0.0
 11
0.0
 21
423.7
 31
0.0
 40
0.0174550649
 41
-4.6746999572
 42
-4.6728703958
  0
ELLIPSE
  5
721
100
AcDbEntity
  8
RACCORDO
100
AcDbEllipse
 62
7
  6
CONTINUOUS
 10
-25.1917203886
 20
9.3555214204
 30
0.0
 11
0.0
 21
423.7
 31
0.0
 40
0.0174550649
 41
-1.6103149114
 42
-1.60848535
  0
ELLIPSE
  5
722
100
AcDbEntity
  8
RACCORDO
100
AcDbEllipse
 62
7
  6
CONTINUOUS
 10
-11.2805933099
 20
9.3555214204
 30
0.0
 11
0.0
 21
423.7
 31
0.0
 40
0.0174550649
 41
-4.6746999572
 42
-4.6722996927
  0
ELLIPSE
  5
723
100
AcDbEntity
  8
DRAFT
100
AcDbEllipse
 62
7
  6
CONTINUOUS
 10
-29.8591754535
 20
9.3555214204
 30
0.0
 11
0.0
 21
423.7
 31
0.0
 40
0.0174550649
 41
-1.6090810457
 42
-1.6073450502
  0
ELLIPSE
  5
724
100
AcDbEntity
  8
DRAFT
100
AcDbEllipse
 62
7
  6
CONTINUOUS
 10
31.1775145343
 20
9.3555214204
 30
0.0
 11
0.0
 21
423.7
 31
0.0
 40
0.0174550649
 41
-4.6861185815
 42
-4.6805882475
  0
ELLIPSE
  5
725
100
AcDbEntity
  8
DRAFT
100
AcDbEllipse
 62
7
  6
CONTINUOUS
 10
15.4501717672
 20
9.3555214204
 30
0.0
 11
0.0
 21
423.7
 31
0.0
 40
0.0174550649
 41
-1.6025970597
 42
-1.5970667257
  0
ELLIPSE
  5
726
100
AcDbEntity
  8
DRAFT
100
AcDbEllipse
 62
7
  6
CONTINUOUS
 10
-31.4498282328
 20
9.3555214204
 30
0.0
 11
0.0
 21
423.7
 31
0.0
 40
0.0174550649
 41
-1.6025970597
 42
-1.5970667257
  0
ELLIPSE
  5
727
100
AcDbEntity
  8
DRAFT
100
AcDbEllipse
 62
7
  6
CONTINUOUS
 10
-15.7224854657
 20
9.3555214204
 30
0.0
 11
0.0
 21
423.7
 31
0.0
 40
0.0174550649
 41
-4.6861185815
 42
-4.6805882475
  0
ELLIPSE
  5
728
100
AcDbEntity
  8
RACCORDO
100
AcDbEllipse
 62
7
  6
CONTINUOUS
 10
-19.8913476703
 20
7.9502849009
 30
0.0
 11
0.3
 21
-0.0
 31
0.0
 40
0.0174550649
 41
1.5707963268
 42
3.1241393611
  0
ELLIPSE
  5
729
100
AcDbEntity
  8
RACCORDO
100
AcDbEllipse
 62
7
  6
CONTINUOUS
 10
19.4086523297
 20
7.9502849009
 30
0.0
 11
0.3
 21
-0.0
 31
0.0
 40
0.0174550649
 41
1.5707963268
 42
3.1241393611
  0
ELLIPSE
  5
72A
100
AcDbEntity
  8
RACCORDO
100
AcDbEllipse
 62
7
  6
CONTINUOUS
 10
-7.465297631
 20
-7.3722924847
 30
0.0
 11
-0.0
 21
0.3
 31
0.0
 40
0.0174550649
 41
-4.6728703958
 42
-3.3161255788
  0
ELLIPSE
  5
72B
100
AcDbEntity
  8
RACCORDO
100
AcDbEllipse
 62
7
  6
CONTINUOUS
 10
-6.6070160674
 20
-7.3722924847
 30
0.0
 11
-0.0
 21
0.3
 31
0.0
 40
0.0174550649
 41
-2.9670597284
 42
-1.6103149114
  0
ELLIPSE
  5
72C
100
AcDbEntity
  8
RACCORDO
100
AcDbEllipse
 62
7
  6
CONTINUOUS
 10
6.334702369
 20
-7.3722924847
 30
0.0
 11
0.0
 21
0.3
 31
0.0
 40
0.0174550649
 41
-4.6728703958
 42
-3.3161255788
  0
ELLIPSE
  5
72D
100
AcDbEntity
  8
RACCORDO
100
AcDbEllipse
 62
7
  6
CONTINUOUS
 10
18.3929839326
 20
-7.3722924847
 30
0.0
 11
-0.0
 21
0.3
 31
0.0
 40
0.0174550649
 41
-2.9670597284
 42
-1.6103149114
  0
ELLIPSE
  5
72E
100
AcDbEntity
  8
RACCORDO
100
AcDbEllipse
 62
7
  6
CONTINUOUS
 10
-17.8070160674
 20
-7.3722924847
 30
0.0
 11
0.0
 21
0.3
 31
0.0
 40
0.0174550649
 41
-2.9670597284
 42
-1.6103149114
  0
ELLIPSE
  5
72F
100
AcDbEntity
  8
DRAFT
100
AcDbEllipse
 62
7
  6
CONTINUOUS
 10
-29.8591754535
 20
9.3555214204
 30
0.0
 11
0.0
 21
423.7
 31
0.0
 40
0.0174550649
 41
-1.5904371127
 42
-1.588683735
  0
ELLIPSE
  5
730
100
AcDbEntity
  8
RACCORDO
100
AcDbEllipse
 62
7
  6
CONTINUOUS
 10
-22.815876158
 20
-6.8148049693
 30
0.0
 11
0.3
 21
-0.0
 31
0.0
 40
0.0174550649
 41
0.0174532925
 42
1.5707963268
  0
ELLIPSE
  5
731
100
AcDbEntity
  8
RACCORDO
100
AcDbEllipse
 62
7
  6
CONTINUOUS
 10
-22.815876158
 20
-6.17415219
 30
0.0
 11
0.3
 21
-0.0
 31
0.0
 40
0.0174550649
 41
-1.5707963268
 42
-0.0174532925
  0
ELLIPSE
  5
732
100
AcDbEntity
  8
RACCORDO
100
AcDbEllipse
 62
7
  6
CONTINUOUS
 10
-22.815876158
 20
1.0851950307
 30
0.0
 11
0.3
 21
-0.0
 31
0.0
 40
0.0174550649
 41
0.0174532925
 42
1.5707963268
  0
ELLIPSE
  5
733
100
AcDbEntity
  8
RACCORDO
100
AcDbEllipse
 62
7
  6
CONTINUOUS
 10
-22.815876158
 20
1.72584781
 30
0.0
 11
0.3
 21
0.0
 31
0.0
 40
0.0174550649
 41
-1.5707963268
 42
-0.0174532925
  0
ELLIPSE
  5
734
100
AcDbEntity
  8
RACCORDO
100
AcDbEllipse
 62
7
  6
CONTINUOUS
 10
22.5435624595
 20
-6.17415219
 30
0.0
 11
0.3
 21
-0.0
 31
0.0
 40
0.0174550649
 41
-3.1241393611
 42
-1.5707963268
  0
ELLIPSE
  5
735
100
AcDbEntity
  8
RACCORDO
100
AcDbEllipse
 62
7
  6
CONTINUOUS
 10
22.5435624595
 20
-6.8148049693
 30
0.0
 11
0.3
 21
0.0
 31
0.0
 40
0.0174550649
 41
1.5707963268
 42
3.1241393611
  0
ELLIPSE
  5
736
100
AcDbEntity
  8
RACCORDO
100
AcDbEllipse
 62
7
  6
CONTINUOUS
 10
22.5435624595
 20
1.72584781
 30
0.0
 11
0.3
 21
0.0
 31
0.0
 40
0.0174550649
 41
-3.1241393611
 42
-1.5707963268
  0
ELLIPSE
  5
737
100
AcDbEntity
  8
RACCORDO
100
AcDbEllipse
 62
7
  6
CONTINUOUS
 10
22.5435624595
 20
1.0851950307
 30
0.0
 11
0.3
 21
0.0
 31
0.0
 40
0.0174550649
 41
1.5707963268
 42
3.1241393611
  0
ELLIPSE
  5
738
100
AcDbEntity
  8
RACCORDO
100
AcDbEllipse
 62
7
  6
CONTINUOUS
 10
-12.813138245
 20
9.3555214204
 30
0.0
 11
0.0
 21
423.7
 31
0.0
 40
0.0174550649
 41
-4.7090312901
 42
-4.6981756364
  0
ELLIPSE
  5
739
100
AcDbEntity
  8
RACCORDO
100
AcDbEllipse
 62
7
  6
CONTINUOUS
 10
19.6190339718
 20
7.9502849009
 30
0.0
 11
0.3
 21
0.0
 31
0.0
 40
0.0174550649
 41
0.0174532925
 42
1.5707963268
  0
ELLIPSE
  5
73A
100
AcDbEntity
  8
RACCORDO
100
AcDbEllipse
 62
7
  6
CONTINUOUS
 10
-26.7591754535
 20
9.3555214204
 30
0.0
 11
0.0
 21
423.7
 31
0.0
 40
0.0174550649
 41
-1.5850096708
 42
-1.5741540171
  0
ELLIPSE
  5
73B
100
AcDbEntity
  8
RACCORDO
100
AcDbEllipse
 62
7
  6
CONTINUOUS
 10
26.486861755
 20
9.3555214204
 30
0.0
 11
0.0
 21
423.7
 31
0.0
 40
0.0174550649
 41
-4.7090312901
 42
-4.6981756364
  0
ELLIPSE
  5
73C
100
AcDbEntity
  8
RACCORDO
100
AcDbEllipse
 62
7
  6
CONTINUOUS
 10
12.5408245465
 20
9.3555214204
 30
0.0
 11
0.0
 21
423.7
 31
0.0
 40
0.0174550649
 41
-1.5850096708
 42
-1.5741540171
  0
ELLIPSE
  5
73D
100
AcDbEntity
  8
RACCORDO
100
AcDbEllipse
 62
7
  6
CONTINUOUS
 10
-3.6760945878
 20
5.5607579398
 30
0.0
 11
0.3
 21
0.0
 31
0.0
 40
0.0174550649
 41
-2.7925268032
 42
-1.5707963268
  0
ELLIPSE
  5
73E
100
AcDbEntity
  8
RACCORDO
100
AcDbEllipse
 62
7
  6
CONTINUOUS
 10
3.4037808893
 20
5.5607579398
 30
0.0
 11
0.3
 21
0.0
 31
0.0
 40
0.0174550649
 41
-1.5707963268
 42
-0.3490658504
  0
ELLIPSE
  5
73F
100
AcDbEntity
  8
RACCORDO
100
AcDbEllipse
 62
7
  6
CONTINUOUS
 10
-3.6760945878
 20
3.9502849009
 30
0.0
 11
0.3
 21
0.0
 31
0.0
 40
0.0174550649
 41
1.5707963268
 42
2.7925268032
  0
ELLIPSE
  5
740
100
AcDbEntity
  8
RACCORDO
100
AcDbEllipse
 62
7
  6
CONTINUOUS
 10
3.4037808893
 20
3.9502849009
 30
0.0
 11
0.3
 21
0.0
 31
0.0
 40
0.0174550649
 41
0.3490658504
 42
1.5707963268
  0
ELLIPSE
  5
741
100
AcDbEntity
  8
RACCORDO
100
AcDbEllipse
 62
7
  6
CONTINUOUS
 10
-18.1309660282
 20
-7.9183957317
 30
0.0
 11
0.3
 21
-0.0
 31
0.0
 40
0.1763269807
 41
-1.5707963268
 42
-0.0174532925
  0
ELLIPSE
  5
742
100
AcDbEntity
  8
RACCORDO
100
AcDbEllipse
 62
7
  6
CONTINUOUS
 10
-18.3413476703
 20
-7.9183957317
 30
0.0
 11
0.3
 21
0.0
 31
0.0
 40
0.1763269807
 41
-3.1241393611
 42
-1.5707963268
  0
ELLIPSE
  5
743
100
AcDbEntity
  8
RACCORDO
100
AcDbEllipse
 62
7
  6
CONTINUOUS
 10
17.8586523297
 20
-7.9183957317
 30
0.0
 11
0.3
 21
0.0
 31
0.0
 40
0.1763269807
 41
-3.1241393611
 42
-1.5707963268
  0
ELLIPSE
  5
744
100
AcDbEntity
  8
RACCORDO
100
AcDbEllipse
 62
7
  6
CONTINUOUS
 10
-23.8344113428
 20
8.1979654045
 30
0.0
 11
0.0
 21
0.3
 31
0.0
 40
0.0174550649
 41
-3.1241393611
 42
-1.5707963268
  0
ELLIPSE
  5
745
100
AcDbEntity
  8
RACCORDO
100
AcDbEllipse
 62
7
  6
CONTINUOUS
 10
23.5620976443
 20
8.1979654045
 30
0.0
 11
-0.0
 21
0.3
 31
0.0
 40
0.0174550649
 41
-4.7123889804
 42
-3.1590459461
  0
ELLIPSE
  5
746
100
AcDbEntity
  8
RACCORDO
100
AcDbEllipse
 62
7
  6
CONTINUOUS
 10
-6.9309660282
 20
-7.9183957317
 30
0.0
 11
0.3
 21
-0.0
 31
0.0
 40
0.1763269807
 41
-1.5707963268
 42
-0.0174532925
  0
ELLIPSE
  5
747
100
AcDbEntity
  8
RACCORDO
100
AcDbEllipse
 62
7
  6
CONTINUOUS
 10
-7.1413476703
 20
-7.9183957317
 30
0.0
 11
0.3
 21
0.0
 31
0.0
 40
0.1763269807
 41
-3.1241393611
 42
-1.5707963268
  0
ELLIPSE
  5
748
100
AcDbEntity
  8
RACCORDO
100
AcDbEllipse
 62
7
  6
CONTINUOUS
 10
6.6586523297
 20
-7.9183957317
 30
0.0
 11
0.3
 21
0.0
 31
0.0
 40
0.1763269807
 41
-3.1241393611
 42
-1.5707963268
  0
ELLIPSE
  5
749
100
AcDbEntity
  8
RACCORDO
100
AcDbEllipse
 62
7
  6
CONTINUOUS
 10
6.8690339718
 20
-7.9183957317
 30
0.0
 11
0.3
 21
0.0
 31
0.0
 40
0.1763269807
 41
-1.5707963268
 42
-0.0174532925
  0
ELLIPSE
  5
74A
100
AcDbEntity
  8
RACCORDO
100
AcDbEllipse
 62
7
  6
CONTINUOUS
 10
18.0690339718
 20
-7.9183957317
 30
0.0
 11
0.3
 21
-0.0
 31
0.0
 40
0.1763269807
 41
-1.5707963268
 42
-0.0174532925
  0
ELLIPSE
  5
74B
100
AcDbEntity
  8
ASSI
100
AcDbEllipse
 62
7
  6
CONTINUOUS
 10
24.4003120608
 20
-9.0877230699
 30
0.0
 11
0.2183310446
 21
0.1221043275
 31
0.0
 40
0.9980297029
 41
-2.0815635429
 42
-0.5109195152
  0
ELLIPSE
  5
74C
100
AcDbEntity
  8
ASSI
100
AcDbEllipse
 62
7
  6
CONTINUOUS
 10
-24.6726257593
 20
-9.0877230699
 30
0.0
 11
0.2183310446
 21
-0.1221043275
 31
0.0
 40
0.9980297029
 41
-2.6306731384
 42
-1.0600291107
  0
ELLIPSE
  5
74D
100
AcDbEntity
  8
ASSI
100
AcDbEllipse
 62
7
  6
CONTINUOUS
 10
-24.6791367413
 20
8.8985013124
 30
0.0
 11
-0.1768305473
 21
0.1768305473
 31
0.0
 40
0.9996954599
 41
-0.7852458701
 42
0.7852458701
  0
ELLIPSE
  5
74E
100
AcDbEntity
  8
ASSI
100
AcDbEllipse
 62
7
  6
CONTINUOUS
 10
24.4068230428
 20
8.8985013124
 30
0.0
 11
-0.1768305473
 21
-0.1768305473
 31
0.0
 40
0.9996954599
 41
2.3563467834
 42
3.9268385237
  0
ELLIPSE
  5
74F
100
AcDbEntity
  8
ASSI
100
AcDbEllipse
 62
7
  6
CONTINUOUS
 10
-24.9344113428
 20
8.1979654045
 30
0.0
 11
-0.0
 21
0.3
 31
0.0
 40
0.0174550649
 41
-3.1241393611
 42
-1.5707963268
  0
ELLIPSE
  5
750
100
AcDbEntity
  8
ASSI
100
AcDbEllipse
 62
7
  6
CONTINUOUS
 10
24.6620976443
 20
8.1979654045
 30
0.0
 11
-0.0
 21
0.3
 31
0.0
 40
0.0174550649
 41
-4.7123889804
 42
-3.1590459461
  0
ELLIPSE
  5
751
100
AcDbEntity
  8
ASSI
100
AcDbEllipse
 62
7
  6
CONTINUOUS
 10
29.586861755
 20
9.3555214204
 30
0.0
 11
0.0
 21
423.7
 31
0.0
 40
0.0174550649
 41
-4.6945015721
 42
-4.6927481945
  0
ELLIPSE
  5
752
100
AcDbEntity
  8
ASSI
100
AcDbEllipse
 62
7
  6
CONTINUOUS
 10
29.586861755
 20
9.3555214204
 30
0.0
 11
0.0
 21
423.7
 31
0.0
 40
0.0174550649
 41
-4.675840257
 42
-4.6741042615
  0
ELLIPSE
  5
753
100
AcDbEntity
  8
ASSI
100
AcDbEllipse
 62
7
  6
CONTINUOUS
 10
23.2498334004
 20
-7.9487890115
 30
0.0
 11
-0.0300136675
 21
0.3031910442
 31
0.0
 40
0.9846622838
 41
-3.2387599651
 42
-1.6709942215
  0
ELLIPSE
  5
754
100
AcDbEntity
  8
ASSI
100
AcDbEllipse
 62
7
  6
CONTINUOUS
 10
-23.5221470989
 20
-7.9487890115
 30
0.0
 11
0.0300136675
 21
0.3031910442
 31
0.0
 40
0.9846622838
 41
-4.6121910857
 42
-3.0444253421
  0
ELLIPSE
  5
755
100
AcDbEntity
  8
ASSI
100
AcDbEllipse
 62
7
  6
CONTINUOUS
 10
-19.6809660282
 20
7.9502849009
 30
0.0
 11
0.3
 21
-0.0
 31
0.0
 40
0.0174550649
 41
0.0174532925
 42
1.5707963268
  0
ELLIPSE
  5
756
100
AcDbEntity
  8
ASSI
100
AcDbEllipse
 62
7
  6
CONTINUOUS
 10
11.0082796114
 20
9.3555214204
 30
0.0
 11
0.0
 21
423.7
 31
0.0
 40
0.0174550649
 41
-1.6103149114
 42
-1.60848535
  0
ELLIPSE
  5
757
100
AcDbEntity
  8
ASSI
100
AcDbEllipse
 62
7
  6
CONTINUOUS
 10
24.9194066901
 20
9.3555214204
 30
0.0
 11
0.0
 21
423.7
 31
0.0
 40
0.0174550649
 41
-4.6746999572
 42
-4.6722996927
  0
ELLIPSE
  5
758
100
AcDbEntity
  8
ASSI
100
AcDbEllipse
 62
7
  6
CONTINUOUS
 10
-0.1917203886
 20
9.3555214204
 30
0.0
 11
0.0
 21
423.7
 31
0.0
 40
0.0174550649
 41
-1.6108856145
 42
-1.60848535
  0
ELLIPSE
  5
759
100
AcDbEntity
  8
ASSI
100
AcDbEllipse
 62
7
  6
CONTINUOUS
 10
13.7194066901
 20
9.3555214204
 30
0.0
 11
0.0
 21
423.7
 31
0.0
 40
0.0174550649
 41
-4.6746999572
 42
-4.6728703958
  0
ELLIPSE
  5
75A
100
AcDbEntity
  8
ASSI
100
AcDbEllipse
 62
7
  6
CONTINUOUS
 10
-13.9917203886
 20
9.3555214204
 30
0.0
 11
0.0
 21
423.7
 31
0.0
 40
0.0174550649
 41
-1.6103149114
 42
-1.60848535
  0
ELLIPSE
  5
75B
100
AcDbEntity
  8
ASSI
100
AcDbEllipse
 62
7
  6
CONTINUOUS
 10
31.1775145343
 20
9.3555214204
 30
0.0
 11
0.0
 21
423.7
 31
0.0
 40
0.0174550649
 41
-4.6861185815
 42
-4.6805882475
  0
ELLIPSE
  5
75C
100
AcDbEntity
  8
ASSI
100
AcDbEllipse
 62
7
  6
CONTINUOUS
 10
15.4501717672
 20
9.3555214204
 30
0.0
 11
0.0
 21
423.7
 31
0.0
 40
0.0174550649
 41
-1.6025970597
 42
-1.5970667257
  0
ELLIPSE
  5
75D
100
AcDbEntity
  8
ASSI
100
AcDbEllipse
 62
7
  6
CONTINUOUS
 10
-31.4498282328
 20
9.3555214204
 30
0.0
 11
0.0
 21
423.7
 31
0.0
 40
0.0174550649
 41
-1.6025970597
 42
-1.5970667257
  0
ELLIPSE
  5
75E
100
AcDbEntity
  8
ASSI
100
AcDbEllipse
 62
7
  6
CONTINUOUS
 10
-15.7224854657
 20
9.3555214204
 30
0.0
 11
0.0
 21
423.7
 31
0.0
 40
0.0174550649
 41
-4.6861185815
 42
-4.6805882475
  0
ELLIPSE
  5
75F
100
AcDbEntity
  8
ASSI
100
AcDbEllipse
 62
7
  6
CONTINUOUS
 10
-0.0805933099
 20
9.3555214204
 30
0.0
 11
0.0
 21
423.7
 31
0.0
 40
0.0174550649
 41
-4.6746999572
 42
-4.6728703958
  0
ELLIPSE
  5
760
100
AcDbEntity
  8
ASSI
100
AcDbEllipse
 62
7
  6
CONTINUOUS
 10
-19.8913476703
 20
7.9502849009
 30
0.0
 11
0.3
 21
-0.0
 31
0.0
 40
0.0174550649
 41
1.5707963268
 42
3.1241393611
  0
ELLIPSE
  5
761
100
AcDbEntity
  8
ASSI
100
AcDbEllipse
 62
7
  6
CONTINUOUS
 10
-7.465297631
 20
-7.3722924847
 30
0.0
 11
-0.0
 21
0.3
 31
0.0
 40
0.0174550649
 41
-4.6728703958
 42
-3.3161255788
  0
ELLIPSE
  5
762
100
AcDbEntity
  8
ASSI
100
AcDbEllipse
 62
7
  6
CONTINUOUS
 10
-6.6070160674
 20
-7.3722924847
 30
0.0
 11
-0.0
 21
0.3
 31
0.0
 40
0.0174550649
 41
-2.9670597284
 42
-1.6103149114
  0
ELLIPSE
  5
763
100
AcDbEntity
  8
ASSI
100
AcDbEllipse
 62
7
  6
CONTINUOUS
 10
6.334702369
 20
-7.3722924847
 30
0.0
 11
0.0
 21
0.3
 31
0.0
 40
0.0174550649
 41
-4.6728703958
 42
-3.3161255788
  0
ELLIPSE
  5
764
100
AcDbEntity
  8
ASSI
100
AcDbEllipse
 62
7
  6
CONTINUOUS
 10
18.3929839326
 20
-7.3722924847
 30
0.0
 11
-0.0
 21
0.3
 31
0.0
 40
0.0174550649
 41
-2.9670597284
 42
-1.6103149114
  0
ELLIPSE
  5
765
100
AcDbEntity
  8
ASSI
100
AcDbEllipse
 62
7
  6
CONTINUOUS
 10
-17.8070160674
 20
-7.3722924847
 30
0.0
 11
0.0
 21
0.3
 31
0.0
 40
0.0174550649
 41
-2.9670597284
 42
-1.6103149114
  0
ELLIPSE
  5
766
100
AcDbEntity
  8
ASSI
100
AcDbEllipse
 62
7
  6
CONTINUOUS
 10
-25.1917203886
 20
9.3555214204
 30
0.0
 11
0.0
 21
423.7
 31
0.0
 40
0.0174550649
 41
-1.6103149114
 42
-1.60848535
  0
ELLIPSE
  5
767
100
AcDbEntity
  8
ASSI
100
AcDbEllipse
 62
7
  6
CONTINUOUS
 10
-11.2805933099
 20
9.3555214204
 30
0.0
 11
0.0
 21
423.7
 31
0.0
 40
0.0174550649
 41
-4.6746999572
 42
-4.6722996927
  0
ELLIPSE
  5
768
100
AcDbEntity
  8
ASSI
100
AcDbEllipse
 62
7
  6
CONTINUOUS
 10
-29.8591754535
 20
9.3555214204
 30
0.0
 11
0.0
 21
423.7
 31
0.0
 40
0.0174550649
 41
-1.6090810457
 42
-1.6073450502
  0
ELLIPSE
  5
769
100
AcDbEntity
  8
ASSI
100
AcDbEllipse
 62
7
  6
CONTINUOUS
 10
-22.815876158
 20
-6.8148049693
 30
0.0
 11
0.3
 21
-0.0
 31
0.0
 40
0.0174550649
 41
0.0174532925
 42
1.5707963268
  0
ELLIPSE
  5
76A
100
AcDbEntity
  8
ASSI
100
AcDbEllipse
 62
7
  6
CONTINUOUS
 10
-22.815876158
 20
-6.17415219
 30
0.0
 11
0.3
 21
-0.0
 31
0.0
 40
0.0174550649
 41
-1.5707963268
 42
-0.0174532925
  0
ELLIPSE
  5
76B
100
AcDbEntity
  8
ASSI
100
AcDbEllipse
 62
7
  6
CONTINUOUS
 10
-22.815876158
 20
1.0851950307
 30
0.0
 11
0.3
 21
-0.0
 31
0.0
 40
0.0174550649
 41
0.0174532925
 42
1.5707963268
  0
ELLIPSE
  5
76C
100
AcDbEntity
  8
ASSI
100
AcDbEllipse
 62
7
  6
CONTINUOUS
 10
-22.815876158
 20
1.72584781
 30
0.0
 11
0.3
 21
0.0
 31
0.0
 40
0.0174550649
 41
-1.5707963268
 42
-0.0174532925
  0
ELLIPSE
  5
76D
100
AcDbEntity
  8
ASSI
100
AcDbEllipse
 62
7
  6
CONTINUOUS
 10
22.5435624595
 20
-6.17415219
 30
0.0
 11
0.3
 21
-0.0
 31
0.0
 40
0.0174550649
 41
-3.1241393611
 42
-1.5707963268
  0
ELLIPSE
  5
76E
100
AcDbEntity
  8
ASSI
100
AcDbEllipse
 62
7
  6
CONTINUOUS
 10
22.5435624595
 20
-6.8148049693
 30
0.0
 11
0.3
 21
0.0
 31
0.0
 40
0.0174550649
 41
1.5707963268
 42
3.1241393611
  0
ELLIPSE
  5
76F
100
AcDbEntity
  8
ASSI
100
AcDbEllipse
 62
7
  6
CONTINUOUS
 10
22.5435624595
 20
1.72584781
 30
0.0
 11
0.3
 21
0.0
 31
0.0
 40
0.0174550649
 41
-3.1241393611
 42
-1.5707963268
  0
ELLIPSE
  5
770
100
AcDbEntity
  8
ASSI
100
AcDbEllipse
 62
7
  6
CONTINUOUS
 10
22.5435624595
 20
1.0851950307
 30
0.0
 11
0.3
 21
0.0
 31
0.0
 40
0.0174550649
 41
1.5707963268
 42
3.1241393611
  0
ELLIPSE
  5
771
100
AcDbEntity
  8
ASSI
100
AcDbEllipse
 62
7
  6
CONTINUOUS
 10
19.4086523297
 20
7.9502849009
 30
0.0
 11
0.3
 21
-0.0
 31
0.0
 40
0.0174550649
 41
1.5707963268
 42
3.1241393611
  0
ELLIPSE
  5
772
100
AcDbEntity
  8
ASSI
100
AcDbEllipse
 62
7
  6
CONTINUOUS
 10
19.6190339718
 20
7.9502849009
 30
0.0
 11
0.3
 21
0.0
 31
0.0
 40
0.0174550649
 41
0.0174532925
 42
1.5707963268
  0
ELLIPSE
  5
773
100
AcDbEntity
  8
ASSI
100
AcDbEllipse
 62
7
  6
CONTINUOUS
 10
-29.8591754535
 20
9.3555214204
 30
0.0
 11
0.0
 21
423.7
 31
0.0
 40
0.0174550649
 41
-1.5904371127
 42
-1.588683735
  0
ELLIPSE
  5
774
100
AcDbEntity
  8
ASSI
100
AcDbEllipse
 62
7
  6
CONTINUOUS
 10
-12.813138245
 20
9.3555214204
 30
0.0
 11
0.0
 21
423.7
 31
0.0
 40
0.0174550649
 41
-4.7090312901
 42
-4.6981756364
  0
ELLIPSE
  5
775
100
AcDbEntity
  8
ASSI
100
AcDbEllipse
 62
7
  6
CONTINUOUS
 10
-26.7591754535
 20
9.3555214204
 30
0.0
 11
0.0
 21
423.7
 31
0.0
 40
0.0174550649
 41
-1.5850096708
 42
-1.5741540171
  0
ELLIPSE
  5
776
100
AcDbEntity
  8
ASSI
100
AcDbEllipse
 62
7
  6
CONTINUOUS
 10
26.486861755
 20
9.3555214204
 30
0.0
 11
0.0
 21
423.7
 31
0.0
 40
0.0174550649
 41
-4.7090312901
 42
-4.6981756364
  0
ELLIPSE
  5
777
100
AcDbEntity
  8
ASSI
100
AcDbEllipse
 62
7
  6
CONTINUOUS
 10
-3.6760945878
 20
5.5607579398
 30
0.0
 11
0.3
 21
0.0
 31
0.0
 40
0.0174550649
 41
-2.7925268032
 42
-1.5707963268
  0
ELLIPSE
  5
778
100
AcDbEntity
  8
ASSI
100
AcDbEllipse
 62
7
  6
CONTINUOUS
 10
3.4037808893
 20
5.5607579398
 30
0.0
 11
0.3
 21
0.0
 31
0.0
 40
0.0174550649
 41
-1.5707963268
 42
-0.3490658504
  0
ELLIPSE
  5
779
100
AcDbEntity
  8
ASSI
100
AcDbEllipse
 62
7
  6
CONTINUOUS
 10
12.5408245465
 20
9.3555214204
 30
0.0
 11
0.0
 21
423.7
 31
0.0
 40
0.0174550649
 41
-1.5850096708
 42
-1.5741540171
  0
ELLIPSE
  5
77A
100
AcDbEntity
  8
ASSI
100
AcDbEllipse
 62
7
  6
CONTINUOUS
 10
-3.6760945878
 20
3.9502849009
 30
0.0
 11
0.3
 21
0.0
 31
0.0
 40
0.0174550649
 41
1.5707963268
 42
2.7925268032
  0
ELLIPSE
  5
77B
100
AcDbEntity
  8
ASSI
100
AcDbEllipse
 62
7
  6
CONTINUOUS
 10
3.4037808893
 20
3.9502849009
 30
0.0
 11
0.3
 21
0.0
 31
0.0
 40
0.0174550649
 41
0.3490658504
 42
1.5707963268
  0
ELLIPSE
  5
77C
100
AcDbEntity
  8
ASSI
100
AcDbEllipse
 62
7
  6
CONTINUOUS
 10
-18.1309660282
 20
-7.9183957317
 30
0.0
 11
0.3
 21
-0.0
 31
0.0
 40
0.1763269807
 41
-1.5707963268
 42
-0.0174532925
  0
ELLIPSE
  5
77D
100
AcDbEntity
  8
ASSI
100
AcDbEllipse
 62
7
  6
CONTINUOUS
 10
-23.8344113428
 20
8.1979654045
 30
0.0
 11
0.0
 21
0.3
 31
0.0
 40
0.0174550649
 41
-3.1241393611
 42
-1.5707963268
  0
ELLIPSE
  5
77E
100
AcDbEntity
  8
ASSI
100
AcDbEllipse
 62
7
  6
CONTINUOUS
 10
23.5620976443
 20
8.1979654045
 30
0.0
 11
-0.0
 21
0.3
 31
0.0
 40
0.0174550649
 41
-4.7123889804
 42
-3.1590459461
  0
ELLIPSE
  5
77F
100
AcDbEntity
  8
ASSI
100
AcDbEllipse
 62
7
  6
CONTINUOUS
 10
-6.9309660282
 20
-7.9183957317
 30
0.0
 11
0.3
 21
-0.0
 31
0.0
 40
0.1763269807
 41
-1.5707963268
 42
-0.0174532925
  0
ELLIPSE
  5
780
100
AcDbEntity
  8
ASSI
100
AcDbEllipse
 62
7
  6
CONTINUOUS
 10
-7.1413476703
 20
-7.9183957317
 30
0.0
 11
0.3
 21
0.0
 31
0.0
 40
0.1763269807
 41
-3.1241393611
 42
-1.5707963268
  0
ELLIPSE
  5
781
100
AcDbEntity
  8
ASSI
100
AcDbEllipse
 62
7
  6
CONTINUOUS
 10
6.6586523297
 20
-7.9183957317
 30
0.0
 11
0.3
 21
0.0
 31
0.0
 40
0.1763269807
 41
-3.1241393611
 42
-1.5707963268
  0
ELLIPSE
  5
782
100
AcDbEntity
  8
ASSI
100
AcDbEllipse
 62
7
  6
CONTINUOUS
 10
6.8690339718
 20
-7.9183957317
 30
0.0
 11
0.3
 21
0.0
 31
0.0
 40
0.1763269807
 41
-1.5707963268
 42
-0.0174532925
  0
ELLIPSE
  5
783
100
AcDbEntity
  8
ASSI
100
AcDbEllipse
 62
7
  6
CONTINUOUS
 10
18.0690339718
 20
-7.9183957317
 30
0.0
 11
0.3
 21
-0.0
 31
0.0
 40
0.1763269807
 41
-1.5707963268
 42
-0.0174532925
  0
ELLIPSE
  5
784
100
AcDbEntity
  8
ASSI
100
AcDbEllipse
 62
7
  6
CONTINUOUS
 10
17.8586523297
 20
-7.9183957317
 30
0.0
 11
0.3
 21
0.0
 31
0.0
 40
0.1763269807
 41
-3.1241393611
 42
-1.5707963268
  0
ELLIPSE
  5
785
100
AcDbEntity
  8
ASSI
100
AcDbEllipse
 62
7
  6
CONTINUOUS
 10
-18.3413476703
 20
-7.9183957317
 30
0.0
 11
0.3
 21
0.0
 31
0.0
 40
0.1763269807
 41
-3.1241393611
 42
-1.5707963268
  0
ENDSEC
  0
SECTION
  2
OBJECTS
  0
DICTIONARY
  5
C
100
AcDbDictionary
280
0
281
1
  3
ACAD_GROUP
350
D
  3
ACAD_MLINESTYLE
350
17
  3
ACAD_LAYOUT
350
1A
  3
ACAD_PLOTSETTINGS
350
19
  3
ACAD_PLOTSTYLENAME
350
E
  0
DICTIONARY
  5
D
102
{ACAD_REACTORS
330
C
102
}
100
AcDbDictionary
280
0
281
1
  0
ACDBDICTIONARYWDFLT
  5
E
102
{ACAD_REACTORS
330
C
102
}
100
AcDbDictionary
281
1
  3
Normal
350
F
100
AcDbDictionaryWithDefault
340
F
  0
DICTIONARY
  5
17
102
{ACAD_REACTORS
330
C
102
}
100
AcDbDictionary
280
0
281
1
  3
Standard
350
18
  0
DICTIONARY
  5
19
102
{ACAD_REACTORS
330
C
102
}
100
AcDbDictionary
281
1
  0
DICTIONARY
  5
1A
102
{ACAD_REACTORS
330
C
102
}
100
AcDbDictionary
281
1
  3
Model
350
786
  3
Layout1
350
787
  0
ACDBPLACEHOLDER
  5
F
102
{ACAD_REACTORS
330
E
102
}
  0
MLINESTYLE
  5
18
102
{ACAD_REACTORS
330
17
102
}
100
AcDbMlineStyle
  2
STANDARD
 70
0
  3

 62
256
 51
90.0
 52
90.0
 71
2
 49
0.5
 62
256
  6
BYLAYER
 49
-0.5
 62
256
  6
BYLAYER
  0
LAYOUT
  5
786
102
{ACAD_REACTORS
330
1A
102
}
100
AcDbPlotSettings
  1

  2
none_device
  4
ISO_A4_(297.00_x_210.00_MM)
  6

 40
0.0
 41
0.0
 42
0.0
 43
0.0
 44
297.0
 45
210.0
 46
0.0
 47
0.0
 48
0.0
 49
0.0
140
0.0
141
0.0
142
1.0
143
1.0
 70
1024
 72
1
 73
0
 74
0
  7

 75
0
147
1.0
148
0.0
149
0.0
100
AcDbLayout
  1
Model
 70
0
 71
0
 10
0.0
 20
0.0
 11
297.0
 21
210.0
 12
0.0
 22
0.0
 32
0.0
 14
0.0
 24
0.0
 34
0.0
 15
0.0
 25
0.0
 35
0.0
146
0.0
 13
0.0
 23
0.0
 33
0.0
 16
1.0
 26
0.0
 36
0.0
 17
0.0
 27
1.0
 37
0.0
 76
0
330
211
345
0
346
0
  0
LAYOUT
  5
787
102
{ACAD_REACTORS
330
1A
102
}
100
AcDbPlotSettings
  1

  2
none_device
  4
ISO_A4_(297.00_x_210.00_MM)
  6

 40
0.0
 41
0.0
 42
0.0
 43
0.0
 44
297.0
 45
210.0
 46
0.0
 47
0.0
 48
0.0
 49
0.0
140
0.0
141
0.0
142
1.0
143
1.0
 70
0
 72
1
 73
0
 74
0
  7

 75
0
147
1.0
148
0.0
149
0.0
100
AcDbLayout
  1
Layout1
 70
0
 71
1
 10
0.0
 20
0.0
 11
297.0
 21
210.0
 12
0.0
 22
0.0
 32
0.0
 14
0.0
 24
0.0
 34
0.0
 15
0.0
 25
0.0
 35
0.0
146
0.0
 13
0.0
 23
0.0
 33
0.0
 16
1.0
 26
0.0
 36
0.0
 17
0.0
 27
1.0
 37
0.0
 76
0
330
212
345
0
346
0
  0
ENDSEC
  0
EOF
