  0
SECTION
  2
HEADER
  9
$ACADVER
  1
AC1015
  9
$DWGCODEPAGE
  3
ANSI_1252
  9
$EXTMAX
 10
297.0
 20
210.0
 30
0.0
  9
$EXTMIN
 10
0.0
 20
0.0
 30
0.0
  9
$LIMMIN
 10
0.0
 20
0.0
  9
$LIMMAX
 10
297.0
 20
210.0
  9
$VIEWCTR
 10
148.5
 20
105.0
  9
$VIEWSIZE
 40
210.0
  9
$CLAYER
  8
0
  9
$LTSCALE
 40
16.335
  9
$CELTYPE
  6
BYLAYER
  9
$DIMSCALE
 40
1.0
  9
$DIMASZ
 40
3.0
  9
$DIMEXO
 40
1.85625
  9
$DIMDLI
 40
11.286
  9
$DIMEXE
 40
5.346
  9
$DIMCEN
 40
2.673
  9
$DIMLFAC
 40
1.0
  9
$DIMBLK
  1
_FILLED
  9
$DIMTXT
 40
3.0
  9
$DIMTOL
 70
1
  9
$DIMLIM
 70
0
  9
$DIMTFAC
 40
1.0
  9
$DIMTP
 40
0.01
  9
$DIMTM
 40
0.01
  9
$PDMODE
 70
3
  9
$PDSIZE
 40
3.0
  9
$HANDSEED
  5
788
  9
$TILEMODE
 70
1
  9
$MEASUREMENT
 70
1
  9
$INSUNITS
 70
4
  0
ENDSEC
  0
SECTION
  2
CLASSES
  0
CLASS
  1
ACDBDICTIONARYWDFLT
  2
AcDbDictionaryWithDefault
  3
AutoCAD 2000
 90
0
280
0
281
0
  0
CLASS
  1
ACDBPLACEHOLDER
  2
AcDbPlaceHolder
  3
AutoCAD 2000
 90
0
280
0
281
0
  0
CLASS
  1
LAYOUT
  2
AcDbLayout
  3
AutoCAD 2000
 90
0
280
0
281
0
  0
ENDSEC
  0
SECTION
  2
TABLES
  0
TABLE
  2
VPORT
  5
8
100
AcDbSymbolTable
 70
2
  0
VPORT
  5
1F4
100
AcDbSymbolTableRecord
100
AcDbViewportTableRecord
  2
*ACTIVE
 70
0
 10
0.0
 20
0.0
 11
1.0
 21
1.0
 12
148.5
 22
105.0
 13
0.0
 23
0.0
 14
1.0
 24
1.0
 15
0.0
 25
0.0
 16
0.0
 26
0.0
 36
1.0
 17
0.0
 27
0.0
 37
0.0
 40
210.0
 41
1.4142857143
 42
50.0
 43
0.0
 44
0.0
 50
0.0
 51
0.0
 71
0
 72
100
 73
1
 74
1
 75
0
 76
0
 77
0
 78
0
  0
ENDTAB
  0
TABLE
  2
LTYPE
  5
5
100
AcDbSymbolTable
 70
6
  0
LTYPE
  5
14
100
AcDbSymbolTableRecord
100
AcDbLinetypeTableRecord
  2
BYBLOCK
 70
0
  3

 72
65
 73
0
 40
0.0
  0
LTYPE
  5
15
100
AcDbSymbolTableRecord
100
AcDbLinetypeTableRecord
  2
BYLAYER
 70
0
  3

 72
65
 73
0
 40
0.0
  0
LTYPE
  5
16
100
AcDbSymbolTableRecord
100
AcDbLinetypeTableRecord
  2
CONTINUOUS
 70
64
  3
Solid line
 72
65
 73
0
 40
0.0
  0
LTYPE
  5
1F5
100
AcDbSymbolTableRecord
100
AcDbLinetypeTableRecord
  2
CENTER
 70
64
  3
____ _ ____ _ ____ _ ____ _ ____ _ ____ _ ____
 72
65
 73
4
 40
0.6
 49
0.375
 74
0
 49
-0.075
 74
0
 49
0.075
 74
0
 49
-0.075
 74
0
  0
LTYPE
  5
1F6
100
AcDbSymbolTableRecord
100
AcDbLinetypeTableRecord
  2
HIDDEN
 70
64
  3
- - - - - - - - - - - - - - - - - - - -
 72
65
 73
2
 40
0.2
 49
0.1
 74
0
 49
-0.1
 74
0
  0
LTYPE
  5
1F7
100
AcDbSymbolTableRecord
100
AcDbLinetypeTableRecord
  2
PHANTOM
 70
64
  3
_____ _ _ _____ _ _ _____ _ _ _____
 72
65
 73
6
 40
0.8
 49
0.45
 74
0
 49
-0.05
 74
0
 49
0.1
 74
0
 49
-0.05
 74
0
 49
0.1
 74
0
 49
-0.05
 74
0
  0
LTYPE
  5
1F8
100
AcDbSymbolTableRecord
100
AcDbLinetypeTableRecord
  2
DOT
 70
64
  3
. . . . . . . . . . . . . . . . . . . .
 72
65
 73
2
 40
0.2
 49
0.1
 74
0
 49
-0.1
 74
0
  0
LTYPE
  5
1F9
100
AcDbSymbolTableRecord
100
AcDbLinetypeTableRecord
  2
DASHED
 70
64
  3
- - - - - - - - - - - - - - - - - - - -
 72
65
 73
2
 40
0.2
 49
0.1
 74
0
 49
-0.1
 74
0
  0
ENDTAB
  0
TABLE
  2
LAYER
  5
2
100
AcDbSymbolTable
 70
36
  0
LAYER
  5
10
100
AcDbSymbolTableRecord
100
AcDbLayerTableRecord
  2
0
 70
0
 62
7
  6
CONTINUOUS
370
-3
390
F
  0
LAYER
  5
1FA
100
AcDbSymbolTableRecord
100
AcDbLayerTableRecord
  2
DEFAULT_1
 70
0
 62
7
  6
CENTER
370
-3
390
F
  0
LAYER
  5
1FB
100
AcDbSymbolTableRecord
100
AcDbLayerTableRecord
  2
DEFAULT_2
 70
0
 62
7
  6
HIDDEN
370
-3
390
F
  0
LAYER
  5
1FC
100
AcDbSymbolTableRecord
100
AcDbLayerTableRecord
  2
DEFAULT_3
 70
0
 62
7
  6
PHANTOM
370
-3
390
F
  0
LAYER
  5
1FD
100
AcDbSymbolTableRecord
100
AcDbLayerTableRecord
  2
ASSI
 70
0
 62
7
  6
CONTINUOUS
370
-3
390
F
  0
LAYER
  5
1FE
100
AcDbSymbolTableRecord
100
AcDbLayerTableRecord
  2
COORDINATE
 70
0
 62
7
  6
CONTINUOUS
370
-3
390
F
  0
LAYER
  5
1FF
100
AcDbSymbolTableRecord
100
AcDbLayerTableRecord
  2
COORD_ORIGINE
 70
0
 62
7
  6
CONTINUOUS
370
-3
390
F
  0
LAYER
  5
200
100
AcDbSymbolTableRecord
100
AcDbLayerTableRecord
  2
COPY_PUBLISH
 70
0
 62
7
  6
CONTINUOUS
370
-3
390
F
  0
LAYER
  5
201
100
AcDbSymbolTableRecord
100
AcDbLayerTableRecord
  2
COSMETIC
 70
0
 62
7
  6
CONTINUOUS
370
-3
390
F
  0
LAYER
  5
202
100
AcDbSymbolTableRecord
100
AcDbLayerTableRecord
  2
CURVE
 70
0
 62
7
  6
CONTINUOUS
370
-3
390
F
  0
LAYER
  5
203
100
AcDbSymbolTableRecord
100
AcDbLayerTableRecord
  2
DRAFT
 70
0
 62
7
  6
CONTINUOUS
370
-3
390
F
  0
LAYER
  5
204
100
AcDbSymbolTableRecord
100
AcDbLayerTableRecord
  2
IGES
 70
0
 62
7
  6
CONTINUOUS
370
-3
390
F
  0
LAYER
  5
205
100
AcDbSymbolTableRecord
100
AcDbLayerTableRecord
  2
IMPORT_IGES
 70
0
 62
7
  6
CONTINUOUS
370
-3
390
F
  0
LAYER
  5
206
100
AcDbSymbolTableRecord
100
AcDbLayerTableRecord
  2
INTF_12
 70
0
 62
7
  6
CONTINUOUS
370
-3
390
F
  0
LAYER
  5
207
100
AcDbSymbolTableRecord
100
AcDbLayerTableRecord
  2
NOTE
 70
0
 62
7
  6
CONTINUOUS
370
-3
390
F
  0
LAYER
  5
208
100
AcDbSymbolTableRecord
100
AcDbLayerTableRecord
  2
PIANI
 70
0
 62
7
  6
CONTINUOUS
370
-3
390
F
  0
LAYER
  5
209
100
AcDbSymbolTableRecord
100
AcDbLayerTableRecord
  2
PIANI_ORIGINE
 70
0
 62
7
  6
CONTINUOUS
370
-3
390
F
  0
LAYER
  5
20A
100
AcDbSymbolTableRecord
100
AcDbLayerTableRecord
  2
RACCORDO
 70
0
 62
7
  6
CONTINUOUS
370
-3
390
F
  0
LAYER
  5
20B
100
AcDbSymbolTableRecord
100
AcDbLayerTableRecord
  2
SMUSSO
 70
0
 62
7
  6
CONTINUOUS
370
-3
390
F
  0
LAYER
  5
20C
100
AcDbSymbolTableRecord
100
AcDbLayerTableRecord
  2
SNAPLINE
 70
0
 62
7
  6
CONTINUOUS
370
-3
390
F
  0
LAYER
  5
20D
100
AcDbSymbolTableRecord
100
AcDbLayerTableRecord
  2
SUPERFICI
 70
0
 62
7
  6
CONTINUOUS
370
-3
390
F
  0
LAYER
  5
20E
100
AcDbSymbolTableRecord
100
AcDbLayerTableRecord
  2
TRASH
 70
0
 62
7
  6
CONTINUOUS
370
-3
390
F
  0
ENDTAB
  0
TABLE
  2
STYLE
  5
3
100
AcDbSymbolTable
 70
1
  0
STYLE
  5
11
100
AcDbSymbolTableRecord
100
AcDbTextStyleTableRecord
  2
STANDARD
 70
0
 40
0.0
 41
0.8
 50
0.0
 71
0
 42
0.2
  3
txt
  4

  0
STYLE
  5
20F
100
AcDbSymbolTableRecord
100
AcDbTextStyleTableRecord
  2
TEXTSTYLE_1
 70
0
 40
0.0
 41
0.8
 50
0.0
 71
0
 42
0.2
  3
gdt
  4

  0
ENDTAB
  0
TABLE
  2
VIEW
  5
6
100
AcDbSymbolTable
 70
0
  0
ENDTAB
  0
TABLE
  2
UCS
  5
7
100
AcDbSymbolTable
 70
0
  0
ENDTAB
  0
TABLE
  2
APPID
  5
9
100
AcDbSymbolTable
 70
1
  0
APPID
  5
210
100
AcDbSymbolTableRecord
100
AcDbRegAppTableRecord
  2
ACAD
 70
0
  0
ENDTAB
  0
TABLE
  2
BLOCK_RECORD
  5
1
100
AcDbSymbolTable
 70
0
  0
BLOCK_RECORD
  5
211
100
AcDbSymbolTableRecord
100
AcDbBlockTableRecord
  2
*Model_Space
  0
BLOCK_RECORD
  5
212
100
AcDbSymbolTableRecord
100
AcDbBlockTableRecord
  2
*Paper_Space
  0
ENDTAB
  0
TABLE
  2
DIMSTYLE
  5
A
100
AcDbSymbolTable
 70
1
100
AcDbDimStyleTable
 71
0
  0
DIMSTYLE
105
213
100
AcDbSymbolTableRecord
100
AcDbDimStyleTableRecord
  2
STANDARD
 70
0
  3

  4

 40
1.0
 41
3.0
 42
0.0625
 43
0.38
 44
0.18
 45
0.0
 46
0.0
 47
0.01
 48
0.01
140
3.0
141
0.09
142
0.0
143
25.4
144
1.0
145
0.0
146
1.0
147
0.09
 71
1.0
 72
0.0
 73
0
 74
0
 75
0
 76
0
 77
1
 78
8
170
0
171
2
172
0
173
0
174
0
175
0
176
0
177
0
178
0
270
2
271
2
272
2
273
2
274
2
275
0
280
0
281
0
282
0
283
1
284
8
285
0
286
0
287
3
288
0
340
11
  0
ENDTAB
  0
ENDSEC
  0
SECTION
  2
BLOCKS
  0
BLOCK
  5
20
100
AcDbEntity
  8
0
100
AcDbBlockBegin
  2
*Model_Space
 70
0
 10
0.0
 20
0.0
 30
0.0
  3
*Model_Space
  1

  0
ENDBLK
  5
21
100
AcDbEntity
  8
0
100
AcDbBlockEnd
  0
BLOCK
  5
1C
100
AcDbEntity
  8
0
100
AcDbBlockBegin
  2
*Paper_Space
 70
0
 10
0.0
 20
0.0
 30
0.0
  3
*Paper_Space
  1

  0
ENDBLK
  5
1D
100
AcDbEntity
  8
0
100
AcDbBlockEnd
  0
ENDSEC
  0
SECTION
  2
ENTITIES
  0
LINE
  5
214
100
AcDbEntity
  8
RACCORDO
100
AcDbLine
 62
7
  6
CONTINUOUS
 10
-25.0248565274
 20
-9.0511540193
 11
-25.0383496052
 21
-1.6963799244
  0
LINE
  5
215
100
AcDbEntity
  8
ASSI
100
AcDbLine
 62
7
  6
CONTINUOUS
 10
-25.0248565274
 20
-9.0511540193
 11
-25.0383496052
 21
-1.6963799244
  0
LINE
  5
216
100
AcDbEntity
  8
DRAFT
100
AcDbLine
 62
7
  6
CONTINUOUS
 10
-25.0383496052
 20
7.9327812915
 11
-25.0383496052
 21
-1.6963799244
  0
LINE
  5
217
100
AcDbEntity
  8
ASSI
100
AcDbLine
 62
7
  6
CONTINUOUS
 10
-25.0383496052
 20
7.9327812915
 11
-25.0383496052
 21
-1.6963799244
  0
LINE
  5
218
100
AcDbEntity
  8
RACCORDO
100
AcDbLine
 62
7
  6
CONTINUOUS
 10
-25.0313675792
 20
8.2345724964
 11
-25.0313675792
 21
8.9351845625
  0
LINE
  5
219
100
AcDbEntity
  8
ASSI
100
AcDbLine
 62
7
  6
CONTINUOUS
 10
-25.0313675792
 20
8.2345724964
 11
-25.0313675792
 21
8.9351845625
  0
LINE
  5
21A
100
AcDbEntity
  8
DRAFT
100
AcDbLine
 62
7
  6
CONTINUOUS
 10
-23.9243873857
 20
-9.3058728655
 11
-23.9338420201
 21
-4.1533639027
  0
LINE
  5
21B
100
AcDbEntity
  8
ASSI
100
AcDbLine
 62
7
  6
CONTINUOUS
 10
-23.9243873857
 20
-9.3058728655
 11
-23.9338420201
 21
-4.1533639027
  0
LINE
  5
21C
100
AcDbEntity
  8
DRAFT
100
AcDbLine
 62
7
  6
CONTINUOUS
 10
-24.2338420193
 20
-4.1533639019
 11
-24.2383496052
 21
-1.6578714877
  0
LINE
  5
21D
100
AcDbEntity
  8
ASSI
100
AcDbLine
 62
7
  6
CONTINUOUS
 10
-24.2338420193
 20
-4.1533639019
 11
-24.2383496052
 21
-1.6578714877
  0
LINE
  5
21E
100
AcDbEntity
  8
DRAFT
100
AcDbLine
 62
7
  6
CONTINUOUS
 10
-23.9383496052
 20
7.9327812915
 11
-23.9383496052
 21
-1.6578714877
  0
LINE
  5
21F
100
AcDbEntity
  8
ASSI
100
AcDbLine
 62
7
  6
CONTINUOUS
 10
-23.9383496052
 20
7.9327812915
 11
-23.9383496052
 21
-1.6578714877
  0
LINE
  5
220
100
AcDbEntity
  8
RACCORDO
100
AcDbLine
 62
7
  6
CONTINUOUS
 10
-23.9313675792
 20
8.2345724964
 11
-23.9313675792
 21
8.044493707
  0
LINE
  5
221
100
AcDbEntity
  8
ASSI
100
AcDbLine
 62
7
  6
CONTINUOUS
 10
-23.9313675792
 20
8.2345724964
 11
-23.9313675792
 21
8.044493707
  0
LINE
  5
222
100
AcDbEntity
  8
RACCORDO
100
AcDbLine
 62
7
  6
CONTINUOUS
 10
-23.9243855533
 20
-9.3008931924
 11
-23.9243855533
 21
-7.9131051187
  0
LINE
  5
223
100
AcDbEntity
  8
ASSI
100
AcDbLine
 62
7
  6
CONTINUOUS
 10
-23.9243855533
 20
-9.3008931924
 11
-23.9243855533
 21
-7.9131051187
  0
LINE
  5
224
100
AcDbEntity
  8
DRAFT
100
AcDbLine
 62
7
  6
CONTINUOUS
 10
-23.9208945403
 20
-4.7659793319
 11
-23.9208945403
 21
-4.1404164228
  0
LINE
  5
225
100
AcDbEntity
  8
ASSI
100
AcDbLine
 62
7
  6
CONTINUOUS
 10
-23.9208945403
 20
-4.7659793319
 11
-23.9208945403
 21
-4.1404164228
  0
LINE
  5
226
100
AcDbEntity
  8
DRAFT
100
AcDbLine
 62
7
  6
CONTINUOUS
 10
-23.9208945403
 20
-1.6753265527
 11
-23.9208945403
 21
-1.0497636436
  0
LINE
  5
227
100
AcDbEntity
  8
ASSI
100
AcDbLine
 62
7
  6
CONTINUOUS
 10
-23.9208945403
 20
-1.6753265527
 11
-23.9208945403
 21
-1.0497636436
  0
LINE
  5
228
100
AcDbEntity
  8
DRAFT
100
AcDbLine
 62
7
  6
CONTINUOUS
 10
-23.9139125143
 20
1.7572183824
 11
-23.9139125143
 21
1.1270386421
  0
LINE
  5
229
100
AcDbEntity
  8
ASSI
100
AcDbLine
 62
7
  6
CONTINUOUS
 10
-23.9139125143
 20
1.7572183824
 11
-23.9139125143
 21
1.1270386421
  0
LINE
  5
22A
100
AcDbEntity
  8
DRAFT
100
AcDbLine
 62
7
  6
CONTINUOUS
 10
-23.9139125143
 20
-6.1427816176
 11
-23.9139125143
 21
-6.7729613579
  0
LINE
  5
22B
100
AcDbEntity
  8
ASSI
100
AcDbLine
 62
7
  6
CONTINUOUS
 10
-23.9139125143
 20
-6.1427816176
 11
-23.9139125143
 21
-6.7729613579
  0
LINE
  5
22C
100
AcDbEntity
  8
DRAFT
100
AcDbLine
 62
7
  6
CONTINUOUS
 10
-23.1558046701
 20
-4.1404164228
 11
-23.1558046701
 21
-1.6753265527
  0
LINE
  5
22D
100
AcDbEntity
  8
ASSI
100
AcDbLine
 62
7
  6
CONTINUOUS
 10
-23.1558046701
 20
-4.1404164228
 11
-23.1558046701
 21
-1.6753265527
  0
LINE
  5
22E
100
AcDbEntity
  8
RACCORDO
100
AcDbLine
 62
253
  6
CONTINUOUS
 10
-23.562683094
 20
1.8136377862
 11
-23.5615424601
 21
7.9694777963
  0
LINE
  5
22F
100
AcDbEntity
  8
ASSI
100
AcDbLine
 62
253
  6
CONTINUOUS
 10
-23.562683094
 20
1.8136377862
 11
-23.5615424601
 21
7.9694777963
  0
LINE
  5
230
100
AcDbEntity
  8
RACCORDO
100
AcDbLine
 62
253
  6
CONTINUOUS
 10
-23.5637187188
 20
-0.9873985724
 11
-23.5629262303
 21
1.0708625471
  0
LINE
  5
231
100
AcDbEntity
  8
ASSI
100
AcDbLine
 62
253
  6
CONTINUOUS
 10
-23.5637187188
 20
-0.9873985724
 11
-23.5629262303
 21
1.0708625471
  0
LINE
  5
232
100
AcDbEntity
  8
RACCORDO
100
AcDbLine
 62
253
  6
CONTINUOUS
 10
-23.5664363821
 20
-6.090118162
 11
-23.5656633254
 21
-4.8263984187
  0
LINE
  5
233
100
AcDbEntity
  8
ASSI
100
AcDbLine
 62
253
  6
CONTINUOUS
 10
-23.5664363821
 20
-6.090118162
 11
-23.5656633254
 21
-4.8263984187
  0
LINE
  5
234
100
AcDbEntity
  8
RACCORDO
100
AcDbLine
 62
253
  6
CONTINUOUS
 10
-23.5674388083
 20
-7.5891532584
 11
-23.5669163202
 21
-6.825144536
  0
LINE
  5
235
100
AcDbEntity
  8
ASSI
100
AcDbLine
 62
253
  6
CONTINUOUS
 10
-23.5674388083
 20
-7.5891532584
 11
-23.5669163202
 21
-6.825144536
  0
LINE
  5
236
100
AcDbEntity
  8
RACCORDO
100
AcDbLine
 62
253
  6
CONTINUOUS
 10
-23.9243855533
 20
-7.9131051187
 11
-23.8672252778
 21
-7.3356853939
  0
LINE
  5
237
100
AcDbEntity
  8
ASSI
100
AcDbLine
 62
253
  6
CONTINUOUS
 10
-23.9243855533
 20
-7.9131051187
 11
-23.8672252778
 21
-7.3356853939
  0
LINE
  5
238
100
AcDbEntity
  8
RACCORDO
100
AcDbLine
 62
253
  6
CONTINUOUS
 10
-22.918068914
 20
-6.7729613579
 11
-22.918068914
 21
-6.1427816176
  0
LINE
  5
239
100
AcDbEntity
  8
ASSI
100
AcDbLine
 62
253
  6
CONTINUOUS
 10
-22.918068914
 20
-6.7729613579
 11
-22.918068914
 21
-6.1427816176
  0
LINE
  5
23A
100
AcDbEntity
  8
RACCORDO
100
AcDbLine
 62
253
  6
CONTINUOUS
 10
-22.918068914
 20
1.1270386421
 11
-22.918068914
 21
1.7572183824
  0
LINE
  5
23B
100
AcDbEntity
  8
ASSI
100
AcDbLine
 62
253
  6
CONTINUOUS
 10
-22.918068914
 20
1.1270386421
 11
-22.918068914
 21
1.7572183824
  0
LINE
  5
23C
100
AcDbEntity
  8
DRAFT
100
AcDbLine
 62
7
  6
CONTINUOUS
 10
-22.8883496052
 20
-4.7659793319
 11
-22.8883496052
 21
-1.0497636436
  0
LINE
  5
23D
100
AcDbEntity
  8
ASSI
100
AcDbLine
 62
7
  6
CONTINUOUS
 10
-22.8883496052
 20
-4.7659793319
 11
-22.8883496052
 21
-1.0497636436
  0
LINE
  5
23E
100
AcDbEntity
  8
DRAFT
100
AcDbLine
 62
7
  6
CONTINUOUS
 10
-22.6383496052
 20
-4.8263984185
 11
-22.6383496052
 21
-4.7917699348
  0
LINE
  5
23F
100
AcDbEntity
  8
ASSI
100
AcDbLine
 62
7
  6
CONTINUOUS
 10
-22.6383496052
 20
-4.8263984185
 11
-22.6383496052
 21
-4.7917699348
  0
LINE
  5
240
100
AcDbEntity
  8
DRAFT
100
AcDbLine
 62
7
  6
CONTINUOUS
 10
-22.6383496052
 20
-1.0239730407
 11
-22.6383496052
 21
-0.9873985725
  0
LINE
  5
241
100
AcDbEntity
  8
ASSI
100
AcDbLine
 62
7
  6
CONTINUOUS
 10
-22.6383496052
 20
-1.0239730407
 11
-22.6383496052
 21
-0.9873985725
  0
LINE
  5
242
100
AcDbEntity
  8
RACCORDO
100
AcDbLine
 62
253
  6
CONTINUOUS
 10
-22.6181146054
 20
-6.7781064875
 11
-22.6181146054
 21
-6.137636488
  0
LINE
  5
243
100
AcDbEntity
  8
ASSI
100
AcDbLine
 62
253
  6
CONTINUOUS
 10
-22.6181146054
 20
-6.7781064875
 11
-22.6181146054
 21
-6.137636488
  0
LINE
  5
244
100
AcDbEntity
  8
RACCORDO
100
AcDbLine
 62
253
  6
CONTINUOUS
 10
-22.6181146054
 20
1.1218935125
 11
-22.6181146054
 21
1.762363512
  0
LINE
  5
245
100
AcDbEntity
  8
ASSI
100
AcDbLine
 62
253
  6
CONTINUOUS
 10
-22.6181146054
 20
1.1218935125
 11
-22.6181146054
 21
1.762363512
  0
LINE
  5
246
100
AcDbEntity
  8
DRAFT
100
AcDbLine
 62
7
  6
CONTINUOUS
 10
-22.0883496052
 20
-4.7799433839
 11
-22.0883496052
 21
-1.0357995916
  0
LINE
  5
247
100
AcDbEntity
  8
ASSI
100
AcDbLine
 62
7
  6
CONTINUOUS
 10
-22.0883496052
 20
-4.7799433839
 11
-22.0883496052
 21
-1.0357995916
  0
LINE
  5
248
100
AcDbEntity
  8
DRAFT
100
AcDbLine
 62
7
  6
CONTINUOUS
 10
-21.5508155958
 20
9.1851464863
 11
-21.5508155958
 21
8.044493707
  0
LINE
  5
249
100
AcDbEntity
  8
ASSI
100
AcDbLine
 62
7
  6
CONTINUOUS
 10
-21.5508155958
 20
9.1851464863
 11
-21.5508155958
 21
8.044493707
  0
LINE
  5
24A
100
AcDbEntity
  8
DRAFT
100
AcDbLine
 62
7
  6
CONTINUOUS
 10
-21.2883496052
 20
9.1327812915
 11
-21.2883496052
 21
7.9921285123
  0
LINE
  5
24B
100
AcDbEntity
  8
ASSI
100
AcDbLine
 62
7
  6
CONTINUOUS
 10
-21.2883496052
 20
9.1327812915
 11
-21.2883496052
 21
7.9921285123
  0
LINE
  5
24C
100
AcDbEntity
  8
RACCORDO
100
AcDbLine
 62
253
  6
CONTINUOUS
 10
-23.6252491669
 20
-8.2168099032
 11
-23.5631158085
 21
-7.5891532583
  0
LINE
  5
24D
100
AcDbEntity
  8
ASSI
100
AcDbLine
 62
253
  6
CONTINUOUS
 10
-23.6252491669
 20
-8.2168099032
 11
-23.5631158085
 21
-7.5891532583
  0
LINE
  5
24E
100
AcDbEntity
  8
RACCORDO
100
AcDbLine
 62
7
  6
CONTINUOUS
 10
-23.9383496052
 20
7.9327812915
 11
-23.9365127088
 21
7.9346181879
  0
LINE
  5
24F
100
AcDbEntity
  8
ASSI
100
AcDbLine
 62
7
  6
CONTINUOUS
 10
-23.9383496052
 20
7.9327812915
 11
-23.9365127088
 21
7.9346181879
  0
LINE
  5
250
100
AcDbEntity
  8
RACCORDO
100
AcDbLine
 62
7
  6
CONTINUOUS
 10
-23.8668748665
 20
-6.8199990057
 11
-23.9139125143
 21
-6.7729613579
  0
LINE
  5
251
100
AcDbEntity
  8
ASSI
100
AcDbLine
 62
7
  6
CONTINUOUS
 10
-23.8668748665
 20
-6.8199990057
 11
-23.9139125143
 21
-6.7729613579
  0
LINE
  5
252
100
AcDbEntity
  8
RACCORDO
100
AcDbLine
 62
7
  6
CONTINUOUS
 10
-18.7725548597
 20
-7.5891532583
 11
-18.7434947348
 21
-7.8827118389
  0
LINE
  5
253
100
AcDbEntity
  8
ASSI
100
AcDbLine
 62
7
  6
CONTINUOUS
 10
-18.7725548597
 20
-7.5891532583
 11
-18.7434947348
 21
-7.8827118389
  0
LINE
  5
254
100
AcDbEntity
  8
RACCORDO
100
AcDbLine
 62
253
  6
CONTINUOUS
 10
-20.2770621639
 20
5.1264430873
 11
-20.2894047587
 21
5.8335498685
  0
LINE
  5
255
100
AcDbEntity
  8
ASSI
100
AcDbLine
 62
253
  6
CONTINUOUS
 10
-20.2770621639
 20
5.1264430873
 11
-20.2894047587
 21
5.8335498685
  0
LINE
  5
256
100
AcDbEntity
  8
RACCORDO
100
AcDbLine
 62
253
  6
CONTINUOUS
 10
-19.9771067149
 20
5.3385097861
 11
-19.9894506439
 21
6.0456930053
  0
LINE
  5
257
100
AcDbEntity
  8
ASSI
100
AcDbLine
 62
253
  6
CONTINUOUS
 10
-19.9771067149
 20
5.3385097861
 11
-19.9894506439
 21
6.0456930053
  0
LINE
  5
258
100
AcDbEntity
  8
RACCORDO
100
AcDbLine
 62
253
  6
CONTINUOUS
 10
-20.2934947348
 20
6.3992352934
 11
-20.2934947348
 21
7.9869833826
  0
LINE
  5
259
100
AcDbEntity
  8
ASSI
100
AcDbLine
 62
253
  6
CONTINUOUS
 10
-20.2934947348
 20
6.3992352934
 11
-20.2934947348
 21
7.9869833826
  0
LINE
  5
25A
100
AcDbEntity
  8
RACCORDO
100
AcDbLine
 62
253
  6
CONTINUOUS
 10
-20.2760396699
 20
3.6009322087
 11
-20.2760396699
 21
4.9850217311
  0
LINE
  5
25B
100
AcDbEntity
  8
ASSI
100
AcDbLine
 62
253
  6
CONTINUOUS
 10
-20.2760396699
 20
3.6009322087
 11
-20.2760396699
 21
4.9850217311
  0
LINE
  5
25C
100
AcDbEntity
  8
RACCORDO
100
AcDbLine
 62
253
  6
CONTINUOUS
 10
-19.9935404263
 20
6.3992467999
 11
-19.9935404263
 21
7.9921285123
  0
LINE
  5
25D
100
AcDbEntity
  8
ASSI
100
AcDbLine
 62
253
  6
CONTINUOUS
 10
-19.9935404263
 20
6.3992467999
 11
-19.9935404263
 21
7.9921285123
  0
LINE
  5
25E
100
AcDbEntity
  8
RACCORDO
100
AcDbLine
 62
253
  6
CONTINUOUS
 10
-19.9760853613
 20
3.6009322087
 11
-19.9760853613
 21
4.9850217311
  0
LINE
  5
25F
100
AcDbEntity
  8
ASSI
100
AcDbLine
 62
253
  6
CONTINUOUS
 10
-19.9760853613
 20
3.6009322087
 11
-19.9760853613
 21
4.9850217311
  0
LINE
  5
260
100
AcDbEntity
  8
RACCORDO
100
AcDbLine
 62
253
  6
CONTINUOUS
 10
-19.8006138491
 20
4.9850217311
 11
-19.8006138491
 21
3.6009322087
  0
LINE
  5
261
100
AcDbEntity
  8
ASSI
100
AcDbLine
 62
253
  6
CONTINUOUS
 10
-19.8006138491
 20
4.9850217311
 11
-19.8006138491
 21
3.6009322087
  0
LINE
  5
262
100
AcDbEntity
  8
RACCORDO
100
AcDbLine
 62
253
  6
CONTINUOUS
 10
-19.7831587841
 20
7.9921285123
 11
-19.7831587841
 21
6.3992464695
  0
LINE
  5
263
100
AcDbEntity
  8
ASSI
100
AcDbLine
 62
253
  6
CONTINUOUS
 10
-19.7831587841
 20
7.9921285123
 11
-19.7831587841
 21
6.3992464695
  0
LINE
  5
264
100
AcDbEntity
  8
RACCORDO
100
AcDbLine
 62
253
  6
CONTINUOUS
 10
-19.5006595405
 20
4.9850217311
 11
-19.5006595405
 21
3.6009322087
  0
LINE
  5
265
100
AcDbEntity
  8
ASSI
100
AcDbLine
 62
253
  6
CONTINUOUS
 10
-19.5006595405
 20
4.9850217311
 11
-19.5006595405
 21
3.6009322087
  0
LINE
  5
266
100
AcDbEntity
  8
RACCORDO
100
AcDbLine
 62
253
  6
CONTINUOUS
 10
-19.4832044756
 20
7.9869833826
 11
-19.4832044756
 21
6.3992352934
  0
LINE
  5
267
100
AcDbEntity
  8
ASSI
100
AcDbLine
 62
253
  6
CONTINUOUS
 10
-19.4832044756
 20
7.9869833826
 11
-19.4832044756
 21
6.3992352934
  0
LINE
  5
268
100
AcDbEntity
  8
RACCORDO
100
AcDbLine
 62
253
  6
CONTINUOUS
 10
-19.7872485569
 20
6.0456935552
 11
-19.7995924953
 21
5.338509794
  0
LINE
  5
269
100
AcDbEntity
  8
ASSI
100
AcDbLine
 62
253
  6
CONTINUOUS
 10
-19.7872485569
 20
6.0456935552
 11
-19.7995924953
 21
5.338509794
  0
LINE
  5
26A
100
AcDbEntity
  8
RACCORDO
100
AcDbLine
 62
253
  6
CONTINUOUS
 10
-19.4872944517
 20
5.8335498685
 11
-19.4996370465
 21
5.1264430873
  0
LINE
  5
26B
100
AcDbEntity
  8
ASSI
100
AcDbLine
 62
253
  6
CONTINUOUS
 10
-19.4872944517
 20
5.8335498685
 11
-19.4996370465
 21
5.1264430873
  0
LINE
  5
26C
100
AcDbEntity
  8
RACCORDO
100
AcDbLine
 62
7
  6
CONTINUOUS
 10
-20.2934947348
 20
7.9869833826
 11
-20.3110003211
 21
7.9694777963
  0
LINE
  5
26D
100
AcDbEntity
  8
ASSI
100
AcDbLine
 62
7
  6
CONTINUOUS
 10
-20.2934947348
 20
7.9869833826
 11
-20.3110003211
 21
7.9694777963
  0
LINE
  5
26E
100
AcDbEntity
  8
RACCORDO
100
AcDbLine
 62
7
  6
CONTINUOUS
 10
-22.6181146054
 20
-6.7781064875
 11
-22.571076557
 21
-6.8251445359
  0
LINE
  5
26F
100
AcDbEntity
  8
ASSI
100
AcDbLine
 62
7
  6
CONTINUOUS
 10
-22.6181146054
 20
-6.7781064875
 11
-22.571076557
 21
-6.8251445359
  0
LINE
  5
270
100
AcDbEntity
  8
RACCORDO
100
AcDbLine
 62
7
  6
CONTINUOUS
 10
-23.8656205194
 20
-4.8212533528
 11
-23.9208945403
 21
-4.7659793319
  0
LINE
  5
271
100
AcDbEntity
  8
ASSI
100
AcDbLine
 62
7
  6
CONTINUOUS
 10
-23.8656205194
 20
-4.8212533528
 11
-23.9208945403
 21
-4.7659793319
  0
LINE
  5
272
100
AcDbEntity
  8
RACCORDO
100
AcDbLine
 62
253
  6
CONTINUOUS
 10
-18.7434947348
 20
-7.8827118389
 11
-18.7434947348
 21
-6.6026806667
  0
LINE
  5
273
100
AcDbEntity
  8
ASSI
100
AcDbLine
 62
253
  6
CONTINUOUS
 10
-18.7434947348
 20
-7.8827118389
 11
-18.7434947348
 21
-6.6026806667
  0
LINE
  5
274
100
AcDbEntity
  8
RACCORDO
100
AcDbLine
 62
253
  6
CONTINUOUS
 10
-18.4435404263
 20
-7.934686734
 11
-18.4435404263
 21
-6.3027263581
  0
LINE
  5
275
100
AcDbEntity
  8
ASSI
100
AcDbLine
 62
253
  6
CONTINUOUS
 10
-18.4435404263
 20
-7.934686734
 11
-18.4435404263
 21
-6.3027263581
  0
LINE
  5
276
100
AcDbEntity
  8
RACCORDO
100
AcDbLine
 62
253
  6
CONTINUOUS
 10
-18.2331587841
 20
-6.3027263581
 11
-18.2331587841
 21
-7.934686734
  0
LINE
  5
277
100
AcDbEntity
  8
ASSI
100
AcDbLine
 62
253
  6
CONTINUOUS
 10
-18.2331587841
 20
-6.3027263581
 11
-18.2331587841
 21
-7.934686734
  0
LINE
  5
278
100
AcDbEntity
  8
RACCORDO
100
AcDbLine
 62
253
  6
CONTINUOUS
 10
-17.9332044756
 20
-6.6026806667
 11
-17.9332044756
 21
-7.8827118389
  0
LINE
  5
279
100
AcDbEntity
  8
ASSI
100
AcDbLine
 62
253
  6
CONTINUOUS
 10
-17.9332044756
 20
-6.6026806667
 11
-17.9332044756
 21
-7.8827118389
  0
LINE
  5
27A
100
AcDbEntity
  8
RACCORDO
100
AcDbLine
 62
7
  6
CONTINUOUS
 10
-23.8626406877
 20
1.808490209
 11
-23.9139125143
 21
1.7572183824
  0
LINE
  5
27B
100
AcDbEntity
  8
ASSI
100
AcDbLine
 62
7
  6
CONTINUOUS
 10
-23.8626406877
 20
1.808490209
 11
-23.9139125143
 21
1.7572183824
  0
LINE
  5
27C
100
AcDbEntity
  8
DRAFT
100
AcDbLine
 62
7
  6
CONTINUOUS
 10
-23.1558046701
 20
-4.1404164228
 11
-23.2166499551
 21
-4.0795711378
  0
LINE
  5
27D
100
AcDbEntity
  8
ASSI
100
AcDbLine
 62
7
  6
CONTINUOUS
 10
-23.1558046701
 20
-4.1404164228
 11
-23.2166499551
 21
-4.0795711378
  0
LINE
  5
27E
100
AcDbEntity
  8
DRAFT
100
AcDbLine
 62
7
  6
CONTINUOUS
 10
-24.2383496052
 20
-1.6578714877
 11
-24.1588618471
 21
-1.7373592458
  0
LINE
  5
27F
100
AcDbEntity
  8
ASSI
100
AcDbLine
 62
7
  6
CONTINUOUS
 10
-24.2383496052
 20
-1.6578714877
 11
-24.1588618471
 21
-1.7373592458
  0
LINE
  5
280
100
AcDbEntity
  8
DRAFT
100
AcDbLine
 62
7
  6
CONTINUOUS
 10
-23.9383496052
 20
-1.6578714877
 11
-23.9208945403
 21
-1.6753265527
  0
LINE
  5
281
100
AcDbEntity
  8
ASSI
100
AcDbLine
 62
7
  6
CONTINUOUS
 10
-23.9383496052
 20
-1.6578714877
 11
-23.9208945403
 21
-1.6753265527
  0
LINE
  5
282
100
AcDbEntity
  8
RACCORDO
100
AcDbLine
 62
253
  6
CONTINUOUS
 10
-18.7434947348
 20
-6.6026806667
 11
-18.7732450327
 21
-6.5729303688
  0
LINE
  5
283
100
AcDbEntity
  8
ASSI
100
AcDbLine
 62
253
  6
CONTINUOUS
 10
-18.7434947348
 20
-6.6026806667
 11
-18.7732450327
 21
-6.5729303688
  0
LINE
  5
284
100
AcDbEntity
  8
RACCORDO
100
AcDbLine
 62
7
  6
CONTINUOUS
 10
-17.9082995113
 20
-7.6311277187
 11
-17.9332044756
 21
-7.8827118389
  0
LINE
  5
285
100
AcDbEntity
  8
ASSI
100
AcDbLine
 62
7
  6
CONTINUOUS
 10
-17.9082995113
 20
-7.6311277187
 11
-17.9332044756
 21
-7.8827118389
  0
LINE
  5
286
100
AcDbEntity
  8
RACCORDO
100
AcDbLine
 62
7
  6
CONTINUOUS
 10
-22.6181146054
 20
1.762363512
 11
-22.5668403314
 21
1.8136377861
  0
LINE
  5
287
100
AcDbEntity
  8
ASSI
100
AcDbLine
 62
7
  6
CONTINUOUS
 10
-22.6181146054
 20
1.762363512
 11
-22.5668403314
 21
1.8136377861
  0
LINE
  5
288
100
AcDbEntity
  8
RACCORDO
100
AcDbLine
 62
253
  6
CONTINUOUS
 10
-20.310294986
 20
3.37013744
 11
-20.2794697563
 21
3.4009626697
  0
LINE
  5
289
100
AcDbEntity
  8
ASSI
100
AcDbLine
 62
253
  6
CONTINUOUS
 10
-20.310294986
 20
3.37013744
 11
-20.2794697563
 21
3.4009626697
  0
LINE
  5
28A
100
AcDbEntity
  8
RACCORDO
100
AcDbLine
 62
253
  6
CONTINUOUS
 10
-20.0102644213
 20
3.0702593876
 11
-19.9795154477
 21
3.1010083612
  0
LINE
  5
28B
100
AcDbEntity
  8
ASSI
100
AcDbLine
 62
253
  6
CONTINUOUS
 10
-20.0102644213
 20
3.0702593876
 11
-19.9795154477
 21
3.1010083612
  0
LINE
  5
28C
100
AcDbEntity
  8
RACCORDO
100
AcDbLine
 62
7
  6
CONTINUOUS
 10
-23.8636783764
 20
-0.9925474797
 11
-23.9208945403
 21
-1.0497636436
  0
LINE
  5
28D
100
AcDbEntity
  8
ASSI
100
AcDbLine
 62
7
  6
CONTINUOUS
 10
-23.8636783764
 20
-0.9925474797
 11
-23.9208945403
 21
-1.0497636436
  0
LINE
  5
28E
100
AcDbEntity
  8
RACCORDO
100
AcDbLine
 62
253
  6
CONTINUOUS
 10
-18.4435404263
 20
-6.3027263581
 11
-18.4734864161
 21
-6.2727803683
  0
LINE
  5
28F
100
AcDbEntity
  8
ASSI
100
AcDbLine
 62
253
  6
CONTINUOUS
 10
-18.4435404263
 20
-6.3027263581
 11
-18.4734864161
 21
-6.2727803683
  0
LINE
  5
290
100
AcDbEntity
  8
RACCORDO
100
AcDbLine
 62
7
  6
CONTINUOUS
 10
-23.8628807952
 20
1.076006923
 11
-23.9139125143
 21
1.1270386421
  0
LINE
  5
291
100
AcDbEntity
  8
ASSI
100
AcDbLine
 62
7
  6
CONTINUOUS
 10
-23.8628807952
 20
1.076006923
 11
-23.9139125143
 21
1.1270386421
  0
LINE
  5
292
100
AcDbEntity
  8
0
100
AcDbLine
 62
7
  6
CONTINUOUS
 10
-14.1383496052
 20
-2.3827257159
 11
-14.1383496052
 21
-2.0933639469
  0
LINE
  5
293
100
AcDbEntity
  8
ASSI
100
AcDbLine
 62
7
  6
CONTINUOUS
 10
-14.1383496052
 20
-2.3827257159
 11
-14.1383496052
 21
-2.0933639469
  0
LINE
  5
294
100
AcDbEntity
  8
DRAFT
100
AcDbLine
 62
7
  6
CONTINUOUS
 10
-23.1558046701
 20
-1.6753265527
 11
-23.2178373633
 21
-1.7373592458
  0
LINE
  5
295
100
AcDbEntity
  8
ASSI
100
AcDbLine
 62
7
  6
CONTINUOUS
 10
-23.1558046701
 20
-1.6753265527
 11
-23.2178373633
 21
-1.7373592458
  0
LINE
  5
296
100
AcDbEntity
  8
DRAFT
100
AcDbLine
 62
7
  6
CONTINUOUS
 10
-24.2338420193
 20
-4.1533639019
 11
-24.1600492553
 21
-4.0795711378
  0
LINE
  5
297
100
AcDbEntity
  8
ASSI
100
AcDbLine
 62
7
  6
CONTINUOUS
 10
-24.2338420193
 20
-4.1533639019
 11
-24.1600492553
 21
-4.0795711378
  0
LINE
  5
298
100
AcDbEntity
  8
RACCORDO
100
AcDbLine
 62
7
  6
CONTINUOUS
 10
-22.6181146054
 20
1.1218935125
 11
-22.56708364
 21
1.0708625471
  0
LINE
  5
299
100
AcDbEntity
  8
ASSI
100
AcDbLine
 62
7
  6
CONTINUOUS
 10
-22.6181146054
 20
1.1218935125
 11
-22.56708364
 21
1.0708625471
  0
LINE
  5
29A
100
AcDbEntity
  8
0
100
AcDbLine
 62
7
  6
CONTINUOUS
 10
-13.9258496052
 20
-3.5401724877
 11
-13.9258496052
 21
-2.1295341554
  0
LINE
  5
29B
100
AcDbEntity
  8
ASSI
100
AcDbLine
 62
7
  6
CONTINUOUS
 10
-13.9258496052
 20
-3.5401724877
 11
-13.9258496052
 21
-2.1295341554
  0
LINE
  5
29C
100
AcDbEntity
  8
0
100
AcDbLine
 62
7
  6
CONTINUOUS
 10
-13.7133496052
 20
-3.5401724877
 11
-13.7133496052
 21
-1.8401724877
  0
LINE
  5
29D
100
AcDbEntity
  8
ASSI
100
AcDbLine
 62
7
  6
CONTINUOUS
 10
-13.7133496052
 20
-3.5401724877
 11
-13.7133496052
 21
-1.8401724877
  0
LINE
  5
29E
100
AcDbEntity
  8
0
100
AcDbLine
 62
7
  6
CONTINUOUS
 10
-13.4300162887
 20
-2.8167682173
 11
-13.4300162887
 21
-2.5635767582
  0
LINE
  5
29F
100
AcDbEntity
  8
ASSI
100
AcDbLine
 62
7
  6
CONTINUOUS
 10
-13.4300162887
 20
-2.8167682173
 11
-13.4300162887
 21
-2.5635767582
  0
LINE
  5
2A0
100
AcDbEntity
  8
0
100
AcDbLine
 62
7
  6
CONTINUOUS
 10
-13.2529329723
 20
-2.6359171751
 11
-13.2529329723
 21
-2.5635767582
  0
LINE
  5
2A1
100
AcDbEntity
  8
ASSI
100
AcDbLine
 62
7
  6
CONTINUOUS
 10
-13.2529329723
 20
-2.6359171751
 11
-13.2529329723
 21
-2.5635767582
  0
LINE
  5
2A2
100
AcDbEntity
  8
0
100
AcDbLine
 62
7
  6
CONTINUOUS
 10
-13.2175162381
 20
-3.0337895187
 11
-13.2175162381
 21
-2.9252788934
  0
LINE
  5
2A3
100
AcDbEntity
  8
ASSI
100
AcDbLine
 62
7
  6
CONTINUOUS
 10
-13.2175162381
 20
-3.0337895187
 11
-13.2175162381
 21
-2.9252788934
  0
LINE
  5
2A4
100
AcDbEntity
  8
0
100
AcDbLine
 62
7
  6
CONTINUOUS
 10
-13.4300162887
 20
-2.5635767582
 11
-13.3945996052
 21
-2.310385299
  0
LINE
  5
2A5
100
AcDbEntity
  8
ASSI
100
AcDbLine
 62
7
  6
CONTINUOUS
 10
-13.4300162887
 20
-2.5635767582
 11
-13.3945996052
 21
-2.310385299
  0
LINE
  5
2A6
100
AcDbEntity
  8
0
100
AcDbLine
 62
7
  6
CONTINUOUS
 10
-13.2529329723
 20
-2.5635767582
 11
-13.2175162381
 21
-2.3465555074
  0
LINE
  5
2A7
100
AcDbEntity
  8
ASSI
100
AcDbLine
 62
7
  6
CONTINUOUS
 10
-13.2529329723
 20
-2.5635767582
 11
-13.2175162381
 21
-2.3465555074
  0
LINE
  5
2A8
100
AcDbEntity
  8
DRAFT
100
AcDbLine
 62
7
  6
CONTINUOUS
 10
-23.9338420201
 20
-4.1533639027
 11
-23.9208945403
 21
-4.1404164228
  0
LINE
  5
2A9
100
AcDbEntity
  8
ASSI
100
AcDbLine
 62
7
  6
CONTINUOUS
 10
-23.9338420201
 20
-4.1533639027
 11
-23.9208945403
 21
-4.1404164228
  0
LINE
  5
2AA
100
AcDbEntity
  8
RACCORDO
100
AcDbLine
 62
7
  6
CONTINUOUS
 10
-23.8664009807
 20
-6.095270084
 11
-23.9139125143
 21
-6.1427816176
  0
LINE
  5
2AB
100
AcDbEntity
  8
ASSI
100
AcDbLine
 62
7
  6
CONTINUOUS
 10
-23.8664009807
 20
-6.095270084
 11
-23.9139125143
 21
-6.1427816176
  0
LINE
  5
2AC
100
AcDbEntity
  8
0
100
AcDbLine
 62
7
  6
CONTINUOUS
 10
-13.2175162381
 20
-3.3954916413
 11
-13.3237662887
 21
-3.2508107948
  0
LINE
  5
2AD
100
AcDbEntity
  8
ASSI
100
AcDbLine
 62
7
  6
CONTINUOUS
 10
-13.2175162381
 20
-3.3954916413
 11
-13.3237662887
 21
-3.2508107948
  0
LINE
  5
2AE
100
AcDbEntity
  8
0
100
AcDbLine
 62
7
  6
CONTINUOUS
 10
-13.1112662381
 20
-3.2508107948
 11
-13.1820996052
 21
-3.1423001441
  0
LINE
  5
2AF
100
AcDbEntity
  8
ASSI
100
AcDbLine
 62
7
  6
CONTINUOUS
 10
-13.1112662381
 20
-3.2508107948
 11
-13.1820996052
 21
-3.1423001441
  0
LINE
  5
2B0
100
AcDbEntity
  8
0
100
AcDbLine
 62
7
  6
CONTINUOUS
 10
-13.3237662887
 20
-3.2508107948
 11
-13.3945996052
 21
-3.0699597272
  0
LINE
  5
2B1
100
AcDbEntity
  8
ASSI
100
AcDbLine
 62
7
  6
CONTINUOUS
 10
-13.3237662887
 20
-3.2508107948
 11
-13.3945996052
 21
-3.0699597272
  0
LINE
  5
2B2
100
AcDbEntity
  8
0
100
AcDbLine
 62
7
  6
CONTINUOUS
 10
-12.1550163394
 20
-2.8891086342
 11
-12.2258496052
 21
-2.708257592
  0
LINE
  5
2B3
100
AcDbEntity
  8
ASSI
100
AcDbLine
 62
7
  6
CONTINUOUS
 10
-12.1550163394
 20
-2.8891086342
 11
-12.2258496052
 21
-2.708257592
  0
LINE
  5
2B4
100
AcDbEntity
  8
0
100
AcDbLine
 62
7
  6
CONTINUOUS
 10
-13.1820996052
 20
-3.1423001441
 11
-13.2175162381
 21
-3.0337895187
  0
LINE
  5
2B5
100
AcDbEntity
  8
ASSI
100
AcDbLine
 62
7
  6
CONTINUOUS
 10
-13.1820996052
 20
-3.1423001441
 11
-13.2175162381
 21
-3.0337895187
  0
LINE
  5
2B6
100
AcDbEntity
  8
0
100
AcDbLine
 62
7
  6
CONTINUOUS
 10
-12.3320996052
 20
-2.9252788934
 11
-12.3675163394
 21
-2.8167682173
  0
LINE
  5
2B7
100
AcDbEntity
  8
ASSI
100
AcDbLine
 62
7
  6
CONTINUOUS
 10
-12.3320996052
 20
-2.9252788934
 11
-12.3675163394
 21
-2.8167682173
  0
LINE
  5
2B8
100
AcDbEntity
  8
0
100
AcDbLine
 62
7
  6
CONTINUOUS
 10
-13.3945996052
 20
-3.0699597272
 11
-13.4300162887
 21
-2.8167682173
  0
LINE
  5
2B9
100
AcDbEntity
  8
ASSI
100
AcDbLine
 62
7
  6
CONTINUOUS
 10
-13.3945996052
 20
-3.0699597272
 11
-13.4300162887
 21
-2.8167682173
  0
LINE
  5
2BA
100
AcDbEntity
  8
0
100
AcDbLine
 62
7
  6
CONTINUOUS
 10
-12.3320996052
 20
-3.0337895187
 11
-12.3320996052
 21
-2.9252788934
  0
LINE
  5
2BB
100
AcDbEntity
  8
ASSI
100
AcDbLine
 62
7
  6
CONTINUOUS
 10
-12.3320996052
 20
-3.0337895187
 11
-12.3320996052
 21
-2.9252788934
  0
LINE
  5
2BC
100
AcDbEntity
  8
0
100
AcDbLine
 62
7
  6
CONTINUOUS
 10
-12.1550163394
 20
-3.0699597272
 11
-12.1550163394
 21
-2.8891086342
  0
LINE
  5
2BD
100
AcDbEntity
  8
ASSI
100
AcDbLine
 62
7
  6
CONTINUOUS
 10
-12.1550163394
 20
-3.0699597272
 11
-12.1550163394
 21
-2.8891086342
  0
LINE
  5
2BE
100
AcDbEntity
  8
0
100
AcDbLine
 62
7
  6
CONTINUOUS
 10
-11.871682871
 20
-3.1061299356
 11
-11.871682871
 21
-2.9976193103
  0
LINE
  5
2BF
100
AcDbEntity
  8
ASSI
100
AcDbLine
 62
7
  6
CONTINUOUS
 10
-11.871682871
 20
-3.1061299356
 11
-11.871682871
 21
-2.9976193103
  0
LINE
  5
2C0
100
AcDbEntity
  8
0
100
AcDbLine
 62
7
  6
CONTINUOUS
 10
-11.8362663394
 20
-2.3827257159
 11
-11.8362663394
 21
-2.2742150905
  0
LINE
  5
2C1
100
AcDbEntity
  8
ASSI
100
AcDbLine
 62
7
  6
CONTINUOUS
 10
-11.8362663394
 20
-2.3827257159
 11
-11.8362663394
 21
-2.2742150905
  0
LINE
  5
2C2
100
AcDbEntity
  8
0
100
AcDbLine
 62
7
  6
CONTINUOUS
 10
-11.6945996052
 20
-3.1061299356
 11
-11.6945996052
 21
-2.9976193103
  0
LINE
  5
2C3
100
AcDbEntity
  8
ASSI
100
AcDbLine
 62
7
  6
CONTINUOUS
 10
-11.6945996052
 20
-3.1061299356
 11
-11.6945996052
 21
-2.9976193103
  0
LINE
  5
2C4
100
AcDbEntity
  8
0
100
AcDbLine
 62
7
  6
CONTINUOUS
 10
-11.659182871
 20
-2.3465555074
 11
-11.659182871
 21
-2.2742150905
  0
LINE
  5
2C5
100
AcDbEntity
  8
ASSI
100
AcDbLine
 62
7
  6
CONTINUOUS
 10
-11.659182871
 20
-2.3465555074
 11
-11.659182871
 21
-2.2742150905
  0
LINE
  5
2C6
100
AcDbEntity
  8
0
100
AcDbLine
 62
7
  6
CONTINUOUS
 10
-10.809182871
 20
-2.3465555074
 11
-10.809182871
 21
-2.2742150905
  0
LINE
  5
2C7
100
AcDbEntity
  8
ASSI
100
AcDbLine
 62
7
  6
CONTINUOUS
 10
-10.809182871
 20
-2.3465555074
 11
-10.809182871
 21
-2.2742150905
  0
LINE
  5
2C8
100
AcDbEntity
  8
0
100
AcDbLine
 62
7
  6
CONTINUOUS
 10
-10.7737663394
 20
-3.1061299356
 11
-10.7737663394
 21
-2.9976193103
  0
LINE
  5
2C9
100
AcDbEntity
  8
ASSI
100
AcDbLine
 62
7
  6
CONTINUOUS
 10
-10.7737663394
 20
-3.1061299356
 11
-10.7737663394
 21
-2.9976193103
  0
LINE
  5
2CA
100
AcDbEntity
  8
0
100
AcDbLine
 62
7
  6
CONTINUOUS
 10
-10.6320996052
 20
-2.3827257159
 11
-10.6320996052
 21
-2.2742150905
  0
LINE
  5
2CB
100
AcDbEntity
  8
ASSI
100
AcDbLine
 62
7
  6
CONTINUOUS
 10
-10.6320996052
 20
-2.3827257159
 11
-10.6320996052
 21
-2.2742150905
  0
LINE
  5
2CC
100
AcDbEntity
  8
0
100
AcDbLine
 62
7
  6
CONTINUOUS
 10
-10.5966830736
 20
-3.1061299356
 11
-10.5966830736
 21
-2.9976193103
  0
LINE
  5
2CD
100
AcDbEntity
  8
ASSI
100
AcDbLine
 62
7
  6
CONTINUOUS
 10
-10.5966830736
 20
-3.1061299356
 11
-10.5966830736
 21
-2.9976193103
  0
LINE
  5
2CE
100
AcDbEntity
  8
0
100
AcDbLine
 62
7
  6
CONTINUOUS
 10
-13.2175162381
 20
-2.3465555074
 11
-13.1820996052
 21
-2.2380447807
  0
LINE
  5
2CF
100
AcDbEntity
  8
ASSI
100
AcDbLine
 62
7
  6
CONTINUOUS
 10
-13.2175162381
 20
-2.3465555074
 11
-13.1820996052
 21
-2.2380447807
  0
LINE
  5
2D0
100
AcDbEntity
  8
0
100
AcDbLine
 62
7
  6
CONTINUOUS
 10
-13.2175162381
 20
-2.9252788934
 11
-13.1820996052
 21
-2.8167682173
  0
LINE
  5
2D1
100
AcDbEntity
  8
ASSI
100
AcDbLine
 62
7
  6
CONTINUOUS
 10
-13.2175162381
 20
-2.9252788934
 11
-13.1820996052
 21
-2.8167682173
  0
LINE
  5
2D2
100
AcDbEntity
  8
0
100
AcDbLine
 62
7
  6
CONTINUOUS
 10
-12.3675163394
 20
-3.1423001441
 11
-12.3320996052
 21
-3.0337895187
  0
LINE
  5
2D3
100
AcDbEntity
  8
ASSI
100
AcDbLine
 62
7
  6
CONTINUOUS
 10
-12.3675163394
 20
-3.1423001441
 11
-12.3320996052
 21
-3.0337895187
  0
LINE
  5
2D4
100
AcDbEntity
  8
0
100
AcDbLine
 62
7
  6
CONTINUOUS
 10
-13.3945996052
 20
-2.310385299
 11
-13.3237662887
 21
-2.1295341554
  0
LINE
  5
2D5
100
AcDbEntity
  8
ASSI
100
AcDbLine
 62
7
  6
CONTINUOUS
 10
-13.3945996052
 20
-2.310385299
 11
-13.3237662887
 21
-2.1295341554
  0
LINE
  5
2D6
100
AcDbEntity
  8
RACCORDO
100
AcDbLine
 62
7
  6
CONTINUOUS
 10
-22.6181146054
 20
-6.137636488
 11
-22.5705962789
 21
-6.0901181614
  0
LINE
  5
2D7
100
AcDbEntity
  8
ASSI
100
AcDbLine
 62
7
  6
CONTINUOUS
 10
-22.6181146054
 20
-6.137636488
 11
-22.5705962789
 21
-6.0901181614
  0
LINE
  5
2D8
100
AcDbEntity
  8
RACCORDO
100
AcDbLine
 62
253
  6
CONTINUOUS
 10
-19.7971837626
 20
3.1010083612
 11
-19.7664347891
 21
3.0702593876
  0
LINE
  5
2D9
100
AcDbEntity
  8
ASSI
100
AcDbLine
 62
253
  6
CONTINUOUS
 10
-19.7971837626
 20
3.1010083612
 11
-19.7664347891
 21
3.0702593876
  0
LINE
  5
2DA
100
AcDbEntity
  8
RACCORDO
100
AcDbLine
 62
253
  6
CONTINUOUS
 10
-19.4972294541
 20
3.4009626697
 11
-19.4664042244
 21
3.37013744
  0
LINE
  5
2DB
100
AcDbEntity
  8
ASSI
100
AcDbLine
 62
253
  6
CONTINUOUS
 10
-19.4972294541
 20
3.4009626697
 11
-19.4664042244
 21
3.37013744
  0
LINE
  5
2DC
100
AcDbEntity
  8
RACCORDO
100
AcDbLine
 62
7
  6
CONTINUOUS
 10
-23.9313675792
 20
8.044493707
 11
-23.8614965265
 21
7.9746226543
  0
LINE
  5
2DD
100
AcDbEntity
  8
ASSI
100
AcDbLine
 62
7
  6
CONTINUOUS
 10
-23.9313675792
 20
8.044493707
 11
-23.8614965265
 21
7.9746226543
  0
LINE
  5
2DE
100
AcDbEntity
  8
0
100
AcDbLine
 62
7
  6
CONTINUOUS
 10
-12.3675163394
 20
-2.8167682173
 11
-12.4383496052
 21
-2.7444278004
  0
LINE
  5
2DF
100
AcDbEntity
  8
ASSI
100
AcDbLine
 62
7
  6
CONTINUOUS
 10
-12.3675163394
 20
-2.8167682173
 11
-12.4383496052
 21
-2.7444278004
  0
LINE
  5
2E0
100
AcDbEntity
  8
0
100
AcDbLine
 62
7
  6
CONTINUOUS
 10
-11.6945996052
 20
-3.3954916413
 11
-11.8008496052
 21
-3.2869810032
  0
LINE
  5
2E1
100
AcDbEntity
  8
ASSI
100
AcDbLine
 62
7
  6
CONTINUOUS
 10
-11.6945996052
 20
-3.3954916413
 11
-11.8008496052
 21
-3.2869810032
  0
LINE
  5
2E2
100
AcDbEntity
  8
0
100
AcDbLine
 62
7
  6
CONTINUOUS
 10
-12.2258496052
 20
-2.708257592
 11
-12.3320996052
 21
-2.5997469666
  0
LINE
  5
2E3
100
AcDbEntity
  8
ASSI
100
AcDbLine
 62
7
  6
CONTINUOUS
 10
-12.2258496052
 20
-2.708257592
 11
-12.3320996052
 21
-2.5997469666
  0
LINE
  5
2E4
100
AcDbEntity
  8
0
100
AcDbLine
 62
7
  6
CONTINUOUS
 10
-11.5883496052
 20
-3.2508107948
 11
-11.6945996052
 21
-3.1061299356
  0
LINE
  5
2E5
100
AcDbEntity
  8
ASSI
100
AcDbLine
 62
7
  6
CONTINUOUS
 10
-11.5883496052
 20
-3.2508107948
 11
-11.6945996052
 21
-3.1061299356
  0
LINE
  5
2E6
100
AcDbEntity
  8
0
100
AcDbLine
 62
7
  6
CONTINUOUS
 10
-12.2612663394
 20
-2.1295341554
 11
-12.3675163394
 21
-1.9848533216
  0
LINE
  5
2E7
100
AcDbEntity
  8
ASSI
100
AcDbLine
 62
7
  6
CONTINUOUS
 10
-12.2612663394
 20
-2.1295341554
 11
-12.3675163394
 21
-1.9848533216
  0
LINE
  5
2E8
100
AcDbEntity
  8
0
100
AcDbLine
 62
7
  6
CONTINUOUS
 10
-12.402932871
 20
-2.2380447807
 11
-12.4737662381
 21
-2.1295341554
  0
LINE
  5
2E9
100
AcDbEntity
  8
ASSI
100
AcDbLine
 62
7
  6
CONTINUOUS
 10
-12.402932871
 20
-2.2380447807
 11
-12.4737662381
 21
-2.1295341554
  0
LINE
  5
2EA
100
AcDbEntity
  8
0
100
AcDbLine
 62
7
  6
CONTINUOUS
 10
-11.5883496052
 20
-2.4550661328
 11
-11.659182871
 21
-2.3465555074
  0
LINE
  5
2EB
100
AcDbEntity
  8
ASSI
100
AcDbLine
 62
7
  6
CONTINUOUS
 10
-11.5883496052
 20
-2.4550661328
 11
-11.659182871
 21
-2.3465555074
  0
LINE
  5
2EC
100
AcDbEntity
  8
0
100
AcDbLine
 62
7
  6
CONTINUOUS
 10
-11.765432871
 20
-2.5274065497
 11
-11.8362663394
 21
-2.3827257159
  0
LINE
  5
2ED
100
AcDbEntity
  8
ASSI
100
AcDbLine
 62
7
  6
CONTINUOUS
 10
-11.765432871
 20
-2.5274065497
 11
-11.8362663394
 21
-2.3827257159
  0
LINE
  5
2EE
100
AcDbEntity
  8
0
100
AcDbLine
 62
7
  6
CONTINUOUS
 10
-11.8008496052
 20
-3.2869810032
 11
-11.871682871
 21
-3.1061299356
  0
LINE
  5
2EF
100
AcDbEntity
  8
ASSI
100
AcDbLine
 62
7
  6
CONTINUOUS
 10
-11.8008496052
 20
-3.2869810032
 11
-11.871682871
 21
-3.1061299356
  0
LINE
  5
2F0
100
AcDbEntity
  8
0
100
AcDbLine
 62
7
  6
CONTINUOUS
 10
-10.5966830736
 20
-2.9976193103
 11
-10.6675161368
 21
-2.8167682173
  0
LINE
  5
2F1
100
AcDbEntity
  8
ASSI
100
AcDbLine
 62
7
  6
CONTINUOUS
 10
-10.5966830736
 20
-2.9976193103
 11
-10.6675161368
 21
-2.8167682173
  0
LINE
  5
2F2
100
AcDbEntity
  8
0
100
AcDbLine
 62
7
  6
CONTINUOUS
 10
-10.6320996052
 20
-2.2742150905
 11
-10.7029330736
 21
-2.0933639469
  0
LINE
  5
2F3
100
AcDbEntity
  8
ASSI
100
AcDbLine
 62
7
  6
CONTINUOUS
 10
-10.6320996052
 20
-2.2742150905
 11
-10.7029330736
 21
-2.0933639469
  0
LINE
  5
2F4
100
AcDbEntity
  8
0
100
AcDbLine
 62
7
  6
CONTINUOUS
 10
-12.2258496052
 20
-2.2380447807
 11
-12.2612663394
 21
-2.1295341554
  0
LINE
  5
2F5
100
AcDbEntity
  8
ASSI
100
AcDbLine
 62
7
  6
CONTINUOUS
 10
-12.2258496052
 20
-2.2380447807
 11
-12.2612663394
 21
-2.1295341554
  0
LINE
  5
2F6
100
AcDbEntity
  8
0
100
AcDbLine
 62
7
  6
CONTINUOUS
 10
-10.3133496052
 20
-3.0337895187
 11
-10.3133496052
 21
-2.8167682173
  0
LINE
  5
2F7
100
AcDbEntity
  8
ASSI
100
AcDbLine
 62
7
  6
CONTINUOUS
 10
-10.3133496052
 20
-3.0337895187
 11
-10.3133496052
 21
-2.8167682173
  0
LINE
  5
2F8
100
AcDbEntity
  8
0
100
AcDbLine
 62
7
  6
CONTINUOUS
 10
-9.4633496052
 20
-3.5401724877
 11
-9.4633496052
 21
-3.0337895187
  0
LINE
  5
2F9
100
AcDbEntity
  8
ASSI
100
AcDbLine
 62
7
  6
CONTINUOUS
 10
-9.4633496052
 20
-3.5401724877
 11
-9.4633496052
 21
-3.0337895187
  0
LINE
  5
2FA
100
AcDbEntity
  8
0
100
AcDbLine
 62
7
  6
CONTINUOUS
 10
-9.4633496052
 20
-2.8167682173
 11
-9.4633496052
 21
-2.1295341554
  0
LINE
  5
2FB
100
AcDbEntity
  8
ASSI
100
AcDbLine
 62
7
  6
CONTINUOUS
 10
-9.4633496052
 20
-2.8167682173
 11
-9.4633496052
 21
-2.1295341554
  0
LINE
  5
2FC
100
AcDbEntity
  8
0
100
AcDbLine
 62
7
  6
CONTINUOUS
 10
-9.2508496052
 20
-3.5401724877
 11
-9.2508496052
 21
-3.0337895187
  0
LINE
  5
2FD
100
AcDbEntity
  8
ASSI
100
AcDbLine
 62
7
  6
CONTINUOUS
 10
-9.2508496052
 20
-3.5401724877
 11
-9.2508496052
 21
-3.0337895187
  0
LINE
  5
2FE
100
AcDbEntity
  8
0
100
AcDbLine
 62
7
  6
CONTINUOUS
 10
-9.2508496052
 20
-2.8167682173
 11
-9.2508496052
 21
-1.8401724877
  0
LINE
  5
2FF
100
AcDbEntity
  8
ASSI
100
AcDbLine
 62
7
  6
CONTINUOUS
 10
-9.2508496052
 20
-2.8167682173
 11
-9.2508496052
 21
-1.8401724877
  0
LINE
  5
300
100
AcDbEntity
  8
0
100
AcDbLine
 62
7
  6
CONTINUOUS
 10
-8.8966830736
 20
-3.0337895187
 11
-8.8966830736
 21
-2.8167682173
  0
LINE
  5
301
100
AcDbEntity
  8
ASSI
100
AcDbLine
 62
7
  6
CONTINUOUS
 10
-8.8966830736
 20
-3.0337895187
 11
-8.8966830736
 21
-2.8167682173
  0
LINE
  5
302
100
AcDbEntity
  8
0
100
AcDbLine
 62
7
  6
CONTINUOUS
 10
-12.2258496052
 20
-3.2508107948
 11
-12.1550163394
 21
-3.0699597272
  0
LINE
  5
303
100
AcDbEntity
  8
ASSI
100
AcDbLine
 62
7
  6
CONTINUOUS
 10
-12.2258496052
 20
-3.2508107948
 11
-12.1550163394
 21
-3.0699597272
  0
LINE
  5
304
100
AcDbEntity
  8
0
100
AcDbLine
 62
7
  6
CONTINUOUS
 10
-11.8362663394
 20
-2.2742150905
 11
-11.765432871
 21
-2.0933639469
  0
LINE
  5
305
100
AcDbEntity
  8
ASSI
100
AcDbLine
 62
7
  6
CONTINUOUS
 10
-11.8362663394
 20
-2.2742150905
 11
-11.765432871
 21
-2.0933639469
  0
LINE
  5
306
100
AcDbEntity
  8
0
100
AcDbLine
 62
7
  6
CONTINUOUS
 10
-11.871682871
 20
-2.9976193103
 11
-11.8008496052
 21
-2.8167682173
  0
LINE
  5
307
100
AcDbEntity
  8
ASSI
100
AcDbLine
 62
7
  6
CONTINUOUS
 10
-11.871682871
 20
-2.9976193103
 11
-11.8008496052
 21
-2.8167682173
  0
LINE
  5
308
100
AcDbEntity
  8
0
100
AcDbLine
 62
7
  6
CONTINUOUS
 10
-13.1820996052
 20
-2.2380447807
 11
-13.1112662381
 21
-2.1295341554
  0
LINE
  5
309
100
AcDbEntity
  8
ASSI
100
AcDbLine
 62
7
  6
CONTINUOUS
 10
-13.1820996052
 20
-2.2380447807
 11
-13.1112662381
 21
-2.1295341554
  0
LINE
  5
30A
100
AcDbEntity
  8
0
100
AcDbLine
 62
7
  6
CONTINUOUS
 10
-13.3237662887
 20
-2.1295341554
 11
-13.2175162381
 21
-1.9848533216
  0
LINE
  5
30B
100
AcDbEntity
  8
ASSI
100
AcDbLine
 62
7
  6
CONTINUOUS
 10
-13.3237662887
 20
-2.1295341554
 11
-13.2175162381
 21
-1.9848533216
  0
LINE
  5
30C
100
AcDbEntity
  8
0
100
AcDbLine
 62
7
  6
CONTINUOUS
 10
-14.1383496052
 20
-2.0933639469
 11
-13.9258496052
 21
-1.8401724877
  0
LINE
  5
30D
100
AcDbEntity
  8
ASSI
100
AcDbLine
 62
7
  6
CONTINUOUS
 10
-14.1383496052
 20
-2.0933639469
 11
-13.9258496052
 21
-1.8401724877
  0
LINE
  5
30E
100
AcDbEntity
  8
0
100
AcDbLine
 62
7
  6
CONTINUOUS
 10
-14.1383496052
 20
-2.3827257159
 11
-13.9258496052
 21
-2.1295341554
  0
LINE
  5
30F
100
AcDbEntity
  8
ASSI
100
AcDbLine
 62
7
  6
CONTINUOUS
 10
-14.1383496052
 20
-2.3827257159
 11
-13.9258496052
 21
-2.1295341554
  0
LINE
  5
310
100
AcDbEntity
  8
RACCORDO
100
AcDbLine
 62
7
  6
CONTINUOUS
 10
24.2976991379
 20
-9.3008963913
 11
23.4476991394
 21
-9.3008963913
  0
LINE
  5
311
100
AcDbEntity
  8
RACCORDO
100
AcDbLine
 62
7
  6
CONTINUOUS
 10
-23.9243983498
 20
-9.3008963913
 11
-24.7743983483
 21
-9.3008963913
  0
LINE
  5
312
100
AcDbEntity
  8
DRAFT
100
AcDbLine
 62
7
  6
CONTINUOUS
 10
-23.9243951506
 20
-9.3008947918
 11
23.4476959403
 21
-9.3008947918
  0
LINE
  5
313
100
AcDbEntity
  8
ASSI
100
AcDbLine
 62
7
  6
CONTINUOUS
 10
-24.7743983483
 20
-9.3008963913
 11
24.2976991379
 21
-9.3008963913
  0
LINE
  5
314
100
AcDbEntity
  8
0
100
AcDbLine
 62
7
  6
CONTINUOUS
 10
-13.0404329723
 20
-3.5040022761
 11
-13.2175162381
 21
-3.3954916413
  0
LINE
  5
315
100
AcDbEntity
  8
ASSI
100
AcDbLine
 62
7
  6
CONTINUOUS
 10
-13.0404329723
 20
-3.5040022761
 11
-13.2175162381
 21
-3.3954916413
  0
LINE
  5
316
100
AcDbEntity
  8
0
100
AcDbLine
 62
7
  6
CONTINUOUS
 10
-11.5175163394
 20
-3.5040022761
 11
-11.6945996052
 21
-3.3954916413
  0
LINE
  5
317
100
AcDbEntity
  8
ASSI
100
AcDbLine
 62
7
  6
CONTINUOUS
 10
-11.5175163394
 20
-3.5040022761
 11
-11.6945996052
 21
-3.3954916413
  0
LINE
  5
318
100
AcDbEntity
  8
0
100
AcDbLine
 62
7
  6
CONTINUOUS
 10
-13.0050162381
 20
-3.3231512117
 11
-13.1112662381
 21
-3.2508107948
  0
LINE
  5
319
100
AcDbEntity
  8
ASSI
100
AcDbLine
 62
7
  6
CONTINUOUS
 10
-13.0050162381
 20
-3.3231512117
 11
-13.1112662381
 21
-3.2508107948
  0
LINE
  5
31A
100
AcDbEntity
  8
0
100
AcDbLine
 62
7
  6
CONTINUOUS
 10
-12.4383496052
 20
-2.7444278004
 11
-12.5445996052
 21
-2.6720873835
  0
LINE
  5
31B
100
AcDbEntity
  8
ASSI
100
AcDbLine
 62
7
  6
CONTINUOUS
 10
-12.4383496052
 20
-2.7444278004
 11
-12.5445996052
 21
-2.6720873835
  0
LINE
  5
31C
100
AcDbEntity
  8
0
100
AcDbLine
 62
7
  6
CONTINUOUS
 10
-12.4737662381
 20
-2.1295341554
 11
-12.5800162381
 21
-2.0571937385
  0
LINE
  5
31D
100
AcDbEntity
  8
ASSI
100
AcDbLine
 62
7
  6
CONTINUOUS
 10
-12.4737662381
 20
-2.1295341554
 11
-12.5800162381
 21
-2.0571937385
  0
LINE
  5
31E
100
AcDbEntity
  8
0
100
AcDbLine
 62
7
  6
CONTINUOUS
 10
-11.446682871
 20
-2.5635767582
 11
-11.5883496052
 21
-2.4550661328
  0
LINE
  5
31F
100
AcDbEntity
  8
ASSI
100
AcDbLine
 62
7
  6
CONTINUOUS
 10
-11.446682871
 20
-2.5635767582
 11
-11.5883496052
 21
-2.4550661328
  0
LINE
  5
320
100
AcDbEntity
  8
RACCORDO
100
AcDbLine
 62
253
  6
CONTINUOUS
 10
-7.5434947348
 20
-6.6026806667
 11
-7.5732450327
 21
-6.5729303688
  0
LINE
  5
321
100
AcDbEntity
  8
ASSI
100
AcDbLine
 62
253
  6
CONTINUOUS
 10
-7.5434947348
 20
-6.6026806667
 11
-7.5732450327
 21
-6.5729303688
  0
LINE
  5
322
100
AcDbEntity
  8
RACCORDO
100
AcDbLine
 62
253
  6
CONTINUOUS
 10
-7.2435404263
 20
-6.3027263581
 11
-7.2734864161
 21
-6.2727803683
  0
LINE
  5
323
100
AcDbEntity
  8
ASSI
100
AcDbLine
 62
253
  6
CONTINUOUS
 10
-7.2435404263
 20
-6.3027263581
 11
-7.2734864161
 21
-6.2727803683
  0
LINE
  5
324
100
AcDbEntity
  8
0
100
AcDbLine
 62
7
  6
CONTINUOUS
 10
-11.659182871
 20
-2.6359171751
 11
-11.765432871
 21
-2.5274065497
  0
LINE
  5
325
100
AcDbEntity
  8
ASSI
100
AcDbLine
 62
7
  6
CONTINUOUS
 10
-11.659182871
 20
-2.6359171751
 11
-11.765432871
 21
-2.5274065497
  0
LINE
  5
326
100
AcDbEntity
  8
0
100
AcDbLine
 62
7
  6
CONTINUOUS
 10
-10.7029330736
 20
-2.0933639469
 11
-10.809182871
 21
-1.9848533216
  0
LINE
  5
327
100
AcDbEntity
  8
ASSI
100
AcDbLine
 62
7
  6
CONTINUOUS
 10
-10.7029330736
 20
-2.0933639469
 11
-10.809182871
 21
-1.9848533216
  0
LINE
  5
328
100
AcDbEntity
  8
0
100
AcDbLine
 62
7
  6
CONTINUOUS
 10
-10.7737663394
 20
-2.9976193103
 11
-10.8800163394
 21
-2.8529384258
  0
LINE
  5
329
100
AcDbEntity
  8
ASSI
100
AcDbLine
 62
7
  6
CONTINUOUS
 10
-10.7737663394
 20
-2.9976193103
 11
-10.8800163394
 21
-2.8529384258
  0
LINE
  5
32A
100
AcDbEntity
  8
0
100
AcDbLine
 62
7
  6
CONTINUOUS
 10
-10.809182871
 20
-2.2742150905
 11
-10.8800163394
 21
-2.1657043638
  0
LINE
  5
32B
100
AcDbEntity
  8
ASSI
100
AcDbLine
 62
7
  6
CONTINUOUS
 10
-10.809182871
 20
-2.2742150905
 11
-10.8800163394
 21
-2.1657043638
  0
LINE
  5
32C
100
AcDbEntity
  8
RACCORDO
100
AcDbLine
 62
7
  6
CONTINUOUS
 10
-7.5683996991
 20
-7.6311277187
 11
-7.5434947348
 21
-7.8827118389
  0
LINE
  5
32D
100
AcDbEntity
  8
ASSI
100
AcDbLine
 62
7
  6
CONTINUOUS
 10
-7.5683996991
 20
-7.6311277187
 11
-7.5434947348
 21
-7.8827118389
  0
LINE
  5
32E
100
AcDbEntity
  8
0
100
AcDbLine
 62
7
  6
CONTINUOUS
 10
-8.6133496052
 20
-3.5401724877
 11
-8.6133496052
 21
-3.3593214201
  0
LINE
  5
32F
100
AcDbEntity
  8
ASSI
100
AcDbLine
 62
7
  6
CONTINUOUS
 10
-8.6133496052
 20
-3.5401724877
 11
-8.6133496052
 21
-3.3593214201
  0
LINE
  5
330
100
AcDbEntity
  8
0
100
AcDbLine
 62
7
  6
CONTINUOUS
 10
-7.5508496052
 20
-2.310385299
 11
-7.5508496052
 21
-2.2380447807
  0
LINE
  5
331
100
AcDbEntity
  8
ASSI
100
AcDbLine
 62
7
  6
CONTINUOUS
 10
-7.5508496052
 20
-2.310385299
 11
-7.5508496052
 21
-2.2380447807
  0
LINE
  5
332
100
AcDbEntity
  8
RACCORDO
100
AcDbLine
 62
253
  6
CONTINUOUS
 10
-7.5434947348
 20
-7.8827118389
 11
-7.5434947348
 21
-6.6026806667
  0
LINE
  5
333
100
AcDbEntity
  8
ASSI
100
AcDbLine
 62
253
  6
CONTINUOUS
 10
-7.5434947348
 20
-7.8827118389
 11
-7.5434947348
 21
-6.6026806667
  0
LINE
  5
334
100
AcDbEntity
  8
0
100
AcDbLine
 62
7
  6
CONTINUOUS
 10
-7.3383496052
 20
-3.5401724877
 11
-7.3383496052
 21
-3.3593214201
  0
LINE
  5
335
100
AcDbEntity
  8
ASSI
100
AcDbLine
 62
7
  6
CONTINUOUS
 10
-7.3383496052
 20
-3.5401724877
 11
-7.3383496052
 21
-3.3593214201
  0
LINE
  5
336
100
AcDbEntity
  8
0
100
AcDbLine
 62
7
  6
CONTINUOUS
 10
-7.3383496052
 20
-2.310385299
 11
-7.3383496052
 21
-2.2380447807
  0
LINE
  5
337
100
AcDbEntity
  8
ASSI
100
AcDbLine
 62
7
  6
CONTINUOUS
 10
-7.3383496052
 20
-2.310385299
 11
-7.3383496052
 21
-2.2380447807
  0
LINE
  5
338
100
AcDbEntity
  8
RACCORDO
100
AcDbLine
 62
253
  6
CONTINUOUS
 10
-7.2435404263
 20
-7.934686734
 11
-7.2435404263
 21
-6.3027263581
  0
LINE
  5
339
100
AcDbEntity
  8
ASSI
100
AcDbLine
 62
253
  6
CONTINUOUS
 10
-7.2435404263
 20
-7.934686734
 11
-7.2435404263
 21
-6.3027263581
  0
LINE
  5
33A
100
AcDbEntity
  8
0
100
AcDbLine
 62
7
  6
CONTINUOUS
 10
-8.5779330736
 20
-2.2380447807
 11
-8.5425161368
 21
-2.0933639469
  0
LINE
  5
33B
100
AcDbEntity
  8
ASSI
100
AcDbLine
 62
7
  6
CONTINUOUS
 10
-8.5779330736
 20
-2.2380447807
 11
-8.5425161368
 21
-2.0933639469
  0
LINE
  5
33C
100
AcDbEntity
  8
0
100
AcDbLine
 62
7
  6
CONTINUOUS
 10
-10.6675161368
 20
-3.2869810032
 11
-10.5966830736
 21
-3.1061299356
  0
LINE
  5
33D
100
AcDbEntity
  8
ASSI
100
AcDbLine
 62
7
  6
CONTINUOUS
 10
-10.6675161368
 20
-3.2869810032
 11
-10.5966830736
 21
-3.1061299356
  0
LINE
  5
33E
100
AcDbEntity
  8
0
100
AcDbLine
 62
7
  6
CONTINUOUS
 10
-10.7029330736
 20
-2.5274065497
 11
-10.6320996052
 21
-2.3827257159
  0
LINE
  5
33F
100
AcDbEntity
  8
ASSI
100
AcDbLine
 62
7
  6
CONTINUOUS
 10
-10.7029330736
 20
-2.5274065497
 11
-10.6320996052
 21
-2.3827257159
  0
LINE
  5
340
100
AcDbEntity
  8
0
100
AcDbLine
 62
7
  6
CONTINUOUS
 10
-12.4383496052
 20
-3.2508107948
 11
-12.3675163394
 21
-3.1423001441
  0
LINE
  5
341
100
AcDbEntity
  8
ASSI
100
AcDbLine
 62
7
  6
CONTINUOUS
 10
-12.4383496052
 20
-3.2508107948
 11
-12.3675163394
 21
-3.1423001441
  0
LINE
  5
342
100
AcDbEntity
  8
0
100
AcDbLine
 62
7
  6
CONTINUOUS
 10
-11.659182871
 20
-2.2742150905
 11
-11.5883496052
 21
-2.1657043638
  0
LINE
  5
343
100
AcDbEntity
  8
ASSI
100
AcDbLine
 62
7
  6
CONTINUOUS
 10
-11.659182871
 20
-2.2742150905
 11
-11.5883496052
 21
-2.1657043638
  0
LINE
  5
344
100
AcDbEntity
  8
0
100
AcDbLine
 62
7
  6
CONTINUOUS
 10
-10.8800163394
 20
-2.4550661328
 11
-10.809182871
 21
-2.3465555074
  0
LINE
  5
345
100
AcDbEntity
  8
ASSI
100
AcDbLine
 62
7
  6
CONTINUOUS
 10
-10.8800163394
 20
-2.4550661328
 11
-10.809182871
 21
-2.3465555074
  0
LINE
  5
346
100
AcDbEntity
  8
0
100
AcDbLine
 62
7
  6
CONTINUOUS
 10
-12.3320996052
 20
-3.3954916413
 11
-12.2258496052
 21
-3.2508107948
  0
LINE
  5
347
100
AcDbEntity
  8
ASSI
100
AcDbLine
 62
7
  6
CONTINUOUS
 10
-12.3320996052
 20
-3.3954916413
 11
-12.2258496052
 21
-3.2508107948
  0
LINE
  5
348
100
AcDbEntity
  8
0
100
AcDbLine
 62
7
  6
CONTINUOUS
 10
-11.6945996052
 20
-2.9976193103
 11
-11.5883496052
 21
-2.8529384258
  0
LINE
  5
349
100
AcDbEntity
  8
ASSI
100
AcDbLine
 62
7
  6
CONTINUOUS
 10
-11.6945996052
 20
-2.9976193103
 11
-11.5883496052
 21
-2.8529384258
  0
LINE
  5
34A
100
AcDbEntity
  8
0
100
AcDbLine
 62
7
  6
CONTINUOUS
 10
-13.1820996052
 20
-2.8167682173
 11
-13.1112662381
 21
-2.7444278004
  0
LINE
  5
34B
100
AcDbEntity
  8
ASSI
100
AcDbLine
 62
7
  6
CONTINUOUS
 10
-13.1820996052
 20
-2.8167682173
 11
-13.1112662381
 21
-2.7444278004
  0
LINE
  5
34C
100
AcDbEntity
  8
RACCORDO
100
AcDbLine
 62
253
  6
CONTINUOUS
 10
-18.2032127943
 20
-6.2727803683
 11
-18.2331587841
 21
-6.3027263581
  0
LINE
  5
34D
100
AcDbEntity
  8
ASSI
100
AcDbLine
 62
253
  6
CONTINUOUS
 10
-18.2032127943
 20
-6.2727803683
 11
-18.2331587841
 21
-6.3027263581
  0
LINE
  5
34E
100
AcDbEntity
  8
RACCORDO
100
AcDbLine
 62
253
  6
CONTINUOUS
 10
-17.9034541777
 20
-6.5729303688
 11
-17.9332044756
 21
-6.6026806667
  0
LINE
  5
34F
100
AcDbEntity
  8
ASSI
100
AcDbLine
 62
253
  6
CONTINUOUS
 10
-17.9034541777
 20
-6.5729303688
 11
-17.9332044756
 21
-6.6026806667
  0
LINE
  5
350
100
AcDbEntity
  8
RACCORDO
100
AcDbLine
 62
7
  6
CONTINUOUS
 10
-23.6252491669
 20
-8.2168099032
 11
23.1485499565
 21
-8.2168099032
  0
LINE
  5
351
100
AcDbEntity
  8
ASSI
100
AcDbLine
 62
7
  6
CONTINUOUS
 10
-23.6252491669
 20
-8.2168099032
 11
23.1485499565
 21
-8.2168099032
  0
LINE
  5
352
100
AcDbEntity
  8
RACCORDO
100
AcDbLine
 62
7
  6
CONTINUOUS
 10
-7.2435404263
 20
-7.934686734
 11
-7.0331587841
 21
-7.934686734
  0
LINE
  5
353
100
AcDbEntity
  8
ASSI
100
AcDbLine
 62
7
  6
CONTINUOUS
 10
-7.2435404263
 20
-7.934686734
 11
-7.0331587841
 21
-7.934686734
  0
LINE
  5
354
100
AcDbEntity
  8
RACCORDO
100
AcDbLine
 62
7
  6
CONTINUOUS
 10
6.7668412159
 20
-7.934686734
 11
6.5564595737
 21
-7.934686734
  0
LINE
  5
355
100
AcDbEntity
  8
ASSI
100
AcDbLine
 62
7
  6
CONTINUOUS
 10
6.7668412159
 20
-7.934686734
 11
6.5564595737
 21
-7.934686734
  0
LINE
  5
356
100
AcDbEntity
  8
RACCORDO
100
AcDbLine
 62
7
  6
CONTINUOUS
 10
17.7564595737
 20
-7.934686734
 11
17.9668412159
 21
-7.934686734
  0
LINE
  5
357
100
AcDbEntity
  8
ASSI
100
AcDbLine
 62
7
  6
CONTINUOUS
 10
17.7564595737
 20
-7.934686734
 11
17.9668412159
 21
-7.934686734
  0
LINE
  5
358
100
AcDbEntity
  8
RACCORDO
100
AcDbLine
 62
7
  6
CONTINUOUS
 10
-18.2331587841
 20
-7.934686734
 11
-18.4435404263
 21
-7.934686734
  0
LINE
  5
359
100
AcDbEntity
  8
ASSI
100
AcDbLine
 62
7
  6
CONTINUOUS
 10
-18.2331587841
 20
-7.934686734
 11
-18.4435404263
 21
-7.934686734
  0
LINE
  5
35A
100
AcDbEntity
  8
RACCORDO
100
AcDbLine
 62
253
  6
CONTINUOUS
 10
23.0905717588
 20
-7.6311277187
 11
18.2917004887
 21
-7.6311277187
  0
LINE
  5
35B
100
AcDbEntity
  8
ASSI
100
AcDbLine
 62
253
  6
CONTINUOUS
 10
23.0905717588
 20
-7.6311277187
 11
18.2917004887
 21
-7.6311277187
  0
LINE
  5
35C
100
AcDbEntity
  8
RACCORDO
100
AcDbLine
 62
253
  6
CONTINUOUS
 10
6.2316003009
 20
-7.6311277187
 11
-6.7082995113
 21
-7.6311277187
  0
LINE
  5
35D
100
AcDbEntity
  8
ASSI
100
AcDbLine
 62
253
  6
CONTINUOUS
 10
6.2316003009
 20
-7.6311277187
 11
-6.7082995113
 21
-7.6311277187
  0
LINE
  5
35E
100
AcDbEntity
  8
RACCORDO
100
AcDbLine
 62
253
  6
CONTINUOUS
 10
-7.5683996991
 20
-7.6311277187
 11
-17.9082995113
 21
-7.6311277187
  0
LINE
  5
35F
100
AcDbEntity
  8
ASSI
100
AcDbLine
 62
253
  6
CONTINUOUS
 10
-7.5683996991
 20
-7.6311277187
 11
-17.9082995113
 21
-7.6311277187
  0
LINE
  5
360
100
AcDbEntity
  8
DRAFT
100
AcDbLine
 62
7
  6
CONTINUOUS
 10
17.4274451403
 20
-7.5891532583
 11
7.0958556493
 21
-7.5891532583
  0
LINE
  5
361
100
AcDbEntity
  8
ASSI
100
AcDbLine
 62
7
  6
CONTINUOUS
 10
17.4274451403
 20
-7.5891532583
 11
7.0958556493
 21
-7.5891532583
  0
LINE
  5
362
100
AcDbEntity
  8
RACCORDO
100
AcDbLine
 62
7
  6
CONTINUOUS
 10
-18.7725548597
 20
-7.5891532583
 11
-23.5631158085
 21
-7.5891532583
  0
LINE
  5
363
100
AcDbEntity
  8
ASSI
100
AcDbLine
 62
7
  6
CONTINUOUS
 10
-18.7725548597
 20
-7.5891532583
 11
-23.5631158085
 21
-7.5891532583
  0
LINE
  5
364
100
AcDbEntity
  8
RACCORDO
100
AcDbLine
 62
253
  6
CONTINUOUS
 10
23.0905717589
 20
-7.3475378826
 11
18.2960236076
 21
-7.3475378826
  0
LINE
  5
365
100
AcDbEntity
  8
ASSI
100
AcDbLine
 62
253
  6
CONTINUOUS
 10
23.0905717589
 20
-7.3475378826
 11
18.2960236076
 21
-7.3475378826
  0
LINE
  5
366
100
AcDbEntity
  8
RACCORDO
100
AcDbLine
 62
253
  6
CONTINUOUS
 10
6.227277182
 20
-7.3475378826
 11
-6.7039763924
 21
-7.3475378826
  0
LINE
  5
367
100
AcDbEntity
  8
ASSI
100
AcDbLine
 62
253
  6
CONTINUOUS
 10
6.227277182
 20
-7.3475378826
 11
-6.7039763924
 21
-7.3475378826
  0
LINE
  5
368
100
AcDbEntity
  8
RACCORDO
100
AcDbLine
 62
253
  6
CONTINUOUS
 10
-7.572722818
 20
-7.3475378826
 11
-17.9039763924
 21
-7.3475378826
  0
LINE
  5
369
100
AcDbEntity
  8
ASSI
100
AcDbLine
 62
253
  6
CONTINUOUS
 10
-7.572722818
 20
-7.3475378826
 11
-17.9039763924
 21
-7.3475378826
  0
LINE
  5
36A
100
AcDbEntity
  8
0
100
AcDbLine
 62
7
  6
CONTINUOUS
 10
-12.8987662381
 20
-3.3593214201
 11
-13.0050162381
 21
-3.3231512117
  0
LINE
  5
36B
100
AcDbEntity
  8
ASSI
100
AcDbLine
 62
7
  6
CONTINUOUS
 10
-12.8987662381
 20
-3.3593214201
 11
-13.0050162381
 21
-3.3231512117
  0
LINE
  5
36C
100
AcDbEntity
  8
0
100
AcDbLine
 62
7
  6
CONTINUOUS
 10
-11.446682871
 20
-3.3231512117
 11
-11.5883496052
 21
-3.2508107948
  0
LINE
  5
36D
100
AcDbEntity
  8
ASSI
100
AcDbLine
 62
7
  6
CONTINUOUS
 10
-11.446682871
 20
-3.3231512117
 11
-11.5883496052
 21
-3.2508107948
  0
LINE
  5
36E
100
AcDbEntity
  8
0
100
AcDbLine
 62
7
  6
CONTINUOUS
 10
-11.5883496052
 20
-2.6720873835
 11
-11.659182871
 21
-2.6359171751
  0
LINE
  5
36F
100
AcDbEntity
  8
ASSI
100
AcDbLine
 62
7
  6
CONTINUOUS
 10
-11.5883496052
 20
-2.6720873835
 11
-11.659182871
 21
-2.6359171751
  0
LINE
  5
370
100
AcDbEntity
  8
0
100
AcDbLine
 62
7
  6
CONTINUOUS
 10
-10.8800163394
 20
-2.8529384258
 11
-11.021682871
 21
-2.7805980089
  0
LINE
  5
371
100
AcDbEntity
  8
ASSI
100
AcDbLine
 62
7
  6
CONTINUOUS
 10
-10.8800163394
 20
-2.8529384258
 11
-11.021682871
 21
-2.7805980089
  0
LINE
  5
372
100
AcDbEntity
  8
0
100
AcDbLine
 62
7
  6
CONTINUOUS
 10
-10.809182871
 20
-2.708257592
 11
-10.8800163394
 21
-2.6720873835
  0
LINE
  5
373
100
AcDbEntity
  8
ASSI
100
AcDbLine
 62
7
  6
CONTINUOUS
 10
-10.809182871
 20
-2.708257592
 11
-10.8800163394
 21
-2.6720873835
  0
LINE
  5
374
100
AcDbEntity
  8
0
100
AcDbLine
 62
7
  6
CONTINUOUS
 10
-12.3320996052
 20
-2.5997469666
 11
-12.5091829723
 21
-2.4912363413
  0
LINE
  5
375
100
AcDbEntity
  8
ASSI
100
AcDbLine
 62
7
  6
CONTINUOUS
 10
-12.3320996052
 20
-2.5997469666
 11
-12.5091829723
 21
-2.4912363413
  0
LINE
  5
376
100
AcDbEntity
  8
0
100
AcDbLine
 62
7
  6
CONTINUOUS
 10
-12.3675163394
 20
-1.9848533216
 11
-12.5445996052
 21
-1.8763426962
  0
LINE
  5
377
100
AcDbEntity
  8
ASSI
100
AcDbLine
 62
7
  6
CONTINUOUS
 10
-12.3675163394
 20
-1.9848533216
 11
-12.5445996052
 21
-1.8763426962
  0
LINE
  5
378
100
AcDbEntity
  8
0
100
AcDbLine
 62
7
  6
CONTINUOUS
 10
-10.809182871
 20
-1.9848533216
 11
-10.9862663394
 21
-1.8763426962
  0
LINE
  5
379
100
AcDbEntity
  8
ASSI
100
AcDbLine
 62
7
  6
CONTINUOUS
 10
-10.809182871
 20
-1.9848533216
 11
-10.9862663394
 21
-1.8763426962
  0
LINE
  5
37A
100
AcDbEntity
  8
0
100
AcDbLine
 62
7
  6
CONTINUOUS
 10
-10.6675161368
 20
-2.8167682173
 11
-10.809182871
 21
-2.708257592
  0
LINE
  5
37B
100
AcDbEntity
  8
ASSI
100
AcDbLine
 62
7
  6
CONTINUOUS
 10
-10.6675161368
 20
-2.8167682173
 11
-10.809182871
 21
-2.708257592
  0
LINE
  5
37C
100
AcDbEntity
  8
0
100
AcDbLine
 62
7
  6
CONTINUOUS
 10
-10.8800163394
 20
-2.1657043638
 11
-11.021682871
 21
-2.0571937385
  0
LINE
  5
37D
100
AcDbEntity
  8
ASSI
100
AcDbLine
 62
7
  6
CONTINUOUS
 10
-10.8800163394
 20
-2.1657043638
 11
-11.021682871
 21
-2.0571937385
  0
LINE
  5
37E
100
AcDbEntity
  8
RACCORDO
100
AcDbLine
 62
7
  6
CONTINUOUS
 10
-19.4832044756
 20
7.9869833826
 11
-19.4656988893
 21
7.9694777963
  0
LINE
  5
37F
100
AcDbEntity
  8
ASSI
100
AcDbLine
 62
7
  6
CONTINUOUS
 10
-19.4832044756
 20
7.9869833826
 11
-19.4656988893
 21
7.9694777963
  0
LINE
  5
380
100
AcDbEntity
  8
0
100
AcDbLine
 62
7
  6
CONTINUOUS
 10
-7.5508496052
 20
-2.2380447807
 11
-7.6216830736
 21
-2.1295341554
  0
LINE
  5
381
100
AcDbEntity
  8
ASSI
100
AcDbLine
 62
7
  6
CONTINUOUS
 10
-7.5508496052
 20
-2.2380447807
 11
-7.6216830736
 21
-2.1295341554
  0
LINE
  5
382
100
AcDbEntity
  8
0
100
AcDbLine
 62
7
  6
CONTINUOUS
 10
-7.3383496052
 20
-2.2380447807
 11
-7.3737661368
 21
-2.0933639469
  0
LINE
  5
383
100
AcDbEntity
  8
ASSI
100
AcDbLine
 62
7
  6
CONTINUOUS
 10
-7.3383496052
 20
-2.2380447807
 11
-7.3737661368
 21
-2.0933639469
  0
LINE
  5
384
100
AcDbEntity
  8
RACCORDO
100
AcDbLine
 62
253
  6
CONTINUOUS
 10
-7.0331587841
 20
-6.3027263581
 11
-7.0331587841
 21
-7.934686734
  0
LINE
  5
385
100
AcDbEntity
  8
ASSI
100
AcDbLine
 62
253
  6
CONTINUOUS
 10
-7.0331587841
 20
-6.3027263581
 11
-7.0331587841
 21
-7.934686734
  0
LINE
  5
386
100
AcDbEntity
  8
RACCORDO
100
AcDbLine
 62
253
  6
CONTINUOUS
 10
-6.7332044756
 20
-6.6026806667
 11
-6.7332044756
 21
-7.8827118389
  0
LINE
  5
387
100
AcDbEntity
  8
ASSI
100
AcDbLine
 62
253
  6
CONTINUOUS
 10
-6.7332044756
 20
-6.6026806667
 11
-6.7332044756
 21
-7.8827118389
  0
LINE
  5
388
100
AcDbEntity
  8
RACCORDO
100
AcDbLine
 62
7
  6
CONTINUOUS
 10
-6.7082995113
 20
-7.6311277187
 11
-6.7332044756
 21
-7.8827118389
  0
LINE
  5
389
100
AcDbEntity
  8
ASSI
100
AcDbLine
 62
7
  6
CONTINUOUS
 10
-6.7082995113
 20
-7.6311277187
 11
-6.7332044756
 21
-7.8827118389
  0
LINE
  5
38A
100
AcDbEntity
  8
0
100
AcDbLine
 62
7
  6
CONTINUOUS
 10
-7.3737661368
 20
-2.4550661328
 11
-7.3383496052
 21
-2.310385299
  0
LINE
  5
38B
100
AcDbEntity
  8
ASSI
100
AcDbLine
 62
7
  6
CONTINUOUS
 10
-7.3737661368
 20
-2.4550661328
 11
-7.3383496052
 21
-2.310385299
  0
LINE
  5
38C
100
AcDbEntity
  8
0
100
AcDbLine
 62
7
  6
CONTINUOUS
 10
-7.6216830736
 20
-2.4550661328
 11
-7.5508496052
 21
-2.310385299
  0
LINE
  5
38D
100
AcDbEntity
  8
ASSI
100
AcDbLine
 62
7
  6
CONTINUOUS
 10
-7.6216830736
 20
-2.4550661328
 11
-7.5508496052
 21
-2.310385299
  0
LINE
  5
38E
100
AcDbEntity
  8
0
100
AcDbLine
 62
7
  6
CONTINUOUS
 10
-8.4008496052
 20
-2.2380447807
 11
-8.3300161368
 21
-2.1295341554
  0
LINE
  5
38F
100
AcDbEntity
  8
ASSI
100
AcDbLine
 62
7
  6
CONTINUOUS
 10
-8.4008496052
 20
-2.2380447807
 11
-8.3300161368
 21
-2.1295341554
  0
LINE
  5
390
100
AcDbEntity
  8
0
100
AcDbLine
 62
7
  6
CONTINUOUS
 10
-10.8800163394
 20
-3.2508107948
 11
-10.7737663394
 21
-3.1061299356
  0
LINE
  5
391
100
AcDbEntity
  8
ASSI
100
AcDbLine
 62
7
  6
CONTINUOUS
 10
-10.8800163394
 20
-3.2508107948
 11
-10.7737663394
 21
-3.1061299356
  0
LINE
  5
392
100
AcDbEntity
  8
0
100
AcDbLine
 62
7
  6
CONTINUOUS
 10
-10.3133496052
 20
-2.8167682173
 11
-9.4633496052
 21
-1.8401724877
  0
LINE
  5
393
100
AcDbEntity
  8
ASSI
100
AcDbLine
 62
7
  6
CONTINUOUS
 10
-10.3133496052
 20
-2.8167682173
 11
-9.4633496052
 21
-1.8401724877
  0
LINE
  5
394
100
AcDbEntity
  8
0
100
AcDbLine
 62
7
  6
CONTINUOUS
 10
-10.0654330736
 20
-2.8167682173
 11
-9.4633496052
 21
-2.1295341554
  0
LINE
  5
395
100
AcDbEntity
  8
ASSI
100
AcDbLine
 62
7
  6
CONTINUOUS
 10
-10.0654330736
 20
-2.8167682173
 11
-9.4633496052
 21
-2.1295341554
  0
LINE
  5
396
100
AcDbEntity
  8
0
100
AcDbLine
 62
7
  6
CONTINUOUS
 10
-11.765432871
 20
-2.0933639469
 11
-11.659182871
 21
-1.9848533216
  0
LINE
  5
397
100
AcDbEntity
  8
ASSI
100
AcDbLine
 62
7
  6
CONTINUOUS
 10
-11.765432871
 20
-2.0933639469
 11
-11.659182871
 21
-1.9848533216
  0
LINE
  5
398
100
AcDbEntity
  8
0
100
AcDbLine
 62
7
  6
CONTINUOUS
 10
-10.809182871
 20
-2.6359171751
 11
-10.7029330736
 21
-2.5274065497
  0
LINE
  5
399
100
AcDbEntity
  8
ASSI
100
AcDbLine
 62
7
  6
CONTINUOUS
 10
-10.809182871
 20
-2.6359171751
 11
-10.7029330736
 21
-2.5274065497
  0
LINE
  5
39A
100
AcDbEntity
  8
0
100
AcDbLine
 62
7
  6
CONTINUOUS
 10
-10.7737663394
 20
-3.3954916413
 11
-10.6675161368
 21
-3.2869810032
  0
LINE
  5
39B
100
AcDbEntity
  8
ASSI
100
AcDbLine
 62
7
  6
CONTINUOUS
 10
-10.7737663394
 20
-3.3954916413
 11
-10.6675161368
 21
-3.2869810032
  0
LINE
  5
39C
100
AcDbEntity
  8
0
100
AcDbLine
 62
7
  6
CONTINUOUS
 10
-11.5883496052
 20
-2.1657043638
 11
-11.446682871
 21
-2.0571937385
  0
LINE
  5
39D
100
AcDbEntity
  8
ASSI
100
AcDbLine
 62
7
  6
CONTINUOUS
 10
-11.5883496052
 20
-2.1657043638
 11
-11.446682871
 21
-2.0571937385
  0
LINE
  5
39E
100
AcDbEntity
  8
0
100
AcDbLine
 62
7
  6
CONTINUOUS
 10
-13.1112662381
 20
-2.1295341554
 11
-13.0050162381
 21
-2.0571937385
  0
LINE
  5
39F
100
AcDbEntity
  8
ASSI
100
AcDbLine
 62
7
  6
CONTINUOUS
 10
-13.1112662381
 20
-2.1295341554
 11
-13.0050162381
 21
-2.0571937385
  0
LINE
  5
3A0
100
AcDbEntity
  8
0
100
AcDbLine
 62
7
  6
CONTINUOUS
 10
-13.2529329723
 20
-2.6359171751
 11
-13.0404329723
 21
-2.4912363413
  0
LINE
  5
3A1
100
AcDbEntity
  8
ASSI
100
AcDbLine
 62
7
  6
CONTINUOUS
 10
-13.2529329723
 20
-2.6359171751
 11
-13.0404329723
 21
-2.4912363413
  0
LINE
  5
3A2
100
AcDbEntity
  8
0
100
AcDbLine
 62
7
  6
CONTINUOUS
 10
-13.2175162381
 20
-1.9848533216
 11
-13.0404329723
 21
-1.8763426962
  0
LINE
  5
3A3
100
AcDbEntity
  8
ASSI
100
AcDbLine
 62
7
  6
CONTINUOUS
 10
-13.2175162381
 20
-1.9848533216
 11
-13.0404329723
 21
-1.8763426962
  0
LINE
  5
3A4
100
AcDbEntity
  8
DRAFT
100
AcDbLine
 62
7
  6
CONTINUOUS
 10
21.6116503948
 20
-4.7799433839
 11
22.4116503948
 21
-4.7659793319
  0
LINE
  5
3A5
100
AcDbEntity
  8
ASSI
100
AcDbLine
 62
7
  6
CONTINUOUS
 10
21.6116503948
 20
-4.7799433839
 11
22.4116503948
 21
-4.7659793319
  0
LINE
  5
3A6
100
AcDbEntity
  8
RACCORDO
100
AcDbLine
 62
7
  6
CONTINUOUS
 10
23.0902171098
 20
-6.8251445359
 11
22.0943773467
 21
-6.8251445359
  0
LINE
  5
3A7
100
AcDbEntity
  8
ASSI
100
AcDbLine
 62
7
  6
CONTINUOUS
 10
23.0902171098
 20
-6.8251445359
 11
22.0943773467
 21
-6.8251445359
  0
LINE
  5
3A8
100
AcDbEntity
  8
RACCORDO
100
AcDbLine
 62
7
  6
CONTINUOUS
 10
-22.571076557
 20
-6.8251445359
 11
-23.5669163202
 21
-6.8251445359
  0
LINE
  5
3A9
100
AcDbEntity
  8
ASSI
100
AcDbLine
 62
7
  6
CONTINUOUS
 10
-22.571076557
 20
-6.8251445359
 11
-23.5669163202
 21
-6.8251445359
  0
LINE
  5
3AA
100
AcDbEntity
  8
RACCORDO
100
AcDbLine
 62
7
  6
CONTINUOUS
 10
-23.9139125143
 20
-6.7729613579
 11
-22.918068914
 21
-6.7729613579
  0
LINE
  5
3AB
100
AcDbEntity
  8
ASSI
100
AcDbLine
 62
7
  6
CONTINUOUS
 10
-23.9139125143
 20
-6.7729613579
 11
-22.918068914
 21
-6.7729613579
  0
LINE
  5
3AC
100
AcDbEntity
  8
RACCORDO
100
AcDbLine
 62
7
  6
CONTINUOUS
 10
22.4413697036
 20
-6.7729613579
 11
23.4372133039
 21
-6.7729613579
  0
LINE
  5
3AD
100
AcDbEntity
  8
ASSI
100
AcDbLine
 62
7
  6
CONTINUOUS
 10
22.4413697036
 20
-6.7729613579
 11
23.4372133039
 21
-6.7729613579
  0
LINE
  5
3AE
100
AcDbEntity
  8
RACCORDO
100
AcDbLine
 62
253
  6
CONTINUOUS
 10
6.2565052652
 20
-6.6026806667
 11
7.0667955244
 21
-6.6026806667
  0
LINE
  5
3AF
100
AcDbEntity
  8
ASSI
100
AcDbLine
 62
253
  6
CONTINUOUS
 10
6.2565052652
 20
-6.6026806667
 11
7.0667955244
 21
-6.6026806667
  0
LINE
  5
3B0
100
AcDbEntity
  8
RACCORDO
100
AcDbLine
 62
253
  6
CONTINUOUS
 10
-6.7332044756
 20
-6.6026806667
 11
-7.5434947348
 21
-6.6026806667
  0
LINE
  5
3B1
100
AcDbEntity
  8
ASSI
100
AcDbLine
 62
253
  6
CONTINUOUS
 10
-6.7332044756
 20
-6.6026806667
 11
-7.5434947348
 21
-6.6026806667
  0
LINE
  5
3B2
100
AcDbEntity
  8
RACCORDO
100
AcDbLine
 62
253
  6
CONTINUOUS
 10
17.4565052652
 20
-6.6026806667
 11
18.2667955244
 21
-6.6026806667
  0
LINE
  5
3B3
100
AcDbEntity
  8
ASSI
100
AcDbLine
 62
253
  6
CONTINUOUS
 10
17.4565052652
 20
-6.6026806667
 11
18.2667955244
 21
-6.6026806667
  0
LINE
  5
3B4
100
AcDbEntity
  8
RACCORDO
100
AcDbLine
 62
253
  6
CONTINUOUS
 10
-17.9332044756
 20
-6.6026806667
 11
-18.7434947348
 21
-6.6026806667
  0
LINE
  5
3B5
100
AcDbEntity
  8
ASSI
100
AcDbLine
 62
253
  6
CONTINUOUS
 10
-17.9332044756
 20
-6.6026806667
 11
-18.7434947348
 21
-6.6026806667
  0
LINE
  5
3B6
100
AcDbEntity
  8
RACCORDO
100
AcDbLine
 62
253
  6
CONTINUOUS
 10
17.9668412159
 20
-6.3027263581
 11
17.7564595737
 21
-6.3027263581
  0
LINE
  5
3B7
100
AcDbEntity
  8
ASSI
100
AcDbLine
 62
253
  6
CONTINUOUS
 10
17.9668412159
 20
-6.3027263581
 11
17.7564595737
 21
-6.3027263581
  0
LINE
  5
3B8
100
AcDbEntity
  8
RACCORDO
100
AcDbLine
 62
253
  6
CONTINUOUS
 10
6.7668412159
 20
-6.3027263581
 11
6.5564595737
 21
-6.3027263581
  0
LINE
  5
3B9
100
AcDbEntity
  8
ASSI
100
AcDbLine
 62
253
  6
CONTINUOUS
 10
6.7668412159
 20
-6.3027263581
 11
6.5564595737
 21
-6.3027263581
  0
LINE
  5
3BA
100
AcDbEntity
  8
RACCORDO
100
AcDbLine
 62
253
  6
CONTINUOUS
 10
-7.0331587841
 20
-6.3027263581
 11
-7.2435404263
 21
-6.3027263581
  0
LINE
  5
3BB
100
AcDbEntity
  8
ASSI
100
AcDbLine
 62
253
  6
CONTINUOUS
 10
-7.0331587841
 20
-6.3027263581
 11
-7.2435404263
 21
-6.3027263581
  0
LINE
  5
3BC
100
AcDbEntity
  8
RACCORDO
100
AcDbLine
 62
253
  6
CONTINUOUS
 10
-18.2331587841
 20
-6.3027263581
 11
-18.4435404263
 21
-6.3027263581
  0
LINE
  5
3BD
100
AcDbEntity
  8
ASSI
100
AcDbLine
 62
253
  6
CONTINUOUS
 10
-18.2331587841
 20
-6.3027263581
 11
-18.4435404263
 21
-6.3027263581
  0
LINE
  5
3BE
100
AcDbEntity
  8
RACCORDO
100
AcDbLine
 62
7
  6
CONTINUOUS
 10
-18.4734864161
 20
-6.2727803683
 11
-18.2032127943
 21
-6.2727803683
  0
LINE
  5
3BF
100
AcDbEntity
  8
ASSI
100
AcDbLine
 62
7
  6
CONTINUOUS
 10
-18.4734864161
 20
-6.2727803683
 11
-18.2032127943
 21
-6.2727803683
  0
LINE
  5
3C0
100
AcDbEntity
  8
RACCORDO
100
AcDbLine
 62
7
  6
CONTINUOUS
 10
-7.2734864161
 20
-6.2727803683
 11
-7.0032127943
 21
-6.2727803683
  0
LINE
  5
3C1
100
AcDbEntity
  8
ASSI
100
AcDbLine
 62
7
  6
CONTINUOUS
 10
-7.2734864161
 20
-6.2727803683
 11
-7.0032127943
 21
-6.2727803683
  0
LINE
  5
3C2
100
AcDbEntity
  8
RACCORDO
100
AcDbLine
 62
7
  6
CONTINUOUS
 10
6.5265135839
 20
-6.2727803683
 11
6.7967872057
 21
-6.2727803683
  0
LINE
  5
3C3
100
AcDbEntity
  8
ASSI
100
AcDbLine
 62
7
  6
CONTINUOUS
 10
6.5265135839
 20
-6.2727803683
 11
6.7967872057
 21
-6.2727803683
  0
LINE
  5
3C4
100
AcDbEntity
  8
RACCORDO
100
AcDbLine
 62
7
  6
CONTINUOUS
 10
17.7265135839
 20
-6.2727803683
 11
17.9967872057
 21
-6.2727803683
  0
LINE
  5
3C5
100
AcDbEntity
  8
ASSI
100
AcDbLine
 62
7
  6
CONTINUOUS
 10
17.7265135839
 20
-6.2727803683
 11
17.9967872057
 21
-6.2727803683
  0
LINE
  5
3C6
100
AcDbEntity
  8
RACCORDO
100
AcDbLine
 62
7
  6
CONTINUOUS
 10
23.4372133039
 20
-6.1427816176
 11
22.4413697036
 21
-6.1427816176
  0
LINE
  5
3C7
100
AcDbEntity
  8
ASSI
100
AcDbLine
 62
7
  6
CONTINUOUS
 10
23.4372133039
 20
-6.1427816176
 11
22.4413697036
 21
-6.1427816176
  0
LINE
  5
3C8
100
AcDbEntity
  8
RACCORDO
100
AcDbLine
 62
7
  6
CONTINUOUS
 10
-22.918068914
 20
-6.1427816176
 11
-23.9139125143
 21
-6.1427816176
  0
LINE
  5
3C9
100
AcDbEntity
  8
ASSI
100
AcDbLine
 62
7
  6
CONTINUOUS
 10
-22.918068914
 20
-6.1427816176
 11
-23.9139125143
 21
-6.1427816176
  0
LINE
  5
3CA
100
AcDbEntity
  8
RACCORDO
100
AcDbLine
 62
7
  6
CONTINUOUS
 10
-23.5664363823
 20
-6.0901181614
 11
-22.5705962789
 21
-6.0901181614
  0
LINE
  5
3CB
100
AcDbEntity
  8
ASSI
100
AcDbLine
 62
7
  6
CONTINUOUS
 10
-23.5664363823
 20
-6.0901181614
 11
-22.5705962789
 21
-6.0901181614
  0
LINE
  5
3CC
100
AcDbEntity
  8
RACCORDO
100
AcDbLine
 62
7
  6
CONTINUOUS
 10
22.0938970685
 20
-6.0901181614
 11
23.0897371719
 21
-6.0901181614
  0
LINE
  5
3CD
100
AcDbEntity
  8
ASSI
100
AcDbLine
 62
7
  6
CONTINUOUS
 10
22.0938970685
 20
-6.0901181614
 11
23.0897371719
 21
-6.0901181614
  0
LINE
  5
3CE
100
AcDbEntity
  8
DRAFT
100
AcDbLine
 62
7
  6
CONTINUOUS
 10
-22.8883496052
 20
-4.7659793319
 11
-22.0883496052
 21
-4.7799433839
  0
LINE
  5
3CF
100
AcDbEntity
  8
ASSI
100
AcDbLine
 62
7
  6
CONTINUOUS
 10
-22.8883496052
 20
-4.7659793319
 11
-22.0883496052
 21
-4.7799433839
  0
LINE
  5
3D0
100
AcDbEntity
  8
0
100
AcDbLine
 62
7
  6
CONTINUOUS
 10
-12.8633496052
 20
-3.5401724877
 11
-13.0404329723
 21
-3.5040022761
  0
LINE
  5
3D1
100
AcDbEntity
  8
ASSI
100
AcDbLine
 62
7
  6
CONTINUOUS
 10
-12.8633496052
 20
-3.5401724877
 11
-13.0404329723
 21
-3.5040022761
  0
LINE
  5
3D2
100
AcDbEntity
  8
0
100
AcDbLine
 62
7
  6
CONTINUOUS
 10
-11.340432871
 20
-3.5401724877
 11
-11.5175163394
 21
-3.5040022761
  0
LINE
  5
3D3
100
AcDbEntity
  8
ASSI
100
AcDbLine
 62
7
  6
CONTINUOUS
 10
-11.340432871
 20
-3.5401724877
 11
-11.5175163394
 21
-3.5040022761
  0
LINE
  5
3D4
100
AcDbEntity
  8
0
100
AcDbLine
 62
7
  6
CONTINUOUS
 10
-11.3050163394
 20
-3.3593214201
 11
-11.446682871
 21
-3.3231512117
  0
LINE
  5
3D5
100
AcDbEntity
  8
ASSI
100
AcDbLine
 62
7
  6
CONTINUOUS
 10
-11.3050163394
 20
-3.3593214201
 11
-11.446682871
 21
-3.3231512117
  0
LINE
  5
3D6
100
AcDbEntity
  8
0
100
AcDbLine
 62
7
  6
CONTINUOUS
 10
-11.021682871
 20
-2.7805980089
 11
-11.1633496052
 21
-2.7444278004
  0
LINE
  5
3D7
100
AcDbEntity
  8
ASSI
100
AcDbLine
 62
7
  6
CONTINUOUS
 10
-11.021682871
 20
-2.7805980089
 11
-11.1633496052
 21
-2.7444278004
  0
LINE
  5
3D8
100
AcDbEntity
  8
0
100
AcDbLine
 62
7
  6
CONTINUOUS
 10
-11.3050163394
 20
-2.5997469666
 11
-11.446682871
 21
-2.5635767582
  0
LINE
  5
3D9
100
AcDbEntity
  8
ASSI
100
AcDbLine
 62
7
  6
CONTINUOUS
 10
-11.3050163394
 20
-2.5997469666
 11
-11.446682871
 21
-2.5635767582
  0
LINE
  5
3DA
100
AcDbEntity
  8
0
100
AcDbLine
 62
7
  6
CONTINUOUS
 10
-12.5445996052
 20
-2.6720873835
 11
-12.6508496052
 21
-2.6359171751
  0
LINE
  5
3DB
100
AcDbEntity
  8
ASSI
100
AcDbLine
 62
7
  6
CONTINUOUS
 10
-12.5445996052
 20
-2.6720873835
 11
-12.6508496052
 21
-2.6359171751
  0
LINE
  5
3DC
100
AcDbEntity
  8
0
100
AcDbLine
 62
7
  6
CONTINUOUS
 10
-12.5800162381
 20
-2.0571937385
 11
-12.6862662381
 21
-2.02102353
  0
LINE
  5
3DD
100
AcDbEntity
  8
ASSI
100
AcDbLine
 62
7
  6
CONTINUOUS
 10
-12.5800162381
 20
-2.0571937385
 11
-12.6862662381
 21
-2.02102353
  0
LINE
  5
3DE
100
AcDbEntity
  8
0
100
AcDbLine
 62
7
  6
CONTINUOUS
 10
-7.6216830736
 20
-2.1295341554
 11
-7.7279330736
 21
-2.0571937385
  0
LINE
  5
3DF
100
AcDbEntity
  8
ASSI
100
AcDbLine
 62
7
  6
CONTINUOUS
 10
-7.6216830736
 20
-2.1295341554
 11
-7.7279330736
 21
-2.0571937385
  0
LINE
  5
3E0
100
AcDbEntity
  8
0
100
AcDbLine
 62
7
  6
CONTINUOUS
 10
-7.3737661368
 20
-2.0933639469
 11
-7.5154330736
 21
-1.9486831131
  0
LINE
  5
3E1
100
AcDbEntity
  8
ASSI
100
AcDbLine
 62
7
  6
CONTINUOUS
 10
-7.3737661368
 20
-2.0933639469
 11
-7.5154330736
 21
-1.9486831131
  0
LINE
  5
3E2
100
AcDbEntity
  8
RACCORDO
100
AcDbLine
 62
253
  6
CONTINUOUS
 10
-4.6682483721
 20
5.6180185239
 11
-4.6617254673
 21
3.9665514704
  0
LINE
  5
3E3
100
AcDbEntity
  8
ASSI
100
AcDbLine
 62
253
  6
CONTINUOUS
 10
-4.6682483721
 20
5.6180185239
 11
-4.6617254673
 21
3.9665514704
  0
LINE
  5
3E4
100
AcDbEntity
  8
RACCORDO
100
AcDbLine
 62
253
  6
CONTINUOUS
 10
-4.06019513
 20
3.9886829879
 11
-4.06019513
 21
5.5955740366
  0
LINE
  5
3E5
100
AcDbEntity
  8
ASSI
100
AcDbLine
 62
253
  6
CONTINUOUS
 10
-4.06019513
 20
3.9886829879
 11
-4.06019513
 21
5.5955740366
  0
LINE
  5
3E6
100
AcDbEntity
  8
RACCORDO
100
AcDbLine
 62
253
  6
CONTINUOUS
 10
-3.7782873437
 20
3.9921285123
 11
-3.7782873437
 21
5.5921285123
  0
LINE
  5
3E7
100
AcDbEntity
  8
ASSI
100
AcDbLine
 62
253
  6
CONTINUOUS
 10
-3.7782873437
 20
3.9921285123
 11
-3.7782873437
 21
5.5921285123
  0
LINE
  5
3E8
100
AcDbEntity
  8
0
100
AcDbLine
 62
7
  6
CONTINUOUS
 10
-7.4445996052
 20
-2.5635767582
 11
-7.3737661368
 21
-2.4550661328
  0
LINE
  5
3E9
100
AcDbEntity
  8
ASSI
100
AcDbLine
 62
7
  6
CONTINUOUS
 10
-7.4445996052
 20
-2.5635767582
 11
-7.3737661368
 21
-2.4550661328
  0
LINE
  5
3EA
100
AcDbEntity
  8
0
100
AcDbLine
 62
7
  6
CONTINUOUS
 10
-8.5425161368
 20
-2.0933639469
 11
-8.4008496052
 21
-1.9486831131
  0
LINE
  5
3EB
100
AcDbEntity
  8
ASSI
100
AcDbLine
 62
7
  6
CONTINUOUS
 10
-8.5425161368
 20
-2.0933639469
 11
-8.4008496052
 21
-1.9486831131
  0
LINE
  5
3EC
100
AcDbEntity
  8
0
100
AcDbLine
 62
7
  6
CONTINUOUS
 10
-11.8008496052
 20
-2.8167682173
 11
-11.659182871
 21
-2.708257592
  0
LINE
  5
3ED
100
AcDbEntity
  8
ASSI
100
AcDbLine
 62
7
  6
CONTINUOUS
 10
-11.8008496052
 20
-2.8167682173
 11
-11.659182871
 21
-2.708257592
  0
LINE
  5
3EE
100
AcDbEntity
  8
0
100
AcDbLine
 62
7
  6
CONTINUOUS
 10
-11.021682871
 20
-2.5635767582
 11
-10.8800163394
 21
-2.4550661328
  0
LINE
  5
3EF
100
AcDbEntity
  8
ASSI
100
AcDbLine
 62
7
  6
CONTINUOUS
 10
-11.021682871
 20
-2.5635767582
 11
-10.8800163394
 21
-2.4550661328
  0
LINE
  5
3F0
100
AcDbEntity
  8
0
100
AcDbLine
 62
7
  6
CONTINUOUS
 10
-13.1112662381
 20
-2.7444278004
 11
-13.0050162381
 21
-2.6720873835
  0
LINE
  5
3F1
100
AcDbEntity
  8
ASSI
100
AcDbLine
 62
7
  6
CONTINUOUS
 10
-13.1112662381
 20
-2.7444278004
 11
-13.0050162381
 21
-2.6720873835
  0
LINE
  5
3F2
100
AcDbEntity
  8
0
100
AcDbLine
 62
7
  6
CONTINUOUS
 10
-12.5445996052
 20
-3.3231512117
 11
-12.4383496052
 21
-3.2508107948
  0
LINE
  5
3F3
100
AcDbEntity
  8
ASSI
100
AcDbLine
 62
7
  6
CONTINUOUS
 10
-12.5445996052
 20
-3.3231512117
 11
-12.4383496052
 21
-3.2508107948
  0
LINE
  5
3F4
100
AcDbEntity
  8
0
100
AcDbLine
 62
7
  6
CONTINUOUS
 10
-11.659182871
 20
-1.9848533216
 11
-11.4820996052
 21
-1.8763426962
  0
LINE
  5
3F5
100
AcDbEntity
  8
ASSI
100
AcDbLine
 62
7
  6
CONTINUOUS
 10
-11.659182871
 20
-1.9848533216
 11
-11.4820996052
 21
-1.8763426962
  0
LINE
  5
3F6
100
AcDbEntity
  8
0
100
AcDbLine
 62
7
  6
CONTINUOUS
 10
-12.5091829723
 20
-3.5040022761
 11
-12.3320996052
 21
-3.3954916413
  0
LINE
  5
3F7
100
AcDbEntity
  8
ASSI
100
AcDbLine
 62
7
  6
CONTINUOUS
 10
-12.5091829723
 20
-3.5040022761
 11
-12.3320996052
 21
-3.3954916413
  0
LINE
  5
3F8
100
AcDbEntity
  8
DRAFT
100
AcDbLine
 62
7
  6
CONTINUOUS
 10
-22.0883496052
 20
-4.7862272072
 11
-22.6383496052
 21
-4.7917699348
  0
LINE
  5
3F9
100
AcDbEntity
  8
ASSI
100
AcDbLine
 62
7
  6
CONTINUOUS
 10
-22.0883496052
 20
-4.7862272072
 11
-22.6383496052
 21
-4.7917699348
  0
LINE
  5
3FA
100
AcDbEntity
  8
RACCORDO
100
AcDbLine
 62
7
  6
CONTINUOUS
 10
23.088964115
 20
-4.8263984185
 11
22.1616503948
 21
-4.8263984185
  0
LINE
  5
3FB
100
AcDbEntity
  8
ASSI
100
AcDbLine
 62
7
  6
CONTINUOUS
 10
23.088964115
 20
-4.8263984185
 11
22.1616503948
 21
-4.8263984185
  0
LINE
  5
3FC
100
AcDbEntity
  8
RACCORDO
100
AcDbLine
 62
7
  6
CONTINUOUS
 10
-22.6383496052
 20
-4.8263984185
 11
-23.5656633254
 21
-4.8263984185
  0
LINE
  5
3FD
100
AcDbEntity
  8
ASSI
100
AcDbLine
 62
7
  6
CONTINUOUS
 10
-22.6383496052
 20
-4.8263984185
 11
-23.5656633254
 21
-4.8263984185
  0
LINE
  5
3FE
100
AcDbEntity
  8
DRAFT
100
AcDbLine
 62
7
  6
CONTINUOUS
 10
-23.9208945403
 20
-4.7659793319
 11
-22.8883496052
 21
-4.7659793319
  0
LINE
  5
3FF
100
AcDbEntity
  8
ASSI
100
AcDbLine
 62
7
  6
CONTINUOUS
 10
-23.9208945403
 20
-4.7659793319
 11
-22.8883496052
 21
-4.7659793319
  0
LINE
  5
400
100
AcDbEntity
  8
DRAFT
100
AcDbLine
 62
7
  6
CONTINUOUS
 10
22.4116503948
 20
-4.7659793319
 11
23.4441953299
 21
-4.7659793319
  0
LINE
  5
401
100
AcDbEntity
  8
ASSI
100
AcDbLine
 62
7
  6
CONTINUOUS
 10
22.4116503948
 20
-4.7659793319
 11
23.4441953299
 21
-4.7659793319
  0
LINE
  5
402
100
AcDbEntity
  8
DRAFT
100
AcDbLine
 62
7
  6
CONTINUOUS
 10
23.7571428089
 20
-4.1533639019
 11
23.4571428089
 21
-4.1533639019
  0
LINE
  5
403
100
AcDbEntity
  8
ASSI
100
AcDbLine
 62
7
  6
CONTINUOUS
 10
23.7571428089
 20
-4.1533639019
 11
23.4571428089
 21
-4.1533639019
  0
LINE
  5
404
100
AcDbEntity
  8
DRAFT
100
AcDbLine
 62
7
  6
CONTINUOUS
 10
-23.9338420193
 20
-4.1533639019
 11
-24.2338420193
 21
-4.1533639019
  0
LINE
  5
405
100
AcDbEntity
  8
ASSI
100
AcDbLine
 62
7
  6
CONTINUOUS
 10
-23.9338420193
 20
-4.1533639019
 11
-24.2338420193
 21
-4.1533639019
  0
LINE
  5
406
100
AcDbEntity
  8
DRAFT
100
AcDbLine
 62
7
  6
CONTINUOUS
 10
-23.9208945403
 20
-4.1404164228
 11
-23.1558046701
 21
-4.1404164228
  0
LINE
  5
407
100
AcDbEntity
  8
ASSI
100
AcDbLine
 62
7
  6
CONTINUOUS
 10
-23.9208945403
 20
-4.1404164228
 11
-23.1558046701
 21
-4.1404164228
  0
LINE
  5
408
100
AcDbEntity
  8
DRAFT
100
AcDbLine
 62
7
  6
CONTINUOUS
 10
23.4441953299
 20
-4.1404164228
 11
22.6791054597
 21
-4.1404164228
  0
LINE
  5
409
100
AcDbEntity
  8
ASSI
100
AcDbLine
 62
7
  6
CONTINUOUS
 10
23.4441953299
 20
-4.1404164228
 11
22.6791054597
 21
-4.1404164228
  0
LINE
  5
40A
100
AcDbEntity
  8
DRAFT
100
AcDbLine
 62
7
  6
CONTINUOUS
 10
-24.1600492553
 20
-4.0795711378
 11
-23.2166499551
 21
-4.0795711378
  0
LINE
  5
40B
100
AcDbEntity
  8
ASSI
100
AcDbLine
 62
7
  6
CONTINUOUS
 10
-24.1600492553
 20
-4.0795711378
 11
-23.2166499551
 21
-4.0795711378
  0
LINE
  5
40C
100
AcDbEntity
  8
DRAFT
100
AcDbLine
 62
7
  6
CONTINUOUS
 10
22.7399507447
 20
-4.0795711378
 11
23.6833500449
 21
-4.0795711378
  0
LINE
  5
40D
100
AcDbEntity
  8
ASSI
100
AcDbLine
 62
7
  6
CONTINUOUS
 10
22.7399507447
 20
-4.0795711378
 11
23.6833500449
 21
-4.0795711378
  0
LINE
  5
40E
100
AcDbEntity
  8
0
100
AcDbLine
 62
7
  6
CONTINUOUS
 10
-13.9258496052
 20
-3.5401724877
 11
-13.7133496052
 21
-3.5401724877
  0
LINE
  5
40F
100
AcDbEntity
  8
ASSI
100
AcDbLine
 62
7
  6
CONTINUOUS
 10
-13.9258496052
 20
-3.5401724877
 11
-13.7133496052
 21
-3.5401724877
  0
LINE
  5
410
100
AcDbEntity
  8
0
100
AcDbLine
 62
7
  6
CONTINUOUS
 10
-12.8633496052
 20
-3.5401724877
 11
-12.6862662381
 21
-3.5401724877
  0
LINE
  5
411
100
AcDbEntity
  8
ASSI
100
AcDbLine
 62
7
  6
CONTINUOUS
 10
-12.8633496052
 20
-3.5401724877
 11
-12.6862662381
 21
-3.5401724877
  0
LINE
  5
412
100
AcDbEntity
  8
0
100
AcDbLine
 62
7
  6
CONTINUOUS
 10
-11.340432871
 20
-3.5401724877
 11
-11.127932871
 21
-3.5401724877
  0
LINE
  5
413
100
AcDbEntity
  8
ASSI
100
AcDbLine
 62
7
  6
CONTINUOUS
 10
-11.340432871
 20
-3.5401724877
 11
-11.127932871
 21
-3.5401724877
  0
LINE
  5
414
100
AcDbEntity
  8
0
100
AcDbLine
 62
7
  6
CONTINUOUS
 10
-9.4633496052
 20
-3.5401724877
 11
-9.2508496052
 21
-3.5401724877
  0
LINE
  5
415
100
AcDbEntity
  8
ASSI
100
AcDbLine
 62
7
  6
CONTINUOUS
 10
-9.4633496052
 20
-3.5401724877
 11
-9.2508496052
 21
-3.5401724877
  0
LINE
  5
416
100
AcDbEntity
  8
0
100
AcDbLine
 62
7
  6
CONTINUOUS
 10
-8.6133496052
 20
-3.5401724877
 11
-7.3383496052
 21
-3.5401724877
  0
LINE
  5
417
100
AcDbEntity
  8
ASSI
100
AcDbLine
 62
7
  6
CONTINUOUS
 10
-8.6133496052
 20
-3.5401724877
 11
-7.3383496052
 21
-3.5401724877
  0
LINE
  5
418
100
AcDbEntity
  8
0
100
AcDbLine
 62
7
  6
CONTINUOUS
 10
7.4593743948
 20
-3.5401724877
 11
7.7720663948
 21
-3.5401724877
  0
LINE
  5
419
100
AcDbEntity
  8
ASSI
100
AcDbLine
 62
7
  6
CONTINUOUS
 10
7.4593743948
 20
-3.5401724877
 11
7.7720663948
 21
-3.5401724877
  0
LINE
  5
41A
100
AcDbEntity
  8
0
100
AcDbLine
 62
7
  6
CONTINUOUS
 10
8.4501483948
 20
-3.5401724877
 11
8.8049763948
 21
-3.5401724877
  0
LINE
  5
41B
100
AcDbEntity
  8
ASSI
100
AcDbLine
 62
7
  6
CONTINUOUS
 10
8.4501483948
 20
-3.5401724877
 11
8.8049763948
 21
-3.5401724877
  0
LINE
  5
41C
100
AcDbEntity
  8
0
100
AcDbLine
 62
7
  6
CONTINUOUS
 10
8.9959913948
 20
-3.5401724877
 11
9.3354463948
 21
-3.5401724877
  0
LINE
  5
41D
100
AcDbEntity
  8
ASSI
100
AcDbLine
 62
7
  6
CONTINUOUS
 10
8.9959913948
 20
-3.5401724877
 11
9.3354463948
 21
-3.5401724877
  0
LINE
  5
41E
100
AcDbEntity
  8
0
100
AcDbLine
 62
7
  6
CONTINUOUS
 10
9.8282743948
 20
-3.5401724877
 11
9.8780383948
 21
-3.5401724877
  0
LINE
  5
41F
100
AcDbEntity
  8
ASSI
100
AcDbLine
 62
7
  6
CONTINUOUS
 10
9.8282743948
 20
-3.5401724877
 11
9.8780383948
 21
-3.5401724877
  0
LINE
  5
420
100
AcDbEntity
  8
0
100
AcDbLine
 62
7
  6
CONTINUOUS
 10
10.3728303948
 20
-3.5401724877
 11
10.7199463948
 21
-3.5401724877
  0
LINE
  5
421
100
AcDbEntity
  8
ASSI
100
AcDbLine
 62
7
  6
CONTINUOUS
 10
10.3728303948
 20
-3.5401724877
 11
10.7199463948
 21
-3.5401724877
  0
LINE
  5
422
100
AcDbEntity
  8
0
100
AcDbLine
 62
7
  6
CONTINUOUS
 10
10.7756633948
 20
-3.5401724877
 11
11.1266413948
 21
-3.5401724877
  0
LINE
  5
423
100
AcDbEntity
  8
ASSI
100
AcDbLine
 62
7
  6
CONTINUOUS
 10
10.7756633948
 20
-3.5401724877
 11
11.1266413948
 21
-3.5401724877
  0
LINE
  5
424
100
AcDbEntity
  8
0
100
AcDbLine
 62
7
  6
CONTINUOUS
 10
11.7996883948
 20
-3.5401724877
 11
12.1736623948
 21
-3.5401724877
  0
LINE
  5
425
100
AcDbEntity
  8
ASSI
100
AcDbLine
 62
7
  6
CONTINUOUS
 10
11.7996883948
 20
-3.5401724877
 11
12.1736623948
 21
-3.5401724877
  0
LINE
  5
426
100
AcDbEntity
  8
0
100
AcDbLine
 62
7
  6
CONTINUOUS
 10
12.2778570587
 20
-3.5401721745
 11
12.6312573908
 21
-3.5401721745
  0
LINE
  5
427
100
AcDbEntity
  8
ASSI
100
AcDbLine
 62
7
  6
CONTINUOUS
 10
12.2778570587
 20
-3.5401721745
 11
12.6312573908
 21
-3.5401721745
  0
LINE
  5
428
100
AcDbEntity
  8
0
100
AcDbLine
 62
7
  6
CONTINUOUS
 10
13.1746276099
 20
-3.5401721745
 11
13.5159309533
 21
-3.5401721745
  0
LINE
  5
429
100
AcDbEntity
  8
ASSI
100
AcDbLine
 62
7
  6
CONTINUOUS
 10
13.1746276099
 20
-3.5401721745
 11
13.5159309533
 21
-3.5401721745
  0
LINE
  5
42A
100
AcDbEntity
  8
0
100
AcDbLine
 62
7
  6
CONTINUOUS
 10
-12.8987662381
 20
-3.3593214201
 11
-12.6508496052
 21
-3.3593214201
  0
LINE
  5
42B
100
AcDbEntity
  8
ASSI
100
AcDbLine
 62
7
  6
CONTINUOUS
 10
-12.8987662381
 20
-3.3593214201
 11
-12.6508496052
 21
-3.3593214201
  0
LINE
  5
42C
100
AcDbEntity
  8
0
100
AcDbLine
 62
7
  6
CONTINUOUS
 10
-11.3050163394
 20
-3.3593214201
 11
-11.1633496052
 21
-3.3593214201
  0
LINE
  5
42D
100
AcDbEntity
  8
ASSI
100
AcDbLine
 62
7
  6
CONTINUOUS
 10
-11.3050163394
 20
-3.3593214201
 11
-11.1633496052
 21
-3.3593214201
  0
LINE
  5
42E
100
AcDbEntity
  8
0
100
AcDbLine
 62
7
  6
CONTINUOUS
 10
-8.3300161368
 20
-3.3593214201
 11
-7.3383496052
 21
-3.3593214201
  0
LINE
  5
42F
100
AcDbEntity
  8
ASSI
100
AcDbLine
 62
7
  6
CONTINUOUS
 10
-8.3300161368
 20
-3.3593214201
 11
-7.3383496052
 21
-3.3593214201
  0
LINE
  5
430
100
AcDbEntity
  8
DRAFT
100
AcDbLine
 62
7
  6
CONTINUOUS
 10
22.1616503948
 20
-4.7917699348
 11
21.6116503948
 21
-4.7862272072
  0
LINE
  5
431
100
AcDbEntity
  8
ASSI
100
AcDbLine
 62
7
  6
CONTINUOUS
 10
22.1616503948
 20
-4.7917699348
 11
21.6116503948
 21
-4.7862272072
  0
LINE
  5
432
100
AcDbEntity
  8
0
100
AcDbLine
 62
7
  6
CONTINUOUS
 10
-12.5091829723
 20
-2.4912363413
 11
-12.6862662381
 21
-2.4550661328
  0
LINE
  5
433
100
AcDbEntity
  8
ASSI
100
AcDbLine
 62
7
  6
CONTINUOUS
 10
-12.5091829723
 20
-2.4912363413
 11
-12.6862662381
 21
-2.4550661328
  0
LINE
  5
434
100
AcDbEntity
  8
0
100
AcDbLine
 62
7
  6
CONTINUOUS
 10
-12.5445996052
 20
-1.8763426962
 11
-12.7216829723
 21
-1.8401724877
  0
LINE
  5
435
100
AcDbEntity
  8
ASSI
100
AcDbLine
 62
7
  6
CONTINUOUS
 10
-12.5445996052
 20
-1.8763426962
 11
-12.7216829723
 21
-1.8401724877
  0
LINE
  5
436
100
AcDbEntity
  8
0
100
AcDbLine
 62
7
  6
CONTINUOUS
 10
-10.9862663394
 20
-1.8763426962
 11
-11.1633496052
 21
-1.8401724877
  0
LINE
  5
437
100
AcDbEntity
  8
ASSI
100
AcDbLine
 62
7
  6
CONTINUOUS
 10
-10.9862663394
 20
-1.8763426962
 11
-11.1633496052
 21
-1.8401724877
  0
LINE
  5
438
100
AcDbEntity
  8
0
100
AcDbLine
 62
7
  6
CONTINUOUS
 10
-7.7279330736
 20
-2.0571937385
 11
-7.9050161368
 21
-2.02102353
  0
LINE
  5
439
100
AcDbEntity
  8
ASSI
100
AcDbLine
 62
7
  6
CONTINUOUS
 10
-7.7279330736
 20
-2.0571937385
 11
-7.9050161368
 21
-2.02102353
  0
LINE
  5
43A
100
AcDbEntity
  8
0
100
AcDbLine
 62
7
  6
CONTINUOUS
 10
-11.021682871
 20
-2.0571937385
 11
-11.1633496052
 21
-2.02102353
  0
LINE
  5
43B
100
AcDbEntity
  8
ASSI
100
AcDbLine
 62
7
  6
CONTINUOUS
 10
-11.021682871
 20
-2.0571937385
 11
-11.1633496052
 21
-2.02102353
  0
LINE
  5
43C
100
AcDbEntity
  8
0
100
AcDbLine
 62
7
  6
CONTINUOUS
 10
-7.5154330736
 20
-1.9486831131
 11
-7.6570996052
 21
-1.8763426962
  0
LINE
  5
43D
100
AcDbEntity
  8
ASSI
100
AcDbLine
 62
7
  6
CONTINUOUS
 10
-7.5154330736
 20
-1.9486831131
 11
-7.6570996052
 21
-1.8763426962
  0
LINE
  5
43E
100
AcDbEntity
  8
DRAFT
100
AcDbLine
 62
7
  6
CONTINUOUS
 10
-3.3806145783
 20
5.5921285123
 11
-3.3806145783
 21
3.9921285123
  0
LINE
  5
43F
100
AcDbEntity
  8
ASSI
100
AcDbLine
 62
7
  6
CONTINUOUS
 10
-3.3806145783
 20
5.5921285123
 11
-3.3806145783
 21
3.9921285123
  0
LINE
  5
440
100
AcDbEntity
  8
DRAFT
100
AcDbLine
 62
7
  6
CONTINUOUS
 10
-3.2383496052
 20
0.7921285123
 11
-3.2383496052
 21
3.9834009798
  0
LINE
  5
441
100
AcDbEntity
  8
ASSI
100
AcDbLine
 62
7
  6
CONTINUOUS
 10
-3.2383496052
 20
0.7921285123
 11
-3.2383496052
 21
3.9834009798
  0
LINE
  5
442
100
AcDbEntity
  8
DRAFT
100
AcDbLine
 62
7
  6
CONTINUOUS
 10
-3.2383496052
 20
5.6008560447
 11
-3.2383496052
 21
7.2921285123
  0
LINE
  5
443
100
AcDbEntity
  8
ASSI
100
AcDbLine
 62
7
  6
CONTINUOUS
 10
-3.2383496052
 20
5.6008560447
 11
-3.2383496052
 21
7.2921285123
  0
LINE
  5
444
100
AcDbEntity
  8
DRAFT
100
AcDbLine
 62
7
  6
CONTINUOUS
 10
-3.2058046701
 20
2.3746734473
 11
-3.2058046701
 21
3.9834009798
  0
LINE
  5
445
100
AcDbEntity
  8
DRAFT
100
AcDbLine
 62
7
  6
CONTINUOUS
 10
-3.2058046701
 20
5.6008560447
 11
-3.2058046701
 21
7.2095835772
  0
LINE
  5
446
100
AcDbEntity
  8
DRAFT
100
AcDbLine
 62
7
  6
CONTINUOUS
 10
-3.1383496052
 20
5.5963572631
 11
-3.1383496052
 21
3.9878997614
  0
LINE
  5
447
100
AcDbEntity
  8
ASSI
100
AcDbLine
 62
7
  6
CONTINUOUS
 10
-3.1383496052
 20
5.5963572631
 11
-3.1383496052
 21
3.9878997614
  0
LINE
  5
448
100
AcDbEntity
  8
DRAFT
100
AcDbLine
 62
7
  6
CONTINUOUS
 10
-2.7348585922
 20
7.2130745902
 11
-2.7348585922
 21
2.3711824343
  0
LINE
  5
449
100
AcDbEntity
  8
0
100
AcDbLine
 62
7
  6
CONTINUOUS
 10
-8.6133496052
 20
-3.3593214201
 11
-7.6216830736
 21
-2.4550661328
  0
LINE
  5
44A
100
AcDbEntity
  8
ASSI
100
AcDbLine
 62
7
  6
CONTINUOUS
 10
-8.6133496052
 20
-3.3593214201
 11
-7.6216830736
 21
-2.4550661328
  0
LINE
  5
44B
100
AcDbEntity
  8
0
100
AcDbLine
 62
7
  6
CONTINUOUS
 10
-8.3300161368
 20
-3.3593214201
 11
-7.4445996052
 21
-2.5635767582
  0
LINE
  5
44C
100
AcDbEntity
  8
ASSI
100
AcDbLine
 62
7
  6
CONTINUOUS
 10
-8.3300161368
 20
-3.3593214201
 11
-7.4445996052
 21
-2.5635767582
  0
LINE
  5
44D
100
AcDbEntity
  8
0
100
AcDbLine
 62
7
  6
CONTINUOUS
 10
-8.3300161368
 20
-2.1295341554
 11
-8.2237661368
 21
-2.0571937385
  0
LINE
  5
44E
100
AcDbEntity
  8
ASSI
100
AcDbLine
 62
7
  6
CONTINUOUS
 10
-8.3300161368
 20
-2.1295341554
 11
-8.2237661368
 21
-2.0571937385
  0
LINE
  5
44F
100
AcDbEntity
  8
0
100
AcDbLine
 62
7
  6
CONTINUOUS
 10
-10.9508496052
 20
-3.5040022761
 11
-10.7737663394
 21
-3.3954916413
  0
LINE
  5
450
100
AcDbEntity
  8
ASSI
100
AcDbLine
 62
7
  6
CONTINUOUS
 10
-10.9508496052
 20
-3.5040022761
 11
-10.7737663394
 21
-3.3954916413
  0
LINE
  5
451
100
AcDbEntity
  8
0
100
AcDbLine
 62
7
  6
CONTINUOUS
 10
-11.659182871
 20
-2.708257592
 11
-11.5883496052
 21
-2.6720873835
  0
LINE
  5
452
100
AcDbEntity
  8
ASSI
100
AcDbLine
 62
7
  6
CONTINUOUS
 10
-11.659182871
 20
-2.708257592
 11
-11.5883496052
 21
-2.6720873835
  0
LINE
  5
453
100
AcDbEntity
  8
0
100
AcDbLine
 62
7
  6
CONTINUOUS
 10
-11.5883496052
 20
-2.8529384258
 11
-11.446682871
 21
-2.7805980089
  0
LINE
  5
454
100
AcDbEntity
  8
ASSI
100
AcDbLine
 62
7
  6
CONTINUOUS
 10
-11.5883496052
 20
-2.8529384258
 11
-11.446682871
 21
-2.7805980089
  0
LINE
  5
455
100
AcDbEntity
  8
0
100
AcDbLine
 62
7
  6
CONTINUOUS
 10
-10.8800163394
 20
-2.6720873835
 11
-10.809182871
 21
-2.6359171751
  0
LINE
  5
456
100
AcDbEntity
  8
ASSI
100
AcDbLine
 62
7
  6
CONTINUOUS
 10
-10.8800163394
 20
-2.6720873835
 11
-10.809182871
 21
-2.6359171751
  0
LINE
  5
457
100
AcDbEntity
  8
0
100
AcDbLine
 62
7
  6
CONTINUOUS
 10
-8.4008496052
 20
-1.9486831131
 11
-8.2591830736
 21
-1.8763426962
  0
LINE
  5
458
100
AcDbEntity
  8
ASSI
100
AcDbLine
 62
7
  6
CONTINUOUS
 10
-8.4008496052
 20
-1.9486831131
 11
-8.2591830736
 21
-1.8763426962
  0
LINE
  5
459
100
AcDbEntity
  8
0
100
AcDbLine
 62
7
  6
CONTINUOUS
 10
-11.021682871
 20
-3.3231512117
 11
-10.8800163394
 21
-3.2508107948
  0
LINE
  5
45A
100
AcDbEntity
  8
ASSI
100
AcDbLine
 62
7
  6
CONTINUOUS
 10
-11.021682871
 20
-3.3231512117
 11
-10.8800163394
 21
-3.2508107948
  0
LINE
  5
45B
100
AcDbEntity
  8
0
100
AcDbLine
 62
7
  6
CONTINUOUS
 10
-13.0050162381
 20
-2.0571937385
 11
-12.8987662381
 21
-2.02102353
  0
LINE
  5
45C
100
AcDbEntity
  8
ASSI
100
AcDbLine
 62
7
  6
CONTINUOUS
 10
-13.0050162381
 20
-2.0571937385
 11
-12.8987662381
 21
-2.02102353
  0
LINE
  5
45D
100
AcDbEntity
  8
0
100
AcDbLine
 62
7
  6
CONTINUOUS
 10
-13.0050162381
 20
-2.6720873835
 11
-12.8987662381
 21
-2.6359171751
  0
LINE
  5
45E
100
AcDbEntity
  8
ASSI
100
AcDbLine
 62
7
  6
CONTINUOUS
 10
-13.0050162381
 20
-2.6720873835
 11
-12.8987662381
 21
-2.6359171751
  0
LINE
  5
45F
100
AcDbEntity
  8
0
100
AcDbLine
 62
7
  6
CONTINUOUS
 10
11.2245523948
 20
-3.2008194877
 11
11.7077693948
 21
-3.2008194877
  0
LINE
  5
460
100
AcDbEntity
  8
ASSI
100
AcDbLine
 62
7
  6
CONTINUOUS
 10
11.2245523948
 20
-3.2008194877
 11
11.7077693948
 21
-3.2008194877
  0
LINE
  5
461
100
AcDbEntity
  8
0
100
AcDbLine
 62
7
  6
CONTINUOUS
 10
-10.3133496052
 20
-3.0337895187
 11
-9.4633496052
 21
-3.0337895187
  0
LINE
  5
462
100
AcDbEntity
  8
ASSI
100
AcDbLine
 62
7
  6
CONTINUOUS
 10
-10.3133496052
 20
-3.0337895187
 11
-9.4633496052
 21
-3.0337895187
  0
LINE
  5
463
100
AcDbEntity
  8
0
100
AcDbLine
 62
7
  6
CONTINUOUS
 10
-9.2508496052
 20
-3.0337895187
 11
-8.8966830736
 21
-3.0337895187
  0
LINE
  5
464
100
AcDbEntity
  8
ASSI
100
AcDbLine
 62
7
  6
CONTINUOUS
 10
-9.2508496052
 20
-3.0337895187
 11
-8.8966830736
 21
-3.0337895187
  0
LINE
  5
465
100
AcDbEntity
  8
0
100
AcDbLine
 62
7
  6
CONTINUOUS
 10
11.2971343948
 20
-2.9382294877
 11
11.6368563948
 21
-2.9382294877
  0
LINE
  5
466
100
AcDbEntity
  8
ASSI
100
AcDbLine
 62
7
  6
CONTINUOUS
 10
11.2971343948
 20
-2.9382294877
 11
11.6368563948
 21
-2.9382294877
  0
LINE
  5
467
100
AcDbEntity
  8
0
100
AcDbLine
 62
7
  6
CONTINUOUS
 10
12.6312573908
 20
-2.8749397719
 11
12.8215077138
 21
-2.8749397719
  0
LINE
  5
468
100
AcDbEntity
  8
ASSI
100
AcDbLine
 62
7
  6
CONTINUOUS
 10
12.6312573908
 20
-2.8749397719
 11
12.8215077138
 21
-2.8749397719
  0
LINE
  5
469
100
AcDbEntity
  8
0
100
AcDbLine
 62
7
  6
CONTINUOUS
 10
-10.0654330736
 20
-2.8167682173
 11
-9.4633496052
 21
-2.8167682173
  0
LINE
  5
46A
100
AcDbEntity
  8
ASSI
100
AcDbLine
 62
7
  6
CONTINUOUS
 10
-10.0654330736
 20
-2.8167682173
 11
-9.4633496052
 21
-2.8167682173
  0
LINE
  5
46B
100
AcDbEntity
  8
0
100
AcDbLine
 62
7
  6
CONTINUOUS
 10
-9.2508496052
 20
-2.8167682173
 11
-8.8966830736
 21
-2.8167682173
  0
LINE
  5
46C
100
AcDbEntity
  8
ASSI
100
AcDbLine
 62
7
  6
CONTINUOUS
 10
-9.2508496052
 20
-2.8167682173
 11
-8.8966830736
 21
-2.8167682173
  0
LINE
  5
46D
100
AcDbEntity
  8
0
100
AcDbLine
 62
7
  6
CONTINUOUS
 10
-11.3050163394
 20
-2.7444278004
 11
-11.1633496052
 21
-2.7444278004
  0
LINE
  5
46E
100
AcDbEntity
  8
ASSI
100
AcDbLine
 62
7
  6
CONTINUOUS
 10
-11.3050163394
 20
-2.7444278004
 11
-11.1633496052
 21
-2.7444278004
  0
LINE
  5
46F
100
AcDbEntity
  8
0
100
AcDbLine
 62
7
  6
CONTINUOUS
 10
-12.8987662381
 20
-2.6359171751
 11
-12.6508496052
 21
-2.6359171751
  0
LINE
  5
470
100
AcDbEntity
  8
ASSI
100
AcDbLine
 62
7
  6
CONTINUOUS
 10
-12.8987662381
 20
-2.6359171751
 11
-12.6508496052
 21
-2.6359171751
  0
LINE
  5
471
100
AcDbEntity
  8
0
100
AcDbLine
 62
7
  6
CONTINUOUS
 10
-11.3050163394
 20
-2.5997469666
 11
-11.1633496052
 21
-2.5997469666
  0
LINE
  5
472
100
AcDbEntity
  8
ASSI
100
AcDbLine
 62
7
  6
CONTINUOUS
 10
-11.3050163394
 20
-2.5997469666
 11
-11.1633496052
 21
-2.5997469666
  0
LINE
  5
473
100
AcDbEntity
  8
0
100
AcDbLine
 62
7
  6
CONTINUOUS
 10
12.6194918264
 20
-2.5965433192
 11
12.8222725393
 21
-2.5965433192
  0
LINE
  5
474
100
AcDbEntity
  8
ASSI
100
AcDbLine
 62
7
  6
CONTINUOUS
 10
12.6194918264
 20
-2.5965433192
 11
12.8222725393
 21
-2.5965433192
  0
LINE
  5
475
100
AcDbEntity
  8
0
100
AcDbLine
 62
7
  6
CONTINUOUS
 10
-12.8633496052
 20
-2.4550661328
 11
-12.6862662381
 21
-2.4550661328
  0
LINE
  5
476
100
AcDbEntity
  8
ASSI
100
AcDbLine
 62
7
  6
CONTINUOUS
 10
-12.8633496052
 20
-2.4550661328
 11
-12.6862662381
 21
-2.4550661328
  0
LINE
  5
477
100
AcDbEntity
  8
0
100
AcDbLine
 62
7
  6
CONTINUOUS
 10
-12.402932871
 20
-2.2380447807
 11
-12.2258496052
 21
-2.2380447807
  0
LINE
  5
478
100
AcDbEntity
  8
ASSI
100
AcDbLine
 62
7
  6
CONTINUOUS
 10
-12.402932871
 20
-2.2380447807
 11
-12.2258496052
 21
-2.2380447807
  0
LINE
  5
479
100
AcDbEntity
  8
0
100
AcDbLine
 62
7
  6
CONTINUOUS
 10
-8.5779330736
 20
-2.2380447807
 11
-8.4008496052
 21
-2.2380447807
  0
LINE
  5
47A
100
AcDbEntity
  8
ASSI
100
AcDbLine
 62
7
  6
CONTINUOUS
 10
-8.5779330736
 20
-2.2380447807
 11
-8.4008496052
 21
-2.2380447807
  0
LINE
  5
47B
100
AcDbEntity
  8
0
100
AcDbLine
 62
7
  6
CONTINUOUS
 10
-12.8987662381
 20
-2.02102353
 11
-12.6862662381
 21
-2.02102353
  0
LINE
  5
47C
100
AcDbEntity
  8
ASSI
100
AcDbLine
 62
7
  6
CONTINUOUS
 10
-12.8987662381
 20
-2.02102353
 11
-12.6862662381
 21
-2.02102353
  0
LINE
  5
47D
100
AcDbEntity
  8
0
100
AcDbLine
 62
7
  6
CONTINUOUS
 10
-11.3050163394
 20
-2.02102353
 11
-11.1633496052
 21
-2.02102353
  0
LINE
  5
47E
100
AcDbEntity
  8
ASSI
100
AcDbLine
 62
7
  6
CONTINUOUS
 10
-11.3050163394
 20
-2.02102353
 11
-11.1633496052
 21
-2.02102353
  0
LINE
  5
47F
100
AcDbEntity
  8
0
100
AcDbLine
 62
7
  6
CONTINUOUS
 10
-8.0466830736
 20
-2.02102353
 11
-7.9050161368
 21
-2.02102353
  0
LINE
  5
480
100
AcDbEntity
  8
ASSI
100
AcDbLine
 62
7
  6
CONTINUOUS
 10
-8.0466830736
 20
-2.02102353
 11
-7.9050161368
 21
-2.02102353
  0
LINE
  5
481
100
AcDbEntity
  8
0
100
AcDbLine
 62
7
  6
CONTINUOUS
 10
6.9204843948
 20
-1.8403094877
 11
7.3059373948
 21
-1.8403094877
  0
LINE
  5
482
100
AcDbEntity
  8
ASSI
100
AcDbLine
 62
7
  6
CONTINUOUS
 10
6.9204843948
 20
-1.8403094877
 11
7.3059373948
 21
-1.8403094877
  0
LINE
  5
483
100
AcDbEntity
  8
0
100
AcDbLine
 62
7
  6
CONTINUOUS
 10
7.9638843948
 20
-1.8403094877
 11
8.3184703948
 21
-1.8403094877
  0
LINE
  5
484
100
AcDbEntity
  8
ASSI
100
AcDbLine
 62
7
  6
CONTINUOUS
 10
7.9638843948
 20
-1.8403094877
 11
8.3184703948
 21
-1.8403094877
  0
LINE
  5
485
100
AcDbEntity
  8
0
100
AcDbLine
 62
7
  6
CONTINUOUS
 10
9.1494783948
 20
-1.8403094877
 11
9.5040133948
 21
-1.8403094877
  0
LINE
  5
486
100
AcDbEntity
  8
ASSI
100
AcDbLine
 62
7
  6
CONTINUOUS
 10
9.1494783948
 20
-1.8403094877
 11
9.5040133948
 21
-1.8403094877
  0
LINE
  5
487
100
AcDbEntity
  8
0
100
AcDbLine
 62
7
  6
CONTINUOUS
 10
10.2099223948
 20
-1.8403094877
 11
10.5609893948
 21
-1.8403094877
  0
LINE
  5
488
100
AcDbEntity
  8
ASSI
100
AcDbLine
 62
7
  6
CONTINUOUS
 10
10.2099223948
 20
-1.8403094877
 11
10.5609893948
 21
-1.8403094877
  0
LINE
  5
489
100
AcDbEntity
  8
0
100
AcDbLine
 62
7
  6
CONTINUOUS
 10
11.3088483948
 20
-1.8403094877
 11
11.6521023948
 21
-1.8403094877
  0
LINE
  5
48A
100
AcDbEntity
  8
ASSI
100
AcDbLine
 62
7
  6
CONTINUOUS
 10
11.3088483948
 20
-1.8403094877
 11
11.6521023948
 21
-1.8403094877
  0
LINE
  5
48B
100
AcDbEntity
  8
0
100
AcDbLine
 62
7
  6
CONTINUOUS
 10
8.4501483948
 20
-1.8402074877
 11
8.8049763948
 21
-1.8402074877
  0
LINE
  5
48C
100
AcDbEntity
  8
ASSI
100
AcDbLine
 62
7
  6
CONTINUOUS
 10
8.4501483948
 20
-1.8402074877
 11
8.8049763948
 21
-1.8402074877
  0
LINE
  5
48D
100
AcDbEntity
  8
0
100
AcDbLine
 62
7
  6
CONTINUOUS
 10
-13.9258496052
 20
-1.8401724877
 11
-13.7133496052
 21
-1.8401724877
  0
LINE
  5
48E
100
AcDbEntity
  8
ASSI
100
AcDbLine
 62
7
  6
CONTINUOUS
 10
-13.9258496052
 20
-1.8401724877
 11
-13.7133496052
 21
-1.8401724877
  0
LINE
  5
48F
100
AcDbEntity
  8
0
100
AcDbLine
 62
7
  6
CONTINUOUS
 10
-12.8633496052
 20
-1.8401724877
 11
-12.7216829723
 21
-1.8401724877
  0
LINE
  5
490
100
AcDbEntity
  8
ASSI
100
AcDbLine
 62
7
  6
CONTINUOUS
 10
-12.8633496052
 20
-1.8401724877
 11
-12.7216829723
 21
-1.8401724877
  0
LINE
  5
491
100
AcDbEntity
  8
0
100
AcDbLine
 62
7
  6
CONTINUOUS
 10
-11.3050163394
 20
-1.8401724877
 11
-11.1633496052
 21
-1.8401724877
  0
LINE
  5
492
100
AcDbEntity
  8
ASSI
100
AcDbLine
 62
7
  6
CONTINUOUS
 10
-11.3050163394
 20
-1.8401724877
 11
-11.1633496052
 21
-1.8401724877
  0
LINE
  5
493
100
AcDbEntity
  8
0
100
AcDbLine
 62
7
  6
CONTINUOUS
 10
-9.4633496052
 20
-1.8401724877
 11
-9.2508496052
 21
-1.8401724877
  0
LINE
  5
494
100
AcDbEntity
  8
ASSI
100
AcDbLine
 62
7
  6
CONTINUOUS
 10
-9.4633496052
 20
-1.8401724877
 11
-9.2508496052
 21
-1.8401724877
  0
LINE
  5
495
100
AcDbEntity
  8
0
100
AcDbLine
 62
7
  6
CONTINUOUS
 10
-8.0112661368
 20
-1.8401724877
 11
-7.8695996052
 21
-1.8401724877
  0
LINE
  5
496
100
AcDbEntity
  8
ASSI
100
AcDbLine
 62
7
  6
CONTINUOUS
 10
-8.0112661368
 20
-1.8401724877
 11
-7.8695996052
 21
-1.8401724877
  0
LINE
  5
497
100
AcDbEntity
  8
DRAFT
100
AcDbLine
 62
7
  6
CONTINUOUS
 10
-24.1588618471
 20
-1.7373592458
 11
-23.2178373633
 21
-1.7373592458
  0
LINE
  5
498
100
AcDbEntity
  8
ASSI
100
AcDbLine
 62
7
  6
CONTINUOUS
 10
-24.1588618471
 20
-1.7373592458
 11
-23.2178373633
 21
-1.7373592458
  0
LINE
  5
499
100
AcDbEntity
  8
DRAFT
100
AcDbLine
 62
7
  6
CONTINUOUS
 10
22.7411381529
 20
-1.7373592458
 11
23.6821626367
 21
-1.7373592458
  0
LINE
  5
49A
100
AcDbEntity
  8
ASSI
100
AcDbLine
 62
7
  6
CONTINUOUS
 10
22.7411381529
 20
-1.7373592458
 11
23.6821626367
 21
-1.7373592458
  0
LINE
  5
49B
100
AcDbEntity
  8
DRAFT
100
AcDbLine
 62
7
  6
CONTINUOUS
 10
-25.0383496052
 20
-1.6963799244
 11
-24.2383496052
 21
-1.6963799244
  0
LINE
  5
49C
100
AcDbEntity
  8
ASSI
100
AcDbLine
 62
7
  6
CONTINUOUS
 10
-25.0383496052
 20
-1.6963799244
 11
-24.2383496052
 21
-1.6963799244
  0
LINE
  5
49D
100
AcDbEntity
  8
DRAFT
100
AcDbLine
 62
7
  6
CONTINUOUS
 10
23.7616503948
 20
-1.6963799244
 11
24.5616503948
 21
-1.6963799244
  0
LINE
  5
49E
100
AcDbEntity
  8
ASSI
100
AcDbLine
 62
7
  6
CONTINUOUS
 10
23.7616503948
 20
-1.6963799244
 11
24.5616503948
 21
-1.6963799244
  0
LINE
  5
49F
100
AcDbEntity
  8
DRAFT
100
AcDbLine
 62
7
  6
CONTINUOUS
 10
-23.9208945403
 20
-1.6753265527
 11
-23.1558046701
 21
-1.6753265527
  0
LINE
  5
4A0
100
AcDbEntity
  8
ASSI
100
AcDbLine
 62
7
  6
CONTINUOUS
 10
-23.9208945403
 20
-1.6753265527
 11
-23.1558046701
 21
-1.6753265527
  0
LINE
  5
4A1
100
AcDbEntity
  8
DRAFT
100
AcDbLine
 62
7
  6
CONTINUOUS
 10
23.4441953299
 20
-1.6753265527
 11
22.6791054597
 21
-1.6753265527
  0
LINE
  5
4A2
100
AcDbEntity
  8
ASSI
100
AcDbLine
 62
7
  6
CONTINUOUS
 10
23.4441953299
 20
-1.6753265527
 11
22.6791054597
 21
-1.6753265527
  0
LINE
  5
4A3
100
AcDbEntity
  8
DRAFT
100
AcDbLine
 62
7
  6
CONTINUOUS
 10
-24.2383496052
 20
-1.6578714877
 11
-23.9383496052
 21
-1.6578714877
  0
LINE
  5
4A4
100
AcDbEntity
  8
ASSI
100
AcDbLine
 62
7
  6
CONTINUOUS
 10
-24.2383496052
 20
-1.6578714877
 11
-23.9383496052
 21
-1.6578714877
  0
LINE
  5
4A5
100
AcDbEntity
  8
DRAFT
100
AcDbLine
 62
7
  6
CONTINUOUS
 10
23.4616503948
 20
-1.6578714877
 11
23.7616503948
 21
-1.6578714877
  0
LINE
  5
4A6
100
AcDbEntity
  8
ASSI
100
AcDbLine
 62
7
  6
CONTINUOUS
 10
23.4616503948
 20
-1.6578714877
 11
23.7616503948
 21
-1.6578714877
  0
LINE
  5
4A7
100
AcDbEntity
  8
0
100
AcDbLine
 62
7
  6
CONTINUOUS
 10
-7.6570996052
 20
-1.8763426962
 11
-7.8695996052
 21
-1.8401724877
  0
LINE
  5
4A8
100
AcDbEntity
  8
ASSI
100
AcDbLine
 62
7
  6
CONTINUOUS
 10
-7.6570996052
 20
-1.8763426962
 11
-7.8695996052
 21
-1.8401724877
  0
LINE
  5
4A9
100
AcDbEntity
  8
RACCORDO
100
AcDbLine
 62
253
  6
CONTINUOUS
 10
-7.0032127943
 20
-6.2727803683
 11
-7.0331587841
 21
-6.3027263581
  0
LINE
  5
4AA
100
AcDbEntity
  8
ASSI
100
AcDbLine
 62
253
  6
CONTINUOUS
 10
-7.0032127943
 20
-6.2727803683
 11
-7.0331587841
 21
-6.3027263581
  0
LINE
  5
4AB
100
AcDbEntity
  8
RACCORDO
100
AcDbLine
 62
253
  6
CONTINUOUS
 10
-6.7034541777
 20
-6.5729303688
 11
-6.7332044756
 21
-6.6026806667
  0
LINE
  5
4AC
100
AcDbEntity
  8
ASSI
100
AcDbLine
 62
253
  6
CONTINUOUS
 10
-6.7034541777
 20
-6.5729303688
 11
-6.7332044756
 21
-6.6026806667
  0
LINE
  5
4AD
100
AcDbEntity
  8
0
100
AcDbLine
 62
7
  6
CONTINUOUS
 10
-12.6508496052
 20
-3.3593214201
 11
-12.5445996052
 21
-3.3231512117
  0
LINE
  5
4AE
100
AcDbEntity
  8
ASSI
100
AcDbLine
 62
7
  6
CONTINUOUS
 10
-12.6508496052
 20
-3.3593214201
 11
-12.5445996052
 21
-3.3231512117
  0
LINE
  5
4AF
100
AcDbEntity
  8
0
100
AcDbLine
 62
7
  6
CONTINUOUS
 10
-11.1633496052
 20
-3.3593214201
 11
-11.021682871
 21
-3.3231512117
  0
LINE
  5
4B0
100
AcDbEntity
  8
ASSI
100
AcDbLine
 62
7
  6
CONTINUOUS
 10
-11.1633496052
 20
-3.3593214201
 11
-11.021682871
 21
-3.3231512117
  0
LINE
  5
4B1
100
AcDbEntity
  8
0
100
AcDbLine
 62
7
  6
CONTINUOUS
 10
-11.446682871
 20
-2.7805980089
 11
-11.3050163394
 21
-2.7444278004
  0
LINE
  5
4B2
100
AcDbEntity
  8
ASSI
100
AcDbLine
 62
7
  6
CONTINUOUS
 10
-11.446682871
 20
-2.7805980089
 11
-11.3050163394
 21
-2.7444278004
  0
LINE
  5
4B3
100
AcDbEntity
  8
0
100
AcDbLine
 62
7
  6
CONTINUOUS
 10
-11.127932871
 20
-3.5401724877
 11
-10.9508496052
 21
-3.5040022761
  0
LINE
  5
4B4
100
AcDbEntity
  8
ASSI
100
AcDbLine
 62
7
  6
CONTINUOUS
 10
-11.127932871
 20
-3.5401724877
 11
-10.9508496052
 21
-3.5040022761
  0
LINE
  5
4B5
100
AcDbEntity
  8
0
100
AcDbLine
 62
7
  6
CONTINUOUS
 10
-12.6862662381
 20
-3.5401724877
 11
-12.5091829723
 21
-3.5040022761
  0
LINE
  5
4B6
100
AcDbEntity
  8
ASSI
100
AcDbLine
 62
7
  6
CONTINUOUS
 10
-12.6862662381
 20
-3.5401724877
 11
-12.5091829723
 21
-3.5040022761
  0
LINE
  5
4B7
100
AcDbEntity
  8
0
100
AcDbLine
 62
7
  6
CONTINUOUS
 10
-8.2237661368
 20
-2.0571937385
 11
-8.0466830736
 21
-2.02102353
  0
LINE
  5
4B8
100
AcDbEntity
  8
ASSI
100
AcDbLine
 62
7
  6
CONTINUOUS
 10
-8.2237661368
 20
-2.0571937385
 11
-8.0466830736
 21
-2.02102353
  0
LINE
  5
4B9
100
AcDbEntity
  8
0
100
AcDbLine
 62
7
  6
CONTINUOUS
 10
-13.0404329723
 20
-2.4912363413
 11
-12.8633496052
 21
-2.4550661328
  0
LINE
  5
4BA
100
AcDbEntity
  8
ASSI
100
AcDbLine
 62
7
  6
CONTINUOUS
 10
-13.0404329723
 20
-2.4912363413
 11
-12.8633496052
 21
-2.4550661328
  0
LINE
  5
4BB
100
AcDbEntity
  8
0
100
AcDbLine
 62
7
  6
CONTINUOUS
 10
-8.2591830736
 20
-1.8763426962
 11
-8.0112661368
 21
-1.8401724877
  0
LINE
  5
4BC
100
AcDbEntity
  8
ASSI
100
AcDbLine
 62
7
  6
CONTINUOUS
 10
-8.2591830736
 20
-1.8763426962
 11
-8.0112661368
 21
-1.8401724877
  0
LINE
  5
4BD
100
AcDbEntity
  8
DRAFT
100
AcDbLine
 62
7
  6
CONTINUOUS
 10
-22.0883496052
 20
-1.0357995916
 11
-22.8883496052
 21
-1.0497636436
  0
LINE
  5
4BE
100
AcDbEntity
  8
ASSI
100
AcDbLine
 62
7
  6
CONTINUOUS
 10
-22.0883496052
 20
-1.0357995916
 11
-22.8883496052
 21
-1.0497636436
  0
LINE
  5
4BF
100
AcDbEntity
  8
DRAFT
100
AcDbLine
 62
7
  6
CONTINUOUS
 10
21.6116503948
 20
-1.0295157683
 11
22.1616503948
 21
-1.0239730407
  0
LINE
  5
4C0
100
AcDbEntity
  8
ASSI
100
AcDbLine
 62
7
  6
CONTINUOUS
 10
21.6116503948
 20
-1.0295157683
 11
22.1616503948
 21
-1.0239730407
  0
LINE
  5
4C1
100
AcDbEntity
  8
DRAFT
100
AcDbLine
 62
7
  6
CONTINUOUS
 10
23.4441953299
 20
-1.0497636436
 11
22.4116503948
 21
-1.0497636436
  0
LINE
  5
4C2
100
AcDbEntity
  8
ASSI
100
AcDbLine
 62
7
  6
CONTINUOUS
 10
23.4441953299
 20
-1.0497636436
 11
22.4116503948
 21
-1.0497636436
  0
LINE
  5
4C3
100
AcDbEntity
  8
DRAFT
100
AcDbLine
 62
7
  6
CONTINUOUS
 10
-22.8883496052
 20
-1.0497636436
 11
-23.9208945403
 21
-1.0497636436
  0
LINE
  5
4C4
100
AcDbEntity
  8
ASSI
100
AcDbLine
 62
7
  6
CONTINUOUS
 10
-22.8883496052
 20
-1.0497636436
 11
-23.9208945403
 21
-1.0497636436
  0
LINE
  5
4C5
100
AcDbEntity
  8
RACCORDO
100
AcDbLine
 62
7
  6
CONTINUOUS
 10
-23.5637187188
 20
-0.9873985725
 11
-22.6383496052
 21
-0.9873985725
  0
LINE
  5
4C6
100
AcDbEntity
  8
ASSI
100
AcDbLine
 62
7
  6
CONTINUOUS
 10
-23.5637187188
 20
-0.9873985725
 11
-22.6383496052
 21
-0.9873985725
  0
LINE
  5
4C7
100
AcDbEntity
  8
RACCORDO
100
AcDbLine
 62
7
  6
CONTINUOUS
 10
22.1616503948
 20
-0.9873985725
 11
23.0870195084
 21
-0.9873985725
  0
LINE
  5
4C8
100
AcDbEntity
  8
ASSI
100
AcDbLine
 62
7
  6
CONTINUOUS
 10
22.1616503948
 20
-0.9873985725
 11
23.0870195084
 21
-0.9873985725
  0
LINE
  5
4C9
100
AcDbEntity
  8
DRAFT
100
AcDbLine
 62
7
  6
CONTINUOUS
 10
-22.6383496052
 20
-1.0239730407
 11
-22.0883496052
 21
-1.0295157683
  0
LINE
  5
4CA
100
AcDbEntity
  8
ASSI
100
AcDbLine
 62
7
  6
CONTINUOUS
 10
-22.6383496052
 20
-1.0239730407
 11
-22.0883496052
 21
-1.0295157683
  0
LINE
  5
4CB
100
AcDbEntity
  8
DRAFT
100
AcDbLine
 62
7
  6
CONTINUOUS
 10
22.4116503948
 20
-1.0497636436
 11
21.6116503948
 21
-1.0357995916
  0
LINE
  5
4CC
100
AcDbEntity
  8
ASSI
100
AcDbLine
 62
7
  6
CONTINUOUS
 10
22.4116503948
 20
-1.0497636436
 11
21.6116503948
 21
-1.0357995916
  0
LINE
  5
4CD
100
AcDbEntity
  8
RACCORDO
100
AcDbLine
 62
253
  6
CONTINUOUS
 10
6.2565052652
 20
-6.6026806667
 11
6.2267549673
 21
-6.5729303688
  0
LINE
  5
4CE
100
AcDbEntity
  8
ASSI
100
AcDbLine
 62
253
  6
CONTINUOUS
 10
6.2565052652
 20
-6.6026806667
 11
6.2267549673
 21
-6.5729303688
  0
LINE
  5
4CF
100
AcDbEntity
  8
0
100
AcDbLine
 62
7
  6
CONTINUOUS
 10
-11.1633496052
 20
-2.5997469666
 11
-11.021682871
 21
-2.5635767582
  0
LINE
  5
4D0
100
AcDbEntity
  8
ASSI
100
AcDbLine
 62
7
  6
CONTINUOUS
 10
-11.1633496052
 20
-2.5997469666
 11
-11.021682871
 21
-2.5635767582
  0
LINE
  5
4D1
100
AcDbEntity
  8
0
100
AcDbLine
 62
7
  6
CONTINUOUS
 10
-11.446682871
 20
-2.0571937385
 11
-11.3050163394
 21
-2.02102353
  0
LINE
  5
4D2
100
AcDbEntity
  8
ASSI
100
AcDbLine
 62
7
  6
CONTINUOUS
 10
-11.446682871
 20
-2.0571937385
 11
-11.3050163394
 21
-2.02102353
  0
LINE
  5
4D3
100
AcDbEntity
  8
0
100
AcDbLine
 62
7
  6
CONTINUOUS
 10
-11.4820996052
 20
-1.8763426962
 11
-11.3050163394
 21
-1.8401724877
  0
LINE
  5
4D4
100
AcDbEntity
  8
ASSI
100
AcDbLine
 62
7
  6
CONTINUOUS
 10
-11.4820996052
 20
-1.8763426962
 11
-11.3050163394
 21
-1.8401724877
  0
LINE
  5
4D5
100
AcDbEntity
  8
0
100
AcDbLine
 62
7
  6
CONTINUOUS
 10
-13.0404329723
 20
-1.8763426962
 11
-12.8633496052
 21
-1.8401724877
  0
LINE
  5
4D6
100
AcDbEntity
  8
ASSI
100
AcDbLine
 62
7
  6
CONTINUOUS
 10
-13.0404329723
 20
-1.8763426962
 11
-12.8633496052
 21
-1.8401724877
  0
LINE
  5
4D7
100
AcDbEntity
  8
0
100
AcDbLine
 62
7
  6
CONTINUOUS
 10
-3.2383496052
 20
0.7921285123
 11
2.7616503948
 21
0.7921285123
  0
LINE
  5
4D8
100
AcDbEntity
  8
ASSI
100
AcDbLine
 62
7
  6
CONTINUOUS
 10
-3.2383496052
 20
0.7921285123
 11
2.7616503948
 21
0.7921285123
  0
LINE
  5
4D9
100
AcDbEntity
  8
RACCORDO
100
AcDbLine
 62
7
  6
CONTINUOUS
 10
23.0862270199
 20
1.0708625471
 11
22.0903844296
 21
1.0708625471
  0
LINE
  5
4DA
100
AcDbEntity
  8
ASSI
100
AcDbLine
 62
7
  6
CONTINUOUS
 10
23.0862270199
 20
1.0708625471
 11
22.0903844296
 21
1.0708625471
  0
LINE
  5
4DB
100
AcDbEntity
  8
RACCORDO
100
AcDbLine
 62
7
  6
CONTINUOUS
 10
-22.56708364
 20
1.0708625471
 11
-23.5629262303
 21
1.0708625471
  0
LINE
  5
4DC
100
AcDbEntity
  8
ASSI
100
AcDbLine
 62
7
  6
CONTINUOUS
 10
-22.56708364
 20
1.0708625471
 11
-23.5629262303
 21
1.0708625471
  0
LINE
  5
4DD
100
AcDbEntity
  8
RACCORDO
100
AcDbLine
 62
7
  6
CONTINUOUS
 10
-23.9139125143
 20
1.1270386421
 11
-22.918068914
 21
1.1270386421
  0
LINE
  5
4DE
100
AcDbEntity
  8
ASSI
100
AcDbLine
 62
7
  6
CONTINUOUS
 10
-23.9139125143
 20
1.1270386421
 11
-22.918068914
 21
1.1270386421
  0
LINE
  5
4DF
100
AcDbEntity
  8
RACCORDO
100
AcDbLine
 62
7
  6
CONTINUOUS
 10
22.4413697036
 20
1.1270386421
 11
23.4372133039
 21
1.1270386421
  0
LINE
  5
4E0
100
AcDbEntity
  8
ASSI
100
AcDbLine
 62
7
  6
CONTINUOUS
 10
22.4413697036
 20
1.1270386421
 11
23.4372133039
 21
1.1270386421
  0
LINE
  5
4E1
100
AcDbEntity
  8
RACCORDO
100
AcDbLine
 62
7
  6
CONTINUOUS
 10
23.4372133039
 20
1.7572183824
 11
22.4413697036
 21
1.7572183824
  0
LINE
  5
4E2
100
AcDbEntity
  8
ASSI
100
AcDbLine
 62
7
  6
CONTINUOUS
 10
23.4372133039
 20
1.7572183824
 11
22.4413697036
 21
1.7572183824
  0
LINE
  5
4E3
100
AcDbEntity
  8
RACCORDO
100
AcDbLine
 62
7
  6
CONTINUOUS
 10
-22.918068914
 20
1.7572183824
 11
-23.9139125143
 21
1.7572183824
  0
LINE
  5
4E4
100
AcDbEntity
  8
ASSI
100
AcDbLine
 62
7
  6
CONTINUOUS
 10
-22.918068914
 20
1.7572183824
 11
-23.9139125143
 21
1.7572183824
  0
LINE
  5
4E5
100
AcDbEntity
  8
RACCORDO
100
AcDbLine
 62
7
  6
CONTINUOUS
 10
-23.5626830939
 20
1.8136377861
 11
-22.5668403314
 21
1.8136377861
  0
LINE
  5
4E6
100
AcDbEntity
  8
ASSI
100
AcDbLine
 62
7
  6
CONTINUOUS
 10
-23.5626830939
 20
1.8136377861
 11
-22.5668403314
 21
1.8136377861
  0
LINE
  5
4E7
100
AcDbEntity
  8
RACCORDO
100
AcDbLine
 62
7
  6
CONTINUOUS
 10
22.090141121
 20
1.8136377861
 11
23.0859838835
 21
1.8136377861
  0
LINE
  5
4E8
100
AcDbEntity
  8
ASSI
100
AcDbLine
 62
7
  6
CONTINUOUS
 10
22.090141121
 20
1.8136377861
 11
23.0859838835
 21
1.8136377861
  0
LINE
  5
4E9
100
AcDbEntity
  8
RACCORDO
100
AcDbLine
 62
253
  6
CONTINUOUS
 10
6.5564595737
 20
-6.3027263581
 11
6.5265135839
 21
-6.2727803683
  0
LINE
  5
4EA
100
AcDbEntity
  8
ASSI
100
AcDbLine
 62
253
  6
CONTINUOUS
 10
6.5564595737
 20
-6.3027263581
 11
6.5265135839
 21
-6.2727803683
  0
LINE
  5
4EB
100
AcDbEntity
  8
DRAFT
100
AcDbLine
 62
7
  6
CONTINUOUS
 10
2.2581593818
 20
7.2130745902
 11
2.2581593818
 21
2.3711824343
  0
LINE
  5
4EC
100
AcDbEntity
  8
DRAFT
100
AcDbLine
 62
7
  6
CONTINUOUS
 10
2.6616503948
 20
5.5963572631
 11
2.6616503948
 21
3.9878997614
  0
LINE
  5
4ED
100
AcDbEntity
  8
ASSI
100
AcDbLine
 62
7
  6
CONTINUOUS
 10
2.6616503948
 20
5.5963572631
 11
2.6616503948
 21
3.9878997614
  0
LINE
  5
4EE
100
AcDbEntity
  8
DRAFT
100
AcDbLine
 62
7
  6
CONTINUOUS
 10
2.7291054597
 20
7.2095835772
 11
2.7291054597
 21
5.6008560447
  0
LINE
  5
4EF
100
AcDbEntity
  8
DRAFT
100
AcDbLine
 62
7
  6
CONTINUOUS
 10
2.7291054597
 20
3.9834009798
 11
2.7291054597
 21
2.3746734473
  0
LINE
  5
4F0
100
AcDbEntity
  8
DRAFT
100
AcDbLine
 62
7
  6
CONTINUOUS
 10
2.7616503948
 20
0.7921285123
 11
2.7616503948
 21
3.9834009798
  0
LINE
  5
4F1
100
AcDbEntity
  8
ASSI
100
AcDbLine
 62
7
  6
CONTINUOUS
 10
2.7616503948
 20
0.7921285123
 11
2.7616503948
 21
3.9834009798
  0
LINE
  5
4F2
100
AcDbEntity
  8
DRAFT
100
AcDbLine
 62
7
  6
CONTINUOUS
 10
2.7616503948
 20
5.6008560447
 11
2.7616503948
 21
7.2921285123
  0
LINE
  5
4F3
100
AcDbEntity
  8
ASSI
100
AcDbLine
 62
7
  6
CONTINUOUS
 10
2.7616503948
 20
5.6008560447
 11
2.7616503948
 21
7.2921285123
  0
LINE
  5
4F4
100
AcDbEntity
  8
DRAFT
100
AcDbLine
 62
7
  6
CONTINUOUS
 10
2.9039153679
 20
5.5921285123
 11
2.9039153679
 21
3.9921285123
  0
LINE
  5
4F5
100
AcDbEntity
  8
ASSI
100
AcDbLine
 62
7
  6
CONTINUOUS
 10
2.9039153679
 20
5.5921285123
 11
2.9039153679
 21
3.9921285123
  0
LINE
  5
4F6
100
AcDbEntity
  8
RACCORDO
100
AcDbLine
 62
253
  6
CONTINUOUS
 10
3.3015881333
 20
3.9921285123
 11
3.3015881333
 21
5.5921285123
  0
LINE
  5
4F7
100
AcDbEntity
  8
ASSI
100
AcDbLine
 62
253
  6
CONTINUOUS
 10
3.3015881333
 20
3.9921285123
 11
3.3015881333
 21
5.5921285123
  0
LINE
  5
4F8
100
AcDbEntity
  8
DRAFT
100
AcDbLine
 62
7
  6
CONTINUOUS
 10
2.2581593818
 20
2.3711824343
 11
-2.7348585922
 21
2.3711824343
  0
LINE
  5
4F9
100
AcDbEntity
  8
DRAFT
100
AcDbLine
 62
7
  6
CONTINUOUS
 10
-3.2058046701
 20
2.3746734473
 11
-2.7383496052
 21
2.3746734473
  0
LINE
  5
4FA
100
AcDbEntity
  8
DRAFT
100
AcDbLine
 62
7
  6
CONTINUOUS
 10
2.7291054597
 20
2.3746734473
 11
2.2616503948
 21
2.3746734473
  0
LINE
  5
4FB
100
AcDbEntity
  8
RACCORDO
100
AcDbLine
 62
7
  6
CONTINUOUS
 10
-20.0102644213
 20
3.0702593876
 11
-19.7664347891
 21
3.0702593876
  0
LINE
  5
4FC
100
AcDbEntity
  8
ASSI
100
AcDbLine
 62
7
  6
CONTINUOUS
 10
-20.0102644213
 20
3.0702593876
 11
-19.7664347891
 21
3.0702593876
  0
LINE
  5
4FD
100
AcDbEntity
  8
RACCORDO
100
AcDbLine
 62
7
  6
CONTINUOUS
 10
19.2897355787
 20
3.0702593876
 11
19.5335652109
 21
3.0702593876
  0
LINE
  5
4FE
100
AcDbEntity
  8
ASSI
100
AcDbLine
 62
7
  6
CONTINUOUS
 10
19.2897355787
 20
3.0702593876
 11
19.5335652109
 21
3.0702593876
  0
LINE
  5
4FF
100
AcDbEntity
  8
RACCORDO
100
AcDbLine
 62
253
  6
CONTINUOUS
 10
-19.9795154477
 20
3.1010083612
 11
-19.7971837626
 21
3.1010083612
  0
LINE
  5
500
100
AcDbEntity
  8
ASSI
100
AcDbLine
 62
253
  6
CONTINUOUS
 10
-19.9795154477
 20
3.1010083612
 11
-19.7971837626
 21
3.1010083612
  0
LINE
  5
501
100
AcDbEntity
  8
RACCORDO
100
AcDbLine
 62
253
  6
CONTINUOUS
 10
19.3204845523
 20
3.1010083612
 11
19.5028162374
 21
3.1010083612
  0
LINE
  5
502
100
AcDbEntity
  8
ASSI
100
AcDbLine
 62
253
  6
CONTINUOUS
 10
19.3204845523
 20
3.1010083612
 11
19.5028162374
 21
3.1010083612
  0
LINE
  5
503
100
AcDbEntity
  8
RACCORDO
100
AcDbLine
 62
253
  6
CONTINUOUS
 10
-20.2760396699
 20
3.6009322087
 11
-19.5006595405
 21
3.6009322087
  0
LINE
  5
504
100
AcDbEntity
  8
ASSI
100
AcDbLine
 62
253
  6
CONTINUOUS
 10
-20.2760396699
 20
3.6009322087
 11
-19.5006595405
 21
3.6009322087
  0
LINE
  5
505
100
AcDbEntity
  8
RACCORDO
100
AcDbLine
 62
253
  6
CONTINUOUS
 10
19.7993404595
 20
3.6009322087
 11
19.0239603301
 21
3.6009322087
  0
LINE
  5
506
100
AcDbEntity
  8
ASSI
100
AcDbLine
 62
253
  6
CONTINUOUS
 10
19.7993404595
 20
3.6009322087
 11
19.0239603301
 21
3.6009322087
  0
LINE
  5
507
100
AcDbEntity
  8
RACCORDO
100
AcDbLine
 62
253
  6
CONTINUOUS
 10
3.5834959196
 20
3.9886829879
 11
3.5834959196
 21
5.5955740366
  0
LINE
  5
508
100
AcDbEntity
  8
ASSI
100
AcDbLine
 62
253
  6
CONTINUOUS
 10
3.5834959196
 20
3.9886829879
 11
3.5834959196
 21
5.5955740366
  0
LINE
  5
509
100
AcDbEntity
  8
RACCORDO
100
AcDbLine
 62
253
  6
CONTINUOUS
 10
4.1850262569
 20
3.9665514704
 11
4.1915491618
 21
5.6180185239
  0
LINE
  5
50A
100
AcDbEntity
  8
ASSI
100
AcDbLine
 62
253
  6
CONTINUOUS
 10
4.1850262569
 20
3.9665514704
 11
4.1915491618
 21
5.6180185239
  0
LINE
  5
50B
100
AcDbEntity
  8
DRAFT
100
AcDbLine
 62
7
  6
CONTINUOUS
 10
21.0741163854
 20
8.044493707
 11
20.8116503948
 21
7.9921285123
  0
LINE
  5
50C
100
AcDbEntity
  8
ASSI
100
AcDbLine
 62
7
  6
CONTINUOUS
 10
21.0741163854
 20
8.044493707
 11
20.8116503948
 21
7.9921285123
  0
LINE
  5
50D
100
AcDbEntity
  8
DRAFT
100
AcDbLine
 62
7
  6
CONTINUOUS
 10
21.0741163854
 20
9.1851464863
 11
20.8116503948
 21
9.1327812915
  0
LINE
  5
50E
100
AcDbEntity
  8
ASSI
100
AcDbLine
 62
7
  6
CONTINUOUS
 10
21.0741163854
 20
9.1851464863
 11
20.8116503948
 21
9.1327812915
  0
LINE
  5
50F
100
AcDbEntity
  8
RACCORDO
100
AcDbLine
 62
7
  6
CONTINUOUS
 10
-4.06019513
 20
3.9886829879
 11
-4.4737857292
 21
3.9688482595
  0
LINE
  5
510
100
AcDbEntity
  8
ASSI
100
AcDbLine
 62
7
  6
CONTINUOUS
 10
-4.06019513
 20
3.9886829879
 11
-4.4737857292
 21
3.9688482595
  0
LINE
  5
511
100
AcDbEntity
  8
RACCORDO
100
AcDbLine
 62
7
  6
CONTINUOUS
 10
4.0035974338
 20
5.6157210116
 11
3.5834959196
 21
5.5955740366
  0
LINE
  5
512
100
AcDbEntity
  8
ASSI
100
AcDbLine
 62
7
  6
CONTINUOUS
 10
4.0035974338
 20
5.6157210116
 11
3.5834959196
 21
5.5955740366
  0
LINE
  5
513
100
AcDbEntity
  8
DRAFT
100
AcDbLine
 62
7
  6
CONTINUOUS
 10
2.9039153679
 20
3.9921285123
 11
2.6616503948
 21
3.9878997614
  0
LINE
  5
514
100
AcDbEntity
  8
ASSI
100
AcDbLine
 62
7
  6
CONTINUOUS
 10
2.9039153679
 20
3.9921285123
 11
2.6616503948
 21
3.9878997614
  0
LINE
  5
515
100
AcDbEntity
  8
ASSI
100
AcDbLine
 62
7
  6
CONTINUOUS
 10
-3.2383496052
 20
3.9834009798
 11
-3.2058046701
 21
3.9837289574
  0
LINE
  5
516
100
AcDbEntity
  8
DRAFT
100
AcDbLine
 62
7
  6
CONTINUOUS
 10
-3.2383496052
 20
3.9834009798
 11
-3.1383496052
 21
3.9844087484
  0
LINE
  5
517
100
AcDbEntity
  8
RACCORDO
100
AcDbLine
 62
7
  6
CONTINUOUS
 10
4.1850262569
 20
3.9665514704
 11
2.7616503948
 21
3.9665514704
  0
LINE
  5
518
100
AcDbEntity
  8
ASSI
100
AcDbLine
 62
7
  6
CONTINUOUS
 10
4.1850262569
 20
3.9665514704
 11
2.7616503948
 21
3.9665514704
  0
LINE
  5
519
100
AcDbEntity
  8
RACCORDO
100
AcDbLine
 62
7
  6
CONTINUOUS
 10
-3.2383496052
 20
3.9665514704
 11
-4.6617254673
 21
3.9665514704
  0
LINE
  5
51A
100
AcDbEntity
  8
ASSI
100
AcDbLine
 62
7
  6
CONTINUOUS
 10
-3.2383496052
 20
3.9665514704
 11
-4.6617254673
 21
3.9665514704
  0
LINE
  5
51B
100
AcDbEntity
  8
RACCORDO
100
AcDbLine
 62
7
  6
CONTINUOUS
 10
3.3015881333
 20
3.9921285123
 11
2.9039153679
 21
3.9921285123
  0
LINE
  5
51C
100
AcDbEntity
  8
ASSI
100
AcDbLine
 62
7
  6
CONTINUOUS
 10
3.3015881333
 20
3.9921285123
 11
2.9039153679
 21
3.9921285123
  0
LINE
  5
51D
100
AcDbEntity
  8
RACCORDO
100
AcDbLine
 62
7
  6
CONTINUOUS
 10
-3.3806145783
 20
3.9921285123
 11
-3.7782873437
 21
3.9921285123
  0
LINE
  5
51E
100
AcDbEntity
  8
ASSI
100
AcDbLine
 62
7
  6
CONTINUOUS
 10
-3.3806145783
 20
3.9921285123
 11
-3.7782873437
 21
3.9921285123
  0
LINE
  5
51F
100
AcDbEntity
  8
RACCORDO
100
AcDbLine
 62
253
  6
CONTINUOUS
 10
19.0239603301
 20
4.9850217311
 11
19.7993404595
 21
4.9850217311
  0
LINE
  5
520
100
AcDbEntity
  8
ASSI
100
AcDbLine
 62
253
  6
CONTINUOUS
 10
19.0239603301
 20
4.9850217311
 11
19.7993404595
 21
4.9850217311
  0
LINE
  5
521
100
AcDbEntity
  8
RACCORDO
100
AcDbLine
 62
253
  6
CONTINUOUS
 10
-19.5006595405
 20
4.9850217311
 11
-20.2760396699
 21
4.9850217311
  0
LINE
  5
522
100
AcDbEntity
  8
ASSI
100
AcDbLine
 62
253
  6
CONTINUOUS
 10
-19.5006595405
 20
4.9850217311
 11
-20.2760396699
 21
4.9850217311
  0
LINE
  5
523
100
AcDbEntity
  8
RACCORDO
100
AcDbLine
 62
253
  6
CONTINUOUS
 10
19.5004075047
 20
5.338509794
 11
19.3228932851
 21
5.3385097861
  0
LINE
  5
524
100
AcDbEntity
  8
ASSI
100
AcDbLine
 62
253
  6
CONTINUOUS
 10
19.5004075047
 20
5.338509794
 11
19.3228932851
 21
5.3385097861
  0
LINE
  5
525
100
AcDbEntity
  8
RACCORDO
100
AcDbLine
 62
253
  6
CONTINUOUS
 10
-19.7995924953
 20
5.338509794
 11
-19.9771067149
 21
5.3385097861
  0
LINE
  5
526
100
AcDbEntity
  8
ASSI
100
AcDbLine
 62
253
  6
CONTINUOUS
 10
-19.7995924953
 20
5.338509794
 11
-19.9771067149
 21
5.3385097861
  0
LINE
  5
527
100
AcDbEntity
  8
DRAFT
100
AcDbLine
 62
7
  6
CONTINUOUS
 10
2.6616503948
 20
3.9844087484
 11
2.7616503948
 21
3.9834009798
  0
LINE
  5
528
100
AcDbEntity
  8
ASSI
100
AcDbLine
 62
7
  6
CONTINUOUS
 10
2.7291054597
 20
3.9837289574
 11
2.7616503948
 21
3.9834009798
  0
LINE
  5
529
100
AcDbEntity
  8
DRAFT
100
AcDbLine
 62
7
  6
CONTINUOUS
 10
-3.1383496052
 20
3.9878997614
 11
-3.3806145783
 21
3.9921285123
  0
LINE
  5
52A
100
AcDbEntity
  8
ASSI
100
AcDbLine
 62
7
  6
CONTINUOUS
 10
-3.1383496052
 20
3.9878997614
 11
-3.3806145783
 21
3.9921285123
  0
LINE
  5
52B
100
AcDbEntity
  8
RACCORDO
100
AcDbLine
 62
7
  6
CONTINUOUS
 10
3.9970865188
 20
3.9688482595
 11
3.5834959196
 21
3.9886829879
  0
LINE
  5
52C
100
AcDbEntity
  8
ASSI
100
AcDbLine
 62
7
  6
CONTINUOUS
 10
3.9970865188
 20
3.9688482595
 11
3.5834959196
 21
3.9886829879
  0
LINE
  5
52D
100
AcDbEntity
  8
RACCORDO
100
AcDbLine
 62
7
  6
CONTINUOUS
 10
-4.06019513
 20
5.5955740366
 11
-4.4802966442
 21
5.6157210116
  0
LINE
  5
52E
100
AcDbEntity
  8
ASSI
100
AcDbLine
 62
7
  6
CONTINUOUS
 10
-4.06019513
 20
5.5955740366
 11
-4.4802966442
 21
5.6157210116
  0
LINE
  5
52F
100
AcDbEntity
  8
DRAFT
100
AcDbLine
 62
7
  6
CONTINUOUS
 10
-21.5508155958
 20
8.044493707
 11
-21.2883496052
 21
7.9921285123
  0
LINE
  5
530
100
AcDbEntity
  8
ASSI
100
AcDbLine
 62
7
  6
CONTINUOUS
 10
-21.5508155958
 20
8.044493707
 11
-21.2883496052
 21
7.9921285123
  0
LINE
  5
531
100
AcDbEntity
  8
DRAFT
100
AcDbLine
 62
7
  6
CONTINUOUS
 10
-21.5508155958
 20
9.1851464863
 11
-21.2883496052
 21
9.1327812915
  0
LINE
  5
532
100
AcDbEntity
  8
ASSI
100
AcDbLine
 62
7
  6
CONTINUOUS
 10
-21.5508155958
 20
9.1851464863
 11
-21.2883496052
 21
9.1327812915
  0
LINE
  5
533
100
AcDbEntity
  8
RACCORDO
100
AcDbLine
 62
7
  6
CONTINUOUS
 10
6.2316003009
 20
-7.6311277187
 11
6.2565052652
 21
-7.8827118389
  0
LINE
  5
534
100
AcDbEntity
  8
ASSI
100
AcDbLine
 62
7
  6
CONTINUOUS
 10
6.2316003009
 20
-7.6311277187
 11
6.2565052652
 21
-7.8827118389
  0
LINE
  5
535
100
AcDbEntity
  8
RACCORDO
100
AcDbLine
 62
253
  6
CONTINUOUS
 10
6.2565052652
 20
-7.8827118389
 11
6.2565052652
 21
-6.6026806667
  0
LINE
  5
536
100
AcDbEntity
  8
ASSI
100
AcDbLine
 62
253
  6
CONTINUOUS
 10
6.2565052652
 20
-7.8827118389
 11
6.2565052652
 21
-6.6026806667
  0
LINE
  5
537
100
AcDbEntity
  8
RACCORDO
100
AcDbLine
 62
253
  6
CONTINUOUS
 10
6.5564595737
 20
-7.934686734
 11
6.5564595737
 21
-6.3027263581
  0
LINE
  5
538
100
AcDbEntity
  8
ASSI
100
AcDbLine
 62
253
  6
CONTINUOUS
 10
6.5564595737
 20
-7.934686734
 11
6.5564595737
 21
-6.3027263581
  0
LINE
  5
539
100
AcDbEntity
  8
RACCORDO
100
AcDbLine
 62
253
  6
CONTINUOUS
 10
6.7668412159
 20
-6.3027263581
 11
6.7668412159
 21
-7.934686734
  0
LINE
  5
53A
100
AcDbEntity
  8
ASSI
100
AcDbLine
 62
253
  6
CONTINUOUS
 10
6.7668412159
 20
-6.3027263581
 11
6.7668412159
 21
-7.934686734
  0
LINE
  5
53B
100
AcDbEntity
  8
DRAFT
100
AcDbLine
 62
7
  6
CONTINUOUS
 10
-3.1383496052
 20
5.5963572631
 11
-3.3806145783
 21
5.5921285123
  0
LINE
  5
53C
100
AcDbEntity
  8
ASSI
100
AcDbLine
 62
7
  6
CONTINUOUS
 10
-3.1383496052
 20
5.5963572631
 11
-3.3806145783
 21
5.5921285123
  0
LINE
  5
53D
100
AcDbEntity
  8
DRAFT
100
AcDbLine
 62
7
  6
CONTINUOUS
 10
2.6616503948
 20
5.5998482761
 11
2.7616503948
 21
5.6008560447
  0
LINE
  5
53E
100
AcDbEntity
  8
ASSI
100
AcDbLine
 62
7
  6
CONTINUOUS
 10
2.7291054597
 20
5.6005280671
 11
2.7616503948
 21
5.6008560447
  0
LINE
  5
53F
100
AcDbEntity
  8
RACCORDO
100
AcDbLine
 62
7
  6
CONTINUOUS
 10
3.3015881333
 20
5.5921285123
 11
2.9039153679
 21
5.5921285123
  0
LINE
  5
540
100
AcDbEntity
  8
ASSI
100
AcDbLine
 62
7
  6
CONTINUOUS
 10
3.3015881333
 20
5.5921285123
 11
2.9039153679
 21
5.5921285123
  0
LINE
  5
541
100
AcDbEntity
  8
RACCORDO
100
AcDbLine
 62
7
  6
CONTINUOUS
 10
-3.3806145783
 20
5.5921285123
 11
-3.7782873437
 21
5.5921285123
  0
LINE
  5
542
100
AcDbEntity
  8
ASSI
100
AcDbLine
 62
7
  6
CONTINUOUS
 10
-3.3806145783
 20
5.5921285123
 11
-3.7782873437
 21
5.5921285123
  0
LINE
  5
543
100
AcDbEntity
  8
RACCORDO
100
AcDbLine
 62
7
  6
CONTINUOUS
 10
-4.6682483721
 20
5.6180185239
 11
-3.2383496052
 21
5.6180185239
  0
LINE
  5
544
100
AcDbEntity
  8
ASSI
100
AcDbLine
 62
7
  6
CONTINUOUS
 10
-4.6682483721
 20
5.6180185239
 11
-3.2383496052
 21
5.6180185239
  0
LINE
  5
545
100
AcDbEntity
  8
RACCORDO
100
AcDbLine
 62
7
  6
CONTINUOUS
 10
2.7616503948
 20
5.6180185239
 11
4.1915491618
 21
5.6180185239
  0
LINE
  5
546
100
AcDbEntity
  8
ASSI
100
AcDbLine
 62
7
  6
CONTINUOUS
 10
2.7616503948
 20
5.6180185239
 11
4.1915491618
 21
5.6180185239
  0
LINE
  5
547
100
AcDbEntity
  8
RACCORDO
100
AcDbLine
 62
253
  6
CONTINUOUS
 10
19.3105493561
 20
6.0456930053
 11
19.5127514431
 21
6.0456935552
  0
LINE
  5
548
100
AcDbEntity
  8
ASSI
100
AcDbLine
 62
253
  6
CONTINUOUS
 10
19.3105493561
 20
6.0456930053
 11
19.5127514431
 21
6.0456935552
  0
LINE
  5
549
100
AcDbEntity
  8
RACCORDO
100
AcDbLine
 62
253
  6
CONTINUOUS
 10
-19.9894506439
 20
6.0456930053
 11
-19.7872485569
 21
6.0456935552
  0
LINE
  5
54A
100
AcDbEntity
  8
ASSI
100
AcDbLine
 62
253
  6
CONTINUOUS
 10
-19.9894506439
 20
6.0456930053
 11
-19.7872485569
 21
6.0456935552
  0
LINE
  5
54B
100
AcDbEntity
  8
RACCORDO
100
AcDbLine
 62
253
  6
CONTINUOUS
 10
-19.4832044756
 20
6.3992352934
 11
-20.2934947348
 21
6.3992352934
  0
LINE
  5
54C
100
AcDbEntity
  8
ASSI
100
AcDbLine
 62
253
  6
CONTINUOUS
 10
-19.4832044756
 20
6.3992352934
 11
-20.2934947348
 21
6.3992352934
  0
LINE
  5
54D
100
AcDbEntity
  8
RACCORDO
100
AcDbLine
 62
253
  6
CONTINUOUS
 10
19.0065052652
 20
6.3992352934
 11
19.8167955244
 21
6.3992352934
  0
LINE
  5
54E
100
AcDbEntity
  8
ASSI
100
AcDbLine
 62
253
  6
CONTINUOUS
 10
19.0065052652
 20
6.3992352934
 11
19.8167955244
 21
6.3992352934
  0
LINE
  5
54F
100
AcDbEntity
  8
DRAFT
100
AcDbLine
 62
7
  6
CONTINUOUS
 10
-3.2058046701
 20
7.2095835772
 11
-2.7383496052
 21
7.2095835772
  0
LINE
  5
550
100
AcDbEntity
  8
DRAFT
100
AcDbLine
 62
7
  6
CONTINUOUS
 10
2.7291054597
 20
7.2095835772
 11
2.2616503948
 21
7.2095835772
  0
LINE
  5
551
100
AcDbEntity
  8
DRAFT
100
AcDbLine
 62
7
  6
CONTINUOUS
 10
-2.7348585922
 20
7.2130745902
 11
2.2581593818
 21
7.2130745902
  0
LINE
  5
552
100
AcDbEntity
  8
DRAFT
100
AcDbLine
 62
7
  6
CONTINUOUS
 10
-3.2383496052
 20
5.6008560447
 11
-3.1383496052
 21
5.5998482761
  0
LINE
  5
553
100
AcDbEntity
  8
ASSI
100
AcDbLine
 62
7
  6
CONTINUOUS
 10
-3.2383496052
 20
5.6008560447
 11
-3.2058046701
 21
5.6005280671
  0
LINE
  5
554
100
AcDbEntity
  8
DRAFT
100
AcDbLine
 62
7
  6
CONTINUOUS
 10
2.9039153679
 20
5.5921285123
 11
2.6616503948
 21
5.5963572631
  0
LINE
  5
555
100
AcDbEntity
  8
ASSI
100
AcDbLine
 62
7
  6
CONTINUOUS
 10
2.9039153679
 20
5.5921285123
 11
2.6616503948
 21
5.5963572631
  0
LINE
  5
556
100
AcDbEntity
  8
0
100
AcDbLine
 62
7
  6
CONTINUOUS
 10
7.4593743948
 20
-3.5401724877
 11
6.9204843948
 21
-1.8403094877
  0
LINE
  5
557
100
AcDbEntity
  8
ASSI
100
AcDbLine
 62
7
  6
CONTINUOUS
 10
7.4593743948
 20
-3.5401724877
 11
6.9204843948
 21
-1.8403094877
  0
LINE
  5
558
100
AcDbEntity
  8
0
100
AcDbLine
 62
7
  6
CONTINUOUS
 10
7.6299623948
 20
-3.0103774877
 11
7.3059373948
 21
-1.8403094877
  0
LINE
  5
559
100
AcDbEntity
  8
ASSI
100
AcDbLine
 62
7
  6
CONTINUOUS
 10
7.6299623948
 20
-3.0103774877
 11
7.3059373948
 21
-1.8403094877
  0
LINE
  5
55A
100
AcDbEntity
  8
RACCORDO
100
AcDbLine
 62
253
  6
CONTINUOUS
 10
7.0667955244
 20
-6.6026806667
 11
7.0667955244
 21
-7.8827118389
  0
LINE
  5
55B
100
AcDbEntity
  8
ASSI
100
AcDbLine
 62
253
  6
CONTINUOUS
 10
7.0667955244
 20
-6.6026806667
 11
7.0667955244
 21
-7.8827118389
  0
LINE
  5
55C
100
AcDbEntity
  8
0
100
AcDbLine
 62
7
  6
CONTINUOUS
 10
8.4501483948
 20
-3.5401724877
 11
8.4501483948
 21
-1.8402074877
  0
LINE
  5
55D
100
AcDbEntity
  8
ASSI
100
AcDbLine
 62
7
  6
CONTINUOUS
 10
8.4501483948
 20
-3.5401724877
 11
8.4501483948
 21
-1.8402074877
  0
LINE
  5
55E
100
AcDbEntity
  8
0
100
AcDbLine
 62
7
  6
CONTINUOUS
 10
8.8049763948
 20
-3.5401724877
 11
8.8049763948
 21
-1.8402074877
  0
LINE
  5
55F
100
AcDbEntity
  8
ASSI
100
AcDbLine
 62
7
  6
CONTINUOUS
 10
8.8049763948
 20
-3.5401724877
 11
8.8049763948
 21
-1.8402074877
  0
LINE
  5
560
100
AcDbEntity
  8
RACCORDO
100
AcDbLine
 62
7
  6
CONTINUOUS
 10
7.0958556493
 20
-7.5891532583
 11
7.0667955244
 21
-7.8827118389
  0
LINE
  5
561
100
AcDbEntity
  8
ASSI
100
AcDbLine
 62
7
  6
CONTINUOUS
 10
7.0958556493
 20
-7.5891532583
 11
7.0667955244
 21
-7.8827118389
  0
LINE
  5
562
100
AcDbEntity
  8
0
100
AcDbLine
 62
7
  6
CONTINUOUS
 10
7.6299623948
 20
-3.0103774877
 11
7.9638843948
 21
-1.8403094877
  0
LINE
  5
563
100
AcDbEntity
  8
ASSI
100
AcDbLine
 62
7
  6
CONTINUOUS
 10
7.6299623948
 20
-3.0103774877
 11
7.9638843948
 21
-1.8403094877
  0
LINE
  5
564
100
AcDbEntity
  8
0
100
AcDbLine
 62
7
  6
CONTINUOUS
 10
7.7720663948
 20
-3.5401724877
 11
8.3184703948
 21
-1.8403094877
  0
LINE
  5
565
100
AcDbEntity
  8
ASSI
100
AcDbLine
 62
7
  6
CONTINUOUS
 10
7.7720663948
 20
-3.5401724877
 11
8.3184703948
 21
-1.8403094877
  0
LINE
  5
566
100
AcDbEntity
  8
RACCORDO
100
AcDbLine
 62
7
  6
CONTINUOUS
 10
19.0065052652
 20
7.9869833826
 11
18.9889996789
 21
7.9694777963
  0
LINE
  5
567
100
AcDbEntity
  8
ASSI
100
AcDbLine
 62
7
  6
CONTINUOUS
 10
19.0065052652
 20
7.9869833826
 11
18.9889996789
 21
7.9694777963
  0
LINE
  5
568
100
AcDbEntity
  8
0
100
AcDbLine
 62
7
  6
CONTINUOUS
 10
-3.2383496052
 20
7.2921285123
 11
2.7616503948
 21
7.2921285123
  0
LINE
  5
569
100
AcDbEntity
  8
ASSI
100
AcDbLine
 62
7
  6
CONTINUOUS
 10
-3.2383496052
 20
7.2921285123
 11
2.7616503948
 21
7.2921285123
  0
LINE
  5
56A
100
AcDbEntity
  8
DRAFT
100
AcDbLine
 62
7
  6
CONTINUOUS
 10
-25.0383496052
 20
7.9327812915
 11
-23.9383496052
 21
7.9327812915
  0
LINE
  5
56B
100
AcDbEntity
  8
ASSI
100
AcDbLine
 62
7
  6
CONTINUOUS
 10
-25.0383496052
 20
7.9327812915
 11
-23.9383496052
 21
7.9327812915
  0
LINE
  5
56C
100
AcDbEntity
  8
DRAFT
100
AcDbLine
 62
7
  6
CONTINUOUS
 10
23.4616503948
 20
7.9327812915
 11
24.5616503948
 21
7.9327812915
  0
LINE
  5
56D
100
AcDbEntity
  8
ASSI
100
AcDbLine
 62
7
  6
CONTINUOUS
 10
23.4616503948
 20
7.9327812915
 11
24.5616503948
 21
7.9327812915
  0
LINE
  5
56E
100
AcDbEntity
  8
RACCORDO
100
AcDbLine
 62
253
  6
CONTINUOUS
 10
-25.0365127088
 20
7.9346181879
 11
-23.9365127088
 21
7.9346181879
  0
LINE
  5
56F
100
AcDbEntity
  8
ASSI
100
AcDbLine
 62
253
  6
CONTINUOUS
 10
-25.0365127088
 20
7.9346181879
 11
-23.9365127088
 21
7.9346181879
  0
LINE
  5
570
100
AcDbEntity
  8
RACCORDO
100
AcDbLine
 62
253
  6
CONTINUOUS
 10
23.4598134984
 20
7.9346181879
 11
24.5598134984
 21
7.9346181879
  0
LINE
  5
571
100
AcDbEntity
  8
ASSI
100
AcDbLine
 62
253
  6
CONTINUOUS
 10
23.4598134984
 20
7.9346181879
 11
24.5598134984
 21
7.9346181879
  0
LINE
  5
572
100
AcDbEntity
  8
RACCORDO
100
AcDbLine
 62
7
  6
CONTINUOUS
 10
-23.5615424601
 20
7.9694777963
 11
-20.3110003211
 21
7.9694777963
  0
LINE
  5
573
100
AcDbEntity
  8
ASSI
100
AcDbLine
 62
7
  6
CONTINUOUS
 10
-23.5615424601
 20
7.9694777963
 11
-20.3110003211
 21
7.9694777963
  0
LINE
  5
574
100
AcDbEntity
  8
DRAFT
100
AcDbLine
 62
7
  6
CONTINUOUS
 10
-19.4656988893
 20
7.9694777963
 11
18.9889996789
 21
7.9694777963
  0
LINE
  5
575
100
AcDbEntity
  8
ASSI
100
AcDbLine
 62
7
  6
CONTINUOUS
 10
-19.4656988893
 20
7.9694777963
 11
18.9889996789
 21
7.9694777963
  0
LINE
  5
576
100
AcDbEntity
  8
RACCORDO
100
AcDbLine
 62
7
  6
CONTINUOUS
 10
19.8343011107
 20
7.9694777963
 11
23.0848432497
 21
7.9694777963
  0
LINE
  5
577
100
AcDbEntity
  8
ASSI
100
AcDbLine
 62
7
  6
CONTINUOUS
 10
19.8343011107
 20
7.9694777963
 11
23.0848432497
 21
7.9694777963
  0
LINE
  5
578
100
AcDbEntity
  8
RACCORDO
100
AcDbLine
 62
7
  6
CONTINUOUS
 10
-21.2883496052
 20
7.9921285123
 11
-19.9935404263
 21
7.9921285123
  0
LINE
  5
579
100
AcDbEntity
  8
ASSI
100
AcDbLine
 62
7
  6
CONTINUOUS
 10
-21.2883496052
 20
7.9921285123
 11
-19.9935404263
 21
7.9921285123
  0
LINE
  5
57A
100
AcDbEntity
  8
RACCORDO
100
AcDbLine
 62
7
  6
CONTINUOUS
 10
-19.7831587841
 20
7.9921285123
 11
19.3064595737
 21
7.9921285123
  0
LINE
  5
57B
100
AcDbEntity
  8
ASSI
100
AcDbLine
 62
7
  6
CONTINUOUS
 10
-19.7831587841
 20
7.9921285123
 11
19.3064595737
 21
7.9921285123
  0
LINE
  5
57C
100
AcDbEntity
  8
RACCORDO
100
AcDbLine
 62
7
  6
CONTINUOUS
 10
19.5168412159
 20
7.9921285123
 11
20.8116503948
 21
7.9921285123
  0
LINE
  5
57D
100
AcDbEntity
  8
ASSI
100
AcDbLine
 62
7
  6
CONTINUOUS
 10
19.5168412159
 20
7.9921285123
 11
20.8116503948
 21
7.9921285123
  0
LINE
  5
57E
100
AcDbEntity
  8
DRAFT
100
AcDbLine
 62
7
  6
CONTINUOUS
 10
-23.9313675792
 20
8.044493707
 11
-21.5508155958
 21
8.044493707
  0
LINE
  5
57F
100
AcDbEntity
  8
ASSI
100
AcDbLine
 62
7
  6
CONTINUOUS
 10
-23.9313675792
 20
8.044493707
 11
-21.5508155958
 21
8.044493707
  0
LINE
  5
580
100
AcDbEntity
  8
DRAFT
100
AcDbLine
 62
7
  6
CONTINUOUS
 10
21.0741163854
 20
8.044493707
 11
23.4546683688
 21
8.044493707
  0
LINE
  5
581
100
AcDbEntity
  8
ASSI
100
AcDbLine
 62
7
  6
CONTINUOUS
 10
21.0741163854
 20
8.044493707
 11
23.4546683688
 21
8.044493707
  0
LINE
  5
582
100
AcDbEntity
  8
RACCORDO
100
AcDbLine
 62
253
  6
CONTINUOUS
 10
-25.0313675792
 20
8.2345724964
 11
-23.9313675792
 21
8.2345724964
  0
LINE
  5
583
100
AcDbEntity
  8
ASSI
100
AcDbLine
 62
253
  6
CONTINUOUS
 10
-25.0313675792
 20
8.2345724964
 11
-23.9313675792
 21
8.2345724964
  0
LINE
  5
584
100
AcDbEntity
  8
RACCORDO
100
AcDbLine
 62
253
  6
CONTINUOUS
 10
23.4546683688
 20
8.2345724964
 11
24.5546683688
 21
8.2345724964
  0
LINE
  5
585
100
AcDbEntity
  8
ASSI
100
AcDbLine
 62
253
  6
CONTINUOUS
 10
23.4546683688
 20
8.2345724964
 11
24.5546683688
 21
8.2345724964
  0
LINE
  5
586
100
AcDbEntity
  8
RACCORDO
100
AcDbLine
 62
253
  6
CONTINUOUS
 10
17.4565052652
 20
-6.6026806667
 11
17.4267549673
 21
-6.5729303688
  0
LINE
  5
587
100
AcDbEntity
  8
ASSI
100
AcDbLine
 62
253
  6
CONTINUOUS
 10
17.4565052652
 20
-6.6026806667
 11
17.4267549673
 21
-6.5729303688
  0
LINE
  5
588
100
AcDbEntity
  8
RACCORDO
100
AcDbLine
 62
253
  6
CONTINUOUS
 10
17.7564595737
 20
-6.3027263581
 11
17.7265135839
 21
-6.2727803683
  0
LINE
  5
589
100
AcDbEntity
  8
ASSI
100
AcDbLine
 62
253
  6
CONTINUOUS
 10
17.7564595737
 20
-6.3027263581
 11
17.7265135839
 21
-6.2727803683
  0
LINE
  5
58A
100
AcDbEntity
  8
0
100
AcDbLine
 62
7
  6
CONTINUOUS
 10
9.8282743948
 20
-3.5401724877
 11
9.4120183948
 21
-2.4301934877
  0
LINE
  5
58B
100
AcDbEntity
  8
ASSI
100
AcDbLine
 62
7
  6
CONTINUOUS
 10
9.8282743948
 20
-3.5401724877
 11
9.4120183948
 21
-2.4301934877
  0
LINE
  5
58C
100
AcDbEntity
  8
0
100
AcDbLine
 62
7
  6
CONTINUOUS
 10
9.8550943948
 20
-2.7840784877
 11
9.5040133948
 21
-1.8403094877
  0
LINE
  5
58D
100
AcDbEntity
  8
ASSI
100
AcDbLine
 62
7
  6
CONTINUOUS
 10
9.8550943948
 20
-2.7840784877
 11
9.5040133948
 21
-1.8403094877
  0
LINE
  5
58E
100
AcDbEntity
  8
0
100
AcDbLine
 62
7
  6
CONTINUOUS
 10
10.7199463948
 20
-3.5401724877
 11
10.5609893948
 21
-1.8403094877
  0
LINE
  5
58F
100
AcDbEntity
  8
ASSI
100
AcDbLine
 62
7
  6
CONTINUOUS
 10
10.7199463948
 20
-3.5401724877
 11
10.5609893948
 21
-1.8403094877
  0
LINE
  5
590
100
AcDbEntity
  8
0
100
AcDbLine
 62
7
  6
CONTINUOUS
 10
10.3728303948
 20
-3.5401724877
 11
10.2999293948
 21
-2.4348204877
  0
LINE
  5
591
100
AcDbEntity
  8
ASSI
100
AcDbLine
 62
7
  6
CONTINUOUS
 10
10.3728303948
 20
-3.5401724877
 11
10.2999293948
 21
-2.4348204877
  0
LINE
  5
592
100
AcDbEntity
  8
0
100
AcDbLine
 62
7
  6
CONTINUOUS
 10
9.3354463948
 20
-3.5401724877
 11
9.4120183948
 21
-2.4301934877
  0
LINE
  5
593
100
AcDbEntity
  8
ASSI
100
AcDbLine
 62
7
  6
CONTINUOUS
 10
9.3354463948
 20
-3.5401724877
 11
9.4120183948
 21
-2.4301934877
  0
LINE
  5
594
100
AcDbEntity
  8
0
100
AcDbLine
 62
7
  6
CONTINUOUS
 10
8.9959913948
 20
-3.5401724877
 11
9.1494783948
 21
-1.8403094877
  0
LINE
  5
595
100
AcDbEntity
  8
ASSI
100
AcDbLine
 62
7
  6
CONTINUOUS
 10
8.9959913948
 20
-3.5401724877
 11
9.1494783948
 21
-1.8403094877
  0
LINE
  5
596
100
AcDbEntity
  8
0
100
AcDbLine
 62
7
  6
CONTINUOUS
 10
9.8550943948
 20
-2.7840784877
 11
10.2099223948
 21
-1.8403094877
  0
LINE
  5
597
100
AcDbEntity
  8
ASSI
100
AcDbLine
 62
7
  6
CONTINUOUS
 10
9.8550943948
 20
-2.7840784877
 11
10.2099223948
 21
-1.8403094877
  0
LINE
  5
598
100
AcDbEntity
  8
0
100
AcDbLine
 62
7
  6
CONTINUOUS
 10
9.8780383948
 20
-3.5401724877
 11
10.2999293948
 21
-2.4348204877
  0
LINE
  5
599
100
AcDbEntity
  8
ASSI
100
AcDbLine
 62
7
  6
CONTINUOUS
 10
9.8780383948
 20
-3.5401724877
 11
10.2999293948
 21
-2.4348204877
  0
LINE
  5
59A
100
AcDbEntity
  8
RACCORDO
100
AcDbLine
 62
253
  6
CONTINUOUS
 10
6.7967872057
 20
-6.2727803683
 11
6.7668412159
 21
-6.3027263581
  0
LINE
  5
59B
100
AcDbEntity
  8
ASSI
100
AcDbLine
 62
253
  6
CONTINUOUS
 10
6.7967872057
 20
-6.2727803683
 11
6.7668412159
 21
-6.3027263581
  0
LINE
  5
59C
100
AcDbEntity
  8
RACCORDO
100
AcDbLine
 62
253
  6
CONTINUOUS
 10
7.0965458223
 20
-6.5729303688
 11
7.0667955244
 21
-6.6026806667
  0
LINE
  5
59D
100
AcDbEntity
  8
ASSI
100
AcDbLine
 62
253
  6
CONTINUOUS
 10
7.0965458223
 20
-6.5729303688
 11
7.0667955244
 21
-6.6026806667
  0
LINE
  5
59E
100
AcDbEntity
  8
DRAFT
100
AcDbLine
 62
7
  6
CONTINUOUS
 10
-21.2883496052
 20
9.1327812915
 11
20.8116503948
 21
9.1327812915
  0
LINE
  5
59F
100
AcDbEntity
  8
ASSI
100
AcDbLine
 62
7
  6
CONTINUOUS
 10
-21.2883496052
 20
9.1327812915
 11
20.8116503948
 21
9.1327812915
  0
LINE
  5
5A0
100
AcDbEntity
  8
RACCORDO
100
AcDbLine
 62
7
  6
CONTINUOUS
 10
-24.7814056554
 20
9.1851464863
 11
-21.5508155958
 21
9.1851464863
  0
LINE
  5
5A1
100
AcDbEntity
  8
ASSI
100
AcDbLine
 62
7
  6
CONTINUOUS
 10
-24.7814056554
 20
9.1851464863
 11
-21.5508155958
 21
9.1851464863
  0
LINE
  5
5A2
100
AcDbEntity
  8
RACCORDO
100
AcDbLine
 62
7
  6
CONTINUOUS
 10
21.0741163854
 20
9.1851464863
 11
24.304706445
 21
9.1851464863
  0
LINE
  5
5A3
100
AcDbEntity
  8
ASSI
100
AcDbLine
 62
7
  6
CONTINUOUS
 10
21.0741163854
 20
9.1851464863
 11
24.304706445
 21
9.1851464863
  0
LINE
  5
5A4
100
AcDbEntity
  8
0
100
AcDbLine
 62
7
  6
CONTINUOUS
 10
11.7996883948
 20
-3.5401724877
 11
11.7077693948
 21
-3.2008194877
  0
LINE
  5
5A5
100
AcDbEntity
  8
ASSI
100
AcDbLine
 62
7
  6
CONTINUOUS
 10
11.7996883948
 20
-3.5401724877
 11
11.7077693948
 21
-3.2008194877
  0
LINE
  5
5A6
100
AcDbEntity
  8
0
100
AcDbLine
 62
7
  6
CONTINUOUS
 10
11.6368563948
 20
-2.9382294877
 11
11.4738083948
 21
-2.3073884877
  0
LINE
  5
5A7
100
AcDbEntity
  8
ASSI
100
AcDbLine
 62
7
  6
CONTINUOUS
 10
11.6368563948
 20
-2.9382294877
 11
11.4738083948
 21
-2.3073884877
  0
LINE
  5
5A8
100
AcDbEntity
  8
0
100
AcDbLine
 62
7
  6
CONTINUOUS
 10
12.2778570587
 20
-3.5401721745
 11
12.2778570587
 21
-1.8601694056
  0
LINE
  5
5A9
100
AcDbEntity
  8
ASSI
100
AcDbLine
 62
7
  6
CONTINUOUS
 10
12.2778570587
 20
-3.5401721745
 11
12.2778570587
 21
-1.8601694056
  0
LINE
  5
5AA
100
AcDbEntity
  8
0
100
AcDbLine
 62
7
  6
CONTINUOUS
 10
11.2971343948
 20
-2.9382294877
 11
11.4738083948
 21
-2.3073884877
  0
LINE
  5
5AB
100
AcDbEntity
  8
ASSI
100
AcDbLine
 62
7
  6
CONTINUOUS
 10
11.2971343948
 20
-2.9382294877
 11
11.4738083948
 21
-2.3073884877
  0
LINE
  5
5AC
100
AcDbEntity
  8
0
100
AcDbLine
 62
7
  6
CONTINUOUS
 10
11.1266413948
 20
-3.5401724877
 11
11.2245523948
 21
-3.2008194877
  0
LINE
  5
5AD
100
AcDbEntity
  8
ASSI
100
AcDbLine
 62
7
  6
CONTINUOUS
 10
11.1266413948
 20
-3.5401724877
 11
11.2245523948
 21
-3.2008194877
  0
LINE
  5
5AE
100
AcDbEntity
  8
0
100
AcDbLine
 62
7
  6
CONTINUOUS
 10
10.7756633948
 20
-3.5401724877
 11
11.3088483948
 21
-1.8403094877
  0
LINE
  5
5AF
100
AcDbEntity
  8
ASSI
100
AcDbLine
 62
7
  6
CONTINUOUS
 10
10.7756633948
 20
-3.5401724877
 11
11.3088483948
 21
-1.8403094877
  0
LINE
  5
5B0
100
AcDbEntity
  8
RACCORDO
100
AcDbLine
 62
7
  6
CONTINUOUS
 10
23.3847973161
 20
7.9746226543
 11
23.4546683688
 21
8.044493707
  0
LINE
  5
5B1
100
AcDbEntity
  8
ASSI
100
AcDbLine
 62
7
  6
CONTINUOUS
 10
23.3847973161
 20
7.9746226543
 11
23.4546683688
 21
8.044493707
  0
LINE
  5
5B2
100
AcDbEntity
  8
RACCORDO
100
AcDbLine
 62
253
  6
CONTINUOUS
 10
18.989705014
 20
3.37013744
 11
19.0205302437
 21
3.4009626697
  0
LINE
  5
5B3
100
AcDbEntity
  8
ASSI
100
AcDbLine
 62
253
  6
CONTINUOUS
 10
18.989705014
 20
3.37013744
 11
19.0205302437
 21
3.4009626697
  0
LINE
  5
5B4
100
AcDbEntity
  8
RACCORDO
100
AcDbLine
 62
253
  6
CONTINUOUS
 10
19.2897355787
 20
3.0702593876
 11
19.3204845523
 21
3.1010083612
  0
LINE
  5
5B5
100
AcDbEntity
  8
ASSI
100
AcDbLine
 62
253
  6
CONTINUOUS
 10
19.2897355787
 20
3.0702593876
 11
19.3204845523
 21
3.1010083612
  0
LINE
  5
5B6
100
AcDbEntity
  8
RACCORDO
100
AcDbLine
 62
7
  6
CONTINUOUS
 10
22.141415395
 20
-6.137636488
 11
22.0938970685
 21
-6.0901181614
  0
LINE
  5
5B7
100
AcDbEntity
  8
ASSI
100
AcDbLine
 62
7
  6
CONTINUOUS
 10
22.141415395
 20
-6.137636488
 11
22.0938970685
 21
-6.0901181614
  0
LINE
  5
5B8
100
AcDbEntity
  8
RACCORDO
100
AcDbLine
 62
7
  6
CONTINUOUS
 10
23.3897017703
 20
-6.095270084
 11
23.4372133039
 21
-6.1427816176
  0
LINE
  5
5B9
100
AcDbEntity
  8
ASSI
100
AcDbLine
 62
7
  6
CONTINUOUS
 10
23.3897017703
 20
-6.095270084
 11
23.4372133039
 21
-6.1427816176
  0
LINE
  5
5BA
100
AcDbEntity
  8
0
100
AcDbLine
 62
7
  6
CONTINUOUS
 10
12.1736623948
 20
-3.5401724877
 11
11.6521023948
 21
-1.8403094877
  0
LINE
  5
5BB
100
AcDbEntity
  8
ASSI
100
AcDbLine
 62
7
  6
CONTINUOUS
 10
12.1736623948
 20
-3.5401724877
 11
11.6521023948
 21
-1.8403094877
  0
LINE
  5
5BC
100
AcDbEntity
  8
0
100
AcDbLine
 62
7
  6
CONTINUOUS
 10
12.6194918264
 20
-2.5965433192
 11
12.6194918264
 21
-2.1298978368
  0
LINE
  5
5BD
100
AcDbEntity
  8
ASSI
100
AcDbLine
 62
7
  6
CONTINUOUS
 10
12.6194918264
 20
-2.5965433192
 11
12.6194918264
 21
-2.1298978368
  0
LINE
  5
5BE
100
AcDbEntity
  8
0
100
AcDbLine
 62
7
  6
CONTINUOUS
 10
12.6312573908
 20
-3.5401721745
 11
12.6312573908
 21
-2.8749397719
  0
LINE
  5
5BF
100
AcDbEntity
  8
ASSI
100
AcDbLine
 62
7
  6
CONTINUOUS
 10
12.6312573908
 20
-3.5401721745
 11
12.6312573908
 21
-2.8749397719
  0
LINE
  5
5C0
100
AcDbEntity
  8
0
100
AcDbLine
 62
7
  6
CONTINUOUS
 10
13.1901025776
 20
-2.7466912961
 11
13.1901025776
 21
-2.736646589
  0
LINE
  5
5C1
100
AcDbEntity
  8
ASSI
100
AcDbLine
 62
7
  6
CONTINUOUS
 10
13.1901025776
 20
-2.7466912961
 11
13.1901025776
 21
-2.736646589
  0
LINE
  5
5C2
100
AcDbEntity
  8
DRAFT
100
AcDbLine
 62
7
  6
CONTINUOUS
 10
23.4571428097
 20
-4.1533639027
 11
23.4441953299
 21
-4.1404164228
  0
LINE
  5
5C3
100
AcDbEntity
  8
ASSI
100
AcDbLine
 62
7
  6
CONTINUOUS
 10
23.4571428097
 20
-4.1533639027
 11
23.4441953299
 21
-4.1404164228
  0
LINE
  5
5C4
100
AcDbEntity
  8
DRAFT
100
AcDbLine
 62
7
  6
CONTINUOUS
 10
23.7571428089
 20
-4.1533639019
 11
23.6833500449
 21
-4.0795711378
  0
LINE
  5
5C5
100
AcDbEntity
  8
ASSI
100
AcDbLine
 62
7
  6
CONTINUOUS
 10
23.7571428089
 20
-4.1533639019
 11
23.6833500449
 21
-4.0795711378
  0
LINE
  5
5C6
100
AcDbEntity
  8
RACCORDO
100
AcDbLine
 62
7
  6
CONTINUOUS
 10
22.141415395
 20
1.1218935125
 11
22.0903844296
 21
1.0708625471
  0
LINE
  5
5C7
100
AcDbEntity
  8
ASSI
100
AcDbLine
 62
7
  6
CONTINUOUS
 10
22.141415395
 20
1.1218935125
 11
22.0903844296
 21
1.0708625471
  0
LINE
  5
5C8
100
AcDbEntity
  8
RACCORDO
100
AcDbLine
 62
7
  6
CONTINUOUS
 10
23.3861815848
 20
1.076006923
 11
23.4372133039
 21
1.1270386421
  0
LINE
  5
5C9
100
AcDbEntity
  8
ASSI
100
AcDbLine
 62
7
  6
CONTINUOUS
 10
23.3861815848
 20
1.076006923
 11
23.4372133039
 21
1.1270386421
  0
LINE
  5
5CA
100
AcDbEntity
  8
DRAFT
100
AcDbLine
 62
7
  6
CONTINUOUS
 10
22.6791054597
 20
-1.6753265527
 11
22.7411381529
 21
-1.7373592458
  0
LINE
  5
5CB
100
AcDbEntity
  8
ASSI
100
AcDbLine
 62
7
  6
CONTINUOUS
 10
22.6791054597
 20
-1.6753265527
 11
22.7411381529
 21
-1.7373592458
  0
LINE
  5
5CC
100
AcDbEntity
  8
RACCORDO
100
AcDbLine
 62
7
  6
CONTINUOUS
 10
23.386979166
 20
-0.9925474797
 11
23.4441953299
 21
-1.0497636436
  0
LINE
  5
5CD
100
AcDbEntity
  8
ASSI
100
AcDbLine
 62
7
  6
CONTINUOUS
 10
23.386979166
 20
-0.9925474797
 11
23.4441953299
 21
-1.0497636436
  0
LINE
  5
5CE
100
AcDbEntity
  8
RACCORDO
100
AcDbLine
 62
7
  6
CONTINUOUS
 10
17.4274451403
 20
-7.5891532583
 11
17.4565052652
 21
-7.8827118389
  0
LINE
  5
5CF
100
AcDbEntity
  8
ASSI
100
AcDbLine
 62
7
  6
CONTINUOUS
 10
17.4274451403
 20
-7.5891532583
 11
17.4565052652
 21
-7.8827118389
  0
LINE
  5
5D0
100
AcDbEntity
  8
RACCORDO
100
AcDbLine
 62
253
  6
CONTINUOUS
 10
17.4565052652
 20
-7.8827118389
 11
17.4565052652
 21
-6.6026806667
  0
LINE
  5
5D1
100
AcDbEntity
  8
ASSI
100
AcDbLine
 62
253
  6
CONTINUOUS
 10
17.4565052652
 20
-7.8827118389
 11
17.4565052652
 21
-6.6026806667
  0
LINE
  5
5D2
100
AcDbEntity
  8
RACCORDO
100
AcDbLine
 62
253
  6
CONTINUOUS
 10
17.9967872057
 20
-6.2727803683
 11
17.9668412159
 21
-6.3027263581
  0
LINE
  5
5D3
100
AcDbEntity
  8
ASSI
100
AcDbLine
 62
253
  6
CONTINUOUS
 10
17.9967872057
 20
-6.2727803683
 11
17.9668412159
 21
-6.3027263581
  0
LINE
  5
5D4
100
AcDbEntity
  8
RACCORDO
100
AcDbLine
 62
253
  6
CONTINUOUS
 10
18.2965458223
 20
-6.5729303688
 11
18.2667955244
 21
-6.6026806667
  0
LINE
  5
5D5
100
AcDbEntity
  8
ASSI
100
AcDbLine
 62
253
  6
CONTINUOUS
 10
18.2965458223
 20
-6.5729303688
 11
18.2667955244
 21
-6.6026806667
  0
LINE
  5
5D6
100
AcDbEntity
  8
RACCORDO
100
AcDbLine
 62
253
  6
CONTINUOUS
 10
19.5028162374
 20
3.1010083612
 11
19.5335652109
 21
3.0702593876
  0
LINE
  5
5D7
100
AcDbEntity
  8
ASSI
100
AcDbLine
 62
253
  6
CONTINUOUS
 10
19.5028162374
 20
3.1010083612
 11
19.5335652109
 21
3.0702593876
  0
LINE
  5
5D8
100
AcDbEntity
  8
RACCORDO
100
AcDbLine
 62
253
  6
CONTINUOUS
 10
19.8027705459
 20
3.4009626697
 11
19.8335957756
 21
3.37013744
  0
LINE
  5
5D9
100
AcDbEntity
  8
ASSI
100
AcDbLine
 62
253
  6
CONTINUOUS
 10
19.8027705459
 20
3.4009626697
 11
19.8335957756
 21
3.37013744
  0
LINE
  5
5DA
100
AcDbEntity
  8
RACCORDO
100
AcDbLine
 62
7
  6
CONTINUOUS
 10
22.141415395
 20
1.762363512
 11
22.090141121
 21
1.8136377861
  0
LINE
  5
5DB
100
AcDbEntity
  8
ASSI
100
AcDbLine
 62
7
  6
CONTINUOUS
 10
22.141415395
 20
1.762363512
 11
22.090141121
 21
1.8136377861
  0
LINE
  5
5DC
100
AcDbEntity
  8
RACCORDO
100
AcDbLine
 62
253
  6
CONTINUOUS
 10
19.0229378361
 20
5.1264430873
 11
19.0105952413
 21
5.8335498685
  0
LINE
  5
5DD
100
AcDbEntity
  8
ASSI
100
AcDbLine
 62
253
  6
CONTINUOUS
 10
19.0229378361
 20
5.1264430873
 11
19.0105952413
 21
5.8335498685
  0
LINE
  5
5DE
100
AcDbEntity
  8
RACCORDO
100
AcDbLine
 62
253
  6
CONTINUOUS
 10
17.7564595737
 20
-7.934686734
 11
17.7564595737
 21
-6.3027263581
  0
LINE
  5
5DF
100
AcDbEntity
  8
ASSI
100
AcDbLine
 62
253
  6
CONTINUOUS
 10
17.7564595737
 20
-7.934686734
 11
17.7564595737
 21
-6.3027263581
  0
LINE
  5
5E0
100
AcDbEntity
  8
RACCORDO
100
AcDbLine
 62
253
  6
CONTINUOUS
 10
17.9668412159
 20
-6.3027263581
 11
17.9668412159
 21
-7.934686734
  0
LINE
  5
5E1
100
AcDbEntity
  8
ASSI
100
AcDbLine
 62
253
  6
CONTINUOUS
 10
17.9668412159
 20
-6.3027263581
 11
17.9668412159
 21
-7.934686734
  0
LINE
  5
5E2
100
AcDbEntity
  8
RACCORDO
100
AcDbLine
 62
253
  6
CONTINUOUS
 10
18.2667955244
 20
-6.6026806667
 11
18.2667955244
 21
-7.8827118389
  0
LINE
  5
5E3
100
AcDbEntity
  8
ASSI
100
AcDbLine
 62
253
  6
CONTINUOUS
 10
18.2667955244
 20
-6.6026806667
 11
18.2667955244
 21
-7.8827118389
  0
LINE
  5
5E4
100
AcDbEntity
  8
RACCORDO
100
AcDbLine
 62
253
  6
CONTINUOUS
 10
19.0065052652
 20
6.3992352934
 11
19.0065052652
 21
7.9869833826
  0
LINE
  5
5E5
100
AcDbEntity
  8
ASSI
100
AcDbLine
 62
253
  6
CONTINUOUS
 10
19.0065052652
 20
6.3992352934
 11
19.0065052652
 21
7.9869833826
  0
LINE
  5
5E6
100
AcDbEntity
  8
RACCORDO
100
AcDbLine
 62
253
  6
CONTINUOUS
 10
19.0239603301
 20
3.6009322087
 11
19.0239603301
 21
4.9850217311
  0
LINE
  5
5E7
100
AcDbEntity
  8
ASSI
100
AcDbLine
 62
253
  6
CONTINUOUS
 10
19.0239603301
 20
3.6009322087
 11
19.0239603301
 21
4.9850217311
  0
LINE
  5
5E8
100
AcDbEntity
  8
RACCORDO
100
AcDbLine
 62
253
  6
CONTINUOUS
 10
19.3064595737
 20
6.3992467999
 11
19.3064595737
 21
7.9921285123
  0
LINE
  5
5E9
100
AcDbEntity
  8
ASSI
100
AcDbLine
 62
253
  6
CONTINUOUS
 10
19.3064595737
 20
6.3992467999
 11
19.3064595737
 21
7.9921285123
  0
LINE
  5
5EA
100
AcDbEntity
  8
RACCORDO
100
AcDbLine
 62
253
  6
CONTINUOUS
 10
19.3239146387
 20
3.6009322087
 11
19.3239146387
 21
4.9850217311
  0
LINE
  5
5EB
100
AcDbEntity
  8
ASSI
100
AcDbLine
 62
253
  6
CONTINUOUS
 10
19.3239146387
 20
3.6009322087
 11
19.3239146387
 21
4.9850217311
  0
LINE
  5
5EC
100
AcDbEntity
  8
RACCORDO
100
AcDbLine
 62
253
  6
CONTINUOUS
 10
19.5127514431
 20
6.0456935552
 11
19.5004075047
 21
5.338509794
  0
LINE
  5
5ED
100
AcDbEntity
  8
ASSI
100
AcDbLine
 62
253
  6
CONTINUOUS
 10
19.5127514431
 20
6.0456935552
 11
19.5004075047
 21
5.338509794
  0
LINE
  5
5EE
100
AcDbEntity
  8
RACCORDO
100
AcDbLine
 62
7
  6
CONTINUOUS
 10
18.2917004887
 20
-7.6311277187
 11
18.2667955244
 21
-7.8827118389
  0
LINE
  5
5EF
100
AcDbEntity
  8
ASSI
100
AcDbLine
 62
7
  6
CONTINUOUS
 10
18.2917004887
 20
-7.6311277187
 11
18.2667955244
 21
-7.8827118389
  0
LINE
  5
5F0
100
AcDbEntity
  8
DRAFT
100
AcDbLine
 62
7
  6
CONTINUOUS
 10
23.4616503948
 20
-1.6578714877
 11
23.4441953299
 21
-1.6753265527
  0
LINE
  5
5F1
100
AcDbEntity
  8
ASSI
100
AcDbLine
 62
7
  6
CONTINUOUS
 10
23.4616503948
 20
-1.6578714877
 11
23.4441953299
 21
-1.6753265527
  0
LINE
  5
5F2
100
AcDbEntity
  8
DRAFT
100
AcDbLine
 62
7
  6
CONTINUOUS
 10
23.7616503948
 20
-1.6578714877
 11
23.6821626367
 21
-1.7373592458
  0
LINE
  5
5F3
100
AcDbEntity
  8
ASSI
100
AcDbLine
 62
7
  6
CONTINUOUS
 10
23.7616503948
 20
-1.6578714877
 11
23.6821626367
 21
-1.7373592458
  0
LINE
  5
5F4
100
AcDbEntity
  8
DRAFT
100
AcDbLine
 62
7
  6
CONTINUOUS
 10
22.6791054597
 20
-4.1404164228
 11
22.7399507447
 21
-4.0795711378
  0
LINE
  5
5F5
100
AcDbEntity
  8
ASSI
100
AcDbLine
 62
7
  6
CONTINUOUS
 10
22.6791054597
 20
-4.1404164228
 11
22.7399507447
 21
-4.0795711378
  0
LINE
  5
5F6
100
AcDbEntity
  8
RACCORDO
100
AcDbLine
 62
7
  6
CONTINUOUS
 10
23.3859414773
 20
1.808490209
 11
23.4372133039
 21
1.7572183824
  0
LINE
  5
5F7
100
AcDbEntity
  8
ASSI
100
AcDbLine
 62
7
  6
CONTINUOUS
 10
23.3859414773
 20
1.808490209
 11
23.4372133039
 21
1.7572183824
  0
LINE
  5
5F8
100
AcDbEntity
  8
RACCORDO
100
AcDbLine
 62
253
  6
CONTINUOUS
 10
19.3228932851
 20
5.3385097861
 11
19.3105493561
 21
6.0456930053
  0
LINE
  5
5F9
100
AcDbEntity
  8
ASSI
100
AcDbLine
 62
253
  6
CONTINUOUS
 10
19.3228932851
 20
5.3385097861
 11
19.3105493561
 21
6.0456930053
  0
LINE
  5
5FA
100
AcDbEntity
  8
RACCORDO
100
AcDbLine
 62
253
  6
CONTINUOUS
 10
19.4993861509
 20
4.9850217311
 11
19.4993861509
 21
3.6009322087
  0
LINE
  5
5FB
100
AcDbEntity
  8
ASSI
100
AcDbLine
 62
253
  6
CONTINUOUS
 10
19.4993861509
 20
4.9850217311
 11
19.4993861509
 21
3.6009322087
  0
LINE
  5
5FC
100
AcDbEntity
  8
RACCORDO
100
AcDbLine
 62
253
  6
CONTINUOUS
 10
19.5168412159
 20
7.9921285123
 11
19.5168412159
 21
6.3992464695
  0
LINE
  5
5FD
100
AcDbEntity
  8
ASSI
100
AcDbLine
 62
253
  6
CONTINUOUS
 10
19.5168412159
 20
7.9921285123
 11
19.5168412159
 21
6.3992464695
  0
LINE
  5
5FE
100
AcDbEntity
  8
RACCORDO
100
AcDbLine
 62
253
  6
CONTINUOUS
 10
19.7993404595
 20
4.9850217311
 11
19.7993404595
 21
3.6009322087
  0
LINE
  5
5FF
100
AcDbEntity
  8
ASSI
100
AcDbLine
 62
253
  6
CONTINUOUS
 10
19.7993404595
 20
4.9850217311
 11
19.7993404595
 21
3.6009322087
  0
LINE
  5
600
100
AcDbEntity
  8
RACCORDO
100
AcDbLine
 62
253
  6
CONTINUOUS
 10
19.8167955244
 20
7.9869833826
 11
19.8167955244
 21
6.3992352934
  0
LINE
  5
601
100
AcDbEntity
  8
ASSI
100
AcDbLine
 62
253
  6
CONTINUOUS
 10
19.8167955244
 20
7.9869833826
 11
19.8167955244
 21
6.3992352934
  0
LINE
  5
602
100
AcDbEntity
  8
DRAFT
100
AcDbLine
 62
7
  6
CONTINUOUS
 10
20.8116503948
 20
9.1327812915
 11
20.8116503948
 21
7.9921285123
  0
LINE
  5
603
100
AcDbEntity
  8
ASSI
100
AcDbLine
 62
7
  6
CONTINUOUS
 10
20.8116503948
 20
9.1327812915
 11
20.8116503948
 21
7.9921285123
  0
LINE
  5
604
100
AcDbEntity
  8
DRAFT
100
AcDbLine
 62
7
  6
CONTINUOUS
 10
21.0741163854
 20
9.1851464863
 11
21.0741163854
 21
8.044493707
  0
LINE
  5
605
100
AcDbEntity
  8
ASSI
100
AcDbLine
 62
7
  6
CONTINUOUS
 10
21.0741163854
 20
9.1851464863
 11
21.0741163854
 21
8.044493707
  0
LINE
  5
606
100
AcDbEntity
  8
RACCORDO
100
AcDbLine
 62
253
  6
CONTINUOUS
 10
19.8127055483
 20
5.8335498685
 11
19.8003629535
 21
5.1264430873
  0
LINE
  5
607
100
AcDbEntity
  8
ASSI
100
AcDbLine
 62
253
  6
CONTINUOUS
 10
19.8127055483
 20
5.8335498685
 11
19.8003629535
 21
5.1264430873
  0
LINE
  5
608
100
AcDbEntity
  8
RACCORDO
100
AcDbLine
 62
7
  6
CONTINUOUS
 10
23.388921309
 20
-4.8212533528
 11
23.4441953299
 21
-4.7659793319
  0
LINE
  5
609
100
AcDbEntity
  8
ASSI
100
AcDbLine
 62
7
  6
CONTINUOUS
 10
23.388921309
 20
-4.8212533528
 11
23.4441953299
 21
-4.7659793319
  0
LINE
  5
60A
100
AcDbEntity
  8
RACCORDO
100
AcDbLine
 62
7
  6
CONTINUOUS
 10
22.141415395
 20
-6.7781064875
 11
22.0943773467
 21
-6.8251445359
  0
LINE
  5
60B
100
AcDbEntity
  8
ASSI
100
AcDbLine
 62
7
  6
CONTINUOUS
 10
22.141415395
 20
-6.7781064875
 11
22.0943773467
 21
-6.8251445359
  0
LINE
  5
60C
100
AcDbEntity
  8
RACCORDO
100
AcDbLine
 62
7
  6
CONTINUOUS
 10
19.8167955244
 20
7.9869833826
 11
19.8343011107
 21
7.9694777963
  0
LINE
  5
60D
100
AcDbEntity
  8
ASSI
100
AcDbLine
 62
7
  6
CONTINUOUS
 10
19.8167955244
 20
7.9869833826
 11
19.8343011107
 21
7.9694777963
  0
LINE
  5
60E
100
AcDbEntity
  8
RACCORDO
100
AcDbLine
 62
253
  6
CONTINUOUS
 10
23.0905717588
 20
-7.6311277187
 11
23.1485499565
 21
-8.2168099032
  0
LINE
  5
60F
100
AcDbEntity
  8
ASSI
100
AcDbLine
 62
253
  6
CONTINUOUS
 10
23.0905717588
 20
-7.6311277187
 11
23.1485499565
 21
-8.2168099032
  0
LINE
  5
610
100
AcDbEntity
  8
RACCORDO
100
AcDbLine
 62
253
  6
CONTINUOUS
 10
23.3905260674
 20
-7.3356853939
 11
23.4476863429
 21
-7.9131051187
  0
LINE
  5
611
100
AcDbEntity
  8
ASSI
100
AcDbLine
 62
253
  6
CONTINUOUS
 10
23.3905260674
 20
-7.3356853939
 11
23.4476863429
 21
-7.9131051187
  0
LINE
  5
612
100
AcDbEntity
  8
DRAFT
100
AcDbLine
 62
7
  6
CONTINUOUS
 10
21.6116503948
 20
-4.7799433839
 11
21.6116503948
 21
-1.0357995916
  0
LINE
  5
613
100
AcDbEntity
  8
ASSI
100
AcDbLine
 62
7
  6
CONTINUOUS
 10
21.6116503948
 20
-4.7799433839
 11
21.6116503948
 21
-1.0357995916
  0
LINE
  5
614
100
AcDbEntity
  8
RACCORDO
100
AcDbLine
 62
253
  6
CONTINUOUS
 10
22.141415395
 20
1.762363512
 11
22.141415395
 21
1.1218935125
  0
LINE
  5
615
100
AcDbEntity
  8
ASSI
100
AcDbLine
 62
253
  6
CONTINUOUS
 10
22.141415395
 20
1.762363512
 11
22.141415395
 21
1.1218935125
  0
LINE
  5
616
100
AcDbEntity
  8
RACCORDO
100
AcDbLine
 62
253
  6
CONTINUOUS
 10
22.141415395
 20
-6.137636488
 11
22.141415395
 21
-6.7781064875
  0
LINE
  5
617
100
AcDbEntity
  8
ASSI
100
AcDbLine
 62
253
  6
CONTINUOUS
 10
22.141415395
 20
-6.137636488
 11
22.141415395
 21
-6.7781064875
  0
LINE
  5
618
100
AcDbEntity
  8
DRAFT
100
AcDbLine
 62
7
  6
CONTINUOUS
 10
22.1616503948
 20
-0.9873985725
 11
22.1616503948
 21
-1.0239730407
  0
LINE
  5
619
100
AcDbEntity
  8
ASSI
100
AcDbLine
 62
7
  6
CONTINUOUS
 10
22.1616503948
 20
-0.9873985725
 11
22.1616503948
 21
-1.0239730407
  0
LINE
  5
61A
100
AcDbEntity
  8
DRAFT
100
AcDbLine
 62
7
  6
CONTINUOUS
 10
22.1616503948
 20
-4.7917699348
 11
22.1616503948
 21
-4.8263984185
  0
LINE
  5
61B
100
AcDbEntity
  8
ASSI
100
AcDbLine
 62
7
  6
CONTINUOUS
 10
22.1616503948
 20
-4.7917699348
 11
22.1616503948
 21
-4.8263984185
  0
LINE
  5
61C
100
AcDbEntity
  8
DRAFT
100
AcDbLine
 62
7
  6
CONTINUOUS
 10
22.4116503948
 20
-4.7659793319
 11
22.4116503948
 21
-1.0497636436
  0
LINE
  5
61D
100
AcDbEntity
  8
ASSI
100
AcDbLine
 62
7
  6
CONTINUOUS
 10
22.4116503948
 20
-4.7659793319
 11
22.4116503948
 21
-1.0497636436
  0
LINE
  5
61E
100
AcDbEntity
  8
RACCORDO
100
AcDbLine
 62
253
  6
CONTINUOUS
 10
22.4413697036
 20
1.7572183824
 11
22.4413697036
 21
1.1270386421
  0
LINE
  5
61F
100
AcDbEntity
  8
ASSI
100
AcDbLine
 62
253
  6
CONTINUOUS
 10
22.4413697036
 20
1.7572183824
 11
22.4413697036
 21
1.1270386421
  0
LINE
  5
620
100
AcDbEntity
  8
RACCORDO
100
AcDbLine
 62
253
  6
CONTINUOUS
 10
22.4413697036
 20
-6.1427816176
 11
22.4413697036
 21
-6.7729613579
  0
LINE
  5
621
100
AcDbEntity
  8
ASSI
100
AcDbLine
 62
253
  6
CONTINUOUS
 10
22.4413697036
 20
-6.1427816176
 11
22.4413697036
 21
-6.7729613579
  0
LINE
  5
622
100
AcDbEntity
  8
DRAFT
100
AcDbLine
 62
7
  6
CONTINUOUS
 10
22.6791054597
 20
-1.6753265527
 11
22.6791054597
 21
-4.1404164228
  0
LINE
  5
623
100
AcDbEntity
  8
ASSI
100
AcDbLine
 62
7
  6
CONTINUOUS
 10
22.6791054597
 20
-1.6753265527
 11
22.6791054597
 21
-4.1404164228
  0
LINE
  5
624
100
AcDbEntity
  8
RACCORDO
100
AcDbLine
 62
7
  6
CONTINUOUS
 10
23.3901756561
 20
-6.8199990057
 11
23.4372133039
 21
-6.7729613579
  0
LINE
  5
625
100
AcDbEntity
  8
ASSI
100
AcDbLine
 62
7
  6
CONTINUOUS
 10
23.3901756561
 20
-6.8199990057
 11
23.4372133039
 21
-6.7729613579
  0
LINE
  5
626
100
AcDbEntity
  8
RACCORDO
100
AcDbLine
 62
7
  6
CONTINUOUS
 10
23.4616503948
 20
7.9327812915
 11
23.4598134984
 21
7.9346181879
  0
LINE
  5
627
100
AcDbEntity
  8
ASSI
100
AcDbLine
 62
7
  6
CONTINUOUS
 10
23.4616503948
 20
7.9327812915
 11
23.4598134984
 21
7.9346181879
  0
LINE
  5
628
100
AcDbEntity
  8
RACCORDO
100
AcDbLine
 62
253
  6
CONTINUOUS
 10
23.0902171098
 20
-6.825144536
 11
23.0905717589
 21
-7.3475378826
  0
LINE
  5
629
100
AcDbEntity
  8
ASSI
100
AcDbLine
 62
253
  6
CONTINUOUS
 10
23.0902171098
 20
-6.825144536
 11
23.0905717589
 21
-7.3475378826
  0
LINE
  5
62A
100
AcDbEntity
  8
RACCORDO
100
AcDbLine
 62
253
  6
CONTINUOUS
 10
23.088964115
 20
-4.8263984187
 11
23.0897371717
 21
-6.090118162
  0
LINE
  5
62B
100
AcDbEntity
  8
ASSI
100
AcDbLine
 62
253
  6
CONTINUOUS
 10
23.088964115
 20
-4.8263984187
 11
23.0897371717
 21
-6.090118162
  0
LINE
  5
62C
100
AcDbEntity
  8
RACCORDO
100
AcDbLine
 62
253
  6
CONTINUOUS
 10
23.0862270199
 20
1.0708625471
 11
23.0870195084
 21
-0.9873985724
  0
LINE
  5
62D
100
AcDbEntity
  8
ASSI
100
AcDbLine
 62
253
  6
CONTINUOUS
 10
23.0862270199
 20
1.0708625471
 11
23.0870195084
 21
-0.9873985724
  0
LINE
  5
62E
100
AcDbEntity
  8
RACCORDO
100
AcDbLine
 62
253
  6
CONTINUOUS
 10
23.0848432497
 20
7.9694777963
 11
23.0859838836
 21
1.8136377862
  0
LINE
  5
62F
100
AcDbEntity
  8
ASSI
100
AcDbLine
 62
253
  6
CONTINUOUS
 10
23.0848432497
 20
7.9694777963
 11
23.0859838836
 21
1.8136377862
  0
LINE
  5
630
100
AcDbEntity
  8
DRAFT
100
AcDbLine
 62
7
  6
CONTINUOUS
 10
23.4372133039
 20
1.7572183824
 11
23.4372133039
 21
1.1270386421
  0
LINE
  5
631
100
AcDbEntity
  8
ASSI
100
AcDbLine
 62
7
  6
CONTINUOUS
 10
23.4372133039
 20
1.7572183824
 11
23.4372133039
 21
1.1270386421
  0
LINE
  5
632
100
AcDbEntity
  8
DRAFT
100
AcDbLine
 62
7
  6
CONTINUOUS
 10
23.4372133039
 20
-6.1427816176
 11
23.4372133039
 21
-6.7729613579
  0
LINE
  5
633
100
AcDbEntity
  8
ASSI
100
AcDbLine
 62
7
  6
CONTINUOUS
 10
23.4372133039
 20
-6.1427816176
 11
23.4372133039
 21
-6.7729613579
  0
LINE
  5
634
100
AcDbEntity
  8
DRAFT
100
AcDbLine
 62
7
  6
CONTINUOUS
 10
23.4441953299
 20
-1.0497636436
 11
23.4441953299
 21
-1.6753265527
  0
LINE
  5
635
100
AcDbEntity
  8
ASSI
100
AcDbLine
 62
7
  6
CONTINUOUS
 10
23.4441953299
 20
-1.0497636436
 11
23.4441953299
 21
-1.6753265527
  0
LINE
  5
636
100
AcDbEntity
  8
DRAFT
100
AcDbLine
 62
7
  6
CONTINUOUS
 10
23.4441953299
 20
-4.1404164228
 11
23.4441953299
 21
-4.7659793319
  0
LINE
  5
637
100
AcDbEntity
  8
ASSI
100
AcDbLine
 62
7
  6
CONTINUOUS
 10
23.4441953299
 20
-4.1404164228
 11
23.4441953299
 21
-4.7659793319
  0
LINE
  5
638
100
AcDbEntity
  8
RACCORDO
100
AcDbLine
 62
7
  6
CONTINUOUS
 10
23.4476863429
 20
-7.9131051187
 11
23.4476863429
 21
-9.3008931924
  0
LINE
  5
639
100
AcDbEntity
  8
ASSI
100
AcDbLine
 62
7
  6
CONTINUOUS
 10
23.4476863429
 20
-7.9131051187
 11
23.4476863429
 21
-9.3008931924
  0
LINE
  5
63A
100
AcDbEntity
  8
RACCORDO
100
AcDbLine
 62
7
  6
CONTINUOUS
 10
23.4546683688
 20
8.2345724964
 11
23.4546683688
 21
8.044493707
  0
LINE
  5
63B
100
AcDbEntity
  8
ASSI
100
AcDbLine
 62
7
  6
CONTINUOUS
 10
23.4546683688
 20
8.2345724964
 11
23.4546683688
 21
8.044493707
  0
LINE
  5
63C
100
AcDbEntity
  8
DRAFT
100
AcDbLine
 62
7
  6
CONTINUOUS
 10
23.4616503948
 20
7.9327812915
 11
23.4616503948
 21
-1.6578714877
  0
LINE
  5
63D
100
AcDbEntity
  8
ASSI
100
AcDbLine
 62
7
  6
CONTINUOUS
 10
23.4616503948
 20
7.9327812915
 11
23.4616503948
 21
-1.6578714877
  0
LINE
  5
63E
100
AcDbEntity
  8
RACCORDO
100
AcDbLine
 62
7
  6
CONTINUOUS
 10
24.5546683688
 20
8.9351845625
 11
24.5546683688
 21
8.2345724964
  0
LINE
  5
63F
100
AcDbEntity
  8
ASSI
100
AcDbLine
 62
7
  6
CONTINUOUS
 10
24.5546683688
 20
8.9351845625
 11
24.5546683688
 21
8.2345724964
  0
LINE
  5
640
100
AcDbEntity
  8
DRAFT
100
AcDbLine
 62
7
  6
CONTINUOUS
 10
24.5616503948
 20
7.9327812915
 11
24.5616503948
 21
-1.6963799244
  0
LINE
  5
641
100
AcDbEntity
  8
ASSI
100
AcDbLine
 62
7
  6
CONTINUOUS
 10
24.5616503948
 20
7.9327812915
 11
24.5616503948
 21
-1.6963799244
  0
LINE
  5
642
100
AcDbEntity
  8
DRAFT
100
AcDbLine
 62
7
  6
CONTINUOUS
 10
23.4571428097
 20
-4.1533639027
 11
23.4476881754
 21
-9.3058728655
  0
LINE
  5
643
100
AcDbEntity
  8
ASSI
100
AcDbLine
 62
7
  6
CONTINUOUS
 10
23.4571428097
 20
-4.1533639027
 11
23.4476881754
 21
-9.3058728655
  0
LINE
  5
644
100
AcDbEntity
  8
DRAFT
100
AcDbLine
 62
7
  6
CONTINUOUS
 10
23.7616503948
 20
-1.6578714877
 11
23.7571428089
 21
-4.1533639019
  0
LINE
  5
645
100
AcDbEntity
  8
ASSI
100
AcDbLine
 62
7
  6
CONTINUOUS
 10
23.7616503948
 20
-1.6578714877
 11
23.7571428089
 21
-4.1533639019
  0
LINE
  5
646
100
AcDbEntity
  8
RACCORDO
100
AcDbLine
 62
7
  6
CONTINUOUS
 10
24.5481573171
 20
-9.0511540193
 11
24.5616503948
 21
-1.6963799244
  0
LINE
  5
647
100
AcDbEntity
  8
ASSI
100
AcDbLine
 62
7
  6
CONTINUOUS
 10
24.5481573171
 20
-9.0511540193
 11
24.5616503948
 21
-1.6963799244
  0
ARC
  5
648
100
AcDbEntity
  8
RACCORDO
100
AcDbCircle
 62
253
  6
CONTINUOUS
 10
-18.2332677464
 20
-6.6027896286
 40
0.3000637852
100
AcDbArc
 50
0.0208058113
 51
89.9791941349
  0
ARC
  5
649
100
AcDbEntity
  8
RACCORDO
100
AcDbCircle
 62
253
  6
CONTINUOUS
 10
-18.443431464
 20
-6.6027896286
 40
0.3000637852
100
AcDbArc
 50
90.0208058651
 51
179.9791941887
  0
ARC
  5
64A
100
AcDbEntity
  8
RACCORDO
100
AcDbCircle
 62
253
  6
CONTINUOUS
 10
-7.0332677464
 20
-6.6027896286
 40
0.3000637852
100
AcDbArc
 50
0.0208058113
 51
89.9791941349
  0
ARC
  5
64B
100
AcDbEntity
  8
RACCORDO
100
AcDbCircle
 62
253
  6
CONTINUOUS
 10
-7.243431464
 20
-6.6027896286
 40
0.3000637852
100
AcDbArc
 50
90.0208058651
 51
179.9791941887
  0
ARC
  5
64C
100
AcDbEntity
  8
ASSI
100
AcDbCircle
 62
253
  6
CONTINUOUS
 10
-18.2332677464
 20
-6.6027896286
 40
0.3000637852
100
AcDbArc
 50
0.0208058113
 51
89.9791941349
  0
ARC
  5
64D
100
AcDbEntity
  8
ASSI
100
AcDbCircle
 62
253
  6
CONTINUOUS
 10
-7.0332677464
 20
-6.6027896286
 40
0.3000637852
100
AcDbArc
 50
0.0208058113
 51
89.9791941349
  0
ARC
  5
64E
100
AcDbEntity
  8
ASSI
100
AcDbCircle
 62
253
  6
CONTINUOUS
 10
-7.243431464
 20
-6.6027896286
 40
0.3000637852
100
AcDbArc
 50
90.0208058651
 51
179.9791941887
  0
ARC
  5
64F
100
AcDbEntity
  8
ASSI
100
AcDbCircle
 62
253
  6
CONTINUOUS
 10
-18.443431464
 20
-6.6027896286
 40
0.3000637852
100
AcDbArc
 50
90.0208058651
 51
179.9791941887
  0
ARC
  5
650
100
AcDbEntity
  8
RACCORDO
100
AcDbCircle
 62
7
  6
CONTINUOUS
 10
-18.203263434
 20
-6.5725730774
 40
0.2997999465
100
AcDbArc
 50
359.931718999
 51
89.9903218453
  0
ARC
  5
651
100
AcDbEntity
  8
RACCORDO
100
AcDbCircle
 62
7
  6
CONTINUOUS
 10
-18.4734357771
 20
-6.5725730776
 40
0.2997999466
100
AcDbArc
 50
90.0096780219
 51
180.0682809743
  0
ARC
  5
652
100
AcDbEntity
  8
RACCORDO
100
AcDbCircle
 62
7
  6
CONTINUOUS
 10
-7.003263434
 20
-6.5725730775
 40
0.2997999466
100
AcDbArc
 50
359.9317190079
 51
89.9903218364
  0
ARC
  5
653
100
AcDbEntity
  8
RACCORDO
100
AcDbCircle
 62
7
  6
CONTINUOUS
 10
-7.2734357771
 20
-6.5725730776
 40
0.2997999466
100
AcDbArc
 50
90.009678022
 51
180.0682809743
  0
ARC
  5
654
100
AcDbEntity
  8
ASSI
100
AcDbCircle
 62
7
  6
CONTINUOUS
 10
-18.203263434
 20
-6.5725730774
 40
0.2997999465
100
AcDbArc
 50
359.931718999
 51
89.9903218453
  0
ARC
  5
655
100
AcDbEntity
  8
ASSI
100
AcDbCircle
 62
7
  6
CONTINUOUS
 10
-7.003263434
 20
-6.5725730775
 40
0.2997999466
100
AcDbArc
 50
359.9317190079
 51
89.9903218364
  0
ARC
  5
656
100
AcDbEntity
  8
ASSI
100
AcDbCircle
 62
7
  6
CONTINUOUS
 10
-7.2734357771
 20
-6.5725730776
 40
0.2997999466
100
AcDbArc
 50
90.009678022
 51
180.0682809743
  0
ARC
  5
657
100
AcDbEntity
  8
ASSI
100
AcDbCircle
 62
7
  6
CONTINUOUS
 10
-18.4734357771
 20
-6.5725730776
 40
0.2997999466
100
AcDbArc
 50
90.0096780219
 51
180.0682809743
  0
ARC
  5
658
100
AcDbEntity
  8
RACCORDO
100
AcDbCircle
 62
253
  6
CONTINUOUS
 10
-31.3842334316
 20
5.0163456423
 40
50.7081457223
100
AcDbArc
 50
359.96460672
 51
0.364019784
  0
ARC
  5
659
100
AcDbEntity
  8
ASSI
100
AcDbCircle
 62
253
  6
CONTINUOUS
 10
-31.3842334316
 20
5.0163456423
 40
50.7081457223
100
AcDbArc
 50
359.96460672
 51
0.364019784
  0
ARC
  5
65A
100
AcDbEntity
  8
RACCORDO
100
AcDbCircle
 62
253
  6
CONTINUOUS
 10
-70.6842334308
 20
5.0163456445
 40
50.7081457215
100
AcDbArc
 50
359.9646067175
 51
0.3640197816
  0
ARC
  5
65B
100
AcDbEntity
  8
ASSI
100
AcDbCircle
 62
253
  6
CONTINUOUS
 10
-70.6842334308
 20
5.0163456445
 40
50.7081457215
100
AcDbArc
 50
359.9646067175
 51
0.3640197816
  0
CIRCLE
  5
65C
100
AcDbEntity
  8
0
100
AcDbCircle
 62
7
  6
CONTINUOUS
 10
-0.2383496052
 20
4.7921285123
 40
1.1
  0
CIRCLE
  5
65D
100
AcDbEntity
  8
0
100
AcDbCircle
 62
7
  6
CONTINUOUS
 10
-0.2383496052
 20
4.7921285123
 40
0.9
  0
ARC
  5
65E
100
AcDbEntity
  8
RACCORDO
100
AcDbCircle
 62
253
  6
CONTINUOUS
 10
-19.797293523
 20
3.4010724301
 40
0.3000646364
100
AcDbArc
 50
270.0209582141
 51
359.9790417859
  0
ARC
  5
65F
100
AcDbEntity
  8
ASSI
100
AcDbCircle
 62
253
  6
CONTINUOUS
 10
-19.797293523
 20
3.4010724301
 40
0.3000646364
100
AcDbArc
 50
270.0209582141
 51
359.9790417859
  0
ARC
  5
660
100
AcDbEntity
  8
RACCORDO
100
AcDbCircle
 62
253
  6
CONTINUOUS
 10
-19.9794056936
 20
3.401072424
 40
0.3000646302
100
AcDbArc
 50
180.0209570569
 51
269.9790429984
  0
ARC
  5
661
100
AcDbEntity
  8
ASSI
100
AcDbCircle
 62
253
  6
CONTINUOUS
 10
-19.9794056936
 20
3.401072424
 40
0.3000646302
100
AcDbArc
 50
180.0209570569
 51
269.9790429984
  0
ARC
  5
662
100
AcDbEntity
  8
RACCORDO
100
AcDbCircle
 62
7
  6
CONTINUOUS
 10
-19.7663891214
 20
3.3702511121
 40
0.2999882567
100
AcDbArc
 50
269.9912778681
 51
359.9782891338
  0
ARC
  5
663
100
AcDbEntity
  8
RACCORDO
100
AcDbCircle
 62
7
  6
CONTINUOUS
 10
-20.0103100837
 20
3.3702511068
 40
0.2999882567
100
AcDbArc
 50
180.021709844
 51
270.0087211096
  0
ARC
  5
664
100
AcDbEntity
  8
ASSI
100
AcDbCircle
 62
7
  6
CONTINUOUS
 10
-19.7663891214
 20
3.3702511121
 40
0.2999882567
100
AcDbArc
 50
269.9912778681
 51
359.9782891338
  0
ARC
  5
665
100
AcDbEntity
  8
ASSI
100
AcDbCircle
 62
7
  6
CONTINUOUS
 10
-20.0103100837
 20
3.3702511068
 40
0.2999882567
100
AcDbArc
 50
180.021709844
 51
270.0087211096
  0
ARC
  5
666
100
AcDbEntity
  8
RACCORDO
100
AcDbCircle
 62
253
  6
CONTINUOUS
 10
6.556568536
 20
-6.6027896286
 40
0.3000637852
100
AcDbArc
 50
90.0208058651
 51
179.9791941887
  0
ARC
  5
667
100
AcDbEntity
  8
RACCORDO
100
AcDbCircle
 62
253
  6
CONTINUOUS
 10
6.7667322536
 20
-6.6027896286
 40
0.3000637852
100
AcDbArc
 50
0.0208058113
 51
89.9791941349
  0
ARC
  5
668
100
AcDbEntity
  8
RACCORDO
100
AcDbCircle
 62
253
  6
CONTINUOUS
 10
17.9667322536
 20
-6.6027896286
 40
0.3000637852
100
AcDbArc
 50
0.0208058113
 51
89.9791941349
  0
ARC
  5
669
100
AcDbEntity
  8
RACCORDO
100
AcDbCircle
 62
253
  6
CONTINUOUS
 10
17.756568536
 20
-6.6027896286
 40
0.3000637852
100
AcDbArc
 50
90.0208058651
 51
179.9791941887
  0
ARC
  5
66A
100
AcDbEntity
  8
ASSI
100
AcDbCircle
 62
253
  6
CONTINUOUS
 10
6.556568536
 20
-6.6027896286
 40
0.3000637852
100
AcDbArc
 50
90.0208058651
 51
179.9791941887
  0
ARC
  5
66B
100
AcDbEntity
  8
ASSI
100
AcDbCircle
 62
253
  6
CONTINUOUS
 10
6.7667322536
 20
-6.6027896286
 40
0.3000637852
100
AcDbArc
 50
0.0208058113
 51
89.9791941349
  0
ARC
  5
66C
100
AcDbEntity
  8
ASSI
100
AcDbCircle
 62
253
  6
CONTINUOUS
 10
17.9667322536
 20
-6.6027896286
 40
0.3000637852
100
AcDbArc
 50
0.0208058113
 51
89.9791941349
  0
ARC
  5
66D
100
AcDbEntity
  8
ASSI
100
AcDbCircle
 62
253
  6
CONTINUOUS
 10
17.756568536
 20
-6.6027896286
 40
0.3000637852
100
AcDbArc
 50
90.0208058651
 51
179.9791941887
  0
ARC
  5
66E
100
AcDbEntity
  8
RACCORDO
100
AcDbCircle
 62
7
  6
CONTINUOUS
 10
6.5265642229
 20
-6.5725730776
 40
0.2997999466
100
AcDbArc
 50
90.0096780222
 51
180.068280974
  0
ARC
  5
66F
100
AcDbEntity
  8
RACCORDO
100
AcDbCircle
 62
7
  6
CONTINUOUS
 10
6.796736566
 20
-6.5725730775
 40
0.2997999466
100
AcDbArc
 50
359.9317190043
 51
89.99032184
  0
ARC
  5
670
100
AcDbEntity
  8
RACCORDO
100
AcDbCircle
 62
7
  6
CONTINUOUS
 10
17.996736566
 20
-6.5725730775
 40
0.2997999466
100
AcDbArc
 50
359.9317190079
 51
89.9903218364
  0
ARC
  5
671
100
AcDbEntity
  8
RACCORDO
100
AcDbCircle
 62
7
  6
CONTINUOUS
 10
17.7265642229
 20
-6.5725730776
 40
0.2997999466
100
AcDbArc
 50
90.0096780219
 51
180.0682809744
  0
ARC
  5
672
100
AcDbEntity
  8
ASSI
100
AcDbCircle
 62
7
  6
CONTINUOUS
 10
6.5265642229
 20
-6.5725730776
 40
0.2997999466
100
AcDbArc
 50
90.0096780222
 51
180.068280974
  0
ARC
  5
673
100
AcDbEntity
  8
ASSI
100
AcDbCircle
 62
7
  6
CONTINUOUS
 10
6.796736566
 20
-6.5725730775
 40
0.2997999466
100
AcDbArc
 50
359.9317190043
 51
89.99032184
  0
ARC
  5
674
100
AcDbEntity
  8
ASSI
100
AcDbCircle
 62
7
  6
CONTINUOUS
 10
17.996736566
 20
-6.5725730775
 40
0.2997999466
100
AcDbArc
 50
359.9317190079
 51
89.9903218364
  0
ARC
  5
675
100
AcDbEntity
  8
ASSI
100
AcDbCircle
 62
7
  6
CONTINUOUS
 10
17.7265642229
 20
-6.5725730776
 40
0.2997999466
100
AcDbArc
 50
90.0096780219
 51
180.0682809744
  0
ARC
  5
676
100
AcDbEntity
  8
0
100
AcDbCircle
 62
7
  6
CONTINUOUS
 10
13.0966415999
 20
-2.9593845568
 40
0.2330561558
100
AcDbArc
 50
48.1418264783
 51
53.9796874654
  0
ARC
  5
677
100
AcDbEntity
  8
ASSI
100
AcDbCircle
 62
7
  6
CONTINUOUS
 10
13.0966415999
 20
-2.9593845568
 40
0.2330561558
100
AcDbArc
 50
48.1418264783
 51
53.9796874654
  0
ARC
  5
678
100
AcDbEntity
  8
RACCORDO
100
AcDbCircle
 62
253
  6
CONTINUOUS
 10
76.3188567138
 20
4.9989631806
 40
56.8194743415
100
AcDbArc
 50
179.6576049419
 51
180.0140583183
  0
ARC
  5
679
100
AcDbEntity
  8
RACCORDO
100
AcDbCircle
 62
253
  6
CONTINUOUS
 10
37.0188567138
 20
4.9989631824
 40
56.8194743415
100
AcDbArc
 50
179.6576049437
 51
180.0140583201
  0
ARC
  5
67A
100
AcDbEntity
  8
ASSI
100
AcDbCircle
 62
253
  6
CONTINUOUS
 10
76.3188567138
 20
4.9989631806
 40
56.8194743415
100
AcDbArc
 50
179.6576049419
 51
180.0140583183
  0
ARC
  5
67B
100
AcDbEntity
  8
ASSI
100
AcDbCircle
 62
253
  6
CONTINUOUS
 10
37.0188567138
 20
4.9989631824
 40
56.8194743415
100
AcDbArc
 50
179.6576049437
 51
180.0140583201
  0
ARC
  5
67C
100
AcDbEntity
  8
RACCORDO
100
AcDbCircle
 62
253
  6
CONTINUOUS
 10
19.502706477
 20
3.4010724301
 40
0.3000646364
100
AcDbArc
 50
270.0209582141
 51
359.9790417859
  0
ARC
  5
67D
100
AcDbEntity
  8
ASSI
100
AcDbCircle
 62
253
  6
CONTINUOUS
 10
19.502706477
 20
3.4010724301
 40
0.3000646364
100
AcDbArc
 50
270.0209582141
 51
359.9790417859
  0
ARC
  5
67E
100
AcDbEntity
  8
RACCORDO
100
AcDbCircle
 62
253
  6
CONTINUOUS
 10
19.3205943064
 20
3.401072424
 40
0.3000646302
100
AcDbArc
 50
180.0209570569
 51
269.9790429984
  0
ARC
  5
67F
100
AcDbEntity
  8
ASSI
100
AcDbCircle
 62
253
  6
CONTINUOUS
 10
19.3205943064
 20
3.401072424
 40
0.3000646302
100
AcDbArc
 50
180.0209570569
 51
269.9790429984
  0
ARC
  5
680
100
AcDbEntity
  8
RACCORDO
100
AcDbCircle
 62
7
  6
CONTINUOUS
 10
19.2896899163
 20
3.3702511068
 40
0.2999882567
100
AcDbArc
 50
180.0217098447
 51
270.0087211089
  0
ARC
  5
681
100
AcDbEntity
  8
RACCORDO
100
AcDbCircle
 62
7
  6
CONTINUOUS
 10
19.5336108786
 20
3.3702511121
 40
0.2999882567
100
AcDbArc
 50
269.9912778672
 51
359.9782891347
  0
ARC
  5
682
100
AcDbEntity
  8
ASSI
100
AcDbCircle
 62
7
  6
CONTINUOUS
 10
19.2896899163
 20
3.3702511068
 40
0.2999882567
100
AcDbArc
 50
180.0217098447
 51
270.0087211089
  0
ARC
  5
683
100
AcDbEntity
  8
ASSI
100
AcDbCircle
 62
7
  6
CONTINUOUS
 10
19.5336108786
 20
3.3702511121
 40
0.2999882567
100
AcDbArc
 50
269.9912778672
 51
359.9782891347
  0
SPLINE
  5
684
100
AcDbEntity
  8
0
100
AcDbSpline
 62
7
  6
CONTINUOUS
 70
0
 71
3
 72
9
 73
5
 74
3
 42
0.0000001
 43
0.0000001
 44
0.0000000001
 12
-0.0046820729
 22
0.3133621937
 32
0.0
 13
-0.3113313703
 23
0.0361338596
 33
0.0
 40
0.0
 40
0.0
 40
0.0
 40
0.0
 40
0.4988583766
 40
1.0
 40
1.0
 40
1.0
 40
1.0
 10
13.0979050127
 20
-2.3325252823
 30
0.0
 10
13.097126449
 20
-2.2804174973
 30
0.0
 10
13.0547019028
 20
-2.1717435315
 30
0.0
 10
12.9494656522
 20
-2.1259263854
 30
0.0
 10
12.897458616
 20
-2.1198903251
 30
0.0
 11
13.0979050127
 21
-2.3325252823
 31
0.0
 11
13.0391674678
 21
-2.187634189
 31
0.0
 11
12.897458616
 21
-2.1198903251
 31
0.0
  0
SPLINE
  5
685
100
AcDbEntity
  8
0
100
AcDbSpline
 62
7
  6
CONTINUOUS
 70
0
 71
3
 72
9
 73
5
 74
3
 42
0.0000001
 43
0.0000001
 44
0.0000000001
 12
-0.2768734096
 22
0.0321345862
 32
0.0
 13
-0.2747605685
 23
-0.046883616
 33
0.0
 40
0.0
 40
0.0
 40
0.0
 40
0.0
 40
0.7295958319
 40
1.0
 40
1.0
 40
1.0
 40
1.0
 10
12.897458616
 20
-2.1198903252
 30
0.0
 10
12.8301233875
 20
-2.1120752385
 30
0.0
 10
12.736130699
 20
-2.1117739906
 30
0.0
 10
12.6442572941
 20
-2.125671995
 30
0.0
 10
12.6194918264
 20
-2.1298978368
 30
0.0
 11
12.897458616
 21
-2.1198903252
 31
0.0
 11
12.694098156
 21
-2.1191940652
 31
0.0
 11
12.6194918264
 21
-2.1298978368
 31
0.0
  0
SPLINE
  5
686
100
AcDbEntity
  8
0
100
AcDbSpline
 62
7
  6
CONTINUOUS
 70
0
 71
3
 72
9
 73
5
 74
3
 42
0.0000001
 43
0.0000001
 44
0.0000000001
 12
0.4232572624
 22
0.0094537593
 32
0.0
 13
-0.0063259437
 23
0.4233860928
 33
0.0
 40
0.0
 40
0.0
 40
0.0
 40
0.0
 40
0.4795375616
 40
1.0
 40
1.0
 40
1.0
 40
1.0
 10
12.8222725393
 20
-2.5965433192
 30
0.0
 10
12.8899284578
 20
-2.595032175
 30
0.0
 10
13.0470705284
 20
-2.5664104045
 30
0.0
 10
13.09900247
 20
-2.4059774687
 30
0.0
 10
13.097904998
 20
-2.3325252826
 30
0.0
 11
12.8222725393
 21
-2.5965433192
 31
0.0
 11
13.0164457793
 21
-2.5372709426
 31
0.0
 11
13.097904998
 21
-2.3325252826
 31
0.0
  0
SPLINE
  5
687
100
AcDbEntity
  8
0
100
AcDbSpline
 62
7
  6
CONTINUOUS
 70
0
 71
3
 72
17
 73
13
 74
11
 42
0.0000001
 43
0.0000001
 44
0.0000000001
 12
0.9958819045
 22
-0.3598342768
 32
0.0
 13
-1.050193894
 23
-0.1355088895
 33
0.0
 40
0.0
 40
0.0
 40
0.0
 40
0.0
 40
0.0798430187
 40
0.1895551228
 40
0.3223119562
 40
0.398530744
 40
0.483321362
 40
0.5876727129
 40
0.6789531193
 40
0.8312245932
 40
0.9440148167
 40
1.0
 40
1.0
 40
1.0
 40
1.0
 10
13.1536445414
 20
-1.878111852
 30
0.0
 10
13.1801492806
 20
-1.8876886036
 30
0.0
 10
13.2393958701
 20
-1.9203763135
 30
0.0
 10
13.325596938
 20
-1.9961691531
 30
0.0
 10
13.3866732022
 20
-2.0931257622
 30
0.0
 10
13.4191916312
 20
-2.192058877
 30
0.0
 10
13.4326087251
 20
-2.2851655607
 30
0.0
 10
13.4300628408
 20
-2.3848523833
 30
0.0
 10
13.4029639728
 20
-2.5049600097
 30
0.0
 10
13.3421328573
 20
-2.620090946
 30
0.0
 10
13.2595176915
 20
-2.6948831177
 30
0.0
 10
13.2097010101
 20
-2.734117759
 30
0.0
 10
13.1901025776
 20
-2.736646589
 30
0.0
 11
13.1536445414
 21
-1.878111852
 31
0.0
 11
13.2285430218
 21
-1.9173345288
 31
0.0
 11
13.3156709775
 21
-1.9941795661
 31
0.0
 11
13.3906812305
 21
-2.1130708809
 31
0.0
 11
13.4160731357
 21
-2.1896805949
 31
0.0
 11
13.4293527158
 21
-2.2784779216
 31
0.0
 11
13.4261139092
 21
-2.388928123
 31
0.0
 11
13.4045393095
 21
-2.4831463988
 31
0.0
 11
13.3278157678
 21
-2.6249629571
 31
0.0
 11
13.2420481657
 21
-2.7080791645
 31
0.0
 11
13.1901025776
 21
-2.736646589
 31
0.0
  0
SPLINE
  5
688
100
AcDbEntity
  8
0
100
AcDbSpline
 62
7
  6
CONTINUOUS
 70
0
 71
3
 72
8
 73
4
 74
2
 42
0.0000001
 43
0.0000001
 44
0.0000000001
 12
0.0468153254
 22
-0.018667611
 32
0.0
 13
0.0404489985
 23
-0.0293488028
 33
0.0
 40
0.0
 40
0.0
 40
0.0
 40
0.0
 40
1.0
 40
1.0
 40
1.0
 40
1.0
 10
13.1901025776
 20
-2.7466912961
 30
0.0
 10
13.205707686
 20
-2.7529138331
 30
0.0
 10
13.2202124067
 20
-2.7611038084
 30
0.0
 10
13.2336954062
 20
-2.7708867427
 30
0.0
 11
13.1901025776
 21
-2.7466912961
 31
0.0
 11
13.2336954062
 21
-2.7708867427
 31
0.0
  0
SPLINE
  5
689
100
AcDbEntity
  8
0
100
AcDbSpline
 62
7
  6
CONTINUOUS
 70
0
 71
3
 72
9
 73
5
 74
3
 42
0.0000001
 43
0.0000001
 44
0.0000000001
 12
0.2399260035
 22
-0.2145228187
 32
0.0
 13
0.0845359266
 23
-0.3102902278
 33
0.0
 40
0.0
 40
0.0
 40
0.0
 40
0.0
 40
0.7012282199
 40
1.0
 40
1.0
 40
1.0
 40
1.0
 10
13.2521574144
 20
-2.7858045948
 30
0.0
 10
13.3082383758
 20
-2.8359477463
 30
0.0
 10
13.3601057941
 20
-2.9478760529
 30
0.0
 10
13.3862205761
 20
-3.0492258583
 30
0.0
 10
13.3946395592
 20
-3.0801278462
 30
0.0
 11
13.2521574144
 21
-2.7858045948
 31
0.0
 11
13.3683170581
 21
-2.9877206493
 31
0.0
 11
13.3946395592
 21
-3.0801278462
 31
0.0
  0
SPLINE
  5
68A
100
AcDbEntity
  8
0
100
AcDbSpline
 62
7
  6
CONTINUOUS
 70
0
 71
3
 72
9
 73
5
 74
3
 42
0.0000001
 43
0.0000001
 44
0.0000000001
 12
0.1250599769
 22
-0.4590343077
 32
0.0
 13
0.1246990825
 23
-0.4591324849
 33
0.0
 40
0.0
 40
0.0
 40
0.0
 40
0.0
 40
0.8019701246
 40
1.0
 40
1.0
 40
1.0
 40
1.0
 10
13.3946395594
 20
-3.0801278461
 30
0.0
 10
13.4280710145
 20
-3.2028384465
 30
0.0
 10
13.4674138439
 20
-3.3564766936
 30
0.0
 10
13.507699572
 20
-3.5098648582
 30
0.0
 10
13.5159309533
 20
-3.5401721745
 30
0.0
 11
13.3946395594
 21
-3.0801278461
 31
0.0
 11
13.4917809931
 21
-3.4491041728
 31
0.0
 11
13.5159309533
 21
-3.5401721745
 31
0.0
  0
SPLINE
  5
68B
100
AcDbEntity
  8
0
100
AcDbSpline
 62
7
  6
CONTINUOUS
 70
0
 71
3
 72
9
 73
5
 74
3
 42
0.0000001
 43
0.0000001
 44
0.0000000001
 12
-0.1487666252
 22
0.5174419044
 32
0.0
 13
-0.1893777802
 23
0.5039985871
 33
0.0
 40
0.0
 40
0.0
 40
0.0
 40
0.0
 40
0.4413080349
 40
1.0
 40
1.0
 40
1.0
 40
1.0
 10
13.1746276099
 20
-3.5401721745
 30
0.0
 10
13.1527436409
 20
-3.4640550844
 30
0.0
 10
13.1010744472
 20
-3.2922815121
 30
0.0
 10
13.0547077076
 20
-3.1184975126
 30
0.0
 10
13.0194397596
 20
-3.0246375256
 30
0.0
 11
13.1746276099
 21
-3.5401721745
 31
0.0
 11
13.1081722479
 21
-3.3120534328
 31
0.0
 11
13.0194397596
 21
-3.0246375256
 31
0.0
  0
SPLINE
  5
68C
100
AcDbEntity
  8
0
100
AcDbSpline
 62
7
  6
CONTINUOUS
 70
0
 71
3
 72
9
 73
5
 74
3
 42
0.0000001
 43
0.0000001
 44
0.0000000001
 12
-0.0895737501
 22
0.2383859055
 32
0.0
 13
-0.2546300208
 23
0.0
 33
0.0
 40
0.0
 40
0.0
 40
0.0
 40
0.0
 40
0.8563651185
 40
1.0
 40
1.0
 40
1.0
 40
1.0
 10
13.0194397736
 20
-3.0246375203
 30
0.0
 10
12.9938704952
 20
-2.9565890622
 30
0.0
 10
12.9188215298
 20
-2.8809572993
 30
0.0
 10
12.8336989648
 20
-2.8749397719
 30
0.0
 10
12.8215077138
 20
-2.8749397719
 30
0.0
 11
13.0194397736
 21
-3.0246375203
 31
0.0
 11
12.8579442757
 21
-2.8781046354
 31
0.0
 11
12.8215077138
 21
-2.8749397719
 31
0.0
  0
SPLINE
  5
68D
100
AcDbEntity
  8
0
100
AcDbSpline
 62
7
  6
CONTINUOUS
 70
0
 71
3
 72
9
 73
5
 74
3
 42
0.0000001
 43
0.0000001
 44
0.0000000001
 12
0.870352019
 22
0.1280436023
 32
0.0
 13
0.8273203445
 23
-0.2990739652
 33
0.0
 40
0.0
 40
0.0
 40
0.0
 40
0.0
 40
0.8916594654
 40
1.0
 40
1.0
 40
1.0
 40
1.0
 10
12.2778570587
 20
-1.8601694056
 30
0.0
 10
12.5365429307
 20
-1.8221123089
 30
0.0
 10
12.8408673849
 20
-1.786618671
 30
0.0
 10
13.123767083
 20
-1.8673112793
 30
0.0
 10
13.1536445258
 20
-1.8781118904
 30
0.0
 11
12.2778570587
 21
-1.8601694056
 31
0.0
 11
13.0622165972
 21
-1.8511904747
 31
0.0
 11
13.1536445258
 21
-1.8781118904
 31
0.0
  0
SPLINE
  5
68E
100
AcDbEntity
  8
RACCORDO
100
AcDbSpline
 62
7
  6
CONTINUOUS
 70
0
 71
3
 72
10
 73
6
 74
4
 42
0.0000001
 43
0.0000001
 44
0.0000000001
 12
-0.1883406519
 22
0.1821745431
 32
0.0
 13
-0.1853866352
 23
0.1851798068
 33
0.0
 40
0.0
 40
0.0
 40
0.0
 40
0.0
 40
0.2866167254
 40
0.6201205121
 40
1.0
 40
1.0
 40
1.0
 40
1.0
 10
23.2772455797
 20
-7.5314167271
 30
0.0
 10
23.2592517194
 20
-7.5140119701
 30
0.0
 10
23.2204607129
 20
-7.476210154
 30
0.0
 10
23.1582312342
 20
-7.4149206379
 30
0.0
 10
23.1140466188
 20
-7.3709865471
 30
0.0
 10
23.0905717588
 20
-7.3475378771
 30
0.0
 11
23.2772455797
 21
-7.5314167271
 31
0.0
 11
23.2234366729
 21
-7.4790245261
 31
0.0
 11
23.1611628154
 21
-7.4177168294
 31
0.0
 11
23.0905717588
 21
-7.3475378771
 31
0.0
  0
SPLINE
  5
68F
100
AcDbEntity
  8
RACCORDO
100
AcDbSpline
 62
7
  6
CONTINUOUS
 70
0
 71
3
 72
10
 73
6
 74
4
 42
0.0000001
 43
0.0000001
 44
0.0000000001
 12
0.1932247375
 22
0.1319117349
 32
0.0
 13
0.0047953966
 23
0.23390919
 33
0.0
 40
0.0
 40
0.0
 40
0.0
 40
0.0
 40
0.3373558539
 40
0.6687258877
 40
1.0
 40
1.0
 40
1.0
 40
1.0
 10
23.2772455797
 20
-7.5314167271
 30
0.0
 10
23.2989740785
 20
-7.5165829951
 30
0.0
 10
23.3383563606
 20
-7.4811766073
 30
0.0
 10
23.3793361009
 20
-7.4134218068
 30
0.0
 10
23.3899965371
 20
-7.3615147466
 30
0.0
 10
23.3905260674
 20
-7.3356853935
 30
0.0
 11
23.2772455797
 21
-7.5314167271
 31
0.0
 11
23.3356605091
 21
-7.4783394119
 31
0.0
 11
23.3752152006
 21
-7.4116623657
 31
0.0
 11
23.3905260674
 21
-7.3356853935
 31
0.0
  0
SPLINE
  5
690
100
AcDbEntity
  8
RACCORDO
100
AcDbSpline
 62
7
  6
CONTINUOUS
 70
0
 71
3
 72
10
 73
6
 74
4
 42
0.0000001
 43
0.0000001
 44
0.0000000001
 12
0.2111537282
 22
0.0378702165
 32
0.0
 13
0.151821365
 23
0.1515596362
 33
0.0
 40
0.0
 40
0.0
 40
0.0
 40
0.0
 40
0.3429101549
 40
0.6755847515
 40
1.0
 40
1.0
 40
1.0
 40
1.0
 10
23.0905717588
 20
-7.6311277187
 30
0.0
 10
23.1147073446
 20
-7.6267990248
 30
0.0
 10
23.1614388948
 20
-7.6127536146
 30
0.0
 10
23.2244050388
 20
-7.5779857562
 30
0.0
 10
23.2608278578
 20
-7.5478061461
 30
0.0
 10
23.2772455797
 20
-7.5314167271
 30
0.0
 11
23.0905717588
 21
-7.6311277187
 31
0.0
 11
23.1610667622
 21
-7.6101079336
 31
0.0
 11
23.223655884
 21
-7.5758187132
 31
0.0
 11
23.2772455797
 21
-7.5314167271
 31
0.0
  0
SPLINE
  5
691
100
AcDbEntity
  8
RACCORDO
100
AcDbSpline
 62
7
  6
CONTINUOUS
 70
0
 71
3
 72
13
 73
9
 74
7
 42
0.0000001
 43
0.0000001
 44
0.0000000001
 12
-0.4360540282
 22
-0.0003592369
 32
0.0
 13
-0.0089035972
 23
0.4359632674
 33
0.0
 40
0.0
 40
0.0
 40
0.0
 40
0.0
 40
0.1762313956
 40
0.3431225387
 40
0.5099732983
 40
0.6748732839
 40
0.8372164229
 40
1.0
 40
1.0
 40
1.0
 40
1.0
 10
-23.5631087139
 20
-7.5890815906
 30
0.0
 10
-23.5887241839
 20
-7.5891026935
 30
0.0
 10
-23.6387704173
 20
-7.5835451827
 30
0.0
 10
-23.7095320241
 20
-7.559770498
 30
0.0
 10
-23.7720483314
 20
-7.5218012532
 30
0.0
 10
-23.8230652038
 20
-7.4700844984
 30
0.0
 10
-23.8577761669
 20
-7.4067600992
 30
0.0
 10
-23.866742158
 20
-7.3593412802
 30
0.0
 10
-23.8672252778
 20
-7.3356853935
 30
0.0
 11
-23.5631087139
 21
-7.5890815906
 31
0.0
 11
-23.639490112
 21
-7.5806402187
 31
0.0
 11
-23.7084207939
 21
-7.557304516
 31
0.0
 11
-23.7704367058
 21
-7.5192590441
 31
0.0
 11
-23.8206354128
 21
-7.4677763683
 31
0.0
 11
-23.8542384113
 21
-7.4054697093
 31
0.0
 11
-23.8672252778
 21
-7.3356853935
 31
0.0
  0
SPLINE
  5
692
100
AcDbEntity
  8
RACCORDO
100
AcDbSpline
 62
253
  6
CONTINUOUS
 70
0
 71
3
 72
11
 73
7
 74
5
 42
0.0000001
 43
0.0000001
 44
0.0000000001
 12
-0.0069988224
 22
0.4010844298
 32
0.0
 13
-0.4011302123
 23
0.0035008769
 33
0.0
 40
0.0
 40
0.0
 40
0.0
 40
0.0
 40
0.2095153874
 40
0.4453794694
 40
0.7128570698
 40
1.0
 40
1.0
 40
1.0
 40
1.0
 10
-19.4872944517
 20
5.8335498685
 30
0.0
 10
-19.4877832387
 20
5.8615609884
 30
0.0
 10
-19.506878731
 20
5.9214282205
 30
0.0
 10
-19.5767256207
 20
5.99008264
 30
0.0
 10
-19.674331007
 20
6.0347070143
 30
0.0
 10
-19.7488548587
 20
6.0453468188
 30
0.0
 10
-19.7872487603
 20
6.0456819028
 30
0.0
 11
-19.4872944517
 21
5.8335498685
 31
0.0
 11
-19.5111803938
 21
5.9141303719
 31
0.0
 11
-19.576445776
 21
5.9826327942
 31
0.0
 11
-19.6733080759
 21
6.0287894184
 31
0.0
 11
-19.7872487603
 21
6.0456819028
 31
0.0
  0
SPLINE
  5
693
100
AcDbEntity
  8
RACCORDO
100
AcDbSpline
 62
253
  6
CONTINUOUS
 70
0
 71
3
 72
11
 73
7
 74
5
 42
0.0000001
 43
0.0000001
 44
0.0000000001
 12
-0.0069988137
 22
0.401084489
 32
0.0
 13
-0.401130273
 23
0.0035006841
 33
0.0
 40
0.0
 40
0.0
 40
0.0
 40
0.0
 40
0.2095120489
 40
0.4453745127
 40
0.7128531963
 40
1.0
 40
1.0
 40
1.0
 40
1.0
 10
-19.4996370465
 20
5.1264430873
 30
0.0
 10
-19.5001258251
 20
5.154453765
 30
0.0
 10
-19.5192207631
 20
5.2143203482
 30
0.0
 10
-19.5890667514
 20
5.282974976
 30
0.0
 10
-19.6866723825
 20
5.3276000389
 30
0.0
 10
-19.7611969298
 20
5.3382400488
 30
0.0
 10
-19.7995913551
 20
5.3385751188
 30
0.0
 11
-19.4996370465
 21
5.1264430873
 31
0.0
 11
-19.5235222632
 21
5.2070224218
 31
0.0
 11
-19.588786687
 21
5.2755248798
 31
0.0
 11
-19.685649144
 21
5.3216822211
 31
0.0
 11
-19.7995913551
 21
5.3385751188
 31
0.0
  0
SPLINE
  5
694
100
AcDbEntity
  8
RACCORDO
100
AcDbSpline
 62
253
  6
CONTINUOUS
 70
0
 71
3
 72
11
 73
7
 74
5
 42
0.0000001
 43
0.0000001
 44
0.0000000001
 12
0.0069988224
 22
0.4010844293
 32
0.0
 13
0.4011302117
 23
0.0035008838
 33
0.0
 40
0.0
 40
0.0
 40
0.0
 40
0.0
 40
0.2095153873
 40
0.4453794686
 40
0.7128570688
 40
1.0
 40
1.0
 40
1.0
 40
1.0
 10
-20.2770621639
 20
5.1264430873
 30
0.0
 10
-20.2765733769
 20
5.1544542071
 30
0.0
 10
-20.2574778847
 20
5.2143214391
 30
0.0
 10
-20.187630995
 20
5.2829758583
 30
0.0
 10
-20.0900256084
 20
5.3276002316
 30
0.0
 10
-20.015501757
 20
5.338240037
 30
0.0
 10
-19.9771078554
 20
5.3385751217
 30
0.0
 11
-20.2770621639
 21
5.1264430873
 31
0.0
 11
-20.2531762218
 21
5.2070235905
 31
0.0
 11
-20.1879108397
 21
5.2755260124
 31
0.0
 11
-20.0910485398
 21
5.321682636
 31
0.0
 11
-19.9771078554
 21
5.3385751217
 31
0.0
  0
SPLINE
  5
695
100
AcDbEntity
  8
RACCORDO
100
AcDbSpline
 62
253
  6
CONTINUOUS
 70
0
 71
3
 72
11
 73
7
 74
5
 42
0.0000001
 43
0.0000001
 44
0.0000000001
 12
0.0069988223
 22
0.4010844284
 32
0.0
 13
0.4011302109
 23
0.003500877
 33
0.0
 40
0.0
 40
0.0
 40
0.0
 40
0.0
 40
0.209515632
 40
0.4453798145
 40
0.7128573246
 40
1.0
 40
1.0
 40
1.0
 40
1.0
 10
-20.2894047587
 20
5.8335498685
 30
0.0
 10
-20.2889159711
 20
5.861561021
 30
0.0
 10
-20.2698204406
 20
5.9214282989
 30
0.0
 10
-20.1999734901
 20
5.9900827037
 30
0.0
 10
-20.1023681217
 20
6.0347070302
 30
0.0
 10
-20.0278443175
 20
6.0453468191
 30
0.0
 10
-19.9894504501
 20
6.0456819029
 30
0.0
 11
-20.2894047587
 21
5.8335498685
 31
0.0
 11
-20.2655187648
 21
5.9141304585
 31
0.0
 11
-20.2002533192
 21
5.9826328757
 31
0.0
 11
-20.1033910352
 21
6.0287894481
 31
0.0
 11
-19.9894504501
 21
6.0456819029
 31
0.0
  0
SPLINE
  5
696
100
AcDbEntity
  8
RACCORDO
100
AcDbSpline
 62
253
  6
CONTINUOUS
 70
0
 71
3
 72
11
 73
7
 74
5
 42
0.0000001
 43
0.0000001
 44
0.0000000001
 12
0.0069988224
 22
0.4010844293
 32
0.0
 13
0.4011302117
 23
0.0035008838
 33
0.0
 40
0.0
 40
0.0
 40
0.0
 40
0.0
 40
0.2095153873
 40
0.4453794686
 40
0.7128570688
 40
1.0
 40
1.0
 40
1.0
 40
1.0
 10
19.0229378361
 20
5.1264430873
 30
0.0
 10
19.0234266231
 20
5.1544542071
 30
0.0
 10
19.0425221153
 20
5.2143214391
 30
0.0
 10
19.112369005
 20
5.2829758583
 30
0.0
 10
19.2099743916
 20
5.3276002316
 30
0.0
 10
19.284498243
 20
5.338240037
 30
0.0
 10
19.3228921446
 20
5.3385751217
 30
0.0
 11
19.0229378361
 21
5.1264430873
 31
0.0
 11
19.0468237782
 21
5.2070235905
 31
0.0
 11
19.1120891603
 21
5.2755260124
 31
0.0
 11
19.2089514602
 21
5.321682636
 31
0.0
 11
19.3228921446
 21
5.3385751217
 31
0.0
  0
SPLINE
  5
697
100
AcDbEntity
  8
RACCORDO
100
AcDbSpline
 62
253
  6
CONTINUOUS
 70
0
 71
3
 72
11
 73
7
 74
5
 42
0.0000001
 43
0.0000001
 44
0.0000000001
 12
0.0069988223
 22
0.4010844284
 32
0.0
 13
0.4011302109
 23
0.003500877
 33
0.0
 40
0.0
 40
0.0
 40
0.0
 40
0.0
 40
0.209515632
 40
0.4453798145
 40
0.7128573246
 40
1.0
 40
1.0
 40
1.0
 40
1.0
 10
19.0105952413
 20
5.8335498685
 30
0.0
 10
19.0110840289
 20
5.861561021
 30
0.0
 10
19.0301795594
 20
5.9214282989
 30
0.0
 10
19.1000265099
 20
5.9900827037
 30
0.0
 10
19.1976318783
 20
6.0347070302
 30
0.0
 10
19.2721556825
 20
6.0453468191
 30
0.0
 10
19.3105495499
 20
6.0456819029
 30
0.0
 11
19.0105952413
 21
5.8335498685
 31
0.0
 11
19.0344812352
 21
5.9141304585
 31
0.0
 11
19.0997466808
 21
5.9826328757
 31
0.0
 11
19.1966089648
 21
6.0287894481
 31
0.0
 11
19.3105495499
 21
6.0456819029
 31
0.0
  0
SPLINE
  5
698
100
AcDbEntity
  8
RACCORDO
100
AcDbSpline
 62
7
  6
CONTINUOUS
 70
0
 71
3
 72
12
 73
8
 74
6
 42
0.0000001
 43
0.0000001
 44
0.0000000001
 12
0.3000739778
 22
-0.0
 32
0.0
 13
0.212185585
 23
0.2121831041
 33
0.0
 40
0.0
 40
0.0
 40
0.0
 40
0.0
 40
0.3053475036
 40
0.5820489604
 40
0.8022991747
 40
0.9467217969
 40
1.0
 40
1.0
 40
1.0
 40
1.0
 10
23.088964115
 20
-4.8263984185
 30
0.0
 10
23.119506395
 20
-4.8263984185
 30
0.0
 10
23.1778807128
 20
-4.8265299342
 30
0.0
 10
23.2575275657
 20
-4.8247669266
 30
0.0
 10
23.3232248229
 20
-4.8265907114
 30
0.0
 10
23.3619769408
 20
-4.8198626351
 30
0.0
 10
23.3851530201
 20
-4.8250215977
 30
0.0
 10
23.388921309
 20
-4.8212533528
 30
0.0
 11
23.088964115
 21
-4.8263984185
 31
0.0
 11
23.1805906134
 21
-4.8261482084
 31
0.0
 11
23.2636183227
 21
-4.8254195285
 31
0.0
 11
23.3296999711
 21
-4.8242866857
 31
0.0
 11
23.373013516
 21
-4.8228468262
 31
0.0
 11
23.388921309
 21
-4.8212533528
 31
0.0
  0
SPLINE
  5
699
100
AcDbEntity
  8
RACCORDO
100
AcDbSpline
 62
7
  6
CONTINUOUS
 70
0
 71
3
 72
12
 73
8
 74
6
 42
0.0000001
 43
0.0000001
 44
0.0000000001
 12
0.212185585
 22
-0.2121831041
 32
0.0
 13
0.3000739778
 23
0.0
 33
0.0
 40
0.0
 40
0.0
 40
0.0
 40
0.0
 40
0.0532782031
 40
0.1977008253
 40
0.4179510396
 40
0.6946524964
 40
1.0
 40
1.0
 40
1.0
 40
1.0
 10
-23.8656205194
 20
-4.8212533528
 30
0.0
 10
-23.8618522305
 20
-4.8250215977
 30
0.0
 10
-23.8386761512
 20
-4.8198626351
 30
0.0
 10
-23.7999240333
 20
-4.8265907114
 30
0.0
 10
-23.7342267761
 20
-4.8247669266
 30
0.0
 10
-23.6545799232
 20
-4.8265299342
 30
0.0
 10
-23.5962056054
 20
-4.8263984185
 30
0.0
 10
-23.5656633254
 20
-4.8263984185
 30
0.0
 11
-23.8656205194
 21
-4.8212533528
 31
0.0
 11
-23.8497127264
 21
-4.8228468262
 31
0.0
 11
-23.8063991815
 21
-4.8242866857
 31
0.0
 11
-23.7403175331
 21
-4.8254195285
 31
0.0
 11
-23.6572898238
 21
-4.8261482084
 31
0.0
 11
-23.5656633254
 21
-4.8263984185
 31
0.0
  0
SPLINE
  5
69A
100
AcDbEntity
  8
RACCORDO
100
AcDbSpline
 62
7
  6
CONTINUOUS
 70
0
 71
3
 72
12
 73
8
 74
6
 42
0.0000001
 43
0.0000001
 44
0.0000000001
 12
-0.2121858917
 22
0.2121865075
 32
0.0
 13
-0.3000766013
 23
0.0
 33
0.0
 40
0.0
 40
0.0
 40
0.0
 40
0.0
 40
0.0533078243
 40
0.1977742039
 40
0.4180472247
 40
0.6947316031
 40
1.0
 40
1.0
 40
1.0
 40
1.0
 10
23.386979166
 20
-0.9925474797
 30
0.0
 10
23.3832087766
 20
-0.9887770794
 30
0.0
 10
23.3600238528
 20
-0.9939367858
 30
0.0
 10
23.3212623494
 20
-0.9872074561
 30
0.0
 10
23.2555596558
 20
-0.9890301346
 30
0.0
 10
23.1759192738
 20
-0.9872672819
 30
0.0
 10
23.1175541427
 20
-0.9873985725
 30
0.0
 10
23.0870195084
 20
-0.9873985725
 30
0.0
 11
23.386979166
 21
-0.9925474797
 31
0.0
 11
23.3710624592
 21
-0.990952412
 31
0.0
 11
23.3277354358
 21
-0.9895113982
 31
0.0
 11
23.2616463768
 21
-0.9883778485
 31
0.0
 11
23.1786230695
 21
-0.9876488401
 31
0.0
 11
23.0870195084
 21
-0.9873985725
 31
0.0
  0
SPLINE
  5
69B
100
AcDbEntity
  8
RACCORDO
100
AcDbSpline
 62
7
  6
CONTINUOUS
 70
0
 71
3
 72
12
 73
8
 74
6
 42
0.0000001
 43
0.0000001
 44
0.0000000001
 12
-0.3000766013
 22
-0.0
 32
0.0
 13
-0.2121858917
 23
-0.2121865075
 33
0.0
 40
0.0
 40
0.0
 40
0.0
 40
0.0
 40
0.3052683969
 40
0.5819527753
 40
0.8022257961
 40
0.9466921757
 40
1.0
 40
1.0
 40
1.0
 40
1.0
 10
-23.5637187188
 20
-0.9873985725
 30
0.0
 10
-23.5942533531
 20
-0.9873985725
 30
0.0
 10
-23.6526184842
 20
-0.9872672819
 30
0.0
 10
-23.7322588662
 20
-0.9890301346
 30
0.0
 10
-23.7979615598
 20
-0.9872074561
 30
0.0
 10
-23.8367230632
 20
-0.9939367858
 30
0.0
 10
-23.859907987
 20
-0.9887770794
 30
0.0
 10
-23.8636783764
 20
-0.9925474797
 30
0.0
 11
-23.5637187188
 21
-0.9873985725
 31
0.0
 11
-23.6553222799
 21
-0.9876488401
 31
0.0
 11
-23.7383455872
 21
-0.9883778485
 31
0.0
 11
-23.8044346461
 21
-0.9895113982
 31
0.0
 11
-23.8477616696
 21
-0.990952412
 31
0.0
 11
-23.8636783764
 21
-0.9925474797
 31
0.0
  0
SPLINE
  5
69C
100
AcDbEntity
  8
RACCORDO
100
AcDbSpline
 62
7
  6
CONTINUOUS
 70
0
 71
3
 72
12
 73
8
 74
6
 42
0.0000001
 43
0.0000001
 44
0.0000000001
 12
0.2121856603
 22
-0.2121849679
 32
0.0
 13
0.300075349
 23
0.0
 33
0.0
 40
0.0
 40
0.0
 40
0.0
 40
0.0
 40
0.0532816106
 40
0.1977093993
 40
0.417962435
 40
0.694661992
 40
1.0
 40
1.0
 40
1.0
 40
1.0
 10
-23.8668748665
 20
-6.8199990057
 30
0.0
 10
-23.8631063352
 20
-6.8237675247
 30
0.0
 10
-23.8399291116
 20
-6.8186084262
 30
0.0
 10
-23.8011757718
 20
-6.8253367035
 30
0.0
 10
-23.735477601
 20
-6.8235130252
 30
0.0
 10
-23.655831227
 20
-6.8252760276
 30
0.0
 10
-23.59745779
 20
-6.8251445359
 30
0.0
 10
-23.5669163202
 20
-6.8251445359
 30
0.0
 11
-23.8668748665
 21
-6.8199990057
 31
0.0
 11
-23.8509659914
 21
-6.8215926682
 31
0.0
 11
-23.8076507018
 21
-6.8230326673
 31
0.0
 11
-23.7415679061
 21
-6.8241655973
 31
0.0
 11
-23.6585403879
 21
-6.8248943187
 31
0.0
 11
-23.5669163202
 21
-6.8251445359
 31
0.0
  0
SPLINE
  5
69D
100
AcDbEntity
  8
RACCORDO
100
AcDbSpline
 62
7
  6
CONTINUOUS
 70
0
 71
3
 72
12
 73
8
 74
6
 42
0.0000001
 43
0.0000001
 44
0.0000000001
 12
-0.3000816659
 22
0.0
 32
0.0
 13
-0.2121905985
 23
-0.2121889631
 33
0.0
 40
0.0
 40
0.0
 40
0.0
 40
0.0
 40
0.305206335
 40
0.5818776397
 40
0.8021687507
 40
0.9466692379
 40
1.0
 40
1.0
 40
1.0
 40
1.0
 10
-23.5664363823
 20
-6.0901181614
 30
0.0
 10
-23.5969653241
 20
-6.0901181614
 30
0.0
 10
-23.6553238611
 20
-6.0899870513
 30
0.0
 10
-23.7349600308
 20
-6.0917497877
 30
0.0
 10
-23.8006676401
 20
-6.0899279761
 30
0.0
 10
-23.8394369451
 20
-6.0966582851
 30
0.0
 10
-23.8626288853
 20
-6.0914980177
 30
0.0
 10
-23.8664009807
 20
-6.095270084
 30
0.0
 11
-23.5664363823
 21
-6.0901181614
 31
0.0
 11
-23.6580228656
 21
-6.0903684777
 31
0.0
 11
-23.7410436487
 21
-6.0910977481
 31
0.0
 11
-23.8071392431
 21
-6.0922318564
 31
0.0
 11
-23.8504772092
 21
-6.0936737757
 31
0.0
 11
-23.8664009807
 21
-6.095270084
 31
0.0
  0
SPLINE
  5
69E
100
AcDbEntity
  8
RACCORDO
100
AcDbSpline
 62
7
  6
CONTINUOUS
 70
0
 71
3
 72
12
 73
8
 74
6
 42
0.0000001
 43
0.0000001
 44
0.0000000001
 12
0.2121821519
 22
-0.2121827803
 32
0.0
 13
0.3000713213
 23
-0.0
 33
0.0
 40
0.0
 40
0.0
 40
0.0
 40
0.0
 40
0.0532731
 40
0.1976880308
 40
0.4179339921
 40
0.6946382695
 40
1.0
 40
1.0
 40
1.0
 40
1.0
 10
-23.8628807952
 20
1.076006923
 30
0.0
 10
-23.8591129282
 20
1.0722390448
 30
0.0
 10
-23.8359384879
 20
1.0773978942
 30
0.0
 10
-23.7971883795
 20
1.0706700356
 30
0.0
 10
-23.731492571
 20
1.0724940203
 30
0.0
 10
-23.6518451858
 20
1.0707309876
 30
0.0
 10
-23.593469663
 20
1.0708625471
 30
0.0
 10
-23.5629262303
 20
1.0708625471
 30
0.0
 11
-23.8628807952
 21
1.076006923
 31
0.0
 11
-23.8469746556
 21
1.0744137278
 31
0.0
 11
-23.8036637969
 21
1.0729740749
 31
0.0
 11
-23.7375840078
 21
1.0718413619
 31
0.0
 11
-23.6545561867
 21
1.0711127441
 31
0.0
 11
-23.5629262303
 21
1.0708625471
 31
0.0
  0
SPLINE
  5
69F
100
AcDbEntity
  8
RACCORDO
100
AcDbSpline
 62
7
  6
CONTINUOUS
 70
0
 71
3
 72
12
 73
8
 74
6
 42
0.0000001
 43
0.0000001
 44
0.0000000001
 12
-0.3000744827
 22
-0.0
 32
0.0
 13
-0.2121844225
 23
-0.2121849807
 33
0.0
 40
0.0
 40
0.0
 40
0.0
 40
0.0
 40
0.3052957572
 40
0.5819859076
 40
0.8022509535
 40
0.9467022877
 40
1.0
 40
1.0
 40
1.0
 40
1.0
 10
-23.5626830939
 20
1.8136377861
 30
0.0
 10
-23.5932202494
 20
1.8136377861
 30
0.0
 10
-23.6515883095
 20
1.8137691549
 30
0.0
 10
-23.7312305833
 20
1.812006254
 30
0.0
 10
-23.7969311253
 20
1.8138293073
 30
0.0
 10
-23.8356892222
 20
1.8071004244
 30
0.0
 10
-23.8588710396
 20
1.812259867
 30
0.0
 10
-23.8626406877
 20
1.808490209
 30
0.0
 11
-23.5626830939
 21
1.8136377861
 31
0.0
 11
-23.6542942186
 21
1.8133875396
 31
0.0
 11
-23.7373186728
 21
1.8126586466
 31
0.0
 11
-23.8034048758
 21
1.8115253434
 31
0.0
 11
-23.8467270891
 21
1.8100847291
 31
0.0
 11
-23.8626406877
 21
1.808490209
 31
0.0
  0
SPLINE
  5
6A0
100
AcDbEntity
  8
RACCORDO
100
AcDbSpline
 62
7
  6
CONTINUOUS
 70
0
 71
3
 72
12
 73
8
 74
6
 42
0.0000001
 43
0.0000001
 44
0.0000000001
 12
-0.2121905985
 22
0.2121889632
 32
0.0
 13
-0.3000816659
 23
-0.0
 33
0.0
 40
0.0
 40
0.0
 40
0.0
 40
0.0
 40
0.0533307621
 40
0.1978312493
 40
0.4181223603
 40
0.694793665
 40
1.0
 40
1.0
 40
1.0
 40
1.0
 10
23.3897017703
 20
-6.095270084
 30
0.0
 10
23.3859296749
 20
-6.0914980177
 30
0.0
 10
23.3627377347
 20
-6.0966582852
 30
0.0
 10
23.3239684298
 20
-6.0899279761
 30
0.0
 10
23.2582608204
 20
-6.0917497877
 30
0.0
 10
23.1786246507
 20
-6.0899870513
 30
0.0
 10
23.1202661137
 20
-6.0901181614
 30
0.0
 10
23.0897371719
 20
-6.0901181614
 30
0.0
 11
23.3897017703
 21
-6.095270084
 31
0.0
 11
23.3737779988
 21
-6.0936737757
 31
0.0
 11
23.3304400327
 21
-6.0922318564
 31
0.0
 11
23.2643444383
 21
-6.0910977481
 31
0.0
 11
23.1813236552
 21
-6.0903684777
 31
0.0
 11
23.0897371719
 21
-6.0901181614
 31
0.0
  0
SPLINE
  5
6A1
100
AcDbEntity
  8
RACCORDO
100
AcDbSpline
 62
7
  6
CONTINUOUS
 70
0
 71
3
 72
12
 73
8
 74
6
 42
0.0000001
 43
0.0000001
 44
0.0000000001
 12
0.300075349
 22
-0.0
 32
0.0
 13
0.2121856603
 23
0.2121849679
 33
0.0
 40
0.0
 40
0.0
 40
0.0
 40
0.0
 40
0.305338008
 40
0.582037565
 40
0.8022906007
 40
0.9467183894
 40
1.0
 40
1.0
 40
1.0
 40
1.0
 10
23.0902171098
 20
-6.8251445359
 30
0.0
 10
23.1207585796
 20
-6.8251445359
 30
0.0
 10
23.1791320166
 20
-6.8252760276
 30
0.0
 10
23.2587783906
 20
-6.8235130252
 30
0.0
 10
23.3244765614
 20
-6.8253367035
 30
0.0
 10
23.3632299012
 20
-6.8186084262
 30
0.0
 10
23.3864071248
 20
-6.8237675247
 30
0.0
 10
23.3901756561
 20
-6.8199990057
 30
0.0
 11
23.0902171098
 21
-6.8251445359
 31
0.0
 11
23.1818411775
 21
-6.8248943187
 31
0.0
 11
23.2648686957
 21
-6.8241655973
 31
0.0
 11
23.3309514914
 21
-6.8230326673
 31
0.0
 11
23.374266781
 21
-6.8215926682
 31
0.0
 11
23.3901756561
 21
-6.8199990057
 31
0.0
  0
SPLINE
  5
6A2
100
AcDbEntity
  8
RACCORDO
100
AcDbSpline
 62
7
  6
CONTINUOUS
 70
0
 71
3
 72
12
 73
8
 74
6
 42
0.0000001
 43
0.0000001
 44
0.0000000001
 12
-0.2121844225
 22
0.2121849807
 32
0.0
 13
-0.3000744827
 23
0.0
 33
0.0
 40
0.0
 40
0.0
 40
0.0
 40
0.0
 40
0.0532977123
 40
0.1977490465
 40
0.4180140924
 40
0.6947042428
 40
1.0
 40
1.0
 40
1.0
 40
1.0
 10
23.3859414773
 20
1.808490209
 30
0.0
 10
23.3821718292
 20
1.812259867
 30
0.0
 10
23.3589900118
 20
1.8071004244
 30
0.0
 10
23.3202319149
 20
1.8138293073
 30
0.0
 10
23.2545313729
 20
1.812006254
 30
0.0
 10
23.1748890991
 20
1.8137691549
 30
0.0
 10
23.116521039
 20
1.8136377861
 30
0.0
 10
23.0859838835
 20
1.8136377861
 30
0.0
 11
23.3859414773
 21
1.808490209
 31
0.0
 11
23.3700278787
 21
1.8100847291
 31
0.0
 11
23.3267056654
 21
1.8115253434
 31
0.0
 11
23.2606194624
 21
1.8126586466
 31
0.0
 11
23.1775950082
 21
1.8133875396
 31
0.0
 11
23.0859838835
 21
1.8136377861
 31
0.0
  0
SPLINE
  5
6A3
100
AcDbEntity
  8
RACCORDO
100
AcDbSpline
 62
7
  6
CONTINUOUS
 70
0
 71
3
 72
12
 73
8
 74
6
 42
0.0000001
 43
0.0000001
 44
0.0000000001
 12
0.3000713213
 22
0.0
 32
0.0
 13
0.2121821519
 23
0.2121827803
 33
0.0
 40
0.0
 40
0.0
 40
0.0
 40
0.0
 40
0.3053617305
 40
0.5820660079
 40
0.8023119692
 40
0.9467269
 40
1.0
 40
1.0
 40
1.0
 40
1.0
 10
23.0862270199
 20
1.0708625471
 30
0.0
 10
23.1167704526
 20
1.0708625471
 30
0.0
 10
23.1751459754
 20
1.0707309876
 30
0.0
 10
23.2547933606
 20
1.0724940203
 30
0.0
 10
23.3204891692
 20
1.0706700356
 30
0.0
 10
23.3592392775
 20
1.0773978942
 30
0.0
 10
23.3824137178
 20
1.0722390448
 30
0.0
 10
23.3861815848
 20
1.076006923
 30
0.0
 11
23.0862270199
 21
1.0708625471
 31
0.0
 11
23.1778569763
 21
1.0711127441
 31
0.0
 11
23.2608847974
 21
1.0718413619
 31
0.0
 11
23.3269645865
 21
1.0729740749
 31
0.0
 11
23.3702754452
 21
1.0744137278
 31
0.0
 11
23.3861815848
 21
1.076006923
 31
0.0
  0
SPLINE
  5
6A4
100
AcDbEntity
  8
RACCORDO
100
AcDbSpline
 62
253
  6
CONTINUOUS
 70
0
 71
3
 72
11
 73
7
 74
5
 42
0.0000001
 43
0.0000001
 44
0.0000000001
 12
-0.0069988224
 22
0.4010844298
 32
0.0
 13
-0.4011302123
 23
0.0035008769
 33
0.0
 40
0.0
 40
0.0
 40
0.0
 40
0.0
 40
0.2095153874
 40
0.4453794694
 40
0.7128570698
 40
1.0
 40
1.0
 40
1.0
 40
1.0
 10
19.8127055483
 20
5.8335498685
 30
0.0
 10
19.8122167613
 20
5.8615609884
 30
0.0
 10
19.793121269
 20
5.9214282205
 30
0.0
 10
19.7232743793
 20
5.99008264
 30
0.0
 10
19.625668993
 20
6.0347070143
 30
0.0
 10
19.5511451413
 20
6.0453468188
 30
0.0
 10
19.5127512397
 20
6.0456819028
 30
0.0
 11
19.8127055483
 21
5.8335498685
 31
0.0
 11
19.7888196062
 21
5.9141303719
 31
0.0
 11
19.723554224
 21
5.9826327942
 31
0.0
 11
19.6266919241
 21
6.0287894184
 31
0.0
 11
19.5127512397
 21
6.0456819028
 31
0.0
  0
SPLINE
  5
6A5
100
AcDbEntity
  8
RACCORDO
100
AcDbSpline
 62
253
  6
CONTINUOUS
 70
0
 71
3
 72
11
 73
7
 74
5
 42
0.0000001
 43
0.0000001
 44
0.0000000001
 12
-0.0069988137
 22
0.401084489
 32
0.0
 13
-0.401130273
 23
0.0035006841
 33
0.0
 40
0.0
 40
0.0
 40
0.0
 40
0.0
 40
0.2095120489
 40
0.4453745127
 40
0.7128531963
 40
1.0
 40
1.0
 40
1.0
 40
1.0
 10
19.8003629535
 20
5.1264430873
 30
0.0
 10
19.7998741749
 20
5.154453765
 30
0.0
 10
19.7807792369
 20
5.2143203482
 30
0.0
 10
19.7109332486
 20
5.282974976
 30
0.0
 10
19.6133276175
 20
5.3276000389
 30
0.0
 10
19.5388030702
 20
5.3382400488
 30
0.0
 10
19.5004086449
 20
5.3385751188
 30
0.0
 11
19.8003629535
 21
5.1264430873
 31
0.0
 11
19.7764777368
 21
5.2070224218
 31
0.0
 11
19.711213313
 21
5.2755248798
 31
0.0
 11
19.614350856
 21
5.3216822211
 31
0.0
 11
19.5004086449
 21
5.3385751188
 31
0.0
  0
SPLINE
  5
6A6
100
AcDbEntity
  8
RACCORDO
100
AcDbSpline
 62
253
  6
CONTINUOUS
 70
0
 71
3
 72
12
 73
8
 74
6
 42
0.0000001
 43
0.0000001
 44
0.0000000001
 12
0.188162755
 22
0.4631952088
 32
0.0
 13
0.000001281
 23
0.4999550218
 33
0.0
 40
0.0
 40
0.0
 40
0.0
 40
0.0
 40
0.0533471248
 40
0.1972618061
 40
0.417998053
 40
0.6944311848
 40
1.0
 40
1.0
 40
1.0
 40
1.0
 10
19.3204845523
 20
3.1010083612
 30
0.0
 10
19.3238305329
 20
3.109245072
 30
0.0
 10
19.3185002176
 20
3.143566511
 30
0.0
 10
19.324659054
 20
3.2119335568
 30
0.0
 10
19.322579705
 20
3.3194293417
 30
0.0
 10
19.3240884192
 20
3.4529511399
 30
0.0
 10
19.3239145082
 20
3.5500086542
 30
0.0
 10
19.3239146387
 20
3.6009322087
 30
0.0
 11
19.3204845523
 21
3.1010083612
 31
0.0
 11
19.3215499043
 21
3.1276582384
 31
0.0
 11
19.3225060631
 21
3.1996027525
 31
0.0
 11
19.3232624257
 21
3.3099583557
 31
0.0
 11
19.3237476583
 21
3.4481616363
 31
0.0
 11
19.3239146387
 21
3.6009322087
 31
0.0
  0
SPLINE
  5
6A7
100
AcDbEntity
  8
RACCORDO
100
AcDbSpline
 62
253
  6
CONTINUOUS
 70
0
 71
3
 72
12
 73
8
 74
6
 42
0.0000001
 43
0.0000001
 44
0.0000000001
 12
0.000001281
 22
-0.4999550218
 32
0.0
 13
0.1881627568
 23
-0.4631952081
 33
0.0
 40
0.0
 40
0.0
 40
0.0
 40
0.0
 40
0.305568815
 40
0.5820019468
 40
0.8027381938
 40
0.9466528751
 40
1.0
 40
1.0
 40
1.0
 40
1.0
 10
19.4993861509
 20
3.6009322087
 30
0.0
 10
19.4993862814
 20
3.5500086542
 30
0.0
 10
19.4992123704
 20
3.4529511399
 30
0.0
 10
19.5007210846
 20
3.3194293418
 30
0.0
 10
19.4986417355
 20
3.2119335569
 30
0.0
 10
19.5048005721
 20
3.143566511
 30
0.0
 10
19.4994702567
 20
3.109245072
 30
0.0
 10
19.5028162374
 20
3.1010083612
 30
0.0
 11
19.4993861509
 21
3.6009322087
 31
0.0
 11
19.4995531313
 21
3.4481616364
 31
0.0
 11
19.5000383639
 21
3.3099583558
 31
0.0
 11
19.5007947265
 21
3.1996027526
 31
0.0
 11
19.5017508853
 21
3.1276582385
 31
0.0
 11
19.5028162374
 21
3.1010083612
 31
0.0
  0
SPLINE
  5
6A8
100
AcDbEntity
  8
RACCORDO
100
AcDbSpline
 62
253
  6
CONTINUOUS
 70
0
 71
3
 72
12
 73
8
 74
6
 42
0.0000001
 43
0.0000001
 44
0.0000000001
 12
0.000001281
 22
-0.4999550218
 32
0.0
 13
0.1881627568
 23
-0.4631952081
 33
0.0
 40
0.0
 40
0.0
 40
0.0
 40
0.0
 40
0.305568815
 40
0.5820019468
 40
0.8027381938
 40
0.9466528751
 40
1.0
 40
1.0
 40
1.0
 40
1.0
 10
-19.8006138491
 20
3.6009322087
 30
0.0
 10
-19.8006137186
 20
3.5500086542
 30
0.0
 10
-19.8007876296
 20
3.4529511399
 30
0.0
 10
-19.7992789154
 20
3.3194293418
 30
0.0
 10
-19.8013582645
 20
3.2119335569
 30
0.0
 10
-19.7951994279
 20
3.143566511
 30
0.0
 10
-19.8005297433
 20
3.109245072
 30
0.0
 10
-19.7971837626
 20
3.1010083612
 30
0.0
 11
-19.8006138491
 21
3.6009322087
 31
0.0
 11
-19.8004468687
 21
3.4481616364
 31
0.0
 11
-19.7999616361
 21
3.3099583558
 31
0.0
 11
-19.7992052735
 21
3.1996027526
 31
0.0
 11
-19.7982491147
 21
3.1276582385
 31
0.0
 11
-19.7971837626
 21
3.1010083612
 31
0.0
  0
SPLINE
  5
6A9
100
AcDbEntity
  8
RACCORDO
100
AcDbSpline
 62
253
  6
CONTINUOUS
 70
0
 71
3
 72
12
 73
8
 74
6
 42
0.0000001
 43
0.0000001
 44
0.0000000001
 12
0.188162755
 22
0.4631952088
 32
0.0
 13
0.000001281
 23
0.4999550218
 33
0.0
 40
0.0
 40
0.0
 40
0.0
 40
0.0
 40
0.0533471248
 40
0.1972618061
 40
0.417998053
 40
0.6944311848
 40
1.0
 40
1.0
 40
1.0
 40
1.0
 10
-19.9795154477
 20
3.1010083612
 30
0.0
 10
-19.9761694671
 20
3.109245072
 30
0.0
 10
-19.9814997824
 20
3.143566511
 30
0.0
 10
-19.975340946
 20
3.2119335568
 30
0.0
 10
-19.977420295
 20
3.3194293417
 30
0.0
 10
-19.9759115808
 20
3.4529511399
 30
0.0
 10
-19.9760854918
 20
3.5500086542
 30
0.0
 10
-19.9760853613
 20
3.6009322087
 30
0.0
 11
-19.9795154477
 21
3.1010083612
 31
0.0
 11
-19.9784500957
 21
3.1276582384
 31
0.0
 11
-19.9774939369
 21
3.1996027525
 31
0.0
 11
-19.9767375743
 21
3.3099583557
 31
0.0
 11
-19.9762523417
 21
3.4481616363
 31
0.0
 11
-19.9760853613
 21
3.6009322087
 31
0.0
  0
SPLINE
  5
6AA
100
AcDbEntity
  8
RACCORDO
100
AcDbSpline
 62
253
  6
CONTINUOUS
 70
0
 71
3
 72
11
 73
7
 74
5
 42
0.0000001
 43
0.0000001
 44
0.0000000001
 12
-0.0098689072
 22
0.3534493123
 32
0.0
 13
-0.0000004971
 23
0.3535870638
 33
0.0
 40
0.0
 40
0.0
 40
0.0
 40
0.0
 40
0.2035823994
 40
0.4531925193
 40
0.7278954329
 40
1.0
 40
1.0
 40
1.0
 40
1.0
 10
19.3105492705
 20
6.0456930055
 30
0.0
 10
19.3098795586
 20
6.0696783585
 30
0.0
 10
19.308679796
 20
6.1230800512
 30
0.0
 10
19.307411084
 20
6.2088627679
 30
0.0
 10
19.306631163
 20
6.3027277674
 30
0.0
 10
19.3064595878
 20
6.3671759149
 30
0.0
 10
19.3064595427
 20
6.3992467999
 30
0.0
 11
19.3105492705
 21
6.0456930055
 31
0.0
 11
19.3088843552
 21
6.1176578519
 31
0.0
 11
19.3075455725
 21
6.2059066068
 31
0.0
 11
19.3067204616
 21
6.3030344988
 31
0.0
 11
19.3064595427
 21
6.3992467999
 31
0.0
  0
SPLINE
  5
6AB
100
AcDbEntity
  8
RACCORDO
100
AcDbSpline
 62
253
  6
CONTINUOUS
 70
0
 71
3
 72
11
 73
7
 74
5
 42
0.0000001
 43
0.0000001
 44
0.0000000001
 12
-0.0000004828
 22
-0.3535861826
 32
0.0
 13
-0.0098690566
 23
-0.3534484266
 33
0.0
 40
0.0
 40
0.0
 40
0.0
 40
0.0
 40
0.2713497641
 40
0.5458509931
 40
0.7957709277
 40
1.0
 40
1.0
 40
1.0
 40
1.0
 10
19.5168412459
 20
6.3992464695
 30
0.0
 10
19.5168412022
 20
6.3672646271
 30
0.0
 10
19.5166703862
 20
6.302929375
 30
0.0
 10
19.5158928518
 20
6.209140812
 30
0.0
 10
19.5146247927
 20
6.1232693277
 30
0.0
 10
19.5134233822
 20
6.0697550368
 30
0.0
 10
19.5127515328
 20
6.0456935554
 30
0.0
 11
19.5168412459
 21
6.3992464695
 31
0.0
 11
19.5165817845
 21
6.3033012931
 31
0.0
 11
19.515759174
 21
6.2062449374
 31
0.0
 11
19.514420794
 21
6.1178868376
 31
0.0
 11
19.5127515328
 21
6.0456935554
 31
0.0
  0
SPLINE
  5
6AC
100
AcDbEntity
  8
RACCORDO
100
AcDbSpline
 62
253
  6
CONTINUOUS
 70
0
 71
3
 72
9
 73
5
 74
3
 42
0.0000001
 43
0.0000001
 44
0.0000000001
 12
0.0053452793
 22
-1.6468770511
 32
0.0
 13
0.0076765735
 23
-1.6468678343
 33
0.0
 40
0.0
 40
0.0
 40
0.0
 40
0.0
 40
0.5000137269
 40
1.0
 40
1.0
 40
1.0
 40
1.0
 10
-4.4802966442
 20
5.6157210116
 30
0.0
 10
-4.4794057399
 20
5.3412339676
 30
0.0
 10
-4.477429659
 20
4.7922755641
 30
0.0
 10
-4.475065123
 20
4.2433186964
 30
0.0
 10
-4.4737857292
 20
3.9688482595
 30
0.0
 11
-4.4802966442
 21
5.6157210116
 31
0.0
 11
-4.4773324857
 21
4.7922608771
 31
0.0
 11
-4.4737857292
 21
3.9688482595
 31
0.0
  0
SPLINE
  5
6AD
100
AcDbEntity
  8
RACCORDO
100
AcDbSpline
 62
253
  6
CONTINUOUS
 70
0
 71
3
 72
9
 73
5
 74
3
 42
0.0000001
 43
0.0000001
 44
0.0000000001
 12
0.0076765735
 22
1.6468678343
 32
0.0
 13
0.0053452793
 23
1.6468770511
 33
0.0
 40
0.0
 40
0.0
 40
0.0
 40
0.0
 40
0.499986712
 40
1.0
 40
1.0
 40
1.0
 40
1.0
 10
3.9970865188
 20
3.9688482595
 30
0.0
 10
3.9983659137
 20
4.2433189373
 30
0.0
 10
4.0007304496
 20
4.792275805
 30
0.0
 10
4.0027065303
 20
5.3412342085
 30
0.0
 10
4.0035974338
 20
5.6157210116
 30
0.0
 11
3.9970865188
 21
3.9688482595
 31
0.0
 11
4.0006332781
 21
4.7922615999
 31
0.0
 11
4.0035974338
 21
5.6157210116
 31
0.0
  0
SPLINE
  5
6AE
100
AcDbEntity
  8
RACCORDO
100
AcDbSpline
 62
253
  6
CONTINUOUS
 70
0
 71
3
 72
11
 73
7
 74
5
 42
0.0000001
 43
0.0000001
 44
0.0000000001
 12
-0.0000004828
 22
-0.3535861826
 32
0.0
 13
-0.0098690566
 23
-0.3534484266
 33
0.0
 40
0.0
 40
0.0
 40
0.0
 40
0.0
 40
0.2713497641
 40
0.5458509931
 40
0.7957709277
 40
1.0
 40
1.0
 40
1.0
 40
1.0
 10
-19.7831587541
 20
6.3992464695
 30
0.0
 10
-19.7831587978
 20
6.3672646271
 30
0.0
 10
-19.7833296138
 20
6.302929375
 30
0.0
 10
-19.7841071482
 20
6.209140812
 30
0.0
 10
-19.7853752073
 20
6.1232693277
 30
0.0
 10
-19.7865766178
 20
6.0697550368
 30
0.0
 10
-19.7872484672
 20
6.0456935554
 30
0.0
 11
-19.7831587541
 21
6.3992464695
 31
0.0
 11
-19.7834182155
 21
6.3033012931
 31
0.0
 11
-19.784240826
 21
6.2062449374
 31
0.0
 11
-19.785579206
 21
6.1178868376
 31
0.0
 11
-19.7872484672
 21
6.0456935554
 31
0.0
  0
SPLINE
  5
6AF
100
AcDbEntity
  8
RACCORDO
100
AcDbSpline
 62
253
  6
CONTINUOUS
 70
0
 71
3
 72
11
 73
7
 74
5
 42
0.0000001
 43
0.0000001
 44
0.0000000001
 12
-0.0098905691
 22
0.5656197527
 32
0.0
 13
-0.0000105791
 23
0.5657062205
 33
0.0
 40
0.0
 40
0.0
 40
0.0
 40
0.0
 40
0.203753628
 40
0.4534050995
 40
0.7280845227
 40
1.0
 40
1.0
 40
1.0
 40
1.0
 10
19.0105952413
 20
5.8335498685
 30
0.0
 10
19.0099234949
 20
5.8719655607
 30
0.0
 10
19.0087254473
 20
5.9574557233
 30
0.0
 10
19.0074560202
 20
6.0947442187
 30
0.0
 10
19.0066764102
 20
6.2448897427
 30
0.0
 10
19.0065062241
 20
6.3479605344
 30
0.0
 10
19.0065052652
 20
6.3992352934
 30
0.0
 11
19.0105952413
 21
5.8335498685
 31
0.0
 11
19.0089290239
 21
5.9488025196
 31
0.0
 11
19.0075905202
 21
6.090025567
 31
0.0
 11
19.0067658763
 21
6.2454112372
 31
0.0
 11
19.0065052652
 21
6.3992352934
 31
0.0
  0
SPLINE
  5
6B0
100
AcDbEntity
  8
RACCORDO
100
AcDbSpline
 62
253
  6
CONTINUOUS
 70
0
 71
3
 72
10
 73
6
 74
4
 42
0.0000001
 43
0.0000001
 44
0.0000000001
 12
0.000000142
 22
0.1414264683
 32
0.0
 13
-0.0024701873
 23
0.1414048942
 33
0.0
 40
0.0
 40
0.0
 40
0.0
 40
0.0
 40
0.3658056966
 40
0.7062804612
 40
1.0
 40
1.0
 40
1.0
 40
1.0
 10
19.0239603301
 20
4.9850217311
 30
0.0
 10
19.0239603474
 20
5.0022666003
 30
0.0
 10
19.0238865637
 20
5.0355622537
 30
0.0
 10
19.0235581455
 20
5.0827034074
 30
0.0
 10
19.0231796835
 20
5.1125986272
 30
0.0
 10
19.0229378361
 20
5.1264430873
 30
0.0
 11
19.0239603301
 21
4.9850217311
 31
0.0
 11
19.0238414872
 21
5.0367562023
 31
0.0
 11
19.0234937405
 21
5.0849070901
 31
0.0
 11
19.0229378361
 21
5.1264430873
 31
0.0
  0
SPLINE
  5
6B1
100
AcDbEntity
  8
RACCORDO
100
AcDbSpline
 62
253
  6
CONTINUOUS
 70
0
 71
3
 72
12
 73
8
 74
6
 42
0.0000001
 43
0.0000001
 44
0.0000000001
 12
0.1431629629
 22
0.1397257719
 32
0.0
 13
0.0000002731
 23
0.2000473076
 33
0.0
 40
0.0
 40
0.0
 40
0.0
 40
0.0
 40
0.053680495
 40
0.1976944885
 40
0.4183849018
 40
0.6946711573
 40
1.0
 40
1.0
 40
1.0
 40
1.0
 10
19.0205302437
 20
3.4009626697
 30
0.0
 10
19.02309193
 20
3.4034628526
 30
0.0
 10
19.0195685233
 20
3.418987738
 30
0.0
 10
19.0241140847
 20
3.444792361
 30
0.0
 10
19.0228641744
 20
3.4885959895
 30
0.0
 10
19.0240511708
 20
3.5416822568
 30
0.0
 10
19.0239603023
 20
3.5805721378
 30
0.0
 10
19.0239603301
 20
3.6009322087
 30
0.0
 11
19.0205302437
 21
3.4009626697
 31
0.0
 11
19.0215966327
 21
3.4116482287
 31
0.0
 11
19.022552294
 21
3.4404419856
 31
0.0
 11
19.0233086741
 21
3.4845840287
 31
0.0
 11
19.0237935231
 21
3.5398522236
 31
0.0
 11
19.0239603301
 21
3.6009322087
 31
0.0
  0
SPLINE
  5
6B2
100
AcDbEntity
  8
RACCORDO
100
AcDbSpline
 62
253
  6
CONTINUOUS
 70
0
 71
3
 72
12
 73
8
 74
6
 42
0.0000001
 43
0.0000001
 44
0.0000000001
 12
0.0000002731
 22
-0.2000473076
 32
0.0
 13
0.1431629629
 23
-0.1397257719
 33
0.0
 40
0.0
 40
0.0
 40
0.0
 40
0.0
 40
0.3053288425
 40
0.581615098
 40
0.8023055113
 40
0.9463195049
 40
1.0
 40
1.0
 40
1.0
 40
1.0
 10
19.7993404595
 20
3.6009322087
 30
0.0
 10
19.7993404873
 20
3.5805721378
 30
0.0
 10
19.7992496188
 20
3.5416822568
 30
0.0
 10
19.8004366152
 20
3.4885959895
 30
0.0
 10
19.7991867049
 20
3.444792361
 30
0.0
 10
19.8037322663
 20
3.418987738
 30
0.0
 10
19.8002088597
 20
3.4034628526
 30
0.0
 10
19.8027705459
 20
3.4009626697
 30
0.0
 11
19.7993404595
 21
3.6009322087
 31
0.0
 11
19.7995072665
 21
3.5398522236
 31
0.0
 11
19.7999921155
 21
3.4845840288
 31
0.0
 11
19.8007484956
 21
3.4404419856
 31
0.0
 11
19.8017041569
 21
3.4116482287
 31
0.0
 11
19.8027705459
 21
3.4009626697
 31
0.0
  0
SPLINE
  5
6B3
100
AcDbEntity
  8
RACCORDO
100
AcDbSpline
 62
253
  6
CONTINUOUS
 70
0
 71
3
 72
10
 73
6
 74
4
 42
0.0000001
 43
0.0000001
 44
0.0000000001
 12
-0.0024701868
 22
-0.1414048942
 32
0.0
 13
0.0000001414
 23
-0.1414264683
 33
0.0
 40
0.0
 40
0.0
 40
0.0
 40
0.0
 40
0.2937195618
 40
0.6341943926
 40
1.0
 40
1.0
 40
1.0
 40
1.0
 10
19.8003629535
 20
5.1264430873
 30
0.0
 10
19.8001211061
 20
5.1125986261
 30
0.0
 10
19.7997426441
 20
5.0827034021
 30
0.0
 10
19.7994142258
 20
5.0355622484
 30
0.0
 10
19.7993404423
 20
5.0022665961
 30
0.0
 10
19.7993404595
 20
4.9850217311
 30
0.0
 11
19.8003629535
 21
5.1264430873
 31
0.0
 11
19.7998070491
 21
5.0849070869
 31
0.0
 11
19.7994593023
 21
5.0367561897
 31
0.0
 11
19.7993404595
 21
4.9850217311
 31
0.0
  0
SPLINE
  5
6B4
100
AcDbEntity
  8
RACCORDO
100
AcDbSpline
 62
253
  6
CONTINUOUS
 70
0
 71
3
 72
11
 73
7
 74
5
 42
0.0000001
 43
0.0000001
 44
0.0000000001
 12
-0.0000102035
 22
-0.56570622
 32
0.0
 13
-0.0098911393
 23
-0.5656197423
 33
0.0
 40
0.0
 40
0.0
 40
0.0
 40
0.0
 40
0.27116473
 40
0.5456360084
 40
0.7955929365
 40
1.0
 40
1.0
 40
1.0
 40
1.0
 10
19.8167955244
 20
6.3992352934
 30
0.0
 10
19.8167946021
 20
6.348102102
 30
0.0
 10
19.8166251208
 20
6.2452121282
 30
0.0
 10
19.8158479253
 20
6.0951898119
 30
0.0
 10
19.8145791283
 20
5.9577597379
 30
0.0
 10
19.8133794879
 20
5.8720887587
 30
0.0
 10
19.8127055483
 20
5.8335498685
 30
0.0
 11
19.8167955244
 21
6.3992352934
 31
0.0
 11
19.8165363617
 21
6.2458359379
 31
0.0
 11
19.8157142316
 21
6.090568005
 31
0.0
 11
19.8143761573
 21
5.9491721472
 31
0.0
 11
19.8127055483
 21
5.8335498685
 31
0.0
  0
SPLINE
  5
6B5
100
AcDbEntity
  8
RACCORDO
100
AcDbSpline
 62
253
  6
CONTINUOUS
 70
0
 71
3
 72
12
 73
8
 74
6
 42
0.0000001
 43
0.0000001
 44
0.0000000001
 12
0.0000002731
 22
-0.2000473076
 32
0.0
 13
0.1431629629
 23
-0.1397257719
 33
0.0
 40
0.0
 40
0.0
 40
0.0
 40
0.0
 40
0.3053288425
 40
0.581615098
 40
0.8023055113
 40
0.9463195049
 40
1.0
 40
1.0
 40
1.0
 40
1.0
 10
-19.5006595405
 20
3.6009322087
 30
0.0
 10
-19.5006595127
 20
3.5805721378
 30
0.0
 10
-19.5007503812
 20
3.5416822568
 30
0.0
 10
-19.4995633848
 20
3.4885959895
 30
0.0
 10
-19.5008132951
 20
3.444792361
 30
0.0
 10
-19.4962677337
 20
3.418987738
 30
0.0
 10
-19.4997911403
 20
3.4034628526
 30
0.0
 10
-19.4972294541
 20
3.4009626697
 30
0.0
 11
-19.5006595405
 21
3.6009322087
 31
0.0
 11
-19.5004927335
 21
3.5398522236
 31
0.0
 11
-19.5000078845
 21
3.4845840288
 31
0.0
 11
-19.4992515044
 21
3.4404419856
 31
0.0
 11
-19.4982958431
 21
3.4116482287
 31
0.0
 11
-19.4972294541
 21
3.4009626697
 31
0.0
  0
SPLINE
  5
6B6
100
AcDbEntity
  8
RACCORDO
100
AcDbSpline
 62
253
  6
CONTINUOUS
 70
0
 71
3
 72
10
 73
6
 74
4
 42
0.0000001
 43
0.0000001
 44
0.0000000001
 12
-0.0024701868
 22
-0.1414048942
 32
0.0
 13
0.0000001414
 23
-0.1414264683
 33
0.0
 40
0.0
 40
0.0
 40
0.0
 40
0.0
 40
0.2937195618
 40
0.6341943926
 40
1.0
 40
1.0
 40
1.0
 40
1.0
 10
-19.4996370465
 20
5.1264430873
 30
0.0
 10
-19.4998788939
 20
5.1125986261
 30
0.0
 10
-19.5002573559
 20
5.0827034021
 30
0.0
 10
-19.5005857742
 20
5.0355622484
 30
0.0
 10
-19.5006595577
 20
5.0022665961
 30
0.0
 10
-19.5006595405
 20
4.9850217311
 30
0.0
 11
-19.4996370465
 21
5.1264430873
 31
0.0
 11
-19.5001929509
 21
5.0849070869
 31
0.0
 11
-19.5005406977
 21
5.0367561897
 31
0.0
 11
-19.5006595405
 21
4.9850217311
 31
0.0
  0
SPLINE
  5
6B7
100
AcDbEntity
  8
RACCORDO
100
AcDbSpline
 62
253
  6
CONTINUOUS
 70
0
 71
3
 72
11
 73
7
 74
5
 42
0.0000001
 43
0.0000001
 44
0.0000000001
 12
-0.0000102035
 22
-0.56570622
 32
0.0
 13
-0.0098911393
 23
-0.5656197423
 33
0.0
 40
0.0
 40
0.0
 40
0.0
 40
0.0
 40
0.27116473
 40
0.5456360084
 40
0.7955929365
 40
1.0
 40
1.0
 40
1.0
 40
1.0
 10
-19.4832044756
 20
6.3992352934
 30
0.0
 10
-19.4832053979
 20
6.348102102
 30
0.0
 10
-19.4833748792
 20
6.2452121282
 30
0.0
 10
-19.4841520747
 20
6.0951898119
 30
0.0
 10
-19.4854208717
 20
5.9577597379
 30
0.0
 10
-19.4866205121
 20
5.8720887587
 30
0.0
 10
-19.4872944517
 20
5.8335498685
 30
0.0
 11
-19.4832044756
 21
6.3992352934
 31
0.0
 11
-19.4834636383
 21
6.2458359379
 31
0.0
 11
-19.4842857684
 21
6.090568005
 31
0.0
 11
-19.4856238427
 21
5.9491721472
 31
0.0
 11
-19.4872944517
 21
5.8335498685
 31
0.0
  0
SPLINE
  5
6B8
100
AcDbEntity
  8
RACCORDO
100
AcDbSpline
 62
253
  6
CONTINUOUS
 70
0
 71
3
 72
11
 73
7
 74
5
 42
0.0000001
 43
0.0000001
 44
0.0000000001
 12
-0.0098905691
 22
0.5656197527
 32
0.0
 13
-0.0000105791
 23
0.5657062205
 33
0.0
 40
0.0
 40
0.0
 40
0.0
 40
0.0
 40
0.203753628
 40
0.4534050995
 40
0.7280845227
 40
1.0
 40
1.0
 40
1.0
 40
1.0
 10
-20.2894047587
 20
5.8335498685
 30
0.0
 10
-20.2900765051
 20
5.8719655607
 30
0.0
 10
-20.2912745527
 20
5.9574557233
 30
0.0
 10
-20.2925439798
 20
6.0947442187
 30
0.0
 10
-20.2933235898
 20
6.2448897427
 30
0.0
 10
-20.2934937759
 20
6.3479605344
 30
0.0
 10
-20.2934947348
 20
6.3992352934
 30
0.0
 11
-20.2894047587
 21
5.8335498685
 31
0.0
 11
-20.2910709761
 21
5.9488025196
 31
0.0
 11
-20.2924094798
 21
6.090025567
 31
0.0
 11
-20.2932341237
 21
6.2454112372
 31
0.0
 11
-20.2934947348
 21
6.3992352934
 31
0.0
  0
SPLINE
  5
6B9
100
AcDbEntity
  8
RACCORDO
100
AcDbSpline
 62
253
  6
CONTINUOUS
 70
0
 71
3
 72
10
 73
6
 74
4
 42
0.0000001
 43
0.0000001
 44
0.0000000001
 12
0.000000142
 22
0.1414264683
 32
0.0
 13
-0.0024701873
 23
0.1414048942
 33
0.0
 40
0.0
 40
0.0
 40
0.0
 40
0.0
 40
0.3658056966
 40
0.7062804612
 40
1.0
 40
1.0
 40
1.0
 40
1.0
 10
-20.2760396699
 20
4.9850217311
 30
0.0
 10
-20.2760396526
 20
5.0022666003
 30
0.0
 10
-20.2761134363
 20
5.0355622537
 30
0.0
 10
-20.2764418545
 20
5.0827034074
 30
0.0
 10
-20.2768203165
 20
5.1125986272
 30
0.0
 10
-20.2770621639
 20
5.1264430873
 30
0.0
 11
-20.2760396699
 21
4.9850217311
 31
0.0
 11
-20.2761585128
 21
5.0367562023
 31
0.0
 11
-20.2765062595
 21
5.0849070901
 31
0.0
 11
-20.2770621639
 21
5.1264430873
 31
0.0
  0
SPLINE
  5
6BA
100
AcDbEntity
  8
RACCORDO
100
AcDbSpline
 62
253
  6
CONTINUOUS
 70
0
 71
3
 72
12
 73
8
 74
6
 42
0.0000001
 43
0.0000001
 44
0.0000000001
 12
0.1431629629
 22
0.1397257719
 32
0.0
 13
0.0000002731
 23
0.2000473076
 33
0.0
 40
0.0
 40
0.0
 40
0.0
 40
0.0
 40
0.053680495
 40
0.1976944885
 40
0.4183849018
 40
0.6946711573
 40
1.0
 40
1.0
 40
1.0
 40
1.0
 10
-20.2794697563
 20
3.4009626697
 30
0.0
 10
-20.27690807
 20
3.4034628526
 30
0.0
 10
-20.2804314767
 20
3.418987738
 30
0.0
 10
-20.2758859153
 20
3.444792361
 30
0.0
 10
-20.2771358256
 20
3.4885959895
 30
0.0
 10
-20.2759488292
 20
3.5416822568
 30
0.0
 10
-20.2760396977
 20
3.5805721378
 30
0.0
 10
-20.2760396699
 20
3.6009322087
 30
0.0
 11
-20.2794697563
 21
3.4009626697
 31
0.0
 11
-20.2784033673
 21
3.4116482287
 31
0.0
 11
-20.277447706
 21
3.4404419856
 31
0.0
 11
-20.2766913259
 21
3.4845840287
 31
0.0
 11
-20.2762064769
 21
3.5398522236
 31
0.0
 11
-20.2760396699
 21
3.6009322087
 31
0.0
  0
SPLINE
  5
6BB
100
AcDbEntity
  8
RACCORDO
100
AcDbSpline
 62
253
  6
CONTINUOUS
 70
0
 71
3
 72
9
 73
5
 74
3
 42
0.0000001
 43
0.0000001
 44
0.0000000001
 12
0.0003603394
 22
-6.1661325534
 32
0.0
 13
0.0019281047
 23
-6.1661322625
 33
0.0
 40
0.0
 40
0.0
 40
0.0
 40
0.0
 40
0.500035562
 40
1.0
 40
1.0
 40
1.0
 40
1.0
 10
23.3847973161
 20
7.9746226543
 30
0.0
 10
23.3848573769
 20
6.9468608021
 30
0.0
 10
23.385108123
 20
4.8914832899
 30
0.0
 10
23.3856201494
 20
2.8361058261
 30
0.0
 10
23.3859414773
 20
1.808490209
 30
0.0
 11
23.3847973161
 21
7.9746226543
 31
0.0
 11
23.3851734702
 21
4.8913371155
 31
0.0
 11
23.3859414773
 21
1.808490209
 31
0.0
  0
LINE
  5
6BC
100
AcDbEntity
  8
RACCORDO
100
AcDbLine
 62
253
  6
CONTINUOUS
 10
23.3861815848
 20
1.076006923
 11
23.386979166
 21
-0.9925474797
  0
LINE
  5
6BD
100
AcDbEntity
  8
RACCORDO
100
AcDbLine
 62
253
  6
CONTINUOUS
 10
23.388921309
 20
-4.8212533528
 11
23.3897017703
 21
-6.095270084
  0
LINE
  5
6BE
100
AcDbEntity
  8
RACCORDO
100
AcDbLine
 62
253
  6
CONTINUOUS
 10
23.3901756561
 20
-6.8199990057
 11
23.3905260674
 21
-7.3356853939
  0
LINE
  5
6BF
100
AcDbEntity
  8
RACCORDO
100
AcDbLine
 62
253
  6
CONTINUOUS
 10
-23.8664009807
 20
-6.095270084
 11
-23.8656205194
 21
-4.8212533528
  0
LINE
  5
6C0
100
AcDbEntity
  8
RACCORDO
100
AcDbLine
 62
253
  6
CONTINUOUS
 10
-23.8672252778
 20
-7.3356853939
 11
-23.8668748665
 21
-6.8199990057
  0
LINE
  5
6C1
100
AcDbEntity
  8
RACCORDO
100
AcDbLine
 62
253
  6
CONTINUOUS
 10
-23.8636783764
 20
-0.9925474797
 11
-23.8628807952
 21
1.076006923
  0
SPLINE
  5
6C2
100
AcDbEntity
  8
RACCORDO
100
AcDbSpline
 62
253
  6
CONTINUOUS
 70
0
 71
3
 72
9
 73
5
 74
3
 42
0.0000001
 43
0.0000001
 44
0.0000000001
 12
0.0019281047
 22
6.1661322625
 32
0.0
 13
0.0003603394
 23
6.1661325534
 33
0.0
 40
0.0
 40
0.0
 40
0.0
 40
0.0
 40
0.4999644739
 40
1.0
 40
1.0
 40
1.0
 40
1.0
 10
-23.8626406877
 20
1.808490209
 30
0.0
 10
-23.8623193598
 20
2.8361058999
 30
0.0
 10
-23.8618073333
 20
4.8914833637
 30
0.0
 10
-23.8615565873
 20
6.9468608759
 30
0.0
 10
-23.8614965265
 20
7.9746226543
 30
0.0
 11
-23.8626406877
 21
1.808490209
 31
0.0
 11
-23.8618726805
 21
4.8913373368
 31
0.0
 11
-23.8614965265
 21
7.9746226543
 31
0.0
  0
SPLINE
  5
6C3
100
AcDbEntity
  8
RACCORDO
100
AcDbSpline
 62
7
  6
CONTINUOUS
 70
0
 71
3
 72
12
 73
8
 74
6
 42
0.0000001
 43
0.0000001
 44
0.0000000001
 12
0.3000708432
 22
-0.0
 32
0.0
 13
0.2121821359
 23
0.2121821203
 33
0.0
 40
0.0
 40
0.0
 40
0.0
 40
0.0
 40
0.3053517528
 40
0.5820537449
 40
0.8023025256
 40
0.9467230498
 40
1.0
 40
1.0
 40
1.0
 40
1.0
 10
23.0848432497
 20
7.9694777963
 30
0.0
 10
23.1153856357
 20
7.9694777963
 30
0.0
 10
23.1737598282
 20
7.9693462676
 30
0.0
 10
23.2534061681
 20
7.9711092705
 30
0.0
 10
23.3191024628
 20
7.9692854451
 30
0.0
 10
23.3578536825
 20
7.9760134242
 30
0.0
 10
23.381029177
 20
7.9708545155
 30
0.0
 10
23.3847973161
 20
7.9746226543
 30
0.0
 11
23.0848432497
 21
7.9694777963
 31
0.0
 11
23.176470066
 21
7.9697280005
 31
0.0
 11
23.2594970687
 21
7.9704566581
 31
0.0
 11
23.3255775971
 21
7.9715894585
 31
0.0
 11
23.3688900613
 21
7.9730292562
 31
0.0
 11
23.3847973161
 21
7.9746226543
 31
0.0
  0
SPLINE
  5
6C4
100
AcDbEntity
  8
RACCORDO
100
AcDbSpline
 62
7
  6
CONTINUOUS
 70
0
 71
3
 72
12
 73
8
 74
6
 42
0.0000001
 43
0.0000001
 44
0.0000000001
 12
0.2121821359
 22
-0.2121821203
 32
0.0
 13
0.3000708432
 23
0.0
 33
0.0
 40
0.0
 40
0.0
 40
0.0
 40
0.0
 40
0.0532769502
 40
0.1976974744
 40
0.4179462551
 40
0.6946482472
 40
1.0
 40
1.0
 40
1.0
 40
1.0
 10
-23.8614965265
 20
7.9746226543
 30
0.0
 10
-23.8577283874
 20
7.9708545155
 30
0.0
 10
-23.8345528929
 20
7.9760134242
 30
0.0
 10
-23.7958016731
 20
7.9692854451
 30
0.0
 10
-23.7301053785
 20
7.9711092705
 30
0.0
 10
-23.6504590386
 20
7.9693462676
 30
0.0
 10
-23.592084846
 20
7.9694777963
 30
0.0
 10
-23.5615424601
 20
7.9694777963
 30
0.0
 11
-23.8614965265
 21
7.9746226543
 31
0.0
 11
-23.8455892717
 21
7.9730292562
 31
0.0
 11
-23.8022768075
 21
7.9715894585
 31
0.0
 11
-23.7361962791
 21
7.9704566581
 31
0.0
 11
-23.6531692764
 21
7.9697280005
 31
0.0
 11
-23.5615424601
 21
7.9694777963
 31
0.0
  0
SPLINE
  5
6C5
100
AcDbEntity
  8
RACCORDO
100
AcDbSpline
 62
253
  6
CONTINUOUS
 70
0
 71
3
 72
11
 73
7
 74
5
 42
0.0000001
 43
0.0000001
 44
0.0000000001
 12
-0.0098689072
 22
0.3534493123
 32
0.0
 13
-0.0000004971
 23
0.3535870638
 33
0.0
 40
0.0
 40
0.0
 40
0.0
 40
0.0
 40
0.2035823994
 40
0.4531925193
 40
0.7278954329
 40
1.0
 40
1.0
 40
1.0
 40
1.0
 10
-19.9894507295
 20
6.0456930055
 30
0.0
 10
-19.9901204414
 20
6.0696783585
 30
0.0
 10
-19.991320204
 20
6.1230800512
 30
0.0
 10
-19.992588916
 20
6.2088627679
 30
0.0
 10
-19.993368837
 20
6.3027277674
 30
0.0
 10
-19.9935404122
 20
6.3671759149
 30
0.0
 10
-19.9935404573
 20
6.3992467999
 30
0.0
 11
-19.9894507295
 21
6.0456930055
 31
0.0
 11
-19.9911156448
 21
6.1176578519
 31
0.0
 11
-19.9924544275
 21
6.2059066068
 31
0.0
 11
-19.9932795384
 21
6.3030344988
 31
0.0
 11
-19.9935404573
 21
6.3992467999
 31
0.0
  0
SPLINE
  5
6C6
100
AcDbEntity
  8
RACCORDO
100
AcDbSpline
 62
7
  6
CONTINUOUS
 70
0
 71
3
 72
11
 73
7
 74
5
 42
0.0000001
 43
0.0000001
 44
0.0000000001
 12
0.1877591259
 22
0.0090044273
 32
0.0
 13
0.1879749161
 23
0.0
 33
0.0
 40
0.0
 40
0.0
 40
0.0
 40
0.0
 40
0.1566793638
 40
0.3898272684
 40
0.6785348125
 40
1.0
 40
1.0
 40
1.0
 40
1.0
 10
4.0035974338
 20
5.6157210116
 30
0.0
 10
4.0134034273
 20
5.6161912809
 30
0.0
 10
4.0378247069
 20
5.6168171662
 30
0.0
 10
4.0803340641
 20
5.6174945094
 30
0.0
 10
4.1331744132
 20
5.6179178041
 30
0.0
 10
4.1714066979
 20
5.6180185239
 30
0.0
 10
4.1915491618
 20
5.6180185239
 30
0.0
 11
4.0035974338
 21
5.6157210116
 31
0.0
 11
4.0330343744
 21
5.6166561491
 31
0.0
 11
4.076854232
 21
5.6173873507
 31
0.0
 11
4.1311219904
 21
5.6178553439
 31
0.0
 11
4.1915491618
 21
5.6180185239
 31
0.0
  0
SPLINE
  5
6C7
100
AcDbEntity
  8
RACCORDO
100
AcDbSpline
 62
7
  6
CONTINUOUS
 70
0
 71
3
 72
11
 73
7
 74
5
 42
0.0000001
 43
0.0000001
 44
0.0000000001
 12
-0.1879629154
 22
0.0
 32
0.0
 13
-0.1877471389
 23
0.0090038568
 33
0.0
 40
0.0
 40
0.0
 40
0.0
 40
0.0
 40
0.3215242523
 40
0.6102453572
 40
0.8433660718
 40
1.0
 40
1.0
 40
1.0
 40
1.0
 10
4.1850262569
 20
3.9665514704
 30
0.0
 10
4.1648813783
 20
3.9665514704
 30
0.0
 10
4.1266469842
 20
3.9666521732
 30
0.0
 10
4.0738071609
 20
3.9670753767
 30
0.0
 10
4.031304217
 20
3.9677525249
 30
0.0
 10
4.0068890427
 20
3.9683781563
 30
0.0
 10
3.9970865188
 20
3.9688482595
 30
0.0
 11
4.1850262569
 21
3.9665514704
 31
0.0
 11
4.1245918414
 21
3.9667146386
 31
0.0
 11
4.0703249979
 21
3.9671825474
 31
0.0
 11
4.0265130462
 21
3.9679135197
 31
0.0
 11
3.9970865188
 21
3.9688482595
 31
0.0
  0
SPLINE
  5
6C8
100
AcDbEntity
  8
RACCORDO
100
AcDbSpline
 62
7
  6
CONTINUOUS
 70
0
 71
3
 72
11
 73
7
 74
5
 42
0.0000001
 43
0.0000001
 44
0.0000000001
 12
-0.1877471389
 22
-0.0090038568
 32
0.0
 13
-0.1879629155
 23
0.0
 33
0.0
 40
0.0
 40
0.0
 40
0.0
 40
0.0
 40
0.1566339282
 40
0.3897546428
 40
0.6784757477
 40
1.0
 40
1.0
 40
1.0
 40
1.0
 10
-4.4737857292
 20
3.9688482595
 30
0.0
 10
-4.4835882531
 20
3.9683781563
 30
0.0
 10
-4.5080034274
 20
3.9677525249
 30
0.0
 10
-4.5505063713
 20
3.9670753767
 30
0.0
 10
-4.6033461946
 20
3.9666521732
 30
0.0
 10
-4.6415805887
 20
3.9665514704
 30
0.0
 10
-4.6617254673
 20
3.9665514704
 30
0.0
 11
-4.4737857292
 21
3.9688482595
 31
0.0
 11
-4.5032122566
 21
3.9679135197
 31
0.0
 11
-4.5470242083
 21
3.9671825474
 31
0.0
 11
-4.6012910518
 21
3.9667146386
 31
0.0
 11
-4.6617254673
 21
3.9665514704
 31
0.0
  0
SPLINE
  5
6C9
100
AcDbEntity
  8
RACCORDO
100
AcDbSpline
 62
7
  6
CONTINUOUS
 70
0
 71
3
 72
11
 73
7
 74
5
 42
0.0000001
 43
0.0000001
 44
0.0000000001
 12
0.1879749161
 22
0.0
 32
0.0
 13
0.1877591259
 23
-0.0090044273
 33
0.0
 40
0.0
 40
0.0
 40
0.0
 40
0.0
 40
0.3214651875
 40
0.6101727316
 40
0.8433206362
 40
1.0
 40
1.0
 40
1.0
 40
1.0
 10
-4.6682483721
 20
5.6180185239
 30
0.0
 10
-4.6481059083
 20
5.6180185239
 30
0.0
 10
-4.6098736235
 20
5.6179178041
 30
0.0
 10
-4.5570332744
 20
5.6174945094
 30
0.0
 10
-4.5145239173
 20
5.6168171662
 30
0.0
 10
-4.4901026377
 20
5.6161912809
 30
0.0
 10
-4.4802966442
 20
5.6157210116
 30
0.0
 11
-4.6682483721
 21
5.6180185239
 31
0.0
 11
-4.6078212008
 21
5.6178553439
 31
0.0
 11
-4.5535534424
 21
5.6173873507
 31
0.0
 11
-4.5097335848
 21
5.6166561491
 31
0.0
 11
-4.4802966442
 21
5.6157210116
 31
0.0
  0
SPLINE
  5
6CA
100
AcDbEntity
  8
ASSI
100
AcDbSpline
 62
7
  6
CONTINUOUS
 70
0
 71
3
 72
9
 73
5
 74
3
 42
0.0000001
 43
0.0000001
 44
0.0000000001
 12
-0.0046820729
 22
0.3133621937
 32
0.0
 13
-0.3113313703
 23
0.0361338596
 33
0.0
 40
0.0
 40
0.0
 40
0.0
 40
0.0
 40
0.4988583766
 40
1.0
 40
1.0
 40
1.0
 40
1.0
 10
13.0979050127
 20
-2.3325252823
 30
0.0
 10
13.097126449
 20
-2.2804174973
 30
0.0
 10
13.0547019028
 20
-2.1717435315
 30
0.0
 10
12.9494656522
 20
-2.1259263854
 30
0.0
 10
12.897458616
 20
-2.1198903251
 30
0.0
 11
13.0979050127
 21
-2.3325252823
 31
0.0
 11
13.0391674678
 21
-2.187634189
 31
0.0
 11
12.897458616
 21
-2.1198903251
 31
0.0
  0
SPLINE
  5
6CB
100
AcDbEntity
  8
ASSI
100
AcDbSpline
 62
7
  6
CONTINUOUS
 70
0
 71
3
 72
9
 73
5
 74
3
 42
0.0000001
 43
0.0000001
 44
0.0000000001
 12
-0.2768734096
 22
0.0321345862
 32
0.0
 13
-0.2747605685
 23
-0.046883616
 33
0.0
 40
0.0
 40
0.0
 40
0.0
 40
0.0
 40
0.7295958319
 40
1.0
 40
1.0
 40
1.0
 40
1.0
 10
12.897458616
 20
-2.1198903252
 30
0.0
 10
12.8301233875
 20
-2.1120752385
 30
0.0
 10
12.736130699
 20
-2.1117739906
 30
0.0
 10
12.6442572941
 20
-2.125671995
 30
0.0
 10
12.6194918264
 20
-2.1298978368
 30
0.0
 11
12.897458616
 21
-2.1198903252
 31
0.0
 11
12.694098156
 21
-2.1191940652
 31
0.0
 11
12.6194918264
 21
-2.1298978368
 31
0.0
  0
SPLINE
  5
6CC
100
AcDbEntity
  8
ASSI
100
AcDbSpline
 62
7
  6
CONTINUOUS
 70
0
 71
3
 72
9
 73
5
 74
3
 42
0.0000001
 43
0.0000001
 44
0.0000000001
 12
0.4232572624
 22
0.0094537593
 32
0.0
 13
-0.0063259437
 23
0.4233860928
 33
0.0
 40
0.0
 40
0.0
 40
0.0
 40
0.0
 40
0.4795375616
 40
1.0
 40
1.0
 40
1.0
 40
1.0
 10
12.8222725393
 20
-2.5965433192
 30
0.0
 10
12.8899284578
 20
-2.595032175
 30
0.0
 10
13.0470705284
 20
-2.5664104045
 30
0.0
 10
13.09900247
 20
-2.4059774687
 30
0.0
 10
13.097904998
 20
-2.3325252826
 30
0.0
 11
12.8222725393
 21
-2.5965433192
 31
0.0
 11
13.0164457793
 21
-2.5372709426
 31
0.0
 11
13.097904998
 21
-2.3325252826
 31
0.0
  0
SPLINE
  5
6CD
100
AcDbEntity
  8
ASSI
100
AcDbSpline
 62
7
  6
CONTINUOUS
 70
0
 71
3
 72
17
 73
13
 74
11
 42
0.0000001
 43
0.0000001
 44
0.0000000001
 12
0.9958819045
 22
-0.3598342768
 32
0.0
 13
-1.050193894
 23
-0.1355088895
 33
0.0
 40
0.0
 40
0.0
 40
0.0
 40
0.0
 40
0.0798430187
 40
0.1895551228
 40
0.3223119562
 40
0.398530744
 40
0.483321362
 40
0.5876727129
 40
0.6789531193
 40
0.8312245932
 40
0.9440148167
 40
1.0
 40
1.0
 40
1.0
 40
1.0
 10
13.1536445414
 20
-1.878111852
 30
0.0
 10
13.1801492806
 20
-1.8876886036
 30
0.0
 10
13.2393958701
 20
-1.9203763135
 30
0.0
 10
13.325596938
 20
-1.9961691531
 30
0.0
 10
13.3866732022
 20
-2.0931257622
 30
0.0
 10
13.4191916312
 20
-2.192058877
 30
0.0
 10
13.4326087251
 20
-2.2851655607
 30
0.0
 10
13.4300628408
 20
-2.3848523833
 30
0.0
 10
13.4029639728
 20
-2.5049600097
 30
0.0
 10
13.3421328573
 20
-2.620090946
 30
0.0
 10
13.2595176915
 20
-2.6948831177
 30
0.0
 10
13.2097010101
 20
-2.734117759
 30
0.0
 10
13.1901025776
 20
-2.736646589
 30
0.0
 11
13.1536445414
 21
-1.878111852
 31
0.0
 11
13.2285430218
 21
-1.9173345288
 31
0.0
 11
13.3156709775
 21
-1.9941795661
 31
0.0
 11
13.3906812305
 21
-2.1130708809
 31
0.0
 11
13.4160731357
 21
-2.1896805949
 31
0.0
 11
13.4293527158
 21
-2.2784779216
 31
0.0
 11
13.4261139092
 21
-2.388928123
 31
0.0
 11
13.4045393095
 21
-2.4831463988
 31
0.0
 11
13.3278157678
 21
-2.6249629571
 31
0.0
 11
13.2420481657
 21
-2.7080791645
 31
0.0
 11
13.1901025776
 21
-2.736646589
 31
0.0
  0
SPLINE
  5
6CE
100
AcDbEntity
  8
ASSI
100
AcDbSpline
 62
7
  6
CONTINUOUS
 70
0
 71
3
 72
8
 73
4
 74
2
 42
0.0000001
 43
0.0000001
 44
0.0000000001
 12
0.0468153254
 22
-0.018667611
 32
0.0
 13
0.0404489985
 23
-0.0293488028
 33
0.0
 40
0.0
 40
0.0
 40
0.0
 40
0.0
 40
1.0
 40
1.0
 40
1.0
 40
1.0
 10
13.1901025776
 20
-2.7466912961
 30
0.0
 10
13.205707686
 20
-2.7529138331
 30
0.0
 10
13.2202124067
 20
-2.7611038084
 30
0.0
 10
13.2336954062
 20
-2.7708867427
 30
0.0
 11
13.1901025776
 21
-2.7466912961
 31
0.0
 11
13.2336954062
 21
-2.7708867427
 31
0.0
  0
SPLINE
  5
6CF
100
AcDbEntity
  8
ASSI
100
AcDbSpline
 62
7
  6
CONTINUOUS
 70
0
 71
3
 72
9
 73
5
 74
3
 42
0.0000001
 43
0.0000001
 44
0.0000000001
 12
0.2399260035
 22
-0.2145228187
 32
0.0
 13
0.0845359266
 23
-0.3102902278
 33
0.0
 40
0.0
 40
0.0
 40
0.0
 40
0.0
 40
0.7012282199
 40
1.0
 40
1.0
 40
1.0
 40
1.0
 10
13.2521574144
 20
-2.7858045948
 30
0.0
 10
13.3082383758
 20
-2.8359477463
 30
0.0
 10
13.3601057941
 20
-2.9478760529
 30
0.0
 10
13.3862205761
 20
-3.0492258583
 30
0.0
 10
13.3946395592
 20
-3.0801278462
 30
0.0
 11
13.2521574144
 21
-2.7858045948
 31
0.0
 11
13.3683170581
 21
-2.9877206493
 31
0.0
 11
13.3946395592
 21
-3.0801278462
 31
0.0
  0
SPLINE
  5
6D0
100
AcDbEntity
  8
ASSI
100
AcDbSpline
 62
7
  6
CONTINUOUS
 70
0
 71
3
 72
9
 73
5
 74
3
 42
0.0000001
 43
0.0000001
 44
0.0000000001
 12
0.1250599769
 22
-0.4590343077
 32
0.0
 13
0.1246990825
 23
-0.4591324849
 33
0.0
 40
0.0
 40
0.0
 40
0.0
 40
0.0
 40
0.8019701246
 40
1.0
 40
1.0
 40
1.0
 40
1.0
 10
13.3946395594
 20
-3.0801278461
 30
0.0
 10
13.4280710145
 20
-3.2028384465
 30
0.0
 10
13.4674138439
 20
-3.3564766936
 30
0.0
 10
13.507699572
 20
-3.5098648582
 30
0.0
 10
13.5159309533
 20
-3.5401721745
 30
0.0
 11
13.3946395594
 21
-3.0801278461
 31
0.0
 11
13.4917809931
 21
-3.4491041728
 31
0.0
 11
13.5159309533
 21
-3.5401721745
 31
0.0
  0
SPLINE
  5
6D1
100
AcDbEntity
  8
ASSI
100
AcDbSpline
 62
7
  6
CONTINUOUS
 70
0
 71
3
 72
9
 73
5
 74
3
 42
0.0000001
 43
0.0000001
 44
0.0000000001
 12
-0.1487666252
 22
0.5174419044
 32
0.0
 13
-0.1893777802
 23
0.5039985871
 33
0.0
 40
0.0
 40
0.0
 40
0.0
 40
0.0
 40
0.4413080349
 40
1.0
 40
1.0
 40
1.0
 40
1.0
 10
13.1746276099
 20
-3.5401721745
 30
0.0
 10
13.1527436409
 20
-3.4640550844
 30
0.0
 10
13.1010744472
 20
-3.2922815121
 30
0.0
 10
13.0547077076
 20
-3.1184975126
 30
0.0
 10
13.0194397596
 20
-3.0246375256
 30
0.0
 11
13.1746276099
 21
-3.5401721745
 31
0.0
 11
13.1081722479
 21
-3.3120534328
 31
0.0
 11
13.0194397596
 21
-3.0246375256
 31
0.0
  0
SPLINE
  5
6D2
100
AcDbEntity
  8
ASSI
100
AcDbSpline
 62
7
  6
CONTINUOUS
 70
0
 71
3
 72
9
 73
5
 74
3
 42
0.0000001
 43
0.0000001
 44
0.0000000001
 12
-0.0895737501
 22
0.2383859055
 32
0.0
 13
-0.2546300208
 23
0.0
 33
0.0
 40
0.0
 40
0.0
 40
0.0
 40
0.0
 40
0.8563651185
 40
1.0
 40
1.0
 40
1.0
 40
1.0
 10
13.0194397736
 20
-3.0246375203
 30
0.0
 10
12.9938704952
 20
-2.9565890622
 30
0.0
 10
12.9188215298
 20
-2.8809572993
 30
0.0
 10
12.8336989648
 20
-2.8749397719
 30
0.0
 10
12.8215077138
 20
-2.8749397719
 30
0.0
 11
13.0194397736
 21
-3.0246375203
 31
0.0
 11
12.8579442757
 21
-2.8781046354
 31
0.0
 11
12.8215077138
 21
-2.8749397719
 31
0.0
  0
SPLINE
  5
6D3
100
AcDbEntity
  8
ASSI
100
AcDbSpline
 62
7
  6
CONTINUOUS
 70
0
 71
3
 72
9
 73
5
 74
3
 42
0.0000001
 43
0.0000001
 44
0.0000000001
 12
0.870352019
 22
0.1280436023
 32
0.0
 13
0.8273203445
 23
-0.2990739652
 33
0.0
 40
0.0
 40
0.0
 40
0.0
 40
0.0
 40
0.8916594654
 40
1.0
 40
1.0
 40
1.0
 40
1.0
 10
12.2778570587
 20
-1.8601694056
 30
0.0
 10
12.5365429307
 20
-1.8221123089
 30
0.0
 10
12.8408673849
 20
-1.786618671
 30
0.0
 10
13.123767083
 20
-1.8673112793
 30
0.0
 10
13.1536445258
 20
-1.8781118904
 30
0.0
 11
12.2778570587
 21
-1.8601694056
 31
0.0
 11
13.0622165972
 21
-1.8511904747
 31
0.0
 11
13.1536445258
 21
-1.8781118904
 31
0.0
  0
SPLINE
  5
6D4
100
AcDbEntity
  8
ASSI
100
AcDbSpline
 62
7
  6
CONTINUOUS
 70
0
 71
3
 72
10
 73
6
 74
4
 42
0.0000001
 43
0.0000001
 44
0.0000000001
 12
-0.1883406519
 22
0.1821745431
 32
0.0
 13
-0.1853866352
 23
0.1851798068
 33
0.0
 40
0.0
 40
0.0
 40
0.0
 40
0.0
 40
0.2866167254
 40
0.6201205121
 40
1.0
 40
1.0
 40
1.0
 40
1.0
 10
23.2772455797
 20
-7.5314167271
 30
0.0
 10
23.2592517194
 20
-7.5140119701
 30
0.0
 10
23.2204607129
 20
-7.476210154
 30
0.0
 10
23.1582312342
 20
-7.4149206379
 30
0.0
 10
23.1140466188
 20
-7.3709865471
 30
0.0
 10
23.0905717588
 20
-7.3475378771
 30
0.0
 11
23.2772455797
 21
-7.5314167271
 31
0.0
 11
23.2234366729
 21
-7.4790245261
 31
0.0
 11
23.1611628154
 21
-7.4177168294
 31
0.0
 11
23.0905717588
 21
-7.3475378771
 31
0.0
  0
SPLINE
  5
6D5
100
AcDbEntity
  8
ASSI
100
AcDbSpline
 62
7
  6
CONTINUOUS
 70
0
 71
3
 72
10
 73
6
 74
4
 42
0.0000001
 43
0.0000001
 44
0.0000000001
 12
0.1932247375
 22
0.1319117349
 32
0.0
 13
0.0047953966
 23
0.23390919
 33
0.0
 40
0.0
 40
0.0
 40
0.0
 40
0.0
 40
0.3373558539
 40
0.6687258877
 40
1.0
 40
1.0
 40
1.0
 40
1.0
 10
23.2772455797
 20
-7.5314167271
 30
0.0
 10
23.2989740785
 20
-7.5165829951
 30
0.0
 10
23.3383563606
 20
-7.4811766073
 30
0.0
 10
23.3793361009
 20
-7.4134218068
 30
0.0
 10
23.3899965371
 20
-7.3615147466
 30
0.0
 10
23.3905260674
 20
-7.3356853935
 30
0.0
 11
23.2772455797
 21
-7.5314167271
 31
0.0
 11
23.3356605091
 21
-7.4783394119
 31
0.0
 11
23.3752152006
 21
-7.4116623657
 31
0.0
 11
23.3905260674
 21
-7.3356853935
 31
0.0
  0
SPLINE
  5
6D6
100
AcDbEntity
  8
ASSI
100
AcDbSpline
 62
7
  6
CONTINUOUS
 70
0
 71
3
 72
10
 73
6
 74
4
 42
0.0000001
 43
0.0000001
 44
0.0000000001
 12
0.2111537282
 22
0.0378702165
 32
0.0
 13
0.151821365
 23
0.1515596362
 33
0.0
 40
0.0
 40
0.0
 40
0.0
 40
0.0
 40
0.3429101549
 40
0.6755847515
 40
1.0
 40
1.0
 40
1.0
 40
1.0
 10
23.0905717588
 20
-7.6311277187
 30
0.0
 10
23.1147073446
 20
-7.6267990248
 30
0.0
 10
23.1614388948
 20
-7.6127536146
 30
0.0
 10
23.2244050388
 20
-7.5779857562
 30
0.0
 10
23.2608278578
 20
-7.5478061461
 30
0.0
 10
23.2772455797
 20
-7.5314167271
 30
0.0
 11
23.0905717588
 21
-7.6311277187
 31
0.0
 11
23.1610667622
 21
-7.6101079336
 31
0.0
 11
23.223655884
 21
-7.5758187132
 31
0.0
 11
23.2772455797
 21
-7.5314167271
 31
0.0
  0
SPLINE
  5
6D7
100
AcDbEntity
  8
ASSI
100
AcDbSpline
 62
7
  6
CONTINUOUS
 70
0
 71
3
 72
13
 73
9
 74
7
 42
0.0000001
 43
0.0000001
 44
0.0000000001
 12
-0.4360540282
 22
-0.0003592369
 32
0.0
 13
-0.0089035972
 23
0.4359632674
 33
0.0
 40
0.0
 40
0.0
 40
0.0
 40
0.0
 40
0.1762313956
 40
0.3431225387
 40
0.5099732983
 40
0.6748732839
 40
0.8372164229
 40
1.0
 40
1.0
 40
1.0
 40
1.0
 10
-23.5631087139
 20
-7.5890815906
 30
0.0
 10
-23.5887241839
 20
-7.5891026935
 30
0.0
 10
-23.6387704173
 20
-7.5835451827
 30
0.0
 10
-23.7095320241
 20
-7.559770498
 30
0.0
 10
-23.7720483314
 20
-7.5218012532
 30
0.0
 10
-23.8230652038
 20
-7.4700844984
 30
0.0
 10
-23.8577761669
 20
-7.4067600992
 30
0.0
 10
-23.866742158
 20
-7.3593412802
 30
0.0
 10
-23.8672252778
 20
-7.3356853935
 30
0.0
 11
-23.5631087139
 21
-7.5890815906
 31
0.0
 11
-23.639490112
 21
-7.5806402187
 31
0.0
 11
-23.7084207939
 21
-7.557304516
 31
0.0
 11
-23.7704367058
 21
-7.5192590441
 31
0.0
 11
-23.8206354128
 21
-7.4677763683
 31
0.0
 11
-23.8542384113
 21
-7.4054697093
 31
0.0
 11
-23.8672252778
 21
-7.3356853935
 31
0.0
  0
SPLINE
  5
6D8
100
AcDbEntity
  8
ASSI
100
AcDbSpline
 62
253
  6
CONTINUOUS
 70
0
 71
3
 72
11
 73
7
 74
5
 42
0.0000001
 43
0.0000001
 44
0.0000000001
 12
-0.0069988224
 22
0.4010844298
 32
0.0
 13
-0.4011302123
 23
0.0035008769
 33
0.0
 40
0.0
 40
0.0
 40
0.0
 40
0.0
 40
0.2095153874
 40
0.4453794694
 40
0.7128570698
 40
1.0
 40
1.0
 40
1.0
 40
1.0
 10
-19.4872944517
 20
5.8335498685
 30
0.0
 10
-19.4877832387
 20
5.8615609884
 30
0.0
 10
-19.506878731
 20
5.9214282205
 30
0.0
 10
-19.5767256207
 20
5.99008264
 30
0.0
 10
-19.674331007
 20
6.0347070143
 30
0.0
 10
-19.7488548587
 20
6.0453468188
 30
0.0
 10
-19.7872487603
 20
6.0456819028
 30
0.0
 11
-19.4872944517
 21
5.8335498685
 31
0.0
 11
-19.5111803938
 21
5.9141303719
 31
0.0
 11
-19.576445776
 21
5.9826327942
 31
0.0
 11
-19.6733080759
 21
6.0287894184
 31
0.0
 11
-19.7872487603
 21
6.0456819028
 31
0.0
  0
SPLINE
  5
6D9
100
AcDbEntity
  8
ASSI
100
AcDbSpline
 62
253
  6
CONTINUOUS
 70
0
 71
3
 72
11
 73
7
 74
5
 42
0.0000001
 43
0.0000001
 44
0.0000000001
 12
-0.0069988137
 22
0.401084489
 32
0.0
 13
-0.401130273
 23
0.0035006841
 33
0.0
 40
0.0
 40
0.0
 40
0.0
 40
0.0
 40
0.2095120489
 40
0.4453745127
 40
0.7128531963
 40
1.0
 40
1.0
 40
1.0
 40
1.0
 10
-19.4996370465
 20
5.1264430873
 30
0.0
 10
-19.5001258251
 20
5.154453765
 30
0.0
 10
-19.5192207631
 20
5.2143203482
 30
0.0
 10
-19.5890667514
 20
5.282974976
 30
0.0
 10
-19.6866723825
 20
5.3276000389
 30
0.0
 10
-19.7611969298
 20
5.3382400488
 30
0.0
 10
-19.7995913551
 20
5.3385751188
 30
0.0
 11
-19.4996370465
 21
5.1264430873
 31
0.0
 11
-19.5235222632
 21
5.2070224218
 31
0.0
 11
-19.588786687
 21
5.2755248798
 31
0.0
 11
-19.685649144
 21
5.3216822211
 31
0.0
 11
-19.7995913551
 21
5.3385751188
 31
0.0
  0
SPLINE
  5
6DA
100
AcDbEntity
  8
ASSI
100
AcDbSpline
 62
253
  6
CONTINUOUS
 70
0
 71
3
 72
11
 73
7
 74
5
 42
0.0000001
 43
0.0000001
 44
0.0000000001
 12
0.0069988224
 22
0.4010844293
 32
0.0
 13
0.4011302117
 23
0.0035008838
 33
0.0
 40
0.0
 40
0.0
 40
0.0
 40
0.0
 40
0.2095153873
 40
0.4453794686
 40
0.7128570688
 40
1.0
 40
1.0
 40
1.0
 40
1.0
 10
-20.2770621639
 20
5.1264430873
 30
0.0
 10
-20.2765733769
 20
5.1544542071
 30
0.0
 10
-20.2574778847
 20
5.2143214391
 30
0.0
 10
-20.187630995
 20
5.2829758583
 30
0.0
 10
-20.0900256084
 20
5.3276002316
 30
0.0
 10
-20.015501757
 20
5.338240037
 30
0.0
 10
-19.9771078554
 20
5.3385751217
 30
0.0
 11
-20.2770621639
 21
5.1264430873
 31
0.0
 11
-20.2531762218
 21
5.2070235905
 31
0.0
 11
-20.1879108397
 21
5.2755260124
 31
0.0
 11
-20.0910485398
 21
5.321682636
 31
0.0
 11
-19.9771078554
 21
5.3385751217
 31
0.0
  0
SPLINE
  5
6DB
100
AcDbEntity
  8
ASSI
100
AcDbSpline
 62
253
  6
CONTINUOUS
 70
0
 71
3
 72
11
 73
7
 74
5
 42
0.0000001
 43
0.0000001
 44
0.0000000001
 12
0.0069988223
 22
0.4010844284
 32
0.0
 13
0.4011302109
 23
0.003500877
 33
0.0
 40
0.0
 40
0.0
 40
0.0
 40
0.0
 40
0.209515632
 40
0.4453798145
 40
0.7128573246
 40
1.0
 40
1.0
 40
1.0
 40
1.0
 10
-20.2894047587
 20
5.8335498685
 30
0.0
 10
-20.2889159711
 20
5.861561021
 30
0.0
 10
-20.2698204406
 20
5.9214282989
 30
0.0
 10
-20.1999734901
 20
5.9900827037
 30
0.0
 10
-20.1023681217
 20
6.0347070302
 30
0.0
 10
-20.0278443175
 20
6.0453468191
 30
0.0
 10
-19.9894504501
 20
6.0456819029
 30
0.0
 11
-20.2894047587
 21
5.8335498685
 31
0.0
 11
-20.2655187648
 21
5.9141304585
 31
0.0
 11
-20.2002533192
 21
5.9826328757
 31
0.0
 11
-20.1033910352
 21
6.0287894481
 31
0.0
 11
-19.9894504501
 21
6.0456819029
 31
0.0
  0
SPLINE
  5
6DC
100
AcDbEntity
  8
ASSI
100
AcDbSpline
 62
7
  6
CONTINUOUS
 70
0
 71
3
 72
12
 73
8
 74
6
 42
0.0000001
 43
0.0000001
 44
0.0000000001
 12
0.3000739778
 22
-0.0
 32
0.0
 13
0.212185585
 23
0.2121831041
 33
0.0
 40
0.0
 40
0.0
 40
0.0
 40
0.0
 40
0.3053475036
 40
0.5820489604
 40
0.8022991747
 40
0.9467217969
 40
1.0
 40
1.0
 40
1.0
 40
1.0
 10
23.088964115
 20
-4.8263984185
 30
0.0
 10
23.119506395
 20
-4.8263984185
 30
0.0
 10
23.1778807128
 20
-4.8265299342
 30
0.0
 10
23.2575275657
 20
-4.8247669266
 30
0.0
 10
23.3232248229
 20
-4.8265907114
 30
0.0
 10
23.3619769408
 20
-4.8198626351
 30
0.0
 10
23.3851530201
 20
-4.8250215977
 30
0.0
 10
23.388921309
 20
-4.8212533528
 30
0.0
 11
23.088964115
 21
-4.8263984185
 31
0.0
 11
23.1805906134
 21
-4.8261482084
 31
0.0
 11
23.2636183227
 21
-4.8254195285
 31
0.0
 11
23.3296999711
 21
-4.8242866857
 31
0.0
 11
23.373013516
 21
-4.8228468262
 31
0.0
 11
23.388921309
 21
-4.8212533528
 31
0.0
  0
SPLINE
  5
6DD
100
AcDbEntity
  8
ASSI
100
AcDbSpline
 62
7
  6
CONTINUOUS
 70
0
 71
3
 72
12
 73
8
 74
6
 42
0.0000001
 43
0.0000001
 44
0.0000000001
 12
0.212185585
 22
-0.2121831041
 32
0.0
 13
0.3000739778
 23
0.0
 33
0.0
 40
0.0
 40
0.0
 40
0.0
 40
0.0
 40
0.0532782031
 40
0.1977008253
 40
0.4179510396
 40
0.6946524964
 40
1.0
 40
1.0
 40
1.0
 40
1.0
 10
-23.8656205194
 20
-4.8212533528
 30
0.0
 10
-23.8618522305
 20
-4.8250215977
 30
0.0
 10
-23.8386761512
 20
-4.8198626351
 30
0.0
 10
-23.7999240333
 20
-4.8265907114
 30
0.0
 10
-23.7342267761
 20
-4.8247669266
 30
0.0
 10
-23.6545799232
 20
-4.8265299342
 30
0.0
 10
-23.5962056054
 20
-4.8263984185
 30
0.0
 10
-23.5656633254
 20
-4.8263984185
 30
0.0
 11
-23.8656205194
 21
-4.8212533528
 31
0.0
 11
-23.8497127264
 21
-4.8228468262
 31
0.0
 11
-23.8063991815
 21
-4.8242866857
 31
0.0
 11
-23.7403175331
 21
-4.8254195285
 31
0.0
 11
-23.6572898238
 21
-4.8261482084
 31
0.0
 11
-23.5656633254
 21
-4.8263984185
 31
0.0
  0
SPLINE
  5
6DE
100
AcDbEntity
  8
ASSI
100
AcDbSpline
 62
7
  6
CONTINUOUS
 70
0
 71
3
 72
12
 73
8
 74
6
 42
0.0000001
 43
0.0000001
 44
0.0000000001
 12
-0.2121858917
 22
0.2121865075
 32
0.0
 13
-0.3000766013
 23
0.0
 33
0.0
 40
0.0
 40
0.0
 40
0.0
 40
0.0
 40
0.0533078243
 40
0.1977742039
 40
0.4180472247
 40
0.6947316031
 40
1.0
 40
1.0
 40
1.0
 40
1.0
 10
23.386979166
 20
-0.9925474797
 30
0.0
 10
23.3832087766
 20
-0.9887770794
 30
0.0
 10
23.3600238528
 20
-0.9939367858
 30
0.0
 10
23.3212623494
 20
-0.9872074561
 30
0.0
 10
23.2555596558
 20
-0.9890301346
 30
0.0
 10
23.1759192738
 20
-0.9872672819
 30
0.0
 10
23.1175541427
 20
-0.9873985725
 30
0.0
 10
23.0870195084
 20
-0.9873985725
 30
0.0
 11
23.386979166
 21
-0.9925474797
 31
0.0
 11
23.3710624592
 21
-0.990952412
 31
0.0
 11
23.3277354358
 21
-0.9895113982
 31
0.0
 11
23.2616463768
 21
-0.9883778485
 31
0.0
 11
23.1786230695
 21
-0.9876488401
 31
0.0
 11
23.0870195084
 21
-0.9873985725
 31
0.0
  0
SPLINE
  5
6DF
100
AcDbEntity
  8
ASSI
100
AcDbSpline
 62
7
  6
CONTINUOUS
 70
0
 71
3
 72
12
 73
8
 74
6
 42
0.0000001
 43
0.0000001
 44
0.0000000001
 12
-0.3000766013
 22
-0.0
 32
0.0
 13
-0.2121858917
 23
-0.2121865075
 33
0.0
 40
0.0
 40
0.0
 40
0.0
 40
0.0
 40
0.3052683969
 40
0.5819527753
 40
0.8022257961
 40
0.9466921757
 40
1.0
 40
1.0
 40
1.0
 40
1.0
 10
-23.5637187188
 20
-0.9873985725
 30
0.0
 10
-23.5942533531
 20
-0.9873985725
 30
0.0
 10
-23.6526184842
 20
-0.9872672819
 30
0.0
 10
-23.7322588662
 20
-0.9890301346
 30
0.0
 10
-23.7979615598
 20
-0.9872074561
 30
0.0
 10
-23.8367230632
 20
-0.9939367858
 30
0.0
 10
-23.859907987
 20
-0.9887770794
 30
0.0
 10
-23.8636783764
 20
-0.9925474797
 30
0.0
 11
-23.5637187188
 21
-0.9873985725
 31
0.0
 11
-23.6553222799
 21
-0.9876488401
 31
0.0
 11
-23.7383455872
 21
-0.9883778485
 31
0.0
 11
-23.8044346461
 21
-0.9895113982
 31
0.0
 11
-23.8477616696
 21
-0.990952412
 31
0.0
 11
-23.8636783764
 21
-0.9925474797
 31
0.0
  0
SPLINE
  5
6E0
100
AcDbEntity
  8
ASSI
100
AcDbSpline
 62
7
  6
CONTINUOUS
 70
0
 71
3
 72
12
 73
8
 74
6
 42
0.0000001
 43
0.0000001
 44
0.0000000001
 12
0.2121856603
 22
-0.2121849679
 32
0.0
 13
0.300075349
 23
0.0
 33
0.0
 40
0.0
 40
0.0
 40
0.0
 40
0.0
 40
0.0532816106
 40
0.1977093993
 40
0.417962435
 40
0.694661992
 40
1.0
 40
1.0
 40
1.0
 40
1.0
 10
-23.8668748665
 20
-6.8199990057
 30
0.0
 10
-23.8631063352
 20
-6.8237675247
 30
0.0
 10
-23.8399291116
 20
-6.8186084262
 30
0.0
 10
-23.8011757718
 20
-6.8253367035
 30
0.0
 10
-23.735477601
 20
-6.8235130252
 30
0.0
 10
-23.655831227
 20
-6.8252760276
 30
0.0
 10
-23.59745779
 20
-6.8251445359
 30
0.0
 10
-23.5669163202
 20
-6.8251445359
 30
0.0
 11
-23.8668748665
 21
-6.8199990057
 31
0.0
 11
-23.8509659914
 21
-6.8215926682
 31
0.0
 11
-23.8076507018
 21
-6.8230326673
 31
0.0
 11
-23.7415679061
 21
-6.8241655973
 31
0.0
 11
-23.6585403879
 21
-6.8248943187
 31
0.0
 11
-23.5669163202
 21
-6.8251445359
 31
0.0
  0
SPLINE
  5
6E1
100
AcDbEntity
  8
ASSI
100
AcDbSpline
 62
7
  6
CONTINUOUS
 70
0
 71
3
 72
12
 73
8
 74
6
 42
0.0000001
 43
0.0000001
 44
0.0000000001
 12
-0.3000816659
 22
0.0
 32
0.0
 13
-0.2121905985
 23
-0.2121889631
 33
0.0
 40
0.0
 40
0.0
 40
0.0
 40
0.0
 40
0.305206335
 40
0.5818776397
 40
0.8021687507
 40
0.9466692379
 40
1.0
 40
1.0
 40
1.0
 40
1.0
 10
-23.5664363823
 20
-6.0901181614
 30
0.0
 10
-23.5969653241
 20
-6.0901181614
 30
0.0
 10
-23.6553238611
 20
-6.0899870513
 30
0.0
 10
-23.7349600308
 20
-6.0917497877
 30
0.0
 10
-23.8006676401
 20
-6.0899279761
 30
0.0
 10
-23.8394369451
 20
-6.0966582851
 30
0.0
 10
-23.8626288853
 20
-6.0914980177
 30
0.0
 10
-23.8664009807
 20
-6.095270084
 30
0.0
 11
-23.5664363823
 21
-6.0901181614
 31
0.0
 11
-23.6580228656
 21
-6.0903684777
 31
0.0
 11
-23.7410436487
 21
-6.0910977481
 31
0.0
 11
-23.8071392431
 21
-6.0922318564
 31
0.0
 11
-23.8504772092
 21
-6.0936737757
 31
0.0
 11
-23.8664009807
 21
-6.095270084
 31
0.0
  0
SPLINE
  5
6E2
100
AcDbEntity
  8
ASSI
100
AcDbSpline
 62
7
  6
CONTINUOUS
 70
0
 71
3
 72
12
 73
8
 74
6
 42
0.0000001
 43
0.0000001
 44
0.0000000001
 12
0.2121821519
 22
-0.2121827803
 32
0.0
 13
0.3000713213
 23
-0.0
 33
0.0
 40
0.0
 40
0.0
 40
0.0
 40
0.0
 40
0.0532731
 40
0.1976880308
 40
0.4179339921
 40
0.6946382695
 40
1.0
 40
1.0
 40
1.0
 40
1.0
 10
-23.8628807952
 20
1.076006923
 30
0.0
 10
-23.8591129282
 20
1.0722390448
 30
0.0
 10
-23.8359384879
 20
1.0773978942
 30
0.0
 10
-23.7971883795
 20
1.0706700356
 30
0.0
 10
-23.731492571
 20
1.0724940203
 30
0.0
 10
-23.6518451858
 20
1.0707309876
 30
0.0
 10
-23.593469663
 20
1.0708625471
 30
0.0
 10
-23.5629262303
 20
1.0708625471
 30
0.0
 11
-23.8628807952
 21
1.076006923
 31
0.0
 11
-23.8469746556
 21
1.0744137278
 31
0.0
 11
-23.8036637969
 21
1.0729740749
 31
0.0
 11
-23.7375840078
 21
1.0718413619
 31
0.0
 11
-23.6545561867
 21
1.0711127441
 31
0.0
 11
-23.5629262303
 21
1.0708625471
 31
0.0
  0
SPLINE
  5
6E3
100
AcDbEntity
  8
ASSI
100
AcDbSpline
 62
7
  6
CONTINUOUS
 70
0
 71
3
 72
12
 73
8
 74
6
 42
0.0000001
 43
0.0000001
 44
0.0000000001
 12
-0.3000744827
 22
-0.0
 32
0.0
 13
-0.2121844225
 23
-0.2121849807
 33
0.0
 40
0.0
 40
0.0
 40
0.0
 40
0.0
 40
0.3052957572
 40
0.5819859076
 40
0.8022509535
 40
0.9467022877
 40
1.0
 40
1.0
 40
1.0
 40
1.0
 10
-23.5626830939
 20
1.8136377861
 30
0.0
 10
-23.5932202494
 20
1.8136377861
 30
0.0
 10
-23.6515883095
 20
1.8137691549
 30
0.0
 10
-23.7312305833
 20
1.812006254
 30
0.0
 10
-23.7969311253
 20
1.8138293073
 30
0.0
 10
-23.8356892222
 20
1.8071004244
 30
0.0
 10
-23.8588710396
 20
1.812259867
 30
0.0
 10
-23.8626406877
 20
1.808490209
 30
0.0
 11
-23.5626830939
 21
1.8136377861
 31
0.0
 11
-23.6542942186
 21
1.8133875396
 31
0.0
 11
-23.7373186728
 21
1.8126586466
 31
0.0
 11
-23.8034048758
 21
1.8115253434
 31
0.0
 11
-23.8467270891
 21
1.8100847291
 31
0.0
 11
-23.8626406877
 21
1.808490209
 31
0.0
  0
SPLINE
  5
6E4
100
AcDbEntity
  8
ASSI
100
AcDbSpline
 62
7
  6
CONTINUOUS
 70
0
 71
3
 72
12
 73
8
 74
6
 42
0.0000001
 43
0.0000001
 44
0.0000000001
 12
-0.2121905985
 22
0.2121889632
 32
0.0
 13
-0.3000816659
 23
-0.0
 33
0.0
 40
0.0
 40
0.0
 40
0.0
 40
0.0
 40
0.0533307621
 40
0.1978312493
 40
0.4181223603
 40
0.694793665
 40
1.0
 40
1.0
 40
1.0
 40
1.0
 10
23.3897017703
 20
-6.095270084
 30
0.0
 10
23.3859296749
 20
-6.0914980177
 30
0.0
 10
23.3627377347
 20
-6.0966582852
 30
0.0
 10
23.3239684298
 20
-6.0899279761
 30
0.0
 10
23.2582608204
 20
-6.0917497877
 30
0.0
 10
23.1786246507
 20
-6.0899870513
 30
0.0
 10
23.1202661137
 20
-6.0901181614
 30
0.0
 10
23.0897371719
 20
-6.0901181614
 30
0.0
 11
23.3897017703
 21
-6.095270084
 31
0.0
 11
23.3737779988
 21
-6.0936737757
 31
0.0
 11
23.3304400327
 21
-6.0922318564
 31
0.0
 11
23.2643444383
 21
-6.0910977481
 31
0.0
 11
23.1813236552
 21
-6.0903684777
 31
0.0
 11
23.0897371719
 21
-6.0901181614
 31
0.0
  0
SPLINE
  5
6E5
100
AcDbEntity
  8
ASSI
100
AcDbSpline
 62
7
  6
CONTINUOUS
 70
0
 71
3
 72
12
 73
8
 74
6
 42
0.0000001
 43
0.0000001
 44
0.0000000001
 12
0.300075349
 22
-0.0
 32
0.0
 13
0.2121856603
 23
0.2121849679
 33
0.0
 40
0.0
 40
0.0
 40
0.0
 40
0.0
 40
0.305338008
 40
0.582037565
 40
0.8022906007
 40
0.9467183894
 40
1.0
 40
1.0
 40
1.0
 40
1.0
 10
23.0902171098
 20
-6.8251445359
 30
0.0
 10
23.1207585796
 20
-6.8251445359
 30
0.0
 10
23.1791320166
 20
-6.8252760276
 30
0.0
 10
23.2587783906
 20
-6.8235130252
 30
0.0
 10
23.3244765614
 20
-6.8253367035
 30
0.0
 10
23.3632299012
 20
-6.8186084262
 30
0.0
 10
23.3864071248
 20
-6.8237675247
 30
0.0
 10
23.3901756561
 20
-6.8199990057
 30
0.0
 11
23.0902171098
 21
-6.8251445359
 31
0.0
 11
23.1818411775
 21
-6.8248943187
 31
0.0
 11
23.2648686957
 21
-6.8241655973
 31
0.0
 11
23.3309514914
 21
-6.8230326673
 31
0.0
 11
23.374266781
 21
-6.8215926682
 31
0.0
 11
23.3901756561
 21
-6.8199990057
 31
0.0
  0
SPLINE
  5
6E6
100
AcDbEntity
  8
ASSI
100
AcDbSpline
 62
7
  6
CONTINUOUS
 70
0
 71
3
 72
12
 73
8
 74
6
 42
0.0000001
 43
0.0000001
 44
0.0000000001
 12
-0.2121844225
 22
0.2121849807
 32
0.0
 13
-0.3000744827
 23
0.0
 33
0.0
 40
0.0
 40
0.0
 40
0.0
 40
0.0
 40
0.0532977123
 40
0.1977490465
 40
0.4180140924
 40
0.6947042428
 40
1.0
 40
1.0
 40
1.0
 40
1.0
 10
23.3859414773
 20
1.808490209
 30
0.0
 10
23.3821718292
 20
1.812259867
 30
0.0
 10
23.3589900118
 20
1.8071004244
 30
0.0
 10
23.3202319149
 20
1.8138293073
 30
0.0
 10
23.2545313729
 20
1.812006254
 30
0.0
 10
23.1748890991
 20
1.8137691549
 30
0.0
 10
23.116521039
 20
1.8136377861
 30
0.0
 10
23.0859838835
 20
1.8136377861
 30
0.0
 11
23.3859414773
 21
1.808490209
 31
0.0
 11
23.3700278787
 21
1.8100847291
 31
0.0
 11
23.3267056654
 21
1.8115253434
 31
0.0
 11
23.2606194624
 21
1.8126586466
 31
0.0
 11
23.1775950082
 21
1.8133875396
 31
0.0
 11
23.0859838835
 21
1.8136377861
 31
0.0
  0
SPLINE
  5
6E7
100
AcDbEntity
  8
ASSI
100
AcDbSpline
 62
7
  6
CONTINUOUS
 70
0
 71
3
 72
12
 73
8
 74
6
 42
0.0000001
 43
0.0000001
 44
0.0000000001
 12
0.3000713213
 22
0.0
 32
0.0
 13
0.2121821519
 23
0.2121827803
 33
0.0
 40
0.0
 40
0.0
 40
0.0
 40
0.0
 40
0.3053617305
 40
0.5820660079
 40
0.8023119692
 40
0.9467269
 40
1.0
 40
1.0
 40
1.0
 40
1.0
 10
23.0862270199
 20
1.0708625471
 30
0.0
 10
23.1167704526
 20
1.0708625471
 30
0.0
 10
23.1751459754
 20
1.0707309876
 30
0.0
 10
23.2547933606
 20
1.0724940203
 30
0.0
 10
23.3204891692
 20
1.0706700356
 30
0.0
 10
23.3592392775
 20
1.0773978942
 30
0.0
 10
23.3824137178
 20
1.0722390448
 30
0.0
 10
23.3861815848
 20
1.076006923
 30
0.0
 11
23.0862270199
 21
1.0708625471
 31
0.0
 11
23.1778569763
 21
1.0711127441
 31
0.0
 11
23.2608847974
 21
1.0718413619
 31
0.0
 11
23.3269645865
 21
1.0729740749
 31
0.0
 11
23.3702754452
 21
1.0744137278
 31
0.0
 11
23.3861815848
 21
1.076006923
 31
0.0
  0
SPLINE
  5
6E8
100
AcDbEntity
  8
ASSI
100
AcDbSpline
 62
253
  6
CONTINUOUS
 70
0
 71
3
 72
11
 73
7
 74
5
 42
0.0000001
 43
0.0000001
 44
0.0000000001
 12
0.0069988224
 22
0.4010844293
 32
0.0
 13
0.4011302117
 23
0.0035008838
 33
0.0
 40
0.0
 40
0.0
 40
0.0
 40
0.0
 40
0.2095153873
 40
0.4453794686
 40
0.7128570688
 40
1.0
 40
1.0
 40
1.0
 40
1.0
 10
19.0229378361
 20
5.1264430873
 30
0.0
 10
19.0234266231
 20
5.1544542071
 30
0.0
 10
19.0425221153
 20
5.2143214391
 30
0.0
 10
19.112369005
 20
5.2829758583
 30
0.0
 10
19.2099743916
 20
5.3276002316
 30
0.0
 10
19.284498243
 20
5.338240037
 30
0.0
 10
19.3228921446
 20
5.3385751217
 30
0.0
 11
19.0229378361
 21
5.1264430873
 31
0.0
 11
19.0468237782
 21
5.2070235905
 31
0.0
 11
19.1120891603
 21
5.2755260124
 31
0.0
 11
19.2089514602
 21
5.321682636
 31
0.0
 11
19.3228921446
 21
5.3385751217
 31
0.0
  0
SPLINE
  5
6E9
100
AcDbEntity
  8
ASSI
100
AcDbSpline
 62
253
  6
CONTINUOUS
 70
0
 71
3
 72
11
 73
7
 74
5
 42
0.0000001
 43
0.0000001
 44
0.0000000001
 12
0.0069988223
 22
0.4010844284
 32
0.0
 13
0.4011302109
 23
0.003500877
 33
0.0
 40
0.0
 40
0.0
 40
0.0
 40
0.0
 40
0.209515632
 40
0.4453798145
 40
0.7128573246
 40
1.0
 40
1.0
 40
1.0
 40
1.0
 10
19.0105952413
 20
5.8335498685
 30
0.0
 10
19.0110840289
 20
5.861561021
 30
0.0
 10
19.0301795594
 20
5.9214282989
 30
0.0
 10
19.1000265099
 20
5.9900827037
 30
0.0
 10
19.1976318783
 20
6.0347070302
 30
0.0
 10
19.2721556825
 20
6.0453468191
 30
0.0
 10
19.3105495499
 20
6.0456819029
 30
0.0
 11
19.0105952413
 21
5.8335498685
 31
0.0
 11
19.0344812352
 21
5.9141304585
 31
0.0
 11
19.0997466808
 21
5.9826328757
 31
0.0
 11
19.1966089648
 21
6.0287894481
 31
0.0
 11
19.3105495499
 21
6.0456819029
 31
0.0
  0
SPLINE
  5
6EA
100
AcDbEntity
  8
ASSI
100
AcDbSpline
 62
253
  6
CONTINUOUS
 70
0
 71
3
 72
11
 73
7
 74
5
 42
0.0000001
 43
0.0000001
 44
0.0000000001
 12
-0.0069988224
 22
0.4010844298
 32
0.0
 13
-0.4011302123
 23
0.0035008769
 33
0.0
 40
0.0
 40
0.0
 40
0.0
 40
0.0
 40
0.2095153874
 40
0.4453794694
 40
0.7128570698
 40
1.0
 40
1.0
 40
1.0
 40
1.0
 10
19.8127055483
 20
5.8335498685
 30
0.0
 10
19.8122167613
 20
5.8615609884
 30
0.0
 10
19.793121269
 20
5.9214282205
 30
0.0
 10
19.7232743793
 20
5.99008264
 30
0.0
 10
19.625668993
 20
6.0347070143
 30
0.0
 10
19.5511451413
 20
6.0453468188
 30
0.0
 10
19.5127512397
 20
6.0456819028
 30
0.0
 11
19.8127055483
 21
5.8335498685
 31
0.0
 11
19.7888196062
 21
5.9141303719
 31
0.0
 11
19.723554224
 21
5.9826327942
 31
0.0
 11
19.6266919241
 21
6.0287894184
 31
0.0
 11
19.5127512397
 21
6.0456819028
 31
0.0
  0
SPLINE
  5
6EB
100
AcDbEntity
  8
ASSI
100
AcDbSpline
 62
253
  6
CONTINUOUS
 70
0
 71
3
 72
11
 73
7
 74
5
 42
0.0000001
 43
0.0000001
 44
0.0000000001
 12
-0.0069988137
 22
0.401084489
 32
0.0
 13
-0.401130273
 23
0.0035006841
 33
0.0
 40
0.0
 40
0.0
 40
0.0
 40
0.0
 40
0.2095120489
 40
0.4453745127
 40
0.7128531963
 40
1.0
 40
1.0
 40
1.0
 40
1.0
 10
19.8003629535
 20
5.1264430873
 30
0.0
 10
19.7998741749
 20
5.154453765
 30
0.0
 10
19.7807792369
 20
5.2143203482
 30
0.0
 10
19.7109332486
 20
5.282974976
 30
0.0
 10
19.6133276175
 20
5.3276000389
 30
0.0
 10
19.5388030702
 20
5.3382400488
 30
0.0
 10
19.5004086449
 20
5.3385751188
 30
0.0
 11
19.8003629535
 21
5.1264430873
 31
0.0
 11
19.7764777368
 21
5.2070224218
 31
0.0
 11
19.711213313
 21
5.2755248798
 31
0.0
 11
19.614350856
 21
5.3216822211
 31
0.0
 11
19.5004086449
 21
5.3385751188
 31
0.0
  0
SPLINE
  5
6EC
100
AcDbEntity
  8
ASSI
100
AcDbSpline
 62
253
  6
CONTINUOUS
 70
0
 71
3
 72
12
 73
8
 74
6
 42
0.0000001
 43
0.0000001
 44
0.0000000001
 12
0.188162755
 22
0.4631952088
 32
0.0
 13
0.000001281
 23
0.4999550218
 33
0.0
 40
0.0
 40
0.0
 40
0.0
 40
0.0
 40
0.0533471248
 40
0.1972618061
 40
0.417998053
 40
0.6944311848
 40
1.0
 40
1.0
 40
1.0
 40
1.0
 10
19.3204845523
 20
3.1010083612
 30
0.0
 10
19.3238305329
 20
3.109245072
 30
0.0
 10
19.3185002176
 20
3.143566511
 30
0.0
 10
19.324659054
 20
3.2119335568
 30
0.0
 10
19.322579705
 20
3.3194293417
 30
0.0
 10
19.3240884192
 20
3.4529511399
 30
0.0
 10
19.3239145082
 20
3.5500086542
 30
0.0
 10
19.3239146387
 20
3.6009322087
 30
0.0
 11
19.3204845523
 21
3.1010083612
 31
0.0
 11
19.3215499043
 21
3.1276582384
 31
0.0
 11
19.3225060631
 21
3.1996027525
 31
0.0
 11
19.3232624257
 21
3.3099583557
 31
0.0
 11
19.3237476583
 21
3.4481616363
 31
0.0
 11
19.3239146387
 21
3.6009322087
 31
0.0
  0
SPLINE
  5
6ED
100
AcDbEntity
  8
ASSI
100
AcDbSpline
 62
253
  6
CONTINUOUS
 70
0
 71
3
 72
12
 73
8
 74
6
 42
0.0000001
 43
0.0000001
 44
0.0000000001
 12
0.000001281
 22
-0.4999550218
 32
0.0
 13
0.1881627568
 23
-0.4631952081
 33
0.0
 40
0.0
 40
0.0
 40
0.0
 40
0.0
 40
0.305568815
 40
0.5820019468
 40
0.8027381938
 40
0.9466528751
 40
1.0
 40
1.0
 40
1.0
 40
1.0
 10
19.4993861509
 20
3.6009322087
 30
0.0
 10
19.4993862814
 20
3.5500086542
 30
0.0
 10
19.4992123704
 20
3.4529511399
 30
0.0
 10
19.5007210846
 20
3.3194293418
 30
0.0
 10
19.4986417355
 20
3.2119335569
 30
0.0
 10
19.5048005721
 20
3.143566511
 30
0.0
 10
19.4994702567
 20
3.109245072
 30
0.0
 10
19.5028162374
 20
3.1010083612
 30
0.0
 11
19.4993861509
 21
3.6009322087
 31
0.0
 11
19.4995531313
 21
3.4481616364
 31
0.0
 11
19.5000383639
 21
3.3099583558
 31
0.0
 11
19.5007947265
 21
3.1996027526
 31
0.0
 11
19.5017508853
 21
3.1276582385
 31
0.0
 11
19.5028162374
 21
3.1010083612
 31
0.0
  0
SPLINE
  5
6EE
100
AcDbEntity
  8
ASSI
100
AcDbSpline
 62
253
  6
CONTINUOUS
 70
0
 71
3
 72
12
 73
8
 74
6
 42
0.0000001
 43
0.0000001
 44
0.0000000001
 12
0.000001281
 22
-0.4999550218
 32
0.0
 13
0.1881627568
 23
-0.4631952081
 33
0.0
 40
0.0
 40
0.0
 40
0.0
 40
0.0
 40
0.305568815
 40
0.5820019468
 40
0.8027381938
 40
0.9466528751
 40
1.0
 40
1.0
 40
1.0
 40
1.0
 10
-19.8006138491
 20
3.6009322087
 30
0.0
 10
-19.8006137186
 20
3.5500086542
 30
0.0
 10
-19.8007876296
 20
3.4529511399
 30
0.0
 10
-19.7992789154
 20
3.3194293418
 30
0.0
 10
-19.8013582645
 20
3.2119335569
 30
0.0
 10
-19.7951994279
 20
3.143566511
 30
0.0
 10
-19.8005297433
 20
3.109245072
 30
0.0
 10
-19.7971837626
 20
3.1010083612
 30
0.0
 11
-19.8006138491
 21
3.6009322087
 31
0.0
 11
-19.8004468687
 21
3.4481616364
 31
0.0
 11
-19.7999616361
 21
3.3099583558
 31
0.0
 11
-19.7992052735
 21
3.1996027526
 31
0.0
 11
-19.7982491147
 21
3.1276582385
 31
0.0
 11
-19.7971837626
 21
3.1010083612
 31
0.0
  0
SPLINE
  5
6EF
100
AcDbEntity
  8
ASSI
100
AcDbSpline
 62
253
  6
CONTINUOUS
 70
0
 71
3
 72
9
 73
5
 74
3
 42
0.0000001
 43
0.0000001
 44
0.0000000001
 12
0.0053452793
 22
-1.6468770511
 32
0.0
 13
0.0076765735
 23
-1.6468678343
 33
0.0
 40
0.0
 40
0.0
 40
0.0
 40
0.0
 40
0.5000137269
 40
1.0
 40
1.0
 40
1.0
 40
1.0
 10
-4.4802966442
 20
5.6157210116
 30
0.0
 10
-4.4794057399
 20
5.3412339676
 30
0.0
 10
-4.477429659
 20
4.7922755641
 30
0.0
 10
-4.475065123
 20
4.2433186964
 30
0.0
 10
-4.4737857292
 20
3.9688482595
 30
0.0
 11
-4.4802966442
 21
5.6157210116
 31
0.0
 11
-4.4773324857
 21
4.7922608771
 31
0.0
 11
-4.4737857292
 21
3.9688482595
 31
0.0
  0
SPLINE
  5
6F0
100
AcDbEntity
  8
ASSI
100
AcDbSpline
 62
253
  6
CONTINUOUS
 70
0
 71
3
 72
9
 73
5
 74
3
 42
0.0000001
 43
0.0000001
 44
0.0000000001
 12
0.0076765735
 22
1.6468678343
 32
0.0
 13
0.0053452793
 23
1.6468770511
 33
0.0
 40
0.0
 40
0.0
 40
0.0
 40
0.0
 40
0.499986712
 40
1.0
 40
1.0
 40
1.0
 40
1.0
 10
3.9970865188
 20
3.9688482595
 30
0.0
 10
3.9983659137
 20
4.2433189373
 30
0.0
 10
4.0007304496
 20
4.792275805
 30
0.0
 10
4.0027065303
 20
5.3412342085
 30
0.0
 10
4.0035974338
 20
5.6157210116
 30
0.0
 11
3.9970865188
 21
3.9688482595
 31
0.0
 11
4.0006332781
 21
4.7922615999
 31
0.0
 11
4.0035974338
 21
5.6157210116
 31
0.0
  0
SPLINE
  5
6F1
100
AcDbEntity
  8
ASSI
100
AcDbSpline
 62
253
  6
CONTINUOUS
 70
0
 71
3
 72
12
 73
8
 74
6
 42
0.0000001
 43
0.0000001
 44
0.0000000001
 12
0.188162755
 22
0.4631952088
 32
0.0
 13
0.000001281
 23
0.4999550218
 33
0.0
 40
0.0
 40
0.0
 40
0.0
 40
0.0
 40
0.0533471248
 40
0.1972618061
 40
0.417998053
 40
0.6944311848
 40
1.0
 40
1.0
 40
1.0
 40
1.0
 10
-19.9795154477
 20
3.1010083612
 30
0.0
 10
-19.9761694671
 20
3.109245072
 30
0.0
 10
-19.9814997824
 20
3.143566511
 30
0.0
 10
-19.975340946
 20
3.2119335568
 30
0.0
 10
-19.977420295
 20
3.3194293417
 30
0.0
 10
-19.9759115808
 20
3.4529511399
 30
0.0
 10
-19.9760854918
 20
3.5500086542
 30
0.0
 10
-19.9760853613
 20
3.6009322087
 30
0.0
 11
-19.9795154477
 21
3.1010083612
 31
0.0
 11
-19.9784500957
 21
3.1276582384
 31
0.0
 11
-19.9774939369
 21
3.1996027525
 31
0.0
 11
-19.9767375743
 21
3.3099583557
 31
0.0
 11
-19.9762523417
 21
3.4481616363
 31
0.0
 11
-19.9760853613
 21
3.6009322087
 31
0.0
  0
SPLINE
  5
6F2
100
AcDbEntity
  8
ASSI
100
AcDbSpline
 62
253
  6
CONTINUOUS
 70
0
 71
3
 72
11
 73
7
 74
5
 42
0.0000001
 43
0.0000001
 44
0.0000000001
 12
-0.0098905691
 22
0.5656197527
 32
0.0
 13
-0.0000105791
 23
0.5657062205
 33
0.0
 40
0.0
 40
0.0
 40
0.0
 40
0.0
 40
0.203753628
 40
0.4534050995
 40
0.7280845227
 40
1.0
 40
1.0
 40
1.0
 40
1.0
 10
19.0105952413
 20
5.8335498685
 30
0.0
 10
19.0099234949
 20
5.8719655607
 30
0.0
 10
19.0087254473
 20
5.9574557233
 30
0.0
 10
19.0074560202
 20
6.0947442187
 30
0.0
 10
19.0066764102
 20
6.2448897427
 30
0.0
 10
19.0065062241
 20
6.3479605344
 30
0.0
 10
19.0065052652
 20
6.3992352934
 30
0.0
 11
19.0105952413
 21
5.8335498685
 31
0.0
 11
19.0089290239
 21
5.9488025196
 31
0.0
 11
19.0075905202
 21
6.090025567
 31
0.0
 11
19.0067658763
 21
6.2454112372
 31
0.0
 11
19.0065052652
 21
6.3992352934
 31
0.0
  0
SPLINE
  5
6F3
100
AcDbEntity
  8
ASSI
100
AcDbSpline
 62
253
  6
CONTINUOUS
 70
0
 71
3
 72
10
 73
6
 74
4
 42
0.0000001
 43
0.0000001
 44
0.0000000001
 12
0.000000142
 22
0.1414264683
 32
0.0
 13
-0.0024701873
 23
0.1414048942
 33
0.0
 40
0.0
 40
0.0
 40
0.0
 40
0.0
 40
0.3658056966
 40
0.7062804612
 40
1.0
 40
1.0
 40
1.0
 40
1.0
 10
19.0239603301
 20
4.9850217311
 30
0.0
 10
19.0239603474
 20
5.0022666003
 30
0.0
 10
19.0238865637
 20
5.0355622537
 30
0.0
 10
19.0235581455
 20
5.0827034074
 30
0.0
 10
19.0231796835
 20
5.1125986272
 30
0.0
 10
19.0229378361
 20
5.1264430873
 30
0.0
 11
19.0239603301
 21
4.9850217311
 31
0.0
 11
19.0238414872
 21
5.0367562023
 31
0.0
 11
19.0234937405
 21
5.0849070901
 31
0.0
 11
19.0229378361
 21
5.1264430873
 31
0.0
  0
SPLINE
  5
6F4
100
AcDbEntity
  8
ASSI
100
AcDbSpline
 62
253
  6
CONTINUOUS
 70
0
 71
3
 72
12
 73
8
 74
6
 42
0.0000001
 43
0.0000001
 44
0.0000000001
 12
0.1431629629
 22
0.1397257719
 32
0.0
 13
0.0000002731
 23
0.2000473076
 33
0.0
 40
0.0
 40
0.0
 40
0.0
 40
0.0
 40
0.053680495
 40
0.1976944885
 40
0.4183849018
 40
0.6946711573
 40
1.0
 40
1.0
 40
1.0
 40
1.0
 10
19.0205302437
 20
3.4009626697
 30
0.0
 10
19.02309193
 20
3.4034628526
 30
0.0
 10
19.0195685233
 20
3.418987738
 30
0.0
 10
19.0241140847
 20
3.444792361
 30
0.0
 10
19.0228641744
 20
3.4885959895
 30
0.0
 10
19.0240511708
 20
3.5416822568
 30
0.0
 10
19.0239603023
 20
3.5805721378
 30
0.0
 10
19.0239603301
 20
3.6009322087
 30
0.0
 11
19.0205302437
 21
3.4009626697
 31
0.0
 11
19.0215966327
 21
3.4116482287
 31
0.0
 11
19.022552294
 21
3.4404419856
 31
0.0
 11
19.0233086741
 21
3.4845840287
 31
0.0
 11
19.0237935231
 21
3.5398522236
 31
0.0
 11
19.0239603301
 21
3.6009322087
 31
0.0
  0
SPLINE
  5
6F5
100
AcDbEntity
  8
ASSI
100
AcDbSpline
 62
253
  6
CONTINUOUS
 70
0
 71
3
 72
12
 73
8
 74
6
 42
0.0000001
 43
0.0000001
 44
0.0000000001
 12
0.0000002731
 22
-0.2000473076
 32
0.0
 13
0.1431629629
 23
-0.1397257719
 33
0.0
 40
0.0
 40
0.0
 40
0.0
 40
0.0
 40
0.3053288425
 40
0.581615098
 40
0.8023055113
 40
0.9463195049
 40
1.0
 40
1.0
 40
1.0
 40
1.0
 10
19.7993404595
 20
3.6009322087
 30
0.0
 10
19.7993404873
 20
3.5805721378
 30
0.0
 10
19.7992496188
 20
3.5416822568
 30
0.0
 10
19.8004366152
 20
3.4885959895
 30
0.0
 10
19.7991867049
 20
3.444792361
 30
0.0
 10
19.8037322663
 20
3.418987738
 30
0.0
 10
19.8002088597
 20
3.4034628526
 30
0.0
 10
19.8027705459
 20
3.4009626697
 30
0.0
 11
19.7993404595
 21
3.6009322087
 31
0.0
 11
19.7995072665
 21
3.5398522236
 31
0.0
 11
19.7999921155
 21
3.4845840288
 31
0.0
 11
19.8007484956
 21
3.4404419856
 31
0.0
 11
19.8017041569
 21
3.4116482287
 31
0.0
 11
19.8027705459
 21
3.4009626697
 31
0.0
  0
SPLINE
  5
6F6
100
AcDbEntity
  8
ASSI
100
AcDbSpline
 62
253
  6
CONTINUOUS
 70
0
 71
3
 72
10
 73
6
 74
4
 42
0.0000001
 43
0.0000001
 44
0.0000000001
 12
-0.0024701868
 22
-0.1414048942
 32
0.0
 13
0.0000001414
 23
-0.1414264683
 33
0.0
 40
0.0
 40
0.0
 40
0.0
 40
0.0
 40
0.2937195618
 40
0.6341943926
 40
1.0
 40
1.0
 40
1.0
 40
1.0
 10
19.8003629535
 20
5.1264430873
 30
0.0
 10
19.8001211061
 20
5.1125986261
 30
0.0
 10
19.7997426441
 20
5.0827034021
 30
0.0
 10
19.7994142258
 20
5.0355622484
 30
0.0
 10
19.7993404423
 20
5.0022665961
 30
0.0
 10
19.7993404595
 20
4.9850217311
 30
0.0
 11
19.8003629535
 21
5.1264430873
 31
0.0
 11
19.7998070491
 21
5.0849070869
 31
0.0
 11
19.7994593023
 21
5.0367561897
 31
0.0
 11
19.7993404595
 21
4.9850217311
 31
0.0
  0
SPLINE
  5
6F7
100
AcDbEntity
  8
ASSI
100
AcDbSpline
 62
253
  6
CONTINUOUS
 70
0
 71
3
 72
11
 73
7
 74
5
 42
0.0000001
 43
0.0000001
 44
0.0000000001
 12
-0.0000102035
 22
-0.56570622
 32
0.0
 13
-0.0098911393
 23
-0.5656197423
 33
0.0
 40
0.0
 40
0.0
 40
0.0
 40
0.0
 40
0.27116473
 40
0.5456360084
 40
0.7955929365
 40
1.0
 40
1.0
 40
1.0
 40
1.0
 10
19.8167955244
 20
6.3992352934
 30
0.0
 10
19.8167946021
 20
6.348102102
 30
0.0
 10
19.8166251208
 20
6.2452121282
 30
0.0
 10
19.8158479253
 20
6.0951898119
 30
0.0
 10
19.8145791283
 20
5.9577597379
 30
0.0
 10
19.8133794879
 20
5.8720887587
 30
0.0
 10
19.8127055483
 20
5.8335498685
 30
0.0
 11
19.8167955244
 21
6.3992352934
 31
0.0
 11
19.8165363617
 21
6.2458359379
 31
0.0
 11
19.8157142316
 21
6.090568005
 31
0.0
 11
19.8143761573
 21
5.9491721472
 31
0.0
 11
19.8127055483
 21
5.8335498685
 31
0.0
  0
SPLINE
  5
6F8
100
AcDbEntity
  8
ASSI
100
AcDbSpline
 62
253
  6
CONTINUOUS
 70
0
 71
3
 72
12
 73
8
 74
6
 42
0.0000001
 43
0.0000001
 44
0.0000000001
 12
0.0000002731
 22
-0.2000473076
 32
0.0
 13
0.1431629629
 23
-0.1397257719
 33
0.0
 40
0.0
 40
0.0
 40
0.0
 40
0.0
 40
0.3053288425
 40
0.581615098
 40
0.8023055113
 40
0.9463195049
 40
1.0
 40
1.0
 40
1.0
 40
1.0
 10
-19.5006595405
 20
3.6009322087
 30
0.0
 10
-19.5006595127
 20
3.5805721378
 30
0.0
 10
-19.5007503812
 20
3.5416822568
 30
0.0
 10
-19.4995633848
 20
3.4885959895
 30
0.0
 10
-19.5008132951
 20
3.444792361
 30
0.0
 10
-19.4962677337
 20
3.418987738
 30
0.0
 10
-19.4997911403
 20
3.4034628526
 30
0.0
 10
-19.4972294541
 20
3.4009626697
 30
0.0
 11
-19.5006595405
 21
3.6009322087
 31
0.0
 11
-19.5004927335
 21
3.5398522236
 31
0.0
 11
-19.5000078845
 21
3.4845840288
 31
0.0
 11
-19.4992515044
 21
3.4404419856
 31
0.0
 11
-19.4982958431
 21
3.4116482287
 31
0.0
 11
-19.4972294541
 21
3.4009626697
 31
0.0
  0
SPLINE
  5
6F9
100
AcDbEntity
  8
ASSI
100
AcDbSpline
 62
253
  6
CONTINUOUS
 70
0
 71
3
 72
10
 73
6
 74
4
 42
0.0000001
 43
0.0000001
 44
0.0000000001
 12
-0.0024701868
 22
-0.1414048942
 32
0.0
 13
0.0000001414
 23
-0.1414264683
 33
0.0
 40
0.0
 40
0.0
 40
0.0
 40
0.0
 40
0.2937195618
 40
0.6341943926
 40
1.0
 40
1.0
 40
1.0
 40
1.0
 10
-19.4996370465
 20
5.1264430873
 30
0.0
 10
-19.4998788939
 20
5.1125986261
 30
0.0
 10
-19.5002573559
 20
5.0827034021
 30
0.0
 10
-19.5005857742
 20
5.0355622484
 30
0.0
 10
-19.5006595577
 20
5.0022665961
 30
0.0
 10
-19.5006595405
 20
4.9850217311
 30
0.0
 11
-19.4996370465
 21
5.1264430873
 31
0.0
 11
-19.5001929509
 21
5.0849070869
 31
0.0
 11
-19.5005406977
 21
5.0367561897
 31
0.0
 11
-19.5006595405
 21
4.9850217311
 31
0.0
  0
SPLINE
  5
6FA
100
AcDbEntity
  8
ASSI
100
AcDbSpline
 62
253
  6
CONTINUOUS
 70
0
 71
3
 72
11
 73
7
 74
5
 42
0.0000001
 43
0.0000001
 44
0.0000000001
 12
-0.0000102035
 22
-0.56570622
 32
0.0
 13
-0.0098911393
 23
-0.5656197423
 33
0.0
 40
0.0
 40
0.0
 40
0.0
 40
0.0
 40
0.27116473
 40
0.5456360084
 40
0.7955929365
 40
1.0
 40
1.0
 40
1.0
 40
1.0
 10
-19.4832044756
 20
6.3992352934
 30
0.0
 10
-19.4832053979
 20
6.348102102
 30
0.0
 10
-19.4833748792
 20
6.2452121282
 30
0.0
 10
-19.4841520747
 20
6.0951898119
 30
0.0
 10
-19.4854208717
 20
5.9577597379
 30
0.0
 10
-19.4866205121
 20
5.8720887587
 30
0.0
 10
-19.4872944517
 20
5.8335498685
 30
0.0
 11
-19.4832044756
 21
6.3992352934
 31
0.0
 11
-19.4834636383
 21
6.2458359379
 31
0.0
 11
-19.4842857684
 21
6.090568005
 31
0.0
 11
-19.4856238427
 21
5.9491721472
 31
0.0
 11
-19.4872944517
 21
5.8335498685
 31
0.0
  0
SPLINE
  5
6FB
100
AcDbEntity
  8
ASSI
100
AcDbSpline
 62
253
  6
CONTINUOUS
 70
0
 71
3
 72
11
 73
7
 74
5
 42
0.0000001
 43
0.0000001
 44
0.0000000001
 12
-0.0098905691
 22
0.5656197527
 32
0.0
 13
-0.0000105791
 23
0.5657062205
 33
0.0
 40
0.0
 40
0.0
 40
0.0
 40
0.0
 40
0.203753628
 40
0.4534050995
 40
0.7280845227
 40
1.0
 40
1.0
 40
1.0
 40
1.0
 10
-20.2894047587
 20
5.8335498685
 30
0.0
 10
-20.2900765051
 20
5.8719655607
 30
0.0
 10
-20.2912745527
 20
5.9574557233
 30
0.0
 10
-20.2925439798
 20
6.0947442187
 30
0.0
 10
-20.2933235898
 20
6.2448897427
 30
0.0
 10
-20.2934937759
 20
6.3479605344
 30
0.0
 10
-20.2934947348
 20
6.3992352934
 30
0.0
 11
-20.2894047587
 21
5.8335498685
 31
0.0
 11
-20.2910709761
 21
5.9488025196
 31
0.0
 11
-20.2924094798
 21
6.090025567
 31
0.0
 11
-20.2932341237
 21
6.2454112372
 31
0.0
 11
-20.2934947348
 21
6.3992352934
 31
0.0
  0
SPLINE
  5
6FC
100
AcDbEntity
  8
ASSI
100
AcDbSpline
 62
253
  6
CONTINUOUS
 70
0
 71
3
 72
10
 73
6
 74
4
 42
0.0000001
 43
0.0000001
 44
0.0000000001
 12
0.000000142
 22
0.1414264683
 32
0.0
 13
-0.0024701873
 23
0.1414048942
 33
0.0
 40
0.0
 40
0.0
 40
0.0
 40
0.0
 40
0.3658056966
 40
0.7062804612
 40
1.0
 40
1.0
 40
1.0
 40
1.0
 10
-20.2760396699
 20
4.9850217311
 30
0.0
 10
-20.2760396526
 20
5.0022666003
 30
0.0
 10
-20.2761134363
 20
5.0355622537
 30
0.0
 10
-20.2764418545
 20
5.0827034074
 30
0.0
 10
-20.2768203165
 20
5.1125986272
 30
0.0
 10
-20.2770621639
 20
5.1264430873
 30
0.0
 11
-20.2760396699
 21
4.9850217311
 31
0.0
 11
-20.2761585128
 21
5.0367562023
 31
0.0
 11
-20.2765062595
 21
5.0849070901
 31
0.0
 11
-20.2770621639
 21
5.1264430873
 31
0.0
  0
SPLINE
  5
6FD
100
AcDbEntity
  8
ASSI
100
AcDbSpline
 62
253
  6
CONTINUOUS
 70
0
 71
3
 72
12
 73
8
 74
6
 42
0.0000001
 43
0.0000001
 44
0.0000000001
 12
0.1431629629
 22
0.1397257719
 32
0.0
 13
0.0000002731
 23
0.2000473076
 33
0.0
 40
0.0
 40
0.0
 40
0.0
 40
0.0
 40
0.053680495
 40
0.1976944885
 40
0.4183849018
 40
0.6946711573
 40
1.0
 40
1.0
 40
1.0
 40
1.0
 10
-20.2794697563
 20
3.4009626697
 30
0.0
 10
-20.27690807
 20
3.4034628526
 30
0.0
 10
-20.2804314767
 20
3.418987738
 30
0.0
 10
-20.2758859153
 20
3.444792361
 30
0.0
 10
-20.2771358256
 20
3.4885959895
 30
0.0
 10
-20.2759488292
 20
3.5416822568
 30
0.0
 10
-20.2760396977
 20
3.5805721378
 30
0.0
 10
-20.2760396699
 20
3.6009322087
 30
0.0
 11
-20.2794697563
 21
3.4009626697
 31
0.0
 11
-20.2784033673
 21
3.4116482287
 31
0.0
 11
-20.277447706
 21
3.4404419856
 31
0.0
 11
-20.2766913259
 21
3.4845840287
 31
0.0
 11
-20.2762064769
 21
3.5398522236
 31
0.0
 11
-20.2760396699
 21
3.6009322087
 31
0.0
  0
SPLINE
  5
6FE
100
AcDbEntity
  8
ASSI
100
AcDbSpline
 62
253
  6
CONTINUOUS
 70
0
 71
3
 72
9
 73
5
 74
3
 42
0.0000001
 43
0.0000001
 44
0.0000000001
 12
0.0003603394
 22
-6.1661325534
 32
0.0
 13
0.0019281047
 23
-6.1661322625
 33
0.0
 40
0.0
 40
0.0
 40
0.0
 40
0.0
 40
0.500035562
 40
1.0
 40
1.0
 40
1.0
 40
1.0
 10
23.3847973161
 20
7.9746226543
 30
0.0
 10
23.3848573769
 20
6.9468608021
 30
0.0
 10
23.385108123
 20
4.8914832899
 30
0.0
 10
23.3856201494
 20
2.8361058261
 30
0.0
 10
23.3859414773
 20
1.808490209
 30
0.0
 11
23.3847973161
 21
7.9746226543
 31
0.0
 11
23.3851734702
 21
4.8913371155
 31
0.0
 11
23.3859414773
 21
1.808490209
 31
0.0
  0
LINE
  5
6FF
100
AcDbEntity
  8
ASSI
100
AcDbLine
 62
253
  6
CONTINUOUS
 10
23.3861815848
 20
1.076006923
 11
23.386979166
 21
-0.9925474797
  0
LINE
  5
700
100
AcDbEntity
  8
ASSI
100
AcDbLine
 62
253
  6
CONTINUOUS
 10
23.388921309
 20
-4.8212533528
 11
23.3897017703
 21
-6.095270084
  0
LINE
  5
701
100
AcDbEntity
  8
ASSI
100
AcDbLine
 62
253
  6
CONTINUOUS
 10
23.3901756561
 20
-6.8199990057
 11
23.3905260674
 21
-7.3356853939
  0
LINE
  5
702
100
AcDbEntity
  8
ASSI
100
AcDbLine
 62
253
  6
CONTINUOUS
 10
-23.8664009807
 20
-6.095270084
 11
-23.8656205194
 21
-4.8212533528
  0
LINE
  5
703
100
AcDbEntity
  8
ASSI
100
AcDbLine
 62
253
  6
CONTINUOUS
 10
-23.8672252778
 20
-7.3356853939
 11
-23.8668748665
 21
-6.8199990057
  0
LINE
  5
704
100
AcDbEntity
  8
ASSI
100
AcDbLine
 62
253
  6
CONTINUOUS
 10
-23.8636783764
 20
-0.9925474797
 11
-23.8628807952
 21
1.076006923
  0
SPLINE
  5
705
100
AcDbEntity
  8
ASSI
100
AcDbSpline
 62
253
  6
CONTINUOUS
 70
0
 71
3
 72
9
 73
5
 74
3
 42
0.0000001
 43
0.0000001
 44
0.0000000001
 12
0.0019281047
 22
6.1661322625
 32
0.0
 13
0.0003603394
 23
6.1661325534
 33
0.0
 40
0.0
 40
0.0
 40
0.0
 40
0.0
 40
0.4999644739
 40
1.0
 40
1.0
 40
1.0
 40
1.0
 10
-23.8626406877
 20
1.808490209
 30
0.0
 10
-23.8623193598
 20
2.8361058999
 30
0.0
 10
-23.8618073333
 20
4.8914833637
 30
0.0
 10
-23.8615565873
 20
6.9468608759
 30
0.0
 10
-23.8614965265
 20
7.9746226543
 30
0.0
 11
-23.8626406877
 21
1.808490209
 31
0.0
 11
-23.8618726805
 21
4.8913373368
 31
0.0
 11
-23.8614965265
 21
7.9746226543
 31
0.0
  0
SPLINE
  5
706
100
AcDbEntity
  8
ASSI
100
AcDbSpline
 62
7
  6
CONTINUOUS
 70
0
 71
3
 72
12
 73
8
 74
6
 42
0.0000001
 43
0.0000001
 44
0.0000000001
 12
0.3000708432
 22
-0.0
 32
0.0
 13
0.2121821359
 23
0.2121821203
 33
0.0
 40
0.0
 40
0.0
 40
0.0
 40
0.0
 40
0.3053517528
 40
0.5820537449
 40
0.8023025256
 40
0.9467230498
 40
1.0
 40
1.0
 40
1.0
 40
1.0
 10
23.0848432497
 20
7.9694777963
 30
0.0
 10
23.1153856357
 20
7.9694777963
 30
0.0
 10
23.1737598282
 20
7.9693462676
 30
0.0
 10
23.2534061681
 20
7.9711092705
 30
0.0
 10
23.3191024628
 20
7.9692854451
 30
0.0
 10
23.3578536825
 20
7.9760134242
 30
0.0
 10
23.381029177
 20
7.9708545155
 30
0.0
 10
23.3847973161
 20
7.9746226543
 30
0.0
 11
23.0848432497
 21
7.9694777963
 31
0.0
 11
23.176470066
 21
7.9697280005
 31
0.0
 11
23.2594970687
 21
7.9704566581
 31
0.0
 11
23.3255775971
 21
7.9715894585
 31
0.0
 11
23.3688900613
 21
7.9730292562
 31
0.0
 11
23.3847973161
 21
7.9746226543
 31
0.0
  0
SPLINE
  5
707
100
AcDbEntity
  8
ASSI
100
AcDbSpline
 62
7
  6
CONTINUOUS
 70
0
 71
3
 72
12
 73
8
 74
6
 42
0.0000001
 43
0.0000001
 44
0.0000000001
 12
0.2121821359
 22
-0.2121821203
 32
0.0
 13
0.3000708432
 23
0.0
 33
0.0
 40
0.0
 40
0.0
 40
0.0
 40
0.0
 40
0.0532769502
 40
0.1976974744
 40
0.4179462551
 40
0.6946482472
 40
1.0
 40
1.0
 40
1.0
 40
1.0
 10
-23.8614965265
 20
7.9746226543
 30
0.0
 10
-23.8577283874
 20
7.9708545155
 30
0.0
 10
-23.8345528929
 20
7.9760134242
 30
0.0
 10
-23.7958016731
 20
7.9692854451
 30
0.0
 10
-23.7301053785
 20
7.9711092705
 30
0.0
 10
-23.6504590386
 20
7.9693462676
 30
0.0
 10
-23.592084846
 20
7.9694777963
 30
0.0
 10
-23.5615424601
 20
7.9694777963
 30
0.0
 11
-23.8614965265
 21
7.9746226543
 31
0.0
 11
-23.8455892717
 21
7.9730292562
 31
0.0
 11
-23.8022768075
 21
7.9715894585
 31
0.0
 11
-23.7361962791
 21
7.9704566581
 31
0.0
 11
-23.6531692764
 21
7.9697280005
 31
0.0
 11
-23.5615424601
 21
7.9694777963
 31
0.0
  0
SPLINE
  5
708
100
AcDbEntity
  8
ASSI
100
AcDbSpline
 62
253
  6
CONTINUOUS
 70
0
 71
3
 72
11
 73
7
 74
5
 42
0.0000001
 43
0.0000001
 44
0.0000000001
 12
-0.0098689072
 22
0.3534493123
 32
0.0
 13
-0.0000004971
 23
0.3535870638
 33
0.0
 40
0.0
 40
0.0
 40
0.0
 40
0.0
 40
0.2035823994
 40
0.4531925193
 40
0.7278954329
 40
1.0
 40
1.0
 40
1.0
 40
1.0
 10
19.3105492705
 20
6.0456930055
 30
0.0
 10
19.3098795586
 20
6.0696783585
 30
0.0
 10
19.308679796
 20
6.1230800512
 30
0.0
 10
19.307411084
 20
6.2088627679
 30
0.0
 10
19.306631163
 20
6.3027277674
 30
0.0
 10
19.3064595878
 20
6.3671759149
 30
0.0
 10
19.3064595427
 20
6.3992467999
 30
0.0
 11
19.3105492705
 21
6.0456930055
 31
0.0
 11
19.3088843552
 21
6.1176578519
 31
0.0
 11
19.3075455725
 21
6.2059066068
 31
0.0
 11
19.3067204616
 21
6.3030344988
 31
0.0
 11
19.3064595427
 21
6.3992467999
 31
0.0
  0
SPLINE
  5
709
100
AcDbEntity
  8
ASSI
100
AcDbSpline
 62
253
  6
CONTINUOUS
 70
0
 71
3
 72
11
 73
7
 74
5
 42
0.0000001
 43
0.0000001
 44
0.0000000001
 12
-0.0000004828
 22
-0.3535861826
 32
0.0
 13
-0.0098690566
 23
-0.3534484266
 33
0.0
 40
0.0
 40
0.0
 40
0.0
 40
0.0
 40
0.2713497641
 40
0.5458509931
 40
0.7957709277
 40
1.0
 40
1.0
 40
1.0
 40
1.0
 10
19.5168412459
 20
6.3992464695
 30
0.0
 10
19.5168412022
 20
6.3672646271
 30
0.0
 10
19.5166703862
 20
6.302929375
 30
0.0
 10
19.5158928518
 20
6.209140812
 30
0.0
 10
19.5146247927
 20
6.1232693277
 30
0.0
 10
19.5134233822
 20
6.0697550368
 30
0.0
 10
19.5127515328
 20
6.0456935554
 30
0.0
 11
19.5168412459
 21
6.3992464695
 31
0.0
 11
19.5165817845
 21
6.3033012931
 31
0.0
 11
19.515759174
 21
6.2062449374
 31
0.0
 11
19.514420794
 21
6.1178868376
 31
0.0
 11
19.5127515328
 21
6.0456935554
 31
0.0
  0
SPLINE
  5
70A
100
AcDbEntity
  8
ASSI
100
AcDbSpline
 62
253
  6
CONTINUOUS
 70
0
 71
3
 72
11
 73
7
 74
5
 42
0.0000001
 43
0.0000001
 44
0.0000000001
 12
-0.0000004828
 22
-0.3535861826
 32
0.0
 13
-0.0098690566
 23
-0.3534484266
 33
0.0
 40
0.0
 40
0.0
 40
0.0
 40
0.0
 40
0.2713497641
 40
0.5458509931
 40
0.7957709277
 40
1.0
 40
1.0
 40
1.0
 40
1.0
 10
-19.7831587541
 20
6.3992464695
 30
0.0
 10
-19.7831587978
 20
6.3672646271
 30
0.0
 10
-19.7833296138
 20
6.302929375
 30
0.0
 10
-19.7841071482
 20
6.209140812
 30
0.0
 10
-19.7853752073
 20
6.1232693277
 30
0.0
 10
-19.7865766178
 20
6.0697550368
 30
0.0
 10
-19.7872484672
 20
6.0456935554
 30
0.0
 11
-19.7831587541
 21
6.3992464695
 31
0.0
 11
-19.7834182155
 21
6.3033012931
 31
0.0
 11
-19.784240826
 21
6.2062449374
 31
0.0
 11
-19.785579206
 21
6.1178868376
 31
0.0
 11
-19.7872484672
 21
6.0456935554
 31
0.0
  0
SPLINE
  5
70B
100
AcDbEntity
  8
ASSI
100
AcDbSpline
 62
253
  6
CONTINUOUS
 70
0
 71
3
 72
11
 73
7
 74
5
 42
0.0000001
 43
0.0000001
 44
0.0000000001
 12
-0.0098689072
 22
0.3534493123
 32
0.0
 13
-0.0000004971
 23
0.3535870638
 33
0.0
 40
0.0
 40
0.0
 40
0.0
 40
0.0
 40
0.2035823994
 40
0.4531925193
 40
0.7278954329
 40
1.0
 40
1.0
 40
1.0
 40
1.0
 10
-19.9894507295
 20
6.0456930055
 30
0.0
 10
-19.9901204414
 20
6.0696783585
 30
0.0
 10
-19.991320204
 20
6.1230800512
 30
0.0
 10
-19.992588916
 20
6.2088627679
 30
0.0
 10
-19.993368837
 20
6.3027277674
 30
0.0
 10
-19.9935404122
 20
6.3671759149
 30
0.0
 10
-19.9935404573
 20
6.3992467999
 30
0.0
 11
-19.9894507295
 21
6.0456930055
 31
0.0
 11
-19.9911156448
 21
6.1176578519
 31
0.0
 11
-19.9924544275
 21
6.2059066068
 31
0.0
 11
-19.9932795384
 21
6.3030344988
 31
0.0
 11
-19.9935404573
 21
6.3992467999
 31
0.0
  0
SPLINE
  5
70C
100
AcDbEntity
  8
ASSI
100
AcDbSpline
 62
7
  6
CONTINUOUS
 70
0
 71
3
 72
11
 73
7
 74
5
 42
0.0000001
 43
0.0000001
 44
0.0000000001
 12
0.1877591259
 22
0.0090044273
 32
0.0
 13
0.1879749161
 23
0.0
 33
0.0
 40
0.0
 40
0.0
 40
0.0
 40
0.0
 40
0.1566793638
 40
0.3898272684
 40
0.6785348125
 40
1.0
 40
1.0
 40
1.0
 40
1.0
 10
4.0035974338
 20
5.6157210116
 30
0.0
 10
4.0134034273
 20
5.6161912809
 30
0.0
 10
4.0378247069
 20
5.6168171662
 30
0.0
 10
4.0803340641
 20
5.6174945094
 30
0.0
 10
4.1331744132
 20
5.6179178041
 30
0.0
 10
4.1714066979
 20
5.6180185239
 30
0.0
 10
4.1915491618
 20
5.6180185239
 30
0.0
 11
4.0035974338
 21
5.6157210116
 31
0.0
 11
4.0330343744
 21
5.6166561491
 31
0.0
 11
4.076854232
 21
5.6173873507
 31
0.0
 11
4.1311219904
 21
5.6178553439
 31
0.0
 11
4.1915491618
 21
5.6180185239
 31
0.0
  0
SPLINE
  5
70D
100
AcDbEntity
  8
ASSI
100
AcDbSpline
 62
7
  6
CONTINUOUS
 70
0
 71
3
 72
11
 73
7
 74
5
 42
0.0000001
 43
0.0000001
 44
0.0000000001
 12
-0.1879629154
 22
0.0
 32
0.0
 13
-0.1877471389
 23
0.0090038568
 33
0.0
 40
0.0
 40
0.0
 40
0.0
 40
0.0
 40
0.3215242523
 40
0.6102453572
 40
0.8433660718
 40
1.0
 40
1.0
 40
1.0
 40
1.0
 10
4.1850262569
 20
3.9665514704
 30
0.0
 10
4.1648813783
 20
3.9665514704
 30
0.0
 10
4.1266469842
 20
3.9666521732
 30
0.0
 10
4.0738071609
 20
3.9670753767
 30
0.0
 10
4.031304217
 20
3.9677525249
 30
0.0
 10
4.0068890427
 20
3.9683781563
 30
0.0
 10
3.9970865188
 20
3.9688482595
 30
0.0
 11
4.1850262569
 21
3.9665514704
 31
0.0
 11
4.1245918414
 21
3.9667146386
 31
0.0
 11
4.0703249979
 21
3.9671825474
 31
0.0
 11
4.0265130462
 21
3.9679135197
 31
0.0
 11
3.9970865188
 21
3.9688482595
 31
0.0
  0
SPLINE
  5
70E
100
AcDbEntity
  8
ASSI
100
AcDbSpline
 62
7
  6
CONTINUOUS
 70
0
 71
3
 72
11
 73
7
 74
5
 42
0.0000001
 43
0.0000001
 44
0.0000000001
 12
-0.1877471389
 22
-0.0090038568
 32
0.0
 13
-0.1879629155
 23
0.0
 33
0.0
 40
0.0
 40
0.0
 40
0.0
 40
0.0
 40
0.1566339282
 40
0.3897546428
 40
0.6784757477
 40
1.0
 40
1.0
 40
1.0
 40
1.0
 10
-4.4737857292
 20
3.9688482595
 30
0.0
 10
-4.4835882531
 20
3.9683781563
 30
0.0
 10
-4.5080034274
 20
3.9677525249
 30
0.0
 10
-4.5505063713
 20
3.9670753767
 30
0.0
 10
-4.6033461946
 20
3.9666521732
 30
0.0
 10
-4.6415805887
 20
3.9665514704
 30
0.0
 10
-4.6617254673
 20
3.9665514704
 30
0.0
 11
-4.4737857292
 21
3.9688482595
 31
0.0
 11
-4.5032122566
 21
3.9679135197
 31
0.0
 11
-4.5470242083
 21
3.9671825474
 31
0.0
 11
-4.6012910518
 21
3.9667146386
 31
0.0
 11
-4.6617254673
 21
3.9665514704
 31
0.0
  0
SPLINE
  5
70F
100
AcDbEntity
  8
ASSI
100
AcDbSpline
 62
7
  6
CONTINUOUS
 70
0
 71
3
 72
11
 73
7
 74
5
 42
0.0000001
 43
0.0000001
 44
0.0000000001
 12
0.1879749161
 22
0.0
 32
0.0
 13
0.1877591259
 23
-0.0090044273
 33
0.0
 40
0.0
 40
0.0
 40
0.0
 40
0.0
 40
0.3214651875
 40
0.6101727316
 40
0.8433206362
 40
1.0
 40
1.0
 40
1.0
 40
1.0
 10
-4.6682483721
 20
5.6180185239
 30
0.0
 10
-4.6481059083
 20
5.6180185239
 30
0.0
 10
-4.6098736235
 20
5.6179178041
 30
0.0
 10
-4.5570332744
 20
5.6174945094
 30
0.0
 10
-4.5145239173
 20
5.6168171662
 30
0.0
 10
-4.4901026377
 20
5.6161912809
 30
0.0
 10
-4.4802966442
 20
5.6157210116
 30
0.0
 11
-4.6682483721
 21
5.6180185239
 31
0.0
 11
-4.6078212008
 21
5.6178553439
 31
0.0
 11
-4.5535534424
 21
5.6173873507
 31
0.0
 11
-4.5097335848
 21
5.6166561491
 31
0.0
 11
-4.4802966442
 21
5.6157210116
 31
0.0
  0
ELLIPSE
  5
710
100
AcDbEntity
  8
RACCORDO
100
AcDbEllipse
 62
7
  6
CONTINUOUS
 10
24.2981193048
 20
-9.051115978
 30
0.0
 11
0.2183310446
 21
0.1221043275
 31
0.0
 40
0.9980297029
 41
-2.0815635429
 42
-0.5109195152
  0
ELLIPSE
  5
711
100
AcDbEntity
  8
RACCORDO
100
AcDbEllipse
 62
7
  6
CONTINUOUS
 10
-24.7748185152
 20
-9.051115978
 30
0.0
 11
0.2183310446
 21
-0.1221043275
 31
0.0
 40
0.9980297029
 41
-2.6306731384
 42
-1.0600291107
  0
ELLIPSE
  5
712
100
AcDbEntity
  8
RACCORDO
100
AcDbEllipse
 62
7
  6
CONTINUOUS
 10
-24.7813294972
 20
8.9351084043
 30
0.0
 11
-0.1768305473
 21
0.1768305473
 31
0.0
 40
0.9996954599
 41
-0.7852458701
 42
0.7852458701
  0
ELLIPSE
  5
713
100
AcDbEntity
  8
RACCORDO
100
AcDbEllipse
 62
7
  6
CONTINUOUS
 10
24.3046302868
 20
8.9351084043
 30
0.0
 11
-0.1768305473
 21
-0.1768305473
 31
0.0
 40
0.9996954599
 41
2.3563467834
 42
3.9268385237
  0
ELLIPSE
  5
714
100
AcDbEntity
  8
RACCORDO
100
AcDbEllipse
 62
7
  6
CONTINUOUS
 10
-25.0366040987
 20
8.2345724964
 30
0.0
 11
-0.0
 21
0.3
 31
0.0
 40
0.0174550649
 41
-3.1241393611
 42
-1.5707963268
  0
ELLIPSE
  5
715
100
AcDbEntity
  8
RACCORDO
100
AcDbEllipse
 62
7
  6
CONTINUOUS
 10
24.5599048883
 20
8.2345724964
 30
0.0
 11
-0.0
 21
0.3
 31
0.0
 40
0.0174550649
 41
-4.7123889804
 42
-3.1590459461
  0
ELLIPSE
  5
716
100
AcDbEntity
  8
DRAFT
100
AcDbEllipse
 62
7
  6
CONTINUOUS
 10
29.4846689991
 20
9.3921285123
 30
0.0
 11
0.0
 21
423.7
 31
0.0
 40
0.0174550649
 41
-4.6945015721
 42
-4.6927481945
  0
ELLIPSE
  5
717
100
AcDbEntity
  8
DRAFT
100
AcDbEllipse
 62
7
  6
CONTINUOUS
 10
29.4846689991
 20
9.3921285123
 30
0.0
 11
0.0
 21
423.7
 31
0.0
 40
0.0174550649
 41
-4.675840257
 42
-4.6741042615
  0
ELLIPSE
  5
718
100
AcDbEntity
  8
RACCORDO
100
AcDbEllipse
 62
7
  6
CONTINUOUS
 10
10.9060868555
 20
9.3921285123
 30
0.0
 11
0.0
 21
423.7
 31
0.0
 40
0.0174550649
 41
-1.6103149114
 42
-1.60848535
  0
ELLIPSE
  5
719
100
AcDbEntity
  8
RACCORDO
100
AcDbEllipse
 62
7
  6
CONTINUOUS
 10
24.8172139341
 20
9.3921285123
 30
0.0
 11
0.0
 21
423.7
 31
0.0
 40
0.0174550649
 41
-4.6746999572
 42
-4.6722996927
  0
ELLIPSE
  5
71A
100
AcDbEntity
  8
RACCORDO
100
AcDbEllipse
 62
7
  6
CONTINUOUS
 10
-0.2939131445
 20
9.3921285123
 30
0.0
 11
0.0
 21
423.7
 31
0.0
 40
0.0174550649
 41
-1.6108856145
 42
-1.60848535
  0
ELLIPSE
  5
71B
100
AcDbEntity
  8
RACCORDO
100
AcDbEllipse
 62
7
  6
CONTINUOUS
 10
13.6172139341
 20
9.3921285123
 30
0.0
 11
0.0
 21
423.7
 31
0.0
 40
0.0174550649
 41
-4.6746999572
 42
-4.6728703958
  0
ELLIPSE
  5
71C
100
AcDbEntity
  8
RACCORDO
100
AcDbEllipse
 62
7
  6
CONTINUOUS
 10
-14.0939131445
 20
9.3921285123
 30
0.0
 11
0.0
 21
423.7
 31
0.0
 40
0.0174550649
 41
-1.6103149114
 42
-1.60848535
  0
ELLIPSE
  5
71D
100
AcDbEntity
  8
RACCORDO
100
AcDbEllipse
 62
7
  6
CONTINUOUS
 10
23.1476406444
 20
-7.9121819196
 30
0.0
 11
-0.0300136675
 21
0.3031910442
 31
0.0
 40
0.9846622838
 41
-3.2387599651
 42
-1.6709942215
  0
ELLIPSE
  5
71E
100
AcDbEntity
  8
RACCORDO
100
AcDbEllipse
 62
7
  6
CONTINUOUS
 10
-23.6243398548
 20
-7.9121819196
 30
0.0
 11
0.0300136675
 21
0.3031910442
 31
0.0
 40
0.9846622838
 41
-4.6121910857
 42
-3.0444253421
  0
ELLIPSE
  5
71F
100
AcDbEntity
  8
RACCORDO
100
AcDbEllipse
 62
7
  6
CONTINUOUS
 10
-19.7831587841
 20
7.9868919928
 30
0.0
 11
0.3
 21
-0.0
 31
0.0
 40
0.0174550649
 41
0.0174532925
 42
1.5707963268
  0
ELLIPSE
  5
720
100
AcDbEntity
  8
RACCORDO
100
AcDbEllipse
 62
7
  6
CONTINUOUS
 10
-0.1827860659
 20
9.3921285123
 30
0.0
 11
0.0
 21
423.7
 31
0.0
 40
0.0174550649
 41
-4.6746999572
 42
-4.6728703958
  0
ELLIPSE
  5
721
100
AcDbEntity
  8
RACCORDO
100
AcDbEllipse
 62
7
  6
CONTINUOUS
 10
-25.2939131445
 20
9.3921285123
 30
0.0
 11
0.0
 21
423.7
 31
0.0
 40
0.0174550649
 41
-1.6103149114
 42
-1.60848535
  0
ELLIPSE
  5
722
100
AcDbEntity
  8
RACCORDO
100
AcDbEllipse
 62
7
  6
CONTINUOUS
 10
-11.3827860659
 20
9.3921285123
 30
0.0
 11
0.0
 21
423.7
 31
0.0
 40
0.0174550649
 41
-4.6746999572
 42
-4.6722996927
  0
ELLIPSE
  5
723
100
AcDbEntity
  8
DRAFT
100
AcDbEllipse
 62
7
  6
CONTINUOUS
 10
-29.9613682095
 20
9.3921285123
 30
0.0
 11
0.0
 21
423.7
 31
0.0
 40
0.0174550649
 41
-1.6090810457
 42
-1.6073450502
  0
ELLIPSE
  5
724
100
AcDbEntity
  8
DRAFT
100
AcDbEllipse
 62
7
  6
CONTINUOUS
 10
31.0753217783
 20
9.3921285123
 30
0.0
 11
0.0
 21
423.7
 31
0.0
 40
0.0174550649
 41
-4.6861185815
 42
-4.6805882475
  0
ELLIPSE
  5
725
100
AcDbEntity
  8
DRAFT
100
AcDbEllipse
 62
7
  6
CONTINUOUS
 10
15.3479790113
 20
9.3921285123
 30
0.0
 11
0.0
 21
423.7
 31
0.0
 40
0.0174550649
 41
-1.6025970597
 42
-1.5970667257
  0
ELLIPSE
  5
726
100
AcDbEntity
  8
DRAFT
100
AcDbEllipse
 62
7
  6
CONTINUOUS
 10
-31.5520209887
 20
9.3921285123
 30
0.0
 11
0.0
 21
423.7
 31
0.0
 40
0.0174550649
 41
-1.6025970597
 42
-1.5970667257
  0
ELLIPSE
  5
727
100
AcDbEntity
  8
DRAFT
100
AcDbEllipse
 62
7
  6
CONTINUOUS
 10
-15.8246782217
 20
9.3921285123
 30
0.0
 11
0.0
 21
423.7
 31
0.0
 40
0.0174550649
 41
-4.6861185815
 42
-4.6805882475
  0
ELLIPSE
  5
728
100
AcDbEntity
  8
RACCORDO
100
AcDbEllipse
 62
7
  6
CONTINUOUS
 10
-19.9935404263
 20
7.9868919928
 30
0.0
 11
0.3
 21
0.0
 31
0.0
 40
0.0174550649
 41
1.5707963268
 42
3.1241393611
  0
ELLIPSE
  5
729
100
AcDbEntity
  8
RACCORDO
100
AcDbEllipse
 62
7
  6
CONTINUOUS
 10
19.3064595737
 20
7.9868919928
 30
0.0
 11
0.3
 21
0.0
 31
0.0
 40
0.0174550649
 41
1.5707963268
 42
3.1241393611
  0
ELLIPSE
  5
72A
100
AcDbEntity
  8
RACCORDO
100
AcDbEllipse
 62
7
  6
CONTINUOUS
 10
-7.567490387
 20
-7.3356853928
 30
0.0
 11
-0.0
 21
0.3
 31
0.0
 40
0.0174550649
 41
-4.6728703958
 42
-3.3161255788
  0
ELLIPSE
  5
72B
100
AcDbEntity
  8
RACCORDO
100
AcDbEllipse
 62
7
  6
CONTINUOUS
 10
-6.7092088234
 20
-7.3356853928
 30
0.0
 11
-0.0
 21
0.3
 31
0.0
 40
0.0174550649
 41
-2.9670597284
 42
-1.6103149114
  0
ELLIPSE
  5
72C
100
AcDbEntity
  8
RACCORDO
100
AcDbEllipse
 62
7
  6
CONTINUOUS
 10
6.232509613
 20
-7.3356853928
 30
0.0
 11
-0.0
 21
0.3
 31
0.0
 40
0.0174550649
 41
-4.6728703958
 42
-3.3161255788
  0
ELLIPSE
  5
72D
100
AcDbEntity
  8
RACCORDO
100
AcDbEllipse
 62
7
  6
CONTINUOUS
 10
18.2907911766
 20
-7.3356853928
 30
0.0
 11
-0.0
 21
0.3
 31
0.0
 40
0.0174550649
 41
-2.9670597284
 42
-1.6103149114
  0
ELLIPSE
  5
72E
100
AcDbEntity
  8
RACCORDO
100
AcDbEllipse
 62
7
  6
CONTINUOUS
 10
-17.9092088234
 20
-7.3356853928
 30
0.0
 11
0.0
 21
0.3
 31
0.0
 40
0.0174550649
 41
-2.9670597284
 42
-1.6103149114
  0
ELLIPSE
  5
72F
100
AcDbEntity
  8
DRAFT
100
AcDbEllipse
 62
7
  6
CONTINUOUS
 10
-29.9613682095
 20
9.3921285123
 30
0.0
 11
0.0
 21
423.7
 31
0.0
 40
0.0174550649
 41
-1.5904371127
 42
-1.588683735
  0
ELLIPSE
  5
730
100
AcDbEntity
  8
RACCORDO
100
AcDbEllipse
 62
7
  6
CONTINUOUS
 10
-22.918068914
 20
-6.7781978774
 30
0.0
 11
0.3
 21
-0.0
 31
0.0
 40
0.0174550649
 41
0.0174532925
 42
1.5707963268
  0
ELLIPSE
  5
731
100
AcDbEntity
  8
RACCORDO
100
AcDbEllipse
 62
7
  6
CONTINUOUS
 10
-22.918068914
 20
-6.1375450981
 30
0.0
 11
0.3
 21
0.0
 31
0.0
 40
0.0174550649
 41
-1.5707963268
 42
-0.0174532925
  0
ELLIPSE
  5
732
100
AcDbEntity
  8
RACCORDO
100
AcDbEllipse
 62
7
  6
CONTINUOUS
 10
-22.918068914
 20
1.1218021226
 30
0.0
 11
0.3
 21
-0.0
 31
0.0
 40
0.0174550649
 41
0.0174532925
 42
1.5707963268
  0
ELLIPSE
  5
733
100
AcDbEntity
  8
RACCORDO
100
AcDbEllipse
 62
7
  6
CONTINUOUS
 10
-22.918068914
 20
1.7624549019
 30
0.0
 11
0.3
 21
0.0
 31
0.0
 40
0.0174550649
 41
-1.5707963268
 42
-0.0174532925
  0
ELLIPSE
  5
734
100
AcDbEntity
  8
RACCORDO
100
AcDbEllipse
 62
7
  6
CONTINUOUS
 10
22.4413697036
 20
-6.1375450981
 30
0.0
 11
0.3
 21
0.0
 31
0.0
 40
0.0174550649
 41
-3.1241393611
 42
-1.5707963268
  0
ELLIPSE
  5
735
100
AcDbEntity
  8
RACCORDO
100
AcDbEllipse
 62
7
  6
CONTINUOUS
 10
22.4413697036
 20
-6.7781978774
 30
0.0
 11
0.3
 21
-0.0
 31
0.0
 40
0.0174550649
 41
1.5707963268
 42
3.1241393611
  0
ELLIPSE
  5
736
100
AcDbEntity
  8
RACCORDO
100
AcDbEllipse
 62
7
  6
CONTINUOUS
 10
22.4413697036
 20
1.7624549019
 30
0.0
 11
0.3
 21
0.0
 31
0.0
 40
0.0174550649
 41
-3.1241393611
 42
-1.5707963268
  0
ELLIPSE
  5
737
100
AcDbEntity
  8
RACCORDO
100
AcDbEllipse
 62
7
  6
CONTINUOUS
 10
22.4413697036
 20
1.1218021226
 30
0.0
 11
0.3
 21
0.0
 31
0.0
 40
0.0174550649
 41
1.5707963268
 42
3.1241393611
  0
ELLIPSE
  5
738
100
AcDbEntity
  8
RACCORDO
100
AcDbEllipse
 62
7
  6
CONTINUOUS
 10
-12.9153310009
 20
9.3921285123
 30
0.0
 11
0.0
 21
423.7
 31
0.0
 40
0.0174550649
 41
-4.7090312901
 42
-4.6981756364
  0
ELLIPSE
  5
739
100
AcDbEntity
  8
RACCORDO
100
AcDbEllipse
 62
7
  6
CONTINUOUS
 10
19.5168412159
 20
7.9868919928
 30
0.0
 11
0.3
 21
0.0
 31
0.0
 40
0.0174550649
 41
0.0174532925
 42
1.5707963268
  0
ELLIPSE
  5
73A
100
AcDbEntity
  8
RACCORDO
100
AcDbEllipse
 62
7
  6
CONTINUOUS
 10
-26.8613682095
 20
9.3921285123
 30
0.0
 11
0.0
 21
423.7
 31
0.0
 40
0.0174550649
 41
-1.5850096708
 42
-1.5741540171
  0
ELLIPSE
  5
73B
100
AcDbEntity
  8
RACCORDO
100
AcDbEllipse
 62
7
  6
CONTINUOUS
 10
26.3846689991
 20
9.3921285123
 30
0.0
 11
0.0
 21
423.7
 31
0.0
 40
0.0174550649
 41
-4.7090312901
 42
-4.6981756364
  0
ELLIPSE
  5
73C
100
AcDbEntity
  8
RACCORDO
100
AcDbEllipse
 62
7
  6
CONTINUOUS
 10
12.4386317905
 20
9.3921285123
 30
0.0
 11
0.0
 21
423.7
 31
0.0
 40
0.0174550649
 41
-1.5850096708
 42
-1.5741540171
  0
ELLIPSE
  5
73D
100
AcDbEntity
  8
RACCORDO
100
AcDbEllipse
 62
7
  6
CONTINUOUS
 10
-3.7782873437
 20
5.5973650317
 30
0.0
 11
0.3
 21
-0.0
 31
0.0
 40
0.0174550649
 41
-2.7925268032
 42
-1.5707963268
  0
ELLIPSE
  5
73E
100
AcDbEntity
  8
RACCORDO
100
AcDbEllipse
 62
7
  6
CONTINUOUS
 10
3.3015881333
 20
5.5973650317
 30
0.0
 11
0.3
 21
0.0
 31
0.0
 40
0.0174550649
 41
-1.5707963268
 42
-0.3490658504
  0
ELLIPSE
  5
73F
100
AcDbEntity
  8
RACCORDO
100
AcDbEllipse
 62
7
  6
CONTINUOUS
 10
-3.7782873437
 20
3.9868919928
 30
0.0
 11
0.3
 21
0.0
 31
0.0
 40
0.0174550649
 41
1.5707963268
 42
2.7925268032
  0
ELLIPSE
  5
740
100
AcDbEntity
  8
RACCORDO
100
AcDbEllipse
 62
7
  6
CONTINUOUS
 10
3.3015881333
 20
3.9868919928
 30
0.0
 11
0.3
 21
0.0
 31
0.0
 40
0.0174550649
 41
0.3490658504
 42
1.5707963268
  0
ELLIPSE
  5
741
100
AcDbEntity
  8
RACCORDO
100
AcDbEllipse
 62
7
  6
CONTINUOUS
 10
-18.2331587841
 20
-7.8817886398
 30
0.0
 11
0.3
 21
0.0
 31
0.0
 40
0.1763269807
 41
-1.5707963268
 42
-0.0174532925
  0
ELLIPSE
  5
742
100
AcDbEntity
  8
RACCORDO
100
AcDbEllipse
 62
7
  6
CONTINUOUS
 10
-18.4435404263
 20
-7.8817886398
 30
0.0
 11
0.3
 21
0.0
 31
0.0
 40
0.1763269807
 41
-3.1241393611
 42
-1.5707963268
  0
ELLIPSE
  5
743
100
AcDbEntity
  8
RACCORDO
100
AcDbEllipse
 62
7
  6
CONTINUOUS
 10
17.7564595737
 20
-7.8817886398
 30
0.0
 11
0.3
 21
0.0
 31
0.0
 40
0.1763269807
 41
-3.1241393611
 42
-1.5707963268
  0
ELLIPSE
  5
744
100
AcDbEntity
  8
RACCORDO
100
AcDbEllipse
 62
7
  6
CONTINUOUS
 10
-23.9366040987
 20
8.2345724964
 30
0.0
 11
-0.0
 21
0.3
 31
0.0
 40
0.0174550649
 41
-3.1241393611
 42
-1.5707963268
  0
ELLIPSE
  5
745
100
AcDbEntity
  8
RACCORDO
100
AcDbEllipse
 62
7
  6
CONTINUOUS
 10
23.4599048883
 20
8.2345724964
 30
0.0
 11
0.0
 21
0.3
 31
0.0
 40
0.0174550649
 41
-4.7123889804
 42
-3.1590459461
  0
ELLIPSE
  5
746
100
AcDbEntity
  8
RACCORDO
100
AcDbEllipse
 62
7
  6
CONTINUOUS
 10
-7.0331587841
 20
-7.8817886398
 30
0.0
 11
0.3
 21
-0.0
 31
0.0
 40
0.1763269807
 41
-1.5707963268
 42
-0.0174532925
  0
ELLIPSE
  5
747
100
AcDbEntity
  8
RACCORDO
100
AcDbEllipse
 62
7
  6
CONTINUOUS
 10
-7.2435404263
 20
-7.8817886398
 30
0.0
 11
0.3
 21
0.0
 31
0.0
 40
0.1763269807
 41
-3.1241393611
 42
-1.5707963268
  0
ELLIPSE
  5
748
100
AcDbEntity
  8
RACCORDO
100
AcDbEllipse
 62
7
  6
CONTINUOUS
 10
6.5564595737
 20
-7.8817886398
 30
0.0
 11
0.3
 21
-0.0
 31
0.0
 40
0.1763269807
 41
-3.1241393611
 42
-1.5707963268
  0
ELLIPSE
  5
749
100
AcDbEntity
  8
RACCORDO
100
AcDbEllipse
 62
7
  6
CONTINUOUS
 10
6.7668412159
 20
-7.8817886398
 30
0.0
 11
0.3
 21
-0.0
 31
0.0
 40
0.1763269807
 41
-1.5707963268
 42
-0.0174532925
  0
ELLIPSE
  5
74A
100
AcDbEntity
  8
RACCORDO
100
AcDbEllipse
 62
7
  6
CONTINUOUS
 10
17.9668412159
 20
-7.8817886398
 30
0.0
 11
0.3
 21
-0.0
 31
0.0
 40
0.1763269807
 41
-1.5707963268
 42
-0.0174532925
  0
ELLIPSE
  5
74B
100
AcDbEntity
  8
ASSI
100
AcDbEllipse
 62
7
  6
CONTINUOUS
 10
24.2981193048
 20
-9.051115978
 30
0.0
 11
0.2183310446
 21
0.1221043275
 31
0.0
 40
0.9980297029
 41
-2.0815635429
 42
-0.5109195152
  0
ELLIPSE
  5
74C
100
AcDbEntity
  8
ASSI
100
AcDbEllipse
 62
7
  6
CONTINUOUS
 10
-24.7748185152
 20
-9.051115978
 30
0.0
 11
0.2183310446
 21
-0.1221043275
 31
0.0
 40
0.9980297029
 41
-2.6306731384
 42
-1.0600291107
  0
ELLIPSE
  5
74D
100
AcDbEntity
  8
ASSI
100
AcDbEllipse
 62
7
  6
CONTINUOUS
 10
-24.7813294972
 20
8.9351084043
 30
0.0
 11
-0.1768305473
 21
0.1768305473
 31
0.0
 40
0.9996954599
 41
-0.7852458701
 42
0.7852458701
  0
ELLIPSE
  5
74E
100
AcDbEntity
  8
ASSI
100
AcDbEllipse
 62
7
  6
CONTINUOUS
 10
24.3046302868
 20
8.9351084043
 30
0.0
 11
-0.1768305473
 21
-0.1768305473
 31
0.0
 40
0.9996954599
 41
2.3563467834
 42
3.9268385237
  0
ELLIPSE
  5
74F
100
AcDbEntity
  8
ASSI
100
AcDbEllipse
 62
7
  6
CONTINUOUS
 10
-25.0366040987
 20
8.2345724964
 30
0.0
 11
-0.0
 21
0.3
 31
0.0
 40
0.0174550649
 41
-3.1241393611
 42
-1.5707963268
  0
ELLIPSE
  5
750
100
AcDbEntity
  8
ASSI
100
AcDbEllipse
 62
7
  6
CONTINUOUS
 10
24.5599048883
 20
8.2345724964
 30
0.0
 11
-0.0
 21
0.3
 31
0.0
 40
0.0174550649
 41
-4.7123889804
 42
-3.1590459461
  0
ELLIPSE
  5
751
100
AcDbEntity
  8
ASSI
100
AcDbEllipse
 62
7
  6
CONTINUOUS
 10
29.4846689991
 20
9.3921285123
 30
0.0
 11
0.0
 21
423.7
 31
0.0
 40
0.0174550649
 41
-4.6945015721
 42
-4.6927481945
  0
ELLIPSE
  5
752
100
AcDbEntity
  8
ASSI
100
AcDbEllipse
 62
7
  6
CONTINUOUS
 10
29.4846689991
 20
9.3921285123
 30
0.0
 11
0.0
 21
423.7
 31
0.0
 40
0.0174550649
 41
-4.675840257
 42
-4.6741042615
  0
ELLIPSE
  5
753
100
AcDbEntity
  8
ASSI
100
AcDbEllipse
 62
7
  6
CONTINUOUS
 10
10.9060868555
 20
9.3921285123
 30
0.0
 11
0.0
 21
423.7
 31
0.0
 40
0.0174550649
 41
-1.6103149114
 42
-1.60848535
  0
ELLIPSE
  5
754
100
AcDbEntity
  8
ASSI
100
AcDbEllipse
 62
7
  6
CONTINUOUS
 10
24.8172139341
 20
9.3921285123
 30
0.0
 11
0.0
 21
423.7
 31
0.0
 40
0.0174550649
 41
-4.6746999572
 42
-4.6722996927
  0
ELLIPSE
  5
755
100
AcDbEntity
  8
ASSI
100
AcDbEllipse
 62
7
  6
CONTINUOUS
 10
23.1476406444
 20
-7.9121819196
 30
0.0
 11
-0.0300136675
 21
0.3031910442
 31
0.0
 40
0.9846622838
 41
-3.2387599651
 42
-1.6709942215
  0
ELLIPSE
  5
756
100
AcDbEntity
  8
ASSI
100
AcDbEllipse
 62
7
  6
CONTINUOUS
 10
-23.6243398548
 20
-7.9121819196
 30
0.0
 11
0.0300136675
 21
0.3031910442
 31
0.0
 40
0.9846622838
 41
-4.6121910857
 42
-3.0444253421
  0
ELLIPSE
  5
757
100
AcDbEntity
  8
ASSI
100
AcDbEllipse
 62
7
  6
CONTINUOUS
 10
-19.7831587841
 20
7.9868919928
 30
0.0
 11
0.3
 21
-0.0
 31
0.0
 40
0.0174550649
 41
0.0174532925
 42
1.5707963268
  0
ELLIPSE
  5
758
100
AcDbEntity
  8
ASSI
100
AcDbEllipse
 62
7
  6
CONTINUOUS
 10
-0.2939131445
 20
9.3921285123
 30
0.0
 11
0.0
 21
423.7
 31
0.0
 40
0.0174550649
 41
-1.6108856145
 42
-1.60848535
  0
ELLIPSE
  5
759
100
AcDbEntity
  8
ASSI
100
AcDbEllipse
 62
7
  6
CONTINUOUS
 10
13.6172139341
 20
9.3921285123
 30
0.0
 11
0.0
 21
423.7
 31
0.0
 40
0.0174550649
 41
-4.6746999572
 42
-4.6728703958
  0
ELLIPSE
  5
75A
100
AcDbEntity
  8
ASSI
100
AcDbEllipse
 62
7
  6
CONTINUOUS
 10
-14.0939131445
 20
9.3921285123
 30
0.0
 11
0.0
 21
423.7
 31
0.0
 40
0.0174550649
 41
-1.6103149114
 42
-1.60848535
  0
ELLIPSE
  5
75B
100
AcDbEntity
  8
ASSI
100
AcDbEllipse
 62
7
  6
CONTINUOUS
 10
-0.1827860659
 20
9.3921285123
 30
0.0
 11
0.0
 21
423.7
 31
0.0
 40
0.0174550649
 41
-4.6746999572
 42
-4.6728703958
  0
ELLIPSE
  5
75C
100
AcDbEntity
  8
ASSI
100
AcDbEllipse
 62
7
  6
CONTINUOUS
 10
-25.2939131445
 20
9.3921285123
 30
0.0
 11
0.0
 21
423.7
 31
0.0
 40
0.0174550649
 41
-1.6103149114
 42
-1.60848535
  0
ELLIPSE
  5
75D
100
AcDbEntity
  8
ASSI
100
AcDbEllipse
 62
7
  6
CONTINUOUS
 10
31.0753217783
 20
9.3921285123
 30
0.0
 11
0.0
 21
423.7
 31
0.0
 40
0.0174550649
 41
-4.6861185815
 42
-4.6805882475
  0
ELLIPSE
  5
75E
100
AcDbEntity
  8
ASSI
100
AcDbEllipse
 62
7
  6
CONTINUOUS
 10
15.3479790113
 20
9.3921285123
 30
0.0
 11
0.0
 21
423.7
 31
0.0
 40
0.0174550649
 41
-1.6025970597
 42
-1.5970667257
  0
ELLIPSE
  5
75F
100
AcDbEntity
  8
ASSI
100
AcDbEllipse
 62
7
  6
CONTINUOUS
 10
-31.5520209887
 20
9.3921285123
 30
0.0
 11
0.0
 21
423.7
 31
0.0
 40
0.0174550649
 41
-1.6025970597
 42
-1.5970667257
  0
ELLIPSE
  5
760
100
AcDbEntity
  8
ASSI
100
AcDbEllipse
 62
7
  6
CONTINUOUS
 10
-15.8246782217
 20
9.3921285123
 30
0.0
 11
0.0
 21
423.7
 31
0.0
 40
0.0174550649
 41
-4.6861185815
 42
-4.6805882475
  0
ELLIPSE
  5
761
100
AcDbEntity
  8
ASSI
100
AcDbEllipse
 62
7
  6
CONTINUOUS
 10
-11.3827860659
 20
9.3921285123
 30
0.0
 11
0.0
 21
423.7
 31
0.0
 40
0.0174550649
 41
-4.6746999572
 42
-4.6722996927
  0
ELLIPSE
  5
762
100
AcDbEntity
  8
ASSI
100
AcDbEllipse
 62
7
  6
CONTINUOUS
 10
-19.9935404263
 20
7.9868919928
 30
0.0
 11
0.3
 21
0.0
 31
0.0
 40
0.0174550649
 41
1.5707963268
 42
3.1241393611
  0
ELLIPSE
  5
763
100
AcDbEntity
  8
ASSI
100
AcDbEllipse
 62
7
  6
CONTINUOUS
 10
-7.567490387
 20
-7.3356853928
 30
0.0
 11
-0.0
 21
0.3
 31
0.0
 40
0.0174550649
 41
-4.6728703958
 42
-3.3161255788
  0
ELLIPSE
  5
764
100
AcDbEntity
  8
ASSI
100
AcDbEllipse
 62
7
  6
CONTINUOUS
 10
-6.7092088234
 20
-7.3356853928
 30
0.0
 11
-0.0
 21
0.3
 31
0.0
 40
0.0174550649
 41
-2.9670597284
 42
-1.6103149114
  0
ELLIPSE
  5
765
100
AcDbEntity
  8
ASSI
100
AcDbEllipse
 62
7
  6
CONTINUOUS
 10
6.232509613
 20
-7.3356853928
 30
0.0
 11
-0.0
 21
0.3
 31
0.0
 40
0.0174550649
 41
-4.6728703958
 42
-3.3161255788
  0
ELLIPSE
  5
766
100
AcDbEntity
  8
ASSI
100
AcDbEllipse
 62
7
  6
CONTINUOUS
 10
18.2907911766
 20
-7.3356853928
 30
0.0
 11
-0.0
 21
0.3
 31
0.0
 40
0.0174550649
 41
-2.9670597284
 42
-1.6103149114
  0
ELLIPSE
  5
767
100
AcDbEntity
  8
ASSI
100
AcDbEllipse
 62
7
  6
CONTINUOUS
 10
-17.9092088234
 20
-7.3356853928
 30
0.0
 11
0.0
 21
0.3
 31
0.0
 40
0.0174550649
 41
-2.9670597284
 42
-1.6103149114
  0
ELLIPSE
  5
768
100
AcDbEntity
  8
ASSI
100
AcDbEllipse
 62
7
  6
CONTINUOUS
 10
-29.9613682095
 20
9.3921285123
 30
0.0
 11
0.0
 21
423.7
 31
0.0
 40
0.0174550649
 41
-1.6090810457
 42
-1.6073450502
  0
ELLIPSE
  5
769
100
AcDbEntity
  8
ASSI
100
AcDbEllipse
 62
7
  6
CONTINUOUS
 10
-22.918068914
 20
-6.7781978774
 30
0.0
 11
0.3
 21
-0.0
 31
0.0
 40
0.0174550649
 41
0.0174532925
 42
1.5707963268
  0
ELLIPSE
  5
76A
100
AcDbEntity
  8
ASSI
100
AcDbEllipse
 62
7
  6
CONTINUOUS
 10
-22.918068914
 20
-6.1375450981
 30
0.0
 11
0.3
 21
0.0
 31
0.0
 40
0.0174550649
 41
-1.5707963268
 42
-0.0174532925
  0
ELLIPSE
  5
76B
100
AcDbEntity
  8
ASSI
100
AcDbEllipse
 62
7
  6
CONTINUOUS
 10
-22.918068914
 20
1.1218021226
 30
0.0
 11
0.3
 21
-0.0
 31
0.0
 40
0.0174550649
 41
0.0174532925
 42
1.5707963268
  0
ELLIPSE
  5
76C
100
AcDbEntity
  8
ASSI
100
AcDbEllipse
 62
7
  6
CONTINUOUS
 10
-22.918068914
 20
1.7624549019
 30
0.0
 11
0.3
 21
0.0
 31
0.0
 40
0.0174550649
 41
-1.5707963268
 42
-0.0174532925
  0
ELLIPSE
  5
76D
100
AcDbEntity
  8
ASSI
100
AcDbEllipse
 62
7
  6
CONTINUOUS
 10
22.4413697036
 20
-6.1375450981
 30
0.0
 11
0.3
 21
0.0
 31
0.0
 40
0.0174550649
 41
-3.1241393611
 42
-1.5707963268
  0
ELLIPSE
  5
76E
100
AcDbEntity
  8
ASSI
100
AcDbEllipse
 62
7
  6
CONTINUOUS
 10
22.4413697036
 20
-6.7781978774
 30
0.0
 11
0.3
 21
-0.0
 31
0.0
 40
0.0174550649
 41
1.5707963268
 42
3.1241393611
  0
ELLIPSE
  5
76F
100
AcDbEntity
  8
ASSI
100
AcDbEllipse
 62
7
  6
CONTINUOUS
 10
22.4413697036
 20
1.7624549019
 30
0.0
 11
0.3
 21
0.0
 31
0.0
 40
0.0174550649
 41
-3.1241393611
 42
-1.5707963268
  0
ELLIPSE
  5
770
100
AcDbEntity
  8
ASSI
100
AcDbEllipse
 62
7
  6
CONTINUOUS
 10
22.4413697036
 20
1.1218021226
 30
0.0
 11
0.3
 21
0.0
 31
0.0
 40
0.0174550649
 41
1.5707963268
 42
3.1241393611
  0
ELLIPSE
  5
771
100
AcDbEntity
  8
ASSI
100
AcDbEllipse
 62
7
  6
CONTINUOUS
 10
19.3064595737
 20
7.9868919928
 30
0.0
 11
0.3
 21
0.0
 31
0.0
 40
0.0174550649
 41
1.5707963268
 42
3.1241393611
  0
ELLIPSE
  5
772
100
AcDbEntity
  8
ASSI
100
AcDbEllipse
 62
7
  6
CONTINUOUS
 10
-29.9613682095
 20
9.3921285123
 30
0.0
 11
0.0
 21
423.7
 31
0.0
 40
0.0174550649
 41
-1.5904371127
 42
-1.588683735
  0
ELLIPSE
  5
773
100
AcDbEntity
  8
ASSI
100
AcDbEllipse
 62
7
  6
CONTINUOUS
 10
19.5168412159
 20
7.9868919928
 30
0.0
 11
0.3
 21
0.0
 31
0.0
 40
0.0174550649
 41
0.0174532925
 42
1.5707963268
  0
ELLIPSE
  5
774
100
AcDbEntity
  8
ASSI
100
AcDbEllipse
 62
7
  6
CONTINUOUS
 10
-12.9153310009
 20
9.3921285123
 30
0.0
 11
0.0
 21
423.7
 31
0.0
 40
0.0174550649
 41
-4.7090312901
 42
-4.6981756364
  0
ELLIPSE
  5
775
100
AcDbEntity
  8
ASSI
100
AcDbEllipse
 62
7
  6
CONTINUOUS
 10
-26.8613682095
 20
9.3921285123
 30
0.0
 11
0.0
 21
423.7
 31
0.0
 40
0.0174550649
 41
-1.5850096708
 42
-1.5741540171
  0
ELLIPSE
  5
776
100
AcDbEntity
  8
ASSI
100
AcDbEllipse
 62
7
  6
CONTINUOUS
 10
26.3846689991
 20
9.3921285123
 30
0.0
 11
0.0
 21
423.7
 31
0.0
 40
0.0174550649
 41
-4.7090312901
 42
-4.6981756364
  0
ELLIPSE
  5
777
100
AcDbEntity
  8
ASSI
100
AcDbEllipse
 62
7
  6
CONTINUOUS
 10
12.4386317905
 20
9.3921285123
 30
0.0
 11
0.0
 21
423.7
 31
0.0
 40
0.0174550649
 41
-1.5850096708
 42
-1.5741540171
  0
ELLIPSE
  5
778
100
AcDbEntity
  8
ASSI
100
AcDbEllipse
 62
7
  6
CONTINUOUS
 10
-3.7782873437
 20
5.5973650317
 30
0.0
 11
0.3
 21
-0.0
 31
0.0
 40
0.0174550649
 41
-2.7925268032
 42
-1.5707963268
  0
ELLIPSE
  5
779
100
AcDbEntity
  8
ASSI
100
AcDbEllipse
 62
7
  6
CONTINUOUS
 10
3.3015881333
 20
5.5973650317
 30
0.0
 11
0.3
 21
0.0
 31
0.0
 40
0.0174550649
 41
-1.5707963268
 42
-0.3490658504
  0
ELLIPSE
  5
77A
100
AcDbEntity
  8
ASSI
100
AcDbEllipse
 62
7
  6
CONTINUOUS
 10
-3.7782873437
 20
3.9868919928
 30
0.0
 11
0.3
 21
0.0
 31
0.0
 40
0.0174550649
 41
1.5707963268
 42
2.7925268032
  0
ELLIPSE
  5
77B
100
AcDbEntity
  8
ASSI
100
AcDbEllipse
 62
7
  6
CONTINUOUS
 10
3.3015881333
 20
3.9868919928
 30
0.0
 11
0.3
 21
0.0
 31
0.0
 40
0.0174550649
 41
0.3490658504
 42
1.5707963268
  0
ELLIPSE
  5
77C
100
AcDbEntity
  8
ASSI
100
AcDbEllipse
 62
7
  6
CONTINUOUS
 10
-18.2331587841
 20
-7.8817886398
 30
0.0
 11
0.3
 21
0.0
 31
0.0
 40
0.1763269807
 41
-1.5707963268
 42
-0.0174532925
  0
ELLIPSE
  5
77D
100
AcDbEntity
  8
ASSI
100
AcDbEllipse
 62
7
  6
CONTINUOUS
 10
-18.4435404263
 20
-7.8817886398
 30
0.0
 11
0.3
 21
0.0
 31
0.0
 40
0.1763269807
 41
-3.1241393611
 42
-1.5707963268
  0
ELLIPSE
  5
77E
100
AcDbEntity
  8
ASSI
100
AcDbEllipse
 62
7
  6
CONTINUOUS
 10
-23.9366040987
 20
8.2345724964
 30
0.0
 11
-0.0
 21
0.3
 31
0.0
 40
0.0174550649
 41
-3.1241393611
 42
-1.5707963268
  0
ELLIPSE
  5
77F
100
AcDbEntity
  8
ASSI
100
AcDbEllipse
 62
7
  6
CONTINUOUS
 10
23.4599048883
 20
8.2345724964
 30
0.0
 11
0.0
 21
0.3
 31
0.0
 40
0.0174550649
 41
-4.7123889804
 42
-3.1590459461
  0
ELLIPSE
  5
780
100
AcDbEntity
  8
ASSI
100
AcDbEllipse
 62
7
  6
CONTINUOUS
 10
-7.0331587841
 20
-7.8817886398
 30
0.0
 11
0.3
 21
-0.0
 31
0.0
 40
0.1763269807
 41
-1.5707963268
 42
-0.0174532925
  0
ELLIPSE
  5
781
100
AcDbEntity
  8
ASSI
100
AcDbEllipse
 62
7
  6
CONTINUOUS
 10
-7.2435404263
 20
-7.8817886398
 30
0.0
 11
0.3
 21
0.0
 31
0.0
 40
0.1763269807
 41
-3.1241393611
 42
-1.5707963268
  0
ELLIPSE
  5
782
100
AcDbEntity
  8
ASSI
100
AcDbEllipse
 62
7
  6
CONTINUOUS
 10
6.5564595737
 20
-7.8817886398
 30
0.0
 11
0.3
 21
-0.0
 31
0.0
 40
0.1763269807
 41
-3.1241393611
 42
-1.5707963268
  0
ELLIPSE
  5
783
100
AcDbEntity
  8
ASSI
100
AcDbEllipse
 62
7
  6
CONTINUOUS
 10
6.7668412159
 20
-7.8817886398
 30
0.0
 11
0.3
 21
-0.0
 31
0.0
 40
0.1763269807
 41
-1.5707963268
 42
-0.0174532925
  0
ELLIPSE
  5
784
100
AcDbEntity
  8
ASSI
100
AcDbEllipse
 62
7
  6
CONTINUOUS
 10
17.9668412159
 20
-7.8817886398
 30
0.0
 11
0.3
 21
-0.0
 31
0.0
 40
0.1763269807
 41
-1.5707963268
 42
-0.0174532925
  0
ELLIPSE
  5
785
100
AcDbEntity
  8
ASSI
100
AcDbEllipse
 62
7
  6
CONTINUOUS
 10
17.7564595737
 20
-7.8817886398
 30
0.0
 11
0.3
 21
0.0
 31
0.0
 40
0.1763269807
 41
-3.1241393611
 42
-1.5707963268
  0
ENDSEC
  0
SECTION
  2
OBJECTS
  0
DICTIONARY
  5
C
100
AcDbDictionary
280
0
281
1
  3
ACAD_GROUP
350
D
  3
ACAD_MLINESTYLE
350
17
  3
ACAD_LAYOUT
350
1A
  3
ACAD_PLOTSETTINGS
350
19
  3
ACAD_PLOTSTYLENAME
350
E
  0
DICTIONARY
  5
D
102
{ACAD_REACTORS
330
C
102
}
100
AcDbDictionary
280
0
281
1
  0
ACDBDICTIONARYWDFLT
  5
E
102
{ACAD_REACTORS
330
C
102
}
100
AcDbDictionary
281
1
  3
Normal
350
F
100
AcDbDictionaryWithDefault
340
F
  0
DICTIONARY
  5
17
102
{ACAD_REACTORS
330
C
102
}
100
AcDbDictionary
280
0
281
1
  3
Standard
350
18
  0
DICTIONARY
  5
19
102
{ACAD_REACTORS
330
C
102
}
100
AcDbDictionary
281
1
  0
DICTIONARY
  5
1A
102
{ACAD_REACTORS
330
C
102
}
100
AcDbDictionary
281
1
  3
Model
350
786
  3
Layout1
350
787
  0
ACDBPLACEHOLDER
  5
F
102
{ACAD_REACTORS
330
E
102
}
  0
MLINESTYLE
  5
18
102
{ACAD_REACTORS
330
17
102
}
100
AcDbMlineStyle
  2
STANDARD
 70
0
  3

 62
256
 51
90.0
 52
90.0
 71
2
 49
0.5
 62
256
  6
BYLAYER
 49
-0.5
 62
256
  6
BYLAYER
  0
LAYOUT
  5
786
102
{ACAD_REACTORS
330
1A
102
}
100
AcDbPlotSettings
  1

  2
none_device
  4
ISO_A4_(297.00_x_210.00_MM)
  6

 40
0.0
 41
0.0
 42
0.0
 43
0.0
 44
297.0
 45
210.0
 46
0.0
 47
0.0
 48
0.0
 49
0.0
140
0.0
141
0.0
142
1.0
143
1.0
 70
1024
 72
1
 73
0
 74
0
  7

 75
0
147
1.0
148
0.0
149
0.0
100
AcDbLayout
  1
Model
 70
0
 71
0
 10
0.0
 20
0.0
 11
297.0
 21
210.0
 12
0.0
 22
0.0
 32
0.0
 14
0.0
 24
0.0
 34
0.0
 15
0.0
 25
0.0
 35
0.0
146
0.0
 13
0.0
 23
0.0
 33
0.0
 16
1.0
 26
0.0
 36
0.0
 17
0.0
 27
1.0
 37
0.0
 76
0
330
211
345
0
346
0
  0
LAYOUT
  5
787
102
{ACAD_REACTORS
330
1A
102
}
100
AcDbPlotSettings
  1

  2
none_device
  4
ISO_A4_(297.00_x_210.00_MM)
  6

 40
0.0
 41
0.0
 42
0.0
 43
0.0
 44
297.0
 45
210.0
 46
0.0
 47
0.0
 48
0.0
 49
0.0
140
0.0
141
0.0
142
1.0
143
1.0
 70
0
 72
1
 73
0
 74
0
  7

 75
0
147
1.0
148
0.0
149
0.0
100
AcDbLayout
  1
Layout1
 70
0
 71
1
 10
0.0
 20
0.0
 11
297.0
 21
210.0
 12
0.0
 22
0.0
 32
0.0
 14
0.0
 24
0.0
 34
0.0
 15
0.0
 25
0.0
 35
0.0
146
0.0
 13
0.0
 23
0.0
 33
0.0
 16
1.0
 26
0.0
 36
0.0
 17
0.0
 27
1.0
 37
0.0
 76
0
330
212
345
0
346
0
  0
ENDSEC
  0
EOF
