  0
SECTION
  2
HEADER
  9
$ACADVER
  1
AC1015
  9
$DWGCODEPAGE
  3
ANSI_1252
  9
$EXTMAX
 10
297.0
 20
210.0
 30
0.0
  9
$EXTMIN
 10
0.0
 20
0.0
 30
0.0
  9
$LIMMIN
 10
0.0
 20
0.0
  9
$LIMMAX
 10
297.0
 20
210.0
  9
$VIEWCTR
 10
148.5
 20
105.0
  9
$VIEWSIZE
 40
210.0
  9
$CLAYER
  8
0
  9
$LTSCALE
 40
16.335
  9
$CELTYPE
  6
BYLAYER
  9
$DIMSCALE
 40
1.0
  9
$DIMASZ
 40
3.0
  9
$DIMEXO
 40
1.85625
  9
$DIMDLI
 40
11.286
  9
$DIMEXE
 40
5.346
  9
$DIMCEN
 40
2.673
  9
$DIMLFAC
 40
1.0
  9
$DIMBLK
  1
_FILLED
  9
$DIMTXT
 40
3.0
  9
$DIMTOL
 70
1
  9
$DIMLIM
 70
0
  9
$DIMTFAC
 40
1.0
  9
$DIMTP
 40
0.01
  9
$DIMTM
 40
0.01
  9
$PDMODE
 70
3
  9
$PDSIZE
 40
3.0
  9
$HANDSEED
  5
788
  9
$TILEMODE
 70
1
  9
$MEASUREMENT
 70
1
  9
$INSUNITS
 70
4
  0
ENDSEC
  0
SECTION
  2
CLASSES
  0
CLASS
  1
ACDBDICTIONARYWDFLT
  2
AcDbDictionaryWithDefault
  3
AutoCAD 2000
 90
0
280
0
281
0
  0
CLASS
  1
ACDBPLACEHOLDER
  2
AcDbPlaceHolder
  3
AutoCAD 2000
 90
0
280
0
281
0
  0
CLASS
  1
LAYOUT
  2
AcDbLayout
  3
AutoCAD 2000
 90
0
280
0
281
0
  0
ENDSEC
  0
SECTION
  2
TABLES
  0
TABLE
  2
VPORT
  5
8
100
AcDbSymbolTable
 70
2
  0
VPORT
  5
1F4
100
AcDbSymbolTableRecord
100
AcDbViewportTableRecord
  2
*ACTIVE
 70
0
 10
0.0
 20
0.0
 11
1.0
 21
1.0
 12
148.5
 22
105.0
 13
0.0
 23
0.0
 14
1.0
 24
1.0
 15
0.0
 25
0.0
 16
0.0
 26
0.0
 36
1.0
 17
0.0
 27
0.0
 37
0.0
 40
210.0
 41
1.4142857143
 42
50.0
 43
0.0
 44
0.0
 50
0.0
 51
0.0
 71
0
 72
100
 73
1
 74
1
 75
0
 76
0
 77
0
 78
0
  0
ENDTAB
  0
TABLE
  2
LTYPE
  5
5
100
AcDbSymbolTable
 70
6
  0
LTYPE
  5
14
100
AcDbSymbolTableRecord
100
AcDbLinetypeTableRecord
  2
BYBLOCK
 70
0
  3

 72
65
 73
0
 40
0.0
  0
LTYPE
  5
15
100
AcDbSymbolTableRecord
100
AcDbLinetypeTableRecord
  2
BYLAYER
 70
0
  3

 72
65
 73
0
 40
0.0
  0
LTYPE
  5
16
100
AcDbSymbolTableRecord
100
AcDbLinetypeTableRecord
  2
CONTINUOUS
 70
64
  3
Solid line
 72
65
 73
0
 40
0.0
  0
LTYPE
  5
1F5
100
AcDbSymbolTableRecord
100
AcDbLinetypeTableRecord
  2
CENTER
 70
64
  3
____ _ ____ _ ____ _ ____ _ ____ _ ____ _ ____
 72
65
 73
4
 40
0.6
 49
0.375
 74
0
 49
-0.075
 74
0
 49
0.075
 74
0
 49
-0.075
 74
0
  0
LTYPE
  5
1F6
100
AcDbSymbolTableRecord
100
AcDbLinetypeTableRecord
  2
HIDDEN
 70
64
  3
- - - - - - - - - - - - - - - - - - - -
 72
65
 73
2
 40
0.2
 49
0.1
 74
0
 49
-0.1
 74
0
  0
LTYPE
  5
1F7
100
AcDbSymbolTableRecord
100
AcDbLinetypeTableRecord
  2
PHANTOM
 70
64
  3
_____ _ _ _____ _ _ _____ _ _ _____
 72
65
 73
6
 40
0.8
 49
0.45
 74
0
 49
-0.05
 74
0
 49
0.1
 74
0
 49
-0.05
 74
0
 49
0.1
 74
0
 49
-0.05
 74
0
  0
LTYPE
  5
1F8
100
AcDbSymbolTableRecord
100
AcDbLinetypeTableRecord
  2
DOT
 70
64
  3
. . . . . . . . . . . . . . . . . . . .
 72
65
 73
2
 40
0.2
 49
0.1
 74
0
 49
-0.1
 74
0
  0
LTYPE
  5
1F9
100
AcDbSymbolTableRecord
100
AcDbLinetypeTableRecord
  2
DASHED
 70
64
  3
- - - - - - - - - - - - - - - - - - - -
 72
65
 73
2
 40
0.2
 49
0.1
 74
0
 49
-0.1
 74
0
  0
ENDTAB
  0
TABLE
  2
LAYER
  5
2
100
AcDbSymbolTable
 70
36
  0
LAYER
  5
10
100
AcDbSymbolTableRecord
100
AcDbLayerTableRecord
  2
0
 70
0
 62
7
  6
CONTINUOUS
370
-3
390
F
  0
LAYER
  5
1FA
100
AcDbSymbolTableRecord
100
AcDbLayerTableRecord
  2
DEFAULT_1
 70
0
 62
7
  6
CENTER
370
-3
390
F
  0
LAYER
  5
1FB
100
AcDbSymbolTableRecord
100
AcDbLayerTableRecord
  2
DEFAULT_2
 70
0
 62
7
  6
HIDDEN
370
-3
390
F
  0
LAYER
  5
1FC
100
AcDbSymbolTableRecord
100
AcDbLayerTableRecord
  2
DEFAULT_3
 70
0
 62
7
  6
PHANTOM
370
-3
390
F
  0
LAYER
  5
1FD
100
AcDbSymbolTableRecord
100
AcDbLayerTableRecord
  2
ASSI
 70
0
 62
7
  6
CONTINUOUS
370
-3
390
F
  0
LAYER
  5
1FE
100
AcDbSymbolTableRecord
100
AcDbLayerTableRecord
  2
COORDINATE
 70
0
 62
7
  6
CONTINUOUS
370
-3
390
F
  0
LAYER
  5
1FF
100
AcDbSymbolTableRecord
100
AcDbLayerTableRecord
  2
COORD_ORIGINE
 70
0
 62
7
  6
CONTINUOUS
370
-3
390
F
  0
LAYER
  5
200
100
AcDbSymbolTableRecord
100
AcDbLayerTableRecord
  2
COPY_PUBLISH
 70
0
 62
7
  6
CONTINUOUS
370
-3
390
F
  0
LAYER
  5
201
100
AcDbSymbolTableRecord
100
AcDbLayerTableRecord
  2
COSMETIC
 70
0
 62
7
  6
CONTINUOUS
370
-3
390
F
  0
LAYER
  5
202
100
AcDbSymbolTableRecord
100
AcDbLayerTableRecord
  2
CURVE
 70
0
 62
7
  6
CONTINUOUS
370
-3
390
F
  0
LAYER
  5
203
100
AcDbSymbolTableRecord
100
AcDbLayerTableRecord
  2
DRAFT
 70
0
 62
7
  6
CONTINUOUS
370
-3
390
F
  0
LAYER
  5
204
100
AcDbSymbolTableRecord
100
AcDbLayerTableRecord
  2
IGES
 70
0
 62
7
  6
CONTINUOUS
370
-3
390
F
  0
LAYER
  5
205
100
AcDbSymbolTableRecord
100
AcDbLayerTableRecord
  2
IMPORT_IGES
 70
0
 62
7
  6
CONTINUOUS
370
-3
390
F
  0
LAYER
  5
206
100
AcDbSymbolTableRecord
100
AcDbLayerTableRecord
  2
INTF_12
 70
0
 62
7
  6
CONTINUOUS
370
-3
390
F
  0
LAYER
  5
207
100
AcDbSymbolTableRecord
100
AcDbLayerTableRecord
  2
NOTE
 70
0
 62
7
  6
CONTINUOUS
370
-3
390
F
  0
LAYER
  5
208
100
AcDbSymbolTableRecord
100
AcDbLayerTableRecord
  2
PIANI
 70
0
 62
7
  6
CONTINUOUS
370
-3
390
F
  0
LAYER
  5
209
100
AcDbSymbolTableRecord
100
AcDbLayerTableRecord
  2
PIANI_ORIGINE
 70
0
 62
7
  6
CONTINUOUS
370
-3
390
F
  0
LAYER
  5
20A
100
AcDbSymbolTableRecord
100
AcDbLayerTableRecord
  2
RACCORDO
 70
0
 62
7
  6
CONTINUOUS
370
-3
390
F
  0
LAYER
  5
20B
100
AcDbSymbolTableRecord
100
AcDbLayerTableRecord
  2
SMUSSO
 70
0
 62
7
  6
CONTINUOUS
370
-3
390
F
  0
LAYER
  5
20C
100
AcDbSymbolTableRecord
100
AcDbLayerTableRecord
  2
SNAPLINE
 70
0
 62
7
  6
CONTINUOUS
370
-3
390
F
  0
LAYER
  5
20D
100
AcDbSymbolTableRecord
100
AcDbLayerTableRecord
  2
SUPERFICI
 70
0
 62
7
  6
CONTINUOUS
370
-3
390
F
  0
LAYER
  5
20E
100
AcDbSymbolTableRecord
100
AcDbLayerTableRecord
  2
TRASH
 70
0
 62
7
  6
CONTINUOUS
370
-3
390
F
  0
ENDTAB
  0
TABLE
  2
STYLE
  5
3
100
AcDbSymbolTable
 70
1
  0
STYLE
  5
11
100
AcDbSymbolTableRecord
100
AcDbTextStyleTableRecord
  2
STANDARD
 70
0
 40
0.0
 41
0.8
 50
0.0
 71
0
 42
0.2
  3
txt
  4

  0
STYLE
  5
20F
100
AcDbSymbolTableRecord
100
AcDbTextStyleTableRecord
  2
TEXTSTYLE_1
 70
0
 40
0.0
 41
0.8
 50
0.0
 71
0
 42
0.2
  3
gdt
  4

  0
ENDTAB
  0
TABLE
  2
VIEW
  5
6
100
AcDbSymbolTable
 70
0
  0
ENDTAB
  0
TABLE
  2
UCS
  5
7
100
AcDbSymbolTable
 70
0
  0
ENDTAB
  0
TABLE
  2
APPID
  5
9
100
AcDbSymbolTable
 70
1
  0
APPID
  5
210
100
AcDbSymbolTableRecord
100
AcDbRegAppTableRecord
  2
ACAD
 70
0
  0
ENDTAB
  0
TABLE
  2
BLOCK_RECORD
  5
1
100
AcDbSymbolTable
 70
0
  0
BLOCK_RECORD
  5
211
100
AcDbSymbolTableRecord
100
AcDbBlockTableRecord
  2
*Model_Space
  0
BLOCK_RECORD
  5
212
100
AcDbSymbolTableRecord
100
AcDbBlockTableRecord
  2
*Paper_Space
  0
ENDTAB
  0
TABLE
  2
DIMSTYLE
  5
A
100
AcDbSymbolTable
 70
1
100
AcDbDimStyleTable
 71
0
  0
DIMSTYLE
105
213
100
AcDbSymbolTableRecord
100
AcDbDimStyleTableRecord
  2
STANDARD
 70
0
  3

  4

 40
1.0
 41
3.0
 42
0.0625
 43
0.38
 44
0.18
 45
0.0
 46
0.0
 47
0.01
 48
0.01
140
3.0
141
0.09
142
0.0
143
25.4
144
1.0
145
0.0
146
1.0
147
0.09
 71
1.0
 72
0.0
 73
0
 74
0
 75
0
 76
0
 77
1
 78
8
170
0
171
2
172
0
173
0
174
0
175
0
176
0
177
0
178
0
270
2
271
2
272
2
273
2
274
2
275
0
280
0
281
0
282
0
283
1
284
8
285
0
286
0
287
3
288
0
340
11
  0
ENDTAB
  0
ENDSEC
  0
SECTION
  2
BLOCKS
  0
BLOCK
  5
20
100
AcDbEntity
  8
0
100
AcDbBlockBegin
  2
*Model_Space
 70
0
 10
0.0
 20
0.0
 30
0.0
  3
*Model_Space
  1

  0
ENDBLK
  5
21
100
AcDbEntity
  8
0
100
AcDbBlockEnd
  0
BLOCK
  5
1C
100
AcDbEntity
  8
0
100
AcDbBlockBegin
  2
*Paper_Space
 70
0
 10
0.0
 20
0.0
 30
0.0
  3
*Paper_Space
  1

  0
ENDBLK
  5
1D
100
AcDbEntity
  8
0
100
AcDbBlockEnd
  0
ENDSEC
  0
SECTION
  2
ENTITIES
  0
LINE
  5
214
100
AcDbEntity
  8
RACCORDO
100
AcDbLine
 62
7
  6
CONTINUOUS
 10
-24.9408784778
 20
-9.2831623852
 11
-24.9543715556
 21
-1.9283882903
  0
LINE
  5
215
100
AcDbEntity
  8
ASSI
100
AcDbLine
 62
7
  6
CONTINUOUS
 10
-24.9408784778
 20
-9.2831623852
 11
-24.9543715556
 21
-1.9283882903
  0
LINE
  5
216
100
AcDbEntity
  8
DRAFT
100
AcDbLine
 62
7
  6
CONTINUOUS
 10
-24.9543715556
 20
7.7007729256
 11
-24.9543715556
 21
-1.9283882903
  0
LINE
  5
217
100
AcDbEntity
  8
ASSI
100
AcDbLine
 62
7
  6
CONTINUOUS
 10
-24.9543715556
 20
7.7007729256
 11
-24.9543715556
 21
-1.9283882903
  0
LINE
  5
218
100
AcDbEntity
  8
RACCORDO
100
AcDbLine
 62
7
  6
CONTINUOUS
 10
-24.9473895296
 20
8.0025641305
 11
-24.9473895296
 21
8.7031761966
  0
LINE
  5
219
100
AcDbEntity
  8
ASSI
100
AcDbLine
 62
7
  6
CONTINUOUS
 10
-24.9473895296
 20
8.0025641305
 11
-24.9473895296
 21
8.7031761966
  0
LINE
  5
21A
100
AcDbEntity
  8
DRAFT
100
AcDbLine
 62
7
  6
CONTINUOUS
 10
-23.8404093361
 20
-9.5378812315
 11
-23.8498639705
 21
-4.3853722686
  0
LINE
  5
21B
100
AcDbEntity
  8
ASSI
100
AcDbLine
 62
7
  6
CONTINUOUS
 10
-23.8404093361
 20
-9.5378812315
 11
-23.8498639705
 21
-4.3853722686
  0
LINE
  5
21C
100
AcDbEntity
  8
DRAFT
100
AcDbLine
 62
7
  6
CONTINUOUS
 10
-24.1498639697
 20
-4.3853722678
 11
-24.1543715556
 21
-1.8898798537
  0
LINE
  5
21D
100
AcDbEntity
  8
ASSI
100
AcDbLine
 62
7
  6
CONTINUOUS
 10
-24.1498639697
 20
-4.3853722678
 11
-24.1543715556
 21
-1.8898798537
  0
LINE
  5
21E
100
AcDbEntity
  8
DRAFT
100
AcDbLine
 62
7
  6
CONTINUOUS
 10
-23.8543715556
 20
7.7007729256
 11
-23.8543715556
 21
-1.8898798537
  0
LINE
  5
21F
100
AcDbEntity
  8
ASSI
100
AcDbLine
 62
7
  6
CONTINUOUS
 10
-23.8543715556
 20
7.7007729256
 11
-23.8543715556
 21
-1.8898798537
  0
LINE
  5
220
100
AcDbEntity
  8
RACCORDO
100
AcDbLine
 62
7
  6
CONTINUOUS
 10
-23.8473895296
 20
8.0025641305
 11
-23.8473895296
 21
7.8124853411
  0
LINE
  5
221
100
AcDbEntity
  8
ASSI
100
AcDbLine
 62
7
  6
CONTINUOUS
 10
-23.8473895296
 20
8.0025641305
 11
-23.8473895296
 21
7.8124853411
  0
LINE
  5
222
100
AcDbEntity
  8
RACCORDO
100
AcDbLine
 62
7
  6
CONTINUOUS
 10
-23.8404075036
 20
-9.5329015583
 11
-23.8404075036
 21
-8.1451134846
  0
LINE
  5
223
100
AcDbEntity
  8
ASSI
100
AcDbLine
 62
7
  6
CONTINUOUS
 10
-23.8404075036
 20
-9.5329015583
 11
-23.8404075036
 21
-8.1451134846
  0
LINE
  5
224
100
AcDbEntity
  8
DRAFT
100
AcDbLine
 62
7
  6
CONTINUOUS
 10
-23.8369164906
 20
-4.9979876978
 11
-23.8369164906
 21
-4.3724247887
  0
LINE
  5
225
100
AcDbEntity
  8
ASSI
100
AcDbLine
 62
7
  6
CONTINUOUS
 10
-23.8369164906
 20
-4.9979876978
 11
-23.8369164906
 21
-4.3724247887
  0
LINE
  5
226
100
AcDbEntity
  8
DRAFT
100
AcDbLine
 62
7
  6
CONTINUOUS
 10
-23.8369164906
 20
-1.9073349186
 11
-23.8369164906
 21
-1.2817720095
  0
LINE
  5
227
100
AcDbEntity
  8
ASSI
100
AcDbLine
 62
7
  6
CONTINUOUS
 10
-23.8369164906
 20
-1.9073349186
 11
-23.8369164906
 21
-1.2817720095
  0
LINE
  5
228
100
AcDbEntity
  8
DRAFT
100
AcDbLine
 62
7
  6
CONTINUOUS
 10
-23.8299344647
 20
1.5252100165
 11
-23.8299344647
 21
0.8950302762
  0
LINE
  5
229
100
AcDbEntity
  8
ASSI
100
AcDbLine
 62
7
  6
CONTINUOUS
 10
-23.8299344647
 20
1.5252100165
 11
-23.8299344647
 21
0.8950302762
  0
LINE
  5
22A
100
AcDbEntity
  8
DRAFT
100
AcDbLine
 62
7
  6
CONTINUOUS
 10
-23.8299344647
 20
-6.3747899835
 11
-23.8299344647
 21
-7.0049697238
  0
LINE
  5
22B
100
AcDbEntity
  8
ASSI
100
AcDbLine
 62
7
  6
CONTINUOUS
 10
-23.8299344647
 20
-6.3747899835
 11
-23.8299344647
 21
-7.0049697238
  0
LINE
  5
22C
100
AcDbEntity
  8
DRAFT
100
AcDbLine
 62
7
  6
CONTINUOUS
 10
-23.0718266205
 20
-4.3724247887
 11
-23.0718266205
 21
-1.9073349186
  0
LINE
  5
22D
100
AcDbEntity
  8
ASSI
100
AcDbLine
 62
7
  6
CONTINUOUS
 10
-23.0718266205
 20
-4.3724247887
 11
-23.0718266205
 21
-1.9073349186
  0
LINE
  5
22E
100
AcDbEntity
  8
RACCORDO
100
AcDbLine
 62
253
  6
CONTINUOUS
 10
-23.4787050443
 20
1.5816294203
 11
-23.4775644104
 21
7.7374694304
  0
LINE
  5
22F
100
AcDbEntity
  8
ASSI
100
AcDbLine
 62
253
  6
CONTINUOUS
 10
-23.4787050443
 20
1.5816294203
 11
-23.4775644104
 21
7.7374694304
  0
LINE
  5
230
100
AcDbEntity
  8
RACCORDO
100
AcDbLine
 62
253
  6
CONTINUOUS
 10
-23.4797406692
 20
-1.2194069383
 11
-23.4789481807
 21
0.8388541811
  0
LINE
  5
231
100
AcDbEntity
  8
ASSI
100
AcDbLine
 62
253
  6
CONTINUOUS
 10
-23.4797406692
 20
-1.2194069383
 11
-23.4789481807
 21
0.8388541811
  0
LINE
  5
232
100
AcDbEntity
  8
RACCORDO
100
AcDbLine
 62
253
  6
CONTINUOUS
 10
-23.4824583324
 20
-6.3221265279
 11
-23.4816852758
 21
-5.0584067847
  0
LINE
  5
233
100
AcDbEntity
  8
ASSI
100
AcDbLine
 62
253
  6
CONTINUOUS
 10
-23.4824583324
 20
-6.3221265279
 11
-23.4816852758
 21
-5.0584067847
  0
LINE
  5
234
100
AcDbEntity
  8
RACCORDO
100
AcDbLine
 62
253
  6
CONTINUOUS
 10
-23.4834607587
 20
-7.8211616243
 11
-23.4829382706
 21
-7.0571529019
  0
LINE
  5
235
100
AcDbEntity
  8
ASSI
100
AcDbLine
 62
253
  6
CONTINUOUS
 10
-23.4834607587
 20
-7.8211616243
 11
-23.4829382706
 21
-7.0571529019
  0
LINE
  5
236
100
AcDbEntity
  8
RACCORDO
100
AcDbLine
 62
253
  6
CONTINUOUS
 10
-23.8404075036
 20
-8.1451134846
 11
-23.7832472282
 21
-7.5676937599
  0
LINE
  5
237
100
AcDbEntity
  8
ASSI
100
AcDbLine
 62
253
  6
CONTINUOUS
 10
-23.8404075036
 20
-8.1451134846
 11
-23.7832472282
 21
-7.5676937599
  0
LINE
  5
238
100
AcDbEntity
  8
RACCORDO
100
AcDbLine
 62
253
  6
CONTINUOUS
 10
-22.8340908643
 20
-7.0049697238
 11
-22.8340908643
 21
-6.3747899835
  0
LINE
  5
239
100
AcDbEntity
  8
ASSI
100
AcDbLine
 62
253
  6
CONTINUOUS
 10
-22.8340908643
 20
-7.0049697238
 11
-22.8340908643
 21
-6.3747899835
  0
LINE
  5
23A
100
AcDbEntity
  8
RACCORDO
100
AcDbLine
 62
253
  6
CONTINUOUS
 10
-22.8340908643
 20
0.8950302762
 11
-22.8340908643
 21
1.5252100165
  0
LINE
  5
23B
100
AcDbEntity
  8
ASSI
100
AcDbLine
 62
253
  6
CONTINUOUS
 10
-22.8340908643
 20
0.8950302762
 11
-22.8340908643
 21
1.5252100165
  0
LINE
  5
23C
100
AcDbEntity
  8
DRAFT
100
AcDbLine
 62
7
  6
CONTINUOUS
 10
-22.8043715556
 20
-4.9979876978
 11
-22.8043715556
 21
-1.2817720095
  0
LINE
  5
23D
100
AcDbEntity
  8
ASSI
100
AcDbLine
 62
7
  6
CONTINUOUS
 10
-22.8043715556
 20
-4.9979876978
 11
-22.8043715556
 21
-1.2817720095
  0
LINE
  5
23E
100
AcDbEntity
  8
DRAFT
100
AcDbLine
 62
7
  6
CONTINUOUS
 10
-22.5543715556
 20
-5.0584067844
 11
-22.5543715556
 21
-5.0237783007
  0
LINE
  5
23F
100
AcDbEntity
  8
ASSI
100
AcDbLine
 62
7
  6
CONTINUOUS
 10
-22.5543715556
 20
-5.0584067844
 11
-22.5543715556
 21
-5.0237783007
  0
LINE
  5
240
100
AcDbEntity
  8
DRAFT
100
AcDbLine
 62
7
  6
CONTINUOUS
 10
-22.5543715556
 20
-1.2559814066
 11
-22.5543715556
 21
-1.2194069385
  0
LINE
  5
241
100
AcDbEntity
  8
ASSI
100
AcDbLine
 62
7
  6
CONTINUOUS
 10
-22.5543715556
 20
-1.2559814066
 11
-22.5543715556
 21
-1.2194069385
  0
LINE
  5
242
100
AcDbEntity
  8
RACCORDO
100
AcDbLine
 62
253
  6
CONTINUOUS
 10
-22.5341365558
 20
-7.0101148534
 11
-22.5341365558
 21
-6.3696448539
  0
LINE
  5
243
100
AcDbEntity
  8
ASSI
100
AcDbLine
 62
253
  6
CONTINUOUS
 10
-22.5341365558
 20
-7.0101148534
 11
-22.5341365558
 21
-6.3696448539
  0
LINE
  5
244
100
AcDbEntity
  8
RACCORDO
100
AcDbLine
 62
253
  6
CONTINUOUS
 10
-22.5341365558
 20
0.8898851466
 11
-22.5341365558
 21
1.5303551461
  0
LINE
  5
245
100
AcDbEntity
  8
ASSI
100
AcDbLine
 62
253
  6
CONTINUOUS
 10
-22.5341365558
 20
0.8898851466
 11
-22.5341365558
 21
1.5303551461
  0
LINE
  5
246
100
AcDbEntity
  8
DRAFT
100
AcDbLine
 62
7
  6
CONTINUOUS
 10
-22.0043715556
 20
-5.0119517498
 11
-22.0043715556
 21
-1.2678079576
  0
LINE
  5
247
100
AcDbEntity
  8
ASSI
100
AcDbLine
 62
7
  6
CONTINUOUS
 10
-22.0043715556
 20
-5.0119517498
 11
-22.0043715556
 21
-1.2678079576
  0
LINE
  5
248
100
AcDbEntity
  8
DRAFT
100
AcDbLine
 62
7
  6
CONTINUOUS
 10
-21.4668375461
 20
8.9531381204
 11
-21.4668375461
 21
7.8124853411
  0
LINE
  5
249
100
AcDbEntity
  8
ASSI
100
AcDbLine
 62
7
  6
CONTINUOUS
 10
-21.4668375461
 20
8.9531381204
 11
-21.4668375461
 21
7.8124853411
  0
LINE
  5
24A
100
AcDbEntity
  8
DRAFT
100
AcDbLine
 62
7
  6
CONTINUOUS
 10
-21.2043715556
 20
8.9007729256
 11
-21.2043715556
 21
7.7601201463
  0
LINE
  5
24B
100
AcDbEntity
  8
ASSI
100
AcDbLine
 62
7
  6
CONTINUOUS
 10
-21.2043715556
 20
8.9007729256
 11
-21.2043715556
 21
7.7601201463
  0
LINE
  5
24C
100
AcDbEntity
  8
RACCORDO
100
AcDbLine
 62
253
  6
CONTINUOUS
 10
-23.5412711173
 20
-8.4488182691
 11
-23.4791377589
 21
-7.8211616243
  0
LINE
  5
24D
100
AcDbEntity
  8
ASSI
100
AcDbLine
 62
253
  6
CONTINUOUS
 10
-23.5412711173
 20
-8.4488182691
 11
-23.4791377589
 21
-7.8211616243
  0
LINE
  5
24E
100
AcDbEntity
  8
RACCORDO
100
AcDbLine
 62
7
  6
CONTINUOUS
 10
-23.8543715556
 20
7.7007729256
 11
-23.8525346592
 21
7.7026098219
  0
LINE
  5
24F
100
AcDbEntity
  8
ASSI
100
AcDbLine
 62
7
  6
CONTINUOUS
 10
-23.8543715556
 20
7.7007729256
 11
-23.8525346592
 21
7.7026098219
  0
LINE
  5
250
100
AcDbEntity
  8
RACCORDO
100
AcDbLine
 62
7
  6
CONTINUOUS
 10
-23.7828968168
 20
-7.0520073716
 11
-23.8299344647
 21
-7.0049697238
  0
LINE
  5
251
100
AcDbEntity
  8
ASSI
100
AcDbLine
 62
7
  6
CONTINUOUS
 10
-23.7828968168
 20
-7.0520073716
 11
-23.8299344647
 21
-7.0049697238
  0
LINE
  5
252
100
AcDbEntity
  8
RACCORDO
100
AcDbLine
 62
7
  6
CONTINUOUS
 10
-18.6885768101
 20
-7.8211616243
 11
-18.6595166852
 21
-8.1147202048
  0
LINE
  5
253
100
AcDbEntity
  8
ASSI
100
AcDbLine
 62
7
  6
CONTINUOUS
 10
-18.6885768101
 20
-7.8211616243
 11
-18.6595166852
 21
-8.1147202048
  0
LINE
  5
254
100
AcDbEntity
  8
RACCORDO
100
AcDbLine
 62
253
  6
CONTINUOUS
 10
-20.1930841143
 20
4.8944347214
 11
-20.205426709
 21
5.6015415026
  0
LINE
  5
255
100
AcDbEntity
  8
ASSI
100
AcDbLine
 62
253
  6
CONTINUOUS
 10
-20.1930841143
 20
4.8944347214
 11
-20.205426709
 21
5.6015415026
  0
LINE
  5
256
100
AcDbEntity
  8
RACCORDO
100
AcDbLine
 62
253
  6
CONTINUOUS
 10
-19.8931286653
 20
5.1065014202
 11
-19.9054725943
 21
5.8136846394
  0
LINE
  5
257
100
AcDbEntity
  8
ASSI
100
AcDbLine
 62
253
  6
CONTINUOUS
 10
-19.8931286653
 20
5.1065014202
 11
-19.9054725943
 21
5.8136846394
  0
LINE
  5
258
100
AcDbEntity
  8
RACCORDO
100
AcDbLine
 62
253
  6
CONTINUOUS
 10
-20.2095166852
 20
6.1672269275
 11
-20.2095166852
 21
7.7549750167
  0
LINE
  5
259
100
AcDbEntity
  8
ASSI
100
AcDbLine
 62
253
  6
CONTINUOUS
 10
-20.2095166852
 20
6.1672269275
 11
-20.2095166852
 21
7.7549750167
  0
LINE
  5
25A
100
AcDbEntity
  8
RACCORDO
100
AcDbLine
 62
253
  6
CONTINUOUS
 10
-20.1920616202
 20
3.3689238428
 11
-20.1920616202
 21
4.7530133651
  0
LINE
  5
25B
100
AcDbEntity
  8
ASSI
100
AcDbLine
 62
253
  6
CONTINUOUS
 10
-20.1920616202
 20
3.3689238428
 11
-20.1920616202
 21
4.7530133651
  0
LINE
  5
25C
100
AcDbEntity
  8
RACCORDO
100
AcDbLine
 62
253
  6
CONTINUOUS
 10
-19.9095623766
 20
6.167238434
 11
-19.9095623766
 21
7.7601201463
  0
LINE
  5
25D
100
AcDbEntity
  8
ASSI
100
AcDbLine
 62
253
  6
CONTINUOUS
 10
-19.9095623766
 20
6.167238434
 11
-19.9095623766
 21
7.7601201463
  0
LINE
  5
25E
100
AcDbEntity
  8
RACCORDO
100
AcDbLine
 62
253
  6
CONTINUOUS
 10
-19.8921073117
 20
3.3689238428
 11
-19.8921073117
 21
4.7530133651
  0
LINE
  5
25F
100
AcDbEntity
  8
ASSI
100
AcDbLine
 62
253
  6
CONTINUOUS
 10
-19.8921073117
 20
3.3689238428
 11
-19.8921073117
 21
4.7530133651
  0
LINE
  5
260
100
AcDbEntity
  8
RACCORDO
100
AcDbLine
 62
253
  6
CONTINUOUS
 10
-19.7166357994
 20
4.7530133651
 11
-19.7166357994
 21
3.3689238428
  0
LINE
  5
261
100
AcDbEntity
  8
ASSI
100
AcDbLine
 62
253
  6
CONTINUOUS
 10
-19.7166357994
 20
4.7530133651
 11
-19.7166357994
 21
3.3689238428
  0
LINE
  5
262
100
AcDbEntity
  8
RACCORDO
100
AcDbLine
 62
253
  6
CONTINUOUS
 10
-19.6991807345
 20
7.7601201463
 11
-19.6991807345
 21
6.1672381036
  0
LINE
  5
263
100
AcDbEntity
  8
ASSI
100
AcDbLine
 62
253
  6
CONTINUOUS
 10
-19.6991807345
 20
7.7601201463
 11
-19.6991807345
 21
6.1672381036
  0
LINE
  5
264
100
AcDbEntity
  8
RACCORDO
100
AcDbLine
 62
253
  6
CONTINUOUS
 10
-19.4166814909
 20
4.7530133651
 11
-19.4166814909
 21
3.3689238428
  0
LINE
  5
265
100
AcDbEntity
  8
ASSI
100
AcDbLine
 62
253
  6
CONTINUOUS
 10
-19.4166814909
 20
4.7530133651
 11
-19.4166814909
 21
3.3689238428
  0
LINE
  5
266
100
AcDbEntity
  8
RACCORDO
100
AcDbLine
 62
253
  6
CONTINUOUS
 10
-19.3992264259
 20
7.7549750167
 11
-19.3992264259
 21
6.1672269275
  0
LINE
  5
267
100
AcDbEntity
  8
ASSI
100
AcDbLine
 62
253
  6
CONTINUOUS
 10
-19.3992264259
 20
7.7549750167
 11
-19.3992264259
 21
6.1672269275
  0
LINE
  5
268
100
AcDbEntity
  8
RACCORDO
100
AcDbLine
 62
253
  6
CONTINUOUS
 10
-19.7032705072
 20
5.8136851892
 11
-19.7156144457
 21
5.106501428
  0
LINE
  5
269
100
AcDbEntity
  8
ASSI
100
AcDbLine
 62
253
  6
CONTINUOUS
 10
-19.7032705072
 20
5.8136851892
 11
-19.7156144457
 21
5.106501428
  0
LINE
  5
26A
100
AcDbEntity
  8
RACCORDO
100
AcDbLine
 62
253
  6
CONTINUOUS
 10
-19.4033164021
 20
5.6015415026
 11
-19.4156589968
 21
4.8944347214
  0
LINE
  5
26B
100
AcDbEntity
  8
ASSI
100
AcDbLine
 62
253
  6
CONTINUOUS
 10
-19.4033164021
 20
5.6015415026
 11
-19.4156589968
 21
4.8944347214
  0
LINE
  5
26C
100
AcDbEntity
  8
RACCORDO
100
AcDbLine
 62
7
  6
CONTINUOUS
 10
-20.2095166852
 20
7.7549750167
 11
-20.2270222715
 21
7.7374694304
  0
LINE
  5
26D
100
AcDbEntity
  8
ASSI
100
AcDbLine
 62
7
  6
CONTINUOUS
 10
-20.2095166852
 20
7.7549750167
 11
-20.2270222715
 21
7.7374694304
  0
LINE
  5
26E
100
AcDbEntity
  8
RACCORDO
100
AcDbLine
 62
7
  6
CONTINUOUS
 10
-22.5341365558
 20
-7.0101148534
 11
-22.4870985074
 21
-7.0571529018
  0
LINE
  5
26F
100
AcDbEntity
  8
ASSI
100
AcDbLine
 62
7
  6
CONTINUOUS
 10
-22.5341365558
 20
-7.0101148534
 11
-22.4870985074
 21
-7.0571529018
  0
LINE
  5
270
100
AcDbEntity
  8
RACCORDO
100
AcDbLine
 62
7
  6
CONTINUOUS
 10
-23.7816424697
 20
-5.0532617188
 11
-23.8369164906
 21
-4.9979876978
  0
LINE
  5
271
100
AcDbEntity
  8
ASSI
100
AcDbLine
 62
7
  6
CONTINUOUS
 10
-23.7816424697
 20
-5.0532617188
 11
-23.8369164906
 21
-4.9979876978
  0
LINE
  5
272
100
AcDbEntity
  8
RACCORDO
100
AcDbLine
 62
253
  6
CONTINUOUS
 10
-18.6595166852
 20
-8.1147202048
 11
-18.6595166852
 21
-6.8346890326
  0
LINE
  5
273
100
AcDbEntity
  8
ASSI
100
AcDbLine
 62
253
  6
CONTINUOUS
 10
-18.6595166852
 20
-8.1147202048
 11
-18.6595166852
 21
-6.8346890326
  0
LINE
  5
274
100
AcDbEntity
  8
RACCORDO
100
AcDbLine
 62
253
  6
CONTINUOUS
 10
-18.3595623766
 20
-8.1666951
 11
-18.3595623766
 21
-6.5347347241
  0
LINE
  5
275
100
AcDbEntity
  8
ASSI
100
AcDbLine
 62
253
  6
CONTINUOUS
 10
-18.3595623766
 20
-8.1666951
 11
-18.3595623766
 21
-6.5347347241
  0
LINE
  5
276
100
AcDbEntity
  8
RACCORDO
100
AcDbLine
 62
253
  6
CONTINUOUS
 10
-18.1491807345
 20
-6.5347347241
 11
-18.1491807345
 21
-8.1666951
  0
LINE
  5
277
100
AcDbEntity
  8
ASSI
100
AcDbLine
 62
253
  6
CONTINUOUS
 10
-18.1491807345
 20
-6.5347347241
 11
-18.1491807345
 21
-8.1666951
  0
LINE
  5
278
100
AcDbEntity
  8
RACCORDO
100
AcDbLine
 62
253
  6
CONTINUOUS
 10
-17.8492264259
 20
-6.8346890326
 11
-17.8492264259
 21
-8.1147202048
  0
LINE
  5
279
100
AcDbEntity
  8
ASSI
100
AcDbLine
 62
253
  6
CONTINUOUS
 10
-17.8492264259
 20
-6.8346890326
 11
-17.8492264259
 21
-8.1147202048
  0
LINE
  5
27A
100
AcDbEntity
  8
RACCORDO
100
AcDbLine
 62
7
  6
CONTINUOUS
 10
-23.7786626381
 20
1.576481843
 11
-23.8299344647
 21
1.5252100165
  0
LINE
  5
27B
100
AcDbEntity
  8
ASSI
100
AcDbLine
 62
7
  6
CONTINUOUS
 10
-23.7786626381
 20
1.576481843
 11
-23.8299344647
 21
1.5252100165
  0
LINE
  5
27C
100
AcDbEntity
  8
DRAFT
100
AcDbLine
 62
7
  6
CONTINUOUS
 10
-23.0718266205
 20
-4.3724247887
 11
-23.1326719055
 21
-4.3115795037
  0
LINE
  5
27D
100
AcDbEntity
  8
ASSI
100
AcDbLine
 62
7
  6
CONTINUOUS
 10
-23.0718266205
 20
-4.3724247887
 11
-23.1326719055
 21
-4.3115795037
  0
LINE
  5
27E
100
AcDbEntity
  8
DRAFT
100
AcDbLine
 62
7
  6
CONTINUOUS
 10
-24.1543715556
 20
-1.8898798537
 11
-24.0748837975
 21
-1.9693676117
  0
LINE
  5
27F
100
AcDbEntity
  8
ASSI
100
AcDbLine
 62
7
  6
CONTINUOUS
 10
-24.1543715556
 20
-1.8898798537
 11
-24.0748837975
 21
-1.9693676117
  0
LINE
  5
280
100
AcDbEntity
  8
DRAFT
100
AcDbLine
 62
7
  6
CONTINUOUS
 10
-23.8543715556
 20
-1.8898798537
 11
-23.8369164906
 21
-1.9073349186
  0
LINE
  5
281
100
AcDbEntity
  8
ASSI
100
AcDbLine
 62
7
  6
CONTINUOUS
 10
-23.8543715556
 20
-1.8898798537
 11
-23.8369164906
 21
-1.9073349186
  0
LINE
  5
282
100
AcDbEntity
  8
RACCORDO
100
AcDbLine
 62
253
  6
CONTINUOUS
 10
-18.6595166852
 20
-6.8346890326
 11
-18.6892669831
 21
-6.8049387347
  0
LINE
  5
283
100
AcDbEntity
  8
ASSI
100
AcDbLine
 62
253
  6
CONTINUOUS
 10
-18.6595166852
 20
-6.8346890326
 11
-18.6892669831
 21
-6.8049387347
  0
LINE
  5
284
100
AcDbEntity
  8
RACCORDO
100
AcDbLine
 62
7
  6
CONTINUOUS
 10
-17.8243214617
 20
-7.8631360847
 11
-17.8492264259
 21
-8.1147202048
  0
LINE
  5
285
100
AcDbEntity
  8
ASSI
100
AcDbLine
 62
7
  6
CONTINUOUS
 10
-17.8243214617
 20
-7.8631360847
 11
-17.8492264259
 21
-8.1147202048
  0
LINE
  5
286
100
AcDbEntity
  8
RACCORDO
100
AcDbLine
 62
7
  6
CONTINUOUS
 10
-22.5341365558
 20
1.5303551461
 11
-22.4828622817
 21
1.5816294202
  0
LINE
  5
287
100
AcDbEntity
  8
ASSI
100
AcDbLine
 62
7
  6
CONTINUOUS
 10
-22.5341365558
 20
1.5303551461
 11
-22.4828622817
 21
1.5816294202
  0
LINE
  5
288
100
AcDbEntity
  8
RACCORDO
100
AcDbLine
 62
253
  6
CONTINUOUS
 10
-20.2263169363
 20
3.1381290741
 11
-20.1954917066
 21
3.1689543038
  0
LINE
  5
289
100
AcDbEntity
  8
ASSI
100
AcDbLine
 62
253
  6
CONTINUOUS
 10
-20.2263169363
 20
3.1381290741
 11
-20.1954917066
 21
3.1689543038
  0
LINE
  5
28A
100
AcDbEntity
  8
RACCORDO
100
AcDbLine
 62
253
  6
CONTINUOUS
 10
-19.9262863717
 20
2.8382510217
 11
-19.8955373981
 21
2.8689999952
  0
LINE
  5
28B
100
AcDbEntity
  8
ASSI
100
AcDbLine
 62
253
  6
CONTINUOUS
 10
-19.9262863717
 20
2.8382510217
 11
-19.8955373981
 21
2.8689999952
  0
LINE
  5
28C
100
AcDbEntity
  8
RACCORDO
100
AcDbLine
 62
7
  6
CONTINUOUS
 10
-23.7797003268
 20
-1.2245558456
 11
-23.8369164906
 21
-1.2817720095
  0
LINE
  5
28D
100
AcDbEntity
  8
ASSI
100
AcDbLine
 62
7
  6
CONTINUOUS
 10
-23.7797003268
 20
-1.2245558456
 11
-23.8369164906
 21
-1.2817720095
  0
LINE
  5
28E
100
AcDbEntity
  8
RACCORDO
100
AcDbLine
 62
253
  6
CONTINUOUS
 10
-18.3595623766
 20
-6.5347347241
 11
-18.3895083664
 21
-6.5047887342
  0
LINE
  5
28F
100
AcDbEntity
  8
ASSI
100
AcDbLine
 62
253
  6
CONTINUOUS
 10
-18.3595623766
 20
-6.5347347241
 11
-18.3895083664
 21
-6.5047887342
  0
LINE
  5
290
100
AcDbEntity
  8
RACCORDO
100
AcDbLine
 62
7
  6
CONTINUOUS
 10
-23.7789027455
 20
0.8439985571
 11
-23.8299344647
 21
0.8950302762
  0
LINE
  5
291
100
AcDbEntity
  8
ASSI
100
AcDbLine
 62
7
  6
CONTINUOUS
 10
-23.7789027455
 20
0.8439985571
 11
-23.8299344647
 21
0.8950302762
  0
LINE
  5
292
100
AcDbEntity
  8
0
100
AcDbLine
 62
7
  6
CONTINUOUS
 10
-14.0543715556
 20
-2.6147340818
 11
-14.0543715556
 21
-2.3253723129
  0
LINE
  5
293
100
AcDbEntity
  8
ASSI
100
AcDbLine
 62
7
  6
CONTINUOUS
 10
-14.0543715556
 20
-2.6147340818
 11
-14.0543715556
 21
-2.3253723129
  0
LINE
  5
294
100
AcDbEntity
  8
DRAFT
100
AcDbLine
 62
7
  6
CONTINUOUS
 10
-23.0718266205
 20
-1.9073349186
 11
-23.1338593136
 21
-1.9693676117
  0
LINE
  5
295
100
AcDbEntity
  8
ASSI
100
AcDbLine
 62
7
  6
CONTINUOUS
 10
-23.0718266205
 20
-1.9073349186
 11
-23.1338593136
 21
-1.9693676117
  0
LINE
  5
296
100
AcDbEntity
  8
DRAFT
100
AcDbLine
 62
7
  6
CONTINUOUS
 10
-24.1498639697
 20
-4.3853722678
 11
-24.0760712056
 21
-4.3115795037
  0
LINE
  5
297
100
AcDbEntity
  8
ASSI
100
AcDbLine
 62
7
  6
CONTINUOUS
 10
-24.1498639697
 20
-4.3853722678
 11
-24.0760712056
 21
-4.3115795037
  0
LINE
  5
298
100
AcDbEntity
  8
RACCORDO
100
AcDbLine
 62
7
  6
CONTINUOUS
 10
-22.5341365558
 20
0.8898851466
 11
-22.4831055904
 21
0.8388541811
  0
LINE
  5
299
100
AcDbEntity
  8
ASSI
100
AcDbLine
 62
7
  6
CONTINUOUS
 10
-22.5341365558
 20
0.8898851466
 11
-22.4831055904
 21
0.8388541811
  0
LINE
  5
29A
100
AcDbEntity
  8
0
100
AcDbLine
 62
7
  6
CONTINUOUS
 10
-13.8418715556
 20
-3.7721808537
 11
-13.8418715556
 21
-2.3615425213
  0
LINE
  5
29B
100
AcDbEntity
  8
ASSI
100
AcDbLine
 62
7
  6
CONTINUOUS
 10
-13.8418715556
 20
-3.7721808537
 11
-13.8418715556
 21
-2.3615425213
  0
LINE
  5
29C
100
AcDbEntity
  8
0
100
AcDbLine
 62
7
  6
CONTINUOUS
 10
-13.6293715556
 20
-3.7721808537
 11
-13.6293715556
 21
-2.0721808537
  0
LINE
  5
29D
100
AcDbEntity
  8
ASSI
100
AcDbLine
 62
7
  6
CONTINUOUS
 10
-13.6293715556
 20
-3.7721808537
 11
-13.6293715556
 21
-2.0721808537
  0
LINE
  5
29E
100
AcDbEntity
  8
0
100
AcDbLine
 62
7
  6
CONTINUOUS
 10
-13.3460382391
 20
-3.0487765833
 11
-13.3460382391
 21
-2.7955851241
  0
LINE
  5
29F
100
AcDbEntity
  8
ASSI
100
AcDbLine
 62
7
  6
CONTINUOUS
 10
-13.3460382391
 20
-3.0487765833
 11
-13.3460382391
 21
-2.7955851241
  0
LINE
  5
2A0
100
AcDbEntity
  8
0
100
AcDbLine
 62
7
  6
CONTINUOUS
 10
-13.1689549227
 20
-2.867925541
 11
-13.1689549227
 21
-2.7955851241
  0
LINE
  5
2A1
100
AcDbEntity
  8
ASSI
100
AcDbLine
 62
7
  6
CONTINUOUS
 10
-13.1689549227
 20
-2.867925541
 11
-13.1689549227
 21
-2.7955851241
  0
LINE
  5
2A2
100
AcDbEntity
  8
0
100
AcDbLine
 62
7
  6
CONTINUOUS
 10
-13.1335381884
 20
-3.2657978847
 11
-13.1335381884
 21
-3.1572872593
  0
LINE
  5
2A3
100
AcDbEntity
  8
ASSI
100
AcDbLine
 62
7
  6
CONTINUOUS
 10
-13.1335381884
 20
-3.2657978847
 11
-13.1335381884
 21
-3.1572872593
  0
LINE
  5
2A4
100
AcDbEntity
  8
0
100
AcDbLine
 62
7
  6
CONTINUOUS
 10
-13.3460382391
 20
-2.7955851241
 11
-13.3106215556
 21
-2.5423936649
  0
LINE
  5
2A5
100
AcDbEntity
  8
ASSI
100
AcDbLine
 62
7
  6
CONTINUOUS
 10
-13.3460382391
 20
-2.7955851241
 11
-13.3106215556
 21
-2.5423936649
  0
LINE
  5
2A6
100
AcDbEntity
  8
0
100
AcDbLine
 62
7
  6
CONTINUOUS
 10
-13.1689549227
 20
-2.7955851241
 11
-13.1335381884
 21
-2.5785638734
  0
LINE
  5
2A7
100
AcDbEntity
  8
ASSI
100
AcDbLine
 62
7
  6
CONTINUOUS
 10
-13.1689549227
 20
-2.7955851241
 11
-13.1335381884
 21
-2.5785638734
  0
LINE
  5
2A8
100
AcDbEntity
  8
DRAFT
100
AcDbLine
 62
7
  6
CONTINUOUS
 10
-23.8498639705
 20
-4.3853722686
 11
-23.8369164906
 21
-4.3724247887
  0
LINE
  5
2A9
100
AcDbEntity
  8
ASSI
100
AcDbLine
 62
7
  6
CONTINUOUS
 10
-23.8498639705
 20
-4.3853722686
 11
-23.8369164906
 21
-4.3724247887
  0
LINE
  5
2AA
100
AcDbEntity
  8
RACCORDO
100
AcDbLine
 62
7
  6
CONTINUOUS
 10
-23.7824229311
 20
-6.32727845
 11
-23.8299344647
 21
-6.3747899835
  0
LINE
  5
2AB
100
AcDbEntity
  8
ASSI
100
AcDbLine
 62
7
  6
CONTINUOUS
 10
-23.7824229311
 20
-6.32727845
 11
-23.8299344647
 21
-6.3747899835
  0
LINE
  5
2AC
100
AcDbEntity
  8
0
100
AcDbLine
 62
7
  6
CONTINUOUS
 10
-13.1335381884
 20
-3.6275000072
 11
-13.2397882391
 21
-3.4828191607
  0
LINE
  5
2AD
100
AcDbEntity
  8
ASSI
100
AcDbLine
 62
7
  6
CONTINUOUS
 10
-13.1335381884
 20
-3.6275000072
 11
-13.2397882391
 21
-3.4828191607
  0
LINE
  5
2AE
100
AcDbEntity
  8
0
100
AcDbLine
 62
7
  6
CONTINUOUS
 10
-13.0272881884
 20
-3.4828191607
 11
-13.0981215556
 21
-3.37430851
  0
LINE
  5
2AF
100
AcDbEntity
  8
ASSI
100
AcDbLine
 62
7
  6
CONTINUOUS
 10
-13.0272881884
 20
-3.4828191607
 11
-13.0981215556
 21
-3.37430851
  0
LINE
  5
2B0
100
AcDbEntity
  8
0
100
AcDbLine
 62
7
  6
CONTINUOUS
 10
-13.2397882391
 20
-3.4828191607
 11
-13.3106215556
 21
-3.3019680931
  0
LINE
  5
2B1
100
AcDbEntity
  8
ASSI
100
AcDbLine
 62
7
  6
CONTINUOUS
 10
-13.2397882391
 20
-3.4828191607
 11
-13.3106215556
 21
-3.3019680931
  0
LINE
  5
2B2
100
AcDbEntity
  8
0
100
AcDbLine
 62
7
  6
CONTINUOUS
 10
-12.0710382898
 20
-3.1211170002
 11
-12.1418715556
 21
-2.9402659579
  0
LINE
  5
2B3
100
AcDbEntity
  8
ASSI
100
AcDbLine
 62
7
  6
CONTINUOUS
 10
-12.0710382898
 20
-3.1211170002
 11
-12.1418715556
 21
-2.9402659579
  0
LINE
  5
2B4
100
AcDbEntity
  8
0
100
AcDbLine
 62
7
  6
CONTINUOUS
 10
-13.0981215556
 20
-3.37430851
 11
-13.1335381884
 21
-3.2657978847
  0
LINE
  5
2B5
100
AcDbEntity
  8
ASSI
100
AcDbLine
 62
7
  6
CONTINUOUS
 10
-13.0981215556
 20
-3.37430851
 11
-13.1335381884
 21
-3.2657978847
  0
LINE
  5
2B6
100
AcDbEntity
  8
0
100
AcDbLine
 62
7
  6
CONTINUOUS
 10
-12.2481215556
 20
-3.1572872593
 11
-12.2835382898
 21
-3.0487765833
  0
LINE
  5
2B7
100
AcDbEntity
  8
ASSI
100
AcDbLine
 62
7
  6
CONTINUOUS
 10
-12.2481215556
 20
-3.1572872593
 11
-12.2835382898
 21
-3.0487765833
  0
LINE
  5
2B8
100
AcDbEntity
  8
0
100
AcDbLine
 62
7
  6
CONTINUOUS
 10
-13.3106215556
 20
-3.3019680931
 11
-13.3460382391
 21
-3.0487765833
  0
LINE
  5
2B9
100
AcDbEntity
  8
ASSI
100
AcDbLine
 62
7
  6
CONTINUOUS
 10
-13.3106215556
 20
-3.3019680931
 11
-13.3460382391
 21
-3.0487765833
  0
LINE
  5
2BA
100
AcDbEntity
  8
0
100
AcDbLine
 62
7
  6
CONTINUOUS
 10
-12.2481215556
 20
-3.2657978847
 11
-12.2481215556
 21
-3.1572872593
  0
LINE
  5
2BB
100
AcDbEntity
  8
ASSI
100
AcDbLine
 62
7
  6
CONTINUOUS
 10
-12.2481215556
 20
-3.2657978847
 11
-12.2481215556
 21
-3.1572872593
  0
LINE
  5
2BC
100
AcDbEntity
  8
0
100
AcDbLine
 62
7
  6
CONTINUOUS
 10
-12.0710382898
 20
-3.3019680931
 11
-12.0710382898
 21
-3.1211170002
  0
LINE
  5
2BD
100
AcDbEntity
  8
ASSI
100
AcDbLine
 62
7
  6
CONTINUOUS
 10
-12.0710382898
 20
-3.3019680931
 11
-12.0710382898
 21
-3.1211170002
  0
LINE
  5
2BE
100
AcDbEntity
  8
0
100
AcDbLine
 62
7
  6
CONTINUOUS
 10
-11.7877048213
 20
-3.3381383016
 11
-11.7877048213
 21
-3.2296276762
  0
LINE
  5
2BF
100
AcDbEntity
  8
ASSI
100
AcDbLine
 62
7
  6
CONTINUOUS
 10
-11.7877048213
 20
-3.3381383016
 11
-11.7877048213
 21
-3.2296276762
  0
LINE
  5
2C0
100
AcDbEntity
  8
0
100
AcDbLine
 62
7
  6
CONTINUOUS
 10
-11.7522882898
 20
-2.6147340818
 11
-11.7522882898
 21
-2.5062234565
  0
LINE
  5
2C1
100
AcDbEntity
  8
ASSI
100
AcDbLine
 62
7
  6
CONTINUOUS
 10
-11.7522882898
 20
-2.6147340818
 11
-11.7522882898
 21
-2.5062234565
  0
LINE
  5
2C2
100
AcDbEntity
  8
0
100
AcDbLine
 62
7
  6
CONTINUOUS
 10
-11.6106215556
 20
-3.3381383016
 11
-11.6106215556
 21
-3.2296276762
  0
LINE
  5
2C3
100
AcDbEntity
  8
ASSI
100
AcDbLine
 62
7
  6
CONTINUOUS
 10
-11.6106215556
 20
-3.3381383016
 11
-11.6106215556
 21
-3.2296276762
  0
LINE
  5
2C4
100
AcDbEntity
  8
0
100
AcDbLine
 62
7
  6
CONTINUOUS
 10
-11.5752048213
 20
-2.5785638734
 11
-11.5752048213
 21
-2.5062234565
  0
LINE
  5
2C5
100
AcDbEntity
  8
ASSI
100
AcDbLine
 62
7
  6
CONTINUOUS
 10
-11.5752048213
 20
-2.5785638734
 11
-11.5752048213
 21
-2.5062234565
  0
LINE
  5
2C6
100
AcDbEntity
  8
0
100
AcDbLine
 62
7
  6
CONTINUOUS
 10
-10.7252048213
 20
-2.5785638734
 11
-10.7252048213
 21
-2.5062234565
  0
LINE
  5
2C7
100
AcDbEntity
  8
ASSI
100
AcDbLine
 62
7
  6
CONTINUOUS
 10
-10.7252048213
 20
-2.5785638734
 11
-10.7252048213
 21
-2.5062234565
  0
LINE
  5
2C8
100
AcDbEntity
  8
0
100
AcDbLine
 62
7
  6
CONTINUOUS
 10
-10.6897882898
 20
-3.3381383016
 11
-10.6897882898
 21
-3.2296276762
  0
LINE
  5
2C9
100
AcDbEntity
  8
ASSI
100
AcDbLine
 62
7
  6
CONTINUOUS
 10
-10.6897882898
 20
-3.3381383016
 11
-10.6897882898
 21
-3.2296276762
  0
LINE
  5
2CA
100
AcDbEntity
  8
0
100
AcDbLine
 62
7
  6
CONTINUOUS
 10
-10.5481215556
 20
-2.6147340818
 11
-10.5481215556
 21
-2.5062234565
  0
LINE
  5
2CB
100
AcDbEntity
  8
ASSI
100
AcDbLine
 62
7
  6
CONTINUOUS
 10
-10.5481215556
 20
-2.6147340818
 11
-10.5481215556
 21
-2.5062234565
  0
LINE
  5
2CC
100
AcDbEntity
  8
0
100
AcDbLine
 62
7
  6
CONTINUOUS
 10
-10.512705024
 20
-3.3381383016
 11
-10.512705024
 21
-3.2296276762
  0
LINE
  5
2CD
100
AcDbEntity
  8
ASSI
100
AcDbLine
 62
7
  6
CONTINUOUS
 10
-10.512705024
 20
-3.3381383016
 11
-10.512705024
 21
-3.2296276762
  0
LINE
  5
2CE
100
AcDbEntity
  8
0
100
AcDbLine
 62
7
  6
CONTINUOUS
 10
-13.1335381884
 20
-2.5785638734
 11
-13.0981215556
 21
-2.4700531467
  0
LINE
  5
2CF
100
AcDbEntity
  8
ASSI
100
AcDbLine
 62
7
  6
CONTINUOUS
 10
-13.1335381884
 20
-2.5785638734
 11
-13.0981215556
 21
-2.4700531467
  0
LINE
  5
2D0
100
AcDbEntity
  8
0
100
AcDbLine
 62
7
  6
CONTINUOUS
 10
-13.1335381884
 20
-3.1572872593
 11
-13.0981215556
 21
-3.0487765833
  0
LINE
  5
2D1
100
AcDbEntity
  8
ASSI
100
AcDbLine
 62
7
  6
CONTINUOUS
 10
-13.1335381884
 20
-3.1572872593
 11
-13.0981215556
 21
-3.0487765833
  0
LINE
  5
2D2
100
AcDbEntity
  8
0
100
AcDbLine
 62
7
  6
CONTINUOUS
 10
-12.2835382898
 20
-3.37430851
 11
-12.2481215556
 21
-3.2657978847
  0
LINE
  5
2D3
100
AcDbEntity
  8
ASSI
100
AcDbLine
 62
7
  6
CONTINUOUS
 10
-12.2835382898
 20
-3.37430851
 11
-12.2481215556
 21
-3.2657978847
  0
LINE
  5
2D4
100
AcDbEntity
  8
0
100
AcDbLine
 62
7
  6
CONTINUOUS
 10
-13.3106215556
 20
-2.5423936649
 11
-13.2397882391
 21
-2.3615425213
  0
LINE
  5
2D5
100
AcDbEntity
  8
ASSI
100
AcDbLine
 62
7
  6
CONTINUOUS
 10
-13.3106215556
 20
-2.5423936649
 11
-13.2397882391
 21
-2.3615425213
  0
LINE
  5
2D6
100
AcDbEntity
  8
RACCORDO
100
AcDbLine
 62
7
  6
CONTINUOUS
 10
-22.5341365558
 20
-6.3696448539
 11
-22.4866182292
 21
-6.3221265273
  0
LINE
  5
2D7
100
AcDbEntity
  8
ASSI
100
AcDbLine
 62
7
  6
CONTINUOUS
 10
-22.5341365558
 20
-6.3696448539
 11
-22.4866182292
 21
-6.3221265273
  0
LINE
  5
2D8
100
AcDbEntity
  8
RACCORDO
100
AcDbLine
 62
253
  6
CONTINUOUS
 10
-19.713205713
 20
2.8689999952
 11
-19.6824567395
 21
2.8382510217
  0
LINE
  5
2D9
100
AcDbEntity
  8
ASSI
100
AcDbLine
 62
253
  6
CONTINUOUS
 10
-19.713205713
 20
2.8689999952
 11
-19.6824567395
 21
2.8382510217
  0
LINE
  5
2DA
100
AcDbEntity
  8
RACCORDO
100
AcDbLine
 62
253
  6
CONTINUOUS
 10
-19.4132514045
 20
3.1689543038
 11
-19.3824261748
 21
3.1381290741
  0
LINE
  5
2DB
100
AcDbEntity
  8
ASSI
100
AcDbLine
 62
253
  6
CONTINUOUS
 10
-19.4132514045
 20
3.1689543038
 11
-19.3824261748
 21
3.1381290741
  0
LINE
  5
2DC
100
AcDbEntity
  8
RACCORDO
100
AcDbLine
 62
7
  6
CONTINUOUS
 10
-23.8473895296
 20
7.8124853411
 11
-23.7775184768
 21
7.7426142883
  0
LINE
  5
2DD
100
AcDbEntity
  8
ASSI
100
AcDbLine
 62
7
  6
CONTINUOUS
 10
-23.8473895296
 20
7.8124853411
 11
-23.7775184768
 21
7.7426142883
  0
LINE
  5
2DE
100
AcDbEntity
  8
0
100
AcDbLine
 62
7
  6
CONTINUOUS
 10
-12.2835382898
 20
-3.0487765833
 11
-12.3543715556
 21
-2.9764361664
  0
LINE
  5
2DF
100
AcDbEntity
  8
ASSI
100
AcDbLine
 62
7
  6
CONTINUOUS
 10
-12.2835382898
 20
-3.0487765833
 11
-12.3543715556
 21
-2.9764361664
  0
LINE
  5
2E0
100
AcDbEntity
  8
0
100
AcDbLine
 62
7
  6
CONTINUOUS
 10
-11.6106215556
 20
-3.6275000072
 11
-11.7168715556
 21
-3.5189893692
  0
LINE
  5
2E1
100
AcDbEntity
  8
ASSI
100
AcDbLine
 62
7
  6
CONTINUOUS
 10
-11.6106215556
 20
-3.6275000072
 11
-11.7168715556
 21
-3.5189893692
  0
LINE
  5
2E2
100
AcDbEntity
  8
0
100
AcDbLine
 62
7
  6
CONTINUOUS
 10
-12.1418715556
 20
-2.9402659579
 11
-12.2481215556
 21
-2.8317553325
  0
LINE
  5
2E3
100
AcDbEntity
  8
ASSI
100
AcDbLine
 62
7
  6
CONTINUOUS
 10
-12.1418715556
 20
-2.9402659579
 11
-12.2481215556
 21
-2.8317553325
  0
LINE
  5
2E4
100
AcDbEntity
  8
0
100
AcDbLine
 62
7
  6
CONTINUOUS
 10
-11.5043715556
 20
-3.4828191607
 11
-11.6106215556
 21
-3.3381383016
  0
LINE
  5
2E5
100
AcDbEntity
  8
ASSI
100
AcDbLine
 62
7
  6
CONTINUOUS
 10
-11.5043715556
 20
-3.4828191607
 11
-11.6106215556
 21
-3.3381383016
  0
LINE
  5
2E6
100
AcDbEntity
  8
0
100
AcDbLine
 62
7
  6
CONTINUOUS
 10
-12.1772882898
 20
-2.3615425213
 11
-12.2835382898
 21
-2.2168616875
  0
LINE
  5
2E7
100
AcDbEntity
  8
ASSI
100
AcDbLine
 62
7
  6
CONTINUOUS
 10
-12.1772882898
 20
-2.3615425213
 11
-12.2835382898
 21
-2.2168616875
  0
LINE
  5
2E8
100
AcDbEntity
  8
0
100
AcDbLine
 62
7
  6
CONTINUOUS
 10
-12.3189548213
 20
-2.4700531467
 11
-12.3897881884
 21
-2.3615425213
  0
LINE
  5
2E9
100
AcDbEntity
  8
ASSI
100
AcDbLine
 62
7
  6
CONTINUOUS
 10
-12.3189548213
 20
-2.4700531467
 11
-12.3897881884
 21
-2.3615425213
  0
LINE
  5
2EA
100
AcDbEntity
  8
0
100
AcDbLine
 62
7
  6
CONTINUOUS
 10
-11.5043715556
 20
-2.6870744987
 11
-11.5752048213
 21
-2.5785638734
  0
LINE
  5
2EB
100
AcDbEntity
  8
ASSI
100
AcDbLine
 62
7
  6
CONTINUOUS
 10
-11.5043715556
 20
-2.6870744987
 11
-11.5752048213
 21
-2.5785638734
  0
LINE
  5
2EC
100
AcDbEntity
  8
0
100
AcDbLine
 62
7
  6
CONTINUOUS
 10
-11.6814548213
 20
-2.7594149156
 11
-11.7522882898
 21
-2.6147340818
  0
LINE
  5
2ED
100
AcDbEntity
  8
ASSI
100
AcDbLine
 62
7
  6
CONTINUOUS
 10
-11.6814548213
 20
-2.7594149156
 11
-11.7522882898
 21
-2.6147340818
  0
LINE
  5
2EE
100
AcDbEntity
  8
0
100
AcDbLine
 62
7
  6
CONTINUOUS
 10
-11.7168715556
 20
-3.5189893692
 11
-11.7877048213
 21
-3.3381383016
  0
LINE
  5
2EF
100
AcDbEntity
  8
ASSI
100
AcDbLine
 62
7
  6
CONTINUOUS
 10
-11.7168715556
 20
-3.5189893692
 11
-11.7877048213
 21
-3.3381383016
  0
LINE
  5
2F0
100
AcDbEntity
  8
0
100
AcDbLine
 62
7
  6
CONTINUOUS
 10
-10.512705024
 20
-3.2296276762
 11
-10.5835380871
 21
-3.0487765833
  0
LINE
  5
2F1
100
AcDbEntity
  8
ASSI
100
AcDbLine
 62
7
  6
CONTINUOUS
 10
-10.512705024
 20
-3.2296276762
 11
-10.5835380871
 21
-3.0487765833
  0
LINE
  5
2F2
100
AcDbEntity
  8
0
100
AcDbLine
 62
7
  6
CONTINUOUS
 10
-10.5481215556
 20
-2.5062234565
 11
-10.618955024
 21
-2.3253723129
  0
LINE
  5
2F3
100
AcDbEntity
  8
ASSI
100
AcDbLine
 62
7
  6
CONTINUOUS
 10
-10.5481215556
 20
-2.5062234565
 11
-10.618955024
 21
-2.3253723129
  0
LINE
  5
2F4
100
AcDbEntity
  8
0
100
AcDbLine
 62
7
  6
CONTINUOUS
 10
-12.1418715556
 20
-2.4700531467
 11
-12.1772882898
 21
-2.3615425213
  0
LINE
  5
2F5
100
AcDbEntity
  8
ASSI
100
AcDbLine
 62
7
  6
CONTINUOUS
 10
-12.1418715556
 20
-2.4700531467
 11
-12.1772882898
 21
-2.3615425213
  0
LINE
  5
2F6
100
AcDbEntity
  8
0
100
AcDbLine
 62
7
  6
CONTINUOUS
 10
-10.2293715556
 20
-3.2657978847
 11
-10.2293715556
 21
-3.0487765833
  0
LINE
  5
2F7
100
AcDbEntity
  8
ASSI
100
AcDbLine
 62
7
  6
CONTINUOUS
 10
-10.2293715556
 20
-3.2657978847
 11
-10.2293715556
 21
-3.0487765833
  0
LINE
  5
2F8
100
AcDbEntity
  8
0
100
AcDbLine
 62
7
  6
CONTINUOUS
 10
-9.3793715556
 20
-3.7721808537
 11
-9.3793715556
 21
-3.2657978847
  0
LINE
  5
2F9
100
AcDbEntity
  8
ASSI
100
AcDbLine
 62
7
  6
CONTINUOUS
 10
-9.3793715556
 20
-3.7721808537
 11
-9.3793715556
 21
-3.2657978847
  0
LINE
  5
2FA
100
AcDbEntity
  8
0
100
AcDbLine
 62
7
  6
CONTINUOUS
 10
-9.3793715556
 20
-3.0487765833
 11
-9.3793715556
 21
-2.3615425213
  0
LINE
  5
2FB
100
AcDbEntity
  8
ASSI
100
AcDbLine
 62
7
  6
CONTINUOUS
 10
-9.3793715556
 20
-3.0487765833
 11
-9.3793715556
 21
-2.3615425213
  0
LINE
  5
2FC
100
AcDbEntity
  8
0
100
AcDbLine
 62
7
  6
CONTINUOUS
 10
-9.1668715556
 20
-3.7721808537
 11
-9.1668715556
 21
-3.2657978847
  0
LINE
  5
2FD
100
AcDbEntity
  8
ASSI
100
AcDbLine
 62
7
  6
CONTINUOUS
 10
-9.1668715556
 20
-3.7721808537
 11
-9.1668715556
 21
-3.2657978847
  0
LINE
  5
2FE
100
AcDbEntity
  8
0
100
AcDbLine
 62
7
  6
CONTINUOUS
 10
-9.1668715556
 20
-3.0487765833
 11
-9.1668715556
 21
-2.0721808537
  0
LINE
  5
2FF
100
AcDbEntity
  8
ASSI
100
AcDbLine
 62
7
  6
CONTINUOUS
 10
-9.1668715556
 20
-3.0487765833
 11
-9.1668715556
 21
-2.0721808537
  0
LINE
  5
300
100
AcDbEntity
  8
0
100
AcDbLine
 62
7
  6
CONTINUOUS
 10
-8.812705024
 20
-3.2657978847
 11
-8.812705024
 21
-3.0487765833
  0
LINE
  5
301
100
AcDbEntity
  8
ASSI
100
AcDbLine
 62
7
  6
CONTINUOUS
 10
-8.812705024
 20
-3.2657978847
 11
-8.812705024
 21
-3.0487765833
  0
LINE
  5
302
100
AcDbEntity
  8
0
100
AcDbLine
 62
7
  6
CONTINUOUS
 10
-12.1418715556
 20
-3.4828191607
 11
-12.0710382898
 21
-3.3019680931
  0
LINE
  5
303
100
AcDbEntity
  8
ASSI
100
AcDbLine
 62
7
  6
CONTINUOUS
 10
-12.1418715556
 20
-3.4828191607
 11
-12.0710382898
 21
-3.3019680931
  0
LINE
  5
304
100
AcDbEntity
  8
0
100
AcDbLine
 62
7
  6
CONTINUOUS
 10
-11.7522882898
 20
-2.5062234565
 11
-11.6814548213
 21
-2.3253723129
  0
LINE
  5
305
100
AcDbEntity
  8
ASSI
100
AcDbLine
 62
7
  6
CONTINUOUS
 10
-11.7522882898
 20
-2.5062234565
 11
-11.6814548213
 21
-2.3253723129
  0
LINE
  5
306
100
AcDbEntity
  8
0
100
AcDbLine
 62
7
  6
CONTINUOUS
 10
-11.7877048213
 20
-3.2296276762
 11
-11.7168715556
 21
-3.0487765833
  0
LINE
  5
307
100
AcDbEntity
  8
ASSI
100
AcDbLine
 62
7
  6
CONTINUOUS
 10
-11.7877048213
 20
-3.2296276762
 11
-11.7168715556
 21
-3.0487765833
  0
LINE
  5
308
100
AcDbEntity
  8
0
100
AcDbLine
 62
7
  6
CONTINUOUS
 10
-13.0981215556
 20
-2.4700531467
 11
-13.0272881884
 21
-2.3615425213
  0
LINE
  5
309
100
AcDbEntity
  8
ASSI
100
AcDbLine
 62
7
  6
CONTINUOUS
 10
-13.0981215556
 20
-2.4700531467
 11
-13.0272881884
 21
-2.3615425213
  0
LINE
  5
30A
100
AcDbEntity
  8
0
100
AcDbLine
 62
7
  6
CONTINUOUS
 10
-13.2397882391
 20
-2.3615425213
 11
-13.1335381884
 21
-2.2168616875
  0
LINE
  5
30B
100
AcDbEntity
  8
ASSI
100
AcDbLine
 62
7
  6
CONTINUOUS
 10
-13.2397882391
 20
-2.3615425213
 11
-13.1335381884
 21
-2.2168616875
  0
LINE
  5
30C
100
AcDbEntity
  8
0
100
AcDbLine
 62
7
  6
CONTINUOUS
 10
-14.0543715556
 20
-2.3253723129
 11
-13.8418715556
 21
-2.0721808537
  0
LINE
  5
30D
100
AcDbEntity
  8
ASSI
100
AcDbLine
 62
7
  6
CONTINUOUS
 10
-14.0543715556
 20
-2.3253723129
 11
-13.8418715556
 21
-2.0721808537
  0
LINE
  5
30E
100
AcDbEntity
  8
0
100
AcDbLine
 62
7
  6
CONTINUOUS
 10
-14.0543715556
 20
-2.6147340818
 11
-13.8418715556
 21
-2.3615425213
  0
LINE
  5
30F
100
AcDbEntity
  8
ASSI
100
AcDbLine
 62
7
  6
CONTINUOUS
 10
-14.0543715556
 20
-2.6147340818
 11
-13.8418715556
 21
-2.3615425213
  0
LINE
  5
310
100
AcDbEntity
  8
RACCORDO
100
AcDbLine
 62
7
  6
CONTINUOUS
 10
24.3816771876
 20
-9.5329047572
 11
23.531677189
 21
-9.5329047572
  0
LINE
  5
311
100
AcDbEntity
  8
RACCORDO
100
AcDbLine
 62
7
  6
CONTINUOUS
 10
-23.8404203001
 20
-9.5329047572
 11
-24.6904202987
 21
-9.5329047572
  0
LINE
  5
312
100
AcDbEntity
  8
DRAFT
100
AcDbLine
 62
7
  6
CONTINUOUS
 10
-23.840417101
 20
-9.5329031578
 11
23.5316739899
 21
-9.5329031578
  0
LINE
  5
313
100
AcDbEntity
  8
ASSI
100
AcDbLine
 62
7
  6
CONTINUOUS
 10
-24.6904202987
 20
-9.5329047572
 11
24.3816771876
 21
-9.5329047572
  0
LINE
  5
314
100
AcDbEntity
  8
0
100
AcDbLine
 62
7
  6
CONTINUOUS
 10
-12.9564549227
 20
-3.7360106421
 11
-13.1335381884
 21
-3.6275000072
  0
LINE
  5
315
100
AcDbEntity
  8
ASSI
100
AcDbLine
 62
7
  6
CONTINUOUS
 10
-12.9564549227
 20
-3.7360106421
 11
-13.1335381884
 21
-3.6275000072
  0
LINE
  5
316
100
AcDbEntity
  8
0
100
AcDbLine
 62
7
  6
CONTINUOUS
 10
-11.4335382898
 20
-3.7360106421
 11
-11.6106215556
 21
-3.6275000072
  0
LINE
  5
317
100
AcDbEntity
  8
ASSI
100
AcDbLine
 62
7
  6
CONTINUOUS
 10
-11.4335382898
 20
-3.7360106421
 11
-11.6106215556
 21
-3.6275000072
  0
LINE
  5
318
100
AcDbEntity
  8
0
100
AcDbLine
 62
7
  6
CONTINUOUS
 10
-12.9210381884
 20
-3.5551595776
 11
-13.0272881884
 21
-3.4828191607
  0
LINE
  5
319
100
AcDbEntity
  8
ASSI
100
AcDbLine
 62
7
  6
CONTINUOUS
 10
-12.9210381884
 20
-3.5551595776
 11
-13.0272881884
 21
-3.4828191607
  0
LINE
  5
31A
100
AcDbEntity
  8
0
100
AcDbLine
 62
7
  6
CONTINUOUS
 10
-12.3543715556
 20
-2.9764361664
 11
-12.4606215556
 21
-2.9040957495
  0
LINE
  5
31B
100
AcDbEntity
  8
ASSI
100
AcDbLine
 62
7
  6
CONTINUOUS
 10
-12.3543715556
 20
-2.9764361664
 11
-12.4606215556
 21
-2.9040957495
  0
LINE
  5
31C
100
AcDbEntity
  8
0
100
AcDbLine
 62
7
  6
CONTINUOUS
 10
-12.3897881884
 20
-2.3615425213
 11
-12.4960381884
 21
-2.2892021044
  0
LINE
  5
31D
100
AcDbEntity
  8
ASSI
100
AcDbLine
 62
7
  6
CONTINUOUS
 10
-12.3897881884
 20
-2.3615425213
 11
-12.4960381884
 21
-2.2892021044
  0
LINE
  5
31E
100
AcDbEntity
  8
0
100
AcDbLine
 62
7
  6
CONTINUOUS
 10
-11.3627048213
 20
-2.7955851241
 11
-11.5043715556
 21
-2.6870744987
  0
LINE
  5
31F
100
AcDbEntity
  8
ASSI
100
AcDbLine
 62
7
  6
CONTINUOUS
 10
-11.3627048213
 20
-2.7955851241
 11
-11.5043715556
 21
-2.6870744987
  0
LINE
  5
320
100
AcDbEntity
  8
RACCORDO
100
AcDbLine
 62
253
  6
CONTINUOUS
 10
-7.4595166852
 20
-6.8346890326
 11
-7.4892669831
 21
-6.8049387347
  0
LINE
  5
321
100
AcDbEntity
  8
ASSI
100
AcDbLine
 62
253
  6
CONTINUOUS
 10
-7.4595166852
 20
-6.8346890326
 11
-7.4892669831
 21
-6.8049387347
  0
LINE
  5
322
100
AcDbEntity
  8
RACCORDO
100
AcDbLine
 62
253
  6
CONTINUOUS
 10
-7.1595623766
 20
-6.5347347241
 11
-7.1895083664
 21
-6.5047887342
  0
LINE
  5
323
100
AcDbEntity
  8
ASSI
100
AcDbLine
 62
253
  6
CONTINUOUS
 10
-7.1595623766
 20
-6.5347347241
 11
-7.1895083664
 21
-6.5047887342
  0
LINE
  5
324
100
AcDbEntity
  8
0
100
AcDbLine
 62
7
  6
CONTINUOUS
 10
-11.5752048213
 20
-2.867925541
 11
-11.6814548213
 21
-2.7594149156
  0
LINE
  5
325
100
AcDbEntity
  8
ASSI
100
AcDbLine
 62
7
  6
CONTINUOUS
 10
-11.5752048213
 20
-2.867925541
 11
-11.6814548213
 21
-2.7594149156
  0
LINE
  5
326
100
AcDbEntity
  8
0
100
AcDbLine
 62
7
  6
CONTINUOUS
 10
-10.618955024
 20
-2.3253723129
 11
-10.7252048213
 21
-2.2168616875
  0
LINE
  5
327
100
AcDbEntity
  8
ASSI
100
AcDbLine
 62
7
  6
CONTINUOUS
 10
-10.618955024
 20
-2.3253723129
 11
-10.7252048213
 21
-2.2168616875
  0
LINE
  5
328
100
AcDbEntity
  8
0
100
AcDbLine
 62
7
  6
CONTINUOUS
 10
-10.6897882898
 20
-3.2296276762
 11
-10.7960382898
 21
-3.0849467917
  0
LINE
  5
329
100
AcDbEntity
  8
ASSI
100
AcDbLine
 62
7
  6
CONTINUOUS
 10
-10.6897882898
 20
-3.2296276762
 11
-10.7960382898
 21
-3.0849467917
  0
LINE
  5
32A
100
AcDbEntity
  8
0
100
AcDbLine
 62
7
  6
CONTINUOUS
 10
-10.7252048213
 20
-2.5062234565
 11
-10.7960382898
 21
-2.3977127298
  0
LINE
  5
32B
100
AcDbEntity
  8
ASSI
100
AcDbLine
 62
7
  6
CONTINUOUS
 10
-10.7252048213
 20
-2.5062234565
 11
-10.7960382898
 21
-2.3977127298
  0
LINE
  5
32C
100
AcDbEntity
  8
RACCORDO
100
AcDbLine
 62
7
  6
CONTINUOUS
 10
-7.4844216494
 20
-7.8631360847
 11
-7.4595166852
 21
-8.1147202048
  0
LINE
  5
32D
100
AcDbEntity
  8
ASSI
100
AcDbLine
 62
7
  6
CONTINUOUS
 10
-7.4844216494
 20
-7.8631360847
 11
-7.4595166852
 21
-8.1147202048
  0
LINE
  5
32E
100
AcDbEntity
  8
0
100
AcDbLine
 62
7
  6
CONTINUOUS
 10
-8.5293715556
 20
-3.7721808537
 11
-8.5293715556
 21
-3.5913297861
  0
LINE
  5
32F
100
AcDbEntity
  8
ASSI
100
AcDbLine
 62
7
  6
CONTINUOUS
 10
-8.5293715556
 20
-3.7721808537
 11
-8.5293715556
 21
-3.5913297861
  0
LINE
  5
330
100
AcDbEntity
  8
0
100
AcDbLine
 62
7
  6
CONTINUOUS
 10
-7.4668715556
 20
-2.5423936649
 11
-7.4668715556
 21
-2.4700531467
  0
LINE
  5
331
100
AcDbEntity
  8
ASSI
100
AcDbLine
 62
7
  6
CONTINUOUS
 10
-7.4668715556
 20
-2.5423936649
 11
-7.4668715556
 21
-2.4700531467
  0
LINE
  5
332
100
AcDbEntity
  8
RACCORDO
100
AcDbLine
 62
253
  6
CONTINUOUS
 10
-7.4595166852
 20
-8.1147202048
 11
-7.4595166852
 21
-6.8346890326
  0
LINE
  5
333
100
AcDbEntity
  8
ASSI
100
AcDbLine
 62
253
  6
CONTINUOUS
 10
-7.4595166852
 20
-8.1147202048
 11
-7.4595166852
 21
-6.8346890326
  0
LINE
  5
334
100
AcDbEntity
  8
0
100
AcDbLine
 62
7
  6
CONTINUOUS
 10
-7.2543715556
 20
-3.7721808537
 11
-7.2543715556
 21
-3.5913297861
  0
LINE
  5
335
100
AcDbEntity
  8
ASSI
100
AcDbLine
 62
7
  6
CONTINUOUS
 10
-7.2543715556
 20
-3.7721808537
 11
-7.2543715556
 21
-3.5913297861
  0
LINE
  5
336
100
AcDbEntity
  8
0
100
AcDbLine
 62
7
  6
CONTINUOUS
 10
-7.2543715556
 20
-2.5423936649
 11
-7.2543715556
 21
-2.4700531467
  0
LINE
  5
337
100
AcDbEntity
  8
ASSI
100
AcDbLine
 62
7
  6
CONTINUOUS
 10
-7.2543715556
 20
-2.5423936649
 11
-7.2543715556
 21
-2.4700531467
  0
LINE
  5
338
100
AcDbEntity
  8
RACCORDO
100
AcDbLine
 62
253
  6
CONTINUOUS
 10
-7.1595623766
 20
-8.1666951
 11
-7.1595623766
 21
-6.5347347241
  0
LINE
  5
339
100
AcDbEntity
  8
ASSI
100
AcDbLine
 62
253
  6
CONTINUOUS
 10
-7.1595623766
 20
-8.1666951
 11
-7.1595623766
 21
-6.5347347241
  0
LINE
  5
33A
100
AcDbEntity
  8
0
100
AcDbLine
 62
7
  6
CONTINUOUS
 10
-8.493955024
 20
-2.4700531467
 11
-8.4585380871
 21
-2.3253723129
  0
LINE
  5
33B
100
AcDbEntity
  8
ASSI
100
AcDbLine
 62
7
  6
CONTINUOUS
 10
-8.493955024
 20
-2.4700531467
 11
-8.4585380871
 21
-2.3253723129
  0
LINE
  5
33C
100
AcDbEntity
  8
0
100
AcDbLine
 62
7
  6
CONTINUOUS
 10
-10.5835380871
 20
-3.5189893692
 11
-10.512705024
 21
-3.3381383016
  0
LINE
  5
33D
100
AcDbEntity
  8
ASSI
100
AcDbLine
 62
7
  6
CONTINUOUS
 10
-10.5835380871
 20
-3.5189893692
 11
-10.512705024
 21
-3.3381383016
  0
LINE
  5
33E
100
AcDbEntity
  8
0
100
AcDbLine
 62
7
  6
CONTINUOUS
 10
-10.618955024
 20
-2.7594149156
 11
-10.5481215556
 21
-2.6147340818
  0
LINE
  5
33F
100
AcDbEntity
  8
ASSI
100
AcDbLine
 62
7
  6
CONTINUOUS
 10
-10.618955024
 20
-2.7594149156
 11
-10.5481215556
 21
-2.6147340818
  0
LINE
  5
340
100
AcDbEntity
  8
0
100
AcDbLine
 62
7
  6
CONTINUOUS
 10
-12.3543715556
 20
-3.4828191607
 11
-12.2835382898
 21
-3.37430851
  0
LINE
  5
341
100
AcDbEntity
  8
ASSI
100
AcDbLine
 62
7
  6
CONTINUOUS
 10
-12.3543715556
 20
-3.4828191607
 11
-12.2835382898
 21
-3.37430851
  0
LINE
  5
342
100
AcDbEntity
  8
0
100
AcDbLine
 62
7
  6
CONTINUOUS
 10
-11.5752048213
 20
-2.5062234565
 11
-11.5043715556
 21
-2.3977127298
  0
LINE
  5
343
100
AcDbEntity
  8
ASSI
100
AcDbLine
 62
7
  6
CONTINUOUS
 10
-11.5752048213
 20
-2.5062234565
 11
-11.5043715556
 21
-2.3977127298
  0
LINE
  5
344
100
AcDbEntity
  8
0
100
AcDbLine
 62
7
  6
CONTINUOUS
 10
-10.7960382898
 20
-2.6870744987
 11
-10.7252048213
 21
-2.5785638734
  0
LINE
  5
345
100
AcDbEntity
  8
ASSI
100
AcDbLine
 62
7
  6
CONTINUOUS
 10
-10.7960382898
 20
-2.6870744987
 11
-10.7252048213
 21
-2.5785638734
  0
LINE
  5
346
100
AcDbEntity
  8
0
100
AcDbLine
 62
7
  6
CONTINUOUS
 10
-12.2481215556
 20
-3.6275000072
 11
-12.1418715556
 21
-3.4828191607
  0
LINE
  5
347
100
AcDbEntity
  8
ASSI
100
AcDbLine
 62
7
  6
CONTINUOUS
 10
-12.2481215556
 20
-3.6275000072
 11
-12.1418715556
 21
-3.4828191607
  0
LINE
  5
348
100
AcDbEntity
  8
0
100
AcDbLine
 62
7
  6
CONTINUOUS
 10
-11.6106215556
 20
-3.2296276762
 11
-11.5043715556
 21
-3.0849467917
  0
LINE
  5
349
100
AcDbEntity
  8
ASSI
100
AcDbLine
 62
7
  6
CONTINUOUS
 10
-11.6106215556
 20
-3.2296276762
 11
-11.5043715556
 21
-3.0849467917
  0
LINE
  5
34A
100
AcDbEntity
  8
0
100
AcDbLine
 62
7
  6
CONTINUOUS
 10
-13.0981215556
 20
-3.0487765833
 11
-13.0272881884
 21
-2.9764361664
  0
LINE
  5
34B
100
AcDbEntity
  8
ASSI
100
AcDbLine
 62
7
  6
CONTINUOUS
 10
-13.0981215556
 20
-3.0487765833
 11
-13.0272881884
 21
-2.9764361664
  0
LINE
  5
34C
100
AcDbEntity
  8
RACCORDO
100
AcDbLine
 62
253
  6
CONTINUOUS
 10
-18.1192347447
 20
-6.5047887342
 11
-18.1491807345
 21
-6.5347347241
  0
LINE
  5
34D
100
AcDbEntity
  8
ASSI
100
AcDbLine
 62
253
  6
CONTINUOUS
 10
-18.1192347447
 20
-6.5047887342
 11
-18.1491807345
 21
-6.5347347241
  0
LINE
  5
34E
100
AcDbEntity
  8
RACCORDO
100
AcDbLine
 62
253
  6
CONTINUOUS
 10
-17.819476128
 20
-6.8049387347
 11
-17.8492264259
 21
-6.8346890326
  0
LINE
  5
34F
100
AcDbEntity
  8
ASSI
100
AcDbLine
 62
253
  6
CONTINUOUS
 10
-17.819476128
 20
-6.8049387347
 11
-17.8492264259
 21
-6.8346890326
  0
LINE
  5
350
100
AcDbEntity
  8
RACCORDO
100
AcDbLine
 62
7
  6
CONTINUOUS
 10
-23.5412711173
 20
-8.4488182691
 11
23.2325280062
 21
-8.4488182691
  0
LINE
  5
351
100
AcDbEntity
  8
ASSI
100
AcDbLine
 62
7
  6
CONTINUOUS
 10
-23.5412711173
 20
-8.4488182691
 11
23.2325280062
 21
-8.4488182691
  0
LINE
  5
352
100
AcDbEntity
  8
RACCORDO
100
AcDbLine
 62
7
  6
CONTINUOUS
 10
-7.1595623766
 20
-8.1666951
 11
-6.9491807345
 21
-8.1666951
  0
LINE
  5
353
100
AcDbEntity
  8
ASSI
100
AcDbLine
 62
7
  6
CONTINUOUS
 10
-7.1595623766
 20
-8.1666951
 11
-6.9491807345
 21
-8.1666951
  0
LINE
  5
354
100
AcDbEntity
  8
RACCORDO
100
AcDbLine
 62
7
  6
CONTINUOUS
 10
6.8508192655
 20
-8.1666951
 11
6.6404376234
 21
-8.1666951
  0
LINE
  5
355
100
AcDbEntity
  8
ASSI
100
AcDbLine
 62
7
  6
CONTINUOUS
 10
6.8508192655
 20
-8.1666951
 11
6.6404376234
 21
-8.1666951
  0
LINE
  5
356
100
AcDbEntity
  8
RACCORDO
100
AcDbLine
 62
7
  6
CONTINUOUS
 10
17.8404376234
 20
-8.1666951
 11
18.0508192655
 21
-8.1666951
  0
LINE
  5
357
100
AcDbEntity
  8
ASSI
100
AcDbLine
 62
7
  6
CONTINUOUS
 10
17.8404376234
 20
-8.1666951
 11
18.0508192655
 21
-8.1666951
  0
LINE
  5
358
100
AcDbEntity
  8
RACCORDO
100
AcDbLine
 62
7
  6
CONTINUOUS
 10
-18.1491807345
 20
-8.1666951
 11
-18.3595623766
 21
-8.1666951
  0
LINE
  5
359
100
AcDbEntity
  8
ASSI
100
AcDbLine
 62
7
  6
CONTINUOUS
 10
-18.1491807345
 20
-8.1666951
 11
-18.3595623766
 21
-8.1666951
  0
LINE
  5
35A
100
AcDbEntity
  8
RACCORDO
100
AcDbLine
 62
253
  6
CONTINUOUS
 10
23.1745498084
 20
-7.8631360847
 11
18.3756785383
 21
-7.8631360847
  0
LINE
  5
35B
100
AcDbEntity
  8
ASSI
100
AcDbLine
 62
253
  6
CONTINUOUS
 10
23.1745498084
 20
-7.8631360847
 11
18.3756785383
 21
-7.8631360847
  0
LINE
  5
35C
100
AcDbEntity
  8
RACCORDO
100
AcDbLine
 62
253
  6
CONTINUOUS
 10
6.3155783506
 20
-7.8631360847
 11
-6.6243214617
 21
-7.8631360847
  0
LINE
  5
35D
100
AcDbEntity
  8
ASSI
100
AcDbLine
 62
253
  6
CONTINUOUS
 10
6.3155783506
 20
-7.8631360847
 11
-6.6243214617
 21
-7.8631360847
  0
LINE
  5
35E
100
AcDbEntity
  8
RACCORDO
100
AcDbLine
 62
253
  6
CONTINUOUS
 10
-7.4844216494
 20
-7.8631360847
 11
-17.8243214617
 21
-7.8631360847
  0
LINE
  5
35F
100
AcDbEntity
  8
ASSI
100
AcDbLine
 62
253
  6
CONTINUOUS
 10
-7.4844216494
 20
-7.8631360847
 11
-17.8243214617
 21
-7.8631360847
  0
LINE
  5
360
100
AcDbEntity
  8
DRAFT
100
AcDbLine
 62
7
  6
CONTINUOUS
 10
17.5114231899
 20
-7.8211616243
 11
7.179833699
 21
-7.8211616243
  0
LINE
  5
361
100
AcDbEntity
  8
ASSI
100
AcDbLine
 62
7
  6
CONTINUOUS
 10
17.5114231899
 20
-7.8211616243
 11
7.179833699
 21
-7.8211616243
  0
LINE
  5
362
100
AcDbEntity
  8
RACCORDO
100
AcDbLine
 62
7
  6
CONTINUOUS
 10
-18.6885768101
 20
-7.8211616243
 11
-23.4791377589
 21
-7.8211616243
  0
LINE
  5
363
100
AcDbEntity
  8
ASSI
100
AcDbLine
 62
7
  6
CONTINUOUS
 10
-18.6885768101
 20
-7.8211616243
 11
-23.4791377589
 21
-7.8211616243
  0
LINE
  5
364
100
AcDbEntity
  8
RACCORDO
100
AcDbLine
 62
253
  6
CONTINUOUS
 10
23.1745498085
 20
-7.5795462485
 11
18.3800016573
 21
-7.5795462485
  0
LINE
  5
365
100
AcDbEntity
  8
ASSI
100
AcDbLine
 62
253
  6
CONTINUOUS
 10
23.1745498085
 20
-7.5795462485
 11
18.3800016573
 21
-7.5795462485
  0
LINE
  5
366
100
AcDbEntity
  8
RACCORDO
100
AcDbLine
 62
253
  6
CONTINUOUS
 10
6.3112552316
 20
-7.5795462485
 11
-6.6199983427
 21
-7.5795462485
  0
LINE
  5
367
100
AcDbEntity
  8
ASSI
100
AcDbLine
 62
253
  6
CONTINUOUS
 10
6.3112552316
 20
-7.5795462485
 11
-6.6199983427
 21
-7.5795462485
  0
LINE
  5
368
100
AcDbEntity
  8
RACCORDO
100
AcDbLine
 62
253
  6
CONTINUOUS
 10
-7.4887447684
 20
-7.5795462485
 11
-17.8199983427
 21
-7.5795462485
  0
LINE
  5
369
100
AcDbEntity
  8
ASSI
100
AcDbLine
 62
253
  6
CONTINUOUS
 10
-7.4887447684
 20
-7.5795462485
 11
-17.8199983427
 21
-7.5795462485
  0
LINE
  5
36A
100
AcDbEntity
  8
0
100
AcDbLine
 62
7
  6
CONTINUOUS
 10
-12.8147881884
 20
-3.5913297861
 11
-12.9210381884
 21
-3.5551595776
  0
LINE
  5
36B
100
AcDbEntity
  8
ASSI
100
AcDbLine
 62
7
  6
CONTINUOUS
 10
-12.8147881884
 20
-3.5913297861
 11
-12.9210381884
 21
-3.5551595776
  0
LINE
  5
36C
100
AcDbEntity
  8
0
100
AcDbLine
 62
7
  6
CONTINUOUS
 10
-11.3627048213
 20
-3.5551595776
 11
-11.5043715556
 21
-3.4828191607
  0
LINE
  5
36D
100
AcDbEntity
  8
ASSI
100
AcDbLine
 62
7
  6
CONTINUOUS
 10
-11.3627048213
 20
-3.5551595776
 11
-11.5043715556
 21
-3.4828191607
  0
LINE
  5
36E
100
AcDbEntity
  8
0
100
AcDbLine
 62
7
  6
CONTINUOUS
 10
-11.5043715556
 20
-2.9040957495
 11
-11.5752048213
 21
-2.867925541
  0
LINE
  5
36F
100
AcDbEntity
  8
ASSI
100
AcDbLine
 62
7
  6
CONTINUOUS
 10
-11.5043715556
 20
-2.9040957495
 11
-11.5752048213
 21
-2.867925541
  0
LINE
  5
370
100
AcDbEntity
  8
0
100
AcDbLine
 62
7
  6
CONTINUOUS
 10
-10.7960382898
 20
-3.0849467917
 11
-10.9377048213
 21
-3.0126063748
  0
LINE
  5
371
100
AcDbEntity
  8
ASSI
100
AcDbLine
 62
7
  6
CONTINUOUS
 10
-10.7960382898
 20
-3.0849467917
 11
-10.9377048213
 21
-3.0126063748
  0
LINE
  5
372
100
AcDbEntity
  8
0
100
AcDbLine
 62
7
  6
CONTINUOUS
 10
-10.7252048213
 20
-2.9402659579
 11
-10.7960382898
 21
-2.9040957495
  0
LINE
  5
373
100
AcDbEntity
  8
ASSI
100
AcDbLine
 62
7
  6
CONTINUOUS
 10
-10.7252048213
 20
-2.9402659579
 11
-10.7960382898
 21
-2.9040957495
  0
LINE
  5
374
100
AcDbEntity
  8
0
100
AcDbLine
 62
7
  6
CONTINUOUS
 10
-12.2481215556
 20
-2.8317553325
 11
-12.4252049227
 21
-2.7232447072
  0
LINE
  5
375
100
AcDbEntity
  8
ASSI
100
AcDbLine
 62
7
  6
CONTINUOUS
 10
-12.2481215556
 20
-2.8317553325
 11
-12.4252049227
 21
-2.7232447072
  0
LINE
  5
376
100
AcDbEntity
  8
0
100
AcDbLine
 62
7
  6
CONTINUOUS
 10
-12.2835382898
 20
-2.2168616875
 11
-12.4606215556
 21
-2.1083510621
  0
LINE
  5
377
100
AcDbEntity
  8
ASSI
100
AcDbLine
 62
7
  6
CONTINUOUS
 10
-12.2835382898
 20
-2.2168616875
 11
-12.4606215556
 21
-2.1083510621
  0
LINE
  5
378
100
AcDbEntity
  8
0
100
AcDbLine
 62
7
  6
CONTINUOUS
 10
-10.7252048213
 20
-2.2168616875
 11
-10.9022882898
 21
-2.1083510621
  0
LINE
  5
379
100
AcDbEntity
  8
ASSI
100
AcDbLine
 62
7
  6
CONTINUOUS
 10
-10.7252048213
 20
-2.2168616875
 11
-10.9022882898
 21
-2.1083510621
  0
LINE
  5
37A
100
AcDbEntity
  8
0
100
AcDbLine
 62
7
  6
CONTINUOUS
 10
-10.5835380871
 20
-3.0487765833
 11
-10.7252048213
 21
-2.9402659579
  0
LINE
  5
37B
100
AcDbEntity
  8
ASSI
100
AcDbLine
 62
7
  6
CONTINUOUS
 10
-10.5835380871
 20
-3.0487765833
 11
-10.7252048213
 21
-2.9402659579
  0
LINE
  5
37C
100
AcDbEntity
  8
0
100
AcDbLine
 62
7
  6
CONTINUOUS
 10
-10.7960382898
 20
-2.3977127298
 11
-10.9377048213
 21
-2.2892021044
  0
LINE
  5
37D
100
AcDbEntity
  8
ASSI
100
AcDbLine
 62
7
  6
CONTINUOUS
 10
-10.7960382898
 20
-2.3977127298
 11
-10.9377048213
 21
-2.2892021044
  0
LINE
  5
37E
100
AcDbEntity
  8
RACCORDO
100
AcDbLine
 62
7
  6
CONTINUOUS
 10
-19.3992264259
 20
7.7549750167
 11
-19.3817208396
 21
7.7374694304
  0
LINE
  5
37F
100
AcDbEntity
  8
ASSI
100
AcDbLine
 62
7
  6
CONTINUOUS
 10
-19.3992264259
 20
7.7549750167
 11
-19.3817208396
 21
7.7374694304
  0
LINE
  5
380
100
AcDbEntity
  8
0
100
AcDbLine
 62
7
  6
CONTINUOUS
 10
-7.4668715556
 20
-2.4700531467
 11
-7.537705024
 21
-2.3615425213
  0
LINE
  5
381
100
AcDbEntity
  8
ASSI
100
AcDbLine
 62
7
  6
CONTINUOUS
 10
-7.4668715556
 20
-2.4700531467
 11
-7.537705024
 21
-2.3615425213
  0
LINE
  5
382
100
AcDbEntity
  8
0
100
AcDbLine
 62
7
  6
CONTINUOUS
 10
-7.2543715556
 20
-2.4700531467
 11
-7.2897880871
 21
-2.3253723129
  0
LINE
  5
383
100
AcDbEntity
  8
ASSI
100
AcDbLine
 62
7
  6
CONTINUOUS
 10
-7.2543715556
 20
-2.4700531467
 11
-7.2897880871
 21
-2.3253723129
  0
LINE
  5
384
100
AcDbEntity
  8
RACCORDO
100
AcDbLine
 62
253
  6
CONTINUOUS
 10
-6.9491807345
 20
-6.5347347241
 11
-6.9491807345
 21
-8.1666951
  0
LINE
  5
385
100
AcDbEntity
  8
ASSI
100
AcDbLine
 62
253
  6
CONTINUOUS
 10
-6.9491807345
 20
-6.5347347241
 11
-6.9491807345
 21
-8.1666951
  0
LINE
  5
386
100
AcDbEntity
  8
RACCORDO
100
AcDbLine
 62
253
  6
CONTINUOUS
 10
-6.6492264259
 20
-6.8346890326
 11
-6.6492264259
 21
-8.1147202048
  0
LINE
  5
387
100
AcDbEntity
  8
ASSI
100
AcDbLine
 62
253
  6
CONTINUOUS
 10
-6.6492264259
 20
-6.8346890326
 11
-6.6492264259
 21
-8.1147202048
  0
LINE
  5
388
100
AcDbEntity
  8
RACCORDO
100
AcDbLine
 62
7
  6
CONTINUOUS
 10
-6.6243214617
 20
-7.8631360847
 11
-6.6492264259
 21
-8.1147202048
  0
LINE
  5
389
100
AcDbEntity
  8
ASSI
100
AcDbLine
 62
7
  6
CONTINUOUS
 10
-6.6243214617
 20
-7.8631360847
 11
-6.6492264259
 21
-8.1147202048
  0
LINE
  5
38A
100
AcDbEntity
  8
0
100
AcDbLine
 62
7
  6
CONTINUOUS
 10
-7.2897880871
 20
-2.6870744987
 11
-7.2543715556
 21
-2.5423936649
  0
LINE
  5
38B
100
AcDbEntity
  8
ASSI
100
AcDbLine
 62
7
  6
CONTINUOUS
 10
-7.2897880871
 20
-2.6870744987
 11
-7.2543715556
 21
-2.5423936649
  0
LINE
  5
38C
100
AcDbEntity
  8
0
100
AcDbLine
 62
7
  6
CONTINUOUS
 10
-7.537705024
 20
-2.6870744987
 11
-7.4668715556
 21
-2.5423936649
  0
LINE
  5
38D
100
AcDbEntity
  8
ASSI
100
AcDbLine
 62
7
  6
CONTINUOUS
 10
-7.537705024
 20
-2.6870744987
 11
-7.4668715556
 21
-2.5423936649
  0
LINE
  5
38E
100
AcDbEntity
  8
0
100
AcDbLine
 62
7
  6
CONTINUOUS
 10
-8.3168715556
 20
-2.4700531467
 11
-8.2460380871
 21
-2.3615425213
  0
LINE
  5
38F
100
AcDbEntity
  8
ASSI
100
AcDbLine
 62
7
  6
CONTINUOUS
 10
-8.3168715556
 20
-2.4700531467
 11
-8.2460380871
 21
-2.3615425213
  0
LINE
  5
390
100
AcDbEntity
  8
0
100
AcDbLine
 62
7
  6
CONTINUOUS
 10
-10.7960382898
 20
-3.4828191607
 11
-10.6897882898
 21
-3.3381383016
  0
LINE
  5
391
100
AcDbEntity
  8
ASSI
100
AcDbLine
 62
7
  6
CONTINUOUS
 10
-10.7960382898
 20
-3.4828191607
 11
-10.6897882898
 21
-3.3381383016
  0
LINE
  5
392
100
AcDbEntity
  8
0
100
AcDbLine
 62
7
  6
CONTINUOUS
 10
-10.2293715556
 20
-3.0487765833
 11
-9.3793715556
 21
-2.0721808537
  0
LINE
  5
393
100
AcDbEntity
  8
ASSI
100
AcDbLine
 62
7
  6
CONTINUOUS
 10
-10.2293715556
 20
-3.0487765833
 11
-9.3793715556
 21
-2.0721808537
  0
LINE
  5
394
100
AcDbEntity
  8
0
100
AcDbLine
 62
7
  6
CONTINUOUS
 10
-9.981455024
 20
-3.0487765833
 11
-9.3793715556
 21
-2.3615425213
  0
LINE
  5
395
100
AcDbEntity
  8
ASSI
100
AcDbLine
 62
7
  6
CONTINUOUS
 10
-9.981455024
 20
-3.0487765833
 11
-9.3793715556
 21
-2.3615425213
  0
LINE
  5
396
100
AcDbEntity
  8
0
100
AcDbLine
 62
7
  6
CONTINUOUS
 10
-11.6814548213
 20
-2.3253723129
 11
-11.5752048213
 21
-2.2168616875
  0
LINE
  5
397
100
AcDbEntity
  8
ASSI
100
AcDbLine
 62
7
  6
CONTINUOUS
 10
-11.6814548213
 20
-2.3253723129
 11
-11.5752048213
 21
-2.2168616875
  0
LINE
  5
398
100
AcDbEntity
  8
0
100
AcDbLine
 62
7
  6
CONTINUOUS
 10
-10.7252048213
 20
-2.867925541
 11
-10.618955024
 21
-2.7594149156
  0
LINE
  5
399
100
AcDbEntity
  8
ASSI
100
AcDbLine
 62
7
  6
CONTINUOUS
 10
-10.7252048213
 20
-2.867925541
 11
-10.618955024
 21
-2.7594149156
  0
LINE
  5
39A
100
AcDbEntity
  8
0
100
AcDbLine
 62
7
  6
CONTINUOUS
 10
-10.6897882898
 20
-3.6275000072
 11
-10.5835380871
 21
-3.5189893692
  0
LINE
  5
39B
100
AcDbEntity
  8
ASSI
100
AcDbLine
 62
7
  6
CONTINUOUS
 10
-10.6897882898
 20
-3.6275000072
 11
-10.5835380871
 21
-3.5189893692
  0
LINE
  5
39C
100
AcDbEntity
  8
0
100
AcDbLine
 62
7
  6
CONTINUOUS
 10
-11.5043715556
 20
-2.3977127298
 11
-11.3627048213
 21
-2.2892021044
  0
LINE
  5
39D
100
AcDbEntity
  8
ASSI
100
AcDbLine
 62
7
  6
CONTINUOUS
 10
-11.5043715556
 20
-2.3977127298
 11
-11.3627048213
 21
-2.2892021044
  0
LINE
  5
39E
100
AcDbEntity
  8
0
100
AcDbLine
 62
7
  6
CONTINUOUS
 10
-13.0272881884
 20
-2.3615425213
 11
-12.9210381884
 21
-2.2892021044
  0
LINE
  5
39F
100
AcDbEntity
  8
ASSI
100
AcDbLine
 62
7
  6
CONTINUOUS
 10
-13.0272881884
 20
-2.3615425213
 11
-12.9210381884
 21
-2.2892021044
  0
LINE
  5
3A0
100
AcDbEntity
  8
0
100
AcDbLine
 62
7
  6
CONTINUOUS
 10
-13.1689549227
 20
-2.867925541
 11
-12.9564549227
 21
-2.7232447072
  0
LINE
  5
3A1
100
AcDbEntity
  8
ASSI
100
AcDbLine
 62
7
  6
CONTINUOUS
 10
-13.1689549227
 20
-2.867925541
 11
-12.9564549227
 21
-2.7232447072
  0
LINE
  5
3A2
100
AcDbEntity
  8
0
100
AcDbLine
 62
7
  6
CONTINUOUS
 10
-13.1335381884
 20
-2.2168616875
 11
-12.9564549227
 21
-2.1083510621
  0
LINE
  5
3A3
100
AcDbEntity
  8
ASSI
100
AcDbLine
 62
7
  6
CONTINUOUS
 10
-13.1335381884
 20
-2.2168616875
 11
-12.9564549227
 21
-2.1083510621
  0
LINE
  5
3A4
100
AcDbEntity
  8
DRAFT
100
AcDbLine
 62
7
  6
CONTINUOUS
 10
21.6956284444
 20
-5.0119517498
 11
22.4956284444
 21
-4.9979876978
  0
LINE
  5
3A5
100
AcDbEntity
  8
ASSI
100
AcDbLine
 62
7
  6
CONTINUOUS
 10
21.6956284444
 20
-5.0119517498
 11
22.4956284444
 21
-4.9979876978
  0
LINE
  5
3A6
100
AcDbEntity
  8
RACCORDO
100
AcDbLine
 62
7
  6
CONTINUOUS
 10
23.1741951595
 20
-7.0571529018
 11
22.1783553963
 21
-7.0571529018
  0
LINE
  5
3A7
100
AcDbEntity
  8
ASSI
100
AcDbLine
 62
7
  6
CONTINUOUS
 10
23.1741951595
 20
-7.0571529018
 11
22.1783553963
 21
-7.0571529018
  0
LINE
  5
3A8
100
AcDbEntity
  8
RACCORDO
100
AcDbLine
 62
7
  6
CONTINUOUS
 10
-22.4870985074
 20
-7.0571529018
 11
-23.4829382706
 21
-7.0571529018
  0
LINE
  5
3A9
100
AcDbEntity
  8
ASSI
100
AcDbLine
 62
7
  6
CONTINUOUS
 10
-22.4870985074
 20
-7.0571529018
 11
-23.4829382706
 21
-7.0571529018
  0
LINE
  5
3AA
100
AcDbEntity
  8
RACCORDO
100
AcDbLine
 62
7
  6
CONTINUOUS
 10
-23.8299344647
 20
-7.0049697238
 11
-22.8340908643
 21
-7.0049697238
  0
LINE
  5
3AB
100
AcDbEntity
  8
ASSI
100
AcDbLine
 62
7
  6
CONTINUOUS
 10
-23.8299344647
 20
-7.0049697238
 11
-22.8340908643
 21
-7.0049697238
  0
LINE
  5
3AC
100
AcDbEntity
  8
RACCORDO
100
AcDbLine
 62
7
  6
CONTINUOUS
 10
22.5253477532
 20
-7.0049697238
 11
23.5211913535
 21
-7.0049697238
  0
LINE
  5
3AD
100
AcDbEntity
  8
ASSI
100
AcDbLine
 62
7
  6
CONTINUOUS
 10
22.5253477532
 20
-7.0049697238
 11
23.5211913535
 21
-7.0049697238
  0
LINE
  5
3AE
100
AcDbEntity
  8
RACCORDO
100
AcDbLine
 62
253
  6
CONTINUOUS
 10
6.3404833148
 20
-6.8346890326
 11
7.1507735741
 21
-6.8346890326
  0
LINE
  5
3AF
100
AcDbEntity
  8
ASSI
100
AcDbLine
 62
253
  6
CONTINUOUS
 10
6.3404833148
 20
-6.8346890326
 11
7.1507735741
 21
-6.8346890326
  0
LINE
  5
3B0
100
AcDbEntity
  8
RACCORDO
100
AcDbLine
 62
253
  6
CONTINUOUS
 10
-6.6492264259
 20
-6.8346890326
 11
-7.4595166852
 21
-6.8346890326
  0
LINE
  5
3B1
100
AcDbEntity
  8
ASSI
100
AcDbLine
 62
253
  6
CONTINUOUS
 10
-6.6492264259
 20
-6.8346890326
 11
-7.4595166852
 21
-6.8346890326
  0
LINE
  5
3B2
100
AcDbEntity
  8
RACCORDO
100
AcDbLine
 62
253
  6
CONTINUOUS
 10
17.5404833148
 20
-6.8346890326
 11
18.3507735741
 21
-6.8346890326
  0
LINE
  5
3B3
100
AcDbEntity
  8
ASSI
100
AcDbLine
 62
253
  6
CONTINUOUS
 10
17.5404833148
 20
-6.8346890326
 11
18.3507735741
 21
-6.8346890326
  0
LINE
  5
3B4
100
AcDbEntity
  8
RACCORDO
100
AcDbLine
 62
253
  6
CONTINUOUS
 10
-17.8492264259
 20
-6.8346890326
 11
-18.6595166852
 21
-6.8346890326
  0
LINE
  5
3B5
100
AcDbEntity
  8
ASSI
100
AcDbLine
 62
253
  6
CONTINUOUS
 10
-17.8492264259
 20
-6.8346890326
 11
-18.6595166852
 21
-6.8346890326
  0
LINE
  5
3B6
100
AcDbEntity
  8
RACCORDO
100
AcDbLine
 62
253
  6
CONTINUOUS
 10
18.0508192655
 20
-6.5347347241
 11
17.8404376234
 21
-6.5347347241
  0
LINE
  5
3B7
100
AcDbEntity
  8
ASSI
100
AcDbLine
 62
253
  6
CONTINUOUS
 10
18.0508192655
 20
-6.5347347241
 11
17.8404376234
 21
-6.5347347241
  0
LINE
  5
3B8
100
AcDbEntity
  8
RACCORDO
100
AcDbLine
 62
253
  6
CONTINUOUS
 10
6.8508192655
 20
-6.5347347241
 11
6.6404376234
 21
-6.5347347241
  0
LINE
  5
3B9
100
AcDbEntity
  8
ASSI
100
AcDbLine
 62
253
  6
CONTINUOUS
 10
6.8508192655
 20
-6.5347347241
 11
6.6404376234
 21
-6.5347347241
  0
LINE
  5
3BA
100
AcDbEntity
  8
RACCORDO
100
AcDbLine
 62
253
  6
CONTINUOUS
 10
-6.9491807345
 20
-6.5347347241
 11
-7.1595623766
 21
-6.5347347241
  0
LINE
  5
3BB
100
AcDbEntity
  8
ASSI
100
AcDbLine
 62
253
  6
CONTINUOUS
 10
-6.9491807345
 20
-6.5347347241
 11
-7.1595623766
 21
-6.5347347241
  0
LINE
  5
3BC
100
AcDbEntity
  8
RACCORDO
100
AcDbLine
 62
253
  6
CONTINUOUS
 10
-18.1491807345
 20
-6.5347347241
 11
-18.3595623766
 21
-6.5347347241
  0
LINE
  5
3BD
100
AcDbEntity
  8
ASSI
100
AcDbLine
 62
253
  6
CONTINUOUS
 10
-18.1491807345
 20
-6.5347347241
 11
-18.3595623766
 21
-6.5347347241
  0
LINE
  5
3BE
100
AcDbEntity
  8
RACCORDO
100
AcDbLine
 62
7
  6
CONTINUOUS
 10
-18.3895083664
 20
-6.5047887342
 11
-18.1192347447
 21
-6.5047887342
  0
LINE
  5
3BF
100
AcDbEntity
  8
ASSI
100
AcDbLine
 62
7
  6
CONTINUOUS
 10
-18.3895083664
 20
-6.5047887342
 11
-18.1192347447
 21
-6.5047887342
  0
LINE
  5
3C0
100
AcDbEntity
  8
RACCORDO
100
AcDbLine
 62
7
  6
CONTINUOUS
 10
-7.1895083664
 20
-6.5047887342
 11
-6.9192347447
 21
-6.5047887342
  0
LINE
  5
3C1
100
AcDbEntity
  8
ASSI
100
AcDbLine
 62
7
  6
CONTINUOUS
 10
-7.1895083664
 20
-6.5047887342
 11
-6.9192347447
 21
-6.5047887342
  0
LINE
  5
3C2
100
AcDbEntity
  8
RACCORDO
100
AcDbLine
 62
7
  6
CONTINUOUS
 10
6.6104916336
 20
-6.5047887342
 11
6.8807652553
 21
-6.5047887342
  0
LINE
  5
3C3
100
AcDbEntity
  8
ASSI
100
AcDbLine
 62
7
  6
CONTINUOUS
 10
6.6104916336
 20
-6.5047887342
 11
6.8807652553
 21
-6.5047887342
  0
LINE
  5
3C4
100
AcDbEntity
  8
RACCORDO
100
AcDbLine
 62
7
  6
CONTINUOUS
 10
17.8104916336
 20
-6.5047887342
 11
18.0807652553
 21
-6.5047887342
  0
LINE
  5
3C5
100
AcDbEntity
  8
ASSI
100
AcDbLine
 62
7
  6
CONTINUOUS
 10
17.8104916336
 20
-6.5047887342
 11
18.0807652553
 21
-6.5047887342
  0
LINE
  5
3C6
100
AcDbEntity
  8
RACCORDO
100
AcDbLine
 62
7
  6
CONTINUOUS
 10
23.5211913535
 20
-6.3747899835
 11
22.5253477532
 21
-6.3747899835
  0
LINE
  5
3C7
100
AcDbEntity
  8
ASSI
100
AcDbLine
 62
7
  6
CONTINUOUS
 10
23.5211913535
 20
-6.3747899835
 11
22.5253477532
 21
-6.3747899835
  0
LINE
  5
3C8
100
AcDbEntity
  8
RACCORDO
100
AcDbLine
 62
7
  6
CONTINUOUS
 10
-22.8340908643
 20
-6.3747899835
 11
-23.8299344647
 21
-6.3747899835
  0
LINE
  5
3C9
100
AcDbEntity
  8
ASSI
100
AcDbLine
 62
7
  6
CONTINUOUS
 10
-22.8340908643
 20
-6.3747899835
 11
-23.8299344647
 21
-6.3747899835
  0
LINE
  5
3CA
100
AcDbEntity
  8
RACCORDO
100
AcDbLine
 62
7
  6
CONTINUOUS
 10
-23.4824583326
 20
-6.3221265273
 11
-22.4866182292
 21
-6.3221265273
  0
LINE
  5
3CB
100
AcDbEntity
  8
ASSI
100
AcDbLine
 62
7
  6
CONTINUOUS
 10
-23.4824583326
 20
-6.3221265273
 11
-22.4866182292
 21
-6.3221265273
  0
LINE
  5
3CC
100
AcDbEntity
  8
RACCORDO
100
AcDbLine
 62
7
  6
CONTINUOUS
 10
22.1778751181
 20
-6.3221265273
 11
23.1737152215
 21
-6.3221265273
  0
LINE
  5
3CD
100
AcDbEntity
  8
ASSI
100
AcDbLine
 62
7
  6
CONTINUOUS
 10
22.1778751181
 20
-6.3221265273
 11
23.1737152215
 21
-6.3221265273
  0
LINE
  5
3CE
100
AcDbEntity
  8
DRAFT
100
AcDbLine
 62
7
  6
CONTINUOUS
 10
-22.8043715556
 20
-4.9979876978
 11
-22.0043715556
 21
-5.0119517498
  0
LINE
  5
3CF
100
AcDbEntity
  8
ASSI
100
AcDbLine
 62
7
  6
CONTINUOUS
 10
-22.8043715556
 20
-4.9979876978
 11
-22.0043715556
 21
-5.0119517498
  0
LINE
  5
3D0
100
AcDbEntity
  8
0
100
AcDbLine
 62
7
  6
CONTINUOUS
 10
-12.7793715556
 20
-3.7721808537
 11
-12.9564549227
 21
-3.7360106421
  0
LINE
  5
3D1
100
AcDbEntity
  8
ASSI
100
AcDbLine
 62
7
  6
CONTINUOUS
 10
-12.7793715556
 20
-3.7721808537
 11
-12.9564549227
 21
-3.7360106421
  0
LINE
  5
3D2
100
AcDbEntity
  8
0
100
AcDbLine
 62
7
  6
CONTINUOUS
 10
-11.2564548213
 20
-3.7721808537
 11
-11.4335382898
 21
-3.7360106421
  0
LINE
  5
3D3
100
AcDbEntity
  8
ASSI
100
AcDbLine
 62
7
  6
CONTINUOUS
 10
-11.2564548213
 20
-3.7721808537
 11
-11.4335382898
 21
-3.7360106421
  0
LINE
  5
3D4
100
AcDbEntity
  8
0
100
AcDbLine
 62
7
  6
CONTINUOUS
 10
-11.2210382898
 20
-3.5913297861
 11
-11.3627048213
 21
-3.5551595776
  0
LINE
  5
3D5
100
AcDbEntity
  8
ASSI
100
AcDbLine
 62
7
  6
CONTINUOUS
 10
-11.2210382898
 20
-3.5913297861
 11
-11.3627048213
 21
-3.5551595776
  0
LINE
  5
3D6
100
AcDbEntity
  8
0
100
AcDbLine
 62
7
  6
CONTINUOUS
 10
-10.9377048213
 20
-3.0126063748
 11
-11.0793715556
 21
-2.9764361664
  0
LINE
  5
3D7
100
AcDbEntity
  8
ASSI
100
AcDbLine
 62
7
  6
CONTINUOUS
 10
-10.9377048213
 20
-3.0126063748
 11
-11.0793715556
 21
-2.9764361664
  0
LINE
  5
3D8
100
AcDbEntity
  8
0
100
AcDbLine
 62
7
  6
CONTINUOUS
 10
-11.2210382898
 20
-2.8317553325
 11
-11.3627048213
 21
-2.7955851241
  0
LINE
  5
3D9
100
AcDbEntity
  8
ASSI
100
AcDbLine
 62
7
  6
CONTINUOUS
 10
-11.2210382898
 20
-2.8317553325
 11
-11.3627048213
 21
-2.7955851241
  0
LINE
  5
3DA
100
AcDbEntity
  8
0
100
AcDbLine
 62
7
  6
CONTINUOUS
 10
-12.4606215556
 20
-2.9040957495
 11
-12.5668715556
 21
-2.867925541
  0
LINE
  5
3DB
100
AcDbEntity
  8
ASSI
100
AcDbLine
 62
7
  6
CONTINUOUS
 10
-12.4606215556
 20
-2.9040957495
 11
-12.5668715556
 21
-2.867925541
  0
LINE
  5
3DC
100
AcDbEntity
  8
0
100
AcDbLine
 62
7
  6
CONTINUOUS
 10
-12.4960381884
 20
-2.2892021044
 11
-12.6022881884
 21
-2.2530318959
  0
LINE
  5
3DD
100
AcDbEntity
  8
ASSI
100
AcDbLine
 62
7
  6
CONTINUOUS
 10
-12.4960381884
 20
-2.2892021044
 11
-12.6022881884
 21
-2.2530318959
  0
LINE
  5
3DE
100
AcDbEntity
  8
0
100
AcDbLine
 62
7
  6
CONTINUOUS
 10
-7.537705024
 20
-2.3615425213
 11
-7.643955024
 21
-2.2892021044
  0
LINE
  5
3DF
100
AcDbEntity
  8
ASSI
100
AcDbLine
 62
7
  6
CONTINUOUS
 10
-7.537705024
 20
-2.3615425213
 11
-7.643955024
 21
-2.2892021044
  0
LINE
  5
3E0
100
AcDbEntity
  8
0
100
AcDbLine
 62
7
  6
CONTINUOUS
 10
-7.2897880871
 20
-2.3253723129
 11
-7.431455024
 21
-2.180691479
  0
LINE
  5
3E1
100
AcDbEntity
  8
ASSI
100
AcDbLine
 62
7
  6
CONTINUOUS
 10
-7.2897880871
 20
-2.3253723129
 11
-7.431455024
 21
-2.180691479
  0
LINE
  5
3E2
100
AcDbEntity
  8
RACCORDO
100
AcDbLine
 62
253
  6
CONTINUOUS
 10
-4.5842703225
 20
5.386010158
 11
-4.5777474177
 21
3.7345431045
  0
LINE
  5
3E3
100
AcDbEntity
  8
ASSI
100
AcDbLine
 62
253
  6
CONTINUOUS
 10
-4.5842703225
 20
5.386010158
 11
-4.5777474177
 21
3.7345431045
  0
LINE
  5
3E4
100
AcDbEntity
  8
RACCORDO
100
AcDbLine
 62
253
  6
CONTINUOUS
 10
-3.9762170803
 20
3.756674622
 11
-3.9762170803
 21
5.3635656707
  0
LINE
  5
3E5
100
AcDbEntity
  8
ASSI
100
AcDbLine
 62
253
  6
CONTINUOUS
 10
-3.9762170803
 20
3.756674622
 11
-3.9762170803
 21
5.3635656707
  0
LINE
  5
3E6
100
AcDbEntity
  8
RACCORDO
100
AcDbLine
 62
253
  6
CONTINUOUS
 10
-3.6943092941
 20
3.7601201463
 11
-3.6943092941
 21
5.3601201463
  0
LINE
  5
3E7
100
AcDbEntity
  8
ASSI
100
AcDbLine
 62
253
  6
CONTINUOUS
 10
-3.6943092941
 20
3.7601201463
 11
-3.6943092941
 21
5.3601201463
  0
LINE
  5
3E8
100
AcDbEntity
  8
0
100
AcDbLine
 62
7
  6
CONTINUOUS
 10
-7.3606215556
 20
-2.7955851241
 11
-7.2897880871
 21
-2.6870744987
  0
LINE
  5
3E9
100
AcDbEntity
  8
ASSI
100
AcDbLine
 62
7
  6
CONTINUOUS
 10
-7.3606215556
 20
-2.7955851241
 11
-7.2897880871
 21
-2.6870744987
  0
LINE
  5
3EA
100
AcDbEntity
  8
0
100
AcDbLine
 62
7
  6
CONTINUOUS
 10
-8.4585380871
 20
-2.3253723129
 11
-8.3168715556
 21
-2.180691479
  0
LINE
  5
3EB
100
AcDbEntity
  8
ASSI
100
AcDbLine
 62
7
  6
CONTINUOUS
 10
-8.4585380871
 20
-2.3253723129
 11
-8.3168715556
 21
-2.180691479
  0
LINE
  5
3EC
100
AcDbEntity
  8
0
100
AcDbLine
 62
7
  6
CONTINUOUS
 10
-11.7168715556
 20
-3.0487765833
 11
-11.5752048213
 21
-2.9402659579
  0
LINE
  5
3ED
100
AcDbEntity
  8
ASSI
100
AcDbLine
 62
7
  6
CONTINUOUS
 10
-11.7168715556
 20
-3.0487765833
 11
-11.5752048213
 21
-2.9402659579
  0
LINE
  5
3EE
100
AcDbEntity
  8
0
100
AcDbLine
 62
7
  6
CONTINUOUS
 10
-10.9377048213
 20
-2.7955851241
 11
-10.7960382898
 21
-2.6870744987
  0
LINE
  5
3EF
100
AcDbEntity
  8
ASSI
100
AcDbLine
 62
7
  6
CONTINUOUS
 10
-10.9377048213
 20
-2.7955851241
 11
-10.7960382898
 21
-2.6870744987
  0
LINE
  5
3F0
100
AcDbEntity
  8
0
100
AcDbLine
 62
7
  6
CONTINUOUS
 10
-13.0272881884
 20
-2.9764361664
 11
-12.9210381884
 21
-2.9040957495
  0
LINE
  5
3F1
100
AcDbEntity
  8
ASSI
100
AcDbLine
 62
7
  6
CONTINUOUS
 10
-13.0272881884
 20
-2.9764361664
 11
-12.9210381884
 21
-2.9040957495
  0
LINE
  5
3F2
100
AcDbEntity
  8
0
100
AcDbLine
 62
7
  6
CONTINUOUS
 10
-12.4606215556
 20
-3.5551595776
 11
-12.3543715556
 21
-3.4828191607
  0
LINE
  5
3F3
100
AcDbEntity
  8
ASSI
100
AcDbLine
 62
7
  6
CONTINUOUS
 10
-12.4606215556
 20
-3.5551595776
 11
-12.3543715556
 21
-3.4828191607
  0
LINE
  5
3F4
100
AcDbEntity
  8
0
100
AcDbLine
 62
7
  6
CONTINUOUS
 10
-11.5752048213
 20
-2.2168616875
 11
-11.3981215556
 21
-2.1083510621
  0
LINE
  5
3F5
100
AcDbEntity
  8
ASSI
100
AcDbLine
 62
7
  6
CONTINUOUS
 10
-11.5752048213
 20
-2.2168616875
 11
-11.3981215556
 21
-2.1083510621
  0
LINE
  5
3F6
100
AcDbEntity
  8
0
100
AcDbLine
 62
7
  6
CONTINUOUS
 10
-12.4252049227
 20
-3.7360106421
 11
-12.2481215556
 21
-3.6275000072
  0
LINE
  5
3F7
100
AcDbEntity
  8
ASSI
100
AcDbLine
 62
7
  6
CONTINUOUS
 10
-12.4252049227
 20
-3.7360106421
 11
-12.2481215556
 21
-3.6275000072
  0
LINE
  5
3F8
100
AcDbEntity
  8
DRAFT
100
AcDbLine
 62
7
  6
CONTINUOUS
 10
-22.0043715556
 20
-5.0182355732
 11
-22.5543715556
 21
-5.0237783007
  0
LINE
  5
3F9
100
AcDbEntity
  8
ASSI
100
AcDbLine
 62
7
  6
CONTINUOUS
 10
-22.0043715556
 20
-5.0182355732
 11
-22.5543715556
 21
-5.0237783007
  0
LINE
  5
3FA
100
AcDbEntity
  8
RACCORDO
100
AcDbLine
 62
7
  6
CONTINUOUS
 10
23.1729421647
 20
-5.0584067844
 11
22.2456284444
 21
-5.0584067844
  0
LINE
  5
3FB
100
AcDbEntity
  8
ASSI
100
AcDbLine
 62
7
  6
CONTINUOUS
 10
23.1729421647
 20
-5.0584067844
 11
22.2456284444
 21
-5.0584067844
  0
LINE
  5
3FC
100
AcDbEntity
  8
RACCORDO
100
AcDbLine
 62
7
  6
CONTINUOUS
 10
-22.5543715556
 20
-5.0584067844
 11
-23.4816852758
 21
-5.0584067844
  0
LINE
  5
3FD
100
AcDbEntity
  8
ASSI
100
AcDbLine
 62
7
  6
CONTINUOUS
 10
-22.5543715556
 20
-5.0584067844
 11
-23.4816852758
 21
-5.0584067844
  0
LINE
  5
3FE
100
AcDbEntity
  8
DRAFT
100
AcDbLine
 62
7
  6
CONTINUOUS
 10
-23.8369164906
 20
-4.9979876978
 11
-22.8043715556
 21
-4.9979876978
  0
LINE
  5
3FF
100
AcDbEntity
  8
ASSI
100
AcDbLine
 62
7
  6
CONTINUOUS
 10
-23.8369164906
 20
-4.9979876978
 11
-22.8043715556
 21
-4.9979876978
  0
LINE
  5
400
100
AcDbEntity
  8
DRAFT
100
AcDbLine
 62
7
  6
CONTINUOUS
 10
22.4956284444
 20
-4.9979876978
 11
23.5281733795
 21
-4.9979876978
  0
LINE
  5
401
100
AcDbEntity
  8
ASSI
100
AcDbLine
 62
7
  6
CONTINUOUS
 10
22.4956284444
 20
-4.9979876978
 11
23.5281733795
 21
-4.9979876978
  0
LINE
  5
402
100
AcDbEntity
  8
DRAFT
100
AcDbLine
 62
7
  6
CONTINUOUS
 10
23.8411208586
 20
-4.3853722678
 11
23.5411208586
 21
-4.3853722678
  0
LINE
  5
403
100
AcDbEntity
  8
ASSI
100
AcDbLine
 62
7
  6
CONTINUOUS
 10
23.8411208586
 20
-4.3853722678
 11
23.5411208586
 21
-4.3853722678
  0
LINE
  5
404
100
AcDbEntity
  8
DRAFT
100
AcDbLine
 62
7
  6
CONTINUOUS
 10
-23.8498639697
 20
-4.3853722678
 11
-24.1498639697
 21
-4.3853722678
  0
LINE
  5
405
100
AcDbEntity
  8
ASSI
100
AcDbLine
 62
7
  6
CONTINUOUS
 10
-23.8498639697
 20
-4.3853722678
 11
-24.1498639697
 21
-4.3853722678
  0
LINE
  5
406
100
AcDbEntity
  8
DRAFT
100
AcDbLine
 62
7
  6
CONTINUOUS
 10
-23.8369164906
 20
-4.3724247887
 11
-23.0718266205
 21
-4.3724247887
  0
LINE
  5
407
100
AcDbEntity
  8
ASSI
100
AcDbLine
 62
7
  6
CONTINUOUS
 10
-23.8369164906
 20
-4.3724247887
 11
-23.0718266205
 21
-4.3724247887
  0
LINE
  5
408
100
AcDbEntity
  8
DRAFT
100
AcDbLine
 62
7
  6
CONTINUOUS
 10
23.5281733795
 20
-4.3724247887
 11
22.7630835094
 21
-4.3724247887
  0
LINE
  5
409
100
AcDbEntity
  8
ASSI
100
AcDbLine
 62
7
  6
CONTINUOUS
 10
23.5281733795
 20
-4.3724247887
 11
22.7630835094
 21
-4.3724247887
  0
LINE
  5
40A
100
AcDbEntity
  8
DRAFT
100
AcDbLine
 62
7
  6
CONTINUOUS
 10
-24.0760712056
 20
-4.3115795037
 11
-23.1326719055
 21
-4.3115795037
  0
LINE
  5
40B
100
AcDbEntity
  8
ASSI
100
AcDbLine
 62
7
  6
CONTINUOUS
 10
-24.0760712056
 20
-4.3115795037
 11
-23.1326719055
 21
-4.3115795037
  0
LINE
  5
40C
100
AcDbEntity
  8
DRAFT
100
AcDbLine
 62
7
  6
CONTINUOUS
 10
22.8239287944
 20
-4.3115795037
 11
23.7673280945
 21
-4.3115795037
  0
LINE
  5
40D
100
AcDbEntity
  8
ASSI
100
AcDbLine
 62
7
  6
CONTINUOUS
 10
22.8239287944
 20
-4.3115795037
 11
23.7673280945
 21
-4.3115795037
  0
LINE
  5
40E
100
AcDbEntity
  8
0
100
AcDbLine
 62
7
  6
CONTINUOUS
 10
-13.8418715556
 20
-3.7721808537
 11
-13.6293715556
 21
-3.7721808537
  0
LINE
  5
40F
100
AcDbEntity
  8
ASSI
100
AcDbLine
 62
7
  6
CONTINUOUS
 10
-13.8418715556
 20
-3.7721808537
 11
-13.6293715556
 21
-3.7721808537
  0
LINE
  5
410
100
AcDbEntity
  8
0
100
AcDbLine
 62
7
  6
CONTINUOUS
 10
-12.7793715556
 20
-3.7721808537
 11
-12.6022881884
 21
-3.7721808537
  0
LINE
  5
411
100
AcDbEntity
  8
ASSI
100
AcDbLine
 62
7
  6
CONTINUOUS
 10
-12.7793715556
 20
-3.7721808537
 11
-12.6022881884
 21
-3.7721808537
  0
LINE
  5
412
100
AcDbEntity
  8
0
100
AcDbLine
 62
7
  6
CONTINUOUS
 10
-11.2564548213
 20
-3.7721808537
 11
-11.0439548213
 21
-3.7721808537
  0
LINE
  5
413
100
AcDbEntity
  8
ASSI
100
AcDbLine
 62
7
  6
CONTINUOUS
 10
-11.2564548213
 20
-3.7721808537
 11
-11.0439548213
 21
-3.7721808537
  0
LINE
  5
414
100
AcDbEntity
  8
0
100
AcDbLine
 62
7
  6
CONTINUOUS
 10
-9.3793715556
 20
-3.7721808537
 11
-9.1668715556
 21
-3.7721808537
  0
LINE
  5
415
100
AcDbEntity
  8
ASSI
100
AcDbLine
 62
7
  6
CONTINUOUS
 10
-9.3793715556
 20
-3.7721808537
 11
-9.1668715556
 21
-3.7721808537
  0
LINE
  5
416
100
AcDbEntity
  8
0
100
AcDbLine
 62
7
  6
CONTINUOUS
 10
-8.5293715556
 20
-3.7721808537
 11
-7.2543715556
 21
-3.7721808537
  0
LINE
  5
417
100
AcDbEntity
  8
ASSI
100
AcDbLine
 62
7
  6
CONTINUOUS
 10
-8.5293715556
 20
-3.7721808537
 11
-7.2543715556
 21
-3.7721808537
  0
LINE
  5
418
100
AcDbEntity
  8
0
100
AcDbLine
 62
7
  6
CONTINUOUS
 10
7.5433524444
 20
-3.7721808537
 11
7.8560444444
 21
-3.7721808537
  0
LINE
  5
419
100
AcDbEntity
  8
ASSI
100
AcDbLine
 62
7
  6
CONTINUOUS
 10
7.5433524444
 20
-3.7721808537
 11
7.8560444444
 21
-3.7721808537
  0
LINE
  5
41A
100
AcDbEntity
  8
0
100
AcDbLine
 62
7
  6
CONTINUOUS
 10
8.5341264444
 20
-3.7721808537
 11
8.8889544444
 21
-3.7721808537
  0
LINE
  5
41B
100
AcDbEntity
  8
ASSI
100
AcDbLine
 62
7
  6
CONTINUOUS
 10
8.5341264444
 20
-3.7721808537
 11
8.8889544444
 21
-3.7721808537
  0
LINE
  5
41C
100
AcDbEntity
  8
0
100
AcDbLine
 62
7
  6
CONTINUOUS
 10
9.0799694444
 20
-3.7721808537
 11
9.4194244444
 21
-3.7721808537
  0
LINE
  5
41D
100
AcDbEntity
  8
ASSI
100
AcDbLine
 62
7
  6
CONTINUOUS
 10
9.0799694444
 20
-3.7721808537
 11
9.4194244444
 21
-3.7721808537
  0
LINE
  5
41E
100
AcDbEntity
  8
0
100
AcDbLine
 62
7
  6
CONTINUOUS
 10
9.9122524444
 20
-3.7721808537
 11
9.9620164444
 21
-3.7721808537
  0
LINE
  5
41F
100
AcDbEntity
  8
ASSI
100
AcDbLine
 62
7
  6
CONTINUOUS
 10
9.9122524444
 20
-3.7721808537
 11
9.9620164444
 21
-3.7721808537
  0
LINE
  5
420
100
AcDbEntity
  8
0
100
AcDbLine
 62
7
  6
CONTINUOUS
 10
10.4568084444
 20
-3.7721808537
 11
10.8039244444
 21
-3.7721808537
  0
LINE
  5
421
100
AcDbEntity
  8
ASSI
100
AcDbLine
 62
7
  6
CONTINUOUS
 10
10.4568084444
 20
-3.7721808537
 11
10.8039244444
 21
-3.7721808537
  0
LINE
  5
422
100
AcDbEntity
  8
0
100
AcDbLine
 62
7
  6
CONTINUOUS
 10
10.8596414444
 20
-3.7721808537
 11
11.2106194444
 21
-3.7721808537
  0
LINE
  5
423
100
AcDbEntity
  8
ASSI
100
AcDbLine
 62
7
  6
CONTINUOUS
 10
10.8596414444
 20
-3.7721808537
 11
11.2106194444
 21
-3.7721808537
  0
LINE
  5
424
100
AcDbEntity
  8
0
100
AcDbLine
 62
7
  6
CONTINUOUS
 10
11.8836664444
 20
-3.7721808537
 11
12.2576404444
 21
-3.7721808537
  0
LINE
  5
425
100
AcDbEntity
  8
ASSI
100
AcDbLine
 62
7
  6
CONTINUOUS
 10
11.8836664444
 20
-3.7721808537
 11
12.2576404444
 21
-3.7721808537
  0
LINE
  5
426
100
AcDbEntity
  8
0
100
AcDbLine
 62
7
  6
CONTINUOUS
 10
12.3618351084
 20
-3.7721805404
 11
12.7152354404
 21
-3.7721805404
  0
LINE
  5
427
100
AcDbEntity
  8
ASSI
100
AcDbLine
 62
7
  6
CONTINUOUS
 10
12.3618351084
 20
-3.7721805404
 11
12.7152354404
 21
-3.7721805404
  0
LINE
  5
428
100
AcDbEntity
  8
0
100
AcDbLine
 62
7
  6
CONTINUOUS
 10
13.2586056596
 20
-3.7721805404
 11
13.5999090029
 21
-3.7721805404
  0
LINE
  5
429
100
AcDbEntity
  8
ASSI
100
AcDbLine
 62
7
  6
CONTINUOUS
 10
13.2586056596
 20
-3.7721805404
 11
13.5999090029
 21
-3.7721805404
  0
LINE
  5
42A
100
AcDbEntity
  8
0
100
AcDbLine
 62
7
  6
CONTINUOUS
 10
-12.8147881884
 20
-3.5913297861
 11
-12.5668715556
 21
-3.5913297861
  0
LINE
  5
42B
100
AcDbEntity
  8
ASSI
100
AcDbLine
 62
7
  6
CONTINUOUS
 10
-12.8147881884
 20
-3.5913297861
 11
-12.5668715556
 21
-3.5913297861
  0
LINE
  5
42C
100
AcDbEntity
  8
0
100
AcDbLine
 62
7
  6
CONTINUOUS
 10
-11.2210382898
 20
-3.5913297861
 11
-11.0793715556
 21
-3.5913297861
  0
LINE
  5
42D
100
AcDbEntity
  8
ASSI
100
AcDbLine
 62
7
  6
CONTINUOUS
 10
-11.2210382898
 20
-3.5913297861
 11
-11.0793715556
 21
-3.5913297861
  0
LINE
  5
42E
100
AcDbEntity
  8
0
100
AcDbLine
 62
7
  6
CONTINUOUS
 10
-8.2460380871
 20
-3.5913297861
 11
-7.2543715556
 21
-3.5913297861
  0
LINE
  5
42F
100
AcDbEntity
  8
ASSI
100
AcDbLine
 62
7
  6
CONTINUOUS
 10
-8.2460380871
 20
-3.5913297861
 11
-7.2543715556
 21
-3.5913297861
  0
LINE
  5
430
100
AcDbEntity
  8
DRAFT
100
AcDbLine
 62
7
  6
CONTINUOUS
 10
22.2456284444
 20
-5.0237783007
 11
21.6956284444
 21
-5.0182355732
  0
LINE
  5
431
100
AcDbEntity
  8
ASSI
100
AcDbLine
 62
7
  6
CONTINUOUS
 10
22.2456284444
 20
-5.0237783007
 11
21.6956284444
 21
-5.0182355732
  0
LINE
  5
432
100
AcDbEntity
  8
0
100
AcDbLine
 62
7
  6
CONTINUOUS
 10
-12.4252049227
 20
-2.7232447072
 11
-12.6022881884
 21
-2.6870744987
  0
LINE
  5
433
100
AcDbEntity
  8
ASSI
100
AcDbLine
 62
7
  6
CONTINUOUS
 10
-12.4252049227
 20
-2.7232447072
 11
-12.6022881884
 21
-2.6870744987
  0
LINE
  5
434
100
AcDbEntity
  8
0
100
AcDbLine
 62
7
  6
CONTINUOUS
 10
-12.4606215556
 20
-2.1083510621
 11
-12.6377049227
 21
-2.0721808537
  0
LINE
  5
435
100
AcDbEntity
  8
ASSI
100
AcDbLine
 62
7
  6
CONTINUOUS
 10
-12.4606215556
 20
-2.1083510621
 11
-12.6377049227
 21
-2.0721808537
  0
LINE
  5
436
100
AcDbEntity
  8
0
100
AcDbLine
 62
7
  6
CONTINUOUS
 10
-10.9022882898
 20
-2.1083510621
 11
-11.0793715556
 21
-2.0721808537
  0
LINE
  5
437
100
AcDbEntity
  8
ASSI
100
AcDbLine
 62
7
  6
CONTINUOUS
 10
-10.9022882898
 20
-2.1083510621
 11
-11.0793715556
 21
-2.0721808537
  0
LINE
  5
438
100
AcDbEntity
  8
0
100
AcDbLine
 62
7
  6
CONTINUOUS
 10
-7.643955024
 20
-2.2892021044
 11
-7.8210380871
 21
-2.2530318959
  0
LINE
  5
439
100
AcDbEntity
  8
ASSI
100
AcDbLine
 62
7
  6
CONTINUOUS
 10
-7.643955024
 20
-2.2892021044
 11
-7.8210380871
 21
-2.2530318959
  0
LINE
  5
43A
100
AcDbEntity
  8
0
100
AcDbLine
 62
7
  6
CONTINUOUS
 10
-10.9377048213
 20
-2.2892021044
 11
-11.0793715556
 21
-2.2530318959
  0
LINE
  5
43B
100
AcDbEntity
  8
ASSI
100
AcDbLine
 62
7
  6
CONTINUOUS
 10
-10.9377048213
 20
-2.2892021044
 11
-11.0793715556
 21
-2.2530318959
  0
LINE
  5
43C
100
AcDbEntity
  8
0
100
AcDbLine
 62
7
  6
CONTINUOUS
 10
-7.431455024
 20
-2.180691479
 11
-7.5731215556
 21
-2.1083510621
  0
LINE
  5
43D
100
AcDbEntity
  8
ASSI
100
AcDbLine
 62
7
  6
CONTINUOUS
 10
-7.431455024
 20
-2.180691479
 11
-7.5731215556
 21
-2.1083510621
  0
LINE
  5
43E
100
AcDbEntity
  8
DRAFT
100
AcDbLine
 62
7
  6
CONTINUOUS
 10
-3.2966365286
 20
5.3601201463
 11
-3.2966365286
 21
3.7601201463
  0
LINE
  5
43F
100
AcDbEntity
  8
ASSI
100
AcDbLine
 62
7
  6
CONTINUOUS
 10
-3.2966365286
 20
5.3601201463
 11
-3.2966365286
 21
3.7601201463
  0
LINE
  5
440
100
AcDbEntity
  8
DRAFT
100
AcDbLine
 62
7
  6
CONTINUOUS
 10
-3.1543715556
 20
0.5601201463
 11
-3.1543715556
 21
3.7513926139
  0
LINE
  5
441
100
AcDbEntity
  8
ASSI
100
AcDbLine
 62
7
  6
CONTINUOUS
 10
-3.1543715556
 20
0.5601201463
 11
-3.1543715556
 21
3.7513926139
  0
LINE
  5
442
100
AcDbEntity
  8
DRAFT
100
AcDbLine
 62
7
  6
CONTINUOUS
 10
-3.1543715556
 20
5.3688476788
 11
-3.1543715556
 21
7.0601201463
  0
LINE
  5
443
100
AcDbEntity
  8
ASSI
100
AcDbLine
 62
7
  6
CONTINUOUS
 10
-3.1543715556
 20
5.3688476788
 11
-3.1543715556
 21
7.0601201463
  0
LINE
  5
444
100
AcDbEntity
  8
DRAFT
100
AcDbLine
 62
7
  6
CONTINUOUS
 10
-3.1218266205
 20
2.1426650814
 11
-3.1218266205
 21
3.7513926139
  0
LINE
  5
445
100
AcDbEntity
  8
DRAFT
100
AcDbLine
 62
7
  6
CONTINUOUS
 10
-3.1218266205
 20
5.3688476788
 11
-3.1218266205
 21
6.9775752113
  0
LINE
  5
446
100
AcDbEntity
  8
DRAFT
100
AcDbLine
 62
7
  6
CONTINUOUS
 10
-3.0543715556
 20
5.3643488972
 11
-3.0543715556
 21
3.7558913955
  0
LINE
  5
447
100
AcDbEntity
  8
ASSI
100
AcDbLine
 62
7
  6
CONTINUOUS
 10
-3.0543715556
 20
5.3643488972
 11
-3.0543715556
 21
3.7558913955
  0
LINE
  5
448
100
AcDbEntity
  8
DRAFT
100
AcDbLine
 62
7
  6
CONTINUOUS
 10
-2.6508805426
 20
6.9810662242
 11
-2.6508805426
 21
2.1391740684
  0
LINE
  5
449
100
AcDbEntity
  8
0
100
AcDbLine
 62
7
  6
CONTINUOUS
 10
-8.5293715556
 20
-3.5913297861
 11
-7.537705024
 21
-2.6870744987
  0
LINE
  5
44A
100
AcDbEntity
  8
ASSI
100
AcDbLine
 62
7
  6
CONTINUOUS
 10
-8.5293715556
 20
-3.5913297861
 11
-7.537705024
 21
-2.6870744987
  0
LINE
  5
44B
100
AcDbEntity
  8
0
100
AcDbLine
 62
7
  6
CONTINUOUS
 10
-8.2460380871
 20
-3.5913297861
 11
-7.3606215556
 21
-2.7955851241
  0
LINE
  5
44C
100
AcDbEntity
  8
ASSI
100
AcDbLine
 62
7
  6
CONTINUOUS
 10
-8.2460380871
 20
-3.5913297861
 11
-7.3606215556
 21
-2.7955851241
  0
LINE
  5
44D
100
AcDbEntity
  8
0
100
AcDbLine
 62
7
  6
CONTINUOUS
 10
-8.2460380871
 20
-2.3615425213
 11
-8.1397880871
 21
-2.2892021044
  0
LINE
  5
44E
100
AcDbEntity
  8
ASSI
100
AcDbLine
 62
7
  6
CONTINUOUS
 10
-8.2460380871
 20
-2.3615425213
 11
-8.1397880871
 21
-2.2892021044
  0
LINE
  5
44F
100
AcDbEntity
  8
0
100
AcDbLine
 62
7
  6
CONTINUOUS
 10
-10.8668715556
 20
-3.7360106421
 11
-10.6897882898
 21
-3.6275000072
  0
LINE
  5
450
100
AcDbEntity
  8
ASSI
100
AcDbLine
 62
7
  6
CONTINUOUS
 10
-10.8668715556
 20
-3.7360106421
 11
-10.6897882898
 21
-3.6275000072
  0
LINE
  5
451
100
AcDbEntity
  8
0
100
AcDbLine
 62
7
  6
CONTINUOUS
 10
-11.5752048213
 20
-2.9402659579
 11
-11.5043715556
 21
-2.9040957495
  0
LINE
  5
452
100
AcDbEntity
  8
ASSI
100
AcDbLine
 62
7
  6
CONTINUOUS
 10
-11.5752048213
 20
-2.9402659579
 11
-11.5043715556
 21
-2.9040957495
  0
LINE
  5
453
100
AcDbEntity
  8
0
100
AcDbLine
 62
7
  6
CONTINUOUS
 10
-11.5043715556
 20
-3.0849467917
 11
-11.3627048213
 21
-3.0126063748
  0
LINE
  5
454
100
AcDbEntity
  8
ASSI
100
AcDbLine
 62
7
  6
CONTINUOUS
 10
-11.5043715556
 20
-3.0849467917
 11
-11.3627048213
 21
-3.0126063748
  0
LINE
  5
455
100
AcDbEntity
  8
0
100
AcDbLine
 62
7
  6
CONTINUOUS
 10
-10.7960382898
 20
-2.9040957495
 11
-10.7252048213
 21
-2.867925541
  0
LINE
  5
456
100
AcDbEntity
  8
ASSI
100
AcDbLine
 62
7
  6
CONTINUOUS
 10
-10.7960382898
 20
-2.9040957495
 11
-10.7252048213
 21
-2.867925541
  0
LINE
  5
457
100
AcDbEntity
  8
0
100
AcDbLine
 62
7
  6
CONTINUOUS
 10
-8.3168715556
 20
-2.180691479
 11
-8.175205024
 21
-2.1083510621
  0
LINE
  5
458
100
AcDbEntity
  8
ASSI
100
AcDbLine
 62
7
  6
CONTINUOUS
 10
-8.3168715556
 20
-2.180691479
 11
-8.175205024
 21
-2.1083510621
  0
LINE
  5
459
100
AcDbEntity
  8
0
100
AcDbLine
 62
7
  6
CONTINUOUS
 10
-10.9377048213
 20
-3.5551595776
 11
-10.7960382898
 21
-3.4828191607
  0
LINE
  5
45A
100
AcDbEntity
  8
ASSI
100
AcDbLine
 62
7
  6
CONTINUOUS
 10
-10.9377048213
 20
-3.5551595776
 11
-10.7960382898
 21
-3.4828191607
  0
LINE
  5
45B
100
AcDbEntity
  8
0
100
AcDbLine
 62
7
  6
CONTINUOUS
 10
-12.9210381884
 20
-2.2892021044
 11
-12.8147881884
 21
-2.2530318959
  0
LINE
  5
45C
100
AcDbEntity
  8
ASSI
100
AcDbLine
 62
7
  6
CONTINUOUS
 10
-12.9210381884
 20
-2.2892021044
 11
-12.8147881884
 21
-2.2530318959
  0
LINE
  5
45D
100
AcDbEntity
  8
0
100
AcDbLine
 62
7
  6
CONTINUOUS
 10
-12.9210381884
 20
-2.9040957495
 11
-12.8147881884
 21
-2.867925541
  0
LINE
  5
45E
100
AcDbEntity
  8
ASSI
100
AcDbLine
 62
7
  6
CONTINUOUS
 10
-12.9210381884
 20
-2.9040957495
 11
-12.8147881884
 21
-2.867925541
  0
LINE
  5
45F
100
AcDbEntity
  8
0
100
AcDbLine
 62
7
  6
CONTINUOUS
 10
11.3085304444
 20
-3.4328278537
 11
11.7917474444
 21
-3.4328278537
  0
LINE
  5
460
100
AcDbEntity
  8
ASSI
100
AcDbLine
 62
7
  6
CONTINUOUS
 10
11.3085304444
 20
-3.4328278537
 11
11.7917474444
 21
-3.4328278537
  0
LINE
  5
461
100
AcDbEntity
  8
0
100
AcDbLine
 62
7
  6
CONTINUOUS
 10
-10.2293715556
 20
-3.2657978847
 11
-9.3793715556
 21
-3.2657978847
  0
LINE
  5
462
100
AcDbEntity
  8
ASSI
100
AcDbLine
 62
7
  6
CONTINUOUS
 10
-10.2293715556
 20
-3.2657978847
 11
-9.3793715556
 21
-3.2657978847
  0
LINE
  5
463
100
AcDbEntity
  8
0
100
AcDbLine
 62
7
  6
CONTINUOUS
 10
-9.1668715556
 20
-3.2657978847
 11
-8.812705024
 21
-3.2657978847
  0
LINE
  5
464
100
AcDbEntity
  8
ASSI
100
AcDbLine
 62
7
  6
CONTINUOUS
 10
-9.1668715556
 20
-3.2657978847
 11
-8.812705024
 21
-3.2657978847
  0
LINE
  5
465
100
AcDbEntity
  8
0
100
AcDbLine
 62
7
  6
CONTINUOUS
 10
11.3811124444
 20
-3.1702378537
 11
11.7208344444
 21
-3.1702378537
  0
LINE
  5
466
100
AcDbEntity
  8
ASSI
100
AcDbLine
 62
7
  6
CONTINUOUS
 10
11.3811124444
 20
-3.1702378537
 11
11.7208344444
 21
-3.1702378537
  0
LINE
  5
467
100
AcDbEntity
  8
0
100
AcDbLine
 62
7
  6
CONTINUOUS
 10
12.7152354404
 20
-3.1069481378
 11
12.9054857635
 21
-3.1069481378
  0
LINE
  5
468
100
AcDbEntity
  8
ASSI
100
AcDbLine
 62
7
  6
CONTINUOUS
 10
12.7152354404
 20
-3.1069481378
 11
12.9054857635
 21
-3.1069481378
  0
LINE
  5
469
100
AcDbEntity
  8
0
100
AcDbLine
 62
7
  6
CONTINUOUS
 10
-9.981455024
 20
-3.0487765833
 11
-9.3793715556
 21
-3.0487765833
  0
LINE
  5
46A
100
AcDbEntity
  8
ASSI
100
AcDbLine
 62
7
  6
CONTINUOUS
 10
-9.981455024
 20
-3.0487765833
 11
-9.3793715556
 21
-3.0487765833
  0
LINE
  5
46B
100
AcDbEntity
  8
0
100
AcDbLine
 62
7
  6
CONTINUOUS
 10
-9.1668715556
 20
-3.0487765833
 11
-8.812705024
 21
-3.0487765833
  0
LINE
  5
46C
100
AcDbEntity
  8
ASSI
100
AcDbLine
 62
7
  6
CONTINUOUS
 10
-9.1668715556
 20
-3.0487765833
 11
-8.812705024
 21
-3.0487765833
  0
LINE
  5
46D
100
AcDbEntity
  8
0
100
AcDbLine
 62
7
  6
CONTINUOUS
 10
-11.2210382898
 20
-2.9764361664
 11
-11.0793715556
 21
-2.9764361664
  0
LINE
  5
46E
100
AcDbEntity
  8
ASSI
100
AcDbLine
 62
7
  6
CONTINUOUS
 10
-11.2210382898
 20
-2.9764361664
 11
-11.0793715556
 21
-2.9764361664
  0
LINE
  5
46F
100
AcDbEntity
  8
0
100
AcDbLine
 62
7
  6
CONTINUOUS
 10
-12.8147881884
 20
-2.867925541
 11
-12.5668715556
 21
-2.867925541
  0
LINE
  5
470
100
AcDbEntity
  8
ASSI
100
AcDbLine
 62
7
  6
CONTINUOUS
 10
-12.8147881884
 20
-2.867925541
 11
-12.5668715556
 21
-2.867925541
  0
LINE
  5
471
100
AcDbEntity
  8
0
100
AcDbLine
 62
7
  6
CONTINUOUS
 10
-11.2210382898
 20
-2.8317553325
 11
-11.0793715556
 21
-2.8317553325
  0
LINE
  5
472
100
AcDbEntity
  8
ASSI
100
AcDbLine
 62
7
  6
CONTINUOUS
 10
-11.2210382898
 20
-2.8317553325
 11
-11.0793715556
 21
-2.8317553325
  0
LINE
  5
473
100
AcDbEntity
  8
0
100
AcDbLine
 62
7
  6
CONTINUOUS
 10
12.7034698761
 20
-2.8285516852
 11
12.9062505889
 21
-2.8285516852
  0
LINE
  5
474
100
AcDbEntity
  8
ASSI
100
AcDbLine
 62
7
  6
CONTINUOUS
 10
12.7034698761
 20
-2.8285516852
 11
12.9062505889
 21
-2.8285516852
  0
LINE
  5
475
100
AcDbEntity
  8
0
100
AcDbLine
 62
7
  6
CONTINUOUS
 10
-12.7793715556
 20
-2.6870744987
 11
-12.6022881884
 21
-2.6870744987
  0
LINE
  5
476
100
AcDbEntity
  8
ASSI
100
AcDbLine
 62
7
  6
CONTINUOUS
 10
-12.7793715556
 20
-2.6870744987
 11
-12.6022881884
 21
-2.6870744987
  0
LINE
  5
477
100
AcDbEntity
  8
0
100
AcDbLine
 62
7
  6
CONTINUOUS
 10
-12.3189548213
 20
-2.4700531467
 11
-12.1418715556
 21
-2.4700531467
  0
LINE
  5
478
100
AcDbEntity
  8
ASSI
100
AcDbLine
 62
7
  6
CONTINUOUS
 10
-12.3189548213
 20
-2.4700531467
 11
-12.1418715556
 21
-2.4700531467
  0
LINE
  5
479
100
AcDbEntity
  8
0
100
AcDbLine
 62
7
  6
CONTINUOUS
 10
-8.493955024
 20
-2.4700531467
 11
-8.3168715556
 21
-2.4700531467
  0
LINE
  5
47A
100
AcDbEntity
  8
ASSI
100
AcDbLine
 62
7
  6
CONTINUOUS
 10
-8.493955024
 20
-2.4700531467
 11
-8.3168715556
 21
-2.4700531467
  0
LINE
  5
47B
100
AcDbEntity
  8
0
100
AcDbLine
 62
7
  6
CONTINUOUS
 10
-12.8147881884
 20
-2.2530318959
 11
-12.6022881884
 21
-2.2530318959
  0
LINE
  5
47C
100
AcDbEntity
  8
ASSI
100
AcDbLine
 62
7
  6
CONTINUOUS
 10
-12.8147881884
 20
-2.2530318959
 11
-12.6022881884
 21
-2.2530318959
  0
LINE
  5
47D
100
AcDbEntity
  8
0
100
AcDbLine
 62
7
  6
CONTINUOUS
 10
-11.2210382898
 20
-2.2530318959
 11
-11.0793715556
 21
-2.2530318959
  0
LINE
  5
47E
100
AcDbEntity
  8
ASSI
100
AcDbLine
 62
7
  6
CONTINUOUS
 10
-11.2210382898
 20
-2.2530318959
 11
-11.0793715556
 21
-2.2530318959
  0
LINE
  5
47F
100
AcDbEntity
  8
0
100
AcDbLine
 62
7
  6
CONTINUOUS
 10
-7.962705024
 20
-2.2530318959
 11
-7.8210380871
 21
-2.2530318959
  0
LINE
  5
480
100
AcDbEntity
  8
ASSI
100
AcDbLine
 62
7
  6
CONTINUOUS
 10
-7.962705024
 20
-2.2530318959
 11
-7.8210380871
 21
-2.2530318959
  0
LINE
  5
481
100
AcDbEntity
  8
0
100
AcDbLine
 62
7
  6
CONTINUOUS
 10
7.0044624444
 20
-2.0723178537
 11
7.3899154444
 21
-2.0723178537
  0
LINE
  5
482
100
AcDbEntity
  8
ASSI
100
AcDbLine
 62
7
  6
CONTINUOUS
 10
7.0044624444
 20
-2.0723178537
 11
7.3899154444
 21
-2.0723178537
  0
LINE
  5
483
100
AcDbEntity
  8
0
100
AcDbLine
 62
7
  6
CONTINUOUS
 10
8.0478624444
 20
-2.0723178537
 11
8.4024484444
 21
-2.0723178537
  0
LINE
  5
484
100
AcDbEntity
  8
ASSI
100
AcDbLine
 62
7
  6
CONTINUOUS
 10
8.0478624444
 20
-2.0723178537
 11
8.4024484444
 21
-2.0723178537
  0
LINE
  5
485
100
AcDbEntity
  8
0
100
AcDbLine
 62
7
  6
CONTINUOUS
 10
9.2334564444
 20
-2.0723178537
 11
9.5879914444
 21
-2.0723178537
  0
LINE
  5
486
100
AcDbEntity
  8
ASSI
100
AcDbLine
 62
7
  6
CONTINUOUS
 10
9.2334564444
 20
-2.0723178537
 11
9.5879914444
 21
-2.0723178537
  0
LINE
  5
487
100
AcDbEntity
  8
0
100
AcDbLine
 62
7
  6
CONTINUOUS
 10
10.2939004444
 20
-2.0723178537
 11
10.6449674444
 21
-2.0723178537
  0
LINE
  5
488
100
AcDbEntity
  8
ASSI
100
AcDbLine
 62
7
  6
CONTINUOUS
 10
10.2939004444
 20
-2.0723178537
 11
10.6449674444
 21
-2.0723178537
  0
LINE
  5
489
100
AcDbEntity
  8
0
100
AcDbLine
 62
7
  6
CONTINUOUS
 10
11.3928264444
 20
-2.0723178537
 11
11.7360804444
 21
-2.0723178537
  0
LINE
  5
48A
100
AcDbEntity
  8
ASSI
100
AcDbLine
 62
7
  6
CONTINUOUS
 10
11.3928264444
 20
-2.0723178537
 11
11.7360804444
 21
-2.0723178537
  0
LINE
  5
48B
100
AcDbEntity
  8
0
100
AcDbLine
 62
7
  6
CONTINUOUS
 10
8.5341264444
 20
-2.0722158537
 11
8.8889544444
 21
-2.0722158537
  0
LINE
  5
48C
100
AcDbEntity
  8
ASSI
100
AcDbLine
 62
7
  6
CONTINUOUS
 10
8.5341264444
 20
-2.0722158537
 11
8.8889544444
 21
-2.0722158537
  0
LINE
  5
48D
100
AcDbEntity
  8
0
100
AcDbLine
 62
7
  6
CONTINUOUS
 10
-13.8418715556
 20
-2.0721808537
 11
-13.6293715556
 21
-2.0721808537
  0
LINE
  5
48E
100
AcDbEntity
  8
ASSI
100
AcDbLine
 62
7
  6
CONTINUOUS
 10
-13.8418715556
 20
-2.0721808537
 11
-13.6293715556
 21
-2.0721808537
  0
LINE
  5
48F
100
AcDbEntity
  8
0
100
AcDbLine
 62
7
  6
CONTINUOUS
 10
-12.7793715556
 20
-2.0721808537
 11
-12.6377049227
 21
-2.0721808537
  0
LINE
  5
490
100
AcDbEntity
  8
ASSI
100
AcDbLine
 62
7
  6
CONTINUOUS
 10
-12.7793715556
 20
-2.0721808537
 11
-12.6377049227
 21
-2.0721808537
  0
LINE
  5
491
100
AcDbEntity
  8
0
100
AcDbLine
 62
7
  6
CONTINUOUS
 10
-11.2210382898
 20
-2.0721808537
 11
-11.0793715556
 21
-2.0721808537
  0
LINE
  5
492
100
AcDbEntity
  8
ASSI
100
AcDbLine
 62
7
  6
CONTINUOUS
 10
-11.2210382898
 20
-2.0721808537
 11
-11.0793715556
 21
-2.0721808537
  0
LINE
  5
493
100
AcDbEntity
  8
0
100
AcDbLine
 62
7
  6
CONTINUOUS
 10
-9.3793715556
 20
-2.0721808537
 11
-9.1668715556
 21
-2.0721808537
  0
LINE
  5
494
100
AcDbEntity
  8
ASSI
100
AcDbLine
 62
7
  6
CONTINUOUS
 10
-9.3793715556
 20
-2.0721808537
 11
-9.1668715556
 21
-2.0721808537
  0
LINE
  5
495
100
AcDbEntity
  8
0
100
AcDbLine
 62
7
  6
CONTINUOUS
 10
-7.9272880871
 20
-2.0721808537
 11
-7.7856215556
 21
-2.0721808537
  0
LINE
  5
496
100
AcDbEntity
  8
ASSI
100
AcDbLine
 62
7
  6
CONTINUOUS
 10
-7.9272880871
 20
-2.0721808537
 11
-7.7856215556
 21
-2.0721808537
  0
LINE
  5
497
100
AcDbEntity
  8
DRAFT
100
AcDbLine
 62
7
  6
CONTINUOUS
 10
-24.0748837975
 20
-1.9693676117
 11
-23.1338593136
 21
-1.9693676117
  0
LINE
  5
498
100
AcDbEntity
  8
ASSI
100
AcDbLine
 62
7
  6
CONTINUOUS
 10
-24.0748837975
 20
-1.9693676117
 11
-23.1338593136
 21
-1.9693676117
  0
LINE
  5
499
100
AcDbEntity
  8
DRAFT
100
AcDbLine
 62
7
  6
CONTINUOUS
 10
22.8251162025
 20
-1.9693676117
 11
23.7661406864
 21
-1.9693676117
  0
LINE
  5
49A
100
AcDbEntity
  8
ASSI
100
AcDbLine
 62
7
  6
CONTINUOUS
 10
22.8251162025
 20
-1.9693676117
 11
23.7661406864
 21
-1.9693676117
  0
LINE
  5
49B
100
AcDbEntity
  8
DRAFT
100
AcDbLine
 62
7
  6
CONTINUOUS
 10
-24.9543715556
 20
-1.9283882903
 11
-24.1543715556
 21
-1.9283882903
  0
LINE
  5
49C
100
AcDbEntity
  8
ASSI
100
AcDbLine
 62
7
  6
CONTINUOUS
 10
-24.9543715556
 20
-1.9283882903
 11
-24.1543715556
 21
-1.9283882903
  0
LINE
  5
49D
100
AcDbEntity
  8
DRAFT
100
AcDbLine
 62
7
  6
CONTINUOUS
 10
23.8456284444
 20
-1.9283882903
 11
24.6456284444
 21
-1.9283882903
  0
LINE
  5
49E
100
AcDbEntity
  8
ASSI
100
AcDbLine
 62
7
  6
CONTINUOUS
 10
23.8456284444
 20
-1.9283882903
 11
24.6456284444
 21
-1.9283882903
  0
LINE
  5
49F
100
AcDbEntity
  8
DRAFT
100
AcDbLine
 62
7
  6
CONTINUOUS
 10
-23.8369164906
 20
-1.9073349186
 11
-23.0718266205
 21
-1.9073349186
  0
LINE
  5
4A0
100
AcDbEntity
  8
ASSI
100
AcDbLine
 62
7
  6
CONTINUOUS
 10
-23.8369164906
 20
-1.9073349186
 11
-23.0718266205
 21
-1.9073349186
  0
LINE
  5
4A1
100
AcDbEntity
  8
DRAFT
100
AcDbLine
 62
7
  6
CONTINUOUS
 10
23.5281733795
 20
-1.9073349186
 11
22.7630835094
 21
-1.9073349186
  0
LINE
  5
4A2
100
AcDbEntity
  8
ASSI
100
AcDbLine
 62
7
  6
CONTINUOUS
 10
23.5281733795
 20
-1.9073349186
 11
22.7630835094
 21
-1.9073349186
  0
LINE
  5
4A3
100
AcDbEntity
  8
DRAFT
100
AcDbLine
 62
7
  6
CONTINUOUS
 10
-24.1543715556
 20
-1.8898798537
 11
-23.8543715556
 21
-1.8898798537
  0
LINE
  5
4A4
100
AcDbEntity
  8
ASSI
100
AcDbLine
 62
7
  6
CONTINUOUS
 10
-24.1543715556
 20
-1.8898798537
 11
-23.8543715556
 21
-1.8898798537
  0
LINE
  5
4A5
100
AcDbEntity
  8
DRAFT
100
AcDbLine
 62
7
  6
CONTINUOUS
 10
23.5456284444
 20
-1.8898798537
 11
23.8456284444
 21
-1.8898798537
  0
LINE
  5
4A6
100
AcDbEntity
  8
ASSI
100
AcDbLine
 62
7
  6
CONTINUOUS
 10
23.5456284444
 20
-1.8898798537
 11
23.8456284444
 21
-1.8898798537
  0
LINE
  5
4A7
100
AcDbEntity
  8
0
100
AcDbLine
 62
7
  6
CONTINUOUS
 10
-7.5731215556
 20
-2.1083510621
 11
-7.7856215556
 21
-2.0721808537
  0
LINE
  5
4A8
100
AcDbEntity
  8
ASSI
100
AcDbLine
 62
7
  6
CONTINUOUS
 10
-7.5731215556
 20
-2.1083510621
 11
-7.7856215556
 21
-2.0721808537
  0
LINE
  5
4A9
100
AcDbEntity
  8
RACCORDO
100
AcDbLine
 62
253
  6
CONTINUOUS
 10
-6.9192347447
 20
-6.5047887342
 11
-6.9491807345
 21
-6.5347347241
  0
LINE
  5
4AA
100
AcDbEntity
  8
ASSI
100
AcDbLine
 62
253
  6
CONTINUOUS
 10
-6.9192347447
 20
-6.5047887342
 11
-6.9491807345
 21
-6.5347347241
  0
LINE
  5
4AB
100
AcDbEntity
  8
RACCORDO
100
AcDbLine
 62
253
  6
CONTINUOUS
 10
-6.619476128
 20
-6.8049387347
 11
-6.6492264259
 21
-6.8346890326
  0
LINE
  5
4AC
100
AcDbEntity
  8
ASSI
100
AcDbLine
 62
253
  6
CONTINUOUS
 10
-6.619476128
 20
-6.8049387347
 11
-6.6492264259
 21
-6.8346890326
  0
LINE
  5
4AD
100
AcDbEntity
  8
0
100
AcDbLine
 62
7
  6
CONTINUOUS
 10
-12.5668715556
 20
-3.5913297861
 11
-12.4606215556
 21
-3.5551595776
  0
LINE
  5
4AE
100
AcDbEntity
  8
ASSI
100
AcDbLine
 62
7
  6
CONTINUOUS
 10
-12.5668715556
 20
-3.5913297861
 11
-12.4606215556
 21
-3.5551595776
  0
LINE
  5
4AF
100
AcDbEntity
  8
0
100
AcDbLine
 62
7
  6
CONTINUOUS
 10
-11.0793715556
 20
-3.5913297861
 11
-10.9377048213
 21
-3.5551595776
  0
LINE
  5
4B0
100
AcDbEntity
  8
ASSI
100
AcDbLine
 62
7
  6
CONTINUOUS
 10
-11.0793715556
 20
-3.5913297861
 11
-10.9377048213
 21
-3.5551595776
  0
LINE
  5
4B1
100
AcDbEntity
  8
0
100
AcDbLine
 62
7
  6
CONTINUOUS
 10
-11.3627048213
 20
-3.0126063748
 11
-11.2210382898
 21
-2.9764361664
  0
LINE
  5
4B2
100
AcDbEntity
  8
ASSI
100
AcDbLine
 62
7
  6
CONTINUOUS
 10
-11.3627048213
 20
-3.0126063748
 11
-11.2210382898
 21
-2.9764361664
  0
LINE
  5
4B3
100
AcDbEntity
  8
0
100
AcDbLine
 62
7
  6
CONTINUOUS
 10
-11.0439548213
 20
-3.7721808537
 11
-10.8668715556
 21
-3.7360106421
  0
LINE
  5
4B4
100
AcDbEntity
  8
ASSI
100
AcDbLine
 62
7
  6
CONTINUOUS
 10
-11.0439548213
 20
-3.7721808537
 11
-10.8668715556
 21
-3.7360106421
  0
LINE
  5
4B5
100
AcDbEntity
  8
0
100
AcDbLine
 62
7
  6
CONTINUOUS
 10
-12.6022881884
 20
-3.7721808537
 11
-12.4252049227
 21
-3.7360106421
  0
LINE
  5
4B6
100
AcDbEntity
  8
ASSI
100
AcDbLine
 62
7
  6
CONTINUOUS
 10
-12.6022881884
 20
-3.7721808537
 11
-12.4252049227
 21
-3.7360106421
  0
LINE
  5
4B7
100
AcDbEntity
  8
0
100
AcDbLine
 62
7
  6
CONTINUOUS
 10
-8.1397880871
 20
-2.2892021044
 11
-7.962705024
 21
-2.2530318959
  0
LINE
  5
4B8
100
AcDbEntity
  8
ASSI
100
AcDbLine
 62
7
  6
CONTINUOUS
 10
-8.1397880871
 20
-2.2892021044
 11
-7.962705024
 21
-2.2530318959
  0
LINE
  5
4B9
100
AcDbEntity
  8
0
100
AcDbLine
 62
7
  6
CONTINUOUS
 10
-12.9564549227
 20
-2.7232447072
 11
-12.7793715556
 21
-2.6870744987
  0
LINE
  5
4BA
100
AcDbEntity
  8
ASSI
100
AcDbLine
 62
7
  6
CONTINUOUS
 10
-12.9564549227
 20
-2.7232447072
 11
-12.7793715556
 21
-2.6870744987
  0
LINE
  5
4BB
100
AcDbEntity
  8
0
100
AcDbLine
 62
7
  6
CONTINUOUS
 10
-8.175205024
 20
-2.1083510621
 11
-7.9272880871
 21
-2.0721808537
  0
LINE
  5
4BC
100
AcDbEntity
  8
ASSI
100
AcDbLine
 62
7
  6
CONTINUOUS
 10
-8.175205024
 20
-2.1083510621
 11
-7.9272880871
 21
-2.0721808537
  0
LINE
  5
4BD
100
AcDbEntity
  8
DRAFT
100
AcDbLine
 62
7
  6
CONTINUOUS
 10
-22.0043715556
 20
-1.2678079576
 11
-22.8043715556
 21
-1.2817720095
  0
LINE
  5
4BE
100
AcDbEntity
  8
ASSI
100
AcDbLine
 62
7
  6
CONTINUOUS
 10
-22.0043715556
 20
-1.2678079576
 11
-22.8043715556
 21
-1.2817720095
  0
LINE
  5
4BF
100
AcDbEntity
  8
DRAFT
100
AcDbLine
 62
7
  6
CONTINUOUS
 10
21.6956284444
 20
-1.2615241342
 11
22.2456284444
 21
-1.2559814066
  0
LINE
  5
4C0
100
AcDbEntity
  8
ASSI
100
AcDbLine
 62
7
  6
CONTINUOUS
 10
21.6956284444
 20
-1.2615241342
 11
22.2456284444
 21
-1.2559814066
  0
LINE
  5
4C1
100
AcDbEntity
  8
DRAFT
100
AcDbLine
 62
7
  6
CONTINUOUS
 10
23.5281733795
 20
-1.2817720095
 11
22.4956284444
 21
-1.2817720095
  0
LINE
  5
4C2
100
AcDbEntity
  8
ASSI
100
AcDbLine
 62
7
  6
CONTINUOUS
 10
23.5281733795
 20
-1.2817720095
 11
22.4956284444
 21
-1.2817720095
  0
LINE
  5
4C3
100
AcDbEntity
  8
DRAFT
100
AcDbLine
 62
7
  6
CONTINUOUS
 10
-22.8043715556
 20
-1.2817720095
 11
-23.8369164906
 21
-1.2817720095
  0
LINE
  5
4C4
100
AcDbEntity
  8
ASSI
100
AcDbLine
 62
7
  6
CONTINUOUS
 10
-22.8043715556
 20
-1.2817720095
 11
-23.8369164906
 21
-1.2817720095
  0
LINE
  5
4C5
100
AcDbEntity
  8
RACCORDO
100
AcDbLine
 62
7
  6
CONTINUOUS
 10
-23.4797406691
 20
-1.2194069385
 11
-22.5543715556
 21
-1.2194069385
  0
LINE
  5
4C6
100
AcDbEntity
  8
ASSI
100
AcDbLine
 62
7
  6
CONTINUOUS
 10
-23.4797406691
 20
-1.2194069385
 11
-22.5543715556
 21
-1.2194069385
  0
LINE
  5
4C7
100
AcDbEntity
  8
RACCORDO
100
AcDbLine
 62
7
  6
CONTINUOUS
 10
22.2456284444
 20
-1.2194069385
 11
23.170997558
 21
-1.2194069385
  0
LINE
  5
4C8
100
AcDbEntity
  8
ASSI
100
AcDbLine
 62
7
  6
CONTINUOUS
 10
22.2456284444
 20
-1.2194069385
 11
23.170997558
 21
-1.2194069385
  0
LINE
  5
4C9
100
AcDbEntity
  8
DRAFT
100
AcDbLine
 62
7
  6
CONTINUOUS
 10
-22.5543715556
 20
-1.2559814066
 11
-22.0043715556
 21
-1.2615241342
  0
LINE
  5
4CA
100
AcDbEntity
  8
ASSI
100
AcDbLine
 62
7
  6
CONTINUOUS
 10
-22.5543715556
 20
-1.2559814066
 11
-22.0043715556
 21
-1.2615241342
  0
LINE
  5
4CB
100
AcDbEntity
  8
DRAFT
100
AcDbLine
 62
7
  6
CONTINUOUS
 10
22.4956284444
 20
-1.2817720095
 11
21.6956284444
 21
-1.2678079576
  0
LINE
  5
4CC
100
AcDbEntity
  8
ASSI
100
AcDbLine
 62
7
  6
CONTINUOUS
 10
22.4956284444
 20
-1.2817720095
 11
21.6956284444
 21
-1.2678079576
  0
LINE
  5
4CD
100
AcDbEntity
  8
RACCORDO
100
AcDbLine
 62
253
  6
CONTINUOUS
 10
6.3404833148
 20
-6.8346890326
 11
6.3107330169
 21
-6.8049387347
  0
LINE
  5
4CE
100
AcDbEntity
  8
ASSI
100
AcDbLine
 62
253
  6
CONTINUOUS
 10
6.3404833148
 20
-6.8346890326
 11
6.3107330169
 21
-6.8049387347
  0
LINE
  5
4CF
100
AcDbEntity
  8
0
100
AcDbLine
 62
7
  6
CONTINUOUS
 10
-11.0793715556
 20
-2.8317553325
 11
-10.9377048213
 21
-2.7955851241
  0
LINE
  5
4D0
100
AcDbEntity
  8
ASSI
100
AcDbLine
 62
7
  6
CONTINUOUS
 10
-11.0793715556
 20
-2.8317553325
 11
-10.9377048213
 21
-2.7955851241
  0
LINE
  5
4D1
100
AcDbEntity
  8
0
100
AcDbLine
 62
7
  6
CONTINUOUS
 10
-11.3627048213
 20
-2.2892021044
 11
-11.2210382898
 21
-2.2530318959
  0
LINE
  5
4D2
100
AcDbEntity
  8
ASSI
100
AcDbLine
 62
7
  6
CONTINUOUS
 10
-11.3627048213
 20
-2.2892021044
 11
-11.2210382898
 21
-2.2530318959
  0
LINE
  5
4D3
100
AcDbEntity
  8
0
100
AcDbLine
 62
7
  6
CONTINUOUS
 10
-11.3981215556
 20
-2.1083510621
 11
-11.2210382898
 21
-2.0721808537
  0
LINE
  5
4D4
100
AcDbEntity
  8
ASSI
100
AcDbLine
 62
7
  6
CONTINUOUS
 10
-11.3981215556
 20
-2.1083510621
 11
-11.2210382898
 21
-2.0721808537
  0
LINE
  5
4D5
100
AcDbEntity
  8
0
100
AcDbLine
 62
7
  6
CONTINUOUS
 10
-12.9564549227
 20
-2.1083510621
 11
-12.7793715556
 21
-2.0721808537
  0
LINE
  5
4D6
100
AcDbEntity
  8
ASSI
100
AcDbLine
 62
7
  6
CONTINUOUS
 10
-12.9564549227
 20
-2.1083510621
 11
-12.7793715556
 21
-2.0721808537
  0
LINE
  5
4D7
100
AcDbEntity
  8
0
100
AcDbLine
 62
7
  6
CONTINUOUS
 10
-3.1543715556
 20
0.5601201463
 11
2.8456284444
 21
0.5601201463
  0
LINE
  5
4D8
100
AcDbEntity
  8
ASSI
100
AcDbLine
 62
7
  6
CONTINUOUS
 10
-3.1543715556
 20
0.5601201463
 11
2.8456284444
 21
0.5601201463
  0
LINE
  5
4D9
100
AcDbEntity
  8
RACCORDO
100
AcDbLine
 62
7
  6
CONTINUOUS
 10
23.1702050696
 20
0.8388541811
 11
22.1743624792
 21
0.8388541811
  0
LINE
  5
4DA
100
AcDbEntity
  8
ASSI
100
AcDbLine
 62
7
  6
CONTINUOUS
 10
23.1702050696
 20
0.8388541811
 11
22.1743624792
 21
0.8388541811
  0
LINE
  5
4DB
100
AcDbEntity
  8
RACCORDO
100
AcDbLine
 62
7
  6
CONTINUOUS
 10
-22.4831055904
 20
0.8388541811
 11
-23.4789481807
 21
0.8388541811
  0
LINE
  5
4DC
100
AcDbEntity
  8
ASSI
100
AcDbLine
 62
7
  6
CONTINUOUS
 10
-22.4831055904
 20
0.8388541811
 11
-23.4789481807
 21
0.8388541811
  0
LINE
  5
4DD
100
AcDbEntity
  8
RACCORDO
100
AcDbLine
 62
7
  6
CONTINUOUS
 10
-23.8299344647
 20
0.8950302762
 11
-22.8340908643
 21
0.8950302762
  0
LINE
  5
4DE
100
AcDbEntity
  8
ASSI
100
AcDbLine
 62
7
  6
CONTINUOUS
 10
-23.8299344647
 20
0.8950302762
 11
-22.8340908643
 21
0.8950302762
  0
LINE
  5
4DF
100
AcDbEntity
  8
RACCORDO
100
AcDbLine
 62
7
  6
CONTINUOUS
 10
22.5253477532
 20
0.8950302762
 11
23.5211913535
 21
0.8950302762
  0
LINE
  5
4E0
100
AcDbEntity
  8
ASSI
100
AcDbLine
 62
7
  6
CONTINUOUS
 10
22.5253477532
 20
0.8950302762
 11
23.5211913535
 21
0.8950302762
  0
LINE
  5
4E1
100
AcDbEntity
  8
RACCORDO
100
AcDbLine
 62
7
  6
CONTINUOUS
 10
23.5211913535
 20
1.5252100165
 11
22.5253477532
 21
1.5252100165
  0
LINE
  5
4E2
100
AcDbEntity
  8
ASSI
100
AcDbLine
 62
7
  6
CONTINUOUS
 10
23.5211913535
 20
1.5252100165
 11
22.5253477532
 21
1.5252100165
  0
LINE
  5
4E3
100
AcDbEntity
  8
RACCORDO
100
AcDbLine
 62
7
  6
CONTINUOUS
 10
-22.8340908643
 20
1.5252100165
 11
-23.8299344647
 21
1.5252100165
  0
LINE
  5
4E4
100
AcDbEntity
  8
ASSI
100
AcDbLine
 62
7
  6
CONTINUOUS
 10
-22.8340908643
 20
1.5252100165
 11
-23.8299344647
 21
1.5252100165
  0
LINE
  5
4E5
100
AcDbEntity
  8
RACCORDO
100
AcDbLine
 62
7
  6
CONTINUOUS
 10
-23.4787050443
 20
1.5816294202
 11
-22.4828622817
 21
1.5816294202
  0
LINE
  5
4E6
100
AcDbEntity
  8
ASSI
100
AcDbLine
 62
7
  6
CONTINUOUS
 10
-23.4787050443
 20
1.5816294202
 11
-22.4828622817
 21
1.5816294202
  0
LINE
  5
4E7
100
AcDbEntity
  8
RACCORDO
100
AcDbLine
 62
7
  6
CONTINUOUS
 10
22.1741191706
 20
1.5816294202
 11
23.1699619332
 21
1.5816294202
  0
LINE
  5
4E8
100
AcDbEntity
  8
ASSI
100
AcDbLine
 62
7
  6
CONTINUOUS
 10
22.1741191706
 20
1.5816294202
 11
23.1699619332
 21
1.5816294202
  0
LINE
  5
4E9
100
AcDbEntity
  8
RACCORDO
100
AcDbLine
 62
253
  6
CONTINUOUS
 10
6.6404376234
 20
-6.5347347241
 11
6.6104916336
 21
-6.5047887342
  0
LINE
  5
4EA
100
AcDbEntity
  8
ASSI
100
AcDbLine
 62
253
  6
CONTINUOUS
 10
6.6404376234
 20
-6.5347347241
 11
6.6104916336
 21
-6.5047887342
  0
LINE
  5
4EB
100
AcDbEntity
  8
DRAFT
100
AcDbLine
 62
7
  6
CONTINUOUS
 10
2.3421374315
 20
6.9810662242
 11
2.3421374315
 21
2.1391740684
  0
LINE
  5
4EC
100
AcDbEntity
  8
DRAFT
100
AcDbLine
 62
7
  6
CONTINUOUS
 10
2.7456284444
 20
5.3643488972
 11
2.7456284444
 21
3.7558913955
  0
LINE
  5
4ED
100
AcDbEntity
  8
ASSI
100
AcDbLine
 62
7
  6
CONTINUOUS
 10
2.7456284444
 20
5.3643488972
 11
2.7456284444
 21
3.7558913955
  0
LINE
  5
4EE
100
AcDbEntity
  8
DRAFT
100
AcDbLine
 62
7
  6
CONTINUOUS
 10
2.8130835094
 20
6.9775752113
 11
2.8130835094
 21
5.3688476788
  0
LINE
  5
4EF
100
AcDbEntity
  8
DRAFT
100
AcDbLine
 62
7
  6
CONTINUOUS
 10
2.8130835094
 20
3.7513926139
 11
2.8130835094
 21
2.1426650814
  0
LINE
  5
4F0
100
AcDbEntity
  8
DRAFT
100
AcDbLine
 62
7
  6
CONTINUOUS
 10
2.8456284444
 20
0.5601201463
 11
2.8456284444
 21
3.7513926139
  0
LINE
  5
4F1
100
AcDbEntity
  8
ASSI
100
AcDbLine
 62
7
  6
CONTINUOUS
 10
2.8456284444
 20
0.5601201463
 11
2.8456284444
 21
3.7513926139
  0
LINE
  5
4F2
100
AcDbEntity
  8
DRAFT
100
AcDbLine
 62
7
  6
CONTINUOUS
 10
2.8456284444
 20
5.3688476788
 11
2.8456284444
 21
7.0601201463
  0
LINE
  5
4F3
100
AcDbEntity
  8
ASSI
100
AcDbLine
 62
7
  6
CONTINUOUS
 10
2.8456284444
 20
5.3688476788
 11
2.8456284444
 21
7.0601201463
  0
LINE
  5
4F4
100
AcDbEntity
  8
DRAFT
100
AcDbLine
 62
7
  6
CONTINUOUS
 10
2.9878934175
 20
5.3601201463
 11
2.9878934175
 21
3.7601201463
  0
LINE
  5
4F5
100
AcDbEntity
  8
ASSI
100
AcDbLine
 62
7
  6
CONTINUOUS
 10
2.9878934175
 20
5.3601201463
 11
2.9878934175
 21
3.7601201463
  0
LINE
  5
4F6
100
AcDbEntity
  8
RACCORDO
100
AcDbLine
 62
253
  6
CONTINUOUS
 10
3.385566183
 20
3.7601201463
 11
3.385566183
 21
5.3601201463
  0
LINE
  5
4F7
100
AcDbEntity
  8
ASSI
100
AcDbLine
 62
253
  6
CONTINUOUS
 10
3.385566183
 20
3.7601201463
 11
3.385566183
 21
5.3601201463
  0
LINE
  5
4F8
100
AcDbEntity
  8
DRAFT
100
AcDbLine
 62
7
  6
CONTINUOUS
 10
2.3421374315
 20
2.1391740684
 11
-2.6508805426
 21
2.1391740684
  0
LINE
  5
4F9
100
AcDbEntity
  8
DRAFT
100
AcDbLine
 62
7
  6
CONTINUOUS
 10
-3.1218266205
 20
2.1426650814
 11
-2.6543715556
 21
2.1426650814
  0
LINE
  5
4FA
100
AcDbEntity
  8
DRAFT
100
AcDbLine
 62
7
  6
CONTINUOUS
 10
2.8130835094
 20
2.1426650814
 11
2.3456284444
 21
2.1426650814
  0
LINE
  5
4FB
100
AcDbEntity
  8
RACCORDO
100
AcDbLine
 62
7
  6
CONTINUOUS
 10
-19.9262863717
 20
2.8382510217
 11
-19.6824567395
 21
2.8382510217
  0
LINE
  5
4FC
100
AcDbEntity
  8
ASSI
100
AcDbLine
 62
7
  6
CONTINUOUS
 10
-19.9262863717
 20
2.8382510217
 11
-19.6824567395
 21
2.8382510217
  0
LINE
  5
4FD
100
AcDbEntity
  8
RACCORDO
100
AcDbLine
 62
7
  6
CONTINUOUS
 10
19.3737136283
 20
2.8382510217
 11
19.6175432605
 21
2.8382510217
  0
LINE
  5
4FE
100
AcDbEntity
  8
ASSI
100
AcDbLine
 62
7
  6
CONTINUOUS
 10
19.3737136283
 20
2.8382510217
 11
19.6175432605
 21
2.8382510217
  0
LINE
  5
4FF
100
AcDbEntity
  8
RACCORDO
100
AcDbLine
 62
253
  6
CONTINUOUS
 10
-19.8955373981
 20
2.8689999952
 11
-19.713205713
 21
2.8689999952
  0
LINE
  5
500
100
AcDbEntity
  8
ASSI
100
AcDbLine
 62
253
  6
CONTINUOUS
 10
-19.8955373981
 20
2.8689999952
 11
-19.713205713
 21
2.8689999952
  0
LINE
  5
501
100
AcDbEntity
  8
RACCORDO
100
AcDbLine
 62
253
  6
CONTINUOUS
 10
19.4044626019
 20
2.8689999952
 11
19.586794287
 21
2.8689999952
  0
LINE
  5
502
100
AcDbEntity
  8
ASSI
100
AcDbLine
 62
253
  6
CONTINUOUS
 10
19.4044626019
 20
2.8689999952
 11
19.586794287
 21
2.8689999952
  0
LINE
  5
503
100
AcDbEntity
  8
RACCORDO
100
AcDbLine
 62
253
  6
CONTINUOUS
 10
-20.1920616202
 20
3.3689238428
 11
-19.4166814909
 21
3.3689238428
  0
LINE
  5
504
100
AcDbEntity
  8
ASSI
100
AcDbLine
 62
253
  6
CONTINUOUS
 10
-20.1920616202
 20
3.3689238428
 11
-19.4166814909
 21
3.3689238428
  0
LINE
  5
505
100
AcDbEntity
  8
RACCORDO
100
AcDbLine
 62
253
  6
CONTINUOUS
 10
19.8833185091
 20
3.3689238428
 11
19.1079383798
 21
3.3689238428
  0
LINE
  5
506
100
AcDbEntity
  8
ASSI
100
AcDbLine
 62
253
  6
CONTINUOUS
 10
19.8833185091
 20
3.3689238428
 11
19.1079383798
 21
3.3689238428
  0
LINE
  5
507
100
AcDbEntity
  8
RACCORDO
100
AcDbLine
 62
253
  6
CONTINUOUS
 10
3.6674739692
 20
3.756674622
 11
3.6674739692
 21
5.3635656707
  0
LINE
  5
508
100
AcDbEntity
  8
ASSI
100
AcDbLine
 62
253
  6
CONTINUOUS
 10
3.6674739692
 20
3.756674622
 11
3.6674739692
 21
5.3635656707
  0
LINE
  5
509
100
AcDbEntity
  8
RACCORDO
100
AcDbLine
 62
253
  6
CONTINUOUS
 10
4.2690043066
 20
3.7345431045
 11
4.2755272114
 21
5.386010158
  0
LINE
  5
50A
100
AcDbEntity
  8
ASSI
100
AcDbLine
 62
253
  6
CONTINUOUS
 10
4.2690043066
 20
3.7345431045
 11
4.2755272114
 21
5.386010158
  0
LINE
  5
50B
100
AcDbEntity
  8
DRAFT
100
AcDbLine
 62
7
  6
CONTINUOUS
 10
21.158094435
 20
7.8124853411
 11
20.8956284444
 21
7.7601201463
  0
LINE
  5
50C
100
AcDbEntity
  8
ASSI
100
AcDbLine
 62
7
  6
CONTINUOUS
 10
21.158094435
 20
7.8124853411
 11
20.8956284444
 21
7.7601201463
  0
LINE
  5
50D
100
AcDbEntity
  8
DRAFT
100
AcDbLine
 62
7
  6
CONTINUOUS
 10
21.158094435
 20
8.9531381204
 11
20.8956284444
 21
8.9007729256
  0
LINE
  5
50E
100
AcDbEntity
  8
ASSI
100
AcDbLine
 62
7
  6
CONTINUOUS
 10
21.158094435
 20
8.9531381204
 11
20.8956284444
 21
8.9007729256
  0
LINE
  5
50F
100
AcDbEntity
  8
RACCORDO
100
AcDbLine
 62
7
  6
CONTINUOUS
 10
-3.9762170803
 20
3.756674622
 11
-4.3898076795
 21
3.7368398935
  0
LINE
  5
510
100
AcDbEntity
  8
ASSI
100
AcDbLine
 62
7
  6
CONTINUOUS
 10
-3.9762170803
 20
3.756674622
 11
-4.3898076795
 21
3.7368398935
  0
LINE
  5
511
100
AcDbEntity
  8
RACCORDO
100
AcDbLine
 62
7
  6
CONTINUOUS
 10
4.0875754835
 20
5.3837126457
 11
3.6674739692
 21
5.3635656707
  0
LINE
  5
512
100
AcDbEntity
  8
ASSI
100
AcDbLine
 62
7
  6
CONTINUOUS
 10
4.0875754835
 20
5.3837126457
 11
3.6674739692
 21
5.3635656707
  0
LINE
  5
513
100
AcDbEntity
  8
DRAFT
100
AcDbLine
 62
7
  6
CONTINUOUS
 10
2.9878934175
 20
3.7601201463
 11
2.7456284444
 21
3.7558913955
  0
LINE
  5
514
100
AcDbEntity
  8
ASSI
100
AcDbLine
 62
7
  6
CONTINUOUS
 10
2.9878934175
 20
3.7601201463
 11
2.7456284444
 21
3.7558913955
  0
LINE
  5
515
100
AcDbEntity
  8
DRAFT
100
AcDbLine
 62
7
  6
CONTINUOUS
 10
-3.1543715556
 20
3.7513926139
 11
-3.0543715556
 21
3.7524003825
  0
LINE
  5
516
100
AcDbEntity
  8
ASSI
100
AcDbLine
 62
7
  6
CONTINUOUS
 10
-3.1543715556
 20
3.7513926139
 11
-3.1218266205
 21
3.7517205915
  0
LINE
  5
517
100
AcDbEntity
  8
RACCORDO
100
AcDbLine
 62
7
  6
CONTINUOUS
 10
4.2690043066
 20
3.7345431045
 11
2.8456284444
 21
3.7345431045
  0
LINE
  5
518
100
AcDbEntity
  8
ASSI
100
AcDbLine
 62
7
  6
CONTINUOUS
 10
4.2690043066
 20
3.7345431045
 11
2.8456284444
 21
3.7345431045
  0
LINE
  5
519
100
AcDbEntity
  8
RACCORDO
100
AcDbLine
 62
7
  6
CONTINUOUS
 10
-3.1543715556
 20
3.7345431045
 11
-4.5777474177
 21
3.7345431045
  0
LINE
  5
51A
100
AcDbEntity
  8
ASSI
100
AcDbLine
 62
7
  6
CONTINUOUS
 10
-3.1543715556
 20
3.7345431045
 11
-4.5777474177
 21
3.7345431045
  0
LINE
  5
51B
100
AcDbEntity
  8
RACCORDO
100
AcDbLine
 62
7
  6
CONTINUOUS
 10
3.385566183
 20
3.7601201463
 11
2.9878934175
 21
3.7601201463
  0
LINE
  5
51C
100
AcDbEntity
  8
ASSI
100
AcDbLine
 62
7
  6
CONTINUOUS
 10
3.385566183
 20
3.7601201463
 11
2.9878934175
 21
3.7601201463
  0
LINE
  5
51D
100
AcDbEntity
  8
RACCORDO
100
AcDbLine
 62
7
  6
CONTINUOUS
 10
-3.2966365286
 20
3.7601201463
 11
-3.6943092941
 21
3.7601201463
  0
LINE
  5
51E
100
AcDbEntity
  8
ASSI
100
AcDbLine
 62
7
  6
CONTINUOUS
 10
-3.2966365286
 20
3.7601201463
 11
-3.6943092941
 21
3.7601201463
  0
LINE
  5
51F
100
AcDbEntity
  8
RACCORDO
100
AcDbLine
 62
253
  6
CONTINUOUS
 10
19.1079383798
 20
4.7530133651
 11
19.8833185091
 21
4.7530133651
  0
LINE
  5
520
100
AcDbEntity
  8
ASSI
100
AcDbLine
 62
253
  6
CONTINUOUS
 10
19.1079383798
 20
4.7530133651
 11
19.8833185091
 21
4.7530133651
  0
LINE
  5
521
100
AcDbEntity
  8
RACCORDO
100
AcDbLine
 62
253
  6
CONTINUOUS
 10
-19.4166814909
 20
4.7530133651
 11
-20.1920616202
 21
4.7530133651
  0
LINE
  5
522
100
AcDbEntity
  8
ASSI
100
AcDbLine
 62
253
  6
CONTINUOUS
 10
-19.4166814909
 20
4.7530133651
 11
-20.1920616202
 21
4.7530133651
  0
LINE
  5
523
100
AcDbEntity
  8
RACCORDO
100
AcDbLine
 62
253
  6
CONTINUOUS
 10
19.5843855543
 20
5.106501428
 11
19.4068713347
 21
5.1065014202
  0
LINE
  5
524
100
AcDbEntity
  8
ASSI
100
AcDbLine
 62
253
  6
CONTINUOUS
 10
19.5843855543
 20
5.106501428
 11
19.4068713347
 21
5.1065014202
  0
LINE
  5
525
100
AcDbEntity
  8
RACCORDO
100
AcDbLine
 62
253
  6
CONTINUOUS
 10
-19.7156144457
 20
5.106501428
 11
-19.8931286653
 21
5.1065014202
  0
LINE
  5
526
100
AcDbEntity
  8
ASSI
100
AcDbLine
 62
253
  6
CONTINUOUS
 10
-19.7156144457
 20
5.106501428
 11
-19.8931286653
 21
5.1065014202
  0
LINE
  5
527
100
AcDbEntity
  8
DRAFT
100
AcDbLine
 62
7
  6
CONTINUOUS
 10
2.7456284444
 20
3.7524003825
 11
2.8456284444
 21
3.7513926139
  0
LINE
  5
528
100
AcDbEntity
  8
ASSI
100
AcDbLine
 62
7
  6
CONTINUOUS
 10
2.8130835094
 20
3.7517205915
 11
2.8456284444
 21
3.7513926139
  0
LINE
  5
529
100
AcDbEntity
  8
DRAFT
100
AcDbLine
 62
7
  6
CONTINUOUS
 10
-3.0543715556
 20
3.7558913955
 11
-3.2966365286
 21
3.7601201463
  0
LINE
  5
52A
100
AcDbEntity
  8
ASSI
100
AcDbLine
 62
7
  6
CONTINUOUS
 10
-3.0543715556
 20
3.7558913955
 11
-3.2966365286
 21
3.7601201463
  0
LINE
  5
52B
100
AcDbEntity
  8
RACCORDO
100
AcDbLine
 62
7
  6
CONTINUOUS
 10
4.0810645684
 20
3.7368398935
 11
3.6674739692
 21
3.756674622
  0
LINE
  5
52C
100
AcDbEntity
  8
ASSI
100
AcDbLine
 62
7
  6
CONTINUOUS
 10
4.0810645684
 20
3.7368398935
 11
3.6674739692
 21
3.756674622
  0
LINE
  5
52D
100
AcDbEntity
  8
RACCORDO
100
AcDbLine
 62
7
  6
CONTINUOUS
 10
-3.9762170803
 20
5.3635656707
 11
-4.3963185946
 21
5.3837126457
  0
LINE
  5
52E
100
AcDbEntity
  8
ASSI
100
AcDbLine
 62
7
  6
CONTINUOUS
 10
-3.9762170803
 20
5.3635656707
 11
-4.3963185946
 21
5.3837126457
  0
LINE
  5
52F
100
AcDbEntity
  8
DRAFT
100
AcDbLine
 62
7
  6
CONTINUOUS
 10
-21.4668375461
 20
7.8124853411
 11
-21.2043715556
 21
7.7601201463
  0
LINE
  5
530
100
AcDbEntity
  8
ASSI
100
AcDbLine
 62
7
  6
CONTINUOUS
 10
-21.4668375461
 20
7.8124853411
 11
-21.2043715556
 21
7.7601201463
  0
LINE
  5
531
100
AcDbEntity
  8
DRAFT
100
AcDbLine
 62
7
  6
CONTINUOUS
 10
-21.4668375461
 20
8.9531381204
 11
-21.2043715556
 21
8.9007729256
  0
LINE
  5
532
100
AcDbEntity
  8
ASSI
100
AcDbLine
 62
7
  6
CONTINUOUS
 10
-21.4668375461
 20
8.9531381204
 11
-21.2043715556
 21
8.9007729256
  0
LINE
  5
533
100
AcDbEntity
  8
RACCORDO
100
AcDbLine
 62
7
  6
CONTINUOUS
 10
6.3155783506
 20
-7.8631360847
 11
6.3404833148
 21
-8.1147202048
  0
LINE
  5
534
100
AcDbEntity
  8
ASSI
100
AcDbLine
 62
7
  6
CONTINUOUS
 10
6.3155783506
 20
-7.8631360847
 11
6.3404833148
 21
-8.1147202048
  0
LINE
  5
535
100
AcDbEntity
  8
RACCORDO
100
AcDbLine
 62
253
  6
CONTINUOUS
 10
6.3404833148
 20
-8.1147202048
 11
6.3404833148
 21
-6.8346890326
  0
LINE
  5
536
100
AcDbEntity
  8
ASSI
100
AcDbLine
 62
253
  6
CONTINUOUS
 10
6.3404833148
 20
-8.1147202048
 11
6.3404833148
 21
-6.8346890326
  0
LINE
  5
537
100
AcDbEntity
  8
RACCORDO
100
AcDbLine
 62
253
  6
CONTINUOUS
 10
6.6404376234
 20
-8.1666951
 11
6.6404376234
 21
-6.5347347241
  0
LINE
  5
538
100
AcDbEntity
  8
ASSI
100
AcDbLine
 62
253
  6
CONTINUOUS
 10
6.6404376234
 20
-8.1666951
 11
6.6404376234
 21
-6.5347347241
  0
LINE
  5
539
100
AcDbEntity
  8
RACCORDO
100
AcDbLine
 62
253
  6
CONTINUOUS
 10
6.8508192655
 20
-6.5347347241
 11
6.8508192655
 21
-8.1666951
  0
LINE
  5
53A
100
AcDbEntity
  8
ASSI
100
AcDbLine
 62
253
  6
CONTINUOUS
 10
6.8508192655
 20
-6.5347347241
 11
6.8508192655
 21
-8.1666951
  0
LINE
  5
53B
100
AcDbEntity
  8
DRAFT
100
AcDbLine
 62
7
  6
CONTINUOUS
 10
-3.0543715556
 20
5.3643488972
 11
-3.2966365286
 21
5.3601201463
  0
LINE
  5
53C
100
AcDbEntity
  8
ASSI
100
AcDbLine
 62
7
  6
CONTINUOUS
 10
-3.0543715556
 20
5.3643488972
 11
-3.2966365286
 21
5.3601201463
  0
LINE
  5
53D
100
AcDbEntity
  8
DRAFT
100
AcDbLine
 62
7
  6
CONTINUOUS
 10
2.7456284444
 20
5.3678399101
 11
2.8456284444
 21
5.3688476788
  0
LINE
  5
53E
100
AcDbEntity
  8
ASSI
100
AcDbLine
 62
7
  6
CONTINUOUS
 10
2.8130835094
 20
5.3685197011
 11
2.8456284444
 21
5.3688476788
  0
LINE
  5
53F
100
AcDbEntity
  8
RACCORDO
100
AcDbLine
 62
7
  6
CONTINUOUS
 10
3.385566183
 20
5.3601201463
 11
2.9878934175
 21
5.3601201463
  0
LINE
  5
540
100
AcDbEntity
  8
ASSI
100
AcDbLine
 62
7
  6
CONTINUOUS
 10
3.385566183
 20
5.3601201463
 11
2.9878934175
 21
5.3601201463
  0
LINE
  5
541
100
AcDbEntity
  8
RACCORDO
100
AcDbLine
 62
7
  6
CONTINUOUS
 10
-3.2966365286
 20
5.3601201463
 11
-3.6943092941
 21
5.3601201463
  0
LINE
  5
542
100
AcDbEntity
  8
ASSI
100
AcDbLine
 62
7
  6
CONTINUOUS
 10
-3.2966365286
 20
5.3601201463
 11
-3.6943092941
 21
5.3601201463
  0
LINE
  5
543
100
AcDbEntity
  8
RACCORDO
100
AcDbLine
 62
7
  6
CONTINUOUS
 10
-4.5842703225
 20
5.386010158
 11
-3.1543715556
 21
5.386010158
  0
LINE
  5
544
100
AcDbEntity
  8
ASSI
100
AcDbLine
 62
7
  6
CONTINUOUS
 10
-4.5842703225
 20
5.386010158
 11
-3.1543715556
 21
5.386010158
  0
LINE
  5
545
100
AcDbEntity
  8
RACCORDO
100
AcDbLine
 62
7
  6
CONTINUOUS
 10
2.8456284444
 20
5.386010158
 11
4.2755272114
 21
5.386010158
  0
LINE
  5
546
100
AcDbEntity
  8
ASSI
100
AcDbLine
 62
7
  6
CONTINUOUS
 10
2.8456284444
 20
5.386010158
 11
4.2755272114
 21
5.386010158
  0
LINE
  5
547
100
AcDbEntity
  8
RACCORDO
100
AcDbLine
 62
253
  6
CONTINUOUS
 10
19.3945274057
 20
5.8136846394
 11
19.5967294928
 21
5.8136851892
  0
LINE
  5
548
100
AcDbEntity
  8
ASSI
100
AcDbLine
 62
253
  6
CONTINUOUS
 10
19.3945274057
 20
5.8136846394
 11
19.5967294928
 21
5.8136851892
  0
LINE
  5
549
100
AcDbEntity
  8
RACCORDO
100
AcDbLine
 62
253
  6
CONTINUOUS
 10
-19.9054725943
 20
5.8136846394
 11
-19.7032705072
 21
5.8136851892
  0
LINE
  5
54A
100
AcDbEntity
  8
ASSI
100
AcDbLine
 62
253
  6
CONTINUOUS
 10
-19.9054725943
 20
5.8136846394
 11
-19.7032705072
 21
5.8136851892
  0
LINE
  5
54B
100
AcDbEntity
  8
RACCORDO
100
AcDbLine
 62
253
  6
CONTINUOUS
 10
-19.3992264259
 20
6.1672269275
 11
-20.2095166852
 21
6.1672269275
  0
LINE
  5
54C
100
AcDbEntity
  8
ASSI
100
AcDbLine
 62
253
  6
CONTINUOUS
 10
-19.3992264259
 20
6.1672269275
 11
-20.2095166852
 21
6.1672269275
  0
LINE
  5
54D
100
AcDbEntity
  8
RACCORDO
100
AcDbLine
 62
253
  6
CONTINUOUS
 10
19.0904833148
 20
6.1672269275
 11
19.9007735741
 21
6.1672269275
  0
LINE
  5
54E
100
AcDbEntity
  8
ASSI
100
AcDbLine
 62
253
  6
CONTINUOUS
 10
19.0904833148
 20
6.1672269275
 11
19.9007735741
 21
6.1672269275
  0
LINE
  5
54F
100
AcDbEntity
  8
DRAFT
100
AcDbLine
 62
7
  6
CONTINUOUS
 10
-3.1218266205
 20
6.9775752113
 11
-2.6543715556
 21
6.9775752113
  0
LINE
  5
550
100
AcDbEntity
  8
DRAFT
100
AcDbLine
 62
7
  6
CONTINUOUS
 10
2.8130835094
 20
6.9775752113
 11
2.3456284444
 21
6.9775752113
  0
LINE
  5
551
100
AcDbEntity
  8
DRAFT
100
AcDbLine
 62
7
  6
CONTINUOUS
 10
-2.6508805426
 20
6.9810662242
 11
2.3421374315
 21
6.9810662242
  0
LINE
  5
552
100
AcDbEntity
  8
DRAFT
100
AcDbLine
 62
7
  6
CONTINUOUS
 10
-3.1543715556
 20
5.3688476788
 11
-3.0543715556
 21
5.3678399101
  0
LINE
  5
553
100
AcDbEntity
  8
ASSI
100
AcDbLine
 62
7
  6
CONTINUOUS
 10
-3.1543715556
 20
5.3688476788
 11
-3.1218266205
 21
5.3685197011
  0
LINE
  5
554
100
AcDbEntity
  8
DRAFT
100
AcDbLine
 62
7
  6
CONTINUOUS
 10
2.9878934175
 20
5.3601201463
 11
2.7456284444
 21
5.3643488972
  0
LINE
  5
555
100
AcDbEntity
  8
ASSI
100
AcDbLine
 62
7
  6
CONTINUOUS
 10
2.9878934175
 20
5.3601201463
 11
2.7456284444
 21
5.3643488972
  0
LINE
  5
556
100
AcDbEntity
  8
0
100
AcDbLine
 62
7
  6
CONTINUOUS
 10
7.5433524444
 20
-3.7721808537
 11
7.0044624444
 21
-2.0723178537
  0
LINE
  5
557
100
AcDbEntity
  8
ASSI
100
AcDbLine
 62
7
  6
CONTINUOUS
 10
7.5433524444
 20
-3.7721808537
 11
7.0044624444
 21
-2.0723178537
  0
LINE
  5
558
100
AcDbEntity
  8
0
100
AcDbLine
 62
7
  6
CONTINUOUS
 10
7.7139404444
 20
-3.2423858537
 11
7.3899154444
 21
-2.0723178537
  0
LINE
  5
559
100
AcDbEntity
  8
ASSI
100
AcDbLine
 62
7
  6
CONTINUOUS
 10
7.7139404444
 20
-3.2423858537
 11
7.3899154444
 21
-2.0723178537
  0
LINE
  5
55A
100
AcDbEntity
  8
RACCORDO
100
AcDbLine
 62
253
  6
CONTINUOUS
 10
7.1507735741
 20
-6.8346890326
 11
7.1507735741
 21
-8.1147202048
  0
LINE
  5
55B
100
AcDbEntity
  8
ASSI
100
AcDbLine
 62
253
  6
CONTINUOUS
 10
7.1507735741
 20
-6.8346890326
 11
7.1507735741
 21
-8.1147202048
  0
LINE
  5
55C
100
AcDbEntity
  8
0
100
AcDbLine
 62
7
  6
CONTINUOUS
 10
8.5341264444
 20
-3.7721808537
 11
8.5341264444
 21
-2.0722158537
  0
LINE
  5
55D
100
AcDbEntity
  8
ASSI
100
AcDbLine
 62
7
  6
CONTINUOUS
 10
8.5341264444
 20
-3.7721808537
 11
8.5341264444
 21
-2.0722158537
  0
LINE
  5
55E
100
AcDbEntity
  8
0
100
AcDbLine
 62
7
  6
CONTINUOUS
 10
8.8889544444
 20
-3.7721808537
 11
8.8889544444
 21
-2.0722158537
  0
LINE
  5
55F
100
AcDbEntity
  8
ASSI
100
AcDbLine
 62
7
  6
CONTINUOUS
 10
8.8889544444
 20
-3.7721808537
 11
8.8889544444
 21
-2.0722158537
  0
LINE
  5
560
100
AcDbEntity
  8
RACCORDO
100
AcDbLine
 62
7
  6
CONTINUOUS
 10
7.179833699
 20
-7.8211616243
 11
7.1507735741
 21
-8.1147202048
  0
LINE
  5
561
100
AcDbEntity
  8
ASSI
100
AcDbLine
 62
7
  6
CONTINUOUS
 10
7.179833699
 20
-7.8211616243
 11
7.1507735741
 21
-8.1147202048
  0
LINE
  5
562
100
AcDbEntity
  8
0
100
AcDbLine
 62
7
  6
CONTINUOUS
 10
7.7139404444
 20
-3.2423858537
 11
8.0478624444
 21
-2.0723178537
  0
LINE
  5
563
100
AcDbEntity
  8
ASSI
100
AcDbLine
 62
7
  6
CONTINUOUS
 10
7.7139404444
 20
-3.2423858537
 11
8.0478624444
 21
-2.0723178537
  0
LINE
  5
564
100
AcDbEntity
  8
0
100
AcDbLine
 62
7
  6
CONTINUOUS
 10
7.8560444444
 20
-3.7721808537
 11
8.4024484444
 21
-2.0723178537
  0
LINE
  5
565
100
AcDbEntity
  8
ASSI
100
AcDbLine
 62
7
  6
CONTINUOUS
 10
7.8560444444
 20
-3.7721808537
 11
8.4024484444
 21
-2.0723178537
  0
LINE
  5
566
100
AcDbEntity
  8
RACCORDO
100
AcDbLine
 62
7
  6
CONTINUOUS
 10
19.0904833148
 20
7.7549750167
 11
19.0729777285
 21
7.7374694304
  0
LINE
  5
567
100
AcDbEntity
  8
ASSI
100
AcDbLine
 62
7
  6
CONTINUOUS
 10
19.0904833148
 20
7.7549750167
 11
19.0729777285
 21
7.7374694304
  0
LINE
  5
568
100
AcDbEntity
  8
0
100
AcDbLine
 62
7
  6
CONTINUOUS
 10
-3.1543715556
 20
7.0601201463
 11
2.8456284444
 21
7.0601201463
  0
LINE
  5
569
100
AcDbEntity
  8
ASSI
100
AcDbLine
 62
7
  6
CONTINUOUS
 10
-3.1543715556
 20
7.0601201463
 11
2.8456284444
 21
7.0601201463
  0
LINE
  5
56A
100
AcDbEntity
  8
DRAFT
100
AcDbLine
 62
7
  6
CONTINUOUS
 10
-24.9543715556
 20
7.7007729256
 11
-23.8543715556
 21
7.7007729256
  0
LINE
  5
56B
100
AcDbEntity
  8
ASSI
100
AcDbLine
 62
7
  6
CONTINUOUS
 10
-24.9543715556
 20
7.7007729256
 11
-23.8543715556
 21
7.7007729256
  0
LINE
  5
56C
100
AcDbEntity
  8
DRAFT
100
AcDbLine
 62
7
  6
CONTINUOUS
 10
23.5456284444
 20
7.7007729256
 11
24.6456284444
 21
7.7007729256
  0
LINE
  5
56D
100
AcDbEntity
  8
ASSI
100
AcDbLine
 62
7
  6
CONTINUOUS
 10
23.5456284444
 20
7.7007729256
 11
24.6456284444
 21
7.7007729256
  0
LINE
  5
56E
100
AcDbEntity
  8
RACCORDO
100
AcDbLine
 62
253
  6
CONTINUOUS
 10
-24.9525346592
 20
7.7026098219
 11
-23.8525346592
 21
7.7026098219
  0
LINE
  5
56F
100
AcDbEntity
  8
ASSI
100
AcDbLine
 62
253
  6
CONTINUOUS
 10
-24.9525346592
 20
7.7026098219
 11
-23.8525346592
 21
7.7026098219
  0
LINE
  5
570
100
AcDbEntity
  8
RACCORDO
100
AcDbLine
 62
253
  6
CONTINUOUS
 10
23.5437915481
 20
7.7026098219
 11
24.6437915481
 21
7.7026098219
  0
LINE
  5
571
100
AcDbEntity
  8
ASSI
100
AcDbLine
 62
253
  6
CONTINUOUS
 10
23.5437915481
 20
7.7026098219
 11
24.6437915481
 21
7.7026098219
  0
LINE
  5
572
100
AcDbEntity
  8
RACCORDO
100
AcDbLine
 62
7
  6
CONTINUOUS
 10
-23.4775644104
 20
7.7374694304
 11
-20.2270222715
 21
7.7374694304
  0
LINE
  5
573
100
AcDbEntity
  8
ASSI
100
AcDbLine
 62
7
  6
CONTINUOUS
 10
-23.4775644104
 20
7.7374694304
 11
-20.2270222715
 21
7.7374694304
  0
LINE
  5
574
100
AcDbEntity
  8
DRAFT
100
AcDbLine
 62
7
  6
CONTINUOUS
 10
-19.3817208396
 20
7.7374694304
 11
19.0729777285
 21
7.7374694304
  0
LINE
  5
575
100
AcDbEntity
  8
ASSI
100
AcDbLine
 62
7
  6
CONTINUOUS
 10
-19.3817208396
 20
7.7374694304
 11
19.0729777285
 21
7.7374694304
  0
LINE
  5
576
100
AcDbEntity
  8
RACCORDO
100
AcDbLine
 62
7
  6
CONTINUOUS
 10
19.9182791604
 20
7.7374694304
 11
23.1688212993
 21
7.7374694304
  0
LINE
  5
577
100
AcDbEntity
  8
ASSI
100
AcDbLine
 62
7
  6
CONTINUOUS
 10
19.9182791604
 20
7.7374694304
 11
23.1688212993
 21
7.7374694304
  0
LINE
  5
578
100
AcDbEntity
  8
RACCORDO
100
AcDbLine
 62
7
  6
CONTINUOUS
 10
-21.2043715556
 20
7.7601201463
 11
-19.9095623766
 21
7.7601201463
  0
LINE
  5
579
100
AcDbEntity
  8
ASSI
100
AcDbLine
 62
7
  6
CONTINUOUS
 10
-21.2043715556
 20
7.7601201463
 11
-19.9095623766
 21
7.7601201463
  0
LINE
  5
57A
100
AcDbEntity
  8
RACCORDO
100
AcDbLine
 62
7
  6
CONTINUOUS
 10
-19.6991807345
 20
7.7601201463
 11
19.3904376234
 21
7.7601201463
  0
LINE
  5
57B
100
AcDbEntity
  8
ASSI
100
AcDbLine
 62
7
  6
CONTINUOUS
 10
-19.6991807345
 20
7.7601201463
 11
19.3904376234
 21
7.7601201463
  0
LINE
  5
57C
100
AcDbEntity
  8
RACCORDO
100
AcDbLine
 62
7
  6
CONTINUOUS
 10
19.6008192655
 20
7.7601201463
 11
20.8956284444
 21
7.7601201463
  0
LINE
  5
57D
100
AcDbEntity
  8
ASSI
100
AcDbLine
 62
7
  6
CONTINUOUS
 10
19.6008192655
 20
7.7601201463
 11
20.8956284444
 21
7.7601201463
  0
LINE
  5
57E
100
AcDbEntity
  8
DRAFT
100
AcDbLine
 62
7
  6
CONTINUOUS
 10
-23.8473895296
 20
7.8124853411
 11
-21.4668375461
 21
7.8124853411
  0
LINE
  5
57F
100
AcDbEntity
  8
ASSI
100
AcDbLine
 62
7
  6
CONTINUOUS
 10
-23.8473895296
 20
7.8124853411
 11
-21.4668375461
 21
7.8124853411
  0
LINE
  5
580
100
AcDbEntity
  8
DRAFT
100
AcDbLine
 62
7
  6
CONTINUOUS
 10
21.158094435
 20
7.8124853411
 11
23.5386464185
 21
7.8124853411
  0
LINE
  5
581
100
AcDbEntity
  8
ASSI
100
AcDbLine
 62
7
  6
CONTINUOUS
 10
21.158094435
 20
7.8124853411
 11
23.5386464185
 21
7.8124853411
  0
LINE
  5
582
100
AcDbEntity
  8
RACCORDO
100
AcDbLine
 62
253
  6
CONTINUOUS
 10
-24.9473895296
 20
8.0025641305
 11
-23.8473895296
 21
8.0025641305
  0
LINE
  5
583
100
AcDbEntity
  8
ASSI
100
AcDbLine
 62
253
  6
CONTINUOUS
 10
-24.9473895296
 20
8.0025641305
 11
-23.8473895296
 21
8.0025641305
  0
LINE
  5
584
100
AcDbEntity
  8
RACCORDO
100
AcDbLine
 62
253
  6
CONTINUOUS
 10
23.5386464185
 20
8.0025641305
 11
24.6386464185
 21
8.0025641305
  0
LINE
  5
585
100
AcDbEntity
  8
ASSI
100
AcDbLine
 62
253
  6
CONTINUOUS
 10
23.5386464185
 20
8.0025641305
 11
24.6386464185
 21
8.0025641305
  0
LINE
  5
586
100
AcDbEntity
  8
RACCORDO
100
AcDbLine
 62
253
  6
CONTINUOUS
 10
17.5404833148
 20
-6.8346890326
 11
17.5107330169
 21
-6.8049387347
  0
LINE
  5
587
100
AcDbEntity
  8
ASSI
100
AcDbLine
 62
253
  6
CONTINUOUS
 10
17.5404833148
 20
-6.8346890326
 11
17.5107330169
 21
-6.8049387347
  0
LINE
  5
588
100
AcDbEntity
  8
RACCORDO
100
AcDbLine
 62
253
  6
CONTINUOUS
 10
17.8404376234
 20
-6.5347347241
 11
17.8104916336
 21
-6.5047887342
  0
LINE
  5
589
100
AcDbEntity
  8
ASSI
100
AcDbLine
 62
253
  6
CONTINUOUS
 10
17.8404376234
 20
-6.5347347241
 11
17.8104916336
 21
-6.5047887342
  0
LINE
  5
58A
100
AcDbEntity
  8
0
100
AcDbLine
 62
7
  6
CONTINUOUS
 10
9.9122524444
 20
-3.7721808537
 11
9.4959964444
 21
-2.6622018537
  0
LINE
  5
58B
100
AcDbEntity
  8
ASSI
100
AcDbLine
 62
7
  6
CONTINUOUS
 10
9.9122524444
 20
-3.7721808537
 11
9.4959964444
 21
-2.6622018537
  0
LINE
  5
58C
100
AcDbEntity
  8
0
100
AcDbLine
 62
7
  6
CONTINUOUS
 10
9.9390724444
 20
-3.0160868537
 11
9.5879914444
 21
-2.0723178537
  0
LINE
  5
58D
100
AcDbEntity
  8
ASSI
100
AcDbLine
 62
7
  6
CONTINUOUS
 10
9.9390724444
 20
-3.0160868537
 11
9.5879914444
 21
-2.0723178537
  0
LINE
  5
58E
100
AcDbEntity
  8
0
100
AcDbLine
 62
7
  6
CONTINUOUS
 10
10.8039244444
 20
-3.7721808537
 11
10.6449674444
 21
-2.0723178537
  0
LINE
  5
58F
100
AcDbEntity
  8
ASSI
100
AcDbLine
 62
7
  6
CONTINUOUS
 10
10.8039244444
 20
-3.7721808537
 11
10.6449674444
 21
-2.0723178537
  0
LINE
  5
590
100
AcDbEntity
  8
0
100
AcDbLine
 62
7
  6
CONTINUOUS
 10
10.4568084444
 20
-3.7721808537
 11
10.3839074444
 21
-2.6668288537
  0
LINE
  5
591
100
AcDbEntity
  8
ASSI
100
AcDbLine
 62
7
  6
CONTINUOUS
 10
10.4568084444
 20
-3.7721808537
 11
10.3839074444
 21
-2.6668288537
  0
LINE
  5
592
100
AcDbEntity
  8
0
100
AcDbLine
 62
7
  6
CONTINUOUS
 10
9.4194244444
 20
-3.7721808537
 11
9.4959964444
 21
-2.6622018537
  0
LINE
  5
593
100
AcDbEntity
  8
ASSI
100
AcDbLine
 62
7
  6
CONTINUOUS
 10
9.4194244444
 20
-3.7721808537
 11
9.4959964444
 21
-2.6622018537
  0
LINE
  5
594
100
AcDbEntity
  8
0
100
AcDbLine
 62
7
  6
CONTINUOUS
 10
9.0799694444
 20
-3.7721808537
 11
9.2334564444
 21
-2.0723178537
  0
LINE
  5
595
100
AcDbEntity
  8
ASSI
100
AcDbLine
 62
7
  6
CONTINUOUS
 10
9.0799694444
 20
-3.7721808537
 11
9.2334564444
 21
-2.0723178537
  0
LINE
  5
596
100
AcDbEntity
  8
0
100
AcDbLine
 62
7
  6
CONTINUOUS
 10
9.9390724444
 20
-3.0160868537
 11
10.2939004444
 21
-2.0723178537
  0
LINE
  5
597
100
AcDbEntity
  8
ASSI
100
AcDbLine
 62
7
  6
CONTINUOUS
 10
9.9390724444
 20
-3.0160868537
 11
10.2939004444
 21
-2.0723178537
  0
LINE
  5
598
100
AcDbEntity
  8
0
100
AcDbLine
 62
7
  6
CONTINUOUS
 10
9.9620164444
 20
-3.7721808537
 11
10.3839074444
 21
-2.6668288537
  0
LINE
  5
599
100
AcDbEntity
  8
ASSI
100
AcDbLine
 62
7
  6
CONTINUOUS
 10
9.9620164444
 20
-3.7721808537
 11
10.3839074444
 21
-2.6668288537
  0
LINE
  5
59A
100
AcDbEntity
  8
RACCORDO
100
AcDbLine
 62
253
  6
CONTINUOUS
 10
6.8807652553
 20
-6.5047887342
 11
6.8508192655
 21
-6.5347347241
  0
LINE
  5
59B
100
AcDbEntity
  8
ASSI
100
AcDbLine
 62
253
  6
CONTINUOUS
 10
6.8807652553
 20
-6.5047887342
 11
6.8508192655
 21
-6.5347347241
  0
LINE
  5
59C
100
AcDbEntity
  8
RACCORDO
100
AcDbLine
 62
253
  6
CONTINUOUS
 10
7.180523872
 20
-6.8049387347
 11
7.1507735741
 21
-6.8346890326
  0
LINE
  5
59D
100
AcDbEntity
  8
ASSI
100
AcDbLine
 62
253
  6
CONTINUOUS
 10
7.180523872
 20
-6.8049387347
 11
7.1507735741
 21
-6.8346890326
  0
LINE
  5
59E
100
AcDbEntity
  8
DRAFT
100
AcDbLine
 62
7
  6
CONTINUOUS
 10
-21.2043715556
 20
8.9007729256
 11
20.8956284444
 21
8.9007729256
  0
LINE
  5
59F
100
AcDbEntity
  8
ASSI
100
AcDbLine
 62
7
  6
CONTINUOUS
 10
-21.2043715556
 20
8.9007729256
 11
20.8956284444
 21
8.9007729256
  0
LINE
  5
5A0
100
AcDbEntity
  8
RACCORDO
100
AcDbLine
 62
7
  6
CONTINUOUS
 10
-24.6974276058
 20
8.9531381204
 11
-21.4668375461
 21
8.9531381204
  0
LINE
  5
5A1
100
AcDbEntity
  8
ASSI
100
AcDbLine
 62
7
  6
CONTINUOUS
 10
-24.6974276058
 20
8.9531381204
 11
-21.4668375461
 21
8.9531381204
  0
LINE
  5
5A2
100
AcDbEntity
  8
RACCORDO
100
AcDbLine
 62
7
  6
CONTINUOUS
 10
21.158094435
 20
8.9531381204
 11
24.3886844947
 21
8.9531381204
  0
LINE
  5
5A3
100
AcDbEntity
  8
ASSI
100
AcDbLine
 62
7
  6
CONTINUOUS
 10
21.158094435
 20
8.9531381204
 11
24.3886844947
 21
8.9531381204
  0
LINE
  5
5A4
100
AcDbEntity
  8
0
100
AcDbLine
 62
7
  6
CONTINUOUS
 10
11.8836664444
 20
-3.7721808537
 11
11.7917474444
 21
-3.4328278537
  0
LINE
  5
5A5
100
AcDbEntity
  8
ASSI
100
AcDbLine
 62
7
  6
CONTINUOUS
 10
11.8836664444
 20
-3.7721808537
 11
11.7917474444
 21
-3.4328278537
  0
LINE
  5
5A6
100
AcDbEntity
  8
0
100
AcDbLine
 62
7
  6
CONTINUOUS
 10
11.7208344444
 20
-3.1702378537
 11
11.5577864444
 21
-2.5393968537
  0
LINE
  5
5A7
100
AcDbEntity
  8
ASSI
100
AcDbLine
 62
7
  6
CONTINUOUS
 10
11.7208344444
 20
-3.1702378537
 11
11.5577864444
 21
-2.5393968537
  0
LINE
  5
5A8
100
AcDbEntity
  8
0
100
AcDbLine
 62
7
  6
CONTINUOUS
 10
12.3618351084
 20
-3.7721805404
 11
12.3618351084
 21
-2.0921777715
  0
LINE
  5
5A9
100
AcDbEntity
  8
ASSI
100
AcDbLine
 62
7
  6
CONTINUOUS
 10
12.3618351084
 20
-3.7721805404
 11
12.3618351084
 21
-2.0921777715
  0
LINE
  5
5AA
100
AcDbEntity
  8
0
100
AcDbLine
 62
7
  6
CONTINUOUS
 10
11.3811124444
 20
-3.1702378537
 11
11.5577864444
 21
-2.5393968537
  0
LINE
  5
5AB
100
AcDbEntity
  8
ASSI
100
AcDbLine
 62
7
  6
CONTINUOUS
 10
11.3811124444
 20
-3.1702378537
 11
11.5577864444
 21
-2.5393968537
  0
LINE
  5
5AC
100
AcDbEntity
  8
0
100
AcDbLine
 62
7
  6
CONTINUOUS
 10
11.2106194444
 20
-3.7721808537
 11
11.3085304444
 21
-3.4328278537
  0
LINE
  5
5AD
100
AcDbEntity
  8
ASSI
100
AcDbLine
 62
7
  6
CONTINUOUS
 10
11.2106194444
 20
-3.7721808537
 11
11.3085304444
 21
-3.4328278537
  0
LINE
  5
5AE
100
AcDbEntity
  8
0
100
AcDbLine
 62
7
  6
CONTINUOUS
 10
10.8596414444
 20
-3.7721808537
 11
11.3928264444
 21
-2.0723178537
  0
LINE
  5
5AF
100
AcDbEntity
  8
ASSI
100
AcDbLine
 62
7
  6
CONTINUOUS
 10
10.8596414444
 20
-3.7721808537
 11
11.3928264444
 21
-2.0723178537
  0
LINE
  5
5B0
100
AcDbEntity
  8
RACCORDO
100
AcDbLine
 62
7
  6
CONTINUOUS
 10
23.4687753657
 20
7.7426142883
 11
23.5386464185
 21
7.8124853411
  0
LINE
  5
5B1
100
AcDbEntity
  8
ASSI
100
AcDbLine
 62
7
  6
CONTINUOUS
 10
23.4687753657
 20
7.7426142883
 11
23.5386464185
 21
7.8124853411
  0
LINE
  5
5B2
100
AcDbEntity
  8
RACCORDO
100
AcDbLine
 62
253
  6
CONTINUOUS
 10
19.0736830637
 20
3.1381290741
 11
19.1045082934
 21
3.1689543038
  0
LINE
  5
5B3
100
AcDbEntity
  8
ASSI
100
AcDbLine
 62
253
  6
CONTINUOUS
 10
19.0736830637
 20
3.1381290741
 11
19.1045082934
 21
3.1689543038
  0
LINE
  5
5B4
100
AcDbEntity
  8
RACCORDO
100
AcDbLine
 62
253
  6
CONTINUOUS
 10
19.3737136283
 20
2.8382510217
 11
19.4044626019
 21
2.8689999952
  0
LINE
  5
5B5
100
AcDbEntity
  8
ASSI
100
AcDbLine
 62
253
  6
CONTINUOUS
 10
19.3737136283
 20
2.8382510217
 11
19.4044626019
 21
2.8689999952
  0
LINE
  5
5B6
100
AcDbEntity
  8
RACCORDO
100
AcDbLine
 62
7
  6
CONTINUOUS
 10
22.2253934447
 20
-6.3696448539
 11
22.1778751181
 21
-6.3221265273
  0
LINE
  5
5B7
100
AcDbEntity
  8
ASSI
100
AcDbLine
 62
7
  6
CONTINUOUS
 10
22.2253934447
 20
-6.3696448539
 11
22.1778751181
 21
-6.3221265273
  0
LINE
  5
5B8
100
AcDbEntity
  8
RACCORDO
100
AcDbLine
 62
7
  6
CONTINUOUS
 10
23.47367982
 20
-6.32727845
 11
23.5211913535
 21
-6.3747899835
  0
LINE
  5
5B9
100
AcDbEntity
  8
ASSI
100
AcDbLine
 62
7
  6
CONTINUOUS
 10
23.47367982
 20
-6.32727845
 11
23.5211913535
 21
-6.3747899835
  0
LINE
  5
5BA
100
AcDbEntity
  8
0
100
AcDbLine
 62
7
  6
CONTINUOUS
 10
12.2576404444
 20
-3.7721808537
 11
11.7360804444
 21
-2.0723178537
  0
LINE
  5
5BB
100
AcDbEntity
  8
ASSI
100
AcDbLine
 62
7
  6
CONTINUOUS
 10
12.2576404444
 20
-3.7721808537
 11
11.7360804444
 21
-2.0723178537
  0
LINE
  5
5BC
100
AcDbEntity
  8
0
100
AcDbLine
 62
7
  6
CONTINUOUS
 10
12.7034698761
 20
-2.8285516852
 11
12.7034698761
 21
-2.3619062027
  0
LINE
  5
5BD
100
AcDbEntity
  8
ASSI
100
AcDbLine
 62
7
  6
CONTINUOUS
 10
12.7034698761
 20
-2.8285516852
 11
12.7034698761
 21
-2.3619062027
  0
LINE
  5
5BE
100
AcDbEntity
  8
0
100
AcDbLine
 62
7
  6
CONTINUOUS
 10
12.7152354404
 20
-3.7721805404
 11
12.7152354404
 21
-3.1069481378
  0
LINE
  5
5BF
100
AcDbEntity
  8
ASSI
100
AcDbLine
 62
7
  6
CONTINUOUS
 10
12.7152354404
 20
-3.7721805404
 11
12.7152354404
 21
-3.1069481378
  0
LINE
  5
5C0
100
AcDbEntity
  8
0
100
AcDbLine
 62
7
  6
CONTINUOUS
 10
13.2740806272
 20
-2.9786996621
 11
13.2740806272
 21
-2.9686549549
  0
LINE
  5
5C1
100
AcDbEntity
  8
ASSI
100
AcDbLine
 62
7
  6
CONTINUOUS
 10
13.2740806272
 20
-2.9786996621
 11
13.2740806272
 21
-2.9686549549
  0
LINE
  5
5C2
100
AcDbEntity
  8
DRAFT
100
AcDbLine
 62
7
  6
CONTINUOUS
 10
23.5411208594
 20
-4.3853722686
 11
23.5281733795
 21
-4.3724247887
  0
LINE
  5
5C3
100
AcDbEntity
  8
ASSI
100
AcDbLine
 62
7
  6
CONTINUOUS
 10
23.5411208594
 20
-4.3853722686
 11
23.5281733795
 21
-4.3724247887
  0
LINE
  5
5C4
100
AcDbEntity
  8
DRAFT
100
AcDbLine
 62
7
  6
CONTINUOUS
 10
23.8411208586
 20
-4.3853722678
 11
23.7673280945
 21
-4.3115795037
  0
LINE
  5
5C5
100
AcDbEntity
  8
ASSI
100
AcDbLine
 62
7
  6
CONTINUOUS
 10
23.8411208586
 20
-4.3853722678
 11
23.7673280945
 21
-4.3115795037
  0
LINE
  5
5C6
100
AcDbEntity
  8
RACCORDO
100
AcDbLine
 62
7
  6
CONTINUOUS
 10
22.2253934447
 20
0.8898851466
 11
22.1743624792
 21
0.8388541811
  0
LINE
  5
5C7
100
AcDbEntity
  8
ASSI
100
AcDbLine
 62
7
  6
CONTINUOUS
 10
22.2253934447
 20
0.8898851466
 11
22.1743624792
 21
0.8388541811
  0
LINE
  5
5C8
100
AcDbEntity
  8
RACCORDO
100
AcDbLine
 62
7
  6
CONTINUOUS
 10
23.4701596344
 20
0.8439985571
 11
23.5211913535
 21
0.8950302762
  0
LINE
  5
5C9
100
AcDbEntity
  8
ASSI
100
AcDbLine
 62
7
  6
CONTINUOUS
 10
23.4701596344
 20
0.8439985571
 11
23.5211913535
 21
0.8950302762
  0
LINE
  5
5CA
100
AcDbEntity
  8
DRAFT
100
AcDbLine
 62
7
  6
CONTINUOUS
 10
22.7630835094
 20
-1.9073349186
 11
22.8251162025
 21
-1.9693676117
  0
LINE
  5
5CB
100
AcDbEntity
  8
ASSI
100
AcDbLine
 62
7
  6
CONTINUOUS
 10
22.7630835094
 20
-1.9073349186
 11
22.8251162025
 21
-1.9693676117
  0
LINE
  5
5CC
100
AcDbEntity
  8
RACCORDO
100
AcDbLine
 62
7
  6
CONTINUOUS
 10
23.4709572156
 20
-1.2245558456
 11
23.5281733795
 21
-1.2817720095
  0
LINE
  5
5CD
100
AcDbEntity
  8
ASSI
100
AcDbLine
 62
7
  6
CONTINUOUS
 10
23.4709572156
 20
-1.2245558456
 11
23.5281733795
 21
-1.2817720095
  0
LINE
  5
5CE
100
AcDbEntity
  8
RACCORDO
100
AcDbLine
 62
7
  6
CONTINUOUS
 10
17.5114231899
 20
-7.8211616243
 11
17.5404833148
 21
-8.1147202048
  0
LINE
  5
5CF
100
AcDbEntity
  8
ASSI
100
AcDbLine
 62
7
  6
CONTINUOUS
 10
17.5114231899
 20
-7.8211616243
 11
17.5404833148
 21
-8.1147202048
  0
LINE
  5
5D0
100
AcDbEntity
  8
RACCORDO
100
AcDbLine
 62
253
  6
CONTINUOUS
 10
17.5404833148
 20
-8.1147202048
 11
17.5404833148
 21
-6.8346890326
  0
LINE
  5
5D1
100
AcDbEntity
  8
ASSI
100
AcDbLine
 62
253
  6
CONTINUOUS
 10
17.5404833148
 20
-8.1147202048
 11
17.5404833148
 21
-6.8346890326
  0
LINE
  5
5D2
100
AcDbEntity
  8
RACCORDO
100
AcDbLine
 62
253
  6
CONTINUOUS
 10
18.0807652553
 20
-6.5047887342
 11
18.0508192655
 21
-6.5347347241
  0
LINE
  5
5D3
100
AcDbEntity
  8
ASSI
100
AcDbLine
 62
253
  6
CONTINUOUS
 10
18.0807652553
 20
-6.5047887342
 11
18.0508192655
 21
-6.5347347241
  0
LINE
  5
5D4
100
AcDbEntity
  8
RACCORDO
100
AcDbLine
 62
253
  6
CONTINUOUS
 10
18.380523872
 20
-6.8049387347
 11
18.3507735741
 21
-6.8346890326
  0
LINE
  5
5D5
100
AcDbEntity
  8
ASSI
100
AcDbLine
 62
253
  6
CONTINUOUS
 10
18.380523872
 20
-6.8049387347
 11
18.3507735741
 21
-6.8346890326
  0
LINE
  5
5D6
100
AcDbEntity
  8
RACCORDO
100
AcDbLine
 62
253
  6
CONTINUOUS
 10
19.586794287
 20
2.8689999952
 11
19.6175432605
 21
2.8382510217
  0
LINE
  5
5D7
100
AcDbEntity
  8
ASSI
100
AcDbLine
 62
253
  6
CONTINUOUS
 10
19.586794287
 20
2.8689999952
 11
19.6175432605
 21
2.8382510217
  0
LINE
  5
5D8
100
AcDbEntity
  8
RACCORDO
100
AcDbLine
 62
253
  6
CONTINUOUS
 10
19.8867485955
 20
3.1689543038
 11
19.9175738252
 21
3.1381290741
  0
LINE
  5
5D9
100
AcDbEntity
  8
ASSI
100
AcDbLine
 62
253
  6
CONTINUOUS
 10
19.8867485955
 20
3.1689543038
 11
19.9175738252
 21
3.1381290741
  0
LINE
  5
5DA
100
AcDbEntity
  8
RACCORDO
100
AcDbLine
 62
7
  6
CONTINUOUS
 10
22.2253934447
 20
1.5303551461
 11
22.1741191706
 21
1.5816294202
  0
LINE
  5
5DB
100
AcDbEntity
  8
ASSI
100
AcDbLine
 62
7
  6
CONTINUOUS
 10
22.2253934447
 20
1.5303551461
 11
22.1741191706
 21
1.5816294202
  0
LINE
  5
5DC
100
AcDbEntity
  8
RACCORDO
100
AcDbLine
 62
253
  6
CONTINUOUS
 10
19.1069158857
 20
4.8944347214
 11
19.094573291
 21
5.6015415026
  0
LINE
  5
5DD
100
AcDbEntity
  8
ASSI
100
AcDbLine
 62
253
  6
CONTINUOUS
 10
19.1069158857
 20
4.8944347214
 11
19.094573291
 21
5.6015415026
  0
LINE
  5
5DE
100
AcDbEntity
  8
RACCORDO
100
AcDbLine
 62
253
  6
CONTINUOUS
 10
17.8404376234
 20
-8.1666951
 11
17.8404376234
 21
-6.5347347241
  0
LINE
  5
5DF
100
AcDbEntity
  8
ASSI
100
AcDbLine
 62
253
  6
CONTINUOUS
 10
17.8404376234
 20
-8.1666951
 11
17.8404376234
 21
-6.5347347241
  0
LINE
  5
5E0
100
AcDbEntity
  8
RACCORDO
100
AcDbLine
 62
253
  6
CONTINUOUS
 10
18.0508192655
 20
-6.5347347241
 11
18.0508192655
 21
-8.1666951
  0
LINE
  5
5E1
100
AcDbEntity
  8
ASSI
100
AcDbLine
 62
253
  6
CONTINUOUS
 10
18.0508192655
 20
-6.5347347241
 11
18.0508192655
 21
-8.1666951
  0
LINE
  5
5E2
100
AcDbEntity
  8
RACCORDO
100
AcDbLine
 62
253
  6
CONTINUOUS
 10
18.3507735741
 20
-6.8346890326
 11
18.3507735741
 21
-8.1147202048
  0
LINE
  5
5E3
100
AcDbEntity
  8
ASSI
100
AcDbLine
 62
253
  6
CONTINUOUS
 10
18.3507735741
 20
-6.8346890326
 11
18.3507735741
 21
-8.1147202048
  0
LINE
  5
5E4
100
AcDbEntity
  8
RACCORDO
100
AcDbLine
 62
253
  6
CONTINUOUS
 10
19.0904833148
 20
6.1672269275
 11
19.0904833148
 21
7.7549750167
  0
LINE
  5
5E5
100
AcDbEntity
  8
ASSI
100
AcDbLine
 62
253
  6
CONTINUOUS
 10
19.0904833148
 20
6.1672269275
 11
19.0904833148
 21
7.7549750167
  0
LINE
  5
5E6
100
AcDbEntity
  8
RACCORDO
100
AcDbLine
 62
253
  6
CONTINUOUS
 10
19.1079383798
 20
3.3689238428
 11
19.1079383798
 21
4.7530133651
  0
LINE
  5
5E7
100
AcDbEntity
  8
ASSI
100
AcDbLine
 62
253
  6
CONTINUOUS
 10
19.1079383798
 20
3.3689238428
 11
19.1079383798
 21
4.7530133651
  0
LINE
  5
5E8
100
AcDbEntity
  8
RACCORDO
100
AcDbLine
 62
253
  6
CONTINUOUS
 10
19.3904376234
 20
6.167238434
 11
19.3904376234
 21
7.7601201463
  0
LINE
  5
5E9
100
AcDbEntity
  8
ASSI
100
AcDbLine
 62
253
  6
CONTINUOUS
 10
19.3904376234
 20
6.167238434
 11
19.3904376234
 21
7.7601201463
  0
LINE
  5
5EA
100
AcDbEntity
  8
RACCORDO
100
AcDbLine
 62
253
  6
CONTINUOUS
 10
19.4078926883
 20
3.3689238428
 11
19.4078926883
 21
4.7530133651
  0
LINE
  5
5EB
100
AcDbEntity
  8
ASSI
100
AcDbLine
 62
253
  6
CONTINUOUS
 10
19.4078926883
 20
3.3689238428
 11
19.4078926883
 21
4.7530133651
  0
LINE
  5
5EC
100
AcDbEntity
  8
RACCORDO
100
AcDbLine
 62
253
  6
CONTINUOUS
 10
19.5967294928
 20
5.8136851892
 11
19.5843855543
 21
5.106501428
  0
LINE
  5
5ED
100
AcDbEntity
  8
ASSI
100
AcDbLine
 62
253
  6
CONTINUOUS
 10
19.5967294928
 20
5.8136851892
 11
19.5843855543
 21
5.106501428
  0
LINE
  5
5EE
100
AcDbEntity
  8
RACCORDO
100
AcDbLine
 62
7
  6
CONTINUOUS
 10
18.3756785383
 20
-7.8631360847
 11
18.3507735741
 21
-8.1147202048
  0
LINE
  5
5EF
100
AcDbEntity
  8
ASSI
100
AcDbLine
 62
7
  6
CONTINUOUS
 10
18.3756785383
 20
-7.8631360847
 11
18.3507735741
 21
-8.1147202048
  0
LINE
  5
5F0
100
AcDbEntity
  8
DRAFT
100
AcDbLine
 62
7
  6
CONTINUOUS
 10
23.5456284444
 20
-1.8898798537
 11
23.5281733795
 21
-1.9073349186
  0
LINE
  5
5F1
100
AcDbEntity
  8
ASSI
100
AcDbLine
 62
7
  6
CONTINUOUS
 10
23.5456284444
 20
-1.8898798537
 11
23.5281733795
 21
-1.9073349186
  0
LINE
  5
5F2
100
AcDbEntity
  8
DRAFT
100
AcDbLine
 62
7
  6
CONTINUOUS
 10
23.8456284444
 20
-1.8898798537
 11
23.7661406864
 21
-1.9693676117
  0
LINE
  5
5F3
100
AcDbEntity
  8
ASSI
100
AcDbLine
 62
7
  6
CONTINUOUS
 10
23.8456284444
 20
-1.8898798537
 11
23.7661406864
 21
-1.9693676117
  0
LINE
  5
5F4
100
AcDbEntity
  8
DRAFT
100
AcDbLine
 62
7
  6
CONTINUOUS
 10
22.7630835094
 20
-4.3724247887
 11
22.8239287944
 21
-4.3115795037
  0
LINE
  5
5F5
100
AcDbEntity
  8
ASSI
100
AcDbLine
 62
7
  6
CONTINUOUS
 10
22.7630835094
 20
-4.3724247887
 11
22.8239287944
 21
-4.3115795037
  0
LINE
  5
5F6
100
AcDbEntity
  8
RACCORDO
100
AcDbLine
 62
7
  6
CONTINUOUS
 10
23.469919527
 20
1.576481843
 11
23.5211913535
 21
1.5252100165
  0
LINE
  5
5F7
100
AcDbEntity
  8
ASSI
100
AcDbLine
 62
7
  6
CONTINUOUS
 10
23.469919527
 20
1.576481843
 11
23.5211913535
 21
1.5252100165
  0
LINE
  5
5F8
100
AcDbEntity
  8
RACCORDO
100
AcDbLine
 62
253
  6
CONTINUOUS
 10
19.4068713347
 20
5.1065014202
 11
19.3945274057
 21
5.8136846394
  0
LINE
  5
5F9
100
AcDbEntity
  8
ASSI
100
AcDbLine
 62
253
  6
CONTINUOUS
 10
19.4068713347
 20
5.1065014202
 11
19.3945274057
 21
5.8136846394
  0
LINE
  5
5FA
100
AcDbEntity
  8
RACCORDO
100
AcDbLine
 62
253
  6
CONTINUOUS
 10
19.5833642006
 20
4.7530133651
 11
19.5833642006
 21
3.3689238428
  0
LINE
  5
5FB
100
AcDbEntity
  8
ASSI
100
AcDbLine
 62
253
  6
CONTINUOUS
 10
19.5833642006
 20
4.7530133651
 11
19.5833642006
 21
3.3689238428
  0
LINE
  5
5FC
100
AcDbEntity
  8
RACCORDO
100
AcDbLine
 62
253
  6
CONTINUOUS
 10
19.6008192655
 20
7.7601201463
 11
19.6008192655
 21
6.1672381036
  0
LINE
  5
5FD
100
AcDbEntity
  8
ASSI
100
AcDbLine
 62
253
  6
CONTINUOUS
 10
19.6008192655
 20
7.7601201463
 11
19.6008192655
 21
6.1672381036
  0
LINE
  5
5FE
100
AcDbEntity
  8
RACCORDO
100
AcDbLine
 62
253
  6
CONTINUOUS
 10
19.8833185091
 20
4.7530133651
 11
19.8833185091
 21
3.3689238428
  0
LINE
  5
5FF
100
AcDbEntity
  8
ASSI
100
AcDbLine
 62
253
  6
CONTINUOUS
 10
19.8833185091
 20
4.7530133651
 11
19.8833185091
 21
3.3689238428
  0
LINE
  5
600
100
AcDbEntity
  8
RACCORDO
100
AcDbLine
 62
253
  6
CONTINUOUS
 10
19.9007735741
 20
7.7549750167
 11
19.9007735741
 21
6.1672269275
  0
LINE
  5
601
100
AcDbEntity
  8
ASSI
100
AcDbLine
 62
253
  6
CONTINUOUS
 10
19.9007735741
 20
7.7549750167
 11
19.9007735741
 21
6.1672269275
  0
LINE
  5
602
100
AcDbEntity
  8
DRAFT
100
AcDbLine
 62
7
  6
CONTINUOUS
 10
20.8956284444
 20
8.9007729256
 11
20.8956284444
 21
7.7601201463
  0
LINE
  5
603
100
AcDbEntity
  8
ASSI
100
AcDbLine
 62
7
  6
CONTINUOUS
 10
20.8956284444
 20
8.9007729256
 11
20.8956284444
 21
7.7601201463
  0
LINE
  5
604
100
AcDbEntity
  8
DRAFT
100
AcDbLine
 62
7
  6
CONTINUOUS
 10
21.158094435
 20
8.9531381204
 11
21.158094435
 21
7.8124853411
  0
LINE
  5
605
100
AcDbEntity
  8
ASSI
100
AcDbLine
 62
7
  6
CONTINUOUS
 10
21.158094435
 20
8.9531381204
 11
21.158094435
 21
7.8124853411
  0
LINE
  5
606
100
AcDbEntity
  8
RACCORDO
100
AcDbLine
 62
253
  6
CONTINUOUS
 10
19.8966835979
 20
5.6015415026
 11
19.8843410032
 21
4.8944347214
  0
LINE
  5
607
100
AcDbEntity
  8
ASSI
100
AcDbLine
 62
253
  6
CONTINUOUS
 10
19.8966835979
 20
5.6015415026
 11
19.8843410032
 21
4.8944347214
  0
LINE
  5
608
100
AcDbEntity
  8
RACCORDO
100
AcDbLine
 62
7
  6
CONTINUOUS
 10
23.4728993586
 20
-5.0532617188
 11
23.5281733795
 21
-4.9979876978
  0
LINE
  5
609
100
AcDbEntity
  8
ASSI
100
AcDbLine
 62
7
  6
CONTINUOUS
 10
23.4728993586
 20
-5.0532617188
 11
23.5281733795
 21
-4.9979876978
  0
LINE
  5
60A
100
AcDbEntity
  8
RACCORDO
100
AcDbLine
 62
7
  6
CONTINUOUS
 10
22.2253934447
 20
-7.0101148534
 11
22.1783553963
 21
-7.0571529018
  0
LINE
  5
60B
100
AcDbEntity
  8
ASSI
100
AcDbLine
 62
7
  6
CONTINUOUS
 10
22.2253934447
 20
-7.0101148534
 11
22.1783553963
 21
-7.0571529018
  0
LINE
  5
60C
100
AcDbEntity
  8
RACCORDO
100
AcDbLine
 62
7
  6
CONTINUOUS
 10
19.9007735741
 20
7.7549750167
 11
19.9182791604
 21
7.7374694304
  0
LINE
  5
60D
100
AcDbEntity
  8
ASSI
100
AcDbLine
 62
7
  6
CONTINUOUS
 10
19.9007735741
 20
7.7549750167
 11
19.9182791604
 21
7.7374694304
  0
LINE
  5
60E
100
AcDbEntity
  8
RACCORDO
100
AcDbLine
 62
253
  6
CONTINUOUS
 10
23.1745498084
 20
-7.8631360847
 11
23.2325280062
 21
-8.4488182691
  0
LINE
  5
60F
100
AcDbEntity
  8
ASSI
100
AcDbLine
 62
253
  6
CONTINUOUS
 10
23.1745498084
 20
-7.8631360847
 11
23.2325280062
 21
-8.4488182691
  0
LINE
  5
610
100
AcDbEntity
  8
RACCORDO
100
AcDbLine
 62
253
  6
CONTINUOUS
 10
23.4745041171
 20
-7.5676937599
 11
23.5316643925
 21
-8.1451134846
  0
LINE
  5
611
100
AcDbEntity
  8
ASSI
100
AcDbLine
 62
253
  6
CONTINUOUS
 10
23.4745041171
 20
-7.5676937599
 11
23.5316643925
 21
-8.1451134846
  0
LINE
  5
612
100
AcDbEntity
  8
DRAFT
100
AcDbLine
 62
7
  6
CONTINUOUS
 10
21.6956284444
 20
-5.0119517498
 11
21.6956284444
 21
-1.2678079576
  0
LINE
  5
613
100
AcDbEntity
  8
ASSI
100
AcDbLine
 62
7
  6
CONTINUOUS
 10
21.6956284444
 20
-5.0119517498
 11
21.6956284444
 21
-1.2678079576
  0
LINE
  5
614
100
AcDbEntity
  8
RACCORDO
100
AcDbLine
 62
253
  6
CONTINUOUS
 10
22.2253934447
 20
1.5303551461
 11
22.2253934447
 21
0.8898851466
  0
LINE
  5
615
100
AcDbEntity
  8
ASSI
100
AcDbLine
 62
253
  6
CONTINUOUS
 10
22.2253934447
 20
1.5303551461
 11
22.2253934447
 21
0.8898851466
  0
LINE
  5
616
100
AcDbEntity
  8
RACCORDO
100
AcDbLine
 62
253
  6
CONTINUOUS
 10
22.2253934447
 20
-6.3696448539
 11
22.2253934447
 21
-7.0101148534
  0
LINE
  5
617
100
AcDbEntity
  8
ASSI
100
AcDbLine
 62
253
  6
CONTINUOUS
 10
22.2253934447
 20
-6.3696448539
 11
22.2253934447
 21
-7.0101148534
  0
LINE
  5
618
100
AcDbEntity
  8
DRAFT
100
AcDbLine
 62
7
  6
CONTINUOUS
 10
22.2456284444
 20
-1.2194069385
 11
22.2456284444
 21
-1.2559814066
  0
LINE
  5
619
100
AcDbEntity
  8
ASSI
100
AcDbLine
 62
7
  6
CONTINUOUS
 10
22.2456284444
 20
-1.2194069385
 11
22.2456284444
 21
-1.2559814066
  0
LINE
  5
61A
100
AcDbEntity
  8
DRAFT
100
AcDbLine
 62
7
  6
CONTINUOUS
 10
22.2456284444
 20
-5.0237783007
 11
22.2456284444
 21
-5.0584067844
  0
LINE
  5
61B
100
AcDbEntity
  8
ASSI
100
AcDbLine
 62
7
  6
CONTINUOUS
 10
22.2456284444
 20
-5.0237783007
 11
22.2456284444
 21
-5.0584067844
  0
LINE
  5
61C
100
AcDbEntity
  8
DRAFT
100
AcDbLine
 62
7
  6
CONTINUOUS
 10
22.4956284444
 20
-4.9979876978
 11
22.4956284444
 21
-1.2817720095
  0
LINE
  5
61D
100
AcDbEntity
  8
ASSI
100
AcDbLine
 62
7
  6
CONTINUOUS
 10
22.4956284444
 20
-4.9979876978
 11
22.4956284444
 21
-1.2817720095
  0
LINE
  5
61E
100
AcDbEntity
  8
RACCORDO
100
AcDbLine
 62
253
  6
CONTINUOUS
 10
22.5253477532
 20
1.5252100165
 11
22.5253477532
 21
0.8950302762
  0
LINE
  5
61F
100
AcDbEntity
  8
ASSI
100
AcDbLine
 62
253
  6
CONTINUOUS
 10
22.5253477532
 20
1.5252100165
 11
22.5253477532
 21
0.8950302762
  0
LINE
  5
620
100
AcDbEntity
  8
RACCORDO
100
AcDbLine
 62
253
  6
CONTINUOUS
 10
22.5253477532
 20
-6.3747899835
 11
22.5253477532
 21
-7.0049697238
  0
LINE
  5
621
100
AcDbEntity
  8
ASSI
100
AcDbLine
 62
253
  6
CONTINUOUS
 10
22.5253477532
 20
-6.3747899835
 11
22.5253477532
 21
-7.0049697238
  0
LINE
  5
622
100
AcDbEntity
  8
DRAFT
100
AcDbLine
 62
7
  6
CONTINUOUS
 10
22.7630835094
 20
-1.9073349186
 11
22.7630835094
 21
-4.3724247887
  0
LINE
  5
623
100
AcDbEntity
  8
ASSI
100
AcDbLine
 62
7
  6
CONTINUOUS
 10
22.7630835094
 20
-1.9073349186
 11
22.7630835094
 21
-4.3724247887
  0
LINE
  5
624
100
AcDbEntity
  8
RACCORDO
100
AcDbLine
 62
7
  6
CONTINUOUS
 10
23.4741537057
 20
-7.0520073716
 11
23.5211913535
 21
-7.0049697238
  0
LINE
  5
625
100
AcDbEntity
  8
ASSI
100
AcDbLine
 62
7
  6
CONTINUOUS
 10
23.4741537057
 20
-7.0520073716
 11
23.5211913535
 21
-7.0049697238
  0
LINE
  5
626
100
AcDbEntity
  8
RACCORDO
100
AcDbLine
 62
7
  6
CONTINUOUS
 10
23.5456284444
 20
7.7007729256
 11
23.5437915481
 21
7.7026098219
  0
LINE
  5
627
100
AcDbEntity
  8
ASSI
100
AcDbLine
 62
7
  6
CONTINUOUS
 10
23.5456284444
 20
7.7007729256
 11
23.5437915481
 21
7.7026098219
  0
LINE
  5
628
100
AcDbEntity
  8
RACCORDO
100
AcDbLine
 62
253
  6
CONTINUOUS
 10
23.1741951594
 20
-7.0571529019
 11
23.1745498085
 21
-7.5795462485
  0
LINE
  5
629
100
AcDbEntity
  8
ASSI
100
AcDbLine
 62
253
  6
CONTINUOUS
 10
23.1741951594
 20
-7.0571529019
 11
23.1745498085
 21
-7.5795462485
  0
LINE
  5
62A
100
AcDbEntity
  8
RACCORDO
100
AcDbLine
 62
253
  6
CONTINUOUS
 10
23.1729421646
 20
-5.0584067847
 11
23.1737152213
 21
-6.3221265279
  0
LINE
  5
62B
100
AcDbEntity
  8
ASSI
100
AcDbLine
 62
253
  6
CONTINUOUS
 10
23.1729421646
 20
-5.0584067847
 11
23.1737152213
 21
-6.3221265279
  0
LINE
  5
62C
100
AcDbEntity
  8
RACCORDO
100
AcDbLine
 62
253
  6
CONTINUOUS
 10
23.1702050696
 20
0.8388541811
 11
23.170997558
 21
-1.2194069383
  0
LINE
  5
62D
100
AcDbEntity
  8
ASSI
100
AcDbLine
 62
253
  6
CONTINUOUS
 10
23.1702050696
 20
0.8388541811
 11
23.170997558
 21
-1.2194069383
  0
LINE
  5
62E
100
AcDbEntity
  8
RACCORDO
100
AcDbLine
 62
253
  6
CONTINUOUS
 10
23.1688212993
 20
7.7374694304
 11
23.1699619332
 21
1.5816294203
  0
LINE
  5
62F
100
AcDbEntity
  8
ASSI
100
AcDbLine
 62
253
  6
CONTINUOUS
 10
23.1688212993
 20
7.7374694304
 11
23.1699619332
 21
1.5816294203
  0
LINE
  5
630
100
AcDbEntity
  8
DRAFT
100
AcDbLine
 62
7
  6
CONTINUOUS
 10
23.5211913535
 20
1.5252100165
 11
23.5211913535
 21
0.8950302762
  0
LINE
  5
631
100
AcDbEntity
  8
ASSI
100
AcDbLine
 62
7
  6
CONTINUOUS
 10
23.5211913535
 20
1.5252100165
 11
23.5211913535
 21
0.8950302762
  0
LINE
  5
632
100
AcDbEntity
  8
DRAFT
100
AcDbLine
 62
7
  6
CONTINUOUS
 10
23.5211913535
 20
-6.3747899835
 11
23.5211913535
 21
-7.0049697238
  0
LINE
  5
633
100
AcDbEntity
  8
ASSI
100
AcDbLine
 62
7
  6
CONTINUOUS
 10
23.5211913535
 20
-6.3747899835
 11
23.5211913535
 21
-7.0049697238
  0
LINE
  5
634
100
AcDbEntity
  8
DRAFT
100
AcDbLine
 62
7
  6
CONTINUOUS
 10
23.5281733795
 20
-1.2817720095
 11
23.5281733795
 21
-1.9073349186
  0
LINE
  5
635
100
AcDbEntity
  8
ASSI
100
AcDbLine
 62
7
  6
CONTINUOUS
 10
23.5281733795
 20
-1.2817720095
 11
23.5281733795
 21
-1.9073349186
  0
LINE
  5
636
100
AcDbEntity
  8
DRAFT
100
AcDbLine
 62
7
  6
CONTINUOUS
 10
23.5281733795
 20
-4.3724247887
 11
23.5281733795
 21
-4.9979876978
  0
LINE
  5
637
100
AcDbEntity
  8
ASSI
100
AcDbLine
 62
7
  6
CONTINUOUS
 10
23.5281733795
 20
-4.3724247887
 11
23.5281733795
 21
-4.9979876978
  0
LINE
  5
638
100
AcDbEntity
  8
RACCORDO
100
AcDbLine
 62
7
  6
CONTINUOUS
 10
23.5316643925
 20
-8.1451134846
 11
23.5316643925
 21
-9.5329015583
  0
LINE
  5
639
100
AcDbEntity
  8
ASSI
100
AcDbLine
 62
7
  6
CONTINUOUS
 10
23.5316643925
 20
-8.1451134846
 11
23.5316643925
 21
-9.5329015583
  0
LINE
  5
63A
100
AcDbEntity
  8
RACCORDO
100
AcDbLine
 62
7
  6
CONTINUOUS
 10
23.5386464185
 20
8.0025641305
 11
23.5386464185
 21
7.8124853411
  0
LINE
  5
63B
100
AcDbEntity
  8
ASSI
100
AcDbLine
 62
7
  6
CONTINUOUS
 10
23.5386464185
 20
8.0025641305
 11
23.5386464185
 21
7.8124853411
  0
LINE
  5
63C
100
AcDbEntity
  8
DRAFT
100
AcDbLine
 62
7
  6
CONTINUOUS
 10
23.5456284444
 20
7.7007729256
 11
23.5456284444
 21
-1.8898798537
  0
LINE
  5
63D
100
AcDbEntity
  8
ASSI
100
AcDbLine
 62
7
  6
CONTINUOUS
 10
23.5456284444
 20
7.7007729256
 11
23.5456284444
 21
-1.8898798537
  0
LINE
  5
63E
100
AcDbEntity
  8
RACCORDO
100
AcDbLine
 62
7
  6
CONTINUOUS
 10
24.6386464185
 20
8.7031761966
 11
24.6386464185
 21
8.0025641305
  0
LINE
  5
63F
100
AcDbEntity
  8
ASSI
100
AcDbLine
 62
7
  6
CONTINUOUS
 10
24.6386464185
 20
8.7031761966
 11
24.6386464185
 21
8.0025641305
  0
LINE
  5
640
100
AcDbEntity
  8
DRAFT
100
AcDbLine
 62
7
  6
CONTINUOUS
 10
24.6456284444
 20
7.7007729256
 11
24.6456284444
 21
-1.9283882903
  0
LINE
  5
641
100
AcDbEntity
  8
ASSI
100
AcDbLine
 62
7
  6
CONTINUOUS
 10
24.6456284444
 20
7.7007729256
 11
24.6456284444
 21
-1.9283882903
  0
LINE
  5
642
100
AcDbEntity
  8
DRAFT
100
AcDbLine
 62
7
  6
CONTINUOUS
 10
23.5411208594
 20
-4.3853722686
 11
23.531666225
 21
-9.5378812315
  0
LINE
  5
643
100
AcDbEntity
  8
ASSI
100
AcDbLine
 62
7
  6
CONTINUOUS
 10
23.5411208594
 20
-4.3853722686
 11
23.531666225
 21
-9.5378812315
  0
LINE
  5
644
100
AcDbEntity
  8
DRAFT
100
AcDbLine
 62
7
  6
CONTINUOUS
 10
23.8456284444
 20
-1.8898798537
 11
23.8411208586
 21
-4.3853722678
  0
LINE
  5
645
100
AcDbEntity
  8
ASSI
100
AcDbLine
 62
7
  6
CONTINUOUS
 10
23.8456284444
 20
-1.8898798537
 11
23.8411208586
 21
-4.3853722678
  0
LINE
  5
646
100
AcDbEntity
  8
RACCORDO
100
AcDbLine
 62
7
  6
CONTINUOUS
 10
24.6321353667
 20
-9.2831623852
 11
24.6456284444
 21
-1.9283882903
  0
LINE
  5
647
100
AcDbEntity
  8
ASSI
100
AcDbLine
 62
7
  6
CONTINUOUS
 10
24.6321353667
 20
-9.2831623852
 11
24.6456284444
 21
-1.9283882903
  0
ARC
  5
648
100
AcDbEntity
  8
RACCORDO
100
AcDbCircle
 62
253
  6
CONTINUOUS
 10
-18.1492896967
 20
-6.8347979946
 40
0.3000637852
100
AcDbArc
 50
0.0208058113
 51
89.9791941349
  0
ARC
  5
649
100
AcDbEntity
  8
RACCORDO
100
AcDbCircle
 62
253
  6
CONTINUOUS
 10
-18.3594534144
 20
-6.8347979946
 40
0.3000637852
100
AcDbArc
 50
90.0208058651
 51
179.9791941887
  0
ARC
  5
64A
100
AcDbEntity
  8
RACCORDO
100
AcDbCircle
 62
253
  6
CONTINUOUS
 10
-6.9492896967
 20
-6.8347979946
 40
0.3000637852
100
AcDbArc
 50
0.0208058113
 51
89.9791941349
  0
ARC
  5
64B
100
AcDbEntity
  8
RACCORDO
100
AcDbCircle
 62
253
  6
CONTINUOUS
 10
-7.1594534144
 20
-6.8347979946
 40
0.3000637852
100
AcDbArc
 50
90.0208058651
 51
179.9791941887
  0
ARC
  5
64C
100
AcDbEntity
  8
ASSI
100
AcDbCircle
 62
253
  6
CONTINUOUS
 10
-18.1492896967
 20
-6.8347979946
 40
0.3000637852
100
AcDbArc
 50
0.0208058113
 51
89.9791941349
  0
ARC
  5
64D
100
AcDbEntity
  8
ASSI
100
AcDbCircle
 62
253
  6
CONTINUOUS
 10
-6.9492896967
 20
-6.8347979946
 40
0.3000637852
100
AcDbArc
 50
0.0208058113
 51
89.9791941349
  0
ARC
  5
64E
100
AcDbEntity
  8
ASSI
100
AcDbCircle
 62
253
  6
CONTINUOUS
 10
-7.1594534144
 20
-6.8347979946
 40
0.3000637852
100
AcDbArc
 50
90.0208058651
 51
179.9791941887
  0
ARC
  5
64F
100
AcDbEntity
  8
ASSI
100
AcDbCircle
 62
253
  6
CONTINUOUS
 10
-18.3594534144
 20
-6.8347979946
 40
0.3000637852
100
AcDbArc
 50
90.0208058651
 51
179.9791941887
  0
ARC
  5
650
100
AcDbEntity
  8
RACCORDO
100
AcDbCircle
 62
7
  6
CONTINUOUS
 10
-18.1192853844
 20
-6.8045814434
 40
0.2997999466
100
AcDbArc
 50
359.9317190043
 51
89.99032184
  0
ARC
  5
651
100
AcDbEntity
  8
RACCORDO
100
AcDbCircle
 62
7
  6
CONTINUOUS
 10
-18.3894577275
 20
-6.8045814435
 40
0.2997999466
100
AcDbArc
 50
90.0096780216
 51
180.0682809747
  0
ARC
  5
652
100
AcDbEntity
  8
RACCORDO
100
AcDbCircle
 62
7
  6
CONTINUOUS
 10
-6.9192853844
 20
-6.8045814434
 40
0.2997999466
100
AcDbArc
 50
359.9317190043
 51
89.99032184
  0
ARC
  5
653
100
AcDbEntity
  8
RACCORDO
100
AcDbCircle
 62
7
  6
CONTINUOUS
 10
-7.1894577275
 20
-6.8045814435
 40
0.2997999466
100
AcDbArc
 50
90.009678022
 51
180.0682809743
  0
ARC
  5
654
100
AcDbEntity
  8
ASSI
100
AcDbCircle
 62
7
  6
CONTINUOUS
 10
-18.1192853844
 20
-6.8045814434
 40
0.2997999466
100
AcDbArc
 50
359.9317190043
 51
89.99032184
  0
ARC
  5
655
100
AcDbEntity
  8
ASSI
100
AcDbCircle
 62
7
  6
CONTINUOUS
 10
-18.3894577275
 20
-6.8045814435
 40
0.2997999466
100
AcDbArc
 50
90.0096780216
 51
180.0682809747
  0
ARC
  5
656
100
AcDbEntity
  8
ASSI
100
AcDbCircle
 62
7
  6
CONTINUOUS
 10
-6.9192853844
 20
-6.8045814434
 40
0.2997999466
100
AcDbArc
 50
359.9317190043
 51
89.99032184
  0
ARC
  5
657
100
AcDbEntity
  8
ASSI
100
AcDbCircle
 62
7
  6
CONTINUOUS
 10
-7.1894577275
 20
-6.8045814435
 40
0.2997999466
100
AcDbArc
 50
90.009678022
 51
180.0682809743
  0
ARC
  5
658
100
AcDbEntity
  8
RACCORDO
100
AcDbCircle
 62
253
  6
CONTINUOUS
 10
-31.300255382
 20
4.7843372775
 40
50.7081457223
100
AcDbArc
 50
359.9646067187
 51
0.3640197827
  0
ARC
  5
659
100
AcDbEntity
  8
ASSI
100
AcDbCircle
 62
253
  6
CONTINUOUS
 10
-31.300255382
 20
4.7843372775
 40
50.7081457223
100
AcDbArc
 50
359.9646067187
 51
0.3640197827
  0
ARC
  5
65A
100
AcDbEntity
  8
RACCORDO
100
AcDbCircle
 62
253
  6
CONTINUOUS
 10
-70.6002553812
 20
4.7843372779
 40
50.7081457215
100
AcDbArc
 50
359.9646067182
 51
0.3640197823
  0
ARC
  5
65B
100
AcDbEntity
  8
ASSI
100
AcDbCircle
 62
253
  6
CONTINUOUS
 10
-70.6002553812
 20
4.7843372779
 40
50.7081457215
100
AcDbArc
 50
359.9646067182
 51
0.3640197823
  0
CIRCLE
  5
65C
100
AcDbEntity
  8
0
100
AcDbCircle
 62
7
  6
CONTINUOUS
 10
-0.1543715556
 20
4.5601201463
 40
1.1
  0
CIRCLE
  5
65D
100
AcDbEntity
  8
0
100
AcDbCircle
 62
7
  6
CONTINUOUS
 10
-0.1543715556
 20
4.5601201463
 40
0.9
  0
ARC
  5
65E
100
AcDbEntity
  8
RACCORDO
100
AcDbCircle
 62
253
  6
CONTINUOUS
 10
-19.7133154734
 20
3.1690640642
 40
0.3000646364
100
AcDbArc
 50
270.0209582141
 51
359.9790417859
  0
ARC
  5
65F
100
AcDbEntity
  8
ASSI
100
AcDbCircle
 62
253
  6
CONTINUOUS
 10
-19.7133154734
 20
3.1690640642
 40
0.3000646364
100
AcDbArc
 50
270.0209582141
 51
359.9790417859
  0
ARC
  5
660
100
AcDbEntity
  8
RACCORDO
100
AcDbCircle
 62
253
  6
CONTINUOUS
 10
-19.8954276439
 20
3.1690640581
 40
0.3000646302
100
AcDbArc
 50
180.0209570569
 51
269.9790429984
  0
ARC
  5
661
100
AcDbEntity
  8
ASSI
100
AcDbCircle
 62
253
  6
CONTINUOUS
 10
-19.8954276439
 20
3.1690640581
 40
0.3000646302
100
AcDbArc
 50
180.0209570569
 51
269.9790429984
  0
ARC
  5
662
100
AcDbEntity
  8
RACCORDO
100
AcDbCircle
 62
7
  6
CONTINUOUS
 10
-19.6824110717
 20
3.1382427462
 40
0.2999882567
100
AcDbArc
 50
269.9912778678
 51
359.9782891341
  0
ARC
  5
663
100
AcDbEntity
  8
RACCORDO
100
AcDbCircle
 62
7
  6
CONTINUOUS
 10
-19.926332034
 20
3.1382427408
 40
0.2999882567
100
AcDbArc
 50
180.0217098431
 51
270.0087211105
  0
ARC
  5
664
100
AcDbEntity
  8
ASSI
100
AcDbCircle
 62
7
  6
CONTINUOUS
 10
-19.6824110717
 20
3.1382427462
 40
0.2999882567
100
AcDbArc
 50
269.9912778678
 51
359.9782891341
  0
ARC
  5
665
100
AcDbEntity
  8
ASSI
100
AcDbCircle
 62
7
  6
CONTINUOUS
 10
-19.926332034
 20
3.1382427408
 40
0.2999882567
100
AcDbArc
 50
180.0217098431
 51
270.0087211105
  0
ARC
  5
666
100
AcDbEntity
  8
RACCORDO
100
AcDbCircle
 62
253
  6
CONTINUOUS
 10
6.6405465856
 20
-6.8347979946
 40
0.3000637852
100
AcDbArc
 50
90.0208058651
 51
179.9791941887
  0
ARC
  5
667
100
AcDbEntity
  8
RACCORDO
100
AcDbCircle
 62
253
  6
CONTINUOUS
 10
6.8507103033
 20
-6.8347979946
 40
0.3000637852
100
AcDbArc
 50
0.0208058113
 51
89.9791941349
  0
ARC
  5
668
100
AcDbEntity
  8
RACCORDO
100
AcDbCircle
 62
253
  6
CONTINUOUS
 10
18.0507103033
 20
-6.8347979946
 40
0.3000637852
100
AcDbArc
 50
0.0208058113
 51
89.9791941349
  0
ARC
  5
669
100
AcDbEntity
  8
RACCORDO
100
AcDbCircle
 62
253
  6
CONTINUOUS
 10
17.8405465856
 20
-6.8347979946
 40
0.3000637852
100
AcDbArc
 50
90.0208058651
 51
179.9791941887
  0
ARC
  5
66A
100
AcDbEntity
  8
ASSI
100
AcDbCircle
 62
253
  6
CONTINUOUS
 10
6.6405465856
 20
-6.8347979946
 40
0.3000637852
100
AcDbArc
 50
90.0208058651
 51
179.9791941887
  0
ARC
  5
66B
100
AcDbEntity
  8
ASSI
100
AcDbCircle
 62
253
  6
CONTINUOUS
 10
6.8507103033
 20
-6.8347979946
 40
0.3000637852
100
AcDbArc
 50
0.0208058113
 51
89.9791941349
  0
ARC
  5
66C
100
AcDbEntity
  8
ASSI
100
AcDbCircle
 62
253
  6
CONTINUOUS
 10
18.0507103033
 20
-6.8347979946
 40
0.3000637852
100
AcDbArc
 50
0.0208058113
 51
89.9791941349
  0
ARC
  5
66D
100
AcDbEntity
  8
ASSI
100
AcDbCircle
 62
253
  6
CONTINUOUS
 10
17.8405465856
 20
-6.8347979946
 40
0.3000637852
100
AcDbArc
 50
90.0208058651
 51
179.9791941887
  0
ARC
  5
66E
100
AcDbEntity
  8
RACCORDO
100
AcDbCircle
 62
7
  6
CONTINUOUS
 10
6.6105422725
 20
-6.8045814435
 40
0.2997999466
100
AcDbArc
 50
90.0096780222
 51
180.068280974
  0
ARC
  5
66F
100
AcDbEntity
  8
RACCORDO
100
AcDbCircle
 62
7
  6
CONTINUOUS
 10
6.8807146156
 20
-6.8045814434
 40
0.2997999466
100
AcDbArc
 50
359.9317190079
 51
89.9903218364
  0
ARC
  5
670
100
AcDbEntity
  8
RACCORDO
100
AcDbCircle
 62
7
  6
CONTINUOUS
 10
18.0807146156
 20
-6.8045814434
 40
0.2997999466
100
AcDbArc
 50
359.9317190043
 51
89.99032184
  0
ARC
  5
671
100
AcDbEntity
  8
RACCORDO
100
AcDbCircle
 62
7
  6
CONTINUOUS
 10
17.8105422725
 20
-6.8045814435
 40
0.2997999466
100
AcDbArc
 50
90.0096780219
 51
180.0682809744
  0
ARC
  5
672
100
AcDbEntity
  8
ASSI
100
AcDbCircle
 62
7
  6
CONTINUOUS
 10
6.6105422725
 20
-6.8045814435
 40
0.2997999466
100
AcDbArc
 50
90.0096780222
 51
180.068280974
  0
ARC
  5
673
100
AcDbEntity
  8
ASSI
100
AcDbCircle
 62
7
  6
CONTINUOUS
 10
6.8807146156
 20
-6.8045814434
 40
0.2997999466
100
AcDbArc
 50
359.9317190079
 51
89.9903218364
  0
ARC
  5
674
100
AcDbEntity
  8
ASSI
100
AcDbCircle
 62
7
  6
CONTINUOUS
 10
18.0807146156
 20
-6.8045814434
 40
0.2997999466
100
AcDbArc
 50
359.9317190043
 51
89.99032184
  0
ARC
  5
675
100
AcDbEntity
  8
ASSI
100
AcDbCircle
 62
7
  6
CONTINUOUS
 10
17.8105422725
 20
-6.8045814435
 40
0.2997999466
100
AcDbArc
 50
90.0096780219
 51
180.0682809744
  0
ARC
  5
676
100
AcDbEntity
  8
0
100
AcDbCircle
 62
7
  6
CONTINUOUS
 10
13.1806196495
 20
-3.1913929228
 40
0.2330561558
100
AcDbArc
 50
48.1418264783
 51
53.9796874654
  0
ARC
  5
677
100
AcDbEntity
  8
ASSI
100
AcDbCircle
 62
7
  6
CONTINUOUS
 10
13.1806196495
 20
-3.1913929228
 40
0.2330561558
100
AcDbArc
 50
48.1418264783
 51
53.9796874654
  0
ARC
  5
678
100
AcDbEntity
  8
RACCORDO
100
AcDbCircle
 62
253
  6
CONTINUOUS
 10
76.4028347635
 20
4.7669548165
 40
56.8194743415
100
AcDbArc
 50
179.6576049437
 51
180.0140583201
  0
ARC
  5
679
100
AcDbEntity
  8
RACCORDO
100
AcDbCircle
 62
253
  6
CONTINUOUS
 10
37.1028347635
 20
4.7669548164
 40
56.8194743415
100
AcDbArc
 50
179.6576049437
 51
180.0140583201
  0
ARC
  5
67A
100
AcDbEntity
  8
ASSI
100
AcDbCircle
 62
253
  6
CONTINUOUS
 10
76.4028347635
 20
4.7669548165
 40
56.8194743415
100
AcDbArc
 50
179.6576049437
 51
180.0140583201
  0
ARC
  5
67B
100
AcDbEntity
  8
ASSI
100
AcDbCircle
 62
253
  6
CONTINUOUS
 10
37.1028347635
 20
4.7669548164
 40
56.8194743415
100
AcDbArc
 50
179.6576049437
 51
180.0140583201
  0
ARC
  5
67C
100
AcDbEntity
  8
RACCORDO
100
AcDbCircle
 62
253
  6
CONTINUOUS
 10
19.5866845266
 20
3.1690640642
 40
0.3000646364
100
AcDbArc
 50
270.0209582141
 51
359.9790417859
  0
ARC
  5
67D
100
AcDbEntity
  8
ASSI
100
AcDbCircle
 62
253
  6
CONTINUOUS
 10
19.5866845266
 20
3.1690640642
 40
0.3000646364
100
AcDbArc
 50
270.0209582141
 51
359.9790417859
  0
ARC
  5
67E
100
AcDbEntity
  8
RACCORDO
100
AcDbCircle
 62
253
  6
CONTINUOUS
 10
19.4045723561
 20
3.1690640581
 40
0.3000646302
100
AcDbArc
 50
180.0209570569
 51
269.9790429984
  0
ARC
  5
67F
100
AcDbEntity
  8
ASSI
100
AcDbCircle
 62
253
  6
CONTINUOUS
 10
19.4045723561
 20
3.1690640581
 40
0.3000646302
100
AcDbArc
 50
180.0209570569
 51
269.9790429984
  0
ARC
  5
680
100
AcDbEntity
  8
RACCORDO
100
AcDbCircle
 62
7
  6
CONTINUOUS
 10
19.373667966
 20
3.1382427408
 40
0.2999882567
100
AcDbArc
 50
180.0217098416
 51
270.0087211121
  0
ARC
  5
681
100
AcDbEntity
  8
RACCORDO
100
AcDbCircle
 62
7
  6
CONTINUOUS
 10
19.6175889282
 20
3.1382427462
 40
0.2999882567
100
AcDbArc
 50
269.9912778705
 51
359.9782891314
  0
ARC
  5
682
100
AcDbEntity
  8
ASSI
100
AcDbCircle
 62
7
  6
CONTINUOUS
 10
19.373667966
 20
3.1382427408
 40
0.2999882567
100
AcDbArc
 50
180.0217098416
 51
270.0087211121
  0
ARC
  5
683
100
AcDbEntity
  8
ASSI
100
AcDbCircle
 62
7
  6
CONTINUOUS
 10
19.6175889282
 20
3.1382427462
 40
0.2999882567
100
AcDbArc
 50
269.9912778705
 51
359.9782891314
  0
SPLINE
  5
684
100
AcDbEntity
  8
0
100
AcDbSpline
 62
7
  6
CONTINUOUS
 70
0
 71
3
 72
9
 73
5
 74
3
 42
0.0000001
 43
0.0000001
 44
0.0000000001
 12
-0.0046820729
 22
0.3133621937
 32
0.0
 13
-0.3113313703
 23
0.0361338596
 33
0.0
 40
0.0
 40
0.0
 40
0.0
 40
0.0
 40
0.4988583766
 40
1.0
 40
1.0
 40
1.0
 40
1.0
 10
13.1818830624
 20
-2.5645336483
 30
0.0
 10
13.1811044986
 20
-2.5124258632
 30
0.0
 10
13.1386799525
 20
-2.4037518974
 30
0.0
 10
13.0334437018
 20
-2.3579347514
 30
0.0
 10
12.9814366657
 20
-2.351898691
 30
0.0
 11
13.1818830624
 21
-2.5645336483
 31
0.0
 11
13.1231455175
 21
-2.4196425549
 31
0.0
 11
12.9814366657
 21
-2.351898691
 31
0.0
  0
SPLINE
  5
685
100
AcDbEntity
  8
0
100
AcDbSpline
 62
7
  6
CONTINUOUS
 70
0
 71
3
 72
9
 73
5
 74
3
 42
0.0000001
 43
0.0000001
 44
0.0000000001
 12
-0.2768734096
 22
0.0321345862
 32
0.0
 13
-0.2747605685
 23
-0.046883616
 33
0.0
 40
0.0
 40
0.0
 40
0.0
 40
0.0
 40
0.7295958319
 40
1.0
 40
1.0
 40
1.0
 40
1.0
 10
12.9814366657
 20
-2.3518986911
 30
0.0
 10
12.9141014371
 20
-2.3440836044
 30
0.0
 10
12.8201087486
 20
-2.3437823565
 30
0.0
 10
12.7282353437
 20
-2.357680361
 30
0.0
 10
12.7034698761
 20
-2.3619062027
 30
0.0
 11
12.9814366657
 21
-2.3518986911
 31
0.0
 11
12.7780762056
 21
-2.3512024311
 31
0.0
 11
12.7034698761
 21
-2.3619062027
 31
0.0
  0
SPLINE
  5
686
100
AcDbEntity
  8
0
100
AcDbSpline
 62
7
  6
CONTINUOUS
 70
0
 71
3
 72
9
 73
5
 74
3
 42
0.0000001
 43
0.0000001
 44
0.0000000001
 12
0.4232572624
 22
0.0094537593
 32
0.0
 13
-0.0063259437
 23
0.4233860928
 33
0.0
 40
0.0
 40
0.0
 40
0.0
 40
0.0
 40
0.4795375616
 40
1.0
 40
1.0
 40
1.0
 40
1.0
 10
12.9062505889
 20
-2.8285516852
 30
0.0
 10
12.9739065074
 20
-2.8270405409
 30
0.0
 10
13.131048578
 20
-2.7984187705
 30
0.0
 10
13.1829805197
 20
-2.6379858346
 30
0.0
 10
13.1818830476
 20
-2.5645336485
 30
0.0
 11
12.9062505889
 21
-2.8285516852
 31
0.0
 11
13.100423829
 21
-2.7692793086
 31
0.0
 11
13.1818830476
 21
-2.5645336485
 31
0.0
  0
SPLINE
  5
687
100
AcDbEntity
  8
0
100
AcDbSpline
 62
7
  6
CONTINUOUS
 70
0
 71
3
 72
17
 73
13
 74
11
 42
0.0000001
 43
0.0000001
 44
0.0000000001
 12
0.9958819045
 22
-0.3598342768
 32
0.0
 13
-1.050193894
 23
-0.1355088895
 33
0.0
 40
0.0
 40
0.0
 40
0.0
 40
0.0
 40
0.0798430187
 40
0.1895551228
 40
0.3223119562
 40
0.398530744
 40
0.483321362
 40
0.5876727129
 40
0.6789531193
 40
0.8312245932
 40
0.9440148167
 40
1.0
 40
1.0
 40
1.0
 40
1.0
 10
13.237622591
 20
-2.1101202179
 30
0.0
 10
13.2641273302
 20
-2.1196969695
 30
0.0
 10
13.3233739198
 20
-2.1523846794
 30
0.0
 10
13.4095749877
 20
-2.228177519
 30
0.0
 10
13.4706512519
 20
-2.3251341282
 30
0.0
 10
13.5031696808
 20
-2.4240672429
 30
0.0
 10
13.5165867747
 20
-2.5171739266
 30
0.0
 10
13.5140408904
 20
-2.6168607493
 30
0.0
 10
13.4869420225
 20
-2.7369683756
 30
0.0
 10
13.426110907
 20
-2.8520993119
 30
0.0
 10
13.3434957411
 20
-2.9268914836
 30
0.0
 10
13.2936790598
 20
-2.9661261249
 30
0.0
 10
13.2740806272
 20
-2.9686549549
 30
0.0
 11
13.237622591
 21
-2.1101202179
 31
0.0
 11
13.3125210715
 21
-2.1493428947
 31
0.0
 11
13.3996490272
 21
-2.226187932
 31
0.0
 11
13.4746592802
 21
-2.3450792468
 31
0.0
 11
13.5000511853
 21
-2.4216889608
 31
0.0
 11
13.5133307654
 21
-2.5104862875
 31
0.0
 11
13.5100919588
 21
-2.620936489
 31
0.0
 11
13.4885173591
 21
-2.7151547647
 31
0.0
 11
13.4117938175
 21
-2.856971323
 31
0.0
 11
13.3260262153
 21
-2.9400875304
 31
0.0
 11
13.2740806272
 21
-2.9686549549
 31
0.0
  0
SPLINE
  5
688
100
AcDbEntity
  8
0
100
AcDbSpline
 62
7
  6
CONTINUOUS
 70
0
 71
3
 72
8
 73
4
 74
2
 42
0.0000001
 43
0.0000001
 44
0.0000000001
 12
0.0468153254
 22
-0.018667611
 32
0.0
 13
0.0404489985
 23
-0.0293488028
 33
0.0
 40
0.0
 40
0.0
 40
0.0
 40
0.0
 40
1.0
 40
1.0
 40
1.0
 40
1.0
 10
13.2740806272
 20
-2.9786996621
 30
0.0
 10
13.2896857357
 20
-2.9849221991
 30
0.0
 10
13.3041904563
 20
-2.9931121743
 30
0.0
 10
13.3176734558
 20
-3.0028951086
 30
0.0
 11
13.2740806272
 21
-2.9786996621
 31
0.0
 11
13.3176734558
 21
-3.0028951086
 31
0.0
  0
SPLINE
  5
689
100
AcDbEntity
  8
0
100
AcDbSpline
 62
7
  6
CONTINUOUS
 70
0
 71
3
 72
9
 73
5
 74
3
 42
0.0000001
 43
0.0000001
 44
0.0000000001
 12
0.2399260035
 22
-0.2145228187
 32
0.0
 13
0.0845359266
 23
-0.3102902278
 33
0.0
 40
0.0
 40
0.0
 40
0.0
 40
0.0
 40
0.7012282199
 40
1.0
 40
1.0
 40
1.0
 40
1.0
 10
13.336135464
 20
-3.0178129608
 30
0.0
 10
13.3922164254
 20
-3.0679561122
 30
0.0
 10
13.4440838437
 20
-3.1798844189
 30
0.0
 10
13.4701986257
 20
-3.2812342242
 30
0.0
 10
13.4786176088
 20
-3.3121362121
 30
0.0
 11
13.336135464
 21
-3.0178129608
 31
0.0
 11
13.4522951077
 21
-3.2197290153
 31
0.0
 11
13.4786176088
 21
-3.3121362121
 31
0.0
  0
SPLINE
  5
68A
100
AcDbEntity
  8
0
100
AcDbSpline
 62
7
  6
CONTINUOUS
 70
0
 71
3
 72
9
 73
5
 74
3
 42
0.0000001
 43
0.0000001
 44
0.0000000001
 12
0.1250599769
 22
-0.4590343077
 32
0.0
 13
0.1246990825
 23
-0.4591324849
 33
0.0
 40
0.0
 40
0.0
 40
0.0
 40
0.0
 40
0.8019701246
 40
1.0
 40
1.0
 40
1.0
 40
1.0
 10
13.4786176091
 20
-3.3121362121
 30
0.0
 10
13.5120490641
 20
-3.4348468124
 30
0.0
 10
13.5513918935
 20
-3.5884850596
 30
0.0
 10
13.5916776217
 20
-3.7418732241
 30
0.0
 10
13.5999090029
 20
-3.7721805404
 30
0.0
 11
13.4786176091
 21
-3.3121362121
 31
0.0
 11
13.5757590428
 21
-3.6811125387
 31
0.0
 11
13.5999090029
 21
-3.7721805404
 31
0.0
  0
SPLINE
  5
68B
100
AcDbEntity
  8
0
100
AcDbSpline
 62
7
  6
CONTINUOUS
 70
0
 71
3
 72
9
 73
5
 74
3
 42
0.0000001
 43
0.0000001
 44
0.0000000001
 12
-0.1487666252
 22
0.5174419044
 32
0.0
 13
-0.1893777802
 23
0.5039985871
 33
0.0
 40
0.0
 40
0.0
 40
0.0
 40
0.0
 40
0.4413080349
 40
1.0
 40
1.0
 40
1.0
 40
1.0
 10
13.2586056596
 20
-3.7721805404
 30
0.0
 10
13.2367216905
 20
-3.6960634504
 30
0.0
 10
13.1850524968
 20
-3.524289878
 30
0.0
 10
13.1386857573
 20
-3.3505058785
 30
0.0
 10
13.1034178092
 20
-3.2566458915
 30
0.0
 11
13.2586056596
 21
-3.7721805404
 31
0.0
 11
13.1921502976
 21
-3.5440617988
 31
0.0
 11
13.1034178092
 21
-3.2566458915
 31
0.0
  0
SPLINE
  5
68C
100
AcDbEntity
  8
0
100
AcDbSpline
 62
7
  6
CONTINUOUS
 70
0
 71
3
 72
9
 73
5
 74
3
 42
0.0000001
 43
0.0000001
 44
0.0000000001
 12
-0.0895737501
 22
0.2383859055
 32
0.0
 13
-0.2546300208
 23
-0.0
 33
0.0
 40
0.0
 40
0.0
 40
0.0
 40
0.0
 40
0.8563651185
 40
1.0
 40
1.0
 40
1.0
 40
1.0
 10
13.1034178233
 20
-3.2566458862
 30
0.0
 10
13.0778485449
 20
-3.1885974282
 30
0.0
 10
13.0027995795
 20
-3.1129656652
 30
0.0
 10
12.9176770144
 20
-3.1069481378
 30
0.0
 10
12.9054857635
 20
-3.1069481378
 30
0.0
 11
13.1034178233
 21
-3.2566458862
 31
0.0
 11
12.9419223253
 21
-3.1101130013
 31
0.0
 11
12.9054857635
 21
-3.1069481378
 31
0.0
  0
SPLINE
  5
68D
100
AcDbEntity
  8
0
100
AcDbSpline
 62
7
  6
CONTINUOUS
 70
0
 71
3
 72
9
 73
5
 74
3
 42
0.0000001
 43
0.0000001
 44
0.0000000001
 12
0.870352019
 22
0.1280436023
 32
0.0
 13
0.8273203445
 23
-0.2990739652
 33
0.0
 40
0.0
 40
0.0
 40
0.0
 40
0.0
 40
0.8916594654
 40
1.0
 40
1.0
 40
1.0
 40
1.0
 10
12.3618351084
 20
-2.0921777715
 30
0.0
 10
12.6205209804
 20
-2.0541206748
 30
0.0
 10
12.9248454345
 20
-2.018627037
 30
0.0
 10
13.2077451327
 20
-2.0993196452
 30
0.0
 10
13.2376225755
 20
-2.1101202563
 30
0.0
 11
12.3618351084
 21
-2.0921777715
 31
0.0
 11
13.1461946469
 21
-2.0831988406
 31
0.0
 11
13.2376225755
 21
-2.1101202563
 31
0.0
  0
SPLINE
  5
68E
100
AcDbEntity
  8
RACCORDO
100
AcDbSpline
 62
7
  6
CONTINUOUS
 70
0
 71
3
 72
10
 73
6
 74
4
 42
0.0000001
 43
0.0000001
 44
0.0000000001
 12
-0.1883406519
 22
0.1821745431
 32
0.0
 13
-0.1853866352
 23
0.1851798068
 33
0.0
 40
0.0
 40
0.0
 40
0.0
 40
0.0
 40
0.2866167254
 40
0.6201205121
 40
1.0
 40
1.0
 40
1.0
 40
1.0
 10
23.3612236293
 20
-7.763425093
 30
0.0
 10
23.343229769
 20
-7.746020336
 30
0.0
 10
23.3044387625
 20
-7.70821852
 30
0.0
 10
23.2422092838
 20
-7.6469290039
 30
0.0
 10
23.1980246685
 20
-7.6029949131
 30
0.0
 10
23.1745498085
 20
-7.579546243
 30
0.0
 11
23.3612236293
 21
-7.763425093
 31
0.0
 11
23.3074147226
 21
-7.711032892
 31
0.0
 11
23.2451408651
 21
-7.6497251953
 31
0.0
 11
23.1745498085
 21
-7.579546243
 31
0.0
  0
SPLINE
  5
68F
100
AcDbEntity
  8
RACCORDO
100
AcDbSpline
 62
7
  6
CONTINUOUS
 70
0
 71
3
 72
10
 73
6
 74
4
 42
0.0000001
 43
0.0000001
 44
0.0000000001
 12
0.1932247375
 22
0.1319117349
 32
0.0
 13
0.0047953966
 23
0.23390919
 33
0.0
 40
0.0
 40
0.0
 40
0.0
 40
0.0
 40
0.3373558539
 40
0.6687258877
 40
1.0
 40
1.0
 40
1.0
 40
1.0
 10
23.3612236293
 20
-7.763425093
 30
0.0
 10
23.3829521281
 20
-7.748591361
 30
0.0
 10
23.4223344102
 20
-7.7131849732
 30
0.0
 10
23.4633141505
 20
-7.6454301728
 30
0.0
 10
23.4739745868
 20
-7.5935231125
 30
0.0
 10
23.474504117
 20
-7.5676937594
 30
0.0
 11
23.3612236293
 21
-7.763425093
 31
0.0
 11
23.4196385588
 21
-7.7103477778
 31
0.0
 11
23.4591932503
 21
-7.6436707316
 31
0.0
 11
23.474504117
 21
-7.5676937594
 31
0.0
  0
SPLINE
  5
690
100
AcDbEntity
  8
RACCORDO
100
AcDbSpline
 62
7
  6
CONTINUOUS
 70
0
 71
3
 72
10
 73
6
 74
4
 42
0.0000001
 43
0.0000001
 44
0.0000000001
 12
0.2111537282
 22
0.0378702165
 32
0.0
 13
0.151821365
 23
0.1515596362
 33
0.0
 40
0.0
 40
0.0
 40
0.0
 40
0.0
 40
0.3429101549
 40
0.6755847515
 40
1.0
 40
1.0
 40
1.0
 40
1.0
 10
23.1745498084
 20
-7.8631360847
 30
0.0
 10
23.1986853943
 20
-7.8588073907
 30
0.0
 10
23.2454169444
 20
-7.8447619805
 30
0.0
 10
23.3083830884
 20
-7.8099941222
 30
0.0
 10
23.3448059074
 20
-7.779814512
 30
0.0
 10
23.3612236293
 20
-7.763425093
 30
0.0
 11
23.1745498084
 21
-7.8631360847
 31
0.0
 11
23.2450448118
 21
-7.8421162996
 31
0.0
 11
23.3076339337
 21
-7.8078270791
 31
0.0
 11
23.3612236293
 21
-7.763425093
 31
0.0
  0
SPLINE
  5
691
100
AcDbEntity
  8
RACCORDO
100
AcDbSpline
 62
7
  6
CONTINUOUS
 70
0
 71
3
 72
13
 73
9
 74
7
 42
0.0000001
 43
0.0000001
 44
0.0000000001
 12
-0.4360540282
 22
-0.0003592369
 32
0.0
 13
-0.0089035972
 23
0.4359632674
 33
0.0
 40
0.0
 40
0.0
 40
0.0
 40
0.0
 40
0.1762313956
 40
0.3431225387
 40
0.5099732983
 40
0.6748732839
 40
0.8372164229
 40
1.0
 40
1.0
 40
1.0
 40
1.0
 10
-23.4791306643
 20
-7.8210899565
 30
0.0
 10
-23.5047461343
 20
-7.8211110595
 30
0.0
 10
-23.5547923677
 20
-7.8155535487
 30
0.0
 10
-23.6255539744
 20
-7.7917788639
 30
0.0
 10
-23.6880702817
 20
-7.7538096191
 30
0.0
 10
-23.7390871542
 20
-7.7020928644
 30
0.0
 10
-23.7737981172
 20
-7.6387684651
 30
0.0
 10
-23.7827641083
 20
-7.5913496462
 30
0.0
 10
-23.7832472281
 20
-7.5676937594
 30
0.0
 11
-23.4791306643
 21
-7.8210899565
 31
0.0
 11
-23.5555120623
 21
-7.8126485847
 31
0.0
 11
-23.6244427443
 21
-7.7893128819
 31
0.0
 11
-23.6864586561
 21
-7.75126741
 31
0.0
 11
-23.7366573632
 21
-7.6997847342
 31
0.0
 11
-23.7702603617
 21
-7.6374780752
 31
0.0
 11
-23.7832472281
 21
-7.5676937594
 31
0.0
  0
SPLINE
  5
692
100
AcDbEntity
  8
RACCORDO
100
AcDbSpline
 62
253
  6
CONTINUOUS
 70
0
 71
3
 72
11
 73
7
 74
5
 42
0.0000001
 43
0.0000001
 44
0.0000000001
 12
-0.0069988224
 22
0.4010844298
 32
0.0
 13
-0.4011302123
 23
0.0035008769
 33
0.0
 40
0.0
 40
0.0
 40
0.0
 40
0.0
 40
0.2095153874
 40
0.4453794694
 40
0.7128570698
 40
1.0
 40
1.0
 40
1.0
 40
1.0
 10
-19.4033164021
 20
5.6015415026
 30
0.0
 10
-19.4038051891
 20
5.6295526225
 30
0.0
 10
-19.4229006813
 20
5.6894198545
 30
0.0
 10
-19.492747571
 20
5.7580742741
 30
0.0
 10
-19.5903529574
 20
5.8026986484
 30
0.0
 10
-19.6648768091
 20
5.8133384529
 30
0.0
 10
-19.7032707106
 20
5.8136735369
 30
0.0
 11
-19.4033164021
 21
5.6015415026
 31
0.0
 11
-19.4272023442
 21
5.682122006
 31
0.0
 11
-19.4924677263
 21
5.7506244283
 31
0.0
 11
-19.5893300262
 21
5.7967810525
 31
0.0
 11
-19.7032707106
 21
5.8136735369
 31
0.0
  0
SPLINE
  5
693
100
AcDbEntity
  8
RACCORDO
100
AcDbSpline
 62
253
  6
CONTINUOUS
 70
0
 71
3
 72
11
 73
7
 74
5
 42
0.0000001
 43
0.0000001
 44
0.0000000001
 12
-0.0069988137
 22
0.401084489
 32
0.0
 13
-0.401130273
 23
0.0035006841
 33
0.0
 40
0.0
 40
0.0
 40
0.0
 40
0.0
 40
0.2095120489
 40
0.4453745127
 40
0.7128531963
 40
1.0
 40
1.0
 40
1.0
 40
1.0
 10
-19.4156589968
 20
4.8944347214
 30
0.0
 10
-19.4161477754
 20
4.9224453991
 30
0.0
 10
-19.4352427135
 20
4.9823119823
 30
0.0
 10
-19.5050887018
 20
5.0509666101
 30
0.0
 10
-19.6026943328
 20
5.095591673
 30
0.0
 10
-19.6772188802
 20
5.1062316828
 30
0.0
 10
-19.7156133054
 20
5.1065667529
 30
0.0
 11
-19.4156589968
 21
4.8944347214
 31
0.0
 11
-19.4395442136
 21
4.9750140558
 31
0.0
 11
-19.5048086374
 21
5.0435165139
 31
0.0
 11
-19.6016710943
 21
5.0896738552
 31
0.0
 11
-19.7156133054
 21
5.1065667529
 31
0.0
  0
SPLINE
  5
694
100
AcDbEntity
  8
RACCORDO
100
AcDbSpline
 62
253
  6
CONTINUOUS
 70
0
 71
3
 72
11
 73
7
 74
5
 42
0.0000001
 43
0.0000001
 44
0.0000000001
 12
0.0069988224
 22
0.4010844293
 32
0.0
 13
0.4011302117
 23
0.0035008838
 33
0.0
 40
0.0
 40
0.0
 40
0.0
 40
0.0
 40
0.2095153873
 40
0.4453794686
 40
0.7128570688
 40
1.0
 40
1.0
 40
1.0
 40
1.0
 10
-20.1930841143
 20
4.8944347214
 30
0.0
 10
-20.1925953273
 20
4.9224458412
 30
0.0
 10
-20.1734998351
 20
4.9823130731
 30
0.0
 10
-20.1036529453
 20
5.0509674924
 30
0.0
 10
-20.0060475588
 20
5.0955918657
 30
0.0
 10
-19.9315237073
 20
5.1062316711
 30
0.0
 10
-19.8931298057
 20
5.1065667557
 30
0.0
 11
-20.1930841143
 21
4.8944347214
 31
0.0
 11
-20.1691981722
 21
4.9750152246
 31
0.0
 11
-20.1039327901
 21
5.0435176464
 31
0.0
 11
-20.0070704902
 21
5.0896742701
 31
0.0
 11
-19.8931298057
 21
5.1065667557
 31
0.0
  0
SPLINE
  5
695
100
AcDbEntity
  8
RACCORDO
100
AcDbSpline
 62
253
  6
CONTINUOUS
 70
0
 71
3
 72
11
 73
7
 74
5
 42
0.0000001
 43
0.0000001
 44
0.0000000001
 12
0.0069988223
 22
0.4010844284
 32
0.0
 13
0.4011302109
 23
0.003500877
 33
0.0
 40
0.0
 40
0.0
 40
0.0
 40
0.0
 40
0.209515632
 40
0.4453798145
 40
0.7128573246
 40
1.0
 40
1.0
 40
1.0
 40
1.0
 10
-20.205426709
 20
5.6015415026
 30
0.0
 10
-20.2049379215
 20
5.6295526551
 30
0.0
 10
-20.185842391
 20
5.689419933
 30
0.0
 10
-20.1159954405
 20
5.7580743378
 30
0.0
 10
-20.0183900721
 20
5.8026986642
 30
0.0
 10
-19.9438662678
 20
5.8133384532
 30
0.0
 10
-19.9054724005
 20
5.8136735369
 30
0.0
 11
-20.205426709
 21
5.6015415026
 31
0.0
 11
-20.1815407151
 21
5.6821220926
 31
0.0
 11
-20.1162752695
 21
5.7506245098
 31
0.0
 11
-20.0194129856
 21
5.7967810822
 31
0.0
 11
-19.9054724005
 21
5.8136735369
 31
0.0
  0
SPLINE
  5
696
100
AcDbEntity
  8
RACCORDO
100
AcDbSpline
 62
253
  6
CONTINUOUS
 70
0
 71
3
 72
11
 73
7
 74
5
 42
0.0000001
 43
0.0000001
 44
0.0000000001
 12
0.0069988224
 22
0.4010844293
 32
0.0
 13
0.4011302117
 23
0.0035008838
 33
0.0
 40
0.0
 40
0.0
 40
0.0
 40
0.0
 40
0.2095153873
 40
0.4453794686
 40
0.7128570688
 40
1.0
 40
1.0
 40
1.0
 40
1.0
 10
19.1069158857
 20
4.8944347214
 30
0.0
 10
19.1074046727
 20
4.9224458412
 30
0.0
 10
19.1265001649
 20
4.9823130731
 30
0.0
 10
19.1963470547
 20
5.0509674924
 30
0.0
 10
19.2939524412
 20
5.0955918657
 30
0.0
 10
19.3684762927
 20
5.1062316711
 30
0.0
 10
19.4068701943
 20
5.1065667557
 30
0.0
 11
19.1069158857
 21
4.8944347214
 31
0.0
 11
19.1308018278
 21
4.9750152246
 31
0.0
 11
19.1960672099
 21
5.0435176464
 31
0.0
 11
19.2929295098
 21
5.0896742701
 31
0.0
 11
19.4068701943
 21
5.1065667557
 31
0.0
  0
SPLINE
  5
697
100
AcDbEntity
  8
RACCORDO
100
AcDbSpline
 62
253
  6
CONTINUOUS
 70
0
 71
3
 72
11
 73
7
 74
5
 42
0.0000001
 43
0.0000001
 44
0.0000000001
 12
0.0069988223
 22
0.4010844284
 32
0.0
 13
0.4011302109
 23
0.003500877
 33
0.0
 40
0.0
 40
0.0
 40
0.0
 40
0.0
 40
0.209515632
 40
0.4453798145
 40
0.7128573246
 40
1.0
 40
1.0
 40
1.0
 40
1.0
 10
19.094573291
 20
5.6015415026
 30
0.0
 10
19.0950620785
 20
5.6295526551
 30
0.0
 10
19.114157609
 20
5.689419933
 30
0.0
 10
19.1840045595
 20
5.7580743378
 30
0.0
 10
19.2816099279
 20
5.8026986642
 30
0.0
 10
19.3561337322
 20
5.8133384532
 30
0.0
 10
19.3945275995
 20
5.8136735369
 30
0.0
 11
19.094573291
 21
5.6015415026
 31
0.0
 11
19.1184592849
 21
5.6821220926
 31
0.0
 11
19.1837247305
 21
5.7506245098
 31
0.0
 11
19.2805870144
 21
5.7967810822
 31
0.0
 11
19.3945275995
 21
5.8136735369
 31
0.0
  0
SPLINE
  5
698
100
AcDbEntity
  8
RACCORDO
100
AcDbSpline
 62
7
  6
CONTINUOUS
 70
0
 71
3
 72
12
 73
8
 74
6
 42
0.0000001
 43
0.0000001
 44
0.0000000001
 12
0.3000739778
 22
-0.0
 32
0.0
 13
0.212185585
 23
0.2121831041
 33
0.0
 40
0.0
 40
0.0
 40
0.0
 40
0.0
 40
0.3053475036
 40
0.5820489604
 40
0.8022991747
 40
0.9467217969
 40
1.0
 40
1.0
 40
1.0
 40
1.0
 10
23.1729421647
 20
-5.0584067844
 30
0.0
 10
23.2034844447
 20
-5.0584067844
 30
0.0
 10
23.2618587624
 20
-5.0585383001
 30
0.0
 10
23.3415056153
 20
-5.0567752925
 30
0.0
 10
23.4072028725
 20
-5.0585990773
 30
0.0
 10
23.4459549904
 20
-5.051871001
 30
0.0
 10
23.4691310697
 20
-5.0570299636
 30
0.0
 10
23.4728993586
 20
-5.0532617188
 30
0.0
 11
23.1729421647
 21
-5.0584067844
 31
0.0
 11
23.264568663
 21
-5.0581565743
 31
0.0
 11
23.3475963723
 21
-5.0574278945
 31
0.0
 11
23.4136780208
 21
-5.0562950516
 31
0.0
 11
23.4569915657
 21
-5.0548551921
 31
0.0
 11
23.4728993586
 21
-5.0532617188
 31
0.0
  0
SPLINE
  5
699
100
AcDbEntity
  8
RACCORDO
100
AcDbSpline
 62
7
  6
CONTINUOUS
 70
0
 71
3
 72
12
 73
8
 74
6
 42
0.0000001
 43
0.0000001
 44
0.0000000001
 12
0.212185585
 22
-0.2121831041
 32
0.0
 13
0.3000739778
 23
0.0
 33
0.0
 40
0.0
 40
0.0
 40
0.0
 40
0.0
 40
0.0532782031
 40
0.1977008253
 40
0.4179510396
 40
0.6946524964
 40
1.0
 40
1.0
 40
1.0
 40
1.0
 10
-23.7816424697
 20
-5.0532617188
 30
0.0
 10
-23.7778741808
 20
-5.0570299636
 30
0.0
 10
-23.7546981015
 20
-5.051871001
 30
0.0
 10
-23.7159459836
 20
-5.0585990773
 30
0.0
 10
-23.6502487264
 20
-5.0567752925
 30
0.0
 10
-23.5706018735
 20
-5.0585383001
 30
0.0
 10
-23.5122275558
 20
-5.0584067844
 30
0.0
 10
-23.4816852758
 20
-5.0584067844
 30
0.0
 11
-23.7816424697
 21
-5.0532617188
 31
0.0
 11
-23.7657346768
 21
-5.0548551921
 31
0.0
 11
-23.7224211319
 21
-5.0562950516
 31
0.0
 11
-23.6563394834
 21
-5.0574278945
 31
0.0
 11
-23.5733117742
 21
-5.0581565743
 31
0.0
 11
-23.4816852758
 21
-5.0584067844
 31
0.0
  0
SPLINE
  5
69A
100
AcDbEntity
  8
RACCORDO
100
AcDbSpline
 62
7
  6
CONTINUOUS
 70
0
 71
3
 72
12
 73
8
 74
6
 42
0.0000001
 43
0.0000001
 44
0.0000000001
 12
-0.2121858917
 22
0.2121865075
 32
0.0
 13
-0.3000766013
 23
0.0
 33
0.0
 40
0.0
 40
0.0
 40
0.0
 40
0.0
 40
0.0533078243
 40
0.1977742039
 40
0.4180472247
 40
0.6947316031
 40
1.0
 40
1.0
 40
1.0
 40
1.0
 10
23.4709572156
 20
-1.2245558456
 30
0.0
 10
23.4671868262
 20
-1.2207854453
 30
0.0
 10
23.4440019024
 20
-1.2259451518
 30
0.0
 10
23.405240399
 20
-1.219215822
 30
0.0
 10
23.3395377054
 20
-1.2210385006
 30
0.0
 10
23.2598973234
 20
-1.2192756478
 30
0.0
 10
23.2015321923
 20
-1.2194069385
 30
0.0
 10
23.170997558
 20
-1.2194069385
 30
0.0
 11
23.4709572156
 21
-1.2245558456
 31
0.0
 11
23.4550405088
 21
-1.2229607779
 31
0.0
 11
23.4117134854
 21
-1.2215197641
 31
0.0
 11
23.3456244265
 21
-1.2203862144
 31
0.0
 11
23.2626011192
 21
-1.219657206
 31
0.0
 11
23.170997558
 21
-1.2194069385
 31
0.0
  0
SPLINE
  5
69B
100
AcDbEntity
  8
RACCORDO
100
AcDbSpline
 62
7
  6
CONTINUOUS
 70
0
 71
3
 72
12
 73
8
 74
6
 42
0.0000001
 43
0.0000001
 44
0.0000000001
 12
-0.3000766013
 22
-0.0
 32
0.0
 13
-0.2121858917
 23
-0.2121865075
 33
0.0
 40
0.0
 40
0.0
 40
0.0
 40
0.0
 40
0.3052683969
 40
0.5819527753
 40
0.8022257961
 40
0.9466921757
 40
1.0
 40
1.0
 40
1.0
 40
1.0
 10
-23.4797406691
 20
-1.2194069385
 30
0.0
 10
-23.5102753035
 20
-1.2194069385
 30
0.0
 10
-23.5686404345
 20
-1.2192756478
 30
0.0
 10
-23.6482808165
 20
-1.2210385006
 30
0.0
 10
-23.7139835101
 20
-1.219215822
 30
0.0
 10
-23.7527450135
 20
-1.2259451518
 30
0.0
 10
-23.7759299373
 20
-1.2207854453
 30
0.0
 10
-23.7797003268
 20
-1.2245558456
 30
0.0
 11
-23.4797406691
 21
-1.2194069385
 31
0.0
 11
-23.5713442303
 21
-1.219657206
 31
0.0
 11
-23.6543675376
 21
-1.2203862144
 31
0.0
 11
-23.7204565965
 21
-1.2215197641
 31
0.0
 11
-23.7637836199
 21
-1.2229607779
 31
0.0
 11
-23.7797003268
 21
-1.2245558456
 31
0.0
  0
SPLINE
  5
69C
100
AcDbEntity
  8
RACCORDO
100
AcDbSpline
 62
7
  6
CONTINUOUS
 70
0
 71
3
 72
12
 73
8
 74
6
 42
0.0000001
 43
0.0000001
 44
0.0000000001
 12
0.2121856603
 22
-0.2121849679
 32
0.0
 13
0.300075349
 23
0.0
 33
0.0
 40
0.0
 40
0.0
 40
0.0
 40
0.0
 40
0.0532816106
 40
0.1977093993
 40
0.417962435
 40
0.694661992
 40
1.0
 40
1.0
 40
1.0
 40
1.0
 10
-23.7828968168
 20
-7.0520073716
 30
0.0
 10
-23.7791282856
 20
-7.0557758906
 30
0.0
 10
-23.755951062
 20
-7.0506167922
 30
0.0
 10
-23.7171977222
 20
-7.0573450695
 30
0.0
 10
-23.6514995513
 20
-7.0555213911
 30
0.0
 10
-23.5718531774
 20
-7.0572843935
 30
0.0
 10
-23.5134797403
 20
-7.0571529018
 30
0.0
 10
-23.4829382706
 20
-7.0571529018
 30
0.0
 11
-23.7828968168
 21
-7.0520073716
 31
0.0
 11
-23.7669879418
 21
-7.0536010341
 31
0.0
 11
-23.7236726522
 21
-7.0550410332
 31
0.0
 11
-23.6575898564
 21
-7.0561739633
 31
0.0
 11
-23.5745623382
 21
-7.0569026847
 31
0.0
 11
-23.4829382706
 21
-7.0571529018
 31
0.0
  0
SPLINE
  5
69D
100
AcDbEntity
  8
RACCORDO
100
AcDbSpline
 62
7
  6
CONTINUOUS
 70
0
 71
3
 72
12
 73
8
 74
6
 42
0.0000001
 43
0.0000001
 44
0.0000000001
 12
-0.3000816659
 22
0.0
 32
0.0
 13
-0.2121905985
 23
-0.2121889631
 33
0.0
 40
0.0
 40
0.0
 40
0.0
 40
0.0
 40
0.305206335
 40
0.5818776397
 40
0.8021687507
 40
0.9466692379
 40
1.0
 40
1.0
 40
1.0
 40
1.0
 10
-23.4824583326
 20
-6.3221265273
 30
0.0
 10
-23.5129872744
 20
-6.3221265273
 30
0.0
 10
-23.5713458114
 20
-6.3219954172
 30
0.0
 10
-23.6509819812
 20
-6.3237581537
 30
0.0
 10
-23.7166895905
 20
-6.321936342
 30
0.0
 10
-23.7554588954
 20
-6.3286666511
 30
0.0
 10
-23.7786508356
 20
-6.3235063836
 30
0.0
 10
-23.7824229311
 20
-6.32727845
 30
0.0
 11
-23.4824583326
 21
-6.3221265273
 31
0.0
 11
-23.574044816
 21
-6.3223768436
 31
0.0
 11
-23.657065599
 21
-6.323106114
 31
0.0
 11
-23.7231611935
 21
-6.3242402224
 31
0.0
 11
-23.7664991596
 21
-6.3256821416
 31
0.0
 11
-23.7824229311
 21
-6.32727845
 31
0.0
  0
SPLINE
  5
69E
100
AcDbEntity
  8
RACCORDO
100
AcDbSpline
 62
7
  6
CONTINUOUS
 70
0
 71
3
 72
12
 73
8
 74
6
 42
0.0000001
 43
0.0000001
 44
0.0000000001
 12
0.2121821519
 22
-0.2121827803
 32
0.0
 13
0.3000713213
 23
-0.0
 33
0.0
 40
0.0
 40
0.0
 40
0.0
 40
0.0
 40
0.0532731
 40
0.1976880308
 40
0.4179339921
 40
0.6946382695
 40
1.0
 40
1.0
 40
1.0
 40
1.0
 10
-23.7789027455
 20
0.8439985571
 30
0.0
 10
-23.7751348785
 20
0.8402306789
 30
0.0
 10
-23.7519604383
 20
0.8453895283
 30
0.0
 10
-23.7132103299
 20
0.8386616697
 30
0.0
 10
-23.6475145213
 20
0.8404856544
 30
0.0
 10
-23.5678671362
 20
0.8387226217
 30
0.0
 10
-23.5094916133
 20
0.8388541811
 30
0.0
 10
-23.4789481807
 20
0.8388541811
 30
0.0
 11
-23.7789027455
 21
0.8439985571
 31
0.0
 11
-23.7629966059
 21
0.8424053618
 31
0.0
 11
-23.7196857473
 21
0.840965709
 31
0.0
 11
-23.6536059582
 21
0.839832996
 31
0.0
 11
-23.570578137
 21
0.8391043781
 31
0.0
 11
-23.4789481807
 21
0.8388541811
 31
0.0
  0
SPLINE
  5
69F
100
AcDbEntity
  8
RACCORDO
100
AcDbSpline
 62
7
  6
CONTINUOUS
 70
0
 71
3
 72
12
 73
8
 74
6
 42
0.0000001
 43
0.0000001
 44
0.0000000001
 12
-0.3000744827
 22
-0.0
 32
0.0
 13
-0.2121844225
 23
-0.2121849807
 33
0.0
 40
0.0
 40
0.0
 40
0.0
 40
0.0
 40
0.3052957572
 40
0.5819859076
 40
0.8022509535
 40
0.9467022877
 40
1.0
 40
1.0
 40
1.0
 40
1.0
 10
-23.4787050443
 20
1.5816294202
 30
0.0
 10
-23.5092421998
 20
1.5816294202
 30
0.0
 10
-23.5676102599
 20
1.581760789
 30
0.0
 10
-23.6472525336
 20
1.579997888
 30
0.0
 10
-23.7129530756
 20
1.5818209414
 30
0.0
 10
-23.7517111726
 20
1.5750920584
 30
0.0
 10
-23.77489299
 20
1.5802515011
 30
0.0
 10
-23.7786626381
 20
1.576481843
 30
0.0
 11
-23.4787050443
 21
1.5816294202
 31
0.0
 11
-23.5703161689
 21
1.5813791737
 31
0.0
 11
-23.6533406232
 21
1.5806502807
 31
0.0
 11
-23.7194268262
 21
1.5795169775
 31
0.0
 11
-23.7627490395
 21
1.5780763632
 31
0.0
 11
-23.7786626381
 21
1.576481843
 31
0.0
  0
SPLINE
  5
6A0
100
AcDbEntity
  8
RACCORDO
100
AcDbSpline
 62
7
  6
CONTINUOUS
 70
0
 71
3
 72
12
 73
8
 74
6
 42
0.0000001
 43
0.0000001
 44
0.0000000001
 12
-0.2121905985
 22
0.2121889632
 32
0.0
 13
-0.3000816659
 23
-0.0
 33
0.0
 40
0.0
 40
0.0
 40
0.0
 40
0.0
 40
0.0533307621
 40
0.1978312493
 40
0.4181223603
 40
0.694793665
 40
1.0
 40
1.0
 40
1.0
 40
1.0
 10
23.47367982
 20
-6.32727845
 30
0.0
 10
23.4699077245
 20
-6.3235063836
 30
0.0
 10
23.4467157843
 20
-6.3286666511
 30
0.0
 10
23.4079464794
 20
-6.321936342
 30
0.0
 10
23.3422388701
 20
-6.3237581537
 30
0.0
 10
23.2626027003
 20
-6.3219954172
 30
0.0
 10
23.2042441633
 20
-6.3221265273
 30
0.0
 10
23.1737152215
 20
-6.3221265273
 30
0.0
 11
23.47367982
 21
-6.32727845
 31
0.0
 11
23.4577560485
 21
-6.3256821416
 31
0.0
 11
23.4144180823
 21
-6.3242402224
 31
0.0
 11
23.3483224879
 21
-6.323106114
 31
0.0
 11
23.2653017049
 21
-6.3223768436
 31
0.0
 11
23.1737152215
 21
-6.3221265273
 31
0.0
  0
SPLINE
  5
6A1
100
AcDbEntity
  8
RACCORDO
100
AcDbSpline
 62
7
  6
CONTINUOUS
 70
0
 71
3
 72
12
 73
8
 74
6
 42
0.0000001
 43
0.0000001
 44
0.0000000001
 12
0.300075349
 22
-0.0
 32
0.0
 13
0.2121856603
 23
0.2121849679
 33
0.0
 40
0.0
 40
0.0
 40
0.0
 40
0.0
 40
0.305338008
 40
0.582037565
 40
0.8022906007
 40
0.9467183894
 40
1.0
 40
1.0
 40
1.0
 40
1.0
 10
23.1741951595
 20
-7.0571529018
 30
0.0
 10
23.2047366292
 20
-7.0571529018
 30
0.0
 10
23.2631100662
 20
-7.0572843935
 30
0.0
 10
23.3427564402
 20
-7.0555213911
 30
0.0
 10
23.4084546111
 20
-7.0573450695
 30
0.0
 10
23.4472079509
 20
-7.0506167922
 30
0.0
 10
23.4703851745
 20
-7.0557758906
 30
0.0
 10
23.4741537057
 20
-7.0520073716
 30
0.0
 11
23.1741951595
 21
-7.0571529018
 31
0.0
 11
23.2658192271
 21
-7.0569026847
 31
0.0
 11
23.3488467453
 21
-7.0561739633
 31
0.0
 11
23.4149295411
 21
-7.0550410332
 31
0.0
 11
23.4582448307
 21
-7.0536010341
 31
0.0
 11
23.4741537057
 21
-7.0520073716
 31
0.0
  0
SPLINE
  5
6A2
100
AcDbEntity
  8
RACCORDO
100
AcDbSpline
 62
7
  6
CONTINUOUS
 70
0
 71
3
 72
12
 73
8
 74
6
 42
0.0000001
 43
0.0000001
 44
0.0000000001
 12
-0.2121844225
 22
0.2121849807
 32
0.0
 13
-0.3000744827
 23
0.0
 33
0.0
 40
0.0
 40
0.0
 40
0.0
 40
0.0
 40
0.0532977123
 40
0.1977490465
 40
0.4180140924
 40
0.6947042428
 40
1.0
 40
1.0
 40
1.0
 40
1.0
 10
23.469919527
 20
1.576481843
 30
0.0
 10
23.4661498789
 20
1.5802515011
 30
0.0
 10
23.4429680615
 20
1.5750920584
 30
0.0
 10
23.4042099645
 20
1.5818209414
 30
0.0
 10
23.3385094225
 20
1.579997888
 30
0.0
 10
23.2588671488
 20
1.581760789
 30
0.0
 10
23.2004990887
 20
1.5816294202
 30
0.0
 10
23.1699619332
 20
1.5816294202
 30
0.0
 11
23.469919527
 21
1.576481843
 31
0.0
 11
23.4540059283
 21
1.5780763632
 31
0.0
 11
23.4106837151
 21
1.5795169775
 31
0.0
 11
23.3445975121
 21
1.5806502807
 31
0.0
 11
23.2615730578
 21
1.5813791737
 31
0.0
 11
23.1699619332
 21
1.5816294202
 31
0.0
  0
SPLINE
  5
6A3
100
AcDbEntity
  8
RACCORDO
100
AcDbSpline
 62
7
  6
CONTINUOUS
 70
0
 71
3
 72
12
 73
8
 74
6
 42
0.0000001
 43
0.0000001
 44
0.0000000001
 12
0.3000713213
 22
0.0
 32
0.0
 13
0.2121821519
 23
0.2121827803
 33
0.0
 40
0.0
 40
0.0
 40
0.0
 40
0.0
 40
0.3053617305
 40
0.5820660079
 40
0.8023119692
 40
0.9467269
 40
1.0
 40
1.0
 40
1.0
 40
1.0
 10
23.1702050696
 20
0.8388541811
 30
0.0
 10
23.2007485022
 20
0.8388541811
 30
0.0
 10
23.2591240251
 20
0.8387226217
 30
0.0
 10
23.3387714102
 20
0.8404856544
 30
0.0
 10
23.4044672188
 20
0.8386616697
 30
0.0
 10
23.4432173272
 20
0.8453895283
 30
0.0
 10
23.4663917674
 20
0.8402306789
 30
0.0
 10
23.4701596344
 20
0.8439985571
 30
0.0
 11
23.1702050696
 21
0.8388541811
 31
0.0
 11
23.2618350259
 21
0.8391043781
 31
0.0
 11
23.3448628471
 21
0.839832996
 31
0.0
 11
23.4109426361
 21
0.840965709
 31
0.0
 11
23.4542534948
 21
0.8424053618
 31
0.0
 11
23.4701596344
 21
0.8439985571
 31
0.0
  0
SPLINE
  5
6A4
100
AcDbEntity
  8
RACCORDO
100
AcDbSpline
 62
253
  6
CONTINUOUS
 70
0
 71
3
 72
11
 73
7
 74
5
 42
0.0000001
 43
0.0000001
 44
0.0000000001
 12
-0.0069988224
 22
0.4010844298
 32
0.0
 13
-0.4011302123
 23
0.0035008769
 33
0.0
 40
0.0
 40
0.0
 40
0.0
 40
0.0
 40
0.2095153874
 40
0.4453794694
 40
0.7128570698
 40
1.0
 40
1.0
 40
1.0
 40
1.0
 10
19.8966835979
 20
5.6015415026
 30
0.0
 10
19.8961948109
 20
5.6295526225
 30
0.0
 10
19.8770993187
 20
5.6894198545
 30
0.0
 10
19.807252429
 20
5.7580742741
 30
0.0
 10
19.7096470426
 20
5.8026986484
 30
0.0
 10
19.6351231909
 20
5.8133384529
 30
0.0
 10
19.5967292894
 20
5.8136735369
 30
0.0
 11
19.8966835979
 21
5.6015415026
 31
0.0
 11
19.8727976558
 21
5.682122006
 31
0.0
 11
19.8075322737
 21
5.7506244283
 31
0.0
 11
19.7106699738
 21
5.7967810525
 31
0.0
 11
19.5967292894
 21
5.8136735369
 31
0.0
  0
SPLINE
  5
6A5
100
AcDbEntity
  8
RACCORDO
100
AcDbSpline
 62
253
  6
CONTINUOUS
 70
0
 71
3
 72
11
 73
7
 74
5
 42
0.0000001
 43
0.0000001
 44
0.0000000001
 12
-0.0069988137
 22
0.401084489
 32
0.0
 13
-0.401130273
 23
0.0035006841
 33
0.0
 40
0.0
 40
0.0
 40
0.0
 40
0.0
 40
0.2095120489
 40
0.4453745127
 40
0.7128531963
 40
1.0
 40
1.0
 40
1.0
 40
1.0
 10
19.8843410032
 20
4.8944347214
 30
0.0
 10
19.8838522246
 20
4.9224453991
 30
0.0
 10
19.8647572865
 20
4.9823119823
 30
0.0
 10
19.7949112982
 20
5.0509666101
 30
0.0
 10
19.6973056672
 20
5.095591673
 30
0.0
 10
19.6227811198
 20
5.1062316828
 30
0.0
 10
19.5843866946
 20
5.1065667529
 30
0.0
 11
19.8843410032
 21
4.8944347214
 31
0.0
 11
19.8604557864
 21
4.9750140558
 31
0.0
 11
19.7951913626
 21
5.0435165139
 31
0.0
 11
19.6983289057
 21
5.0896738552
 31
0.0
 11
19.5843866946
 21
5.1065667529
 31
0.0
  0
SPLINE
  5
6A6
100
AcDbEntity
  8
RACCORDO
100
AcDbSpline
 62
253
  6
CONTINUOUS
 70
0
 71
3
 72
12
 73
8
 74
6
 42
0.0000001
 43
0.0000001
 44
0.0000000001
 12
0.188162755
 22
0.4631952088
 32
0.0
 13
0.000001281
 23
0.4999550218
 33
0.0
 40
0.0
 40
0.0
 40
0.0
 40
0.0
 40
0.0533471248
 40
0.1972618061
 40
0.417998053
 40
0.6944311848
 40
1.0
 40
1.0
 40
1.0
 40
1.0
 10
19.4044626019
 20
2.8689999952
 30
0.0
 10
19.4078085826
 20
2.8772367061
 30
0.0
 10
19.4024782672
 20
2.911558145
 30
0.0
 10
19.4086371037
 20
2.9799251909
 30
0.0
 10
19.4065577547
 20
3.0874209758
 30
0.0
 10
19.4080664688
 20
3.220942774
 30
0.0
 10
19.4078925578
 20
3.3180002882
 30
0.0
 10
19.4078926883
 20
3.3689238428
 30
0.0
 11
19.4044626019
 21
2.8689999952
 31
0.0
 11
19.4055279539
 21
2.8956498725
 31
0.0
 11
19.4064841127
 21
2.9675943866
 31
0.0
 11
19.4072404754
 21
3.0779499898
 31
0.0
 11
19.4077257079
 21
3.2161532704
 31
0.0
 11
19.4078926883
 21
3.3689238428
 31
0.0
  0
SPLINE
  5
6A7
100
AcDbEntity
  8
RACCORDO
100
AcDbSpline
 62
253
  6
CONTINUOUS
 70
0
 71
3
 72
12
 73
8
 74
6
 42
0.0000001
 43
0.0000001
 44
0.0000000001
 12
0.000001281
 22
-0.4999550218
 32
0.0
 13
0.1881627568
 23
-0.4631952081
 33
0.0
 40
0.0
 40
0.0
 40
0.0
 40
0.0
 40
0.305568815
 40
0.5820019468
 40
0.8027381938
 40
0.9466528751
 40
1.0
 40
1.0
 40
1.0
 40
1.0
 10
19.5833642006
 20
3.3689238428
 30
0.0
 10
19.5833643311
 20
3.3180002883
 30
0.0
 10
19.5831904201
 20
3.220942774
 30
0.0
 10
19.5846991342
 20
3.0874209758
 30
0.0
 10
19.5826197852
 20
2.979925191
 30
0.0
 10
19.5887786217
 20
2.9115581451
 30
0.0
 10
19.5834483063
 20
2.8772367061
 30
0.0
 10
19.586794287
 20
2.8689999952
 30
0.0
 11
19.5833642006
 21
3.3689238428
 31
0.0
 11
19.583531181
 21
3.2161532705
 31
0.0
 11
19.5840164135
 21
3.0779499899
 31
0.0
 11
19.5847727762
 21
2.9675943867
 31
0.0
 11
19.585728935
 21
2.8956498725
 31
0.0
 11
19.586794287
 21
2.8689999952
 31
0.0
  0
SPLINE
  5
6A8
100
AcDbEntity
  8
RACCORDO
100
AcDbSpline
 62
253
  6
CONTINUOUS
 70
0
 71
3
 72
12
 73
8
 74
6
 42
0.0000001
 43
0.0000001
 44
0.0000000001
 12
0.000001281
 22
-0.4999550218
 32
0.0
 13
0.1881627568
 23
-0.4631952081
 33
0.0
 40
0.0
 40
0.0
 40
0.0
 40
0.0
 40
0.305568815
 40
0.5820019468
 40
0.8027381938
 40
0.9466528751
 40
1.0
 40
1.0
 40
1.0
 40
1.0
 10
-19.7166357994
 20
3.3689238428
 30
0.0
 10
-19.7166356689
 20
3.3180002883
 30
0.0
 10
-19.7168095799
 20
3.220942774
 30
0.0
 10
-19.7153008658
 20
3.0874209758
 30
0.0
 10
-19.7173802148
 20
2.979925191
 30
0.0
 10
-19.7112213783
 20
2.9115581451
 30
0.0
 10
-19.7165516937
 20
2.8772367061
 30
0.0
 10
-19.713205713
 20
2.8689999952
 30
0.0
 11
-19.7166357994
 21
3.3689238428
 31
0.0
 11
-19.716468819
 21
3.2161532705
 31
0.0
 11
-19.7159835865
 21
3.0779499899
 31
0.0
 11
-19.7152272238
 21
2.9675943867
 31
0.0
 11
-19.714271065
 21
2.8956498725
 31
0.0
 11
-19.713205713
 21
2.8689999952
 31
0.0
  0
SPLINE
  5
6A9
100
AcDbEntity
  8
RACCORDO
100
AcDbSpline
 62
253
  6
CONTINUOUS
 70
0
 71
3
 72
12
 73
8
 74
6
 42
0.0000001
 43
0.0000001
 44
0.0000000001
 12
0.188162755
 22
0.4631952088
 32
0.0
 13
0.000001281
 23
0.4999550218
 33
0.0
 40
0.0
 40
0.0
 40
0.0
 40
0.0
 40
0.0533471248
 40
0.1972618061
 40
0.417998053
 40
0.6944311848
 40
1.0
 40
1.0
 40
1.0
 40
1.0
 10
-19.8955373981
 20
2.8689999952
 30
0.0
 10
-19.8921914174
 20
2.8772367061
 30
0.0
 10
-19.8975217328
 20
2.911558145
 30
0.0
 10
-19.8913628963
 20
2.9799251909
 30
0.0
 10
-19.8934422453
 20
3.0874209758
 30
0.0
 10
-19.8919335312
 20
3.220942774
 30
0.0
 10
-19.8921074422
 20
3.3180002882
 30
0.0
 10
-19.8921073117
 20
3.3689238428
 30
0.0
 11
-19.8955373981
 21
2.8689999952
 31
0.0
 11
-19.8944720461
 21
2.8956498725
 31
0.0
 11
-19.8935158873
 21
2.9675943866
 31
0.0
 11
-19.8927595246
 21
3.0779499898
 31
0.0
 11
-19.8922742921
 21
3.2161532704
 31
0.0
 11
-19.8921073117
 21
3.3689238428
 31
0.0
  0
SPLINE
  5
6AA
100
AcDbEntity
  8
RACCORDO
100
AcDbSpline
 62
253
  6
CONTINUOUS
 70
0
 71
3
 72
11
 73
7
 74
5
 42
0.0000001
 43
0.0000001
 44
0.0000000001
 12
-0.0098689072
 22
0.3534493123
 32
0.0
 13
-0.0000004971
 23
0.3535870638
 33
0.0
 40
0.0
 40
0.0
 40
0.0
 40
0.0
 40
0.2035823994
 40
0.4531925193
 40
0.7278954329
 40
1.0
 40
1.0
 40
1.0
 40
1.0
 10
19.3945273202
 20
5.8136846395
 30
0.0
 10
19.3938576082
 20
5.8376699926
 30
0.0
 10
19.3926578457
 20
5.8910716853
 30
0.0
 10
19.3913891336
 20
5.9768544019
 30
0.0
 10
19.3906092127
 20
6.0707194015
 30
0.0
 10
19.3904376375
 20
6.135167549
 30
0.0
 10
19.3904375924
 20
6.167238434
 30
0.0
 11
19.3945273202
 21
5.8136846395
 31
0.0
 11
19.3928624049
 21
5.885649486
 31
0.0
 11
19.3915236221
 21
5.9738982409
 31
0.0
 11
19.3906985113
 21
6.0710261329
 31
0.0
 11
19.3904375924
 21
6.167238434
 31
0.0
  0
SPLINE
  5
6AB
100
AcDbEntity
  8
RACCORDO
100
AcDbSpline
 62
253
  6
CONTINUOUS
 70
0
 71
3
 72
11
 73
7
 74
5
 42
0.0000001
 43
0.0000001
 44
0.0000000001
 12
-0.0000004828
 22
-0.3535861826
 32
0.0
 13
-0.0098690566
 23
-0.3534484266
 33
0.0
 40
0.0
 40
0.0
 40
0.0
 40
0.0
 40
0.2713497641
 40
0.5458509931
 40
0.7957709277
 40
1.0
 40
1.0
 40
1.0
 40
1.0
 10
19.6008192955
 20
6.1672381036
 30
0.0
 10
19.6008192519
 20
6.1352562611
 30
0.0
 10
19.6006484358
 20
6.0709210091
 30
0.0
 10
19.5998709015
 20
5.9771324461
 30
0.0
 10
19.5986028423
 20
5.8912609618
 30
0.0
 10
19.5974014319
 20
5.8377466709
 30
0.0
 10
19.5967295825
 20
5.8136851894
 30
0.0
 11
19.6008192955
 21
6.1672381036
 31
0.0
 11
19.6005598341
 21
6.0712929271
 31
0.0
 11
19.5997372236
 21
5.9742365715
 31
0.0
 11
19.5983988436
 21
5.8858784717
 31
0.0
 11
19.5967295825
 21
5.8136851894
 31
0.0
  0
SPLINE
  5
6AC
100
AcDbEntity
  8
RACCORDO
100
AcDbSpline
 62
253
  6
CONTINUOUS
 70
0
 71
3
 72
9
 73
5
 74
3
 42
0.0000001
 43
0.0000001
 44
0.0000000001
 12
0.0053452793
 22
-1.6468770511
 32
0.0
 13
0.0076765735
 23
-1.6468678343
 33
0.0
 40
0.0
 40
0.0
 40
0.0
 40
0.0
 40
0.5000137269
 40
1.0
 40
1.0
 40
1.0
 40
1.0
 10
-4.3963185946
 20
5.3837126457
 30
0.0
 10
-4.3954276903
 20
5.1092256016
 30
0.0
 10
-4.3934516094
 20
4.5602671982
 30
0.0
 10
-4.3910870733
 20
4.0113103305
 30
0.0
 10
-4.3898076795
 20
3.7368398935
 30
0.0
 11
-4.3963185946
 21
5.3837126457
 31
0.0
 11
-4.393354436
 21
4.5602525111
 31
0.0
 11
-4.3898076795
 21
3.7368398935
 31
0.0
  0
SPLINE
  5
6AD
100
AcDbEntity
  8
RACCORDO
100
AcDbSpline
 62
253
  6
CONTINUOUS
 70
0
 71
3
 72
9
 73
5
 74
3
 42
0.0000001
 43
0.0000001
 44
0.0000000001
 12
0.0076765735
 22
1.6468678343
 32
0.0
 13
0.0053452793
 23
1.6468770511
 33
0.0
 40
0.0
 40
0.0
 40
0.0
 40
0.0
 40
0.499986712
 40
1.0
 40
1.0
 40
1.0
 40
1.0
 10
4.0810645684
 20
3.7368398935
 30
0.0
 10
4.0823439633
 20
4.0113105714
 30
0.0
 10
4.0847084993
 20
4.5602674391
 30
0.0
 10
4.0866845799
 20
5.1092258426
 30
0.0
 10
4.0875754835
 20
5.3837126457
 30
0.0
 11
4.0810645684
 21
3.7368398935
 31
0.0
 11
4.0846113278
 21
4.560253234
 31
0.0
 11
4.0875754835
 21
5.3837126457
 31
0.0
  0
SPLINE
  5
6AE
100
AcDbEntity
  8
RACCORDO
100
AcDbSpline
 62
253
  6
CONTINUOUS
 70
0
 71
3
 72
11
 73
7
 74
5
 42
0.0000001
 43
0.0000001
 44
0.0000000001
 12
-0.0000004828
 22
-0.3535861826
 32
0.0
 13
-0.0098690566
 23
-0.3534484266
 33
0.0
 40
0.0
 40
0.0
 40
0.0
 40
0.0
 40
0.2713497641
 40
0.5458509931
 40
0.7957709277
 40
1.0
 40
1.0
 40
1.0
 40
1.0
 10
-19.6991807045
 20
6.1672381036
 30
0.0
 10
-19.6991807481
 20
6.1352562611
 30
0.0
 10
-19.6993515642
 20
6.0709210091
 30
0.0
 10
-19.7001290985
 20
5.9771324461
 30
0.0
 10
-19.7013971577
 20
5.8912609618
 30
0.0
 10
-19.7025985681
 20
5.8377466709
 30
0.0
 10
-19.7032704175
 20
5.8136851894
 30
0.0
 11
-19.6991807045
 21
6.1672381036
 31
0.0
 11
-19.6994401659
 21
6.0712929271
 31
0.0
 11
-19.7002627764
 21
5.9742365715
 31
0.0
 11
-19.7016011564
 21
5.8858784717
 31
0.0
 11
-19.7032704175
 21
5.8136851894
 31
0.0
  0
SPLINE
  5
6AF
100
AcDbEntity
  8
RACCORDO
100
AcDbSpline
 62
253
  6
CONTINUOUS
 70
0
 71
3
 72
11
 73
7
 74
5
 42
0.0000001
 43
0.0000001
 44
0.0000000001
 12
-0.0098905691
 22
0.5656197527
 32
0.0
 13
-0.0000105791
 23
0.5657062205
 33
0.0
 40
0.0
 40
0.0
 40
0.0
 40
0.0
 40
0.203753628
 40
0.4534050995
 40
0.7280845227
 40
1.0
 40
1.0
 40
1.0
 40
1.0
 10
19.094573291
 20
5.6015415026
 30
0.0
 10
19.0939015445
 20
5.6399571948
 30
0.0
 10
19.0927034969
 20
5.7254473574
 30
0.0
 10
19.0914340698
 20
5.8627358527
 30
0.0
 10
19.0906544599
 20
6.0128813768
 30
0.0
 10
19.0904842737
 20
6.1159521685
 30
0.0
 10
19.0904833148
 20
6.1672269275
 30
0.0
 11
19.094573291
 21
5.6015415026
 31
0.0
 11
19.0929070736
 21
5.7167941537
 31
0.0
 11
19.0915685699
 21
5.8580172011
 31
0.0
 11
19.0907439259
 21
6.0134028713
 31
0.0
 11
19.0904833148
 21
6.1672269275
 31
0.0
  0
SPLINE
  5
6B0
100
AcDbEntity
  8
RACCORDO
100
AcDbSpline
 62
253
  6
CONTINUOUS
 70
0
 71
3
 72
10
 73
6
 74
4
 42
0.0000001
 43
0.0000001
 44
0.0000000001
 12
0.000000142
 22
0.1414264683
 32
0.0
 13
-0.0024701873
 23
0.1414048942
 33
0.0
 40
0.0
 40
0.0
 40
0.0
 40
0.0
 40
0.3658056966
 40
0.7062804612
 40
1.0
 40
1.0
 40
1.0
 40
1.0
 10
19.1079383798
 20
4.7530133651
 30
0.0
 10
19.1079383971
 20
4.7702582344
 30
0.0
 10
19.1078646133
 20
4.8035538877
 30
0.0
 10
19.1075361951
 20
4.8506950414
 30
0.0
 10
19.1071577332
 20
4.8805902613
 30
0.0
 10
19.1069158857
 20
4.8944347214
 30
0.0
 11
19.1079383798
 21
4.7530133651
 31
0.0
 11
19.1078195368
 21
4.8047478364
 31
0.0
 11
19.1074717901
 21
4.8528987242
 31
0.0
 11
19.1069158857
 21
4.8944347214
 31
0.0
  0
SPLINE
  5
6B1
100
AcDbEntity
  8
RACCORDO
100
AcDbSpline
 62
253
  6
CONTINUOUS
 70
0
 71
3
 72
12
 73
8
 74
6
 42
0.0000001
 43
0.0000001
 44
0.0000000001
 12
0.1431629629
 22
0.1397257719
 32
0.0
 13
0.0000002731
 23
0.2000473076
 33
0.0
 40
0.0
 40
0.0
 40
0.0
 40
0.0
 40
0.053680495
 40
0.1976944885
 40
0.4183849018
 40
0.6946711573
 40
1.0
 40
1.0
 40
1.0
 40
1.0
 10
19.1045082934
 20
3.1689543038
 30
0.0
 10
19.1070699796
 20
3.1714544866
 30
0.0
 10
19.1035465729
 20
3.1869793721
 30
0.0
 10
19.1080921343
 20
3.2127839951
 30
0.0
 10
19.106842224
 20
3.2565876236
 30
0.0
 10
19.1080292204
 20
3.3096738909
 30
0.0
 10
19.107938352
 20
3.3485637718
 30
0.0
 10
19.1079383798
 20
3.3689238428
 30
0.0
 11
19.1045082934
 21
3.1689543038
 31
0.0
 11
19.1055746824
 21
3.1796398628
 31
0.0
 11
19.1065303436
 21
3.2084336197
 31
0.0
 11
19.1072867237
 21
3.2525756628
 31
0.0
 11
19.1077715728
 21
3.3078438577
 31
0.0
 11
19.1079383798
 21
3.3689238428
 31
0.0
  0
SPLINE
  5
6B2
100
AcDbEntity
  8
RACCORDO
100
AcDbSpline
 62
253
  6
CONTINUOUS
 70
0
 71
3
 72
12
 73
8
 74
6
 42
0.0000001
 43
0.0000001
 44
0.0000000001
 12
0.0000002731
 22
-0.2000473076
 32
0.0
 13
0.1431629629
 23
-0.1397257719
 33
0.0
 40
0.0
 40
0.0
 40
0.0
 40
0.0
 40
0.3053288425
 40
0.581615098
 40
0.8023055113
 40
0.9463195049
 40
1.0
 40
1.0
 40
1.0
 40
1.0
 10
19.8833185091
 20
3.3689238428
 30
0.0
 10
19.8833185369
 20
3.3485637719
 30
0.0
 10
19.8832276685
 20
3.3096738909
 30
0.0
 10
19.8844146649
 20
3.2565876236
 30
0.0
 10
19.8831647546
 20
3.2127839951
 30
0.0
 10
19.887710316
 20
3.1869793721
 30
0.0
 10
19.8841869093
 20
3.1714544866
 30
0.0
 10
19.8867485955
 20
3.1689543038
 30
0.0
 11
19.8833185091
 21
3.3689238428
 31
0.0
 11
19.8834853161
 21
3.3078438577
 31
0.0
 11
19.8839701651
 21
3.2525756628
 31
0.0
 11
19.8847265453
 21
3.2084336197
 31
0.0
 11
19.8856822065
 21
3.1796398628
 31
0.0
 11
19.8867485955
 21
3.1689543038
 31
0.0
  0
SPLINE
  5
6B3
100
AcDbEntity
  8
RACCORDO
100
AcDbSpline
 62
253
  6
CONTINUOUS
 70
0
 71
3
 72
10
 73
6
 74
4
 42
0.0000001
 43
0.0000001
 44
0.0000000001
 12
-0.0024701868
 22
-0.1414048942
 32
0.0
 13
0.0000001414
 23
-0.1414264683
 33
0.0
 40
0.0
 40
0.0
 40
0.0
 40
0.0
 40
0.2937195618
 40
0.6341943926
 40
1.0
 40
1.0
 40
1.0
 40
1.0
 10
19.8843410032
 20
4.8944347214
 30
0.0
 10
19.8840991558
 20
4.8805902602
 30
0.0
 10
19.8837206938
 20
4.8506950361
 30
0.0
 10
19.8833922755
 20
4.8035538824
 30
0.0
 10
19.8833184919
 20
4.7702582302
 30
0.0
 10
19.8833185091
 20
4.7530133651
 30
0.0
 11
19.8843410032
 21
4.8944347214
 31
0.0
 11
19.8837850987
 21
4.8528987209
 31
0.0
 11
19.883437352
 21
4.8047478238
 31
0.0
 11
19.8833185091
 21
4.7530133651
 31
0.0
  0
SPLINE
  5
6B4
100
AcDbEntity
  8
RACCORDO
100
AcDbSpline
 62
253
  6
CONTINUOUS
 70
0
 71
3
 72
11
 73
7
 74
5
 42
0.0000001
 43
0.0000001
 44
0.0000000001
 12
-0.0000102035
 22
-0.56570622
 32
0.0
 13
-0.0098911393
 23
-0.5656197423
 33
0.0
 40
0.0
 40
0.0
 40
0.0
 40
0.0
 40
0.27116473
 40
0.5456360084
 40
0.7955929365
 40
1.0
 40
1.0
 40
1.0
 40
1.0
 10
19.9007735741
 20
6.1672269275
 30
0.0
 10
19.9007726518
 20
6.116093736
 30
0.0
 10
19.9006031704
 20
6.0132037623
 30
0.0
 10
19.8998259749
 20
5.863181446
 30
0.0
 10
19.8985571779
 20
5.7257513719
 30
0.0
 10
19.8973575375
 20
5.6400803928
 30
0.0
 10
19.8966835979
 20
5.6015415026
 30
0.0
 11
19.9007735741
 21
6.1672269275
 31
0.0
 11
19.9005144113
 21
6.013827572
 31
0.0
 11
19.8996922812
 21
5.8585596391
 31
0.0
 11
19.8983542069
 21
5.7171637813
 31
0.0
 11
19.8966835979
 21
5.6015415026
 31
0.0
  0
SPLINE
  5
6B5
100
AcDbEntity
  8
RACCORDO
100
AcDbSpline
 62
253
  6
CONTINUOUS
 70
0
 71
3
 72
12
 73
8
 74
6
 42
0.0000001
 43
0.0000001
 44
0.0000000001
 12
0.0000002731
 22
-0.2000473076
 32
0.0
 13
0.1431629629
 23
-0.1397257719
 33
0.0
 40
0.0
 40
0.0
 40
0.0
 40
0.0
 40
0.3053288425
 40
0.581615098
 40
0.8023055113
 40
0.9463195049
 40
1.0
 40
1.0
 40
1.0
 40
1.0
 10
-19.4166814909
 20
3.3689238428
 30
0.0
 10
-19.4166814631
 20
3.3485637719
 30
0.0
 10
-19.4167723315
 20
3.3096738909
 30
0.0
 10
-19.4155853351
 20
3.2565876236
 30
0.0
 10
-19.4168352454
 20
3.2127839951
 30
0.0
 10
-19.412289684
 20
3.1869793721
 30
0.0
 10
-19.4158130907
 20
3.1714544866
 30
0.0
 10
-19.4132514045
 20
3.1689543038
 30
0.0
 11
-19.4166814909
 21
3.3689238428
 31
0.0
 11
-19.4165146839
 21
3.3078438577
 31
0.0
 11
-19.4160298349
 21
3.2525756628
 31
0.0
 11
-19.4152734547
 21
3.2084336197
 31
0.0
 11
-19.4143177935
 21
3.1796398628
 31
0.0
 11
-19.4132514045
 21
3.1689543038
 31
0.0
  0
SPLINE
  5
6B6
100
AcDbEntity
  8
RACCORDO
100
AcDbSpline
 62
253
  6
CONTINUOUS
 70
0
 71
3
 72
10
 73
6
 74
4
 42
0.0000001
 43
0.0000001
 44
0.0000000001
 12
-0.0024701868
 22
-0.1414048942
 32
0.0
 13
0.0000001414
 23
-0.1414264683
 33
0.0
 40
0.0
 40
0.0
 40
0.0
 40
0.0
 40
0.2937195618
 40
0.6341943926
 40
1.0
 40
1.0
 40
1.0
 40
1.0
 10
-19.4156589968
 20
4.8944347214
 30
0.0
 10
-19.4159008442
 20
4.8805902602
 30
0.0
 10
-19.4162793062
 20
4.8506950361
 30
0.0
 10
-19.4166077245
 20
4.8035538824
 30
0.0
 10
-19.4166815081
 20
4.7702582302
 30
0.0
 10
-19.4166814909
 20
4.7530133651
 30
0.0
 11
-19.4156589968
 21
4.8944347214
 31
0.0
 11
-19.4162149013
 21
4.8528987209
 31
0.0
 11
-19.416562648
 21
4.8047478238
 31
0.0
 11
-19.4166814909
 21
4.7530133651
 31
0.0
  0
SPLINE
  5
6B7
100
AcDbEntity
  8
RACCORDO
100
AcDbSpline
 62
253
  6
CONTINUOUS
 70
0
 71
3
 72
11
 73
7
 74
5
 42
0.0000001
 43
0.0000001
 44
0.0000000001
 12
-0.0000102035
 22
-0.56570622
 32
0.0
 13
-0.0098911393
 23
-0.5656197423
 33
0.0
 40
0.0
 40
0.0
 40
0.0
 40
0.0
 40
0.27116473
 40
0.5456360084
 40
0.7955929365
 40
1.0
 40
1.0
 40
1.0
 40
1.0
 10
-19.3992264259
 20
6.1672269275
 30
0.0
 10
-19.3992273482
 20
6.116093736
 30
0.0
 10
-19.3993968296
 20
6.0132037623
 30
0.0
 10
-19.4001740251
 20
5.863181446
 30
0.0
 10
-19.4014428221
 20
5.7257513719
 30
0.0
 10
-19.4026424625
 20
5.6400803928
 30
0.0
 10
-19.4033164021
 20
5.6015415026
 30
0.0
 11
-19.3992264259
 21
6.1672269275
 31
0.0
 11
-19.3994855887
 21
6.013827572
 31
0.0
 11
-19.4003077188
 21
5.8585596391
 31
0.0
 11
-19.4016457931
 21
5.7171637813
 31
0.0
 11
-19.4033164021
 21
5.6015415026
 31
0.0
  0
SPLINE
  5
6B8
100
AcDbEntity
  8
RACCORDO
100
AcDbSpline
 62
253
  6
CONTINUOUS
 70
0
 71
3
 72
11
 73
7
 74
5
 42
0.0000001
 43
0.0000001
 44
0.0000000001
 12
-0.0098905691
 22
0.5656197527
 32
0.0
 13
-0.0000105791
 23
0.5657062205
 33
0.0
 40
0.0
 40
0.0
 40
0.0
 40
0.0
 40
0.203753628
 40
0.4534050995
 40
0.7280845227
 40
1.0
 40
1.0
 40
1.0
 40
1.0
 10
-20.205426709
 20
5.6015415026
 30
0.0
 10
-20.2060984555
 20
5.6399571948
 30
0.0
 10
-20.2072965031
 20
5.7254473574
 30
0.0
 10
-20.2085659302
 20
5.8627358527
 30
0.0
 10
-20.2093455401
 20
6.0128813768
 30
0.0
 10
-20.2095157263
 20
6.1159521685
 30
0.0
 10
-20.2095166852
 20
6.1672269275
 30
0.0
 11
-20.205426709
 21
5.6015415026
 31
0.0
 11
-20.2070929264
 21
5.7167941537
 31
0.0
 11
-20.2084314301
 21
5.8580172011
 31
0.0
 11
-20.2092560741
 21
6.0134028713
 31
0.0
 11
-20.2095166852
 21
6.1672269275
 31
0.0
  0
SPLINE
  5
6B9
100
AcDbEntity
  8
RACCORDO
100
AcDbSpline
 62
253
  6
CONTINUOUS
 70
0
 71
3
 72
10
 73
6
 74
4
 42
0.0000001
 43
0.0000001
 44
0.0000000001
 12
0.000000142
 22
0.1414264683
 32
0.0
 13
-0.0024701873
 23
0.1414048942
 33
0.0
 40
0.0
 40
0.0
 40
0.0
 40
0.0
 40
0.3658056966
 40
0.7062804612
 40
1.0
 40
1.0
 40
1.0
 40
1.0
 10
-20.1920616202
 20
4.7530133651
 30
0.0
 10
-20.1920616029
 20
4.7702582344
 30
0.0
 10
-20.1921353867
 20
4.8035538877
 30
0.0
 10
-20.1924638049
 20
4.8506950414
 30
0.0
 10
-20.1928422668
 20
4.8805902613
 30
0.0
 10
-20.1930841143
 20
4.8944347214
 30
0.0
 11
-20.1920616202
 21
4.7530133651
 31
0.0
 11
-20.1921804632
 21
4.8047478364
 31
0.0
 11
-20.1925282099
 21
4.8528987242
 31
0.0
 11
-20.1930841143
 21
4.8944347214
 31
0.0
  0
SPLINE
  5
6BA
100
AcDbEntity
  8
RACCORDO
100
AcDbSpline
 62
253
  6
CONTINUOUS
 70
0
 71
3
 72
12
 73
8
 74
6
 42
0.0000001
 43
0.0000001
 44
0.0000000001
 12
0.1431629629
 22
0.1397257719
 32
0.0
 13
0.0000002731
 23
0.2000473076
 33
0.0
 40
0.0
 40
0.0
 40
0.0
 40
0.0
 40
0.053680495
 40
0.1976944885
 40
0.4183849018
 40
0.6946711573
 40
1.0
 40
1.0
 40
1.0
 40
1.0
 10
-20.1954917066
 20
3.1689543038
 30
0.0
 10
-20.1929300204
 20
3.1714544866
 30
0.0
 10
-20.1964534271
 20
3.1869793721
 30
0.0
 10
-20.1919078657
 20
3.2127839951
 30
0.0
 10
-20.193157776
 20
3.2565876236
 30
0.0
 10
-20.1919707796
 20
3.3096738909
 30
0.0
 10
-20.192061648
 20
3.3485637718
 30
0.0
 10
-20.1920616202
 20
3.3689238428
 30
0.0
 11
-20.1954917066
 21
3.1689543038
 31
0.0
 11
-20.1944253176
 21
3.1796398628
 31
0.0
 11
-20.1934696564
 21
3.2084336197
 31
0.0
 11
-20.1927132763
 21
3.2525756628
 31
0.0
 11
-20.1922284272
 21
3.3078438577
 31
0.0
 11
-20.1920616202
 21
3.3689238428
 31
0.0
  0
SPLINE
  5
6BB
100
AcDbEntity
  8
RACCORDO
100
AcDbSpline
 62
253
  6
CONTINUOUS
 70
0
 71
3
 72
9
 73
5
 74
3
 42
0.0000001
 43
0.0000001
 44
0.0000000001
 12
0.0003603394
 22
-6.1661325534
 32
0.0
 13
0.0019281047
 23
-6.1661322625
 33
0.0
 40
0.0
 40
0.0
 40
0.0
 40
0.0
 40
0.500035562
 40
1.0
 40
1.0
 40
1.0
 40
1.0
 10
23.4687753657
 20
7.7426142883
 30
0.0
 10
23.4688354265
 20
6.7148524362
 30
0.0
 10
23.4690861726
 20
4.659474924
 30
0.0
 10
23.469598199
 20
2.6040974602
 30
0.0
 10
23.469919527
 20
1.576481843
 30
0.0
 11
23.4687753657
 21
7.7426142883
 31
0.0
 11
23.4691515198
 21
4.6593287496
 31
0.0
 11
23.469919527
 21
1.576481843
 31
0.0
  0
LINE
  5
6BC
100
AcDbEntity
  8
RACCORDO
100
AcDbLine
 62
253
  6
CONTINUOUS
 10
23.4701596344
 20
0.8439985571
 11
23.4709572156
 21
-1.2245558456
  0
LINE
  5
6BD
100
AcDbEntity
  8
RACCORDO
100
AcDbLine
 62
253
  6
CONTINUOUS
 10
23.4728993586
 20
-5.0532617188
 11
23.47367982
 21
-6.32727845
  0
LINE
  5
6BE
100
AcDbEntity
  8
RACCORDO
100
AcDbLine
 62
253
  6
CONTINUOUS
 10
23.4741537057
 20
-7.0520073716
 11
23.4745041171
 21
-7.5676937599
  0
LINE
  5
6BF
100
AcDbEntity
  8
RACCORDO
100
AcDbLine
 62
253
  6
CONTINUOUS
 10
-23.7824229311
 20
-6.32727845
 11
-23.7816424697
 21
-5.0532617188
  0
LINE
  5
6C0
100
AcDbEntity
  8
RACCORDO
100
AcDbLine
 62
253
  6
CONTINUOUS
 10
-23.7832472282
 20
-7.5676937599
 11
-23.7828968168
 21
-7.0520073716
  0
LINE
  5
6C1
100
AcDbEntity
  8
RACCORDO
100
AcDbLine
 62
253
  6
CONTINUOUS
 10
-23.7797003268
 20
-1.2245558456
 11
-23.7789027455
 21
0.8439985571
  0
SPLINE
  5
6C2
100
AcDbEntity
  8
RACCORDO
100
AcDbSpline
 62
253
  6
CONTINUOUS
 70
0
 71
3
 72
9
 73
5
 74
3
 42
0.0000001
 43
0.0000001
 44
0.0000000001
 12
0.0019281047
 22
6.1661322625
 32
0.0
 13
0.0003603394
 23
6.1661325534
 33
0.0
 40
0.0
 40
0.0
 40
0.0
 40
0.0
 40
0.4999644739
 40
1.0
 40
1.0
 40
1.0
 40
1.0
 10
-23.7786626381
 20
1.576481843
 30
0.0
 10
-23.7783413101
 20
2.604097534
 30
0.0
 10
-23.7778292837
 20
4.6594749977
 30
0.0
 10
-23.7775785377
 20
6.71485251
 30
0.0
 10
-23.7775184768
 20
7.7426142883
 30
0.0
 11
-23.7786626381
 21
1.576481843
 31
0.0
 11
-23.7778946309
 21
4.6593289709
 31
0.0
 11
-23.7775184768
 21
7.7426142883
 31
0.0
  0
SPLINE
  5
6C3
100
AcDbEntity
  8
RACCORDO
100
AcDbSpline
 62
7
  6
CONTINUOUS
 70
0
 71
3
 72
12
 73
8
 74
6
 42
0.0000001
 43
0.0000001
 44
0.0000000001
 12
0.3000708432
 22
-0.0
 32
0.0
 13
0.2121821359
 23
0.2121821203
 33
0.0
 40
0.0
 40
0.0
 40
0.0
 40
0.0
 40
0.3053517528
 40
0.5820537449
 40
0.8023025256
 40
0.9467230498
 40
1.0
 40
1.0
 40
1.0
 40
1.0
 10
23.1688212993
 20
7.7374694304
 30
0.0
 10
23.1993636853
 20
7.7374694304
 30
0.0
 10
23.2577378779
 20
7.7373379016
 30
0.0
 10
23.3373842177
 20
7.7391009046
 30
0.0
 10
23.4030805124
 20
7.7372770792
 30
0.0
 10
23.4418317321
 20
7.7440050583
 30
0.0
 10
23.4650072267
 20
7.7388461496
 30
0.0
 10
23.4687753657
 20
7.7426142883
 30
0.0
 11
23.1688212993
 21
7.7374694304
 31
0.0
 11
23.2604481156
 21
7.7377196345
 31
0.0
 11
23.3434751184
 21
7.7384482922
 31
0.0
 11
23.4095556468
 21
7.7395810925
 31
0.0
 11
23.4528681109
 21
7.7410208903
 31
0.0
 11
23.4687753657
 21
7.7426142883
 31
0.0
  0
SPLINE
  5
6C4
100
AcDbEntity
  8
RACCORDO
100
AcDbSpline
 62
7
  6
CONTINUOUS
 70
0
 71
3
 72
12
 73
8
 74
6
 42
0.0000001
 43
0.0000001
 44
0.0000000001
 12
0.2121821359
 22
-0.2121821203
 32
0.0
 13
0.3000708432
 23
0.0
 33
0.0
 40
0.0
 40
0.0
 40
0.0
 40
0.0
 40
0.0532769502
 40
0.1976974744
 40
0.4179462551
 40
0.6946482472
 40
1.0
 40
1.0
 40
1.0
 40
1.0
 10
-23.7775184768
 20
7.7426142883
 30
0.0
 10
-23.7737503378
 20
7.7388461496
 30
0.0
 10
-23.7505748432
 20
7.7440050583
 30
0.0
 10
-23.7118236235
 20
7.7372770792
 30
0.0
 10
-23.6461273288
 20
7.7391009046
 30
0.0
 10
-23.566480989
 20
7.7373379016
 30
0.0
 10
-23.5081067964
 20
7.7374694304
 30
0.0
 10
-23.4775644104
 20
7.7374694304
 30
0.0
 11
-23.7775184768
 21
7.7426142883
 31
0.0
 11
-23.761611222
 21
7.7410208903
 31
0.0
 11
-23.7182987579
 21
7.7395810925
 31
0.0
 11
-23.6522182295
 21
7.7384482922
 31
0.0
 11
-23.5691912268
 21
7.7377196345
 31
0.0
 11
-23.4775644104
 21
7.7374694304
 31
0.0
  0
SPLINE
  5
6C5
100
AcDbEntity
  8
RACCORDO
100
AcDbSpline
 62
253
  6
CONTINUOUS
 70
0
 71
3
 72
11
 73
7
 74
5
 42
0.0000001
 43
0.0000001
 44
0.0000000001
 12
-0.0098689072
 22
0.3534493123
 32
0.0
 13
-0.0000004971
 23
0.3535870638
 33
0.0
 40
0.0
 40
0.0
 40
0.0
 40
0.0
 40
0.2035823994
 40
0.4531925193
 40
0.7278954329
 40
1.0
 40
1.0
 40
1.0
 40
1.0
 10
-19.9054726798
 20
5.8136846395
 30
0.0
 10
-19.9061423918
 20
5.8376699926
 30
0.0
 10
-19.9073421543
 20
5.8910716853
 30
0.0
 10
-19.9086108664
 20
5.9768544019
 30
0.0
 10
-19.9093907873
 20
6.0707194015
 30
0.0
 10
-19.9095623625
 20
6.135167549
 30
0.0
 10
-19.9095624076
 20
6.167238434
 30
0.0
 11
-19.9054726798
 21
5.8136846395
 31
0.0
 11
-19.9071375951
 21
5.885649486
 31
0.0
 11
-19.9084763779
 21
5.9738982409
 31
0.0
 11
-19.9093014887
 21
6.0710261329
 31
0.0
 11
-19.9095624076
 21
6.167238434
 31
0.0
  0
SPLINE
  5
6C6
100
AcDbEntity
  8
RACCORDO
100
AcDbSpline
 62
7
  6
CONTINUOUS
 70
0
 71
3
 72
11
 73
7
 74
5
 42
0.0000001
 43
0.0000001
 44
0.0000000001
 12
0.1877591259
 22
0.0090044273
 32
0.0
 13
0.1879749161
 23
0.0
 33
0.0
 40
0.0
 40
0.0
 40
0.0
 40
0.0
 40
0.1566793638
 40
0.3898272684
 40
0.6785348125
 40
1.0
 40
1.0
 40
1.0
 40
1.0
 10
4.0875754835
 20
5.3837126457
 30
0.0
 10
4.0973814769
 20
5.384182915
 30
0.0
 10
4.1218027565
 20
5.3848088002
 30
0.0
 10
4.1643121137
 20
5.3854861434
 30
0.0
 10
4.2171524628
 20
5.3859094382
 30
0.0
 10
4.2553847475
 20
5.386010158
 30
0.0
 10
4.2755272114
 20
5.386010158
 30
0.0
 11
4.0875754835
 21
5.3837126457
 31
0.0
 11
4.117012424
 21
5.3846477832
 31
0.0
 11
4.1608322816
 21
5.3853789847
 31
0.0
 11
4.2151000401
 21
5.385846978
 31
0.0
 11
4.2755272114
 21
5.386010158
 31
0.0
  0
SPLINE
  5
6C7
100
AcDbEntity
  8
RACCORDO
100
AcDbSpline
 62
7
  6
CONTINUOUS
 70
0
 71
3
 72
11
 73
7
 74
5
 42
0.0000001
 43
0.0000001
 44
0.0000000001
 12
-0.1879629154
 22
0.0
 32
0.0
 13
-0.1877471389
 23
0.0090038568
 33
0.0
 40
0.0
 40
0.0
 40
0.0
 40
0.0
 40
0.3215242523
 40
0.6102453572
 40
0.8433660718
 40
1.0
 40
1.0
 40
1.0
 40
1.0
 10
4.2690043066
 20
3.7345431045
 30
0.0
 10
4.248859428
 20
3.7345431045
 30
0.0
 10
4.2106250339
 20
3.7346438073
 30
0.0
 10
4.1577852106
 20
3.7350670107
 30
0.0
 10
4.1152822667
 20
3.735744159
 30
0.0
 10
4.0908670924
 20
3.7363697904
 30
0.0
 10
4.0810645684
 20
3.7368398935
 30
0.0
 11
4.2690043066
 21
3.7345431045
 31
0.0
 11
4.208569891
 21
3.7347062727
 31
0.0
 11
4.1543030476
 21
3.7351741815
 31
0.0
 11
4.1104910959
 21
3.7359051537
 31
0.0
 11
4.0810645684
 21
3.7368398935
 31
0.0
  0
SPLINE
  5
6C8
100
AcDbEntity
  8
RACCORDO
100
AcDbSpline
 62
7
  6
CONTINUOUS
 70
0
 71
3
 72
11
 73
7
 74
5
 42
0.0000001
 43
0.0000001
 44
0.0000000001
 12
-0.1877471389
 22
-0.0090038568
 32
0.0
 13
-0.1879629155
 23
-0.0
 33
0.0
 40
0.0
 40
0.0
 40
0.0
 40
0.0
 40
0.1566339282
 40
0.3897546428
 40
0.6784757477
 40
1.0
 40
1.0
 40
1.0
 40
1.0
 10
-4.3898076795
 20
3.7368398935
 30
0.0
 10
-4.3996102035
 20
3.7363697904
 30
0.0
 10
-4.4240253778
 20
3.735744159
 30
0.0
 10
-4.4665283217
 20
3.7350670107
 30
0.0
 10
-4.519368145
 20
3.7346438073
 30
0.0
 10
-4.5576025391
 20
3.7345431045
 30
0.0
 10
-4.5777474177
 20
3.7345431045
 30
0.0
 11
-4.3898076795
 21
3.7368398935
 31
0.0
 11
-4.419234207
 21
3.7359051537
 31
0.0
 11
-4.4630461587
 21
3.7351741815
 31
0.0
 11
-4.5173130021
 21
3.7347062727
 31
0.0
 11
-4.5777474177
 21
3.7345431045
 31
0.0
  0
SPLINE
  5
6C9
100
AcDbEntity
  8
RACCORDO
100
AcDbSpline
 62
7
  6
CONTINUOUS
 70
0
 71
3
 72
11
 73
7
 74
5
 42
0.0000001
 43
0.0000001
 44
0.0000000001
 12
0.1879749161
 22
0.0
 32
0.0
 13
0.1877591259
 23
-0.0090044273
 33
0.0
 40
0.0
 40
0.0
 40
0.0
 40
0.0
 40
0.3214651875
 40
0.6101727316
 40
0.8433206362
 40
1.0
 40
1.0
 40
1.0
 40
1.0
 10
-4.5842703225
 20
5.386010158
 30
0.0
 10
-4.5641278586
 20
5.386010158
 30
0.0
 10
-4.5258955739
 20
5.3859094382
 30
0.0
 10
-4.4730552248
 20
5.3854861434
 30
0.0
 10
-4.4305458676
 20
5.3848088002
 30
0.0
 10
-4.4061245881
 20
5.384182915
 30
0.0
 10
-4.3963185946
 20
5.3837126457
 30
0.0
 11
-4.5842703225
 21
5.386010158
 31
0.0
 11
-4.5238431512
 21
5.385846978
 31
0.0
 11
-4.4695753927
 21
5.3853789847
 31
0.0
 11
-4.4257555351
 21
5.3846477832
 31
0.0
 11
-4.3963185946
 21
5.3837126457
 31
0.0
  0
SPLINE
  5
6CA
100
AcDbEntity
  8
ASSI
100
AcDbSpline
 62
7
  6
CONTINUOUS
 70
0
 71
3
 72
9
 73
5
 74
3
 42
0.0000001
 43
0.0000001
 44
0.0000000001
 12
-0.0046820729
 22
0.3133621937
 32
0.0
 13
-0.3113313703
 23
0.0361338596
 33
0.0
 40
0.0
 40
0.0
 40
0.0
 40
0.0
 40
0.4988583766
 40
1.0
 40
1.0
 40
1.0
 40
1.0
 10
13.1818830624
 20
-2.5645336483
 30
0.0
 10
13.1811044986
 20
-2.5124258632
 30
0.0
 10
13.1386799525
 20
-2.4037518974
 30
0.0
 10
13.0334437018
 20
-2.3579347514
 30
0.0
 10
12.9814366657
 20
-2.351898691
 30
0.0
 11
13.1818830624
 21
-2.5645336483
 31
0.0
 11
13.1231455175
 21
-2.4196425549
 31
0.0
 11
12.9814366657
 21
-2.351898691
 31
0.0
  0
SPLINE
  5
6CB
100
AcDbEntity
  8
ASSI
100
AcDbSpline
 62
7
  6
CONTINUOUS
 70
0
 71
3
 72
9
 73
5
 74
3
 42
0.0000001
 43
0.0000001
 44
0.0000000001
 12
-0.2768734096
 22
0.0321345862
 32
0.0
 13
-0.2747605685
 23
-0.046883616
 33
0.0
 40
0.0
 40
0.0
 40
0.0
 40
0.0
 40
0.7295958319
 40
1.0
 40
1.0
 40
1.0
 40
1.0
 10
12.9814366657
 20
-2.3518986911
 30
0.0
 10
12.9141014371
 20
-2.3440836044
 30
0.0
 10
12.8201087486
 20
-2.3437823565
 30
0.0
 10
12.7282353437
 20
-2.357680361
 30
0.0
 10
12.7034698761
 20
-2.3619062027
 30
0.0
 11
12.9814366657
 21
-2.3518986911
 31
0.0
 11
12.7780762056
 21
-2.3512024311
 31
0.0
 11
12.7034698761
 21
-2.3619062027
 31
0.0
  0
SPLINE
  5
6CC
100
AcDbEntity
  8
ASSI
100
AcDbSpline
 62
7
  6
CONTINUOUS
 70
0
 71
3
 72
9
 73
5
 74
3
 42
0.0000001
 43
0.0000001
 44
0.0000000001
 12
0.4232572624
 22
0.0094537593
 32
0.0
 13
-0.0063259437
 23
0.4233860928
 33
0.0
 40
0.0
 40
0.0
 40
0.0
 40
0.0
 40
0.4795375616
 40
1.0
 40
1.0
 40
1.0
 40
1.0
 10
12.9062505889
 20
-2.8285516852
 30
0.0
 10
12.9739065074
 20
-2.8270405409
 30
0.0
 10
13.131048578
 20
-2.7984187705
 30
0.0
 10
13.1829805197
 20
-2.6379858346
 30
0.0
 10
13.1818830476
 20
-2.5645336485
 30
0.0
 11
12.9062505889
 21
-2.8285516852
 31
0.0
 11
13.100423829
 21
-2.7692793086
 31
0.0
 11
13.1818830476
 21
-2.5645336485
 31
0.0
  0
SPLINE
  5
6CD
100
AcDbEntity
  8
ASSI
100
AcDbSpline
 62
7
  6
CONTINUOUS
 70
0
 71
3
 72
17
 73
13
 74
11
 42
0.0000001
 43
0.0000001
 44
0.0000000001
 12
0.9958819045
 22
-0.3598342768
 32
0.0
 13
-1.050193894
 23
-0.1355088895
 33
0.0
 40
0.0
 40
0.0
 40
0.0
 40
0.0
 40
0.0798430187
 40
0.1895551228
 40
0.3223119562
 40
0.398530744
 40
0.483321362
 40
0.5876727129
 40
0.6789531193
 40
0.8312245932
 40
0.9440148167
 40
1.0
 40
1.0
 40
1.0
 40
1.0
 10
13.237622591
 20
-2.1101202179
 30
0.0
 10
13.2641273302
 20
-2.1196969695
 30
0.0
 10
13.3233739198
 20
-2.1523846794
 30
0.0
 10
13.4095749877
 20
-2.228177519
 30
0.0
 10
13.4706512519
 20
-2.3251341282
 30
0.0
 10
13.5031696808
 20
-2.4240672429
 30
0.0
 10
13.5165867747
 20
-2.5171739266
 30
0.0
 10
13.5140408904
 20
-2.6168607493
 30
0.0
 10
13.4869420225
 20
-2.7369683756
 30
0.0
 10
13.426110907
 20
-2.8520993119
 30
0.0
 10
13.3434957411
 20
-2.9268914836
 30
0.0
 10
13.2936790598
 20
-2.9661261249
 30
0.0
 10
13.2740806272
 20
-2.9686549549
 30
0.0
 11
13.237622591
 21
-2.1101202179
 31
0.0
 11
13.3125210715
 21
-2.1493428947
 31
0.0
 11
13.3996490272
 21
-2.226187932
 31
0.0
 11
13.4746592802
 21
-2.3450792468
 31
0.0
 11
13.5000511853
 21
-2.4216889608
 31
0.0
 11
13.5133307654
 21
-2.5104862875
 31
0.0
 11
13.5100919588
 21
-2.620936489
 31
0.0
 11
13.4885173591
 21
-2.7151547647
 31
0.0
 11
13.4117938175
 21
-2.856971323
 31
0.0
 11
13.3260262153
 21
-2.9400875304
 31
0.0
 11
13.2740806272
 21
-2.9686549549
 31
0.0
  0
SPLINE
  5
6CE
100
AcDbEntity
  8
ASSI
100
AcDbSpline
 62
7
  6
CONTINUOUS
 70
0
 71
3
 72
8
 73
4
 74
2
 42
0.0000001
 43
0.0000001
 44
0.0000000001
 12
0.0468153254
 22
-0.018667611
 32
0.0
 13
0.0404489985
 23
-0.0293488028
 33
0.0
 40
0.0
 40
0.0
 40
0.0
 40
0.0
 40
1.0
 40
1.0
 40
1.0
 40
1.0
 10
13.2740806272
 20
-2.9786996621
 30
0.0
 10
13.2896857357
 20
-2.9849221991
 30
0.0
 10
13.3041904563
 20
-2.9931121743
 30
0.0
 10
13.3176734558
 20
-3.0028951086
 30
0.0
 11
13.2740806272
 21
-2.9786996621
 31
0.0
 11
13.3176734558
 21
-3.0028951086
 31
0.0
  0
SPLINE
  5
6CF
100
AcDbEntity
  8
ASSI
100
AcDbSpline
 62
7
  6
CONTINUOUS
 70
0
 71
3
 72
9
 73
5
 74
3
 42
0.0000001
 43
0.0000001
 44
0.0000000001
 12
0.2399260035
 22
-0.2145228187
 32
0.0
 13
0.0845359266
 23
-0.3102902278
 33
0.0
 40
0.0
 40
0.0
 40
0.0
 40
0.0
 40
0.7012282199
 40
1.0
 40
1.0
 40
1.0
 40
1.0
 10
13.336135464
 20
-3.0178129608
 30
0.0
 10
13.3922164254
 20
-3.0679561122
 30
0.0
 10
13.4440838437
 20
-3.1798844189
 30
0.0
 10
13.4701986257
 20
-3.2812342242
 30
0.0
 10
13.4786176088
 20
-3.3121362121
 30
0.0
 11
13.336135464
 21
-3.0178129608
 31
0.0
 11
13.4522951077
 21
-3.2197290153
 31
0.0
 11
13.4786176088
 21
-3.3121362121
 31
0.0
  0
SPLINE
  5
6D0
100
AcDbEntity
  8
ASSI
100
AcDbSpline
 62
7
  6
CONTINUOUS
 70
0
 71
3
 72
9
 73
5
 74
3
 42
0.0000001
 43
0.0000001
 44
0.0000000001
 12
0.1250599769
 22
-0.4590343077
 32
0.0
 13
0.1246990825
 23
-0.4591324849
 33
0.0
 40
0.0
 40
0.0
 40
0.0
 40
0.0
 40
0.8019701246
 40
1.0
 40
1.0
 40
1.0
 40
1.0
 10
13.4786176091
 20
-3.3121362121
 30
0.0
 10
13.5120490641
 20
-3.4348468124
 30
0.0
 10
13.5513918935
 20
-3.5884850596
 30
0.0
 10
13.5916776217
 20
-3.7418732241
 30
0.0
 10
13.5999090029
 20
-3.7721805404
 30
0.0
 11
13.4786176091
 21
-3.3121362121
 31
0.0
 11
13.5757590428
 21
-3.6811125387
 31
0.0
 11
13.5999090029
 21
-3.7721805404
 31
0.0
  0
SPLINE
  5
6D1
100
AcDbEntity
  8
ASSI
100
AcDbSpline
 62
7
  6
CONTINUOUS
 70
0
 71
3
 72
9
 73
5
 74
3
 42
0.0000001
 43
0.0000001
 44
0.0000000001
 12
-0.1487666252
 22
0.5174419044
 32
0.0
 13
-0.1893777802
 23
0.5039985871
 33
0.0
 40
0.0
 40
0.0
 40
0.0
 40
0.0
 40
0.4413080349
 40
1.0
 40
1.0
 40
1.0
 40
1.0
 10
13.2586056596
 20
-3.7721805404
 30
0.0
 10
13.2367216905
 20
-3.6960634504
 30
0.0
 10
13.1850524968
 20
-3.524289878
 30
0.0
 10
13.1386857573
 20
-3.3505058785
 30
0.0
 10
13.1034178092
 20
-3.2566458915
 30
0.0
 11
13.2586056596
 21
-3.7721805404
 31
0.0
 11
13.1921502976
 21
-3.5440617988
 31
0.0
 11
13.1034178092
 21
-3.2566458915
 31
0.0
  0
SPLINE
  5
6D2
100
AcDbEntity
  8
ASSI
100
AcDbSpline
 62
7
  6
CONTINUOUS
 70
0
 71
3
 72
9
 73
5
 74
3
 42
0.0000001
 43
0.0000001
 44
0.0000000001
 12
-0.0895737501
 22
0.2383859055
 32
0.0
 13
-0.2546300208
 23
-0.0
 33
0.0
 40
0.0
 40
0.0
 40
0.0
 40
0.0
 40
0.8563651185
 40
1.0
 40
1.0
 40
1.0
 40
1.0
 10
13.1034178233
 20
-3.2566458862
 30
0.0
 10
13.0778485449
 20
-3.1885974282
 30
0.0
 10
13.0027995795
 20
-3.1129656652
 30
0.0
 10
12.9176770144
 20
-3.1069481378
 30
0.0
 10
12.9054857635
 20
-3.1069481378
 30
0.0
 11
13.1034178233
 21
-3.2566458862
 31
0.0
 11
12.9419223253
 21
-3.1101130013
 31
0.0
 11
12.9054857635
 21
-3.1069481378
 31
0.0
  0
SPLINE
  5
6D3
100
AcDbEntity
  8
ASSI
100
AcDbSpline
 62
7
  6
CONTINUOUS
 70
0
 71
3
 72
9
 73
5
 74
3
 42
0.0000001
 43
0.0000001
 44
0.0000000001
 12
0.870352019
 22
0.1280436023
 32
0.0
 13
0.8273203445
 23
-0.2990739652
 33
0.0
 40
0.0
 40
0.0
 40
0.0
 40
0.0
 40
0.8916594654
 40
1.0
 40
1.0
 40
1.0
 40
1.0
 10
12.3618351084
 20
-2.0921777715
 30
0.0
 10
12.6205209804
 20
-2.0541206748
 30
0.0
 10
12.9248454345
 20
-2.018627037
 30
0.0
 10
13.2077451327
 20
-2.0993196452
 30
0.0
 10
13.2376225755
 20
-2.1101202563
 30
0.0
 11
12.3618351084
 21
-2.0921777715
 31
0.0
 11
13.1461946469
 21
-2.0831988406
 31
0.0
 11
13.2376225755
 21
-2.1101202563
 31
0.0
  0
SPLINE
  5
6D4
100
AcDbEntity
  8
ASSI
100
AcDbSpline
 62
7
  6
CONTINUOUS
 70
0
 71
3
 72
10
 73
6
 74
4
 42
0.0000001
 43
0.0000001
 44
0.0000000001
 12
-0.1883406519
 22
0.1821745431
 32
0.0
 13
-0.1853866352
 23
0.1851798068
 33
0.0
 40
0.0
 40
0.0
 40
0.0
 40
0.0
 40
0.2866167254
 40
0.6201205121
 40
1.0
 40
1.0
 40
1.0
 40
1.0
 10
23.3612236293
 20
-7.763425093
 30
0.0
 10
23.343229769
 20
-7.746020336
 30
0.0
 10
23.3044387625
 20
-7.70821852
 30
0.0
 10
23.2422092838
 20
-7.6469290039
 30
0.0
 10
23.1980246685
 20
-7.6029949131
 30
0.0
 10
23.1745498085
 20
-7.579546243
 30
0.0
 11
23.3612236293
 21
-7.763425093
 31
0.0
 11
23.3074147226
 21
-7.711032892
 31
0.0
 11
23.2451408651
 21
-7.6497251953
 31
0.0
 11
23.1745498085
 21
-7.579546243
 31
0.0
  0
SPLINE
  5
6D5
100
AcDbEntity
  8
ASSI
100
AcDbSpline
 62
7
  6
CONTINUOUS
 70
0
 71
3
 72
10
 73
6
 74
4
 42
0.0000001
 43
0.0000001
 44
0.0000000001
 12
0.1932247375
 22
0.1319117349
 32
0.0
 13
0.0047953966
 23
0.23390919
 33
0.0
 40
0.0
 40
0.0
 40
0.0
 40
0.0
 40
0.3373558539
 40
0.6687258877
 40
1.0
 40
1.0
 40
1.0
 40
1.0
 10
23.3612236293
 20
-7.763425093
 30
0.0
 10
23.3829521281
 20
-7.748591361
 30
0.0
 10
23.4223344102
 20
-7.7131849732
 30
0.0
 10
23.4633141505
 20
-7.6454301728
 30
0.0
 10
23.4739745868
 20
-7.5935231125
 30
0.0
 10
23.474504117
 20
-7.5676937594
 30
0.0
 11
23.3612236293
 21
-7.763425093
 31
0.0
 11
23.4196385588
 21
-7.7103477778
 31
0.0
 11
23.4591932503
 21
-7.6436707316
 31
0.0
 11
23.474504117
 21
-7.5676937594
 31
0.0
  0
SPLINE
  5
6D6
100
AcDbEntity
  8
ASSI
100
AcDbSpline
 62
7
  6
CONTINUOUS
 70
0
 71
3
 72
10
 73
6
 74
4
 42
0.0000001
 43
0.0000001
 44
0.0000000001
 12
0.2111537282
 22
0.0378702165
 32
0.0
 13
0.151821365
 23
0.1515596362
 33
0.0
 40
0.0
 40
0.0
 40
0.0
 40
0.0
 40
0.3429101549
 40
0.6755847515
 40
1.0
 40
1.0
 40
1.0
 40
1.0
 10
23.1745498084
 20
-7.8631360847
 30
0.0
 10
23.1986853943
 20
-7.8588073907
 30
0.0
 10
23.2454169444
 20
-7.8447619805
 30
0.0
 10
23.3083830884
 20
-7.8099941222
 30
0.0
 10
23.3448059074
 20
-7.779814512
 30
0.0
 10
23.3612236293
 20
-7.763425093
 30
0.0
 11
23.1745498084
 21
-7.8631360847
 31
0.0
 11
23.2450448118
 21
-7.8421162996
 31
0.0
 11
23.3076339337
 21
-7.8078270791
 31
0.0
 11
23.3612236293
 21
-7.763425093
 31
0.0
  0
SPLINE
  5
6D7
100
AcDbEntity
  8
ASSI
100
AcDbSpline
 62
7
  6
CONTINUOUS
 70
0
 71
3
 72
13
 73
9
 74
7
 42
0.0000001
 43
0.0000001
 44
0.0000000001
 12
-0.4360540282
 22
-0.0003592369
 32
0.0
 13
-0.0089035972
 23
0.4359632674
 33
0.0
 40
0.0
 40
0.0
 40
0.0
 40
0.0
 40
0.1762313956
 40
0.3431225387
 40
0.5099732983
 40
0.6748732839
 40
0.8372164229
 40
1.0
 40
1.0
 40
1.0
 40
1.0
 10
-23.4791306643
 20
-7.8210899565
 30
0.0
 10
-23.5047461343
 20
-7.8211110595
 30
0.0
 10
-23.5547923677
 20
-7.8155535487
 30
0.0
 10
-23.6255539744
 20
-7.7917788639
 30
0.0
 10
-23.6880702817
 20
-7.7538096191
 30
0.0
 10
-23.7390871542
 20
-7.7020928644
 30
0.0
 10
-23.7737981172
 20
-7.6387684651
 30
0.0
 10
-23.7827641083
 20
-7.5913496462
 30
0.0
 10
-23.7832472281
 20
-7.5676937594
 30
0.0
 11
-23.4791306643
 21
-7.8210899565
 31
0.0
 11
-23.5555120623
 21
-7.8126485847
 31
0.0
 11
-23.6244427443
 21
-7.7893128819
 31
0.0
 11
-23.6864586561
 21
-7.75126741
 31
0.0
 11
-23.7366573632
 21
-7.6997847342
 31
0.0
 11
-23.7702603617
 21
-7.6374780752
 31
0.0
 11
-23.7832472281
 21
-7.5676937594
 31
0.0
  0
SPLINE
  5
6D8
100
AcDbEntity
  8
ASSI
100
AcDbSpline
 62
253
  6
CONTINUOUS
 70
0
 71
3
 72
11
 73
7
 74
5
 42
0.0000001
 43
0.0000001
 44
0.0000000001
 12
-0.0069988224
 22
0.4010844298
 32
0.0
 13
-0.4011302123
 23
0.0035008769
 33
0.0
 40
0.0
 40
0.0
 40
0.0
 40
0.0
 40
0.2095153874
 40
0.4453794694
 40
0.7128570698
 40
1.0
 40
1.0
 40
1.0
 40
1.0
 10
-19.4033164021
 20
5.6015415026
 30
0.0
 10
-19.4038051891
 20
5.6295526225
 30
0.0
 10
-19.4229006813
 20
5.6894198545
 30
0.0
 10
-19.492747571
 20
5.7580742741
 30
0.0
 10
-19.5903529574
 20
5.8026986484
 30
0.0
 10
-19.6648768091
 20
5.8133384529
 30
0.0
 10
-19.7032707106
 20
5.8136735369
 30
0.0
 11
-19.4033164021
 21
5.6015415026
 31
0.0
 11
-19.4272023442
 21
5.682122006
 31
0.0
 11
-19.4924677263
 21
5.7506244283
 31
0.0
 11
-19.5893300262
 21
5.7967810525
 31
0.0
 11
-19.7032707106
 21
5.8136735369
 31
0.0
  0
SPLINE
  5
6D9
100
AcDbEntity
  8
ASSI
100
AcDbSpline
 62
253
  6
CONTINUOUS
 70
0
 71
3
 72
11
 73
7
 74
5
 42
0.0000001
 43
0.0000001
 44
0.0000000001
 12
-0.0069988137
 22
0.401084489
 32
0.0
 13
-0.401130273
 23
0.0035006841
 33
0.0
 40
0.0
 40
0.0
 40
0.0
 40
0.0
 40
0.2095120489
 40
0.4453745127
 40
0.7128531963
 40
1.0
 40
1.0
 40
1.0
 40
1.0
 10
-19.4156589968
 20
4.8944347214
 30
0.0
 10
-19.4161477754
 20
4.9224453991
 30
0.0
 10
-19.4352427135
 20
4.9823119823
 30
0.0
 10
-19.5050887018
 20
5.0509666101
 30
0.0
 10
-19.6026943328
 20
5.095591673
 30
0.0
 10
-19.6772188802
 20
5.1062316828
 30
0.0
 10
-19.7156133054
 20
5.1065667529
 30
0.0
 11
-19.4156589968
 21
4.8944347214
 31
0.0
 11
-19.4395442136
 21
4.9750140558
 31
0.0
 11
-19.5048086374
 21
5.0435165139
 31
0.0
 11
-19.6016710943
 21
5.0896738552
 31
0.0
 11
-19.7156133054
 21
5.1065667529
 31
0.0
  0
SPLINE
  5
6DA
100
AcDbEntity
  8
ASSI
100
AcDbSpline
 62
253
  6
CONTINUOUS
 70
0
 71
3
 72
11
 73
7
 74
5
 42
0.0000001
 43
0.0000001
 44
0.0000000001
 12
0.0069988224
 22
0.4010844293
 32
0.0
 13
0.4011302117
 23
0.0035008838
 33
0.0
 40
0.0
 40
0.0
 40
0.0
 40
0.0
 40
0.2095153873
 40
0.4453794686
 40
0.7128570688
 40
1.0
 40
1.0
 40
1.0
 40
1.0
 10
-20.1930841143
 20
4.8944347214
 30
0.0
 10
-20.1925953273
 20
4.9224458412
 30
0.0
 10
-20.1734998351
 20
4.9823130731
 30
0.0
 10
-20.1036529453
 20
5.0509674924
 30
0.0
 10
-20.0060475588
 20
5.0955918657
 30
0.0
 10
-19.9315237073
 20
5.1062316711
 30
0.0
 10
-19.8931298057
 20
5.1065667557
 30
0.0
 11
-20.1930841143
 21
4.8944347214
 31
0.0
 11
-20.1691981722
 21
4.9750152246
 31
0.0
 11
-20.1039327901
 21
5.0435176464
 31
0.0
 11
-20.0070704902
 21
5.0896742701
 31
0.0
 11
-19.8931298057
 21
5.1065667557
 31
0.0
  0
SPLINE
  5
6DB
100
AcDbEntity
  8
ASSI
100
AcDbSpline
 62
253
  6
CONTINUOUS
 70
0
 71
3
 72
11
 73
7
 74
5
 42
0.0000001
 43
0.0000001
 44
0.0000000001
 12
0.0069988223
 22
0.4010844284
 32
0.0
 13
0.4011302109
 23
0.003500877
 33
0.0
 40
0.0
 40
0.0
 40
0.0
 40
0.0
 40
0.209515632
 40
0.4453798145
 40
0.7128573246
 40
1.0
 40
1.0
 40
1.0
 40
1.0
 10
-20.205426709
 20
5.6015415026
 30
0.0
 10
-20.2049379215
 20
5.6295526551
 30
0.0
 10
-20.185842391
 20
5.689419933
 30
0.0
 10
-20.1159954405
 20
5.7580743378
 30
0.0
 10
-20.0183900721
 20
5.8026986642
 30
0.0
 10
-19.9438662678
 20
5.8133384532
 30
0.0
 10
-19.9054724005
 20
5.8136735369
 30
0.0
 11
-20.205426709
 21
5.6015415026
 31
0.0
 11
-20.1815407151
 21
5.6821220926
 31
0.0
 11
-20.1162752695
 21
5.7506245098
 31
0.0
 11
-20.0194129856
 21
5.7967810822
 31
0.0
 11
-19.9054724005
 21
5.8136735369
 31
0.0
  0
SPLINE
  5
6DC
100
AcDbEntity
  8
ASSI
100
AcDbSpline
 62
253
  6
CONTINUOUS
 70
0
 71
3
 72
11
 73
7
 74
5
 42
0.0000001
 43
0.0000001
 44
0.0000000001
 12
0.0069988224
 22
0.4010844293
 32
0.0
 13
0.4011302117
 23
0.0035008838
 33
0.0
 40
0.0
 40
0.0
 40
0.0
 40
0.0
 40
0.2095153873
 40
0.4453794686
 40
0.7128570688
 40
1.0
 40
1.0
 40
1.0
 40
1.0
 10
19.1069158857
 20
4.8944347214
 30
0.0
 10
19.1074046727
 20
4.9224458412
 30
0.0
 10
19.1265001649
 20
4.9823130731
 30
0.0
 10
19.1963470547
 20
5.0509674924
 30
0.0
 10
19.2939524412
 20
5.0955918657
 30
0.0
 10
19.3684762927
 20
5.1062316711
 30
0.0
 10
19.4068701943
 20
5.1065667557
 30
0.0
 11
19.1069158857
 21
4.8944347214
 31
0.0
 11
19.1308018278
 21
4.9750152246
 31
0.0
 11
19.1960672099
 21
5.0435176464
 31
0.0
 11
19.2929295098
 21
5.0896742701
 31
0.0
 11
19.4068701943
 21
5.1065667557
 31
0.0
  0
SPLINE
  5
6DD
100
AcDbEntity
  8
ASSI
100
AcDbSpline
 62
7
  6
CONTINUOUS
 70
0
 71
3
 72
12
 73
8
 74
6
 42
0.0000001
 43
0.0000001
 44
0.0000000001
 12
0.3000739778
 22
-0.0
 32
0.0
 13
0.212185585
 23
0.2121831041
 33
0.0
 40
0.0
 40
0.0
 40
0.0
 40
0.0
 40
0.3053475036
 40
0.5820489604
 40
0.8022991747
 40
0.9467217969
 40
1.0
 40
1.0
 40
1.0
 40
1.0
 10
23.1729421647
 20
-5.0584067844
 30
0.0
 10
23.2034844447
 20
-5.0584067844
 30
0.0
 10
23.2618587624
 20
-5.0585383001
 30
0.0
 10
23.3415056153
 20
-5.0567752925
 30
0.0
 10
23.4072028725
 20
-5.0585990773
 30
0.0
 10
23.4459549904
 20
-5.051871001
 30
0.0
 10
23.4691310697
 20
-5.0570299636
 30
0.0
 10
23.4728993586
 20
-5.0532617188
 30
0.0
 11
23.1729421647
 21
-5.0584067844
 31
0.0
 11
23.264568663
 21
-5.0581565743
 31
0.0
 11
23.3475963723
 21
-5.0574278945
 31
0.0
 11
23.4136780208
 21
-5.0562950516
 31
0.0
 11
23.4569915657
 21
-5.0548551921
 31
0.0
 11
23.4728993586
 21
-5.0532617188
 31
0.0
  0
SPLINE
  5
6DE
100
AcDbEntity
  8
ASSI
100
AcDbSpline
 62
7
  6
CONTINUOUS
 70
0
 71
3
 72
12
 73
8
 74
6
 42
0.0000001
 43
0.0000001
 44
0.0000000001
 12
0.212185585
 22
-0.2121831041
 32
0.0
 13
0.3000739778
 23
0.0
 33
0.0
 40
0.0
 40
0.0
 40
0.0
 40
0.0
 40
0.0532782031
 40
0.1977008253
 40
0.4179510396
 40
0.6946524964
 40
1.0
 40
1.0
 40
1.0
 40
1.0
 10
-23.7816424697
 20
-5.0532617188
 30
0.0
 10
-23.7778741808
 20
-5.0570299636
 30
0.0
 10
-23.7546981015
 20
-5.051871001
 30
0.0
 10
-23.7159459836
 20
-5.0585990773
 30
0.0
 10
-23.6502487264
 20
-5.0567752925
 30
0.0
 10
-23.5706018735
 20
-5.0585383001
 30
0.0
 10
-23.5122275558
 20
-5.0584067844
 30
0.0
 10
-23.4816852758
 20
-5.0584067844
 30
0.0
 11
-23.7816424697
 21
-5.0532617188
 31
0.0
 11
-23.7657346768
 21
-5.0548551921
 31
0.0
 11
-23.7224211319
 21
-5.0562950516
 31
0.0
 11
-23.6563394834
 21
-5.0574278945
 31
0.0
 11
-23.5733117742
 21
-5.0581565743
 31
0.0
 11
-23.4816852758
 21
-5.0584067844
 31
0.0
  0
SPLINE
  5
6DF
100
AcDbEntity
  8
ASSI
100
AcDbSpline
 62
7
  6
CONTINUOUS
 70
0
 71
3
 72
12
 73
8
 74
6
 42
0.0000001
 43
0.0000001
 44
0.0000000001
 12
-0.2121858917
 22
0.2121865075
 32
0.0
 13
-0.3000766013
 23
0.0
 33
0.0
 40
0.0
 40
0.0
 40
0.0
 40
0.0
 40
0.0533078243
 40
0.1977742039
 40
0.4180472247
 40
0.6947316031
 40
1.0
 40
1.0
 40
1.0
 40
1.0
 10
23.4709572156
 20
-1.2245558456
 30
0.0
 10
23.4671868262
 20
-1.2207854453
 30
0.0
 10
23.4440019024
 20
-1.2259451518
 30
0.0
 10
23.405240399
 20
-1.219215822
 30
0.0
 10
23.3395377054
 20
-1.2210385006
 30
0.0
 10
23.2598973234
 20
-1.2192756478
 30
0.0
 10
23.2015321923
 20
-1.2194069385
 30
0.0
 10
23.170997558
 20
-1.2194069385
 30
0.0
 11
23.4709572156
 21
-1.2245558456
 31
0.0
 11
23.4550405088
 21
-1.2229607779
 31
0.0
 11
23.4117134854
 21
-1.2215197641
 31
0.0
 11
23.3456244265
 21
-1.2203862144
 31
0.0
 11
23.2626011192
 21
-1.219657206
 31
0.0
 11
23.170997558
 21
-1.2194069385
 31
0.0
  0
SPLINE
  5
6E0
100
AcDbEntity
  8
ASSI
100
AcDbSpline
 62
7
  6
CONTINUOUS
 70
0
 71
3
 72
12
 73
8
 74
6
 42
0.0000001
 43
0.0000001
 44
0.0000000001
 12
-0.3000766013
 22
-0.0
 32
0.0
 13
-0.2121858917
 23
-0.2121865075
 33
0.0
 40
0.0
 40
0.0
 40
0.0
 40
0.0
 40
0.3052683969
 40
0.5819527753
 40
0.8022257961
 40
0.9466921757
 40
1.0
 40
1.0
 40
1.0
 40
1.0
 10
-23.4797406691
 20
-1.2194069385
 30
0.0
 10
-23.5102753035
 20
-1.2194069385
 30
0.0
 10
-23.5686404345
 20
-1.2192756478
 30
0.0
 10
-23.6482808165
 20
-1.2210385006
 30
0.0
 10
-23.7139835101
 20
-1.219215822
 30
0.0
 10
-23.7527450135
 20
-1.2259451518
 30
0.0
 10
-23.7759299373
 20
-1.2207854453
 30
0.0
 10
-23.7797003268
 20
-1.2245558456
 30
0.0
 11
-23.4797406691
 21
-1.2194069385
 31
0.0
 11
-23.5713442303
 21
-1.219657206
 31
0.0
 11
-23.6543675376
 21
-1.2203862144
 31
0.0
 11
-23.7204565965
 21
-1.2215197641
 31
0.0
 11
-23.7637836199
 21
-1.2229607779
 31
0.0
 11
-23.7797003268
 21
-1.2245558456
 31
0.0
  0
SPLINE
  5
6E1
100
AcDbEntity
  8
ASSI
100
AcDbSpline
 62
7
  6
CONTINUOUS
 70
0
 71
3
 72
12
 73
8
 74
6
 42
0.0000001
 43
0.0000001
 44
0.0000000001
 12
0.2121856603
 22
-0.2121849679
 32
0.0
 13
0.300075349
 23
0.0
 33
0.0
 40
0.0
 40
0.0
 40
0.0
 40
0.0
 40
0.0532816106
 40
0.1977093993
 40
0.417962435
 40
0.694661992
 40
1.0
 40
1.0
 40
1.0
 40
1.0
 10
-23.7828968168
 20
-7.0520073716
 30
0.0
 10
-23.7791282856
 20
-7.0557758906
 30
0.0
 10
-23.755951062
 20
-7.0506167922
 30
0.0
 10
-23.7171977222
 20
-7.0573450695
 30
0.0
 10
-23.6514995513
 20
-7.0555213911
 30
0.0
 10
-23.5718531774
 20
-7.0572843935
 30
0.0
 10
-23.5134797403
 20
-7.0571529018
 30
0.0
 10
-23.4829382706
 20
-7.0571529018
 30
0.0
 11
-23.7828968168
 21
-7.0520073716
 31
0.0
 11
-23.7669879418
 21
-7.0536010341
 31
0.0
 11
-23.7236726522
 21
-7.0550410332
 31
0.0
 11
-23.6575898564
 21
-7.0561739633
 31
0.0
 11
-23.5745623382
 21
-7.0569026847
 31
0.0
 11
-23.4829382706
 21
-7.0571529018
 31
0.0
  0
SPLINE
  5
6E2
100
AcDbEntity
  8
ASSI
100
AcDbSpline
 62
7
  6
CONTINUOUS
 70
0
 71
3
 72
12
 73
8
 74
6
 42
0.0000001
 43
0.0000001
 44
0.0000000001
 12
-0.3000816659
 22
0.0
 32
0.0
 13
-0.2121905985
 23
-0.2121889631
 33
0.0
 40
0.0
 40
0.0
 40
0.0
 40
0.0
 40
0.305206335
 40
0.5818776397
 40
0.8021687507
 40
0.9466692379
 40
1.0
 40
1.0
 40
1.0
 40
1.0
 10
-23.4824583326
 20
-6.3221265273
 30
0.0
 10
-23.5129872744
 20
-6.3221265273
 30
0.0
 10
-23.5713458114
 20
-6.3219954172
 30
0.0
 10
-23.6509819812
 20
-6.3237581537
 30
0.0
 10
-23.7166895905
 20
-6.321936342
 30
0.0
 10
-23.7554588954
 20
-6.3286666511
 30
0.0
 10
-23.7786508356
 20
-6.3235063836
 30
0.0
 10
-23.7824229311
 20
-6.32727845
 30
0.0
 11
-23.4824583326
 21
-6.3221265273
 31
0.0
 11
-23.574044816
 21
-6.3223768436
 31
0.0
 11
-23.657065599
 21
-6.323106114
 31
0.0
 11
-23.7231611935
 21
-6.3242402224
 31
0.0
 11
-23.7664991596
 21
-6.3256821416
 31
0.0
 11
-23.7824229311
 21
-6.32727845
 31
0.0
  0
SPLINE
  5
6E3
100
AcDbEntity
  8
ASSI
100
AcDbSpline
 62
7
  6
CONTINUOUS
 70
0
 71
3
 72
12
 73
8
 74
6
 42
0.0000001
 43
0.0000001
 44
0.0000000001
 12
0.2121821519
 22
-0.2121827803
 32
0.0
 13
0.3000713213
 23
-0.0
 33
0.0
 40
0.0
 40
0.0
 40
0.0
 40
0.0
 40
0.0532731
 40
0.1976880308
 40
0.4179339921
 40
0.6946382695
 40
1.0
 40
1.0
 40
1.0
 40
1.0
 10
-23.7789027455
 20
0.8439985571
 30
0.0
 10
-23.7751348785
 20
0.8402306789
 30
0.0
 10
-23.7519604383
 20
0.8453895283
 30
0.0
 10
-23.7132103299
 20
0.8386616697
 30
0.0
 10
-23.6475145213
 20
0.8404856544
 30
0.0
 10
-23.5678671362
 20
0.8387226217
 30
0.0
 10
-23.5094916133
 20
0.8388541811
 30
0.0
 10
-23.4789481807
 20
0.8388541811
 30
0.0
 11
-23.7789027455
 21
0.8439985571
 31
0.0
 11
-23.7629966059
 21
0.8424053618
 31
0.0
 11
-23.7196857473
 21
0.840965709
 31
0.0
 11
-23.6536059582
 21
0.839832996
 31
0.0
 11
-23.570578137
 21
0.8391043781
 31
0.0
 11
-23.4789481807
 21
0.8388541811
 31
0.0
  0
SPLINE
  5
6E4
100
AcDbEntity
  8
ASSI
100
AcDbSpline
 62
7
  6
CONTINUOUS
 70
0
 71
3
 72
12
 73
8
 74
6
 42
0.0000001
 43
0.0000001
 44
0.0000000001
 12
-0.3000744827
 22
-0.0
 32
0.0
 13
-0.2121844225
 23
-0.2121849807
 33
0.0
 40
0.0
 40
0.0
 40
0.0
 40
0.0
 40
0.3052957572
 40
0.5819859076
 40
0.8022509535
 40
0.9467022877
 40
1.0
 40
1.0
 40
1.0
 40
1.0
 10
-23.4787050443
 20
1.5816294202
 30
0.0
 10
-23.5092421998
 20
1.5816294202
 30
0.0
 10
-23.5676102599
 20
1.581760789
 30
0.0
 10
-23.6472525336
 20
1.579997888
 30
0.0
 10
-23.7129530756
 20
1.5818209414
 30
0.0
 10
-23.7517111726
 20
1.5750920584
 30
0.0
 10
-23.77489299
 20
1.5802515011
 30
0.0
 10
-23.7786626381
 20
1.576481843
 30
0.0
 11
-23.4787050443
 21
1.5816294202
 31
0.0
 11
-23.5703161689
 21
1.5813791737
 31
0.0
 11
-23.6533406232
 21
1.5806502807
 31
0.0
 11
-23.7194268262
 21
1.5795169775
 31
0.0
 11
-23.7627490395
 21
1.5780763632
 31
0.0
 11
-23.7786626381
 21
1.576481843
 31
0.0
  0
SPLINE
  5
6E5
100
AcDbEntity
  8
ASSI
100
AcDbSpline
 62
7
  6
CONTINUOUS
 70
0
 71
3
 72
12
 73
8
 74
6
 42
0.0000001
 43
0.0000001
 44
0.0000000001
 12
-0.2121905985
 22
0.2121889632
 32
0.0
 13
-0.3000816659
 23
-0.0
 33
0.0
 40
0.0
 40
0.0
 40
0.0
 40
0.0
 40
0.0533307621
 40
0.1978312493
 40
0.4181223603
 40
0.694793665
 40
1.0
 40
1.0
 40
1.0
 40
1.0
 10
23.47367982
 20
-6.32727845
 30
0.0
 10
23.4699077245
 20
-6.3235063836
 30
0.0
 10
23.4467157843
 20
-6.3286666511
 30
0.0
 10
23.4079464794
 20
-6.321936342
 30
0.0
 10
23.3422388701
 20
-6.3237581537
 30
0.0
 10
23.2626027003
 20
-6.3219954172
 30
0.0
 10
23.2042441633
 20
-6.3221265273
 30
0.0
 10
23.1737152215
 20
-6.3221265273
 30
0.0
 11
23.47367982
 21
-6.32727845
 31
0.0
 11
23.4577560485
 21
-6.3256821416
 31
0.0
 11
23.4144180823
 21
-6.3242402224
 31
0.0
 11
23.3483224879
 21
-6.323106114
 31
0.0
 11
23.2653017049
 21
-6.3223768436
 31
0.0
 11
23.1737152215
 21
-6.3221265273
 31
0.0
  0
SPLINE
  5
6E6
100
AcDbEntity
  8
ASSI
100
AcDbSpline
 62
7
  6
CONTINUOUS
 70
0
 71
3
 72
12
 73
8
 74
6
 42
0.0000001
 43
0.0000001
 44
0.0000000001
 12
0.300075349
 22
-0.0
 32
0.0
 13
0.2121856603
 23
0.2121849679
 33
0.0
 40
0.0
 40
0.0
 40
0.0
 40
0.0
 40
0.305338008
 40
0.582037565
 40
0.8022906007
 40
0.9467183894
 40
1.0
 40
1.0
 40
1.0
 40
1.0
 10
23.1741951595
 20
-7.0571529018
 30
0.0
 10
23.2047366292
 20
-7.0571529018
 30
0.0
 10
23.2631100662
 20
-7.0572843935
 30
0.0
 10
23.3427564402
 20
-7.0555213911
 30
0.0
 10
23.4084546111
 20
-7.0573450695
 30
0.0
 10
23.4472079509
 20
-7.0506167922
 30
0.0
 10
23.4703851745
 20
-7.0557758906
 30
0.0
 10
23.4741537057
 20
-7.0520073716
 30
0.0
 11
23.1741951595
 21
-7.0571529018
 31
0.0
 11
23.2658192271
 21
-7.0569026847
 31
0.0
 11
23.3488467453
 21
-7.0561739633
 31
0.0
 11
23.4149295411
 21
-7.0550410332
 31
0.0
 11
23.4582448307
 21
-7.0536010341
 31
0.0
 11
23.4741537057
 21
-7.0520073716
 31
0.0
  0
SPLINE
  5
6E7
100
AcDbEntity
  8
ASSI
100
AcDbSpline
 62
7
  6
CONTINUOUS
 70
0
 71
3
 72
12
 73
8
 74
6
 42
0.0000001
 43
0.0000001
 44
0.0000000001
 12
-0.2121844225
 22
0.2121849807
 32
0.0
 13
-0.3000744827
 23
0.0
 33
0.0
 40
0.0
 40
0.0
 40
0.0
 40
0.0
 40
0.0532977123
 40
0.1977490465
 40
0.4180140924
 40
0.6947042428
 40
1.0
 40
1.0
 40
1.0
 40
1.0
 10
23.469919527
 20
1.576481843
 30
0.0
 10
23.4661498789
 20
1.5802515011
 30
0.0
 10
23.4429680615
 20
1.5750920584
 30
0.0
 10
23.4042099645
 20
1.5818209414
 30
0.0
 10
23.3385094225
 20
1.579997888
 30
0.0
 10
23.2588671488
 20
1.581760789
 30
0.0
 10
23.2004990887
 20
1.5816294202
 30
0.0
 10
23.1699619332
 20
1.5816294202
 30
0.0
 11
23.469919527
 21
1.576481843
 31
0.0
 11
23.4540059283
 21
1.5780763632
 31
0.0
 11
23.4106837151
 21
1.5795169775
 31
0.0
 11
23.3445975121
 21
1.5806502807
 31
0.0
 11
23.2615730578
 21
1.5813791737
 31
0.0
 11
23.1699619332
 21
1.5816294202
 31
0.0
  0
SPLINE
  5
6E8
100
AcDbEntity
  8
ASSI
100
AcDbSpline
 62
7
  6
CONTINUOUS
 70
0
 71
3
 72
12
 73
8
 74
6
 42
0.0000001
 43
0.0000001
 44
0.0000000001
 12
0.3000713213
 22
0.0
 32
0.0
 13
0.2121821519
 23
0.2121827803
 33
0.0
 40
0.0
 40
0.0
 40
0.0
 40
0.0
 40
0.3053617305
 40
0.5820660079
 40
0.8023119692
 40
0.9467269
 40
1.0
 40
1.0
 40
1.0
 40
1.0
 10
23.1702050696
 20
0.8388541811
 30
0.0
 10
23.2007485022
 20
0.8388541811
 30
0.0
 10
23.2591240251
 20
0.8387226217
 30
0.0
 10
23.3387714102
 20
0.8404856544
 30
0.0
 10
23.4044672188
 20
0.8386616697
 30
0.0
 10
23.4432173272
 20
0.8453895283
 30
0.0
 10
23.4663917674
 20
0.8402306789
 30
0.0
 10
23.4701596344
 20
0.8439985571
 30
0.0
 11
23.1702050696
 21
0.8388541811
 31
0.0
 11
23.2618350259
 21
0.8391043781
 31
0.0
 11
23.3448628471
 21
0.839832996
 31
0.0
 11
23.4109426361
 21
0.840965709
 31
0.0
 11
23.4542534948
 21
0.8424053618
 31
0.0
 11
23.4701596344
 21
0.8439985571
 31
0.0
  0
SPLINE
  5
6E9
100
AcDbEntity
  8
ASSI
100
AcDbSpline
 62
253
  6
CONTINUOUS
 70
0
 71
3
 72
11
 73
7
 74
5
 42
0.0000001
 43
0.0000001
 44
0.0000000001
 12
0.0069988223
 22
0.4010844284
 32
0.0
 13
0.4011302109
 23
0.003500877
 33
0.0
 40
0.0
 40
0.0
 40
0.0
 40
0.0
 40
0.209515632
 40
0.4453798145
 40
0.7128573246
 40
1.0
 40
1.0
 40
1.0
 40
1.0
 10
19.094573291
 20
5.6015415026
 30
0.0
 10
19.0950620785
 20
5.6295526551
 30
0.0
 10
19.114157609
 20
5.689419933
 30
0.0
 10
19.1840045595
 20
5.7580743378
 30
0.0
 10
19.2816099279
 20
5.8026986642
 30
0.0
 10
19.3561337322
 20
5.8133384532
 30
0.0
 10
19.3945275995
 20
5.8136735369
 30
0.0
 11
19.094573291
 21
5.6015415026
 31
0.0
 11
19.1184592849
 21
5.6821220926
 31
0.0
 11
19.1837247305
 21
5.7506245098
 31
0.0
 11
19.2805870144
 21
5.7967810822
 31
0.0
 11
19.3945275995
 21
5.8136735369
 31
0.0
  0
SPLINE
  5
6EA
100
AcDbEntity
  8
ASSI
100
AcDbSpline
 62
253
  6
CONTINUOUS
 70
0
 71
3
 72
11
 73
7
 74
5
 42
0.0000001
 43
0.0000001
 44
0.0000000001
 12
-0.0069988224
 22
0.4010844298
 32
0.0
 13
-0.4011302123
 23
0.0035008769
 33
0.0
 40
0.0
 40
0.0
 40
0.0
 40
0.0
 40
0.2095153874
 40
0.4453794694
 40
0.7128570698
 40
1.0
 40
1.0
 40
1.0
 40
1.0
 10
19.8966835979
 20
5.6015415026
 30
0.0
 10
19.8961948109
 20
5.6295526225
 30
0.0
 10
19.8770993187
 20
5.6894198545
 30
0.0
 10
19.807252429
 20
5.7580742741
 30
0.0
 10
19.7096470426
 20
5.8026986484
 30
0.0
 10
19.6351231909
 20
5.8133384529
 30
0.0
 10
19.5967292894
 20
5.8136735369
 30
0.0
 11
19.8966835979
 21
5.6015415026
 31
0.0
 11
19.8727976558
 21
5.682122006
 31
0.0
 11
19.8075322737
 21
5.7506244283
 31
0.0
 11
19.7106699738
 21
5.7967810525
 31
0.0
 11
19.5967292894
 21
5.8136735369
 31
0.0
  0
SPLINE
  5
6EB
100
AcDbEntity
  8
ASSI
100
AcDbSpline
 62
253
  6
CONTINUOUS
 70
0
 71
3
 72
11
 73
7
 74
5
 42
0.0000001
 43
0.0000001
 44
0.0000000001
 12
-0.0069988137
 22
0.401084489
 32
0.0
 13
-0.401130273
 23
0.0035006841
 33
0.0
 40
0.0
 40
0.0
 40
0.0
 40
0.0
 40
0.2095120489
 40
0.4453745127
 40
0.7128531963
 40
1.0
 40
1.0
 40
1.0
 40
1.0
 10
19.8843410032
 20
4.8944347214
 30
0.0
 10
19.8838522246
 20
4.9224453991
 30
0.0
 10
19.8647572865
 20
4.9823119823
 30
0.0
 10
19.7949112982
 20
5.0509666101
 30
0.0
 10
19.6973056672
 20
5.095591673
 30
0.0
 10
19.6227811198
 20
5.1062316828
 30
0.0
 10
19.5843866946
 20
5.1065667529
 30
0.0
 11
19.8843410032
 21
4.8944347214
 31
0.0
 11
19.8604557864
 21
4.9750140558
 31
0.0
 11
19.7951913626
 21
5.0435165139
 31
0.0
 11
19.6983289057
 21
5.0896738552
 31
0.0
 11
19.5843866946
 21
5.1065667529
 31
0.0
  0
SPLINE
  5
6EC
100
AcDbEntity
  8
ASSI
100
AcDbSpline
 62
253
  6
CONTINUOUS
 70
0
 71
3
 72
12
 73
8
 74
6
 42
0.0000001
 43
0.0000001
 44
0.0000000001
 12
0.188162755
 22
0.4631952088
 32
0.0
 13
0.000001281
 23
0.4999550218
 33
0.0
 40
0.0
 40
0.0
 40
0.0
 40
0.0
 40
0.0533471248
 40
0.1972618061
 40
0.417998053
 40
0.6944311848
 40
1.0
 40
1.0
 40
1.0
 40
1.0
 10
19.4044626019
 20
2.8689999952
 30
0.0
 10
19.4078085826
 20
2.8772367061
 30
0.0
 10
19.4024782672
 20
2.911558145
 30
0.0
 10
19.4086371037
 20
2.9799251909
 30
0.0
 10
19.4065577547
 20
3.0874209758
 30
0.0
 10
19.4080664688
 20
3.220942774
 30
0.0
 10
19.4078925578
 20
3.3180002882
 30
0.0
 10
19.4078926883
 20
3.3689238428
 30
0.0
 11
19.4044626019
 21
2.8689999952
 31
0.0
 11
19.4055279539
 21
2.8956498725
 31
0.0
 11
19.4064841127
 21
2.9675943866
 31
0.0
 11
19.4072404754
 21
3.0779499898
 31
0.0
 11
19.4077257079
 21
3.2161532704
 31
0.0
 11
19.4078926883
 21
3.3689238428
 31
0.0
  0
SPLINE
  5
6ED
100
AcDbEntity
  8
ASSI
100
AcDbSpline
 62
253
  6
CONTINUOUS
 70
0
 71
3
 72
12
 73
8
 74
6
 42
0.0000001
 43
0.0000001
 44
0.0000000001
 12
0.000001281
 22
-0.4999550218
 32
0.0
 13
0.1881627568
 23
-0.4631952081
 33
0.0
 40
0.0
 40
0.0
 40
0.0
 40
0.0
 40
0.305568815
 40
0.5820019468
 40
0.8027381938
 40
0.9466528751
 40
1.0
 40
1.0
 40
1.0
 40
1.0
 10
19.5833642006
 20
3.3689238428
 30
0.0
 10
19.5833643311
 20
3.3180002883
 30
0.0
 10
19.5831904201
 20
3.220942774
 30
0.0
 10
19.5846991342
 20
3.0874209758
 30
0.0
 10
19.5826197852
 20
2.979925191
 30
0.0
 10
19.5887786217
 20
2.9115581451
 30
0.0
 10
19.5834483063
 20
2.8772367061
 30
0.0
 10
19.586794287
 20
2.8689999952
 30
0.0
 11
19.5833642006
 21
3.3689238428
 31
0.0
 11
19.583531181
 21
3.2161532705
 31
0.0
 11
19.5840164135
 21
3.0779499899
 31
0.0
 11
19.5847727762
 21
2.9675943867
 31
0.0
 11
19.585728935
 21
2.8956498725
 31
0.0
 11
19.586794287
 21
2.8689999952
 31
0.0
  0
SPLINE
  5
6EE
100
AcDbEntity
  8
ASSI
100
AcDbSpline
 62
253
  6
CONTINUOUS
 70
0
 71
3
 72
12
 73
8
 74
6
 42
0.0000001
 43
0.0000001
 44
0.0000000001
 12
0.000001281
 22
-0.4999550218
 32
0.0
 13
0.1881627568
 23
-0.4631952081
 33
0.0
 40
0.0
 40
0.0
 40
0.0
 40
0.0
 40
0.305568815
 40
0.5820019468
 40
0.8027381938
 40
0.9466528751
 40
1.0
 40
1.0
 40
1.0
 40
1.0
 10
-19.7166357994
 20
3.3689238428
 30
0.0
 10
-19.7166356689
 20
3.3180002883
 30
0.0
 10
-19.7168095799
 20
3.220942774
 30
0.0
 10
-19.7153008658
 20
3.0874209758
 30
0.0
 10
-19.7173802148
 20
2.979925191
 30
0.0
 10
-19.7112213783
 20
2.9115581451
 30
0.0
 10
-19.7165516937
 20
2.8772367061
 30
0.0
 10
-19.713205713
 20
2.8689999952
 30
0.0
 11
-19.7166357994
 21
3.3689238428
 31
0.0
 11
-19.716468819
 21
3.2161532705
 31
0.0
 11
-19.7159835865
 21
3.0779499899
 31
0.0
 11
-19.7152272238
 21
2.9675943867
 31
0.0
 11
-19.714271065
 21
2.8956498725
 31
0.0
 11
-19.713205713
 21
2.8689999952
 31
0.0
  0
SPLINE
  5
6EF
100
AcDbEntity
  8
ASSI
100
AcDbSpline
 62
253
  6
CONTINUOUS
 70
0
 71
3
 72
12
 73
8
 74
6
 42
0.0000001
 43
0.0000001
 44
0.0000000001
 12
0.188162755
 22
0.4631952088
 32
0.0
 13
0.000001281
 23
0.4999550218
 33
0.0
 40
0.0
 40
0.0
 40
0.0
 40
0.0
 40
0.0533471248
 40
0.1972618061
 40
0.417998053
 40
0.6944311848
 40
1.0
 40
1.0
 40
1.0
 40
1.0
 10
-19.8955373981
 20
2.8689999952
 30
0.0
 10
-19.8921914174
 20
2.8772367061
 30
0.0
 10
-19.8975217328
 20
2.911558145
 30
0.0
 10
-19.8913628963
 20
2.9799251909
 30
0.0
 10
-19.8934422453
 20
3.0874209758
 30
0.0
 10
-19.8919335312
 20
3.220942774
 30
0.0
 10
-19.8921074422
 20
3.3180002882
 30
0.0
 10
-19.8921073117
 20
3.3689238428
 30
0.0
 11
-19.8955373981
 21
2.8689999952
 31
0.0
 11
-19.8944720461
 21
2.8956498725
 31
0.0
 11
-19.8935158873
 21
2.9675943866
 31
0.0
 11
-19.8927595246
 21
3.0779499898
 31
0.0
 11
-19.8922742921
 21
3.2161532704
 31
0.0
 11
-19.8921073117
 21
3.3689238428
 31
0.0
  0
SPLINE
  5
6F0
100
AcDbEntity
  8
ASSI
100
AcDbSpline
 62
253
  6
CONTINUOUS
 70
0
 71
3
 72
9
 73
5
 74
3
 42
0.0000001
 43
0.0000001
 44
0.0000000001
 12
0.0053452793
 22
-1.6468770511
 32
0.0
 13
0.0076765735
 23
-1.6468678343
 33
0.0
 40
0.0
 40
0.0
 40
0.0
 40
0.0
 40
0.5000137269
 40
1.0
 40
1.0
 40
1.0
 40
1.0
 10
-4.3963185946
 20
5.3837126457
 30
0.0
 10
-4.3954276903
 20
5.1092256016
 30
0.0
 10
-4.3934516094
 20
4.5602671982
 30
0.0
 10
-4.3910870733
 20
4.0113103305
 30
0.0
 10
-4.3898076795
 20
3.7368398935
 30
0.0
 11
-4.3963185946
 21
5.3837126457
 31
0.0
 11
-4.393354436
 21
4.5602525111
 31
0.0
 11
-4.3898076795
 21
3.7368398935
 31
0.0
  0
SPLINE
  5
6F1
100
AcDbEntity
  8
ASSI
100
AcDbSpline
 62
253
  6
CONTINUOUS
 70
0
 71
3
 72
9
 73
5
 74
3
 42
0.0000001
 43
0.0000001
 44
0.0000000001
 12
0.0076765735
 22
1.6468678343
 32
0.0
 13
0.0053452793
 23
1.6468770511
 33
0.0
 40
0.0
 40
0.0
 40
0.0
 40
0.0
 40
0.499986712
 40
1.0
 40
1.0
 40
1.0
 40
1.0
 10
4.0810645684
 20
3.7368398935
 30
0.0
 10
4.0823439633
 20
4.0113105714
 30
0.0
 10
4.0847084993
 20
4.5602674391
 30
0.0
 10
4.0866845799
 20
5.1092258426
 30
0.0
 10
4.0875754835
 20
5.3837126457
 30
0.0
 11
4.0810645684
 21
3.7368398935
 31
0.0
 11
4.0846113278
 21
4.560253234
 31
0.0
 11
4.0875754835
 21
5.3837126457
 31
0.0
  0
SPLINE
  5
6F2
100
AcDbEntity
  8
ASSI
100
AcDbSpline
 62
253
  6
CONTINUOUS
 70
0
 71
3
 72
11
 73
7
 74
5
 42
0.0000001
 43
0.0000001
 44
0.0000000001
 12
-0.0098689072
 22
0.3534493123
 32
0.0
 13
-0.0000004971
 23
0.3535870638
 33
0.0
 40
0.0
 40
0.0
 40
0.0
 40
0.0
 40
0.2035823994
 40
0.4531925193
 40
0.7278954329
 40
1.0
 40
1.0
 40
1.0
 40
1.0
 10
19.3945273202
 20
5.8136846395
 30
0.0
 10
19.3938576082
 20
5.8376699926
 30
0.0
 10
19.3926578457
 20
5.8910716853
 30
0.0
 10
19.3913891336
 20
5.9768544019
 30
0.0
 10
19.3906092127
 20
6.0707194015
 30
0.0
 10
19.3904376375
 20
6.135167549
 30
0.0
 10
19.3904375924
 20
6.167238434
 30
0.0
 11
19.3945273202
 21
5.8136846395
 31
0.0
 11
19.3928624049
 21
5.885649486
 31
0.0
 11
19.3915236221
 21
5.9738982409
 31
0.0
 11
19.3906985113
 21
6.0710261329
 31
0.0
 11
19.3904375924
 21
6.167238434
 31
0.0
  0
SPLINE
  5
6F3
100
AcDbEntity
  8
ASSI
100
AcDbSpline
 62
253
  6
CONTINUOUS
 70
0
 71
3
 72
11
 73
7
 74
5
 42
0.0000001
 43
0.0000001
 44
0.0000000001
 12
-0.0098905691
 22
0.5656197527
 32
0.0
 13
-0.0000105791
 23
0.5657062205
 33
0.0
 40
0.0
 40
0.0
 40
0.0
 40
0.0
 40
0.203753628
 40
0.4534050995
 40
0.7280845227
 40
1.0
 40
1.0
 40
1.0
 40
1.0
 10
19.094573291
 20
5.6015415026
 30
0.0
 10
19.0939015445
 20
5.6399571948
 30
0.0
 10
19.0927034969
 20
5.7254473574
 30
0.0
 10
19.0914340698
 20
5.8627358527
 30
0.0
 10
19.0906544599
 20
6.0128813768
 30
0.0
 10
19.0904842737
 20
6.1159521685
 30
0.0
 10
19.0904833148
 20
6.1672269275
 30
0.0
 11
19.094573291
 21
5.6015415026
 31
0.0
 11
19.0929070736
 21
5.7167941537
 31
0.0
 11
19.0915685699
 21
5.8580172011
 31
0.0
 11
19.0907439259
 21
6.0134028713
 31
0.0
 11
19.0904833148
 21
6.1672269275
 31
0.0
  0
SPLINE
  5
6F4
100
AcDbEntity
  8
ASSI
100
AcDbSpline
 62
253
  6
CONTINUOUS
 70
0
 71
3
 72
10
 73
6
 74
4
 42
0.0000001
 43
0.0000001
 44
0.0000000001
 12
0.000000142
 22
0.1414264683
 32
0.0
 13
-0.0024701873
 23
0.1414048942
 33
0.0
 40
0.0
 40
0.0
 40
0.0
 40
0.0
 40
0.3658056966
 40
0.7062804612
 40
1.0
 40
1.0
 40
1.0
 40
1.0
 10
19.1079383798
 20
4.7530133651
 30
0.0
 10
19.1079383971
 20
4.7702582344
 30
0.0
 10
19.1078646133
 20
4.8035538877
 30
0.0
 10
19.1075361951
 20
4.8506950414
 30
0.0
 10
19.1071577332
 20
4.8805902613
 30
0.0
 10
19.1069158857
 20
4.8944347214
 30
0.0
 11
19.1079383798
 21
4.7530133651
 31
0.0
 11
19.1078195368
 21
4.8047478364
 31
0.0
 11
19.1074717901
 21
4.8528987242
 31
0.0
 11
19.1069158857
 21
4.8944347214
 31
0.0
  0
SPLINE
  5
6F5
100
AcDbEntity
  8
ASSI
100
AcDbSpline
 62
253
  6
CONTINUOUS
 70
0
 71
3
 72
12
 73
8
 74
6
 42
0.0000001
 43
0.0000001
 44
0.0000000001
 12
0.1431629629
 22
0.1397257719
 32
0.0
 13
0.0000002731
 23
0.2000473076
 33
0.0
 40
0.0
 40
0.0
 40
0.0
 40
0.0
 40
0.053680495
 40
0.1976944885
 40
0.4183849018
 40
0.6946711573
 40
1.0
 40
1.0
 40
1.0
 40
1.0
 10
19.1045082934
 20
3.1689543038
 30
0.0
 10
19.1070699796
 20
3.1714544866
 30
0.0
 10
19.1035465729
 20
3.1869793721
 30
0.0
 10
19.1080921343
 20
3.2127839951
 30
0.0
 10
19.106842224
 20
3.2565876236
 30
0.0
 10
19.1080292204
 20
3.3096738909
 30
0.0
 10
19.107938352
 20
3.3485637718
 30
0.0
 10
19.1079383798
 20
3.3689238428
 30
0.0
 11
19.1045082934
 21
3.1689543038
 31
0.0
 11
19.1055746824
 21
3.1796398628
 31
0.0
 11
19.1065303436
 21
3.2084336197
 31
0.0
 11
19.1072867237
 21
3.2525756628
 31
0.0
 11
19.1077715728
 21
3.3078438577
 31
0.0
 11
19.1079383798
 21
3.3689238428
 31
0.0
  0
SPLINE
  5
6F6
100
AcDbEntity
  8
ASSI
100
AcDbSpline
 62
253
  6
CONTINUOUS
 70
0
 71
3
 72
12
 73
8
 74
6
 42
0.0000001
 43
0.0000001
 44
0.0000000001
 12
0.0000002731
 22
-0.2000473076
 32
0.0
 13
0.1431629629
 23
-0.1397257719
 33
0.0
 40
0.0
 40
0.0
 40
0.0
 40
0.0
 40
0.3053288425
 40
0.581615098
 40
0.8023055113
 40
0.9463195049
 40
1.0
 40
1.0
 40
1.0
 40
1.0
 10
19.8833185091
 20
3.3689238428
 30
0.0
 10
19.8833185369
 20
3.3485637719
 30
0.0
 10
19.8832276685
 20
3.3096738909
 30
0.0
 10
19.8844146649
 20
3.2565876236
 30
0.0
 10
19.8831647546
 20
3.2127839951
 30
0.0
 10
19.887710316
 20
3.1869793721
 30
0.0
 10
19.8841869093
 20
3.1714544866
 30
0.0
 10
19.8867485955
 20
3.1689543038
 30
0.0
 11
19.8833185091
 21
3.3689238428
 31
0.0
 11
19.8834853161
 21
3.3078438577
 31
0.0
 11
19.8839701651
 21
3.2525756628
 31
0.0
 11
19.8847265453
 21
3.2084336197
 31
0.0
 11
19.8856822065
 21
3.1796398628
 31
0.0
 11
19.8867485955
 21
3.1689543038
 31
0.0
  0
SPLINE
  5
6F7
100
AcDbEntity
  8
ASSI
100
AcDbSpline
 62
253
  6
CONTINUOUS
 70
0
 71
3
 72
10
 73
6
 74
4
 42
0.0000001
 43
0.0000001
 44
0.0000000001
 12
-0.0024701868
 22
-0.1414048942
 32
0.0
 13
0.0000001414
 23
-0.1414264683
 33
0.0
 40
0.0
 40
0.0
 40
0.0
 40
0.0
 40
0.2937195618
 40
0.6341943926
 40
1.0
 40
1.0
 40
1.0
 40
1.0
 10
19.8843410032
 20
4.8944347214
 30
0.0
 10
19.8840991558
 20
4.8805902602
 30
0.0
 10
19.8837206938
 20
4.8506950361
 30
0.0
 10
19.8833922755
 20
4.8035538824
 30
0.0
 10
19.8833184919
 20
4.7702582302
 30
0.0
 10
19.8833185091
 20
4.7530133651
 30
0.0
 11
19.8843410032
 21
4.8944347214
 31
0.0
 11
19.8837850987
 21
4.8528987209
 31
0.0
 11
19.883437352
 21
4.8047478238
 31
0.0
 11
19.8833185091
 21
4.7530133651
 31
0.0
  0
SPLINE
  5
6F8
100
AcDbEntity
  8
ASSI
100
AcDbSpline
 62
253
  6
CONTINUOUS
 70
0
 71
3
 72
11
 73
7
 74
5
 42
0.0000001
 43
0.0000001
 44
0.0000000001
 12
-0.0000102035
 22
-0.56570622
 32
0.0
 13
-0.0098911393
 23
-0.5656197423
 33
0.0
 40
0.0
 40
0.0
 40
0.0
 40
0.0
 40
0.27116473
 40
0.5456360084
 40
0.7955929365
 40
1.0
 40
1.0
 40
1.0
 40
1.0
 10
19.9007735741
 20
6.1672269275
 30
0.0
 10
19.9007726518
 20
6.116093736
 30
0.0
 10
19.9006031704
 20
6.0132037623
 30
0.0
 10
19.8998259749
 20
5.863181446
 30
0.0
 10
19.8985571779
 20
5.7257513719
 30
0.0
 10
19.8973575375
 20
5.6400803928
 30
0.0
 10
19.8966835979
 20
5.6015415026
 30
0.0
 11
19.9007735741
 21
6.1672269275
 31
0.0
 11
19.9005144113
 21
6.013827572
 31
0.0
 11
19.8996922812
 21
5.8585596391
 31
0.0
 11
19.8983542069
 21
5.7171637813
 31
0.0
 11
19.8966835979
 21
5.6015415026
 31
0.0
  0
SPLINE
  5
6F9
100
AcDbEntity
  8
ASSI
100
AcDbSpline
 62
253
  6
CONTINUOUS
 70
0
 71
3
 72
12
 73
8
 74
6
 42
0.0000001
 43
0.0000001
 44
0.0000000001
 12
0.0000002731
 22
-0.2000473076
 32
0.0
 13
0.1431629629
 23
-0.1397257719
 33
0.0
 40
0.0
 40
0.0
 40
0.0
 40
0.0
 40
0.3053288425
 40
0.581615098
 40
0.8023055113
 40
0.9463195049
 40
1.0
 40
1.0
 40
1.0
 40
1.0
 10
-19.4166814909
 20
3.3689238428
 30
0.0
 10
-19.4166814631
 20
3.3485637719
 30
0.0
 10
-19.4167723315
 20
3.3096738909
 30
0.0
 10
-19.4155853351
 20
3.2565876236
 30
0.0
 10
-19.4168352454
 20
3.2127839951
 30
0.0
 10
-19.412289684
 20
3.1869793721
 30
0.0
 10
-19.4158130907
 20
3.1714544866
 30
0.0
 10
-19.4132514045
 20
3.1689543038
 30
0.0
 11
-19.4166814909
 21
3.3689238428
 31
0.0
 11
-19.4165146839
 21
3.3078438577
 31
0.0
 11
-19.4160298349
 21
3.2525756628
 31
0.0
 11
-19.4152734547
 21
3.2084336197
 31
0.0
 11
-19.4143177935
 21
3.1796398628
 31
0.0
 11
-19.4132514045
 21
3.1689543038
 31
0.0
  0
SPLINE
  5
6FA
100
AcDbEntity
  8
ASSI
100
AcDbSpline
 62
253
  6
CONTINUOUS
 70
0
 71
3
 72
10
 73
6
 74
4
 42
0.0000001
 43
0.0000001
 44
0.0000000001
 12
-0.0024701868
 22
-0.1414048942
 32
0.0
 13
0.0000001414
 23
-0.1414264683
 33
0.0
 40
0.0
 40
0.0
 40
0.0
 40
0.0
 40
0.2937195618
 40
0.6341943926
 40
1.0
 40
1.0
 40
1.0
 40
1.0
 10
-19.4156589968
 20
4.8944347214
 30
0.0
 10
-19.4159008442
 20
4.8805902602
 30
0.0
 10
-19.4162793062
 20
4.8506950361
 30
0.0
 10
-19.4166077245
 20
4.8035538824
 30
0.0
 10
-19.4166815081
 20
4.7702582302
 30
0.0
 10
-19.4166814909
 20
4.7530133651
 30
0.0
 11
-19.4156589968
 21
4.8944347214
 31
0.0
 11
-19.4162149013
 21
4.8528987209
 31
0.0
 11
-19.416562648
 21
4.8047478238
 31
0.0
 11
-19.4166814909
 21
4.7530133651
 31
0.0
  0
SPLINE
  5
6FB
100
AcDbEntity
  8
ASSI
100
AcDbSpline
 62
253
  6
CONTINUOUS
 70
0
 71
3
 72
11
 73
7
 74
5
 42
0.0000001
 43
0.0000001
 44
0.0000000001
 12
-0.0000102035
 22
-0.56570622
 32
0.0
 13
-0.0098911393
 23
-0.5656197423
 33
0.0
 40
0.0
 40
0.0
 40
0.0
 40
0.0
 40
0.27116473
 40
0.5456360084
 40
0.7955929365
 40
1.0
 40
1.0
 40
1.0
 40
1.0
 10
-19.3992264259
 20
6.1672269275
 30
0.0
 10
-19.3992273482
 20
6.116093736
 30
0.0
 10
-19.3993968296
 20
6.0132037623
 30
0.0
 10
-19.4001740251
 20
5.863181446
 30
0.0
 10
-19.4014428221
 20
5.7257513719
 30
0.0
 10
-19.4026424625
 20
5.6400803928
 30
0.0
 10
-19.4033164021
 20
5.6015415026
 30
0.0
 11
-19.3992264259
 21
6.1672269275
 31
0.0
 11
-19.3994855887
 21
6.013827572
 31
0.0
 11
-19.4003077188
 21
5.8585596391
 31
0.0
 11
-19.4016457931
 21
5.7171637813
 31
0.0
 11
-19.4033164021
 21
5.6015415026
 31
0.0
  0
SPLINE
  5
6FC
100
AcDbEntity
  8
ASSI
100
AcDbSpline
 62
253
  6
CONTINUOUS
 70
0
 71
3
 72
11
 73
7
 74
5
 42
0.0000001
 43
0.0000001
 44
0.0000000001
 12
-0.0098905691
 22
0.5656197527
 32
0.0
 13
-0.0000105791
 23
0.5657062205
 33
0.0
 40
0.0
 40
0.0
 40
0.0
 40
0.0
 40
0.203753628
 40
0.4534050995
 40
0.7280845227
 40
1.0
 40
1.0
 40
1.0
 40
1.0
 10
-20.205426709
 20
5.6015415026
 30
0.0
 10
-20.2060984555
 20
5.6399571948
 30
0.0
 10
-20.2072965031
 20
5.7254473574
 30
0.0
 10
-20.2085659302
 20
5.8627358527
 30
0.0
 10
-20.2093455401
 20
6.0128813768
 30
0.0
 10
-20.2095157263
 20
6.1159521685
 30
0.0
 10
-20.2095166852
 20
6.1672269275
 30
0.0
 11
-20.205426709
 21
5.6015415026
 31
0.0
 11
-20.2070929264
 21
5.7167941537
 31
0.0
 11
-20.2084314301
 21
5.8580172011
 31
0.0
 11
-20.2092560741
 21
6.0134028713
 31
0.0
 11
-20.2095166852
 21
6.1672269275
 31
0.0
  0
SPLINE
  5
6FD
100
AcDbEntity
  8
ASSI
100
AcDbSpline
 62
253
  6
CONTINUOUS
 70
0
 71
3
 72
10
 73
6
 74
4
 42
0.0000001
 43
0.0000001
 44
0.0000000001
 12
0.000000142
 22
0.1414264683
 32
0.0
 13
-0.0024701873
 23
0.1414048942
 33
0.0
 40
0.0
 40
0.0
 40
0.0
 40
0.0
 40
0.3658056966
 40
0.7062804612
 40
1.0
 40
1.0
 40
1.0
 40
1.0
 10
-20.1920616202
 20
4.7530133651
 30
0.0
 10
-20.1920616029
 20
4.7702582344
 30
0.0
 10
-20.1921353867
 20
4.8035538877
 30
0.0
 10
-20.1924638049
 20
4.8506950414
 30
0.0
 10
-20.1928422668
 20
4.8805902613
 30
0.0
 10
-20.1930841143
 20
4.8944347214
 30
0.0
 11
-20.1920616202
 21
4.7530133651
 31
0.0
 11
-20.1921804632
 21
4.8047478364
 31
0.0
 11
-20.1925282099
 21
4.8528987242
 31
0.0
 11
-20.1930841143
 21
4.8944347214
 31
0.0
  0
SPLINE
  5
6FE
100
AcDbEntity
  8
ASSI
100
AcDbSpline
 62
253
  6
CONTINUOUS
 70
0
 71
3
 72
12
 73
8
 74
6
 42
0.0000001
 43
0.0000001
 44
0.0000000001
 12
0.1431629629
 22
0.1397257719
 32
0.0
 13
0.0000002731
 23
0.2000473076
 33
0.0
 40
0.0
 40
0.0
 40
0.0
 40
0.0
 40
0.053680495
 40
0.1976944885
 40
0.4183849018
 40
0.6946711573
 40
1.0
 40
1.0
 40
1.0
 40
1.0
 10
-20.1954917066
 20
3.1689543038
 30
0.0
 10
-20.1929300204
 20
3.1714544866
 30
0.0
 10
-20.1964534271
 20
3.1869793721
 30
0.0
 10
-20.1919078657
 20
3.2127839951
 30
0.0
 10
-20.193157776
 20
3.2565876236
 30
0.0
 10
-20.1919707796
 20
3.3096738909
 30
0.0
 10
-20.192061648
 20
3.3485637718
 30
0.0
 10
-20.1920616202
 20
3.3689238428
 30
0.0
 11
-20.1954917066
 21
3.1689543038
 31
0.0
 11
-20.1944253176
 21
3.1796398628
 31
0.0
 11
-20.1934696564
 21
3.2084336197
 31
0.0
 11
-20.1927132763
 21
3.2525756628
 31
0.0
 11
-20.1922284272
 21
3.3078438577
 31
0.0
 11
-20.1920616202
 21
3.3689238428
 31
0.0
  0
SPLINE
  5
6FF
100
AcDbEntity
  8
ASSI
100
AcDbSpline
 62
253
  6
CONTINUOUS
 70
0
 71
3
 72
9
 73
5
 74
3
 42
0.0000001
 43
0.0000001
 44
0.0000000001
 12
0.0003603394
 22
-6.1661325534
 32
0.0
 13
0.0019281047
 23
-6.1661322625
 33
0.0
 40
0.0
 40
0.0
 40
0.0
 40
0.0
 40
0.500035562
 40
1.0
 40
1.0
 40
1.0
 40
1.0
 10
23.4687753657
 20
7.7426142883
 30
0.0
 10
23.4688354265
 20
6.7148524362
 30
0.0
 10
23.4690861726
 20
4.659474924
 30
0.0
 10
23.469598199
 20
2.6040974602
 30
0.0
 10
23.469919527
 20
1.576481843
 30
0.0
 11
23.4687753657
 21
7.7426142883
 31
0.0
 11
23.4691515198
 21
4.6593287496
 31
0.0
 11
23.469919527
 21
1.576481843
 31
0.0
  0
LINE
  5
700
100
AcDbEntity
  8
ASSI
100
AcDbLine
 62
253
  6
CONTINUOUS
 10
23.4701596344
 20
0.8439985571
 11
23.4709572156
 21
-1.2245558456
  0
LINE
  5
701
100
AcDbEntity
  8
ASSI
100
AcDbLine
 62
253
  6
CONTINUOUS
 10
23.4728993586
 20
-5.0532617188
 11
23.47367982
 21
-6.32727845
  0
LINE
  5
702
100
AcDbEntity
  8
ASSI
100
AcDbLine
 62
253
  6
CONTINUOUS
 10
23.4741537057
 20
-7.0520073716
 11
23.4745041171
 21
-7.5676937599
  0
LINE
  5
703
100
AcDbEntity
  8
ASSI
100
AcDbLine
 62
253
  6
CONTINUOUS
 10
-23.7824229311
 20
-6.32727845
 11
-23.7816424697
 21
-5.0532617188
  0
LINE
  5
704
100
AcDbEntity
  8
ASSI
100
AcDbLine
 62
253
  6
CONTINUOUS
 10
-23.7832472282
 20
-7.5676937599
 11
-23.7828968168
 21
-7.0520073716
  0
LINE
  5
705
100
AcDbEntity
  8
ASSI
100
AcDbLine
 62
253
  6
CONTINUOUS
 10
-23.7797003268
 20
-1.2245558456
 11
-23.7789027455
 21
0.8439985571
  0
SPLINE
  5
706
100
AcDbEntity
  8
ASSI
100
AcDbSpline
 62
253
  6
CONTINUOUS
 70
0
 71
3
 72
9
 73
5
 74
3
 42
0.0000001
 43
0.0000001
 44
0.0000000001
 12
0.0019281047
 22
6.1661322625
 32
0.0
 13
0.0003603394
 23
6.1661325534
 33
0.0
 40
0.0
 40
0.0
 40
0.0
 40
0.0
 40
0.4999644739
 40
1.0
 40
1.0
 40
1.0
 40
1.0
 10
-23.7786626381
 20
1.576481843
 30
0.0
 10
-23.7783413101
 20
2.604097534
 30
0.0
 10
-23.7778292837
 20
4.6594749977
 30
0.0
 10
-23.7775785377
 20
6.71485251
 30
0.0
 10
-23.7775184768
 20
7.7426142883
 30
0.0
 11
-23.7786626381
 21
1.576481843
 31
0.0
 11
-23.7778946309
 21
4.6593289709
 31
0.0
 11
-23.7775184768
 21
7.7426142883
 31
0.0
  0
SPLINE
  5
707
100
AcDbEntity
  8
ASSI
100
AcDbSpline
 62
7
  6
CONTINUOUS
 70
0
 71
3
 72
12
 73
8
 74
6
 42
0.0000001
 43
0.0000001
 44
0.0000000001
 12
0.3000708432
 22
-0.0
 32
0.0
 13
0.2121821359
 23
0.2121821203
 33
0.0
 40
0.0
 40
0.0
 40
0.0
 40
0.0
 40
0.3053517528
 40
0.5820537449
 40
0.8023025256
 40
0.9467230498
 40
1.0
 40
1.0
 40
1.0
 40
1.0
 10
23.1688212993
 20
7.7374694304
 30
0.0
 10
23.1993636853
 20
7.7374694304
 30
0.0
 10
23.2577378779
 20
7.7373379016
 30
0.0
 10
23.3373842177
 20
7.7391009046
 30
0.0
 10
23.4030805124
 20
7.7372770792
 30
0.0
 10
23.4418317321
 20
7.7440050583
 30
0.0
 10
23.4650072267
 20
7.7388461496
 30
0.0
 10
23.4687753657
 20
7.7426142883
 30
0.0
 11
23.1688212993
 21
7.7374694304
 31
0.0
 11
23.2604481156
 21
7.7377196345
 31
0.0
 11
23.3434751184
 21
7.7384482922
 31
0.0
 11
23.4095556468
 21
7.7395810925
 31
0.0
 11
23.4528681109
 21
7.7410208903
 31
0.0
 11
23.4687753657
 21
7.7426142883
 31
0.0
  0
SPLINE
  5
708
100
AcDbEntity
  8
ASSI
100
AcDbSpline
 62
7
  6
CONTINUOUS
 70
0
 71
3
 72
12
 73
8
 74
6
 42
0.0000001
 43
0.0000001
 44
0.0000000001
 12
0.2121821359
 22
-0.2121821203
 32
0.0
 13
0.3000708432
 23
0.0
 33
0.0
 40
0.0
 40
0.0
 40
0.0
 40
0.0
 40
0.0532769502
 40
0.1976974744
 40
0.4179462551
 40
0.6946482472
 40
1.0
 40
1.0
 40
1.0
 40
1.0
 10
-23.7775184768
 20
7.7426142883
 30
0.0
 10
-23.7737503378
 20
7.7388461496
 30
0.0
 10
-23.7505748432
 20
7.7440050583
 30
0.0
 10
-23.7118236235
 20
7.7372770792
 30
0.0
 10
-23.6461273288
 20
7.7391009046
 30
0.0
 10
-23.566480989
 20
7.7373379016
 30
0.0
 10
-23.5081067964
 20
7.7374694304
 30
0.0
 10
-23.4775644104
 20
7.7374694304
 30
0.0
 11
-23.7775184768
 21
7.7426142883
 31
0.0
 11
-23.761611222
 21
7.7410208903
 31
0.0
 11
-23.7182987579
 21
7.7395810925
 31
0.0
 11
-23.6522182295
 21
7.7384482922
 31
0.0
 11
-23.5691912268
 21
7.7377196345
 31
0.0
 11
-23.4775644104
 21
7.7374694304
 31
0.0
  0
SPLINE
  5
709
100
AcDbEntity
  8
ASSI
100
AcDbSpline
 62
253
  6
CONTINUOUS
 70
0
 71
3
 72
11
 73
7
 74
5
 42
0.0000001
 43
0.0000001
 44
0.0000000001
 12
-0.0000004828
 22
-0.3535861826
 32
0.0
 13
-0.0098690566
 23
-0.3534484266
 33
0.0
 40
0.0
 40
0.0
 40
0.0
 40
0.0
 40
0.2713497641
 40
0.5458509931
 40
0.7957709277
 40
1.0
 40
1.0
 40
1.0
 40
1.0
 10
19.6008192955
 20
6.1672381036
 30
0.0
 10
19.6008192519
 20
6.1352562611
 30
0.0
 10
19.6006484358
 20
6.0709210091
 30
0.0
 10
19.5998709015
 20
5.9771324461
 30
0.0
 10
19.5986028423
 20
5.8912609618
 30
0.0
 10
19.5974014319
 20
5.8377466709
 30
0.0
 10
19.5967295825
 20
5.8136851894
 30
0.0
 11
19.6008192955
 21
6.1672381036
 31
0.0
 11
19.6005598341
 21
6.0712929271
 31
0.0
 11
19.5997372236
 21
5.9742365715
 31
0.0
 11
19.5983988436
 21
5.8858784717
 31
0.0
 11
19.5967295825
 21
5.8136851894
 31
0.0
  0
SPLINE
  5
70A
100
AcDbEntity
  8
ASSI
100
AcDbSpline
 62
253
  6
CONTINUOUS
 70
0
 71
3
 72
11
 73
7
 74
5
 42
0.0000001
 43
0.0000001
 44
0.0000000001
 12
-0.0000004828
 22
-0.3535861826
 32
0.0
 13
-0.0098690566
 23
-0.3534484266
 33
0.0
 40
0.0
 40
0.0
 40
0.0
 40
0.0
 40
0.2713497641
 40
0.5458509931
 40
0.7957709277
 40
1.0
 40
1.0
 40
1.0
 40
1.0
 10
-19.6991807045
 20
6.1672381036
 30
0.0
 10
-19.6991807481
 20
6.1352562611
 30
0.0
 10
-19.6993515642
 20
6.0709210091
 30
0.0
 10
-19.7001290985
 20
5.9771324461
 30
0.0
 10
-19.7013971577
 20
5.8912609618
 30
0.0
 10
-19.7025985681
 20
5.8377466709
 30
0.0
 10
-19.7032704175
 20
5.8136851894
 30
0.0
 11
-19.6991807045
 21
6.1672381036
 31
0.0
 11
-19.6994401659
 21
6.0712929271
 31
0.0
 11
-19.7002627764
 21
5.9742365715
 31
0.0
 11
-19.7016011564
 21
5.8858784717
 31
0.0
 11
-19.7032704175
 21
5.8136851894
 31
0.0
  0
SPLINE
  5
70B
100
AcDbEntity
  8
ASSI
100
AcDbSpline
 62
253
  6
CONTINUOUS
 70
0
 71
3
 72
11
 73
7
 74
5
 42
0.0000001
 43
0.0000001
 44
0.0000000001
 12
-0.0098689072
 22
0.3534493123
 32
0.0
 13
-0.0000004971
 23
0.3535870638
 33
0.0
 40
0.0
 40
0.0
 40
0.0
 40
0.0
 40
0.2035823994
 40
0.4531925193
 40
0.7278954329
 40
1.0
 40
1.0
 40
1.0
 40
1.0
 10
-19.9054726798
 20
5.8136846395
 30
0.0
 10
-19.9061423918
 20
5.8376699926
 30
0.0
 10
-19.9073421543
 20
5.8910716853
 30
0.0
 10
-19.9086108664
 20
5.9768544019
 30
0.0
 10
-19.9093907873
 20
6.0707194015
 30
0.0
 10
-19.9095623625
 20
6.135167549
 30
0.0
 10
-19.9095624076
 20
6.167238434
 30
0.0
 11
-19.9054726798
 21
5.8136846395
 31
0.0
 11
-19.9071375951
 21
5.885649486
 31
0.0
 11
-19.9084763779
 21
5.9738982409
 31
0.0
 11
-19.9093014887
 21
6.0710261329
 31
0.0
 11
-19.9095624076
 21
6.167238434
 31
0.0
  0
SPLINE
  5
70C
100
AcDbEntity
  8
ASSI
100
AcDbSpline
 62
7
  6
CONTINUOUS
 70
0
 71
3
 72
11
 73
7
 74
5
 42
0.0000001
 43
0.0000001
 44
0.0000000001
 12
0.1877591259
 22
0.0090044273
 32
0.0
 13
0.1879749161
 23
0.0
 33
0.0
 40
0.0
 40
0.0
 40
0.0
 40
0.0
 40
0.1566793638
 40
0.3898272684
 40
0.6785348125
 40
1.0
 40
1.0
 40
1.0
 40
1.0
 10
4.0875754835
 20
5.3837126457
 30
0.0
 10
4.0973814769
 20
5.384182915
 30
0.0
 10
4.1218027565
 20
5.3848088002
 30
0.0
 10
4.1643121137
 20
5.3854861434
 30
0.0
 10
4.2171524628
 20
5.3859094382
 30
0.0
 10
4.2553847475
 20
5.386010158
 30
0.0
 10
4.2755272114
 20
5.386010158
 30
0.0
 11
4.0875754835
 21
5.3837126457
 31
0.0
 11
4.117012424
 21
5.3846477832
 31
0.0
 11
4.1608322816
 21
5.3853789847
 31
0.0
 11
4.2151000401
 21
5.385846978
 31
0.0
 11
4.2755272114
 21
5.386010158
 31
0.0
  0
SPLINE
  5
70D
100
AcDbEntity
  8
ASSI
100
AcDbSpline
 62
7
  6
CONTINUOUS
 70
0
 71
3
 72
11
 73
7
 74
5
 42
0.0000001
 43
0.0000001
 44
0.0000000001
 12
-0.1879629154
 22
0.0
 32
0.0
 13
-0.1877471389
 23
0.0090038568
 33
0.0
 40
0.0
 40
0.0
 40
0.0
 40
0.0
 40
0.3215242523
 40
0.6102453572
 40
0.8433660718
 40
1.0
 40
1.0
 40
1.0
 40
1.0
 10
4.2690043066
 20
3.7345431045
 30
0.0
 10
4.248859428
 20
3.7345431045
 30
0.0
 10
4.2106250339
 20
3.7346438073
 30
0.0
 10
4.1577852106
 20
3.7350670107
 30
0.0
 10
4.1152822667
 20
3.735744159
 30
0.0
 10
4.0908670924
 20
3.7363697904
 30
0.0
 10
4.0810645684
 20
3.7368398935
 30
0.0
 11
4.2690043066
 21
3.7345431045
 31
0.0
 11
4.208569891
 21
3.7347062727
 31
0.0
 11
4.1543030476
 21
3.7351741815
 31
0.0
 11
4.1104910959
 21
3.7359051537
 31
0.0
 11
4.0810645684
 21
3.7368398935
 31
0.0
  0
SPLINE
  5
70E
100
AcDbEntity
  8
ASSI
100
AcDbSpline
 62
7
  6
CONTINUOUS
 70
0
 71
3
 72
11
 73
7
 74
5
 42
0.0000001
 43
0.0000001
 44
0.0000000001
 12
-0.1877471389
 22
-0.0090038568
 32
0.0
 13
-0.1879629155
 23
-0.0
 33
0.0
 40
0.0
 40
0.0
 40
0.0
 40
0.0
 40
0.1566339282
 40
0.3897546428
 40
0.6784757477
 40
1.0
 40
1.0
 40
1.0
 40
1.0
 10
-4.3898076795
 20
3.7368398935
 30
0.0
 10
-4.3996102035
 20
3.7363697904
 30
0.0
 10
-4.4240253778
 20
3.735744159
 30
0.0
 10
-4.4665283217
 20
3.7350670107
 30
0.0
 10
-4.519368145
 20
3.7346438073
 30
0.0
 10
-4.5576025391
 20
3.7345431045
 30
0.0
 10
-4.5777474177
 20
3.7345431045
 30
0.0
 11
-4.3898076795
 21
3.7368398935
 31
0.0
 11
-4.419234207
 21
3.7359051537
 31
0.0
 11
-4.4630461587
 21
3.7351741815
 31
0.0
 11
-4.5173130021
 21
3.7347062727
 31
0.0
 11
-4.5777474177
 21
3.7345431045
 31
0.0
  0
SPLINE
  5
70F
100
AcDbEntity
  8
ASSI
100
AcDbSpline
 62
7
  6
CONTINUOUS
 70
0
 71
3
 72
11
 73
7
 74
5
 42
0.0000001
 43
0.0000001
 44
0.0000000001
 12
0.1879749161
 22
0.0
 32
0.0
 13
0.1877591259
 23
-0.0090044273
 33
0.0
 40
0.0
 40
0.0
 40
0.0
 40
0.0
 40
0.3214651875
 40
0.6101727316
 40
0.8433206362
 40
1.0
 40
1.0
 40
1.0
 40
1.0
 10
-4.5842703225
 20
5.386010158
 30
0.0
 10
-4.5641278586
 20
5.386010158
 30
0.0
 10
-4.5258955739
 20
5.3859094382
 30
0.0
 10
-4.4730552248
 20
5.3854861434
 30
0.0
 10
-4.4305458676
 20
5.3848088002
 30
0.0
 10
-4.4061245881
 20
5.384182915
 30
0.0
 10
-4.3963185946
 20
5.3837126457
 30
0.0
 11
-4.5842703225
 21
5.386010158
 31
0.0
 11
-4.5238431512
 21
5.385846978
 31
0.0
 11
-4.4695753927
 21
5.3853789847
 31
0.0
 11
-4.4257555351
 21
5.3846477832
 31
0.0
 11
-4.3963185946
 21
5.3837126457
 31
0.0
  0
ELLIPSE
  5
710
100
AcDbEntity
  8
RACCORDO
100
AcDbEllipse
 62
7
  6
CONTINUOUS
 10
24.3820973545
 20
-9.2831243439
 30
0.0
 11
0.2183310446
 21
0.1221043275
 31
0.0
 40
0.9980297029
 41
-2.0815635429
 42
-0.5109195152
  0
ELLIPSE
  5
711
100
AcDbEntity
  8
RACCORDO
100
AcDbEllipse
 62
7
  6
CONTINUOUS
 10
-24.6908404656
 20
-9.2831243439
 30
0.0
 11
0.2183310446
 21
-0.1221043275
 31
0.0
 40
0.9980297029
 41
-2.6306731384
 42
-1.0600291107
  0
ELLIPSE
  5
712
100
AcDbEntity
  8
RACCORDO
100
AcDbEllipse
 62
7
  6
CONTINUOUS
 10
-24.6973514476
 20
8.7031000383
 30
0.0
 11
-0.1768305473
 21
0.1768305473
 31
0.0
 40
0.9996954599
 41
-0.7852458701
 42
0.7852458701
  0
ELLIPSE
  5
713
100
AcDbEntity
  8
RACCORDO
100
AcDbEllipse
 62
7
  6
CONTINUOUS
 10
24.3886083365
 20
8.7031000383
 30
0.0
 11
-0.1768305473
 21
-0.1768305473
 31
0.0
 40
0.9996954599
 41
2.3563467834
 42
3.9268385237
  0
ELLIPSE
  5
714
100
AcDbEntity
  8
RACCORDO
100
AcDbEllipse
 62
7
  6
CONTINUOUS
 10
-24.9526260491
 20
8.0025641305
 30
0.0
 11
0.0
 21
0.3
 31
0.0
 40
0.0174550649
 41
-3.1241393611
 42
-1.5707963268
  0
ELLIPSE
  5
715
100
AcDbEntity
  8
RACCORDO
100
AcDbEllipse
 62
7
  6
CONTINUOUS
 10
24.643882938
 20
8.0025641305
 30
0.0
 11
-0.0
 21
0.3
 31
0.0
 40
0.0174550649
 41
-4.7123889804
 42
-3.1590459461
  0
ELLIPSE
  5
716
100
AcDbEntity
  8
DRAFT
100
AcDbEllipse
 62
7
  6
CONTINUOUS
 10
29.5686470487
 20
9.1601201463
 30
0.0
 11
0.0
 21
423.7
 31
0.0
 40
0.0174550649
 41
-4.6945015721
 42
-4.6927481945
  0
ELLIPSE
  5
717
100
AcDbEntity
  8
DRAFT
100
AcDbEllipse
 62
7
  6
CONTINUOUS
 10
29.5686470487
 20
9.1601201463
 30
0.0
 11
0.0
 21
423.7
 31
0.0
 40
0.0174550649
 41
-4.675840257
 42
-4.6741042615
  0
ELLIPSE
  5
718
100
AcDbEntity
  8
RACCORDO
100
AcDbEllipse
 62
7
  6
CONTINUOUS
 10
10.9900649051
 20
9.1601201463
 30
0.0
 11
0.0
 21
423.7
 31
0.0
 40
0.0174550649
 41
-1.6103149114
 42
-1.60848535
  0
ELLIPSE
  5
719
100
AcDbEntity
  8
RACCORDO
100
AcDbEllipse
 62
7
  6
CONTINUOUS
 10
24.9011919838
 20
9.1601201463
 30
0.0
 11
0.0
 21
423.7
 31
0.0
 40
0.0174550649
 41
-4.6746999572
 42
-4.6722996927
  0
ELLIPSE
  5
71A
100
AcDbEntity
  8
RACCORDO
100
AcDbEllipse
 62
7
  6
CONTINUOUS
 10
-0.2099350949
 20
9.1601201463
 30
0.0
 11
0.0
 21
423.7
 31
0.0
 40
0.0174550649
 41
-1.6108856145
 42
-1.60848535
  0
ELLIPSE
  5
71B
100
AcDbEntity
  8
RACCORDO
100
AcDbEllipse
 62
7
  6
CONTINUOUS
 10
13.7011919838
 20
9.1601201463
 30
0.0
 11
0.0
 21
423.7
 31
0.0
 40
0.0174550649
 41
-4.6746999572
 42
-4.6728703958
  0
ELLIPSE
  5
71C
100
AcDbEntity
  8
RACCORDO
100
AcDbEllipse
 62
7
  6
CONTINUOUS
 10
-14.0099350949
 20
9.1601201463
 30
0.0
 11
0.0
 21
423.7
 31
0.0
 40
0.0174550649
 41
-1.6103149114
 42
-1.60848535
  0
ELLIPSE
  5
71D
100
AcDbEntity
  8
RACCORDO
100
AcDbEllipse
 62
7
  6
CONTINUOUS
 10
23.2316186941
 20
-8.1441902855
 30
0.0
 11
-0.0300136675
 21
0.3031910442
 31
0.0
 40
0.9846622838
 41
-3.2387599651
 42
-1.6709942215
  0
ELLIPSE
  5
71E
100
AcDbEntity
  8
RACCORDO
100
AcDbEllipse
 62
7
  6
CONTINUOUS
 10
-23.5403618052
 20
-8.1441902855
 30
0.0
 11
0.0300136675
 21
0.3031910442
 31
0.0
 40
0.9846622838
 41
-4.6121910857
 42
-3.0444253421
  0
ELLIPSE
  5
71F
100
AcDbEntity
  8
RACCORDO
100
AcDbEllipse
 62
7
  6
CONTINUOUS
 10
-19.6991807345
 20
7.7548836268
 30
0.0
 11
0.3
 21
-0.0
 31
0.0
 40
0.0174550649
 41
0.0174532925
 42
1.5707963268
  0
ELLIPSE
  5
720
100
AcDbEntity
  8
RACCORDO
100
AcDbEllipse
 62
7
  6
CONTINUOUS
 10
-0.0988080162
 20
9.1601201463
 30
0.0
 11
0.0
 21
423.7
 31
0.0
 40
0.0174550649
 41
-4.6746999572
 42
-4.6728703958
  0
ELLIPSE
  5
721
100
AcDbEntity
  8
RACCORDO
100
AcDbEllipse
 62
7
  6
CONTINUOUS
 10
-25.2099350949
 20
9.1601201463
 30
0.0
 11
0.0
 21
423.7
 31
0.0
 40
0.0174550649
 41
-1.6103149114
 42
-1.60848535
  0
ELLIPSE
  5
722
100
AcDbEntity
  8
RACCORDO
100
AcDbEllipse
 62
7
  6
CONTINUOUS
 10
-11.2988080162
 20
9.1601201463
 30
0.0
 11
0.0
 21
423.7
 31
0.0
 40
0.0174550649
 41
-4.6746999572
 42
-4.6722996927
  0
ELLIPSE
  5
723
100
AcDbEntity
  8
DRAFT
100
AcDbEllipse
 62
7
  6
CONTINUOUS
 10
-29.8773901598
 20
9.1601201463
 30
0.0
 11
0.0
 21
423.7
 31
0.0
 40
0.0174550649
 41
-1.6090810457
 42
-1.6073450502
  0
ELLIPSE
  5
724
100
AcDbEntity
  8
DRAFT
100
AcDbEllipse
 62
7
  6
CONTINUOUS
 10
31.159299828
 20
9.1601201463
 30
0.0
 11
0.0
 21
423.7
 31
0.0
 40
0.0174550649
 41
-4.6861185815
 42
-4.6805882475
  0
ELLIPSE
  5
725
100
AcDbEntity
  8
DRAFT
100
AcDbEllipse
 62
7
  6
CONTINUOUS
 10
15.4319570609
 20
9.1601201463
 30
0.0
 11
0.0
 21
423.7
 31
0.0
 40
0.0174550649
 41
-1.6025970597
 42
-1.5970667257
  0
ELLIPSE
  5
726
100
AcDbEntity
  8
DRAFT
100
AcDbEllipse
 62
7
  6
CONTINUOUS
 10
-31.4680429391
 20
9.1601201463
 30
0.0
 11
0.0
 21
423.7
 31
0.0
 40
0.0174550649
 41
-1.6025970597
 42
-1.5970667257
  0
ELLIPSE
  5
727
100
AcDbEntity
  8
DRAFT
100
AcDbEllipse
 62
7
  6
CONTINUOUS
 10
-15.740700172
 20
9.1601201463
 30
0.0
 11
0.0
 21
423.7
 31
0.0
 40
0.0174550649
 41
-4.6861185815
 42
-4.6805882475
  0
ELLIPSE
  5
728
100
AcDbEntity
  8
RACCORDO
100
AcDbEllipse
 62
7
  6
CONTINUOUS
 10
-19.9095623766
 20
7.7548836268
 30
0.0
 11
0.3
 21
0.0
 31
0.0
 40
0.0174550649
 41
1.5707963268
 42
3.1241393611
  0
ELLIPSE
  5
729
100
AcDbEntity
  8
RACCORDO
100
AcDbEllipse
 62
7
  6
CONTINUOUS
 10
19.3904376234
 20
7.7548836268
 30
0.0
 11
0.3
 21
-0.0
 31
0.0
 40
0.0174550649
 41
1.5707963268
 42
3.1241393611
  0
ELLIPSE
  5
72A
100
AcDbEntity
  8
RACCORDO
100
AcDbEllipse
 62
7
  6
CONTINUOUS
 10
-7.4835123374
 20
-7.5676937588
 30
0.0
 11
-0.0
 21
0.3
 31
0.0
 40
0.0174550649
 41
-4.6728703958
 42
-3.3161255788
  0
ELLIPSE
  5
72B
100
AcDbEntity
  8
RACCORDO
100
AcDbEllipse
 62
7
  6
CONTINUOUS
 10
-6.6252307738
 20
-7.5676937588
 30
0.0
 11
-0.0
 21
0.3
 31
0.0
 40
0.0174550649
 41
-2.9670597284
 42
-1.6103149114
  0
ELLIPSE
  5
72C
100
AcDbEntity
  8
RACCORDO
100
AcDbEllipse
 62
7
  6
CONTINUOUS
 10
6.3164876626
 20
-7.5676937588
 30
0.0
 11
-0.0
 21
0.3
 31
0.0
 40
0.0174550649
 41
-4.6728703958
 42
-3.3161255788
  0
ELLIPSE
  5
72D
100
AcDbEntity
  8
RACCORDO
100
AcDbEllipse
 62
7
  6
CONTINUOUS
 10
18.3747692262
 20
-7.5676937588
 30
0.0
 11
-0.0
 21
0.3
 31
0.0
 40
0.0174550649
 41
-2.9670597284
 42
-1.6103149114
  0
ELLIPSE
  5
72E
100
AcDbEntity
  8
RACCORDO
100
AcDbEllipse
 62
7
  6
CONTINUOUS
 10
-17.8252307738
 20
-7.5676937588
 30
0.0
 11
0.0
 21
0.3
 31
0.0
 40
0.0174550649
 41
-2.9670597284
 42
-1.6103149114
  0
ELLIPSE
  5
72F
100
AcDbEntity
  8
DRAFT
100
AcDbEllipse
 62
7
  6
CONTINUOUS
 10
-29.8773901598
 20
9.1601201463
 30
0.0
 11
0.0
 21
423.7
 31
0.0
 40
0.0174550649
 41
-1.5904371127
 42
-1.588683735
  0
ELLIPSE
  5
730
100
AcDbEntity
  8
RACCORDO
100
AcDbEllipse
 62
7
  6
CONTINUOUS
 10
-22.8340908643
 20
-7.0102062433
 30
0.0
 11
0.3
 21
-0.0
 31
0.0
 40
0.0174550649
 41
0.0174532925
 42
1.5707963268
  0
ELLIPSE
  5
731
100
AcDbEntity
  8
RACCORDO
100
AcDbEllipse
 62
7
  6
CONTINUOUS
 10
-22.8340908643
 20
-6.3695534641
 30
0.0
 11
0.3
 21
0.0
 31
0.0
 40
0.0174550649
 41
-1.5707963268
 42
-0.0174532925
  0
ELLIPSE
  5
732
100
AcDbEntity
  8
RACCORDO
100
AcDbEllipse
 62
7
  6
CONTINUOUS
 10
-22.8340908643
 20
0.8897937567
 30
0.0
 11
0.3
 21
-0.0
 31
0.0
 40
0.0174550649
 41
0.0174532925
 42
1.5707963268
  0
ELLIPSE
  5
733
100
AcDbEntity
  8
RACCORDO
100
AcDbEllipse
 62
7
  6
CONTINUOUS
 10
-22.8340908643
 20
1.5304465359
 30
0.0
 11
0.3
 21
0.0
 31
0.0
 40
0.0174550649
 41
-1.5707963268
 42
-0.0174532925
  0
ELLIPSE
  5
734
100
AcDbEntity
  8
RACCORDO
100
AcDbEllipse
 62
7
  6
CONTINUOUS
 10
22.5253477532
 20
-6.3695534641
 30
0.0
 11
0.3
 21
-0.0
 31
0.0
 40
0.0174550649
 41
-3.1241393611
 42
-1.5707963268
  0
ELLIPSE
  5
735
100
AcDbEntity
  8
RACCORDO
100
AcDbEllipse
 62
7
  6
CONTINUOUS
 10
22.5253477532
 20
-7.0102062433
 30
0.0
 11
0.3
 21
0.0
 31
0.0
 40
0.0174550649
 41
1.5707963268
 42
3.1241393611
  0
ELLIPSE
  5
736
100
AcDbEntity
  8
RACCORDO
100
AcDbEllipse
 62
7
  6
CONTINUOUS
 10
22.5253477532
 20
1.5304465359
 30
0.0
 11
0.3
 21
0.0
 31
0.0
 40
0.0174550649
 41
-3.1241393611
 42
-1.5707963268
  0
ELLIPSE
  5
737
100
AcDbEntity
  8
RACCORDO
100
AcDbEllipse
 62
7
  6
CONTINUOUS
 10
22.5253477532
 20
0.8897937567
 30
0.0
 11
0.3
 21
0.0
 31
0.0
 40
0.0174550649
 41
1.5707963268
 42
3.1241393611
  0
ELLIPSE
  5
738
100
AcDbEntity
  8
RACCORDO
100
AcDbEllipse
 62
7
  6
CONTINUOUS
 10
-12.8313529513
 20
9.1601201463
 30
0.0
 11
0.0
 21
423.7
 31
0.0
 40
0.0174550649
 41
-4.7090312901
 42
-4.6981756364
  0
ELLIPSE
  5
739
100
AcDbEntity
  8
RACCORDO
100
AcDbEllipse
 62
7
  6
CONTINUOUS
 10
19.6008192655
 20
7.7548836268
 30
0.0
 11
0.3
 21
0.0
 31
0.0
 40
0.0174550649
 41
0.0174532925
 42
1.5707963268
  0
ELLIPSE
  5
73A
100
AcDbEntity
  8
RACCORDO
100
AcDbEllipse
 62
7
  6
CONTINUOUS
 10
-26.7773901598
 20
9.1601201463
 30
0.0
 11
0.0
 21
423.7
 31
0.0
 40
0.0174550649
 41
-1.5850096708
 42
-1.5741540171
  0
ELLIPSE
  5
73B
100
AcDbEntity
  8
RACCORDO
100
AcDbEllipse
 62
7
  6
CONTINUOUS
 10
26.4686470487
 20
9.1601201463
 30
0.0
 11
0.0
 21
423.7
 31
0.0
 40
0.0174550649
 41
-4.7090312901
 42
-4.6981756364
  0
ELLIPSE
  5
73C
100
AcDbEntity
  8
RACCORDO
100
AcDbEllipse
 62
7
  6
CONTINUOUS
 10
12.5226098402
 20
9.1601201463
 30
0.0
 11
0.0
 21
423.7
 31
0.0
 40
0.0174550649
 41
-1.5850096708
 42
-1.5741540171
  0
ELLIPSE
  5
73D
100
AcDbEntity
  8
RACCORDO
100
AcDbEllipse
 62
7
  6
CONTINUOUS
 10
-3.6943092941
 20
5.3653566658
 30
0.0
 11
0.3
 21
-0.0
 31
0.0
 40
0.0174550649
 41
-2.7925268032
 42
-1.5707963268
  0
ELLIPSE
  5
73E
100
AcDbEntity
  8
RACCORDO
100
AcDbEllipse
 62
7
  6
CONTINUOUS
 10
3.385566183
 20
5.3653566658
 30
0.0
 11
0.3
 21
0.0
 31
0.0
 40
0.0174550649
 41
-1.5707963268
 42
-0.3490658504
  0
ELLIPSE
  5
73F
100
AcDbEntity
  8
RACCORDO
100
AcDbEllipse
 62
7
  6
CONTINUOUS
 10
-3.6943092941
 20
3.7548836268
 30
0.0
 11
0.3
 21
0.0
 31
0.0
 40
0.0174550649
 41
1.5707963268
 42
2.7925268032
  0
ELLIPSE
  5
740
100
AcDbEntity
  8
RACCORDO
100
AcDbEllipse
 62
7
  6
CONTINUOUS
 10
3.385566183
 20
3.7548836268
 30
0.0
 11
0.3
 21
0.0
 31
0.0
 40
0.0174550649
 41
0.3490658504
 42
1.5707963268
  0
ELLIPSE
  5
741
100
AcDbEntity
  8
RACCORDO
100
AcDbEllipse
 62
7
  6
CONTINUOUS
 10
-18.1491807345
 20
-8.1137970058
 30
0.0
 11
0.3
 21
0.0
 31
0.0
 40
0.1763269807
 41
-1.5707963268
 42
-0.0174532925
  0
ELLIPSE
  5
742
100
AcDbEntity
  8
RACCORDO
100
AcDbEllipse
 62
7
  6
CONTINUOUS
 10
-18.3595623766
 20
-8.1137970058
 30
0.0
 11
0.3
 21
0.0
 31
0.0
 40
0.1763269807
 41
-3.1241393611
 42
-1.5707963268
  0
ELLIPSE
  5
743
100
AcDbEntity
  8
RACCORDO
100
AcDbEllipse
 62
7
  6
CONTINUOUS
 10
17.8404376234
 20
-8.1137970058
 30
0.0
 11
0.3
 21
0.0
 31
0.0
 40
0.1763269807
 41
-3.1241393611
 42
-1.5707963268
  0
ELLIPSE
  5
744
100
AcDbEntity
  8
RACCORDO
100
AcDbEllipse
 62
7
  6
CONTINUOUS
 10
-23.8526260491
 20
8.0025641305
 30
0.0
 11
-0.0
 21
0.3
 31
0.0
 40
0.0174550649
 41
-3.1241393611
 42
-1.5707963268
  0
ELLIPSE
  5
745
100
AcDbEntity
  8
RACCORDO
100
AcDbEllipse
 62
7
  6
CONTINUOUS
 10
23.543882938
 20
8.0025641305
 30
0.0
 11
-0.0
 21
0.3
 31
0.0
 40
0.0174550649
 41
-4.7123889804
 42
-3.1590459461
  0
ELLIPSE
  5
746
100
AcDbEntity
  8
RACCORDO
100
AcDbEllipse
 62
7
  6
CONTINUOUS
 10
-6.9491807345
 20
-8.1137970058
 30
0.0
 11
0.3
 21
-0.0
 31
0.0
 40
0.1763269807
 41
-1.5707963268
 42
-0.0174532925
  0
ELLIPSE
  5
747
100
AcDbEntity
  8
RACCORDO
100
AcDbEllipse
 62
7
  6
CONTINUOUS
 10
-7.1595623766
 20
-8.1137970058
 30
0.0
 11
0.3
 21
-0.0
 31
0.0
 40
0.1763269807
 41
-3.1241393611
 42
-1.5707963268
  0
ELLIPSE
  5
748
100
AcDbEntity
  8
RACCORDO
100
AcDbEllipse
 62
7
  6
CONTINUOUS
 10
6.6404376234
 20
-8.1137970058
 30
0.0
 11
0.3
 21
-0.0
 31
0.0
 40
0.1763269807
 41
-3.1241393611
 42
-1.5707963268
  0
ELLIPSE
  5
749
100
AcDbEntity
  8
RACCORDO
100
AcDbEllipse
 62
7
  6
CONTINUOUS
 10
6.8508192655
 20
-8.1137970058
 30
0.0
 11
0.3
 21
-0.0
 31
0.0
 40
0.1763269807
 41
-1.5707963268
 42
-0.0174532925
  0
ELLIPSE
  5
74A
100
AcDbEntity
  8
RACCORDO
100
AcDbEllipse
 62
7
  6
CONTINUOUS
 10
18.0508192655
 20
-8.1137970058
 30
0.0
 11
0.3
 21
-0.0
 31
0.0
 40
0.1763269807
 41
-1.5707963268
 42
-0.0174532925
  0
ELLIPSE
  5
74B
100
AcDbEntity
  8
ASSI
100
AcDbEllipse
 62
7
  6
CONTINUOUS
 10
24.3820973545
 20
-9.2831243439
 30
0.0
 11
0.2183310446
 21
0.1221043275
 31
0.0
 40
0.9980297029
 41
-2.0815635429
 42
-0.5109195152
  0
ELLIPSE
  5
74C
100
AcDbEntity
  8
ASSI
100
AcDbEllipse
 62
7
  6
CONTINUOUS
 10
-24.6908404656
 20
-9.2831243439
 30
0.0
 11
0.2183310446
 21
-0.1221043275
 31
0.0
 40
0.9980297029
 41
-2.6306731384
 42
-1.0600291107
  0
ELLIPSE
  5
74D
100
AcDbEntity
  8
ASSI
100
AcDbEllipse
 62
7
  6
CONTINUOUS
 10
-24.6973514476
 20
8.7031000383
 30
0.0
 11
-0.1768305473
 21
0.1768305473
 31
0.0
 40
0.9996954599
 41
-0.7852458701
 42
0.7852458701
  0
ELLIPSE
  5
74E
100
AcDbEntity
  8
ASSI
100
AcDbEllipse
 62
7
  6
CONTINUOUS
 10
24.3886083365
 20
8.7031000383
 30
0.0
 11
-0.1768305473
 21
-0.1768305473
 31
0.0
 40
0.9996954599
 41
2.3563467834
 42
3.9268385237
  0
ELLIPSE
  5
74F
100
AcDbEntity
  8
ASSI
100
AcDbEllipse
 62
7
  6
CONTINUOUS
 10
-24.9526260491
 20
8.0025641305
 30
0.0
 11
0.0
 21
0.3
 31
0.0
 40
0.0174550649
 41
-3.1241393611
 42
-1.5707963268
  0
ELLIPSE
  5
750
100
AcDbEntity
  8
ASSI
100
AcDbEllipse
 62
7
  6
CONTINUOUS
 10
24.643882938
 20
8.0025641305
 30
0.0
 11
-0.0
 21
0.3
 31
0.0
 40
0.0174550649
 41
-4.7123889804
 42
-3.1590459461
  0
ELLIPSE
  5
751
100
AcDbEntity
  8
ASSI
100
AcDbEllipse
 62
7
  6
CONTINUOUS
 10
29.5686470487
 20
9.1601201463
 30
0.0
 11
0.0
 21
423.7
 31
0.0
 40
0.0174550649
 41
-4.6945015721
 42
-4.6927481945
  0
ELLIPSE
  5
752
100
AcDbEntity
  8
ASSI
100
AcDbEllipse
 62
7
  6
CONTINUOUS
 10
29.5686470487
 20
9.1601201463
 30
0.0
 11
0.0
 21
423.7
 31
0.0
 40
0.0174550649
 41
-4.675840257
 42
-4.6741042615
  0
ELLIPSE
  5
753
100
AcDbEntity
  8
ASSI
100
AcDbEllipse
 62
7
  6
CONTINUOUS
 10
10.9900649051
 20
9.1601201463
 30
0.0
 11
0.0
 21
423.7
 31
0.0
 40
0.0174550649
 41
-1.6103149114
 42
-1.60848535
  0
ELLIPSE
  5
754
100
AcDbEntity
  8
ASSI
100
AcDbEllipse
 62
7
  6
CONTINUOUS
 10
24.9011919838
 20
9.1601201463
 30
0.0
 11
0.0
 21
423.7
 31
0.0
 40
0.0174550649
 41
-4.6746999572
 42
-4.6722996927
  0
ELLIPSE
  5
755
100
AcDbEntity
  8
ASSI
100
AcDbEllipse
 62
7
  6
CONTINUOUS
 10
-0.2099350949
 20
9.1601201463
 30
0.0
 11
0.0
 21
423.7
 31
0.0
 40
0.0174550649
 41
-1.6108856145
 42
-1.60848535
  0
ELLIPSE
  5
756
100
AcDbEntity
  8
ASSI
100
AcDbEllipse
 62
7
  6
CONTINUOUS
 10
23.2316186941
 20
-8.1441902855
 30
0.0
 11
-0.0300136675
 21
0.3031910442
 31
0.0
 40
0.9846622838
 41
-3.2387599651
 42
-1.6709942215
  0
ELLIPSE
  5
757
100
AcDbEntity
  8
ASSI
100
AcDbEllipse
 62
7
  6
CONTINUOUS
 10
-23.5403618052
 20
-8.1441902855
 30
0.0
 11
0.0300136675
 21
0.3031910442
 31
0.0
 40
0.9846622838
 41
-4.6121910857
 42
-3.0444253421
  0
ELLIPSE
  5
758
100
AcDbEntity
  8
ASSI
100
AcDbEllipse
 62
7
  6
CONTINUOUS
 10
-19.6991807345
 20
7.7548836268
 30
0.0
 11
0.3
 21
-0.0
 31
0.0
 40
0.0174550649
 41
0.0174532925
 42
1.5707963268
  0
ELLIPSE
  5
759
100
AcDbEntity
  8
ASSI
100
AcDbEllipse
 62
7
  6
CONTINUOUS
 10
13.7011919838
 20
9.1601201463
 30
0.0
 11
0.0
 21
423.7
 31
0.0
 40
0.0174550649
 41
-4.6746999572
 42
-4.6728703958
  0
ELLIPSE
  5
75A
100
AcDbEntity
  8
ASSI
100
AcDbEllipse
 62
7
  6
CONTINUOUS
 10
-14.0099350949
 20
9.1601201463
 30
0.0
 11
0.0
 21
423.7
 31
0.0
 40
0.0174550649
 41
-1.6103149114
 42
-1.60848535
  0
ELLIPSE
  5
75B
100
AcDbEntity
  8
ASSI
100
AcDbEllipse
 62
7
  6
CONTINUOUS
 10
-0.0988080162
 20
9.1601201463
 30
0.0
 11
0.0
 21
423.7
 31
0.0
 40
0.0174550649
 41
-4.6746999572
 42
-4.6728703958
  0
ELLIPSE
  5
75C
100
AcDbEntity
  8
ASSI
100
AcDbEllipse
 62
7
  6
CONTINUOUS
 10
-25.2099350949
 20
9.1601201463
 30
0.0
 11
0.0
 21
423.7
 31
0.0
 40
0.0174550649
 41
-1.6103149114
 42
-1.60848535
  0
ELLIPSE
  5
75D
100
AcDbEntity
  8
ASSI
100
AcDbEllipse
 62
7
  6
CONTINUOUS
 10
-11.2988080162
 20
9.1601201463
 30
0.0
 11
0.0
 21
423.7
 31
0.0
 40
0.0174550649
 41
-4.6746999572
 42
-4.6722996927
  0
ELLIPSE
  5
75E
100
AcDbEntity
  8
ASSI
100
AcDbEllipse
 62
7
  6
CONTINUOUS
 10
31.159299828
 20
9.1601201463
 30
0.0
 11
0.0
 21
423.7
 31
0.0
 40
0.0174550649
 41
-4.6861185815
 42
-4.6805882475
  0
ELLIPSE
  5
75F
100
AcDbEntity
  8
ASSI
100
AcDbEllipse
 62
7
  6
CONTINUOUS
 10
15.4319570609
 20
9.1601201463
 30
0.0
 11
0.0
 21
423.7
 31
0.0
 40
0.0174550649
 41
-1.6025970597
 42
-1.5970667257
  0
ELLIPSE
  5
760
100
AcDbEntity
  8
ASSI
100
AcDbEllipse
 62
7
  6
CONTINUOUS
 10
-31.4680429391
 20
9.1601201463
 30
0.0
 11
0.0
 21
423.7
 31
0.0
 40
0.0174550649
 41
-1.6025970597
 42
-1.5970667257
  0
ELLIPSE
  5
761
100
AcDbEntity
  8
ASSI
100
AcDbEllipse
 62
7
  6
CONTINUOUS
 10
-15.740700172
 20
9.1601201463
 30
0.0
 11
0.0
 21
423.7
 31
0.0
 40
0.0174550649
 41
-4.6861185815
 42
-4.6805882475
  0
ELLIPSE
  5
762
100
AcDbEntity
  8
ASSI
100
AcDbEllipse
 62
7
  6
CONTINUOUS
 10
-19.9095623766
 20
7.7548836268
 30
0.0
 11
0.3
 21
0.0
 31
0.0
 40
0.0174550649
 41
1.5707963268
 42
3.1241393611
  0
ELLIPSE
  5
763
100
AcDbEntity
  8
ASSI
100
AcDbEllipse
 62
7
  6
CONTINUOUS
 10
-7.4835123374
 20
-7.5676937588
 30
0.0
 11
-0.0
 21
0.3
 31
0.0
 40
0.0174550649
 41
-4.6728703958
 42
-3.3161255788
  0
ELLIPSE
  5
764
100
AcDbEntity
  8
ASSI
100
AcDbEllipse
 62
7
  6
CONTINUOUS
 10
-6.6252307738
 20
-7.5676937588
 30
0.0
 11
-0.0
 21
0.3
 31
0.0
 40
0.0174550649
 41
-2.9670597284
 42
-1.6103149114
  0
ELLIPSE
  5
765
100
AcDbEntity
  8
ASSI
100
AcDbEllipse
 62
7
  6
CONTINUOUS
 10
6.3164876626
 20
-7.5676937588
 30
0.0
 11
-0.0
 21
0.3
 31
0.0
 40
0.0174550649
 41
-4.6728703958
 42
-3.3161255788
  0
ELLIPSE
  5
766
100
AcDbEntity
  8
ASSI
100
AcDbEllipse
 62
7
  6
CONTINUOUS
 10
18.3747692262
 20
-7.5676937588
 30
0.0
 11
-0.0
 21
0.3
 31
0.0
 40
0.0174550649
 41
-2.9670597284
 42
-1.6103149114
  0
ELLIPSE
  5
767
100
AcDbEntity
  8
ASSI
100
AcDbEllipse
 62
7
  6
CONTINUOUS
 10
-17.8252307738
 20
-7.5676937588
 30
0.0
 11
0.0
 21
0.3
 31
0.0
 40
0.0174550649
 41
-2.9670597284
 42
-1.6103149114
  0
ELLIPSE
  5
768
100
AcDbEntity
  8
ASSI
100
AcDbEllipse
 62
7
  6
CONTINUOUS
 10
-29.8773901598
 20
9.1601201463
 30
0.0
 11
0.0
 21
423.7
 31
0.0
 40
0.0174550649
 41
-1.6090810457
 42
-1.6073450502
  0
ELLIPSE
  5
769
100
AcDbEntity
  8
ASSI
100
AcDbEllipse
 62
7
  6
CONTINUOUS
 10
-22.8340908643
 20
-7.0102062433
 30
0.0
 11
0.3
 21
-0.0
 31
0.0
 40
0.0174550649
 41
0.0174532925
 42
1.5707963268
  0
ELLIPSE
  5
76A
100
AcDbEntity
  8
ASSI
100
AcDbEllipse
 62
7
  6
CONTINUOUS
 10
-22.8340908643
 20
-6.3695534641
 30
0.0
 11
0.3
 21
0.0
 31
0.0
 40
0.0174550649
 41
-1.5707963268
 42
-0.0174532925
  0
ELLIPSE
  5
76B
100
AcDbEntity
  8
ASSI
100
AcDbEllipse
 62
7
  6
CONTINUOUS
 10
-22.8340908643
 20
0.8897937567
 30
0.0
 11
0.3
 21
-0.0
 31
0.0
 40
0.0174550649
 41
0.0174532925
 42
1.5707963268
  0
ELLIPSE
  5
76C
100
AcDbEntity
  8
ASSI
100
AcDbEllipse
 62
7
  6
CONTINUOUS
 10
-22.8340908643
 20
1.5304465359
 30
0.0
 11
0.3
 21
0.0
 31
0.0
 40
0.0174550649
 41
-1.5707963268
 42
-0.0174532925
  0
ELLIPSE
  5
76D
100
AcDbEntity
  8
ASSI
100
AcDbEllipse
 62
7
  6
CONTINUOUS
 10
22.5253477532
 20
-6.3695534641
 30
0.0
 11
0.3
 21
-0.0
 31
0.0
 40
0.0174550649
 41
-3.1241393611
 42
-1.5707963268
  0
ELLIPSE
  5
76E
100
AcDbEntity
  8
ASSI
100
AcDbEllipse
 62
7
  6
CONTINUOUS
 10
22.5253477532
 20
-7.0102062433
 30
0.0
 11
0.3
 21
0.0
 31
0.0
 40
0.0174550649
 41
1.5707963268
 42
3.1241393611
  0
ELLIPSE
  5
76F
100
AcDbEntity
  8
ASSI
100
AcDbEllipse
 62
7
  6
CONTINUOUS
 10
22.5253477532
 20
1.5304465359
 30
0.0
 11
0.3
 21
0.0
 31
0.0
 40
0.0174550649
 41
-3.1241393611
 42
-1.5707963268
  0
ELLIPSE
  5
770
100
AcDbEntity
  8
ASSI
100
AcDbEllipse
 62
7
  6
CONTINUOUS
 10
22.5253477532
 20
0.8897937567
 30
0.0
 11
0.3
 21
0.0
 31
0.0
 40
0.0174550649
 41
1.5707963268
 42
3.1241393611
  0
ELLIPSE
  5
771
100
AcDbEntity
  8
ASSI
100
AcDbEllipse
 62
7
  6
CONTINUOUS
 10
-29.8773901598
 20
9.1601201463
 30
0.0
 11
0.0
 21
423.7
 31
0.0
 40
0.0174550649
 41
-1.5904371127
 42
-1.588683735
  0
ELLIPSE
  5
772
100
AcDbEntity
  8
ASSI
100
AcDbEllipse
 62
7
  6
CONTINUOUS
 10
19.3904376234
 20
7.7548836268
 30
0.0
 11
0.3
 21
-0.0
 31
0.0
 40
0.0174550649
 41
1.5707963268
 42
3.1241393611
  0
ELLIPSE
  5
773
100
AcDbEntity
  8
ASSI
100
AcDbEllipse
 62
7
  6
CONTINUOUS
 10
19.6008192655
 20
7.7548836268
 30
0.0
 11
0.3
 21
0.0
 31
0.0
 40
0.0174550649
 41
0.0174532925
 42
1.5707963268
  0
ELLIPSE
  5
774
100
AcDbEntity
  8
ASSI
100
AcDbEllipse
 62
7
  6
CONTINUOUS
 10
-12.8313529513
 20
9.1601201463
 30
0.0
 11
0.0
 21
423.7
 31
0.0
 40
0.0174550649
 41
-4.7090312901
 42
-4.6981756364
  0
ELLIPSE
  5
775
100
AcDbEntity
  8
ASSI
100
AcDbEllipse
 62
7
  6
CONTINUOUS
 10
-26.7773901598
 20
9.1601201463
 30
0.0
 11
0.0
 21
423.7
 31
0.0
 40
0.0174550649
 41
-1.5850096708
 42
-1.5741540171
  0
ELLIPSE
  5
776
100
AcDbEntity
  8
ASSI
100
AcDbEllipse
 62
7
  6
CONTINUOUS
 10
26.4686470487
 20
9.1601201463
 30
0.0
 11
0.0
 21
423.7
 31
0.0
 40
0.0174550649
 41
-4.7090312901
 42
-4.6981756364
  0
ELLIPSE
  5
777
100
AcDbEntity
  8
ASSI
100
AcDbEllipse
 62
7
  6
CONTINUOUS
 10
12.5226098402
 20
9.1601201463
 30
0.0
 11
0.0
 21
423.7
 31
0.0
 40
0.0174550649
 41
-1.5850096708
 42
-1.5741540171
  0
ELLIPSE
  5
778
100
AcDbEntity
  8
ASSI
100
AcDbEllipse
 62
7
  6
CONTINUOUS
 10
-3.6943092941
 20
5.3653566658
 30
0.0
 11
0.3
 21
-0.0
 31
0.0
 40
0.0174550649
 41
-2.7925268032
 42
-1.5707963268
  0
ELLIPSE
  5
779
100
AcDbEntity
  8
ASSI
100
AcDbEllipse
 62
7
  6
CONTINUOUS
 10
3.385566183
 20
5.3653566658
 30
0.0
 11
0.3
 21
0.0
 31
0.0
 40
0.0174550649
 41
-1.5707963268
 42
-0.3490658504
  0
ELLIPSE
  5
77A
100
AcDbEntity
  8
ASSI
100
AcDbEllipse
 62
7
  6
CONTINUOUS
 10
-3.6943092941
 20
3.7548836268
 30
0.0
 11
0.3
 21
0.0
 31
0.0
 40
0.0174550649
 41
1.5707963268
 42
2.7925268032
  0
ELLIPSE
  5
77B
100
AcDbEntity
  8
ASSI
100
AcDbEllipse
 62
7
  6
CONTINUOUS
 10
3.385566183
 20
3.7548836268
 30
0.0
 11
0.3
 21
0.0
 31
0.0
 40
0.0174550649
 41
0.3490658504
 42
1.5707963268
  0
ELLIPSE
  5
77C
100
AcDbEntity
  8
ASSI
100
AcDbEllipse
 62
7
  6
CONTINUOUS
 10
-18.1491807345
 20
-8.1137970058
 30
0.0
 11
0.3
 21
0.0
 31
0.0
 40
0.1763269807
 41
-1.5707963268
 42
-0.0174532925
  0
ELLIPSE
  5
77D
100
AcDbEntity
  8
ASSI
100
AcDbEllipse
 62
7
  6
CONTINUOUS
 10
-18.3595623766
 20
-8.1137970058
 30
0.0
 11
0.3
 21
0.0
 31
0.0
 40
0.1763269807
 41
-3.1241393611
 42
-1.5707963268
  0
ELLIPSE
  5
77E
100
AcDbEntity
  8
ASSI
100
AcDbEllipse
 62
7
  6
CONTINUOUS
 10
-23.8526260491
 20
8.0025641305
 30
0.0
 11
-0.0
 21
0.3
 31
0.0
 40
0.0174550649
 41
-3.1241393611
 42
-1.5707963268
  0
ELLIPSE
  5
77F
100
AcDbEntity
  8
ASSI
100
AcDbEllipse
 62
7
  6
CONTINUOUS
 10
23.543882938
 20
8.0025641305
 30
0.0
 11
-0.0
 21
0.3
 31
0.0
 40
0.0174550649
 41
-4.7123889804
 42
-3.1590459461
  0
ELLIPSE
  5
780
100
AcDbEntity
  8
ASSI
100
AcDbEllipse
 62
7
  6
CONTINUOUS
 10
-6.9491807345
 20
-8.1137970058
 30
0.0
 11
0.3
 21
-0.0
 31
0.0
 40
0.1763269807
 41
-1.5707963268
 42
-0.0174532925
  0
ELLIPSE
  5
781
100
AcDbEntity
  8
ASSI
100
AcDbEllipse
 62
7
  6
CONTINUOUS
 10
-7.1595623766
 20
-8.1137970058
 30
0.0
 11
0.3
 21
-0.0
 31
0.0
 40
0.1763269807
 41
-3.1241393611
 42
-1.5707963268
  0
ELLIPSE
  5
782
100
AcDbEntity
  8
ASSI
100
AcDbEllipse
 62
7
  6
CONTINUOUS
 10
6.6404376234
 20
-8.1137970058
 30
0.0
 11
0.3
 21
-0.0
 31
0.0
 40
0.1763269807
 41
-3.1241393611
 42
-1.5707963268
  0
ELLIPSE
  5
783
100
AcDbEntity
  8
ASSI
100
AcDbEllipse
 62
7
  6
CONTINUOUS
 10
6.8508192655
 20
-8.1137970058
 30
0.0
 11
0.3
 21
-0.0
 31
0.0
 40
0.1763269807
 41
-1.5707963268
 42
-0.0174532925
  0
ELLIPSE
  5
784
100
AcDbEntity
  8
ASSI
100
AcDbEllipse
 62
7
  6
CONTINUOUS
 10
18.0508192655
 20
-8.1137970058
 30
0.0
 11
0.3
 21
-0.0
 31
0.0
 40
0.1763269807
 41
-1.5707963268
 42
-0.0174532925
  0
ELLIPSE
  5
785
100
AcDbEntity
  8
ASSI
100
AcDbEllipse
 62
7
  6
CONTINUOUS
 10
17.8404376234
 20
-8.1137970058
 30
0.0
 11
0.3
 21
0.0
 31
0.0
 40
0.1763269807
 41
-3.1241393611
 42
-1.5707963268
  0
ENDSEC
  0
SECTION
  2
OBJECTS
  0
DICTIONARY
  5
C
100
AcDbDictionary
280
0
281
1
  3
ACAD_GROUP
350
D
  3
ACAD_MLINESTYLE
350
17
  3
ACAD_LAYOUT
350
1A
  3
ACAD_PLOTSETTINGS
350
19
  3
ACAD_PLOTSTYLENAME
350
E
  0
DICTIONARY
  5
D
102
{ACAD_REACTORS
330
C
102
}
100
AcDbDictionary
280
0
281
1
  0
ACDBDICTIONARYWDFLT
  5
E
102
{ACAD_REACTORS
330
C
102
}
100
AcDbDictionary
281
1
  3
Normal
350
F
100
AcDbDictionaryWithDefault
340
F
  0
DICTIONARY
  5
17
102
{ACAD_REACTORS
330
C
102
}
100
AcDbDictionary
280
0
281
1
  3
Standard
350
18
  0
DICTIONARY
  5
19
102
{ACAD_REACTORS
330
C
102
}
100
AcDbDictionary
281
1
  0
DICTIONARY
  5
1A
102
{ACAD_REACTORS
330
C
102
}
100
AcDbDictionary
281
1
  3
Model
350
786
  3
Layout1
350
787
  0
ACDBPLACEHOLDER
  5
F
102
{ACAD_REACTORS
330
E
102
}
  0
MLINESTYLE
  5
18
102
{ACAD_REACTORS
330
17
102
}
100
AcDbMlineStyle
  2
STANDARD
 70
0
  3

 62
256
 51
90.0
 52
90.0
 71
2
 49
0.5
 62
256
  6
BYLAYER
 49
-0.5
 62
256
  6
BYLAYER
  0
LAYOUT
  5
786
102
{ACAD_REACTORS
330
1A
102
}
100
AcDbPlotSettings
  1

  2
none_device
  4
ISO_A4_(297.00_x_210.00_MM)
  6

 40
0.0
 41
0.0
 42
0.0
 43
0.0
 44
297.0
 45
210.0
 46
0.0
 47
0.0
 48
0.0
 49
0.0
140
0.0
141
0.0
142
1.0
143
1.0
 70
1024
 72
1
 73
0
 74
0
  7

 75
0
147
1.0
148
0.0
149
0.0
100
AcDbLayout
  1
Model
 70
0
 71
0
 10
0.0
 20
0.0
 11
297.0
 21
210.0
 12
0.0
 22
0.0
 32
0.0
 14
0.0
 24
0.0
 34
0.0
 15
0.0
 25
0.0
 35
0.0
146
0.0
 13
0.0
 23
0.0
 33
0.0
 16
1.0
 26
0.0
 36
0.0
 17
0.0
 27
1.0
 37
0.0
 76
0
330
211
345
0
346
0
  0
LAYOUT
  5
787
102
{ACAD_REACTORS
330
1A
102
}
100
AcDbPlotSettings
  1

  2
none_device
  4
ISO_A4_(297.00_x_210.00_MM)
  6

 40
0.0
 41
0.0
 42
0.0
 43
0.0
 44
297.0
 45
210.0
 46
0.0
 47
0.0
 48
0.0
 49
0.0
140
0.0
141
0.0
142
1.0
143
1.0
 70
0
 72
1
 73
0
 74
0
  7

 75
0
147
1.0
148
0.0
149
0.0
100
AcDbLayout
  1
Layout1
 70
0
 71
1
 10
0.0
 20
0.0
 11
297.0
 21
210.0
 12
0.0
 22
0.0
 32
0.0
 14
0.0
 24
0.0
 34
0.0
 15
0.0
 25
0.0
 35
0.0
146
0.0
 13
0.0
 23
0.0
 33
0.0
 16
1.0
 26
0.0
 36
0.0
 17
0.0
 27
1.0
 37
0.0
 76
0
330
212
345
0
346
0
  0
ENDSEC
  0
EOF
