  0
SECTION
  2
HEADER
  9
$ACADVER
  1
AC1015
  9
$DWGCODEPAGE
  3
ANSI_1252
  9
$EXTMAX
 10
297.0
 20
210.0
 30
0.0
  9
$EXTMIN
 10
0.0
 20
0.0
 30
0.0
  9
$LIMMIN
 10
0.0
 20
0.0
  9
$LIMMAX
 10
297.0
 20
210.0
  9
$VIEWCTR
 10
148.5
 20
105.0
  9
$VIEWSIZE
 40
210.0
  9
$CLAYER
  8
0
  9
$LTSCALE
 40
16.335
  9
$CELTYPE
  6
BYLAYER
  9
$DIMSCALE
 40
1.0
  9
$DIMASZ
 40
3.0
  9
$DIMEXO
 40
1.85625
  9
$DIMDLI
 40
11.286
  9
$DIMEXE
 40
5.346
  9
$DIMCEN
 40
2.673
  9
$DIMLFAC
 40
1.0
  9
$DIMBLK
  1
_FILLED
  9
$DIMTXT
 40
3.0
  9
$DIMTOL
 70
1
  9
$DIMLIM
 70
0
  9
$DIMTFAC
 40
1.0
  9
$DIMTP
 40
0.01
  9
$DIMTM
 40
0.01
  9
$PDMODE
 70
3
  9
$PDSIZE
 40
3.0
  9
$HANDSEED
  5
706
  9
$TILEMODE
 70
1
  9
$MEASUREMENT
 70
1
  9
$INSUNITS
 70
4
  0
ENDSEC
  0
SECTION
  2
CLASSES
  0
CLASS
  1
ACDBDICTIONARYWDFLT
  2
AcDbDictionaryWithDefault
  3
AutoCAD 2000
 90
0
280
0
281
0
  0
CLASS
  1
ACDBPLACEHOLDER
  2
AcDbPlaceHolder
  3
AutoCAD 2000
 90
0
280
0
281
0
  0
CLASS
  1
LAYOUT
  2
AcDbLayout
  3
AutoCAD 2000
 90
0
280
0
281
0
  0
ENDSEC
  0
SECTION
  2
TABLES
  0
TABLE
  2
VPORT
  5
8
100
AcDbSymbolTable
 70
2
  0
VPORT
  5
1F4
100
AcDbSymbolTableRecord
100
AcDbViewportTableRecord
  2
*ACTIVE
 70
0
 10
0.0
 20
0.0
 11
1.0
 21
1.0
 12
148.5
 22
105.0
 13
0.0
 23
0.0
 14
1.0
 24
1.0
 15
0.0
 25
0.0
 16
0.0
 26
0.0
 36
1.0
 17
0.0
 27
0.0
 37
0.0
 40
210.0
 41
1.4142857143
 42
50.0
 43
0.0
 44
0.0
 50
0.0
 51
0.0
 71
0
 72
100
 73
1
 74
1
 75
0
 76
0
 77
0
 78
0
  0
ENDTAB
  0
TABLE
  2
LTYPE
  5
5
100
AcDbSymbolTable
 70
6
  0
LTYPE
  5
14
100
AcDbSymbolTableRecord
100
AcDbLinetypeTableRecord
  2
BYBLOCK
 70
0
  3

 72
65
 73
0
 40
0.0
  0
LTYPE
  5
15
100
AcDbSymbolTableRecord
100
AcDbLinetypeTableRecord
  2
BYLAYER
 70
0
  3

 72
65
 73
0
 40
0.0
  0
LTYPE
  5
16
100
AcDbSymbolTableRecord
100
AcDbLinetypeTableRecord
  2
CONTINUOUS
 70
64
  3
Solid line
 72
65
 73
0
 40
0.0
  0
LTYPE
  5
1F5
100
AcDbSymbolTableRecord
100
AcDbLinetypeTableRecord
  2
CENTER
 70
64
  3
____ _ ____ _ ____ _ ____ _ ____ _ ____ _ ____
 72
65
 73
4
 40
0.6
 49
0.375
 74
0
 49
-0.075
 74
0
 49
0.075
 74
0
 49
-0.075
 74
0
  0
LTYPE
  5
1F6
100
AcDbSymbolTableRecord
100
AcDbLinetypeTableRecord
  2
HIDDEN
 70
64
  3
- - - - - - - - - - - - - - - - - - - -
 72
65
 73
2
 40
0.2
 49
0.1
 74
0
 49
-0.1
 74
0
  0
LTYPE
  5
1F7
100
AcDbSymbolTableRecord
100
AcDbLinetypeTableRecord
  2
PHANTOM
 70
64
  3
_____ _ _ _____ _ _ _____ _ _ _____
 72
65
 73
6
 40
0.8
 49
0.45
 74
0
 49
-0.05
 74
0
 49
0.1
 74
0
 49
-0.05
 74
0
 49
0.1
 74
0
 49
-0.05
 74
0
  0
LTYPE
  5
1F8
100
AcDbSymbolTableRecord
100
AcDbLinetypeTableRecord
  2
DOT
 70
64
  3
. . . . . . . . . . . . . . . . . . . .
 72
65
 73
2
 40
0.2
 49
0.1
 74
0
 49
-0.1
 74
0
  0
LTYPE
  5
1F9
100
AcDbSymbolTableRecord
100
AcDbLinetypeTableRecord
  2
DASHED
 70
64
  3
- - - - - - - - - - - - - - - - - - - -
 72
65
 73
2
 40
0.2
 49
0.1
 74
0
 49
-0.1
 74
0
  0
ENDTAB
  0
TABLE
  2
LAYER
  5
2
100
AcDbSymbolTable
 70
36
  0
LAYER
  5
10
100
AcDbSymbolTableRecord
100
AcDbLayerTableRecord
  2
0
 70
0
 62
7
  6
CONTINUOUS
370
-3
390
F
  0
LAYER
  5
1FA
100
AcDbSymbolTableRecord
100
AcDbLayerTableRecord
  2
DEFAULT_1
 70
0
 62
7
  6
CENTER
370
-3
390
F
  0
LAYER
  5
1FB
100
AcDbSymbolTableRecord
100
AcDbLayerTableRecord
  2
DEFAULT_2
 70
0
 62
7
  6
HIDDEN
370
-3
390
F
  0
LAYER
  5
1FC
100
AcDbSymbolTableRecord
100
AcDbLayerTableRecord
  2
DEFAULT_3
 70
0
 62
7
  6
PHANTOM
370
-3
390
F
  0
LAYER
  5
1FD
100
AcDbSymbolTableRecord
100
AcDbLayerTableRecord
  2
ASSI
 70
0
 62
7
  6
CONTINUOUS
370
-3
390
F
  0
LAYER
  5
1FE
100
AcDbSymbolTableRecord
100
AcDbLayerTableRecord
  2
COORDINATE
 70
0
 62
7
  6
CONTINUOUS
370
-3
390
F
  0
LAYER
  5
1FF
100
AcDbSymbolTableRecord
100
AcDbLayerTableRecord
  2
COORD_ORIGINE
 70
0
 62
7
  6
CONTINUOUS
370
-3
390
F
  0
LAYER
  5
200
100
AcDbSymbolTableRecord
100
AcDbLayerTableRecord
  2
COPY_PUBLISH
 70
0
 62
7
  6
CONTINUOUS
370
-3
390
F
  0
LAYER
  5
201
100
AcDbSymbolTableRecord
100
AcDbLayerTableRecord
  2
COSMETIC
 70
0
 62
7
  6
CONTINUOUS
370
-3
390
F
  0
LAYER
  5
202
100
AcDbSymbolTableRecord
100
AcDbLayerTableRecord
  2
CURVE
 70
0
 62
7
  6
CONTINUOUS
370
-3
390
F
  0
LAYER
  5
203
100
AcDbSymbolTableRecord
100
AcDbLayerTableRecord
  2
DRAFT
 70
0
 62
7
  6
CONTINUOUS
370
-3
390
F
  0
LAYER
  5
204
100
AcDbSymbolTableRecord
100
AcDbLayerTableRecord
  2
IGES
 70
0
 62
7
  6
CONTINUOUS
370
-3
390
F
  0
LAYER
  5
205
100
AcDbSymbolTableRecord
100
AcDbLayerTableRecord
  2
IMPORT_IGES
 70
0
 62
7
  6
CONTINUOUS
370
-3
390
F
  0
LAYER
  5
206
100
AcDbSymbolTableRecord
100
AcDbLayerTableRecord
  2
INTF_12
 70
0
 62
7
  6
CONTINUOUS
370
-3
390
F
  0
LAYER
  5
207
100
AcDbSymbolTableRecord
100
AcDbLayerTableRecord
  2
INTF_9
 70
0
 62
7
  6
CONTINUOUS
370
-3
390
F
  0
LAYER
  5
208
100
AcDbSymbolTableRecord
100
AcDbLayerTableRecord
  2
NOTE
 70
0
 62
7
  6
CONTINUOUS
370
-3
390
F
  0
LAYER
  5
209
100
AcDbSymbolTableRecord
100
AcDbLayerTableRecord
  2
PIANI
 70
0
 62
7
  6
CONTINUOUS
370
-3
390
F
  0
LAYER
  5
20A
100
AcDbSymbolTableRecord
100
AcDbLayerTableRecord
  2
PIANI_ORIGINE
 70
0
 62
7
  6
CONTINUOUS
370
-3
390
F
  0
LAYER
  5
20B
100
AcDbSymbolTableRecord
100
AcDbLayerTableRecord
  2
RACCORDO
 70
0
 62
7
  6
CONTINUOUS
370
-3
390
F
  0
LAYER
  5
20C
100
AcDbSymbolTableRecord
100
AcDbLayerTableRecord
  2
SMUSSO
 70
0
 62
7
  6
CONTINUOUS
370
-3
390
F
  0
LAYER
  5
20D
100
AcDbSymbolTableRecord
100
AcDbLayerTableRecord
  2
SNAPLINE
 70
0
 62
7
  6
CONTINUOUS
370
-3
390
F
  0
LAYER
  5
20E
100
AcDbSymbolTableRecord
100
AcDbLayerTableRecord
  2
SUPERFICI
 70
0
 62
7
  6
CONTINUOUS
370
-3
390
F
  0
LAYER
  5
20F
100
AcDbSymbolTableRecord
100
AcDbLayerTableRecord
  2
TRASH
 70
0
 62
7
  6
CONTINUOUS
370
-3
390
F
  0
ENDTAB
  0
TABLE
  2
STYLE
  5
3
100
AcDbSymbolTable
 70
1
  0
STYLE
  5
11
100
AcDbSymbolTableRecord
100
AcDbTextStyleTableRecord
  2
STANDARD
 70
0
 40
0.0
 41
0.8
 50
0.0
 71
0
 42
0.2
  3
txt
  4

  0
STYLE
  5
210
100
AcDbSymbolTableRecord
100
AcDbTextStyleTableRecord
  2
TEXTSTYLE_1
 70
0
 40
0.0
 41
0.8
 50
0.0
 71
0
 42
0.2
  3
gdt
  4

  0
ENDTAB
  0
TABLE
  2
VIEW
  5
6
100
AcDbSymbolTable
 70
0
  0
ENDTAB
  0
TABLE
  2
UCS
  5
7
100
AcDbSymbolTable
 70
0
  0
ENDTAB
  0
TABLE
  2
APPID
  5
9
100
AcDbSymbolTable
 70
1
  0
APPID
  5
211
100
AcDbSymbolTableRecord
100
AcDbRegAppTableRecord
  2
ACAD
 70
0
  0
ENDTAB
  0
TABLE
  2
BLOCK_RECORD
  5
1
100
AcDbSymbolTable
 70
0
  0
BLOCK_RECORD
  5
212
100
AcDbSymbolTableRecord
100
AcDbBlockTableRecord
  2
*Model_Space
  0
BLOCK_RECORD
  5
213
100
AcDbSymbolTableRecord
100
AcDbBlockTableRecord
  2
*Paper_Space
  0
ENDTAB
  0
TABLE
  2
DIMSTYLE
  5
A
100
AcDbSymbolTable
 70
1
100
AcDbDimStyleTable
 71
0
  0
DIMSTYLE
105
214
100
AcDbSymbolTableRecord
100
AcDbDimStyleTableRecord
  2
STANDARD
 70
0
  3

  4

 40
1.0
 41
3.0
 42
0.0625
 43
0.38
 44
0.18
 45
0.0
 46
0.0
 47
0.01
 48
0.01
140
3.0
141
0.09
142
0.0
143
25.4
144
1.0
145
0.0
146
1.0
147
0.09
 71
1.0
 72
0.0
 73
0
 74
0
 75
0
 76
0
 77
1
 78
8
170
0
171
2
172
0
173
0
174
0
175
0
176
0
177
0
178
0
270
2
271
2
272
2
273
2
274
2
275
0
280
0
281
0
282
0
283
1
284
8
285
0
286
0
287
3
288
0
340
11
  0
ENDTAB
  0
ENDSEC
  0
SECTION
  2
BLOCKS
  0
BLOCK
  5
20
100
AcDbEntity
  8
0
100
AcDbBlockBegin
  2
*Model_Space
 70
0
 10
0.0
 20
0.0
 30
0.0
  3
*Model_Space
  1

  0
ENDBLK
  5
21
100
AcDbEntity
  8
0
100
AcDbBlockEnd
  0
BLOCK
  5
1C
100
AcDbEntity
  8
0
100
AcDbBlockBegin
  2
*Paper_Space
 70
0
 10
0.0
 20
0.0
 30
0.0
  3
*Paper_Space
  1

  0
ENDBLK
  5
1D
100
AcDbEntity
  8
0
100
AcDbBlockEnd
  0
ENDSEC
  0
SECTION
  2
ENTITIES
  0
LINE
  5
215
100
AcDbEntity
  8
RACCORDO
100
AcDbLine
 62
7
  6
CONTINUOUS
 10
-11.1199780978
 20
7.9297663649
 11
-11.1181412014
 21
7.9316032612
  0
LINE
  5
216
100
AcDbEntity
  8
ASSI
100
AcDbLine
 62
7
  6
CONTINUOUS
 10
-11.1199780978
 20
7.9297663649
 11
-11.1181412014
 21
7.9316032612
  0
LINE
  5
217
100
AcDbEntity
  8
RACCORDO
100
AcDbLine
 62
7
  6
CONTINUOUS
 10
-12.20648502
 20
-9.0541689459
 11
-12.2199780978
 21
-1.699394851
  0
LINE
  5
218
100
AcDbEntity
  8
ASSI
100
AcDbLine
 62
7
  6
CONTINUOUS
 10
-12.20648502
 20
-9.0541689459
 11
-12.2199780978
 21
-1.699394851
  0
LINE
  5
219
100
AcDbEntity
  8
DRAFT
100
AcDbLine
 62
7
  6
CONTINUOUS
 10
-12.2199780978
 20
7.9297663649
 11
-12.2199780978
 21
-1.699394851
  0
LINE
  5
21A
100
AcDbEntity
  8
ASSI
100
AcDbLine
 62
7
  6
CONTINUOUS
 10
-12.2199780978
 20
7.9297663649
 11
-12.2199780978
 21
-1.699394851
  0
LINE
  5
21B
100
AcDbEntity
  8
RACCORDO
100
AcDbLine
 62
7
  6
CONTINUOUS
 10
-12.2129960718
 20
8.2315575698
 11
-12.2129960718
 21
8.9321696359
  0
LINE
  5
21C
100
AcDbEntity
  8
ASSI
100
AcDbLine
 62
7
  6
CONTINUOUS
 10
-12.2129960718
 20
8.2315575698
 11
-12.2129960718
 21
8.9321696359
  0
LINE
  5
21D
100
AcDbEntity
  8
RACCORDO
100
AcDbLine
 62
7
  6
CONTINUOUS
 10
-11.0955410069
 20
-6.7759762845
 11
-11.048503359
 21
-6.8230139323
  0
LINE
  5
21E
100
AcDbEntity
  8
ASSI
100
AcDbLine
 62
7
  6
CONTINUOUS
 10
-11.0955410069
 20
-6.7759762845
 11
-11.048503359
 21
-6.8230139323
  0
LINE
  5
21F
100
AcDbEntity
  8
DRAFT
100
AcDbLine
 62
7
  6
CONTINUOUS
 10
-11.1154705119
 20
-4.1563788285
 11
-11.1060268423
 21
-9.3039113179
  0
LINE
  5
220
100
AcDbEntity
  8
ASSI
100
AcDbLine
 62
7
  6
CONTINUOUS
 10
-11.1154705119
 20
-4.1563788285
 11
-11.1060268423
 21
-9.3039113179
  0
LINE
  5
221
100
AcDbEntity
  8
DRAFT
100
AcDbLine
 62
7
  6
CONTINUOUS
 10
-11.4154705119
 20
-4.1563788285
 11
-11.4199780978
 21
-1.6608864144
  0
LINE
  5
222
100
AcDbEntity
  8
ASSI
100
AcDbLine
 62
7
  6
CONTINUOUS
 10
-11.4154705119
 20
-4.1563788285
 11
-11.4199780978
 21
-1.6608864144
  0
LINE
  5
223
100
AcDbEntity
  8
DRAFT
100
AcDbLine
 62
7
  6
CONTINUOUS
 10
-11.1199780978
 20
7.9297663649
 11
-11.1199780978
 21
-1.6608864144
  0
LINE
  5
224
100
AcDbEntity
  8
ASSI
100
AcDbLine
 62
7
  6
CONTINUOUS
 10
-11.1199780978
 20
7.9297663649
 11
-11.1199780978
 21
-1.6608864144
  0
LINE
  5
225
100
AcDbEntity
  8
RACCORDO
100
AcDbLine
 62
7
  6
CONTINUOUS
 10
-11.1129960718
 20
8.2315575698
 11
-11.1129960718
 21
8.0414787804
  0
LINE
  5
226
100
AcDbEntity
  8
ASSI
100
AcDbLine
 62
7
  6
CONTINUOUS
 10
-11.1129960718
 20
8.2315575698
 11
-11.1129960718
 21
8.0414787804
  0
LINE
  5
227
100
AcDbEntity
  8
RACCORDO
100
AcDbLine
 62
7
  6
CONTINUOUS
 10
-11.1060140458
 20
-9.303908119
 11
-11.1060140458
 21
-7.9161200453
  0
LINE
  5
228
100
AcDbEntity
  8
ASSI
100
AcDbLine
 62
7
  6
CONTINUOUS
 10
-11.1060140458
 20
-9.303908119
 11
-11.1060140458
 21
-7.9161200453
  0
LINE
  5
229
100
AcDbEntity
  8
DRAFT
100
AcDbLine
 62
7
  6
CONTINUOUS
 10
-11.1025230328
 20
-1.0527785702
 11
-11.1025230328
 21
-1.6783414793
  0
LINE
  5
22A
100
AcDbEntity
  8
ASSI
100
AcDbLine
 62
7
  6
CONTINUOUS
 10
-11.1025230328
 20
-1.0527785702
 11
-11.1025230328
 21
-1.6783414793
  0
LINE
  5
22B
100
AcDbEntity
  8
DRAFT
100
AcDbLine
 62
7
  6
CONTINUOUS
 10
-11.1025230328
 20
-4.1434313494
 11
-11.1025230328
 21
-4.7689942585
  0
LINE
  5
22C
100
AcDbEntity
  8
ASSI
100
AcDbLine
 62
7
  6
CONTINUOUS
 10
-11.1025230328
 20
-4.1434313494
 11
-11.1025230328
 21
-4.7689942585
  0
LINE
  5
22D
100
AcDbEntity
  8
DRAFT
100
AcDbLine
 62
7
  6
CONTINUOUS
 10
-11.0955410069
 20
1.7542034558
 11
-11.0955410069
 21
1.1240237155
  0
LINE
  5
22E
100
AcDbEntity
  8
ASSI
100
AcDbLine
 62
7
  6
CONTINUOUS
 10
-11.0955410069
 20
1.7542034558
 11
-11.0955410069
 21
1.1240237155
  0
LINE
  5
22F
100
AcDbEntity
  8
DRAFT
100
AcDbLine
 62
7
  6
CONTINUOUS
 10
-11.0955410069
 20
-6.1457965442
 11
-11.0955410069
 21
-6.7759762845
  0
LINE
  5
230
100
AcDbEntity
  8
ASSI
100
AcDbLine
 62
7
  6
CONTINUOUS
 10
-11.0955410069
 20
-6.1457965442
 11
-11.0955410069
 21
-6.7759762845
  0
LINE
  5
231
100
AcDbEntity
  8
RACCORDO
100
AcDbLine
 62
7
  6
CONTINUOUS
 10
-9.7527050496
 20
-6.8281594625
 11
-9.799743098
 21
-6.7811214141
  0
LINE
  5
232
100
AcDbEntity
  8
ASSI
100
AcDbLine
 62
7
  6
CONTINUOUS
 10
-9.7527050496
 20
-6.8281594625
 11
-9.799743098
 21
-6.7811214141
  0
LINE
  5
233
100
AcDbEntity
  8
RACCORDO
100
AcDbLine
 62
7
  6
CONTINUOUS
 10
-11.1025230328
 20
-4.7689942585
 11
-11.0472490119
 21
-4.8242682794
  0
LINE
  5
234
100
AcDbEntity
  8
ASSI
100
AcDbLine
 62
7
  6
CONTINUOUS
 10
-11.1025230328
 20
-4.7689942585
 11
-11.0472490119
 21
-4.8242682794
  0
LINE
  5
235
100
AcDbEntity
  8
DRAFT
100
AcDbLine
 62
7
  6
CONTINUOUS
 10
-10.3374331627
 20
-4.1434313494
 11
-10.3374331627
 21
-1.6783414793
  0
LINE
  5
236
100
AcDbEntity
  8
ASSI
100
AcDbLine
 62
7
  6
CONTINUOUS
 10
-10.3374331627
 20
-4.1434313494
 11
-10.3374331627
 21
-1.6783414793
  0
LINE
  5
237
100
AcDbEntity
  8
RACCORDO
100
AcDbLine
 62
253
  6
CONTINUOUS
 10
-10.0996974066
 20
-6.7759762845
 11
-10.0996974066
 21
-6.1457965442
  0
LINE
  5
238
100
AcDbEntity
  8
ASSI
100
AcDbLine
 62
253
  6
CONTINUOUS
 10
-10.0996974066
 20
-6.7759762845
 11
-10.0996974066
 21
-6.1457965442
  0
LINE
  5
239
100
AcDbEntity
  8
RACCORDO
100
AcDbLine
 62
253
  6
CONTINUOUS
 10
-10.0996974066
 20
1.1240237155
 11
-10.0996974066
 21
1.7542034558
  0
LINE
  5
23A
100
AcDbEntity
  8
ASSI
100
AcDbLine
 62
253
  6
CONTINUOUS
 10
-10.0996974066
 20
1.1240237155
 11
-10.0996974066
 21
1.7542034558
  0
LINE
  5
23B
100
AcDbEntity
  8
DRAFT
100
AcDbLine
 62
7
  6
CONTINUOUS
 10
-10.0699780978
 20
-4.7689942585
 11
-10.0699780978
 21
-1.0527785702
  0
LINE
  5
23C
100
AcDbEntity
  8
ASSI
100
AcDbLine
 62
7
  6
CONTINUOUS
 10
-10.0699780978
 20
-4.7689942585
 11
-10.0699780978
 21
-1.0527785702
  0
LINE
  5
23D
100
AcDbEntity
  8
RACCORDO
100
AcDbLine
 62
253
  6
CONTINUOUS
 10
-10.7443115865
 20
1.8106228596
 11
-10.7431709526
 21
7.9664628697
  0
LINE
  5
23E
100
AcDbEntity
  8
ASSI
100
AcDbLine
 62
253
  6
CONTINUOUS
 10
-10.7443115865
 20
1.8106228596
 11
-10.7431709526
 21
7.9664628697
  0
LINE
  5
23F
100
AcDbEntity
  8
RACCORDO
100
AcDbLine
 62
253
  6
CONTINUOUS
 10
-10.7453472114
 20
-0.990413499
 11
-10.7445547229
 21
1.0678476204
  0
LINE
  5
240
100
AcDbEntity
  8
ASSI
100
AcDbLine
 62
253
  6
CONTINUOUS
 10
-10.7453472114
 20
-0.990413499
 11
-10.7445547229
 21
1.0678476204
  0
LINE
  5
241
100
AcDbEntity
  8
RACCORDO
100
AcDbLine
 62
253
  6
CONTINUOUS
 10
-10.7480648746
 20
-6.0931330886
 11
-10.747291818
 21
-4.8294133454
  0
LINE
  5
242
100
AcDbEntity
  8
ASSI
100
AcDbLine
 62
253
  6
CONTINUOUS
 10
-10.7480648746
 20
-6.0931330886
 11
-10.747291818
 21
-4.8294133454
  0
LINE
  5
243
100
AcDbEntity
  8
RACCORDO
100
AcDbLine
 62
253
  6
CONTINUOUS
 10
-10.748899463
 20
-7.3505528092
 11
-10.7485448128
 21
-6.828159463
  0
LINE
  5
244
100
AcDbEntity
  8
ASSI
100
AcDbLine
 62
253
  6
CONTINUOUS
 10
-10.748899463
 20
-7.3505528092
 11
-10.7485448128
 21
-6.828159463
  0
LINE
  5
245
100
AcDbEntity
  8
RACCORDO
100
AcDbLine
 62
253
  6
CONTINUOUS
 10
-11.1060140458
 20
-7.9161200453
 11
-11.0488537716
 21
-7.338700333
  0
LINE
  5
246
100
AcDbEntity
  8
ASSI
100
AcDbLine
 62
253
  6
CONTINUOUS
 10
-11.1060140458
 20
-7.9161200453
 11
-11.0488537716
 21
-7.338700333
  0
LINE
  5
247
100
AcDbEntity
  8
RACCORDO
100
AcDbLine
 62
7
  6
CONTINUOUS
 10
-7.4751232274
 20
7.983968456
 11
-7.4926288137
 21
7.9664628697
  0
LINE
  5
248
100
AcDbEntity
  8
ASSI
100
AcDbLine
 62
7
  6
CONTINUOUS
 10
-7.4751232274
 20
7.983968456
 11
-7.4926288137
 21
7.9664628697
  0
LINE
  5
249
100
AcDbEntity
  8
DRAFT
100
AcDbLine
 62
7
  6
CONTINUOUS
 10
-10.3374331627
 20
-4.1434313494
 11
-10.3982784477
 21
-4.0825860644
  0
LINE
  5
24A
100
AcDbEntity
  8
ASSI
100
AcDbLine
 62
7
  6
CONTINUOUS
 10
-10.3374331627
 20
-4.1434313494
 11
-10.3982784477
 21
-4.0825860644
  0
LINE
  5
24B
100
AcDbEntity
  8
DRAFT
100
AcDbLine
 62
7
  6
CONTINUOUS
 10
-9.8199780978
 20
-0.9904134992
 11
-9.8199780978
 21
-1.0269286645
  0
LINE
  5
24C
100
AcDbEntity
  8
ASSI
100
AcDbLine
 62
7
  6
CONTINUOUS
 10
-9.8199780978
 20
-0.9904134992
 11
-9.8199780978
 21
-1.0269286645
  0
LINE
  5
24D
100
AcDbEntity
  8
DRAFT
100
AcDbLine
 62
7
  6
CONTINUOUS
 10
-9.8199780978
 20
-4.7948441643
 11
-9.8199780978
 21
-4.8294133451
  0
LINE
  5
24E
100
AcDbEntity
  8
ASSI
100
AcDbLine
 62
7
  6
CONTINUOUS
 10
-9.8199780978
 20
-4.7948441643
 11
-9.8199780978
 21
-4.8294133451
  0
LINE
  5
24F
100
AcDbEntity
  8
RACCORDO
100
AcDbLine
 62
253
  6
CONTINUOUS
 10
-9.799743098
 20
-6.7811214141
 11
-9.799743098
 21
-6.1406514146
  0
LINE
  5
250
100
AcDbEntity
  8
ASSI
100
AcDbLine
 62
253
  6
CONTINUOUS
 10
-9.799743098
 20
-6.7811214141
 11
-9.799743098
 21
-6.1406514146
  0
LINE
  5
251
100
AcDbEntity
  8
RACCORDO
100
AcDbLine
 62
253
  6
CONTINUOUS
 10
-9.799743098
 20
1.1188785859
 11
-9.799743098
 21
1.7593485854
  0
LINE
  5
252
100
AcDbEntity
  8
ASSI
100
AcDbLine
 62
253
  6
CONTINUOUS
 10
-9.799743098
 20
1.1188785859
 11
-9.799743098
 21
1.7593485854
  0
LINE
  5
253
100
AcDbEntity
  8
DRAFT
100
AcDbLine
 62
7
  6
CONTINUOUS
 10
-9.4199780978
 20
-4.7908130897
 11
-9.4199780978
 21
-1.030959739
  0
LINE
  5
254
100
AcDbEntity
  8
ASSI
100
AcDbLine
 62
7
  6
CONTINUOUS
 10
-9.4199780978
 20
-4.7908130897
 11
-9.4199780978
 21
-1.030959739
  0
LINE
  5
255
100
AcDbEntity
  8
RACCORDO
100
AcDbLine
 62
253
  6
CONTINUOUS
 10
-10.8068776595
 20
-8.2198248298
 11
-10.7488994617
 21
-7.6341426454
  0
LINE
  5
256
100
AcDbEntity
  8
ASSI
100
AcDbLine
 62
253
  6
CONTINUOUS
 10
-10.8068776595
 20
-8.2198248298
 11
-10.7488994617
 21
-7.6341426454
  0
LINE
  5
257
100
AcDbEntity
  8
RACCORDO
100
AcDbLine
 62
7
  6
CONTINUOUS
 10
-11.0442691803
 20
1.8054752824
 11
-11.0955410069
 21
1.7542034558
  0
LINE
  5
258
100
AcDbEntity
  8
ASSI
100
AcDbLine
 62
7
  6
CONTINUOUS
 10
-11.0442691803
 20
1.8054752824
 11
-11.0955410069
 21
1.7542034558
  0
LINE
  5
259
100
AcDbEntity
  8
RACCORDO
100
AcDbLine
 62
7
  6
CONTINUOUS
 10
12.1160706454
 20
-9.3039113179
 11
11.2660706468
 21
-9.3039113179
  0
LINE
  5
25A
100
AcDbEntity
  8
RACCORDO
100
AcDbLine
 62
7
  6
CONTINUOUS
 10
-11.1060268423
 20
-9.3039113179
 11
-11.9560268409
 21
-9.3039113179
  0
LINE
  5
25B
100
AcDbEntity
  8
DRAFT
100
AcDbLine
 62
7
  6
CONTINUOUS
 10
-11.1060236432
 20
-9.3039097185
 11
11.2660674477
 21
-9.3039097185
  0
LINE
  5
25C
100
AcDbEntity
  8
ASSI
100
AcDbLine
 62
7
  6
CONTINUOUS
 10
-11.9560268409
 20
-9.3039113179
 11
12.1160706454
 21
-9.3039113179
  0
LINE
  5
25D
100
AcDbEntity
  8
DRAFT
100
AcDbLine
 62
7
  6
CONTINUOUS
 10
-11.4199780978
 20
-1.6608864144
 11
-11.3404903397
 21
-1.7403741724
  0
LINE
  5
25E
100
AcDbEntity
  8
ASSI
100
AcDbLine
 62
7
  6
CONTINUOUS
 10
-11.4199780978
 20
-1.6608864144
 11
-11.3404903397
 21
-1.7403741724
  0
LINE
  5
25F
100
AcDbEntity
  8
DRAFT
100
AcDbLine
 62
7
  6
CONTINUOUS
 10
-8.4324440883
 20
9.1821315597
 11
-8.4324440883
 21
8.0414787804
  0
LINE
  5
260
100
AcDbEntity
  8
ASSI
100
AcDbLine
 62
7
  6
CONTINUOUS
 10
-8.4324440883
 20
9.1821315597
 11
-8.4324440883
 21
8.0414787804
  0
LINE
  5
261
100
AcDbEntity
  8
DRAFT
100
AcDbLine
 62
7
  6
CONTINUOUS
 10
-8.1699780978
 20
9.1297663649
 11
-8.1699780978
 21
7.9891135856
  0
LINE
  5
262
100
AcDbEntity
  8
ASSI
100
AcDbLine
 62
7
  6
CONTINUOUS
 10
-8.1699780978
 20
9.1297663649
 11
-8.1699780978
 21
7.9891135856
  0
LINE
  5
263
100
AcDbEntity
  8
RACCORDO
100
AcDbLine
 62
7
  6
CONTINUOUS
 10
-9.7484688239
 20
1.8106228595
 11
-9.799743098
 21
1.7593485854
  0
LINE
  5
264
100
AcDbEntity
  8
ASSI
100
AcDbLine
 62
7
  6
CONTINUOUS
 10
-9.7484688239
 20
1.8106228595
 11
-9.799743098
 21
1.7593485854
  0
LINE
  5
265
100
AcDbEntity
  8
RACCORDO
100
AcDbLine
 62
7
  6
CONTINUOUS
 10
-10.8068776595
 20
-8.2198248298
 11
10.9669214639
 21
-8.2198248298
  0
LINE
  5
266
100
AcDbEntity
  8
ASSI
100
AcDbLine
 62
7
  6
CONTINUOUS
 10
-10.8068776595
 20
-8.2198248298
 11
10.9669214639
 21
-8.2198248298
  0
LINE
  5
267
100
AcDbEntity
  8
DRAFT
100
AcDbLine
 62
7
  6
CONTINUOUS
 10
-11.1199780978
 20
-1.6608864144
 11
-11.1025230328
 21
-1.6783414793
  0
LINE
  5
268
100
AcDbEntity
  8
ASSI
100
AcDbLine
 62
7
  6
CONTINUOUS
 10
-11.1199780978
 20
-1.6608864144
 11
-11.1025230328
 21
-1.6783414793
  0
LINE
  5
269
100
AcDbEntity
  8
RACCORDO
100
AcDbLine
 62
253
  6
CONTINUOUS
 10
-5.9548735253
 20
-6.5759452954
 11
-5.9251232274
 21
-6.6056955933
  0
LINE
  5
26A
100
AcDbEntity
  8
ASSI
100
AcDbLine
 62
253
  6
CONTINUOUS
 10
-5.9548735253
 20
-6.5759452954
 11
-5.9251232274
 21
-6.6056955933
  0
LINE
  5
26B
100
AcDbEntity
  8
RACCORDO
100
AcDbLine
 62
253
  6
CONTINUOUS
 10
-5.6551149087
 20
-6.2757952949
 11
-5.6251688858
 21
-6.3057413178
  0
LINE
  5
26C
100
AcDbEntity
  8
ASSI
100
AcDbLine
 62
253
  6
CONTINUOUS
 10
-5.6551149087
 20
-6.2757952949
 11
-5.6251688858
 21
-6.3057413178
  0
LINE
  5
26D
100
AcDbEntity
  8
RACCORDO
100
AcDbLine
 62
253
  6
CONTINUOUS
 10
-7.4586906565
 20
5.1234281607
 11
-7.4710332513
 21
5.8305349419
  0
LINE
  5
26E
100
AcDbEntity
  8
ASSI
100
AcDbLine
 62
253
  6
CONTINUOUS
 10
-7.4586906565
 20
5.1234281607
 11
-7.4710332513
 21
5.8305349419
  0
LINE
  5
26F
100
AcDbEntity
  8
RACCORDO
100
AcDbLine
 62
253
  6
CONTINUOUS
 10
-7.1587363479
 20
5.335560195
 11
-7.1710789427
 21
6.0426669762
  0
LINE
  5
270
100
AcDbEntity
  8
ASSI
100
AcDbLine
 62
253
  6
CONTINUOUS
 10
-7.1587363479
 20
5.335560195
 11
-7.1710789427
 21
6.0426669762
  0
LINE
  5
271
100
AcDbEntity
  8
RACCORDO
100
AcDbLine
 62
253
  6
CONTINUOUS
 10
-7.4751232274
 20
6.3962203668
 11
-7.4751232274
 21
7.983968456
  0
LINE
  5
272
100
AcDbEntity
  8
ASSI
100
AcDbLine
 62
253
  6
CONTINUOUS
 10
-7.4751232274
 20
6.3962203668
 11
-7.4751232274
 21
7.983968456
  0
LINE
  5
273
100
AcDbEntity
  8
RACCORDO
100
AcDbLine
 62
253
  6
CONTINUOUS
 10
-7.4576681625
 20
3.5979172821
 11
-7.4576681625
 21
4.9820068044
  0
LINE
  5
274
100
AcDbEntity
  8
ASSI
100
AcDbLine
 62
253
  6
CONTINUOUS
 10
-7.4576681625
 20
3.5979172821
 11
-7.4576681625
 21
4.9820068044
  0
LINE
  5
275
100
AcDbEntity
  8
RACCORDO
100
AcDbLine
 62
253
  6
CONTINUOUS
 10
-7.1751689188
 20
6.3962047331
 11
-7.1751689188
 21
7.9891135856
  0
LINE
  5
276
100
AcDbEntity
  8
ASSI
100
AcDbLine
 62
253
  6
CONTINUOUS
 10
-7.1751689188
 20
6.3962047331
 11
-7.1751689188
 21
7.9891135856
  0
LINE
  5
277
100
AcDbEntity
  8
RACCORDO
100
AcDbLine
 62
253
  6
CONTINUOUS
 10
-7.1577138539
 20
3.5979172821
 11
-7.1577138539
 21
4.9820068044
  0
LINE
  5
278
100
AcDbEntity
  8
ASSI
100
AcDbLine
 62
253
  6
CONTINUOUS
 10
-7.1577138539
 20
3.5979172821
 11
-7.1577138539
 21
4.9820068044
  0
LINE
  5
279
100
AcDbEntity
  8
RACCORDO
100
AcDbLine
 62
253
  6
CONTINUOUS
 10
-6.9822423416
 20
4.9820068044
 11
-6.9822423416
 21
3.5979172821
  0
LINE
  5
27A
100
AcDbEntity
  8
ASSI
100
AcDbLine
 62
253
  6
CONTINUOUS
 10
-6.9822423416
 20
4.9820068044
 11
-6.9822423416
 21
3.5979172821
  0
LINE
  5
27B
100
AcDbEntity
  8
RACCORDO
100
AcDbLine
 62
253
  6
CONTINUOUS
 10
-6.9647872767
 20
7.9891135856
 11
-6.9647872767
 21
6.3962050302
  0
LINE
  5
27C
100
AcDbEntity
  8
ASSI
100
AcDbLine
 62
253
  6
CONTINUOUS
 10
-6.9647872767
 20
7.9891135856
 11
-6.9647872767
 21
6.3962050302
  0
LINE
  5
27D
100
AcDbEntity
  8
RACCORDO
100
AcDbLine
 62
253
  6
CONTINUOUS
 10
-6.9688772528
 20
6.0426669762
 11
-6.9812198476
 21
5.335560195
  0
LINE
  5
27E
100
AcDbEntity
  8
ASSI
100
AcDbLine
 62
253
  6
CONTINUOUS
 10
-6.9688772528
 20
6.0426669762
 11
-6.9812198476
 21
5.335560195
  0
LINE
  5
27F
100
AcDbEntity
  8
RACCORDO
100
AcDbLine
 62
253
  6
CONTINUOUS
 10
-7.4919234786
 20
3.3671225134
 11
-7.4610982489
 21
3.3979477431
  0
LINE
  5
280
100
AcDbEntity
  8
ASSI
100
AcDbLine
 62
253
  6
CONTINUOUS
 10
-7.4919234786
 20
3.3671225134
 11
-7.4610982489
 21
3.3979477431
  0
LINE
  5
281
100
AcDbEntity
  8
RACCORDO
100
AcDbLine
 62
253
  6
CONTINUOUS
 10
-7.1918929139
 20
3.067244461
 11
-7.1611439403
 21
3.0979934345
  0
LINE
  5
282
100
AcDbEntity
  8
ASSI
100
AcDbLine
 62
253
  6
CONTINUOUS
 10
-7.1918929139
 20
3.067244461
 11
-7.1611439403
 21
3.0979934345
  0
LINE
  5
283
100
AcDbEntity
  8
RACCORDO
100
AcDbLine
 62
7
  6
CONTINUOUS
 10
-11.045306869
 20
-0.9955624063
 11
-11.1025230328
 21
-1.0527785702
  0
LINE
  5
284
100
AcDbEntity
  8
ASSI
100
AcDbLine
 62
7
  6
CONTINUOUS
 10
-11.045306869
 20
-0.9955624063
 11
-11.1025230328
 21
-1.0527785702
  0
LINE
  5
285
100
AcDbEntity
  8
RACCORDO
100
AcDbLine
 62
7
  6
CONTINUOUS
 10
-5.6251689188
 20
-7.9377016607
 11
-5.4147872767
 21
-7.9377016607
  0
LINE
  5
286
100
AcDbEntity
  8
RACCORDO
100
AcDbLine
 62
7
  6
CONTINUOUS
 10
5.7852127233
 20
-7.9377016607
 11
5.5748310812
 21
-7.9377016607
  0
LINE
  5
287
100
AcDbEntity
  8
ASSI
100
AcDbLine
 62
7
  6
CONTINUOUS
 10
-5.6251689188
 20
-7.9377016607
 11
-5.4147872767
 21
-7.9377016607
  0
LINE
  5
288
100
AcDbEntity
  8
ASSI
100
AcDbLine
 62
7
  6
CONTINUOUS
 10
5.7852127233
 20
-7.9377016607
 11
5.5748310812
 21
-7.9377016607
  0
LINE
  5
289
100
AcDbEntity
  8
RACCORDO
100
AcDbLine
 62
253
  6
CONTINUOUS
 10
10.9089432662
 20
-7.6341426454
 11
6.1100719961
 21
-7.6341426454
  0
LINE
  5
28A
100
AcDbEntity
  8
ASSI
100
AcDbLine
 62
253
  6
CONTINUOUS
 10
10.9089432662
 20
-7.6341426454
 11
6.1100719961
 21
-7.6341426454
  0
LINE
  5
28B
100
AcDbEntity
  8
RACCORDO
100
AcDbLine
 62
253
  6
CONTINUOUS
 10
5.2499718084
 20
-7.6341426454
 11
-5.0899280039
 21
-7.6341426454
  0
LINE
  5
28C
100
AcDbEntity
  8
ASSI
100
AcDbLine
 62
253
  6
CONTINUOUS
 10
5.2499718084
 20
-7.6341426454
 11
-5.0899280039
 21
-7.6341426454
  0
LINE
  5
28D
100
AcDbEntity
  8
RACCORDO
100
AcDbLine
 62
253
  6
CONTINUOUS
 10
-5.9500281916
 20
-7.6341426454
 11
-10.7488994617
 21
-7.6341426454
  0
LINE
  5
28E
100
AcDbEntity
  8
ASSI
100
AcDbLine
 62
253
  6
CONTINUOUS
 10
-5.9500281916
 20
-7.6341426454
 11
-10.7488994617
 21
-7.6341426454
  0
LINE
  5
28F
100
AcDbEntity
  8
RACCORDO
100
AcDbLine
 62
253
  6
CONTINUOUS
 10
10.9089432674
 20
-7.3505528092
 11
6.1143951151
 21
-7.3505528092
  0
LINE
  5
290
100
AcDbEntity
  8
ASSI
100
AcDbLine
 62
253
  6
CONTINUOUS
 10
10.9089432674
 20
-7.3505528092
 11
6.1143951151
 21
-7.3505528092
  0
LINE
  5
291
100
AcDbEntity
  8
RACCORDO
100
AcDbLine
 62
253
  6
CONTINUOUS
 10
5.2456486894
 20
-7.3505528092
 11
-5.0856048849
 21
-7.3505528092
  0
LINE
  5
292
100
AcDbEntity
  8
ASSI
100
AcDbLine
 62
253
  6
CONTINUOUS
 10
5.2456486894
 20
-7.3505528092
 11
-5.0856048849
 21
-7.3505528092
  0
LINE
  5
293
100
AcDbEntity
  8
RACCORDO
100
AcDbLine
 62
253
  6
CONTINUOUS
 10
-5.9543513106
 20
-7.3505528092
 11
-10.748899463
 21
-7.3505528092
  0
LINE
  5
294
100
AcDbEntity
  8
ASSI
100
AcDbLine
 62
253
  6
CONTINUOUS
 10
-5.9543513106
 20
-7.3505528092
 11
-10.748899463
 21
-7.3505528092
  0
LINE
  5
295
100
AcDbEntity
  8
RACCORDO
100
AcDbLine
 62
7
  6
CONTINUOUS
 10
-11.0955410069
 20
1.1240237155
 11
-11.0445092877
 21
1.0729919964
  0
LINE
  5
296
100
AcDbEntity
  8
ASSI
100
AcDbLine
 62
7
  6
CONTINUOUS
 10
-11.0955410069
 20
1.1240237155
 11
-11.0445092877
 21
1.0729919964
  0
LINE
  5
297
100
AcDbEntity
  8
RACCORDO
100
AcDbLine
 62
7
  6
CONTINUOUS
 10
-5.9500281916
 20
-7.6341426454
 11
-5.9251232274
 21
-7.8857267655
  0
LINE
  5
298
100
AcDbEntity
  8
ASSI
100
AcDbLine
 62
7
  6
CONTINUOUS
 10
-5.9500281916
 20
-7.6341426454
 11
-5.9251232274
 21
-7.8857267655
  0
LINE
  5
299
100
AcDbEntity
  8
RACCORDO
100
AcDbLine
 62
253
  6
CONTINUOUS
 10
-6.6822880331
 20
4.9820068044
 11
-6.6822880331
 21
3.5979172821
  0
LINE
  5
29A
100
AcDbEntity
  8
ASSI
100
AcDbLine
 62
253
  6
CONTINUOUS
 10
-6.6822880331
 20
4.9820068044
 11
-6.6822880331
 21
3.5979172821
  0
LINE
  5
29B
100
AcDbEntity
  8
RACCORDO
100
AcDbLine
 62
253
  6
CONTINUOUS
 10
-6.6648329682
 20
7.983968456
 11
-6.6648329682
 21
6.3962203668
  0
LINE
  5
29C
100
AcDbEntity
  8
ASSI
100
AcDbLine
 62
253
  6
CONTINUOUS
 10
-6.6648329682
 20
7.983968456
 11
-6.6648329682
 21
6.3962203668
  0
LINE
  5
29D
100
AcDbEntity
  8
RACCORDO
100
AcDbLine
 62
253
  6
CONTINUOUS
 10
-6.6689229443
 20
5.8305349419
 11
-6.6812655391
 21
5.1234281607
  0
LINE
  5
29E
100
AcDbEntity
  8
ASSI
100
AcDbLine
 62
253
  6
CONTINUOUS
 10
-6.6689229443
 20
5.8305349419
 11
-6.6812655391
 21
5.1234281607
  0
LINE
  5
29F
100
AcDbEntity
  8
DRAFT
100
AcDbLine
 62
7
  6
CONTINUOUS
 10
-10.3374331627
 20
-1.6783414793
 11
-10.3994658558
 21
-1.7403741724
  0
LINE
  5
2A0
100
AcDbEntity
  8
ASSI
100
AcDbLine
 62
7
  6
CONTINUOUS
 10
-10.3374331627
 20
-1.6783414793
 11
-10.3994658558
 21
-1.7403741724
  0
LINE
  5
2A1
100
AcDbEntity
  8
0
100
AcDbLine
 62
7
  6
CONTINUOUS
 10
1.4566176318
 20
-6.3437190979
 11
1.7098091417
 21
-6.3083024144
  0
LINE
  5
2A2
100
AcDbEntity
  8
ASSI
100
AcDbLine
 62
7
  6
CONTINUOUS
 10
1.4566176318
 20
-6.3437190979
 11
1.7098091417
 21
-6.3083024144
  0
LINE
  5
2A3
100
AcDbEntity
  8
0
100
AcDbLine
 62
7
  6
CONTINUOUS
 10
0.7332133614
 20
-7.0520524144
 11
1.0225751304
 21
-7.0520524144
  0
LINE
  5
2A4
100
AcDbEntity
  8
ASSI
100
AcDbLine
 62
7
  6
CONTINUOUS
 10
0.7332133614
 20
-7.0520524144
 11
1.0225751304
 21
-7.0520524144
  0
LINE
  5
2A5
100
AcDbEntity
  8
0
100
AcDbLine
 62
7
  6
CONTINUOUS
 10
0.7693835699
 20
-6.8395524144
 11
2.1800219022
 21
-6.8395524144
  0
LINE
  5
2A6
100
AcDbEntity
  8
ASSI
100
AcDbLine
 62
7
  6
CONTINUOUS
 10
0.7693835699
 20
-6.8395524144
 11
2.1800219022
 21
-6.8395524144
  0
LINE
  5
2A7
100
AcDbEntity
  8
RACCORDO
100
AcDbLine
 62
7
  6
CONTINUOUS
 10
-10.7485448128
 20
-6.8281594625
 11
-9.7527050496
 21
-6.8281594625
  0
LINE
  5
2A8
100
AcDbEntity
  8
ASSI
100
AcDbLine
 62
7
  6
CONTINUOUS
 10
-10.7485448128
 20
-6.8281594625
 11
-9.7527050496
 21
-6.8281594625
  0
LINE
  5
2A9
100
AcDbEntity
  8
RACCORDO
100
AcDbLine
 62
7
  6
CONTINUOUS
 10
9.9127488541
 20
-6.8281594625
 11
10.9085886173
 21
-6.8281594625
  0
LINE
  5
2AA
100
AcDbEntity
  8
ASSI
100
AcDbLine
 62
7
  6
CONTINUOUS
 10
9.9127488541
 20
-6.8281594625
 11
10.9085886173
 21
-6.8281594625
  0
LINE
  5
2AB
100
AcDbEntity
  8
RACCORDO
100
AcDbLine
 62
7
  6
CONTINUOUS
 10
-11.0955410069
 20
-6.7759762845
 11
-10.0996974066
 21
-6.7759762845
  0
LINE
  5
2AC
100
AcDbEntity
  8
ASSI
100
AcDbLine
 62
7
  6
CONTINUOUS
 10
-11.0955410069
 20
-6.7759762845
 11
-10.0996974066
 21
-6.7759762845
  0
LINE
  5
2AD
100
AcDbEntity
  8
RACCORDO
100
AcDbLine
 62
7
  6
CONTINUOUS
 10
11.2555848113
 20
-6.7759762845
 11
10.259741211
 21
-6.7759762845
  0
LINE
  5
2AE
100
AcDbEntity
  8
ASSI
100
AcDbLine
 62
7
  6
CONTINUOUS
 10
11.2555848113
 20
-6.7759762845
 11
10.259741211
 21
-6.7759762845
  0
LINE
  5
2AF
100
AcDbEntity
  8
0
100
AcDbLine
 62
7
  6
CONTINUOUS
 10
0.4800219022
 20
-6.6270524144
 11
2.1800219022
 21
-6.6270524144
  0
LINE
  5
2B0
100
AcDbEntity
  8
ASSI
100
AcDbLine
 62
7
  6
CONTINUOUS
 10
0.4800219022
 20
-6.6270524144
 11
2.1800219022
 21
-6.6270524144
  0
LINE
  5
2B1
100
AcDbEntity
  8
RACCORDO
100
AcDbLine
 62
253
  6
CONTINUOUS
 10
5.2748767726
 20
-6.6056955933
 11
6.0851670318
 21
-6.6056955933
  0
LINE
  5
2B2
100
AcDbEntity
  8
RACCORDO
100
AcDbLine
 62
253
  6
CONTINUOUS
 10
-5.1148329682
 20
-6.6056955933
 11
-5.9251232274
 21
-6.6056955933
  0
LINE
  5
2B3
100
AcDbEntity
  8
ASSI
100
AcDbLine
 62
253
  6
CONTINUOUS
 10
5.2748767726
 20
-6.6056955933
 11
6.0851670318
 21
-6.6056955933
  0
LINE
  5
2B4
100
AcDbEntity
  8
ASSI
100
AcDbLine
 62
253
  6
CONTINUOUS
 10
-5.1148329682
 20
-6.6056955933
 11
-5.9251232274
 21
-6.6056955933
  0
LINE
  5
2B5
100
AcDbEntity
  8
0
100
AcDbLine
 62
7
  6
CONTINUOUS
 10
1.2034261726
 20
-6.3437190979
 11
1.4566176318
 21
-6.3437190979
  0
LINE
  5
2B6
100
AcDbEntity
  8
ASSI
100
AcDbLine
 62
7
  6
CONTINUOUS
 10
1.2034261726
 20
-6.3437190979
 11
1.4566176318
 21
-6.3437190979
  0
LINE
  5
2B7
100
AcDbEntity
  8
RACCORDO
100
AcDbLine
 62
253
  6
CONTINUOUS
 10
5.7852127233
 20
-6.3057412848
 11
5.574831094
 21
-6.3057412976
  0
LINE
  5
2B8
100
AcDbEntity
  8
ASSI
100
AcDbLine
 62
253
  6
CONTINUOUS
 10
5.7852127233
 20
-6.3057412848
 11
5.574831094
 21
-6.3057412976
  0
LINE
  5
2B9
100
AcDbEntity
  8
RACCORDO
100
AcDbLine
 62
253
  6
CONTINUOUS
 10
-5.4147872941
 20
-6.3057413021
 11
-5.6251688858
 21
-6.3057413178
  0
LINE
  5
2BA
100
AcDbEntity
  8
ASSI
100
AcDbLine
 62
253
  6
CONTINUOUS
 10
-5.4147872941
 20
-6.3057413021
 11
-5.6251688858
 21
-6.3057413178
  0
LINE
  5
2BB
100
AcDbEntity
  8
RACCORDO
100
AcDbLine
 62
7
  6
CONTINUOUS
 10
-5.6551149087
 20
-6.2757952949
 11
-5.3848412869
 21
-6.2757952949
  0
LINE
  5
2BC
100
AcDbEntity
  8
ASSI
100
AcDbLine
 62
7
  6
CONTINUOUS
 10
-5.6551149087
 20
-6.2757952949
 11
-5.3848412869
 21
-6.2757952949
  0
LINE
  5
2BD
100
AcDbEntity
  8
RACCORDO
100
AcDbLine
 62
7
  6
CONTINUOUS
 10
5.5448850913
 20
-6.2757952949
 11
5.8151587131
 21
-6.2757952949
  0
LINE
  5
2BE
100
AcDbEntity
  8
ASSI
100
AcDbLine
 62
7
  6
CONTINUOUS
 10
5.5448850913
 20
-6.2757952949
 11
5.8151587131
 21
-6.2757952949
  0
LINE
  5
2BF
100
AcDbEntity
  8
0
100
AcDbLine
 62
7
  6
CONTINUOUS
 10
1.2034261726
 20
-6.1666357815
 11
1.2757665895
 21
-6.1666357815
  0
LINE
  5
2C0
100
AcDbEntity
  8
ASSI
100
AcDbLine
 62
7
  6
CONTINUOUS
 10
1.2034261726
 20
-6.1666357815
 11
1.2757665895
 21
-6.1666357815
  0
LINE
  5
2C1
100
AcDbEntity
  8
RACCORDO
100
AcDbLine
 62
7
  6
CONTINUOUS
 10
-11.0955410069
 20
-6.1457965442
 11
-10.0996974066
 21
-6.1457965442
  0
LINE
  5
2C2
100
AcDbEntity
  8
ASSI
100
AcDbLine
 62
7
  6
CONTINUOUS
 10
-11.0955410069
 20
-6.1457965442
 11
-10.0996974066
 21
-6.1457965442
  0
LINE
  5
2C3
100
AcDbEntity
  8
RACCORDO
100
AcDbLine
 62
7
  6
CONTINUOUS
 10
11.2555848113
 20
-6.1457965442
 11
10.259741211
 21
-6.1457965442
  0
LINE
  5
2C4
100
AcDbEntity
  8
ASSI
100
AcDbLine
 62
7
  6
CONTINUOUS
 10
11.2555848113
 20
-6.1457965442
 11
10.259741211
 21
-6.1457965442
  0
LINE
  5
2C5
100
AcDbEntity
  8
0
100
AcDbLine
 62
7
  6
CONTINUOUS
 10
1.5651283078
 20
-6.1312190473
 11
1.6736389332
 21
-6.1312190473
  0
LINE
  5
2C6
100
AcDbEntity
  8
ASSI
100
AcDbLine
 62
7
  6
CONTINUOUS
 10
1.5651283078
 20
-6.1312190473
 11
1.6736389332
 21
-6.1312190473
  0
LINE
  5
2C7
100
AcDbEntity
  8
RACCORDO
100
AcDbLine
 62
7
  6
CONTINUOUS
 10
-10.7480648748
 20
-6.093133088
 11
-9.7522247714
 21
-6.093133088
  0
LINE
  5
2C8
100
AcDbEntity
  8
ASSI
100
AcDbLine
 62
7
  6
CONTINUOUS
 10
-10.7480648748
 20
-6.093133088
 11
-9.7522247714
 21
-6.093133088
  0
LINE
  5
2C9
100
AcDbEntity
  8
RACCORDO
100
AcDbLine
 62
7
  6
CONTINUOUS
 10
9.9122685759
 20
-6.093133088
 11
10.9081086793
 21
-6.093133088
  0
LINE
  5
2CA
100
AcDbEntity
  8
ASSI
100
AcDbLine
 62
7
  6
CONTINUOUS
 10
9.9122685759
 20
-6.093133088
 11
10.9081086793
 21
-6.093133088
  0
LINE
  5
2CB
100
AcDbEntity
  8
0
100
AcDbLine
 62
7
  6
CONTINUOUS
 10
1.2034261726
 20
-6.3437190979
 11
0.9502347135
 21
-6.3083024144
  0
LINE
  5
2CC
100
AcDbEntity
  8
ASSI
100
AcDbLine
 62
7
  6
CONTINUOUS
 10
1.2034261726
 20
-6.3437190979
 11
0.9502347135
 21
-6.3083024144
  0
LINE
  5
2CD
100
AcDbEntity
  8
0
100
AcDbLine
 62
7
  6
CONTINUOUS
 10
-0.8174720978
 20
-6.3425744144
 11
-1.9875400978
 21
-6.0086524144
  0
LINE
  5
2CE
100
AcDbEntity
  8
ASSI
100
AcDbLine
 62
7
  6
CONTINUOUS
 10
-0.8174720978
 20
-6.3425744144
 11
-1.9875400978
 21
-6.0086524144
  0
LINE
  5
2CF
100
AcDbEntity
  8
RACCORDO
100
AcDbLine
 62
7
  6
CONTINUOUS
 10
-9.7487121326
 20
1.0678476204
 11
-9.799743098
 21
1.1188785859
  0
LINE
  5
2D0
100
AcDbEntity
  8
ASSI
100
AcDbLine
 62
7
  6
CONTINUOUS
 10
-9.7487121326
 20
1.0678476204
 11
-9.799743098
 21
1.1188785859
  0
LINE
  5
2D1
100
AcDbEntity
  8
RACCORDO
100
AcDbLine
 62
253
  6
CONTINUOUS
 10
-5.9251232274
 20
-6.6056955933
 11
-5.9251232274
 21
-7.8857267655
  0
LINE
  5
2D2
100
AcDbEntity
  8
ASSI
100
AcDbLine
 62
253
  6
CONTINUOUS
 10
-5.9251232274
 20
-6.6056955933
 11
-5.9251232274
 21
-7.8857267655
  0
LINE
  5
2D3
100
AcDbEntity
  8
RACCORDO
100
AcDbLine
 62
253
  6
CONTINUOUS
 10
-5.6251689188
 20
-6.3057413178
 11
-5.6251689188
 21
-7.9377016607
  0
LINE
  5
2D4
100
AcDbEntity
  8
ASSI
100
AcDbLine
 62
253
  6
CONTINUOUS
 10
-5.6251689188
 20
-6.3057413178
 11
-5.6251689188
 21
-7.9377016607
  0
LINE
  5
2D5
100
AcDbEntity
  8
RACCORDO
100
AcDbLine
 62
253
  6
CONTINUOUS
 10
-5.4147872767
 20
-7.9377016607
 11
-5.4147872767
 21
-6.3057413021
  0
LINE
  5
2D6
100
AcDbEntity
  8
ASSI
100
AcDbLine
 62
253
  6
CONTINUOUS
 10
-5.4147872767
 20
-7.9377016607
 11
-5.4147872767
 21
-6.3057413021
  0
LINE
  5
2D7
100
AcDbEntity
  8
RACCORDO
100
AcDbLine
 62
253
  6
CONTINUOUS
 10
-5.1148329682
 20
-7.8857267655
 11
-5.1148329682
 21
-6.6056955933
  0
LINE
  5
2D8
100
AcDbEntity
  8
ASSI
100
AcDbLine
 62
253
  6
CONTINUOUS
 10
-5.1148329682
 20
-7.8857267655
 11
-5.1148329682
 21
-6.6056955933
  0
LINE
  5
2D9
100
AcDbEntity
  8
DRAFT
100
AcDbLine
 62
7
  6
CONTINUOUS
 10
-11.4154705119
 20
-4.1563788285
 11
-11.3416777478
 21
-4.0825860644
  0
LINE
  5
2DA
100
AcDbEntity
  8
ASSI
100
AcDbLine
 62
7
  6
CONTINUOUS
 10
-11.4154705119
 20
-4.1563788285
 11
-11.3416777478
 21
-4.0825860644
  0
LINE
  5
2DB
100
AcDbEntity
  8
DRAFT
100
AcDbLine
 62
7
  6
CONTINUOUS
 10
-11.1154705119
 20
-4.1563788285
 11
-11.1025230328
 21
-4.1434313494
  0
LINE
  5
2DC
100
AcDbEntity
  8
ASSI
100
AcDbLine
 62
7
  6
CONTINUOUS
 10
-11.1154705119
 20
-4.1563788285
 11
-11.1025230328
 21
-4.1434313494
  0
LINE
  5
2DD
100
AcDbEntity
  8
0
100
AcDbLine
 62
7
  6
CONTINUOUS
 10
-0.8174720978
 20
-6.3425744144
 11
-1.9875400978
 21
-6.6665994144
  0
LINE
  5
2DE
100
AcDbEntity
  8
ASSI
100
AcDbLine
 62
7
  6
CONTINUOUS
 10
-0.8174720978
 20
-6.3425744144
 11
-1.9875400978
 21
-6.6665994144
  0
LINE
  5
2DF
100
AcDbEntity
  8
0
100
AcDbLine
 62
7
  6
CONTINUOUS
 10
-0.2876770978
 20
-5.5223884144
 11
-1.9876420978
 21
-5.5223884144
  0
LINE
  5
2E0
100
AcDbEntity
  8
ASSI
100
AcDbLine
 62
7
  6
CONTINUOUS
 10
-0.2876770978
 20
-5.5223884144
 11
-1.9876420978
 21
-5.5223884144
  0
LINE
  5
2E1
100
AcDbEntity
  8
0
100
AcDbLine
 62
7
  6
CONTINUOUS
 10
1.5651283078
 20
-5.2458024144
 11
1.6736389332
 21
-5.2458024144
  0
LINE
  5
2E2
100
AcDbEntity
  8
ASSI
100
AcDbLine
 62
7
  6
CONTINUOUS
 10
1.5651283078
 20
-5.2458024144
 11
1.6736389332
 21
-5.2458024144
  0
LINE
  5
2E3
100
AcDbEntity
  8
0
100
AcDbLine
 62
7
  6
CONTINUOUS
 10
-0.2876770978
 20
-5.1675604144
 11
-1.9876420978
 21
-5.1675604144
  0
LINE
  5
2E4
100
AcDbEntity
  8
ASSI
100
AcDbLine
 62
7
  6
CONTINUOUS
 10
-0.2876770978
 20
-5.1675604144
 11
-1.9876420978
 21
-5.1675604144
  0
LINE
  5
2E5
100
AcDbEntity
  8
0
100
AcDbLine
 62
7
  6
CONTINUOUS
 10
1.5289580487
 20
-5.0687191486
 11
1.7098091417
 21
-5.0687191486
  0
LINE
  5
2E6
100
AcDbEntity
  8
ASSI
100
AcDbLine
 62
7
  6
CONTINUOUS
 10
1.5289580487
 20
-5.0687191486
 11
1.7098091417
 21
-5.0687191486
  0
LINE
  5
2E7
100
AcDbEntity
  8
0
100
AcDbLine
 62
7
  6
CONTINUOUS
 10
1.2034261726
 20
-6.1666357815
 11
0.9864049219
 21
-6.1312190473
  0
LINE
  5
2E8
100
AcDbEntity
  8
ASSI
100
AcDbLine
 62
7
  6
CONTINUOUS
 10
1.2034261726
 20
-6.1666357815
 11
0.9864049219
 21
-6.1312190473
  0
LINE
  5
2E9
100
AcDbEntity
  8
0
100
AcDbLine
 62
7
  6
CONTINUOUS
 10
-0.2876770978
 20
-6.2004704144
 11
-1.9875400978
 21
-5.6540664144
  0
LINE
  5
2EA
100
AcDbEntity
  8
ASSI
100
AcDbLine
 62
7
  6
CONTINUOUS
 10
-0.2876770978
 20
-6.2004704144
 11
-1.9875400978
 21
-5.6540664144
  0
LINE
  5
2EB
100
AcDbEntity
  8
0
100
AcDbLine
 62
7
  6
CONTINUOUS
 10
0.9864049219
 20
-6.1312190473
 11
0.8778941952
 21
-6.0958024144
  0
LINE
  5
2EC
100
AcDbEntity
  8
ASSI
100
AcDbLine
 62
7
  6
CONTINUOUS
 10
0.9864049219
 20
-6.1312190473
 11
0.8778941952
 21
-6.0958024144
  0
LINE
  5
2ED
100
AcDbEntity
  8
0
100
AcDbLine
 62
7
  6
CONTINUOUS
 10
1.5651283078
 20
-6.1312190473
 11
1.4566176318
 21
-6.0958024144
  0
LINE
  5
2EE
100
AcDbEntity
  8
ASSI
100
AcDbLine
 62
7
  6
CONTINUOUS
 10
1.5651283078
 20
-6.1312190473
 11
1.4566176318
 21
-6.0958024144
  0
LINE
  5
2EF
100
AcDbEntity
  8
0
100
AcDbLine
 62
7
  6
CONTINUOUS
 10
0.9502347135
 20
-6.3083024144
 11
0.7693835699
 21
-6.2374690979
  0
LINE
  5
2F0
100
AcDbEntity
  8
ASSI
100
AcDbLine
 62
7
  6
CONTINUOUS
 10
0.9502347135
 20
-6.3083024144
 11
0.7693835699
 21
-6.2374690979
  0
LINE
  5
2F1
100
AcDbEntity
  8
ASSI
100
AcDbLine
 62
253
  6
CONTINUOUS
 10
-4.3498768652
 20
5.6150035973
 11
-4.34335396
 21
3.9635365438
  0
LINE
  5
2F2
100
AcDbEntity
  8
RACCORDO
100
AcDbLine
 62
7
  6
CONTINUOUS
 10
-5.0899280039
 20
-7.6341426454
 11
-5.1148329682
 21
-7.8857267655
  0
LINE
  5
2F3
100
AcDbEntity
  8
ASSI
100
AcDbLine
 62
7
  6
CONTINUOUS
 10
-5.0899280039
 20
-7.6341426454
 11
-5.1148329682
 21
-7.8857267655
  0
LINE
  5
2F4
100
AcDbEntity
  8
DRAFT
100
AcDbLine
 62
7
  6
CONTINUOUS
 10
10.2300219022
 20
-4.7689942585
 11
9.5800219022
 21
-4.7803400507
  0
LINE
  5
2F5
100
AcDbEntity
  8
ASSI
100
AcDbLine
 62
7
  6
CONTINUOUS
 10
10.2300219022
 20
-4.7689942585
 11
9.5800219022
 21
-4.7803400507
  0
LINE
  5
2F6
100
AcDbEntity
  8
DRAFT
100
AcDbLine
 62
7
  6
CONTINUOUS
 10
-9.8199780978
 20
-4.7948441643
 11
-9.4199780978
 21
-4.7908130897
  0
LINE
  5
2F7
100
AcDbEntity
  8
ASSI
100
AcDbLine
 62
7
  6
CONTINUOUS
 10
-9.8199780978
 20
-4.7948441643
 11
-9.4199780978
 21
-4.7908130897
  0
LINE
  5
2F8
100
AcDbEntity
  8
RACCORDO
100
AcDbLine
 62
7
  6
CONTINUOUS
 10
-10.747291818
 20
-4.8294133451
 11
-9.8199780978
 21
-4.8294133451
  0
LINE
  5
2F9
100
AcDbEntity
  8
ASSI
100
AcDbLine
 62
7
  6
CONTINUOUS
 10
-10.747291818
 20
-4.8294133451
 11
-9.8199780978
 21
-4.8294133451
  0
LINE
  5
2FA
100
AcDbEntity
  8
RACCORDO
100
AcDbLine
 62
7
  6
CONTINUOUS
 10
9.9800219022
 20
-4.8294133451
 11
10.9073356225
 21
-4.8294133451
  0
LINE
  5
2FB
100
AcDbEntity
  8
ASSI
100
AcDbLine
 62
7
  6
CONTINUOUS
 10
9.9800219022
 20
-4.8294133451
 11
10.9073356225
 21
-4.8294133451
  0
LINE
  5
2FC
100
AcDbEntity
  8
0
100
AcDbLine
 62
7
  6
CONTINUOUS
 10
1.6374687248
 20
-4.7853856801
 11
1.7459793501
 21
-4.7853856801
  0
LINE
  5
2FD
100
AcDbEntity
  8
ASSI
100
AcDbLine
 62
7
  6
CONTINUOUS
 10
1.6374687248
 20
-4.7853856801
 11
1.7459793501
 21
-4.7853856801
  0
LINE
  5
2FE
100
AcDbEntity
  8
DRAFT
100
AcDbLine
 62
7
  6
CONTINUOUS
 10
-11.1025230328
 20
-4.7689942585
 11
-10.0699780978
 21
-4.7689942585
  0
LINE
  5
2FF
100
AcDbEntity
  8
ASSI
100
AcDbLine
 62
7
  6
CONTINUOUS
 10
-11.1025230328
 20
-4.7689942585
 11
-10.0699780978
 21
-4.7689942585
  0
LINE
  5
300
100
AcDbEntity
  8
DRAFT
100
AcDbLine
 62
7
  6
CONTINUOUS
 10
10.2300219022
 20
-4.7689942585
 11
11.2625668373
 21
-4.7689942585
  0
LINE
  5
301
100
AcDbEntity
  8
ASSI
100
AcDbLine
 62
7
  6
CONTINUOUS
 10
10.2300219022
 20
-4.7689942585
 11
11.2625668373
 21
-4.7689942585
  0
LINE
  5
302
100
AcDbEntity
  8
0
100
AcDbLine
 62
7
  6
CONTINUOUS
 10
0.914064505
 20
-4.7499691486
 11
1.0225751304
 21
-4.7499691486
  0
LINE
  5
303
100
AcDbEntity
  8
ASSI
100
AcDbLine
 62
7
  6
CONTINUOUS
 10
0.914064505
 20
-4.7499691486
 11
1.0225751304
 21
-4.7499691486
  0
LINE
  5
304
100
AcDbEntity
  8
0
100
AcDbLine
 62
7
  6
CONTINUOUS
 10
1.6374687248
 20
-4.6083024144
 11
1.7459793501
 21
-4.6083024144
  0
LINE
  5
305
100
AcDbEntity
  8
ASSI
100
AcDbLine
 62
7
  6
CONTINUOUS
 10
1.6374687248
 20
-4.6083024144
 11
1.7459793501
 21
-4.6083024144
  0
LINE
  5
306
100
AcDbEntity
  8
0
100
AcDbLine
 62
7
  6
CONTINUOUS
 10
0.914064505
 20
-4.5728856801
 11
0.9864049219
 21
-4.5728856801
  0
LINE
  5
307
100
AcDbEntity
  8
ASSI
100
AcDbLine
 62
7
  6
CONTINUOUS
 10
0.914064505
 20
-4.5728856801
 11
0.9864049219
 21
-4.5728856801
  0
LINE
  5
308
100
AcDbEntity
  8
DRAFT
100
AcDbLine
 62
7
  6
CONTINUOUS
 10
11.5755143164
 20
-4.1563788285
 11
11.2755143164
 21
-4.1563788285
  0
LINE
  5
309
100
AcDbEntity
  8
ASSI
100
AcDbLine
 62
7
  6
CONTINUOUS
 10
11.5755143164
 20
-4.1563788285
 11
11.2755143164
 21
-4.1563788285
  0
LINE
  5
30A
100
AcDbEntity
  8
DRAFT
100
AcDbLine
 62
7
  6
CONTINUOUS
 10
-11.1154705119
 20
-4.1563788285
 11
-11.4154705119
 21
-4.1563788285
  0
LINE
  5
30B
100
AcDbEntity
  8
ASSI
100
AcDbLine
 62
7
  6
CONTINUOUS
 10
-11.1154705119
 20
-4.1563788285
 11
-11.4154705119
 21
-4.1563788285
  0
LINE
  5
30C
100
AcDbEntity
  8
DRAFT
100
AcDbLine
 62
7
  6
CONTINUOUS
 10
-11.1025230328
 20
-4.1434313494
 11
-10.3374331627
 21
-4.1434313494
  0
LINE
  5
30D
100
AcDbEntity
  8
ASSI
100
AcDbLine
 62
7
  6
CONTINUOUS
 10
-11.1025230328
 20
-4.1434313494
 11
-10.3374331627
 21
-4.1434313494
  0
LINE
  5
30E
100
AcDbEntity
  8
DRAFT
100
AcDbLine
 62
7
  6
CONTINUOUS
 10
11.2625668373
 20
-4.1434313494
 11
10.4974769672
 21
-4.1434313494
  0
LINE
  5
30F
100
AcDbEntity
  8
ASSI
100
AcDbLine
 62
7
  6
CONTINUOUS
 10
11.2625668373
 20
-4.1434313494
 11
10.4974769672
 21
-4.1434313494
  0
LINE
  5
310
100
AcDbEntity
  8
DRAFT
100
AcDbLine
 62
7
  6
CONTINUOUS
 10
-11.3416777478
 20
-4.0825860644
 11
-10.3982784477
 21
-4.0825860644
  0
LINE
  5
311
100
AcDbEntity
  8
ASSI
100
AcDbLine
 62
7
  6
CONTINUOUS
 10
-11.3416777478
 20
-4.0825860644
 11
-10.3982784477
 21
-4.0825860644
  0
LINE
  5
312
100
AcDbEntity
  8
DRAFT
100
AcDbLine
 62
7
  6
CONTINUOUS
 10
10.5583222522
 20
-4.0825860644
 11
11.5017215523
 21
-4.0825860644
  0
LINE
  5
313
100
AcDbEntity
  8
ASSI
100
AcDbLine
 62
7
  6
CONTINUOUS
 10
10.5583222522
 20
-4.0825860644
 11
11.5017215523
 21
-4.0825860644
  0
LINE
  5
314
100
AcDbEntity
  8
DRAFT
100
AcDbLine
 62
7
  6
CONTINUOUS
 10
9.5800219022
 20
-4.7908130897
 11
9.9800219022
 21
-4.7948441643
  0
LINE
  5
315
100
AcDbEntity
  8
ASSI
100
AcDbLine
 62
7
  6
CONTINUOUS
 10
9.5800219022
 20
-4.7908130897
 11
9.9800219022
 21
-4.7948441643
  0
LINE
  5
316
100
AcDbEntity
  8
DRAFT
100
AcDbLine
 62
7
  6
CONTINUOUS
 10
-9.4199780978
 20
-4.7803400507
 11
-10.0699780978
 21
-4.7689942585
  0
LINE
  5
317
100
AcDbEntity
  8
ASSI
100
AcDbLine
 62
7
  6
CONTINUOUS
 10
-9.4199780978
 20
-4.7803400507
 11
-10.0699780978
 21
-4.7689942585
  0
LINE
  5
318
100
AcDbEntity
  8
0
100
AcDbLine
 62
7
  6
CONTINUOUS
 10
-0.2876770978
 20
-4.6370904144
 11
-1.3976560978
 21
-4.5605184144
  0
LINE
  5
319
100
AcDbEntity
  8
ASSI
100
AcDbLine
 62
7
  6
CONTINUOUS
 10
-0.2876770978
 20
-4.6370904144
 11
-1.3976560978
 21
-4.5605184144
  0
LINE
  5
31A
100
AcDbEntity
  8
0
100
AcDbLine
 62
7
  6
CONTINUOUS
 10
-0.2876770978
 20
-4.9765454144
 11
-1.9875400978
 21
-4.8230584144
  0
LINE
  5
31B
100
AcDbEntity
  8
ASSI
100
AcDbLine
 62
7
  6
CONTINUOUS
 10
-0.2876770978
 20
-4.9765454144
 11
-1.9875400978
 21
-4.8230584144
  0
LINE
  5
31C
100
AcDbEntity
  8
0
100
AcDbLine
 62
7
  6
CONTINUOUS
 10
1.7821495586
 20
-5.2812191486
 11
1.6736389332
 21
-5.2458024144
  0
LINE
  5
31D
100
AcDbEntity
  8
ASSI
100
AcDbLine
 62
7
  6
CONTINUOUS
 10
1.7821495586
 20
-5.2812191486
 11
1.6736389332
 21
-5.2458024144
  0
LINE
  5
31E
100
AcDbEntity
  8
0
100
AcDbLine
 62
7
  6
CONTINUOUS
 10
-1.0437710978
 20
-4.1174424144
 11
-1.9875400978
 21
-3.7626144144
  0
LINE
  5
31F
100
AcDbEntity
  8
ASSI
100
AcDbLine
 62
7
  6
CONTINUOUS
 10
-1.0437710978
 20
-4.1174424144
 11
-1.9875400978
 21
-3.7626144144
  0
LINE
  5
320
100
AcDbEntity
  8
0
100
AcDbLine
 62
7
  6
CONTINUOUS
 10
1.8906602093
 20
-5.1395524144
 11
1.7098091417
 21
-5.0687191486
  0
LINE
  5
321
100
AcDbEntity
  8
ASSI
100
AcDbLine
 62
7
  6
CONTINUOUS
 10
1.8906602093
 20
-5.1395524144
 11
1.7098091417
 21
-5.0687191486
  0
LINE
  5
322
100
AcDbEntity
  8
0
100
AcDbLine
 62
7
  6
CONTINUOUS
 10
0.914064505
 20
-4.7499691486
 11
0.7332133614
 21
-4.6791356801
  0
LINE
  5
323
100
AcDbEntity
  8
ASSI
100
AcDbLine
 62
7
  6
CONTINUOUS
 10
0.914064505
 20
-4.7499691486
 11
0.7332133614
 21
-4.6791356801
  0
LINE
  5
324
100
AcDbEntity
  8
0
100
AcDbLine
 62
7
  6
CONTINUOUS
 10
0.8778941952
 20
-6.0958024144
 11
0.7693835699
 21
-6.0249690473
  0
LINE
  5
325
100
AcDbEntity
  8
ASSI
100
AcDbLine
 62
7
  6
CONTINUOUS
 10
0.8778941952
 20
-6.0958024144
 11
0.7693835699
 21
-6.0249690473
  0
LINE
  5
326
100
AcDbEntity
  8
0
100
AcDbLine
 62
7
  6
CONTINUOUS
 10
0.7693835699
 20
-6.2374690979
 11
0.624702736
 21
-6.1312190473
  0
LINE
  5
327
100
AcDbEntity
  8
ASSI
100
AcDbLine
 62
7
  6
CONTINUOUS
 10
0.7693835699
 20
-6.2374690979
 11
0.624702736
 21
-6.1312190473
  0
LINE
  5
328
100
AcDbEntity
  8
0
100
AcDbLine
 62
7
  6
CONTINUOUS
 10
0.7332133614
 20
-7.0520524144
 11
0.4800219022
 21
-6.8395524144
  0
LINE
  5
329
100
AcDbEntity
  8
ASSI
100
AcDbLine
 62
7
  6
CONTINUOUS
 10
0.7332133614
 20
-7.0520524144
 11
0.4800219022
 21
-6.8395524144
  0
LINE
  5
32A
100
AcDbEntity
  8
0
100
AcDbLine
 62
7
  6
CONTINUOUS
 10
1.0225751304
 20
-7.0520524144
 11
0.7693835699
 21
-6.8395524144
  0
LINE
  5
32B
100
AcDbEntity
  8
ASSI
100
AcDbLine
 62
7
  6
CONTINUOUS
 10
1.0225751304
 20
-7.0520524144
 11
0.7693835699
 21
-6.8395524144
  0
LINE
  5
32C
100
AcDbEntity
  8
RACCORDO
100
AcDbLine
 62
253
  6
CONTINUOUS
 10
-3.7418236225
 20
3.9856680613
 11
-3.7418236225
 21
5.59255911
  0
LINE
  5
32D
100
AcDbEntity
  8
ASSI
100
AcDbLine
 62
253
  6
CONTINUOUS
 10
-3.7418236225
 20
3.9856680613
 11
-3.7418236225
 21
5.59255911
  0
LINE
  5
32E
100
AcDbEntity
  8
RACCORDO
100
AcDbLine
 62
253
  6
CONTINUOUS
 10
-3.4599158363
 20
3.9891135856
 11
-3.4599158363
 21
5.5891135856
  0
LINE
  5
32F
100
AcDbEntity
  8
ASSI
100
AcDbLine
 62
253
  6
CONTINUOUS
 10
-3.4599158363
 20
3.9891135856
 11
-3.4599158363
 21
5.5891135856
  0
LINE
  5
330
100
AcDbEntity
  8
DRAFT
100
AcDbLine
 62
7
  6
CONTINUOUS
 10
-2.9896138582
 20
5.5891135856
 11
-2.9896138582
 21
3.9891135856
  0
LINE
  5
331
100
AcDbEntity
  8
ASSI
100
AcDbLine
 62
7
  6
CONTINUOUS
 10
-2.9896138582
 20
5.5891135856
 11
-2.9896138582
 21
3.9891135856
  0
LINE
  5
332
100
AcDbEntity
  8
DRAFT
100
AcDbLine
 62
7
  6
CONTINUOUS
 10
-2.9199780978
 20
0.7891135856
 11
-2.9199780978
 21
3.9803860532
  0
LINE
  5
333
100
AcDbEntity
  8
ASSI
100
AcDbLine
 62
7
  6
CONTINUOUS
 10
-2.9199780978
 20
0.7891135856
 11
-2.9199780978
 21
3.9803860532
  0
LINE
  5
334
100
AcDbEntity
  8
DRAFT
100
AcDbLine
 62
7
  6
CONTINUOUS
 10
-2.9199780978
 20
5.5978411181
 11
-2.9199780978
 21
7.2891135856
  0
LINE
  5
335
100
AcDbEntity
  8
ASSI
100
AcDbLine
 62
7
  6
CONTINUOUS
 10
-2.9199780978
 20
5.5978411181
 11
-2.9199780978
 21
7.2891135856
  0
LINE
  5
336
100
AcDbEntity
  8
DRAFT
100
AcDbLine
 62
7
  6
CONTINUOUS
 10
-2.8874331627
 20
2.3716585207
 11
-2.8874331627
 21
3.9803860532
  0
LINE
  5
337
100
AcDbEntity
  8
DRAFT
100
AcDbLine
 62
7
  6
CONTINUOUS
 10
-2.8874331627
 20
5.5978411181
 11
-2.8874331627
 21
7.2065686506
  0
LINE
  5
338
100
AcDbEntity
  8
RACCORDO
100
AcDbLine
 62
7
  6
CONTINUOUS
 10
-11.0480294733
 20
-6.0982850106
 11
-11.0955410069
 21
-6.1457965442
  0
LINE
  5
339
100
AcDbEntity
  8
ASSI
100
AcDbLine
 62
7
  6
CONTINUOUS
 10
-11.0480294733
 20
-6.0982850106
 11
-11.0955410069
 21
-6.1457965442
  0
LINE
  5
33A
100
AcDbEntity
  8
0
100
AcDbLine
 62
7
  6
CONTINUOUS
 10
-0.2876770978
 20
-3.2525904144
 11
-1.9875400978
 21
-3.4115474144
  0
LINE
  5
33B
100
AcDbEntity
  8
ASSI
100
AcDbLine
 62
7
  6
CONTINUOUS
 10
-0.2876770978
 20
-3.2525904144
 11
-1.9875400978
 21
-3.4115474144
  0
LINE
  5
33C
100
AcDbEntity
  8
0
100
AcDbLine
 62
7
  6
CONTINUOUS
 10
-0.2876770978
 20
-3.5997064144
 11
-1.3930290978
 21
-3.6726074144
  0
LINE
  5
33D
100
AcDbEntity
  8
ASSI
100
AcDbLine
 62
7
  6
CONTINUOUS
 10
-0.2876770978
 20
-3.5997064144
 11
-1.3930290978
 21
-3.6726074144
  0
LINE
  5
33E
100
AcDbEntity
  8
0
100
AcDbLine
 62
7
  6
CONTINUOUS
 10
0.914064505
 20
-3.7228856801
 11
0.9864049219
 21
-3.7228856801
  0
LINE
  5
33F
100
AcDbEntity
  8
ASSI
100
AcDbLine
 62
7
  6
CONTINUOUS
 10
0.914064505
 20
-3.7228856801
 11
0.9864049219
 21
-3.7228856801
  0
LINE
  5
340
100
AcDbEntity
  8
0
100
AcDbLine
 62
7
  6
CONTINUOUS
 10
1.6374687248
 20
-3.6874691486
 11
1.7459793501
 21
-3.6874691486
  0
LINE
  5
341
100
AcDbEntity
  8
ASSI
100
AcDbLine
 62
7
  6
CONTINUOUS
 10
1.6374687248
 20
-3.6874691486
 11
1.7459793501
 21
-3.6874691486
  0
LINE
  5
342
100
AcDbEntity
  8
0
100
AcDbLine
 62
7
  6
CONTINUOUS
 10
0.914064505
 20
-3.5458024144
 11
1.0225751304
 21
-3.5458024144
  0
LINE
  5
343
100
AcDbEntity
  8
ASSI
100
AcDbLine
 62
7
  6
CONTINUOUS
 10
0.914064505
 20
-3.5458024144
 11
1.0225751304
 21
-3.5458024144
  0
LINE
  5
344
100
AcDbEntity
  8
0
100
AcDbLine
 62
7
  6
CONTINUOUS
 10
1.6374687248
 20
-3.5103858828
 11
1.7459793501
 21
-3.5103858828
  0
LINE
  5
345
100
AcDbEntity
  8
ASSI
100
AcDbLine
 62
7
  6
CONTINUOUS
 10
1.6374687248
 20
-3.5103858828
 11
1.7459793501
 21
-3.5103858828
  0
LINE
  5
346
100
AcDbEntity
  8
0
100
AcDbLine
 62
7
  6
CONTINUOUS
 10
1.4566176318
 20
-3.2270524144
 11
1.6736389332
 21
-3.2270524144
  0
LINE
  5
347
100
AcDbEntity
  8
ASSI
100
AcDbLine
 62
7
  6
CONTINUOUS
 10
1.4566176318
 20
-3.2270524144
 11
1.6736389332
 21
-3.2270524144
  0
LINE
  5
348
100
AcDbEntity
  8
0
100
AcDbLine
 62
7
  6
CONTINUOUS
 10
-0.2876770978
 20
-3.1968734144
 11
-1.9875400978
 21
-2.6636884144
  0
LINE
  5
349
100
AcDbEntity
  8
ASSI
100
AcDbLine
 62
7
  6
CONTINUOUS
 10
-0.2876770978
 20
-3.1968734144
 11
-1.9875400978
 21
-2.6636884144
  0
LINE
  5
34A
100
AcDbEntity
  8
0
100
AcDbLine
 62
7
  6
CONTINUOUS
 10
-0.2876770978
 20
-4.0944984144
 11
-1.3930290978
 21
-3.6726074144
  0
LINE
  5
34B
100
AcDbEntity
  8
ASSI
100
AcDbLine
 62
7
  6
CONTINUOUS
 10
-0.2876770978
 20
-4.0944984144
 11
-1.3930290978
 21
-3.6726074144
  0
LINE
  5
34C
100
AcDbEntity
  8
0
100
AcDbLine
 62
7
  6
CONTINUOUS
 10
1.6374687248
 20
-4.7853856801
 11
1.4566176318
 21
-4.7145524144
  0
LINE
  5
34D
100
AcDbEntity
  8
ASSI
100
AcDbLine
 62
7
  6
CONTINUOUS
 10
1.6374687248
 20
-4.7853856801
 11
1.4566176318
 21
-4.7145524144
  0
LINE
  5
34E
100
AcDbEntity
  8
0
100
AcDbLine
 62
7
  6
CONTINUOUS
 10
1.8906602093
 20
-5.3520524144
 11
1.7821495586
 21
-5.2812191486
  0
LINE
  5
34F
100
AcDbEntity
  8
ASSI
100
AcDbLine
 62
7
  6
CONTINUOUS
 10
1.8906602093
 20
-5.3520524144
 11
1.7821495586
 21
-5.2812191486
  0
LINE
  5
350
100
AcDbEntity
  8
0
100
AcDbLine
 62
7
  6
CONTINUOUS
 10
0.914064505
 20
-4.5728856801
 11
0.8055537783
 21
-4.5020524144
  0
LINE
  5
351
100
AcDbEntity
  8
ASSI
100
AcDbLine
 62
7
  6
CONTINUOUS
 10
0.914064505
 20
-4.5728856801
 11
0.8055537783
 21
-4.5020524144
  0
LINE
  5
352
100
AcDbEntity
  8
0
100
AcDbLine
 62
7
  6
CONTINUOUS
 10
2.0353410557
 20
-5.2458024144
 11
1.8906602093
 21
-5.1395524144
  0
LINE
  5
353
100
AcDbEntity
  8
ASSI
100
AcDbLine
 62
7
  6
CONTINUOUS
 10
2.0353410557
 20
-5.2458024144
 11
1.8906602093
 21
-5.1395524144
  0
LINE
  5
354
100
AcDbEntity
  8
0
100
AcDbLine
 62
7
  6
CONTINUOUS
 10
1.4566176318
 20
-6.0958024144
 11
1.3842772149
 21
-6.0249690473
  0
LINE
  5
355
100
AcDbEntity
  8
ASSI
100
AcDbLine
 62
7
  6
CONTINUOUS
 10
1.4566176318
 20
-6.0958024144
 11
1.3842772149
 21
-6.0249690473
  0
LINE
  5
356
100
AcDbEntity
  8
DRAFT
100
AcDbLine
 62
7
  6
CONTINUOUS
 10
-2.8199780978
 20
5.5933423365
 11
-2.8199780978
 21
3.9848848348
  0
LINE
  5
357
100
AcDbEntity
  8
ASSI
100
AcDbLine
 62
7
  6
CONTINUOUS
 10
-2.8199780978
 20
5.5933423365
 11
-2.8199780978
 21
3.9848848348
  0
LINE
  5
358
100
AcDbEntity
  8
DRAFT
100
AcDbLine
 62
7
  6
CONTINUOUS
 10
-2.4164870848
 20
7.2100596635
 11
-2.4164870848
 21
2.3681675077
  0
LINE
  5
359
100
AcDbEntity
  8
0
100
AcDbLine
 62
7
  6
CONTINUOUS
 10
-1.9876420978
 20
-5.5223884144
 11
-1.9876420978
 21
-5.1675604144
  0
LINE
  5
35A
100
AcDbEntity
  8
ASSI
100
AcDbLine
 62
7
  6
CONTINUOUS
 10
-1.9876420978
 20
-5.5223884144
 11
-1.9876420978
 21
-5.1675604144
  0
LINE
  5
35B
100
AcDbEntity
  8
0
100
AcDbLine
 62
7
  6
CONTINUOUS
 10
-1.9875400978
 20
-7.0520524144
 11
-1.9875400978
 21
-6.6665994144
  0
LINE
  5
35C
100
AcDbEntity
  8
ASSI
100
AcDbLine
 62
7
  6
CONTINUOUS
 10
-1.9875400978
 20
-7.0520524144
 11
-1.9875400978
 21
-6.6665994144
  0
LINE
  5
35D
100
AcDbEntity
  8
0
100
AcDbLine
 62
7
  6
CONTINUOUS
 10
-1.9875400978
 20
-6.0086524144
 11
-1.9875400978
 21
-5.6540664144
  0
LINE
  5
35E
100
AcDbEntity
  8
ASSI
100
AcDbLine
 62
7
  6
CONTINUOUS
 10
-1.9875400978
 20
-6.0086524144
 11
-1.9875400978
 21
-5.6540664144
  0
LINE
  5
35F
100
AcDbEntity
  8
0
100
AcDbLine
 62
7
  6
CONTINUOUS
 10
-1.9875400978
 20
-4.8230584144
 11
-1.9875400978
 21
-4.4685234144
  0
LINE
  5
360
100
AcDbEntity
  8
ASSI
100
AcDbLine
 62
7
  6
CONTINUOUS
 10
-1.9875400978
 20
-4.8230584144
 11
-1.9875400978
 21
-4.4685234144
  0
LINE
  5
361
100
AcDbEntity
  8
0
100
AcDbLine
 62
7
  6
CONTINUOUS
 10
-1.9875400978
 20
-3.7626144144
 11
-1.9875400978
 21
-3.4115474144
  0
LINE
  5
362
100
AcDbEntity
  8
ASSI
100
AcDbLine
 62
7
  6
CONTINUOUS
 10
-1.9875400978
 20
-3.7626144144
 11
-1.9875400978
 21
-3.4115474144
  0
LINE
  5
363
100
AcDbEntity
  8
0
100
AcDbLine
 62
7
  6
CONTINUOUS
 10
-1.9875400978
 20
-2.6636884144
 11
-1.9875400978
 21
-2.3204344144
  0
LINE
  5
364
100
AcDbEntity
  8
ASSI
100
AcDbLine
 62
7
  6
CONTINUOUS
 10
-1.9875400978
 20
-2.6636884144
 11
-1.9875400978
 21
-2.3204344144
  0
LINE
  5
365
100
AcDbEntity
  8
RACCORDO
100
AcDbLine
 62
7
  6
CONTINUOUS
 10
-9.7522247714
 20
-6.093133088
 11
-9.799743098
 21
-6.1406514146
  0
LINE
  5
366
100
AcDbEntity
  8
ASSI
100
AcDbLine
 62
7
  6
CONTINUOUS
 10
-9.7522247714
 20
-6.093133088
 11
-9.799743098
 21
-6.1406514146
  0
LINE
  5
367
100
AcDbEntity
  8
0
100
AcDbLine
 62
7
  6
CONTINUOUS
 10
-0.2876770978
 20
-2.1728484144
 11
-0.6270300978
 21
-2.2647674144
  0
LINE
  5
368
100
AcDbEntity
  8
ASSI
100
AcDbLine
 62
7
  6
CONTINUOUS
 10
-0.2876770978
 20
-2.1728484144
 11
-0.6270300978
 21
-2.2647674144
  0
LINE
  5
369
100
AcDbEntity
  8
0
100
AcDbLine
 62
7
  6
CONTINUOUS
 10
-0.8896200978
 20
-2.3356804144
 11
-1.5204610978
 21
-2.4987284144
  0
LINE
  5
36A
100
AcDbEntity
  8
ASSI
100
AcDbLine
 62
7
  6
CONTINUOUS
 10
-0.8896200978
 20
-2.3356804144
 11
-1.5204610978
 21
-2.4987284144
  0
LINE
  5
36B
100
AcDbEntity
  8
0
100
AcDbLine
 62
7
  6
CONTINUOUS
 10
0.7693835699
 20
-2.3770524144
 11
1.4566176318
 21
-2.3770524144
  0
LINE
  5
36C
100
AcDbEntity
  8
ASSI
100
AcDbLine
 62
7
  6
CONTINUOUS
 10
0.7693835699
 20
-2.3770524144
 11
1.4566176318
 21
-2.3770524144
  0
LINE
  5
36D
100
AcDbEntity
  8
0
100
AcDbLine
 62
7
  6
CONTINUOUS
 10
1.6736389332
 20
-2.3770524144
 11
2.1800219022
 21
-2.3770524144
  0
LINE
  5
36E
100
AcDbEntity
  8
ASSI
100
AcDbLine
 62
7
  6
CONTINUOUS
 10
1.6736389332
 20
-2.3770524144
 11
2.1800219022
 21
-2.3770524144
  0
LINE
  5
36F
100
AcDbEntity
  8
0
100
AcDbLine
 62
7
  6
CONTINUOUS
 10
0.4800219022
 20
-2.1645524144
 11
1.4566176318
 21
-2.1645524144
  0
LINE
  5
370
100
AcDbEntity
  8
ASSI
100
AcDbLine
 62
7
  6
CONTINUOUS
 10
0.4800219022
 20
-2.1645524144
 11
1.4566176318
 21
-2.1645524144
  0
LINE
  5
371
100
AcDbEntity
  8
0
100
AcDbLine
 62
7
  6
CONTINUOUS
 10
1.6736389332
 20
-2.1645524144
 11
2.1800219022
 21
-2.1645524144
  0
LINE
  5
372
100
AcDbEntity
  8
ASSI
100
AcDbLine
 62
7
  6
CONTINUOUS
 10
1.6736389332
 20
-2.1645524144
 11
2.1800219022
 21
-2.1645524144
  0
LINE
  5
373
100
AcDbEntity
  8
0
100
AcDbLine
 62
7
  6
CONTINUOUS
 10
-0.8896200978
 20
-2.6754024144
 11
-1.5204610978
 21
-2.4987284144
  0
LINE
  5
374
100
AcDbEntity
  8
ASSI
100
AcDbLine
 62
7
  6
CONTINUOUS
 10
-0.8896200978
 20
-2.6754024144
 11
-1.5204610978
 21
-2.4987284144
  0
LINE
  5
375
100
AcDbEntity
  8
0
100
AcDbLine
 62
7
  6
CONTINUOUS
 10
-0.2876770978
 20
-2.8458954144
 11
-0.6270300978
 21
-2.7479844144
  0
LINE
  5
376
100
AcDbEntity
  8
ASSI
100
AcDbLine
 62
7
  6
CONTINUOUS
 10
-0.2876770978
 20
-2.8458954144
 11
-0.6270300978
 21
-2.7479844144
  0
LINE
  5
377
100
AcDbEntity
  8
0
100
AcDbLine
 62
7
  6
CONTINUOUS
 10
1.9268304177
 20
-3.5812189459
 11
1.7459793501
 21
-3.5103858828
  0
LINE
  5
378
100
AcDbEntity
  8
ASSI
100
AcDbLine
 62
7
  6
CONTINUOUS
 10
1.9268304177
 20
-3.5812189459
 11
1.7459793501
 21
-3.5103858828
  0
LINE
  5
379
100
AcDbEntity
  8
0
100
AcDbLine
 62
7
  6
CONTINUOUS
 10
1.1672559642
 20
-3.6166358828
 11
1.0225751304
 21
-3.5458024144
  0
LINE
  5
37A
100
AcDbEntity
  8
ASSI
100
AcDbLine
 62
7
  6
CONTINUOUS
 10
1.1672559642
 20
-3.6166358828
 11
1.0225751304
 21
-3.5458024144
  0
LINE
  5
37B
100
AcDbEntity
  8
0
100
AcDbLine
 62
7
  6
CONTINUOUS
 10
1.0949155473
 20
-3.7937191486
 11
0.9864049219
 21
-3.7228856801
  0
LINE
  5
37C
100
AcDbEntity
  8
ASSI
100
AcDbLine
 62
7
  6
CONTINUOUS
 10
1.0949155473
 20
-3.7937191486
 11
0.9864049219
 21
-3.7228856801
  0
LINE
  5
37D
100
AcDbEntity
  8
0
100
AcDbLine
 62
7
  6
CONTINUOUS
 10
1.6374687248
 20
-4.6083024144
 11
1.4927878403
 21
-4.5020524144
  0
LINE
  5
37E
100
AcDbEntity
  8
ASSI
100
AcDbLine
 62
7
  6
CONTINUOUS
 10
1.6374687248
 20
-4.6083024144
 11
1.4927878403
 21
-4.5020524144
  0
LINE
  5
37F
100
AcDbEntity
  8
0
100
AcDbLine
 62
7
  6
CONTINUOUS
 10
1.8906602093
 20
-3.7937191486
 11
1.7459793501
 21
-3.6874691486
  0
LINE
  5
380
100
AcDbEntity
  8
ASSI
100
AcDbLine
 62
7
  6
CONTINUOUS
 10
1.8906602093
 20
-3.7937191486
 11
1.7459793501
 21
-3.6874691486
  0
LINE
  5
381
100
AcDbEntity
  8
0
100
AcDbLine
 62
7
  6
CONTINUOUS
 10
0.7332133614
 20
-4.6791356801
 11
0.624702736
 21
-4.5728856801
  0
LINE
  5
382
100
AcDbEntity
  8
ASSI
100
AcDbLine
 62
7
  6
CONTINUOUS
 10
0.7332133614
 20
-4.6791356801
 11
0.624702736
 21
-4.5728856801
  0
LINE
  5
383
100
AcDbEntity
  8
RACCORDO
100
AcDbLine
 62
253
  6
CONTINUOUS
 10
-6.9788122552
 20
3.0979934345
 11
-6.9480632817
 21
3.067244461
  0
LINE
  5
384
100
AcDbEntity
  8
ASSI
100
AcDbLine
 62
253
  6
CONTINUOUS
 10
-6.9788122552
 20
3.0979934345
 11
-6.9480632817
 21
3.067244461
  0
LINE
  5
385
100
AcDbEntity
  8
RACCORDO
100
AcDbLine
 62
253
  6
CONTINUOUS
 10
-6.6788579467
 20
3.3979477431
 11
-6.648032717
 21
3.3671225134
  0
LINE
  5
386
100
AcDbEntity
  8
ASSI
100
AcDbLine
 62
253
  6
CONTINUOUS
 10
-6.6788579467
 20
3.3979477431
 11
-6.648032717
 21
3.3671225134
  0
LINE
  5
387
100
AcDbEntity
  8
RACCORDO
100
AcDbLine
 62
7
  6
CONTINUOUS
 10
-11.1129960718
 20
8.0414787804
 11
-11.043125019
 21
7.9716077277
  0
LINE
  5
388
100
AcDbEntity
  8
ASSI
100
AcDbLine
 62
7
  6
CONTINUOUS
 10
-11.1129960718
 20
8.0414787804
 11
-11.043125019
 21
7.9716077277
  0
LINE
  5
389
100
AcDbEntity
  8
0
100
AcDbLine
 62
7
  6
CONTINUOUS
 10
0.8055537783
 20
-4.5020524144
 11
0.697043153
 21
-4.3603856801
  0
LINE
  5
38A
100
AcDbEntity
  8
ASSI
100
AcDbLine
 62
7
  6
CONTINUOUS
 10
0.8055537783
 20
-4.5020524144
 11
0.697043153
 21
-4.3603856801
  0
LINE
  5
38B
100
AcDbEntity
  8
0
100
AcDbLine
 62
7
  6
CONTINUOUS
 10
0.7693835699
 20
-6.0249690473
 11
0.697043153
 21
-5.9187190473
  0
LINE
  5
38C
100
AcDbEntity
  8
ASSI
100
AcDbLine
 62
7
  6
CONTINUOUS
 10
0.7693835699
 20
-6.0249690473
 11
0.697043153
 21
-5.9187190473
  0
LINE
  5
38D
100
AcDbEntity
  8
0
100
AcDbLine
 62
7
  6
CONTINUOUS
 10
1.2757665895
 20
-6.1666357815
 11
1.1310857557
 21
-5.9541357815
  0
LINE
  5
38E
100
AcDbEntity
  8
ASSI
100
AcDbLine
 62
7
  6
CONTINUOUS
 10
1.2757665895
 20
-6.1666357815
 11
1.1310857557
 21
-5.9541357815
  0
LINE
  5
38F
100
AcDbEntity
  8
0
100
AcDbLine
 62
7
  6
CONTINUOUS
 10
1.3842772149
 20
-6.0249690473
 11
1.311936798
 21
-5.9187190473
  0
LINE
  5
390
100
AcDbEntity
  8
ASSI
100
AcDbLine
 62
7
  6
CONTINUOUS
 10
1.3842772149
 20
-6.0249690473
 11
1.311936798
 21
-5.9187190473
  0
LINE
  5
391
100
AcDbEntity
  8
0
100
AcDbLine
 62
7
  6
CONTINUOUS
 10
0.624702736
 20
-6.1312190473
 11
0.5161921107
 21
-5.9541357815
  0
LINE
  5
392
100
AcDbEntity
  8
ASSI
100
AcDbLine
 62
7
  6
CONTINUOUS
 10
0.624702736
 20
-6.1312190473
 11
0.5161921107
 21
-5.9541357815
  0
LINE
  5
393
100
AcDbEntity
  8
0
100
AcDbLine
 62
7
  6
CONTINUOUS
 10
-1.2313062663
 20
-1.3530449827
 11
-1.2313062663
 21
-1.1502642699
  0
LINE
  5
394
100
AcDbEntity
  8
ASSI
100
AcDbLine
 62
7
  6
CONTINUOUS
 10
-1.2313062663
 20
-1.3530449827
 11
-1.2313062663
 21
-1.1502642699
  0
LINE
  5
395
100
AcDbEntity
  8
0
100
AcDbLine
 62
7
  6
CONTINUOUS
 10
-0.9529098137
 20
-1.3412794184
 11
-0.9529098137
 21
-1.1510290953
  0
LINE
  5
396
100
AcDbEntity
  8
ASSI
100
AcDbLine
 62
7
  6
CONTINUOUS
 10
-0.9529098137
 20
-1.3412794184
 11
-0.9529098137
 21
-1.1510290953
  0
LINE
  5
397
100
AcDbEntity
  8
0
100
AcDbLine
 62
7
  6
CONTINUOUS
 10
-0.8896200978
 20
-2.6754024144
 11
-0.8896200978
 21
-2.3356804144
  0
LINE
  5
398
100
AcDbEntity
  8
ASSI
100
AcDbLine
 62
7
  6
CONTINUOUS
 10
-0.8896200978
 20
-2.6754024144
 11
-0.8896200978
 21
-2.3356804144
  0
LINE
  5
399
100
AcDbEntity
  8
RACCORDO
100
AcDbLine
 62
7
  6
CONTINUOUS
 10
6.8248767726
 20
7.983968456
 11
6.8073711863
 21
7.9664628697
  0
LINE
  5
39A
100
AcDbEntity
  8
ASSI
100
AcDbLine
 62
7
  6
CONTINUOUS
 10
6.8248767726
 20
7.983968456
 11
6.8073711863
 21
7.9664628697
  0
LINE
  5
39B
100
AcDbEntity
  8
DRAFT
100
AcDbLine
 62
7
  6
CONTINUOUS
 10
9.5800219022
 20
-1.030959739
 11
9.9800219022
 21
-1.0269286645
  0
LINE
  5
39C
100
AcDbEntity
  8
ASSI
100
AcDbLine
 62
7
  6
CONTINUOUS
 10
9.5800219022
 20
-1.030959739
 11
9.9800219022
 21
-1.0269286645
  0
LINE
  5
39D
100
AcDbEntity
  8
0
100
AcDbLine
 62
7
  6
CONTINUOUS
 10
1.4566176318
 20
-1.8103858828
 11
1.6736389332
 21
-1.8103858828
  0
LINE
  5
39E
100
AcDbEntity
  8
ASSI
100
AcDbLine
 62
7
  6
CONTINUOUS
 10
1.4566176318
 20
-1.8103858828
 11
1.6736389332
 21
-1.8103858828
  0
LINE
  5
39F
100
AcDbEntity
  8
DRAFT
100
AcDbLine
 62
7
  6
CONTINUOUS
 10
-11.3404903397
 20
-1.7403741724
 11
-10.3994658558
 21
-1.7403741724
  0
LINE
  5
3A0
100
AcDbEntity
  8
ASSI
100
AcDbLine
 62
7
  6
CONTINUOUS
 10
-11.3404903397
 20
-1.7403741724
 11
-10.3994658558
 21
-1.7403741724
  0
LINE
  5
3A1
100
AcDbEntity
  8
DRAFT
100
AcDbLine
 62
7
  6
CONTINUOUS
 10
10.5595096603
 20
-1.7403741724
 11
11.5005341442
 21
-1.7403741724
  0
LINE
  5
3A2
100
AcDbEntity
  8
ASSI
100
AcDbLine
 62
7
  6
CONTINUOUS
 10
10.5595096603
 20
-1.7403741724
 11
11.5005341442
 21
-1.7403741724
  0
LINE
  5
3A3
100
AcDbEntity
  8
DRAFT
100
AcDbLine
 62
7
  6
CONTINUOUS
 10
-12.2199780978
 20
-1.699394851
 11
-11.4199780978
 21
-1.699394851
  0
LINE
  5
3A4
100
AcDbEntity
  8
ASSI
100
AcDbLine
 62
7
  6
CONTINUOUS
 10
-12.2199780978
 20
-1.699394851
 11
-11.4199780978
 21
-1.699394851
  0
LINE
  5
3A5
100
AcDbEntity
  8
DRAFT
100
AcDbLine
 62
7
  6
CONTINUOUS
 10
11.5800219022
 20
-1.699394851
 11
12.3800219022
 21
-1.699394851
  0
LINE
  5
3A6
100
AcDbEntity
  8
ASSI
100
AcDbLine
 62
7
  6
CONTINUOUS
 10
11.5800219022
 20
-1.699394851
 11
12.3800219022
 21
-1.699394851
  0
LINE
  5
3A7
100
AcDbEntity
  8
0
100
AcDbLine
 62
7
  6
CONTINUOUS
 10
-0.2876774111
 20
-1.6946797504
 11
-1.9676801799
 21
-1.6946797504
  0
LINE
  5
3A8
100
AcDbEntity
  8
ASSI
100
AcDbLine
 62
7
  6
CONTINUOUS
 10
-0.2876774111
 20
-1.6946797504
 11
-1.9676801799
 21
-1.6946797504
  0
LINE
  5
3A9
100
AcDbEntity
  8
DRAFT
100
AcDbLine
 62
7
  6
CONTINUOUS
 10
-11.1025230328
 20
-1.6783414793
 11
-10.3374331627
 21
-1.6783414793
  0
LINE
  5
3AA
100
AcDbEntity
  8
ASSI
100
AcDbLine
 62
7
  6
CONTINUOUS
 10
-11.1025230328
 20
-1.6783414793
 11
-10.3374331627
 21
-1.6783414793
  0
LINE
  5
3AB
100
AcDbEntity
  8
DRAFT
100
AcDbLine
 62
7
  6
CONTINUOUS
 10
11.2625668373
 20
-1.6783414793
 11
10.4974769672
 21
-1.6783414793
  0
LINE
  5
3AC
100
AcDbEntity
  8
ASSI
100
AcDbLine
 62
7
  6
CONTINUOUS
 10
11.2625668373
 20
-1.6783414793
 11
10.4974769672
 21
-1.6783414793
  0
LINE
  5
3AD
100
AcDbEntity
  8
DRAFT
100
AcDbLine
 62
7
  6
CONTINUOUS
 10
-11.4199780978
 20
-1.6608864144
 11
-11.1199780978
 21
-1.6608864144
  0
LINE
  5
3AE
100
AcDbEntity
  8
ASSI
100
AcDbLine
 62
7
  6
CONTINUOUS
 10
-11.4199780978
 20
-1.6608864144
 11
-11.1199780978
 21
-1.6608864144
  0
LINE
  5
3AF
100
AcDbEntity
  8
DRAFT
100
AcDbLine
 62
7
  6
CONTINUOUS
 10
11.2800219022
 20
-1.6608864144
 11
11.5800219022
 21
-1.6608864144
  0
LINE
  5
3B0
100
AcDbEntity
  8
ASSI
100
AcDbLine
 62
7
  6
CONTINUOUS
 10
11.2800219022
 20
-1.6608864144
 11
11.5800219022
 21
-1.6608864144
  0
LINE
  5
3B1
100
AcDbEntity
  8
0
100
AcDbLine
 62
7
  6
CONTINUOUS
 10
0.7332133614
 20
-1.5270524144
 11
1.0225751304
 21
-1.5270524144
  0
LINE
  5
3B2
100
AcDbEntity
  8
ASSI
100
AcDbLine
 62
7
  6
CONTINUOUS
 10
0.7332133614
 20
-1.5270524144
 11
1.0225751304
 21
-1.5270524144
  0
LINE
  5
3B3
100
AcDbEntity
  8
0
100
AcDbLine
 62
7
  6
CONTINUOUS
 10
-1.2313062663
 20
-1.3530449827
 11
-1.6979517488
 21
-1.3530449827
  0
LINE
  5
3B4
100
AcDbEntity
  8
ASSI
100
AcDbLine
 62
7
  6
CONTINUOUS
 10
-1.2313062663
 20
-1.3530449827
 11
-1.6979517488
 21
-1.3530449827
  0
LINE
  5
3B5
100
AcDbEntity
  8
0
100
AcDbLine
 62
7
  6
CONTINUOUS
 10
-0.2876774111
 20
-1.3412794184
 11
-0.9529098137
 21
-1.3412794184
  0
LINE
  5
3B6
100
AcDbEntity
  8
ASSI
100
AcDbLine
 62
7
  6
CONTINUOUS
 10
-0.2876774111
 20
-1.3412794184
 11
-0.9529098137
 21
-1.3412794184
  0
LINE
  5
3B7
100
AcDbEntity
  8
0
100
AcDbLine
 62
7
  6
CONTINUOUS
 10
0.7693835699
 20
-1.3145524144
 11
2.1800219022
 21
-1.3145524144
  0
LINE
  5
3B8
100
AcDbEntity
  8
ASSI
100
AcDbLine
 62
7
  6
CONTINUOUS
 10
0.7693835699
 20
-1.3145524144
 11
2.1800219022
 21
-1.3145524144
  0
LINE
  5
3B9
100
AcDbEntity
  8
0
100
AcDbLine
 62
7
  6
CONTINUOUS
 10
0.4800219022
 20
-1.1020524144
 11
2.1800219022
 21
-1.1020524144
  0
LINE
  5
3BA
100
AcDbEntity
  8
ASSI
100
AcDbLine
 62
7
  6
CONTINUOUS
 10
0.4800219022
 20
-1.1020524144
 11
2.1800219022
 21
-1.1020524144
  0
LINE
  5
3BB
100
AcDbEntity
  8
DRAFT
100
AcDbLine
 62
7
  6
CONTINUOUS
 10
-11.1025230328
 20
-1.0527785702
 11
-10.0699780978
 21
-1.0527785702
  0
LINE
  5
3BC
100
AcDbEntity
  8
ASSI
100
AcDbLine
 62
7
  6
CONTINUOUS
 10
-11.1025230328
 20
-1.0527785702
 11
-10.0699780978
 21
-1.0527785702
  0
LINE
  5
3BD
100
AcDbEntity
  8
DRAFT
100
AcDbLine
 62
7
  6
CONTINUOUS
 10
10.2300219022
 20
-1.0527785702
 11
11.2625668373
 21
-1.0527785702
  0
LINE
  5
3BE
100
AcDbEntity
  8
ASSI
100
AcDbLine
 62
7
  6
CONTINUOUS
 10
10.2300219022
 20
-1.0527785702
 11
11.2625668373
 21
-1.0527785702
  0
LINE
  5
3BF
100
AcDbEntity
  8
RACCORDO
100
AcDbLine
 62
7
  6
CONTINUOUS
 10
-10.7453472113
 20
-0.9904134992
 11
-9.8199780978
 21
-0.9904134992
  0
LINE
  5
3C0
100
AcDbEntity
  8
ASSI
100
AcDbLine
 62
7
  6
CONTINUOUS
 10
-10.7453472113
 20
-0.9904134992
 11
-9.8199780978
 21
-0.9904134992
  0
LINE
  5
3C1
100
AcDbEntity
  8
RACCORDO
100
AcDbLine
 62
7
  6
CONTINUOUS
 10
9.9800219022
 20
-0.9904134992
 11
10.9053910158
 21
-0.9904134992
  0
LINE
  5
3C2
100
AcDbEntity
  8
ASSI
100
AcDbLine
 62
7
  6
CONTINUOUS
 10
9.9800219022
 20
-0.9904134992
 11
10.9053910158
 21
-0.9904134992
  0
LINE
  5
3C3
100
AcDbEntity
  8
DRAFT
100
AcDbLine
 62
7
  6
CONTINUOUS
 10
-9.8199780978
 20
-1.0269286645
 11
-9.4199780978
 21
-1.030959739
  0
LINE
  5
3C4
100
AcDbEntity
  8
ASSI
100
AcDbLine
 62
7
  6
CONTINUOUS
 10
-9.8199780978
 20
-1.0269286645
 11
-9.4199780978
 21
-1.030959739
  0
LINE
  5
3C5
100
AcDbEntity
  8
0
100
AcDbLine
 62
7
  6
CONTINUOUS
 10
1.4566176318
 20
-3.2270524144
 11
0.4800219022
 21
-2.3770524144
  0
LINE
  5
3C6
100
AcDbEntity
  8
ASSI
100
AcDbLine
 62
7
  6
CONTINUOUS
 10
1.4566176318
 20
-3.2270524144
 11
0.4800219022
 21
-2.3770524144
  0
LINE
  5
3C7
100
AcDbEntity
  8
0
100
AcDbLine
 62
7
  6
CONTINUOUS
 10
1.4566176318
 20
-2.9791358828
 11
0.7693835699
 21
-2.3770524144
  0
LINE
  5
3C8
100
AcDbEntity
  8
ASSI
100
AcDbLine
 62
7
  6
CONTINUOUS
 10
1.4566176318
 20
-2.9791358828
 11
0.7693835699
 21
-2.3770524144
  0
LINE
  5
3C9
100
AcDbEntity
  8
0
100
AcDbLine
 62
7
  6
CONTINUOUS
 10
1.2757665895
 20
-3.7228856801
 11
1.1672559642
 21
-3.6166358828
  0
LINE
  5
3CA
100
AcDbEntity
  8
ASSI
100
AcDbLine
 62
7
  6
CONTINUOUS
 10
1.2757665895
 20
-3.7228856801
 11
1.1672559642
 21
-3.6166358828
  0
LINE
  5
3CB
100
AcDbEntity
  8
0
100
AcDbLine
 62
7
  6
CONTINUOUS
 10
2.0353410557
 20
-3.6874691486
 11
1.9268304177
 21
-3.5812189459
  0
LINE
  5
3CC
100
AcDbEntity
  8
ASSI
100
AcDbLine
 62
7
  6
CONTINUOUS
 10
2.0353410557
 20
-3.6874691486
 11
1.9268304177
 21
-3.5812189459
  0
LINE
  5
3CD
100
AcDbEntity
  8
RACCORDO
100
AcDbLine
 62
253
  6
CONTINUOUS
 10
5.2451264747
 20
-6.5759452954
 11
5.2748767726
 21
-6.6056955933
  0
LINE
  5
3CE
100
AcDbEntity
  8
ASSI
100
AcDbLine
 62
253
  6
CONTINUOUS
 10
5.2451264747
 20
-6.5759452954
 11
5.2748767726
 21
-6.6056955933
  0
LINE
  5
3CF
100
AcDbEntity
  8
0
100
AcDbLine
 62
7
  6
CONTINUOUS
 10
1.4566176318
 20
-4.7145524144
 11
1.3481070065
 21
-4.5728856801
  0
LINE
  5
3D0
100
AcDbEntity
  8
ASSI
100
AcDbLine
 62
7
  6
CONTINUOUS
 10
1.4566176318
 20
-4.7145524144
 11
1.3481070065
 21
-4.5728856801
  0
LINE
  5
3D1
100
AcDbEntity
  8
0
100
AcDbLine
 62
7
  6
CONTINUOUS
 10
1.2034261726
 20
-3.9353856801
 11
1.0949155473
 21
-3.7937191486
  0
LINE
  5
3D2
100
AcDbEntity
  8
ASSI
100
AcDbLine
 62
7
  6
CONTINUOUS
 10
1.2034261726
 20
-3.9353856801
 11
1.0949155473
 21
-3.7937191486
  0
LINE
  5
3D3
100
AcDbEntity
  8
0
100
AcDbLine
 62
7
  6
CONTINUOUS
 10
1.9630006262
 20
-5.4583024144
 11
1.8906602093
 21
-5.3520524144
  0
LINE
  5
3D4
100
AcDbEntity
  8
ASSI
100
AcDbLine
 62
7
  6
CONTINUOUS
 10
1.9630006262
 20
-5.4583024144
 11
1.8906602093
 21
-5.3520524144
  0
LINE
  5
3D5
100
AcDbEntity
  8
0
100
AcDbLine
 62
7
  6
CONTINUOUS
 10
0.624702736
 20
-4.5728856801
 11
0.5161921107
 21
-4.3958024144
  0
LINE
  5
3D6
100
AcDbEntity
  8
ASSI
100
AcDbLine
 62
7
  6
CONTINUOUS
 10
0.624702736
 20
-4.5728856801
 11
0.5161921107
 21
-4.3958024144
  0
LINE
  5
3D7
100
AcDbEntity
  8
0
100
AcDbLine
 62
7
  6
CONTINUOUS
 10
2.1438516906
 20
-5.4228857815
 11
2.0353410557
 21
-5.2458024144
  0
LINE
  5
3D8
100
AcDbEntity
  8
ASSI
100
AcDbLine
 62
7
  6
CONTINUOUS
 10
2.1438516906
 20
-5.4228857815
 11
2.0353410557
 21
-5.2458024144
  0
LINE
  5
3D9
100
AcDbEntity
  8
0
100
AcDbLine
 62
7
  6
CONTINUOUS
 10
1.3481070065
 20
-4.5728856801
 11
1.311936798
 21
-4.5020524144
  0
LINE
  5
3DA
100
AcDbEntity
  8
ASSI
100
AcDbLine
 62
7
  6
CONTINUOUS
 10
1.3481070065
 20
-4.5728856801
 11
1.311936798
 21
-4.5020524144
  0
LINE
  5
3DB
100
AcDbEntity
  8
0
100
AcDbLine
 62
7
  6
CONTINUOUS
 10
0.697043153
 20
-5.9187190473
 11
0.6608729445
 21
-5.8124690473
  0
LINE
  5
3DC
100
AcDbEntity
  8
ASSI
100
AcDbLine
 62
7
  6
CONTINUOUS
 10
0.697043153
 20
-5.9187190473
 11
0.6608729445
 21
-5.8124690473
  0
LINE
  5
3DD
100
AcDbEntity
  8
0
100
AcDbLine
 62
7
  6
CONTINUOUS
 10
-0.6270300978
 20
-2.7479844144
 11
-0.6270300978
 21
-2.2647674144
  0
LINE
  5
3DE
100
AcDbEntity
  8
ASSI
100
AcDbLine
 62
7
  6
CONTINUOUS
 10
-0.6270300978
 20
-2.7479844144
 11
-0.6270300978
 21
-2.2647674144
  0
LINE
  5
3DF
100
AcDbEntity
  8
0
100
AcDbLine
 62
7
  6
CONTINUOUS
 10
-0.2876774111
 20
-1.6946797504
 11
-0.2876774111
 21
-1.3412794184
  0
LINE
  5
3E0
100
AcDbEntity
  8
ASSI
100
AcDbLine
 62
7
  6
CONTINUOUS
 10
-0.2876774111
 20
-1.6946797504
 11
-0.2876774111
 21
-1.3412794184
  0
LINE
  5
3E1
100
AcDbEntity
  8
0
100
AcDbLine
 62
7
  6
CONTINUOUS
 10
-0.2876774111
 20
-0.7979091993
 11
-0.2876774111
 21
-0.4566058559
  0
LINE
  5
3E2
100
AcDbEntity
  8
ASSI
100
AcDbLine
 62
7
  6
CONTINUOUS
 10
-0.2876774111
 20
-0.7979091993
 11
-0.2876774111
 21
-0.4566058559
  0
LINE
  5
3E3
100
AcDbEntity
  8
0
100
AcDbLine
 62
7
  6
CONTINUOUS
 10
-0.2876770978
 20
-6.5131624144
 11
-0.2876770978
 21
-6.2004704144
  0
LINE
  5
3E4
100
AcDbEntity
  8
ASSI
100
AcDbLine
 62
7
  6
CONTINUOUS
 10
-0.2876770978
 20
-6.5131624144
 11
-0.2876770978
 21
-6.2004704144
  0
LINE
  5
3E5
100
AcDbEntity
  8
0
100
AcDbLine
 62
7
  6
CONTINUOUS
 10
-0.2876770978
 20
-5.5223884144
 11
-0.2876770978
 21
-5.1675604144
  0
LINE
  5
3E6
100
AcDbEntity
  8
ASSI
100
AcDbLine
 62
7
  6
CONTINUOUS
 10
-0.2876770978
 20
-5.5223884144
 11
-0.2876770978
 21
-5.1675604144
  0
LINE
  5
3E7
100
AcDbEntity
  8
0
100
AcDbLine
 62
7
  6
CONTINUOUS
 10
-0.2876770978
 20
-4.9765454144
 11
-0.2876770978
 21
-4.6370904144
  0
LINE
  5
3E8
100
AcDbEntity
  8
ASSI
100
AcDbLine
 62
7
  6
CONTINUOUS
 10
-0.2876770978
 20
-4.9765454144
 11
-0.2876770978
 21
-4.6370904144
  0
LINE
  5
3E9
100
AcDbEntity
  8
0
100
AcDbLine
 62
7
  6
CONTINUOUS
 10
-0.2876770978
 20
-4.1442624144
 11
-0.2876770978
 21
-4.0944984144
  0
LINE
  5
3EA
100
AcDbEntity
  8
ASSI
100
AcDbLine
 62
7
  6
CONTINUOUS
 10
-0.2876770978
 20
-4.1442624144
 11
-0.2876770978
 21
-4.0944984144
  0
LINE
  5
3EB
100
AcDbEntity
  8
0
100
AcDbLine
 62
7
  6
CONTINUOUS
 10
-0.2876770978
 20
-3.5997064144
 11
-0.2876770978
 21
-3.2525904144
  0
LINE
  5
3EC
100
AcDbEntity
  8
ASSI
100
AcDbLine
 62
7
  6
CONTINUOUS
 10
-0.2876770978
 20
-3.5997064144
 11
-0.2876770978
 21
-3.2525904144
  0
LINE
  5
3ED
100
AcDbEntity
  8
0
100
AcDbLine
 62
7
  6
CONTINUOUS
 10
-0.2876770978
 20
-3.1968734144
 11
-0.2876770978
 21
-2.8458954144
  0
LINE
  5
3EE
100
AcDbEntity
  8
ASSI
100
AcDbLine
 62
7
  6
CONTINUOUS
 10
-0.2876770978
 20
-3.1968734144
 11
-0.2876770978
 21
-2.8458954144
  0
LINE
  5
3EF
100
AcDbEntity
  8
0
100
AcDbLine
 62
7
  6
CONTINUOUS
 10
-0.2876770978
 20
-2.1728484144
 11
-0.2876770978
 21
-1.7988744144
  0
LINE
  5
3F0
100
AcDbEntity
  8
ASSI
100
AcDbLine
 62
7
  6
CONTINUOUS
 10
-0.2876770978
 20
-2.1728484144
 11
-0.2876770978
 21
-1.7988744144
  0
LINE
  5
3F1
100
AcDbEntity
  8
DRAFT
100
AcDbLine
 62
7
  6
CONTINUOUS
 10
-9.4199780978
 20
-1.041432778
 11
-10.0699780978
 21
-1.0527785702
  0
LINE
  5
3F2
100
AcDbEntity
  8
ASSI
100
AcDbLine
 62
7
  6
CONTINUOUS
 10
-9.4199780978
 20
-1.041432778
 11
-10.0699780978
 21
-1.0527785702
  0
LINE
  5
3F3
100
AcDbEntity
  8
0
100
AcDbLine
 62
7
  6
CONTINUOUS
 10
-1.0811582894
 20
-0.7824342316
 11
-1.0912029966
 21
-0.7824342316
  0
LINE
  5
3F4
100
AcDbEntity
  8
ASSI
100
AcDbLine
 62
7
  6
CONTINUOUS
 10
-1.0811582894
 20
-0.7824342316
 11
-1.0912029966
 21
-0.7824342316
  0
LINE
  5
3F5
100
AcDbEntity
  8
DRAFT
100
AcDbLine
 62
7
  6
CONTINUOUS
 10
10.2300219022
 20
-1.0527785702
 11
9.5800219022
 21
-1.041432778
  0
LINE
  5
3F6
100
AcDbEntity
  8
ASSI
100
AcDbLine
 62
7
  6
CONTINUOUS
 10
10.2300219022
 20
-1.0527785702
 11
9.5800219022
 21
-1.041432778
  0
LINE
  5
3F7
100
AcDbEntity
  8
0
100
AcDbLine
 62
7
  6
CONTINUOUS
 10
0.7332133614
 20
-1.5270524144
 11
0.4800219022
 21
-1.3145524144
  0
LINE
  5
3F8
100
AcDbEntity
  8
ASSI
100
AcDbLine
 62
7
  6
CONTINUOUS
 10
0.7332133614
 20
-1.5270524144
 11
0.4800219022
 21
-1.3145524144
  0
LINE
  5
3F9
100
AcDbEntity
  8
0
100
AcDbLine
 62
7
  6
CONTINUOUS
 10
1.0225751304
 20
-1.5270524144
 11
0.7693835699
 21
-1.3145524144
  0
LINE
  5
3FA
100
AcDbEntity
  8
ASSI
100
AcDbLine
 62
7
  6
CONTINUOUS
 10
1.0225751304
 20
-1.5270524144
 11
0.7693835699
 21
-1.3145524144
  0
LINE
  5
3FB
100
AcDbEntity
  8
RACCORDO
100
AcDbLine
 62
253
  6
CONTINUOUS
 10
5.5448850913
 20
-6.2757952949
 11
5.574831094
 21
-6.3057412976
  0
LINE
  5
3FC
100
AcDbEntity
  8
ASSI
100
AcDbLine
 62
253
  6
CONTINUOUS
 10
5.5448850913
 20
-6.2757952949
 11
5.574831094
 21
-6.3057412976
  0
LINE
  5
3FD
100
AcDbEntity
  8
0
100
AcDbLine
 62
7
  6
CONTINUOUS
 10
2.1438516906
 20
-3.8645524144
 11
2.0353410557
 21
-3.6874691486
  0
LINE
  5
3FE
100
AcDbEntity
  8
ASSI
100
AcDbLine
 62
7
  6
CONTINUOUS
 10
2.1438516906
 20
-3.8645524144
 11
2.0353410557
 21
-3.6874691486
  0
LINE
  5
3FF
100
AcDbEntity
  8
0
100
AcDbLine
 62
7
  6
CONTINUOUS
 10
1.4927878403
 20
-4.5020524144
 11
1.4204474234
 21
-4.3603856801
  0
LINE
  5
400
100
AcDbEntity
  8
ASSI
100
AcDbLine
 62
7
  6
CONTINUOUS
 10
1.4927878403
 20
-4.5020524144
 11
1.4204474234
 21
-4.3603856801
  0
LINE
  5
401
100
AcDbEntity
  8
0
100
AcDbLine
 62
7
  6
CONTINUOUS
 10
1.311936798
 20
-3.7937191486
 11
1.2757665895
 21
-3.7228856801
  0
LINE
  5
402
100
AcDbEntity
  8
ASSI
100
AcDbLine
 62
7
  6
CONTINUOUS
 10
1.311936798
 20
-3.7937191486
 11
1.2757665895
 21
-3.7228856801
  0
LINE
  5
403
100
AcDbEntity
  8
0
100
AcDbLine
 62
7
  6
CONTINUOUS
 10
1.9630006262
 20
-3.9353856801
 11
1.8906602093
 21
-3.7937191486
  0
LINE
  5
404
100
AcDbEntity
  8
ASSI
100
AcDbLine
 62
7
  6
CONTINUOUS
 10
1.9630006262
 20
-3.9353856801
 11
1.8906602093
 21
-3.7937191486
  0
LINE
  5
405
100
AcDbEntity
  8
0
100
AcDbLine
 62
7
  6
CONTINUOUS
 10
1.311936798
 20
-5.9187190473
 11
1.2757665895
 21
-5.8124690473
  0
LINE
  5
406
100
AcDbEntity
  8
ASSI
100
AcDbLine
 62
7
  6
CONTINUOUS
 10
1.311936798
 20
-5.9187190473
 11
1.2757665895
 21
-5.8124690473
  0
LINE
  5
407
100
AcDbEntity
  8
0
100
AcDbLine
 62
7
  6
CONTINUOUS
 10
1.9991708346
 20
-5.5645524144
 11
1.9630006262
 21
-5.4583024144
  0
LINE
  5
408
100
AcDbEntity
  8
ASSI
100
AcDbLine
 62
7
  6
CONTINUOUS
 10
1.9991708346
 20
-5.5645524144
 11
1.9630006262
 21
-5.4583024144
  0
LINE
  5
409
100
AcDbEntity
  8
0
100
AcDbLine
 62
7
  6
CONTINUOUS
 10
0.697043153
 20
-4.3603856801
 11
0.6608729445
 21
-4.2187191486
  0
LINE
  5
40A
100
AcDbEntity
  8
ASSI
100
AcDbLine
 62
7
  6
CONTINUOUS
 10
0.697043153
 20
-4.3603856801
 11
0.6608729445
 21
-4.2187191486
  0
LINE
  5
40B
100
AcDbEntity
  8
0
100
AcDbLine
 62
7
  6
CONTINUOUS
 10
1.2395963811
 20
-4.0770524144
 11
1.2034261726
 21
-3.9353856801
  0
LINE
  5
40C
100
AcDbEntity
  8
ASSI
100
AcDbLine
 62
7
  6
CONTINUOUS
 10
1.2395963811
 20
-4.0770524144
 11
1.2034261726
 21
-3.9353856801
  0
LINE
  5
40D
100
AcDbEntity
  8
0
100
AcDbLine
 62
7
  6
CONTINUOUS
 10
0.5161921107
 20
-5.9541357815
 11
0.4800219022
 21
-5.7770524144
  0
LINE
  5
40E
100
AcDbEntity
  8
ASSI
100
AcDbLine
 62
7
  6
CONTINUOUS
 10
0.5161921107
 20
-5.9541357815
 11
0.4800219022
 21
-5.7770524144
  0
LINE
  5
40F
100
AcDbEntity
  8
0
100
AcDbLine
 62
7
  6
CONTINUOUS
 10
0.5161921107
 20
-4.3958024144
 11
0.4800219022
 21
-4.2187191486
  0
LINE
  5
410
100
AcDbEntity
  8
ASSI
100
AcDbLine
 62
7
  6
CONTINUOUS
 10
0.5161921107
 20
-4.3958024144
 11
0.4800219022
 21
-4.2187191486
  0
LINE
  5
411
100
AcDbEntity
  8
0
100
AcDbLine
 62
7
  6
CONTINUOUS
 10
1.1310857557
 20
-5.9541357815
 11
1.0949155473
 21
-5.7770524144
  0
LINE
  5
412
100
AcDbEntity
  8
ASSI
100
AcDbLine
 62
7
  6
CONTINUOUS
 10
1.1310857557
 20
-5.9541357815
 11
1.0949155473
 21
-5.7770524144
  0
LINE
  5
413
100
AcDbEntity
  8
0
100
AcDbLine
 62
7
  6
CONTINUOUS
 10
0.4800219022
 20
-6.8395524144
 11
0.4800219022
 21
-6.6270524144
  0
LINE
  5
414
100
AcDbEntity
  8
ASSI
100
AcDbLine
 62
7
  6
CONTINUOUS
 10
0.4800219022
 20
-6.8395524144
 11
0.4800219022
 21
-6.6270524144
  0
LINE
  5
415
100
AcDbEntity
  8
0
100
AcDbLine
 62
7
  6
CONTINUOUS
 10
0.4800219022
 20
-5.7770524144
 11
0.4800219022
 21
-5.6353857815
  0
LINE
  5
416
100
AcDbEntity
  8
ASSI
100
AcDbLine
 62
7
  6
CONTINUOUS
 10
0.4800219022
 20
-5.7770524144
 11
0.4800219022
 21
-5.6353857815
  0
LINE
  5
417
100
AcDbEntity
  8
0
100
AcDbLine
 62
7
  6
CONTINUOUS
 10
0.4800219022
 20
-4.2187191486
 11
0.4800219022
 21
-4.0770524144
  0
LINE
  5
418
100
AcDbEntity
  8
ASSI
100
AcDbLine
 62
7
  6
CONTINUOUS
 10
0.4800219022
 20
-4.2187191486
 11
0.4800219022
 21
-4.0770524144
  0
LINE
  5
419
100
AcDbEntity
  8
0
100
AcDbLine
 62
7
  6
CONTINUOUS
 10
0.4800219022
 20
-2.3770524144
 11
0.4800219022
 21
-2.1645524144
  0
LINE
  5
41A
100
AcDbEntity
  8
ASSI
100
AcDbLine
 62
7
  6
CONTINUOUS
 10
0.4800219022
 20
-2.3770524144
 11
0.4800219022
 21
-2.1645524144
  0
LINE
  5
41B
100
AcDbEntity
  8
0
100
AcDbLine
 62
7
  6
CONTINUOUS
 10
0.4800219022
 20
-1.3145524144
 11
0.4800219022
 21
-1.1020524144
  0
LINE
  5
41C
100
AcDbEntity
  8
ASSI
100
AcDbLine
 62
7
  6
CONTINUOUS
 10
0.4800219022
 20
-1.3145524144
 11
0.4800219022
 21
-1.1020524144
  0
LINE
  5
41D
100
AcDbEntity
  8
0
100
AcDbLine
 62
7
  6
CONTINUOUS
 10
0.6608729445
 20
-5.8124690473
 11
0.6608729445
 21
-5.5999690473
  0
LINE
  5
41E
100
AcDbEntity
  8
ASSI
100
AcDbLine
 62
7
  6
CONTINUOUS
 10
0.6608729445
 20
-5.8124690473
 11
0.6608729445
 21
-5.5999690473
  0
LINE
  5
41F
100
AcDbEntity
  8
0
100
AcDbLine
 62
7
  6
CONTINUOUS
 10
0.6608729445
 20
-4.2187191486
 11
0.6608729445
 21
-4.0770524144
  0
LINE
  5
420
100
AcDbEntity
  8
ASSI
100
AcDbLine
 62
7
  6
CONTINUOUS
 10
0.6608729445
 20
-4.2187191486
 11
0.6608729445
 21
-4.0770524144
  0
LINE
  5
421
100
AcDbEntity
  8
0
100
AcDbLine
 62
7
  6
CONTINUOUS
 10
0.8778941952
 20
-5.3166356801
 11
0.8778941952
 21
-5.1395524144
  0
LINE
  5
422
100
AcDbEntity
  8
ASSI
100
AcDbLine
 62
7
  6
CONTINUOUS
 10
0.8778941952
 20
-5.3166356801
 11
0.8778941952
 21
-5.1395524144
  0
LINE
  5
423
100
AcDbEntity
  8
0
100
AcDbLine
 62
7
  6
CONTINUOUS
 10
1.0949155473
 20
-5.7770524144
 11
1.0949155473
 21
-5.5999690473
  0
LINE
  5
424
100
AcDbEntity
  8
ASSI
100
AcDbLine
 62
7
  6
CONTINUOUS
 10
1.0949155473
 20
-5.7770524144
 11
1.0949155473
 21
-5.5999690473
  0
LINE
  5
425
100
AcDbEntity
  8
0
100
AcDbLine
 62
7
  6
CONTINUOUS
 10
1.2395963811
 20
-4.2187191486
 11
1.2395963811
 21
-4.0770524144
  0
LINE
  5
426
100
AcDbEntity
  8
ASSI
100
AcDbLine
 62
7
  6
CONTINUOUS
 10
1.2395963811
 20
-4.2187191486
 11
1.2395963811
 21
-4.0770524144
  0
LINE
  5
427
100
AcDbEntity
  8
RACCORDO
100
AcDbLine
 62
253
  6
CONTINUOUS
 10
-5.4147872941
 20
-6.3057413021
 11
-5.3848412869
 21
-6.2757952949
  0
LINE
  5
428
100
AcDbEntity
  8
ASSI
100
AcDbLine
 62
253
  6
CONTINUOUS
 10
-5.4147872941
 20
-6.3057413021
 11
-5.3848412869
 21
-6.2757952949
  0
LINE
  5
429
100
AcDbEntity
  8
RACCORDO
100
AcDbLine
 62
253
  6
CONTINUOUS
 10
-5.1148329682
 20
-6.6056955933
 11
-5.0850826702
 21
-6.5759452954
  0
LINE
  5
42A
100
AcDbEntity
  8
ASSI
100
AcDbLine
 62
253
  6
CONTINUOUS
 10
-5.1148329682
 20
-6.6056955933
 11
-5.0850826702
 21
-6.5759452954
  0
LINE
  5
42B
100
AcDbEntity
  8
0
100
AcDbLine
 62
7
  6
CONTINUOUS
 10
-2.9199780978
 20
0.7891135856
 11
3.0800219022
 21
0.7891135856
  0
LINE
  5
42C
100
AcDbEntity
  8
ASSI
100
AcDbLine
 62
7
  6
CONTINUOUS
 10
-2.9199780978
 20
0.7891135856
 11
3.0800219022
 21
0.7891135856
  0
LINE
  5
42D
100
AcDbEntity
  8
RACCORDO
100
AcDbLine
 62
7
  6
CONTINUOUS
 10
-10.7445547229
 20
1.0678476204
 11
-9.7487121326
 21
1.0678476204
  0
LINE
  5
42E
100
AcDbEntity
  8
ASSI
100
AcDbLine
 62
7
  6
CONTINUOUS
 10
-10.7445547229
 20
1.0678476204
 11
-9.7487121326
 21
1.0678476204
  0
LINE
  5
42F
100
AcDbEntity
  8
RACCORDO
100
AcDbLine
 62
7
  6
CONTINUOUS
 10
9.908755937
 20
1.0678476204
 11
10.9045985274
 21
1.0678476204
  0
LINE
  5
430
100
AcDbEntity
  8
ASSI
100
AcDbLine
 62
7
  6
CONTINUOUS
 10
9.908755937
 20
1.0678476204
 11
10.9045985274
 21
1.0678476204
  0
LINE
  5
431
100
AcDbEntity
  8
RACCORDO
100
AcDbLine
 62
7
  6
CONTINUOUS
 10
-6.6648329682
 20
7.983968456
 11
-6.6473273818
 21
7.9664628697
  0
LINE
  5
432
100
AcDbEntity
  8
ASSI
100
AcDbLine
 62
7
  6
CONTINUOUS
 10
-6.6648329682
 20
7.983968456
 11
-6.6473273818
 21
7.9664628697
  0
LINE
  5
433
100
AcDbEntity
  8
0
100
AcDbLine
 62
7
  6
CONTINUOUS
 10
1.4204474234
 20
-4.3603856801
 11
1.3842772149
 21
-4.2187191486
  0
LINE
  5
434
100
AcDbEntity
  8
ASSI
100
AcDbLine
 62
7
  6
CONTINUOUS
 10
1.4204474234
 20
-4.3603856801
 11
1.3842772149
 21
-4.2187191486
  0
LINE
  5
435
100
AcDbEntity
  8
0
100
AcDbLine
 62
7
  6
CONTINUOUS
 10
1.9991708346
 20
-4.0770524144
 11
1.9630006262
 21
-3.9353856801
  0
LINE
  5
436
100
AcDbEntity
  8
ASSI
100
AcDbLine
 62
7
  6
CONTINUOUS
 10
1.9991708346
 20
-4.0770524144
 11
1.9630006262
 21
-3.9353856801
  0
LINE
  5
437
100
AcDbEntity
  8
0
100
AcDbLine
 62
7
  6
CONTINUOUS
 10
2.1800219022
 20
-5.5999690473
 11
2.1438516906
 21
-5.4228857815
  0
LINE
  5
438
100
AcDbEntity
  8
ASSI
100
AcDbLine
 62
7
  6
CONTINUOUS
 10
2.1800219022
 20
-5.5999690473
 11
2.1438516906
 21
-5.4228857815
  0
LINE
  5
439
100
AcDbEntity
  8
0
100
AcDbLine
 62
7
  6
CONTINUOUS
 10
1.2757665895
 20
-5.8124690473
 11
1.2757665895
 21
-5.5645524144
  0
LINE
  5
43A
100
AcDbEntity
  8
ASSI
100
AcDbLine
 62
7
  6
CONTINUOUS
 10
1.2757665895
 20
-5.8124690473
 11
1.2757665895
 21
-5.5645524144
  0
LINE
  5
43B
100
AcDbEntity
  8
0
100
AcDbLine
 62
7
  6
CONTINUOUS
 10
1.3842772149
 20
-4.2187191486
 11
1.3842772149
 21
-4.0770524144
  0
LINE
  5
43C
100
AcDbEntity
  8
ASSI
100
AcDbLine
 62
7
  6
CONTINUOUS
 10
1.3842772149
 20
-4.2187191486
 11
1.3842772149
 21
-4.0770524144
  0
LINE
  5
43D
100
AcDbEntity
  8
0
100
AcDbLine
 62
7
  6
CONTINUOUS
 10
1.4566176318
 20
-2.9791358828
 11
1.4566176318
 21
-2.3770524144
  0
LINE
  5
43E
100
AcDbEntity
  8
ASSI
100
AcDbLine
 62
7
  6
CONTINUOUS
 10
1.4566176318
 20
-2.9791358828
 11
1.4566176318
 21
-2.3770524144
  0
LINE
  5
43F
100
AcDbEntity
  8
0
100
AcDbLine
 62
7
  6
CONTINUOUS
 10
1.4566176318
 20
-2.1645524144
 11
1.4566176318
 21
-1.8103858828
  0
LINE
  5
440
100
AcDbEntity
  8
ASSI
100
AcDbLine
 62
7
  6
CONTINUOUS
 10
1.4566176318
 20
-2.1645524144
 11
1.4566176318
 21
-1.8103858828
  0
LINE
  5
441
100
AcDbEntity
  8
0
100
AcDbLine
 62
7
  6
CONTINUOUS
 10
1.6736389332
 20
-3.2270524144
 11
1.6736389332
 21
-2.3770524144
  0
LINE
  5
442
100
AcDbEntity
  8
ASSI
100
AcDbLine
 62
7
  6
CONTINUOUS
 10
1.6736389332
 20
-3.2270524144
 11
1.6736389332
 21
-2.3770524144
  0
LINE
  5
443
100
AcDbEntity
  8
0
100
AcDbLine
 62
7
  6
CONTINUOUS
 10
1.6736389332
 20
-2.1645524144
 11
1.6736389332
 21
-1.8103858828
  0
LINE
  5
444
100
AcDbEntity
  8
ASSI
100
AcDbLine
 62
7
  6
CONTINUOUS
 10
1.6736389332
 20
-2.1645524144
 11
1.6736389332
 21
-1.8103858828
  0
LINE
  5
445
100
AcDbEntity
  8
0
100
AcDbLine
 62
7
  6
CONTINUOUS
 10
1.9991708346
 20
-5.8124690473
 11
1.9991708346
 21
-5.5645524144
  0
LINE
  5
446
100
AcDbEntity
  8
ASSI
100
AcDbLine
 62
7
  6
CONTINUOUS
 10
1.9991708346
 20
-5.8124690473
 11
1.9991708346
 21
-5.5645524144
  0
LINE
  5
447
100
AcDbEntity
  8
0
100
AcDbLine
 62
7
  6
CONTINUOUS
 10
1.9991708346
 20
-4.2187191486
 11
1.9991708346
 21
-4.0770524144
  0
LINE
  5
448
100
AcDbEntity
  8
ASSI
100
AcDbLine
 62
7
  6
CONTINUOUS
 10
1.9991708346
 20
-4.2187191486
 11
1.9991708346
 21
-4.0770524144
  0
LINE
  5
449
100
AcDbEntity
  8
0
100
AcDbLine
 62
7
  6
CONTINUOUS
 10
2.1800219022
 20
-6.8395524144
 11
2.1800219022
 21
-6.6270524144
  0
LINE
  5
44A
100
AcDbEntity
  8
ASSI
100
AcDbLine
 62
7
  6
CONTINUOUS
 10
2.1800219022
 20
-6.8395524144
 11
2.1800219022
 21
-6.6270524144
  0
LINE
  5
44B
100
AcDbEntity
  8
0
100
AcDbLine
 62
7
  6
CONTINUOUS
 10
2.1800219022
 20
-5.7770524144
 11
2.1800219022
 21
-5.5999690473
  0
LINE
  5
44C
100
AcDbEntity
  8
ASSI
100
AcDbLine
 62
7
  6
CONTINUOUS
 10
2.1800219022
 20
-5.7770524144
 11
2.1800219022
 21
-5.5999690473
  0
LINE
  5
44D
100
AcDbEntity
  8
0
100
AcDbLine
 62
7
  6
CONTINUOUS
 10
2.1800219022
 20
-4.2541356801
 11
2.1800219022
 21
-4.0416356801
  0
LINE
  5
44E
100
AcDbEntity
  8
ASSI
100
AcDbLine
 62
7
  6
CONTINUOUS
 10
2.1800219022
 20
-4.2541356801
 11
2.1800219022
 21
-4.0416356801
  0
LINE
  5
44F
100
AcDbEntity
  8
0
100
AcDbLine
 62
7
  6
CONTINUOUS
 10
2.1800219022
 20
-2.3770524144
 11
2.1800219022
 21
-2.1645524144
  0
LINE
  5
450
100
AcDbEntity
  8
ASSI
100
AcDbLine
 62
7
  6
CONTINUOUS
 10
2.1800219022
 20
-2.3770524144
 11
2.1800219022
 21
-2.1645524144
  0
LINE
  5
451
100
AcDbEntity
  8
0
100
AcDbLine
 62
7
  6
CONTINUOUS
 10
2.1800219022
 20
-1.3145524144
 11
2.1800219022
 21
-1.1020524144
  0
LINE
  5
452
100
AcDbEntity
  8
ASSI
100
AcDbLine
 62
7
  6
CONTINUOUS
 10
2.1800219022
 20
-1.3145524144
 11
2.1800219022
 21
-1.1020524144
  0
LINE
  5
453
100
AcDbEntity
  8
0
100
AcDbLine
 62
7
  6
CONTINUOUS
 10
0.4800219022
 20
-4.0770524144
 11
0.5161921107
 21
-3.8999691486
  0
LINE
  5
454
100
AcDbEntity
  8
ASSI
100
AcDbLine
 62
7
  6
CONTINUOUS
 10
0.4800219022
 20
-4.0770524144
 11
0.5161921107
 21
-3.8999691486
  0
LINE
  5
455
100
AcDbEntity
  8
0
100
AcDbLine
 62
7
  6
CONTINUOUS
 10
0.4800219022
 20
-5.6353857815
 11
0.5161921107
 21
-5.4583024144
  0
LINE
  5
456
100
AcDbEntity
  8
ASSI
100
AcDbLine
 62
7
  6
CONTINUOUS
 10
0.4800219022
 20
-5.6353857815
 11
0.5161921107
 21
-5.4583024144
  0
LINE
  5
457
100
AcDbEntity
  8
0
100
AcDbLine
 62
7
  6
CONTINUOUS
 10
1.0949155473
 20
-5.5999690473
 11
1.1310857557
 21
-5.4228857815
  0
LINE
  5
458
100
AcDbEntity
  8
ASSI
100
AcDbLine
 62
7
  6
CONTINUOUS
 10
1.0949155473
 20
-5.5999690473
 11
1.1310857557
 21
-5.4228857815
  0
LINE
  5
459
100
AcDbEntity
  8
0
100
AcDbLine
 62
7
  6
CONTINUOUS
 10
0.6608729445
 20
-4.0770524144
 11
0.697043153
 21
-3.9353856801
  0
LINE
  5
45A
100
AcDbEntity
  8
ASSI
100
AcDbLine
 62
7
  6
CONTINUOUS
 10
0.6608729445
 20
-4.0770524144
 11
0.697043153
 21
-3.9353856801
  0
LINE
  5
45B
100
AcDbEntity
  8
0
100
AcDbLine
 62
7
  6
CONTINUOUS
 10
1.2034261726
 20
-4.3603856801
 11
1.2395963811
 21
-4.2187191486
  0
LINE
  5
45C
100
AcDbEntity
  8
ASSI
100
AcDbLine
 62
7
  6
CONTINUOUS
 10
1.2034261726
 20
-4.3603856801
 11
1.2395963811
 21
-4.2187191486
  0
LINE
  5
45D
100
AcDbEntity
  8
RACCORDO
100
AcDbLine
 62
7
  6
CONTINUOUS
 10
11.2031688235
 20
7.9716077277
 11
11.2730398763
 21
8.0414787804
  0
LINE
  5
45E
100
AcDbEntity
  8
ASSI
100
AcDbLine
 62
7
  6
CONTINUOUS
 10
11.2031688235
 20
7.9716077277
 11
11.2730398763
 21
8.0414787804
  0
LINE
  5
45F
100
AcDbEntity
  8
0
100
AcDbLine
 62
7
  6
CONTINUOUS
 10
-0.2876770978
 20
-1.7988744144
 11
-1.9875400978
 21
-2.3204344144
  0
LINE
  5
460
100
AcDbEntity
  8
ASSI
100
AcDbLine
 62
7
  6
CONTINUOUS
 10
-0.2876770978
 20
-1.7988744144
 11
-1.9875400978
 21
-2.3204344144
  0
LINE
  5
461
100
AcDbEntity
  8
RACCORDO
100
AcDbLine
 62
7
  6
CONTINUOUS
 10
-11.0955410069
 20
1.1240237155
 11
-10.0996974066
 21
1.1240237155
  0
LINE
  5
462
100
AcDbEntity
  8
ASSI
100
AcDbLine
 62
7
  6
CONTINUOUS
 10
-11.0955410069
 20
1.1240237155
 11
-10.0996974066
 21
1.1240237155
  0
LINE
  5
463
100
AcDbEntity
  8
RACCORDO
100
AcDbLine
 62
7
  6
CONTINUOUS
 10
11.2555848113
 20
1.1240237155
 11
10.259741211
 21
1.1240237155
  0
LINE
  5
464
100
AcDbEntity
  8
ASSI
100
AcDbLine
 62
7
  6
CONTINUOUS
 10
11.2555848113
 20
1.1240237155
 11
10.259741211
 21
1.1240237155
  0
LINE
  5
465
100
AcDbEntity
  8
RACCORDO
100
AcDbLine
 62
7
  6
CONTINUOUS
 10
-11.0955410069
 20
1.7542034558
 11
-10.0996974066
 21
1.7542034558
  0
LINE
  5
466
100
AcDbEntity
  8
ASSI
100
AcDbLine
 62
7
  6
CONTINUOUS
 10
-11.0955410069
 20
1.7542034558
 11
-10.0996974066
 21
1.7542034558
  0
LINE
  5
467
100
AcDbEntity
  8
RACCORDO
100
AcDbLine
 62
7
  6
CONTINUOUS
 10
11.2555848113
 20
1.7542034558
 11
10.259741211
 21
1.7542034558
  0
LINE
  5
468
100
AcDbEntity
  8
ASSI
100
AcDbLine
 62
7
  6
CONTINUOUS
 10
11.2555848113
 20
1.7542034558
 11
10.259741211
 21
1.7542034558
  0
LINE
  5
469
100
AcDbEntity
  8
RACCORDO
100
AcDbLine
 62
7
  6
CONTINUOUS
 10
-10.7443115865
 20
1.8106228595
 11
-9.7484688239
 21
1.8106228595
  0
LINE
  5
46A
100
AcDbEntity
  8
ASSI
100
AcDbLine
 62
7
  6
CONTINUOUS
 10
-10.7443115865
 20
1.8106228595
 11
-9.7484688239
 21
1.8106228595
  0
LINE
  5
46B
100
AcDbEntity
  8
RACCORDO
100
AcDbLine
 62
7
  6
CONTINUOUS
 10
9.9085126284
 20
1.8106228595
 11
10.904355391
 21
1.8106228595
  0
LINE
  5
46C
100
AcDbEntity
  8
ASSI
100
AcDbLine
 62
7
  6
CONTINUOUS
 10
9.9085126284
 20
1.8106228595
 11
10.904355391
 21
1.8106228595
  0
LINE
  5
46D
100
AcDbEntity
  8
0
100
AcDbLine
 62
7
  6
CONTINUOUS
 10
2.1800219022
 20
-4.0416356801
 11
2.1438516906
 21
-3.8645524144
  0
LINE
  5
46E
100
AcDbEntity
  8
ASSI
100
AcDbLine
 62
7
  6
CONTINUOUS
 10
2.1800219022
 20
-4.0416356801
 11
2.1438516906
 21
-3.8645524144
  0
LINE
  5
46F
100
AcDbEntity
  8
DRAFT
100
AcDbLine
 62
7
  6
CONTINUOUS
 10
2.5765308892
 20
7.2100596635
 11
2.5765308892
 21
2.3681675077
  0
LINE
  5
470
100
AcDbEntity
  8
DRAFT
100
AcDbLine
 62
7
  6
CONTINUOUS
 10
2.9800219022
 20
5.5933423365
 11
2.9800219022
 21
3.9848848348
  0
LINE
  5
471
100
AcDbEntity
  8
ASSI
100
AcDbLine
 62
7
  6
CONTINUOUS
 10
2.9800219022
 20
5.5933423365
 11
2.9800219022
 21
3.9848848348
  0
LINE
  5
472
100
AcDbEntity
  8
DRAFT
100
AcDbLine
 62
7
  6
CONTINUOUS
 10
3.0474769672
 20
7.2065686506
 11
3.0474769672
 21
5.5978411181
  0
LINE
  5
473
100
AcDbEntity
  8
DRAFT
100
AcDbLine
 62
7
  6
CONTINUOUS
 10
3.0474769672
 20
3.9803860532
 11
3.0474769672
 21
2.3716585207
  0
LINE
  5
474
100
AcDbEntity
  8
DRAFT
100
AcDbLine
 62
7
  6
CONTINUOUS
 10
3.0800219022
 20
0.7891135856
 11
3.0800219022
 21
3.9803860532
  0
LINE
  5
475
100
AcDbEntity
  8
ASSI
100
AcDbLine
 62
7
  6
CONTINUOUS
 10
3.0800219022
 20
0.7891135856
 11
3.0800219022
 21
3.9803860532
  0
LINE
  5
476
100
AcDbEntity
  8
DRAFT
100
AcDbLine
 62
7
  6
CONTINUOUS
 10
3.0800219022
 20
5.5978411181
 11
3.0800219022
 21
7.2891135856
  0
LINE
  5
477
100
AcDbEntity
  8
ASSI
100
AcDbLine
 62
7
  6
CONTINUOUS
 10
3.0800219022
 20
5.5978411181
 11
3.0800219022
 21
7.2891135856
  0
LINE
  5
478
100
AcDbEntity
  8
DRAFT
100
AcDbLine
 62
7
  6
CONTINUOUS
 10
3.1496576626
 20
5.5891135856
 11
3.1496576626
 21
3.9891135856
  0
LINE
  5
479
100
AcDbEntity
  8
ASSI
100
AcDbLine
 62
7
  6
CONTINUOUS
 10
3.1496576626
 20
5.5891135856
 11
3.1496576626
 21
3.9891135856
  0
LINE
  5
47A
100
AcDbEntity
  8
0
100
AcDbLine
 62
7
  6
CONTINUOUS
 10
2.1438516906
 20
-4.4312191486
 11
2.1800219022
 21
-4.2541356801
  0
LINE
  5
47B
100
AcDbEntity
  8
ASSI
100
AcDbLine
 62
7
  6
CONTINUOUS
 10
2.1438516906
 20
-4.4312191486
 11
2.1800219022
 21
-4.2541356801
  0
LINE
  5
47C
100
AcDbEntity
  8
0
100
AcDbLine
 62
7
  6
CONTINUOUS
 10
2.1438516906
 20
-5.9541357815
 11
2.1800219022
 21
-5.7770524144
  0
LINE
  5
47D
100
AcDbEntity
  8
ASSI
100
AcDbLine
 62
7
  6
CONTINUOUS
 10
2.1438516906
 20
-5.9541357815
 11
2.1800219022
 21
-5.7770524144
  0
LINE
  5
47E
100
AcDbEntity
  8
0
100
AcDbLine
 62
7
  6
CONTINUOUS
 10
1.3842772149
 20
-4.0770524144
 11
1.4204474234
 21
-3.9353856801
  0
LINE
  5
47F
100
AcDbEntity
  8
ASSI
100
AcDbLine
 62
7
  6
CONTINUOUS
 10
1.3842772149
 20
-4.0770524144
 11
1.4204474234
 21
-3.9353856801
  0
LINE
  5
480
100
AcDbEntity
  8
0
100
AcDbLine
 62
7
  6
CONTINUOUS
 10
1.9630006262
 20
-4.3603856801
 11
1.9991708346
 21
-4.2187191486
  0
LINE
  5
481
100
AcDbEntity
  8
ASSI
100
AcDbLine
 62
7
  6
CONTINUOUS
 10
1.9630006262
 20
-4.3603856801
 11
1.9991708346
 21
-4.2187191486
  0
LINE
  5
482
100
AcDbEntity
  8
0
100
AcDbLine
 62
7
  6
CONTINUOUS
 10
0.6608729445
 20
-5.5999690473
 11
0.697043153
 21
-5.4937190473
  0
LINE
  5
483
100
AcDbEntity
  8
ASSI
100
AcDbLine
 62
7
  6
CONTINUOUS
 10
0.6608729445
 20
-5.5999690473
 11
0.697043153
 21
-5.4937190473
  0
LINE
  5
484
100
AcDbEntity
  8
0
100
AcDbLine
 62
7
  6
CONTINUOUS
 10
1.2757665895
 20
-5.5645524144
 11
1.311936798
 21
-5.4583024144
  0
LINE
  5
485
100
AcDbEntity
  8
ASSI
100
AcDbLine
 62
7
  6
CONTINUOUS
 10
1.2757665895
 20
-5.5645524144
 11
1.311936798
 21
-5.4583024144
  0
LINE
  5
486
100
AcDbEntity
  8
0
100
AcDbLine
 62
7
  6
CONTINUOUS
 10
1.311936798
 20
-3.7937191486
 11
1.3481070065
 21
-3.7228856801
  0
LINE
  5
487
100
AcDbEntity
  8
ASSI
100
AcDbLine
 62
7
  6
CONTINUOUS
 10
1.311936798
 20
-3.7937191486
 11
1.3481070065
 21
-3.7228856801
  0
LINE
  5
488
100
AcDbEntity
  8
0
100
AcDbLine
 62
7
  6
CONTINUOUS
 10
1.4204474234
 20
-3.9353856801
 11
1.4927878403
 21
-3.7937191486
  0
LINE
  5
489
100
AcDbEntity
  8
ASSI
100
AcDbLine
 62
7
  6
CONTINUOUS
 10
1.4204474234
 20
-3.9353856801
 11
1.4927878403
 21
-3.7937191486
  0
LINE
  5
48A
100
AcDbEntity
  8
0
100
AcDbLine
 62
7
  6
CONTINUOUS
 10
1.2757665895
 20
-4.5728856801
 11
1.311936798
 21
-4.5020524144
  0
LINE
  5
48B
100
AcDbEntity
  8
ASSI
100
AcDbLine
 62
7
  6
CONTINUOUS
 10
1.2757665895
 20
-4.5728856801
 11
1.311936798
 21
-4.5020524144
  0
LINE
  5
48C
100
AcDbEntity
  8
0
100
AcDbLine
 62
7
  6
CONTINUOUS
 10
0.5161921107
 20
-3.8999691486
 11
0.624702736
 21
-3.7228856801
  0
LINE
  5
48D
100
AcDbEntity
  8
ASSI
100
AcDbLine
 62
7
  6
CONTINUOUS
 10
0.5161921107
 20
-3.8999691486
 11
0.624702736
 21
-3.7228856801
  0
LINE
  5
48E
100
AcDbEntity
  8
0
100
AcDbLine
 62
7
  6
CONTINUOUS
 10
0.5161921107
 20
-5.4583024144
 11
0.624702736
 21
-5.2812191486
  0
LINE
  5
48F
100
AcDbEntity
  8
ASSI
100
AcDbLine
 62
7
  6
CONTINUOUS
 10
0.5161921107
 20
-5.4583024144
 11
0.624702736
 21
-5.2812191486
  0
LINE
  5
490
100
AcDbEntity
  8
0
100
AcDbLine
 62
7
  6
CONTINUOUS
 10
0.697043153
 20
-3.9353856801
 11
0.8055537783
 21
-3.7937191486
  0
LINE
  5
491
100
AcDbEntity
  8
ASSI
100
AcDbLine
 62
7
  6
CONTINUOUS
 10
0.697043153
 20
-3.9353856801
 11
0.8055537783
 21
-3.7937191486
  0
LINE
  5
492
100
AcDbEntity
  8
RACCORDO
100
AcDbLine
 62
253
  6
CONTINUOUS
 10
6.8080765214
 20
3.3671225134
 11
6.8389017511
 21
3.3979477431
  0
LINE
  5
493
100
AcDbEntity
  8
ASSI
100
AcDbLine
 62
253
  6
CONTINUOUS
 10
6.8080765214
 20
3.3671225134
 11
6.8389017511
 21
3.3979477431
  0
LINE
  5
494
100
AcDbEntity
  8
RACCORDO
100
AcDbLine
 62
253
  6
CONTINUOUS
 10
7.1081070861
 20
3.067244461
 11
7.1388560597
 21
3.0979934345
  0
LINE
  5
495
100
AcDbEntity
  8
ASSI
100
AcDbLine
 62
253
  6
CONTINUOUS
 10
7.1081070861
 20
3.067244461
 11
7.1388560597
 21
3.0979934345
  0
LINE
  5
496
100
AcDbEntity
  8
0
100
AcDbLine
 62
7
  6
CONTINUOUS
 10
0.624702736
 20
-3.7228856801
 11
0.7332133614
 21
-3.6166358828
  0
LINE
  5
497
100
AcDbEntity
  8
ASSI
100
AcDbLine
 62
7
  6
CONTINUOUS
 10
0.624702736
 20
-3.7228856801
 11
0.7332133614
 21
-3.6166358828
  0
LINE
  5
498
100
AcDbEntity
  8
DRAFT
100
AcDbLine
 62
7
  6
CONTINUOUS
 10
2.5765308892
 20
2.3681675077
 11
-2.4164870848
 21
2.3681675077
  0
LINE
  5
499
100
AcDbEntity
  8
DRAFT
100
AcDbLine
 62
7
  6
CONTINUOUS
 10
-2.8874331627
 20
2.3716585207
 11
-2.4199780978
 21
2.3716585207
  0
LINE
  5
49A
100
AcDbEntity
  8
DRAFT
100
AcDbLine
 62
7
  6
CONTINUOUS
 10
3.0474769672
 20
2.3716585207
 11
2.5800219022
 21
2.3716585207
  0
LINE
  5
49B
100
AcDbEntity
  8
RACCORDO
100
AcDbLine
 62
7
  6
CONTINUOUS
 10
-7.1918929139
 20
3.067244461
 11
-6.9480632817
 21
3.067244461
  0
LINE
  5
49C
100
AcDbEntity
  8
ASSI
100
AcDbLine
 62
7
  6
CONTINUOUS
 10
-7.1918929139
 20
3.067244461
 11
-6.9480632817
 21
3.067244461
  0
LINE
  5
49D
100
AcDbEntity
  8
RACCORDO
100
AcDbLine
 62
7
  6
CONTINUOUS
 10
7.1081070861
 20
3.067244461
 11
7.3519367183
 21
3.067244461
  0
LINE
  5
49E
100
AcDbEntity
  8
ASSI
100
AcDbLine
 62
7
  6
CONTINUOUS
 10
7.1081070861
 20
3.067244461
 11
7.3519367183
 21
3.067244461
  0
LINE
  5
49F
100
AcDbEntity
  8
RACCORDO
100
AcDbLine
 62
253
  6
CONTINUOUS
 10
-7.1611439403
 20
3.0979934345
 11
-6.9788122552
 21
3.0979934345
  0
LINE
  5
4A0
100
AcDbEntity
  8
ASSI
100
AcDbLine
 62
253
  6
CONTINUOUS
 10
-7.1611439403
 20
3.0979934345
 11
-6.9788122552
 21
3.0979934345
  0
LINE
  5
4A1
100
AcDbEntity
  8
RACCORDO
100
AcDbLine
 62
253
  6
CONTINUOUS
 10
7.1388560597
 20
3.0979934345
 11
7.3211877448
 21
3.0979934345
  0
LINE
  5
4A2
100
AcDbEntity
  8
ASSI
100
AcDbLine
 62
253
  6
CONTINUOUS
 10
7.1388560597
 20
3.0979934345
 11
7.3211877448
 21
3.0979934345
  0
LINE
  5
4A3
100
AcDbEntity
  8
RACCORDO
100
AcDbLine
 62
7
  6
CONTINUOUS
 10
9.9122685759
 20
-6.093133088
 11
9.9597869025
 21
-6.1406514146
  0
LINE
  5
4A4
100
AcDbEntity
  8
ASSI
100
AcDbLine
 62
7
  6
CONTINUOUS
 10
9.9122685759
 20
-6.093133088
 11
9.9597869025
 21
-6.1406514146
  0
LINE
  5
4A5
100
AcDbEntity
  8
RACCORDO
100
AcDbLine
 62
253
  6
CONTINUOUS
 10
3.6199596408
 20
3.9891135856
 11
3.6199596408
 21
5.5891135856
  0
LINE
  5
4A6
100
AcDbEntity
  8
ASSI
100
AcDbLine
 62
253
  6
CONTINUOUS
 10
3.6199596408
 20
3.9891135856
 11
3.6199596408
 21
5.5891135856
  0
LINE
  5
4A7
100
AcDbEntity
  8
RACCORDO
100
AcDbLine
 62
253
  6
CONTINUOUS
 10
3.901867427
 20
3.9856680613
 11
3.901867427
 21
5.59255911
  0
LINE
  5
4A8
100
AcDbEntity
  8
ASSI
100
AcDbLine
 62
253
  6
CONTINUOUS
 10
3.901867427
 20
3.9856680613
 11
3.901867427
 21
5.59255911
  0
LINE
  5
4A9
100
AcDbEntity
  8
0
100
AcDbLine
 62
7
  6
CONTINUOUS
 10
1.9630006262
 20
-5.9187190473
 11
1.9991708346
 21
-5.8124690473
  0
LINE
  5
4AA
100
AcDbEntity
  8
ASSI
100
AcDbLine
 62
7
  6
CONTINUOUS
 10
1.9630006262
 20
-5.9187190473
 11
1.9991708346
 21
-5.8124690473
  0
LINE
  5
4AB
100
AcDbEntity
  8
0
100
AcDbLine
 62
7
  6
CONTINUOUS
 10
1.8906602093
 20
-4.5020524144
 11
1.9630006262
 21
-4.3603856801
  0
LINE
  5
4AC
100
AcDbEntity
  8
ASSI
100
AcDbLine
 62
7
  6
CONTINUOUS
 10
1.8906602093
 20
-4.5020524144
 11
1.9630006262
 21
-4.3603856801
  0
LINE
  5
4AD
100
AcDbEntity
  8
0
100
AcDbLine
 62
7
  6
CONTINUOUS
 10
1.1310857557
 20
-5.4228857815
 11
1.2395963811
 21
-5.2458024144
  0
LINE
  5
4AE
100
AcDbEntity
  8
ASSI
100
AcDbLine
 62
7
  6
CONTINUOUS
 10
1.1310857557
 20
-5.4228857815
 11
1.2395963811
 21
-5.2458024144
  0
LINE
  5
4AF
100
AcDbEntity
  8
0
100
AcDbLine
 62
7
  6
CONTINUOUS
 10
2.0353410557
 20
-4.6083024144
 11
2.1438516906
 21
-4.4312191486
  0
LINE
  5
4B0
100
AcDbEntity
  8
ASSI
100
AcDbLine
 62
7
  6
CONTINUOUS
 10
2.0353410557
 20
-4.6083024144
 11
2.1438516906
 21
-4.4312191486
  0
LINE
  5
4B1
100
AcDbEntity
  8
0
100
AcDbLine
 62
7
  6
CONTINUOUS
 10
0.697043153
 20
-5.4937190473
 11
0.7693835699
 21
-5.3874690473
  0
LINE
  5
4B2
100
AcDbEntity
  8
ASSI
100
AcDbLine
 62
7
  6
CONTINUOUS
 10
0.697043153
 20
-5.4937190473
 11
0.7693835699
 21
-5.3874690473
  0
LINE
  5
4B3
100
AcDbEntity
  8
0
100
AcDbLine
 62
7
  6
CONTINUOUS
 10
1.311936798
 20
-5.4583024144
 11
1.3842772149
 21
-5.3520524144
  0
LINE
  5
4B4
100
AcDbEntity
  8
ASSI
100
AcDbLine
 62
7
  6
CONTINUOUS
 10
1.311936798
 20
-5.4583024144
 11
1.3842772149
 21
-5.3520524144
  0
LINE
  5
4B5
100
AcDbEntity
  8
0
100
AcDbLine
 62
7
  6
CONTINUOUS
 10
1.3481070065
 20
-3.7228856801
 11
1.4566176318
 21
-3.5812189459
  0
LINE
  5
4B6
100
AcDbEntity
  8
ASSI
100
AcDbLine
 62
7
  6
CONTINUOUS
 10
1.3481070065
 20
-3.7228856801
 11
1.4566176318
 21
-3.5812189459
  0
LINE
  5
4B7
100
AcDbEntity
  8
0
100
AcDbLine
 62
7
  6
CONTINUOUS
 10
1.0949155473
 20
-4.5020524144
 11
1.2034261726
 21
-4.3603856801
  0
LINE
  5
4B8
100
AcDbEntity
  8
ASSI
100
AcDbLine
 62
7
  6
CONTINUOUS
 10
1.0949155473
 20
-4.5020524144
 11
1.2034261726
 21
-4.3603856801
  0
LINE
  5
4B9
100
AcDbEntity
  8
0
100
AcDbLine
 62
7
  6
CONTINUOUS
 10
1.1672559642
 20
-4.6791356801
 11
1.2757665895
 21
-4.5728856801
  0
LINE
  5
4BA
100
AcDbEntity
  8
ASSI
100
AcDbLine
 62
7
  6
CONTINUOUS
 10
1.1672559642
 20
-4.6791356801
 11
1.2757665895
 21
-4.5728856801
  0
LINE
  5
4BB
100
AcDbEntity
  8
0
100
AcDbLine
 62
7
  6
CONTINUOUS
 10
1.4927878403
 20
-3.7937191486
 11
1.6374687248
 21
-3.6874691486
  0
LINE
  5
4BC
100
AcDbEntity
  8
ASSI
100
AcDbLine
 62
7
  6
CONTINUOUS
 10
1.4927878403
 20
-3.7937191486
 11
1.6374687248
 21
-3.6874691486
  0
LINE
  5
4BD
100
AcDbEntity
  8
0
100
AcDbLine
 62
7
  6
CONTINUOUS
 10
0.8055537783
 20
-3.7937191486
 11
0.914064505
 21
-3.7228856801
  0
LINE
  5
4BE
100
AcDbEntity
  8
ASSI
100
AcDbLine
 62
7
  6
CONTINUOUS
 10
0.8055537783
 20
-3.7937191486
 11
0.914064505
 21
-3.7228856801
  0
LINE
  5
4BF
100
AcDbEntity
  8
0
100
AcDbLine
 62
7
  6
CONTINUOUS
 10
0.7332133614
 20
-3.6166358828
 11
0.914064505
 21
-3.5458024144
  0
LINE
  5
4C0
100
AcDbEntity
  8
ASSI
100
AcDbLine
 62
7
  6
CONTINUOUS
 10
0.7332133614
 20
-3.6166358828
 11
0.914064505
 21
-3.5458024144
  0
LINE
  5
4C1
100
AcDbEntity
  8
0
100
AcDbLine
 62
7
  6
CONTINUOUS
 10
1.4566176318
 20
-3.5812189459
 11
1.6374687248
 21
-3.5103858828
  0
LINE
  5
4C2
100
AcDbEntity
  8
ASSI
100
AcDbLine
 62
7
  6
CONTINUOUS
 10
1.4566176318
 20
-3.5812189459
 11
1.6374687248
 21
-3.5103858828
  0
LINE
  5
4C3
100
AcDbEntity
  8
0
100
AcDbLine
 62
7
  6
CONTINUOUS
 10
-0.2876770978
 20
-4.1442624144
 11
-1.3976560978
 21
-4.5605184144
  0
LINE
  5
4C4
100
AcDbEntity
  8
ASSI
100
AcDbLine
 62
7
  6
CONTINUOUS
 10
-0.2876770978
 20
-4.1442624144
 11
-1.3976560978
 21
-4.5605184144
  0
LINE
  5
4C5
100
AcDbEntity
  8
0
100
AcDbLine
 62
7
  6
CONTINUOUS
 10
-1.0437710978
 20
-4.1174424144
 11
-1.9875400978
 21
-4.4685234144
  0
LINE
  5
4C6
100
AcDbEntity
  8
ASSI
100
AcDbLine
 62
7
  6
CONTINUOUS
 10
-1.0437710978
 20
-4.1174424144
 11
-1.9875400978
 21
-4.4685234144
  0
LINE
  5
4C7
100
AcDbEntity
  8
RACCORDO
100
AcDbLine
 62
7
  6
CONTINUOUS
 10
-3.7418236225
 20
3.9856680613
 11
-4.1554142218
 21
3.9658333328
  0
LINE
  5
4C8
100
AcDbEntity
  8
ASSI
100
AcDbLine
 62
7
  6
CONTINUOUS
 10
-3.7418236225
 20
3.9856680613
 11
-4.1554142218
 21
3.9658333328
  0
LINE
  5
4C9
100
AcDbEntity
  8
DRAFT
100
AcDbLine
 62
7
  6
CONTINUOUS
 10
3.1496576626
 20
3.9891135856
 11
2.9800219022
 21
3.9848848348
  0
LINE
  5
4CA
100
AcDbEntity
  8
ASSI
100
AcDbLine
 62
7
  6
CONTINUOUS
 10
3.1496576626
 20
3.9891135856
 11
2.9800219022
 21
3.9848848348
  0
LINE
  5
4CB
100
AcDbEntity
  8
DRAFT
100
AcDbLine
 62
7
  6
CONTINUOUS
 10
-2.9199780978
 20
3.9803860532
 11
-2.8199780978
 21
3.9813938218
  0
LINE
  5
4CC
100
AcDbEntity
  8
ASSI
100
AcDbLine
 62
7
  6
CONTINUOUS
 10
-2.9199780978
 20
3.9803860532
 11
-2.8199780978
 21
3.9813938218
  0
LINE
  5
4CD
100
AcDbEntity
  8
RACCORDO
100
AcDbLine
 62
253
  6
CONTINUOUS
 10
-7.4576681625
 20
3.5979172821
 11
-6.6822880331
 21
3.5979172821
  0
LINE
  5
4CE
100
AcDbEntity
  8
ASSI
100
AcDbLine
 62
253
  6
CONTINUOUS
 10
-7.4576681625
 20
3.5979172821
 11
-6.6822880331
 21
3.5979172821
  0
LINE
  5
4CF
100
AcDbEntity
  8
RACCORDO
100
AcDbLine
 62
253
  6
CONTINUOUS
 10
6.8423318375
 20
3.5979172821
 11
7.6177119669
 21
3.5979172821
  0
LINE
  5
4D0
100
AcDbEntity
  8
ASSI
100
AcDbLine
 62
253
  6
CONTINUOUS
 10
6.8423318375
 20
3.5979172821
 11
7.6177119669
 21
3.5979172821
  0
LINE
  5
4D1
100
AcDbEntity
  8
RACCORDO
100
AcDbLine
 62
7
  6
CONTINUOUS
 10
4.5033977644
 20
3.9635365438
 11
3.0800219022
 21
3.9635365438
  0
LINE
  5
4D2
100
AcDbEntity
  8
ASSI
100
AcDbLine
 62
7
  6
CONTINUOUS
 10
4.5033977644
 20
3.9635365438
 11
3.0800219022
 21
3.9635365438
  0
LINE
  5
4D3
100
AcDbEntity
  8
RACCORDO
100
AcDbLine
 62
7
  6
CONTINUOUS
 10
-2.9199780978
 20
3.9635365438
 11
-4.34335396
 21
3.9635365438
  0
LINE
  5
4D4
100
AcDbEntity
  8
ASSI
100
AcDbLine
 62
7
  6
CONTINUOUS
 10
-2.9199780978
 20
3.9635365438
 11
-4.34335396
 21
3.9635365438
  0
LINE
  5
4D5
100
AcDbEntity
  8
RACCORDO
100
AcDbLine
 62
7
  6
CONTINUOUS
 10
3.6199596408
 20
3.9891135856
 11
3.1496576626
 21
3.9891135856
  0
LINE
  5
4D6
100
AcDbEntity
  8
ASSI
100
AcDbLine
 62
7
  6
CONTINUOUS
 10
3.6199596408
 20
3.9891135856
 11
3.1496576626
 21
3.9891135856
  0
LINE
  5
4D7
100
AcDbEntity
  8
RACCORDO
100
AcDbLine
 62
7
  6
CONTINUOUS
 10
-2.9896138582
 20
3.9891135856
 11
-3.4599158363
 21
3.9891135856
  0
LINE
  5
4D8
100
AcDbEntity
  8
ASSI
100
AcDbLine
 62
7
  6
CONTINUOUS
 10
-2.9896138582
 20
3.9891135856
 11
-3.4599158363
 21
3.9891135856
  0
LINE
  5
4D9
100
AcDbEntity
  8
DRAFT
100
AcDbLine
 62
7
  6
CONTINUOUS
 10
2.9800219022
 20
3.9813938218
 11
3.0800219022
 21
3.9803860532
  0
LINE
  5
4DA
100
AcDbEntity
  8
ASSI
100
AcDbLine
 62
7
  6
CONTINUOUS
 10
2.9800219022
 20
3.9813938218
 11
3.0800219022
 21
3.9803860532
  0
LINE
  5
4DB
100
AcDbEntity
  8
DRAFT
100
AcDbLine
 62
7
  6
CONTINUOUS
 10
-2.8199780978
 20
3.9848848348
 11
-2.9896138582
 21
3.9891135856
  0
LINE
  5
4DC
100
AcDbEntity
  8
ASSI
100
AcDbLine
 62
7
  6
CONTINUOUS
 10
-2.8199780978
 20
3.9848848348
 11
-2.9896138582
 21
3.9891135856
  0
LINE
  5
4DD
100
AcDbEntity
  8
RACCORDO
100
AcDbLine
 62
7
  6
CONTINUOUS
 10
4.3154580262
 20
3.9658333328
 11
3.901867427
 21
3.9856680613
  0
LINE
  5
4DE
100
AcDbEntity
  8
ASSI
100
AcDbLine
 62
7
  6
CONTINUOUS
 10
4.3154580262
 20
3.9658333328
 11
3.901867427
 21
3.9856680613
  0
LINE
  5
4DF
100
AcDbEntity
  8
RACCORDO
100
AcDbLine
 62
7
  6
CONTINUOUS
 10
11.2555848113
 20
-6.1457965442
 11
11.2080732777
 21
-6.0982850106
  0
LINE
  5
4E0
100
AcDbEntity
  8
ASSI
100
AcDbLine
 62
7
  6
CONTINUOUS
 10
11.2555848113
 20
-6.1457965442
 11
11.2080732777
 21
-6.0982850106
  0
LINE
  5
4E1
100
AcDbEntity
  8
RACCORDO
100
AcDbLine
 62
7
  6
CONTINUOUS
 10
5.2499718084
 20
-7.6341426454
 11
5.2748767726
 21
-7.8857267655
  0
LINE
  5
4E2
100
AcDbEntity
  8
ASSI
100
AcDbLine
 62
7
  6
CONTINUOUS
 10
5.2499718084
 20
-7.6341426454
 11
5.2748767726
 21
-7.8857267655
  0
LINE
  5
4E3
100
AcDbEntity
  8
RACCORDO
100
AcDbLine
 62
253
  6
CONTINUOUS
 10
5.2748767726
 20
-6.6056955933
 11
5.2748767726
 21
-7.8857267655
  0
LINE
  5
4E4
100
AcDbEntity
  8
ASSI
100
AcDbLine
 62
253
  6
CONTINUOUS
 10
5.2748767726
 20
-6.6056955933
 11
5.2748767726
 21
-7.8857267655
  0
LINE
  5
4E5
100
AcDbEntity
  8
ASSI
100
AcDbLine
 62
253
  6
CONTINUOUS
 10
4.5033977644
 20
3.9635365438
 11
4.5099206697
 21
5.6150035973
  0
LINE
  5
4E6
100
AcDbEntity
  8
0
100
AcDbLine
 62
7
  6
CONTINUOUS
 10
2.0353410557
 20
-6.1312190473
 11
2.1438516906
 21
-5.9541357815
  0
LINE
  5
4E7
100
AcDbEntity
  8
ASSI
100
AcDbLine
 62
7
  6
CONTINUOUS
 10
2.0353410557
 20
-6.1312190473
 11
2.1438516906
 21
-5.9541357815
  0
LINE
  5
4E8
100
AcDbEntity
  8
0
100
AcDbLine
 62
7
  6
CONTINUOUS
 10
1.8906602093
 20
-6.0249690473
 11
1.9630006262
 21
-5.9187190473
  0
LINE
  5
4E9
100
AcDbEntity
  8
ASSI
100
AcDbLine
 62
7
  6
CONTINUOUS
 10
1.8906602093
 20
-6.0249690473
 11
1.9630006262
 21
-5.9187190473
  0
LINE
  5
4EA
100
AcDbEntity
  8
0
100
AcDbLine
 62
7
  6
CONTINUOUS
 10
1.2395963811
 20
-5.2458024144
 11
1.3481070065
 21
-5.1395524144
  0
LINE
  5
4EB
100
AcDbEntity
  8
ASSI
100
AcDbLine
 62
7
  6
CONTINUOUS
 10
1.2395963811
 20
-5.2458024144
 11
1.3481070065
 21
-5.1395524144
  0
LINE
  5
4EC
100
AcDbEntity
  8
0
100
AcDbLine
 62
7
  6
CONTINUOUS
 10
1.9268304177
 20
-4.7145524144
 11
2.0353410557
 21
-4.6083024144
  0
LINE
  5
4ED
100
AcDbEntity
  8
ASSI
100
AcDbLine
 62
7
  6
CONTINUOUS
 10
1.9268304177
 20
-4.7145524144
 11
2.0353410557
 21
-4.6083024144
  0
LINE
  5
4EE
100
AcDbEntity
  8
0
100
AcDbLine
 62
7
  6
CONTINUOUS
 10
1.3842772149
 20
-5.3520524144
 11
1.4566176318
 21
-5.2812191486
  0
LINE
  5
4EF
100
AcDbEntity
  8
ASSI
100
AcDbLine
 62
7
  6
CONTINUOUS
 10
1.3842772149
 20
-5.3520524144
 11
1.4566176318
 21
-5.2812191486
  0
LINE
  5
4F0
100
AcDbEntity
  8
0
100
AcDbLine
 62
7
  6
CONTINUOUS
 10
0.624702736
 20
-5.2812191486
 11
0.7693835699
 21
-5.1749691486
  0
LINE
  5
4F1
100
AcDbEntity
  8
ASSI
100
AcDbLine
 62
7
  6
CONTINUOUS
 10
0.624702736
 20
-5.2812191486
 11
0.7693835699
 21
-5.1749691486
  0
LINE
  5
4F2
100
AcDbEntity
  8
0
100
AcDbLine
 62
7
  6
CONTINUOUS
 10
1.7459793501
 20
-4.6083024144
 11
1.8906602093
 21
-4.5020524144
  0
LINE
  5
4F3
100
AcDbEntity
  8
ASSI
100
AcDbLine
 62
7
  6
CONTINUOUS
 10
1.7459793501
 20
-4.6083024144
 11
1.8906602093
 21
-4.5020524144
  0
LINE
  5
4F4
100
AcDbEntity
  8
0
100
AcDbLine
 62
7
  6
CONTINUOUS
 10
0.9864049219
 20
-4.5728856801
 11
1.0949155473
 21
-4.5020524144
  0
LINE
  5
4F5
100
AcDbEntity
  8
ASSI
100
AcDbLine
 62
7
  6
CONTINUOUS
 10
0.9864049219
 20
-4.5728856801
 11
1.0949155473
 21
-4.5020524144
  0
LINE
  5
4F6
100
AcDbEntity
  8
0
100
AcDbLine
 62
7
  6
CONTINUOUS
 10
0.7693835699
 20
-5.3874690473
 11
0.8778941952
 21
-5.3166356801
  0
LINE
  5
4F7
100
AcDbEntity
  8
ASSI
100
AcDbLine
 62
7
  6
CONTINUOUS
 10
0.7693835699
 20
-5.3874690473
 11
0.8778941952
 21
-5.3166356801
  0
LINE
  5
4F8
100
AcDbEntity
  8
0
100
AcDbLine
 62
7
  6
CONTINUOUS
 10
1.0225751304
 20
-4.7499691486
 11
1.1672559642
 21
-4.6791356801
  0
LINE
  5
4F9
100
AcDbEntity
  8
ASSI
100
AcDbLine
 62
7
  6
CONTINUOUS
 10
1.0225751304
 20
-4.7499691486
 11
1.1672559642
 21
-4.6791356801
  0
LINE
  5
4FA
100
AcDbEntity
  8
0
100
AcDbLine
 62
7
  6
CONTINUOUS
 10
1.7459793501
 20
-4.7853856801
 11
1.9268304177
 21
-4.7145524144
  0
LINE
  5
4FB
100
AcDbEntity
  8
ASSI
100
AcDbLine
 62
7
  6
CONTINUOUS
 10
1.7459793501
 20
-4.7853856801
 11
1.9268304177
 21
-4.7145524144
  0
LINE
  5
4FC
100
AcDbEntity
  8
0
100
AcDbLine
 62
7
  6
CONTINUOUS
 10
1.3481070065
 20
-5.1395524144
 11
1.5289580487
 21
-5.0687191486
  0
LINE
  5
4FD
100
AcDbEntity
  8
ASSI
100
AcDbLine
 62
7
  6
CONTINUOUS
 10
1.3481070065
 20
-5.1395524144
 11
1.5289580487
 21
-5.0687191486
  0
LINE
  5
4FE
100
AcDbEntity
  8
0
100
AcDbLine
 62
7
  6
CONTINUOUS
 10
0.7693835699
 20
-5.1749691486
 11
0.8778941952
 21
-5.1395524144
  0
LINE
  5
4FF
100
AcDbEntity
  8
ASSI
100
AcDbLine
 62
7
  6
CONTINUOUS
 10
0.7693835699
 20
-5.1749691486
 11
0.8778941952
 21
-5.1395524144
  0
LINE
  5
500
100
AcDbEntity
  8
RACCORDO
100
AcDbLine
 62
253
  6
CONTINUOUS
 10
6.8423318375
 20
4.9820068044
 11
7.6177119669
 21
4.9820068044
  0
LINE
  5
501
100
AcDbEntity
  8
ASSI
100
AcDbLine
 62
253
  6
CONTINUOUS
 10
6.8423318375
 20
4.9820068044
 11
7.6177119669
 21
4.9820068044
  0
LINE
  5
502
100
AcDbEntity
  8
RACCORDO
100
AcDbLine
 62
253
  6
CONTINUOUS
 10
-6.6822880331
 20
4.9820068044
 11
-7.4576681625
 21
4.9820068044
  0
LINE
  5
503
100
AcDbEntity
  8
ASSI
100
AcDbLine
 62
253
  6
CONTINUOUS
 10
-6.6822880331
 20
4.9820068044
 11
-7.4576681625
 21
4.9820068044
  0
LINE
  5
504
100
AcDbEntity
  8
DRAFT
100
AcDbLine
 62
7
  6
CONTINUOUS
 10
11.2755143164
 20
-4.1563788285
 11
11.2625668373
 21
-4.1434313494
  0
LINE
  5
505
100
AcDbEntity
  8
ASSI
100
AcDbLine
 62
7
  6
CONTINUOUS
 10
11.2755143164
 20
-4.1563788285
 11
11.2625668373
 21
-4.1434313494
  0
LINE
  5
506
100
AcDbEntity
  8
DRAFT
100
AcDbLine
 62
7
  6
CONTINUOUS
 10
11.5755143164
 20
-4.1563788285
 11
11.5017215523
 21
-4.0825860644
  0
LINE
  5
507
100
AcDbEntity
  8
ASSI
100
AcDbLine
 62
7
  6
CONTINUOUS
 10
11.5755143164
 20
-4.1563788285
 11
11.5017215523
 21
-4.0825860644
  0
LINE
  5
508
100
AcDbEntity
  8
RACCORDO
100
AcDbLine
 62
253
  6
CONTINUOUS
 10
5.5748310812
 20
-6.3057412976
 11
5.5748310812
 21
-7.9377016607
  0
LINE
  5
509
100
AcDbEntity
  8
ASSI
100
AcDbLine
 62
253
  6
CONTINUOUS
 10
5.5748310812
 20
-6.3057412976
 11
5.5748310812
 21
-7.9377016607
  0
LINE
  5
50A
100
AcDbEntity
  8
RACCORDO
100
AcDbLine
 62
253
  6
CONTINUOUS
 10
5.7852127233
 20
-7.9377016607
 11
5.7852127233
 21
-6.3057412848
  0
LINE
  5
50B
100
AcDbEntity
  8
ASSI
100
AcDbLine
 62
253
  6
CONTINUOUS
 10
5.7852127233
 20
-7.9377016607
 11
5.7852127233
 21
-6.3057412848
  0
LINE
  5
50C
100
AcDbEntity
  8
RACCORDO
100
AcDbLine
 62
253
  6
CONTINUOUS
 10
6.0851670318
 20
-7.8857267655
 11
6.0851670318
 21
-6.6056955933
  0
LINE
  5
50D
100
AcDbEntity
  8
ASSI
100
AcDbLine
 62
253
  6
CONTINUOUS
 10
6.0851670318
 20
-7.8857267655
 11
6.0851670318
 21
-6.6056955933
  0
LINE
  5
50E
100
AcDbEntity
  8
RACCORDO
100
AcDbLine
 62
7
  6
CONTINUOUS
 10
9.908755937
 20
1.0678476204
 11
9.9597869025
 21
1.1188785859
  0
LINE
  5
50F
100
AcDbEntity
  8
ASSI
100
AcDbLine
 62
7
  6
CONTINUOUS
 10
9.908755937
 20
1.0678476204
 11
9.9597869025
 21
1.1188785859
  0
LINE
  5
510
100
AcDbEntity
  8
0
100
AcDbLine
 62
7
  6
CONTINUOUS
 10
1.8906602093
 20
-6.2374690979
 11
2.0353410557
 21
-6.1312190473
  0
LINE
  5
511
100
AcDbEntity
  8
ASSI
100
AcDbLine
 62
7
  6
CONTINUOUS
 10
1.8906602093
 20
-6.2374690979
 11
2.0353410557
 21
-6.1312190473
  0
LINE
  5
512
100
AcDbEntity
  8
0
100
AcDbLine
 62
7
  6
CONTINUOUS
 10
1.7821495586
 20
-6.0958024144
 11
1.8906602093
 21
-6.0249690473
  0
LINE
  5
513
100
AcDbEntity
  8
ASSI
100
AcDbLine
 62
7
  6
CONTINUOUS
 10
1.7821495586
 20
-6.0958024144
 11
1.8906602093
 21
-6.0249690473
  0
LINE
  5
514
100
AcDbEntity
  8
0
100
AcDbLine
 62
7
  6
CONTINUOUS
 10
1.4566176318
 20
-5.2812191486
 11
1.5651283078
 21
-5.2458024144
  0
LINE
  5
515
100
AcDbEntity
  8
ASSI
100
AcDbLine
 62
7
  6
CONTINUOUS
 10
1.4566176318
 20
-5.2812191486
 11
1.5651283078
 21
-5.2458024144
  0
LINE
  5
516
100
AcDbEntity
  8
0
100
AcDbLine
 62
7
  6
CONTINUOUS
 10
1.6736389332
 20
-6.1312190473
 11
1.7821495586
 21
-6.0958024144
  0
LINE
  5
517
100
AcDbEntity
  8
ASSI
100
AcDbLine
 62
7
  6
CONTINUOUS
 10
1.6736389332
 20
-6.1312190473
 11
1.7821495586
 21
-6.0958024144
  0
LINE
  5
518
100
AcDbEntity
  8
0
100
AcDbLine
 62
7
  6
CONTINUOUS
 10
-0.2876770978
 20
-6.5131624144
 11
-1.9875400978
 21
-7.0520524144
  0
LINE
  5
519
100
AcDbEntity
  8
ASSI
100
AcDbLine
 62
7
  6
CONTINUOUS
 10
-0.2876770978
 20
-6.5131624144
 11
-1.9875400978
 21
-7.0520524144
  0
LINE
  5
51A
100
AcDbEntity
  8
DRAFT
100
AcDbLine
 62
7
  6
CONTINUOUS
 10
8.5924878928
 20
8.0414787804
 11
8.3300219022
 21
7.9891135856
  0
LINE
  5
51B
100
AcDbEntity
  8
ASSI
100
AcDbLine
 62
7
  6
CONTINUOUS
 10
8.5924878928
 20
8.0414787804
 11
8.3300219022
 21
7.9891135856
  0
LINE
  5
51C
100
AcDbEntity
  8
RACCORDO
100
AcDbLine
 62
7
  6
CONTINUOUS
 10
4.3219689413
 20
5.612706085
 11
3.901867427
 21
5.59255911
  0
LINE
  5
51D
100
AcDbEntity
  8
ASSI
100
AcDbLine
 62
7
  6
CONTINUOUS
 10
4.3219689413
 20
5.612706085
 11
3.901867427
 21
5.59255911
  0
LINE
  5
51E
100
AcDbEntity
  8
DRAFT
100
AcDbLine
 62
7
  6
CONTINUOUS
 10
-2.8199780978
 20
5.5933423365
 11
-2.9896138582
 21
5.5891135856
  0
LINE
  5
51F
100
AcDbEntity
  8
ASSI
100
AcDbLine
 62
7
  6
CONTINUOUS
 10
-2.8199780978
 20
5.5933423365
 11
-2.9896138582
 21
5.5891135856
  0
LINE
  5
520
100
AcDbEntity
  8
DRAFT
100
AcDbLine
 62
7
  6
CONTINUOUS
 10
2.9800219022
 20
5.5968333495
 11
3.0800219022
 21
5.5978411181
  0
LINE
  5
521
100
AcDbEntity
  8
ASSI
100
AcDbLine
 62
7
  6
CONTINUOUS
 10
2.9800219022
 20
5.5968333495
 11
3.0800219022
 21
5.5978411181
  0
LINE
  5
522
100
AcDbEntity
  8
RACCORDO
100
AcDbLine
 62
253
  6
CONTINUOUS
 10
7.3187801524
 20
5.335560195
 11
7.1412636521
 21
5.335560195
  0
LINE
  5
523
100
AcDbEntity
  8
ASSI
100
AcDbLine
 62
253
  6
CONTINUOUS
 10
7.3187801524
 20
5.335560195
 11
7.1412636521
 21
5.335560195
  0
LINE
  5
524
100
AcDbEntity
  8
RACCORDO
100
AcDbLine
 62
253
  6
CONTINUOUS
 10
-6.9812198476
 20
5.335560195
 11
-7.1587363479
 21
5.335560195
  0
LINE
  5
525
100
AcDbEntity
  8
ASSI
100
AcDbLine
 62
253
  6
CONTINUOUS
 10
-6.9812198476
 20
5.335560195
 11
-7.1587363479
 21
5.335560195
  0
LINE
  5
526
100
AcDbEntity
  8
RACCORDO
100
AcDbLine
 62
7
  6
CONTINUOUS
 10
3.6199596408
 20
5.5891135856
 11
3.1496576626
 21
5.5891135856
  0
LINE
  5
527
100
AcDbEntity
  8
ASSI
100
AcDbLine
 62
7
  6
CONTINUOUS
 10
3.6199596408
 20
5.5891135856
 11
3.1496576626
 21
5.5891135856
  0
LINE
  5
528
100
AcDbEntity
  8
RACCORDO
100
AcDbLine
 62
7
  6
CONTINUOUS
 10
-2.9896138582
 20
5.5891135856
 11
-3.4599158363
 21
5.5891135856
  0
LINE
  5
529
100
AcDbEntity
  8
ASSI
100
AcDbLine
 62
7
  6
CONTINUOUS
 10
-2.9896138582
 20
5.5891135856
 11
-3.4599158363
 21
5.5891135856
  0
LINE
  5
52A
100
AcDbEntity
  8
RACCORDO
100
AcDbLine
 62
7
  6
CONTINUOUS
 10
-4.3498768652
 20
5.6150035973
 11
-2.9199780978
 21
5.6150035973
  0
LINE
  5
52B
100
AcDbEntity
  8
ASSI
100
AcDbLine
 62
7
  6
CONTINUOUS
 10
-4.3498768652
 20
5.6150035973
 11
-2.9199780978
 21
5.6150035973
  0
LINE
  5
52C
100
AcDbEntity
  8
RACCORDO
100
AcDbLine
 62
7
  6
CONTINUOUS
 10
3.0800219022
 20
5.6150035973
 11
4.5099206697
 21
5.6150035973
  0
LINE
  5
52D
100
AcDbEntity
  8
ASSI
100
AcDbLine
 62
7
  6
CONTINUOUS
 10
3.0800219022
 20
5.6150035973
 11
4.5099206697
 21
5.6150035973
  0
LINE
  5
52E
100
AcDbEntity
  8
RACCORDO
100
AcDbLine
 62
253
  6
CONTINUOUS
 10
-7.1710789427
 20
6.0426669762
 11
-6.9688772528
 21
6.0426669762
  0
LINE
  5
52F
100
AcDbEntity
  8
ASSI
100
AcDbLine
 62
253
  6
CONTINUOUS
 10
-7.1710789427
 20
6.0426669762
 11
-6.9688772528
 21
6.0426669762
  0
LINE
  5
530
100
AcDbEntity
  8
RACCORDO
100
AcDbLine
 62
253
  6
CONTINUOUS
 10
7.1289210573
 20
6.0426669762
 11
7.3311227472
 21
6.0426669762
  0
LINE
  5
531
100
AcDbEntity
  8
ASSI
100
AcDbLine
 62
253
  6
CONTINUOUS
 10
7.1289210573
 20
6.0426669762
 11
7.3311227472
 21
6.0426669762
  0
LINE
  5
532
100
AcDbEntity
  8
DRAFT
100
AcDbLine
 62
7
  6
CONTINUOUS
 10
-2.9199780978
 20
5.5978411181
 11
-2.8199780978
 21
5.5968333495
  0
LINE
  5
533
100
AcDbEntity
  8
ASSI
100
AcDbLine
 62
7
  6
CONTINUOUS
 10
-2.9199780978
 20
5.5978411181
 11
-2.8199780978
 21
5.5968333495
  0
LINE
  5
534
100
AcDbEntity
  8
DRAFT
100
AcDbLine
 62
7
  6
CONTINUOUS
 10
3.1496576626
 20
5.5891135856
 11
2.9800219022
 21
5.5933423365
  0
LINE
  5
535
100
AcDbEntity
  8
ASSI
100
AcDbLine
 62
7
  6
CONTINUOUS
 10
3.1496576626
 20
5.5891135856
 11
2.9800219022
 21
5.5933423365
  0
LINE
  5
536
100
AcDbEntity
  8
RACCORDO
100
AcDbLine
 62
7
  6
CONTINUOUS
 10
-3.7418236225
 20
5.59255911
 11
-4.1619251368
 21
5.612706085
  0
LINE
  5
537
100
AcDbEntity
  8
ASSI
100
AcDbLine
 62
7
  6
CONTINUOUS
 10
-3.7418236225
 20
5.59255911
 11
-4.1619251368
 21
5.612706085
  0
LINE
  5
538
100
AcDbEntity
  8
DRAFT
100
AcDbLine
 62
7
  6
CONTINUOUS
 10
-8.4324440883
 20
8.0414787804
 11
-8.1699780978
 21
7.9891135856
  0
LINE
  5
539
100
AcDbEntity
  8
ASSI
100
AcDbLine
 62
7
  6
CONTINUOUS
 10
-8.4324440883
 20
8.0414787804
 11
-8.1699780978
 21
7.9891135856
  0
LINE
  5
53A
100
AcDbEntity
  8
DRAFT
100
AcDbLine
 62
7
  6
CONTINUOUS
 10
10.4974769672
 20
-1.6783414793
 11
10.5595096603
 21
-1.7403741724
  0
LINE
  5
53B
100
AcDbEntity
  8
ASSI
100
AcDbLine
 62
7
  6
CONTINUOUS
 10
10.4974769672
 20
-1.6783414793
 11
10.5595096603
 21
-1.7403741724
  0
LINE
  5
53C
100
AcDbEntity
  8
RACCORDO
100
AcDbLine
 62
253
  6
CONTINUOUS
 10
6.8413093435
 20
5.1234281607
 11
6.8289667487
 21
5.8305349419
  0
LINE
  5
53D
100
AcDbEntity
  8
ASSI
100
AcDbLine
 62
253
  6
CONTINUOUS
 10
6.8413093435
 20
5.1234281607
 11
6.8289667487
 21
5.8305349419
  0
LINE
  5
53E
100
AcDbEntity
  8
RACCORDO
100
AcDbLine
 62
253
  6
CONTINUOUS
 10
7.1412636521
 20
5.335560195
 11
7.1289210573
 21
6.0426669762
  0
LINE
  5
53F
100
AcDbEntity
  8
ASSI
100
AcDbLine
 62
253
  6
CONTINUOUS
 10
7.1412636521
 20
5.335560195
 11
7.1289210573
 21
6.0426669762
  0
LINE
  5
540
100
AcDbEntity
  8
RACCORDO
100
AcDbLine
 62
253
  6
CONTINUOUS
 10
6.8248767726
 20
6.3962203668
 11
6.8248767726
 21
7.983968456
  0
LINE
  5
541
100
AcDbEntity
  8
ASSI
100
AcDbLine
 62
253
  6
CONTINUOUS
 10
6.8248767726
 20
6.3962203668
 11
6.8248767726
 21
7.983968456
  0
LINE
  5
542
100
AcDbEntity
  8
RACCORDO
100
AcDbLine
 62
253
  6
CONTINUOUS
 10
6.8423318375
 20
3.5979172821
 11
6.8423318375
 21
4.9820068044
  0
LINE
  5
543
100
AcDbEntity
  8
ASSI
100
AcDbLine
 62
253
  6
CONTINUOUS
 10
6.8423318375
 20
3.5979172821
 11
6.8423318375
 21
4.9820068044
  0
LINE
  5
544
100
AcDbEntity
  8
RACCORDO
100
AcDbLine
 62
253
  6
CONTINUOUS
 10
7.1248310812
 20
6.3962047331
 11
7.1248310812
 21
7.9891135856
  0
LINE
  5
545
100
AcDbEntity
  8
ASSI
100
AcDbLine
 62
253
  6
CONTINUOUS
 10
7.1248310812
 20
6.3962047331
 11
7.1248310812
 21
7.9891135856
  0
LINE
  5
546
100
AcDbEntity
  8
RACCORDO
100
AcDbLine
 62
253
  6
CONTINUOUS
 10
7.1422861461
 20
3.5979172821
 11
7.1422861461
 21
4.9820068044
  0
LINE
  5
547
100
AcDbEntity
  8
ASSI
100
AcDbLine
 62
253
  6
CONTINUOUS
 10
7.1422861461
 20
3.5979172821
 11
7.1422861461
 21
4.9820068044
  0
LINE
  5
548
100
AcDbEntity
  8
RACCORDO
100
AcDbLine
 62
253
  6
CONTINUOUS
 10
7.3177576584
 20
4.9820068044
 11
7.3177576584
 21
3.5979172821
  0
LINE
  5
549
100
AcDbEntity
  8
ASSI
100
AcDbLine
 62
253
  6
CONTINUOUS
 10
7.3177576584
 20
4.9820068044
 11
7.3177576584
 21
3.5979172821
  0
LINE
  5
54A
100
AcDbEntity
  8
RACCORDO
100
AcDbLine
 62
253
  6
CONTINUOUS
 10
7.3352127233
 20
7.9891135856
 11
7.3352127233
 21
6.3962050302
  0
LINE
  5
54B
100
AcDbEntity
  8
ASSI
100
AcDbLine
 62
253
  6
CONTINUOUS
 10
7.3352127233
 20
7.9891135856
 11
7.3352127233
 21
6.3962050302
  0
LINE
  5
54C
100
AcDbEntity
  8
RACCORDO
100
AcDbLine
 62
253
  6
CONTINUOUS
 10
7.3311227472
 20
6.0426669762
 11
7.3187801524
 21
5.335560195
  0
LINE
  5
54D
100
AcDbEntity
  8
ASSI
100
AcDbLine
 62
253
  6
CONTINUOUS
 10
7.3311227472
 20
6.0426669762
 11
7.3187801524
 21
5.335560195
  0
LINE
  5
54E
100
AcDbEntity
  8
RACCORDO
100
AcDbLine
 62
7
  6
CONTINUOUS
 10
6.1100719961
 20
-7.6341426454
 11
6.0851670318
 21
-7.8857267655
  0
LINE
  5
54F
100
AcDbEntity
  8
ASSI
100
AcDbLine
 62
7
  6
CONTINUOUS
 10
6.1100719961
 20
-7.6341426454
 11
6.0851670318
 21
-7.8857267655
  0
LINE
  5
550
100
AcDbEntity
  8
RACCORDO
100
AcDbLine
 62
7
  6
CONTINUOUS
 10
11.2045530922
 20
1.0729919964
 11
11.2555848113
 21
1.1240237155
  0
LINE
  5
551
100
AcDbEntity
  8
ASSI
100
AcDbLine
 62
7
  6
CONTINUOUS
 10
11.2045530922
 20
1.0729919964
 11
11.2555848113
 21
1.1240237155
  0
LINE
  5
552
100
AcDbEntity
  8
0
100
AcDbLine
 62
7
  6
CONTINUOUS
 10
1.7098091417
 20
-6.3083024144
 11
1.8906602093
 21
-6.2374690979
  0
LINE
  5
553
100
AcDbEntity
  8
ASSI
100
AcDbLine
 62
7
  6
CONTINUOUS
 10
1.7098091417
 20
-6.3083024144
 11
1.8906602093
 21
-6.2374690979
  0
LINE
  5
554
100
AcDbEntity
  8
RACCORDO
100
AcDbLine
 62
253
  6
CONTINUOUS
 10
6.8248767726
 20
6.3962203668
 11
7.6351670318
 21
6.3962203668
  0
LINE
  5
555
100
AcDbEntity
  8
ASSI
100
AcDbLine
 62
253
  6
CONTINUOUS
 10
6.8248767726
 20
6.3962203668
 11
7.6351670318
 21
6.3962203668
  0
LINE
  5
556
100
AcDbEntity
  8
RACCORDO
100
AcDbLine
 62
253
  6
CONTINUOUS
 10
-6.6648329682
 20
6.3962203668
 11
-7.4751232274
 21
6.3962203668
  0
LINE
  5
557
100
AcDbEntity
  8
ASSI
100
AcDbLine
 62
253
  6
CONTINUOUS
 10
-6.6648329682
 20
6.3962203668
 11
-7.4751232274
 21
6.3962203668
  0
LINE
  5
558
100
AcDbEntity
  8
DRAFT
100
AcDbLine
 62
7
  6
CONTINUOUS
 10
-2.8874331627
 20
7.2065686506
 11
-2.4199780978
 21
7.2065686506
  0
LINE
  5
559
100
AcDbEntity
  8
DRAFT
100
AcDbLine
 62
7
  6
CONTINUOUS
 10
3.0474769672
 20
7.2065686506
 11
2.5800219022
 21
7.2065686506
  0
LINE
  5
55A
100
AcDbEntity
  8
DRAFT
100
AcDbLine
 62
7
  6
CONTINUOUS
 10
-2.4164870848
 20
7.2100596635
 11
2.5765308892
 21
7.2100596635
  0
LINE
  5
55B
100
AcDbEntity
  8
RACCORDO
100
AcDbLine
 62
7
  6
CONTINUOUS
 10
11.2625668373
 20
-1.0527785702
 11
11.2053506734
 21
-0.9955624063
  0
LINE
  5
55C
100
AcDbEntity
  8
ASSI
100
AcDbLine
 62
7
  6
CONTINUOUS
 10
11.2625668373
 20
-1.0527785702
 11
11.2053506734
 21
-0.9955624063
  0
LINE
  5
55D
100
AcDbEntity
  8
RACCORDO
100
AcDbLine
 62
253
  6
CONTINUOUS
 10
7.6177119669
 20
4.9820068044
 11
7.6177119669
 21
3.5979172821
  0
LINE
  5
55E
100
AcDbEntity
  8
ASSI
100
AcDbLine
 62
253
  6
CONTINUOUS
 10
7.6177119669
 20
4.9820068044
 11
7.6177119669
 21
3.5979172821
  0
LINE
  5
55F
100
AcDbEntity
  8
RACCORDO
100
AcDbLine
 62
253
  6
CONTINUOUS
 10
7.6351670318
 20
7.983968456
 11
7.6351670318
 21
6.3962203668
  0
LINE
  5
560
100
AcDbEntity
  8
ASSI
100
AcDbLine
 62
253
  6
CONTINUOUS
 10
7.6351670318
 20
7.983968456
 11
7.6351670318
 21
6.3962203668
  0
LINE
  5
561
100
AcDbEntity
  8
DRAFT
100
AcDbLine
 62
7
  6
CONTINUOUS
 10
8.3300219022
 20
9.1297663649
 11
8.3300219022
 21
7.9891135856
  0
LINE
  5
562
100
AcDbEntity
  8
ASSI
100
AcDbLine
 62
7
  6
CONTINUOUS
 10
8.3300219022
 20
9.1297663649
 11
8.3300219022
 21
7.9891135856
  0
LINE
  5
563
100
AcDbEntity
  8
RACCORDO
100
AcDbLine
 62
253
  6
CONTINUOUS
 10
7.6310770557
 20
5.8305349419
 11
7.6187344609
 21
5.1234281607
  0
LINE
  5
564
100
AcDbEntity
  8
ASSI
100
AcDbLine
 62
253
  6
CONTINUOUS
 10
7.6310770557
 20
5.8305349419
 11
7.6187344609
 21
5.1234281607
  0
LINE
  5
565
100
AcDbEntity
  8
DRAFT
100
AcDbLine
 62
7
  6
CONTINUOUS
 10
8.5924878928
 20
9.1821315597
 11
8.3300219022
 21
9.1297663649
  0
LINE
  5
566
100
AcDbEntity
  8
ASSI
100
AcDbLine
 62
7
  6
CONTINUOUS
 10
8.5924878928
 20
9.1821315597
 11
8.3300219022
 21
9.1297663649
  0
LINE
  5
567
100
AcDbEntity
  8
0
100
AcDbLine
 62
7
  6
CONTINUOUS
 10
-2.9199780978
 20
7.2891135856
 11
3.0800219022
 21
7.2891135856
  0
LINE
  5
568
100
AcDbEntity
  8
ASSI
100
AcDbLine
 62
7
  6
CONTINUOUS
 10
-2.9199780978
 20
7.2891135856
 11
3.0800219022
 21
7.2891135856
  0
LINE
  5
569
100
AcDbEntity
  8
DRAFT
100
AcDbLine
 62
7
  6
CONTINUOUS
 10
-12.2199780978
 20
7.9297663649
 11
-11.1199780978
 21
7.9297663649
  0
LINE
  5
56A
100
AcDbEntity
  8
ASSI
100
AcDbLine
 62
7
  6
CONTINUOUS
 10
-12.2199780978
 20
7.9297663649
 11
-11.1199780978
 21
7.9297663649
  0
LINE
  5
56B
100
AcDbEntity
  8
DRAFT
100
AcDbLine
 62
7
  6
CONTINUOUS
 10
11.2800219022
 20
7.9297663649
 11
12.3800219022
 21
7.9297663649
  0
LINE
  5
56C
100
AcDbEntity
  8
ASSI
100
AcDbLine
 62
7
  6
CONTINUOUS
 10
11.2800219022
 20
7.9297663649
 11
12.3800219022
 21
7.9297663649
  0
LINE
  5
56D
100
AcDbEntity
  8
RACCORDO
100
AcDbLine
 62
253
  6
CONTINUOUS
 10
-12.2181412014
 20
7.9316032612
 11
-11.1181412014
 21
7.9316032612
  0
LINE
  5
56E
100
AcDbEntity
  8
ASSI
100
AcDbLine
 62
253
  6
CONTINUOUS
 10
-12.2181412014
 20
7.9316032612
 11
-11.1181412014
 21
7.9316032612
  0
LINE
  5
56F
100
AcDbEntity
  8
RACCORDO
100
AcDbLine
 62
253
  6
CONTINUOUS
 10
11.2781850059
 20
7.9316032612
 11
12.3781850059
 21
7.9316032612
  0
LINE
  5
570
100
AcDbEntity
  8
ASSI
100
AcDbLine
 62
253
  6
CONTINUOUS
 10
11.2781850059
 20
7.9316032612
 11
12.3781850059
 21
7.9316032612
  0
LINE
  5
571
100
AcDbEntity
  8
RACCORDO
100
AcDbLine
 62
7
  6
CONTINUOUS
 10
-10.7431709526
 20
7.9664628697
 11
-7.4926288137
 21
7.9664628697
  0
LINE
  5
572
100
AcDbEntity
  8
ASSI
100
AcDbLine
 62
7
  6
CONTINUOUS
 10
-10.7431709526
 20
7.9664628697
 11
-7.4926288137
 21
7.9664628697
  0
LINE
  5
573
100
AcDbEntity
  8
DRAFT
100
AcDbLine
 62
7
  6
CONTINUOUS
 10
-6.6473273818
 20
7.9664628697
 11
6.8073711863
 21
7.9664628697
  0
LINE
  5
574
100
AcDbEntity
  8
ASSI
100
AcDbLine
 62
7
  6
CONTINUOUS
 10
-6.6473273818
 20
7.9664628697
 11
6.8073711863
 21
7.9664628697
  0
LINE
  5
575
100
AcDbEntity
  8
RACCORDO
100
AcDbLine
 62
7
  6
CONTINUOUS
 10
7.6526726182
 20
7.9664628697
 11
10.9032147571
 21
7.9664628697
  0
LINE
  5
576
100
AcDbEntity
  8
ASSI
100
AcDbLine
 62
7
  6
CONTINUOUS
 10
7.6526726182
 20
7.9664628697
 11
10.9032147571
 21
7.9664628697
  0
LINE
  5
577
100
AcDbEntity
  8
RACCORDO
100
AcDbLine
 62
7
  6
CONTINUOUS
 10
-8.1699780978
 20
7.9891135856
 11
-7.1751689188
 21
7.9891135856
  0
LINE
  5
578
100
AcDbEntity
  8
ASSI
100
AcDbLine
 62
7
  6
CONTINUOUS
 10
-8.1699780978
 20
7.9891135856
 11
-7.1751689188
 21
7.9891135856
  0
LINE
  5
579
100
AcDbEntity
  8
RACCORDO
100
AcDbLine
 62
7
  6
CONTINUOUS
 10
-6.9647872767
 20
7.9891135856
 11
7.1248310812
 21
7.9891135856
  0
LINE
  5
57A
100
AcDbEntity
  8
ASSI
100
AcDbLine
 62
7
  6
CONTINUOUS
 10
-6.9647872767
 20
7.9891135856
 11
7.1248310812
 21
7.9891135856
  0
LINE
  5
57B
100
AcDbEntity
  8
RACCORDO
100
AcDbLine
 62
7
  6
CONTINUOUS
 10
7.3352127233
 20
7.9891135856
 11
8.3300219022
 21
7.9891135856
  0
LINE
  5
57C
100
AcDbEntity
  8
ASSI
100
AcDbLine
 62
7
  6
CONTINUOUS
 10
7.3352127233
 20
7.9891135856
 11
8.3300219022
 21
7.9891135856
  0
LINE
  5
57D
100
AcDbEntity
  8
DRAFT
100
AcDbLine
 62
7
  6
CONTINUOUS
 10
-11.1129960718
 20
8.0414787804
 11
-8.4324440883
 21
8.0414787804
  0
LINE
  5
57E
100
AcDbEntity
  8
ASSI
100
AcDbLine
 62
7
  6
CONTINUOUS
 10
-11.1129960718
 20
8.0414787804
 11
-8.4324440883
 21
8.0414787804
  0
LINE
  5
57F
100
AcDbEntity
  8
DRAFT
100
AcDbLine
 62
7
  6
CONTINUOUS
 10
8.5924878928
 20
8.0414787804
 11
11.2730398763
 21
8.0414787804
  0
LINE
  5
580
100
AcDbEntity
  8
ASSI
100
AcDbLine
 62
7
  6
CONTINUOUS
 10
8.5924878928
 20
8.0414787804
 11
11.2730398763
 21
8.0414787804
  0
LINE
  5
581
100
AcDbEntity
  8
RACCORDO
100
AcDbLine
 62
253
  6
CONTINUOUS
 10
-12.2129960718
 20
8.2315575698
 11
-11.1129960718
 21
8.2315575698
  0
LINE
  5
582
100
AcDbEntity
  8
ASSI
100
AcDbLine
 62
253
  6
CONTINUOUS
 10
-12.2129960718
 20
8.2315575698
 11
-11.1129960718
 21
8.2315575698
  0
LINE
  5
583
100
AcDbEntity
  8
RACCORDO
100
AcDbLine
 62
253
  6
CONTINUOUS
 10
11.2730398763
 20
8.2315575698
 11
12.3730398763
 21
8.2315575698
  0
LINE
  5
584
100
AcDbEntity
  8
ASSI
100
AcDbLine
 62
253
  6
CONTINUOUS
 10
11.2730398763
 20
8.2315575698
 11
12.3730398763
 21
8.2315575698
  0
LINE
  5
585
100
AcDbEntity
  8
DRAFT
100
AcDbLine
 62
7
  6
CONTINUOUS
 10
-8.4324440883
 20
9.1821315597
 11
-8.1699780978
 21
9.1297663649
  0
LINE
  5
586
100
AcDbEntity
  8
ASSI
100
AcDbLine
 62
7
  6
CONTINUOUS
 10
-8.4324440883
 20
9.1821315597
 11
-8.1699780978
 21
9.1297663649
  0
LINE
  5
587
100
AcDbEntity
  8
RACCORDO
100
AcDbLine
 62
253
  6
CONTINUOUS
 10
7.3211877448
 20
3.0979934345
 11
7.3519367183
 21
3.067244461
  0
LINE
  5
588
100
AcDbEntity
  8
ASSI
100
AcDbLine
 62
253
  6
CONTINUOUS
 10
7.3211877448
 20
3.0979934345
 11
7.3519367183
 21
3.067244461
  0
LINE
  5
589
100
AcDbEntity
  8
RACCORDO
100
AcDbLine
 62
253
  6
CONTINUOUS
 10
7.6211420533
 20
3.3979477431
 11
7.651967283
 21
3.3671225134
  0
LINE
  5
58A
100
AcDbEntity
  8
ASSI
100
AcDbLine
 62
253
  6
CONTINUOUS
 10
7.6211420533
 20
3.3979477431
 11
7.651967283
 21
3.3671225134
  0
LINE
  5
58B
100
AcDbEntity
  8
RACCORDO
100
AcDbLine
 62
7
  6
CONTINUOUS
 10
9.9085126284
 20
1.8106228595
 11
9.9597869025
 21
1.7593485854
  0
LINE
  5
58C
100
AcDbEntity
  8
ASSI
100
AcDbLine
 62
7
  6
CONTINUOUS
 10
9.9085126284
 20
1.8106228595
 11
9.9597869025
 21
1.7593485854
  0
LINE
  5
58D
100
AcDbEntity
  8
DRAFT
100
AcDbLine
 62
7
  6
CONTINUOUS
 10
8.5924878928
 20
9.1821315597
 11
8.5924878928
 21
8.0414787804
  0
LINE
  5
58E
100
AcDbEntity
  8
ASSI
100
AcDbLine
 62
7
  6
CONTINUOUS
 10
8.5924878928
 20
9.1821315597
 11
8.5924878928
 21
8.0414787804
  0
LINE
  5
58F
100
AcDbEntity
  8
RACCORDO
100
AcDbLine
 62
253
  6
CONTINUOUS
 10
5.7852127233
 20
-6.3057412848
 11
5.8151587131
 21
-6.2757952949
  0
LINE
  5
590
100
AcDbEntity
  8
ASSI
100
AcDbLine
 62
253
  6
CONTINUOUS
 10
5.7852127233
 20
-6.3057412848
 11
5.8151587131
 21
-6.2757952949
  0
LINE
  5
591
100
AcDbEntity
  8
RACCORDO
100
AcDbLine
 62
253
  6
CONTINUOUS
 10
6.0851670318
 20
-6.6056955933
 11
6.1149173298
 21
-6.5759452954
  0
LINE
  5
592
100
AcDbEntity
  8
ASSI
100
AcDbLine
 62
253
  6
CONTINUOUS
 10
6.0851670318
 20
-6.6056955933
 11
6.1149173298
 21
-6.5759452954
  0
LINE
  5
593
100
AcDbEntity
  8
DRAFT
100
AcDbLine
 62
7
  6
CONTINUOUS
 10
11.2800219022
 20
-1.6608864144
 11
11.2625668373
 21
-1.6783414793
  0
LINE
  5
594
100
AcDbEntity
  8
ASSI
100
AcDbLine
 62
7
  6
CONTINUOUS
 10
11.2800219022
 20
-1.6608864144
 11
11.2625668373
 21
-1.6783414793
  0
LINE
  5
595
100
AcDbEntity
  8
DRAFT
100
AcDbLine
 62
7
  6
CONTINUOUS
 10
11.5800219022
 20
-1.6608864144
 11
11.5005341442
 21
-1.7403741724
  0
LINE
  5
596
100
AcDbEntity
  8
ASSI
100
AcDbLine
 62
7
  6
CONTINUOUS
 10
11.5800219022
 20
-1.6608864144
 11
11.5005341442
 21
-1.7403741724
  0
LINE
  5
597
100
AcDbEntity
  8
DRAFT
100
AcDbLine
 62
7
  6
CONTINUOUS
 10
-8.1699780978
 20
9.1297663649
 11
8.3300219022
 21
9.1297663649
  0
LINE
  5
598
100
AcDbEntity
  8
ASSI
100
AcDbLine
 62
7
  6
CONTINUOUS
 10
-8.1699780978
 20
9.1297663649
 11
8.3300219022
 21
9.1297663649
  0
LINE
  5
599
100
AcDbEntity
  8
RACCORDO
100
AcDbLine
 62
7
  6
CONTINUOUS
 10
-11.963034148
 20
9.1821315597
 11
-8.4324440883
 21
9.1821315597
  0
LINE
  5
59A
100
AcDbEntity
  8
ASSI
100
AcDbLine
 62
7
  6
CONTINUOUS
 10
-11.963034148
 20
9.1821315597
 11
-8.4324440883
 21
9.1821315597
  0
LINE
  5
59B
100
AcDbEntity
  8
RACCORDO
100
AcDbLine
 62
7
  6
CONTINUOUS
 10
8.5924878928
 20
9.1821315597
 11
12.1230779525
 21
9.1821315597
  0
LINE
  5
59C
100
AcDbEntity
  8
ASSI
100
AcDbLine
 62
7
  6
CONTINUOUS
 10
8.5924878928
 20
9.1821315597
 11
12.1230779525
 21
9.1821315597
  0
LINE
  5
59D
100
AcDbEntity
  8
RACCORDO
100
AcDbLine
 62
7
  6
CONTINUOUS
 10
11.2555848113
 20
1.7542034558
 11
11.2043129848
 21
1.8054752824
  0
LINE
  5
59E
100
AcDbEntity
  8
ASSI
100
AcDbLine
 62
7
  6
CONTINUOUS
 10
11.2555848113
 20
1.7542034558
 11
11.2043129848
 21
1.8054752824
  0
LINE
  5
59F
100
AcDbEntity
  8
RACCORDO
100
AcDbLine
 62
253
  6
CONTINUOUS
 10
10.9089432662
 20
-7.6341426454
 11
10.9669214639
 21
-8.2198248298
  0
LINE
  5
5A0
100
AcDbEntity
  8
ASSI
100
AcDbLine
 62
253
  6
CONTINUOUS
 10
10.9089432662
 20
-7.6341426454
 11
10.9669214639
 21
-8.2198248298
  0
LINE
  5
5A1
100
AcDbEntity
  8
RACCORDO
100
AcDbLine
 62
253
  6
CONTINUOUS
 10
11.2088975761
 20
-7.338700333
 11
11.2660578503
 21
-7.9161200453
  0
LINE
  5
5A2
100
AcDbEntity
  8
ASSI
100
AcDbLine
 62
253
  6
CONTINUOUS
 10
11.2088975761
 20
-7.338700333
 11
11.2660578503
 21
-7.9161200453
  0
LINE
  5
5A3
100
AcDbEntity
  8
DRAFT
100
AcDbLine
 62
7
  6
CONTINUOUS
 10
9.5800219022
 20
-4.7908130897
 11
9.5800219022
 21
-1.030959739
  0
LINE
  5
5A4
100
AcDbEntity
  8
ASSI
100
AcDbLine
 62
7
  6
CONTINUOUS
 10
9.5800219022
 20
-4.7908130897
 11
9.5800219022
 21
-1.030959739
  0
LINE
  5
5A5
100
AcDbEntity
  8
RACCORDO
100
AcDbLine
 62
253
  6
CONTINUOUS
 10
9.9597869025
 20
1.7593485854
 11
9.9597869025
 21
1.1188785859
  0
LINE
  5
5A6
100
AcDbEntity
  8
ASSI
100
AcDbLine
 62
253
  6
CONTINUOUS
 10
9.9597869025
 20
1.7593485854
 11
9.9597869025
 21
1.1188785859
  0
LINE
  5
5A7
100
AcDbEntity
  8
RACCORDO
100
AcDbLine
 62
253
  6
CONTINUOUS
 10
9.9597869025
 20
-6.1406514146
 11
9.9597869025
 21
-6.7811214141
  0
LINE
  5
5A8
100
AcDbEntity
  8
ASSI
100
AcDbLine
 62
253
  6
CONTINUOUS
 10
9.9597869025
 20
-6.1406514146
 11
9.9597869025
 21
-6.7811214141
  0
LINE
  5
5A9
100
AcDbEntity
  8
DRAFT
100
AcDbLine
 62
7
  6
CONTINUOUS
 10
9.9800219022
 20
-4.8294133451
 11
9.9800219022
 21
-4.7948441643
  0
LINE
  5
5AA
100
AcDbEntity
  8
ASSI
100
AcDbLine
 62
7
  6
CONTINUOUS
 10
9.9800219022
 20
-4.8294133451
 11
9.9800219022
 21
-4.7948441643
  0
LINE
  5
5AB
100
AcDbEntity
  8
DRAFT
100
AcDbLine
 62
7
  6
CONTINUOUS
 10
9.9800219022
 20
-1.0269286645
 11
9.9800219022
 21
-0.9904134992
  0
LINE
  5
5AC
100
AcDbEntity
  8
ASSI
100
AcDbLine
 62
7
  6
CONTINUOUS
 10
9.9800219022
 20
-1.0269286645
 11
9.9800219022
 21
-0.9904134992
  0
LINE
  5
5AD
100
AcDbEntity
  8
DRAFT
100
AcDbLine
 62
7
  6
CONTINUOUS
 10
10.2300219022
 20
-4.7689942585
 11
10.2300219022
 21
-1.0527785702
  0
LINE
  5
5AE
100
AcDbEntity
  8
ASSI
100
AcDbLine
 62
7
  6
CONTINUOUS
 10
10.2300219022
 20
-4.7689942585
 11
10.2300219022
 21
-1.0527785702
  0
LINE
  5
5AF
100
AcDbEntity
  8
RACCORDO
100
AcDbLine
 62
253
  6
CONTINUOUS
 10
10.259741211
 20
1.7542034558
 11
10.259741211
 21
1.1240237155
  0
LINE
  5
5B0
100
AcDbEntity
  8
ASSI
100
AcDbLine
 62
253
  6
CONTINUOUS
 10
10.259741211
 20
1.7542034558
 11
10.259741211
 21
1.1240237155
  0
LINE
  5
5B1
100
AcDbEntity
  8
RACCORDO
100
AcDbLine
 62
253
  6
CONTINUOUS
 10
10.259741211
 20
-6.1457965442
 11
10.259741211
 21
-6.7759762845
  0
LINE
  5
5B2
100
AcDbEntity
  8
ASSI
100
AcDbLine
 62
253
  6
CONTINUOUS
 10
10.259741211
 20
-6.1457965442
 11
10.259741211
 21
-6.7759762845
  0
LINE
  5
5B3
100
AcDbEntity
  8
DRAFT
100
AcDbLine
 62
7
  6
CONTINUOUS
 10
10.4974769672
 20
-4.1434313494
 11
10.5583222522
 21
-4.0825860644
  0
LINE
  5
5B4
100
AcDbEntity
  8
ASSI
100
AcDbLine
 62
7
  6
CONTINUOUS
 10
10.4974769672
 20
-4.1434313494
 11
10.5583222522
 21
-4.0825860644
  0
LINE
  5
5B5
100
AcDbEntity
  8
RACCORDO
100
AcDbLine
 62
253
  6
CONTINUOUS
 10
10.9085886172
 20
-6.828159463
 11
10.9089432674
 21
-7.3505528092
  0
LINE
  5
5B6
100
AcDbEntity
  8
ASSI
100
AcDbLine
 62
253
  6
CONTINUOUS
 10
10.9085886172
 20
-6.828159463
 11
10.9089432674
 21
-7.3505528092
  0
LINE
  5
5B7
100
AcDbEntity
  8
RACCORDO
100
AcDbLine
 62
253
  6
CONTINUOUS
 10
10.9073356224
 20
-4.8294133454
 11
10.9081086791
 21
-6.0931330886
  0
LINE
  5
5B8
100
AcDbEntity
  8
ASSI
100
AcDbLine
 62
253
  6
CONTINUOUS
 10
10.9073356224
 20
-4.8294133454
 11
10.9081086791
 21
-6.0931330886
  0
LINE
  5
5B9
100
AcDbEntity
  8
RACCORDO
100
AcDbLine
 62
253
  6
CONTINUOUS
 10
10.9045985274
 20
1.0678476204
 11
10.9053910158
 21
-0.990413499
  0
LINE
  5
5BA
100
AcDbEntity
  8
ASSI
100
AcDbLine
 62
253
  6
CONTINUOUS
 10
10.9045985274
 20
1.0678476204
 11
10.9053910158
 21
-0.990413499
  0
LINE
  5
5BB
100
AcDbEntity
  8
RACCORDO
100
AcDbLine
 62
253
  6
CONTINUOUS
 10
10.9032147571
 20
7.9664628697
 11
10.904355391
 21
1.8106228596
  0
LINE
  5
5BC
100
AcDbEntity
  8
ASSI
100
AcDbLine
 62
253
  6
CONTINUOUS
 10
10.9032147571
 20
7.9664628697
 11
10.904355391
 21
1.8106228596
  0
LINE
  5
5BD
100
AcDbEntity
  8
DRAFT
100
AcDbLine
 62
7
  6
CONTINUOUS
 10
10.4974769672
 20
-1.6783414793
 11
10.4974769672
 21
-4.1434313494
  0
LINE
  5
5BE
100
AcDbEntity
  8
ASSI
100
AcDbLine
 62
7
  6
CONTINUOUS
 10
10.4974769672
 20
-1.6783414793
 11
10.4974769672
 21
-4.1434313494
  0
LINE
  5
5BF
100
AcDbEntity
  8
DRAFT
100
AcDbLine
 62
7
  6
CONTINUOUS
 10
11.2555848113
 20
1.7542034558
 11
11.2555848113
 21
1.1240237155
  0
LINE
  5
5C0
100
AcDbEntity
  8
ASSI
100
AcDbLine
 62
7
  6
CONTINUOUS
 10
11.2555848113
 20
1.7542034558
 11
11.2555848113
 21
1.1240237155
  0
LINE
  5
5C1
100
AcDbEntity
  8
DRAFT
100
AcDbLine
 62
7
  6
CONTINUOUS
 10
11.2555848113
 20
-6.1457965442
 11
11.2555848113
 21
-6.7759762845
  0
LINE
  5
5C2
100
AcDbEntity
  8
ASSI
100
AcDbLine
 62
7
  6
CONTINUOUS
 10
11.2555848113
 20
-6.1457965442
 11
11.2555848113
 21
-6.7759762845
  0
LINE
  5
5C3
100
AcDbEntity
  8
DRAFT
100
AcDbLine
 62
7
  6
CONTINUOUS
 10
11.2625668373
 20
-1.0527785702
 11
11.2625668373
 21
-1.6783414793
  0
LINE
  5
5C4
100
AcDbEntity
  8
ASSI
100
AcDbLine
 62
7
  6
CONTINUOUS
 10
11.2625668373
 20
-1.0527785702
 11
11.2625668373
 21
-1.6783414793
  0
LINE
  5
5C5
100
AcDbEntity
  8
DRAFT
100
AcDbLine
 62
7
  6
CONTINUOUS
 10
11.2625668373
 20
-4.1434313494
 11
11.2625668373
 21
-4.7689942585
  0
LINE
  5
5C6
100
AcDbEntity
  8
ASSI
100
AcDbLine
 62
7
  6
CONTINUOUS
 10
11.2625668373
 20
-4.1434313494
 11
11.2625668373
 21
-4.7689942585
  0
LINE
  5
5C7
100
AcDbEntity
  8
RACCORDO
100
AcDbLine
 62
7
  6
CONTINUOUS
 10
11.2660578503
 20
-7.9161200453
 11
11.2660578503
 21
-9.303908119
  0
LINE
  5
5C8
100
AcDbEntity
  8
ASSI
100
AcDbLine
 62
7
  6
CONTINUOUS
 10
11.2660578503
 20
-7.9161200453
 11
11.2660578503
 21
-9.303908119
  0
LINE
  5
5C9
100
AcDbEntity
  8
RACCORDO
100
AcDbLine
 62
7
  6
CONTINUOUS
 10
11.2730398763
 20
8.2315575698
 11
11.2730398763
 21
8.0414787804
  0
LINE
  5
5CA
100
AcDbEntity
  8
ASSI
100
AcDbLine
 62
7
  6
CONTINUOUS
 10
11.2730398763
 20
8.2315575698
 11
11.2730398763
 21
8.0414787804
  0
LINE
  5
5CB
100
AcDbEntity
  8
DRAFT
100
AcDbLine
 62
7
  6
CONTINUOUS
 10
11.2800219022
 20
7.9297663649
 11
11.2800219022
 21
-1.6608864144
  0
LINE
  5
5CC
100
AcDbEntity
  8
ASSI
100
AcDbLine
 62
7
  6
CONTINUOUS
 10
11.2800219022
 20
7.9297663649
 11
11.2800219022
 21
-1.6608864144
  0
LINE
  5
5CD
100
AcDbEntity
  8
DRAFT
100
AcDbLine
 62
7
  6
CONTINUOUS
 10
11.2660706468
 20
-9.3039113179
 11
11.2755143164
 21
-4.1563788285
  0
LINE
  5
5CE
100
AcDbEntity
  8
ASSI
100
AcDbLine
 62
7
  6
CONTINUOUS
 10
11.2660706468
 20
-9.3039113179
 11
11.2755143164
 21
-4.1563788285
  0
LINE
  5
5CF
100
AcDbEntity
  8
RACCORDO
100
AcDbLine
 62
7
  6
CONTINUOUS
 10
11.2072928164
 20
-4.8242682794
 11
11.2625668373
 21
-4.7689942585
  0
LINE
  5
5D0
100
AcDbEntity
  8
ASSI
100
AcDbLine
 62
7
  6
CONTINUOUS
 10
11.2072928164
 20
-4.8242682794
 11
11.2625668373
 21
-4.7689942585
  0
LINE
  5
5D1
100
AcDbEntity
  8
RACCORDO
100
AcDbLine
 62
7
  6
CONTINUOUS
 10
7.6351670318
 20
7.983968456
 11
7.6526726182
 21
7.9664628697
  0
LINE
  5
5D2
100
AcDbEntity
  8
ASSI
100
AcDbLine
 62
7
  6
CONTINUOUS
 10
7.6351670318
 20
7.983968456
 11
7.6526726182
 21
7.9664628697
  0
LINE
  5
5D3
100
AcDbEntity
  8
RACCORDO
100
AcDbLine
 62
7
  6
CONTINUOUS
 10
12.3730398763
 20
8.9321696359
 11
12.3730398763
 21
8.2315575698
  0
LINE
  5
5D4
100
AcDbEntity
  8
ASSI
100
AcDbLine
 62
7
  6
CONTINUOUS
 10
12.3730398763
 20
8.9321696359
 11
12.3730398763
 21
8.2315575698
  0
LINE
  5
5D5
100
AcDbEntity
  8
DRAFT
100
AcDbLine
 62
7
  6
CONTINUOUS
 10
12.3800219022
 20
7.9297663649
 11
12.3800219022
 21
-1.699394851
  0
LINE
  5
5D6
100
AcDbEntity
  8
ASSI
100
AcDbLine
 62
7
  6
CONTINUOUS
 10
12.3800219022
 20
7.9297663649
 11
12.3800219022
 21
-1.699394851
  0
LINE
  5
5D7
100
AcDbEntity
  8
DRAFT
100
AcDbLine
 62
7
  6
CONTINUOUS
 10
11.5800219022
 20
-1.6608864144
 11
11.5755143164
 21
-4.1563788285
  0
LINE
  5
5D8
100
AcDbEntity
  8
ASSI
100
AcDbLine
 62
7
  6
CONTINUOUS
 10
11.5800219022
 20
-1.6608864144
 11
11.5755143164
 21
-4.1563788285
  0
LINE
  5
5D9
100
AcDbEntity
  8
RACCORDO
100
AcDbLine
 62
7
  6
CONTINUOUS
 10
12.3665288245
 20
-9.0541689459
 11
12.3800219022
 21
-1.699394851
  0
LINE
  5
5DA
100
AcDbEntity
  8
ASSI
100
AcDbLine
 62
7
  6
CONTINUOUS
 10
12.3665288245
 20
-9.0541689459
 11
12.3800219022
 21
-1.699394851
  0
LINE
  5
5DB
100
AcDbEntity
  8
RACCORDO
100
AcDbLine
 62
7
  6
CONTINUOUS
 10
9.9127488541
 20
-6.8281594625
 11
9.9597869025
 21
-6.7811214141
  0
LINE
  5
5DC
100
AcDbEntity
  8
ASSI
100
AcDbLine
 62
7
  6
CONTINUOUS
 10
9.9127488541
 20
-6.8281594625
 11
9.9597869025
 21
-6.7811214141
  0
LINE
  5
5DD
100
AcDbEntity
  8
RACCORDO
100
AcDbLine
 62
7
  6
CONTINUOUS
 10
11.2085471635
 20
-6.8230139323
 11
11.2555848113
 21
-6.7759762845
  0
LINE
  5
5DE
100
AcDbEntity
  8
ASSI
100
AcDbLine
 62
7
  6
CONTINUOUS
 10
11.2085471635
 20
-6.8230139323
 11
11.2555848113
 21
-6.7759762845
  0
LINE
  5
5DF
100
AcDbEntity
  8
RACCORDO
100
AcDbLine
 62
7
  6
CONTINUOUS
 10
11.2800219022
 20
7.9297663649
 11
11.2781850059
 21
7.9316032612
  0
LINE
  5
5E0
100
AcDbEntity
  8
ASSI
100
AcDbLine
 62
7
  6
CONTINUOUS
 10
11.2800219022
 20
7.9297663649
 11
11.2781850059
 21
7.9316032612
  0
ARC
  5
5E1
100
AcDbEntity
  8
RACCORDO
100
AcDbCircle
 62
253
  6
CONTINUOUS
 10
-5.414896313
 20
-6.6058046294
 40
0.3000638606
100
AcDbArc
 50
0.0208199654
 51
89.9791799927
  0
ARC
  5
5E2
100
AcDbEntity
  8
RACCORDO
100
AcDbCircle
 62
253
  6
CONTINUOUS
 10
-5.6250598825
 20
-6.6058046294
 40
0.3000638606
100
AcDbArc
 50
90.0208200089
 51
179.979180033
  0
ARC
  5
5E3
100
AcDbEntity
  8
ASSI
100
AcDbCircle
 62
253
  6
CONTINUOUS
 10
-5.414896313
 20
-6.6058046294
 40
0.3000638606
100
AcDbArc
 50
0.0208199654
 51
89.9791799927
  0
ARC
  5
5E4
100
AcDbEntity
  8
ASSI
100
AcDbCircle
 62
253
  6
CONTINUOUS
 10
-5.6250598825
 20
-6.6058046294
 40
0.3000638606
100
AcDbArc
 50
90.0208200089
 51
179.979180033
  0
ARC
  5
5E5
100
AcDbEntity
  8
RACCORDO
100
AcDbCircle
 62
7
  6
CONTINUOUS
 10
-5.3848918577
 20
-6.5755879427
 40
0.2997998761
100
AcDbArc
 50
359.9317072621
 51
89.990335003
  0
ARC
  5
5E6
100
AcDbEntity
  8
RACCORDO
100
AcDbCircle
 62
7
  6
CONTINUOUS
 10
-5.6550643381
 20
-6.5755879419
 40
0.2997998758
100
AcDbArc
 50
90.0096649436
 51
180.0682929025
  0
ARC
  5
5E7
100
AcDbEntity
  8
ASSI
100
AcDbCircle
 62
7
  6
CONTINUOUS
 10
-5.3848918577
 20
-6.5755879427
 40
0.2997998761
100
AcDbArc
 50
359.9317072621
 51
89.990335003
  0
ARC
  5
5E8
100
AcDbEntity
  8
ASSI
100
AcDbCircle
 62
7
  6
CONTINUOUS
 10
-5.6550643381
 20
-6.5755879419
 40
0.2997998758
100
AcDbArc
 50
90.0096649436
 51
180.0682929025
  0
ARC
  5
5E9
100
AcDbEntity
  8
0
100
AcDbCircle
 62
7
  6
CONTINUOUS
 10
-0.876520236
 20
-0.8696866942
 40
0.2228893261
100
AcDbArc
 50
140.7847405624
 51
146.0215768876
  0
ARC
  5
5EA
100
AcDbEntity
  8
ASSI
100
AcDbCircle
 62
7
  6
CONTINUOUS
 10
-0.876520236
 20
-0.8696866942
 40
0.2228893261
100
AcDbArc
 50
140.7847405624
 51
146.0215768876
  0
ARC
  5
5EB
100
AcDbEntity
  8
ASSI
100
AcDbCircle
 62
7
  6
CONTINUOUS
 10
-0.8914216556
 20
-0.8596298689
 40
0.2049117874
100
AcDbArc
 50
146.0247890675
 51
151.8600118649
  0
ARC
  5
5EC
100
AcDbEntity
  8
ASSI
100
AcDbCircle
 62
7
  6
CONTINUOUS
 10
-0.9019046031
 20
-0.8539903038
 40
0.1930081747
100
AcDbArc
 50
151.8685943696
 51
158.2386669592
  0
ARC
  5
5ED
100
AcDbEntity
  8
RACCORDO
100
AcDbCircle
 62
253
  6
CONTINUOUS
 10
-46.8300842831
 20
5.0049286792
 40
53.9723683883
100
AcDbArc
 50
359.9756666866
 51
0.3509927801
  0
ARC
  5
5EE
100
AcDbEntity
  8
RACCORDO
100
AcDbCircle
 62
253
  6
CONTINUOUS
 10
-61.1300842828
 20
5.0049286777
 40
53.9723683881
100
AcDbArc
 50
359.9756666882
 51
0.3509927817
  0
ARC
  5
5EF
100
AcDbEntity
  8
ASSI
100
AcDbCircle
 62
253
  6
CONTINUOUS
 10
-46.8300842831
 20
5.0049286792
 40
53.9723683883
100
AcDbArc
 50
359.9756666866
 51
0.3509927801
  0
ARC
  5
5F0
100
AcDbEntity
  8
ASSI
100
AcDbCircle
 62
253
  6
CONTINUOUS
 10
-61.1300842828
 20
5.0049286777
 40
53.9723683881
100
AcDbArc
 50
359.9756666882
 51
0.3509927817
  0
ARC
  5
5F1
100
AcDbEntity
  8
RACCORDO
100
AcDbCircle
 62
253
  6
CONTINUOUS
 10
-6.9789212718
 20
3.3980567597
 40
0.3000638408
100
AcDbArc
 50
270.0208162411
 51
359.9791837589
  0
ARC
  5
5F2
100
AcDbEntity
  8
ASSI
100
AcDbCircle
 62
253
  6
CONTINUOUS
 10
-6.9789212718
 20
3.3980567597
 40
0.3000638408
100
AcDbArc
 50
270.0208162411
 51
359.9791837589
  0
ARC
  5
5F3
100
AcDbEntity
  8
RACCORDO
100
AcDbCircle
 62
253
  6
CONTINUOUS
 10
-7.1610349575
 20
3.3980567259
 40
0.3000638385
100
AcDbArc
 50
180.0208097933
 51
269.9791901905
  0
ARC
  5
5F4
100
AcDbEntity
  8
ASSI
100
AcDbCircle
 62
253
  6
CONTINUOUS
 10
-7.1610349575
 20
3.3980567259
 40
0.3000638385
100
AcDbArc
 50
180.0208097933
 51
269.9791901905
  0
ARC
  5
5F5
100
AcDbEntity
  8
RACCORDO
100
AcDbCircle
 62
7
  6
CONTINUOUS
 10
-6.9480176159
 20
3.3672361842
 40
0.299988256
100
AcDbArc
 50
269.9912782391
 51
359.9782893814
  0
ARC
  5
5F6
100
AcDbEntity
  8
RACCORDO
100
AcDbCircle
 62
7
  6
CONTINUOUS
 10
-7.1919385757
 20
3.3672361803
 40
0.299988256
100
AcDbArc
 50
180.0217098749
 51
270.0087210165
  0
ARC
  5
5F7
100
AcDbEntity
  8
ASSI
100
AcDbCircle
 62
7
  6
CONTINUOUS
 10
-6.9480176159
 20
3.3672361842
 40
0.299988256
100
AcDbArc
 50
269.9912782391
 51
359.9782893814
  0
ARC
  5
5F8
100
AcDbEntity
  8
ASSI
100
AcDbCircle
 62
7
  6
CONTINUOUS
 10
-7.1919385757
 20
3.3672361803
 40
0.299988256
100
AcDbArc
 50
180.0217098749
 51
270.0087210165
  0
ARC
  5
5F9
100
AcDbEntity
  8
RACCORDO
100
AcDbCircle
 62
253
  6
CONTINUOUS
 10
5.785103687
 20
-6.6058046294
 40
0.3000638606
100
AcDbArc
 50
0.0208199654
 51
89.9791799927
  0
ARC
  5
5FA
100
AcDbEntity
  8
RACCORDO
100
AcDbCircle
 62
253
  6
CONTINUOUS
 10
5.5749401175
 20
-6.6058046294
 40
0.3000638606
100
AcDbArc
 50
90.0208200089
 51
179.979180033
  0
ARC
  5
5FB
100
AcDbEntity
  8
ASSI
100
AcDbCircle
 62
253
  6
CONTINUOUS
 10
5.785103687
 20
-6.6058046294
 40
0.3000638606
100
AcDbArc
 50
0.0208199654
 51
89.9791799927
  0
ARC
  5
5FC
100
AcDbEntity
  8
ASSI
100
AcDbCircle
 62
253
  6
CONTINUOUS
 10
5.5749401175
 20
-6.6058046294
 40
0.3000638606
100
AcDbArc
 50
90.0208200089
 51
179.979180033
  0
ARC
  5
5FD
100
AcDbEntity
  8
RACCORDO
100
AcDbCircle
 62
7
  6
CONTINUOUS
 10
5.8151081423
 20
-6.5755879427
 40
0.2997998761
100
AcDbArc
 50
359.931707257
 51
89.9903350081
  0
ARC
  5
5FE
100
AcDbEntity
  8
RACCORDO
100
AcDbCircle
 62
7
  6
CONTINUOUS
 10
5.5449356619
 20
-6.5755879419
 40
0.2997998758
100
AcDbArc
 50
90.0096649434
 51
180.0682929026
  0
ARC
  5
5FF
100
AcDbEntity
  8
ASSI
100
AcDbCircle
 62
7
  6
CONTINUOUS
 10
5.8151081423
 20
-6.5755879427
 40
0.2997998761
100
AcDbArc
 50
359.931707257
 51
89.9903350081
  0
ARC
  5
600
100
AcDbEntity
  8
ASSI
100
AcDbCircle
 62
7
  6
CONTINUOUS
 10
5.5449356619
 20
-6.5755879419
 40
0.2997998758
100
AcDbArc
 50
90.0096649434
 51
180.0682929026
  0
ARC
  5
601
100
AcDbEntity
  8
RACCORDO
100
AcDbCircle
 62
253
  6
CONTINUOUS
 10
61.2901267496
 20
5.0049286908
 40
53.9723670504
100
AcDbArc
 50
179.6490072234
 51
180.0243333263
  0
ARC
  5
602
100
AcDbEntity
  8
RACCORDO
100
AcDbCircle
 62
253
  6
CONTINUOUS
 10
46.9901267495
 20
5.0049286908
 40
53.9723670503
100
AcDbArc
 50
179.6490072234
 51
180.0243333263
  0
ARC
  5
603
100
AcDbEntity
  8
ASSI
100
AcDbCircle
 62
253
  6
CONTINUOUS
 10
61.2901267496
 20
5.0049286908
 40
53.9723670504
100
AcDbArc
 50
179.6490072234
 51
180.0243333263
  0
ARC
  5
604
100
AcDbEntity
  8
ASSI
100
AcDbCircle
 62
253
  6
CONTINUOUS
 10
46.9901267495
 20
5.0049286908
 40
53.9723670503
100
AcDbArc
 50
179.6490072234
 51
180.0243333263
  0
CIRCLE
  5
605
100
AcDbEntity
  8
0
100
AcDbCircle
 62
7
  6
CONTINUOUS
 10
0.0800219022
 20
4.7891135856
 40
1.1
  0
CIRCLE
  5
606
100
AcDbEntity
  8
0
100
AcDbCircle
 62
7
  6
CONTINUOUS
 10
0.0800219022
 20
4.7891135856
 40
0.9
  0
ARC
  5
607
100
AcDbEntity
  8
RACCORDO
100
AcDbCircle
 62
253
  6
CONTINUOUS
 10
7.3210787282
 20
3.3980567597
 40
0.3000638408
100
AcDbArc
 50
270.0208162411
 51
359.9791837589
  0
ARC
  5
608
100
AcDbEntity
  8
ASSI
100
AcDbCircle
 62
253
  6
CONTINUOUS
 10
7.3210787282
 20
3.3980567597
 40
0.3000638408
100
AcDbArc
 50
270.0208162411
 51
359.9791837589
  0
ARC
  5
609
100
AcDbEntity
  8
RACCORDO
100
AcDbCircle
 62
253
  6
CONTINUOUS
 10
7.1389650425
 20
3.3980567259
 40
0.3000638385
100
AcDbArc
 50
180.0208097933
 51
269.9791901905
  0
ARC
  5
60A
100
AcDbEntity
  8
ASSI
100
AcDbCircle
 62
253
  6
CONTINUOUS
 10
7.1389650425
 20
3.3980567259
 40
0.3000638385
100
AcDbArc
 50
180.0208097933
 51
269.9791901905
  0
ARC
  5
60B
100
AcDbEntity
  8
RACCORDO
100
AcDbCircle
 62
7
  6
CONTINUOUS
 10
7.1080614242
 20
3.3672361803
 40
0.299988256
100
AcDbArc
 50
180.0217098733
 51
270.0087210181
  0
ARC
  5
60C
100
AcDbEntity
  8
RACCORDO
100
AcDbCircle
 62
7
  6
CONTINUOUS
 10
7.3519823841
 20
3.3672361842
 40
0.299988256
100
AcDbArc
 50
269.9912782389
 51
359.9782893815
  0
ARC
  5
60D
100
AcDbEntity
  8
ASSI
100
AcDbCircle
 62
7
  6
CONTINUOUS
 10
7.1080614242
 20
3.3672361803
 40
0.299988256
100
AcDbArc
 50
180.0217098733
 51
270.0087210181
  0
ARC
  5
60E
100
AcDbEntity
  8
ASSI
100
AcDbCircle
 62
7
  6
CONTINUOUS
 10
7.3519823841
 20
3.3672361842
 40
0.299988256
100
AcDbArc
 50
269.9912782389
 51
359.9782893815
  0
SPLINE
  5
60F
100
AcDbEntity
  8
0
100
AcDbSpline
 62
7
  6
CONTINUOUS
 70
0
 71
3
 72
9
 73
5
 74
3
 42
0.0000001
 43
0.0000001
 44
0.0000000001
 12
-0.0094537596
 22
0.4232572779
 32
0.0
 13
-0.4233861002
 23
-0.0063259668
 33
0.0
 40
0.0
 40
0.0
 40
0.0
 40
0.0
 40
0.479537544
 40
1.0
 40
1.0
 40
1.0
 40
1.0
 10
-1.2313062663
 20
-1.1502642699
 30
0.0
 10
-1.2328174105
 20
-1.0826083514
 30
0.0
 10
-1.261439182
 20
-0.9254662751
 30
0.0
 10
-1.4218721286
 20
-0.8735343353
 30
0.0
 10
-1.4953243185
 20
-0.8746318114
 30
0.0
 11
-1.2313062663
 21
-1.1502642699
 31
0.0
 11
-1.2905786429
 21
-0.9560910298
 31
0.0
 11
-1.4953243185
 21
-0.8746318114
 31
0.0
  0
SPLINE
  5
610
100
AcDbEntity
  8
0
100
AcDbSpline
 62
7
  6
CONTINUOUS
 70
0
 71
3
 72
9
 73
5
 74
3
 42
0.0000001
 43
0.0000001
 44
0.0000000001
 12
-0.3133621804
 22
-0.004682097
 32
0.0
 13
-0.0361338581
 23
-0.3113313547
 33
0.0
 40
0.0
 40
0.0
 40
0.0
 40
0.0
 40
0.4988583522
 40
1.0
 40
1.0
 40
1.0
 40
1.0
 10
-1.4953243187
 20
-0.8746317967
 30
0.0
 10
-1.547432099
 20
-0.8754103644
 30
0.0
 10
-1.6561060562
 20
-0.9178349115
 30
0.0
 10
-1.7019232
 20
-1.0230711568
 30
0.0
 10
-1.7079592604
 20
-1.0750781929
 30
0.0
 11
-1.4953243187
 21
-0.8746317967
 31
0.0
 11
-1.6402153965
 21
-0.9333693413
 31
0.0
 11
-1.7079592604
 21
-1.0750781929
 31
0.0
  0
SPLINE
  5
611
100
AcDbEntity
  8
0
100
AcDbSpline
 62
7
  6
CONTINUOUS
 70
0
 71
3
 72
9
 73
5
 74
3
 42
0.0000001
 43
0.0000001
 44
0.0000000001
 12
-0.0321345863
 22
-0.2768734098
 32
0.0
 13
0.0468836161
 23
-0.2747605688
 33
0.0
 40
0.0
 40
0.0
 40
0.0
 40
0.0
 40
0.7295958321
 40
1.0
 40
1.0
 40
1.0
 40
1.0
 10
-1.7079592603
 20
-1.0750781929
 30
0.0
 10
-1.715774347
 20
-1.1424134215
 30
0.0
 10
-1.7160755949
 20
-1.2364061101
 30
0.0
 10
-1.7021775905
 20
-1.3282795151
 30
0.0
 10
-1.6979517488
 20
-1.3530449827
 30
0.0
 11
-1.7079592603
 21
-1.0750781929
 31
0.0
 11
-1.7086555203
 21
-1.2784386532
 31
0.0
 11
-1.6979517488
 21
-1.3530449827
 31
0.0
  0
SPLINE
  5
612
100
AcDbEntity
  8
0
100
AcDbSpline
 62
7
  6
CONTINUOUS
 70
0
 71
3
 72
9
 73
5
 74
3
 42
0.0000001
 43
0.0000001
 44
0.0000000001
 12
-0.128341011
 22
0.8723735981
 32
0.0
 13
0.2997650463
 23
0.8292493193
 33
0.0
 40
0.0
 40
0.0
 40
0.0
 40
0.0
 40
0.7041528059
 40
1.0
 40
1.0
 40
1.0
 40
1.0
 10
-1.9676801799
 20
-1.6946797504
 30
0.0
 10
-1.9978040743
 20
-1.4899183115
 30
0.0
 10
-2.0274562757
 20
-1.1945239856
 30
0.0
 10
-1.9792999585
 20
-0.9006712861
 30
0.0
 10
-1.9497384092
 20
-0.818894258
 30
0.0
 11
-1.9676801799
 21
-1.6946797504
 31
0.0
 11
-2.0009835468
 21
-1.0746772111
 31
0.0
 11
-1.9497384092
 21
-0.818894258
 31
0.0
  0
SPLINE
  5
613
100
AcDbEntity
  8
0
100
AcDbSpline
 62
7
  6
CONTINUOUS
 70
0
 71
3
 72
20
 73
16
 74
14
 42
0.0000001
 43
0.0000001
 44
0.0000000001
 12
0.3602221359
 22
0.9969834579
 32
0.0
 13
0.1356584285
 23
-1.0513528212
 33
0.0
 40
0.0
 40
0.0
 40
0.0
 40
0.0
 40
0.079756987
 40
0.1893481532
 40
0.2529748389
 40
0.3223669702
 40
0.3985017405
 40
0.4831988921
 40
0.5372476303
 40
0.5875584989
 40
0.6787382851
 40
0.7596505358
 40
0.8314106377
 40
0.9440765302
 40
1.0
 40
1.0
 40
1.0
 40
1.0
 10
-1.9497384472
 20
-0.8188942426
 30
0.0
 10
-1.9401617031
 20
-0.7923887771
 30
0.0
 10
-1.9075020814
 20
-0.7331482245
 30
0.0
 10
-1.8478064474
 20
-0.6653825849
 30
0.0
 10
-1.7790448548
 20
-0.613675767
 30
0.0
 10
-1.7134470182
 20
-0.5789105033
 30
0.0
 10
-1.6357924987
 20
-0.5533362441
 30
0.0
 10
-1.5602630782
 20
-0.5424417428
 30
0.0
 10
-1.4933767399
 20
-0.5412528707
 30
0.0
 10
-1.424412193
 20
-0.5466403305
 30
0.0
 10
-1.3471574867
 20
-0.564063503
 30
0.0
 10
-1.2680664548
 20
-0.5989643435
 30
0.0
 10
-1.1888121653
 20
-0.6510199551
 30
0.0
 10
-1.133000296
 20
-0.7130323516
 30
0.0
 10
-1.0937318266
 20
-0.762835799
 30
0.0
 10
-1.0912029966
 20
-0.7824342316
 30
0.0
 11
-1.9497384472
 21
-0.8188942426
 31
0.0
 11
-1.9105150567
 21
-0.7439937874
 31
0.0
 11
-1.8336700194
 21
-0.6568658316
 31
0.0
 11
-1.7797594872
 21
-0.6163321757
 31
0.0
 11
-1.7147787047
 21
-0.5818555786
 31
0.0
 11
-1.6381689906
 21
-0.5564636735
 31
0.0
 11
-1.549371664
 21
-0.5431840934
 31
0.0
 11
-1.4920851384
 21
-0.5421766313
 31
0.0
 11
-1.4389214625
 21
-0.5464229
 31
0.0
 11
-1.3447031867
 21
-0.5679974997
 31
0.0
 11
-1.2661978907
 21
-0.6025496333
 31
0.0
 11
-1.2028866284
 21
-0.6447210413
 31
0.0
 11
-1.119770421
 21
-0.7304886435
 31
0.0
 11
-1.0912029966
 21
-0.7824342316
 31
0.0
  0
SPLINE
  5
614
100
AcDbEntity
  8
0
100
AcDbSpline
 62
7
  6
CONTINUOUS
 70
0
 71
3
 72
8
 73
4
 74
2
 42
0.0000001
 43
0.0000001
 44
0.0000000001
 12
0.0158042388
 22
0.0396344546
 32
0.0
 13
0.0235835294
 23
0.0350454229
 33
0.0
 40
0.0
 40
0.0
 40
0.0
 40
0.0
 40
1.0
 40
1.0
 40
1.0
 40
1.0
 10
-1.0811582894
 20
-0.7824342316
 30
0.0
 10
-1.0758902098
 20
-0.7692227468
 30
0.0
 10
-1.0692119624
 20
-0.7567999685
 30
0.0
 10
-1.061350786
 20
-0.7451181608
 30
0.0
 11
-1.0811582894
 21
-0.7824342316
 31
0.0
 11
-1.061350786
 21
-0.7451181608
 31
0.0
  0
SPLINE
  5
615
100
AcDbEntity
  8
0
100
AcDbSpline
 62
7
  6
CONTINUOUS
 70
0
 71
3
 72
9
 73
5
 74
3
 42
0.0000001
 43
0.0000001
 44
0.0000000001
 12
0.2092440046
 22
0.2567965258
 32
0.0
 13
0.3209543859
 23
0.0874412864
 33
0.0
 40
0.0
 40
0.0
 40
0.0
 40
0.0
 40
0.7111552999
 40
1.0
 40
1.0
 40
1.0
 40
1.0
 10
-1.0492095665
 20
-0.7287681119
 30
0.0
 10
-0.9996079056
 20
-0.6678940418
 30
0.0
 10
-0.8834567497
 20
-0.6133285342
 30
0.0
 10
-0.7786237212
 20
-0.5863162315
 30
0.0
 10
-0.7477217301
 20
-0.5778972475
 30
0.0
 11
-1.0492095665
 21
-0.7287681119
 31
0.0
 11
-0.8401289362
 21
-0.6042197511
 31
0.0
 11
-0.7477217301
 21
-0.5778972475
 31
0.0
  0
SPLINE
  5
616
100
AcDbEntity
  8
0
100
AcDbSpline
 62
7
  6
CONTINUOUS
 70
0
 71
3
 72
9
 73
5
 74
3
 42
0.0000001
 43
0.0000001
 44
0.0000000001
 12
0.4590342986
 22
0.125059974
 32
0.0
 13
0.4591324757
 23
0.1246990799
 33
0.0
 40
0.0
 40
0.0
 40
0.0
 40
0.0
 40
0.8019701206
 40
1.0
 40
1.0
 40
1.0
 40
1.0
 10
-0.7477217301
 20
-0.5778972472
 30
0.0
 10
-0.6250111329
 20
-0.5444657931
 30
0.0
 10
-0.4713728888
 20
-0.5051229645
 30
0.0
 10
-0.3179847273
 20
-0.4648372372
 30
0.0
 10
-0.2876774111
 20
-0.4566058559
 30
0.0
 11
-0.7477217301
 21
-0.5778972472
 31
0.0
 11
-0.3787454127
 21
-0.480755816
 31
0.0
 11
-0.2876774111
 21
-0.4566058559
 31
0.0
  0
SPLINE
  5
617
100
AcDbEntity
  8
0
100
AcDbSpline
 62
7
  6
CONTINUOUS
 70
0
 71
3
 72
9
 73
5
 74
3
 42
0.0000001
 43
0.0000001
 44
0.0000000001
 12
-0.5174692086
 22
-0.1487744753
 32
0.0
 13
-0.5040219036
 23
-0.1893972716
 33
0.0
 40
0.0
 40
0.0
 40
0.0
 40
0.0
 40
0.4412847493
 40
1.0
 40
1.0
 40
1.0
 40
1.0
 10
-0.2876774111
 20
-0.7979091993
 30
0.0
 10
-0.3637945011
 20
-0.8197931683
 30
0.0
 10
-0.5355771375
 20
-0.8714650884
 30
0.0
 10
-0.7093704133
 20
-0.9178339949
 30
0.0
 10
-0.8032386548
 20
-0.9531070429
 30
0.0
 11
-0.2876774111
 21
-0.7979091993
 31
0.0
 11
-0.5157961527
 21
-0.8643645613
 31
0.0
 11
-0.8032386548
 21
-0.9531070429
 31
0.0
  0
SPLINE
  5
618
100
AcDbEntity
  8
0
100
AcDbSpline
 62
7
  6
CONTINUOUS
 70
0
 71
3
 72
9
 73
5
 74
3
 42
0.0000001
 43
0.0000001
 44
0.0000000001
 12
-0.243894777
 22
-0.0916489686
 32
0.0
 13
-0.0
 23
-0.2605161169
 33
0.0
 40
0.0
 40
0.0
 40
0.0
 40
0.0
 40
0.6439294634
 40
1.0
 40
1.0
 40
1.0
 40
1.0
 10
-0.8032386618
 20
-0.9531070242
 30
0.0
 10
-0.8555890061
 20
-0.9727788479
 30
0.0
 10
-0.9341945688
 20
-1.0311968798
 30
0.0
 10
-0.9529098137
 20
-1.1201083908
 30
0.0
 10
-0.9529098137
 20
-1.1510290953
 30
0.0
 11
-0.8032386618
 21
-0.9531070242
 31
0.0
 11
-0.9319886517
 21
-1.0606570051
 31
0.0
 11
-0.9529098137
 21
-1.1510290953
 31
0.0
  0
SPLINE
  5
619
100
AcDbEntity
  8
RACCORDO
100
AcDbSpline
 62
7
  6
CONTINUOUS
 70
0
 71
3
 72
10
 73
6
 74
4
 42
0.0000001
 43
0.0000001
 44
0.0000000001
 12
-0.1883407282
 22
0.1821744696
 32
0.0
 13
-0.1853866385
 23
0.1851798087
 33
0.0
 40
0.0
 40
0.0
 40
0.0
 40
0.0
 40
0.2861514979
 40
0.6199988295
 40
1.0
 40
1.0
 40
1.0
 40
1.0
 10
11.095617045
 20
-7.5344316957
 30
0.0
 10
11.0776523845
 20
-7.5170551966
 30
0.0
 10
11.0388687855
 20
-7.4792610089
 30
0.0
 10
10.976638868
 20
-7.4179719337
 30
0.0
 10
10.9324256474
 20
-7.3740089795
 30
0.0
 10
10.9089432675
 20
-7.3505527982
 30
0.0
 11
11.095617045
 21
-7.5344316957
 31
0.0
 11
11.0418952077
 21
-7.4821248134
 31
0.0
 11
10.9795568417
 21
-7.4207543268
 31
0.0
 11
10.9089432675
 21
-7.3505527982
 31
0.0
  0
SPLINE
  5
61A
100
AcDbEntity
  8
RACCORDO
100
AcDbSpline
 62
7
  6
CONTINUOUS
 70
0
 71
3
 72
10
 73
6
 74
4
 42
0.0000001
 43
0.0000001
 44
0.0000000001
 12
0.1932351421
 22
0.1319011105
 32
0.0
 13
0.0048001619
 23
0.233911696
 33
0.0
 40
0.0
 40
0.0
 40
0.0
 40
0.0
 40
0.3395046921
 40
0.6724952268
 40
1.0
 40
1.0
 40
1.0
 40
1.0
 10
11.095617045
 20
-7.5344316957
 30
0.0
 10
11.1174851241
 20
-7.5195046804
 30
0.0
 10
11.1570678141
 20
-7.4838580621
 30
0.0
 10
11.1978660012
 20
-7.4159675405
 30
0.0
 10
11.2083735508
 20
-7.3642360655
 30
0.0
 10
11.2088975761
 20
-7.3387003332
 30
0.0
 11
11.095617045
 21
-7.5344316957
 31
0.0
 11
11.154355596
 21
-7.4809616978
 31
0.0
 11
11.1939113922
 21
-7.4138438515
 31
0.0
 11
11.2088975761
 21
-7.3387003332
 31
0.0
  0
SPLINE
  5
61B
100
AcDbEntity
  8
RACCORDO
100
AcDbSpline
 62
7
  6
CONTINUOUS
 70
0
 71
3
 72
10
 73
6
 74
4
 42
0.0000001
 43
0.0000001
 44
0.0000000001
 12
0.2111534819
 22
0.0378729015
 32
0.0
 13
0.1518156339
 23
0.1515657049
 33
0.0
 40
0.0
 40
0.0
 40
0.0
 40
0.0
 40
0.3420454831
 40
0.6747450136
 40
1.0
 40
1.0
 40
1.0
 40
1.0
 10
10.9089432662
 20
-7.6341426454
 30
0.0
 10
10.9330179644
 20
-7.6298245604
 30
0.0
 10
10.979693435
 20
-7.6158117286
 30
0.0
 10
11.0426773174
 20
-7.5810751799
 30
0.0
 10
11.0791574477
 20
-7.5508641961
 30
0.0
 10
11.095617045
 20
-7.5344316957
 30
0.0
 11
10.9089432662
 21
-7.6341426454
 31
0.0
 11
10.9792664574
 21
-7.6131955367
 31
0.0
 11
11.0418778824
 21
-7.5789357531
 31
0.0
 11
11.095617045
 21
-7.5344316957
 31
0.0
  0
SPLINE
  5
61C
100
AcDbEntity
  8
RACCORDO
100
AcDbSpline
 62
7
  6
CONTINUOUS
 70
0
 71
3
 72
11
 73
7
 74
5
 42
0.0000001
 43
0.0000001
 44
0.0000000001
 12
-0.1934720276
 22
0.1323336071
 32
0.0
 13
-0.004777495
 23
0.2343518393
 33
0.0
 40
0.0
 40
0.0
 40
0.0
 40
0.0
 40
0.2553623096
 40
0.5075354551
 40
0.7552605149
 40
1.0
 40
1.0
 40
1.0
 40
1.0
 10
-10.9355663036
 20
-7.5344383375
 30
0.0
 10
-10.9520347915
 20
-7.5231739989
 30
0.0
 10
-10.9826177517
 20
-7.4974081744
 30
0.0
 10
-11.0188076957
 20
-7.4501626895
 30
0.0
 10
-11.0424530733
 20
-7.3963632262
 30
0.0
 10
-11.0484640244
 20
-7.357818716
 30
0.0
 10
-11.0488537716
 20
-7.3387003332
 30
0.0
 11
-10.9355663036
 21
-7.5344383375
 31
0.0
 11
-10.9812243589
 21
-7.4957316231
 31
0.0
 11
-11.0169647694
 21
-7.4486512839
 31
0.0
 11
-11.0401118907
 21
-7.3953974204
 31
0.0
 11
-11.0488537716
 21
-7.3387003332
 31
0.0
  0
SPLINE
  5
61D
100
AcDbEntity
  8
RACCORDO
100
AcDbSpline
 62
7
  6
CONTINUOUS
 70
0
 71
3
 72
10
 73
6
 74
4
 42
0.0000001
 43
0.0000001
 44
0.0000000001
 12
0.1883472662
 22
0.1821697226
 32
0.0
 13
0.1853876284
 23
0.1851807974
 33
0.0
 40
0.0
 40
0.0
 40
0.0
 40
0.0
 40
0.2877120613
 40
0.6240039224
 40
1.0
 40
1.0
 40
1.0
 40
1.0
 10
-10.935575159
 20
-7.5344317312
 30
0.0
 10
-10.9175118989
 20
-7.5169609225
 30
0.0
 10
-10.8784776857
 20
-7.478922244
 30
0.0
 10
-10.8162503264
 20
-7.4176299001
 30
0.0
 10
-10.7721344701
 20
-7.3737618826
 30
0.0
 10
-10.7488994631
 20
-7.3505527982
 30
0.0
 11
-10.935575159
 21
-7.5344317312
 31
0.0
 11
-10.8815599565
 21
-7.4818394065
 31
0.0
 11
-10.8187673662
 21
-7.4200166053
 31
0.0
 11
-10.7488994631
 21
-7.3505527982
 31
0.0
  0
SPLINE
  5
61E
100
AcDbEntity
  8
RACCORDO
100
AcDbSpline
 62
7
  6
CONTINUOUS
 70
0
 71
3
 72
10
 73
6
 74
4
 42
0.0000001
 43
0.0000001
 44
0.0000000001
 12
-0.2113510983
 22
0.0367634485
 32
0.0
 13
-0.1528975824
 23
0.1504764673
 33
0.0
 40
0.0
 40
0.0
 40
0.0
 40
0.0
 40
0.3410974996
 40
0.6751553688
 40
1.0
 40
1.0
 40
1.0
 40
1.0
 10
-10.7488994617
 20
-7.6341426454
 30
0.0
 10
-10.7729299055
 20
-7.6299626719
 30
0.0
 10
-10.8195866549
 20
-7.6157569298
 30
0.0
 10
-10.8826657782
 20
-7.5811728806
 30
0.0
 10
-10.9190191727
 20
-7.5507255554
 30
0.0
 10
-10.935575159
 20
-7.5344317312
 30
0.0
 11
-10.7488994617
 21
-7.6341426454
 31
0.0
 11
-10.8190346736
 21
-7.6132749264
 31
0.0
 11
-10.881907865
 21
-7.5788853705
 31
0.0
 11
-10.935575159
 21
-7.5344317312
 31
0.0
  0
SPLINE
  5
61F
100
AcDbEntity
  8
RACCORDO
100
AcDbSpline
 62
253
  6
CONTINUOUS
 70
0
 71
3
 72
12
 73
8
 74
6
 42
0.0000001
 43
0.0000001
 44
0.0000000001
 12
-0.0070145166
 22
0.4019838217
 32
0.0
 13
-0.4020297068
 23
0.0035087299
 33
0.0
 40
0.0
 40
0.0
 40
0.0
 40
0.0
 40
0.1664007688
 40
0.3475548035
 40
0.549388854
 40
0.7695487352
 40
1.0
 40
1.0
 40
1.0
 40
1.0
 10
-6.6689229443
 20
5.8305349419
 30
0.0
 10
-6.6693120179
 20
5.8528317475
 30
0.0
 10
-6.6810923505
 20
5.899656934
 30
0.0
 10
-6.7267377014
 20
5.9593648296
 30
0.0
 10
-6.794329972
 20
6.0056737128
 30
0.0
 10
-6.8774427083
 20
6.0353004014
 30
0.0
 10
-6.9379945013
 20
6.0423974458
 30
0.0
 10
-6.9688772528
 20
6.0426669762
 30
0.0
 11
-6.6689229443
 21
5.8305349419
 31
0.0
 11
-6.6845111086
 21
5.8955941412
 31
0.0
 11
-6.7275028782
 21
5.9543837593
 31
0.0
 11
-6.7937552513
 21
6.0012383977
 31
0.0
 11
-6.8768836639
 21
6.0316428002
 31
0.0
 11
-6.9688772528
 21
6.0426669762
 31
0.0
  0
SPLINE
  5
620
100
AcDbEntity
  8
RACCORDO
100
AcDbSpline
 62
253
  6
CONTINUOUS
 70
0
 71
3
 72
12
 73
8
 74
6
 42
0.0000001
 43
0.0000001
 44
0.0000000001
 12
-0.0070145118
 22
0.401983857
 32
0.0
 13
-0.402029743
 23
0.0035086199
 33
0.0
 40
0.0
 40
0.0
 40
0.0
 40
0.0
 40
0.1663980738
 40
0.3475504099
 40
0.549384185
 40
0.7695456059
 40
1.0
 40
1.0
 40
1.0
 40
1.0
 10
-6.6812655391
 20
5.1234281607
 30
0.0
 10
-6.6816546061
 20
5.1457246072
 30
0.0
 10
-6.6934345877
 20
5.1925492021
 30
0.0
 10
-6.7390790964
 20
5.252256941
 30
0.0
 10
-6.8066710401
 20
5.2985662399
 30
0.0
 10
-6.8897842395
 20
5.328193475
 30
0.0
 10
-6.950336674
 20
5.3352906692
 30
0.0
 10
-6.9812198476
 20
5.3355601948
 30
0.0
 11
-6.6812655391
 21
5.1234281607
 31
0.0
 11
-6.6968532236
 21
5.1884863668
 31
0.0
 11
-6.7398441696
 21
5.2472757492
 31
0.0
 11
-6.8060961463
 21
5.2941307686
 31
0.0
 11
-6.8892250161
 21
5.3245357455
 31
0.0
 11
-6.9812198476
 21
5.3355601948
 31
0.0
  0
SPLINE
  5
621
100
AcDbEntity
  8
RACCORDO
100
AcDbSpline
 62
253
  6
CONTINUOUS
 70
0
 71
3
 72
12
 73
8
 74
6
 42
0.0000001
 43
0.0000001
 44
0.0000000001
 12
0.0070145165
 22
0.4019838218
 32
0.0
 13
0.4020297069
 23
0.003508728
 33
0.0
 40
0.0
 40
0.0
 40
0.0
 40
0.0
 40
0.1664007686
 40
0.3475548033
 40
0.549388854
 40
0.7695487354
 40
1.0
 40
1.0
 40
1.0
 40
1.0
 10
-7.4586906565
 20
5.1234281607
 30
0.0
 10
-7.4583015828
 20
5.1457249663
 30
0.0
 10
-7.4465212503
 20
5.1925501528
 30
0.0
 10
-7.4008758993
 20
5.2522580484
 30
0.0
 10
-7.3332836288
 20
5.2985669316
 30
0.0
 10
-7.2501708925
 20
5.3281936206
 30
0.0
 10
-7.1896190994
 20
5.3352906648
 30
0.0
 10
-7.1587363479
 20
5.335560195
 30
0.0
 11
-7.4586906565
 21
5.1234281607
 31
0.0
 11
-7.4431024922
 21
5.18848736
 31
0.0
 11
-7.4001107226
 21
5.2472769781
 31
0.0
 11
-7.3338583494
 21
5.2941316166
 31
0.0
 11
-7.2507299369
 21
5.3245360192
 31
0.0
 11
-7.1587363479
 21
5.335560195
 31
0.0
  0
SPLINE
  5
622
100
AcDbEntity
  8
RACCORDO
100
AcDbSpline
 62
253
  6
CONTINUOUS
 70
0
 71
3
 72
12
 73
8
 74
6
 42
0.0000001
 43
0.0000001
 44
0.0000000001
 12
0.0070145164
 22
0.4019837961
 32
0.0
 13
0.4020296812
 23
0.0035087308
 33
0.0
 40
0.0
 40
0.0
 40
0.0
 40
0.0
 40
0.1664062852
 40
0.3475634824
 40
0.549397719
 40
0.769554416
 40
1.0
 40
1.0
 40
1.0
 40
1.0
 10
-7.4710332513
 20
5.8305349419
 30
0.0
 10
-7.4706441647
 20
5.8528324853
 30
0.0
 10
-7.4588631395
 20
5.899658847
 30
0.0
 10
-7.4132161659
 20
5.9593670278
 30
0.0
 10
-7.3456233403
 20
6.0056750698
 30
0.0
 10
-7.2625115172
 20
6.0353007079
 30
0.0
 10
-7.2019609309
 20
6.0423974515
 30
0.0
 10
-7.1710789427
 20
6.0426669753
 30
0.0
 11
-7.4710332513
 21
5.8305349419
 31
0.0
 11
-7.4554441195
 21
5.8955961856
 31
0.0
 11
-7.4124507721
 21
5.9543862195
 31
0.0
 11
-7.3461977437
 21
6.0012400518
 31
0.0
 11
-7.263070289
 21
6.0316433296
 31
0.0
 11
-7.1710789427
 21
6.0426669753
 31
0.0
  0
SPLINE
  5
623
100
AcDbEntity
  8
RACCORDO
100
AcDbSpline
 62
253
  6
CONTINUOUS
 70
0
 71
3
 72
12
 73
8
 74
6
 42
0.0000001
 43
0.0000001
 44
0.0000000001
 12
0.0070145165
 22
0.4019838218
 32
0.0
 13
0.4020297069
 23
0.003508728
 33
0.0
 40
0.0
 40
0.0
 40
0.0
 40
0.0
 40
0.1664007686
 40
0.3475548033
 40
0.549388854
 40
0.7695487354
 40
1.0
 40
1.0
 40
1.0
 40
1.0
 10
6.8413093435
 20
5.1234281607
 30
0.0
 10
6.8416984172
 20
5.1457249663
 30
0.0
 10
6.8534787497
 20
5.1925501528
 30
0.0
 10
6.8991241007
 20
5.2522580484
 30
0.0
 10
6.9667163712
 20
5.2985669316
 30
0.0
 10
7.0498291075
 20
5.3281936206
 30
0.0
 10
7.1103809006
 20
5.3352906648
 30
0.0
 10
7.1412636521
 20
5.335560195
 30
0.0
 11
6.8413093435
 21
5.1234281607
 31
0.0
 11
6.8568975078
 21
5.18848736
 31
0.0
 11
6.8998892774
 21
5.2472769781
 31
0.0
 11
6.9661416506
 21
5.2941316166
 31
0.0
 11
7.0492700631
 21
5.3245360192
 31
0.0
 11
7.1412636521
 21
5.335560195
 31
0.0
  0
SPLINE
  5
624
100
AcDbEntity
  8
RACCORDO
100
AcDbSpline
 62
253
  6
CONTINUOUS
 70
0
 71
3
 72
12
 73
8
 74
6
 42
0.0000001
 43
0.0000001
 44
0.0000000001
 12
0.0070145164
 22
0.4019837961
 32
0.0
 13
0.4020296812
 23
0.0035087308
 33
0.0
 40
0.0
 40
0.0
 40
0.0
 40
0.0
 40
0.1664062852
 40
0.3475634824
 40
0.549397719
 40
0.769554416
 40
1.0
 40
1.0
 40
1.0
 40
1.0
 10
6.8289667487
 20
5.8305349419
 30
0.0
 10
6.8293558353
 20
5.8528324853
 30
0.0
 10
6.8411368605
 20
5.899658847
 30
0.0
 10
6.8867838341
 20
5.9593670278
 30
0.0
 10
6.9543766597
 20
6.0056750698
 30
0.0
 10
7.0374884828
 20
6.0353007079
 30
0.0
 10
7.0980390691
 20
6.0423974515
 30
0.0
 10
7.1289210573
 20
6.0426669753
 30
0.0
 11
6.8289667487
 21
5.8305349419
 31
0.0
 11
6.8445558805
 21
5.8955961856
 31
0.0
 11
6.8875492279
 21
5.9543862195
 31
0.0
 11
6.9538022563
 21
6.0012400518
 31
0.0
 11
7.036929711
 21
6.0316433296
 31
0.0
 11
7.1289210573
 21
6.0426669753
 31
0.0
  0
SPLINE
  5
625
100
AcDbEntity
  8
RACCORDO
100
AcDbSpline
 62
253
  6
CONTINUOUS
 70
0
 71
3
 72
9
 73
5
 74
3
 42
0.0000001
 43
0.0000001
 44
0.0000000001
 12
0.0053518739
 22
-1.6514713674
 32
0.0
 13
0.0076939806
 23
-1.6514621166
 33
0.0
 40
0.0
 40
0.0
 40
0.0
 40
0.0
 40
0.5000101671
 40
1.0
 40
1.0
 40
1.0
 40
1.0
 10
-4.3498768652
 20
5.6150035973
 30
0.0
 10
-4.3489848681
 20
5.3397527725
 30
0.0
 10
-4.3470057408
 20
4.7892629319
 30
0.0
 10
-4.344636264
 20
4.238774633
 30
0.0
 10
-4.34335396
 20
3.9635365438
 30
0.0
 11
-4.3498768652
 21
5.6150035973
 31
0.0
 11
-4.3469081092
 21
4.7892521236
 31
0.0
 11
-4.34335396
 21
3.9635365438
 31
0.0
  0
SPLINE
  5
626
100
AcDbEntity
  8
RACCORDO
100
AcDbSpline
 62
253
  6
CONTINUOUS
 70
0
 71
3
 72
12
 73
8
 74
6
 42
0.0000001
 43
0.0000001
 44
0.0000000001
 12
-0.0070145166
 22
0.4019838217
 32
0.0
 13
-0.4020297068
 23
0.0035087299
 33
0.0
 40
0.0
 40
0.0
 40
0.0
 40
0.0
 40
0.1664007688
 40
0.3475548035
 40
0.549388854
 40
0.7695487352
 40
1.0
 40
1.0
 40
1.0
 40
1.0
 10
7.6310770557
 20
5.8305349419
 30
0.0
 10
7.6306879821
 20
5.8528317475
 30
0.0
 10
7.6189076495
 20
5.899656934
 30
0.0
 10
7.5732622986
 20
5.9593648296
 30
0.0
 10
7.505670028
 20
6.0056737128
 30
0.0
 10
7.4225572917
 20
6.0353004014
 30
0.0
 10
7.3620054987
 20
6.0423974458
 30
0.0
 10
7.3311227472
 20
6.0426669762
 30
0.0
 11
7.6310770557
 21
5.8305349419
 31
0.0
 11
7.6154888914
 21
5.8955941412
 31
0.0
 11
7.5724971218
 21
5.9543837593
 31
0.0
 11
7.5062447487
 21
6.0012383977
 31
0.0
 11
7.4231163361
 21
6.0316428002
 31
0.0
 11
7.3311227472
 21
6.0426669762
 31
0.0
  0
SPLINE
  5
627
100
AcDbEntity
  8
RACCORDO
100
AcDbSpline
 62
253
  6
CONTINUOUS
 70
0
 71
3
 72
9
 73
5
 74
3
 42
0.0000001
 43
0.0000001
 44
0.0000000001
 12
0.0076939806
 22
1.6514621166
 32
0.0
 13
0.0053518739
 23
1.6514713674
 33
0.0
 40
0.0
 40
0.0
 40
0.0
 40
0.0
 40
0.4999889708
 40
1.0
 40
1.0
 40
1.0
 40
1.0
 10
4.5033977644
 20
3.9635365438
 30
0.0
 10
4.5046800662
 20
4.2387741584
 30
0.0
 10
4.5070495434
 20
4.7892624573
 30
0.0
 10
4.509028671
 20
5.3397522979
 30
0.0
 10
4.5099206697
 20
5.6150035973
 30
0.0
 11
4.5033977644
 21
3.9635365438
 31
0.0
 11
4.506951908
 21
4.7892506998
 31
0.0
 11
4.5099206697
 21
5.6150035973
 31
0.0
  0
SPLINE
  5
628
100
AcDbEntity
  8
RACCORDO
100
AcDbSpline
 62
253
  6
CONTINUOUS
 70
0
 71
3
 72
12
 73
8
 74
6
 42
0.0000001
 43
0.0000001
 44
0.0000000001
 12
-0.0070145118
 22
0.401983857
 32
0.0
 13
-0.402029743
 23
0.0035086199
 33
0.0
 40
0.0
 40
0.0
 40
0.0
 40
0.0
 40
0.1663980738
 40
0.3475504099
 40
0.549384185
 40
0.7695456059
 40
1.0
 40
1.0
 40
1.0
 40
1.0
 10
7.6187344609
 20
5.1234281607
 30
0.0
 10
7.6183453939
 20
5.1457246072
 30
0.0
 10
7.6065654123
 20
5.1925492021
 30
0.0
 10
7.5609209036
 20
5.252256941
 30
0.0
 10
7.4933289599
 20
5.2985662399
 30
0.0
 10
7.4102157605
 20
5.328193475
 30
0.0
 10
7.349663326
 20
5.3352906692
 30
0.0
 10
7.3187801524
 20
5.3355601948
 30
0.0
 11
7.6187344609
 21
5.1234281607
 31
0.0
 11
7.6031467764
 21
5.1884863668
 31
0.0
 11
7.5601558304
 21
5.2472757492
 31
0.0
 11
7.4939038537
 21
5.2941307686
 31
0.0
 11
7.4107749839
 21
5.3245357455
 31
0.0
 11
7.3187801524
 21
5.3355601948
 31
0.0
  0
SPLINE
  5
629
100
AcDbEntity
  8
RACCORDO
100
AcDbSpline
 62
253
  6
CONTINUOUS
 70
0
 71
3
 72
13
 73
9
 74
7
 42
0.0000001
 43
0.0000001
 44
0.0000000001
 12
0.1860199012
 22
0.4640617589
 32
0.0
 13
0.0000037631
 23
0.4999567178
 33
0.0
 40
0.0
 40
0.0
 40
0.0
 40
0.0
 40
0.0378218875
 40
0.1397846932
 40
0.2991078666
 40
0.5051686897
 40
0.7442254983
 40
1.0
 40
1.0
 40
1.0
 40
1.0
 10
7.1388560597
 20
3.0979934345
 30
0.0
 10
7.1412012676
 20
3.1038439984
 30
0.0
 10
7.1377794773
 20
3.1281268127
 30
0.0
 10
7.1420769554
 20
3.1770823739
 30
0.0
 10
7.140830721
 20
3.2554286486
 30
0.0
 10
7.1420875478
 20
3.3559744246
 30
0.0
 10
7.1421503698
 20
3.4728427275
 30
0.0
 10
7.1422858253
 20
3.5552918887
 30
0.0
 10
7.1422861461
 20
3.5979172821
 30
0.0
 11
7.1388560597
 21
3.0979934345
 31
0.0
 11
7.1397471228
 21
3.1168817348
 31
0.0
 11
7.1405750381
 21
3.167852001
 31
0.0
 11
7.1412850611
 21
3.2475035273
 31
0.0
 11
7.1418291363
 21
3.3505235834
 31
0.0
 11
7.1421701342
 21
3.4700411543
 31
0.0
 11
7.1422861461
 21
3.5979172821
 31
0.0
  0
SPLINE
  5
62A
100
AcDbEntity
  8
RACCORDO
100
AcDbSpline
 62
253
  6
CONTINUOUS
 70
0
 71
3
 72
13
 73
9
 74
7
 42
0.0000001
 43
0.0000001
 44
0.0000000001
 12
0.0000037631
 22
-0.4999567178
 32
0.0
 13
0.1860199013
 23
-0.4640617589
 33
0.0
 40
0.0
 40
0.0
 40
0.0
 40
0.0
 40
0.2557745015
 40
0.4948313101
 40
0.7008921333
 40
0.8602153068
 40
0.9621781125
 40
1.0
 40
1.0
 40
1.0
 40
1.0
 10
7.3177576584
 20
3.5979172821
 30
0.0
 10
7.3177579792
 20
3.5552918887
 30
0.0
 10
7.3178934346
 20
3.4728427276
 30
0.0
 10
7.3179562566
 20
3.3559744246
 30
0.0
 10
7.3192130834
 20
3.2554286487
 30
0.0
 10
7.3179668491
 20
3.1770823739
 30
0.0
 10
7.3222643272
 20
3.1281268127
 30
0.0
 10
7.3188425368
 20
3.1038439984
 30
0.0
 10
7.3211877448
 20
3.0979934345
 30
0.0
 11
7.3177576584
 21
3.5979172821
 31
0.0
 11
7.3178736703
 21
3.4700411545
 31
0.0
 11
7.3182146682
 21
3.3505235835
 31
0.0
 11
7.3187587434
 21
3.2475035273
 31
0.0
 11
7.3194687664
 21
3.167852001
 31
0.0
 11
7.3202966816
 21
3.1168817348
 31
0.0
 11
7.3211877448
 21
3.0979934345
 31
0.0
  0
SPLINE
  5
62B
100
AcDbEntity
  8
RACCORDO
100
AcDbSpline
 62
253
  6
CONTINUOUS
 70
0
 71
3
 72
13
 73
9
 74
7
 42
0.0000001
 43
0.0000001
 44
0.0000000001
 12
0.0000037631
 22
-0.4999567178
 32
0.0
 13
0.1860199013
 23
-0.4640617589
 33
0.0
 40
0.0
 40
0.0
 40
0.0
 40
0.0
 40
0.2557745015
 40
0.4948313101
 40
0.7008921333
 40
0.8602153068
 40
0.9621781125
 40
1.0
 40
1.0
 40
1.0
 40
1.0
 10
-6.9822423416
 20
3.5979172821
 30
0.0
 10
-6.9822420208
 20
3.5552918887
 30
0.0
 10
-6.9821065654
 20
3.4728427276
 30
0.0
 10
-6.9820437434
 20
3.3559744246
 30
0.0
 10
-6.9807869166
 20
3.2554286487
 30
0.0
 10
-6.9820331509
 20
3.1770823739
 30
0.0
 10
-6.9777356728
 20
3.1281268127
 30
0.0
 10
-6.9811574632
 20
3.1038439984
 30
0.0
 10
-6.9788122552
 20
3.0979934345
 30
0.0
 11
-6.9822423416
 21
3.5979172821
 31
0.0
 11
-6.9821263297
 21
3.4700411545
 31
0.0
 11
-6.9817853318
 21
3.3505235835
 31
0.0
 11
-6.9812412566
 21
3.2475035273
 31
0.0
 11
-6.9805312336
 21
3.167852001
 31
0.0
 11
-6.9797033184
 21
3.1168817348
 31
0.0
 11
-6.9788122552
 21
3.0979934345
 31
0.0
  0
SPLINE
  5
62C
100
AcDbEntity
  8
RACCORDO
100
AcDbSpline
 62
253
  6
CONTINUOUS
 70
0
 71
3
 72
13
 73
9
 74
7
 42
0.0000001
 43
0.0000001
 44
0.0000000001
 12
0.1860199012
 22
0.4640617589
 32
0.0
 13
0.0000037631
 23
0.4999567178
 33
0.0
 40
0.0
 40
0.0
 40
0.0
 40
0.0
 40
0.0378218875
 40
0.1397846932
 40
0.2991078666
 40
0.5051686897
 40
0.7442254983
 40
1.0
 40
1.0
 40
1.0
 40
1.0
 10
-7.1611439403
 20
3.0979934345
 30
0.0
 10
-7.1587987324
 20
3.1038439984
 30
0.0
 10
-7.1622205227
 20
3.1281268127
 30
0.0
 10
-7.1579230446
 20
3.1770823739
 30
0.0
 10
-7.159169279
 20
3.2554286486
 30
0.0
 10
-7.1579124522
 20
3.3559744246
 30
0.0
 10
-7.1578496302
 20
3.4728427275
 30
0.0
 10
-7.1577141747
 20
3.5552918887
 30
0.0
 10
-7.1577138539
 20
3.5979172821
 30
0.0
 11
-7.1611439403
 21
3.0979934345
 31
0.0
 11
-7.1602528772
 21
3.1168817348
 31
0.0
 11
-7.1594249619
 21
3.167852001
 31
0.0
 11
-7.1587149389
 21
3.2475035273
 31
0.0
 11
-7.1581708637
 21
3.3505235834
 31
0.0
 11
-7.1578298658
 21
3.4700411543
 31
0.0
 11
-7.1577138539
 21
3.5979172821
 31
0.0
  0
SPLINE
  5
62D
100
AcDbEntity
  8
RACCORDO
100
AcDbSpline
 62
253
  6
CONTINUOUS
 70
0
 71
3
 72
9
 73
5
 74
3
 42
0.0000001
 43
0.0000001
 44
0.0000000001
 12
0.0053452796
 22
-1.6468770511
 32
0.0
 13
0.0076765739
 23
-1.6468678343
 33
0.0
 40
0.0
 40
0.0
 40
0.0
 40
0.0
 40
0.500013719
 40
1.0
 40
1.0
 40
1.0
 40
1.0
 10
-4.1619251368
 20
5.612706085
 30
0.0
 10
-4.1610342324
 20
5.3382190453
 30
0.0
 10
-4.1590581522
 20
4.7892606418
 30
0.0
 10
-4.1566936156
 20
4.2403037741
 30
0.0
 10
-4.1554142218
 20
3.9658333328
 30
0.0
 11
-4.1619251368
 21
5.612706085
 31
0.0
 11
-4.1589609786
 21
4.7892459635
 31
0.0
 11
-4.1554142218
 21
3.9658333328
 31
0.0
  0
SPLINE
  5
62E
100
AcDbEntity
  8
RACCORDO
100
AcDbSpline
 62
253
  6
CONTINUOUS
 70
0
 71
3
 72
9
 73
5
 74
3
 42
0.0000001
 43
0.0000001
 44
0.0000000001
 12
0.0076765739
 22
1.6468678343
 32
0.0
 13
0.0053452796
 23
1.6468770511
 33
0.0
 40
0.0
 40
0.0
 40
0.0
 40
0.0
 40
0.4999867127
 40
1.0
 40
1.0
 40
1.0
 40
1.0
 10
4.3154580262
 20
3.9658333328
 30
0.0
 10
4.3167374212
 20
4.2403040111
 30
0.0
 10
4.3191019576
 20
4.7892608788
 30
0.0
 10
4.3210780377
 20
5.3382192823
 30
0.0
 10
4.3219689413
 20
5.612706085
 30
0.0
 11
4.3154580262
 21
3.9658333328
 31
0.0
 11
4.3190047858
 21
4.7892466744
 31
0.0
 11
4.3219689413
 21
5.612706085
 31
0.0
  0
SPLINE
  5
62F
100
AcDbEntity
  8
RACCORDO
100
AcDbSpline
 62
253
  6
CONTINUOUS
 70
0
 71
3
 72
11
 73
7
 74
5
 42
0.0000001
 43
0.0000001
 44
0.0000000001
 12
-0.0098781004
 22
0.3534330094
 32
0.0
 13
0.0000006738
 23
0.3535710239
 33
0.0
 40
0.0
 40
0.0
 40
0.0
 40
0.0
 40
0.210108614
 40
0.4581332567
 40
0.7266954159
 40
1.0
 40
1.0
 40
1.0
 40
1.0
 10
7.1289210573
 20
6.0426669762
 30
0.0
 10
7.1282292326
 20
6.0674200828
 30
0.0
 10
7.1270265246
 20
6.1214017939
 30
0.0
 10
7.1257719813
 20
6.2070393365
 30
0.0
 10
7.1250020638
 20
6.300130948
 30
0.0
 10
7.1248310621
 20
6.3639938726
 30
0.0
 10
7.1248311235
 20
6.3962047331
 30
0.0
 11
7.1289210573
 21
6.0426669762
 31
0.0
 11
7.127212678
 21
6.116935648
 31
0.0
 11
7.1258969452
 21
6.2046201039
 31
0.0
 11
7.125094421
 21
6.2995725102
 31
0.0
 11
7.1248311235
 21
6.3962047331
 31
0.0
  0
SPLINE
  5
630
100
AcDbEntity
  8
RACCORDO
100
AcDbSpline
 62
253
  6
CONTINUOUS
 70
0
 71
3
 72
11
 73
7
 74
5
 42
0.0000001
 43
0.0000001
 44
0.0000000001
 12
-0.0098331854
 22
0.5656207508
 32
0.0
 13
0.0000098444
 23
0.5657062181
 33
0.0
 40
0.0
 40
0.0
 40
0.0
 40
0.0
 40
0.2097951049
 40
0.4583292293
 40
0.7269157337
 40
1.0
 40
1.0
 40
1.0
 40
1.0
 10
6.8289667487
 20
5.8305349419
 30
0.0
 10
6.8282790973
 20
5.8700897635
 30
0.0
 10
6.8270699976
 20
5.9565084098
 30
0.0
 10
6.8258178643
 20
6.0935766635
 30
0.0
 10
6.8250477335
 20
6.2425829512
 30
0.0
 10
6.8248758765
 20
6.344725211
 30
0.0
 10
6.8248767726
 20
6.3962203668
 30
0.0
 11
6.8289667487
 21
5.8305349419
 31
0.0
 11
6.8272601131
 21
5.9492050661
 31
0.0
 11
6.8259417444
 21
6.0897961844
 31
0.0
 11
6.8251396582
 21
6.241735123
 31
0.0
 11
6.8248767726
 21
6.3962203668
 31
0.0
  0
SPLINE
  5
631
100
AcDbEntity
  8
RACCORDO
100
AcDbSpline
 62
253
  6
CONTINUOUS
 70
0
 71
3
 72
11
 73
7
 74
5
 42
0.0000001
 43
0.0000001
 44
0.0000000001
 12
-0.0000003835
 22
0.1414265542
 32
0.0
 13
-0.0024684792
 23
0.1414050099
 33
0.0
 40
0.0
 40
0.0
 40
0.0
 40
0.0
 40
0.2753968051
 40
0.5412973202
 40
0.7858857424
 40
1.0
 40
1.0
 40
1.0
 40
1.0
 10
6.8423318375
 20
4.9820068044
 30
0.0
 10
6.8423318023
 20
4.9949896115
 30
0.0
 10
6.842288885
 20
5.020507571
 30
0.0
 10
6.8420968589
 20
5.05755553
 30
0.0
 10
6.8417854891
 20
5.0917135745
 30
0.0
 10
6.8414855224
 20
5.1133358844
 30
0.0
 10
6.8413093435
 20
5.1234281607
 30
0.0
 11
6.8423318375
 21
4.9820068044
 31
0.0
 11
6.8422650052
 21
5.0209551683
 31
0.0
 11
6.8420659779
 21
5.0585600352
 31
0.0
 11
6.8417431495
 21
5.0931498265
 31
0.0
 11
6.8413093435
 21
5.1234281607
 31
0.0
  0
SPLINE
  5
632
100
AcDbEntity
  8
RACCORDO
100
AcDbSpline
 62
253
  6
CONTINUOUS
 70
0
 71
3
 72
13
 73
9
 74
7
 42
0.0000001
 43
0.0000001
 44
0.0000000001
 12
0.141041107
 22
0.141873385
 32
0.0
 13
0.0000012265
 23
0.2000516215
 33
0.0
 40
0.0
 40
0.0
 40
0.0
 40
0.0
 40
0.0379383612
 40
0.1398218345
 40
0.2991571384
 40
0.5055293226
 40
0.744720332
 40
1.0
 40
1.0
 40
1.0
 40
1.0
 10
6.8389017511
 20
3.3979477431
 30
0.0
 10
6.840685374
 20
3.399741891
 30
0.0
 10
6.8385498849
 20
3.4106265244
 30
0.0
 10
6.8416975965
 20
3.4291589662
 30
0.0
 10
6.8410531128
 20
3.4610698513
 30
0.0
 10
6.8420712707
 20
3.5011110843
 30
0.0
 10
6.8422164463
 20
3.5479456619
 30
0.0
 10
6.8423317332
 20
3.580894245
 30
0.0
 10
6.8423318375
 20
3.5979172821
 30
0.0
 11
6.8389017511
 21
3.3979477431
 31
0.0
 11
6.8397920452
 21
3.4054849754
 31
0.0
 11
6.8406202036
 21
3.4258500976
 31
0.0
 11
6.8413304757
 21
3.4577174691
 31
0.0
 11
6.8418749417
 21
3.4989989688
 31
0.0
 11
6.8422161228
 21
3.5468483017
 31
0.0
 11
6.8423318375
 21
3.5979172821
 31
0.0
  0
SPLINE
  5
633
100
AcDbEntity
  8
RACCORDO
100
AcDbSpline
 62
253
  6
CONTINUOUS
 70
0
 71
3
 72
13
 73
9
 74
7
 42
0.0000001
 43
0.0000001
 44
0.0000000001
 12
0.0000012265
 22
-0.2000516215
 32
0.0
 13
0.1410411064
 23
-0.1418733857
 33
0.0
 40
0.0
 40
0.0
 40
0.0
 40
0.0
 40
0.2552796677
 40
0.4944706773
 40
0.7008428616
 40
0.8601781655
 40
0.9620616388
 40
1.0
 40
1.0
 40
1.0
 40
1.0
 10
7.6177119669
 20
3.5979172821
 30
0.0
 10
7.6177120713
 20
3.580894245
 30
0.0
 10
7.6178273582
 20
3.5479456619
 30
0.0
 10
7.6179725338
 20
3.5011110843
 30
0.0
 10
7.6189906916
 20
3.4610698513
 30
0.0
 10
7.618346208
 20
3.4291589662
 30
0.0
 10
7.6214939195
 20
3.4106265244
 30
0.0
 10
7.6193584305
 20
3.399741891
 30
0.0
 10
7.6211420533
 20
3.3979477431
 30
0.0
 11
7.6177119669
 21
3.5979172821
 31
0.0
 11
7.6178276816
 21
3.5468483018
 31
0.0
 11
7.6181688627
 21
3.4989989688
 31
0.0
 11
7.6187133287
 21
3.4577174691
 31
0.0
 11
7.6194236009
 21
3.4258500976
 31
0.0
 11
7.6202517593
 21
3.4054849754
 31
0.0
 11
7.6211420533
 21
3.3979477431
 31
0.0
  0
SPLINE
  5
634
100
AcDbEntity
  8
RACCORDO
100
AcDbSpline
 62
253
  6
CONTINUOUS
 70
0
 71
3
 72
11
 73
7
 74
5
 42
0.0000001
 43
0.0000001
 44
0.0000000001
 12
-0.0024684792
 22
-0.1414050099
 32
0.0
 13
-0.0000003835
 23
-0.1414265542
 33
0.0
 40
0.0
 40
0.0
 40
0.0
 40
0.0
 40
0.2141142612
 40
0.458702684
 40
0.7246031997
 40
1.0
 40
1.0
 40
1.0
 40
1.0
 10
7.6187344609
 20
5.1234281607
 30
0.0
 10
7.6185582821
 20
5.1133358843
 30
0.0
 10
7.6182583153
 20
5.0917135742
 30
0.0
 10
7.6179469456
 20
5.0575555294
 30
0.0
 10
7.6177549194
 20
5.0205075705
 30
0.0
 10
7.6177120021
 20
4.9949896113
 30
0.0
 10
7.6177119669
 20
4.9820068044
 30
0.0
 11
7.6187344609
 21
5.1234281607
 31
0.0
 11
7.6183006549
 21
5.093149826
 31
0.0
 11
7.6179778265
 21
5.0585600346
 31
0.0
 11
7.6177787992
 21
5.0209551676
 31
0.0
 11
7.6177119669
 21
4.9820068044
 31
0.0
  0
SPLINE
  5
635
100
AcDbEntity
  8
RACCORDO
100
AcDbSpline
 62
253
  6
CONTINUOUS
 70
0
 71
3
 72
11
 73
7
 74
5
 42
0.0000001
 43
0.0000001
 44
0.0000000001
 12
0.0000096882
 22
-0.5657062181
 32
0.0
 13
-0.0098336718
 23
-0.5656207424
 33
0.0
 40
0.0
 40
0.0
 40
0.0
 40
0.0
 40
0.2730824888
 40
0.5416689789
 40
0.7902032012
 40
1.0
 40
1.0
 40
1.0
 40
1.0
 10
7.6351670318
 20
6.3962203668
 30
0.0
 10
7.6351679137
 20
6.3447255462
 30
0.0
 10
7.6349960796
 20
6.2425836243
 30
0.0
 10
7.6342259505
 20
6.0935776558
 30
0.0
 10
7.6329737955
 20
5.9565090673
 30
0.0
 10
7.6317647467
 20
5.8700900822
 30
0.0
 10
7.6310770557
 20
5.8305349419
 30
0.0
 11
7.6351670318
 21
6.3962203668
 31
0.0
 11
7.6349041508
 21
6.2417361285
 31
0.0
 11
7.634102067
 21
6.089797198
 31
0.0
 11
7.632783702
 21
5.9492060242
 31
0.0
 11
7.6310770557
 21
5.8305349419
 31
0.0
  0
SPLINE
  5
636
100
AcDbEntity
  8
RACCORDO
100
AcDbSpline
 62
253
  6
CONTINUOUS
 70
0
 71
3
 72
13
 73
9
 74
7
 42
0.0000001
 43
0.0000001
 44
0.0000000001
 12
0.0000012265
 22
-0.2000516215
 32
0.0
 13
0.1410411064
 23
-0.1418733857
 33
0.0
 40
0.0
 40
0.0
 40
0.0
 40
0.0
 40
0.2552796677
 40
0.4944706773
 40
0.7008428616
 40
0.8601781655
 40
0.9620616388
 40
1.0
 40
1.0
 40
1.0
 40
1.0
 10
-6.6822880331
 20
3.5979172821
 30
0.0
 10
-6.6822879287
 20
3.580894245
 30
0.0
 10
-6.6821726418
 20
3.5479456619
 30
0.0
 10
-6.6820274662
 20
3.5011110843
 30
0.0
 10
-6.6810093084
 20
3.4610698513
 30
0.0
 10
-6.681653792
 20
3.4291589662
 30
0.0
 10
-6.6785060805
 20
3.4106265244
 30
0.0
 10
-6.6806415695
 20
3.399741891
 30
0.0
 10
-6.6788579467
 20
3.3979477431
 30
0.0
 11
-6.6822880331
 21
3.5979172821
 31
0.0
 11
-6.6821723184
 21
3.5468483018
 31
0.0
 11
-6.6818311373
 21
3.4989989688
 31
0.0
 11
-6.6812866713
 21
3.4577174691
 31
0.0
 11
-6.6805763991
 21
3.4258500976
 31
0.0
 11
-6.6797482407
 21
3.4054849754
 31
0.0
 11
-6.6788579467
 21
3.3979477431
 31
0.0
  0
SPLINE
  5
637
100
AcDbEntity
  8
RACCORDO
100
AcDbSpline
 62
253
  6
CONTINUOUS
 70
0
 71
3
 72
11
 73
7
 74
5
 42
0.0000001
 43
0.0000001
 44
0.0000000001
 12
-0.0024684792
 22
-0.1414050099
 32
0.0
 13
-0.0000003835
 23
-0.1414265542
 33
0.0
 40
0.0
 40
0.0
 40
0.0
 40
0.0
 40
0.2141142612
 40
0.458702684
 40
0.7246031997
 40
1.0
 40
1.0
 40
1.0
 40
1.0
 10
-6.6812655391
 20
5.1234281607
 30
0.0
 10
-6.6814417179
 20
5.1133358843
 30
0.0
 10
-6.6817416847
 20
5.0917135742
 30
0.0
 10
-6.6820530544
 20
5.0575555294
 30
0.0
 10
-6.6822450806
 20
5.0205075705
 30
0.0
 10
-6.6822879979
 20
4.9949896113
 30
0.0
 10
-6.6822880331
 20
4.9820068044
 30
0.0
 11
-6.6812655391
 21
5.1234281607
 31
0.0
 11
-6.6816993451
 21
5.093149826
 31
0.0
 11
-6.6820221735
 21
5.0585600346
 31
0.0
 11
-6.6822212008
 21
5.0209551676
 31
0.0
 11
-6.6822880331
 21
4.9820068044
 31
0.0
  0
SPLINE
  5
638
100
AcDbEntity
  8
RACCORDO
100
AcDbSpline
 62
253
  6
CONTINUOUS
 70
0
 71
3
 72
11
 73
7
 74
5
 42
0.0000001
 43
0.0000001
 44
0.0000000001
 12
0.0000096882
 22
-0.5657062181
 32
0.0
 13
-0.0098336718
 23
-0.5656207424
 33
0.0
 40
0.0
 40
0.0
 40
0.0
 40
0.0
 40
0.2730824888
 40
0.5416689789
 40
0.7902032012
 40
1.0
 40
1.0
 40
1.0
 40
1.0
 10
-6.6648329682
 20
6.3962203668
 30
0.0
 10
-6.6648320863
 20
6.3447255462
 30
0.0
 10
-6.6650039204
 20
6.2425836243
 30
0.0
 10
-6.6657740495
 20
6.0935776558
 30
0.0
 10
-6.6670262045
 20
5.9565090673
 30
0.0
 10
-6.6682352533
 20
5.8700900822
 30
0.0
 10
-6.6689229443
 20
5.8305349419
 30
0.0
 11
-6.6648329682
 21
6.3962203668
 31
0.0
 11
-6.6650958492
 21
6.2417361285
 31
0.0
 11
-6.665897933
 21
6.089797198
 31
0.0
 11
-6.667216298
 21
5.9492060242
 31
0.0
 11
-6.6689229443
 21
5.8305349419
 31
0.0
  0
SPLINE
  5
639
100
AcDbEntity
  8
RACCORDO
100
AcDbSpline
 62
253
  6
CONTINUOUS
 70
0
 71
3
 72
11
 73
7
 74
5
 42
0.0000001
 43
0.0000001
 44
0.0000000001
 12
-0.0098331854
 22
0.5656207508
 32
0.0
 13
0.0000098444
 23
0.5657062181
 33
0.0
 40
0.0
 40
0.0
 40
0.0
 40
0.0
 40
0.2097951049
 40
0.4583292293
 40
0.7269157337
 40
1.0
 40
1.0
 40
1.0
 40
1.0
 10
-7.4710332513
 20
5.8305349419
 30
0.0
 10
-7.4717209027
 20
5.8700897635
 30
0.0
 10
-7.4729300024
 20
5.9565084098
 30
0.0
 10
-7.4741821357
 20
6.0935766635
 30
0.0
 10
-7.4749522665
 20
6.2425829512
 30
0.0
 10
-7.4751241235
 20
6.344725211
 30
0.0
 10
-7.4751232274
 20
6.3962203668
 30
0.0
 11
-7.4710332513
 21
5.8305349419
 31
0.0
 11
-7.4727398869
 21
5.9492050661
 31
0.0
 11
-7.4740582556
 21
6.0897961844
 31
0.0
 11
-7.4748603418
 21
6.241735123
 31
0.0
 11
-7.4751232274
 21
6.3962203668
 31
0.0
  0
SPLINE
  5
63A
100
AcDbEntity
  8
RACCORDO
100
AcDbSpline
 62
253
  6
CONTINUOUS
 70
0
 71
3
 72
11
 73
7
 74
5
 42
0.0000001
 43
0.0000001
 44
0.0000000001
 12
-0.0000003835
 22
0.1414265542
 32
0.0
 13
-0.0024684792
 23
0.1414050099
 33
0.0
 40
0.0
 40
0.0
 40
0.0
 40
0.0
 40
0.2753968051
 40
0.5412973202
 40
0.7858857424
 40
1.0
 40
1.0
 40
1.0
 40
1.0
 10
-7.4576681625
 20
4.9820068044
 30
0.0
 10
-7.4576681977
 20
4.9949896115
 30
0.0
 10
-7.457711115
 20
5.020507571
 30
0.0
 10
-7.4579031411
 20
5.05755553
 30
0.0
 10
-7.4582145109
 20
5.0917135745
 30
0.0
 10
-7.4585144776
 20
5.1133358844
 30
0.0
 10
-7.4586906565
 20
5.1234281607
 30
0.0
 11
-7.4576681625
 21
4.9820068044
 31
0.0
 11
-7.4577349948
 21
5.0209551683
 31
0.0
 11
-7.4579340221
 21
5.0585600352
 31
0.0
 11
-7.4582568505
 21
5.0931498265
 31
0.0
 11
-7.4586906565
 21
5.1234281607
 31
0.0
  0
SPLINE
  5
63B
100
AcDbEntity
  8
RACCORDO
100
AcDbSpline
 62
253
  6
CONTINUOUS
 70
0
 71
3
 72
13
 73
9
 74
7
 42
0.0000001
 43
0.0000001
 44
0.0000000001
 12
0.141041107
 22
0.141873385
 32
0.0
 13
0.0000012265
 23
0.2000516215
 33
0.0
 40
0.0
 40
0.0
 40
0.0
 40
0.0
 40
0.0379383612
 40
0.1398218345
 40
0.2991571384
 40
0.5055293226
 40
0.744720332
 40
1.0
 40
1.0
 40
1.0
 40
1.0
 10
-7.4610982489
 20
3.3979477431
 30
0.0
 10
-7.459314626
 20
3.399741891
 30
0.0
 10
-7.4614501151
 20
3.4106265244
 30
0.0
 10
-7.4583024035
 20
3.4291589662
 30
0.0
 10
-7.4589468872
 20
3.4610698513
 30
0.0
 10
-7.4579287293
 20
3.5011110843
 30
0.0
 10
-7.4577835537
 20
3.5479456619
 30
0.0
 10
-7.4576682668
 20
3.580894245
 30
0.0
 10
-7.4576681625
 20
3.5979172821
 30
0.0
 11
-7.4610982489
 21
3.3979477431
 31
0.0
 11
-7.4602079548
 21
3.4054849754
 31
0.0
 11
-7.4593797964
 21
3.4258500976
 31
0.0
 11
-7.4586695243
 21
3.4577174691
 31
0.0
 11
-7.4581250583
 21
3.4989989688
 31
0.0
 11
-7.4577838772
 21
3.5468483017
 31
0.0
 11
-7.4576681625
 21
3.5979172821
 31
0.0
  0
SPLINE
  5
63C
100
AcDbEntity
  8
RACCORDO
100
AcDbSpline
 62
253
  6
CONTINUOUS
 70
0
 71
3
 72
9
 73
5
 74
3
 42
0.0000001
 43
0.0000001
 44
0.0000000001
 12
0.0003603392
 22
-6.1661325534
 32
0.0
 13
0.0019281047
 23
-6.1661322625
 33
0.0
 40
0.0
 40
0.0
 40
0.0
 40
0.0
 40
0.5000355593
 40
1.0
 40
1.0
 40
1.0
 40
1.0
 10
11.2031688235
 20
7.9716077277
 30
0.0
 10
11.2032288843
 20
6.9438458809
 30
0.0
 10
11.2034796304
 20
4.8884683687
 30
0.0
 10
11.2039916568
 20
2.8330909049
 30
0.0
 10
11.2043129848
 20
1.8054752824
 30
0.0
 11
11.2031688235
 21
7.9716077277
 31
0.0
 11
11.2035449776
 21
4.888322205
 31
0.0
 11
11.2043129848
 21
1.8054752824
 31
0.0
  0
LINE
  5
63D
100
AcDbEntity
  8
RACCORDO
100
AcDbLine
 62
253
  6
CONTINUOUS
 10
11.2045530922
 20
1.0729919964
 11
11.2053506734
 21
-0.9955624063
  0
LINE
  5
63E
100
AcDbEntity
  8
RACCORDO
100
AcDbLine
 62
253
  6
CONTINUOUS
 10
11.2072928164
 20
-4.8242682794
 11
11.2080732777
 21
-6.0982850106
  0
LINE
  5
63F
100
AcDbEntity
  8
RACCORDO
100
AcDbLine
 62
253
  6
CONTINUOUS
 10
11.2085471635
 20
-6.8230139323
 11
11.2088975761
 21
-7.338700333
  0
LINE
  5
640
100
AcDbEntity
  8
RACCORDO
100
AcDbLine
 62
253
  6
CONTINUOUS
 10
-11.0480294733
 20
-6.0982850106
 11
-11.0472490119
 21
-4.8242682794
  0
LINE
  5
641
100
AcDbEntity
  8
RACCORDO
100
AcDbLine
 62
253
  6
CONTINUOUS
 10
-11.0488537716
 20
-7.338700333
 11
-11.048503359
 21
-6.8230139323
  0
LINE
  5
642
100
AcDbEntity
  8
RACCORDO
100
AcDbLine
 62
253
  6
CONTINUOUS
 10
-11.045306869
 20
-0.9955624063
 11
-11.0445092877
 21
1.0729919964
  0
SPLINE
  5
643
100
AcDbEntity
  8
RACCORDO
100
AcDbSpline
 62
253
  6
CONTINUOUS
 70
0
 71
3
 72
9
 73
5
 74
3
 42
0.0000001
 43
0.0000001
 44
0.0000000001
 12
0.0019281047
 22
6.1661322625
 32
0.0
 13
0.0003603392
 23
6.1661325534
 33
0.0
 40
0.0
 40
0.0
 40
0.0
 40
0.0
 40
0.4999644622
 40
1.0
 40
1.0
 40
1.0
 40
1.0
 10
-11.0442691803
 20
1.8054752824
 30
0.0
 10
-11.0439478524
 20
2.8330909491
 30
0.0
 10
-11.0434358259
 20
4.8884684128
 30
0.0
 10
-11.0431850798
 20
6.9438459251
 30
0.0
 10
-11.043125019
 20
7.9716077277
 30
0.0
 11
-11.0442691803
 21
1.8054752824
 31
0.0
 11
-11.0435011731
 21
4.8883223376
 31
0.0
 11
-11.043125019
 21
7.9716077277
 31
0.0
  0
SPLINE
  5
644
100
AcDbEntity
  8
RACCORDO
100
AcDbSpline
 62
7
  6
CONTINUOUS
 70
0
 71
3
 72
12
 73
8
 74
6
 42
0.0000001
 43
0.0000001
 44
0.0000000001
 12
0.3000709641
 22
-0.0
 32
0.0
 13
0.2121822176
 23
0.2121822095
 33
0.0
 40
0.0
 40
0.0
 40
0.0
 40
0.0
 40
0.3041016913
 40
0.5820964833
 40
0.8023227261
 40
0.9471197879
 40
1.0
 40
1.0
 40
1.0
 40
1.0
 10
10.9032147571
 20
7.9664628697
 30
0.0
 10
10.9336321197
 20
7.9664628697
 30
0.0
 10
10.9920104056
 20
7.9663315408
 30
0.0
 10
11.071656224
 20
7.9680964999
 30
0.0
 10
11.1375218531
 20
7.9662705718
 30
0.0
 10
11.1762618543
 20
7.9730046114
 30
0.0
 10
11.1994287433
 20
7.9678676476
 30
0.0
 10
11.2031688235
 20
7.9716077277
 30
0.0
 11
10.9032147571
 21
7.9664628697
 31
0.0
 11
10.9944665075
 21
7.9667109788
 31
0.0
 11
11.0778814705
 21
7.9674418927
 31
0.0
 11
11.1439552619
 21
7.9685746764
 31
0.0
 11
11.187380595
 21
7.9700204554
 31
0.0
 11
11.2031688235
 21
7.9716077277
 31
0.0
  0
SPLINE
  5
645
100
AcDbEntity
  8
RACCORDO
100
AcDbSpline
 62
7
  6
CONTINUOUS
 70
0
 71
3
 72
12
 73
8
 74
6
 42
0.0000001
 43
0.0000001
 44
0.0000000001
 12
0.2121822176
 22
-0.2121822095
 32
0.0
 13
0.3000709641
 23
0.0
 33
0.0
 40
0.0
 40
0.0
 40
0.0
 40
0.0
 40
0.0528802121
 40
0.1976772739
 40
0.4179035167
 40
0.6958983087
 40
1.0
 40
1.0
 40
1.0
 40
1.0
 10
-11.043125019
 20
7.9716077277
 30
0.0
 10
-11.0393849388
 20
7.9678676476
 30
0.0
 10
-11.0162180499
 20
7.9730046114
 30
0.0
 10
-10.9774780486
 20
7.9662705718
 30
0.0
 10
-10.9116124195
 20
7.9680964999
 30
0.0
 10
-10.8319666012
 20
7.9663315408
 30
0.0
 10
-10.7735883152
 20
7.9664628697
 30
0.0
 10
-10.7431709526
 20
7.9664628697
 30
0.0
 11
-11.043125019
 21
7.9716077277
 31
0.0
 11
-11.0273367906
 21
7.9700204554
 31
0.0
 11
-10.9839114574
 21
7.9685746764
 31
0.0
 11
-10.9178376661
 21
7.9674418927
 31
0.0
 11
-10.834422703
 21
7.9667109788
 31
0.0
 11
-10.7431709526
 21
7.9664628697
 31
0.0
  0
SPLINE
  5
646
100
AcDbEntity
  8
RACCORDO
100
AcDbSpline
 62
7
  6
CONTINUOUS
 70
0
 71
3
 72
12
 73
8
 74
6
 42
0.0000001
 43
0.0000001
 44
0.0000000001
 12
0.3000740987
 22
-0.0
 32
0.0
 13
0.2121856528
 23
0.2121832073
 33
0.0
 40
0.0
 40
0.0
 40
0.0
 40
0.0
 40
0.3040972291
 40
0.5820915378
 40
0.8023192843
 40
0.9471184771
 40
1.0
 40
1.0
 40
1.0
 40
1.0
 10
10.9073356225
 20
-4.8294133451
 30
0.0
 10
10.9377528564
 20
-4.8294133451
 30
0.0
 10
10.9961312514
 20
-4.829544661
 30
0.0
 10
11.0757775737
 20
-4.8277796976
 30
0.0
 10
11.141644183
 20
-4.8296055862
 30
0.0
 10
11.1803850975
 20
-4.8228714468
 30
0.0
 10
11.2035525829
 20
-4.8280084698
 30
0.0
 10
11.2072928164
 20
-4.8242682794
 30
0.0
 11
10.9073356225
 21
-4.8294133451
 31
0.0
 11
10.9985869871
 21
-4.8291652305
 31
0.0
 11
11.0820026763
 21
-4.8284342946
 31
0.0
 11
11.1480776086
 21
-4.8273014684
 31
0.0
 11
11.1915040336
 21
-4.8258556277
 31
0.0
 11
11.2072928164
 21
-4.8242682794
 31
0.0
  0
SPLINE
  5
647
100
AcDbEntity
  8
RACCORDO
100
AcDbSpline
 62
7
  6
CONTINUOUS
 70
0
 71
3
 72
12
 73
8
 74
6
 42
0.0000001
 43
0.0000001
 44
0.0000000001
 12
0.2121856528
 22
-0.2121832073
 32
0.0
 13
0.3000740987
 23
0.0
 33
0.0
 40
0.0
 40
0.0
 40
0.0
 40
0.0
 40
0.0528815229
 40
0.1976807157
 40
0.4179084622
 40
0.6959027709
 40
1.0
 40
1.0
 40
1.0
 40
1.0
 10
-11.0472490119
 20
-4.8242682794
 30
0.0
 10
-11.0435087785
 20
-4.8280084698
 30
0.0
 10
-11.020341293
 20
-4.8228714468
 30
0.0
 10
-10.9816003786
 20
-4.8296055862
 30
0.0
 10
-10.9157337693
 20
-4.8277796976
 30
0.0
 10
-10.836087447
 20
-4.829544661
 30
0.0
 10
-10.777709052
 20
-4.8294133451
 30
0.0
 10
-10.747291818
 20
-4.8294133451
 30
0.0
 11
-11.0472490119
 21
-4.8242682794
 31
0.0
 11
-11.0314602292
 21
-4.8258556277
 31
0.0
 11
-10.9880338042
 21
-4.8273014684
 31
0.0
 11
-10.9219588718
 21
-4.8284342946
 31
0.0
 11
-10.8385431826
 21
-4.8291652305
 31
0.0
 11
-10.747291818
 21
-4.8294133451
 31
0.0
  0
SPLINE
  5
648
100
AcDbEntity
  8
RACCORDO
100
AcDbSpline
 62
7
  6
CONTINUOUS
 70
0
 71
3
 72
12
 73
8
 74
6
 42
0.0000001
 43
0.0000001
 44
0.0000000001
 12
-0.2121859816
 22
0.212186588
 32
0.0
 13
-0.3000767217
 23
0.0
 33
0.0
 40
0.0
 40
0.0
 40
0.0
 40
0.0
 40
0.0529127559
 40
0.197756379
 40
0.4180080058
 40
0.6959861204
 40
1.0
 40
1.0
 40
1.0
 40
1.0
 10
11.2053506734
 20
-0.9955624063
 30
0.0
 10
11.2016082251
 20
-0.9918199473
 30
0.0
 10
11.1784316111
 20
-0.9969578448
 30
0.0
 10
11.1396809833
 20
-0.990222411
 30
0.0
 10
11.073808675
 20
-0.9920472056
 30
0.0
 10
10.9941690477
 20
-0.9902824094
 30
0.0
 10
10.9358001786
 20
-0.9904134992
 30
0.0
 10
10.9053910158
 20
-0.9904134992
 30
0.0
 11
11.2053506734
 21
-0.9955624063
 31
0.0
 11
11.1895524943
 21
-0.9939734416
 31
0.0
 11
11.1461123876
 21
-0.9925264526
 31
0.0
 11
11.0800297226
 21
-0.9913929232
 31
0.0
 11
10.9966181666
 21
-0.9906616631
 31
0.0
 11
10.9053910158
 21
-0.9904134992
 31
0.0
  0
SPLINE
  5
649
100
AcDbEntity
  8
RACCORDO
100
AcDbSpline
 62
7
  6
CONTINUOUS
 70
0
 71
3
 72
12
 73
8
 74
6
 42
0.0000001
 43
0.0000001
 44
0.0000000001
 12
-0.3000767217
 22
-0.0
 32
0.0
 13
-0.2121859816
 23
-0.212186588
 33
0.0
 40
0.0
 40
0.0
 40
0.0
 40
0.0
 40
0.3040138796
 40
0.5819919942
 40
0.802243621
 40
0.9470872441
 40
1.0
 40
1.0
 40
1.0
 40
1.0
 10
-10.7453472113
 20
-0.9904134992
 30
0.0
 10
-10.7757563741
 20
-0.9904134992
 30
0.0
 10
-10.8341252432
 20
-0.9902824094
 30
0.0
 10
-10.9137648705
 20
-0.9920472056
 30
0.0
 10
-10.9796371789
 20
-0.990222411
 30
0.0
 10
-11.0183878066
 20
-0.9969578448
 30
0.0
 10
-11.0415644206
 20
-0.9918199473
 30
0.0
 10
-11.045306869
 20
-0.9955624063
 30
0.0
 11
-10.7453472113
 21
-0.9904134992
 31
0.0
 11
-10.8365743621
 21
-0.9906616631
 31
0.0
 11
-10.9199859181
 21
-0.9913929232
 31
0.0
 11
-10.9860685831
 21
-0.9925264526
 31
0.0
 11
-11.0295086898
 21
-0.9939734416
 31
0.0
 11
-11.045306869
 21
-0.9955624063
 31
0.0
  0
SPLINE
  5
64A
100
AcDbEntity
  8
RACCORDO
100
AcDbSpline
 62
7
  6
CONTINUOUS
 70
0
 71
3
 72
12
 73
8
 74
6
 42
0.0000001
 43
0.0000001
 44
0.0000000001
 12
0.2121872725
 22
-0.2121835264
 32
0.0
 13
0.3000754696
 23
0.0
 33
0.0
 40
0.0
 40
0.0
 40
0.0
 40
0.0
 40
0.0528851833
 40
0.1976896626
 40
0.4179203758
 40
0.6959128578
 40
1.0
 40
1.0
 40
1.0
 40
1.0
 10
-11.048503359
 20
-6.8230139323
 30
0.0
 10
-11.0447628381
 20
-6.8267543872
 30
0.0
 10
-11.0215942246
 20
-6.8216172674
 30
0.0
 10
-10.9828519825
 20
-6.8283515612
 30
0.0
 10
-10.9169844537
 20
-6.8265258046
 30
0.0
 10
-10.8373386359
 20
-6.8282907496
 30
0.0
 10
-10.7789611768
 20
-6.8281594625
 30
0.0
 10
-10.7485448128
 20
-6.8281594625
 30
0.0
 11
-11.048503359
 21
-6.8230139323
 31
0.0
 11
-11.0327134187
 21
-6.824601472
 31
0.0
 11
-10.9892852125
 21
-6.8260474513
 31
0.0
 11
-10.9232090893
 21
-6.827180364
 31
0.0
 11
-10.8397935675
 21
-6.8279113406
 31
0.0
 11
-10.7485448128
 21
-6.8281594625
 31
0.0
  0
SPLINE
  5
64B
100
AcDbEntity
  8
RACCORDO
100
AcDbSpline
 62
7
  6
CONTINUOUS
 70
0
 71
3
 72
12
 73
8
 74
6
 42
0.0000001
 43
0.0000001
 44
0.0000000001
 12
-0.300081786
 22
0.0
 32
0.0
 13
-0.2121906568
 23
-0.2121890748
 33
0.0
 40
0.0
 40
0.0
 40
0.0
 40
0.0
 40
0.3039485293
 40
0.5819142421
 40
0.8021848151
 40
0.9470630692
 40
1.0
 40
1.0
 40
1.0
 40
1.0
 10
-10.7480648748
 20
-6.093133088
 30
0.0
 10
-10.778468014
 20
-6.093133088
 30
0.0
 10
-10.8368300249
 20
-6.0930021794
 30
0.0
 10
-10.916465267
 20
-6.0947668502
 30
0.0
 10
-10.9823426985
 20
-6.092942912
 30
0.0
 10
-11.0211013814
 20
-6.0996793587
 30
0.0
 10
-11.0442852326
 20
-6.0945407978
 30
0.0
 10
-11.0480294733
 20
-6.0982850106
 30
0.0
 11
-10.7480648748
 21
-6.093133088
 31
0.0
 11
-10.8392739546
 21
-6.0933812944
 31
0.0
 11
-10.9226831944
 21
-6.0941128129
 31
0.0
 11
-10.9887726517
 21
-6.0952468985
 31
0.0
 11
-11.0322238602
 21
-6.0966947883
 31
0.0
 11
-11.0480294733
 21
-6.0982850106
 31
0.0
  0
SPLINE
  5
64C
100
AcDbEntity
  8
RACCORDO
100
AcDbSpline
 62
7
  6
CONTINUOUS
 70
0
 71
3
 72
12
 73
8
 74
6
 42
0.0000001
 43
0.0000001
 44
0.0000000001
 12
0.212182242
 22
-0.2121828612
 32
0.0
 13
0.3000714422
 23
-0.0
 33
0.0
 40
0.0
 40
0.0
 40
0.0
 40
0.0
 40
0.0528761536
 40
0.1976675351
 40
0.4178908253
 40
0.6958877974
 40
1.0
 40
1.0
 40
1.0
 40
1.0
 10
-11.0445092877
 20
1.0729919964
 30
0.0
 10
-11.0407694941
 20
1.0692521918
 30
0.0
 10
-11.0176036967
 20
1.0743890789
 30
0.0
 10
-10.9788648484
 20
1.0676551653
 30
0.0
 10
-10.9129997374
 20
1.0694812511
 30
0.0
 10
-10.8333528448
 20
1.0677162608
 30
0.0
 10
-10.7749731853
 20
1.0678476204
 30
0.0
 10
-10.7445547229
 20
1.0678476204
 30
0.0
 11
-11.0445092877
 21
1.0729919964
 31
0.0
 11
-11.0287222371
 21
1.0714049299
 31
0.0
 11
-10.9852985354
 21
1.0699592949
 31
0.0
 11
-10.9192255234
 21
1.0688265981
 31
0.0
 11
-10.8358097728
 21
1.0680957234
 31
0.0
 11
-10.7445547229
 21
1.0678476204
 31
0.0
  0
SPLINE
  5
64D
100
AcDbEntity
  8
RACCORDO
100
AcDbSpline
 62
7
  6
CONTINUOUS
 70
0
 71
3
 72
12
 73
8
 74
6
 42
0.0000001
 43
0.0000001
 44
0.0000000001
 12
-0.3000746033
 22
-0.0
 32
0.0
 13
-0.2121845123
 23
-0.2121850614
 33
0.0
 40
0.0
 40
0.0
 40
0.0
 40
0.0
 40
0.3040426971
 40
0.5820262833
 40
0.8022695576
 40
0.9470979026
 40
1.0
 40
1.0
 40
1.0
 40
1.0
 10
-10.7443115865
 20
1.8106228595
 30
0.0
 10
-10.7747234171
 20
1.8106228595
 30
0.0
 10
-10.833095332
 20
1.8107540277
 30
0.0
 10
-10.9127369276
 20
1.8089891792
 30
0.0
 10
-10.9786069925
 20
1.8108143441
 30
0.0
 10
-11.0173541013
 20
1.8040793716
 30
0.0
 10
-11.0405275117
 20
1.8092169606
 30
0.0
 10
-11.0442691803
 20
1.8054752824
 30
0.0
 11
-10.7443115865
 21
1.8106228595
 31
0.0
 11
-10.8355467408
 21
1.8103747138
 31
0.0
 11
-10.9189593508
 21
1.8096435677
 31
0.0
 11
-10.9850390466
 21
1.8085102835
 31
0.0
 11
-11.0284742724
 21
1.807063692
 31
0.0
 11
-11.0442691803
 21
1.8054752824
 31
0.0
  0
SPLINE
  5
64E
100
AcDbEntity
  8
RACCORDO
100
AcDbSpline
 62
7
  6
CONTINUOUS
 70
0
 71
3
 72
12
 73
8
 74
6
 42
0.0000001
 43
0.0000001
 44
0.0000000001
 12
-0.2121906568
 22
0.2121890748
 32
0.0
 13
-0.300081786
 23
-0.0
 33
0.0
 40
0.0
 40
0.0
 40
0.0
 40
0.0
 40
0.0529369308
 40
0.1978151849
 40
0.4180857579
 40
0.6960514707
 40
1.0
 40
1.0
 40
1.0
 40
1.0
 10
11.2080732777
 20
-6.0982850106
 30
0.0
 10
11.204329037
 20
-6.0945407978
 30
0.0
 10
11.1811451858
 20
-6.0996793587
 30
0.0
 10
11.142386503
 20
-6.092942912
 30
0.0
 10
11.0765090715
 20
-6.0947668502
 30
0.0
 10
10.9968738294
 20
-6.0930021794
 30
0.0
 10
10.9385118185
 20
-6.093133088
 30
0.0
 10
10.9081086793
 20
-6.093133088
 30
0.0
 11
11.2080732777
 21
-6.0982850106
 31
0.0
 11
11.1922676647
 21
-6.0966947883
 31
0.0
 11
11.1488164562
 21
-6.0952468985
 31
0.0
 11
11.0827269989
 21
-6.0941128129
 31
0.0
 11
10.9993177591
 21
-6.0933812944
 31
0.0
 11
10.9081086793
 21
-6.093133088
 31
0.0
  0
SPLINE
  5
64F
100
AcDbEntity
  8
RACCORDO
100
AcDbSpline
 62
7
  6
CONTINUOUS
 70
0
 71
3
 72
12
 73
8
 74
6
 42
0.0000001
 43
0.0000001
 44
0.0000000001
 12
0.3000754696
 22
-0.0
 32
0.0
 13
0.2121872724
 23
0.2121835264
 33
0.0
 40
0.0
 40
0.0
 40
0.0
 40
0.0
 40
0.3040871422
 40
0.5820796242
 40
0.8023103374
 40
0.9471148167
 40
1.0
 40
1.0
 40
1.0
 40
1.0
 10
10.9085886173
 20
-6.8281594625
 30
0.0
 10
10.9390049813
 20
-6.8281594625
 30
0.0
 10
10.9973824404
 20
-6.8282907496
 30
0.0
 10
11.0770282582
 20
-6.8265258046
 30
0.0
 10
11.1428957869
 20
-6.8283515612
 30
0.0
 10
11.181638029
 20
-6.8216172674
 30
0.0
 10
11.2048066426
 20
-6.8267543872
 30
0.0
 10
11.2085471635
 20
-6.8230139323
 30
0.0
 11
10.9085886173
 21
-6.8281594625
 31
0.0
 11
10.9998373719
 21
-6.8279113406
 31
0.0
 11
11.0832528938
 21
-6.827180364
 31
0.0
 11
11.1493290169
 21
-6.8260474513
 31
0.0
 11
11.1927572232
 21
-6.824601472
 31
0.0
 11
11.2085471635
 21
-6.8230139323
 31
0.0
  0
SPLINE
  5
650
100
AcDbEntity
  8
RACCORDO
100
AcDbSpline
 62
7
  6
CONTINUOUS
 70
0
 71
3
 72
12
 73
8
 74
6
 42
0.0000001
 43
0.0000001
 44
0.0000000001
 12
-0.2121845123
 22
0.2121850614
 32
0.0
 13
-0.3000746033
 23
0.0
 33
0.0
 40
0.0
 40
0.0
 40
0.0
 40
0.0
 40
0.0529020974
 40
0.1977304424
 40
0.4179737167
 40
0.6959573029
 40
1.0
 40
1.0
 40
1.0
 40
1.0
 10
11.2043129848
 20
1.8054752824
 30
0.0
 10
11.2005713162
 20
1.8092169606
 30
0.0
 10
11.1773979057
 20
1.8040793716
 30
0.0
 10
11.138650797
 20
1.8108143441
 30
0.0
 10
11.0727807321
 20
1.8089891792
 30
0.0
 10
10.9931391365
 20
1.8107540277
 30
0.0
 10
10.9347672215
 20
1.8106228595
 30
0.0
 10
10.904355391
 20
1.8106228595
 30
0.0
 11
11.2043129848
 21
1.8054752824
 31
0.0
 11
11.1885180769
 21
1.807063692
 31
0.0
 11
11.1450828511
 21
1.8085102835
 31
0.0
 11
11.0790031553
 21
1.8096435677
 31
0.0
 11
10.9955905452
 21
1.8103747138
 31
0.0
 11
10.904355391
 21
1.8106228595
 31
0.0
  0
SPLINE
  5
651
100
AcDbEntity
  8
RACCORDO
100
AcDbSpline
 62
7
  6
CONTINUOUS
 70
0
 71
3
 72
12
 73
8
 74
6
 42
0.0000001
 43
0.0000001
 44
0.0000000001
 12
0.3000714422
 22
0.0
 32
0.0
 13
0.212182242
 23
0.2121828612
 33
0.0
 40
0.0
 40
0.0
 40
0.0
 40
0.0
 40
0.3041122026
 40
0.5821091747
 40
0.8023324649
 40
0.9471238464
 40
1.0
 40
1.0
 40
1.0
 40
1.0
 10
10.9045985274
 20
1.0678476204
 30
0.0
 10
10.9350169898
 20
1.0678476204
 30
0.0
 10
10.9933966493
 20
1.0677162608
 30
0.0
 10
11.0730435419
 20
1.0694812511
 30
0.0
 10
11.1389086528
 20
1.0676551653
 30
0.0
 10
11.1776475012
 20
1.0743890789
 30
0.0
 10
11.2008132986
 20
1.0692521918
 30
0.0
 10
11.2045530922
 20
1.0729919964
 30
0.0
 11
10.9045985274
 21
1.0678476204
 31
0.0
 11
10.9958535773
 21
1.0680957234
 31
0.0
 11
11.0792693278
 21
1.0688265981
 31
0.0
 11
11.1453423399
 21
1.0699592949
 31
0.0
 11
11.1887660416
 21
1.0714049299
 31
0.0
 11
11.2045530922
 21
1.0729919964
 31
0.0
  0
SPLINE
  5
652
100
AcDbEntity
  8
RACCORDO
100
AcDbSpline
 62
253
  6
CONTINUOUS
 70
0
 71
3
 72
11
 73
7
 74
5
 42
0.0000001
 43
0.0000001
 44
0.0000000001
 12
0.000000661
 22
-0.353571321
 32
0.0
 13
-0.0098781864
 23
-0.3534333042
 33
0.0
 40
0.0
 40
0.0
 40
0.0
 40
0.0
 40
0.2733034014
 40
0.5418653407
 40
0.7898898962
 40
1.0
 40
1.0
 40
1.0
 40
1.0
 10
7.3352126818
 20
6.3962050302
 30
0.0
 10
7.335212742
 20
6.363994282
 30
0.0
 10
7.3350417433
 20
6.300131469
 30
0.0
 10
7.3342718341
 20
6.2070399548
 30
0.0
 10
7.3330172802
 20
6.121402201
 30
0.0
 10
7.3318145828
 20
6.067420279
 30
0.0
 10
7.3311227472
 20
6.0426669762
 30
0.0
 11
7.3352126818
 21
6.3962050302
 31
0.0
 11
7.3349493876
 21
6.2995731442
 31
0.0
 11
7.3341468678
 21
6.2046207359
 31
0.0
 11
7.3328311353
 21
6.1169362371
 31
0.0
 11
7.3311227472
 21
6.0426669762
 31
0.0
  0
SPLINE
  5
653
100
AcDbEntity
  8
RACCORDO
100
AcDbSpline
 62
253
  6
CONTINUOUS
 70
0
 71
3
 72
11
 73
7
 74
5
 42
0.0000001
 43
0.0000001
 44
0.0000000001
 12
0.000000661
 22
-0.353571321
 32
0.0
 13
-0.0098781864
 23
-0.3534333042
 33
0.0
 40
0.0
 40
0.0
 40
0.0
 40
0.0
 40
0.2733034014
 40
0.5418653407
 40
0.7898898962
 40
1.0
 40
1.0
 40
1.0
 40
1.0
 10
-6.9647873182
 20
6.3962050302
 30
0.0
 10
-6.964787258
 20
6.363994282
 30
0.0
 10
-6.9649582567
 20
6.300131469
 30
0.0
 10
-6.9657281659
 20
6.2070399548
 30
0.0
 10
-6.9669827198
 20
6.121402201
 30
0.0
 10
-6.9681854172
 20
6.067420279
 30
0.0
 10
-6.9688772528
 20
6.0426669762
 30
0.0
 11
-6.9647873182
 21
6.3962050302
 31
0.0
 11
-6.9650506124
 21
6.2995731442
 31
0.0
 11
-6.9658531322
 21
6.2046207359
 31
0.0
 11
-6.9671688647
 21
6.1169362371
 31
0.0
 11
-6.9688772528
 21
6.0426669762
 31
0.0
  0
SPLINE
  5
654
100
AcDbEntity
  8
RACCORDO
100
AcDbSpline
 62
253
  6
CONTINUOUS
 70
0
 71
3
 72
11
 73
7
 74
5
 42
0.0000001
 43
0.0000001
 44
0.0000000001
 12
-0.0098781004
 22
0.3534330094
 32
0.0
 13
0.0000006738
 23
0.3535710239
 33
0.0
 40
0.0
 40
0.0
 40
0.0
 40
0.0
 40
0.210108614
 40
0.4581332567
 40
0.7266954159
 40
1.0
 40
1.0
 40
1.0
 40
1.0
 10
-7.1710789427
 20
6.0426669762
 30
0.0
 10
-7.1717707674
 20
6.0674200828
 30
0.0
 10
-7.1729734754
 20
6.1214017939
 30
0.0
 10
-7.1742280187
 20
6.2070393365
 30
0.0
 10
-7.1749979362
 20
6.300130948
 30
0.0
 10
-7.1751689379
 20
6.3639938726
 30
0.0
 10
-7.1751688765
 20
6.3962047331
 30
0.0
 11
-7.1710789427
 21
6.0426669762
 31
0.0
 11
-7.172787322
 21
6.116935648
 31
0.0
 11
-7.1741030548
 21
6.2046201039
 31
0.0
 11
-7.174905579
 21
6.2995725102
 31
0.0
 11
-7.1751688765
 21
6.3962047331
 31
0.0
  0
SPLINE
  5
655
100
AcDbEntity
  8
RACCORDO
100
AcDbSpline
 62
7
  6
CONTINUOUS
 70
0
 71
3
 72
11
 73
7
 74
5
 42
0.0000001
 43
0.0000001
 44
0.0000000001
 12
0.1877591309
 22
0.0090044277
 32
0.0
 13
0.1879749211
 23
0.0
 33
0.0
 40
0.0
 40
0.0
 40
0.0
 40
0.0
 40
0.1555665837
 40
0.3898430933
 40
0.6801151059
 40
1.0
 40
1.0
 40
1.0
 40
1.0
 10
4.3219689413
 20
5.612706085
 30
0.0
 10
4.3317052901
 20
5.6131730143
 30
0.0
 10
4.3561274661
 20
5.6138014524
 30
0.0
 10
4.3987358503
 20
5.6144804044
 30
0.0
 10
4.4516459282
 20
5.6149033771
 30
0.0
 10
4.4898772238
 20
5.6150035973
 30
0.0
 10
4.5099206697
 20
5.6150035973
 30
0.0
 11
4.3219689413
 21
5.612706085
 31
0.0
 11
4.3511967532
 21
5.6136364697
 31
0.0
 11
4.3952287111
 21
5.6143724604
 31
0.0
 11
4.4497905489
 21
5.6148420565
 31
0.0
 11
4.5099206697
 21
5.6150035973
 31
0.0
  0
SPLINE
  5
656
100
AcDbEntity
  8
RACCORDO
100
AcDbSpline
 62
7
  6
CONTINUOUS
 70
0
 71
3
 72
11
 73
7
 74
5
 42
0.0000001
 43
0.0000001
 44
0.0000000001
 12
-0.1879629201
 22
0.0
 32
0.0
 13
-0.1877471435
 23
0.009003857
 33
0.0
 40
0.0
 40
0.0
 40
0.0
 40
0.0
 40
0.3199428211
 40
0.6102303145
 40
0.8444792159
 40
1.0
 40
1.0
 40
1.0
 40
1.0
 10
4.5033977644
 20
3.9635365438
 30
0.0
 10
4.4833519688
 20
3.9635365438
 30
0.0
 10
4.4451185149
 20
3.963636747
 30
0.0
 10
4.3922089445
 20
3.9640596283
 30
0.0
 10
4.3496069088
 20
3.9647383865
 30
0.0
 10
4.3251908872
 20
3.9653665705
 30
0.0
 10
4.3154580262
 20
3.9658333328
 30
0.0
 11
4.5033977644
 21
3.9635365438
 31
0.0
 11
4.4432605945
 21
3.963698072
 31
0.0
 11
4.3886993296
 21
3.9641675863
 31
0.0
 11
4.34467537
 21
3.9649033467
 31
0.0
 11
4.3154580262
 21
3.9658333328
 31
0.0
  0
SPLINE
  5
657
100
AcDbEntity
  8
RACCORDO
100
AcDbSpline
 62
7
  6
CONTINUOUS
 70
0
 71
3
 72
11
 73
7
 74
5
 42
0.0000001
 43
0.0000001
 44
0.0000000001
 12
-0.1877471435
 22
-0.009003857
 32
0.0
 13
-0.1879629201
 23
0.0
 33
0.0
 40
0.0
 40
0.0
 40
0.0
 40
0.0
 40
0.1555207841
 40
0.3897696855
 40
0.6800571789
 40
1.0
 40
1.0
 40
1.0
 40
1.0
 10
-4.1554142218
 20
3.9658333328
 30
0.0
 10
-4.1651470827
 20
3.9653665705
 30
0.0
 10
-4.1895631043
 20
3.9647383865
 30
0.0
 10
-4.2321651401
 20
3.9640596283
 30
0.0
 10
-4.2850747105
 20
3.963636747
 30
0.0
 10
-4.3233081643
 20
3.9635365438
 30
0.0
 10
-4.34335396
 20
3.9635365438
 30
0.0
 11
-4.1554142218
 21
3.9658333328
 31
0.0
 11
-4.1846315655
 21
3.9649033467
 31
0.0
 11
-4.2286555252
 21
3.9641675863
 31
0.0
 11
-4.28321679
 21
3.963698072
 31
0.0
 11
-4.34335396
 21
3.9635365438
 31
0.0
  0
SPLINE
  5
658
100
AcDbEntity
  8
RACCORDO
100
AcDbSpline
 62
7
  6
CONTINUOUS
 70
0
 71
3
 72
11
 73
7
 74
5
 42
0.0000001
 43
0.0000001
 44
0.0000000001
 12
0.1879749211
 22
0.0
 32
0.0
 13
0.1877591309
 23
-0.0090044277
 33
0.0
 40
0.0
 40
0.0
 40
0.0
 40
0.0
 40
0.3198848941
 40
0.6101569067
 40
0.8444334163
 40
1.0
 40
1.0
 40
1.0
 40
1.0
 10
-4.3498768652
 20
5.6150035973
 30
0.0
 10
-4.3298334193
 20
5.6150035973
 30
0.0
 10
-4.2916021238
 20
5.6149033771
 30
0.0
 10
-4.2386920458
 20
5.6144804044
 30
0.0
 10
-4.1960836617
 20
5.6138014524
 30
0.0
 10
-4.1716614857
 20
5.6131730143
 30
0.0
 10
-4.1619251368
 20
5.612706085
 30
0.0
 11
-4.3498768652
 21
5.6150035973
 31
0.0
 11
-4.2897467445
 21
5.6148420565
 31
0.0
 11
-4.2351849066
 21
5.6143724604
 31
0.0
 11
-4.1911529488
 21
5.6136364697
 31
0.0
 11
-4.1619251368
 21
5.612706085
 31
0.0
  0
SPLINE
  5
659
100
AcDbEntity
  8
ASSI
100
AcDbSpline
 62
7
  6
CONTINUOUS
 70
0
 71
3
 72
9
 73
5
 74
3
 42
0.0000001
 43
0.0000001
 44
0.0000000001
 12
-0.0094537596
 22
0.4232572779
 32
0.0
 13
-0.4233861002
 23
-0.0063259668
 33
0.0
 40
0.0
 40
0.0
 40
0.0
 40
0.0
 40
0.479537544
 40
1.0
 40
1.0
 40
1.0
 40
1.0
 10
-1.2313062663
 20
-1.1502642699
 30
0.0
 10
-1.2328174105
 20
-1.0826083514
 30
0.0
 10
-1.261439182
 20
-0.9254662751
 30
0.0
 10
-1.4218721286
 20
-0.8735343353
 30
0.0
 10
-1.4953243185
 20
-0.8746318114
 30
0.0
 11
-1.2313062663
 21
-1.1502642699
 31
0.0
 11
-1.2905786429
 21
-0.9560910298
 31
0.0
 11
-1.4953243185
 21
-0.8746318114
 31
0.0
  0
SPLINE
  5
65A
100
AcDbEntity
  8
ASSI
100
AcDbSpline
 62
7
  6
CONTINUOUS
 70
0
 71
3
 72
9
 73
5
 74
3
 42
0.0000001
 43
0.0000001
 44
0.0000000001
 12
-0.3133621804
 22
-0.004682097
 32
0.0
 13
-0.0361338581
 23
-0.3113313547
 33
0.0
 40
0.0
 40
0.0
 40
0.0
 40
0.0
 40
0.4988583522
 40
1.0
 40
1.0
 40
1.0
 40
1.0
 10
-1.4953243187
 20
-0.8746317967
 30
0.0
 10
-1.547432099
 20
-0.8754103644
 30
0.0
 10
-1.6561060562
 20
-0.9178349115
 30
0.0
 10
-1.7019232
 20
-1.0230711568
 30
0.0
 10
-1.7079592604
 20
-1.0750781929
 30
0.0
 11
-1.4953243187
 21
-0.8746317967
 31
0.0
 11
-1.6402153965
 21
-0.9333693413
 31
0.0
 11
-1.7079592604
 21
-1.0750781929
 31
0.0
  0
SPLINE
  5
65B
100
AcDbEntity
  8
ASSI
100
AcDbSpline
 62
7
  6
CONTINUOUS
 70
0
 71
3
 72
9
 73
5
 74
3
 42
0.0000001
 43
0.0000001
 44
0.0000000001
 12
-0.0321345863
 22
-0.2768734098
 32
0.0
 13
0.0468836161
 23
-0.2747605688
 33
0.0
 40
0.0
 40
0.0
 40
0.0
 40
0.0
 40
0.7295958321
 40
1.0
 40
1.0
 40
1.0
 40
1.0
 10
-1.7079592603
 20
-1.0750781929
 30
0.0
 10
-1.715774347
 20
-1.1424134215
 30
0.0
 10
-1.7160755949
 20
-1.2364061101
 30
0.0
 10
-1.7021775905
 20
-1.3282795151
 30
0.0
 10
-1.6979517488
 20
-1.3530449827
 30
0.0
 11
-1.7079592603
 21
-1.0750781929
 31
0.0
 11
-1.7086555203
 21
-1.2784386532
 31
0.0
 11
-1.6979517488
 21
-1.3530449827
 31
0.0
  0
SPLINE
  5
65C
100
AcDbEntity
  8
ASSI
100
AcDbSpline
 62
7
  6
CONTINUOUS
 70
0
 71
3
 72
9
 73
5
 74
3
 42
0.0000001
 43
0.0000001
 44
0.0000000001
 12
-0.128341011
 22
0.8723735981
 32
0.0
 13
0.2997650463
 23
0.8292493193
 33
0.0
 40
0.0
 40
0.0
 40
0.0
 40
0.0
 40
0.7041528059
 40
1.0
 40
1.0
 40
1.0
 40
1.0
 10
-1.9676801799
 20
-1.6946797504
 30
0.0
 10
-1.9978040743
 20
-1.4899183115
 30
0.0
 10
-2.0274562757
 20
-1.1945239856
 30
0.0
 10
-1.9792999585
 20
-0.9006712861
 30
0.0
 10
-1.9497384092
 20
-0.818894258
 30
0.0
 11
-1.9676801799
 21
-1.6946797504
 31
0.0
 11
-2.0009835468
 21
-1.0746772111
 31
0.0
 11
-1.9497384092
 21
-0.818894258
 31
0.0
  0
SPLINE
  5
65D
100
AcDbEntity
  8
ASSI
100
AcDbSpline
 62
7
  6
CONTINUOUS
 70
0
 71
3
 72
20
 73
16
 74
14
 42
0.0000001
 43
0.0000001
 44
0.0000000001
 12
0.3602221359
 22
0.9969834579
 32
0.0
 13
0.1356584285
 23
-1.0513528212
 33
0.0
 40
0.0
 40
0.0
 40
0.0
 40
0.0
 40
0.079756987
 40
0.1893481532
 40
0.2529748389
 40
0.3223669702
 40
0.3985017405
 40
0.4831988921
 40
0.5372476303
 40
0.5875584989
 40
0.6787382851
 40
0.7596505358
 40
0.8314106377
 40
0.9440765302
 40
1.0
 40
1.0
 40
1.0
 40
1.0
 10
-1.9497384472
 20
-0.8188942426
 30
0.0
 10
-1.9401617031
 20
-0.7923887771
 30
0.0
 10
-1.9075020814
 20
-0.7331482245
 30
0.0
 10
-1.8478064474
 20
-0.6653825849
 30
0.0
 10
-1.7790448548
 20
-0.613675767
 30
0.0
 10
-1.7134470182
 20
-0.5789105033
 30
0.0
 10
-1.6357924987
 20
-0.5533362441
 30
0.0
 10
-1.5602630782
 20
-0.5424417428
 30
0.0
 10
-1.4933767399
 20
-0.5412528707
 30
0.0
 10
-1.424412193
 20
-0.5466403305
 30
0.0
 10
-1.3471574867
 20
-0.564063503
 30
0.0
 10
-1.2680664548
 20
-0.5989643435
 30
0.0
 10
-1.1888121653
 20
-0.6510199551
 30
0.0
 10
-1.133000296
 20
-0.7130323516
 30
0.0
 10
-1.0937318266
 20
-0.762835799
 30
0.0
 10
-1.0912029966
 20
-0.7824342316
 30
0.0
 11
-1.9497384472
 21
-0.8188942426
 31
0.0
 11
-1.9105150567
 21
-0.7439937874
 31
0.0
 11
-1.8336700194
 21
-0.6568658316
 31
0.0
 11
-1.7797594872
 21
-0.6163321757
 31
0.0
 11
-1.7147787047
 21
-0.5818555786
 31
0.0
 11
-1.6381689906
 21
-0.5564636735
 31
0.0
 11
-1.549371664
 21
-0.5431840934
 31
0.0
 11
-1.4920851384
 21
-0.5421766313
 31
0.0
 11
-1.4389214625
 21
-0.5464229
 31
0.0
 11
-1.3447031867
 21
-0.5679974997
 31
0.0
 11
-1.2661978907
 21
-0.6025496333
 31
0.0
 11
-1.2028866284
 21
-0.6447210413
 31
0.0
 11
-1.119770421
 21
-0.7304886435
 31
0.0
 11
-1.0912029966
 21
-0.7824342316
 31
0.0
  0
SPLINE
  5
65E
100
AcDbEntity
  8
ASSI
100
AcDbSpline
 62
7
  6
CONTINUOUS
 70
0
 71
3
 72
9
 73
5
 74
3
 42
0.0000001
 43
0.0000001
 44
0.0000000001
 12
0.2092440046
 22
0.2567965258
 32
0.0
 13
0.3209543859
 23
0.0874412864
 33
0.0
 40
0.0
 40
0.0
 40
0.0
 40
0.0
 40
0.7111552999
 40
1.0
 40
1.0
 40
1.0
 40
1.0
 10
-1.0492095665
 20
-0.7287681119
 30
0.0
 10
-0.9996079056
 20
-0.6678940418
 30
0.0
 10
-0.8834567497
 20
-0.6133285342
 30
0.0
 10
-0.7786237212
 20
-0.5863162315
 30
0.0
 10
-0.7477217301
 20
-0.5778972475
 30
0.0
 11
-1.0492095665
 21
-0.7287681119
 31
0.0
 11
-0.8401289362
 21
-0.6042197511
 31
0.0
 11
-0.7477217301
 21
-0.5778972475
 31
0.0
  0
SPLINE
  5
65F
100
AcDbEntity
  8
ASSI
100
AcDbSpline
 62
7
  6
CONTINUOUS
 70
0
 71
3
 72
9
 73
5
 74
3
 42
0.0000001
 43
0.0000001
 44
0.0000000001
 12
0.4590342986
 22
0.125059974
 32
0.0
 13
0.4591324757
 23
0.1246990799
 33
0.0
 40
0.0
 40
0.0
 40
0.0
 40
0.0
 40
0.8019701206
 40
1.0
 40
1.0
 40
1.0
 40
1.0
 10
-0.7477217301
 20
-0.5778972472
 30
0.0
 10
-0.6250111329
 20
-0.5444657931
 30
0.0
 10
-0.4713728888
 20
-0.5051229645
 30
0.0
 10
-0.3179847273
 20
-0.4648372372
 30
0.0
 10
-0.2876774111
 20
-0.4566058559
 30
0.0
 11
-0.7477217301
 21
-0.5778972472
 31
0.0
 11
-0.3787454127
 21
-0.480755816
 31
0.0
 11
-0.2876774111
 21
-0.4566058559
 31
0.0
  0
SPLINE
  5
660
100
AcDbEntity
  8
ASSI
100
AcDbSpline
 62
7
  6
CONTINUOUS
 70
0
 71
3
 72
9
 73
5
 74
3
 42
0.0000001
 43
0.0000001
 44
0.0000000001
 12
-0.5174692086
 22
-0.1487744753
 32
0.0
 13
-0.5040219036
 23
-0.1893972716
 33
0.0
 40
0.0
 40
0.0
 40
0.0
 40
0.0
 40
0.4412847493
 40
1.0
 40
1.0
 40
1.0
 40
1.0
 10
-0.2876774111
 20
-0.7979091993
 30
0.0
 10
-0.3637945011
 20
-0.8197931683
 30
0.0
 10
-0.5355771375
 20
-0.8714650884
 30
0.0
 10
-0.7093704133
 20
-0.9178339949
 30
0.0
 10
-0.8032386548
 20
-0.9531070429
 30
0.0
 11
-0.2876774111
 21
-0.7979091993
 31
0.0
 11
-0.5157961527
 21
-0.8643645613
 31
0.0
 11
-0.8032386548
 21
-0.9531070429
 31
0.0
  0
SPLINE
  5
661
100
AcDbEntity
  8
ASSI
100
AcDbSpline
 62
7
  6
CONTINUOUS
 70
0
 71
3
 72
9
 73
5
 74
3
 42
0.0000001
 43
0.0000001
 44
0.0000000001
 12
-0.243894777
 22
-0.0916489686
 32
0.0
 13
-0.0
 23
-0.2605161169
 33
0.0
 40
0.0
 40
0.0
 40
0.0
 40
0.0
 40
0.6439294634
 40
1.0
 40
1.0
 40
1.0
 40
1.0
 10
-0.8032386618
 20
-0.9531070242
 30
0.0
 10
-0.8555890061
 20
-0.9727788479
 30
0.0
 10
-0.9341945688
 20
-1.0311968798
 30
0.0
 10
-0.9529098137
 20
-1.1201083908
 30
0.0
 10
-0.9529098137
 20
-1.1510290953
 30
0.0
 11
-0.8032386618
 21
-0.9531070242
 31
0.0
 11
-0.9319886517
 21
-1.0606570051
 31
0.0
 11
-0.9529098137
 21
-1.1510290953
 31
0.0
  0
SPLINE
  5
662
100
AcDbEntity
  8
ASSI
100
AcDbSpline
 62
7
  6
CONTINUOUS
 70
0
 71
3
 72
10
 73
6
 74
4
 42
0.0000001
 43
0.0000001
 44
0.0000000001
 12
-0.1883407282
 22
0.1821744696
 32
0.0
 13
-0.1853866385
 23
0.1851798087
 33
0.0
 40
0.0
 40
0.0
 40
0.0
 40
0.0
 40
0.2861514979
 40
0.6199988295
 40
1.0
 40
1.0
 40
1.0
 40
1.0
 10
11.095617045
 20
-7.5344316957
 30
0.0
 10
11.0776523845
 20
-7.5170551966
 30
0.0
 10
11.0388687855
 20
-7.4792610089
 30
0.0
 10
10.976638868
 20
-7.4179719337
 30
0.0
 10
10.9324256474
 20
-7.3740089795
 30
0.0
 10
10.9089432675
 20
-7.3505527982
 30
0.0
 11
11.095617045
 21
-7.5344316957
 31
0.0
 11
11.0418952077
 21
-7.4821248134
 31
0.0
 11
10.9795568417
 21
-7.4207543268
 31
0.0
 11
10.9089432675
 21
-7.3505527982
 31
0.0
  0
SPLINE
  5
663
100
AcDbEntity
  8
ASSI
100
AcDbSpline
 62
7
  6
CONTINUOUS
 70
0
 71
3
 72
10
 73
6
 74
4
 42
0.0000001
 43
0.0000001
 44
0.0000000001
 12
0.1932351421
 22
0.1319011105
 32
0.0
 13
0.0048001619
 23
0.233911696
 33
0.0
 40
0.0
 40
0.0
 40
0.0
 40
0.0
 40
0.3395046921
 40
0.6724952268
 40
1.0
 40
1.0
 40
1.0
 40
1.0
 10
11.095617045
 20
-7.5344316957
 30
0.0
 10
11.1174851241
 20
-7.5195046804
 30
0.0
 10
11.1570678141
 20
-7.4838580621
 30
0.0
 10
11.1978660012
 20
-7.4159675405
 30
0.0
 10
11.2083735508
 20
-7.3642360655
 30
0.0
 10
11.2088975761
 20
-7.3387003332
 30
0.0
 11
11.095617045
 21
-7.5344316957
 31
0.0
 11
11.154355596
 21
-7.4809616978
 31
0.0
 11
11.1939113922
 21
-7.4138438515
 31
0.0
 11
11.2088975761
 21
-7.3387003332
 31
0.0
  0
SPLINE
  5
664
100
AcDbEntity
  8
ASSI
100
AcDbSpline
 62
7
  6
CONTINUOUS
 70
0
 71
3
 72
10
 73
6
 74
4
 42
0.0000001
 43
0.0000001
 44
0.0000000001
 12
0.2111534819
 22
0.0378729015
 32
0.0
 13
0.1518156339
 23
0.1515657049
 33
0.0
 40
0.0
 40
0.0
 40
0.0
 40
0.0
 40
0.3420454831
 40
0.6747450136
 40
1.0
 40
1.0
 40
1.0
 40
1.0
 10
10.9089432662
 20
-7.6341426454
 30
0.0
 10
10.9330179644
 20
-7.6298245604
 30
0.0
 10
10.979693435
 20
-7.6158117286
 30
0.0
 10
11.0426773174
 20
-7.5810751799
 30
0.0
 10
11.0791574477
 20
-7.5508641961
 30
0.0
 10
11.095617045
 20
-7.5344316957
 30
0.0
 11
10.9089432662
 21
-7.6341426454
 31
0.0
 11
10.9792664574
 21
-7.6131955367
 31
0.0
 11
11.0418778824
 21
-7.5789357531
 31
0.0
 11
11.095617045
 21
-7.5344316957
 31
0.0
  0
SPLINE
  5
665
100
AcDbEntity
  8
ASSI
100
AcDbSpline
 62
7
  6
CONTINUOUS
 70
0
 71
3
 72
11
 73
7
 74
5
 42
0.0000001
 43
0.0000001
 44
0.0000000001
 12
-0.1934720276
 22
0.1323336071
 32
0.0
 13
-0.004777495
 23
0.2343518393
 33
0.0
 40
0.0
 40
0.0
 40
0.0
 40
0.0
 40
0.2553623096
 40
0.5075354551
 40
0.7552605149
 40
1.0
 40
1.0
 40
1.0
 40
1.0
 10
-10.9355663036
 20
-7.5344383375
 30
0.0
 10
-10.9520347915
 20
-7.5231739989
 30
0.0
 10
-10.9826177517
 20
-7.4974081744
 30
0.0
 10
-11.0188076957
 20
-7.4501626895
 30
0.0
 10
-11.0424530733
 20
-7.3963632262
 30
0.0
 10
-11.0484640244
 20
-7.357818716
 30
0.0
 10
-11.0488537716
 20
-7.3387003332
 30
0.0
 11
-10.9355663036
 21
-7.5344383375
 31
0.0
 11
-10.9812243589
 21
-7.4957316231
 31
0.0
 11
-11.0169647694
 21
-7.4486512839
 31
0.0
 11
-11.0401118907
 21
-7.3953974204
 31
0.0
 11
-11.0488537716
 21
-7.3387003332
 31
0.0
  0
SPLINE
  5
666
100
AcDbEntity
  8
ASSI
100
AcDbSpline
 62
7
  6
CONTINUOUS
 70
0
 71
3
 72
10
 73
6
 74
4
 42
0.0000001
 43
0.0000001
 44
0.0000000001
 12
0.1883472662
 22
0.1821697226
 32
0.0
 13
0.1853876284
 23
0.1851807974
 33
0.0
 40
0.0
 40
0.0
 40
0.0
 40
0.0
 40
0.2877120613
 40
0.6240039224
 40
1.0
 40
1.0
 40
1.0
 40
1.0
 10
-10.935575159
 20
-7.5344317312
 30
0.0
 10
-10.9175118989
 20
-7.5169609225
 30
0.0
 10
-10.8784776857
 20
-7.478922244
 30
0.0
 10
-10.8162503264
 20
-7.4176299001
 30
0.0
 10
-10.7721344701
 20
-7.3737618826
 30
0.0
 10
-10.7488994631
 20
-7.3505527982
 30
0.0
 11
-10.935575159
 21
-7.5344317312
 31
0.0
 11
-10.8815599565
 21
-7.4818394065
 31
0.0
 11
-10.8187673662
 21
-7.4200166053
 31
0.0
 11
-10.7488994631
 21
-7.3505527982
 31
0.0
  0
SPLINE
  5
667
100
AcDbEntity
  8
ASSI
100
AcDbSpline
 62
7
  6
CONTINUOUS
 70
0
 71
3
 72
10
 73
6
 74
4
 42
0.0000001
 43
0.0000001
 44
0.0000000001
 12
-0.2113510983
 22
0.0367634485
 32
0.0
 13
-0.1528975824
 23
0.1504764673
 33
0.0
 40
0.0
 40
0.0
 40
0.0
 40
0.0
 40
0.3410974996
 40
0.6751553688
 40
1.0
 40
1.0
 40
1.0
 40
1.0
 10
-10.7488994617
 20
-7.6341426454
 30
0.0
 10
-10.7729299055
 20
-7.6299626719
 30
0.0
 10
-10.8195866549
 20
-7.6157569298
 30
0.0
 10
-10.8826657782
 20
-7.5811728806
 30
0.0
 10
-10.9190191727
 20
-7.5507255554
 30
0.0
 10
-10.935575159
 20
-7.5344317312
 30
0.0
 11
-10.7488994617
 21
-7.6341426454
 31
0.0
 11
-10.8190346736
 21
-7.6132749264
 31
0.0
 11
-10.881907865
 21
-7.5788853705
 31
0.0
 11
-10.935575159
 21
-7.5344317312
 31
0.0
  0
SPLINE
  5
668
100
AcDbEntity
  8
ASSI
100
AcDbSpline
 62
253
  6
CONTINUOUS
 70
0
 71
3
 72
12
 73
8
 74
6
 42
0.0000001
 43
0.0000001
 44
0.0000000001
 12
-0.0070145166
 22
0.4019838217
 32
0.0
 13
-0.4020297068
 23
0.0035087299
 33
0.0
 40
0.0
 40
0.0
 40
0.0
 40
0.0
 40
0.1664007688
 40
0.3475548035
 40
0.549388854
 40
0.7695487352
 40
1.0
 40
1.0
 40
1.0
 40
1.0
 10
-6.6689229443
 20
5.8305349419
 30
0.0
 10
-6.6693120179
 20
5.8528317475
 30
0.0
 10
-6.6810923505
 20
5.899656934
 30
0.0
 10
-6.7267377014
 20
5.9593648296
 30
0.0
 10
-6.794329972
 20
6.0056737128
 30
0.0
 10
-6.8774427083
 20
6.0353004014
 30
0.0
 10
-6.9379945013
 20
6.0423974458
 30
0.0
 10
-6.9688772528
 20
6.0426669762
 30
0.0
 11
-6.6689229443
 21
5.8305349419
 31
0.0
 11
-6.6845111086
 21
5.8955941412
 31
0.0
 11
-6.7275028782
 21
5.9543837593
 31
0.0
 11
-6.7937552513
 21
6.0012383977
 31
0.0
 11
-6.8768836639
 21
6.0316428002
 31
0.0
 11
-6.9688772528
 21
6.0426669762
 31
0.0
  0
SPLINE
  5
669
100
AcDbEntity
  8
ASSI
100
AcDbSpline
 62
253
  6
CONTINUOUS
 70
0
 71
3
 72
12
 73
8
 74
6
 42
0.0000001
 43
0.0000001
 44
0.0000000001
 12
-0.0070145118
 22
0.401983857
 32
0.0
 13
-0.402029743
 23
0.0035086199
 33
0.0
 40
0.0
 40
0.0
 40
0.0
 40
0.0
 40
0.1663980738
 40
0.3475504099
 40
0.549384185
 40
0.7695456059
 40
1.0
 40
1.0
 40
1.0
 40
1.0
 10
-6.6812655391
 20
5.1234281607
 30
0.0
 10
-6.6816546061
 20
5.1457246072
 30
0.0
 10
-6.6934345877
 20
5.1925492021
 30
0.0
 10
-6.7390790964
 20
5.252256941
 30
0.0
 10
-6.8066710401
 20
5.2985662399
 30
0.0
 10
-6.8897842395
 20
5.328193475
 30
0.0
 10
-6.950336674
 20
5.3352906692
 30
0.0
 10
-6.9812198476
 20
5.3355601948
 30
0.0
 11
-6.6812655391
 21
5.1234281607
 31
0.0
 11
-6.6968532236
 21
5.1884863668
 31
0.0
 11
-6.7398441696
 21
5.2472757492
 31
0.0
 11
-6.8060961463
 21
5.2941307686
 31
0.0
 11
-6.8892250161
 21
5.3245357455
 31
0.0
 11
-6.9812198476
 21
5.3355601948
 31
0.0
  0
SPLINE
  5
66A
100
AcDbEntity
  8
ASSI
100
AcDbSpline
 62
253
  6
CONTINUOUS
 70
0
 71
3
 72
12
 73
8
 74
6
 42
0.0000001
 43
0.0000001
 44
0.0000000001
 12
0.0070145165
 22
0.4019838218
 32
0.0
 13
0.4020297069
 23
0.003508728
 33
0.0
 40
0.0
 40
0.0
 40
0.0
 40
0.0
 40
0.1664007686
 40
0.3475548033
 40
0.549388854
 40
0.7695487354
 40
1.0
 40
1.0
 40
1.0
 40
1.0
 10
-7.4586906565
 20
5.1234281607
 30
0.0
 10
-7.4583015828
 20
5.1457249663
 30
0.0
 10
-7.4465212503
 20
5.1925501528
 30
0.0
 10
-7.4008758993
 20
5.2522580484
 30
0.0
 10
-7.3332836288
 20
5.2985669316
 30
0.0
 10
-7.2501708925
 20
5.3281936206
 30
0.0
 10
-7.1896190994
 20
5.3352906648
 30
0.0
 10
-7.1587363479
 20
5.335560195
 30
0.0
 11
-7.4586906565
 21
5.1234281607
 31
0.0
 11
-7.4431024922
 21
5.18848736
 31
0.0
 11
-7.4001107226
 21
5.2472769781
 31
0.0
 11
-7.3338583494
 21
5.2941316166
 31
0.0
 11
-7.2507299369
 21
5.3245360192
 31
0.0
 11
-7.1587363479
 21
5.335560195
 31
0.0
  0
SPLINE
  5
66B
100
AcDbEntity
  8
ASSI
100
AcDbSpline
 62
253
  6
CONTINUOUS
 70
0
 71
3
 72
12
 73
8
 74
6
 42
0.0000001
 43
0.0000001
 44
0.0000000001
 12
0.0070145164
 22
0.4019837961
 32
0.0
 13
0.4020296812
 23
0.0035087308
 33
0.0
 40
0.0
 40
0.0
 40
0.0
 40
0.0
 40
0.1664062852
 40
0.3475634824
 40
0.549397719
 40
0.769554416
 40
1.0
 40
1.0
 40
1.0
 40
1.0
 10
-7.4710332513
 20
5.8305349419
 30
0.0
 10
-7.4706441647
 20
5.8528324853
 30
0.0
 10
-7.4588631395
 20
5.899658847
 30
0.0
 10
-7.4132161659
 20
5.9593670278
 30
0.0
 10
-7.3456233403
 20
6.0056750698
 30
0.0
 10
-7.2625115172
 20
6.0353007079
 30
0.0
 10
-7.2019609309
 20
6.0423974515
 30
0.0
 10
-7.1710789427
 20
6.0426669753
 30
0.0
 11
-7.4710332513
 21
5.8305349419
 31
0.0
 11
-7.4554441195
 21
5.8955961856
 31
0.0
 11
-7.4124507721
 21
5.9543862195
 31
0.0
 11
-7.3461977437
 21
6.0012400518
 31
0.0
 11
-7.263070289
 21
6.0316433296
 31
0.0
 11
-7.1710789427
 21
6.0426669753
 31
0.0
  0
SPLINE
  5
66C
100
AcDbEntity
  8
ASSI
100
AcDbSpline
 62
253
  6
CONTINUOUS
 70
0
 71
3
 72
12
 73
8
 74
6
 42
0.0000001
 43
0.0000001
 44
0.0000000001
 12
0.0070145165
 22
0.4019838218
 32
0.0
 13
0.4020297069
 23
0.003508728
 33
0.0
 40
0.0
 40
0.0
 40
0.0
 40
0.0
 40
0.1664007686
 40
0.3475548033
 40
0.549388854
 40
0.7695487354
 40
1.0
 40
1.0
 40
1.0
 40
1.0
 10
6.8413093435
 20
5.1234281607
 30
0.0
 10
6.8416984172
 20
5.1457249663
 30
0.0
 10
6.8534787497
 20
5.1925501528
 30
0.0
 10
6.8991241007
 20
5.2522580484
 30
0.0
 10
6.9667163712
 20
5.2985669316
 30
0.0
 10
7.0498291075
 20
5.3281936206
 30
0.0
 10
7.1103809006
 20
5.3352906648
 30
0.0
 10
7.1412636521
 20
5.335560195
 30
0.0
 11
6.8413093435
 21
5.1234281607
 31
0.0
 11
6.8568975078
 21
5.18848736
 31
0.0
 11
6.8998892774
 21
5.2472769781
 31
0.0
 11
6.9661416506
 21
5.2941316166
 31
0.0
 11
7.0492700631
 21
5.3245360192
 31
0.0
 11
7.1412636521
 21
5.335560195
 31
0.0
  0
SPLINE
  5
66D
100
AcDbEntity
  8
ASSI
100
AcDbSpline
 62
253
  6
CONTINUOUS
 70
0
 71
3
 72
12
 73
8
 74
6
 42
0.0000001
 43
0.0000001
 44
0.0000000001
 12
0.0070145164
 22
0.4019837961
 32
0.0
 13
0.4020296812
 23
0.0035087308
 33
0.0
 40
0.0
 40
0.0
 40
0.0
 40
0.0
 40
0.1664062852
 40
0.3475634824
 40
0.549397719
 40
0.769554416
 40
1.0
 40
1.0
 40
1.0
 40
1.0
 10
6.8289667487
 20
5.8305349419
 30
0.0
 10
6.8293558353
 20
5.8528324853
 30
0.0
 10
6.8411368605
 20
5.899658847
 30
0.0
 10
6.8867838341
 20
5.9593670278
 30
0.0
 10
6.9543766597
 20
6.0056750698
 30
0.0
 10
7.0374884828
 20
6.0353007079
 30
0.0
 10
7.0980390691
 20
6.0423974515
 30
0.0
 10
7.1289210573
 20
6.0426669753
 30
0.0
 11
6.8289667487
 21
5.8305349419
 31
0.0
 11
6.8445558805
 21
5.8955961856
 31
0.0
 11
6.8875492279
 21
5.9543862195
 31
0.0
 11
6.9538022563
 21
6.0012400518
 31
0.0
 11
7.036929711
 21
6.0316433296
 31
0.0
 11
7.1289210573
 21
6.0426669753
 31
0.0
  0
SPLINE
  5
66E
100
AcDbEntity
  8
ASSI
100
AcDbSpline
 62
253
  6
CONTINUOUS
 70
0
 71
3
 72
12
 73
8
 74
6
 42
0.0000001
 43
0.0000001
 44
0.0000000001
 12
-0.0070145166
 22
0.4019838217
 32
0.0
 13
-0.4020297068
 23
0.0035087299
 33
0.0
 40
0.0
 40
0.0
 40
0.0
 40
0.0
 40
0.1664007688
 40
0.3475548035
 40
0.549388854
 40
0.7695487352
 40
1.0
 40
1.0
 40
1.0
 40
1.0
 10
7.6310770557
 20
5.8305349419
 30
0.0
 10
7.6306879821
 20
5.8528317475
 30
0.0
 10
7.6189076495
 20
5.899656934
 30
0.0
 10
7.5732622986
 20
5.9593648296
 30
0.0
 10
7.505670028
 20
6.0056737128
 30
0.0
 10
7.4225572917
 20
6.0353004014
 30
0.0
 10
7.3620054987
 20
6.0423974458
 30
0.0
 10
7.3311227472
 20
6.0426669762
 30
0.0
 11
7.6310770557
 21
5.8305349419
 31
0.0
 11
7.6154888914
 21
5.8955941412
 31
0.0
 11
7.5724971218
 21
5.9543837593
 31
0.0
 11
7.5062447487
 21
6.0012383977
 31
0.0
 11
7.4231163361
 21
6.0316428002
 31
0.0
 11
7.3311227472
 21
6.0426669762
 31
0.0
  0
SPLINE
  5
66F
100
AcDbEntity
  8
ASSI
100
AcDbSpline
 62
253
  6
CONTINUOUS
 70
0
 71
3
 72
12
 73
8
 74
6
 42
0.0000001
 43
0.0000001
 44
0.0000000001
 12
-0.0070145118
 22
0.401983857
 32
0.0
 13
-0.402029743
 23
0.0035086199
 33
0.0
 40
0.0
 40
0.0
 40
0.0
 40
0.0
 40
0.1663980738
 40
0.3475504099
 40
0.549384185
 40
0.7695456059
 40
1.0
 40
1.0
 40
1.0
 40
1.0
 10
7.6187344609
 20
5.1234281607
 30
0.0
 10
7.6183453939
 20
5.1457246072
 30
0.0
 10
7.6065654123
 20
5.1925492021
 30
0.0
 10
7.5609209036
 20
5.252256941
 30
0.0
 10
7.4933289599
 20
5.2985662399
 30
0.0
 10
7.4102157605
 20
5.328193475
 30
0.0
 10
7.349663326
 20
5.3352906692
 30
0.0
 10
7.3187801524
 20
5.3355601948
 30
0.0
 11
7.6187344609
 21
5.1234281607
 31
0.0
 11
7.6031467764
 21
5.1884863668
 31
0.0
 11
7.5601558304
 21
5.2472757492
 31
0.0
 11
7.4939038537
 21
5.2941307686
 31
0.0
 11
7.4107749839
 21
5.3245357455
 31
0.0
 11
7.3187801524
 21
5.3355601948
 31
0.0
  0
SPLINE
  5
670
100
AcDbEntity
  8
ASSI
100
AcDbSpline
 62
253
  6
CONTINUOUS
 70
0
 71
3
 72
13
 73
9
 74
7
 42
0.0000001
 43
0.0000001
 44
0.0000000001
 12
0.1860199012
 22
0.4640617589
 32
0.0
 13
0.0000037631
 23
0.4999567178
 33
0.0
 40
0.0
 40
0.0
 40
0.0
 40
0.0
 40
0.0378218875
 40
0.1397846932
 40
0.2991078666
 40
0.5051686897
 40
0.7442254983
 40
1.0
 40
1.0
 40
1.0
 40
1.0
 10
7.1388560597
 20
3.0979934345
 30
0.0
 10
7.1412012676
 20
3.1038439984
 30
0.0
 10
7.1377794773
 20
3.1281268127
 30
0.0
 10
7.1420769554
 20
3.1770823739
 30
0.0
 10
7.140830721
 20
3.2554286486
 30
0.0
 10
7.1420875478
 20
3.3559744246
 30
0.0
 10
7.1421503698
 20
3.4728427275
 30
0.0
 10
7.1422858253
 20
3.5552918887
 30
0.0
 10
7.1422861461
 20
3.5979172821
 30
0.0
 11
7.1388560597
 21
3.0979934345
 31
0.0
 11
7.1397471228
 21
3.1168817348
 31
0.0
 11
7.1405750381
 21
3.167852001
 31
0.0
 11
7.1412850611
 21
3.2475035273
 31
0.0
 11
7.1418291363
 21
3.3505235834
 31
0.0
 11
7.1421701342
 21
3.4700411543
 31
0.0
 11
7.1422861461
 21
3.5979172821
 31
0.0
  0
SPLINE
  5
671
100
AcDbEntity
  8
ASSI
100
AcDbSpline
 62
253
  6
CONTINUOUS
 70
0
 71
3
 72
13
 73
9
 74
7
 42
0.0000001
 43
0.0000001
 44
0.0000000001
 12
0.0000037631
 22
-0.4999567178
 32
0.0
 13
0.1860199013
 23
-0.4640617589
 33
0.0
 40
0.0
 40
0.0
 40
0.0
 40
0.0
 40
0.2557745015
 40
0.4948313101
 40
0.7008921333
 40
0.8602153068
 40
0.9621781125
 40
1.0
 40
1.0
 40
1.0
 40
1.0
 10
7.3177576584
 20
3.5979172821
 30
0.0
 10
7.3177579792
 20
3.5552918887
 30
0.0
 10
7.3178934346
 20
3.4728427276
 30
0.0
 10
7.3179562566
 20
3.3559744246
 30
0.0
 10
7.3192130834
 20
3.2554286487
 30
0.0
 10
7.3179668491
 20
3.1770823739
 30
0.0
 10
7.3222643272
 20
3.1281268127
 30
0.0
 10
7.3188425368
 20
3.1038439984
 30
0.0
 10
7.3211877448
 20
3.0979934345
 30
0.0
 11
7.3177576584
 21
3.5979172821
 31
0.0
 11
7.3178736703
 21
3.4700411545
 31
0.0
 11
7.3182146682
 21
3.3505235835
 31
0.0
 11
7.3187587434
 21
3.2475035273
 31
0.0
 11
7.3194687664
 21
3.167852001
 31
0.0
 11
7.3202966816
 21
3.1168817348
 31
0.0
 11
7.3211877448
 21
3.0979934345
 31
0.0
  0
SPLINE
  5
672
100
AcDbEntity
  8
ASSI
100
AcDbSpline
 62
253
  6
CONTINUOUS
 70
0
 71
3
 72
13
 73
9
 74
7
 42
0.0000001
 43
0.0000001
 44
0.0000000001
 12
0.0000037631
 22
-0.4999567178
 32
0.0
 13
0.1860199013
 23
-0.4640617589
 33
0.0
 40
0.0
 40
0.0
 40
0.0
 40
0.0
 40
0.2557745015
 40
0.4948313101
 40
0.7008921333
 40
0.8602153068
 40
0.9621781125
 40
1.0
 40
1.0
 40
1.0
 40
1.0
 10
-6.9822423416
 20
3.5979172821
 30
0.0
 10
-6.9822420208
 20
3.5552918887
 30
0.0
 10
-6.9821065654
 20
3.4728427276
 30
0.0
 10
-6.9820437434
 20
3.3559744246
 30
0.0
 10
-6.9807869166
 20
3.2554286487
 30
0.0
 10
-6.9820331509
 20
3.1770823739
 30
0.0
 10
-6.9777356728
 20
3.1281268127
 30
0.0
 10
-6.9811574632
 20
3.1038439984
 30
0.0
 10
-6.9788122552
 20
3.0979934345
 30
0.0
 11
-6.9822423416
 21
3.5979172821
 31
0.0
 11
-6.9821263297
 21
3.4700411545
 31
0.0
 11
-6.9817853318
 21
3.3505235835
 31
0.0
 11
-6.9812412566
 21
3.2475035273
 31
0.0
 11
-6.9805312336
 21
3.167852001
 31
0.0
 11
-6.9797033184
 21
3.1168817348
 31
0.0
 11
-6.9788122552
 21
3.0979934345
 31
0.0
  0
SPLINE
  5
673
100
AcDbEntity
  8
ASSI
100
AcDbSpline
 62
253
  6
CONTINUOUS
 70
0
 71
3
 72
9
 73
5
 74
3
 42
0.0000001
 43
0.0000001
 44
0.0000000001
 12
0.0053452796
 22
-1.6468770511
 32
0.0
 13
0.0076765739
 23
-1.6468678343
 33
0.0
 40
0.0
 40
0.0
 40
0.0
 40
0.0
 40
0.500013719
 40
1.0
 40
1.0
 40
1.0
 40
1.0
 10
-4.1619251368
 20
5.612706085
 30
0.0
 10
-4.1610342324
 20
5.3382190453
 30
0.0
 10
-4.1590581522
 20
4.7892606418
 30
0.0
 10
-4.1566936156
 20
4.2403037741
 30
0.0
 10
-4.1554142218
 20
3.9658333328
 30
0.0
 11
-4.1619251368
 21
5.612706085
 31
0.0
 11
-4.1589609786
 21
4.7892459635
 31
0.0
 11
-4.1554142218
 21
3.9658333328
 31
0.0
  0
SPLINE
  5
674
100
AcDbEntity
  8
ASSI
100
AcDbSpline
 62
253
  6
CONTINUOUS
 70
0
 71
3
 72
9
 73
5
 74
3
 42
0.0000001
 43
0.0000001
 44
0.0000000001
 12
0.0076765739
 22
1.6468678343
 32
0.0
 13
0.0053452796
 23
1.6468770511
 33
0.0
 40
0.0
 40
0.0
 40
0.0
 40
0.0
 40
0.4999867127
 40
1.0
 40
1.0
 40
1.0
 40
1.0
 10
4.3154580262
 20
3.9658333328
 30
0.0
 10
4.3167374212
 20
4.2403040111
 30
0.0
 10
4.3191019576
 20
4.7892608788
 30
0.0
 10
4.3210780377
 20
5.3382192823
 30
0.0
 10
4.3219689413
 20
5.612706085
 30
0.0
 11
4.3154580262
 21
3.9658333328
 31
0.0
 11
4.3190047858
 21
4.7892466744
 31
0.0
 11
4.3219689413
 21
5.612706085
 31
0.0
  0
SPLINE
  5
675
100
AcDbEntity
  8
ASSI
100
AcDbSpline
 62
253
  6
CONTINUOUS
 70
0
 71
3
 72
13
 73
9
 74
7
 42
0.0000001
 43
0.0000001
 44
0.0000000001
 12
0.1860199012
 22
0.4640617589
 32
0.0
 13
0.0000037631
 23
0.4999567178
 33
0.0
 40
0.0
 40
0.0
 40
0.0
 40
0.0
 40
0.0378218875
 40
0.1397846932
 40
0.2991078666
 40
0.5051686897
 40
0.7442254983
 40
1.0
 40
1.0
 40
1.0
 40
1.0
 10
-7.1611439403
 20
3.0979934345
 30
0.0
 10
-7.1587987324
 20
3.1038439984
 30
0.0
 10
-7.1622205227
 20
3.1281268127
 30
0.0
 10
-7.1579230446
 20
3.1770823739
 30
0.0
 10
-7.159169279
 20
3.2554286486
 30
0.0
 10
-7.1579124522
 20
3.3559744246
 30
0.0
 10
-7.1578496302
 20
3.4728427275
 30
0.0
 10
-7.1577141747
 20
3.5552918887
 30
0.0
 10
-7.1577138539
 20
3.5979172821
 30
0.0
 11
-7.1611439403
 21
3.0979934345
 31
0.0
 11
-7.1602528772
 21
3.1168817348
 31
0.0
 11
-7.1594249619
 21
3.167852001
 31
0.0
 11
-7.1587149389
 21
3.2475035273
 31
0.0
 11
-7.1581708637
 21
3.3505235834
 31
0.0
 11
-7.1578298658
 21
3.4700411543
 31
0.0
 11
-7.1577138539
 21
3.5979172821
 31
0.0
  0
SPLINE
  5
676
100
AcDbEntity
  8
ASSI
100
AcDbSpline
 62
253
  6
CONTINUOUS
 70
0
 71
3
 72
11
 73
7
 74
5
 42
0.0000001
 43
0.0000001
 44
0.0000000001
 12
-0.0098331854
 22
0.5656207508
 32
0.0
 13
0.0000098444
 23
0.5657062181
 33
0.0
 40
0.0
 40
0.0
 40
0.0
 40
0.0
 40
0.2097951049
 40
0.4583292293
 40
0.7269157337
 40
1.0
 40
1.0
 40
1.0
 40
1.0
 10
6.8289667487
 20
5.8305349419
 30
0.0
 10
6.8282790973
 20
5.8700897635
 30
0.0
 10
6.8270699976
 20
5.9565084098
 30
0.0
 10
6.8258178643
 20
6.0935766635
 30
0.0
 10
6.8250477335
 20
6.2425829512
 30
0.0
 10
6.8248758765
 20
6.344725211
 30
0.0
 10
6.8248767726
 20
6.3962203668
 30
0.0
 11
6.8289667487
 21
5.8305349419
 31
0.0
 11
6.8272601131
 21
5.9492050661
 31
0.0
 11
6.8259417444
 21
6.0897961844
 31
0.0
 11
6.8251396582
 21
6.241735123
 31
0.0
 11
6.8248767726
 21
6.3962203668
 31
0.0
  0
SPLINE
  5
677
100
AcDbEntity
  8
ASSI
100
AcDbSpline
 62
253
  6
CONTINUOUS
 70
0
 71
3
 72
11
 73
7
 74
5
 42
0.0000001
 43
0.0000001
 44
0.0000000001
 12
-0.0000003835
 22
0.1414265542
 32
0.0
 13
-0.0024684792
 23
0.1414050099
 33
0.0
 40
0.0
 40
0.0
 40
0.0
 40
0.0
 40
0.2753968051
 40
0.5412973202
 40
0.7858857424
 40
1.0
 40
1.0
 40
1.0
 40
1.0
 10
6.8423318375
 20
4.9820068044
 30
0.0
 10
6.8423318023
 20
4.9949896115
 30
0.0
 10
6.842288885
 20
5.020507571
 30
0.0
 10
6.8420968589
 20
5.05755553
 30
0.0
 10
6.8417854891
 20
5.0917135745
 30
0.0
 10
6.8414855224
 20
5.1133358844
 30
0.0
 10
6.8413093435
 20
5.1234281607
 30
0.0
 11
6.8423318375
 21
4.9820068044
 31
0.0
 11
6.8422650052
 21
5.0209551683
 31
0.0
 11
6.8420659779
 21
5.0585600352
 31
0.0
 11
6.8417431495
 21
5.0931498265
 31
0.0
 11
6.8413093435
 21
5.1234281607
 31
0.0
  0
SPLINE
  5
678
100
AcDbEntity
  8
ASSI
100
AcDbSpline
 62
253
  6
CONTINUOUS
 70
0
 71
3
 72
13
 73
9
 74
7
 42
0.0000001
 43
0.0000001
 44
0.0000000001
 12
0.141041107
 22
0.141873385
 32
0.0
 13
0.0000012265
 23
0.2000516215
 33
0.0
 40
0.0
 40
0.0
 40
0.0
 40
0.0
 40
0.0379383612
 40
0.1398218345
 40
0.2991571384
 40
0.5055293226
 40
0.744720332
 40
1.0
 40
1.0
 40
1.0
 40
1.0
 10
6.8389017511
 20
3.3979477431
 30
0.0
 10
6.840685374
 20
3.399741891
 30
0.0
 10
6.8385498849
 20
3.4106265244
 30
0.0
 10
6.8416975965
 20
3.4291589662
 30
0.0
 10
6.8410531128
 20
3.4610698513
 30
0.0
 10
6.8420712707
 20
3.5011110843
 30
0.0
 10
6.8422164463
 20
3.5479456619
 30
0.0
 10
6.8423317332
 20
3.580894245
 30
0.0
 10
6.8423318375
 20
3.5979172821
 30
0.0
 11
6.8389017511
 21
3.3979477431
 31
0.0
 11
6.8397920452
 21
3.4054849754
 31
0.0
 11
6.8406202036
 21
3.4258500976
 31
0.0
 11
6.8413304757
 21
3.4577174691
 31
0.0
 11
6.8418749417
 21
3.4989989688
 31
0.0
 11
6.8422161228
 21
3.5468483017
 31
0.0
 11
6.8423318375
 21
3.5979172821
 31
0.0
  0
SPLINE
  5
679
100
AcDbEntity
  8
ASSI
100
AcDbSpline
 62
253
  6
CONTINUOUS
 70
0
 71
3
 72
13
 73
9
 74
7
 42
0.0000001
 43
0.0000001
 44
0.0000000001
 12
0.0000012265
 22
-0.2000516215
 32
0.0
 13
0.1410411064
 23
-0.1418733857
 33
0.0
 40
0.0
 40
0.0
 40
0.0
 40
0.0
 40
0.2552796677
 40
0.4944706773
 40
0.7008428616
 40
0.8601781655
 40
0.9620616388
 40
1.0
 40
1.0
 40
1.0
 40
1.0
 10
7.6177119669
 20
3.5979172821
 30
0.0
 10
7.6177120713
 20
3.580894245
 30
0.0
 10
7.6178273582
 20
3.5479456619
 30
0.0
 10
7.6179725338
 20
3.5011110843
 30
0.0
 10
7.6189906916
 20
3.4610698513
 30
0.0
 10
7.618346208
 20
3.4291589662
 30
0.0
 10
7.6214939195
 20
3.4106265244
 30
0.0
 10
7.6193584305
 20
3.399741891
 30
0.0
 10
7.6211420533
 20
3.3979477431
 30
0.0
 11
7.6177119669
 21
3.5979172821
 31
0.0
 11
7.6178276816
 21
3.5468483018
 31
0.0
 11
7.6181688627
 21
3.4989989688
 31
0.0
 11
7.6187133287
 21
3.4577174691
 31
0.0
 11
7.6194236009
 21
3.4258500976
 31
0.0
 11
7.6202517593
 21
3.4054849754
 31
0.0
 11
7.6211420533
 21
3.3979477431
 31
0.0
  0
SPLINE
  5
67A
100
AcDbEntity
  8
ASSI
100
AcDbSpline
 62
253
  6
CONTINUOUS
 70
0
 71
3
 72
11
 73
7
 74
5
 42
0.0000001
 43
0.0000001
 44
0.0000000001
 12
-0.0024684792
 22
-0.1414050099
 32
0.0
 13
-0.0000003835
 23
-0.1414265542
 33
0.0
 40
0.0
 40
0.0
 40
0.0
 40
0.0
 40
0.2141142612
 40
0.458702684
 40
0.7246031997
 40
1.0
 40
1.0
 40
1.0
 40
1.0
 10
7.6187344609
 20
5.1234281607
 30
0.0
 10
7.6185582821
 20
5.1133358843
 30
0.0
 10
7.6182583153
 20
5.0917135742
 30
0.0
 10
7.6179469456
 20
5.0575555294
 30
0.0
 10
7.6177549194
 20
5.0205075705
 30
0.0
 10
7.6177120021
 20
4.9949896113
 30
0.0
 10
7.6177119669
 20
4.9820068044
 30
0.0
 11
7.6187344609
 21
5.1234281607
 31
0.0
 11
7.6183006549
 21
5.093149826
 31
0.0
 11
7.6179778265
 21
5.0585600346
 31
0.0
 11
7.6177787992
 21
5.0209551676
 31
0.0
 11
7.6177119669
 21
4.9820068044
 31
0.0
  0
SPLINE
  5
67B
100
AcDbEntity
  8
ASSI
100
AcDbSpline
 62
253
  6
CONTINUOUS
 70
0
 71
3
 72
11
 73
7
 74
5
 42
0.0000001
 43
0.0000001
 44
0.0000000001
 12
0.0000096882
 22
-0.5657062181
 32
0.0
 13
-0.0098336718
 23
-0.5656207424
 33
0.0
 40
0.0
 40
0.0
 40
0.0
 40
0.0
 40
0.2730824888
 40
0.5416689789
 40
0.7902032012
 40
1.0
 40
1.0
 40
1.0
 40
1.0
 10
7.6351670318
 20
6.3962203668
 30
0.0
 10
7.6351679137
 20
6.3447255462
 30
0.0
 10
7.6349960796
 20
6.2425836243
 30
0.0
 10
7.6342259505
 20
6.0935776558
 30
0.0
 10
7.6329737955
 20
5.9565090673
 30
0.0
 10
7.6317647467
 20
5.8700900822
 30
0.0
 10
7.6310770557
 20
5.8305349419
 30
0.0
 11
7.6351670318
 21
6.3962203668
 31
0.0
 11
7.6349041508
 21
6.2417361285
 31
0.0
 11
7.634102067
 21
6.089797198
 31
0.0
 11
7.632783702
 21
5.9492060242
 31
0.0
 11
7.6310770557
 21
5.8305349419
 31
0.0
  0
SPLINE
  5
67C
100
AcDbEntity
  8
ASSI
100
AcDbSpline
 62
253
  6
CONTINUOUS
 70
0
 71
3
 72
13
 73
9
 74
7
 42
0.0000001
 43
0.0000001
 44
0.0000000001
 12
0.0000012265
 22
-0.2000516215
 32
0.0
 13
0.1410411064
 23
-0.1418733857
 33
0.0
 40
0.0
 40
0.0
 40
0.0
 40
0.0
 40
0.2552796677
 40
0.4944706773
 40
0.7008428616
 40
0.8601781655
 40
0.9620616388
 40
1.0
 40
1.0
 40
1.0
 40
1.0
 10
-6.6822880331
 20
3.5979172821
 30
0.0
 10
-6.6822879287
 20
3.580894245
 30
0.0
 10
-6.6821726418
 20
3.5479456619
 30
0.0
 10
-6.6820274662
 20
3.5011110843
 30
0.0
 10
-6.6810093084
 20
3.4610698513
 30
0.0
 10
-6.681653792
 20
3.4291589662
 30
0.0
 10
-6.6785060805
 20
3.4106265244
 30
0.0
 10
-6.6806415695
 20
3.399741891
 30
0.0
 10
-6.6788579467
 20
3.3979477431
 30
0.0
 11
-6.6822880331
 21
3.5979172821
 31
0.0
 11
-6.6821723184
 21
3.5468483018
 31
0.0
 11
-6.6818311373
 21
3.4989989688
 31
0.0
 11
-6.6812866713
 21
3.4577174691
 31
0.0
 11
-6.6805763991
 21
3.4258500976
 31
0.0
 11
-6.6797482407
 21
3.4054849754
 31
0.0
 11
-6.6788579467
 21
3.3979477431
 31
0.0
  0
SPLINE
  5
67D
100
AcDbEntity
  8
ASSI
100
AcDbSpline
 62
253
  6
CONTINUOUS
 70
0
 71
3
 72
11
 73
7
 74
5
 42
0.0000001
 43
0.0000001
 44
0.0000000001
 12
-0.0024684792
 22
-0.1414050099
 32
0.0
 13
-0.0000003835
 23
-0.1414265542
 33
0.0
 40
0.0
 40
0.0
 40
0.0
 40
0.0
 40
0.2141142612
 40
0.458702684
 40
0.7246031997
 40
1.0
 40
1.0
 40
1.0
 40
1.0
 10
-6.6812655391
 20
5.1234281607
 30
0.0
 10
-6.6814417179
 20
5.1133358843
 30
0.0
 10
-6.6817416847
 20
5.0917135742
 30
0.0
 10
-6.6820530544
 20
5.0575555294
 30
0.0
 10
-6.6822450806
 20
5.0205075705
 30
0.0
 10
-6.6822879979
 20
4.9949896113
 30
0.0
 10
-6.6822880331
 20
4.9820068044
 30
0.0
 11
-6.6812655391
 21
5.1234281607
 31
0.0
 11
-6.6816993451
 21
5.093149826
 31
0.0
 11
-6.6820221735
 21
5.0585600346
 31
0.0
 11
-6.6822212008
 21
5.0209551676
 31
0.0
 11
-6.6822880331
 21
4.9820068044
 31
0.0
  0
SPLINE
  5
67E
100
AcDbEntity
  8
ASSI
100
AcDbSpline
 62
253
  6
CONTINUOUS
 70
0
 71
3
 72
11
 73
7
 74
5
 42
0.0000001
 43
0.0000001
 44
0.0000000001
 12
0.0000096882
 22
-0.5657062181
 32
0.0
 13
-0.0098336718
 23
-0.5656207424
 33
0.0
 40
0.0
 40
0.0
 40
0.0
 40
0.0
 40
0.2730824888
 40
0.5416689789
 40
0.7902032012
 40
1.0
 40
1.0
 40
1.0
 40
1.0
 10
-6.6648329682
 20
6.3962203668
 30
0.0
 10
-6.6648320863
 20
6.3447255462
 30
0.0
 10
-6.6650039204
 20
6.2425836243
 30
0.0
 10
-6.6657740495
 20
6.0935776558
 30
0.0
 10
-6.6670262045
 20
5.9565090673
 30
0.0
 10
-6.6682352533
 20
5.8700900822
 30
0.0
 10
-6.6689229443
 20
5.8305349419
 30
0.0
 11
-6.6648329682
 21
6.3962203668
 31
0.0
 11
-6.6650958492
 21
6.2417361285
 31
0.0
 11
-6.665897933
 21
6.089797198
 31
0.0
 11
-6.667216298
 21
5.9492060242
 31
0.0
 11
-6.6689229443
 21
5.8305349419
 31
0.0
  0
SPLINE
  5
67F
100
AcDbEntity
  8
ASSI
100
AcDbSpline
 62
253
  6
CONTINUOUS
 70
0
 71
3
 72
11
 73
7
 74
5
 42
0.0000001
 43
0.0000001
 44
0.0000000001
 12
-0.0098331854
 22
0.5656207508
 32
0.0
 13
0.0000098444
 23
0.5657062181
 33
0.0
 40
0.0
 40
0.0
 40
0.0
 40
0.0
 40
0.2097951049
 40
0.4583292293
 40
0.7269157337
 40
1.0
 40
1.0
 40
1.0
 40
1.0
 10
-7.4710332513
 20
5.8305349419
 30
0.0
 10
-7.4717209027
 20
5.8700897635
 30
0.0
 10
-7.4729300024
 20
5.9565084098
 30
0.0
 10
-7.4741821357
 20
6.0935766635
 30
0.0
 10
-7.4749522665
 20
6.2425829512
 30
0.0
 10
-7.4751241235
 20
6.344725211
 30
0.0
 10
-7.4751232274
 20
6.3962203668
 30
0.0
 11
-7.4710332513
 21
5.8305349419
 31
0.0
 11
-7.4727398869
 21
5.9492050661
 31
0.0
 11
-7.4740582556
 21
6.0897961844
 31
0.0
 11
-7.4748603418
 21
6.241735123
 31
0.0
 11
-7.4751232274
 21
6.3962203668
 31
0.0
  0
SPLINE
  5
680
100
AcDbEntity
  8
ASSI
100
AcDbSpline
 62
253
  6
CONTINUOUS
 70
0
 71
3
 72
11
 73
7
 74
5
 42
0.0000001
 43
0.0000001
 44
0.0000000001
 12
-0.0000003835
 22
0.1414265542
 32
0.0
 13
-0.0024684792
 23
0.1414050099
 33
0.0
 40
0.0
 40
0.0
 40
0.0
 40
0.0
 40
0.2753968051
 40
0.5412973202
 40
0.7858857424
 40
1.0
 40
1.0
 40
1.0
 40
1.0
 10
-7.4576681625
 20
4.9820068044
 30
0.0
 10
-7.4576681977
 20
4.9949896115
 30
0.0
 10
-7.457711115
 20
5.020507571
 30
0.0
 10
-7.4579031411
 20
5.05755553
 30
0.0
 10
-7.4582145109
 20
5.0917135745
 30
0.0
 10
-7.4585144776
 20
5.1133358844
 30
0.0
 10
-7.4586906565
 20
5.1234281607
 30
0.0
 11
-7.4576681625
 21
4.9820068044
 31
0.0
 11
-7.4577349948
 21
5.0209551683
 31
0.0
 11
-7.4579340221
 21
5.0585600352
 31
0.0
 11
-7.4582568505
 21
5.0931498265
 31
0.0
 11
-7.4586906565
 21
5.1234281607
 31
0.0
  0
SPLINE
  5
681
100
AcDbEntity
  8
ASSI
100
AcDbSpline
 62
253
  6
CONTINUOUS
 70
0
 71
3
 72
13
 73
9
 74
7
 42
0.0000001
 43
0.0000001
 44
0.0000000001
 12
0.141041107
 22
0.141873385
 32
0.0
 13
0.0000012265
 23
0.2000516215
 33
0.0
 40
0.0
 40
0.0
 40
0.0
 40
0.0
 40
0.0379383612
 40
0.1398218345
 40
0.2991571384
 40
0.5055293226
 40
0.744720332
 40
1.0
 40
1.0
 40
1.0
 40
1.0
 10
-7.4610982489
 20
3.3979477431
 30
0.0
 10
-7.459314626
 20
3.399741891
 30
0.0
 10
-7.4614501151
 20
3.4106265244
 30
0.0
 10
-7.4583024035
 20
3.4291589662
 30
0.0
 10
-7.4589468872
 20
3.4610698513
 30
0.0
 10
-7.4579287293
 20
3.5011110843
 30
0.0
 10
-7.4577835537
 20
3.5479456619
 30
0.0
 10
-7.4576682668
 20
3.580894245
 30
0.0
 10
-7.4576681625
 20
3.5979172821
 30
0.0
 11
-7.4610982489
 21
3.3979477431
 31
0.0
 11
-7.4602079548
 21
3.4054849754
 31
0.0
 11
-7.4593797964
 21
3.4258500976
 31
0.0
 11
-7.4586695243
 21
3.4577174691
 31
0.0
 11
-7.4581250583
 21
3.4989989688
 31
0.0
 11
-7.4577838772
 21
3.5468483017
 31
0.0
 11
-7.4576681625
 21
3.5979172821
 31
0.0
  0
SPLINE
  5
682
100
AcDbEntity
  8
ASSI
100
AcDbSpline
 62
253
  6
CONTINUOUS
 70
0
 71
3
 72
9
 73
5
 74
3
 42
0.0000001
 43
0.0000001
 44
0.0000000001
 12
0.0003603392
 22
-6.1661325534
 32
0.0
 13
0.0019281047
 23
-6.1661322625
 33
0.0
 40
0.0
 40
0.0
 40
0.0
 40
0.0
 40
0.5000355593
 40
1.0
 40
1.0
 40
1.0
 40
1.0
 10
11.2031688235
 20
7.9716077277
 30
0.0
 10
11.2032288843
 20
6.9438458809
 30
0.0
 10
11.2034796304
 20
4.8884683687
 30
0.0
 10
11.2039916568
 20
2.8330909049
 30
0.0
 10
11.2043129848
 20
1.8054752824
 30
0.0
 11
11.2031688235
 21
7.9716077277
 31
0.0
 11
11.2035449776
 21
4.888322205
 31
0.0
 11
11.2043129848
 21
1.8054752824
 31
0.0
  0
LINE
  5
683
100
AcDbEntity
  8
ASSI
100
AcDbLine
 62
253
  6
CONTINUOUS
 10
11.2045530922
 20
1.0729919964
 11
11.2053506734
 21
-0.9955624063
  0
LINE
  5
684
100
AcDbEntity
  8
ASSI
100
AcDbLine
 62
253
  6
CONTINUOUS
 10
11.2072928164
 20
-4.8242682794
 11
11.2080732777
 21
-6.0982850106
  0
LINE
  5
685
100
AcDbEntity
  8
ASSI
100
AcDbLine
 62
253
  6
CONTINUOUS
 10
11.2085471635
 20
-6.8230139323
 11
11.2088975761
 21
-7.338700333
  0
LINE
  5
686
100
AcDbEntity
  8
ASSI
100
AcDbLine
 62
253
  6
CONTINUOUS
 10
-11.0480294733
 20
-6.0982850106
 11
-11.0472490119
 21
-4.8242682794
  0
LINE
  5
687
100
AcDbEntity
  8
ASSI
100
AcDbLine
 62
253
  6
CONTINUOUS
 10
-11.0488537716
 20
-7.338700333
 11
-11.048503359
 21
-6.8230139323
  0
LINE
  5
688
100
AcDbEntity
  8
ASSI
100
AcDbLine
 62
253
  6
CONTINUOUS
 10
-11.045306869
 20
-0.9955624063
 11
-11.0445092877
 21
1.0729919964
  0
SPLINE
  5
689
100
AcDbEntity
  8
ASSI
100
AcDbSpline
 62
253
  6
CONTINUOUS
 70
0
 71
3
 72
9
 73
5
 74
3
 42
0.0000001
 43
0.0000001
 44
0.0000000001
 12
0.0019281047
 22
6.1661322625
 32
0.0
 13
0.0003603392
 23
6.1661325534
 33
0.0
 40
0.0
 40
0.0
 40
0.0
 40
0.0
 40
0.4999644622
 40
1.0
 40
1.0
 40
1.0
 40
1.0
 10
-11.0442691803
 20
1.8054752824
 30
0.0
 10
-11.0439478524
 20
2.8330909491
 30
0.0
 10
-11.0434358259
 20
4.8884684128
 30
0.0
 10
-11.0431850798
 20
6.9438459251
 30
0.0
 10
-11.043125019
 20
7.9716077277
 30
0.0
 11
-11.0442691803
 21
1.8054752824
 31
0.0
 11
-11.0435011731
 21
4.8883223376
 31
0.0
 11
-11.043125019
 21
7.9716077277
 31
0.0
  0
SPLINE
  5
68A
100
AcDbEntity
  8
ASSI
100
AcDbSpline
 62
7
  6
CONTINUOUS
 70
0
 71
3
 72
12
 73
8
 74
6
 42
0.0000001
 43
0.0000001
 44
0.0000000001
 12
0.3000709641
 22
-0.0
 32
0.0
 13
0.2121822176
 23
0.2121822095
 33
0.0
 40
0.0
 40
0.0
 40
0.0
 40
0.0
 40
0.3041016913
 40
0.5820964833
 40
0.8023227261
 40
0.9471197879
 40
1.0
 40
1.0
 40
1.0
 40
1.0
 10
10.9032147571
 20
7.9664628697
 30
0.0
 10
10.9336321197
 20
7.9664628697
 30
0.0
 10
10.9920104056
 20
7.9663315408
 30
0.0
 10
11.071656224
 20
7.9680964999
 30
0.0
 10
11.1375218531
 20
7.9662705718
 30
0.0
 10
11.1762618543
 20
7.9730046114
 30
0.0
 10
11.1994287433
 20
7.9678676476
 30
0.0
 10
11.2031688235
 20
7.9716077277
 30
0.0
 11
10.9032147571
 21
7.9664628697
 31
0.0
 11
10.9944665075
 21
7.9667109788
 31
0.0
 11
11.0778814705
 21
7.9674418927
 31
0.0
 11
11.1439552619
 21
7.9685746764
 31
0.0
 11
11.187380595
 21
7.9700204554
 31
0.0
 11
11.2031688235
 21
7.9716077277
 31
0.0
  0
SPLINE
  5
68B
100
AcDbEntity
  8
ASSI
100
AcDbSpline
 62
7
  6
CONTINUOUS
 70
0
 71
3
 72
12
 73
8
 74
6
 42
0.0000001
 43
0.0000001
 44
0.0000000001
 12
0.2121822176
 22
-0.2121822095
 32
0.0
 13
0.3000709641
 23
0.0
 33
0.0
 40
0.0
 40
0.0
 40
0.0
 40
0.0
 40
0.0528802121
 40
0.1976772739
 40
0.4179035167
 40
0.6958983087
 40
1.0
 40
1.0
 40
1.0
 40
1.0
 10
-11.043125019
 20
7.9716077277
 30
0.0
 10
-11.0393849388
 20
7.9678676476
 30
0.0
 10
-11.0162180499
 20
7.9730046114
 30
0.0
 10
-10.9774780486
 20
7.9662705718
 30
0.0
 10
-10.9116124195
 20
7.9680964999
 30
0.0
 10
-10.8319666012
 20
7.9663315408
 30
0.0
 10
-10.7735883152
 20
7.9664628697
 30
0.0
 10
-10.7431709526
 20
7.9664628697
 30
0.0
 11
-11.043125019
 21
7.9716077277
 31
0.0
 11
-11.0273367906
 21
7.9700204554
 31
0.0
 11
-10.9839114574
 21
7.9685746764
 31
0.0
 11
-10.9178376661
 21
7.9674418927
 31
0.0
 11
-10.834422703
 21
7.9667109788
 31
0.0
 11
-10.7431709526
 21
7.9664628697
 31
0.0
  0
SPLINE
  5
68C
100
AcDbEntity
  8
ASSI
100
AcDbSpline
 62
7
  6
CONTINUOUS
 70
0
 71
3
 72
12
 73
8
 74
6
 42
0.0000001
 43
0.0000001
 44
0.0000000001
 12
0.3000740987
 22
-0.0
 32
0.0
 13
0.2121856528
 23
0.2121832073
 33
0.0
 40
0.0
 40
0.0
 40
0.0
 40
0.0
 40
0.3040972291
 40
0.5820915378
 40
0.8023192843
 40
0.9471184771
 40
1.0
 40
1.0
 40
1.0
 40
1.0
 10
10.9073356225
 20
-4.8294133451
 30
0.0
 10
10.9377528564
 20
-4.8294133451
 30
0.0
 10
10.9961312514
 20
-4.829544661
 30
0.0
 10
11.0757775737
 20
-4.8277796976
 30
0.0
 10
11.141644183
 20
-4.8296055862
 30
0.0
 10
11.1803850975
 20
-4.8228714468
 30
0.0
 10
11.2035525829
 20
-4.8280084698
 30
0.0
 10
11.2072928164
 20
-4.8242682794
 30
0.0
 11
10.9073356225
 21
-4.8294133451
 31
0.0
 11
10.9985869871
 21
-4.8291652305
 31
0.0
 11
11.0820026763
 21
-4.8284342946
 31
0.0
 11
11.1480776086
 21
-4.8273014684
 31
0.0
 11
11.1915040336
 21
-4.8258556277
 31
0.0
 11
11.2072928164
 21
-4.8242682794
 31
0.0
  0
SPLINE
  5
68D
100
AcDbEntity
  8
ASSI
100
AcDbSpline
 62
7
  6
CONTINUOUS
 70
0
 71
3
 72
12
 73
8
 74
6
 42
0.0000001
 43
0.0000001
 44
0.0000000001
 12
0.2121856528
 22
-0.2121832073
 32
0.0
 13
0.3000740987
 23
0.0
 33
0.0
 40
0.0
 40
0.0
 40
0.0
 40
0.0
 40
0.0528815229
 40
0.1976807157
 40
0.4179084622
 40
0.6959027709
 40
1.0
 40
1.0
 40
1.0
 40
1.0
 10
-11.0472490119
 20
-4.8242682794
 30
0.0
 10
-11.0435087785
 20
-4.8280084698
 30
0.0
 10
-11.020341293
 20
-4.8228714468
 30
0.0
 10
-10.9816003786
 20
-4.8296055862
 30
0.0
 10
-10.9157337693
 20
-4.8277796976
 30
0.0
 10
-10.836087447
 20
-4.829544661
 30
0.0
 10
-10.777709052
 20
-4.8294133451
 30
0.0
 10
-10.747291818
 20
-4.8294133451
 30
0.0
 11
-11.0472490119
 21
-4.8242682794
 31
0.0
 11
-11.0314602292
 21
-4.8258556277
 31
0.0
 11
-10.9880338042
 21
-4.8273014684
 31
0.0
 11
-10.9219588718
 21
-4.8284342946
 31
0.0
 11
-10.8385431826
 21
-4.8291652305
 31
0.0
 11
-10.747291818
 21
-4.8294133451
 31
0.0
  0
SPLINE
  5
68E
100
AcDbEntity
  8
ASSI
100
AcDbSpline
 62
7
  6
CONTINUOUS
 70
0
 71
3
 72
12
 73
8
 74
6
 42
0.0000001
 43
0.0000001
 44
0.0000000001
 12
-0.2121859816
 22
0.212186588
 32
0.0
 13
-0.3000767217
 23
0.0
 33
0.0
 40
0.0
 40
0.0
 40
0.0
 40
0.0
 40
0.0529127559
 40
0.197756379
 40
0.4180080058
 40
0.6959861204
 40
1.0
 40
1.0
 40
1.0
 40
1.0
 10
11.2053506734
 20
-0.9955624063
 30
0.0
 10
11.2016082251
 20
-0.9918199473
 30
0.0
 10
11.1784316111
 20
-0.9969578448
 30
0.0
 10
11.1396809833
 20
-0.990222411
 30
0.0
 10
11.073808675
 20
-0.9920472056
 30
0.0
 10
10.9941690477
 20
-0.9902824094
 30
0.0
 10
10.9358001786
 20
-0.9904134992
 30
0.0
 10
10.9053910158
 20
-0.9904134992
 30
0.0
 11
11.2053506734
 21
-0.9955624063
 31
0.0
 11
11.1895524943
 21
-0.9939734416
 31
0.0
 11
11.1461123876
 21
-0.9925264526
 31
0.0
 11
11.0800297226
 21
-0.9913929232
 31
0.0
 11
10.9966181666
 21
-0.9906616631
 31
0.0
 11
10.9053910158
 21
-0.9904134992
 31
0.0
  0
SPLINE
  5
68F
100
AcDbEntity
  8
ASSI
100
AcDbSpline
 62
7
  6
CONTINUOUS
 70
0
 71
3
 72
12
 73
8
 74
6
 42
0.0000001
 43
0.0000001
 44
0.0000000001
 12
-0.3000767217
 22
-0.0
 32
0.0
 13
-0.2121859816
 23
-0.212186588
 33
0.0
 40
0.0
 40
0.0
 40
0.0
 40
0.0
 40
0.3040138796
 40
0.5819919942
 40
0.802243621
 40
0.9470872441
 40
1.0
 40
1.0
 40
1.0
 40
1.0
 10
-10.7453472113
 20
-0.9904134992
 30
0.0
 10
-10.7757563741
 20
-0.9904134992
 30
0.0
 10
-10.8341252432
 20
-0.9902824094
 30
0.0
 10
-10.9137648705
 20
-0.9920472056
 30
0.0
 10
-10.9796371789
 20
-0.990222411
 30
0.0
 10
-11.0183878066
 20
-0.9969578448
 30
0.0
 10
-11.0415644206
 20
-0.9918199473
 30
0.0
 10
-11.045306869
 20
-0.9955624063
 30
0.0
 11
-10.7453472113
 21
-0.9904134992
 31
0.0
 11
-10.8365743621
 21
-0.9906616631
 31
0.0
 11
-10.9199859181
 21
-0.9913929232
 31
0.0
 11
-10.9860685831
 21
-0.9925264526
 31
0.0
 11
-11.0295086898
 21
-0.9939734416
 31
0.0
 11
-11.045306869
 21
-0.9955624063
 31
0.0
  0
SPLINE
  5
690
100
AcDbEntity
  8
ASSI
100
AcDbSpline
 62
7
  6
CONTINUOUS
 70
0
 71
3
 72
12
 73
8
 74
6
 42
0.0000001
 43
0.0000001
 44
0.0000000001
 12
0.2121872725
 22
-0.2121835264
 32
0.0
 13
0.3000754696
 23
0.0
 33
0.0
 40
0.0
 40
0.0
 40
0.0
 40
0.0
 40
0.0528851833
 40
0.1976896626
 40
0.4179203758
 40
0.6959128578
 40
1.0
 40
1.0
 40
1.0
 40
1.0
 10
-11.048503359
 20
-6.8230139323
 30
0.0
 10
-11.0447628381
 20
-6.8267543872
 30
0.0
 10
-11.0215942246
 20
-6.8216172674
 30
0.0
 10
-10.9828519825
 20
-6.8283515612
 30
0.0
 10
-10.9169844537
 20
-6.8265258046
 30
0.0
 10
-10.8373386359
 20
-6.8282907496
 30
0.0
 10
-10.7789611768
 20
-6.8281594625
 30
0.0
 10
-10.7485448128
 20
-6.8281594625
 30
0.0
 11
-11.048503359
 21
-6.8230139323
 31
0.0
 11
-11.0327134187
 21
-6.824601472
 31
0.0
 11
-10.9892852125
 21
-6.8260474513
 31
0.0
 11
-10.9232090893
 21
-6.827180364
 31
0.0
 11
-10.8397935675
 21
-6.8279113406
 31
0.0
 11
-10.7485448128
 21
-6.8281594625
 31
0.0
  0
SPLINE
  5
691
100
AcDbEntity
  8
ASSI
100
AcDbSpline
 62
7
  6
CONTINUOUS
 70
0
 71
3
 72
12
 73
8
 74
6
 42
0.0000001
 43
0.0000001
 44
0.0000000001
 12
-0.300081786
 22
0.0
 32
0.0
 13
-0.2121906568
 23
-0.2121890748
 33
0.0
 40
0.0
 40
0.0
 40
0.0
 40
0.0
 40
0.3039485293
 40
0.5819142421
 40
0.8021848151
 40
0.9470630692
 40
1.0
 40
1.0
 40
1.0
 40
1.0
 10
-10.7480648748
 20
-6.093133088
 30
0.0
 10
-10.778468014
 20
-6.093133088
 30
0.0
 10
-10.8368300249
 20
-6.0930021794
 30
0.0
 10
-10.916465267
 20
-6.0947668502
 30
0.0
 10
-10.9823426985
 20
-6.092942912
 30
0.0
 10
-11.0211013814
 20
-6.0996793587
 30
0.0
 10
-11.0442852326
 20
-6.0945407978
 30
0.0
 10
-11.0480294733
 20
-6.0982850106
 30
0.0
 11
-10.7480648748
 21
-6.093133088
 31
0.0
 11
-10.8392739546
 21
-6.0933812944
 31
0.0
 11
-10.9226831944
 21
-6.0941128129
 31
0.0
 11
-10.9887726517
 21
-6.0952468985
 31
0.0
 11
-11.0322238602
 21
-6.0966947883
 31
0.0
 11
-11.0480294733
 21
-6.0982850106
 31
0.0
  0
SPLINE
  5
692
100
AcDbEntity
  8
ASSI
100
AcDbSpline
 62
7
  6
CONTINUOUS
 70
0
 71
3
 72
12
 73
8
 74
6
 42
0.0000001
 43
0.0000001
 44
0.0000000001
 12
0.212182242
 22
-0.2121828612
 32
0.0
 13
0.3000714422
 23
-0.0
 33
0.0
 40
0.0
 40
0.0
 40
0.0
 40
0.0
 40
0.0528761536
 40
0.1976675351
 40
0.4178908253
 40
0.6958877974
 40
1.0
 40
1.0
 40
1.0
 40
1.0
 10
-11.0445092877
 20
1.0729919964
 30
0.0
 10
-11.0407694941
 20
1.0692521918
 30
0.0
 10
-11.0176036967
 20
1.0743890789
 30
0.0
 10
-10.9788648484
 20
1.0676551653
 30
0.0
 10
-10.9129997374
 20
1.0694812511
 30
0.0
 10
-10.8333528448
 20
1.0677162608
 30
0.0
 10
-10.7749731853
 20
1.0678476204
 30
0.0
 10
-10.7445547229
 20
1.0678476204
 30
0.0
 11
-11.0445092877
 21
1.0729919964
 31
0.0
 11
-11.0287222371
 21
1.0714049299
 31
0.0
 11
-10.9852985354
 21
1.0699592949
 31
0.0
 11
-10.9192255234
 21
1.0688265981
 31
0.0
 11
-10.8358097728
 21
1.0680957234
 31
0.0
 11
-10.7445547229
 21
1.0678476204
 31
0.0
  0
SPLINE
  5
693
100
AcDbEntity
  8
ASSI
100
AcDbSpline
 62
7
  6
CONTINUOUS
 70
0
 71
3
 72
12
 73
8
 74
6
 42
0.0000001
 43
0.0000001
 44
0.0000000001
 12
-0.3000746033
 22
-0.0
 32
0.0
 13
-0.2121845123
 23
-0.2121850614
 33
0.0
 40
0.0
 40
0.0
 40
0.0
 40
0.0
 40
0.3040426971
 40
0.5820262833
 40
0.8022695576
 40
0.9470979026
 40
1.0
 40
1.0
 40
1.0
 40
1.0
 10
-10.7443115865
 20
1.8106228595
 30
0.0
 10
-10.7747234171
 20
1.8106228595
 30
0.0
 10
-10.833095332
 20
1.8107540277
 30
0.0
 10
-10.9127369276
 20
1.8089891792
 30
0.0
 10
-10.9786069925
 20
1.8108143441
 30
0.0
 10
-11.0173541013
 20
1.8040793716
 30
0.0
 10
-11.0405275117
 20
1.8092169606
 30
0.0
 10
-11.0442691803
 20
1.8054752824
 30
0.0
 11
-10.7443115865
 21
1.8106228595
 31
0.0
 11
-10.8355467408
 21
1.8103747138
 31
0.0
 11
-10.9189593508
 21
1.8096435677
 31
0.0
 11
-10.9850390466
 21
1.8085102835
 31
0.0
 11
-11.0284742724
 21
1.807063692
 31
0.0
 11
-11.0442691803
 21
1.8054752824
 31
0.0
  0
SPLINE
  5
694
100
AcDbEntity
  8
ASSI
100
AcDbSpline
 62
7
  6
CONTINUOUS
 70
0
 71
3
 72
12
 73
8
 74
6
 42
0.0000001
 43
0.0000001
 44
0.0000000001
 12
-0.2121906568
 22
0.2121890748
 32
0.0
 13
-0.300081786
 23
-0.0
 33
0.0
 40
0.0
 40
0.0
 40
0.0
 40
0.0
 40
0.0529369308
 40
0.1978151849
 40
0.4180857579
 40
0.6960514707
 40
1.0
 40
1.0
 40
1.0
 40
1.0
 10
11.2080732777
 20
-6.0982850106
 30
0.0
 10
11.204329037
 20
-6.0945407978
 30
0.0
 10
11.1811451858
 20
-6.0996793587
 30
0.0
 10
11.142386503
 20
-6.092942912
 30
0.0
 10
11.0765090715
 20
-6.0947668502
 30
0.0
 10
10.9968738294
 20
-6.0930021794
 30
0.0
 10
10.9385118185
 20
-6.093133088
 30
0.0
 10
10.9081086793
 20
-6.093133088
 30
0.0
 11
11.2080732777
 21
-6.0982850106
 31
0.0
 11
11.1922676647
 21
-6.0966947883
 31
0.0
 11
11.1488164562
 21
-6.0952468985
 31
0.0
 11
11.0827269989
 21
-6.0941128129
 31
0.0
 11
10.9993177591
 21
-6.0933812944
 31
0.0
 11
10.9081086793
 21
-6.093133088
 31
0.0
  0
SPLINE
  5
695
100
AcDbEntity
  8
ASSI
100
AcDbSpline
 62
7
  6
CONTINUOUS
 70
0
 71
3
 72
12
 73
8
 74
6
 42
0.0000001
 43
0.0000001
 44
0.0000000001
 12
0.3000754696
 22
-0.0
 32
0.0
 13
0.2121872724
 23
0.2121835264
 33
0.0
 40
0.0
 40
0.0
 40
0.0
 40
0.0
 40
0.3040871422
 40
0.5820796242
 40
0.8023103374
 40
0.9471148167
 40
1.0
 40
1.0
 40
1.0
 40
1.0
 10
10.9085886173
 20
-6.8281594625
 30
0.0
 10
10.9390049813
 20
-6.8281594625
 30
0.0
 10
10.9973824404
 20
-6.8282907496
 30
0.0
 10
11.0770282582
 20
-6.8265258046
 30
0.0
 10
11.1428957869
 20
-6.8283515612
 30
0.0
 10
11.181638029
 20
-6.8216172674
 30
0.0
 10
11.2048066426
 20
-6.8267543872
 30
0.0
 10
11.2085471635
 20
-6.8230139323
 30
0.0
 11
10.9085886173
 21
-6.8281594625
 31
0.0
 11
10.9998373719
 21
-6.8279113406
 31
0.0
 11
11.0832528938
 21
-6.827180364
 31
0.0
 11
11.1493290169
 21
-6.8260474513
 31
0.0
 11
11.1927572232
 21
-6.824601472
 31
0.0
 11
11.2085471635
 21
-6.8230139323
 31
0.0
  0
SPLINE
  5
696
100
AcDbEntity
  8
ASSI
100
AcDbSpline
 62
7
  6
CONTINUOUS
 70
0
 71
3
 72
12
 73
8
 74
6
 42
0.0000001
 43
0.0000001
 44
0.0000000001
 12
-0.2121845123
 22
0.2121850614
 32
0.0
 13
-0.3000746033
 23
0.0
 33
0.0
 40
0.0
 40
0.0
 40
0.0
 40
0.0
 40
0.0529020974
 40
0.1977304424
 40
0.4179737167
 40
0.6959573029
 40
1.0
 40
1.0
 40
1.0
 40
1.0
 10
11.2043129848
 20
1.8054752824
 30
0.0
 10
11.2005713162
 20
1.8092169606
 30
0.0
 10
11.1773979057
 20
1.8040793716
 30
0.0
 10
11.138650797
 20
1.8108143441
 30
0.0
 10
11.0727807321
 20
1.8089891792
 30
0.0
 10
10.9931391365
 20
1.8107540277
 30
0.0
 10
10.9347672215
 20
1.8106228595
 30
0.0
 10
10.904355391
 20
1.8106228595
 30
0.0
 11
11.2043129848
 21
1.8054752824
 31
0.0
 11
11.1885180769
 21
1.807063692
 31
0.0
 11
11.1450828511
 21
1.8085102835
 31
0.0
 11
11.0790031553
 21
1.8096435677
 31
0.0
 11
10.9955905452
 21
1.8103747138
 31
0.0
 11
10.904355391
 21
1.8106228595
 31
0.0
  0
SPLINE
  5
697
100
AcDbEntity
  8
ASSI
100
AcDbSpline
 62
7
  6
CONTINUOUS
 70
0
 71
3
 72
12
 73
8
 74
6
 42
0.0000001
 43
0.0000001
 44
0.0000000001
 12
0.3000714422
 22
0.0
 32
0.0
 13
0.212182242
 23
0.2121828612
 33
0.0
 40
0.0
 40
0.0
 40
0.0
 40
0.0
 40
0.3041122026
 40
0.5821091747
 40
0.8023324649
 40
0.9471238464
 40
1.0
 40
1.0
 40
1.0
 40
1.0
 10
10.9045985274
 20
1.0678476204
 30
0.0
 10
10.9350169898
 20
1.0678476204
 30
0.0
 10
10.9933966493
 20
1.0677162608
 30
0.0
 10
11.0730435419
 20
1.0694812511
 30
0.0
 10
11.1389086528
 20
1.0676551653
 30
0.0
 10
11.1776475012
 20
1.0743890789
 30
0.0
 10
11.2008132986
 20
1.0692521918
 30
0.0
 10
11.2045530922
 20
1.0729919964
 30
0.0
 11
10.9045985274
 21
1.0678476204
 31
0.0
 11
10.9958535773
 21
1.0680957234
 31
0.0
 11
11.0792693278
 21
1.0688265981
 31
0.0
 11
11.1453423399
 21
1.0699592949
 31
0.0
 11
11.1887660416
 21
1.0714049299
 31
0.0
 11
11.2045530922
 21
1.0729919964
 31
0.0
  0
SPLINE
  5
698
100
AcDbEntity
  8
ASSI
100
AcDbSpline
 62
253
  6
CONTINUOUS
 70
0
 71
3
 72
11
 73
7
 74
5
 42
0.0000001
 43
0.0000001
 44
0.0000000001
 12
-0.0098781004
 22
0.3534330094
 32
0.0
 13
0.0000006738
 23
0.3535710239
 33
0.0
 40
0.0
 40
0.0
 40
0.0
 40
0.0
 40
0.210108614
 40
0.4581332567
 40
0.7266954159
 40
1.0
 40
1.0
 40
1.0
 40
1.0
 10
7.1289210573
 20
6.0426669762
 30
0.0
 10
7.1282292326
 20
6.0674200828
 30
0.0
 10
7.1270265246
 20
6.1214017939
 30
0.0
 10
7.1257719813
 20
6.2070393365
 30
0.0
 10
7.1250020638
 20
6.300130948
 30
0.0
 10
7.1248310621
 20
6.3639938726
 30
0.0
 10
7.1248311235
 20
6.3962047331
 30
0.0
 11
7.1289210573
 21
6.0426669762
 31
0.0
 11
7.127212678
 21
6.116935648
 31
0.0
 11
7.1258969452
 21
6.2046201039
 31
0.0
 11
7.125094421
 21
6.2995725102
 31
0.0
 11
7.1248311235
 21
6.3962047331
 31
0.0
  0
SPLINE
  5
699
100
AcDbEntity
  8
ASSI
100
AcDbSpline
 62
253
  6
CONTINUOUS
 70
0
 71
3
 72
11
 73
7
 74
5
 42
0.0000001
 43
0.0000001
 44
0.0000000001
 12
0.000000661
 22
-0.353571321
 32
0.0
 13
-0.0098781864
 23
-0.3534333042
 33
0.0
 40
0.0
 40
0.0
 40
0.0
 40
0.0
 40
0.2733034014
 40
0.5418653407
 40
0.7898898962
 40
1.0
 40
1.0
 40
1.0
 40
1.0
 10
7.3352126818
 20
6.3962050302
 30
0.0
 10
7.335212742
 20
6.363994282
 30
0.0
 10
7.3350417433
 20
6.300131469
 30
0.0
 10
7.3342718341
 20
6.2070399548
 30
0.0
 10
7.3330172802
 20
6.121402201
 30
0.0
 10
7.3318145828
 20
6.067420279
 30
0.0
 10
7.3311227472
 20
6.0426669762
 30
0.0
 11
7.3352126818
 21
6.3962050302
 31
0.0
 11
7.3349493876
 21
6.2995731442
 31
0.0
 11
7.3341468678
 21
6.2046207359
 31
0.0
 11
7.3328311353
 21
6.1169362371
 31
0.0
 11
7.3311227472
 21
6.0426669762
 31
0.0
  0
SPLINE
  5
69A
100
AcDbEntity
  8
ASSI
100
AcDbSpline
 62
253
  6
CONTINUOUS
 70
0
 71
3
 72
11
 73
7
 74
5
 42
0.0000001
 43
0.0000001
 44
0.0000000001
 12
0.000000661
 22
-0.353571321
 32
0.0
 13
-0.0098781864
 23
-0.3534333042
 33
0.0
 40
0.0
 40
0.0
 40
0.0
 40
0.0
 40
0.2733034014
 40
0.5418653407
 40
0.7898898962
 40
1.0
 40
1.0
 40
1.0
 40
1.0
 10
-6.9647873182
 20
6.3962050302
 30
0.0
 10
-6.964787258
 20
6.363994282
 30
0.0
 10
-6.9649582567
 20
6.300131469
 30
0.0
 10
-6.9657281659
 20
6.2070399548
 30
0.0
 10
-6.9669827198
 20
6.121402201
 30
0.0
 10
-6.9681854172
 20
6.067420279
 30
0.0
 10
-6.9688772528
 20
6.0426669762
 30
0.0
 11
-6.9647873182
 21
6.3962050302
 31
0.0
 11
-6.9650506124
 21
6.2995731442
 31
0.0
 11
-6.9658531322
 21
6.2046207359
 31
0.0
 11
-6.9671688647
 21
6.1169362371
 31
0.0
 11
-6.9688772528
 21
6.0426669762
 31
0.0
  0
SPLINE
  5
69B
100
AcDbEntity
  8
ASSI
100
AcDbSpline
 62
253
  6
CONTINUOUS
 70
0
 71
3
 72
11
 73
7
 74
5
 42
0.0000001
 43
0.0000001
 44
0.0000000001
 12
-0.0098781004
 22
0.3534330094
 32
0.0
 13
0.0000006738
 23
0.3535710239
 33
0.0
 40
0.0
 40
0.0
 40
0.0
 40
0.0
 40
0.210108614
 40
0.4581332567
 40
0.7266954159
 40
1.0
 40
1.0
 40
1.0
 40
1.0
 10
-7.1710789427
 20
6.0426669762
 30
0.0
 10
-7.1717707674
 20
6.0674200828
 30
0.0
 10
-7.1729734754
 20
6.1214017939
 30
0.0
 10
-7.1742280187
 20
6.2070393365
 30
0.0
 10
-7.1749979362
 20
6.300130948
 30
0.0
 10
-7.1751689379
 20
6.3639938726
 30
0.0
 10
-7.1751688765
 20
6.3962047331
 30
0.0
 11
-7.1710789427
 21
6.0426669762
 31
0.0
 11
-7.172787322
 21
6.116935648
 31
0.0
 11
-7.1741030548
 21
6.2046201039
 31
0.0
 11
-7.174905579
 21
6.2995725102
 31
0.0
 11
-7.1751688765
 21
6.3962047331
 31
0.0
  0
SPLINE
  5
69C
100
AcDbEntity
  8
ASSI
100
AcDbSpline
 62
7
  6
CONTINUOUS
 70
0
 71
3
 72
11
 73
7
 74
5
 42
0.0000001
 43
0.0000001
 44
0.0000000001
 12
0.1877591309
 22
0.0090044277
 32
0.0
 13
0.1879749211
 23
0.0
 33
0.0
 40
0.0
 40
0.0
 40
0.0
 40
0.0
 40
0.1555665837
 40
0.3898430933
 40
0.6801151059
 40
1.0
 40
1.0
 40
1.0
 40
1.0
 10
4.3219689413
 20
5.612706085
 30
0.0
 10
4.3317052901
 20
5.6131730143
 30
0.0
 10
4.3561274661
 20
5.6138014524
 30
0.0
 10
4.3987358503
 20
5.6144804044
 30
0.0
 10
4.4516459282
 20
5.6149033771
 30
0.0
 10
4.4898772238
 20
5.6150035973
 30
0.0
 10
4.5099206697
 20
5.6150035973
 30
0.0
 11
4.3219689413
 21
5.612706085
 31
0.0
 11
4.3511967532
 21
5.6136364697
 31
0.0
 11
4.3952287111
 21
5.6143724604
 31
0.0
 11
4.4497905489
 21
5.6148420565
 31
0.0
 11
4.5099206697
 21
5.6150035973
 31
0.0
  0
SPLINE
  5
69D
100
AcDbEntity
  8
ASSI
100
AcDbSpline
 62
7
  6
CONTINUOUS
 70
0
 71
3
 72
11
 73
7
 74
5
 42
0.0000001
 43
0.0000001
 44
0.0000000001
 12
-0.1879629201
 22
0.0
 32
0.0
 13
-0.1877471435
 23
0.009003857
 33
0.0
 40
0.0
 40
0.0
 40
0.0
 40
0.0
 40
0.3199428211
 40
0.6102303145
 40
0.8444792159
 40
1.0
 40
1.0
 40
1.0
 40
1.0
 10
4.5033977644
 20
3.9635365438
 30
0.0
 10
4.4833519688
 20
3.9635365438
 30
0.0
 10
4.4451185149
 20
3.963636747
 30
0.0
 10
4.3922089445
 20
3.9640596283
 30
0.0
 10
4.3496069088
 20
3.9647383865
 30
0.0
 10
4.3251908872
 20
3.9653665705
 30
0.0
 10
4.3154580262
 20
3.9658333328
 30
0.0
 11
4.5033977644
 21
3.9635365438
 31
0.0
 11
4.4432605945
 21
3.963698072
 31
0.0
 11
4.3886993296
 21
3.9641675863
 31
0.0
 11
4.34467537
 21
3.9649033467
 31
0.0
 11
4.3154580262
 21
3.9658333328
 31
0.0
  0
SPLINE
  5
69E
100
AcDbEntity
  8
ASSI
100
AcDbSpline
 62
7
  6
CONTINUOUS
 70
0
 71
3
 72
11
 73
7
 74
5
 42
0.0000001
 43
0.0000001
 44
0.0000000001
 12
-0.1877471435
 22
-0.009003857
 32
0.0
 13
-0.1879629201
 23
0.0
 33
0.0
 40
0.0
 40
0.0
 40
0.0
 40
0.0
 40
0.1555207841
 40
0.3897696855
 40
0.6800571789
 40
1.0
 40
1.0
 40
1.0
 40
1.0
 10
-4.1554142218
 20
3.9658333328
 30
0.0
 10
-4.1651470827
 20
3.9653665705
 30
0.0
 10
-4.1895631043
 20
3.9647383865
 30
0.0
 10
-4.2321651401
 20
3.9640596283
 30
0.0
 10
-4.2850747105
 20
3.963636747
 30
0.0
 10
-4.3233081643
 20
3.9635365438
 30
0.0
 10
-4.34335396
 20
3.9635365438
 30
0.0
 11
-4.1554142218
 21
3.9658333328
 31
0.0
 11
-4.1846315655
 21
3.9649033467
 31
0.0
 11
-4.2286555252
 21
3.9641675863
 31
0.0
 11
-4.28321679
 21
3.963698072
 31
0.0
 11
-4.34335396
 21
3.9635365438
 31
0.0
  0
SPLINE
  5
69F
100
AcDbEntity
  8
ASSI
100
AcDbSpline
 62
7
  6
CONTINUOUS
 70
0
 71
3
 72
11
 73
7
 74
5
 42
0.0000001
 43
0.0000001
 44
0.0000000001
 12
0.1879749211
 22
0.0
 32
0.0
 13
0.1877591309
 23
-0.0090044277
 33
0.0
 40
0.0
 40
0.0
 40
0.0
 40
0.0
 40
0.3198848941
 40
0.6101569067
 40
0.8444334163
 40
1.0
 40
1.0
 40
1.0
 40
1.0
 10
-4.3498768652
 20
5.6150035973
 30
0.0
 10
-4.3298334193
 20
5.6150035973
 30
0.0
 10
-4.2916021238
 20
5.6149033771
 30
0.0
 10
-4.2386920458
 20
5.6144804044
 30
0.0
 10
-4.1960836617
 20
5.6138014524
 30
0.0
 10
-4.1716614857
 20
5.6131730143
 30
0.0
 10
-4.1619251368
 20
5.612706085
 30
0.0
 11
-4.3498768652
 21
5.6150035973
 31
0.0
 11
-4.2897467445
 21
5.6148420565
 31
0.0
 11
-4.2351849066
 21
5.6143724604
 31
0.0
 11
-4.1911529488
 21
5.6136364697
 31
0.0
 11
-4.1619251368
 21
5.612706085
 31
0.0
  0
ELLIPSE
  5
6A0
100
AcDbEntity
  8
RACCORDO
100
AcDbEllipse
 62
7
  6
CONTINUOUS
 10
12.1164908123
 20
-9.0541309046
 30
0.0
 11
0.2183310446
 21
0.1221043275
 31
0.0
 40
0.9980297029
 41
-2.0815635429
 42
-0.5109195152
  0
ELLIPSE
  5
6A1
100
AcDbEntity
  8
RACCORDO
100
AcDbEllipse
 62
7
  6
CONTINUOUS
 10
-11.9564470078
 20
-9.0541309046
 30
0.0
 11
0.2183310446
 21
-0.1221043275
 31
0.0
 40
0.9980297029
 41
-2.6306731384
 42
-1.0600291107
  0
ELLIPSE
  5
6A2
100
AcDbEntity
  8
RACCORDO
100
AcDbEllipse
 62
7
  6
CONTINUOUS
 10
-11.9629579898
 20
8.9320934777
 30
0.0
 11
-0.1768305473
 21
0.1768305473
 31
0.0
 40
0.9996954599
 41
-0.7852458701
 42
0.7852458701
  0
ELLIPSE
  5
6A3
100
AcDbEntity
  8
RACCORDO
100
AcDbEllipse
 62
7
  6
CONTINUOUS
 10
12.1230017942
 20
8.9320934777
 30
0.0
 11
-0.1768305473
 21
-0.1768305473
 31
0.0
 40
0.9996954599
 41
2.3563467834
 42
3.9268385237
  0
ELLIPSE
  5
6A4
100
AcDbEntity
  8
RACCORDO
100
AcDbEllipse
 62
7
  6
CONTINUOUS
 10
-12.2182325913
 20
8.2315575698
 30
0.0
 11
0.0
 21
0.3
 31
0.0
 40
0.0174550649
 41
-3.1241393611
 42
-1.5707963268
  0
ELLIPSE
  5
6A5
100
AcDbEntity
  8
RACCORDO
100
AcDbEllipse
 62
7
  6
CONTINUOUS
 10
12.3782763957
 20
8.2315575698
 30
0.0
 11
-0.0
 21
0.3
 31
0.0
 40
0.0174550649
 41
-4.7123889804
 42
-3.1590459461
  0
ELLIPSE
  5
6A6
100
AcDbEntity
  8
DRAFT
100
AcDbEllipse
 62
7
  6
CONTINUOUS
 10
-17.142996702
 20
9.3891135856
 30
0.0
 11
0.0
 21
423.7
 31
0.0
 40
0.0174550649
 41
-1.6090810457
 42
-1.6073450502
  0
ELLIPSE
  5
6A7
100
AcDbEntity
  8
DRAFT
100
AcDbEllipse
 62
7
  6
CONTINUOUS
 10
-17.142996702
 20
9.3891135856
 30
0.0
 11
0.0
 21
423.7
 31
0.0
 40
0.0174550649
 41
-1.5904371127
 42
-1.588683735
  0
ELLIPSE
  5
6A8
100
AcDbEntity
  8
RACCORDO
100
AcDbEllipse
 62
7
  6
CONTINUOUS
 10
-0.0969594935
 20
9.3891135856
 30
0.0
 11
0.0
 21
423.7
 31
0.0
 40
0.0174550649
 41
-4.7090312901
 42
-4.6981756364
  0
ELLIPSE
  5
6A9
100
AcDbEntity
  8
RACCORDO
100
AcDbEllipse
 62
7
  6
CONTINUOUS
 10
10.9660121519
 20
-7.9151968462
 30
0.0
 11
-0.0300136675
 21
0.3031910442
 31
0.0
 40
0.9846622838
 41
-3.2387599651
 42
-1.6709942215
  0
ELLIPSE
  5
6AA
100
AcDbEntity
  8
RACCORDO
100
AcDbEllipse
 62
7
  6
CONTINUOUS
 10
-10.8059683474
 20
-7.9151968462
 30
0.0
 11
0.0300136675
 21
0.3031910442
 31
0.0
 40
0.9846622838
 41
-4.6121910857
 42
-3.0444253421
  0
ELLIPSE
  5
6AB
100
AcDbEntity
  8
RACCORDO
100
AcDbEllipse
 62
7
  6
CONTINUOUS
 10
-6.9647872767
 20
7.9838770662
 30
0.0
 11
0.3
 21
-0.0
 31
0.0
 40
0.0174550649
 41
0.0174532925
 42
1.5707963268
  0
ELLIPSE
  5
6AC
100
AcDbEntity
  8
RACCORDO
100
AcDbEllipse
 62
7
  6
CONTINUOUS
 10
-14.042996702
 20
9.3891135856
 30
0.0
 11
0.0
 21
423.7
 31
0.0
 40
0.0174550649
 41
-1.5850096708
 42
-1.5741540171
  0
ELLIPSE
  5
6AD
100
AcDbEntity
  8
RACCORDO
100
AcDbEllipse
 62
7
  6
CONTINUOUS
 10
14.2030405065
 20
9.3891135856
 30
0.0
 11
0.0
 21
423.7
 31
0.0
 40
0.0174550649
 41
-4.7090312901
 42
-4.6981756364
  0
ELLIPSE
  5
6AE
100
AcDbEntity
  8
RACCORDO
100
AcDbEllipse
 62
7
  6
CONTINUOUS
 10
0.257003298
 20
9.3891135856
 30
0.0
 11
0.0
 21
423.7
 31
0.0
 40
0.0174550649
 41
-1.5850096708
 42
-1.5741540171
  0
ELLIPSE
  5
6AF
100
AcDbEntity
  8
RACCORDO
100
AcDbEllipse
 62
7
  6
CONTINUOUS
 10
-7.1751689188
 20
7.9838770662
 30
0.0
 11
0.3
 21
0.0
 31
0.0
 40
0.0174550649
 41
1.5707963268
 42
3.1241393611
  0
ELLIPSE
  5
6B0
100
AcDbEntity
  8
RACCORDO
100
AcDbEllipse
 62
7
  6
CONTINUOUS
 10
7.1248310812
 20
7.9838770662
 30
0.0
 11
0.3
 21
-0.0
 31
0.0
 40
0.0174550649
 41
1.5707963268
 42
3.1241393611
  0
ELLIPSE
  5
6B1
100
AcDbEntity
  8
RACCORDO
100
AcDbEllipse
 62
7
  6
CONTINUOUS
 10
7.3352127233
 20
7.9838770662
 30
0.0
 11
0.3
 21
0.0
 31
0.0
 40
0.0174550649
 41
0.0174532925
 42
1.5707963268
  0
ELLIPSE
  5
6B2
100
AcDbEntity
  8
RACCORDO
100
AcDbEllipse
 62
7
  6
CONTINUOUS
 10
-3.4599158363
 20
5.5943501051
 30
0.0
 11
0.3
 21
-0.0
 31
0.0
 40
0.0174550649
 41
-2.7925268032
 42
-1.5707963268
  0
ELLIPSE
  5
6B3
100
AcDbEntity
  8
RACCORDO
100
AcDbEllipse
 62
7
  6
CONTINUOUS
 10
3.6199596408
 20
5.5943501051
 30
0.0
 11
0.3
 21
-0.0
 31
0.0
 40
0.0174550649
 41
-1.5707963268
 42
-0.3490658504
  0
ELLIPSE
  5
6B4
100
AcDbEntity
  8
DRAFT
100
AcDbEllipse
 62
7
  6
CONTINUOUS
 10
17.3030405065
 20
9.3891135856
 30
0.0
 11
-0.0
 21
423.7
 31
0.0
 40
0.0174550649
 41
-4.6945015721
 42
-4.6927481945
  0
ELLIPSE
  5
6B5
100
AcDbEntity
  8
RACCORDO
100
AcDbEllipse
 62
7
  6
CONTINUOUS
 10
-3.4599158363
 20
3.9838770662
 30
0.0
 11
0.3
 21
-0.0
 31
0.0
 40
0.0174550649
 41
1.5707963268
 42
2.7925268032
  0
ELLIPSE
  5
6B6
100
AcDbEntity
  8
DRAFT
100
AcDbEllipse
 62
7
  6
CONTINUOUS
 10
17.3030405065
 20
9.3891135856
 30
0.0
 11
0.0
 21
423.7
 31
0.0
 40
0.0174550649
 41
-4.675840257
 42
-4.6741042615
  0
ELLIPSE
  5
6B7
100
AcDbEntity
  8
RACCORDO
100
AcDbEllipse
 62
7
  6
CONTINUOUS
 10
3.6199596408
 20
3.9838770662
 30
0.0
 11
0.3
 21
0.0
 31
0.0
 40
0.0174550649
 41
0.3490658504
 42
1.5707963268
  0
ELLIPSE
  5
6B8
100
AcDbEntity
  8
RACCORDO
100
AcDbEllipse
 62
7
  6
CONTINUOUS
 10
-1.2755416371
 20
9.3891135856
 30
0.0
 11
0.0
 21
423.7
 31
0.0
 40
0.0174550649
 41
-1.6103149114
 42
-1.60848535
  0
ELLIPSE
  5
6B9
100
AcDbEntity
  8
RACCORDO
100
AcDbEllipse
 62
7
  6
CONTINUOUS
 10
12.6355854416
 20
9.3891135856
 30
0.0
 11
0.0
 21
423.7
 31
0.0
 40
0.0174550649
 41
-4.6746999572
 42
-4.6728703958
  0
ELLIPSE
  5
6BA
100
AcDbEntity
  8
DRAFT
100
AcDbEllipse
 62
7
  6
CONTINUOUS
 10
-3.0063067143
 20
9.3891135856
 30
0.0
 11
0.0
 21
423.7
 31
0.0
 40
0.0174550649
 41
-4.6861185815
 42
-4.6805882475
  0
ELLIPSE
  5
6BB
100
AcDbEntity
  8
DRAFT
100
AcDbEllipse
 62
7
  6
CONTINUOUS
 10
-18.7336494813
 20
9.3891135856
 30
0.0
 11
0.0
 21
423.7
 31
0.0
 40
0.0174550649
 41
-1.6025970597
 42
-1.5970667257
  0
ELLIPSE
  5
6BC
100
AcDbEntity
  8
DRAFT
100
AcDbEllipse
 62
7
  6
CONTINUOUS
 10
3.1663505187
 20
9.3891135856
 30
0.0
 11
0.0
 21
423.7
 31
0.0
 40
0.0174550649
 41
-1.6025970597
 42
-1.5970667257
  0
ELLIPSE
  5
6BD
100
AcDbEntity
  8
DRAFT
100
AcDbEllipse
 62
7
  6
CONTINUOUS
 10
18.8936932857
 20
9.3891135856
 30
0.0
 11
0.0
 21
423.7
 31
0.0
 40
0.0174550649
 41
-4.6861185815
 42
-4.6805882475
  0
ELLIPSE
  5
6BE
100
AcDbEntity
  8
RACCORDO
100
AcDbEllipse
 62
7
  6
CONTINUOUS
 10
-12.4755416371
 20
9.3891135856
 30
0.0
 11
0.0
 21
423.7
 31
0.0
 40
0.0174550649
 41
-1.6103149114
 42
-1.60848535
  0
ELLIPSE
  5
6BF
100
AcDbEntity
  8
RACCORDO
100
AcDbEllipse
 62
7
  6
CONTINUOUS
 10
1.4355854416
 20
9.3891135856
 30
0.0
 11
0.0
 21
423.7
 31
0.0
 40
0.0174550649
 41
-4.6746999572
 42
-4.6728703958
  0
ELLIPSE
  5
6C0
100
AcDbEntity
  8
RACCORDO
100
AcDbEllipse
 62
7
  6
CONTINUOUS
 10
-10.0996974066
 20
-6.781212804
 30
0.0
 11
0.3
 21
0.0
 31
0.0
 40
0.0174550649
 41
0.0174532925
 42
1.5707963268
  0
ELLIPSE
  5
6C1
100
AcDbEntity
  8
RACCORDO
100
AcDbEllipse
 62
7
  6
CONTINUOUS
 10
-10.0996974066
 20
-6.1405600247
 30
0.0
 11
0.3
 21
-0.0
 31
0.0
 40
0.0174550649
 41
-1.5707963268
 42
-0.0174532925
  0
ELLIPSE
  5
6C2
100
AcDbEntity
  8
RACCORDO
100
AcDbEllipse
 62
7
  6
CONTINUOUS
 10
-10.0996974066
 20
1.118787196
 30
0.0
 11
0.3
 21
-0.0
 31
0.0
 40
0.0174550649
 41
0.0174532925
 42
1.5707963268
  0
ELLIPSE
  5
6C3
100
AcDbEntity
  8
RACCORDO
100
AcDbEllipse
 62
7
  6
CONTINUOUS
 10
-10.0996974066
 20
1.7594399753
 30
0.0
 11
0.3
 21
0.0
 31
0.0
 40
0.0174550649
 41
-1.5707963268
 42
-0.0174532925
  0
ELLIPSE
  5
6C4
100
AcDbEntity
  8
RACCORDO
100
AcDbEllipse
 62
7
  6
CONTINUOUS
 10
10.259741211
 20
-6.1405600247
 30
0.0
 11
0.3
 21
0.0
 31
0.0
 40
0.0174550649
 41
-3.1241393611
 42
-1.5707963268
  0
ELLIPSE
  5
6C5
100
AcDbEntity
  8
RACCORDO
100
AcDbEllipse
 62
7
  6
CONTINUOUS
 10
10.259741211
 20
-6.781212804
 30
0.0
 11
0.3
 21
0.0
 31
0.0
 40
0.0174550649
 41
1.5707963268
 42
3.1241393611
  0
ELLIPSE
  5
6C6
100
AcDbEntity
  8
RACCORDO
100
AcDbEllipse
 62
7
  6
CONTINUOUS
 10
10.259741211
 20
1.7594399753
 30
0.0
 11
0.3
 21
0.0
 31
0.0
 40
0.0174550649
 41
-3.1241393611
 42
-1.5707963268
  0
ELLIPSE
  5
6C7
100
AcDbEntity
  8
RACCORDO
100
AcDbEllipse
 62
7
  6
CONTINUOUS
 10
10.259741211
 20
1.118787196
 30
0.0
 11
0.3
 21
0.0
 31
0.0
 40
0.0174550649
 41
1.5707963268
 42
3.1241393611
  0
ELLIPSE
  5
6C8
100
AcDbEntity
  8
RACCORDO
100
AcDbEllipse
 62
7
  6
CONTINUOUS
 10
-5.9491188796
 20
-7.3387003195
 30
0.0
 11
0.0
 21
0.3
 31
0.0
 40
0.0174550649
 41
-4.6728703958
 42
-3.3161255788
  0
ELLIPSE
  5
6C9
100
AcDbEntity
  8
RACCORDO
100
AcDbEllipse
 62
7
  6
CONTINUOUS
 10
-5.090837316
 20
-7.3387003195
 30
0.0
 11
-0.0
 21
0.3
 31
0.0
 40
0.0174550649
 41
-2.9670597284
 42
-1.6103149114
  0
ELLIPSE
  5
6CA
100
AcDbEntity
  8
RACCORDO
100
AcDbEllipse
 62
7
  6
CONTINUOUS
 10
6.109162684
 20
-7.3387003195
 30
0.0
 11
-0.0
 21
0.3
 31
0.0
 40
0.0174550649
 41
-2.9670597284
 42
-1.6103149114
  0
ELLIPSE
  5
6CB
100
AcDbEntity
  8
RACCORDO
100
AcDbEllipse
 62
7
  6
CONTINUOUS
 10
5.2508811204
 20
-7.3387003195
 30
0.0
 11
-0.0
 21
0.3
 31
0.0
 40
0.0174550649
 41
-4.6728703958
 42
-3.3161255788
  0
ELLIPSE
  5
6CC
100
AcDbEntity
  8
RACCORDO
100
AcDbEllipse
 62
7
  6
CONTINUOUS
 10
5.7852127233
 20
-7.8848035665
 30
0.0
 11
0.3
 21
-0.0
 31
0.0
 40
0.1763269807
 41
-1.5707963268
 42
-0.0174532925
  0
ELLIPSE
  5
6CD
100
AcDbEntity
  8
RACCORDO
100
AcDbEllipse
 62
7
  6
CONTINUOUS
 10
-11.1182325913
 20
8.2315575698
 30
0.0
 11
0.0
 21
0.3
 31
0.0
 40
0.0174550649
 41
-3.1241393611
 42
-1.5707963268
  0
ELLIPSE
  5
6CE
100
AcDbEntity
  8
RACCORDO
100
AcDbEllipse
 62
7
  6
CONTINUOUS
 10
11.2782763957
 20
8.2315575698
 30
0.0
 11
0.0
 21
0.3
 31
0.0
 40
0.0174550649
 41
-4.7123889804
 42
-3.1590459461
  0
ELLIPSE
  5
6CF
100
AcDbEntity
  8
RACCORDO
100
AcDbEllipse
 62
7
  6
CONTINUOUS
 10
-5.4147872767
 20
-7.8848035665
 30
0.0
 11
0.3
 21
0.0
 31
0.0
 40
0.1763269807
 41
-1.5707963268
 42
-0.0174532925
  0
ELLIPSE
  5
6D0
100
AcDbEntity
  8
RACCORDO
100
AcDbEllipse
 62
7
  6
CONTINUOUS
 10
-5.6251689188
 20
-7.8848035665
 30
0.0
 11
0.3
 21
-0.0
 31
0.0
 40
0.1763269807
 41
-3.1241393611
 42
-1.5707963268
  0
ELLIPSE
  5
6D1
100
AcDbEntity
  8
RACCORDO
100
AcDbEllipse
 62
7
  6
CONTINUOUS
 10
5.5748310812
 20
-7.8848035665
 30
0.0
 11
0.3
 21
0.0
 31
0.0
 40
0.1763269807
 41
-3.1241393611
 42
-1.5707963268
  0
ELLIPSE
  5
6D2
100
AcDbEntity
  8
ASSI
100
AcDbEllipse
 62
7
  6
CONTINUOUS
 10
12.1164908123
 20
-9.0541309046
 30
0.0
 11
0.2183310446
 21
0.1221043275
 31
0.0
 40
0.9980297029
 41
-2.0815635429
 42
-0.5109195152
  0
ELLIPSE
  5
6D3
100
AcDbEntity
  8
ASSI
100
AcDbEllipse
 62
7
  6
CONTINUOUS
 10
-11.9564470078
 20
-9.0541309046
 30
0.0
 11
0.2183310446
 21
-0.1221043275
 31
0.0
 40
0.9980297029
 41
-2.6306731384
 42
-1.0600291107
  0
ELLIPSE
  5
6D4
100
AcDbEntity
  8
ASSI
100
AcDbEllipse
 62
7
  6
CONTINUOUS
 10
-11.9629579898
 20
8.9320934777
 30
0.0
 11
-0.1768305473
 21
0.1768305473
 31
0.0
 40
0.9996954599
 41
-0.7852458701
 42
0.7852458701
  0
ELLIPSE
  5
6D5
100
AcDbEntity
  8
ASSI
100
AcDbEllipse
 62
7
  6
CONTINUOUS
 10
12.1230017942
 20
8.9320934777
 30
0.0
 11
-0.1768305473
 21
-0.1768305473
 31
0.0
 40
0.9996954599
 41
2.3563467834
 42
3.9268385237
  0
ELLIPSE
  5
6D6
100
AcDbEntity
  8
ASSI
100
AcDbEllipse
 62
7
  6
CONTINUOUS
 10
-12.2182325913
 20
8.2315575698
 30
0.0
 11
0.0
 21
0.3
 31
0.0
 40
0.0174550649
 41
-3.1241393611
 42
-1.5707963268
  0
ELLIPSE
  5
6D7
100
AcDbEntity
  8
ASSI
100
AcDbEllipse
 62
7
  6
CONTINUOUS
 10
12.3782763957
 20
8.2315575698
 30
0.0
 11
-0.0
 21
0.3
 31
0.0
 40
0.0174550649
 41
-4.7123889804
 42
-3.1590459461
  0
ELLIPSE
  5
6D8
100
AcDbEntity
  8
ASSI
100
AcDbEllipse
 62
7
  6
CONTINUOUS
 10
-17.142996702
 20
9.3891135856
 30
0.0
 11
0.0
 21
423.7
 31
0.0
 40
0.0174550649
 41
-1.6090810457
 42
-1.6073450502
  0
ELLIPSE
  5
6D9
100
AcDbEntity
  8
ASSI
100
AcDbEllipse
 62
7
  6
CONTINUOUS
 10
-17.142996702
 20
9.3891135856
 30
0.0
 11
0.0
 21
423.7
 31
0.0
 40
0.0174550649
 41
-1.5904371127
 42
-1.588683735
  0
ELLIPSE
  5
6DA
100
AcDbEntity
  8
ASSI
100
AcDbEllipse
 62
7
  6
CONTINUOUS
 10
10.9660121519
 20
-7.9151968462
 30
0.0
 11
-0.0300136675
 21
0.3031910442
 31
0.0
 40
0.9846622838
 41
-3.2387599651
 42
-1.6709942215
  0
ELLIPSE
  5
6DB
100
AcDbEntity
  8
ASSI
100
AcDbEllipse
 62
7
  6
CONTINUOUS
 10
-10.8059683474
 20
-7.9151968462
 30
0.0
 11
0.0300136675
 21
0.3031910442
 31
0.0
 40
0.9846622838
 41
-4.6121910857
 42
-3.0444253421
  0
ELLIPSE
  5
6DC
100
AcDbEntity
  8
ASSI
100
AcDbEllipse
 62
7
  6
CONTINUOUS
 10
-6.9647872767
 20
7.9838770662
 30
0.0
 11
0.3
 21
-0.0
 31
0.0
 40
0.0174550649
 41
0.0174532925
 42
1.5707963268
  0
ELLIPSE
  5
6DD
100
AcDbEntity
  8
ASSI
100
AcDbEllipse
 62
7
  6
CONTINUOUS
 10
-0.0969594935
 20
9.3891135856
 30
0.0
 11
0.0
 21
423.7
 31
0.0
 40
0.0174550649
 41
-4.7090312901
 42
-4.6981756364
  0
ELLIPSE
  5
6DE
100
AcDbEntity
  8
ASSI
100
AcDbEllipse
 62
7
  6
CONTINUOUS
 10
-14.042996702
 20
9.3891135856
 30
0.0
 11
0.0
 21
423.7
 31
0.0
 40
0.0174550649
 41
-1.5850096708
 42
-1.5741540171
  0
ELLIPSE
  5
6DF
100
AcDbEntity
  8
ASSI
100
AcDbEllipse
 62
7
  6
CONTINUOUS
 10
14.2030405065
 20
9.3891135856
 30
0.0
 11
0.0
 21
423.7
 31
0.0
 40
0.0174550649
 41
-4.7090312901
 42
-4.6981756364
  0
ELLIPSE
  5
6E0
100
AcDbEntity
  8
ASSI
100
AcDbEllipse
 62
7
  6
CONTINUOUS
 10
-7.1751689188
 20
7.9838770662
 30
0.0
 11
0.3
 21
0.0
 31
0.0
 40
0.0174550649
 41
1.5707963268
 42
3.1241393611
  0
ELLIPSE
  5
6E1
100
AcDbEntity
  8
ASSI
100
AcDbEllipse
 62
7
  6
CONTINUOUS
 10
0.257003298
 20
9.3891135856
 30
0.0
 11
0.0
 21
423.7
 31
0.0
 40
0.0174550649
 41
-1.5850096708
 42
-1.5741540171
  0
ELLIPSE
  5
6E2
100
AcDbEntity
  8
ASSI
100
AcDbEllipse
 62
7
  6
CONTINUOUS
 10
7.1248310812
 20
7.9838770662
 30
0.0
 11
0.3
 21
-0.0
 31
0.0
 40
0.0174550649
 41
1.5707963268
 42
3.1241393611
  0
ELLIPSE
  5
6E3
100
AcDbEntity
  8
ASSI
100
AcDbEllipse
 62
7
  6
CONTINUOUS
 10
7.3352127233
 20
7.9838770662
 30
0.0
 11
0.3
 21
0.0
 31
0.0
 40
0.0174550649
 41
0.0174532925
 42
1.5707963268
  0
ELLIPSE
  5
6E4
100
AcDbEntity
  8
ASSI
100
AcDbEllipse
 62
7
  6
CONTINUOUS
 10
1.4355854416
 20
9.3891135856
 30
0.0
 11
0.0
 21
423.7
 31
0.0
 40
0.0174550649
 41
-4.6746999572
 42
-4.6728703958
  0
ELLIPSE
  5
6E5
100
AcDbEntity
  8
ASSI
100
AcDbEllipse
 62
7
  6
CONTINUOUS
 10
-3.4599158363
 20
5.5943501051
 30
0.0
 11
0.3
 21
-0.0
 31
0.0
 40
0.0174550649
 41
-2.7925268032
 42
-1.5707963268
  0
ELLIPSE
  5
6E6
100
AcDbEntity
  8
ASSI
100
AcDbEllipse
 62
7
  6
CONTINUOUS
 10
3.6199596408
 20
5.5943501051
 30
0.0
 11
0.3
 21
-0.0
 31
0.0
 40
0.0174550649
 41
-1.5707963268
 42
-0.3490658504
  0
ELLIPSE
  5
6E7
100
AcDbEntity
  8
ASSI
100
AcDbEllipse
 62
7
  6
CONTINUOUS
 10
-3.4599158363
 20
3.9838770662
 30
0.0
 11
0.3
 21
-0.0
 31
0.0
 40
0.0174550649
 41
1.5707963268
 42
2.7925268032
  0
ELLIPSE
  5
6E8
100
AcDbEntity
  8
ASSI
100
AcDbEllipse
 62
7
  6
CONTINUOUS
 10
17.3030405065
 20
9.3891135856
 30
0.0
 11
-0.0
 21
423.7
 31
0.0
 40
0.0174550649
 41
-4.6945015721
 42
-4.6927481945
  0
ELLIPSE
  5
6E9
100
AcDbEntity
  8
ASSI
100
AcDbEllipse
 62
7
  6
CONTINUOUS
 10
3.6199596408
 20
3.9838770662
 30
0.0
 11
0.3
 21
0.0
 31
0.0
 40
0.0174550649
 41
0.3490658504
 42
1.5707963268
  0
ELLIPSE
  5
6EA
100
AcDbEntity
  8
ASSI
100
AcDbEllipse
 62
7
  6
CONTINUOUS
 10
17.3030405065
 20
9.3891135856
 30
0.0
 11
0.0
 21
423.7
 31
0.0
 40
0.0174550649
 41
-4.675840257
 42
-4.6741042615
  0
ELLIPSE
  5
6EB
100
AcDbEntity
  8
ASSI
100
AcDbEllipse
 62
7
  6
CONTINUOUS
 10
-3.0063067143
 20
9.3891135856
 30
0.0
 11
0.0
 21
423.7
 31
0.0
 40
0.0174550649
 41
-4.6861185815
 42
-4.6805882475
  0
ELLIPSE
  5
6EC
100
AcDbEntity
  8
ASSI
100
AcDbEllipse
 62
7
  6
CONTINUOUS
 10
-18.7336494813
 20
9.3891135856
 30
0.0
 11
0.0
 21
423.7
 31
0.0
 40
0.0174550649
 41
-1.6025970597
 42
-1.5970667257
  0
ELLIPSE
  5
6ED
100
AcDbEntity
  8
ASSI
100
AcDbEllipse
 62
7
  6
CONTINUOUS
 10
3.1663505187
 20
9.3891135856
 30
0.0
 11
0.0
 21
423.7
 31
0.0
 40
0.0174550649
 41
-1.6025970597
 42
-1.5970667257
  0
ELLIPSE
  5
6EE
100
AcDbEntity
  8
ASSI
100
AcDbEllipse
 62
7
  6
CONTINUOUS
 10
18.8936932857
 20
9.3891135856
 30
0.0
 11
0.0
 21
423.7
 31
0.0
 40
0.0174550649
 41
-4.6861185815
 42
-4.6805882475
  0
ELLIPSE
  5
6EF
100
AcDbEntity
  8
ASSI
100
AcDbEllipse
 62
7
  6
CONTINUOUS
 10
-1.2755416371
 20
9.3891135856
 30
0.0
 11
0.0
 21
423.7
 31
0.0
 40
0.0174550649
 41
-1.6103149114
 42
-1.60848535
  0
ELLIPSE
  5
6F0
100
AcDbEntity
  8
ASSI
100
AcDbEllipse
 62
7
  6
CONTINUOUS
 10
12.6355854416
 20
9.3891135856
 30
0.0
 11
0.0
 21
423.7
 31
0.0
 40
0.0174550649
 41
-4.6746999572
 42
-4.6728703958
  0
ELLIPSE
  5
6F1
100
AcDbEntity
  8
ASSI
100
AcDbEllipse
 62
7
  6
CONTINUOUS
 10
-10.0996974066
 20
-6.781212804
 30
0.0
 11
0.3
 21
0.0
 31
0.0
 40
0.0174550649
 41
0.0174532925
 42
1.5707963268
  0
ELLIPSE
  5
6F2
100
AcDbEntity
  8
ASSI
100
AcDbEllipse
 62
7
  6
CONTINUOUS
 10
-10.0996974066
 20
-6.1405600247
 30
0.0
 11
0.3
 21
-0.0
 31
0.0
 40
0.0174550649
 41
-1.5707963268
 42
-0.0174532925
  0
ELLIPSE
  5
6F3
100
AcDbEntity
  8
ASSI
100
AcDbEllipse
 62
7
  6
CONTINUOUS
 10
-10.0996974066
 20
1.118787196
 30
0.0
 11
0.3
 21
-0.0
 31
0.0
 40
0.0174550649
 41
0.0174532925
 42
1.5707963268
  0
ELLIPSE
  5
6F4
100
AcDbEntity
  8
ASSI
100
AcDbEllipse
 62
7
  6
CONTINUOUS
 10
-10.0996974066
 20
1.7594399753
 30
0.0
 11
0.3
 21
0.0
 31
0.0
 40
0.0174550649
 41
-1.5707963268
 42
-0.0174532925
  0
ELLIPSE
  5
6F5
100
AcDbEntity
  8
ASSI
100
AcDbEllipse
 62
7
  6
CONTINUOUS
 10
10.259741211
 20
-6.1405600247
 30
0.0
 11
0.3
 21
0.0
 31
0.0
 40
0.0174550649
 41
-3.1241393611
 42
-1.5707963268
  0
ELLIPSE
  5
6F6
100
AcDbEntity
  8
ASSI
100
AcDbEllipse
 62
7
  6
CONTINUOUS
 10
10.259741211
 20
-6.781212804
 30
0.0
 11
0.3
 21
0.0
 31
0.0
 40
0.0174550649
 41
1.5707963268
 42
3.1241393611
  0
ELLIPSE
  5
6F7
100
AcDbEntity
  8
ASSI
100
AcDbEllipse
 62
7
  6
CONTINUOUS
 10
10.259741211
 20
1.7594399753
 30
0.0
 11
0.3
 21
0.0
 31
0.0
 40
0.0174550649
 41
-3.1241393611
 42
-1.5707963268
  0
ELLIPSE
  5
6F8
100
AcDbEntity
  8
ASSI
100
AcDbEllipse
 62
7
  6
CONTINUOUS
 10
10.259741211
 20
1.118787196
 30
0.0
 11
0.3
 21
0.0
 31
0.0
 40
0.0174550649
 41
1.5707963268
 42
3.1241393611
  0
ELLIPSE
  5
6F9
100
AcDbEntity
  8
ASSI
100
AcDbEllipse
 62
7
  6
CONTINUOUS
 10
-5.9491188796
 20
-7.3387003195
 30
0.0
 11
0.0
 21
0.3
 31
0.0
 40
0.0174550649
 41
-4.6728703958
 42
-3.3161255788
  0
ELLIPSE
  5
6FA
100
AcDbEntity
  8
ASSI
100
AcDbEllipse
 62
7
  6
CONTINUOUS
 10
-5.090837316
 20
-7.3387003195
 30
0.0
 11
-0.0
 21
0.3
 31
0.0
 40
0.0174550649
 41
-2.9670597284
 42
-1.6103149114
  0
ELLIPSE
  5
6FB
100
AcDbEntity
  8
ASSI
100
AcDbEllipse
 62
7
  6
CONTINUOUS
 10
6.109162684
 20
-7.3387003195
 30
0.0
 11
-0.0
 21
0.3
 31
0.0
 40
0.0174550649
 41
-2.9670597284
 42
-1.6103149114
  0
ELLIPSE
  5
6FC
100
AcDbEntity
  8
ASSI
100
AcDbEllipse
 62
7
  6
CONTINUOUS
 10
5.2508811204
 20
-7.3387003195
 30
0.0
 11
-0.0
 21
0.3
 31
0.0
 40
0.0174550649
 41
-4.6728703958
 42
-3.3161255788
  0
ELLIPSE
  5
6FD
100
AcDbEntity
  8
ASSI
100
AcDbEllipse
 62
7
  6
CONTINUOUS
 10
5.7852127233
 20
-7.8848035665
 30
0.0
 11
0.3
 21
-0.0
 31
0.0
 40
0.1763269807
 41
-1.5707963268
 42
-0.0174532925
  0
ELLIPSE
  5
6FE
100
AcDbEntity
  8
ASSI
100
AcDbEllipse
 62
7
  6
CONTINUOUS
 10
-12.4755416371
 20
9.3891135856
 30
0.0
 11
0.0
 21
423.7
 31
0.0
 40
0.0174550649
 41
-1.6103149114
 42
-1.60848535
  0
ELLIPSE
  5
6FF
100
AcDbEntity
  8
ASSI
100
AcDbEllipse
 62
7
  6
CONTINUOUS
 10
-11.1182325913
 20
8.2315575698
 30
0.0
 11
0.0
 21
0.3
 31
0.0
 40
0.0174550649
 41
-3.1241393611
 42
-1.5707963268
  0
ELLIPSE
  5
700
100
AcDbEntity
  8
ASSI
100
AcDbEllipse
 62
7
  6
CONTINUOUS
 10
11.2782763957
 20
8.2315575698
 30
0.0
 11
0.0
 21
0.3
 31
0.0
 40
0.0174550649
 41
-4.7123889804
 42
-3.1590459461
  0
ELLIPSE
  5
701
100
AcDbEntity
  8
ASSI
100
AcDbEllipse
 62
7
  6
CONTINUOUS
 10
-5.4147872767
 20
-7.8848035665
 30
0.0
 11
0.3
 21
0.0
 31
0.0
 40
0.1763269807
 41
-1.5707963268
 42
-0.0174532925
  0
ELLIPSE
  5
702
100
AcDbEntity
  8
ASSI
100
AcDbEllipse
 62
7
  6
CONTINUOUS
 10
-5.6251689188
 20
-7.8848035665
 30
0.0
 11
0.3
 21
-0.0
 31
0.0
 40
0.1763269807
 41
-3.1241393611
 42
-1.5707963268
  0
ELLIPSE
  5
703
100
AcDbEntity
  8
ASSI
100
AcDbEllipse
 62
7
  6
CONTINUOUS
 10
5.5748310812
 20
-7.8848035665
 30
0.0
 11
0.3
 21
0.0
 31
0.0
 40
0.1763269807
 41
-3.1241393611
 42
-1.5707963268
  0
ENDSEC
  0
SECTION
  2
OBJECTS
  0
DICTIONARY
  5
C
100
AcDbDictionary
280
0
281
1
  3
ACAD_GROUP
350
D
  3
ACAD_MLINESTYLE
350
17
  3
ACAD_LAYOUT
350
1A
  3
ACAD_PLOTSETTINGS
350
19
  3
ACAD_PLOTSTYLENAME
350
E
  0
DICTIONARY
  5
D
102
{ACAD_REACTORS
330
C
102
}
100
AcDbDictionary
280
0
281
1
  0
ACDBDICTIONARYWDFLT
  5
E
102
{ACAD_REACTORS
330
C
102
}
100
AcDbDictionary
281
1
  3
Normal
350
F
100
AcDbDictionaryWithDefault
340
F
  0
DICTIONARY
  5
17
102
{ACAD_REACTORS
330
C
102
}
100
AcDbDictionary
280
0
281
1
  3
Standard
350
18
  0
DICTIONARY
  5
19
102
{ACAD_REACTORS
330
C
102
}
100
AcDbDictionary
281
1
  0
DICTIONARY
  5
1A
102
{ACAD_REACTORS
330
C
102
}
100
AcDbDictionary
281
1
  3
Model
350
704
  3
Layout1
350
705
  0
ACDBPLACEHOLDER
  5
F
102
{ACAD_REACTORS
330
E
102
}
  0
MLINESTYLE
  5
18
102
{ACAD_REACTORS
330
17
102
}
100
AcDbMlineStyle
  2
STANDARD
 70
0
  3

 62
256
 51
90.0
 52
90.0
 71
2
 49
0.5
 62
256
  6
BYLAYER
 49
-0.5
 62
256
  6
BYLAYER
  0
LAYOUT
  5
704
102
{ACAD_REACTORS
330
1A
102
}
100
AcDbPlotSettings
  1

  2
none_device
  4
ISO_A4_(297.00_x_210.00_MM)
  6

 40
0.0
 41
0.0
 42
0.0
 43
0.0
 44
297.0
 45
210.0
 46
0.0
 47
0.0
 48
0.0
 49
0.0
140
0.0
141
0.0
142
1.0
143
1.0
 70
1024
 72
1
 73
0
 74
0
  7

 75
0
147
1.0
148
0.0
149
0.0
100
AcDbLayout
  1
Model
 70
0
 71
0
 10
0.0
 20
0.0
 11
297.0
 21
210.0
 12
0.0
 22
0.0
 32
0.0
 14
0.0
 24
0.0
 34
0.0
 15
0.0
 25
0.0
 35
0.0
146
0.0
 13
0.0
 23
0.0
 33
0.0
 16
1.0
 26
0.0
 36
0.0
 17
0.0
 27
1.0
 37
0.0
 76
0
330
212
345
0
346
0
  0
LAYOUT
  5
705
102
{ACAD_REACTORS
330
1A
102
}
100
AcDbPlotSettings
  1

  2
none_device
  4
ISO_A4_(297.00_x_210.00_MM)
  6

 40
0.0
 41
0.0
 42
0.0
 43
0.0
 44
297.0
 45
210.0
 46
0.0
 47
0.0
 48
0.0
 49
0.0
140
0.0
141
0.0
142
1.0
143
1.0
 70
0
 72
1
 73
0
 74
0
  7

 75
0
147
1.0
148
0.0
149
0.0
100
AcDbLayout
  1
Layout1
 70
0
 71
1
 10
0.0
 20
0.0
 11
297.0
 21
210.0
 12
0.0
 22
0.0
 32
0.0
 14
0.0
 24
0.0
 34
0.0
 15
0.0
 25
0.0
 35
0.0
146
0.0
 13
0.0
 23
0.0
 33
0.0
 16
1.0
 26
0.0
 36
0.0
 17
0.0
 27
1.0
 37
0.0
 76
0
330
213
345
0
346
0
  0
ENDSEC
  0
EOF
