  0
SECTION
  2
HEADER
  9
$ACADVER
  1
AC1015
  9
$DWGCODEPAGE
  3
ANSI_1252
  9
$EXTMAX
 10
297.0
 20
210.0
 30
0.0
  9
$EXTMIN
 10
0.0
 20
0.0
 30
0.0
  9
$LIMMIN
 10
0.0
 20
0.0
  9
$LIMMAX
 10
297.0
 20
210.0
  9
$VIEWCTR
 10
148.5
 20
105.0
  9
$VIEWSIZE
 40
210.0
  9
$CLAYER
  8
0
  9
$LTSCALE
 40
16.335
  9
$CELTYPE
  6
BYLAYER
  9
$DIMSCALE
 40
1.0
  9
$DIMASZ
 40
3.0
  9
$DIMEXO
 40
1.85625
  9
$DIMDLI
 40
11.286
  9
$DIMEXE
 40
5.346
  9
$DIMCEN
 40
2.673
  9
$DIMLFAC
 40
1.0
  9
$DIMBLK
  1
_FILLED
  9
$DIMTXT
 40
3.0
  9
$DIMTOL
 70
1
  9
$DIMLIM
 70
0
  9
$DIMTFAC
 40
1.0
  9
$DIMTP
 40
0.01
  9
$DIMTM
 40
0.01
  9
$PDMODE
 70
3
  9
$PDSIZE
 40
3.0
  9
$HANDSEED
  5
706
  9
$TILEMODE
 70
1
  9
$MEASUREMENT
 70
1
  9
$INSUNITS
 70
4
  0
ENDSEC
  0
SECTION
  2
CLASSES
  0
CLASS
  1
ACDBDICTIONARYWDFLT
  2
AcDbDictionaryWithDefault
  3
AutoCAD 2000
 90
0
280
0
281
0
  0
CLASS
  1
ACDBPLACEHOLDER
  2
AcDbPlaceHolder
  3
AutoCAD 2000
 90
0
280
0
281
0
  0
CLASS
  1
LAYOUT
  2
AcDbLayout
  3
AutoCAD 2000
 90
0
280
0
281
0
  0
ENDSEC
  0
SECTION
  2
TABLES
  0
TABLE
  2
VPORT
  5
8
100
AcDbSymbolTable
 70
2
  0
VPORT
  5
1F4
100
AcDbSymbolTableRecord
100
AcDbViewportTableRecord
  2
*ACTIVE
 70
0
 10
0.0
 20
0.0
 11
1.0
 21
1.0
 12
148.5
 22
105.0
 13
0.0
 23
0.0
 14
1.0
 24
1.0
 15
0.0
 25
0.0
 16
0.0
 26
0.0
 36
1.0
 17
0.0
 27
0.0
 37
0.0
 40
210.0
 41
1.4142857143
 42
50.0
 43
0.0
 44
0.0
 50
0.0
 51
0.0
 71
0
 72
100
 73
1
 74
1
 75
0
 76
0
 77
0
 78
0
  0
ENDTAB
  0
TABLE
  2
LTYPE
  5
5
100
AcDbSymbolTable
 70
6
  0
LTYPE
  5
14
100
AcDbSymbolTableRecord
100
AcDbLinetypeTableRecord
  2
BYBLOCK
 70
0
  3

 72
65
 73
0
 40
0.0
  0
LTYPE
  5
15
100
AcDbSymbolTableRecord
100
AcDbLinetypeTableRecord
  2
BYLAYER
 70
0
  3

 72
65
 73
0
 40
0.0
  0
LTYPE
  5
16
100
AcDbSymbolTableRecord
100
AcDbLinetypeTableRecord
  2
CONTINUOUS
 70
64
  3
Solid line
 72
65
 73
0
 40
0.0
  0
LTYPE
  5
1F5
100
AcDbSymbolTableRecord
100
AcDbLinetypeTableRecord
  2
CENTER
 70
64
  3
____ _ ____ _ ____ _ ____ _ ____ _ ____ _ ____
 72
65
 73
4
 40
0.6
 49
0.375
 74
0
 49
-0.075
 74
0
 49
0.075
 74
0
 49
-0.075
 74
0
  0
LTYPE
  5
1F6
100
AcDbSymbolTableRecord
100
AcDbLinetypeTableRecord
  2
HIDDEN
 70
64
  3
- - - - - - - - - - - - - - - - - - - -
 72
65
 73
2
 40
0.2
 49
0.1
 74
0
 49
-0.1
 74
0
  0
LTYPE
  5
1F7
100
AcDbSymbolTableRecord
100
AcDbLinetypeTableRecord
  2
PHANTOM
 70
64
  3
_____ _ _ _____ _ _ _____ _ _ _____
 72
65
 73
6
 40
0.8
 49
0.45
 74
0
 49
-0.05
 74
0
 49
0.1
 74
0
 49
-0.05
 74
0
 49
0.1
 74
0
 49
-0.05
 74
0
  0
LTYPE
  5
1F8
100
AcDbSymbolTableRecord
100
AcDbLinetypeTableRecord
  2
DOT
 70
64
  3
. . . . . . . . . . . . . . . . . . . .
 72
65
 73
2
 40
0.2
 49
0.1
 74
0
 49
-0.1
 74
0
  0
LTYPE
  5
1F9
100
AcDbSymbolTableRecord
100
AcDbLinetypeTableRecord
  2
DASHED
 70
64
  3
- - - - - - - - - - - - - - - - - - - -
 72
65
 73
2
 40
0.2
 49
0.1
 74
0
 49
-0.1
 74
0
  0
ENDTAB
  0
TABLE
  2
LAYER
  5
2
100
AcDbSymbolTable
 70
36
  0
LAYER
  5
10
100
AcDbSymbolTableRecord
100
AcDbLayerTableRecord
  2
0
 70
0
 62
7
  6
CONTINUOUS
370
-3
390
F
  0
LAYER
  5
1FA
100
AcDbSymbolTableRecord
100
AcDbLayerTableRecord
  2
DEFAULT_1
 70
0
 62
7
  6
CENTER
370
-3
390
F
  0
LAYER
  5
1FB
100
AcDbSymbolTableRecord
100
AcDbLayerTableRecord
  2
DEFAULT_2
 70
0
 62
7
  6
HIDDEN
370
-3
390
F
  0
LAYER
  5
1FC
100
AcDbSymbolTableRecord
100
AcDbLayerTableRecord
  2
DEFAULT_3
 70
0
 62
7
  6
PHANTOM
370
-3
390
F
  0
LAYER
  5
1FD
100
AcDbSymbolTableRecord
100
AcDbLayerTableRecord
  2
ASSI
 70
0
 62
7
  6
CONTINUOUS
370
-3
390
F
  0
LAYER
  5
1FE
100
AcDbSymbolTableRecord
100
AcDbLayerTableRecord
  2
COORDINATE
 70
0
 62
7
  6
CONTINUOUS
370
-3
390
F
  0
LAYER
  5
1FF
100
AcDbSymbolTableRecord
100
AcDbLayerTableRecord
  2
COORD_ORIGINE
 70
0
 62
7
  6
CONTINUOUS
370
-3
390
F
  0
LAYER
  5
200
100
AcDbSymbolTableRecord
100
AcDbLayerTableRecord
  2
COPY_PUBLISH
 70
0
 62
7
  6
CONTINUOUS
370
-3
390
F
  0
LAYER
  5
201
100
AcDbSymbolTableRecord
100
AcDbLayerTableRecord
  2
COSMETIC
 70
0
 62
7
  6
CONTINUOUS
370
-3
390
F
  0
LAYER
  5
202
100
AcDbSymbolTableRecord
100
AcDbLayerTableRecord
  2
CURVE
 70
0
 62
7
  6
CONTINUOUS
370
-3
390
F
  0
LAYER
  5
203
100
AcDbSymbolTableRecord
100
AcDbLayerTableRecord
  2
DRAFT
 70
0
 62
7
  6
CONTINUOUS
370
-3
390
F
  0
LAYER
  5
204
100
AcDbSymbolTableRecord
100
AcDbLayerTableRecord
  2
IGES
 70
0
 62
7
  6
CONTINUOUS
370
-3
390
F
  0
LAYER
  5
205
100
AcDbSymbolTableRecord
100
AcDbLayerTableRecord
  2
IMPORT_IGES
 70
0
 62
7
  6
CONTINUOUS
370
-3
390
F
  0
LAYER
  5
206
100
AcDbSymbolTableRecord
100
AcDbLayerTableRecord
  2
INTF_12
 70
0
 62
7
  6
CONTINUOUS
370
-3
390
F
  0
LAYER
  5
207
100
AcDbSymbolTableRecord
100
AcDbLayerTableRecord
  2
INTF_9
 70
0
 62
7
  6
CONTINUOUS
370
-3
390
F
  0
LAYER
  5
208
100
AcDbSymbolTableRecord
100
AcDbLayerTableRecord
  2
NOTE
 70
0
 62
7
  6
CONTINUOUS
370
-3
390
F
  0
LAYER
  5
209
100
AcDbSymbolTableRecord
100
AcDbLayerTableRecord
  2
PIANI
 70
0
 62
7
  6
CONTINUOUS
370
-3
390
F
  0
LAYER
  5
20A
100
AcDbSymbolTableRecord
100
AcDbLayerTableRecord
  2
PIANI_ORIGINE
 70
0
 62
7
  6
CONTINUOUS
370
-3
390
F
  0
LAYER
  5
20B
100
AcDbSymbolTableRecord
100
AcDbLayerTableRecord
  2
RACCORDO
 70
0
 62
7
  6
CONTINUOUS
370
-3
390
F
  0
LAYER
  5
20C
100
AcDbSymbolTableRecord
100
AcDbLayerTableRecord
  2
SMUSSO
 70
0
 62
7
  6
CONTINUOUS
370
-3
390
F
  0
LAYER
  5
20D
100
AcDbSymbolTableRecord
100
AcDbLayerTableRecord
  2
SNAPLINE
 70
0
 62
7
  6
CONTINUOUS
370
-3
390
F
  0
LAYER
  5
20E
100
AcDbSymbolTableRecord
100
AcDbLayerTableRecord
  2
SUPERFICI
 70
0
 62
7
  6
CONTINUOUS
370
-3
390
F
  0
LAYER
  5
20F
100
AcDbSymbolTableRecord
100
AcDbLayerTableRecord
  2
TRASH
 70
0
 62
7
  6
CONTINUOUS
370
-3
390
F
  0
ENDTAB
  0
TABLE
  2
STYLE
  5
3
100
AcDbSymbolTable
 70
1
  0
STYLE
  5
11
100
AcDbSymbolTableRecord
100
AcDbTextStyleTableRecord
  2
STANDARD
 70
0
 40
0.0
 41
0.8
 50
0.0
 71
0
 42
0.2
  3
txt
  4

  0
STYLE
  5
210
100
AcDbSymbolTableRecord
100
AcDbTextStyleTableRecord
  2
TEXTSTYLE_1
 70
0
 40
0.0
 41
0.8
 50
0.0
 71
0
 42
0.2
  3
gdt
  4

  0
ENDTAB
  0
TABLE
  2
VIEW
  5
6
100
AcDbSymbolTable
 70
0
  0
ENDTAB
  0
TABLE
  2
UCS
  5
7
100
AcDbSymbolTable
 70
0
  0
ENDTAB
  0
TABLE
  2
APPID
  5
9
100
AcDbSymbolTable
 70
1
  0
APPID
  5
211
100
AcDbSymbolTableRecord
100
AcDbRegAppTableRecord
  2
ACAD
 70
0
  0
ENDTAB
  0
TABLE
  2
BLOCK_RECORD
  5
1
100
AcDbSymbolTable
 70
0
  0
BLOCK_RECORD
  5
212
100
AcDbSymbolTableRecord
100
AcDbBlockTableRecord
  2
*Model_Space
  0
BLOCK_RECORD
  5
213
100
AcDbSymbolTableRecord
100
AcDbBlockTableRecord
  2
*Paper_Space
  0
ENDTAB
  0
TABLE
  2
DIMSTYLE
  5
A
100
AcDbSymbolTable
 70
1
100
AcDbDimStyleTable
 71
0
  0
DIMSTYLE
105
214
100
AcDbSymbolTableRecord
100
AcDbDimStyleTableRecord
  2
STANDARD
 70
0
  3

  4

 40
1.0
 41
3.0
 42
0.0625
 43
0.38
 44
0.18
 45
0.0
 46
0.0
 47
0.01
 48
0.01
140
3.0
141
0.09
142
0.0
143
25.4
144
1.0
145
0.0
146
1.0
147
0.09
 71
1.0
 72
0.0
 73
0
 74
0
 75
0
 76
0
 77
1
 78
8
170
0
171
2
172
0
173
0
174
0
175
0
176
0
177
0
178
0
270
2
271
2
272
2
273
2
274
2
275
0
280
0
281
0
282
0
283
1
284
8
285
0
286
0
287
3
288
0
340
11
  0
ENDTAB
  0
ENDSEC
  0
SECTION
  2
BLOCKS
  0
BLOCK
  5
20
100
AcDbEntity
  8
0
100
AcDbBlockBegin
  2
*Model_Space
 70
0
 10
0.0
 20
0.0
 30
0.0
  3
*Model_Space
  1

  0
ENDBLK
  5
21
100
AcDbEntity
  8
0
100
AcDbBlockEnd
  0
BLOCK
  5
1C
100
AcDbEntity
  8
0
100
AcDbBlockBegin
  2
*Paper_Space
 70
0
 10
0.0
 20
0.0
 30
0.0
  3
*Paper_Space
  1

  0
ENDBLK
  5
1D
100
AcDbEntity
  8
0
100
AcDbBlockEnd
  0
ENDSEC
  0
SECTION
  2
ENTITIES
  0
LINE
  5
215
100
AcDbEntity
  8
RACCORDO
100
AcDbLine
 62
7
  6
CONTINUOUS
 10
-11.1984454037
 20
7.8824288507
 11
-11.1966085074
 21
7.8842657471
  0
LINE
  5
216
100
AcDbEntity
  8
ASSI
100
AcDbLine
 62
7
  6
CONTINUOUS
 10
-11.1984454037
 20
7.8824288507
 11
-11.1966085074
 21
7.8842657471
  0
LINE
  5
217
100
AcDbEntity
  8
RACCORDO
100
AcDbLine
 62
7
  6
CONTINUOUS
 10
-12.284952326
 20
-9.1015064601
 11
-12.2984454037
 21
-1.7467323652
  0
LINE
  5
218
100
AcDbEntity
  8
ASSI
100
AcDbLine
 62
7
  6
CONTINUOUS
 10
-12.284952326
 20
-9.1015064601
 11
-12.2984454037
 21
-1.7467323652
  0
LINE
  5
219
100
AcDbEntity
  8
DRAFT
100
AcDbLine
 62
7
  6
CONTINUOUS
 10
-12.2984454037
 20
7.8824288507
 11
-12.2984454037
 21
-1.7467323652
  0
LINE
  5
21A
100
AcDbEntity
  8
ASSI
100
AcDbLine
 62
7
  6
CONTINUOUS
 10
-12.2984454037
 20
7.8824288507
 11
-12.2984454037
 21
-1.7467323652
  0
LINE
  5
21B
100
AcDbEntity
  8
RACCORDO
100
AcDbLine
 62
7
  6
CONTINUOUS
 10
-12.2914633778
 20
8.1842200556
 11
-12.2914633778
 21
8.8848321217
  0
LINE
  5
21C
100
AcDbEntity
  8
ASSI
100
AcDbLine
 62
7
  6
CONTINUOUS
 10
-12.2914633778
 20
8.1842200556
 11
-12.2914633778
 21
8.8848321217
  0
LINE
  5
21D
100
AcDbEntity
  8
RACCORDO
100
AcDbLine
 62
7
  6
CONTINUOUS
 10
-11.1740083128
 20
-6.8233137987
 11
-11.126970665
 21
-6.8703514465
  0
LINE
  5
21E
100
AcDbEntity
  8
ASSI
100
AcDbLine
 62
7
  6
CONTINUOUS
 10
-11.1740083128
 20
-6.8233137987
 11
-11.126970665
 21
-6.8703514465
  0
LINE
  5
21F
100
AcDbEntity
  8
DRAFT
100
AcDbLine
 62
7
  6
CONTINUOUS
 10
-11.1939378178
 20
-4.2037163427
 11
-11.1844941483
 21
-9.3512488321
  0
LINE
  5
220
100
AcDbEntity
  8
ASSI
100
AcDbLine
 62
7
  6
CONTINUOUS
 10
-11.1939378178
 20
-4.2037163427
 11
-11.1844941483
 21
-9.3512488321
  0
LINE
  5
221
100
AcDbEntity
  8
DRAFT
100
AcDbLine
 62
7
  6
CONTINUOUS
 10
-11.4939378178
 20
-4.2037163427
 11
-11.4984454037
 21
-1.7082239285
  0
LINE
  5
222
100
AcDbEntity
  8
ASSI
100
AcDbLine
 62
7
  6
CONTINUOUS
 10
-11.4939378178
 20
-4.2037163427
 11
-11.4984454037
 21
-1.7082239285
  0
LINE
  5
223
100
AcDbEntity
  8
DRAFT
100
AcDbLine
 62
7
  6
CONTINUOUS
 10
-11.1984454037
 20
7.8824288507
 11
-11.1984454037
 21
-1.7082239285
  0
LINE
  5
224
100
AcDbEntity
  8
ASSI
100
AcDbLine
 62
7
  6
CONTINUOUS
 10
-11.1984454037
 20
7.8824288507
 11
-11.1984454037
 21
-1.7082239285
  0
LINE
  5
225
100
AcDbEntity
  8
RACCORDO
100
AcDbLine
 62
7
  6
CONTINUOUS
 10
-11.1914633778
 20
8.1842200556
 11
-11.1914633778
 21
7.9941412662
  0
LINE
  5
226
100
AcDbEntity
  8
ASSI
100
AcDbLine
 62
7
  6
CONTINUOUS
 10
-11.1914633778
 20
8.1842200556
 11
-11.1914633778
 21
7.9941412662
  0
LINE
  5
227
100
AcDbEntity
  8
RACCORDO
100
AcDbLine
 62
7
  6
CONTINUOUS
 10
-11.1844813518
 20
-9.3512456332
 11
-11.1844813518
 21
-7.9634575594
  0
LINE
  5
228
100
AcDbEntity
  8
ASSI
100
AcDbLine
 62
7
  6
CONTINUOUS
 10
-11.1844813518
 20
-9.3512456332
 11
-11.1844813518
 21
-7.9634575594
  0
LINE
  5
229
100
AcDbEntity
  8
DRAFT
100
AcDbLine
 62
7
  6
CONTINUOUS
 10
-11.1809903388
 20
-1.1001160844
 11
-11.1809903388
 21
-1.7256789935
  0
LINE
  5
22A
100
AcDbEntity
  8
ASSI
100
AcDbLine
 62
7
  6
CONTINUOUS
 10
-11.1809903388
 20
-1.1001160844
 11
-11.1809903388
 21
-1.7256789935
  0
LINE
  5
22B
100
AcDbEntity
  8
DRAFT
100
AcDbLine
 62
7
  6
CONTINUOUS
 10
-11.1809903388
 20
-4.1907688636
 11
-11.1809903388
 21
-4.8163317727
  0
LINE
  5
22C
100
AcDbEntity
  8
ASSI
100
AcDbLine
 62
7
  6
CONTINUOUS
 10
-11.1809903388
 20
-4.1907688636
 11
-11.1809903388
 21
-4.8163317727
  0
LINE
  5
22D
100
AcDbEntity
  8
DRAFT
100
AcDbLine
 62
7
  6
CONTINUOUS
 10
-11.1740083128
 20
1.7068659416
 11
-11.1740083128
 21
1.0766862013
  0
LINE
  5
22E
100
AcDbEntity
  8
ASSI
100
AcDbLine
 62
7
  6
CONTINUOUS
 10
-11.1740083128
 20
1.7068659416
 11
-11.1740083128
 21
1.0766862013
  0
LINE
  5
22F
100
AcDbEntity
  8
DRAFT
100
AcDbLine
 62
7
  6
CONTINUOUS
 10
-11.1740083128
 20
-6.1931340584
 11
-11.1740083128
 21
-6.8233137987
  0
LINE
  5
230
100
AcDbEntity
  8
ASSI
100
AcDbLine
 62
7
  6
CONTINUOUS
 10
-11.1740083128
 20
-6.1931340584
 11
-11.1740083128
 21
-6.8233137987
  0
LINE
  5
231
100
AcDbEntity
  8
RACCORDO
100
AcDbLine
 62
7
  6
CONTINUOUS
 10
-9.8311723556
 20
-6.8754969767
 11
-9.878210404
 21
-6.8284589283
  0
LINE
  5
232
100
AcDbEntity
  8
ASSI
100
AcDbLine
 62
7
  6
CONTINUOUS
 10
-9.8311723556
 20
-6.8754969767
 11
-9.878210404
 21
-6.8284589283
  0
LINE
  5
233
100
AcDbEntity
  8
RACCORDO
100
AcDbLine
 62
7
  6
CONTINUOUS
 10
-11.1809903388
 20
-4.8163317727
 11
-11.1257163179
 21
-4.8716057936
  0
LINE
  5
234
100
AcDbEntity
  8
ASSI
100
AcDbLine
 62
7
  6
CONTINUOUS
 10
-11.1809903388
 20
-4.8163317727
 11
-11.1257163179
 21
-4.8716057936
  0
LINE
  5
235
100
AcDbEntity
  8
DRAFT
100
AcDbLine
 62
7
  6
CONTINUOUS
 10
-10.4159004687
 20
-4.1907688636
 11
-10.4159004687
 21
-1.7256789935
  0
LINE
  5
236
100
AcDbEntity
  8
ASSI
100
AcDbLine
 62
7
  6
CONTINUOUS
 10
-10.4159004687
 20
-4.1907688636
 11
-10.4159004687
 21
-1.7256789935
  0
LINE
  5
237
100
AcDbEntity
  8
RACCORDO
100
AcDbLine
 62
253
  6
CONTINUOUS
 10
-10.1781647125
 20
-6.8233137987
 11
-10.1781647125
 21
-6.1931340584
  0
LINE
  5
238
100
AcDbEntity
  8
ASSI
100
AcDbLine
 62
253
  6
CONTINUOUS
 10
-10.1781647125
 20
-6.8233137987
 11
-10.1781647125
 21
-6.1931340584
  0
LINE
  5
239
100
AcDbEntity
  8
RACCORDO
100
AcDbLine
 62
253
  6
CONTINUOUS
 10
-10.1781647125
 20
1.0766862013
 11
-10.1781647125
 21
1.7068659416
  0
LINE
  5
23A
100
AcDbEntity
  8
ASSI
100
AcDbLine
 62
253
  6
CONTINUOUS
 10
-10.1781647125
 20
1.0766862013
 11
-10.1781647125
 21
1.7068659416
  0
LINE
  5
23B
100
AcDbEntity
  8
DRAFT
100
AcDbLine
 62
7
  6
CONTINUOUS
 10
-10.1484454037
 20
-4.8163317727
 11
-10.1484454037
 21
-1.1001160844
  0
LINE
  5
23C
100
AcDbEntity
  8
ASSI
100
AcDbLine
 62
7
  6
CONTINUOUS
 10
-10.1484454037
 20
-4.8163317727
 11
-10.1484454037
 21
-1.1001160844
  0
LINE
  5
23D
100
AcDbEntity
  8
RACCORDO
100
AcDbLine
 62
253
  6
CONTINUOUS
 10
-10.8227788925
 20
1.7632853454
 11
-10.8216382586
 21
7.9191253555
  0
LINE
  5
23E
100
AcDbEntity
  8
ASSI
100
AcDbLine
 62
253
  6
CONTINUOUS
 10
-10.8227788925
 20
1.7632853454
 11
-10.8216382586
 21
7.9191253555
  0
LINE
  5
23F
100
AcDbEntity
  8
RACCORDO
100
AcDbLine
 62
253
  6
CONTINUOUS
 10
-10.8238145173
 20
-1.0377510132
 11
-10.8230220289
 21
1.0205101063
  0
LINE
  5
240
100
AcDbEntity
  8
ASSI
100
AcDbLine
 62
253
  6
CONTINUOUS
 10
-10.8238145173
 20
-1.0377510132
 11
-10.8230220289
 21
1.0205101063
  0
LINE
  5
241
100
AcDbEntity
  8
RACCORDO
100
AcDbLine
 62
253
  6
CONTINUOUS
 10
-10.8265321806
 20
-6.1404706027
 11
-10.8257591239
 21
-4.8767508595
  0
LINE
  5
242
100
AcDbEntity
  8
ASSI
100
AcDbLine
 62
253
  6
CONTINUOUS
 10
-10.8265321806
 20
-6.1404706027
 11
-10.8257591239
 21
-4.8767508595
  0
LINE
  5
243
100
AcDbEntity
  8
RACCORDO
100
AcDbLine
 62
253
  6
CONTINUOUS
 10
-10.8273667689
 20
-7.3978903234
 11
-10.8270121187
 21
-6.8754969772
  0
LINE
  5
244
100
AcDbEntity
  8
ASSI
100
AcDbLine
 62
253
  6
CONTINUOUS
 10
-10.8273667689
 20
-7.3978903234
 11
-10.8270121187
 21
-6.8754969772
  0
LINE
  5
245
100
AcDbEntity
  8
RACCORDO
100
AcDbLine
 62
253
  6
CONTINUOUS
 10
-11.1844813518
 20
-7.9634575594
 11
-11.1273210776
 21
-7.3860378472
  0
LINE
  5
246
100
AcDbEntity
  8
ASSI
100
AcDbLine
 62
253
  6
CONTINUOUS
 10
-11.1844813518
 20
-7.9634575594
 11
-11.1273210776
 21
-7.3860378472
  0
LINE
  5
247
100
AcDbEntity
  8
RACCORDO
100
AcDbLine
 62
7
  6
CONTINUOUS
 10
-7.5535905333
 20
7.9366309418
 11
-7.5710961197
 21
7.9191253555
  0
LINE
  5
248
100
AcDbEntity
  8
ASSI
100
AcDbLine
 62
7
  6
CONTINUOUS
 10
-7.5535905333
 20
7.9366309418
 11
-7.5710961197
 21
7.9191253555
  0
LINE
  5
249
100
AcDbEntity
  8
DRAFT
100
AcDbLine
 62
7
  6
CONTINUOUS
 10
-10.4159004687
 20
-4.1907688636
 11
-10.4767457537
 21
-4.1299235786
  0
LINE
  5
24A
100
AcDbEntity
  8
ASSI
100
AcDbLine
 62
7
  6
CONTINUOUS
 10
-10.4159004687
 20
-4.1907688636
 11
-10.4767457537
 21
-4.1299235786
  0
LINE
  5
24B
100
AcDbEntity
  8
DRAFT
100
AcDbLine
 62
7
  6
CONTINUOUS
 10
-9.8984454037
 20
-1.0377510133
 11
-9.8984454037
 21
-1.0742661786
  0
LINE
  5
24C
100
AcDbEntity
  8
ASSI
100
AcDbLine
 62
7
  6
CONTINUOUS
 10
-9.8984454037
 20
-1.0377510133
 11
-9.8984454037
 21
-1.0742661786
  0
LINE
  5
24D
100
AcDbEntity
  8
DRAFT
100
AcDbLine
 62
7
  6
CONTINUOUS
 10
-9.8984454037
 20
-4.8421816784
 11
-9.8984454037
 21
-4.8767508593
  0
LINE
  5
24E
100
AcDbEntity
  8
ASSI
100
AcDbLine
 62
7
  6
CONTINUOUS
 10
-9.8984454037
 20
-4.8421816784
 11
-9.8984454037
 21
-4.8767508593
  0
LINE
  5
24F
100
AcDbEntity
  8
RACCORDO
100
AcDbLine
 62
253
  6
CONTINUOUS
 10
-9.878210404
 20
-6.8284589283
 11
-9.878210404
 21
-6.1879889288
  0
LINE
  5
250
100
AcDbEntity
  8
ASSI
100
AcDbLine
 62
253
  6
CONTINUOUS
 10
-9.878210404
 20
-6.8284589283
 11
-9.878210404
 21
-6.1879889288
  0
LINE
  5
251
100
AcDbEntity
  8
RACCORDO
100
AcDbLine
 62
253
  6
CONTINUOUS
 10
-9.878210404
 20
1.0715410717
 11
-9.878210404
 21
1.7120110712
  0
LINE
  5
252
100
AcDbEntity
  8
ASSI
100
AcDbLine
 62
253
  6
CONTINUOUS
 10
-9.878210404
 20
1.0715410717
 11
-9.878210404
 21
1.7120110712
  0
LINE
  5
253
100
AcDbEntity
  8
DRAFT
100
AcDbLine
 62
7
  6
CONTINUOUS
 10
-9.4984454037
 20
-4.8381506039
 11
-9.4984454037
 21
-1.0782972532
  0
LINE
  5
254
100
AcDbEntity
  8
ASSI
100
AcDbLine
 62
7
  6
CONTINUOUS
 10
-9.4984454037
 20
-4.8381506039
 11
-9.4984454037
 21
-1.0782972532
  0
LINE
  5
255
100
AcDbEntity
  8
RACCORDO
100
AcDbLine
 62
253
  6
CONTINUOUS
 10
-10.8853449654
 20
-8.267162344
 11
-10.8273667677
 21
-7.6814801595
  0
LINE
  5
256
100
AcDbEntity
  8
ASSI
100
AcDbLine
 62
253
  6
CONTINUOUS
 10
-10.8853449654
 20
-8.267162344
 11
-10.8273667677
 21
-7.6814801595
  0
LINE
  5
257
100
AcDbEntity
  8
RACCORDO
100
AcDbLine
 62
7
  6
CONTINUOUS
 10
-11.1227364863
 20
1.7581377682
 11
-11.1740083128
 21
1.7068659416
  0
LINE
  5
258
100
AcDbEntity
  8
ASSI
100
AcDbLine
 62
7
  6
CONTINUOUS
 10
-11.1227364863
 20
1.7581377682
 11
-11.1740083128
 21
1.7068659416
  0
LINE
  5
259
100
AcDbEntity
  8
RACCORDO
100
AcDbLine
 62
7
  6
CONTINUOUS
 10
12.0376033394
 20
-9.3512488321
 11
11.1876033409
 21
-9.3512488321
  0
LINE
  5
25A
100
AcDbEntity
  8
RACCORDO
100
AcDbLine
 62
7
  6
CONTINUOUS
 10
-11.1844941483
 20
-9.3512488321
 11
-12.0344941469
 21
-9.3512488321
  0
LINE
  5
25B
100
AcDbEntity
  8
DRAFT
100
AcDbLine
 62
7
  6
CONTINUOUS
 10
-11.1844909492
 20
-9.3512472326
 11
11.1876001417
 21
-9.3512472326
  0
LINE
  5
25C
100
AcDbEntity
  8
ASSI
100
AcDbLine
 62
7
  6
CONTINUOUS
 10
-12.0344941469
 20
-9.3512488321
 11
12.0376033394
 21
-9.3512488321
  0
LINE
  5
25D
100
AcDbEntity
  8
DRAFT
100
AcDbLine
 62
7
  6
CONTINUOUS
 10
-11.4984454037
 20
-1.7082239285
 11
-11.4189576457
 21
-1.7877116866
  0
LINE
  5
25E
100
AcDbEntity
  8
ASSI
100
AcDbLine
 62
7
  6
CONTINUOUS
 10
-11.4984454037
 20
-1.7082239285
 11
-11.4189576457
 21
-1.7877116866
  0
LINE
  5
25F
100
AcDbEntity
  8
DRAFT
100
AcDbLine
 62
7
  6
CONTINUOUS
 10
-8.5109113943
 20
9.1347940455
 11
-8.5109113943
 21
7.9941412662
  0
LINE
  5
260
100
AcDbEntity
  8
ASSI
100
AcDbLine
 62
7
  6
CONTINUOUS
 10
-8.5109113943
 20
9.1347940455
 11
-8.5109113943
 21
7.9941412662
  0
LINE
  5
261
100
AcDbEntity
  8
DRAFT
100
AcDbLine
 62
7
  6
CONTINUOUS
 10
-8.2484454037
 20
9.0824288507
 11
-8.2484454037
 21
7.9417760715
  0
LINE
  5
262
100
AcDbEntity
  8
ASSI
100
AcDbLine
 62
7
  6
CONTINUOUS
 10
-8.2484454037
 20
9.0824288507
 11
-8.2484454037
 21
7.9417760715
  0
LINE
  5
263
100
AcDbEntity
  8
RACCORDO
100
AcDbLine
 62
7
  6
CONTINUOUS
 10
-9.8269361299
 20
1.7632853453
 11
-9.878210404
 21
1.7120110712
  0
LINE
  5
264
100
AcDbEntity
  8
ASSI
100
AcDbLine
 62
7
  6
CONTINUOUS
 10
-9.8269361299
 20
1.7632853453
 11
-9.878210404
 21
1.7120110712
  0
LINE
  5
265
100
AcDbEntity
  8
RACCORDO
100
AcDbLine
 62
7
  6
CONTINUOUS
 10
-10.8853449654
 20
-8.267162344
 11
10.888454158
 21
-8.267162344
  0
LINE
  5
266
100
AcDbEntity
  8
ASSI
100
AcDbLine
 62
7
  6
CONTINUOUS
 10
-10.8853449654
 20
-8.267162344
 11
10.888454158
 21
-8.267162344
  0
LINE
  5
267
100
AcDbEntity
  8
DRAFT
100
AcDbLine
 62
7
  6
CONTINUOUS
 10
-11.1984454037
 20
-1.7082239285
 11
-11.1809903388
 21
-1.7256789935
  0
LINE
  5
268
100
AcDbEntity
  8
ASSI
100
AcDbLine
 62
7
  6
CONTINUOUS
 10
-11.1984454037
 20
-1.7082239285
 11
-11.1809903388
 21
-1.7256789935
  0
LINE
  5
269
100
AcDbEntity
  8
RACCORDO
100
AcDbLine
 62
253
  6
CONTINUOUS
 10
-6.0333408312
 20
-6.6232828096
 11
-6.0035905333
 21
-6.6530331075
  0
LINE
  5
26A
100
AcDbEntity
  8
ASSI
100
AcDbLine
 62
253
  6
CONTINUOUS
 10
-6.0333408312
 20
-6.6232828096
 11
-6.0035905333
 21
-6.6530331075
  0
LINE
  5
26B
100
AcDbEntity
  8
RACCORDO
100
AcDbLine
 62
253
  6
CONTINUOUS
 10
-5.7335822146
 20
-6.3231328091
 11
-5.7036361917
 21
-6.353078832
  0
LINE
  5
26C
100
AcDbEntity
  8
ASSI
100
AcDbLine
 62
253
  6
CONTINUOUS
 10
-5.7335822146
 20
-6.3231328091
 11
-5.7036361917
 21
-6.353078832
  0
LINE
  5
26D
100
AcDbEntity
  8
RACCORDO
100
AcDbLine
 62
253
  6
CONTINUOUS
 10
-7.5371579624
 20
5.0760906465
 11
-7.5495005572
 21
5.7831974277
  0
LINE
  5
26E
100
AcDbEntity
  8
ASSI
100
AcDbLine
 62
253
  6
CONTINUOUS
 10
-7.5371579624
 20
5.0760906465
 11
-7.5495005572
 21
5.7831974277
  0
LINE
  5
26F
100
AcDbEntity
  8
RACCORDO
100
AcDbLine
 62
253
  6
CONTINUOUS
 10
-7.2372036539
 20
5.2882226809
 11
-7.2495462487
 21
5.9953294621
  0
LINE
  5
270
100
AcDbEntity
  8
ASSI
100
AcDbLine
 62
253
  6
CONTINUOUS
 10
-7.2372036539
 20
5.2882226809
 11
-7.2495462487
 21
5.9953294621
  0
LINE
  5
271
100
AcDbEntity
  8
RACCORDO
100
AcDbLine
 62
253
  6
CONTINUOUS
 10
-7.5535905333
 20
6.3488828526
 11
-7.5535905333
 21
7.9366309418
  0
LINE
  5
272
100
AcDbEntity
  8
ASSI
100
AcDbLine
 62
253
  6
CONTINUOUS
 10
-7.5535905333
 20
6.3488828526
 11
-7.5535905333
 21
7.9366309418
  0
LINE
  5
273
100
AcDbEntity
  8
RACCORDO
100
AcDbLine
 62
253
  6
CONTINUOUS
 10
-7.5361354684
 20
3.5505797679
 11
-7.5361354684
 21
4.9346692903
  0
LINE
  5
274
100
AcDbEntity
  8
ASSI
100
AcDbLine
 62
253
  6
CONTINUOUS
 10
-7.5361354684
 20
3.5505797679
 11
-7.5361354684
 21
4.9346692903
  0
LINE
  5
275
100
AcDbEntity
  8
RACCORDO
100
AcDbLine
 62
253
  6
CONTINUOUS
 10
-7.2536362248
 20
6.3488672189
 11
-7.2536362248
 21
7.9417760715
  0
LINE
  5
276
100
AcDbEntity
  8
ASSI
100
AcDbLine
 62
253
  6
CONTINUOUS
 10
-7.2536362248
 20
6.3488672189
 11
-7.2536362248
 21
7.9417760715
  0
LINE
  5
277
100
AcDbEntity
  8
RACCORDO
100
AcDbLine
 62
253
  6
CONTINUOUS
 10
-7.2361811599
 20
3.5505797679
 11
-7.2361811599
 21
4.9346692903
  0
LINE
  5
278
100
AcDbEntity
  8
ASSI
100
AcDbLine
 62
253
  6
CONTINUOUS
 10
-7.2361811599
 20
3.5505797679
 11
-7.2361811599
 21
4.9346692903
  0
LINE
  5
279
100
AcDbEntity
  8
RACCORDO
100
AcDbLine
 62
253
  6
CONTINUOUS
 10
-7.0607096476
 20
4.9346692903
 11
-7.0607096476
 21
3.5505797679
  0
LINE
  5
27A
100
AcDbEntity
  8
ASSI
100
AcDbLine
 62
253
  6
CONTINUOUS
 10
-7.0607096476
 20
4.9346692903
 11
-7.0607096476
 21
3.5505797679
  0
LINE
  5
27B
100
AcDbEntity
  8
RACCORDO
100
AcDbLine
 62
253
  6
CONTINUOUS
 10
-7.0432545827
 20
7.9417760715
 11
-7.0432545827
 21
6.348867516
  0
LINE
  5
27C
100
AcDbEntity
  8
ASSI
100
AcDbLine
 62
253
  6
CONTINUOUS
 10
-7.0432545827
 20
7.9417760715
 11
-7.0432545827
 21
6.348867516
  0
LINE
  5
27D
100
AcDbEntity
  8
RACCORDO
100
AcDbLine
 62
253
  6
CONTINUOUS
 10
-7.0473445588
 20
5.9953294621
 11
-7.0596871536
 21
5.2882226809
  0
LINE
  5
27E
100
AcDbEntity
  8
ASSI
100
AcDbLine
 62
253
  6
CONTINUOUS
 10
-7.0473445588
 20
5.9953294621
 11
-7.0596871536
 21
5.2882226809
  0
LINE
  5
27F
100
AcDbEntity
  8
RACCORDO
100
AcDbLine
 62
253
  6
CONTINUOUS
 10
-7.5703907845
 20
3.3197849992
 11
-7.5395655548
 21
3.3506102289
  0
LINE
  5
280
100
AcDbEntity
  8
ASSI
100
AcDbLine
 62
253
  6
CONTINUOUS
 10
-7.5703907845
 20
3.3197849992
 11
-7.5395655548
 21
3.3506102289
  0
LINE
  5
281
100
AcDbEntity
  8
RACCORDO
100
AcDbLine
 62
253
  6
CONTINUOUS
 10
-7.2703602198
 20
3.0199069468
 11
-7.2396112463
 21
3.0506559204
  0
LINE
  5
282
100
AcDbEntity
  8
ASSI
100
AcDbLine
 62
253
  6
CONTINUOUS
 10
-7.2703602198
 20
3.0199069468
 11
-7.2396112463
 21
3.0506559204
  0
LINE
  5
283
100
AcDbEntity
  8
RACCORDO
100
AcDbLine
 62
7
  6
CONTINUOUS
 10
-11.1237741749
 20
-1.0428999205
 11
-11.1809903388
 21
-1.1001160844
  0
LINE
  5
284
100
AcDbEntity
  8
ASSI
100
AcDbLine
 62
7
  6
CONTINUOUS
 10
-11.1237741749
 20
-1.0428999205
 11
-11.1809903388
 21
-1.1001160844
  0
LINE
  5
285
100
AcDbEntity
  8
RACCORDO
100
AcDbLine
 62
7
  6
CONTINUOUS
 10
-5.7036362248
 20
-7.9850391748
 11
-5.4932545827
 21
-7.9850391748
  0
LINE
  5
286
100
AcDbEntity
  8
ASSI
100
AcDbLine
 62
7
  6
CONTINUOUS
 10
-5.7036362248
 20
-7.9850391748
 11
-5.4932545827
 21
-7.9850391748
  0
LINE
  5
287
100
AcDbEntity
  8
RACCORDO
100
AcDbLine
 62
7
  6
CONTINUOUS
 10
5.7067454173
 20
-7.9850391748
 11
5.4963637752
 21
-7.9850391748
  0
LINE
  5
288
100
AcDbEntity
  8
ASSI
100
AcDbLine
 62
7
  6
CONTINUOUS
 10
5.7067454173
 20
-7.9850391748
 11
5.4963637752
 21
-7.9850391748
  0
LINE
  5
289
100
AcDbEntity
  8
RACCORDO
100
AcDbLine
 62
253
  6
CONTINUOUS
 10
10.8304759602
 20
-7.6814801595
 11
6.0316046901
 21
-7.6814801595
  0
LINE
  5
28A
100
AcDbEntity
  8
ASSI
100
AcDbLine
 62
253
  6
CONTINUOUS
 10
10.8304759602
 20
-7.6814801595
 11
6.0316046901
 21
-7.6814801595
  0
LINE
  5
28B
100
AcDbEntity
  8
RACCORDO
100
AcDbLine
 62
253
  6
CONTINUOUS
 10
5.1715045024
 20
-7.6814801595
 11
-5.1683953099
 21
-7.6814801595
  0
LINE
  5
28C
100
AcDbEntity
  8
ASSI
100
AcDbLine
 62
253
  6
CONTINUOUS
 10
5.1715045024
 20
-7.6814801595
 11
-5.1683953099
 21
-7.6814801595
  0
LINE
  5
28D
100
AcDbEntity
  8
RACCORDO
100
AcDbLine
 62
253
  6
CONTINUOUS
 10
-6.0284954976
 20
-7.6814801595
 11
-10.8273667677
 21
-7.6814801595
  0
LINE
  5
28E
100
AcDbEntity
  8
ASSI
100
AcDbLine
 62
253
  6
CONTINUOUS
 10
-6.0284954976
 20
-7.6814801595
 11
-10.8273667677
 21
-7.6814801595
  0
LINE
  5
28F
100
AcDbEntity
  8
RACCORDO
100
AcDbLine
 62
253
  6
CONTINUOUS
 10
10.8304759615
 20
-7.3978903234
 11
6.0359278091
 21
-7.3978903234
  0
LINE
  5
290
100
AcDbEntity
  8
ASSI
100
AcDbLine
 62
253
  6
CONTINUOUS
 10
10.8304759615
 20
-7.3978903234
 11
6.0359278091
 21
-7.3978903234
  0
LINE
  5
291
100
AcDbEntity
  8
RACCORDO
100
AcDbLine
 62
253
  6
CONTINUOUS
 10
5.1671813834
 20
-7.3978903234
 11
-5.1640721909
 21
-7.3978903234
  0
LINE
  5
292
100
AcDbEntity
  8
ASSI
100
AcDbLine
 62
253
  6
CONTINUOUS
 10
5.1671813834
 20
-7.3978903234
 11
-5.1640721909
 21
-7.3978903234
  0
LINE
  5
293
100
AcDbEntity
  8
RACCORDO
100
AcDbLine
 62
253
  6
CONTINUOUS
 10
-6.0328186166
 20
-7.3978903234
 11
-10.8273667689
 21
-7.3978903234
  0
LINE
  5
294
100
AcDbEntity
  8
ASSI
100
AcDbLine
 62
253
  6
CONTINUOUS
 10
-6.0328186166
 20
-7.3978903234
 11
-10.8273667689
 21
-7.3978903234
  0
LINE
  5
295
100
AcDbEntity
  8
RACCORDO
100
AcDbLine
 62
7
  6
CONTINUOUS
 10
-11.1740083128
 20
1.0766862013
 11
-11.1229765937
 21
1.0256544822
  0
LINE
  5
296
100
AcDbEntity
  8
ASSI
100
AcDbLine
 62
7
  6
CONTINUOUS
 10
-11.1740083128
 20
1.0766862013
 11
-11.1229765937
 21
1.0256544822
  0
LINE
  5
297
100
AcDbEntity
  8
RACCORDO
100
AcDbLine
 62
7
  6
CONTINUOUS
 10
-6.0284954976
 20
-7.6814801595
 11
-6.0035905333
 21
-7.9330642797
  0
LINE
  5
298
100
AcDbEntity
  8
ASSI
100
AcDbLine
 62
7
  6
CONTINUOUS
 10
-6.0284954976
 20
-7.6814801595
 11
-6.0035905333
 21
-7.9330642797
  0
LINE
  5
299
100
AcDbEntity
  8
RACCORDO
100
AcDbLine
 62
253
  6
CONTINUOUS
 10
-6.760755339
 20
4.9346692903
 11
-6.760755339
 21
3.5505797679
  0
LINE
  5
29A
100
AcDbEntity
  8
ASSI
100
AcDbLine
 62
253
  6
CONTINUOUS
 10
-6.760755339
 20
4.9346692903
 11
-6.760755339
 21
3.5505797679
  0
LINE
  5
29B
100
AcDbEntity
  8
RACCORDO
100
AcDbLine
 62
253
  6
CONTINUOUS
 10
-6.7433002741
 20
7.9366309418
 11
-6.7433002741
 21
6.3488828526
  0
LINE
  5
29C
100
AcDbEntity
  8
ASSI
100
AcDbLine
 62
253
  6
CONTINUOUS
 10
-6.7433002741
 20
7.9366309418
 11
-6.7433002741
 21
6.3488828526
  0
LINE
  5
29D
100
AcDbEntity
  8
RACCORDO
100
AcDbLine
 62
253
  6
CONTINUOUS
 10
-6.7473902502
 20
5.7831974277
 11
-6.759732845
 21
5.0760906465
  0
LINE
  5
29E
100
AcDbEntity
  8
ASSI
100
AcDbLine
 62
253
  6
CONTINUOUS
 10
-6.7473902502
 20
5.7831974277
 11
-6.759732845
 21
5.0760906465
  0
LINE
  5
29F
100
AcDbEntity
  8
DRAFT
100
AcDbLine
 62
7
  6
CONTINUOUS
 10
-10.4159004687
 20
-1.7256789935
 11
-10.4779331618
 21
-1.7877116866
  0
LINE
  5
2A0
100
AcDbEntity
  8
ASSI
100
AcDbLine
 62
7
  6
CONTINUOUS
 10
-10.4159004687
 20
-1.7256789935
 11
-10.4779331618
 21
-1.7877116866
  0
LINE
  5
2A1
100
AcDbEntity
  8
0
100
AcDbLine
 62
7
  6
CONTINUOUS
 10
1.3781503259
 20
-6.3910566121
 11
1.6313418357
 21
-6.3556399285
  0
LINE
  5
2A2
100
AcDbEntity
  8
ASSI
100
AcDbLine
 62
7
  6
CONTINUOUS
 10
1.3781503259
 20
-6.3910566121
 11
1.6313418357
 21
-6.3556399285
  0
LINE
  5
2A3
100
AcDbEntity
  8
0
100
AcDbLine
 62
7
  6
CONTINUOUS
 10
0.6547460555
 20
-7.0993899285
 11
0.9441078244
 21
-7.0993899285
  0
LINE
  5
2A4
100
AcDbEntity
  8
ASSI
100
AcDbLine
 62
7
  6
CONTINUOUS
 10
0.6547460555
 20
-7.0993899285
 11
0.9441078244
 21
-7.0993899285
  0
LINE
  5
2A5
100
AcDbEntity
  8
0
100
AcDbLine
 62
7
  6
CONTINUOUS
 10
0.6909162639
 20
-6.8868899285
 11
2.1015545963
 21
-6.8868899285
  0
LINE
  5
2A6
100
AcDbEntity
  8
ASSI
100
AcDbLine
 62
7
  6
CONTINUOUS
 10
0.6909162639
 20
-6.8868899285
 11
2.1015545963
 21
-6.8868899285
  0
LINE
  5
2A7
100
AcDbEntity
  8
RACCORDO
100
AcDbLine
 62
7
  6
CONTINUOUS
 10
-10.8270121188
 20
-6.8754969767
 11
-9.8311723556
 21
-6.8754969767
  0
LINE
  5
2A8
100
AcDbEntity
  8
ASSI
100
AcDbLine
 62
7
  6
CONTINUOUS
 10
-10.8270121188
 20
-6.8754969767
 11
-9.8311723556
 21
-6.8754969767
  0
LINE
  5
2A9
100
AcDbEntity
  8
RACCORDO
100
AcDbLine
 62
7
  6
CONTINUOUS
 10
9.8342815481
 20
-6.8754969767
 11
10.8301213113
 21
-6.8754969767
  0
LINE
  5
2AA
100
AcDbEntity
  8
ASSI
100
AcDbLine
 62
7
  6
CONTINUOUS
 10
9.8342815481
 20
-6.8754969767
 11
10.8301213113
 21
-6.8754969767
  0
LINE
  5
2AB
100
AcDbEntity
  8
RACCORDO
100
AcDbLine
 62
7
  6
CONTINUOUS
 10
-11.1740083128
 20
-6.8233137987
 11
-10.1781647125
 21
-6.8233137987
  0
LINE
  5
2AC
100
AcDbEntity
  8
ASSI
100
AcDbLine
 62
7
  6
CONTINUOUS
 10
-11.1740083128
 20
-6.8233137987
 11
-10.1781647125
 21
-6.8233137987
  0
LINE
  5
2AD
100
AcDbEntity
  8
RACCORDO
100
AcDbLine
 62
7
  6
CONTINUOUS
 10
11.1771175054
 20
-6.8233137987
 11
10.1812739051
 21
-6.8233137987
  0
LINE
  5
2AE
100
AcDbEntity
  8
ASSI
100
AcDbLine
 62
7
  6
CONTINUOUS
 10
11.1771175054
 20
-6.8233137987
 11
10.1812739051
 21
-6.8233137987
  0
LINE
  5
2AF
100
AcDbEntity
  8
0
100
AcDbLine
 62
7
  6
CONTINUOUS
 10
0.4015545963
 20
-6.6743899285
 11
2.1015545963
 21
-6.6743899285
  0
LINE
  5
2B0
100
AcDbEntity
  8
ASSI
100
AcDbLine
 62
7
  6
CONTINUOUS
 10
0.4015545963
 20
-6.6743899285
 11
2.1015545963
 21
-6.6743899285
  0
LINE
  5
2B1
100
AcDbEntity
  8
RACCORDO
100
AcDbLine
 62
253
  6
CONTINUOUS
 10
5.1964094667
 20
-6.6530331075
 11
6.0066997259
 21
-6.6530331075
  0
LINE
  5
2B2
100
AcDbEntity
  8
ASSI
100
AcDbLine
 62
253
  6
CONTINUOUS
 10
5.1964094667
 20
-6.6530331075
 11
6.0066997259
 21
-6.6530331075
  0
LINE
  5
2B3
100
AcDbEntity
  8
RACCORDO
100
AcDbLine
 62
253
  6
CONTINUOUS
 10
-5.1933002741
 20
-6.6530331075
 11
-6.0035905333
 21
-6.6530331075
  0
LINE
  5
2B4
100
AcDbEntity
  8
ASSI
100
AcDbLine
 62
253
  6
CONTINUOUS
 10
-5.1933002741
 20
-6.6530331075
 11
-6.0035905333
 21
-6.6530331075
  0
LINE
  5
2B5
100
AcDbEntity
  8
0
100
AcDbLine
 62
7
  6
CONTINUOUS
 10
1.1249588667
 20
-6.3910566121
 11
1.3781503259
 21
-6.3910566121
  0
LINE
  5
2B6
100
AcDbEntity
  8
ASSI
100
AcDbLine
 62
7
  6
CONTINUOUS
 10
1.1249588667
 20
-6.3910566121
 11
1.3781503259
 21
-6.3910566121
  0
LINE
  5
2B7
100
AcDbEntity
  8
RACCORDO
100
AcDbLine
 62
253
  6
CONTINUOUS
 10
5.7067454173
 20
-6.3530787989
 11
5.496363788
 21
-6.3530788118
  0
LINE
  5
2B8
100
AcDbEntity
  8
ASSI
100
AcDbLine
 62
253
  6
CONTINUOUS
 10
5.7067454173
 20
-6.3530787989
 11
5.496363788
 21
-6.3530788118
  0
LINE
  5
2B9
100
AcDbEntity
  8
RACCORDO
100
AcDbLine
 62
253
  6
CONTINUOUS
 10
-5.4932546
 20
-6.3530788163
 11
-5.7036361917
 21
-6.353078832
  0
LINE
  5
2BA
100
AcDbEntity
  8
ASSI
100
AcDbLine
 62
253
  6
CONTINUOUS
 10
-5.4932546
 20
-6.3530788163
 11
-5.7036361917
 21
-6.353078832
  0
LINE
  5
2BB
100
AcDbEntity
  8
RACCORDO
100
AcDbLine
 62
7
  6
CONTINUOUS
 10
-5.7335822146
 20
-6.3231328091
 11
-5.4633085928
 21
-6.3231328091
  0
LINE
  5
2BC
100
AcDbEntity
  8
ASSI
100
AcDbLine
 62
7
  6
CONTINUOUS
 10
-5.7335822146
 20
-6.3231328091
 11
-5.4633085928
 21
-6.3231328091
  0
LINE
  5
2BD
100
AcDbEntity
  8
RACCORDO
100
AcDbLine
 62
7
  6
CONTINUOUS
 10
5.4664177854
 20
-6.3231328091
 11
5.7366914072
 21
-6.3231328091
  0
LINE
  5
2BE
100
AcDbEntity
  8
ASSI
100
AcDbLine
 62
7
  6
CONTINUOUS
 10
5.4664177854
 20
-6.3231328091
 11
5.7366914072
 21
-6.3231328091
  0
LINE
  5
2BF
100
AcDbEntity
  8
0
100
AcDbLine
 62
7
  6
CONTINUOUS
 10
1.1249588667
 20
-6.2139732957
 11
1.1972992836
 21
-6.2139732957
  0
LINE
  5
2C0
100
AcDbEntity
  8
ASSI
100
AcDbLine
 62
7
  6
CONTINUOUS
 10
1.1249588667
 20
-6.2139732957
 11
1.1972992836
 21
-6.2139732957
  0
LINE
  5
2C1
100
AcDbEntity
  8
RACCORDO
100
AcDbLine
 62
7
  6
CONTINUOUS
 10
-11.1740083128
 20
-6.1931340584
 11
-10.1781647125
 21
-6.1931340584
  0
LINE
  5
2C2
100
AcDbEntity
  8
ASSI
100
AcDbLine
 62
7
  6
CONTINUOUS
 10
-11.1740083128
 20
-6.1931340584
 11
-10.1781647125
 21
-6.1931340584
  0
LINE
  5
2C3
100
AcDbEntity
  8
RACCORDO
100
AcDbLine
 62
7
  6
CONTINUOUS
 10
11.1771175054
 20
-6.1931340584
 11
10.1812739051
 21
-6.1931340584
  0
LINE
  5
2C4
100
AcDbEntity
  8
ASSI
100
AcDbLine
 62
7
  6
CONTINUOUS
 10
11.1771175054
 20
-6.1931340584
 11
10.1812739051
 21
-6.1931340584
  0
LINE
  5
2C5
100
AcDbEntity
  8
0
100
AcDbLine
 62
7
  6
CONTINUOUS
 10
1.4866610019
 20
-6.1785565614
 11
1.5951716273
 21
-6.1785565614
  0
LINE
  5
2C6
100
AcDbEntity
  8
ASSI
100
AcDbLine
 62
7
  6
CONTINUOUS
 10
1.4866610019
 20
-6.1785565614
 11
1.5951716273
 21
-6.1785565614
  0
LINE
  5
2C7
100
AcDbEntity
  8
RACCORDO
100
AcDbLine
 62
7
  6
CONTINUOUS
 10
-10.8265321808
 20
-6.1404706022
 11
-9.8306920774
 21
-6.1404706022
  0
LINE
  5
2C8
100
AcDbEntity
  8
ASSI
100
AcDbLine
 62
7
  6
CONTINUOUS
 10
-10.8265321808
 20
-6.1404706022
 11
-9.8306920774
 21
-6.1404706022
  0
LINE
  5
2C9
100
AcDbEntity
  8
RACCORDO
100
AcDbLine
 62
7
  6
CONTINUOUS
 10
9.8338012699
 20
-6.1404706022
 11
10.8296413733
 21
-6.1404706022
  0
LINE
  5
2CA
100
AcDbEntity
  8
ASSI
100
AcDbLine
 62
7
  6
CONTINUOUS
 10
9.8338012699
 20
-6.1404706022
 11
10.8296413733
 21
-6.1404706022
  0
LINE
  5
2CB
100
AcDbEntity
  8
0
100
AcDbLine
 62
7
  6
CONTINUOUS
 10
1.1249588667
 20
-6.3910566121
 11
0.8717674075
 21
-6.3556399285
  0
LINE
  5
2CC
100
AcDbEntity
  8
ASSI
100
AcDbLine
 62
7
  6
CONTINUOUS
 10
1.1249588667
 20
-6.3910566121
 11
0.8717674075
 21
-6.3556399285
  0
LINE
  5
2CD
100
AcDbEntity
  8
0
100
AcDbLine
 62
7
  6
CONTINUOUS
 10
-0.8959394037
 20
-6.3899119285
 11
-2.0660074037
 21
-6.0559899285
  0
LINE
  5
2CE
100
AcDbEntity
  8
ASSI
100
AcDbLine
 62
7
  6
CONTINUOUS
 10
-0.8959394037
 20
-6.3899119285
 11
-2.0660074037
 21
-6.0559899285
  0
LINE
  5
2CF
100
AcDbEntity
  8
RACCORDO
100
AcDbLine
 62
7
  6
CONTINUOUS
 10
-9.8271794385
 20
1.0205101063
 11
-9.878210404
 21
1.0715410717
  0
LINE
  5
2D0
100
AcDbEntity
  8
ASSI
100
AcDbLine
 62
7
  6
CONTINUOUS
 10
-9.8271794385
 20
1.0205101063
 11
-9.878210404
 21
1.0715410717
  0
LINE
  5
2D1
100
AcDbEntity
  8
RACCORDO
100
AcDbLine
 62
253
  6
CONTINUOUS
 10
-6.0035905333
 20
-6.6530331075
 11
-6.0035905333
 21
-7.9330642797
  0
LINE
  5
2D2
100
AcDbEntity
  8
ASSI
100
AcDbLine
 62
253
  6
CONTINUOUS
 10
-6.0035905333
 20
-6.6530331075
 11
-6.0035905333
 21
-7.9330642797
  0
LINE
  5
2D3
100
AcDbEntity
  8
RACCORDO
100
AcDbLine
 62
253
  6
CONTINUOUS
 10
-5.7036362248
 20
-6.353078832
 11
-5.7036362248
 21
-7.9850391748
  0
LINE
  5
2D4
100
AcDbEntity
  8
ASSI
100
AcDbLine
 62
253
  6
CONTINUOUS
 10
-5.7036362248
 20
-6.353078832
 11
-5.7036362248
 21
-7.9850391748
  0
LINE
  5
2D5
100
AcDbEntity
  8
RACCORDO
100
AcDbLine
 62
253
  6
CONTINUOUS
 10
-5.4932545827
 20
-7.9850391748
 11
-5.4932545827
 21
-6.3530788163
  0
LINE
  5
2D6
100
AcDbEntity
  8
ASSI
100
AcDbLine
 62
253
  6
CONTINUOUS
 10
-5.4932545827
 20
-7.9850391748
 11
-5.4932545827
 21
-6.3530788163
  0
LINE
  5
2D7
100
AcDbEntity
  8
RACCORDO
100
AcDbLine
 62
253
  6
CONTINUOUS
 10
-5.1933002741
 20
-7.9330642797
 11
-5.1933002741
 21
-6.6530331075
  0
LINE
  5
2D8
100
AcDbEntity
  8
ASSI
100
AcDbLine
 62
253
  6
CONTINUOUS
 10
-5.1933002741
 20
-7.9330642797
 11
-5.1933002741
 21
-6.6530331075
  0
LINE
  5
2D9
100
AcDbEntity
  8
DRAFT
100
AcDbLine
 62
7
  6
CONTINUOUS
 10
-11.4939378178
 20
-4.2037163427
 11
-11.4201450538
 21
-4.1299235786
  0
LINE
  5
2DA
100
AcDbEntity
  8
ASSI
100
AcDbLine
 62
7
  6
CONTINUOUS
 10
-11.4939378178
 20
-4.2037163427
 11
-11.4201450538
 21
-4.1299235786
  0
LINE
  5
2DB
100
AcDbEntity
  8
DRAFT
100
AcDbLine
 62
7
  6
CONTINUOUS
 10
-11.1939378178
 20
-4.2037163427
 11
-11.1809903388
 21
-4.1907688636
  0
LINE
  5
2DC
100
AcDbEntity
  8
ASSI
100
AcDbLine
 62
7
  6
CONTINUOUS
 10
-11.1939378178
 20
-4.2037163427
 11
-11.1809903388
 21
-4.1907688636
  0
LINE
  5
2DD
100
AcDbEntity
  8
0
100
AcDbLine
 62
7
  6
CONTINUOUS
 10
-0.8959394037
 20
-6.3899119285
 11
-2.0660074037
 21
-6.7139369285
  0
LINE
  5
2DE
100
AcDbEntity
  8
ASSI
100
AcDbLine
 62
7
  6
CONTINUOUS
 10
-0.8959394037
 20
-6.3899119285
 11
-2.0660074037
 21
-6.7139369285
  0
LINE
  5
2DF
100
AcDbEntity
  8
0
100
AcDbLine
 62
7
  6
CONTINUOUS
 10
-0.3661444037
 20
-5.5697259285
 11
-2.0661094037
 21
-5.5697259285
  0
LINE
  5
2E0
100
AcDbEntity
  8
ASSI
100
AcDbLine
 62
7
  6
CONTINUOUS
 10
-0.3661444037
 20
-5.5697259285
 11
-2.0661094037
 21
-5.5697259285
  0
LINE
  5
2E1
100
AcDbEntity
  8
0
100
AcDbLine
 62
7
  6
CONTINUOUS
 10
1.4866610019
 20
-5.2931399285
 11
1.5951716273
 21
-5.2931399285
  0
LINE
  5
2E2
100
AcDbEntity
  8
ASSI
100
AcDbLine
 62
7
  6
CONTINUOUS
 10
1.4866610019
 20
-5.2931399285
 11
1.5951716273
 21
-5.2931399285
  0
LINE
  5
2E3
100
AcDbEntity
  8
0
100
AcDbLine
 62
7
  6
CONTINUOUS
 10
-0.3661444037
 20
-5.2148979285
 11
-2.0661094037
 21
-5.2148979285
  0
LINE
  5
2E4
100
AcDbEntity
  8
ASSI
100
AcDbLine
 62
7
  6
CONTINUOUS
 10
-0.3661444037
 20
-5.2148979285
 11
-2.0661094037
 21
-5.2148979285
  0
LINE
  5
2E5
100
AcDbEntity
  8
0
100
AcDbLine
 62
7
  6
CONTINUOUS
 10
1.4504907428
 20
-5.1160566628
 11
1.6313418357
 21
-5.1160566628
  0
LINE
  5
2E6
100
AcDbEntity
  8
ASSI
100
AcDbLine
 62
7
  6
CONTINUOUS
 10
1.4504907428
 20
-5.1160566628
 11
1.6313418357
 21
-5.1160566628
  0
LINE
  5
2E7
100
AcDbEntity
  8
0
100
AcDbLine
 62
7
  6
CONTINUOUS
 10
1.1249588667
 20
-6.2139732957
 11
0.907937616
 21
-6.1785565614
  0
LINE
  5
2E8
100
AcDbEntity
  8
ASSI
100
AcDbLine
 62
7
  6
CONTINUOUS
 10
1.1249588667
 20
-6.2139732957
 11
0.907937616
 21
-6.1785565614
  0
LINE
  5
2E9
100
AcDbEntity
  8
0
100
AcDbLine
 62
7
  6
CONTINUOUS
 10
-0.3661444037
 20
-6.2478079285
 11
-2.0660074037
 21
-5.7014039285
  0
LINE
  5
2EA
100
AcDbEntity
  8
ASSI
100
AcDbLine
 62
7
  6
CONTINUOUS
 10
-0.3661444037
 20
-6.2478079285
 11
-2.0660074037
 21
-5.7014039285
  0
LINE
  5
2EB
100
AcDbEntity
  8
0
100
AcDbLine
 62
7
  6
CONTINUOUS
 10
0.907937616
 20
-6.1785565614
 11
0.7994268893
 21
-6.1431399285
  0
LINE
  5
2EC
100
AcDbEntity
  8
ASSI
100
AcDbLine
 62
7
  6
CONTINUOUS
 10
0.907937616
 20
-6.1785565614
 11
0.7994268893
 21
-6.1431399285
  0
LINE
  5
2ED
100
AcDbEntity
  8
0
100
AcDbLine
 62
7
  6
CONTINUOUS
 10
1.4866610019
 20
-6.1785565614
 11
1.3781503259
 21
-6.1431399285
  0
LINE
  5
2EE
100
AcDbEntity
  8
ASSI
100
AcDbLine
 62
7
  6
CONTINUOUS
 10
1.4866610019
 20
-6.1785565614
 11
1.3781503259
 21
-6.1431399285
  0
LINE
  5
2EF
100
AcDbEntity
  8
0
100
AcDbLine
 62
7
  6
CONTINUOUS
 10
0.8717674075
 20
-6.3556399285
 11
0.6909162639
 21
-6.2848066121
  0
LINE
  5
2F0
100
AcDbEntity
  8
ASSI
100
AcDbLine
 62
7
  6
CONTINUOUS
 10
0.8717674075
 20
-6.3556399285
 11
0.6909162639
 21
-6.2848066121
  0
LINE
  5
2F1
100
AcDbEntity
  8
ASSI
100
AcDbLine
 62
253
  6
CONTINUOUS
 10
-4.4283441712
 20
5.5676660831
 11
-4.4218212659
 21
3.9161990296
  0
LINE
  5
2F2
100
AcDbEntity
  8
RACCORDO
100
AcDbLine
 62
7
  6
CONTINUOUS
 10
-5.1683953099
 20
-7.6814801595
 11
-5.1933002741
 21
-7.9330642797
  0
LINE
  5
2F3
100
AcDbEntity
  8
ASSI
100
AcDbLine
 62
7
  6
CONTINUOUS
 10
-5.1683953099
 20
-7.6814801595
 11
-5.1933002741
 21
-7.9330642797
  0
LINE
  5
2F4
100
AcDbEntity
  8
DRAFT
100
AcDbLine
 62
7
  6
CONTINUOUS
 10
10.1515545963
 20
-4.8163317727
 11
9.5015545963
 21
-4.8276775649
  0
LINE
  5
2F5
100
AcDbEntity
  8
ASSI
100
AcDbLine
 62
7
  6
CONTINUOUS
 10
10.1515545963
 20
-4.8163317727
 11
9.5015545963
 21
-4.8276775649
  0
LINE
  5
2F6
100
AcDbEntity
  8
DRAFT
100
AcDbLine
 62
7
  6
CONTINUOUS
 10
-9.8984454037
 20
-4.8421816784
 11
-9.4984454037
 21
-4.8381506039
  0
LINE
  5
2F7
100
AcDbEntity
  8
ASSI
100
AcDbLine
 62
7
  6
CONTINUOUS
 10
-9.8984454037
 20
-4.8421816784
 11
-9.4984454037
 21
-4.8381506039
  0
LINE
  5
2F8
100
AcDbEntity
  8
RACCORDO
100
AcDbLine
 62
7
  6
CONTINUOUS
 10
-10.825759124
 20
-4.8767508593
 11
-9.8984454037
 21
-4.8767508593
  0
LINE
  5
2F9
100
AcDbEntity
  8
ASSI
100
AcDbLine
 62
7
  6
CONTINUOUS
 10
-10.825759124
 20
-4.8767508593
 11
-9.8984454037
 21
-4.8767508593
  0
LINE
  5
2FA
100
AcDbEntity
  8
RACCORDO
100
AcDbLine
 62
7
  6
CONTINUOUS
 10
9.9015545963
 20
-4.8767508593
 11
10.8288683165
 21
-4.8767508593
  0
LINE
  5
2FB
100
AcDbEntity
  8
ASSI
100
AcDbLine
 62
7
  6
CONTINUOUS
 10
9.9015545963
 20
-4.8767508593
 11
10.8288683165
 21
-4.8767508593
  0
LINE
  5
2FC
100
AcDbEntity
  8
0
100
AcDbLine
 62
7
  6
CONTINUOUS
 10
1.5590014188
 20
-4.8327231943
 11
1.6675120442
 21
-4.8327231943
  0
LINE
  5
2FD
100
AcDbEntity
  8
ASSI
100
AcDbLine
 62
7
  6
CONTINUOUS
 10
1.5590014188
 20
-4.8327231943
 11
1.6675120442
 21
-4.8327231943
  0
LINE
  5
2FE
100
AcDbEntity
  8
DRAFT
100
AcDbLine
 62
7
  6
CONTINUOUS
 10
-11.1809903388
 20
-4.8163317727
 11
-10.1484454037
 21
-4.8163317727
  0
LINE
  5
2FF
100
AcDbEntity
  8
ASSI
100
AcDbLine
 62
7
  6
CONTINUOUS
 10
-11.1809903388
 20
-4.8163317727
 11
-10.1484454037
 21
-4.8163317727
  0
LINE
  5
300
100
AcDbEntity
  8
DRAFT
100
AcDbLine
 62
7
  6
CONTINUOUS
 10
10.1515545963
 20
-4.8163317727
 11
11.1840995313
 21
-4.8163317727
  0
LINE
  5
301
100
AcDbEntity
  8
ASSI
100
AcDbLine
 62
7
  6
CONTINUOUS
 10
10.1515545963
 20
-4.8163317727
 11
11.1840995313
 21
-4.8163317727
  0
LINE
  5
302
100
AcDbEntity
  8
0
100
AcDbLine
 62
7
  6
CONTINUOUS
 10
0.8355971991
 20
-4.7973066628
 11
0.9441078244
 21
-4.7973066628
  0
LINE
  5
303
100
AcDbEntity
  8
ASSI
100
AcDbLine
 62
7
  6
CONTINUOUS
 10
0.8355971991
 20
-4.7973066628
 11
0.9441078244
 21
-4.7973066628
  0
LINE
  5
304
100
AcDbEntity
  8
0
100
AcDbLine
 62
7
  6
CONTINUOUS
 10
1.5590014188
 20
-4.6556399285
 11
1.6675120442
 21
-4.6556399285
  0
LINE
  5
305
100
AcDbEntity
  8
ASSI
100
AcDbLine
 62
7
  6
CONTINUOUS
 10
1.5590014188
 20
-4.6556399285
 11
1.6675120442
 21
-4.6556399285
  0
LINE
  5
306
100
AcDbEntity
  8
0
100
AcDbLine
 62
7
  6
CONTINUOUS
 10
0.8355971991
 20
-4.6202231943
 11
0.907937616
 21
-4.6202231943
  0
LINE
  5
307
100
AcDbEntity
  8
ASSI
100
AcDbLine
 62
7
  6
CONTINUOUS
 10
0.8355971991
 20
-4.6202231943
 11
0.907937616
 21
-4.6202231943
  0
LINE
  5
308
100
AcDbEntity
  8
DRAFT
100
AcDbLine
 62
7
  6
CONTINUOUS
 10
11.4970470104
 20
-4.2037163427
 11
11.1970470104
 21
-4.2037163427
  0
LINE
  5
309
100
AcDbEntity
  8
ASSI
100
AcDbLine
 62
7
  6
CONTINUOUS
 10
11.4970470104
 20
-4.2037163427
 11
11.1970470104
 21
-4.2037163427
  0
LINE
  5
30A
100
AcDbEntity
  8
DRAFT
100
AcDbLine
 62
7
  6
CONTINUOUS
 10
-11.1939378178
 20
-4.2037163427
 11
-11.4939378178
 21
-4.2037163427
  0
LINE
  5
30B
100
AcDbEntity
  8
ASSI
100
AcDbLine
 62
7
  6
CONTINUOUS
 10
-11.1939378178
 20
-4.2037163427
 11
-11.4939378178
 21
-4.2037163427
  0
LINE
  5
30C
100
AcDbEntity
  8
DRAFT
100
AcDbLine
 62
7
  6
CONTINUOUS
 10
-11.1809903388
 20
-4.1907688636
 11
-10.4159004687
 21
-4.1907688636
  0
LINE
  5
30D
100
AcDbEntity
  8
ASSI
100
AcDbLine
 62
7
  6
CONTINUOUS
 10
-11.1809903388
 20
-4.1907688636
 11
-10.4159004687
 21
-4.1907688636
  0
LINE
  5
30E
100
AcDbEntity
  8
DRAFT
100
AcDbLine
 62
7
  6
CONTINUOUS
 10
11.1840995313
 20
-4.1907688636
 11
10.4190096612
 21
-4.1907688636
  0
LINE
  5
30F
100
AcDbEntity
  8
ASSI
100
AcDbLine
 62
7
  6
CONTINUOUS
 10
11.1840995313
 20
-4.1907688636
 11
10.4190096612
 21
-4.1907688636
  0
LINE
  5
310
100
AcDbEntity
  8
DRAFT
100
AcDbLine
 62
7
  6
CONTINUOUS
 10
-11.4201450538
 20
-4.1299235786
 11
-10.4767457537
 21
-4.1299235786
  0
LINE
  5
311
100
AcDbEntity
  8
ASSI
100
AcDbLine
 62
7
  6
CONTINUOUS
 10
-11.4201450538
 20
-4.1299235786
 11
-10.4767457537
 21
-4.1299235786
  0
LINE
  5
312
100
AcDbEntity
  8
DRAFT
100
AcDbLine
 62
7
  6
CONTINUOUS
 10
10.4798549462
 20
-4.1299235786
 11
11.4232542463
 21
-4.1299235786
  0
LINE
  5
313
100
AcDbEntity
  8
ASSI
100
AcDbLine
 62
7
  6
CONTINUOUS
 10
10.4798549462
 20
-4.1299235786
 11
11.4232542463
 21
-4.1299235786
  0
LINE
  5
314
100
AcDbEntity
  8
DRAFT
100
AcDbLine
 62
7
  6
CONTINUOUS
 10
9.5015545963
 20
-4.8381506039
 11
9.9015545963
 21
-4.8421816784
  0
LINE
  5
315
100
AcDbEntity
  8
ASSI
100
AcDbLine
 62
7
  6
CONTINUOUS
 10
9.5015545963
 20
-4.8381506039
 11
9.9015545963
 21
-4.8421816784
  0
LINE
  5
316
100
AcDbEntity
  8
DRAFT
100
AcDbLine
 62
7
  6
CONTINUOUS
 10
-9.4984454037
 20
-4.8276775649
 11
-10.1484454037
 21
-4.8163317727
  0
LINE
  5
317
100
AcDbEntity
  8
ASSI
100
AcDbLine
 62
7
  6
CONTINUOUS
 10
-9.4984454037
 20
-4.8276775649
 11
-10.1484454037
 21
-4.8163317727
  0
LINE
  5
318
100
AcDbEntity
  8
0
100
AcDbLine
 62
7
  6
CONTINUOUS
 10
-0.3661444037
 20
-4.6844279285
 11
-1.4761234037
 21
-4.6078559285
  0
LINE
  5
319
100
AcDbEntity
  8
ASSI
100
AcDbLine
 62
7
  6
CONTINUOUS
 10
-0.3661444037
 20
-4.6844279285
 11
-1.4761234037
 21
-4.6078559285
  0
LINE
  5
31A
100
AcDbEntity
  8
0
100
AcDbLine
 62
7
  6
CONTINUOUS
 10
-0.3661444037
 20
-5.0238829285
 11
-2.0660074037
 21
-4.8703959285
  0
LINE
  5
31B
100
AcDbEntity
  8
ASSI
100
AcDbLine
 62
7
  6
CONTINUOUS
 10
-0.3661444037
 20
-5.0238829285
 11
-2.0660074037
 21
-4.8703959285
  0
LINE
  5
31C
100
AcDbEntity
  8
0
100
AcDbLine
 62
7
  6
CONTINUOUS
 10
1.7036822526
 20
-5.3285566628
 11
1.5951716273
 21
-5.2931399285
  0
LINE
  5
31D
100
AcDbEntity
  8
ASSI
100
AcDbLine
 62
7
  6
CONTINUOUS
 10
1.7036822526
 20
-5.3285566628
 11
1.5951716273
 21
-5.2931399285
  0
LINE
  5
31E
100
AcDbEntity
  8
0
100
AcDbLine
 62
7
  6
CONTINUOUS
 10
-1.1222384037
 20
-4.1647799285
 11
-2.0660074037
 21
-3.8099519285
  0
LINE
  5
31F
100
AcDbEntity
  8
ASSI
100
AcDbLine
 62
7
  6
CONTINUOUS
 10
-1.1222384037
 20
-4.1647799285
 11
-2.0660074037
 21
-3.8099519285
  0
LINE
  5
320
100
AcDbEntity
  8
0
100
AcDbLine
 62
7
  6
CONTINUOUS
 10
1.8121929033
 20
-5.1868899285
 11
1.6313418357
 21
-5.1160566628
  0
LINE
  5
321
100
AcDbEntity
  8
ASSI
100
AcDbLine
 62
7
  6
CONTINUOUS
 10
1.8121929033
 20
-5.1868899285
 11
1.6313418357
 21
-5.1160566628
  0
LINE
  5
322
100
AcDbEntity
  8
0
100
AcDbLine
 62
7
  6
CONTINUOUS
 10
0.8355971991
 20
-4.7973066628
 11
0.6547460555
 21
-4.7264731943
  0
LINE
  5
323
100
AcDbEntity
  8
ASSI
100
AcDbLine
 62
7
  6
CONTINUOUS
 10
0.8355971991
 20
-4.7973066628
 11
0.6547460555
 21
-4.7264731943
  0
LINE
  5
324
100
AcDbEntity
  8
0
100
AcDbLine
 62
7
  6
CONTINUOUS
 10
0.7994268893
 20
-6.1431399285
 11
0.6909162639
 21
-6.0723065614
  0
LINE
  5
325
100
AcDbEntity
  8
ASSI
100
AcDbLine
 62
7
  6
CONTINUOUS
 10
0.7994268893
 20
-6.1431399285
 11
0.6909162639
 21
-6.0723065614
  0
LINE
  5
326
100
AcDbEntity
  8
0
100
AcDbLine
 62
7
  6
CONTINUOUS
 10
0.6909162639
 20
-6.2848066121
 11
0.5462354301
 21
-6.1785565614
  0
LINE
  5
327
100
AcDbEntity
  8
ASSI
100
AcDbLine
 62
7
  6
CONTINUOUS
 10
0.6909162639
 20
-6.2848066121
 11
0.5462354301
 21
-6.1785565614
  0
LINE
  5
328
100
AcDbEntity
  8
0
100
AcDbLine
 62
7
  6
CONTINUOUS
 10
0.6547460555
 20
-7.0993899285
 11
0.4015545963
 21
-6.8868899285
  0
LINE
  5
329
100
AcDbEntity
  8
ASSI
100
AcDbLine
 62
7
  6
CONTINUOUS
 10
0.6547460555
 20
-7.0993899285
 11
0.4015545963
 21
-6.8868899285
  0
LINE
  5
32A
100
AcDbEntity
  8
0
100
AcDbLine
 62
7
  6
CONTINUOUS
 10
0.9441078244
 20
-7.0993899285
 11
0.6909162639
 21
-6.8868899285
  0
LINE
  5
32B
100
AcDbEntity
  8
ASSI
100
AcDbLine
 62
7
  6
CONTINUOUS
 10
0.9441078244
 20
-7.0993899285
 11
0.6909162639
 21
-6.8868899285
  0
LINE
  5
32C
100
AcDbEntity
  8
RACCORDO
100
AcDbLine
 62
253
  6
CONTINUOUS
 10
-3.8202909285
 20
3.9383305471
 11
-3.8202909285
 21
5.5452215958
  0
LINE
  5
32D
100
AcDbEntity
  8
ASSI
100
AcDbLine
 62
253
  6
CONTINUOUS
 10
-3.8202909285
 20
3.9383305471
 11
-3.8202909285
 21
5.5452215958
  0
LINE
  5
32E
100
AcDbEntity
  8
RACCORDO
100
AcDbLine
 62
253
  6
CONTINUOUS
 10
-3.5383831423
 20
3.9417760715
 11
-3.5383831423
 21
5.5417760715
  0
LINE
  5
32F
100
AcDbEntity
  8
ASSI
100
AcDbLine
 62
253
  6
CONTINUOUS
 10
-3.5383831423
 20
3.9417760715
 11
-3.5383831423
 21
5.5417760715
  0
LINE
  5
330
100
AcDbEntity
  8
DRAFT
100
AcDbLine
 62
7
  6
CONTINUOUS
 10
-3.0680811641
 20
5.5417760715
 11
-3.0680811641
 21
3.9417760715
  0
LINE
  5
331
100
AcDbEntity
  8
ASSI
100
AcDbLine
 62
7
  6
CONTINUOUS
 10
-3.0680811641
 20
5.5417760715
 11
-3.0680811641
 21
3.9417760715
  0
LINE
  5
332
100
AcDbEntity
  8
DRAFT
100
AcDbLine
 62
7
  6
CONTINUOUS
 10
-2.9984454037
 20
0.7417760715
 11
-2.9984454037
 21
3.933048539
  0
LINE
  5
333
100
AcDbEntity
  8
ASSI
100
AcDbLine
 62
7
  6
CONTINUOUS
 10
-2.9984454037
 20
0.7417760715
 11
-2.9984454037
 21
3.933048539
  0
LINE
  5
334
100
AcDbEntity
  8
DRAFT
100
AcDbLine
 62
7
  6
CONTINUOUS
 10
-2.9984454037
 20
5.5505036039
 11
-2.9984454037
 21
7.2417760715
  0
LINE
  5
335
100
AcDbEntity
  8
ASSI
100
AcDbLine
 62
7
  6
CONTINUOUS
 10
-2.9984454037
 20
5.5505036039
 11
-2.9984454037
 21
7.2417760715
  0
LINE
  5
336
100
AcDbEntity
  8
DRAFT
100
AcDbLine
 62
7
  6
CONTINUOUS
 10
-2.9659004687
 20
2.3243210065
 11
-2.9659004687
 21
3.933048539
  0
LINE
  5
337
100
AcDbEntity
  8
DRAFT
100
AcDbLine
 62
7
  6
CONTINUOUS
 10
-2.9659004687
 20
5.5505036039
 11
-2.9659004687
 21
7.1592311364
  0
LINE
  5
338
100
AcDbEntity
  8
RACCORDO
100
AcDbLine
 62
7
  6
CONTINUOUS
 10
-11.1264967792
 20
-6.1456225248
 11
-11.1740083128
 21
-6.1931340584
  0
LINE
  5
339
100
AcDbEntity
  8
ASSI
100
AcDbLine
 62
7
  6
CONTINUOUS
 10
-11.1264967792
 20
-6.1456225248
 11
-11.1740083128
 21
-6.1931340584
  0
LINE
  5
33A
100
AcDbEntity
  8
0
100
AcDbLine
 62
7
  6
CONTINUOUS
 10
-0.3661444037
 20
-3.2999279285
 11
-2.0660074037
 21
-3.4588849285
  0
LINE
  5
33B
100
AcDbEntity
  8
ASSI
100
AcDbLine
 62
7
  6
CONTINUOUS
 10
-0.3661444037
 20
-3.2999279285
 11
-2.0660074037
 21
-3.4588849285
  0
LINE
  5
33C
100
AcDbEntity
  8
0
100
AcDbLine
 62
7
  6
CONTINUOUS
 10
-0.3661444037
 20
-3.6470439285
 11
-1.4714964037
 21
-3.7199449285
  0
LINE
  5
33D
100
AcDbEntity
  8
ASSI
100
AcDbLine
 62
7
  6
CONTINUOUS
 10
-0.3661444037
 20
-3.6470439285
 11
-1.4714964037
 21
-3.7199449285
  0
LINE
  5
33E
100
AcDbEntity
  8
0
100
AcDbLine
 62
7
  6
CONTINUOUS
 10
0.8355971991
 20
-3.7702231943
 11
0.907937616
 21
-3.7702231943
  0
LINE
  5
33F
100
AcDbEntity
  8
ASSI
100
AcDbLine
 62
7
  6
CONTINUOUS
 10
0.8355971991
 20
-3.7702231943
 11
0.907937616
 21
-3.7702231943
  0
LINE
  5
340
100
AcDbEntity
  8
0
100
AcDbLine
 62
7
  6
CONTINUOUS
 10
1.5590014188
 20
-3.7348066628
 11
1.6675120442
 21
-3.7348066628
  0
LINE
  5
341
100
AcDbEntity
  8
ASSI
100
AcDbLine
 62
7
  6
CONTINUOUS
 10
1.5590014188
 20
-3.7348066628
 11
1.6675120442
 21
-3.7348066628
  0
LINE
  5
342
100
AcDbEntity
  8
0
100
AcDbLine
 62
7
  6
CONTINUOUS
 10
0.8355971991
 20
-3.5931399285
 11
0.9441078244
 21
-3.5931399285
  0
LINE
  5
343
100
AcDbEntity
  8
ASSI
100
AcDbLine
 62
7
  6
CONTINUOUS
 10
0.8355971991
 20
-3.5931399285
 11
0.9441078244
 21
-3.5931399285
  0
LINE
  5
344
100
AcDbEntity
  8
0
100
AcDbLine
 62
7
  6
CONTINUOUS
 10
1.5590014188
 20
-3.557723397
 11
1.6675120442
 21
-3.557723397
  0
LINE
  5
345
100
AcDbEntity
  8
ASSI
100
AcDbLine
 62
7
  6
CONTINUOUS
 10
1.5590014188
 20
-3.557723397
 11
1.6675120442
 21
-3.557723397
  0
LINE
  5
346
100
AcDbEntity
  8
0
100
AcDbLine
 62
7
  6
CONTINUOUS
 10
1.3781503259
 20
-3.2743899285
 11
1.5951716273
 21
-3.2743899285
  0
LINE
  5
347
100
AcDbEntity
  8
ASSI
100
AcDbLine
 62
7
  6
CONTINUOUS
 10
1.3781503259
 20
-3.2743899285
 11
1.5951716273
 21
-3.2743899285
  0
LINE
  5
348
100
AcDbEntity
  8
0
100
AcDbLine
 62
7
  6
CONTINUOUS
 10
-0.3661444037
 20
-3.2442109285
 11
-2.0660074037
 21
-2.7110259285
  0
LINE
  5
349
100
AcDbEntity
  8
ASSI
100
AcDbLine
 62
7
  6
CONTINUOUS
 10
-0.3661444037
 20
-3.2442109285
 11
-2.0660074037
 21
-2.7110259285
  0
LINE
  5
34A
100
AcDbEntity
  8
0
100
AcDbLine
 62
7
  6
CONTINUOUS
 10
-0.3661444037
 20
-4.1418359285
 11
-1.4714964037
 21
-3.7199449285
  0
LINE
  5
34B
100
AcDbEntity
  8
ASSI
100
AcDbLine
 62
7
  6
CONTINUOUS
 10
-0.3661444037
 20
-4.1418359285
 11
-1.4714964037
 21
-3.7199449285
  0
LINE
  5
34C
100
AcDbEntity
  8
0
100
AcDbLine
 62
7
  6
CONTINUOUS
 10
1.5590014188
 20
-4.8327231943
 11
1.3781503259
 21
-4.7618899285
  0
LINE
  5
34D
100
AcDbEntity
  8
ASSI
100
AcDbLine
 62
7
  6
CONTINUOUS
 10
1.5590014188
 20
-4.8327231943
 11
1.3781503259
 21
-4.7618899285
  0
LINE
  5
34E
100
AcDbEntity
  8
0
100
AcDbLine
 62
7
  6
CONTINUOUS
 10
1.8121929033
 20
-5.3993899285
 11
1.7036822526
 21
-5.3285566628
  0
LINE
  5
34F
100
AcDbEntity
  8
ASSI
100
AcDbLine
 62
7
  6
CONTINUOUS
 10
1.8121929033
 20
-5.3993899285
 11
1.7036822526
 21
-5.3285566628
  0
LINE
  5
350
100
AcDbEntity
  8
0
100
AcDbLine
 62
7
  6
CONTINUOUS
 10
0.8355971991
 20
-4.6202231943
 11
0.7270864724
 21
-4.5493899285
  0
LINE
  5
351
100
AcDbEntity
  8
ASSI
100
AcDbLine
 62
7
  6
CONTINUOUS
 10
0.8355971991
 20
-4.6202231943
 11
0.7270864724
 21
-4.5493899285
  0
LINE
  5
352
100
AcDbEntity
  8
0
100
AcDbLine
 62
7
  6
CONTINUOUS
 10
1.9568737498
 20
-5.2931399285
 11
1.8121929033
 21
-5.1868899285
  0
LINE
  5
353
100
AcDbEntity
  8
ASSI
100
AcDbLine
 62
7
  6
CONTINUOUS
 10
1.9568737498
 20
-5.2931399285
 11
1.8121929033
 21
-5.1868899285
  0
LINE
  5
354
100
AcDbEntity
  8
0
100
AcDbLine
 62
7
  6
CONTINUOUS
 10
1.3781503259
 20
-6.1431399285
 11
1.305809909
 21
-6.0723065614
  0
LINE
  5
355
100
AcDbEntity
  8
ASSI
100
AcDbLine
 62
7
  6
CONTINUOUS
 10
1.3781503259
 20
-6.1431399285
 11
1.305809909
 21
-6.0723065614
  0
LINE
  5
356
100
AcDbEntity
  8
DRAFT
100
AcDbLine
 62
7
  6
CONTINUOUS
 10
-2.8984454037
 20
5.5460048223
 11
-2.8984454037
 21
3.9375473206
  0
LINE
  5
357
100
AcDbEntity
  8
ASSI
100
AcDbLine
 62
7
  6
CONTINUOUS
 10
-2.8984454037
 20
5.5460048223
 11
-2.8984454037
 21
3.9375473206
  0
LINE
  5
358
100
AcDbEntity
  8
DRAFT
100
AcDbLine
 62
7
  6
CONTINUOUS
 10
-2.4949543907
 20
7.1627221494
 11
-2.4949543907
 21
2.3208299935
  0
LINE
  5
359
100
AcDbEntity
  8
0
100
AcDbLine
 62
7
  6
CONTINUOUS
 10
-2.0661094037
 20
-5.5697259285
 11
-2.0661094037
 21
-5.2148979285
  0
LINE
  5
35A
100
AcDbEntity
  8
ASSI
100
AcDbLine
 62
7
  6
CONTINUOUS
 10
-2.0661094037
 20
-5.5697259285
 11
-2.0661094037
 21
-5.2148979285
  0
LINE
  5
35B
100
AcDbEntity
  8
0
100
AcDbLine
 62
7
  6
CONTINUOUS
 10
-2.0660074037
 20
-7.0993899285
 11
-2.0660074037
 21
-6.7139369285
  0
LINE
  5
35C
100
AcDbEntity
  8
ASSI
100
AcDbLine
 62
7
  6
CONTINUOUS
 10
-2.0660074037
 20
-7.0993899285
 11
-2.0660074037
 21
-6.7139369285
  0
LINE
  5
35D
100
AcDbEntity
  8
0
100
AcDbLine
 62
7
  6
CONTINUOUS
 10
-2.0660074037
 20
-6.0559899285
 11
-2.0660074037
 21
-5.7014039285
  0
LINE
  5
35E
100
AcDbEntity
  8
ASSI
100
AcDbLine
 62
7
  6
CONTINUOUS
 10
-2.0660074037
 20
-6.0559899285
 11
-2.0660074037
 21
-5.7014039285
  0
LINE
  5
35F
100
AcDbEntity
  8
0
100
AcDbLine
 62
7
  6
CONTINUOUS
 10
-2.0660074037
 20
-4.8703959285
 11
-2.0660074037
 21
-4.5158609285
  0
LINE
  5
360
100
AcDbEntity
  8
ASSI
100
AcDbLine
 62
7
  6
CONTINUOUS
 10
-2.0660074037
 20
-4.8703959285
 11
-2.0660074037
 21
-4.5158609285
  0
LINE
  5
361
100
AcDbEntity
  8
0
100
AcDbLine
 62
7
  6
CONTINUOUS
 10
-2.0660074037
 20
-3.8099519285
 11
-2.0660074037
 21
-3.4588849285
  0
LINE
  5
362
100
AcDbEntity
  8
ASSI
100
AcDbLine
 62
7
  6
CONTINUOUS
 10
-2.0660074037
 20
-3.8099519285
 11
-2.0660074037
 21
-3.4588849285
  0
LINE
  5
363
100
AcDbEntity
  8
0
100
AcDbLine
 62
7
  6
CONTINUOUS
 10
-2.0660074037
 20
-2.7110259285
 11
-2.0660074037
 21
-2.3677719285
  0
LINE
  5
364
100
AcDbEntity
  8
ASSI
100
AcDbLine
 62
7
  6
CONTINUOUS
 10
-2.0660074037
 20
-2.7110259285
 11
-2.0660074037
 21
-2.3677719285
  0
LINE
  5
365
100
AcDbEntity
  8
RACCORDO
100
AcDbLine
 62
7
  6
CONTINUOUS
 10
-9.8306920774
 20
-6.1404706022
 11
-9.878210404
 21
-6.1879889288
  0
LINE
  5
366
100
AcDbEntity
  8
ASSI
100
AcDbLine
 62
7
  6
CONTINUOUS
 10
-9.8306920774
 20
-6.1404706022
 11
-9.878210404
 21
-6.1879889288
  0
LINE
  5
367
100
AcDbEntity
  8
0
100
AcDbLine
 62
7
  6
CONTINUOUS
 10
-0.3661444037
 20
-2.2201859285
 11
-0.7054974037
 21
-2.3121049285
  0
LINE
  5
368
100
AcDbEntity
  8
ASSI
100
AcDbLine
 62
7
  6
CONTINUOUS
 10
-0.3661444037
 20
-2.2201859285
 11
-0.7054974037
 21
-2.3121049285
  0
LINE
  5
369
100
AcDbEntity
  8
0
100
AcDbLine
 62
7
  6
CONTINUOUS
 10
-0.9680874037
 20
-2.3830179285
 11
-1.5989284037
 21
-2.5460659285
  0
LINE
  5
36A
100
AcDbEntity
  8
ASSI
100
AcDbLine
 62
7
  6
CONTINUOUS
 10
-0.9680874037
 20
-2.3830179285
 11
-1.5989284037
 21
-2.5460659285
  0
LINE
  5
36B
100
AcDbEntity
  8
0
100
AcDbLine
 62
7
  6
CONTINUOUS
 10
0.6909162639
 20
-2.4243899285
 11
1.3781503259
 21
-2.4243899285
  0
LINE
  5
36C
100
AcDbEntity
  8
ASSI
100
AcDbLine
 62
7
  6
CONTINUOUS
 10
0.6909162639
 20
-2.4243899285
 11
1.3781503259
 21
-2.4243899285
  0
LINE
  5
36D
100
AcDbEntity
  8
0
100
AcDbLine
 62
7
  6
CONTINUOUS
 10
1.5951716273
 20
-2.4243899285
 11
2.1015545963
 21
-2.4243899285
  0
LINE
  5
36E
100
AcDbEntity
  8
ASSI
100
AcDbLine
 62
7
  6
CONTINUOUS
 10
1.5951716273
 20
-2.4243899285
 11
2.1015545963
 21
-2.4243899285
  0
LINE
  5
36F
100
AcDbEntity
  8
0
100
AcDbLine
 62
7
  6
CONTINUOUS
 10
0.4015545963
 20
-2.2118899285
 11
1.3781503259
 21
-2.2118899285
  0
LINE
  5
370
100
AcDbEntity
  8
ASSI
100
AcDbLine
 62
7
  6
CONTINUOUS
 10
0.4015545963
 20
-2.2118899285
 11
1.3781503259
 21
-2.2118899285
  0
LINE
  5
371
100
AcDbEntity
  8
0
100
AcDbLine
 62
7
  6
CONTINUOUS
 10
1.5951716273
 20
-2.2118899285
 11
2.1015545963
 21
-2.2118899285
  0
LINE
  5
372
100
AcDbEntity
  8
ASSI
100
AcDbLine
 62
7
  6
CONTINUOUS
 10
1.5951716273
 20
-2.2118899285
 11
2.1015545963
 21
-2.2118899285
  0
LINE
  5
373
100
AcDbEntity
  8
0
100
AcDbLine
 62
7
  6
CONTINUOUS
 10
-0.9680874037
 20
-2.7227399285
 11
-1.5989284037
 21
-2.5460659285
  0
LINE
  5
374
100
AcDbEntity
  8
ASSI
100
AcDbLine
 62
7
  6
CONTINUOUS
 10
-0.9680874037
 20
-2.7227399285
 11
-1.5989284037
 21
-2.5460659285
  0
LINE
  5
375
100
AcDbEntity
  8
0
100
AcDbLine
 62
7
  6
CONTINUOUS
 10
-0.3661444037
 20
-2.8932329285
 11
-0.7054974037
 21
-2.7953219285
  0
LINE
  5
376
100
AcDbEntity
  8
ASSI
100
AcDbLine
 62
7
  6
CONTINUOUS
 10
-0.3661444037
 20
-2.8932329285
 11
-0.7054974037
 21
-2.7953219285
  0
LINE
  5
377
100
AcDbEntity
  8
0
100
AcDbLine
 62
7
  6
CONTINUOUS
 10
1.8483631118
 20
-3.6285564601
 11
1.6675120442
 21
-3.557723397
  0
LINE
  5
378
100
AcDbEntity
  8
ASSI
100
AcDbLine
 62
7
  6
CONTINUOUS
 10
1.8483631118
 20
-3.6285564601
 11
1.6675120442
 21
-3.557723397
  0
LINE
  5
379
100
AcDbEntity
  8
0
100
AcDbLine
 62
7
  6
CONTINUOUS
 10
1.0887886582
 20
-3.663973397
 11
0.9441078244
 21
-3.5931399285
  0
LINE
  5
37A
100
AcDbEntity
  8
ASSI
100
AcDbLine
 62
7
  6
CONTINUOUS
 10
1.0887886582
 20
-3.663973397
 11
0.9441078244
 21
-3.5931399285
  0
LINE
  5
37B
100
AcDbEntity
  8
0
100
AcDbLine
 62
7
  6
CONTINUOUS
 10
1.0164482413
 20
-3.8410566628
 11
0.907937616
 21
-3.7702231943
  0
LINE
  5
37C
100
AcDbEntity
  8
ASSI
100
AcDbLine
 62
7
  6
CONTINUOUS
 10
1.0164482413
 20
-3.8410566628
 11
0.907937616
 21
-3.7702231943
  0
LINE
  5
37D
100
AcDbEntity
  8
0
100
AcDbLine
 62
7
  6
CONTINUOUS
 10
1.5590014188
 20
-4.6556399285
 11
1.4143205343
 21
-4.5493899285
  0
LINE
  5
37E
100
AcDbEntity
  8
ASSI
100
AcDbLine
 62
7
  6
CONTINUOUS
 10
1.5590014188
 20
-4.6556399285
 11
1.4143205343
 21
-4.5493899285
  0
LINE
  5
37F
100
AcDbEntity
  8
0
100
AcDbLine
 62
7
  6
CONTINUOUS
 10
1.8121929033
 20
-3.8410566628
 11
1.6675120442
 21
-3.7348066628
  0
LINE
  5
380
100
AcDbEntity
  8
ASSI
100
AcDbLine
 62
7
  6
CONTINUOUS
 10
1.8121929033
 20
-3.8410566628
 11
1.6675120442
 21
-3.7348066628
  0
LINE
  5
381
100
AcDbEntity
  8
0
100
AcDbLine
 62
7
  6
CONTINUOUS
 10
0.6547460555
 20
-4.7264731943
 11
0.5462354301
 21
-4.6202231943
  0
LINE
  5
382
100
AcDbEntity
  8
ASSI
100
AcDbLine
 62
7
  6
CONTINUOUS
 10
0.6547460555
 20
-4.7264731943
 11
0.5462354301
 21
-4.6202231943
  0
LINE
  5
383
100
AcDbEntity
  8
RACCORDO
100
AcDbLine
 62
253
  6
CONTINUOUS
 10
-7.0572795612
 20
3.0506559204
 11
-7.0265305876
 21
3.0199069468
  0
LINE
  5
384
100
AcDbEntity
  8
ASSI
100
AcDbLine
 62
253
  6
CONTINUOUS
 10
-7.0572795612
 20
3.0506559204
 11
-7.0265305876
 21
3.0199069468
  0
LINE
  5
385
100
AcDbEntity
  8
RACCORDO
100
AcDbLine
 62
253
  6
CONTINUOUS
 10
-6.7573252526
 20
3.3506102289
 11
-6.7265000229
 21
3.3197849992
  0
LINE
  5
386
100
AcDbEntity
  8
ASSI
100
AcDbLine
 62
253
  6
CONTINUOUS
 10
-6.7573252526
 20
3.3506102289
 11
-6.7265000229
 21
3.3197849992
  0
LINE
  5
387
100
AcDbEntity
  8
RACCORDO
100
AcDbLine
 62
7
  6
CONTINUOUS
 10
-11.1914633778
 20
7.9941412662
 11
-11.121592325
 21
7.9242702135
  0
LINE
  5
388
100
AcDbEntity
  8
ASSI
100
AcDbLine
 62
7
  6
CONTINUOUS
 10
-11.1914633778
 20
7.9941412662
 11
-11.121592325
 21
7.9242702135
  0
LINE
  5
389
100
AcDbEntity
  8
0
100
AcDbLine
 62
7
  6
CONTINUOUS
 10
0.7270864724
 20
-4.5493899285
 11
0.618575847
 21
-4.4077231943
  0
LINE
  5
38A
100
AcDbEntity
  8
ASSI
100
AcDbLine
 62
7
  6
CONTINUOUS
 10
0.7270864724
 20
-4.5493899285
 11
0.618575847
 21
-4.4077231943
  0
LINE
  5
38B
100
AcDbEntity
  8
0
100
AcDbLine
 62
7
  6
CONTINUOUS
 10
0.6909162639
 20
-6.0723065614
 11
0.618575847
 21
-5.9660565614
  0
LINE
  5
38C
100
AcDbEntity
  8
ASSI
100
AcDbLine
 62
7
  6
CONTINUOUS
 10
0.6909162639
 20
-6.0723065614
 11
0.618575847
 21
-5.9660565614
  0
LINE
  5
38D
100
AcDbEntity
  8
0
100
AcDbLine
 62
7
  6
CONTINUOUS
 10
1.1972992836
 20
-6.2139732957
 11
1.0526184498
 21
-6.0014732957
  0
LINE
  5
38E
100
AcDbEntity
  8
ASSI
100
AcDbLine
 62
7
  6
CONTINUOUS
 10
1.1972992836
 20
-6.2139732957
 11
1.0526184498
 21
-6.0014732957
  0
LINE
  5
38F
100
AcDbEntity
  8
0
100
AcDbLine
 62
7
  6
CONTINUOUS
 10
1.305809909
 20
-6.0723065614
 11
1.233469492
 21
-5.9660565614
  0
LINE
  5
390
100
AcDbEntity
  8
ASSI
100
AcDbLine
 62
7
  6
CONTINUOUS
 10
1.305809909
 20
-6.0723065614
 11
1.233469492
 21
-5.9660565614
  0
LINE
  5
391
100
AcDbEntity
  8
0
100
AcDbLine
 62
7
  6
CONTINUOUS
 10
0.5462354301
 20
-6.1785565614
 11
0.4377248047
 21
-6.0014732957
  0
LINE
  5
392
100
AcDbEntity
  8
ASSI
100
AcDbLine
 62
7
  6
CONTINUOUS
 10
0.5462354301
 20
-6.1785565614
 11
0.4377248047
 21
-6.0014732957
  0
LINE
  5
393
100
AcDbEntity
  8
0
100
AcDbLine
 62
7
  6
CONTINUOUS
 10
-1.3097735722
 20
-1.4003824969
 11
-1.3097735722
 21
-1.1976017841
  0
LINE
  5
394
100
AcDbEntity
  8
ASSI
100
AcDbLine
 62
7
  6
CONTINUOUS
 10
-1.3097735722
 20
-1.4003824969
 11
-1.3097735722
 21
-1.1976017841
  0
LINE
  5
395
100
AcDbEntity
  8
0
100
AcDbLine
 62
7
  6
CONTINUOUS
 10
-1.0313771196
 20
-1.3886169326
 11
-1.0313771196
 21
-1.1983666095
  0
LINE
  5
396
100
AcDbEntity
  8
ASSI
100
AcDbLine
 62
7
  6
CONTINUOUS
 10
-1.0313771196
 20
-1.3886169326
 11
-1.0313771196
 21
-1.1983666095
  0
LINE
  5
397
100
AcDbEntity
  8
0
100
AcDbLine
 62
7
  6
CONTINUOUS
 10
-0.9680874037
 20
-2.7227399285
 11
-0.9680874037
 21
-2.3830179285
  0
LINE
  5
398
100
AcDbEntity
  8
ASSI
100
AcDbLine
 62
7
  6
CONTINUOUS
 10
-0.9680874037
 20
-2.7227399285
 11
-0.9680874037
 21
-2.3830179285
  0
LINE
  5
399
100
AcDbEntity
  8
RACCORDO
100
AcDbLine
 62
7
  6
CONTINUOUS
 10
6.7464094667
 20
7.9366309418
 11
6.7289038803
 21
7.9191253555
  0
LINE
  5
39A
100
AcDbEntity
  8
ASSI
100
AcDbLine
 62
7
  6
CONTINUOUS
 10
6.7464094667
 20
7.9366309418
 11
6.7289038803
 21
7.9191253555
  0
LINE
  5
39B
100
AcDbEntity
  8
DRAFT
100
AcDbLine
 62
7
  6
CONTINUOUS
 10
9.5015545963
 20
-1.0782972532
 11
9.9015545963
 21
-1.0742661786
  0
LINE
  5
39C
100
AcDbEntity
  8
ASSI
100
AcDbLine
 62
7
  6
CONTINUOUS
 10
9.5015545963
 20
-1.0782972532
 11
9.9015545963
 21
-1.0742661786
  0
LINE
  5
39D
100
AcDbEntity
  8
0
100
AcDbLine
 62
7
  6
CONTINUOUS
 10
1.3781503259
 20
-1.857723397
 11
1.5951716273
 21
-1.857723397
  0
LINE
  5
39E
100
AcDbEntity
  8
ASSI
100
AcDbLine
 62
7
  6
CONTINUOUS
 10
1.3781503259
 20
-1.857723397
 11
1.5951716273
 21
-1.857723397
  0
LINE
  5
39F
100
AcDbEntity
  8
DRAFT
100
AcDbLine
 62
7
  6
CONTINUOUS
 10
-11.4189576457
 20
-1.7877116866
 11
-10.4779331618
 21
-1.7877116866
  0
LINE
  5
3A0
100
AcDbEntity
  8
ASSI
100
AcDbLine
 62
7
  6
CONTINUOUS
 10
-11.4189576457
 20
-1.7877116866
 11
-10.4779331618
 21
-1.7877116866
  0
LINE
  5
3A1
100
AcDbEntity
  8
DRAFT
100
AcDbLine
 62
7
  6
CONTINUOUS
 10
10.4810423543
 20
-1.7877116866
 11
11.4220668382
 21
-1.7877116866
  0
LINE
  5
3A2
100
AcDbEntity
  8
ASSI
100
AcDbLine
 62
7
  6
CONTINUOUS
 10
10.4810423543
 20
-1.7877116866
 11
11.4220668382
 21
-1.7877116866
  0
LINE
  5
3A3
100
AcDbEntity
  8
DRAFT
100
AcDbLine
 62
7
  6
CONTINUOUS
 10
-12.2984454037
 20
-1.7467323652
 11
-11.4984454037
 21
-1.7467323652
  0
LINE
  5
3A4
100
AcDbEntity
  8
ASSI
100
AcDbLine
 62
7
  6
CONTINUOUS
 10
-12.2984454037
 20
-1.7467323652
 11
-11.4984454037
 21
-1.7467323652
  0
LINE
  5
3A5
100
AcDbEntity
  8
DRAFT
100
AcDbLine
 62
7
  6
CONTINUOUS
 10
11.5015545963
 20
-1.7467323652
 11
12.3015545963
 21
-1.7467323652
  0
LINE
  5
3A6
100
AcDbEntity
  8
ASSI
100
AcDbLine
 62
7
  6
CONTINUOUS
 10
11.5015545963
 20
-1.7467323652
 11
12.3015545963
 21
-1.7467323652
  0
LINE
  5
3A7
100
AcDbEntity
  8
0
100
AcDbLine
 62
7
  6
CONTINUOUS
 10
-0.366144717
 20
-1.7420172646
 11
-2.0461474859
 21
-1.7420172646
  0
LINE
  5
3A8
100
AcDbEntity
  8
ASSI
100
AcDbLine
 62
7
  6
CONTINUOUS
 10
-0.366144717
 20
-1.7420172646
 11
-2.0461474859
 21
-1.7420172646
  0
LINE
  5
3A9
100
AcDbEntity
  8
DRAFT
100
AcDbLine
 62
7
  6
CONTINUOUS
 10
-11.1809903388
 20
-1.7256789935
 11
-10.4159004687
 21
-1.7256789935
  0
LINE
  5
3AA
100
AcDbEntity
  8
ASSI
100
AcDbLine
 62
7
  6
CONTINUOUS
 10
-11.1809903388
 20
-1.7256789935
 11
-10.4159004687
 21
-1.7256789935
  0
LINE
  5
3AB
100
AcDbEntity
  8
DRAFT
100
AcDbLine
 62
7
  6
CONTINUOUS
 10
11.1840995313
 20
-1.7256789935
 11
10.4190096612
 21
-1.7256789935
  0
LINE
  5
3AC
100
AcDbEntity
  8
ASSI
100
AcDbLine
 62
7
  6
CONTINUOUS
 10
11.1840995313
 20
-1.7256789935
 11
10.4190096612
 21
-1.7256789935
  0
LINE
  5
3AD
100
AcDbEntity
  8
DRAFT
100
AcDbLine
 62
7
  6
CONTINUOUS
 10
-11.4984454037
 20
-1.7082239285
 11
-11.1984454037
 21
-1.7082239285
  0
LINE
  5
3AE
100
AcDbEntity
  8
ASSI
100
AcDbLine
 62
7
  6
CONTINUOUS
 10
-11.4984454037
 20
-1.7082239285
 11
-11.1984454037
 21
-1.7082239285
  0
LINE
  5
3AF
100
AcDbEntity
  8
DRAFT
100
AcDbLine
 62
7
  6
CONTINUOUS
 10
11.2015545963
 20
-1.7082239285
 11
11.5015545963
 21
-1.7082239285
  0
LINE
  5
3B0
100
AcDbEntity
  8
ASSI
100
AcDbLine
 62
7
  6
CONTINUOUS
 10
11.2015545963
 20
-1.7082239285
 11
11.5015545963
 21
-1.7082239285
  0
LINE
  5
3B1
100
AcDbEntity
  8
0
100
AcDbLine
 62
7
  6
CONTINUOUS
 10
0.6547460555
 20
-1.5743899285
 11
0.9441078244
 21
-1.5743899285
  0
LINE
  5
3B2
100
AcDbEntity
  8
ASSI
100
AcDbLine
 62
7
  6
CONTINUOUS
 10
0.6547460555
 20
-1.5743899285
 11
0.9441078244
 21
-1.5743899285
  0
LINE
  5
3B3
100
AcDbEntity
  8
0
100
AcDbLine
 62
7
  6
CONTINUOUS
 10
-1.3097735722
 20
-1.4003824969
 11
-1.7764190547
 21
-1.4003824969
  0
LINE
  5
3B4
100
AcDbEntity
  8
ASSI
100
AcDbLine
 62
7
  6
CONTINUOUS
 10
-1.3097735722
 20
-1.4003824969
 11
-1.7764190547
 21
-1.4003824969
  0
LINE
  5
3B5
100
AcDbEntity
  8
0
100
AcDbLine
 62
7
  6
CONTINUOUS
 10
-0.366144717
 20
-1.3886169326
 11
-1.0313771196
 21
-1.3886169326
  0
LINE
  5
3B6
100
AcDbEntity
  8
ASSI
100
AcDbLine
 62
7
  6
CONTINUOUS
 10
-0.366144717
 20
-1.3886169326
 11
-1.0313771196
 21
-1.3886169326
  0
LINE
  5
3B7
100
AcDbEntity
  8
0
100
AcDbLine
 62
7
  6
CONTINUOUS
 10
0.6909162639
 20
-1.3618899285
 11
2.1015545963
 21
-1.3618899285
  0
LINE
  5
3B8
100
AcDbEntity
  8
ASSI
100
AcDbLine
 62
7
  6
CONTINUOUS
 10
0.6909162639
 20
-1.3618899285
 11
2.1015545963
 21
-1.3618899285
  0
LINE
  5
3B9
100
AcDbEntity
  8
0
100
AcDbLine
 62
7
  6
CONTINUOUS
 10
0.4015545963
 20
-1.1493899285
 11
2.1015545963
 21
-1.1493899285
  0
LINE
  5
3BA
100
AcDbEntity
  8
ASSI
100
AcDbLine
 62
7
  6
CONTINUOUS
 10
0.4015545963
 20
-1.1493899285
 11
2.1015545963
 21
-1.1493899285
  0
LINE
  5
3BB
100
AcDbEntity
  8
DRAFT
100
AcDbLine
 62
7
  6
CONTINUOUS
 10
-11.1809903388
 20
-1.1001160844
 11
-10.1484454037
 21
-1.1001160844
  0
LINE
  5
3BC
100
AcDbEntity
  8
ASSI
100
AcDbLine
 62
7
  6
CONTINUOUS
 10
-11.1809903388
 20
-1.1001160844
 11
-10.1484454037
 21
-1.1001160844
  0
LINE
  5
3BD
100
AcDbEntity
  8
DRAFT
100
AcDbLine
 62
7
  6
CONTINUOUS
 10
10.1515545963
 20
-1.1001160844
 11
11.1840995313
 21
-1.1001160844
  0
LINE
  5
3BE
100
AcDbEntity
  8
ASSI
100
AcDbLine
 62
7
  6
CONTINUOUS
 10
10.1515545963
 20
-1.1001160844
 11
11.1840995313
 21
-1.1001160844
  0
LINE
  5
3BF
100
AcDbEntity
  8
RACCORDO
100
AcDbLine
 62
7
  6
CONTINUOUS
 10
-10.8238145173
 20
-1.0377510133
 11
-9.8984454037
 21
-1.0377510133
  0
LINE
  5
3C0
100
AcDbEntity
  8
ASSI
100
AcDbLine
 62
7
  6
CONTINUOUS
 10
-10.8238145173
 20
-1.0377510133
 11
-9.8984454037
 21
-1.0377510133
  0
LINE
  5
3C1
100
AcDbEntity
  8
RACCORDO
100
AcDbLine
 62
7
  6
CONTINUOUS
 10
9.9015545963
 20
-1.0377510133
 11
10.8269237098
 21
-1.0377510133
  0
LINE
  5
3C2
100
AcDbEntity
  8
ASSI
100
AcDbLine
 62
7
  6
CONTINUOUS
 10
9.9015545963
 20
-1.0377510133
 11
10.8269237098
 21
-1.0377510133
  0
LINE
  5
3C3
100
AcDbEntity
  8
DRAFT
100
AcDbLine
 62
7
  6
CONTINUOUS
 10
-9.8984454037
 20
-1.0742661786
 11
-9.4984454037
 21
-1.0782972532
  0
LINE
  5
3C4
100
AcDbEntity
  8
ASSI
100
AcDbLine
 62
7
  6
CONTINUOUS
 10
-9.8984454037
 20
-1.0742661786
 11
-9.4984454037
 21
-1.0782972532
  0
LINE
  5
3C5
100
AcDbEntity
  8
0
100
AcDbLine
 62
7
  6
CONTINUOUS
 10
1.3781503259
 20
-3.2743899285
 11
0.4015545963
 21
-2.4243899285
  0
LINE
  5
3C6
100
AcDbEntity
  8
ASSI
100
AcDbLine
 62
7
  6
CONTINUOUS
 10
1.3781503259
 20
-3.2743899285
 11
0.4015545963
 21
-2.4243899285
  0
LINE
  5
3C7
100
AcDbEntity
  8
0
100
AcDbLine
 62
7
  6
CONTINUOUS
 10
1.3781503259
 20
-3.026473397
 11
0.6909162639
 21
-2.4243899285
  0
LINE
  5
3C8
100
AcDbEntity
  8
ASSI
100
AcDbLine
 62
7
  6
CONTINUOUS
 10
1.3781503259
 20
-3.026473397
 11
0.6909162639
 21
-2.4243899285
  0
LINE
  5
3C9
100
AcDbEntity
  8
0
100
AcDbLine
 62
7
  6
CONTINUOUS
 10
1.1972992836
 20
-3.7702231943
 11
1.0887886582
 21
-3.663973397
  0
LINE
  5
3CA
100
AcDbEntity
  8
ASSI
100
AcDbLine
 62
7
  6
CONTINUOUS
 10
1.1972992836
 20
-3.7702231943
 11
1.0887886582
 21
-3.663973397
  0
LINE
  5
3CB
100
AcDbEntity
  8
0
100
AcDbLine
 62
7
  6
CONTINUOUS
 10
1.9568737498
 20
-3.7348066628
 11
1.8483631118
 21
-3.6285564601
  0
LINE
  5
3CC
100
AcDbEntity
  8
ASSI
100
AcDbLine
 62
7
  6
CONTINUOUS
 10
1.9568737498
 20
-3.7348066628
 11
1.8483631118
 21
-3.6285564601
  0
LINE
  5
3CD
100
AcDbEntity
  8
RACCORDO
100
AcDbLine
 62
253
  6
CONTINUOUS
 10
5.1666591688
 20
-6.6232828096
 11
5.1964094667
 21
-6.6530331075
  0
LINE
  5
3CE
100
AcDbEntity
  8
ASSI
100
AcDbLine
 62
253
  6
CONTINUOUS
 10
5.1666591688
 20
-6.6232828096
 11
5.1964094667
 21
-6.6530331075
  0
LINE
  5
3CF
100
AcDbEntity
  8
0
100
AcDbLine
 62
7
  6
CONTINUOUS
 10
1.3781503259
 20
-4.7618899285
 11
1.2696397005
 21
-4.6202231943
  0
LINE
  5
3D0
100
AcDbEntity
  8
ASSI
100
AcDbLine
 62
7
  6
CONTINUOUS
 10
1.3781503259
 20
-4.7618899285
 11
1.2696397005
 21
-4.6202231943
  0
LINE
  5
3D1
100
AcDbEntity
  8
0
100
AcDbLine
 62
7
  6
CONTINUOUS
 10
1.1249588667
 20
-3.9827231943
 11
1.0164482413
 21
-3.8410566628
  0
LINE
  5
3D2
100
AcDbEntity
  8
ASSI
100
AcDbLine
 62
7
  6
CONTINUOUS
 10
1.1249588667
 20
-3.9827231943
 11
1.0164482413
 21
-3.8410566628
  0
LINE
  5
3D3
100
AcDbEntity
  8
0
100
AcDbLine
 62
7
  6
CONTINUOUS
 10
1.8845333202
 20
-5.5056399285
 11
1.8121929033
 21
-5.3993899285
  0
LINE
  5
3D4
100
AcDbEntity
  8
ASSI
100
AcDbLine
 62
7
  6
CONTINUOUS
 10
1.8845333202
 20
-5.5056399285
 11
1.8121929033
 21
-5.3993899285
  0
LINE
  5
3D5
100
AcDbEntity
  8
0
100
AcDbLine
 62
7
  6
CONTINUOUS
 10
0.5462354301
 20
-4.6202231943
 11
0.4377248047
 21
-4.4431399285
  0
LINE
  5
3D6
100
AcDbEntity
  8
ASSI
100
AcDbLine
 62
7
  6
CONTINUOUS
 10
0.5462354301
 20
-4.6202231943
 11
0.4377248047
 21
-4.4431399285
  0
LINE
  5
3D7
100
AcDbEntity
  8
0
100
AcDbLine
 62
7
  6
CONTINUOUS
 10
2.0653843847
 20
-5.4702232957
 11
1.9568737498
 21
-5.2931399285
  0
LINE
  5
3D8
100
AcDbEntity
  8
ASSI
100
AcDbLine
 62
7
  6
CONTINUOUS
 10
2.0653843847
 20
-5.4702232957
 11
1.9568737498
 21
-5.2931399285
  0
LINE
  5
3D9
100
AcDbEntity
  8
0
100
AcDbLine
 62
7
  6
CONTINUOUS
 10
1.2696397005
 20
-4.6202231943
 11
1.233469492
 21
-4.5493899285
  0
LINE
  5
3DA
100
AcDbEntity
  8
ASSI
100
AcDbLine
 62
7
  6
CONTINUOUS
 10
1.2696397005
 20
-4.6202231943
 11
1.233469492
 21
-4.5493899285
  0
LINE
  5
3DB
100
AcDbEntity
  8
0
100
AcDbLine
 62
7
  6
CONTINUOUS
 10
0.618575847
 20
-5.9660565614
 11
0.5824056385
 21
-5.8598065614
  0
LINE
  5
3DC
100
AcDbEntity
  8
ASSI
100
AcDbLine
 62
7
  6
CONTINUOUS
 10
0.618575847
 20
-5.9660565614
 11
0.5824056385
 21
-5.8598065614
  0
LINE
  5
3DD
100
AcDbEntity
  8
0
100
AcDbLine
 62
7
  6
CONTINUOUS
 10
-0.7054974037
 20
-2.7953219285
 11
-0.7054974037
 21
-2.3121049285
  0
LINE
  5
3DE
100
AcDbEntity
  8
ASSI
100
AcDbLine
 62
7
  6
CONTINUOUS
 10
-0.7054974037
 20
-2.7953219285
 11
-0.7054974037
 21
-2.3121049285
  0
LINE
  5
3DF
100
AcDbEntity
  8
0
100
AcDbLine
 62
7
  6
CONTINUOUS
 10
-0.366144717
 20
-1.7420172646
 11
-0.366144717
 21
-1.3886169326
  0
LINE
  5
3E0
100
AcDbEntity
  8
ASSI
100
AcDbLine
 62
7
  6
CONTINUOUS
 10
-0.366144717
 20
-1.7420172646
 11
-0.366144717
 21
-1.3886169326
  0
LINE
  5
3E1
100
AcDbEntity
  8
0
100
AcDbLine
 62
7
  6
CONTINUOUS
 10
-0.366144717
 20
-0.8452467134
 11
-0.366144717
 21
-0.5039433701
  0
LINE
  5
3E2
100
AcDbEntity
  8
ASSI
100
AcDbLine
 62
7
  6
CONTINUOUS
 10
-0.366144717
 20
-0.8452467134
 11
-0.366144717
 21
-0.5039433701
  0
LINE
  5
3E3
100
AcDbEntity
  8
0
100
AcDbLine
 62
7
  6
CONTINUOUS
 10
-0.3661444037
 20
-6.5604999285
 11
-0.3661444037
 21
-6.2478079285
  0
LINE
  5
3E4
100
AcDbEntity
  8
ASSI
100
AcDbLine
 62
7
  6
CONTINUOUS
 10
-0.3661444037
 20
-6.5604999285
 11
-0.3661444037
 21
-6.2478079285
  0
LINE
  5
3E5
100
AcDbEntity
  8
0
100
AcDbLine
 62
7
  6
CONTINUOUS
 10
-0.3661444037
 20
-5.5697259285
 11
-0.3661444037
 21
-5.2148979285
  0
LINE
  5
3E6
100
AcDbEntity
  8
ASSI
100
AcDbLine
 62
7
  6
CONTINUOUS
 10
-0.3661444037
 20
-5.5697259285
 11
-0.3661444037
 21
-5.2148979285
  0
LINE
  5
3E7
100
AcDbEntity
  8
0
100
AcDbLine
 62
7
  6
CONTINUOUS
 10
-0.3661444037
 20
-5.0238829285
 11
-0.3661444037
 21
-4.6844279285
  0
LINE
  5
3E8
100
AcDbEntity
  8
ASSI
100
AcDbLine
 62
7
  6
CONTINUOUS
 10
-0.3661444037
 20
-5.0238829285
 11
-0.3661444037
 21
-4.6844279285
  0
LINE
  5
3E9
100
AcDbEntity
  8
0
100
AcDbLine
 62
7
  6
CONTINUOUS
 10
-0.3661444037
 20
-4.1915999285
 11
-0.3661444037
 21
-4.1418359285
  0
LINE
  5
3EA
100
AcDbEntity
  8
ASSI
100
AcDbLine
 62
7
  6
CONTINUOUS
 10
-0.3661444037
 20
-4.1915999285
 11
-0.3661444037
 21
-4.1418359285
  0
LINE
  5
3EB
100
AcDbEntity
  8
0
100
AcDbLine
 62
7
  6
CONTINUOUS
 10
-0.3661444037
 20
-3.6470439285
 11
-0.3661444037
 21
-3.2999279285
  0
LINE
  5
3EC
100
AcDbEntity
  8
ASSI
100
AcDbLine
 62
7
  6
CONTINUOUS
 10
-0.3661444037
 20
-3.6470439285
 11
-0.3661444037
 21
-3.2999279285
  0
LINE
  5
3ED
100
AcDbEntity
  8
0
100
AcDbLine
 62
7
  6
CONTINUOUS
 10
-0.3661444037
 20
-3.2442109285
 11
-0.3661444037
 21
-2.8932329285
  0
LINE
  5
3EE
100
AcDbEntity
  8
ASSI
100
AcDbLine
 62
7
  6
CONTINUOUS
 10
-0.3661444037
 20
-3.2442109285
 11
-0.3661444037
 21
-2.8932329285
  0
LINE
  5
3EF
100
AcDbEntity
  8
0
100
AcDbLine
 62
7
  6
CONTINUOUS
 10
-0.3661444037
 20
-2.2201859285
 11
-0.3661444037
 21
-1.8462119285
  0
LINE
  5
3F0
100
AcDbEntity
  8
ASSI
100
AcDbLine
 62
7
  6
CONTINUOUS
 10
-0.3661444037
 20
-2.2201859285
 11
-0.3661444037
 21
-1.8462119285
  0
LINE
  5
3F1
100
AcDbEntity
  8
DRAFT
100
AcDbLine
 62
7
  6
CONTINUOUS
 10
-9.4984454037
 20
-1.0887702922
 11
-10.1484454037
 21
-1.1001160844
  0
LINE
  5
3F2
100
AcDbEntity
  8
ASSI
100
AcDbLine
 62
7
  6
CONTINUOUS
 10
-9.4984454037
 20
-1.0887702922
 11
-10.1484454037
 21
-1.1001160844
  0
LINE
  5
3F3
100
AcDbEntity
  8
0
100
AcDbLine
 62
7
  6
CONTINUOUS
 10
-1.1596255953
 20
-0.8297717458
 11
-1.1696703025
 21
-0.8297717458
  0
LINE
  5
3F4
100
AcDbEntity
  8
ASSI
100
AcDbLine
 62
7
  6
CONTINUOUS
 10
-1.1596255953
 20
-0.8297717458
 11
-1.1696703025
 21
-0.8297717458
  0
LINE
  5
3F5
100
AcDbEntity
  8
DRAFT
100
AcDbLine
 62
7
  6
CONTINUOUS
 10
10.1515545963
 20
-1.1001160844
 11
9.5015545963
 21
-1.0887702922
  0
LINE
  5
3F6
100
AcDbEntity
  8
ASSI
100
AcDbLine
 62
7
  6
CONTINUOUS
 10
10.1515545963
 20
-1.1001160844
 11
9.5015545963
 21
-1.0887702922
  0
LINE
  5
3F7
100
AcDbEntity
  8
0
100
AcDbLine
 62
7
  6
CONTINUOUS
 10
0.6547460555
 20
-1.5743899285
 11
0.4015545963
 21
-1.3618899285
  0
LINE
  5
3F8
100
AcDbEntity
  8
ASSI
100
AcDbLine
 62
7
  6
CONTINUOUS
 10
0.6547460555
 20
-1.5743899285
 11
0.4015545963
 21
-1.3618899285
  0
LINE
  5
3F9
100
AcDbEntity
  8
0
100
AcDbLine
 62
7
  6
CONTINUOUS
 10
0.9441078244
 20
-1.5743899285
 11
0.6909162639
 21
-1.3618899285
  0
LINE
  5
3FA
100
AcDbEntity
  8
ASSI
100
AcDbLine
 62
7
  6
CONTINUOUS
 10
0.9441078244
 20
-1.5743899285
 11
0.6909162639
 21
-1.3618899285
  0
LINE
  5
3FB
100
AcDbEntity
  8
RACCORDO
100
AcDbLine
 62
253
  6
CONTINUOUS
 10
5.4664177854
 20
-6.3231328091
 11
5.496363788
 21
-6.3530788118
  0
LINE
  5
3FC
100
AcDbEntity
  8
ASSI
100
AcDbLine
 62
253
  6
CONTINUOUS
 10
5.4664177854
 20
-6.3231328091
 11
5.496363788
 21
-6.3530788118
  0
LINE
  5
3FD
100
AcDbEntity
  8
0
100
AcDbLine
 62
7
  6
CONTINUOUS
 10
2.0653843847
 20
-3.9118899285
 11
1.9568737498
 21
-3.7348066628
  0
LINE
  5
3FE
100
AcDbEntity
  8
ASSI
100
AcDbLine
 62
7
  6
CONTINUOUS
 10
2.0653843847
 20
-3.9118899285
 11
1.9568737498
 21
-3.7348066628
  0
LINE
  5
3FF
100
AcDbEntity
  8
0
100
AcDbLine
 62
7
  6
CONTINUOUS
 10
1.4143205343
 20
-4.5493899285
 11
1.3419801174
 21
-4.4077231943
  0
LINE
  5
400
100
AcDbEntity
  8
ASSI
100
AcDbLine
 62
7
  6
CONTINUOUS
 10
1.4143205343
 20
-4.5493899285
 11
1.3419801174
 21
-4.4077231943
  0
LINE
  5
401
100
AcDbEntity
  8
0
100
AcDbLine
 62
7
  6
CONTINUOUS
 10
1.233469492
 20
-3.8410566628
 11
1.1972992836
 21
-3.7702231943
  0
LINE
  5
402
100
AcDbEntity
  8
ASSI
100
AcDbLine
 62
7
  6
CONTINUOUS
 10
1.233469492
 20
-3.8410566628
 11
1.1972992836
 21
-3.7702231943
  0
LINE
  5
403
100
AcDbEntity
  8
0
100
AcDbLine
 62
7
  6
CONTINUOUS
 10
1.8845333202
 20
-3.9827231943
 11
1.8121929033
 21
-3.8410566628
  0
LINE
  5
404
100
AcDbEntity
  8
ASSI
100
AcDbLine
 62
7
  6
CONTINUOUS
 10
1.8845333202
 20
-3.9827231943
 11
1.8121929033
 21
-3.8410566628
  0
LINE
  5
405
100
AcDbEntity
  8
0
100
AcDbLine
 62
7
  6
CONTINUOUS
 10
1.233469492
 20
-5.9660565614
 11
1.1972992836
 21
-5.8598065614
  0
LINE
  5
406
100
AcDbEntity
  8
ASSI
100
AcDbLine
 62
7
  6
CONTINUOUS
 10
1.233469492
 20
-5.9660565614
 11
1.1972992836
 21
-5.8598065614
  0
LINE
  5
407
100
AcDbEntity
  8
0
100
AcDbLine
 62
7
  6
CONTINUOUS
 10
1.9207035287
 20
-5.6118899285
 11
1.8845333202
 21
-5.5056399285
  0
LINE
  5
408
100
AcDbEntity
  8
ASSI
100
AcDbLine
 62
7
  6
CONTINUOUS
 10
1.9207035287
 20
-5.6118899285
 11
1.8845333202
 21
-5.5056399285
  0
LINE
  5
409
100
AcDbEntity
  8
0
100
AcDbLine
 62
7
  6
CONTINUOUS
 10
0.618575847
 20
-4.4077231943
 11
0.5824056385
 21
-4.2660566628
  0
LINE
  5
40A
100
AcDbEntity
  8
ASSI
100
AcDbLine
 62
7
  6
CONTINUOUS
 10
0.618575847
 20
-4.4077231943
 11
0.5824056385
 21
-4.2660566628
  0
LINE
  5
40B
100
AcDbEntity
  8
0
100
AcDbLine
 62
7
  6
CONTINUOUS
 10
1.1611290751
 20
-4.1243899285
 11
1.1249588667
 21
-3.9827231943
  0
LINE
  5
40C
100
AcDbEntity
  8
ASSI
100
AcDbLine
 62
7
  6
CONTINUOUS
 10
1.1611290751
 20
-4.1243899285
 11
1.1249588667
 21
-3.9827231943
  0
LINE
  5
40D
100
AcDbEntity
  8
0
100
AcDbLine
 62
7
  6
CONTINUOUS
 10
0.4377248047
 20
-6.0014732957
 11
0.4015545963
 21
-5.8243899285
  0
LINE
  5
40E
100
AcDbEntity
  8
ASSI
100
AcDbLine
 62
7
  6
CONTINUOUS
 10
0.4377248047
 20
-6.0014732957
 11
0.4015545963
 21
-5.8243899285
  0
LINE
  5
40F
100
AcDbEntity
  8
0
100
AcDbLine
 62
7
  6
CONTINUOUS
 10
0.4377248047
 20
-4.4431399285
 11
0.4015545963
 21
-4.2660566628
  0
LINE
  5
410
100
AcDbEntity
  8
ASSI
100
AcDbLine
 62
7
  6
CONTINUOUS
 10
0.4377248047
 20
-4.4431399285
 11
0.4015545963
 21
-4.2660566628
  0
LINE
  5
411
100
AcDbEntity
  8
0
100
AcDbLine
 62
7
  6
CONTINUOUS
 10
1.0526184498
 20
-6.0014732957
 11
1.0164482413
 21
-5.8243899285
  0
LINE
  5
412
100
AcDbEntity
  8
ASSI
100
AcDbLine
 62
7
  6
CONTINUOUS
 10
1.0526184498
 20
-6.0014732957
 11
1.0164482413
 21
-5.8243899285
  0
LINE
  5
413
100
AcDbEntity
  8
0
100
AcDbLine
 62
7
  6
CONTINUOUS
 10
0.4015545963
 20
-6.8868899285
 11
0.4015545963
 21
-6.6743899285
  0
LINE
  5
414
100
AcDbEntity
  8
ASSI
100
AcDbLine
 62
7
  6
CONTINUOUS
 10
0.4015545963
 20
-6.8868899285
 11
0.4015545963
 21
-6.6743899285
  0
LINE
  5
415
100
AcDbEntity
  8
0
100
AcDbLine
 62
7
  6
CONTINUOUS
 10
0.4015545963
 20
-5.8243899285
 11
0.4015545963
 21
-5.6827232957
  0
LINE
  5
416
100
AcDbEntity
  8
ASSI
100
AcDbLine
 62
7
  6
CONTINUOUS
 10
0.4015545963
 20
-5.8243899285
 11
0.4015545963
 21
-5.6827232957
  0
LINE
  5
417
100
AcDbEntity
  8
0
100
AcDbLine
 62
7
  6
CONTINUOUS
 10
0.4015545963
 20
-4.2660566628
 11
0.4015545963
 21
-4.1243899285
  0
LINE
  5
418
100
AcDbEntity
  8
ASSI
100
AcDbLine
 62
7
  6
CONTINUOUS
 10
0.4015545963
 20
-4.2660566628
 11
0.4015545963
 21
-4.1243899285
  0
LINE
  5
419
100
AcDbEntity
  8
0
100
AcDbLine
 62
7
  6
CONTINUOUS
 10
0.4015545963
 20
-2.4243899285
 11
0.4015545963
 21
-2.2118899285
  0
LINE
  5
41A
100
AcDbEntity
  8
ASSI
100
AcDbLine
 62
7
  6
CONTINUOUS
 10
0.4015545963
 20
-2.4243899285
 11
0.4015545963
 21
-2.2118899285
  0
LINE
  5
41B
100
AcDbEntity
  8
0
100
AcDbLine
 62
7
  6
CONTINUOUS
 10
0.4015545963
 20
-1.3618899285
 11
0.4015545963
 21
-1.1493899285
  0
LINE
  5
41C
100
AcDbEntity
  8
ASSI
100
AcDbLine
 62
7
  6
CONTINUOUS
 10
0.4015545963
 20
-1.3618899285
 11
0.4015545963
 21
-1.1493899285
  0
LINE
  5
41D
100
AcDbEntity
  8
0
100
AcDbLine
 62
7
  6
CONTINUOUS
 10
0.5824056385
 20
-5.8598065614
 11
0.5824056385
 21
-5.6473065614
  0
LINE
  5
41E
100
AcDbEntity
  8
ASSI
100
AcDbLine
 62
7
  6
CONTINUOUS
 10
0.5824056385
 20
-5.8598065614
 11
0.5824056385
 21
-5.6473065614
  0
LINE
  5
41F
100
AcDbEntity
  8
0
100
AcDbLine
 62
7
  6
CONTINUOUS
 10
0.5824056385
 20
-4.2660566628
 11
0.5824056385
 21
-4.1243899285
  0
LINE
  5
420
100
AcDbEntity
  8
ASSI
100
AcDbLine
 62
7
  6
CONTINUOUS
 10
0.5824056385
 20
-4.2660566628
 11
0.5824056385
 21
-4.1243899285
  0
LINE
  5
421
100
AcDbEntity
  8
0
100
AcDbLine
 62
7
  6
CONTINUOUS
 10
0.7994268893
 20
-5.3639731943
 11
0.7994268893
 21
-5.1868899285
  0
LINE
  5
422
100
AcDbEntity
  8
ASSI
100
AcDbLine
 62
7
  6
CONTINUOUS
 10
0.7994268893
 20
-5.3639731943
 11
0.7994268893
 21
-5.1868899285
  0
LINE
  5
423
100
AcDbEntity
  8
0
100
AcDbLine
 62
7
  6
CONTINUOUS
 10
1.0164482413
 20
-5.8243899285
 11
1.0164482413
 21
-5.6473065614
  0
LINE
  5
424
100
AcDbEntity
  8
ASSI
100
AcDbLine
 62
7
  6
CONTINUOUS
 10
1.0164482413
 20
-5.8243899285
 11
1.0164482413
 21
-5.6473065614
  0
LINE
  5
425
100
AcDbEntity
  8
0
100
AcDbLine
 62
7
  6
CONTINUOUS
 10
1.1611290751
 20
-4.2660566628
 11
1.1611290751
 21
-4.1243899285
  0
LINE
  5
426
100
AcDbEntity
  8
ASSI
100
AcDbLine
 62
7
  6
CONTINUOUS
 10
1.1611290751
 20
-4.2660566628
 11
1.1611290751
 21
-4.1243899285
  0
LINE
  5
427
100
AcDbEntity
  8
RACCORDO
100
AcDbLine
 62
253
  6
CONTINUOUS
 10
-5.4932546
 20
-6.3530788163
 11
-5.4633085928
 21
-6.3231328091
  0
LINE
  5
428
100
AcDbEntity
  8
ASSI
100
AcDbLine
 62
253
  6
CONTINUOUS
 10
-5.4932546
 20
-6.3530788163
 11
-5.4633085928
 21
-6.3231328091
  0
LINE
  5
429
100
AcDbEntity
  8
RACCORDO
100
AcDbLine
 62
253
  6
CONTINUOUS
 10
-5.1933002741
 20
-6.6530331075
 11
-5.1635499762
 21
-6.6232828096
  0
LINE
  5
42A
100
AcDbEntity
  8
ASSI
100
AcDbLine
 62
253
  6
CONTINUOUS
 10
-5.1933002741
 20
-6.6530331075
 11
-5.1635499762
 21
-6.6232828096
  0
LINE
  5
42B
100
AcDbEntity
  8
0
100
AcDbLine
 62
7
  6
CONTINUOUS
 10
-2.9984454037
 20
0.7417760715
 11
3.0015545963
 21
0.7417760715
  0
LINE
  5
42C
100
AcDbEntity
  8
ASSI
100
AcDbLine
 62
7
  6
CONTINUOUS
 10
-2.9984454037
 20
0.7417760715
 11
3.0015545963
 21
0.7417760715
  0
LINE
  5
42D
100
AcDbEntity
  8
RACCORDO
100
AcDbLine
 62
7
  6
CONTINUOUS
 10
-10.8230220289
 20
1.0205101063
 11
-9.8271794385
 21
1.0205101063
  0
LINE
  5
42E
100
AcDbEntity
  8
ASSI
100
AcDbLine
 62
7
  6
CONTINUOUS
 10
-10.8230220289
 20
1.0205101063
 11
-9.8271794385
 21
1.0205101063
  0
LINE
  5
42F
100
AcDbEntity
  8
RACCORDO
100
AcDbLine
 62
7
  6
CONTINUOUS
 10
9.8302886311
 20
1.0205101063
 11
10.8261312214
 21
1.0205101063
  0
LINE
  5
430
100
AcDbEntity
  8
ASSI
100
AcDbLine
 62
7
  6
CONTINUOUS
 10
9.8302886311
 20
1.0205101063
 11
10.8261312214
 21
1.0205101063
  0
LINE
  5
431
100
AcDbEntity
  8
RACCORDO
100
AcDbLine
 62
7
  6
CONTINUOUS
 10
-6.7433002741
 20
7.9366309418
 11
-6.7257946878
 21
7.9191253555
  0
LINE
  5
432
100
AcDbEntity
  8
ASSI
100
AcDbLine
 62
7
  6
CONTINUOUS
 10
-6.7433002741
 20
7.9366309418
 11
-6.7257946878
 21
7.9191253555
  0
LINE
  5
433
100
AcDbEntity
  8
0
100
AcDbLine
 62
7
  6
CONTINUOUS
 10
1.3419801174
 20
-4.4077231943
 11
1.305809909
 21
-4.2660566628
  0
LINE
  5
434
100
AcDbEntity
  8
ASSI
100
AcDbLine
 62
7
  6
CONTINUOUS
 10
1.3419801174
 20
-4.4077231943
 11
1.305809909
 21
-4.2660566628
  0
LINE
  5
435
100
AcDbEntity
  8
0
100
AcDbLine
 62
7
  6
CONTINUOUS
 10
1.9207035287
 20
-4.1243899285
 11
1.8845333202
 21
-3.9827231943
  0
LINE
  5
436
100
AcDbEntity
  8
ASSI
100
AcDbLine
 62
7
  6
CONTINUOUS
 10
1.9207035287
 20
-4.1243899285
 11
1.8845333202
 21
-3.9827231943
  0
LINE
  5
437
100
AcDbEntity
  8
0
100
AcDbLine
 62
7
  6
CONTINUOUS
 10
2.1015545963
 20
-5.6473065614
 11
2.0653843847
 21
-5.4702232957
  0
LINE
  5
438
100
AcDbEntity
  8
ASSI
100
AcDbLine
 62
7
  6
CONTINUOUS
 10
2.1015545963
 20
-5.6473065614
 11
2.0653843847
 21
-5.4702232957
  0
LINE
  5
439
100
AcDbEntity
  8
0
100
AcDbLine
 62
7
  6
CONTINUOUS
 10
1.1972992836
 20
-5.8598065614
 11
1.1972992836
 21
-5.6118899285
  0
LINE
  5
43A
100
AcDbEntity
  8
ASSI
100
AcDbLine
 62
7
  6
CONTINUOUS
 10
1.1972992836
 20
-5.8598065614
 11
1.1972992836
 21
-5.6118899285
  0
LINE
  5
43B
100
AcDbEntity
  8
0
100
AcDbLine
 62
7
  6
CONTINUOUS
 10
1.305809909
 20
-4.2660566628
 11
1.305809909
 21
-4.1243899285
  0
LINE
  5
43C
100
AcDbEntity
  8
ASSI
100
AcDbLine
 62
7
  6
CONTINUOUS
 10
1.305809909
 20
-4.2660566628
 11
1.305809909
 21
-4.1243899285
  0
LINE
  5
43D
100
AcDbEntity
  8
0
100
AcDbLine
 62
7
  6
CONTINUOUS
 10
1.3781503259
 20
-3.026473397
 11
1.3781503259
 21
-2.4243899285
  0
LINE
  5
43E
100
AcDbEntity
  8
ASSI
100
AcDbLine
 62
7
  6
CONTINUOUS
 10
1.3781503259
 20
-3.026473397
 11
1.3781503259
 21
-2.4243899285
  0
LINE
  5
43F
100
AcDbEntity
  8
0
100
AcDbLine
 62
7
  6
CONTINUOUS
 10
1.3781503259
 20
-2.2118899285
 11
1.3781503259
 21
-1.857723397
  0
LINE
  5
440
100
AcDbEntity
  8
ASSI
100
AcDbLine
 62
7
  6
CONTINUOUS
 10
1.3781503259
 20
-2.2118899285
 11
1.3781503259
 21
-1.857723397
  0
LINE
  5
441
100
AcDbEntity
  8
0
100
AcDbLine
 62
7
  6
CONTINUOUS
 10
1.5951716273
 20
-3.2743899285
 11
1.5951716273
 21
-2.4243899285
  0
LINE
  5
442
100
AcDbEntity
  8
ASSI
100
AcDbLine
 62
7
  6
CONTINUOUS
 10
1.5951716273
 20
-3.2743899285
 11
1.5951716273
 21
-2.4243899285
  0
LINE
  5
443
100
AcDbEntity
  8
0
100
AcDbLine
 62
7
  6
CONTINUOUS
 10
1.5951716273
 20
-2.2118899285
 11
1.5951716273
 21
-1.857723397
  0
LINE
  5
444
100
AcDbEntity
  8
ASSI
100
AcDbLine
 62
7
  6
CONTINUOUS
 10
1.5951716273
 20
-2.2118899285
 11
1.5951716273
 21
-1.857723397
  0
LINE
  5
445
100
AcDbEntity
  8
0
100
AcDbLine
 62
7
  6
CONTINUOUS
 10
1.9207035287
 20
-5.8598065614
 11
1.9207035287
 21
-5.6118899285
  0
LINE
  5
446
100
AcDbEntity
  8
ASSI
100
AcDbLine
 62
7
  6
CONTINUOUS
 10
1.9207035287
 20
-5.8598065614
 11
1.9207035287
 21
-5.6118899285
  0
LINE
  5
447
100
AcDbEntity
  8
0
100
AcDbLine
 62
7
  6
CONTINUOUS
 10
1.9207035287
 20
-4.2660566628
 11
1.9207035287
 21
-4.1243899285
  0
LINE
  5
448
100
AcDbEntity
  8
ASSI
100
AcDbLine
 62
7
  6
CONTINUOUS
 10
1.9207035287
 20
-4.2660566628
 11
1.9207035287
 21
-4.1243899285
  0
LINE
  5
449
100
AcDbEntity
  8
0
100
AcDbLine
 62
7
  6
CONTINUOUS
 10
2.1015545963
 20
-6.8868899285
 11
2.1015545963
 21
-6.6743899285
  0
LINE
  5
44A
100
AcDbEntity
  8
ASSI
100
AcDbLine
 62
7
  6
CONTINUOUS
 10
2.1015545963
 20
-6.8868899285
 11
2.1015545963
 21
-6.6743899285
  0
LINE
  5
44B
100
AcDbEntity
  8
0
100
AcDbLine
 62
7
  6
CONTINUOUS
 10
2.1015545963
 20
-5.8243899285
 11
2.1015545963
 21
-5.6473065614
  0
LINE
  5
44C
100
AcDbEntity
  8
ASSI
100
AcDbLine
 62
7
  6
CONTINUOUS
 10
2.1015545963
 20
-5.8243899285
 11
2.1015545963
 21
-5.6473065614
  0
LINE
  5
44D
100
AcDbEntity
  8
0
100
AcDbLine
 62
7
  6
CONTINUOUS
 10
2.1015545963
 20
-4.3014731943
 11
2.1015545963
 21
-4.0889731943
  0
LINE
  5
44E
100
AcDbEntity
  8
ASSI
100
AcDbLine
 62
7
  6
CONTINUOUS
 10
2.1015545963
 20
-4.3014731943
 11
2.1015545963
 21
-4.0889731943
  0
LINE
  5
44F
100
AcDbEntity
  8
0
100
AcDbLine
 62
7
  6
CONTINUOUS
 10
2.1015545963
 20
-2.4243899285
 11
2.1015545963
 21
-2.2118899285
  0
LINE
  5
450
100
AcDbEntity
  8
ASSI
100
AcDbLine
 62
7
  6
CONTINUOUS
 10
2.1015545963
 20
-2.4243899285
 11
2.1015545963
 21
-2.2118899285
  0
LINE
  5
451
100
AcDbEntity
  8
0
100
AcDbLine
 62
7
  6
CONTINUOUS
 10
2.1015545963
 20
-1.3618899285
 11
2.1015545963
 21
-1.1493899285
  0
LINE
  5
452
100
AcDbEntity
  8
ASSI
100
AcDbLine
 62
7
  6
CONTINUOUS
 10
2.1015545963
 20
-1.3618899285
 11
2.1015545963
 21
-1.1493899285
  0
LINE
  5
453
100
AcDbEntity
  8
0
100
AcDbLine
 62
7
  6
CONTINUOUS
 10
0.4015545963
 20
-4.1243899285
 11
0.4377248047
 21
-3.9473066628
  0
LINE
  5
454
100
AcDbEntity
  8
ASSI
100
AcDbLine
 62
7
  6
CONTINUOUS
 10
0.4015545963
 20
-4.1243899285
 11
0.4377248047
 21
-3.9473066628
  0
LINE
  5
455
100
AcDbEntity
  8
0
100
AcDbLine
 62
7
  6
CONTINUOUS
 10
0.4015545963
 20
-5.6827232957
 11
0.4377248047
 21
-5.5056399285
  0
LINE
  5
456
100
AcDbEntity
  8
ASSI
100
AcDbLine
 62
7
  6
CONTINUOUS
 10
0.4015545963
 20
-5.6827232957
 11
0.4377248047
 21
-5.5056399285
  0
LINE
  5
457
100
AcDbEntity
  8
0
100
AcDbLine
 62
7
  6
CONTINUOUS
 10
1.0164482413
 20
-5.6473065614
 11
1.0526184498
 21
-5.4702232957
  0
LINE
  5
458
100
AcDbEntity
  8
ASSI
100
AcDbLine
 62
7
  6
CONTINUOUS
 10
1.0164482413
 20
-5.6473065614
 11
1.0526184498
 21
-5.4702232957
  0
LINE
  5
459
100
AcDbEntity
  8
0
100
AcDbLine
 62
7
  6
CONTINUOUS
 10
0.5824056385
 20
-4.1243899285
 11
0.618575847
 21
-3.9827231943
  0
LINE
  5
45A
100
AcDbEntity
  8
ASSI
100
AcDbLine
 62
7
  6
CONTINUOUS
 10
0.5824056385
 20
-4.1243899285
 11
0.618575847
 21
-3.9827231943
  0
LINE
  5
45B
100
AcDbEntity
  8
0
100
AcDbLine
 62
7
  6
CONTINUOUS
 10
1.1249588667
 20
-4.4077231943
 11
1.1611290751
 21
-4.2660566628
  0
LINE
  5
45C
100
AcDbEntity
  8
ASSI
100
AcDbLine
 62
7
  6
CONTINUOUS
 10
1.1249588667
 20
-4.4077231943
 11
1.1611290751
 21
-4.2660566628
  0
LINE
  5
45D
100
AcDbEntity
  8
RACCORDO
100
AcDbLine
 62
7
  6
CONTINUOUS
 10
11.1247015175
 20
7.9242702135
 11
11.1945725703
 21
7.9941412662
  0
LINE
  5
45E
100
AcDbEntity
  8
ASSI
100
AcDbLine
 62
7
  6
CONTINUOUS
 10
11.1247015175
 20
7.9242702135
 11
11.1945725703
 21
7.9941412662
  0
LINE
  5
45F
100
AcDbEntity
  8
0
100
AcDbLine
 62
7
  6
CONTINUOUS
 10
-0.3661444037
 20
-1.8462119285
 11
-2.0660074037
 21
-2.3677719285
  0
LINE
  5
460
100
AcDbEntity
  8
ASSI
100
AcDbLine
 62
7
  6
CONTINUOUS
 10
-0.3661444037
 20
-1.8462119285
 11
-2.0660074037
 21
-2.3677719285
  0
LINE
  5
461
100
AcDbEntity
  8
RACCORDO
100
AcDbLine
 62
7
  6
CONTINUOUS
 10
-11.1740083128
 20
1.0766862013
 11
-10.1781647125
 21
1.0766862013
  0
LINE
  5
462
100
AcDbEntity
  8
ASSI
100
AcDbLine
 62
7
  6
CONTINUOUS
 10
-11.1740083128
 20
1.0766862013
 11
-10.1781647125
 21
1.0766862013
  0
LINE
  5
463
100
AcDbEntity
  8
RACCORDO
100
AcDbLine
 62
7
  6
CONTINUOUS
 10
11.1771175054
 20
1.0766862013
 11
10.1812739051
 21
1.0766862013
  0
LINE
  5
464
100
AcDbEntity
  8
ASSI
100
AcDbLine
 62
7
  6
CONTINUOUS
 10
11.1771175054
 20
1.0766862013
 11
10.1812739051
 21
1.0766862013
  0
LINE
  5
465
100
AcDbEntity
  8
RACCORDO
100
AcDbLine
 62
7
  6
CONTINUOUS
 10
-11.1740083128
 20
1.7068659416
 11
-10.1781647125
 21
1.7068659416
  0
LINE
  5
466
100
AcDbEntity
  8
ASSI
100
AcDbLine
 62
7
  6
CONTINUOUS
 10
-11.1740083128
 20
1.7068659416
 11
-10.1781647125
 21
1.7068659416
  0
LINE
  5
467
100
AcDbEntity
  8
RACCORDO
100
AcDbLine
 62
7
  6
CONTINUOUS
 10
11.1771175054
 20
1.7068659416
 11
10.1812739051
 21
1.7068659416
  0
LINE
  5
468
100
AcDbEntity
  8
ASSI
100
AcDbLine
 62
7
  6
CONTINUOUS
 10
11.1771175054
 20
1.7068659416
 11
10.1812739051
 21
1.7068659416
  0
LINE
  5
469
100
AcDbEntity
  8
RACCORDO
100
AcDbLine
 62
7
  6
CONTINUOUS
 10
-10.8227788925
 20
1.7632853453
 11
-9.8269361299
 21
1.7632853453
  0
LINE
  5
46A
100
AcDbEntity
  8
ASSI
100
AcDbLine
 62
7
  6
CONTINUOUS
 10
-10.8227788925
 20
1.7632853453
 11
-9.8269361299
 21
1.7632853453
  0
LINE
  5
46B
100
AcDbEntity
  8
RACCORDO
100
AcDbLine
 62
7
  6
CONTINUOUS
 10
9.8300453224
 20
1.7632853453
 11
10.825888085
 21
1.7632853453
  0
LINE
  5
46C
100
AcDbEntity
  8
ASSI
100
AcDbLine
 62
7
  6
CONTINUOUS
 10
9.8300453224
 20
1.7632853453
 11
10.825888085
 21
1.7632853453
  0
LINE
  5
46D
100
AcDbEntity
  8
0
100
AcDbLine
 62
7
  6
CONTINUOUS
 10
2.1015545963
 20
-4.0889731943
 11
2.0653843847
 21
-3.9118899285
  0
LINE
  5
46E
100
AcDbEntity
  8
ASSI
100
AcDbLine
 62
7
  6
CONTINUOUS
 10
2.1015545963
 20
-4.0889731943
 11
2.0653843847
 21
-3.9118899285
  0
LINE
  5
46F
100
AcDbEntity
  8
DRAFT
100
AcDbLine
 62
7
  6
CONTINUOUS
 10
2.4980635833
 20
7.1627221494
 11
2.4980635833
 21
2.3208299935
  0
LINE
  5
470
100
AcDbEntity
  8
DRAFT
100
AcDbLine
 62
7
  6
CONTINUOUS
 10
2.9015545963
 20
5.5460048223
 11
2.9015545963
 21
3.9375473206
  0
LINE
  5
471
100
AcDbEntity
  8
ASSI
100
AcDbLine
 62
7
  6
CONTINUOUS
 10
2.9015545963
 20
5.5460048223
 11
2.9015545963
 21
3.9375473206
  0
LINE
  5
472
100
AcDbEntity
  8
DRAFT
100
AcDbLine
 62
7
  6
CONTINUOUS
 10
2.9690096612
 20
7.1592311364
 11
2.9690096612
 21
5.5505036039
  0
LINE
  5
473
100
AcDbEntity
  8
DRAFT
100
AcDbLine
 62
7
  6
CONTINUOUS
 10
2.9690096612
 20
3.933048539
 11
2.9690096612
 21
2.3243210065
  0
LINE
  5
474
100
AcDbEntity
  8
DRAFT
100
AcDbLine
 62
7
  6
CONTINUOUS
 10
3.0015545963
 20
0.7417760715
 11
3.0015545963
 21
3.933048539
  0
LINE
  5
475
100
AcDbEntity
  8
ASSI
100
AcDbLine
 62
7
  6
CONTINUOUS
 10
3.0015545963
 20
0.7417760715
 11
3.0015545963
 21
3.933048539
  0
LINE
  5
476
100
AcDbEntity
  8
DRAFT
100
AcDbLine
 62
7
  6
CONTINUOUS
 10
3.0015545963
 20
5.5505036039
 11
3.0015545963
 21
7.2417760715
  0
LINE
  5
477
100
AcDbEntity
  8
ASSI
100
AcDbLine
 62
7
  6
CONTINUOUS
 10
3.0015545963
 20
5.5505036039
 11
3.0015545963
 21
7.2417760715
  0
LINE
  5
478
100
AcDbEntity
  8
DRAFT
100
AcDbLine
 62
7
  6
CONTINUOUS
 10
3.0711903567
 20
5.5417760715
 11
3.0711903567
 21
3.9417760715
  0
LINE
  5
479
100
AcDbEntity
  8
ASSI
100
AcDbLine
 62
7
  6
CONTINUOUS
 10
3.0711903567
 20
5.5417760715
 11
3.0711903567
 21
3.9417760715
  0
LINE
  5
47A
100
AcDbEntity
  8
0
100
AcDbLine
 62
7
  6
CONTINUOUS
 10
2.0653843847
 20
-4.4785566628
 11
2.1015545963
 21
-4.3014731943
  0
LINE
  5
47B
100
AcDbEntity
  8
ASSI
100
AcDbLine
 62
7
  6
CONTINUOUS
 10
2.0653843847
 20
-4.4785566628
 11
2.1015545963
 21
-4.3014731943
  0
LINE
  5
47C
100
AcDbEntity
  8
0
100
AcDbLine
 62
7
  6
CONTINUOUS
 10
2.0653843847
 20
-6.0014732957
 11
2.1015545963
 21
-5.8243899285
  0
LINE
  5
47D
100
AcDbEntity
  8
ASSI
100
AcDbLine
 62
7
  6
CONTINUOUS
 10
2.0653843847
 20
-6.0014732957
 11
2.1015545963
 21
-5.8243899285
  0
LINE
  5
47E
100
AcDbEntity
  8
0
100
AcDbLine
 62
7
  6
CONTINUOUS
 10
1.305809909
 20
-4.1243899285
 11
1.3419801174
 21
-3.9827231943
  0
LINE
  5
47F
100
AcDbEntity
  8
ASSI
100
AcDbLine
 62
7
  6
CONTINUOUS
 10
1.305809909
 20
-4.1243899285
 11
1.3419801174
 21
-3.9827231943
  0
LINE
  5
480
100
AcDbEntity
  8
0
100
AcDbLine
 62
7
  6
CONTINUOUS
 10
1.8845333202
 20
-4.4077231943
 11
1.9207035287
 21
-4.2660566628
  0
LINE
  5
481
100
AcDbEntity
  8
ASSI
100
AcDbLine
 62
7
  6
CONTINUOUS
 10
1.8845333202
 20
-4.4077231943
 11
1.9207035287
 21
-4.2660566628
  0
LINE
  5
482
100
AcDbEntity
  8
0
100
AcDbLine
 62
7
  6
CONTINUOUS
 10
0.5824056385
 20
-5.6473065614
 11
0.618575847
 21
-5.5410565614
  0
LINE
  5
483
100
AcDbEntity
  8
ASSI
100
AcDbLine
 62
7
  6
CONTINUOUS
 10
0.5824056385
 20
-5.6473065614
 11
0.618575847
 21
-5.5410565614
  0
LINE
  5
484
100
AcDbEntity
  8
0
100
AcDbLine
 62
7
  6
CONTINUOUS
 10
1.1972992836
 20
-5.6118899285
 11
1.233469492
 21
-5.5056399285
  0
LINE
  5
485
100
AcDbEntity
  8
ASSI
100
AcDbLine
 62
7
  6
CONTINUOUS
 10
1.1972992836
 20
-5.6118899285
 11
1.233469492
 21
-5.5056399285
  0
LINE
  5
486
100
AcDbEntity
  8
0
100
AcDbLine
 62
7
  6
CONTINUOUS
 10
1.233469492
 20
-3.8410566628
 11
1.2696397005
 21
-3.7702231943
  0
LINE
  5
487
100
AcDbEntity
  8
ASSI
100
AcDbLine
 62
7
  6
CONTINUOUS
 10
1.233469492
 20
-3.8410566628
 11
1.2696397005
 21
-3.7702231943
  0
LINE
  5
488
100
AcDbEntity
  8
0
100
AcDbLine
 62
7
  6
CONTINUOUS
 10
1.3419801174
 20
-3.9827231943
 11
1.4143205343
 21
-3.8410566628
  0
LINE
  5
489
100
AcDbEntity
  8
ASSI
100
AcDbLine
 62
7
  6
CONTINUOUS
 10
1.3419801174
 20
-3.9827231943
 11
1.4143205343
 21
-3.8410566628
  0
LINE
  5
48A
100
AcDbEntity
  8
0
100
AcDbLine
 62
7
  6
CONTINUOUS
 10
1.1972992836
 20
-4.6202231943
 11
1.233469492
 21
-4.5493899285
  0
LINE
  5
48B
100
AcDbEntity
  8
ASSI
100
AcDbLine
 62
7
  6
CONTINUOUS
 10
1.1972992836
 20
-4.6202231943
 11
1.233469492
 21
-4.5493899285
  0
LINE
  5
48C
100
AcDbEntity
  8
0
100
AcDbLine
 62
7
  6
CONTINUOUS
 10
0.4377248047
 20
-3.9473066628
 11
0.5462354301
 21
-3.7702231943
  0
LINE
  5
48D
100
AcDbEntity
  8
ASSI
100
AcDbLine
 62
7
  6
CONTINUOUS
 10
0.4377248047
 20
-3.9473066628
 11
0.5462354301
 21
-3.7702231943
  0
LINE
  5
48E
100
AcDbEntity
  8
0
100
AcDbLine
 62
7
  6
CONTINUOUS
 10
0.4377248047
 20
-5.5056399285
 11
0.5462354301
 21
-5.3285566628
  0
LINE
  5
48F
100
AcDbEntity
  8
ASSI
100
AcDbLine
 62
7
  6
CONTINUOUS
 10
0.4377248047
 20
-5.5056399285
 11
0.5462354301
 21
-5.3285566628
  0
LINE
  5
490
100
AcDbEntity
  8
0
100
AcDbLine
 62
7
  6
CONTINUOUS
 10
0.618575847
 20
-3.9827231943
 11
0.7270864724
 21
-3.8410566628
  0
LINE
  5
491
100
AcDbEntity
  8
ASSI
100
AcDbLine
 62
7
  6
CONTINUOUS
 10
0.618575847
 20
-3.9827231943
 11
0.7270864724
 21
-3.8410566628
  0
LINE
  5
492
100
AcDbEntity
  8
RACCORDO
100
AcDbLine
 62
253
  6
CONTINUOUS
 10
6.7296092155
 20
3.3197849992
 11
6.7604344452
 21
3.3506102289
  0
LINE
  5
493
100
AcDbEntity
  8
ASSI
100
AcDbLine
 62
253
  6
CONTINUOUS
 10
6.7296092155
 20
3.3197849992
 11
6.7604344452
 21
3.3506102289
  0
LINE
  5
494
100
AcDbEntity
  8
RACCORDO
100
AcDbLine
 62
253
  6
CONTINUOUS
 10
7.0296397802
 20
3.0199069468
 11
7.0603887537
 21
3.0506559204
  0
LINE
  5
495
100
AcDbEntity
  8
ASSI
100
AcDbLine
 62
253
  6
CONTINUOUS
 10
7.0296397802
 20
3.0199069468
 11
7.0603887537
 21
3.0506559204
  0
LINE
  5
496
100
AcDbEntity
  8
0
100
AcDbLine
 62
7
  6
CONTINUOUS
 10
0.5462354301
 20
-3.7702231943
 11
0.6547460555
 21
-3.663973397
  0
LINE
  5
497
100
AcDbEntity
  8
ASSI
100
AcDbLine
 62
7
  6
CONTINUOUS
 10
0.5462354301
 20
-3.7702231943
 11
0.6547460555
 21
-3.663973397
  0
LINE
  5
498
100
AcDbEntity
  8
DRAFT
100
AcDbLine
 62
7
  6
CONTINUOUS
 10
2.4980635833
 20
2.3208299935
 11
-2.4949543907
 21
2.3208299935
  0
LINE
  5
499
100
AcDbEntity
  8
DRAFT
100
AcDbLine
 62
7
  6
CONTINUOUS
 10
-2.9659004687
 20
2.3243210065
 11
-2.4984454037
 21
2.3243210065
  0
LINE
  5
49A
100
AcDbEntity
  8
DRAFT
100
AcDbLine
 62
7
  6
CONTINUOUS
 10
2.9690096612
 20
2.3243210065
 11
2.5015545963
 21
2.3243210065
  0
LINE
  5
49B
100
AcDbEntity
  8
RACCORDO
100
AcDbLine
 62
7
  6
CONTINUOUS
 10
-7.2703602198
 20
3.0199069468
 11
-7.0265305876
 21
3.0199069468
  0
LINE
  5
49C
100
AcDbEntity
  8
ASSI
100
AcDbLine
 62
7
  6
CONTINUOUS
 10
-7.2703602198
 20
3.0199069468
 11
-7.0265305876
 21
3.0199069468
  0
LINE
  5
49D
100
AcDbEntity
  8
RACCORDO
100
AcDbLine
 62
7
  6
CONTINUOUS
 10
7.0296397802
 20
3.0199069468
 11
7.2734694124
 21
3.0199069468
  0
LINE
  5
49E
100
AcDbEntity
  8
ASSI
100
AcDbLine
 62
7
  6
CONTINUOUS
 10
7.0296397802
 20
3.0199069468
 11
7.2734694124
 21
3.0199069468
  0
LINE
  5
49F
100
AcDbEntity
  8
RACCORDO
100
AcDbLine
 62
253
  6
CONTINUOUS
 10
-7.2396112463
 20
3.0506559204
 11
-7.0572795612
 21
3.0506559204
  0
LINE
  5
4A0
100
AcDbEntity
  8
ASSI
100
AcDbLine
 62
253
  6
CONTINUOUS
 10
-7.2396112463
 20
3.0506559204
 11
-7.0572795612
 21
3.0506559204
  0
LINE
  5
4A1
100
AcDbEntity
  8
RACCORDO
100
AcDbLine
 62
253
  6
CONTINUOUS
 10
7.0603887537
 20
3.0506559204
 11
7.2427204388
 21
3.0506559204
  0
LINE
  5
4A2
100
AcDbEntity
  8
ASSI
100
AcDbLine
 62
253
  6
CONTINUOUS
 10
7.0603887537
 20
3.0506559204
 11
7.2427204388
 21
3.0506559204
  0
LINE
  5
4A3
100
AcDbEntity
  8
RACCORDO
100
AcDbLine
 62
7
  6
CONTINUOUS
 10
9.8338012699
 20
-6.1404706022
 11
9.8813195965
 21
-6.1879889288
  0
LINE
  5
4A4
100
AcDbEntity
  8
ASSI
100
AcDbLine
 62
7
  6
CONTINUOUS
 10
9.8338012699
 20
-6.1404706022
 11
9.8813195965
 21
-6.1879889288
  0
LINE
  5
4A5
100
AcDbEntity
  8
RACCORDO
100
AcDbLine
 62
253
  6
CONTINUOUS
 10
3.5414923348
 20
3.9417760715
 11
3.5414923348
 21
5.5417760715
  0
LINE
  5
4A6
100
AcDbEntity
  8
ASSI
100
AcDbLine
 62
253
  6
CONTINUOUS
 10
3.5414923348
 20
3.9417760715
 11
3.5414923348
 21
5.5417760715
  0
LINE
  5
4A7
100
AcDbEntity
  8
RACCORDO
100
AcDbLine
 62
253
  6
CONTINUOUS
 10
3.823400121
 20
3.9383305471
 11
3.823400121
 21
5.5452215958
  0
LINE
  5
4A8
100
AcDbEntity
  8
ASSI
100
AcDbLine
 62
253
  6
CONTINUOUS
 10
3.823400121
 20
3.9383305471
 11
3.823400121
 21
5.5452215958
  0
LINE
  5
4A9
100
AcDbEntity
  8
0
100
AcDbLine
 62
7
  6
CONTINUOUS
 10
1.8845333202
 20
-5.9660565614
 11
1.9207035287
 21
-5.8598065614
  0
LINE
  5
4AA
100
AcDbEntity
  8
ASSI
100
AcDbLine
 62
7
  6
CONTINUOUS
 10
1.8845333202
 20
-5.9660565614
 11
1.9207035287
 21
-5.8598065614
  0
LINE
  5
4AB
100
AcDbEntity
  8
0
100
AcDbLine
 62
7
  6
CONTINUOUS
 10
1.8121929033
 20
-4.5493899285
 11
1.8845333202
 21
-4.4077231943
  0
LINE
  5
4AC
100
AcDbEntity
  8
ASSI
100
AcDbLine
 62
7
  6
CONTINUOUS
 10
1.8121929033
 20
-4.5493899285
 11
1.8845333202
 21
-4.4077231943
  0
LINE
  5
4AD
100
AcDbEntity
  8
0
100
AcDbLine
 62
7
  6
CONTINUOUS
 10
1.0526184498
 20
-5.4702232957
 11
1.1611290751
 21
-5.2931399285
  0
LINE
  5
4AE
100
AcDbEntity
  8
ASSI
100
AcDbLine
 62
7
  6
CONTINUOUS
 10
1.0526184498
 20
-5.4702232957
 11
1.1611290751
 21
-5.2931399285
  0
LINE
  5
4AF
100
AcDbEntity
  8
0
100
AcDbLine
 62
7
  6
CONTINUOUS
 10
1.9568737498
 20
-4.6556399285
 11
2.0653843847
 21
-4.4785566628
  0
LINE
  5
4B0
100
AcDbEntity
  8
ASSI
100
AcDbLine
 62
7
  6
CONTINUOUS
 10
1.9568737498
 20
-4.6556399285
 11
2.0653843847
 21
-4.4785566628
  0
LINE
  5
4B1
100
AcDbEntity
  8
0
100
AcDbLine
 62
7
  6
CONTINUOUS
 10
0.618575847
 20
-5.5410565614
 11
0.6909162639
 21
-5.4348065614
  0
LINE
  5
4B2
100
AcDbEntity
  8
ASSI
100
AcDbLine
 62
7
  6
CONTINUOUS
 10
0.618575847
 20
-5.5410565614
 11
0.6909162639
 21
-5.4348065614
  0
LINE
  5
4B3
100
AcDbEntity
  8
0
100
AcDbLine
 62
7
  6
CONTINUOUS
 10
1.233469492
 20
-5.5056399285
 11
1.305809909
 21
-5.3993899285
  0
LINE
  5
4B4
100
AcDbEntity
  8
ASSI
100
AcDbLine
 62
7
  6
CONTINUOUS
 10
1.233469492
 20
-5.5056399285
 11
1.305809909
 21
-5.3993899285
  0
LINE
  5
4B5
100
AcDbEntity
  8
0
100
AcDbLine
 62
7
  6
CONTINUOUS
 10
1.2696397005
 20
-3.7702231943
 11
1.3781503259
 21
-3.6285564601
  0
LINE
  5
4B6
100
AcDbEntity
  8
ASSI
100
AcDbLine
 62
7
  6
CONTINUOUS
 10
1.2696397005
 20
-3.7702231943
 11
1.3781503259
 21
-3.6285564601
  0
LINE
  5
4B7
100
AcDbEntity
  8
0
100
AcDbLine
 62
7
  6
CONTINUOUS
 10
1.0164482413
 20
-4.5493899285
 11
1.1249588667
 21
-4.4077231943
  0
LINE
  5
4B8
100
AcDbEntity
  8
ASSI
100
AcDbLine
 62
7
  6
CONTINUOUS
 10
1.0164482413
 20
-4.5493899285
 11
1.1249588667
 21
-4.4077231943
  0
LINE
  5
4B9
100
AcDbEntity
  8
0
100
AcDbLine
 62
7
  6
CONTINUOUS
 10
1.0887886582
 20
-4.7264731943
 11
1.1972992836
 21
-4.6202231943
  0
LINE
  5
4BA
100
AcDbEntity
  8
ASSI
100
AcDbLine
 62
7
  6
CONTINUOUS
 10
1.0887886582
 20
-4.7264731943
 11
1.1972992836
 21
-4.6202231943
  0
LINE
  5
4BB
100
AcDbEntity
  8
0
100
AcDbLine
 62
7
  6
CONTINUOUS
 10
1.4143205343
 20
-3.8410566628
 11
1.5590014188
 21
-3.7348066628
  0
LINE
  5
4BC
100
AcDbEntity
  8
ASSI
100
AcDbLine
 62
7
  6
CONTINUOUS
 10
1.4143205343
 20
-3.8410566628
 11
1.5590014188
 21
-3.7348066628
  0
LINE
  5
4BD
100
AcDbEntity
  8
0
100
AcDbLine
 62
7
  6
CONTINUOUS
 10
0.7270864724
 20
-3.8410566628
 11
0.8355971991
 21
-3.7702231943
  0
LINE
  5
4BE
100
AcDbEntity
  8
ASSI
100
AcDbLine
 62
7
  6
CONTINUOUS
 10
0.7270864724
 20
-3.8410566628
 11
0.8355971991
 21
-3.7702231943
  0
LINE
  5
4BF
100
AcDbEntity
  8
0
100
AcDbLine
 62
7
  6
CONTINUOUS
 10
0.6547460555
 20
-3.663973397
 11
0.8355971991
 21
-3.5931399285
  0
LINE
  5
4C0
100
AcDbEntity
  8
ASSI
100
AcDbLine
 62
7
  6
CONTINUOUS
 10
0.6547460555
 20
-3.663973397
 11
0.8355971991
 21
-3.5931399285
  0
LINE
  5
4C1
100
AcDbEntity
  8
0
100
AcDbLine
 62
7
  6
CONTINUOUS
 10
1.3781503259
 20
-3.6285564601
 11
1.5590014188
 21
-3.557723397
  0
LINE
  5
4C2
100
AcDbEntity
  8
ASSI
100
AcDbLine
 62
7
  6
CONTINUOUS
 10
1.3781503259
 20
-3.6285564601
 11
1.5590014188
 21
-3.557723397
  0
LINE
  5
4C3
100
AcDbEntity
  8
0
100
AcDbLine
 62
7
  6
CONTINUOUS
 10
-0.3661444037
 20
-4.1915999285
 11
-1.4761234037
 21
-4.6078559285
  0
LINE
  5
4C4
100
AcDbEntity
  8
ASSI
100
AcDbLine
 62
7
  6
CONTINUOUS
 10
-0.3661444037
 20
-4.1915999285
 11
-1.4761234037
 21
-4.6078559285
  0
LINE
  5
4C5
100
AcDbEntity
  8
0
100
AcDbLine
 62
7
  6
CONTINUOUS
 10
-1.1222384037
 20
-4.1647799285
 11
-2.0660074037
 21
-4.5158609285
  0
LINE
  5
4C6
100
AcDbEntity
  8
ASSI
100
AcDbLine
 62
7
  6
CONTINUOUS
 10
-1.1222384037
 20
-4.1647799285
 11
-2.0660074037
 21
-4.5158609285
  0
LINE
  5
4C7
100
AcDbEntity
  8
RACCORDO
100
AcDbLine
 62
7
  6
CONTINUOUS
 10
-3.8202909285
 20
3.9383305471
 11
-4.2338815277
 21
3.9184958187
  0
LINE
  5
4C8
100
AcDbEntity
  8
ASSI
100
AcDbLine
 62
7
  6
CONTINUOUS
 10
-3.8202909285
 20
3.9383305471
 11
-4.2338815277
 21
3.9184958187
  0
LINE
  5
4C9
100
AcDbEntity
  8
DRAFT
100
AcDbLine
 62
7
  6
CONTINUOUS
 10
3.0711903567
 20
3.9417760715
 11
2.9015545963
 21
3.9375473206
  0
LINE
  5
4CA
100
AcDbEntity
  8
ASSI
100
AcDbLine
 62
7
  6
CONTINUOUS
 10
3.0711903567
 20
3.9417760715
 11
2.9015545963
 21
3.9375473206
  0
LINE
  5
4CB
100
AcDbEntity
  8
DRAFT
100
AcDbLine
 62
7
  6
CONTINUOUS
 10
-2.9984454037
 20
3.933048539
 11
-2.8984454037
 21
3.9340563076
  0
LINE
  5
4CC
100
AcDbEntity
  8
ASSI
100
AcDbLine
 62
7
  6
CONTINUOUS
 10
-2.9984454037
 20
3.933048539
 11
-2.8984454037
 21
3.9340563076
  0
LINE
  5
4CD
100
AcDbEntity
  8
RACCORDO
100
AcDbLine
 62
253
  6
CONTINUOUS
 10
-7.5361354684
 20
3.5505797679
 11
-6.760755339
 21
3.5505797679
  0
LINE
  5
4CE
100
AcDbEntity
  8
ASSI
100
AcDbLine
 62
253
  6
CONTINUOUS
 10
-7.5361354684
 20
3.5505797679
 11
-6.760755339
 21
3.5505797679
  0
LINE
  5
4CF
100
AcDbEntity
  8
RACCORDO
100
AcDbLine
 62
253
  6
CONTINUOUS
 10
6.7638645316
 20
3.5505797679
 11
7.539244661
 21
3.5505797679
  0
LINE
  5
4D0
100
AcDbEntity
  8
ASSI
100
AcDbLine
 62
253
  6
CONTINUOUS
 10
6.7638645316
 20
3.5505797679
 11
7.539244661
 21
3.5505797679
  0
LINE
  5
4D1
100
AcDbEntity
  8
RACCORDO
100
AcDbLine
 62
7
  6
CONTINUOUS
 10
4.4249304585
 20
3.9161990296
 11
3.0015545963
 21
3.9161990296
  0
LINE
  5
4D2
100
AcDbEntity
  8
ASSI
100
AcDbLine
 62
7
  6
CONTINUOUS
 10
4.4249304585
 20
3.9161990296
 11
3.0015545963
 21
3.9161990296
  0
LINE
  5
4D3
100
AcDbEntity
  8
RACCORDO
100
AcDbLine
 62
7
  6
CONTINUOUS
 10
-2.9984454037
 20
3.9161990296
 11
-4.4218212659
 21
3.9161990296
  0
LINE
  5
4D4
100
AcDbEntity
  8
ASSI
100
AcDbLine
 62
7
  6
CONTINUOUS
 10
-2.9984454037
 20
3.9161990296
 11
-4.4218212659
 21
3.9161990296
  0
LINE
  5
4D5
100
AcDbEntity
  8
RACCORDO
100
AcDbLine
 62
7
  6
CONTINUOUS
 10
3.5414923348
 20
3.9417760715
 11
3.0711903567
 21
3.9417760715
  0
LINE
  5
4D6
100
AcDbEntity
  8
ASSI
100
AcDbLine
 62
7
  6
CONTINUOUS
 10
3.5414923348
 20
3.9417760715
 11
3.0711903567
 21
3.9417760715
  0
LINE
  5
4D7
100
AcDbEntity
  8
RACCORDO
100
AcDbLine
 62
7
  6
CONTINUOUS
 10
-3.0680811641
 20
3.9417760715
 11
-3.5383831423
 21
3.9417760715
  0
LINE
  5
4D8
100
AcDbEntity
  8
ASSI
100
AcDbLine
 62
7
  6
CONTINUOUS
 10
-3.0680811641
 20
3.9417760715
 11
-3.5383831423
 21
3.9417760715
  0
LINE
  5
4D9
100
AcDbEntity
  8
DRAFT
100
AcDbLine
 62
7
  6
CONTINUOUS
 10
2.9015545963
 20
3.9340563076
 11
3.0015545963
 21
3.933048539
  0
LINE
  5
4DA
100
AcDbEntity
  8
ASSI
100
AcDbLine
 62
7
  6
CONTINUOUS
 10
2.9015545963
 20
3.9340563076
 11
3.0015545963
 21
3.933048539
  0
LINE
  5
4DB
100
AcDbEntity
  8
DRAFT
100
AcDbLine
 62
7
  6
CONTINUOUS
 10
-2.8984454037
 20
3.9375473206
 11
-3.0680811641
 21
3.9417760715
  0
LINE
  5
4DC
100
AcDbEntity
  8
ASSI
100
AcDbLine
 62
7
  6
CONTINUOUS
 10
-2.8984454037
 20
3.9375473206
 11
-3.0680811641
 21
3.9417760715
  0
LINE
  5
4DD
100
AcDbEntity
  8
RACCORDO
100
AcDbLine
 62
7
  6
CONTINUOUS
 10
4.2369907203
 20
3.9184958187
 11
3.823400121
 21
3.9383305471
  0
LINE
  5
4DE
100
AcDbEntity
  8
ASSI
100
AcDbLine
 62
7
  6
CONTINUOUS
 10
4.2369907203
 20
3.9184958187
 11
3.823400121
 21
3.9383305471
  0
LINE
  5
4DF
100
AcDbEntity
  8
RACCORDO
100
AcDbLine
 62
7
  6
CONTINUOUS
 10
11.1771175054
 20
-6.1931340584
 11
11.1296059718
 21
-6.1456225248
  0
LINE
  5
4E0
100
AcDbEntity
  8
ASSI
100
AcDbLine
 62
7
  6
CONTINUOUS
 10
11.1771175054
 20
-6.1931340584
 11
11.1296059718
 21
-6.1456225248
  0
LINE
  5
4E1
100
AcDbEntity
  8
RACCORDO
100
AcDbLine
 62
7
  6
CONTINUOUS
 10
5.1715045024
 20
-7.6814801595
 11
5.1964094667
 21
-7.9330642797
  0
LINE
  5
4E2
100
AcDbEntity
  8
ASSI
100
AcDbLine
 62
7
  6
CONTINUOUS
 10
5.1715045024
 20
-7.6814801595
 11
5.1964094667
 21
-7.9330642797
  0
LINE
  5
4E3
100
AcDbEntity
  8
RACCORDO
100
AcDbLine
 62
253
  6
CONTINUOUS
 10
5.1964094667
 20
-6.6530331075
 11
5.1964094667
 21
-7.9330642797
  0
LINE
  5
4E4
100
AcDbEntity
  8
ASSI
100
AcDbLine
 62
253
  6
CONTINUOUS
 10
5.1964094667
 20
-6.6530331075
 11
5.1964094667
 21
-7.9330642797
  0
LINE
  5
4E5
100
AcDbEntity
  8
ASSI
100
AcDbLine
 62
253
  6
CONTINUOUS
 10
4.4249304585
 20
3.9161990296
 11
4.4314533637
 21
5.5676660831
  0
LINE
  5
4E6
100
AcDbEntity
  8
0
100
AcDbLine
 62
7
  6
CONTINUOUS
 10
1.9568737498
 20
-6.1785565614
 11
2.0653843847
 21
-6.0014732957
  0
LINE
  5
4E7
100
AcDbEntity
  8
ASSI
100
AcDbLine
 62
7
  6
CONTINUOUS
 10
1.9568737498
 20
-6.1785565614
 11
2.0653843847
 21
-6.0014732957
  0
LINE
  5
4E8
100
AcDbEntity
  8
0
100
AcDbLine
 62
7
  6
CONTINUOUS
 10
1.8121929033
 20
-6.0723065614
 11
1.8845333202
 21
-5.9660565614
  0
LINE
  5
4E9
100
AcDbEntity
  8
ASSI
100
AcDbLine
 62
7
  6
CONTINUOUS
 10
1.8121929033
 20
-6.0723065614
 11
1.8845333202
 21
-5.9660565614
  0
LINE
  5
4EA
100
AcDbEntity
  8
0
100
AcDbLine
 62
7
  6
CONTINUOUS
 10
1.1611290751
 20
-5.2931399285
 11
1.2696397005
 21
-5.1868899285
  0
LINE
  5
4EB
100
AcDbEntity
  8
ASSI
100
AcDbLine
 62
7
  6
CONTINUOUS
 10
1.1611290751
 20
-5.2931399285
 11
1.2696397005
 21
-5.1868899285
  0
LINE
  5
4EC
100
AcDbEntity
  8
0
100
AcDbLine
 62
7
  6
CONTINUOUS
 10
1.8483631118
 20
-4.7618899285
 11
1.9568737498
 21
-4.6556399285
  0
LINE
  5
4ED
100
AcDbEntity
  8
ASSI
100
AcDbLine
 62
7
  6
CONTINUOUS
 10
1.8483631118
 20
-4.7618899285
 11
1.9568737498
 21
-4.6556399285
  0
LINE
  5
4EE
100
AcDbEntity
  8
0
100
AcDbLine
 62
7
  6
CONTINUOUS
 10
1.305809909
 20
-5.3993899285
 11
1.3781503259
 21
-5.3285566628
  0
LINE
  5
4EF
100
AcDbEntity
  8
ASSI
100
AcDbLine
 62
7
  6
CONTINUOUS
 10
1.305809909
 20
-5.3993899285
 11
1.3781503259
 21
-5.3285566628
  0
LINE
  5
4F0
100
AcDbEntity
  8
0
100
AcDbLine
 62
7
  6
CONTINUOUS
 10
0.5462354301
 20
-5.3285566628
 11
0.6909162639
 21
-5.2223066628
  0
LINE
  5
4F1
100
AcDbEntity
  8
ASSI
100
AcDbLine
 62
7
  6
CONTINUOUS
 10
0.5462354301
 20
-5.3285566628
 11
0.6909162639
 21
-5.2223066628
  0
LINE
  5
4F2
100
AcDbEntity
  8
0
100
AcDbLine
 62
7
  6
CONTINUOUS
 10
1.6675120442
 20
-4.6556399285
 11
1.8121929033
 21
-4.5493899285
  0
LINE
  5
4F3
100
AcDbEntity
  8
ASSI
100
AcDbLine
 62
7
  6
CONTINUOUS
 10
1.6675120442
 20
-4.6556399285
 11
1.8121929033
 21
-4.5493899285
  0
LINE
  5
4F4
100
AcDbEntity
  8
0
100
AcDbLine
 62
7
  6
CONTINUOUS
 10
0.907937616
 20
-4.6202231943
 11
1.0164482413
 21
-4.5493899285
  0
LINE
  5
4F5
100
AcDbEntity
  8
ASSI
100
AcDbLine
 62
7
  6
CONTINUOUS
 10
0.907937616
 20
-4.6202231943
 11
1.0164482413
 21
-4.5493899285
  0
LINE
  5
4F6
100
AcDbEntity
  8
0
100
AcDbLine
 62
7
  6
CONTINUOUS
 10
0.6909162639
 20
-5.4348065614
 11
0.7994268893
 21
-5.3639731943
  0
LINE
  5
4F7
100
AcDbEntity
  8
ASSI
100
AcDbLine
 62
7
  6
CONTINUOUS
 10
0.6909162639
 20
-5.4348065614
 11
0.7994268893
 21
-5.3639731943
  0
LINE
  5
4F8
100
AcDbEntity
  8
0
100
AcDbLine
 62
7
  6
CONTINUOUS
 10
0.9441078244
 20
-4.7973066628
 11
1.0887886582
 21
-4.7264731943
  0
LINE
  5
4F9
100
AcDbEntity
  8
ASSI
100
AcDbLine
 62
7
  6
CONTINUOUS
 10
0.9441078244
 20
-4.7973066628
 11
1.0887886582
 21
-4.7264731943
  0
LINE
  5
4FA
100
AcDbEntity
  8
0
100
AcDbLine
 62
7
  6
CONTINUOUS
 10
1.6675120442
 20
-4.8327231943
 11
1.8483631118
 21
-4.7618899285
  0
LINE
  5
4FB
100
AcDbEntity
  8
ASSI
100
AcDbLine
 62
7
  6
CONTINUOUS
 10
1.6675120442
 20
-4.8327231943
 11
1.8483631118
 21
-4.7618899285
  0
LINE
  5
4FC
100
AcDbEntity
  8
0
100
AcDbLine
 62
7
  6
CONTINUOUS
 10
1.2696397005
 20
-5.1868899285
 11
1.4504907428
 21
-5.1160566628
  0
LINE
  5
4FD
100
AcDbEntity
  8
ASSI
100
AcDbLine
 62
7
  6
CONTINUOUS
 10
1.2696397005
 20
-5.1868899285
 11
1.4504907428
 21
-5.1160566628
  0
LINE
  5
4FE
100
AcDbEntity
  8
0
100
AcDbLine
 62
7
  6
CONTINUOUS
 10
0.6909162639
 20
-5.2223066628
 11
0.7994268893
 21
-5.1868899285
  0
LINE
  5
4FF
100
AcDbEntity
  8
ASSI
100
AcDbLine
 62
7
  6
CONTINUOUS
 10
0.6909162639
 20
-5.2223066628
 11
0.7994268893
 21
-5.1868899285
  0
LINE
  5
500
100
AcDbEntity
  8
RACCORDO
100
AcDbLine
 62
253
  6
CONTINUOUS
 10
6.7638645316
 20
4.9346692903
 11
7.539244661
 21
4.9346692903
  0
LINE
  5
501
100
AcDbEntity
  8
ASSI
100
AcDbLine
 62
253
  6
CONTINUOUS
 10
6.7638645316
 20
4.9346692903
 11
7.539244661
 21
4.9346692903
  0
LINE
  5
502
100
AcDbEntity
  8
RACCORDO
100
AcDbLine
 62
253
  6
CONTINUOUS
 10
-6.760755339
 20
4.9346692903
 11
-7.5361354684
 21
4.9346692903
  0
LINE
  5
503
100
AcDbEntity
  8
ASSI
100
AcDbLine
 62
253
  6
CONTINUOUS
 10
-6.760755339
 20
4.9346692903
 11
-7.5361354684
 21
4.9346692903
  0
LINE
  5
504
100
AcDbEntity
  8
DRAFT
100
AcDbLine
 62
7
  6
CONTINUOUS
 10
11.1970470104
 20
-4.2037163427
 11
11.1840995313
 21
-4.1907688636
  0
LINE
  5
505
100
AcDbEntity
  8
ASSI
100
AcDbLine
 62
7
  6
CONTINUOUS
 10
11.1970470104
 20
-4.2037163427
 11
11.1840995313
 21
-4.1907688636
  0
LINE
  5
506
100
AcDbEntity
  8
DRAFT
100
AcDbLine
 62
7
  6
CONTINUOUS
 10
11.4970470104
 20
-4.2037163427
 11
11.4232542463
 21
-4.1299235786
  0
LINE
  5
507
100
AcDbEntity
  8
ASSI
100
AcDbLine
 62
7
  6
CONTINUOUS
 10
11.4970470104
 20
-4.2037163427
 11
11.4232542463
 21
-4.1299235786
  0
LINE
  5
508
100
AcDbEntity
  8
RACCORDO
100
AcDbLine
 62
253
  6
CONTINUOUS
 10
5.4963637752
 20
-6.3530788118
 11
5.4963637752
 21
-7.9850391748
  0
LINE
  5
509
100
AcDbEntity
  8
ASSI
100
AcDbLine
 62
253
  6
CONTINUOUS
 10
5.4963637752
 20
-6.3530788118
 11
5.4963637752
 21
-7.9850391748
  0
LINE
  5
50A
100
AcDbEntity
  8
RACCORDO
100
AcDbLine
 62
253
  6
CONTINUOUS
 10
5.7067454173
 20
-7.9850391748
 11
5.7067454173
 21
-6.3530787989
  0
LINE
  5
50B
100
AcDbEntity
  8
ASSI
100
AcDbLine
 62
253
  6
CONTINUOUS
 10
5.7067454173
 20
-7.9850391748
 11
5.7067454173
 21
-6.3530787989
  0
LINE
  5
50C
100
AcDbEntity
  8
RACCORDO
100
AcDbLine
 62
253
  6
CONTINUOUS
 10
6.0066997259
 20
-7.9330642797
 11
6.0066997259
 21
-6.6530331075
  0
LINE
  5
50D
100
AcDbEntity
  8
ASSI
100
AcDbLine
 62
253
  6
CONTINUOUS
 10
6.0066997259
 20
-7.9330642797
 11
6.0066997259
 21
-6.6530331075
  0
LINE
  5
50E
100
AcDbEntity
  8
RACCORDO
100
AcDbLine
 62
7
  6
CONTINUOUS
 10
9.8302886311
 20
1.0205101063
 11
9.8813195965
 21
1.0715410717
  0
LINE
  5
50F
100
AcDbEntity
  8
ASSI
100
AcDbLine
 62
7
  6
CONTINUOUS
 10
9.8302886311
 20
1.0205101063
 11
9.8813195965
 21
1.0715410717
  0
LINE
  5
510
100
AcDbEntity
  8
0
100
AcDbLine
 62
7
  6
CONTINUOUS
 10
1.8121929033
 20
-6.2848066121
 11
1.9568737498
 21
-6.1785565614
  0
LINE
  5
511
100
AcDbEntity
  8
ASSI
100
AcDbLine
 62
7
  6
CONTINUOUS
 10
1.8121929033
 20
-6.2848066121
 11
1.9568737498
 21
-6.1785565614
  0
LINE
  5
512
100
AcDbEntity
  8
0
100
AcDbLine
 62
7
  6
CONTINUOUS
 10
1.7036822526
 20
-6.1431399285
 11
1.8121929033
 21
-6.0723065614
  0
LINE
  5
513
100
AcDbEntity
  8
ASSI
100
AcDbLine
 62
7
  6
CONTINUOUS
 10
1.7036822526
 20
-6.1431399285
 11
1.8121929033
 21
-6.0723065614
  0
LINE
  5
514
100
AcDbEntity
  8
0
100
AcDbLine
 62
7
  6
CONTINUOUS
 10
1.3781503259
 20
-5.3285566628
 11
1.4866610019
 21
-5.2931399285
  0
LINE
  5
515
100
AcDbEntity
  8
ASSI
100
AcDbLine
 62
7
  6
CONTINUOUS
 10
1.3781503259
 20
-5.3285566628
 11
1.4866610019
 21
-5.2931399285
  0
LINE
  5
516
100
AcDbEntity
  8
0
100
AcDbLine
 62
7
  6
CONTINUOUS
 10
1.5951716273
 20
-6.1785565614
 11
1.7036822526
 21
-6.1431399285
  0
LINE
  5
517
100
AcDbEntity
  8
ASSI
100
AcDbLine
 62
7
  6
CONTINUOUS
 10
1.5951716273
 20
-6.1785565614
 11
1.7036822526
 21
-6.1431399285
  0
LINE
  5
518
100
AcDbEntity
  8
0
100
AcDbLine
 62
7
  6
CONTINUOUS
 10
-0.3661444037
 20
-6.5604999285
 11
-2.0660074037
 21
-7.0993899285
  0
LINE
  5
519
100
AcDbEntity
  8
ASSI
100
AcDbLine
 62
7
  6
CONTINUOUS
 10
-0.3661444037
 20
-6.5604999285
 11
-2.0660074037
 21
-7.0993899285
  0
LINE
  5
51A
100
AcDbEntity
  8
DRAFT
100
AcDbLine
 62
7
  6
CONTINUOUS
 10
8.5140205869
 20
7.9941412662
 11
8.2515545963
 21
7.9417760715
  0
LINE
  5
51B
100
AcDbEntity
  8
ASSI
100
AcDbLine
 62
7
  6
CONTINUOUS
 10
8.5140205869
 20
7.9941412662
 11
8.2515545963
 21
7.9417760715
  0
LINE
  5
51C
100
AcDbEntity
  8
RACCORDO
100
AcDbLine
 62
7
  6
CONTINUOUS
 10
4.2435016353
 20
5.5653685708
 11
3.823400121
 21
5.5452215958
  0
LINE
  5
51D
100
AcDbEntity
  8
ASSI
100
AcDbLine
 62
7
  6
CONTINUOUS
 10
4.2435016353
 20
5.5653685708
 11
3.823400121
 21
5.5452215958
  0
LINE
  5
51E
100
AcDbEntity
  8
DRAFT
100
AcDbLine
 62
7
  6
CONTINUOUS
 10
-2.8984454037
 20
5.5460048223
 11
-3.0680811641
 21
5.5417760715
  0
LINE
  5
51F
100
AcDbEntity
  8
ASSI
100
AcDbLine
 62
7
  6
CONTINUOUS
 10
-2.8984454037
 20
5.5460048223
 11
-3.0680811641
 21
5.5417760715
  0
LINE
  5
520
100
AcDbEntity
  8
DRAFT
100
AcDbLine
 62
7
  6
CONTINUOUS
 10
2.9015545963
 20
5.5494958353
 11
3.0015545963
 21
5.5505036039
  0
LINE
  5
521
100
AcDbEntity
  8
ASSI
100
AcDbLine
 62
7
  6
CONTINUOUS
 10
2.9015545963
 20
5.5494958353
 11
3.0015545963
 21
5.5505036039
  0
LINE
  5
522
100
AcDbEntity
  8
RACCORDO
100
AcDbLine
 62
253
  6
CONTINUOUS
 10
7.2403128464
 20
5.2882226809
 11
7.0627963461
 21
5.2882226809
  0
LINE
  5
523
100
AcDbEntity
  8
ASSI
100
AcDbLine
 62
253
  6
CONTINUOUS
 10
7.2403128464
 20
5.2882226809
 11
7.0627963461
 21
5.2882226809
  0
LINE
  5
524
100
AcDbEntity
  8
RACCORDO
100
AcDbLine
 62
253
  6
CONTINUOUS
 10
-7.0596871536
 20
5.2882226809
 11
-7.2372036539
 21
5.2882226809
  0
LINE
  5
525
100
AcDbEntity
  8
ASSI
100
AcDbLine
 62
253
  6
CONTINUOUS
 10
-7.0596871536
 20
5.2882226809
 11
-7.2372036539
 21
5.2882226809
  0
LINE
  5
526
100
AcDbEntity
  8
RACCORDO
100
AcDbLine
 62
7
  6
CONTINUOUS
 10
3.5414923348
 20
5.5417760715
 11
3.0711903567
 21
5.5417760715
  0
LINE
  5
527
100
AcDbEntity
  8
ASSI
100
AcDbLine
 62
7
  6
CONTINUOUS
 10
3.5414923348
 20
5.5417760715
 11
3.0711903567
 21
5.5417760715
  0
LINE
  5
528
100
AcDbEntity
  8
RACCORDO
100
AcDbLine
 62
7
  6
CONTINUOUS
 10
-3.0680811641
 20
5.5417760715
 11
-3.5383831423
 21
5.5417760715
  0
LINE
  5
529
100
AcDbEntity
  8
ASSI
100
AcDbLine
 62
7
  6
CONTINUOUS
 10
-3.0680811641
 20
5.5417760715
 11
-3.5383831423
 21
5.5417760715
  0
LINE
  5
52A
100
AcDbEntity
  8
RACCORDO
100
AcDbLine
 62
7
  6
CONTINUOUS
 10
-4.4283441712
 20
5.5676660831
 11
-2.9984454037
 21
5.5676660831
  0
LINE
  5
52B
100
AcDbEntity
  8
ASSI
100
AcDbLine
 62
7
  6
CONTINUOUS
 10
-4.4283441712
 20
5.5676660831
 11
-2.9984454037
 21
5.5676660831
  0
LINE
  5
52C
100
AcDbEntity
  8
RACCORDO
100
AcDbLine
 62
7
  6
CONTINUOUS
 10
3.0015545963
 20
5.5676660831
 11
4.4314533637
 21
5.5676660831
  0
LINE
  5
52D
100
AcDbEntity
  8
ASSI
100
AcDbLine
 62
7
  6
CONTINUOUS
 10
3.0015545963
 20
5.5676660831
 11
4.4314533637
 21
5.5676660831
  0
LINE
  5
52E
100
AcDbEntity
  8
RACCORDO
100
AcDbLine
 62
253
  6
CONTINUOUS
 10
-7.2495462487
 20
5.9953294621
 11
-7.0473445588
 21
5.9953294621
  0
LINE
  5
52F
100
AcDbEntity
  8
ASSI
100
AcDbLine
 62
253
  6
CONTINUOUS
 10
-7.2495462487
 20
5.9953294621
 11
-7.0473445588
 21
5.9953294621
  0
LINE
  5
530
100
AcDbEntity
  8
RACCORDO
100
AcDbLine
 62
253
  6
CONTINUOUS
 10
7.0504537513
 20
5.9953294621
 11
7.2526554412
 21
5.9953294621
  0
LINE
  5
531
100
AcDbEntity
  8
ASSI
100
AcDbLine
 62
253
  6
CONTINUOUS
 10
7.0504537513
 20
5.9953294621
 11
7.2526554412
 21
5.9953294621
  0
LINE
  5
532
100
AcDbEntity
  8
DRAFT
100
AcDbLine
 62
7
  6
CONTINUOUS
 10
-2.9984454037
 20
5.5505036039
 11
-2.8984454037
 21
5.5494958353
  0
LINE
  5
533
100
AcDbEntity
  8
ASSI
100
AcDbLine
 62
7
  6
CONTINUOUS
 10
-2.9984454037
 20
5.5505036039
 11
-2.8984454037
 21
5.5494958353
  0
LINE
  5
534
100
AcDbEntity
  8
DRAFT
100
AcDbLine
 62
7
  6
CONTINUOUS
 10
3.0711903567
 20
5.5417760715
 11
2.9015545963
 21
5.5460048223
  0
LINE
  5
535
100
AcDbEntity
  8
ASSI
100
AcDbLine
 62
7
  6
CONTINUOUS
 10
3.0711903567
 20
5.5417760715
 11
2.9015545963
 21
5.5460048223
  0
LINE
  5
536
100
AcDbEntity
  8
RACCORDO
100
AcDbLine
 62
7
  6
CONTINUOUS
 10
-3.8202909285
 20
5.5452215958
 11
-4.2403924428
 21
5.5653685708
  0
LINE
  5
537
100
AcDbEntity
  8
ASSI
100
AcDbLine
 62
7
  6
CONTINUOUS
 10
-3.8202909285
 20
5.5452215958
 11
-4.2403924428
 21
5.5653685708
  0
LINE
  5
538
100
AcDbEntity
  8
DRAFT
100
AcDbLine
 62
7
  6
CONTINUOUS
 10
-8.5109113943
 20
7.9941412662
 11
-8.2484454037
 21
7.9417760715
  0
LINE
  5
539
100
AcDbEntity
  8
ASSI
100
AcDbLine
 62
7
  6
CONTINUOUS
 10
-8.5109113943
 20
7.9941412662
 11
-8.2484454037
 21
7.9417760715
  0
LINE
  5
53A
100
AcDbEntity
  8
DRAFT
100
AcDbLine
 62
7
  6
CONTINUOUS
 10
10.4190096612
 20
-1.7256789935
 11
10.4810423543
 21
-1.7877116866
  0
LINE
  5
53B
100
AcDbEntity
  8
ASSI
100
AcDbLine
 62
7
  6
CONTINUOUS
 10
10.4190096612
 20
-1.7256789935
 11
10.4810423543
 21
-1.7877116866
  0
LINE
  5
53C
100
AcDbEntity
  8
RACCORDO
100
AcDbLine
 62
253
  6
CONTINUOUS
 10
6.7628420376
 20
5.0760906465
 11
6.7504994428
 21
5.7831974277
  0
LINE
  5
53D
100
AcDbEntity
  8
ASSI
100
AcDbLine
 62
253
  6
CONTINUOUS
 10
6.7628420376
 20
5.0760906465
 11
6.7504994428
 21
5.7831974277
  0
LINE
  5
53E
100
AcDbEntity
  8
RACCORDO
100
AcDbLine
 62
253
  6
CONTINUOUS
 10
7.0627963461
 20
5.2882226809
 11
7.0504537513
 21
5.9953294621
  0
LINE
  5
53F
100
AcDbEntity
  8
ASSI
100
AcDbLine
 62
253
  6
CONTINUOUS
 10
7.0627963461
 20
5.2882226809
 11
7.0504537513
 21
5.9953294621
  0
LINE
  5
540
100
AcDbEntity
  8
RACCORDO
100
AcDbLine
 62
253
  6
CONTINUOUS
 10
6.7464094667
 20
6.3488828526
 11
6.7464094667
 21
7.9366309418
  0
LINE
  5
541
100
AcDbEntity
  8
ASSI
100
AcDbLine
 62
253
  6
CONTINUOUS
 10
6.7464094667
 20
6.3488828526
 11
6.7464094667
 21
7.9366309418
  0
LINE
  5
542
100
AcDbEntity
  8
RACCORDO
100
AcDbLine
 62
253
  6
CONTINUOUS
 10
6.7638645316
 20
3.5505797679
 11
6.7638645316
 21
4.9346692903
  0
LINE
  5
543
100
AcDbEntity
  8
ASSI
100
AcDbLine
 62
253
  6
CONTINUOUS
 10
6.7638645316
 20
3.5505797679
 11
6.7638645316
 21
4.9346692903
  0
LINE
  5
544
100
AcDbEntity
  8
RACCORDO
100
AcDbLine
 62
253
  6
CONTINUOUS
 10
7.0463637752
 20
6.3488672189
 11
7.0463637752
 21
7.9417760715
  0
LINE
  5
545
100
AcDbEntity
  8
ASSI
100
AcDbLine
 62
253
  6
CONTINUOUS
 10
7.0463637752
 20
6.3488672189
 11
7.0463637752
 21
7.9417760715
  0
LINE
  5
546
100
AcDbEntity
  8
RACCORDO
100
AcDbLine
 62
253
  6
CONTINUOUS
 10
7.0638188401
 20
3.5505797679
 11
7.0638188401
 21
4.9346692903
  0
LINE
  5
547
100
AcDbEntity
  8
ASSI
100
AcDbLine
 62
253
  6
CONTINUOUS
 10
7.0638188401
 20
3.5505797679
 11
7.0638188401
 21
4.9346692903
  0
LINE
  5
548
100
AcDbEntity
  8
RACCORDO
100
AcDbLine
 62
253
  6
CONTINUOUS
 10
7.2392903524
 20
4.9346692903
 11
7.2392903524
 21
3.5505797679
  0
LINE
  5
549
100
AcDbEntity
  8
ASSI
100
AcDbLine
 62
253
  6
CONTINUOUS
 10
7.2392903524
 20
4.9346692903
 11
7.2392903524
 21
3.5505797679
  0
LINE
  5
54A
100
AcDbEntity
  8
RACCORDO
100
AcDbLine
 62
253
  6
CONTINUOUS
 10
7.2567454173
 20
7.9417760715
 11
7.2567454173
 21
6.348867516
  0
LINE
  5
54B
100
AcDbEntity
  8
ASSI
100
AcDbLine
 62
253
  6
CONTINUOUS
 10
7.2567454173
 20
7.9417760715
 11
7.2567454173
 21
6.348867516
  0
LINE
  5
54C
100
AcDbEntity
  8
RACCORDO
100
AcDbLine
 62
253
  6
CONTINUOUS
 10
7.2526554412
 20
5.9953294621
 11
7.2403128464
 21
5.2882226809
  0
LINE
  5
54D
100
AcDbEntity
  8
ASSI
100
AcDbLine
 62
253
  6
CONTINUOUS
 10
7.2526554412
 20
5.9953294621
 11
7.2403128464
 21
5.2882226809
  0
LINE
  5
54E
100
AcDbEntity
  8
RACCORDO
100
AcDbLine
 62
7
  6
CONTINUOUS
 10
6.0316046901
 20
-7.6814801595
 11
6.0066997259
 21
-7.9330642797
  0
LINE
  5
54F
100
AcDbEntity
  8
ASSI
100
AcDbLine
 62
7
  6
CONTINUOUS
 10
6.0316046901
 20
-7.6814801595
 11
6.0066997259
 21
-7.9330642797
  0
LINE
  5
550
100
AcDbEntity
  8
RACCORDO
100
AcDbLine
 62
7
  6
CONTINUOUS
 10
11.1260857863
 20
1.0256544822
 11
11.1771175054
 21
1.0766862013
  0
LINE
  5
551
100
AcDbEntity
  8
ASSI
100
AcDbLine
 62
7
  6
CONTINUOUS
 10
11.1260857863
 20
1.0256544822
 11
11.1771175054
 21
1.0766862013
  0
LINE
  5
552
100
AcDbEntity
  8
0
100
AcDbLine
 62
7
  6
CONTINUOUS
 10
1.6313418357
 20
-6.3556399285
 11
1.8121929033
 21
-6.2848066121
  0
LINE
  5
553
100
AcDbEntity
  8
ASSI
100
AcDbLine
 62
7
  6
CONTINUOUS
 10
1.6313418357
 20
-6.3556399285
 11
1.8121929033
 21
-6.2848066121
  0
LINE
  5
554
100
AcDbEntity
  8
RACCORDO
100
AcDbLine
 62
253
  6
CONTINUOUS
 10
6.7464094667
 20
6.3488828526
 11
7.5566997259
 21
6.3488828526
  0
LINE
  5
555
100
AcDbEntity
  8
ASSI
100
AcDbLine
 62
253
  6
CONTINUOUS
 10
6.7464094667
 20
6.3488828526
 11
7.5566997259
 21
6.3488828526
  0
LINE
  5
556
100
AcDbEntity
  8
RACCORDO
100
AcDbLine
 62
253
  6
CONTINUOUS
 10
-6.7433002741
 20
6.3488828526
 11
-7.5535905333
 21
6.3488828526
  0
LINE
  5
557
100
AcDbEntity
  8
ASSI
100
AcDbLine
 62
253
  6
CONTINUOUS
 10
-6.7433002741
 20
6.3488828526
 11
-7.5535905333
 21
6.3488828526
  0
LINE
  5
558
100
AcDbEntity
  8
DRAFT
100
AcDbLine
 62
7
  6
CONTINUOUS
 10
-2.9659004687
 20
7.1592311364
 11
-2.4984454037
 21
7.1592311364
  0
LINE
  5
559
100
AcDbEntity
  8
DRAFT
100
AcDbLine
 62
7
  6
CONTINUOUS
 10
2.9690096612
 20
7.1592311364
 11
2.5015545963
 21
7.1592311364
  0
LINE
  5
55A
100
AcDbEntity
  8
DRAFT
100
AcDbLine
 62
7
  6
CONTINUOUS
 10
-2.4949543907
 20
7.1627221494
 11
2.4980635833
 21
7.1627221494
  0
LINE
  5
55B
100
AcDbEntity
  8
RACCORDO
100
AcDbLine
 62
7
  6
CONTINUOUS
 10
11.1840995313
 20
-1.1001160844
 11
11.1268833675
 21
-1.0428999205
  0
LINE
  5
55C
100
AcDbEntity
  8
ASSI
100
AcDbLine
 62
7
  6
CONTINUOUS
 10
11.1840995313
 20
-1.1001160844
 11
11.1268833675
 21
-1.0428999205
  0
LINE
  5
55D
100
AcDbEntity
  8
RACCORDO
100
AcDbLine
 62
253
  6
CONTINUOUS
 10
7.539244661
 20
4.9346692903
 11
7.539244661
 21
3.5505797679
  0
LINE
  5
55E
100
AcDbEntity
  8
ASSI
100
AcDbLine
 62
253
  6
CONTINUOUS
 10
7.539244661
 20
4.9346692903
 11
7.539244661
 21
3.5505797679
  0
LINE
  5
55F
100
AcDbEntity
  8
RACCORDO
100
AcDbLine
 62
253
  6
CONTINUOUS
 10
7.5566997259
 20
7.9366309418
 11
7.5566997259
 21
6.3488828526
  0
LINE
  5
560
100
AcDbEntity
  8
ASSI
100
AcDbLine
 62
253
  6
CONTINUOUS
 10
7.5566997259
 20
7.9366309418
 11
7.5566997259
 21
6.3488828526
  0
LINE
  5
561
100
AcDbEntity
  8
DRAFT
100
AcDbLine
 62
7
  6
CONTINUOUS
 10
8.2515545963
 20
9.0824288507
 11
8.2515545963
 21
7.9417760715
  0
LINE
  5
562
100
AcDbEntity
  8
ASSI
100
AcDbLine
 62
7
  6
CONTINUOUS
 10
8.2515545963
 20
9.0824288507
 11
8.2515545963
 21
7.9417760715
  0
LINE
  5
563
100
AcDbEntity
  8
RACCORDO
100
AcDbLine
 62
253
  6
CONTINUOUS
 10
7.5526097498
 20
5.7831974277
 11
7.540267155
 21
5.0760906465
  0
LINE
  5
564
100
AcDbEntity
  8
ASSI
100
AcDbLine
 62
253
  6
CONTINUOUS
 10
7.5526097498
 20
5.7831974277
 11
7.540267155
 21
5.0760906465
  0
LINE
  5
565
100
AcDbEntity
  8
DRAFT
100
AcDbLine
 62
7
  6
CONTINUOUS
 10
8.5140205869
 20
9.1347940455
 11
8.2515545963
 21
9.0824288507
  0
LINE
  5
566
100
AcDbEntity
  8
ASSI
100
AcDbLine
 62
7
  6
CONTINUOUS
 10
8.5140205869
 20
9.1347940455
 11
8.2515545963
 21
9.0824288507
  0
LINE
  5
567
100
AcDbEntity
  8
0
100
AcDbLine
 62
7
  6
CONTINUOUS
 10
-2.9984454037
 20
7.2417760715
 11
3.0015545963
 21
7.2417760715
  0
LINE
  5
568
100
AcDbEntity
  8
ASSI
100
AcDbLine
 62
7
  6
CONTINUOUS
 10
-2.9984454037
 20
7.2417760715
 11
3.0015545963
 21
7.2417760715
  0
LINE
  5
569
100
AcDbEntity
  8
DRAFT
100
AcDbLine
 62
7
  6
CONTINUOUS
 10
-12.2984454037
 20
7.8824288507
 11
-11.1984454037
 21
7.8824288507
  0
LINE
  5
56A
100
AcDbEntity
  8
ASSI
100
AcDbLine
 62
7
  6
CONTINUOUS
 10
-12.2984454037
 20
7.8824288507
 11
-11.1984454037
 21
7.8824288507
  0
LINE
  5
56B
100
AcDbEntity
  8
DRAFT
100
AcDbLine
 62
7
  6
CONTINUOUS
 10
11.2015545963
 20
7.8824288507
 11
12.3015545963
 21
7.8824288507
  0
LINE
  5
56C
100
AcDbEntity
  8
ASSI
100
AcDbLine
 62
7
  6
CONTINUOUS
 10
11.2015545963
 20
7.8824288507
 11
12.3015545963
 21
7.8824288507
  0
LINE
  5
56D
100
AcDbEntity
  8
RACCORDO
100
AcDbLine
 62
253
  6
CONTINUOUS
 10
-12.2966085074
 20
7.8842657471
 11
-11.1966085074
 21
7.8842657471
  0
LINE
  5
56E
100
AcDbEntity
  8
ASSI
100
AcDbLine
 62
253
  6
CONTINUOUS
 10
-12.2966085074
 20
7.8842657471
 11
-11.1966085074
 21
7.8842657471
  0
LINE
  5
56F
100
AcDbEntity
  8
RACCORDO
100
AcDbLine
 62
253
  6
CONTINUOUS
 10
11.1997176999
 20
7.8842657471
 11
12.2997176999
 21
7.8842657471
  0
LINE
  5
570
100
AcDbEntity
  8
ASSI
100
AcDbLine
 62
253
  6
CONTINUOUS
 10
11.1997176999
 20
7.8842657471
 11
12.2997176999
 21
7.8842657471
  0
LINE
  5
571
100
AcDbEntity
  8
RACCORDO
100
AcDbLine
 62
7
  6
CONTINUOUS
 10
-10.8216382586
 20
7.9191253555
 11
-7.5710961197
 21
7.9191253555
  0
LINE
  5
572
100
AcDbEntity
  8
ASSI
100
AcDbLine
 62
7
  6
CONTINUOUS
 10
-10.8216382586
 20
7.9191253555
 11
-7.5710961197
 21
7.9191253555
  0
LINE
  5
573
100
AcDbEntity
  8
DRAFT
100
AcDbLine
 62
7
  6
CONTINUOUS
 10
-6.7257946878
 20
7.9191253555
 11
6.7289038803
 21
7.9191253555
  0
LINE
  5
574
100
AcDbEntity
  8
ASSI
100
AcDbLine
 62
7
  6
CONTINUOUS
 10
-6.7257946878
 20
7.9191253555
 11
6.7289038803
 21
7.9191253555
  0
LINE
  5
575
100
AcDbEntity
  8
RACCORDO
100
AcDbLine
 62
7
  6
CONTINUOUS
 10
7.5742053122
 20
7.9191253555
 11
10.8247474511
 21
7.9191253555
  0
LINE
  5
576
100
AcDbEntity
  8
ASSI
100
AcDbLine
 62
7
  6
CONTINUOUS
 10
7.5742053122
 20
7.9191253555
 11
10.8247474511
 21
7.9191253555
  0
LINE
  5
577
100
AcDbEntity
  8
RACCORDO
100
AcDbLine
 62
7
  6
CONTINUOUS
 10
-8.2484454037
 20
7.9417760715
 11
-7.2536362248
 21
7.9417760715
  0
LINE
  5
578
100
AcDbEntity
  8
ASSI
100
AcDbLine
 62
7
  6
CONTINUOUS
 10
-8.2484454037
 20
7.9417760715
 11
-7.2536362248
 21
7.9417760715
  0
LINE
  5
579
100
AcDbEntity
  8
RACCORDO
100
AcDbLine
 62
7
  6
CONTINUOUS
 10
-7.0432545827
 20
7.9417760715
 11
7.0463637752
 21
7.9417760715
  0
LINE
  5
57A
100
AcDbEntity
  8
ASSI
100
AcDbLine
 62
7
  6
CONTINUOUS
 10
-7.0432545827
 20
7.9417760715
 11
7.0463637752
 21
7.9417760715
  0
LINE
  5
57B
100
AcDbEntity
  8
RACCORDO
100
AcDbLine
 62
7
  6
CONTINUOUS
 10
7.2567454173
 20
7.9417760715
 11
8.2515545963
 21
7.9417760715
  0
LINE
  5
57C
100
AcDbEntity
  8
ASSI
100
AcDbLine
 62
7
  6
CONTINUOUS
 10
7.2567454173
 20
7.9417760715
 11
8.2515545963
 21
7.9417760715
  0
LINE
  5
57D
100
AcDbEntity
  8
DRAFT
100
AcDbLine
 62
7
  6
CONTINUOUS
 10
-11.1914633778
 20
7.9941412662
 11
-8.5109113943
 21
7.9941412662
  0
LINE
  5
57E
100
AcDbEntity
  8
ASSI
100
AcDbLine
 62
7
  6
CONTINUOUS
 10
-11.1914633778
 20
7.9941412662
 11
-8.5109113943
 21
7.9941412662
  0
LINE
  5
57F
100
AcDbEntity
  8
DRAFT
100
AcDbLine
 62
7
  6
CONTINUOUS
 10
8.5140205869
 20
7.9941412662
 11
11.1945725703
 21
7.9941412662
  0
LINE
  5
580
100
AcDbEntity
  8
ASSI
100
AcDbLine
 62
7
  6
CONTINUOUS
 10
8.5140205869
 20
7.9941412662
 11
11.1945725703
 21
7.9941412662
  0
LINE
  5
581
100
AcDbEntity
  8
RACCORDO
100
AcDbLine
 62
253
  6
CONTINUOUS
 10
-12.2914633778
 20
8.1842200556
 11
-11.1914633778
 21
8.1842200556
  0
LINE
  5
582
100
AcDbEntity
  8
ASSI
100
AcDbLine
 62
253
  6
CONTINUOUS
 10
-12.2914633778
 20
8.1842200556
 11
-11.1914633778
 21
8.1842200556
  0
LINE
  5
583
100
AcDbEntity
  8
RACCORDO
100
AcDbLine
 62
253
  6
CONTINUOUS
 10
11.1945725703
 20
8.1842200556
 11
12.2945725703
 21
8.1842200556
  0
LINE
  5
584
100
AcDbEntity
  8
ASSI
100
AcDbLine
 62
253
  6
CONTINUOUS
 10
11.1945725703
 20
8.1842200556
 11
12.2945725703
 21
8.1842200556
  0
LINE
  5
585
100
AcDbEntity
  8
DRAFT
100
AcDbLine
 62
7
  6
CONTINUOUS
 10
-8.5109113943
 20
9.1347940455
 11
-8.2484454037
 21
9.0824288507
  0
LINE
  5
586
100
AcDbEntity
  8
ASSI
100
AcDbLine
 62
7
  6
CONTINUOUS
 10
-8.5109113943
 20
9.1347940455
 11
-8.2484454037
 21
9.0824288507
  0
LINE
  5
587
100
AcDbEntity
  8
RACCORDO
100
AcDbLine
 62
253
  6
CONTINUOUS
 10
7.2427204388
 20
3.0506559204
 11
7.2734694124
 21
3.0199069468
  0
LINE
  5
588
100
AcDbEntity
  8
ASSI
100
AcDbLine
 62
253
  6
CONTINUOUS
 10
7.2427204388
 20
3.0506559204
 11
7.2734694124
 21
3.0199069468
  0
LINE
  5
589
100
AcDbEntity
  8
RACCORDO
100
AcDbLine
 62
253
  6
CONTINUOUS
 10
7.5426747474
 20
3.3506102289
 11
7.5734999771
 21
3.3197849992
  0
LINE
  5
58A
100
AcDbEntity
  8
ASSI
100
AcDbLine
 62
253
  6
CONTINUOUS
 10
7.5426747474
 20
3.3506102289
 11
7.5734999771
 21
3.3197849992
  0
LINE
  5
58B
100
AcDbEntity
  8
RACCORDO
100
AcDbLine
 62
7
  6
CONTINUOUS
 10
9.8300453224
 20
1.7632853453
 11
9.8813195965
 21
1.7120110712
  0
LINE
  5
58C
100
AcDbEntity
  8
ASSI
100
AcDbLine
 62
7
  6
CONTINUOUS
 10
9.8300453224
 20
1.7632853453
 11
9.8813195965
 21
1.7120110712
  0
LINE
  5
58D
100
AcDbEntity
  8
DRAFT
100
AcDbLine
 62
7
  6
CONTINUOUS
 10
8.5140205869
 20
9.1347940455
 11
8.5140205869
 21
7.9941412662
  0
LINE
  5
58E
100
AcDbEntity
  8
ASSI
100
AcDbLine
 62
7
  6
CONTINUOUS
 10
8.5140205869
 20
9.1347940455
 11
8.5140205869
 21
7.9941412662
  0
LINE
  5
58F
100
AcDbEntity
  8
RACCORDO
100
AcDbLine
 62
253
  6
CONTINUOUS
 10
5.7067454173
 20
-6.3530787989
 11
5.7366914072
 21
-6.3231328091
  0
LINE
  5
590
100
AcDbEntity
  8
ASSI
100
AcDbLine
 62
253
  6
CONTINUOUS
 10
5.7067454173
 20
-6.3530787989
 11
5.7366914072
 21
-6.3231328091
  0
LINE
  5
591
100
AcDbEntity
  8
RACCORDO
100
AcDbLine
 62
253
  6
CONTINUOUS
 10
6.0066997259
 20
-6.6530331075
 11
6.0364500238
 21
-6.6232828096
  0
LINE
  5
592
100
AcDbEntity
  8
ASSI
100
AcDbLine
 62
253
  6
CONTINUOUS
 10
6.0066997259
 20
-6.6530331075
 11
6.0364500238
 21
-6.6232828096
  0
LINE
  5
593
100
AcDbEntity
  8
DRAFT
100
AcDbLine
 62
7
  6
CONTINUOUS
 10
11.2015545963
 20
-1.7082239285
 11
11.1840995313
 21
-1.7256789935
  0
LINE
  5
594
100
AcDbEntity
  8
ASSI
100
AcDbLine
 62
7
  6
CONTINUOUS
 10
11.2015545963
 20
-1.7082239285
 11
11.1840995313
 21
-1.7256789935
  0
LINE
  5
595
100
AcDbEntity
  8
DRAFT
100
AcDbLine
 62
7
  6
CONTINUOUS
 10
11.5015545963
 20
-1.7082239285
 11
11.4220668382
 21
-1.7877116866
  0
LINE
  5
596
100
AcDbEntity
  8
ASSI
100
AcDbLine
 62
7
  6
CONTINUOUS
 10
11.5015545963
 20
-1.7082239285
 11
11.4220668382
 21
-1.7877116866
  0
LINE
  5
597
100
AcDbEntity
  8
DRAFT
100
AcDbLine
 62
7
  6
CONTINUOUS
 10
-8.2484454037
 20
9.0824288507
 11
8.2515545963
 21
9.0824288507
  0
LINE
  5
598
100
AcDbEntity
  8
ASSI
100
AcDbLine
 62
7
  6
CONTINUOUS
 10
-8.2484454037
 20
9.0824288507
 11
8.2515545963
 21
9.0824288507
  0
LINE
  5
599
100
AcDbEntity
  8
RACCORDO
100
AcDbLine
 62
7
  6
CONTINUOUS
 10
-12.041501454
 20
9.1347940455
 11
-8.5109113943
 21
9.1347940455
  0
LINE
  5
59A
100
AcDbEntity
  8
ASSI
100
AcDbLine
 62
7
  6
CONTINUOUS
 10
-12.041501454
 20
9.1347940455
 11
-8.5109113943
 21
9.1347940455
  0
LINE
  5
59B
100
AcDbEntity
  8
RACCORDO
100
AcDbLine
 62
7
  6
CONTINUOUS
 10
8.5140205869
 20
9.1347940455
 11
12.0446106465
 21
9.1347940455
  0
LINE
  5
59C
100
AcDbEntity
  8
ASSI
100
AcDbLine
 62
7
  6
CONTINUOUS
 10
8.5140205869
 20
9.1347940455
 11
12.0446106465
 21
9.1347940455
  0
LINE
  5
59D
100
AcDbEntity
  8
RACCORDO
100
AcDbLine
 62
7
  6
CONTINUOUS
 10
11.1771175054
 20
1.7068659416
 11
11.1258456788
 21
1.7581377682
  0
LINE
  5
59E
100
AcDbEntity
  8
ASSI
100
AcDbLine
 62
7
  6
CONTINUOUS
 10
11.1771175054
 20
1.7068659416
 11
11.1258456788
 21
1.7581377682
  0
LINE
  5
59F
100
AcDbEntity
  8
RACCORDO
100
AcDbLine
 62
253
  6
CONTINUOUS
 10
10.8304759602
 20
-7.6814801595
 11
10.888454158
 21
-8.267162344
  0
LINE
  5
5A0
100
AcDbEntity
  8
ASSI
100
AcDbLine
 62
253
  6
CONTINUOUS
 10
10.8304759602
 20
-7.6814801595
 11
10.888454158
 21
-8.267162344
  0
LINE
  5
5A1
100
AcDbEntity
  8
RACCORDO
100
AcDbLine
 62
253
  6
CONTINUOUS
 10
11.1304302701
 20
-7.3860378472
 11
11.1875905443
 21
-7.9634575594
  0
LINE
  5
5A2
100
AcDbEntity
  8
ASSI
100
AcDbLine
 62
253
  6
CONTINUOUS
 10
11.1304302701
 20
-7.3860378472
 11
11.1875905443
 21
-7.9634575594
  0
LINE
  5
5A3
100
AcDbEntity
  8
DRAFT
100
AcDbLine
 62
7
  6
CONTINUOUS
 10
9.5015545963
 20
-4.8381506039
 11
9.5015545963
 21
-1.0782972532
  0
LINE
  5
5A4
100
AcDbEntity
  8
ASSI
100
AcDbLine
 62
7
  6
CONTINUOUS
 10
9.5015545963
 20
-4.8381506039
 11
9.5015545963
 21
-1.0782972532
  0
LINE
  5
5A5
100
AcDbEntity
  8
RACCORDO
100
AcDbLine
 62
253
  6
CONTINUOUS
 10
9.8813195965
 20
1.7120110712
 11
9.8813195965
 21
1.0715410717
  0
LINE
  5
5A6
100
AcDbEntity
  8
ASSI
100
AcDbLine
 62
253
  6
CONTINUOUS
 10
9.8813195965
 20
1.7120110712
 11
9.8813195965
 21
1.0715410717
  0
LINE
  5
5A7
100
AcDbEntity
  8
RACCORDO
100
AcDbLine
 62
253
  6
CONTINUOUS
 10
9.8813195965
 20
-6.1879889288
 11
9.8813195965
 21
-6.8284589283
  0
LINE
  5
5A8
100
AcDbEntity
  8
ASSI
100
AcDbLine
 62
253
  6
CONTINUOUS
 10
9.8813195965
 20
-6.1879889288
 11
9.8813195965
 21
-6.8284589283
  0
LINE
  5
5A9
100
AcDbEntity
  8
DRAFT
100
AcDbLine
 62
7
  6
CONTINUOUS
 10
9.9015545963
 20
-4.8767508593
 11
9.9015545963
 21
-4.8421816784
  0
LINE
  5
5AA
100
AcDbEntity
  8
ASSI
100
AcDbLine
 62
7
  6
CONTINUOUS
 10
9.9015545963
 20
-4.8767508593
 11
9.9015545963
 21
-4.8421816784
  0
LINE
  5
5AB
100
AcDbEntity
  8
DRAFT
100
AcDbLine
 62
7
  6
CONTINUOUS
 10
9.9015545963
 20
-1.0742661786
 11
9.9015545963
 21
-1.0377510133
  0
LINE
  5
5AC
100
AcDbEntity
  8
ASSI
100
AcDbLine
 62
7
  6
CONTINUOUS
 10
9.9015545963
 20
-1.0742661786
 11
9.9015545963
 21
-1.0377510133
  0
LINE
  5
5AD
100
AcDbEntity
  8
DRAFT
100
AcDbLine
 62
7
  6
CONTINUOUS
 10
10.1515545963
 20
-4.8163317727
 11
10.1515545963
 21
-1.1001160844
  0
LINE
  5
5AE
100
AcDbEntity
  8
ASSI
100
AcDbLine
 62
7
  6
CONTINUOUS
 10
10.1515545963
 20
-4.8163317727
 11
10.1515545963
 21
-1.1001160844
  0
LINE
  5
5AF
100
AcDbEntity
  8
RACCORDO
100
AcDbLine
 62
253
  6
CONTINUOUS
 10
10.1812739051
 20
1.7068659416
 11
10.1812739051
 21
1.0766862013
  0
LINE
  5
5B0
100
AcDbEntity
  8
ASSI
100
AcDbLine
 62
253
  6
CONTINUOUS
 10
10.1812739051
 20
1.7068659416
 11
10.1812739051
 21
1.0766862013
  0
LINE
  5
5B1
100
AcDbEntity
  8
RACCORDO
100
AcDbLine
 62
253
  6
CONTINUOUS
 10
10.1812739051
 20
-6.1931340584
 11
10.1812739051
 21
-6.8233137987
  0
LINE
  5
5B2
100
AcDbEntity
  8
ASSI
100
AcDbLine
 62
253
  6
CONTINUOUS
 10
10.1812739051
 20
-6.1931340584
 11
10.1812739051
 21
-6.8233137987
  0
LINE
  5
5B3
100
AcDbEntity
  8
DRAFT
100
AcDbLine
 62
7
  6
CONTINUOUS
 10
10.4190096612
 20
-4.1907688636
 11
10.4798549462
 21
-4.1299235786
  0
LINE
  5
5B4
100
AcDbEntity
  8
ASSI
100
AcDbLine
 62
7
  6
CONTINUOUS
 10
10.4190096612
 20
-4.1907688636
 11
10.4798549462
 21
-4.1299235786
  0
LINE
  5
5B5
100
AcDbEntity
  8
RACCORDO
100
AcDbLine
 62
253
  6
CONTINUOUS
 10
10.8301213113
 20
-6.8754969772
 11
10.8304759615
 21
-7.3978903234
  0
LINE
  5
5B6
100
AcDbEntity
  8
ASSI
100
AcDbLine
 62
253
  6
CONTINUOUS
 10
10.8301213113
 20
-6.8754969772
 11
10.8304759615
 21
-7.3978903234
  0
LINE
  5
5B7
100
AcDbEntity
  8
RACCORDO
100
AcDbLine
 62
253
  6
CONTINUOUS
 10
10.8288683165
 20
-4.8767508595
 11
10.8296413731
 21
-6.1404706027
  0
LINE
  5
5B8
100
AcDbEntity
  8
ASSI
100
AcDbLine
 62
253
  6
CONTINUOUS
 10
10.8288683165
 20
-4.8767508595
 11
10.8296413731
 21
-6.1404706027
  0
LINE
  5
5B9
100
AcDbEntity
  8
RACCORDO
100
AcDbLine
 62
253
  6
CONTINUOUS
 10
10.8261312214
 20
1.0205101063
 11
10.8269237099
 21
-1.0377510132
  0
LINE
  5
5BA
100
AcDbEntity
  8
ASSI
100
AcDbLine
 62
253
  6
CONTINUOUS
 10
10.8261312214
 20
1.0205101063
 11
10.8269237099
 21
-1.0377510132
  0
LINE
  5
5BB
100
AcDbEntity
  8
RACCORDO
100
AcDbLine
 62
253
  6
CONTINUOUS
 10
10.8247474511
 20
7.9191253555
 11
10.825888085
 21
1.7632853454
  0
LINE
  5
5BC
100
AcDbEntity
  8
ASSI
100
AcDbLine
 62
253
  6
CONTINUOUS
 10
10.8247474511
 20
7.9191253555
 11
10.825888085
 21
1.7632853454
  0
LINE
  5
5BD
100
AcDbEntity
  8
DRAFT
100
AcDbLine
 62
7
  6
CONTINUOUS
 10
10.4190096612
 20
-1.7256789935
 11
10.4190096612
 21
-4.1907688636
  0
LINE
  5
5BE
100
AcDbEntity
  8
ASSI
100
AcDbLine
 62
7
  6
CONTINUOUS
 10
10.4190096612
 20
-1.7256789935
 11
10.4190096612
 21
-4.1907688636
  0
LINE
  5
5BF
100
AcDbEntity
  8
DRAFT
100
AcDbLine
 62
7
  6
CONTINUOUS
 10
11.1771175054
 20
1.7068659416
 11
11.1771175054
 21
1.0766862013
  0
LINE
  5
5C0
100
AcDbEntity
  8
ASSI
100
AcDbLine
 62
7
  6
CONTINUOUS
 10
11.1771175054
 20
1.7068659416
 11
11.1771175054
 21
1.0766862013
  0
LINE
  5
5C1
100
AcDbEntity
  8
DRAFT
100
AcDbLine
 62
7
  6
CONTINUOUS
 10
11.1771175054
 20
-6.1931340584
 11
11.1771175054
 21
-6.8233137987
  0
LINE
  5
5C2
100
AcDbEntity
  8
ASSI
100
AcDbLine
 62
7
  6
CONTINUOUS
 10
11.1771175054
 20
-6.1931340584
 11
11.1771175054
 21
-6.8233137987
  0
LINE
  5
5C3
100
AcDbEntity
  8
DRAFT
100
AcDbLine
 62
7
  6
CONTINUOUS
 10
11.1840995313
 20
-1.1001160844
 11
11.1840995313
 21
-1.7256789935
  0
LINE
  5
5C4
100
AcDbEntity
  8
ASSI
100
AcDbLine
 62
7
  6
CONTINUOUS
 10
11.1840995313
 20
-1.1001160844
 11
11.1840995313
 21
-1.7256789935
  0
LINE
  5
5C5
100
AcDbEntity
  8
DRAFT
100
AcDbLine
 62
7
  6
CONTINUOUS
 10
11.1840995313
 20
-4.1907688636
 11
11.1840995313
 21
-4.8163317727
  0
LINE
  5
5C6
100
AcDbEntity
  8
ASSI
100
AcDbLine
 62
7
  6
CONTINUOUS
 10
11.1840995313
 20
-4.1907688636
 11
11.1840995313
 21
-4.8163317727
  0
LINE
  5
5C7
100
AcDbEntity
  8
RACCORDO
100
AcDbLine
 62
7
  6
CONTINUOUS
 10
11.1875905443
 20
-7.9634575594
 11
11.1875905443
 21
-9.3512456332
  0
LINE
  5
5C8
100
AcDbEntity
  8
ASSI
100
AcDbLine
 62
7
  6
CONTINUOUS
 10
11.1875905443
 20
-7.9634575594
 11
11.1875905443
 21
-9.3512456332
  0
LINE
  5
5C9
100
AcDbEntity
  8
RACCORDO
100
AcDbLine
 62
7
  6
CONTINUOUS
 10
11.1945725703
 20
8.1842200556
 11
11.1945725703
 21
7.9941412662
  0
LINE
  5
5CA
100
AcDbEntity
  8
ASSI
100
AcDbLine
 62
7
  6
CONTINUOUS
 10
11.1945725703
 20
8.1842200556
 11
11.1945725703
 21
7.9941412662
  0
LINE
  5
5CB
100
AcDbEntity
  8
DRAFT
100
AcDbLine
 62
7
  6
CONTINUOUS
 10
11.2015545963
 20
7.8824288507
 11
11.2015545963
 21
-1.7082239285
  0
LINE
  5
5CC
100
AcDbEntity
  8
ASSI
100
AcDbLine
 62
7
  6
CONTINUOUS
 10
11.2015545963
 20
7.8824288507
 11
11.2015545963
 21
-1.7082239285
  0
LINE
  5
5CD
100
AcDbEntity
  8
DRAFT
100
AcDbLine
 62
7
  6
CONTINUOUS
 10
11.1876033409
 20
-9.3512488321
 11
11.1970470104
 21
-4.2037163427
  0
LINE
  5
5CE
100
AcDbEntity
  8
ASSI
100
AcDbLine
 62
7
  6
CONTINUOUS
 10
11.1876033409
 20
-9.3512488321
 11
11.1970470104
 21
-4.2037163427
  0
LINE
  5
5CF
100
AcDbEntity
  8
RACCORDO
100
AcDbLine
 62
7
  6
CONTINUOUS
 10
11.1288255104
 20
-4.8716057936
 11
11.1840995313
 21
-4.8163317727
  0
LINE
  5
5D0
100
AcDbEntity
  8
ASSI
100
AcDbLine
 62
7
  6
CONTINUOUS
 10
11.1288255104
 20
-4.8716057936
 11
11.1840995313
 21
-4.8163317727
  0
LINE
  5
5D1
100
AcDbEntity
  8
RACCORDO
100
AcDbLine
 62
7
  6
CONTINUOUS
 10
7.5566997259
 20
7.9366309418
 11
7.5742053122
 21
7.9191253555
  0
LINE
  5
5D2
100
AcDbEntity
  8
ASSI
100
AcDbLine
 62
7
  6
CONTINUOUS
 10
7.5566997259
 20
7.9366309418
 11
7.5742053122
 21
7.9191253555
  0
LINE
  5
5D3
100
AcDbEntity
  8
RACCORDO
100
AcDbLine
 62
7
  6
CONTINUOUS
 10
12.2945725703
 20
8.8848321217
 11
12.2945725703
 21
8.1842200556
  0
LINE
  5
5D4
100
AcDbEntity
  8
ASSI
100
AcDbLine
 62
7
  6
CONTINUOUS
 10
12.2945725703
 20
8.8848321217
 11
12.2945725703
 21
8.1842200556
  0
LINE
  5
5D5
100
AcDbEntity
  8
DRAFT
100
AcDbLine
 62
7
  6
CONTINUOUS
 10
12.3015545963
 20
7.8824288507
 11
12.3015545963
 21
-1.7467323652
  0
LINE
  5
5D6
100
AcDbEntity
  8
ASSI
100
AcDbLine
 62
7
  6
CONTINUOUS
 10
12.3015545963
 20
7.8824288507
 11
12.3015545963
 21
-1.7467323652
  0
LINE
  5
5D7
100
AcDbEntity
  8
DRAFT
100
AcDbLine
 62
7
  6
CONTINUOUS
 10
11.5015545963
 20
-1.7082239285
 11
11.4970470104
 21
-4.2037163427
  0
LINE
  5
5D8
100
AcDbEntity
  8
ASSI
100
AcDbLine
 62
7
  6
CONTINUOUS
 10
11.5015545963
 20
-1.7082239285
 11
11.4970470104
 21
-4.2037163427
  0
LINE
  5
5D9
100
AcDbEntity
  8
RACCORDO
100
AcDbLine
 62
7
  6
CONTINUOUS
 10
12.2880615185
 20
-9.1015064601
 11
12.3015545963
 21
-1.7467323652
  0
LINE
  5
5DA
100
AcDbEntity
  8
ASSI
100
AcDbLine
 62
7
  6
CONTINUOUS
 10
12.2880615185
 20
-9.1015064601
 11
12.3015545963
 21
-1.7467323652
  0
LINE
  5
5DB
100
AcDbEntity
  8
RACCORDO
100
AcDbLine
 62
7
  6
CONTINUOUS
 10
9.8342815481
 20
-6.8754969767
 11
9.8813195965
 21
-6.8284589283
  0
LINE
  5
5DC
100
AcDbEntity
  8
ASSI
100
AcDbLine
 62
7
  6
CONTINUOUS
 10
9.8342815481
 20
-6.8754969767
 11
9.8813195965
 21
-6.8284589283
  0
LINE
  5
5DD
100
AcDbEntity
  8
RACCORDO
100
AcDbLine
 62
7
  6
CONTINUOUS
 10
11.1300798575
 20
-6.8703514465
 11
11.1771175054
 21
-6.8233137987
  0
LINE
  5
5DE
100
AcDbEntity
  8
ASSI
100
AcDbLine
 62
7
  6
CONTINUOUS
 10
11.1300798575
 20
-6.8703514465
 11
11.1771175054
 21
-6.8233137987
  0
LINE
  5
5DF
100
AcDbEntity
  8
RACCORDO
100
AcDbLine
 62
7
  6
CONTINUOUS
 10
11.2015545963
 20
7.8824288507
 11
11.1997176999
 21
7.8842657471
  0
LINE
  5
5E0
100
AcDbEntity
  8
ASSI
100
AcDbLine
 62
7
  6
CONTINUOUS
 10
11.2015545963
 20
7.8824288507
 11
11.1997176999
 21
7.8842657471
  0
ARC
  5
5E1
100
AcDbEntity
  8
RACCORDO
100
AcDbCircle
 62
253
  6
CONTINUOUS
 10
-5.493363619
 20
-6.6531421436
 40
0.3000638606
100
AcDbArc
 50
0.0208199654
 51
89.9791799927
  0
ARC
  5
5E2
100
AcDbEntity
  8
RACCORDO
100
AcDbCircle
 62
253
  6
CONTINUOUS
 10
-5.7035271885
 20
-6.6531421436
 40
0.3000638606
100
AcDbArc
 50
90.0208200089
 51
179.979180033
  0
ARC
  5
5E3
100
AcDbEntity
  8
ASSI
100
AcDbCircle
 62
253
  6
CONTINUOUS
 10
-5.493363619
 20
-6.6531421436
 40
0.3000638606
100
AcDbArc
 50
0.0208199654
 51
89.9791799927
  0
ARC
  5
5E4
100
AcDbEntity
  8
ASSI
100
AcDbCircle
 62
253
  6
CONTINUOUS
 10
-5.7035271885
 20
-6.6531421436
 40
0.3000638606
100
AcDbArc
 50
90.0208200089
 51
179.979180033
  0
ARC
  5
5E5
100
AcDbEntity
  8
RACCORDO
100
AcDbCircle
 62
7
  6
CONTINUOUS
 10
-5.4633591636
 20
-6.6229254568
 40
0.299799876
100
AcDbArc
 50
359.9317072534
 51
89.9903350117
  0
ARC
  5
5E6
100
AcDbEntity
  8
RACCORDO
100
AcDbCircle
 62
7
  6
CONTINUOUS
 10
-5.7335316441
 20
-6.622925456
 40
0.2997998758
100
AcDbArc
 50
90.0096649437
 51
180.0682929024
  0
ARC
  5
5E7
100
AcDbEntity
  8
ASSI
100
AcDbCircle
 62
7
  6
CONTINUOUS
 10
-5.4633591636
 20
-6.6229254568
 40
0.299799876
100
AcDbArc
 50
359.9317072534
 51
89.9903350117
  0
ARC
  5
5E8
100
AcDbEntity
  8
ASSI
100
AcDbCircle
 62
7
  6
CONTINUOUS
 10
-5.7335316441
 20
-6.622925456
 40
0.2997998758
100
AcDbArc
 50
90.0096649437
 51
180.0682929024
  0
ARC
  5
5E9
100
AcDbEntity
  8
0
100
AcDbCircle
 62
7
  6
CONTINUOUS
 10
-0.9549875419
 20
-0.9170242084
 40
0.2228893261
100
AcDbArc
 50
140.7847405624
 51
146.0215768877
  0
ARC
  5
5EA
100
AcDbEntity
  8
ASSI
100
AcDbCircle
 62
7
  6
CONTINUOUS
 10
-0.9549875419
 20
-0.9170242084
 40
0.2228893261
100
AcDbArc
 50
140.7847405624
 51
146.0215768877
  0
ARC
  5
5EB
100
AcDbEntity
  8
ASSI
100
AcDbCircle
 62
7
  6
CONTINUOUS
 10
-0.9698889616
 20
-0.9069673831
 40
0.2049117874
100
AcDbArc
 50
146.0247890675
 51
151.8600118649
  0
ARC
  5
5EC
100
AcDbEntity
  8
ASSI
100
AcDbCircle
 62
7
  6
CONTINUOUS
 10
-0.9803719091
 20
-0.901327818
 40
0.1930081747
100
AcDbArc
 50
151.8685943696
 51
158.2386669592
  0
ARC
  5
5ED
100
AcDbEntity
  8
RACCORDO
100
AcDbCircle
 62
253
  6
CONTINUOUS
 10
-46.908551589
 20
4.957591165
 40
53.9723683883
100
AcDbArc
 50
359.9756666866
 51
0.3509927801
  0
ARC
  5
5EE
100
AcDbEntity
  8
RACCORDO
100
AcDbCircle
 62
253
  6
CONTINUOUS
 10
-61.2085515887
 20
4.9575911632
 40
53.9723683881
100
AcDbArc
 50
359.9756666885
 51
0.350992782
  0
ARC
  5
5EF
100
AcDbEntity
  8
ASSI
100
AcDbCircle
 62
253
  6
CONTINUOUS
 10
-46.908551589
 20
4.957591165
 40
53.9723683883
100
AcDbArc
 50
359.9756666866
 51
0.3509927801
  0
ARC
  5
5F0
100
AcDbEntity
  8
ASSI
100
AcDbCircle
 62
253
  6
CONTINUOUS
 10
-61.2085515887
 20
4.9575911632
 40
53.9723683881
100
AcDbArc
 50
359.9756666885
 51
0.350992782
  0
ARC
  5
5F1
100
AcDbEntity
  8
RACCORDO
100
AcDbCircle
 62
253
  6
CONTINUOUS
 10
-7.0573885778
 20
3.3507192455
 40
0.3000638408
100
AcDbArc
 50
270.0208162411
 51
359.9791837589
  0
ARC
  5
5F2
100
AcDbEntity
  8
ASSI
100
AcDbCircle
 62
253
  6
CONTINUOUS
 10
-7.0573885778
 20
3.3507192455
 40
0.3000638408
100
AcDbArc
 50
270.0208162411
 51
359.9791837589
  0
ARC
  5
5F3
100
AcDbEntity
  8
RACCORDO
100
AcDbCircle
 62
253
  6
CONTINUOUS
 10
-7.2395022634
 20
3.3507192117
 40
0.3000638385
100
AcDbArc
 50
180.0208097933
 51
269.9791901905
  0
ARC
  5
5F4
100
AcDbEntity
  8
ASSI
100
AcDbCircle
 62
253
  6
CONTINUOUS
 10
-7.2395022634
 20
3.3507192117
 40
0.3000638385
100
AcDbArc
 50
180.0208097933
 51
269.9791901905
  0
ARC
  5
5F5
100
AcDbEntity
  8
RACCORDO
100
AcDbCircle
 62
7
  6
CONTINUOUS
 10
-7.0264849218
 20
3.31989867
 40
0.299988256
100
AcDbArc
 50
269.9912782382
 51
359.9782893823
  0
ARC
  5
5F6
100
AcDbEntity
  8
RACCORDO
100
AcDbCircle
 62
7
  6
CONTINUOUS
 10
-7.2704058817
 20
3.3198986661
 40
0.299988256
100
AcDbArc
 50
180.0217098732
 51
270.0087210181
  0
ARC
  5
5F7
100
AcDbEntity
  8
ASSI
100
AcDbCircle
 62
7
  6
CONTINUOUS
 10
-7.0264849218
 20
3.31989867
 40
0.299988256
100
AcDbArc
 50
269.9912782382
 51
359.9782893823
  0
ARC
  5
5F8
100
AcDbEntity
  8
ASSI
100
AcDbCircle
 62
7
  6
CONTINUOUS
 10
-7.2704058817
 20
3.3198986661
 40
0.299988256
100
AcDbArc
 50
180.0217098732
 51
270.0087210181
  0
ARC
  5
5F9
100
AcDbEntity
  8
RACCORDO
100
AcDbCircle
 62
253
  6
CONTINUOUS
 10
5.706636381
 20
-6.6531421436
 40
0.3000638606
100
AcDbArc
 50
0.0208199654
 51
89.9791799927
  0
ARC
  5
5FA
100
AcDbEntity
  8
RACCORDO
100
AcDbCircle
 62
253
  6
CONTINUOUS
 10
5.4964728115
 20
-6.6531421436
 40
0.3000638606
100
AcDbArc
 50
90.0208200089
 51
179.979180033
  0
ARC
  5
5FB
100
AcDbEntity
  8
ASSI
100
AcDbCircle
 62
253
  6
CONTINUOUS
 10
5.706636381
 20
-6.6531421436
 40
0.3000638606
100
AcDbArc
 50
0.0208199654
 51
89.9791799927
  0
ARC
  5
5FC
100
AcDbEntity
  8
ASSI
100
AcDbCircle
 62
253
  6
CONTINUOUS
 10
5.4964728115
 20
-6.6531421436
 40
0.3000638606
100
AcDbArc
 50
90.0208200089
 51
179.979180033
  0
ARC
  5
5FD
100
AcDbEntity
  8
RACCORDO
100
AcDbCircle
 62
7
  6
CONTINUOUS
 10
5.7366408364
 20
-6.6229254569
 40
0.2997998761
100
AcDbArc
 50
359.931707257
 51
89.9903350081
  0
ARC
  5
5FE
100
AcDbEntity
  8
RACCORDO
100
AcDbCircle
 62
7
  6
CONTINUOUS
 10
5.466468356
 20
-6.6229254561
 40
0.2997998759
100
AcDbArc
 50
90.0096649515
 51
180.0682928946
  0
ARC
  5
5FF
100
AcDbEntity
  8
ASSI
100
AcDbCircle
 62
7
  6
CONTINUOUS
 10
5.7366408364
 20
-6.6229254569
 40
0.2997998761
100
AcDbArc
 50
359.931707257
 51
89.9903350081
  0
ARC
  5
600
100
AcDbEntity
  8
ASSI
100
AcDbCircle
 62
7
  6
CONTINUOUS
 10
5.466468356
 20
-6.6229254561
 40
0.2997998759
100
AcDbArc
 50
90.0096649515
 51
180.0682928946
  0
ARC
  5
601
100
AcDbEntity
  8
RACCORDO
100
AcDbCircle
 62
253
  6
CONTINUOUS
 10
61.2116594437
 20
4.9575911766
 40
53.9723670504
100
AcDbArc
 50
179.6490072234
 51
180.0243333263
  0
ARC
  5
602
100
AcDbEntity
  8
RACCORDO
100
AcDbCircle
 62
253
  6
CONTINUOUS
 10
46.9116594436
 20
4.9575911771
 40
53.9723670503
100
AcDbArc
 50
179.649007224
 51
180.0243333268
  0
ARC
  5
603
100
AcDbEntity
  8
ASSI
100
AcDbCircle
 62
253
  6
CONTINUOUS
 10
61.2116594437
 20
4.9575911766
 40
53.9723670504
100
AcDbArc
 50
179.6490072234
 51
180.0243333263
  0
ARC
  5
604
100
AcDbEntity
  8
ASSI
100
AcDbCircle
 62
253
  6
CONTINUOUS
 10
46.9116594436
 20
4.9575911771
 40
53.9723670503
100
AcDbArc
 50
179.649007224
 51
180.0243333268
  0
CIRCLE
  5
605
100
AcDbEntity
  8
0
100
AcDbCircle
 62
7
  6
CONTINUOUS
 10
0.0015545963
 20
4.7417760715
 40
1.1
  0
CIRCLE
  5
606
100
AcDbEntity
  8
0
100
AcDbCircle
 62
7
  6
CONTINUOUS
 10
0.0015545963
 20
4.7417760715
 40
0.9
  0
ARC
  5
607
100
AcDbEntity
  8
RACCORDO
100
AcDbCircle
 62
253
  6
CONTINUOUS
 10
7.2426114222
 20
3.3507192455
 40
0.3000638408
100
AcDbArc
 50
270.0208162411
 51
359.9791837589
  0
ARC
  5
608
100
AcDbEntity
  8
ASSI
100
AcDbCircle
 62
253
  6
CONTINUOUS
 10
7.2426114222
 20
3.3507192455
 40
0.3000638408
100
AcDbArc
 50
270.0208162411
 51
359.9791837589
  0
ARC
  5
609
100
AcDbEntity
  8
RACCORDO
100
AcDbCircle
 62
253
  6
CONTINUOUS
 10
7.0604977366
 20
3.3507192117
 40
0.3000638385
100
AcDbArc
 50
180.0208097933
 51
269.9791901905
  0
ARC
  5
60A
100
AcDbEntity
  8
ASSI
100
AcDbCircle
 62
253
  6
CONTINUOUS
 10
7.0604977366
 20
3.3507192117
 40
0.3000638385
100
AcDbArc
 50
180.0208097933
 51
269.9791901905
  0
ARC
  5
60B
100
AcDbEntity
  8
RACCORDO
100
AcDbCircle
 62
7
  6
CONTINUOUS
 10
7.0295941183
 20
3.3198986661
 40
0.299988256
100
AcDbArc
 50
180.0217098746
 51
270.0087210168
  0
ARC
  5
60C
100
AcDbEntity
  8
RACCORDO
100
AcDbCircle
 62
7
  6
CONTINUOUS
 10
7.2735150782
 20
3.31989867
 40
0.299988256
100
AcDbArc
 50
269.9912782302
 51
359.9782893903
  0
ARC
  5
60D
100
AcDbEntity
  8
ASSI
100
AcDbCircle
 62
7
  6
CONTINUOUS
 10
7.0295941183
 20
3.3198986661
 40
0.299988256
100
AcDbArc
 50
180.0217098746
 51
270.0087210168
  0
ARC
  5
60E
100
AcDbEntity
  8
ASSI
100
AcDbCircle
 62
7
  6
CONTINUOUS
 10
7.2735150782
 20
3.31989867
 40
0.299988256
100
AcDbArc
 50
269.9912782302
 51
359.9782893903
  0
SPLINE
  5
60F
100
AcDbEntity
  8
0
100
AcDbSpline
 62
7
  6
CONTINUOUS
 70
0
 71
3
 72
9
 73
5
 74
3
 42
0.0000001
 43
0.0000001
 44
0.0000000001
 12
-0.0094537596
 22
0.4232572779
 32
0.0
 13
-0.4233861002
 23
-0.0063259668
 33
0.0
 40
0.0
 40
0.0
 40
0.0
 40
0.0
 40
0.479537544
 40
1.0
 40
1.0
 40
1.0
 40
1.0
 10
-1.3097735722
 20
-1.1976017841
 30
0.0
 10
-1.3112847165
 20
-1.1299458656
 30
0.0
 10
-1.339906488
 20
-0.9728037892
 30
0.0
 10
-1.5003394346
 20
-0.9208718495
 30
0.0
 10
-1.5737916244
 20
-0.9219693256
 30
0.0
 11
-1.3097735722
 21
-1.1976017841
 31
0.0
 11
-1.3690459488
 21
-1.003428544
 31
0.0
 11
-1.5737916244
 21
-0.9219693256
 31
0.0
  0
SPLINE
  5
610
100
AcDbEntity
  8
0
100
AcDbSpline
 62
7
  6
CONTINUOUS
 70
0
 71
3
 72
9
 73
5
 74
3
 42
0.0000001
 43
0.0000001
 44
0.0000000001
 12
-0.3133621804
 22
-0.004682097
 32
0.0
 13
-0.0361338581
 23
-0.3113313547
 33
0.0
 40
0.0
 40
0.0
 40
0.0
 40
0.0
 40
0.4988583522
 40
1.0
 40
1.0
 40
1.0
 40
1.0
 10
-1.5737916246
 20
-0.9219693109
 30
0.0
 10
-1.625899405
 20
-0.9227478786
 30
0.0
 10
-1.7345733622
 20
-0.9651724257
 30
0.0
 10
-1.780390506
 20
-1.070408671
 30
0.0
 10
-1.7864265664
 20
-1.122415707
 30
0.0
 11
-1.5737916246
 21
-0.9219693109
 31
0.0
 11
-1.7186827025
 21
-0.9807068555
 31
0.0
 11
-1.7864265664
 21
-1.122415707
 31
0.0
  0
SPLINE
  5
611
100
AcDbEntity
  8
0
100
AcDbSpline
 62
7
  6
CONTINUOUS
 70
0
 71
3
 72
9
 73
5
 74
3
 42
0.0000001
 43
0.0000001
 44
0.0000000001
 12
-0.0321345863
 22
-0.2768734098
 32
0.0
 13
0.0468836161
 23
-0.2747605688
 33
0.0
 40
0.0
 40
0.0
 40
0.0
 40
0.0
 40
0.7295958321
 40
1.0
 40
1.0
 40
1.0
 40
1.0
 10
-1.7864265662
 20
-1.1224157071
 30
0.0
 10
-1.794241653
 20
-1.1897509357
 30
0.0
 10
-1.7945429009
 20
-1.2837436243
 30
0.0
 10
-1.7806448964
 20
-1.3756170293
 30
0.0
 10
-1.7764190547
 20
-1.4003824969
 30
0.0
 11
-1.7864265662
 21
-1.1224157071
 31
0.0
 11
-1.7871228263
 21
-1.3257761673
 31
0.0
 11
-1.7764190547
 21
-1.4003824969
 31
0.0
  0
SPLINE
  5
612
100
AcDbEntity
  8
0
100
AcDbSpline
 62
7
  6
CONTINUOUS
 70
0
 71
3
 72
9
 73
5
 74
3
 42
0.0000001
 43
0.0000001
 44
0.0000000001
 12
-0.128341011
 22
0.8723735981
 32
0.0
 13
0.2997650463
 23
0.8292493193
 33
0.0
 40
0.0
 40
0.0
 40
0.0
 40
0.0
 40
0.7041528059
 40
1.0
 40
1.0
 40
1.0
 40
1.0
 10
-2.0461474859
 20
-1.7420172646
 30
0.0
 10
-2.0762713802
 20
-1.5372558257
 30
0.0
 10
-2.1059235817
 20
-1.2418614998
 30
0.0
 10
-2.0577672644
 20
-0.9480088003
 30
0.0
 10
-2.0282057152
 20
-0.8662317721
 30
0.0
 11
-2.0461474859
 21
-1.7420172646
 31
0.0
 11
-2.0794508528
 21
-1.1220147253
 31
0.0
 11
-2.0282057152
 21
-0.8662317721
 31
0.0
  0
SPLINE
  5
613
100
AcDbEntity
  8
0
100
AcDbSpline
 62
7
  6
CONTINUOUS
 70
0
 71
3
 72
20
 73
16
 74
14
 42
0.0000001
 43
0.0000001
 44
0.0000000001
 12
0.3602221359
 22
0.9969834579
 32
0.0
 13
0.1356584285
 23
-1.0513528212
 33
0.0
 40
0.0
 40
0.0
 40
0.0
 40
0.0
 40
0.079756987
 40
0.1893481532
 40
0.2529748389
 40
0.3223669702
 40
0.3985017405
 40
0.4831988921
 40
0.5372476303
 40
0.5875584989
 40
0.6787382851
 40
0.7596505358
 40
0.8314106377
 40
0.9440765302
 40
1.0
 40
1.0
 40
1.0
 40
1.0
 10
-2.0282057531
 20
-0.8662317568
 30
0.0
 10
-2.0186290091
 20
-0.8397262913
 30
0.0
 10
-1.9859693873
 20
-0.7804857387
 30
0.0
 10
-1.9262737534
 20
-0.7127200991
 30
0.0
 10
-1.8575121607
 20
-0.6610132811
 30
0.0
 10
-1.7919143241
 20
-0.6262480174
 30
0.0
 10
-1.7142598046
 20
-0.6006737583
 30
0.0
 10
-1.6387303842
 20
-0.5897792569
 30
0.0
 10
-1.5718440458
 20
-0.5885903848
 30
0.0
 10
-1.502879499
 20
-0.5939778447
 30
0.0
 10
-1.4256247926
 20
-0.6114010171
 30
0.0
 10
-1.3465337607
 20
-0.6463018576
 30
0.0
 10
-1.2672794713
 20
-0.6983574693
 30
0.0
 10
-1.211467602
 20
-0.7603698658
 30
0.0
 10
-1.1721991325
 20
-0.8101733132
 30
0.0
 10
-1.1696703025
 20
-0.8297717458
 30
0.0
 11
-2.0282057531
 21
-0.8662317568
 31
0.0
 11
-1.9889823627
 21
-0.7913313015
 31
0.0
 11
-1.9121373254
 21
-0.7042033458
 31
0.0
 11
-1.8582267932
 21
-0.6636696899
 31
0.0
 11
-1.7932460106
 21
-0.6291930928
 31
0.0
 11
-1.7166362966
 21
-0.6038011876
 31
0.0
 11
-1.6278389699
 21
-0.5905216075
 31
0.0
 11
-1.5705524443
 21
-0.5895141455
 31
0.0
 11
-1.5173887684
 21
-0.5937604141
 31
0.0
 11
-1.4231704927
 21
-0.6153350139
 31
0.0
 11
-1.3446651967
 21
-0.6498871475
 31
0.0
 11
-1.2813539344
 21
-0.6920585555
 31
0.0
 11
-1.198237727
 21
-0.7778261577
 31
0.0
 11
-1.1696703025
 21
-0.8297717458
 31
0.0
  0
SPLINE
  5
614
100
AcDbEntity
  8
0
100
AcDbSpline
 62
7
  6
CONTINUOUS
 70
0
 71
3
 72
8
 73
4
 74
2
 42
0.0000001
 43
0.0000001
 44
0.0000000001
 12
0.0158042388
 22
0.0396344546
 32
0.0
 13
0.0235835294
 23
0.0350454229
 33
0.0
 40
0.0
 40
0.0
 40
0.0
 40
0.0
 40
1.0
 40
1.0
 40
1.0
 40
1.0
 10
-1.1596255953
 20
-0.8297717458
 30
0.0
 10
-1.1543575158
 20
-0.8165602609
 30
0.0
 10
-1.1476792684
 20
-0.8041374827
 30
0.0
 10
-1.1398180919
 20
-0.792455675
 30
0.0
 11
-1.1596255953
 21
-0.8297717458
 31
0.0
 11
-1.1398180919
 21
-0.792455675
 31
0.0
  0
SPLINE
  5
615
100
AcDbEntity
  8
0
100
AcDbSpline
 62
7
  6
CONTINUOUS
 70
0
 71
3
 72
9
 73
5
 74
3
 42
0.0000001
 43
0.0000001
 44
0.0000000001
 12
0.2092440046
 22
0.2567965258
 32
0.0
 13
0.3209543859
 23
0.0874412864
 33
0.0
 40
0.0
 40
0.0
 40
0.0
 40
0.0
 40
0.7111552999
 40
1.0
 40
1.0
 40
1.0
 40
1.0
 10
-1.1276768725
 20
-0.7761056261
 30
0.0
 10
-1.0780752115
 20
-0.715231556
 30
0.0
 10
-0.9619240557
 20
-0.6606660484
 30
0.0
 10
-0.8570910271
 20
-0.6336537457
 30
0.0
 10
-0.826189036
 20
-0.6252347617
 30
0.0
 11
-1.1276768725
 21
-0.7761056261
 31
0.0
 11
-0.9185962421
 21
-0.6515572653
 31
0.0
 11
-0.826189036
 21
-0.6252347617
 31
0.0
  0
SPLINE
  5
616
100
AcDbEntity
  8
0
100
AcDbSpline
 62
7
  6
CONTINUOUS
 70
0
 71
3
 72
9
 73
5
 74
3
 42
0.0000001
 43
0.0000001
 44
0.0000000001
 12
0.4590342986
 22
0.125059974
 32
0.0
 13
0.4591324757
 23
0.1246990799
 33
0.0
 40
0.0
 40
0.0
 40
0.0
 40
0.0
 40
0.8019701206
 40
1.0
 40
1.0
 40
1.0
 40
1.0
 10
-0.8261890361
 20
-0.6252347614
 30
0.0
 10
-0.7034784388
 20
-0.5918033073
 30
0.0
 10
-0.5498401948
 20
-0.5524604786
 30
0.0
 10
-0.3964520333
 20
-0.5121747513
 30
0.0
 10
-0.366144717
 20
-0.5039433701
 30
0.0
 11
-0.8261890361
 21
-0.6252347614
 31
0.0
 11
-0.4572127187
 21
-0.5280933302
 31
0.0
 11
-0.366144717
 21
-0.5039433701
 31
0.0
  0
SPLINE
  5
617
100
AcDbEntity
  8
0
100
AcDbSpline
 62
7
  6
CONTINUOUS
 70
0
 71
3
 72
9
 73
5
 74
3
 42
0.0000001
 43
0.0000001
 44
0.0000000001
 12
-0.5174692086
 22
-0.1487744753
 32
0.0
 13
-0.5040219036
 23
-0.1893972716
 33
0.0
 40
0.0
 40
0.0
 40
0.0
 40
0.0
 40
0.4412847493
 40
1.0
 40
1.0
 40
1.0
 40
1.0
 10
-0.366144717
 20
-0.8452467134
 30
0.0
 10
-0.442261807
 20
-0.8671306824
 30
0.0
 10
-0.6140444435
 20
-0.9188026026
 30
0.0
 10
-0.7878377193
 20
-0.9651715091
 30
0.0
 10
-0.8817059607
 20
-1.0004445571
 30
0.0
 11
-0.366144717
 21
-0.8452467134
 31
0.0
 11
-0.5942634586
 21
-0.9117020754
 31
0.0
 11
-0.8817059607
 21
-1.0004445571
 31
0.0
  0
SPLINE
  5
618
100
AcDbEntity
  8
0
100
AcDbSpline
 62
7
  6
CONTINUOUS
 70
0
 71
3
 72
9
 73
5
 74
3
 42
0.0000001
 43
0.0000001
 44
0.0000000001
 12
-0.243894777
 22
-0.0916489686
 32
0.0
 13
-0.0
 23
-0.2605161169
 33
0.0
 40
0.0
 40
0.0
 40
0.0
 40
0.0
 40
0.6439294634
 40
1.0
 40
1.0
 40
1.0
 40
1.0
 10
-0.8817059677
 20
-1.0004445384
 30
0.0
 10
-0.934056312
 20
-1.0201163621
 30
0.0
 10
-1.0126618748
 20
-1.078534394
 30
0.0
 10
-1.0313771196
 20
-1.167445905
 30
0.0
 10
-1.0313771196
 20
-1.1983666095
 30
0.0
 11
-0.8817059677
 21
-1.0004445384
 31
0.0
 11
-1.0104559576
 21
-1.1079945193
 31
0.0
 11
-1.0313771196
 21
-1.1983666095
 31
0.0
  0
SPLINE
  5
619
100
AcDbEntity
  8
RACCORDO
100
AcDbSpline
 62
7
  6
CONTINUOUS
 70
0
 71
3
 72
10
 73
6
 74
4
 42
0.0000001
 43
0.0000001
 44
0.0000000001
 12
-0.1883407282
 22
0.1821744696
 32
0.0
 13
-0.1853866385
 23
0.1851798087
 33
0.0
 40
0.0
 40
0.0
 40
0.0
 40
0.0
 40
0.2861514979
 40
0.6199988295
 40
1.0
 40
1.0
 40
1.0
 40
1.0
 10
11.017149739
 20
-7.5817692099
 30
0.0
 10
10.9991850785
 20
-7.5643927107
 30
0.0
 10
10.9604014795
 20
-7.5265985231
 30
0.0
 10
10.898171562
 20
-7.4653094479
 30
0.0
 10
10.8539583415
 20
-7.4213464937
 30
0.0
 10
10.8304759616
 20
-7.3978903123
 30
0.0
 11
11.017149739
 21
-7.5817692099
 31
0.0
 11
10.9634279017
 21
-7.5294623276
 31
0.0
 11
10.9010895358
 21
-7.4680918409
 31
0.0
 11
10.8304759616
 21
-7.3978903123
 31
0.0
  0
SPLINE
  5
61A
100
AcDbEntity
  8
RACCORDO
100
AcDbSpline
 62
7
  6
CONTINUOUS
 70
0
 71
3
 72
10
 73
6
 74
4
 42
0.0000001
 43
0.0000001
 44
0.0000000001
 12
0.1932351421
 22
0.1319011105
 32
0.0
 13
0.0048001619
 23
0.233911696
 33
0.0
 40
0.0
 40
0.0
 40
0.0
 40
0.0
 40
0.3395046921
 40
0.6724952268
 40
1.0
 40
1.0
 40
1.0
 40
1.0
 10
11.017149739
 20
-7.5817692099
 30
0.0
 10
11.0390178182
 20
-7.5668421946
 30
0.0
 10
11.0786005082
 20
-7.5311955763
 30
0.0
 10
11.1193986953
 20
-7.4633050546
 30
0.0
 10
11.1299062448
 20
-7.4115735797
 30
0.0
 10
11.1304302701
 20
-7.3860378473
 30
0.0
 11
11.017149739
 21
-7.5817692099
 31
0.0
 11
11.07588829
 21
-7.528299212
 31
0.0
 11
11.1154440863
 21
-7.4611813656
 31
0.0
 11
11.1304302701
 21
-7.3860378473
 31
0.0
  0
SPLINE
  5
61B
100
AcDbEntity
  8
RACCORDO
100
AcDbSpline
 62
7
  6
CONTINUOUS
 70
0
 71
3
 72
10
 73
6
 74
4
 42
0.0000001
 43
0.0000001
 44
0.0000000001
 12
0.2111534819
 22
0.0378729015
 32
0.0
 13
0.1518156339
 23
0.1515657049
 33
0.0
 40
0.0
 40
0.0
 40
0.0
 40
0.0
 40
0.3420454831
 40
0.6747450136
 40
1.0
 40
1.0
 40
1.0
 40
1.0
 10
10.8304759602
 20
-7.6814801595
 30
0.0
 10
10.8545506585
 20
-7.6771620746
 30
0.0
 10
10.9012261291
 20
-7.6631492428
 30
0.0
 10
10.9642100114
 20
-7.628412694
 30
0.0
 10
11.0006901417
 20
-7.5982017103
 30
0.0
 10
11.017149739
 20
-7.5817692099
 30
0.0
 11
10.8304759602
 21
-7.6814801595
 31
0.0
 11
10.9007991514
 21
-7.6605330509
 31
0.0
 11
10.9634105764
 21
-7.6262732673
 31
0.0
 11
11.017149739
 21
-7.5817692099
 31
0.0
  0
SPLINE
  5
61C
100
AcDbEntity
  8
RACCORDO
100
AcDbSpline
 62
7
  6
CONTINUOUS
 70
0
 71
3
 72
11
 73
7
 74
5
 42
0.0000001
 43
0.0000001
 44
0.0000000001
 12
-0.1934720276
 22
0.1323336071
 32
0.0
 13
-0.004777495
 23
0.2343518393
 33
0.0
 40
0.0
 40
0.0
 40
0.0
 40
0.0
 40
0.2553623096
 40
0.5075354551
 40
0.7552605149
 40
1.0
 40
1.0
 40
1.0
 40
1.0
 10
-11.0140336096
 20
-7.5817758516
 30
0.0
 10
-11.0305020975
 20
-7.5705115131
 30
0.0
 10
-11.0610850577
 20
-7.5447456886
 30
0.0
 10
-11.0972750016
 20
-7.4975002037
 30
0.0
 10
-11.1209203793
 20
-7.4437007404
 30
0.0
 10
-11.1269313304
 20
-7.4051562302
 30
0.0
 10
-11.1273210776
 20
-7.3860378473
 30
0.0
 11
-11.0140336096
 21
-7.5817758516
 31
0.0
 11
-11.0596916649
 21
-7.5430691372
 31
0.0
 11
-11.0954320753
 21
-7.4959887981
 31
0.0
 11
-11.1185791966
 21
-7.4427349346
 31
0.0
 11
-11.1273210776
 21
-7.3860378473
 31
0.0
  0
SPLINE
  5
61D
100
AcDbEntity
  8
RACCORDO
100
AcDbSpline
 62
7
  6
CONTINUOUS
 70
0
 71
3
 72
10
 73
6
 74
4
 42
0.0000001
 43
0.0000001
 44
0.0000000001
 12
0.1883472662
 22
0.1821697226
 32
0.0
 13
0.1853876284
 23
0.1851807974
 33
0.0
 40
0.0
 40
0.0
 40
0.0
 40
0.0
 40
0.2877120613
 40
0.6240039224
 40
1.0
 40
1.0
 40
1.0
 40
1.0
 10
-11.0140424649
 20
-7.5817692454
 30
0.0
 10
-10.9959792049
 20
-7.5642984366
 30
0.0
 10
-10.9569449917
 20
-7.5262597582
 30
0.0
 10
-10.8947176323
 20
-7.4649674143
 30
0.0
 10
-10.8506017761
 20
-7.4210993968
 30
0.0
 10
-10.827366769
 20
-7.3978903123
 30
0.0
 11
-11.0140424649
 21
-7.5817692454
 31
0.0
 11
-10.9600272624
 21
-7.5291769207
 31
0.0
 11
-10.8972346722
 21
-7.4673541195
 31
0.0
 11
-10.827366769
 21
-7.3978903123
 31
0.0
  0
SPLINE
  5
61E
100
AcDbEntity
  8
RACCORDO
100
AcDbSpline
 62
7
  6
CONTINUOUS
 70
0
 71
3
 72
10
 73
6
 74
4
 42
0.0000001
 43
0.0000001
 44
0.0000000001
 12
-0.2113510983
 22
0.0367634485
 32
0.0
 13
-0.1528975824
 23
0.1504764673
 33
0.0
 40
0.0
 40
0.0
 40
0.0
 40
0.0
 40
0.3410974996
 40
0.6751553688
 40
1.0
 40
1.0
 40
1.0
 40
1.0
 10
-10.8273667677
 20
-7.6814801595
 30
0.0
 10
-10.8513972114
 20
-7.6773001861
 30
0.0
 10
-10.8980539608
 20
-7.663094444
 30
0.0
 10
-10.9611330842
 20
-7.6285103948
 30
0.0
 10
-10.9974864787
 20
-7.5980630696
 30
0.0
 10
-11.0140424649
 20
-7.5817692454
 30
0.0
 11
-10.8273667677
 21
-7.6814801595
 31
0.0
 11
-10.8975019795
 21
-7.6606124405
 31
0.0
 11
-10.960375171
 21
-7.6262228847
 31
0.0
 11
-11.0140424649
 21
-7.5817692454
 31
0.0
  0
SPLINE
  5
61F
100
AcDbEntity
  8
RACCORDO
100
AcDbSpline
 62
253
  6
CONTINUOUS
 70
0
 71
3
 72
12
 73
8
 74
6
 42
0.0000001
 43
0.0000001
 44
0.0000000001
 12
-0.0070145166
 22
0.4019838217
 32
0.0
 13
-0.4020297068
 23
0.0035087299
 33
0.0
 40
0.0
 40
0.0
 40
0.0
 40
0.0
 40
0.1664007688
 40
0.3475548035
 40
0.549388854
 40
0.7695487352
 40
1.0
 40
1.0
 40
1.0
 40
1.0
 10
-6.7473902502
 20
5.7831974277
 30
0.0
 10
-6.7477793239
 20
5.8054942333
 30
0.0
 10
-6.7595596565
 20
5.8523194198
 30
0.0
 10
-6.8052050073
 20
5.9120273154
 30
0.0
 10
-6.8727972779
 20
5.9583361986
 30
0.0
 10
-6.9559100142
 20
5.9879628872
 30
0.0
 10
-7.0164618073
 20
5.9950599316
 30
0.0
 10
-7.0473445588
 20
5.9953294621
 30
0.0
 11
-6.7473902502
 21
5.7831974277
 31
0.0
 11
-6.7629784145
 21
5.848256627
 31
0.0
 11
-6.8059701842
 21
5.9070462452
 31
0.0
 11
-6.8722225573
 21
5.9539008836
 31
0.0
 11
-6.9553509698
 21
5.984305286
 31
0.0
 11
-7.0473445588
 21
5.9953294621
 31
0.0
  0
SPLINE
  5
620
100
AcDbEntity
  8
RACCORDO
100
AcDbSpline
 62
253
  6
CONTINUOUS
 70
0
 71
3
 72
12
 73
8
 74
6
 42
0.0000001
 43
0.0000001
 44
0.0000000001
 12
-0.0070145118
 22
0.401983857
 32
0.0
 13
-0.402029743
 23
0.0035086199
 33
0.0
 40
0.0
 40
0.0
 40
0.0
 40
0.0
 40
0.1663980738
 40
0.3475504099
 40
0.549384185
 40
0.7695456059
 40
1.0
 40
1.0
 40
1.0
 40
1.0
 10
-6.759732845
 20
5.0760906465
 30
0.0
 10
-6.7601219121
 20
5.098387093
 30
0.0
 10
-6.7719018936
 20
5.1452116879
 30
0.0
 10
-6.8175464023
 20
5.2049194268
 30
0.0
 10
-6.8851383461
 20
5.2512287257
 30
0.0
 10
-6.9682515454
 20
5.2808559608
 30
0.0
 10
-7.0288039799
 20
5.287953155
 30
0.0
 10
-7.0596871536
 20
5.2882226807
 30
0.0
 11
-6.759732845
 21
5.0760906465
 31
0.0
 11
-6.7753205295
 21
5.1411488527
 31
0.0
 11
-6.8183114756
 21
5.199938235
 31
0.0
 11
-6.8845634523
 21
5.2467932545
 31
0.0
 11
-6.967692322
 21
5.2771982314
 31
0.0
 11
-7.0596871536
 21
5.2882226807
 31
0.0
  0
SPLINE
  5
621
100
AcDbEntity
  8
RACCORDO
100
AcDbSpline
 62
253
  6
CONTINUOUS
 70
0
 71
3
 72
12
 73
8
 74
6
 42
0.0000001
 43
0.0000001
 44
0.0000000001
 12
0.0070145165
 22
0.4019838218
 32
0.0
 13
0.4020297069
 23
0.003508728
 33
0.0
 40
0.0
 40
0.0
 40
0.0
 40
0.0
 40
0.1664007686
 40
0.3475548033
 40
0.549388854
 40
0.7695487354
 40
1.0
 40
1.0
 40
1.0
 40
1.0
 10
-7.5371579624
 20
5.0760906465
 30
0.0
 10
-7.5367688888
 20
5.0983874521
 30
0.0
 10
-7.5249885563
 20
5.1452126386
 30
0.0
 10
-7.4793432053
 20
5.2049205342
 30
0.0
 10
-7.4117509348
 20
5.2512294175
 30
0.0
 10
-7.3286381985
 20
5.2808561064
 30
0.0
 10
-7.2680864054
 20
5.2879531506
 30
0.0
 10
-7.2372036539
 20
5.2882226809
 30
0.0
 11
-7.5371579624
 21
5.0760906465
 31
0.0
 11
-7.5215697982
 21
5.1411498458
 31
0.0
 11
-7.4785780285
 21
5.1999394639
 31
0.0
 11
-7.4123256554
 21
5.2467941024
 31
0.0
 11
-7.3291972428
 21
5.2771985051
 31
0.0
 11
-7.2372036539
 21
5.2882226809
 31
0.0
  0
SPLINE
  5
622
100
AcDbEntity
  8
RACCORDO
100
AcDbSpline
 62
253
  6
CONTINUOUS
 70
0
 71
3
 72
12
 73
8
 74
6
 42
0.0000001
 43
0.0000001
 44
0.0000000001
 12
0.0070145164
 22
0.4019837961
 32
0.0
 13
0.4020296812
 23
0.0035087308
 33
0.0
 40
0.0
 40
0.0
 40
0.0
 40
0.0
 40
0.1664062852
 40
0.3475634824
 40
0.549397719
 40
0.769554416
 40
1.0
 40
1.0
 40
1.0
 40
1.0
 10
-7.5495005572
 20
5.7831974277
 30
0.0
 10
-7.5491114707
 20
5.8054949711
 30
0.0
 10
-7.5373304455
 20
5.8523213329
 30
0.0
 10
-7.4916834719
 20
5.9120295136
 30
0.0
 10
-7.4240906462
 20
5.9583375556
 30
0.0
 10
-7.3409788232
 20
5.9879631937
 30
0.0
 10
-7.2804282369
 20
5.9950599373
 30
0.0
 10
-7.2495462487
 20
5.9953294611
 30
0.0
 11
-7.5495005572
 21
5.7831974277
 31
0.0
 11
-7.5339114254
 21
5.8482586715
 31
0.0
 11
-7.4909180781
 21
5.9070487053
 31
0.0
 11
-7.4246650496
 21
5.9539025377
 31
0.0
 11
-7.341537595
 21
5.9843058154
 31
0.0
 11
-7.2495462487
 21
5.9953294611
 31
0.0
  0
SPLINE
  5
623
100
AcDbEntity
  8
RACCORDO
100
AcDbSpline
 62
253
  6
CONTINUOUS
 70
0
 71
3
 72
12
 73
8
 74
6
 42
0.0000001
 43
0.0000001
 44
0.0000000001
 12
0.0070145165
 22
0.4019838218
 32
0.0
 13
0.4020297069
 23
0.003508728
 33
0.0
 40
0.0
 40
0.0
 40
0.0
 40
0.0
 40
0.1664007686
 40
0.3475548033
 40
0.549388854
 40
0.7695487354
 40
1.0
 40
1.0
 40
1.0
 40
1.0
 10
6.7628420376
 20
5.0760906465
 30
0.0
 10
6.7632311112
 20
5.0983874521
 30
0.0
 10
6.7750114437
 20
5.1452126386
 30
0.0
 10
6.8206567947
 20
5.2049205342
 30
0.0
 10
6.8882490652
 20
5.2512294175
 30
0.0
 10
6.9713618015
 20
5.2808561064
 30
0.0
 10
7.0319135946
 20
5.2879531506
 30
0.0
 10
7.0627963461
 20
5.2882226809
 30
0.0
 11
6.7628420376
 21
5.0760906465
 31
0.0
 11
6.7784302018
 21
5.1411498458
 31
0.0
 11
6.8214219715
 21
5.1999394639
 31
0.0
 11
6.8876743446
 21
5.2467941024
 31
0.0
 11
6.9708027572
 21
5.2771985051
 31
0.0
 11
7.0627963461
 21
5.2882226809
 31
0.0
  0
SPLINE
  5
624
100
AcDbEntity
  8
RACCORDO
100
AcDbSpline
 62
253
  6
CONTINUOUS
 70
0
 71
3
 72
12
 73
8
 74
6
 42
0.0000001
 43
0.0000001
 44
0.0000000001
 12
0.0070145164
 22
0.4019837961
 32
0.0
 13
0.4020296812
 23
0.0035087308
 33
0.0
 40
0.0
 40
0.0
 40
0.0
 40
0.0
 40
0.1664062852
 40
0.3475634824
 40
0.549397719
 40
0.769554416
 40
1.0
 40
1.0
 40
1.0
 40
1.0
 10
6.7504994428
 20
5.7831974277
 30
0.0
 10
6.7508885293
 20
5.8054949711
 30
0.0
 10
6.7626695545
 20
5.8523213329
 30
0.0
 10
6.8083165281
 20
5.9120295136
 30
0.0
 10
6.8759093538
 20
5.9583375556
 30
0.0
 10
6.9590211768
 20
5.9879631937
 30
0.0
 10
7.0195717631
 20
5.9950599373
 30
0.0
 10
7.0504537513
 20
5.9953294611
 30
0.0
 11
6.7504994428
 21
5.7831974277
 31
0.0
 11
6.7660885746
 21
5.8482586715
 31
0.0
 11
6.8090819219
 21
5.9070487053
 31
0.0
 11
6.8753349504
 21
5.9539025377
 31
0.0
 11
6.958462405
 21
5.9843058154
 31
0.0
 11
7.0504537513
 21
5.9953294611
 31
0.0
  0
SPLINE
  5
625
100
AcDbEntity
  8
RACCORDO
100
AcDbSpline
 62
253
  6
CONTINUOUS
 70
0
 71
3
 72
9
 73
5
 74
3
 42
0.0000001
 43
0.0000001
 44
0.0000000001
 12
0.0053518739
 22
-1.6514713674
 32
0.0
 13
0.0076939806
 23
-1.6514621166
 33
0.0
 40
0.0
 40
0.0
 40
0.0
 40
0.0
 40
0.5000101671
 40
1.0
 40
1.0
 40
1.0
 40
1.0
 10
-4.4283441712
 20
5.5676660831
 30
0.0
 10
-4.4274521741
 20
5.2924152583
 30
0.0
 10
-4.4254730467
 20
4.7419254177
 30
0.0
 10
-4.42310357
 20
4.1914371189
 30
0.0
 10
-4.4218212659
 20
3.9161990296
 30
0.0
 11
-4.4283441712
 21
5.5676660831
 31
0.0
 11
-4.4253754152
 21
4.7419146094
 31
0.0
 11
-4.4218212659
 21
3.9161990296
 31
0.0
  0
SPLINE
  5
626
100
AcDbEntity
  8
RACCORDO
100
AcDbSpline
 62
253
  6
CONTINUOUS
 70
0
 71
3
 72
12
 73
8
 74
6
 42
0.0000001
 43
0.0000001
 44
0.0000000001
 12
-0.0070145166
 22
0.4019838217
 32
0.0
 13
-0.4020297068
 23
0.0035087299
 33
0.0
 40
0.0
 40
0.0
 40
0.0
 40
0.0
 40
0.1664007688
 40
0.3475548035
 40
0.549388854
 40
0.7695487352
 40
1.0
 40
1.0
 40
1.0
 40
1.0
 10
7.5526097498
 20
5.7831974277
 30
0.0
 10
7.5522206761
 20
5.8054942333
 30
0.0
 10
7.5404403435
 20
5.8523194198
 30
0.0
 10
7.4947949927
 20
5.9120273154
 30
0.0
 10
7.4272027221
 20
5.9583361986
 30
0.0
 10
7.3440899858
 20
5.9879628872
 30
0.0
 10
7.2835381927
 20
5.9950599316
 30
0.0
 10
7.2526554412
 20
5.9953294621
 30
0.0
 11
7.5526097498
 21
5.7831974277
 31
0.0
 11
7.5370215855
 21
5.848256627
 31
0.0
 11
7.4940298158
 21
5.9070462452
 31
0.0
 11
7.4277774427
 21
5.9539008836
 31
0.0
 11
7.3446490302
 21
5.984305286
 31
0.0
 11
7.2526554412
 21
5.9953294621
 31
0.0
  0
SPLINE
  5
627
100
AcDbEntity
  8
RACCORDO
100
AcDbSpline
 62
253
  6
CONTINUOUS
 70
0
 71
3
 72
9
 73
5
 74
3
 42
0.0000001
 43
0.0000001
 44
0.0000000001
 12
0.0076939806
 22
1.6514621166
 32
0.0
 13
0.0053518739
 23
1.6514713674
 33
0.0
 40
0.0
 40
0.0
 40
0.0
 40
0.0
 40
0.4999889708
 40
1.0
 40
1.0
 40
1.0
 40
1.0
 10
4.4249304585
 20
3.9161990296
 30
0.0
 10
4.4262127603
 20
4.1914366443
 30
0.0
 10
4.4285822374
 20
4.7419249431
 30
0.0
 10
4.4305613651
 20
5.2924147837
 30
0.0
 10
4.4314533637
 20
5.5676660831
 30
0.0
 11
4.4249304585
 21
3.9161990296
 31
0.0
 11
4.4284846021
 21
4.7419131856
 31
0.0
 11
4.4314533637
 21
5.5676660831
 31
0.0
  0
SPLINE
  5
628
100
AcDbEntity
  8
RACCORDO
100
AcDbSpline
 62
253
  6
CONTINUOUS
 70
0
 71
3
 72
12
 73
8
 74
6
 42
0.0000001
 43
0.0000001
 44
0.0000000001
 12
-0.0070145118
 22
0.401983857
 32
0.0
 13
-0.402029743
 23
0.0035086199
 33
0.0
 40
0.0
 40
0.0
 40
0.0
 40
0.0
 40
0.1663980738
 40
0.3475504099
 40
0.549384185
 40
0.7695456059
 40
1.0
 40
1.0
 40
1.0
 40
1.0
 10
7.540267155
 20
5.0760906465
 30
0.0
 10
7.5398780879
 20
5.098387093
 30
0.0
 10
7.5280981064
 20
5.1452116879
 30
0.0
 10
7.4824535977
 20
5.2049194268
 30
0.0
 10
7.4148616539
 20
5.2512287257
 30
0.0
 10
7.3317484546
 20
5.2808559608
 30
0.0
 10
7.2711960201
 20
5.287953155
 30
0.0
 10
7.2403128464
 20
5.2882226807
 30
0.0
 11
7.540267155
 21
5.0760906465
 31
0.0
 11
7.5246794705
 21
5.1411488527
 31
0.0
 11
7.4816885244
 21
5.199938235
 31
0.0
 11
7.4154365477
 21
5.2467932545
 31
0.0
 11
7.332307678
 21
5.2771982314
 31
0.0
 11
7.2403128464
 21
5.2882226807
 31
0.0
  0
SPLINE
  5
629
100
AcDbEntity
  8
RACCORDO
100
AcDbSpline
 62
253
  6
CONTINUOUS
 70
0
 71
3
 72
13
 73
9
 74
7
 42
0.0000001
 43
0.0000001
 44
0.0000000001
 12
0.1860199012
 22
0.4640617589
 32
0.0
 13
0.0000037631
 23
0.4999567178
 33
0.0
 40
0.0
 40
0.0
 40
0.0
 40
0.0
 40
0.0378218875
 40
0.1397846932
 40
0.2991078666
 40
0.5051686897
 40
0.7442254983
 40
1.0
 40
1.0
 40
1.0
 40
1.0
 10
7.0603887537
 20
3.0506559204
 30
0.0
 10
7.0627339617
 20
3.0565064842
 30
0.0
 10
7.0593121713
 20
3.0807892985
 30
0.0
 10
7.0636096494
 20
3.1297448597
 30
0.0
 10
7.0623634151
 20
3.2080911345
 30
0.0
 10
7.0636202419
 20
3.3086369104
 30
0.0
 10
7.0636830639
 20
3.4255052133
 30
0.0
 10
7.0638185193
 20
3.5079543745
 30
0.0
 10
7.0638188401
 20
3.5505797679
 30
0.0
 11
7.0603887537
 21
3.0506559204
 31
0.0
 11
7.0612798169
 21
3.0695442207
 31
0.0
 11
7.0621077321
 21
3.1205144868
 31
0.0
 11
7.0628177551
 21
3.2001660131
 31
0.0
 11
7.0633618303
 21
3.3031860693
 31
0.0
 11
7.0637028282
 21
3.4227036402
 31
0.0
 11
7.0638188401
 21
3.5505797679
 31
0.0
  0
SPLINE
  5
62A
100
AcDbEntity
  8
RACCORDO
100
AcDbSpline
 62
253
  6
CONTINUOUS
 70
0
 71
3
 72
13
 73
9
 74
7
 42
0.0000001
 43
0.0000001
 44
0.0000000001
 12
0.0000037631
 22
-0.4999567178
 32
0.0
 13
0.1860199013
 23
-0.4640617589
 33
0.0
 40
0.0
 40
0.0
 40
0.0
 40
0.0
 40
0.2557745015
 40
0.4948313101
 40
0.7008921333
 40
0.8602153068
 40
0.9621781125
 40
1.0
 40
1.0
 40
1.0
 40
1.0
 10
7.2392903524
 20
3.5505797679
 30
0.0
 10
7.2392906732
 20
3.5079543745
 30
0.0
 10
7.2394261287
 20
3.4255052134
 30
0.0
 10
7.2394889507
 20
3.3086369105
 30
0.0
 10
7.2407457775
 20
3.2080911345
 30
0.0
 10
7.2394995431
 20
3.1297448597
 30
0.0
 10
7.2437970212
 20
3.0807892985
 30
0.0
 10
7.2403752309
 20
3.0565064842
 30
0.0
 10
7.2427204388
 20
3.0506559204
 30
0.0
 11
7.2392903524
 21
3.5505797679
 31
0.0
 11
7.2394063643
 21
3.4227036403
 31
0.0
 11
7.2397473622
 21
3.3031860693
 31
0.0
 11
7.2402914374
 21
3.2001660132
 31
0.0
 11
7.2410014604
 21
3.1205144868
 31
0.0
 11
7.2418293757
 21
3.0695442207
 31
0.0
 11
7.2427204388
 21
3.0506559204
 31
0.0
  0
SPLINE
  5
62B
100
AcDbEntity
  8
RACCORDO
100
AcDbSpline
 62
253
  6
CONTINUOUS
 70
0
 71
3
 72
13
 73
9
 74
7
 42
0.0000001
 43
0.0000001
 44
0.0000000001
 12
0.0000037631
 22
-0.4999567178
 32
0.0
 13
0.1860199013
 23
-0.4640617589
 33
0.0
 40
0.0
 40
0.0
 40
0.0
 40
0.0
 40
0.2557745015
 40
0.4948313101
 40
0.7008921333
 40
0.8602153068
 40
0.9621781125
 40
1.0
 40
1.0
 40
1.0
 40
1.0
 10
-7.0607096476
 20
3.5505797679
 30
0.0
 10
-7.0607093268
 20
3.5079543745
 30
0.0
 10
-7.0605738713
 20
3.4255052134
 30
0.0
 10
-7.0605110493
 20
3.3086369105
 30
0.0
 10
-7.0592542225
 20
3.2080911345
 30
0.0
 10
-7.0605004569
 20
3.1297448597
 30
0.0
 10
-7.0562029788
 20
3.0807892985
 30
0.0
 10
-7.0596247691
 20
3.0565064842
 30
0.0
 10
-7.0572795612
 20
3.0506559204
 30
0.0
 11
-7.0607096476
 21
3.5505797679
 31
0.0
 11
-7.0605936357
 21
3.4227036403
 31
0.0
 11
-7.0602526378
 21
3.3031860693
 31
0.0
 11
-7.0597085626
 21
3.2001660132
 31
0.0
 11
-7.0589985396
 21
3.1205144868
 31
0.0
 11
-7.0581706243
 21
3.0695442207
 31
0.0
 11
-7.0572795612
 21
3.0506559204
 31
0.0
  0
SPLINE
  5
62C
100
AcDbEntity
  8
RACCORDO
100
AcDbSpline
 62
253
  6
CONTINUOUS
 70
0
 71
3
 72
13
 73
9
 74
7
 42
0.0000001
 43
0.0000001
 44
0.0000000001
 12
0.1860199012
 22
0.4640617589
 32
0.0
 13
0.0000037631
 23
0.4999567178
 33
0.0
 40
0.0
 40
0.0
 40
0.0
 40
0.0
 40
0.0378218875
 40
0.1397846932
 40
0.2991078666
 40
0.5051686897
 40
0.7442254983
 40
1.0
 40
1.0
 40
1.0
 40
1.0
 10
-7.2396112463
 20
3.0506559204
 30
0.0
 10
-7.2372660383
 20
3.0565064842
 30
0.0
 10
-7.2406878287
 20
3.0807892985
 30
0.0
 10
-7.2363903506
 20
3.1297448597
 30
0.0
 10
-7.2376365849
 20
3.2080911345
 30
0.0
 10
-7.2363797581
 20
3.3086369104
 30
0.0
 10
-7.2363169361
 20
3.4255052133
 30
0.0
 10
-7.2361814807
 20
3.5079543745
 30
0.0
 10
-7.2361811599
 20
3.5505797679
 30
0.0
 11
-7.2396112463
 21
3.0506559204
 31
0.0
 11
-7.2387201831
 21
3.0695442207
 31
0.0
 11
-7.2378922679
 21
3.1205144868
 31
0.0
 11
-7.2371822449
 21
3.2001660131
 31
0.0
 11
-7.2366381697
 21
3.3031860693
 31
0.0
 11
-7.2362971718
 21
3.4227036402
 31
0.0
 11
-7.2361811599
 21
3.5505797679
 31
0.0
  0
SPLINE
  5
62D
100
AcDbEntity
  8
RACCORDO
100
AcDbSpline
 62
253
  6
CONTINUOUS
 70
0
 71
3
 72
9
 73
5
 74
3
 42
0.0000001
 43
0.0000001
 44
0.0000000001
 12
0.0053452796
 22
-1.6468770511
 32
0.0
 13
0.0076765739
 23
-1.6468678343
 33
0.0
 40
0.0
 40
0.0
 40
0.0
 40
0.0
 40
0.500013719
 40
1.0
 40
1.0
 40
1.0
 40
1.0
 10
-4.2403924428
 20
5.5653685708
 30
0.0
 10
-4.2395015384
 20
5.2908815311
 30
0.0
 10
-4.2375254582
 20
4.7419231276
 30
0.0
 10
-4.2351609216
 20
4.1929662599
 30
0.0
 10
-4.2338815277
 20
3.9184958187
 30
0.0
 11
-4.2403924428
 21
5.5653685708
 31
0.0
 11
-4.2374282845
 21
4.7419084493
 31
0.0
 11
-4.2338815277
 21
3.9184958187
 31
0.0
  0
SPLINE
  5
62E
100
AcDbEntity
  8
RACCORDO
100
AcDbSpline
 62
253
  6
CONTINUOUS
 70
0
 71
3
 72
9
 73
5
 74
3
 42
0.0000001
 43
0.0000001
 44
0.0000000001
 12
0.0076765739
 22
1.6468678343
 32
0.0
 13
0.0053452796
 23
1.6468770511
 33
0.0
 40
0.0
 40
0.0
 40
0.0
 40
0.0
 40
0.4999867127
 40
1.0
 40
1.0
 40
1.0
 40
1.0
 10
4.2369907203
 20
3.9184958187
 30
0.0
 10
4.2382701152
 20
4.1929664969
 30
0.0
 10
4.2406346517
 20
4.7419233646
 30
0.0
 10
4.2426107317
 20
5.2908817681
 30
0.0
 10
4.2435016353
 20
5.5653685708
 30
0.0
 11
4.2369907203
 21
3.9184958187
 31
0.0
 11
4.2405374799
 21
4.7419091603
 31
0.0
 11
4.2435016353
 21
5.5653685708
 31
0.0
  0
SPLINE
  5
62F
100
AcDbEntity
  8
RACCORDO
100
AcDbSpline
 62
253
  6
CONTINUOUS
 70
0
 71
3
 72
11
 73
7
 74
5
 42
0.0000001
 43
0.0000001
 44
0.0000000001
 12
-0.0098781004
 22
0.3534330094
 32
0.0
 13
0.0000006738
 23
0.3535710239
 33
0.0
 40
0.0
 40
0.0
 40
0.0
 40
0.0
 40
0.210108614
 40
0.4581332567
 40
0.7266954159
 40
1.0
 40
1.0
 40
1.0
 40
1.0
 10
7.0504537513
 20
5.9953294621
 30
0.0
 10
7.0497619267
 20
6.0200825686
 30
0.0
 10
7.0485592187
 20
6.0740642797
 30
0.0
 10
7.0473046754
 20
6.1597018223
 30
0.0
 10
7.0465347579
 20
6.2527934338
 30
0.0
 10
7.0463637562
 20
6.3166563584
 30
0.0
 10
7.0463638175
 20
6.3488672189
 30
0.0
 11
7.0504537513
 21
5.9953294621
 31
0.0
 11
7.048745372
 21
6.0695981338
 31
0.0
 11
7.0474296392
 21
6.1572825897
 31
0.0
 11
7.046627115
 21
6.252234996
 31
0.0
 11
7.0463638175
 21
6.3488672189
 31
0.0
  0
SPLINE
  5
630
100
AcDbEntity
  8
RACCORDO
100
AcDbSpline
 62
253
  6
CONTINUOUS
 70
0
 71
3
 72
11
 73
7
 74
5
 42
0.0000001
 43
0.0000001
 44
0.0000000001
 12
-0.0098331854
 22
0.5656207508
 32
0.0
 13
0.0000098444
 23
0.5657062181
 33
0.0
 40
0.0
 40
0.0
 40
0.0
 40
0.0
 40
0.2097951049
 40
0.4583292293
 40
0.7269157337
 40
1.0
 40
1.0
 40
1.0
 40
1.0
 10
6.7504994428
 20
5.7831974277
 30
0.0
 10
6.7498117914
 20
5.8227522493
 30
0.0
 10
6.7486026916
 20
5.9091708956
 30
0.0
 10
6.7473505583
 20
6.0462391493
 30
0.0
 10
6.7465804276
 20
6.1952454371
 30
0.0
 10
6.7464085705
 20
6.2973876968
 30
0.0
 10
6.7464094667
 20
6.3488828526
 30
0.0
 11
6.7504994428
 21
5.7831974277
 31
0.0
 11
6.7487928071
 21
5.9018675519
 31
0.0
 11
6.7474744384
 21
6.0424586702
 31
0.0
 11
6.7466723523
 21
6.1943976088
 31
0.0
 11
6.7464094667
 21
6.3488828526
 31
0.0
  0
SPLINE
  5
631
100
AcDbEntity
  8
RACCORDO
100
AcDbSpline
 62
253
  6
CONTINUOUS
 70
0
 71
3
 72
11
 73
7
 74
5
 42
0.0000001
 43
0.0000001
 44
0.0000000001
 12
-0.0000003835
 22
0.1414265542
 32
0.0
 13
-0.0024684792
 23
0.1414050099
 33
0.0
 40
0.0
 40
0.0
 40
0.0
 40
0.0
 40
0.2753968051
 40
0.5412973202
 40
0.7858857424
 40
1.0
 40
1.0
 40
1.0
 40
1.0
 10
6.7638645316
 20
4.9346692903
 30
0.0
 10
6.7638644964
 20
4.9476520973
 30
0.0
 10
6.7638215791
 20
4.9731700568
 30
0.0
 10
6.7636295529
 20
5.0102180158
 30
0.0
 10
6.7633181832
 20
5.0443760603
 30
0.0
 10
6.7630182164
 20
5.0659983703
 30
0.0
 10
6.7628420376
 20
5.0760906465
 30
0.0
 11
6.7638645316
 21
4.9346692903
 31
0.0
 11
6.7637976993
 21
4.9736176541
 31
0.0
 11
6.763598672
 21
5.011222521
 31
0.0
 11
6.7632758436
 21
5.0458123123
 31
0.0
 11
6.7628420376
 21
5.0760906465
 31
0.0
  0
SPLINE
  5
632
100
AcDbEntity
  8
RACCORDO
100
AcDbSpline
 62
253
  6
CONTINUOUS
 70
0
 71
3
 72
13
 73
9
 74
7
 42
0.0000001
 43
0.0000001
 44
0.0000000001
 12
0.141041107
 22
0.141873385
 32
0.0
 13
0.0000012265
 23
0.2000516215
 33
0.0
 40
0.0
 40
0.0
 40
0.0
 40
0.0
 40
0.0379383612
 40
0.1398218345
 40
0.2991571384
 40
0.5055293226
 40
0.744720332
 40
1.0
 40
1.0
 40
1.0
 40
1.0
 10
6.7604344452
 20
3.3506102289
 30
0.0
 10
6.762218068
 20
3.3524043768
 30
0.0
 10
6.760082579
 20
3.3632890102
 30
0.0
 10
6.7632302905
 20
3.381821452
 30
0.0
 10
6.7625858069
 20
3.4137323371
 30
0.0
 10
6.7636039647
 20
3.4537735701
 30
0.0
 10
6.7637491403
 20
3.5006081477
 30
0.0
 10
6.7638644272
 20
3.5335567308
 30
0.0
 10
6.7638645316
 20
3.5505797679
 30
0.0
 11
6.7604344452
 21
3.3506102289
 31
0.0
 11
6.7613247392
 21
3.3581474612
 31
0.0
 11
6.7621528976
 21
3.3785125834
 31
0.0
 11
6.7628631698
 21
3.4103799549
 31
0.0
 11
6.7634076358
 21
3.4516614546
 31
0.0
 11
6.7637488169
 21
3.4995107875
 31
0.0
 11
6.7638645316
 21
3.5505797679
 31
0.0
  0
SPLINE
  5
633
100
AcDbEntity
  8
RACCORDO
100
AcDbSpline
 62
253
  6
CONTINUOUS
 70
0
 71
3
 72
13
 73
9
 74
7
 42
0.0000001
 43
0.0000001
 44
0.0000000001
 12
0.0000012265
 22
-0.2000516215
 32
0.0
 13
0.1410411064
 23
-0.1418733857
 33
0.0
 40
0.0
 40
0.0
 40
0.0
 40
0.0
 40
0.2552796677
 40
0.4944706773
 40
0.7008428616
 40
0.8601781655
 40
0.9620616388
 40
1.0
 40
1.0
 40
1.0
 40
1.0
 10
7.539244661
 20
3.5505797679
 30
0.0
 10
7.5392447653
 20
3.5335567308
 30
0.0
 10
7.5393600522
 20
3.5006081478
 30
0.0
 10
7.5395052278
 20
3.4537735701
 30
0.0
 10
7.5405233857
 20
3.4137323371
 30
0.0
 10
7.539878902
 20
3.381821452
 30
0.0
 10
7.5430266136
 20
3.3632890102
 30
0.0
 10
7.5408911246
 20
3.3524043768
 30
0.0
 10
7.5426747474
 20
3.3506102289
 30
0.0
 11
7.539244661
 21
3.5505797679
 31
0.0
 11
7.5393603757
 21
3.4995107876
 31
0.0
 11
7.5397015568
 21
3.4516614546
 31
0.0
 11
7.5402460228
 21
3.4103799549
 31
0.0
 11
7.5409562949
 21
3.3785125834
 31
0.0
 11
7.5417844533
 21
3.3581474612
 31
0.0
 11
7.5426747474
 21
3.3506102289
 31
0.0
  0
SPLINE
  5
634
100
AcDbEntity
  8
RACCORDO
100
AcDbSpline
 62
253
  6
CONTINUOUS
 70
0
 71
3
 72
11
 73
7
 74
5
 42
0.0000001
 43
0.0000001
 44
0.0000000001
 12
-0.0024684792
 22
-0.1414050099
 32
0.0
 13
-0.0000003835
 23
-0.1414265542
 33
0.0
 40
0.0
 40
0.0
 40
0.0
 40
0.0
 40
0.2141142612
 40
0.458702684
 40
0.7246031997
 40
1.0
 40
1.0
 40
1.0
 40
1.0
 10
7.540267155
 20
5.0760906465
 30
0.0
 10
7.5400909761
 20
5.0659983701
 30
0.0
 10
7.5397910094
 20
5.04437606
 30
0.0
 10
7.5394796396
 20
5.0102180152
 30
0.0
 10
7.5392876135
 20
4.9731700564
 30
0.0
 10
7.5392446962
 20
4.9476520971
 30
0.0
 10
7.539244661
 20
4.9346692903
 30
0.0
 11
7.540267155
 21
5.0760906465
 31
0.0
 11
7.539833349
 21
5.0458123118
 31
0.0
 11
7.5395105206
 21
5.0112225204
 31
0.0
 11
7.5393114933
 21
4.9736176534
 31
0.0
 11
7.539244661
 21
4.9346692903
 31
0.0
  0
SPLINE
  5
635
100
AcDbEntity
  8
RACCORDO
100
AcDbSpline
 62
253
  6
CONTINUOUS
 70
0
 71
3
 72
11
 73
7
 74
5
 42
0.0000001
 43
0.0000001
 44
0.0000000001
 12
0.0000096882
 22
-0.5657062181
 32
0.0
 13
-0.0098336718
 23
-0.5656207424
 33
0.0
 40
0.0
 40
0.0
 40
0.0
 40
0.0
 40
0.2730824888
 40
0.5416689789
 40
0.7902032012
 40
1.0
 40
1.0
 40
1.0
 40
1.0
 10
7.5566997259
 20
6.3488828526
 30
0.0
 10
7.5567006078
 20
6.297388032
 30
0.0
 10
7.5565287737
 20
6.1952461101
 30
0.0
 10
7.5557586446
 20
6.0462401416
 30
0.0
 10
7.5545064896
 20
5.9091715532
 30
0.0
 10
7.5532974407
 20
5.8227525681
 30
0.0
 10
7.5526097498
 20
5.7831974277
 30
0.0
 11
7.5566997259
 21
6.3488828526
 31
0.0
 11
7.5564368449
 21
6.1943986143
 31
0.0
 11
7.555634761
 21
6.0424596838
 31
0.0
 11
7.554316396
 21
5.90186851
 31
0.0
 11
7.5526097498
 21
5.7831974277
 31
0.0
  0
SPLINE
  5
636
100
AcDbEntity
  8
RACCORDO
100
AcDbSpline
 62
253
  6
CONTINUOUS
 70
0
 71
3
 72
13
 73
9
 74
7
 42
0.0000001
 43
0.0000001
 44
0.0000000001
 12
0.0000012265
 22
-0.2000516215
 32
0.0
 13
0.1410411064
 23
-0.1418733857
 33
0.0
 40
0.0
 40
0.0
 40
0.0
 40
0.0
 40
0.2552796677
 40
0.4944706773
 40
0.7008428616
 40
0.8601781655
 40
0.9620616388
 40
1.0
 40
1.0
 40
1.0
 40
1.0
 10
-6.760755339
 20
3.5505797679
 30
0.0
 10
-6.7607552347
 20
3.5335567308
 30
0.0
 10
-6.7606399478
 20
3.5006081478
 30
0.0
 10
-6.7604947722
 20
3.4537735701
 30
0.0
 10
-6.7594766143
 20
3.4137323371
 30
0.0
 10
-6.760121098
 20
3.381821452
 30
0.0
 10
-6.7569733864
 20
3.3632890102
 30
0.0
 10
-6.7591088754
 20
3.3524043768
 30
0.0
 10
-6.7573252526
 20
3.3506102289
 30
0.0
 11
-6.760755339
 21
3.5505797679
 31
0.0
 11
-6.7606396243
 21
3.4995107876
 31
0.0
 11
-6.7602984432
 21
3.4516614546
 31
0.0
 11
-6.7597539772
 21
3.4103799549
 31
0.0
 11
-6.7590437051
 21
3.3785125834
 31
0.0
 11
-6.7582155467
 21
3.3581474612
 31
0.0
 11
-6.7573252526
 21
3.3506102289
 31
0.0
  0
SPLINE
  5
637
100
AcDbEntity
  8
RACCORDO
100
AcDbSpline
 62
253
  6
CONTINUOUS
 70
0
 71
3
 72
11
 73
7
 74
5
 42
0.0000001
 43
0.0000001
 44
0.0000000001
 12
-0.0024684792
 22
-0.1414050099
 32
0.0
 13
-0.0000003835
 23
-0.1414265542
 33
0.0
 40
0.0
 40
0.0
 40
0.0
 40
0.0
 40
0.2141142612
 40
0.458702684
 40
0.7246031997
 40
1.0
 40
1.0
 40
1.0
 40
1.0
 10
-6.759732845
 20
5.0760906465
 30
0.0
 10
-6.7599090239
 20
5.0659983701
 30
0.0
 10
-6.7602089906
 20
5.04437606
 30
0.0
 10
-6.7605203604
 20
5.0102180152
 30
0.0
 10
-6.7607123865
 20
4.9731700564
 30
0.0
 10
-6.7607553038
 20
4.9476520971
 30
0.0
 10
-6.760755339
 20
4.9346692903
 30
0.0
 11
-6.759732845
 21
5.0760906465
 31
0.0
 11
-6.760166651
 21
5.0458123118
 31
0.0
 11
-6.7604894794
 21
5.0112225204
 31
0.0
 11
-6.7606885067
 21
4.9736176534
 31
0.0
 11
-6.760755339
 21
4.9346692903
 31
0.0
  0
SPLINE
  5
638
100
AcDbEntity
  8
RACCORDO
100
AcDbSpline
 62
253
  6
CONTINUOUS
 70
0
 71
3
 72
11
 73
7
 74
5
 42
0.0000001
 43
0.0000001
 44
0.0000000001
 12
0.0000096882
 22
-0.5657062181
 32
0.0
 13
-0.0098336718
 23
-0.5656207424
 33
0.0
 40
0.0
 40
0.0
 40
0.0
 40
0.0
 40
0.2730824888
 40
0.5416689789
 40
0.7902032012
 40
1.0
 40
1.0
 40
1.0
 40
1.0
 10
-6.7433002741
 20
6.3488828526
 30
0.0
 10
-6.7432993922
 20
6.297388032
 30
0.0
 10
-6.7434712263
 20
6.1952461101
 30
0.0
 10
-6.7442413554
 20
6.0462401416
 30
0.0
 10
-6.7454935104
 20
5.9091715532
 30
0.0
 10
-6.7467025593
 20
5.8227525681
 30
0.0
 10
-6.7473902502
 20
5.7831974277
 30
0.0
 11
-6.7433002741
 21
6.3488828526
 31
0.0
 11
-6.7435631551
 21
6.1943986143
 31
0.0
 11
-6.744365239
 21
6.0424596838
 31
0.0
 11
-6.745683604
 21
5.90186851
 31
0.0
 11
-6.7473902502
 21
5.7831974277
 31
0.0
  0
SPLINE
  5
639
100
AcDbEntity
  8
RACCORDO
100
AcDbSpline
 62
253
  6
CONTINUOUS
 70
0
 71
3
 72
11
 73
7
 74
5
 42
0.0000001
 43
0.0000001
 44
0.0000000001
 12
-0.0098331854
 22
0.5656207508
 32
0.0
 13
0.0000098444
 23
0.5657062181
 33
0.0
 40
0.0
 40
0.0
 40
0.0
 40
0.0
 40
0.2097951049
 40
0.4583292293
 40
0.7269157337
 40
1.0
 40
1.0
 40
1.0
 40
1.0
 10
-7.5495005572
 20
5.7831974277
 30
0.0
 10
-7.5501882086
 20
5.8227522493
 30
0.0
 10
-7.5513973084
 20
5.9091708956
 30
0.0
 10
-7.5526494417
 20
6.0462391493
 30
0.0
 10
-7.5534195724
 20
6.1952454371
 30
0.0
 10
-7.5535914295
 20
6.2973876968
 30
0.0
 10
-7.5535905333
 20
6.3488828526
 30
0.0
 11
-7.5495005572
 21
5.7831974277
 31
0.0
 11
-7.5512071929
 21
5.9018675519
 31
0.0
 11
-7.5525255616
 21
6.0424586702
 31
0.0
 11
-7.5533276477
 21
6.1943976088
 31
0.0
 11
-7.5535905333
 21
6.3488828526
 31
0.0
  0
SPLINE
  5
63A
100
AcDbEntity
  8
RACCORDO
100
AcDbSpline
 62
253
  6
CONTINUOUS
 70
0
 71
3
 72
11
 73
7
 74
5
 42
0.0000001
 43
0.0000001
 44
0.0000000001
 12
-0.0000003835
 22
0.1414265542
 32
0.0
 13
-0.0024684792
 23
0.1414050099
 33
0.0
 40
0.0
 40
0.0
 40
0.0
 40
0.0
 40
0.2753968051
 40
0.5412973202
 40
0.7858857424
 40
1.0
 40
1.0
 40
1.0
 40
1.0
 10
-7.5361354684
 20
4.9346692903
 30
0.0
 10
-7.5361355036
 20
4.9476520973
 30
0.0
 10
-7.5361784209
 20
4.9731700568
 30
0.0
 10
-7.5363704471
 20
5.0102180158
 30
0.0
 10
-7.5366818168
 20
5.0443760603
 30
0.0
 10
-7.5369817836
 20
5.0659983703
 30
0.0
 10
-7.5371579624
 20
5.0760906465
 30
0.0
 11
-7.5361354684
 21
4.9346692903
 31
0.0
 11
-7.5362023007
 21
4.9736176541
 31
0.0
 11
-7.536401328
 21
5.011222521
 31
0.0
 11
-7.5367241564
 21
5.0458123123
 31
0.0
 11
-7.5371579624
 21
5.0760906465
 31
0.0
  0
SPLINE
  5
63B
100
AcDbEntity
  8
RACCORDO
100
AcDbSpline
 62
253
  6
CONTINUOUS
 70
0
 71
3
 72
13
 73
9
 74
7
 42
0.0000001
 43
0.0000001
 44
0.0000000001
 12
0.141041107
 22
0.141873385
 32
0.0
 13
0.0000012265
 23
0.2000516215
 33
0.0
 40
0.0
 40
0.0
 40
0.0
 40
0.0
 40
0.0379383612
 40
0.1398218345
 40
0.2991571384
 40
0.5055293226
 40
0.744720332
 40
1.0
 40
1.0
 40
1.0
 40
1.0
 10
-7.5395655548
 20
3.3506102289
 30
0.0
 10
-7.537781932
 20
3.3524043768
 30
0.0
 10
-7.539917421
 20
3.3632890102
 30
0.0
 10
-7.5367697095
 20
3.381821452
 30
0.0
 10
-7.5374141931
 20
3.4137323371
 30
0.0
 10
-7.5363960353
 20
3.4537735701
 30
0.0
 10
-7.5362508597
 20
3.5006081477
 30
0.0
 10
-7.5361355728
 20
3.5335567308
 30
0.0
 10
-7.5361354684
 20
3.5505797679
 30
0.0
 11
-7.5395655548
 21
3.3506102289
 31
0.0
 11
-7.5386752608
 21
3.3581474612
 31
0.0
 11
-7.5378471024
 21
3.3785125834
 31
0.0
 11
-7.5371368302
 21
3.4103799549
 31
0.0
 11
-7.5365923642
 21
3.4516614546
 31
0.0
 11
-7.5362511831
 21
3.4995107875
 31
0.0
 11
-7.5361354684
 21
3.5505797679
 31
0.0
  0
SPLINE
  5
63C
100
AcDbEntity
  8
RACCORDO
100
AcDbSpline
 62
253
  6
CONTINUOUS
 70
0
 71
3
 72
9
 73
5
 74
3
 42
0.0000001
 43
0.0000001
 44
0.0000000001
 12
0.0003603392
 22
-6.1661325534
 32
0.0
 13
0.0019281047
 23
-6.1661322625
 33
0.0
 40
0.0
 40
0.0
 40
0.0
 40
0.0
 40
0.5000355593
 40
1.0
 40
1.0
 40
1.0
 40
1.0
 10
11.1247015175
 20
7.9242702135
 30
0.0
 10
11.1247615783
 20
6.8965083667
 30
0.0
 10
11.1250123244
 20
4.8411308545
 30
0.0
 10
11.1255243509
 20
2.7857533907
 30
0.0
 10
11.1258456788
 20
1.7581377682
 30
0.0
 11
11.1247015175
 21
7.9242702135
 31
0.0
 11
11.1250776716
 21
4.8409846909
 31
0.0
 11
11.1258456788
 21
1.7581377682
 31
0.0
  0
LINE
  5
63D
100
AcDbEntity
  8
RACCORDO
100
AcDbLine
 62
253
  6
CONTINUOUS
 10
11.1260857863
 20
1.0256544822
 11
11.1268833675
 21
-1.0428999205
  0
LINE
  5
63E
100
AcDbEntity
  8
RACCORDO
100
AcDbLine
 62
253
  6
CONTINUOUS
 10
11.1288255104
 20
-4.8716057936
 11
11.1296059718
 21
-6.1456225248
  0
LINE
  5
63F
100
AcDbEntity
  8
RACCORDO
100
AcDbLine
 62
253
  6
CONTINUOUS
 10
11.1300798575
 20
-6.8703514465
 11
11.1304302701
 21
-7.3860378472
  0
LINE
  5
640
100
AcDbEntity
  8
RACCORDO
100
AcDbLine
 62
253
  6
CONTINUOUS
 10
-11.1264967792
 20
-6.1456225248
 11
-11.1257163179
 21
-4.8716057936
  0
LINE
  5
641
100
AcDbEntity
  8
RACCORDO
100
AcDbLine
 62
253
  6
CONTINUOUS
 10
-11.1273210776
 20
-7.3860378472
 11
-11.126970665
 21
-6.8703514465
  0
LINE
  5
642
100
AcDbEntity
  8
RACCORDO
100
AcDbLine
 62
253
  6
CONTINUOUS
 10
-11.1237741749
 20
-1.0428999205
 11
-11.1229765937
 21
1.0256544822
  0
SPLINE
  5
643
100
AcDbEntity
  8
RACCORDO
100
AcDbSpline
 62
253
  6
CONTINUOUS
 70
0
 71
3
 72
9
 73
5
 74
3
 42
0.0000001
 43
0.0000001
 44
0.0000000001
 12
0.0019281047
 22
6.1661322625
 32
0.0
 13
0.0003603392
 23
6.1661325534
 33
0.0
 40
0.0
 40
0.0
 40
0.0
 40
0.0
 40
0.4999644622
 40
1.0
 40
1.0
 40
1.0
 40
1.0
 10
-11.1227364863
 20
1.7581377682
 30
0.0
 10
-11.1224151583
 20
2.7857534349
 30
0.0
 10
-11.1219031319
 20
4.8411308987
 30
0.0
 10
-11.1216523858
 20
6.8965084109
 30
0.0
 10
-11.121592325
 20
7.9242702135
 30
0.0
 11
-11.1227364863
 21
1.7581377682
 31
0.0
 11
-11.1219684791
 21
4.8409848234
 31
0.0
 11
-11.121592325
 21
7.9242702135
 31
0.0
  0
SPLINE
  5
644
100
AcDbEntity
  8
RACCORDO
100
AcDbSpline
 62
7
  6
CONTINUOUS
 70
0
 71
3
 72
12
 73
8
 74
6
 42
0.0000001
 43
0.0000001
 44
0.0000000001
 12
0.3000709641
 22
-0.0
 32
0.0
 13
0.2121822176
 23
0.2121822095
 33
0.0
 40
0.0
 40
0.0
 40
0.0
 40
0.0
 40
0.3041016913
 40
0.5820964833
 40
0.8023227261
 40
0.9471197879
 40
1.0
 40
1.0
 40
1.0
 40
1.0
 10
10.8247474511
 20
7.9191253555
 30
0.0
 10
10.8551648137
 20
7.9191253555
 30
0.0
 10
10.9135430997
 20
7.9189940266
 30
0.0
 10
10.993188918
 20
7.9207589857
 30
0.0
 10
11.0590545471
 20
7.9189330576
 30
0.0
 10
11.0977945484
 20
7.9256670972
 30
0.0
 10
11.1209614373
 20
7.9205301334
 30
0.0
 10
11.1247015175
 20
7.9242702135
 30
0.0
 11
10.8247474511
 21
7.9191253555
 31
0.0
 11
10.9159992015
 21
7.9193734646
 31
0.0
 11
10.9994141646
 21
7.9201043785
 31
0.0
 11
11.0654879559
 21
7.9212371622
 31
0.0
 11
11.1089132891
 21
7.9226829413
 31
0.0
 11
11.1247015175
 21
7.9242702135
 31
0.0
  0
SPLINE
  5
645
100
AcDbEntity
  8
RACCORDO
100
AcDbSpline
 62
7
  6
CONTINUOUS
 70
0
 71
3
 72
12
 73
8
 74
6
 42
0.0000001
 43
0.0000001
 44
0.0000000001
 12
0.2121822176
 22
-0.2121822095
 32
0.0
 13
0.3000709641
 23
0.0
 33
0.0
 40
0.0
 40
0.0
 40
0.0
 40
0.0
 40
0.0528802121
 40
0.1976772739
 40
0.4179035167
 40
0.6958983087
 40
1.0
 40
1.0
 40
1.0
 40
1.0
 10
-11.121592325
 20
7.9242702135
 30
0.0
 10
-11.1178522448
 20
7.9205301334
 30
0.0
 10
-11.0946853558
 20
7.9256670972
 30
0.0
 10
-11.0559453546
 20
7.9189330576
 30
0.0
 10
-10.9900797254
 20
7.9207589857
 30
0.0
 10
-10.9104339071
 20
7.9189940266
 30
0.0
 10
-10.8520556212
 20
7.9191253555
 30
0.0
 10
-10.8216382586
 20
7.9191253555
 30
0.0
 11
-11.121592325
 21
7.9242702135
 31
0.0
 11
-11.1058040965
 21
7.9226829413
 31
0.0
 11
-11.0623787634
 21
7.9212371622
 31
0.0
 11
-10.996304972
 21
7.9201043785
 31
0.0
 11
-10.912890009
 21
7.9193734646
 31
0.0
 11
-10.8216382586
 21
7.9191253555
 31
0.0
  0
SPLINE
  5
646
100
AcDbEntity
  8
RACCORDO
100
AcDbSpline
 62
7
  6
CONTINUOUS
 70
0
 71
3
 72
12
 73
8
 74
6
 42
0.0000001
 43
0.0000001
 44
0.0000000001
 12
0.3000740987
 22
-0.0
 32
0.0
 13
0.2121856528
 23
0.2121832073
 33
0.0
 40
0.0
 40
0.0
 40
0.0
 40
0.0
 40
0.3040972291
 40
0.5820915378
 40
0.8023192843
 40
0.9471184771
 40
1.0
 40
1.0
 40
1.0
 40
1.0
 10
10.8288683165
 20
-4.8767508593
 30
0.0
 10
10.8592855505
 20
-4.8767508593
 30
0.0
 10
10.9176639455
 20
-4.8768821751
 30
0.0
 10
10.9973102678
 20
-4.8751172118
 30
0.0
 10
11.0631768771
 20
-4.8769431004
 30
0.0
 10
11.1019177915
 20
-4.870208961
 30
0.0
 10
11.125085277
 20
-4.875345984
 30
0.0
 10
11.1288255104
 20
-4.8716057936
 30
0.0
 11
10.8288683165
 21
-4.8767508593
 31
0.0
 11
10.9201196811
 21
-4.8765027447
 31
0.0
 11
11.0035353703
 21
-4.8757718088
 31
0.0
 11
11.0696103027
 21
-4.8746389826
 31
0.0
 11
11.1130367277
 21
-4.8731931419
 31
0.0
 11
11.1288255104
 21
-4.8716057936
 31
0.0
  0
SPLINE
  5
647
100
AcDbEntity
  8
RACCORDO
100
AcDbSpline
 62
7
  6
CONTINUOUS
 70
0
 71
3
 72
12
 73
8
 74
6
 42
0.0000001
 43
0.0000001
 44
0.0000000001
 12
0.2121856528
 22
-0.2121832073
 32
0.0
 13
0.3000740987
 23
0.0
 33
0.0
 40
0.0
 40
0.0
 40
0.0
 40
0.0
 40
0.0528815229
 40
0.1976807157
 40
0.4179084622
 40
0.6959027709
 40
1.0
 40
1.0
 40
1.0
 40
1.0
 10
-11.1257163179
 20
-4.8716057936
 30
0.0
 10
-11.1219760844
 20
-4.875345984
 30
0.0
 10
-11.098808599
 20
-4.870208961
 30
0.0
 10
-11.0600676845
 20
-4.8769431004
 30
0.0
 10
-10.9942010752
 20
-4.8751172118
 30
0.0
 10
-10.9145547529
 20
-4.8768821751
 30
0.0
 10
-10.8561763579
 20
-4.8767508593
 30
0.0
 10
-10.825759124
 20
-4.8767508593
 30
0.0
 11
-11.1257163179
 21
-4.8716057936
 31
0.0
 11
-11.1099275351
 21
-4.8731931419
 31
0.0
 11
-11.0665011101
 21
-4.8746389826
 31
0.0
 11
-11.0004261778
 21
-4.8757718088
 31
0.0
 11
-10.9170104886
 21
-4.8765027447
 31
0.0
 11
-10.825759124
 21
-4.8767508593
 31
0.0
  0
SPLINE
  5
648
100
AcDbEntity
  8
RACCORDO
100
AcDbSpline
 62
7
  6
CONTINUOUS
 70
0
 71
3
 72
12
 73
8
 74
6
 42
0.0000001
 43
0.0000001
 44
0.0000000001
 12
-0.2121859816
 22
0.212186588
 32
0.0
 13
-0.3000767217
 23
0.0
 33
0.0
 40
0.0
 40
0.0
 40
0.0
 40
0.0
 40
0.0529127559
 40
0.197756379
 40
0.4180080058
 40
0.6959861204
 40
1.0
 40
1.0
 40
1.0
 40
1.0
 10
11.1268833675
 20
-1.0428999205
 30
0.0
 10
11.1231409191
 20
-1.0391574615
 30
0.0
 10
11.0999643051
 20
-1.044295359
 30
0.0
 10
11.0612136774
 20
-1.0375599252
 30
0.0
 10
10.995341369
 20
-1.0393847198
 30
0.0
 10
10.9157017417
 20
-1.0376199236
 30
0.0
 10
10.8573328726
 20
-1.0377510133
 30
0.0
 10
10.8269237098
 20
-1.0377510133
 30
0.0
 11
11.1268833675
 21
-1.0428999205
 31
0.0
 11
11.1110851883
 21
-1.0413109557
 31
0.0
 11
11.0676450816
 21
-1.0398639668
 31
0.0
 11
11.0015624166
 21
-1.0387304374
 31
0.0
 11
10.9181508607
 21
-1.0379991773
 31
0.0
 11
10.8269237098
 21
-1.0377510133
 31
0.0
  0
SPLINE
  5
649
100
AcDbEntity
  8
RACCORDO
100
AcDbSpline
 62
7
  6
CONTINUOUS
 70
0
 71
3
 72
12
 73
8
 74
6
 42
0.0000001
 43
0.0000001
 44
0.0000000001
 12
-0.3000767217
 22
-0.0
 32
0.0
 13
-0.2121859816
 23
-0.212186588
 33
0.0
 40
0.0
 40
0.0
 40
0.0
 40
0.0
 40
0.3040138796
 40
0.5819919942
 40
0.802243621
 40
0.9470872441
 40
1.0
 40
1.0
 40
1.0
 40
1.0
 10
-10.8238145173
 20
-1.0377510133
 30
0.0
 10
-10.8542236801
 20
-1.0377510133
 30
0.0
 10
-10.9125925492
 20
-1.0376199236
 30
0.0
 10
-10.9922321765
 20
-1.0393847198
 30
0.0
 10
-11.0581044848
 20
-1.0375599252
 30
0.0
 10
-11.0968551126
 20
-1.044295359
 30
0.0
 10
-11.1200317266
 20
-1.0391574615
 30
0.0
 10
-11.1237741749
 20
-1.0428999205
 30
0.0
 11
-10.8238145173
 21
-1.0377510133
 31
0.0
 11
-10.9150416681
 21
-1.0379991773
 31
0.0
 11
-10.9984532241
 21
-1.0387304374
 31
0.0
 11
-11.0645358891
 21
-1.0398639668
 31
0.0
 11
-11.1079759958
 21
-1.0413109557
 31
0.0
 11
-11.1237741749
 21
-1.0428999205
 31
0.0
  0
SPLINE
  5
64A
100
AcDbEntity
  8
RACCORDO
100
AcDbSpline
 62
7
  6
CONTINUOUS
 70
0
 71
3
 72
12
 73
8
 74
6
 42
0.0000001
 43
0.0000001
 44
0.0000000001
 12
0.2121872725
 22
-0.2121835264
 32
0.0
 13
0.3000754696
 23
0.0
 33
0.0
 40
0.0
 40
0.0
 40
0.0
 40
0.0
 40
0.0528851833
 40
0.1976896626
 40
0.4179203758
 40
0.6959128578
 40
1.0
 40
1.0
 40
1.0
 40
1.0
 10
-11.126970665
 20
-6.8703514465
 30
0.0
 10
-11.1232301441
 20
-6.8740919014
 30
0.0
 10
-11.1000615305
 20
-6.8689547816
 30
0.0
 10
-11.0613192884
 20
-6.8756890754
 30
0.0
 10
-10.9954517597
 20
-6.8738633188
 30
0.0
 10
-10.9158059419
 20
-6.8756282637
 30
0.0
 10
-10.8574284828
 20
-6.8754969767
 30
0.0
 10
-10.8270121188
 20
-6.8754969767
 30
0.0
 11
-11.126970665
 21
-6.8703514465
 31
0.0
 11
-11.1111807247
 21
-6.8719389861
 31
0.0
 11
-11.0677525184
 21
-6.8733849655
 31
0.0
 11
-11.0016763953
 21
-6.8745178782
 31
0.0
 11
-10.9182608734
 21
-6.8752488548
 31
0.0
 11
-10.8270121188
 21
-6.8754969767
 31
0.0
  0
SPLINE
  5
64B
100
AcDbEntity
  8
RACCORDO
100
AcDbSpline
 62
7
  6
CONTINUOUS
 70
0
 71
3
 72
12
 73
8
 74
6
 42
0.0000001
 43
0.0000001
 44
0.0000000001
 12
-0.300081786
 22
0.0
 32
0.0
 13
-0.2121906568
 23
-0.2121890748
 33
0.0
 40
0.0
 40
0.0
 40
0.0
 40
0.0
 40
0.3039485293
 40
0.5819142421
 40
0.8021848151
 40
0.9470630692
 40
1.0
 40
1.0
 40
1.0
 40
1.0
 10
-10.8265321808
 20
-6.1404706022
 30
0.0
 10
-10.85693532
 20
-6.1404706022
 30
0.0
 10
-10.9152973309
 20
-6.1403396936
 30
0.0
 10
-10.994932573
 20
-6.1421043643
 30
0.0
 10
-11.0608100044
 20
-6.1402804261
 30
0.0
 10
-11.0995686873
 20
-6.1470168729
 30
0.0
 10
-11.1227525385
 20
-6.141878312
 30
0.0
 10
-11.1264967792
 20
-6.1456225248
 30
0.0
 11
-10.8265321808
 21
-6.1404706022
 31
0.0
 11
-10.9177412606
 21
-6.1407188086
 31
0.0
 11
-11.0011505004
 21
-6.1414503271
 31
0.0
 11
-11.0672399577
 21
-6.1425844127
 31
0.0
 11
-11.1106911662
 21
-6.1440323024
 31
0.0
 11
-11.1264967792
 21
-6.1456225248
 31
0.0
  0
SPLINE
  5
64C
100
AcDbEntity
  8
RACCORDO
100
AcDbSpline
 62
7
  6
CONTINUOUS
 70
0
 71
3
 72
12
 73
8
 74
6
 42
0.0000001
 43
0.0000001
 44
0.0000000001
 12
0.212182242
 22
-0.2121828612
 32
0.0
 13
0.3000714422
 23
-0.0
 33
0.0
 40
0.0
 40
0.0
 40
0.0
 40
0.0
 40
0.0528761536
 40
0.1976675351
 40
0.4178908253
 40
0.6958877974
 40
1.0
 40
1.0
 40
1.0
 40
1.0
 10
-11.1229765937
 20
1.0256544822
 30
0.0
 10
-11.1192368001
 20
1.0219146777
 30
0.0
 10
-11.0960710027
 20
1.0270515647
 30
0.0
 10
-11.0573321543
 20
1.0203176512
 30
0.0
 10
-10.9914670434
 20
1.0221437369
 30
0.0
 10
-10.9118201508
 20
1.0203787466
 30
0.0
 10
-10.8534404913
 20
1.0205101063
 30
0.0
 10
-10.8230220289
 20
1.0205101063
 30
0.0
 11
-11.1229765937
 21
1.0256544822
 31
0.0
 11
-11.1071895431
 21
1.0240674157
 31
0.0
 11
-11.0637658414
 21
1.0226217807
 31
0.0
 11
-10.9976928293
 21
1.0214890839
 31
0.0
 11
-10.9142770788
 21
1.0207582093
 31
0.0
 11
-10.8230220289
 21
1.0205101063
 31
0.0
  0
SPLINE
  5
64D
100
AcDbEntity
  8
RACCORDO
100
AcDbSpline
 62
7
  6
CONTINUOUS
 70
0
 71
3
 72
12
 73
8
 74
6
 42
0.0000001
 43
0.0000001
 44
0.0000000001
 12
-0.3000746033
 22
-0.0
 32
0.0
 13
-0.2121845123
 23
-0.2121850614
 33
0.0
 40
0.0
 40
0.0
 40
0.0
 40
0.0
 40
0.3040426971
 40
0.5820262833
 40
0.8022695576
 40
0.9470979026
 40
1.0
 40
1.0
 40
1.0
 40
1.0
 10
-10.8227788925
 20
1.7632853453
 30
0.0
 10
-10.853190723
 20
1.7632853453
 30
0.0
 10
-10.911562638
 20
1.7634165136
 30
0.0
 10
-10.9912042336
 20
1.761651665
 30
0.0
 10
-11.0570742985
 20
1.7634768299
 30
0.0
 10
-11.0958214072
 20
1.7567418574
 30
0.0
 10
-11.1189948177
 20
1.7618794464
 30
0.0
 10
-11.1227364863
 20
1.7581377682
 30
0.0
 11
-10.8227788925
 21
1.7632853453
 31
0.0
 11
-10.9140140467
 21
1.7630371996
 31
0.0
 11
-10.9974266567
 21
1.7623060535
 31
0.0
 11
-11.0635063526
 21
1.7611727693
 31
0.0
 11
-11.1069415784
 21
1.7597261778
 31
0.0
 11
-11.1227364863
 21
1.7581377682
 31
0.0
  0
SPLINE
  5
64E
100
AcDbEntity
  8
RACCORDO
100
AcDbSpline
 62
7
  6
CONTINUOUS
 70
0
 71
3
 72
12
 73
8
 74
6
 42
0.0000001
 43
0.0000001
 44
0.0000000001
 12
-0.2121906568
 22
0.2121890748
 32
0.0
 13
-0.300081786
 23
-0.0
 33
0.0
 40
0.0
 40
0.0
 40
0.0
 40
0.0
 40
0.0529369308
 40
0.1978151849
 40
0.4180857579
 40
0.6960514707
 40
1.0
 40
1.0
 40
1.0
 40
1.0
 10
11.1296059718
 20
-6.1456225248
 30
0.0
 10
11.1258617311
 20
-6.141878312
 30
0.0
 10
11.1026778799
 20
-6.1470168729
 30
0.0
 10
11.063919197
 20
-6.1402804261
 30
0.0
 10
10.9980417655
 20
-6.1421043643
 30
0.0
 10
10.9184065234
 20
-6.1403396936
 30
0.0
 10
10.8600445125
 20
-6.1404706022
 30
0.0
 10
10.8296413733
 20
-6.1404706022
 30
0.0
 11
11.1296059718
 21
-6.1456225248
 31
0.0
 11
11.1138003587
 21
-6.1440323024
 31
0.0
 11
11.0703491502
 21
-6.1425844127
 31
0.0
 11
11.004259693
 21
-6.1414503271
 31
0.0
 11
10.9208504531
 21
-6.1407188086
 31
0.0
 11
10.8296413733
 21
-6.1404706022
 31
0.0
  0
SPLINE
  5
64F
100
AcDbEntity
  8
RACCORDO
100
AcDbSpline
 62
7
  6
CONTINUOUS
 70
0
 71
3
 72
12
 73
8
 74
6
 42
0.0000001
 43
0.0000001
 44
0.0000000001
 12
0.3000754696
 22
-0.0
 32
0.0
 13
0.2121872724
 23
0.2121835264
 33
0.0
 40
0.0
 40
0.0
 40
0.0
 40
0.0
 40
0.3040871422
 40
0.5820796242
 40
0.8023103374
 40
0.9471148167
 40
1.0
 40
1.0
 40
1.0
 40
1.0
 10
10.8301213113
 20
-6.8754969767
 30
0.0
 10
10.8605376753
 20
-6.8754969767
 30
0.0
 10
10.9189151344
 20
-6.8756282637
 30
0.0
 10
10.9985609522
 20
-6.8738633188
 30
0.0
 10
11.064428481
 20
-6.8756890754
 30
0.0
 10
11.1031707231
 20
-6.8689547816
 30
0.0
 10
11.1263393366
 20
-6.8740919014
 30
0.0
 10
11.1300798575
 20
-6.8703514465
 30
0.0
 11
10.8301213113
 21
-6.8754969767
 31
0.0
 11
10.921370066
 21
-6.8752488548
 31
0.0
 11
11.0047855878
 21
-6.8745178782
 31
0.0
 11
11.070861711
 21
-6.8733849655
 31
0.0
 11
11.1142899172
 21
-6.8719389861
 31
0.0
 11
11.1300798575
 21
-6.8703514465
 31
0.0
  0
SPLINE
  5
650
100
AcDbEntity
  8
RACCORDO
100
AcDbSpline
 62
7
  6
CONTINUOUS
 70
0
 71
3
 72
12
 73
8
 74
6
 42
0.0000001
 43
0.0000001
 44
0.0000000001
 12
-0.2121845123
 22
0.2121850614
 32
0.0
 13
-0.3000746033
 23
0.0
 33
0.0
 40
0.0
 40
0.0
 40
0.0
 40
0.0
 40
0.0529020974
 40
0.1977304424
 40
0.4179737167
 40
0.6959573029
 40
1.0
 40
1.0
 40
1.0
 40
1.0
 10
11.1258456788
 20
1.7581377682
 30
0.0
 10
11.1221040102
 20
1.7618794464
 30
0.0
 10
11.0989305998
 20
1.7567418574
 30
0.0
 10
11.060183491
 20
1.7634768299
 30
0.0
 10
10.9943134261
 20
1.761651665
 30
0.0
 10
10.9146718305
 20
1.7634165136
 30
0.0
 10
10.8562999156
 20
1.7632853453
 30
0.0
 10
10.825888085
 20
1.7632853453
 30
0.0
 11
11.1258456788
 21
1.7581377682
 31
0.0
 11
11.1100507709
 21
1.7597261778
 31
0.0
 11
11.0666155451
 21
1.7611727693
 31
0.0
 11
11.0005358493
 21
1.7623060535
 31
0.0
 11
10.9171232393
 21
1.7630371996
 31
0.0
 11
10.825888085
 21
1.7632853453
 31
0.0
  0
SPLINE
  5
651
100
AcDbEntity
  8
RACCORDO
100
AcDbSpline
 62
7
  6
CONTINUOUS
 70
0
 71
3
 72
12
 73
8
 74
6
 42
0.0000001
 43
0.0000001
 44
0.0000000001
 12
0.3000714422
 22
0.0
 32
0.0
 13
0.212182242
 23
0.2121828612
 33
0.0
 40
0.0
 40
0.0
 40
0.0
 40
0.0
 40
0.3041122026
 40
0.5821091747
 40
0.8023324649
 40
0.9471238464
 40
1.0
 40
1.0
 40
1.0
 40
1.0
 10
10.8261312214
 20
1.0205101063
 30
0.0
 10
10.8565496838
 20
1.0205101063
 30
0.0
 10
10.9149293433
 20
1.0203787466
 30
0.0
 10
10.9945762359
 20
1.0221437369
 30
0.0
 10
11.0604413469
 20
1.0203176512
 30
0.0
 10
11.0991801952
 20
1.0270515647
 30
0.0
 10
11.1223459926
 20
1.0219146777
 30
0.0
 10
11.1260857863
 20
1.0256544822
 30
0.0
 11
10.8261312214
 21
1.0205101063
 31
0.0
 11
10.9173862713
 21
1.0207582093
 31
0.0
 11
11.0008020219
 21
1.0214890839
 31
0.0
 11
11.0668750339
 21
1.0226217807
 31
0.0
 11
11.1102987357
 21
1.0240674157
 31
0.0
 11
11.1260857863
 21
1.0256544822
 31
0.0
  0
SPLINE
  5
652
100
AcDbEntity
  8
RACCORDO
100
AcDbSpline
 62
253
  6
CONTINUOUS
 70
0
 71
3
 72
11
 73
7
 74
5
 42
0.0000001
 43
0.0000001
 44
0.0000000001
 12
0.000000661
 22
-0.353571321
 32
0.0
 13
-0.0098781864
 23
-0.3534333042
 33
0.0
 40
0.0
 40
0.0
 40
0.0
 40
0.0
 40
0.2733034014
 40
0.5418653407
 40
0.7898898962
 40
1.0
 40
1.0
 40
1.0
 40
1.0
 10
7.2567453758
 20
6.348867516
 30
0.0
 10
7.256745436
 20
6.3166567678
 30
0.0
 10
7.2565744374
 20
6.2527939549
 30
0.0
 10
7.2558045282
 20
6.1597024406
 30
0.0
 10
7.2545499742
 20
6.0740646869
 30
0.0
 10
7.2533472768
 20
6.0200827648
 30
0.0
 10
7.2526554412
 20
5.9953294621
 30
0.0
 11
7.2567453758
 21
6.348867516
 31
0.0
 11
7.2564820817
 21
6.25223563
 31
0.0
 11
7.2556795619
 21
6.1572832217
 31
0.0
 11
7.2543638294
 21
6.0695987229
 31
0.0
 11
7.2526554412
 21
5.9953294621
 31
0.0
  0
SPLINE
  5
653
100
AcDbEntity
  8
RACCORDO
100
AcDbSpline
 62
253
  6
CONTINUOUS
 70
0
 71
3
 72
11
 73
7
 74
5
 42
0.0000001
 43
0.0000001
 44
0.0000000001
 12
0.000000661
 22
-0.353571321
 32
0.0
 13
-0.0098781864
 23
-0.3534333042
 33
0.0
 40
0.0
 40
0.0
 40
0.0
 40
0.0
 40
0.2733034014
 40
0.5418653407
 40
0.7898898962
 40
1.0
 40
1.0
 40
1.0
 40
1.0
 10
-7.0432546242
 20
6.348867516
 30
0.0
 10
-7.043254564
 20
6.3166567678
 30
0.0
 10
-7.0434255626
 20
6.2527939549
 30
0.0
 10
-7.0441954718
 20
6.1597024406
 30
0.0
 10
-7.0454500258
 20
6.0740646869
 30
0.0
 10
-7.0466527232
 20
6.0200827648
 30
0.0
 10
-7.0473445588
 20
5.9953294621
 30
0.0
 11
-7.0432546242
 21
6.348867516
 31
0.0
 11
-7.0435179183
 21
6.25223563
 31
0.0
 11
-7.0443204381
 21
6.1572832217
 31
0.0
 11
-7.0456361706
 21
6.0695987229
 31
0.0
 11
-7.0473445588
 21
5.9953294621
 31
0.0
  0
SPLINE
  5
654
100
AcDbEntity
  8
RACCORDO
100
AcDbSpline
 62
253
  6
CONTINUOUS
 70
0
 71
3
 72
11
 73
7
 74
5
 42
0.0000001
 43
0.0000001
 44
0.0000000001
 12
-0.0098781004
 22
0.3534330094
 32
0.0
 13
0.0000006738
 23
0.3535710239
 33
0.0
 40
0.0
 40
0.0
 40
0.0
 40
0.0
 40
0.210108614
 40
0.4581332567
 40
0.7266954159
 40
1.0
 40
1.0
 40
1.0
 40
1.0
 10
-7.2495462487
 20
5.9953294621
 30
0.0
 10
-7.2502380733
 20
6.0200825686
 30
0.0
 10
-7.2514407813
 20
6.0740642797
 30
0.0
 10
-7.2526953246
 20
6.1597018223
 30
0.0
 10
-7.2534652421
 20
6.2527934338
 30
0.0
 10
-7.2536362438
 20
6.3166563584
 30
0.0
 10
-7.2536361825
 20
6.3488672189
 30
0.0
 11
-7.2495462487
 21
5.9953294621
 31
0.0
 11
-7.251254628
 21
6.0695981338
 31
0.0
 11
-7.2525703608
 21
6.1572825897
 31
0.0
 11
-7.253372885
 21
6.252234996
 31
0.0
 11
-7.2536361825
 21
6.3488672189
 31
0.0
  0
SPLINE
  5
655
100
AcDbEntity
  8
RACCORDO
100
AcDbSpline
 62
7
  6
CONTINUOUS
 70
0
 71
3
 72
11
 73
7
 74
5
 42
0.0000001
 43
0.0000001
 44
0.0000000001
 12
0.1877591309
 22
0.0090044277
 32
0.0
 13
0.1879749211
 23
0.0
 33
0.0
 40
0.0
 40
0.0
 40
0.0
 40
0.0
 40
0.1555665837
 40
0.3898430933
 40
0.6801151059
 40
1.0
 40
1.0
 40
1.0
 40
1.0
 10
4.2435016353
 20
5.5653685708
 30
0.0
 10
4.2532379842
 20
5.5658355001
 30
0.0
 10
4.2776601602
 20
5.5664639382
 30
0.0
 10
4.3202685443
 20
5.5671428902
 30
0.0
 10
4.3731786223
 20
5.5675658629
 30
0.0
 10
4.4114099178
 20
5.5676660831
 30
0.0
 10
4.4314533637
 20
5.5676660831
 30
0.0
 11
4.2435016353
 21
5.5653685708
 31
0.0
 11
4.2727294473
 21
5.5662989555
 31
0.0
 11
4.3167614051
 21
5.5670349462
 31
0.0
 11
4.371323243
 21
5.5675045423
 31
0.0
 11
4.4314533637
 21
5.5676660831
 31
0.0
  0
SPLINE
  5
656
100
AcDbEntity
  8
RACCORDO
100
AcDbSpline
 62
7
  6
CONTINUOUS
 70
0
 71
3
 72
11
 73
7
 74
5
 42
0.0000001
 43
0.0000001
 44
0.0000000001
 12
-0.1879629201
 22
0.0
 32
0.0
 13
-0.1877471435
 23
0.009003857
 33
0.0
 40
0.0
 40
0.0
 40
0.0
 40
0.0
 40
0.3199428211
 40
0.6102303145
 40
0.8444792159
 40
1.0
 40
1.0
 40
1.0
 40
1.0
 10
4.4249304585
 20
3.9161990296
 30
0.0
 10
4.4048846628
 20
3.9161990296
 30
0.0
 10
4.366651209
 20
3.9162992328
 30
0.0
 10
4.3137416386
 20
3.9167221141
 30
0.0
 10
4.2711396028
 20
3.9174008723
 30
0.0
 10
4.2467235813
 20
3.9180290564
 30
0.0
 10
4.2369907203
 20
3.9184958187
 30
0.0
 11
4.4249304585
 21
3.9161990296
 31
0.0
 11
4.3647932885
 21
3.9163605579
 31
0.0
 11
4.3102320237
 21
3.9168300721
 31
0.0
 11
4.266208064
 21
3.9175658325
 31
0.0
 11
4.2369907203
 21
3.9184958187
 31
0.0
  0
SPLINE
  5
657
100
AcDbEntity
  8
RACCORDO
100
AcDbSpline
 62
7
  6
CONTINUOUS
 70
0
 71
3
 72
11
 73
7
 74
5
 42
0.0000001
 43
0.0000001
 44
0.0000000001
 12
-0.1877471435
 22
-0.009003857
 32
0.0
 13
-0.1879629201
 23
0.0
 33
0.0
 40
0.0
 40
0.0
 40
0.0
 40
0.0
 40
0.1555207841
 40
0.3897696855
 40
0.6800571789
 40
1.0
 40
1.0
 40
1.0
 40
1.0
 10
-4.2338815277
 20
3.9184958187
 30
0.0
 10
-4.2436143887
 20
3.9180290564
 30
0.0
 10
-4.2680304103
 20
3.9174008723
 30
0.0
 10
-4.310632446
 20
3.9167221141
 30
0.0
 10
-4.3635420164
 20
3.9162992328
 30
0.0
 10
-4.4017754703
 20
3.9161990296
 30
0.0
 10
-4.4218212659
 20
3.9161990296
 30
0.0
 11
-4.2338815277
 21
3.9184958187
 31
0.0
 11
-4.2630988715
 21
3.9175658325
 31
0.0
 11
-4.3071228311
 21
3.9168300721
 31
0.0
 11
-4.361684096
 21
3.9163605579
 31
0.0
 11
-4.4218212659
 21
3.9161990296
 31
0.0
  0
SPLINE
  5
658
100
AcDbEntity
  8
RACCORDO
100
AcDbSpline
 62
7
  6
CONTINUOUS
 70
0
 71
3
 72
11
 73
7
 74
5
 42
0.0000001
 43
0.0000001
 44
0.0000000001
 12
0.1879749211
 22
0.0
 32
0.0
 13
0.1877591309
 23
-0.0090044277
 33
0.0
 40
0.0
 40
0.0
 40
0.0
 40
0.0
 40
0.3198848941
 40
0.6101569067
 40
0.8444334163
 40
1.0
 40
1.0
 40
1.0
 40
1.0
 10
-4.4283441712
 20
5.5676660831
 30
0.0
 10
-4.4083007253
 20
5.5676660831
 30
0.0
 10
-4.3700694297
 20
5.5675658629
 30
0.0
 10
-4.3171593518
 20
5.5671428902
 30
0.0
 10
-4.2745509676
 20
5.5664639382
 30
0.0
 10
-4.2501287916
 20
5.5658355001
 30
0.0
 10
-4.2403924428
 20
5.5653685708
 30
0.0
 11
-4.4283441712
 21
5.5676660831
 31
0.0
 11
-4.3682140504
 21
5.5675045423
 31
0.0
 11
-4.3136522126
 21
5.5670349462
 31
0.0
 11
-4.2696202547
 21
5.5662989555
 31
0.0
 11
-4.2403924428
 21
5.5653685708
 31
0.0
  0
SPLINE
  5
659
100
AcDbEntity
  8
ASSI
100
AcDbSpline
 62
7
  6
CONTINUOUS
 70
0
 71
3
 72
9
 73
5
 74
3
 42
0.0000001
 43
0.0000001
 44
0.0000000001
 12
-0.0094537596
 22
0.4232572779
 32
0.0
 13
-0.4233861002
 23
-0.0063259668
 33
0.0
 40
0.0
 40
0.0
 40
0.0
 40
0.0
 40
0.479537544
 40
1.0
 40
1.0
 40
1.0
 40
1.0
 10
-1.3097735722
 20
-1.1976017841
 30
0.0
 10
-1.3112847165
 20
-1.1299458656
 30
0.0
 10
-1.339906488
 20
-0.9728037892
 30
0.0
 10
-1.5003394346
 20
-0.9208718495
 30
0.0
 10
-1.5737916244
 20
-0.9219693256
 30
0.0
 11
-1.3097735722
 21
-1.1976017841
 31
0.0
 11
-1.3690459488
 21
-1.003428544
 31
0.0
 11
-1.5737916244
 21
-0.9219693256
 31
0.0
  0
SPLINE
  5
65A
100
AcDbEntity
  8
ASSI
100
AcDbSpline
 62
7
  6
CONTINUOUS
 70
0
 71
3
 72
9
 73
5
 74
3
 42
0.0000001
 43
0.0000001
 44
0.0000000001
 12
-0.3133621804
 22
-0.004682097
 32
0.0
 13
-0.0361338581
 23
-0.3113313547
 33
0.0
 40
0.0
 40
0.0
 40
0.0
 40
0.0
 40
0.4988583522
 40
1.0
 40
1.0
 40
1.0
 40
1.0
 10
-1.5737916246
 20
-0.9219693109
 30
0.0
 10
-1.625899405
 20
-0.9227478786
 30
0.0
 10
-1.7345733622
 20
-0.9651724257
 30
0.0
 10
-1.780390506
 20
-1.070408671
 30
0.0
 10
-1.7864265664
 20
-1.122415707
 30
0.0
 11
-1.5737916246
 21
-0.9219693109
 31
0.0
 11
-1.7186827025
 21
-0.9807068555
 31
0.0
 11
-1.7864265664
 21
-1.122415707
 31
0.0
  0
SPLINE
  5
65B
100
AcDbEntity
  8
ASSI
100
AcDbSpline
 62
7
  6
CONTINUOUS
 70
0
 71
3
 72
9
 73
5
 74
3
 42
0.0000001
 43
0.0000001
 44
0.0000000001
 12
-0.0321345863
 22
-0.2768734098
 32
0.0
 13
0.0468836161
 23
-0.2747605688
 33
0.0
 40
0.0
 40
0.0
 40
0.0
 40
0.0
 40
0.7295958321
 40
1.0
 40
1.0
 40
1.0
 40
1.0
 10
-1.7864265662
 20
-1.1224157071
 30
0.0
 10
-1.794241653
 20
-1.1897509357
 30
0.0
 10
-1.7945429009
 20
-1.2837436243
 30
0.0
 10
-1.7806448964
 20
-1.3756170293
 30
0.0
 10
-1.7764190547
 20
-1.4003824969
 30
0.0
 11
-1.7864265662
 21
-1.1224157071
 31
0.0
 11
-1.7871228263
 21
-1.3257761673
 31
0.0
 11
-1.7764190547
 21
-1.4003824969
 31
0.0
  0
SPLINE
  5
65C
100
AcDbEntity
  8
ASSI
100
AcDbSpline
 62
7
  6
CONTINUOUS
 70
0
 71
3
 72
9
 73
5
 74
3
 42
0.0000001
 43
0.0000001
 44
0.0000000001
 12
-0.128341011
 22
0.8723735981
 32
0.0
 13
0.2997650463
 23
0.8292493193
 33
0.0
 40
0.0
 40
0.0
 40
0.0
 40
0.0
 40
0.7041528059
 40
1.0
 40
1.0
 40
1.0
 40
1.0
 10
-2.0461474859
 20
-1.7420172646
 30
0.0
 10
-2.0762713802
 20
-1.5372558257
 30
0.0
 10
-2.1059235817
 20
-1.2418614998
 30
0.0
 10
-2.0577672644
 20
-0.9480088003
 30
0.0
 10
-2.0282057152
 20
-0.8662317721
 30
0.0
 11
-2.0461474859
 21
-1.7420172646
 31
0.0
 11
-2.0794508528
 21
-1.1220147253
 31
0.0
 11
-2.0282057152
 21
-0.8662317721
 31
0.0
  0
SPLINE
  5
65D
100
AcDbEntity
  8
ASSI
100
AcDbSpline
 62
7
  6
CONTINUOUS
 70
0
 71
3
 72
20
 73
16
 74
14
 42
0.0000001
 43
0.0000001
 44
0.0000000001
 12
0.3602221359
 22
0.9969834579
 32
0.0
 13
0.1356584285
 23
-1.0513528212
 33
0.0
 40
0.0
 40
0.0
 40
0.0
 40
0.0
 40
0.079756987
 40
0.1893481532
 40
0.2529748389
 40
0.3223669702
 40
0.3985017405
 40
0.4831988921
 40
0.5372476303
 40
0.5875584989
 40
0.6787382851
 40
0.7596505358
 40
0.8314106377
 40
0.9440765302
 40
1.0
 40
1.0
 40
1.0
 40
1.0
 10
-2.0282057531
 20
-0.8662317568
 30
0.0
 10
-2.0186290091
 20
-0.8397262913
 30
0.0
 10
-1.9859693873
 20
-0.7804857387
 30
0.0
 10
-1.9262737534
 20
-0.7127200991
 30
0.0
 10
-1.8575121607
 20
-0.6610132811
 30
0.0
 10
-1.7919143241
 20
-0.6262480174
 30
0.0
 10
-1.7142598046
 20
-0.6006737583
 30
0.0
 10
-1.6387303842
 20
-0.5897792569
 30
0.0
 10
-1.5718440458
 20
-0.5885903848
 30
0.0
 10
-1.502879499
 20
-0.5939778447
 30
0.0
 10
-1.4256247926
 20
-0.6114010171
 30
0.0
 10
-1.3465337607
 20
-0.6463018576
 30
0.0
 10
-1.2672794713
 20
-0.6983574693
 30
0.0
 10
-1.211467602
 20
-0.7603698658
 30
0.0
 10
-1.1721991325
 20
-0.8101733132
 30
0.0
 10
-1.1696703025
 20
-0.8297717458
 30
0.0
 11
-2.0282057531
 21
-0.8662317568
 31
0.0
 11
-1.9889823627
 21
-0.7913313015
 31
0.0
 11
-1.9121373254
 21
-0.7042033458
 31
0.0
 11
-1.8582267932
 21
-0.6636696899
 31
0.0
 11
-1.7932460106
 21
-0.6291930928
 31
0.0
 11
-1.7166362966
 21
-0.6038011876
 31
0.0
 11
-1.6278389699
 21
-0.5905216075
 31
0.0
 11
-1.5705524443
 21
-0.5895141455
 31
0.0
 11
-1.5173887684
 21
-0.5937604141
 31
0.0
 11
-1.4231704927
 21
-0.6153350139
 31
0.0
 11
-1.3446651967
 21
-0.6498871475
 31
0.0
 11
-1.2813539344
 21
-0.6920585555
 31
0.0
 11
-1.198237727
 21
-0.7778261577
 31
0.0
 11
-1.1696703025
 21
-0.8297717458
 31
0.0
  0
SPLINE
  5
65E
100
AcDbEntity
  8
ASSI
100
AcDbSpline
 62
7
  6
CONTINUOUS
 70
0
 71
3
 72
9
 73
5
 74
3
 42
0.0000001
 43
0.0000001
 44
0.0000000001
 12
0.2092440046
 22
0.2567965258
 32
0.0
 13
0.3209543859
 23
0.0874412864
 33
0.0
 40
0.0
 40
0.0
 40
0.0
 40
0.0
 40
0.7111552999
 40
1.0
 40
1.0
 40
1.0
 40
1.0
 10
-1.1276768725
 20
-0.7761056261
 30
0.0
 10
-1.0780752115
 20
-0.715231556
 30
0.0
 10
-0.9619240557
 20
-0.6606660484
 30
0.0
 10
-0.8570910271
 20
-0.6336537457
 30
0.0
 10
-0.826189036
 20
-0.6252347617
 30
0.0
 11
-1.1276768725
 21
-0.7761056261
 31
0.0
 11
-0.9185962421
 21
-0.6515572653
 31
0.0
 11
-0.826189036
 21
-0.6252347617
 31
0.0
  0
SPLINE
  5
65F
100
AcDbEntity
  8
ASSI
100
AcDbSpline
 62
7
  6
CONTINUOUS
 70
0
 71
3
 72
9
 73
5
 74
3
 42
0.0000001
 43
0.0000001
 44
0.0000000001
 12
0.4590342986
 22
0.125059974
 32
0.0
 13
0.4591324757
 23
0.1246990799
 33
0.0
 40
0.0
 40
0.0
 40
0.0
 40
0.0
 40
0.8019701206
 40
1.0
 40
1.0
 40
1.0
 40
1.0
 10
-0.8261890361
 20
-0.6252347614
 30
0.0
 10
-0.7034784388
 20
-0.5918033073
 30
0.0
 10
-0.5498401948
 20
-0.5524604786
 30
0.0
 10
-0.3964520333
 20
-0.5121747513
 30
0.0
 10
-0.366144717
 20
-0.5039433701
 30
0.0
 11
-0.8261890361
 21
-0.6252347614
 31
0.0
 11
-0.4572127187
 21
-0.5280933302
 31
0.0
 11
-0.366144717
 21
-0.5039433701
 31
0.0
  0
SPLINE
  5
660
100
AcDbEntity
  8
ASSI
100
AcDbSpline
 62
7
  6
CONTINUOUS
 70
0
 71
3
 72
9
 73
5
 74
3
 42
0.0000001
 43
0.0000001
 44
0.0000000001
 12
-0.5174692086
 22
-0.1487744753
 32
0.0
 13
-0.5040219036
 23
-0.1893972716
 33
0.0
 40
0.0
 40
0.0
 40
0.0
 40
0.0
 40
0.4412847493
 40
1.0
 40
1.0
 40
1.0
 40
1.0
 10
-0.366144717
 20
-0.8452467134
 30
0.0
 10
-0.442261807
 20
-0.8671306824
 30
0.0
 10
-0.6140444435
 20
-0.9188026026
 30
0.0
 10
-0.7878377193
 20
-0.9651715091
 30
0.0
 10
-0.8817059607
 20
-1.0004445571
 30
0.0
 11
-0.366144717
 21
-0.8452467134
 31
0.0
 11
-0.5942634586
 21
-0.9117020754
 31
0.0
 11
-0.8817059607
 21
-1.0004445571
 31
0.0
  0
SPLINE
  5
661
100
AcDbEntity
  8
ASSI
100
AcDbSpline
 62
7
  6
CONTINUOUS
 70
0
 71
3
 72
9
 73
5
 74
3
 42
0.0000001
 43
0.0000001
 44
0.0000000001
 12
-0.243894777
 22
-0.0916489686
 32
0.0
 13
-0.0
 23
-0.2605161169
 33
0.0
 40
0.0
 40
0.0
 40
0.0
 40
0.0
 40
0.6439294634
 40
1.0
 40
1.0
 40
1.0
 40
1.0
 10
-0.8817059677
 20
-1.0004445384
 30
0.0
 10
-0.934056312
 20
-1.0201163621
 30
0.0
 10
-1.0126618748
 20
-1.078534394
 30
0.0
 10
-1.0313771196
 20
-1.167445905
 30
0.0
 10
-1.0313771196
 20
-1.1983666095
 30
0.0
 11
-0.8817059677
 21
-1.0004445384
 31
0.0
 11
-1.0104559576
 21
-1.1079945193
 31
0.0
 11
-1.0313771196
 21
-1.1983666095
 31
0.0
  0
SPLINE
  5
662
100
AcDbEntity
  8
ASSI
100
AcDbSpline
 62
7
  6
CONTINUOUS
 70
0
 71
3
 72
10
 73
6
 74
4
 42
0.0000001
 43
0.0000001
 44
0.0000000001
 12
-0.1883407282
 22
0.1821744696
 32
0.0
 13
-0.1853866385
 23
0.1851798087
 33
0.0
 40
0.0
 40
0.0
 40
0.0
 40
0.0
 40
0.2861514979
 40
0.6199988295
 40
1.0
 40
1.0
 40
1.0
 40
1.0
 10
11.017149739
 20
-7.5817692099
 30
0.0
 10
10.9991850785
 20
-7.5643927107
 30
0.0
 10
10.9604014795
 20
-7.5265985231
 30
0.0
 10
10.898171562
 20
-7.4653094479
 30
0.0
 10
10.8539583415
 20
-7.4213464937
 30
0.0
 10
10.8304759616
 20
-7.3978903123
 30
0.0
 11
11.017149739
 21
-7.5817692099
 31
0.0
 11
10.9634279017
 21
-7.5294623276
 31
0.0
 11
10.9010895358
 21
-7.4680918409
 31
0.0
 11
10.8304759616
 21
-7.3978903123
 31
0.0
  0
SPLINE
  5
663
100
AcDbEntity
  8
ASSI
100
AcDbSpline
 62
7
  6
CONTINUOUS
 70
0
 71
3
 72
10
 73
6
 74
4
 42
0.0000001
 43
0.0000001
 44
0.0000000001
 12
0.1932351421
 22
0.1319011105
 32
0.0
 13
0.0048001619
 23
0.233911696
 33
0.0
 40
0.0
 40
0.0
 40
0.0
 40
0.0
 40
0.3395046921
 40
0.6724952268
 40
1.0
 40
1.0
 40
1.0
 40
1.0
 10
11.017149739
 20
-7.5817692099
 30
0.0
 10
11.0390178182
 20
-7.5668421946
 30
0.0
 10
11.0786005082
 20
-7.5311955763
 30
0.0
 10
11.1193986953
 20
-7.4633050546
 30
0.0
 10
11.1299062448
 20
-7.4115735797
 30
0.0
 10
11.1304302701
 20
-7.3860378473
 30
0.0
 11
11.017149739
 21
-7.5817692099
 31
0.0
 11
11.07588829
 21
-7.528299212
 31
0.0
 11
11.1154440863
 21
-7.4611813656
 31
0.0
 11
11.1304302701
 21
-7.3860378473
 31
0.0
  0
SPLINE
  5
664
100
AcDbEntity
  8
ASSI
100
AcDbSpline
 62
7
  6
CONTINUOUS
 70
0
 71
3
 72
10
 73
6
 74
4
 42
0.0000001
 43
0.0000001
 44
0.0000000001
 12
0.2111534819
 22
0.0378729015
 32
0.0
 13
0.1518156339
 23
0.1515657049
 33
0.0
 40
0.0
 40
0.0
 40
0.0
 40
0.0
 40
0.3420454831
 40
0.6747450136
 40
1.0
 40
1.0
 40
1.0
 40
1.0
 10
10.8304759602
 20
-7.6814801595
 30
0.0
 10
10.8545506585
 20
-7.6771620746
 30
0.0
 10
10.9012261291
 20
-7.6631492428
 30
0.0
 10
10.9642100114
 20
-7.628412694
 30
0.0
 10
11.0006901417
 20
-7.5982017103
 30
0.0
 10
11.017149739
 20
-7.5817692099
 30
0.0
 11
10.8304759602
 21
-7.6814801595
 31
0.0
 11
10.9007991514
 21
-7.6605330509
 31
0.0
 11
10.9634105764
 21
-7.6262732673
 31
0.0
 11
11.017149739
 21
-7.5817692099
 31
0.0
  0
SPLINE
  5
665
100
AcDbEntity
  8
ASSI
100
AcDbSpline
 62
7
  6
CONTINUOUS
 70
0
 71
3
 72
11
 73
7
 74
5
 42
0.0000001
 43
0.0000001
 44
0.0000000001
 12
-0.1934720276
 22
0.1323336071
 32
0.0
 13
-0.004777495
 23
0.2343518393
 33
0.0
 40
0.0
 40
0.0
 40
0.0
 40
0.0
 40
0.2553623096
 40
0.5075354551
 40
0.7552605149
 40
1.0
 40
1.0
 40
1.0
 40
1.0
 10
-11.0140336096
 20
-7.5817758516
 30
0.0
 10
-11.0305020975
 20
-7.5705115131
 30
0.0
 10
-11.0610850577
 20
-7.5447456886
 30
0.0
 10
-11.0972750016
 20
-7.4975002037
 30
0.0
 10
-11.1209203793
 20
-7.4437007404
 30
0.0
 10
-11.1269313304
 20
-7.4051562302
 30
0.0
 10
-11.1273210776
 20
-7.3860378473
 30
0.0
 11
-11.0140336096
 21
-7.5817758516
 31
0.0
 11
-11.0596916649
 21
-7.5430691372
 31
0.0
 11
-11.0954320753
 21
-7.4959887981
 31
0.0
 11
-11.1185791966
 21
-7.4427349346
 31
0.0
 11
-11.1273210776
 21
-7.3860378473
 31
0.0
  0
SPLINE
  5
666
100
AcDbEntity
  8
ASSI
100
AcDbSpline
 62
7
  6
CONTINUOUS
 70
0
 71
3
 72
10
 73
6
 74
4
 42
0.0000001
 43
0.0000001
 44
0.0000000001
 12
0.1883472662
 22
0.1821697226
 32
0.0
 13
0.1853876284
 23
0.1851807974
 33
0.0
 40
0.0
 40
0.0
 40
0.0
 40
0.0
 40
0.2877120613
 40
0.6240039224
 40
1.0
 40
1.0
 40
1.0
 40
1.0
 10
-11.0140424649
 20
-7.5817692454
 30
0.0
 10
-10.9959792049
 20
-7.5642984366
 30
0.0
 10
-10.9569449917
 20
-7.5262597582
 30
0.0
 10
-10.8947176323
 20
-7.4649674143
 30
0.0
 10
-10.8506017761
 20
-7.4210993968
 30
0.0
 10
-10.827366769
 20
-7.3978903123
 30
0.0
 11
-11.0140424649
 21
-7.5817692454
 31
0.0
 11
-10.9600272624
 21
-7.5291769207
 31
0.0
 11
-10.8972346722
 21
-7.4673541195
 31
0.0
 11
-10.827366769
 21
-7.3978903123
 31
0.0
  0
SPLINE
  5
667
100
AcDbEntity
  8
ASSI
100
AcDbSpline
 62
7
  6
CONTINUOUS
 70
0
 71
3
 72
10
 73
6
 74
4
 42
0.0000001
 43
0.0000001
 44
0.0000000001
 12
-0.2113510983
 22
0.0367634485
 32
0.0
 13
-0.1528975824
 23
0.1504764673
 33
0.0
 40
0.0
 40
0.0
 40
0.0
 40
0.0
 40
0.3410974996
 40
0.6751553688
 40
1.0
 40
1.0
 40
1.0
 40
1.0
 10
-10.8273667677
 20
-7.6814801595
 30
0.0
 10
-10.8513972114
 20
-7.6773001861
 30
0.0
 10
-10.8980539608
 20
-7.663094444
 30
0.0
 10
-10.9611330842
 20
-7.6285103948
 30
0.0
 10
-10.9974864787
 20
-7.5980630696
 30
0.0
 10
-11.0140424649
 20
-7.5817692454
 30
0.0
 11
-10.8273667677
 21
-7.6814801595
 31
0.0
 11
-10.8975019795
 21
-7.6606124405
 31
0.0
 11
-10.960375171
 21
-7.6262228847
 31
0.0
 11
-11.0140424649
 21
-7.5817692454
 31
0.0
  0
SPLINE
  5
668
100
AcDbEntity
  8
ASSI
100
AcDbSpline
 62
253
  6
CONTINUOUS
 70
0
 71
3
 72
12
 73
8
 74
6
 42
0.0000001
 43
0.0000001
 44
0.0000000001
 12
-0.0070145166
 22
0.4019838217
 32
0.0
 13
-0.4020297068
 23
0.0035087299
 33
0.0
 40
0.0
 40
0.0
 40
0.0
 40
0.0
 40
0.1664007688
 40
0.3475548035
 40
0.549388854
 40
0.7695487352
 40
1.0
 40
1.0
 40
1.0
 40
1.0
 10
-6.7473902502
 20
5.7831974277
 30
0.0
 10
-6.7477793239
 20
5.8054942333
 30
0.0
 10
-6.7595596565
 20
5.8523194198
 30
0.0
 10
-6.8052050073
 20
5.9120273154
 30
0.0
 10
-6.8727972779
 20
5.9583361986
 30
0.0
 10
-6.9559100142
 20
5.9879628872
 30
0.0
 10
-7.0164618073
 20
5.9950599316
 30
0.0
 10
-7.0473445588
 20
5.9953294621
 30
0.0
 11
-6.7473902502
 21
5.7831974277
 31
0.0
 11
-6.7629784145
 21
5.848256627
 31
0.0
 11
-6.8059701842
 21
5.9070462452
 31
0.0
 11
-6.8722225573
 21
5.9539008836
 31
0.0
 11
-6.9553509698
 21
5.984305286
 31
0.0
 11
-7.0473445588
 21
5.9953294621
 31
0.0
  0
SPLINE
  5
669
100
AcDbEntity
  8
ASSI
100
AcDbSpline
 62
253
  6
CONTINUOUS
 70
0
 71
3
 72
12
 73
8
 74
6
 42
0.0000001
 43
0.0000001
 44
0.0000000001
 12
-0.0070145118
 22
0.401983857
 32
0.0
 13
-0.402029743
 23
0.0035086199
 33
0.0
 40
0.0
 40
0.0
 40
0.0
 40
0.0
 40
0.1663980738
 40
0.3475504099
 40
0.549384185
 40
0.7695456059
 40
1.0
 40
1.0
 40
1.0
 40
1.0
 10
-6.759732845
 20
5.0760906465
 30
0.0
 10
-6.7601219121
 20
5.098387093
 30
0.0
 10
-6.7719018936
 20
5.1452116879
 30
0.0
 10
-6.8175464023
 20
5.2049194268
 30
0.0
 10
-6.8851383461
 20
5.2512287257
 30
0.0
 10
-6.9682515454
 20
5.2808559608
 30
0.0
 10
-7.0288039799
 20
5.287953155
 30
0.0
 10
-7.0596871536
 20
5.2882226807
 30
0.0
 11
-6.759732845
 21
5.0760906465
 31
0.0
 11
-6.7753205295
 21
5.1411488527
 31
0.0
 11
-6.8183114756
 21
5.199938235
 31
0.0
 11
-6.8845634523
 21
5.2467932545
 31
0.0
 11
-6.967692322
 21
5.2771982314
 31
0.0
 11
-7.0596871536
 21
5.2882226807
 31
0.0
  0
SPLINE
  5
66A
100
AcDbEntity
  8
ASSI
100
AcDbSpline
 62
253
  6
CONTINUOUS
 70
0
 71
3
 72
12
 73
8
 74
6
 42
0.0000001
 43
0.0000001
 44
0.0000000001
 12
0.0070145165
 22
0.4019838218
 32
0.0
 13
0.4020297069
 23
0.003508728
 33
0.0
 40
0.0
 40
0.0
 40
0.0
 40
0.0
 40
0.1664007686
 40
0.3475548033
 40
0.549388854
 40
0.7695487354
 40
1.0
 40
1.0
 40
1.0
 40
1.0
 10
-7.5371579624
 20
5.0760906465
 30
0.0
 10
-7.5367688888
 20
5.0983874521
 30
0.0
 10
-7.5249885563
 20
5.1452126386
 30
0.0
 10
-7.4793432053
 20
5.2049205342
 30
0.0
 10
-7.4117509348
 20
5.2512294175
 30
0.0
 10
-7.3286381985
 20
5.2808561064
 30
0.0
 10
-7.2680864054
 20
5.2879531506
 30
0.0
 10
-7.2372036539
 20
5.2882226809
 30
0.0
 11
-7.5371579624
 21
5.0760906465
 31
0.0
 11
-7.5215697982
 21
5.1411498458
 31
0.0
 11
-7.4785780285
 21
5.1999394639
 31
0.0
 11
-7.4123256554
 21
5.2467941024
 31
0.0
 11
-7.3291972428
 21
5.2771985051
 31
0.0
 11
-7.2372036539
 21
5.2882226809
 31
0.0
  0
SPLINE
  5
66B
100
AcDbEntity
  8
ASSI
100
AcDbSpline
 62
253
  6
CONTINUOUS
 70
0
 71
3
 72
12
 73
8
 74
6
 42
0.0000001
 43
0.0000001
 44
0.0000000001
 12
0.0070145164
 22
0.4019837961
 32
0.0
 13
0.4020296812
 23
0.0035087308
 33
0.0
 40
0.0
 40
0.0
 40
0.0
 40
0.0
 40
0.1664062852
 40
0.3475634824
 40
0.549397719
 40
0.769554416
 40
1.0
 40
1.0
 40
1.0
 40
1.0
 10
-7.5495005572
 20
5.7831974277
 30
0.0
 10
-7.5491114707
 20
5.8054949711
 30
0.0
 10
-7.5373304455
 20
5.8523213329
 30
0.0
 10
-7.4916834719
 20
5.9120295136
 30
0.0
 10
-7.4240906462
 20
5.9583375556
 30
0.0
 10
-7.3409788232
 20
5.9879631937
 30
0.0
 10
-7.2804282369
 20
5.9950599373
 30
0.0
 10
-7.2495462487
 20
5.9953294611
 30
0.0
 11
-7.5495005572
 21
5.7831974277
 31
0.0
 11
-7.5339114254
 21
5.8482586715
 31
0.0
 11
-7.4909180781
 21
5.9070487053
 31
0.0
 11
-7.4246650496
 21
5.9539025377
 31
0.0
 11
-7.341537595
 21
5.9843058154
 31
0.0
 11
-7.2495462487
 21
5.9953294611
 31
0.0
  0
SPLINE
  5
66C
100
AcDbEntity
  8
ASSI
100
AcDbSpline
 62
253
  6
CONTINUOUS
 70
0
 71
3
 72
12
 73
8
 74
6
 42
0.0000001
 43
0.0000001
 44
0.0000000001
 12
0.0070145165
 22
0.4019838218
 32
0.0
 13
0.4020297069
 23
0.003508728
 33
0.0
 40
0.0
 40
0.0
 40
0.0
 40
0.0
 40
0.1664007686
 40
0.3475548033
 40
0.549388854
 40
0.7695487354
 40
1.0
 40
1.0
 40
1.0
 40
1.0
 10
6.7628420376
 20
5.0760906465
 30
0.0
 10
6.7632311112
 20
5.0983874521
 30
0.0
 10
6.7750114437
 20
5.1452126386
 30
0.0
 10
6.8206567947
 20
5.2049205342
 30
0.0
 10
6.8882490652
 20
5.2512294175
 30
0.0
 10
6.9713618015
 20
5.2808561064
 30
0.0
 10
7.0319135946
 20
5.2879531506
 30
0.0
 10
7.0627963461
 20
5.2882226809
 30
0.0
 11
6.7628420376
 21
5.0760906465
 31
0.0
 11
6.7784302018
 21
5.1411498458
 31
0.0
 11
6.8214219715
 21
5.1999394639
 31
0.0
 11
6.8876743446
 21
5.2467941024
 31
0.0
 11
6.9708027572
 21
5.2771985051
 31
0.0
 11
7.0627963461
 21
5.2882226809
 31
0.0
  0
SPLINE
  5
66D
100
AcDbEntity
  8
ASSI
100
AcDbSpline
 62
253
  6
CONTINUOUS
 70
0
 71
3
 72
12
 73
8
 74
6
 42
0.0000001
 43
0.0000001
 44
0.0000000001
 12
0.0070145164
 22
0.4019837961
 32
0.0
 13
0.4020296812
 23
0.0035087308
 33
0.0
 40
0.0
 40
0.0
 40
0.0
 40
0.0
 40
0.1664062852
 40
0.3475634824
 40
0.549397719
 40
0.769554416
 40
1.0
 40
1.0
 40
1.0
 40
1.0
 10
6.7504994428
 20
5.7831974277
 30
0.0
 10
6.7508885293
 20
5.8054949711
 30
0.0
 10
6.7626695545
 20
5.8523213329
 30
0.0
 10
6.8083165281
 20
5.9120295136
 30
0.0
 10
6.8759093538
 20
5.9583375556
 30
0.0
 10
6.9590211768
 20
5.9879631937
 30
0.0
 10
7.0195717631
 20
5.9950599373
 30
0.0
 10
7.0504537513
 20
5.9953294611
 30
0.0
 11
6.7504994428
 21
5.7831974277
 31
0.0
 11
6.7660885746
 21
5.8482586715
 31
0.0
 11
6.8090819219
 21
5.9070487053
 31
0.0
 11
6.8753349504
 21
5.9539025377
 31
0.0
 11
6.958462405
 21
5.9843058154
 31
0.0
 11
7.0504537513
 21
5.9953294611
 31
0.0
  0
SPLINE
  5
66E
100
AcDbEntity
  8
ASSI
100
AcDbSpline
 62
253
  6
CONTINUOUS
 70
0
 71
3
 72
12
 73
8
 74
6
 42
0.0000001
 43
0.0000001
 44
0.0000000001
 12
-0.0070145166
 22
0.4019838217
 32
0.0
 13
-0.4020297068
 23
0.0035087299
 33
0.0
 40
0.0
 40
0.0
 40
0.0
 40
0.0
 40
0.1664007688
 40
0.3475548035
 40
0.549388854
 40
0.7695487352
 40
1.0
 40
1.0
 40
1.0
 40
1.0
 10
7.5526097498
 20
5.7831974277
 30
0.0
 10
7.5522206761
 20
5.8054942333
 30
0.0
 10
7.5404403435
 20
5.8523194198
 30
0.0
 10
7.4947949927
 20
5.9120273154
 30
0.0
 10
7.4272027221
 20
5.9583361986
 30
0.0
 10
7.3440899858
 20
5.9879628872
 30
0.0
 10
7.2835381927
 20
5.9950599316
 30
0.0
 10
7.2526554412
 20
5.9953294621
 30
0.0
 11
7.5526097498
 21
5.7831974277
 31
0.0
 11
7.5370215855
 21
5.848256627
 31
0.0
 11
7.4940298158
 21
5.9070462452
 31
0.0
 11
7.4277774427
 21
5.9539008836
 31
0.0
 11
7.3446490302
 21
5.984305286
 31
0.0
 11
7.2526554412
 21
5.9953294621
 31
0.0
  0
SPLINE
  5
66F
100
AcDbEntity
  8
ASSI
100
AcDbSpline
 62
253
  6
CONTINUOUS
 70
0
 71
3
 72
12
 73
8
 74
6
 42
0.0000001
 43
0.0000001
 44
0.0000000001
 12
-0.0070145118
 22
0.401983857
 32
0.0
 13
-0.402029743
 23
0.0035086199
 33
0.0
 40
0.0
 40
0.0
 40
0.0
 40
0.0
 40
0.1663980738
 40
0.3475504099
 40
0.549384185
 40
0.7695456059
 40
1.0
 40
1.0
 40
1.0
 40
1.0
 10
7.540267155
 20
5.0760906465
 30
0.0
 10
7.5398780879
 20
5.098387093
 30
0.0
 10
7.5280981064
 20
5.1452116879
 30
0.0
 10
7.4824535977
 20
5.2049194268
 30
0.0
 10
7.4148616539
 20
5.2512287257
 30
0.0
 10
7.3317484546
 20
5.2808559608
 30
0.0
 10
7.2711960201
 20
5.287953155
 30
0.0
 10
7.2403128464
 20
5.2882226807
 30
0.0
 11
7.540267155
 21
5.0760906465
 31
0.0
 11
7.5246794705
 21
5.1411488527
 31
0.0
 11
7.4816885244
 21
5.199938235
 31
0.0
 11
7.4154365477
 21
5.2467932545
 31
0.0
 11
7.332307678
 21
5.2771982314
 31
0.0
 11
7.2403128464
 21
5.2882226807
 31
0.0
  0
SPLINE
  5
670
100
AcDbEntity
  8
ASSI
100
AcDbSpline
 62
253
  6
CONTINUOUS
 70
0
 71
3
 72
13
 73
9
 74
7
 42
0.0000001
 43
0.0000001
 44
0.0000000001
 12
0.1860199012
 22
0.4640617589
 32
0.0
 13
0.0000037631
 23
0.4999567178
 33
0.0
 40
0.0
 40
0.0
 40
0.0
 40
0.0
 40
0.0378218875
 40
0.1397846932
 40
0.2991078666
 40
0.5051686897
 40
0.7442254983
 40
1.0
 40
1.0
 40
1.0
 40
1.0
 10
7.0603887537
 20
3.0506559204
 30
0.0
 10
7.0627339617
 20
3.0565064842
 30
0.0
 10
7.0593121713
 20
3.0807892985
 30
0.0
 10
7.0636096494
 20
3.1297448597
 30
0.0
 10
7.0623634151
 20
3.2080911345
 30
0.0
 10
7.0636202419
 20
3.3086369104
 30
0.0
 10
7.0636830639
 20
3.4255052133
 30
0.0
 10
7.0638185193
 20
3.5079543745
 30
0.0
 10
7.0638188401
 20
3.5505797679
 30
0.0
 11
7.0603887537
 21
3.0506559204
 31
0.0
 11
7.0612798169
 21
3.0695442207
 31
0.0
 11
7.0621077321
 21
3.1205144868
 31
0.0
 11
7.0628177551
 21
3.2001660131
 31
0.0
 11
7.0633618303
 21
3.3031860693
 31
0.0
 11
7.0637028282
 21
3.4227036402
 31
0.0
 11
7.0638188401
 21
3.5505797679
 31
0.0
  0
SPLINE
  5
671
100
AcDbEntity
  8
ASSI
100
AcDbSpline
 62
253
  6
CONTINUOUS
 70
0
 71
3
 72
13
 73
9
 74
7
 42
0.0000001
 43
0.0000001
 44
0.0000000001
 12
0.0000037631
 22
-0.4999567178
 32
0.0
 13
0.1860199013
 23
-0.4640617589
 33
0.0
 40
0.0
 40
0.0
 40
0.0
 40
0.0
 40
0.2557745015
 40
0.4948313101
 40
0.7008921333
 40
0.8602153068
 40
0.9621781125
 40
1.0
 40
1.0
 40
1.0
 40
1.0
 10
7.2392903524
 20
3.5505797679
 30
0.0
 10
7.2392906732
 20
3.5079543745
 30
0.0
 10
7.2394261287
 20
3.4255052134
 30
0.0
 10
7.2394889507
 20
3.3086369105
 30
0.0
 10
7.2407457775
 20
3.2080911345
 30
0.0
 10
7.2394995431
 20
3.1297448597
 30
0.0
 10
7.2437970212
 20
3.0807892985
 30
0.0
 10
7.2403752309
 20
3.0565064842
 30
0.0
 10
7.2427204388
 20
3.0506559204
 30
0.0
 11
7.2392903524
 21
3.5505797679
 31
0.0
 11
7.2394063643
 21
3.4227036403
 31
0.0
 11
7.2397473622
 21
3.3031860693
 31
0.0
 11
7.2402914374
 21
3.2001660132
 31
0.0
 11
7.2410014604
 21
3.1205144868
 31
0.0
 11
7.2418293757
 21
3.0695442207
 31
0.0
 11
7.2427204388
 21
3.0506559204
 31
0.0
  0
SPLINE
  5
672
100
AcDbEntity
  8
ASSI
100
AcDbSpline
 62
253
  6
CONTINUOUS
 70
0
 71
3
 72
9
 73
5
 74
3
 42
0.0000001
 43
0.0000001
 44
0.0000000001
 12
0.0053452796
 22
-1.6468770511
 32
0.0
 13
0.0076765739
 23
-1.6468678343
 33
0.0
 40
0.0
 40
0.0
 40
0.0
 40
0.0
 40
0.500013719
 40
1.0
 40
1.0
 40
1.0
 40
1.0
 10
-4.2403924428
 20
5.5653685708
 30
0.0
 10
-4.2395015384
 20
5.2908815311
 30
0.0
 10
-4.2375254582
 20
4.7419231276
 30
0.0
 10
-4.2351609216
 20
4.1929662599
 30
0.0
 10
-4.2338815277
 20
3.9184958187
 30
0.0
 11
-4.2403924428
 21
5.5653685708
 31
0.0
 11
-4.2374282845
 21
4.7419084493
 31
0.0
 11
-4.2338815277
 21
3.9184958187
 31
0.0
  0
SPLINE
  5
673
100
AcDbEntity
  8
ASSI
100
AcDbSpline
 62
253
  6
CONTINUOUS
 70
0
 71
3
 72
9
 73
5
 74
3
 42
0.0000001
 43
0.0000001
 44
0.0000000001
 12
0.0076765739
 22
1.6468678343
 32
0.0
 13
0.0053452796
 23
1.6468770511
 33
0.0
 40
0.0
 40
0.0
 40
0.0
 40
0.0
 40
0.4999867127
 40
1.0
 40
1.0
 40
1.0
 40
1.0
 10
4.2369907203
 20
3.9184958187
 30
0.0
 10
4.2382701152
 20
4.1929664969
 30
0.0
 10
4.2406346517
 20
4.7419233646
 30
0.0
 10
4.2426107317
 20
5.2908817681
 30
0.0
 10
4.2435016353
 20
5.5653685708
 30
0.0
 11
4.2369907203
 21
3.9184958187
 31
0.0
 11
4.2405374799
 21
4.7419091603
 31
0.0
 11
4.2435016353
 21
5.5653685708
 31
0.0
  0
SPLINE
  5
674
100
AcDbEntity
  8
ASSI
100
AcDbSpline
 62
253
  6
CONTINUOUS
 70
0
 71
3
 72
13
 73
9
 74
7
 42
0.0000001
 43
0.0000001
 44
0.0000000001
 12
0.0000037631
 22
-0.4999567178
 32
0.0
 13
0.1860199013
 23
-0.4640617589
 33
0.0
 40
0.0
 40
0.0
 40
0.0
 40
0.0
 40
0.2557745015
 40
0.4948313101
 40
0.7008921333
 40
0.8602153068
 40
0.9621781125
 40
1.0
 40
1.0
 40
1.0
 40
1.0
 10
-7.0607096476
 20
3.5505797679
 30
0.0
 10
-7.0607093268
 20
3.5079543745
 30
0.0
 10
-7.0605738713
 20
3.4255052134
 30
0.0
 10
-7.0605110493
 20
3.3086369105
 30
0.0
 10
-7.0592542225
 20
3.2080911345
 30
0.0
 10
-7.0605004569
 20
3.1297448597
 30
0.0
 10
-7.0562029788
 20
3.0807892985
 30
0.0
 10
-7.0596247691
 20
3.0565064842
 30
0.0
 10
-7.0572795612
 20
3.0506559204
 30
0.0
 11
-7.0607096476
 21
3.5505797679
 31
0.0
 11
-7.0605936357
 21
3.4227036403
 31
0.0
 11
-7.0602526378
 21
3.3031860693
 31
0.0
 11
-7.0597085626
 21
3.2001660132
 31
0.0
 11
-7.0589985396
 21
3.1205144868
 31
0.0
 11
-7.0581706243
 21
3.0695442207
 31
0.0
 11
-7.0572795612
 21
3.0506559204
 31
0.0
  0
SPLINE
  5
675
100
AcDbEntity
  8
ASSI
100
AcDbSpline
 62
253
  6
CONTINUOUS
 70
0
 71
3
 72
11
 73
7
 74
5
 42
0.0000001
 43
0.0000001
 44
0.0000000001
 12
-0.0098331854
 22
0.5656207508
 32
0.0
 13
0.0000098444
 23
0.5657062181
 33
0.0
 40
0.0
 40
0.0
 40
0.0
 40
0.0
 40
0.2097951049
 40
0.4583292293
 40
0.7269157337
 40
1.0
 40
1.0
 40
1.0
 40
1.0
 10
6.7504994428
 20
5.7831974277
 30
0.0
 10
6.7498117914
 20
5.8227522493
 30
0.0
 10
6.7486026916
 20
5.9091708956
 30
0.0
 10
6.7473505583
 20
6.0462391493
 30
0.0
 10
6.7465804276
 20
6.1952454371
 30
0.0
 10
6.7464085705
 20
6.2973876968
 30
0.0
 10
6.7464094667
 20
6.3488828526
 30
0.0
 11
6.7504994428
 21
5.7831974277
 31
0.0
 11
6.7487928071
 21
5.9018675519
 31
0.0
 11
6.7474744384
 21
6.0424586702
 31
0.0
 11
6.7466723523
 21
6.1943976088
 31
0.0
 11
6.7464094667
 21
6.3488828526
 31
0.0
  0
SPLINE
  5
676
100
AcDbEntity
  8
ASSI
100
AcDbSpline
 62
253
  6
CONTINUOUS
 70
0
 71
3
 72
11
 73
7
 74
5
 42
0.0000001
 43
0.0000001
 44
0.0000000001
 12
-0.0000003835
 22
0.1414265542
 32
0.0
 13
-0.0024684792
 23
0.1414050099
 33
0.0
 40
0.0
 40
0.0
 40
0.0
 40
0.0
 40
0.2753968051
 40
0.5412973202
 40
0.7858857424
 40
1.0
 40
1.0
 40
1.0
 40
1.0
 10
6.7638645316
 20
4.9346692903
 30
0.0
 10
6.7638644964
 20
4.9476520973
 30
0.0
 10
6.7638215791
 20
4.9731700568
 30
0.0
 10
6.7636295529
 20
5.0102180158
 30
0.0
 10
6.7633181832
 20
5.0443760603
 30
0.0
 10
6.7630182164
 20
5.0659983703
 30
0.0
 10
6.7628420376
 20
5.0760906465
 30
0.0
 11
6.7638645316
 21
4.9346692903
 31
0.0
 11
6.7637976993
 21
4.9736176541
 31
0.0
 11
6.763598672
 21
5.011222521
 31
0.0
 11
6.7632758436
 21
5.0458123123
 31
0.0
 11
6.7628420376
 21
5.0760906465
 31
0.0
  0
SPLINE
  5
677
100
AcDbEntity
  8
ASSI
100
AcDbSpline
 62
253
  6
CONTINUOUS
 70
0
 71
3
 72
13
 73
9
 74
7
 42
0.0000001
 43
0.0000001
 44
0.0000000001
 12
0.141041107
 22
0.141873385
 32
0.0
 13
0.0000012265
 23
0.2000516215
 33
0.0
 40
0.0
 40
0.0
 40
0.0
 40
0.0
 40
0.0379383612
 40
0.1398218345
 40
0.2991571384
 40
0.5055293226
 40
0.744720332
 40
1.0
 40
1.0
 40
1.0
 40
1.0
 10
6.7604344452
 20
3.3506102289
 30
0.0
 10
6.762218068
 20
3.3524043768
 30
0.0
 10
6.760082579
 20
3.3632890102
 30
0.0
 10
6.7632302905
 20
3.381821452
 30
0.0
 10
6.7625858069
 20
3.4137323371
 30
0.0
 10
6.7636039647
 20
3.4537735701
 30
0.0
 10
6.7637491403
 20
3.5006081477
 30
0.0
 10
6.7638644272
 20
3.5335567308
 30
0.0
 10
6.7638645316
 20
3.5505797679
 30
0.0
 11
6.7604344452
 21
3.3506102289
 31
0.0
 11
6.7613247392
 21
3.3581474612
 31
0.0
 11
6.7621528976
 21
3.3785125834
 31
0.0
 11
6.7628631698
 21
3.4103799549
 31
0.0
 11
6.7634076358
 21
3.4516614546
 31
0.0
 11
6.7637488169
 21
3.4995107875
 31
0.0
 11
6.7638645316
 21
3.5505797679
 31
0.0
  0
SPLINE
  5
678
100
AcDbEntity
  8
ASSI
100
AcDbSpline
 62
253
  6
CONTINUOUS
 70
0
 71
3
 72
13
 73
9
 74
7
 42
0.0000001
 43
0.0000001
 44
0.0000000001
 12
0.0000012265
 22
-0.2000516215
 32
0.0
 13
0.1410411064
 23
-0.1418733857
 33
0.0
 40
0.0
 40
0.0
 40
0.0
 40
0.0
 40
0.2552796677
 40
0.4944706773
 40
0.7008428616
 40
0.8601781655
 40
0.9620616388
 40
1.0
 40
1.0
 40
1.0
 40
1.0
 10
7.539244661
 20
3.5505797679
 30
0.0
 10
7.5392447653
 20
3.5335567308
 30
0.0
 10
7.5393600522
 20
3.5006081478
 30
0.0
 10
7.5395052278
 20
3.4537735701
 30
0.0
 10
7.5405233857
 20
3.4137323371
 30
0.0
 10
7.539878902
 20
3.381821452
 30
0.0
 10
7.5430266136
 20
3.3632890102
 30
0.0
 10
7.5408911246
 20
3.3524043768
 30
0.0
 10
7.5426747474
 20
3.3506102289
 30
0.0
 11
7.539244661
 21
3.5505797679
 31
0.0
 11
7.5393603757
 21
3.4995107876
 31
0.0
 11
7.5397015568
 21
3.4516614546
 31
0.0
 11
7.5402460228
 21
3.4103799549
 31
0.0
 11
7.5409562949
 21
3.3785125834
 31
0.0
 11
7.5417844533
 21
3.3581474612
 31
0.0
 11
7.5426747474
 21
3.3506102289
 31
0.0
  0
SPLINE
  5
679
100
AcDbEntity
  8
ASSI
100
AcDbSpline
 62
253
  6
CONTINUOUS
 70
0
 71
3
 72
11
 73
7
 74
5
 42
0.0000001
 43
0.0000001
 44
0.0000000001
 12
-0.0024684792
 22
-0.1414050099
 32
0.0
 13
-0.0000003835
 23
-0.1414265542
 33
0.0
 40
0.0
 40
0.0
 40
0.0
 40
0.0
 40
0.2141142612
 40
0.458702684
 40
0.7246031997
 40
1.0
 40
1.0
 40
1.0
 40
1.0
 10
7.540267155
 20
5.0760906465
 30
0.0
 10
7.5400909761
 20
5.0659983701
 30
0.0
 10
7.5397910094
 20
5.04437606
 30
0.0
 10
7.5394796396
 20
5.0102180152
 30
0.0
 10
7.5392876135
 20
4.9731700564
 30
0.0
 10
7.5392446962
 20
4.9476520971
 30
0.0
 10
7.539244661
 20
4.9346692903
 30
0.0
 11
7.540267155
 21
5.0760906465
 31
0.0
 11
7.539833349
 21
5.0458123118
 31
0.0
 11
7.5395105206
 21
5.0112225204
 31
0.0
 11
7.5393114933
 21
4.9736176534
 31
0.0
 11
7.539244661
 21
4.9346692903
 31
0.0
  0
SPLINE
  5
67A
100
AcDbEntity
  8
ASSI
100
AcDbSpline
 62
253
  6
CONTINUOUS
 70
0
 71
3
 72
11
 73
7
 74
5
 42
0.0000001
 43
0.0000001
 44
0.0000000001
 12
0.0000096882
 22
-0.5657062181
 32
0.0
 13
-0.0098336718
 23
-0.5656207424
 33
0.0
 40
0.0
 40
0.0
 40
0.0
 40
0.0
 40
0.2730824888
 40
0.5416689789
 40
0.7902032012
 40
1.0
 40
1.0
 40
1.0
 40
1.0
 10
7.5566997259
 20
6.3488828526
 30
0.0
 10
7.5567006078
 20
6.297388032
 30
0.0
 10
7.5565287737
 20
6.1952461101
 30
0.0
 10
7.5557586446
 20
6.0462401416
 30
0.0
 10
7.5545064896
 20
5.9091715532
 30
0.0
 10
7.5532974407
 20
5.8227525681
 30
0.0
 10
7.5526097498
 20
5.7831974277
 30
0.0
 11
7.5566997259
 21
6.3488828526
 31
0.0
 11
7.5564368449
 21
6.1943986143
 31
0.0
 11
7.555634761
 21
6.0424596838
 31
0.0
 11
7.554316396
 21
5.90186851
 31
0.0
 11
7.5526097498
 21
5.7831974277
 31
0.0
  0
SPLINE
  5
67B
100
AcDbEntity
  8
ASSI
100
AcDbSpline
 62
253
  6
CONTINUOUS
 70
0
 71
3
 72
13
 73
9
 74
7
 42
0.0000001
 43
0.0000001
 44
0.0000000001
 12
0.0000012265
 22
-0.2000516215
 32
0.0
 13
0.1410411064
 23
-0.1418733857
 33
0.0
 40
0.0
 40
0.0
 40
0.0
 40
0.0
 40
0.2552796677
 40
0.4944706773
 40
0.7008428616
 40
0.8601781655
 40
0.9620616388
 40
1.0
 40
1.0
 40
1.0
 40
1.0
 10
-6.760755339
 20
3.5505797679
 30
0.0
 10
-6.7607552347
 20
3.5335567308
 30
0.0
 10
-6.7606399478
 20
3.5006081478
 30
0.0
 10
-6.7604947722
 20
3.4537735701
 30
0.0
 10
-6.7594766143
 20
3.4137323371
 30
0.0
 10
-6.760121098
 20
3.381821452
 30
0.0
 10
-6.7569733864
 20
3.3632890102
 30
0.0
 10
-6.7591088754
 20
3.3524043768
 30
0.0
 10
-6.7573252526
 20
3.3506102289
 30
0.0
 11
-6.760755339
 21
3.5505797679
 31
0.0
 11
-6.7606396243
 21
3.4995107876
 31
0.0
 11
-6.7602984432
 21
3.4516614546
 31
0.0
 11
-6.7597539772
 21
3.4103799549
 31
0.0
 11
-6.7590437051
 21
3.3785125834
 31
0.0
 11
-6.7582155467
 21
3.3581474612
 31
0.0
 11
-6.7573252526
 21
3.3506102289
 31
0.0
  0
SPLINE
  5
67C
100
AcDbEntity
  8
ASSI
100
AcDbSpline
 62
253
  6
CONTINUOUS
 70
0
 71
3
 72
11
 73
7
 74
5
 42
0.0000001
 43
0.0000001
 44
0.0000000001
 12
-0.0024684792
 22
-0.1414050099
 32
0.0
 13
-0.0000003835
 23
-0.1414265542
 33
0.0
 40
0.0
 40
0.0
 40
0.0
 40
0.0
 40
0.2141142612
 40
0.458702684
 40
0.7246031997
 40
1.0
 40
1.0
 40
1.0
 40
1.0
 10
-6.759732845
 20
5.0760906465
 30
0.0
 10
-6.7599090239
 20
5.0659983701
 30
0.0
 10
-6.7602089906
 20
5.04437606
 30
0.0
 10
-6.7605203604
 20
5.0102180152
 30
0.0
 10
-6.7607123865
 20
4.9731700564
 30
0.0
 10
-6.7607553038
 20
4.9476520971
 30
0.0
 10
-6.760755339
 20
4.9346692903
 30
0.0
 11
-6.759732845
 21
5.0760906465
 31
0.0
 11
-6.760166651
 21
5.0458123118
 31
0.0
 11
-6.7604894794
 21
5.0112225204
 31
0.0
 11
-6.7606885067
 21
4.9736176534
 31
0.0
 11
-6.760755339
 21
4.9346692903
 31
0.0
  0
SPLINE
  5
67D
100
AcDbEntity
  8
ASSI
100
AcDbSpline
 62
253
  6
CONTINUOUS
 70
0
 71
3
 72
11
 73
7
 74
5
 42
0.0000001
 43
0.0000001
 44
0.0000000001
 12
0.0000096882
 22
-0.5657062181
 32
0.0
 13
-0.0098336718
 23
-0.5656207424
 33
0.0
 40
0.0
 40
0.0
 40
0.0
 40
0.0
 40
0.2730824888
 40
0.5416689789
 40
0.7902032012
 40
1.0
 40
1.0
 40
1.0
 40
1.0
 10
-6.7433002741
 20
6.3488828526
 30
0.0
 10
-6.7432993922
 20
6.297388032
 30
0.0
 10
-6.7434712263
 20
6.1952461101
 30
0.0
 10
-6.7442413554
 20
6.0462401416
 30
0.0
 10
-6.7454935104
 20
5.9091715532
 30
0.0
 10
-6.7467025593
 20
5.8227525681
 30
0.0
 10
-6.7473902502
 20
5.7831974277
 30
0.0
 11
-6.7433002741
 21
6.3488828526
 31
0.0
 11
-6.7435631551
 21
6.1943986143
 31
0.0
 11
-6.744365239
 21
6.0424596838
 31
0.0
 11
-6.745683604
 21
5.90186851
 31
0.0
 11
-6.7473902502
 21
5.7831974277
 31
0.0
  0
SPLINE
  5
67E
100
AcDbEntity
  8
ASSI
100
AcDbSpline
 62
253
  6
CONTINUOUS
 70
0
 71
3
 72
11
 73
7
 74
5
 42
0.0000001
 43
0.0000001
 44
0.0000000001
 12
-0.0098331854
 22
0.5656207508
 32
0.0
 13
0.0000098444
 23
0.5657062181
 33
0.0
 40
0.0
 40
0.0
 40
0.0
 40
0.0
 40
0.2097951049
 40
0.4583292293
 40
0.7269157337
 40
1.0
 40
1.0
 40
1.0
 40
1.0
 10
-7.5495005572
 20
5.7831974277
 30
0.0
 10
-7.5501882086
 20
5.8227522493
 30
0.0
 10
-7.5513973084
 20
5.9091708956
 30
0.0
 10
-7.5526494417
 20
6.0462391493
 30
0.0
 10
-7.5534195724
 20
6.1952454371
 30
0.0
 10
-7.5535914295
 20
6.2973876968
 30
0.0
 10
-7.5535905333
 20
6.3488828526
 30
0.0
 11
-7.5495005572
 21
5.7831974277
 31
0.0
 11
-7.5512071929
 21
5.9018675519
 31
0.0
 11
-7.5525255616
 21
6.0424586702
 31
0.0
 11
-7.5533276477
 21
6.1943976088
 31
0.0
 11
-7.5535905333
 21
6.3488828526
 31
0.0
  0
SPLINE
  5
67F
100
AcDbEntity
  8
ASSI
100
AcDbSpline
 62
253
  6
CONTINUOUS
 70
0
 71
3
 72
11
 73
7
 74
5
 42
0.0000001
 43
0.0000001
 44
0.0000000001
 12
-0.0000003835
 22
0.1414265542
 32
0.0
 13
-0.0024684792
 23
0.1414050099
 33
0.0
 40
0.0
 40
0.0
 40
0.0
 40
0.0
 40
0.2753968051
 40
0.5412973202
 40
0.7858857424
 40
1.0
 40
1.0
 40
1.0
 40
1.0
 10
-7.5361354684
 20
4.9346692903
 30
0.0
 10
-7.5361355036
 20
4.9476520973
 30
0.0
 10
-7.5361784209
 20
4.9731700568
 30
0.0
 10
-7.5363704471
 20
5.0102180158
 30
0.0
 10
-7.5366818168
 20
5.0443760603
 30
0.0
 10
-7.5369817836
 20
5.0659983703
 30
0.0
 10
-7.5371579624
 20
5.0760906465
 30
0.0
 11
-7.5361354684
 21
4.9346692903
 31
0.0
 11
-7.5362023007
 21
4.9736176541
 31
0.0
 11
-7.536401328
 21
5.011222521
 31
0.0
 11
-7.5367241564
 21
5.0458123123
 31
0.0
 11
-7.5371579624
 21
5.0760906465
 31
0.0
  0
SPLINE
  5
680
100
AcDbEntity
  8
ASSI
100
AcDbSpline
 62
253
  6
CONTINUOUS
 70
0
 71
3
 72
13
 73
9
 74
7
 42
0.0000001
 43
0.0000001
 44
0.0000000001
 12
0.141041107
 22
0.141873385
 32
0.0
 13
0.0000012265
 23
0.2000516215
 33
0.0
 40
0.0
 40
0.0
 40
0.0
 40
0.0
 40
0.0379383612
 40
0.1398218345
 40
0.2991571384
 40
0.5055293226
 40
0.744720332
 40
1.0
 40
1.0
 40
1.0
 40
1.0
 10
-7.5395655548
 20
3.3506102289
 30
0.0
 10
-7.537781932
 20
3.3524043768
 30
0.0
 10
-7.539917421
 20
3.3632890102
 30
0.0
 10
-7.5367697095
 20
3.381821452
 30
0.0
 10
-7.5374141931
 20
3.4137323371
 30
0.0
 10
-7.5363960353
 20
3.4537735701
 30
0.0
 10
-7.5362508597
 20
3.5006081477
 30
0.0
 10
-7.5361355728
 20
3.5335567308
 30
0.0
 10
-7.5361354684
 20
3.5505797679
 30
0.0
 11
-7.5395655548
 21
3.3506102289
 31
0.0
 11
-7.5386752608
 21
3.3581474612
 31
0.0
 11
-7.5378471024
 21
3.3785125834
 31
0.0
 11
-7.5371368302
 21
3.4103799549
 31
0.0
 11
-7.5365923642
 21
3.4516614546
 31
0.0
 11
-7.5362511831
 21
3.4995107875
 31
0.0
 11
-7.5361354684
 21
3.5505797679
 31
0.0
  0
SPLINE
  5
681
100
AcDbEntity
  8
ASSI
100
AcDbSpline
 62
253
  6
CONTINUOUS
 70
0
 71
3
 72
9
 73
5
 74
3
 42
0.0000001
 43
0.0000001
 44
0.0000000001
 12
0.0003603392
 22
-6.1661325534
 32
0.0
 13
0.0019281047
 23
-6.1661322625
 33
0.0
 40
0.0
 40
0.0
 40
0.0
 40
0.0
 40
0.5000355593
 40
1.0
 40
1.0
 40
1.0
 40
1.0
 10
11.1247015175
 20
7.9242702135
 30
0.0
 10
11.1247615783
 20
6.8965083667
 30
0.0
 10
11.1250123244
 20
4.8411308545
 30
0.0
 10
11.1255243509
 20
2.7857533907
 30
0.0
 10
11.1258456788
 20
1.7581377682
 30
0.0
 11
11.1247015175
 21
7.9242702135
 31
0.0
 11
11.1250776716
 21
4.8409846909
 31
0.0
 11
11.1258456788
 21
1.7581377682
 31
0.0
  0
LINE
  5
682
100
AcDbEntity
  8
ASSI
100
AcDbLine
 62
253
  6
CONTINUOUS
 10
11.1260857863
 20
1.0256544822
 11
11.1268833675
 21
-1.0428999205
  0
LINE
  5
683
100
AcDbEntity
  8
ASSI
100
AcDbLine
 62
253
  6
CONTINUOUS
 10
11.1288255104
 20
-4.8716057936
 11
11.1296059718
 21
-6.1456225248
  0
LINE
  5
684
100
AcDbEntity
  8
ASSI
100
AcDbLine
 62
253
  6
CONTINUOUS
 10
11.1300798575
 20
-6.8703514465
 11
11.1304302701
 21
-7.3860378472
  0
LINE
  5
685
100
AcDbEntity
  8
ASSI
100
AcDbLine
 62
253
  6
CONTINUOUS
 10
-11.1264967792
 20
-6.1456225248
 11
-11.1257163179
 21
-4.8716057936
  0
LINE
  5
686
100
AcDbEntity
  8
ASSI
100
AcDbLine
 62
253
  6
CONTINUOUS
 10
-11.1273210776
 20
-7.3860378472
 11
-11.126970665
 21
-6.8703514465
  0
LINE
  5
687
100
AcDbEntity
  8
ASSI
100
AcDbLine
 62
253
  6
CONTINUOUS
 10
-11.1237741749
 20
-1.0428999205
 11
-11.1229765937
 21
1.0256544822
  0
SPLINE
  5
688
100
AcDbEntity
  8
ASSI
100
AcDbSpline
 62
253
  6
CONTINUOUS
 70
0
 71
3
 72
9
 73
5
 74
3
 42
0.0000001
 43
0.0000001
 44
0.0000000001
 12
0.0019281047
 22
6.1661322625
 32
0.0
 13
0.0003603392
 23
6.1661325534
 33
0.0
 40
0.0
 40
0.0
 40
0.0
 40
0.0
 40
0.4999644622
 40
1.0
 40
1.0
 40
1.0
 40
1.0
 10
-11.1227364863
 20
1.7581377682
 30
0.0
 10
-11.1224151583
 20
2.7857534349
 30
0.0
 10
-11.1219031319
 20
4.8411308987
 30
0.0
 10
-11.1216523858
 20
6.8965084109
 30
0.0
 10
-11.121592325
 20
7.9242702135
 30
0.0
 11
-11.1227364863
 21
1.7581377682
 31
0.0
 11
-11.1219684791
 21
4.8409848234
 31
0.0
 11
-11.121592325
 21
7.9242702135
 31
0.0
  0
SPLINE
  5
689
100
AcDbEntity
  8
ASSI
100
AcDbSpline
 62
7
  6
CONTINUOUS
 70
0
 71
3
 72
12
 73
8
 74
6
 42
0.0000001
 43
0.0000001
 44
0.0000000001
 12
0.3000709641
 22
-0.0
 32
0.0
 13
0.2121822176
 23
0.2121822095
 33
0.0
 40
0.0
 40
0.0
 40
0.0
 40
0.0
 40
0.3041016913
 40
0.5820964833
 40
0.8023227261
 40
0.9471197879
 40
1.0
 40
1.0
 40
1.0
 40
1.0
 10
10.8247474511
 20
7.9191253555
 30
0.0
 10
10.8551648137
 20
7.9191253555
 30
0.0
 10
10.9135430997
 20
7.9189940266
 30
0.0
 10
10.993188918
 20
7.9207589857
 30
0.0
 10
11.0590545471
 20
7.9189330576
 30
0.0
 10
11.0977945484
 20
7.9256670972
 30
0.0
 10
11.1209614373
 20
7.9205301334
 30
0.0
 10
11.1247015175
 20
7.9242702135
 30
0.0
 11
10.8247474511
 21
7.9191253555
 31
0.0
 11
10.9159992015
 21
7.9193734646
 31
0.0
 11
10.9994141646
 21
7.9201043785
 31
0.0
 11
11.0654879559
 21
7.9212371622
 31
0.0
 11
11.1089132891
 21
7.9226829413
 31
0.0
 11
11.1247015175
 21
7.9242702135
 31
0.0
  0
SPLINE
  5
68A
100
AcDbEntity
  8
ASSI
100
AcDbSpline
 62
7
  6
CONTINUOUS
 70
0
 71
3
 72
12
 73
8
 74
6
 42
0.0000001
 43
0.0000001
 44
0.0000000001
 12
0.2121822176
 22
-0.2121822095
 32
0.0
 13
0.3000709641
 23
0.0
 33
0.0
 40
0.0
 40
0.0
 40
0.0
 40
0.0
 40
0.0528802121
 40
0.1976772739
 40
0.4179035167
 40
0.6958983087
 40
1.0
 40
1.0
 40
1.0
 40
1.0
 10
-11.121592325
 20
7.9242702135
 30
0.0
 10
-11.1178522448
 20
7.9205301334
 30
0.0
 10
-11.0946853558
 20
7.9256670972
 30
0.0
 10
-11.0559453546
 20
7.9189330576
 30
0.0
 10
-10.9900797254
 20
7.9207589857
 30
0.0
 10
-10.9104339071
 20
7.9189940266
 30
0.0
 10
-10.8520556212
 20
7.9191253555
 30
0.0
 10
-10.8216382586
 20
7.9191253555
 30
0.0
 11
-11.121592325
 21
7.9242702135
 31
0.0
 11
-11.1058040965
 21
7.9226829413
 31
0.0
 11
-11.0623787634
 21
7.9212371622
 31
0.0
 11
-10.996304972
 21
7.9201043785
 31
0.0
 11
-10.912890009
 21
7.9193734646
 31
0.0
 11
-10.8216382586
 21
7.9191253555
 31
0.0
  0
SPLINE
  5
68B
100
AcDbEntity
  8
ASSI
100
AcDbSpline
 62
7
  6
CONTINUOUS
 70
0
 71
3
 72
12
 73
8
 74
6
 42
0.0000001
 43
0.0000001
 44
0.0000000001
 12
0.3000740987
 22
-0.0
 32
0.0
 13
0.2121856528
 23
0.2121832073
 33
0.0
 40
0.0
 40
0.0
 40
0.0
 40
0.0
 40
0.3040972291
 40
0.5820915378
 40
0.8023192843
 40
0.9471184771
 40
1.0
 40
1.0
 40
1.0
 40
1.0
 10
10.8288683165
 20
-4.8767508593
 30
0.0
 10
10.8592855505
 20
-4.8767508593
 30
0.0
 10
10.9176639455
 20
-4.8768821751
 30
0.0
 10
10.9973102678
 20
-4.8751172118
 30
0.0
 10
11.0631768771
 20
-4.8769431004
 30
0.0
 10
11.1019177915
 20
-4.870208961
 30
0.0
 10
11.125085277
 20
-4.875345984
 30
0.0
 10
11.1288255104
 20
-4.8716057936
 30
0.0
 11
10.8288683165
 21
-4.8767508593
 31
0.0
 11
10.9201196811
 21
-4.8765027447
 31
0.0
 11
11.0035353703
 21
-4.8757718088
 31
0.0
 11
11.0696103027
 21
-4.8746389826
 31
0.0
 11
11.1130367277
 21
-4.8731931419
 31
0.0
 11
11.1288255104
 21
-4.8716057936
 31
0.0
  0
SPLINE
  5
68C
100
AcDbEntity
  8
ASSI
100
AcDbSpline
 62
7
  6
CONTINUOUS
 70
0
 71
3
 72
12
 73
8
 74
6
 42
0.0000001
 43
0.0000001
 44
0.0000000001
 12
0.2121856528
 22
-0.2121832073
 32
0.0
 13
0.3000740987
 23
0.0
 33
0.0
 40
0.0
 40
0.0
 40
0.0
 40
0.0
 40
0.0528815229
 40
0.1976807157
 40
0.4179084622
 40
0.6959027709
 40
1.0
 40
1.0
 40
1.0
 40
1.0
 10
-11.1257163179
 20
-4.8716057936
 30
0.0
 10
-11.1219760844
 20
-4.875345984
 30
0.0
 10
-11.098808599
 20
-4.870208961
 30
0.0
 10
-11.0600676845
 20
-4.8769431004
 30
0.0
 10
-10.9942010752
 20
-4.8751172118
 30
0.0
 10
-10.9145547529
 20
-4.8768821751
 30
0.0
 10
-10.8561763579
 20
-4.8767508593
 30
0.0
 10
-10.825759124
 20
-4.8767508593
 30
0.0
 11
-11.1257163179
 21
-4.8716057936
 31
0.0
 11
-11.1099275351
 21
-4.8731931419
 31
0.0
 11
-11.0665011101
 21
-4.8746389826
 31
0.0
 11
-11.0004261778
 21
-4.8757718088
 31
0.0
 11
-10.9170104886
 21
-4.8765027447
 31
0.0
 11
-10.825759124
 21
-4.8767508593
 31
0.0
  0
SPLINE
  5
68D
100
AcDbEntity
  8
ASSI
100
AcDbSpline
 62
7
  6
CONTINUOUS
 70
0
 71
3
 72
12
 73
8
 74
6
 42
0.0000001
 43
0.0000001
 44
0.0000000001
 12
-0.2121859816
 22
0.212186588
 32
0.0
 13
-0.3000767217
 23
0.0
 33
0.0
 40
0.0
 40
0.0
 40
0.0
 40
0.0
 40
0.0529127559
 40
0.197756379
 40
0.4180080058
 40
0.6959861204
 40
1.0
 40
1.0
 40
1.0
 40
1.0
 10
11.1268833675
 20
-1.0428999205
 30
0.0
 10
11.1231409191
 20
-1.0391574615
 30
0.0
 10
11.0999643051
 20
-1.044295359
 30
0.0
 10
11.0612136774
 20
-1.0375599252
 30
0.0
 10
10.995341369
 20
-1.0393847198
 30
0.0
 10
10.9157017417
 20
-1.0376199236
 30
0.0
 10
10.8573328726
 20
-1.0377510133
 30
0.0
 10
10.8269237098
 20
-1.0377510133
 30
0.0
 11
11.1268833675
 21
-1.0428999205
 31
0.0
 11
11.1110851883
 21
-1.0413109557
 31
0.0
 11
11.0676450816
 21
-1.0398639668
 31
0.0
 11
11.0015624166
 21
-1.0387304374
 31
0.0
 11
10.9181508607
 21
-1.0379991773
 31
0.0
 11
10.8269237098
 21
-1.0377510133
 31
0.0
  0
SPLINE
  5
68E
100
AcDbEntity
  8
ASSI
100
AcDbSpline
 62
7
  6
CONTINUOUS
 70
0
 71
3
 72
12
 73
8
 74
6
 42
0.0000001
 43
0.0000001
 44
0.0000000001
 12
-0.3000767217
 22
-0.0
 32
0.0
 13
-0.2121859816
 23
-0.212186588
 33
0.0
 40
0.0
 40
0.0
 40
0.0
 40
0.0
 40
0.3040138796
 40
0.5819919942
 40
0.802243621
 40
0.9470872441
 40
1.0
 40
1.0
 40
1.0
 40
1.0
 10
-10.8238145173
 20
-1.0377510133
 30
0.0
 10
-10.8542236801
 20
-1.0377510133
 30
0.0
 10
-10.9125925492
 20
-1.0376199236
 30
0.0
 10
-10.9922321765
 20
-1.0393847198
 30
0.0
 10
-11.0581044848
 20
-1.0375599252
 30
0.0
 10
-11.0968551126
 20
-1.044295359
 30
0.0
 10
-11.1200317266
 20
-1.0391574615
 30
0.0
 10
-11.1237741749
 20
-1.0428999205
 30
0.0
 11
-10.8238145173
 21
-1.0377510133
 31
0.0
 11
-10.9150416681
 21
-1.0379991773
 31
0.0
 11
-10.9984532241
 21
-1.0387304374
 31
0.0
 11
-11.0645358891
 21
-1.0398639668
 31
0.0
 11
-11.1079759958
 21
-1.0413109557
 31
0.0
 11
-11.1237741749
 21
-1.0428999205
 31
0.0
  0
SPLINE
  5
68F
100
AcDbEntity
  8
ASSI
100
AcDbSpline
 62
7
  6
CONTINUOUS
 70
0
 71
3
 72
12
 73
8
 74
6
 42
0.0000001
 43
0.0000001
 44
0.0000000001
 12
0.2121872725
 22
-0.2121835264
 32
0.0
 13
0.3000754696
 23
0.0
 33
0.0
 40
0.0
 40
0.0
 40
0.0
 40
0.0
 40
0.0528851833
 40
0.1976896626
 40
0.4179203758
 40
0.6959128578
 40
1.0
 40
1.0
 40
1.0
 40
1.0
 10
-11.126970665
 20
-6.8703514465
 30
0.0
 10
-11.1232301441
 20
-6.8740919014
 30
0.0
 10
-11.1000615305
 20
-6.8689547816
 30
0.0
 10
-11.0613192884
 20
-6.8756890754
 30
0.0
 10
-10.9954517597
 20
-6.8738633188
 30
0.0
 10
-10.9158059419
 20
-6.8756282637
 30
0.0
 10
-10.8574284828
 20
-6.8754969767
 30
0.0
 10
-10.8270121188
 20
-6.8754969767
 30
0.0
 11
-11.126970665
 21
-6.8703514465
 31
0.0
 11
-11.1111807247
 21
-6.8719389861
 31
0.0
 11
-11.0677525184
 21
-6.8733849655
 31
0.0
 11
-11.0016763953
 21
-6.8745178782
 31
0.0
 11
-10.9182608734
 21
-6.8752488548
 31
0.0
 11
-10.8270121188
 21
-6.8754969767
 31
0.0
  0
SPLINE
  5
690
100
AcDbEntity
  8
ASSI
100
AcDbSpline
 62
7
  6
CONTINUOUS
 70
0
 71
3
 72
12
 73
8
 74
6
 42
0.0000001
 43
0.0000001
 44
0.0000000001
 12
-0.300081786
 22
0.0
 32
0.0
 13
-0.2121906568
 23
-0.2121890748
 33
0.0
 40
0.0
 40
0.0
 40
0.0
 40
0.0
 40
0.3039485293
 40
0.5819142421
 40
0.8021848151
 40
0.9470630692
 40
1.0
 40
1.0
 40
1.0
 40
1.0
 10
-10.8265321808
 20
-6.1404706022
 30
0.0
 10
-10.85693532
 20
-6.1404706022
 30
0.0
 10
-10.9152973309
 20
-6.1403396936
 30
0.0
 10
-10.994932573
 20
-6.1421043643
 30
0.0
 10
-11.0608100044
 20
-6.1402804261
 30
0.0
 10
-11.0995686873
 20
-6.1470168729
 30
0.0
 10
-11.1227525385
 20
-6.141878312
 30
0.0
 10
-11.1264967792
 20
-6.1456225248
 30
0.0
 11
-10.8265321808
 21
-6.1404706022
 31
0.0
 11
-10.9177412606
 21
-6.1407188086
 31
0.0
 11
-11.0011505004
 21
-6.1414503271
 31
0.0
 11
-11.0672399577
 21
-6.1425844127
 31
0.0
 11
-11.1106911662
 21
-6.1440323024
 31
0.0
 11
-11.1264967792
 21
-6.1456225248
 31
0.0
  0
SPLINE
  5
691
100
AcDbEntity
  8
ASSI
100
AcDbSpline
 62
7
  6
CONTINUOUS
 70
0
 71
3
 72
12
 73
8
 74
6
 42
0.0000001
 43
0.0000001
 44
0.0000000001
 12
0.212182242
 22
-0.2121828612
 32
0.0
 13
0.3000714422
 23
-0.0
 33
0.0
 40
0.0
 40
0.0
 40
0.0
 40
0.0
 40
0.0528761536
 40
0.1976675351
 40
0.4178908253
 40
0.6958877974
 40
1.0
 40
1.0
 40
1.0
 40
1.0
 10
-11.1229765937
 20
1.0256544822
 30
0.0
 10
-11.1192368001
 20
1.0219146777
 30
0.0
 10
-11.0960710027
 20
1.0270515647
 30
0.0
 10
-11.0573321543
 20
1.0203176512
 30
0.0
 10
-10.9914670434
 20
1.0221437369
 30
0.0
 10
-10.9118201508
 20
1.0203787466
 30
0.0
 10
-10.8534404913
 20
1.0205101063
 30
0.0
 10
-10.8230220289
 20
1.0205101063
 30
0.0
 11
-11.1229765937
 21
1.0256544822
 31
0.0
 11
-11.1071895431
 21
1.0240674157
 31
0.0
 11
-11.0637658414
 21
1.0226217807
 31
0.0
 11
-10.9976928293
 21
1.0214890839
 31
0.0
 11
-10.9142770788
 21
1.0207582093
 31
0.0
 11
-10.8230220289
 21
1.0205101063
 31
0.0
  0
SPLINE
  5
692
100
AcDbEntity
  8
ASSI
100
AcDbSpline
 62
7
  6
CONTINUOUS
 70
0
 71
3
 72
12
 73
8
 74
6
 42
0.0000001
 43
0.0000001
 44
0.0000000001
 12
-0.3000746033
 22
-0.0
 32
0.0
 13
-0.2121845123
 23
-0.2121850614
 33
0.0
 40
0.0
 40
0.0
 40
0.0
 40
0.0
 40
0.3040426971
 40
0.5820262833
 40
0.8022695576
 40
0.9470979026
 40
1.0
 40
1.0
 40
1.0
 40
1.0
 10
-10.8227788925
 20
1.7632853453
 30
0.0
 10
-10.853190723
 20
1.7632853453
 30
0.0
 10
-10.911562638
 20
1.7634165136
 30
0.0
 10
-10.9912042336
 20
1.761651665
 30
0.0
 10
-11.0570742985
 20
1.7634768299
 30
0.0
 10
-11.0958214072
 20
1.7567418574
 30
0.0
 10
-11.1189948177
 20
1.7618794464
 30
0.0
 10
-11.1227364863
 20
1.7581377682
 30
0.0
 11
-10.8227788925
 21
1.7632853453
 31
0.0
 11
-10.9140140467
 21
1.7630371996
 31
0.0
 11
-10.9974266567
 21
1.7623060535
 31
0.0
 11
-11.0635063526
 21
1.7611727693
 31
0.0
 11
-11.1069415784
 21
1.7597261778
 31
0.0
 11
-11.1227364863
 21
1.7581377682
 31
0.0
  0
SPLINE
  5
693
100
AcDbEntity
  8
ASSI
100
AcDbSpline
 62
7
  6
CONTINUOUS
 70
0
 71
3
 72
12
 73
8
 74
6
 42
0.0000001
 43
0.0000001
 44
0.0000000001
 12
-0.2121906568
 22
0.2121890748
 32
0.0
 13
-0.300081786
 23
-0.0
 33
0.0
 40
0.0
 40
0.0
 40
0.0
 40
0.0
 40
0.0529369308
 40
0.1978151849
 40
0.4180857579
 40
0.6960514707
 40
1.0
 40
1.0
 40
1.0
 40
1.0
 10
11.1296059718
 20
-6.1456225248
 30
0.0
 10
11.1258617311
 20
-6.141878312
 30
0.0
 10
11.1026778799
 20
-6.1470168729
 30
0.0
 10
11.063919197
 20
-6.1402804261
 30
0.0
 10
10.9980417655
 20
-6.1421043643
 30
0.0
 10
10.9184065234
 20
-6.1403396936
 30
0.0
 10
10.8600445125
 20
-6.1404706022
 30
0.0
 10
10.8296413733
 20
-6.1404706022
 30
0.0
 11
11.1296059718
 21
-6.1456225248
 31
0.0
 11
11.1138003587
 21
-6.1440323024
 31
0.0
 11
11.0703491502
 21
-6.1425844127
 31
0.0
 11
11.004259693
 21
-6.1414503271
 31
0.0
 11
10.9208504531
 21
-6.1407188086
 31
0.0
 11
10.8296413733
 21
-6.1404706022
 31
0.0
  0
SPLINE
  5
694
100
AcDbEntity
  8
ASSI
100
AcDbSpline
 62
7
  6
CONTINUOUS
 70
0
 71
3
 72
12
 73
8
 74
6
 42
0.0000001
 43
0.0000001
 44
0.0000000001
 12
0.3000754696
 22
-0.0
 32
0.0
 13
0.2121872724
 23
0.2121835264
 33
0.0
 40
0.0
 40
0.0
 40
0.0
 40
0.0
 40
0.3040871422
 40
0.5820796242
 40
0.8023103374
 40
0.9471148167
 40
1.0
 40
1.0
 40
1.0
 40
1.0
 10
10.8301213113
 20
-6.8754969767
 30
0.0
 10
10.8605376753
 20
-6.8754969767
 30
0.0
 10
10.9189151344
 20
-6.8756282637
 30
0.0
 10
10.9985609522
 20
-6.8738633188
 30
0.0
 10
11.064428481
 20
-6.8756890754
 30
0.0
 10
11.1031707231
 20
-6.8689547816
 30
0.0
 10
11.1263393366
 20
-6.8740919014
 30
0.0
 10
11.1300798575
 20
-6.8703514465
 30
0.0
 11
10.8301213113
 21
-6.8754969767
 31
0.0
 11
10.921370066
 21
-6.8752488548
 31
0.0
 11
11.0047855878
 21
-6.8745178782
 31
0.0
 11
11.070861711
 21
-6.8733849655
 31
0.0
 11
11.1142899172
 21
-6.8719389861
 31
0.0
 11
11.1300798575
 21
-6.8703514465
 31
0.0
  0
SPLINE
  5
695
100
AcDbEntity
  8
ASSI
100
AcDbSpline
 62
7
  6
CONTINUOUS
 70
0
 71
3
 72
12
 73
8
 74
6
 42
0.0000001
 43
0.0000001
 44
0.0000000001
 12
-0.2121845123
 22
0.2121850614
 32
0.0
 13
-0.3000746033
 23
0.0
 33
0.0
 40
0.0
 40
0.0
 40
0.0
 40
0.0
 40
0.0529020974
 40
0.1977304424
 40
0.4179737167
 40
0.6959573029
 40
1.0
 40
1.0
 40
1.0
 40
1.0
 10
11.1258456788
 20
1.7581377682
 30
0.0
 10
11.1221040102
 20
1.7618794464
 30
0.0
 10
11.0989305998
 20
1.7567418574
 30
0.0
 10
11.060183491
 20
1.7634768299
 30
0.0
 10
10.9943134261
 20
1.761651665
 30
0.0
 10
10.9146718305
 20
1.7634165136
 30
0.0
 10
10.8562999156
 20
1.7632853453
 30
0.0
 10
10.825888085
 20
1.7632853453
 30
0.0
 11
11.1258456788
 21
1.7581377682
 31
0.0
 11
11.1100507709
 21
1.7597261778
 31
0.0
 11
11.0666155451
 21
1.7611727693
 31
0.0
 11
11.0005358493
 21
1.7623060535
 31
0.0
 11
10.9171232393
 21
1.7630371996
 31
0.0
 11
10.825888085
 21
1.7632853453
 31
0.0
  0
SPLINE
  5
696
100
AcDbEntity
  8
ASSI
100
AcDbSpline
 62
7
  6
CONTINUOUS
 70
0
 71
3
 72
12
 73
8
 74
6
 42
0.0000001
 43
0.0000001
 44
0.0000000001
 12
0.3000714422
 22
0.0
 32
0.0
 13
0.212182242
 23
0.2121828612
 33
0.0
 40
0.0
 40
0.0
 40
0.0
 40
0.0
 40
0.3041122026
 40
0.5821091747
 40
0.8023324649
 40
0.9471238464
 40
1.0
 40
1.0
 40
1.0
 40
1.0
 10
10.8261312214
 20
1.0205101063
 30
0.0
 10
10.8565496838
 20
1.0205101063
 30
0.0
 10
10.9149293433
 20
1.0203787466
 30
0.0
 10
10.9945762359
 20
1.0221437369
 30
0.0
 10
11.0604413469
 20
1.0203176512
 30
0.0
 10
11.0991801952
 20
1.0270515647
 30
0.0
 10
11.1223459926
 20
1.0219146777
 30
0.0
 10
11.1260857863
 20
1.0256544822
 30
0.0
 11
10.8261312214
 21
1.0205101063
 31
0.0
 11
10.9173862713
 21
1.0207582093
 31
0.0
 11
11.0008020219
 21
1.0214890839
 31
0.0
 11
11.0668750339
 21
1.0226217807
 31
0.0
 11
11.1102987357
 21
1.0240674157
 31
0.0
 11
11.1260857863
 21
1.0256544822
 31
0.0
  0
SPLINE
  5
697
100
AcDbEntity
  8
ASSI
100
AcDbSpline
 62
253
  6
CONTINUOUS
 70
0
 71
3
 72
13
 73
9
 74
7
 42
0.0000001
 43
0.0000001
 44
0.0000000001
 12
0.1860199012
 22
0.4640617589
 32
0.0
 13
0.0000037631
 23
0.4999567178
 33
0.0
 40
0.0
 40
0.0
 40
0.0
 40
0.0
 40
0.0378218875
 40
0.1397846932
 40
0.2991078666
 40
0.5051686897
 40
0.7442254983
 40
1.0
 40
1.0
 40
1.0
 40
1.0
 10
-7.2396112463
 20
3.0506559204
 30
0.0
 10
-7.2372660383
 20
3.0565064842
 30
0.0
 10
-7.2406878287
 20
3.0807892985
 30
0.0
 10
-7.2363903506
 20
3.1297448597
 30
0.0
 10
-7.2376365849
 20
3.2080911345
 30
0.0
 10
-7.2363797581
 20
3.3086369104
 30
0.0
 10
-7.2363169361
 20
3.4255052133
 30
0.0
 10
-7.2361814807
 20
3.5079543745
 30
0.0
 10
-7.2361811599
 20
3.5505797679
 30
0.0
 11
-7.2396112463
 21
3.0506559204
 31
0.0
 11
-7.2387201831
 21
3.0695442207
 31
0.0
 11
-7.2378922679
 21
3.1205144868
 31
0.0
 11
-7.2371822449
 21
3.2001660131
 31
0.0
 11
-7.2366381697
 21
3.3031860693
 31
0.0
 11
-7.2362971718
 21
3.4227036402
 31
0.0
 11
-7.2361811599
 21
3.5505797679
 31
0.0
  0
SPLINE
  5
698
100
AcDbEntity
  8
ASSI
100
AcDbSpline
 62
253
  6
CONTINUOUS
 70
0
 71
3
 72
11
 73
7
 74
5
 42
0.0000001
 43
0.0000001
 44
0.0000000001
 12
-0.0098781004
 22
0.3534330094
 32
0.0
 13
0.0000006738
 23
0.3535710239
 33
0.0
 40
0.0
 40
0.0
 40
0.0
 40
0.0
 40
0.210108614
 40
0.4581332567
 40
0.7266954159
 40
1.0
 40
1.0
 40
1.0
 40
1.0
 10
7.0504537513
 20
5.9953294621
 30
0.0
 10
7.0497619267
 20
6.0200825686
 30
0.0
 10
7.0485592187
 20
6.0740642797
 30
0.0
 10
7.0473046754
 20
6.1597018223
 30
0.0
 10
7.0465347579
 20
6.2527934338
 30
0.0
 10
7.0463637562
 20
6.3166563584
 30
0.0
 10
7.0463638175
 20
6.3488672189
 30
0.0
 11
7.0504537513
 21
5.9953294621
 31
0.0
 11
7.048745372
 21
6.0695981338
 31
0.0
 11
7.0474296392
 21
6.1572825897
 31
0.0
 11
7.046627115
 21
6.252234996
 31
0.0
 11
7.0463638175
 21
6.3488672189
 31
0.0
  0
SPLINE
  5
699
100
AcDbEntity
  8
ASSI
100
AcDbSpline
 62
253
  6
CONTINUOUS
 70
0
 71
3
 72
11
 73
7
 74
5
 42
0.0000001
 43
0.0000001
 44
0.0000000001
 12
0.000000661
 22
-0.353571321
 32
0.0
 13
-0.0098781864
 23
-0.3534333042
 33
0.0
 40
0.0
 40
0.0
 40
0.0
 40
0.0
 40
0.2733034014
 40
0.5418653407
 40
0.7898898962
 40
1.0
 40
1.0
 40
1.0
 40
1.0
 10
7.2567453758
 20
6.348867516
 30
0.0
 10
7.256745436
 20
6.3166567678
 30
0.0
 10
7.2565744374
 20
6.2527939549
 30
0.0
 10
7.2558045282
 20
6.1597024406
 30
0.0
 10
7.2545499742
 20
6.0740646869
 30
0.0
 10
7.2533472768
 20
6.0200827648
 30
0.0
 10
7.2526554412
 20
5.9953294621
 30
0.0
 11
7.2567453758
 21
6.348867516
 31
0.0
 11
7.2564820817
 21
6.25223563
 31
0.0
 11
7.2556795619
 21
6.1572832217
 31
0.0
 11
7.2543638294
 21
6.0695987229
 31
0.0
 11
7.2526554412
 21
5.9953294621
 31
0.0
  0
SPLINE
  5
69A
100
AcDbEntity
  8
ASSI
100
AcDbSpline
 62
253
  6
CONTINUOUS
 70
0
 71
3
 72
11
 73
7
 74
5
 42
0.0000001
 43
0.0000001
 44
0.0000000001
 12
0.000000661
 22
-0.353571321
 32
0.0
 13
-0.0098781864
 23
-0.3534333042
 33
0.0
 40
0.0
 40
0.0
 40
0.0
 40
0.0
 40
0.2733034014
 40
0.5418653407
 40
0.7898898962
 40
1.0
 40
1.0
 40
1.0
 40
1.0
 10
-7.0432546242
 20
6.348867516
 30
0.0
 10
-7.043254564
 20
6.3166567678
 30
0.0
 10
-7.0434255626
 20
6.2527939549
 30
0.0
 10
-7.0441954718
 20
6.1597024406
 30
0.0
 10
-7.0454500258
 20
6.0740646869
 30
0.0
 10
-7.0466527232
 20
6.0200827648
 30
0.0
 10
-7.0473445588
 20
5.9953294621
 30
0.0
 11
-7.0432546242
 21
6.348867516
 31
0.0
 11
-7.0435179183
 21
6.25223563
 31
0.0
 11
-7.0443204381
 21
6.1572832217
 31
0.0
 11
-7.0456361706
 21
6.0695987229
 31
0.0
 11
-7.0473445588
 21
5.9953294621
 31
0.0
  0
SPLINE
  5
69B
100
AcDbEntity
  8
ASSI
100
AcDbSpline
 62
253
  6
CONTINUOUS
 70
0
 71
3
 72
11
 73
7
 74
5
 42
0.0000001
 43
0.0000001
 44
0.0000000001
 12
-0.0098781004
 22
0.3534330094
 32
0.0
 13
0.0000006738
 23
0.3535710239
 33
0.0
 40
0.0
 40
0.0
 40
0.0
 40
0.0
 40
0.210108614
 40
0.4581332567
 40
0.7266954159
 40
1.0
 40
1.0
 40
1.0
 40
1.0
 10
-7.2495462487
 20
5.9953294621
 30
0.0
 10
-7.2502380733
 20
6.0200825686
 30
0.0
 10
-7.2514407813
 20
6.0740642797
 30
0.0
 10
-7.2526953246
 20
6.1597018223
 30
0.0
 10
-7.2534652421
 20
6.2527934338
 30
0.0
 10
-7.2536362438
 20
6.3166563584
 30
0.0
 10
-7.2536361825
 20
6.3488672189
 30
0.0
 11
-7.2495462487
 21
5.9953294621
 31
0.0
 11
-7.251254628
 21
6.0695981338
 31
0.0
 11
-7.2525703608
 21
6.1572825897
 31
0.0
 11
-7.253372885
 21
6.252234996
 31
0.0
 11
-7.2536361825
 21
6.3488672189
 31
0.0
  0
SPLINE
  5
69C
100
AcDbEntity
  8
ASSI
100
AcDbSpline
 62
7
  6
CONTINUOUS
 70
0
 71
3
 72
11
 73
7
 74
5
 42
0.0000001
 43
0.0000001
 44
0.0000000001
 12
0.1877591309
 22
0.0090044277
 32
0.0
 13
0.1879749211
 23
0.0
 33
0.0
 40
0.0
 40
0.0
 40
0.0
 40
0.0
 40
0.1555665837
 40
0.3898430933
 40
0.6801151059
 40
1.0
 40
1.0
 40
1.0
 40
1.0
 10
4.2435016353
 20
5.5653685708
 30
0.0
 10
4.2532379842
 20
5.5658355001
 30
0.0
 10
4.2776601602
 20
5.5664639382
 30
0.0
 10
4.3202685443
 20
5.5671428902
 30
0.0
 10
4.3731786223
 20
5.5675658629
 30
0.0
 10
4.4114099178
 20
5.5676660831
 30
0.0
 10
4.4314533637
 20
5.5676660831
 30
0.0
 11
4.2435016353
 21
5.5653685708
 31
0.0
 11
4.2727294473
 21
5.5662989555
 31
0.0
 11
4.3167614051
 21
5.5670349462
 31
0.0
 11
4.371323243
 21
5.5675045423
 31
0.0
 11
4.4314533637
 21
5.5676660831
 31
0.0
  0
SPLINE
  5
69D
100
AcDbEntity
  8
ASSI
100
AcDbSpline
 62
7
  6
CONTINUOUS
 70
0
 71
3
 72
11
 73
7
 74
5
 42
0.0000001
 43
0.0000001
 44
0.0000000001
 12
-0.1879629201
 22
0.0
 32
0.0
 13
-0.1877471435
 23
0.009003857
 33
0.0
 40
0.0
 40
0.0
 40
0.0
 40
0.0
 40
0.3199428211
 40
0.6102303145
 40
0.8444792159
 40
1.0
 40
1.0
 40
1.0
 40
1.0
 10
4.4249304585
 20
3.9161990296
 30
0.0
 10
4.4048846628
 20
3.9161990296
 30
0.0
 10
4.366651209
 20
3.9162992328
 30
0.0
 10
4.3137416386
 20
3.9167221141
 30
0.0
 10
4.2711396028
 20
3.9174008723
 30
0.0
 10
4.2467235813
 20
3.9180290564
 30
0.0
 10
4.2369907203
 20
3.9184958187
 30
0.0
 11
4.4249304585
 21
3.9161990296
 31
0.0
 11
4.3647932885
 21
3.9163605579
 31
0.0
 11
4.3102320237
 21
3.9168300721
 31
0.0
 11
4.266208064
 21
3.9175658325
 31
0.0
 11
4.2369907203
 21
3.9184958187
 31
0.0
  0
SPLINE
  5
69E
100
AcDbEntity
  8
ASSI
100
AcDbSpline
 62
7
  6
CONTINUOUS
 70
0
 71
3
 72
11
 73
7
 74
5
 42
0.0000001
 43
0.0000001
 44
0.0000000001
 12
-0.1877471435
 22
-0.009003857
 32
0.0
 13
-0.1879629201
 23
0.0
 33
0.0
 40
0.0
 40
0.0
 40
0.0
 40
0.0
 40
0.1555207841
 40
0.3897696855
 40
0.6800571789
 40
1.0
 40
1.0
 40
1.0
 40
1.0
 10
-4.2338815277
 20
3.9184958187
 30
0.0
 10
-4.2436143887
 20
3.9180290564
 30
0.0
 10
-4.2680304103
 20
3.9174008723
 30
0.0
 10
-4.310632446
 20
3.9167221141
 30
0.0
 10
-4.3635420164
 20
3.9162992328
 30
0.0
 10
-4.4017754703
 20
3.9161990296
 30
0.0
 10
-4.4218212659
 20
3.9161990296
 30
0.0
 11
-4.2338815277
 21
3.9184958187
 31
0.0
 11
-4.2630988715
 21
3.9175658325
 31
0.0
 11
-4.3071228311
 21
3.9168300721
 31
0.0
 11
-4.361684096
 21
3.9163605579
 31
0.0
 11
-4.4218212659
 21
3.9161990296
 31
0.0
  0
SPLINE
  5
69F
100
AcDbEntity
  8
ASSI
100
AcDbSpline
 62
7
  6
CONTINUOUS
 70
0
 71
3
 72
11
 73
7
 74
5
 42
0.0000001
 43
0.0000001
 44
0.0000000001
 12
0.1879749211
 22
0.0
 32
0.0
 13
0.1877591309
 23
-0.0090044277
 33
0.0
 40
0.0
 40
0.0
 40
0.0
 40
0.0
 40
0.3198848941
 40
0.6101569067
 40
0.8444334163
 40
1.0
 40
1.0
 40
1.0
 40
1.0
 10
-4.4283441712
 20
5.5676660831
 30
0.0
 10
-4.4083007253
 20
5.5676660831
 30
0.0
 10
-4.3700694297
 20
5.5675658629
 30
0.0
 10
-4.3171593518
 20
5.5671428902
 30
0.0
 10
-4.2745509676
 20
5.5664639382
 30
0.0
 10
-4.2501287916
 20
5.5658355001
 30
0.0
 10
-4.2403924428
 20
5.5653685708
 30
0.0
 11
-4.4283441712
 21
5.5676660831
 31
0.0
 11
-4.3682140504
 21
5.5675045423
 31
0.0
 11
-4.3136522126
 21
5.5670349462
 31
0.0
 11
-4.2696202547
 21
5.5662989555
 31
0.0
 11
-4.2403924428
 21
5.5653685708
 31
0.0
  0
ELLIPSE
  5
6A0
100
AcDbEntity
  8
RACCORDO
100
AcDbEllipse
 62
7
  6
CONTINUOUS
 10
12.0380235063
 20
-9.1014684188
 30
0.0
 11
0.2183310446
 21
0.1221043275
 31
0.0
 40
0.9980297029
 41
-2.0815635429
 42
-0.5109195152
  0
ELLIPSE
  5
6A1
100
AcDbEntity
  8
RACCORDO
100
AcDbEllipse
 62
7
  6
CONTINUOUS
 10
-12.0349143138
 20
-9.1014684188
 30
0.0
 11
0.2183310446
 21
-0.1221043275
 31
0.0
 40
0.9980297029
 41
-2.6306731384
 42
-1.0600291107
  0
ELLIPSE
  5
6A2
100
AcDbEntity
  8
RACCORDO
100
AcDbEllipse
 62
7
  6
CONTINUOUS
 10
-12.0414252957
 20
8.8847559635
 30
0.0
 11
-0.1768305473
 21
0.1768305473
 31
0.0
 40
0.9996954599
 41
-0.7852458701
 42
0.7852458701
  0
ELLIPSE
  5
6A3
100
AcDbEntity
  8
RACCORDO
100
AcDbEllipse
 62
7
  6
CONTINUOUS
 10
12.0445344883
 20
8.8847559635
 30
0.0
 11
-0.1768305473
 21
-0.1768305473
 31
0.0
 40
0.9996954599
 41
2.3563467834
 42
3.9268385237
  0
ELLIPSE
  5
6A4
100
AcDbEntity
  8
RACCORDO
100
AcDbEllipse
 62
7
  6
CONTINUOUS
 10
-12.2966998972
 20
8.1842200556
 30
0.0
 11
-0.0
 21
0.3
 31
0.0
 40
0.0174550649
 41
-3.1241393611
 42
-1.5707963268
  0
ELLIPSE
  5
6A5
100
AcDbEntity
  8
RACCORDO
100
AcDbEllipse
 62
7
  6
CONTINUOUS
 10
12.2998090898
 20
8.1842200556
 30
0.0
 11
-0.0
 21
0.3
 31
0.0
 40
0.0174550649
 41
-4.7123889804
 42
-3.1590459461
  0
ELLIPSE
  5
6A6
100
AcDbEntity
  8
DRAFT
100
AcDbEllipse
 62
7
  6
CONTINUOUS
 10
-17.221464008
 20
9.3417760715
 30
0.0
 11
0.0
 21
423.7
 31
0.0
 40
0.0174550649
 41
-1.6090810457
 42
-1.6073450502
  0
ELLIPSE
  5
6A7
100
AcDbEntity
  8
DRAFT
100
AcDbEllipse
 62
7
  6
CONTINUOUS
 10
-17.221464008
 20
9.3417760715
 30
0.0
 11
0.0
 21
423.7
 31
0.0
 40
0.0174550649
 41
-1.5904371127
 42
-1.588683735
  0
ELLIPSE
  5
6A8
100
AcDbEntity
  8
RACCORDO
100
AcDbEllipse
 62
7
  6
CONTINUOUS
 10
-0.1754267995
 20
9.3417760715
 30
0.0
 11
0.0
 21
423.7
 31
0.0
 40
0.0174550649
 41
-4.7090312901
 42
-4.6981756364
  0
ELLIPSE
  5
6A9
100
AcDbEntity
  8
RACCORDO
100
AcDbEllipse
 62
7
  6
CONTINUOUS
 10
10.8875448459
 20
-7.9625343604
 30
0.0
 11
-0.0300136675
 21
0.3031910442
 31
0.0
 40
0.9846622838
 41
-3.2387599651
 42
-1.6709942215
  0
ELLIPSE
  5
6AA
100
AcDbEntity
  8
RACCORDO
100
AcDbEllipse
 62
7
  6
CONTINUOUS
 10
-10.8844356534
 20
-7.9625343604
 30
0.0
 11
0.0300136675
 21
0.3031910442
 31
0.0
 40
0.9846622838
 41
-4.6121910857
 42
-3.0444253421
  0
ELLIPSE
  5
6AB
100
AcDbEntity
  8
RACCORDO
100
AcDbEllipse
 62
7
  6
CONTINUOUS
 10
-7.0432545827
 20
7.936539552
 30
0.0
 11
0.3
 21
-0.0
 31
0.0
 40
0.0174550649
 41
0.0174532925
 42
1.5707963268
  0
ELLIPSE
  5
6AC
100
AcDbEntity
  8
RACCORDO
100
AcDbEllipse
 62
7
  6
CONTINUOUS
 10
-14.121464008
 20
9.3417760715
 30
0.0
 11
0.0
 21
423.7
 31
0.0
 40
0.0174550649
 41
-1.5850096708
 42
-1.5741540171
  0
ELLIPSE
  5
6AD
100
AcDbEntity
  8
RACCORDO
100
AcDbEllipse
 62
7
  6
CONTINUOUS
 10
14.1245732005
 20
9.3417760715
 30
0.0
 11
0.0
 21
423.7
 31
0.0
 40
0.0174550649
 41
-4.7090312901
 42
-4.6981756364
  0
ELLIPSE
  5
6AE
100
AcDbEntity
  8
RACCORDO
100
AcDbEllipse
 62
7
  6
CONTINUOUS
 10
0.178535992
 20
9.3417760715
 30
0.0
 11
0.0
 21
423.7
 31
0.0
 40
0.0174550649
 41
-1.5850096708
 42
-1.5741540171
  0
ELLIPSE
  5
6AF
100
AcDbEntity
  8
RACCORDO
100
AcDbEllipse
 62
7
  6
CONTINUOUS
 10
-7.2536362248
 20
7.936539552
 30
0.0
 11
0.3
 21
0.0
 31
0.0
 40
0.0174550649
 41
1.5707963268
 42
3.1241393611
  0
ELLIPSE
  5
6B0
100
AcDbEntity
  8
RACCORDO
100
AcDbEllipse
 62
7
  6
CONTINUOUS
 10
7.0463637752
 20
7.936539552
 30
0.0
 11
0.3
 21
-0.0
 31
0.0
 40
0.0174550649
 41
1.5707963268
 42
3.1241393611
  0
ELLIPSE
  5
6B1
100
AcDbEntity
  8
RACCORDO
100
AcDbEllipse
 62
7
  6
CONTINUOUS
 10
7.2567454173
 20
7.936539552
 30
0.0
 11
0.3
 21
-0.0
 31
0.0
 40
0.0174550649
 41
0.0174532925
 42
1.5707963268
  0
ELLIPSE
  5
6B2
100
AcDbEntity
  8
RACCORDO
100
AcDbEllipse
 62
7
  6
CONTINUOUS
 10
-3.5383831423
 20
5.5470125909
 30
0.0
 11
0.3
 21
-0.0
 31
0.0
 40
0.0174550649
 41
-2.7925268032
 42
-1.5707963268
  0
ELLIPSE
  5
6B3
100
AcDbEntity
  8
RACCORDO
100
AcDbEllipse
 62
7
  6
CONTINUOUS
 10
3.5414923348
 20
5.5470125909
 30
0.0
 11
0.3
 21
-0.0
 31
0.0
 40
0.0174550649
 41
-1.5707963268
 42
-0.3490658504
  0
ELLIPSE
  5
6B4
100
AcDbEntity
  8
DRAFT
100
AcDbEllipse
 62
7
  6
CONTINUOUS
 10
17.2245732005
 20
9.3417760715
 30
0.0
 11
-0.0
 21
423.7
 31
0.0
 40
0.0174550649
 41
-4.6945015721
 42
-4.6927481945
  0
ELLIPSE
  5
6B5
100
AcDbEntity
  8
RACCORDO
100
AcDbEllipse
 62
7
  6
CONTINUOUS
 10
-3.5383831423
 20
3.936539552
 30
0.0
 11
0.3
 21
0.0
 31
0.0
 40
0.0174550649
 41
1.5707963268
 42
2.7925268032
  0
ELLIPSE
  5
6B6
100
AcDbEntity
  8
DRAFT
100
AcDbEllipse
 62
7
  6
CONTINUOUS
 10
17.2245732005
 20
9.3417760715
 30
0.0
 11
0.0
 21
423.7
 31
0.0
 40
0.0174550649
 41
-4.675840257
 42
-4.6741042615
  0
ELLIPSE
  5
6B7
100
AcDbEntity
  8
RACCORDO
100
AcDbEllipse
 62
7
  6
CONTINUOUS
 10
3.5414923348
 20
3.936539552
 30
0.0
 11
0.3
 21
0.0
 31
0.0
 40
0.0174550649
 41
0.3490658504
 42
1.5707963268
  0
ELLIPSE
  5
6B8
100
AcDbEntity
  8
RACCORDO
100
AcDbEllipse
 62
7
  6
CONTINUOUS
 10
-1.3540089431
 20
9.3417760715
 30
0.0
 11
0.0
 21
423.7
 31
0.0
 40
0.0174550649
 41
-1.6103149114
 42
-1.60848535
  0
ELLIPSE
  5
6B9
100
AcDbEntity
  8
RACCORDO
100
AcDbEllipse
 62
7
  6
CONTINUOUS
 10
12.5571181356
 20
9.3417760715
 30
0.0
 11
0.0
 21
423.7
 31
0.0
 40
0.0174550649
 41
-4.6746999572
 42
-4.6728703958
  0
ELLIPSE
  5
6BA
100
AcDbEntity
  8
DRAFT
100
AcDbEllipse
 62
7
  6
CONTINUOUS
 10
-3.0847740202
 20
9.3417760715
 30
0.0
 11
0.0
 21
423.7
 31
0.0
 40
0.0174550649
 41
-4.6861185815
 42
-4.6805882475
  0
ELLIPSE
  5
6BB
100
AcDbEntity
  8
DRAFT
100
AcDbEllipse
 62
7
  6
CONTINUOUS
 10
-18.8121167872
 20
9.3417760715
 30
0.0
 11
0.0
 21
423.7
 31
0.0
 40
0.0174550649
 41
-1.6025970597
 42
-1.5970667257
  0
ELLIPSE
  5
6BC
100
AcDbEntity
  8
DRAFT
100
AcDbEllipse
 62
7
  6
CONTINUOUS
 10
3.0878832128
 20
9.3417760715
 30
0.0
 11
0.0
 21
423.7
 31
0.0
 40
0.0174550649
 41
-1.6025970597
 42
-1.5970667257
  0
ELLIPSE
  5
6BD
100
AcDbEntity
  8
DRAFT
100
AcDbEllipse
 62
7
  6
CONTINUOUS
 10
18.8152259798
 20
9.3417760715
 30
0.0
 11
0.0
 21
423.7
 31
0.0
 40
0.0174550649
 41
-4.6861185815
 42
-4.6805882475
  0
ELLIPSE
  5
6BE
100
AcDbEntity
  8
RACCORDO
100
AcDbEllipse
 62
7
  6
CONTINUOUS
 10
-12.5540089431
 20
9.3417760715
 30
0.0
 11
0.0
 21
423.7
 31
0.0
 40
0.0174550649
 41
-1.6103149114
 42
-1.60848535
  0
ELLIPSE
  5
6BF
100
AcDbEntity
  8
RACCORDO
100
AcDbEllipse
 62
7
  6
CONTINUOUS
 10
1.3571181356
 20
9.3417760715
 30
0.0
 11
0.0
 21
423.7
 31
0.0
 40
0.0174550649
 41
-4.6746999572
 42
-4.6728703958
  0
ELLIPSE
  5
6C0
100
AcDbEntity
  8
RACCORDO
100
AcDbEllipse
 62
7
  6
CONTINUOUS
 10
-10.1781647125
 20
-6.8285503182
 30
0.0
 11
0.3
 21
0.0
 31
0.0
 40
0.0174550649
 41
0.0174532925
 42
1.5707963268
  0
ELLIPSE
  5
6C1
100
AcDbEntity
  8
RACCORDO
100
AcDbEllipse
 62
7
  6
CONTINUOUS
 10
-10.1781647125
 20
-6.1878975389
 30
0.0
 11
0.3
 21
0.0
 31
0.0
 40
0.0174550649
 41
-1.5707963268
 42
-0.0174532925
  0
ELLIPSE
  5
6C2
100
AcDbEntity
  8
RACCORDO
100
AcDbEllipse
 62
7
  6
CONTINUOUS
 10
-10.1781647125
 20
1.0714496818
 30
0.0
 11
0.3
 21
-0.0
 31
0.0
 40
0.0174550649
 41
0.0174532925
 42
1.5707963268
  0
ELLIPSE
  5
6C3
100
AcDbEntity
  8
RACCORDO
100
AcDbEllipse
 62
7
  6
CONTINUOUS
 10
-10.1781647125
 20
1.7121024611
 30
0.0
 11
0.3
 21
0.0
 31
0.0
 40
0.0174550649
 41
-1.5707963268
 42
-0.0174532925
  0
ELLIPSE
  5
6C4
100
AcDbEntity
  8
RACCORDO
100
AcDbEllipse
 62
7
  6
CONTINUOUS
 10
10.1812739051
 20
-6.1878975389
 30
0.0
 11
0.3
 21
0.0
 31
0.0
 40
0.0174550649
 41
-3.1241393611
 42
-1.5707963268
  0
ELLIPSE
  5
6C5
100
AcDbEntity
  8
RACCORDO
100
AcDbEllipse
 62
7
  6
CONTINUOUS
 10
10.1812739051
 20
-6.8285503182
 30
0.0
 11
0.3
 21
0.0
 31
0.0
 40
0.0174550649
 41
1.5707963268
 42
3.1241393611
  0
ELLIPSE
  5
6C6
100
AcDbEntity
  8
RACCORDO
100
AcDbEllipse
 62
7
  6
CONTINUOUS
 10
10.1812739051
 20
1.7121024611
 30
0.0
 11
0.3
 21
0.0
 31
0.0
 40
0.0174550649
 41
-3.1241393611
 42
-1.5707963268
  0
ELLIPSE
  5
6C7
100
AcDbEntity
  8
RACCORDO
100
AcDbEllipse
 62
7
  6
CONTINUOUS
 10
10.1812739051
 20
1.0714496818
 30
0.0
 11
0.3
 21
0.0
 31
0.0
 40
0.0174550649
 41
1.5707963268
 42
3.1241393611
  0
ELLIPSE
  5
6C8
100
AcDbEntity
  8
RACCORDO
100
AcDbEllipse
 62
7
  6
CONTINUOUS
 10
-6.0275861855
 20
-7.3860378336
 30
0.0
 11
0.0
 21
0.3
 31
0.0
 40
0.0174550649
 41
-4.6728703958
 42
-3.3161255788
  0
ELLIPSE
  5
6C9
100
AcDbEntity
  8
RACCORDO
100
AcDbEllipse
 62
7
  6
CONTINUOUS
 10
-5.1693046219
 20
-7.3860378336
 30
0.0
 11
0.0
 21
0.3
 31
0.0
 40
0.0174550649
 41
-2.9670597284
 42
-1.6103149114
  0
ELLIPSE
  5
6CA
100
AcDbEntity
  8
RACCORDO
100
AcDbEllipse
 62
7
  6
CONTINUOUS
 10
6.0306953781
 20
-7.3860378336
 30
0.0
 11
-0.0
 21
0.3
 31
0.0
 40
0.0174550649
 41
-2.9670597284
 42
-1.6103149114
  0
ELLIPSE
  5
6CB
100
AcDbEntity
  8
RACCORDO
100
AcDbEllipse
 62
7
  6
CONTINUOUS
 10
5.1724138145
 20
-7.3860378336
 30
0.0
 11
0.0
 21
0.3
 31
0.0
 40
0.0174550649
 41
-4.6728703958
 42
-3.3161255788
  0
ELLIPSE
  5
6CC
100
AcDbEntity
  8
RACCORDO
100
AcDbEllipse
 62
7
  6
CONTINUOUS
 10
5.7067454173
 20
-7.9321410806
 30
0.0
 11
0.3
 21
-0.0
 31
0.0
 40
0.1763269807
 41
-1.5707963268
 42
-0.0174532925
  0
ELLIPSE
  5
6CD
100
AcDbEntity
  8
RACCORDO
100
AcDbEllipse
 62
7
  6
CONTINUOUS
 10
-11.1966998972
 20
8.1842200556
 30
0.0
 11
0.0
 21
0.3
 31
0.0
 40
0.0174550649
 41
-3.1241393611
 42
-1.5707963268
  0
ELLIPSE
  5
6CE
100
AcDbEntity
  8
RACCORDO
100
AcDbEllipse
 62
7
  6
CONTINUOUS
 10
11.1998090898
 20
8.1842200556
 30
0.0
 11
0.0
 21
0.3
 31
0.0
 40
0.0174550649
 41
-4.7123889804
 42
-3.1590459461
  0
ELLIPSE
  5
6CF
100
AcDbEntity
  8
RACCORDO
100
AcDbEllipse
 62
7
  6
CONTINUOUS
 10
-5.4932545827
 20
-7.9321410806
 30
0.0
 11
0.3
 21
-0.0
 31
0.0
 40
0.1763269807
 41
-1.5707963268
 42
-0.0174532925
  0
ELLIPSE
  5
6D0
100
AcDbEntity
  8
RACCORDO
100
AcDbEllipse
 62
7
  6
CONTINUOUS
 10
-5.7036362248
 20
-7.9321410806
 30
0.0
 11
0.3
 21
-0.0
 31
0.0
 40
0.1763269807
 41
-3.1241393611
 42
-1.5707963268
  0
ELLIPSE
  5
6D1
100
AcDbEntity
  8
RACCORDO
100
AcDbEllipse
 62
7
  6
CONTINUOUS
 10
5.4963637752
 20
-7.9321410806
 30
0.0
 11
0.3
 21
0.0
 31
0.0
 40
0.1763269807
 41
-3.1241393611
 42
-1.5707963268
  0
ELLIPSE
  5
6D2
100
AcDbEntity
  8
ASSI
100
AcDbEllipse
 62
7
  6
CONTINUOUS
 10
12.0380235063
 20
-9.1014684188
 30
0.0
 11
0.2183310446
 21
0.1221043275
 31
0.0
 40
0.9980297029
 41
-2.0815635429
 42
-0.5109195152
  0
ELLIPSE
  5
6D3
100
AcDbEntity
  8
ASSI
100
AcDbEllipse
 62
7
  6
CONTINUOUS
 10
-12.0349143138
 20
-9.1014684188
 30
0.0
 11
0.2183310446
 21
-0.1221043275
 31
0.0
 40
0.9980297029
 41
-2.6306731384
 42
-1.0600291107
  0
ELLIPSE
  5
6D4
100
AcDbEntity
  8
ASSI
100
AcDbEllipse
 62
7
  6
CONTINUOUS
 10
-12.0414252957
 20
8.8847559635
 30
0.0
 11
-0.1768305473
 21
0.1768305473
 31
0.0
 40
0.9996954599
 41
-0.7852458701
 42
0.7852458701
  0
ELLIPSE
  5
6D5
100
AcDbEntity
  8
ASSI
100
AcDbEllipse
 62
7
  6
CONTINUOUS
 10
12.0445344883
 20
8.8847559635
 30
0.0
 11
-0.1768305473
 21
-0.1768305473
 31
0.0
 40
0.9996954599
 41
2.3563467834
 42
3.9268385237
  0
ELLIPSE
  5
6D6
100
AcDbEntity
  8
ASSI
100
AcDbEllipse
 62
7
  6
CONTINUOUS
 10
-12.2966998972
 20
8.1842200556
 30
0.0
 11
-0.0
 21
0.3
 31
0.0
 40
0.0174550649
 41
-3.1241393611
 42
-1.5707963268
  0
ELLIPSE
  5
6D7
100
AcDbEntity
  8
ASSI
100
AcDbEllipse
 62
7
  6
CONTINUOUS
 10
12.2998090898
 20
8.1842200556
 30
0.0
 11
-0.0
 21
0.3
 31
0.0
 40
0.0174550649
 41
-4.7123889804
 42
-3.1590459461
  0
ELLIPSE
  5
6D8
100
AcDbEntity
  8
ASSI
100
AcDbEllipse
 62
7
  6
CONTINUOUS
 10
1.3571181356
 20
9.3417760715
 30
0.0
 11
0.0
 21
423.7
 31
0.0
 40
0.0174550649
 41
-4.6746999572
 42
-4.6728703958
  0
ELLIPSE
  5
6D9
100
AcDbEntity
  8
ASSI
100
AcDbEllipse
 62
7
  6
CONTINUOUS
 10
-17.221464008
 20
9.3417760715
 30
0.0
 11
0.0
 21
423.7
 31
0.0
 40
0.0174550649
 41
-1.6090810457
 42
-1.6073450502
  0
ELLIPSE
  5
6DA
100
AcDbEntity
  8
ASSI
100
AcDbEllipse
 62
7
  6
CONTINUOUS
 10
-17.221464008
 20
9.3417760715
 30
0.0
 11
0.0
 21
423.7
 31
0.0
 40
0.0174550649
 41
-1.5904371127
 42
-1.588683735
  0
ELLIPSE
  5
6DB
100
AcDbEntity
  8
ASSI
100
AcDbEllipse
 62
7
  6
CONTINUOUS
 10
10.8875448459
 20
-7.9625343604
 30
0.0
 11
-0.0300136675
 21
0.3031910442
 31
0.0
 40
0.9846622838
 41
-3.2387599651
 42
-1.6709942215
  0
ELLIPSE
  5
6DC
100
AcDbEntity
  8
ASSI
100
AcDbEllipse
 62
7
  6
CONTINUOUS
 10
-10.8844356534
 20
-7.9625343604
 30
0.0
 11
0.0300136675
 21
0.3031910442
 31
0.0
 40
0.9846622838
 41
-4.6121910857
 42
-3.0444253421
  0
ELLIPSE
  5
6DD
100
AcDbEntity
  8
ASSI
100
AcDbEllipse
 62
7
  6
CONTINUOUS
 10
-7.0432545827
 20
7.936539552
 30
0.0
 11
0.3
 21
-0.0
 31
0.0
 40
0.0174550649
 41
0.0174532925
 42
1.5707963268
  0
ELLIPSE
  5
6DE
100
AcDbEntity
  8
ASSI
100
AcDbEllipse
 62
7
  6
CONTINUOUS
 10
-0.1754267995
 20
9.3417760715
 30
0.0
 11
0.0
 21
423.7
 31
0.0
 40
0.0174550649
 41
-4.7090312901
 42
-4.6981756364
  0
ELLIPSE
  5
6DF
100
AcDbEntity
  8
ASSI
100
AcDbEllipse
 62
7
  6
CONTINUOUS
 10
-14.121464008
 20
9.3417760715
 30
0.0
 11
0.0
 21
423.7
 31
0.0
 40
0.0174550649
 41
-1.5850096708
 42
-1.5741540171
  0
ELLIPSE
  5
6E0
100
AcDbEntity
  8
ASSI
100
AcDbEllipse
 62
7
  6
CONTINUOUS
 10
-7.2536362248
 20
7.936539552
 30
0.0
 11
0.3
 21
0.0
 31
0.0
 40
0.0174550649
 41
1.5707963268
 42
3.1241393611
  0
ELLIPSE
  5
6E1
100
AcDbEntity
  8
ASSI
100
AcDbEllipse
 62
7
  6
CONTINUOUS
 10
14.1245732005
 20
9.3417760715
 30
0.0
 11
0.0
 21
423.7
 31
0.0
 40
0.0174550649
 41
-4.7090312901
 42
-4.6981756364
  0
ELLIPSE
  5
6E2
100
AcDbEntity
  8
ASSI
100
AcDbEllipse
 62
7
  6
CONTINUOUS
 10
0.178535992
 20
9.3417760715
 30
0.0
 11
0.0
 21
423.7
 31
0.0
 40
0.0174550649
 41
-1.5850096708
 42
-1.5741540171
  0
ELLIPSE
  5
6E3
100
AcDbEntity
  8
ASSI
100
AcDbEllipse
 62
7
  6
CONTINUOUS
 10
7.0463637752
 20
7.936539552
 30
0.0
 11
0.3
 21
-0.0
 31
0.0
 40
0.0174550649
 41
1.5707963268
 42
3.1241393611
  0
ELLIPSE
  5
6E4
100
AcDbEntity
  8
ASSI
100
AcDbEllipse
 62
7
  6
CONTINUOUS
 10
7.2567454173
 20
7.936539552
 30
0.0
 11
0.3
 21
-0.0
 31
0.0
 40
0.0174550649
 41
0.0174532925
 42
1.5707963268
  0
ELLIPSE
  5
6E5
100
AcDbEntity
  8
ASSI
100
AcDbEllipse
 62
7
  6
CONTINUOUS
 10
-3.5383831423
 20
5.5470125909
 30
0.0
 11
0.3
 21
-0.0
 31
0.0
 40
0.0174550649
 41
-2.7925268032
 42
-1.5707963268
  0
ELLIPSE
  5
6E6
100
AcDbEntity
  8
ASSI
100
AcDbEllipse
 62
7
  6
CONTINUOUS
 10
3.5414923348
 20
5.5470125909
 30
0.0
 11
0.3
 21
-0.0
 31
0.0
 40
0.0174550649
 41
-1.5707963268
 42
-0.3490658504
  0
ELLIPSE
  5
6E7
100
AcDbEntity
  8
ASSI
100
AcDbEllipse
 62
7
  6
CONTINUOUS
 10
-3.5383831423
 20
3.936539552
 30
0.0
 11
0.3
 21
0.0
 31
0.0
 40
0.0174550649
 41
1.5707963268
 42
2.7925268032
  0
ELLIPSE
  5
6E8
100
AcDbEntity
  8
ASSI
100
AcDbEllipse
 62
7
  6
CONTINUOUS
 10
-12.5540089431
 20
9.3417760715
 30
0.0
 11
0.0
 21
423.7
 31
0.0
 40
0.0174550649
 41
-1.6103149114
 42
-1.60848535
  0
ELLIPSE
  5
6E9
100
AcDbEntity
  8
ASSI
100
AcDbEllipse
 62
7
  6
CONTINUOUS
 10
17.2245732005
 20
9.3417760715
 30
0.0
 11
-0.0
 21
423.7
 31
0.0
 40
0.0174550649
 41
-4.6945015721
 42
-4.6927481945
  0
ELLIPSE
  5
6EA
100
AcDbEntity
  8
ASSI
100
AcDbEllipse
 62
7
  6
CONTINUOUS
 10
3.5414923348
 20
3.936539552
 30
0.0
 11
0.3
 21
0.0
 31
0.0
 40
0.0174550649
 41
0.3490658504
 42
1.5707963268
  0
ELLIPSE
  5
6EB
100
AcDbEntity
  8
ASSI
100
AcDbEllipse
 62
7
  6
CONTINUOUS
 10
17.2245732005
 20
9.3417760715
 30
0.0
 11
0.0
 21
423.7
 31
0.0
 40
0.0174550649
 41
-4.675840257
 42
-4.6741042615
  0
ELLIPSE
  5
6EC
100
AcDbEntity
  8
ASSI
100
AcDbEllipse
 62
7
  6
CONTINUOUS
 10
-3.0847740202
 20
9.3417760715
 30
0.0
 11
0.0
 21
423.7
 31
0.0
 40
0.0174550649
 41
-4.6861185815
 42
-4.6805882475
  0
ELLIPSE
  5
6ED
100
AcDbEntity
  8
ASSI
100
AcDbEllipse
 62
7
  6
CONTINUOUS
 10
-18.8121167872
 20
9.3417760715
 30
0.0
 11
0.0
 21
423.7
 31
0.0
 40
0.0174550649
 41
-1.6025970597
 42
-1.5970667257
  0
ELLIPSE
  5
6EE
100
AcDbEntity
  8
ASSI
100
AcDbEllipse
 62
7
  6
CONTINUOUS
 10
3.0878832128
 20
9.3417760715
 30
0.0
 11
0.0
 21
423.7
 31
0.0
 40
0.0174550649
 41
-1.6025970597
 42
-1.5970667257
  0
ELLIPSE
  5
6EF
100
AcDbEntity
  8
ASSI
100
AcDbEllipse
 62
7
  6
CONTINUOUS
 10
18.8152259798
 20
9.3417760715
 30
0.0
 11
0.0
 21
423.7
 31
0.0
 40
0.0174550649
 41
-4.6861185815
 42
-4.6805882475
  0
ELLIPSE
  5
6F0
100
AcDbEntity
  8
ASSI
100
AcDbEllipse
 62
7
  6
CONTINUOUS
 10
-1.3540089431
 20
9.3417760715
 30
0.0
 11
0.0
 21
423.7
 31
0.0
 40
0.0174550649
 41
-1.6103149114
 42
-1.60848535
  0
ELLIPSE
  5
6F1
100
AcDbEntity
  8
ASSI
100
AcDbEllipse
 62
7
  6
CONTINUOUS
 10
-10.1781647125
 20
-6.8285503182
 30
0.0
 11
0.3
 21
0.0
 31
0.0
 40
0.0174550649
 41
0.0174532925
 42
1.5707963268
  0
ELLIPSE
  5
6F2
100
AcDbEntity
  8
ASSI
100
AcDbEllipse
 62
7
  6
CONTINUOUS
 10
-10.1781647125
 20
-6.1878975389
 30
0.0
 11
0.3
 21
0.0
 31
0.0
 40
0.0174550649
 41
-1.5707963268
 42
-0.0174532925
  0
ELLIPSE
  5
6F3
100
AcDbEntity
  8
ASSI
100
AcDbEllipse
 62
7
  6
CONTINUOUS
 10
-10.1781647125
 20
1.0714496818
 30
0.0
 11
0.3
 21
-0.0
 31
0.0
 40
0.0174550649
 41
0.0174532925
 42
1.5707963268
  0
ELLIPSE
  5
6F4
100
AcDbEntity
  8
ASSI
100
AcDbEllipse
 62
7
  6
CONTINUOUS
 10
-10.1781647125
 20
1.7121024611
 30
0.0
 11
0.3
 21
0.0
 31
0.0
 40
0.0174550649
 41
-1.5707963268
 42
-0.0174532925
  0
ELLIPSE
  5
6F5
100
AcDbEntity
  8
ASSI
100
AcDbEllipse
 62
7
  6
CONTINUOUS
 10
10.1812739051
 20
-6.1878975389
 30
0.0
 11
0.3
 21
0.0
 31
0.0
 40
0.0174550649
 41
-3.1241393611
 42
-1.5707963268
  0
ELLIPSE
  5
6F6
100
AcDbEntity
  8
ASSI
100
AcDbEllipse
 62
7
  6
CONTINUOUS
 10
10.1812739051
 20
-6.8285503182
 30
0.0
 11
0.3
 21
0.0
 31
0.0
 40
0.0174550649
 41
1.5707963268
 42
3.1241393611
  0
ELLIPSE
  5
6F7
100
AcDbEntity
  8
ASSI
100
AcDbEllipse
 62
7
  6
CONTINUOUS
 10
10.1812739051
 20
1.7121024611
 30
0.0
 11
0.3
 21
0.0
 31
0.0
 40
0.0174550649
 41
-3.1241393611
 42
-1.5707963268
  0
ELLIPSE
  5
6F8
100
AcDbEntity
  8
ASSI
100
AcDbEllipse
 62
7
  6
CONTINUOUS
 10
10.1812739051
 20
1.0714496818
 30
0.0
 11
0.3
 21
0.0
 31
0.0
 40
0.0174550649
 41
1.5707963268
 42
3.1241393611
  0
ELLIPSE
  5
6F9
100
AcDbEntity
  8
ASSI
100
AcDbEllipse
 62
7
  6
CONTINUOUS
 10
-6.0275861855
 20
-7.3860378336
 30
0.0
 11
0.0
 21
0.3
 31
0.0
 40
0.0174550649
 41
-4.6728703958
 42
-3.3161255788
  0
ELLIPSE
  5
6FA
100
AcDbEntity
  8
ASSI
100
AcDbEllipse
 62
7
  6
CONTINUOUS
 10
-5.1693046219
 20
-7.3860378336
 30
0.0
 11
0.0
 21
0.3
 31
0.0
 40
0.0174550649
 41
-2.9670597284
 42
-1.6103149114
  0
ELLIPSE
  5
6FB
100
AcDbEntity
  8
ASSI
100
AcDbEllipse
 62
7
  6
CONTINUOUS
 10
6.0306953781
 20
-7.3860378336
 30
0.0
 11
-0.0
 21
0.3
 31
0.0
 40
0.0174550649
 41
-2.9670597284
 42
-1.6103149114
  0
ELLIPSE
  5
6FC
100
AcDbEntity
  8
ASSI
100
AcDbEllipse
 62
7
  6
CONTINUOUS
 10
5.1724138145
 20
-7.3860378336
 30
0.0
 11
0.0
 21
0.3
 31
0.0
 40
0.0174550649
 41
-4.6728703958
 42
-3.3161255788
  0
ELLIPSE
  5
6FD
100
AcDbEntity
  8
ASSI
100
AcDbEllipse
 62
7
  6
CONTINUOUS
 10
5.7067454173
 20
-7.9321410806
 30
0.0
 11
0.3
 21
-0.0
 31
0.0
 40
0.1763269807
 41
-1.5707963268
 42
-0.0174532925
  0
ELLIPSE
  5
6FE
100
AcDbEntity
  8
ASSI
100
AcDbEllipse
 62
7
  6
CONTINUOUS
 10
-11.1966998972
 20
8.1842200556
 30
0.0
 11
0.0
 21
0.3
 31
0.0
 40
0.0174550649
 41
-3.1241393611
 42
-1.5707963268
  0
ELLIPSE
  5
6FF
100
AcDbEntity
  8
ASSI
100
AcDbEllipse
 62
7
  6
CONTINUOUS
 10
11.1998090898
 20
8.1842200556
 30
0.0
 11
0.0
 21
0.3
 31
0.0
 40
0.0174550649
 41
-4.7123889804
 42
-3.1590459461
  0
ELLIPSE
  5
700
100
AcDbEntity
  8
ASSI
100
AcDbEllipse
 62
7
  6
CONTINUOUS
 10
12.5571181356
 20
9.3417760715
 30
0.0
 11
0.0
 21
423.7
 31
0.0
 40
0.0174550649
 41
-4.6746999572
 42
-4.6728703958
  0
ELLIPSE
  5
701
100
AcDbEntity
  8
ASSI
100
AcDbEllipse
 62
7
  6
CONTINUOUS
 10
-5.4932545827
 20
-7.9321410806
 30
0.0
 11
0.3
 21
-0.0
 31
0.0
 40
0.1763269807
 41
-1.5707963268
 42
-0.0174532925
  0
ELLIPSE
  5
702
100
AcDbEntity
  8
ASSI
100
AcDbEllipse
 62
7
  6
CONTINUOUS
 10
-5.7036362248
 20
-7.9321410806
 30
0.0
 11
0.3
 21
-0.0
 31
0.0
 40
0.1763269807
 41
-3.1241393611
 42
-1.5707963268
  0
ELLIPSE
  5
703
100
AcDbEntity
  8
ASSI
100
AcDbEllipse
 62
7
  6
CONTINUOUS
 10
5.4963637752
 20
-7.9321410806
 30
0.0
 11
0.3
 21
0.0
 31
0.0
 40
0.1763269807
 41
-3.1241393611
 42
-1.5707963268
  0
ENDSEC
  0
SECTION
  2
OBJECTS
  0
DICTIONARY
  5
C
100
AcDbDictionary
280
0
281
1
  3
ACAD_GROUP
350
D
  3
ACAD_MLINESTYLE
350
17
  3
ACAD_LAYOUT
350
1A
  3
ACAD_PLOTSETTINGS
350
19
  3
ACAD_PLOTSTYLENAME
350
E
  0
DICTIONARY
  5
D
102
{ACAD_REACTORS
330
C
102
}
100
AcDbDictionary
280
0
281
1
  0
ACDBDICTIONARYWDFLT
  5
E
102
{ACAD_REACTORS
330
C
102
}
100
AcDbDictionary
281
1
  3
Normal
350
F
100
AcDbDictionaryWithDefault
340
F
  0
DICTIONARY
  5
17
102
{ACAD_REACTORS
330
C
102
}
100
AcDbDictionary
280
0
281
1
  3
Standard
350
18
  0
DICTIONARY
  5
19
102
{ACAD_REACTORS
330
C
102
}
100
AcDbDictionary
281
1
  0
DICTIONARY
  5
1A
102
{ACAD_REACTORS
330
C
102
}
100
AcDbDictionary
281
1
  3
Model
350
704
  3
Layout1
350
705
  0
ACDBPLACEHOLDER
  5
F
102
{ACAD_REACTORS
330
E
102
}
  0
MLINESTYLE
  5
18
102
{ACAD_REACTORS
330
17
102
}
100
AcDbMlineStyle
  2
STANDARD
 70
0
  3

 62
256
 51
90.0
 52
90.0
 71
2
 49
0.5
 62
256
  6
BYLAYER
 49
-0.5
 62
256
  6
BYLAYER
  0
LAYOUT
  5
704
102
{ACAD_REACTORS
330
1A
102
}
100
AcDbPlotSettings
  1

  2
none_device
  4
ISO_A4_(297.00_x_210.00_MM)
  6

 40
0.0
 41
0.0
 42
0.0
 43
0.0
 44
297.0
 45
210.0
 46
0.0
 47
0.0
 48
0.0
 49
0.0
140
0.0
141
0.0
142
1.0
143
1.0
 70
1024
 72
1
 73
0
 74
0
  7

 75
0
147
1.0
148
0.0
149
0.0
100
AcDbLayout
  1
Model
 70
0
 71
0
 10
0.0
 20
0.0
 11
297.0
 21
210.0
 12
0.0
 22
0.0
 32
0.0
 14
0.0
 24
0.0
 34
0.0
 15
0.0
 25
0.0
 35
0.0
146
0.0
 13
0.0
 23
0.0
 33
0.0
 16
1.0
 26
0.0
 36
0.0
 17
0.0
 27
1.0
 37
0.0
 76
0
330
212
345
0
346
0
  0
LAYOUT
  5
705
102
{ACAD_REACTORS
330
1A
102
}
100
AcDbPlotSettings
  1

  2
none_device
  4
ISO_A4_(297.00_x_210.00_MM)
  6

 40
0.0
 41
0.0
 42
0.0
 43
0.0
 44
297.0
 45
210.0
 46
0.0
 47
0.0
 48
0.0
 49
0.0
140
0.0
141
0.0
142
1.0
143
1.0
 70
0
 72
1
 73
0
 74
0
  7

 75
0
147
1.0
148
0.0
149
0.0
100
AcDbLayout
  1
Layout1
 70
0
 71
1
 10
0.0
 20
0.0
 11
297.0
 21
210.0
 12
0.0
 22
0.0
 32
0.0
 14
0.0
 24
0.0
 34
0.0
 15
0.0
 25
0.0
 35
0.0
146
0.0
 13
0.0
 23
0.0
 33
0.0
 16
1.0
 26
0.0
 36
0.0
 17
0.0
 27
1.0
 37
0.0
 76
0
330
213
345
0
346
0
  0
ENDSEC
  0
EOF
