  0
SECTION
  2
HEADER
  9
$ACADVER
  1
AC1024
  9
$DWGCODEPAGE
  3
ANSI_1252
  9
$EXTMAX
 10
297.0
 20
210.0
 30
0.0
  9
$EXTMIN
 10
0.0
 20
0.0
 30
0.0
  9
$LIMMIN
 10
0.0
 20
0.0
  9
$LIMMAX
 10
297.0
 20
210.0
  9
$VIEWCTR
 10
148.5
 20
105.0
  9
$VIEWSIZE
 40
210.0
  9
$CLAYER
  8
0
  9
$LTSCALE
 40
16.335
  9
$CELTYPE
  6
BYLAYER
  9
$DIMSCALE
 40
1.0
  9
$DIMASZ
 40
3.0
  9
$DIMEXO
 40
0.5
  9
$DIMDLI
 40
11.286
  9
$DIMEXE
 40
1.5
  9
$DIMCEN
 40
2.673
  9
$DIMLFAC
 40
1.0
  9
$DIMBLK
  1
_FILLED
  9
$DIMALT
 70
0
  9
$DIMALTF
 40
0.0393700787
  9
$DIMTXT
 40
3.0
  9
$DIMTOL
 70
1
  9
$DIMLIM
 70
0
  9
$DIMTFAC
 40
1.0
  9
$DIMTP
 40
0.01
  9
$DIMTM
 40
0.01
  9
$DIMGAP
 40
0.625
  9
$DIMDSEP
 70
44
  9
$AUNITS
 70
0
  9
$PDMODE
 70
3
  9
$PDSIZE
 40
3.0
  9
$HANDSEED
  5
654
  9
$TILEMODE
 70
1
  9
$MEASUREMENT
 70
1
  9
$INSUNITS
 70
4
  0
ENDSEC
  0
SECTION
  2
CLASSES
  0
CLASS
  1
ACDBDICTIONARYWDFLT
  2
AcDbDictionaryWithDefault
  3
AutoCAD 2000
 90
0
 91
1
280
0
281
0
  0
CLASS
  1
ACDBPLACEHOLDER
  2
AcDbPlaceHolder
  3
AutoCAD 2000
 90
0
 91
1
280
0
281
0
  0
CLASS
  1
LAYOUT
  2
AcDbLayout
  3
AutoCAD 2000
 90
0
 91
0
280
0
281
0
  0
ENDSEC
  0
SECTION
  2
TABLES
  0
TABLE
  2
VPORT
  5
8
100
AcDbSymbolTable
 70
2
  0
VPORT
  5
1F4
100
AcDbSymbolTableRecord
100
AcDbViewportTableRecord
  2
*ACTIVE
 70
0
 10
0.0
 20
0.0
 11
1.0
 21
1.0
 12
148.5
 22
105.0
 13
0.0
 23
0.0
 14
1.0
 24
1.0
 15
0.0
 25
0.0
 16
0.0
 26
0.0
 36
1.0
 17
0.0
 27
0.0
 37
0.0
 40
210.0
 41
1.4142857143
 42
50.0
 43
0.0
 44
0.0
 50
0.0
 51
0.0
 71
0
 72
100
 73
1
 74
1
 75
0
 76
0
 77
0
 78
0
  0
ENDTAB
  0
TABLE
  2
LTYPE
  5
5
100
AcDbSymbolTable
 70
6
  0
LTYPE
  5
14
100
AcDbSymbolTableRecord
100
AcDbLinetypeTableRecord
  2
BYBLOCK
 70
0
  3

 72
65
 73
0
 40
0.0
  0
LTYPE
  5
15
100
AcDbSymbolTableRecord
100
AcDbLinetypeTableRecord
  2
BYLAYER
 70
0
  3

 72
65
 73
0
 40
0.0
  0
LTYPE
  5
16
100
AcDbSymbolTableRecord
100
AcDbLinetypeTableRecord
  2
CONTINUOUS
 70
64
  3
Solid line
 72
65
 73
0
 40
0.0
  0
LTYPE
  5
1F5
100
AcDbSymbolTableRecord
100
AcDbLinetypeTableRecord
  2
CENTER
 70
64
  3
____ _ ____ _ ____ _ ____ _ ____ _ ____ _ ____
 72
65
 73
4
 40
0.6
 49
0.375
 74
0
 49
-0.075
 74
0
 49
0.075
 74
0
 49
-0.075
 74
0
  0
LTYPE
  5
1F6
100
AcDbSymbolTableRecord
100
AcDbLinetypeTableRecord
  2
HIDDEN
 70
64
  3
- - - - - - - - - - - - - - - - - - - -
 72
65
 73
2
 40
0.2
 49
0.1
 74
0
 49
-0.1
 74
0
  0
LTYPE
  5
1F7
100
AcDbSymbolTableRecord
100
AcDbLinetypeTableRecord
  2
PHANTOM
 70
64
  3
_____ _ _ _____ _ _ _____ _ _ _____
 72
65
 73
6
 40
0.8
 49
0.45
 74
0
 49
-0.05
 74
0
 49
0.1
 74
0
 49
-0.05
 74
0
 49
0.1
 74
0
 49
-0.05
 74
0
  0
LTYPE
  5
1F8
100
AcDbSymbolTableRecord
100
AcDbLinetypeTableRecord
  2
DOT
 70
64
  3
. . . . . . . . . . . . . . . . . . . .
 72
65
 73
2
 40
0.2
 49
0.1
 74
0
 49
-0.1
 74
0
  0
LTYPE
  5
1F9
100
AcDbSymbolTableRecord
100
AcDbLinetypeTableRecord
  2
DASHED
 70
64
  3
- - - - - - - - - - - - - - - - - - - -
 72
65
 73
2
 40
0.2
 49
0.1
 74
0
 49
-0.1
 74
0
  0
ENDTAB
  0
TABLE
  2
LAYER
  5
2
100
AcDbSymbolTable
 70
36
  0
LAYER
  5
10
100
AcDbSymbolTableRecord
100
AcDbLayerTableRecord
  2
0
 70
0
 62
7
  6
CONTINUOUS
370
-3
390
F
  0
LAYER
  5
1FA
100
AcDbSymbolTableRecord
100
AcDbLayerTableRecord
  2
DEFAULT_1
 70
0
 62
7
  6
CENTER
370
-3
390
F
  0
LAYER
  5
1FB
100
AcDbSymbolTableRecord
100
AcDbLayerTableRecord
  2
DEFAULT_2
 70
0
 62
7
  6
HIDDEN
370
-3
390
F
  0
LAYER
  5
1FC
100
AcDbSymbolTableRecord
100
AcDbLayerTableRecord
  2
DEFAULT_3
 70
0
 62
7
  6
PHANTOM
370
-3
390
F
  0
LAYER
  5
1FD
100
AcDbSymbolTableRecord
100
AcDbLayerTableRecord
  2
21714904_SKEL
 70
0
 62
7
  6
CONTINUOUS
370
-3
390
F
  0
LAYER
  5
1FE
100
AcDbSymbolTableRecord
100
AcDbLayerTableRecord
  2
ASSI
 70
0
 62
7
  6
CONTINUOUS
370
-3
390
F
  0
LAYER
  5
1FF
100
AcDbSymbolTableRecord
100
AcDbLayerTableRecord
  2
COLOR5
 70
0
 62
7
  6
CONTINUOUS
370
-3
390
F
  0
LAYER
  5
200
100
AcDbSymbolTableRecord
100
AcDbLayerTableRecord
  2
COORDINATE
 70
0
 62
7
  6
CONTINUOUS
370
-3
390
F
  0
LAYER
  5
201
100
AcDbSymbolTableRecord
100
AcDbLayerTableRecord
  2
COORD_ORIGINE
 70
0
 62
7
  6
CONTINUOUS
370
-3
390
F
  0
LAYER
  5
202
100
AcDbSymbolTableRecord
100
AcDbLayerTableRecord
  2
COPY_GEOM
 70
0
 62
7
  6
CONTINUOUS
370
-3
390
F
  0
LAYER
  5
203
100
AcDbSymbolTableRecord
100
AcDbLayerTableRecord
  2
CURVE
 70
0
 62
7
  6
CONTINUOUS
370
-3
390
F
  0
LAYER
  5
204
100
AcDbSymbolTableRecord
100
AcDbLayerTableRecord
  2
DRAFT
 70
0
 62
7
  6
CONTINUOUS
370
-3
390
F
  0
LAYER
  5
205
100
AcDbSymbolTableRecord
100
AcDbLayerTableRecord
  2
IGES_INCIS
 70
0
 62
7
  6
CONTINUOUS
370
-3
390
F
  0
LAYER
  5
206
100
AcDbSymbolTableRecord
100
AcDbLayerTableRecord
  2
IGES_INCISIONI
 70
0
 62
7
  6
CONTINUOUS
370
-3
390
F
  0
LAYER
  5
207
100
AcDbSymbolTableRecord
100
AcDbLayerTableRecord
  2
IMPORT_IGES
 70
0
 62
7
  6
CONTINUOUS
370
-3
390
F
  0
LAYER
  5
208
100
AcDbSymbolTableRecord
100
AcDbLayerTableRecord
  2
INTF_1
 70
0
 62
7
  6
CONTINUOUS
370
-3
390
F
  0
LAYER
  5
209
100
AcDbSymbolTableRecord
100
AcDbLayerTableRecord
  2
INTF_7
 70
0
 62
7
  6
CONTINUOUS
370
-3
390
F
  0
LAYER
  5
20A
100
AcDbSymbolTableRecord
100
AcDbLayerTableRecord
  2
MARCHIO
 70
0
 62
7
  6
CONTINUOUS
370
-3
390
F
  0
LAYER
  5
20B
100
AcDbSymbolTableRecord
100
AcDbLayerTableRecord
  2
NOTE
 70
0
 62
7
  6
CONTINUOUS
370
-3
390
F
  0
LAYER
  5
20C
100
AcDbSymbolTableRecord
100
AcDbLayerTableRecord
  2
PIANI
 70
0
 62
7
  6
CONTINUOUS
370
-3
390
F
  0
LAYER
  5
20D
100
AcDbSymbolTableRecord
100
AcDbLayerTableRecord
  2
PIANI_ORIGINE
 70
0
 62
7
  6
CONTINUOUS
370
-3
390
F
  0
LAYER
  5
20E
100
AcDbSymbolTableRecord
100
AcDbLayerTableRecord
  2
PUNTI
 70
0
 62
7
  6
CONTINUOUS
370
-3
390
F
  0
LAYER
  5
20F
100
AcDbSymbolTableRecord
100
AcDbLayerTableRecord
  2
RACCORDO
 70
0
 62
7
  6
CONTINUOUS
370
-3
390
F
  0
LAYER
  5
210
100
AcDbSymbolTableRecord
100
AcDbLayerTableRecord
  2
RGB__255__255__255__
 70
0
 62
7
  6
CONTINUOUS
370
-3
390
F
  0
LAYER
  5
211
100
AcDbSymbolTableRecord
100
AcDbLayerTableRecord
  2
RGB____0____0____0__
 70
0
 62
7
  6
CONTINUOUS
370
-3
390
F
  0
LAYER
  5
212
100
AcDbSymbolTableRecord
100
AcDbLayerTableRecord
  2
SMUSSO
 70
0
 62
7
  6
CONTINUOUS
370
-3
390
F
  0
LAYER
  5
213
100
AcDbSymbolTableRecord
100
AcDbLayerTableRecord
  2
SNAPLINE
 70
0
 62
7
  6
CONTINUOUS
370
-3
390
F
  0
LAYER
  5
214
100
AcDbSymbolTableRecord
100
AcDbLayerTableRecord
  2
SUPERFICI
 70
0
 62
7
  6
CONTINUOUS
370
-3
390
F
  0
LAYER
  5
215
100
AcDbSymbolTableRecord
100
AcDbLayerTableRecord
  2
TRASH
 70
0
 62
7
  6
CONTINUOUS
370
-3
390
F
  0
LAYER
  5
216
100
AcDbSymbolTableRecord
100
AcDbLayerTableRecord
  2
XSEC_DATUMS
 70
0
 62
7
  6
CONTINUOUS
370
-3
390
F
  0
ENDTAB
  0
TABLE
  2
STYLE
  5
3
100
AcDbSymbolTable
 70
1
  0
STYLE
  5
11
100
AcDbSymbolTableRecord
100
AcDbTextStyleTableRecord
  2
STANDARD
 70
0
 40
0.0
 41
0.8
 50
0.0
 71
0
 42
0.2
  3
txt
  4

  0
STYLE
  5
217
100
AcDbSymbolTableRecord
100
AcDbTextStyleTableRecord
  2
TEXTSTYLE_1
 70
0
 40
0.0
 41
0.8
 50
0.0
 71
0
 42
0.2
  3
gdt
  4

  0
ENDTAB
  0
TABLE
  2
VIEW
  5
6
100
AcDbSymbolTable
 70
0
  0
ENDTAB
  0
TABLE
  2
UCS
  5
7
100
AcDbSymbolTable
 70
0
  0
ENDTAB
  0
TABLE
  2
APPID
  5
9
100
AcDbSymbolTable
 70
1
  0
APPID
  5
218
100
AcDbSymbolTableRecord
100
AcDbRegAppTableRecord
  2
ACAD
 70
0
  0
ENDTAB
  0
TABLE
  2
BLOCK_RECORD
  5
1
100
AcDbSymbolTable
 70
0
  0
BLOCK_RECORD
  5
219
100
AcDbSymbolTableRecord
100
AcDbBlockTableRecord
  2
*Model_Space
  0
BLOCK_RECORD
  5
21A
100
AcDbSymbolTableRecord
100
AcDbBlockTableRecord
  2
*Paper_Space
  0
BLOCK_RECORD
  5
21B
100
AcDbSymbolTableRecord
100
AcDbBlockTableRecord
  2
_FILLED
  0
ENDTAB
  0
TABLE
  2
DIMSTYLE
  5
A
100
AcDbSymbolTable
 70
1
100
AcDbDimStyleTable
 71
0
  0
DIMSTYLE
105
21C
100
AcDbSymbolTableRecord
100
AcDbDimStyleTableRecord
  2
STANDARD
 70
0
  3

  4

 40
1.0
 41
3.0
 42
0.5
 43
0.38
 44
1.5
 45
0.0
 46
0.0
 47
0.01
 48
0.01
140
3.0
141
0.09
142
0.0
143
25.4
144
1.0
145
0.0
146
1.0
147
0.625
 71
1
 72
0
 73
0
 74
0
 75
0
 76
0
 77
1
 78
8
 79
2
170
0
171
1
172
0
173
0
174
0
175
0
176
0
177
0
178
0
270
2
179
2
271
2
272
2
273
2
274
2
275
0
280
0
281
0
282
0
283
1
284
8
285
0
286
0
287
3
288
0
340
11
278
44
341
21B
342
21B
343
21B
344
21B
  0
ENDTAB
  0
ENDSEC
  0
SECTION
  2
BLOCKS
  0
BLOCK
  5
20
100
AcDbEntity
  8
0
100
AcDbBlockBegin
  2
*Model_Space
 70
0
 10
0.0
 20
0.0
 30
0.0
  3
*Model_Space
  1

  0
ENDBLK
  5
21
100
AcDbEntity
  8
0
100
AcDbBlockEnd
  0
BLOCK
  5
1C
100
AcDbEntity
  8
0
100
AcDbBlockBegin
  2
*Paper_Space
 70
0
 10
0.0
 20
0.0
 30
0.0
  3
*Paper_Space
  1

  0
ENDBLK
  5
1D
100
AcDbEntity
  8
0
100
AcDbBlockEnd
  0
BLOCK
  5
21D
100
AcDbEntity
  8
0
100
AcDbBlockBegin
  2
_FILLED
 70
64
 10
0.0
 20
0.0
  3
_FILLED
  1

  0
SOLID
  5
21E
100
AcDbEntity
  8
0
  6
BYBLOCK
 62
0
100
AcDbTrace
 10
0.0
 20
0.0
 11
-1.0
 21
0.3166666667
 12
-1.0
 22
-0.3166666667
 13
-1.0
 23
-0.3166666667
  0
ENDBLK
  5
21F
100
AcDbEntity
  8
0
  6
BYBLOCK
 62
0
100
AcDbBlockEnd
  0
ENDSEC
  0
SECTION
  2
ENTITIES
  0
LWPOLYLINE
  5
220
100
AcDbEntity
  8
RACCORDO
100
AcDbPolyline
 62
7
  6
CONTINUOUS
 90
16
 70
0
 10
-143.919297192
 20
197.2962608503
 10
-143.8108280974
 20
197.3463896924
 10
-143.7010314669
 20
197.3932677784
 10
-143.5900053733
 20
197.4368635368
 10
-143.477931929
 20
197.477119668
 10
-143.3648285367
 20
197.514044156
 10
-143.2505397152
 20
197.5476856311
 10
-143.1352541151
 20
197.5779785581
 10
-143.0189735766
 20
197.6049123019
 10
-142.901246337
 20
197.6285515347
 10
-142.7820453171
 20
197.6488314728
 10
-142.6615802511
 20
197.6656457021
 10
-142.5397473035
 20
197.678933225
 10
-142.4165801722
 20
197.6886028355
 10
-142.2922528573
 20
197.6945535238
 10
-142.1668774719
 20
197.6966948496
  0
LWPOLYLINE
  5
221
100
AcDbEntity
  8
RACCORDO
100
AcDbPolyline
 62
250
  6
CONTINUOUS
 90
31
 70
0
 10
-143.604225528
 20
192.0911362448
 10
-143.7392224176
 20
191.936452426
 10
-143.8718721684
 20
191.7811650491
 10
-144.0021747804
 20
191.6252741141
 10
-144.1303092417
 20
191.4688300567
 10
-144.2560965641
 20
191.3117824413
 10
-144.3789997835
 20
191.1539799606
 10
-144.4990216334
 20
190.9954235789
 10
-144.6161593802
 20
190.836112332
 10
-144.7298678592
 20
190.6758920197
 10
-144.8401470781
 20
190.5147626349
 10
-144.9469970291
 20
190.3527241847
 10
-145.0498725244
 20
190.1896224903
 10
-145.1487735701
 20
190.0254575392
 10
-145.2437001601
 20
189.8602293439
 10
-145.334107088
 20
189.6937837631
 10
-145.4199943545
 20
189.5261207786
 10
-145.5013619589
 20
189.3572404086
 10
-145.5776646928
 20
189.1869885669
 10
-145.6489025463
 20
189.0153652321
 10
-145.7150755293
 20
188.8423704256
 10
-145.7756384627
 20
188.6678501259
 10
-145.8305913212
 20
188.491804329
 10
-145.8799341303
 20
188.3142330389
 10
-145.9231217869
 20
188.1349822455
 10
-145.9601542622
 20
187.954051892
 10
-145.9910315852
 20
187.7714420351
 10
-146.0152087395
 20
187.5869988353
 10
-146.0325040532
 20
187.4006710124
 10
-146.0430991984
 20
187.2125098466
 10
-146.0469941749
 20
187.0225153377
  0
LINE
  5
222
100
AcDbEntity
  8
RACCORDO
100
AcDbLine
 62
7
  6
CONTINUOUS
 10
-146.1668774719
 20
192.1462888731
 11
-146.2195095244
 21
192.0936568207
  0
LINE
  5
223
100
AcDbEntity
  8
RACCORDO
100
AcDbLine
 62
7
  6
CONTINUOUS
 10
-140.6668774719
 20
197.6462888731
 11
-140.6142462289
 21
197.6989201161
  0
LWPOLYLINE
  5
224
100
AcDbEntity
  8
RACCORDO
100
AcDbPolyline
 62
250
  6
CONTINUOUS
 90
31
 70
0
 10
-140.6117248435
 20
195.1072432716
 10
-140.4577139956
 20
195.242040411
 10
-140.3029907696
 20
195.3743781749
 10
-140.1475551656
 20
195.5042565633
 10
-139.9914492874
 20
195.6318452406
 10
-139.8346310312
 20
195.7569745424
 10
-139.6769740857
 20
195.8791354755
 10
-139.5184793485
 20
195.9983303317
 10
-139.3591459219
 20
196.1145568192
 10
-139.1988448016
 20
196.2272990704
 10
-139.0375759804
 20
196.3365570934
 10
-138.8753394655
 20
196.4423308801
 10
-138.7120062739
 20
196.5441045381
 10
-138.5475763929
 20
196.6418780744
 10
-138.3820498352
 20
196.7356514821
 10
-138.215297656
 20
196.8249088487
 10
-138.0473198365
 20
196.9096501758
 10
-137.8781163954
 20
196.9898754618
 10
-137.7075584441
 20
197.0650687898
 10
-137.5356459601
 20
197.1352301508
 10
-137.3623789659
 20
197.2003595538
 10
-137.1876286399
 20
197.2599411081
 10
-137.0113949754
 20
197.3139747895
 10
-136.8336779791
 20
197.3624606222
 10
-136.6543488488
 20
197.4048827882
 10
-136.473407529
 20
197.4412412583
 10
-136.2908540754
 20
197.4715360617
 10
-136.1065598528
 20
197.4952514682
 10
-135.9204819829
 20
197.5122155678
 10
-135.7326633441
 20
197.5226002704
 10
-135.5431039365
 20
197.5264055761
  0
LINE
  5
225
100
AcDbEntity
  8
ASSI
100
AcDbLine
 62
7
  6
CONTINUOUS
 10
-35.2993680567
 20
-69.0353431133
 11
-35.5598665722
 21
-69.0472420538
  0
LINE
  5
226
100
AcDbEntity
  8
ASSI
100
AcDbLine
 62
7
  6
CONTINUOUS
 10
-57.0343868871
 20
-68.9040562836
 11
-56.7738883716
 21
-68.8921573431
  0
LINE
  5
227
100
AcDbEntity
  8
ASSI
100
AcDbLine
 62
7
  6
CONTINUOUS
 10
-69.2993680567
 20
-69.0353431133
 11
-69.5598665722
 21
-69.0472420538
  0
LINE
  5
228
100
AcDbEntity
  8
ASSI
100
AcDbLine
 62
7
  6
CONTINUOUS
 10
-91.0343868871
 20
-68.9040562836
 11
-90.7738883716
 21
-68.8921573431
  0
LINE
  5
229
100
AcDbEntity
  8
ASSI
100
AcDbLine
 62
7
  6
CONTINUOUS
 10
-103.2993680567
 20
-69.0353431133
 11
-103.5598665722
 21
-69.0472420538
  0
LINE
  5
22A
100
AcDbEntity
  8
ASSI
100
AcDbLine
 62
7
  6
CONTINUOUS
 10
-125.0343868871
 20
-68.9040562836
 11
-124.7738883716
 21
-68.8921573431
  0
LWPOLYLINE
  5
22B
100
AcDbEntity
  8
RACCORDO
100
AcDbPolyline
 62
250
  6
CONTINUOUS
 90
28
 70
0
 10
-18.1668774719
 20
-68.8013167463
 10
-18.0511454745
 20
-68.7965796564
 10
-17.9383012457
 20
-68.7866112856
 10
-17.8284599818
 20
-68.771431528
 10
-17.7216838808
 20
-68.7510486017
 10
-17.6181434113
 20
-68.7254846379
 10
-17.518115447
 20
-68.6947983263
 10
-17.4217660019
 20
-68.6590253777
 10
-17.3291652237
 20
-68.6181982869
 10
-17.2404428733
 20
-68.5724083351
 10
-17.1557607373
 20
-68.5217136712
 10
-17.0751962953
 20
-68.466161707
 10
-16.9987476397
 20
-68.405861311
 10
-16.9265160824
 20
-68.3408883961
 10
-16.8586401896
 20
-68.2713114392
 10
-16.7951676295
 20
-68.1972564499
 10
-16.7361866133
 20
-68.1188151104
 10
-16.6818463901
 20
-68.0360816907
 10
-16.632279164
 20
-67.9492110996
 10
-16.5876429274
 20
-67.8583249577
 10
-16.548009814
 20
-67.7635350165
 10
-16.5133746815
 20
-67.6650040197
 10
-16.4838680858
 20
-67.5628805573
 10
-16.4595743609
 20
-67.4572994516
 10
-16.4404091264
 20
-67.3484215937
 10
-16.426407412
 20
-67.2364126016
 10
-16.4177266072
 20
-67.1214402345
 10
-16.4144576195
 20
-67.0036830375
  0
LINE
  5
22C
100
AcDbEntity
  8
ASSI
100
AcDbLine
 62
7
  6
CONTINUOUS
 10
-35.5598665722
 20
-69.0472420538
 11
-35.8629102908
 21
-69.0588230026
  0
LINE
  5
22D
100
AcDbEntity
  8
ASSI
100
AcDbLine
 62
7
  6
CONTINUOUS
 10
-56.7738883716
 20
-68.8921573431
 11
-56.4708446531
 21
-68.8805763942
  0
LINE
  5
22E
100
AcDbEntity
  8
ASSI
100
AcDbLine
 62
7
  6
CONTINUOUS
 10
-69.5598665722
 20
-69.0472420538
 11
-69.8629102908
 21
-69.0588230026
  0
LINE
  5
22F
100
AcDbEntity
  8
ASSI
100
AcDbLine
 62
7
  6
CONTINUOUS
 10
-90.7738883716
 20
-68.8921573431
 11
-90.4708446531
 21
-68.8805763942
  0
LINE
  5
230
100
AcDbEntity
  8
ASSI
100
AcDbLine
 62
7
  6
CONTINUOUS
 10
-103.5598665722
 20
-69.0472420538
 11
-103.8629102908
 21
-69.0588230026
  0
LINE
  5
231
100
AcDbEntity
  8
ASSI
100
AcDbLine
 62
7
  6
CONTINUOUS
 10
-124.7738883716
 20
-68.8921573431
 11
-124.4708446531
 21
-68.8805763942
  0
LINE
  5
232
100
AcDbEntity
  8
ASSI
100
AcDbLine
 62
7
  6
CONTINUOUS
 10
-35.8629102908
 20
-69.0588230026
 11
-36.2075853284
 21
-69.0700510355
  0
LINE
  5
233
100
AcDbEntity
  8
ASSI
100
AcDbLine
 62
7
  6
CONTINUOUS
 10
-56.4708446531
 20
-68.8805763942
 11
-56.1261696154
 21
-68.8693483614
  0
LINE
  5
234
100
AcDbEntity
  8
ASSI
100
AcDbLine
 62
7
  6
CONTINUOUS
 10
-69.8629102908
 20
-69.0588230026
 11
-70.2075853284
 21
-69.0700510355
  0
LINE
  5
235
100
AcDbEntity
  8
ASSI
100
AcDbLine
 62
7
  6
CONTINUOUS
 10
-90.4708446531
 20
-68.8805763942
 11
-90.1261696154
 21
-68.8693483614
  0
LINE
  5
236
100
AcDbEntity
  8
ASSI
100
AcDbLine
 62
7
  6
CONTINUOUS
 10
-103.8629102908
 20
-69.0588230026
 11
-104.2075853284
 21
-69.0700510355
  0
LINE
  5
237
100
AcDbEntity
  8
ASSI
100
AcDbLine
 62
7
  6
CONTINUOUS
 10
-124.4708446531
 20
-68.8805763942
 11
-124.1261696154
 21
-68.8693483614
  0
LWPOLYLINE
  5
238
100
AcDbEntity
  8
RACCORDO
100
AcDbPolyline
 62
250
  6
CONTINUOUS
 90
28
 70
0
 10
-14.5170601657
 20
-65.1064529555
 10
-14.3991665491
 20
-65.102943456
 10
-14.2841864617
 20
-65.0941469679
 10
-14.1722281675
 20
-65.0801049905
 10
-14.0633670429
 20
-65.0609600738
 10
-13.9577646165
 20
-65.0367086459
 10
-13.8556488198
 20
-65.0072124488
 10
-13.7571323343
 20
-64.9726307429
 10
-13.6623291885
 20
-64.9330815418
 10
-13.5714399931
 20
-64.8884169519
 10
-13.4845715811
 20
-64.8388619984
 10
-13.4018279173
 20
-64.7846079593
 10
-13.3233745007
 20
-64.7255123191
 10
-13.2493101587
 20
-64.6619309366
 10
-13.1797238982
 20
-64.5940594183
 10
-13.1147362221
 20
-64.5215796126
 10
-13.0544261917
 20
-64.4449042434
 10
-12.9988742098
 20
-64.3643156264
 10
-12.9481729233
 20
-64.2793778758
 10
-12.9023797128
 20
-64.1905963836
 10
-12.8615613402
 20
-64.0983021996
 10
-12.82579128
 20
-64.0018846193
 10
-12.7951030206
 20
-63.9017900607
 10
-12.7695420572
 20
-63.7985365379
 10
-12.7491626924
 20
-63.6916893479
 10
-12.7339862313
 20
-63.5814492986
 10
-12.7240187322
 20
-63.4686254834
 10
-12.7192718525
 20
-63.3537111269
  0
LINE
  5
239
100
AcDbEntity
  8
ASSI
100
AcDbLine
 62
7
  6
CONTINUOUS
 10
-36.2075853284
 20
-69.0700510355
 11
-36.5924065995
 21
-69.0808745487
  0
LINE
  5
23A
100
AcDbEntity
  8
ASSI
100
AcDbLine
 62
7
  6
CONTINUOUS
 10
-56.1261696154
 20
-68.8693483614
 11
-55.7413483443
 21
-68.8585248481
  0
LINE
  5
23B
100
AcDbEntity
  8
ASSI
100
AcDbLine
 62
7
  6
CONTINUOUS
 10
-70.2075853284
 20
-69.0700510355
 11
-70.5924065995
 21
-69.0808745487
  0
LINE
  5
23C
100
AcDbEntity
  8
ASSI
100
AcDbLine
 62
7
  6
CONTINUOUS
 10
-90.1261696154
 20
-68.8693483614
 11
-89.7413483443
 21
-68.8585248481
  0
LINE
  5
23D
100
AcDbEntity
  8
ASSI
100
AcDbLine
 62
7
  6
CONTINUOUS
 10
-104.2075853284
 20
-69.0700510355
 11
-104.5924065995
 21
-69.0808745487
  0
LINE
  5
23E
100
AcDbEntity
  8
ASSI
100
AcDbLine
 62
7
  6
CONTINUOUS
 10
-124.1261696154
 20
-68.8693483614
 11
-123.7413483443
 21
-68.8585248481
  0
LINE
  5
23F
100
AcDbEntity
  8
ASSI
100
AcDbLine
 62
7
  6
CONTINUOUS
 10
-36.5924065995
 20
-69.0808745487
 11
-37.0155559739
 21
-69.0912452948
  0
LINE
  5
240
100
AcDbEntity
  8
ASSI
100
AcDbLine
 62
7
  6
CONTINUOUS
 10
-55.7413483443
 20
-68.8585248481
 11
-55.3181989699
 21
-68.848154102
  0
LINE
  5
241
100
AcDbEntity
  8
ASSI
100
AcDbLine
 62
7
  6
CONTINUOUS
 10
-70.5924065995
 20
-69.0808745487
 11
-71.0155559739
 21
-69.0912452948
  0
LINE
  5
242
100
AcDbEntity
  8
ASSI
100
AcDbLine
 62
7
  6
CONTINUOUS
 10
-89.7413483443
 20
-68.8585248481
 11
-89.3181989699
 21
-68.848154102
  0
LINE
  5
243
100
AcDbEntity
  8
ASSI
100
AcDbLine
 62
7
  6
CONTINUOUS
 10
-104.5924065995
 20
-69.0808745487
 11
-105.0155559739
 21
-69.0912452948
  0
LINE
  5
244
100
AcDbEntity
  8
ASSI
100
AcDbLine
 62
7
  6
CONTINUOUS
 10
-123.7413483443
 20
-68.8585248481
 11
-123.3181989699
 21
-68.848154102
  0
LINE
  5
245
100
AcDbEntity
  8
ASSI
100
AcDbLine
 62
7
  6
CONTINUOUS
 10
-37.0155559739
 20
-69.0912452948
 11
-37.7190024846
 21
-69.1058765731
  0
LINE
  5
246
100
AcDbEntity
  8
ASSI
100
AcDbLine
 62
7
  6
CONTINUOUS
 10
-55.3181989699
 20
-68.848154102
 11
-54.6147524592
 21
-68.8335228238
  0
LINE
  5
247
100
AcDbEntity
  8
ASSI
100
AcDbLine
 62
7
  6
CONTINUOUS
 10
-71.0155559739
 20
-69.0912452948
 11
-71.7190024846
 21
-69.1058765731
  0
LINE
  5
248
100
AcDbEntity
  8
ASSI
100
AcDbLine
 62
7
  6
CONTINUOUS
 10
-89.3181989699
 20
-68.848154102
 11
-88.6147524592
 21
-68.8335228238
  0
LINE
  5
249
100
AcDbEntity
  8
ASSI
100
AcDbLine
 62
7
  6
CONTINUOUS
 10
-105.0155559739
 20
-69.0912452948
 11
-105.7190024846
 21
-69.1058765731
  0
LINE
  5
24A
100
AcDbEntity
  8
ASSI
100
AcDbLine
 62
7
  6
CONTINUOUS
 10
-123.3181989699
 20
-68.848154102
 11
-122.6147524592
 21
-68.8335228238
  0
LINE
  5
24B
100
AcDbEntity
  8
ASSI
100
AcDbLine
 62
7
  6
CONTINUOUS
 10
-37.7190024846
 20
-69.1058765731
 11
-38.4989542595
 21
-69.1192746125
  0
LINE
  5
24C
100
AcDbEntity
  8
ASSI
100
AcDbLine
 62
7
  6
CONTINUOUS
 10
-54.6147524592
 20
-68.8335228238
 11
-53.8348006844
 21
-68.8201247844
  0
LINE
  5
24D
100
AcDbEntity
  8
ASSI
100
AcDbLine
 62
7
  6
CONTINUOUS
 10
-71.7190024846
 20
-69.1058765731
 11
-72.4989542595
 21
-69.1192746125
  0
LINE
  5
24E
100
AcDbEntity
  8
ASSI
100
AcDbLine
 62
7
  6
CONTINUOUS
 10
-88.6147524592
 20
-68.8335228238
 11
-87.8348006844
 21
-68.8201247844
  0
LINE
  5
24F
100
AcDbEntity
  8
ASSI
100
AcDbLine
 62
7
  6
CONTINUOUS
 10
-105.7190024846
 20
-69.1058765731
 11
-106.4989542595
 21
-69.1192746125
  0
LINE
  5
250
100
AcDbEntity
  8
ASSI
100
AcDbLine
 62
7
  6
CONTINUOUS
 10
-122.6147524592
 20
-68.8335228238
 11
-121.8348006844
 21
-68.8201247844
  0
LINE
  5
251
100
AcDbEntity
  8
RACCORDO
100
AcDbLine
 62
250
  6
CONTINUOUS
 10
-142.1668774719
 20
-68.8013167463
 11
-140.3826647398
 21
-68.7728759241
  0
LINE
  5
252
100
AcDbEntity
  8
ASSI
100
AcDbLine
 62
7
  6
CONTINUOUS
 10
-38.4989542595
 20
-69.1192746125
 11
-39.3483479343
 21
-69.1313180783
  0
LINE
  5
253
100
AcDbEntity
  8
ASSI
100
AcDbLine
 62
7
  6
CONTINUOUS
 10
-72.4989542595
 20
-69.1192746125
 11
-73.3483479343
 21
-69.1313180783
  0
LINE
  5
254
100
AcDbEntity
  8
ASSI
100
AcDbLine
 62
7
  6
CONTINUOUS
 10
-53.8348006844
 20
-68.8201247844
 11
-52.9854070095
 21
-68.8080813186
  0
LINE
  5
255
100
AcDbEntity
  8
ASSI
100
AcDbLine
 62
7
  6
CONTINUOUS
 10
-106.4989542595
 20
-69.1192746125
 11
-107.3483479343
 21
-69.1313180783
  0
LINE
  5
256
100
AcDbEntity
  8
ASSI
100
AcDbLine
 62
7
  6
CONTINUOUS
 10
-87.8348006844
 20
-68.8201247844
 11
-86.9854070095
 21
-68.8080813186
  0
LINE
  5
257
100
AcDbEntity
  8
ASSI
100
AcDbLine
 62
7
  6
CONTINUOUS
 10
-121.8348006844
 20
-68.8201247844
 11
-120.9854070095
 21
-68.8080813186
  0
LINE
  5
258
100
AcDbEntity
  8
RACCORDO
100
AcDbLine
 62
250
  6
CONTINUOUS
 10
-140.3826647398
 20
-68.7728759241
 11
-139.4189215021
 21
-68.7596099303
  0
LINE
  5
259
100
AcDbEntity
  8
ASSI
100
AcDbLine
 62
7
  6
CONTINUOUS
 10
-39.3483479343
 20
-69.1313180783
 11
-40.2594912685
 21
-69.141897903
  0
LINE
  5
25A
100
AcDbEntity
  8
ASSI
100
AcDbLine
 62
7
  6
CONTINUOUS
 10
-73.3483479343
 20
-69.1313180783
 11
-74.2594912685
 21
-69.141897903
  0
LINE
  5
25B
100
AcDbEntity
  8
ASSI
100
AcDbLine
 62
7
  6
CONTINUOUS
 10
-52.9854070095
 20
-68.8080813186
 11
-52.0742636753
 21
-68.7975014938
  0
LINE
  5
25C
100
AcDbEntity
  8
ASSI
100
AcDbLine
 62
7
  6
CONTINUOUS
 10
-107.3483479343
 20
-69.1313180783
 11
-108.2594912685
 21
-69.141897903
  0
LINE
  5
25D
100
AcDbEntity
  8
ASSI
100
AcDbLine
 62
7
  6
CONTINUOUS
 10
-86.9854070095
 20
-68.8080813186
 11
-86.0742636753
 21
-68.7975014938
  0
LINE
  5
25E
100
AcDbEntity
  8
ASSI
100
AcDbLine
 62
7
  6
CONTINUOUS
 10
-120.9854070095
 20
-68.8080813186
 11
-120.0742636753
 21
-68.7975014938
  0
LINE
  5
25F
100
AcDbEntity
  8
RACCORDO
100
AcDbLine
 62
250
  6
CONTINUOUS
 10
-139.4189215021
 20
-68.7596099303
 11
-138.6129955605
 21
-68.7502796924
  0
LINE
  5
260
100
AcDbEntity
  8
ASSI
100
AcDbLine
 62
7
  6
CONTINUOUS
 10
-40.2594912685
 20
-69.141897903
 11
-41.224132807
 21
-69.1509182742
  0
LINE
  5
261
100
AcDbEntity
  8
ASSI
100
AcDbLine
 62
7
  6
CONTINUOUS
 10
-74.2594912685
 20
-69.141897903
 11
-75.224132807
 21
-69.1509182742
  0
LINE
  5
262
100
AcDbEntity
  8
ASSI
100
AcDbLine
 62
7
  6
CONTINUOUS
 10
-52.0742636753
 20
-68.7975014938
 11
-51.1096221368
 21
-68.7884811227
  0
LINE
  5
263
100
AcDbEntity
  8
ASSI
100
AcDbLine
 62
7
  6
CONTINUOUS
 10
-108.2594912685
 20
-69.141897903
 11
-109.224132807
 21
-69.1509182742
  0
LINE
  5
264
100
AcDbEntity
  8
ASSI
100
AcDbLine
 62
7
  6
CONTINUOUS
 10
-86.0742636753
 20
-68.7975014938
 11
-85.1096221368
 21
-68.7884811227
  0
LINE
  5
265
100
AcDbEntity
  8
ASSI
100
AcDbLine
 62
7
  6
CONTINUOUS
 10
-120.0742636753
 20
-68.7975014938
 11
-119.1096221368
 21
-68.7884811227
  0
LINE
  5
266
100
AcDbEntity
  8
RACCORDO
100
AcDbLine
 62
250
  6
CONTINUOUS
 10
-138.6129955605
 20
-68.7502796924
 11
-137.7756864453
 21
-68.7425927665
  0
LINE
  5
267
100
AcDbEntity
  8
ASSI
100
AcDbLine
 62
7
  6
CONTINUOUS
 10
-41.224132807
 20
-69.1509182742
 11
-42.2335366065
 21
-69.1582975018
  0
LINE
  5
268
100
AcDbEntity
  8
ASSI
100
AcDbLine
 62
7
  6
CONTINUOUS
 10
-75.224132807
 20
-69.1509182742
 11
-76.2335366065
 21
-69.1582975018
  0
LINE
  5
269
100
AcDbEntity
  8
ASSI
100
AcDbLine
 62
7
  6
CONTINUOUS
 10
-51.1096221368
 20
-68.7884811227
 11
-50.1002183373
 21
-68.7811018951
  0
LINE
  5
26A
100
AcDbEntity
  8
ASSI
100
AcDbLine
 62
7
  6
CONTINUOUS
 10
-109.224132807
 20
-69.1509182742
 11
-110.2335366065
 21
-69.1582975018
  0
LINE
  5
26B
100
AcDbEntity
  8
ASSI
100
AcDbLine
 62
7
  6
CONTINUOUS
 10
-85.1096221368
 20
-68.7884811227
 11
-84.1002183373
 21
-68.7811018951
  0
LINE
  5
26C
100
AcDbEntity
  8
ASSI
100
AcDbLine
 62
7
  6
CONTINUOUS
 10
-119.1096221368
 20
-68.7884811227
 11
-118.1002183373
 21
-68.7811018951
  0
LINE
  5
26D
100
AcDbEntity
  8
RACCORDO
100
AcDbLine
 62
250
  6
CONTINUOUS
 10
-137.7756864453
 20
-68.7425927665
 11
-137.0170571604
 21
-68.737577053
  0
LINE
  5
26E
100
AcDbEntity
  8
ASSI
100
AcDbLine
 62
7
  6
CONTINUOUS
 10
-42.2335366065
 20
-69.1582975018
 11
-43.2785613501
 21
-69.1639687586
  0
LINE
  5
26F
100
AcDbEntity
  8
ASSI
100
AcDbLine
 62
7
  6
CONTINUOUS
 10
-76.2335366065
 20
-69.1582975018
 11
-77.2785613501
 21
-69.1639687586
  0
LINE
  5
270
100
AcDbEntity
  8
ASSI
100
AcDbLine
 62
7
  6
CONTINUOUS
 10
-110.2335366065
 20
-69.1582975018
 11
-111.2785613501
 21
-69.1639687586
  0
LINE
  5
271
100
AcDbEntity
  8
ASSI
100
AcDbLine
 62
7
  6
CONTINUOUS
 10
-50.1002183373
 20
-68.7811018951
 11
-49.0551935938
 21
-68.7754306383
  0
LINE
  5
272
100
AcDbEntity
  8
ASSI
100
AcDbLine
 62
7
  6
CONTINUOUS
 10
-84.1002183373
 20
-68.7811018951
 11
-83.0551935938
 21
-68.7754306383
  0
LINE
  5
273
100
AcDbEntity
  8
ASSI
100
AcDbLine
 62
7
  6
CONTINUOUS
 10
-118.1002183373
 20
-68.7811018951
 11
-117.0551935938
 21
-68.7754306383
  0
LINE
  5
274
100
AcDbEntity
  8
ASSI
100
AcDbLine
 62
7
  6
CONTINUOUS
 10
-43.2785613501
 20
-69.1639687586
 11
-44.3497431316
 21
-69.1678806846
  0
LINE
  5
275
100
AcDbEntity
  8
ASSI
100
AcDbLine
 62
7
  6
CONTINUOUS
 10
-77.2785613501
 20
-69.1639687586
 11
-78.3497431316
 21
-69.1678806846
  0
LINE
  5
276
100
AcDbEntity
  8
ASSI
100
AcDbLine
 62
7
  6
CONTINUOUS
 10
-111.2785613501
 20
-69.1639687586
 11
-112.3497431316
 21
-69.1678806846
  0
LINE
  5
277
100
AcDbEntity
  8
ASSI
100
AcDbLine
 62
7
  6
CONTINUOUS
 10
-49.0551935938
 20
-68.7754306383
 11
-47.9840118122
 21
-68.7715187123
  0
LINE
  5
278
100
AcDbEntity
  8
ASSI
100
AcDbLine
 62
7
  6
CONTINUOUS
 10
-83.0551935938
 20
-68.7754306383
 11
-81.9840118122
 21
-68.7715187123
  0
LINE
  5
279
100
AcDbEntity
  8
ASSI
100
AcDbLine
 62
7
  6
CONTINUOUS
 10
-117.0551935938
 20
-68.7754306383
 11
-115.9840118122
 21
-68.7715187123
  0
LINE
  5
27A
100
AcDbEntity
  8
RACCORDO
100
AcDbLine
 62
250
  6
CONTINUOUS
 10
-137.0170571604
 20
-68.737577053
 11
-136.2339598342
 21
-68.7344847558
  0
LINE
  5
27B
100
AcDbEntity
  8
ASSI
100
AcDbLine
 62
7
  6
CONTINUOUS
 10
-44.3497431316
 20
-69.1678806846
 11
-45.4370145082
 21
-69.1699975481
  0
LINE
  5
27C
100
AcDbEntity
  8
ASSI
100
AcDbLine
 62
7
  6
CONTINUOUS
 10
-78.3497431316
 20
-69.1678806846
 11
-79.4370145082
 21
-69.1699975481
  0
LINE
  5
27D
100
AcDbEntity
  8
ASSI
100
AcDbLine
 62
7
  6
CONTINUOUS
 10
-112.3497431316
 20
-69.1678806846
 11
-113.4370145082
 21
-69.1699975481
  0
LINE
  5
27E
100
AcDbEntity
  8
ASSI
100
AcDbLine
 62
7
  6
CONTINUOUS
 10
-47.9840118122
 20
-68.7715187123
 11
-46.8967404357
 21
-68.7694018488
  0
LINE
  5
27F
100
AcDbEntity
  8
ASSI
100
AcDbLine
 62
7
  6
CONTINUOUS
 10
-81.9840118122
 20
-68.7715187123
 11
-80.8967404357
 21
-68.7694018488
  0
LINE
  5
280
100
AcDbEntity
  8
ASSI
100
AcDbLine
 62
7
  6
CONTINUOUS
 10
-115.9840118122
 20
-68.7715187123
 11
-114.8967404357
 21
-68.7694018488
  0
LINE
  5
281
100
AcDbEntity
  8
RACCORDO
100
AcDbLine
 62
7
  6
CONTINUOUS
 10
-18.1668774719
 20
-67.4041171034
 11
-18.8923952227
 21
-67.4052380067
  0
LWPOLYLINE
  5
282
100
AcDbEntity
  8
RACCORDO
100
AcDbPolyline
 62
7
  6
CONTINUOUS
 90
4
 70
0
 10
-18.8923952227
 20
-67.4052380067
 10
-19.3993776126
 20
-67.4059390263
 10
-19.5612271514
 20
-67.4061471247
 10
-19.7195087149
 20
-67.4063423698
  0
LINE
  5
283
100
AcDbEntity
  8
DRAFT
100
AcDbLine
 62
7
  6
CONTINUOUS
 10
-142.1668774719
 20
-69.3537111269
 11
-18.1668774719
 21
-69.3537111269
  0
LINE
  5
284
100
AcDbEntity
  8
ASSI
100
AcDbLine
 62
7
  6
CONTINUOUS
 10
-18.1668774719
 20
-69.3537111269
 11
-142.1668774719
 21
-69.3537111269
  0
LINE
  5
285
100
AcDbEntity
  8
ASSI
100
AcDbLine
 62
7
  6
CONTINUOUS
 10
-26.0668774719
 20
-68.8091131011
 11
-31.2668774719
 21
-68.8091131011
  0
LINE
  5
286
100
AcDbEntity
  8
RACCORDO
100
AcDbLine
 62
250
  6
CONTINUOUS
 10
-136.2339598342
 20
-68.7344847558
 11
-31.5668774719
 21
-68.7335993726
  0
LINE
  5
287
100
AcDbEntity
  8
RACCORDO
100
AcDbLine
 62
7
  6
CONTINUOUS
 10
-31.5668774719
 20
-68.3537111269
 11
-25.7668774719
 21
-68.3537111269
  0
LINE
  5
288
100
AcDbEntity
  8
DRAFT
100
AcDbLine
 62
7
  6
CONTINUOUS
 10
-19.6668774719
 20
-67.3537111269
 11
-18.1668774719
 21
-67.3537111269
  0
LINE
  5
289
100
AcDbEntity
  8
DRAFT
100
AcDbLine
 62
7
  6
CONTINUOUS
 10
-140.6668774719
 20
-67.3537111269
 11
-142.1668774719
 21
-67.3537111269
  0
LINE
  5
28A
100
AcDbEntity
  8
RACCORDO
100
AcDbLine
 62
250
  6
CONTINUOUS
 10
-135.5431039365
 20
-67.2338278298
 11
-24.7906510074
 21
-67.2338278298
  0
LINE
  5
28B
100
AcDbEntity
  8
ASSI
100
AcDbLine
 62
7
  6
CONTINUOUS
 10
-113.4370145082
 20
-69.1699975481
 11
-114.5323589363
 21
-69.1703004805
  0
LINE
  5
28C
100
AcDbEntity
  8
ASSI
100
AcDbLine
 62
7
  6
CONTINUOUS
 10
-79.4370145082
 20
-69.1699975481
 11
-80.5323589363
 21
-69.1703004805
  0
LINE
  5
28D
100
AcDbEntity
  8
ASSI
100
AcDbLine
 62
7
  6
CONTINUOUS
 10
-45.4370145082
 20
-69.1699975481
 11
-46.5323589363
 21
-69.1703004805
  0
LINE
  5
28E
100
AcDbEntity
  8
ASSI
100
AcDbLine
 62
7
  6
CONTINUOUS
 10
-114.8967404357
 20
-68.7694018488
 11
-113.8013960075
 21
-68.7690989164
  0
LINE
  5
28F
100
AcDbEntity
  8
ASSI
100
AcDbLine
 62
7
  6
CONTINUOUS
 10
-80.8967404357
 20
-68.7694018488
 11
-79.8013960075
 21
-68.7690989164
  0
LINE
  5
290
100
AcDbEntity
  8
ASSI
100
AcDbLine
 62
7
  6
CONTINUOUS
 10
-46.8967404357
 20
-68.7694018488
 11
-45.8013960075
 21
-68.7690989164
  0
LINE
  5
291
100
AcDbEntity
  8
RACCORDO
100
AcDbLine
 62
7
  6
CONTINUOUS
 10
-140.6142447677
 20
-67.4063438311
 11
-142.1668774719
 21
-67.4041173602
  0
LINE
  5
292
100
AcDbEntity
  8
ASSI
100
AcDbLine
 62
7
  6
CONTINUOUS
 10
-114.5323589363
 20
-69.1703004805
 11
-115.6225668736
 21
-69.1687876501
  0
LINE
  5
293
100
AcDbEntity
  8
ASSI
100
AcDbLine
 62
7
  6
CONTINUOUS
 10
-80.5323589363
 20
-69.1703004805
 11
-81.6225668736
 21
-69.1687876501
  0
LINE
  5
294
100
AcDbEntity
  8
ASSI
100
AcDbLine
 62
7
  6
CONTINUOUS
 10
-46.5323589363
 20
-69.1703004805
 11
-47.6225668736
 21
-69.1687876501
  0
LINE
  5
295
100
AcDbEntity
  8
ASSI
100
AcDbLine
 62
7
  6
CONTINUOUS
 10
-113.8013960075
 20
-68.7690989164
 11
-112.7111880702
 21
-68.7706117467
  0
LINE
  5
296
100
AcDbEntity
  8
ASSI
100
AcDbLine
 62
7
  6
CONTINUOUS
 10
-79.8013960075
 20
-68.7690989164
 11
-78.7111880702
 21
-68.7706117467
  0
LINE
  5
297
100
AcDbEntity
  8
ASSI
100
AcDbLine
 62
7
  6
CONTINUOUS
 10
-45.8013960075
 20
-68.7690989164
 11
-44.7111880702
 21
-68.7706117467
  0
LINE
  5
298
100
AcDbEntity
  8
ASSI
100
AcDbLine
 62
7
  6
CONTINUOUS
 10
-115.6225668736
 20
-69.1687876501
 11
-116.7003251723
 21
-69.1654712388
  0
LINE
  5
299
100
AcDbEntity
  8
ASSI
100
AcDbLine
 62
7
  6
CONTINUOUS
 10
-81.6225668736
 20
-69.1687876501
 11
-82.7003251723
 21
-69.1654712388
  0
LINE
  5
29A
100
AcDbEntity
  8
ASSI
100
AcDbLine
 62
7
  6
CONTINUOUS
 10
-47.6225668736
 20
-69.1687876501
 11
-48.7003251723
 21
-69.1654712388
  0
LINE
  5
29B
100
AcDbEntity
  8
ASSI
100
AcDbLine
 62
7
  6
CONTINUOUS
 10
-112.7111880702
 20
-68.7706117467
 11
-111.6334297715
 21
-68.7739281581
  0
LINE
  5
29C
100
AcDbEntity
  8
ASSI
100
AcDbLine
 62
7
  6
CONTINUOUS
 10
-78.7111880702
 20
-68.7706117467
 11
-77.6334297715
 21
-68.7739281581
  0
LINE
  5
29D
100
AcDbEntity
  8
ASSI
100
AcDbLine
 62
7
  6
CONTINUOUS
 10
-44.7111880702
 20
-68.7706117467
 11
-43.6334297715
 21
-68.7739281581
  0
LINE
  5
29E
100
AcDbEntity
  8
RACCORDO
100
AcDbLine
 62
250
  6
CONTINUOUS
 10
-23.536710635
 20
-68.7364619563
 11
-25.7668774719
 21
-68.7335993726
  0
LINE
  5
29F
100
AcDbEntity
  8
ASSI
100
AcDbLine
 62
7
  6
CONTINUOUS
 10
-116.7003251723
 20
-69.1654712388
 11
-117.7551401763
 21
-69.1603818901
  0
LINE
  5
2A0
100
AcDbEntity
  8
ASSI
100
AcDbLine
 62
7
  6
CONTINUOUS
 10
-82.7003251723
 20
-69.1654712388
 11
-83.7551401763
 21
-69.1603818901
  0
LINE
  5
2A1
100
AcDbEntity
  8
ASSI
100
AcDbLine
 62
7
  6
CONTINUOUS
 10
-48.7003251723
 20
-69.1654712388
 11
-49.7551401763
 21
-69.1603818901
  0
LINE
  5
2A2
100
AcDbEntity
  8
ASSI
100
AcDbLine
 62
7
  6
CONTINUOUS
 10
-111.6334297715
 20
-68.7739281581
 11
-110.5786147676
 21
-68.7790175068
  0
LINE
  5
2A3
100
AcDbEntity
  8
ASSI
100
AcDbLine
 62
7
  6
CONTINUOUS
 10
-77.6334297715
 20
-68.7739281581
 11
-76.5786147676
 21
-68.7790175068
  0
LINE
  5
2A4
100
AcDbEntity
  8
ASSI
100
AcDbLine
 62
7
  6
CONTINUOUS
 10
-43.6334297715
 20
-68.7739281581
 11
-42.5786147676
 21
-68.7790175068
  0
LINE
  5
2A5
100
AcDbEntity
  8
ASSI
100
AcDbLine
 62
7
  6
CONTINUOUS
 10
-117.7551401763
 20
-69.1603818901
 11
-118.7774593176
 21
-69.1535656939
  0
LINE
  5
2A6
100
AcDbEntity
  8
ASSI
100
AcDbLine
 62
7
  6
CONTINUOUS
 10
-83.7551401763
 20
-69.1603818901
 11
-84.7774593176
 21
-69.1535656939
  0
LINE
  5
2A7
100
AcDbEntity
  8
ASSI
100
AcDbLine
 62
7
  6
CONTINUOUS
 10
-110.5786147676
 20
-68.7790175068
 11
-109.5562956263
 21
-68.785833703
  0
LINE
  5
2A8
100
AcDbEntity
  8
ASSI
100
AcDbLine
 62
7
  6
CONTINUOUS
 10
-49.7551401763
 20
-69.1603818901
 11
-50.7774593176
 21
-69.1535656939
  0
LINE
  5
2A9
100
AcDbEntity
  8
ASSI
100
AcDbLine
 62
7
  6
CONTINUOUS
 10
-76.5786147676
 20
-68.7790175068
 11
-75.5562956263
 21
-68.785833703
  0
LINE
  5
2AA
100
AcDbEntity
  8
ASSI
100
AcDbLine
 62
7
  6
CONTINUOUS
 10
-42.5786147676
 20
-68.7790175068
 11
-41.5562956263
 21
-68.785833703
  0
LINE
  5
2AB
100
AcDbEntity
  8
RACCORDO
100
AcDbLine
 62
250
  6
CONTINUOUS
 10
-22.1310241339
 20
-68.7461207406
 11
-23.536710635
 21
-68.7364619563
  0
LINE
  5
2AC
100
AcDbEntity
  8
ASSI
100
AcDbLine
 62
7
  6
CONTINUOUS
 10
-118.7774593176
 20
-69.1535656939
 11
-119.7580243157
 21
-69.1450843788
  0
LINE
  5
2AD
100
AcDbEntity
  8
ASSI
100
AcDbLine
 62
7
  6
CONTINUOUS
 10
-84.7774593176
 20
-69.1535656939
 11
-85.7580243157
 21
-69.1450843788
  0
LINE
  5
2AE
100
AcDbEntity
  8
ASSI
100
AcDbLine
 62
7
  6
CONTINUOUS
 10
-109.5562956263
 20
-68.785833703
 11
-108.5757306281
 21
-68.7943150181
  0
LINE
  5
2AF
100
AcDbEntity
  8
ASSI
100
AcDbLine
 62
7
  6
CONTINUOUS
 10
-50.7774593176
 20
-69.1535656939
 11
-51.7580243157
 21
-69.1450843788
  0
LINE
  5
2B0
100
AcDbEntity
  8
ASSI
100
AcDbLine
 62
7
  6
CONTINUOUS
 10
-75.5562956263
 20
-68.785833703
 11
-74.5757306281
 21
-68.7943150181
  0
LINE
  5
2B1
100
AcDbEntity
  8
ASSI
100
AcDbLine
 62
7
  6
CONTINUOUS
 10
-41.5562956263
 20
-68.785833703
 11
-40.5757306281
 21
-68.7943150181
  0
LINE
  5
2B2
100
AcDbEntity
  8
ASSI
100
AcDbLine
 62
7
  6
CONTINUOUS
 10
-119.7580243157
 20
-69.1450843788
 11
-120.6879550222
 21
-69.1350147528
  0
LINE
  5
2B3
100
AcDbEntity
  8
ASSI
100
AcDbLine
 62
7
  6
CONTINUOUS
 10
-85.7580243157
 20
-69.1450843788
 11
-86.6879550222
 21
-69.1350147528
  0
LINE
  5
2B4
100
AcDbEntity
  8
ASSI
100
AcDbLine
 62
7
  6
CONTINUOUS
 10
-108.5757306281
 20
-68.7943150181
 11
-107.6457999216
 21
-68.8043846441
  0
LINE
  5
2B5
100
AcDbEntity
  8
ASSI
100
AcDbLine
 62
7
  6
CONTINUOUS
 10
-51.7580243157
 20
-69.1450843788
 11
-52.6879550222
 21
-69.1350147528
  0
LINE
  5
2B6
100
AcDbEntity
  8
ASSI
100
AcDbLine
 62
7
  6
CONTINUOUS
 10
-74.5757306281
 20
-68.7943150181
 11
-73.6457999216
 21
-68.8043846441
  0
LINE
  5
2B7
100
AcDbEntity
  8
ASSI
100
AcDbLine
 62
7
  6
CONTINUOUS
 10
-40.5757306281
 20
-68.7943150181
 11
-39.6457999216
 21
-68.8043846441
  0
LINE
  5
2B8
100
AcDbEntity
  8
RACCORDO
100
AcDbLine
 62
250
  6
CONTINUOUS
 10
-20.5158948169
 20
-68.7646060476
 11
-22.1310241339
 21
-68.7461207406
  0
LINE
  5
2B9
100
AcDbEntity
  8
ASSI
100
AcDbLine
 62
7
  6
CONTINUOUS
 10
-120.6879550222
 20
-69.1350147528
 11
-121.5588298406
 21
-69.1234480081
  0
LINE
  5
2BA
100
AcDbEntity
  8
ASSI
100
AcDbLine
 62
7
  6
CONTINUOUS
 10
-86.6879550222
 20
-69.1350147528
 11
-87.5588298406
 21
-69.1234480081
  0
LINE
  5
2BB
100
AcDbEntity
  8
ASSI
100
AcDbLine
 62
7
  6
CONTINUOUS
 10
-107.6457999216
 20
-68.8043846441
 11
-106.7749251032
 21
-68.8159513887
  0
LINE
  5
2BC
100
AcDbEntity
  8
ASSI
100
AcDbLine
 62
7
  6
CONTINUOUS
 10
-52.6879550222
 20
-69.1350147528
 11
-53.5588298406
 21
-69.1234480081
  0
LINE
  5
2BD
100
AcDbEntity
  8
ASSI
100
AcDbLine
 62
7
  6
CONTINUOUS
 10
-73.6457999216
 20
-68.8043846441
 11
-72.7749251032
 21
-68.8159513887
  0
LINE
  5
2BE
100
AcDbEntity
  8
ASSI
100
AcDbLine
 62
7
  6
CONTINUOUS
 10
-39.6457999216
 20
-68.8043846441
 11
-38.7749251032
 21
-68.8159513887
  0
LINE
  5
2BF
100
AcDbEntity
  8
RACCORDO
100
AcDbLine
 62
250
  6
CONTINUOUS
 10
-19.7564910019
 20
-68.7755316914
 11
-20.5158948169
 21
-68.7646060476
  0
LINE
  5
2C0
100
AcDbEntity
  8
RACCORDO
100
AcDbLine
 62
250
  6
CONTINUOUS
 10
-19.2082205416
 20
-68.784090255
 11
-19.7564910019
 21
-68.7755316914
  0
LINE
  5
2C1
100
AcDbEntity
  8
RACCORDO
100
AcDbLine
 62
250
  6
CONTINUOUS
 10
-18.9409646197
 20
-68.7884190366
 11
-19.2082205416
 21
-68.784090255
  0
LINE
  5
2C2
100
AcDbEntity
  8
RACCORDO
100
AcDbLine
 62
250
  6
CONTINUOUS
 10
-18.7653509739
 20
-68.7913073001
 11
-18.9409646197
 21
-68.7884190366
  0
LINE
  5
2C3
100
AcDbEntity
  8
RACCORDO
100
AcDbLine
 62
250
  6
CONTINUOUS
 10
-18.5917882486
 20
-68.7941881134
 11
-18.7653509739
 21
-68.7913073001
  0
LINE
  5
2C4
100
AcDbEntity
  8
RACCORDO
100
AcDbLine
 62
250
  6
CONTINUOUS
 10
-18.1668774719
 20
-68.8013167463
 11
-18.5917882486
 21
-68.7941881134
  0
LINE
  5
2C5
100
AcDbEntity
  8
ASSI
100
AcDbLine
 62
7
  6
CONTINUOUS
 10
-121.5588298406
 20
-69.1234480081
 11
-122.3627619937
 21
-69.110488895
  0
LINE
  5
2C6
100
AcDbEntity
  8
ASSI
100
AcDbLine
 62
7
  6
CONTINUOUS
 10
-106.7749251032
 20
-68.8159513887
 11
-105.9709929502
 21
-68.8289105019
  0
LINE
  5
2C7
100
AcDbEntity
  8
ASSI
100
AcDbLine
 62
7
  6
CONTINUOUS
 10
-87.5588298406
 20
-69.1234480081
 11
-88.3627619937
 21
-69.110488895
  0
LINE
  5
2C8
100
AcDbEntity
  8
ASSI
100
AcDbLine
 62
7
  6
CONTINUOUS
 10
-72.7749251032
 20
-68.8159513887
 11
-71.9709929502
 21
-68.8289105019
  0
LINE
  5
2C9
100
AcDbEntity
  8
ASSI
100
AcDbLine
 62
7
  6
CONTINUOUS
 10
-53.5588298406
 20
-69.1234480081
 11
-54.3627619937
 21
-69.110488895
  0
LWPOLYLINE
  5
2CA
100
AcDbEntity
  8
RACCORDO
100
AcDbPolyline
 62
7
  6
CONTINUOUS
 90
16
 70
0
 10
-142.1668774719
 20
-67.4041173602
 10
-142.2934643675
 20
-67.4019364389
 10
-142.4188932463
 20
-67.3958783635
 10
-142.5430494339
 20
-67.386044421
 10
-142.6658124098
 20
-67.3725395778
 10
-142.7870914669
 20
-67.3554691821
 10
-142.9068252303
 20
-67.3349350969
 10
-143.0247460555
 20
-67.3110821491
 10
-143.1409468947
 20
-67.283989602
 10
-143.2559036773
 20
-67.2536101579
 10
-143.3695611915
 20
-67.219994498
 10
-143.4817995413
 20
-67.1832142352
 10
-143.5929772523
 20
-67.1431676869
 10
-143.7031444691
 20
-67.099823725
 10
-143.8120574049
 20
-67.0532653939
 10
-143.9196218525
 20
-67.0035272107
  0
LINE
  5
2CB
100
AcDbEntity
  8
ASSI
100
AcDbLine
 62
7
  6
CONTINUOUS
 10
-38.7749251032
 20
-68.8159513887
 11
-37.9709929502
 21
-68.8289105019
  0
LINE
  5
2CC
100
AcDbEntity
  8
ASSI
100
AcDbLine
 62
7
  6
CONTINUOUS
 10
-122.3627619937
 20
-69.110488895
 11
-123.0924709473
 21
-69.096254773
  0
LINE
  5
2CD
100
AcDbEntity
  8
ASSI
100
AcDbLine
 62
7
  6
CONTINUOUS
 10
-105.9709929502
 20
-68.8289105019
 11
-105.2412839965
 21
-68.8431446239
  0
LINE
  5
2CE
100
AcDbEntity
  8
ASSI
100
AcDbLine
 62
7
  6
CONTINUOUS
 10
-88.3627619937
 20
-69.110488895
 11
-89.0924709473
 21
-69.096254773
  0
LINE
  5
2CF
100
AcDbEntity
  8
ASSI
100
AcDbLine
 62
7
  6
CONTINUOUS
 10
-71.9709929502
 20
-68.8289105019
 11
-71.2412839965
 21
-68.8431446239
  0
LINE
  5
2D0
100
AcDbEntity
  8
ASSI
100
AcDbLine
 62
7
  6
CONTINUOUS
 10
-54.3627619937
 20
-69.110488895
 11
-55.0924709473
 21
-69.096254773
  0
LINE
  5
2D1
100
AcDbEntity
  8
ASSI
100
AcDbLine
 62
7
  6
CONTINUOUS
 10
-37.9709929502
 20
-68.8289105019
 11
-37.2412839965
 21
-68.8431446239
  0
LINE
  5
2D2
100
AcDbEntity
  8
ASSI
100
AcDbLine
 62
7
  6
CONTINUOUS
 10
-123.0924709473
 20
-69.096254773
 11
-123.5345009205
 21
-69.0861186713
  0
LINE
  5
2D3
100
AcDbEntity
  8
ASSI
100
AcDbLine
 62
7
  6
CONTINUOUS
 10
-105.2412839965
 20
-68.8431446239
 11
-104.7992540233
 21
-68.8532807256
  0
LINE
  5
2D4
100
AcDbEntity
  8
ASSI
100
AcDbLine
 62
7
  6
CONTINUOUS
 10
-89.0924709473
 20
-69.096254773
 11
-89.5345009205
 21
-69.0861186713
  0
LINE
  5
2D5
100
AcDbEntity
  8
ASSI
100
AcDbLine
 62
7
  6
CONTINUOUS
 10
-71.2412839965
 20
-68.8431446239
 11
-70.7992540233
 21
-68.8532807256
  0
LINE
  5
2D6
100
AcDbEntity
  8
ASSI
100
AcDbLine
 62
7
  6
CONTINUOUS
 10
-55.0924709473
 20
-69.096254773
 11
-55.5345009205
 21
-69.0861186713
  0
LINE
  5
2D7
100
AcDbEntity
  8
ASSI
100
AcDbLine
 62
7
  6
CONTINUOUS
 10
-37.2412839965
 20
-68.8431446239
 11
-36.7992540233
 21
-68.8532807256
  0
LINE
  5
2D8
100
AcDbEntity
  8
ASSI
100
AcDbLine
 62
7
  6
CONTINUOUS
 10
-123.5345009205
 20
-69.0861186713
 11
-123.9387696961
 21
-69.0755132808
  0
LINE
  5
2D9
100
AcDbEntity
  8
ASSI
100
AcDbLine
 62
7
  6
CONTINUOUS
 10
-104.7992540233
 20
-68.8532807256
 11
-104.3949852477
 21
-68.863886116
  0
LINE
  5
2DA
100
AcDbEntity
  8
ASSI
100
AcDbLine
 62
7
  6
CONTINUOUS
 10
-89.5345009205
 20
-69.0861186713
 11
-89.9387696961
 21
-69.0755132808
  0
LINE
  5
2DB
100
AcDbEntity
  8
ASSI
100
AcDbLine
 62
7
  6
CONTINUOUS
 10
-70.7992540233
 20
-68.8532807256
 11
-70.3949852477
 21
-68.863886116
  0
LINE
  5
2DC
100
AcDbEntity
  8
ASSI
100
AcDbLine
 62
7
  6
CONTINUOUS
 10
-55.5345009205
 20
-69.0861186713
 11
-55.9387696961
 21
-69.0755132808
  0
LINE
  5
2DD
100
AcDbEntity
  8
ASSI
100
AcDbLine
 62
7
  6
CONTINUOUS
 10
-36.7992540233
 20
-68.8532807256
 11
-36.3949852477
 21
-68.863886116
  0
LINE
  5
2DE
100
AcDbEntity
  8
ASSI
100
AcDbLine
 62
7
  6
CONTINUOUS
 10
-123.9387696961
 20
-69.0755132808
 11
-124.3035178505
 21
-69.0644875078
  0
LINE
  5
2DF
100
AcDbEntity
  8
ASSI
100
AcDbLine
 62
7
  6
CONTINUOUS
 10
-104.3949852477
 20
-68.863886116
 11
-104.0302370934
 21
-68.8749118891
  0
LINE
  5
2E0
100
AcDbEntity
  8
ASSI
100
AcDbLine
 62
7
  6
CONTINUOUS
 10
-89.9387696961
 20
-69.0755132808
 11
-90.3035178505
 21
-69.0644875078
  0
LINE
  5
2E1
100
AcDbEntity
  8
ASSI
100
AcDbLine
 62
7
  6
CONTINUOUS
 10
-70.3949852477
 20
-68.863886116
 11
-70.0302370934
 21
-68.8749118891
  0
LINE
  5
2E2
100
AcDbEntity
  8
ASSI
100
AcDbLine
 62
7
  6
CONTINUOUS
 10
-55.9387696961
 20
-69.0755132808
 11
-56.3035178505
 21
-69.0644875078
  0
LINE
  5
2E3
100
AcDbEntity
  8
ASSI
100
AcDbLine
 62
7
  6
CONTINUOUS
 10
-36.3949852477
 20
-68.863886116
 11
-36.0302370934
 21
-68.8749118891
  0
LINE
  5
2E4
100
AcDbEntity
  8
ASSI
100
AcDbLine
 62
7
  6
CONTINUOUS
 10
-124.3035178505
 20
-69.0644875078
 11
-124.6276454185
 21
-69.0530746024
  0
LINE
  5
2E5
100
AcDbEntity
  8
ASSI
100
AcDbLine
 62
7
  6
CONTINUOUS
 10
-104.0302370934
 20
-68.8749118891
 11
-103.7061095253
 21
-68.8863247945
  0
LINE
  5
2E6
100
AcDbEntity
  8
ASSI
100
AcDbLine
 62
7
  6
CONTINUOUS
 10
-90.3035178505
 20
-69.0644875078
 11
-90.6276454185
 21
-69.0530746024
  0
LINE
  5
2E7
100
AcDbEntity
  8
ASSI
100
AcDbLine
 62
7
  6
CONTINUOUS
 10
-70.0302370934
 20
-68.8749118891
 11
-69.7061095253
 21
-68.8863247945
  0
LINE
  5
2E8
100
AcDbEntity
  8
ASSI
100
AcDbLine
 62
7
  6
CONTINUOUS
 10
-56.3035178505
 20
-69.0644875078
 11
-56.6276454185
 21
-69.0530746024
  0
LINE
  5
2E9
100
AcDbEntity
  8
ASSI
100
AcDbLine
 62
7
  6
CONTINUOUS
 10
-36.0302370934
 20
-68.8749118891
 11
-35.7061095253
 21
-68.8863247945
  0
LWPOLYLINE
  5
2EA
100
AcDbEntity
  8
ASSI
100
AcDbPolyline
 62
7
  6
CONTINUOUS
 90
14
 70
0
 10
-124.6276454185
 20
-69.0530746024
 10
-124.9096052876
 20
-69.04132561
 10
-125.0343868871
 20
-69.0353431133
 10
-125.1482001596
 20
-69.0292943641
 10
-125.2510781155
 20
-69.023179562
 10
-125.3427105076
 20
-69.0170171472
 10
-125.4230633887
 20
-69.010806976
 10
-125.492170706
 20
-69.0045491921
 10
-125.5498240535
 20
-68.998262667
 10
-125.5959888552
 20
-68.991947314
 10
-125.6306996871
 20
-68.9856032198
 10
-125.6538518725
 20
-68.9792495162
 10
-125.6654105191
 20
-68.9728861742
 10
-125.6668774719
 20
-68.9696996984
  0
LWPOLYLINE
  5
2EB
100
AcDbEntity
  8
ASSI
100
AcDbPolyline
 62
7
  6
CONTINUOUS
 90
14
 70
0
 10
-103.7061095253
 20
-68.8863247945
 10
-103.4241496562
 20
-68.8980737869
 10
-103.2993680567
 20
-68.9040562836
 10
-103.1855547843
 20
-68.9101050327
 10
-103.0826768283
 20
-68.9162198349
 10
-102.9910444362
 20
-68.9223822497
 10
-102.9106915551
 20
-68.9285924209
 10
-102.8415842379
 20
-68.9348502048
 10
-102.7839308903
 20
-68.9411367298
 10
-102.7377660887
 20
-68.9474520829
 10
-102.7030552567
 20
-68.9537961771
 10
-102.6799030713
 20
-68.9601498807
 10
-102.6683444248
 20
-68.9665132227
 10
-102.6668774719
 20
-68.9696996984
  0
LWPOLYLINE
  5
2EC
100
AcDbEntity
  8
ASSI
100
AcDbPolyline
 62
7
  6
CONTINUOUS
 90
14
 70
0
 10
-90.6276454185
 20
-69.0530746024
 10
-90.9096052876
 20
-69.04132561
 10
-91.0343868871
 20
-69.0353431133
 10
-91.1482001596
 20
-69.0292943641
 10
-91.2510781155
 20
-69.023179562
 10
-91.3427105076
 20
-69.0170171472
 10
-91.4230633887
 20
-69.010806976
 10
-91.492170706
 20
-69.0045491921
 10
-91.5498240535
 20
-68.998262667
 10
-91.5959888552
 20
-68.991947314
 10
-91.6306996871
 20
-68.9856032198
 10
-91.6538518725
 20
-68.9792495162
 10
-91.6654105191
 20
-68.9728861742
 10
-91.6668774719
 20
-68.9696996984
  0
LWPOLYLINE
  5
2ED
100
AcDbEntity
  8
ASSI
100
AcDbPolyline
 62
7
  6
CONTINUOUS
 90
14
 70
0
 10
-69.7061095253
 20
-68.8863247945
 10
-69.4241496562
 20
-68.8980737869
 10
-69.2993680567
 20
-68.9040562836
 10
-69.1855547843
 20
-68.9101050327
 10
-69.0826768283
 20
-68.9162198349
 10
-68.9910444362
 20
-68.9223822497
 10
-68.9106915551
 20
-68.9285924209
 10
-68.8415842379
 20
-68.9348502048
 10
-68.7839308903
 20
-68.9411367298
 10
-68.7377660887
 20
-68.9474520829
 10
-68.7030552567
 20
-68.9537961771
 10
-68.6799030713
 20
-68.9601498807
 10
-68.6683444248
 20
-68.9665132227
 10
-68.6668774719
 20
-68.9696996984
  0
LWPOLYLINE
  5
2EE
100
AcDbEntity
  8
ASSI
100
AcDbPolyline
 62
7
  6
CONTINUOUS
 90
14
 70
0
 10
-56.6276454185
 20
-69.0530746024
 10
-56.9096052876
 20
-69.04132561
 10
-57.0343868871
 20
-69.0353431133
 10
-57.1482001596
 20
-69.0292943641
 10
-57.2510781155
 20
-69.023179562
 10
-57.3427105076
 20
-69.0170171472
 10
-57.4230633887
 20
-69.010806976
 10
-57.492170706
 20
-69.0045491921
 10
-57.5498240535
 20
-68.998262667
 10
-57.5959888552
 20
-68.991947314
 10
-57.6306996871
 20
-68.9856032198
 10
-57.6538518725
 20
-68.9792495162
 10
-57.6654105191
 20
-68.9728861742
 10
-57.6668774719
 20
-68.9696996984
  0
LWPOLYLINE
  5
2EF
100
AcDbEntity
  8
ASSI
100
AcDbPolyline
 62
7
  6
CONTINUOUS
 90
14
 70
0
 10
-35.7061095253
 20
-68.8863247945
 10
-35.4241496562
 20
-68.8980737869
 10
-35.2993680567
 20
-68.9040562836
 10
-35.1855547843
 20
-68.9101050327
 10
-35.0826768283
 20
-68.9162198349
 10
-34.9910444362
 20
-68.9223822497
 10
-34.9106915551
 20
-68.9285924209
 10
-34.8415842379
 20
-68.9348502048
 10
-34.7839308903
 20
-68.9411367298
 10
-34.7377660887
 20
-68.9474520829
 10
-34.7030552567
 20
-68.9537961771
 10
-34.6799030713
 20
-68.9601498807
 10
-34.6683444248
 20
-68.9665132227
 10
-34.6668774719
 20
-68.9696996984
  0
LWPOLYLINE
  5
2F0
100
AcDbEntity
  8
RACCORDO
100
AcDbPolyline
 62
250
  6
CONTINUOUS
 90
31
 70
0
 10
-140.6117248435
 20
-64.7913353186
 10
-140.4567187083
 20
-64.9266903285
 10
-140.3011575563
 20
-65.0596524401
 10
-140.1450413876
 20
-65.1902216535
 10
-139.9884241912
 20
-65.3185741321
 10
-139.8312519781
 20
-65.4445337125
 10
-139.6733627812
 20
-65.5675719039
 10
-139.5147575345
 20
-65.6876915583
 10
-139.355435304
 20
-65.8048898238
 10
-139.1952313204
 20
-65.9186296543
 10
-139.0341455765
 20
-66.0289110569
 10
-138.8721780795
 20
-66.1357340244
 10
-138.709164081
 20
-66.23856149
 10
-138.5451035691
 20
-66.3373934587
 10
-138.3799965558
 20
-66.4322299253
 10
-138.2136783292
 20
-66.5225338071
 10
-138.0461488719
 20
-66.6083051037
 10
-137.8774082013
 20
-66.6895438155
 10
-137.7072916574
 20
-66.7657128602
 10
-137.5357992204
 20
-66.8368122274
 10
-137.3629309102
 20
-66.9028419276
 10
-137.1885221259
 20
-66.9632649096
 10
-137.0125728664
 20
-67.0180811485
 10
-136.8350831329
 20
-67.0672906692
 10
-136.6558883275
 20
-67.1103564951
 10
-136.4749883937
 20
-67.1472785995
 10
-136.2923833881
 20
-67.1780570091
 10
-136.1079088824
 20
-67.2021548266
 10
-135.9215100672
 20
-67.2193930864
 10
-135.7332417519
 20
-67.2299507541
 10
-135.5431039365
 20
-67.2338278298
  0
LINE
  5
2F1
100
AcDbEntity
  8
RACCORDO
100
AcDbLine
 62
7
  6
CONTINUOUS
 10
-140.6668774719
 20
-67.3537111269
 11
-140.6142447677
 21
-67.4063438311
  0
LINE
  5
2F2
100
AcDbEntity
  8
RACCORDO
100
AcDbLine
 62
7
  6
CONTINUOUS
 10
-146.1668774719
 20
-61.8537111269
 11
-146.2196944526
 21
-61.8008941462
  0
LWPOLYLINE
  5
2F3
100
AcDbEntity
  8
RACCORDO
100
AcDbPolyline
 62
250
  6
CONTINUOUS
 90
34
 70
0
 10
-143.6863459233
 20
-61.7985584985
 10
-143.8036831793
 20
-61.6733138865
 10
-143.9193388801
 20
-61.5476970174
 10
-144.0333130257
 20
-61.421707891
 10
-144.1457475785
 20
-61.2953954616
 10
-144.2565005761
 20
-61.168710775
 10
-144.3651461309
 20
-61.0415069683
 10
-144.4716814708
 20
-60.9137831882
 10
-144.5761093679
 20
-60.7855402879
 10
-144.6780122505
 20
-60.6566339642
 10
-144.7773901378
 20
-60.5270642204
 10
-144.8742430106
 20
-60.3968310532
 10
-144.9681532394
 20
-60.2657901493
 10
-145.0591208581
 20
-60.1339415012
 10
-145.1471458328
 20
-60.0012851164
 10
-145.2318104329
 20
-59.8676767043
 10
-145.313114703
 20
-59.7331162365
 10
-145.3910585986
 20
-59.5976037414
 10
-145.4652242559
 20
-59.4609950143
 10
-145.5356117176
 20
-59.3232899951
 10
-145.6022209412
 20
-59.1844887439
 10
-145.6646339346
 20
-59.0444472363
 10
-145.7228507159
 20
-58.9031653778
 10
-145.7768712672
 20
-58.7606432629
 10
-145.8262775424
 20
-58.6167371512
 10
-145.8710694953
 20
-58.4714470388
 10
-145.9112471722
 20
-58.3247729295
 10
-145.9463926654
 20
-58.1765710943
 10
-145.9765059237
 20
-58.0268410034
 10
-146.0015869983
 20
-57.8755831866
 10
-146.0212181361
 20
-57.7226555044
 10
-146.0352600859
 20
-57.5680105772
 10
-146.0438520988
 20
-57.4116957847
 10
-146.0469941749
 20
-57.2537111269
  0
LWPOLYLINE
  5
2F4
100
AcDbEntity
  8
0
100
AcDbPolyline
 62
7
  6
CONTINUOUS
 90
13
 70
0
 10
-147.7828660435
 20
169.6462888731
 10
-147.7860525192
 20
169.6448219203
 10
-147.7924158612
 20
169.6332632737
 10
-147.7987695649
 20
169.6101110883
 10
-147.8051136591
 20
169.5754002564
 10
-147.8114290121
 20
169.5292354548
 10
-147.8177155372
 20
169.4715821072
 10
-147.8239733211
 20
169.4024747899
 10
-147.8301834923
 20
169.3221219089
 10
-147.8363459071
 20
169.2304895167
 10
-147.8424607092
 20
169.1276115608
 10
-147.8485094583
 20
169.0137982884
 10
-147.8604083988
 20
168.7532997729
  0
LINE
  5
2F5
100
AcDbEntity
  8
RACCORDO
100
AcDbLine
 62
7
  6
CONTINUOUS
 10
-146.2196944526
 20
-61.8008941462
 11
-144.8691315084
 21
-61.7989439643
  0
LINE
  5
2F6
100
AcDbEntity
  8
DRAFT
100
AcDbLine
 62
250
  6
CONTINUOUS
 10
-140.6668774719
 20
-63.3537111269
 11
-140.6117248435
 21
-63.3537111269
  0
LINE
  5
2F7
100
AcDbEntity
  8
RACCORDO
100
AcDbLine
 62
250
  6
CONTINUOUS
 10
-14.1668774719
 20
-63.3537111269
 11
-14.1164713264
 21
-63.3537111269
  0
LINE
  5
2F8
100
AcDbEntity
  8
RACCORDO
100
AcDbLine
 62
250
  6
CONTINUOUS
 10
-12.7192718525
 20
-63.3537111269
 11
-12.1668774719
 21
-63.3537111269
  0
LINE
  5
2F9
100
AcDbEntity
  8
DRAFT
100
AcDbLine
 62
250
  6
CONTINUOUS
 10
-19.6668774719
 20
-63.3537111269
 11
-19.7220301003
 21
-63.3537111269
  0
LINE
  5
2FA
100
AcDbEntity
  8
RACCORDO
100
AcDbLine
 62
250
  6
CONTINUOUS
 10
-146.1668774719
 20
-63.3537111269
 11
-146.2173718497
 21
-63.3537111269
  0
LINE
  5
2FB
100
AcDbEntity
  8
RACCORDO
100
AcDbLine
 62
250
  6
CONTINUOUS
 10
-147.6144830914
 20
-63.3537111269
 11
-148.1668774719
 21
-63.3537111269
  0
LINE
  5
2FC
100
AcDbEntity
  8
DRAFT
100
AcDbLine
 62
7
  6
CONTINUOUS
 10
-146.1668774719
 20
-61.8537111269
 11
-142.1668774719
 21
-61.8537111269
  0
LINE
  5
2FD
100
AcDbEntity
  8
DRAFT
100
AcDbLine
 62
7
  6
CONTINUOUS
 10
-14.1668774719
 20
-61.8537111269
 11
-18.1668774719
 21
-61.8537111269
  0
LINE
  5
2FE
100
AcDbEntity
  8
RACCORDO
100
AcDbLine
 62
7
  6
CONTINUOUS
 10
-142.1668774719
 20
-61.7985584985
 11
-143.6863459233
 21
-61.7985584985
  0
LINE
  5
2FF
100
AcDbEntity
  8
RACCORDO
100
AcDbLine
 62
7
  6
CONTINUOUS
 10
-144.8691315084
 20
-61.7989439643
 11
-143.6862490709
 21
-61.7985584985
  0
LINE
  5
300
100
AcDbEntity
  8
RACCORDO
100
AcDbLine
 62
250
  6
CONTINUOUS
 10
-146.0469941749
 20
-57.2537111269
 11
-147.1668774719
 21
-57.2537111236
  0
LINE
  5
301
100
AcDbEntity
  8
RACCORDO
100
AcDbLine
 62
7
  6
CONTINUOUS
 10
-147.1668774719
 20
-57.2537111269
 11
-147.6170429267
 21
-57.2537111269
  0
LINE
  5
302
100
AcDbEntity
  8
ASSI
100
AcDbLine
 62
250
  6
CONTINUOUS
 10
-147.1668774719
 20
-56.9537111269
 11
-147.6222794462
 21
-56.9537111269
  0
LINE
  5
303
100
AcDbEntity
  8
RACCORDO
100
AcDbLine
 62
250
  6
CONTINUOUS
 10
-14.2867607689
 20
-56.7299375914
 11
-12.7869892262
 21
-56.7299375914
  0
LINE
  5
304
100
AcDbEntity
  8
RACCORDO
100
AcDbLine
 62
7
  6
CONTINUOUS
 10
-18.1668774719
 20
-61.7985584985
 11
-16.5322342064
 21
-61.7985680478
  0
LINE
  5
305
100
AcDbEntity
  8
RACCORDO
100
AcDbLine
 62
7
  6
CONTINUOUS
 10
-16.5322342064
 20
-61.7985680478
 11
-16.1605822244
 21
-61.7986372677
  0
LINE
  5
306
100
AcDbEntity
  8
RACCORDO
100
AcDbLine
 62
7
  6
CONTINUOUS
 10
-16.1605822244
 20
-61.7986372677
 11
-15.6599676871
 21
-61.7988664007
  0
LINE
  5
307
100
AcDbEntity
  8
RACCORDO
100
AcDbLine
 62
7
  6
CONTINUOUS
 10
-15.6599676871
 20
-61.7988664007
 11
-15.214699443
 21
-61.7992274065
  0
LINE
  5
308
100
AcDbEntity
  8
RACCORDO
100
AcDbLine
 62
7
  6
CONTINUOUS
 10
-15.214699443
 20
-61.7992274065
 11
-14.1142454195
 21
-61.8010790744
  0
LWPOLYLINE
  5
309
100
AcDbEntity
  8
ASSI
100
AcDbPolyline
 62
7
  6
CONTINUOUS
 90
12
 70
0
 10
-147.7828660435
 20
-39.3537111269
 10
-147.7860525192
 20
-39.352244174
 10
-147.7924158612
 20
-39.3406855275
 10
-147.7987695649
 20
-39.3175333421
 10
-147.8051136591
 20
-39.2828225101
 10
-147.8114290121
 20
-39.2366577085
 10
-147.8177155372
 20
-39.1790043609
 10
-147.8239733211
 20
-39.1098970437
 10
-147.8301834923
 20
-39.0295441626
 10
-147.8363459071
 20
-38.9379117705
 10
-147.8424607092
 20
-38.8350338145
 10
-147.8485094583
 20
-38.7212205421
  0
LINE
  5
30A
100
AcDbEntity
  8
0
100
AcDbLine
 62
7
  6
CONTINUOUS
 10
-78.6748711497
 20
186.0737809718
 11
-78.9803212641
 21
185.9802499368
  0
LINE
  5
30B
100
AcDbEntity
  8
ASSI
100
AcDbLine
 62
250
  6
CONTINUOUS
 10
-147.1668774719
 20
-51.7537111269
 11
-147.6222794462
 21
-51.7537111269
  0
LINE
  5
30C
100
AcDbEntity
  8
RACCORDO
100
AcDbLine
 62
7
  6
CONTINUOUS
 10
-147.1668774719
 20
-51.4537111269
 11
-147.6170429267
 21
-51.4537111269
  0
LINE
  5
30D
100
AcDbEntity
  8
0
100
AcDbLine
 62
7
  6
CONTINUOUS
 10
-131.7668774719
 20
-44.3537111269
 11
-131.5668774719
 21
-44.3537111269
  0
LWPOLYLINE
  5
30E
100
AcDbEntity
  8
RACCORDO
100
AcDbPolyline
 62
7
  6
CONTINUOUS
 90
16
 70
0
 10
-145.8168291408
 20
-65.1061731447
 10
-145.8667666225
 20
-64.9981389438
 10
-145.9135026683
 20
-64.8887327194
 10
-145.9570012261
 20
-64.7780493867
 10
-145.9971895169
 20
-64.6662996039
 10
-146.0340834406
 20
-64.5534673585
 10
-146.0677537429
 20
-64.4392987625
 10
-146.0981356769
 20
-64.3239204167
 10
-146.1251871858
 20
-64.2073874928
 10
-146.1489447157
 20
-64.0893228706
 10
-146.1693458007
 20
-63.9696363446
 10
-146.1862627182
 20
-63.8485993384
 10
-146.1996012437
 20
-63.7263754845
 10
-146.209280937
 20
-63.6030905868
 10
-146.2152288748
 20
-63.4788315604
 10
-146.2173718497
 20
-63.3537111269
  0
LWPOLYLINE
  5
30F
100
AcDbEntity
  8
0
100
AcDbPolyline
 62
7
  6
CONTINUOUS
 90
19
 70
0
 10
-77.6317168215
 20
187.0305572272
 10
-77.5952154297
 20
187.0515593512
 10
-77.559854852
 20
187.0749279978
 10
-77.5256350884
 20
187.1006631669
 10
-77.492163723
 20
187.1292470855
 10
-77.4598331718
 20
187.1601975266
 10
-77.4298206823
 20
187.1920678092
 10
-77.4024757991
 20
187.2244694677
 10
-77.3774489776
 20
187.2577909676
 10
-77.3548688322
 20
187.2917510241
 10
-77.33487664
 20
187.3260727364
 10
-77.3173311238
 20
187.3610330053
 10
-77.3019370668
 20
187.3971812488
 10
-77.2885701796
 20
187.4345015897
 10
-77.2773547514
 20
187.4730099053
 10
-77.2683684333
 20
187.5133032452
 10
-77.2616371089
 20
187.5555806259
 10
-77.2571348945
 20
187.5996430308
 10
-77.2548617902
 20
187.6454904601
  0
LWPOLYLINE
  5
310
100
AcDbEntity
  8
0
100
AcDbPolyline
 62
7
  6
CONTINUOUS
 90
14
 70
0
 10
-147.7828660435
 20
146.6462888731
 10
-147.7796795678
 20
146.647755826
 10
-147.7733162258
 20
146.6593144725
 10
-147.7669625221
 20
146.6824666579
 10
-147.7606184279
 20
146.7171774899
 10
-147.7543030749
 20
146.7633422915
 10
-147.7480165498
 20
146.8209956391
 10
-147.7417587659
 20
146.8901029563
 10
-147.7355485947
 20
146.9704558374
 10
-147.7293861799
 20
147.0620882295
 10
-147.7232713778
 20
147.1649661855
 10
-147.7172226287
 20
147.2787794579
 10
-147.7112401319
 20
147.4035610574
 10
-147.6994911396
 20
147.6855209266
  0
LWPOLYLINE
  5
311
100
AcDbEntity
  8
ASSI
100
AcDbPolyline
 62
7
  6
CONTINUOUS
 90
12
 70
0
 10
-147.7828660435
 20
-16.3537111269
 10
-147.7796795678
 20
-16.3551780797
 10
-147.7733162258
 20
-16.3667367263
 10
-147.7669625221
 20
-16.3898889117
 10
-147.7606184279
 20
-16.4245997436
 10
-147.7543030749
 20
-16.4707645452
 10
-147.7480165498
 20
-16.5284178928
 10
-147.7417587659
 20
-16.5975252101
 10
-147.7355485947
 20
-16.6778780911
 10
-147.7293861799
 20
-16.7695104833
 10
-147.7232713778
 20
-16.8723884392
 10
-147.7172226287
 20
-16.9862017116
  0
LINE
  5
312
100
AcDbEntity
  8
0
100
AcDbLine
 62
7
  6
CONTINUOUS
 10
-83.0728254719
 20
187.5199918731
 11
-82.5676934719
 21
187.9804728731
  0
LINE
  5
313
100
AcDbEntity
  8
0
100
AcDbLine
 62
7
  6
CONTINUOUS
 10
-82.5352134719
 20
188.3490888731
 11
-83.2515604719
 21
187.7422888731
  0
LWPOLYLINE
  5
314
100
AcDbEntity
  8
0
100
AcDbPolyline
 62
7
  6
CONTINUOUS
 90
13
 70
0
 10
-80.6459461711
 20
188.0095576349
 10
-80.6263762873
 20
188.0257738263
 10
-80.6048282906
 20
188.0411253795
 10
-80.5813021812
 20
188.0556122945
 10
-80.5557966743
 20
188.0693661803
 10
-80.5283130547
 20
188.0822554279
 10
-80.498855176
 20
188.0938852102
 10
-80.4672864972
 20
188.1042814081
 10
-80.4337435594
 20
188.1134181407
 10
-80.3986398402
 20
188.1208229385
 10
-80.3621131655
 20
188.1263383118
 10
-80.3240257094
 20
188.1301217503
 10
-80.2843774719
 20
188.132173254
  0
LINE
  5
315
100
AcDbEntity
  8
0
100
AcDbLine
 62
7
  6
CONTINUOUS
 10
-68.9707844034
 20
-28.9537111269
 11
-70.0968094054
 21
-28.9537111269
  0
LINE
  5
316
100
AcDbEntity
  8
0
100
AcDbLine
 62
7
  6
CONTINUOUS
 10
-90.2369455385
 20
-28.9537111269
 11
-91.3629705405
 21
-28.9537111269
  0
LINE
  5
317
100
AcDbEntity
  8
0
100
AcDbLine
 62
7
  6
CONTINUOUS
 10
-91.3629705405
 20
-26.7537111269
 11
-90.2369455385
 21
-26.7537111269
  0
LINE
  5
318
100
AcDbEntity
  8
0
100
AcDbLine
 62
7
  6
CONTINUOUS
 10
-70.0968094054
 20
-26.7537111269
 11
-68.9707844034
 21
-26.7537111269
  0
LWPOLYLINE
  5
319
100
AcDbEntity
  8
0
100
AcDbPolyline
 62
7
  6
CONTINUOUS
 90
34
 70
0
 10
-77.6325102346
 20
185.8262436027
 10
-77.6610155962
 20
185.8005943468
 10
-77.6903926585
 20
185.777223402
 10
-77.7206414213
 20
185.7561307681
 10
-77.7515916802
 20
185.7374024998
 10
-77.7834136396
 20
185.7209525426
 10
-77.8166179132
 20
185.7065227326
 10
-77.8511655468
 20
185.6939763712
 10
-77.8870954946
 20
185.6834501571
 10
-77.9250352319
 20
185.6750960226
 10
-77.96535472
 20
185.6689270904
 10
-78.0076839978
 20
185.6649302379
 10
-78.0515406574
 20
185.6632180297
 10
-78.0978600683
 20
185.6638949302
 10
-78.145706861
 20
185.666856475
 10
-78.1917925198
 20
185.6719018357
 10
-78.2352460593
 20
185.6790702072
 10
-78.276938465
 20
185.6883223945
 10
-78.3161941768
 20
185.6993399842
 10
-78.3526887519
 20
185.7121132941
 10
-78.3867466331
 20
185.7266520063
 10
-78.4186655898
 20
185.7426667538
 10
-78.4483491208
 20
185.7600130303
 10
-78.4758937272
 20
185.778835342
 10
-78.5018866815
 20
185.7992778407
 10
-78.5264252388
 20
185.8212341972
 10
-78.5494121441
 20
185.8448107406
 10
-78.5711429048
 20
185.8704706106
 10
-78.5917481826
 20
185.8981950384
 10
-78.6110973159
 20
185.9280027927
 10
-78.6290938269
 20
185.9604133186
 10
-78.6457055567
 20
185.9955997647
 10
-78.6609646642
 20
186.0333889824
 10
-78.6748711497
 20
186.0737809718
  0
LINE
  5
31A
100
AcDbEntity
  8
DRAFT
100
AcDbLine
 62
7
  6
CONTINUOUS
 10
-146.6668774719
 20
9.3462888731
 11
-146.8029779056
 21
9.4823893068
  0
LINE
  5
31B
100
AcDbEntity
  8
ASSI
100
AcDbLine
 62
7
  6
CONTINUOUS
 10
-147.8485094583
 20
-38.7212205421
 11
-147.8604083988
 21
-38.4607220266
  0
LINE
  5
31C
100
AcDbEntity
  8
ASSI
100
AcDbLine
 62
7
  6
CONTINUOUS
 10
-147.7172226287
 20
-16.9862017116
 11
-147.7053236882
 21
-17.2467002271
  0
LWPOLYLINE
  5
31D
100
AcDbEntity
  8
RACCORDO
100
AcDbPolyline
 62
250
  6
CONTINUOUS
 90
28
 70
0
 10
-147.6144830914
 20
-63.3537111269
 10
-147.6097458977
 20
-63.4694375942
 10
-147.5997774252
 20
-63.5822778235
 10
-147.5845975603
 20
-63.6921166188
 10
-147.5642145494
 20
-63.7988908447
 10
-147.5386505193
 20
-63.9024309723
 10
-147.5079640518
 20
-64.0024629412
 10
-147.4721907681
 20
-64.0988239764
 10
-147.431363203
 20
-64.1914407026
 10
-147.3855726765
 20
-64.2801764579
 10
-147.334876978
 20
-64.3648719134
 10
-147.2793237946
 20
-64.4454471051
 10
-147.2190231552
 20
-64.5218896174
 10
-147.1540514626
 20
-64.5940895327
 10
-147.0844768815
 20
-64.6619168082
 10
-147.0104256414
 20
-64.7253352202
 10
-146.9319905232
 20
-64.7842528357
 10
-146.8492650465
 20
-64.8385242031
 10
-146.7624014896
 20
-64.8880399476
 10
-146.6715211666
 20
-64.9326489983
 10
-146.5767360953
 20
-64.9722724829
 10
-146.4782068469
 20
-65.0069177941
 10
-146.376080575
 20
-65.0364602935
 10
-146.2704931216
 20
-65.0608097216
 10
-146.1616066781
 20
-65.0800347321
 10
-146.0495872063
 20
-65.094094951
 10
-145.9346018599
 20
-65.1028381366
 10
-145.8168290705
 20
-65.1061732846
  0
LINE
  5
31E
100
AcDbEntity
  8
ASSI
100
AcDbLine
 62
7
  6
CONTINUOUS
 10
-147.8604083988
 20
-38.4607220266
 11
-147.8719893477
 21
-38.157678308
  0
LINE
  5
31F
100
AcDbEntity
  8
ASSI
100
AcDbLine
 62
7
  6
CONTINUOUS
 10
-147.7053236882
 20
-17.2467002271
 11
-147.6937427393
 21
-17.5497439457
  0
LINE
  5
320
100
AcDbEntity
  8
ASSI
100
AcDbLine
 62
7
  6
CONTINUOUS
 10
-147.8719893477
 20
-38.157678308
 11
-147.8832173805
 21
-37.8130032704
  0
LINE
  5
321
100
AcDbEntity
  8
ASSI
100
AcDbLine
 62
7
  6
CONTINUOUS
 10
-147.6937427393
 20
-17.5497439457
 11
-147.6825147065
 21
-17.8944189833
  0
LINE
  5
322
100
AcDbEntity
  8
ASSI
100
AcDbLine
 62
7
  6
CONTINUOUS
 10
-147.8832173805
 20
-37.8130032704
 11
-147.8940408938
 21
-37.4281819993
  0
LINE
  5
323
100
AcDbEntity
  8
ASSI
100
AcDbLine
 62
7
  6
CONTINUOUS
 10
-147.6825147065
 20
-17.8944189833
 11
-147.6716911932
 21
-18.2792402544
  0
LINE
  5
324
100
AcDbEntity
  8
ASSI
100
AcDbLine
 62
7
  6
CONTINUOUS
 10
-147.8940408938
 20
-37.4281819993
 11
-147.9044116399
 21
-37.0050326249
  0
LINE
  5
325
100
AcDbEntity
  8
ASSI
100
AcDbLine
 62
7
  6
CONTINUOUS
 10
-147.6716911932
 20
-18.2792402544
 11
-147.6613204471
 21
-18.7023896288
  0
LINE
  5
326
100
AcDbEntity
  8
ASSI
100
AcDbLine
 62
7
  6
CONTINUOUS
 10
-147.9044116399
 20
-37.0050326249
 11
-147.9190429182
 21
-36.3015861141
  0
LWPOLYLINE
  5
327
100
AcDbEntity
  8
ASSI
100
AcDbPolyline
 62
7
  6
CONTINUOUS
 90
3
 70
0
 10
-147.6613204471
 20
-18.7023896288
 10
-147.6466891688
 20
-19.4058361396
 10
-147.642076847
 20
-19.6578266051
  0
LINE
  5
328
100
AcDbEntity
  8
ASSI
100
AcDbLine
 62
7
  6
CONTINUOUS
 10
-147.9190429182
 20
-36.3015861141
 11
-147.9324409575
 21
-35.5216343393
  0
LWPOLYLINE
  5
329
100
AcDbEntity
  8
ASSI
100
AcDbPolyline
 62
7
  6
CONTINUOUS
 90
3
 70
0
 10
-147.9324409575
 20
-35.5216343393
 10
-147.9444844234
 20
-34.6722406645
 10
-147.9481810979
 20
-34.3747886771
  0
LINE
  5
32A
100
AcDbEntity
  8
0
100
AcDbLine
 62
7
  6
CONTINUOUS
 10
-147.9324409575
 20
165.8142120856
 11
-147.9481810979
 21
164.6673664234
  0
LINE
  5
32B
100
AcDbEntity
  8
0
100
AcDbLine
 62
7
  6
CONTINUOUS
 10
-147.9142983439
 20
166.8374089782
 11
-147.9324409575
 21
165.8142120856
  0
LINE
  5
32C
100
AcDbEntity
  8
0
100
AcDbLine
 62
7
  6
CONTINUOUS
 10
-147.6613204471
 20
148.9949673751
 11
-147.642076847
 21
149.9504043514
  0
LINE
  5
32D
100
AcDbEntity
  8
0
100
AcDbLine
 62
7
  6
CONTINUOUS
 10
-147.8992850163
 20
167.5139123217
 11
-147.9142983439
 21
166.8374089782
  0
LINE
  5
32E
100
AcDbEntity
  8
0
100
AcDbLine
 62
7
  6
CONTINUOUS
 10
-147.6770524611
 20
148.374396649
 11
-147.6613204471
 21
148.9949673751
  0
LINE
  5
32F
100
AcDbEntity
  8
0
100
AcDbLine
 62
7
  6
CONTINUOUS
 10
-147.8832173805
 20
168.1055810167
 11
-147.8992850163
 21
167.5139123217
  0
LINE
  5
330
100
AcDbEntity
  8
0
100
AcDbLine
 62
7
  6
CONTINUOUS
 10
-147.6880782342
 20
148.0096484946
 11
-147.6770524611
 21
148.374396649
  0
LINE
  5
331
100
AcDbEntity
  8
0
100
AcDbLine
 62
7
  6
CONTINUOUS
 10
-147.8719893477
 20
168.4502560543
 11
-147.8832173805
 21
168.1055810167
  0
LINE
  5
332
100
AcDbEntity
  8
0
100
AcDbLine
 62
7
  6
CONTINUOUS
 10
-147.6994911396
 20
147.6855209266
 11
-147.6880782342
 21
148.0096484946
  0
LINE
  5
333
100
AcDbEntity
  8
0
100
AcDbLine
 62
7
  6
CONTINUOUS
 10
-147.8604083988
 20
168.7532997729
 11
-147.8719893477
 21
168.4502560543
  0
LWPOLYLINE
  5
334
100
AcDbEntity
  8
ASSI
100
AcDbPolyline
 62
7
  6
CONTINUOUS
 90
12
 70
0
 10
-147.8485094583
 20
54.2787794579
 10
-147.8424607092
 20
54.1649661855
 10
-147.8363459071
 20
54.0620882295
 10
-147.8301834923
 20
53.9704558374
 10
-147.8239733211
 20
53.8901029563
 10
-147.8177155372
 20
53.8209956391
 10
-147.8114290121
 20
53.7633422915
 10
-147.8051136591
 20
53.7171774899
 10
-147.7987695649
 20
53.6824666579
 10
-147.7924158612
 20
53.6593144725
 10
-147.7860525192
 20
53.647755826
 10
-147.7828660435
 20
53.6462888731
  0
LWPOLYLINE
  5
335
100
AcDbEntity
  8
ASSI
100
AcDbPolyline
 62
7
  6
CONTINUOUS
 90
12
 70
0
 10
-147.7172226287
 20
76.0137982884
 10
-147.7232713778
 20
76.1276115608
 10
-147.7293861799
 20
76.2304895167
 10
-147.7355485947
 20
76.3221219089
 10
-147.7417587659
 20
76.4024747899
 10
-147.7480165498
 20
76.4715821072
 10
-147.7543030749
 20
76.5292354548
 10
-147.7606184279
 20
76.5754002564
 10
-147.7669625221
 20
76.6101110883
 10
-147.7733162258
 20
76.6332632737
 10
-147.7796795678
 20
76.6448219203
 10
-147.7828660435
 20
76.6462888731
  0
LWPOLYLINE
  5
336
100
AcDbEntity
  8
0
100
AcDbPolyline
 62
7
  6
CONTINUOUS
 90
12
 70
0
 10
-147.8485094583
 20
147.2787794579
 10
-147.8424607092
 20
147.1649661855
 10
-147.8363459071
 20
147.0620882295
 10
-147.8301834923
 20
146.9704558374
 10
-147.8239733211
 20
146.8901029563
 10
-147.8177155372
 20
146.8209956391
 10
-147.8114290121
 20
146.7633422915
 10
-147.8051136591
 20
146.7171774899
 10
-147.7987695649
 20
146.6824666579
 10
-147.7924158612
 20
146.6593144725
 10
-147.7860525192
 20
146.647755826
 10
-147.7828660435
 20
146.6462888731
  0
LWPOLYLINE
  5
337
100
AcDbEntity
  8
0
100
AcDbPolyline
 62
7
  6
CONTINUOUS
 90
12
 70
0
 10
-147.7172226287
 20
169.0137982884
 10
-147.7232713778
 20
169.1276115608
 10
-147.7293861799
 20
169.2304895167
 10
-147.7355485947
 20
169.3221219089
 10
-147.7417587659
 20
169.4024747899
 10
-147.7480165498
 20
169.4715821072
 10
-147.7543030749
 20
169.5292354548
 10
-147.7606184279
 20
169.5754002564
 10
-147.7669625221
 20
169.6101110883
 10
-147.7733162258
 20
169.6332632737
 10
-147.7796795678
 20
169.6448219203
 10
-147.7828660435
 20
169.6462888731
  0
LINE
  5
338
100
AcDbEntity
  8
ASSI
100
AcDbLine
 62
7
  6
CONTINUOUS
 10
-147.8604083988
 20
54.5392779734
 11
-147.8485094583
 21
54.2787794579
  0
LINE
  5
339
100
AcDbEntity
  8
ASSI
100
AcDbLine
 62
7
  6
CONTINUOUS
 10
-147.7053236882
 20
75.7532997729
 11
-147.7172226287
 21
76.0137982884
  0
LINE
  5
33A
100
AcDbEntity
  8
0
100
AcDbLine
 62
7
  6
CONTINUOUS
 10
-147.8604083988
 20
147.5392779734
 11
-147.8485094583
 21
147.2787794579
  0
LINE
  5
33B
100
AcDbEntity
  8
0
100
AcDbLine
 62
7
  6
CONTINUOUS
 10
-147.7053236882
 20
168.7532997729
 11
-147.7172226287
 21
169.0137982884
  0
LINE
  5
33C
100
AcDbEntity
  8
ASSI
100
AcDbLine
 62
7
  6
CONTINUOUS
 10
-147.8719893477
 20
54.842321692
 11
-147.8604083988
 21
54.5392779734
  0
LINE
  5
33D
100
AcDbEntity
  8
ASSI
100
AcDbLine
 62
7
  6
CONTINUOUS
 10
-147.6937427393
 20
75.4502560543
 11
-147.7053236882
 21
75.7532997729
  0
LINE
  5
33E
100
AcDbEntity
  8
0
100
AcDbLine
 62
7
  6
CONTINUOUS
 10
-147.8719893477
 20
147.842321692
 11
-147.8604083988
 21
147.5392779734
  0
LINE
  5
33F
100
AcDbEntity
  8
0
100
AcDbLine
 62
7
  6
CONTINUOUS
 10
-147.6937427393
 20
168.4502560543
 11
-147.7053236882
 21
168.7532997729
  0
LINE
  5
340
100
AcDbEntity
  8
ASSI
100
AcDbLine
 62
7
  6
CONTINUOUS
 10
-147.8832173805
 20
55.1869967296
 11
-147.8719893477
 21
54.842321692
  0
LINE
  5
341
100
AcDbEntity
  8
ASSI
100
AcDbLine
 62
7
  6
CONTINUOUS
 10
-147.6825147065
 20
75.1055810167
 11
-147.6937427393
 21
75.4502560543
  0
LINE
  5
342
100
AcDbEntity
  8
0
100
AcDbLine
 62
7
  6
CONTINUOUS
 10
-147.8832173805
 20
148.1869967296
 11
-147.8719893477
 21
147.842321692
  0
LINE
  5
343
100
AcDbEntity
  8
0
100
AcDbLine
 62
7
  6
CONTINUOUS
 10
-147.6825147065
 20
168.1055810167
 11
-147.6937427393
 21
168.4502560543
  0
LWPOLYLINE
  5
344
100
AcDbEntity
  8
RACCORDO
100
AcDbPolyline
 62
250
  6
CONTINUOUS
 90
28
 70
0
 10
-143.9196219518
 20
-67.0035271599
 10
-143.9161215219
 20
-67.1214190444
 10
-143.9073320972
 20
-67.2363978922
 10
-143.8932951686
 20
-67.3483554437
 10
-143.8741532192
 20
-67.4572164076
 10
-143.8499027514
 20
-67.562819146
 10
-143.8204057319
 20
-67.6649354541
 10
-143.785821053
 20
-67.7634526679
 10
-143.7462671759
 20
-67.8582567364
 10
-143.7015976482
 20
-67.9491467534
 10
-143.6520373826
 20
-68.0360158352
 10
-143.5977778173
 20
-68.1187600878
 10
-143.5386782065
 20
-68.1972139125
 10
-143.475095304
 20
-68.2712784045
 10
-143.4072237209
 20
-68.3408646556
 10
-143.3347442136
 20
-68.4058523104
 10
-143.2580693367
 20
-68.4661623405
 10
-143.1774815515
 20
-68.5217143065
 10
-143.092544408
 20
-68.5724155864
 10
-143.0037630644
 20
-68.6182088094
 10
-142.9114688269
 20
-68.6590272011
 10
-142.8150511772
 20
-68.694797278
 10
-142.7149565863
 20
-68.7254855495
 10
-142.6117030156
 20
-68.751046523
 10
-142.5048557816
 20
-68.7714258958
 10
-142.3946156987
 20
-68.7866023625
 10
-142.2817918539
 20
-68.7965698652
 10
-142.1668774719
 20
-68.8013167463
  0
LINE
  5
345
100
AcDbEntity
  8
ASSI
100
AcDbLine
 62
7
  6
CONTINUOUS
 10
-147.8992850163
 20
55.7786654246
 11
-147.8832173805
 21
55.1869967296
  0
LINE
  5
346
100
AcDbEntity
  8
ASSI
100
AcDbLine
 62
7
  6
CONTINUOUS
 10
-147.6664470707
 20
74.5139123217
 11
-147.6825147065
 21
75.1055810167
  0
LINE
  5
347
100
AcDbEntity
  8
0
100
AcDbLine
 62
7
  6
CONTINUOUS
 10
-147.8992850163
 20
148.7786654246
 11
-147.8832173805
 21
148.1869967296
  0
LINE
  5
348
100
AcDbEntity
  8
0
100
AcDbLine
 62
7
  6
CONTINUOUS
 10
-147.6664470707
 20
167.5139123217
 11
-147.6825147065
 21
168.1055810167
  0
LINE
  5
349
100
AcDbEntity
  8
ASSI
100
AcDbLine
 62
7
  6
CONTINUOUS
 10
-147.9142983439
 20
56.4551687681
 11
-147.8992850163
 21
55.7786654246
  0
LINE
  5
34A
100
AcDbEntity
  8
ASSI
100
AcDbLine
 62
7
  6
CONTINUOUS
 10
-147.6514337431
 20
73.8374089782
 11
-147.6664470707
 21
74.5139123217
  0
LINE
  5
34B
100
AcDbEntity
  8
0
100
AcDbLine
 62
7
  6
CONTINUOUS
 10
-147.9142983439
 20
149.4551687681
 11
-147.8992850163
 21
148.7786654246
  0
LINE
  5
34C
100
AcDbEntity
  8
0
100
AcDbLine
 62
7
  6
CONTINUOUS
 10
-147.6514337431
 20
166.8374089782
 11
-147.6664470707
 21
167.5139123217
  0
LINE
  5
34D
100
AcDbEntity
  8
ASSI
100
AcDbLine
 62
7
  6
CONTINUOUS
 10
-147.9324409575
 20
57.4783656607
 11
-147.9142983439
 21
56.4551687681
  0
LINE
  5
34E
100
AcDbEntity
  8
ASSI
100
AcDbLine
 62
7
  6
CONTINUOUS
 10
-147.6332911294
 20
72.8142120856
 11
-147.6514337431
 21
73.8374089782
  0
LINE
  5
34F
100
AcDbEntity
  8
0
100
AcDbLine
 62
7
  6
CONTINUOUS
 10
-147.9324409575
 20
150.4783656607
 11
-147.9142983439
 21
149.4551687681
  0
LINE
  5
350
100
AcDbEntity
  8
0
100
AcDbLine
 62
7
  6
CONTINUOUS
 10
-147.6332911294
 20
165.8142120856
 11
-147.6514337431
 21
166.8374089782
  0
LINE
  5
351
100
AcDbEntity
  8
ASSI
100
AcDbLine
 62
7
  6
CONTINUOUS
 10
-147.642076847
 20
-19.6578266051
 11
-147.6291177338
 21
-20.4617587582
  0
LINE
  5
352
100
AcDbEntity
  8
RACCORDO
100
AcDbLine
 62
250
  6
CONTINUOUS
 10
-147.6144830914
 20
193.6462888731
 11
-147.5860422691
 21
191.862076141
  0
LINE
  5
353
100
AcDbEntity
  8
RACCORDO
100
AcDbLine
 62
250
  6
CONTINUOUS
 10
-147.5860422691
 20
191.862076141
 11
-147.5727762754
 21
190.8983329033
  0
LINE
  5
354
100
AcDbEntity
  8
ASSI
100
AcDbLine
 62
7
  6
CONTINUOUS
 10
-147.6291177338
 20
-20.4617587582
 11
-147.6175509891
 21
-21.3326335766
  0
LINE
  5
355
100
AcDbEntity
  8
ASSI
100
AcDbLine
 62
7
  6
CONTINUOUS
 10
-147.9481810979
 20
58.6252113229
 11
-147.9324409575
 21
57.4783656607
  0
LINE
  5
356
100
AcDbEntity
  8
ASSI
100
AcDbLine
 62
7
  6
CONTINUOUS
 10
-147.6175509891
 20
71.6673664234
 11
-147.6332911294
 21
72.8142120856
  0
LINE
  5
357
100
AcDbEntity
  8
0
100
AcDbLine
 62
7
  6
CONTINUOUS
 10
-147.9481810979
 20
151.6252113229
 11
-147.9324409575
 21
150.4783656607
  0
LINE
  5
358
100
AcDbEntity
  8
0
100
AcDbLine
 62
7
  6
CONTINUOUS
 10
-147.6175509891
 20
164.6673664234
 11
-147.6332911294
 21
165.8142120856
  0
LINE
  5
359
100
AcDbEntity
  8
RACCORDO
100
AcDbLine
 62
250
  6
CONTINUOUS
 10
-147.5727762754
 20
190.8983329033
 11
-147.5634460374
 21
190.0924069617
  0
LINE
  5
35A
100
AcDbEntity
  8
ASSI
100
AcDbLine
 62
7
  6
CONTINUOUS
 10
-147.9481810979
 20
-34.3747886771
 11
-147.9582507238
 21
-33.4448579706
  0
LINE
  5
35B
100
AcDbEntity
  8
ASSI
100
AcDbLine
 62
7
  6
CONTINUOUS
 10
-147.6175509891
 20
-21.3326335766
 11
-147.6074813632
 21
-22.2625642831
  0
LINE
  5
35C
100
AcDbEntity
  8
ASSI
100
AcDbLine
 62
7
  6
CONTINUOUS
 10
-147.9612576948
 20
59.8766838733
 11
-147.9481810979
 21
58.6252113229
  0
LINE
  5
35D
100
AcDbEntity
  8
ASSI
100
AcDbLine
 62
7
  6
CONTINUOUS
 10
-147.6044743922
 20
70.415893873
 11
-147.6175509891
 21
71.6673664234
  0
LINE
  5
35E
100
AcDbEntity
  8
0
100
AcDbLine
 62
7
  6
CONTINUOUS
 10
-147.9612576948
 20
152.8766838733
 11
-147.9481810979
 21
151.6252113229
  0
LINE
  5
35F
100
AcDbEntity
  8
0
100
AcDbLine
 62
7
  6
CONTINUOUS
 10
-147.6044743922
 20
163.415893873
 11
-147.6175509891
 21
164.6673664234
  0
LINE
  5
360
100
AcDbEntity
  8
RACCORDO
100
AcDbLine
 62
250
  6
CONTINUOUS
 10
-147.5634460374
 20
190.0924069617
 11
-147.5557591115
 21
189.2550978465
  0
LINE
  5
361
100
AcDbEntity
  8
ASSI
100
AcDbLine
 62
7
  6
CONTINUOUS
 10
-147.9582507238
 20
-33.4448579706
 11
-147.9667320389
 21
-32.4642929725
  0
LINE
  5
362
100
AcDbEntity
  8
ASSI
100
AcDbLine
 62
7
  6
CONTINUOUS
 10
-147.6074813632
 20
-22.2625642831
 11
-147.5990000481
 21
-23.2431292812
  0
LINE
  5
363
100
AcDbEntity
  8
ASSI
100
AcDbLine
 62
7
  6
CONTINUOUS
 10
-147.9667320389
 20
-32.4642929725
 11
-147.9735482351
 21
-31.4419738312
  0
LINE
  5
364
100
AcDbEntity
  8
ASSI
100
AcDbLine
 62
7
  6
CONTINUOUS
 10
-147.5990000481
 20
-23.2431292812
 11
-147.5921838519
 21
-24.2654484225
  0
LINE
  5
365
100
AcDbEntity
  8
ASSI
100
AcDbLine
 62
7
  6
CONTINUOUS
 10
-147.9735482351
 20
61.5580261688
 11
-147.9612576948
 21
59.8766838733
  0
LINE
  5
366
100
AcDbEntity
  8
ASSI
100
AcDbLine
 62
7
  6
CONTINUOUS
 10
-147.5921838519
 20
68.7345515775
 11
-147.6044743922
 21
70.415893873
  0
LINE
  5
367
100
AcDbEntity
  8
0
100
AcDbLine
 62
7
  6
CONTINUOUS
 10
-147.9735482351
 20
154.5580261688
 11
-147.9612576948
 21
152.8766838733
  0
LINE
  5
368
100
AcDbEntity
  8
0
100
AcDbLine
 62
7
  6
CONTINUOUS
 10
-147.5921838519
 20
161.7345515775
 11
-147.6044743922
 21
163.415893873
  0
LINE
  5
369
100
AcDbEntity
  8
RACCORDO
100
AcDbLine
 62
250
  6
CONTINUOUS
 10
-147.5557591115
 20
189.2550978465
 11
-147.5507433981
 21
188.4964685616
  0
LINE
  5
36A
100
AcDbEntity
  8
ASSI
100
AcDbLine
 62
7
  6
CONTINUOUS
 10
-147.9735482351
 20
-31.4419738312
 11
-147.9786375839
 21
-30.3871588272
  0
LINE
  5
36B
100
AcDbEntity
  8
ASSI
100
AcDbLine
 62
7
  6
CONTINUOUS
 10
-147.5921838519
 20
-24.2654484225
 11
-147.5870945031
 21
-25.3202634265
  0
LINE
  5
36C
100
AcDbEntity
  8
ASSI
100
AcDbLine
 62
7
  6
CONTINUOUS
 10
-147.9810470297
 20
63.3291545329
 11
-147.9735482351
 21
61.5580261688
  0
LINE
  5
36D
100
AcDbEntity
  8
0
100
AcDbLine
 62
7
  6
CONTINUOUS
 10
-147.9810470297
 20
156.3291545329
 11
-147.9735482351
 21
154.5580261688
  0
LINE
  5
36E
100
AcDbEntity
  8
ASSI
100
AcDbLine
 62
7
  6
CONTINUOUS
 10
-147.5846850573
 20
66.9634232134
 11
-147.5921838519
 21
68.7345515775
  0
LINE
  5
36F
100
AcDbEntity
  8
0
100
AcDbLine
 62
7
  6
CONTINUOUS
 10
-147.5846850573
 20
159.9634232134
 11
-147.5921838519
 21
161.7345515775
  0
LINE
  5
370
100
AcDbEntity
  8
RACCORDO
100
AcDbLine
 62
250
  6
CONTINUOUS
 10
-147.5507433981
 20
188.4964685616
 11
-147.5476511009
 21
187.7133712355
  0
LINE
  5
371
100
AcDbEntity
  8
ASSI
100
AcDbLine
 62
7
  6
CONTINUOUS
 10
-147.9786375839
 20
-30.3871588272
 11
-147.9819539952
 21
-29.3094005285
  0
LINE
  5
372
100
AcDbEntity
  8
ASSI
100
AcDbLine
 62
7
  6
CONTINUOUS
 10
-147.5870945031
 20
-25.3202634265
 11
-147.5837780918
 21
-26.3980217252
  0
LWPOLYLINE
  5
373
100
AcDbEntity
  8
RACCORDO
100
AcDbPolyline
 62
7
  6
CONTINUOUS
 90
4
 70
0
 10
-146.2173718497
 20
-63.3537111269
 10
-146.2176894518
 20
-63.165448215
 10
-146.2179920045
 20
-62.981139693
 10
-146.2182795078
 20
-62.8007855607
  0
LWPOLYLINE
  5
374
100
AcDbEntity
  8
RACCORDO
100
AcDbPolyline
 62
7
  6
CONTINUOUS
 90
3
 70
0
 10
-146.2182795078
 20
-62.8007855607
 10
-146.2188089244
 20
-62.4520003774
 10
-146.2190517211
 20
-62.2834495029
  0
LWPOLYLINE
  5
375
100
AcDbEntity
  8
RACCORDO
100
AcDbPolyline
 62
7
  6
CONTINUOUS
 90
3
 70
0
 10
-146.2190517211
 20
-62.2834495029
 10
-146.2194945956
 20
-61.9578814094
 10
-146.2196944526
 20
-61.8008941462
  0
LINE
  5
376
100
AcDbEntity
  8
ASSI
100
AcDbLine
 62
7
  6
CONTINUOUS
 10
-147.9819539952
 20
-29.3094005285
 11
-147.9834668256
 21
-28.2191925913
  0
LINE
  5
377
100
AcDbEntity
  8
ASSI
100
AcDbLine
 62
7
  6
CONTINUOUS
 10
-147.5837780918
 20
-26.3980217252
 11
-147.5822652614
 21
-27.4882296624
  0
LINE
  5
378
100
AcDbEntity
  8
RACCORDO
100
AcDbLine
 62
7
  6
CONTINUOUS
 10
-140.6142462289
 20
197.6989201161
 11
-140.6122671986
 21
196.4640233444
  0
LINE
  5
379
100
AcDbEntity
  8
ASSI
100
AcDbLine
 62
7
  6
CONTINUOUS
 10
-147.9835687175
 20
65.1462888731
 11
-147.9810470297
 21
63.3291545329
  0
LINE
  5
37A
100
AcDbEntity
  8
0
100
AcDbLine
 62
7
  6
CONTINUOUS
 10
-147.9835687175
 20
158.1462888731
 11
-147.9810470297
 21
156.3291545329
  0
LINE
  5
37B
100
AcDbEntity
  8
ASSI
100
AcDbLine
 62
7
  6
CONTINUOUS
 10
-147.5821633695
 20
65.1462888731
 11
-147.5846850573
 21
66.9634232134
  0
LINE
  5
37C
100
AcDbEntity
  8
0
100
AcDbLine
 62
7
  6
CONTINUOUS
 10
-147.5821633695
 20
158.1462888731
 11
-147.5846850573
 21
159.9634232134
  0
LINE
  5
37D
100
AcDbEntity
  8
DRAFT
100
AcDbLine
 62
7
  6
CONTINUOUS
 10
-148.1668774719
 20
193.6462888731
 11
-148.1668774719
 21
-63.3537111269
  0
LINE
  5
37E
100
AcDbEntity
  8
ASSI
100
AcDbLine
 62
7
  6
CONTINUOUS
 10
-148.1668774719
 20
-63.3537111269
 11
-148.1668774719
 21
193.6462888731
  0
LINE
  5
37F
100
AcDbEntity
  8
ASSI
100
AcDbLine
 62
7
  6
CONTINUOUS
 10
-147.6222794462
 20
-56.9537111269
 11
-147.6222794462
 21
-51.7537111269
  0
LINE
  5
380
100
AcDbEntity
  8
RACCORDO
100
AcDbLine
 62
250
  6
CONTINUOUS
 10
-147.5476511009
 20
187.7133712355
 11
-147.5467657176
 21
-51.4537111269
  0
LINE
  5
381
100
AcDbEntity
  8
RACCORDO
100
AcDbLine
 62
7
  6
CONTINUOUS
 10
-147.1668774719
 20
-51.4537111269
 11
-147.1668774719
 21
-57.2537111269
  0
LINE
  5
382
100
AcDbEntity
  8
DRAFT
100
AcDbLine
 62
7
  6
CONTINUOUS
 10
-146.8029779056
 20
9.4823893068
 11
-146.8029779056
 21
5.8101884395
  0
LINE
  5
383
100
AcDbEntity
  8
0
100
AcDbLine
 62
7
  6
CONTINUOUS
 10
-146.6668774719
 20
102.3462888731
 11
-146.6668774719
 21
98.9462888731
  0
LINE
  5
384
100
AcDbEntity
  8
DRAFT
100
AcDbLine
 62
7
  6
CONTINUOUS
 10
-146.6668774719
 20
5.9462888731
 11
-146.6668774719
 21
9.3462888731
  0
LINE
  5
385
100
AcDbEntity
  8
DRAFT
100
AcDbLine
 62
7
  6
CONTINUOUS
 10
-146.1668774719
 20
-61.8537111269
 11
-146.1668774719
 21
-63.3537111269
  0
LINE
  5
386
100
AcDbEntity
  8
DRAFT
100
AcDbLine
 62
7
  6
CONTINUOUS
 10
-146.1668774719
 20
192.1462888731
 11
-146.1668774719
 21
193.6462888731
  0
LINE
  5
387
100
AcDbEntity
  8
0
100
AcDbLine
 62
250
  6
CONTINUOUS
 10
-146.0469941749
 20
187.0225153377
 11
-146.0469941749
 21
102.3462888731
  0
LINE
  5
388
100
AcDbEntity
  8
DRAFT
100
AcDbLine
 62
250
  6
CONTINUOUS
 10
-146.0469941749
 20
98.9462888731
 11
-146.0469941749
 21
9.4841733842
  0
LINE
  5
389
100
AcDbEntity
  8
DRAFT
100
AcDbLine
 62
250
  6
CONTINUOUS
 10
-146.0469941749
 20
5.808404362
 11
-146.0469941749
 21
-57.2537111269
  0
LINE
  5
38A
100
AcDbEntity
  8
DRAFT
100
AcDbLine
 62
250
  6
CONTINUOUS
 10
-142.1668774719
 20
192.1462888731
 11
-142.1668774719
 21
192.0911362448
  0
LINE
  5
38B
100
AcDbEntity
  8
DRAFT
100
AcDbLine
 62
250
  6
CONTINUOUS
 10
-142.1668774719
 20
-61.8537111269
 11
-142.1668774719
 21
-61.7985584985
  0
LINE
  5
38C
100
AcDbEntity
  8
DRAFT
100
AcDbLine
 62
250
  6
CONTINUOUS
 10
-142.1668774719
 20
5.9462888731
 11
-142.1668774719
 21
5.808404362
  0
LINE
  5
38D
100
AcDbEntity
  8
DRAFT
100
AcDbLine
 62
250
  6
CONTINUOUS
 10
-142.1668774719
 20
9.3462888731
 11
-142.1668774719
 21
9.4841733842
  0
LINE
  5
38E
100
AcDbEntity
  8
RACCORDO
100
AcDbLine
 62
250
  6
CONTINUOUS
 10
-142.1668774719
 20
-67.3537111269
 11
-142.1668774719
 21
-67.4041173602
  0
LINE
  5
38F
100
AcDbEntity
  8
RACCORDO
100
AcDbLine
 62
250
  6
CONTINUOUS
 10
-142.1668774719
 20
-68.8013167463
 11
-142.1668774719
 21
-69.3537111269
  0
LINE
  5
390
100
AcDbEntity
  8
RACCORDO
100
AcDbLine
 62
250
  6
CONTINUOUS
 10
-142.1668774719
 20
197.6462888731
 11
-142.1668774719
 21
197.6966948496
  0
LINE
  5
391
100
AcDbEntity
  8
RACCORDO
100
AcDbLine
 62
250
  6
CONTINUOUS
 10
-142.1668774719
 20
199.0938944926
 11
-142.1668774719
 21
199.6462888731
  0
LINE
  5
392
100
AcDbEntity
  8
DRAFT
100
AcDbLine
 62
7
  6
CONTINUOUS
 10
-140.6668774719
 20
197.6462888731
 11
-140.6668774719
 21
193.6462888731
  0
LINE
  5
393
100
AcDbEntity
  8
DRAFT
100
AcDbLine
 62
7
  6
CONTINUOUS
 10
-140.6668774719
 20
-67.3537111269
 11
-140.6668774719
 21
-63.3537111269
  0
LINE
  5
394
100
AcDbEntity
  8
RACCORDO
100
AcDbLine
 62
7
  6
CONTINUOUS
 10
-140.6117248435
 20
195.1072432716
 11
-140.6117248435
 21
193.6462888731
  0
LINE
  5
395
100
AcDbEntity
  8
RACCORDO
100
AcDbLine
 62
7
  6
CONTINUOUS
 10
-140.6122671986
 20
196.4640233444
 11
-140.6117248435
 21
195.1073263699
  0
LINE
  5
396
100
AcDbEntity
  8
RACCORDO
100
AcDbLine
 62
7
  6
CONTINUOUS
 10
-140.6117248435
 20
-63.3537111269
 11
-140.6117344022
 21
-64.9888467891
  0
LINE
  5
397
100
AcDbEntity
  8
RACCORDO
100
AcDbLine
 62
7
  6
CONTINUOUS
 10
-140.6117344022
 20
-64.9888467891
 11
-140.61180376
 21
-65.3609024483
  0
LINE
  5
398
100
AcDbEntity
  8
RACCORDO
100
AcDbLine
 62
7
  6
CONTINUOUS
 10
-140.61180376
 20
-65.3609024483
 11
-140.612033398
 21
-65.8620629169
  0
LINE
  5
399
100
AcDbEntity
  8
ASSI
100
AcDbLine
 62
7
  6
CONTINUOUS
 10
-147.9834668256
 20
-28.2191925913
 11
-147.9831638932
 21
-27.1238481631
  0
LINE
  5
39A
100
AcDbEntity
  8
ASSI
100
AcDbLine
 62
7
  6
CONTINUOUS
 10
-147.5822652614
 20
-27.4882296624
 11
-147.5825681938
 21
-28.5835740906
  0
LINE
  5
39B
100
AcDbEntity
  8
RACCORDO
100
AcDbLine
 62
7
  6
CONTINUOUS
 10
-140.612033398
 20
-65.8620629169
 11
-140.6123948102
 21
-66.307331258
  0
LWPOLYLINE
  5
39C
100
AcDbEntity
  8
RACCORDO
100
AcDbPolyline
 62
7
  6
CONTINUOUS
 90
5
 70
0
 10
-146.2195095244
 20
192.0936568207
 10
-146.218144596
 20
193.0969578834
 10
-146.2178710642
 20
193.2765182167
 10
-146.2175840713
 20
193.4596285466
 10
-146.2172836174
 20
193.6462888731
  0
LINE
  5
39D
100
AcDbEntity
  8
RACCORDO
100
AcDbLine
 62
7
  6
CONTINUOUS
 10
-140.6123948102
 20
-66.307331258
 11
-140.6142447677
 21
-67.4063438311
  0
LINE
  5
39E
100
AcDbEntity
  8
0
100
AcDbLine
 62
7
  6
CONTINUOUS
 10
-147.9810470297
 20
159.9634232134
 11
-147.9835687175
 21
158.1462888731
  0
LINE
  5
39F
100
AcDbEntity
  8
ASSI
100
AcDbLine
 62
7
  6
CONTINUOUS
 10
-147.9810470297
 20
66.9634232134
 11
-147.9835687175
 21
65.1462888731
  0
LINE
  5
3A0
100
AcDbEntity
  8
0
100
AcDbLine
 62
7
  6
CONTINUOUS
 10
-147.5846850573
 20
156.3291545329
 11
-147.5821633695
 21
158.1462888731
  0
LINE
  5
3A1
100
AcDbEntity
  8
ASSI
100
AcDbLine
 62
7
  6
CONTINUOUS
 10
-147.9831638932
 20
-27.1238481631
 11
-147.9810470297
 21
-26.0365767866
  0
LINE
  5
3A2
100
AcDbEntity
  8
ASSI
100
AcDbLine
 62
7
  6
CONTINUOUS
 10
-147.5846850573
 20
63.3291545329
 11
-147.5821633695
 21
65.1462888731
  0
LINE
  5
3A3
100
AcDbEntity
  8
ASSI
100
AcDbLine
 62
7
  6
CONTINUOUS
 10
-147.5825681938
 20
-28.5835740906
 11
-147.5846850573
 21
-29.6708454671
  0
LINE
  5
3A4
100
AcDbEntity
  8
ASSI
100
AcDbLine
 62
7
  6
CONTINUOUS
 10
-147.9810470297
 20
-26.0365767866
 11
-147.9771351036
 21
-24.965395005
  0
LINE
  5
3A5
100
AcDbEntity
  8
ASSI
100
AcDbLine
 62
7
  6
CONTINUOUS
 10
-147.5846850573
 20
-29.6708454671
 11
-147.5885969834
 21
-30.7420272487
  0
LINE
  5
3A6
100
AcDbEntity
  8
RACCORDO
100
AcDbLine
 62
250
  6
CONTINUOUS
 10
-147.5492507724
 20
-58.3208625907
 11
-147.5467657176
 21
-57.2537111269
  0
LINE
  5
3A7
100
AcDbEntity
  8
0
100
AcDbLine
 62
7
  6
CONTINUOUS
 10
-147.9735482351
 20
161.7345515775
 11
-147.9810470297
 21
159.9634232134
  0
LINE
  5
3A8
100
AcDbEntity
  8
0
100
AcDbLine
 62
7
  6
CONTINUOUS
 10
-147.5921838519
 20
154.5580261688
 11
-147.5846850573
 21
156.3291545329
  0
LINE
  5
3A9
100
AcDbEntity
  8
ASSI
100
AcDbLine
 62
7
  6
CONTINUOUS
 10
-147.9735482351
 20
68.7345515775
 11
-147.9810470297
 21
66.9634232134
  0
LINE
  5
3AA
100
AcDbEntity
  8
ASSI
100
AcDbLine
 62
7
  6
CONTINUOUS
 10
-147.5921838519
 20
61.5580261688
 11
-147.5846850573
 21
63.3291545329
  0
LINE
  5
3AB
100
AcDbEntity
  8
ASSI
100
AcDbLine
 62
7
  6
CONTINUOUS
 10
-147.9771351036
 20
-24.965395005
 11
-147.9714638469
 21
-23.9203702615
  0
LINE
  5
3AC
100
AcDbEntity
  8
ASSI
100
AcDbLine
 62
7
  6
CONTINUOUS
 10
-147.5885969834
 20
-30.7420272487
 11
-147.5942682401
 21
-31.7870519922
  0
LINE
  5
3AD
100
AcDbEntity
  8
ASSI
100
AcDbLine
 62
7
  6
CONTINUOUS
 10
-147.9714638469
 20
-23.9203702615
 11
-147.9640846192
 21
-22.9109664619
  0
LINE
  5
3AE
100
AcDbEntity
  8
ASSI
100
AcDbLine
 62
7
  6
CONTINUOUS
 10
-147.5942682401
 20
-31.7870519922
 11
-147.6016474678
 21
-32.7964557918
  0
LINE
  5
3AF
100
AcDbEntity
  8
0
100
AcDbLine
 62
7
  6
CONTINUOUS
 10
-147.9612576948
 20
163.415893873
 11
-147.9735482351
 21
161.7345515775
  0
LINE
  5
3B0
100
AcDbEntity
  8
0
100
AcDbLine
 62
7
  6
CONTINUOUS
 10
-147.6044743922
 20
152.8766838733
 11
-147.5921838519
 21
154.5580261688
  0
LINE
  5
3B1
100
AcDbEntity
  8
ASSI
100
AcDbLine
 62
7
  6
CONTINUOUS
 10
-147.9612576948
 20
70.415893873
 11
-147.9735482351
 21
68.7345515775
  0
LINE
  5
3B2
100
AcDbEntity
  8
ASSI
100
AcDbLine
 62
7
  6
CONTINUOUS
 10
-147.6044743922
 20
59.8766838733
 11
-147.5921838519
 21
61.5580261688
  0
LINE
  5
3B3
100
AcDbEntity
  8
RACCORDO
100
AcDbLine
 62
250
  6
CONTINUOUS
 10
-147.5569199608
 20
-59.4266126067
 11
-147.5492507724
 21
-58.3208625907
  0
LINE
  5
3B4
100
AcDbEntity
  8
ASSI
100
AcDbLine
 62
7
  6
CONTINUOUS
 10
-147.9640846192
 20
-22.9109664619
 11
-147.9550642481
 21
-21.9463249235
  0
LINE
  5
3B5
100
AcDbEntity
  8
ASSI
100
AcDbLine
 62
7
  6
CONTINUOUS
 10
-147.6016474678
 20
-32.7964557918
 11
-147.6106678389
 21
-33.7610973302
  0
LINE
  5
3B6
100
AcDbEntity
  8
0
100
AcDbLine
 62
7
  6
CONTINUOUS
 10
-147.9481810979
 20
164.6673664234
 11
-147.9612576948
 21
163.415893873
  0
LINE
  5
3B7
100
AcDbEntity
  8
0
100
AcDbLine
 62
7
  6
CONTINUOUS
 10
-147.6212476636
 20
151.3277593355
 11
-147.6044743922
 21
152.8766838733
  0
LINE
  5
3B8
100
AcDbEntity
  8
ASSI
100
AcDbLine
 62
7
  6
CONTINUOUS
 10
-147.9444844234
 20
71.9648184107
 11
-147.9612576948
 21
70.415893873
  0
LINE
  5
3B9
100
AcDbEntity
  8
ASSI
100
AcDbLine
 62
7
  6
CONTINUOUS
 10
-147.6212476636
 20
58.3277593355
 11
-147.6044743922
 21
59.8766838733
  0
LINE
  5
3BA
100
AcDbEntity
  8
ASSI
100
AcDbLine
 62
7
  6
CONTINUOUS
 10
-147.9550642481
 20
-21.9463249235
 11
-147.9444844234
 21
-21.0351815893
  0
LINE
  5
3BB
100
AcDbEntity
  8
ASSI
100
AcDbLine
 62
7
  6
CONTINUOUS
 10
-147.6106678389
 20
-33.7610973302
 11
-147.6212476636
 21
-34.6722406645
  0
LINE
  5
3BC
100
AcDbEntity
  8
RACCORDO
100
AcDbLine
 62
250
  6
CONTINUOUS
 10
-147.5721216749
 20
-60.7415288411
 11
-147.5569199608
 21
-59.4266126067
  0
LINE
  5
3BD
100
AcDbEntity
  8
ASSI
100
AcDbLine
 62
7
  6
CONTINUOUS
 10
-147.9444844234
 20
-21.0351815893
 11
-147.9324409575
 21
-20.1857879144
  0
LINE
  5
3BE
100
AcDbEntity
  8
ASSI
100
AcDbLine
 62
7
  6
CONTINUOUS
 10
-147.6212476636
 20
-34.6722406645
 11
-147.6332911294
 21
-35.5216343393
  0
LINE
  5
3BF
100
AcDbEntity
  8
ASSI
100
AcDbLine
 62
7
  6
CONTINUOUS
 10
-147.9281214002
 20
73.0821975052
 11
-147.9444844234
 21
71.9648184107
  0
LINE
  5
3C0
100
AcDbEntity
  8
ASSI
100
AcDbLine
 62
7
  6
CONTINUOUS
 10
-147.6376106868
 20
57.2103802411
 11
-147.6212476636
 21
58.3277593355
  0
LINE
  5
3C1
100
AcDbEntity
  8
RACCORDO
100
AcDbLine
 62
250
  6
CONTINUOUS
 10
-147.5908752216
 20
-61.9664366528
 11
-147.5721216749
 21
-60.7415288411
  0
LINE
  5
3C2
100
AcDbEntity
  8
RACCORDO
100
AcDbLine
 62
250
  6
CONTINUOUS
 10
-147.595093424
 20
-62.2185988945
 11
-147.5908752216
 21
-61.9664366528
  0
LINE
  5
3C3
100
AcDbEntity
  8
RACCORDO
100
AcDbLine
 62
250
  6
CONTINUOUS
 10
-147.6144830914
 20
-63.3537111269
 11
-147.6131471964
 21
-63.2747316351
  0
LINE
  5
3C4
100
AcDbEntity
  8
RACCORDO
100
AcDbLine
 62
250
  6
CONTINUOUS
 10
-147.6131471964
 20
-63.2747316351
 11
-147.6104460136
 21
-63.1158391885
  0
LWPOLYLINE
  5
3C5
100
AcDbEntity
  8
RACCORDO
100
AcDbPolyline
 62
250
  6
CONTINUOUS
 90
4
 70
0
 10
-147.6007301216
 20
-62.5496656665
 10
-147.5993221801
 20
-62.4674371101
 10
-147.5979134167
 20
-62.384849796
 10
-147.595093424
 20
-62.2185988945
  0
LWPOLYLINE
  5
3C6
100
AcDbEntity
  8
0
100
AcDbPolyline
 62
7
  6
CONTINUOUS
 90
3
 70
0
 10
-147.642076847
 20
149.9504043514
 10
-147.6376106868
 20
150.2103802411
 10
-147.6212476636
 20
151.3277593355
  0
LWPOLYLINE
  5
3C7
100
AcDbEntity
  8
RACCORDO
100
AcDbPolyline
 62
7
  6
CONTINUOUS
 90
16
 70
0
 10
-146.2172836174
 20
193.6462888731
 10
-146.2151037745
 20
193.7728432488
 10
-146.2090470996
 20
193.8982663459
 10
-146.1992123944
 20
194.0224433838
 10
-146.1857010169
 20
194.1452629145
 10
-146.16861655
 20
194.2666244265
 10
-146.1480637547
 20
194.3864382713
 10
-146.1241852412
 20
194.5044480337
 10
-146.0970622988
 20
194.6207349419
 10
-146.066664845
 20
194.7357138662
 10
-146.033065428
 20
194.8492786265
 10
-145.9963277905
 20
194.9613644066
 10
-145.9563197007
 20
195.0724267136
 10
-145.9129940812
 20
195.1825461502
 10
-145.8664419415
 20
195.2914459262
 10
-145.8166948289
 20
195.3990306025
  0
LWPOLYLINE
  5
3C8
100
AcDbEntity
  8
RACCORDO
100
AcDbPolyline
 62
250
  6
CONTINUOUS
 90
3
 70
0
 10
-147.6104460136
 20
-63.1158391885
 10
-147.6035345631
 20
-62.7130941095
 10
-147.6007301216
 20
-62.5496656665
  0
LINE
  5
3C9
100
AcDbEntity
  8
ASSI
100
AcDbLine
 62
7
  6
CONTINUOUS
 10
-147.9324409575
 20
-20.1857879144
 11
-147.9190429182
 21
-19.4058361396
  0
LINE
  5
3CA
100
AcDbEntity
  8
ASSI
100
AcDbLine
 62
7
  6
CONTINUOUS
 10
-147.6332911294
 20
-35.5216343393
 11
-147.6466891688
 21
-36.3015861141
  0
LINE
  5
3CB
100
AcDbEntity
  8
ASSI
100
AcDbLine
 62
7
  6
CONTINUOUS
 10
-147.9094211181
 20
74.0718823486
 11
-147.9281214002
 21
73.0821975052
  0
LINE
  5
3CC
100
AcDbEntity
  8
ASSI
100
AcDbLine
 62
7
  6
CONTINUOUS
 10
-147.6563109689
 20
56.2206953977
 11
-147.6376106868
 21
57.2103802411
  0
LINE
  5
3CD
100
AcDbEntity
  8
ASSI
100
AcDbLine
 62
7
  6
CONTINUOUS
 10
-147.9190429182
 20
-19.4058361396
 11
-147.9044116399
 21
-18.7023896288
  0
LINE
  5
3CE
100
AcDbEntity
  8
ASSI
100
AcDbLine
 62
7
  6
CONTINUOUS
 10
-147.6466891688
 20
-36.3015861141
 11
-147.6613204471
 21
-37.0050326249
  0
LINE
  5
3CF
100
AcDbEntity
  8
ASSI
100
AcDbLine
 62
7
  6
CONTINUOUS
 10
-147.8940408938
 20
74.7207597456
 11
-147.9094211181
 21
74.0718823486
  0
LINE
  5
3D0
100
AcDbEntity
  8
ASSI
100
AcDbLine
 62
7
  6
CONTINUOUS
 10
-147.6716911932
 20
55.5718180007
 11
-147.6563109689
 21
56.2206953977
  0
LINE
  5
3D1
100
AcDbEntity
  8
ASSI
100
AcDbLine
 62
7
  6
CONTINUOUS
 10
-147.9044116399
 20
-18.7023896288
 11
-147.8940408938
 21
-18.2792402544
  0
LINE
  5
3D2
100
AcDbEntity
  8
ASSI
100
AcDbLine
 62
7
  6
CONTINUOUS
 10
-147.6613204471
 20
-37.0050326249
 11
-147.6716911932
 21
-37.4281819993
  0
LINE
  5
3D3
100
AcDbEntity
  8
ASSI
100
AcDbLine
 62
7
  6
CONTINUOUS
 10
-147.8940408938
 20
-18.2792402544
 11
-147.8832173805
 21
-17.8944189833
  0
LINE
  5
3D4
100
AcDbEntity
  8
ASSI
100
AcDbLine
 62
7
  6
CONTINUOUS
 10
-147.6716911932
 20
-37.4281819993
 11
-147.6825147065
 21
-37.8130032704
  0
LINE
  5
3D5
100
AcDbEntity
  8
ASSI
100
AcDbLine
 62
7
  6
CONTINUOUS
 10
-147.8776538528
 20
75.2829292517
 11
-147.8940408938
 21
74.7207597456
  0
LINE
  5
3D6
100
AcDbEntity
  8
ASSI
100
AcDbLine
 62
7
  6
CONTINUOUS
 10
-147.6880782342
 20
55.0096484946
 11
-147.6716911932
 21
55.5718180007
  0
LINE
  5
3D7
100
AcDbEntity
  8
ASSI
100
AcDbLine
 62
7
  6
CONTINUOUS
 10
-147.8832173805
 20
-17.8944189833
 11
-147.8719893477
 21
-17.5497439457
  0
LINE
  5
3D8
100
AcDbEntity
  8
ASSI
100
AcDbLine
 62
7
  6
CONTINUOUS
 10
-147.6825147065
 20
-37.8130032704
 11
-147.6937427393
 21
-38.157678308
  0
LINE
  5
3D9
100
AcDbEntity
  8
ASSI
100
AcDbLine
 62
7
  6
CONTINUOUS
 10
-147.8662409474
 20
75.6070568197
 11
-147.8776538528
 21
75.2829292517
  0
LINE
  5
3DA
100
AcDbEntity
  8
ASSI
100
AcDbLine
 62
7
  6
CONTINUOUS
 10
-147.6994911396
 20
54.6855209266
 11
-147.6880782342
 21
55.0096484946
  0
LINE
  5
3DB
100
AcDbEntity
  8
ASSI
100
AcDbLine
 62
7
  6
CONTINUOUS
 10
-147.8719893477
 20
-17.5497439457
 11
-147.8604083988
 21
-17.2467002271
  0
LINE
  5
3DC
100
AcDbEntity
  8
ASSI
100
AcDbLine
 62
7
  6
CONTINUOUS
 10
-147.6937427393
 20
-38.157678308
 11
-147.7053236882
 21
-38.4607220266
  0
LWPOLYLINE
  5
3DD
100
AcDbEntity
  8
ASSI
100
AcDbPolyline
 62
7
  6
CONTINUOUS
 90
13
 70
0
 10
-147.8604083988
 20
-17.2467002271
 10
-147.8485094583
 20
-16.9862017116
 10
-147.8424607092
 20
-16.8723884392
 10
-147.8363459071
 20
-16.7695104833
 10
-147.8301834923
 20
-16.6778780911
 10
-147.8239733211
 20
-16.5975252101
 10
-147.8177155372
 20
-16.5284178928
 10
-147.8114290121
 20
-16.4707645452
 10
-147.8051136591
 20
-16.4245997436
 10
-147.7987695649
 20
-16.3898889117
 10
-147.7924158612
 20
-16.3667367263
 10
-147.7860525192
 20
-16.3551780797
 10
-147.7828660435
 20
-16.3537111269
  0
LWPOLYLINE
  5
3DE
100
AcDbEntity
  8
ASSI
100
AcDbPolyline
 62
7
  6
CONTINUOUS
 90
13
 70
0
 10
-147.7053236882
 20
-38.4607220266
 10
-147.7172226287
 20
-38.7212205421
 10
-147.7232713778
 20
-38.8350338145
 10
-147.7293861799
 20
-38.9379117705
 10
-147.7355485947
 20
-39.0295441626
 10
-147.7417587659
 20
-39.1098970437
 10
-147.7480165498
 20
-39.1790043609
 10
-147.7543030749
 20
-39.2366577085
 10
-147.7606184279
 20
-39.2828225101
 10
-147.7669625221
 20
-39.3175333421
 10
-147.7733162258
 20
-39.3406855275
 10
-147.7796795678
 20
-39.352244174
 10
-147.7828660435
 20
-39.3537111269
  0
LWPOLYLINE
  5
3DF
100
AcDbEntity
  8
0
100
AcDbPolyline
 62
7
  6
CONTINUOUS
 90
19
 70
0
 10
-78.6117056091
 20
187.8110919432
 10
-78.5952211963
 20
187.8383434928
 10
-78.5762849354
 20
187.8653339818
 10
-78.5548968265
 20
187.8920634102
 10
-78.5309363654
 20
187.9188019964
 10
-78.5045240563
 20
187.9452795221
 10
-78.4760214118
 20
187.9706853323
 10
-78.4452211952
 20
187.995030004
 10
-78.4123306431
 20
188.0183029603
 10
-78.3783329781
 20
188.0396618146
 10
-78.3431533434
 20
188.0589719485
 10
-78.3068665957
 20
188.0763679805
 10
-78.2706805277
 20
188.0914113798
 10
-78.2347088807
 20
188.1039269388
 10
-78.1988379133
 20
188.1140898651
 10
-78.1639341938
 20
188.1219872505
 10
-78.1302865783
 20
188.1276481258
 10
-78.0976062107
 20
188.1310434603
 10
-78.0658930911
 20
188.132173254
  0
LINE
  5
3E0
100
AcDbEntity
  8
DRAFT
100
AcDbLine
 62
7
  6
CONTINUOUS
 10
-14.2867607689
 20
5.808404362
 11
-18.1668774719
 21
5.808404362
  0
LINE
  5
3E1
100
AcDbEntity
  8
DRAFT
100
AcDbLine
 62
7
  6
CONTINUOUS
 10
-142.1668774719
 20
5.808404362
 11
-146.0469941749
 21
5.808404362
  0
LINE
  5
3E2
100
AcDbEntity
  8
DRAFT
100
AcDbLine
 62
7
  6
CONTINUOUS
 10
-13.6668774719
 20
5.9462888731
 11
-18.1668774719
 21
5.9462888731
  0
LINE
  5
3E3
100
AcDbEntity
  8
DRAFT
100
AcDbLine
 62
7
  6
CONTINUOUS
 10
-142.1668774719
 20
5.9462888731
 11
-146.6668774719
 21
5.9462888731
  0
LINE
  5
3E4
100
AcDbEntity
  8
0
100
AcDbLine
 62
7
  6
CONTINUOUS
 10
-132.8886334719
 20
68.3654608731
 11
-132.8594294719
 21
68.0150128731
  0
LINE
  5
3E5
100
AcDbEntity
  8
RACCORDO
100
AcDbLine
 62
250
  6
CONTINUOUS
 10
-135.5431039365
 20
-67.2338278298
 11
-135.5431039365
 21
-68.7335993726
  0
LINE
  5
3E6
100
AcDbEntity
  8
RACCORDO
100
AcDbLine
 62
250
  6
CONTINUOUS
 10
-135.5431039365
 20
197.5264055761
 11
-135.5431039365
 21
199.0261771189
  0
LINE
  5
3E7
100
AcDbEntity
  8
RACCORDO
100
AcDbLine
 62
7
  6
CONTINUOUS
 10
-134.5668774719
 20
198.6462888731
 11
-134.5668774719
 21
199.0964543279
  0
LINE
  5
3E8
100
AcDbEntity
  8
ASSI
100
AcDbLine
 62
250
  6
CONTINUOUS
 10
-134.2668774719
 20
198.6462888731
 11
-134.2668774719
 21
199.1016908474
  0
LINE
  5
3E9
100
AcDbEntity
  8
0
100
AcDbLine
 62
7
  6
CONTINUOUS
 10
-132.5173254719
 20
65.2448048731
 11
-132.5173254719
 21
63.7781513395
  0
LINE
  5
3EA
100
AcDbEntity
  8
0
100
AcDbLine
 62
7
  6
CONTINUOUS
 10
-132.1668774719
 20
63.2672768731
 11
-132.1668774719
 21
65.2448048731
  0
LINE
  5
3EB
100
AcDbEntity
  8
0
100
AcDbLine
 62
7
  6
CONTINUOUS
 10
-131.7668774719
 20
174.6462888731
 11
-131.7668774719
 21
-44.3537111269
  0
LINE
  5
3EC
100
AcDbEntity
  8
0
100
AcDbLine
 62
7
  6
CONTINUOUS
 10
-131.5668774719
 20
-44.3537111269
 11
-131.5668774719
 21
174.6462888731
  0
LINE
  5
3ED
100
AcDbEntity
  8
ASSI
100
AcDbLine
 62
250
  6
CONTINUOUS
 10
-129.0668774719
 20
198.6462888731
 11
-129.0668774719
 21
199.1016908474
  0
LWPOLYLINE
  5
3EE
100
AcDbEntity
  8
0
100
AcDbPolyline
 62
7
  6
CONTINUOUS
 90
10
 70
0
 10
-133.9025598489
 20
66.4653104705
 10
-133.9026371911
 20
66.4589753594
 10
-133.9028156979
 20
66.4525752595
 10
-133.9030953693
 20
66.4461101708
 10
-133.9034871816
 20
66.4395763895
 10
-133.9039801586
 20
66.4329776194
 10
-133.9045413705
 20
66.4263249718
 10
-133.9051598409
 20
66.4196221504
 10
-133.9058465463
 20
66.4128654515
 10
-133.9066014867
 20
66.406054875
  0
LINE
  5
3EF
100
AcDbEntity
  8
0
100
AcDbLine
 62
7
  6
CONTINUOUS
 10
-134.3029414719
 20
63.3382008731
 11
-134.2653934719
 21
63.7136808731
  0
LINE
  5
3F0
100
AcDbEntity
  8
0
100
AcDbLine
 62
7
  6
CONTINUOUS
 10
-134.3905534719
 20
65.6786928731
 11
-134.3238014719
 21
66.0458288731
  0
LWPOLYLINE
  5
3F1
100
AcDbEntity
  8
0
100
AcDbPolyline
 62
7
  6
CONTINUOUS
 90
8
 70
0
 10
-80.824485822
 20
187.7424485178
 10
-80.8050967196
 20
187.7876935268
 10
-80.7835125059
 20
187.8302812282
 10
-80.7599695511
 20
187.870434435
 10
-80.7344438415
 20
187.9084127216
 10
-80.7069273727
 20
187.9443026129
 10
-80.6774281493
 20
187.978017584
 10
-80.6459461711
 20
188.0095576349
  0
LINE
  5
3F2
100
AcDbEntity
  8
DRAFT
100
AcDbLine
 62
7
  6
CONTINUOUS
 10
-146.6668774719
 20
9.3462888731
 11
-142.1668774719
 21
9.3462888731
  0
LINE
  5
3F3
100
AcDbEntity
  8
DRAFT
100
AcDbLine
 62
7
  6
CONTINUOUS
 10
-18.1668774719
 20
9.3462888731
 11
-13.6668774719
 21
9.3462888731
  0
LINE
  5
3F4
100
AcDbEntity
  8
DRAFT
100
AcDbLine
 62
7
  6
CONTINUOUS
 10
-146.0469941749
 20
9.4841733842
 11
-142.1668774719
 21
9.4841733842
  0
LINE
  5
3F5
100
AcDbEntity
  8
DRAFT
100
AcDbLine
 62
7
  6
CONTINUOUS
 10
-18.1668774719
 20
9.4841733842
 11
-14.2867607689
 21
9.4841733842
  0
LWPOLYLINE
  5
3F6
100
AcDbEntity
  8
0
100
AcDbPolyline
 62
7
  6
CONTINUOUS
 90
50
 70
0
 10
-133.5853575182
 20
66.365247879
 10
-133.5989127202
 20
66.4183054379
 10
-133.6097242007
 20
66.469750278
 10
-133.6177919597
 20
66.5195823993
 10
-133.623130538
 20
66.5678434706
 10
-133.6257253947
 20
66.6144918232
 10
-133.6255329076
 20
66.65940245
 10
-133.6223952669
 20
66.7025137922
 10
-133.6164702823
 20
66.7438874087
 10
-133.6081877604
 20
66.7835829698
 10
-133.5976007638
 20
66.8215960696
 10
-133.5846562299
 20
66.857931114
 10
-133.5696247771
 20
66.8926609911
 10
-133.5525131042
 20
66.9258493887
 10
-133.5333145124
 20
66.957432619
 10
-133.5122795236
 20
66.9872925077
 10
-133.4895464166
 20
67.0153598212
 10
-133.4649769125
 20
67.041703793
 10
-133.4384066961
 20
67.0664139489
 10
-133.4098111231
 20
67.0895750151
 10
-133.3792148378
 20
67.1111022654
 10
-133.3465274577
 20
67.1308310471
 10
-133.3114405947
 20
67.1489110128
 10
-133.274262637
 20
67.1651925098
 10
-133.2358283667
 20
67.179061928
 10
-133.1961149033
 20
67.190416465
 10
-133.1551451275
 20
67.1993589231
 10
-133.1138224624
 20
67.2055840998
 10
-133.0722823801
 20
67.2090026865
 10
-133.0303894087
 20
67.2097039918
 10
-132.9886405561
 20
67.2076507391
 10
-132.9469845051
 20
67.2027822246
 10
-132.9054725728
 20
67.195159152
 10
-132.864755719
 20
67.1849263563
 10
-132.8247618796
 20
67.1719892262
 10
-132.7855631185
 20
67.1564423729
 10
-132.7480265877
 20
67.1387144656
 10
-132.7123404718
 20
67.1188469699
 10
-132.6783165861
 20
67.09679842
 10
-132.6462575286
 20
67.0728730884
 10
-132.6162825451
 20
67.047179073
 10
-132.5882723899
 20
67.0196082758
 10
-132.5621719229
 20
66.9901406751
 10
-132.5378724754
 20
66.9586664233
 10
-132.5154827162
 20
66.9252953682
 10
-132.4952735117
 20
66.8903370306
 10
-132.4771948852
 20
66.8535991261
 10
-132.4612968132
 20
66.8152739392
 10
-132.4480000923
 20
66.7762478452
 10
-132.4374072526
 20
66.736601873
  0
LWPOLYLINE
  5
3F7
100
AcDbEntity
  8
0
100
AcDbPolyline
 62
7
  6
CONTINUOUS
 90
27
 70
0
 10
-132.4374072526
 20
66.736601873
 10
-132.4294157638
 20
66.6962549937
 10
-132.4241388316
 20
66.6558504953
 10
-132.4216428131
 20
66.6154229646
 10
-132.4218613511
 20
66.5749378149
 10
-132.4247085802
 20
66.5349345735
 10
-132.4302793952
 20
66.4952865079
 10
-132.4384789013
 20
66.4561203507
 10
-132.4489365476
 20
66.4183558274
 10
-132.4617153432
 20
66.382076237
 10
-132.4767522791
 20
66.3471982804
 10
-132.4934877778
 20
66.3143917867
 10
-132.5116702133
 20
66.2840202504
 10
-132.5315512117
 20
66.2557201769
 10
-132.5533260735
 20
66.2290709113
 10
-132.5767764319
 20
66.2041448665
 10
-132.6021206538
 20
66.1808696297
 10
-132.6302091398
 20
66.1586073072
 10
-132.6612476794
 20
66.1370950888
 10
-132.6950304832
 20
66.1165957847
 10
-132.731790584
 20
66.0972599322
 10
-132.771817475
 20
66.0790524326
 10
-132.814821663
 20
66.0620083845
 10
-132.8601677014
 20
66.0463836213
 10
-132.9076437745
 20
66.0322634205
 10
-132.9574616981
 20
66.0195625044
 10
-133.0096214719
 20
66.0082808731
  0
LINE
  5
3F8
100
AcDbEntity
  8
0
100
AcDbLine
 62
7
  6
CONTINUOUS
 10
-133.0096214719
 20
66.0082808731
 11
-132.9595574719
 21
65.6411448731
  0
LINE
  5
3F9
100
AcDbEntity
  8
RACCORDO
100
AcDbLine
 62
7
  6
CONTINUOUS
 10
-128.7668774719
 20
198.6462888731
 11
-128.7668774719
 21
199.0964543279
  0
LINE
  5
3FA
100
AcDbEntity
  8
0
100
AcDbLine
 62
7
  6
CONTINUOUS
 10
-121.6668774719
 20
184.7462888731
 11
-121.6668774719
 21
184.5462888731
  0
LWPOLYLINE
  5
3FB
100
AcDbEntity
  8
0
100
AcDbPolyline
 62
7
  6
CONTINUOUS
 90
69
 70
0
 10
-79.7187055363
 20
186.1075420157
 10
-79.7349832289
 20
186.0642920748
 10
-79.7523495684
 20
186.023681615
 10
-79.7708045549
 20
185.9857106363
 10
-79.7905287323
 20
185.9504765916
 10
-79.8113415567
 20
185.9178820279
 10
-79.8327013959
 20
185.8876345868
 10
-79.8544693976
 20
185.8598047673
 10
-79.8767844143
 20
185.8343220703
 10
-79.8995213706
 20
185.8106826396
 10
-79.9223192574
 20
185.7887754349
 10
-79.9455390838
 20
185.7687114964
 10
-79.9701388021
 20
185.750320089
 10
-79.9962395428
 20
185.7335351827
 10
-80.0237201753
 20
185.7184228074
 10
-80.0531752599
 20
185.7050103179
 10
-80.0847437557
 20
185.6931964153
 10
-80.1182867035
 20
185.6830823985
 10
-80.1539817859
 20
185.6749995189
 10
-80.1925648521
 20
185.6689769397
 10
-80.2333000528
 20
185.6649854978
 10
-80.2741575231
 20
185.6632689551
 10
-80.3152073095
 20
185.6639664279
 10
-80.3563793653
 20
185.6669388
 10
-80.3954336852
 20
185.6720124848
 10
-80.4315632115
 20
185.6792432258
 10
-80.4655750018
 20
185.6885752794
 10
-80.4976502236
 20
185.6996678285
 10
-80.5276018451
 20
185.7123618303
 10
-80.5556168982
 20
185.7268163277
 10
-80.5824376461
 20
185.7431676317
 10
-80.6079883597
 20
185.7613567196
 10
-80.6323447681
 20
185.7814426141
 10
-80.656476322
 20
185.8037386947
 10
-80.6808545387
 20
185.8282006884
 10
-80.7050079009
 20
185.8548728681
 10
-80.7284913065
 20
185.8842014333
 10
-80.7513956556
 20
185.9162568827
 10
-80.7736300482
 20
185.9509687175
 10
-80.7944766824
 20
185.98857164
 10
-80.8136546882
 20
186.0293476392
 10
-80.8314449357
 20
186.073014726
 10
-80.8479722333
 20
186.1189616356
 10
-80.863212352
 20
186.1669439202
 10
-80.8771895208
 20
186.2172060275
 10
-80.8901012346
 20
186.2698700363
 10
-80.9021191886
 20
186.3249487352
 10
-80.9130716877
 20
186.3824293356
 10
-80.9226411416
 20
186.4423955503
 10
-80.9306340677
 20
186.5048905728
 10
-80.9372439486
 20
186.5698712095
 10
-80.9427336416
 20
186.6372915929
 10
-80.9473850252
 20
186.7072905371
 10
-80.9509162208
 20
186.779729228
 10
-80.9527444496
 20
186.8541453552
 10
-80.9525449799
 20
186.9319221049
 10
-80.9506425435
 20
187.0116762909
 10
-80.9474285572
 20
187.0887960447
 10
-80.9430805432
 20
187.161846454
 10
-80.9374209794
 20
187.232262431
 10
-80.9303087159
 20
187.2997368439
 10
-80.9216494885
 20
187.364061105
 10
-80.9115375614
 20
187.425443802
 10
-80.9001145775
 20
187.484203565
 10
-80.8873992711
 20
187.5402475029
 10
-80.8733729078
 20
187.5936685068
 10
-80.858120927
 20
187.6450638807
 10
-80.8419161832
 20
187.6947690143
 10
-80.824485822
 20
187.7424485178
  0
LWPOLYLINE
  5
3FC
100
AcDbEntity
  8
0
100
AcDbPolyline
 62
7
  6
CONTINUOUS
 90
14
 70
0
 10
-134.9676834901
 20
63.6554909083
 10
-134.9362637098
 20
63.6196408998
 10
-134.9023690979
 20
63.5856270638
 10
-134.8658850473
 20
63.5536426235
 10
-134.8256988375
 20
63.5230667491
 10
-134.7815113872
 20
63.4934688182
 10
-134.7336217777
 20
63.4652794532
 10
-134.6818145315
 20
63.4391696914
 10
-134.625474425
 20
63.4149678044
 10
-134.5652166817
 20
63.3928455206
 10
-134.5026714955
 20
63.3739890633
 10
-134.438382264
 20
63.3587938401
 10
-134.3718055895
 20
63.3468644434
 10
-134.3029414719
 20
63.3382008731
  0
LWPOLYLINE
  5
3FD
100
AcDbEntity
  8
0
100
AcDbPolyline
 62
7
  6
CONTINUOUS
 90
3
 70
0
 10
-132.8924547301
 20
64.1237332106
 10
-132.9902839945
 20
64.2374817909
 10
-133.0407909353
 20
64.2969007664
  0
LWPOLYLINE
  5
3FE
100
AcDbEntity
  8
0
100
AcDbPolyline
 62
7
  6
CONTINUOUS
 90
24
 70
0
 10
-133.2165991124
 20
63.9697865075
 10
-133.1642911929
 20
63.9077707512
 10
-133.1126002947
 20
63.8484213486
 10
-133.061581045
 20
63.7916761879
 10
-133.0111788166
 20
63.7375973807
 10
-132.9612297284
 20
63.6863712626
 10
-132.9116878292
 20
63.6380473891
 10
-132.8625990701
 20
63.5925762047
 10
-132.8139374231
 20
63.5499953783
 10
-132.765644912
 20
63.5102308278
 10
-132.7177795131
 20
63.4733566352
 10
-132.6704891269
 20
63.4396327154
 10
-132.6237693348
 20
63.4091698229
 10
-132.5776245554
 20
63.3818572031
 10
-132.5322159457
 20
63.3576225067
 10
-132.4875199674
 20
63.3365384698
 10
-132.4435601588
 20
63.3185323563
 10
-132.400568292
 20
63.3033136088
 10
-132.3584931037
 20
63.2908845532
 10
-132.3173858573
 20
63.2812428635
 10
-132.2776321147
 20
63.2740910043
 10
-132.2393603966
 20
63.2693297968
 10
-132.2024421823
 20
63.2670584198
 10
-132.1668774719
 20
63.2672768731
  0
LWPOLYLINE
  5
3FF
100
AcDbEntity
  8
0
100
AcDbPolyline
 62
7
  6
CONTINUOUS
 90
60
 70
0
 10
-133.0407909353
 20
64.2969007664
 10
-133.1571741431
 20
64.4357002881
 10
-133.2209977186
 20
64.5102666716
 10
-133.2837500002
 20
64.5818236786
 10
-133.3453079664
 20
64.650553054
 10
-133.4057946387
 20
64.7162730527
 10
-133.4655790815
 20
64.77843844
 10
-133.5247412968
 20
64.8369647412
 10
-133.5832012826
 20
64.8919364308
 10
-133.6410880968
 20
64.9430616977
 10
-133.6985084424
 20
64.9904298888
 10
-133.7553556163
 20
65.0339516572
 10
-133.8114385677
 20
65.0730671506
 10
-133.8665676359
 20
65.1074607336
 10
-133.9209324815
 20
65.1374480416
 10
-133.9749110352
 20
65.1634161292
 10
-134.0286162776
 20
65.1853366384
 10
-134.081935228
 20
65.2032379271
 10
-134.1349068753
 20
65.2175921243
 10
-134.187472441
 20
65.2284959305
 10
-134.2396907037
 20
65.2358526451
 10
-134.2917769877
 20
65.2398442951
 10
-134.3437476298
 20
65.2405271597
 10
-134.3955862932
 20
65.2378449596
 10
-134.4474592924
 20
65.2318108842
 10
-134.4997866397
 20
65.2223514339
 10
-134.5521483229
 20
65.2095401081
 10
-134.6034506197
 20
65.193610595
 10
-134.6537566215
 20
65.174404166
 10
-134.7030032368
 20
65.1520795496
 10
-134.7499074698
 20
65.1273466189
 10
-134.7941323769
 20
65.1003170144
 10
-134.8360149016
 20
65.0708790955
 10
-134.8752828786
 20
65.0394078138
 10
-134.9117069597
 20
65.0061650695
 10
-134.9455164932
 20
64.9708889623
 10
-134.9771273585
 20
64.9331687428
 10
-135.0067142039
 20
64.8929557437
 10
-135.0341023812
 20
64.8502986322
 10
-135.059183825
 20
64.8049326611
 10
-135.082066964
 20
64.7568825136
 10
-135.1026433696
 20
64.7061235063
 10
-135.1204796901
 20
64.6523168418
 10
-135.1355476886
 20
64.5954571547
 10
-135.147875602
 20
64.5355498104
 10
-135.1571147905
 20
64.4722721064
 10
-135.1632558883
 20
64.4043024929
 10
-135.1663082611
 20
64.3329625198
 10
-135.1659513651
 20
64.2618941344
 10
-135.161973743
 20
64.1912033072
 10
-135.1545868521
 20
64.1207840677
 10
-135.1441045202
 20
64.0539604517
 10
-135.1303835897
 20
63.9918662233
 10
-135.1135672183
 20
63.9333676183
 10
-135.0943987069
 20
63.8783873803
 10
-135.0729486223
 20
63.8269959144
 10
-135.0491463978
 20
63.7791228155
 10
-135.0235236342
 20
63.7344796117
 10
-134.9965138317
 20
63.6933703124
 10
-134.9676834901
 20
63.6554909083
  0
LWPOLYLINE
  5
400
100
AcDbEntity
  8
0
100
AcDbPolyline
 62
7
  6
CONTINUOUS
 90
16
 70
0
 10
-135.0596780217
 20
66.1276482838
 10
-135.0352956677
 20
66.083990631
 10
-135.0088995869
 20
66.0433294866
 10
-134.980097719
 20
66.0047308324
 10
-134.949110424
 20
65.9681494535
 10
-134.9157173419
 20
65.9336305649
 10
-134.878865333
 20
65.9003757919
 10
-134.838312423
 20
65.867961423
 10
-134.7943005863
 20
65.8368111698
 10
-134.7465026064
 20
65.8073977927
 10
-134.694401923
 20
65.7794953444
 10
-134.6385150965
 20
65.7533297721
 10
-134.5800645916
 20
65.7300516786
 10
-134.5194578967
 20
65.710044598
 10
-134.4562875235
 20
65.6929249962
 10
-134.3905534719
 20
65.6786928731
  0
LWPOLYLINE
  5
401
100
AcDbEntity
  8
0
100
AcDbPolyline
 62
7
  6
CONTINUOUS
 90
52
 70
0
 10
-133.7886773312
 20
67.0402642085
 10
-133.8126900522
 20
67.0878593395
 10
-133.838195804
 20
67.132331855
 10
-133.8651945865
 20
67.173681755
 10
-133.8939271839
 20
67.2119445619
 10
-133.924152812
 20
67.2470847534
 10
-133.9551491184
 20
67.2789957621
 10
-133.9865019874
 20
67.3073968445
 10
-134.0186255346
 20
67.3325687441
 10
-134.052039755
 20
67.355247125
 10
-134.0867770979
 20
67.375604381
 10
-134.122805114
 20
67.3934681182
 10
-134.1605464501
 20
67.409056819
 10
-134.2003699128
 20
67.4225811005
 10
-134.2419066956
 20
67.4338303457
 10
-134.2844730251
 20
67.4423911856
 10
-134.3281036994
 20
67.4482025887
 10
-134.3727639204
 20
67.4513255867
 10
-134.4176655207
 20
67.451529906
 10
-134.4627788792
 20
67.4487277038
 10
-134.5081336169
 20
67.4430068229
 10
-134.5530304288
 20
67.4344005188
 10
-134.5974472219
 20
67.4228751784
 10
-134.6414060893
 20
67.4084644148
 10
-134.684274005
 20
67.3913023222
 10
-134.7258814215
 20
67.3714732342
 10
-134.7663978865
 20
67.3488928171
 10
-134.8056990167
 20
67.3234421643
 10
-134.8438359036
 20
67.2950906427
 10
-134.8807574559
 20
67.2638688854
 10
-134.916186016
 20
67.2297498844
 10
-134.950292863
 20
67.1925359621
 10
-134.9829067179
 20
67.1524247961
 10
-135.0132360855
 20
67.1099824115
 10
-135.0411787161
 20
67.065266931
 10
-135.0668368594
 20
67.0182202317
 10
-135.0897257703
 20
66.9692339706
 10
-135.1097815627
 20
66.9184221088
 10
-135.1270681226
 20
66.865670685
 10
-135.1412923634
 20
66.8110294725
 10
-135.1524825589
 20
66.7542270224
 10
-135.1606104352
 20
66.6955347836
 10
-135.1652980836
 20
66.6358168754
 10
-135.166393186
 20
66.574626682
 10
-135.1640480605
 20
66.5124108193
 10
-135.158341753
 20
66.451373254
 10
-135.1490783583
 20
66.3917542627
 10
-135.1364537815
 20
66.3333135689
 10
-135.1211347834
 20
66.2775343103
 10
-135.1031167193
 20
66.2247991752
 10
-135.0824042339
 20
66.1747254753
 10
-135.0596780217
 20
66.1276482838
  0
LWPOLYLINE
  5
402
100
AcDbEntity
  8
ASSI
100
AcDbPolyline
 62
7
  6
CONTINUOUS
 90
14
 70
0
 10
-147.7828660435
 20
76.6462888731
 10
-147.7860525192
 20
76.6448219203
 10
-147.7924158612
 20
76.6332632737
 10
-147.7987695649
 20
76.6101110883
 10
-147.8051136591
 20
76.5754002564
 10
-147.8114290121
 20
76.5292354548
 10
-147.8177155372
 20
76.4715821072
 10
-147.8239733211
 20
76.4024747899
 10
-147.8301834923
 20
76.3221219089
 10
-147.8363459071
 20
76.2304895167
 10
-147.8424607092
 20
76.1276115608
 10
-147.8485094583
 20
76.0137982884
 10
-147.8544919551
 20
75.8890166888
 10
-147.8662409474
 20
75.6070568197
  0
LWPOLYLINE
  5
403
100
AcDbEntity
  8
0
100
AcDbPolyline
 62
7
  6
CONTINUOUS
 90
9
 70
0
 10
-132.5173254719
 20
63.7781513395
 10
-132.564130285
 20
63.80857679
 10
-132.6109294886
 20
63.8428122209
 10
-132.6577230826
 20
63.8808576323
 10
-132.704422489
 20
63.9230564349
 10
-132.7511162858
 20
63.969065218
 10
-132.7980702071
 20
64.0178537493
 10
-132.8451324064
 20
64.0694036058
 10
-132.8924547301
 20
64.1237332106
  0
LWPOLYLINE
  5
404
100
AcDbEntity
  8
0
100
AcDbPolyline
 62
7
  6
CONTINUOUS
 90
10
 70
0
 10
-79.6273524563
 20
186.5136982696
 10
-79.6324403542
 20
186.4659653414
 10
-79.6388289868
 20
186.4188014922
 10
-79.6465183541
 20
186.3722067221
 10
-79.6555552876
 20
186.3260716513
 10
-79.6658929559
 20
186.2805056595
 10
-79.6773908643
 20
186.2358368861
 10
-79.6900021815
 20
186.1921747109
 10
-79.7037737388
 20
186.1494097541
 10
-79.7187055363
 20
186.1075420157
  0
LWPOLYLINE
  5
405
100
AcDbEntity
  8
ASSI
100
AcDbPolyline
 62
7
  6
CONTINUOUS
 90
14
 70
0
 10
-147.7828660435
 20
53.6462888731
 10
-147.7796795678
 20
53.647755826
 10
-147.7733162258
 20
53.6593144725
 10
-147.7669625221
 20
53.6824666579
 10
-147.7606184279
 20
53.7171774899
 10
-147.7543030749
 20
53.7633422915
 10
-147.7480165498
 20
53.8209956391
 10
-147.7417587659
 20
53.8901029563
 10
-147.7355485947
 20
53.9704558374
 10
-147.7293861799
 20
54.0620882295
 10
-147.7232713778
 20
54.1649661855
 10
-147.7172226287
 20
54.2787794579
 10
-147.7112401319
 20
54.4035610574
 10
-147.6994911396
 20
54.6855209266
  0
LWPOLYLINE
  5
406
100
AcDbEntity
  8
0
100
AcDbPolyline
 62
7
  6
CONTINUOUS
 90
21
 70
0
 10
-134.2989610371
 20
67.0695188863
 10
-134.2674058438
 20
67.0627432589
 10
-134.2373618713
 20
67.0539643103
 10
-134.2090506171
 20
67.0433817287
 10
-134.1822505837
 20
67.0307958259
 10
-134.1562561363
 20
67.0158878658
 10
-134.1309113337
 20
66.998724079
 10
-134.1063721171
 20
66.9792382349
 10
-134.0824006752
 20
66.9569129056
 10
-134.0586793743
 20
66.9315922657
 10
-134.0355258481
 20
66.9034321406
 10
-134.0136551866
 20
66.8723825789
 10
-133.9930713725
 20
66.8384466206
 10
-133.973770423
 20
66.8016212258
 10
-133.9564554798
 20
66.761847323
 10
-133.9411060487
 20
66.7189517634
 10
-133.927742624
 20
66.6731076958
 10
-133.9171298292
 20
66.6247754952
 10
-133.9095225391
 20
66.57410862
 10
-133.904665879
 20
66.5209536117
 10
-133.9025598489
 20
66.4653104705
  0
LINE
  5
407
100
AcDbEntity
  8
0
100
AcDbLine
 62
7
  6
CONTINUOUS
 10
-82.5676934719
 20
187.9804728731
 11
-82.5676934719
 21
185.4462888731
  0
LINE
  5
408
100
AcDbEntity
  8
0
100
AcDbLine
 62
7
  6
CONTINUOUS
 10
-82.2855614719
 20
185.4462888731
 11
-82.2855614719
 21
188.3490888731
  0
LINE
  5
409
100
AcDbEntity
  8
0
100
AcDbLine
 62
7
  6
CONTINUOUS
 10
-81.2668774719
 20
-39.0498041954
 11
-81.2668774719
 21
-37.9237791934
  0
LINE
  5
40A
100
AcDbEntity
  8
0
100
AcDbLine
 62
7
  6
CONTINUOUS
 10
-81.2668774719
 20
-17.7836430603
 11
-81.2668774719
 21
-16.6576180583
  0
LINE
  5
40B
100
AcDbEntity
  8
0
100
AcDbLine
 62
7
  6
CONTINUOUS
 10
-81.2668774719
 20
53.9501958046
 11
-81.2668774719
 21
55.0762208066
  0
LINE
  5
40C
100
AcDbEntity
  8
0
100
AcDbLine
 62
7
  6
CONTINUOUS
 10
-81.2668774719
 20
75.2163569397
 11
-81.2668774719
 21
76.3423819417
  0
LINE
  5
40D
100
AcDbEntity
  8
0
100
AcDbLine
 62
7
  6
CONTINUOUS
 10
-81.2668774719
 20
146.9501958046
 11
-81.2668774719
 21
148.0762208066
  0
LINE
  5
40E
100
AcDbEntity
  8
0
100
AcDbLine
 62
7
  6
CONTINUOUS
 10
-81.2668774719
 20
168.2163569397
 11
-81.2668774719
 21
169.3423819417
  0
LINE
  5
40F
100
AcDbEntity
  8
0
100
AcDbLine
 62
7
  6
CONTINUOUS
 10
-79.0668774719
 20
169.3423819417
 11
-79.0668774719
 21
168.2163569397
  0
LINE
  5
410
100
AcDbEntity
  8
0
100
AcDbLine
 62
7
  6
CONTINUOUS
 10
-79.0668774719
 20
148.0762208066
 11
-79.0668774719
 21
146.9501958046
  0
LINE
  5
411
100
AcDbEntity
  8
0
100
AcDbLine
 62
7
  6
CONTINUOUS
 10
-79.0668774719
 20
76.3423819417
 11
-79.0668774719
 21
75.2163569397
  0
LINE
  5
412
100
AcDbEntity
  8
0
100
AcDbLine
 62
7
  6
CONTINUOUS
 10
-79.0668774719
 20
55.0762208066
 11
-79.0668774719
 21
53.9501958046
  0
LINE
  5
413
100
AcDbEntity
  8
0
100
AcDbLine
 62
7
  6
CONTINUOUS
 10
-79.0668774719
 20
-16.6576180583
 11
-79.0668774719
 21
-17.7836430603
  0
LINE
  5
414
100
AcDbEntity
  8
0
100
AcDbLine
 62
7
  6
CONTINUOUS
 10
-79.0668774719
 20
-37.9237791934
 11
-79.0668774719
 21
-39.0498041954
  0
LWPOLYLINE
  5
415
100
AcDbEntity
  8
0
100
AcDbPolyline
 62
7
  6
CONTINUOUS
 90
31
 70
0
 10
-77.5377617902
 20
187.637418587
 10
-77.5393929573
 20
187.5957581957
 10
-77.5428361171
 20
187.556083737
 10
-77.5480912696
 20
187.5183952109
 10
-77.5552596672
 20
187.4826443284
 10
-77.5642400575
 20
187.4488793785
 10
-77.5747286835
 20
187.4172452279
 10
-77.5866833054
 20
187.3879092344
 10
-77.6001461629
 20
187.3607040401
 10
-77.614940219
 20
187.3352724383
 10
-77.6309475978
 20
187.3116415055
 10
-77.6482861751
 20
187.2897841652
 10
-77.6671325412
 20
187.2692619803
 10
-77.6874749171
 20
187.2500924666
 10
-77.7093250818
 20
187.2322581083
 10
-77.7328949618
 20
187.2152679216
 10
-77.758165294
 20
187.1989309238
 10
-77.7851553415
 20
187.1834380976
 10
-77.8141348197
 20
187.1688714081
 10
-77.8451449344
 20
187.1550827478
 10
-77.8781444799
 20
187.1422202242
 10
-77.9132795545
 20
187.1308101245
 10
-77.9505980019
 20
187.1208686524
 10
-77.9900519785
 20
187.1123796043
 10
-78.0316440515
 20
187.1058206569
 10
-78.0755691577
 20
187.1017121428
 10
-78.1216323604
 20
187.0995337294
 10
-78.1692514174
 20
187.098202096
 10
-78.2182322479
 20
187.0973561356
 10
-78.2687689328
 20
187.0973569552
 10
-78.3208614719
 20
187.0982045548
  0
LWPOLYLINE
  5
416
100
AcDbEntity
  8
0
100
AcDbPolyline
 62
7
  6
CONTINUOUS
 90
13
 70
0
 10
-77.4590930911
 20
186.2388060792
 10
-77.4612046782
 20
186.1976647386
 10
-77.4659893743
 20
186.1569356112
 10
-77.4734471792
 20
186.116618697
 10
-77.4838319213
 20
186.0761104787
 10
-77.4968897722
 20
186.0360144736
 10
-77.5118592474
 20
185.9981412333
 10
-77.5287749261
 20
185.9629075106
 10
-77.547602229
 20
185.9298965527
 10
-77.5674759335
 20
185.8996686536
 10
-77.5881076322
 20
185.8724105779
 10
-77.6097857325
 20
185.8479355609
 10
-77.6325102346
 20
185.8262436027
  0
LINE
  5
417
100
AcDbEntity
  8
DRAFT
100
AcDbLine
 62
7
  6
CONTINUOUS
 10
-146.6668774719
 20
5.9462888731
 11
-146.8029779056
 21
5.8101884395
  0
LINE
  5
418
100
AcDbEntity
  8
0
100
AcDbLine
 62
7
  6
CONTINUOUS
 10
-68.9707844034
 20
64.0462888731
 11
-70.0968094054
 21
64.0462888731
  0
LINE
  5
419
100
AcDbEntity
  8
0
100
AcDbLine
 62
7
  6
CONTINUOUS
 10
-90.2369455385
 20
64.0462888731
 11
-91.3629705405
 21
64.0462888731
  0
LINE
  5
41A
100
AcDbEntity
  8
0
100
AcDbLine
 62
7
  6
CONTINUOUS
 10
-132.1668774719
 20
65.2448048731
 11
-132.5173254719
 21
65.2448048731
  0
LINE
  5
41B
100
AcDbEntity
  8
0
100
AcDbLine
 62
7
  6
CONTINUOUS
 10
-91.3629705405
 20
66.2462888731
 11
-90.2369455385
 21
66.2462888731
  0
LINE
  5
41C
100
AcDbEntity
  8
0
100
AcDbLine
 62
7
  6
CONTINUOUS
 10
-70.0968094054
 20
66.2462888731
 11
-68.9707844034
 21
66.2462888731
  0
LWPOLYLINE
  5
41D
100
AcDbEntity
  8
0
100
AcDbPolyline
 62
7
  6
CONTINUOUS
 90
49
 70
0
 10
-134.2653934719
 20
63.7136808731
 10
-134.3130388405
 20
63.7157806686
 10
-134.3591911378
 20
63.7203817854
 10
-134.4038503636
 20
63.7274842236
 10
-134.4474378419
 20
63.7373606989
 10
-134.4895322488
 20
63.7497384956
 10
-134.5288696126
 20
63.7637994659
 10
-134.5649760979
 20
63.7794356723
 10
-134.5983255401
 20
63.7967550523
 10
-134.6290754742
 20
63.8152632709
 10
-134.6570054617
 20
63.8346589636
 10
-134.6823359411
 20
63.8552434951
 10
-134.7058857625
 20
63.8774266235
 10
-134.7277538669
 20
63.901060295
 10
-134.7478413133
 20
63.9262925635
 10
-134.7666701291
 20
63.9539773491
 10
-134.784560807
 20
63.9843026079
 10
-134.8011928542
 20
64.0170803839
 10
-134.8161268201
 20
64.0526007291
 10
-134.8294817924
 20
64.0913861177
 10
-134.8411386833
 20
64.1329140755
 10
-134.8503007781
 20
64.1759072331
 10
-134.8567629689
 20
64.2207845775
 10
-134.8607303636
 20
64.2671271216
 10
-134.8620215715
 20
64.3124005346
 10
-134.8604586797
 20
64.3560307465
 10
-134.8562196011
 20
64.3985918274
 10
-134.8496566835
 20
64.4392716567
 10
-134.8407560186
 20
64.4777707928
 10
-134.8295315147
 20
64.5143886775
 10
-134.8163772439
 20
64.5492115151
 10
-134.8013445799
 20
64.5822551413
 10
-134.784382149
 20
64.6135037204
 10
-134.7657299021
 20
64.6429959498
 10
-134.7455141592
 20
64.670691919
 10
-134.7236086003
 20
64.6966315385
 10
-134.6998742163
 20
64.7209732375
 10
-134.6742040763
 20
64.743829563
 10
-134.6467051111
 20
64.765087968
 10
-134.617559104
 20
64.7845692409
 10
-134.5865109908
 20
64.8023815964
 10
-134.5538158356
 20
64.8184168197
 10
-134.5204206135
 20
64.8321710545
 10
-134.4864475716
 20
64.843531753
 10
-134.4517744628
 20
64.8526114629
 10
-134.416981521
 20
64.8592439713
 10
-134.3823758219
 20
64.8634080012
 10
-134.3476502899
 20
64.8651248295
 10
-134.3124639314
 20
64.8642920744
  0
LWPOLYLINE
  5
41E
100
AcDbEntity
  8
0
100
AcDbPolyline
 62
7
  6
CONTINUOUS
 90
49
 70
0
 10
-134.1784064089
 20
68.3362149917
 10
-134.2307016394
 20
68.3389259336
 10
-134.2812605598
 20
68.3443574508
 10
-134.3300831699
 20
68.3525095434
 10
-134.3773213406
 20
68.3635519716
 10
-134.422823201
 20
68.3773149752
 10
-134.4661331388
 20
68.3932892736
 10
-134.5070785351
 20
68.4114010087
 10
-134.5458320089
 20
68.4317240387
 10
-134.5824558041
 20
68.4539706566
 10
-134.6169085598
 20
68.4780507536
 10
-134.6492316371
 20
68.5040544386
 10
-134.6796113627
 20
68.5319643316
 10
-134.7082449726
 20
68.5619932745
 10
-134.7349352308
 20
68.5939284254
 10
-134.7592767562
 20
68.6271138783
 10
-134.7812657432
 20
68.66170606
 10
-134.8009059974
 20
68.6975485438
 10
-134.8178035535
 20
68.7335161424
 10
-134.8317835058
 20
68.7694455754
 10
-134.8430207601
 20
68.8055001234
 10
-134.8516460682
 20
68.8410444412
 10
-134.8576446172
 20
68.8756874441
 10
-134.8610312201
 20
68.9098202169
 10
-134.8619810678
 20
68.9439806687
 10
-134.8605959211
 20
68.9782464952
 10
-134.8567740191
 20
69.0125400006
 10
-134.8503852705
 20
69.0471660064
 10
-134.8413505291
 20
69.0825513175
 10
-134.8297489411
 20
69.118269129
 10
-134.8156878536
 20
69.153343847
 10
-134.7989937261
 20
69.187821577
 10
-134.7798400991
 20
69.2216562135
 10
-134.7588549414
 20
69.2537338457
 10
-134.7362492985
 20
69.2836997075
 10
-134.711812125
 20
69.3119085649
 10
-134.6855382531
 20
69.3383108047
 10
-134.6576939477
 20
69.3627850815
 10
-134.628012944
 20
69.3854527407
 10
-134.5956912797
 20
69.4066282043
 10
-134.5605422357
 20
69.4265715046
 10
-134.522752531
 20
69.4450226093
 10
-134.4820783605
 20
69.4615158435
 10
-134.4384398577
 20
69.4761058987
 10
-134.3919168891
 20
69.4887380834
 10
-134.3425052481
 20
69.4987826481
 10
-134.2902035328
 20
69.5060296764
 10
-134.2350131451
 20
69.5106890848
 10
-134.1769340851
 20
69.5127608731
  0
LWPOLYLINE
  5
41F
100
AcDbEntity
  8
0
100
AcDbPolyline
 62
7
  6
CONTINUOUS
 90
25
 70
0
 10
-134.3124639314
 20
64.8642920744
 10
-134.276849633
 20
64.8609452365
 10
-134.2407745081
 20
64.8550488153
 10
-134.2037989038
 20
64.8463939265
 10
-134.1657093452
 20
64.834962107
 10
-134.1267193071
 20
64.8207718199
 10
-134.0870295606
 20
64.8036695709
 10
-134.046658122
 20
64.7835418403
 10
-134.005586975
 20
64.7605021477
 10
-133.9639628419
 20
64.7347375574
 10
-133.9218275964
 20
64.7062669878
 10
-133.8791393649
 20
64.6750715205
 10
-133.8359192488
 20
64.6412814644
 10
-133.7921844437
 20
64.604985926
 10
-133.747917754
 20
64.5660957987
 10
-133.703088694
 20
64.5244740715
 10
-133.6577208846
 20
64.4800373277
 10
-133.6117907049
 20
64.4328689839
 10
-133.5651968059
 20
64.383082279
 10
-133.5179783142
 20
64.330534749
 10
-133.4700961032
 20
64.2753688578
 10
-133.4213314445
 20
64.218125236
 10
-133.3716114285
 20
64.1589840938
 10
-133.3210089648
 20
64.0977652209
 10
-133.2165991124
 20
63.9697865075
  0
LINE
  5
420
100
AcDbEntity
  8
0
100
AcDbLine
 62
7
  6
CONTINUOUS
 10
-133.9066014867
 20
66.406054875
 11
-133.5853575182
 21
66.365247879
  0
LWPOLYLINE
  5
421
100
AcDbEntity
  8
0
100
AcDbPolyline
 62
7
  6
CONTINUOUS
 90
47
 70
0
 10
-134.3238014719
 20
66.0458288731
 10
-134.374576628
 20
66.0548335334
 10
-134.4227879886
 20
66.0656390339
 10
-134.4684355538
 20
66.0782453748
 10
-134.5116748626
 20
66.0928232982
 10
-134.552350376
 20
66.109202062
 10
-134.5899954763
 20
66.1268694393
 10
-134.6242916241
 20
66.1456741117
 10
-134.6555573588
 20
66.1657673976
 10
-134.6842816807
 20
66.1870910249
 10
-134.710388147
 20
66.2094375313
 10
-134.7339532005
 20
66.233014379
 10
-134.7556951703
 20
66.2583856827
 10
-134.7758647611
 20
66.2856837757
 10
-134.7942112681
 20
66.3147763246
 10
-134.8107009056
 20
66.3458304448
 10
-134.8255030064
 20
66.379154597
 10
-134.8384482378
 20
66.4144403204
 10
-134.8489948153
 20
66.4509293472
 10
-134.8570507062
 20
66.4887349126
 10
-134.8627079432
 20
66.5277437816
 10
-134.8657008406
 20
66.566857981
 10
-134.8658758554
 20
66.6061037046
 10
-134.8633865305
 20
66.6454547586
 10
-134.8584278092
 20
66.6837345895
 10
-134.8508757167
 20
66.7208557518
 10
-134.8408542278
 20
66.7569056908
 10
-134.8289302102
 20
66.7909701887
 10
-134.8151515312
 20
66.8227789926
 10
-134.7994703234
 20
66.8526023553
 10
-134.7823098522
 20
66.8803368172
 10
-134.7639190946
 20
66.9057781888
 10
-134.7440490736
 20
66.9291306596
 10
-134.7223761238
 20
66.9509033382
 10
-134.6989226821
 20
66.9712399779
 10
-134.6736663115
 20
66.9899968255
 10
-134.6462160353
 20
67.0072517305
 10
-134.6162161144
 20
67.0232488463
 10
-134.5840222879
 20
67.0377440195
 10
-134.5503107966
 20
67.0500826394
 10
-134.5147683421
 20
67.0601763786
 10
-134.4777082228
 20
67.0681135645
 10
-134.4407465746
 20
67.0735045688
 10
-134.4039374791
 20
67.0761320049
 10
-134.3672268547
 20
67.0762132593
 10
-134.3320685926
 20
67.0740108639
 10
-134.2989610371
 20
67.0695188863
  0
LWPOLYLINE
  5
422
100
AcDbEntity
  8
0
100
AcDbPolyline
 62
7
  6
CONTINUOUS
 90
10
 70
0
 10
-79.6273524563
 20
187.2877654444
 10
-79.6228232826
 20
187.1995593211
 10
-79.6194165014
 20
187.1124644233
 10
-79.6171321126
 20
187.026480751
 10
-79.615956915
 20
186.9423570516
 10
-79.6159041097
 20
186.8593445778
 10
-79.6170133008
 20
186.7751970869
 10
-79.6192976896
 20
186.6891658315
 10
-79.6227440748
 20
186.6019995591
 10
-79.6273524563
 20
186.5136982696
  0
LWPOLYLINE
  5
423
100
AcDbEntity
  8
0
100
AcDbPolyline
 62
7
  6
CONTINUOUS
 90
52
 70
0
 10
-77.2548617902
 20
187.6454904601
 10
-77.2569395714
 20
187.698505444
 10
-77.2612013631
 20
187.7489509941
 10
-77.2676471654
 20
187.7968271103
 10
-77.2764617448
 20
187.8421394367
 10
-77.2874603349
 20
187.8848823291
 10
-77.3000886356
 20
187.9250388553
 10
-77.314377676
 20
187.9625433608
 10
-77.3302964271
 20
187.9974614999
 10
-77.3471975021
 20
188.0299733038
 10
-77.3650559468
 20
188.0600175986
 10
-77.3838967155
 20
188.0876555581
 10
-77.4031472843
 20
188.1132507347
 10
-77.4226832131
 20
188.136750623
 10
-77.4426289421
 20
188.1582077282
 10
-77.4627852671
 20
188.1781431194
 10
-77.48274354
 20
188.1963424057
 10
-77.502912409
 20
188.2130199779
 10
-77.5243186153
 20
188.2293400771
 10
-77.5471739288
 20
188.2457001523
 10
-77.5712665796
 20
188.2617027544
 10
-77.596987999
 20
188.2773197782
 10
-77.6243839122
 20
188.2926658241
 10
-77.6534085941
 20
188.3076262916
 10
-77.6843163
 20
188.3218292738
 10
-77.7171263786
 20
188.3353007107
 10
-77.7518194813
 20
188.3480146623
 10
-77.7885918179
 20
188.3595214024
 10
-77.8274714231
 20
188.3698277894
 10
-77.8684302623
 20
188.3789269649
 10
-77.911580442
 20
188.3863486272
 10
-77.956932806
 20
188.3921250871
 10
-78.0044765105
 20
188.3962240337
 10
-78.0542911304
 20
188.3980782326
 10
-78.1071459357
 20
188.3977701864
 10
-78.1622716565
 20
188.3952173926
 10
-78.2174400566
 20
188.3896051092
 10
-78.2727760279
 20
188.3805390717
 10
-78.3281546787
 20
188.3684135447
 10
-78.3809730982
 20
188.3535965795
 10
-78.4300856309
 20
188.3362279092
 10
-78.4766379324
 20
188.3161678007
 10
-78.5214640579
 20
188.2933651058
 10
-78.5646557915
 20
188.2679946777
 10
-78.6061213491
 20
188.2398816632
 10
-78.6464194345
 20
188.2084503549
 10
-78.6856956538
 20
188.173810483
 10
-78.723804401
 20
188.1358523173
 10
-78.7608675613
 20
188.0936709599
 10
-78.7969257631
 20
188.0469647782
 10
-78.8319383782
 20
187.9960354047
 10
-78.8659054063
 20
187.9408828396
  0
LINE
  5
424
100
AcDbEntity
  8
0
100
AcDbLine
 62
7
  6
CONTINUOUS
 10
-78.3208614719
 20
187.0982045548
 11
-78.3208614719
 21
186.8324732512
  0
LWPOLYLINE
  5
425
100
AcDbEntity
  8
0
100
AcDbPolyline
 62
7
  6
CONTINUOUS
 90
61
 70
0
 10
-132.8594294719
 20
68.0150128731
 10
-132.7991377519
 20
68.0247350581
 10
-132.7407302848
 20
68.0374546745
 10
-132.6842070707
 20
68.0531717223
 10
-132.629063269
 20
68.0722499955
 10
-132.5758037202
 20
68.0943257
 10
-132.5259429457
 20
68.1183074543
 10
-132.4800222621
 20
68.1440300915
 10
-132.4375003527
 20
68.1716587785
 10
-132.3982677891
 20
68.2005976339
 10
-132.3626216312
 20
68.2304245657
 10
-132.3302648191
 20
68.261561666
 10
-132.3001967439
 20
68.29467933
 10
-132.2721712181
 20
68.3298117086
 10
-132.2464344292
 20
68.3669246509
 10
-132.222724332
 20
68.4065860995
 10
-132.2007940619
 20
68.4489156211
 10
-132.1808904834
 20
68.4937936489
 10
-132.1634921447
 20
68.5414294254
 10
-132.1485856045
 20
68.5918164652
 10
-132.136184304
 20
68.6449612536
 10
-132.1268071153
 20
68.7010924886
 10
-132.1205059363
 20
68.7613376569
 10
-132.117228869
 20
68.8245692717
 10
-132.1173390915
 20
68.8876335708
 10
-132.1210417488
 20
68.9502235762
 10
-132.1281316958
 20
69.0126462659
 10
-132.138356675
 20
69.0726688117
 10
-132.1516896476
 20
69.1293487648
 10
-132.1681576523
 20
69.1836285741
 10
-132.1875895484
 20
69.2361027585
 10
-132.209931163
 20
69.2869310924
 10
-132.2352366689
 20
69.3359538013
 10
-132.2634974433
 20
69.3832860805
 10
-132.2946196501
 20
69.4289411836
 10
-132.3286971253
 20
69.4729058569
 10
-132.3660027545
 20
69.5152555345
 10
-132.4064651769
 20
69.5560721017
 10
-132.4501557532
 20
69.5952736733
 10
-132.4975614514
 20
69.6326900275
 10
-132.5485935177
 20
69.6683553251
 10
-132.6033407058
 20
69.7022354054
 10
-132.6625562447
 20
69.7340575642
 10
-132.7264569215
 20
69.7639234106
 10
-132.7948259491
 20
69.7917313356
 10
-132.8677661944
 20
69.8169038086
 10
-132.9453345498
 20
69.8392749621
 10
-133.027474123
 20
69.8590106636
 10
-133.1141171037
 20
69.8760309849
 10
-133.2058753914
 20
69.8902855782
 10
-133.3021370867
 20
69.9018247913
 10
-133.4009986818
 20
69.91071974
 10
-133.5036810967
 20
69.9168299213
 10
-133.6089634114
 20
69.9202958381
 10
-133.7112793572
 20
69.9216101156
 10
-133.8089839291
 20
69.9209794506
 10
-133.903722132
 20
69.9181971462
 10
-133.9948627121
 20
69.9131357374
 10
-134.0822446963
 20
69.9058224964
 10
-134.1660290576
 20
69.896230151
 10
-134.2460674609
 20
69.8841494193
  0
LWPOLYLINE
  5
426
100
AcDbEntity
  8
0
100
AcDbPolyline
 62
7
  6
CONTINUOUS
 90
20
 70
0
 10
-133.1776198346
 20
67.5914393036
 10
-133.2292825802
 20
67.5837272083
 10
-133.2784117919
 20
67.5731973506
 10
-133.3253019035
 20
67.5598762629
 10
-133.3696342659
 20
67.5443639301
 10
-133.4111212828
 20
67.526858547
 10
-133.4500505506
 20
67.5071619187
 10
-133.4869662092
 20
67.4852794456
 10
-133.5218583718
 20
67.4613704457
 10
-133.5547369252
 20
67.4352756009
 10
-133.5861756694
 20
67.406522358
 10
-133.6164713323
 20
67.3749417252
 10
-133.645327186
 20
67.3407026943
 10
-133.6724268467
 20
67.3038396875
 10
-133.6979920629
 20
67.2638961339
 10
-133.7218010861
 20
67.2213286043
 10
-133.7428722874
 20
67.1775412335
 10
-133.7608784572
 20
67.1330020664
 10
-133.7761468051
 20
67.0872430581
 10
-133.7886773312
 20
67.0402642085
  0
LWPOLYLINE
  5
427
100
AcDbEntity
  8
0
100
AcDbPolyline
 62
7
  6
CONTINUOUS
 90
54
 70
0
 10
-132.9595574719
 20
65.6411448731
 10
-132.9029609297
 20
65.6484246951
 10
-132.8466903298
 20
65.6591670445
 10
-132.7907456723
 20
65.6733719212
 10
-132.7345478081
 20
65.6912592766
 10
-132.6786758862
 20
65.7126091593
 10
-132.6248673539
 20
65.7367617156
 10
-132.5733815947
 20
65.7637905159
 10
-132.5239592249
 20
65.7936219898
 10
-132.4775595407
 20
65.8253755718
 10
-132.4345991417
 20
65.8587543821
 10
-132.3946614283
 20
65.8940553004
 10
-132.3574558965
 20
65.9312884003
 10
-132.3230068325
 20
65.9703213934
 10
-132.2912899502
 20
66.011286568
 10
-132.2619418872
 20
66.054590863
 10
-132.234709029
 20
66.1004469474
 10
-132.20984499
 20
66.1486421521
 10
-132.1877472513
 20
66.1989454085
 10
-132.1684297016
 20
66.2512231389
 10
-132.1518784522
 20
66.3056089211
 10
-132.1384493171
 20
66.3622724188
 10
-132.1281034722
 20
66.4214632791
 10
-132.1208797416
 20
66.4829318551
 10
-132.1172504128
 20
66.5460988693
 10
-132.1173514716
 20
66.6115664907
 10
-132.1210469322
 20
66.6787325503
 10
-132.128401124
 20
66.7452112633
 10
-132.1396391186
 20
66.8107991147
 10
-132.1545358444
 20
66.8756996195
 10
-132.1724804172
 20
66.9381375382
 10
-132.1935436565
 20
66.9977782123
 10
-132.2176547428
 20
67.0549563001
 10
-132.2439903333
 20
67.1089005369
 10
-132.2723665035
 20
67.1592539546
 10
-132.3029671779
 20
67.2063735212
 10
-132.3355207868
 20
67.2505588757
 10
-132.3697207507
 20
67.2916386626
 10
-132.4058736492
 20
67.3297842374
 10
-132.4446276517
 20
67.3658093055
 10
-132.4862556385
 20
67.4000932067
 10
-132.5304847292
 20
67.4322566013
 10
-132.5771444526
 20
67.4619751749
 10
-132.6265062841
 20
67.4893589588
 10
-132.6782987482
 20
67.5142979218
 10
-132.7315369471
 20
67.5361376558
 10
-132.7862843511
 20
67.5547642476
 10
-132.8424774898
 20
67.5702916104
 10
-132.8989410543
 20
67.5824070756
 10
-132.9557191334
 20
67.5909729936
 10
-133.0127676382
 20
67.596127014
 10
-133.0687789929
 20
67.5979694176
 10
-133.1237179888
 20
67.596360169
 10
-133.1776198346
 20
67.5914393036
  0
LINE
  5
428
100
AcDbEntity
  8
0
100
AcDbLine
 62
7
  6
CONTINUOUS
 10
-133.5738844878
 20
69.5544808731
 11
-133.5573071988
 21
69.5551875057
  0
LWPOLYLINE
  5
429
100
AcDbEntity
  8
0
100
AcDbPolyline
 62
7
  6
CONTINUOUS
 90
7
 70
0
 10
-133.5573071988
 20
69.5551875057
 10
-133.5408754621
 20
69.555791033
 10
-133.5327137613
 20
69.5560551423
 10
-133.5245992274
 20
69.5562672088
 10
-133.516535177
 20
69.5564191504
 10
-133.5085182936
 20
69.5565190491
 10
-133.5005485772
 20
69.556566905
  0
LWPOLYLINE
  5
42A
100
AcDbEntity
  8
0
100
AcDbPolyline
 62
7
  6
CONTINUOUS
 90
49
 70
0
 10
-134.1769340851
 20
69.5127608731
 10
-134.1199188725
 20
69.511249457
 10
-134.0657231428
 20
69.5071252865
 10
-134.0143468962
 20
69.5003883618
 10
-133.9657847836
 20
69.4908349981
 10
-133.920042154
 20
69.4786688802
 10
-133.8771350545
 20
69.4645010621
 10
-133.8371112026
 20
69.4483490426
 10
-133.7999228808
 20
69.430195323
 10
-133.7654429845
 20
69.4105984619
 10
-133.7338922525
 20
69.3898449451
 10
-133.7050499459
 20
69.3676482868
 10
-133.6781267443
 20
69.3437075883
 10
-133.6529515532
 20
69.3180390838
 10
-133.629695467
 20
69.2906265391
 10
-133.6080824487
 20
69.2611203532
 10
-133.5878229741
 20
69.229177187
 10
-133.5692065674
 20
69.1951403795
 10
-133.5528257644
 20
69.1596903479
 10
-133.5387515574
 20
69.1226910237
 10
-133.5269129542
 20
69.0842784754
 10
-133.517689514
 20
69.0455413243
 10
-133.5111943128
 20
69.0067491857
 10
-133.5073142746
 20
68.9676324445
 10
-133.5060897312
 20
68.9284708762
 10
-133.5075345846
 20
68.8892689153
 10
-133.5116349328
 20
68.8500221274
 10
-133.5183894003
 20
68.8109969849
 10
-133.5279142146
 20
68.7719137722
 10
-133.5400931483
 20
68.733052205
 10
-133.5545761437
 20
68.6955179023
 10
-133.5714373439
 20
68.6594397307
 10
-133.5906026058
 20
68.6246888236
 10
-133.611499443
 20
68.5919841998
 10
-133.633884417
 20
68.5616376622
 10
-133.6580009663
 20
68.533337408
 10
-133.6840069197
 20
68.5068670471
 10
-133.7117331498
 20
68.4822396075
 10
-133.741348784
 20
68.4594420612
 10
-133.7735190337
 20
68.4382189346
 10
-133.8083972775
 20
68.4183322184
 10
-133.8458301369
 20
68.4000199219
 10
-133.8860226876
 20
68.3837405988
 10
-133.929307557
 20
68.3694048492
 10
-133.9753521177
 20
68.3571020732
 10
-134.0233635638
 20
68.3475590241
 10
-134.0730776267
 20
68.341017953
 10
-134.1247585751
 20
68.3372366089
 10
-134.1784064089
 20
68.3362149917
  0
LWPOLYLINE
  5
42B
100
AcDbEntity
  8
0
100
AcDbPolyline
 62
7
  6
CONTINUOUS
 90
52
 70
0
 10
-133.5005485772
 20
69.556566905
 10
-133.4234781888
 20
69.5540504486
 10
-133.3494764587
 20
69.5493624066
 10
-133.2785433868
 20
69.542502779
 10
-133.2108253815
 20
69.5331895519
 10
-133.1461760344
 20
69.5217047391
 10
-133.0841561211
 20
69.5088943825
 10
-133.0245231891
 20
69.4950965788
 10
-132.9675196909
 20
69.4799732312
 10
-132.9134337598
 20
69.4633560923
 10
-132.8623348735
 20
69.4452313953
 10
-132.8141535543
 20
69.4256129068
 10
-132.768969503
 20
69.4043736799
 10
-132.7268690126
 20
69.3813666899
 10
-132.68776579
 20
69.3567389614
 10
-132.6514806564
 20
69.3308046206
 10
-132.6179481945
 20
69.3034590235
 10
-132.5872338216
 20
69.2748068141
 10
-132.5593546103
 20
69.2454760508
 10
-132.5344623024
 20
69.2157391738
 10
-132.5124051561
 20
69.1853237428
 10
-132.4927450191
 20
69.1540404954
 10
-132.4754110721
 20
69.1219435962
 10
-132.4604741344
 20
69.0889788806
 10
-132.4477085116
 20
69.0547945919
 10
-132.4369598225
 20
69.0191127588
 10
-132.4283824483
 20
68.9822113525
 10
-132.4222138382
 20
68.9445725305
 10
-132.4185314938
 20
68.9059130448
 10
-132.4172579136
 20
68.8665161434
 10
-132.418398043
 20
68.8277137271
 10
-132.4221324451
 20
68.7894713702
 10
-132.4282805567
 20
68.7518234983
 10
-132.4363056342
 20
68.7162052897
 10
-132.4461806721
 20
68.6830743195
 10
-132.4579326757
 20
68.6519730125
 10
-132.4711059181
 20
68.622963822
 10
-132.4854695473
 20
68.5962552682
 10
-132.5012544153
 20
68.5716388308
 10
-132.51869735
 20
68.5485514021
 10
-132.5377101161
 20
68.5269626076
 10
-132.5583809489
 20
68.5069028218
 10
-132.581211383
 20
68.48790006
 10
-132.6062743942
 20
68.4697991072
 10
-132.6334970066
 20
68.4527551784
 10
-132.6631618265
 20
68.4367619349
 10
-132.6955248652
 20
68.4217207193
 10
-132.7303301114
 20
68.4077301889
 10
-132.7670921379
 20
68.3950799759
 10
-132.8056491356
 20
68.3838666243
 10
-132.8461629136
 20
68.37399359
 10
-132.8886334719
 20
68.3654608731
  0
LINE
  5
42C
100
AcDbEntity
  8
DRAFT
100
AcDbLine
 62
7
  6
CONTINUOUS
 10
-13.6668774719
 20
5.9462888731
 11
-13.5307770383
 21
5.8101884395
  0
LWPOLYLINE
  5
42D
100
AcDbEntity
  8
ASSI
100
AcDbPolyline
 62
7
  6
CONTINUOUS
 90
12
 70
0
 10
-125.6668774719
 20
-68.9696996984
 10
-125.6654105191
 20
-68.9665132227
 10
-125.6538518725
 20
-68.9601498807
 10
-125.6306996871
 20
-68.9537961771
 10
-125.5959888552
 20
-68.9474520829
 10
-125.5498240535
 20
-68.9411367298
 10
-125.492170706
 20
-68.9348502048
 10
-125.4230633887
 20
-68.9285924209
 10
-125.3427105076
 20
-68.9223822497
 10
-125.2510781155
 20
-68.9162198349
 10
-125.1482001596
 20
-68.9101050327
 10
-125.0343868871
 20
-68.9040562836
  0
LWPOLYLINE
  5
42E
100
AcDbEntity
  8
0
100
AcDbPolyline
 62
7
  6
CONTINUOUS
 90
40
 70
0
 10
-133.9239206387
 20
67.9811764639
 10
-133.8628230902
 20
67.9940980218
 10
-133.8052708353
 20
68.0100763398
 10
-133.7503982977
 20
68.0287817975
 10
-133.6979937636
 20
68.0502185468
 10
-133.6482689468
 20
68.0743824358
 10
-133.6009934124
 20
68.1009313876
 10
-133.5561455358
 20
68.1297489233
 10
-133.5137469417
 20
68.1609515219
 10
-133.4736320698
 20
68.1945465429
 10
-133.4357875342
 20
68.2304765853
 10
-133.4002267207
 20
68.2687990502
 10
-133.3668242268
 20
68.3096935003
 10
-133.3353192289
 20
68.3534917225
 10
-133.3059725504
 20
68.39986193
 10
-133.2794412595
 20
68.4479883254
 10
-133.2557675868
 20
68.4980903586
 10
-133.2349093015
 20
68.5499485796
 10
-133.2173967795
 20
68.6020888413
 10
-133.2034176831
 20
68.6542475021
 10
-133.19278435
 20
68.7066882036
 10
-133.1854641678
 20
68.7587277239
 10
-133.1814777509
 20
68.8100829781
 10
-133.180804485
 20
68.861037051
 10
-133.1833499159
 20
68.9117559747
 10
-133.1890971218
 20
68.9623862005
 10
-133.1980630245
 20
69.0127812771
 10
-133.2102039346
 20
69.0626678823
 10
-133.2255557128
 20
69.1121814437
 10
-133.2440824984
 20
69.1611865338
 10
-133.2656330207
 20
69.2090035482
 10
-133.2903160987
 20
69.2556747821
 10
-133.3180229133
 20
69.3011579403
 10
-133.3482757361
 20
69.3446465332
 10
-133.3812271355
 20
69.3861531518
 10
-133.416724543
 20
69.4256652051
 10
-133.4538325253
 20
69.4623384302
 10
-133.4922392713
 20
69.4958914061
 10
-133.5322565922
 20
69.5266055537
 10
-133.5738844878
 20
69.5544808731
  0
LWPOLYLINE
  5
42F
100
AcDbEntity
  8
0
100
AcDbPolyline
 62
7
  6
CONTINUOUS
 90
55
 70
0
 10
-134.2460674609
 20
69.8841494193
 10
-134.3224250214
 20
69.8695424201
 10
-134.3950366239
 20
69.8524470346
 10
-134.4635585874
 20
69.8327676238
 10
-134.5275887293
 20
69.8104346235
 10
-134.5875292322
 20
69.785517598
 10
-134.6442429629
 20
69.7581296013
 10
-134.697870719
 20
69.7282512192
 10
-134.7482717028
 20
69.6959018659
 10
-134.7958863879
 20
69.6612528378
 10
-134.8408368755
 20
69.6243078898
 10
-134.8830010645
 20
69.585063267
 10
-134.9224531245
 20
69.5436790018
 10
-134.9592658211
 20
69.5001405672
 10
-134.9933663886
 20
69.4544624901
 10
-135.0246107003
 20
69.4068483848
 10
-135.0530492465
 20
69.3571764467
 10
-135.0786315368
 20
69.3055684803
 10
-135.1010619731
 20
69.2525935125
 10
-135.1203289666
 20
69.1981292496
 10
-135.1364441061
 20
69.1422979853
 10
-135.1491465594
 20
69.0860356278
 10
-135.1583702354
 20
69.0295812384
 10
-135.1641812251
 20
68.9726957557
 10
-135.1665169699
 20
68.9155979043
 10
-135.165357653
 20
68.8582251463
 10
-135.1607230912
 20
68.8006400195
 10
-135.1526101758
 20
68.743248862
 10
-135.1409068744
 20
68.6857682168
 10
-135.1257252195
 20
68.6284815409
 10
-135.1073982002
 20
68.5726455438
 10
-135.0857809197
 20
68.5182888851
 10
-135.0610182749
 20
68.4653829053
 10
-135.0338779451
 20
68.4150983345
 10
-135.0045210072
 20
68.3678063324
 10
-134.9727863843
 20
68.3231357393
 10
-134.9389585253
 20
68.2811438066
 10
-134.9032833123
 20
68.2419999749
 10
-134.8655148631
 20
68.2055348035
 10
-134.82519998
 20
68.1712972218
 10
-134.7821570011
 20
68.1390374282
 10
-134.7365675883
 20
68.1090052243
 10
-134.6885235294
 20
68.0814989447
 10
-134.6382293258
 20
68.0565142211
 10
-134.5854804761
 20
68.0340554217
 10
-134.5297552639
 20
68.0144339856
 10
-134.4709726104
 20
67.997599315
 10
-134.4092135943
 20
67.9836020076
 10
-134.3441997355
 20
67.9729052963
 10
-134.274404403
 20
67.9655816495
 10
-134.2013542277
 20
67.9615585987
 10
-134.1293506223
 20
67.961081972
 10
-134.0589944833
 20
67.9643969333
 10
-133.9896849142
 20
67.9712583185
 10
-133.9239206387
 20
67.9811764639
  0
LWPOLYLINE
  5
430
100
AcDbEntity
  8
ASSI
100
AcDbPolyline
 62
7
  6
CONTINUOUS
 90
12
 70
0
 10
-12.5508889003
 20
53.6462888731
 10
-12.5540753761
 20
53.647755826
 10
-12.5604387181
 20
53.6593144725
 10
-12.5667924217
 20
53.6824666579
 10
-12.5731365159
 20
53.7171774899
 10
-12.5794518689
 20
53.7633422915
 10
-12.585738394
 20
53.8209956391
 10
-12.5919961779
 20
53.8901029563
 10
-12.5982063491
 20
53.9704558374
 10
-12.6043687639
 20
54.0620882295
 10
-12.610483566
 20
54.1649661855
 10
-12.6165323152
 20
54.2787794579
  0
LWPOLYLINE
  5
431
100
AcDbEntity
  8
0
100
AcDbPolyline
 62
7
  6
CONTINUOUS
 90
14
 70
0
 10
-125.6668774719
 20
199.2622774447
 10
-125.6654105191
 20
199.259090969
 10
-125.6538518725
 20
199.252727627
 10
-125.6306996871
 20
199.2463739234
 10
-125.5959888552
 20
199.2400298291
 10
-125.5498240535
 20
199.2337144761
 10
-125.492170706
 20
199.227427951
 10
-125.4230633887
 20
199.2211701671
 10
-125.3427105076
 20
199.2149599959
 10
-125.2510781155
 20
199.2087975811
 10
-125.1482001596
 20
199.202682779
 10
-125.0343868871
 20
199.1966340299
 10
-124.9096052876
 20
199.1906515332
 10
-124.6276454185
 20
199.1789025408
  0
LINE
  5
432
100
AcDbEntity
  8
0
100
AcDbLine
 62
7
  6
CONTINUOUS
 10
-38.6668774719
 20
184.5462888731
 11
-38.6668774719
 21
184.7462888731
  0
LWPOLYLINE
  5
433
100
AcDbEntity
  8
ASSI
100
AcDbPolyline
 62
7
  6
CONTINUOUS
 90
12
 70
0
 10
-102.6668774719
 20
-68.9696996984
 10
-102.6683444248
 20
-68.9728861742
 10
-102.6799030713
 20
-68.9792495162
 10
-102.7030552567
 20
-68.9856032198
 10
-102.7377660887
 20
-68.991947314
 10
-102.7839308903
 20
-68.998262667
 10
-102.8415842379
 20
-69.0045491921
 10
-102.9106915551
 20
-69.010806976
 10
-102.9910444362
 20
-69.0170171472
 10
-103.0826768283
 20
-69.023179562
 10
-103.1855547843
 20
-69.0292943641
 10
-103.2993680567
 20
-69.0353431133
  0
LINE
  5
434
100
AcDbEntity
  8
0
100
AcDbLine
 62
7
  6
CONTINUOUS
 10
-13.6668774719
 20
98.9462888731
 11
-18.1668774719
 21
98.9462888731
  0
LINE
  5
435
100
AcDbEntity
  8
0
100
AcDbLine
 62
7
  6
CONTINUOUS
 10
-142.1668774719
 20
98.9462888731
 11
-146.6668774719
 21
98.9462888731
  0
LINE
  5
436
100
AcDbEntity
  8
0
100
AcDbLine
 62
7
  6
CONTINUOUS
 10
-18.1668774719
 20
102.3462888731
 11
-13.6668774719
 21
102.3462888731
  0
LINE
  5
437
100
AcDbEntity
  8
0
100
AcDbLine
 62
7
  6
CONTINUOUS
 10
-142.1668774719
 20
102.3462888731
 11
-146.6668774719
 21
102.3462888731
  0
LWPOLYLINE
  5
438
100
AcDbEntity
  8
ASSI
100
AcDbPolyline
 62
7
  6
CONTINUOUS
 90
12
 70
0
 10
-12.5508889003
 20
76.6462888731
 10
-12.5477024246
 20
76.6448219203
 10
-12.5413390826
 20
76.6332632737
 10
-12.534985379
 20
76.6101110883
 10
-12.5286412848
 20
76.5754002564
 10
-12.5223259317
 20
76.5292354548
 10
-12.5160394067
 20
76.4715821072
 10
-12.5097816228
 20
76.4024747899
 10
-12.5035714516
 20
76.3221219089
 10
-12.4974090368
 20
76.2304895167
 10
-12.4912942346
 20
76.1276115608
 10
-12.4852454855
 20
76.0137982884
  0
LWPOLYLINE
  5
439
100
AcDbEntity
  8
0
100
AcDbPolyline
 62
7
  6
CONTINUOUS
 90
14
 70
0
 10
-102.6668774719
 20
199.2622774447
 10
-102.6683444248
 20
199.2654639204
 10
-102.6799030713
 20
199.2718272625
 10
-102.7030552567
 20
199.2781809661
 10
-102.7377660887
 20
199.2845250603
 10
-102.7839308903
 20
199.2908404133
 10
-102.8415842379
 20
199.2971269384
 10
-102.9106915551
 20
199.3033847223
 10
-102.9910444362
 20
199.3095948935
 10
-103.0826768283
 20
199.3157573083
 10
-103.1855547843
 20
199.3218721104
 10
-103.2993680567
 20
199.3279208595
 10
-103.4241496562
 20
199.3339033563
 10
-103.7061095253
 20
199.3456523487
  0
LINE
  5
43A
100
AcDbEntity
  8
RACCORDO
100
AcDbLine
 62
7
  6
CONTINUOUS
 10
-31.5668774719
 20
-68.3537111269
 11
-31.5668774719
 21
-68.8038765816
  0
LINE
  5
43B
100
AcDbEntity
  8
ASSI
100
AcDbLine
 62
250
  6
CONTINUOUS
 10
-31.2668774719
 20
-68.3537111269
 11
-31.2668774719
 21
-68.8091131011
  0
LWPOLYLINE
  5
43C
100
AcDbEntity
  8
ASSI
100
AcDbPolyline
 62
7
  6
CONTINUOUS
 90
12
 70
0
 10
-91.6668774719
 20
-68.9696996984
 10
-91.6654105191
 20
-68.9665132227
 10
-91.6538518725
 20
-68.9601498807
 10
-91.6306996871
 20
-68.9537961771
 10
-91.5959888552
 20
-68.9474520829
 10
-91.5498240535
 20
-68.9411367298
 10
-91.492170706
 20
-68.9348502048
 10
-91.4230633887
 20
-68.9285924209
 10
-91.3427105076
 20
-68.9223822497
 10
-91.2510781155
 20
-68.9162198349
 10
-91.1482001596
 20
-68.9101050327
 10
-91.0343868871
 20
-68.9040562836
  0
LWPOLYLINE
  5
43D
100
AcDbEntity
  8
0
100
AcDbPolyline
 62
7
  6
CONTINUOUS
 90
14
 70
0
 10
-91.6668774719
 20
199.2622774447
 10
-91.6654105191
 20
199.259090969
 10
-91.6538518725
 20
199.252727627
 10
-91.6306996871
 20
199.2463739234
 10
-91.5959888552
 20
199.2400298291
 10
-91.5498240535
 20
199.2337144761
 10
-91.492170706
 20
199.227427951
 10
-91.4230633887
 20
199.2211701671
 10
-91.3427105076
 20
199.2149599959
 10
-91.2510781155
 20
199.2087975811
 10
-91.1482001596
 20
199.202682779
 10
-91.0343868871
 20
199.1966340299
 10
-90.9096052876
 20
199.1906515332
 10
-90.6276454185
 20
199.1789025408
  0
LWPOLYLINE
  5
43E
100
AcDbEntity
  8
0
100
AcDbPolyline
 62
7
  6
CONTINUOUS
 90
10
 70
0
 10
-79.7344315067
 20
187.7308700341
 10
-79.7038401102
 20
187.6470329354
 10
-79.690114695
 20
187.6052388281
 10
-79.6775292907
 20
187.5624534711
 10
-79.6660322171
 20
187.5185716662
 10
-79.6556751545
 20
187.4736986116
 10
-79.6466131431
 20
187.4281499026
 10
-79.638897863
 20
187.3820307376
 10
-79.632477634
 20
187.3352359182
 10
-79.6273524563
 20
187.2877654444
  0
LINE
  5
43F
100
AcDbEntity
  8
RACCORDO
100
AcDbLine
 62
7
  6
CONTINUOUS
 10
-19.7195087149
 20
-67.4063423698
 11
-19.7206756925
 21
-66.8374696092
  0
LINE
  5
440
100
AcDbEntity
  8
RACCORDO
100
AcDbLine
 62
7
  6
CONTINUOUS
 10
-19.7206756925
 20
-66.8374696092
 11
-19.7216080771
 21
-66.0252313406
  0
LINE
  5
441
100
AcDbEntity
  8
RACCORDO
100
AcDbLine
 62
7
  6
CONTINUOUS
 10
-19.7216080771
 20
-66.0252313406
 11
-19.7218841726
 21
-65.5513860307
  0
LINE
  5
442
100
AcDbEntity
  8
RACCORDO
100
AcDbLine
 62
7
  6
CONTINUOUS
 10
-19.7218841726
 20
-65.5513860307
 11
-19.7219901889
 21
-65.1992757581
  0
LINE
  5
443
100
AcDbEntity
  8
ASSI
100
AcDbLine
 62
250
  6
CONTINUOUS
 10
-26.0668774719
 20
-68.3537111269
 11
-26.0668774719
 21
-68.8091131011
  0
LINE
  5
444
100
AcDbEntity
  8
RACCORDO
100
AcDbLine
 62
7
  6
CONTINUOUS
 10
-25.7668774719
 20
-68.3537111269
 11
-25.7668774719
 21
-68.8038765816
  0
LINE
  5
445
100
AcDbEntity
  8
RACCORDO
100
AcDbLine
 62
250
  6
CONTINUOUS
 10
-24.7906510074
 20
-67.2338278298
 11
-24.7906510074
 21
-68.7335993726
  0
LINE
  5
446
100
AcDbEntity
  8
RACCORDO
100
AcDbLine
 62
250
  6
CONTINUOUS
 10
-24.7906510074
 20
197.5264055761
 11
-24.7906510074
 21
199.0261771189
  0
LINE
  5
447
100
AcDbEntity
  8
RACCORDO
100
AcDbLine
 62
7
  6
CONTINUOUS
 10
-19.7219901889
 20
-65.1992757581
 11
-19.7220301003
 21
-64.8147486236
  0
LINE
  5
448
100
AcDbEntity
  8
RACCORDO
100
AcDbLine
 62
7
  6
CONTINUOUS
 10
-19.7220301003
 20
-64.8146655253
 11
-19.7220301003
 21
-63.3537111269
  0
LINE
  5
449
100
AcDbEntity
  8
DRAFT
100
AcDbLine
 62
7
  6
CONTINUOUS
 10
-19.6668774719
 20
197.6462888731
 11
-19.6668774719
 21
193.6462888731
  0
LINE
  5
44A
100
AcDbEntity
  8
DRAFT
100
AcDbLine
 62
7
  6
CONTINUOUS
 10
-19.6668774719
 20
-67.3537111269
 11
-19.6668774719
 21
-63.3537111269
  0
LINE
  5
44B
100
AcDbEntity
  8
RACCORDO
100
AcDbLine
 62
7
  6
CONTINUOUS
 10
-19.7220301003
 20
193.6462888731
 11
-19.7213601336
 21
196.5999090043
  0
LINE
  5
44C
100
AcDbEntity
  8
RACCORDO
100
AcDbLine
 62
7
  6
CONTINUOUS
 10
-19.7213601336
 20
196.5999090043
 11
-19.7195101761
 21
197.6989215773
  0
LWPOLYLINE
  5
44D
100
AcDbEntity
  8
0
100
AcDbPolyline
 62
7
  6
CONTINUOUS
 90
13
 70
0
 10
-77.2483696323
 20
186.5849025104
 10
-77.2688139558
 20
186.6263431281
 10
-77.2917257908
 20
186.6661838942
 10
-77.3167932901
 20
186.7038244702
 10
-77.344101025
 20
186.7391141688
 10
-77.3735644242
 20
186.7722036773
 10
-77.4046179272
 20
186.8029447202
 10
-77.4369736869
 20
186.8312107711
 10
-77.4709195503
 20
186.8571283563
 10
-77.5067534981
 20
186.8809287784
 10
-77.5445748572
 20
186.9026891383
 10
-77.5842843007
 20
186.9223323351
 10
-77.6258818285
 20
186.9398583688
  0
LWPOLYLINE
  5
44E
100
AcDbEntity
  8
0
100
AcDbPolyline
 62
7
  6
CONTINUOUS
 90
55
 70
0
 10
-78.9803212641
 20
185.9802499368
 10
-78.9516164478
 20
185.9188703089
 10
-78.9215652386
 20
185.8616932321
 10
-78.8901676365
 20
185.8087187066
 10
-78.8573586348
 20
185.7601892814
 10
-78.8232032402
 20
185.7158624074
 10
-78.7878964726
 20
185.6750104372
 10
-78.7516151749
 20
185.6376435788
 10
-78.7141825043
 20
185.6037516242
 10
-78.6752629521
 20
185.5725763022
 10
-78.6349548333
 20
185.5439724853
 10
-78.5931598329
 20
185.5180853009
 10
-78.5492474973
 20
185.4945918604
 10
-78.5032973818
 20
185.473340396
 10
-78.455229931
 20
185.4544826754
 10
-78.4041760252
 20
185.4381511125
 10
-78.3499124416
 20
185.4241954703
 10
-78.2926624029
 20
185.4127659859
 10
-78.2322264568
 20
185.4044457845
 10
-78.1671039035
 20
185.3993239719
 10
-78.0987954428
 20
185.3973114424
 10
-78.0316037214
 20
185.398724004
 10
-77.9662742903
 20
185.4038634444
 10
-77.9020615985
 20
185.4124279759
 10
-77.8410316406
 20
185.4238280426
 10
-77.7841642295
 20
185.4379586954
 10
-77.7304795522
 20
185.4549248834
 10
-77.6791041652
 20
185.4744518994
 10
-77.6295524769
 20
185.496800308
 10
-77.5823100787
 20
185.5217095445
 10
-77.5379603015
 20
185.5481232074
 10
-77.4967139755
 20
185.5759272743
 10
-77.4583602704
 20
185.6052357675
 10
-77.4228500257
 20
185.635334353
 10
-77.3903578935
 20
185.6657147504
 10
-77.3607092217
 20
185.69688524
 10
-77.333330893
 20
185.7296563283
 10
-77.3081064325
 20
185.7640868997
 10
-77.285152315
 20
185.8001180698
 10
-77.2642448485
 20
185.8383836924
 10
-77.2452342425
 20
185.8788589092
 10
-77.2282702874
 20
185.9215685785
 10
-77.2135786631
 20
185.967221129
 10
-77.2010384394
 20
186.0163263583
 10
-77.1907705463
 20
186.0683744688
 10
-77.1833634538
 20
186.1225444967
 10
-77.1789400251
 20
186.1800035696
 10
-77.1773773969
 20
186.2395845599
 10
-77.17889545
 20
186.2969651214
 10
-77.1837440779
 20
186.3507597415
 10
-77.1916733871
 20
186.4023539327
 10
-77.2021535772
 20
186.451581886
 10
-77.2150358379
 20
186.4981328699
 10
-77.2304689794
 20
186.542317616
 10
-77.2483696323
 20
186.5849025104
  0
LWPOLYLINE
  5
44F
100
AcDbEntity
  8
ASSI
100
AcDbPolyline
 62
7
  6
CONTINUOUS
 90
12
 70
0
 10
-12.6165323152
 20
-38.7212205421
 10
-12.610483566
 20
-38.8350338145
 10
-12.6043687639
 20
-38.9379117705
 10
-12.5982063491
 20
-39.0295441626
 10
-12.5919961779
 20
-39.1098970437
 10
-12.585738394
 20
-39.1790043609
 10
-12.5794518689
 20
-39.2366577085
 10
-12.5731365159
 20
-39.2828225101
 10
-12.5667924217
 20
-39.3175333421
 10
-12.5604387181
 20
-39.3406855275
 10
-12.5540753761
 20
-39.352244174
 10
-12.5508889003
 20
-39.3537111269
  0
LWPOLYLINE
  5
450
100
AcDbEntity
  8
ASSI
100
AcDbPolyline
 62
7
  6
CONTINUOUS
 90
12
 70
0
 10
-12.4852454855
 20
-16.9862017116
 10
-12.4912942346
 20
-16.8723884392
 10
-12.4974090368
 20
-16.7695104833
 10
-12.5035714516
 20
-16.6778780911
 10
-12.5097816228
 20
-16.5975252101
 10
-12.5160394067
 20
-16.5284178928
 10
-12.5223259317
 20
-16.4707645452
 10
-12.5286412848
 20
-16.4245997436
 10
-12.534985379
 20
-16.3898889117
 10
-12.5413390826
 20
-16.3667367263
 10
-12.5477024246
 20
-16.3551780797
 10
-12.5508889003
 20
-16.3537111269
  0
LINE
  5
451
100
AcDbEntity
  8
ASSI
100
AcDbLine
 62
7
  6
CONTINUOUS
 10
-12.6284312556
 20
-38.4607220266
 11
-12.6165323152
 21
-38.7212205421
  0
LINE
  5
452
100
AcDbEntity
  8
ASSI
100
AcDbLine
 62
7
  6
CONTINUOUS
 10
-12.473346545
 20
-17.2467002271
 11
-12.4852454855
 21
-16.9862017116
  0
LINE
  5
453
100
AcDbEntity
  8
ASSI
100
AcDbLine
 62
7
  6
CONTINUOUS
 10
-12.6165323152
 20
54.2787794579
 11
-12.6284312556
 21
54.5392779734
  0
LINE
  5
454
100
AcDbEntity
  8
ASSI
100
AcDbLine
 62
7
  6
CONTINUOUS
 10
-12.4852454855
 20
76.0137982884
 11
-12.473346545
 21
75.7532997729
  0
LINE
  5
455
100
AcDbEntity
  8
ASSI
100
AcDbLine
 62
7
  6
CONTINUOUS
 10
-12.6165323152
 20
147.2787794579
 11
-12.6284312556
 21
147.5392779734
  0
LINE
  5
456
100
AcDbEntity
  8
ASSI
100
AcDbLine
 62
7
  6
CONTINUOUS
 10
-12.6400122045
 20
-38.157678308
 11
-12.6284312556
 21
-38.4607220266
  0
LINE
  5
457
100
AcDbEntity
  8
ASSI
100
AcDbLine
 62
7
  6
CONTINUOUS
 10
-12.4617655961
 20
-17.5497439457
 11
-12.473346545
 21
-17.2467002271
  0
LINE
  5
458
100
AcDbEntity
  8
ASSI
100
AcDbLine
 62
7
  6
CONTINUOUS
 10
-12.6284312556
 20
54.5392779734
 11
-12.6400122045
 21
54.842321692
  0
LINE
  5
459
100
AcDbEntity
  8
ASSI
100
AcDbLine
 62
7
  6
CONTINUOUS
 10
-12.473346545
 20
75.7532997729
 11
-12.4617655961
 21
75.4502560543
  0
LINE
  5
45A
100
AcDbEntity
  8
ASSI
100
AcDbLine
 62
7
  6
CONTINUOUS
 10
-12.6284312556
 20
147.5392779734
 11
-12.6400122045
 21
147.842321692
  0
LINE
  5
45B
100
AcDbEntity
  8
ASSI
100
AcDbLine
 62
7
  6
CONTINUOUS
 10
-12.4675139964
 20
168.6070568197
 11
-12.456101091
 21
168.2829292517
  0
LINE
  5
45C
100
AcDbEntity
  8
ASSI
100
AcDbLine
 62
7
  6
CONTINUOUS
 10
-12.6512402374
 20
-37.8130032704
 11
-12.6400122045
 21
-38.157678308
  0
LINE
  5
45D
100
AcDbEntity
  8
ASSI
100
AcDbLine
 62
7
  6
CONTINUOUS
 10
-12.4505375633
 20
-17.8944189833
 11
-12.4617655961
 21
-17.5497439457
  0
LINE
  5
45E
100
AcDbEntity
  8
ASSI
100
AcDbLine
 62
7
  6
CONTINUOUS
 10
-12.6400122045
 20
54.842321692
 11
-12.6512402374
 21
55.1869967296
  0
LINE
  5
45F
100
AcDbEntity
  8
ASSI
100
AcDbLine
 62
7
  6
CONTINUOUS
 10
-12.4617655961
 20
75.4502560543
 11
-12.4505375633
 21
75.1055810167
  0
LINE
  5
460
100
AcDbEntity
  8
ASSI
100
AcDbLine
 62
7
  6
CONTINUOUS
 10
-12.6400122045
 20
147.842321692
 11
-12.6512402374
 21
148.1869967296
  0
LWPOLYLINE
  5
461
100
AcDbEntity
  8
RACCORDO
100
AcDbPolyline
 62
250
  6
CONTINUOUS
 90
28
 70
0
 10
-16.4141329921
 20
197.2961049062
 10
-16.4176334219
 20
197.4139967907
 10
-16.4264228466
 20
197.5289756385
 10
-16.4404597752
 20
197.6409331899
 10
-16.4596017246
 20
197.7497941539
 10
-16.4838521924
 20
197.8553968923
 10
-16.5133492119
 20
197.9575132004
 10
-16.5479338908
 20
198.0560304142
 10
-16.5874877679
 20
198.1508344826
 10
-16.6321572957
 20
198.2417244996
 10
-16.6817175613
 20
198.3285935815
 10
-16.7359771266
 20
198.411337834
 10
-16.7950767373
 20
198.4897916588
 10
-16.8586596398
 20
198.5638561507
 10
-16.926531223
 20
198.6334424019
 10
-16.9990107302
 20
198.6984300567
 10
-17.0756856071
 20
198.7587400868
 10
-17.1562733924
 20
198.8142920528
 10
-17.2412105358
 20
198.8649933327
 10
-17.3299918794
 20
198.9107865557
 10
-17.422286117
 20
198.9516049473
 10
-17.5187037667
 20
198.9873750243
 10
-17.6187983575
 20
199.0180632958
 10
-17.7220519283
 20
199.0436242693
 10
-17.8288991622
 20
199.064003642
 10
-17.9391392451
 20
199.0791801088
 10
-18.0519630899
 20
199.0891476114
 10
-18.1668774719
 20
199.0938944926
  0
LINE
  5
462
100
AcDbEntity
  8
ASSI
100
AcDbLine
 62
7
  6
CONTINUOUS
 10
-12.456101091
 20
168.2829292517
 11
-12.4450753179
 21
167.9181810973
  0
LINE
  5
463
100
AcDbEntity
  8
ASSI
100
AcDbLine
 62
7
  6
CONTINUOUS
 10
-12.6512402374
 20
55.1869967296
 11
-12.6620637506
 21
55.5718180007
  0
LINE
  5
464
100
AcDbEntity
  8
ASSI
100
AcDbLine
 62
7
  6
CONTINUOUS
 10
-12.4505375633
 20
75.1055810167
 11
-12.43971405
 21
74.7207597456
  0
LINE
  5
465
100
AcDbEntity
  8
ASSI
100
AcDbLine
 62
7
  6
CONTINUOUS
 10
-12.6512402374
 20
148.1869967296
 11
-12.6620637506
 21
148.5718180007
  0
LINE
  5
466
100
AcDbEntity
  8
ASSI
100
AcDbLine
 62
7
  6
CONTINUOUS
 10
-12.6673078732
 20
-37.2213345754
 11
-12.6512402374
 21
-37.8130032704
  0
LINE
  5
467
100
AcDbEntity
  8
ASSI
100
AcDbLine
 62
7
  6
CONTINUOUS
 10
-12.4344699275
 20
-18.4860876783
 11
-12.4505375633
 21
-17.8944189833
  0
LINE
  5
468
100
AcDbEntity
  8
ASSI
100
AcDbLine
 62
7
  6
CONTINUOUS
 10
-12.4450753179
 20
167.9181810973
 11
-12.4344699275
 21
167.5139123217
  0
LINE
  5
469
100
AcDbEntity
  8
ASSI
100
AcDbLine
 62
7
  6
CONTINUOUS
 10
-12.6620637506
 20
55.5718180007
 11
-12.6724344967
 21
55.9949673751
  0
LINE
  5
46A
100
AcDbEntity
  8
ASSI
100
AcDbLine
 62
7
  6
CONTINUOUS
 10
-12.43971405
 20
74.7207597456
 11
-12.4293433039
 21
74.2976103712
  0
LINE
  5
46B
100
AcDbEntity
  8
ASSI
100
AcDbLine
 62
7
  6
CONTINUOUS
 10
-12.6620637506
 20
148.5718180007
 11
-12.6724344967
 21
148.9949673751
  0
LINE
  5
46C
100
AcDbEntity
  8
ASSI
100
AcDbLine
 62
7
  6
CONTINUOUS
 10
-12.6823212008
 20
-36.5448312319
 11
-12.6673078732
 21
-37.2213345754
  0
LINE
  5
46D
100
AcDbEntity
  8
ASSI
100
AcDbLine
 62
7
  6
CONTINUOUS
 10
-12.4194565999
 20
-19.1625910218
 11
-12.4344699275
 21
-18.4860876783
  0
LINE
  5
46E
100
AcDbEntity
  8
ASSI
100
AcDbLine
 62
7
  6
CONTINUOUS
 10
-12.4344699275
 20
167.5139123217
 11
-12.4194565999
 21
166.8374089782
  0
LINE
  5
46F
100
AcDbEntity
  8
ASSI
100
AcDbLine
 62
7
  6
CONTINUOUS
 10
-12.6724344967
 20
55.9949673751
 11
-12.687065775
 21
56.6984138859
  0
LINE
  5
470
100
AcDbEntity
  8
ASSI
100
AcDbLine
 62
7
  6
CONTINUOUS
 10
-12.4293433039
 20
74.2976103712
 11
-12.4147120257
 21
73.5941638604
  0
LINE
  5
471
100
AcDbEntity
  8
ASSI
100
AcDbLine
 62
7
  6
CONTINUOUS
 10
-12.6724344967
 20
148.9949673751
 11
-12.687065775
 21
149.6984138859
  0
LINE
  5
472
100
AcDbEntity
  8
ASSI
100
AcDbLine
 62
7
  6
CONTINUOUS
 10
-12.4194565999
 20
166.8374089782
 11
-12.4056335436
 21
166.0821975052
  0
LWPOLYLINE
  5
473
100
AcDbEntity
  8
RACCORDO
100
AcDbPolyline
 62
250
  6
CONTINUOUS
 90
3
 70
0
 10
-12.7192718525
 20
-63.3537111269
 10
-12.7263380189
 20
-62.9253800943
 10
-12.727767099
 20
-62.8383042721
  0
LINE
  5
474
100
AcDbEntity
  8
RACCORDO
100
AcDbLine
 62
250
  6
CONTINUOUS
 10
-12.727767099
 20
-62.8383042721
 11
-12.7306351341
 21
-62.6627390598
  0
LINE
  5
475
100
AcDbEntity
  8
RACCORDO
100
AcDbLine
 62
250
  6
CONTINUOUS
 10
-12.7306351341
 20
-62.6627390598
 11
-12.7335081925
 21
-62.4852837003
  0
LINE
  5
476
100
AcDbEntity
  8
ASSI
100
AcDbLine
 62
7
  6
CONTINUOUS
 10
-12.7004638144
 20
-35.5216343393
 11
-12.6823212008
 21
-36.5448312319
  0
LINE
  5
477
100
AcDbEntity
  8
ASSI
100
AcDbLine
 62
7
  6
CONTINUOUS
 10
-12.4013139863
 20
-20.1857879144
 11
-12.4194565999
 21
-19.1625910218
  0
LINE
  5
478
100
AcDbEntity
  8
ASSI
100
AcDbLine
 62
7
  6
CONTINUOUS
 10
-12.687065775
 20
56.6984138859
 11
-12.7004638144
 21
57.4783656607
  0
LINE
  5
479
100
AcDbEntity
  8
ASSI
100
AcDbLine
 62
7
  6
CONTINUOUS
 10
-12.4147120257
 20
73.5941638604
 11
-12.4013139863
 21
72.8142120856
  0
LINE
  5
47A
100
AcDbEntity
  8
ASSI
100
AcDbLine
 62
7
  6
CONTINUOUS
 10
-12.687065775
 20
149.6984138859
 11
-12.7004638144
 21
150.4783656607
  0
LINE
  5
47B
100
AcDbEntity
  8
RACCORDO
100
AcDbLine
 62
250
  6
CONTINUOUS
 10
-12.7335081925
 20
-62.4852837003
 11
-12.7363808452
 21
-62.3059346006
  0
LINE
  5
47C
100
AcDbEntity
  8
RACCORDO
100
AcDbLine
 62
250
  6
CONTINUOUS
 10
-12.7363808452
 20
-62.3059346006
 11
-12.74209236
 21
-61.9415336215
  0
LINE
  5
47D
100
AcDbEntity
  8
ASSI
100
AcDbLine
 62
7
  6
CONTINUOUS
 10
-12.4056335436
 20
166.0821975052
 11
-12.3931259423
 21
165.2551172147
  0
LINE
  5
47E
100
AcDbEntity
  8
RACCORDO
100
AcDbLine
 62
250
  6
CONTINUOUS
 10
-12.74209236
 20
-61.9415336215
 11
-12.757151063
 21
-60.8999492203
  0
LINE
  5
47F
100
AcDbEntity
  8
ASSI
100
AcDbLine
 62
7
  6
CONTINUOUS
 10
-12.7004638144
 20
57.4783656607
 11
-12.7125072802
 21
58.3277593355
  0
LINE
  5
480
100
AcDbEntity
  8
ASSI
100
AcDbLine
 62
7
  6
CONTINUOUS
 10
-12.4013139863
 20
72.8142120856
 11
-12.3892705205
 21
71.9648184107
  0
LINE
  5
481
100
AcDbEntity
  8
ASSI
100
AcDbLine
 62
7
  6
CONTINUOUS
 10
-12.7004638144
 20
150.4783656607
 11
-12.7125072802
 21
151.3277593355
  0
LINE
  5
482
100
AcDbEntity
  8
ASSI
100
AcDbLine
 62
7
  6
CONTINUOUS
 10
-12.7162039547
 20
-34.3747886771
 11
-12.7004638144
 21
-35.5216343393
  0
LINE
  5
483
100
AcDbEntity
  8
ASSI
100
AcDbLine
 62
7
  6
CONTINUOUS
 10
-12.385573846
 20
-21.3326335766
 11
-12.4013139863
 21
-20.1857879144
  0
LINE
  5
484
100
AcDbEntity
  8
ASSI
100
AcDbLine
 62
7
  6
CONTINUOUS
 10
-12.3931259423
 20
165.2551172147
 11
-12.3820470668
 21
164.3636582739
  0
LINE
  5
485
100
AcDbEntity
  8
RACCORDO
100
AcDbLine
 62
250
  6
CONTINUOUS
 10
-12.757151063
 20
-60.8999492203
 11
-12.768112
 21
-60.0042406904
  0
LINE
  5
486
100
AcDbEntity
  8
ASSI
100
AcDbLine
 62
7
  6
CONTINUOUS
 10
-12.7125072802
 20
58.3277593355
 11
-12.7230871049
 21
59.2389026698
  0
LINE
  5
487
100
AcDbEntity
  8
ASSI
100
AcDbLine
 62
7
  6
CONTINUOUS
 10
-12.3892705205
 20
71.9648184107
 11
-12.3786906957
 21
71.0536750765
  0
LINE
  5
488
100
AcDbEntity
  8
ASSI
100
AcDbLine
 62
7
  6
CONTINUOUS
 10
-12.7125072802
 20
151.3277593355
 11
-12.7230871049
 21
152.2389026698
  0
LINE
  5
489
100
AcDbEntity
  8
ASSI
100
AcDbLine
 62
7
  6
CONTINUOUS
 10
-12.7292805517
 20
-33.1233161267
 11
-12.7162039547
 21
-34.3747886771
  0
LINE
  5
48A
100
AcDbEntity
  8
ASSI
100
AcDbLine
 62
7
  6
CONTINUOUS
 10
-12.372497249
 20
-22.584106127
 11
-12.385573846
 21
-21.3326335766
  0
LINE
  5
48B
100
AcDbEntity
  8
ASSI
100
AcDbLine
 62
7
  6
CONTINUOUS
 10
-12.3820470668
 20
164.3636582739
 11
-12.372497249
 21
163.415893873
  0
LINE
  5
48C
100
AcDbEntity
  8
RACCORDO
100
AcDbLine
 62
250
  6
CONTINUOUS
 10
-12.768112
 20
-60.0042406904
 11
-12.7762538639
 21
-59.1748065628
  0
LINE
  5
48D
100
AcDbEntity
  8
ASSI
100
AcDbLine
 62
7
  6
CONTINUOUS
 10
-12.7230871049
 20
59.2389026698
 11
-12.7321074761
 21
60.2035442082
  0
LINE
  5
48E
100
AcDbEntity
  8
ASSI
100
AcDbLine
 62
7
  6
CONTINUOUS
 10
-12.3786906957
 20
71.0536750765
 11
-12.3696703246
 21
70.0890335381
  0
LINE
  5
48F
100
AcDbEntity
  8
ASSI
100
AcDbLine
 62
7
  6
CONTINUOUS
 10
-12.7230871049
 20
152.2389026698
 11
-12.7321074761
 21
153.2035442082
  0
LINE
  5
490
100
AcDbEntity
  8
ASSI
100
AcDbLine
 62
7
  6
CONTINUOUS
 10
-12.372497249
 20
163.415893873
 11
-12.3645629737
 21
162.4204071132
  0
LINE
  5
491
100
AcDbEntity
  8
ASSI
100
AcDbLine
 62
7
  6
CONTINUOUS
 10
-12.7321074761
 20
60.2035442082
 11
-12.7394867037
 21
61.2129480078
  0
LINE
  5
492
100
AcDbEntity
  8
ASSI
100
AcDbLine
 62
7
  6
CONTINUOUS
 10
-12.3696703246
 20
70.0890335381
 11
-12.362291097
 21
69.0796297385
  0
LINE
  5
493
100
AcDbEntity
  8
ASSI
100
AcDbLine
 62
7
  6
CONTINUOUS
 10
-12.7321074761
 20
153.2035442082
 11
-12.7394867037
 21
154.2129480078
  0
LINE
  5
494
100
AcDbEntity
  8
RACCORDO
100
AcDbLine
 62
250
  6
CONTINUOUS
 10
-12.7762538639
 20
-59.1748065628
 11
-12.7817609578
 21
-58.423129649
  0
LINE
  5
495
100
AcDbEntity
  8
ASSI
100
AcDbLine
 62
7
  6
CONTINUOUS
 10
-12.741571092
 20
-31.4419738312
 11
-12.7292805517
 21
-33.1233161267
  0
LINE
  5
496
100
AcDbEntity
  8
ASSI
100
AcDbLine
 62
7
  6
CONTINUOUS
 10
-12.3602067087
 20
-24.2654484225
 11
-12.372497249
 21
-22.584106127
  0
LINE
  5
497
100
AcDbEntity
  8
ASSI
100
AcDbLine
 62
7
  6
CONTINUOUS
 10
-12.3645629737
 20
162.4204071132
 11
-12.3583160948
 21
161.3862132768
  0
LINE
  5
498
100
AcDbEntity
  8
ASSI
100
AcDbLine
 62
7
  6
CONTINUOUS
 10
-12.7394867037
 20
61.2129480078
 11
-12.7451579604
 21
62.2579727513
  0
LINE
  5
499
100
AcDbEntity
  8
ASSI
100
AcDbLine
 62
7
  6
CONTINUOUS
 10
-12.362291097
 20
69.0796297385
 11
-12.3566198402
 21
68.034604995
  0
LINE
  5
49A
100
AcDbEntity
  8
ASSI
100
AcDbLine
 62
7
  6
CONTINUOUS
 10
-12.7394867037
 20
154.2129480078
 11
-12.7451579604
 21
155.2579727513
  0
LINE
  5
49B
100
AcDbEntity
  8
ASSI
100
AcDbLine
 62
7
  6
CONTINUOUS
 10
-12.3583160948
 20
161.3862132768
 11
-12.3538131851
 21
160.3226781833
  0
LINE
  5
49C
100
AcDbEntity
  8
RACCORDO
100
AcDbLine
 62
250
  6
CONTINUOUS
 10
-12.7817609578
 20
-58.423129649
 11
-12.7854342127
 21
-57.6470439806
  0
LINE
  5
49D
100
AcDbEntity
  8
ASSI
100
AcDbLine
 62
7
  6
CONTINUOUS
 10
-12.7490698865
 20
-29.6708454671
 11
-12.741571092
 21
-31.4419738312
  0
LINE
  5
49E
100
AcDbEntity
  8
ASSI
100
AcDbLine
 62
7
  6
CONTINUOUS
 10
-12.7451579604
 20
62.2579727513
 11
-12.7490698865
 21
63.3291545329
  0
LINE
  5
49F
100
AcDbEntity
  8
ASSI
100
AcDbLine
 62
7
  6
CONTINUOUS
 10
-12.3527079142
 20
-26.0365767866
 11
-12.3602067087
 21
-24.2654484225
  0
LINE
  5
4A0
100
AcDbEntity
  8
ASSI
100
AcDbLine
 62
7
  6
CONTINUOUS
 10
-12.7451579604
 20
155.2579727513
 11
-12.7490698865
 21
156.3291545329
  0
LINE
  5
4A1
100
AcDbEntity
  8
ASSI
100
AcDbLine
 62
7
  6
CONTINUOUS
 10
-12.3566198402
 20
68.034604995
 11
-12.3527079142
 21
66.9634232134
  0
LINE
  5
4A2
100
AcDbEntity
  8
ASSI
100
AcDbLine
 62
7
  6
CONTINUOUS
 10
-12.3538131851
 20
160.3226781833
 11
-12.3510950236
 21
159.2394333711
  0
LINE
  5
4A3
100
AcDbEntity
  8
ASSI
100
AcDbLine
 62
7
  6
CONTINUOUS
 10
-12.7490698865
 20
63.3291545329
 11
-12.75118675
 21
64.4164259094
  0
LINE
  5
4A4
100
AcDbEntity
  8
ASSI
100
AcDbLine
 62
7
  6
CONTINUOUS
 10
-12.7490698865
 20
156.3291545329
 11
-12.75118675
 21
157.4164259094
  0
LINE
  5
4A5
100
AcDbEntity
  8
ASSI
100
AcDbLine
 62
7
  6
CONTINUOUS
 10
-12.3527079142
 20
66.9634232134
 11
-12.3505910507
 21
65.8761518369
  0
LWPOLYLINE
  5
4A6
100
AcDbEntity
  8
RACCORDO
100
AcDbPolyline
 62
7
  6
CONTINUOUS
 90
3
 70
0
 10
-14.1163830941
 20
193.6462888731
 10
-14.1142603482
 20
192.2504591557
 10
-14.1140604912
 20
192.0934718924
  0
LINE
  5
4A7
100
AcDbEntity
  8
RACCORDO
100
AcDbLine
 62
250
  6
CONTINUOUS
 10
-12.7854342127
 20
-57.6470439806
 11
-12.786887231
 21
-56.9622441871
  0
LINE
  5
4A8
100
AcDbEntity
  8
ASSI
100
AcDbLine
 62
7
  6
CONTINUOUS
 10
-12.7515915744
 20
-27.8537111269
 11
-12.7490698865
 21
-29.6708454671
  0
LINE
  5
4A9
100
AcDbEntity
  8
ASSI
100
AcDbLine
 62
7
  6
CONTINUOUS
 10
-12.3501862263
 20
-27.8537111269
 11
-12.3527079142
 21
-26.0365767866
  0
LINE
  5
4AA
100
AcDbEntity
  8
ASSI
100
AcDbLine
 62
7
  6
CONTINUOUS
 10
-12.3510950236
 20
159.2394333711
 11
-12.3501862263
 21
158.1462888731
  0
LINE
  5
4AB
100
AcDbEntity
  8
DRAFT
100
AcDbLine
 62
250
  6
CONTINUOUS
 10
-18.1668774719
 20
192.1462888731
 11
-18.1668774719
 21
192.0911362448
  0
LINE
  5
4AC
100
AcDbEntity
  8
DRAFT
100
AcDbLine
 62
250
  6
CONTINUOUS
 10
-18.1668774719
 20
-61.8537111269
 11
-18.1668774719
 21
-61.7985584985
  0
LINE
  5
4AD
100
AcDbEntity
  8
DRAFT
100
AcDbLine
 62
250
  6
CONTINUOUS
 10
-18.1668774719
 20
5.9462888731
 11
-18.1668774719
 21
5.808404362
  0
LINE
  5
4AE
100
AcDbEntity
  8
DRAFT
100
AcDbLine
 62
250
  6
CONTINUOUS
 10
-18.1668774719
 20
9.3462888731
 11
-18.1668774719
 21
9.4841733842
  0
LINE
  5
4AF
100
AcDbEntity
  8
RACCORDO
100
AcDbLine
 62
250
  6
CONTINUOUS
 10
-18.1668774719
 20
-67.3537111269
 11
-18.1668774719
 21
-67.4041171034
  0
LINE
  5
4B0
100
AcDbEntity
  8
RACCORDO
100
AcDbLine
 62
250
  6
CONTINUOUS
 10
-18.1668774719
 20
-68.8013167463
 11
-18.1668774719
 21
-69.3537111269
  0
LINE
  5
4B1
100
AcDbEntity
  8
RACCORDO
100
AcDbLine
 62
250
  6
CONTINUOUS
 10
-18.1668774719
 20
197.6462888731
 11
-18.1668774719
 21
197.6966951065
  0
LINE
  5
4B2
100
AcDbEntity
  8
RACCORDO
100
AcDbLine
 62
250
  6
CONTINUOUS
 10
-18.1668774719
 20
199.0938944926
 11
-18.1668774719
 21
199.6462888731
  0
LINE
  5
4B3
100
AcDbEntity
  8
DRAFT
100
AcDbLine
 62
250
  6
CONTINUOUS
 10
-14.2867607689
 20
-56.7299375914
 11
-14.2867607689
 21
5.808404362
  0
LINE
  5
4B4
100
AcDbEntity
  8
DRAFT
100
AcDbLine
 62
250
  6
CONTINUOUS
 10
-14.2867607689
 20
9.4841733842
 11
-14.2867607689
 21
98.9462888731
  0
LINE
  5
4B5
100
AcDbEntity
  8
0
100
AcDbLine
 62
250
  6
CONTINUOUS
 10
-14.2867607689
 20
102.3462888731
 11
-14.2867607689
 21
187.5462888731
  0
LINE
  5
4B6
100
AcDbEntity
  8
DRAFT
100
AcDbLine
 62
7
  6
CONTINUOUS
 10
-14.1668774719
 20
-61.8537111269
 11
-14.1668774719
 21
-63.3537111269
  0
LINE
  5
4B7
100
AcDbEntity
  8
DRAFT
100
AcDbLine
 62
7
  6
CONTINUOUS
 10
-14.1668774719
 20
192.1462888731
 11
-14.1668774719
 21
193.6462888731
  0
LINE
  5
4B8
100
AcDbEntity
  8
DRAFT
100
AcDbLine
 62
7
  6
CONTINUOUS
 10
-13.6668774719
 20
9.3462888731
 11
-13.6668774719
 21
5.9462888731
  0
LINE
  5
4B9
100
AcDbEntity
  8
0
100
AcDbLine
 62
7
  6
CONTINUOUS
 10
-13.6668774719
 20
98.9462888731
 11
-13.6668774719
 21
102.3462888731
  0
LINE
  5
4BA
100
AcDbEntity
  8
DRAFT
100
AcDbLine
 62
7
  6
CONTINUOUS
 10
-13.5307770383
 20
5.8101884395
 11
-13.5307770383
 21
9.4823893068
  0
LINE
  5
4BB
100
AcDbEntity
  8
RACCORDO
100
AcDbLine
 62
7
  6
CONTINUOUS
 10
-13.1668774719
 20
181.7462888731
 11
-13.1668774719
 21
187.5462888731
  0
LINE
  5
4BC
100
AcDbEntity
  8
RACCORDO
100
AcDbLine
 62
250
  6
CONTINUOUS
 10
-12.786887231
 20
-56.9622441871
 11
-12.7869892262
 21
181.7462888731
  0
LINE
  5
4BD
100
AcDbEntity
  8
ASSI
100
AcDbLine
 62
7
  6
CONTINUOUS
 10
-12.7114754977
 20
187.2462888731
 11
-12.7114754977
 21
182.0462888731
  0
LINE
  5
4BE
100
AcDbEntity
  8
ASSI
100
AcDbLine
 62
7
  6
CONTINUOUS
 10
-12.1668774719
 20
193.6462888731
 11
-12.1668774719
 21
-63.3537111269
  0
LINE
  5
4BF
100
AcDbEntity
  8
DRAFT
100
AcDbLine
 62
7
  6
CONTINUOUS
 10
-12.1668774719
 20
-63.3537111269
 11
-12.1668774719
 21
193.6462888731
  0
LINE
  5
4C0
100
AcDbEntity
  8
ASSI
100
AcDbLine
 62
7
  6
CONTINUOUS
 10
-12.75118675
 20
157.4164259094
 11
-12.7514896824
 21
158.5117703376
  0
LINE
  5
4C1
100
AcDbEntity
  8
ASSI
100
AcDbLine
 62
7
  6
CONTINUOUS
 10
-12.75118675
 20
64.4164259094
 11
-12.7514896824
 21
65.5117703376
  0
LINE
  5
4C2
100
AcDbEntity
  8
ASSI
100
AcDbLine
 62
7
  6
CONTINUOUS
 10
-12.3505910507
 20
65.8761518369
 11
-12.3502881182
 21
64.7808074087
  0
LWPOLYLINE
  5
4C3
100
AcDbEntity
  8
RACCORDO
100
AcDbPolyline
 62
7
  6
CONTINUOUS
 90
4
 70
0
 10
-14.1142454195
 20
-61.8010790744
 10
-14.1146494047
 20
-62.1215301055
 10
-14.1148705189
 20
-62.2869991172
 10
-14.1151041431
 20
-62.4559456822
  0
LINE
  5
4C4
100
AcDbEntity
  8
ASSI
100
AcDbLine
 62
7
  6
CONTINUOUS
 10
-12.3501862263
 20
158.1462888731
 11
-12.3510950236
 21
157.0531443751
  0
LWPOLYLINE
  5
4C5
100
AcDbEntity
  8
RACCORDO
100
AcDbPolyline
 62
7
  6
CONTINUOUS
 90
5
 70
0
 10
-14.1151041431
 20
-62.4559456822
 10
-14.1156103478
 20
-62.8043801371
 10
-14.1158838796
 20
-62.9839404704
 10
-14.1161708725
 20
-63.1670508003
 10
-14.1164713264
 20
-63.3537111269
  0
LINE
  5
4C6
100
AcDbEntity
  8
ASSI
100
AcDbLine
 62
7
  6
CONTINUOUS
 10
-12.7514896824
 20
158.5117703376
 11
-12.749976852
 21
159.6019782748
  0
LINE
  5
4C7
100
AcDbEntity
  8
ASSI
100
AcDbLine
 62
7
  6
CONTINUOUS
 10
-12.7514896824
 20
65.5117703376
 11
-12.749976852
 21
66.6019782748
  0
LINE
  5
4C8
100
AcDbEntity
  8
ASSI
100
AcDbLine
 62
7
  6
CONTINUOUS
 10
-12.3502881182
 20
64.7808074087
 11
-12.3518009486
 21
63.6905994715
  0
LINE
  5
4C9
100
AcDbEntity
  8
ASSI
100
AcDbLine
 62
7
  6
CONTINUOUS
 10
-12.7490698865
 20
-26.0365767866
 11
-12.7515915744
 21
-27.8537111269
  0
LINE
  5
4CA
100
AcDbEntity
  8
ASSI
100
AcDbLine
 62
7
  6
CONTINUOUS
 10
-12.3527079142
 20
-29.6708454671
 11
-12.3501862263
 21
-27.8537111269
  0
LINE
  5
4CB
100
AcDbEntity
  8
ASSI
100
AcDbLine
 62
7
  6
CONTINUOUS
 10
-12.3510950236
 20
157.0531443751
 11
-12.3538131851
 21
155.969899563
  0
LINE
  5
4CC
100
AcDbEntity
  8
ASSI
100
AcDbLine
 62
7
  6
CONTINUOUS
 10
-12.749976852
 20
159.6019782748
 11
-12.7466604407
 21
160.6797365735
  0
LINE
  5
4CD
100
AcDbEntity
  8
ASSI
100
AcDbLine
 62
7
  6
CONTINUOUS
 10
-12.749976852
 20
66.6019782748
 11
-12.7466604407
 21
67.6797365735
  0
LINE
  5
4CE
100
AcDbEntity
  8
ASSI
100
AcDbLine
 62
7
  6
CONTINUOUS
 10
-12.3518009486
 20
63.6905994715
 11
-12.35511736
 21
62.6128411728
  0
LINE
  5
4CF
100
AcDbEntity
  8
RACCORDO
100
AcDbLine
 62
250
  6
CONTINUOUS
 10
-12.7845041714
 20
188.613440337
 11
-12.7869892262
 21
187.5462888731
  0
LINE
  5
4D0
100
AcDbEntity
  8
ASSI
100
AcDbLine
 62
7
  6
CONTINUOUS
 10
-12.3538131851
 20
155.969899563
 11
-12.3583160948
 21
154.9063644695
  0
LINE
  5
4D1
100
AcDbEntity
  8
ASSI
100
AcDbLine
 62
7
  6
CONTINUOUS
 10
-12.7466604407
 20
160.6797365735
 11
-12.741571092
 21
161.7345515775
  0
LINE
  5
4D2
100
AcDbEntity
  8
ASSI
100
AcDbLine
 62
7
  6
CONTINUOUS
 10
-12.7466604407
 20
67.6797365735
 11
-12.741571092
 21
68.7345515775
  0
LINE
  5
4D3
100
AcDbEntity
  8
ASSI
100
AcDbLine
 62
7
  6
CONTINUOUS
 10
-12.35511736
 20
62.6128411728
 11
-12.3602067087
 21
61.5580261688
  0
LINE
  5
4D4
100
AcDbEntity
  8
ASSI
100
AcDbLine
 62
7
  6
CONTINUOUS
 10
-12.741571092
 20
-24.2654484225
 11
-12.7490698865
 21
-26.0365767866
  0
LINE
  5
4D5
100
AcDbEntity
  8
ASSI
100
AcDbLine
 62
7
  6
CONTINUOUS
 10
-12.3602067087
 20
-31.4419738312
 11
-12.3527079142
 21
-29.6708454671
  0
LINE
  5
4D6
100
AcDbEntity
  8
ASSI
100
AcDbLine
 62
7
  6
CONTINUOUS
 10
-12.3583160948
 20
154.9063644695
 11
-12.3645629737
 21
153.872170633
  0
LINE
  5
4D7
100
AcDbEntity
  8
ASSI
100
AcDbLine
 62
7
  6
CONTINUOUS
 10
-12.741571092
 20
161.7345515775
 11
-12.7347548958
 21
162.7568707188
  0
LINE
  5
4D8
100
AcDbEntity
  8
ASSI
100
AcDbLine
 62
7
  6
CONTINUOUS
 10
-12.741571092
 20
68.7345515775
 11
-12.7347548958
 21
69.7568707188
  0
LINE
  5
4D9
100
AcDbEntity
  8
ASSI
100
AcDbLine
 62
7
  6
CONTINUOUS
 10
-12.3602067087
 20
61.5580261688
 11
-12.3670229049
 21
60.5357070275
  0
LINE
  5
4DA
100
AcDbEntity
  8
ASSI
100
AcDbLine
 62
7
  6
CONTINUOUS
 10
-12.3645629737
 20
153.872170633
 11
-12.372497249
 21
152.8766838733
  0
LINE
  5
4DB
100
AcDbEntity
  8
ASSI
100
AcDbLine
 62
7
  6
CONTINUOUS
 10
-12.7292805517
 20
-22.584106127
 11
-12.741571092
 21
-24.2654484225
  0
LINE
  5
4DC
100
AcDbEntity
  8
ASSI
100
AcDbLine
 62
7
  6
CONTINUOUS
 10
-12.372497249
 20
-33.1233161267
 11
-12.3602067087
 21
-31.4419738312
  0
LINE
  5
4DD
100
AcDbEntity
  8
RACCORDO
100
AcDbLine
 62
250
  6
CONTINUOUS
 10
-12.776834983
 20
189.719190353
 11
-12.7845041714
 21
188.613440337
  0
LINE
  5
4DE
100
AcDbEntity
  8
ASSI
100
AcDbLine
 62
7
  6
CONTINUOUS
 10
-12.7347548958
 20
162.7568707188
 11
-12.7262735807
 21
163.7374357169
  0
LINE
  5
4DF
100
AcDbEntity
  8
ASSI
100
AcDbLine
 62
7
  6
CONTINUOUS
 10
-12.7347548958
 20
69.7568707188
 11
-12.7262735807
 21
70.7374357169
  0
LINE
  5
4E0
100
AcDbEntity
  8
ASSI
100
AcDbLine
 62
7
  6
CONTINUOUS
 10
-12.3670229049
 20
60.5357070275
 11
-12.37550422
 21
59.5551420294
  0
LINE
  5
4E1
100
AcDbEntity
  8
ASSI
100
AcDbLine
 62
7
  6
CONTINUOUS
 10
-12.372497249
 20
152.8766838733
 11
-12.3820470668
 21
151.9289194724
  0
LINE
  5
4E2
100
AcDbEntity
  8
ASSI
100
AcDbLine
 62
7
  6
CONTINUOUS
 10
-12.7262735807
 20
163.7374357169
 11
-12.7162039547
 21
164.6673664234
  0
LINE
  5
4E3
100
AcDbEntity
  8
ASSI
100
AcDbLine
 62
7
  6
CONTINUOUS
 10
-12.7262735807
 20
70.7374357169
 11
-12.7162039547
 21
71.6673664234
  0
LINE
  5
4E4
100
AcDbEntity
  8
ASSI
100
AcDbLine
 62
7
  6
CONTINUOUS
 10
-12.37550422
 20
59.5551420294
 11
-12.385573846
 21
58.6252113229
  0
LINE
  5
4E5
100
AcDbEntity
  8
ASSI
100
AcDbLine
 62
7
  6
CONTINUOUS
 10
-12.7125072802
 20
-21.0351815893
 11
-12.7292805517
 21
-22.584106127
  0
LINE
  5
4E6
100
AcDbEntity
  8
ASSI
100
AcDbLine
 62
7
  6
CONTINUOUS
 10
-12.3892705205
 20
-34.6722406645
 11
-12.372497249
 21
-33.1233161267
  0
LINE
  5
4E7
100
AcDbEntity
  8
ASSI
100
AcDbLine
 62
7
  6
CONTINUOUS
 10
-12.3820470668
 20
151.9289194724
 11
-12.3931259423
 21
151.0374605316
  0
LINE
  5
4E8
100
AcDbEntity
  8
RACCORDO
100
AcDbLine
 62
250
  6
CONTINUOUS
 10
-12.761633269
 20
191.0341065873
 11
-12.776834983
 21
189.719190353
  0
LINE
  5
4E9
100
AcDbEntity
  8
ASSI
100
AcDbLine
 62
7
  6
CONTINUOUS
 10
-12.7162039547
 20
164.6673664234
 11
-12.70463721
 21
165.5382412418
  0
LINE
  5
4EA
100
AcDbEntity
  8
ASSI
100
AcDbLine
 62
7
  6
CONTINUOUS
 10
-12.7162039547
 20
71.6673664234
 11
-12.70463721
 21
72.5382412418
  0
LINE
  5
4EB
100
AcDbEntity
  8
ASSI
100
AcDbLine
 62
7
  6
CONTINUOUS
 10
-12.385573846
 20
58.6252113229
 11
-12.3971405906
 21
57.7543365045
  0
LINE
  5
4EC
100
AcDbEntity
  8
ASSI
100
AcDbLine
 62
7
  6
CONTINUOUS
 10
-12.3931259423
 20
151.0374605316
 11
-12.4056335436
 21
150.2103802411
  0
LINE
  5
4ED
100
AcDbEntity
  8
ASSI
100
AcDbLine
 62
7
  6
CONTINUOUS
 10
-12.6961442571
 20
-19.9178024948
 11
-12.7125072802
 21
-21.0351815893
  0
LINE
  5
4EE
100
AcDbEntity
  8
ASSI
100
AcDbLine
 62
7
  6
CONTINUOUS
 10
-12.4056335436
 20
-35.7896197589
 11
-12.3892705205
 21
-34.6722406645
  0
LINE
  5
4EF
100
AcDbEntity
  8
RACCORDO
100
AcDbLine
 62
250
  6
CONTINUOUS
 10
-12.7358415271
 20
192.6774275422
 11
-12.761633269
 21
191.0341065873
  0
LINE
  5
4F0
100
AcDbEntity
  8
RACCORDO
100
AcDbLine
 62
250
  6
CONTINUOUS
 10
-12.7192718525
 20
193.6462888731
 11
-12.7358415271
 21
192.6774275422
  0
LINE
  5
4F1
100
AcDbEntity
  8
ASSI
100
AcDbLine
 62
7
  6
CONTINUOUS
 10
-12.70463721
 20
165.5382412418
 11
-12.6916780969
 21
166.3421733949
  0
LINE
  5
4F2
100
AcDbEntity
  8
ASSI
100
AcDbLine
 62
7
  6
CONTINUOUS
 10
-12.70463721
 20
72.5382412418
 11
-12.6916780969
 21
73.3421733949
  0
LINE
  5
4F3
100
AcDbEntity
  8
ASSI
100
AcDbLine
 62
7
  6
CONTINUOUS
 10
-12.3971405906
 20
57.7543365045
 11
-12.4100997038
 21
56.9504043514
  0
LWPOLYLINE
  5
4F4
100
AcDbEntity
  8
RACCORDO
100
AcDbPolyline
 62
7
  6
CONTINUOUS
 90
16
 70
0
 10
-14.1164713264
 20
-63.3537111269
 10
-14.1186511693
 20
-63.4802655025
 10
-14.1247078443
 20
-63.6056885996
 10
-14.1345425494
 20
-63.7298656375
 10
-14.1480539269
 20
-63.8526851682
 10
-14.1651383939
 20
-63.9740466802
 10
-14.1856911891
 20
-64.093860525
 10
-14.2095697026
 20
-64.2118702874
 10
-14.2366926451
 20
-64.3281571956
 10
-14.2670900989
 20
-64.4431361199
 10
-14.3006895158
 20
-64.5567008802
 10
-14.3374271533
 20
-64.6687866604
 10
-14.3774352431
 20
-64.7798489673
 10
-14.4207608626
 20
-64.8899684039
 10
-14.4673130023
 20
-64.9988681799
 10
-14.5170601149
 20
-65.1064528562
  0
LINE
  5
4F5
100
AcDbEntity
  8
ASSI
100
AcDbLine
 62
7
  6
CONTINUOUS
 10
-12.4056335436
 20
150.2103802411
 11
-12.4194565999
 21
149.4551687681
  0
LINE
  5
4F6
100
AcDbEntity
  8
ASSI
100
AcDbLine
 62
7
  6
CONTINUOUS
 10
-12.6916780969
 20
166.3421733949
 11
-12.6774439749
 21
167.0718823486
  0
LINE
  5
4F7
100
AcDbEntity
  8
ASSI
100
AcDbLine
 62
7
  6
CONTINUOUS
 10
-12.6916780969
 20
73.3421733949
 11
-12.6774439749
 21
74.0718823486
  0
LINE
  5
4F8
100
AcDbEntity
  8
ASSI
100
AcDbLine
 62
7
  6
CONTINUOUS
 10
-12.4100997038
 20
56.9504043514
 11
-12.4243338258
 21
56.2206953977
  0
LINE
  5
4F9
100
AcDbEntity
  8
ASSI
100
AcDbLine
 62
7
  6
CONTINUOUS
 10
-12.6774439749
 20
-18.9281176514
 11
-12.6961442571
 21
-19.9178024948
  0
LINE
  5
4FA
100
AcDbEntity
  8
ASSI
100
AcDbLine
 62
7
  6
CONTINUOUS
 10
-12.4243338258
 20
-36.7793046023
 11
-12.4056335436
 21
-35.7896197589
  0
LINE
  5
4FB
100
AcDbEntity
  8
ASSI
100
AcDbLine
 62
7
  6
CONTINUOUS
 10
-12.6774439749
 20
167.0718823486
 11
-12.6673078732
 21
167.5139123217
  0
LINE
  5
4FC
100
AcDbEntity
  8
ASSI
100
AcDbLine
 62
7
  6
CONTINUOUS
 10
-12.4194565999
 20
149.4551687681
 11
-12.4344699275
 21
148.7786654246
  0
LINE
  5
4FD
100
AcDbEntity
  8
ASSI
100
AcDbLine
 62
7
  6
CONTINUOUS
 10
-12.6774439749
 20
74.0718823486
 11
-12.6673078732
 21
74.5139123217
  0
LINE
  5
4FE
100
AcDbEntity
  8
ASSI
100
AcDbLine
 62
7
  6
CONTINUOUS
 10
-12.4243338258
 20
56.2206953977
 11
-12.4344699275
 21
55.7786654246
  0
LINE
  5
4FF
100
AcDbEntity
  8
ASSI
100
AcDbLine
 62
7
  6
CONTINUOUS
 10
-12.6620637506
 20
-18.2792402544
 11
-12.6774439749
 21
-18.9281176514
  0
LINE
  5
500
100
AcDbEntity
  8
ASSI
100
AcDbLine
 62
7
  6
CONTINUOUS
 10
-12.43971405
 20
-37.4281819993
 11
-12.4243338258
 21
-36.7793046023
  0
LINE
  5
501
100
AcDbEntity
  8
ASSI
100
AcDbLine
 62
7
  6
CONTINUOUS
 10
-12.6673078732
 20
167.5139123217
 11
-12.6567024827
 21
167.9181810973
  0
LINE
  5
502
100
AcDbEntity
  8
ASSI
100
AcDbLine
 62
7
  6
CONTINUOUS
 10
-12.4344699275
 20
148.7786654246
 11
-12.4450753179
 21
148.374396649
  0
LINE
  5
503
100
AcDbEntity
  8
ASSI
100
AcDbLine
 62
7
  6
CONTINUOUS
 10
-12.6673078732
 20
74.5139123217
 11
-12.6567024827
 21
74.9181810973
  0
LINE
  5
504
100
AcDbEntity
  8
ASSI
100
AcDbLine
 62
7
  6
CONTINUOUS
 10
-12.4344699275
 20
55.7786654246
 11
-12.4450753179
 21
55.374396649
  0
LINE
  5
505
100
AcDbEntity
  8
ASSI
100
AcDbLine
 62
7
  6
CONTINUOUS
 10
-12.6567024827
 20
167.9181810973
 11
-12.6456767097
 21
168.2829292517
  0
LINE
  5
506
100
AcDbEntity
  8
ASSI
100
AcDbLine
 62
7
  6
CONTINUOUS
 10
-12.4450753179
 20
148.374396649
 11
-12.456101091
 21
148.0096484946
  0
LINE
  5
507
100
AcDbEntity
  8
ASSI
100
AcDbLine
 62
7
  6
CONTINUOUS
 10
-12.6567024827
 20
74.9181810973
 11
-12.6456767097
 21
75.2829292517
  0
LINE
  5
508
100
AcDbEntity
  8
ASSI
100
AcDbLine
 62
7
  6
CONTINUOUS
 10
-12.4450753179
 20
55.374396649
 11
-12.456101091
 21
55.0096484946
  0
LINE
  5
509
100
AcDbEntity
  8
ASSI
100
AcDbLine
 62
7
  6
CONTINUOUS
 10
-12.6456767097
 20
-17.7170707483
 11
-12.6620637506
 21
-18.2792402544
  0
LINE
  5
50A
100
AcDbEntity
  8
ASSI
100
AcDbLine
 62
7
  6
CONTINUOUS
 10
-12.456101091
 20
-37.9903515054
 11
-12.43971405
 21
-37.4281819993
  0
LINE
  5
50B
100
AcDbEntity
  8
ASSI
100
AcDbLine
 62
7
  6
CONTINUOUS
 10
-12.6456767097
 20
168.2829292517
 11
-12.6342638043
 21
168.6070568197
  0
LINE
  5
50C
100
AcDbEntity
  8
ASSI
100
AcDbLine
 62
7
  6
CONTINUOUS
 10
-12.456101091
 20
148.0096484946
 11
-12.4675139964
 21
147.6855209266
  0
LINE
  5
50D
100
AcDbEntity
  8
ASSI
100
AcDbLine
 62
7
  6
CONTINUOUS
 10
-12.6456767097
 20
75.2829292517
 11
-12.6342638043
 21
75.6070568197
  0
LINE
  5
50E
100
AcDbEntity
  8
ASSI
100
AcDbLine
 62
7
  6
CONTINUOUS
 10
-12.456101091
 20
55.0096484946
 11
-12.4675139964
 21
54.6855209266
  0
LINE
  5
50F
100
AcDbEntity
  8
ASSI
100
AcDbLine
 62
7
  6
CONTINUOUS
 10
-12.6342638043
 20
-17.3929431803
 11
-12.6456767097
 21
-17.7170707483
  0
LINE
  5
510
100
AcDbEntity
  8
ASSI
100
AcDbLine
 62
7
  6
CONTINUOUS
 10
-12.4675139964
 20
-38.3144790734
 11
-12.456101091
 21
-37.9903515054
  0
LWPOLYLINE
  5
511
100
AcDbEntity
  8
ASSI
100
AcDbPolyline
 62
7
  6
CONTINUOUS
 90
14
 70
0
 10
-12.6342638043
 20
168.6070568197
 10
-12.6225148119
 20
168.8890166888
 10
-12.6165323152
 20
169.0137982884
 10
-12.610483566
 20
169.1276115608
 10
-12.6043687639
 20
169.2304895167
 10
-12.5982063491
 20
169.3221219089
 10
-12.5919961779
 20
169.4024747899
 10
-12.585738394
 20
169.4715821072
 10
-12.5794518689
 20
169.5292354548
 10
-12.5731365159
 20
169.5754002564
 10
-12.5667924217
 20
169.6101110883
 10
-12.5604387181
 20
169.6332632737
 10
-12.5540753761
 20
169.6448219203
 10
-12.5508889003
 20
169.6462888731
  0
LWPOLYLINE
  5
512
100
AcDbEntity
  8
ASSI
100
AcDbPolyline
 62
7
  6
CONTINUOUS
 90
14
 70
0
 10
-12.4675139964
 20
147.6855209266
 10
-12.4792629888
 20
147.4035610574
 10
-12.4852454855
 20
147.2787794579
 10
-12.4912942346
 20
147.1649661855
 10
-12.4974090368
 20
147.0620882295
 10
-12.5035714516
 20
146.9704558374
 10
-12.5097816228
 20
146.8901029563
 10
-12.5160394067
 20
146.8209956391
 10
-12.5223259317
 20
146.7633422915
 10
-12.5286412848
 20
146.7171774899
 10
-12.534985379
 20
146.6824666579
 10
-12.5413390826
 20
146.6593144725
 10
-12.5477024246
 20
146.647755826
 10
-12.5508889003
 20
146.6462888731
  0
LWPOLYLINE
  5
513
100
AcDbEntity
  8
ASSI
100
AcDbPolyline
 62
7
  6
CONTINUOUS
 90
14
 70
0
 10
-12.6342638043
 20
75.6070568197
 10
-12.6225148119
 20
75.8890166888
 10
-12.6165323152
 20
76.0137982884
 10
-12.610483566
 20
76.1276115608
 10
-12.6043687639
 20
76.2304895167
 10
-12.5982063491
 20
76.3221219089
 10
-12.5919961779
 20
76.4024747899
 10
-12.585738394
 20
76.4715821072
 10
-12.5794518689
 20
76.5292354548
 10
-12.5731365159
 20
76.5754002564
 10
-12.5667924217
 20
76.6101110883
 10
-12.5604387181
 20
76.6332632737
 10
-12.5540753761
 20
76.6448219203
 10
-12.5508889003
 20
76.6462888731
  0
LWPOLYLINE
  5
514
100
AcDbEntity
  8
ASSI
100
AcDbPolyline
 62
7
  6
CONTINUOUS
 90
14
 70
0
 10
-12.4675139964
 20
54.6855209266
 10
-12.4792629888
 20
54.4035610574
 10
-12.4852454855
 20
54.2787794579
 10
-12.4912942346
 20
54.1649661855
 10
-12.4974090368
 20
54.0620882295
 10
-12.5035714516
 20
53.9704558374
 10
-12.5097816228
 20
53.8901029563
 10
-12.5160394067
 20
53.8209956391
 10
-12.5223259317
 20
53.7633422915
 10
-12.5286412848
 20
53.7171774899
 10
-12.534985379
 20
53.6824666579
 10
-12.5413390826
 20
53.6593144725
 10
-12.5477024246
 20
53.647755826
 10
-12.5508889003
 20
53.6462888731
  0
LWPOLYLINE
  5
515
100
AcDbEntity
  8
ASSI
100
AcDbPolyline
 62
7
  6
CONTINUOUS
 90
12
 70
0
 10
-68.6668774719
 20
-68.9696996984
 10
-68.6683444248
 20
-68.9728861742
 10
-68.6799030713
 20
-68.9792495162
 10
-68.7030552567
 20
-68.9856032198
 10
-68.7377660887
 20
-68.991947314
 10
-68.7839308903
 20
-68.998262667
 10
-68.8415842379
 20
-69.0045491921
 10
-68.9106915551
 20
-69.010806976
 10
-68.9910444362
 20
-69.0170171472
 10
-69.0826768283
 20
-69.023179562
 10
-69.1855547843
 20
-69.0292943641
 10
-69.2993680567
 20
-69.0353431133
  0
LWPOLYLINE
  5
516
100
AcDbEntity
  8
0
100
AcDbPolyline
 62
7
  6
CONTINUOUS
 90
14
 70
0
 10
-68.6668774719
 20
199.2622774447
 10
-68.6683444248
 20
199.2654639204
 10
-68.6799030713
 20
199.2718272625
 10
-68.7030552567
 20
199.2781809661
 10
-68.7377660887
 20
199.2845250603
 10
-68.7839308903
 20
199.2908404133
 10
-68.8415842379
 20
199.2971269384
 10
-68.9106915551
 20
199.3033847223
 10
-68.9910444362
 20
199.3095948935
 10
-69.0826768283
 20
199.3157573083
 10
-69.1855547843
 20
199.3218721104
 10
-69.2993680567
 20
199.3279208595
 10
-69.4241496562
 20
199.3339033563
 10
-69.7061095253
 20
199.3456523487
  0
LWPOLYLINE
  5
517
100
AcDbEntity
  8
ASSI
100
AcDbPolyline
 62
7
  6
CONTINUOUS
 90
3
 70
0
 10
-12.4852454855
 20
169.0137982884
 10
-12.473346545
 20
168.7532997729
 10
-12.4675139964
 20
168.6070568197
  0
LWPOLYLINE
  5
518
100
AcDbEntity
  8
RACCORDO
100
AcDbPolyline
 62
250
  6
CONTINUOUS
 90
28
 70
0
 10
-12.7192718525
 20
193.6462888731
 10
-12.7240090461
 20
193.7620153405
 10
-12.7339775187
 20
193.8748555698
 10
-12.7491573835
 20
193.984694365
 10
-12.7695403944
 20
194.091468591
 10
-12.7951044245
 20
194.1950087186
 10
-12.825790892
 20
194.2950406874
 10
-12.8615641757
 20
194.3914017227
 10
-12.9023917408
 20
194.4840184489
 10
-12.9481822673
 20
194.5727542042
 10
-12.9988779658
 20
194.6574496597
 10
-13.0544311493
 20
194.7380248514
 10
-13.1147317887
 20
194.8144673636
 10
-13.1797034813
 20
194.886667279
 10
-13.2492780624
 20
194.9544945544
 10
-13.3233293025
 20
195.0179129665
 10
-13.4017644206
 20
195.0768305819
 10
-13.4844898973
 20
195.1311019494
 10
-13.5713534542
 20
195.1806176939
 10
-13.6622337773
 20
195.2252267446
 10
-13.7570188485
 20
195.2648502292
 10
-13.8555480969
 20
195.2994955404
 10
-13.9576743688
 20
195.3290380397
 10
-14.0632618222
 20
195.3533874679
 10
-14.1721482657
 20
195.3726124784
 10
-14.2841677375
 20
195.3866726973
 10
-14.399153084
 20
195.3954158828
 10
-14.5169258734
 20
195.3987510308
  0
LWPOLYLINE
  5
519
100
AcDbEntity
  8
ASSI
100
AcDbPolyline
 62
7
  6
CONTINUOUS
 90
12
 70
0
 10
-57.6668774719
 20
-68.9696996984
 10
-57.6654105191
 20
-68.9665132227
 10
-57.6538518725
 20
-68.9601498807
 10
-57.6306996871
 20
-68.9537961771
 10
-57.5959888552
 20
-68.9474520829
 10
-57.5498240535
 20
-68.9411367298
 10
-57.492170706
 20
-68.9348502048
 10
-57.4230633887
 20
-68.9285924209
 10
-57.3427105076
 20
-68.9223822497
 10
-57.2510781155
 20
-68.9162198349
 10
-57.1482001596
 20
-68.9101050327
 10
-57.0343868871
 20
-68.9040562836
  0
LINE
  5
51A
100
AcDbEntity
  8
0
100
AcDbLine
 62
7
  6
CONTINUOUS
 10
-83.2515604719
 20
187.7422888731
 11
-83.0728254719
 21
187.5199918731
  0
LWPOLYLINE
  5
51B
100
AcDbEntity
  8
0
100
AcDbPolyline
 62
7
  6
CONTINUOUS
 90
13
 70
0
 10
-57.6668774719
 20
199.2622774447
 10
-57.6654105191
 20
199.259090969
 10
-57.6538518725
 20
199.252727627
 10
-57.6306996871
 20
199.2463739234
 10
-57.5959888552
 20
199.2400298291
 10
-57.5498240535
 20
199.2337144761
 10
-57.492170706
 20
199.227427951
 10
-57.4230633887
 20
199.2211701671
 10
-57.3427105076
 20
199.2149599959
 10
-57.2510781155
 20
199.2087975811
 10
-57.1482001596
 20
199.202682779
 10
-57.0343868871
 20
199.1966340299
 10
-56.7738883716
 20
199.1847350894
  0
LINE
  5
51C
100
AcDbEntity
  8
DRAFT
100
AcDbLine
 62
7
  6
CONTINUOUS
 10
-13.6668774719
 20
9.3462888731
 11
-13.5307770383
 21
9.4823893068
  0
LWPOLYLINE
  5
51D
100
AcDbEntity
  8
0
100
AcDbPolyline
 62
7
  6
CONTINUOUS
 90
9
 70
0
 10
-79.9169789963
 20
188.0095576349
 10
-79.8900922582
 20
187.9824894374
 10
-79.864238601
 20
187.9530776584
 10
-79.8394180246
 20
187.9213222979
 10
-79.8153891857
 20
187.886991472
 10
-79.7923934276
 20
187.8503170646
 10
-79.7711547806
 20
187.8119947278
 10
-79.7519145881
 20
187.7722563456
 10
-79.7344315067
 20
187.7308700341
  0
LWPOLYLINE
  5
51E
100
AcDbEntity
  8
ASSI
100
AcDbPolyline
 62
7
  6
CONTINUOUS
 90
12
 70
0
 10
-34.6668774719
 20
-68.9696996984
 10
-34.6683444248
 20
-68.9728861742
 10
-34.6799030713
 20
-68.9792495162
 10
-34.7030552567
 20
-68.9856032198
 10
-34.7377660887
 20
-68.991947314
 10
-34.7839308903
 20
-68.998262667
 10
-34.8415842379
 20
-69.0045491921
 10
-34.9106915551
 20
-69.010806976
 10
-34.9910444362
 20
-69.0170171472
 10
-35.0826768283
 20
-69.023179562
 10
-35.1855547843
 20
-69.0292943641
 10
-35.2993680567
 20
-69.0353431133
  0
LINE
  5
51F
100
AcDbEntity
  8
0
100
AcDbLine
 62
7
  6
CONTINUOUS
 10
-68.9707844034
 20
157.0462888731
 11
-70.0968094054
 21
157.0462888731
  0
LINE
  5
520
100
AcDbEntity
  8
0
100
AcDbLine
 62
7
  6
CONTINUOUS
 10
-90.2369455385
 20
157.0462888731
 11
-91.3629705405
 21
157.0462888731
  0
LINE
  5
521
100
AcDbEntity
  8
0
100
AcDbLine
 62
7
  6
CONTINUOUS
 10
-91.3629705405
 20
159.2462888731
 11
-90.2369455385
 21
159.2462888731
  0
LINE
  5
522
100
AcDbEntity
  8
0
100
AcDbLine
 62
7
  6
CONTINUOUS
 10
-70.0968094054
 20
159.2462888731
 11
-68.9707844034
 21
159.2462888731
  0
LWPOLYLINE
  5
523
100
AcDbEntity
  8
0
100
AcDbPolyline
 62
7
  6
CONTINUOUS
 90
14
 70
0
 10
-34.6668774719
 20
199.2622774447
 10
-34.6683444248
 20
199.2654639204
 10
-34.6799030713
 20
199.2718272625
 10
-34.7030552567
 20
199.2781809661
 10
-34.7377660887
 20
199.2845250603
 10
-34.7839308903
 20
199.2908404133
 10
-34.8415842379
 20
199.2971269384
 10
-34.9106915551
 20
199.3033847223
 10
-34.9910444362
 20
199.3095948935
 10
-35.0826768283
 20
199.3157573083
 10
-35.1855547843
 20
199.3218721104
 10
-35.2993680567
 20
199.3279208595
 10
-35.4241496562
 20
199.3339033563
 10
-35.7061095253
 20
199.3456523487
  0
LWPOLYLINE
  5
524
100
AcDbEntity
  8
ASSI
100
AcDbPolyline
 62
7
  6
CONTINUOUS
 90
14
 70
0
 10
-12.5508889003
 20
-16.3537111269
 10
-12.5540753761
 20
-16.3551780797
 10
-12.5604387181
 20
-16.3667367263
 10
-12.5667924217
 20
-16.3898889117
 10
-12.5731365159
 20
-16.4245997436
 10
-12.5794518689
 20
-16.4707645452
 10
-12.585738394
 20
-16.5284178928
 10
-12.5919961779
 20
-16.5975252101
 10
-12.5982063491
 20
-16.6778780911
 10
-12.6043687639
 20
-16.7695104833
 10
-12.610483566
 20
-16.8723884392
 10
-12.6165323152
 20
-16.9862017116
 10
-12.6225148119
 20
-17.1109833112
 10
-12.6342638043
 20
-17.3929431803
  0
LINE
  5
525
100
AcDbEntity
  8
0
100
AcDbLine
 62
7
  6
CONTINUOUS
 10
-131.5668774719
 20
174.6462888731
 11
-131.7668774719
 21
174.6462888731
  0
LWPOLYLINE
  5
526
100
AcDbEntity
  8
ASSI
100
AcDbPolyline
 62
7
  6
CONTINUOUS
 90
12
 70
0
 10
-12.5508889003
 20
146.6462888731
 10
-12.5540753761
 20
146.647755826
 10
-12.5604387181
 20
146.6593144725
 10
-12.5667924217
 20
146.6824666579
 10
-12.5731365159
 20
146.7171774899
 10
-12.5794518689
 20
146.7633422915
 10
-12.585738394
 20
146.8209956391
 10
-12.5919961779
 20
146.8901029563
 10
-12.5982063491
 20
146.9704558374
 10
-12.6043687639
 20
147.0620882295
 10
-12.610483566
 20
147.1649661855
 10
-12.6165323152
 20
147.2787794579
  0
LINE
  5
527
100
AcDbEntity
  8
0
100
AcDbLine
 62
7
  6
CONTINUOUS
 10
-78.8659054063
 20
187.9408828396
 11
-78.6117056091
 21
187.8110919432
  0
LWPOLYLINE
  5
528
100
AcDbEntity
  8
0
100
AcDbPolyline
 62
7
  6
CONTINUOUS
 90
16
 70
0
 10
-77.6804930911
 20
186.7056935714
 10
-77.6570746316
 20
186.6899879889
 10
-77.6342462878
 20
186.6716256288
 10
-77.6120080597
 20
186.650606491
 10
-77.5900920545
 20
186.6268425752
 10
-77.5687661649
 20
186.6004218817
 10
-77.5488340693
 20
186.5716084115
 10
-77.5302541266
 20
186.540063366
 10
-77.5130679779
 20
186.5061255439
 10
-77.4982042252
 20
186.4710753415
 10
-77.4859930001
 20
186.4353828486
 10
-77.476104171
 20
186.3985779755
 10
-77.4684759448
 20
186.3605308493
 10
-77.4630877239
 20
186.321198179
 10
-77.459960106
 20
186.2806232557
 10
-77.4590930911
 20
186.2388060792
  0
LWPOLYLINE
  5
529
100
AcDbEntity
  8
0
100
AcDbPolyline
 62
7
  6
CONTINUOUS
 90
88
 70
0
 10
-80.2853383615
 20
185.3970888731
 10
-80.2249270829
 20
185.3995983857
 10
-80.1675269899
 20
185.4046790285
 10
-80.1131380824
 20
185.4123308017
 10
-80.0617952728
 20
185.4227198764
 10
-80.0134636488
 20
185.4356800813
 10
-79.9680384732
 20
185.4507129028
 10
-79.9258426554
 20
185.4676922966
 10
-79.8865532862
 20
185.4867443069
 10
-79.8490969004
 20
185.5077485526
 10
-79.8136116118
 20
185.5304514317
 10
-79.7799593068
 20
185.5551065462
 10
-79.7466521797
 20
185.582354322
 10
-79.713007971
 20
185.6121897237
 10
-79.6797089404
 20
185.6446177866
 10
-79.6473140609
 20
185.6802940434
 10
-79.615305621
 20
185.7204266553
 10
-79.5842013323
 20
185.7638074609
 10
-79.5561133028
 20
185.8074675088
 10
-79.532034537
 20
185.8508966564
 10
-79.5109720304
 20
185.8946050462
 10
-79.4920588778
 20
185.9371541538
 10
-79.4752788826
 20
185.9780794836
 10
-79.4606482413
 20
186.0178455312
 10
-79.4473486385
 20
186.0564072592
 10
-79.4352222788
 20
186.0937112644
 10
-79.4244269575
 20
186.1298109499
 10
-79.4146177459
 20
186.1648214881
 10
-79.4057628232
 20
186.1987451033
 10
-79.3978940102
 20
186.231579571
 10
-79.3907618397
 20
186.2634333901
 10
-79.3843285219
 20
186.294256793
 10
-79.3786318468
 20
186.3240995473
 10
-79.3735357172
 20
186.3532194546
 10
-79.3691105133
 20
186.3812686002
 10
-79.365285855
 20
186.4085948989
 10
-79.3617145038
 20
186.4364998961
 10
-79.358317446
 20
186.4653084341
 10
-79.3551736953
 20
186.4946956707
 10
-79.3521730547
 20
186.5249886245
 10
-79.3492556236
 20
186.556262809
 10
-79.3464813025
 20
186.5884427106
 10
-79.3439195959
 20
186.6216288084
 10
-79.3415626228
 20
186.6558171058
 10
-79.3394182641
 20
186.6910115993
 10
-79.3375796678
 20
186.7273247569
 10
-79.3360382879
 20
186.7647532902
 10
-79.3348026704
 20
186.8033004875
 10
-79.3339916005
 20
186.8430886821
 10
-79.3336083091
 20
186.8841190483
 10
-79.3336495655
 20
186.9263904117
 10
-79.3342244623
 20
186.9700215817
 10
-79.335325654
 20
187.0150089062
 10
-79.3369604862
 20
187.0613560373
 10
-79.3392600886
 20
187.1091927406
 10
-79.34219755
 20
187.1585106297
 10
-79.3457997816
 20
187.2093180909
 10
-79.3502786475
 20
187.261770049
 10
-79.3552909885
 20
187.3158323425
 10
-79.3611799639
 20
187.3715391329
 10
-79.3691869149
 20
187.4291478293
 10
-79.379622723
 20
187.4891257368
 10
-79.3921765067
 20
187.5510055504
 10
-79.4071569632
 20
187.613642764
 10
-79.425032433
 20
187.6779700906
 10
-79.4453345755
 20
187.7430548171
 10
-79.466967066
 20
187.8049542977
 10
-79.489370724
 20
187.8623409697
 10
-79.5131047301
 20
187.9165423958
 10
-79.5387503011
 20
187.9675986179
 10
-79.566589437
 20
188.0154317695
 10
-79.5963401379
 20
188.060119717
 10
-79.6277376205
 20
188.101936102
 10
-79.6611546446
 20
188.1411308539
 10
-79.6962184503
 20
188.1774540432
 10
-79.7315459754
 20
188.2104295237
 10
-79.7661964251
 20
188.2395917482
 10
-79.8011105943
 20
188.2654062639
 10
-79.8377278048
 20
188.288793566
 10
-79.8760780455
 20
188.3099383309
 10
-79.9161313275
 20
188.3286558823
 10
-79.9592370063
 20
188.3453126864
 10
-80.0058557055
 20
188.360194672
 10
-80.0555268014
 20
188.3730159102
 10
-80.1082177776
 20
188.3832850815
 10
-80.1639177954
 20
188.3908384124
 10
-80.2226376935
 20
188.3958396763
 10
-80.2843774719
 20
188.3982888731
  0
LWPOLYLINE
  5
52A
100
AcDbEntity
  8
0
100
AcDbPolyline
 62
7
  6
CONTINUOUS
 90
13
 70
0
 10
-78.3208614719
 20
186.8324732512
 10
-78.2534336805
 20
186.8340922149
 10
-78.1885228363
 20
186.8335108449
 10
-78.1261289394
 20
186.8307291413
 10
-78.0661527149
 20
186.8257929388
 10
-78.0086934377
 20
186.8186564025
 10
-77.9540489322
 20
186.8091820285
 10
-77.9025182755
 20
186.7972229676
 10
-77.8538023905
 20
186.7829260689
 10
-77.8073018702
 20
186.7665943756
 10
-77.7628169124
 20
186.7483289021
 10
-77.7205473194
 20
186.7280286341
 10
-77.6804930911
 20
186.7056935714
  0
LINE
  5
52B
100
AcDbEntity
  8
RACCORDO
100
AcDbLine
 62
7
  6
CONTINUOUS
 10
-12.7167120172
 20
181.7462888731
 11
-13.1668774719
 21
181.7462888731
  0
LINE
  5
52C
100
AcDbEntity
  8
ASSI
100
AcDbLine
 62
250
  6
CONTINUOUS
 10
-13.1668774719
 20
182.0462888731
 11
-12.7114754977
 21
182.0462888731
  0
LINE
  5
52D
100
AcDbEntity
  8
0
100
AcDbLine
 62
7
  6
CONTINUOUS
 10
-121.6668774719
 20
184.5462888731
 11
-38.6668774719
 21
184.5462888731
  0
LINE
  5
52E
100
AcDbEntity
  8
0
100
AcDbLine
 62
7
  6
CONTINUOUS
 10
-38.6668774719
 20
184.7462888731
 11
-121.6668774719
 21
184.7462888731
  0
LINE
  5
52F
100
AcDbEntity
  8
0
100
AcDbLine
 62
7
  6
CONTINUOUS
 10
-82.5676934719
 20
185.4462888731
 11
-82.2855614719
 21
185.4462888731
  0
LINE
  5
530
100
AcDbEntity
  8
RACCORDO
100
AcDbLine
 62
250
  6
CONTINUOUS
 10
-146.0469941749
 20
187.0225153377
 11
-147.5467657176
 21
187.0225153377
  0
LWPOLYLINE
  5
531
100
AcDbEntity
  8
RACCORDO
100
AcDbPolyline
 62
7
  6
CONTINUOUS
 90
16
 70
0
 10
-14.516925803
 20
195.398750891
 10
-14.4669883213
 20
195.29071669
 10
-14.4202522755
 20
195.1813104656
 10
-14.3767537178
 20
195.0706271329
 10
-14.336565427
 20
194.9588773502
 10
-14.2996715032
 20
194.8460451048
 10
-14.266001201
 20
194.7318765088
 10
-14.2356192669
 20
194.616498163
 10
-14.208567758
 20
194.499965239
 10
-14.1848102282
 20
194.3819006169
 10
-14.1644091432
 20
194.2622140909
 10
-14.1474922257
 20
194.1411770847
 10
-14.1341537001
 20
194.0189532308
 10
-14.1244740069
 20
193.8956683331
 10
-14.118526069
 20
193.7714093067
 10
-14.1163830941
 20
193.6462888731
  0
LWPOLYLINE
  5
532
100
AcDbEntity
  8
RACCORDO
100
AcDbPolyline
 62
250
  6
CONTINUOUS
 90
31
 70
0
 10
-16.7295294158
 20
-61.7985584985
 10
-16.5945325262
 20
-61.6438746797
 10
-16.4618827754
 20
-61.4885873028
 10
-16.3315801634
 20
-61.3326963678
 10
-16.2034457022
 20
-61.1762523104
 10
-16.0776583797
 20
-61.019204695
 10
-15.9547551603
 20
-60.8614022143
 10
-15.8347333104
 20
-60.7028458327
 10
-15.7175955636
 20
-60.5435345858
 10
-15.6038870846
 20
-60.3833142735
 10
-15.4936078657
 20
-60.2221848887
 10
-15.3867579147
 20
-60.0601464385
 10
-15.2838824194
 20
-59.8970447441
 10
-15.1849813737
 20
-59.7328797929
 10
-15.0900547837
 20
-59.5676515976
 10
-14.9996478558
 20
-59.4012060169
 10
-14.9137605893
 20
-59.2335430323
 10
-14.8323929849
 20
-59.0646626623
 10
-14.756090251
 20
-58.8944108206
 10
-14.6848523975
 20
-58.7227874858
 10
-14.6186794146
 20
-58.5497926793
 10
-14.5581164812
 20
-58.3752723796
 10
-14.5031636226
 20
-58.1992265828
 10
-14.4538208136
 20
-58.0216552926
 10
-14.410633157
 20
-57.8424044992
 10
-14.3736006816
 20
-57.6614741457
 10
-14.3427233587
 20
-57.4788642889
 10
-14.3185462043
 20
-57.294421089
 10
-14.3012508906
 20
-57.1080932662
 10
-14.2906557455
 20
-56.9199321003
 10
-14.2867607689
 20
-56.7299375914
  0
LWPOLYLINE
  5
533
100
AcDbEntity
  8
ASSI
100
AcDbPolyline
 62
7
  6
CONTINUOUS
 90
14
 70
0
 10
-12.5508889003
 20
-39.3537111269
 10
-12.5477024246
 20
-39.352244174
 10
-12.5413390826
 20
-39.3406855275
 10
-12.534985379
 20
-39.3175333421
 10
-12.5286412848
 20
-39.2828225101
 10
-12.5223259317
 20
-39.2366577085
 10
-12.5160394067
 20
-39.1790043609
 10
-12.5097816228
 20
-39.1098970437
 10
-12.5035714516
 20
-39.0295441626
 10
-12.4974090368
 20
-38.9379117705
 10
-12.4912942346
 20
-38.8350338145
 10
-12.4852454855
 20
-38.7212205421
 10
-12.4792629888
 20
-38.5964389426
 10
-12.4675139964
 20
-38.3144790734
  0
LWPOLYLINE
  5
534
100
AcDbEntity
  8
0
100
AcDbPolyline
 62
7
  6
CONTINUOUS
 90
13
 70
0
 10
-35.4241496562
 20
199.1906515332
 10
-35.2993680567
 20
199.1966340299
 10
-35.1855547843
 20
199.202682779
 10
-35.0826768283
 20
199.2087975811
 10
-34.9910444362
 20
199.2149599959
 10
-34.9106915551
 20
199.2211701671
 10
-34.8415842379
 20
199.227427951
 10
-34.7839308903
 20
199.2337144761
 10
-34.7377660887
 20
199.2400298291
 10
-34.7030552567
 20
199.2463739234
 10
-34.6799030713
 20
199.252727627
 10
-34.6683444248
 20
199.259090969
 10
-34.6668774719
 20
199.2622774447
  0
LWPOLYLINE
  5
535
100
AcDbEntity
  8
0
100
AcDbPolyline
 62
7
  6
CONTINUOUS
 90
70
 70
0
 10
-80.2843774719
 20
188.3982888731
 10
-80.347633184
 20
188.3955411653
 10
-80.4076508977
 20
188.3900493427
 10
-80.464430613
 20
188.3818134054
 10
-80.5178883058
 20
188.3706611428
 10
-80.5681080002
 20
188.3567647655
 10
-80.6153417685
 20
188.3406409045
 10
-80.6593182229
 20
188.3225498207
 10
-80.7003087511
 20
188.3022312531
 10
-80.7393795882
 20
188.2794210498
 10
-80.7763886465
 20
188.2543378014
 10
-80.8114780135
 20
188.2267629173
 10
-80.8461401876
 20
188.1957764736
 10
-80.8812987017
 20
188.1609643977
 10
-80.9160300228
 20
188.1227407623
 10
-80.9490560493
 20
188.0814278612
 10
-80.9802443728
 20
188.0365214113
 10
-81.0097274017
 20
187.9885256957
 10
-81.036624259
 20
187.939275858
 10
-81.060127437
 20
187.8898618809
 10
-81.0810444433
 20
187.8391937816
 10
-81.1009169244
 20
187.7858367549
 10
-81.1203903859
 20
187.7294641573
 10
-81.1388193221
 20
187.6704026322
 10
-81.1558088623
 20
187.6081973053
 10
-81.1713186048
 20
187.5427038992
 10
-81.1853889513
 20
187.4740666912
 10
-81.1977462373
 20
187.402263639
 10
-81.208311377
 20
187.3263531348
 10
-81.217163456
 20
187.2472767864
 10
-81.2242660673
 20
187.1678373757
 10
-81.2296036098
 20
187.0877562237
 10
-81.2331916845
 20
187.0073120095
 10
-81.2350406868
 20
186.9301435513
 10
-81.2349633212
 20
186.8576431819
 10
-81.2331468833
 20
186.7884185685
 10
-81.2301636552
 20
186.7219315319
 10
-81.2260599352
 20
186.6581635217
 10
-81.220789425
 20
186.5971330883
 10
-81.2147855123
 20
186.5383577034
 10
-81.2084106776
 20
186.4825557807
 10
-81.2013024403
 20
186.4290089066
 10
-81.1928067464
 20
186.375079312
 10
-81.1830129712
 20
186.3203592763
 10
-81.1718317393
 20
186.2652565202
 10
-81.1583408714
 20
186.2083564369
 10
-81.1420488355
 20
186.1480680146
 10
-81.1234471635
 20
186.0859822652
 10
-81.1030882715
 20
186.0254576181
 10
-81.0812480328
 20
185.9671189321
 10
-81.057650574
 20
185.9103413484
 10
-81.0320206921
 20
185.8566087197
 10
-81.0042225978
 20
185.8064510063
 10
-80.9743920803
 20
185.7593382479
 10
-80.942661304
 20
185.7151644163
 10
-80.9085499085
 20
185.6737318451
 10
-80.8725382543
 20
185.6352382008
 10
-80.8361995877
 20
185.6001704545
 10
-80.8003870053
 20
185.5689884904
 10
-80.7642474105
 20
185.5412324242
 10
-80.7267947601
 20
185.5160095744
 10
-80.6881753161
 20
185.4931146928
 10
-80.6482428164
 20
185.4727530274
 10
-80.6055724317
 20
185.4546476413
 10
-80.5598324232
 20
185.438548979
 10
-80.5113545296
 20
185.424706596
 10
-80.4597091379
 20
185.413592221
 10
-80.4047530439
 20
185.405363097
 10
-80.3466294517
 20
185.399861981
 10
-80.2853383615
 20
185.3970888731
  0
LINE
  5
536
100
AcDbEntity
  8
RACCORDO
100
AcDbLine
 62
7
  6
CONTINUOUS
 10
-14.1140604912
 20
192.0934718924
 11
-15.0472824191
 21
192.0918939441
  0
LINE
  5
537
100
AcDbEntity
  8
RACCORDO
100
AcDbLine
 62
7
  6
CONTINUOUS
 10
-15.0472824191
 20
192.0918939441
 11
-15.4646234354
 21
192.0915217106
  0
LINE
  5
538
100
AcDbEntity
  8
RACCORDO
100
AcDbLine
 62
7
  6
CONTINUOUS
 10
-15.4646234354
 20
192.0915217106
 11
-15.9296949986
 21
192.0912683958
  0
LINE
  5
539
100
AcDbEntity
  8
RACCORDO
100
AcDbLine
 62
7
  6
CONTINUOUS
 10
-15.9296949986
 20
192.0912683958
 11
-16.2736162264
 21
192.09117194
  0
LINE
  5
53A
100
AcDbEntity
  8
ASSI
100
AcDbLine
 62
250
  6
CONTINUOUS
 10
-13.1668774719
 20
187.2462888731
 11
-12.7114754977
 21
187.2462888731
  0
LINE
  5
53B
100
AcDbEntity
  8
RACCORDO
100
AcDbLine
 62
250
  6
CONTINUOUS
 10
-14.2867607689
 20
187.5462888731
 11
-13.1668774719
 21
187.5462888699
  0
LINE
  5
53C
100
AcDbEntity
  8
RACCORDO
100
AcDbLine
 62
7
  6
CONTINUOUS
 10
-13.1668774719
 20
187.5462888731
 11
-12.7167120172
 21
187.5462888731
  0
LINE
  5
53D
100
AcDbEntity
  8
0
100
AcDbLine
 62
7
  6
CONTINUOUS
 10
-82.2855614719
 20
188.3490888731
 11
-82.5352134719
 21
188.3490888731
  0
LINE
  5
53E
100
AcDbEntity
  8
RACCORDO
100
AcDbLine
 62
7
  6
CONTINUOUS
 10
-16.2736162264
 20
192.09117194
 11
-16.6475058729
 21
192.0911362448
  0
LINE
  5
53F
100
AcDbEntity
  8
RACCORDO
100
AcDbLine
 62
7
  6
CONTINUOUS
 10
-18.1668774719
 20
192.0911362448
 11
-16.6474090206
 21
192.0911362448
  0
LINE
  5
540
100
AcDbEntity
  8
DRAFT
100
AcDbLine
 62
7
  6
CONTINUOUS
 10
-146.1668774719
 20
192.1462888731
 11
-142.1668774719
 21
192.1462888731
  0
LINE
  5
541
100
AcDbEntity
  8
DRAFT
100
AcDbLine
 62
7
  6
CONTINUOUS
 10
-14.1668774719
 20
192.1462888731
 11
-18.1668774719
 21
192.1462888731
  0
LINE
  5
542
100
AcDbEntity
  8
DRAFT
100
AcDbLine
 62
250
  6
CONTINUOUS
 10
-140.6668774719
 20
193.6462888731
 11
-140.6117248435
 21
193.6462888731
  0
LINE
  5
543
100
AcDbEntity
  8
RACCORDO
100
AcDbLine
 62
250
  6
CONTINUOUS
 10
-14.1668774719
 20
193.6462888731
 11
-14.1163830941
 21
193.6462888731
  0
LINE
  5
544
100
AcDbEntity
  8
RACCORDO
100
AcDbLine
 62
250
  6
CONTINUOUS
 10
-12.7192718525
 20
193.6462888731
 11
-12.1668774719
 21
193.6462888731
  0
LINE
  5
545
100
AcDbEntity
  8
DRAFT
100
AcDbLine
 62
250
  6
CONTINUOUS
 10
-19.6668774719
 20
193.6462888731
 11
-19.7220301003
 21
193.6462888731
  0
LINE
  5
546
100
AcDbEntity
  8
RACCORDO
100
AcDbLine
 62
250
  6
CONTINUOUS
 10
-146.1668774719
 20
193.6462888731
 11
-146.2172836174
 21
193.6462888731
  0
LINE
  5
547
100
AcDbEntity
  8
RACCORDO
100
AcDbLine
 62
250
  6
CONTINUOUS
 10
-147.6144830914
 20
193.6462888731
 11
-148.1668774719
 21
193.6462888731
  0
LINE
  5
548
100
AcDbEntity
  8
RACCORDO
100
AcDbLine
 62
7
  6
CONTINUOUS
 10
-142.1668774719
 20
192.0911362448
 11
-145.1190555009
 21
192.0918051527
  0
LINE
  5
549
100
AcDbEntity
  8
RACCORDO
100
AcDbLine
 62
7
  6
CONTINUOUS
 10
-145.1190555009
 20
192.0918051527
 11
-146.2195095244
 21
192.0936568207
  0
LWPOLYLINE
  5
54A
100
AcDbEntity
  8
0
100
AcDbPolyline
 62
7
  6
CONTINUOUS
 90
25
 70
0
 10
-78.0658930911
 20
188.132173254
 10
-78.0227495567
 20
188.1304733428
 10
-77.9813557971
 20
188.1270547979
 10
-77.9417118122
 20
188.1219176191
 10
-77.9036232832
 20
188.1149584649
 10
-77.867284529
 20
188.106280677
 10
-77.8332785061
 20
188.0961942804
 10
-77.8018343233
 20
188.0847215417
 10
-77.7727228717
 20
188.0718401945
 10
-77.7458397813
 20
188.0577934643
 10
-77.721362093
 20
188.0427766207
 10
-77.6991127659
 20
188.0265943941
 10
-77.6784563077
 20
188.0089042025
 10
-77.6593519033
 20
187.9898222421
 10
-77.6418403677
 20
187.9692323166
 10
-77.6254086538
 20
187.9464432547
 10
-77.6097945028
 20
187.9213161421
 10
-77.5952601735
 20
187.8939898932
 10
-77.5820793944
 20
187.8641900799
 10
-77.5701287766
 20
187.8316577786
 10
-77.559531709
 20
187.796651913
 10
-77.550932087
 20
187.7596748267
 10
-77.5445445425
 20
187.7208939676
 10
-77.5401544435
 20
187.6801418877
 10
-77.5377617902
 20
187.637418587
  0
LWPOLYLINE
  5
54B
100
AcDbEntity
  8
0
100
AcDbPolyline
 62
7
  6
CONTINUOUS
 90
13
 70
0
 10
-80.2843774719
 20
188.132173254
 10
-80.2437649101
 20
188.1301418597
 10
-80.2048329172
 20
188.1263917123
 10
-80.1675814934
 20
188.1209228119
 10
-80.1319007837
 20
188.11359061
 10
-80.0979006431
 20
188.104539655
 10
-80.0659106356
 20
188.0942035925
 10
-80.0360355611
 20
188.0825976971
 10
-80.0081706197
 20
188.0697066942
 10
-79.9823309761
 20
188.0559184044
 10
-79.9585216851
 20
188.0413621014
 10
-79.9367376918
 20
188.0259085116
 10
-79.9169789963
 20
188.0095576349
  0
LWPOLYLINE
  5
54C
100
AcDbEntity
  8
ASSI
100
AcDbPolyline
 62
7
  6
CONTINUOUS
 90
12
 70
0
 10
-12.5508889003
 20
169.6462888731
 10
-12.5477024246
 20
169.6448219203
 10
-12.5413390826
 20
169.6332632737
 10
-12.534985379
 20
169.6101110883
 10
-12.5286412848
 20
169.5754002564
 10
-12.5223259317
 20
169.5292354548
 10
-12.5160394067
 20
169.4715821072
 10
-12.5097816228
 20
169.4024747899
 10
-12.5035714516
 20
169.3221219089
 10
-12.4974090368
 20
169.2304895167
 10
-12.4912942346
 20
169.1276115608
 10
-12.4852454855
 20
169.0137982884
  0
LINE
  5
54D
100
AcDbEntity
  8
RACCORDO
100
AcDbLine
 62
7
  6
CONTINUOUS
 10
-14.1668774719
 20
-61.8537111269
 11
-14.1142454195
 21
-61.8010790744
  0
LINE
  5
54E
100
AcDbEntity
  8
RACCORDO
100
AcDbLine
 62
7
  6
CONTINUOUS
 10
-19.6668774719
 20
-67.3537111269
 11
-19.7195087149
 21
-67.4063423698
  0
LWPOLYLINE
  5
54F
100
AcDbEntity
  8
RACCORDO
100
AcDbPolyline
 62
250
  6
CONTINUOUS
 90
31
 70
0
 10
-19.7220301003
 20
-64.8146655253
 10
-19.8760409483
 20
-64.9494626647
 10
-20.0307641743
 20
-65.0818004287
 10
-20.1861997783
 20
-65.2116788171
 10
-20.3423056564
 20
-65.3392674943
 10
-20.4991239126
 20
-65.4643967961
 10
-20.6567808582
 20
-65.5865577293
 10
-20.8152755954
 20
-65.7057525854
 10
-20.9746090219
 20
-65.821979073
 10
-21.1349101422
 20
-65.9347213241
 10
-21.2961789634
 20
-66.0439793471
 10
-21.4584154784
 20
-66.1497531338
 10
-21.62174867
 20
-66.2515267919
 10
-21.786178551
 20
-66.3493003281
 10
-21.9517051086
 20
-66.4430737358
 10
-22.1184572879
 20
-66.5323311024
 10
-22.2864351074
 20
-66.6170724295
 10
-22.4556385484
 20
-66.6972977155
 10
-22.6261964998
 20
-66.7724910435
 10
-22.7981089837
 20
-66.8426524046
 10
-22.9713759779
 20
-66.9077818076
 10
-23.146126304
 20
-66.9673633619
 10
-23.3223599684
 20
-67.0213970432
 10
-23.5000769648
 20
-67.0698828759
 10
-23.679406095
 20
-67.1123050419
 10
-23.8603474148
 20
-67.148663512
 10
-24.0429008685
 20
-67.1789583154
 10
-24.2271950911
 20
-67.202673722
 10
-24.4132729609
 20
-67.2196378215
 10
-24.6010915997
 20
-67.2300225241
 10
-24.7906510074
 20
-67.2338278298
  0
LWPOLYLINE
  5
550
100
AcDbEntity
  8
RACCORDO
100
AcDbPolyline
 62
7
  6
CONTINUOUS
 90
16
 70
0
 10
-16.4144577518
 20
-67.003683104
 10
-16.5229268464
 20
-67.0538119462
 10
-16.632723477
 20
-67.1006900321
 10
-16.7437495705
 20
-67.1442857905
 10
-16.8558230149
 20
-67.1845419217
 10
-16.9689264072
 20
-67.2214664097
 10
-17.0832152287
 20
-67.2551078848
 10
-17.1985008287
 20
-67.2854008118
 10
-17.3147813673
 20
-67.3123345556
 10
-17.4325086068
 20
-67.3359737884
 10
-17.5517096267
 20
-67.3562537265
 10
-17.6721746927
 20
-67.3730679558
 10
-17.7940076403
 20
-67.3863554787
 10
-17.9171747716
 20
-67.3960250893
 10
-18.0415020865
 20
-67.4019757775
 10
-18.1668774719
 20
-67.4041171034
  0
LWPOLYLINE
  5
551
100
AcDbEntity
  8
0
100
AcDbPolyline
 62
7
  6
CONTINUOUS
 90
12
 70
0
 10
-57.0343868871
 20
199.3279208595
 10
-57.1482001596
 20
199.3218721104
 10
-57.2510781155
 20
199.3157573083
 10
-57.3427105076
 20
199.3095948935
 10
-57.4230633887
 20
199.3033847223
 10
-57.492170706
 20
199.2971269384
 10
-57.5498240535
 20
199.2908404133
 10
-57.5959888552
 20
199.2845250603
 10
-57.6306996871
 20
199.2781809661
 10
-57.6538518725
 20
199.2718272625
 10
-57.6654105191
 20
199.2654639204
 10
-57.6668774719
 20
199.2622774447
  0
LWPOLYLINE
  5
552
100
AcDbEntity
  8
0
100
AcDbPolyline
 62
7
  6
CONTINUOUS
 90
12
 70
0
 10
-69.2993680567
 20
199.1966340299
 10
-69.1855547843
 20
199.202682779
 10
-69.0826768283
 20
199.2087975811
 10
-68.9910444362
 20
199.2149599959
 10
-68.9106915551
 20
199.2211701671
 10
-68.8415842379
 20
199.227427951
 10
-68.7839308903
 20
199.2337144761
 10
-68.7377660887
 20
199.2400298291
 10
-68.7030552567
 20
199.2463739234
 10
-68.6799030713
 20
199.252727627
 10
-68.6683444248
 20
199.259090969
 10
-68.6668774719
 20
199.2622774447
  0
LWPOLYLINE
  5
553
100
AcDbEntity
  8
0
100
AcDbPolyline
 62
7
  6
CONTINUOUS
 90
12
 70
0
 10
-91.0343868871
 20
199.3279208595
 10
-91.1482001596
 20
199.3218721104
 10
-91.2510781155
 20
199.3157573083
 10
-91.3427105076
 20
199.3095948935
 10
-91.4230633887
 20
199.3033847223
 10
-91.492170706
 20
199.2971269384
 10
-91.5498240535
 20
199.2908404133
 10
-91.5959888552
 20
199.2845250603
 10
-91.6306996871
 20
199.2781809661
 10
-91.6538518725
 20
199.2718272625
 10
-91.6654105191
 20
199.2654639204
 10
-91.6668774719
 20
199.2622774447
  0
LWPOLYLINE
  5
554
100
AcDbEntity
  8
0
100
AcDbPolyline
 62
7
  6
CONTINUOUS
 90
12
 70
0
 10
-103.2993680567
 20
199.1966340299
 10
-103.1855547843
 20
199.202682779
 10
-103.0826768283
 20
199.2087975811
 10
-102.9910444362
 20
199.2149599959
 10
-102.9106915551
 20
199.2211701671
 10
-102.8415842379
 20
199.227427951
 10
-102.7839308903
 20
199.2337144761
 10
-102.7377660887
 20
199.2400298291
 10
-102.7030552567
 20
199.2463739234
 10
-102.6799030713
 20
199.252727627
 10
-102.6683444248
 20
199.259090969
 10
-102.6668774719
 20
199.2622774447
  0
LWPOLYLINE
  5
555
100
AcDbEntity
  8
0
100
AcDbPolyline
 62
7
  6
CONTINUOUS
 90
12
 70
0
 10
-125.0343868871
 20
199.3279208595
 10
-125.1482001596
 20
199.3218721104
 10
-125.2510781155
 20
199.3157573083
 10
-125.3427105076
 20
199.3095948935
 10
-125.4230633887
 20
199.3033847223
 10
-125.492170706
 20
199.2971269384
 10
-125.5498240535
 20
199.2908404133
 10
-125.5959888552
 20
199.2845250603
 10
-125.6306996871
 20
199.2781809661
 10
-125.6538518725
 20
199.2718272625
 10
-125.6654105191
 20
199.2654639204
 10
-125.6668774719
 20
199.2622774447
  0
LINE
  5
556
100
AcDbEntity
  8
0
100
AcDbLine
 62
7
  6
CONTINUOUS
 10
-56.7738883716
 20
199.3398198
 11
-57.0343868871
 21
199.3279208595
  0
LINE
  5
557
100
AcDbEntity
  8
0
100
AcDbLine
 62
7
  6
CONTINUOUS
 10
-69.5598665722
 20
199.1847350894
 11
-69.2993680567
 21
199.1966340299
  0
LINE
  5
558
100
AcDbEntity
  8
0
100
AcDbLine
 62
7
  6
CONTINUOUS
 10
-90.7738883716
 20
199.3398198
 11
-91.0343868871
 21
199.3279208595
  0
LINE
  5
559
100
AcDbEntity
  8
0
100
AcDbLine
 62
7
  6
CONTINUOUS
 10
-103.5598665722
 20
199.1847350894
 11
-103.2993680567
 21
199.1966340299
  0
LINE
  5
55A
100
AcDbEntity
  8
0
100
AcDbLine
 62
7
  6
CONTINUOUS
 10
-124.7738883716
 20
199.3398198
 11
-125.0343868871
 21
199.3279208595
  0
LWPOLYLINE
  5
55B
100
AcDbEntity
  8
RACCORDO
100
AcDbPolyline
 62
250
  6
CONTINUOUS
 90
28
 70
0
 10
-142.1668774719
 20
199.0938944926
 10
-142.2826094693
 20
199.0891574027
 10
-142.3954536981
 20
199.0791890319
 10
-142.505294962
 20
199.0640092743
 10
-142.612071063
 20
199.043626348
 10
-142.7156115325
 20
199.0180623842
 10
-142.8156394968
 20
198.9873760726
 10
-142.9119889419
 20
198.9516031239
 10
-143.0045897202
 20
198.9107760331
 10
-143.0933120705
 20
198.8649860814
 10
-143.1779942066
 20
198.8142914175
 10
-143.2585586485
 20
198.7587394533
 10
-143.3350073042
 20
198.6984390573
 10
-143.4072388614
 20
198.6334661424
 10
-143.4751147543
 20
198.5638891854
 10
-143.5385873143
 20
198.4898341961
 10
-143.5975683305
 20
198.4113928567
 10
-143.6519085538
 20
198.328659437
 10
-143.7014757798
 20
198.2417888459
 10
-143.7461120164
 20
198.150902704
 10
-143.7857451299
 20
198.0561127628
 10
-143.8203802623
 20
197.957581766
 10
-143.849886858
 20
197.8554583036
 10
-143.8741805829
 20
197.7498771979
 10
-143.8933458174
 20
197.6409993399
 10
-143.9073475318
 20
197.5289903479
 10
-143.9160283366
 20
197.4140179808
 10
-143.9192973243
 20
197.2962607837
  0
LINE
  5
55C
100
AcDbEntity
  8
0
100
AcDbLine
 62
7
  6
CONTINUOUS
 10
-35.7061095253
 20
199.1789025408
 11
-35.4241496562
 21
199.1906515332
  0
LINE
  5
55D
100
AcDbEntity
  8
0
100
AcDbLine
 62
7
  6
CONTINUOUS
 10
-56.4708446531
 20
199.3514007489
 11
-56.7738883716
 21
199.3398198
  0
LINE
  5
55E
100
AcDbEntity
  8
0
100
AcDbLine
 62
7
  6
CONTINUOUS
 10
-69.8629102908
 20
199.1731541405
 11
-69.5598665722
 21
199.1847350894
  0
LINE
  5
55F
100
AcDbEntity
  8
0
100
AcDbLine
 62
7
  6
CONTINUOUS
 10
-90.4708446531
 20
199.3514007489
 11
-90.7738883716
 21
199.3398198
  0
LINE
  5
560
100
AcDbEntity
  8
0
100
AcDbLine
 62
7
  6
CONTINUOUS
 10
-103.8629102908
 20
199.1731541405
 11
-103.5598665722
 21
199.1847350894
  0
LINE
  5
561
100
AcDbEntity
  8
0
100
AcDbLine
 62
7
  6
CONTINUOUS
 10
-124.4708446531
 20
199.3514007489
 11
-124.7738883716
 21
199.3398198
  0
LINE
  5
562
100
AcDbEntity
  8
0
100
AcDbLine
 62
7
  6
CONTINUOUS
 10
-36.0302370934
 20
199.1674896354
 11
-35.7061095253
 21
199.1789025408
  0
LINE
  5
563
100
AcDbEntity
  8
0
100
AcDbLine
 62
7
  6
CONTINUOUS
 10
-56.1261696154
 20
199.3626287817
 11
-56.4708446531
 21
199.3514007489
  0
LINE
  5
564
100
AcDbEntity
  8
0
100
AcDbLine
 62
7
  6
CONTINUOUS
 10
-70.2075853284
 20
199.1619261077
 11
-69.8629102908
 21
199.1731541405
  0
LINE
  5
565
100
AcDbEntity
  8
0
100
AcDbLine
 62
7
  6
CONTINUOUS
 10
-90.1261696154
 20
199.3626287817
 11
-90.4708446531
 21
199.3514007489
  0
LINE
  5
566
100
AcDbEntity
  8
0
100
AcDbLine
 62
7
  6
CONTINUOUS
 10
-104.2075853284
 20
199.1619261077
 11
-103.8629102908
 21
199.1731541405
  0
LINE
  5
567
100
AcDbEntity
  8
0
100
AcDbLine
 62
7
  6
CONTINUOUS
 10
-124.1261696154
 20
199.3626287817
 11
-124.4708446531
 21
199.3514007489
  0
LWPOLYLINE
  5
568
100
AcDbEntity
  8
RACCORDO
100
AcDbPolyline
 62
250
  6
CONTINUOUS
 90
28
 70
0
 10
-145.8166947781
 20
195.3990307017
 10
-145.9345883947
 20
195.3955212023
 10
-146.0495684821
 20
195.3867247142
 10
-146.1615267764
 20
195.3726827368
 10
-146.2703879009
 20
195.3535378201
 10
-146.3759903273
 20
195.3292863922
 10
-146.478106124
 20
195.2997901951
 10
-146.5766226095
 20
195.2652084892
 10
-146.6714257554
 20
195.225659288
 10
-146.7623149507
 20
195.1809946982
 10
-146.8491833627
 20
195.1314397447
 10
-146.9319270265
 20
195.0771857056
 10
-147.0103804431
 20
195.0180900654
 10
-147.0844447851
 20
194.9545086829
 10
-147.1540310457
 20
194.8866371646
 10
-147.2190187217
 20
194.8141573589
 10
-147.2793287521
 20
194.7374819897
 10
-147.334880734
 20
194.6568933726
 10
-147.3855820205
 20
194.5719556221
 10
-147.4313752311
 20
194.4831741299
 10
-147.4721936036
 20
194.3908799459
 10
-147.5079636639
 20
194.2944623656
 10
-147.5386519232
 20
194.194367807
 10
-147.5642128866
 20
194.0911142842
 10
-147.5845922514
 20
193.9842670942
 10
-147.5997687125
 20
193.8740270448
 10
-147.6097362116
 20
193.7612032296
 10
-147.6144830914
 20
193.6462888731
  0
LINE
  5
569
100
AcDbEntity
  8
0
100
AcDbLine
 62
7
  6
CONTINUOUS
 10
-36.5924065995
 20
199.1511025944
 11
-36.0302370934
 21
199.1674896354
  0
LINE
  5
56A
100
AcDbEntity
  8
0
100
AcDbLine
 62
7
  6
CONTINUOUS
 10
-55.5345009205
 20
199.3786964176
 11
-56.1261696154
 21
199.3626287817
  0
LINE
  5
56B
100
AcDbEntity
  8
0
100
AcDbLine
 62
7
  6
CONTINUOUS
 10
-70.7992540233
 20
199.1458584719
 11
-70.2075853284
 21
199.1619261077
  0
LINE
  5
56C
100
AcDbEntity
  8
0
100
AcDbLine
 62
7
  6
CONTINUOUS
 10
-89.5345009205
 20
199.3786964176
 11
-90.1261696154
 21
199.3626287817
  0
LINE
  5
56D
100
AcDbEntity
  8
0
100
AcDbLine
 62
7
  6
CONTINUOUS
 10
-104.7992540233
 20
199.1458584719
 11
-104.2075853284
 21
199.1619261077
  0
LINE
  5
56E
100
AcDbEntity
  8
0
100
AcDbLine
 62
7
  6
CONTINUOUS
 10
-123.5345009205
 20
199.3786964176
 11
-124.1261696154
 21
199.3626287817
  0
LINE
  5
56F
100
AcDbEntity
  8
0
100
AcDbLine
 62
7
  6
CONTINUOUS
 10
-37.2412839965
 20
199.1357223701
 11
-36.5924065995
 21
199.1511025944
  0
LINE
  5
570
100
AcDbEntity
  8
0
100
AcDbLine
 62
7
  6
CONTINUOUS
 10
-54.857997577
 20
199.3937097451
 11
-55.5345009205
 21
199.3786964176
  0
LINE
  5
571
100
AcDbEntity
  8
0
100
AcDbLine
 62
7
  6
CONTINUOUS
 10
-71.4757573668
 20
199.1308451443
 11
-70.7992540233
 21
199.1458584719
  0
LINE
  5
572
100
AcDbEntity
  8
0
100
AcDbLine
 62
7
  6
CONTINUOUS
 10
-88.857997577
 20
199.3937097451
 11
-89.5345009205
 21
199.3786964176
  0
LINE
  5
573
100
AcDbEntity
  8
0
100
AcDbLine
 62
7
  6
CONTINUOUS
 10
-105.4757573668
 20
199.1308451443
 11
-104.7992540233
 21
199.1458584719
  0
LINE
  5
574
100
AcDbEntity
  8
0
100
AcDbLine
 62
7
  6
CONTINUOUS
 10
-122.857997577
 20
199.3937097451
 11
-123.5345009205
 21
199.3786964176
  0
LINE
  5
575
100
AcDbEntity
  8
0
100
AcDbLine
 62
7
  6
CONTINUOUS
 10
-38.2309688399
 20
199.117022088
 11
-37.2412839965
 21
199.1357223701
  0
LWPOLYLINE
  5
576
100
AcDbEntity
  8
RACCORDO
100
AcDbPolyline
 62
250
  6
CONTINUOUS
 90
3
 70
0
 10
-18.1668774719
 20
199.0938944926
 10
-18.5952085045
 20
199.0868283261
 10
-18.6822843266
 20
199.0853992461
  0
LINE
  5
577
100
AcDbEntity
  8
RACCORDO
100
AcDbLine
 62
250
  6
CONTINUOUS
 10
-18.6822843266
 20
199.0853992461
 11
-18.857849539
 21
199.0825312109
  0
LINE
  5
578
100
AcDbEntity
  8
RACCORDO
100
AcDbLine
 62
250
  6
CONTINUOUS
 10
-18.857849539
 20
199.0825312109
 11
-19.0353048985
 21
199.0796581526
  0
LINE
  5
579
100
AcDbEntity
  8
0
100
AcDbLine
 62
7
  6
CONTINUOUS
 10
-53.8348006844
 20
199.4118523588
 11
-54.857997577
 21
199.3937097451
  0
LINE
  5
57A
100
AcDbEntity
  8
0
100
AcDbLine
 62
7
  6
CONTINUOUS
 10
-72.4989542595
 20
199.1127025307
 11
-71.4757573668
 21
199.1308451443
  0
LINE
  5
57B
100
AcDbEntity
  8
0
100
AcDbLine
 62
7
  6
CONTINUOUS
 10
-87.8348006844
 20
199.4118523588
 11
-88.857997577
 21
199.3937097451
  0
LINE
  5
57C
100
AcDbEntity
  8
0
100
AcDbLine
 62
7
  6
CONTINUOUS
 10
-106.4989542595
 20
199.1127025307
 11
-105.4757573668
 21
199.1308451443
  0
LINE
  5
57D
100
AcDbEntity
  8
0
100
AcDbLine
 62
7
  6
CONTINUOUS
 10
-121.8348006844
 20
199.4118523588
 11
-122.857997577
 21
199.3937097451
  0
LINE
  5
57E
100
AcDbEntity
  8
RACCORDO
100
AcDbLine
 62
250
  6
CONTINUOUS
 10
-19.0353048985
 20
199.0796581526
 11
-19.2146539982
 21
199.0767854999
  0
LINE
  5
57F
100
AcDbEntity
  8
RACCORDO
100
AcDbLine
 62
250
  6
CONTINUOUS
 10
-19.2146539982
 20
199.0767854999
 11
-19.5790549773
 21
199.0710739851
  0
LINE
  5
580
100
AcDbEntity
  8
RACCORDO
100
AcDbLine
 62
250
  6
CONTINUOUS
 10
-19.5790549773
 20
199.0710739851
 11
-20.6206393784
 21
199.0560152821
  0
LINE
  5
581
100
AcDbEntity
  8
0
100
AcDbLine
 62
7
  6
CONTINUOUS
 10
-39.3483479343
 20
199.1006590649
 11
-38.2309688399
 21
199.117022088
  0
LINE
  5
582
100
AcDbEntity
  8
0
100
AcDbLine
 62
7
  6
CONTINUOUS
 10
-73.6457999216
 20
199.0969623903
 11
-72.4989542595
 21
199.1127025307
  0
LINE
  5
583
100
AcDbEntity
  8
0
100
AcDbLine
 62
7
  6
CONTINUOUS
 10
-52.6879550222
 20
199.4275924991
 11
-53.8348006844
 21
199.4118523588
  0
LINE
  5
584
100
AcDbEntity
  8
0
100
AcDbLine
 62
7
  6
CONTINUOUS
 10
-107.6457999216
 20
199.0969623903
 11
-106.4989542595
 21
199.1127025307
  0
LINE
  5
585
100
AcDbEntity
  8
0
100
AcDbLine
 62
7
  6
CONTINUOUS
 10
-86.6879550222
 20
199.4275924991
 11
-87.8348006844
 21
199.4118523588
  0
LINE
  5
586
100
AcDbEntity
  8
0
100
AcDbLine
 62
7
  6
CONTINUOUS
 10
-120.6879550222
 20
199.4275924991
 11
-121.8348006844
 21
199.4118523588
  0
LINE
  5
587
100
AcDbEntity
  8
RACCORDO
100
AcDbLine
 62
250
  6
CONTINUOUS
 10
-20.6206393784
 20
199.0560152821
 11
-21.5163479084
 21
199.0450543451
  0
LINE
  5
588
100
AcDbEntity
  8
0
100
AcDbLine
 62
7
  6
CONTINUOUS
 10
-40.5757306281
 20
199.0868927644
 11
-39.3483479343
 21
199.1006590649
  0
LINE
  5
589
100
AcDbEntity
  8
0
100
AcDbLine
 62
7
  6
CONTINUOUS
 10
-74.8972724721
 20
199.0838857934
 11
-73.6457999216
 21
199.0969623903
  0
LINE
  5
58A
100
AcDbEntity
  8
0
100
AcDbLine
 62
7
  6
CONTINUOUS
 10
-51.4364824718
 20
199.440669096
 11
-52.6879550222
 21
199.4275924991
  0
LINE
  5
58B
100
AcDbEntity
  8
0
100
AcDbLine
 62
7
  6
CONTINUOUS
 10
-108.8972724721
 20
199.0838857934
 11
-107.6457999216
 21
199.0969623903
  0
LINE
  5
58C
100
AcDbEntity
  8
0
100
AcDbLine
 62
7
  6
CONTINUOUS
 10
-85.4364824718
 20
199.440669096
 11
-86.6879550222
 21
199.4275924991
  0
LINE
  5
58D
100
AcDbEntity
  8
0
100
AcDbLine
 62
7
  6
CONTINUOUS
 10
-119.4364824718
 20
199.440669096
 11
-120.6879550222
 21
199.4275924991
  0
LINE
  5
58E
100
AcDbEntity
  8
RACCORDO
100
AcDbLine
 62
250
  6
CONTINUOUS
 10
-21.5163479084
 20
199.0450543451
 11
-22.345782036
 21
199.0369124812
  0
LINE
  5
58F
100
AcDbEntity
  8
0
100
AcDbLine
 62
7
  6
CONTINUOUS
 10
-42.2335366065
 20
199.0736796413
 11
-40.5757306281
 21
199.0868927644
  0
LINE
  5
590
100
AcDbEntity
  8
RACCORDO
100
AcDbLine
 62
250
  6
CONTINUOUS
 10
-22.345782036
 20
199.0369124812
 11
-23.0974589497
 21
199.0314053872
  0
LINE
  5
591
100
AcDbEntity
  8
0
100
AcDbLine
 62
7
  6
CONTINUOUS
 10
-76.5786147676
 20
199.0715952531
 11
-74.8972724721
 21
199.0838857934
  0
LINE
  5
592
100
AcDbEntity
  8
0
100
AcDbLine
 62
7
  6
CONTINUOUS
 10
-110.5786147676
 20
199.0715952531
 11
-108.8972724721
 21
199.0838857934
  0
LINE
  5
593
100
AcDbEntity
  8
0
100
AcDbLine
 62
7
  6
CONTINUOUS
 10
-49.7551401763
 20
199.4529596363
 11
-51.4364824718
 21
199.440669096
  0
LINE
  5
594
100
AcDbEntity
  8
0
100
AcDbLine
 62
7
  6
CONTINUOUS
 10
-83.7551401763
 20
199.4529596363
 11
-85.4364824718
 21
199.440669096
  0
LINE
  5
595
100
AcDbEntity
  8
0
100
AcDbLine
 62
7
  6
CONTINUOUS
 10
-117.7551401763
 20
199.4529596363
 11
-119.4364824718
 21
199.440669096
  0
LINE
  5
596
100
AcDbEntity
  8
0
100
AcDbLine
 62
7
  6
CONTINUOUS
 10
-43.9904881618
 20
199.0652017295
 11
-42.2335366065
 21
199.0736796413
  0
LINE
  5
597
100
AcDbEntity
  8
RACCORDO
100
AcDbLine
 62
250
  6
CONTINUOUS
 10
-23.0974589497
 20
199.0314053872
 11
-23.8735446181
 21
199.0277321323
  0
LINE
  5
598
100
AcDbEntity
  8
0
100
AcDbLine
 62
7
  6
CONTINUOUS
 10
-78.3497431316
 20
199.0640964586
 11
-76.5786147676
 21
199.0715952531
  0
LINE
  5
599
100
AcDbEntity
  8
0
100
AcDbLine
 62
7
  6
CONTINUOUS
 10
-112.3497431316
 20
199.0640964586
 11
-110.5786147676
 21
199.0715952531
  0
LINE
  5
59A
100
AcDbEntity
  8
0
100
AcDbLine
 62
7
  6
CONTINUOUS
 10
-47.9840118122
 20
199.4604584309
 11
-49.7551401763
 21
199.4529596363
  0
LINE
  5
59B
100
AcDbEntity
  8
0
100
AcDbLine
 62
7
  6
CONTINUOUS
 10
-81.9840118122
 20
199.4604584309
 11
-83.7551401763
 21
199.4529596363
  0
LINE
  5
59C
100
AcDbEntity
  8
0
100
AcDbLine
 62
7
  6
CONTINUOUS
 10
-115.9840118122
 20
199.4604584309
 11
-117.7551401763
 21
199.4529596363
  0
LWPOLYLINE
  5
59D
100
AcDbEntity
  8
RACCORDO
100
AcDbPolyline
 62
7
  6
CONTINUOUS
 90
4
 70
0
 10
-142.1668774719
 20
197.6966948496
 10
-140.9343773312
 20
197.6985167726
 10
-140.7725277924
 20
197.698724871
 10
-140.6142462289
 20
197.6989201161
  0
LINE
  5
59E
100
AcDbEntity
  8
RACCORDO
100
AcDbLine
 62
250
  6
CONTINUOUS
 10
-23.8735446181
 20
199.0277321323
 11
-24.5583444117
 21
199.0262791141
  0
LINE
  5
59F
100
AcDbEntity
  8
0
100
AcDbLine
 62
7
  6
CONTINUOUS
 10
-45.8013960075
 20
199.0616766626
 11
-43.9904881618
 21
199.0652017295
  0
LINE
  5
5A0
100
AcDbEntity
  8
0
100
AcDbLine
 62
7
  6
CONTINUOUS
 10
-80.1668774719
 20
199.0615747707
 11
-78.3497431316
 21
199.0640964586
  0
LINE
  5
5A1
100
AcDbEntity
  8
0
100
AcDbLine
 62
7
  6
CONTINUOUS
 10
-114.1668774719
 20
199.0615747707
 11
-112.3497431316
 21
199.0640964586
  0
LINE
  5
5A2
100
AcDbEntity
  8
0
100
AcDbLine
 62
7
  6
CONTINUOUS
 10
-46.1668774719
 20
199.4629801187
 11
-47.9840118122
 21
199.4604584309
  0
LINE
  5
5A3
100
AcDbEntity
  8
0
100
AcDbLine
 62
7
  6
CONTINUOUS
 10
-80.1668774719
 20
199.4629801187
 11
-81.9840118122
 21
199.4604584309
  0
LINE
  5
5A4
100
AcDbEntity
  8
0
100
AcDbLine
 62
7
  6
CONTINUOUS
 10
-114.1668774719
 20
199.4629801187
 11
-115.9840118122
 21
199.4604584309
  0
LINE
  5
5A5
100
AcDbEntity
  8
RACCORDO
100
AcDbLine
 62
250
  6
CONTINUOUS
 10
-24.7906510074
 20
197.5264055761
 11
-135.5431039365
 21
197.5264055761
  0
LINE
  5
5A6
100
AcDbEntity
  8
DRAFT
100
AcDbLine
 62
7
  6
CONTINUOUS
 10
-19.6668774719
 20
197.6462888731
 11
-18.1668774719
 21
197.6462888731
  0
LINE
  5
5A7
100
AcDbEntity
  8
DRAFT
100
AcDbLine
 62
7
  6
CONTINUOUS
 10
-140.6668774719
 20
197.6462888731
 11
-142.1668774719
 21
197.6462888731
  0
LINE
  5
5A8
100
AcDbEntity
  8
RACCORDO
100
AcDbLine
 62
7
  6
CONTINUOUS
 10
-128.7668774719
 20
198.6462888731
 11
-134.5668774719
 21
198.6462888731
  0
LINE
  5
5A9
100
AcDbEntity
  8
RACCORDO
100
AcDbLine
 62
250
  6
CONTINUOUS
 10
-24.5583444117
 20
199.0262791141
 11
-128.7668774719
 21
199.0261771189
  0
LINE
  5
5AA
100
AcDbEntity
  8
ASSI
100
AcDbLine
 62
7
  6
CONTINUOUS
 10
-134.2668774719
 20
199.1016908474
 11
-129.0668774719
 21
199.1016908474
  0
LINE
  5
5AB
100
AcDbEntity
  8
ASSI
100
AcDbLine
 62
7
  6
CONTINUOUS
 10
-142.1668774719
 20
199.6462888731
 11
-18.1668774719
 21
199.6462888731
  0
LINE
  5
5AC
100
AcDbEntity
  8
DRAFT
100
AcDbLine
 62
7
  6
CONTINUOUS
 10
-18.1668774719
 20
199.6462888731
 11
-142.1668774719
 21
199.6462888731
  0
LINE
  5
5AD
100
AcDbEntity
  8
RACCORDO
100
AcDbLine
 62
7
  6
CONTINUOUS
 10
-19.7195101761
 20
197.6989215773
 11
-19.3992320037
 21
197.6985176949
  0
LINE
  5
5AE
100
AcDbEntity
  8
RACCORDO
100
AcDbLine
 62
7
  6
CONTINUOUS
 10
-19.3992320037
 20
197.6985176949
 11
-18.1668774719
 21
197.6966951065
  0
LINE
  5
5AF
100
AcDbEntity
  8
0
100
AcDbLine
 62
7
  6
CONTINUOUS
 10
-47.6225668736
 20
199.063189493
 11
-45.8013960075
 21
199.0616766626
  0
LINE
  5
5B0
100
AcDbEntity
  8
0
100
AcDbLine
 62
7
  6
CONTINUOUS
 10
-115.9840118122
 20
199.0640964586
 11
-114.1668774719
 21
199.0615747707
  0
LINE
  5
5B1
100
AcDbEntity
  8
0
100
AcDbLine
 62
7
  6
CONTINUOUS
 10
-81.9840118122
 20
199.0640964586
 11
-80.1668774719
 21
199.0615747707
  0
LINE
  5
5B2
100
AcDbEntity
  8
0
100
AcDbLine
 62
7
  6
CONTINUOUS
 10
-112.3497431316
 20
199.4604584309
 11
-114.1668774719
 21
199.4629801187
  0
LINE
  5
5B3
100
AcDbEntity
  8
0
100
AcDbLine
 62
7
  6
CONTINUOUS
 10
-78.3497431316
 20
199.4604584309
 11
-80.1668774719
 21
199.4629801187
  0
LINE
  5
5B4
100
AcDbEntity
  8
0
100
AcDbLine
 62
7
  6
CONTINUOUS
 10
-44.3497431316
 20
199.4604584309
 11
-46.1668774719
 21
199.4629801187
  0
LINE
  5
5B5
100
AcDbEntity
  8
RACCORDO
100
AcDbLine
 62
250
  6
CONTINUOUS
 10
-136.7970443089
 20
199.0290397025
 11
-134.5668774719
 21
199.0261771189
  0
LINE
  5
5B6
100
AcDbEntity
  8
0
100
AcDbLine
 62
7
  6
CONTINUOUS
 10
-49.4068018756
 20
199.0697046392
 11
-47.6225668736
 21
199.063189493
  0
LINE
  5
5B7
100
AcDbEntity
  8
0
100
AcDbLine
 62
7
  6
CONTINUOUS
 10
-117.7551401763
 20
199.0715952531
 11
-115.9840118122
 21
199.0640964586
  0
LINE
  5
5B8
100
AcDbEntity
  8
0
100
AcDbLine
 62
7
  6
CONTINUOUS
 10
-83.7551401763
 20
199.0715952531
 11
-81.9840118122
 21
199.0640964586
  0
LINE
  5
5B9
100
AcDbEntity
  8
0
100
AcDbLine
 62
7
  6
CONTINUOUS
 10
-110.5786147676
 20
199.4529596363
 11
-112.3497431316
 21
199.4604584309
  0
LINE
  5
5BA
100
AcDbEntity
  8
0
100
AcDbLine
 62
7
  6
CONTINUOUS
 10
-76.5786147676
 20
199.4529596363
 11
-78.3497431316
 21
199.4604584309
  0
LINE
  5
5BB
100
AcDbEntity
  8
0
100
AcDbLine
 62
7
  6
CONTINUOUS
 10
-42.5786147676
 20
199.4529596363
 11
-44.3497431316
 21
199.4604584309
  0
LINE
  5
5BC
100
AcDbEntity
  8
0
100
AcDbLine
 62
7
  6
CONTINUOUS
 10
-51.1096221368
 20
199.081058869
 11
-49.4068018756
 21
199.0697046392
  0
LINE
  5
5BD
100
AcDbEntity
  8
0
100
AcDbLine
 62
7
  6
CONTINUOUS
 10
-119.4364824718
 20
199.0838857934
 11
-117.7551401763
 21
199.0715952531
  0
LINE
  5
5BE
100
AcDbEntity
  8
0
100
AcDbLine
 62
7
  6
CONTINUOUS
 10
-85.4364824718
 20
199.0838857934
 11
-83.7551401763
 21
199.0715952531
  0
LINE
  5
5BF
100
AcDbEntity
  8
0
100
AcDbLine
 62
7
  6
CONTINUOUS
 10
-108.8972724721
 20
199.440669096
 11
-110.5786147676
 21
199.4529596363
  0
LINE
  5
5C0
100
AcDbEntity
  8
0
100
AcDbLine
 62
7
  6
CONTINUOUS
 10
-74.8972724721
 20
199.440669096
 11
-76.5786147676
 21
199.4529596363
  0
LINE
  5
5C1
100
AcDbEntity
  8
0
100
AcDbLine
 62
7
  6
CONTINUOUS
 10
-40.8972724721
 20
199.440669096
 11
-42.5786147676
 21
199.4529596363
  0
LINE
  5
5C2
100
AcDbEntity
  8
RACCORDO
100
AcDbLine
 62
250
  6
CONTINUOUS
 10
-138.2027308099
 20
199.0386984869
 11
-136.7970443089
 21
199.0290397025
  0
LINE
  5
5C3
100
AcDbEntity
  8
0
100
AcDbLine
 62
7
  6
CONTINUOUS
 10
-52.6879550222
 20
199.0969623903
 11
-51.1096221368
 21
199.081058869
  0
LINE
  5
5C4
100
AcDbEntity
  8
0
100
AcDbLine
 62
7
  6
CONTINUOUS
 10
-120.9854070095
 20
199.1006590649
 11
-119.4364824718
 21
199.0838857934
  0
LINE
  5
5C5
100
AcDbEntity
  8
0
100
AcDbLine
 62
7
  6
CONTINUOUS
 10
-86.9854070095
 20
199.1006590649
 11
-85.4364824718
 21
199.0838857934
  0
LINE
  5
5C6
100
AcDbEntity
  8
0
100
AcDbLine
 62
7
  6
CONTINUOUS
 10
-107.3483479343
 20
199.4238958246
 11
-108.8972724721
 21
199.440669096
  0
LINE
  5
5C7
100
AcDbEntity
  8
0
100
AcDbLine
 62
7
  6
CONTINUOUS
 10
-73.3483479343
 20
199.4238958246
 11
-74.8972724721
 21
199.440669096
  0
LINE
  5
5C8
100
AcDbEntity
  8
0
100
AcDbLine
 62
7
  6
CONTINUOUS
 10
-39.3483479343
 20
199.4238958246
 11
-40.8972724721
 21
199.440669096
  0
LINE
  5
5C9
100
AcDbEntity
  8
RACCORDO
100
AcDbLine
 62
250
  6
CONTINUOUS
 10
-139.8178601269
 20
199.0571837939
 11
-138.2027308099
 21
199.0386984869
  0
LINE
  5
5CA
100
AcDbEntity
  8
0
100
AcDbLine
 62
7
  6
CONTINUOUS
 10
-53.8348006844
 20
199.1127025307
 11
-52.6879550222
 21
199.0969623903
  0
LINE
  5
5CB
100
AcDbEntity
  8
0
100
AcDbLine
 62
7
  6
CONTINUOUS
 10
-122.102786104
 20
199.117022088
 11
-120.9854070095
 21
199.1006590649
  0
LINE
  5
5CC
100
AcDbEntity
  8
0
100
AcDbLine
 62
7
  6
CONTINUOUS
 10
-106.2309688399
 20
199.4075328015
 11
-107.3483479343
 21
199.4238958246
  0
LINE
  5
5CD
100
AcDbEntity
  8
0
100
AcDbLine
 62
7
  6
CONTINUOUS
 10
-88.102786104
 20
199.117022088
 11
-86.9854070095
 21
199.1006590649
  0
LINE
  5
5CE
100
AcDbEntity
  8
0
100
AcDbLine
 62
7
  6
CONTINUOUS
 10
-72.2309688399
 20
199.4075328015
 11
-73.3483479343
 21
199.4238958246
  0
LINE
  5
5CF
100
AcDbEntity
  8
0
100
AcDbLine
 62
7
  6
CONTINUOUS
 10
-38.2309688399
 20
199.4075328015
 11
-39.3483479343
 21
199.4238958246
  0
LINE
  5
5D0
100
AcDbEntity
  8
RACCORDO
100
AcDbLine
 62
250
  6
CONTINUOUS
 10
-141.7419666952
 20
199.0867658597
 11
-139.8178601269
 21
199.0571837939
  0
LINE
  5
5D1
100
AcDbEntity
  8
RACCORDO
100
AcDbLine
 62
250
  6
CONTINUOUS
 10
-142.1668774719
 20
199.0938944926
 11
-141.7419666952
 21
199.0867658597
  0
LWPOLYLINE
  5
5D2
100
AcDbEntity
  8
RACCORDO
100
AcDbPolyline
 62
7
  6
CONTINUOUS
 90
16
 70
0
 10
-18.1668774719
 20
197.6966951065
 10
-18.0402905763
 20
197.6945141852
 10
-17.9148616976
 20
197.6884561098
 10
-17.79070551
 20
197.6786221673
 10
-17.667942534
 20
197.665117324
 10
-17.5466634769
 20
197.6480469283
 10
-17.4269297135
 20
197.6275128432
 10
-17.3090088884
 20
197.6036598954
 10
-17.1928080491
 20
197.5765673483
 10
-17.0778512666
 20
197.5461879042
 10
-16.9641937524
 20
197.5125722443
 10
-16.8519554025
 20
197.4757919815
 10
-16.7407776915
 20
197.4357454332
 10
-16.6306104747
 20
197.3924014713
 10
-16.5216975389
 20
197.3458431402
 10
-16.4141330913
 20
197.2961049569
  0
LINE
  5
5D3
100
AcDbEntity
  8
0
100
AcDbLine
 62
7
  6
CONTINUOUS
 10
-54.857997577
 20
199.1308451443
 11
-53.8348006844
 21
199.1127025307
  0
LINE
  5
5D4
100
AcDbEntity
  8
0
100
AcDbLine
 62
7
  6
CONTINUOUS
 10
-123.0924709473
 20
199.1357223701
 11
-122.102786104
 21
199.117022088
  0
LINE
  5
5D5
100
AcDbEntity
  8
0
100
AcDbLine
 62
7
  6
CONTINUOUS
 10
-105.2412839965
 20
199.3888325193
 11
-106.2309688399
 21
199.4075328015
  0
LINE
  5
5D6
100
AcDbEntity
  8
0
100
AcDbLine
 62
7
  6
CONTINUOUS
 10
-89.0924709473
 20
199.1357223701
 11
-88.102786104
 21
199.117022088
  0
LINE
  5
5D7
100
AcDbEntity
  8
0
100
AcDbLine
 62
7
  6
CONTINUOUS
 10
-71.2412839965
 20
199.3888325193
 11
-72.2309688399
 21
199.4075328015
  0
LINE
  5
5D8
100
AcDbEntity
  8
0
100
AcDbLine
 62
7
  6
CONTINUOUS
 10
-37.2412839965
 20
199.3888325193
 11
-38.2309688399
 21
199.4075328015
  0
LINE
  5
5D9
100
AcDbEntity
  8
0
100
AcDbLine
 62
7
  6
CONTINUOUS
 10
-55.5345009205
 20
199.1458584719
 11
-54.857997577
 21
199.1308451443
  0
LINE
  5
5DA
100
AcDbEntity
  8
0
100
AcDbLine
 62
7
  6
CONTINUOUS
 10
-123.7413483443
 20
199.1511025944
 11
-123.0924709473
 21
199.1357223701
  0
LINE
  5
5DB
100
AcDbEntity
  8
0
100
AcDbLine
 62
7
  6
CONTINUOUS
 10
-104.5924065995
 20
199.373452295
 11
-105.2412839965
 21
199.3888325193
  0
LINE
  5
5DC
100
AcDbEntity
  8
0
100
AcDbLine
 62
7
  6
CONTINUOUS
 10
-89.7413483443
 20
199.1511025944
 11
-89.0924709473
 21
199.1357223701
  0
LINE
  5
5DD
100
AcDbEntity
  8
0
100
AcDbLine
 62
7
  6
CONTINUOUS
 10
-70.5924065995
 20
199.373452295
 11
-71.2412839965
 21
199.3888325193
  0
LINE
  5
5DE
100
AcDbEntity
  8
0
100
AcDbLine
 62
7
  6
CONTINUOUS
 10
-36.5924065995
 20
199.373452295
 11
-37.2412839965
 21
199.3888325193
  0
LINE
  5
5DF
100
AcDbEntity
  8
0
100
AcDbLine
 62
7
  6
CONTINUOUS
 10
-56.1261696154
 20
199.1619261077
 11
-55.5345009205
 21
199.1458584719
  0
LINE
  5
5E0
100
AcDbEntity
  8
0
100
AcDbLine
 62
7
  6
CONTINUOUS
 10
-124.3035178505
 20
199.1674896354
 11
-123.7413483443
 21
199.1511025944
  0
LINE
  5
5E1
100
AcDbEntity
  8
0
100
AcDbLine
 62
7
  6
CONTINUOUS
 10
-104.0302370934
 20
199.3570652541
 11
-104.5924065995
 21
199.373452295
  0
LINE
  5
5E2
100
AcDbEntity
  8
0
100
AcDbLine
 62
7
  6
CONTINUOUS
 10
-90.3035178505
 20
199.1674896354
 11
-89.7413483443
 21
199.1511025944
  0
LINE
  5
5E3
100
AcDbEntity
  8
0
100
AcDbLine
 62
7
  6
CONTINUOUS
 10
-70.0302370934
 20
199.3570652541
 11
-70.5924065995
 21
199.373452295
  0
LINE
  5
5E4
100
AcDbEntity
  8
0
100
AcDbLine
 62
7
  6
CONTINUOUS
 10
-36.0302370934
 20
199.3570652541
 11
-36.5924065995
 21
199.373452295
  0
LINE
  5
5E5
100
AcDbEntity
  8
0
100
AcDbLine
 62
7
  6
CONTINUOUS
 10
-56.4708446531
 20
199.1731541405
 11
-56.1261696154
 21
199.1619261077
  0
LINE
  5
5E6
100
AcDbEntity
  8
0
100
AcDbLine
 62
7
  6
CONTINUOUS
 10
-124.6276454185
 20
199.1789025408
 11
-124.3035178505
 21
199.1674896354
  0
LINE
  5
5E7
100
AcDbEntity
  8
0
100
AcDbLine
 62
7
  6
CONTINUOUS
 10
-103.7061095253
 20
199.3456523487
 11
-104.0302370934
 21
199.3570652541
  0
LINE
  5
5E8
100
AcDbEntity
  8
0
100
AcDbLine
 62
7
  6
CONTINUOUS
 10
-90.6276454185
 20
199.1789025408
 11
-90.3035178505
 21
199.1674896354
  0
LINE
  5
5E9
100
AcDbEntity
  8
0
100
AcDbLine
 62
7
  6
CONTINUOUS
 10
-69.7061095253
 20
199.3456523487
 11
-70.0302370934
 21
199.3570652541
  0
LINE
  5
5EA
100
AcDbEntity
  8
0
100
AcDbLine
 62
7
  6
CONTINUOUS
 10
-35.7061095253
 20
199.3456523487
 11
-36.0302370934
 21
199.3570652541
  0
LINE
  5
5EB
100
AcDbEntity
  8
0
100
AcDbLine
 62
7
  6
CONTINUOUS
 10
-56.7738883716
 20
199.1847350894
 11
-56.4708446531
 21
199.1731541405
  0
LWPOLYLINE
  5
5EC
100
AcDbEntity
  8
RACCORDO
100
AcDbPolyline
 62
250
  6
CONTINUOUS
 90
31
 70
0
 10
-19.7220301003
 20
195.0839130649
 10
-19.8770362356
 20
195.2192680748
 10
-20.0325973876
 20
195.3522301864
 10
-20.1887135563
 20
195.4827993998
 10
-20.3453307526
 20
195.6111518784
 10
-20.5025029657
 20
195.7371114587
 10
-20.6603921627
 20
195.8601496502
 10
-20.8189974093
 20
195.9802693046
 10
-20.9783196398
 20
196.0974675701
 10
-21.1385236235
 20
196.2112074006
 10
-21.2996093673
 20
196.3214888031
 10
-21.4615768644
 20
196.4283117707
 10
-21.6245908628
 20
196.5311392362
 10
-21.7886513747
 20
196.6299712049
 10
-21.953758388
 20
196.7248076716
 10
-22.1200766146
 20
196.8151115534
 10
-22.2876060719
 20
196.90088285
 10
-22.4563467425
 20
196.9821215618
 10
-22.6264632865
 20
197.0582906064
 10
-22.7979557234
 20
197.1293899737
 10
-22.9708240336
 20
197.1954196739
 10
-23.145232818
 20
197.2558426559
 10
-23.3211820774
 20
197.3106588948
 10
-23.4986718109
 20
197.3598684155
 10
-23.6778666163
 20
197.4029342413
 10
-23.8587665501
 20
197.4398563458
 10
-24.0413715557
 20
197.4706347553
 10
-24.2258460614
 20
197.4947325729
 10
-24.4122448766
 20
197.5119708327
 10
-24.6005131919
 20
197.5225285004
 10
-24.7906510074
 20
197.5264055761
  0
LINE
  5
5ED
100
AcDbEntity
  8
RACCORDO
100
AcDbLine
 62
7
  6
CONTINUOUS
 10
-14.1668774719
 20
192.1462888731
 11
-14.1140604912
 21
192.0934718924
  0
LINE
  5
5EE
100
AcDbEntity
  8
RACCORDO
100
AcDbLine
 62
7
  6
CONTINUOUS
 10
-19.6668774719
 20
197.6462888731
 11
-19.7195101761
 21
197.6989215773
  0
LWPOLYLINE
  5
5EF
100
AcDbEntity
  8
RACCORDO
100
AcDbPolyline
 62
250
  6
CONTINUOUS
 90
34
 70
0
 10
-16.6474090206
 20
192.0911362448
 10
-16.5300717645
 20
191.9658916328
 10
-16.4144160637
 20
191.8402747636
 10
-16.3004419182
 20
191.7142856372
 10
-16.1880073653
 20
191.5879732079
 10
-16.0772543677
 20
191.4612885213
 10
-15.9686088129
 20
191.3340847146
 10
-15.862073473
 20
191.2063609344
 10
-15.7576455759
 20
191.0781180342
 10
-15.6557426933
 20
190.9492117105
 10
-15.556364806
 20
190.8196419667
 10
-15.4595119332
 20
190.6894087995
 10
-15.3656017044
 20
190.5583678956
 10
-15.2746340858
 20
190.4265192474
 10
-15.1866091111
 20
190.2938628626
 10
-15.1019445109
 20
190.1602544506
 10
-15.0206402408
 20
190.0256939828
 10
-14.9426963453
 20
189.8901814877
 10
-14.868530688
 20
189.7535727606
 10
-14.7981432262
 20
189.6158677414
 10
-14.7315340027
 20
189.4770664901
 10
-14.6691210092
 20
189.3370249826
 10
-14.6109042279
 20
189.1957431241
 10
-14.5568836766
 20
189.0532210092
 10
-14.5074774015
 20
188.9093148975
 10
-14.4626854485
 20
188.7640247851
 10
-14.4225077717
 20
188.6173506758
 10
-14.3873622784
 20
188.4691488406
 10
-14.3572490202
 20
188.3194187497
 10
-14.3321679455
 20
188.1681609328
 10
-14.3125368078
 20
188.0152332507
 10
-14.2984948579
 20
187.8605883235
 10
-14.289902845
 20
187.704273531
 10
-14.2867607689
 20
187.5462888731
  0
CIRCLE
  5
5F0
100
AcDbEntity
  8
RACCORDO
100
AcDbCircle
 62
7
  6
CONTINUOUS
 10
-131.6668774719
 20
-54.3537111269
 40
9.5
  0
CIRCLE
  5
5F1
100
AcDbEntity
  8
RACCORDO
100
AcDbCircle
 62
250
  6
CONTINUOUS
 10
-131.6668774719
 20
-54.3537111269
 40
8.6999999289
  0
ARC
  5
5F2
100
AcDbEntity
  8
ASSI
100
AcDbCircle
 62
7
  6
CONTINUOUS
 10
-142.1668774719
 20
-63.3537111269
 40
6.0
100
AcDbArc
 50
192.1320671857
 51
257.9641675824
  0
ARC
  5
5F3
100
AcDbEntity
  8
DRAFT
100
AcDbCircle
 62
7
  6
CONTINUOUS
 10
-142.1668774719
 20
-63.3537111269
 40
6.0
100
AcDbArc
 50
180.0
 51
270.0
  0
ARC
  5
5F4
100
AcDbEntity
  8
RACCORDO
100
AcDbCircle
 62
250
  6
CONTINUOUS
 10
-142.1668774719
 20
-63.3537111269
 40
5.4476056194
100
AcDbArc
 50
180.0
 51
270.0
  0
ARC
  5
5F5
100
AcDbEntity
  8
RACCORDO
100
AcDbCircle
 62
7
  6
CONTINUOUS
 10
-142.1668774719
 20
-63.3537111269
 40
4.0488603717
100
AcDbArc
 50
205.6471959935
 51
244.3483714842
  0
ARC
  5
5F6
100
AcDbEntity
  8
DRAFT
100
AcDbCircle
 62
7
  6
CONTINUOUS
 10
-142.1668774719
 20
-63.3537111269
 40
4.0
100
AcDbArc
 50
180.0
 51
270.0
  0
CIRCLE
  5
5F7
100
AcDbEntity
  8
0
100
AcDbCircle
 62
7
  6
CONTINUOUS
 10
-131.6668774719
 20
-54.3537111269
 40
2.25
  0
ARC
  5
5F8
100
AcDbEntity
  8
DRAFT
100
AcDbCircle
 62
7
  6
CONTINUOUS
 10
-142.1668774719
 20
7.6462888731
 40
1.8378845111
100
AcDbArc
 50
270.0
 51
90.0
  0
CIRCLE
  5
5F9
100
AcDbEntity
  8
0
100
AcDbCircle
 62
7
  6
CONTINUOUS
 10
-131.6668774719
 20
-54.3537111269
 40
1.8
  0
ARC
  5
5FA
100
AcDbEntity
  8
DRAFT
100
AcDbCircle
 62
7
  6
CONTINUOUS
 10
-142.1668774719
 20
7.6462888731
 40
1.7
100
AcDbArc
 50
270.0
 51
90.0
  0
ARC
  5
5FB
100
AcDbEntity
  8
DRAFT
100
AcDbCircle
 62
7
  6
CONTINUOUS
 10
-142.1668774719
 20
-63.3537111269
 40
1.5551526284
100
AcDbArc
 50
0.0
 51
90.0
  0
CIRCLE
  5
5FC
100
AcDbEntity
  8
0
100
AcDbCircle
 62
7
  6
CONTINUOUS
 10
-131.6668774719
 20
-54.3537111269
 40
1.5
  0
ARC
  5
5FD
100
AcDbEntity
  8
DRAFT
100
AcDbCircle
 62
7
  6
CONTINUOUS
 10
-142.1668774719
 20
-63.3537111269
 40
1.5
100
AcDbArc
 50
0.0
 51
90.0
  0
CIRCLE
  5
5FE
100
AcDbEntity
  8
RACCORDO
100
AcDbCircle
 62
7
  6
CONTINUOUS
 10
-131.6668774719
 20
184.6462888731
 40
9.5
  0
CIRCLE
  5
5FF
100
AcDbEntity
  8
RACCORDO
100
AcDbCircle
 62
250
  6
CONTINUOUS
 10
-131.6668774719
 20
184.6462888731
 40
8.6999999289
  0
ARC
  5
600
100
AcDbEntity
  8
ASSI
100
AcDbCircle
 62
7
  6
CONTINUOUS
 10
-142.1668774719
 20
193.6462888731
 40
6.0
100
AcDbArc
 50
102.1320671858
 51
167.9641675823
  0
ARC
  5
601
100
AcDbEntity
  8
DRAFT
100
AcDbCircle
 62
7
  6
CONTINUOUS
 10
-142.1668774719
 20
193.6462888731
 40
6.0
100
AcDbArc
 50
90.0
 51
180.0
  0
ARC
  5
602
100
AcDbEntity
  8
RACCORDO
100
AcDbCircle
 62
250
  6
CONTINUOUS
 10
-142.1668774719
 20
193.6462888731
 40
5.4476056194
100
AcDbArc
 50
90.0
 51
180.0
  0
ARC
  5
603
100
AcDbEntity
  8
RACCORDO
100
AcDbCircle
 62
7
  6
CONTINUOUS
 10
-142.1668774719
 20
193.6462888731
 40
4.0488603717
100
AcDbArc
 50
115.6465320179
 51
154.3484131035
  0
ARC
  5
604
100
AcDbEntity
  8
DRAFT
100
AcDbCircle
 62
7
  6
CONTINUOUS
 10
-142.1668774719
 20
193.6462888731
 40
4.0
100
AcDbArc
 50
90.0
 51
180.0
  0
CIRCLE
  5
605
100
AcDbEntity
  8
0
100
AcDbCircle
 62
7
  6
CONTINUOUS
 10
-131.6668774719
 20
184.6462888731
 40
2.25
  0
CIRCLE
  5
606
100
AcDbEntity
  8
0
100
AcDbCircle
 62
7
  6
CONTINUOUS
 10
-131.6668774719
 20
184.6462888731
 40
1.8
  0
ARC
  5
607
100
AcDbEntity
  8
0
100
AcDbCircle
 62
7
  6
CONTINUOUS
 10
-142.1668774719
 20
100.6462888731
 40
1.7
100
AcDbArc
 50
270.0
 51
90.0
  0
ARC
  5
608
100
AcDbEntity
  8
DRAFT
100
AcDbCircle
 62
7
  6
CONTINUOUS
 10
-142.1668774719
 20
193.6462888731
 40
1.5551526284
100
AcDbArc
 50
270.0
 51
360.0
  0
ARC
  5
609
100
AcDbEntity
  8
DRAFT
100
AcDbCircle
 62
7
  6
CONTINUOUS
 10
-142.1668774719
 20
193.6462888731
 40
1.5
100
AcDbArc
 50
270.0
 51
360.0
  0
CIRCLE
  5
60A
100
AcDbEntity
  8
0
100
AcDbCircle
 62
7
  6
CONTINUOUS
 10
-131.6668774719
 20
184.6462888731
 40
1.5
  0
CIRCLE
  5
60B
100
AcDbEntity
  8
RACCORDO
100
AcDbCircle
 62
7
  6
CONTINUOUS
 10
-80.1668774719
 20
-46.6537111269
 40
4.8
  0
CIRCLE
  5
60C
100
AcDbEntity
  8
RACCORDO
100
AcDbCircle
 62
250
  6
CONTINUOUS
 10
-80.1668774719
 20
-46.6537111269
 40
4.3
  0
CIRCLE
  5
60D
100
AcDbEntity
  8
ASSI
100
AcDbCircle
 62
7
  6
CONTINUOUS
 10
-80.1668774719
 20
-27.8537111269
 40
11.25
  0
ARC
  5
60E
100
AcDbEntity
  8
0
100
AcDbCircle
 62
7
  6
CONTINUOUS
 10
-80.1668774719
 20
-27.8537111269
 40
11.0
100
AcDbArc
 50
185.7391704773
 51
264.2608295227
  0
ARC
  5
60F
100
AcDbEntity
  8
0
100
AcDbCircle
 62
7
  6
CONTINUOUS
 10
-80.1668774719
 20
-27.8537111269
 40
11.0
100
AcDbArc
 50
275.7391704773
 51
354.2608295227
  0
ARC
  5
610
100
AcDbEntity
  8
0
100
AcDbCircle
 62
7
  6
CONTINUOUS
 10
-80.1668774719
 20
-27.8537111269
 40
11.0
100
AcDbArc
 50
95.7391704773
 51
174.2608295227
  0
ARC
  5
611
100
AcDbEntity
  8
0
100
AcDbCircle
 62
7
  6
CONTINUOUS
 10
-80.1668774719
 20
-27.8537111269
 40
11.0
100
AcDbArc
 50
5.7391704773
 51
84.2608295227
  0
ARC
  5
612
100
AcDbEntity
  8
0
100
AcDbCircle
 62
7
  6
CONTINUOUS
 10
-80.1668774719
 20
-27.8537111269
 40
10.1299689469
100
AcDbArc
 50
6.233965798
 51
83.766034202
  0
ARC
  5
613
100
AcDbEntity
  8
0
100
AcDbCircle
 62
7
  6
CONTINUOUS
 10
-80.1668774719
 20
-27.8537111269
 40
10.1299689469
100
AcDbArc
 50
96.233965798
 51
173.766034202
  0
ARC
  5
614
100
AcDbEntity
  8
0
100
AcDbCircle
 62
7
  6
CONTINUOUS
 10
-80.1668774719
 20
-27.8537111269
 40
10.1299689469
100
AcDbArc
 50
186.233965798
 51
263.766034202
  0
ARC
  5
615
100
AcDbEntity
  8
0
100
AcDbCircle
 62
7
  6
CONTINUOUS
 10
-80.1668774719
 20
-27.8537111269
 40
10.1299689469
100
AcDbArc
 50
276.233965798
 51
353.766034202
  0
CIRCLE
  5
616
100
AcDbEntity
  8
RACCORDO
100
AcDbCircle
 62
7
  6
CONTINUOUS
 10
-28.6668774719
 20
-54.3537111269
 40
9.5
  0
CIRCLE
  5
617
100
AcDbEntity
  8
RACCORDO
100
AcDbCircle
 62
250
  6
CONTINUOUS
 10
-28.6668774719
 20
-54.3537111269
 40
8.6999999289
  0
ARC
  5
618
100
AcDbEntity
  8
ASSI
100
AcDbCircle
 62
7
  6
CONTINUOUS
 10
-18.1668774719
 20
-63.3537111269
 40
6.0
100
AcDbArc
 50
282.1320671858
 51
347.9641675823
  0
ARC
  5
619
100
AcDbEntity
  8
DRAFT
100
AcDbCircle
 62
7
  6
CONTINUOUS
 10
-18.1668774719
 20
-63.3537111269
 40
6.0
100
AcDbArc
 50
270.0
 51
360.0
  0
ARC
  5
61A
100
AcDbEntity
  8
RACCORDO
100
AcDbCircle
 62
250
  6
CONTINUOUS
 10
-18.1668774719
 20
-63.3537111269
 40
5.4476056194
100
AcDbArc
 50
270.0
 51
360.0
  0
ARC
  5
61B
100
AcDbEntity
  8
RACCORDO
100
AcDbCircle
 62
7
  6
CONTINUOUS
 10
-18.1668774719
 20
-63.3537111269
 40
4.0488603717
100
AcDbArc
 50
295.6465320179
 51
334.3484131035
  0
ARC
  5
61C
100
AcDbEntity
  8
DRAFT
100
AcDbCircle
 62
7
  6
CONTINUOUS
 10
-18.1668774719
 20
-63.3537111269
 40
4.0
100
AcDbArc
 50
270.0
 51
360.0
  0
CIRCLE
  5
61D
100
AcDbEntity
  8
0
100
AcDbCircle
 62
7
  6
CONTINUOUS
 10
-28.6668774719
 20
-54.3537111269
 40
2.25
  0
CIRCLE
  5
61E
100
AcDbEntity
  8
0
100
AcDbCircle
 62
7
  6
CONTINUOUS
 10
-28.6668774719
 20
-54.3537111269
 40
1.8
  0
ARC
  5
61F
100
AcDbEntity
  8
DRAFT
100
AcDbCircle
 62
7
  6
CONTINUOUS
 10
-18.1668774719
 20
-63.3537111269
 40
1.5551526284
100
AcDbArc
 50
90.0
 51
180.0
  0
CIRCLE
  5
620
100
AcDbEntity
  8
0
100
AcDbCircle
 62
7
  6
CONTINUOUS
 10
-28.6668774719
 20
-54.3537111269
 40
1.5
  0
ARC
  5
621
100
AcDbEntity
  8
DRAFT
100
AcDbCircle
 62
7
  6
CONTINUOUS
 10
-18.1668774719
 20
-63.3537111269
 40
1.5
100
AcDbArc
 50
90.0
 51
180.0
  0
ARC
  5
622
100
AcDbEntity
  8
DRAFT
100
AcDbCircle
 62
7
  6
CONTINUOUS
 10
-18.1668774719
 20
7.6462888731
 40
1.8378845111
100
AcDbArc
 50
90.0
 51
270.0
  0
ARC
  5
623
100
AcDbEntity
  8
DRAFT
100
AcDbCircle
 62
7
  6
CONTINUOUS
 10
-18.1668774719
 20
7.6462888731
 40
1.7
100
AcDbArc
 50
90.0
 51
270.0
  0
CIRCLE
  5
624
100
AcDbEntity
  8
0
100
AcDbCircle
 62
7
  6
CONTINUOUS
 10
-80.1668774719
 20
65.1462888731
 40
11.25
  0
ARC
  5
625
100
AcDbEntity
  8
0
100
AcDbCircle
 62
7
  6
CONTINUOUS
 10
-80.1668774719
 20
65.1462888731
 40
11.0
100
AcDbArc
 50
185.7391704773
 51
264.2608295227
  0
ARC
  5
626
100
AcDbEntity
  8
0
100
AcDbCircle
 62
7
  6
CONTINUOUS
 10
-80.1668774719
 20
65.1462888731
 40
11.0
100
AcDbArc
 50
275.7391704773
 51
354.2608295227
  0
ARC
  5
627
100
AcDbEntity
  8
0
100
AcDbCircle
 62
7
  6
CONTINUOUS
 10
-80.1668774719
 20
65.1462888731
 40
11.0
100
AcDbArc
 50
95.7391704773
 51
174.2608295227
  0
ARC
  5
628
100
AcDbEntity
  8
0
100
AcDbCircle
 62
7
  6
CONTINUOUS
 10
-80.1668774719
 20
65.1462888731
 40
11.0
100
AcDbArc
 50
5.7391704773
 51
84.2608295227
  0
ARC
  5
629
100
AcDbEntity
  8
0
100
AcDbCircle
 62
7
  6
CONTINUOUS
 10
-80.1668774719
 20
65.1462888731
 40
10.1299689469
100
AcDbArc
 50
6.233965798
 51
83.766034202
  0
ARC
  5
62A
100
AcDbEntity
  8
0
100
AcDbCircle
 62
7
  6
CONTINUOUS
 10
-80.1668774719
 20
65.1462888731
 40
10.1299689469
100
AcDbArc
 50
96.233965798
 51
173.766034202
  0
ARC
  5
62B
100
AcDbEntity
  8
0
100
AcDbCircle
 62
7
  6
CONTINUOUS
 10
-80.1668774719
 20
65.1462888731
 40
10.1299689469
100
AcDbArc
 50
186.233965798
 51
263.766034202
  0
ARC
  5
62C
100
AcDbEntity
  8
0
100
AcDbCircle
 62
7
  6
CONTINUOUS
 10
-80.1668774719
 20
65.1462888731
 40
10.1299689469
100
AcDbArc
 50
276.233965798
 51
353.766034202
  0
CIRCLE
  5
62D
100
AcDbEntity
  8
ASSI
100
AcDbCircle
 62
7
  6
CONTINUOUS
 10
-80.1668774719
 20
158.1462888731
 40
11.25
  0
ARC
  5
62E
100
AcDbEntity
  8
0
100
AcDbCircle
 62
7
  6
CONTINUOUS
 10
-80.1668774719
 20
158.1462888731
 40
11.0
100
AcDbArc
 50
185.7391704773
 51
264.2608295227
  0
ARC
  5
62F
100
AcDbEntity
  8
0
100
AcDbCircle
 62
7
  6
CONTINUOUS
 10
-80.1668774719
 20
158.1462888731
 40
11.0
100
AcDbArc
 50
275.7391704773
 51
354.2608295227
  0
ARC
  5
630
100
AcDbEntity
  8
0
100
AcDbCircle
 62
7
  6
CONTINUOUS
 10
-80.1668774719
 20
158.1462888731
 40
11.0
100
AcDbArc
 50
95.7391704773
 51
174.2608295227
  0
ARC
  5
631
100
AcDbEntity
  8
0
100
AcDbCircle
 62
7
  6
CONTINUOUS
 10
-80.1668774719
 20
158.1462888731
 40
11.0
100
AcDbArc
 50
5.7391704773
 51
84.2608295227
  0
ARC
  5
632
100
AcDbEntity
  8
0
100
AcDbCircle
 62
7
  6
CONTINUOUS
 10
-80.1668774719
 20
158.1462888731
 40
10.1299689469
100
AcDbArc
 50
6.233965798
 51
83.766034202
  0
ARC
  5
633
100
AcDbEntity
  8
0
100
AcDbCircle
 62
7
  6
CONTINUOUS
 10
-80.1668774719
 20
158.1462888731
 40
10.1299689469
100
AcDbArc
 50
96.233965798
 51
173.766034202
  0
ARC
  5
634
100
AcDbEntity
  8
0
100
AcDbCircle
 62
7
  6
CONTINUOUS
 10
-80.1668774719
 20
158.1462888731
 40
10.1299689469
100
AcDbArc
 50
186.233965798
 51
263.766034202
  0
ARC
  5
635
100
AcDbEntity
  8
0
100
AcDbCircle
 62
7
  6
CONTINUOUS
 10
-80.1668774719
 20
158.1462888731
 40
10.1299689469
100
AcDbArc
 50
276.233965798
 51
353.766034202
  0
CIRCLE
  5
636
100
AcDbEntity
  8
RACCORDO
100
AcDbCircle
 62
7
  6
CONTINUOUS
 10
-80.1668774719
 20
176.9462888731
 40
4.8
  0
CIRCLE
  5
637
100
AcDbEntity
  8
RACCORDO
100
AcDbCircle
 62
250
  6
CONTINUOUS
 10
-80.1668774719
 20
176.9462888731
 40
4.3
  0
ARC
  5
638
100
AcDbEntity
  8
0
100
AcDbCircle
 62
7
  6
CONTINUOUS
 10
-77.607987673
 20
186.9865466886
 40
0.05
100
AcDbArc
 50
118.3322008089
 51
249.0297526306
  0
ARC
  5
639
100
AcDbEntity
  8
0
100
AcDbCircle
 62
7
  6
CONTINUOUS
 10
-18.1668774719
 20
100.6462888731
 40
1.7
100
AcDbArc
 50
90.0
 51
270.0
  0
CIRCLE
  5
63A
100
AcDbEntity
  8
RACCORDO
100
AcDbCircle
 62
7
  6
CONTINUOUS
 10
-28.6668774719
 20
184.6462888731
 40
9.5
  0
CIRCLE
  5
63B
100
AcDbEntity
  8
RACCORDO
100
AcDbCircle
 62
250
  6
CONTINUOUS
 10
-28.6668774719
 20
184.6462888731
 40
8.6999999289
  0
ARC
  5
63C
100
AcDbEntity
  8
ASSI
100
AcDbCircle
 62
7
  6
CONTINUOUS
 10
-18.1668774719
 20
193.6462888731
 40
6.0
100
AcDbArc
 50
12.1320671857
 51
77.9641675824
  0
ARC
  5
63D
100
AcDbEntity
  8
DRAFT
100
AcDbCircle
 62
7
  6
CONTINUOUS
 10
-18.1668774719
 20
193.6462888731
 40
6.0
100
AcDbArc
 50
0.0
 51
90.0
  0
ARC
  5
63E
100
AcDbEntity
  8
RACCORDO
100
AcDbCircle
 62
250
  6
CONTINUOUS
 10
-18.1668774719
 20
193.6462888731
 40
5.4476056194
100
AcDbArc
 50
0.0
 51
90.0
  0
ARC
  5
63F
100
AcDbEntity
  8
RACCORDO
100
AcDbCircle
 62
7
  6
CONTINUOUS
 10
-18.1668774719
 20
193.6462888731
 40
4.0488603717
100
AcDbArc
 50
25.6471959935
 51
64.3483714842
  0
ARC
  5
640
100
AcDbEntity
  8
DRAFT
100
AcDbCircle
 62
7
  6
CONTINUOUS
 10
-18.1668774719
 20
193.6462888731
 40
4.0
100
AcDbArc
 50
0.0
 51
90.0
  0
CIRCLE
  5
641
100
AcDbEntity
  8
0
100
AcDbCircle
 62
7
  6
CONTINUOUS
 10
-28.6668774719
 20
184.6462888731
 40
2.25
  0
CIRCLE
  5
642
100
AcDbEntity
  8
0
100
AcDbCircle
 62
7
  6
CONTINUOUS
 10
-28.6668774719
 20
184.6462888731
 40
1.8
  0
ARC
  5
643
100
AcDbEntity
  8
DRAFT
100
AcDbCircle
 62
7
  6
CONTINUOUS
 10
-18.1668774719
 20
193.6462888731
 40
1.5551526284
100
AcDbArc
 50
180.0
 51
270.0
  0
CIRCLE
  5
644
100
AcDbEntity
  8
0
100
AcDbCircle
 62
7
  6
CONTINUOUS
 10
-28.6668774719
 20
184.6462888731
 40
1.5
  0
ARC
  5
645
100
AcDbEntity
  8
DRAFT
100
AcDbCircle
 62
7
  6
CONTINUOUS
 10
-18.1668774719
 20
193.6462888731
 40
1.5
100
AcDbArc
 50
180.0
 51
270.0
  0
ELLIPSE
  5
646
100
AcDbEntity
  8
ASSI
100
AcDbEllipse
 62
7
  6
CONTINUOUS
 10
-31.2668774719
 20
-68.8038765816
 30
0.0
 11
0.3
 21
0.0
 31
0.0
 40
0.0174550649
 41
-3.1415926536
 42
-1.5707963268
  0
ELLIPSE
  5
647
100
AcDbEntity
  8
ASSI
100
AcDbEllipse
 62
7
  6
CONTINUOUS
 10
-26.0668774719
 20
-68.8038765816
 30
0.0
 11
0.3
 21
-0.0
 31
0.0
 40
0.0174550649
 41
-1.5707963268
 42
0.0
  0
ELLIPSE
  5
648
100
AcDbEntity
  8
DRAFT
100
AcDbEllipse
 62
7
  6
CONTINUOUS
 10
-14.2867607689
 20
9.4710830825
 30
0.0
 11
1.5
 21
0.0
 31
0.0
 40
0.0087268678
 41
1.0425851154
 42
1.5707963268
  0
ELLIPSE
  5
649
100
AcDbEntity
  8
DRAFT
100
AcDbEllipse
 62
7
  6
CONTINUOUS
 10
-14.2867607689
 20
5.8214946637
 30
0.0
 11
1.5
 21
0.0
 31
0.0
 40
0.0087268678
 41
-1.5707963268
 42
-1.0425851154
  0
ELLIPSE
  5
64A
100
AcDbEntity
  8
ASSI
100
AcDbEllipse
 62
7
  6
CONTINUOUS
 10
-147.6170429267
 20
-51.7537111269
 30
0.0
 11
0.0
 21
0.3
 31
0.0
 40
0.0174550649
 41
0.0
 42
1.5707963268
  0
ELLIPSE
  5
64B
100
AcDbEntity
  8
ASSI
100
AcDbEllipse
 62
7
  6
CONTINUOUS
 10
-147.6170429267
 20
-56.9537111269
 30
0.0
 11
0.0
 21
0.3
 31
0.0
 40
0.0174550649
 41
-4.7123889804
 42
-3.1415926536
  0
ELLIPSE
  5
64C
100
AcDbEntity
  8
DRAFT
100
AcDbEllipse
 62
7
  6
CONTINUOUS
 10
-146.0469941749
 20
5.8214946637
 30
0.0
 11
1.5
 21
-0.0
 31
0.0
 40
0.0087268678
 41
-2.0990075382
 42
-1.5707963268
  0
ELLIPSE
  5
64D
100
AcDbEntity
  8
DRAFT
100
AcDbEllipse
 62
7
  6
CONTINUOUS
 10
-146.0469941749
 20
9.4710830825
 30
0.0
 11
1.5
 21
0.0
 31
0.0
 40
0.0087268678
 41
1.5707963268
 42
2.0990075382
  0
ELLIPSE
  5
64E
100
AcDbEntity
  8
ASSI
100
AcDbEllipse
 62
7
  6
CONTINUOUS
 10
-129.0668774719
 20
199.0964543279
 30
0.0
 11
0.3
 21
-0.0
 31
0.0
 40
0.0174550649
 41
0.0
 42
1.5707963268
  0
ELLIPSE
  5
64F
100
AcDbEntity
  8
ASSI
100
AcDbEllipse
 62
7
  6
CONTINUOUS
 10
-134.2668774719
 20
199.0964543279
 30
0.0
 11
0.3
 21
0.0
 31
0.0
 40
0.0174550649
 41
1.5707963268
 42
3.1415926536
  0
ELLIPSE
  5
650
100
AcDbEntity
  8
ASSI
100
AcDbEllipse
 62
7
  6
CONTINUOUS
 10
-12.7167120172
 20
182.0462888731
 30
0.0
 11
-0.0
 21
0.3
 31
0.0
 40
0.0174550649
 41
-3.1415926536
 42
-1.5707963268
  0
ELLIPSE
  5
651
100
AcDbEntity
  8
ASSI
100
AcDbEllipse
 62
7
  6
CONTINUOUS
 10
-12.7167120172
 20
187.2462888731
 30
0.0
 11
0.0
 21
0.3
 31
0.0
 40
0.0174550649
 41
-1.5707963268
 42
0.0
  0
ENDSEC
  0
SECTION
  2
OBJECTS
  0
DICTIONARY
  5
C
100
AcDbDictionary
280
0
281
1
  3
ACAD_GROUP
350
D
  3
ACAD_MLINESTYLE
350
17
  3
ACAD_LAYOUT
350
1A
  3
ACAD_PLOTSETTINGS
350
19
  3
ACAD_PLOTSTYLENAME
350
E
  0
DICTIONARY
  5
D
102
{ACAD_REACTORS
330
C
102
}
100
AcDbDictionary
280
0
281
1
  0
ACDBDICTIONARYWDFLT
  5
E
102
{ACAD_REACTORS
330
C
102
}
100
AcDbDictionary
281
1
  3
Normal
350
F
100
AcDbDictionaryWithDefault
340
F
  0
DICTIONARY
  5
17
102
{ACAD_REACTORS
330
C
102
}
100
AcDbDictionary
280
0
281
1
  3
Standard
350
18
  0
DICTIONARY
  5
19
102
{ACAD_REACTORS
330
C
102
}
100
AcDbDictionary
281
1
  0
DICTIONARY
  5
1A
102
{ACAD_REACTORS
330
C
102
}
100
AcDbDictionary
281
1
  3
Model
350
652
  3
Layout1
350
653
  0
ACDBPLACEHOLDER
  5
F
102
{ACAD_REACTORS
330
E
102
}
  0
MLINESTYLE
  5
18
102
{ACAD_REACTORS
330
17
102
}
100
AcDbMlineStyle
  2
STANDARD
 70
0
  3

 62
256
 51
90.0
 52
90.0
 71
2
 49
0.5
 62
256
  6
BYLAYER
 49
-0.5
 62
256
  6
BYLAYER
  0
LAYOUT
  5
652
102
{ACAD_REACTORS
330
1A
102
}
100
AcDbPlotSettings
  1

  2
none_device
  4
ISO_A4_(297.00_x_210.00_MM)
  6

 40
0.0
 41
0.0
 42
0.0
 43
0.0
 44
297.0
 45
210.0
 46
0.0
 47
0.0
 48
0.0
 49
0.0
140
0.0
141
0.0
142
1.0
143
1.0
 70
1024
 72
1
 73
0
 74
0
  7

 75
0
147
1.0
148
0.0
149
0.0
100
AcDbLayout
  1
Model
 70
0
 71
0
 10
0.0
 20
0.0
 11
297.0
 21
210.0
 12
0.0
 22
0.0
 32
0.0
 14
0.0
 24
0.0
 34
0.0
 15
0.0
 25
0.0
 35
0.0
146
0.0
 13
0.0
 23
0.0
 33
0.0
 16
1.0
 26
0.0
 36
0.0
 17
0.0
 27
1.0
 37
0.0
 76
0
330
219
345
0
346
0
  0
LAYOUT
  5
653
102
{ACAD_REACTORS
330
1A
102
}
100
AcDbPlotSettings
  1

  2
none_device
  4
ISO_A4_(297.00_x_210.00_MM)
  6

 40
0.0
 41
0.0
 42
0.0
 43
0.0
 44
297.0
 45
210.0
 46
0.0
 47
0.0
 48
0.0
 49
0.0
140
0.0
141
0.0
142
1.0
143
1.0
 70
0
 72
1
 73
0
 74
0
  7

 75
0
147
1.0
148
0.0
149
0.0
100
AcDbLayout
  1
Layout1
 70
0
 71
1
 10
0.0
 20
0.0
 11
297.0
 21
210.0
 12
0.0
 22
0.0
 32
0.0
 14
0.0
 24
0.0
 34
0.0
 15
0.0
 25
0.0
 35
0.0
146
0.0
 13
0.0
 23
0.0
 33
0.0
 16
1.0
 26
0.0
 36
0.0
 17
0.0
 27
1.0
 37
0.0
 76
0
330
21A
345
0
346
0
  0
ENDSEC
  0
EOF
