  0
SECTION
  2
HEADER
  9
$ACADVER
  1
AC1015
  9
$DWGCODEPAGE
  3
ANSI_1252
  9
$EXTMAX
 10
297.0
 20
210.0
 30
0.0
  9
$EXTMIN
 10
0.0
 20
0.0
 30
0.0
  9
$LIMMIN
 10
0.0
 20
0.0
  9
$LIMMAX
 10
297.0
 20
210.0
  9
$VIEWCTR
 10
148.5
 20
105.0
  9
$VIEWSIZE
 40
210.0
  9
$CLAYER
  8
0
  9
$LTSCALE
 40
16.335
  9
$CELTYPE
  6
BYLAYER
  9
$DIMSCALE
 40
1.0
  9
$DIMASZ
 40
3.0
  9
$DIMEXO
 40
1.85625
  9
$DIMDLI
 40
11.286
  9
$DIMEXE
 40
5.346
  9
$DIMCEN
 40
2.673
  9
$DIMLFAC
 40
1.0
  9
$DIMBLK
  1
_FILLED
  9
$DIMTXT
 40
3.0
  9
$DIMTOL
 70
1
  9
$DIMLIM
 70
0
  9
$DIMTFAC
 40
1.0
  9
$DIMTP
 40
0.01
  9
$DIMTM
 40
0.01
  9
$PDMODE
 70
3
  9
$PDSIZE
 40
3.0
  9
$HANDSEED
  5
2EB
  9
$TILEMODE
 70
1
  9
$MEASUREMENT
 70
1
  9
$INSUNITS
 70
4
  0
ENDSEC
  0
SECTION
  2
CLASSES
  0
CLASS
  1
ACDBDICTIONARYWDFLT
  2
AcDbDictionaryWithDefault
  3
AutoCAD 2000
 90
0
280
0
281
0
  0
CLASS
  1
ACDBPLACEHOLDER
  2
AcDbPlaceHolder
  3
AutoCAD 2000
 90
0
280
0
281
0
  0
CLASS
  1
LAYOUT
  2
AcDbLayout
  3
AutoCAD 2000
 90
0
280
0
281
0
  0
ENDSEC
  0
SECTION
  2
TABLES
  0
TABLE
  2
VPORT
  5
8
100
AcDbSymbolTable
 70
2
  0
VPORT
  5
1F4
100
AcDbSymbolTableRecord
100
AcDbViewportTableRecord
  2
*ACTIVE
 70
0
 10
0.0
 20
0.0
 11
1.0
 21
1.0
 12
148.5
 22
105.0
 13
0.0
 23
0.0
 14
1.0
 24
1.0
 15
0.0
 25
0.0
 16
0.0
 26
0.0
 36
1.0
 17
0.0
 27
0.0
 37
0.0
 40
210.0
 41
1.4142857143
 42
50.0
 43
0.0
 44
0.0
 50
0.0
 51
0.0
 71
0
 72
100
 73
1
 74
1
 75
0
 76
0
 77
0
 78
0
  0
ENDTAB
  0
TABLE
  2
LTYPE
  5
5
100
AcDbSymbolTable
 70
6
  0
LTYPE
  5
14
100
AcDbSymbolTableRecord
100
AcDbLinetypeTableRecord
  2
BYBLOCK
 70
0
  3

 72
65
 73
0
 40
0.0
  0
LTYPE
  5
15
100
AcDbSymbolTableRecord
100
AcDbLinetypeTableRecord
  2
BYLAYER
 70
0
  3

 72
65
 73
0
 40
0.0
  0
LTYPE
  5
16
100
AcDbSymbolTableRecord
100
AcDbLinetypeTableRecord
  2
CONTINUOUS
 70
64
  3
Solid line
 72
65
 73
0
 40
0.0
  0
LTYPE
  5
1F5
100
AcDbSymbolTableRecord
100
AcDbLinetypeTableRecord
  2
CENTER
 70
64
  3
____ _ ____ _ ____ _ ____ _ ____ _ ____ _ ____
 72
65
 73
4
 40
0.6
 49
0.375
 74
0
 49
-0.075
 74
0
 49
0.075
 74
0
 49
-0.075
 74
0
  0
LTYPE
  5
1F6
100
AcDbSymbolTableRecord
100
AcDbLinetypeTableRecord
  2
HIDDEN
 70
64
  3
- - - - - - - - - - - - - - - - - - - -
 72
65
 73
2
 40
0.2
 49
0.1
 74
0
 49
-0.1
 74
0
  0
LTYPE
  5
1F7
100
AcDbSymbolTableRecord
100
AcDbLinetypeTableRecord
  2
PHANTOM
 70
64
  3
_____ _ _ _____ _ _ _____ _ _ _____
 72
65
 73
6
 40
0.8
 49
0.45
 74
0
 49
-0.05
 74
0
 49
0.1
 74
0
 49
-0.05
 74
0
 49
0.1
 74
0
 49
-0.05
 74
0
  0
LTYPE
  5
1F8
100
AcDbSymbolTableRecord
100
AcDbLinetypeTableRecord
  2
DOT
 70
64
  3
. . . . . . . . . . . . . . . . . . . .
 72
65
 73
2
 40
0.2
 49
0.1
 74
0
 49
-0.1
 74
0
  0
LTYPE
  5
1F9
100
AcDbSymbolTableRecord
100
AcDbLinetypeTableRecord
  2
DASHED
 70
64
  3
- - - - - - - - - - - - - - - - - - - -
 72
65
 73
2
 40
0.2
 49
0.1
 74
0
 49
-0.1
 74
0
  0
ENDTAB
  0
TABLE
  2
LAYER
  5
2
100
AcDbSymbolTable
 70
36
  0
LAYER
  5
10
100
AcDbSymbolTableRecord
100
AcDbLayerTableRecord
  2
0
 70
0
 62
7
  6
CONTINUOUS
370
-3
390
F
  0
LAYER
  5
1FA
100
AcDbSymbolTableRecord
100
AcDbLayerTableRecord
  2
DEFAULT_1
 70
0
 62
7
  6
CENTER
370
-3
390
F
  0
LAYER
  5
1FB
100
AcDbSymbolTableRecord
100
AcDbLayerTableRecord
  2
DEFAULT_2
 70
0
 62
7
  6
HIDDEN
370
-3
390
F
  0
LAYER
  5
1FC
100
AcDbSymbolTableRecord
100
AcDbLayerTableRecord
  2
DEFAULT_3
 70
0
 62
7
  6
PHANTOM
370
-3
390
F
  0
LAYER
  5
1FD
100
AcDbSymbolTableRecord
100
AcDbLayerTableRecord
  2
ASSI
 70
0
 62
7
  6
CONTINUOUS
370
-3
390
F
  0
LAYER
  5
1FE
100
AcDbSymbolTableRecord
100
AcDbLayerTableRecord
  2
COLORE_MATERIALE
 70
0
 62
7
  6
CONTINUOUS
370
-3
390
F
  0
LAYER
  5
1FF
100
AcDbSymbolTableRecord
100
AcDbLayerTableRecord
  2
COORDINATE
 70
0
 62
7
  6
CONTINUOUS
370
-3
390
F
  0
LAYER
  5
200
100
AcDbSymbolTableRecord
100
AcDbLayerTableRecord
  2
COORD_ORIGINE
 70
0
 62
7
  6
CONTINUOUS
370
-3
390
F
  0
LAYER
  5
201
100
AcDbSymbolTableRecord
100
AcDbLayerTableRecord
  2
COPY
 70
0
 62
7
  6
CONTINUOUS
370
-3
390
F
  0
LAYER
  5
202
100
AcDbSymbolTableRecord
100
AcDbLayerTableRecord
  2
CURVE
 70
0
 62
7
  6
CONTINUOUS
370
-3
390
F
  0
LAYER
  5
203
100
AcDbSymbolTableRecord
100
AcDbLayerTableRecord
  2
DRAFT
 70
0
 62
7
  6
CONTINUOUS
370
-3
390
F
  0
LAYER
  5
204
100
AcDbSymbolTableRecord
100
AcDbLayerTableRecord
  2
IGS
 70
0
 62
7
  6
CONTINUOUS
370
-3
390
F
  0
LAYER
  5
205
100
AcDbSymbolTableRecord
100
AcDbLayerTableRecord
  2
PIANI
 70
0
 62
7
  6
CONTINUOUS
370
-3
390
F
  0
LAYER
  5
206
100
AcDbSymbolTableRecord
100
AcDbLayerTableRecord
  2
PIANI_ORIGINE
 70
0
 62
7
  6
CONTINUOUS
370
-3
390
F
  0
LAYER
  5
207
100
AcDbSymbolTableRecord
100
AcDbLayerTableRecord
  2
PIANI_RIFERIMENTO
 70
0
 62
7
  6
CONTINUOUS
370
-3
390
F
  0
LAYER
  5
208
100
AcDbSymbolTableRecord
100
AcDbLayerTableRecord
  2
RACCORDO
 70
0
 62
7
  6
CONTINUOUS
370
-3
390
F
  0
LAYER
  5
209
100
AcDbSymbolTableRecord
100
AcDbLayerTableRecord
  2
SMUSSO
 70
0
 62
7
  6
CONTINUOUS
370
-3
390
F
  0
LAYER
  5
20A
100
AcDbSymbolTableRecord
100
AcDbLayerTableRecord
  2
SNAPLINE
 70
0
 62
7
  6
CONTINUOUS
370
-3
390
F
  0
LAYER
  5
20B
100
AcDbSymbolTableRecord
100
AcDbLayerTableRecord
  2
SOLIDO
 70
0
 62
7
  6
CONTINUOUS
370
-3
390
F
  0
LAYER
  5
20C
100
AcDbSymbolTableRecord
100
AcDbLayerTableRecord
  2
SUPERFICI
 70
0
 62
7
  6
CONTINUOUS
370
-3
390
F
  0
LAYER
  5
20D
100
AcDbSymbolTableRecord
100
AcDbLayerTableRecord
  2
TRASH
 70
0
 62
7
  6
CONTINUOUS
370
-3
390
F
  0
ENDTAB
  0
TABLE
  2
STYLE
  5
3
100
AcDbSymbolTable
 70
1
  0
STYLE
  5
11
100
AcDbSymbolTableRecord
100
AcDbTextStyleTableRecord
  2
STANDARD
 70
0
 40
0.0
 41
0.8
 50
0.0
 71
0
 42
0.2
  3
txt
  4

  0
STYLE
  5
20E
100
AcDbSymbolTableRecord
100
AcDbTextStyleTableRecord
  2
TEXTSTYLE_1
 70
0
 40
0.0
 41
0.8
 50
0.0
 71
0
 42
0.2
  3
gdt
  4

  0
ENDTAB
  0
TABLE
  2
VIEW
  5
6
100
AcDbSymbolTable
 70
0
  0
ENDTAB
  0
TABLE
  2
UCS
  5
7
100
AcDbSymbolTable
 70
0
  0
ENDTAB
  0
TABLE
  2
APPID
  5
9
100
AcDbSymbolTable
 70
1
  0
APPID
  5
20F
100
AcDbSymbolTableRecord
100
AcDbRegAppTableRecord
  2
ACAD
 70
0
  0
ENDTAB
  0
TABLE
  2
BLOCK_RECORD
  5
1
100
AcDbSymbolTable
 70
0
  0
BLOCK_RECORD
  5
210
100
AcDbSymbolTableRecord
100
AcDbBlockTableRecord
  2
*Model_Space
  0
BLOCK_RECORD
  5
211
100
AcDbSymbolTableRecord
100
AcDbBlockTableRecord
  2
*Paper_Space
  0
ENDTAB
  0
TABLE
  2
DIMSTYLE
  5
A
100
AcDbSymbolTable
 70
1
100
AcDbDimStyleTable
 71
0
  0
DIMSTYLE
105
212
100
AcDbSymbolTableRecord
100
AcDbDimStyleTableRecord
  2
STANDARD
 70
0
  3

  4

 40
1.0
 41
3.0
 42
0.0625
 43
0.38
 44
0.18
 45
0.0
 46
0.0
 47
0.01
 48
0.01
140
3.0
141
0.09
142
0.0
143
25.4
144
1.0
145
0.0
146
1.0
147
0.09
 71
1.0
 72
0.0
 73
0
 74
0
 75
0
 76
0
 77
1
 78
8
170
0
171
2
172
0
173
0
174
0
175
0
176
0
177
0
178
0
270
2
271
2
272
2
273
2
274
2
275
0
280
0
281
0
282
0
283
1
284
8
285
0
286
0
287
3
288
0
340
11
  0
ENDTAB
  0
ENDSEC
  0
SECTION
  2
BLOCKS
  0
BLOCK
  5
20
100
AcDbEntity
  8
0
100
AcDbBlockBegin
  2
*Model_Space
 70
0
 10
0.0
 20
0.0
 30
0.0
  3
*Model_Space
  1

  0
ENDBLK
  5
21
100
AcDbEntity
  8
0
100
AcDbBlockEnd
  0
BLOCK
  5
1C
100
AcDbEntity
  8
0
100
AcDbBlockBegin
  2
*Paper_Space
 70
0
 10
0.0
 20
0.0
 30
0.0
  3
*Paper_Space
  1

  0
ENDBLK
  5
1D
100
AcDbEntity
  8
0
100
AcDbBlockEnd
  0
ENDSEC
  0
SECTION
  2
ENTITIES
  0
LINE
  5
213
100
AcDbEntity
  8
DRAFT
100
AcDbLine
 62
7
  6
CONTINUOUS
 10
-11.1796814651
 20
7.0317102518
 11
-11.1796814651
 21
-2.0569448201
  0
LINE
  5
214
100
AcDbEntity
  8
RACCORDO
100
AcDbLine
 62
7
  6
CONTINUOUS
 10
-11.1796814651
 20
-2.0569448201
 11
-11.1796814651
 21
-10.6180608962
  0
LINE
  5
215
100
AcDbEntity
  8
RACCORDO
100
AcDbLine
 62
7
  6
CONTINUOUS
 10
-11.1395348158
 20
10.8230062293
 11
-11.1395348158
 21
7.0317102518
  0
LINE
  5
216
100
AcDbEntity
  8
0
100
AcDbLine
 62
253
  6
CONTINUOUS
 10
-10.9358837741
 20
-2.0367021514
 11
-10.9358837741
 21
2.1001226549
  0
LINE
  5
217
100
AcDbEntity
  8
RACCORDO
100
AcDbLine
 62
7
  6
CONTINUOUS
 10
2.3269428619
 20
-11.1182897482
 11
3.712583508
 21
-10.992511078
  0
LINE
  5
218
100
AcDbEntity
  8
RACCORDO
100
AcDbLine
 62
7
  6
CONTINUOUS
 10
10.5206991346
 20
-11.1182897482
 11
8.7136942079
 21
-11.1182897482
  0
LINE
  5
219
100
AcDbEntity
  8
DRAFT
100
AcDbLine
 62
7
  6
CONTINUOUS
 10
2.3269428619
 20
-11.1182897482
 11
-2.4863057921
 21
-11.1182897482
  0
LINE
  5
21A
100
AcDbEntity
  8
RACCORDO
100
AcDbLine
 62
7
  6
CONTINUOUS
 10
-8.8730571381
 20
-11.1182897482
 11
-10.6800620648
 21
-11.1182897482
  0
LINE
  5
21B
100
AcDbEntity
  8
RACCORDO
100
AcDbLine
 62
7
  6
CONTINUOUS
 10
7.1548484811
 20
-10.9872703
 11
3.8857885887
 21
-10.9872703
  0
LINE
  5
21C
100
AcDbEntity
  8
RACCORDO
100
AcDbLine
 62
7
  6
CONTINUOUS
 10
-4.0451515189
 20
-10.9872703
 11
-7.3142114113
 21
-10.9872703
  0
LINE
  5
21D
100
AcDbEntity
  8
RACCORDO
100
AcDbLine
 62
7
  6
CONTINUOUS
 10
-2.4863057921
 20
-11.1182897482
 11
-3.8719464382
 21
-10.992511078
  0
LINE
  5
21E
100
AcDbEntity
  8
0
100
AcDbLine
 62
253
  6
CONTINUOUS
 10
-10.2397184473
 20
-2.0312318882
 11
-10.2397184473
 21
2.0946523917
  0
LINE
  5
21F
100
AcDbEntity
  8
DRAFT
100
AcDbLine
 62
7
  6
CONTINUOUS
 10
-10.0296814651
 20
2.0946523917
 11
-10.0296814651
 21
-2.0312318882
  0
LINE
  5
220
100
AcDbEntity
  8
RACCORDO
100
AcDbLine
 62
7
  6
CONTINUOUS
 10
-10.0296814651
 20
-2.0569448201
 11
-10.0296814651
 21
-9.4881879663
  0
LINE
  5
221
100
AcDbEntity
  8
DRAFT
100
AcDbLine
 62
7
  6
CONTINUOUS
 10
-10.0296814651
 20
-2.0569448201
 11
-10.0296814651
 21
-2.0451635486
  0
LINE
  5
222
100
AcDbEntity
  8
DRAFT
100
AcDbLine
 62
7
  6
CONTINUOUS
 10
-10.0296814651
 20
2.1085840521
 11
-10.0296814651
 21
7.0317102518
  0
LINE
  5
223
100
AcDbEntity
  8
RACCORDO
100
AcDbLine
 62
7
  6
CONTINUOUS
 10
-9.9895348158
 20
9.6142856478
 11
-9.9895348158
 21
7.0317102518
  0
LINE
  5
224
100
AcDbEntity
  8
RACCORDO
100
AcDbLine
 62
253
  6
CONTINUOUS
 10
-9.7482819615
 20
-9.0319001261
 11
-9.7482819615
 21
-9.2025408646
  0
LINE
  5
225
100
AcDbEntity
  8
RACCORDO
100
AcDbLine
 62
253
  6
CONTINUOUS
 10
-9.7319460595
 20
9.7566359696
 11
-9.7319460595
 21
9.556034644
  0
LINE
  5
226
100
AcDbEntity
  8
DRAFT
100
AcDbLine
 62
7
  6
CONTINUOUS
 10
-9.4296814651
 20
-2.0421404729
 11
-9.4296814651
 21
2.1055609764
  0
LINE
  5
227
100
AcDbEntity
  8
RACCORDO
100
AcDbLine
 62
7
  6
CONTINUOUS
 10
3.0774982119
 20
-9.6182897482
 11
3.712583508
 21
-9.4832267312
  0
LINE
  5
228
100
AcDbEntity
  8
DRAFT
100
AcDbLine
 62
7
  6
CONTINUOUS
 10
3.0774982119
 20
-9.6182897482
 11
2.3269428619
 21
-9.6882897482
  0
LINE
  5
229
100
AcDbEntity
  8
RACCORDO
100
AcDbLine
 62
7
  6
CONTINUOUS
 10
-8.8730571381
 20
-11.1182897482
 11
-7.487416492
 21
-10.992511078
  0
LINE
  5
22A
100
AcDbEntity
  8
RACCORDO
100
AcDbLine
 62
7
  6
CONTINUOUS
 10
-9.8298387052
 20
-9.6882897482
 11
-8.8730571381
 21
-9.6882897482
  0
LINE
  5
22B
100
AcDbEntity
  8
DRAFT
100
AcDbLine
 62
7
  6
CONTINUOUS
 10
-2.4863057921
 20
-9.6882897482
 11
2.3269428619
 21
-9.6882897482
  0
LINE
  5
22C
100
AcDbEntity
  8
RACCORDO
100
AcDbLine
 62
7
  6
CONTINUOUS
 10
8.7136942079
 20
-9.6882897482
 11
9.670475775
 21
-9.6882897482
  0
LINE
  5
22D
100
AcDbEntity
  8
RACCORDO
100
AcDbLine
 62
7
  6
CONTINUOUS
 10
9.6480219323
 20
-9.6182897482
 11
7.9631388579
 21
-9.6182897482
  0
LINE
  5
22E
100
AcDbEntity
  8
DRAFT
100
AcDbLine
 62
7
  6
CONTINUOUS
 10
3.0774982119
 20
-9.6182897482
 11
-3.2368611421
 21
-9.6182897482
  0
LINE
  5
22F
100
AcDbEntity
  8
RACCORDO
100
AcDbLine
 62
7
  6
CONTINUOUS
 10
-8.1225017881
 20
-9.6182897482
 11
-9.8073848626
 21
-9.6182897482
  0
LINE
  5
230
100
AcDbEntity
  8
RACCORDO
100
AcDbLine
 62
7
  6
CONTINUOUS
 10
7.1548484811
 20
-9.4709482751
 11
3.8857885887
 21
-9.4709482751
  0
LINE
  5
231
100
AcDbEntity
  8
RACCORDO
100
AcDbLine
 62
7
  6
CONTINUOUS
 10
-4.0451515189
 20
-9.4709482751
 11
-7.3142114113
 21
-9.4709482751
  0
LINE
  5
232
100
AcDbEntity
  8
RACCORDO
100
AcDbLine
 62
7
  6
CONTINUOUS
 10
8.7136942079
 20
-11.1182897482
 11
7.3280535618
 21
-10.992511078
  0
LINE
  5
233
100
AcDbEntity
  8
DRAFT
100
AcDbLine
 62
7
  6
CONTINUOUS
 10
-3.2368611421
 20
-9.6182897482
 11
-2.4863057921
 21
-9.6882897482
  0
LINE
  5
234
100
AcDbEntity
  8
RACCORDO
100
AcDbLine
 62
7
  6
CONTINUOUS
 10
-3.2368611421
 20
-9.6182897482
 11
-3.8719464382
 21
-9.4832267312
  0
LINE
  5
235
100
AcDbEntity
  8
DRAFT
100
AcDbLine
 62
7
  6
CONTINUOUS
 10
-8.8730571381
 20
-11.1182897482
 11
-8.8730571381
 21
-9.6882897482
  0
LINE
  5
236
100
AcDbEntity
  8
RACCORDO
100
AcDbLine
 62
253
  6
CONTINUOUS
 10
-9.9482514995
 20
-9.0040316275
 11
-10.0072358894
 21
-9.4189468646
  0
LINE
  5
237
100
AcDbEntity
  8
RACCORDO
100
AcDbLine
 62
253
  6
CONTINUOUS
 10
-9.7482819615
 20
-9.2025408646
 11
-9.8073848626
 21
-9.6182897482
  0
LINE
  5
238
100
AcDbEntity
  8
DRAFT
100
AcDbLine
 62
7
  6
CONTINUOUS
 10
-8.1225017881
 20
-9.6182897482
 11
-8.8730571381
 21
-9.6882897482
  0
LINE
  5
239
100
AcDbEntity
  8
RACCORDO
100
AcDbLine
 62
253
  6
CONTINUOUS
 10
9.5889190312
 20
-9.2025408646
 11
-9.7482819615
 21
-9.2025408646
  0
LINE
  5
23A
100
AcDbEntity
  8
RACCORDO
100
AcDbLine
 62
253
  6
CONTINUOUS
 10
9.5889189948
 20
-9.0319001261
 11
-9.748281925
 21
-9.0319001261
  0
LINE
  5
23B
100
AcDbEntity
  8
DRAFT
100
AcDbLine
 62
7
  6
CONTINUOUS
 10
7.9631388579
 20
-9.6182897482
 11
8.7136942079
 21
-9.6882897482
  0
LINE
  5
23C
100
AcDbEntity
  8
DRAFT
100
AcDbLine
 62
7
  6
CONTINUOUS
 10
-8.2546587922
 20
11.022983384
 11
-8.2546587922
 21
9.8142551868
  0
LINE
  5
23D
100
AcDbEntity
  8
DRAFT
100
AcDbLine
 62
7
  6
CONTINUOUS
 10
-8.0796814651
 20
11.0055296484
 11
-8.0796814651
 21
9.779345057
  0
LINE
  5
23E
100
AcDbEntity
  8
RACCORDO
100
AcDbLine
 62
253
  6
CONTINUOUS
 10
-7.487416492
 20
-10.992511078
 11
-7.487416492
 21
-9.4832267312
  0
LINE
  5
23F
100
AcDbEntity
  8
RACCORDO
100
AcDbLine
 62
253
  6
CONTINUOUS
 10
-7.3142114113
 20
-10.9872703
 11
-7.3142114113
 21
-9.4709482751
  0
LINE
  5
240
100
AcDbEntity
  8
RACCORDO
100
AcDbLine
 62
7
  6
CONTINUOUS
 10
-8.1225017881
 20
-9.6182897482
 11
-7.487416492
 21
-9.4832267312
  0
LINE
  5
241
100
AcDbEntity
  8
0
100
AcDbLine
 62
7
  6
CONTINUOUS
 10
-2.8819574651
 20
-7.7005907482
 11
-2.5692654651
 21
-7.7005907482
  0
LINE
  5
242
100
AcDbEntity
  8
0
100
AcDbLine
 62
7
  6
CONTINUOUS
 10
-1.8911834651
 20
-7.7005907482
 11
-1.5363554651
 21
-7.7005907482
  0
LINE
  5
243
100
AcDbEntity
  8
0
100
AcDbLine
 62
7
  6
CONTINUOUS
 10
-1.3453404651
 20
-7.7005907482
 11
-1.0058854651
 21
-7.7005907482
  0
LINE
  5
244
100
AcDbEntity
  8
0
100
AcDbLine
 62
7
  6
CONTINUOUS
 10
-0.5130574651
 20
-7.7005907482
 11
-0.4632934651
 21
-7.7005907482
  0
LINE
  5
245
100
AcDbEntity
  8
0
100
AcDbLine
 62
7
  6
CONTINUOUS
 10
0.0314985349
 20
-7.7005907482
 11
0.3786145349
 21
-7.7005907482
  0
LINE
  5
246
100
AcDbEntity
  8
0
100
AcDbLine
 62
7
  6
CONTINUOUS
 10
0.4343315349
 20
-7.7005907482
 11
0.7853095349
 21
-7.7005907482
  0
LINE
  5
247
100
AcDbEntity
  8
0
100
AcDbLine
 62
7
  6
CONTINUOUS
 10
1.4583565349
 20
-7.7005907482
 11
1.8323305349
 21
-7.7005907482
  0
LINE
  5
248
100
AcDbEntity
  8
0
100
AcDbLine
 62
7
  6
CONTINUOUS
 10
1.9365251988
 20
-7.7005904349
 11
2.2899255309
 21
-7.7005904349
  0
LINE
  5
249
100
AcDbEntity
  8
0
100
AcDbLine
 62
7
  6
CONTINUOUS
 10
2.83329575
 20
-7.7005904349
 11
3.1745990933
 21
-7.7005904349
  0
LINE
  5
24A
100
AcDbEntity
  8
0
100
AcDbLine
 62
7
  6
CONTINUOUS
 10
0.8832205349
 20
-7.3612377482
 11
1.3664375349
 21
-7.3612377482
  0
LINE
  5
24B
100
AcDbEntity
  8
RACCORDO
100
AcDbLine
 62
7
  6
CONTINUOUS
 10
7.9631388579
 20
-9.6182897482
 11
7.3280535618
 21
-9.4832267312
  0
LINE
  5
24C
100
AcDbEntity
  8
RACCORDO
100
AcDbLine
 62
253
  6
CONTINUOUS
 10
-10.0072358894
 20
-9.4189468646
 11
-10.0296814651
 21
-9.4881879663
  0
LINE
  5
24D
100
AcDbEntity
  8
RACCORDO
100
AcDbLine
 62
253
  6
CONTINUOUS
 10
-9.8071471208
 20
-9.6182897482
 11
-9.8298387052
 21
-9.6882897482
  0
LINE
  5
24E
100
AcDbEntity
  8
RACCORDO
100
AcDbLine
 62
7
  6
CONTINUOUS
 10
-10.0296814651
 20
2.1203653236
 11
-9.9332785312
 21
2.1685631197
  0
LINE
  5
24F
100
AcDbEntity
  8
0
100
AcDbLine
 62
7
  6
CONTINUOUS
 10
0.9558025349
 20
-7.0986477482
 11
1.2955245349
 21
-7.0986477482
  0
LINE
  5
250
100
AcDbEntity
  8
0
100
AcDbLine
 62
7
  6
CONTINUOUS
 10
2.2899255309
 20
-7.0353580323
 11
2.4801758539
 21
-7.0353580323
  0
LINE
  5
251
100
AcDbEntity
  8
0
100
AcDbLine
 62
7
  6
CONTINUOUS
 10
2.2781599665
 20
-6.7569615797
 11
2.4809406793
 21
-6.7569615797
  0
LINE
  5
252
100
AcDbEntity
  8
RACCORDO
100
AcDbLine
 62
7
  6
CONTINUOUS
 10
-9.9360877734
 20
-2.103738102
 11
-10.0296814651
 21
-2.0569448201
  0
LINE
  5
253
100
AcDbEntity
  8
0
100
AcDbLine
 62
7
  6
CONTINUOUS
 10
-3.4208474651
 20
-6.0007277482
 11
-3.0353944651
 21
-6.0007277482
  0
LINE
  5
254
100
AcDbEntity
  8
0
100
AcDbLine
 62
7
  6
CONTINUOUS
 10
-2.3774474651
 20
-6.0007277482
 11
-2.0228614651
 21
-6.0007277482
  0
LINE
  5
255
100
AcDbEntity
  8
0
100
AcDbLine
 62
7
  6
CONTINUOUS
 10
-1.1918534651
 20
-6.0007277482
 11
-0.8373184651
 21
-6.0007277482
  0
LINE
  5
256
100
AcDbEntity
  8
0
100
AcDbLine
 62
7
  6
CONTINUOUS
 10
-0.1314094651
 20
-6.0007277482
 11
0.2196575349
 21
-6.0007277482
  0
LINE
  5
257
100
AcDbEntity
  8
0
100
AcDbLine
 62
7
  6
CONTINUOUS
 10
0.9675165349
 20
-6.0007277482
 11
1.3107705349
 21
-6.0007277482
  0
LINE
  5
258
100
AcDbEntity
  8
0
100
AcDbLine
 62
7
  6
CONTINUOUS
 10
-1.8911834651
 20
-6.0006257482
 11
-1.5363554651
 21
-6.0006257482
  0
LINE
  5
259
100
AcDbEntity
  8
0
100
AcDbLine
 62
7
  6
CONTINUOUS
 10
-2.8819574651
 20
-7.7005907482
 11
-3.4208474651
 21
-6.0007277482
  0
LINE
  5
25A
100
AcDbEntity
  8
0
100
AcDbLine
 62
7
  6
CONTINUOUS
 10
-2.7113694651
 20
-7.1707957482
 11
-3.0353944651
 21
-6.0007277482
  0
LINE
  5
25B
100
AcDbEntity
  8
RACCORDO
100
AcDbLine
 62
253
  6
CONTINUOUS
 10
-4.0451515189
 20
-9.4709482751
 11
-4.0451515189
 21
-10.9872703
  0
LINE
  5
25C
100
AcDbEntity
  8
RACCORDO
100
AcDbLine
 62
253
  6
CONTINUOUS
 10
-3.8719464382
 20
-9.4832267312
 11
-3.8719464382
 21
-10.992511078
  0
LINE
  5
25D
100
AcDbEntity
  8
0
100
AcDbLine
 62
7
  6
CONTINUOUS
 10
-0.5130574651
 20
-7.7005907482
 11
-0.9293134651
 21
-6.5906117482
  0
LINE
  5
25E
100
AcDbEntity
  8
DRAFT
100
AcDbLine
 62
7
  6
CONTINUOUS
 10
-2.4863057921
 20
-11.1182897482
 11
-2.4863057921
 21
-9.6882897482
  0
LINE
  5
25F
100
AcDbEntity
  8
DRAFT
100
AcDbLine
 62
7
  6
CONTINUOUS
 10
9.8703185349
 20
-2.0312318882
 11
9.2703185349
 21
-2.0364680088
  0
LINE
  5
260
100
AcDbEntity
  8
DRAFT
100
AcDbLine
 62
7
  6
CONTINUOUS
 10
-11.1796814651
 20
-2.0569448201
 11
-10.0296814651
 21
-2.0569448201
  0
LINE
  5
261
100
AcDbEntity
  8
DRAFT
100
AcDbLine
 62
7
  6
CONTINUOUS
 10
9.8703185349
 20
-2.0569448201
 11
11.0203185349
 21
-2.0569448201
  0
LINE
  5
262
100
AcDbEntity
  8
0
100
AcDbLine
 62
7
  6
CONTINUOUS
 10
10.0803555171
 20
-2.0312318882
 11
9.8703185349
 21
-2.0312318882
  0
LINE
  5
263
100
AcDbEntity
  8
0
100
AcDbLine
 62
7
  6
CONTINUOUS
 10
-10.0296814651
 20
-2.0312318882
 11
-10.2397184473
 21
-2.0312318882
  0
LINE
  5
264
100
AcDbEntity
  8
DRAFT
100
AcDbLine
 62
7
  6
CONTINUOUS
 10
-9.4296814651
 20
-2.0364680088
 11
-10.0296814651
 21
-2.0312318882
  0
LINE
  5
265
100
AcDbEntity
  8
0
100
AcDbLine
 62
7
  6
CONTINUOUS
 10
-0.4862374651
 20
-6.9444967482
 11
-0.8373184651
 21
-6.0007277482
  0
LINE
  5
266
100
AcDbEntity
  8
0
100
AcDbLine
 62
7
  6
CONTINUOUS
 10
-1.8911834651
 20
-7.7005907482
 11
-1.8911834651
 21
-6.0006257482
  0
LINE
  5
267
100
AcDbEntity
  8
0
100
AcDbLine
 62
7
  6
CONTINUOUS
 10
-1.5363554651
 20
-7.7005907482
 11
-1.5363554651
 21
-6.0006257482
  0
LINE
  5
268
100
AcDbEntity
  8
0
100
AcDbLine
 62
7
  6
CONTINUOUS
 10
-10.9358837741
 20
-2.0367021514
 11
-11.1796814651
 21
-2.0569448201
  0
LINE
  5
269
100
AcDbEntity
  8
DRAFT
100
AcDbLine
 62
7
  6
CONTINUOUS
 10
-10.0296814651
 20
-2.0451635486
 11
-9.4296814651
 21
-2.0421404729
  0
LINE
  5
26A
100
AcDbEntity
  8
DRAFT
100
AcDbLine
 62
7
  6
CONTINUOUS
 10
9.2703185349
 20
-2.0421404729
 11
9.8703185349
 21
-2.0451635486
  0
LINE
  5
26B
100
AcDbEntity
  8
0
100
AcDbLine
 62
7
  6
CONTINUOUS
 10
11.0203185349
 20
-2.0569448201
 11
10.7765208438
 21
-2.0367021514
  0
LINE
  5
26C
100
AcDbEntity
  8
0
100
AcDbLine
 62
7
  6
CONTINUOUS
 10
0.3786145349
 20
-7.7005907482
 11
0.2196575349
 21
-6.0007277482
  0
LINE
  5
26D
100
AcDbEntity
  8
0
100
AcDbLine
 62
7
  6
CONTINUOUS
 10
0.0314985349
 20
-7.7005907482
 11
-0.0414024651
 21
-6.5952387482
  0
LINE
  5
26E
100
AcDbEntity
  8
0
100
AcDbLine
 62
7
  6
CONTINUOUS
 10
-1.0058854651
 20
-7.7005907482
 11
-0.9293134651
 21
-6.5906117482
  0
LINE
  5
26F
100
AcDbEntity
  8
0
100
AcDbLine
 62
7
  6
CONTINUOUS
 10
-1.3453404651
 20
-7.7005907482
 11
-1.1918534651
 21
-6.0007277482
  0
LINE
  5
270
100
AcDbEntity
  8
0
100
AcDbLine
 62
7
  6
CONTINUOUS
 10
-2.7113694651
 20
-7.1707957482
 11
-2.3774474651
 21
-6.0007277482
  0
LINE
  5
271
100
AcDbEntity
  8
0
100
AcDbLine
 62
7
  6
CONTINUOUS
 10
-2.5692654651
 20
-7.7005907482
 11
-2.0228614651
 21
-6.0007277482
  0
LINE
  5
272
100
AcDbEntity
  8
RACCORDO
100
AcDbLine
 62
253
  6
CONTINUOUS
 10
9.5725831293
 20
9.7566359696
 11
9.6302023465
 21
9.8142551868
  0
LINE
  5
273
100
AcDbEntity
  8
RACCORDO
100
AcDbLine
 62
253
  6
CONTINUOUS
 10
-9.9895348158
 20
9.6142856478
 11
-9.9319155987
 21
9.5566664307
  0
LINE
  5
274
100
AcDbEntity
  8
RACCORDO
100
AcDbLine
 62
253
  6
CONTINUOUS
 10
-9.7895652767
 20
9.8142551868
 11
-9.7319460595
 21
9.7566359696
  0
LINE
  5
275
100
AcDbEntity
  8
0
100
AcDbLine
 62
7
  6
CONTINUOUS
 10
1.8323305349
 20
-7.7005907482
 11
1.3107705349
 21
-6.0007277482
  0
LINE
  5
276
100
AcDbEntity
  8
0
100
AcDbLine
 62
7
  6
CONTINUOUS
 10
1.4583565349
 20
-7.7005907482
 11
1.3664375349
 21
-7.3612377482
  0
LINE
  5
277
100
AcDbEntity
  8
0
100
AcDbLine
 62
7
  6
CONTINUOUS
 10
1.2955245349
 20
-7.0986477482
 11
1.1324765349
 21
-6.4678067482
  0
LINE
  5
278
100
AcDbEntity
  8
RACCORDO
100
AcDbLine
 62
253
  6
CONTINUOUS
 10
9.7725526685
 20
9.5566664307
 11
9.8301718856
 21
9.6142856478
  0
LINE
  5
279
100
AcDbEntity
  8
0
100
AcDbLine
 62
7
  6
CONTINUOUS
 10
1.9365251988
 20
-7.7005904349
 11
1.9365251988
 21
-6.0205876661
  0
LINE
  5
27A
100
AcDbEntity
  8
0
100
AcDbLine
 62
7
  6
CONTINUOUS
 10
-0.4862374651
 20
-6.9444967482
 11
-0.1314094651
 21
-6.0007277482
  0
LINE
  5
27B
100
AcDbEntity
  8
0
100
AcDbLine
 62
7
  6
CONTINUOUS
 10
11.0203185349
 20
2.1203653236
 11
10.7765208438
 21
2.1001226549
  0
LINE
  5
27C
100
AcDbEntity
  8
DRAFT
100
AcDbLine
 62
7
  6
CONTINUOUS
 10
-9.4296814651
 20
2.0998885124
 11
-10.0296814651
 21
2.0946523917
  0
LINE
  5
27D
100
AcDbEntity
  8
DRAFT
100
AcDbLine
 62
7
  6
CONTINUOUS
 10
9.2703185349
 20
2.1055609764
 11
9.8703185349
 21
2.1085840521
  0
LINE
  5
27E
100
AcDbEntity
  8
DRAFT
100
AcDbLine
 62
253
  6
CONTINUOUS
 10
9.2703185349
 20
1.6545102518
 11
-9.4296814651
 21
1.6545102518
  0
LINE
  5
27F
100
AcDbEntity
  8
0
100
AcDbLine
 62
7
  6
CONTINUOUS
 10
10.0803555171
 20
2.0946523917
 11
9.8703185349
 21
2.0946523917
  0
LINE
  5
280
100
AcDbEntity
  8
0
100
AcDbLine
 62
7
  6
CONTINUOUS
 10
-10.0296814651
 20
2.0946523917
 11
-10.2397184473
 21
2.0946523917
  0
LINE
  5
281
100
AcDbEntity
  8
DRAFT
100
AcDbLine
 62
7
  6
CONTINUOUS
 10
-11.1796814651
 20
2.1203653236
 11
-10.0296814651
 21
2.1203653236
  0
LINE
  5
282
100
AcDbEntity
  8
DRAFT
100
AcDbLine
 62
7
  6
CONTINUOUS
 10
9.8703185349
 20
2.1203653236
 11
11.0203185349
 21
2.1203653236
  0
LINE
  5
283
100
AcDbEntity
  8
DRAFT
100
AcDbLine
 62
7
  6
CONTINUOUS
 10
-10.0296814651
 20
2.1085840521
 11
-9.4296814651
 21
2.1055609764
  0
LINE
  5
284
100
AcDbEntity
  8
DRAFT
100
AcDbLine
 62
7
  6
CONTINUOUS
 10
9.8703185349
 20
2.0946523917
 11
9.2703185349
 21
2.0998885124
  0
LINE
  5
285
100
AcDbEntity
  8
0
100
AcDbLine
 62
7
  6
CONTINUOUS
 10
-10.9358837741
 20
2.1001226549
 11
-11.1796814651
 21
2.1203653236
  0
LINE
  5
286
100
AcDbEntity
  8
0
100
AcDbLine
 62
7
  6
CONTINUOUS
 10
2.2781599665
 20
-6.7569615797
 11
2.2781599665
 21
-6.2903160972
  0
LINE
  5
287
100
AcDbEntity
  8
0
100
AcDbLine
 62
7
  6
CONTINUOUS
 10
2.2899255309
 20
-7.7005904349
 11
2.2899255309
 21
-7.0353580323
  0
LINE
  5
288
100
AcDbEntity
  8
DRAFT
100
AcDbLine
 62
7
  6
CONTINUOUS
 10
2.3269428619
 20
-11.1182897482
 11
2.3269428619
 21
-9.6882897482
  0
LINE
  5
289
100
AcDbEntity
  8
0
100
AcDbLine
 62
7
  6
CONTINUOUS
 10
2.8487707176
 20
-6.9071095566
 11
2.8487707176
 21
-6.8970648494
  0
LINE
  5
28A
100
AcDbEntity
  8
0
100
AcDbLine
 62
7
  6
CONTINUOUS
 10
0.9558025349
 20
-7.0986477482
 11
1.1324765349
 21
-6.4678067482
  0
LINE
  5
28B
100
AcDbEntity
  8
0
100
AcDbLine
 62
7
  6
CONTINUOUS
 10
0.7853095349
 20
-7.7005907482
 11
0.8832205349
 21
-7.3612377482
  0
LINE
  5
28C
100
AcDbEntity
  8
0
100
AcDbLine
 62
7
  6
CONTINUOUS
 10
0.4343315349
 20
-7.7005907482
 11
0.9675165349
 21
-6.0007277482
  0
LINE
  5
28D
100
AcDbEntity
  8
0
100
AcDbLine
 62
7
  6
CONTINUOUS
 10
-0.4632934651
 20
-7.7005907482
 11
-0.0414024651
 21
-6.5952387482
  0
LINE
  5
28E
100
AcDbEntity
  8
RACCORDO
100
AcDbLine
 62
253
  6
CONTINUOUS
 10
3.712583508
 20
-10.992511078
 11
3.712583508
 21
-9.4832267312
  0
LINE
  5
28F
100
AcDbEntity
  8
RACCORDO
100
AcDbLine
 62
253
  6
CONTINUOUS
 10
3.8857885887
 20
-10.9872703
 11
3.8857885887
 21
-9.4709482751
  0
LINE
  5
290
100
AcDbEntity
  8
RACCORDO
100
AcDbLine
 62
7
  6
CONTINUOUS
 10
9.7767248432
 20
-2.103738102
 11
9.8703185349
 21
-2.0569448201
  0
LINE
  5
291
100
AcDbEntity
  8
RACCORDO
100
AcDbLine
 62
7
  6
CONTINUOUS
 10
9.8703185349
 20
2.1203653236
 11
9.7739156009
 21
2.1685631197
  0
LINE
  5
292
100
AcDbEntity
  8
RACCORDO
100
AcDbLine
 62
253
  6
CONTINUOUS
 10
9.670475775
 20
-9.6882897482
 11
9.6477841906
 21
-9.6182897482
  0
LINE
  5
293
100
AcDbEntity
  8
RACCORDO
100
AcDbLine
 62
253
  6
CONTINUOUS
 10
7.1548484811
 20
-9.4709482751
 11
7.1548484811
 21
-10.9872703
  0
LINE
  5
294
100
AcDbEntity
  8
RACCORDO
100
AcDbLine
 62
253
  6
CONTINUOUS
 10
7.3280535618
 20
-9.4832267312
 11
7.3280535618
 21
-10.992511078
  0
LINE
  5
295
100
AcDbEntity
  8
DRAFT
100
AcDbLine
 62
7
  6
CONTINUOUS
 10
-9.9895348158
 20
7.0317102518
 11
-11.1796814651
 21
7.0317102518
  0
LINE
  5
296
100
AcDbEntity
  8
DRAFT
100
AcDbLine
 62
7
  6
CONTINUOUS
 10
9.8301718856
 20
7.0317102518
 11
11.0203185349
 21
7.0317102518
  0
LINE
  5
297
100
AcDbEntity
  8
RACCORDO
100
AcDbLine
 62
253
  6
CONTINUOUS
 10
9.8703185349
 20
-9.4881879663
 11
9.8478729591
 21
-9.4189468646
  0
LINE
  5
298
100
AcDbEntity
  8
DRAFT
100
AcDbLine
 62
7
  6
CONTINUOUS
 10
7.9203185349
 20
11.0055296484
 11
7.9203185349
 21
9.779345057
  0
LINE
  5
299
100
AcDbEntity
  8
DRAFT
100
AcDbLine
 62
7
  6
CONTINUOUS
 10
8.0952958619
 20
9.8142551868
 11
8.0952958619
 21
11.022983384
  0
LINE
  5
29A
100
AcDbEntity
  8
DRAFT
100
AcDbLine
 62
7
  6
CONTINUOUS
 10
8.0952958619
 20
9.8142551868
 11
7.9203185349
 21
9.779345057
  0
LINE
  5
29B
100
AcDbEntity
  8
DRAFT
100
AcDbLine
 62
7
  6
CONTINUOUS
 10
-8.2546587922
 20
9.8142551868
 11
-8.0796814651
 21
9.779345057
  0
LINE
  5
29C
100
AcDbEntity
  8
RACCORDO
100
AcDbLine
 62
253
  6
CONTINUOUS
 10
9.6480219323
 20
-9.6182897482
 11
9.5889190312
 21
-9.2025408646
  0
LINE
  5
29D
100
AcDbEntity
  8
DRAFT
100
AcDbLine
 62
7
  6
CONTINUOUS
 10
8.7136942079
 20
-11.1182897482
 11
8.7136942079
 21
-9.6882897482
  0
LINE
  5
29E
100
AcDbEntity
  8
DRAFT
100
AcDbLine
 62
7
  6
CONTINUOUS
 10
9.2703185349
 20
-2.0421404729
 11
9.2703185349
 21
2.1055609764
  0
LINE
  5
29F
100
AcDbEntity
  8
RACCORDO
100
AcDbLine
 62
253
  6
CONTINUOUS
 10
9.8478729591
 20
-9.4189468646
 11
9.7888885693
 21
-9.0040316275
  0
LINE
  5
2A0
100
AcDbEntity
  8
RACCORDO
100
AcDbLine
 62
253
  6
CONTINUOUS
 10
9.5725831293
 20
9.556034644
 11
9.5725831293
 21
9.7566359696
  0
LINE
  5
2A1
100
AcDbEntity
  8
RACCORDO
100
AcDbLine
 62
253
  6
CONTINUOUS
 10
9.5889190312
 20
-9.2025408646
 11
9.5889190312
 21
-9.0319001261
  0
LINE
  5
2A2
100
AcDbEntity
  8
RACCORDO
100
AcDbLine
 62
7
  6
CONTINUOUS
 10
9.8301718856
 20
9.6142856478
 11
9.8301718856
 21
7.0317102518
  0
LINE
  5
2A3
100
AcDbEntity
  8
DRAFT
100
AcDbLine
 62
7
  6
CONTINUOUS
 10
9.8703185349
 20
2.0946523917
 11
9.8703185349
 21
-2.0312318882
  0
LINE
  5
2A4
100
AcDbEntity
  8
RACCORDO
100
AcDbLine
 62
7
  6
CONTINUOUS
 10
9.8703185349
 20
-2.0569448201
 11
9.8703185349
 21
-9.4881879663
  0
LINE
  5
2A5
100
AcDbEntity
  8
DRAFT
100
AcDbLine
 62
7
  6
CONTINUOUS
 10
9.8703185349
 20
-2.0569448201
 11
9.8703185349
 21
-2.0451635486
  0
LINE
  5
2A6
100
AcDbEntity
  8
DRAFT
100
AcDbLine
 62
7
  6
CONTINUOUS
 10
9.8703185349
 20
2.1085840521
 11
9.8703185349
 21
7.0317102518
  0
LINE
  5
2A7
100
AcDbEntity
  8
0
100
AcDbLine
 62
253
  6
CONTINUOUS
 10
10.0803555171
 20
-2.0312318882
 11
10.0803555171
 21
2.0946523917
  0
LINE
  5
2A8
100
AcDbEntity
  8
DRAFT
100
AcDbLine
 62
7
  6
CONTINUOUS
 10
8.0952958619
 20
11.022983384
 11
7.9203185349
 21
11.0055296484
  0
LINE
  5
2A9
100
AcDbEntity
  8
RACCORDO
100
AcDbLine
 62
253
  6
CONTINUOUS
 10
-9.7319460599
 20
9.556034644
 11
9.5725831296
 21
9.556034644
  0
LINE
  5
2AA
100
AcDbEntity
  8
RACCORDO
100
AcDbLine
 62
253
  6
CONTINUOUS
 10
-9.7319460595
 20
9.7566359696
 11
9.5725831293
 21
9.7566359696
  0
LINE
  5
2AB
100
AcDbEntity
  8
DRAFT
100
AcDbLine
 62
7
  6
CONTINUOUS
 10
-8.0796814651
 20
9.779345057
 11
7.9203185349
 21
9.779345057
  0
LINE
  5
2AC
100
AcDbEntity
  8
RACCORDO
100
AcDbLine
 62
7
  6
CONTINUOUS
 10
-9.7895652767
 20
9.8142551868
 11
-8.2546587922
 21
9.8142551868
  0
LINE
  5
2AD
100
AcDbEntity
  8
RACCORDO
100
AcDbLine
 62
7
  6
CONTINUOUS
 10
8.0952958619
 20
9.8142551868
 11
9.6302023465
 21
9.8142551868
  0
LINE
  5
2AE
100
AcDbEntity
  8
DRAFT
100
AcDbLine
 62
7
  6
CONTINUOUS
 10
-8.2546587922
 20
11.022983384
 11
-8.0796814651
 21
11.0055296484
  0
LINE
  5
2AF
100
AcDbEntity
  8
0
100
AcDbLine
 62
253
  6
CONTINUOUS
 10
10.7765208438
 20
-2.0367021514
 11
10.7765208438
 21
2.1001226549
  0
LINE
  5
2B0
100
AcDbEntity
  8
RACCORDO
100
AcDbLine
 62
7
  6
CONTINUOUS
 10
10.9801718856
 20
10.8230062293
 11
10.9801718856
 21
7.0317102518
  0
LINE
  5
2B1
100
AcDbEntity
  8
DRAFT
100
AcDbLine
 62
7
  6
CONTINUOUS
 10
11.0203185349
 20
7.0317102518
 11
11.0203185349
 21
-2.0569448201
  0
LINE
  5
2B2
100
AcDbEntity
  8
RACCORDO
100
AcDbLine
 62
7
  6
CONTINUOUS
 10
11.0203185349
 20
-2.0569448201
 11
11.0203185349
 21
-10.6180608962
  0
LINE
  5
2B3
100
AcDbEntity
  8
DRAFT
100
AcDbLine
 62
7
  6
CONTINUOUS
 10
-8.0796814651
 20
11.0055296484
 11
7.9203185349
 21
11.0055296484
  0
LINE
  5
2B4
100
AcDbEntity
  8
RACCORDO
100
AcDbLine
 62
7
  6
CONTINUOUS
 10
10.7801718844
 20
11.022983384
 11
8.0952958619
 21
11.022983384
  0
LINE
  5
2B5
100
AcDbEntity
  8
RACCORDO
100
AcDbLine
 62
7
  6
CONTINUOUS
 10
-8.2546587922
 20
11.022983384
 11
-10.9395348146
 21
11.022983384
  0
ARC
  5
2B6
100
AcDbEntity
  8
RACCORDO
100
AcDbCircle
 62
253
  6
CONTINUOUS
 10
9.5725101375
 20
9.5565934388
 40
0.2000430318
100
AcDbArc
 50
0.0209061378
 51
89.9790938622
  0
ARC
  5
2B7
100
AcDbEntity
  8
RACCORDO
100
AcDbCircle
 62
253
  6
CONTINUOUS
 10
-9.7318730698
 20
9.5565934408
 40
0.2000430319
100
AcDbArc
 50
90.0209055674
 51
179.9790944273
  0
SPLINE
  5
2B8
100
AcDbEntity
  8
0
100
AcDbSpline
 62
7
  6
CONTINUOUS
 70
0
 71
3
 72
12
 73
8
 74
6
 42
0.0000001
 43
0.0000001
 44
0.0000000001
 12
0.4330417776
 22
0.0096723036
 32
0.0
 13
-0.0065834261
 23
0.4331211565
 33
0.0
 40
0.0
 40
0.0
 40
0.0
 40
0.0
 40
0.2462397771
 40
0.4749267589
 40
0.5889085029
 40
0.7096068513
 40
1.0
 40
1.0
 40
1.0
 40
1.0
 10
2.4809406793
 20
-6.7569615797
 30
0.0
 10
2.5164847163
 20
-6.7561676778
 30
0.0
 10
2.5853003004
 20
-6.7482448339
 30
0.0
 10
2.6646822831
 20
-6.7112626084
 30
0.0
 10
2.7118700822
 20
-6.6628236628
 30
0.0
 10
2.7495598446
 20
-6.5961483416
 30
0.0
 10
2.7572098086
 20
-6.5348289678
 30
0.0
 10
2.756572548
 20
-6.492903829
 30
0.0
 11
2.4809406793
 21
-6.7569615797
 31
0.0
 11
2.5865539078
 21
-6.7420644138
 31
0.0
 11
2.6751139194
 21
-6.6976892031
 31
0.0
 11
2.7095221503
 21
-6.6622831888
 31
0.0
 11
2.7354948945
 21
-6.6169106926
 31
0.0
 11
2.756572548
 21
-6.492903829
 31
0.0
  0
SPLINE
  5
2B9
100
AcDbEntity
  8
0
100
AcDbSpline
 62
7
  6
CONTINUOUS
 70
0
 71
3
 72
11
 73
7
 74
5
 42
0.0000001
 43
0.0000001
 44
0.0000000001
 12
-0.004842274
 22
0.3185660313
 32
0.0
 13
-0.3164879412
 23
0.0367327261
 33
0.0
 40
0.0
 40
0.0
 40
0.0
 40
0.0
 40
0.2571296801
 40
0.4996621843
 40
0.7437431137
 40
1.0
 40
1.0
 40
1.0
 40
1.0
 10
2.7565725585
 20
-6.4929038288
 30
0.0
 10
2.7561575277
 20
-6.4655995683
 30
0.0
 10
2.7457944255
 20
-6.4119831532
 30
0.0
 10
2.7011864632
 20
-6.3445203023
 30
0.0
 10
2.6354674308
 20
-6.2979802736
 30
0.0
 10
2.583160685
 20
-6.2834462404
 30
0.0
 10
2.5561266135
 20
-6.280308569
 30
0.0
 11
2.7565725585
 21
-6.4929038288
 31
0.0
 11
2.7402997509
 21
-6.412613076
 31
0.0
 11
2.6978356079
 21
-6.3480524495
 31
0.0
 11
2.6346303556
 21
-6.3027439128
 31
0.0
 11
2.5561266135
 21
-6.280308569
 31
0.0
  0
SPLINE
  5
2BA
100
AcDbEntity
  8
0
100
AcDbSpline
 62
7
  6
CONTINUOUS
 70
0
 71
3
 72
9
 73
5
 74
3
 42
0.0000001
 43
0.0000001
 44
0.0000000001
 12
-0.2771129337
 22
0.0321627199
 32
0.0
 13
-0.2749983205
 23
-0.0469241847
 33
0.0
 40
0.0
 40
0.0
 40
0.0
 40
0.0
 40
0.4842439571
 40
1.0
 40
1.0
 40
1.0
 40
1.0
 10
2.5561266135
 20
-6.2803085691
 30
0.0
 10
2.5113965257
 20
-6.2751170349
 30
0.0
 10
2.4180491504
 20
-6.2704095376
 30
0.0
 10
2.325437315
 20
-6.2822489533
 30
0.0
 10
2.2781599665
 20
-6.2903160972
 30
0.0
 11
2.5561266135
 21
-6.2803085691
 31
0.0
 11
2.4211631993
 21
-6.2744380029
 31
0.0
 11
2.2781599665
 21
-6.2903160972
 31
0.0
  0
SPLINE
  5
2BB
100
AcDbEntity
  8
0
100
AcDbSpline
 62
7
  6
CONTINUOUS
 70
0
 71
3
 72
10
 73
6
 74
4
 42
0.0000001
 43
0.0000001
 44
0.0000000001
 12
0.8731819798
 22
0.1284599377
 32
0.0
 13
0.8300707046
 23
-0.2998855628
 33
0.0
 40
0.0
 40
0.0
 40
0.0
 40
0.0
 40
0.4151262789
 40
0.7045762354
 40
1.0
 40
1.0
 40
1.0
 40
1.0
 10
1.9365251988
 20
-6.0205876661
 30
0.0
 10
2.0573521275
 20
-6.0028119674
 30
0.0
 10
2.263973528
 20
-5.9802999734
 30
0.0
 10
2.5582761131
 20
-5.9802447373
 30
0.0
 10
2.7304456976
 20
-6.0089534736
 30
0.0
 10
2.8121865684
 20
-6.0384845809
 30
0.0
 11
1.9365251988
 21
-6.0205876661
 31
0.0
 11
2.3010848118
 21
-5.9840857754
 31
0.0
 11
2.5565277382
 21
-5.9872842992
 31
0.0
 11
2.8121865684
 21
-6.0384845809
 31
0.0
  0
SPLINE
  5
2BC
100
AcDbEntity
  8
0
100
AcDbSpline
 62
7
  6
CONTINUOUS
 70
0
 71
3
 72
29
 73
25
 74
23
 42
0.0000001
 43
0.0000001
 44
0.0000000001
 12
0.9982821705
 22
-0.3601338191
 32
0.0
 13
-1.0525299136
 23
-0.1358103114
 33
0.0
 40
0.0
 40
0.0
 40
0.0
 40
0.0
 40
0.0797921543
 40
0.1315450168
 40
0.1894872835
 40
0.2530428125
 40
0.3223573394
 40
0.3594791469
 40
0.3984765258
 40
0.4396024585
 40
0.461060296
 40
0.4831657108
 40
0.5106684577
 40
0.5371696367
 40
0.5874242403
 40
0.6344377035
 40
0.6786100793
 40
0.7594318421
 40
0.8311116915
 40
0.8931858305
 40
0.9201298729
 40
0.9439336987
 40
0.9806160801
 40
1.0
 40
1.0
 40
1.0
 40
1.0
 10
2.8121865684
 20
-6.0384845809
 30
0.0
 10
2.8387382634
 20
-6.0480631986
 30
0.0
 10
2.8800003659
 20
-6.0708543708
 30
0.0
 10
2.9332345474
 20
-6.1116726831
 30
0.0
 10
2.9768006849
 20
-6.1550918947
 30
0.0
 10
3.0175320743
 20
-6.2092148058
 30
0.0
 10
3.0458230294
 20
-6.2626160142
 30
0.0
 10
3.0641265565
 20
-6.3107515071
 30
0.0
 10
3.0755123124
 20
-6.3506887953
 30
0.0
 10
3.0823567321
 20
-6.386013543
 30
0.0
 10
3.0861902512
 20
-6.4157337667
 30
0.0
 10
3.0883388868
 20
-6.4407888032
 30
0.0
 10
3.0894435571
 20
-6.4677012189
 30
0.0
 10
3.0892080637
 20
-6.5045931481
 30
0.0
 10
3.0857713751
 20
-6.5483175305
 30
0.0
 10
3.0769449724
 20
-6.5976519261
 30
0.0
 10
3.0604215991
 20
-6.6562940372
 30
0.0
 10
3.0322715255
 20
-6.7203899243
 30
0.0
 10
2.9899985218
 20
-6.7838110223
 30
0.0
 10
2.9515535364
 20
-6.8259994362
 30
0.0
 10
2.9217013922
 20
-6.8524785166
 30
0.0
 10
2.8972925514
 20
-6.8716473259
 30
0.0
 10
2.8735305142
 20
-6.8863764044
 30
0.0
 10
2.8555714362
 20
-6.8961873374
 30
0.0
 10
2.8487707176
 20
-6.8970648494
 30
0.0
 11
2.8121865684
 21
-6.0384845809
 31
0.0
 11
2.8872111619
 21
-6.0777527893
 31
0.0
 11
2.930776036
 21
-6.1111988638
 31
0.0
 11
2.9743391176
 21
-6.1545978266
 31
0.0
 11
3.0148727735
 21
-6.2085083588
 31
0.0
 11
3.0493493706
 21
-6.2734891413
 31
0.0
 11
3.0633701368
 21
-6.3103054644
 31
0.0
 11
3.0747412758
 21
-6.3500988554
 31
0.0
 11
3.0830843335
 21
-6.3929391496
 31
0.0
 11
3.086002065
 21
-6.4155237088
 31
0.0
 11
3.0880208559
 21
-6.438896182
 31
0.0
 11
3.0892231646
 21
-6.4680588553
 31
0.0
 11
3.0890283179
 21
-6.4961827076
 31
0.0
 11
3.0847820493
 21
-6.5493463835
 31
0.0
 11
3.0759518323
 21
-6.598452078
 31
0.0
 11
3.0632074495
 21
-6.6435646593
 31
0.0
 11
3.028655316
 21
-6.7220699553
 31
0.0
 11
2.9864839079
 21
-6.7853812176
 31
0.0
 11
2.9420514847
 21
-6.8340173922
 31
0.0
 11
2.9206618487
 21
-6.8529944827
 31
0.0
 11
2.9007163057
 21
-6.868497425
 31
0.0
 11
2.8678366302
 21
-6.8893402668
 31
0.0
 11
2.8487707176
 21
-6.8970648494
 31
0.0
  0
SPLINE
  5
2BD
100
AcDbEntity
  8
0
100
AcDbSpline
 62
7
  6
CONTINUOUS
 70
0
 71
3
 72
11
 73
7
 74
5
 42
0.0000001
 43
0.0000001
 44
0.0000000001
 12
0.3761208467
 22
-0.1499781876
 32
0.0
 13
0.1064365191
 23
-0.3906808149
 33
0.0
 40
0.0
 40
0.0
 40
0.0
 40
0.0
 40
0.2518807061
 40
0.5057298026
 40
0.7626272391
 40
1.0
 40
1.0
 40
1.0
 40
1.0
 10
2.8487707176
 20
-6.9071095566
 30
0.0
 10
2.8803499125
 20
-6.9197017606
 30
0.0
 10
2.9377874207
 20
-6.9615610748
 30
0.0
 10
2.9925437151
 20
-7.0502333103
 30
0.0
 10
3.0276952285
 20
-7.145191054
 30
0.0
 10
3.0448949017
 20
-7.2096664935
 30
0.0
 10
3.0533166118
 20
-7.2405788214
 30
0.0
 11
2.8487707176
 21
-6.9071095566
 31
0.0
 11
2.9323233137
 21
-6.9656009748
 31
0.0
 11
2.989194258
 21
-7.0512233796
 31
0.0
 11
3.0269851982
 21
-7.1481389098
 31
0.0
 11
3.0533166118
 21
-7.2405788214
 31
0.0
  0
SPLINE
  5
2BE
100
AcDbEntity
  8
0
100
AcDbSpline
 62
7
  6
CONTINUOUS
 70
0
 71
3
 72
9
 73
5
 74
3
 42
0.0000001
 43
0.0000001
 44
0.0000000001
 12
0.1250498145
 22
-0.4590019273
 32
0.0
 13
0.1246901954
 23
-0.4590997633
 33
0.0
 40
0.0
 40
0.0
 40
0.0
 40
0.0
 40
0.8019560104
 40
1.0
 40
1.0
 40
1.0
 40
1.0
 10
3.0533166123
 20
-7.2405788213
 30
0.0
 10
3.0867447624
 20
-7.363278606
 30
0.0
 10
3.1260848551
 20
-7.5169058858
 30
0.0
 10
3.1663677121
 20
-7.6702831187
 30
0.0
 10
3.1745990933
 20
-7.7005904349
 30
0.0
 11
3.0533166123
 21
-7.2405788213
 31
0.0
 11
3.1504491332
 21
-7.6095224333
 31
0.0
 11
3.1745990933
 21
-7.7005904349
 31
0.0
  0
SPLINE
  5
2BF
100
AcDbEntity
  8
0
100
AcDbSpline
 62
7
  6
CONTINUOUS
 70
0
 71
3
 72
12
 73
8
 74
6
 42
0.0000001
 43
0.0000001
 44
0.0000000001
 12
-0.1487496823
 22
0.5173829732
 32
0.0
 13
-0.1893274525
 23
0.5039511133
 33
0.0
 40
0.0
 40
0.0
 40
0.0
 40
0.0
 40
0.1342633083
 40
0.4413587159
 40
0.7777549272
 40
0.9121016175
 40
1.0
 40
1.0
 40
1.0
 40
1.0
 10
2.83329575
 20
-7.7005904349
 30
0.0
 10
2.8266385418
 20
-7.6774352517
 30
0.0
 10
2.804619971
 20
-7.6013564175
 30
0.0
 10
2.7654653826
 20
-7.467399031
 30
0.0
 10
2.7257753866
 20
-7.3335653275
 30
0.0
 10
2.6959450512
 20
-7.2378748633
 30
0.0
 10
2.6836853589
 20
-7.1999018395
 30
0.0
 10
2.6781381666
 20
-7.1851363436
 30
0.0
 11
2.83329575
 21
-7.7005904349
 31
0.0
 11
2.8132236637
 21
-7.6311538472
 31
0.0
 11
2.766840388
 21
-7.4724716933
 31
0.0
 11
2.7148953974
 21
-7.2989853874
 31
0.0
 11
2.6933214699
 21
-7.2299536194
 31
0.0
 11
2.6781381666
 21
-7.1851363436
 31
0.0
  0
SPLINE
  5
2C0
100
AcDbEntity
  8
0
100
AcDbSpline
 62
7
  6
CONTINUOUS
 70
0
 71
3
 72
10
 73
6
 74
4
 42
0.0000001
 43
0.0000001
 44
0.0000000001
 12
-0.0926634025
 22
0.2469128663
 32
0.0
 13
-0.2637280223
 23
0.0
 33
0.0
 40
0.0
 40
0.0
 40
0.0
 40
0.0
 40
0.3697930287
 40
0.6482659948
 40
1.0
 40
1.0
 40
1.0
 40
1.0
 10
2.6781381666
 20
-7.1851363436
 30
0.0
 10
2.6667160732
 20
-7.1547007914
 30
0.0
 10
2.6385293027
 20
-7.1031832727
 30
0.0
 10
2.5676924174
 20
-7.0478594464
 30
0.0
 10
2.5110965584
 20
-7.0353580323
 30
0.0
 10
2.4801758539
 20
-7.0353580323
 30
0.0
 11
2.6781381666
 21
-7.1851363436
 31
0.0
 11
2.6287880056
 21
-7.1010194896
 31
0.0
 11
2.5705479441
 21
-7.0562791943
 31
0.0
 11
2.4801758539
 21
-7.0353580323
 31
0.0
  0
SPLINE
  5
2C1
100
AcDbEntity
  8
RACCORDO
100
AcDbSpline
 62
7
  6
CONTINUOUS
 70
0
 71
3
 72
22
 73
18
 74
16
 42
0.0000001
 43
0.0000001
 44
0.0000000001
 12
0.200005806
 22
0.0
 32
0.0
 13
0.1788933833
 23
0.0894398115
 33
0.0
 40
0.0
 40
0.0
 40
0.0
 40
0.0
 40
0.1029582649
 40
0.2053786657
 40
0.3055083985
 40
0.4019189898
 40
0.4944028293
 40
0.5818933028
 40
0.662944388
 40
0.736522416
 40
0.8025955709
 40
0.860179721
 40
0.908338058
 40
0.946628354
 40
0.9749490678
 40
0.992810719
 40
1.0
 40
1.0
 40
1.0
 40
1.0
 10
9.5767439745
 20
-2.1054553921
 30
0.0
 10
9.5836080581
 20
-2.1054553921
 30
0.0
 10
9.5973003675
 20
-2.1054492486
 30
0.0
 10
9.6176681692
 20
-2.1054215895
 30
0.0
 10
9.6375994137
 20
-2.1053757692
 30
0.0
 10
9.6568681479
 20
-2.1053123764
 30
0.0
 10
9.6752941784
 20
-2.1052320725
 30
0.0
 10
9.6926960913
 20
-2.10513547
 30
0.0
 10
9.708837561
 20
-2.1050242174
 30
0.0
 10
9.7235507089
 20
-2.1048986478
 30
0.0
 10
9.7367001681
 20
-2.1047634385
 30
0.0
 10
9.7481516346
 20
-2.1046097942
 30
0.0
 10
9.7577594359
 20
-2.1044703401
 30
0.0
 10
9.7653918386
 20
-2.1042649069
 30
0.0
 10
9.7710625695
 20
-2.1042064367
 30
0.0
 10
9.7745397605
 20
-2.1038550541
 30
0.0
 10
9.7762961383
 20
-2.103952438
 30
0.0
 10
9.7767248432
 20
-2.103738102
 30
0.0
 11
9.5767439745
 21
-2.1054553921
 31
0.0
 11
9.5973362232
 21
-2.1054461036
 31
0.0
 11
9.6178208789
 21
-2.1054181334
 31
0.0
 11
9.6378473533
 21
-2.1053718289
 31
0.0
 11
9.6571299257
 21
-2.1053080107
 31
0.0
 11
9.6756270525
 21
-2.1052268416
 31
0.0
 11
9.6931253818
 21
-2.1051290263
 31
0.0
 11
9.7093356763
 21
-2.1050161332
 31
0.0
 11
9.7240511673
 21
-2.104889859
 31
0.0
 11
9.7372654445
 21
-2.1047502505
 31
0.0
 11
9.7487816162
 21
-2.1045990456
 31
0.0
 11
9.7584122291
 21
-2.1044387399
 31
0.0
 11
9.7660686783
 21
-2.1042712246
 31
0.0
 11
9.7717303017
 21
-2.1040968775
 31
0.0
 11
9.7752982618
 21
-2.1039181465
 31
0.0
 11
9.7767248432
 21
-2.103738102
 31
0.0
  0
SPLINE
  5
2C2
100
AcDbEntity
  8
RACCORDO
100
AcDbSpline
 62
7
  6
CONTINUOUS
 70
0
 71
3
 72
22
 73
18
 74
16
 42
0.0000001
 43
0.0000001
 44
0.0000000001
 12
0.1788933833
 22
-0.0894398115
 32
0.0
 13
0.200005806
 23
-0.0
 33
0.0
 40
0.0
 40
0.0
 40
0.0
 40
0.0
 40
0.007189281
 40
0.0250509322
 40
0.053371646
 40
0.091661942
 40
0.139820279
 40
0.1974044291
 40
0.263477584
 40
0.337055612
 40
0.4181066972
 40
0.5055971707
 40
0.5980810102
 40
0.6944916015
 40
0.7946213343
 40
0.8970417351
 40
1.0
 40
1.0
 40
1.0
 40
1.0
 10
-9.9360877734
 20
-2.103738102
 30
0.0
 10
-9.9356590685
 20
-2.103952438
 30
0.0
 10
-9.9339026907
 20
-2.1038550541
 30
0.0
 10
-9.9304254997
 20
-2.1042064367
 30
0.0
 10
-9.9247547688
 20
-2.1042649069
 30
0.0
 10
-9.9171223662
 20
-2.1044703401
 30
0.0
 10
-9.9075145648
 20
-2.1046097942
 30
0.0
 10
-9.8960630983
 20
-2.1047634385
 30
0.0
 10
-9.8829136391
 20
-2.1048986478
 30
0.0
 10
-9.8682004912
 20
-2.1050242174
 30
0.0
 10
-9.8520590215
 20
-2.10513547
 30
0.0
 10
-9.8346571086
 20
-2.1052320725
 30
0.0
 10
-9.8162310781
 20
-2.1053123764
 30
0.0
 10
-9.7969623439
 20
-2.1053757692
 30
0.0
 10
-9.7770310994
 20
-2.1054215895
 30
0.0
 10
-9.7566632977
 20
-2.1054492486
 30
0.0
 10
-9.7429709883
 20
-2.1054553921
 30
0.0
 10
-9.7361069047
 20
-2.1054553921
 30
0.0
 11
-9.9360877734
 21
-2.103738102
 31
0.0
 11
-9.9346611921
 21
-2.1039181465
 31
0.0
 11
-9.9310932319
 21
-2.1040968775
 31
0.0
 11
-9.9254316086
 21
-2.1042712246
 31
0.0
 11
-9.9177751594
 21
-2.1044387399
 31
0.0
 11
-9.9081445464
 21
-2.1045990456
 31
0.0
 11
-9.8966283747
 21
-2.1047502505
 31
0.0
 11
-9.8834140975
 21
-2.104889859
 31
0.0
 11
-9.8686986065
 21
-2.1050161332
 31
0.0
 11
-9.852488312
 21
-2.1051290263
 31
0.0
 11
-9.8349899827
 21
-2.1052268416
 31
0.0
 11
-9.8164928559
 21
-2.1053080107
 31
0.0
 11
-9.7972102835
 21
-2.1053718289
 31
0.0
 11
-9.7771838091
 21
-2.1054181334
 31
0.0
 11
-9.7566991534
 21
-2.1054461036
 31
0.0
 11
-9.7361069047
 21
-2.1054553921
 31
0.0
  0
SPLINE
  5
2C3
100
AcDbEntity
  8
RACCORDO
100
AcDbSpline
 62
7
  6
CONTINUOUS
 70
0
 71
3
 72
22
 73
18
 74
16
 42
0.0000001
 43
0.0000001
 44
0.0000000001
 12
-0.199996096
 22
0.0
 32
0.0
 13
-0.1788846808
 23
-0.089435504
 33
0.0
 40
0.0
 40
0.0
 40
0.0
 40
0.0
 40
0.1030244023
 40
0.2055019366
 40
0.3056776769
 40
0.4021216449
 40
0.4946267858
 40
0.5821228241
 40
0.6631644027
 40
0.7367214705
 40
0.8027645996
 40
0.8603121222
 40
0.9084319257
 40
0.9466872733
 40
0.9749788887
 40
0.9928200521
 40
1.0
 40
1.0
 40
1.0
 40
1.0
 10
-9.7333073266
 20
2.1702785833
 30
0.0
 10
-9.740175486
 20
2.1702785833
 30
0.0
 10
-9.7538753485
 20
2.1702724391
 30
0.0
 10
-9.7742534464
 20
2.1702447783
 30
0.0
 10
-9.7941928243
 20
2.1701989602
 30
0.0
 10
-9.8134673353
 20
2.1701355776
 30
0.0
 10
-9.8318964875
 20
2.1700552972
 30
0.0
 10
-9.849298713
 20
2.1699587373
 30
0.0
 10
-9.8654377394
 20
2.1698475528
 30
0.0
 10
-9.8801461408
 20
2.1697220807
 30
0.0
 10
-9.8932891218
 20
2.1695870014
 30
0.0
 10
-9.904733022
 20
2.1694335223
 30
0.0
 10
-9.9143330153
 20
2.1692942584
 30
0.0
 10
-9.9219582233
 20
2.1690890729
 30
0.0
 10
-9.9276230141
 20
2.1690307695
 30
0.0
 10
-9.9310961891
 20
2.1686797965
 30
0.0
 10
-9.9328504036
 20
2.1687771671
 30
0.0
 10
-9.9332785312
 20
2.1685631197
 30
0.0
 11
-9.7333073266
 21
2.1702785833
 31
0.0
 11
-9.7539118028
 21
2.1702692932
 31
0.0
 11
-9.7744068905
 21
2.170241321
 31
0.0
 11
-9.7944415939
 21
2.1701950182
 31
0.0
 11
-9.8137299055
 21
2.1701312101
 31
0.0
 11
-9.8322303945
 21
2.1700500632
 31
0.0
 11
-9.8497289875
 21
2.1699522908
 31
0.0
 11
-9.8659365941
 21
2.1698394675
 31
0.0
 11
-9.8806471794
 21
2.1697132924
 31
0.0
 11
-9.893854811
 21
2.1695738167
 31
0.0
 11
-9.9053630998
 21
2.1694227825
 31
0.0
 11
-9.9149855408
 21
2.1692626834
 31
0.0
 11
-9.922634632
 21
2.1690954017
 31
0.0
 11
-9.9282901659
 21
2.1689213148
 31
0.0
 11
-9.931853864
 21
2.1687428666
 31
0.0
 11
-9.9332785312
 21
2.1685631197
 31
0.0
  0
SPLINE
  5
2C4
100
AcDbEntity
  8
RACCORDO
100
AcDbSpline
 62
7
  6
CONTINUOUS
 70
0
 71
3
 72
22
 73
18
 74
16
 42
0.0000001
 43
0.0000001
 44
0.0000000001
 12
-0.1788846808
 22
0.089435504
 32
0.0
 13
-0.199996096
 23
-0.0
 33
0.0
 40
0.0
 40
0.0
 40
0.0
 40
0.0
 40
0.0071799479
 40
0.0250211113
 40
0.0533127267
 40
0.0915680743
 40
0.1396878778
 40
0.1972354004
 40
0.2632785295
 40
0.3368355973
 40
0.4178771759
 40
0.5053732142
 40
0.5978783551
 40
0.6943223231
 40
0.7944980634
 40
0.8969755977
 40
1.0
 40
1.0
 40
1.0
 40
1.0
 10
9.7739156009
 20
2.1685631197
 30
0.0
 10
9.7734874734
 20
2.1687771671
 30
0.0
 10
9.7717332589
 20
2.1686797965
 30
0.0
 10
9.7682600839
 20
2.1690307695
 30
0.0
 10
9.7625952931
 20
2.1690890729
 30
0.0
 10
9.7549700851
 20
2.1692942584
 30
0.0
 10
9.7453700918
 20
2.1694335223
 30
0.0
 10
9.7339261916
 20
2.1695870014
 30
0.0
 10
9.7207832106
 20
2.1697220807
 30
0.0
 10
9.7060748092
 20
2.1698475528
 30
0.0
 10
9.6899357828
 20
2.1699587373
 30
0.0
 10
9.6725335573
 20
2.1700552972
 30
0.0
 10
9.6541044051
 20
2.1701355776
 30
0.0
 10
9.6348298941
 20
2.1701989602
 30
0.0
 10
9.6148905162
 20
2.1702447783
 30
0.0
 10
9.5945124183
 20
2.1702724391
 30
0.0
 10
9.5808125558
 20
2.1702785833
 30
0.0
 10
9.5739443964
 20
2.1702785833
 30
0.0
 11
9.7739156009
 21
2.1685631197
 31
0.0
 11
9.7724909337
 21
2.1687428666
 31
0.0
 11
9.7689272357
 21
2.1689213148
 31
0.0
 11
9.7632717018
 21
2.1690954017
 31
0.0
 11
9.7556226106
 21
2.1692626834
 31
0.0
 11
9.7460001695
 21
2.1694227825
 31
0.0
 11
9.7344918807
 21
2.1695738167
 31
0.0
 11
9.7212842492
 21
2.1697132924
 31
0.0
 11
9.7065736639
 21
2.1698394675
 31
0.0
 11
9.6903660572
 21
2.1699522908
 31
0.0
 11
9.6728674643
 21
2.1700500632
 31
0.0
 11
9.6543669752
 21
2.1701312101
 31
0.0
 11
9.6350786637
 21
2.1701950182
 31
0.0
 11
9.6150439602
 21
2.170241321
 31
0.0
 11
9.5945488725
 21
2.1702692932
 31
0.0
 11
9.5739443964
 21
2.1702785833
 31
0.0
  0
SPLINE
  5
2C5
100
AcDbEntity
  8
RACCORDO
100
AcDbSpline
 62
253
  6
CONTINUOUS
 70
0
 71
3
 72
13
 73
9
 74
7
 42
0.0000001
 43
0.0000001
 44
0.0000000001
 12
-0.0074136053
 22
-6.9264520011
 32
0.0
 13
-0.0169743506
 23
-6.9264351694
 33
0.0
 40
0.0
 40
0.0
 40
0.0
 40
0.0
 40
0.1671677618
 40
0.3341727519
 40
0.5009870711
 40
0.667582428
 40
0.8339298226
 40
1.0
 40
1.0
 40
1.0
 40
1.0
 10
-9.7361069047
 20
-2.1054553921
 30
0.0
 10
-9.73652001
 20
-2.4914152183
 30
0.0
 10
-9.7374339145
 20
-3.2629589688
 30
0.0
 10
-9.7390687501
 20
-4.4196461195
 30
0.0
 10
-9.7409667016
 20
-5.5750112879
 30
0.0
 10
-9.7431274402
 20
-6.7288577236
 30
0.0
 10
-9.745550627
 20
-7.880985545
 30
0.0
 10
-9.7473422805
 20
-8.6484753536
 30
0.0
 10
-9.748281925
 20
-9.0319001261
 30
0.0
 11
-9.7361069047
 21
-2.1054553921
 31
0.0
 11
-9.7374785471
 21
-3.2633347214
 31
0.0
 11
-9.7391136145
 21
-4.4200862757
 31
0.0
 11
-9.7410118354
 21
-5.5755167538
 31
0.0
 11
-9.7431728915
 21
-6.7294301344
 31
0.0
 11
-9.745596409
 21
-7.8816254895
 31
0.0
 11
-9.748281925
 21
-9.0319001261
 31
0.0
  0
SPLINE
  5
2C6
100
AcDbEntity
  8
RACCORDO
100
AcDbSpline
 62
253
  6
CONTINUOUS
 70
0
 71
3
 72
13
 73
9
 74
7
 42
0.0000001
 43
0.0000001
 44
0.0000000001
 12
-0.0169743506
 22
6.9264351694
 32
0.0
 13
-0.0074136053
 23
6.9264520011
 33
0.0
 40
0.0
 40
0.0
 40
0.0
 40
0.0
 40
0.1660701774
 40
0.332417572
 40
0.4990129289
 40
0.6658272481
 40
0.8328322382
 40
1.0
 40
1.0
 40
1.0
 40
1.0
 10
9.5889189948
 20
-9.0319001261
 30
0.0
 10
9.5879793503
 20
-8.6484753536
 30
0.0
 10
9.5861876968
 20
-7.880985545
 30
0.0
 10
9.5837645099
 20
-6.7288577236
 30
0.0
 10
9.5816037714
 20
-5.5750112879
 30
0.0
 10
9.5797058199
 20
-4.4196461195
 30
0.0
 10
9.5780709843
 20
-3.2629589688
 30
0.0
 10
9.5771570798
 20
-2.4914152183
 30
0.0
 10
9.5767439745
 20
-2.1054553921
 30
0.0
 11
9.5889189948
 21
-9.0319001261
 31
0.0
 11
9.5862334787
 21
-7.8816254895
 31
0.0
 11
9.5838099613
 21
-6.7294301344
 31
0.0
 11
9.5816489052
 21
-5.5755167538
 31
0.0
 11
9.5797506843
 21
-4.4200862757
 31
0.0
 11
9.5781156169
 21
-3.2633347214
 31
0.0
 11
9.5767439745
 21
-2.1054553921
 31
0.0
  0
SPLINE
  5
2C7
100
AcDbEntity
  8
RACCORDO
100
AcDbSpline
 62
253
  6
CONTINUOUS
 70
0
 71
3
 72
10
 73
6
 74
4
 42
0.0000001
 43
0.0000001
 44
0.0000000001
 12
-0.0023186371
 22
7.3881030912
 32
0.0
 13
-0.0004073777
 23
7.3881034438
 33
0.0
 40
0.0
 40
0.0
 40
0.0
 40
0.0
 40
0.3333150354
 40
0.6666493578
 40
1.0
 40
1.0
 40
1.0
 40
1.0
 10
9.7739156009
 20
2.1685631197
 30
0.0
 10
9.7736579887
 20
2.9894184008
 30
0.0
 10
9.7732135511
 20
4.6311764842
 30
0.0
 10
9.7727592454
 20
7.0938775968
 30
0.0
 10
9.772597935
 20
8.7357234214
 30
0.0
 10
9.7725526685
 20
9.5566664307
 30
0.0
 11
9.7739156009
 21
2.1685631197
 31
0.0
 11
9.7732489556
 21
4.6311289941
 31
0.0
 11
9.7727946432
 21
7.0938374109
 31
0.0
 11
9.7725526685
 21
9.5566664307
 31
0.0
  0
SPLINE
  5
2C8
100
AcDbEntity
  8
RACCORDO
100
AcDbSpline
 62
253
  6
CONTINUOUS
 70
0
 71
3
 72
13
 73
9
 74
7
 42
0.0000001
 43
0.0000001
 44
0.0000000001
 12
-0.016948435
 22
6.9002839653
 32
0.0
 13
-0.0074167117
 23
6.9003007937
 33
0.0
 40
0.0
 40
0.0
 40
0.0
 40
0.0
 40
0.1660695994
 40
0.3324174511
 40
0.4990132317
 40
0.6658276033
 40
0.8328324503
 40
1.0
 40
1.0
 40
1.0
 40
1.0
 10
9.7888885693
 20
-9.0040316275
 30
0.0
 10
9.7879503627
 20
-8.6220558296
 30
0.0
 10
9.7861612571
 20
-7.8574640058
 30
0.0
 10
9.7837411806
 20
-6.7096854183
 30
0.0
 10
9.7815827205
 20
-5.5601932536
 30
0.0
 10
9.779686255
 20
-4.4091894687
 30
0.0
 10
9.7780521036
 20
-3.2568701538
 30
0.0
 10
9.7771381211
 20
-2.4882402272
 30
0.0
 10
9.7767248432
 20
-2.103738102
 30
0.0
 11
9.7888885693
 21
-9.0040316275
 31
0.0
 11
9.7862069238
 21
-7.8581039148
 31
0.0
 11
9.7837864916
 21
-6.7102555907
 31
0.0
 11
9.781627719
 21
-5.5606959566
 31
0.0
 11
9.7797309841
 21
-4.4096275137
 31
0.0
 11
9.7780966022
 21
-3.2572443282
 31
0.0
 11
9.7767248432
 21
-2.103738102
 31
0.0
  0
SPLINE
  5
2C9
100
AcDbEntity
  8
RACCORDO
100
AcDbSpline
 62
253
  6
CONTINUOUS
 70
0
 71
3
 72
10
 73
6
 74
4
 42
0.0000001
 43
0.0000001
 44
0.0000000001
 12
-0.0004073777
 22
-7.3881034438
 32
0.0
 13
-0.0023186371
 23
-7.3881030912
 33
0.0
 40
0.0
 40
0.0
 40
0.0
 40
0.0
 40
0.3333506422
 40
0.6666849646
 40
1.0
 40
1.0
 40
1.0
 40
1.0
 10
-9.9319155987
 20
9.5566664307
 30
0.0
 10
-9.9319608652
 20
8.7357234214
 30
0.0
 10
-9.9321221756
 20
7.0938775968
 30
0.0
 10
-9.9325764813
 20
4.6311764842
 30
0.0
 10
-9.933020919
 20
2.9894184008
 30
0.0
 10
-9.9332785312
 20
2.1685631197
 30
0.0
 11
-9.9319155987
 21
9.5566664307
 31
0.0
 11
-9.9321575734
 21
7.0938374109
 31
0.0
 11
-9.9326118859
 21
4.6311289941
 31
0.0
 11
-9.9332785312
 21
2.1685631197
 31
0.0
  0
SPLINE
  5
2CA
100
AcDbEntity
  8
RACCORDO
100
AcDbSpline
 62
253
  6
CONTINUOUS
 70
0
 71
3
 72
21
 73
17
 74
15
 42
0.0000001
 43
0.0000001
 44
0.0000000001
 12
0.0246220351
 22
-0.2035798641
 32
0.0
 13
0.2050601953
 23
-0.0011497694
 33
0.0
 40
0.0
 40
0.0
 40
0.0
 40
0.0
 40
0.0169800872
 40
0.0417087164
 40
0.0763097115
 40
0.1212181087
 40
0.1762627425
 40
0.2409695841
 40
0.314666257
 40
0.3965292744
 40
0.4856119599
 40
0.5808651783
 40
0.6811553194
 40
0.7852813141
 40
0.8919914123
 40
1.0
 40
1.0
 40
1.0
 40
1.0
 10
-9.9482515005
 20
-9.0040316343
 30
0.0
 10
-9.9481121391
 20
-9.0051839022
 30
0.0
 10
-9.9464514707
 20
-9.0077641161
 30
0.0
 10
-9.9420761006
 20
-9.0106403753
 30
0.0
 10
-9.9355346633
 20
-9.0135333345
 30
0.0
 10
-9.9267528383
 20
-9.0162964837
 30
0.0
 10
-9.9158090327
 20
-9.018951971
 30
0.0
 10
-9.9028175545
 20
-9.021436175
 30
0.0
 10
-9.8879331819
 20
-9.0237216292
 30
0.0
 10
-9.871335244
 20
-9.0257741378
 30
0.0
 10
-9.8532263878
 20
-9.0275672804
 30
0.0
 10
-9.8338283357
 20
-9.0290769816
 30
0.0
 10
-9.8133791247
 20
-9.0302852013
 30
0.0
 10
-9.7921298536
 20
-9.0311709433
 30
0.0
 10
-9.7703417753
 20
-9.0317443287
 30
0.0
 10
-9.7556647155
 20
-9.0318587311
 30
0.0
 10
-9.7482819615
 20
-9.0319001261
 30
0.0
 11
-9.9482515005
 21
-9.0040316343
 31
0.0
 11
-9.9466388657
 21
-9.0071176829
 31
0.0
 11
-9.9425863116
 21
-9.0101658315
 31
0.0
 11
-9.9361436872
 21
-9.0131385858
 31
0.0
 11
-9.9273902408
 21
-9.015999379
 31
0.0
 11
-9.9164336456
 21
-9.0187130214
 31
0.0
 11
-9.9034086747
 21
-9.0212461336
 31
0.0
 11
-9.8884755437
 21
-9.0235675564
 31
0.0
 11
-9.8718179399
 21
-9.025648735
 31
0.0
 11
-9.8536407627
 21
-9.0274640694
 31
0.0
 11
-9.8341676032
 21
-9.0289912298
 31
0.0
 11
-9.8136379941
 21
-9.0302114312
 31
0.0
 11
-9.792304463
 21
-9.0311096642
 31
0.0
 11
-9.7704294263
 21
-9.03167488
 31
0.0
 11
-9.7482819615
 21
-9.0319001261
 31
0.0
  0
SPLINE
  5
2CB
100
AcDbEntity
  8
RACCORDO
100
AcDbSpline
 62
253
  6
CONTINUOUS
 70
0
 71
3
 72
22
 73
18
 74
16
 42
0.0000001
 43
0.0000001
 44
0.0000000001
 12
-0.3126114734
 22
0.000660042
 32
0.0
 13
-0.0006697887
 23
0.3126114526
 33
0.0
 40
0.0
 40
0.0
 40
0.0
 40
0.0
 40
0.0668714948
 40
0.1337467486
 40
0.2006147285
 40
0.2674647152
 40
0.3342867654
 40
0.4010721419
 40
0.4678136932
 40
0.5345061659
 40
0.6011464367
 40
0.6677336529
 40
0.7342692752
 40
0.800757019
 40
0.8672026966
 40
0.9336139666
 40
1.0
 40
1.0
 40
1.0
 40
1.0
 10
-9.7482819615
 20
-9.2025408646
 30
0.0
 10
-9.755250227
 20
-9.2025261519
 30
0.0
 10
-9.7691964353
 20
-9.2017722769
 30
0.0
 10
-9.7898768256
 20
-9.1984813035
 30
0.0
 10
-9.8101051765
 20
-9.193065992
 30
0.0
 10
-9.8296576066
 20
-9.1855854657
 30
0.0
 10
-9.8483213423
 20
-9.1761213788
 30
0.0
 10
-9.8658922894
 20
-9.1647770414
 30
0.0
 10
-9.8821785298
 20
-9.1516762969
 30
0.0
 10
-9.897002076
 20
-9.1369621822
 30
0.0
 10
-9.9102009086
 20
-9.1207953682
 30
0.0
 10
-9.9216307274
 20
-9.1033524396
 30
0.0
 10
-9.9311665418
 20
-9.0848238794
 30
0.0
 10
-9.9387040444
 20
-9.0654123421
 30
0.0
 10
-9.944160765
 20
-9.0453291396
 30
0.0
 10
-9.9474769722
 20
-9.0247967855
 30
0.0
 10
-9.948236679
 20
-9.0109493124
 30
0.0
 10
-9.9482515005
 20
-9.0040316343
 30
0.0
 11
-9.7482819615
 21
-9.2025408646
 31
0.0
 11
-9.7691563179
 21
-9.2014122768
 31
0.0
 11
-9.7898025888
 21
-9.1981269923
 31
0.0
 11
-9.8099951811
 21
-9.1927209082
 31
0.0
 11
-9.8295134585
 21
-9.1852530945
 31
0.0
 11
-9.848144153
 21
-9.1758051489
 31
0.0
 11
-9.8656836946
 21
-9.1644803052
 31
0.0
 11
-9.8819404361
 21
-9.1514023053
 31
0.0
 11
-9.8967367467
 21
-9.136714047
 31
0.0
 11
-9.9099109533
 21
-9.1205760229
 31
0.0
 11
-9.9213191069
 21
-9.1031645665
 31
0.0
 11
-9.9308365551
 21
-9.0846699256
 31
0.0
 11
-9.9383593049
 21
-9.0652941834
 31
0.0
 11
-9.9438051581
 21
-9.0452490508
 31
0.0
 11
-9.9471146104
 21
-9.0247535524
 31
0.0
 11
-9.9482515005
 21
-9.0040316343
 31
0.0
  0
SPLINE
  5
2CC
100
AcDbEntity
  8
RACCORDO
100
AcDbSpline
 62
253
  6
CONTINUOUS
 70
0
 71
3
 72
22
 73
18
 74
16
 42
0.0000001
 43
0.0000001
 44
0.0000000001
 12
-0.0006697887
 22
-0.3126114528
 32
0.0
 13
-0.3126114736
 23
-0.000660042
 33
0.0
 40
0.0
 40
0.0
 40
0.0
 40
0.0
 40
0.0663387208
 40
0.1327471601
 40
0.1991945687
 40
0.2656848034
 40
0.3322245465
 40
0.3988155282
 40
0.465459954
 40
0.5321565437
 40
0.5989023093
 40
0.6656919262
 40
0.7325182476
 40
0.7993725233
 40
0.8662447827
 40
0.9331242741
 40
1.0
 40
1.0
 40
1.0
 40
1.0
 10
9.7888885703
 20
-9.0040316343
 30
0.0
 10
9.7888737593
 20
-9.0109443822
 30
0.0
 10
9.7881148624
 20
-9.0247866077
 30
0.0
 10
9.7848010484
 20
-9.0453142326
 30
0.0
 10
9.7793458565
 20
-9.0653980017
 30
0.0
 10
9.7718094849
 20
-9.0848109159
 30
0.0
 10
9.7622744543
 20
-9.1033411034
 30
0.0
 10
9.7508450398
 20
-9.120785805
 30
0.0
 10
9.7376463219
 20
-9.1369543412
 30
0.0
 10
9.7228225806
 20
-9.1516701162
 30
0.0
 10
9.70653588
 20
-9.1647723902
 30
0.0
 10
9.6889642272
 20
-9.1761180928
 30
0.0
 10
9.6702995778
 20
-9.1855833433
 30
0.0
 10
9.6507460646
 20
-9.1930648031
 30
0.0
 10
9.6305165068
 20
-9.198480795
 30
0.0
 10
9.6098348303
 20
-9.2017721822
 30
0.0
 10
9.5958877377
 20
-9.202526151
 30
0.0
 10
9.5889190312
 20
-9.2025408646
 30
0.0
 11
9.7888885703
 21
-9.0040316343
 31
0.0
 11
9.7877532681
 21
-9.0247388268
 31
0.0
 11
9.7844455409
 21
-9.0452337073
 31
0.0
 11
9.7790011101
 21
-9.0652797871
 31
0.0
 11
9.7714795231
 21
-9.084656816
 31
0.0
 11
9.761962765
 21
-9.1031532608
 31
0.0
 11
9.7505550601
 21
-9.1205664184
 31
0.0
 11
9.7373809431
 21
-9.1367061924
 31
0.0
 11
9.7225844511
 21
-9.1513960948
 31
0.0
 11
9.7063272484
 21
-9.1644756232
 31
0.0
 11
9.688787007
 21
-9.1758018269
 31
0.0
 11
9.6701554037
 21
-9.1852509326
 31
0.0
 11
9.650636047
 21
-9.1927196775
 31
0.0
 11
9.6304422515
 21
-9.1981264405
 31
0.0
 11
9.6097947047
 21
-9.2014121367
 31
0.0
 11
9.5889190312
 21
-9.2025408646
 31
0.0
  0
SPLINE
  5
2CD
100
AcDbEntity
  8
RACCORDO
100
AcDbSpline
 62
253
  6
CONTINUOUS
 70
0
 71
3
 72
21
 73
17
 74
15
 42
0.0000001
 43
0.0000001
 44
0.0000000001
 12
0.2050628123
 22
0.0004986867
 32
0.0
 13
0.0252403588
 23
0.2035041276
 33
0.0
 40
0.0
 40
0.0
 40
0.0
 40
0.0
 40
0.1080085877
 40
0.2147186859
 40
0.3188446806
 40
0.4191348217
 40
0.5143880401
 40
0.6034707256
 40
0.685333743
 40
0.7590304159
 40
0.8237372575
 40
0.8787818913
 40
0.9236902885
 40
0.9582912836
 40
0.9830199128
 40
1.0
 40
1.0
 40
1.0
 40
1.0
 10
9.5889190312
 20
-9.0319001261
 30
0.0
 10
9.5963018795
 20
-9.0318821719
 30
0.0
 10
9.6109788018
 20
-9.0317335745
 30
0.0
 10
9.6327669346
 20
-9.0311737369
 30
0.0
 10
9.6540161917
 20
-9.0302844895
 30
0.0
 10
9.674465406
 20
-9.0290771592
 30
0.0
 10
9.6938634579
 20
-9.0275672371
 30
0.0
 10
9.711972312
 20
-9.0257741479
 30
0.0
 10
9.7285702573
 20
-9.0237216275
 30
0.0
 10
9.7434546064
 20
-9.0214361733
 30
0.0
 10
9.7564461568
 20
-9.0189519776
 30
0.0
 10
9.7673897512
 20
-9.0162964645
 30
0.0
 10
9.7761721576
 20
-9.0135333865
 30
0.0
 10
9.7827121175
 20
-9.0106402463
 30
0.0
 10
9.7870909166
 20
-9.0077644071
 30
0.0
 10
9.7887457091
 20
-9.0051834735
 30
0.0
 10
9.7888885703
 20
-9.0040316343
 30
0.0
 11
9.5889190312
 21
-9.0319001261
 31
0.0
 11
9.6110664961
 21
-9.03167488
 31
0.0
 11
9.6329415327
 21
-9.0311096642
 31
0.0
 11
9.6542750638
 21
-9.0302114312
 31
0.0
 11
9.6748046729
 21
-9.0289912298
 31
0.0
 11
9.6942778324
 21
-9.0274640694
 31
0.0
 11
9.7124550097
 21
-9.025648735
 31
0.0
 11
9.7291126135
 21
-9.0235675564
 31
0.0
 11
9.7440457445
 21
-9.0212461336
 31
0.0
 11
9.7570707154
 21
-9.0187130214
 31
0.0
 11
9.7680273106
 21
-9.015999379
 31
0.0
 11
9.7767807569
 21
-9.0131385858
 31
0.0
 11
9.7832233814
 21
-9.0101658315
 31
0.0
 11
9.7872759355
 21
-9.0071176829
 31
0.0
 11
9.7888885703
 21
-9.0040316343
 31
0.0
  0
SPLINE
  5
2CE
100
AcDbEntity
  8
RACCORDO
100
AcDbSpline
 62
253
  6
CONTINUOUS
 70
0
 71
3
 72
13
 73
9
 74
7
 42
0.0000001
 43
0.0000001
 44
0.0000000001
 12
-0.0074167117
 22
-6.9003007937
 32
0.0
 13
-0.016948435
 23
-6.9002839653
 33
0.0
 40
0.0
 40
0.0
 40
0.0
 40
0.0
 40
0.1671675497
 40
0.3341723967
 40
0.5009867683
 40
0.6675825489
 40
0.8339304006
 40
1.0
 40
1.0
 40
1.0
 40
1.0
 10
-9.9360877734
 20
-2.103738102
 30
0.0
 10
-9.9365010513
 20
-2.4882402272
 30
0.0
 10
-9.9374150338
 20
-3.2568701538
 30
0.0
 10
-9.9390491852
 20
-4.4091894687
 30
0.0
 10
-9.9409456507
 20
-5.5601932536
 30
0.0
 10
-9.9431041108
 20
-6.7096854183
 30
0.0
 10
-9.9455241873
 20
-7.8574640058
 30
0.0
 10
-9.9473132929
 20
-8.6220558296
 30
0.0
 10
-9.9482514995
 20
-9.0040316275
 30
0.0
 11
-9.9360877734
 21
-2.103738102
 31
0.0
 11
-9.9374595324
 21
-3.2572443282
 31
0.0
 11
-9.9390939143
 21
-4.4096275137
 31
0.0
 11
-9.9409906492
 21
-5.5606959566
 31
0.0
 11
-9.9431494219
 21
-6.7102555907
 31
0.0
 11
-9.9455698541
 21
-7.8581039148
 31
0.0
 11
-9.9482514995
 21
-9.0040316275
 31
0.0
  0
SPLINE
  5
2CF
100
AcDbEntity
  8
RACCORDO
100
AcDbSpline
 62
7
  6
CONTINUOUS
 70
0
 71
3
 72
24
 73
20
 74
18
 42
0.0000001
 43
0.0000001
 44
0.0000000001
 12
-0.0004825204
 22
-0.3134742124
 32
0.0
 13
-0.3134745838
 23
0.0
 33
0.0
 40
0.0
 40
0.0
 40
0.0
 40
0.0
 40
0.058622599
 40
0.1172738833
 40
0.1759546759
 40
0.2346652799
 40
0.2934054115
 40
0.3521741383
 40
0.4109698538
 40
0.4697902575
 40
0.5286323715
 40
0.5874925819
 40
0.646366701
 40
0.7052500505
 40
0.7641375622
 40
0.8230239035
 40
0.8819035976
 40
0.9407711601
 40
1.0
 40
1.0
 40
1.0
 40
1.0
 10
9.8478729591
 20
-9.4189468646
 30
0.0
 10
9.8478635303
 20
-9.4250724223
 30
0.0
 10
9.8472772371
 20
-9.4373332131
 30
0.0
 10
9.8447028693
 20
-9.4555630654
 30
0.0
 10
9.840453918
 20
-9.473487888
 30
0.0
 10
9.8345654421
 20
-9.4909522841
 30
0.0
 10
9.8270867091
 20
-9.5078072649
 30
0.0
 10
9.8180807906
 20
-9.5239082535
 30
0.0
 10
9.807624027
 20
-9.5391172565
 30
0.0
 10
9.7958053719
 20
-9.553303852
 30
0.0
 10
9.7827256198
 20
-9.5663464148
 30
0.0
 10
9.7684965242
 20
-9.5781331791
 30
0.0
 10
9.7532398099
 20
-9.5885632495
 30
0.0
 10
9.7370861129
 20
-9.5975474502
 30
0.0
 10
9.7201737559
 20
-9.6050092785
 30
0.0
 10
9.7026477633
 20
-9.6108849605
 30
0.0
 10
9.6846576556
 20
-9.6151262947
 30
0.0
 10
9.6663202886
 20
-9.6176980138
 30
0.0
 10
9.6539731025
 20
-9.6182897482
 30
0.0
 10
9.6477841906
 20
-9.6182897482
 30
0.0
 11
9.8478729591
 21
-9.4189468646
 31
0.0
 11
9.8469951376
 21
-9.4373025814
 31
0.0
 11
9.8444246292
 21
-9.4555076898
 31
0.0
 11
9.8401819482
 21
-9.4734066665
 31
0.0
 11
9.8343020745
 21
-9.490846411
 31
0.0
 11
9.8268341768
 21
-9.5076775992
 31
0.0
 11
9.817841208
 21
-9.5237560039
 31
0.0
 11
9.8073993724
 21
-9.5389437768
 31
0.0
 11
9.7955974747
 21
-9.5531106723
 31
0.0
 11
9.7825361503
 21
-9.5661352083
 31
0.0
 11
9.768326985
 21
-9.5779057506
 31
0.0
 11
9.753091534
 21
-9.5883215072
 31
0.0
 11
9.736960246
 21
-9.5972934254
 31
0.0
 11
9.7200713067
 21
-9.6047449799
 31
0.0
 11
9.7025694058
 21
-9.6106128463
 31
0.0
 11
9.6846044511
 21
-9.6148474499
 31
0.0
 11
9.6663302326
 21
-9.6174133868
 31
0.0
 11
9.6477841906
 21
-9.6182897482
 31
0.0
  0
SPLINE
  5
2D0
100
AcDbEntity
  8
RACCORDO
100
AcDbSpline
 62
7
  6
CONTINUOUS
 70
0
 71
3
 72
24
 73
20
 74
18
 42
0.0000001
 43
0.0000001
 44
0.0000000001
 12
0.0004821549
 22
-0.3132367396
 32
0.0
 13
0.3132371107
 23
-0.0
 33
0.0
 40
0.0
 40
0.0
 40
0.0
 40
0.0
 40
0.0587481465
 40
0.1174946193
 40
0.1762442833
 40
0.2350014787
 40
0.2937699578
 40
0.3525528276
 40
0.4113525255
 40
0.4701708025
 40
0.5290087404
 40
0.5878667924
 40
0.6467448443
 40
0.705642295
 40
0.7645581543
 40
0.8234911648
 40
0.8824399185
 40
0.9414029908
 40
1.0
 40
1.0
 40
1.0
 40
1.0
 10
-10.0072358894
 20
-9.4189468646
 30
0.0
 10
-10.0072264474
 20
-9.4250808905
 30
0.0
 10
-10.0066387079
 20
-9.437355475
 30
0.0
 10
-10.0040589861
 20
-9.4556011072
 30
0.0
 10
-9.9998040986
 20
-9.4735328401
 30
0.0
 10
-9.9939109549
 20
-9.4909967975
 30
0.0
 10
-9.9864301348
 20
-9.5078457435
 30
0.0
 10
-9.977425471
 20
-9.5239369565
 30
0.0
 10
-9.9669735212
 20
-9.5391342869
 30
0.0
 10
-9.9551629402
 20
-9.5533090326
 30
0.0
 10
-9.9420937542
 20
-9.5663410604
 30
0.0
 10
-9.9278765449
 20
-9.5781197713
 30
0.0
 10
-9.9126315409
 20
-9.5885450465
 30
0.0
 10
-9.8964876519
 20
-9.597527972
 30
0.0
 10
-9.879581353
 20
-9.6049919692
 30
0.0
 10
-9.8620557936
 20
-9.6108719824
 30
0.0
 10
-9.8440587812
 20
-9.615120456
 30
0.0
 10
-9.8257839647
 20
-9.6176819679
 30
0.0
 10
-9.8135031152
 20
-9.6182897482
 30
0.0
 10
-9.8073848626
 20
-9.6182897482
 30
0.0
 11
-10.0072358894
 21
-9.4189468646
 31
0.0
 11
-10.0063556784
 21
-9.437327901
 31
0.0
 11
-10.0037798902
 21
-9.4555483097
 31
0.0
 11
-9.9995313846
 21
-9.4734537549
 31
0.0
 11
-9.9936469853
 21
-9.4908926609
 31
0.0
 11
-9.9861771687
 21
-9.5077174509
 31
0.0
 11
-9.9771856455
 21
-9.523785749
 31
0.0
 11
-9.9667488357
 21
-9.538961547
 31
0.0
 11
-9.954955245
 21
-9.5531163153
 31
0.0
 11
-9.9419047415
 21
-9.566130061
 31
0.0
 11
-9.927707741
 21
-9.5778923174
 31
0.0
 11
-9.9124843053
 21
-9.588303059
 31
0.0
 11
-9.8963631607
 21
-9.5972735328
 31
0.0
 11
-9.8794806453
 21
-9.6047269998
 31
0.0
 11
-9.8619795892
 21
-9.6105993807
 31
0.0
 11
-9.8440081456
 21
-9.6148397962
 31
0.0
 11
-9.8257185731
 21
-9.6174110021
 31
0.0
 11
-9.8073848626
 21
-9.6182897482
 31
0.0
  0
SPLINE
  5
2D1
100
AcDbEntity
  8
RACCORDO
100
AcDbSpline
 62
253
  6
CONTINUOUS
 70
0
 71
3
 72
21
 73
17
 74
15
 42
0.0000001
 43
0.0000001
 44
0.0000000001
 12
-0.1989707445
 22
-0.0199941845
 32
0.0
 13
-0.1999718702
 23
0.0006129561
 33
0.0
 40
0.0
 40
0.0
 40
0.0
 40
0.0
 40
0.0080891516
 40
0.0283720379
 40
0.060602711
 40
0.104385444
 40
0.1591820372
 40
0.2243187222
 40
0.2989945199
 40
0.3822911155
 40
0.4731841635
 40
0.5705558896
 40
0.6732088403
 40
0.7798806108
 40
0.8892593713
 40
1.0
 40
1.0
 40
1.0
 40
1.0
 10
9.7725526683
 20
9.5566664305
 30
0.0
 10
9.7720161668
 20
9.5566125185
 30
0.0
 10
9.7701222814
 20
9.5565857735
 30
0.0
 10
9.7660858825
 20
9.5565050649
 30
0.0
 10
9.7596657977
 20
9.5564531166
 30
0.0
 10
9.7509471699
 20
9.5563861072
 30
0.0
 10
9.740034175
 20
9.5563280131
 30
0.0
 10
9.7270622033
 20
9.5562711594
 30
0.0
 10
9.7121903482
 20
9.5562196284
 30
0.0
 10
9.6956016471
 20
9.5561730676
 30
0.0
 10
9.6775000592
 20
9.5561325402
 30
0.0
 10
9.6581082108
 20
9.5560981434
 30
0.0
 10
9.6376645795
 20
9.5560717101
 30
0.0
 10
9.6164205732
 20
9.5560481899
 30
0.0
 10
9.5946374809
 20
9.5560488716
 30
0.0
 10
9.5799647995
 20
9.5560120176
 30
0.0
 10
9.5725831293
 20
9.556034644
 30
0.0
 11
9.7725526683
 21
9.5566664305
 31
0.0
 11
9.7709365758
 21
9.5565963706
 31
0.0
 11
9.7668811402
 21
9.5565271835
 31
0.0
 11
9.760436235
 21
9.5564597202
 31
0.0
 11
9.7516811195
 21
9.5563948103
 31
0.0
 11
9.7407234637
 21
9.5563332521
 31
0.0
 11
9.7276980245
 21
9.5562758026
 31
0.0
 11
9.7127649882
 21
9.5562231684
 31
0.0
 11
9.6961080007
 21
9.5561759966
 31
0.0
 11
9.677931909
 21
9.5561348676
 31
0.0
 11
9.6584602421
 21
9.556100287
 31
0.0
 11
9.6379324617
 21
9.5560726801
 31
0.0
 11
9.6166010177
 21
9.5560523864
 31
0.0
 11
9.5947282434
 21
9.5560396555
 31
0.0
 11
9.5725831293
 21
9.556034644
 31
0.0
  0
SPLINE
  5
2D2
100
AcDbEntity
  8
RACCORDO
100
AcDbSpline
 62
253
  6
CONTINUOUS
 70
0
 71
3
 72
21
 73
17
 74
15
 42
0.0000001
 43
0.0000001
 44
0.0000000001
 12
-0.1999728094
 22
0.00001015
 32
0.0
 13
-0.1967657628
 23
0.0356701441
 33
0.0
 40
0.0
 40
0.0
 40
0.0
 40
0.0
 40
0.1107406287
 40
0.2201193892
 40
0.3267911597
 40
0.4294441104
 40
0.5268158365
 40
0.6177088845
 40
0.7010054801
 40
0.7756812778
 40
0.8408179628
 40
0.895614556
 40
0.939397289
 40
0.9716279621
 40
0.9919108484
 40
1.0
 40
1.0
 40
1.0
 40
1.0
 10
-9.7319460595
 20
9.556034644
 30
0.0
 10
-9.7393277644
 20
9.5560350187
 30
0.0
 10
-9.7540003952
 20
9.556038322
 30
0.0
 10
-9.7757835076
 20
9.556050928
 30
0.0
 10
-9.7970275085
 20
9.5560710145
 30
0.0
 10
-9.817471142
 20
9.556098312
 30
0.0
 10
-9.8368629869
 20
9.5561325152
 30
0.0
 10
-9.8549645854
 20
9.5561730199
 30
0.0
 10
-9.871553252
 20
9.5562198137
 30
0.0
 10
-9.8864252163
 20
9.5562705714
 30
0.0
 10
-9.8993968566
 20
9.5563297807
 30
0.0
 10
-9.9103108049
 20
9.5563810968
 30
0.0
 10
-9.9190268924
 20
9.5564661662
 30
0.0
 10
-9.9254529729
 20
9.5564754891
 30
0.0
 10
-9.9294781213
 20
9.556636181
 30
0.0
 10
-9.9313850425
 20
9.5565702501
 30
0.0
 10
-9.9319155985
 20
9.5566664305
 30
0.0
 11
-9.7319460595
 21
9.556034644
 31
0.0
 11
-9.7540911736
 21
9.5560396555
 31
0.0
 11
-9.7759639479
 21
9.5560523864
 31
0.0
 11
-9.7972953919
 21
9.5560726801
 31
0.0
 11
-9.8178231723
 21
9.556100287
 31
0.0
 11
-9.8372948393
 21
9.5561348676
 31
0.0
 11
-9.8554709309
 21
9.5561759966
 31
0.0
 11
-9.8721279184
 21
9.5562231684
 31
0.0
 11
-9.8870609547
 21
9.5562758026
 31
0.0
 11
-9.9000863939
 21
9.5563332521
 31
0.0
 11
-9.9110440497
 21
9.5563948103
 31
0.0
 11
-9.9197991652
 21
9.5564597202
 31
0.0
 11
-9.9262440704
 21
9.5565271835
 31
0.0
 11
-9.930299506
 21
9.5565963706
 31
0.0
 11
-9.9319155985
 21
9.5566664305
 31
0.0
  0
SPLINE
  5
2D3
100
AcDbEntity
  8
RACCORDO
100
AcDbSpline
 62
253
  6
CONTINUOUS
 70
0
 71
3
 72
10
 73
6
 74
4
 42
0.0000001
 43
0.0000001
 44
0.0000000001
 12
-0.0023155984
 22
7.3857558415
 32
0.0
 13
-0.0004070849
 23
7.3857561932
 33
0.0
 40
0.0
 40
0.0
 40
0.0
 40
0.0
 40
0.3333153793
 40
0.6666494225
 40
1.0
 40
1.0
 40
1.0
 40
1.0
 10
9.5739443964
 20
2.1702785833
 30
0.0
 10
9.5736871215
 20
2.9908739197
 30
0.0
 10
9.5732432574
 20
4.632110565
 30
0.0
 10
9.5727895069
 20
7.0940292607
 30
0.0
 10
9.5726283636
 20
8.7353526133
 30
0.0
 10
9.5725831296
 20
9.556034644
 30
0.0
 11
9.5739443964
 21
2.1702785833
 31
0.0
 11
9.5732786108
 21
4.6320646236
 31
0.0
 11
9.5728248539
 21
7.0939885599
 31
0.0
 11
9.5725831296
 21
9.556034644
 31
0.0
  0
SPLINE
  5
2D4
100
AcDbEntity
  8
RACCORDO
100
AcDbSpline
 62
253
  6
CONTINUOUS
 70
0
 71
3
 72
10
 73
6
 74
4
 42
0.0000001
 43
0.0000001
 44
0.0000000001
 12
-0.0004070849
 22
-7.3857561932
 32
0.0
 13
-0.0023155984
 23
-7.3857558415
 33
0.0
 40
0.0
 40
0.0
 40
0.0
 40
0.0
 40
0.3333505775
 40
0.6666846207
 40
1.0
 40
1.0
 40
1.0
 40
1.0
 10
-9.7319460599
 20
9.556034644
 30
0.0
 10
-9.7319912939
 20
8.7353526133
 30
0.0
 10
-9.7321524371
 20
7.0940292607
 30
0.0
 10
-9.7326061876
 20
4.632110565
 30
0.0
 10
-9.7330500518
 20
2.9908739197
 30
0.0
 10
-9.7333073266
 20
2.1702785833
 30
0.0
 11
-9.7319460599
 21
9.556034644
 31
0.0
 11
-9.7321877842
 21
7.0939885599
 31
0.0
 11
-9.732641541
 21
4.6320646236
 31
0.0
 11
-9.7333073266
 21
2.1702785833
 31
0.0
  0
ELLIPSE
  5
2D5
100
AcDbEntity
  8
RACCORDO
100
AcDbEllipse
 62
7
  6
CONTINUOUS
 10
10.5202423709
 20
-10.6176035752
 30
0.0
 11
-0.1582391023
 21
0.4751033573
 31
0.0
 40
0.9984778551
 41
2.8205423031
 42
4.3904252414
  0
ELLIPSE
  5
2D6
100
AcDbEntity
  8
RACCORDO
100
AcDbEllipse
 62
7
  6
CONTINUOUS
 10
-10.6796053011
 20
-10.6176035752
 30
0.0
 11
-0.1582391023
 21
-0.4751033573
 31
0.0
 40
0.9984778551
 41
-1.2488325878
 42
0.3210503505
  0
ELLIPSE
  5
2D7
100
AcDbEntity
  8
RACCORDO
100
AcDbEllipse
 62
7
  6
CONTINUOUS
 10
-4.0451515189
 20
-10.9977518559
 30
0.0
 11
0.2
 21
0.0
 31
0.0
 40
0.0524077793
 41
0.5235987756
 42
1.5707963268
  0
ELLIPSE
  5
2D8
100
AcDbEntity
  8
RACCORDO
100
AcDbEllipse
 62
7
  6
CONTINUOUS
 10
-7.3142114113
 20
-10.9977518559
 30
0.0
 11
0.2
 21
0.0
 31
0.0
 40
0.0524077793
 41
1.5707963268
 42
2.617993878
  0
ELLIPSE
  5
2D9
100
AcDbEntity
  8
RACCORDO
100
AcDbEllipse
 62
7
  6
CONTINUOUS
 10
3.8857885887
 20
-10.9977518559
 30
0.0
 11
0.2
 21
0.0
 31
0.0
 40
0.0524077793
 41
1.5707963268
 42
2.617993878
  0
ELLIPSE
  5
2DA
100
AcDbEntity
  8
RACCORDO
100
AcDbEllipse
 62
7
  6
CONTINUOUS
 10
7.1548484811
 20
-10.9977518559
 30
0.0
 11
0.2
 21
-0.0
 31
0.0
 40
0.0524077793
 41
0.5235987756
 42
1.5707963268
  0
ELLIPSE
  5
2DB
100
AcDbEntity
  8
RACCORDO
100
AcDbEllipse
 62
7
  6
CONTINUOUS
 10
-10.9395043502
 20
10.8229757683
 30
0.0
 11
-0.1789222233
 21
0.0894542984
 31
0.0
 40
0.9998096356
 41
-1.1071030277
 42
0.4635410001
  0
ELLIPSE
  5
2DC
100
AcDbEntity
  8
RACCORDO
100
AcDbEllipse
 62
7
  6
CONTINUOUS
 10
10.7801414199
 20
10.8229757683
 30
0.0
 11
-0.1789222233
 21
-0.0894542984
 31
0.0
 40
0.9998096356
 41
2.6780516535
 42
4.2486956813
  0
ELLIPSE
  5
2DD
100
AcDbEntity
  8
RACCORDO
100
AcDbEllipse
 62
7
  6
CONTINUOUS
 10
-4.0451515189
 20
-9.4955051873
 30
0.0
 11
0.2
 21
-0.0
 31
0.0
 40
0.1227845609
 41
0.5235987756
 42
1.5707963268
  0
ELLIPSE
  5
2DE
100
AcDbEntity
  8
RACCORDO
100
AcDbEllipse
 62
7
  6
CONTINUOUS
 10
-7.3142114113
 20
-9.4955051873
 30
0.0
 11
0.2
 21
-0.0
 31
0.0
 40
0.1227845609
 41
1.5707963268
 42
2.617993878
  0
ELLIPSE
  5
2DF
100
AcDbEntity
  8
RACCORDO
100
AcDbEllipse
 62
7
  6
CONTINUOUS
 10
3.8857885887
 20
-9.4955051873
 30
0.0
 11
0.2
 21
0.0
 31
0.0
 40
0.1227845609
 41
1.5707963268
 42
2.617993878
  0
ELLIPSE
  5
2E0
100
AcDbEntity
  8
RACCORDO
100
AcDbEllipse
 62
7
  6
CONTINUOUS
 10
7.1548484811
 20
-9.4955051873
 30
0.0
 11
0.2
 21
-0.0
 31
0.0
 40
0.1227845609
 41
0.5235987756
 42
1.5707963268
  0
ELLIPSE
  5
2E1
100
AcDbEntity
  8
RACCORDO
100
AcDbEllipse
 62
7
  6
CONTINUOUS
 10
9.6702880693
 20
-9.4880000173
 30
0.0
 11
-0.0617723213
 21
0.1905579802
 31
0.0
 40
0.9984017958
 41
-3.4546006943
 42
-1.8847427532
  0
ELLIPSE
  5
2E2
100
AcDbEntity
  8
RACCORDO
100
AcDbEllipse
 62
7
  6
CONTINUOUS
 10
-9.8296509995
 20
-9.4880000173
 30
0.0
 11
0.0617723213
 21
0.1905579802
 31
0.0
 40
0.9984017958
 41
-4.398442554
 42
-2.8285846129
  0
ELLIPSE
  5
2E3
100
AcDbEntity
  8
RACCORDO
100
AcDbEllipse
 62
7
  6
CONTINUOUS
 10
-9.7895043502
 20
9.6142247212
 30
0.0
 11
0.1414644378
 21
-0.1414644378
 31
0.0
 40
0.9996954599
 41
2.3563467834
 42
3.9268385237
  0
ELLIPSE
  5
2E4
100
AcDbEntity
  8
RACCORDO
100
AcDbEllipse
 62
7
  6
CONTINUOUS
 10
9.6301414199
 20
9.6142247212
 30
0.0
 11
0.1414644378
 21
0.1414644378
 31
0.0
 40
0.9996954599
 41
-0.7852458702
 42
0.7852458701
  0
ELLIPSE
  5
2E5
100
AcDbEntity
  8
0
100
AcDbEllipse
 62
7
  6
CONTINUOUS
 10
-10.2397184473
 20
2.1007611992
 30
0.0
 11
0.7
 21
-0.0
 31
0.0
 40
0.0087268678
 41
-3.0368728985
 42
-1.5707963268
  0
ELLIPSE
  5
2E6
100
AcDbEntity
  8
0
100
AcDbEllipse
 62
7
  6
CONTINUOUS
 10
10.0803555171
 20
2.1007611992
 30
0.0
 11
0.7
 21
-0.0
 31
0.0
 40
0.0087268678
 41
-1.5707963268
 42
-0.1047197551
  0
ELLIPSE
  5
2E7
100
AcDbEntity
  8
0
100
AcDbEllipse
 62
7
  6
CONTINUOUS
 10
-10.2397184473
 20
-2.0373406956
 30
0.0
 11
0.7
 21
0.0
 31
0.0
 40
0.0087268678
 41
1.5707963268
 42
3.0368728985
  0
ELLIPSE
  5
2E8
100
AcDbEntity
  8
0
100
AcDbEllipse
 62
7
  6
CONTINUOUS
 10
10.0803555171
 20
-2.0373406956
 30
0.0
 11
0.7
 21
0.0
 31
0.0
 40
0.0087268678
 41
0.1047197551
 42
1.5707963268
  0
ENDSEC
  0
SECTION
  2
OBJECTS
  0
DICTIONARY
  5
C
100
AcDbDictionary
280
0
281
1
  3
ACAD_GROUP
350
D
  3
ACAD_MLINESTYLE
350
17
  3
ACAD_LAYOUT
350
1A
  3
ACAD_PLOTSETTINGS
350
19
  3
ACAD_PLOTSTYLENAME
350
E
  0
DICTIONARY
  5
D
102
{ACAD_REACTORS
330
C
102
}
100
AcDbDictionary
280
0
281
1
  0
ACDBDICTIONARYWDFLT
  5
E
102
{ACAD_REACTORS
330
C
102
}
100
AcDbDictionary
281
1
  3
Normal
350
F
100
AcDbDictionaryWithDefault
340
F
  0
DICTIONARY
  5
17
102
{ACAD_REACTORS
330
C
102
}
100
AcDbDictionary
280
0
281
1
  3
Standard
350
18
  0
DICTIONARY
  5
19
102
{ACAD_REACTORS
330
C
102
}
100
AcDbDictionary
281
1
  0
DICTIONARY
  5
1A
102
{ACAD_REACTORS
330
C
102
}
100
AcDbDictionary
281
1
  3
Model
350
2E9
  3
Layout1
350
2EA
  0
ACDBPLACEHOLDER
  5
F
102
{ACAD_REACTORS
330
E
102
}
  0
MLINESTYLE
  5
18
102
{ACAD_REACTORS
330
17
102
}
100
AcDbMlineStyle
  2
STANDARD
 70
0
  3

 62
256
 51
90.0
 52
90.0
 71
2
 49
0.5
 62
256
  6
BYLAYER
 49
-0.5
 62
256
  6
BYLAYER
  0
LAYOUT
  5
2E9
102
{ACAD_REACTORS
330
1A
102
}
100
AcDbPlotSettings
  1

  2
none_device
  4
ISO_A4_(297.00_x_210.00_MM)
  6

 40
0.0
 41
0.0
 42
0.0
 43
0.0
 44
297.0
 45
210.0
 46
0.0
 47
0.0
 48
0.0
 49
0.0
140
0.0
141
0.0
142
1.0
143
1.0
 70
1024
 72
1
 73
0
 74
0
  7

 75
0
147
1.0
148
0.0
149
0.0
100
AcDbLayout
  1
Model
 70
0
 71
0
 10
0.0
 20
0.0
 11
297.0
 21
210.0
 12
0.0
 22
0.0
 32
0.0
 14
0.0
 24
0.0
 34
0.0
 15
0.0
 25
0.0
 35
0.0
146
0.0
 13
0.0
 23
0.0
 33
0.0
 16
1.0
 26
0.0
 36
0.0
 17
0.0
 27
1.0
 37
0.0
 76
0
330
210
345
0
346
0
  0
LAYOUT
  5
2EA
102
{ACAD_REACTORS
330
1A
102
}
100
AcDbPlotSettings
  1

  2
none_device
  4
ISO_A4_(297.00_x_210.00_MM)
  6

 40
0.0
 41
0.0
 42
0.0
 43
0.0
 44
297.0
 45
210.0
 46
0.0
 47
0.0
 48
0.0
 49
0.0
140
0.0
141
0.0
142
1.0
143
1.0
 70
0
 72
1
 73
0
 74
0
  7

 75
0
147
1.0
148
0.0
149
0.0
100
AcDbLayout
  1
Layout1
 70
0
 71
1
 10
0.0
 20
0.0
 11
297.0
 21
210.0
 12
0.0
 22
0.0
 32
0.0
 14
0.0
 24
0.0
 34
0.0
 15
0.0
 25
0.0
 35
0.0
146
0.0
 13
0.0
 23
0.0
 33
0.0
 16
1.0
 26
0.0
 36
0.0
 17
0.0
 27
1.0
 37
0.0
 76
0
330
211
345
0
346
0
  0
ENDSEC
  0
EOF
