  0
SECTION
  2
HEADER
  9
$ACADVER
  1
AC1015
  9
$DWGCODEPAGE
  3
ANSI_1252
  9
$EXTMAX
 10
297.0
 20
210.0
 30
0.0
  9
$EXTMIN
 10
0.0
 20
0.0
 30
0.0
  9
$LIMMIN
 10
0.0
 20
0.0
  9
$LIMMAX
 10
297.0
 20
210.0
  9
$VIEWCTR
 10
148.5
 20
105.0
  9
$VIEWSIZE
 40
210.0
  9
$CLAYER
  8
0
  9
$LTSCALE
 40
16.335
  9
$CELTYPE
  6
BYLAYER
  9
$DIMSCALE
 40
1.0
  9
$DIMASZ
 40
3.0
  9
$DIMEXO
 40
1.85625
  9
$DIMDLI
 40
11.286
  9
$DIMEXE
 40
5.346
  9
$DIMCEN
 40
2.673
  9
$DIMLFAC
 40
1.0
  9
$DIMBLK
  1
_FILLED
  9
$DIMTXT
 40
3.0
  9
$DIMTOL
 70
1
  9
$DIMLIM
 70
0
  9
$DIMTFAC
 40
1.0
  9
$DIMTP
 40
0.01
  9
$DIMTM
 40
0.01
  9
$PDMODE
 70
3
  9
$PDSIZE
 40
3.0
  9
$HANDSEED
  5
66A
  9
$TILEMODE
 70
1
  9
$MEASUREMENT
 70
1
  9
$INSUNITS
 70
4
  0
ENDSEC
  0
SECTION
  2
CLASSES
  0
CLASS
  1
ACDBDICTIONARYWDFLT
  2
AcDbDictionaryWithDefault
  3
AutoCAD 2000
 90
0
280
0
281
0
  0
CLASS
  1
ACDBPLACEHOLDER
  2
AcDbPlaceHolder
  3
AutoCAD 2000
 90
0
280
0
281
0
  0
CLASS
  1
LAYOUT
  2
AcDbLayout
  3
AutoCAD 2000
 90
0
280
0
281
0
  0
ENDSEC
  0
SECTION
  2
TABLES
  0
TABLE
  2
VPORT
  5
8
100
AcDbSymbolTable
 70
2
  0
VPORT
  5
1F4
100
AcDbSymbolTableRecord
100
AcDbViewportTableRecord
  2
*ACTIVE
 70
0
 10
0.0
 20
0.0
 11
1.0
 21
1.0
 12
148.5
 22
105.0
 13
0.0
 23
0.0
 14
1.0
 24
1.0
 15
0.0
 25
0.0
 16
0.0
 26
0.0
 36
1.0
 17
0.0
 27
0.0
 37
0.0
 40
210.0
 41
1.4142857143
 42
50.0
 43
0.0
 44
0.0
 50
0.0
 51
0.0
 71
0
 72
100
 73
1
 74
1
 75
0
 76
0
 77
0
 78
0
  0
ENDTAB
  0
TABLE
  2
LTYPE
  5
5
100
AcDbSymbolTable
 70
6
  0
LTYPE
  5
14
100
AcDbSymbolTableRecord
100
AcDbLinetypeTableRecord
  2
BYBLOCK
 70
0
  3

 72
65
 73
0
 40
0.0
  0
LTYPE
  5
15
100
AcDbSymbolTableRecord
100
AcDbLinetypeTableRecord
  2
BYLAYER
 70
0
  3

 72
65
 73
0
 40
0.0
  0
LTYPE
  5
16
100
AcDbSymbolTableRecord
100
AcDbLinetypeTableRecord
  2
CONTINUOUS
 70
64
  3
Solid line
 72
65
 73
0
 40
0.0
  0
LTYPE
  5
1F5
100
AcDbSymbolTableRecord
100
AcDbLinetypeTableRecord
  2
CENTER
 70
64
  3
____ _ ____ _ ____ _ ____ _ ____ _ ____ _ ____
 72
65
 73
4
 40
0.6
 49
0.375
 74
0
 49
-0.075
 74
0
 49
0.075
 74
0
 49
-0.075
 74
0
  0
LTYPE
  5
1F6
100
AcDbSymbolTableRecord
100
AcDbLinetypeTableRecord
  2
HIDDEN
 70
64
  3
- - - - - - - - - - - - - - - - - - - -
 72
65
 73
2
 40
0.2
 49
0.1
 74
0
 49
-0.1
 74
0
  0
LTYPE
  5
1F7
100
AcDbSymbolTableRecord
100
AcDbLinetypeTableRecord
  2
PHANTOM
 70
64
  3
_____ _ _ _____ _ _ _____ _ _ _____
 72
65
 73
6
 40
0.8
 49
0.45
 74
0
 49
-0.05
 74
0
 49
0.1
 74
0
 49
-0.05
 74
0
 49
0.1
 74
0
 49
-0.05
 74
0
  0
LTYPE
  5
1F8
100
AcDbSymbolTableRecord
100
AcDbLinetypeTableRecord
  2
DOT
 70
64
  3
. . . . . . . . . . . . . . . . . . . .
 72
65
 73
2
 40
0.2
 49
0.1
 74
0
 49
-0.1
 74
0
  0
LTYPE
  5
1F9
100
AcDbSymbolTableRecord
100
AcDbLinetypeTableRecord
  2
DASHED
 70
64
  3
- - - - - - - - - - - - - - - - - - - -
 72
65
 73
2
 40
0.2
 49
0.1
 74
0
 49
-0.1
 74
0
  0
ENDTAB
  0
TABLE
  2
LAYER
  5
2
100
AcDbSymbolTable
 70
36
  0
LAYER
  5
10
100
AcDbSymbolTableRecord
100
AcDbLayerTableRecord
  2
0
 70
0
 62
7
  6
CONTINUOUS
370
-3
390
F
  0
LAYER
  5
1FA
100
AcDbSymbolTableRecord
100
AcDbLayerTableRecord
  2
DEFAULT_1
 70
0
 62
7
  6
CENTER
370
-3
390
F
  0
LAYER
  5
1FB
100
AcDbSymbolTableRecord
100
AcDbLayerTableRecord
  2
DEFAULT_2
 70
0
 62
7
  6
HIDDEN
370
-3
390
F
  0
LAYER
  5
1FC
100
AcDbSymbolTableRecord
100
AcDbLayerTableRecord
  2
DEFAULT_3
 70
0
 62
7
  6
PHANTOM
370
-3
390
F
  0
LAYER
  5
1FD
100
AcDbSymbolTableRecord
100
AcDbLayerTableRecord
  2
ASSI
 70
0
 62
7
  6
CONTINUOUS
370
-3
390
F
  0
LAYER
  5
1FE
100
AcDbSymbolTableRecord
100
AcDbLayerTableRecord
  2
COORDINATE
 70
0
 62
7
  6
CONTINUOUS
370
-3
390
F
  0
LAYER
  5
1FF
100
AcDbSymbolTableRecord
100
AcDbLayerTableRecord
  2
COORD_ORIGINE
 70
0
 62
7
  6
CONTINUOUS
370
-3
390
F
  0
LAYER
  5
200
100
AcDbSymbolTableRecord
100
AcDbLayerTableRecord
  2
COPY_PUBLISH
 70
0
 62
7
  6
CONTINUOUS
370
-3
390
F
  0
LAYER
  5
201
100
AcDbSymbolTableRecord
100
AcDbLayerTableRecord
  2
COSMETIC
 70
0
 62
7
  6
CONTINUOUS
370
-3
390
F
  0
LAYER
  5
202
100
AcDbSymbolTableRecord
100
AcDbLayerTableRecord
  2
CURVE
 70
0
 62
7
  6
CONTINUOUS
370
-3
390
F
  0
LAYER
  5
203
100
AcDbSymbolTableRecord
100
AcDbLayerTableRecord
  2
DRAFT
 70
0
 62
7
  6
CONTINUOUS
370
-3
390
F
  0
LAYER
  5
204
100
AcDbSymbolTableRecord
100
AcDbLayerTableRecord
  2
IGES
 70
0
 62
7
  6
CONTINUOUS
370
-3
390
F
  0
LAYER
  5
205
100
AcDbSymbolTableRecord
100
AcDbLayerTableRecord
  2
IMPORT_IGES
 70
0
 62
7
  6
CONTINUOUS
370
-3
390
F
  0
LAYER
  5
206
100
AcDbSymbolTableRecord
100
AcDbLayerTableRecord
  2
INTF_6
 70
0
 62
7
  6
CONTINUOUS
370
-3
390
F
  0
LAYER
  5
207
100
AcDbSymbolTableRecord
100
AcDbLayerTableRecord
  2
NOTE
 70
0
 62
7
  6
CONTINUOUS
370
-3
390
F
  0
LAYER
  5
208
100
AcDbSymbolTableRecord
100
AcDbLayerTableRecord
  2
PIANI
 70
0
 62
7
  6
CONTINUOUS
370
-3
390
F
  0
LAYER
  5
209
100
AcDbSymbolTableRecord
100
AcDbLayerTableRecord
  2
PIANI_ORIGINE
 70
0
 62
7
  6
CONTINUOUS
370
-3
390
F
  0
LAYER
  5
20A
100
AcDbSymbolTableRecord
100
AcDbLayerTableRecord
  2
PIANI_RIFERIMENTO
 70
0
 62
7
  6
CONTINUOUS
370
-3
390
F
  0
LAYER
  5
20B
100
AcDbSymbolTableRecord
100
AcDbLayerTableRecord
  2
PUNTI
 70
0
 62
7
  6
CONTINUOUS
370
-3
390
F
  0
LAYER
  5
20C
100
AcDbSymbolTableRecord
100
AcDbLayerTableRecord
  2
RACCORDO
 70
0
 62
7
  6
CONTINUOUS
370
-3
390
F
  0
LAYER
  5
20D
100
AcDbSymbolTableRecord
100
AcDbLayerTableRecord
  2
SMUSSO
 70
0
 62
7
  6
CONTINUOUS
370
-3
390
F
  0
LAYER
  5
20E
100
AcDbSymbolTableRecord
100
AcDbLayerTableRecord
  2
SNAPLINE
 70
0
 62
7
  6
CONTINUOUS
370
-3
390
F
  0
LAYER
  5
20F
100
AcDbSymbolTableRecord
100
AcDbLayerTableRecord
  2
SUPERFICI
 70
0
 62
7
  6
CONTINUOUS
370
-3
390
F
  0
LAYER
  5
210
100
AcDbSymbolTableRecord
100
AcDbLayerTableRecord
  2
TRASH
 70
0
 62
7
  6
CONTINUOUS
370
-3
390
F
  0
LAYER
  5
211
100
AcDbSymbolTableRecord
100
AcDbLayerTableRecord
  2
XSEC_DATUMS
 70
0
 62
7
  6
CONTINUOUS
370
-3
390
F
  0
ENDTAB
  0
TABLE
  2
STYLE
  5
3
100
AcDbSymbolTable
 70
1
  0
STYLE
  5
11
100
AcDbSymbolTableRecord
100
AcDbTextStyleTableRecord
  2
STANDARD
 70
0
 40
0.0
 41
0.8
 50
0.0
 71
0
 42
0.2
  3
txt
  4

  0
STYLE
  5
212
100
AcDbSymbolTableRecord
100
AcDbTextStyleTableRecord
  2
TEXTSTYLE_1
 70
0
 40
0.0
 41
0.8
 50
0.0
 71
0
 42
0.2
  3
gdt
  4

  0
ENDTAB
  0
TABLE
  2
VIEW
  5
6
100
AcDbSymbolTable
 70
0
  0
ENDTAB
  0
TABLE
  2
UCS
  5
7
100
AcDbSymbolTable
 70
0
  0
ENDTAB
  0
TABLE
  2
APPID
  5
9
100
AcDbSymbolTable
 70
1
  0
APPID
  5
213
100
AcDbSymbolTableRecord
100
AcDbRegAppTableRecord
  2
ACAD
 70
0
  0
ENDTAB
  0
TABLE
  2
BLOCK_RECORD
  5
1
100
AcDbSymbolTable
 70
0
  0
BLOCK_RECORD
  5
214
100
AcDbSymbolTableRecord
100
AcDbBlockTableRecord
  2
*Model_Space
  0
BLOCK_RECORD
  5
215
100
AcDbSymbolTableRecord
100
AcDbBlockTableRecord
  2
*Paper_Space
  0
ENDTAB
  0
TABLE
  2
DIMSTYLE
  5
A
100
AcDbSymbolTable
 70
1
100
AcDbDimStyleTable
 71
0
  0
DIMSTYLE
105
216
100
AcDbSymbolTableRecord
100
AcDbDimStyleTableRecord
  2
STANDARD
 70
0
  3

  4

 40
1.0
 41
3.0
 42
0.0625
 43
0.38
 44
0.18
 45
0.0
 46
0.0
 47
0.01
 48
0.01
140
3.0
141
0.09
142
0.0
143
25.4
144
1.0
145
0.0
146
1.0
147
0.09
 71
1.0
 72
0.0
 73
0
 74
0
 75
0
 76
0
 77
1
 78
8
170
0
171
2
172
0
173
0
174
0
175
0
176
0
177
0
178
0
270
2
271
2
272
2
273
2
274
2
275
0
280
0
281
0
282
0
283
1
284
8
285
0
286
0
287
3
288
0
340
11
  0
ENDTAB
  0
ENDSEC
  0
SECTION
  2
BLOCKS
  0
BLOCK
  5
20
100
AcDbEntity
  8
0
100
AcDbBlockBegin
  2
*Model_Space
 70
0
 10
0.0
 20
0.0
 30
0.0
  3
*Model_Space
  1

  0
ENDBLK
  5
21
100
AcDbEntity
  8
0
100
AcDbBlockEnd
  0
BLOCK
  5
1C
100
AcDbEntity
  8
0
100
AcDbBlockBegin
  2
*Paper_Space
 70
0
 10
0.0
 20
0.0
 30
0.0
  3
*Paper_Space
  1

  0
ENDBLK
  5
1D
100
AcDbEntity
  8
0
100
AcDbBlockEnd
  0
ENDSEC
  0
SECTION
  2
ENTITIES
  0
LINE
  5
217
100
AcDbEntity
  8
RACCORDO
100
AcDbLine
 62
7
  6
CONTINUOUS
 10
-7.5761594768
 20
9.7909889623
 11
-7.5444256777
 21
9.8227227614
  0
LINE
  5
218
100
AcDbEntity
  8
ASSI
100
AcDbLine
 62
7
  6
CONTINUOUS
 10
-7.5761594768
 20
9.7909889623
 11
-7.5444256777
 21
9.8227227614
  0
LINE
  5
219
100
AcDbEntity
  8
RACCORDO
100
AcDbLine
 62
7
  6
CONTINUOUS
 10
-11.1618015338
 20
-1.9946530947
 11
-11.1487272964
 21
-10.5560200726
  0
LINE
  5
21A
100
AcDbEntity
  8
ASSI
100
AcDbLine
 62
7
  6
CONTINUOUS
 10
-11.1618015338
 20
-1.9946530947
 11
-11.1487272964
 21
-10.5560200726
  0
LINE
  5
21B
100
AcDbEntity
  8
RACCORDO
100
AcDbLine
 62
7
  6
CONTINUOUS
 10
-11.1618015338
 20
10.8053697506
 11
-11.1618015338
 21
-1.9946530947
  0
LINE
  5
21C
100
AcDbEntity
  8
ASSI
100
AcDbLine
 62
7
  6
CONTINUOUS
 10
-11.1618015338
 20
10.8053697506
 11
-11.1618015338
 21
-1.9946530947
  0
LINE
  5
21D
100
AcDbEntity
  8
RACCORDO
100
AcDbLine
 62
7
  6
CONTINUOUS
 10
3.3797734733
 20
-11.0539658004
 11
3.7304634393
 21
-11.0221326424
  0
LINE
  5
21E
100
AcDbEntity
  8
ASSI
100
AcDbLine
 62
7
  6
CONTINUOUS
 10
3.3797734733
 20
-11.0539658004
 11
3.7304634393
 21
-11.0221326424
  0
LINE
  5
21F
100
AcDbEntity
  8
RACCORDO
100
AcDbLine
 62
7
  6
CONTINUOUS
 10
10.6247444056
 20
-11.0539658004
 11
7.7966234592
 21
-11.0539658004
  0
LINE
  5
220
100
AcDbEntity
  8
ASSI
100
AcDbLine
 62
7
  6
CONTINUOUS
 10
10.6247444056
 20
-11.0539658004
 11
7.7966234592
 21
-11.0539658004
  0
LINE
  5
221
100
AcDbEntity
  8
DRAFT
100
AcDbLine
 62
7
  6
CONTINUOUS
 10
3.3797734733
 20
-11.0539658004
 11
-3.4033765408
 21
-11.0539658004
  0
LINE
  5
222
100
AcDbEntity
  8
ASSI
100
AcDbLine
 62
7
  6
CONTINUOUS
 10
3.3797734733
 20
-11.0539658004
 11
-3.4033765408
 21
-11.0539658004
  0
LINE
  5
223
100
AcDbEntity
  8
RACCORDO
100
AcDbLine
 62
7
  6
CONTINUOUS
 10
-7.8202265267
 20
-11.0539658004
 11
-10.6483474732
 21
-11.0539658004
  0
LINE
  5
224
100
AcDbEntity
  8
ASSI
100
AcDbLine
 62
7
  6
CONTINUOUS
 10
-7.8202265267
 20
-11.0539658004
 11
-10.6483474732
 21
-11.0539658004
  0
LINE
  5
225
100
AcDbEntity
  8
RACCORDO
100
AcDbLine
 62
7
  6
CONTINUOUS
 10
7.2727284124
 20
-11.0168918645
 11
3.9036685201
 21
-11.0168918645
  0
LINE
  5
226
100
AcDbEntity
  8
ASSI
100
AcDbLine
 62
7
  6
CONTINUOUS
 10
7.2727284124
 20
-11.0168918645
 11
3.9036685201
 21
-11.0168918645
  0
LINE
  5
227
100
AcDbEntity
  8
RACCORDO
100
AcDbLine
 62
7
  6
CONTINUOUS
 10
-3.9272715876
 20
-11.0168918645
 11
-7.2963314799
 21
-11.0168918645
  0
LINE
  5
228
100
AcDbEntity
  8
ASSI
100
AcDbLine
 62
7
  6
CONTINUOUS
 10
-3.9272715876
 20
-11.0168918645
 11
-7.2963314799
 21
-11.0168918645
  0
LINE
  5
229
100
AcDbEntity
  8
RACCORDO
100
AcDbLine
 62
7
  6
CONTINUOUS
 10
-3.4033765408
 20
-11.0539658004
 11
-3.7540665069
 21
-11.0221326424
  0
LINE
  5
22A
100
AcDbEntity
  8
ASSI
100
AcDbLine
 62
7
  6
CONTINUOUS
 10
-3.4033765408
 20
-11.0539658004
 11
-3.7540665069
 21
-11.0221326424
  0
LINE
  5
22B
100
AcDbEntity
  8
RACCORDO
100
AcDbLine
 62
7
  6
CONTINUOUS
 10
-9.9005470255
 20
-9.3644118631
 11
-9.9118015338
 21
-1.9946530947
  0
LINE
  5
22C
100
AcDbEntity
  8
ASSI
100
AcDbLine
 62
7
  6
CONTINUOUS
 10
-9.9005470255
 20
-9.3644118631
 11
-9.9118015338
 21
-1.9946530947
  0
LINE
  5
22D
100
AcDbEntity
  8
DRAFT
100
AcDbLine
 62
7
  6
CONTINUOUS
 10
-9.9118015338
 20
-1.9946530947
 11
-9.9118015338
 21
9.9375956856
  0
LINE
  5
22E
100
AcDbEntity
  8
ASSI
100
AcDbLine
 62
7
  6
CONTINUOUS
 10
-9.9118015338
 20
-1.9946530947
 11
-9.9118015338
 21
9.9375956856
  0
LINE
  5
22F
100
AcDbEntity
  8
DRAFT
100
AcDbLine
 62
7
  6
CONTINUOUS
 10
-9.8949246347
 20
-2.9946530947
 11
-9.8949246347
 21
0.8053469053
  0
LINE
  5
230
100
AcDbEntity
  8
ASSI
100
AcDbLine
 62
7
  6
CONTINUOUS
 10
-9.8949246347
 20
-2.9946530947
 11
-9.8949246347
 21
0.8053469053
  0
LINE
  5
231
100
AcDbEntity
  8
RACCORDO
100
AcDbLine
 62
253
  6
CONTINUOUS
 10
-9.6490348368
 20
-9.0099145436
 11
-9.6490348368
 21
-9.2003534584
  0
LINE
  5
232
100
AcDbEntity
  8
0
100
AcDbLine
 62
7
  6
CONTINUOUS
 10
-9.5118015338
 20
-2.9946530947
 11
-9.5118015338
 21
0.8053469053
  0
LINE
  5
233
100
AcDbEntity
  8
ASSI
100
AcDbLine
 62
7
  6
CONTINUOUS
 10
-9.5118015338
 20
-2.9946530947
 11
-9.5118015338
 21
0.8053469053
  0
LINE
  5
234
100
AcDbEntity
  8
ASSI
100
AcDbLine
 62
253
  6
CONTINUOUS
 10
-9.6419810414
 20
9.7909889623
 11
-9.6438076415
 21
0.8053469053
  0
LINE
  5
235
100
AcDbEntity
  8
ASSI
100
AcDbLine
 62
253
  6
CONTINUOUS
 10
-9.6454307917
 20
-2.9946530947
 11
-9.6490348368
 21
-9.2003534584
  0
LINE
  5
236
100
AcDbEntity
  8
RACCORDO
100
AcDbLine
 62
7
  6
CONTINUOUS
 10
3.7304634393
 20
-9.4727547094
 11
3.3044799894
 21
-9.5633482254
  0
LINE
  5
237
100
AcDbEntity
  8
ASSI
100
AcDbLine
 62
7
  6
CONTINUOUS
 10
3.7304634393
 20
-9.4727547094
 11
3.3044799894
 21
-9.5633482254
  0
LINE
  5
238
100
AcDbEntity
  8
RACCORDO
100
AcDbLine
 62
7
  6
CONTINUOUS
 10
-7.8202265267
 20
-11.0539658004
 11
-7.4695365607
 21
-11.0221326424
  0
LINE
  5
239
100
AcDbEntity
  8
ASSI
100
AcDbLine
 62
7
  6
CONTINUOUS
 10
-7.8202265267
 20
-11.0539658004
 11
-7.4695365607
 21
-11.0221326424
  0
LINE
  5
23A
100
AcDbEntity
  8
RACCORDO
100
AcDbLine
 62
7
  6
CONTINUOUS
 10
9.6770351401
 20
-9.5633482254
 11
7.871916943
 21
-9.5633482254
  0
LINE
  5
23B
100
AcDbEntity
  8
ASSI
100
AcDbLine
 62
7
  6
CONTINUOUS
 10
9.6770351401
 20
-9.5633482254
 11
7.871916943
 21
-9.5633482254
  0
LINE
  5
23C
100
AcDbEntity
  8
DRAFT
100
AcDbLine
 62
7
  6
CONTINUOUS
 10
3.3044799894
 20
-9.5633482254
 11
-3.328083057
 21
-9.5633482254
  0
LINE
  5
23D
100
AcDbEntity
  8
ASSI
100
AcDbLine
 62
7
  6
CONTINUOUS
 10
3.3044799894
 20
-9.5633482254
 11
-3.328083057
 21
-9.5633482254
  0
LINE
  5
23E
100
AcDbEntity
  8
RACCORDO
100
AcDbLine
 62
7
  6
CONTINUOUS
 10
-7.8955200106
 20
-9.5633482254
 11
-9.7006382076
 21
-9.5633482254
  0
LINE
  5
23F
100
AcDbEntity
  8
ASSI
100
AcDbLine
 62
7
  6
CONTINUOUS
 10
-7.8955200106
 20
-9.5633482254
 11
-9.7006382076
 21
-9.5633482254
  0
LINE
  5
240
100
AcDbEntity
  8
RACCORDO
100
AcDbLine
 62
7
  6
CONTINUOUS
 10
7.2727284124
 20
-9.4604762533
 11
5.9083308402
 21
-9.4604762533
  0
LINE
  5
241
100
AcDbEntity
  8
ASSI
100
AcDbLine
 62
7
  6
CONTINUOUS
 10
7.2727284124
 20
-9.4604762533
 11
5.9083308402
 21
-9.4604762533
  0
LINE
  5
242
100
AcDbEntity
  8
RACCORDO
100
AcDbLine
 62
7
  6
CONTINUOUS
 10
5.2680660922
 20
-9.4604762533
 11
3.9036685201
 21
-9.4604762533
  0
LINE
  5
243
100
AcDbEntity
  8
ASSI
100
AcDbLine
 62
7
  6
CONTINUOUS
 10
5.2680660922
 20
-9.4604762533
 11
3.9036685201
 21
-9.4604762533
  0
LINE
  5
244
100
AcDbEntity
  8
RACCORDO
100
AcDbLine
 62
7
  6
CONTINUOUS
 10
-3.9272715876
 20
-9.4604762533
 11
-5.2916691598
 21
-9.4604762533
  0
LINE
  5
245
100
AcDbEntity
  8
ASSI
100
AcDbLine
 62
7
  6
CONTINUOUS
 10
-3.9272715876
 20
-9.4604762533
 11
-5.2916691598
 21
-9.4604762533
  0
LINE
  5
246
100
AcDbEntity
  8
RACCORDO
100
AcDbLine
 62
7
  6
CONTINUOUS
 10
-5.9319339078
 20
-9.4604762533
 11
-7.2963314799
 21
-9.4604762533
  0
LINE
  5
247
100
AcDbEntity
  8
ASSI
100
AcDbLine
 62
7
  6
CONTINUOUS
 10
-5.9319339078
 20
-9.4604762533
 11
-7.2963314799
 21
-9.4604762533
  0
LINE
  5
248
100
AcDbEntity
  8
RACCORDO
100
AcDbLine
 62
7
  6
CONTINUOUS
 10
7.7966234592
 20
-11.0539658004
 11
7.4459334931
 21
-11.0221326424
  0
LINE
  5
249
100
AcDbEntity
  8
ASSI
100
AcDbLine
 62
7
  6
CONTINUOUS
 10
7.7966234592
 20
-11.0539658004
 11
7.4459334931
 21
-11.0221326424
  0
LINE
  5
24A
100
AcDbEntity
  8
RACCORDO
100
AcDbLine
 62
7
  6
CONTINUOUS
 10
-3.7540665069
 20
-9.4727547094
 11
-3.328083057
 21
-9.5633482254
  0
LINE
  5
24B
100
AcDbEntity
  8
ASSI
100
AcDbLine
 62
7
  6
CONTINUOUS
 10
-3.7540665069
 20
-9.4727547094
 11
-3.328083057
 21
-9.5633482254
  0
LINE
  5
24C
100
AcDbEntity
  8
DRAFT
100
AcDbLine
 62
7
  6
CONTINUOUS
 10
-7.8202265267
 20
-11.0539658004
 11
-7.8955200106
 21
-9.5633482254
  0
LINE
  5
24D
100
AcDbEntity
  8
ASSI
100
AcDbLine
 62
7
  6
CONTINUOUS
 10
-7.8202265267
 20
-11.0539658004
 11
-7.8955200106
 21
-9.5633482254
  0
LINE
  5
24E
100
AcDbEntity
  8
DRAFT
100
AcDbLine
 62
7
  6
CONTINUOUS
 10
-8.5242675244
 20
11.0053469053
 11
-8.5242675244
 21
9.9375956856
  0
LINE
  5
24F
100
AcDbEntity
  8
ASSI
100
AcDbLine
 62
7
  6
CONTINUOUS
 10
-8.5242675244
 20
11.0053469053
 11
-8.5242675244
 21
9.9375956856
  0
LINE
  5
250
100
AcDbEntity
  8
DRAFT
100
AcDbLine
 62
7
  6
CONTINUOUS
 10
-8.2618015338
 20
9.8328333771
 11
-8.2618015338
 21
10.979166302
  0
LINE
  5
251
100
AcDbEntity
  8
ASSI
100
AcDbLine
 62
7
  6
CONTINUOUS
 10
-8.2618015338
 20
9.8328333771
 11
-8.2618015338
 21
10.979166302
  0
LINE
  5
252
100
AcDbEntity
  8
RACCORDO
100
AcDbLine
 62
253
  6
CONTINUOUS
 10
-9.8490043763
 20
-9.0018442312
 11
-9.9005470255
 21
-9.3644118631
  0
LINE
  5
253
100
AcDbEntity
  8
ASSI
100
AcDbLine
 62
253
  6
CONTINUOUS
 10
-9.8490043763
 20
-9.0018442312
 11
-9.9005470255
 21
-9.3644118631
  0
LINE
  5
254
100
AcDbEntity
  8
RACCORDO
100
AcDbLine
 62
253
  6
CONTINUOUS
 10
-9.6490348368
 20
-9.2003534584
 11
-9.7006382076
 21
-9.5633482254
  0
LINE
  5
255
100
AcDbEntity
  8
ASSI
100
AcDbLine
 62
253
  6
CONTINUOUS
 10
-9.6490348368
 20
-9.2003534584
 11
-9.7006382076
 21
-9.5633482254
  0
LINE
  5
256
100
AcDbEntity
  8
RACCORDO
100
AcDbLine
 62
253
  6
CONTINUOUS
 10
-7.5197373956
 20
5.2472282916
 11
-7.5749951578
 21
5.1919705294
  0
LINE
  5
257
100
AcDbEntity
  8
ASSI
100
AcDbLine
 62
253
  6
CONTINUOUS
 10
-7.5197373956
 20
5.2472282916
 11
-7.5749951578
 21
5.1919705294
  0
LINE
  5
258
100
AcDbEntity
  8
RACCORDO
100
AcDbLine
 62
253
  6
CONTINUOUS
 10
-7.219920675
 20
4.947410516
 11
-7.2750506103
 21
4.8922805807
  0
LINE
  5
259
100
AcDbEntity
  8
ASSI
100
AcDbLine
 62
253
  6
CONTINUOUS
 10
-7.219920675
 20
4.947410516
 11
-7.2750506103
 21
4.8922805807
  0
LINE
  5
25A
100
AcDbEntity
  8
RACCORDO
100
AcDbLine
 62
7
  6
CONTINUOUS
 10
5.510306237
 20
-9.2536107072
 11
5.6660906955
 21
-9.2536107072
  0
LINE
  5
25B
100
AcDbEntity
  8
ASSI
100
AcDbLine
 62
7
  6
CONTINUOUS
 10
5.510306237
 20
-9.2536107072
 11
5.6660906955
 21
-9.2536107072
  0
LINE
  5
25C
100
AcDbEntity
  8
RACCORDO
100
AcDbLine
 62
7
  6
CONTINUOUS
 10
-5.5339093045
 20
-9.2536107072
 11
-5.689693763
 21
-9.2536107072
  0
LINE
  5
25D
100
AcDbEntity
  8
ASSI
100
AcDbLine
 62
7
  6
CONTINUOUS
 10
-5.5339093045
 20
-9.2536107072
 11
-5.689693763
 21
-9.2536107072
  0
LINE
  5
25E
100
AcDbEntity
  8
RACCORDO
100
AcDbLine
 62
253
  6
CONTINUOUS
 10
-9.6490348368
 20
-9.2003534584
 11
-6.005914611
 21
-9.2003534584
  0
LINE
  5
25F
100
AcDbEntity
  8
ASSI
100
AcDbLine
 62
253
  6
CONTINUOUS
 10
-9.6490348368
 20
-9.2003534584
 11
-6.005914611
 21
-9.2003534584
  0
LINE
  5
260
100
AcDbEntity
  8
RACCORDO
100
AcDbLine
 62
253
  6
CONTINUOUS
 10
-5.2176884566
 20
-9.2003534584
 11
5.194085389
 21
-9.2003534584
  0
LINE
  5
261
100
AcDbEntity
  8
ASSI
100
AcDbLine
 62
253
  6
CONTINUOUS
 10
-5.2176884566
 20
-9.2003534584
 11
5.194085389
 21
-9.2003534584
  0
LINE
  5
262
100
AcDbEntity
  8
RACCORDO
100
AcDbLine
 62
253
  6
CONTINUOUS
 10
5.9823115434
 20
-9.2003534584
 11
9.6254317693
 21
-9.2003534584
  0
LINE
  5
263
100
AcDbEntity
  8
ASSI
100
AcDbLine
 62
253
  6
CONTINUOUS
 10
5.9823115434
 20
-9.2003534584
 11
9.6254317693
 21
-9.2003534584
  0
LINE
  5
264
100
AcDbEntity
  8
RACCORDO
100
AcDbLine
 62
253
  6
CONTINUOUS
 10
-9.6490348263
 20
-9.0099145436
 11
-6.0120419223
 21
-9.0099145436
  0
LINE
  5
265
100
AcDbEntity
  8
ASSI
100
AcDbLine
 62
253
  6
CONTINUOUS
 10
-9.6490348263
 20
-9.0099145436
 11
-6.0120419223
 21
-9.0099145436
  0
LINE
  5
266
100
AcDbEntity
  8
RACCORDO
100
AcDbLine
 62
253
  6
CONTINUOUS
 10
-5.2115611452
 20
-9.0099145436
 11
5.1879580777
 21
-9.0099145436
  0
LINE
  5
267
100
AcDbEntity
  8
ASSI
100
AcDbLine
 62
253
  6
CONTINUOUS
 10
-5.2115611452
 20
-9.0099145436
 11
5.1879580777
 21
-9.0099145436
  0
LINE
  5
268
100
AcDbEntity
  8
RACCORDO
100
AcDbLine
 62
253
  6
CONTINUOUS
 10
5.9884388548
 20
-9.0099145436
 11
9.6254317587
 21
-9.0099145436
  0
LINE
  5
269
100
AcDbEntity
  8
ASSI
100
AcDbLine
 62
253
  6
CONTINUOUS
 10
5.9884388548
 20
-9.0099145436
 11
9.6254317587
 21
-9.0099145436
  0
LINE
  5
26A
100
AcDbEntity
  8
RACCORDO
100
AcDbLine
 62
7
  6
CONTINUOUS
 10
-5.9319339078
 20
-9.4604762533
 11
-6.005914611
 21
-9.2003534584
  0
LINE
  5
26B
100
AcDbEntity
  8
ASSI
100
AcDbLine
 62
7
  6
CONTINUOUS
 10
-5.9319339078
 20
-9.4604762533
 11
-6.005914611
 21
-9.2003534584
  0
LINE
  5
26C
100
AcDbEntity
  8
RACCORDO
100
AcDbLine
 62
253
  6
CONTINUOUS
 10
-7.5362432324
 20
7.5467682616
 11
-7.5150425964
 21
6.9396614804
  0
LINE
  5
26D
100
AcDbEntity
  8
ASSI
100
AcDbLine
 62
253
  6
CONTINUOUS
 10
-7.5362432324
 20
7.5467682616
 11
-7.5150425964
 21
6.9396614804
  0
LINE
  5
26E
100
AcDbEntity
  8
RACCORDO
100
AcDbLine
 62
253
  6
CONTINUOUS
 10
-7.5444256777
 20
9.8227227614
 11
-7.5444256777
 21
8.1124536865
  0
LINE
  5
26F
100
AcDbEntity
  8
ASSI
100
AcDbLine
 62
253
  6
CONTINUOUS
 10
-7.5444256777
 20
9.8227227614
 11
-7.5444256777
 21
8.1124536865
  0
LINE
  5
270
100
AcDbEntity
  8
RACCORDO
100
AcDbLine
 62
253
  6
CONTINUOUS
 10
-7.5129969851
 20
6.7982401241
 11
-7.5129969851
 21
5.4471064571
  0
LINE
  5
271
100
AcDbEntity
  8
ASSI
100
AcDbLine
 62
253
  6
CONTINUOUS
 10
-7.5129969851
 20
6.7982401241
 11
-7.5129969851
 21
5.4471064571
  0
LINE
  5
272
100
AcDbEntity
  8
RACCORDO
100
AcDbLine
 62
253
  6
CONTINUOUS
 10
-7.4695365607
 20
-11.0221326424
 11
-7.4695365607
 21
-9.4727547094
  0
LINE
  5
273
100
AcDbEntity
  8
ASSI
100
AcDbLine
 62
253
  6
CONTINUOUS
 10
-7.4695365607
 20
-11.0221326424
 11
-7.4695365607
 21
-9.4727547094
  0
LINE
  5
274
100
AcDbEntity
  8
RACCORDO
100
AcDbLine
 62
253
  6
CONTINUOUS
 10
-7.2963314799
 20
-11.0168918645
 11
-7.2963314799
 21
-9.4604762533
  0
LINE
  5
275
100
AcDbEntity
  8
ASSI
100
AcDbLine
 62
253
  6
CONTINUOUS
 10
-7.2963314799
 20
-11.0168918645
 11
-7.2963314799
 21
-9.4604762533
  0
LINE
  5
276
100
AcDbEntity
  8
RACCORDO
100
AcDbLine
 62
253
  6
CONTINUOUS
 10
-7.2446084296
 20
9.8328333771
 11
-7.2446084296
 21
8.1124646504
  0
LINE
  5
277
100
AcDbEntity
  8
ASSI
100
AcDbLine
 62
253
  6
CONTINUOUS
 10
-7.2446084296
 20
9.8328333771
 11
-7.2446084296
 21
8.1124646504
  0
LINE
  5
278
100
AcDbEntity
  8
RACCORDO
100
AcDbLine
 62
253
  6
CONTINUOUS
 10
-7.213179737
 20
6.7982401241
 11
-7.213179737
 21
5.4471219176
  0
LINE
  5
279
100
AcDbEntity
  8
ASSI
100
AcDbLine
 62
253
  6
CONTINUOUS
 10
-7.213179737
 20
6.7982401241
 11
-7.213179737
 21
5.4471219176
  0
LINE
  5
27A
100
AcDbEntity
  8
RACCORDO
100
AcDbLine
 62
253
  6
CONTINUOUS
 10
-7.1083777192
 20
7.1517935147
 11
-7.0871773402
 21
7.758892938
  0
LINE
  5
27B
100
AcDbEntity
  8
ASSI
100
AcDbLine
 62
253
  6
CONTINUOUS
 10
-7.1083777192
 20
7.1517935147
 11
-7.0871773402
 21
7.758892938
  0
LINE
  5
27C
100
AcDbEntity
  8
DRAFT
100
AcDbLine
 62
7
  6
CONTINUOUS
 10
-2.5083105208
 20
9.0262929832
 11
-2.5118015338
 21
9.0228019703
  0
LINE
  5
27D
100
AcDbEntity
  8
RACCORDO
100
AcDbLine
 62
7
  6
CONTINUOUS
 10
-7.4695365607
 20
-9.4727547094
 11
-7.8955200106
 21
-9.5633482254
  0
LINE
  5
27E
100
AcDbEntity
  8
ASSI
100
AcDbLine
 62
7
  6
CONTINUOUS
 10
-7.4695365607
 20
-9.4727547094
 11
-7.8955200106
 21
-9.5633482254
  0
LINE
  5
27F
100
AcDbEntity
  8
0
100
AcDbLine
 62
7
  6
CONTINUOUS
 10
0.9307516944
 20
-8.2358190947
 11
0.6413899254
 21
-8.2358190947
  0
LINE
  5
280
100
AcDbEntity
  8
ASSI
100
AcDbLine
 62
7
  6
CONTINUOUS
 10
0.9307516944
 20
-8.2358190947
 11
0.6413899254
 21
-8.2358190947
  0
LINE
  5
281
100
AcDbEntity
  8
0
100
AcDbLine
 62
7
  6
CONTINUOUS
 10
2.0881984662
 20
-8.0233190947
 11
0.6775601339
 21
-8.0233190947
  0
LINE
  5
282
100
AcDbEntity
  8
ASSI
100
AcDbLine
 62
7
  6
CONTINUOUS
 10
2.0881984662
 20
-8.0233190947
 11
0.6775601339
 21
-8.0233190947
  0
LINE
  5
283
100
AcDbEntity
  8
0
100
AcDbLine
 62
7
  6
CONTINUOUS
 10
2.0881984662
 20
-7.8108190947
 11
0.3881984662
 21
-7.8108190947
  0
LINE
  5
284
100
AcDbEntity
  8
ASSI
100
AcDbLine
 62
7
  6
CONTINUOUS
 10
2.0881984662
 20
-7.8108190947
 11
0.3881984662
 21
-7.8108190947
  0
LINE
  5
285
100
AcDbEntity
  8
0
100
AcDbLine
 62
7
  6
CONTINUOUS
 10
1.5818154972
 20
-7.5274857782
 11
1.3647941958
 21
-7.5274857782
  0
LINE
  5
286
100
AcDbEntity
  8
ASSI
100
AcDbLine
 62
7
  6
CONTINUOUS
 10
1.5818154972
 20
-7.5274857782
 11
1.3647941958
 21
-7.5274857782
  0
LINE
  5
287
100
AcDbEntity
  8
RACCORDO
100
AcDbLine
 62
7
  6
CONTINUOUS
 10
7.4459334931
 20
-9.4727547094
 11
7.871916943
 21
-9.5633482254
  0
LINE
  5
288
100
AcDbEntity
  8
ASSI
100
AcDbLine
 62
7
  6
CONTINUOUS
 10
7.4459334931
 20
-9.4727547094
 11
7.871916943
 21
-9.5633482254
  0
LINE
  5
289
100
AcDbEntity
  8
0
100
AcDbLine
 62
7
  6
CONTINUOUS
 10
-2.1293635338
 20
-7.1924190947
 11
-0.9592955338
 21
-7.5263410947
  0
LINE
  5
28A
100
AcDbEntity
  8
ASSI
100
AcDbLine
 62
7
  6
CONTINUOUS
 10
-2.1293635338
 20
-7.1924190947
 11
-0.9592955338
 21
-7.5263410947
  0
LINE
  5
28B
100
AcDbEntity
  8
RACCORDO
100
AcDbLine
 62
253
  6
CONTINUOUS
 10
-7.2364257275
 20
7.7588929415
 11
-7.2152253483
 21
7.1517935147
  0
LINE
  5
28C
100
AcDbEntity
  8
ASSI
100
AcDbLine
 62
253
  6
CONTINUOUS
 10
-7.2364257275
 20
7.7588929415
 11
-7.2152253483
 21
7.1517935147
  0
LINE
  5
28D
100
AcDbEntity
  8
RACCORDO
100
AcDbLine
 62
253
  6
CONTINUOUS
 10
-7.1104233305
 20
5.4471219177
 11
-7.1104233305
 21
6.7982401241
  0
LINE
  5
28E
100
AcDbEntity
  8
ASSI
100
AcDbLine
 62
253
  6
CONTINUOUS
 10
-7.1104233305
 20
5.4471219177
 11
-7.1104233305
 21
6.7982401241
  0
LINE
  5
28F
100
AcDbEntity
  8
RACCORDO
100
AcDbLine
 62
253
  6
CONTINUOUS
 10
-7.078994638
 20
8.1124646542
 11
-7.078994638
 21
9.8328333771
  0
LINE
  5
290
100
AcDbEntity
  8
ASSI
100
AcDbLine
 62
253
  6
CONTINUOUS
 10
-7.078994638
 20
8.1124646542
 11
-7.078994638
 21
9.8328333771
  0
LINE
  5
291
100
AcDbEntity
  8
RACCORDO
100
AcDbLine
 62
253
  6
CONTINUOUS
 10
-6.8106060824
 20
5.4471064571
 11
-6.8106060824
 21
6.7982401241
  0
LINE
  5
292
100
AcDbEntity
  8
ASSI
100
AcDbLine
 62
253
  6
CONTINUOUS
 10
-6.8106060824
 20
5.4471064571
 11
-6.8106060824
 21
6.7982401241
  0
LINE
  5
293
100
AcDbEntity
  8
RACCORDO
100
AcDbLine
 62
253
  6
CONTINUOUS
 10
-6.7791773899
 20
8.1124536865
 11
-6.7791773899
 21
9.8227227614
  0
LINE
  5
294
100
AcDbEntity
  8
ASSI
100
AcDbLine
 62
253
  6
CONTINUOUS
 10
-6.7791773899
 20
8.1124536865
 11
-6.7791773899
 21
9.8227227614
  0
LINE
  5
295
100
AcDbEntity
  8
RACCORDO
100
AcDbLine
 62
253
  6
CONTINUOUS
 10
-6.8085604711
 20
6.9396614804
 11
-6.7873598352
 21
7.5467682616
  0
LINE
  5
296
100
AcDbEntity
  8
ASSI
100
AcDbLine
 62
253
  6
CONTINUOUS
 10
-6.8085604711
 20
6.9396614804
 11
-6.7873598352
 21
7.5467682616
  0
LINE
  5
297
100
AcDbEntity
  8
0
100
AcDbLine
 62
7
  6
CONTINUOUS
 10
-2.1293635338
 20
-7.8503660947
 11
-0.9592955338
 21
-7.5263410947
  0
LINE
  5
298
100
AcDbEntity
  8
ASSI
100
AcDbLine
 62
7
  6
CONTINUOUS
 10
-2.1293635338
 20
-7.8503660947
 11
-0.9592955338
 21
-7.5263410947
  0
LINE
  5
299
100
AcDbEntity
  8
RACCORDO
100
AcDbLine
 62
253
  6
CONTINUOUS
 10
5.6286593903
 20
-6.9549301744
 11
5.5477375422
 21
-6.9549301744
  0
LINE
  5
29A
100
AcDbEntity
  8
ASSI
100
AcDbLine
 62
253
  6
CONTINUOUS
 10
5.6286593903
 20
-6.9549301744
 11
5.5477375422
 21
-6.9549301744
  0
LINE
  5
29B
100
AcDbEntity
  8
RACCORDO
100
AcDbLine
 62
253
  6
CONTINUOUS
 10
-5.5713406097
 20
-6.9549301744
 11
-5.6522624578
 21
-6.9549301744
  0
LINE
  5
29C
100
AcDbEntity
  8
ASSI
100
AcDbLine
 62
253
  6
CONTINUOUS
 10
-5.5713406097
 20
-6.9549301744
 11
-5.6522624578
 21
-6.9549301744
  0
LINE
  5
29D
100
AcDbEntity
  8
RACCORDO
100
AcDbLine
 62
253
  6
CONTINUOUS
 10
5.2980534256
 20
-6.8281446959
 11
5.8783435068
 21
-6.8281446959
  0
LINE
  5
29E
100
AcDbEntity
  8
ASSI
100
AcDbLine
 62
253
  6
CONTINUOUS
 10
5.2980534256
 20
-6.8281446959
 11
5.8783435068
 21
-6.8281446959
  0
LINE
  5
29F
100
AcDbEntity
  8
RACCORDO
100
AcDbLine
 62
253
  6
CONTINUOUS
 10
-5.3216564932
 20
-6.8281446959
 11
-5.9019465744
 21
-6.8281446959
  0
LINE
  5
2A0
100
AcDbEntity
  8
ASSI
100
AcDbLine
 62
253
  6
CONTINUOUS
 10
-5.3216564932
 20
-6.8281446959
 11
-5.9019465744
 21
-6.8281446959
  0
LINE
  5
2A1
100
AcDbEntity
  8
0
100
AcDbLine
 62
7
  6
CONTINUOUS
 10
-2.1294655338
 20
-6.7061550947
 11
-0.4295005338
 21
-6.7061550947
  0
LINE
  5
2A2
100
AcDbEntity
  8
ASSI
100
AcDbLine
 62
7
  6
CONTINUOUS
 10
-2.1294655338
 20
-6.7061550947
 11
-0.4295005338
 21
-6.7061550947
  0
LINE
  5
2A3
100
AcDbEntity
  8
0
100
AcDbLine
 62
7
  6
CONTINUOUS
 10
2.0881984662
 20
-6.6774857276
 11
1.5818154972
 21
-6.6774857276
  0
LINE
  5
2A4
100
AcDbEntity
  8
ASSI
100
AcDbLine
 62
7
  6
CONTINUOUS
 10
2.0881984662
 20
-6.6774857276
 11
1.5818154972
 21
-6.6774857276
  0
LINE
  5
2A5
100
AcDbEntity
  8
0
100
AcDbLine
 62
7
  6
CONTINUOUS
 10
1.3647941958
 20
-6.6774857276
 11
0.6775601339
 21
-6.6774857276
  0
LINE
  5
2A6
100
AcDbEntity
  8
ASSI
100
AcDbLine
 62
7
  6
CONTINUOUS
 10
1.3647941958
 20
-6.6774857276
 11
0.6775601339
 21
-6.6774857276
  0
LINE
  5
2A7
100
AcDbEntity
  8
RACCORDO
100
AcDbLine
 62
253
  6
CONTINUOUS
 10
5.2980534256
 20
-6.5461388512
 11
5.8783435068
 21
-6.5461388512
  0
LINE
  5
2A8
100
AcDbEntity
  8
ASSI
100
AcDbLine
 62
253
  6
CONTINUOUS
 10
5.2980534256
 20
-6.5461388512
 11
5.8783435068
 21
-6.5461388512
  0
LINE
  5
2A9
100
AcDbEntity
  8
RACCORDO
100
AcDbLine
 62
253
  6
CONTINUOUS
 10
-5.3216564932
 20
-6.5461388512
 11
-5.9019465744
 21
-6.5461388512
  0
LINE
  5
2AA
100
AcDbEntity
  8
ASSI
100
AcDbLine
 62
253
  6
CONTINUOUS
 10
-5.3216564932
 20
-6.5461388512
 11
-5.9019465744
 21
-6.5461388512
  0
LINE
  5
2AB
100
AcDbEntity
  8
0
100
AcDbLine
 62
7
  6
CONTINUOUS
 10
2.0881984662
 20
-6.4649858289
 11
1.5818154972
 21
-6.4649858289
  0
LINE
  5
2AC
100
AcDbEntity
  8
ASSI
100
AcDbLine
 62
7
  6
CONTINUOUS
 10
2.0881984662
 20
-6.4649858289
 11
1.5818154972
 21
-6.4649858289
  0
LINE
  5
2AD
100
AcDbEntity
  8
0
100
AcDbLine
 62
7
  6
CONTINUOUS
 10
1.3647941958
 20
-6.4649858289
 11
0.3881984662
 21
-6.4649858289
  0
LINE
  5
2AE
100
AcDbEntity
  8
ASSI
100
AcDbLine
 62
7
  6
CONTINUOUS
 10
1.3647941958
 20
-6.4649858289
 11
0.3881984662
 21
-6.4649858289
  0
LINE
  5
2AF
100
AcDbEntity
  8
0
100
AcDbLine
 62
7
  6
CONTINUOUS
 10
-2.1294655338
 20
-6.3513270947
 11
-0.4295005338
 21
-6.3513270947
  0
LINE
  5
2B0
100
AcDbEntity
  8
ASSI
100
AcDbLine
 62
7
  6
CONTINUOUS
 10
-2.1294655338
 20
-6.3513270947
 11
-0.4295005338
 21
-6.3513270947
  0
LINE
  5
2B1
100
AcDbEntity
  8
RACCORDO
100
AcDbLine
 62
253
  6
CONTINUOUS
 10
5.6299386421
 20
-6.2506965253
 11
5.5464582903
 21
-6.2506965253
  0
LINE
  5
2B2
100
AcDbEntity
  8
ASSI
100
AcDbLine
 62
253
  6
CONTINUOUS
 10
5.6299386421
 20
-6.2506965253
 11
5.5464582903
 21
-6.2506965253
  0
LINE
  5
2B3
100
AcDbEntity
  8
RACCORDO
100
AcDbLine
 62
253
  6
CONTINUOUS
 10
-5.5700613579
 20
-6.2506965253
 11
-5.6535417097
 21
-6.2506965253
  0
LINE
  5
2B4
100
AcDbEntity
  8
ASSI
100
AcDbLine
 62
253
  6
CONTINUOUS
 10
-5.5700613579
 20
-6.2506965253
 11
-5.6535417097
 21
-6.2506965253
  0
LINE
  5
2B5
100
AcDbEntity
  8
0
100
AcDbLine
 62
7
  6
CONTINUOUS
 10
-2.1293635338
 20
-6.0068250947
 11
-0.4295005338
 21
-6.1603120947
  0
LINE
  5
2B6
100
AcDbEntity
  8
ASSI
100
AcDbLine
 62
7
  6
CONTINUOUS
 10
-2.1293635338
 20
-6.0068250947
 11
-0.4295005338
 21
-6.1603120947
  0
LINE
  5
2B7
100
AcDbEntity
  8
0
100
AcDbLine
 62
7
  6
CONTINUOUS
 10
-2.1293635338
 20
-6.8378330947
 11
-0.4295005338
 21
-7.3842370947
  0
LINE
  5
2B8
100
AcDbEntity
  8
ASSI
100
AcDbLine
 62
7
  6
CONTINUOUS
 10
-2.1293635338
 20
-6.8378330947
 11
-0.4295005338
 21
-7.3842370947
  0
LINE
  5
2B9
100
AcDbEntity
  8
RACCORDO
100
AcDbLine
 62
253
  6
CONTINUOUS
 10
-6.0174217268
 20
-4.7417296431
 11
-5.9630274484
 21
-4.7689184959
  0
LINE
  5
2BA
100
AcDbEntity
  8
ASSI
100
AcDbLine
 62
253
  6
CONTINUOUS
 10
-6.0174217268
 20
-4.7417296431
 11
-5.9630274484
 21
-4.7689184959
  0
LINE
  5
2BB
100
AcDbEntity
  8
RACCORDO
100
AcDbLine
 62
253
  6
CONTINUOUS
 10
-5.7676972059
 20
-4.4917061452
 11
-5.7131802
 21
-4.518956343
  0
LINE
  5
2BC
100
AcDbEntity
  8
ASSI
100
AcDbLine
 62
253
  6
CONTINUOUS
 10
-5.7676972059
 20
-4.4917061452
 11
-5.7131802
 21
-4.518956343
  0
LINE
  5
2BD
100
AcDbEntity
  8
RACCORDO
100
AcDbLine
 62
253
  6
CONTINUOUS
 10
-5.9613118825
 20
-6.2044280025
 11
-5.9033894164
 21
-6.4968984636
  0
LINE
  5
2BE
100
AcDbEntity
  8
ASSI
100
AcDbLine
 62
253
  6
CONTINUOUS
 10
-5.9613118825
 20
-6.2044280025
 11
-5.9033894164
 21
-6.4968984636
  0
LINE
  5
2BF
100
AcDbEntity
  8
RACCORDO
100
AcDbLine
 62
253
  6
CONTINUOUS
 10
-5.7042499654
 20
-5.9946530947
 11
-5.6535417097
 21
-6.2506965253
  0
LINE
  5
2C0
100
AcDbEntity
  8
ASSI
100
AcDbLine
 62
253
  6
CONTINUOUS
 10
-5.7042499654
 20
-5.9946530947
 11
-5.6535417097
 21
-6.2506965253
  0
LINE
  5
2C1
100
AcDbEntity
  8
RACCORDO
100
AcDbLine
 62
253
  6
CONTINUOUS
 10
-5.5339093045
 20
-9.2536107072
 11
-5.5713406097
 21
-6.9549301744
  0
LINE
  5
2C2
100
AcDbEntity
  8
ASSI
100
AcDbLine
 62
253
  6
CONTINUOUS
 10
-5.5339093045
 20
-9.2536107072
 11
-5.5713406097
 21
-6.9549301744
  0
LINE
  5
2C3
100
AcDbEntity
  8
RACCORDO
100
AcDbLine
 62
253
  6
CONTINUOUS
 10
-5.2916691598
 20
-8.6807708645
 11
-5.321492903
 21
-6.849275609
  0
LINE
  5
2C4
100
AcDbEntity
  8
ASSI
100
AcDbLine
 62
253
  6
CONTINUOUS
 10
-5.2916691598
 20
-8.6807708645
 11
-5.321492903
 21
-6.849275609
  0
LINE
  5
2C5
100
AcDbEntity
  8
RACCORDO
100
AcDbLine
 62
253
  6
CONTINUOUS
 10
-5.9613118825
 20
-4.8189108807
 11
-5.9613118825
 21
-6.2044280025
  0
LINE
  5
2C6
100
AcDbEntity
  8
ASSI
100
AcDbLine
 62
253
  6
CONTINUOUS
 10
-5.9613118825
 20
-4.8189108807
 11
-5.9613118825
 21
-6.2044280025
  0
LINE
  5
2C7
100
AcDbEntity
  8
RACCORDO
100
AcDbLine
 62
7
  6
CONTINUOUS
 10
-5.9319339078
 20
-9.4604762533
 11
-5.9319339078
 21
-8.6807708645
  0
LINE
  5
2C8
100
AcDbEntity
  8
ASSI
100
AcDbLine
 62
7
  6
CONTINUOUS
 10
-5.9319339078
 20
-9.4604762533
 11
-5.9319339078
 21
-8.6807708645
  0
LINE
  5
2C9
100
AcDbEntity
  8
RACCORDO
100
AcDbLine
 62
253
  6
CONTINUOUS
 10
-5.9019465744
 20
-6.5461388512
 11
-5.9019465744
 21
-6.8281446959
  0
LINE
  5
2CA
100
AcDbEntity
  8
ASSI
100
AcDbLine
 62
253
  6
CONTINUOUS
 10
-5.9019465744
 20
-6.5461388512
 11
-5.9019465744
 21
-6.8281446959
  0
LINE
  5
2CB
100
AcDbEntity
  8
RACCORDO
100
AcDbLine
 62
253
  6
CONTINUOUS
 10
-5.7114641757
 20
-4.8189108807
 11
-5.7114641757
 21
-5.9947587057
  0
LINE
  5
2CC
100
AcDbEntity
  8
ASSI
100
AcDbLine
 62
253
  6
CONTINUOUS
 10
-5.7114641757
 20
-4.8189108807
 11
-5.7114641757
 21
-5.9947587057
  0
LINE
  5
2CD
100
AcDbEntity
  8
RACCORDO
100
AcDbLine
 62
253
  6
CONTINUOUS
 10
-5.6520988676
 20
-6.5461388512
 11
-5.6520988676
 21
-6.8281446959
  0
LINE
  5
2CE
100
AcDbEntity
  8
ASSI
100
AcDbLine
 62
253
  6
CONTINUOUS
 10
-5.6520988676
 20
-6.5461388512
 11
-5.6520988676
 21
-6.8281446959
  0
LINE
  5
2CF
100
AcDbEntity
  8
RACCORDO
100
AcDbLine
 62
253
  6
CONTINUOUS
 10
-5.5715041999
 20
-6.8281446959
 11
-5.5715041999
 21
-6.5461388512
  0
LINE
  5
2D0
100
AcDbEntity
  8
ASSI
100
AcDbLine
 62
253
  6
CONTINUOUS
 10
-5.5715041999
 20
-6.8281446959
 11
-5.5715041999
 21
-6.5461388512
  0
LINE
  5
2D1
100
AcDbEntity
  8
RACCORDO
100
AcDbLine
 62
253
  6
CONTINUOUS
 10
-5.5121388918
 20
-5.9947587057
 11
-5.5121388918
 21
-4.8189108807
  0
LINE
  5
2D2
100
AcDbEntity
  8
ASSI
100
AcDbLine
 62
253
  6
CONTINUOUS
 10
-5.5121388918
 20
-5.9947587057
 11
-5.5121388918
 21
-4.8189108807
  0
LINE
  5
2D3
100
AcDbEntity
  8
RACCORDO
100
AcDbLine
 62
253
  6
CONTINUOUS
 10
-5.3216564932
 20
-6.8281446959
 11
-5.3216564932
 21
-6.5461388512
  0
LINE
  5
2D4
100
AcDbEntity
  8
ASSI
100
AcDbLine
 62
253
  6
CONTINUOUS
 10
-5.3216564932
 20
-6.8281446959
 11
-5.3216564932
 21
-6.5461388512
  0
LINE
  5
2D5
100
AcDbEntity
  8
RACCORDO
100
AcDbLine
 62
7
  6
CONTINUOUS
 10
-5.2916691598
 20
-8.6807708645
 11
-5.2916691598
 21
-9.4604762533
  0
LINE
  5
2D6
100
AcDbEntity
  8
ASSI
100
AcDbLine
 62
7
  6
CONTINUOUS
 10
-5.2916691598
 20
-8.6807708645
 11
-5.2916691598
 21
-9.4604762533
  0
LINE
  5
2D7
100
AcDbEntity
  8
RACCORDO
100
AcDbLine
 62
253
  6
CONTINUOUS
 10
-5.262291185
 20
-6.2044280025
 11
-5.262291185
 21
-4.8189108807
  0
LINE
  5
2D8
100
AcDbEntity
  8
ASSI
100
AcDbLine
 62
253
  6
CONTINUOUS
 10
-5.262291185
 20
-6.2044280025
 11
-5.262291185
 21
-4.8189108807
  0
LINE
  5
2D9
100
AcDbEntity
  8
RACCORDO
100
AcDbLine
 62
253
  6
CONTINUOUS
 10
-5.9021101646
 20
-6.849275609
 11
-5.9319339078
 21
-8.6807708645
  0
LINE
  5
2DA
100
AcDbEntity
  8
ASSI
100
AcDbLine
 62
253
  6
CONTINUOUS
 10
-5.9021101646
 20
-6.849275609
 11
-5.9319339078
 21
-8.6807708645
  0
LINE
  5
2DB
100
AcDbEntity
  8
RACCORDO
100
AcDbLine
 62
253
  6
CONTINUOUS
 10
-5.6522624578
 20
-6.9549301744
 11
-5.689693763
 21
-9.2536107072
  0
LINE
  5
2DC
100
AcDbEntity
  8
ASSI
100
AcDbLine
 62
253
  6
CONTINUOUS
 10
-5.6522624578
 20
-6.9549301744
 11
-5.689693763
 21
-9.2536107072
  0
LINE
  5
2DD
100
AcDbEntity
  8
DRAFT
100
AcDbLine
 62
7
  6
CONTINUOUS
 10
8.5006644568
 20
9.9375956856
 11
8.2381984662
 21
9.8328333771
  0
LINE
  5
2DE
100
AcDbEntity
  8
ASSI
100
AcDbLine
 62
7
  6
CONTINUOUS
 10
8.5006644568
 20
9.9375956856
 11
8.2381984662
 21
9.8328333771
  0
LINE
  5
2DF
100
AcDbEntity
  8
0
100
AcDbLine
 62
7
  6
CONTINUOUS
 10
1.5818154972
 20
-6.1108190947
 11
1.3647941958
 21
-6.1108190947
  0
LINE
  5
2E0
100
AcDbEntity
  8
ASSI
100
AcDbLine
 62
7
  6
CONTINUOUS
 10
1.5818154972
 20
-6.1108190947
 11
1.3647941958
 21
-6.1108190947
  0
LINE
  5
2E1
100
AcDbEntity
  8
RACCORDO
100
AcDbLine
 62
7
  6
CONTINUOUS
 10
-5.7042499654
 20
-5.9946530947
 11
-5.5193531022
 21
-5.9946530947
  0
LINE
  5
2E2
100
AcDbEntity
  8
ASSI
100
AcDbLine
 62
7
  6
CONTINUOUS
 10
-5.7042499654
 20
-5.9946530947
 11
-5.5193531022
 21
-5.9946530947
  0
LINE
  5
2E3
100
AcDbEntity
  8
RACCORDO
100
AcDbLine
 62
7
  6
CONTINUOUS
 10
5.6806468978
 20
-5.9946530947
 11
5.4957500346
 21
-5.9946530947
  0
LINE
  5
2E4
100
AcDbEntity
  8
ASSI
100
AcDbLine
 62
7
  6
CONTINUOUS
 10
5.6806468978
 20
-5.9946530947
 11
5.4957500346
 21
-5.9946530947
  0
LINE
  5
2E5
100
AcDbEntity
  8
0
100
AcDbLine
 62
7
  6
CONTINUOUS
 10
1.6541559141
 20
-5.8274858289
 11
1.5456452887
 21
-5.8274858289
  0
LINE
  5
2E6
100
AcDbEntity
  8
ASSI
100
AcDbLine
 62
7
  6
CONTINUOUS
 10
1.6541559141
 20
-5.8274858289
 11
1.5456452887
 21
-5.8274858289
  0
LINE
  5
2E7
100
AcDbEntity
  8
0
100
AcDbLine
 62
7
  6
CONTINUOUS
 10
0.9307516944
 20
-5.7920690947
 11
0.822241069
 21
-5.7920690947
  0
LINE
  5
2E8
100
AcDbEntity
  8
ASSI
100
AcDbLine
 62
7
  6
CONTINUOUS
 10
0.9307516944
 20
-5.7920690947
 11
0.822241069
 21
-5.7920690947
  0
LINE
  5
2E9
100
AcDbEntity
  8
0
100
AcDbLine
 62
7
  6
CONTINUOUS
 10
1.6541559141
 20
-5.6504023605
 11
1.5456452887
 21
-5.6504023605
  0
LINE
  5
2EA
100
AcDbEntity
  8
ASSI
100
AcDbLine
 62
7
  6
CONTINUOUS
 10
1.6541559141
 20
-5.6504023605
 11
1.5456452887
 21
-5.6504023605
  0
LINE
  5
2EB
100
AcDbEntity
  8
0
100
AcDbLine
 62
7
  6
CONTINUOUS
 10
0.8945814859
 20
-5.6149858289
 11
0.822241069
 21
-5.6149858289
  0
LINE
  5
2EC
100
AcDbEntity
  8
ASSI
100
AcDbLine
 62
7
  6
CONTINUOUS
 10
0.8945814859
 20
-5.6149858289
 11
0.822241069
 21
-5.6149858289
  0
LINE
  5
2ED
100
AcDbEntity
  8
0
100
AcDbLine
 62
7
  6
CONTINUOUS
 10
-1.5394795338
 20
-5.7442850947
 11
-0.4295005338
 21
-5.8208570947
  0
LINE
  5
2EE
100
AcDbEntity
  8
ASSI
100
AcDbLine
 62
7
  6
CONTINUOUS
 10
-1.5394795338
 20
-5.7442850947
 11
-0.4295005338
 21
-5.8208570947
  0
LINE
  5
2EF
100
AcDbEntity
  8
0
100
AcDbLine
 62
7
  6
CONTINUOUS
 10
-2.1293635338
 20
-4.9463810947
 11
-1.1855945338
 21
-5.3012090947
  0
LINE
  5
2F0
100
AcDbEntity
  8
ASSI
100
AcDbLine
 62
7
  6
CONTINUOUS
 10
-2.1293635338
 20
-4.9463810947
 11
-1.1855945338
 21
-5.3012090947
  0
LINE
  5
2F1
100
AcDbEntity
  8
0
100
AcDbLine
 62
7
  6
CONTINUOUS
 10
0.3881984662
 20
-8.0233190947
 11
0.6413899254
 21
-8.2358190947
  0
LINE
  5
2F2
100
AcDbEntity
  8
ASSI
100
AcDbLine
 62
7
  6
CONTINUOUS
 10
0.3881984662
 20
-8.0233190947
 11
0.6413899254
 21
-8.2358190947
  0
LINE
  5
2F3
100
AcDbEntity
  8
0
100
AcDbLine
 62
7
  6
CONTINUOUS
 10
0.6775601339
 20
-8.0233190947
 11
0.9307516944
 21
-8.2358190947
  0
LINE
  5
2F4
100
AcDbEntity
  8
ASSI
100
AcDbLine
 62
7
  6
CONTINUOUS
 10
0.6775601339
 20
-8.0233190947
 11
0.9307516944
 21
-8.2358190947
  0
LINE
  5
2F5
100
AcDbEntity
  8
ASSI
100
AcDbLine
 62
253
  6
CONTINUOUS
 10
-4.3647014622
 20
5.7919173502
 11
-4.3700461051
 21
7.4192894536
  0
LINE
  5
2F6
100
AcDbEntity
  8
RACCORDO
100
AcDbLine
 62
253
  6
CONTINUOUS
 10
-5.5700613579
 20
-6.2506965253
 11
-5.5193531022
 21
-5.9946530947
  0
LINE
  5
2F7
100
AcDbEntity
  8
ASSI
100
AcDbLine
 62
253
  6
CONTINUOUS
 10
-5.5700613579
 20
-6.2506965253
 11
-5.5193531022
 21
-5.9946530947
  0
LINE
  5
2F8
100
AcDbEntity
  8
0
100
AcDbLine
 62
7
  6
CONTINUOUS
 10
-2.1293635338
 20
-4.5953140947
 11
-0.4295005338
 21
-4.4363570947
  0
LINE
  5
2F9
100
AcDbEntity
  8
ASSI
100
AcDbLine
 62
7
  6
CONTINUOUS
 10
-2.1293635338
 20
-4.5953140947
 11
-0.4295005338
 21
-4.4363570947
  0
LINE
  5
2FA
100
AcDbEntity
  8
0
100
AcDbLine
 62
7
  6
CONTINUOUS
 10
-1.5348525338
 20
-4.8563740947
 11
-0.4295005338
 21
-4.7834730947
  0
LINE
  5
2FB
100
AcDbEntity
  8
ASSI
100
AcDbLine
 62
7
  6
CONTINUOUS
 10
-1.5348525338
 20
-4.8563740947
 11
-0.4295005338
 21
-4.7834730947
  0
LINE
  5
2FC
100
AcDbEntity
  8
RACCORDO
100
AcDbLine
 62
253
  6
CONTINUOUS
 10
5.2386881175
 20
-4.8189108807
 11
5.937708815
 21
-4.8189108807
  0
LINE
  5
2FD
100
AcDbEntity
  8
ASSI
100
AcDbLine
 62
253
  6
CONTINUOUS
 10
5.2386881175
 20
-4.8189108807
 11
5.937708815
 21
-4.8189108807
  0
LINE
  5
2FE
100
AcDbEntity
  8
RACCORDO
100
AcDbLine
 62
253
  6
CONTINUOUS
 10
-5.262291185
 20
-4.8189108807
 11
-5.9613118825
 21
-4.8189108807
  0
LINE
  5
2FF
100
AcDbEntity
  8
ASSI
100
AcDbLine
 62
253
  6
CONTINUOUS
 10
-5.262291185
 20
-4.8189108807
 11
-5.9613118825
 21
-4.8189108807
  0
LINE
  5
300
100
AcDbEntity
  8
0
100
AcDbLine
 62
7
  6
CONTINUOUS
 10
0.8945814859
 20
-4.7649856262
 11
0.822241069
 21
-4.7649856262
  0
LINE
  5
301
100
AcDbEntity
  8
ASSI
100
AcDbLine
 62
7
  6
CONTINUOUS
 10
0.8945814859
 20
-4.7649856262
 11
0.822241069
 21
-4.7649856262
  0
LINE
  5
302
100
AcDbEntity
  8
0
100
AcDbLine
 62
7
  6
CONTINUOUS
 10
1.6541559141
 20
-4.7295690947
 11
1.5456452887
 21
-4.7295690947
  0
LINE
  5
303
100
AcDbEntity
  8
ASSI
100
AcDbLine
 62
7
  6
CONTINUOUS
 10
1.6541559141
 20
-4.7295690947
 11
1.5456452887
 21
-4.7295690947
  0
LINE
  5
304
100
AcDbEntity
  8
0
100
AcDbLine
 62
7
  6
CONTINUOUS
 10
0.9307516944
 20
-4.5879025631
 11
0.822241069
 21
-4.5879025631
  0
LINE
  5
305
100
AcDbEntity
  8
ASSI
100
AcDbLine
 62
7
  6
CONTINUOUS
 10
0.9307516944
 20
-4.5879025631
 11
0.822241069
 21
-4.5879025631
  0
LINE
  5
306
100
AcDbEntity
  8
0
100
AcDbLine
 62
7
  6
CONTINUOUS
 10
1.6541559141
 20
-4.5524856262
 11
1.5456452887
 21
-4.5524856262
  0
LINE
  5
307
100
AcDbEntity
  8
ASSI
100
AcDbLine
 62
7
  6
CONTINUOUS
 10
1.6541559141
 20
-4.5524856262
 11
1.5456452887
 21
-4.5524856262
  0
LINE
  5
308
100
AcDbEntity
  8
RACCORDO
100
AcDbLine
 62
253
  6
CONTINUOUS
 10
5.6895771325
 20
-4.518956343
 11
5.4868198
 21
-4.518956343
  0
LINE
  5
309
100
AcDbEntity
  8
ASSI
100
AcDbLine
 62
253
  6
CONTINUOUS
 10
5.6895771325
 20
-4.518956343
 11
5.4868198
 21
-4.518956343
  0
LINE
  5
30A
100
AcDbEntity
  8
RACCORDO
100
AcDbLine
 62
253
  6
CONTINUOUS
 10
-5.5104228675
 20
-4.518956343
 11
-5.7131802
 21
-4.518956343
  0
LINE
  5
30B
100
AcDbEntity
  8
ASSI
100
AcDbLine
 62
253
  6
CONTINUOUS
 10
-5.5104228675
 20
-4.518956343
 11
-5.7131802
 21
-4.518956343
  0
LINE
  5
30C
100
AcDbEntity
  8
RACCORDO
100
AcDbLine
 62
7
  6
CONTINUOUS
 10
5.7440941383
 20
-4.4917061452
 11
5.4323027941
 21
-4.4917061452
  0
LINE
  5
30D
100
AcDbEntity
  8
ASSI
100
AcDbLine
 62
7
  6
CONTINUOUS
 10
5.7440941383
 20
-4.4917061452
 11
5.4323027941
 21
-4.4917061452
  0
LINE
  5
30E
100
AcDbEntity
  8
RACCORDO
100
AcDbLine
 62
7
  6
CONTINUOUS
 10
-5.4559058617
 20
-4.4917061452
 11
-5.7676972059
 21
-4.4917061452
  0
LINE
  5
30F
100
AcDbEntity
  8
ASSI
100
AcDbLine
 62
7
  6
CONTINUOUS
 10
-5.4559058617
 20
-4.4917061452
 11
-5.7676972059
 21
-4.4917061452
  0
LINE
  5
310
100
AcDbEntity
  8
0
100
AcDbLine
 62
7
  6
CONTINUOUS
 10
1.5818154972
 20
-4.2691525631
 11
1.3647941958
 21
-4.2691525631
  0
LINE
  5
311
100
AcDbEntity
  8
ASSI
100
AcDbLine
 62
7
  6
CONTINUOUS
 10
1.5818154972
 20
-4.2691525631
 11
1.3647941958
 21
-4.2691525631
  0
LINE
  5
312
100
AcDbEntity
  8
0
100
AcDbLine
 62
7
  6
CONTINUOUS
 10
-2.1293635338
 20
-3.8474550947
 11
-0.4295005338
 21
-4.3806400947
  0
LINE
  5
313
100
AcDbEntity
  8
ASSI
100
AcDbLine
 62
7
  6
CONTINUOUS
 10
-2.1293635338
 20
-3.8474550947
 11
-0.4295005338
 21
-4.3806400947
  0
LINE
  5
314
100
AcDbEntity
  8
0
100
AcDbLine
 62
7
  6
CONTINUOUS
 10
-1.5348525338
 20
-4.8563740947
 11
-0.4295005338
 21
-5.2782650947
  0
LINE
  5
315
100
AcDbEntity
  8
ASSI
100
AcDbLine
 62
7
  6
CONTINUOUS
 10
-1.5348525338
 20
-4.8563740947
 11
-0.4295005338
 21
-5.2782650947
  0
LINE
  5
316
100
AcDbEntity
  8
0
100
AcDbLine
 62
7
  6
CONTINUOUS
 10
0.6413899254
 20
-5.7212358289
 11
0.822241069
 21
-5.7920690947
  0
LINE
  5
317
100
AcDbEntity
  8
ASSI
100
AcDbLine
 62
7
  6
CONTINUOUS
 10
0.6413899254
 20
-5.7212358289
 11
0.822241069
 21
-5.7920690947
  0
LINE
  5
318
100
AcDbEntity
  8
0
100
AcDbLine
 62
7
  6
CONTINUOUS
 10
1.3647941958
 20
-5.7566523605
 11
1.5456452887
 21
-5.8274858289
  0
LINE
  5
319
100
AcDbEntity
  8
ASSI
100
AcDbLine
 62
7
  6
CONTINUOUS
 10
1.3647941958
 20
-5.7566523605
 11
1.5456452887
 21
-5.8274858289
  0
LINE
  5
31A
100
AcDbEntity
  8
0
100
AcDbLine
 62
7
  6
CONTINUOUS
 10
0.7137303423
 20
-5.5441523605
 11
0.822241069
 21
-5.6149858289
  0
LINE
  5
31B
100
AcDbEntity
  8
ASSI
100
AcDbLine
 62
7
  6
CONTINUOUS
 10
0.7137303423
 20
-5.5441523605
 11
0.822241069
 21
-5.6149858289
  0
LINE
  5
31C
100
AcDbEntity
  8
0
100
AcDbLine
 62
7
  6
CONTINUOUS
 10
0.3881984662
 20
-6.6774857276
 11
1.3647941958
 21
-7.5274857782
  0
LINE
  5
31D
100
AcDbEntity
  8
ASSI
100
AcDbLine
 62
7
  6
CONTINUOUS
 10
0.3881984662
 20
-6.6774857276
 11
1.3647941958
 21
-7.5274857782
  0
LINE
  5
31E
100
AcDbEntity
  8
0
100
AcDbLine
 62
7
  6
CONTINUOUS
 10
0.6775601339
 20
-6.6774857276
 11
1.3647941958
 21
-7.2795690947
  0
LINE
  5
31F
100
AcDbEntity
  8
ASSI
100
AcDbLine
 62
7
  6
CONTINUOUS
 10
0.6775601339
 20
-6.6774857276
 11
1.3647941958
 21
-7.2795690947
  0
LINE
  5
320
100
AcDbEntity
  8
RACCORDO
100
AcDbLine
 62
7
  6
CONTINUOUS
 10
-9.9118015338
 20
9.9375956856
 11
-9.8419502896
 21
9.7978506198
  0
LINE
  5
321
100
AcDbEntity
  8
ASSI
100
AcDbLine
 62
7
  6
CONTINUOUS
 10
-9.9118015338
 20
9.9375956856
 11
-9.8419502896
 21
9.7978506198
  0
LINE
  5
322
100
AcDbEntity
  8
RACCORDO
100
AcDbLine
 62
253
  6
CONTINUOUS
 10
-3.9272715876
 20
-9.4604762533
 11
-3.9272715876
 21
-11.0168918645
  0
LINE
  5
323
100
AcDbEntity
  8
ASSI
100
AcDbLine
 62
253
  6
CONTINUOUS
 10
-3.9272715876
 20
-9.4604762533
 11
-3.9272715876
 21
-11.0168918645
  0
LINE
  5
324
100
AcDbEntity
  8
RACCORDO
100
AcDbLine
 62
253
  6
CONTINUOUS
 10
-3.8336470585
 20
7.3812615055
 11
-3.8336470585
 21
5.8294323052
  0
LINE
  5
325
100
AcDbEntity
  8
ASSI
100
AcDbLine
 62
253
  6
CONTINUOUS
 10
-3.8336470585
 20
7.3812615055
 11
-3.8336470585
 21
5.8294323052
  0
LINE
  5
326
100
AcDbEntity
  8
RACCORDO
100
AcDbLine
 62
253
  6
CONTINUOUS
 10
-3.7540665069
 20
-9.4727547094
 11
-3.7540665069
 21
-11.0221326424
  0
LINE
  5
327
100
AcDbEntity
  8
ASSI
100
AcDbLine
 62
253
  6
CONTINUOUS
 10
-3.7540665069
 20
-9.4727547094
 11
-3.7540665069
 21
-11.0221326424
  0
LINE
  5
328
100
AcDbEntity
  8
RACCORDO
100
AcDbLine
 62
253
  6
CONTINUOUS
 10
-3.5517392723
 20
7.3743683566
 11
-3.5517392723
 21
5.8363254541
  0
LINE
  5
329
100
AcDbEntity
  8
ASSI
100
AcDbLine
 62
253
  6
CONTINUOUS
 10
-3.5517392723
 20
7.3743683566
 11
-3.5517392723
 21
5.8363254541
  0
LINE
  5
32A
100
AcDbEntity
  8
DRAFT
100
AcDbLine
 62
7
  6
CONTINUOUS
 10
-3.0814372942
 20
7.3743683566
 11
-3.0814372942
 21
5.8363254541
  0
LINE
  5
32B
100
AcDbEntity
  8
ASSI
100
AcDbLine
 62
7
  6
CONTINUOUS
 10
-3.0814372942
 20
7.3743683566
 11
-3.0814372942
 21
5.8363254541
  0
LINE
  5
32C
100
AcDbEntity
  8
DRAFT
100
AcDbLine
 62
7
  6
CONTINUOUS
 10
-3.0118015338
 20
2.5571573043
 11
-3.0118015338
 21
5.8188650693
  0
LINE
  5
32D
100
AcDbEntity
  8
ASSI
100
AcDbLine
 62
7
  6
CONTINUOUS
 10
-3.0118015338
 20
2.5571573043
 11
-3.0118015338
 21
5.8188650693
  0
LINE
  5
32E
100
AcDbEntity
  8
DRAFT
100
AcDbLine
 62
7
  6
CONTINUOUS
 10
-3.0118015338
 20
7.3918287413
 11
-3.0118015338
 21
9.1412945324
  0
LINE
  5
32F
100
AcDbEntity
  8
ASSI
100
AcDbLine
 62
7
  6
CONTINUOUS
 10
-3.0118015338
 20
7.3918287413
 11
-3.0118015338
 21
9.1412945324
  0
LINE
  5
330
100
AcDbEntity
  8
RACCORDO
100
AcDbLine
 62
253
  6
CONTINUOUS
 10
-5.3202136511
 20
-6.4968984636
 11
-5.262291185
 21
-6.2044280025
  0
LINE
  5
331
100
AcDbEntity
  8
ASSI
100
AcDbLine
 62
253
  6
CONTINUOUS
 10
-5.3202136511
 20
-6.4968984636
 11
-5.262291185
 21
-6.2044280025
  0
LINE
  5
332
100
AcDbEntity
  8
0
100
AcDbLine
 62
7
  6
CONTINUOUS
 10
-0.7688535338
 20
-3.4485340947
 11
-0.4295005338
 21
-3.3566150947
  0
LINE
  5
333
100
AcDbEntity
  8
ASSI
100
AcDbLine
 62
7
  6
CONTINUOUS
 10
-0.7688535338
 20
-3.4485340947
 11
-0.4295005338
 21
-3.3566150947
  0
LINE
  5
334
100
AcDbEntity
  8
0
100
AcDbLine
 62
7
  6
CONTINUOUS
 10
-1.6622845338
 20
-3.6824950947
 11
-1.0314435338
 21
-3.5194470947
  0
LINE
  5
335
100
AcDbEntity
  8
ASSI
100
AcDbLine
 62
7
  6
CONTINUOUS
 10
-1.6622845338
 20
-3.6824950947
 11
-1.0314435338
 21
-3.5194470947
  0
LINE
  5
336
100
AcDbEntity
  8
0
100
AcDbLine
 62
7
  6
CONTINUOUS
 10
2.0881984662
 20
-3.4191525631
 11
1.5818154972
 21
-3.4191525631
  0
LINE
  5
337
100
AcDbEntity
  8
ASSI
100
AcDbLine
 62
7
  6
CONTINUOUS
 10
2.0881984662
 20
-3.4191525631
 11
1.5818154972
 21
-3.4191525631
  0
LINE
  5
338
100
AcDbEntity
  8
0
100
AcDbLine
 62
7
  6
CONTINUOUS
 10
1.3647941958
 20
-3.4191525631
 11
0.6775601339
 21
-3.4191525631
  0
LINE
  5
339
100
AcDbEntity
  8
ASSI
100
AcDbLine
 62
7
  6
CONTINUOUS
 10
1.3647941958
 20
-3.4191525631
 11
0.6775601339
 21
-3.4191525631
  0
LINE
  5
33A
100
AcDbEntity
  8
0
100
AcDbLine
 62
7
  6
CONTINUOUS
 10
2.0881984662
 20
-3.2066525631
 11
1.5818154972
 21
-3.2066525631
  0
LINE
  5
33B
100
AcDbEntity
  8
ASSI
100
AcDbLine
 62
7
  6
CONTINUOUS
 10
2.0881984662
 20
-3.2066525631
 11
1.5818154972
 21
-3.2066525631
  0
LINE
  5
33C
100
AcDbEntity
  8
0
100
AcDbLine
 62
7
  6
CONTINUOUS
 10
1.3647941958
 20
-3.2066525631
 11
0.3881984662
 21
-3.2066525631
  0
LINE
  5
33D
100
AcDbEntity
  8
ASSI
100
AcDbLine
 62
7
  6
CONTINUOUS
 10
1.3647941958
 20
-3.2066525631
 11
0.3881984662
 21
-3.2066525631
  0
LINE
  5
33E
100
AcDbEntity
  8
0
100
AcDbLine
 62
7
  6
CONTINUOUS
 10
-1.6622845338
 20
-3.6824950947
 11
-1.0314435338
 21
-3.8591690947
  0
LINE
  5
33F
100
AcDbEntity
  8
ASSI
100
AcDbLine
 62
7
  6
CONTINUOUS
 10
-1.6622845338
 20
-3.6824950947
 11
-1.0314435338
 21
-3.8591690947
  0
LINE
  5
340
100
AcDbEntity
  8
0
100
AcDbLine
 62
7
  6
CONTINUOUS
 10
-0.7688535338
 20
-3.9317510947
 11
-0.4295005338
 21
-4.0296620947
  0
LINE
  5
341
100
AcDbEntity
  8
ASSI
100
AcDbLine
 62
7
  6
CONTINUOUS
 10
-0.7688535338
 20
-3.9317510947
 11
-0.4295005338
 21
-4.0296620947
  0
LINE
  5
342
100
AcDbEntity
  8
0
100
AcDbLine
 62
7
  6
CONTINUOUS
 10
1.6541559141
 20
-4.5524856262
 11
1.8350069817
 21
-4.6233190947
  0
LINE
  5
343
100
AcDbEntity
  8
ASSI
100
AcDbLine
 62
7
  6
CONTINUOUS
 10
1.6541559141
 20
-4.5524856262
 11
1.8350069817
 21
-4.6233190947
  0
LINE
  5
344
100
AcDbEntity
  8
0
100
AcDbLine
 62
7
  6
CONTINUOUS
 10
0.9307516944
 20
-4.5879025631
 11
1.0754325282
 21
-4.6587356262
  0
LINE
  5
345
100
AcDbEntity
  8
ASSI
100
AcDbLine
 62
7
  6
CONTINUOUS
 10
0.9307516944
 20
-4.5879025631
 11
1.0754325282
 21
-4.6587356262
  0
LINE
  5
346
100
AcDbEntity
  8
0
100
AcDbLine
 62
7
  6
CONTINUOUS
 10
0.8945814859
 20
-4.7649856262
 11
1.0030921113
 21
-4.8358190947
  0
LINE
  5
347
100
AcDbEntity
  8
ASSI
100
AcDbLine
 62
7
  6
CONTINUOUS
 10
0.8945814859
 20
-4.7649856262
 11
1.0030921113
 21
-4.8358190947
  0
LINE
  5
348
100
AcDbEntity
  8
0
100
AcDbLine
 62
7
  6
CONTINUOUS
 10
1.4009644043
 20
-5.5441523605
 11
1.5456452887
 21
-5.6504023605
  0
LINE
  5
349
100
AcDbEntity
  8
ASSI
100
AcDbLine
 62
7
  6
CONTINUOUS
 10
1.4009644043
 20
-5.5441523605
 11
1.5456452887
 21
-5.6504023605
  0
LINE
  5
34A
100
AcDbEntity
  8
0
100
AcDbLine
 62
7
  6
CONTINUOUS
 10
0.5328793
 20
-5.6149858289
 11
0.6413899254
 21
-5.7212358289
  0
LINE
  5
34B
100
AcDbEntity
  8
ASSI
100
AcDbLine
 62
7
  6
CONTINUOUS
 10
0.5328793
 20
-5.6149858289
 11
0.6413899254
 21
-5.7212358289
  0
LINE
  5
34C
100
AcDbEntity
  8
DRAFT
100
AcDbLine
 62
7
  6
CONTINUOUS
 10
-2.9792565987
 20
4.1878918404
 11
-2.9792565987
 21
5.8188650693
  0
LINE
  5
34D
100
AcDbEntity
  8
DRAFT
100
AcDbLine
 62
7
  6
CONTINUOUS
 10
-2.9792565987
 20
7.3918287413
 11
-2.9792565987
 21
9.0228019703
  0
LINE
  5
34E
100
AcDbEntity
  8
DRAFT
100
AcDbLine
 62
7
  6
CONTINUOUS
 10
-2.9118015338
 20
7.3828284359
 11
-2.9118015338
 21
5.8278653748
  0
LINE
  5
34F
100
AcDbEntity
  8
ASSI
100
AcDbLine
 62
7
  6
CONTINUOUS
 10
-2.9118015338
 20
7.3828284359
 11
-2.9118015338
 21
5.8278653748
  0
LINE
  5
350
100
AcDbEntity
  8
DRAFT
100
AcDbLine
 62
7
  6
CONTINUOUS
 10
-2.5118015338
 20
4.1878918404
 11
-2.5118015338
 21
9.0228019703
  0
LINE
  5
351
100
AcDbEntity
  8
DRAFT
100
AcDbLine
 62
7
  6
CONTINUOUS
 10
-2.5083105208
 20
9.0262929832
 11
-2.5083105208
 21
4.1844008274
  0
LINE
  5
352
100
AcDbEntity
  8
0
100
AcDbLine
 62
7
  6
CONTINUOUS
 10
-2.1294655338
 20
-6.3513270947
 11
-2.1294655338
 21
-6.7061550947
  0
LINE
  5
353
100
AcDbEntity
  8
ASSI
100
AcDbLine
 62
7
  6
CONTINUOUS
 10
-2.1294655338
 20
-6.3513270947
 11
-2.1294655338
 21
-6.7061550947
  0
LINE
  5
354
100
AcDbEntity
  8
0
100
AcDbLine
 62
7
  6
CONTINUOUS
 10
-2.1293635338
 20
-3.5042010947
 11
-2.1293635338
 21
-3.8474550947
  0
LINE
  5
355
100
AcDbEntity
  8
ASSI
100
AcDbLine
 62
7
  6
CONTINUOUS
 10
-2.1293635338
 20
-3.5042010947
 11
-2.1293635338
 21
-3.8474550947
  0
LINE
  5
356
100
AcDbEntity
  8
0
100
AcDbLine
 62
7
  6
CONTINUOUS
 10
-2.1293635338
 20
-4.5953140947
 11
-2.1293635338
 21
-4.9463810947
  0
LINE
  5
357
100
AcDbEntity
  8
ASSI
100
AcDbLine
 62
7
  6
CONTINUOUS
 10
-2.1293635338
 20
-4.5953140947
 11
-2.1293635338
 21
-4.9463810947
  0
LINE
  5
358
100
AcDbEntity
  8
0
100
AcDbLine
 62
7
  6
CONTINUOUS
 10
-2.1293635338
 20
-5.6522900947
 11
-2.1293635338
 21
-6.0068250947
  0
LINE
  5
359
100
AcDbEntity
  8
ASSI
100
AcDbLine
 62
7
  6
CONTINUOUS
 10
-2.1293635338
 20
-5.6522900947
 11
-2.1293635338
 21
-6.0068250947
  0
LINE
  5
35A
100
AcDbEntity
  8
0
100
AcDbLine
 62
7
  6
CONTINUOUS
 10
-2.1293635338
 20
-6.8378330947
 11
-2.1293635338
 21
-7.1924190947
  0
LINE
  5
35B
100
AcDbEntity
  8
ASSI
100
AcDbLine
 62
7
  6
CONTINUOUS
 10
-2.1293635338
 20
-6.8378330947
 11
-2.1293635338
 21
-7.1924190947
  0
LINE
  5
35C
100
AcDbEntity
  8
0
100
AcDbLine
 62
7
  6
CONTINUOUS
 10
-2.1293635338
 20
-7.8503660947
 11
-2.1293635338
 21
-8.2358190947
  0
LINE
  5
35D
100
AcDbEntity
  8
ASSI
100
AcDbLine
 62
7
  6
CONTINUOUS
 10
-2.1293635338
 20
-7.8503660947
 11
-2.1293635338
 21
-8.2358190947
  0
LINE
  5
35E
100
AcDbEntity
  8
DRAFT
100
AcDbLine
 62
7
  6
CONTINUOUS
 10
-3.4033765408
 20
-11.0539658004
 11
-3.328083057
 21
-9.5633482254
  0
LINE
  5
35F
100
AcDbEntity
  8
ASSI
100
AcDbLine
 62
7
  6
CONTINUOUS
 10
-3.4033765408
 20
-11.0539658004
 11
-3.328083057
 21
-9.5633482254
  0
LINE
  5
360
100
AcDbEntity
  8
RACCORDO
100
AcDbLine
 62
7
  6
CONTINUOUS
 10
-5.2176884566
 20
-9.2003534584
 11
-5.2916691598
 21
-9.4604762533
  0
LINE
  5
361
100
AcDbEntity
  8
ASSI
100
AcDbLine
 62
7
  6
CONTINUOUS
 10
-5.2176884566
 20
-9.2003534584
 11
-5.2916691598
 21
-9.4604762533
  0
LINE
  5
362
100
AcDbEntity
  8
RACCORDO
100
AcDbLine
 62
7
  6
CONTINUOUS
 10
6.7238405232
 20
9.7909889623
 11
6.7555743223
 21
9.8227227614
  0
LINE
  5
363
100
AcDbEntity
  8
ASSI
100
AcDbLine
 62
7
  6
CONTINUOUS
 10
6.7238405232
 20
9.7909889623
 11
6.7555743223
 21
9.8227227614
  0
LINE
  5
364
100
AcDbEntity
  8
DRAFT
100
AcDbLine
 62
7
  6
CONTINUOUS
 10
-9.8949246347
 20
-2.9946530947
 11
-9.5118015338
 21
-2.9946530947
  0
LINE
  5
365
100
AcDbEntity
  8
ASSI
100
AcDbLine
 62
7
  6
CONTINUOUS
 10
-9.8949246347
 20
-2.9946530947
 11
-9.5118015338
 21
-2.9946530947
  0
LINE
  5
366
100
AcDbEntity
  8
DRAFT
100
AcDbLine
 62
7
  6
CONTINUOUS
 10
9.4881984662
 20
-2.9946530947
 11
9.8713215672
 21
-2.9946530947
  0
LINE
  5
367
100
AcDbEntity
  8
ASSI
100
AcDbLine
 62
7
  6
CONTINUOUS
 10
9.4881984662
 20
-2.9946530947
 11
9.8713215672
 21
-2.9946530947
  0
LINE
  5
368
100
AcDbEntity
  8
0
100
AcDbLine
 62
7
  6
CONTINUOUS
 10
-2.109503616
 20
-2.8784464308
 11
-0.4295008471
 21
-2.8784464308
  0
LINE
  5
369
100
AcDbEntity
  8
ASSI
100
AcDbLine
 62
7
  6
CONTINUOUS
 10
-2.109503616
 20
-2.8784464308
 11
-0.4295008471
 21
-2.8784464308
  0
LINE
  5
36A
100
AcDbEntity
  8
0
100
AcDbLine
 62
7
  6
CONTINUOUS
 10
1.5818154972
 20
-2.8524856262
 11
1.3647941958
 21
-2.8524856262
  0
LINE
  5
36B
100
AcDbEntity
  8
ASSI
100
AcDbLine
 62
7
  6
CONTINUOUS
 10
1.5818154972
 20
-2.8524856262
 11
1.3647941958
 21
-2.8524856262
  0
LINE
  5
36C
100
AcDbEntity
  8
0
100
AcDbLine
 62
7
  6
CONTINUOUS
 10
0.9307516944
 20
-2.5691525631
 11
0.6413899254
 21
-2.5691525631
  0
LINE
  5
36D
100
AcDbEntity
  8
ASSI
100
AcDbLine
 62
7
  6
CONTINUOUS
 10
0.9307516944
 20
-2.5691525631
 11
0.6413899254
 21
-2.5691525631
  0
LINE
  5
36E
100
AcDbEntity
  8
0
100
AcDbLine
 62
7
  6
CONTINUOUS
 10
-1.8397751848
 20
-2.5368116631
 11
-1.3731297023
 21
-2.5368116631
  0
LINE
  5
36F
100
AcDbEntity
  8
ASSI
100
AcDbLine
 62
7
  6
CONTINUOUS
 10
-1.8397751848
 20
-2.5368116631
 11
-1.3731297023
 21
-2.5368116631
  0
LINE
  5
370
100
AcDbEntity
  8
0
100
AcDbLine
 62
7
  6
CONTINUOUS
 10
-1.0947332497
 20
-2.5250460987
 11
-0.4295008471
 21
-2.5250460987
  0
LINE
  5
371
100
AcDbEntity
  8
ASSI
100
AcDbLine
 62
7
  6
CONTINUOUS
 10
-1.0947332497
 20
-2.5250460987
 11
-0.4295008471
 21
-2.5250460987
  0
LINE
  5
372
100
AcDbEntity
  8
0
100
AcDbLine
 62
7
  6
CONTINUOUS
 10
2.0881984662
 20
-2.3566525631
 11
0.6775601339
 21
-2.3566525631
  0
LINE
  5
373
100
AcDbEntity
  8
ASSI
100
AcDbLine
 62
7
  6
CONTINUOUS
 10
2.0881984662
 20
-2.3566525631
 11
0.6775601339
 21
-2.3566525631
  0
LINE
  5
374
100
AcDbEntity
  8
0
100
AcDbLine
 62
7
  6
CONTINUOUS
 10
2.0881984662
 20
-2.1441525631
 11
0.3881984662
 21
-2.1441525631
  0
LINE
  5
375
100
AcDbEntity
  8
ASSI
100
AcDbLine
 62
7
  6
CONTINUOUS
 10
2.0881984662
 20
-2.1441525631
 11
0.3881984662
 21
-2.1441525631
  0
LINE
  5
376
100
AcDbEntity
  8
DRAFT
100
AcDbLine
 62
7
  6
CONTINUOUS
 10
11.1381984662
 20
-1.9946530947
 11
9.8881984662
 21
-1.9946530947
  0
LINE
  5
377
100
AcDbEntity
  8
ASSI
100
AcDbLine
 62
7
  6
CONTINUOUS
 10
11.1381984662
 20
-1.9946530947
 11
9.8881984662
 21
-1.9946530947
  0
LINE
  5
378
100
AcDbEntity
  8
DRAFT
100
AcDbLine
 62
7
  6
CONTINUOUS
 10
-9.9118015338
 20
-1.9946530947
 11
-11.1618015338
 21
-1.9946530947
  0
LINE
  5
379
100
AcDbEntity
  8
ASSI
100
AcDbLine
 62
7
  6
CONTINUOUS
 10
-9.9118015338
 20
-1.9946530947
 11
-11.1618015338
 21
-1.9946530947
  0
LINE
  5
37A
100
AcDbEntity
  8
0
100
AcDbLine
 62
7
  6
CONTINUOUS
 10
1.6541559141
 20
-4.7295690947
 11
1.7988367733
 21
-4.8358190947
  0
LINE
  5
37B
100
AcDbEntity
  8
ASSI
100
AcDbLine
 62
7
  6
CONTINUOUS
 10
1.6541559141
 20
-4.7295690947
 11
1.7988367733
 21
-4.8358190947
  0
LINE
  5
37C
100
AcDbEntity
  8
0
100
AcDbLine
 62
7
  6
CONTINUOUS
 10
0.3881984662
 20
-3.4191525631
 11
1.3647941958
 21
-4.2691525631
  0
LINE
  5
37D
100
AcDbEntity
  8
ASSI
100
AcDbLine
 62
7
  6
CONTINUOUS
 10
0.3881984662
 20
-3.4191525631
 11
1.3647941958
 21
-4.2691525631
  0
LINE
  5
37E
100
AcDbEntity
  8
0
100
AcDbLine
 62
7
  6
CONTINUOUS
 10
0.6775601339
 20
-3.4191525631
 11
1.3647941958
 21
-4.0212356262
  0
LINE
  5
37F
100
AcDbEntity
  8
ASSI
100
AcDbLine
 62
7
  6
CONTINUOUS
 10
0.6775601339
 20
-3.4191525631
 11
1.3647941958
 21
-4.0212356262
  0
LINE
  5
380
100
AcDbEntity
  8
0
100
AcDbLine
 62
7
  6
CONTINUOUS
 10
1.0754325282
 20
-4.6587356262
 11
1.1839431535
 21
-4.7649856262
  0
LINE
  5
381
100
AcDbEntity
  8
ASSI
100
AcDbLine
 62
7
  6
CONTINUOUS
 10
1.0754325282
 20
-4.6587356262
 11
1.1839431535
 21
-4.7649856262
  0
LINE
  5
382
100
AcDbEntity
  8
0
100
AcDbLine
 62
7
  6
CONTINUOUS
 10
1.8350069817
 20
-4.6233190947
 11
1.9435176197
 21
-4.7295690947
  0
LINE
  5
383
100
AcDbEntity
  8
ASSI
100
AcDbLine
 62
7
  6
CONTINUOUS
 10
1.8350069817
 20
-4.6233190947
 11
1.9435176197
 21
-4.7295690947
  0
LINE
  5
384
100
AcDbEntity
  8
0
100
AcDbLine
 62
7
  6
CONTINUOUS
 10
0.605219717
 20
-5.4024858289
 11
0.7137303423
 21
-5.5441523605
  0
LINE
  5
385
100
AcDbEntity
  8
ASSI
100
AcDbLine
 62
7
  6
CONTINUOUS
 10
0.605219717
 20
-5.4024858289
 11
0.7137303423
 21
-5.5441523605
  0
LINE
  5
386
100
AcDbEntity
  8
0
100
AcDbLine
 62
7
  6
CONTINUOUS
 10
1.2562835705
 20
-5.6149858289
 11
1.3647941958
 21
-5.7566523605
  0
LINE
  5
387
100
AcDbEntity
  8
ASSI
100
AcDbLine
 62
7
  6
CONTINUOUS
 10
1.2562835705
 20
-5.6149858289
 11
1.3647941958
 21
-5.7566523605
  0
LINE
  5
388
100
AcDbEntity
  8
0
100
AcDbLine
 62
7
  6
CONTINUOUS
 10
1.0030921113
 20
-4.8358190947
 11
1.1116027366
 21
-4.9774858289
  0
LINE
  5
389
100
AcDbEntity
  8
ASSI
100
AcDbLine
 62
7
  6
CONTINUOUS
 10
1.0030921113
 20
-4.8358190947
 11
1.1116027366
 21
-4.9774858289
  0
LINE
  5
38A
100
AcDbEntity
  8
0
100
AcDbLine
 62
7
  6
CONTINUOUS
 10
0.4243686747
 20
-5.4379023605
 11
0.5328793
 21
-5.6149858289
  0
LINE
  5
38B
100
AcDbEntity
  8
ASSI
100
AcDbLine
 62
7
  6
CONTINUOUS
 10
0.4243686747
 20
-5.4379023605
 11
0.5328793
 21
-5.6149858289
  0
LINE
  5
38C
100
AcDbEntity
  8
0
100
AcDbLine
 62
7
  6
CONTINUOUS
 10
-1.3731297023
 20
-2.3340309502
 11
-1.3731297023
 21
-2.5368116631
  0
LINE
  5
38D
100
AcDbEntity
  8
ASSI
100
AcDbLine
 62
7
  6
CONTINUOUS
 10
-1.3731297023
 20
-2.3340309502
 11
-1.3731297023
 21
-2.5368116631
  0
LINE
  5
38E
100
AcDbEntity
  8
0
100
AcDbLine
 62
7
  6
CONTINUOUS
 10
-1.0947332497
 20
-2.3347957756
 11
-1.0947332497
 21
-2.5250460987
  0
LINE
  5
38F
100
AcDbEntity
  8
ASSI
100
AcDbLine
 62
7
  6
CONTINUOUS
 10
-1.0947332497
 20
-2.3347957756
 11
-1.0947332497
 21
-2.5250460987
  0
LINE
  5
390
100
AcDbEntity
  8
0
100
AcDbLine
 62
7
  6
CONTINUOUS
 10
-1.0314435338
 20
-3.5194470947
 11
-1.0314435338
 21
-3.8591690947
  0
LINE
  5
391
100
AcDbEntity
  8
ASSI
100
AcDbLine
 62
7
  6
CONTINUOUS
 10
-1.0314435338
 20
-3.5194470947
 11
-1.0314435338
 21
-3.8591690947
  0
LINE
  5
392
100
AcDbEntity
  8
DRAFT
100
AcDbLine
 62
7
  6
CONTINUOUS
 10
2.4847074532
 20
4.1844008274
 11
2.4881984662
 21
4.1878918404
  0
LINE
  5
393
100
AcDbEntity
  8
0
100
AcDbLine
 62
7
  6
CONTINUOUS
 10
-1.2330264326
 20
-1.9662009119
 11
-1.2229817254
 21
-1.9662009119
  0
LINE
  5
394
100
AcDbEntity
  8
ASSI
100
AcDbLine
 62
7
  6
CONTINUOUS
 10
-1.2330264326
 20
-1.9662009119
 11
-1.2229817254
 21
-1.9662009119
  0
LINE
  5
395
100
AcDbEntity
  8
RACCORDO
100
AcDbLine
 62
253
  6
CONTINUOUS
 10
5.1825782732
 20
-4.7417296431
 11
5.2369725516
 21
-4.7689184959
  0
LINE
  5
396
100
AcDbEntity
  8
ASSI
100
AcDbLine
 62
253
  6
CONTINUOUS
 10
5.1825782732
 20
-4.7417296431
 11
5.2369725516
 21
-4.7689184959
  0
LINE
  5
397
100
AcDbEntity
  8
RACCORDO
100
AcDbLine
 62
253
  6
CONTINUOUS
 10
5.4323027941
 20
-4.4917061452
 11
5.4868198
 21
-4.518956343
  0
LINE
  5
398
100
AcDbEntity
  8
ASSI
100
AcDbLine
 62
253
  6
CONTINUOUS
 10
5.4323027941
 20
-4.4917061452
 11
5.4868198
 21
-4.518956343
  0
LINE
  5
399
100
AcDbEntity
  8
0
100
AcDbLine
 62
7
  6
CONTINUOUS
 10
0.3881984662
 20
-2.3566525631
 11
0.6413899254
 21
-2.5691525631
  0
LINE
  5
39A
100
AcDbEntity
  8
ASSI
100
AcDbLine
 62
7
  6
CONTINUOUS
 10
0.3881984662
 20
-2.3566525631
 11
0.6413899254
 21
-2.5691525631
  0
LINE
  5
39B
100
AcDbEntity
  8
0
100
AcDbLine
 62
7
  6
CONTINUOUS
 10
0.6775601339
 20
-2.3566525631
 11
0.9307516944
 21
-2.5691525631
  0
LINE
  5
39C
100
AcDbEntity
  8
ASSI
100
AcDbLine
 62
7
  6
CONTINUOUS
 10
0.6775601339
 20
-2.3566525631
 11
0.9307516944
 21
-2.5691525631
  0
LINE
  5
39D
100
AcDbEntity
  8
RACCORDO
100
AcDbLine
 62
253
  6
CONTINUOUS
 10
-7.0485524573
 20
4.8922805807
 11
-7.1036823925
 21
4.947410516
  0
LINE
  5
39E
100
AcDbEntity
  8
ASSI
100
AcDbLine
 62
253
  6
CONTINUOUS
 10
-7.0485524573
 20
4.8922805807
 11
-7.1036823925
 21
4.947410516
  0
LINE
  5
39F
100
AcDbEntity
  8
RACCORDO
100
AcDbLine
 62
253
  6
CONTINUOUS
 10
-6.7486079098
 20
5.1919705294
 11
-6.803865672
 21
5.2472282916
  0
LINE
  5
3A0
100
AcDbEntity
  8
ASSI
100
AcDbLine
 62
253
  6
CONTINUOUS
 10
-6.7486079098
 20
5.1919705294
 11
-6.803865672
 21
5.2472282916
  0
LINE
  5
3A1
100
AcDbEntity
  8
0
100
AcDbLine
 62
7
  6
CONTINUOUS
 10
1.220113362
 20
-5.5441523605
 11
1.2562835705
 21
-5.6149858289
  0
LINE
  5
3A2
100
AcDbEntity
  8
ASSI
100
AcDbLine
 62
7
  6
CONTINUOUS
 10
1.220113362
 20
-5.5441523605
 11
1.2562835705
 21
-5.6149858289
  0
LINE
  5
3A3
100
AcDbEntity
  8
0
100
AcDbLine
 62
7
  6
CONTINUOUS
 10
1.3286239874
 20
-5.4024858289
 11
1.4009644043
 21
-5.5441523605
  0
LINE
  5
3A4
100
AcDbEntity
  8
ASSI
100
AcDbLine
 62
7
  6
CONTINUOUS
 10
1.3286239874
 20
-5.4024858289
 11
1.4009644043
 21
-5.5441523605
  0
LINE
  5
3A5
100
AcDbEntity
  8
0
100
AcDbLine
 62
7
  6
CONTINUOUS
 10
1.1839431535
 20
-4.7649856262
 11
1.220113362
 21
-4.8358190947
  0
LINE
  5
3A6
100
AcDbEntity
  8
ASSI
100
AcDbLine
 62
7
  6
CONTINUOUS
 10
1.1839431535
 20
-4.7649856262
 11
1.220113362
 21
-4.8358190947
  0
LINE
  5
3A7
100
AcDbEntity
  8
0
100
AcDbLine
 62
7
  6
CONTINUOUS
 10
-0.7688535338
 20
-3.4485340947
 11
-0.7688535338
 21
-3.9317510947
  0
LINE
  5
3A8
100
AcDbEntity
  8
ASSI
100
AcDbLine
 62
7
  6
CONTINUOUS
 10
-0.7688535338
 20
-3.4485340947
 11
-0.7688535338
 21
-3.9317510947
  0
LINE
  5
3A9
100
AcDbEntity
  8
0
100
AcDbLine
 62
7
  6
CONTINUOUS
 10
-0.4295008471
 20
-1.6403725362
 11
-0.4295008471
 21
-1.9816758796
  0
LINE
  5
3AA
100
AcDbEntity
  8
ASSI
100
AcDbLine
 62
7
  6
CONTINUOUS
 10
-0.4295008471
 20
-1.6403725362
 11
-0.4295008471
 21
-1.9816758796
  0
LINE
  5
3AB
100
AcDbEntity
  8
0
100
AcDbLine
 62
7
  6
CONTINUOUS
 10
-0.4295008471
 20
-2.5250460987
 11
-0.4295008471
 21
-2.8784464308
  0
LINE
  5
3AC
100
AcDbEntity
  8
ASSI
100
AcDbLine
 62
7
  6
CONTINUOUS
 10
-0.4295008471
 20
-2.5250460987
 11
-0.4295008471
 21
-2.8784464308
  0
LINE
  5
3AD
100
AcDbEntity
  8
0
100
AcDbLine
 62
7
  6
CONTINUOUS
 10
-0.4295005338
 20
-2.9826410947
 11
-0.4295005338
 21
-3.3566150947
  0
LINE
  5
3AE
100
AcDbEntity
  8
ASSI
100
AcDbLine
 62
7
  6
CONTINUOUS
 10
-0.4295005338
 20
-2.9826410947
 11
-0.4295005338
 21
-3.3566150947
  0
LINE
  5
3AF
100
AcDbEntity
  8
0
100
AcDbLine
 62
7
  6
CONTINUOUS
 10
-0.4295005338
 20
-4.0296620947
 11
-0.4295005338
 21
-4.3806400947
  0
LINE
  5
3B0
100
AcDbEntity
  8
ASSI
100
AcDbLine
 62
7
  6
CONTINUOUS
 10
-0.4295005338
 20
-4.0296620947
 11
-0.4295005338
 21
-4.3806400947
  0
LINE
  5
3B1
100
AcDbEntity
  8
0
100
AcDbLine
 62
7
  6
CONTINUOUS
 10
-0.4295005338
 20
-4.4363570947
 11
-0.4295005338
 21
-4.7834730947
  0
LINE
  5
3B2
100
AcDbEntity
  8
ASSI
100
AcDbLine
 62
7
  6
CONTINUOUS
 10
-0.4295005338
 20
-4.4363570947
 11
-0.4295005338
 21
-4.7834730947
  0
LINE
  5
3B3
100
AcDbEntity
  8
0
100
AcDbLine
 62
7
  6
CONTINUOUS
 10
-0.4295005338
 20
-5.2782650947
 11
-0.4295005338
 21
-5.3280290947
  0
LINE
  5
3B4
100
AcDbEntity
  8
ASSI
100
AcDbLine
 62
7
  6
CONTINUOUS
 10
-0.4295005338
 20
-5.2782650947
 11
-0.4295005338
 21
-5.3280290947
  0
LINE
  5
3B5
100
AcDbEntity
  8
0
100
AcDbLine
 62
7
  6
CONTINUOUS
 10
-0.4295005338
 20
-5.8208570947
 11
-0.4295005338
 21
-6.1603120947
  0
LINE
  5
3B6
100
AcDbEntity
  8
ASSI
100
AcDbLine
 62
7
  6
CONTINUOUS
 10
-0.4295005338
 20
-5.8208570947
 11
-0.4295005338
 21
-6.1603120947
  0
LINE
  5
3B7
100
AcDbEntity
  8
0
100
AcDbLine
 62
7
  6
CONTINUOUS
 10
-0.4295005338
 20
-6.3513270947
 11
-0.4295005338
 21
-6.7061550947
  0
LINE
  5
3B8
100
AcDbEntity
  8
ASSI
100
AcDbLine
 62
7
  6
CONTINUOUS
 10
-0.4295005338
 20
-6.3513270947
 11
-0.4295005338
 21
-6.7061550947
  0
LINE
  5
3B9
100
AcDbEntity
  8
0
100
AcDbLine
 62
7
  6
CONTINUOUS
 10
-0.4295005338
 20
-7.3842370947
 11
-0.4295005338
 21
-7.6969290947
  0
LINE
  5
3BA
100
AcDbEntity
  8
ASSI
100
AcDbLine
 62
7
  6
CONTINUOUS
 10
-0.4295005338
 20
-7.3842370947
 11
-0.4295005338
 21
-7.6969290947
  0
LINE
  5
3BB
100
AcDbEntity
  8
0
100
AcDbLine
 62
7
  6
CONTINUOUS
 10
1.9435176197
 20
-4.7295690947
 11
2.0520282546
 21
-4.9066523605
  0
LINE
  5
3BC
100
AcDbEntity
  8
ASSI
100
AcDbLine
 62
7
  6
CONTINUOUS
 10
1.9435176197
 20
-4.7295690947
 11
2.0520282546
 21
-4.9066523605
  0
LINE
  5
3BD
100
AcDbEntity
  8
0
100
AcDbLine
 62
7
  6
CONTINUOUS
 10
1.7988367733
 20
-4.8358190947
 11
1.8711771902
 21
-4.9774858289
  0
LINE
  5
3BE
100
AcDbEntity
  8
ASSI
100
AcDbLine
 62
7
  6
CONTINUOUS
 10
1.7988367733
 20
-4.8358190947
 11
1.8711771902
 21
-4.9774858289
  0
LINE
  5
3BF
100
AcDbEntity
  8
0
100
AcDbLine
 62
7
  6
CONTINUOUS
 10
0.5690495085
 20
-5.2608190947
 11
0.605219717
 21
-5.4024858289
  0
LINE
  5
3C0
100
AcDbEntity
  8
ASSI
100
AcDbLine
 62
7
  6
CONTINUOUS
 10
0.5690495085
 20
-5.2608190947
 11
0.605219717
 21
-5.4024858289
  0
LINE
  5
3C1
100
AcDbEntity
  8
0
100
AcDbLine
 62
7
  6
CONTINUOUS
 10
1.1116027366
 20
-4.9774858289
 11
1.1477729451
 21
-5.1191523605
  0
LINE
  5
3C2
100
AcDbEntity
  8
ASSI
100
AcDbLine
 62
7
  6
CONTINUOUS
 10
1.1116027366
 20
-4.9774858289
 11
1.1477729451
 21
-5.1191523605
  0
LINE
  5
3C3
100
AcDbEntity
  8
0
100
AcDbLine
 62
7
  6
CONTINUOUS
 10
1.2924537789
 20
-5.2608190947
 11
1.3286239874
 21
-5.4024858289
  0
LINE
  5
3C4
100
AcDbEntity
  8
ASSI
100
AcDbLine
 62
7
  6
CONTINUOUS
 10
1.2924537789
 20
-5.2608190947
 11
1.3286239874
 21
-5.4024858289
  0
LINE
  5
3C5
100
AcDbEntity
  8
0
100
AcDbLine
 62
7
  6
CONTINUOUS
 10
0.3881984662
 20
-5.2608190947
 11
0.4243686747
 21
-5.4379023605
  0
LINE
  5
3C6
100
AcDbEntity
  8
ASSI
100
AcDbLine
 62
7
  6
CONTINUOUS
 10
0.3881984662
 20
-5.2608190947
 11
0.4243686747
 21
-5.4379023605
  0
LINE
  5
3C7
100
AcDbEntity
  8
0
100
AcDbLine
 62
7
  6
CONTINUOUS
 10
0.3881984662
 20
-2.1441525631
 11
0.3881984662
 21
-2.3566525631
  0
LINE
  5
3C8
100
AcDbEntity
  8
ASSI
100
AcDbLine
 62
7
  6
CONTINUOUS
 10
0.3881984662
 20
-2.1441525631
 11
0.3881984662
 21
-2.3566525631
  0
LINE
  5
3C9
100
AcDbEntity
  8
0
100
AcDbLine
 62
7
  6
CONTINUOUS
 10
0.3881984662
 20
-3.2066525631
 11
0.3881984662
 21
-3.4191525631
  0
LINE
  5
3CA
100
AcDbEntity
  8
ASSI
100
AcDbLine
 62
7
  6
CONTINUOUS
 10
0.3881984662
 20
-3.2066525631
 11
0.3881984662
 21
-3.4191525631
  0
LINE
  5
3CB
100
AcDbEntity
  8
0
100
AcDbLine
 62
7
  6
CONTINUOUS
 10
0.3881984662
 20
-5.1191523605
 11
0.3881984662
 21
-5.2608190947
  0
LINE
  5
3CC
100
AcDbEntity
  8
ASSI
100
AcDbLine
 62
7
  6
CONTINUOUS
 10
0.3881984662
 20
-5.1191523605
 11
0.3881984662
 21
-5.2608190947
  0
LINE
  5
3CD
100
AcDbEntity
  8
0
100
AcDbLine
 62
7
  6
CONTINUOUS
 10
0.3881984662
 20
-6.4649858289
 11
0.3881984662
 21
-6.6774857276
  0
LINE
  5
3CE
100
AcDbEntity
  8
ASSI
100
AcDbLine
 62
7
  6
CONTINUOUS
 10
0.3881984662
 20
-6.4649858289
 11
0.3881984662
 21
-6.6774857276
  0
LINE
  5
3CF
100
AcDbEntity
  8
0
100
AcDbLine
 62
7
  6
CONTINUOUS
 10
0.3881984662
 20
-7.8108190947
 11
0.3881984662
 21
-8.0233190947
  0
LINE
  5
3D0
100
AcDbEntity
  8
ASSI
100
AcDbLine
 62
7
  6
CONTINUOUS
 10
0.3881984662
 20
-7.8108190947
 11
0.3881984662
 21
-8.0233190947
  0
LINE
  5
3D1
100
AcDbEntity
  8
0
100
AcDbLine
 62
7
  6
CONTINUOUS
 10
0.5690495085
 20
-5.1191523605
 11
0.5690495085
 21
-5.2608190947
  0
LINE
  5
3D2
100
AcDbEntity
  8
ASSI
100
AcDbLine
 62
7
  6
CONTINUOUS
 10
0.5690495085
 20
-5.1191523605
 11
0.5690495085
 21
-5.2608190947
  0
LINE
  5
3D3
100
AcDbEntity
  8
0
100
AcDbLine
 62
7
  6
CONTINUOUS
 10
1.1477729451
 20
-5.1191523605
 11
1.1477729451
 21
-5.2608190947
  0
LINE
  5
3D4
100
AcDbEntity
  8
ASSI
100
AcDbLine
 62
7
  6
CONTINUOUS
 10
1.1477729451
 20
-5.1191523605
 11
1.1477729451
 21
-5.2608190947
  0
LINE
  5
3D5
100
AcDbEntity
  8
RACCORDO
100
AcDbLine
 62
253
  6
CONTINUOUS
 10
6.7802626044
 20
5.2472282916
 11
6.7250048422
 21
5.1919705294
  0
LINE
  5
3D6
100
AcDbEntity
  8
ASSI
100
AcDbLine
 62
253
  6
CONTINUOUS
 10
6.7802626044
 20
5.2472282916
 11
6.7250048422
 21
5.1919705294
  0
LINE
  5
3D7
100
AcDbEntity
  8
DRAFT
100
AcDbLine
 62
7
  6
CONTINUOUS
 10
-9.8949246347
 20
0.8053469053
 11
-9.5118015338
 21
0.8053469053
  0
LINE
  5
3D8
100
AcDbEntity
  8
ASSI
100
AcDbLine
 62
7
  6
CONTINUOUS
 10
-9.8949246347
 20
0.8053469053
 11
-9.5118015338
 21
0.8053469053
  0
LINE
  5
3D9
100
AcDbEntity
  8
DRAFT
100
AcDbLine
 62
7
  6
CONTINUOUS
 10
9.4881984662
 20
0.8053469053
 11
9.8713215672
 21
0.8053469053
  0
LINE
  5
3DA
100
AcDbEntity
  8
ASSI
100
AcDbLine
 62
7
  6
CONTINUOUS
 10
9.4881984662
 20
0.8053469053
 11
9.8713215672
 21
0.8053469053
  0
LINE
  5
3DB
100
AcDbEntity
  8
0
100
AcDbLine
 62
7
  6
CONTINUOUS
 10
1.8711771902
 20
-4.9774858289
 11
1.9073473986
 21
-5.1191523605
  0
LINE
  5
3DC
100
AcDbEntity
  8
ASSI
100
AcDbLine
 62
7
  6
CONTINUOUS
 10
1.8711771902
 20
-4.9774858289
 11
1.9073473986
 21
-5.1191523605
  0
LINE
  5
3DD
100
AcDbEntity
  8
0
100
AcDbLine
 62
7
  6
CONTINUOUS
 10
2.0520282546
 20
-4.9066523605
 11
2.0881984662
 21
-5.0837358289
  0
LINE
  5
3DE
100
AcDbEntity
  8
ASSI
100
AcDbLine
 62
7
  6
CONTINUOUS
 10
2.0520282546
 20
-4.9066523605
 11
2.0881984662
 21
-5.0837358289
  0
LINE
  5
3DF
100
AcDbEntity
  8
0
100
AcDbLine
 62
7
  6
CONTINUOUS
 10
1.2924537789
 20
-5.1191523605
 11
1.2924537789
 21
-5.2608190947
  0
LINE
  5
3E0
100
AcDbEntity
  8
ASSI
100
AcDbLine
 62
7
  6
CONTINUOUS
 10
1.2924537789
 20
-5.1191523605
 11
1.2924537789
 21
-5.2608190947
  0
LINE
  5
3E1
100
AcDbEntity
  8
0
100
AcDbLine
 62
7
  6
CONTINUOUS
 10
1.3647941958
 20
-2.8524856262
 11
1.3647941958
 21
-3.2066525631
  0
LINE
  5
3E2
100
AcDbEntity
  8
ASSI
100
AcDbLine
 62
7
  6
CONTINUOUS
 10
1.3647941958
 20
-2.8524856262
 11
1.3647941958
 21
-3.2066525631
  0
LINE
  5
3E3
100
AcDbEntity
  8
0
100
AcDbLine
 62
7
  6
CONTINUOUS
 10
1.3647941958
 20
-3.4191525631
 11
1.3647941958
 21
-4.0212356262
  0
LINE
  5
3E4
100
AcDbEntity
  8
ASSI
100
AcDbLine
 62
7
  6
CONTINUOUS
 10
1.3647941958
 20
-3.4191525631
 11
1.3647941958
 21
-4.0212356262
  0
LINE
  5
3E5
100
AcDbEntity
  8
0
100
AcDbLine
 62
7
  6
CONTINUOUS
 10
1.3647941958
 20
-6.1108190947
 11
1.3647941958
 21
-6.4649858289
  0
LINE
  5
3E6
100
AcDbEntity
  8
ASSI
100
AcDbLine
 62
7
  6
CONTINUOUS
 10
1.3647941958
 20
-6.1108190947
 11
1.3647941958
 21
-6.4649858289
  0
LINE
  5
3E7
100
AcDbEntity
  8
0
100
AcDbLine
 62
7
  6
CONTINUOUS
 10
1.3647941958
 20
-6.6774857276
 11
1.3647941958
 21
-7.2795690947
  0
LINE
  5
3E8
100
AcDbEntity
  8
ASSI
100
AcDbLine
 62
7
  6
CONTINUOUS
 10
1.3647941958
 20
-6.6774857276
 11
1.3647941958
 21
-7.2795690947
  0
LINE
  5
3E9
100
AcDbEntity
  8
0
100
AcDbLine
 62
7
  6
CONTINUOUS
 10
1.5818154972
 20
-2.8524856262
 11
1.5818154972
 21
-3.2066525631
  0
LINE
  5
3EA
100
AcDbEntity
  8
ASSI
100
AcDbLine
 62
7
  6
CONTINUOUS
 10
1.5818154972
 20
-2.8524856262
 11
1.5818154972
 21
-3.2066525631
  0
LINE
  5
3EB
100
AcDbEntity
  8
0
100
AcDbLine
 62
7
  6
CONTINUOUS
 10
1.5818154972
 20
-3.4191525631
 11
1.5818154972
 21
-4.2691525631
  0
LINE
  5
3EC
100
AcDbEntity
  8
ASSI
100
AcDbLine
 62
7
  6
CONTINUOUS
 10
1.5818154972
 20
-3.4191525631
 11
1.5818154972
 21
-4.2691525631
  0
LINE
  5
3ED
100
AcDbEntity
  8
0
100
AcDbLine
 62
7
  6
CONTINUOUS
 10
1.5818154972
 20
-6.1108190947
 11
1.5818154972
 21
-6.4649858289
  0
LINE
  5
3EE
100
AcDbEntity
  8
ASSI
100
AcDbLine
 62
7
  6
CONTINUOUS
 10
1.5818154972
 20
-6.1108190947
 11
1.5818154972
 21
-6.4649858289
  0
LINE
  5
3EF
100
AcDbEntity
  8
0
100
AcDbLine
 62
7
  6
CONTINUOUS
 10
1.5818154972
 20
-6.6774857276
 11
1.5818154972
 21
-7.5274857782
  0
LINE
  5
3F0
100
AcDbEntity
  8
ASSI
100
AcDbLine
 62
7
  6
CONTINUOUS
 10
1.5818154972
 20
-6.6774857276
 11
1.5818154972
 21
-7.5274857782
  0
LINE
  5
3F1
100
AcDbEntity
  8
0
100
AcDbLine
 62
7
  6
CONTINUOUS
 10
1.9073473986
 20
-5.1191523605
 11
1.9073473986
 21
-5.2608190947
  0
LINE
  5
3F2
100
AcDbEntity
  8
ASSI
100
AcDbLine
 62
7
  6
CONTINUOUS
 10
1.9073473986
 20
-5.1191523605
 11
1.9073473986
 21
-5.2608190947
  0
LINE
  5
3F3
100
AcDbEntity
  8
0
100
AcDbLine
 62
7
  6
CONTINUOUS
 10
2.0881984662
 20
-2.1441525631
 11
2.0881984662
 21
-2.3566525631
  0
LINE
  5
3F4
100
AcDbEntity
  8
ASSI
100
AcDbLine
 62
7
  6
CONTINUOUS
 10
2.0881984662
 20
-2.1441525631
 11
2.0881984662
 21
-2.3566525631
  0
LINE
  5
3F5
100
AcDbEntity
  8
0
100
AcDbLine
 62
7
  6
CONTINUOUS
 10
2.0881984662
 20
-3.2066525631
 11
2.0881984662
 21
-3.4191525631
  0
LINE
  5
3F6
100
AcDbEntity
  8
ASSI
100
AcDbLine
 62
7
  6
CONTINUOUS
 10
2.0881984662
 20
-3.2066525631
 11
2.0881984662
 21
-3.4191525631
  0
LINE
  5
3F7
100
AcDbEntity
  8
0
100
AcDbLine
 62
7
  6
CONTINUOUS
 10
2.0881984662
 20
-5.0837358289
 11
2.0881984662
 21
-5.2962358289
  0
LINE
  5
3F8
100
AcDbEntity
  8
ASSI
100
AcDbLine
 62
7
  6
CONTINUOUS
 10
2.0881984662
 20
-5.0837358289
 11
2.0881984662
 21
-5.2962358289
  0
LINE
  5
3F9
100
AcDbEntity
  8
0
100
AcDbLine
 62
7
  6
CONTINUOUS
 10
2.0881984662
 20
-6.4649858289
 11
2.0881984662
 21
-6.6774857276
  0
LINE
  5
3FA
100
AcDbEntity
  8
ASSI
100
AcDbLine
 62
7
  6
CONTINUOUS
 10
2.0881984662
 20
-6.4649858289
 11
2.0881984662
 21
-6.6774857276
  0
LINE
  5
3FB
100
AcDbEntity
  8
0
100
AcDbLine
 62
7
  6
CONTINUOUS
 10
2.0881984662
 20
-7.8108190947
 11
2.0881984662
 21
-8.0233190947
  0
LINE
  5
3FC
100
AcDbEntity
  8
ASSI
100
AcDbLine
 62
7
  6
CONTINUOUS
 10
2.0881984662
 20
-7.8108190947
 11
2.0881984662
 21
-8.0233190947
  0
LINE
  5
3FD
100
AcDbEntity
  8
0
100
AcDbLine
 62
7
  6
CONTINUOUS
 10
0.4243686747
 20
-4.9420690947
 11
0.3881984662
 21
-5.1191523605
  0
LINE
  5
3FE
100
AcDbEntity
  8
ASSI
100
AcDbLine
 62
7
  6
CONTINUOUS
 10
0.4243686747
 20
-4.9420690947
 11
0.3881984662
 21
-5.1191523605
  0
LINE
  5
3FF
100
AcDbEntity
  8
0
100
AcDbLine
 62
7
  6
CONTINUOUS
 10
0.605219717
 20
-4.9774858289
 11
0.5690495085
 21
-5.1191523605
  0
LINE
  5
400
100
AcDbEntity
  8
ASSI
100
AcDbLine
 62
7
  6
CONTINUOUS
 10
0.605219717
 20
-4.9774858289
 11
0.5690495085
 21
-5.1191523605
  0
LINE
  5
401
100
AcDbEntity
  8
RACCORDO
100
AcDbLine
 62
253
  6
CONTINUOUS
 10
7.080079325
 20
4.947410516
 11
7.0249493897
 21
4.8922805807
  0
LINE
  5
402
100
AcDbEntity
  8
ASSI
100
AcDbLine
 62
253
  6
CONTINUOUS
 10
7.080079325
 20
4.947410516
 11
7.0249493897
 21
4.8922805807
  0
LINE
  5
403
100
AcDbEntity
  8
RACCORDO
100
AcDbLine
 62
253
  6
CONTINUOUS
 10
-5.5104228675
 20
-4.518956343
 11
-5.4559058617
 21
-4.4917061452
  0
LINE
  5
404
100
AcDbEntity
  8
ASSI
100
AcDbLine
 62
253
  6
CONTINUOUS
 10
-5.5104228675
 20
-4.518956343
 11
-5.4559058617
 21
-4.4917061452
  0
LINE
  5
405
100
AcDbEntity
  8
RACCORDO
100
AcDbLine
 62
253
  6
CONTINUOUS
 10
-5.2605756191
 20
-4.7689184959
 11
-5.2061813407
 21
-4.7417296431
  0
LINE
  5
406
100
AcDbEntity
  8
ASSI
100
AcDbLine
 62
253
  6
CONTINUOUS
 10
-5.2605756191
 20
-4.7689184959
 11
-5.2061813407
 21
-4.7417296431
  0
LINE
  5
407
100
AcDbEntity
  8
DRAFT
100
AcDbLine
 62
7
  6
CONTINUOUS
 10
-2.5083105208
 20
4.1844008274
 11
-2.5118015338
 21
4.1878918404
  0
LINE
  5
408
100
AcDbEntity
  8
RACCORDO
100
AcDbLine
 62
7
  6
CONTINUOUS
 10
-6.7791773899
 20
9.8227227614
 11
-6.7474435907
 21
9.7909889623
  0
LINE
  5
409
100
AcDbEntity
  8
ASSI
100
AcDbLine
 62
7
  6
CONTINUOUS
 10
-6.7791773899
 20
9.8227227614
 11
-6.7474435907
 21
9.7909889623
  0
LINE
  5
40A
100
AcDbEntity
  8
DRAFT
100
AcDbLine
 62
7
  6
CONTINUOUS
 10
3.3797734733
 20
-11.0539658004
 11
3.3044799894
 21
-9.5633482254
  0
LINE
  5
40B
100
AcDbEntity
  8
ASSI
100
AcDbLine
 62
7
  6
CONTINUOUS
 10
3.3797734733
 20
-11.0539658004
 11
3.3044799894
 21
-9.5633482254
  0
LINE
  5
40C
100
AcDbEntity
  8
DRAFT
100
AcDbLine
 62
7
  6
CONTINUOUS
 10
2.4847074532
 20
9.0262929832
 11
2.4847074532
 21
4.1844008274
  0
LINE
  5
40D
100
AcDbEntity
  8
DRAFT
100
AcDbLine
 62
7
  6
CONTINUOUS
 10
2.4881984662
 20
4.1878918404
 11
2.4881984662
 21
9.0228019703
  0
LINE
  5
40E
100
AcDbEntity
  8
DRAFT
100
AcDbLine
 62
7
  6
CONTINUOUS
 10
2.8881984662
 20
7.3828284359
 11
2.8881984662
 21
5.8278653748
  0
LINE
  5
40F
100
AcDbEntity
  8
ASSI
100
AcDbLine
 62
7
  6
CONTINUOUS
 10
2.8881984662
 20
7.3828284359
 11
2.8881984662
 21
5.8278653748
  0
LINE
  5
410
100
AcDbEntity
  8
DRAFT
100
AcDbLine
 62
7
  6
CONTINUOUS
 10
2.9556535312
 20
9.0228019703
 11
2.9556535312
 21
7.3918287413
  0
LINE
  5
411
100
AcDbEntity
  8
DRAFT
100
AcDbLine
 62
7
  6
CONTINUOUS
 10
2.9556535312
 20
5.8188650693
 11
2.9556535312
 21
4.1878918404
  0
LINE
  5
412
100
AcDbEntity
  8
DRAFT
100
AcDbLine
 62
7
  6
CONTINUOUS
 10
2.9881984662
 20
2.5571573043
 11
2.9881984662
 21
5.8188650693
  0
LINE
  5
413
100
AcDbEntity
  8
ASSI
100
AcDbLine
 62
7
  6
CONTINUOUS
 10
2.9881984662
 20
2.5571573043
 11
2.9881984662
 21
5.8188650693
  0
LINE
  5
414
100
AcDbEntity
  8
DRAFT
100
AcDbLine
 62
7
  6
CONTINUOUS
 10
2.9881984662
 20
7.3918287413
 11
2.9881984662
 21
9.1412945324
  0
LINE
  5
415
100
AcDbEntity
  8
ASSI
100
AcDbLine
 62
7
  6
CONTINUOUS
 10
2.9881984662
 20
7.3918287413
 11
2.9881984662
 21
9.1412945324
  0
LINE
  5
416
100
AcDbEntity
  8
DRAFT
100
AcDbLine
 62
7
  6
CONTINUOUS
 10
3.0578342266
 20
7.3743683566
 11
3.0578342266
 21
5.8363254541
  0
LINE
  5
417
100
AcDbEntity
  8
ASSI
100
AcDbLine
 62
7
  6
CONTINUOUS
 10
3.0578342266
 20
7.3743683566
 11
3.0578342266
 21
5.8363254541
  0
LINE
  5
418
100
AcDbEntity
  8
0
100
AcDbLine
 62
7
  6
CONTINUOUS
 10
2.0881984662
 20
-5.2962358289
 11
2.0520282546
 21
-5.4733190947
  0
LINE
  5
419
100
AcDbEntity
  8
ASSI
100
AcDbLine
 62
7
  6
CONTINUOUS
 10
2.0881984662
 20
-5.2962358289
 11
2.0520282546
 21
-5.4733190947
  0
LINE
  5
41A
100
AcDbEntity
  8
0
100
AcDbLine
 62
7
  6
CONTINUOUS
 10
1.1477729451
 20
-5.2608190947
 11
1.1116027366
 21
-5.4024858289
  0
LINE
  5
41B
100
AcDbEntity
  8
ASSI
100
AcDbLine
 62
7
  6
CONTINUOUS
 10
1.1477729451
 20
-5.2608190947
 11
1.1116027366
 21
-5.4024858289
  0
LINE
  5
41C
100
AcDbEntity
  8
0
100
AcDbLine
 62
7
  6
CONTINUOUS
 10
1.3286239874
 20
-4.9774858289
 11
1.2924537789
 21
-5.1191523605
  0
LINE
  5
41D
100
AcDbEntity
  8
ASSI
100
AcDbLine
 62
7
  6
CONTINUOUS
 10
1.3286239874
 20
-4.9774858289
 11
1.2924537789
 21
-5.1191523605
  0
LINE
  5
41E
100
AcDbEntity
  8
0
100
AcDbLine
 62
7
  6
CONTINUOUS
 10
1.9073473986
 20
-5.2608190947
 11
1.8711771902
 21
-5.4024858289
  0
LINE
  5
41F
100
AcDbEntity
  8
ASSI
100
AcDbLine
 62
7
  6
CONTINUOUS
 10
1.9073473986
 20
-5.2608190947
 11
1.8711771902
 21
-5.4024858289
  0
LINE
  5
420
100
AcDbEntity
  8
0
100
AcDbLine
 62
7
  6
CONTINUOUS
 10
0.5328793
 20
-4.7649856262
 11
0.4243686747
 21
-4.9420690947
  0
LINE
  5
421
100
AcDbEntity
  8
ASSI
100
AcDbLine
 62
7
  6
CONTINUOUS
 10
0.5328793
 20
-4.7649856262
 11
0.4243686747
 21
-4.9420690947
  0
LINE
  5
422
100
AcDbEntity
  8
0
100
AcDbLine
 62
7
  6
CONTINUOUS
 10
-2.1293635338
 20
-3.5042010947
 11
-0.4295005338
 21
-2.9826410947
  0
LINE
  5
423
100
AcDbEntity
  8
ASSI
100
AcDbLine
 62
7
  6
CONTINUOUS
 10
-2.1293635338
 20
-3.5042010947
 11
-0.4295005338
 21
-2.9826410947
  0
LINE
  5
424
100
AcDbEntity
  8
DRAFT
100
AcDbLine
 62
7
  6
CONTINUOUS
 10
2.9881984662
 20
2.5571573043
 11
-3.0118015338
 21
2.5571573043
  0
LINE
  5
425
100
AcDbEntity
  8
ASSI
100
AcDbLine
 62
7
  6
CONTINUOUS
 10
2.9881984662
 20
2.5571573043
 11
-3.0118015338
 21
2.5571573043
  0
LINE
  5
426
100
AcDbEntity
  8
DRAFT
100
AcDbLine
 62
7
  6
CONTINUOUS
 10
2.9881984662
 20
2.6053469053
 11
-3.0118015338
 21
2.6053469053
  0
LINE
  5
427
100
AcDbEntity
  8
ASSI
100
AcDbLine
 62
7
  6
CONTINUOUS
 10
2.9881984662
 20
2.6053469053
 11
-3.0118015338
 21
2.6053469053
  0
LINE
  5
428
100
AcDbEntity
  8
RACCORDO
100
AcDbLine
 62
7
  6
CONTINUOUS
 10
5.2680660922
 20
-9.4604762533
 11
5.194085389
 21
-9.2003534584
  0
LINE
  5
429
100
AcDbEntity
  8
ASSI
100
AcDbLine
 62
7
  6
CONTINUOUS
 10
5.2680660922
 20
-9.4604762533
 11
5.194085389
 21
-9.2003534584
  0
LINE
  5
42A
100
AcDbEntity
  8
RACCORDO
100
AcDbLine
 62
253
  6
CONTINUOUS
 10
3.5281362048
 20
7.3743683566
 11
3.5281362048
 21
5.8363254541
  0
LINE
  5
42B
100
AcDbEntity
  8
ASSI
100
AcDbLine
 62
253
  6
CONTINUOUS
 10
3.5281362048
 20
7.3743683566
 11
3.5281362048
 21
5.8363254541
  0
LINE
  5
42C
100
AcDbEntity
  8
RACCORDO
100
AcDbLine
 62
253
  6
CONTINUOUS
 10
3.7304634393
 20
-11.0221326424
 11
3.7304634393
 21
-9.4727547094
  0
LINE
  5
42D
100
AcDbEntity
  8
ASSI
100
AcDbLine
 62
253
  6
CONTINUOUS
 10
3.7304634393
 20
-11.0221326424
 11
3.7304634393
 21
-9.4727547094
  0
LINE
  5
42E
100
AcDbEntity
  8
RACCORDO
100
AcDbLine
 62
253
  6
CONTINUOUS
 10
3.810043991
 20
7.3812615055
 11
3.810043991
 21
5.8294323052
  0
LINE
  5
42F
100
AcDbEntity
  8
ASSI
100
AcDbLine
 62
253
  6
CONTINUOUS
 10
3.810043991
 20
7.3812615055
 11
3.810043991
 21
5.8294323052
  0
LINE
  5
430
100
AcDbEntity
  8
RACCORDO
100
AcDbLine
 62
253
  6
CONTINUOUS
 10
3.9036685201
 20
-11.0168918645
 11
3.9036685201
 21
-9.4604762533
  0
LINE
  5
431
100
AcDbEntity
  8
ASSI
100
AcDbLine
 62
253
  6
CONTINUOUS
 10
3.9036685201
 20
-11.0168918645
 11
3.9036685201
 21
-9.4604762533
  0
LINE
  5
432
100
AcDbEntity
  8
0
100
AcDbLine
 62
7
  6
CONTINUOUS
 10
1.2562835705
 20
-4.7649856262
 11
1.220113362
 21
-4.8358190947
  0
LINE
  5
433
100
AcDbEntity
  8
ASSI
100
AcDbLine
 62
7
  6
CONTINUOUS
 10
1.2562835705
 20
-4.7649856262
 11
1.220113362
 21
-4.8358190947
  0
LINE
  5
434
100
AcDbEntity
  8
0
100
AcDbLine
 62
7
  6
CONTINUOUS
 10
1.4009644043
 20
-4.8358190947
 11
1.3286239874
 21
-4.9774858289
  0
LINE
  5
435
100
AcDbEntity
  8
ASSI
100
AcDbLine
 62
7
  6
CONTINUOUS
 10
1.4009644043
 20
-4.8358190947
 11
1.3286239874
 21
-4.9774858289
  0
LINE
  5
436
100
AcDbEntity
  8
0
100
AcDbLine
 62
7
  6
CONTINUOUS
 10
1.220113362
 20
-5.5441523605
 11
1.1839431535
 21
-5.6149858289
  0
LINE
  5
437
100
AcDbEntity
  8
ASSI
100
AcDbLine
 62
7
  6
CONTINUOUS
 10
1.220113362
 20
-5.5441523605
 11
1.1839431535
 21
-5.6149858289
  0
LINE
  5
438
100
AcDbEntity
  8
0
100
AcDbLine
 62
7
  6
CONTINUOUS
 10
1.8711771902
 20
-5.4024858289
 11
1.7988367733
 21
-5.5441523605
  0
LINE
  5
439
100
AcDbEntity
  8
ASSI
100
AcDbLine
 62
7
  6
CONTINUOUS
 10
1.8711771902
 20
-5.4024858289
 11
1.7988367733
 21
-5.5441523605
  0
LINE
  5
43A
100
AcDbEntity
  8
0
100
AcDbLine
 62
7
  6
CONTINUOUS
 10
0.7137303423
 20
-4.8358190947
 11
0.605219717
 21
-4.9774858289
  0
LINE
  5
43B
100
AcDbEntity
  8
ASSI
100
AcDbLine
 62
7
  6
CONTINUOUS
 10
0.7137303423
 20
-4.8358190947
 11
0.605219717
 21
-4.9774858289
  0
LINE
  5
43C
100
AcDbEntity
  8
0
100
AcDbLine
 62
7
  6
CONTINUOUS
 10
1.3647941958
 20
-4.6233190947
 11
1.2562835705
 21
-4.7649856262
  0
LINE
  5
43D
100
AcDbEntity
  8
ASSI
100
AcDbLine
 62
7
  6
CONTINUOUS
 10
1.3647941958
 20
-4.6233190947
 11
1.2562835705
 21
-4.7649856262
  0
LINE
  5
43E
100
AcDbEntity
  8
0
100
AcDbLine
 62
7
  6
CONTINUOUS
 10
1.1116027366
 20
-5.4024858289
 11
1.0030921113
 21
-5.5441523605
  0
LINE
  5
43F
100
AcDbEntity
  8
ASSI
100
AcDbLine
 62
7
  6
CONTINUOUS
 10
1.1116027366
 20
-5.4024858289
 11
1.0030921113
 21
-5.5441523605
  0
LINE
  5
440
100
AcDbEntity
  8
0
100
AcDbLine
 62
7
  6
CONTINUOUS
 10
0.6413899254
 20
-4.6587356262
 11
0.5328793
 21
-4.7649856262
  0
LINE
  5
441
100
AcDbEntity
  8
ASSI
100
AcDbLine
 62
7
  6
CONTINUOUS
 10
0.6413899254
 20
-4.6587356262
 11
0.5328793
 21
-4.7649856262
  0
LINE
  5
442
100
AcDbEntity
  8
DRAFT
100
AcDbLine
 62
7
  6
CONTINUOUS
 10
2.4847074532
 20
4.1844008274
 11
-2.5083105208
 21
4.1844008274
  0
LINE
  5
443
100
AcDbEntity
  8
DRAFT
100
AcDbLine
 62
7
  6
CONTINUOUS
 10
-2.9792565987
 20
4.1878918404
 11
-2.5118015338
 21
4.1878918404
  0
LINE
  5
444
100
AcDbEntity
  8
DRAFT
100
AcDbLine
 62
7
  6
CONTINUOUS
 10
2.9556535312
 20
4.1878918404
 11
2.4881984662
 21
4.1878918404
  0
LINE
  5
445
100
AcDbEntity
  8
RACCORDO
100
AcDbLine
 62
253
  6
CONTINUOUS
 10
5.2386881175
 20
-6.2044280025
 11
5.2966105836
 21
-6.4968984636
  0
LINE
  5
446
100
AcDbEntity
  8
ASSI
100
AcDbLine
 62
253
  6
CONTINUOUS
 10
5.2386881175
 20
-6.2044280025
 11
5.2966105836
 21
-6.4968984636
  0
LINE
  5
447
100
AcDbEntity
  8
RACCORDO
100
AcDbLine
 62
253
  6
CONTINUOUS
 10
5.4957500346
 20
-5.9946530947
 11
5.5464582903
 21
-6.2506965253
  0
LINE
  5
448
100
AcDbEntity
  8
ASSI
100
AcDbLine
 62
253
  6
CONTINUOUS
 10
5.4957500346
 20
-5.9946530947
 11
5.5464582903
 21
-6.2506965253
  0
LINE
  5
449
100
AcDbEntity
  8
RACCORDO
100
AcDbLine
 62
253
  6
CONTINUOUS
 10
5.2386881175
 20
-4.8189108807
 11
5.2386881175
 21
-6.2044280025
  0
LINE
  5
44A
100
AcDbEntity
  8
ASSI
100
AcDbLine
 62
253
  6
CONTINUOUS
 10
5.2386881175
 20
-4.8189108807
 11
5.2386881175
 21
-6.2044280025
  0
LINE
  5
44B
100
AcDbEntity
  8
RACCORDO
100
AcDbLine
 62
7
  6
CONTINUOUS
 10
5.2680660922
 20
-9.4604762533
 11
5.2680660922
 21
-8.6807708645
  0
LINE
  5
44C
100
AcDbEntity
  8
ASSI
100
AcDbLine
 62
7
  6
CONTINUOUS
 10
5.2680660922
 20
-9.4604762533
 11
5.2680660922
 21
-8.6807708645
  0
LINE
  5
44D
100
AcDbEntity
  8
RACCORDO
100
AcDbLine
 62
253
  6
CONTINUOUS
 10
5.2980534256
 20
-6.5461388512
 11
5.2980534256
 21
-6.8281446959
  0
LINE
  5
44E
100
AcDbEntity
  8
ASSI
100
AcDbLine
 62
253
  6
CONTINUOUS
 10
5.2980534256
 20
-6.5461388512
 11
5.2980534256
 21
-6.8281446959
  0
LINE
  5
44F
100
AcDbEntity
  8
ASSI
100
AcDbLine
 62
253
  6
CONTINUOUS
 10
4.3464430375
 20
7.4192894536
 11
4.3410983946
 21
5.7919173502
  0
LINE
  5
450
100
AcDbEntity
  8
RACCORDO
100
AcDbLine
 62
7
  6
CONTINUOUS
 10
9.818347222
 20
9.7978506198
 11
9.8881984662
 21
9.9375956856
  0
LINE
  5
451
100
AcDbEntity
  8
ASSI
100
AcDbLine
 62
7
  6
CONTINUOUS
 10
9.818347222
 20
9.7978506198
 11
9.8881984662
 21
9.9375956856
  0
LINE
  5
452
100
AcDbEntity
  8
0
100
AcDbLine
 62
7
  6
CONTINUOUS
 10
2.0520282546
 20
-5.4733190947
 11
1.9435176197
 21
-5.6504023605
  0
LINE
  5
453
100
AcDbEntity
  8
ASSI
100
AcDbLine
 62
7
  6
CONTINUOUS
 10
2.0520282546
 20
-5.4733190947
 11
1.9435176197
 21
-5.6504023605
  0
LINE
  5
454
100
AcDbEntity
  8
0
100
AcDbLine
 62
7
  6
CONTINUOUS
 10
1.1839431535
 20
-5.6149858289
 11
1.0754325282
 21
-5.7212358289
  0
LINE
  5
455
100
AcDbEntity
  8
ASSI
100
AcDbLine
 62
7
  6
CONTINUOUS
 10
1.1839431535
 20
-5.6149858289
 11
1.0754325282
 21
-5.7212358289
  0
LINE
  5
456
100
AcDbEntity
  8
0
100
AcDbLine
 62
7
  6
CONTINUOUS
 10
1.5456452887
 20
-4.7295690947
 11
1.4009644043
 21
-4.8358190947
  0
LINE
  5
457
100
AcDbEntity
  8
ASSI
100
AcDbLine
 62
7
  6
CONTINUOUS
 10
1.5456452887
 20
-4.7295690947
 11
1.4009644043
 21
-4.8358190947
  0
LINE
  5
458
100
AcDbEntity
  8
0
100
AcDbLine
 62
7
  6
CONTINUOUS
 10
0.822241069
 20
-4.7649856262
 11
0.7137303423
 21
-4.8358190947
  0
LINE
  5
459
100
AcDbEntity
  8
ASSI
100
AcDbLine
 62
7
  6
CONTINUOUS
 10
0.822241069
 20
-4.7649856262
 11
0.7137303423
 21
-4.8358190947
  0
LINE
  5
45A
100
AcDbEntity
  8
0
100
AcDbLine
 62
7
  6
CONTINUOUS
 10
1.0030921113
 20
-5.5441523605
 11
0.8945814859
 21
-5.6149858289
  0
LINE
  5
45B
100
AcDbEntity
  8
ASSI
100
AcDbLine
 62
7
  6
CONTINUOUS
 10
1.0030921113
 20
-5.5441523605
 11
0.8945814859
 21
-5.6149858289
  0
LINE
  5
45C
100
AcDbEntity
  8
0
100
AcDbLine
 62
7
  6
CONTINUOUS
 10
0.822241069
 20
-4.5879025631
 11
0.6413899254
 21
-4.6587356262
  0
LINE
  5
45D
100
AcDbEntity
  8
ASSI
100
AcDbLine
 62
7
  6
CONTINUOUS
 10
0.822241069
 20
-4.5879025631
 11
0.6413899254
 21
-4.6587356262
  0
LINE
  5
45E
100
AcDbEntity
  8
0
100
AcDbLine
 62
7
  6
CONTINUOUS
 10
1.5456452887
 20
-4.5524856262
 11
1.3647941958
 21
-4.6233190947
  0
LINE
  5
45F
100
AcDbEntity
  8
ASSI
100
AcDbLine
 62
7
  6
CONTINUOUS
 10
1.5456452887
 20
-4.5524856262
 11
1.3647941958
 21
-4.6233190947
  0
LINE
  5
460
100
AcDbEntity
  8
0
100
AcDbLine
 62
7
  6
CONTINUOUS
 10
-1.5394795338
 20
-5.7442850947
 11
-0.4295005338
 21
-5.3280290947
  0
LINE
  5
461
100
AcDbEntity
  8
ASSI
100
AcDbLine
 62
7
  6
CONTINUOUS
 10
-1.5394795338
 20
-5.7442850947
 11
-0.4295005338
 21
-5.3280290947
  0
LINE
  5
462
100
AcDbEntity
  8
0
100
AcDbLine
 62
7
  6
CONTINUOUS
 10
-2.1293635338
 20
-5.6522900947
 11
-1.1855945338
 21
-5.3012090947
  0
LINE
  5
463
100
AcDbEntity
  8
ASSI
100
AcDbLine
 62
7
  6
CONTINUOUS
 10
-2.1293635338
 20
-5.6522900947
 11
-1.1855945338
 21
-5.3012090947
  0
LINE
  5
464
100
AcDbEntity
  8
RACCORDO
100
AcDbLine
 62
7
  6
CONTINUOUS
 10
7.2514475427
 20
4.8922805807
 11
7.0249493897
 21
4.8922805807
  0
LINE
  5
465
100
AcDbEntity
  8
ASSI
100
AcDbLine
 62
7
  6
CONTINUOUS
 10
7.2514475427
 20
4.8922805807
 11
7.0249493897
 21
4.8922805807
  0
LINE
  5
466
100
AcDbEntity
  8
RACCORDO
100
AcDbLine
 62
7
  6
CONTINUOUS
 10
-7.0485524573
 20
4.8922805807
 11
-7.2750506103
 21
4.8922805807
  0
LINE
  5
467
100
AcDbEntity
  8
ASSI
100
AcDbLine
 62
7
  6
CONTINUOUS
 10
-7.0485524573
 20
4.8922805807
 11
-7.2750506103
 21
4.8922805807
  0
LINE
  5
468
100
AcDbEntity
  8
RACCORDO
100
AcDbLine
 62
253
  6
CONTINUOUS
 10
-7.219920675
 20
4.947410516
 11
-7.1036823925
 21
4.947410516
  0
LINE
  5
469
100
AcDbEntity
  8
ASSI
100
AcDbLine
 62
253
  6
CONTINUOUS
 10
-7.219920675
 20
4.947410516
 11
-7.1036823925
 21
4.947410516
  0
LINE
  5
46A
100
AcDbEntity
  8
RACCORDO
100
AcDbLine
 62
253
  6
CONTINUOUS
 10
7.080079325
 20
4.947410516
 11
7.1963176075
 21
4.947410516
  0
LINE
  5
46B
100
AcDbEntity
  8
ASSI
100
AcDbLine
 62
253
  6
CONTINUOUS
 10
7.080079325
 20
4.947410516
 11
7.1963176075
 21
4.947410516
  0
LINE
  5
46C
100
AcDbEntity
  8
RACCORDO
100
AcDbLine
 62
253
  6
CONTINUOUS
 10
5.6660906955
 20
-9.2536107072
 11
5.6286593903
 21
-6.9549301744
  0
LINE
  5
46D
100
AcDbEntity
  8
ASSI
100
AcDbLine
 62
253
  6
CONTINUOUS
 10
5.6660906955
 20
-9.2536107072
 11
5.6286593903
 21
-6.9549301744
  0
LINE
  5
46E
100
AcDbEntity
  8
RACCORDO
100
AcDbLine
 62
253
  6
CONTINUOUS
 10
5.9083308402
 20
-8.6807708645
 11
5.878507097
 21
-6.849275609
  0
LINE
  5
46F
100
AcDbEntity
  8
ASSI
100
AcDbLine
 62
253
  6
CONTINUOUS
 10
5.9083308402
 20
-8.6807708645
 11
5.878507097
 21
-6.849275609
  0
LINE
  5
470
100
AcDbEntity
  8
RACCORDO
100
AcDbLine
 62
253
  6
CONTINUOUS
 10
5.4885358243
 20
-4.8189108807
 11
5.4885358243
 21
-5.9947587057
  0
LINE
  5
471
100
AcDbEntity
  8
ASSI
100
AcDbLine
 62
253
  6
CONTINUOUS
 10
5.4885358243
 20
-4.8189108807
 11
5.4885358243
 21
-5.9947587057
  0
LINE
  5
472
100
AcDbEntity
  8
RACCORDO
100
AcDbLine
 62
253
  6
CONTINUOUS
 10
5.5479011324
 20
-6.5461388512
 11
5.5479011324
 21
-6.8281446959
  0
LINE
  5
473
100
AcDbEntity
  8
ASSI
100
AcDbLine
 62
253
  6
CONTINUOUS
 10
5.5479011324
 20
-6.5461388512
 11
5.5479011324
 21
-6.8281446959
  0
LINE
  5
474
100
AcDbEntity
  8
RACCORDO
100
AcDbLine
 62
253
  6
CONTINUOUS
 10
5.6284958001
 20
-6.8281446959
 11
5.6284958001
 21
-6.5461388512
  0
LINE
  5
475
100
AcDbEntity
  8
ASSI
100
AcDbLine
 62
253
  6
CONTINUOUS
 10
5.6284958001
 20
-6.8281446959
 11
5.6284958001
 21
-6.5461388512
  0
LINE
  5
476
100
AcDbEntity
  8
RACCORDO
100
AcDbLine
 62
253
  6
CONTINUOUS
 10
5.6878611082
 20
-5.9947587057
 11
5.6878611082
 21
-4.8189108807
  0
LINE
  5
477
100
AcDbEntity
  8
ASSI
100
AcDbLine
 62
253
  6
CONTINUOUS
 10
5.6878611082
 20
-5.9947587057
 11
5.6878611082
 21
-4.8189108807
  0
LINE
  5
478
100
AcDbEntity
  8
RACCORDO
100
AcDbLine
 62
253
  6
CONTINUOUS
 10
5.8783435068
 20
-6.8281446959
 11
5.8783435068
 21
-6.5461388512
  0
LINE
  5
479
100
AcDbEntity
  8
ASSI
100
AcDbLine
 62
253
  6
CONTINUOUS
 10
5.8783435068
 20
-6.8281446959
 11
5.8783435068
 21
-6.5461388512
  0
LINE
  5
47A
100
AcDbEntity
  8
RACCORDO
100
AcDbLine
 62
7
  6
CONTINUOUS
 10
5.9083308402
 20
-8.6807708645
 11
5.9083308402
 21
-9.4604762533
  0
LINE
  5
47B
100
AcDbEntity
  8
ASSI
100
AcDbLine
 62
7
  6
CONTINUOUS
 10
5.9083308402
 20
-8.6807708645
 11
5.9083308402
 21
-9.4604762533
  0
LINE
  5
47C
100
AcDbEntity
  8
RACCORDO
100
AcDbLine
 62
253
  6
CONTINUOUS
 10
5.937708815
 20
-6.2044280025
 11
5.937708815
 21
-4.8189108807
  0
LINE
  5
47D
100
AcDbEntity
  8
ASSI
100
AcDbLine
 62
253
  6
CONTINUOUS
 10
5.937708815
 20
-6.2044280025
 11
5.937708815
 21
-4.8189108807
  0
LINE
  5
47E
100
AcDbEntity
  8
RACCORDO
100
AcDbLine
 62
253
  6
CONTINUOUS
 10
5.2978898354
 20
-6.849275609
 11
5.2680660922
 21
-8.6807708645
  0
LINE
  5
47F
100
AcDbEntity
  8
ASSI
100
AcDbLine
 62
253
  6
CONTINUOUS
 10
5.2978898354
 20
-6.849275609
 11
5.2680660922
 21
-8.6807708645
  0
LINE
  5
480
100
AcDbEntity
  8
RACCORDO
100
AcDbLine
 62
253
  6
CONTINUOUS
 10
5.5477375422
 20
-6.9549301744
 11
5.510306237
 21
-9.2536107072
  0
LINE
  5
481
100
AcDbEntity
  8
ASSI
100
AcDbLine
 62
253
  6
CONTINUOUS
 10
5.5477375422
 20
-6.9549301744
 11
5.510306237
 21
-9.2536107072
  0
LINE
  5
482
100
AcDbEntity
  8
0
100
AcDbLine
 62
7
  6
CONTINUOUS
 10
1.9435176197
 20
-5.6504023605
 11
1.8350069817
 21
-5.7566523605
  0
LINE
  5
483
100
AcDbEntity
  8
ASSI
100
AcDbLine
 62
7
  6
CONTINUOUS
 10
1.9435176197
 20
-5.6504023605
 11
1.8350069817
 21
-5.7566523605
  0
LINE
  5
484
100
AcDbEntity
  8
0
100
AcDbLine
 62
7
  6
CONTINUOUS
 10
1.7988367733
 20
-5.5441523605
 11
1.6541559141
 21
-5.6504023605
  0
LINE
  5
485
100
AcDbEntity
  8
ASSI
100
AcDbLine
 62
7
  6
CONTINUOUS
 10
1.7988367733
 20
-5.5441523605
 11
1.6541559141
 21
-5.6504023605
  0
LINE
  5
486
100
AcDbEntity
  8
0
100
AcDbLine
 62
7
  6
CONTINUOUS
 10
1.0754325282
 20
-5.7212358289
 11
0.9307516944
 21
-5.7920690947
  0
LINE
  5
487
100
AcDbEntity
  8
ASSI
100
AcDbLine
 62
7
  6
CONTINUOUS
 10
1.0754325282
 20
-5.7212358289
 11
0.9307516944
 21
-5.7920690947
  0
LINE
  5
488
100
AcDbEntity
  8
0
100
AcDbLine
 62
7
  6
CONTINUOUS
 10
1.8350069817
 20
-5.7566523605
 11
1.6541559141
 21
-5.8274858289
  0
LINE
  5
489
100
AcDbEntity
  8
ASSI
100
AcDbLine
 62
7
  6
CONTINUOUS
 10
1.8350069817
 20
-5.7566523605
 11
1.6541559141
 21
-5.8274858289
  0
LINE
  5
48A
100
AcDbEntity
  8
RACCORDO
100
AcDbLine
 62
7
  6
CONTINUOUS
 10
-4.1767724932
 20
5.7965114697
 11
-3.8336470585
 21
5.8294323052
  0
LINE
  5
48B
100
AcDbEntity
  8
ASSI
100
AcDbLine
 62
7
  6
CONTINUOUS
 10
-4.1767724932
 20
5.7965114697
 11
-3.8336470585
 21
5.8294323052
  0
LINE
  5
48C
100
AcDbEntity
  8
DRAFT
100
AcDbLine
 62
7
  6
CONTINUOUS
 10
2.8881984662
 20
5.8278653748
 11
3.0578342266
 21
5.8363254541
  0
LINE
  5
48D
100
AcDbEntity
  8
ASSI
100
AcDbLine
 62
7
  6
CONTINUOUS
 10
2.8881984662
 20
5.8278653748
 11
3.0578342266
 21
5.8363254541
  0
LINE
  5
48E
100
AcDbEntity
  8
DRAFT
100
AcDbLine
 62
7
  6
CONTINUOUS
 10
-2.9118015338
 20
5.8208812209
 11
-3.0118015338
 21
5.8188650693
  0
LINE
  5
48F
100
AcDbEntity
  8
ASSI
100
AcDbLine
 62
7
  6
CONTINUOUS
 10
-2.9118015338
 20
5.8208812209
 11
-3.0118015338
 21
5.8188650693
  0
LINE
  5
490
100
AcDbEntity
  8
RACCORDO
100
AcDbLine
 62
253
  6
CONTINUOUS
 10
-7.5129969851
 20
5.4471064571
 11
-6.8106060824
 21
5.4471064571
  0
LINE
  5
491
100
AcDbEntity
  8
ASSI
100
AcDbLine
 62
253
  6
CONTINUOUS
 10
-7.5129969851
 20
5.4471064571
 11
-6.8106060824
 21
5.4471064571
  0
LINE
  5
492
100
AcDbEntity
  8
RACCORDO
100
AcDbLine
 62
253
  6
CONTINUOUS
 10
6.7870030149
 20
5.4471064571
 11
7.4893939176
 21
5.4471064571
  0
LINE
  5
493
100
AcDbEntity
  8
ASSI
100
AcDbLine
 62
253
  6
CONTINUOUS
 10
6.7870030149
 20
5.4471064571
 11
7.4893939176
 21
5.4471064571
  0
LINE
  5
494
100
AcDbEntity
  8
RACCORDO
100
AcDbLine
 62
7
  6
CONTINUOUS
 10
4.3410983946
 20
5.7919173502
 11
2.9881984662
 21
5.7919173502
  0
LINE
  5
495
100
AcDbEntity
  8
ASSI
100
AcDbLine
 62
7
  6
CONTINUOUS
 10
4.3410983946
 20
5.7919173502
 11
2.9881984662
 21
5.7919173502
  0
LINE
  5
496
100
AcDbEntity
  8
RACCORDO
100
AcDbLine
 62
7
  6
CONTINUOUS
 10
-3.0118015338
 20
5.7919173502
 11
-4.3647014622
 21
5.7919173502
  0
LINE
  5
497
100
AcDbEntity
  8
ASSI
100
AcDbLine
 62
7
  6
CONTINUOUS
 10
-3.0118015338
 20
5.7919173502
 11
-4.3647014622
 21
5.7919173502
  0
LINE
  5
498
100
AcDbEntity
  8
RACCORDO
100
AcDbLine
 62
7
  6
CONTINUOUS
 10
-3.5517392723
 20
5.8363254541
 11
-3.0814372942
 21
5.8363254541
  0
LINE
  5
499
100
AcDbEntity
  8
ASSI
100
AcDbLine
 62
7
  6
CONTINUOUS
 10
-3.5517392723
 20
5.8363254541
 11
-3.0814372942
 21
5.8363254541
  0
LINE
  5
49A
100
AcDbEntity
  8
RACCORDO
100
AcDbLine
 62
7
  6
CONTINUOUS
 10
3.0578342266
 20
5.8363254541
 11
3.5281362048
 21
5.8363254541
  0
LINE
  5
49B
100
AcDbEntity
  8
ASSI
100
AcDbLine
 62
7
  6
CONTINUOUS
 10
3.0578342266
 20
5.8363254541
 11
3.5281362048
 21
5.8363254541
  0
LINE
  5
49C
100
AcDbEntity
  8
DRAFT
100
AcDbLine
 62
7
  6
CONTINUOUS
 10
2.9881984662
 20
5.8188650693
 11
2.8881984662
 21
5.8208812209
  0
LINE
  5
49D
100
AcDbEntity
  8
ASSI
100
AcDbLine
 62
7
  6
CONTINUOUS
 10
2.9881984662
 20
5.8188650693
 11
2.8881984662
 21
5.8208812209
  0
LINE
  5
49E
100
AcDbEntity
  8
DRAFT
100
AcDbLine
 62
7
  6
CONTINUOUS
 10
-3.0814372942
 20
5.8363254541
 11
-2.9118015338
 21
5.8278653748
  0
LINE
  5
49F
100
AcDbEntity
  8
ASSI
100
AcDbLine
 62
7
  6
CONTINUOUS
 10
-3.0814372942
 20
5.8363254541
 11
-2.9118015338
 21
5.8278653748
  0
LINE
  5
4A0
100
AcDbEntity
  8
RACCORDO
100
AcDbLine
 62
7
  6
CONTINUOUS
 10
3.810043991
 20
5.8294323052
 11
4.1531694257
 21
5.7965114697
  0
LINE
  5
4A1
100
AcDbEntity
  8
ASSI
100
AcDbLine
 62
7
  6
CONTINUOUS
 10
3.810043991
 20
5.8294323052
 11
4.1531694257
 21
5.7965114697
  0
LINE
  5
4A2
100
AcDbEntity
  8
DRAFT
100
AcDbLine
 62
7
  6
CONTINUOUS
 10
-8.5242675244
 20
9.9375956856
 11
-8.2618015338
 21
9.8328333771
  0
LINE
  5
4A3
100
AcDbEntity
  8
ASSI
100
AcDbLine
 62
7
  6
CONTINUOUS
 10
-8.5242675244
 20
9.9375956856
 11
-8.2618015338
 21
9.8328333771
  0
LINE
  5
4A4
100
AcDbEntity
  8
RACCORDO
100
AcDbLine
 62
253
  6
CONTINUOUS
 10
6.7637567676
 20
7.5467682616
 11
6.7849574036
 21
6.9396614804
  0
LINE
  5
4A5
100
AcDbEntity
  8
ASSI
100
AcDbLine
 62
253
  6
CONTINUOUS
 10
6.7637567676
 20
7.5467682616
 11
6.7849574036
 21
6.9396614804
  0
LINE
  5
4A6
100
AcDbEntity
  8
RACCORDO
100
AcDbLine
 62
253
  6
CONTINUOUS
 10
7.0635742725
 20
7.7588929415
 11
7.0847746517
 21
7.1517935147
  0
LINE
  5
4A7
100
AcDbEntity
  8
ASSI
100
AcDbLine
 62
253
  6
CONTINUOUS
 10
7.0635742725
 20
7.7588929415
 11
7.0847746517
 21
7.1517935147
  0
LINE
  5
4A8
100
AcDbEntity
  8
RACCORDO
100
AcDbLine
 62
253
  6
CONTINUOUS
 10
6.7555743223
 20
9.8227227614
 11
6.7555743223
 21
8.1124536865
  0
LINE
  5
4A9
100
AcDbEntity
  8
ASSI
100
AcDbLine
 62
253
  6
CONTINUOUS
 10
6.7555743223
 20
9.8227227614
 11
6.7555743223
 21
8.1124536865
  0
LINE
  5
4AA
100
AcDbEntity
  8
RACCORDO
100
AcDbLine
 62
253
  6
CONTINUOUS
 10
6.7870030149
 20
6.7982401241
 11
6.7870030149
 21
5.4471064571
  0
LINE
  5
4AB
100
AcDbEntity
  8
ASSI
100
AcDbLine
 62
253
  6
CONTINUOUS
 10
6.7870030149
 20
6.7982401241
 11
6.7870030149
 21
5.4471064571
  0
LINE
  5
4AC
100
AcDbEntity
  8
RACCORDO
100
AcDbLine
 62
253
  6
CONTINUOUS
 10
7.0553915704
 20
9.8328333771
 11
7.0553915704
 21
8.1124646504
  0
LINE
  5
4AD
100
AcDbEntity
  8
ASSI
100
AcDbLine
 62
253
  6
CONTINUOUS
 10
7.0553915704
 20
9.8328333771
 11
7.0553915704
 21
8.1124646504
  0
LINE
  5
4AE
100
AcDbEntity
  8
RACCORDO
100
AcDbLine
 62
253
  6
CONTINUOUS
 10
7.086820263
 20
6.7982401241
 11
7.086820263
 21
5.4471219176
  0
LINE
  5
4AF
100
AcDbEntity
  8
ASSI
100
AcDbLine
 62
253
  6
CONTINUOUS
 10
7.086820263
 20
6.7982401241
 11
7.086820263
 21
5.4471219176
  0
LINE
  5
4B0
100
AcDbEntity
  8
RACCORDO
100
AcDbLine
 62
253
  6
CONTINUOUS
 10
7.1895766695
 20
5.4471219177
 11
7.1895766695
 21
6.7982401241
  0
LINE
  5
4B1
100
AcDbEntity
  8
ASSI
100
AcDbLine
 62
253
  6
CONTINUOUS
 10
7.1895766695
 20
5.4471219177
 11
7.1895766695
 21
6.7982401241
  0
LINE
  5
4B2
100
AcDbEntity
  8
RACCORDO
100
AcDbLine
 62
253
  6
CONTINUOUS
 10
7.221005362
 20
8.1124646542
 11
7.221005362
 21
9.8328333771
  0
LINE
  5
4B3
100
AcDbEntity
  8
ASSI
100
AcDbLine
 62
253
  6
CONTINUOUS
 10
7.221005362
 20
8.1124646542
 11
7.221005362
 21
9.8328333771
  0
LINE
  5
4B4
100
AcDbEntity
  8
RACCORDO
100
AcDbLine
 62
253
  6
CONTINUOUS
 10
7.2727284124
 20
-9.4604762533
 11
7.2727284124
 21
-11.0168918645
  0
LINE
  5
4B5
100
AcDbEntity
  8
ASSI
100
AcDbLine
 62
253
  6
CONTINUOUS
 10
7.2727284124
 20
-9.4604762533
 11
7.2727284124
 21
-11.0168918645
  0
LINE
  5
4B6
100
AcDbEntity
  8
RACCORDO
100
AcDbLine
 62
253
  6
CONTINUOUS
 10
7.4459334931
 20
-9.4727547094
 11
7.4459334931
 21
-11.0221326424
  0
LINE
  5
4B7
100
AcDbEntity
  8
ASSI
100
AcDbLine
 62
253
  6
CONTINUOUS
 10
7.4459334931
 20
-9.4727547094
 11
7.4459334931
 21
-11.0221326424
  0
LINE
  5
4B8
100
AcDbEntity
  8
RACCORDO
100
AcDbLine
 62
253
  6
CONTINUOUS
 10
7.1916222808
 20
7.1517935147
 11
7.2128226598
 21
7.758892938
  0
LINE
  5
4B9
100
AcDbEntity
  8
ASSI
100
AcDbLine
 62
253
  6
CONTINUOUS
 10
7.1916222808
 20
7.1517935147
 11
7.2128226598
 21
7.758892938
  0
LINE
  5
4BA
100
AcDbEntity
  8
RACCORDO
100
AcDbLine
 62
253
  6
CONTINUOUS
 10
7.4914395289
 20
6.9396614804
 11
7.5126401648
 21
7.5467682616
  0
LINE
  5
4BB
100
AcDbEntity
  8
ASSI
100
AcDbLine
 62
253
  6
CONTINUOUS
 10
7.4914395289
 20
6.9396614804
 11
7.5126401648
 21
7.5467682616
  0
LINE
  5
4BC
100
AcDbEntity
  8
RACCORDO
100
AcDbLine
 62
253
  6
CONTINUOUS
 10
5.6299386421
 20
-6.2506965253
 11
5.6806468978
 21
-5.9946530947
  0
LINE
  5
4BD
100
AcDbEntity
  8
ASSI
100
AcDbLine
 62
253
  6
CONTINUOUS
 10
5.6299386421
 20
-6.2506965253
 11
5.6806468978
 21
-5.9946530947
  0
LINE
  5
4BE
100
AcDbEntity
  8
RACCORDO
100
AcDbLine
 62
253
  6
CONTINUOUS
 10
5.8797863489
 20
-6.4968984636
 11
5.937708815
 21
-6.2044280025
  0
LINE
  5
4BF
100
AcDbEntity
  8
ASSI
100
AcDbLine
 62
253
  6
CONTINUOUS
 10
5.8797863489
 20
-6.4968984636
 11
5.937708815
 21
-6.2044280025
  0
LINE
  5
4C0
100
AcDbEntity
  8
RACCORDO
100
AcDbLine
 62
253
  6
CONTINUOUS
 10
5.6895771325
 20
-4.518956343
 11
5.7440941383
 21
-4.4917061452
  0
LINE
  5
4C1
100
AcDbEntity
  8
ASSI
100
AcDbLine
 62
253
  6
CONTINUOUS
 10
5.6895771325
 20
-4.518956343
 11
5.7440941383
 21
-4.4917061452
  0
LINE
  5
4C2
100
AcDbEntity
  8
RACCORDO
100
AcDbLine
 62
253
  6
CONTINUOUS
 10
5.9394243809
 20
-4.7689184959
 11
5.9938186593
 21
-4.7417296431
  0
LINE
  5
4C3
100
AcDbEntity
  8
ASSI
100
AcDbLine
 62
253
  6
CONTINUOUS
 10
5.9394243809
 20
-4.7689184959
 11
5.9938186593
 21
-4.7417296431
  0
LINE
  5
4C4
100
AcDbEntity
  8
0
100
AcDbLine
 62
7
  6
CONTINUOUS
 10
-2.1293635338
 20
-8.2358190947
 11
-0.4295005338
 21
-7.6969290947
  0
LINE
  5
4C5
100
AcDbEntity
  8
ASSI
100
AcDbLine
 62
7
  6
CONTINUOUS
 10
-2.1293635338
 20
-8.2358190947
 11
-0.4295005338
 21
-7.6969290947
  0
LINE
  5
4C6
100
AcDbEntity
  8
RACCORDO
100
AcDbLine
 62
7
  6
CONTINUOUS
 10
4.15848816
 20
7.4146926417
 11
3.810043991
 21
7.3812615055
  0
LINE
  5
4C7
100
AcDbEntity
  8
ASSI
100
AcDbLine
 62
7
  6
CONTINUOUS
 10
4.15848816
 20
7.4146926417
 11
3.810043991
 21
7.3812615055
  0
LINE
  5
4C8
100
AcDbEntity
  8
DRAFT
100
AcDbLine
 62
7
  6
CONTINUOUS
 10
2.9881984662
 20
7.3918287413
 11
2.8881984662
 21
7.3898125898
  0
LINE
  5
4C9
100
AcDbEntity
  8
ASSI
100
AcDbLine
 62
7
  6
CONTINUOUS
 10
2.9881984662
 20
7.3918287413
 11
2.8881984662
 21
7.3898125898
  0
LINE
  5
4CA
100
AcDbEntity
  8
RACCORDO
100
AcDbLine
 62
253
  6
CONTINUOUS
 10
6.7870030149
 20
6.7982401241
 11
7.4893939176
 21
6.7982401241
  0
LINE
  5
4CB
100
AcDbEntity
  8
ASSI
100
AcDbLine
 62
253
  6
CONTINUOUS
 10
6.7870030149
 20
6.7982401241
 11
7.4893939176
 21
6.7982401241
  0
LINE
  5
4CC
100
AcDbEntity
  8
RACCORDO
100
AcDbLine
 62
253
  6
CONTINUOUS
 10
-6.8106060824
 20
6.7982401241
 11
-7.5129969851
 21
6.7982401241
  0
LINE
  5
4CD
100
AcDbEntity
  8
ASSI
100
AcDbLine
 62
253
  6
CONTINUOUS
 10
-6.8106060824
 20
6.7982401241
 11
-7.5129969851
 21
6.7982401241
  0
LINE
  5
4CE
100
AcDbEntity
  8
RACCORDO
100
AcDbLine
 62
253
  6
CONTINUOUS
 10
7.1916222808
 20
7.1517935147
 11
7.0847746517
 21
7.1517935147
  0
LINE
  5
4CF
100
AcDbEntity
  8
ASSI
100
AcDbLine
 62
253
  6
CONTINUOUS
 10
7.1916222808
 20
7.1517935147
 11
7.0847746517
 21
7.1517935147
  0
LINE
  5
4D0
100
AcDbEntity
  8
RACCORDO
100
AcDbLine
 62
253
  6
CONTINUOUS
 10
-7.1083777192
 20
7.1517935147
 11
-7.2152253483
 21
7.1517935147
  0
LINE
  5
4D1
100
AcDbEntity
  8
ASSI
100
AcDbLine
 62
253
  6
CONTINUOUS
 10
-7.1083777192
 20
7.1517935147
 11
-7.2152253483
 21
7.1517935147
  0
LINE
  5
4D2
100
AcDbEntity
  8
RACCORDO
100
AcDbLine
 62
7
  6
CONTINUOUS
 10
-3.5517392723
 20
7.3743683566
 11
-3.0814372942
 21
7.3743683566
  0
LINE
  5
4D3
100
AcDbEntity
  8
ASSI
100
AcDbLine
 62
7
  6
CONTINUOUS
 10
-3.5517392723
 20
7.3743683566
 11
-3.0814372942
 21
7.3743683566
  0
LINE
  5
4D4
100
AcDbEntity
  8
RACCORDO
100
AcDbLine
 62
7
  6
CONTINUOUS
 10
3.0578342266
 20
7.3743683566
 11
3.5281362048
 21
7.3743683566
  0
LINE
  5
4D5
100
AcDbEntity
  8
ASSI
100
AcDbLine
 62
7
  6
CONTINUOUS
 10
3.0578342266
 20
7.3743683566
 11
3.5281362048
 21
7.3743683566
  0
LINE
  5
4D6
100
AcDbEntity
  8
RACCORDO
100
AcDbLine
 62
7
  6
CONTINUOUS
 10
-4.3700461051
 20
7.4192894536
 11
-3.0118015338
 21
7.4192894536
  0
LINE
  5
4D7
100
AcDbEntity
  8
ASSI
100
AcDbLine
 62
7
  6
CONTINUOUS
 10
-4.3700461051
 20
7.4192894536
 11
-3.0118015338
 21
7.4192894536
  0
LINE
  5
4D8
100
AcDbEntity
  8
RACCORDO
100
AcDbLine
 62
7
  6
CONTINUOUS
 10
2.9881984662
 20
7.4192894536
 11
4.3464430375
 21
7.4192894536
  0
LINE
  5
4D9
100
AcDbEntity
  8
ASSI
100
AcDbLine
 62
7
  6
CONTINUOUS
 10
2.9881984662
 20
7.4192894536
 11
4.3464430375
 21
7.4192894536
  0
LINE
  5
4DA
100
AcDbEntity
  8
DRAFT
100
AcDbLine
 62
7
  6
CONTINUOUS
 10
-2.9118015338
 20
7.3898125898
 11
-3.0118015338
 21
7.3918287413
  0
LINE
  5
4DB
100
AcDbEntity
  8
ASSI
100
AcDbLine
 62
7
  6
CONTINUOUS
 10
-2.9118015338
 20
7.3898125898
 11
-3.0118015338
 21
7.3918287413
  0
LINE
  5
4DC
100
AcDbEntity
  8
RACCORDO
100
AcDbLine
 62
7
  6
CONTINUOUS
 10
-3.8336470585
 20
7.3812615055
 11
-4.1820912275
 21
7.4146926417
  0
LINE
  5
4DD
100
AcDbEntity
  8
ASSI
100
AcDbLine
 62
7
  6
CONTINUOUS
 10
-3.8336470585
 20
7.3812615055
 11
-4.1820912275
 21
7.4146926417
  0
LINE
  5
4DE
100
AcDbEntity
  8
RACCORDO
100
AcDbLine
 62
253
  6
CONTINUOUS
 10
7.4893939176
 20
5.4471064571
 11
7.4893939176
 21
6.7982401241
  0
LINE
  5
4DF
100
AcDbEntity
  8
ASSI
100
AcDbLine
 62
253
  6
CONTINUOUS
 10
7.4893939176
 20
5.4471064571
 11
7.4893939176
 21
6.7982401241
  0
LINE
  5
4E0
100
AcDbEntity
  8
RACCORDO
100
AcDbLine
 62
253
  6
CONTINUOUS
 10
7.5208226101
 20
8.1124536865
 11
7.5208226101
 21
9.8227227614
  0
LINE
  5
4E1
100
AcDbEntity
  8
ASSI
100
AcDbLine
 62
253
  6
CONTINUOUS
 10
7.5208226101
 20
8.1124536865
 11
7.5208226101
 21
9.8227227614
  0
LINE
  5
4E2
100
AcDbEntity
  8
DRAFT
100
AcDbLine
 62
7
  6
CONTINUOUS
 10
8.2381984662
 20
9.8328333771
 11
8.2381984662
 21
10.979166302
  0
LINE
  5
4E3
100
AcDbEntity
  8
ASSI
100
AcDbLine
 62
7
  6
CONTINUOUS
 10
8.2381984662
 20
9.8328333771
 11
8.2381984662
 21
10.979166302
  0
LINE
  5
4E4
100
AcDbEntity
  8
DRAFT
100
AcDbLine
 62
7
  6
CONTINUOUS
 10
7.7966234592
 20
-11.0539658004
 11
7.871916943
 21
-9.5633482254
  0
LINE
  5
4E5
100
AcDbEntity
  8
ASSI
100
AcDbLine
 62
7
  6
CONTINUOUS
 10
7.7966234592
 20
-11.0539658004
 11
7.871916943
 21
-9.5633482254
  0
LINE
  5
4E6
100
AcDbEntity
  8
RACCORDO
100
AcDbLine
 62
7
  6
CONTINUOUS
 10
5.9823115434
 20
-9.2003534584
 11
5.9083308402
 21
-9.4604762533
  0
LINE
  5
4E7
100
AcDbEntity
  8
ASSI
100
AcDbLine
 62
7
  6
CONTINUOUS
 10
5.9823115434
 20
-9.2003534584
 11
5.9083308402
 21
-9.4604762533
  0
LINE
  5
4E8
100
AcDbEntity
  8
DRAFT
100
AcDbLine
 62
7
  6
CONTINUOUS
 10
-3.0814372942
 20
7.3743683566
 11
-2.9118015338
 21
7.3828284359
  0
LINE
  5
4E9
100
AcDbEntity
  8
ASSI
100
AcDbLine
 62
7
  6
CONTINUOUS
 10
-3.0814372942
 20
7.3743683566
 11
-2.9118015338
 21
7.3828284359
  0
LINE
  5
4EA
100
AcDbEntity
  8
RACCORDO
100
AcDbLine
 62
253
  6
CONTINUOUS
 10
-7.2364257275
 20
7.7588929415
 11
-7.0871773402
 21
7.758892938
  0
LINE
  5
4EB
100
AcDbEntity
  8
ASSI
100
AcDbLine
 62
253
  6
CONTINUOUS
 10
-7.2364257275
 20
7.7588929415
 11
-7.0871773402
 21
7.758892938
  0
LINE
  5
4EC
100
AcDbEntity
  8
RACCORDO
100
AcDbLine
 62
253
  6
CONTINUOUS
 10
7.0635742725
 20
7.7588929415
 11
7.2128226598
 21
7.758892938
  0
LINE
  5
4ED
100
AcDbEntity
  8
ASSI
100
AcDbLine
 62
253
  6
CONTINUOUS
 10
7.0635742725
 20
7.7588929415
 11
7.2128226598
 21
7.758892938
  0
LINE
  5
4EE
100
AcDbEntity
  8
RACCORDO
100
AcDbLine
 62
253
  6
CONTINUOUS
 10
-7.5444256777
 20
8.1124536865
 11
-6.7791773899
 21
8.1124536865
  0
LINE
  5
4EF
100
AcDbEntity
  8
ASSI
100
AcDbLine
 62
253
  6
CONTINUOUS
 10
-7.5444256777
 20
8.1124536865
 11
-6.7791773899
 21
8.1124536865
  0
LINE
  5
4F0
100
AcDbEntity
  8
RACCORDO
100
AcDbLine
 62
253
  6
CONTINUOUS
 10
6.7555743223
 20
8.1124536865
 11
7.5208226101
 21
8.1124536865
  0
LINE
  5
4F1
100
AcDbEntity
  8
ASSI
100
AcDbLine
 62
253
  6
CONTINUOUS
 10
6.7555743223
 20
8.1124536865
 11
7.5208226101
 21
8.1124536865
  0
LINE
  5
4F2
100
AcDbEntity
  8
DRAFT
100
AcDbLine
 62
7
  6
CONTINUOUS
 10
2.8881984662
 20
7.3828284359
 11
3.0578342266
 21
7.3743683566
  0
LINE
  5
4F3
100
AcDbEntity
  8
ASSI
100
AcDbLine
 62
7
  6
CONTINUOUS
 10
2.8881984662
 20
7.3828284359
 11
3.0578342266
 21
7.3743683566
  0
LINE
  5
4F4
100
AcDbEntity
  8
DRAFT
100
AcDbLine
 62
7
  6
CONTINUOUS
 10
2.4847074532
 20
9.0262929832
 11
2.4881984662
 21
9.0228019703
  0
LINE
  5
4F5
100
AcDbEntity
  8
RACCORDO
100
AcDbLine
 62
253
  6
CONTINUOUS
 10
9.6770351401
 20
-9.5633482254
 11
9.6254317693
 21
-9.2003534584
  0
LINE
  5
4F6
100
AcDbEntity
  8
ASSI
100
AcDbLine
 62
253
  6
CONTINUOUS
 10
9.6770351401
 20
-9.5633482254
 11
9.6254317693
 21
-9.2003534584
  0
LINE
  5
4F7
100
AcDbEntity
  8
RACCORDO
100
AcDbLine
 62
253
  6
CONTINUOUS
 10
9.876943958
 20
-9.3644118631
 11
9.8254013087
 21
-9.0018442312
  0
LINE
  5
4F8
100
AcDbEntity
  8
ASSI
100
AcDbLine
 62
253
  6
CONTINUOUS
 10
9.876943958
 20
-9.3644118631
 11
9.8254013087
 21
-9.0018442312
  0
LINE
  5
4F9
100
AcDbEntity
  8
DRAFT
100
AcDbLine
 62
7
  6
CONTINUOUS
 10
8.5006644568
 20
11.0053469053
 11
8.5006644568
 21
9.9375956856
  0
LINE
  5
4FA
100
AcDbEntity
  8
ASSI
100
AcDbLine
 62
7
  6
CONTINUOUS
 10
8.5006644568
 20
11.0053469053
 11
8.5006644568
 21
9.9375956856
  0
LINE
  5
4FB
100
AcDbEntity
  8
0
100
AcDbLine
 62
7
  6
CONTINUOUS
 10
9.4881984662
 20
-2.9946530947
 11
9.4881984662
 21
0.8053469053
  0
LINE
  5
4FC
100
AcDbEntity
  8
ASSI
100
AcDbLine
 62
7
  6
CONTINUOUS
 10
9.4881984662
 20
-2.9946530947
 11
9.4881984662
 21
0.8053469053
  0
LINE
  5
4FD
100
AcDbEntity
  8
DRAFT
100
AcDbLine
 62
7
  6
CONTINUOUS
 10
-2.9792565987
 20
9.0228019703
 11
-2.5118015338
 21
9.0228019703
  0
LINE
  5
4FE
100
AcDbEntity
  8
DRAFT
100
AcDbLine
 62
7
  6
CONTINUOUS
 10
2.9556535312
 20
9.0228019703
 11
2.4881984662
 21
9.0228019703
  0
LINE
  5
4FF
100
AcDbEntity
  8
DRAFT
100
AcDbLine
 62
7
  6
CONTINUOUS
 10
-2.5083105208
 20
9.0262929832
 11
2.4847074532
 21
9.0262929832
  0
LINE
  5
500
100
AcDbEntity
  8
DRAFT
100
AcDbLine
 62
7
  6
CONTINUOUS
 10
2.9881984662
 20
9.1053469053
 11
-3.0118015338
 21
9.1053469053
  0
LINE
  5
501
100
AcDbEntity
  8
ASSI
100
AcDbLine
 62
7
  6
CONTINUOUS
 10
2.9881984662
 20
9.1053469053
 11
-3.0118015338
 21
9.1053469053
  0
LINE
  5
502
100
AcDbEntity
  8
DRAFT
100
AcDbLine
 62
7
  6
CONTINUOUS
 10
2.9881984662
 20
9.1412945324
 11
-3.0118015338
 21
9.1412945324
  0
LINE
  5
503
100
AcDbEntity
  8
ASSI
100
AcDbLine
 62
7
  6
CONTINUOUS
 10
2.9881984662
 20
9.1412945324
 11
-3.0118015338
 21
9.1412945324
  0
LINE
  5
504
100
AcDbEntity
  8
RACCORDO
100
AcDbLine
 62
253
  6
CONTINUOUS
 10
7.2514475427
 20
4.8922805807
 11
7.1963176075
 21
4.947410516
  0
LINE
  5
505
100
AcDbEntity
  8
ASSI
100
AcDbLine
 62
253
  6
CONTINUOUS
 10
7.2514475427
 20
4.8922805807
 11
7.1963176075
 21
4.947410516
  0
LINE
  5
506
100
AcDbEntity
  8
RACCORDO
100
AcDbLine
 62
253
  6
CONTINUOUS
 10
7.5513920902
 20
5.1919705294
 11
7.496134328
 21
5.2472282916
  0
LINE
  5
507
100
AcDbEntity
  8
ASSI
100
AcDbLine
 62
253
  6
CONTINUOUS
 10
7.5513920902
 20
5.1919705294
 11
7.496134328
 21
5.2472282916
  0
LINE
  5
508
100
AcDbEntity
  8
ASSI
100
AcDbLine
 62
253
  6
CONTINUOUS
 10
9.6202045739
 20
0.8053469053
 11
9.6183779738
 21
9.7909889623
  0
LINE
  5
509
100
AcDbEntity
  8
RACCORDO
100
AcDbLine
 62
253
  6
CONTINUOUS
 10
9.6254317693
 20
-9.2003534584
 11
9.6254317693
 21
-9.0099145436
  0
LINE
  5
50A
100
AcDbEntity
  8
ASSI
100
AcDbLine
 62
253
  6
CONTINUOUS
 10
9.6254317693
 20
-9.2003534584
 11
9.6218277242
 21
-2.9946530947
  0
LINE
  5
50B
100
AcDbEntity
  8
DRAFT
100
AcDbLine
 62
7
  6
CONTINUOUS
 10
9.8713215672
 20
-2.9946530947
 11
9.8713215672
 21
0.8053469053
  0
LINE
  5
50C
100
AcDbEntity
  8
ASSI
100
AcDbLine
 62
7
  6
CONTINUOUS
 10
9.8713215672
 20
-2.9946530947
 11
9.8713215672
 21
0.8053469053
  0
LINE
  5
50D
100
AcDbEntity
  8
DRAFT
100
AcDbLine
 62
7
  6
CONTINUOUS
 10
9.8881984662
 20
9.9375956856
 11
9.8881984662
 21
-1.9946530947
  0
LINE
  5
50E
100
AcDbEntity
  8
ASSI
100
AcDbLine
 62
7
  6
CONTINUOUS
 10
9.8881984662
 20
9.9375956856
 11
9.8881984662
 21
-1.9946530947
  0
LINE
  5
50F
100
AcDbEntity
  8
RACCORDO
100
AcDbLine
 62
7
  6
CONTINUOUS
 10
9.876943958
 20
-9.3644118631
 11
9.8881984662
 21
-1.9946530947
  0
LINE
  5
510
100
AcDbEntity
  8
ASSI
100
AcDbLine
 62
7
  6
CONTINUOUS
 10
9.876943958
 20
-9.3644118631
 11
9.8881984662
 21
-1.9946530947
  0
LINE
  5
511
100
AcDbEntity
  8
DRAFT
100
AcDbLine
 62
7
  6
CONTINUOUS
 10
8.5006644568
 20
11.0053469053
 11
8.2381984662
 21
10.979166302
  0
LINE
  5
512
100
AcDbEntity
  8
ASSI
100
AcDbLine
 62
7
  6
CONTINUOUS
 10
8.5006644568
 20
11.0053469053
 11
8.2381984662
 21
10.979166302
  0
LINE
  5
513
100
AcDbEntity
  8
RACCORDO
100
AcDbLine
 62
7
  6
CONTINUOUS
 10
9.6183779741
 20
9.7909889623
 11
7.5525564093
 21
9.7909889623
  0
LINE
  5
514
100
AcDbEntity
  8
ASSI
100
AcDbLine
 62
7
  6
CONTINUOUS
 10
9.6183779741
 20
9.7909889623
 11
7.5525564093
 21
9.7909889623
  0
LINE
  5
515
100
AcDbEntity
  8
DRAFT
100
AcDbLine
 62
7
  6
CONTINUOUS
 10
6.7238405232
 20
9.7909889623
 11
-6.7474435907
 21
9.7909889623
  0
LINE
  5
516
100
AcDbEntity
  8
ASSI
100
AcDbLine
 62
7
  6
CONTINUOUS
 10
6.7238405232
 20
9.7909889623
 11
-6.7474435907
 21
9.7909889623
  0
LINE
  5
517
100
AcDbEntity
  8
RACCORDO
100
AcDbLine
 62
7
  6
CONTINUOUS
 10
-7.5761594768
 20
9.7909889623
 11
-9.6419810414
 21
9.7909889623
  0
LINE
  5
518
100
AcDbEntity
  8
ASSI
100
AcDbLine
 62
7
  6
CONTINUOUS
 10
-7.5761594768
 20
9.7909889623
 11
-9.6419810414
 21
9.7909889623
  0
LINE
  5
519
100
AcDbEntity
  8
RACCORDO
100
AcDbLine
 62
7
  6
CONTINUOUS
 10
-8.2618015338
 20
9.8328333771
 11
-7.2446084296
 21
9.8328333771
  0
LINE
  5
51A
100
AcDbEntity
  8
ASSI
100
AcDbLine
 62
7
  6
CONTINUOUS
 10
-8.2618015338
 20
9.8328333771
 11
-7.2446084296
 21
9.8328333771
  0
LINE
  5
51B
100
AcDbEntity
  8
RACCORDO
100
AcDbLine
 62
7
  6
CONTINUOUS
 10
-7.078994638
 20
9.8328333771
 11
7.0553915704
 21
9.8328333771
  0
LINE
  5
51C
100
AcDbEntity
  8
ASSI
100
AcDbLine
 62
7
  6
CONTINUOUS
 10
-7.078994638
 20
9.8328333771
 11
7.0553915704
 21
9.8328333771
  0
LINE
  5
51D
100
AcDbEntity
  8
RACCORDO
100
AcDbLine
 62
7
  6
CONTINUOUS
 10
7.221005362
 20
9.8328333771
 11
8.2381984662
 21
9.8328333771
  0
LINE
  5
51E
100
AcDbEntity
  8
ASSI
100
AcDbLine
 62
7
  6
CONTINUOUS
 10
7.221005362
 20
9.8328333771
 11
8.2381984662
 21
9.8328333771
  0
LINE
  5
51F
100
AcDbEntity
  8
DRAFT
100
AcDbLine
 62
7
  6
CONTINUOUS
 10
9.8881984662
 20
9.9375956856
 11
8.5006644568
 21
9.9375956856
  0
LINE
  5
520
100
AcDbEntity
  8
ASSI
100
AcDbLine
 62
7
  6
CONTINUOUS
 10
9.8881984662
 20
9.9375956856
 11
8.5006644568
 21
9.9375956856
  0
LINE
  5
521
100
AcDbEntity
  8
DRAFT
100
AcDbLine
 62
7
  6
CONTINUOUS
 10
-8.5242675244
 20
9.9375956856
 11
-9.9118015338
 21
9.9375956856
  0
LINE
  5
522
100
AcDbEntity
  8
ASSI
100
AcDbLine
 62
7
  6
CONTINUOUS
 10
-8.5242675244
 20
9.9375956856
 11
-9.9118015338
 21
9.9375956856
  0
LINE
  5
523
100
AcDbEntity
  8
DRAFT
100
AcDbLine
 62
7
  6
CONTINUOUS
 10
-8.5242675244
 20
11.0053469053
 11
-8.2618015338
 21
10.979166302
  0
LINE
  5
524
100
AcDbEntity
  8
ASSI
100
AcDbLine
 62
7
  6
CONTINUOUS
 10
-8.5242675244
 20
11.0053469053
 11
-8.2618015338
 21
10.979166302
  0
LINE
  5
525
100
AcDbEntity
  8
RACCORDO
100
AcDbLine
 62
7
  6
CONTINUOUS
 10
11.1381984662
 20
10.8053697506
 11
11.1381984662
 21
-1.9946530947
  0
LINE
  5
526
100
AcDbEntity
  8
ASSI
100
AcDbLine
 62
7
  6
CONTINUOUS
 10
11.1381984662
 20
10.8053697506
 11
11.1381984662
 21
-1.9946530947
  0
LINE
  5
527
100
AcDbEntity
  8
RACCORDO
100
AcDbLine
 62
7
  6
CONTINUOUS
 10
11.1381984662
 20
-1.9946530947
 11
11.1251242289
 21
-10.5560200726
  0
LINE
  5
528
100
AcDbEntity
  8
ASSI
100
AcDbLine
 62
7
  6
CONTINUOUS
 10
11.1381984662
 20
-1.9946530947
 11
11.1251242289
 21
-10.5560200726
  0
LINE
  5
529
100
AcDbEntity
  8
DRAFT
100
AcDbLine
 62
7
  6
CONTINUOUS
 10
8.2381984662
 20
10.979166302
 11
-8.2618015338
 21
10.979166302
  0
LINE
  5
52A
100
AcDbEntity
  8
ASSI
100
AcDbLine
 62
7
  6
CONTINUOUS
 10
8.2381984662
 20
10.979166302
 11
-8.2618015338
 21
10.979166302
  0
LINE
  5
52B
100
AcDbEntity
  8
RACCORDO
100
AcDbLine
 62
7
  6
CONTINUOUS
 10
10.9381984651
 20
11.0053469053
 11
8.5006644568
 21
11.0053469053
  0
LINE
  5
52C
100
AcDbEntity
  8
ASSI
100
AcDbLine
 62
7
  6
CONTINUOUS
 10
10.9381984651
 20
11.0053469053
 11
8.5006644568
 21
11.0053469053
  0
LINE
  5
52D
100
AcDbEntity
  8
RACCORDO
100
AcDbLine
 62
7
  6
CONTINUOUS
 10
-8.5242675244
 20
11.0053469053
 11
-10.9618015326
 21
11.0053469053
  0
LINE
  5
52E
100
AcDbEntity
  8
ASSI
100
AcDbLine
 62
7
  6
CONTINUOUS
 10
-8.5242675244
 20
11.0053469053
 11
-10.9618015326
 21
11.0053469053
  0
LINE
  5
52F
100
AcDbEntity
  8
RACCORDO
100
AcDbLine
 62
7
  6
CONTINUOUS
 10
7.5208226101
 20
9.8227227614
 11
7.5525564093
 21
9.7909889623
  0
LINE
  5
530
100
AcDbEntity
  8
ASSI
100
AcDbLine
 62
7
  6
CONTINUOUS
 10
7.5208226101
 20
9.8227227614
 11
7.5525564093
 21
9.7909889623
  0
ARC
  5
531
100
AcDbEntity
  8
RACCORDO
100
AcDbCircle
 62
253
  6
CONTINUOUS
 10
-52.0994258926
 20
-6.8317511946
 40
46.447326629
100
AcDbArc
 50
359.8480505891
 51
0.0044488492
  0
ARC
  5
532
100
AcDbEntity
  8
ASSI
100
AcDbCircle
 62
253
  6
CONTINUOUS
 10
-52.0994258926
 20
-6.8317511946
 40
46.447326629
100
AcDbArc
 50
359.8480505891
 51
0.0044488492
  0
ARC
  5
533
100
AcDbEntity
  8
RACCORDO
100
AcDbCircle
 62
253
  6
CONTINUOUS
 10
-40.8994258913
 20
-6.8317511946
 40
46.4473266277
100
AcDbArc
 50
359.8480505891
 51
0.0044488492
  0
ARC
  5
534
100
AcDbEntity
  8
ASSI
100
AcDbCircle
 62
253
  6
CONTINUOUS
 10
-40.8994258913
 20
-6.8317511946
 40
46.4473266277
100
AcDbArc
 50
359.8480505891
 51
0.0044488492
  0
ARC
  5
535
100
AcDbEntity
  8
RACCORDO
100
AcDbCircle
 62
253
  6
CONTINUOUS
 10
-3.9859723503
 20
-6.8283940926
 40
1.3356842781
100
AcDbArc
 50
179.9893018286
 51
180.8957745167
  0
ARC
  5
536
100
AcDbEntity
  8
ASSI
100
AcDbCircle
 62
253
  6
CONTINUOUS
 10
-3.9859723503
 20
-6.8283940926
 40
1.3356842781
100
AcDbArc
 50
179.9893018286
 51
180.8957745167
  0
ARC
  5
537
100
AcDbEntity
  8
RACCORDO
100
AcDbCircle
 62
253
  6
CONTINUOUS
 10
-7.1947129265
 20
-6.8287248534
 40
1.2927659852
100
AcDbArc
 50
359.0891460249
 51
0.0257127486
  0
ARC
  5
538
100
AcDbEntity
  8
ASSI
100
AcDbCircle
 62
253
  6
CONTINUOUS
 10
-7.1947129265
 20
-6.8287248534
 40
1.2927659852
100
AcDbArc
 50
359.0891460249
 51
0.0257127486
  0
ARC
  5
539
100
AcDbEntity
  8
RACCORDO
100
AcDbCircle
 62
253
  6
CONTINUOUS
 10
-5.5106696734
 20
-4.7690374569
 40
0.2500887179
100
AcDbArc
 50
0.0272536006
 51
89.9435595895
  0
ARC
  5
53A
100
AcDbEntity
  8
RACCORDO
100
AcDbCircle
 62
253
  6
CONTINUOUS
 10
-5.7129333651
 20
-4.7690374859
 40
0.2500887181
100
AcDbArc
 50
90.0564470492
 51
179.972739764
  0
ARC
  5
53B
100
AcDbEntity
  8
ASSI
100
AcDbCircle
 62
253
  6
CONTINUOUS
 10
-5.5106696734
 20
-4.7690374569
 40
0.2500887179
100
AcDbArc
 50
0.0272536006
 51
89.9435595895
  0
ARC
  5
53C
100
AcDbEntity
  8
ASSI
100
AcDbCircle
 62
253
  6
CONTINUOUS
 10
-5.7129333651
 20
-4.7690374859
 40
0.2500887181
100
AcDbArc
 50
90.0564470492
 51
179.972739764
  0
ARC
  5
53D
100
AcDbEntity
  8
RACCORDO
100
AcDbCircle
 62
7
  6
CONTINUOUS
 10
-5.4558303049
 20
-4.7413528543
 40
0.2496440616
100
AcDbArc
 50
359.9135250016
 51
90.0173408389
  0
ARC
  5
53E
100
AcDbEntity
  8
RACCORDO
100
AcDbCircle
 62
7
  6
CONTINUOUS
 10
-5.7677727628
 20
-4.7413528545
 40
0.2496440616
100
AcDbArc
 50
89.9826591193
 51
180.0864749415
  0
ARC
  5
53F
100
AcDbEntity
  8
ASSI
100
AcDbCircle
 62
7
  6
CONTINUOUS
 10
-5.4558303049
 20
-4.7413528543
 40
0.2496440616
100
AcDbArc
 50
359.9135250016
 51
90.0173408389
  0
ARC
  5
540
100
AcDbEntity
  8
ASSI
100
AcDbCircle
 62
7
  6
CONTINUOUS
 10
-5.7677727628
 20
-4.7413528545
 40
0.2496440616
100
AcDbArc
 50
89.9826591193
 51
180.0864749415
  0
CIRCLE
  5
541
100
AcDbEntity
  8
0
100
AcDbCircle
 62
7
  6
CONTINUOUS
 10
-0.0118015338
 20
6.6053469053
 40
1.1
  0
CIRCLE
  5
542
100
AcDbEntity
  8
0
100
AcDbCircle
 62
7
  6
CONTINUOUS
 10
-0.0118015338
 20
6.6053469053
 40
0.9
  0
ARC
  5
543
100
AcDbEntity
  8
RACCORDO
100
AcDbCircle
 62
253
  6
CONTINUOUS
 10
-7.1041213276
 20
5.2476666992
 40
0.3002587517
100
AcDbArc
 50
270.0836583225
 51
359.9163416774
  0
ARC
  5
544
100
AcDbEntity
  8
RACCORDO
100
AcDbCircle
 62
253
  6
CONTINUOUS
 10
-7.2194817564
 20
5.2476666827
 40
0.3002587515
100
AcDbArc
 50
180.0836551819
 51
269.9163448181
  0
ARC
  5
545
100
AcDbEntity
  8
ASSI
100
AcDbCircle
 62
253
  6
CONTINUOUS
 10
-7.1041213276
 20
5.2476666992
 40
0.3002587517
100
AcDbArc
 50
270.0836583225
 51
359.9163416774
  0
ARC
  5
546
100
AcDbEntity
  8
ASSI
100
AcDbCircle
 62
253
  6
CONTINUOUS
 10
-7.2194817564
 20
5.2476666827
 40
0.3002587515
100
AcDbArc
 50
180.0836551819
 51
269.9163448181
  0
ARC
  5
547
100
AcDbEntity
  8
RACCORDO
100
AcDbCircle
 62
7
  6
CONTINUOUS
 10
-7.0484301494
 20
5.1921185955
 40
0.299827954
100
AcDbArc
 50
269.9766283019
 51
359.9717046972
  0
ARC
  5
548
100
AcDbEntity
  8
RACCORDO
100
AcDbCircle
 62
7
  6
CONTINUOUS
 10
-7.2751729181
 20
5.1921185955
 40
0.299827954
100
AcDbArc
 50
180.0282953048
 51
270.0233716975
  0
ARC
  5
549
100
AcDbEntity
  8
ASSI
100
AcDbCircle
 62
7
  6
CONTINUOUS
 10
-7.0484301494
 20
5.1921185955
 40
0.299827954
100
AcDbArc
 50
269.9766283019
 51
359.9717046972
  0
ARC
  5
54A
100
AcDbEntity
  8
ASSI
100
AcDbCircle
 62
7
  6
CONTINUOUS
 10
-7.2751729181
 20
5.1921185955
 40
0.299827954
100
AcDbArc
 50
180.0282953048
 51
270.0233716975
  0
ARC
  5
54B
100
AcDbEntity
  8
RACCORDO
100
AcDbCircle
 62
253
  6
CONTINUOUS
 10
53.7393510669
 20
-6.8296146988
 40
48.1108554102
100
AcDbArc
 50
179.9982493564
 51
180.1492398337
  0
ARC
  5
54C
100
AcDbEntity
  8
ASSI
100
AcDbCircle
 62
253
  6
CONTINUOUS
 10
53.7393510669
 20
-6.8296146988
 40
48.1108554102
100
AcDbArc
 50
179.9982493564
 51
180.1492398337
  0
ARC
  5
54D
100
AcDbEntity
  8
RACCORDO
100
AcDbCircle
 62
253
  6
CONTINUOUS
 10
42.5393510655
 20
-6.8296146988
 40
48.1108554088
100
AcDbArc
 50
179.9982493564
 51
180.1492398337
  0
ARC
  5
54E
100
AcDbEntity
  8
ASSI
100
AcDbCircle
 62
253
  6
CONTINUOUS
 10
42.5393510655
 20
-6.8296146988
 40
48.1108554088
100
AcDbArc
 50
179.9982493564
 51
180.1492398337
  0
ARC
  5
54F
100
AcDbEntity
  8
RACCORDO
100
AcDbCircle
 62
253
  6
CONTINUOUS
 10
7.2140276497
 20
-6.8283940926
 40
1.3356842781
100
AcDbArc
 50
179.9893018286
 51
180.8957745167
  0
ARC
  5
550
100
AcDbEntity
  8
ASSI
100
AcDbCircle
 62
253
  6
CONTINUOUS
 10
7.2140276497
 20
-6.8283940926
 40
1.3356842781
100
AcDbArc
 50
179.9893018286
 51
180.8957745167
  0
ARC
  5
551
100
AcDbEntity
  8
RACCORDO
100
AcDbCircle
 62
253
  6
CONTINUOUS
 10
4.0052870735
 20
-6.8287248534
 40
1.2927659852
100
AcDbArc
 50
359.0891460249
 51
0.0257127486
  0
ARC
  5
552
100
AcDbEntity
  8
ASSI
100
AcDbCircle
 62
253
  6
CONTINUOUS
 10
4.0052870735
 20
-6.8287248534
 40
1.2927659852
100
AcDbArc
 50
359.0891460249
 51
0.0257127486
  0
ARC
  5
553
100
AcDbEntity
  8
RACCORDO
100
AcDbCircle
 62
253
  6
CONTINUOUS
 10
5.4870666349
 20
-4.7690374859
 40
0.2500887181
100
AcDbArc
 50
90.0564470504
 51
179.9727397652
  0
ARC
  5
554
100
AcDbEntity
  8
RACCORDO
100
AcDbCircle
 62
253
  6
CONTINUOUS
 10
5.6893303266
 20
-4.7690374569
 40
0.2500887179
100
AcDbArc
 50
0.0272536006
 51
89.9435595895
  0
ARC
  5
555
100
AcDbEntity
  8
ASSI
100
AcDbCircle
 62
253
  6
CONTINUOUS
 10
5.4870666349
 20
-4.7690374859
 40
0.2500887181
100
AcDbArc
 50
90.0564470504
 51
179.9727397652
  0
ARC
  5
556
100
AcDbEntity
  8
ASSI
100
AcDbCircle
 62
253
  6
CONTINUOUS
 10
5.6893303266
 20
-4.7690374569
 40
0.2500887179
100
AcDbArc
 50
0.0272536006
 51
89.9435595895
  0
ARC
  5
557
100
AcDbEntity
  8
RACCORDO
100
AcDbCircle
 62
7
  6
CONTINUOUS
 10
5.4322272371
 20
-4.7413528544
 40
0.2496440615
100
AcDbArc
 50
89.9826590959
 51
180.086474966
  0
ARC
  5
558
100
AcDbEntity
  8
RACCORDO
100
AcDbCircle
 62
7
  6
CONTINUOUS
 10
5.7441696951
 20
-4.7413528543
 40
0.2496440616
100
AcDbArc
 50
359.9135250005
 51
90.0173408399
  0
ARC
  5
559
100
AcDbEntity
  8
ASSI
100
AcDbCircle
 62
7
  6
CONTINUOUS
 10
5.4322272371
 20
-4.7413528544
 40
0.2496440615
100
AcDbArc
 50
89.9826590959
 51
180.086474966
  0
ARC
  5
55A
100
AcDbEntity
  8
ASSI
100
AcDbCircle
 62
7
  6
CONTINUOUS
 10
5.7441696951
 20
-4.7413528543
 40
0.2496440616
100
AcDbArc
 50
359.9135250005
 51
90.0173408399
  0
ARC
  5
55B
100
AcDbEntity
  8
RACCORDO
100
AcDbCircle
 62
253
  6
CONTINUOUS
 10
7.1958786724
 20
5.2476666992
 40
0.3002587517
100
AcDbArc
 50
270.0836583225
 51
359.9163416774
  0
ARC
  5
55C
100
AcDbEntity
  8
RACCORDO
100
AcDbCircle
 62
253
  6
CONTINUOUS
 10
7.0805182436
 20
5.2476666827
 40
0.3002587515
100
AcDbArc
 50
180.0836551819
 51
269.9163448181
  0
ARC
  5
55D
100
AcDbEntity
  8
ASSI
100
AcDbCircle
 62
253
  6
CONTINUOUS
 10
7.1958786724
 20
5.2476666992
 40
0.3002587517
100
AcDbArc
 50
270.0836583225
 51
359.9163416774
  0
ARC
  5
55E
100
AcDbEntity
  8
ASSI
100
AcDbCircle
 62
253
  6
CONTINUOUS
 10
7.0805182436
 20
5.2476666827
 40
0.3002587515
100
AcDbArc
 50
180.0836551819
 51
269.9163448181
  0
ARC
  5
55F
100
AcDbEntity
  8
RACCORDO
100
AcDbCircle
 62
7
  6
CONTINUOUS
 10
7.2515698505
 20
5.1921185955
 40
0.299827954
100
AcDbArc
 50
269.9766283071
 51
359.971704692
  0
ARC
  5
560
100
AcDbEntity
  8
RACCORDO
100
AcDbCircle
 62
7
  6
CONTINUOUS
 10
7.024827082
 20
5.1921185956
 40
0.2998279541
100
AcDbArc
 50
180.0282953137
 51
270.0233716853
  0
ARC
  5
561
100
AcDbEntity
  8
ASSI
100
AcDbCircle
 62
7
  6
CONTINUOUS
 10
7.2515698505
 20
5.1921185955
 40
0.299827954
100
AcDbArc
 50
269.9766283071
 51
359.971704692
  0
ARC
  5
562
100
AcDbEntity
  8
ASSI
100
AcDbCircle
 62
7
  6
CONTINUOUS
 10
7.024827082
 20
5.1921185956
 40
0.2998279541
100
AcDbArc
 50
180.0282953137
 51
270.0233716853
  0
SPLINE
  5
563
100
AcDbEntity
  8
0
100
AcDbSpline
 62
7
  6
CONTINUOUS
 70
0
 71
3
 72
10
 73
6
 74
4
 42
0.0000001
 43
0.0000001
 44
0.0000000001
 12
-0.0095948202
 22
0.4295727449
 32
0.0
 13
-0.4296447263
 23
-0.0065610381
 33
0.0
 40
0.0
 40
0.0
 40
0.0
 40
0.0
 40
0.4724875075
 40
0.7072006687
 40
1.0
 40
1.0
 40
1.0
 40
1.0
 10
-1.3731297023
 20
-2.3340309502
 30
0.0
 10
-1.3746408465
 20
-2.2663750317
 30
0.0
 10
-1.3967825815
 20
-2.1557423573
 30
0.0
 10
-1.5173452802
 20
-2.0668182429
 30
0.0
 10
-1.5952804753
 20
-2.0577591252
 30
0.0
 10
-1.6372137048
 20
-2.058399481
 30
0.0
 11
-1.3731297023
 21
-2.3340309502
 31
0.0
 11
-1.4324020789
 21
-2.1398577101
 31
0.0
 11
-1.5131805894
 21
-2.079476735
 31
0.0
 11
-1.6372137048
 21
-2.058399481
 31
0.0
  0
SPLINE
  5
564
100
AcDbEntity
  8
0
100
AcDbSpline
 62
7
  6
CONTINUOUS
 70
0
 71
3
 72
9
 73
5
 74
3
 42
0.0000001
 43
0.0000001
 44
0.0000000001
 12
-0.3133068914
 22
-0.0047845217
 32
0.0
 13
-0.0361262538
 23
-0.3112658327
 33
0.0
 40
0.0
 40
0.0
 40
0.0
 40
0.0
 40
0.4987528619
 40
1.0
 40
1.0
 40
1.0
 40
1.0
 10
-1.637213705
 20
-2.0583994733
 30
0.0
 10
-1.6893012745
 20
-2.0591949046
 30
0.0
 10
-1.7979391347
 20
-2.1016237395
 30
0.0
 10
-1.8437466359
 20
-2.206837837
 30
0.0
 10
-1.8497826964
 20
-2.2588448729
 30
0.0
 11
-1.637213705
 21
-2.0583994733
 31
0.0
 11
-1.7820388325
 21
-2.1171360216
 31
0.0
 11
-1.8497826964
 21
-2.2588448729
 31
0.0
  0
SPLINE
  5
565
100
AcDbEntity
  8
0
100
AcDbSpline
 62
7
  6
CONTINUOUS
 70
0
 71
3
 72
9
 73
5
 74
3
 42
0.0000001
 43
0.0000001
 44
0.0000000001
 12
-0.0321345864
 22
-0.2768734101
 32
0.0
 13
0.0468836161
 23
-0.274760569
 33
0.0
 40
0.0
 40
0.0
 40
0.0
 40
0.0
 40
0.7295958324
 40
1.0
 40
1.0
 40
1.0
 40
1.0
 10
-1.8497826963
 20
-2.2588448729
 30
0.0
 10
-1.857597783
 20
-2.3261801016
 30
0.0
 10
-1.857899031
 20
-2.4201727903
 30
0.0
 10
-1.8440010265
 20
-2.5120461954
 30
0.0
 10
-1.8397751848
 20
-2.5368116631
 30
0.0
 11
-1.8497826963
 21
-2.2588448729
 31
0.0
 11
-1.8504789563
 21
-2.4622053335
 31
0.0
 11
-1.8397751848
 21
-2.5368116631
 31
0.0
  0
SPLINE
  5
566
100
AcDbEntity
  8
0
100
AcDbSpline
 62
7
  6
CONTINUOUS
 70
0
 71
3
 72
10
 73
6
 74
4
 42
0.0000001
 43
0.0000001
 44
0.0000000001
 12
-0.1284599377
 22
0.8731819798
 32
0.0
 13
0.2998855628
 23
0.8300707046
 33
0.0
 40
0.0
 40
0.0
 40
0.0
 40
0.0
 40
0.4151262789
 40
0.7045762354
 40
1.0
 40
1.0
 40
1.0
 40
1.0
 10
-2.109503616
 20
-2.8784464308
 30
0.0
 10
-2.1272793146
 20
-2.7576195021
 30
0.0
 10
-2.1497913086
 20
-2.5509981015
 30
0.0
 10
-2.1498465447
 20
-2.2566955165
 30
0.0
 10
-2.1211378084
 20
-2.0845259319
 30
0.0
 10
-2.0916067011
 20
-2.0027850611
 30
0.0
 11
-2.109503616
 21
-2.8784464308
 31
0.0
 11
-2.1460055066
 21
-2.5138868178
 31
0.0
 11
-2.1428069828
 21
-2.2584438914
 31
0.0
 11
-2.0916067011
 21
-2.0027850611
 31
0.0
  0
SPLINE
  5
567
100
AcDbEntity
  8
0
100
AcDbSpline
 62
7
  6
CONTINUOUS
 70
0
 71
3
 72
23
 73
19
 74
17
 42
0.0000001
 43
0.0000001
 44
0.0000000001
 12
0.359969576
 22
0.9978268927
 32
0.0
 13
0.1357483736
 23
-1.0520498955
 33
0.0
 40
0.0
 40
0.0
 40
0.0
 40
0.0
 40
0.079828561
 40
0.1893471136
 40
0.252931641
 40
0.322277794
 40
0.3983621185
 40
0.4395068157
 40
0.4830801905
 40
0.5370931167
 40
0.5873706499
 40
0.6784900216
 40
0.7593486609
 40
0.8310612156
 40
0.8931649411
 40
0.9439081722
 40
0.9806071038
 40
1.0
 40
1.0
 40
1.0
 40
1.0
 10
-2.0916067011
 20
-2.0027850611
 30
0.0
 10
-2.0820280834
 20
-1.9762333662
 30
0.0
 10
-2.0493547132
 20
-1.9169483856
 30
0.0
 10
-1.9896306179
 20
-1.8491487466
 30
0.0
 10
-1.9208667518
 20
-1.7974435338
 30
0.0
 10
-1.8552771599
 20
-1.7626724489
 30
0.0
 10
-1.7922746942
 20
-1.7419536096
 30
0.0
 10
-1.73639938
 20
-1.7311199503
 30
0.0
 10
-1.6875605079
 20
-1.7259646773
 30
0.0
 10
-1.6351983467
 20
-1.7250159915
 30
0.0
 10
-1.5662296629
 20
-1.7304074335
 30
0.0
 10
-1.4890336735
 20
-1.747840227
 30
0.0
 10
-1.4097270702
 20
-1.7826986771
 30
0.0
 10
-1.3462292629
 20
-1.8249754551
 30
0.0
 10
-1.2979924897
 20
-1.8691011325
 30
0.0
 10
-1.2634959517
 20
-1.9096812256
 30
0.0
 10
-1.2437046031
 20
-1.9414401035
 30
0.0
 10
-1.2339039506
 20
-1.9594001471
 30
0.0
 10
-1.2330264326
 20
-1.9662009119
 30
0.0
 11
-2.0916067011
 21
-2.0027850611
 31
0.0
 11
-2.0523384927
 21
-1.9277604677
 31
0.0
 11
-1.9754934554
 21
-1.8406325119
 31
0.0
 11
-1.9215829233
 21
-1.800098856
 31
0.0
 11
-1.8566021407
 21
-1.7656222589
 31
0.0
 11
-1.7799924266
 21
-1.7402303538
 31
0.0
 11
-1.7371521324
 21
-1.731887296
 31
0.0
 11
-1.6911951
 21
-1.7269507737
 31
0.0
 11
-1.6339085744
 21
-1.7259433116
 31
0.0
 11
-1.5807448985
 21
-1.7301895803
 31
0.0
 11
-1.4865266227
 21
-1.75176418
 31
0.0
 11
-1.4080213267
 21
-1.7863163136
 31
0.0
 11
-1.3447100644
 21
-1.8284877216
 31
0.0
 11
-1.2960720877
 21
-1.87292016
 31
0.0
 11
-1.261593857
 21
-1.9142553238
 31
0.0
 11
-1.2407513803
 21
-1.9471349963
 31
0.0
 11
-1.2330264326
 21
-1.9662009119
 31
0.0
  0
SPLINE
  5
568
100
AcDbEntity
  8
0
100
AcDbSpline
 62
7
  6
CONTINUOUS
 70
0
 71
3
 72
10
 73
6
 74
4
 42
0.0000001
 43
0.0000001
 44
0.0000000001
 12
0.1499049954
 22
0.3759372924
 32
0.0
 13
0.3904867251
 23
0.1063828202
 33
0.0
 40
0.0
 40
0.0
 40
0.0
 40
0.0
 40
0.2520036888
 40
0.5059767291
 40
1.0
 40
1.0
 40
1.0
 40
1.0
 10
-1.2229817254
 20
-1.9662009119
 30
0.0
 10
-1.2103895215
 20
-1.9346217171
 30
0.0
 10
-1.1685334263
 20
-1.8771970445
 30
0.0
 10
-1.0522989298
 20
-1.805356031
 30
0.0
 10
-0.9537921412
 20
-1.7791671464
 30
0.0
 10
-0.8894889648
 20
-1.7616486168
 30
0.0
 11
-1.2229817254
 21
-1.9662009119
 31
0.0
 11
-1.1644903072
 21
-1.8826483158
 31
0.0
 11
-1.0788679024
 21
-1.8257773716
 31
0.0
 11
-0.8894889648
 21
-1.7616486168
 31
0.0
  0
SPLINE
  5
569
100
AcDbEntity
  8
0
100
AcDbSpline
 62
7
  6
CONTINUOUS
 70
0
 71
3
 72
9
 73
5
 74
3
 42
0.0000001
 43
0.0000001
 44
0.0000000001
 12
0.4589786715
 22
0.125042516
 32
0.0
 13
0.4590762626
 23
0.1246838126
 33
0.0
 40
0.0
 40
0.0
 40
0.0
 40
0.0
 40
0.8019458722
 40
1.0
 40
1.0
 40
1.0
 40
1.0
 10
-0.889488965
 20
-1.7616486162
 30
0.0
 10
-0.766796948
 20
-1.7282228396
 30
0.0
 10
-0.613177545
 20
-1.6888847125
 30
0.0
 10
-0.4598081633
 20
-1.6486039175
 30
0.0
 10
-0.4295008471
 20
-1.6403725362
 30
0.0
 11
-0.889488965
 21
-1.7616486162
 31
0.0
 11
-0.5205688488
 21
-1.6645224964
 31
0.0
 11
-0.4295008471
 21
-1.6403725362
 31
0.0
  0
SPLINE
  5
56A
100
AcDbEntity
  8
0
100
AcDbSpline
 62
7
  6
CONTINUOUS
 70
0
 71
3
 72
11
 73
7
 74
5
 42
0.0000001
 43
0.0000001
 44
0.0000000001
 12
-0.5175092969
 22
-0.1487860009
 32
0.0
 13
-0.5040440549
 23
-0.1894590043
 33
0.0
 40
0.0
 40
0.0
 40
0.0
 40
0.0
 40
0.1342305347
 40
0.4412509806
 40
0.7775650777
 40
1.0
 40
1.0
 40
1.0
 40
1.0
 10
-0.4295008471
 20
-1.9816758796
 30
0.0
 10
-0.4526560303
 20
-1.9883330877
 30
0.0
 10
-0.5287260917
 20
-2.0103742179
 30
0.0
 10
-0.6627696565
 20
-2.0493071984
 30
0.0
 10
-0.8114267939
 20
-2.094374832
 30
0.0
 10
-0.9077131921
 20
-2.1228351023
 30
0.0
 10
-0.9450855255
 20
-2.1368825352
 30
0.0
 11
-0.4295008471
 21
-1.9816758796
 31
0.0
 11
-0.4989374348
 21
-2.0017479658
 31
0.0
 11
-0.6576195887
 21
-2.0481312416
 31
0.0
 11
-0.8311058946
 21
-2.1000762322
 31
0.0
 11
-0.9450855255
 21
-2.1368825352
 31
0.0
  0
SPLINE
  5
56B
100
AcDbEntity
  8
0
100
AcDbSpline
 62
7
  6
CONTINUOUS
 70
0
 71
3
 72
9
 73
5
 74
3
 42
0.0000001
 43
0.0000001
 44
0.0000000001
 12
-0.2438689275
 22
-0.0916651113
 32
0.0
 13
0.0
 23
-0.2604910834
 33
0.0
 40
0.0
 40
0.0
 40
0.0
 40
0.0
 40
0.6438952445
 40
1.0
 40
1.0
 40
1.0
 40
1.0
 10
-0.945085534
 20
-2.1368825125
 30
0.0
 10
-0.9974275483
 20
-2.1565567556
 30
0.0
 10
-1.0760198032
 20
-2.2149721038
 30
0.0
 10
-1.0947332497
 20
-2.3038750711
 30
0.0
 10
-1.0947332497
 20
-2.3347957756
 30
0.0
 11
-0.945085534
 21
-2.1368825125
 31
0.0
 11
-1.0738120877
 21
-2.2444236854
 31
0.0
 11
-1.0947332497
 21
-2.3347957756
 31
0.0
  0
SPLINE
  5
56C
100
AcDbEntity
  8
RACCORDO
100
AcDbSpline
 62
253
  6
CONTINUOUS
 70
0
 71
3
 72
15
 73
11
 74
9
 42
0.0000001
 43
0.0000001
 44
0.0000000001
 12
-0.2881576716
 22
0.0038542319
 32
0.0
 13
-0.0214951041
 23
0.2873806871
 33
0.0
 40
0.0
 40
0.0
 40
0.0
 40
0.0
 40
0.1661006305
 40
0.3273703266
 40
0.47908113
 40
0.6171090564
 40
0.7383291943
 40
0.8411944316
 40
0.9267165463
 40
1.0
 40
1.0
 40
1.0
 40
1.0
 10
5.5477375422
 20
-6.9549301744
 30
0.0
 10
5.5317831519
 20
-6.9547167776
 30
0.0
 10
5.5003397195
 20
-6.9530319882
 30
0.0
 10
5.454690937
 20
-6.9467822109
 30
0.0
 10
5.4124032206
 20
-6.9370553066
 30
0.0
 10
5.3749841059
 20
-6.9242069912
 30
0.0
 10
5.3437087959
 20
-6.9086922881
 30
0.0
 10
5.3195914867
 20
-6.8909458888
 30
0.0
 10
5.3033393582
 20
-6.8713008621
 30
0.0
 10
5.2984149139
 20
-6.8562956921
 30
0.0
 10
5.2978898354
 20
-6.849275609
 30
0.0
 11
5.5477375422
 21
-6.9549301744
 31
0.0
 11
5.4999401424
 21
-6.9523414387
 31
0.0
 11
5.4539065557
 21
-6.9459493819
 31
0.0
 11
5.411335507
 21
-6.9359898829
 31
0.0
 11
5.3737979472
 21
-6.9228304659
 31
0.0
 11
5.3426790822
 21
-6.9069567378
 31
0.0
 11
5.319127256
 21
-6.8889544687
 31
0.0
 11
5.3040115748
 21
-6.8694879758
 31
0.0
 11
5.2978898354
 21
-6.849275609
 31
0.0
  0
SPLINE
  5
56D
100
AcDbEntity
  8
RACCORDO
100
AcDbSpline
 62
7
  6
CONTINUOUS
 70
0
 71
3
 72
17
 73
13
 74
11
 42
0.0000001
 43
0.0000001
 44
0.0000000001
 12
-0.3573152673
 22
-0.0104647825
 32
0.0
 13
-0.0148532747
 23
-0.3571597571
 33
0.0
 40
0.0
 40
0.0
 40
0.0
 40
0.0
 40
0.1289111824
 40
0.2505325819
 40
0.3645536477
 40
0.4713211985
 40
0.5715020992
 40
0.6658608772
 40
0.7551733224
 40
0.840186145
 40
0.9215951935
 40
1.0
 40
1.0
 40
1.0
 40
1.0
 10
5.4885358243
 20
-5.9947587057
 30
0.0
 10
5.4731818464
 20
-5.9952083815
 30
0.0
 10
5.4433577155
 20
-5.9983907024
 30
0.0
 10
5.4011957542
 20
-6.0094471891
 30
0.0
 10
5.3635128236
 20
-6.0254585599
 30
0.0
 10
5.3307009409
 20
-6.0453606225
 30
0.0
 10
5.3028907578
 20
-6.0682646601
 30
0.0
 10
5.2801030539
 20
-6.0934241588
 30
0.0
 10
5.2623070516
 20
-6.1201834084
 30
0.0
 10
5.2494376777
 20
-6.14794001
 30
0.0
 10
5.2413872026
 20
-6.1760984389
 30
0.0
 10
5.2390763069
 20
-6.1950936553
 30
0.0
 10
5.2386881175
 20
-6.2044280025
 30
0.0
 11
5.4885358243
 21
-5.9947587057
 31
0.0
 11
5.4427147323
 21
-5.9996524906
 31
0.0
 11
5.4006683709
 21
-6.0107091677
 31
0.0
 11
5.3631753024
 21
-6.0266954348
 31
0.0
 11
5.3305745214
 21
-6.0465407167
 31
0.0
 11
5.3029734
 21
-6.0693583115
 31
0.0
 11
5.2803788345
 21
-6.0944026318
 31
0.0
 11
5.2627503076
 21
-6.1210208402
 31
0.0
 11
5.2500137267
 21
-6.1486124221
 31
0.0
 11
5.2420523885
 21
-6.1766034047
 31
0.0
 11
5.2386881175
 21
-6.2044280025
 31
0.0
  0
SPLINE
  5
56E
100
AcDbEntity
  8
RACCORDO
100
AcDbSpline
 62
253
  6
CONTINUOUS
 70
0
 71
3
 72
15
 73
11
 74
9
 42
0.0000001
 43
0.0000001
 44
0.0000000001
 12
0.3882348029
 22
-0.0023184616
 32
0.0
 13
0.0023876314
 23
-0.3882343837
 33
0.0
 40
0.0
 40
0.0
 40
0.0
 40
0.0
 40
0.1257290456
 40
0.2514557317
 40
0.3770343051
 40
0.502340937
 40
0.627292244
 40
0.751858067
 40
0.8760664778
 40
1.0
 40
1.0
 40
1.0
 40
1.0
 10
-5.5700613579
 20
-6.2506965253
 30
0.0
 10
-5.5537905608
 20
-6.2507936913
 30
0.0
 10
-5.5211816887
 20
-6.2541391714
 30
0.0
 10
-5.4742180958
 20
-6.2684016923
 30
0.0
 10
-5.4308829047
 20
-6.2913698464
 30
0.0
 10
-5.3928491522
 20
-6.322173727
 30
0.0
 10
-5.361561376
 20
-6.3596433621
 30
0.0
 10
-5.338218348
 20
-6.4023617531
 30
0.0
 10
-5.3237162316
 20
-6.4486773379
 30
0.0
 10
-5.320312287
 20
-6.4808600454
 30
0.0
 10
-5.3202136511
 20
-6.4968984636
 30
0.0
 11
-5.5700613579
 21
-6.2506965253
 31
0.0
 11
-5.5215032419
 21
-6.2556808897
 31
0.0
 11
-5.4747968619
 21
-6.2698639481
 31
0.0
 11
-5.4317233389
 21
-6.2927048377
 31
0.0
 11
-5.393925257
 21
-6.3233325342
 31
0.0
 11
-5.3628440243
 21
-6.3605790679
 31
0.0
 11
-5.3396649059
 21
-6.4030240637
 31
0.0
 11
-5.3252718242
 21
-6.4490489059
 31
0.0
 11
-5.3202136511
 21
-6.4968984636
 31
0.0
  0
SPLINE
  5
56F
100
AcDbEntity
  8
RACCORDO
100
AcDbSpline
 62
7
  6
CONTINUOUS
 70
0
 71
3
 72
17
 73
13
 74
11
 42
0.0000001
 43
0.0000001
 44
0.0000000001
 12
-0.0148532747
 22
0.3571597571
 32
0.0
 13
-0.3573152673
 23
0.0104647825
 33
0.0
 40
0.0
 40
0.0
 40
0.0
 40
0.0
 40
0.0784048065
 40
0.159813855
 40
0.2448266776
 40
0.3341391228
 40
0.4284979008
 40
0.5286788015
 40
0.6354463523
 40
0.7494674181
 40
0.8710888176
 40
1.0
 40
1.0
 40
1.0
 40
1.0
 10
-5.262291185
 20
-6.2044280025
 30
0.0
 10
-5.2626793744
 20
-6.1950936553
 30
0.0
 10
-5.2649902701
 20
-6.1760984389
 30
0.0
 10
-5.2730407452
 20
-6.14794001
 30
0.0
 10
-5.2859101192
 20
-6.1201834084
 30
0.0
 10
-5.3037061214
 20
-6.0934241588
 30
0.0
 10
-5.3264938253
 20
-6.0682646601
 30
0.0
 10
-5.3543040084
 20
-6.0453606225
 30
0.0
 10
-5.3871158911
 20
-6.0254585599
 30
0.0
 10
-5.4247988217
 20
-6.0094471891
 30
0.0
 10
-5.466960783
 20
-5.9983907024
 30
0.0
 10
-5.4967849139
 20
-5.9952083815
 30
0.0
 10
-5.5121388918
 20
-5.9947587057
 30
0.0
 11
-5.262291185
 21
-6.2044280025
 31
0.0
 11
-5.265655456
 21
-6.1766034047
 31
0.0
 11
-5.2736167942
 21
-6.1486124221
 31
0.0
 11
-5.2863533752
 21
-6.1210208402
 31
0.0
 11
-5.3039819021
 21
-6.0944026318
 31
0.0
 11
-5.3265764676
 21
-6.0693583115
 31
0.0
 11
-5.354177589
 21
-6.0465407167
 31
0.0
 11
-5.3867783699
 21
-6.0266954348
 31
0.0
 11
-5.4242714385
 21
-6.0107091677
 31
0.0
 11
-5.4663177998
 21
-5.9996524906
 31
0.0
 11
-5.5121388918
 21
-5.9947587057
 31
0.0
  0
SPLINE
  5
570
100
AcDbEntity
  8
RACCORDO
100
AcDbSpline
 62
253
  6
CONTINUOUS
 70
0
 71
3
 72
15
 73
11
 74
9
 42
0.0000001
 43
0.0000001
 44
0.0000000001
 12
0.2881576673
 22
0.0038542516
 32
0.0
 13
0.0214951096
 23
0.2873806826
 33
0.0
 40
0.0
 40
0.0
 40
0.0
 40
0.0
 40
0.1661012139
 40
0.3273713521
 40
0.4790823685
 40
0.6171102583
 40
0.7383301595
 40
0.8411950579
 40
0.9267168348
 40
1.0
 40
1.0
 40
1.0
 40
1.0
 10
-5.5713406097
 20
-6.9549301744
 30
0.0
 10
-5.5553861636
 20
-6.9547167758
 30
0.0
 10
-5.5239426332
 20
-6.9530319748
 30
0.0
 10
-5.478293736
 20
-6.9467821597
 30
0.0
 10
-5.436005969
 20
-6.9370552107
 30
0.0
 10
-5.3985868731
 20
-6.9242068589
 30
0.0
 10
-5.3673116363
 20
-6.908692141
 30
0.0
 10
-5.3431944258
 20
-6.8909457565
 30
0.0
 10
-5.3269423901
 20
-6.8713007763
 30
0.0
 10
-5.3220179795
 20
-6.8562956643
 30
0.0
 10
-5.321492903
 20
-6.849275609
 30
0.0
 11
-5.5713406097
 21
-6.9549301744
 31
0.0
 11
-5.5235430433
 21
-6.9523414196
 31
0.0
 11
-5.4775093342
 21
-6.9459493229
 31
0.0
 11
-5.434938234
 21
-6.9359897772
 31
0.0
 11
-5.3974006987
 21
-6.9228303239
 31
0.0
 11
-5.3662819163
 21
-6.906956585
 31
0.0
 11
-5.3427301962
 21
-6.8889543386
 31
0.0
 11
-5.3276146041
 21
-6.8694879002
 31
0.0
 11
-5.321492903
 21
-6.849275609
 31
0.0
  0
SPLINE
  5
571
100
AcDbEntity
  8
RACCORDO
100
AcDbSpline
 62
253
  6
CONTINUOUS
 70
0
 71
3
 72
15
 73
11
 74
9
 42
0.0000001
 43
0.0000001
 44
0.0000000001
 12
-0.3882348025
 22
-0.0023184634
 32
0.0
 13
-0.0023876319
 23
-0.3882343833
 33
0.0
 40
0.0
 40
0.0
 40
0.0
 40
0.0
 40
0.125729459
 40
0.2514564959
 40
0.3770353051
 40
0.5023420228
 40
0.6272932526
 40
0.7518588458
 40
0.8760669051
 40
1.0
 40
1.0
 40
1.0
 40
1.0
 10
-5.6535417097
 20
-6.2506965253
 30
0.0
 10
-5.6698125603
 20
-6.2507936917
 30
0.0
 10
-5.7024215319
 20
-6.2541391925
 30
0.0
 10
-5.7493852379
 20
-6.2684017945
 30
0.0
 10
-5.7927204761
 20
-6.2913700491
 30
0.0
 10
-5.8307542038
 20
-6.3221740115
 30
0.0
 10
-5.8620418999
 20
-6.3596436754
 30
0.0
 10
-5.885384826
 20
-6.402362023
 30
0.0
 10
-5.8998868581
 20
-6.4486774948
 30
0.0
 10
-5.9032907809
 20
-6.4808601007
 30
0.0
 10
-5.9033894164
 20
-6.4968984636
 30
0.0
 11
-5.6535417097
 21
-6.2506965253
 31
0.0
 11
-5.7020999836
 21
-6.2556809218
 31
0.0
 11
-5.748806481
 21
-6.2698640621
 31
0.0
 11
-5.7918800538
 21
-6.2927050532
 31
0.0
 11
-5.8296781119
 21
-6.3233328318
 31
0.0
 11
-5.8607592644
 21
-6.3605793934
 31
0.0
 11
-5.8839382802
 21
-6.4030243435
 31
0.0
 11
-5.8983312771
 21
-6.4490490692
 31
0.0
 11
-5.9033894164
 21
-6.4968984636
 31
0.0
  0
SPLINE
  5
572
100
AcDbEntity
  8
RACCORDO
100
AcDbSpline
 62
253
  6
CONTINUOUS
 70
0
 71
3
 72
9
 73
5
 74
3
 42
0.0000001
 43
0.0000001
 44
0.0000000001
 12
-0.0004118646
 22
-8.9925039188
 32
0.0
 13
-0.0032451975
 23
-8.9925033427
 33
0.0
 40
0.0
 40
0.0
 40
0.0
 40
0.0
 40
0.5000414317
 40
1.0
 40
1.0
 40
1.0
 40
1.0
 10
-9.8419502896
 20
9.7978506198
 30
0.0
 10
-9.8420189394
 20
8.298975775
 30
0.0
 10
-9.8423922977
 20
5.3014744749
 30
0.0
 10
-9.84323785
 20
2.3039732708
 30
0.0
 10
-9.8437786715
 20
0.8053469053
 30
0.0
 11
-9.8419502896
 21
9.7978506198
 31
0.0
 11
-9.8425103967
 21
5.3012261156
 31
0.0
 11
-9.8437786715
 21
0.8053469053
 31
0.0
  0
SPLINE
  5
573
100
AcDbEntity
  8
RACCORDO
100
AcDbSpline
 62
253
  6
CONTINUOUS
 70
0
 71
3
 72
15
 73
11
 74
9
 42
0.0000001
 43
0.0000001
 44
0.0000000001
 12
-0.2881576716
 22
0.0038542319
 32
0.0
 13
-0.0214951041
 23
0.2873806871
 33
0.0
 40
0.0
 40
0.0
 40
0.0
 40
0.0
 40
0.1661006305
 40
0.3273703266
 40
0.47908113
 40
0.6171090564
 40
0.7383291943
 40
0.8411944316
 40
0.9267165463
 40
1.0
 40
1.0
 40
1.0
 40
1.0
 10
-5.6522624578
 20
-6.9549301744
 30
0.0
 10
-5.6682168481
 20
-6.9547167776
 30
0.0
 10
-5.6996602805
 20
-6.9530319882
 30
0.0
 10
-5.745309063
 20
-6.9467822109
 30
0.0
 10
-5.7875967794
 20
-6.9370553066
 30
0.0
 10
-5.8250158941
 20
-6.9242069912
 30
0.0
 10
-5.8562912041
 20
-6.9086922881
 30
0.0
 10
-5.8804085133
 20
-6.8909458888
 30
0.0
 10
-5.8966606418
 20
-6.8713008621
 30
0.0
 10
-5.9015850861
 20
-6.8562956921
 30
0.0
 10
-5.9021101646
 20
-6.849275609
 30
0.0
 11
-5.6522624578
 21
-6.9549301744
 31
0.0
 11
-5.7000598576
 21
-6.9523414387
 31
0.0
 11
-5.7460934443
 21
-6.9459493819
 31
0.0
 11
-5.788664493
 21
-6.9359898829
 31
0.0
 11
-5.8262020528
 21
-6.9228304659
 31
0.0
 11
-5.8573209178
 21
-6.9069567378
 31
0.0
 11
-5.880872744
 21
-6.8889544687
 31
0.0
 11
-5.8959884252
 21
-6.8694879758
 31
0.0
 11
-5.9021101646
 21
-6.849275609
 31
0.0
  0
SPLINE
  5
574
100
AcDbEntity
  8
RACCORDO
100
AcDbSpline
 62
253
  6
CONTINUOUS
 70
0
 71
3
 72
9
 73
5
 74
3
 42
0.0000001
 43
0.0000001
 44
0.0000000001
 12
-0.0029682127
 22
-6.007191491
 32
0.0
 13
-0.0042345483
 23
-6.0071907318
 33
0.0
 40
0.0
 40
0.0
 40
0.0
 40
0.0
 40
0.5000502626
 40
1.0
 40
1.0
 40
1.0
 40
1.0
 10
-9.8454031253
 20
-2.9946530947
 30
0.0
 10
-9.8458978772
 20
-3.9959523222
 30
0.0
 10
-9.846992758
 20
-5.9983494351
 30
0.0
 10
-9.8482986892
 20
-8.0007464216
 30
0.0
 10
-9.8490043763
 20
-9.0018442312
 30
0.0
 11
-9.8454031253
 21
-2.9946530947
 31
0.0
 11
-9.8470456413
 21
-5.9985506949
 31
0.0
 11
-9.8490043763
 21
-9.0018442312
 31
0.0
  0
SPLINE
  5
575
100
AcDbEntity
  8
RACCORDO
100
AcDbSpline
 62
253
  6
CONTINUOUS
 70
0
 71
3
 72
9
 73
5
 74
3
 42
0.0000001
 43
0.0000001
 44
0.0000000001
 12
-0.0042345483
 22
6.0071907318
 32
0.0
 13
-0.0029682127
 23
6.007191491
 33
0.0
 40
0.0
 40
0.0
 40
0.0
 40
0.0
 40
0.4999497374
 40
1.0
 40
1.0
 40
1.0
 40
1.0
 10
9.8254013087
 20
-9.0018442312
 30
0.0
 10
9.8246956216
 20
-8.0007464216
 30
0.0
 10
9.8233896905
 20
-5.9983494351
 30
0.0
 10
9.8222948096
 20
-3.9959523222
 30
0.0
 10
9.8218000578
 20
-2.9946530947
 30
0.0
 11
9.8254013087
 21
-9.0018442312
 31
0.0
 11
9.8234425737
 21
-5.9985506949
 31
0.0
 11
9.8218000578
 21
-2.9946530947
 31
0.0
  0
SPLINE
  5
576
100
AcDbEntity
  8
RACCORDO
100
AcDbSpline
 62
253
  6
CONTINUOUS
 70
0
 71
3
 72
9
 73
5
 74
3
 42
0.0000001
 43
0.0000001
 44
0.0000000001
 12
-0.0032451975
 22
8.9925033427
 32
0.0
 13
-0.0004118646
 23
8.9925039188
 33
0.0
 40
0.0
 40
0.0
 40
0.0
 40
0.0
 40
0.4999585687
 40
1.0
 40
1.0
 40
1.0
 40
1.0
 10
9.8201756039
 20
0.8053469053
 30
0.0
 10
9.8196347825
 20
2.3039732722
 30
0.0
 10
9.8187892301
 20
5.3014744763
 30
0.0
 10
9.8184158718
 20
8.2989757764
 30
0.0
 10
9.818347222
 20
9.7978506198
 30
0.0
 11
9.8201756039
 21
0.8053469053
 31
0.0
 11
9.8189073291
 21
5.3012261198
 31
0.0
 11
9.818347222
 21
9.7978506198
 31
0.0
  0
SPLINE
  5
577
100
AcDbEntity
  8
RACCORDO
100
AcDbSpline
 62
7
  6
CONTINUOUS
 70
0
 71
3
 72
17
 73
13
 74
11
 42
0.0000001
 43
0.0000001
 44
0.0000000001
 12
0.0148532747
 22
0.3571597571
 32
0.0
 13
0.3573152673
 23
0.0104647825
 33
0.0
 40
0.0
 40
0.0
 40
0.0
 40
0.0
 40
0.0784048065
 40
0.159813855
 40
0.2448266776
 40
0.3341391228
 40
0.4284979008
 40
0.5286788015
 40
0.6354463523
 40
0.7494674181
 40
0.8710888176
 40
1.0
 40
1.0
 40
1.0
 40
1.0
 10
-5.9613118825
 20
-6.2044280025
 30
0.0
 10
-5.9609236931
 20
-6.1950936553
 30
0.0
 10
-5.9586127974
 20
-6.1760984389
 30
0.0
 10
-5.9505623223
 20
-6.14794001
 30
0.0
 10
-5.9376929484
 20
-6.1201834084
 30
0.0
 10
-5.9198969461
 20
-6.0934241588
 30
0.0
 10
-5.8971092422
 20
-6.0682646601
 30
0.0
 10
-5.8692990591
 20
-6.0453606225
 30
0.0
 10
-5.8364871764
 20
-6.0254585599
 30
0.0
 10
-5.7988042458
 20
-6.0094471891
 30
0.0
 10
-5.7566422845
 20
-5.9983907024
 30
0.0
 10
-5.7268181536
 20
-5.9952083815
 30
0.0
 10
-5.7114641757
 20
-5.9947587057
 30
0.0
 11
-5.9613118825
 21
-6.2044280025
 31
0.0
 11
-5.9579476115
 21
-6.1766034047
 31
0.0
 11
-5.9499862733
 21
-6.1486124221
 31
0.0
 11
-5.9372496924
 21
-6.1210208402
 31
0.0
 11
-5.9196211655
 21
-6.0944026318
 31
0.0
 11
-5.8970266
 21
-6.0693583115
 31
0.0
 11
-5.8694254786
 21
-6.0465407167
 31
0.0
 11
-5.8368246976
 21
-6.0266954348
 31
0.0
 11
-5.7993316291
 21
-6.0107091677
 31
0.0
 11
-5.7572852677
 21
-5.9996524906
 31
0.0
 11
-5.7114641757
 21
-5.9947587057
 31
0.0
  0
SPLINE
  5
578
100
AcDbEntity
  8
RACCORDO
100
AcDbSpline
 62
253
  6
CONTINUOUS
 70
0
 71
3
 72
9
 73
5
 74
3
 42
0.0000001
 43
0.0000001
 44
0.0000000001
 12
-0.006311189
 22
1.6273687137
 32
0.0
 13
-0.0043781238
 23
1.6273750623
 33
0.0
 40
0.0
 40
0.0
 40
0.0
 40
0.0
 40
0.499990412
 40
1.0
 40
1.0
 40
1.0
 40
1.0
 10
-4.3647014622
 20
5.7919173502
 30
0.0
 10
-4.3657533068
 20
6.0631402681
 30
0.0
 10
-4.3676959436
 20
6.6055971427
 30
0.0
 10
-4.3693164038
 20
7.1480550754
 30
0.0
 10
-4.3700461051
 20
7.4192894536
 30
0.0
 11
-4.3647014622
 21
5.7919173502
 31
0.0
 11
-4.3676153653
 21
6.6055870051
 31
0.0
 11
-4.3700461051
 21
7.4192894536
 31
0.0
  0
SPLINE
  5
579
100
AcDbEntity
  8
RACCORDO
100
AcDbSpline
 62
253
  6
CONTINUOUS
 70
0
 71
3
 72
15
 73
11
 74
9
 42
0.0000001
 43
0.0000001
 44
0.0000000001
 12
0.00000131
 22
0.2954494977
 32
0.0
 13
0.00976487
 23
0.2952880848
 33
0.0
 40
0.0
 40
0.0
 40
0.0
 40
0.0
 40
0.1762543538
 40
0.3472428692
 40
0.5076801248
 40
0.6526883366
 40
0.7778610396
 40
0.8793945376
 40
0.9542028934
 40
1.0
 40
1.0
 40
1.0
 40
1.0
 10
5.6284958001
 20
-6.5461388512
 30
0.0
 10
5.628495877
 20
-6.5287807645
 30
0.0
 10
5.6285129194
 20
-6.4945831854
 30
0.0
 10
5.6285894438
 20
-6.444585286
 30
0.0
 10
5.6287147131
 20
-6.3976647235
 30
0.0
 10
5.6288833118
 20
-6.3552563755
 30
0.0
 10
5.6290918371
 20
-6.3186494143
 30
0.0
 10
5.6293244192
 20
-6.2889559722
 30
0.0
 10
5.6295879772
 20
-6.2670809848
 30
0.0
 10
5.6297895745
 20
-6.2552043053
 30
0.0
 10
5.6299386421
 20
-6.2506965253
 30
0.0
 11
5.6284958001
 21
-6.5461388512
 31
0.0
 11
5.6285222722
 21
-6.4940645977
 31
0.0
 11
5.6286009319
 21
-6.4435461879
 31
0.0
 11
5.6287296067
 21
-6.396145256
 31
0.0
 11
5.6289042661
 21
-6.3533030087
 31
0.0
 11
5.6291196393
 21
-6.3163214235
 31
0.0
 11
5.6293693
 21
-6.2863244415
 31
0.0
 11
5.6296449067
 21
-6.2642240688
 31
0.0
 11
5.6299386421
 21
-6.2506965253
 31
0.0
  0
SPLINE
  5
57A
100
AcDbEntity
  8
RACCORDO
100
AcDbSpline
 62
253
  6
CONTINUOUS
 70
0
 71
3
 72
9
 73
5
 74
3
 42
0.0000001
 43
0.0000001
 44
0.0000000001
 12
-0.0043781238
 22
-1.6273750623
 32
0.0
 13
-0.006311189
 23
-1.6273687137
 33
0.0
 40
0.0
 40
0.0
 40
0.0
 40
0.0
 40
0.5000088287
 40
1.0
 40
1.0
 40
1.0
 40
1.0
 10
4.3464430375
 20
7.4192894536
 30
0.0
 10
4.3457133373
 20
7.1480554873
 30
0.0
 10
4.3440928774
 20
6.6055975546
 30
0.0
 10
4.3421502409
 20
6.06314068
 30
0.0
 10
4.3410983946
 20
5.7919173502
 30
0.0
 11
4.3464430375
 21
7.4192894536
 31
0.0
 11
4.3440123018
 21
6.6055882407
 31
0.0
 11
4.3410983946
 21
5.7919173502
 31
0.0
  0
SPLINE
  5
57B
100
AcDbEntity
  8
RACCORDO
100
AcDbSpline
 62
253
  6
CONTINUOUS
 70
0
 71
3
 72
15
 73
11
 74
9
 42
0.0000001
 43
0.0000001
 44
0.0000000001
 12
0.0097648701
 22
-0.2952880848
 32
0.0
 13
0.00000131
 23
-0.2954494977
 33
0.0
 40
0.0
 40
0.0
 40
0.0
 40
0.0
 40
0.0457971067
 40
0.1206054626
 40
0.2221389606
 40
0.3473116637
 40
0.4923198754
 40
0.652757131
 40
0.8237456464
 40
1.0
 40
1.0
 40
1.0
 40
1.0
 10
5.5464582903
 20
-6.2506965253
 30
0.0
 10
5.5466073579
 20
-6.2552043053
 30
0.0
 10
5.5468089552
 20
-6.2670809848
 30
0.0
 10
5.5470725133
 20
-6.2889559723
 30
0.0
 10
5.5473050953
 20
-6.3186494143
 30
0.0
 10
5.5475136207
 20
-6.3552563755
 30
0.0
 10
5.5476822194
 20
-6.3976647236
 30
0.0
 10
5.5478074887
 20
-6.4445852861
 30
0.0
 10
5.547884013
 20
-6.4945831855
 30
0.0
 10
5.5479010554
 20
-6.5287807645
 30
0.0
 10
5.5479011324
 20
-6.5461388512
 30
0.0
 11
5.5464582903
 21
-6.2506965253
 31
0.0
 11
5.5467520258
 21
-6.2642240688
 31
0.0
 11
5.5470276324
 21
-6.2863244416
 31
0.0
 11
5.5472772931
 21
-6.3163214236
 31
0.0
 11
5.5474926663
 21
-6.3533030087
 31
0.0
 11
5.5476673257
 21
-6.396145256
 31
0.0
 11
5.5477960006
 21
-6.443546188
 31
0.0
 11
5.5478746602
 21
-6.4940645977
 31
0.0
 11
5.5479011324
 21
-6.5461388512
 31
0.0
  0
SPLINE
  5
57C
100
AcDbEntity
  8
RACCORDO
100
AcDbSpline
 62
253
  6
CONTINUOUS
 70
0
 71
3
 72
16
 73
12
 74
10
 42
0.0000001
 43
0.0000001
 44
0.0000000001
 12
0.0000012478
 22
0.2999696776
 32
0.0
 13
0.0949852704
 23
0.2845340153
 33
0.0
 40
0.0
 40
0.0
 40
0.0
 40
0.0
 40
0.1716903986
 40
0.3383600475
 40
0.4949773352
 40
0.6368827949
 40
0.7598615728
 40
0.8602569174
 40
0.9350874649
 40
0.9821296043
 40
1.0
 40
1.0
 40
1.0
 40
1.0
 10
5.6878611082
 20
-4.8189108807
 30
0.0
 10
5.6878611796
 20
-4.8017435761
 30
0.0
 10
5.6878774089
 20
-4.7679108884
 30
0.0
 10
5.6879542658
 20
-4.718418638
 30
0.0
 10
5.6880704453
 20
-4.6719028126
 30
0.0
 10
5.6882563801
 20
-4.6297618358
 30
0.0
 10
5.6883987086
 20
-4.5932243018
 30
0.0
 10
5.6887988914
 20
-4.5634456347
 30
0.0
 10
5.6886473374
 20
-4.5411314723
 30
0.0
 10
5.6896465761
 20
-4.5273306655
 30
0.0
 10
5.6890109418
 20
-4.5206512551
 30
0.0
 10
5.68957675
 20
-4.5189563433
 30
0.0
 11
5.6878611082
 21
-4.8189108807
 31
0.0
 11
5.6878869984
 21
-4.7674089736
 31
0.0
 11
5.6879639442
 21
-4.717413192
 31
0.0
 11
5.6880898448
 21
-4.6704329234
 31
0.0
 11
5.6882608154
 21
-4.6278659318
 31
0.0
 11
5.6884719866
 21
-4.5909766318
 31
0.0
 11
5.6887167855
 21
-4.5608620676
 31
0.0
 11
5.6889882601
 21
-4.5384168141
 31
0.0
 11
5.6892775683
 21
-4.5243085647
 31
0.0
 11
5.68957675
 21
-4.5189563433
 31
0.0
  0
SPLINE
  5
57D
100
AcDbEntity
  8
RACCORDO
100
AcDbSpline
 62
253
  6
CONTINUOUS
 70
0
 71
3
 72
16
 73
12
 74
10
 42
0.0000001
 43
0.0000001
 44
0.0000000001
 12
0.0949852718
 22
-0.2845340149
 32
0.0
 13
0.0000012478
 23
-0.2999696776
 33
0.0
 40
0.0
 40
0.0
 40
0.0
 40
0.0
 40
0.0178703958
 40
0.0649125353
 40
0.1397430829
 40
0.2401384275
 40
0.3631172055
 40
0.5050226653
 40
0.661639953
 40
0.8283096018
 40
1.0
 40
1.0
 40
1.0
 40
1.0
 10
5.4868201825
 20
-4.5189563433
 30
0.0
 10
5.4873859906
 20
-4.5206512551
 30
0.0
 10
5.4867503563
 20
-4.5273306656
 30
0.0
 10
5.4877495951
 20
-4.5411314723
 30
0.0
 10
5.487598041
 20
-4.5634456348
 30
0.0
 10
5.4879982239
 20
-4.5932243019
 30
0.0
 10
5.4881405523
 20
-4.6297618359
 30
0.0
 10
5.4883264871
 20
-4.6719028127
 30
0.0
 10
5.4884426667
 20
-4.7184186381
 30
0.0
 10
5.4885195235
 20
-4.7679108885
 30
0.0
 10
5.4885357528
 20
-4.8017435762
 30
0.0
 10
5.4885358243
 20
-4.8189108807
 30
0.0
 11
5.4868201825
 21
-4.5189563433
 31
0.0
 11
5.4871193641
 21
-4.5243085647
 31
0.0
 11
5.4874086724
 21
-4.5384168142
 31
0.0
 11
5.4876801469
 21
-4.5608620677
 31
0.0
 11
5.4879249458
 21
-4.5909766319
 31
0.0
 11
5.4881361171
 21
-4.6278659319
 31
0.0
 11
5.4883070877
 21
-4.6704329235
 31
0.0
 11
5.4884329882
 21
-4.7174131922
 31
0.0
 11
5.4885099341
 21
-4.7674089738
 31
0.0
 11
5.4885358243
 21
-4.8189108807
 31
0.0
  0
SPLINE
  5
57E
100
AcDbEntity
  8
RACCORDO
100
AcDbSpline
 62
253
  6
CONTINUOUS
 70
0
 71
3
 72
15
 73
11
 74
9
 42
0.0000001
 43
0.0000001
 44
0.0000000001
 12
0.00000131
 22
0.2954494977
 32
0.0
 13
0.00976487
 23
0.2952880848
 33
0.0
 40
0.0
 40
0.0
 40
0.0
 40
0.0
 40
0.1762543538
 40
0.3472428692
 40
0.5076801248
 40
0.6526883366
 40
0.7778610396
 40
0.8793945376
 40
0.9542028934
 40
1.0
 40
1.0
 40
1.0
 40
1.0
 10
-5.5715041999
 20
-6.5461388512
 30
0.0
 10
-5.571504123
 20
-6.5287807645
 30
0.0
 10
-5.5714870806
 20
-6.4945831854
 30
0.0
 10
-5.5714105562
 20
-6.444585286
 30
0.0
 10
-5.5712852869
 20
-6.3976647235
 30
0.0
 10
-5.5711166882
 20
-6.3552563755
 30
0.0
 10
-5.5709081629
 20
-6.3186494143
 30
0.0
 10
-5.5706755808
 20
-6.2889559722
 30
0.0
 10
-5.5704120228
 20
-6.2670809848
 30
0.0
 10
-5.5702104255
 20
-6.2552043053
 30
0.0
 10
-5.5700613579
 20
-6.2506965253
 30
0.0
 11
-5.5715041999
 21
-6.5461388512
 31
0.0
 11
-5.5714777278
 21
-6.4940645977
 31
0.0
 11
-5.5713990681
 21
-6.4435461879
 31
0.0
 11
-5.5712703933
 21
-6.396145256
 31
0.0
 11
-5.5710957339
 21
-6.3533030087
 31
0.0
 11
-5.5708803607
 21
-6.3163214235
 31
0.0
 11
-5.5706307
 21
-6.2863244415
 31
0.0
 11
-5.5703550933
 21
-6.2642240688
 31
0.0
 11
-5.5700613579
 21
-6.2506965253
 31
0.0
  0
SPLINE
  5
57F
100
AcDbEntity
  8
RACCORDO
100
AcDbSpline
 62
253
  6
CONTINUOUS
 70
0
 71
3
 72
15
 73
11
 74
9
 42
0.0000001
 43
0.0000001
 44
0.0000000001
 12
0.0097648701
 22
-0.2952880848
 32
0.0
 13
0.00000131
 23
-0.2954494977
 33
0.0
 40
0.0
 40
0.0
 40
0.0
 40
0.0
 40
0.0457971067
 40
0.1206054626
 40
0.2221389606
 40
0.3473116637
 40
0.4923198754
 40
0.652757131
 40
0.8237456464
 40
1.0
 40
1.0
 40
1.0
 40
1.0
 10
-5.6535417097
 20
-6.2506965253
 30
0.0
 10
-5.6533926421
 20
-6.2552043053
 30
0.0
 10
-5.6531910448
 20
-6.2670809848
 30
0.0
 10
-5.6529274867
 20
-6.2889559723
 30
0.0
 10
-5.6526949047
 20
-6.3186494143
 30
0.0
 10
-5.6524863793
 20
-6.3552563755
 30
0.0
 10
-5.6523177806
 20
-6.3976647236
 30
0.0
 10
-5.6521925113
 20
-6.4445852861
 30
0.0
 10
-5.652115987
 20
-6.4945831855
 30
0.0
 10
-5.6520989446
 20
-6.5287807645
 30
0.0
 10
-5.6520988676
 20
-6.5461388512
 30
0.0
 11
-5.6535417097
 21
-6.2506965253
 31
0.0
 11
-5.6532479742
 21
-6.2642240688
 31
0.0
 11
-5.6529723676
 21
-6.2863244416
 31
0.0
 11
-5.6527227069
 21
-6.3163214236
 31
0.0
 11
-5.6525073337
 21
-6.3533030087
 31
0.0
 11
-5.6523326743
 21
-6.396145256
 31
0.0
 11
-5.6522039994
 21
-6.443546188
 31
0.0
 11
-5.6521253398
 21
-6.4940645977
 31
0.0
 11
-5.6520988676
 21
-6.5461388512
 31
0.0
  0
SPLINE
  5
580
100
AcDbEntity
  8
RACCORDO
100
AcDbSpline
 62
253
  6
CONTINUOUS
 70
0
 71
3
 72
9
 73
5
 74
3
 42
0.0000001
 43
0.0000001
 44
0.0000000001
 12
-0.002969815
 22
-6.0152618038
 32
0.0
 13
-0.004238536
 23
-6.0152610437
 33
0.0
 40
0.0
 40
0.0
 40
0.0
 40
0.0
 40
0.5000541149
 40
1.0
 40
1.0
 40
1.0
 40
1.0
 10
-9.6454307917
 20
-2.9946530947
 30
0.0
 10
-9.6459258145
 20
-3.9973052337
 30
0.0
 10
-9.6470214343
 20
-6.0023924509
 30
0.0
 10
-9.6483284801
 20
-8.0074795414
 30
0.0
 10
-9.6490348263
 20
-9.0099145436
 30
0.0
 11
-9.6454307917
 21
-2.9946530947
 31
0.0
 11
-9.6470744208
 21
-6.0026094293
 31
0.0
 11
-9.6490348263
 21
-9.0099145436
 31
0.0
  0
SPLINE
  5
581
100
AcDbEntity
  8
RACCORDO
100
AcDbSpline
 62
253
  6
CONTINUOUS
 70
0
 71
3
 72
16
 73
12
 74
10
 42
0.0000001
 43
0.0000001
 44
0.0000000001
 12
0.0000012478
 22
0.2999696776
 32
0.0
 13
0.0949852704
 23
0.2845340153
 33
0.0
 40
0.0
 40
0.0
 40
0.0
 40
0.0
 40
0.1716903986
 40
0.3383600475
 40
0.4949773352
 40
0.6368827949
 40
0.7598615728
 40
0.8602569174
 40
0.9350874649
 40
0.9821296043
 40
1.0
 40
1.0
 40
1.0
 40
1.0
 10
-5.5121388918
 20
-4.8189108807
 30
0.0
 10
-5.5121388204
 20
-4.8017435761
 30
0.0
 10
-5.5121225911
 20
-4.7679108884
 30
0.0
 10
-5.5120457342
 20
-4.718418638
 30
0.0
 10
-5.5119295547
 20
-4.6719028126
 30
0.0
 10
-5.5117436199
 20
-4.6297618358
 30
0.0
 10
-5.5116012914
 20
-4.5932243018
 30
0.0
 10
-5.5112011086
 20
-4.5634456347
 30
0.0
 10
-5.5113526626
 20
-4.5411314723
 30
0.0
 10
-5.5103534239
 20
-4.5273306655
 30
0.0
 10
-5.5109890582
 20
-4.5206512551
 30
0.0
 10
-5.51042325
 20
-4.5189563433
 30
0.0
 11
-5.5121388918
 21
-4.8189108807
 31
0.0
 11
-5.5121130016
 21
-4.7674089736
 31
0.0
 11
-5.5120360558
 21
-4.717413192
 31
0.0
 11
-5.5119101552
 21
-4.6704329234
 31
0.0
 11
-5.5117391846
 21
-4.6278659318
 31
0.0
 11
-5.5115280134
 21
-4.5909766318
 31
0.0
 11
-5.5112832145
 21
-4.5608620676
 31
0.0
 11
-5.5110117399
 21
-4.5384168141
 31
0.0
 11
-5.5107224317
 21
-4.5243085647
 31
0.0
 11
-5.51042325
 21
-4.5189563433
 31
0.0
  0
SPLINE
  5
582
100
AcDbEntity
  8
RACCORDO
100
AcDbSpline
 62
253
  6
CONTINUOUS
 70
0
 71
3
 72
9
 73
5
 74
3
 42
0.0000001
 43
0.0000001
 44
0.0000000001
 12
-0.0004133782
 22
-8.9856422609
 32
0.0
 13
-0.0032401193
 23
-8.9856416862
 33
0.0
 40
0.0
 40
0.0
 40
0.0
 40
0.0
 40
0.5000412892
 40
1.0
 40
1.0
 40
1.0
 40
1.0
 10
-9.6419810414
 20
9.7909889623
 30
0.0
 10
-9.6420499434
 20
8.2932582487
 30
0.0
 10
-9.642423257
 20
5.298044168
 30
0.0
 10
-9.6432676662
 20
2.302830183
 30
0.0
 10
-9.6438076415
 20
0.8053469053
 30
0.0
 11
-9.6419810414
 21
9.7909889623
 31
0.0
 11
-9.6425410812
 21
5.2977968518
 31
0.0
 11
-9.6438076415
 21
0.8053469053
 31
0.0
  0
SPLINE
  5
583
100
AcDbEntity
  8
RACCORDO
100
AcDbSpline
 62
253
  6
CONTINUOUS
 70
0
 71
3
 72
16
 73
12
 74
10
 42
0.0000001
 43
0.0000001
 44
0.0000000001
 12
0.0949852718
 22
-0.2845340149
 32
0.0
 13
0.0000012478
 23
-0.2999696776
 33
0.0
 40
0.0
 40
0.0
 40
0.0
 40
0.0
 40
0.0178703958
 40
0.0649125353
 40
0.1397430829
 40
0.2401384275
 40
0.3631172055
 40
0.5050226653
 40
0.661639953
 40
0.8283096018
 40
1.0
 40
1.0
 40
1.0
 40
1.0
 10
-5.7131798175
 20
-4.5189563433
 30
0.0
 10
-5.7126140094
 20
-4.5206512551
 30
0.0
 10
-5.7132496437
 20
-4.5273306656
 30
0.0
 10
-5.7122504049
 20
-4.5411314723
 30
0.0
 10
-5.712401959
 20
-4.5634456348
 30
0.0
 10
-5.7120017761
 20
-4.5932243019
 30
0.0
 10
-5.7118594477
 20
-4.6297618359
 30
0.0
 10
-5.7116735129
 20
-4.6719028127
 30
0.0
 10
-5.7115573333
 20
-4.7184186381
 30
0.0
 10
-5.7114804765
 20
-4.7679108885
 30
0.0
 10
-5.7114642472
 20
-4.8017435762
 30
0.0
 10
-5.7114641757
 20
-4.8189108807
 30
0.0
 11
-5.7131798175
 21
-4.5189563433
 31
0.0
 11
-5.7128806359
 21
-4.5243085647
 31
0.0
 11
-5.7125913276
 21
-4.5384168142
 31
0.0
 11
-5.7123198531
 21
-4.5608620677
 31
0.0
 11
-5.7120750542
 21
-4.5909766319
 31
0.0
 11
-5.7118638829
 21
-4.6278659319
 31
0.0
 11
-5.7116929123
 21
-4.6704329235
 31
0.0
 11
-5.7115670118
 21
-4.7174131922
 31
0.0
 11
-5.7114900659
 21
-4.7674089738
 31
0.0
 11
-5.7114641757
 21
-4.8189108807
 31
0.0
  0
SPLINE
  5
584
100
AcDbEntity
  8
RACCORDO
100
AcDbSpline
 62
253
  6
CONTINUOUS
 70
0
 71
3
 72
9
 73
5
 74
3
 42
0.0000001
 43
0.0000001
 44
0.0000000001
 12
-0.0043623264
 22
-1.6181841037
 32
0.0
 13
-0.0062751532
 23
-1.6181778165
 33
0.0
 40
0.0
 40
0.0
 40
0.0
 40
0.0
 40
0.5000111748
 40
1.0
 40
1.0
 40
1.0
 40
1.0
 10
4.15848816
 20
7.4146926417
 30
0.0
 10
4.1577610893
 20
7.1449892635
 30
0.0
 10
4.1561475608
 20
6.6055949803
 30
0.0
 10
4.1542152612
 20
6.0662017448
 30
0.0
 10
4.1531694257
 20
5.7965114697
 30
0.0
 11
4.15848816
 21
7.4146926417
 31
0.0
 11
4.1560678284
 21
6.6055831869
 31
0.0
 11
4.1531694257
 21
5.7965114697
 31
0.0
  0
SPLINE
  5
585
100
AcDbEntity
  8
RACCORDO
100
AcDbSpline
 62
253
  6
CONTINUOUS
 70
0
 71
3
 72
9
 73
5
 74
3
 42
0.0000001
 43
0.0000001
 44
0.0000000001
 12
-0.0062751532
 22
1.6181778165
 32
0.0
 13
-0.0043623264
 23
1.6181841037
 33
0.0
 40
0.0
 40
0.0
 40
0.0
 40
0.0
 40
0.4999892045
 40
1.0
 40
1.0
 40
1.0
 40
1.0
 10
-4.1767724932
 20
5.7965114697
 30
0.0
 10
-4.1778183295
 20
6.0662019494
 30
0.0
 10
-4.179750629
 20
6.6055951849
 30
0.0
 10
-4.1813641574
 20
7.1449894681
 30
0.0
 10
-4.1820912275
 20
7.4146926417
 30
0.0
 11
-4.1767724932
 21
5.7965114697
 31
0.0
 11
-4.179670898
 21
6.6055838008
 31
0.0
 11
-4.1820912275
 21
7.4146926417
 31
0.0
  0
SPLINE
  5
586
100
AcDbEntity
  8
RACCORDO
100
AcDbSpline
 62
253
  6
CONTINUOUS
 70
0
 71
3
 72
9
 73
5
 74
3
 42
0.0000001
 43
0.0000001
 44
0.0000000001
 12
-0.0032401193
 22
8.9856416862
 32
0.0
 13
-0.0004133782
 23
8.9856422609
 33
0.0
 40
0.0
 40
0.0
 40
0.0
 40
0.0
 40
0.4999587091
 40
1.0
 40
1.0
 40
1.0
 40
1.0
 10
9.6202045739
 20
0.8053469053
 30
0.0
 10
9.6196645986
 20
2.302830178
 30
0.0
 10
9.6188201895
 20
5.298044163
 30
0.0
 10
9.6184468759
 20
8.2932582438
 30
0.0
 10
9.6183779738
 20
9.7909889623
 30
0.0
 11
9.6202045739
 21
0.8053469053
 31
0.0
 11
9.6189380136
 21
5.297796837
 31
0.0
 11
9.6183779738
 21
9.7909889623
 31
0.0
  0
SPLINE
  5
587
100
AcDbEntity
  8
RACCORDO
100
AcDbSpline
 62
253
  6
CONTINUOUS
 70
0
 71
3
 72
9
 73
5
 74
3
 42
0.0000001
 43
0.0000001
 44
0.0000000001
 12
-0.004238536
 22
6.0152610437
 32
0.0
 13
-0.002969815
 23
6.0152618038
 33
0.0
 40
0.0
 40
0.0
 40
0.0
 40
0.0
 40
0.4999458851
 40
1.0
 40
1.0
 40
1.0
 40
1.0
 10
9.6254317587
 20
-9.0099145436
 30
0.0
 10
9.6247254125
 20
-8.0074795414
 30
0.0
 10
9.6234183667
 20
-6.0023924509
 30
0.0
 10
9.6223227469
 20
-3.9973052337
 30
0.0
 10
9.6218277242
 20
-2.9946530947
 30
0.0
 11
9.6254317587
 21
-9.0099145436
 31
0.0
 11
9.6234713532
 21
-6.0026094293
 31
0.0
 11
9.6218277242
 21
-2.9946530947
 31
0.0
  0
SPLINE
  5
588
100
AcDbEntity
  8
RACCORDO
100
AcDbSpline
 62
253
  6
CONTINUOUS
 70
0
 71
3
 72
15
 73
11
 74
9
 42
0.0000001
 43
0.0000001
 44
0.0000000001
 12
0.4014143357
 22
-0.0070088487
 32
0.0
 13
0.0139942489
 23
-0.4012315464
 33
0.0
 40
0.0
 40
0.0
 40
0.0
 40
0.0
 40
0.1440044844
 40
0.2856956272
 40
0.4226390599
 40
0.5528844372
 40
0.67524257
 40
0.7895686166
 40
0.89699843
 40
1.0
 40
1.0
 40
1.0
 40
1.0
 10
7.1916222808
 20
7.1517935147
 30
0.0
 10
7.2108907689
 20
7.1514570795
 30
0.0
 10
7.2491249233
 20
7.1481878062
 30
0.0
 10
7.3044591783
 20
7.1356484418
 30
0.0
 10
7.355720905
 20
7.1159213849
 30
0.0
 10
7.401045231
 20
7.0896841491
 30
0.0
 10
7.4387863389
 20
7.0578197653
 30
0.0
 10
7.4675164026
 20
7.0213619636
 30
0.0
 10
7.4860225968
 20
6.9815726207
 30
0.0
 10
7.4909590523
 20
6.9534373068
 30
0.0
 10
7.4914395289
 20
6.9396614804
 30
0.0
 11
7.1916222808
 21
7.1517935147
 31
0.0
 11
7.249223819
 21
7.1468383952
 31
0.0
 11
7.3046805606
 21
7.1341690309
 31
0.0
 11
7.3559275703
 21
7.1142571664
 31
0.0
 11
7.4010566628
 21
7.087844221
 31
0.0
 11
7.4383874536
 21
7.0559136825
 31
0.0
 11
7.4665299284
 21
7.0196544863
 31
0.0
 11
7.4844362005
 21
6.9804167457
 31
0.0
 11
7.4914395289
 21
6.9396614804
 31
0.0
  0
SPLINE
  5
589
100
AcDbEntity
  8
RACCORDO
100
AcDbSpline
 62
253
  6
CONTINUOUS
 70
0
 71
3
 72
15
 73
11
 74
9
 42
0.0000001
 43
0.0000001
 44
0.0000000001
 12
0.4014143351
 22
-0.007008849
 32
0.0
 13
0.0139942489
 23
-0.4012315459
 33
0.0
 40
0.0
 40
0.0
 40
0.0
 40
0.0
 40
0.1440042721
 40
0.2856952433
 40
0.4226385679
 40
0.5528839124
 40
0.6752420872
 40
0.7895682409
 40
0.8969982159
 40
1.0
 40
1.0
 40
1.0
 40
1.0
 10
7.2128229167
 20
7.7589002959
 30
0.0
 10
7.2320913765
 20
7.7585638612
 30
0.0
 10
7.2703254793
 20
7.7552945961
 30
0.0
 10
7.3256596731
 20
7.7427552626
 30
0.0
 10
7.3769213694
 20
7.7230282455
 30
0.0
 10
7.4222457004
 20
7.6967910459
 30
0.0
 10
7.4599868448
 20
7.6649266816
 30
0.0
 10
7.4887169645
 20
7.6284688706
 30
0.0
 10
7.5072232144
 20
7.5886794808
 30
0.0
 10
7.5121596873
 20
7.5605441166
 30
0.0
 10
7.5126401648
 20
7.5467682615
 30
0.0
 11
7.2128229167
 21
7.7589002959
 31
0.0
 11
7.2704243705
 21
7.7539451896
 31
0.0
 11
7.3258810486
 21
7.7412758573
 31
0.0
 11
7.3771280275
 21
7.7213640335
 31
0.0
 11
7.4222571259
 21
7.6949511245
 31
0.0
 11
7.4595879545
 21
7.6630206043
 31
0.0
 11
7.4877304853
 21
7.6267613971
 31
0.0
 11
7.5056368107
 21
7.5875236096
 31
0.0
 11
7.5126401648
 21
7.5467682615
 31
0.0
  0
SPLINE
  5
58A
100
AcDbEntity
  8
RACCORDO
100
AcDbSpline
 62
7
  6
CONTINUOUS
 70
0
 71
3
 72
15
 73
11
 74
9
 42
0.0000001
 43
0.0000001
 44
0.0000000001
 12
0.0895635424
 22
-0.1791816741
 32
0.0
 13
0.2003189968
 23
0.0
 33
0.0
 40
0.0
 40
0.0
 40
0.0
 40
0.0
 40
0.0228702366
 40
0.0820374114
 40
0.1750076777
 40
0.3001514248
 40
0.4519007439
 40
0.6225386226
 40
0.8086061726
 40
1.0
 40
1.0
 40
1.0
 40
1.0
 10
-9.8419502896
 20
9.7978506198
 30
0.0
 10
-9.8412675098
 20
9.796484644
 30
0.0
 10
-9.8343410059
 20
9.7967072635
 30
0.0
 10
-9.8240328753
 20
9.7945716745
 30
0.0
 10
-9.8048447469
 20
9.794026014
 30
0.0
 10
-9.7804593975
 20
9.7928107402
 30
0.0
 10
-9.7504819007
 20
9.7920763321
 30
0.0
 10
-9.7165699971
 20
9.7914403315
 30
0.0
 10
-9.6799628303
 20
9.7910744823
 30
0.0
 10
-9.6547609812
 20
9.7909889623
 30
0.0
 10
-9.6419810414
 20
9.7909889623
 30
0.0
 11
-9.8419502896
 21
9.7978506198
 31
0.0
 11
-9.8375683664
 21
9.7965136637
 31
0.0
 11
-9.825786905
 21
9.7952196786
 31
0.0
 11
-9.8072007782
 21
9.7940371043
 31
0.0
 11
-9.7821539369
 21
9.7929911835
 31
0.0
 11
-9.7517677197
 21
9.7921351983
 31
0.0
 11
-9.7175914795
 21
9.7915072506
 31
0.0
 11
-9.6803206421
 21
9.7911184792
 31
0.0
 11
-9.6419810414
 21
9.7909889623
 31
0.0
  0
SPLINE
  5
58B
100
AcDbEntity
  8
RACCORDO
100
AcDbSpline
 62
7
  6
CONTINUOUS
 70
0
 71
3
 72
15
 73
11
 74
9
 42
0.0000001
 43
0.0000001
 44
0.0000000001
 12
0.2003189965
 22
-0.0
 32
0.0
 13
0.0895635422
 23
0.1791816739
 33
0.0
 40
0.0
 40
0.0
 40
0.0
 40
0.0
 40
0.1913938261
 40
0.3774613764
 40
0.5480992554
 40
0.6998485747
 40
0.824992322
 40
0.9179625885
 40
0.9771297633
 40
1.0
 40
1.0
 40
1.0
 40
1.0
 10
9.6183779741
 20
9.7909889623
 30
0.0
 10
9.6311579139
 20
9.7909889623
 30
0.0
 10
9.6563597629
 20
9.7910744823
 30
0.0
 10
9.6929669296
 20
9.7914403315
 30
0.0
 10
9.7268788332
 20
9.7920763321
 30
0.0
 10
9.7568563299
 20
9.7928107402
 30
0.0
 10
9.7812416793
 20
9.794026014
 30
0.0
 10
9.8004298077
 20
9.7945716745
 30
0.0
 10
9.8107379383
 20
9.7967072635
 30
0.0
 10
9.8176644422
 20
9.796484644
 30
0.0
 10
9.818347222
 20
9.7978506198
 30
0.0
 11
9.6183779741
 21
9.7909889623
 31
0.0
 11
9.6567175745
 21
9.7911184792
 31
0.0
 11
9.6939884119
 21
9.7915072506
 31
0.0
 11
9.7281646522
 21
9.7921351983
 31
0.0
 11
9.7585508693
 21
9.7929911835
 31
0.0
 11
9.7835977106
 21
9.7940371043
 31
0.0
 11
9.8021838374
 21
9.7952196786
 31
0.0
 11
9.8139652989
 21
9.7965136637
 31
0.0
 11
9.818347222
 21
9.7978506198
 31
0.0
  0
SPLINE
  5
58C
100
AcDbEntity
  8
RACCORDO
100
AcDbSpline
 62
253
  6
CONTINUOUS
 70
0
 71
3
 72
17
 73
13
 74
11
 42
0.0000001
 43
0.0000001
 44
0.0000000001
 12
-0.1414238943
 22
0.1417076164
 32
0.0
 13
-0.0000004892
 23
0.2002043117
 33
0.0
 40
0.0
 40
0.0
 40
0.0
 40
0.0
 40
0.0178774913
 40
0.058389992
 40
0.1209323587
 40
0.2041033138
 40
0.3059766177
 40
0.4241622179
 40
0.5558804402
 40
0.698040467
 40
0.8472808104
 40
1.0
 40
1.0
 40
1.0
 40
1.0
 10
-6.803865672
 20
5.2472282916
 30
0.0
 10
-6.8047084401
 20
5.2480727505
 30
0.0
 10
-6.8050238969
 20
5.2523662476
 30
0.0
 10
-6.8063046221
 20
5.2600139367
 30
0.0
 10
-6.8070252975
 20
5.2726011958
 30
0.0
 10
-6.8079654624
 20
5.2890233636
 30
0.0
 10
-6.8087118796
 20
5.3092735952
 30
0.0
 10
-6.8093864096
 20
5.3327306168
 30
0.0
 10
-6.8099193449
 20
5.3588926804
 30
0.0
 10
-6.810313141
 20
5.3871259301
 30
0.0
 10
-6.8105525619
 20
5.4167635958
 30
0.0
 10
-6.8106060575
 20
5.436914777
 30
0.0
 10
-6.8106060824
 20
5.4471064571
 30
0.0
 11
-6.803865672
 21
5.2472282916
 31
0.0
 11
-6.8049300057
 21
5.2506455295
 31
0.0
 11
-6.8059642846
 21
5.2586900914
 31
0.0
 11
-6.8069435185
 21
5.2711729933
 31
0.0
 11
-6.8078445096
 21
5.287799783
 31
0.0
 11
-6.8086460675
 21
5.3081795007
 31
0.0
 11
-6.8093292624
 21
5.3318309021
 31
0.0
 11
-6.8098779997
 21
5.3581957483
 31
0.0
 11
-6.8102793921
 21
5.386653968
 31
0.0
 11
-6.8105239904
 21
5.416531527
 31
0.0
 11
-6.8106060824
 21
5.4471064571
 31
0.0
  0
SPLINE
  5
58D
100
AcDbEntity
  8
RACCORDO
100
AcDbSpline
 62
253
  6
CONTINUOUS
 70
0
 71
3
 72
13
 73
9
 74
7
 42
0.0000001
 43
0.0000001
 44
0.0000000001
 12
0.0000002346
 22
0.141442405
 32
0.0
 13
0.0049357932
 23
0.1413562587
 33
0.0
 40
0.0
 40
0.0
 40
0.0
 40
0.0
 40
0.1844732589
 40
0.3659045925
 40
0.541117895
 40
0.7070849145
 40
0.8609356791
 40
1.0
 40
1.0
 40
1.0
 40
1.0
 10
-6.8106060824
 20
6.7982401241
 30
0.0
 10
-6.810606068
 20
6.8069375713
 30
0.0
 10
-6.8105669615
 20
6.824189073
 30
0.0
 10
-6.8103913484
 20
6.8497008981
 30
0.0
 10
-6.8101020719
 20
6.8743391206
 30
0.0
 10
-6.8097043978
 20
6.8976753223
 30
0.0
 10
-6.809205756
 20
6.9193048388
 30
0.0
 10
-6.8087892687
 20
6.933108943
 30
0.0
 10
-6.8085604711
 20
6.9396614804
 30
0.0
 11
-6.8106060824
 21
6.7982401241
 31
0.0
 11
-6.8105463931
 21
6.8243323973
 31
0.0
 11
-6.8103681959
 21
6.8499938627
 31
0.0
 11
-6.8100744757
 21
6.874774713
 31
0.0
 11
-6.8096702634
 21
6.8982460071
 31
0.0
 11
-6.8091625993
 21
6.9200011067
 31
0.0
 11
-6.8085604711
 21
6.9396614804
 31
0.0
  0
SPLINE
  5
58E
100
AcDbEntity
  8
RACCORDO
100
AcDbSpline
 62
253
  6
CONTINUOUS
 70
0
 71
3
 72
13
 73
9
 74
7
 42
0.0000001
 43
0.0000001
 44
0.0000000001
 12
0.0197318509
 22
0.5654254321
 32
0.0
 13
0.0000091903
 23
0.565769622
 33
0.0
 40
0.0
 40
0.0
 40
0.0
 40
0.0
 40
0.1361522584
 40
0.2904133641
 40
0.4589859497
 40
0.637088475
 40
0.8192974361
 40
1.0
 40
1.0
 40
1.0
 40
1.0
 10
-6.7873598352
 20
7.5467682616
 30
0.0
 10
-6.7864643231
 20
7.5724295781
 30
0.0
 10
-6.7848065958
 20
7.6271741918
 30
0.0
 10
-6.7828022672
 20
7.7137116425
 30
0.0
 10
-6.781189042
 20
7.8081698956
 30
0.0
 10
-6.7800228624
 20
7.9079056933
 30
0.0
 10
-6.779329223
 20
8.0099334745
 30
0.0
 10
-6.7791779435
 20
8.0783750128
 30
0.0
 10
-6.7791773899
 20
8.1124536865
 30
0.0
 11
-6.7873598352
 21
7.5467682616
 31
0.0
 11
-6.784995581
 21
7.6237627826
 31
0.0
 11
-6.7829492692
 21
7.7110150374
 31
0.0
 11
-6.7813029672
 21
7.8063740755
 31
0.0
 11
-6.7801131633
 21
7.9071320492
 31
0.0
 11
-6.7794064479
 21
8.0102179218
 31
0.0
 11
-6.7791773899
 21
8.1124536865
 31
0.0
  0
SPLINE
  5
58F
100
AcDbEntity
  8
RACCORDO
100
AcDbSpline
 62
253
  6
CONTINUOUS
 70
0
 71
3
 72
13
 73
9
 74
7
 42
0.0000001
 43
0.0000001
 44
0.0000000001
 12
0.0000092097
 22
-0.565769622
 32
0.0
 13
0.0197318825
 23
-0.565425431
 33
0.0
 40
0.0
 40
0.0
 40
0.0
 40
0.0
 40
0.1807025814
 40
0.3629115369
 40
0.5410140573
 40
0.709586639
 40
0.8638477379
 40
1.0
 40
1.0
 40
1.0
 40
1.0
 10
-7.5444256777
 20
8.1124536865
 30
0.0
 10
-7.5444251229
 20
8.0783750094
 30
0.0
 10
-7.5442738452
 20
8.0099334689
 30
0.0
 10
-7.5435802049
 20
7.9079056865
 30
0.0
 10
-7.5424140254
 20
7.8081698914
 30
0.0
 10
-7.5408008007
 20
7.7137116413
 30
0.0
 10
-7.5387964709
 20
7.627174192
 30
0.0
 10
-7.5371387459
 20
7.5724295787
 30
0.0
 10
-7.5362432324
 20
7.5467682616
 30
0.0
 11
-7.5444256777
 21
8.1124536865
 31
0.0
 11
-7.5441966196
 21
8.0102179119
 31
0.0
 11
-7.5434899042
 21
7.9071320425
 31
0.0
 11
-7.5423001003
 21
7.8063740715
 31
0.0
 11
-7.5406537984
 21
7.7110150357
 31
0.0
 11
-7.5386074865
 21
7.6237627846
 31
0.0
 11
-7.5362432324
 21
7.5467682616
 31
0.0
  0
SPLINE
  5
590
100
AcDbEntity
  8
RACCORDO
100
AcDbSpline
 62
253
  6
CONTINUOUS
 70
0
 71
3
 72
13
 73
9
 74
7
 42
0.0000001
 43
0.0000001
 44
0.0000000001
 12
0.0049357932
 22
-0.1413562587
 32
0.0
 13
0.0000002346
 23
-0.141442405
 33
0.0
 40
0.0
 40
0.0
 40
0.0
 40
0.0
 40
0.1390643219
 40
0.2929150865
 40
0.4588821061
 40
0.6340954086
 40
0.8155267422
 40
1.0
 40
1.0
 40
1.0
 40
1.0
 10
-7.5150425964
 20
6.9396614804
 30
0.0
 10
-7.5148137989
 20
6.933108943
 30
0.0
 10
-7.5143973115
 20
6.9193048387
 30
0.0
 10
-7.5138986698
 20
6.8976753222
 30
0.0
 10
-7.5135009956
 20
6.8743391205
 30
0.0
 10
-7.5132117192
 20
6.8497008979
 30
0.0
 10
-7.513036106
 20
6.8241890729
 30
0.0
 10
-7.5129969995
 20
6.8069375712
 30
0.0
 10
-7.5129969851
 20
6.7982401241
 30
0.0
 11
-7.5150425964
 21
6.9396614804
 31
0.0
 11
-7.5144404683
 21
6.9200011066
 31
0.0
 11
-7.5139328041
 21
6.8982460069
 31
0.0
 11
-7.5135285918
 21
6.8747747128
 31
0.0
 11
-7.5132348717
 21
6.8499938626
 31
0.0
 11
-7.5130566744
 21
6.8243323971
 31
0.0
 11
-7.5129969851
 21
6.7982401241
 31
0.0
  0
SPLINE
  5
591
100
AcDbEntity
  8
RACCORDO
100
AcDbSpline
 62
253
  6
CONTINUOUS
 70
0
 71
3
 72
17
 73
13
 74
11
 42
0.0000001
 43
0.0000001
 44
0.0000000001
 12
-0.0000004892
 22
-0.2002043117
 32
0.0
 13
-0.1414238981
 23
-0.1417076126
 33
0.0
 40
0.0
 40
0.0
 40
0.0
 40
0.0
 40
0.1527191901
 40
0.3019595335
 40
0.4441195603
 40
0.5758377826
 40
0.6940233827
 40
0.7958966866
 40
0.8790676415
 40
0.9416100082
 40
0.9821225088
 40
1.0
 40
1.0
 40
1.0
 40
1.0
 10
-7.5129969851
 20
5.4471064571
 30
0.0
 10
-7.51299701
 20
5.4369147769
 30
0.0
 10
-7.5130505057
 20
5.4167635957
 30
0.0
 10
-7.5132899266
 20
5.38712593
 30
0.0
 10
-7.5136837227
 20
5.3588926803
 30
0.0
 10
-7.5142166579
 20
5.3327306167
 30
0.0
 10
-7.514891188
 20
5.3092735951
 30
0.0
 10
-7.5156376051
 20
5.2890233635
 30
0.0
 10
-7.5165777701
 20
5.2726011958
 30
0.0
 10
-7.5172984454
 20
5.2600139366
 30
0.0
 10
-7.5185791706
 20
5.2523662476
 30
0.0
 10
-7.5188946274
 20
5.2480727505
 30
0.0
 10
-7.5197373956
 20
5.2472282916
 30
0.0
 11
-7.5129969851
 21
5.4471064571
 31
0.0
 11
-7.5130790772
 21
5.4165315269
 31
0.0
 11
-7.5133236754
 21
5.3866539679
 31
0.0
 11
-7.5137250679
 21
5.3581957482
 31
0.0
 11
-7.5142738052
 21
5.331830902
 31
0.0
 11
-7.5149570001
 21
5.3081795006
 31
0.0
 11
-7.5157585579
 21
5.2877997829
 31
0.0
 11
-7.5166595491
 21
5.2711729932
 31
0.0
 11
-7.5176387829
 21
5.2586900913
 31
0.0
 11
-7.5186730619
 21
5.2506455295
 31
0.0
 11
-7.5197373956
 21
5.2472282916
 31
0.0
  0
SPLINE
  5
592
100
AcDbEntity
  8
RACCORDO
100
AcDbSpline
 62
253
  6
CONTINUOUS
 70
0
 71
3
 72
13
 73
9
 74
7
 42
0.0000001
 43
0.0000001
 44
0.0000000001
 12
0.0000092097
 22
-0.565769622
 32
0.0
 13
0.0197318825
 23
-0.565425431
 33
0.0
 40
0.0
 40
0.0
 40
0.0
 40
0.0
 40
0.1807025814
 40
0.3629115369
 40
0.5410140573
 40
0.709586639
 40
0.8638477379
 40
1.0
 40
1.0
 40
1.0
 40
1.0
 10
6.7555743223
 20
8.1124536865
 30
0.0
 10
6.7555748771
 20
8.0783750094
 30
0.0
 10
6.7557261548
 20
8.0099334689
 30
0.0
 10
6.7564197951
 20
7.9079056865
 30
0.0
 10
6.7575859746
 20
7.8081698914
 30
0.0
 10
6.7591991993
 20
7.7137116413
 30
0.0
 10
6.7612035291
 20
7.627174192
 30
0.0
 10
6.7628612541
 20
7.5724295787
 30
0.0
 10
6.7637567676
 20
7.5467682616
 30
0.0
 11
6.7555743223
 21
8.1124536865
 31
0.0
 11
6.7558033804
 21
8.0102179119
 31
0.0
 11
6.7565100958
 21
7.9071320425
 31
0.0
 11
6.7576998997
 21
7.8063740715
 31
0.0
 11
6.7593462016
 21
7.7110150357
 31
0.0
 11
6.7613925135
 21
7.6237627846
 31
0.0
 11
6.7637567676
 21
7.5467682616
 31
0.0
  0
SPLINE
  5
593
100
AcDbEntity
  8
RACCORDO
100
AcDbSpline
 62
253
  6
CONTINUOUS
 70
0
 71
3
 72
13
 73
9
 74
7
 42
0.0000001
 43
0.0000001
 44
0.0000000001
 12
0.0049357932
 22
-0.1413562587
 32
0.0
 13
0.0000002346
 23
-0.141442405
 33
0.0
 40
0.0
 40
0.0
 40
0.0
 40
0.0
 40
0.1390643219
 40
0.2929150865
 40
0.4588821061
 40
0.6340954086
 40
0.8155267422
 40
1.0
 40
1.0
 40
1.0
 40
1.0
 10
6.7849574036
 20
6.9396614804
 30
0.0
 10
6.7851862011
 20
6.933108943
 30
0.0
 10
6.7856026885
 20
6.9193048387
 30
0.0
 10
6.7861013302
 20
6.8976753222
 30
0.0
 10
6.7864990044
 20
6.8743391205
 30
0.0
 10
6.7867882808
 20
6.8497008979
 30
0.0
 10
6.786963894
 20
6.8241890729
 30
0.0
 10
6.7870030005
 20
6.8069375712
 30
0.0
 10
6.7870030149
 20
6.7982401241
 30
0.0
 11
6.7849574036
 21
6.9396614804
 31
0.0
 11
6.7855595317
 21
6.9200011066
 31
0.0
 11
6.7860671959
 21
6.8982460069
 31
0.0
 11
6.7864714082
 21
6.8747747128
 31
0.0
 11
6.7867651283
 21
6.8499938626
 31
0.0
 11
6.7869433256
 21
6.8243323971
 31
0.0
 11
6.7870030149
 21
6.7982401241
 31
0.0
  0
SPLINE
  5
594
100
AcDbEntity
  8
RACCORDO
100
AcDbSpline
 62
253
  6
CONTINUOUS
 70
0
 71
3
 72
17
 73
13
 74
11
 42
0.0000001
 43
0.0000001
 44
0.0000000001
 12
-0.0000004892
 22
-0.2002043117
 32
0.0
 13
-0.1414238981
 23
-0.1417076126
 33
0.0
 40
0.0
 40
0.0
 40
0.0
 40
0.0
 40
0.1527191901
 40
0.3019595335
 40
0.4441195603
 40
0.5758377826
 40
0.6940233827
 40
0.7958966866
 40
0.8790676415
 40
0.9416100082
 40
0.9821225088
 40
1.0
 40
1.0
 40
1.0
 40
1.0
 10
6.7870030149
 20
5.4471064571
 30
0.0
 10
6.78700299
 20
5.4369147769
 30
0.0
 10
6.7869494943
 20
5.4167635957
 30
0.0
 10
6.7867100734
 20
5.38712593
 30
0.0
 10
6.7863162773
 20
5.3588926803
 30
0.0
 10
6.7857833421
 20
5.3327306167
 30
0.0
 10
6.785108812
 20
5.3092735951
 30
0.0
 10
6.7843623949
 20
5.2890233635
 30
0.0
 10
6.7834222299
 20
5.2726011958
 30
0.0
 10
6.7827015546
 20
5.2600139366
 30
0.0
 10
6.7814208294
 20
5.2523662476
 30
0.0
 10
6.7811053726
 20
5.2480727505
 30
0.0
 10
6.7802626044
 20
5.2472282916
 30
0.0
 11
6.7870030149
 21
5.4471064571
 31
0.0
 11
6.7869209228
 21
5.4165315269
 31
0.0
 11
6.7866763246
 21
5.3866539679
 31
0.0
 11
6.7862749321
 21
5.3581957482
 31
0.0
 11
6.7857261948
 21
5.331830902
 31
0.0
 11
6.7850429999
 21
5.3081795006
 31
0.0
 11
6.7842414421
 21
5.2877997829
 31
0.0
 11
6.7833404509
 21
5.2711729932
 31
0.0
 11
6.7823612171
 21
5.2586900913
 31
0.0
 11
6.7813269381
 21
5.2506455295
 31
0.0
 11
6.7802626044
 21
5.2472282916
 31
0.0
  0
SPLINE
  5
595
100
AcDbEntity
  8
RACCORDO
100
AcDbSpline
 62
253
  6
CONTINUOUS
 70
0
 71
3
 72
17
 73
13
 74
11
 42
0.0000001
 43
0.0000001
 44
0.0000000001
 12
-0.1414238943
 22
0.1417076164
 32
0.0
 13
-0.0000004892
 23
0.2002043117
 33
0.0
 40
0.0
 40
0.0
 40
0.0
 40
0.0
 40
0.0178774913
 40
0.058389992
 40
0.1209323587
 40
0.2041033138
 40
0.3059766177
 40
0.4241622179
 40
0.5558804402
 40
0.698040467
 40
0.8472808104
 40
1.0
 40
1.0
 40
1.0
 40
1.0
 10
7.496134328
 20
5.2472282916
 30
0.0
 10
7.4952915599
 20
5.2480727505
 30
0.0
 10
7.4949761031
 20
5.2523662476
 30
0.0
 10
7.4936953779
 20
5.2600139367
 30
0.0
 10
7.4929747025
 20
5.2726011958
 30
0.0
 10
7.4920345376
 20
5.2890233636
 30
0.0
 10
7.4912881204
 20
5.3092735952
 30
0.0
 10
7.4906135904
 20
5.3327306168
 30
0.0
 10
7.4900806551
 20
5.3588926804
 30
0.0
 10
7.489686859
 20
5.3871259301
 30
0.0
 10
7.4894474381
 20
5.4167635958
 30
0.0
 10
7.4893939425
 20
5.436914777
 30
0.0
 10
7.4893939176
 20
5.4471064571
 30
0.0
 11
7.496134328
 21
5.2472282916
 31
0.0
 11
7.4950699943
 21
5.2506455295
 31
0.0
 11
7.4940357154
 21
5.2586900914
 31
0.0
 11
7.4930564815
 21
5.2711729933
 31
0.0
 11
7.4921554904
 21
5.287799783
 31
0.0
 11
7.4913539325
 21
5.3081795007
 31
0.0
 11
7.4906707376
 21
5.3318309021
 31
0.0
 11
7.4901220003
 21
5.3581957483
 31
0.0
 11
7.4897206079
 21
5.386653968
 31
0.0
 11
7.4894760096
 21
5.416531527
 31
0.0
 11
7.4893939176
 21
5.4471064571
 31
0.0
  0
SPLINE
  5
596
100
AcDbEntity
  8
RACCORDO
100
AcDbSpline
 62
253
  6
CONTINUOUS
 70
0
 71
3
 72
13
 73
9
 74
7
 42
0.0000001
 43
0.0000001
 44
0.0000000001
 12
0.0000002346
 22
0.141442405
 32
0.0
 13
0.0049357932
 23
0.1413562587
 33
0.0
 40
0.0
 40
0.0
 40
0.0
 40
0.0
 40
0.1844732589
 40
0.3659045925
 40
0.541117895
 40
0.7070849145
 40
0.8609356791
 40
1.0
 40
1.0
 40
1.0
 40
1.0
 10
7.4893939176
 20
6.7982401241
 30
0.0
 10
7.489393932
 20
6.8069375713
 30
0.0
 10
7.4894330385
 20
6.824189073
 30
0.0
 10
7.4896086516
 20
6.8497008981
 30
0.0
 10
7.4898979281
 20
6.8743391206
 30
0.0
 10
7.4902956022
 20
6.8976753223
 30
0.0
 10
7.490794244
 20
6.9193048388
 30
0.0
 10
7.4912107313
 20
6.933108943
 30
0.0
 10
7.4914395289
 20
6.9396614804
 30
0.0
 11
7.4893939176
 21
6.7982401241
 31
0.0
 11
7.4894536069
 21
6.8243323973
 31
0.0
 11
7.4896318041
 21
6.8499938627
 31
0.0
 11
7.4899255243
 21
6.874774713
 31
0.0
 11
7.4903297366
 21
6.8982460071
 31
0.0
 11
7.4908374007
 21
6.9200011067
 31
0.0
 11
7.4914395289
 21
6.9396614804
 31
0.0
  0
SPLINE
  5
597
100
AcDbEntity
  8
RACCORDO
100
AcDbSpline
 62
253
  6
CONTINUOUS
 70
0
 71
3
 72
13
 73
9
 74
7
 42
0.0000001
 43
0.0000001
 44
0.0000000001
 12
0.0197318509
 22
0.5654254321
 32
0.0
 13
0.0000091903
 23
0.565769622
 33
0.0
 40
0.0
 40
0.0
 40
0.0
 40
0.0
 40
0.1361522584
 40
0.2904133641
 40
0.4589859497
 40
0.637088475
 40
0.8192974361
 40
1.0
 40
1.0
 40
1.0
 40
1.0
 10
7.5126401648
 20
7.5467682616
 30
0.0
 10
7.5135356769
 20
7.5724295781
 30
0.0
 10
7.5151934042
 20
7.6271741918
 30
0.0
 10
7.5171977328
 20
7.7137116425
 30
0.0
 10
7.518810958
 20
7.8081698956
 30
0.0
 10
7.5199771376
 20
7.9079056933
 30
0.0
 10
7.520670777
 20
8.0099334745
 30
0.0
 10
7.5208220565
 20
8.0783750128
 30
0.0
 10
7.5208226101
 20
8.1124536865
 30
0.0
 11
7.5126401648
 21
7.5467682616
 31
0.0
 11
7.515004419
 21
7.6237627826
 31
0.0
 11
7.5170507308
 21
7.7110150374
 31
0.0
 11
7.5186970328
 21
7.8063740755
 31
0.0
 11
7.5198868367
 21
7.9071320492
 31
0.0
 11
7.5205935521
 21
8.0102179218
 31
0.0
 11
7.5208226101
 21
8.1124536865
 31
0.0
  0
SPLINE
  5
598
100
AcDbEntity
  8
RACCORDO
100
AcDbSpline
 62
253
  6
CONTINUOUS
 70
0
 71
3
 72
15
 73
11
 74
9
 42
0.0000001
 43
0.0000001
 44
0.0000000001
 12
0.0000001707
 22
0.0492833389
 32
0.0
 13
0.0095687383
 23
0.0483454935
 33
0.0
 40
0.0
 40
0.0
 40
0.0
 40
0.0
 40
0.1760003266
 40
0.3468630124
 40
0.5072188018
 40
0.6521964061
 40
0.7773808262
 40
0.8789617246
 40
0.9539026917
 40
1.0
 40
1.0
 40
1.0
 40
1.0
 10
-5.3216564932
 20
-6.5461388512
 30
0.0
 10
-5.3216564832
 20
-6.5432475567
 30
0.0
 10
-5.3216393596
 20
-6.5375493552
 30
0.0
 10
-5.3215627173
 20
-6.5292171591
 30
0.0
 10
-5.3214375397
 20
-6.5213952957
 30
0.0
 10
-5.3212689134
 20
-6.514324613
 30
0.0
 10
-5.3210604903
 20
-6.5082215632
 30
0.0
 10
-5.3208277336
 20
-6.5032693028
 30
0.0
 10
-5.3205649186
 20
-6.49962364
 30
0.0
 10
-5.3203606821
 20
-6.4976413293
 30
0.0
 10
-5.3202136511
 20
-6.4968984636
 30
0.0
 11
-5.3216564932
 21
-6.5461388512
 31
0.0
 11
-5.3216300206
 21
-6.5374650079
 31
0.0
 11
-5.3215512784
 21
-6.5290446924
 31
0.0
 11
-5.3214226491
 21
-6.5211428705
 31
0.0
 11
-5.321248014
 21
-6.5140000246
 31
0.0
 11
-5.3210326886
 21
-6.5078342772
 31
0.0
 11
-5.3207832681
 21
-6.5028342485
 31
0.0
 11
-5.320507351
 21
-6.4991512282
 31
0.0
 11
-5.3202136511
 21
-6.4968984636
 31
0.0
  0
SPLINE
  5
599
100
AcDbEntity
  8
RACCORDO
100
AcDbSpline
 62
253
  6
CONTINUOUS
 70
0
 71
3
 72
16
 73
12
 74
10
 42
0.0000001
 43
0.0000001
 44
0.0000000001
 12
0.0000001618
 22
0.0500818853
 32
0.0
 13
0.0447468108
 23
0.0224926245
 33
0.0
 40
0.0
 40
0.0
 40
0.0
 40
0.0
 40
0.1712952529
 40
0.3376892171
 40
0.4940782646
 40
0.6358142909
 40
0.7586920905
 40
0.8590498286
 40
0.9339391758
 40
0.981233087
 40
1.0
 40
1.0
 40
1.0
 40
1.0
 10
-5.262291185
 20
-4.8189108807
 30
0.0
 10
-5.2622911758
 20
-4.8160512843
 30
0.0
 10
-5.2622745332
 20
-4.8104137506
 30
0.0
 10
-5.2621990206
 20
-4.8021665499
 30
0.0
 10
-5.2620781074
 20
-4.7944106756
 30
0.0
 10
-5.2619075212
 20
-4.7873911003
 30
0.0
 10
-5.2617189315
 20
-4.781281244
 30
0.0
 10
-5.2614461614
 20
-4.7763653441
 30
0.0
 10
-5.26129174
 20
-4.7725242822
 30
0.0
 10
-5.2608614554
 20
-4.7704364239
 30
0.0
 10
-5.260855539
 20
-4.7690592016
 30
0.0
 10
-5.2605756191
 20
-4.7689184959
 30
0.0
 11
-5.262291185
 21
-4.8189108807
 31
0.0
 11
-5.262265294
 21
-4.8103321305
 31
0.0
 11
-5.2621882738
 21
-4.801999163
 31
0.0
 11
-5.2620624066
 21
-4.7941679161
 31
0.0
 11
-5.2618914125
 21
-4.7870715685
 31
0.0
 11
-5.2616803599
 21
-4.7809212368
 31
0.0
 11
-5.2614355632
 21
-4.775901097
 31
0.0
 11
-5.2611643167
 21
-4.7721603186
 31
0.0
 11
-5.2608746984
 21
-4.7698095237
 31
0.0
 11
-5.2605756191
 21
-4.7689184959
 31
0.0
  0
SPLINE
  5
59A
100
AcDbEntity
  8
RACCORDO
100
AcDbSpline
 62
253
  6
CONTINUOUS
 70
0
 71
3
 72
16
 73
12
 74
10
 42
0.0000001
 43
0.0000001
 44
0.0000000001
 12
0.0447468108
 22
-0.0224926245
 32
0.0
 13
0.0000001618
 23
-0.0500818853
 33
0.0
 40
0.0
 40
0.0
 40
0.0
 40
0.0
 40
0.0187669131
 40
0.0660608243
 40
0.1409501717
 40
0.2413079099
 40
0.3641857095
 40
0.5059217359
 40
0.6623107834
 40
0.8287047476
 40
1.0
 40
1.0
 40
1.0
 40
1.0
 10
-5.9630274484
 20
-4.7689184959
 30
0.0
 10
-5.9627475286
 20
-4.7690592016
 30
0.0
 10
-5.9627416122
 20
-4.7704364239
 30
0.0
 10
-5.9623113276
 20
-4.7725242822
 30
0.0
 10
-5.9621569061
 20
-4.7763653441
 30
0.0
 10
-5.961884136
 20
-4.781281244
 30
0.0
 10
-5.9616955464
 20
-4.7873911003
 30
0.0
 10
-5.9615249601
 20
-4.7944106756
 30
0.0
 10
-5.9614040469
 20
-4.80216655
 30
0.0
 10
-5.9613285344
 20
-4.8104137506
 30
0.0
 10
-5.9613118917
 20
-4.8160512843
 30
0.0
 10
-5.9613118825
 20
-4.8189108807
 30
0.0
 11
-5.9630274484
 21
-4.7689184959
 31
0.0
 11
-5.9627283691
 21
-4.7698095237
 31
0.0
 11
-5.9624387508
 21
-4.7721603186
 31
0.0
 11
-5.9621675044
 21
-4.7759010971
 31
0.0
 11
-5.9619227076
 21
-4.7809212368
 31
0.0
 11
-5.9617116551
 21
-4.7870715686
 31
0.0
 11
-5.9615406609
 21
-4.7941679161
 31
0.0
 11
-5.9614147937
 21
-4.801999163
 31
0.0
 11
-5.9613377736
 21
-4.8103321305
 31
0.0
 11
-5.9613118825
 21
-4.8189108807
 31
0.0
  0
SPLINE
  5
59B
100
AcDbEntity
  8
RACCORDO
100
AcDbSpline
 62
253
  6
CONTINUOUS
 70
0
 71
3
 72
15
 73
11
 74
9
 42
0.0000001
 43
0.0000001
 44
0.0000000001
 12
0.0095687383
 22
-0.0483454935
 32
0.0
 13
0.0000001707
 23
-0.0492833389
 33
0.0
 40
0.0
 40
0.0
 40
0.0
 40
0.0
 40
0.0460973084
 40
0.1210382755
 40
0.222619174
 40
0.3478035941
 40
0.4927811984
 40
0.6531369878
 40
0.8239996736
 40
1.0
 40
1.0
 40
1.0
 40
1.0
 10
-5.9033894164
 20
-6.4968984636
 30
0.0
 10
-5.9032423854
 20
-6.4976413293
 30
0.0
 10
-5.9030381489
 20
-6.49962364
 30
0.0
 10
-5.902775334
 20
-6.5032693028
 30
0.0
 10
-5.9025425772
 20
-6.5082215632
 30
0.0
 10
-5.9023341542
 20
-6.514324613
 30
0.0
 10
-5.9021655279
 20
-6.5213952957
 30
0.0
 10
-5.9020403502
 20
-6.5292171591
 30
0.0
 10
-5.9019637079
 20
-6.5375493552
 30
0.0
 10
-5.9019465844
 20
-6.5432475567
 30
0.0
 10
-5.9019465744
 20
-6.5461388512
 30
0.0
 11
-5.9033894164
 21
-6.4968984636
 31
0.0
 11
-5.9030957166
 21
-6.4991512282
 31
0.0
 11
-5.9028197994
 21
-6.5028342485
 31
0.0
 11
-5.902570379
 21
-6.5078342772
 31
0.0
 11
-5.9023550536
 21
-6.5140000246
 31
0.0
 11
-5.9021804184
 21
-6.5211428706
 31
0.0
 11
-5.9020517892
 21
-6.5290446924
 31
0.0
 11
-5.901973047
 21
-6.5374650079
 31
0.0
 11
-5.9019465744
 21
-6.5461388512
 31
0.0
  0
SPLINE
  5
59C
100
AcDbEntity
  8
RACCORDO
100
AcDbSpline
 62
253
  6
CONTINUOUS
 70
0
 71
3
 72
15
 73
11
 74
9
 42
0.0000001
 43
0.0000001
 44
0.0000000001
 12
0.0000001707
 22
0.0492833389
 32
0.0
 13
0.0095687383
 23
0.0483454935
 33
0.0
 40
0.0
 40
0.0
 40
0.0
 40
0.0
 40
0.1760003266
 40
0.3468630124
 40
0.5072188018
 40
0.6521964061
 40
0.7773808262
 40
0.8789617246
 40
0.9539026917
 40
1.0
 40
1.0
 40
1.0
 40
1.0
 10
5.8783435068
 20
-6.5461388512
 30
0.0
 10
5.8783435168
 20
-6.5432475567
 30
0.0
 10
5.8783606404
 20
-6.5375493552
 30
0.0
 10
5.8784372827
 20
-6.5292171591
 30
0.0
 10
5.8785624603
 20
-6.5213952957
 30
0.0
 10
5.8787310866
 20
-6.514324613
 30
0.0
 10
5.8789395097
 20
-6.5082215632
 30
0.0
 10
5.8791722664
 20
-6.5032693028
 30
0.0
 10
5.8794350814
 20
-6.49962364
 30
0.0
 10
5.8796393179
 20
-6.4976413293
 30
0.0
 10
5.8797863489
 20
-6.4968984636
 30
0.0
 11
5.8783435068
 21
-6.5461388512
 31
0.0
 11
5.8783699794
 21
-6.5374650079
 31
0.0
 11
5.8784487216
 21
-6.5290446924
 31
0.0
 11
5.8785773509
 21
-6.5211428705
 31
0.0
 11
5.878751986
 21
-6.5140000246
 31
0.0
 11
5.8789673114
 21
-6.5078342772
 31
0.0
 11
5.8792167319
 21
-6.5028342485
 31
0.0
 11
5.879492649
 21
-6.4991512282
 31
0.0
 11
5.8797863489
 21
-6.4968984636
 31
0.0
  0
SPLINE
  5
59D
100
AcDbEntity
  8
RACCORDO
100
AcDbSpline
 62
253
  6
CONTINUOUS
 70
0
 71
3
 72
16
 73
12
 74
10
 42
0.0000001
 43
0.0000001
 44
0.0000000001
 12
0.0000001618
 22
0.0500818853
 32
0.0
 13
0.0447468108
 23
0.0224926245
 33
0.0
 40
0.0
 40
0.0
 40
0.0
 40
0.0
 40
0.1712952529
 40
0.3376892171
 40
0.4940782646
 40
0.6358142909
 40
0.7586920905
 40
0.8590498286
 40
0.9339391758
 40
0.981233087
 40
1.0
 40
1.0
 40
1.0
 40
1.0
 10
5.937708815
 20
-4.8189108807
 30
0.0
 10
5.9377088242
 20
-4.8160512843
 30
0.0
 10
5.9377254668
 20
-4.8104137506
 30
0.0
 10
5.9378009794
 20
-4.8021665499
 30
0.0
 10
5.9379218926
 20
-4.7944106756
 30
0.0
 10
5.9380924788
 20
-4.7873911003
 30
0.0
 10
5.9382810685
 20
-4.781281244
 30
0.0
 10
5.9385538386
 20
-4.7763653441
 30
0.0
 10
5.93870826
 20
-4.7725242822
 30
0.0
 10
5.9391385446
 20
-4.7704364239
 30
0.0
 10
5.939144461
 20
-4.7690592016
 30
0.0
 10
5.9394243809
 20
-4.7689184959
 30
0.0
 11
5.937708815
 21
-4.8189108807
 31
0.0
 11
5.937734706
 21
-4.8103321305
 31
0.0
 11
5.9378117262
 21
-4.801999163
 31
0.0
 11
5.9379375934
 21
-4.7941679161
 31
0.0
 11
5.9381085875
 21
-4.7870715685
 31
0.0
 11
5.9383196401
 21
-4.7809212368
 31
0.0
 11
5.9385644368
 21
-4.775901097
 31
0.0
 11
5.9388356833
 21
-4.7721603186
 31
0.0
 11
5.9391253016
 21
-4.7698095237
 31
0.0
 11
5.9394243809
 21
-4.7689184959
 31
0.0
  0
SPLINE
  5
59E
100
AcDbEntity
  8
RACCORDO
100
AcDbSpline
 62
253
  6
CONTINUOUS
 70
0
 71
3
 72
16
 73
12
 74
10
 42
0.0000001
 43
0.0000001
 44
0.0000000001
 12
0.0447468108
 22
-0.0224926245
 32
0.0
 13
0.0000001618
 23
-0.0500818853
 33
0.0
 40
0.0
 40
0.0
 40
0.0
 40
0.0
 40
0.0187669131
 40
0.0660608243
 40
0.1409501717
 40
0.2413079099
 40
0.3641857095
 40
0.5059217359
 40
0.6623107834
 40
0.8287047476
 40
1.0
 40
1.0
 40
1.0
 40
1.0
 10
5.2369725516
 20
-4.7689184959
 30
0.0
 10
5.2372524714
 20
-4.7690592016
 30
0.0
 10
5.2372583878
 20
-4.7704364239
 30
0.0
 10
5.2376886724
 20
-4.7725242822
 30
0.0
 10
5.2378430939
 20
-4.7763653441
 30
0.0
 10
5.238115864
 20
-4.781281244
 30
0.0
 10
5.2383044536
 20
-4.7873911003
 30
0.0
 10
5.2384750399
 20
-4.7944106756
 30
0.0
 10
5.2385959531
 20
-4.80216655
 30
0.0
 10
5.2386714656
 20
-4.8104137506
 30
0.0
 10
5.2386881083
 20
-4.8160512843
 30
0.0
 10
5.2386881175
 20
-4.8189108807
 30
0.0
 11
5.2369725516
 21
-4.7689184959
 31
0.0
 11
5.2372716309
 21
-4.7698095237
 31
0.0
 11
5.2375612492
 21
-4.7721603186
 31
0.0
 11
5.2378324956
 21
-4.7759010971
 31
0.0
 11
5.2380772924
 21
-4.7809212368
 31
0.0
 11
5.2382883449
 21
-4.7870715686
 31
0.0
 11
5.2384593391
 21
-4.7941679161
 31
0.0
 11
5.2385852063
 21
-4.801999163
 31
0.0
 11
5.2386622264
 21
-4.8103321305
 31
0.0
 11
5.2386881175
 21
-4.8189108807
 31
0.0
  0
SPLINE
  5
59F
100
AcDbEntity
  8
RACCORDO
100
AcDbSpline
 62
253
  6
CONTINUOUS
 70
0
 71
3
 72
15
 73
11
 74
9
 42
0.0000001
 43
0.0000001
 44
0.0000000001
 12
0.0095687383
 22
-0.0483454935
 32
0.0
 13
0.0000001707
 23
-0.0492833389
 33
0.0
 40
0.0
 40
0.0
 40
0.0
 40
0.0
 40
0.0460973084
 40
0.1210382755
 40
0.222619174
 40
0.3478035941
 40
0.4927811984
 40
0.6531369878
 40
0.8239996736
 40
1.0
 40
1.0
 40
1.0
 40
1.0
 10
5.2966105836
 20
-6.4968984636
 30
0.0
 10
5.2967576146
 20
-6.4976413293
 30
0.0
 10
5.2969618511
 20
-6.49962364
 30
0.0
 10
5.297224666
 20
-6.5032693028
 30
0.0
 10
5.2974574228
 20
-6.5082215632
 30
0.0
 10
5.2976658458
 20
-6.514324613
 30
0.0
 10
5.2978344721
 20
-6.5213952957
 30
0.0
 10
5.2979596498
 20
-6.5292171591
 30
0.0
 10
5.2980362921
 20
-6.5375493552
 30
0.0
 10
5.2980534156
 20
-6.5432475567
 30
0.0
 10
5.2980534256
 20
-6.5461388512
 30
0.0
 11
5.2966105836
 21
-6.4968984636
 31
0.0
 11
5.2969042834
 21
-6.4991512282
 31
0.0
 11
5.2971802006
 21
-6.5028342485
 31
0.0
 11
5.297429621
 21
-6.5078342772
 31
0.0
 11
5.2976449464
 21
-6.5140000246
 31
0.0
 11
5.2978195816
 21
-6.5211428706
 31
0.0
 11
5.2979482108
 21
-6.5290446924
 31
0.0
 11
5.298026953
 21
-6.5374650079
 31
0.0
 11
5.2980534256
 21
-6.5461388512
 31
0.0
  0
SPLINE
  5
5A0
100
AcDbEntity
  8
RACCORDO
100
AcDbSpline
 62
253
  6
CONTINUOUS
 70
0
 71
3
 72
15
 73
11
 74
9
 42
0.0000001
 43
0.0000001
 44
0.0000000001
 12
-0.4014143357
 22
-0.0070088488
 32
0.0
 13
-0.0139942489
 23
-0.4012315464
 33
0.0
 40
0.0
 40
0.0
 40
0.0
 40
0.0
 40
0.1440044844
 40
0.2856956272
 40
0.4226390599
 40
0.5528844372
 40
0.67524257
 40
0.7895686166
 40
0.89699843
 40
1.0
 40
1.0
 40
1.0
 40
1.0
 10
7.0635740157
 20
7.7589002959
 30
0.0
 10
7.0443055276
 20
7.7585638607
 30
0.0
 10
7.0060713732
 20
7.7552945874
 30
0.0
 10
6.9507371181
 20
7.742755223
 30
0.0
 10
6.8994753915
 20
7.7230281661
 30
0.0
 10
6.8541510654
 20
7.6967909303
 30
0.0
 10
6.8164099576
 20
7.6649265465
 30
0.0
 10
6.7876798939
 20
7.6284687448
 30
0.0
 10
6.7691736997
 20
7.5886794018
 30
0.0
 10
6.7642372441
 20
7.560544088
 30
0.0
 10
6.7637567676
 20
7.5467682616
 30
0.0
 11
7.0635740157
 21
7.7589002959
 31
0.0
 11
7.0059724775
 21
7.7539451764
 31
0.0
 11
6.9505157359
 21
7.7412758121
 31
0.0
 11
6.8992687262
 21
7.7213639476
 31
0.0
 11
6.8541396337
 21
7.6949510022
 31
0.0
 11
6.8168088429
 21
7.6630204637
 31
0.0
 11
6.7886663681
 21
7.6267612675
 31
0.0
 11
6.770760096
 21
7.5875235269
 31
0.0
 11
6.7637567676
 21
7.5467682616
 31
0.0
  0
SPLINE
  5
5A1
100
AcDbEntity
  8
RACCORDO
100
AcDbSpline
 62
253
  6
CONTINUOUS
 70
0
 71
3
 72
15
 73
11
 74
9
 42
0.0000001
 43
0.0000001
 44
0.0000000001
 12
-0.4014143352
 22
-0.0070088515
 32
0.0
 13
-0.0139942492
 23
-0.401231546
 33
0.0
 40
0.0
 40
0.0
 40
0.0
 40
0.0
 40
0.1440045699
 40
0.2856957779
 40
0.4226392486
 40
0.5528846346
 40
0.6752427483
 40
0.7895687529
 40
0.8969985064
 40
1.0
 40
1.0
 40
1.0
 40
1.0
 10
7.0847746517
 20
7.1517935147
 30
0.0
 10
7.0655061521
 20
7.1514570792
 30
0.0
 10
7.0272719776
 20
7.1481878024
 30
0.0
 10
6.9719376992
 20
7.1356484257
 30
0.0
 10
6.9206759621
 20
7.1159213537
 30
0.0
 10
6.8753516392
 20
7.0896841049
 30
0.0
 10
6.8376105459
 20
7.0578197148
 30
0.0
 10
6.8088805032
 20
7.0213619174
 30
0.0
 10
6.7903743292
 20
6.9815725921
 30
0.0
 10
6.7854378798
 20
6.9534372965
 30
0.0
 10
6.7849574036
 20
6.9396614804
 30
0.0
 11
7.0847746517
 21
7.1517935147
 31
0.0
 11
7.0271730795
 21
7.1468383896
 31
0.0
 11
6.9717163141
 21
7.1341690126
 31
0.0
 11
6.9204692939
 21
7.1142571328
 31
0.0
 11
6.8753402051
 21
7.0878441745
 31
0.0
 11
6.8380094295
 21
7.0559136301
 31
0.0
 11
6.8098669757
 21
7.019654439
 31
0.0
 11
6.7919607228
 21
6.9804167161
 31
0.0
 11
6.7849574036
 21
6.9396614804
 31
0.0
  0
SPLINE
  5
5A2
100
AcDbEntity
  8
RACCORDO
100
AcDbSpline
 62
253
  6
CONTINUOUS
 70
0
 71
3
 72
15
 73
11
 74
9
 42
0.0000001
 43
0.0000001
 44
0.0000000001
 12
0.4014143357
 22
-0.0070088487
 32
0.0
 13
0.0139942489
 23
-0.4012315464
 33
0.0
 40
0.0
 40
0.0
 40
0.0
 40
0.0
 40
0.1440044844
 40
0.2856956272
 40
0.4226390599
 40
0.5528844372
 40
0.67524257
 40
0.7895686166
 40
0.89699843
 40
1.0
 40
1.0
 40
1.0
 40
1.0
 10
-7.1083777192
 20
7.1517935147
 30
0.0
 10
-7.0891092311
 20
7.1514570795
 30
0.0
 10
-7.0508750767
 20
7.1481878062
 30
0.0
 10
-6.9955408217
 20
7.1356484418
 30
0.0
 10
-6.944279095
 20
7.1159213849
 30
0.0
 10
-6.898954769
 20
7.0896841491
 30
0.0
 10
-6.8612136611
 20
7.0578197653
 30
0.0
 10
-6.8324835974
 20
7.0213619636
 30
0.0
 10
-6.8139774032
 20
6.9815726207
 30
0.0
 10
-6.8090409477
 20
6.9534373068
 30
0.0
 10
-6.8085604711
 20
6.9396614804
 30
0.0
 11
-7.1083777192
 21
7.1517935147
 31
0.0
 11
-7.050776181
 21
7.1468383952
 31
0.0
 11
-6.9953194394
 21
7.1341690309
 31
0.0
 11
-6.9440724297
 21
7.1142571664
 31
0.0
 11
-6.8989433372
 21
7.087844221
 31
0.0
 11
-6.8616125464
 21
7.0559136825
 31
0.0
 11
-6.8334700716
 21
7.0196544863
 31
0.0
 11
-6.8155637995
 21
6.9804167457
 31
0.0
 11
-6.8085604711
 21
6.9396614804
 31
0.0
  0
SPLINE
  5
5A3
100
AcDbEntity
  8
RACCORDO
100
AcDbSpline
 62
253
  6
CONTINUOUS
 70
0
 71
3
 72
15
 73
11
 74
9
 42
0.0000001
 43
0.0000001
 44
0.0000000001
 12
0.4014143351
 22
-0.007008849
 32
0.0
 13
0.0139942489
 23
-0.4012315459
 33
0.0
 40
0.0
 40
0.0
 40
0.0
 40
0.0
 40
0.1440042721
 40
0.2856952433
 40
0.4226385679
 40
0.5528839124
 40
0.6752420872
 40
0.7895682409
 40
0.8969982159
 40
1.0
 40
1.0
 40
1.0
 40
1.0
 10
-7.0871770833
 20
7.7589002959
 30
0.0
 10
-7.0679086235
 20
7.7585638612
 30
0.0
 10
-7.0296745207
 20
7.7552945961
 30
0.0
 10
-6.9743403269
 20
7.7427552626
 30
0.0
 10
-6.9230786306
 20
7.7230282455
 30
0.0
 10
-6.8777542996
 20
7.6967910459
 30
0.0
 10
-6.8400131552
 20
7.6649266816
 30
0.0
 10
-6.8112830355
 20
7.6284688706
 30
0.0
 10
-6.7927767856
 20
7.5886794808
 30
0.0
 10
-6.7878403127
 20
7.5605441166
 30
0.0
 10
-6.7873598352
 20
7.5467682615
 30
0.0
 11
-7.0871770833
 21
7.7589002959
 31
0.0
 11
-7.0295756295
 21
7.7539451896
 31
0.0
 11
-6.9741189514
 21
7.7412758573
 31
0.0
 11
-6.9228719725
 21
7.7213640335
 31
0.0
 11
-6.8777428741
 21
7.6949511245
 31
0.0
 11
-6.8404120455
 21
7.6630206043
 31
0.0
 11
-6.8122695147
 21
7.6267613971
 31
0.0
 11
-6.7943631893
 21
7.5875236096
 31
0.0
 11
-6.7873598352
 21
7.5467682615
 31
0.0
  0
SPLINE
  5
5A4
100
AcDbEntity
  8
RACCORDO
100
AcDbSpline
 62
253
  6
CONTINUOUS
 70
0
 71
3
 72
15
 73
11
 74
9
 42
0.0000001
 43
0.0000001
 44
0.0000000001
 12
0.3882348029
 22
-0.0023184616
 32
0.0
 13
0.0023876314
 23
-0.3882343837
 33
0.0
 40
0.0
 40
0.0
 40
0.0
 40
0.0
 40
0.1257290456
 40
0.2514557317
 40
0.3770343051
 40
0.502340937
 40
0.627292244
 40
0.751858067
 40
0.8760664778
 40
1.0
 40
1.0
 40
1.0
 40
1.0
 10
5.6299386421
 20
-6.2506965253
 30
0.0
 10
5.6462094392
 20
-6.2507936913
 30
0.0
 10
5.6788183113
 20
-6.2541391714
 30
0.0
 10
5.7257819042
 20
-6.2684016923
 30
0.0
 10
5.7691170953
 20
-6.2913698464
 30
0.0
 10
5.8071508478
 20
-6.322173727
 30
0.0
 10
5.838438624
 20
-6.3596433621
 30
0.0
 10
5.861781652
 20
-6.4023617531
 30
0.0
 10
5.8762837684
 20
-6.4486773379
 30
0.0
 10
5.879687713
 20
-6.4808600454
 30
0.0
 10
5.8797863489
 20
-6.4968984636
 30
0.0
 11
5.6299386421
 21
-6.2506965253
 31
0.0
 11
5.6784967581
 21
-6.2556808897
 31
0.0
 11
5.7252031381
 21
-6.2698639481
 31
0.0
 11
5.7682766611
 21
-6.2927048377
 31
0.0
 11
5.806074743
 21
-6.3233325342
 31
0.0
 11
5.8371559757
 21
-6.3605790679
 31
0.0
 11
5.8603350941
 21
-6.4030240637
 31
0.0
 11
5.8747281758
 21
-6.4490489059
 31
0.0
 11
5.8797863489
 21
-6.4968984636
 31
0.0
  0
SPLINE
  5
5A5
100
AcDbEntity
  8
RACCORDO
100
AcDbSpline
 62
7
  6
CONTINUOUS
 70
0
 71
3
 72
17
 73
13
 74
11
 42
0.0000001
 43
0.0000001
 44
0.0000000001
 12
-0.0148532747
 22
0.3571597571
 32
0.0
 13
-0.3573152673
 23
0.0104647825
 33
0.0
 40
0.0
 40
0.0
 40
0.0
 40
0.0
 40
0.0784048065
 40
0.159813855
 40
0.2448266776
 40
0.3341391228
 40
0.4284979008
 40
0.5286788015
 40
0.6354463523
 40
0.7494674181
 40
0.8710888176
 40
1.0
 40
1.0
 40
1.0
 40
1.0
 10
5.937708815
 20
-6.2044280025
 30
0.0
 10
5.9373206256
 20
-6.1950936553
 30
0.0
 10
5.9350097299
 20
-6.1760984389
 30
0.0
 10
5.9269592548
 20
-6.14794001
 30
0.0
 10
5.9140898808
 20
-6.1201834084
 30
0.0
 10
5.8962938786
 20
-6.0934241588
 30
0.0
 10
5.8735061747
 20
-6.0682646601
 30
0.0
 10
5.8456959916
 20
-6.0453606225
 30
0.0
 10
5.8128841089
 20
-6.0254585599
 30
0.0
 10
5.7752011783
 20
-6.0094471891
 30
0.0
 10
5.733039217
 20
-5.9983907024
 30
0.0
 10
5.7032150861
 20
-5.9952083815
 30
0.0
 10
5.6878611082
 20
-5.9947587057
 30
0.0
 11
5.937708815
 21
-6.2044280025
 31
0.0
 11
5.934344544
 21
-6.1766034047
 31
0.0
 11
5.9263832058
 21
-6.1486124221
 31
0.0
 11
5.9136466248
 21
-6.1210208402
 31
0.0
 11
5.8960180979
 21
-6.0944026318
 31
0.0
 11
5.8734235324
 21
-6.0693583115
 31
0.0
 11
5.845822411
 21
-6.0465407167
 31
0.0
 11
5.8132216301
 21
-6.0266954348
 31
0.0
 11
5.7757285615
 21
-6.0107091677
 31
0.0
 11
5.7336822002
 21
-5.9996524906
 31
0.0
 11
5.6878611082
 21
-5.9947587057
 31
0.0
  0
SPLINE
  5
5A6
100
AcDbEntity
  8
RACCORDO
100
AcDbSpline
 62
253
  6
CONTINUOUS
 70
0
 71
3
 72
15
 73
11
 74
9
 42
0.0000001
 43
0.0000001
 44
0.0000000001
 12
-0.4014143357
 22
-0.0070088488
 32
0.0
 13
-0.0139942489
 23
-0.4012315464
 33
0.0
 40
0.0
 40
0.0
 40
0.0
 40
0.0
 40
0.1440044844
 40
0.2856956272
 40
0.4226390599
 40
0.5528844372
 40
0.67524257
 40
0.7895686166
 40
0.89699843
 40
1.0
 40
1.0
 40
1.0
 40
1.0
 10
-7.2364259843
 20
7.7589002959
 30
0.0
 10
-7.2556944724
 20
7.7585638607
 30
0.0
 10
-7.2939286268
 20
7.7552945874
 30
0.0
 10
-7.3492628819
 20
7.742755223
 30
0.0
 10
-7.4005246085
 20
7.7230281661
 30
0.0
 10
-7.4458489346
 20
7.6967909303
 30
0.0
 10
-7.4835900424
 20
7.6649265465
 30
0.0
 10
-7.5123201061
 20
7.6284687448
 30
0.0
 10
-7.5308263003
 20
7.5886794018
 30
0.0
 10
-7.5357627559
 20
7.560544088
 30
0.0
 10
-7.5362432324
 20
7.5467682616
 30
0.0
 11
-7.2364259843
 21
7.7589002959
 31
0.0
 11
-7.2940275225
 21
7.7539451764
 31
0.0
 11
-7.3494842641
 21
7.7412758121
 31
0.0
 11
-7.4007312738
 21
7.7213639476
 31
0.0
 11
-7.4458603663
 21
7.6949510022
 31
0.0
 11
-7.4831911571
 21
7.6630204637
 31
0.0
 11
-7.5113336319
 21
7.6267612675
 31
0.0
 11
-7.529239904
 21
7.5875235269
 31
0.0
 11
-7.5362432324
 21
7.5467682616
 31
0.0
  0
SPLINE
  5
5A7
100
AcDbEntity
  8
RACCORDO
100
AcDbSpline
 62
253
  6
CONTINUOUS
 70
0
 71
3
 72
15
 73
11
 74
9
 42
0.0000001
 43
0.0000001
 44
0.0000000001
 12
-0.4014143352
 22
-0.0070088515
 32
0.0
 13
-0.0139942492
 23
-0.401231546
 33
0.0
 40
0.0
 40
0.0
 40
0.0
 40
0.0
 40
0.1440045699
 40
0.2856957779
 40
0.4226392486
 40
0.5528846346
 40
0.6752427483
 40
0.7895687529
 40
0.8969985064
 40
1.0
 40
1.0
 40
1.0
 40
1.0
 10
-7.2152253483
 20
7.1517935147
 30
0.0
 10
-7.2344938479
 20
7.1514570792
 30
0.0
 10
-7.2727280224
 20
7.1481878024
 30
0.0
 10
-7.3280623008
 20
7.1356484257
 30
0.0
 10
-7.3793240379
 20
7.1159213537
 30
0.0
 10
-7.4246483608
 20
7.0896841049
 30
0.0
 10
-7.4623894541
 20
7.0578197148
 30
0.0
 10
-7.4911194968
 20
7.0213619174
 30
0.0
 10
-7.5096256708
 20
6.9815725921
 30
0.0
 10
-7.5145621202
 20
6.9534372965
 30
0.0
 10
-7.5150425964
 20
6.9396614804
 30
0.0
 11
-7.2152253483
 21
7.1517935147
 31
0.0
 11
-7.2728269205
 21
7.1468383896
 31
0.0
 11
-7.3282836859
 21
7.1341690126
 31
0.0
 11
-7.3795307061
 21
7.1142571328
 31
0.0
 11
-7.4246597949
 21
7.0878441745
 31
0.0
 11
-7.4619905705
 21
7.0559136301
 31
0.0
 11
-7.4901330243
 21
7.019654439
 31
0.0
 11
-7.5080392772
 21
6.9804167161
 31
0.0
 11
-7.5150425964
 21
6.9396614804
 31
0.0
  0
SPLINE
  5
5A8
100
AcDbEntity
  8
RACCORDO
100
AcDbSpline
 62
7
  6
CONTINUOUS
 70
0
 71
3
 72
14
 73
10
 74
8
 42
0.0000001
 43
0.0000001
 44
0.0000000001
 12
-0.187164952
 22
-0.0179573555
 32
0.0
 13
-0.188024429
 23
-0.0
 33
0.0
 40
0.0
 40
0.0
 40
0.0
 40
0.0
 40
0.0778830372
 40
0.1849747095
 40
0.3167251878
 40
0.4673848541
 40
0.636225452
 40
0.8166806958
 40
1.0
 40
1.0
 40
1.0
 40
1.0
 10
-4.1767724932
 20
5.7965114697
 30
0.0
 10
-4.1816314849
 20
5.7960452785
 30
0.0
 10
-4.1932001492
 20
5.7952472187
 30
0.0
 10
-4.2130280447
 20
5.7942951608
 30
0.0
 10
-4.237426922
 20
5.7934699328
 30
0.0
 10
-4.2657011066
 20
5.7927929352
 30
0.0
 10
-4.2970320366
 20
5.7922918444
 30
0.0
 10
-4.3304123941
 20
5.7919854232
 30
0.0
 10
-4.3532119597
 20
5.7919173502
 30
0.0
 10
-4.3647014622
 20
5.7919173502
 30
0.0
 11
-4.1767724932
 21
5.7965114697
 31
0.0
 11
-4.1913753858
 21
5.7954161455
 31
0.0
 11
-4.2114861775
 21
5.7944118882
 31
0.0
 11
-4.2362434183
 21
5.7935480052
 31
0.0
 11
-4.2645626524
 21
5.7928555909
 31
0.0
 11
-4.2963045951
 21
5.7923383307
 31
0.0
 11
-4.330233113
 21
5.7920218202
 31
0.0
 11
-4.3647014622
 21
5.7919173502
 31
0.0
  0
SPLINE
  5
5A9
100
AcDbEntity
  8
RACCORDO
100
AcDbSpline
 62
7
  6
CONTINUOUS
 70
0
 71
3
 72
14
 73
10
 74
8
 42
0.0000001
 43
0.0000001
 44
0.0000000001
 12
0.1880504183
 22
0.0
 32
0.0
 13
0.1871908232
 23
-0.0179598313
 33
0.0
 40
0.0
 40
0.0
 40
0.0
 40
0.0
 40
0.1832425357
 40
0.3636522946
 40
0.53247933
 40
0.6831485856
 40
0.8149281021
 40
0.9220655165
 40
1.0
 40
1.0
 40
1.0
 40
1.0
 10
-4.3700461051
 20
7.4192894536
 30
0.0
 10
-4.3585598266
 20
7.4192894536
 30
0.0
 10
-4.3357647728
 20
7.4192213702
 30
0.0
 10
-4.3023883152
 20
7.4189148937
 30
0.0
 10
-4.2710561566
 20
7.4184136389
 30
0.0
 10
-4.2427764971
 20
7.4177363309
 30
0.0
 10
-4.2183689682
 20
7.416910619
 30
0.0
 10
-4.198530436
 20
7.4159578871
 30
0.0
 10
-4.1869541009
 20
7.4151592051
 30
0.0
 10
-4.1820912275
 20
7.4146926417
 30
0.0
 11
-4.3700461051
 21
7.4192894536
 31
0.0
 11
-4.3355874279
 21
7.4191849821
 31
0.0
 11
-4.3016627742
 21
7.4188684198
 31
0.0
 11
-4.2699189964
 21
7.4183509894
 31
0.0
 11
-4.2415940494
 21
7.4176582623
 31
0.0
 11
-4.2168279356
 21
7.4167938888
 31
0.0
 11
-4.1967057805
 21
7.4157889132
 31
0.0
 11
-4.1820912275
 21
7.4146926417
 31
0.0
  0
SPLINE
  5
5AA
100
AcDbEntity
  8
RACCORDO
100
AcDbSpline
 62
7
  6
CONTINUOUS
 70
0
 71
3
 72
14
 73
10
 74
8
 42
0.0000001
 43
0.0000001
 44
0.0000000001
 12
0.1871908232
 22
0.0179598313
 32
0.0
 13
0.1880504183
 23
-0.0
 33
0.0
 40
0.0
 40
0.0
 40
0.0
 40
0.0
 40
0.0779344835
 40
0.1850718979
 40
0.3168514144
 40
0.46752067
 40
0.6363477055
 40
0.8167574643
 40
1.0
 40
1.0
 40
1.0
 40
1.0
 10
4.15848816
 20
7.4146926417
 30
0.0
 10
4.1633510333
 20
7.4151592051
 30
0.0
 10
4.1749273684
 20
7.4159578871
 30
0.0
 10
4.1947659007
 20
7.416910619
 30
0.0
 10
4.2191734296
 20
7.4177363309
 30
0.0
 10
4.247453089
 20
7.4184136389
 30
0.0
 10
4.2787852477
 20
7.4189148937
 30
0.0
 10
4.3121617053
 20
7.4192213702
 30
0.0
 10
4.334956759
 20
7.4192894536
 30
0.0
 10
4.3464430375
 20
7.4192894536
 30
0.0
 11
4.15848816
 21
7.4146926417
 31
0.0
 11
4.1731027129
 21
7.4157889132
 31
0.0
 11
4.193224868
 21
7.4167938888
 31
0.0
 11
4.2179909819
 21
7.4176582623
 31
0.0
 11
4.2463159289
 21
7.4183509894
 31
0.0
 11
4.2780597067
 21
7.4188684198
 31
0.0
 11
4.3119843604
 21
7.4191849821
 31
0.0
 11
4.3464430375
 21
7.4192894536
 31
0.0
  0
SPLINE
  5
5AB
100
AcDbEntity
  8
RACCORDO
100
AcDbSpline
 62
7
  6
CONTINUOUS
 70
0
 71
3
 72
14
 73
10
 74
8
 42
0.0000001
 43
0.0000001
 44
0.0000000001
 12
-0.188024429
 22
0.0
 32
0.0
 13
-0.187164952
 23
0.0179573555
 33
0.0
 40
0.0
 40
0.0
 40
0.0
 40
0.0
 40
0.1833193042
 40
0.363774548
 40
0.5326151459
 40
0.6832748122
 40
0.8150252905
 40
0.9221169628
 40
1.0
 40
1.0
 40
1.0
 40
1.0
 10
4.3410983946
 20
5.7919173502
 30
0.0
 10
4.3296088921
 20
5.7919173502
 30
0.0
 10
4.3068093265
 20
5.7919854232
 30
0.0
 10
4.2734289691
 20
5.7922918444
 30
0.0
 10
4.242098039
 20
5.7927929352
 30
0.0
 10
4.2138238544
 20
5.7934699328
 30
0.0
 10
4.1894249771
 20
5.7942951608
 30
0.0
 10
4.1695970816
 20
5.7952472187
 30
0.0
 10
4.1580284173
 20
5.7960452785
 30
0.0
 10
4.1531694257
 20
5.7965114697
 30
0.0
 11
4.3410983946
 21
5.7919173502
 31
0.0
 11
4.3066300454
 21
5.7920218202
 31
0.0
 11
4.2727015276
 21
5.7923383307
 31
0.0
 11
4.2409595849
 21
5.7928555909
 31
0.0
 11
4.2126403507
 21
5.7935480052
 31
0.0
 11
4.1878831099
 21
5.7944118882
 31
0.0
 11
4.1677723182
 21
5.7954161455
 31
0.0
 11
4.1531694257
 21
5.7965114697
 31
0.0
  0
SPLINE
  5
5AC
100
AcDbEntity
  8
RACCORDO
100
AcDbSpline
 62
253
  6
CONTINUOUS
 70
0
 71
3
 72
15
 73
11
 74
9
 42
0.0000001
 43
0.0000001
 44
0.0000000001
 12
0.2881576673
 22
0.0038542516
 32
0.0
 13
0.0214951096
 23
0.2873806826
 33
0.0
 40
0.0
 40
0.0
 40
0.0
 40
0.0
 40
0.1661012139
 40
0.3273713521
 40
0.4790823685
 40
0.6171102583
 40
0.7383301595
 40
0.8411950579
 40
0.9267168348
 40
1.0
 40
1.0
 40
1.0
 40
1.0
 10
5.6286593903
 20
-6.9549301744
 30
0.0
 10
5.6446138364
 20
-6.9547167758
 30
0.0
 10
5.6760573668
 20
-6.9530319748
 30
0.0
 10
5.721706264
 20
-6.9467821597
 30
0.0
 10
5.763994031
 20
-6.9370552107
 30
0.0
 10
5.8014131269
 20
-6.9242068589
 30
0.0
 10
5.8326883637
 20
-6.908692141
 30
0.0
 10
5.8568055742
 20
-6.8909457565
 30
0.0
 10
5.8730576099
 20
-6.8713007763
 30
0.0
 10
5.8779820205
 20
-6.8562956643
 30
0.0
 10
5.878507097
 20
-6.849275609
 30
0.0
 11
5.6286593903
 21
-6.9549301744
 31
0.0
 11
5.6764569567
 21
-6.9523414196
 31
0.0
 11
5.7224906658
 21
-6.9459493229
 31
0.0
 11
5.765061766
 21
-6.9359897772
 31
0.0
 11
5.8025993013
 21
-6.9228303239
 31
0.0
 11
5.8337180837
 21
-6.906956585
 31
0.0
 11
5.8572698038
 21
-6.8889543386
 31
0.0
 11
5.8723853959
 21
-6.8694879002
 31
0.0
 11
5.878507097
 21
-6.849275609
 31
0.0
  0
SPLINE
  5
5AD
100
AcDbEntity
  8
RACCORDO
100
AcDbSpline
 62
253
  6
CONTINUOUS
 70
0
 71
3
 72
14
 73
10
 74
8
 42
0.0000001
 43
0.0000001
 44
0.0000000001
 12
0.2004260331
 22
0.0001424279
 32
0.0
 13
0.0795097631
 23
0.183980468
 33
0.0
 40
0.0
 40
0.0
 40
0.0
 40
0.0
 40
0.219626445
 40
0.4285016891
 40
0.6164034558
 40
0.7741463891
 40
0.8940461608
 40
0.9703499162
 40
1.0
 40
1.0
 40
1.0
 40
1.0
 10
9.6254317693
 20
-9.0099145436
 30
0.0
 10
9.6401047216
 20
-9.0099041166
 30
0.0
 10
9.6687433214
 20
-9.0097660597
 30
0.0
 10
9.7098754254
 20
-9.0091446538
 30
0.0
 10
9.7470526924
 20
-9.0083246213
 30
0.0
 10
9.7777309981
 20
-9.0068328042
 30
0.0
 10
9.8023303785
 20
-9.0061618908
 30
0.0
 10
9.8154697534
 20
-9.0033612461
 30
0.0
 10
9.8246154846
 20
-9.0036625735
 30
0.0
 10
9.8254013083
 20
-9.0018442281
 30
0.0
 11
9.6254317693
 21
-9.0099145436
 31
0.0
 11
9.669450041
 21
-9.0096853817
 31
0.0
 11
9.7113095907
 21
-9.0090717529
 31
0.0
 11
9.7489575634
 21
-9.0081037503
 31
0.0
 11
9.7805476461
 21
-9.0068288465
 31
0.0
 11
9.804530614
 21
-9.0053095644
 31
0.0
 11
9.8197303065
 21
-9.0036204121
 31
0.0
 11
9.8254013083
 21
-9.0018442281
 31
0.0
  0
SPLINE
  5
5AE
100
AcDbEntity
  8
RACCORDO
100
AcDbSpline
 62
253
  6
CONTINUOUS
 70
0
 71
3
 72
15
 73
11
 74
9
 42
0.0000001
 43
0.0000001
 44
0.0000000001
 12
-0.0006690231
 22
-0.3122541311
 32
0.0
 13
-0.3122541518
 23
-0.0006592875
 33
0.0
 40
0.0
 40
0.0
 40
0.0
 40
0.0
 40
0.1239311267
 40
0.2485008945
 40
0.3733674625
 40
0.4983911403
 40
0.623641287
 40
0.7490227936
 40
0.8745020714
 40
1.0
 40
1.0
 40
1.0
 40
1.0
 10
9.8254013083
 20
-9.0018442281
 30
0.0
 10
9.8253736707
 20
-9.0147435635
 30
0.0
 10
9.8227617638
 20
-9.040674681
 30
0.0
 10
9.8113030206
 20
-9.078060637
 30
0.0
 10
9.7926965708
 20
-9.1125982348
 30
0.0
 10
9.7676648758
 20
-9.142891078
 30
0.0
 10
9.7371781878
 20
-9.1677697967
 30
0.0
 10
9.7023982347
 20
-9.1862810115
 30
0.0
 10
9.6646828217
 20
-9.1977139575
 30
0.0
 10
9.6384941857
 20
-9.2003258787
 30
0.0
 10
9.6254317693
 20
-9.2003534584
 30
0.0
 11
9.8254013083
 21
-9.0018442281
 31
0.0
 11
9.8215212495
 21
-9.0403473151
 31
0.0
 11
9.8101302186
 21
-9.077539532
 31
0.0
 11
9.7916413419
 21
-9.1118673115
 31
0.0
 11
9.7667787698
 21
-9.1419657419
 31
0.0
 11
9.7364805181
 21
-9.1666963978
 31
0.0
 11
9.7019223167
 21
-9.1850955883
 31
0.0
 11
9.6644252612
 21
-9.1964605242
 31
0.0
 11
9.6254317693
 21
-9.2003534584
 31
0.0
  0
SPLINE
  5
5AF
100
AcDbEntity
  8
RACCORDO
100
AcDbSpline
 62
253
  6
CONTINUOUS
 70
0
 71
3
 72
15
 73
11
 74
9
 42
0.0000001
 43
0.0000001
 44
0.0000000001
 12
-0.3882348025
 22
-0.0023184634
 32
0.0
 13
-0.0023876319
 23
-0.3882343833
 33
0.0
 40
0.0
 40
0.0
 40
0.0
 40
0.0
 40
0.125729459
 40
0.2514564959
 40
0.3770353051
 40
0.5023420228
 40
0.6272932526
 40
0.7518588458
 40
0.8760669051
 40
1.0
 40
1.0
 40
1.0
 40
1.0
 10
5.5464582903
 20
-6.2506965253
 30
0.0
 10
5.5301874397
 20
-6.2507936917
 30
0.0
 10
5.4975784681
 20
-6.2541391925
 30
0.0
 10
5.4506147621
 20
-6.2684017945
 30
0.0
 10
5.4072795239
 20
-6.2913700491
 30
0.0
 10
5.3692457962
 20
-6.3221740115
 30
0.0
 10
5.3379581001
 20
-6.3596436754
 30
0.0
 10
5.314615174
 20
-6.402362023
 30
0.0
 10
5.3001131419
 20
-6.4486774948
 30
0.0
 10
5.2967092191
 20
-6.4808601007
 30
0.0
 10
5.2966105836
 20
-6.4968984636
 30
0.0
 11
5.5464582903
 21
-6.2506965253
 31
0.0
 11
5.4979000164
 21
-6.2556809218
 31
0.0
 11
5.451193519
 21
-6.2698640621
 31
0.0
 11
5.4081199462
 21
-6.2927050532
 31
0.0
 11
5.3703218881
 21
-6.3233328318
 31
0.0
 11
5.3392407356
 21
-6.3605793934
 31
0.0
 11
5.3160617198
 21
-6.4030243435
 31
0.0
 11
5.3016687229
 21
-6.4490490692
 31
0.0
 11
5.2966105836
 21
-6.4968984636
 31
0.0
  0
SPLINE
  5
5B0
100
AcDbEntity
  8
RACCORDO
100
AcDbSpline
 62
253
  6
CONTINUOUS
 70
0
 71
3
 72
14
 73
10
 74
8
 42
0.0000001
 43
0.0000001
 44
0.0000000001
 12
0.0619574506
 22
-0.1906092583
 32
0.0
 13
0.2004085935
 23
-0.0026477693
 33
0.0
 40
0.0
 40
0.0
 40
0.0
 40
0.0
 40
0.0296500838
 40
0.1059538392
 40
0.2258536109
 40
0.3835965442
 40
0.5714983109
 40
0.780373555
 40
1.0
 40
1.0
 40
1.0
 40
1.0
 10
-9.8490043758
 20
-9.0018442281
 30
0.0
 10
-9.848392028
 20
-9.0037280882
 30
0.0
 10
-9.8388602263
 20
-9.0032809485
 30
0.0
 10
-9.826057471
 20
-9.0062088415
 30
0.0
 10
-9.8012813233
 20
-9.0068121335
 30
0.0
 10
-9.7706747987
 20
-9.0083358553
 30
0.0
 10
-9.7334721995
 20
-9.0091232779
 30
0.0
 10
-9.6923488946
 20
-9.0098479632
 30
0.0
 10
-9.6637065125
 20
-9.0097207035
 30
0.0
 10
-9.6490348368
 20
-9.0099145436
 30
0.0
 11
-9.8490043758
 21
-9.0018442281
 31
0.0
 11
-9.8433333741
 21
-9.0036204121
 31
0.0
 11
-9.8281336815
 21
-9.0053095645
 31
0.0
 11
-9.8041507137
 21
-9.0068288465
 31
0.0
 11
-9.772560631
 21
-9.0081037503
 31
0.0
 11
-9.7349126583
 21
-9.0090717529
 31
0.0
 11
-9.6930531086
 21
-9.0096853817
 31
0.0
 11
-9.6490348368
 21
-9.0099145436
 31
0.0
  0
SPLINE
  5
5B1
100
AcDbEntity
  8
RACCORDO
100
AcDbSpline
 62
253
  6
CONTINUOUS
 70
0
 71
3
 72
15
 73
11
 74
9
 42
0.0000001
 43
0.0000001
 44
0.0000000001
 12
-0.3122541466
 22
0.0006592875
 32
0.0
 13
-0.0006690231
 23
0.3122541259
 33
0.0
 40
0.0
 40
0.0
 40
0.0
 40
0.0
 40
0.1253892911
 40
0.2507579262
 40
0.376037153
 40
0.5011716683
 40
0.6261279947
 40
0.7508996291
 40
0.8755081425
 40
1.0
 40
1.0
 40
1.0
 40
1.0
 10
-9.6490348368
 20
-9.2003534584
 30
0.0
 10
-9.6620859455
 20
-9.2003259025
 30
0.0
 10
-9.6882515835
 20
-9.1977185012
 30
0.0
 10
-9.7259372804
 20
-9.1863050783
 30
0.0
 10
-9.7606942923
 20
-9.1678248813
 30
0.0
 10
-9.791172211
 20
-9.1429834709
 30
0.0
 10
-9.8162076173
 20
-9.1127318075
 30
0.0
 10
-9.834837823
 20
-9.0782221705
 30
0.0
 10
-9.8463465941
 20
-9.0407963854
 30
0.0
 10
-9.8489766132
 20
-9.0148019268
 30
0.0
 10
-9.8490043758
 20
-9.0018442281
 30
0.0
 11
-9.6490348368
 21
-9.2003534584
 31
0.0
 11
-9.6879949021
 21
-9.196467189
 31
0.0
 11
-9.7254617927
 21
-9.185121844
 31
0.0
 11
-9.7599995612
 21
-9.1667522427
 31
0.0
 11
-9.7902845208
 21
-9.1420624142
 31
0.0
 11
-9.815155977
 21
-9.1119986153
 31
0.0
 11
-9.833660712
 21
-9.0777130642
 31
0.0
 11
-9.8450895175
 21
-9.0405197814
 31
0.0
 11
-9.8490043758
 21
-9.0018442281
 31
0.0
  0
SPLINE
  5
5B2
100
AcDbEntity
  8
RACCORDO
100
AcDbSpline
 62
253
  6
CONTINUOUS
 70
0
 71
3
 72
13
 73
9
 74
7
 42
0.0000001
 43
0.0000001
 44
0.0000000001
 12
0.0000009478
 22
-0.3537064006
 32
0.0
 13
0.0197326764
 23
-0.3531555455
 33
0.0
 40
0.0
 40
0.0
 40
0.0
 40
0.0
 40
0.1807365394
 40
0.3628821371
 40
0.5409121621
 40
0.7094442518
 40
0.8637208192
 40
1.0
 40
1.0
 40
1.0
 40
1.0
 10
7.0553915312
 20
8.1124646504
 30
0.0
 10
7.0553915883
 20
8.0911554268
 30
0.0
 10
7.0555436803
 20
8.0483706894
 30
0.0
 10
7.0562371171
 20
7.9845991766
 30
0.0
 10
7.0574033566
 20
7.9222736239
 30
0.0
 10
7.0590163122
 20
7.8632448578
 30
0.0
 10
7.0610210981
 20
7.8091536798
 30
0.0
 10
7.0626780149
 20
7.7749355244
 30
0.0
 10
7.0635743992
 20
7.7588929415
 30
0.0
 11
7.0553915312
 21
8.1124646504
 31
0.0
 11
7.0556207616
 21
8.0485373906
 31
0.0
 11
7.0563274925
 21
7.9841152032
 31
0.0
 11
7.0575171045
 21
7.9211560818
 31
0.0
 11
7.0591630892
 21
7.8615679319
 31
0.0
 11
7.0612091054
 21
7.8070376931
 31
0.0
 11
7.0635743992
 21
7.7588929415
 31
0.0
  0
SPLINE
  5
5B3
100
AcDbEntity
  8
RACCORDO
100
AcDbSpline
 62
253
  6
CONTINUOUS
 70
0
 71
3
 72
13
 73
9
 74
7
 42
0.0000001
 43
0.0000001
 44
0.0000000001
 12
0.0197326329
 22
0.3531555552
 32
0.0
 13
0.0000009482
 23
0.3537064079
 33
0.0
 40
0.0
 40
0.0
 40
0.0
 40
0.0
 40
0.1362791858
 40
0.2905557542
 40
0.4590878453
 40
0.6371178717
 40
0.8192634707
 40
1.0
 40
1.0
 40
1.0
 40
1.0
 10
7.2128225331
 20
7.7588929381
 30
0.0
 10
7.2137189155
 20
7.774935522
 30
0.0
 10
7.2153758362
 20
7.8091536787
 30
0.0
 10
7.2173806192
 20
7.8632448588
 30
0.0
 10
7.2189935766
 20
7.9222736264
 30
0.0
 10
7.2201598151
 20
7.9845991809
 30
0.0
 10
7.2208532524
 20
8.0483706942
 30
0.0
 10
7.2210053441
 20
8.0911554314
 30
0.0
 10
7.2210054012
 20
8.1124646542
 30
0.0
 11
7.2128225331
 21
7.7588929381
 31
0.0
 11
7.2151878274
 21
7.8070376924
 31
0.0
 11
7.217233843
 21
7.8615679327
 31
0.0
 11
7.2188798282
 21
7.9211560843
 31
0.0
 11
7.2200694399
 21
7.9841152076
 31
0.0
 11
7.2207761709
 21
8.0485373967
 31
0.0
 11
7.2210054012
 21
8.1124646542
 31
0.0
  0
SPLINE
  5
5B4
100
AcDbEntity
  8
RACCORDO
100
AcDbSpline
 62
253
  6
CONTINUOUS
 70
0
 71
3
 72
13
 73
9
 74
7
 42
0.0000001
 43
0.0000001
 44
0.0000000001
 12
0.0000009478
 22
-0.3537064006
 32
0.0
 13
0.0197326764
 23
-0.3531555455
 33
0.0
 40
0.0
 40
0.0
 40
0.0
 40
0.0
 40
0.1807365394
 40
0.3628821371
 40
0.5409121621
 40
0.7094442518
 40
0.8637208192
 40
1.0
 40
1.0
 40
1.0
 40
1.0
 10
-7.2446084688
 20
8.1124646504
 30
0.0
 10
-7.2446084117
 20
8.0911554268
 30
0.0
 10
-7.2444563197
 20
8.0483706894
 30
0.0
 10
-7.2437628829
 20
7.9845991766
 30
0.0
 10
-7.2425966434
 20
7.9222736239
 30
0.0
 10
-7.2409836878
 20
7.8632448578
 30
0.0
 10
-7.2389789019
 20
7.8091536798
 30
0.0
 10
-7.2373219851
 20
7.7749355244
 30
0.0
 10
-7.2364256008
 20
7.7588929415
 30
0.0
 11
-7.2446084688
 21
8.1124646504
 31
0.0
 11
-7.2443792384
 21
8.0485373906
 31
0.0
 11
-7.2436725075
 21
7.9841152032
 31
0.0
 11
-7.2424828955
 21
7.9211560818
 31
0.0
 11
-7.2408369108
 21
7.8615679319
 31
0.0
 11
-7.2387908946
 21
7.8070376931
 31
0.0
 11
-7.2364256008
 21
7.7588929415
 31
0.0
  0
SPLINE
  5
5B5
100
AcDbEntity
  8
RACCORDO
100
AcDbSpline
 62
253
  6
CONTINUOUS
 70
0
 71
3
 72
13
 73
9
 74
7
 42
0.0000001
 43
0.0000001
 44
0.0000000001
 12
0.0197326329
 22
0.3531555552
 32
0.0
 13
0.0000009482
 23
0.3537064079
 33
0.0
 40
0.0
 40
0.0
 40
0.0
 40
0.0
 40
0.1362791858
 40
0.2905557542
 40
0.4590878453
 40
0.6371178717
 40
0.8192634707
 40
1.0
 40
1.0
 40
1.0
 40
1.0
 10
-7.0871774669
 20
7.7588929381
 30
0.0
 10
-7.0862810845
 20
7.774935522
 30
0.0
 10
-7.0846241638
 20
7.8091536787
 30
0.0
 10
-7.0826193808
 20
7.8632448588
 30
0.0
 10
-7.0810064234
 20
7.9222736264
 30
0.0
 10
-7.0798401849
 20
7.9845991809
 30
0.0
 10
-7.0791467476
 20
8.0483706942
 30
0.0
 10
-7.0789946559
 20
8.0911554314
 30
0.0
 10
-7.0789945988
 20
8.1124646542
 30
0.0
 11
-7.0871774669
 21
7.7588929381
 31
0.0
 11
-7.0848121726
 21
7.8070376924
 31
0.0
 11
-7.082766157
 21
7.8615679327
 31
0.0
 11
-7.0811201718
 21
7.9211560843
 31
0.0
 11
-7.0799305601
 21
7.9841152076
 31
0.0
 11
-7.0792238291
 21
8.0485373967
 31
0.0
 11
-7.0789945988
 21
8.1124646542
 31
0.0
  0
SPLINE
  5
5B6
100
AcDbEntity
  8
RACCORDO
100
AcDbSpline
 62
253
  6
CONTINUOUS
 70
0
 71
3
 72
13
 73
9
 74
7
 42
0.0000001
 43
0.0000001
 44
0.0000000001
 12
0.0049371296
 22
-0.3535273384
 32
0.0
 13
0.000000663
 23
-0.3535618111
 33
0.0
 40
0.0
 40
0.0
 40
0.0
 40
0.0
 40
0.1390722399
 40
0.2928914527
 40
0.4588232532
 40
0.6340132458
 40
0.8154446221
 40
1.0
 40
1.0
 40
1.0
 40
1.0
 10
7.0847746517
 20
7.1517935147
 30
0.0
 10
7.0850035242
 20
7.1354049018
 30
0.0
 10
7.0854200975
 20
7.1008889321
 30
0.0
 10
7.0859185429
 20
7.0468170491
 30
0.0
 10
7.0863162744
 20
6.9884876081
 30
0.0
 10
7.0866055203
 20
6.9269032973
 30
0.0
 10
7.0867811369
 20
6.8631236925
 30
0.0
 10
7.0868202222
 20
6.819990702
 30
0.0
 10
7.086820263
 20
6.7982401241
 30
0.0
 11
7.0847746517
 21
7.1517935147
 31
0.0
 11
7.0853769406
 21
7.1026265706
 31
0.0
 11
7.085884461
 21
7.0482443393
 31
0.0
 11
7.0862886505
 21
6.9895785837
 31
0.0
 11
7.086582356
 21
6.927638789
 31
0.0
 11
7.0867605416
 21
6.8634918305
 31
0.0
 11
7.086820263
 21
6.7982401241
 31
0.0
  0
SPLINE
  5
5B7
100
AcDbEntity
  8
RACCORDO
100
AcDbSpline
 62
253
  6
CONTINUOUS
 70
0
 71
3
 72
13
 73
9
 74
7
 42
0.0000001
 43
0.0000001
 44
0.0000000001
 12
0.000000663
 22
0.3535618111
 32
0.0
 13
0.0049371293
 23
0.3535273384
 33
0.0
 40
0.0
 40
0.0
 40
0.0
 40
0.0
 40
0.184555379
 40
0.3659867553
 40
0.5411767479
 40
0.7071085483
 40
0.8609277611
 40
1.0
 40
1.0
 40
1.0
 40
1.0
 10
7.1895766695
 20
6.7982401241
 30
0.0
 10
7.1895767102
 20
6.8199907022
 30
0.0
 10
7.1896157955
 20
6.8631236928
 30
0.0
 10
7.1897914122
 20
6.9269032977
 30
0.0
 10
7.190080658
 20
6.9884876085
 30
0.0
 10
7.1904783895
 20
7.0468170494
 30
0.0
 10
7.1909768349
 20
7.1008889323
 30
0.0
 10
7.1913934082
 20
7.1354049019
 30
0.0
 10
7.1916222808
 20
7.1517935147
 30
0.0
 11
7.1895766695
 21
6.7982401241
 31
0.0
 11
7.1896363909
 21
6.8634918309
 31
0.0
 11
7.1898145765
 21
6.9276387894
 31
0.0
 11
7.190108282
 21
6.9895785841
 31
0.0
 11
7.1905124714
 21
7.0482443396
 31
0.0
 11
7.1910199919
 21
7.1026265709
 31
0.0
 11
7.1916222808
 21
7.1517935147
 31
0.0
  0
SPLINE
  5
5B8
100
AcDbEntity
  8
RACCORDO
100
AcDbSpline
 62
253
  6
CONTINUOUS
 70
0
 71
3
 72
17
 73
13
 74
11
 42
0.0000001
 43
0.0000001
 44
0.0000000001
 12
-0.000001509
 22
-0.4998432663
 32
0.0
 13
-0.185506915
 23
-0.4641448862
 33
0.0
 40
0.0
 40
0.0
 40
0.0
 40
0.0
 40
0.1530153495
 40
0.3024422212
 40
0.4447665503
 40
0.5766197167
 40
0.6949031276
 40
0.7968310081
 40
0.8800040106
 40
0.9424699896
 40
0.9827635986
 40
1.0
 40
1.0
 40
1.0
 40
1.0
 10
7.0868202795
 20
5.4471219176
 30
0.0
 10
7.0868202026
 20
5.4216273536
 30
0.0
 10
7.0867666791
 20
5.3712361452
 30
0.0
 10
7.0865275143
 20
5.2971317575
 30
0.0
 10
7.08613271
 20
5.226554843
 30
0.0
 10
7.0856029908
 20
5.1611651169
 30
0.0
 10
7.0849186548
 20
5.1025166632
 30
0.0
 10
7.0842017796
 20
5.0519536442
 30
0.0
 10
7.0831813369
 20
5.0107706273
 30
0.0
 10
7.082657133
 20
4.979667217
 30
0.0
 10
7.0810040571
 20
4.9599596004
 30
0.0
 10
7.0811454668
 20
4.9500772454
 30
0.0
 10
7.0800796429
 20
4.9474105162
 30
0.0
 11
7.0868202795
 21
5.4471219176
 31
0.0
 11
7.0867381156
 21
5.3706382697
 31
0.0
 11
7.0864935198
 21
5.2959486545
 31
0.0
 11
7.0860920892
 21
5.2248099296
 31
0.0
 11
7.0855433874
 21
5.1589062964
 31
0.0
 11
7.084860233
 21
5.0997870769
 31
0.0
 11
7.0840587368
 21
5.048845417
 31
0.0
 11
7.0831578558
 21
5.0072817138
 31
0.0
 11
7.0821785702
 21
4.9760738757
 31
0.0
 11
7.0811445674
 21
4.9559599467
 31
0.0
 11
7.0800796429
 21
4.9474105162
 31
0.0
  0
SPLINE
  5
5B9
100
AcDbEntity
  8
RACCORDO
100
AcDbSpline
 62
253
  6
CONTINUOUS
 70
0
 71
3
 72
17
 73
13
 74
11
 42
0.0000001
 43
0.0000001
 44
0.0000000001
 12
-0.1855069271
 22
0.4641448815
 32
0.0
 13
-0.000001509
 23
0.4998432665
 33
0.0
 40
0.0
 40
0.0
 40
0.0
 40
0.0
 40
0.0172364015
 40
0.0575300106
 40
0.1199959897
 40
0.2031689922
 40
0.3050968727
 40
0.4233802836
 40
0.5552334501
 40
0.6975577792
 40
0.8469846509
 40
1.0
 40
1.0
 40
1.0
 40
1.0
 10
7.1963172895
 20
4.9474105162
 30
0.0
 10
7.1952514656
 20
4.9500772454
 30
0.0
 10
7.1953928755
 20
4.9599596005
 30
0.0
 10
7.1937397994
 20
4.9796672171
 30
0.0
 10
7.1932155956
 20
5.0107706274
 30
0.0
 10
7.1921951528
 20
5.0519536443
 30
0.0
 10
7.1914782776
 20
5.1025166634
 30
0.0
 10
7.1907939417
 20
5.1611651171
 30
0.0
 10
7.1902642225
 20
5.2265548433
 30
0.0
 10
7.1898694181
 20
5.2971317578
 30
0.0
 10
7.1896302534
 20
5.3712361454
 30
0.0
 10
7.1895767299
 20
5.4216273538
 30
0.0
 10
7.1895766529
 20
5.4471219177
 30
0.0
 11
7.1963172895
 21
4.9474105162
 31
0.0
 11
7.195252365
 21
4.9559599468
 31
0.0
 11
7.1942183622
 21
4.9760738758
 31
0.0
 11
7.1932390767
 21
5.0072817139
 31
0.0
 11
7.1923381957
 21
5.0488454172
 31
0.0
 11
7.1915366994
 21
5.0997870771
 31
0.0
 11
7.1908535451
 21
5.1589062966
 31
0.0
 11
7.1903048433
 21
5.2248099298
 31
0.0
 11
7.1899034126
 21
5.2959486548
 31
0.0
 11
7.1896588168
 21
5.3706382699
 31
0.0
 11
7.1895766529
 21
5.4471219177
 31
0.0
  0
SPLINE
  5
5BA
100
AcDbEntity
  8
RACCORDO
100
AcDbSpline
 62
253
  6
CONTINUOUS
 70
0
 71
3
 72
17
 73
13
 74
11
 42
0.0000001
 43
0.0000001
 44
0.0000000001
 12
-0.000001509
 22
-0.4998432663
 32
0.0
 13
-0.185506915
 23
-0.4641448862
 33
0.0
 40
0.0
 40
0.0
 40
0.0
 40
0.0
 40
0.1530153495
 40
0.3024422212
 40
0.4447665503
 40
0.5766197167
 40
0.6949031276
 40
0.7968310081
 40
0.8800040106
 40
0.9424699896
 40
0.9827635986
 40
1.0
 40
1.0
 40
1.0
 40
1.0
 10
-7.2131797205
 20
5.4471219176
 30
0.0
 10
-7.2131797974
 20
5.4216273536
 30
0.0
 10
-7.2132333209
 20
5.3712361452
 30
0.0
 10
-7.2134724857
 20
5.2971317575
 30
0.0
 10
-7.21386729
 20
5.226554843
 30
0.0
 10
-7.2143970092
 20
5.1611651169
 30
0.0
 10
-7.2150813452
 20
5.1025166632
 30
0.0
 10
-7.2157982204
 20
5.0519536442
 30
0.0
 10
-7.2168186631
 20
5.0107706273
 30
0.0
 10
-7.217342867
 20
4.979667217
 30
0.0
 10
-7.2189959429
 20
4.9599596004
 30
0.0
 10
-7.2188545332
 20
4.9500772454
 30
0.0
 10
-7.2199203571
 20
4.9474105162
 30
0.0
 11
-7.2131797205
 21
5.4471219176
 31
0.0
 11
-7.2132618844
 21
5.3706382697
 31
0.0
 11
-7.2135064802
 21
5.2959486545
 31
0.0
 11
-7.2139079108
 21
5.2248099296
 31
0.0
 11
-7.2144566126
 21
5.1589062964
 31
0.0
 11
-7.215139767
 21
5.0997870769
 31
0.0
 11
-7.2159412632
 21
5.048845417
 31
0.0
 11
-7.2168421442
 21
5.0072817138
 31
0.0
 11
-7.2178214298
 21
4.9760738757
 31
0.0
 11
-7.2188554326
 21
4.9559599467
 31
0.0
 11
-7.2199203571
 21
4.9474105162
 31
0.0
  0
SPLINE
  5
5BB
100
AcDbEntity
  8
RACCORDO
100
AcDbSpline
 62
253
  6
CONTINUOUS
 70
0
 71
3
 72
17
 73
13
 74
11
 42
0.0000001
 43
0.0000001
 44
0.0000000001
 12
-0.1855069271
 22
0.4641448815
 32
0.0
 13
-0.000001509
 23
0.4998432665
 33
0.0
 40
0.0
 40
0.0
 40
0.0
 40
0.0
 40
0.0172364015
 40
0.0575300106
 40
0.1199959897
 40
0.2031689922
 40
0.3050968727
 40
0.4233802836
 40
0.5552334501
 40
0.6975577792
 40
0.8469846509
 40
1.0
 40
1.0
 40
1.0
 40
1.0
 10
-7.1036827105
 20
4.9474105162
 30
0.0
 10
-7.1047485344
 20
4.9500772454
 30
0.0
 10
-7.1046071245
 20
4.9599596005
 30
0.0
 10
-7.1062602006
 20
4.9796672171
 30
0.0
 10
-7.1067844044
 20
5.0107706274
 30
0.0
 10
-7.1078048472
 20
5.0519536443
 30
0.0
 10
-7.1085217224
 20
5.1025166634
 30
0.0
 10
-7.1092060583
 20
5.1611651171
 30
0.0
 10
-7.1097357775
 20
5.2265548433
 30
0.0
 10
-7.1101305819
 20
5.2971317578
 30
0.0
 10
-7.1103697466
 20
5.3712361454
 30
0.0
 10
-7.1104232701
 20
5.4216273538
 30
0.0
 10
-7.1104233471
 20
5.4471219177
 30
0.0
 11
-7.1036827105
 21
4.9474105162
 31
0.0
 11
-7.104747635
 21
4.9559599468
 31
0.0
 11
-7.1057816378
 21
4.9760738758
 31
0.0
 11
-7.1067609233
 21
5.0072817139
 31
0.0
 11
-7.1076618043
 21
5.0488454172
 31
0.0
 11
-7.1084633006
 21
5.0997870771
 31
0.0
 11
-7.1091464549
 21
5.1589062966
 31
0.0
 11
-7.1096951567
 21
5.2248099298
 31
0.0
 11
-7.1100965874
 21
5.2959486548
 31
0.0
 11
-7.1103411832
 21
5.3706382699
 31
0.0
 11
-7.1104233471
 21
5.4471219177
 31
0.0
  0
SPLINE
  5
5BC
100
AcDbEntity
  8
RACCORDO
100
AcDbSpline
 62
253
  6
CONTINUOUS
 70
0
 71
3
 72
13
 73
9
 74
7
 42
0.0000001
 43
0.0000001
 44
0.0000000001
 12
0.0049371296
 22
-0.3535273384
 32
0.0
 13
0.000000663
 23
-0.3535618111
 33
0.0
 40
0.0
 40
0.0
 40
0.0
 40
0.0
 40
0.1390722399
 40
0.2928914527
 40
0.4588232532
 40
0.6340132458
 40
0.8154446221
 40
1.0
 40
1.0
 40
1.0
 40
1.0
 10
-7.2152253483
 20
7.1517935147
 30
0.0
 10
-7.2149964758
 20
7.1354049018
 30
0.0
 10
-7.2145799025
 20
7.1008889321
 30
0.0
 10
-7.2140814571
 20
7.0468170491
 30
0.0
 10
-7.2136837256
 20
6.9884876081
 30
0.0
 10
-7.2133944797
 20
6.9269032973
 30
0.0
 10
-7.2132188631
 20
6.8631236925
 30
0.0
 10
-7.2131797778
 20
6.819990702
 30
0.0
 10
-7.213179737
 20
6.7982401241
 30
0.0
 11
-7.2152253483
 21
7.1517935147
 31
0.0
 11
-7.2146230594
 21
7.1026265706
 31
0.0
 11
-7.214115539
 21
7.0482443393
 31
0.0
 11
-7.2137113495
 21
6.9895785837
 31
0.0
 11
-7.213417644
 21
6.927638789
 31
0.0
 11
-7.2132394584
 21
6.8634918305
 31
0.0
 11
-7.213179737
 21
6.7982401241
 31
0.0
  0
SPLINE
  5
5BD
100
AcDbEntity
  8
RACCORDO
100
AcDbSpline
 62
253
  6
CONTINUOUS
 70
0
 71
3
 72
13
 73
9
 74
7
 42
0.0000001
 43
0.0000001
 44
0.0000000001
 12
0.000000663
 22
0.3535618111
 32
0.0
 13
0.0049371293
 23
0.3535273384
 33
0.0
 40
0.0
 40
0.0
 40
0.0
 40
0.0
 40
0.184555379
 40
0.3659867553
 40
0.5411767479
 40
0.7071085483
 40
0.8609277611
 40
1.0
 40
1.0
 40
1.0
 40
1.0
 10
-7.1104233305
 20
6.7982401241
 30
0.0
 10
-7.1104232898
 20
6.8199907022
 30
0.0
 10
-7.1103842045
 20
6.8631236928
 30
0.0
 10
-7.1102085878
 20
6.9269032977
 30
0.0
 10
-7.109919342
 20
6.9884876085
 30
0.0
 10
-7.1095216105
 20
7.0468170494
 30
0.0
 10
-7.1090231651
 20
7.1008889323
 30
0.0
 10
-7.1086065918
 20
7.1354049019
 30
0.0
 10
-7.1083777192
 20
7.1517935147
 30
0.0
 11
-7.1104233305
 21
6.7982401241
 31
0.0
 11
-7.1103636091
 21
6.8634918309
 31
0.0
 11
-7.1101854235
 21
6.9276387894
 31
0.0
 11
-7.109891718
 21
6.9895785841
 31
0.0
 11
-7.1094875286
 21
7.0482443396
 31
0.0
 11
-7.1089800081
 21
7.1026265709
 31
0.0
 11
-7.1083777192
 21
7.1517935147
 31
0.0
  0
SPLINE
  5
5BE
100
AcDbEntity
  8
ASSI
100
AcDbSpline
 62
7
  6
CONTINUOUS
 70
0
 71
3
 72
10
 73
6
 74
4
 42
0.0000001
 43
0.0000001
 44
0.0000000001
 12
-0.0095948202
 22
0.4295727449
 32
0.0
 13
-0.4296447263
 23
-0.0065610381
 33
0.0
 40
0.0
 40
0.0
 40
0.0
 40
0.0
 40
0.4724875075
 40
0.7072006687
 40
1.0
 40
1.0
 40
1.0
 40
1.0
 10
-1.3731297023
 20
-2.3340309502
 30
0.0
 10
-1.3746408465
 20
-2.2663750317
 30
0.0
 10
-1.3967825815
 20
-2.1557423573
 30
0.0
 10
-1.5173452802
 20
-2.0668182429
 30
0.0
 10
-1.5952804753
 20
-2.0577591252
 30
0.0
 10
-1.6372137048
 20
-2.058399481
 30
0.0
 11
-1.3731297023
 21
-2.3340309502
 31
0.0
 11
-1.4324020789
 21
-2.1398577101
 31
0.0
 11
-1.5131805894
 21
-2.079476735
 31
0.0
 11
-1.6372137048
 21
-2.058399481
 31
0.0
  0
SPLINE
  5
5BF
100
AcDbEntity
  8
ASSI
100
AcDbSpline
 62
7
  6
CONTINUOUS
 70
0
 71
3
 72
9
 73
5
 74
3
 42
0.0000001
 43
0.0000001
 44
0.0000000001
 12
-0.3133068914
 22
-0.0047845217
 32
0.0
 13
-0.0361262538
 23
-0.3112658327
 33
0.0
 40
0.0
 40
0.0
 40
0.0
 40
0.0
 40
0.4987528619
 40
1.0
 40
1.0
 40
1.0
 40
1.0
 10
-1.637213705
 20
-2.0583994733
 30
0.0
 10
-1.6893012745
 20
-2.0591949046
 30
0.0
 10
-1.7979391347
 20
-2.1016237395
 30
0.0
 10
-1.8437466359
 20
-2.206837837
 30
0.0
 10
-1.8497826964
 20
-2.2588448729
 30
0.0
 11
-1.637213705
 21
-2.0583994733
 31
0.0
 11
-1.7820388325
 21
-2.1171360216
 31
0.0
 11
-1.8497826964
 21
-2.2588448729
 31
0.0
  0
SPLINE
  5
5C0
100
AcDbEntity
  8
ASSI
100
AcDbSpline
 62
7
  6
CONTINUOUS
 70
0
 71
3
 72
9
 73
5
 74
3
 42
0.0000001
 43
0.0000001
 44
0.0000000001
 12
-0.0321345864
 22
-0.2768734101
 32
0.0
 13
0.0468836161
 23
-0.274760569
 33
0.0
 40
0.0
 40
0.0
 40
0.0
 40
0.0
 40
0.7295958324
 40
1.0
 40
1.0
 40
1.0
 40
1.0
 10
-1.8497826963
 20
-2.2588448729
 30
0.0
 10
-1.857597783
 20
-2.3261801016
 30
0.0
 10
-1.857899031
 20
-2.4201727903
 30
0.0
 10
-1.8440010265
 20
-2.5120461954
 30
0.0
 10
-1.8397751848
 20
-2.5368116631
 30
0.0
 11
-1.8497826963
 21
-2.2588448729
 31
0.0
 11
-1.8504789563
 21
-2.4622053335
 31
0.0
 11
-1.8397751848
 21
-2.5368116631
 31
0.0
  0
SPLINE
  5
5C1
100
AcDbEntity
  8
ASSI
100
AcDbSpline
 62
7
  6
CONTINUOUS
 70
0
 71
3
 72
10
 73
6
 74
4
 42
0.0000001
 43
0.0000001
 44
0.0000000001
 12
-0.1284599377
 22
0.8731819798
 32
0.0
 13
0.2998855628
 23
0.8300707046
 33
0.0
 40
0.0
 40
0.0
 40
0.0
 40
0.0
 40
0.4151262789
 40
0.7045762354
 40
1.0
 40
1.0
 40
1.0
 40
1.0
 10
-2.109503616
 20
-2.8784464308
 30
0.0
 10
-2.1272793146
 20
-2.7576195021
 30
0.0
 10
-2.1497913086
 20
-2.5509981015
 30
0.0
 10
-2.1498465447
 20
-2.2566955165
 30
0.0
 10
-2.1211378084
 20
-2.0845259319
 30
0.0
 10
-2.0916067011
 20
-2.0027850611
 30
0.0
 11
-2.109503616
 21
-2.8784464308
 31
0.0
 11
-2.1460055066
 21
-2.5138868178
 31
0.0
 11
-2.1428069828
 21
-2.2584438914
 31
0.0
 11
-2.0916067011
 21
-2.0027850611
 31
0.0
  0
SPLINE
  5
5C2
100
AcDbEntity
  8
ASSI
100
AcDbSpline
 62
7
  6
CONTINUOUS
 70
0
 71
3
 72
23
 73
19
 74
17
 42
0.0000001
 43
0.0000001
 44
0.0000000001
 12
0.359969576
 22
0.9978268927
 32
0.0
 13
0.1357483736
 23
-1.0520498955
 33
0.0
 40
0.0
 40
0.0
 40
0.0
 40
0.0
 40
0.079828561
 40
0.1893471136
 40
0.252931641
 40
0.322277794
 40
0.3983621185
 40
0.4395068157
 40
0.4830801905
 40
0.5370931167
 40
0.5873706499
 40
0.6784900216
 40
0.7593486609
 40
0.8310612156
 40
0.8931649411
 40
0.9439081722
 40
0.9806071038
 40
1.0
 40
1.0
 40
1.0
 40
1.0
 10
-2.0916067011
 20
-2.0027850611
 30
0.0
 10
-2.0820280834
 20
-1.9762333662
 30
0.0
 10
-2.0493547132
 20
-1.9169483856
 30
0.0
 10
-1.9896306179
 20
-1.8491487466
 30
0.0
 10
-1.9208667518
 20
-1.7974435338
 30
0.0
 10
-1.8552771599
 20
-1.7626724489
 30
0.0
 10
-1.7922746942
 20
-1.7419536096
 30
0.0
 10
-1.73639938
 20
-1.7311199503
 30
0.0
 10
-1.6875605079
 20
-1.7259646773
 30
0.0
 10
-1.6351983467
 20
-1.7250159915
 30
0.0
 10
-1.5662296629
 20
-1.7304074335
 30
0.0
 10
-1.4890336735
 20
-1.747840227
 30
0.0
 10
-1.4097270702
 20
-1.7826986771
 30
0.0
 10
-1.3462292629
 20
-1.8249754551
 30
0.0
 10
-1.2979924897
 20
-1.8691011325
 30
0.0
 10
-1.2634959517
 20
-1.9096812256
 30
0.0
 10
-1.2437046031
 20
-1.9414401035
 30
0.0
 10
-1.2339039506
 20
-1.9594001471
 30
0.0
 10
-1.2330264326
 20
-1.9662009119
 30
0.0
 11
-2.0916067011
 21
-2.0027850611
 31
0.0
 11
-2.0523384927
 21
-1.9277604677
 31
0.0
 11
-1.9754934554
 21
-1.8406325119
 31
0.0
 11
-1.9215829233
 21
-1.800098856
 31
0.0
 11
-1.8566021407
 21
-1.7656222589
 31
0.0
 11
-1.7799924266
 21
-1.7402303538
 31
0.0
 11
-1.7371521324
 21
-1.731887296
 31
0.0
 11
-1.6911951
 21
-1.7269507737
 31
0.0
 11
-1.6339085744
 21
-1.7259433116
 31
0.0
 11
-1.5807448985
 21
-1.7301895803
 31
0.0
 11
-1.4865266227
 21
-1.75176418
 31
0.0
 11
-1.4080213267
 21
-1.7863163136
 31
0.0
 11
-1.3447100644
 21
-1.8284877216
 31
0.0
 11
-1.2960720877
 21
-1.87292016
 31
0.0
 11
-1.261593857
 21
-1.9142553238
 31
0.0
 11
-1.2407513803
 21
-1.9471349963
 31
0.0
 11
-1.2330264326
 21
-1.9662009119
 31
0.0
  0
SPLINE
  5
5C3
100
AcDbEntity
  8
ASSI
100
AcDbSpline
 62
7
  6
CONTINUOUS
 70
0
 71
3
 72
8
 73
4
 74
2
 42
0.0000001
 43
0.0000001
 44
0.0000000001
 12
0.0253486975
 22
0.0635704013
 32
0.0
 13
0.0439790954
 23
0.0534848382
 33
0.0
 40
0.0
 40
0.0
 40
0.0
 40
0.0
 40
1.0
 40
1.0
 40
1.0
 40
1.0
 10
-1.2229817254
 20
-1.9662009119
 30
0.0
 10
-1.2145321595
 20
-1.9450107782
 30
0.0
 10
-1.2023659565
 20
-1.9251618002
 30
0.0
 10
-1.1877062581
 20
-1.9073335208
 30
0.0
 11
-1.2229817254
 21
-1.9662009119
 31
0.0
 11
-1.1877062581
 21
-1.9073335208
 31
0.0
  0
SPLINE
  5
5C4
100
AcDbEntity
  8
ASSI
100
AcDbSpline
 62
7
  6
CONTINUOUS
 70
0
 71
3
 72
10
 73
6
 74
4
 42
0.0000001
 43
0.0000001
 44
0.0000000001
 12
0.2161007798
 22
0.2628092995
 32
0.0
 13
0.3244560378
 23
0.0883936536
 33
0.0
 40
0.0
 40
0.0
 40
0.0
 40
0.0
 40
0.0997774862
 40
0.4054370801
 40
1.0
 40
1.0
 40
1.0
 40
1.0
 10
-1.1877062581
 20
-1.9073335208
 30
0.0
 10
-1.1805189272
 20
-1.8985927037
 30
0.0
 10
-1.1488783568
 20
-1.8650488428
 30
0.0
 10
-1.0522989298
 20
-1.805356031
 30
0.0
 10
-0.9537921412
 20
-1.7791671464
 30
0.0
 10
-0.8894889648
 20
-1.7616486168
 30
0.0
 11
-1.1877062581
 21
-1.9073335208
 31
0.0
 11
-1.1644903072
 21
-1.8826483158
 31
0.0
 11
-1.0788679024
 21
-1.8257773716
 31
0.0
 11
-0.8894889648
 21
-1.7616486168
 31
0.0
  0
SPLINE
  5
5C5
100
AcDbEntity
  8
ASSI
100
AcDbSpline
 62
7
  6
CONTINUOUS
 70
0
 71
3
 72
9
 73
5
 74
3
 42
0.0000001
 43
0.0000001
 44
0.0000000001
 12
0.4589786715
 22
0.125042516
 32
0.0
 13
0.4590762626
 23
0.1246838126
 33
0.0
 40
0.0
 40
0.0
 40
0.0
 40
0.0
 40
0.8019458722
 40
1.0
 40
1.0
 40
1.0
 40
1.0
 10
-0.889488965
 20
-1.7616486162
 30
0.0
 10
-0.766796948
 20
-1.7282228396
 30
0.0
 10
-0.613177545
 20
-1.6888847125
 30
0.0
 10
-0.4598081633
 20
-1.6486039175
 30
0.0
 10
-0.4295008471
 20
-1.6403725362
 30
0.0
 11
-0.889488965
 21
-1.7616486162
 31
0.0
 11
-0.5205688488
 21
-1.6645224964
 31
0.0
 11
-0.4295008471
 21
-1.6403725362
 31
0.0
  0
SPLINE
  5
5C6
100
AcDbEntity
  8
ASSI
100
AcDbSpline
 62
7
  6
CONTINUOUS
 70
0
 71
3
 72
11
 73
7
 74
5
 42
0.0000001
 43
0.0000001
 44
0.0000000001
 12
-0.5175092969
 22
-0.1487860009
 32
0.0
 13
-0.5040440549
 23
-0.1894590043
 33
0.0
 40
0.0
 40
0.0
 40
0.0
 40
0.0
 40
0.1342305347
 40
0.4412509806
 40
0.7775650777
 40
1.0
 40
1.0
 40
1.0
 40
1.0
 10
-0.4295008471
 20
-1.9816758796
 30
0.0
 10
-0.4526560303
 20
-1.9883330877
 30
0.0
 10
-0.5287260917
 20
-2.0103742179
 30
0.0
 10
-0.6627696565
 20
-2.0493071984
 30
0.0
 10
-0.8114267939
 20
-2.094374832
 30
0.0
 10
-0.9077131921
 20
-2.1228351023
 30
0.0
 10
-0.9450855255
 20
-2.1368825352
 30
0.0
 11
-0.4295008471
 21
-1.9816758796
 31
0.0
 11
-0.4989374348
 21
-2.0017479658
 31
0.0
 11
-0.6576195887
 21
-2.0481312416
 31
0.0
 11
-0.8311058946
 21
-2.1000762322
 31
0.0
 11
-0.9450855255
 21
-2.1368825352
 31
0.0
  0
SPLINE
  5
5C7
100
AcDbEntity
  8
ASSI
100
AcDbSpline
 62
7
  6
CONTINUOUS
 70
0
 71
3
 72
9
 73
5
 74
3
 42
0.0000001
 43
0.0000001
 44
0.0000000001
 12
-0.2438689275
 22
-0.0916651113
 32
0.0
 13
0.0
 23
-0.2604910834
 33
0.0
 40
0.0
 40
0.0
 40
0.0
 40
0.0
 40
0.6438952445
 40
1.0
 40
1.0
 40
1.0
 40
1.0
 10
-0.945085534
 20
-2.1368825125
 30
0.0
 10
-0.9974275483
 20
-2.1565567556
 30
0.0
 10
-1.0760198032
 20
-2.2149721038
 30
0.0
 10
-1.0947332497
 20
-2.3038750711
 30
0.0
 10
-1.0947332497
 20
-2.3347957756
 30
0.0
 11
-0.945085534
 21
-2.1368825125
 31
0.0
 11
-1.0738120877
 21
-2.2444236854
 31
0.0
 11
-1.0947332497
 21
-2.3347957756
 31
0.0
  0
SPLINE
  5
5C8
100
AcDbEntity
  8
ASSI
100
AcDbSpline
 62
253
  6
CONTINUOUS
 70
0
 71
3
 72
15
 73
11
 74
9
 42
0.0000001
 43
0.0000001
 44
0.0000000001
 12
-0.2881576716
 22
0.0038542319
 32
0.0
 13
-0.0214951041
 23
0.2873806871
 33
0.0
 40
0.0
 40
0.0
 40
0.0
 40
0.0
 40
0.1661006305
 40
0.3273703266
 40
0.47908113
 40
0.6171090564
 40
0.7383291943
 40
0.8411944316
 40
0.9267165463
 40
1.0
 40
1.0
 40
1.0
 40
1.0
 10
5.5477375422
 20
-6.9549301744
 30
0.0
 10
5.5317831519
 20
-6.9547167776
 30
0.0
 10
5.5003397195
 20
-6.9530319882
 30
0.0
 10
5.454690937
 20
-6.9467822109
 30
0.0
 10
5.4124032206
 20
-6.9370553066
 30
0.0
 10
5.3749841059
 20
-6.9242069912
 30
0.0
 10
5.3437087959
 20
-6.9086922881
 30
0.0
 10
5.3195914867
 20
-6.8909458888
 30
0.0
 10
5.3033393582
 20
-6.8713008621
 30
0.0
 10
5.2984149139
 20
-6.8562956921
 30
0.0
 10
5.2978898354
 20
-6.849275609
 30
0.0
 11
5.5477375422
 21
-6.9549301744
 31
0.0
 11
5.4999401424
 21
-6.9523414387
 31
0.0
 11
5.4539065557
 21
-6.9459493819
 31
0.0
 11
5.411335507
 21
-6.9359898829
 31
0.0
 11
5.3737979472
 21
-6.9228304659
 31
0.0
 11
5.3426790822
 21
-6.9069567378
 31
0.0
 11
5.319127256
 21
-6.8889544687
 31
0.0
 11
5.3040115748
 21
-6.8694879758
 31
0.0
 11
5.2978898354
 21
-6.849275609
 31
0.0
  0
SPLINE
  5
5C9
100
AcDbEntity
  8
ASSI
100
AcDbSpline
 62
7
  6
CONTINUOUS
 70
0
 71
3
 72
17
 73
13
 74
11
 42
0.0000001
 43
0.0000001
 44
0.0000000001
 12
-0.3573152673
 22
-0.0104647825
 32
0.0
 13
-0.0148532747
 23
-0.3571597571
 33
0.0
 40
0.0
 40
0.0
 40
0.0
 40
0.0
 40
0.1289111824
 40
0.2505325819
 40
0.3645536477
 40
0.4713211985
 40
0.5715020992
 40
0.6658608772
 40
0.7551733224
 40
0.840186145
 40
0.9215951935
 40
1.0
 40
1.0
 40
1.0
 40
1.0
 10
5.4885358243
 20
-5.9947587057
 30
0.0
 10
5.4731818464
 20
-5.9952083815
 30
0.0
 10
5.4433577155
 20
-5.9983907024
 30
0.0
 10
5.4011957542
 20
-6.0094471891
 30
0.0
 10
5.3635128236
 20
-6.0254585599
 30
0.0
 10
5.3307009409
 20
-6.0453606225
 30
0.0
 10
5.3028907578
 20
-6.0682646601
 30
0.0
 10
5.2801030539
 20
-6.0934241588
 30
0.0
 10
5.2623070516
 20
-6.1201834084
 30
0.0
 10
5.2494376777
 20
-6.14794001
 30
0.0
 10
5.2413872026
 20
-6.1760984389
 30
0.0
 10
5.2390763069
 20
-6.1950936553
 30
0.0
 10
5.2386881175
 20
-6.2044280025
 30
0.0
 11
5.4885358243
 21
-5.9947587057
 31
0.0
 11
5.4427147323
 21
-5.9996524906
 31
0.0
 11
5.4006683709
 21
-6.0107091677
 31
0.0
 11
5.3631753024
 21
-6.0266954348
 31
0.0
 11
5.3305745214
 21
-6.0465407167
 31
0.0
 11
5.3029734
 21
-6.0693583115
 31
0.0
 11
5.2803788345
 21
-6.0944026318
 31
0.0
 11
5.2627503076
 21
-6.1210208402
 31
0.0
 11
5.2500137267
 21
-6.1486124221
 31
0.0
 11
5.2420523885
 21
-6.1766034047
 31
0.0
 11
5.2386881175
 21
-6.2044280025
 31
0.0
  0
SPLINE
  5
5CA
100
AcDbEntity
  8
ASSI
100
AcDbSpline
 62
253
  6
CONTINUOUS
 70
0
 71
3
 72
15
 73
11
 74
9
 42
0.0000001
 43
0.0000001
 44
0.0000000001
 12
0.3882348029
 22
-0.0023184616
 32
0.0
 13
0.0023876314
 23
-0.3882343837
 33
0.0
 40
0.0
 40
0.0
 40
0.0
 40
0.0
 40
0.1257290456
 40
0.2514557317
 40
0.3770343051
 40
0.502340937
 40
0.627292244
 40
0.751858067
 40
0.8760664778
 40
1.0
 40
1.0
 40
1.0
 40
1.0
 10
-5.5700613579
 20
-6.2506965253
 30
0.0
 10
-5.5537905608
 20
-6.2507936913
 30
0.0
 10
-5.5211816887
 20
-6.2541391714
 30
0.0
 10
-5.4742180958
 20
-6.2684016923
 30
0.0
 10
-5.4308829047
 20
-6.2913698464
 30
0.0
 10
-5.3928491522
 20
-6.322173727
 30
0.0
 10
-5.361561376
 20
-6.3596433621
 30
0.0
 10
-5.338218348
 20
-6.4023617531
 30
0.0
 10
-5.3237162316
 20
-6.4486773379
 30
0.0
 10
-5.320312287
 20
-6.4808600454
 30
0.0
 10
-5.3202136511
 20
-6.4968984636
 30
0.0
 11
-5.5700613579
 21
-6.2506965253
 31
0.0
 11
-5.5215032419
 21
-6.2556808897
 31
0.0
 11
-5.4747968619
 21
-6.2698639481
 31
0.0
 11
-5.4317233389
 21
-6.2927048377
 31
0.0
 11
-5.393925257
 21
-6.3233325342
 31
0.0
 11
-5.3628440243
 21
-6.3605790679
 31
0.0
 11
-5.3396649059
 21
-6.4030240637
 31
0.0
 11
-5.3252718242
 21
-6.4490489059
 31
0.0
 11
-5.3202136511
 21
-6.4968984636
 31
0.0
  0
SPLINE
  5
5CB
100
AcDbEntity
  8
ASSI
100
AcDbSpline
 62
7
  6
CONTINUOUS
 70
0
 71
3
 72
17
 73
13
 74
11
 42
0.0000001
 43
0.0000001
 44
0.0000000001
 12
-0.0148532747
 22
0.3571597571
 32
0.0
 13
-0.3573152673
 23
0.0104647825
 33
0.0
 40
0.0
 40
0.0
 40
0.0
 40
0.0
 40
0.0784048065
 40
0.159813855
 40
0.2448266776
 40
0.3341391228
 40
0.4284979008
 40
0.5286788015
 40
0.6354463523
 40
0.7494674181
 40
0.8710888176
 40
1.0
 40
1.0
 40
1.0
 40
1.0
 10
-5.262291185
 20
-6.2044280025
 30
0.0
 10
-5.2626793744
 20
-6.1950936553
 30
0.0
 10
-5.2649902701
 20
-6.1760984389
 30
0.0
 10
-5.2730407452
 20
-6.14794001
 30
0.0
 10
-5.2859101192
 20
-6.1201834084
 30
0.0
 10
-5.3037061214
 20
-6.0934241588
 30
0.0
 10
-5.3264938253
 20
-6.0682646601
 30
0.0
 10
-5.3543040084
 20
-6.0453606225
 30
0.0
 10
-5.3871158911
 20
-6.0254585599
 30
0.0
 10
-5.4247988217
 20
-6.0094471891
 30
0.0
 10
-5.466960783
 20
-5.9983907024
 30
0.0
 10
-5.4967849139
 20
-5.9952083815
 30
0.0
 10
-5.5121388918
 20
-5.9947587057
 30
0.0
 11
-5.262291185
 21
-6.2044280025
 31
0.0
 11
-5.265655456
 21
-6.1766034047
 31
0.0
 11
-5.2736167942
 21
-6.1486124221
 31
0.0
 11
-5.2863533752
 21
-6.1210208402
 31
0.0
 11
-5.3039819021
 21
-6.0944026318
 31
0.0
 11
-5.3265764676
 21
-6.0693583115
 31
0.0
 11
-5.354177589
 21
-6.0465407167
 31
0.0
 11
-5.3867783699
 21
-6.0266954348
 31
0.0
 11
-5.4242714385
 21
-6.0107091677
 31
0.0
 11
-5.4663177998
 21
-5.9996524906
 31
0.0
 11
-5.5121388918
 21
-5.9947587057
 31
0.0
  0
SPLINE
  5
5CC
100
AcDbEntity
  8
ASSI
100
AcDbSpline
 62
253
  6
CONTINUOUS
 70
0
 71
3
 72
15
 73
11
 74
9
 42
0.0000001
 43
0.0000001
 44
0.0000000001
 12
0.2881576673
 22
0.0038542516
 32
0.0
 13
0.0214951096
 23
0.2873806826
 33
0.0
 40
0.0
 40
0.0
 40
0.0
 40
0.0
 40
0.1661012139
 40
0.3273713521
 40
0.4790823685
 40
0.6171102583
 40
0.7383301595
 40
0.8411950579
 40
0.9267168348
 40
1.0
 40
1.0
 40
1.0
 40
1.0
 10
-5.5713406097
 20
-6.9549301744
 30
0.0
 10
-5.5553861636
 20
-6.9547167758
 30
0.0
 10
-5.5239426332
 20
-6.9530319748
 30
0.0
 10
-5.478293736
 20
-6.9467821597
 30
0.0
 10
-5.436005969
 20
-6.9370552107
 30
0.0
 10
-5.3985868731
 20
-6.9242068589
 30
0.0
 10
-5.3673116363
 20
-6.908692141
 30
0.0
 10
-5.3431944258
 20
-6.8909457565
 30
0.0
 10
-5.3269423901
 20
-6.8713007763
 30
0.0
 10
-5.3220179795
 20
-6.8562956643
 30
0.0
 10
-5.321492903
 20
-6.849275609
 30
0.0
 11
-5.5713406097
 21
-6.9549301744
 31
0.0
 11
-5.5235430433
 21
-6.9523414196
 31
0.0
 11
-5.4775093342
 21
-6.9459493229
 31
0.0
 11
-5.434938234
 21
-6.9359897772
 31
0.0
 11
-5.3974006987
 21
-6.9228303239
 31
0.0
 11
-5.3662819163
 21
-6.906956585
 31
0.0
 11
-5.3427301962
 21
-6.8889543386
 31
0.0
 11
-5.3276146041
 21
-6.8694879002
 31
0.0
 11
-5.321492903
 21
-6.849275609
 31
0.0
  0
SPLINE
  5
5CD
100
AcDbEntity
  8
ASSI
100
AcDbSpline
 62
253
  6
CONTINUOUS
 70
0
 71
3
 72
15
 73
11
 74
9
 42
0.0000001
 43
0.0000001
 44
0.0000000001
 12
-0.3882348025
 22
-0.0023184634
 32
0.0
 13
-0.0023876319
 23
-0.3882343833
 33
0.0
 40
0.0
 40
0.0
 40
0.0
 40
0.0
 40
0.125729459
 40
0.2514564959
 40
0.3770353051
 40
0.5023420228
 40
0.6272932526
 40
0.7518588458
 40
0.8760669051
 40
1.0
 40
1.0
 40
1.0
 40
1.0
 10
-5.6535417097
 20
-6.2506965253
 30
0.0
 10
-5.6698125603
 20
-6.2507936917
 30
0.0
 10
-5.7024215319
 20
-6.2541391925
 30
0.0
 10
-5.7493852379
 20
-6.2684017945
 30
0.0
 10
-5.7927204761
 20
-6.2913700491
 30
0.0
 10
-5.8307542038
 20
-6.3221740115
 30
0.0
 10
-5.8620418999
 20
-6.3596436754
 30
0.0
 10
-5.885384826
 20
-6.402362023
 30
0.0
 10
-5.8998868581
 20
-6.4486774948
 30
0.0
 10
-5.9032907809
 20
-6.4808601007
 30
0.0
 10
-5.9033894164
 20
-6.4968984636
 30
0.0
 11
-5.6535417097
 21
-6.2506965253
 31
0.0
 11
-5.7020999836
 21
-6.2556809218
 31
0.0
 11
-5.748806481
 21
-6.2698640621
 31
0.0
 11
-5.7918800538
 21
-6.2927050532
 31
0.0
 11
-5.8296781119
 21
-6.3233328318
 31
0.0
 11
-5.8607592644
 21
-6.3605793934
 31
0.0
 11
-5.8839382802
 21
-6.4030243435
 31
0.0
 11
-5.8983312771
 21
-6.4490490692
 31
0.0
 11
-5.9033894164
 21
-6.4968984636
 31
0.0
  0
SPLINE
  5
5CE
100
AcDbEntity
  8
ASSI
100
AcDbSpline
 62
253
  6
CONTINUOUS
 70
0
 71
3
 72
15
 73
11
 74
9
 42
0.0000001
 43
0.0000001
 44
0.0000000001
 12
-0.2881576716
 22
0.0038542319
 32
0.0
 13
-0.0214951041
 23
0.2873806871
 33
0.0
 40
0.0
 40
0.0
 40
0.0
 40
0.0
 40
0.1661006305
 40
0.3273703266
 40
0.47908113
 40
0.6171090564
 40
0.7383291943
 40
0.8411944316
 40
0.9267165463
 40
1.0
 40
1.0
 40
1.0
 40
1.0
 10
-5.6522624578
 20
-6.9549301744
 30
0.0
 10
-5.6682168481
 20
-6.9547167776
 30
0.0
 10
-5.6996602805
 20
-6.9530319882
 30
0.0
 10
-5.745309063
 20
-6.9467822109
 30
0.0
 10
-5.7875967794
 20
-6.9370553066
 30
0.0
 10
-5.8250158941
 20
-6.9242069912
 30
0.0
 10
-5.8562912041
 20
-6.9086922881
 30
0.0
 10
-5.8804085133
 20
-6.8909458888
 30
0.0
 10
-5.8966606418
 20
-6.8713008621
 30
0.0
 10
-5.9015850861
 20
-6.8562956921
 30
0.0
 10
-5.9021101646
 20
-6.849275609
 30
0.0
 11
-5.6522624578
 21
-6.9549301744
 31
0.0
 11
-5.7000598576
 21
-6.9523414387
 31
0.0
 11
-5.7460934443
 21
-6.9459493819
 31
0.0
 11
-5.788664493
 21
-6.9359898829
 31
0.0
 11
-5.8262020528
 21
-6.9228304659
 31
0.0
 11
-5.8573209178
 21
-6.9069567378
 31
0.0
 11
-5.880872744
 21
-6.8889544687
 31
0.0
 11
-5.8959884252
 21
-6.8694879758
 31
0.0
 11
-5.9021101646
 21
-6.849275609
 31
0.0
  0
SPLINE
  5
5CF
100
AcDbEntity
  8
ASSI
100
AcDbSpline
 62
7
  6
CONTINUOUS
 70
0
 71
3
 72
17
 73
13
 74
11
 42
0.0000001
 43
0.0000001
 44
0.0000000001
 12
0.0148532747
 22
0.3571597571
 32
0.0
 13
0.3573152673
 23
0.0104647825
 33
0.0
 40
0.0
 40
0.0
 40
0.0
 40
0.0
 40
0.0784048065
 40
0.159813855
 40
0.2448266776
 40
0.3341391228
 40
0.4284979008
 40
0.5286788015
 40
0.6354463523
 40
0.7494674181
 40
0.8710888176
 40
1.0
 40
1.0
 40
1.0
 40
1.0
 10
-5.9613118825
 20
-6.2044280025
 30
0.0
 10
-5.9609236931
 20
-6.1950936553
 30
0.0
 10
-5.9586127974
 20
-6.1760984389
 30
0.0
 10
-5.9505623223
 20
-6.14794001
 30
0.0
 10
-5.9376929484
 20
-6.1201834084
 30
0.0
 10
-5.9198969461
 20
-6.0934241588
 30
0.0
 10
-5.8971092422
 20
-6.0682646601
 30
0.0
 10
-5.8692990591
 20
-6.0453606225
 30
0.0
 10
-5.8364871764
 20
-6.0254585599
 30
0.0
 10
-5.7988042458
 20
-6.0094471891
 30
0.0
 10
-5.7566422845
 20
-5.9983907024
 30
0.0
 10
-5.7268181536
 20
-5.9952083815
 30
0.0
 10
-5.7114641757
 20
-5.9947587057
 30
0.0
 11
-5.9613118825
 21
-6.2044280025
 31
0.0
 11
-5.9579476115
 21
-6.1766034047
 31
0.0
 11
-5.9499862733
 21
-6.1486124221
 31
0.0
 11
-5.9372496924
 21
-6.1210208402
 31
0.0
 11
-5.9196211655
 21
-6.0944026318
 31
0.0
 11
-5.8970266
 21
-6.0693583115
 31
0.0
 11
-5.8694254786
 21
-6.0465407167
 31
0.0
 11
-5.8368246976
 21
-6.0266954348
 31
0.0
 11
-5.7993316291
 21
-6.0107091677
 31
0.0
 11
-5.7572852677
 21
-5.9996524906
 31
0.0
 11
-5.7114641757
 21
-5.9947587057
 31
0.0
  0
SPLINE
  5
5D0
100
AcDbEntity
  8
ASSI
100
AcDbSpline
 62
253
  6
CONTINUOUS
 70
0
 71
3
 72
15
 73
11
 74
9
 42
0.0000001
 43
0.0000001
 44
0.0000000001
 12
0.2881576673
 22
0.0038542516
 32
0.0
 13
0.0214951096
 23
0.2873806826
 33
0.0
 40
0.0
 40
0.0
 40
0.0
 40
0.0
 40
0.1661012139
 40
0.3273713521
 40
0.4790823685
 40
0.6171102583
 40
0.7383301595
 40
0.8411950579
 40
0.9267168348
 40
1.0
 40
1.0
 40
1.0
 40
1.0
 10
5.6286593903
 20
-6.9549301744
 30
0.0
 10
5.6446138364
 20
-6.9547167758
 30
0.0
 10
5.6760573668
 20
-6.9530319748
 30
0.0
 10
5.721706264
 20
-6.9467821597
 30
0.0
 10
5.763994031
 20
-6.9370552107
 30
0.0
 10
5.8014131269
 20
-6.9242068589
 30
0.0
 10
5.8326883637
 20
-6.908692141
 30
0.0
 10
5.8568055742
 20
-6.8909457565
 30
0.0
 10
5.8730576099
 20
-6.8713007763
 30
0.0
 10
5.8779820205
 20
-6.8562956643
 30
0.0
 10
5.878507097
 20
-6.849275609
 30
0.0
 11
5.6286593903
 21
-6.9549301744
 31
0.0
 11
5.6764569567
 21
-6.9523414196
 31
0.0
 11
5.7224906658
 21
-6.9459493229
 31
0.0
 11
5.765061766
 21
-6.9359897772
 31
0.0
 11
5.8025993013
 21
-6.9228303239
 31
0.0
 11
5.8337180837
 21
-6.906956585
 31
0.0
 11
5.8572698038
 21
-6.8889543386
 31
0.0
 11
5.8723853959
 21
-6.8694879002
 31
0.0
 11
5.878507097
 21
-6.849275609
 31
0.0
  0
SPLINE
  5
5D1
100
AcDbEntity
  8
ASSI
100
AcDbSpline
 62
253
  6
CONTINUOUS
 70
0
 71
3
 72
9
 73
5
 74
3
 42
0.0000001
 43
0.0000001
 44
0.0000000001
 12
-0.0032451975
 22
8.9925033427
 32
0.0
 13
-0.0004118646
 23
8.9925039188
 33
0.0
 40
0.0
 40
0.0
 40
0.0
 40
0.0
 40
0.4999585687
 40
1.0
 40
1.0
 40
1.0
 40
1.0
 10
9.8201756039
 20
0.8053469053
 30
0.0
 10
9.8196347825
 20
2.3039732722
 30
0.0
 10
9.8187892301
 20
5.3014744763
 30
0.0
 10
9.8184158718
 20
8.2989757764
 30
0.0
 10
9.818347222
 20
9.7978506198
 30
0.0
 11
9.8201756039
 21
0.8053469053
 31
0.0
 11
9.8189073291
 21
5.3012261198
 31
0.0
 11
9.818347222
 21
9.7978506198
 31
0.0
  0
SPLINE
  5
5D2
100
AcDbEntity
  8
ASSI
100
AcDbSpline
 62
253
  6
CONTINUOUS
 70
0
 71
3
 72
15
 73
11
 74
9
 42
0.0000001
 43
0.0000001
 44
0.0000000001
 12
0.00000131
 22
0.2954494977
 32
0.0
 13
0.00976487
 23
0.2952880848
 33
0.0
 40
0.0
 40
0.0
 40
0.0
 40
0.0
 40
0.1762543538
 40
0.3472428692
 40
0.5076801248
 40
0.6526883366
 40
0.7778610396
 40
0.8793945376
 40
0.9542028934
 40
1.0
 40
1.0
 40
1.0
 40
1.0
 10
5.6284958001
 20
-6.5461388512
 30
0.0
 10
5.628495877
 20
-6.5287807645
 30
0.0
 10
5.6285129194
 20
-6.4945831854
 30
0.0
 10
5.6285894438
 20
-6.444585286
 30
0.0
 10
5.6287147131
 20
-6.3976647235
 30
0.0
 10
5.6288833118
 20
-6.3552563755
 30
0.0
 10
5.6290918371
 20
-6.3186494143
 30
0.0
 10
5.6293244192
 20
-6.2889559722
 30
0.0
 10
5.6295879772
 20
-6.2670809848
 30
0.0
 10
5.6297895745
 20
-6.2552043053
 30
0.0
 10
5.6299386421
 20
-6.2506965253
 30
0.0
 11
5.6284958001
 21
-6.5461388512
 31
0.0
 11
5.6285222722
 21
-6.4940645977
 31
0.0
 11
5.6286009319
 21
-6.4435461879
 31
0.0
 11
5.6287296067
 21
-6.396145256
 31
0.0
 11
5.6289042661
 21
-6.3533030087
 31
0.0
 11
5.6291196393
 21
-6.3163214235
 31
0.0
 11
5.6293693
 21
-6.2863244415
 31
0.0
 11
5.6296449067
 21
-6.2642240688
 31
0.0
 11
5.6299386421
 21
-6.2506965253
 31
0.0
  0
SPLINE
  5
5D3
100
AcDbEntity
  8
ASSI
100
AcDbSpline
 62
253
  6
CONTINUOUS
 70
0
 71
3
 72
15
 73
11
 74
9
 42
0.0000001
 43
0.0000001
 44
0.0000000001
 12
0.0097648701
 22
-0.2952880848
 32
0.0
 13
0.00000131
 23
-0.2954494977
 33
0.0
 40
0.0
 40
0.0
 40
0.0
 40
0.0
 40
0.0457971067
 40
0.1206054626
 40
0.2221389606
 40
0.3473116637
 40
0.4923198754
 40
0.652757131
 40
0.8237456464
 40
1.0
 40
1.0
 40
1.0
 40
1.0
 10
5.5464582903
 20
-6.2506965253
 30
0.0
 10
5.5466073579
 20
-6.2552043053
 30
0.0
 10
5.5468089552
 20
-6.2670809848
 30
0.0
 10
5.5470725133
 20
-6.2889559723
 30
0.0
 10
5.5473050953
 20
-6.3186494143
 30
0.0
 10
5.5475136207
 20
-6.3552563755
 30
0.0
 10
5.5476822194
 20
-6.3976647236
 30
0.0
 10
5.5478074887
 20
-6.4445852861
 30
0.0
 10
5.547884013
 20
-6.4945831855
 30
0.0
 10
5.5479010554
 20
-6.5287807645
 30
0.0
 10
5.5479011324
 20
-6.5461388512
 30
0.0
 11
5.5464582903
 21
-6.2506965253
 31
0.0
 11
5.5467520258
 21
-6.2642240688
 31
0.0
 11
5.5470276324
 21
-6.2863244416
 31
0.0
 11
5.5472772931
 21
-6.3163214236
 31
0.0
 11
5.5474926663
 21
-6.3533030087
 31
0.0
 11
5.5476673257
 21
-6.396145256
 31
0.0
 11
5.5477960006
 21
-6.443546188
 31
0.0
 11
5.5478746602
 21
-6.4940645977
 31
0.0
 11
5.5479011324
 21
-6.5461388512
 31
0.0
  0
SPLINE
  5
5D4
100
AcDbEntity
  8
ASSI
100
AcDbSpline
 62
253
  6
CONTINUOUS
 70
0
 71
3
 72
16
 73
12
 74
10
 42
0.0000001
 43
0.0000001
 44
0.0000000001
 12
0.0000012478
 22
0.2999696776
 32
0.0
 13
0.0949852704
 23
0.2845340153
 33
0.0
 40
0.0
 40
0.0
 40
0.0
 40
0.0
 40
0.1716903986
 40
0.3383600475
 40
0.4949773352
 40
0.6368827949
 40
0.7598615728
 40
0.8602569174
 40
0.9350874649
 40
0.9821296043
 40
1.0
 40
1.0
 40
1.0
 40
1.0
 10
5.6878611082
 20
-4.8189108807
 30
0.0
 10
5.6878611796
 20
-4.8017435761
 30
0.0
 10
5.6878774089
 20
-4.7679108884
 30
0.0
 10
5.6879542658
 20
-4.718418638
 30
0.0
 10
5.6880704453
 20
-4.6719028126
 30
0.0
 10
5.6882563801
 20
-4.6297618358
 30
0.0
 10
5.6883987086
 20
-4.5932243018
 30
0.0
 10
5.6887988914
 20
-4.5634456347
 30
0.0
 10
5.6886473374
 20
-4.5411314723
 30
0.0
 10
5.6896465761
 20
-4.5273306655
 30
0.0
 10
5.6890109418
 20
-4.5206512551
 30
0.0
 10
5.68957675
 20
-4.5189563433
 30
0.0
 11
5.6878611082
 21
-4.8189108807
 31
0.0
 11
5.6878869984
 21
-4.7674089736
 31
0.0
 11
5.6879639442
 21
-4.717413192
 31
0.0
 11
5.6880898448
 21
-4.6704329234
 31
0.0
 11
5.6882608154
 21
-4.6278659318
 31
0.0
 11
5.6884719866
 21
-4.5909766318
 31
0.0
 11
5.6887167855
 21
-4.5608620676
 31
0.0
 11
5.6889882601
 21
-4.5384168141
 31
0.0
 11
5.6892775683
 21
-4.5243085647
 31
0.0
 11
5.68957675
 21
-4.5189563433
 31
0.0
  0
SPLINE
  5
5D5
100
AcDbEntity
  8
ASSI
100
AcDbSpline
 62
253
  6
CONTINUOUS
 70
0
 71
3
 72
16
 73
12
 74
10
 42
0.0000001
 43
0.0000001
 44
0.0000000001
 12
0.0949852718
 22
-0.2845340149
 32
0.0
 13
0.0000012478
 23
-0.2999696776
 33
0.0
 40
0.0
 40
0.0
 40
0.0
 40
0.0
 40
0.0178703958
 40
0.0649125353
 40
0.1397430829
 40
0.2401384275
 40
0.3631172055
 40
0.5050226653
 40
0.661639953
 40
0.8283096018
 40
1.0
 40
1.0
 40
1.0
 40
1.0
 10
5.4868201825
 20
-4.5189563433
 30
0.0
 10
5.4873859906
 20
-4.5206512551
 30
0.0
 10
5.4867503563
 20
-4.5273306656
 30
0.0
 10
5.4877495951
 20
-4.5411314723
 30
0.0
 10
5.487598041
 20
-4.5634456348
 30
0.0
 10
5.4879982239
 20
-4.5932243019
 30
0.0
 10
5.4881405523
 20
-4.6297618359
 30
0.0
 10
5.4883264871
 20
-4.6719028127
 30
0.0
 10
5.4884426667
 20
-4.7184186381
 30
0.0
 10
5.4885195235
 20
-4.7679108885
 30
0.0
 10
5.4885357528
 20
-4.8017435762
 30
0.0
 10
5.4885358243
 20
-4.8189108807
 30
0.0
 11
5.4868201825
 21
-4.5189563433
 31
0.0
 11
5.4871193641
 21
-4.5243085647
 31
0.0
 11
5.4874086724
 21
-4.5384168142
 31
0.0
 11
5.4876801469
 21
-4.5608620677
 31
0.0
 11
5.4879249458
 21
-4.5909766319
 31
0.0
 11
5.4881361171
 21
-4.6278659319
 31
0.0
 11
5.4883070877
 21
-4.6704329235
 31
0.0
 11
5.4884329882
 21
-4.7174131922
 31
0.0
 11
5.4885099341
 21
-4.7674089738
 31
0.0
 11
5.4885358243
 21
-4.8189108807
 31
0.0
  0
SPLINE
  5
5D6
100
AcDbEntity
  8
ASSI
100
AcDbSpline
 62
253
  6
CONTINUOUS
 70
0
 71
3
 72
9
 73
5
 74
3
 42
0.0000001
 43
0.0000001
 44
0.0000000001
 12
-0.0042345483
 22
6.0071907318
 32
0.0
 13
-0.0029682127
 23
6.007191491
 33
0.0
 40
0.0
 40
0.0
 40
0.0
 40
0.0
 40
0.4999497374
 40
1.0
 40
1.0
 40
1.0
 40
1.0
 10
9.8254013087
 20
-9.0018442312
 30
0.0
 10
9.8246956216
 20
-8.0007464216
 30
0.0
 10
9.8233896905
 20
-5.9983494351
 30
0.0
 10
9.8222948096
 20
-3.9959523222
 30
0.0
 10
9.8218000578
 20
-2.9946530947
 30
0.0
 11
9.8254013087
 21
-9.0018442312
 31
0.0
 11
9.8234425737
 21
-5.9985506949
 31
0.0
 11
9.8218000578
 21
-2.9946530947
 31
0.0
  0
SPLINE
  5
5D7
100
AcDbEntity
  8
ASSI
100
AcDbSpline
 62
253
  6
CONTINUOUS
 70
0
 71
3
 72
15
 73
11
 74
9
 42
0.0000001
 43
0.0000001
 44
0.0000000001
 12
-0.3882348025
 22
-0.0023184634
 32
0.0
 13
-0.0023876319
 23
-0.3882343833
 33
0.0
 40
0.0
 40
0.0
 40
0.0
 40
0.0
 40
0.125729459
 40
0.2514564959
 40
0.3770353051
 40
0.5023420228
 40
0.6272932526
 40
0.7518588458
 40
0.8760669051
 40
1.0
 40
1.0
 40
1.0
 40
1.0
 10
5.5464582903
 20
-6.2506965253
 30
0.0
 10
5.5301874397
 20
-6.2507936917
 30
0.0
 10
5.4975784681
 20
-6.2541391925
 30
0.0
 10
5.4506147621
 20
-6.2684017945
 30
0.0
 10
5.4072795239
 20
-6.2913700491
 30
0.0
 10
5.3692457962
 20
-6.3221740115
 30
0.0
 10
5.3379581001
 20
-6.3596436754
 30
0.0
 10
5.314615174
 20
-6.402362023
 30
0.0
 10
5.3001131419
 20
-6.4486774948
 30
0.0
 10
5.2967092191
 20
-6.4808601007
 30
0.0
 10
5.2966105836
 20
-6.4968984636
 30
0.0
 11
5.5464582903
 21
-6.2506965253
 31
0.0
 11
5.4979000164
 21
-6.2556809218
 31
0.0
 11
5.451193519
 21
-6.2698640621
 31
0.0
 11
5.4081199462
 21
-6.2927050532
 31
0.0
 11
5.3703218881
 21
-6.3233328318
 31
0.0
 11
5.3392407356
 21
-6.3605793934
 31
0.0
 11
5.3160617198
 21
-6.4030243435
 31
0.0
 11
5.3016687229
 21
-6.4490490692
 31
0.0
 11
5.2966105836
 21
-6.4968984636
 31
0.0
  0
SPLINE
  5
5D8
100
AcDbEntity
  8
ASSI
100
AcDbSpline
 62
253
  6
CONTINUOUS
 70
0
 71
3
 72
15
 73
11
 74
9
 42
0.0000001
 43
0.0000001
 44
0.0000000001
 12
0.00000131
 22
0.2954494977
 32
0.0
 13
0.00976487
 23
0.2952880848
 33
0.0
 40
0.0
 40
0.0
 40
0.0
 40
0.0
 40
0.1762543538
 40
0.3472428692
 40
0.5076801248
 40
0.6526883366
 40
0.7778610396
 40
0.8793945376
 40
0.9542028934
 40
1.0
 40
1.0
 40
1.0
 40
1.0
 10
-5.5715041999
 20
-6.5461388512
 30
0.0
 10
-5.571504123
 20
-6.5287807645
 30
0.0
 10
-5.5714870806
 20
-6.4945831854
 30
0.0
 10
-5.5714105562
 20
-6.444585286
 30
0.0
 10
-5.5712852869
 20
-6.3976647235
 30
0.0
 10
-5.5711166882
 20
-6.3552563755
 30
0.0
 10
-5.5709081629
 20
-6.3186494143
 30
0.0
 10
-5.5706755808
 20
-6.2889559722
 30
0.0
 10
-5.5704120228
 20
-6.2670809848
 30
0.0
 10
-5.5702104255
 20
-6.2552043053
 30
0.0
 10
-5.5700613579
 20
-6.2506965253
 30
0.0
 11
-5.5715041999
 21
-6.5461388512
 31
0.0
 11
-5.5714777278
 21
-6.4940645977
 31
0.0
 11
-5.5713990681
 21
-6.4435461879
 31
0.0
 11
-5.5712703933
 21
-6.396145256
 31
0.0
 11
-5.5710957339
 21
-6.3533030087
 31
0.0
 11
-5.5708803607
 21
-6.3163214235
 31
0.0
 11
-5.5706307
 21
-6.2863244415
 31
0.0
 11
-5.5703550933
 21
-6.2642240688
 31
0.0
 11
-5.5700613579
 21
-6.2506965253
 31
0.0
  0
SPLINE
  5
5D9
100
AcDbEntity
  8
ASSI
100
AcDbSpline
 62
253
  6
CONTINUOUS
 70
0
 71
3
 72
9
 73
5
 74
3
 42
0.0000001
 43
0.0000001
 44
0.0000000001
 12
-0.0043623264
 22
-1.6181841037
 32
0.0
 13
-0.0062751532
 23
-1.6181778165
 33
0.0
 40
0.0
 40
0.0
 40
0.0
 40
0.0
 40
0.5000111748
 40
1.0
 40
1.0
 40
1.0
 40
1.0
 10
4.15848816
 20
7.4146926417
 30
0.0
 10
4.1577610893
 20
7.1449892635
 30
0.0
 10
4.1561475608
 20
6.6055949803
 30
0.0
 10
4.1542152612
 20
6.0662017448
 30
0.0
 10
4.1531694257
 20
5.7965114697
 30
0.0
 11
4.15848816
 21
7.4146926417
 31
0.0
 11
4.1560678284
 21
6.6055831869
 31
0.0
 11
4.1531694257
 21
5.7965114697
 31
0.0
  0
SPLINE
  5
5DA
100
AcDbEntity
  8
ASSI
100
AcDbSpline
 62
253
  6
CONTINUOUS
 70
0
 71
3
 72
9
 73
5
 74
3
 42
0.0000001
 43
0.0000001
 44
0.0000000001
 12
-0.0062751532
 22
1.6181778165
 32
0.0
 13
-0.0043623264
 23
1.6181841037
 33
0.0
 40
0.0
 40
0.0
 40
0.0
 40
0.0
 40
0.4999892045
 40
1.0
 40
1.0
 40
1.0
 40
1.0
 10
-4.1767724932
 20
5.7965114697
 30
0.0
 10
-4.1778183295
 20
6.0662019494
 30
0.0
 10
-4.179750629
 20
6.6055951849
 30
0.0
 10
-4.1813641574
 20
7.1449894681
 30
0.0
 10
-4.1820912275
 20
7.4146926417
 30
0.0
 11
-4.1767724932
 21
5.7965114697
 31
0.0
 11
-4.179670898
 21
6.6055838008
 31
0.0
 11
-4.1820912275
 21
7.4146926417
 31
0.0
  0
SPLINE
  5
5DB
100
AcDbEntity
  8
ASSI
100
AcDbSpline
 62
253
  6
CONTINUOUS
 70
0
 71
3
 72
9
 73
5
 74
3
 42
0.0000001
 43
0.0000001
 44
0.0000000001
 12
-0.0004118646
 22
-8.9925039188
 32
0.0
 13
-0.0032451975
 23
-8.9925033427
 33
0.0
 40
0.0
 40
0.0
 40
0.0
 40
0.0
 40
0.5000414317
 40
1.0
 40
1.0
 40
1.0
 40
1.0
 10
-9.8419502896
 20
9.7978506198
 30
0.0
 10
-9.8420189394
 20
8.298975775
 30
0.0
 10
-9.8423922977
 20
5.3014744749
 30
0.0
 10
-9.84323785
 20
2.3039732708
 30
0.0
 10
-9.8437786715
 20
0.8053469053
 30
0.0
 11
-9.8419502896
 21
9.7978506198
 31
0.0
 11
-9.8425103967
 21
5.3012261156
 31
0.0
 11
-9.8437786715
 21
0.8053469053
 31
0.0
  0
SPLINE
  5
5DC
100
AcDbEntity
  8
ASSI
100
AcDbSpline
 62
253
  6
CONTINUOUS
 70
0
 71
3
 72
15
 73
11
 74
9
 42
0.0000001
 43
0.0000001
 44
0.0000000001
 12
0.0097648701
 22
-0.2952880848
 32
0.0
 13
0.00000131
 23
-0.2954494977
 33
0.0
 40
0.0
 40
0.0
 40
0.0
 40
0.0
 40
0.0457971067
 40
0.1206054626
 40
0.2221389606
 40
0.3473116637
 40
0.4923198754
 40
0.652757131
 40
0.8237456464
 40
1.0
 40
1.0
 40
1.0
 40
1.0
 10
-5.6535417097
 20
-6.2506965253
 30
0.0
 10
-5.6533926421
 20
-6.2552043053
 30
0.0
 10
-5.6531910448
 20
-6.2670809848
 30
0.0
 10
-5.6529274867
 20
-6.2889559723
 30
0.0
 10
-5.6526949047
 20
-6.3186494143
 30
0.0
 10
-5.6524863793
 20
-6.3552563755
 30
0.0
 10
-5.6523177806
 20
-6.3976647236
 30
0.0
 10
-5.6521925113
 20
-6.4445852861
 30
0.0
 10
-5.652115987
 20
-6.4945831855
 30
0.0
 10
-5.6520989446
 20
-6.5287807645
 30
0.0
 10
-5.6520988676
 20
-6.5461388512
 30
0.0
 11
-5.6535417097
 21
-6.2506965253
 31
0.0
 11
-5.6532479742
 21
-6.2642240688
 31
0.0
 11
-5.6529723676
 21
-6.2863244416
 31
0.0
 11
-5.6527227069
 21
-6.3163214236
 31
0.0
 11
-5.6525073337
 21
-6.3533030087
 31
0.0
 11
-5.6523326743
 21
-6.396145256
 31
0.0
 11
-5.6522039994
 21
-6.443546188
 31
0.0
 11
-5.6521253398
 21
-6.4940645977
 31
0.0
 11
-5.6520988676
 21
-6.5461388512
 31
0.0
  0
SPLINE
  5
5DD
100
AcDbEntity
  8
ASSI
100
AcDbSpline
 62
253
  6
CONTINUOUS
 70
0
 71
3
 72
9
 73
5
 74
3
 42
0.0000001
 43
0.0000001
 44
0.0000000001
 12
-0.0029682127
 22
-6.007191491
 32
0.0
 13
-0.0042345483
 23
-6.0071907318
 33
0.0
 40
0.0
 40
0.0
 40
0.0
 40
0.0
 40
0.5000502626
 40
1.0
 40
1.0
 40
1.0
 40
1.0
 10
-9.8454031253
 20
-2.9946530947
 30
0.0
 10
-9.8458978772
 20
-3.9959523222
 30
0.0
 10
-9.846992758
 20
-5.9983494351
 30
0.0
 10
-9.8482986892
 20
-8.0007464216
 30
0.0
 10
-9.8490043763
 20
-9.0018442312
 30
0.0
 11
-9.8454031253
 21
-2.9946530947
 31
0.0
 11
-9.8470456413
 21
-5.9985506949
 31
0.0
 11
-9.8490043763
 21
-9.0018442312
 31
0.0
  0
SPLINE
  5
5DE
100
AcDbEntity
  8
ASSI
100
AcDbSpline
 62
253
  6
CONTINUOUS
 70
0
 71
3
 72
16
 73
12
 74
10
 42
0.0000001
 43
0.0000001
 44
0.0000000001
 12
0.0000012478
 22
0.2999696776
 32
0.0
 13
0.0949852704
 23
0.2845340153
 33
0.0
 40
0.0
 40
0.0
 40
0.0
 40
0.0
 40
0.1716903986
 40
0.3383600475
 40
0.4949773352
 40
0.6368827949
 40
0.7598615728
 40
0.8602569174
 40
0.9350874649
 40
0.9821296043
 40
1.0
 40
1.0
 40
1.0
 40
1.0
 10
-5.5121388918
 20
-4.8189108807
 30
0.0
 10
-5.5121388204
 20
-4.8017435761
 30
0.0
 10
-5.5121225911
 20
-4.7679108884
 30
0.0
 10
-5.5120457342
 20
-4.718418638
 30
0.0
 10
-5.5119295547
 20
-4.6719028126
 30
0.0
 10
-5.5117436199
 20
-4.6297618358
 30
0.0
 10
-5.5116012914
 20
-4.5932243018
 30
0.0
 10
-5.5112011086
 20
-4.5634456347
 30
0.0
 10
-5.5113526626
 20
-4.5411314723
 30
0.0
 10
-5.5103534239
 20
-4.5273306655
 30
0.0
 10
-5.5109890582
 20
-4.5206512551
 30
0.0
 10
-5.51042325
 20
-4.5189563433
 30
0.0
 11
-5.5121388918
 21
-4.8189108807
 31
0.0
 11
-5.5121130016
 21
-4.7674089736
 31
0.0
 11
-5.5120360558
 21
-4.717413192
 31
0.0
 11
-5.5119101552
 21
-4.6704329234
 31
0.0
 11
-5.5117391846
 21
-4.6278659318
 31
0.0
 11
-5.5115280134
 21
-4.5909766318
 31
0.0
 11
-5.5112832145
 21
-4.5608620676
 31
0.0
 11
-5.5110117399
 21
-4.5384168141
 31
0.0
 11
-5.5107224317
 21
-4.5243085647
 31
0.0
 11
-5.51042325
 21
-4.5189563433
 31
0.0
  0
SPLINE
  5
5DF
100
AcDbEntity
  8
ASSI
100
AcDbSpline
 62
253
  6
CONTINUOUS
 70
0
 71
3
 72
16
 73
12
 74
10
 42
0.0000001
 43
0.0000001
 44
0.0000000001
 12
0.0949852718
 22
-0.2845340149
 32
0.0
 13
0.0000012478
 23
-0.2999696776
 33
0.0
 40
0.0
 40
0.0
 40
0.0
 40
0.0
 40
0.0178703958
 40
0.0649125353
 40
0.1397430829
 40
0.2401384275
 40
0.3631172055
 40
0.5050226653
 40
0.661639953
 40
0.8283096018
 40
1.0
 40
1.0
 40
1.0
 40
1.0
 10
-5.7131798175
 20
-4.5189563433
 30
0.0
 10
-5.7126140094
 20
-4.5206512551
 30
0.0
 10
-5.7132496437
 20
-4.5273306656
 30
0.0
 10
-5.7122504049
 20
-4.5411314723
 30
0.0
 10
-5.712401959
 20
-4.5634456348
 30
0.0
 10
-5.7120017761
 20
-4.5932243019
 30
0.0
 10
-5.7118594477
 20
-4.6297618359
 30
0.0
 10
-5.7116735129
 20
-4.6719028127
 30
0.0
 10
-5.7115573333
 20
-4.7184186381
 30
0.0
 10
-5.7114804765
 20
-4.7679108885
 30
0.0
 10
-5.7114642472
 20
-4.8017435762
 30
0.0
 10
-5.7114641757
 20
-4.8189108807
 30
0.0
 11
-5.7131798175
 21
-4.5189563433
 31
0.0
 11
-5.7128806359
 21
-4.5243085647
 31
0.0
 11
-5.7125913276
 21
-4.5384168142
 31
0.0
 11
-5.7123198531
 21
-4.5608620677
 31
0.0
 11
-5.7120750542
 21
-4.5909766319
 31
0.0
 11
-5.7118638829
 21
-4.6278659319
 31
0.0
 11
-5.7116929123
 21
-4.6704329235
 31
0.0
 11
-5.7115670118
 21
-4.7174131922
 31
0.0
 11
-5.7114900659
 21
-4.7674089738
 31
0.0
 11
-5.7114641757
 21
-4.8189108807
 31
0.0
  0
SPLINE
  5
5E0
100
AcDbEntity
  8
ASSI
100
AcDbSpline
 62
7
  6
CONTINUOUS
 70
0
 71
3
 72
15
 73
11
 74
9
 42
0.0000001
 43
0.0000001
 44
0.0000000001
 12
0.0895635424
 22
-0.1791816741
 32
0.0
 13
0.2003189968
 23
0.0
 33
0.0
 40
0.0
 40
0.0
 40
0.0
 40
0.0
 40
0.0228702366
 40
0.0820374114
 40
0.1750076777
 40
0.3001514248
 40
0.4519007439
 40
0.6225386226
 40
0.8086061726
 40
1.0
 40
1.0
 40
1.0
 40
1.0
 10
-9.8419502896
 20
9.7978506198
 30
0.0
 10
-9.8412675098
 20
9.796484644
 30
0.0
 10
-9.8343410059
 20
9.7967072635
 30
0.0
 10
-9.8240328753
 20
9.7945716745
 30
0.0
 10
-9.8048447469
 20
9.794026014
 30
0.0
 10
-9.7804593975
 20
9.7928107402
 30
0.0
 10
-9.7504819007
 20
9.7920763321
 30
0.0
 10
-9.7165699971
 20
9.7914403315
 30
0.0
 10
-9.6799628303
 20
9.7910744823
 30
0.0
 10
-9.6547609812
 20
9.7909889623
 30
0.0
 10
-9.6419810414
 20
9.7909889623
 30
0.0
 11
-9.8419502896
 21
9.7978506198
 31
0.0
 11
-9.8375683664
 21
9.7965136637
 31
0.0
 11
-9.825786905
 21
9.7952196786
 31
0.0
 11
-9.8072007782
 21
9.7940371043
 31
0.0
 11
-9.7821539369
 21
9.7929911835
 31
0.0
 11
-9.7517677197
 21
9.7921351983
 31
0.0
 11
-9.7175914795
 21
9.7915072506
 31
0.0
 11
-9.6803206421
 21
9.7911184792
 31
0.0
 11
-9.6419810414
 21
9.7909889623
 31
0.0
  0
SPLINE
  5
5E1
100
AcDbEntity
  8
ASSI
100
AcDbSpline
 62
7
  6
CONTINUOUS
 70
0
 71
3
 72
15
 73
11
 74
9
 42
0.0000001
 43
0.0000001
 44
0.0000000001
 12
0.2003189965
 22
-0.0
 32
0.0
 13
0.0895635422
 23
0.1791816739
 33
0.0
 40
0.0
 40
0.0
 40
0.0
 40
0.0
 40
0.1913938261
 40
0.3774613764
 40
0.5480992554
 40
0.6998485747
 40
0.824992322
 40
0.9179625885
 40
0.9771297633
 40
1.0
 40
1.0
 40
1.0
 40
1.0
 10
9.6183779741
 20
9.7909889623
 30
0.0
 10
9.6311579139
 20
9.7909889623
 30
0.0
 10
9.6563597629
 20
9.7910744823
 30
0.0
 10
9.6929669296
 20
9.7914403315
 30
0.0
 10
9.7268788332
 20
9.7920763321
 30
0.0
 10
9.7568563299
 20
9.7928107402
 30
0.0
 10
9.7812416793
 20
9.794026014
 30
0.0
 10
9.8004298077
 20
9.7945716745
 30
0.0
 10
9.8107379383
 20
9.7967072635
 30
0.0
 10
9.8176644422
 20
9.796484644
 30
0.0
 10
9.818347222
 20
9.7978506198
 30
0.0
 11
9.6183779741
 21
9.7909889623
 31
0.0
 11
9.6567175745
 21
9.7911184792
 31
0.0
 11
9.6939884119
 21
9.7915072506
 31
0.0
 11
9.7281646522
 21
9.7921351983
 31
0.0
 11
9.7585508693
 21
9.7929911835
 31
0.0
 11
9.7835977106
 21
9.7940371043
 31
0.0
 11
9.8021838374
 21
9.7952196786
 31
0.0
 11
9.8139652989
 21
9.7965136637
 31
0.0
 11
9.818347222
 21
9.7978506198
 31
0.0
  0
SPLINE
  5
5E2
100
AcDbEntity
  8
ASSI
100
AcDbSpline
 62
253
  6
CONTINUOUS
 70
0
 71
3
 72
17
 73
13
 74
11
 42
0.0000001
 43
0.0000001
 44
0.0000000001
 12
-0.1414238943
 22
0.1417076164
 32
0.0
 13
-0.0000004892
 23
0.2002043117
 33
0.0
 40
0.0
 40
0.0
 40
0.0
 40
0.0
 40
0.0178774913
 40
0.058389992
 40
0.1209323587
 40
0.2041033138
 40
0.3059766177
 40
0.4241622179
 40
0.5558804402
 40
0.698040467
 40
0.8472808104
 40
1.0
 40
1.0
 40
1.0
 40
1.0
 10
-6.803865672
 20
5.2472282916
 30
0.0
 10
-6.8047084401
 20
5.2480727505
 30
0.0
 10
-6.8050238969
 20
5.2523662476
 30
0.0
 10
-6.8063046221
 20
5.2600139367
 30
0.0
 10
-6.8070252975
 20
5.2726011958
 30
0.0
 10
-6.8079654624
 20
5.2890233636
 30
0.0
 10
-6.8087118796
 20
5.3092735952
 30
0.0
 10
-6.8093864096
 20
5.3327306168
 30
0.0
 10
-6.8099193449
 20
5.3588926804
 30
0.0
 10
-6.810313141
 20
5.3871259301
 30
0.0
 10
-6.8105525619
 20
5.4167635958
 30
0.0
 10
-6.8106060575
 20
5.436914777
 30
0.0
 10
-6.8106060824
 20
5.4471064571
 30
0.0
 11
-6.803865672
 21
5.2472282916
 31
0.0
 11
-6.8049300057
 21
5.2506455295
 31
0.0
 11
-6.8059642846
 21
5.2586900914
 31
0.0
 11
-6.8069435185
 21
5.2711729933
 31
0.0
 11
-6.8078445096
 21
5.287799783
 31
0.0
 11
-6.8086460675
 21
5.3081795007
 31
0.0
 11
-6.8093292624
 21
5.3318309021
 31
0.0
 11
-6.8098779997
 21
5.3581957483
 31
0.0
 11
-6.8102793921
 21
5.386653968
 31
0.0
 11
-6.8105239904
 21
5.416531527
 31
0.0
 11
-6.8106060824
 21
5.4471064571
 31
0.0
  0
SPLINE
  5
5E3
100
AcDbEntity
  8
ASSI
100
AcDbSpline
 62
253
  6
CONTINUOUS
 70
0
 71
3
 72
13
 73
9
 74
7
 42
0.0000001
 43
0.0000001
 44
0.0000000001
 12
0.0000002346
 22
0.141442405
 32
0.0
 13
0.0049357932
 23
0.1413562587
 33
0.0
 40
0.0
 40
0.0
 40
0.0
 40
0.0
 40
0.1844732589
 40
0.3659045925
 40
0.541117895
 40
0.7070849145
 40
0.8609356791
 40
1.0
 40
1.0
 40
1.0
 40
1.0
 10
-6.8106060824
 20
6.7982401241
 30
0.0
 10
-6.810606068
 20
6.8069375713
 30
0.0
 10
-6.8105669615
 20
6.824189073
 30
0.0
 10
-6.8103913484
 20
6.8497008981
 30
0.0
 10
-6.8101020719
 20
6.8743391206
 30
0.0
 10
-6.8097043978
 20
6.8976753223
 30
0.0
 10
-6.809205756
 20
6.9193048388
 30
0.0
 10
-6.8087892687
 20
6.933108943
 30
0.0
 10
-6.8085604711
 20
6.9396614804
 30
0.0
 11
-6.8106060824
 21
6.7982401241
 31
0.0
 11
-6.8105463931
 21
6.8243323973
 31
0.0
 11
-6.8103681959
 21
6.8499938627
 31
0.0
 11
-6.8100744757
 21
6.874774713
 31
0.0
 11
-6.8096702634
 21
6.8982460071
 31
0.0
 11
-6.8091625993
 21
6.9200011067
 31
0.0
 11
-6.8085604711
 21
6.9396614804
 31
0.0
  0
SPLINE
  5
5E4
100
AcDbEntity
  8
ASSI
100
AcDbSpline
 62
253
  6
CONTINUOUS
 70
0
 71
3
 72
13
 73
9
 74
7
 42
0.0000001
 43
0.0000001
 44
0.0000000001
 12
0.0197318509
 22
0.5654254321
 32
0.0
 13
0.0000091903
 23
0.565769622
 33
0.0
 40
0.0
 40
0.0
 40
0.0
 40
0.0
 40
0.1361522584
 40
0.2904133641
 40
0.4589859497
 40
0.637088475
 40
0.8192974361
 40
1.0
 40
1.0
 40
1.0
 40
1.0
 10
-6.7873598352
 20
7.5467682616
 30
0.0
 10
-6.7864643231
 20
7.5724295781
 30
0.0
 10
-6.7848065958
 20
7.6271741918
 30
0.0
 10
-6.7828022672
 20
7.7137116425
 30
0.0
 10
-6.781189042
 20
7.8081698956
 30
0.0
 10
-6.7800228624
 20
7.9079056933
 30
0.0
 10
-6.779329223
 20
8.0099334745
 30
0.0
 10
-6.7791779435
 20
8.0783750128
 30
0.0
 10
-6.7791773899
 20
8.1124536865
 30
0.0
 11
-6.7873598352
 21
7.5467682616
 31
0.0
 11
-6.784995581
 21
7.6237627826
 31
0.0
 11
-6.7829492692
 21
7.7110150374
 31
0.0
 11
-6.7813029672
 21
7.8063740755
 31
0.0
 11
-6.7801131633
 21
7.9071320492
 31
0.0
 11
-6.7794064479
 21
8.0102179218
 31
0.0
 11
-6.7791773899
 21
8.1124536865
 31
0.0
  0
SPLINE
  5
5E5
100
AcDbEntity
  8
ASSI
100
AcDbSpline
 62
253
  6
CONTINUOUS
 70
0
 71
3
 72
13
 73
9
 74
7
 42
0.0000001
 43
0.0000001
 44
0.0000000001
 12
0.0000092097
 22
-0.565769622
 32
0.0
 13
0.0197318825
 23
-0.565425431
 33
0.0
 40
0.0
 40
0.0
 40
0.0
 40
0.0
 40
0.1807025814
 40
0.3629115369
 40
0.5410140573
 40
0.709586639
 40
0.8638477379
 40
1.0
 40
1.0
 40
1.0
 40
1.0
 10
-7.5444256777
 20
8.1124536865
 30
0.0
 10
-7.5444251229
 20
8.0783750094
 30
0.0
 10
-7.5442738452
 20
8.0099334689
 30
0.0
 10
-7.5435802049
 20
7.9079056865
 30
0.0
 10
-7.5424140254
 20
7.8081698914
 30
0.0
 10
-7.5408008007
 20
7.7137116413
 30
0.0
 10
-7.5387964709
 20
7.627174192
 30
0.0
 10
-7.5371387459
 20
7.5724295787
 30
0.0
 10
-7.5362432324
 20
7.5467682616
 30
0.0
 11
-7.5444256777
 21
8.1124536865
 31
0.0
 11
-7.5441966196
 21
8.0102179119
 31
0.0
 11
-7.5434899042
 21
7.9071320425
 31
0.0
 11
-7.5423001003
 21
7.8063740715
 31
0.0
 11
-7.5406537984
 21
7.7110150357
 31
0.0
 11
-7.5386074865
 21
7.6237627846
 31
0.0
 11
-7.5362432324
 21
7.5467682616
 31
0.0
  0
SPLINE
  5
5E6
100
AcDbEntity
  8
ASSI
100
AcDbSpline
 62
253
  6
CONTINUOUS
 70
0
 71
3
 72
13
 73
9
 74
7
 42
0.0000001
 43
0.0000001
 44
0.0000000001
 12
0.0049357932
 22
-0.1413562587
 32
0.0
 13
0.0000002346
 23
-0.141442405
 33
0.0
 40
0.0
 40
0.0
 40
0.0
 40
0.0
 40
0.1390643219
 40
0.2929150865
 40
0.4588821061
 40
0.6340954086
 40
0.8155267422
 40
1.0
 40
1.0
 40
1.0
 40
1.0
 10
-7.5150425964
 20
6.9396614804
 30
0.0
 10
-7.5148137989
 20
6.933108943
 30
0.0
 10
-7.5143973115
 20
6.9193048387
 30
0.0
 10
-7.5138986698
 20
6.8976753222
 30
0.0
 10
-7.5135009956
 20
6.8743391205
 30
0.0
 10
-7.5132117192
 20
6.8497008979
 30
0.0
 10
-7.513036106
 20
6.8241890729
 30
0.0
 10
-7.5129969995
 20
6.8069375712
 30
0.0
 10
-7.5129969851
 20
6.7982401241
 30
0.0
 11
-7.5150425964
 21
6.9396614804
 31
0.0
 11
-7.5144404683
 21
6.9200011066
 31
0.0
 11
-7.5139328041
 21
6.8982460069
 31
0.0
 11
-7.5135285918
 21
6.8747747128
 31
0.0
 11
-7.5132348717
 21
6.8499938626
 31
0.0
 11
-7.5130566744
 21
6.8243323971
 31
0.0
 11
-7.5129969851
 21
6.7982401241
 31
0.0
  0
SPLINE
  5
5E7
100
AcDbEntity
  8
ASSI
100
AcDbSpline
 62
253
  6
CONTINUOUS
 70
0
 71
3
 72
17
 73
13
 74
11
 42
0.0000001
 43
0.0000001
 44
0.0000000001
 12
-0.0000004892
 22
-0.2002043117
 32
0.0
 13
-0.1414238981
 23
-0.1417076126
 33
0.0
 40
0.0
 40
0.0
 40
0.0
 40
0.0
 40
0.1527191901
 40
0.3019595335
 40
0.4441195603
 40
0.5758377826
 40
0.6940233827
 40
0.7958966866
 40
0.8790676415
 40
0.9416100082
 40
0.9821225088
 40
1.0
 40
1.0
 40
1.0
 40
1.0
 10
-7.5129969851
 20
5.4471064571
 30
0.0
 10
-7.51299701
 20
5.4369147769
 30
0.0
 10
-7.5130505057
 20
5.4167635957
 30
0.0
 10
-7.5132899266
 20
5.38712593
 30
0.0
 10
-7.5136837227
 20
5.3588926803
 30
0.0
 10
-7.5142166579
 20
5.3327306167
 30
0.0
 10
-7.514891188
 20
5.3092735951
 30
0.0
 10
-7.5156376051
 20
5.2890233635
 30
0.0
 10
-7.5165777701
 20
5.2726011958
 30
0.0
 10
-7.5172984454
 20
5.2600139366
 30
0.0
 10
-7.5185791706
 20
5.2523662476
 30
0.0
 10
-7.5188946274
 20
5.2480727505
 30
0.0
 10
-7.5197373956
 20
5.2472282916
 30
0.0
 11
-7.5129969851
 21
5.4471064571
 31
0.0
 11
-7.5130790772
 21
5.4165315269
 31
0.0
 11
-7.5133236754
 21
5.3866539679
 31
0.0
 11
-7.5137250679
 21
5.3581957482
 31
0.0
 11
-7.5142738052
 21
5.331830902
 31
0.0
 11
-7.5149570001
 21
5.3081795006
 31
0.0
 11
-7.5157585579
 21
5.2877997829
 31
0.0
 11
-7.5166595491
 21
5.2711729932
 31
0.0
 11
-7.5176387829
 21
5.2586900913
 31
0.0
 11
-7.5186730619
 21
5.2506455295
 31
0.0
 11
-7.5197373956
 21
5.2472282916
 31
0.0
  0
SPLINE
  5
5E8
100
AcDbEntity
  8
ASSI
100
AcDbSpline
 62
253
  6
CONTINUOUS
 70
0
 71
3
 72
13
 73
9
 74
7
 42
0.0000001
 43
0.0000001
 44
0.0000000001
 12
0.0000092097
 22
-0.565769622
 32
0.0
 13
0.0197318825
 23
-0.565425431
 33
0.0
 40
0.0
 40
0.0
 40
0.0
 40
0.0
 40
0.1807025814
 40
0.3629115369
 40
0.5410140573
 40
0.709586639
 40
0.8638477379
 40
1.0
 40
1.0
 40
1.0
 40
1.0
 10
6.7555743223
 20
8.1124536865
 30
0.0
 10
6.7555748771
 20
8.0783750094
 30
0.0
 10
6.7557261548
 20
8.0099334689
 30
0.0
 10
6.7564197951
 20
7.9079056865
 30
0.0
 10
6.7575859746
 20
7.8081698914
 30
0.0
 10
6.7591991993
 20
7.7137116413
 30
0.0
 10
6.7612035291
 20
7.627174192
 30
0.0
 10
6.7628612541
 20
7.5724295787
 30
0.0
 10
6.7637567676
 20
7.5467682616
 30
0.0
 11
6.7555743223
 21
8.1124536865
 31
0.0
 11
6.7558033804
 21
8.0102179119
 31
0.0
 11
6.7565100958
 21
7.9071320425
 31
0.0
 11
6.7576998997
 21
7.8063740715
 31
0.0
 11
6.7593462016
 21
7.7110150357
 31
0.0
 11
6.7613925135
 21
7.6237627846
 31
0.0
 11
6.7637567676
 21
7.5467682616
 31
0.0
  0
SPLINE
  5
5E9
100
AcDbEntity
  8
ASSI
100
AcDbSpline
 62
253
  6
CONTINUOUS
 70
0
 71
3
 72
13
 73
9
 74
7
 42
0.0000001
 43
0.0000001
 44
0.0000000001
 12
0.0049357932
 22
-0.1413562587
 32
0.0
 13
0.0000002346
 23
-0.141442405
 33
0.0
 40
0.0
 40
0.0
 40
0.0
 40
0.0
 40
0.1390643219
 40
0.2929150865
 40
0.4588821061
 40
0.6340954086
 40
0.8155267422
 40
1.0
 40
1.0
 40
1.0
 40
1.0
 10
6.7849574036
 20
6.9396614804
 30
0.0
 10
6.7851862011
 20
6.933108943
 30
0.0
 10
6.7856026885
 20
6.9193048387
 30
0.0
 10
6.7861013302
 20
6.8976753222
 30
0.0
 10
6.7864990044
 20
6.8743391205
 30
0.0
 10
6.7867882808
 20
6.8497008979
 30
0.0
 10
6.786963894
 20
6.8241890729
 30
0.0
 10
6.7870030005
 20
6.8069375712
 30
0.0
 10
6.7870030149
 20
6.7982401241
 30
0.0
 11
6.7849574036
 21
6.9396614804
 31
0.0
 11
6.7855595317
 21
6.9200011066
 31
0.0
 11
6.7860671959
 21
6.8982460069
 31
0.0
 11
6.7864714082
 21
6.8747747128
 31
0.0
 11
6.7867651283
 21
6.8499938626
 31
0.0
 11
6.7869433256
 21
6.8243323971
 31
0.0
 11
6.7870030149
 21
6.7982401241
 31
0.0
  0
SPLINE
  5
5EA
100
AcDbEntity
  8
ASSI
100
AcDbSpline
 62
253
  6
CONTINUOUS
 70
0
 71
3
 72
17
 73
13
 74
11
 42
0.0000001
 43
0.0000001
 44
0.0000000001
 12
-0.0000004892
 22
-0.2002043117
 32
0.0
 13
-0.1414238981
 23
-0.1417076126
 33
0.0
 40
0.0
 40
0.0
 40
0.0
 40
0.0
 40
0.1527191901
 40
0.3019595335
 40
0.4441195603
 40
0.5758377826
 40
0.6940233827
 40
0.7958966866
 40
0.8790676415
 40
0.9416100082
 40
0.9821225088
 40
1.0
 40
1.0
 40
1.0
 40
1.0
 10
6.7870030149
 20
5.4471064571
 30
0.0
 10
6.78700299
 20
5.4369147769
 30
0.0
 10
6.7869494943
 20
5.4167635957
 30
0.0
 10
6.7867100734
 20
5.38712593
 30
0.0
 10
6.7863162773
 20
5.3588926803
 30
0.0
 10
6.7857833421
 20
5.3327306167
 30
0.0
 10
6.785108812
 20
5.3092735951
 30
0.0
 10
6.7843623949
 20
5.2890233635
 30
0.0
 10
6.7834222299
 20
5.2726011958
 30
0.0
 10
6.7827015546
 20
5.2600139366
 30
0.0
 10
6.7814208294
 20
5.2523662476
 30
0.0
 10
6.7811053726
 20
5.2480727505
 30
0.0
 10
6.7802626044
 20
5.2472282916
 30
0.0
 11
6.7870030149
 21
5.4471064571
 31
0.0
 11
6.7869209228
 21
5.4165315269
 31
0.0
 11
6.7866763246
 21
5.3866539679
 31
0.0
 11
6.7862749321
 21
5.3581957482
 31
0.0
 11
6.7857261948
 21
5.331830902
 31
0.0
 11
6.7850429999
 21
5.3081795006
 31
0.0
 11
6.7842414421
 21
5.2877997829
 31
0.0
 11
6.7833404509
 21
5.2711729932
 31
0.0
 11
6.7823612171
 21
5.2586900913
 31
0.0
 11
6.7813269381
 21
5.2506455295
 31
0.0
 11
6.7802626044
 21
5.2472282916
 31
0.0
  0
SPLINE
  5
5EB
100
AcDbEntity
  8
ASSI
100
AcDbSpline
 62
253
  6
CONTINUOUS
 70
0
 71
3
 72
17
 73
13
 74
11
 42
0.0000001
 43
0.0000001
 44
0.0000000001
 12
-0.1414238943
 22
0.1417076164
 32
0.0
 13
-0.0000004892
 23
0.2002043117
 33
0.0
 40
0.0
 40
0.0
 40
0.0
 40
0.0
 40
0.0178774913
 40
0.058389992
 40
0.1209323587
 40
0.2041033138
 40
0.3059766177
 40
0.4241622179
 40
0.5558804402
 40
0.698040467
 40
0.8472808104
 40
1.0
 40
1.0
 40
1.0
 40
1.0
 10
7.496134328
 20
5.2472282916
 30
0.0
 10
7.4952915599
 20
5.2480727505
 30
0.0
 10
7.4949761031
 20
5.2523662476
 30
0.0
 10
7.4936953779
 20
5.2600139367
 30
0.0
 10
7.4929747025
 20
5.2726011958
 30
0.0
 10
7.4920345376
 20
5.2890233636
 30
0.0
 10
7.4912881204
 20
5.3092735952
 30
0.0
 10
7.4906135904
 20
5.3327306168
 30
0.0
 10
7.4900806551
 20
5.3588926804
 30
0.0
 10
7.489686859
 20
5.3871259301
 30
0.0
 10
7.4894474381
 20
5.4167635958
 30
0.0
 10
7.4893939425
 20
5.436914777
 30
0.0
 10
7.4893939176
 20
5.4471064571
 30
0.0
 11
7.496134328
 21
5.2472282916
 31
0.0
 11
7.4950699943
 21
5.2506455295
 31
0.0
 11
7.4940357154
 21
5.2586900914
 31
0.0
 11
7.4930564815
 21
5.2711729933
 31
0.0
 11
7.4921554904
 21
5.287799783
 31
0.0
 11
7.4913539325
 21
5.3081795007
 31
0.0
 11
7.4906707376
 21
5.3318309021
 31
0.0
 11
7.4901220003
 21
5.3581957483
 31
0.0
 11
7.4897206079
 21
5.386653968
 31
0.0
 11
7.4894760096
 21
5.416531527
 31
0.0
 11
7.4893939176
 21
5.4471064571
 31
0.0
  0
SPLINE
  5
5EC
100
AcDbEntity
  8
ASSI
100
AcDbSpline
 62
253
  6
CONTINUOUS
 70
0
 71
3
 72
13
 73
9
 74
7
 42
0.0000001
 43
0.0000001
 44
0.0000000001
 12
0.0000002346
 22
0.141442405
 32
0.0
 13
0.0049357932
 23
0.1413562587
 33
0.0
 40
0.0
 40
0.0
 40
0.0
 40
0.0
 40
0.1844732589
 40
0.3659045925
 40
0.541117895
 40
0.7070849145
 40
0.8609356791
 40
1.0
 40
1.0
 40
1.0
 40
1.0
 10
7.4893939176
 20
6.7982401241
 30
0.0
 10
7.489393932
 20
6.8069375713
 30
0.0
 10
7.4894330385
 20
6.824189073
 30
0.0
 10
7.4896086516
 20
6.8497008981
 30
0.0
 10
7.4898979281
 20
6.8743391206
 30
0.0
 10
7.4902956022
 20
6.8976753223
 30
0.0
 10
7.490794244
 20
6.9193048388
 30
0.0
 10
7.4912107313
 20
6.933108943
 30
0.0
 10
7.4914395289
 20
6.9396614804
 30
0.0
 11
7.4893939176
 21
6.7982401241
 31
0.0
 11
7.4894536069
 21
6.8243323973
 31
0.0
 11
7.4896318041
 21
6.8499938627
 31
0.0
 11
7.4899255243
 21
6.874774713
 31
0.0
 11
7.4903297366
 21
6.8982460071
 31
0.0
 11
7.4908374007
 21
6.9200011067
 31
0.0
 11
7.4914395289
 21
6.9396614804
 31
0.0
  0
SPLINE
  5
5ED
100
AcDbEntity
  8
ASSI
100
AcDbSpline
 62
253
  6
CONTINUOUS
 70
0
 71
3
 72
13
 73
9
 74
7
 42
0.0000001
 43
0.0000001
 44
0.0000000001
 12
0.0197318509
 22
0.5654254321
 32
0.0
 13
0.0000091903
 23
0.565769622
 33
0.0
 40
0.0
 40
0.0
 40
0.0
 40
0.0
 40
0.1361522584
 40
0.2904133641
 40
0.4589859497
 40
0.637088475
 40
0.8192974361
 40
1.0
 40
1.0
 40
1.0
 40
1.0
 10
7.5126401648
 20
7.5467682616
 30
0.0
 10
7.5135356769
 20
7.5724295781
 30
0.0
 10
7.5151934042
 20
7.6271741918
 30
0.0
 10
7.5171977328
 20
7.7137116425
 30
0.0
 10
7.518810958
 20
7.8081698956
 30
0.0
 10
7.5199771376
 20
7.9079056933
 30
0.0
 10
7.520670777
 20
8.0099334745
 30
0.0
 10
7.5208220565
 20
8.0783750128
 30
0.0
 10
7.5208226101
 20
8.1124536865
 30
0.0
 11
7.5126401648
 21
7.5467682616
 31
0.0
 11
7.515004419
 21
7.6237627826
 31
0.0
 11
7.5170507308
 21
7.7110150374
 31
0.0
 11
7.5186970328
 21
7.8063740755
 31
0.0
 11
7.5198868367
 21
7.9071320492
 31
0.0
 11
7.5205935521
 21
8.0102179218
 31
0.0
 11
7.5208226101
 21
8.1124536865
 31
0.0
  0
SPLINE
  5
5EE
100
AcDbEntity
  8
ASSI
100
AcDbSpline
 62
253
  6
CONTINUOUS
 70
0
 71
3
 72
15
 73
11
 74
9
 42
0.0000001
 43
0.0000001
 44
0.0000000001
 12
0.0000001707
 22
0.0492833389
 32
0.0
 13
0.0095687383
 23
0.0483454935
 33
0.0
 40
0.0
 40
0.0
 40
0.0
 40
0.0
 40
0.1760003266
 40
0.3468630124
 40
0.5072188018
 40
0.6521964061
 40
0.7773808262
 40
0.8789617246
 40
0.9539026917
 40
1.0
 40
1.0
 40
1.0
 40
1.0
 10
-5.3216564932
 20
-6.5461388512
 30
0.0
 10
-5.3216564832
 20
-6.5432475567
 30
0.0
 10
-5.3216393596
 20
-6.5375493552
 30
0.0
 10
-5.3215627173
 20
-6.5292171591
 30
0.0
 10
-5.3214375397
 20
-6.5213952957
 30
0.0
 10
-5.3212689134
 20
-6.514324613
 30
0.0
 10
-5.3210604903
 20
-6.5082215632
 30
0.0
 10
-5.3208277336
 20
-6.5032693028
 30
0.0
 10
-5.3205649186
 20
-6.49962364
 30
0.0
 10
-5.3203606821
 20
-6.4976413293
 30
0.0
 10
-5.3202136511
 20
-6.4968984636
 30
0.0
 11
-5.3216564932
 21
-6.5461388512
 31
0.0
 11
-5.3216300206
 21
-6.5374650079
 31
0.0
 11
-5.3215512784
 21
-6.5290446924
 31
0.0
 11
-5.3214226491
 21
-6.5211428705
 31
0.0
 11
-5.321248014
 21
-6.5140000246
 31
0.0
 11
-5.3210326886
 21
-6.5078342772
 31
0.0
 11
-5.3207832681
 21
-6.5028342485
 31
0.0
 11
-5.320507351
 21
-6.4991512282
 31
0.0
 11
-5.3202136511
 21
-6.4968984636
 31
0.0
  0
SPLINE
  5
5EF
100
AcDbEntity
  8
ASSI
100
AcDbSpline
 62
253
  6
CONTINUOUS
 70
0
 71
3
 72
15
 73
11
 74
9
 42
0.0000001
 43
0.0000001
 44
0.0000000001
 12
0.0000001618
 22
0.050068276
 32
0.0
 13
0.0447346513
 23
0.0224865123
 33
0.0
 40
0.0
 40
0.0
 40
0.0
 40
0.0
 40
0.1713418136
 40
0.3377810062
 40
0.4942125627
 40
0.6359871151
 40
0.7588983147
 40
0.8592833316
 40
0.9341930349
 40
1.0
 40
1.0
 40
1.0
 40
1.0
 10
-5.262291185
 20
-4.8189108807
 30
0.0
 10
-5.2622911758
 20
-4.8160512843
 30
0.0
 10
-5.2622739721
 20
-4.8104143145
 30
0.0
 10
-5.2622008751
 20
-4.8021646858
 30
0.0
 10
-5.2620719249
 20
-4.79441689
 30
0.0
 10
-5.2619270832
 20
-4.7873714375
 30
0.0
 10
-5.2616612251
 20
-4.7813392475
 30
0.0
 10
-5.2616007076
 20
-4.7762100022
 30
0.0
 10
-5.2608808412
 20
-4.7726051696
 30
0.0
 10
-5.261556903
 20
-4.7694117523
 30
0.0
 10
-5.2605756191
 20
-4.7689184959
 30
0.0
 11
-5.262291185
 21
-4.8189108807
 31
0.0
 11
-5.262265294
 21
-4.8103321305
 31
0.0
 11
-5.2621882738
 21
-4.801999163
 31
0.0
 11
-5.2620624066
 21
-4.7941679161
 31
0.0
 11
-5.2618914125
 21
-4.7870715685
 31
0.0
 11
-5.2616803599
 21
-4.7809212368
 31
0.0
 11
-5.2614355632
 21
-4.775901097
 31
0.0
 11
-5.2611643167
 21
-4.7721603186
 31
0.0
 11
-5.2605756191
 21
-4.7689184959
 31
0.0
  0
SPLINE
  5
5F0
100
AcDbEntity
  8
ASSI
100
AcDbSpline
 62
253
  6
CONTINUOUS
 70
0
 71
3
 72
15
 73
11
 74
9
 42
0.0000001
 43
0.0000001
 44
0.0000000001
 12
0.0447346513
 22
-0.0224865123
 32
0.0
 13
0.0000001618
 23
-0.050068276
 33
0.0
 40
0.0
 40
0.0
 40
0.0
 40
0.0
 40
0.0658069653
 40
0.1407166687
 40
0.2411016857
 40
0.3640128853
 40
0.5057874378
 40
0.6622189942
 40
0.8286581869
 40
1.0
 40
1.0
 40
1.0
 40
1.0
 10
-5.9630274484
 20
-4.7689184959
 30
0.0
 10
-5.9620461645
 20
-4.7694117523
 30
0.0
 10
-5.9627222263
 20
-4.7726051696
 30
0.0
 10
-5.96200236
 20
-4.7762100022
 30
0.0
 10
-5.9619418424
 20
-4.7813392475
 30
0.0
 10
-5.9616759843
 20
-4.7873714375
 30
0.0
 10
-5.9615311427
 20
-4.79441689
 30
0.0
 10
-5.9614021924
 20
-4.8021646859
 30
0.0
 10
-5.9613290954
 20
-4.8104143145
 30
0.0
 10
-5.9613118917
 20
-4.8160512843
 30
0.0
 10
-5.9613118825
 20
-4.8189108807
 30
0.0
 11
-5.9630274484
 21
-4.7689184959
 31
0.0
 11
-5.9624387508
 21
-4.7721603186
 31
0.0
 11
-5.9621675044
 21
-4.7759010971
 31
0.0
 11
-5.9619227076
 21
-4.7809212368
 31
0.0
 11
-5.9617116551
 21
-4.7870715686
 31
0.0
 11
-5.9615406609
 21
-4.7941679161
 31
0.0
 11
-5.9614147937
 21
-4.801999163
 31
0.0
 11
-5.9613377736
 21
-4.8103321305
 31
0.0
 11
-5.9613118825
 21
-4.8189108807
 31
0.0
  0
SPLINE
  5
5F1
100
AcDbEntity
  8
ASSI
100
AcDbSpline
 62
253
  6
CONTINUOUS
 70
0
 71
3
 72
15
 73
11
 74
9
 42
0.0000001
 43
0.0000001
 44
0.0000000001
 12
0.0095687383
 22
-0.0483454935
 32
0.0
 13
0.0000001707
 23
-0.0492833389
 33
0.0
 40
0.0
 40
0.0
 40
0.0
 40
0.0
 40
0.0460973084
 40
0.1210382755
 40
0.222619174
 40
0.3478035941
 40
0.4927811984
 40
0.6531369878
 40
0.8239996736
 40
1.0
 40
1.0
 40
1.0
 40
1.0
 10
-5.9033894164
 20
-6.4968984636
 30
0.0
 10
-5.9032423854
 20
-6.4976413293
 30
0.0
 10
-5.9030381489
 20
-6.49962364
 30
0.0
 10
-5.902775334
 20
-6.5032693028
 30
0.0
 10
-5.9025425772
 20
-6.5082215632
 30
0.0
 10
-5.9023341542
 20
-6.514324613
 30
0.0
 10
-5.9021655279
 20
-6.5213952957
 30
0.0
 10
-5.9020403502
 20
-6.5292171591
 30
0.0
 10
-5.9019637079
 20
-6.5375493552
 30
0.0
 10
-5.9019465844
 20
-6.5432475567
 30
0.0
 10
-5.9019465744
 20
-6.5461388512
 30
0.0
 11
-5.9033894164
 21
-6.4968984636
 31
0.0
 11
-5.9030957166
 21
-6.4991512282
 31
0.0
 11
-5.9028197994
 21
-6.5028342485
 31
0.0
 11
-5.902570379
 21
-6.5078342772
 31
0.0
 11
-5.9023550536
 21
-6.5140000246
 31
0.0
 11
-5.9021804184
 21
-6.5211428706
 31
0.0
 11
-5.9020517892
 21
-6.5290446924
 31
0.0
 11
-5.901973047
 21
-6.5374650079
 31
0.0
 11
-5.9019465744
 21
-6.5461388512
 31
0.0
  0
SPLINE
  5
5F2
100
AcDbEntity
  8
ASSI
100
AcDbSpline
 62
253
  6
CONTINUOUS
 70
0
 71
3
 72
15
 73
11
 74
9
 42
0.0000001
 43
0.0000001
 44
0.0000000001
 12
0.0000001707
 22
0.0492833389
 32
0.0
 13
0.0095687383
 23
0.0483454935
 33
0.0
 40
0.0
 40
0.0
 40
0.0
 40
0.0
 40
0.1760003266
 40
0.3468630124
 40
0.5072188018
 40
0.6521964061
 40
0.7773808262
 40
0.8789617246
 40
0.9539026917
 40
1.0
 40
1.0
 40
1.0
 40
1.0
 10
5.8783435068
 20
-6.5461388512
 30
0.0
 10
5.8783435168
 20
-6.5432475567
 30
0.0
 10
5.8783606404
 20
-6.5375493552
 30
0.0
 10
5.8784372827
 20
-6.5292171591
 30
0.0
 10
5.8785624603
 20
-6.5213952957
 30
0.0
 10
5.8787310866
 20
-6.514324613
 30
0.0
 10
5.8789395097
 20
-6.5082215632
 30
0.0
 10
5.8791722664
 20
-6.5032693028
 30
0.0
 10
5.8794350814
 20
-6.49962364
 30
0.0
 10
5.8796393179
 20
-6.4976413293
 30
0.0
 10
5.8797863489
 20
-6.4968984636
 30
0.0
 11
5.8783435068
 21
-6.5461388512
 31
0.0
 11
5.8783699794
 21
-6.5374650079
 31
0.0
 11
5.8784487216
 21
-6.5290446924
 31
0.0
 11
5.8785773509
 21
-6.5211428705
 31
0.0
 11
5.878751986
 21
-6.5140000246
 31
0.0
 11
5.8789673114
 21
-6.5078342772
 31
0.0
 11
5.8792167319
 21
-6.5028342485
 31
0.0
 11
5.879492649
 21
-6.4991512282
 31
0.0
 11
5.8797863489
 21
-6.4968984636
 31
0.0
  0
SPLINE
  5
5F3
100
AcDbEntity
  8
ASSI
100
AcDbSpline
 62
253
  6
CONTINUOUS
 70
0
 71
3
 72
15
 73
11
 74
9
 42
0.0000001
 43
0.0000001
 44
0.0000000001
 12
0.0000001618
 22
0.050068276
 32
0.0
 13
0.0447346513
 23
0.0224865123
 33
0.0
 40
0.0
 40
0.0
 40
0.0
 40
0.0
 40
0.1713418136
 40
0.3377810062
 40
0.4942125627
 40
0.6359871151
 40
0.7588983147
 40
0.8592833316
 40
0.9341930349
 40
1.0
 40
1.0
 40
1.0
 40
1.0
 10
5.937708815
 20
-4.8189108807
 30
0.0
 10
5.9377088242
 20
-4.8160512843
 30
0.0
 10
5.9377260279
 20
-4.8104143145
 30
0.0
 10
5.9377991249
 20
-4.8021646858
 30
0.0
 10
5.9379280751
 20
-4.79441689
 30
0.0
 10
5.9380729168
 20
-4.7873714375
 30
0.0
 10
5.9383387749
 20
-4.7813392475
 30
0.0
 10
5.9383992924
 20
-4.7762100022
 30
0.0
 10
5.9391191588
 20
-4.7726051696
 30
0.0
 10
5.938443097
 20
-4.7694117523
 30
0.0
 10
5.9394243809
 20
-4.7689184959
 30
0.0
 11
5.937708815
 21
-4.8189108807
 31
0.0
 11
5.937734706
 21
-4.8103321305
 31
0.0
 11
5.9378117262
 21
-4.801999163
 31
0.0
 11
5.9379375934
 21
-4.7941679161
 31
0.0
 11
5.9381085875
 21
-4.7870715685
 31
0.0
 11
5.9383196401
 21
-4.7809212368
 31
0.0
 11
5.9385644368
 21
-4.775901097
 31
0.0
 11
5.9388356833
 21
-4.7721603186
 31
0.0
 11
5.9394243809
 21
-4.7689184959
 31
0.0
  0
SPLINE
  5
5F4
100
AcDbEntity
  8
ASSI
100
AcDbSpline
 62
253
  6
CONTINUOUS
 70
0
 71
3
 72
15
 73
11
 74
9
 42
0.0000001
 43
0.0000001
 44
0.0000000001
 12
0.0447346513
 22
-0.0224865123
 32
0.0
 13
0.0000001618
 23
-0.050068276
 33
0.0
 40
0.0
 40
0.0
 40
0.0
 40
0.0
 40
0.0658069653
 40
0.1407166687
 40
0.2411016857
 40
0.3640128853
 40
0.5057874378
 40
0.6622189942
 40
0.8286581869
 40
1.0
 40
1.0
 40
1.0
 40
1.0
 10
5.2369725516
 20
-4.7689184959
 30
0.0
 10
5.2379538355
 20
-4.7694117523
 30
0.0
 10
5.2372777737
 20
-4.7726051696
 30
0.0
 10
5.23799764
 20
-4.7762100022
 30
0.0
 10
5.2380581576
 20
-4.7813392475
 30
0.0
 10
5.2383240157
 20
-4.7873714375
 30
0.0
 10
5.2384688573
 20
-4.79441689
 30
0.0
 10
5.2385978076
 20
-4.8021646859
 30
0.0
 10
5.2386709046
 20
-4.8104143145
 30
0.0
 10
5.2386881083
 20
-4.8160512843
 30
0.0
 10
5.2386881175
 20
-4.8189108807
 30
0.0
 11
5.2369725516
 21
-4.7689184959
 31
0.0
 11
5.2375612492
 21
-4.7721603186
 31
0.0
 11
5.2378324956
 21
-4.7759010971
 31
0.0
 11
5.2380772924
 21
-4.7809212368
 31
0.0
 11
5.2382883449
 21
-4.7870715686
 31
0.0
 11
5.2384593391
 21
-4.7941679161
 31
0.0
 11
5.2385852063
 21
-4.801999163
 31
0.0
 11
5.2386622264
 21
-4.8103321305
 31
0.0
 11
5.2386881175
 21
-4.8189108807
 31
0.0
  0
SPLINE
  5
5F5
100
AcDbEntity
  8
ASSI
100
AcDbSpline
 62
253
  6
CONTINUOUS
 70
0
 71
3
 72
15
 73
11
 74
9
 42
0.0000001
 43
0.0000001
 44
0.0000000001
 12
0.0095687383
 22
-0.0483454935
 32
0.0
 13
0.0000001707
 23
-0.0492833389
 33
0.0
 40
0.0
 40
0.0
 40
0.0
 40
0.0
 40
0.0460973084
 40
0.1210382755
 40
0.222619174
 40
0.3478035941
 40
0.4927811984
 40
0.6531369878
 40
0.8239996736
 40
1.0
 40
1.0
 40
1.0
 40
1.0
 10
5.2966105836
 20
-6.4968984636
 30
0.0
 10
5.2967576146
 20
-6.4976413293
 30
0.0
 10
5.2969618511
 20
-6.49962364
 30
0.0
 10
5.297224666
 20
-6.5032693028
 30
0.0
 10
5.2974574228
 20
-6.5082215632
 30
0.0
 10
5.2976658458
 20
-6.514324613
 30
0.0
 10
5.2978344721
 20
-6.5213952957
 30
0.0
 10
5.2979596498
 20
-6.5292171591
 30
0.0
 10
5.2980362921
 20
-6.5375493552
 30
0.0
 10
5.2980534156
 20
-6.5432475567
 30
0.0
 10
5.2980534256
 20
-6.5461388512
 30
0.0
 11
5.2966105836
 21
-6.4968984636
 31
0.0
 11
5.2969042834
 21
-6.4991512282
 31
0.0
 11
5.2971802006
 21
-6.5028342485
 31
0.0
 11
5.297429621
 21
-6.5078342772
 31
0.0
 11
5.2976449464
 21
-6.5140000246
 31
0.0
 11
5.2978195816
 21
-6.5211428706
 31
0.0
 11
5.2979482108
 21
-6.5290446924
 31
0.0
 11
5.298026953
 21
-6.5374650079
 31
0.0
 11
5.2980534256
 21
-6.5461388512
 31
0.0
  0
SPLINE
  5
5F6
100
AcDbEntity
  8
ASSI
100
AcDbSpline
 62
253
  6
CONTINUOUS
 70
0
 71
3
 72
15
 73
11
 74
9
 42
0.0000001
 43
0.0000001
 44
0.0000000001
 12
0.4014143357
 22
-0.0070088487
 32
0.0
 13
0.0139942489
 23
-0.4012315464
 33
0.0
 40
0.0
 40
0.0
 40
0.0
 40
0.0
 40
0.1440044844
 40
0.2856956272
 40
0.4226390599
 40
0.5528844372
 40
0.67524257
 40
0.7895686166
 40
0.89699843
 40
1.0
 40
1.0
 40
1.0
 40
1.0
 10
7.1916222808
 20
7.1517935147
 30
0.0
 10
7.2108907689
 20
7.1514570795
 30
0.0
 10
7.2491249233
 20
7.1481878062
 30
0.0
 10
7.3044591783
 20
7.1356484418
 30
0.0
 10
7.355720905
 20
7.1159213849
 30
0.0
 10
7.401045231
 20
7.0896841491
 30
0.0
 10
7.4387863389
 20
7.0578197653
 30
0.0
 10
7.4675164026
 20
7.0213619636
 30
0.0
 10
7.4860225968
 20
6.9815726207
 30
0.0
 10
7.4909590523
 20
6.9534373068
 30
0.0
 10
7.4914395289
 20
6.9396614804
 30
0.0
 11
7.1916222808
 21
7.1517935147
 31
0.0
 11
7.249223819
 21
7.1468383952
 31
0.0
 11
7.3046805606
 21
7.1341690309
 31
0.0
 11
7.3559275703
 21
7.1142571664
 31
0.0
 11
7.4010566628
 21
7.087844221
 31
0.0
 11
7.4383874536
 21
7.0559136825
 31
0.0
 11
7.4665299284
 21
7.0196544863
 31
0.0
 11
7.4844362005
 21
6.9804167457
 31
0.0
 11
7.4914395289
 21
6.9396614804
 31
0.0
  0
SPLINE
  5
5F7
100
AcDbEntity
  8
ASSI
100
AcDbSpline
 62
253
  6
CONTINUOUS
 70
0
 71
3
 72
15
 73
11
 74
9
 42
0.0000001
 43
0.0000001
 44
0.0000000001
 12
0.4014143351
 22
-0.007008849
 32
0.0
 13
0.0139942489
 23
-0.4012315459
 33
0.0
 40
0.0
 40
0.0
 40
0.0
 40
0.0
 40
0.1440042721
 40
0.2856952433
 40
0.4226385679
 40
0.5528839124
 40
0.6752420872
 40
0.7895682409
 40
0.8969982159
 40
1.0
 40
1.0
 40
1.0
 40
1.0
 10
7.2128229167
 20
7.7589002959
 30
0.0
 10
7.2320913765
 20
7.7585638612
 30
0.0
 10
7.2703254793
 20
7.7552945961
 30
0.0
 10
7.3256596731
 20
7.7427552626
 30
0.0
 10
7.3769213694
 20
7.7230282455
 30
0.0
 10
7.4222457004
 20
7.6967910459
 30
0.0
 10
7.4599868448
 20
7.6649266816
 30
0.0
 10
7.4887169645
 20
7.6284688706
 30
0.0
 10
7.5072232144
 20
7.5886794808
 30
0.0
 10
7.5121596873
 20
7.5605441166
 30
0.0
 10
7.5126401648
 20
7.5467682615
 30
0.0
 11
7.2128229167
 21
7.7589002959
 31
0.0
 11
7.2704243705
 21
7.7539451896
 31
0.0
 11
7.3258810486
 21
7.7412758573
 31
0.0
 11
7.3771280275
 21
7.7213640335
 31
0.0
 11
7.4222571259
 21
7.6949511245
 31
0.0
 11
7.4595879545
 21
7.6630206043
 31
0.0
 11
7.4877304853
 21
7.6267613971
 31
0.0
 11
7.5056368107
 21
7.5875236096
 31
0.0
 11
7.5126401648
 21
7.5467682615
 31
0.0
  0
SPLINE
  5
5F8
100
AcDbEntity
  8
ASSI
100
AcDbSpline
 62
253
  6
CONTINUOUS
 70
0
 71
3
 72
15
 73
11
 74
9
 42
0.0000001
 43
0.0000001
 44
0.0000000001
 12
-0.4014143357
 22
-0.0070088488
 32
0.0
 13
-0.0139942489
 23
-0.4012315464
 33
0.0
 40
0.0
 40
0.0
 40
0.0
 40
0.0
 40
0.1440044844
 40
0.2856956272
 40
0.4226390599
 40
0.5528844372
 40
0.67524257
 40
0.7895686166
 40
0.89699843
 40
1.0
 40
1.0
 40
1.0
 40
1.0
 10
7.0635740157
 20
7.7589002959
 30
0.0
 10
7.0443055276
 20
7.7585638607
 30
0.0
 10
7.0060713732
 20
7.7552945874
 30
0.0
 10
6.9507371181
 20
7.742755223
 30
0.0
 10
6.8994753915
 20
7.7230281661
 30
0.0
 10
6.8541510654
 20
7.6967909303
 30
0.0
 10
6.8164099576
 20
7.6649265465
 30
0.0
 10
6.7876798939
 20
7.6284687448
 30
0.0
 10
6.7691736997
 20
7.5886794018
 30
0.0
 10
6.7642372441
 20
7.560544088
 30
0.0
 10
6.7637567676
 20
7.5467682616
 30
0.0
 11
7.0635740157
 21
7.7589002959
 31
0.0
 11
7.0059724775
 21
7.7539451764
 31
0.0
 11
6.9505157359
 21
7.7412758121
 31
0.0
 11
6.8992687262
 21
7.7213639476
 31
0.0
 11
6.8541396337
 21
7.6949510022
 31
0.0
 11
6.8168088429
 21
7.6630204637
 31
0.0
 11
6.7886663681
 21
7.6267612675
 31
0.0
 11
6.770760096
 21
7.5875235269
 31
0.0
 11
6.7637567676
 21
7.5467682616
 31
0.0
  0
SPLINE
  5
5F9
100
AcDbEntity
  8
ASSI
100
AcDbSpline
 62
253
  6
CONTINUOUS
 70
0
 71
3
 72
15
 73
11
 74
9
 42
0.0000001
 43
0.0000001
 44
0.0000000001
 12
-0.4014143352
 22
-0.0070088515
 32
0.0
 13
-0.0139942492
 23
-0.401231546
 33
0.0
 40
0.0
 40
0.0
 40
0.0
 40
0.0
 40
0.1440045699
 40
0.2856957779
 40
0.4226392486
 40
0.5528846346
 40
0.6752427483
 40
0.7895687529
 40
0.8969985064
 40
1.0
 40
1.0
 40
1.0
 40
1.0
 10
7.0847746517
 20
7.1517935147
 30
0.0
 10
7.0655061521
 20
7.1514570792
 30
0.0
 10
7.0272719776
 20
7.1481878024
 30
0.0
 10
6.9719376992
 20
7.1356484257
 30
0.0
 10
6.9206759621
 20
7.1159213537
 30
0.0
 10
6.8753516392
 20
7.0896841049
 30
0.0
 10
6.8376105459
 20
7.0578197148
 30
0.0
 10
6.8088805032
 20
7.0213619174
 30
0.0
 10
6.7903743292
 20
6.9815725921
 30
0.0
 10
6.7854378798
 20
6.9534372965
 30
0.0
 10
6.7849574036
 20
6.9396614804
 30
0.0
 11
7.0847746517
 21
7.1517935147
 31
0.0
 11
7.0271730795
 21
7.1468383896
 31
0.0
 11
6.9717163141
 21
7.1341690126
 31
0.0
 11
6.9204692939
 21
7.1142571328
 31
0.0
 11
6.8753402051
 21
7.0878441745
 31
0.0
 11
6.8380094295
 21
7.0559136301
 31
0.0
 11
6.8098669757
 21
7.019654439
 31
0.0
 11
6.7919607228
 21
6.9804167161
 31
0.0
 11
6.7849574036
 21
6.9396614804
 31
0.0
  0
SPLINE
  5
5FA
100
AcDbEntity
  8
ASSI
100
AcDbSpline
 62
253
  6
CONTINUOUS
 70
0
 71
3
 72
15
 73
11
 74
9
 42
0.0000001
 43
0.0000001
 44
0.0000000001
 12
0.4014143357
 22
-0.0070088487
 32
0.0
 13
0.0139942489
 23
-0.4012315464
 33
0.0
 40
0.0
 40
0.0
 40
0.0
 40
0.0
 40
0.1440044844
 40
0.2856956272
 40
0.4226390599
 40
0.5528844372
 40
0.67524257
 40
0.7895686166
 40
0.89699843
 40
1.0
 40
1.0
 40
1.0
 40
1.0
 10
-7.1083777192
 20
7.1517935147
 30
0.0
 10
-7.0891092311
 20
7.1514570795
 30
0.0
 10
-7.0508750767
 20
7.1481878062
 30
0.0
 10
-6.9955408217
 20
7.1356484418
 30
0.0
 10
-6.944279095
 20
7.1159213849
 30
0.0
 10
-6.898954769
 20
7.0896841491
 30
0.0
 10
-6.8612136611
 20
7.0578197653
 30
0.0
 10
-6.8324835974
 20
7.0213619636
 30
0.0
 10
-6.8139774032
 20
6.9815726207
 30
0.0
 10
-6.8090409477
 20
6.9534373068
 30
0.0
 10
-6.8085604711
 20
6.9396614804
 30
0.0
 11
-7.1083777192
 21
7.1517935147
 31
0.0
 11
-7.050776181
 21
7.1468383952
 31
0.0
 11
-6.9953194394
 21
7.1341690309
 31
0.0
 11
-6.9440724297
 21
7.1142571664
 31
0.0
 11
-6.8989433372
 21
7.087844221
 31
0.0
 11
-6.8616125464
 21
7.0559136825
 31
0.0
 11
-6.8334700716
 21
7.0196544863
 31
0.0
 11
-6.8155637995
 21
6.9804167457
 31
0.0
 11
-6.8085604711
 21
6.9396614804
 31
0.0
  0
SPLINE
  5
5FB
100
AcDbEntity
  8
ASSI
100
AcDbSpline
 62
253
  6
CONTINUOUS
 70
0
 71
3
 72
15
 73
11
 74
9
 42
0.0000001
 43
0.0000001
 44
0.0000000001
 12
0.4014143351
 22
-0.007008849
 32
0.0
 13
0.0139942489
 23
-0.4012315459
 33
0.0
 40
0.0
 40
0.0
 40
0.0
 40
0.0
 40
0.1440042721
 40
0.2856952433
 40
0.4226385679
 40
0.5528839124
 40
0.6752420872
 40
0.7895682409
 40
0.8969982159
 40
1.0
 40
1.0
 40
1.0
 40
1.0
 10
-7.0871770833
 20
7.7589002959
 30
0.0
 10
-7.0679086235
 20
7.7585638612
 30
0.0
 10
-7.0296745207
 20
7.7552945961
 30
0.0
 10
-6.9743403269
 20
7.7427552626
 30
0.0
 10
-6.9230786306
 20
7.7230282455
 30
0.0
 10
-6.8777542996
 20
7.6967910459
 30
0.0
 10
-6.8400131552
 20
7.6649266816
 30
0.0
 10
-6.8112830355
 20
7.6284688706
 30
0.0
 10
-6.7927767856
 20
7.5886794808
 30
0.0
 10
-6.7878403127
 20
7.5605441166
 30
0.0
 10
-6.7873598352
 20
7.5467682615
 30
0.0
 11
-7.0871770833
 21
7.7589002959
 31
0.0
 11
-7.0295756295
 21
7.7539451896
 31
0.0
 11
-6.9741189514
 21
7.7412758573
 31
0.0
 11
-6.9228719725
 21
7.7213640335
 31
0.0
 11
-6.8777428741
 21
7.6949511245
 31
0.0
 11
-6.8404120455
 21
7.6630206043
 31
0.0
 11
-6.8122695147
 21
7.6267613971
 31
0.0
 11
-6.7943631893
 21
7.5875236096
 31
0.0
 11
-6.7873598352
 21
7.5467682615
 31
0.0
  0
SPLINE
  5
5FC
100
AcDbEntity
  8
ASSI
100
AcDbSpline
 62
7
  6
CONTINUOUS
 70
0
 71
3
 72
14
 73
10
 74
8
 42
0.0000001
 43
0.0000001
 44
0.0000000001
 12
-0.187164952
 22
-0.0179573555
 32
0.0
 13
-0.188024429
 23
-0.0
 33
0.0
 40
0.0
 40
0.0
 40
0.0
 40
0.0
 40
0.0778830372
 40
0.1849747095
 40
0.3167251878
 40
0.4673848541
 40
0.636225452
 40
0.8166806958
 40
1.0
 40
1.0
 40
1.0
 40
1.0
 10
-4.1767724932
 20
5.7965114697
 30
0.0
 10
-4.1816314849
 20
5.7960452785
 30
0.0
 10
-4.1932001492
 20
5.7952472187
 30
0.0
 10
-4.2130280447
 20
5.7942951608
 30
0.0
 10
-4.237426922
 20
5.7934699328
 30
0.0
 10
-4.2657011066
 20
5.7927929352
 30
0.0
 10
-4.2970320366
 20
5.7922918444
 30
0.0
 10
-4.3304123941
 20
5.7919854232
 30
0.0
 10
-4.3532119597
 20
5.7919173502
 30
0.0
 10
-4.3647014622
 20
5.7919173502
 30
0.0
 11
-4.1767724932
 21
5.7965114697
 31
0.0
 11
-4.1913753858
 21
5.7954161455
 31
0.0
 11
-4.2114861775
 21
5.7944118882
 31
0.0
 11
-4.2362434183
 21
5.7935480052
 31
0.0
 11
-4.2645626524
 21
5.7928555909
 31
0.0
 11
-4.2963045951
 21
5.7923383307
 31
0.0
 11
-4.330233113
 21
5.7920218202
 31
0.0
 11
-4.3647014622
 21
5.7919173502
 31
0.0
  0
SPLINE
  5
5FD
100
AcDbEntity
  8
ASSI
100
AcDbSpline
 62
7
  6
CONTINUOUS
 70
0
 71
3
 72
14
 73
10
 74
8
 42
0.0000001
 43
0.0000001
 44
0.0000000001
 12
0.1880504183
 22
0.0
 32
0.0
 13
0.1871908232
 23
-0.0179598313
 33
0.0
 40
0.0
 40
0.0
 40
0.0
 40
0.0
 40
0.1832425357
 40
0.3636522946
 40
0.53247933
 40
0.6831485856
 40
0.8149281021
 40
0.9220655165
 40
1.0
 40
1.0
 40
1.0
 40
1.0
 10
-4.3700461051
 20
7.4192894536
 30
0.0
 10
-4.3585598266
 20
7.4192894536
 30
0.0
 10
-4.3357647728
 20
7.4192213702
 30
0.0
 10
-4.3023883152
 20
7.4189148937
 30
0.0
 10
-4.2710561566
 20
7.4184136389
 30
0.0
 10
-4.2427764971
 20
7.4177363309
 30
0.0
 10
-4.2183689682
 20
7.416910619
 30
0.0
 10
-4.198530436
 20
7.4159578871
 30
0.0
 10
-4.1869541009
 20
7.4151592051
 30
0.0
 10
-4.1820912275
 20
7.4146926417
 30
0.0
 11
-4.3700461051
 21
7.4192894536
 31
0.0
 11
-4.3355874279
 21
7.4191849821
 31
0.0
 11
-4.3016627742
 21
7.4188684198
 31
0.0
 11
-4.2699189964
 21
7.4183509894
 31
0.0
 11
-4.2415940494
 21
7.4176582623
 31
0.0
 11
-4.2168279356
 21
7.4167938888
 31
0.0
 11
-4.1967057805
 21
7.4157889132
 31
0.0
 11
-4.1820912275
 21
7.4146926417
 31
0.0
  0
SPLINE
  5
5FE
100
AcDbEntity
  8
ASSI
100
AcDbSpline
 62
7
  6
CONTINUOUS
 70
0
 71
3
 72
14
 73
10
 74
8
 42
0.0000001
 43
0.0000001
 44
0.0000000001
 12
0.1871908232
 22
0.0179598313
 32
0.0
 13
0.1880504183
 23
-0.0
 33
0.0
 40
0.0
 40
0.0
 40
0.0
 40
0.0
 40
0.0779344835
 40
0.1850718979
 40
0.3168514144
 40
0.46752067
 40
0.6363477055
 40
0.8167574643
 40
1.0
 40
1.0
 40
1.0
 40
1.0
 10
4.15848816
 20
7.4146926417
 30
0.0
 10
4.1633510333
 20
7.4151592051
 30
0.0
 10
4.1749273684
 20
7.4159578871
 30
0.0
 10
4.1947659007
 20
7.416910619
 30
0.0
 10
4.2191734296
 20
7.4177363309
 30
0.0
 10
4.247453089
 20
7.4184136389
 30
0.0
 10
4.2787852477
 20
7.4189148937
 30
0.0
 10
4.3121617053
 20
7.4192213702
 30
0.0
 10
4.334956759
 20
7.4192894536
 30
0.0
 10
4.3464430375
 20
7.4192894536
 30
0.0
 11
4.15848816
 21
7.4146926417
 31
0.0
 11
4.1731027129
 21
7.4157889132
 31
0.0
 11
4.193224868
 21
7.4167938888
 31
0.0
 11
4.2179909819
 21
7.4176582623
 31
0.0
 11
4.2463159289
 21
7.4183509894
 31
0.0
 11
4.2780597067
 21
7.4188684198
 31
0.0
 11
4.3119843604
 21
7.4191849821
 31
0.0
 11
4.3464430375
 21
7.4192894536
 31
0.0
  0
SPLINE
  5
5FF
100
AcDbEntity
  8
ASSI
100
AcDbSpline
 62
7
  6
CONTINUOUS
 70
0
 71
3
 72
14
 73
10
 74
8
 42
0.0000001
 43
0.0000001
 44
0.0000000001
 12
-0.188024429
 22
0.0
 32
0.0
 13
-0.187164952
 23
0.0179573555
 33
0.0
 40
0.0
 40
0.0
 40
0.0
 40
0.0
 40
0.1833193042
 40
0.363774548
 40
0.5326151459
 40
0.6832748122
 40
0.8150252905
 40
0.9221169628
 40
1.0
 40
1.0
 40
1.0
 40
1.0
 10
4.3410983946
 20
5.7919173502
 30
0.0
 10
4.3296088921
 20
5.7919173502
 30
0.0
 10
4.3068093265
 20
5.7919854232
 30
0.0
 10
4.2734289691
 20
5.7922918444
 30
0.0
 10
4.242098039
 20
5.7927929352
 30
0.0
 10
4.2138238544
 20
5.7934699328
 30
0.0
 10
4.1894249771
 20
5.7942951608
 30
0.0
 10
4.1695970816
 20
5.7952472187
 30
0.0
 10
4.1580284173
 20
5.7960452785
 30
0.0
 10
4.1531694257
 20
5.7965114697
 30
0.0
 11
4.3410983946
 21
5.7919173502
 31
0.0
 11
4.3066300454
 21
5.7920218202
 31
0.0
 11
4.2727015276
 21
5.7923383307
 31
0.0
 11
4.2409595849
 21
5.7928555909
 31
0.0
 11
4.2126403507
 21
5.7935480052
 31
0.0
 11
4.1878831099
 21
5.7944118882
 31
0.0
 11
4.1677723182
 21
5.7954161455
 31
0.0
 11
4.1531694257
 21
5.7965114697
 31
0.0
  0
SPLINE
  5
600
100
AcDbEntity
  8
ASSI
100
AcDbSpline
 62
253
  6
CONTINUOUS
 70
0
 71
3
 72
15
 73
11
 74
9
 42
0.0000001
 43
0.0000001
 44
0.0000000001
 12
0.3882348029
 22
-0.0023184616
 32
0.0
 13
0.0023876314
 23
-0.3882343837
 33
0.0
 40
0.0
 40
0.0
 40
0.0
 40
0.0
 40
0.1257290456
 40
0.2514557317
 40
0.3770343051
 40
0.502340937
 40
0.627292244
 40
0.751858067
 40
0.8760664778
 40
1.0
 40
1.0
 40
1.0
 40
1.0
 10
5.6299386421
 20
-6.2506965253
 30
0.0
 10
5.6462094392
 20
-6.2507936913
 30
0.0
 10
5.6788183113
 20
-6.2541391714
 30
0.0
 10
5.7257819042
 20
-6.2684016923
 30
0.0
 10
5.7691170953
 20
-6.2913698464
 30
0.0
 10
5.8071508478
 20
-6.322173727
 30
0.0
 10
5.838438624
 20
-6.3596433621
 30
0.0
 10
5.861781652
 20
-6.4023617531
 30
0.0
 10
5.8762837684
 20
-6.4486773379
 30
0.0
 10
5.879687713
 20
-6.4808600454
 30
0.0
 10
5.8797863489
 20
-6.4968984636
 30
0.0
 11
5.6299386421
 21
-6.2506965253
 31
0.0
 11
5.6784967581
 21
-6.2556808897
 31
0.0
 11
5.7252031381
 21
-6.2698639481
 31
0.0
 11
5.7682766611
 21
-6.2927048377
 31
0.0
 11
5.806074743
 21
-6.3233325342
 31
0.0
 11
5.8371559757
 21
-6.3605790679
 31
0.0
 11
5.8603350941
 21
-6.4030240637
 31
0.0
 11
5.8747281758
 21
-6.4490489059
 31
0.0
 11
5.8797863489
 21
-6.4968984636
 31
0.0
  0
SPLINE
  5
601
100
AcDbEntity
  8
ASSI
100
AcDbSpline
 62
7
  6
CONTINUOUS
 70
0
 71
3
 72
17
 73
13
 74
11
 42
0.0000001
 43
0.0000001
 44
0.0000000001
 12
-0.0148532747
 22
0.3571597571
 32
0.0
 13
-0.3573152673
 23
0.0104647825
 33
0.0
 40
0.0
 40
0.0
 40
0.0
 40
0.0
 40
0.0784048065
 40
0.159813855
 40
0.2448266776
 40
0.3341391228
 40
0.4284979008
 40
0.5286788015
 40
0.6354463523
 40
0.7494674181
 40
0.8710888176
 40
1.0
 40
1.0
 40
1.0
 40
1.0
 10
5.937708815
 20
-6.2044280025
 30
0.0
 10
5.9373206256
 20
-6.1950936553
 30
0.0
 10
5.9350097299
 20
-6.1760984389
 30
0.0
 10
5.9269592548
 20
-6.14794001
 30
0.0
 10
5.9140898808
 20
-6.1201834084
 30
0.0
 10
5.8962938786
 20
-6.0934241588
 30
0.0
 10
5.8735061747
 20
-6.0682646601
 30
0.0
 10
5.8456959916
 20
-6.0453606225
 30
0.0
 10
5.8128841089
 20
-6.0254585599
 30
0.0
 10
5.7752011783
 20
-6.0094471891
 30
0.0
 10
5.733039217
 20
-5.9983907024
 30
0.0
 10
5.7032150861
 20
-5.9952083815
 30
0.0
 10
5.6878611082
 20
-5.9947587057
 30
0.0
 11
5.937708815
 21
-6.2044280025
 31
0.0
 11
5.934344544
 21
-6.1766034047
 31
0.0
 11
5.9263832058
 21
-6.1486124221
 31
0.0
 11
5.9136466248
 21
-6.1210208402
 31
0.0
 11
5.8960180979
 21
-6.0944026318
 31
0.0
 11
5.8734235324
 21
-6.0693583115
 31
0.0
 11
5.845822411
 21
-6.0465407167
 31
0.0
 11
5.8132216301
 21
-6.0266954348
 31
0.0
 11
5.7757285615
 21
-6.0107091677
 31
0.0
 11
5.7336822002
 21
-5.9996524906
 31
0.0
 11
5.6878611082
 21
-5.9947587057
 31
0.0
  0
SPLINE
  5
602
100
AcDbEntity
  8
ASSI
100
AcDbSpline
 62
253
  6
CONTINUOUS
 70
0
 71
3
 72
14
 73
10
 74
8
 42
0.0000001
 43
0.0000001
 44
0.0000000001
 12
0.2004260331
 22
0.0001424279
 32
0.0
 13
0.0795097631
 23
0.183980468
 33
0.0
 40
0.0
 40
0.0
 40
0.0
 40
0.0
 40
0.219626445
 40
0.4285016891
 40
0.6164034558
 40
0.7741463891
 40
0.8940461608
 40
0.9703499162
 40
1.0
 40
1.0
 40
1.0
 40
1.0
 10
9.6254317693
 20
-9.0099145436
 30
0.0
 10
9.6401047216
 20
-9.0099041166
 30
0.0
 10
9.6687433214
 20
-9.0097660597
 30
0.0
 10
9.7098754254
 20
-9.0091446538
 30
0.0
 10
9.7470526924
 20
-9.0083246213
 30
0.0
 10
9.7777309981
 20
-9.0068328042
 30
0.0
 10
9.8023303785
 20
-9.0061618908
 30
0.0
 10
9.8154697534
 20
-9.0033612461
 30
0.0
 10
9.8246154846
 20
-9.0036625735
 30
0.0
 10
9.8254013083
 20
-9.0018442281
 30
0.0
 11
9.6254317693
 21
-9.0099145436
 31
0.0
 11
9.669450041
 21
-9.0096853817
 31
0.0
 11
9.7113095907
 21
-9.0090717529
 31
0.0
 11
9.7489575634
 21
-9.0081037503
 31
0.0
 11
9.7805476461
 21
-9.0068288465
 31
0.0
 11
9.804530614
 21
-9.0053095644
 31
0.0
 11
9.8197303065
 21
-9.0036204121
 31
0.0
 11
9.8254013083
 21
-9.0018442281
 31
0.0
  0
SPLINE
  5
603
100
AcDbEntity
  8
ASSI
100
AcDbSpline
 62
253
  6
CONTINUOUS
 70
0
 71
3
 72
15
 73
11
 74
9
 42
0.0000001
 43
0.0000001
 44
0.0000000001
 12
-0.0006690231
 22
-0.3122541311
 32
0.0
 13
-0.3122541518
 23
-0.0006592875
 33
0.0
 40
0.0
 40
0.0
 40
0.0
 40
0.0
 40
0.1239311267
 40
0.2485008945
 40
0.3733674625
 40
0.4983911403
 40
0.623641287
 40
0.7490227936
 40
0.8745020714
 40
1.0
 40
1.0
 40
1.0
 40
1.0
 10
9.8254013083
 20
-9.0018442281
 30
0.0
 10
9.8253736707
 20
-9.0147435635
 30
0.0
 10
9.8227617638
 20
-9.040674681
 30
0.0
 10
9.8113030206
 20
-9.078060637
 30
0.0
 10
9.7926965708
 20
-9.1125982348
 30
0.0
 10
9.7676648758
 20
-9.142891078
 30
0.0
 10
9.7371781878
 20
-9.1677697967
 30
0.0
 10
9.7023982347
 20
-9.1862810115
 30
0.0
 10
9.6646828217
 20
-9.1977139575
 30
0.0
 10
9.6384941857
 20
-9.2003258787
 30
0.0
 10
9.6254317693
 20
-9.2003534584
 30
0.0
 11
9.8254013083
 21
-9.0018442281
 31
0.0
 11
9.8215212495
 21
-9.0403473151
 31
0.0
 11
9.8101302186
 21
-9.077539532
 31
0.0
 11
9.7916413419
 21
-9.1118673115
 31
0.0
 11
9.7667787698
 21
-9.1419657419
 31
0.0
 11
9.7364805181
 21
-9.1666963978
 31
0.0
 11
9.7019223167
 21
-9.1850955883
 31
0.0
 11
9.6644252612
 21
-9.1964605242
 31
0.0
 11
9.6254317693
 21
-9.2003534584
 31
0.0
  0
SPLINE
  5
604
100
AcDbEntity
  8
ASSI
100
AcDbSpline
 62
253
  6
CONTINUOUS
 70
0
 71
3
 72
14
 73
10
 74
8
 42
0.0000001
 43
0.0000001
 44
0.0000000001
 12
0.0619574506
 22
-0.1906092583
 32
0.0
 13
0.2004085935
 23
-0.0026477693
 33
0.0
 40
0.0
 40
0.0
 40
0.0
 40
0.0
 40
0.0296500838
 40
0.1059538392
 40
0.2258536109
 40
0.3835965442
 40
0.5714983109
 40
0.780373555
 40
1.0
 40
1.0
 40
1.0
 40
1.0
 10
-9.8490043758
 20
-9.0018442281
 30
0.0
 10
-9.848392028
 20
-9.0037280882
 30
0.0
 10
-9.8388602263
 20
-9.0032809485
 30
0.0
 10
-9.826057471
 20
-9.0062088415
 30
0.0
 10
-9.8012813233
 20
-9.0068121335
 30
0.0
 10
-9.7706747987
 20
-9.0083358553
 30
0.0
 10
-9.7334721995
 20
-9.0091232779
 30
0.0
 10
-9.6923488946
 20
-9.0098479632
 30
0.0
 10
-9.6637065125
 20
-9.0097207035
 30
0.0
 10
-9.6490348368
 20
-9.0099145436
 30
0.0
 11
-9.8490043758
 21
-9.0018442281
 31
0.0
 11
-9.8433333741
 21
-9.0036204121
 31
0.0
 11
-9.8281336815
 21
-9.0053095645
 31
0.0
 11
-9.8041507137
 21
-9.0068288465
 31
0.0
 11
-9.772560631
 21
-9.0081037503
 31
0.0
 11
-9.7349126583
 21
-9.0090717529
 31
0.0
 11
-9.6930531086
 21
-9.0096853817
 31
0.0
 11
-9.6490348368
 21
-9.0099145436
 31
0.0
  0
SPLINE
  5
605
100
AcDbEntity
  8
ASSI
100
AcDbSpline
 62
253
  6
CONTINUOUS
 70
0
 71
3
 72
15
 73
11
 74
9
 42
0.0000001
 43
0.0000001
 44
0.0000000001
 12
-0.3122541466
 22
0.0006592875
 32
0.0
 13
-0.0006690231
 23
0.3122541259
 33
0.0
 40
0.0
 40
0.0
 40
0.0
 40
0.0
 40
0.1253892911
 40
0.2507579262
 40
0.376037153
 40
0.5011716683
 40
0.6261279947
 40
0.7508996291
 40
0.8755081425
 40
1.0
 40
1.0
 40
1.0
 40
1.0
 10
-9.6490348368
 20
-9.2003534584
 30
0.0
 10
-9.6620859455
 20
-9.2003259025
 30
0.0
 10
-9.6882515835
 20
-9.1977185012
 30
0.0
 10
-9.7259372804
 20
-9.1863050783
 30
0.0
 10
-9.7606942923
 20
-9.1678248813
 30
0.0
 10
-9.791172211
 20
-9.1429834709
 30
0.0
 10
-9.8162076173
 20
-9.1127318075
 30
0.0
 10
-9.834837823
 20
-9.0782221705
 30
0.0
 10
-9.8463465941
 20
-9.0407963854
 30
0.0
 10
-9.8489766132
 20
-9.0148019268
 30
0.0
 10
-9.8490043758
 20
-9.0018442281
 30
0.0
 11
-9.6490348368
 21
-9.2003534584
 31
0.0
 11
-9.6879949021
 21
-9.196467189
 31
0.0
 11
-9.7254617927
 21
-9.185121844
 31
0.0
 11
-9.7599995612
 21
-9.1667522427
 31
0.0
 11
-9.7902845208
 21
-9.1420624142
 31
0.0
 11
-9.815155977
 21
-9.1119986153
 31
0.0
 11
-9.833660712
 21
-9.0777130642
 31
0.0
 11
-9.8450895175
 21
-9.0405197814
 31
0.0
 11
-9.8490043758
 21
-9.0018442281
 31
0.0
  0
SPLINE
  5
606
100
AcDbEntity
  8
ASSI
100
AcDbSpline
 62
253
  6
CONTINUOUS
 70
0
 71
3
 72
13
 73
9
 74
7
 42
0.0000001
 43
0.0000001
 44
0.0000000001
 12
0.0000009478
 22
-0.3537064006
 32
0.0
 13
0.0197326764
 23
-0.3531555455
 33
0.0
 40
0.0
 40
0.0
 40
0.0
 40
0.0
 40
0.1807365394
 40
0.3628821371
 40
0.5409121621
 40
0.7094442518
 40
0.8637208192
 40
1.0
 40
1.0
 40
1.0
 40
1.0
 10
7.0553915312
 20
8.1124646504
 30
0.0
 10
7.0553915883
 20
8.0911554268
 30
0.0
 10
7.0555436803
 20
8.0483706894
 30
0.0
 10
7.0562371171
 20
7.9845991766
 30
0.0
 10
7.0574033566
 20
7.9222736239
 30
0.0
 10
7.0590163122
 20
7.8632448578
 30
0.0
 10
7.0610210981
 20
7.8091536798
 30
0.0
 10
7.0626780149
 20
7.7749355244
 30
0.0
 10
7.0635743992
 20
7.7588929415
 30
0.0
 11
7.0553915312
 21
8.1124646504
 31
0.0
 11
7.0556207616
 21
8.0485373906
 31
0.0
 11
7.0563274925
 21
7.9841152032
 31
0.0
 11
7.0575171045
 21
7.9211560818
 31
0.0
 11
7.0591630892
 21
7.8615679319
 31
0.0
 11
7.0612091054
 21
7.8070376931
 31
0.0
 11
7.0635743992
 21
7.7588929415
 31
0.0
  0
SPLINE
  5
607
100
AcDbEntity
  8
ASSI
100
AcDbSpline
 62
253
  6
CONTINUOUS
 70
0
 71
3
 72
13
 73
9
 74
7
 42
0.0000001
 43
0.0000001
 44
0.0000000001
 12
0.0197326329
 22
0.3531555552
 32
0.0
 13
0.0000009482
 23
0.3537064079
 33
0.0
 40
0.0
 40
0.0
 40
0.0
 40
0.0
 40
0.1362791858
 40
0.2905557542
 40
0.4590878453
 40
0.6371178717
 40
0.8192634707
 40
1.0
 40
1.0
 40
1.0
 40
1.0
 10
7.2128225331
 20
7.7588929381
 30
0.0
 10
7.2137189155
 20
7.774935522
 30
0.0
 10
7.2153758362
 20
7.8091536787
 30
0.0
 10
7.2173806192
 20
7.8632448588
 30
0.0
 10
7.2189935766
 20
7.9222736264
 30
0.0
 10
7.2201598151
 20
7.9845991809
 30
0.0
 10
7.2208532524
 20
8.0483706942
 30
0.0
 10
7.2210053441
 20
8.0911554314
 30
0.0
 10
7.2210054012
 20
8.1124646542
 30
0.0
 11
7.2128225331
 21
7.7588929381
 31
0.0
 11
7.2151878274
 21
7.8070376924
 31
0.0
 11
7.217233843
 21
7.8615679327
 31
0.0
 11
7.2188798282
 21
7.9211560843
 31
0.0
 11
7.2200694399
 21
7.9841152076
 31
0.0
 11
7.2207761709
 21
8.0485373967
 31
0.0
 11
7.2210054012
 21
8.1124646542
 31
0.0
  0
SPLINE
  5
608
100
AcDbEntity
  8
ASSI
100
AcDbSpline
 62
253
  6
CONTINUOUS
 70
0
 71
3
 72
13
 73
9
 74
7
 42
0.0000001
 43
0.0000001
 44
0.0000000001
 12
0.0000009478
 22
-0.3537064006
 32
0.0
 13
0.0197326764
 23
-0.3531555455
 33
0.0
 40
0.0
 40
0.0
 40
0.0
 40
0.0
 40
0.1807365394
 40
0.3628821371
 40
0.5409121621
 40
0.7094442518
 40
0.8637208192
 40
1.0
 40
1.0
 40
1.0
 40
1.0
 10
-7.2446084688
 20
8.1124646504
 30
0.0
 10
-7.2446084117
 20
8.0911554268
 30
0.0
 10
-7.2444563197
 20
8.0483706894
 30
0.0
 10
-7.2437628829
 20
7.9845991766
 30
0.0
 10
-7.2425966434
 20
7.9222736239
 30
0.0
 10
-7.2409836878
 20
7.8632448578
 30
0.0
 10
-7.2389789019
 20
7.8091536798
 30
0.0
 10
-7.2373219851
 20
7.7749355244
 30
0.0
 10
-7.2364256008
 20
7.7588929415
 30
0.0
 11
-7.2446084688
 21
8.1124646504
 31
0.0
 11
-7.2443792384
 21
8.0485373906
 31
0.0
 11
-7.2436725075
 21
7.9841152032
 31
0.0
 11
-7.2424828955
 21
7.9211560818
 31
0.0
 11
-7.2408369108
 21
7.8615679319
 31
0.0
 11
-7.2387908946
 21
7.8070376931
 31
0.0
 11
-7.2364256008
 21
7.7588929415
 31
0.0
  0
SPLINE
  5
609
100
AcDbEntity
  8
ASSI
100
AcDbSpline
 62
253
  6
CONTINUOUS
 70
0
 71
3
 72
13
 73
9
 74
7
 42
0.0000001
 43
0.0000001
 44
0.0000000001
 12
0.0197326329
 22
0.3531555552
 32
0.0
 13
0.0000009482
 23
0.3537064079
 33
0.0
 40
0.0
 40
0.0
 40
0.0
 40
0.0
 40
0.1362791858
 40
0.2905557542
 40
0.4590878453
 40
0.6371178717
 40
0.8192634707
 40
1.0
 40
1.0
 40
1.0
 40
1.0
 10
-7.0871774669
 20
7.7588929381
 30
0.0
 10
-7.0862810845
 20
7.774935522
 30
0.0
 10
-7.0846241638
 20
7.8091536787
 30
0.0
 10
-7.0826193808
 20
7.8632448588
 30
0.0
 10
-7.0810064234
 20
7.9222736264
 30
0.0
 10
-7.0798401849
 20
7.9845991809
 30
0.0
 10
-7.0791467476
 20
8.0483706942
 30
0.0
 10
-7.0789946559
 20
8.0911554314
 30
0.0
 10
-7.0789945988
 20
8.1124646542
 30
0.0
 11
-7.0871774669
 21
7.7588929381
 31
0.0
 11
-7.0848121726
 21
7.8070376924
 31
0.0
 11
-7.082766157
 21
7.8615679327
 31
0.0
 11
-7.0811201718
 21
7.9211560843
 31
0.0
 11
-7.0799305601
 21
7.9841152076
 31
0.0
 11
-7.0792238291
 21
8.0485373967
 31
0.0
 11
-7.0789945988
 21
8.1124646542
 31
0.0
  0
SPLINE
  5
60A
100
AcDbEntity
  8
ASSI
100
AcDbSpline
 62
253
  6
CONTINUOUS
 70
0
 71
3
 72
13
 73
9
 74
7
 42
0.0000001
 43
0.0000001
 44
0.0000000001
 12
0.0049371296
 22
-0.3535273384
 32
0.0
 13
0.000000663
 23
-0.3535618111
 33
0.0
 40
0.0
 40
0.0
 40
0.0
 40
0.0
 40
0.1390722399
 40
0.2928914527
 40
0.4588232532
 40
0.6340132458
 40
0.8154446221
 40
1.0
 40
1.0
 40
1.0
 40
1.0
 10
7.0847746517
 20
7.1517935147
 30
0.0
 10
7.0850035242
 20
7.1354049018
 30
0.0
 10
7.0854200975
 20
7.1008889321
 30
0.0
 10
7.0859185429
 20
7.0468170491
 30
0.0
 10
7.0863162744
 20
6.9884876081
 30
0.0
 10
7.0866055203
 20
6.9269032973
 30
0.0
 10
7.0867811369
 20
6.8631236925
 30
0.0
 10
7.0868202222
 20
6.819990702
 30
0.0
 10
7.086820263
 20
6.7982401241
 30
0.0
 11
7.0847746517
 21
7.1517935147
 31
0.0
 11
7.0853769406
 21
7.1026265706
 31
0.0
 11
7.085884461
 21
7.0482443393
 31
0.0
 11
7.0862886505
 21
6.9895785837
 31
0.0
 11
7.086582356
 21
6.927638789
 31
0.0
 11
7.0867605416
 21
6.8634918305
 31
0.0
 11
7.086820263
 21
6.7982401241
 31
0.0
  0
SPLINE
  5
60B
100
AcDbEntity
  8
ASSI
100
AcDbSpline
 62
253
  6
CONTINUOUS
 70
0
 71
3
 72
13
 73
9
 74
7
 42
0.0000001
 43
0.0000001
 44
0.0000000001
 12
0.000000663
 22
0.3535618111
 32
0.0
 13
0.0049371293
 23
0.3535273384
 33
0.0
 40
0.0
 40
0.0
 40
0.0
 40
0.0
 40
0.184555379
 40
0.3659867553
 40
0.5411767479
 40
0.7071085483
 40
0.8609277611
 40
1.0
 40
1.0
 40
1.0
 40
1.0
 10
7.1895766695
 20
6.7982401241
 30
0.0
 10
7.1895767102
 20
6.8199907022
 30
0.0
 10
7.1896157955
 20
6.8631236928
 30
0.0
 10
7.1897914122
 20
6.9269032977
 30
0.0
 10
7.190080658
 20
6.9884876085
 30
0.0
 10
7.1904783895
 20
7.0468170494
 30
0.0
 10
7.1909768349
 20
7.1008889323
 30
0.0
 10
7.1913934082
 20
7.1354049019
 30
0.0
 10
7.1916222808
 20
7.1517935147
 30
0.0
 11
7.1895766695
 21
6.7982401241
 31
0.0
 11
7.1896363909
 21
6.8634918309
 31
0.0
 11
7.1898145765
 21
6.9276387894
 31
0.0
 11
7.190108282
 21
6.9895785841
 31
0.0
 11
7.1905124714
 21
7.0482443396
 31
0.0
 11
7.1910199919
 21
7.1026265709
 31
0.0
 11
7.1916222808
 21
7.1517935147
 31
0.0
  0
SPLINE
  5
60C
100
AcDbEntity
  8
ASSI
100
AcDbSpline
 62
253
  6
CONTINUOUS
 70
0
 71
3
 72
17
 73
13
 74
11
 42
0.0000001
 43
0.0000001
 44
0.0000000001
 12
-0.000001509
 22
-0.4998432663
 32
0.0
 13
-0.185506915
 23
-0.4641448862
 33
0.0
 40
0.0
 40
0.0
 40
0.0
 40
0.0
 40
0.1530153495
 40
0.3024422212
 40
0.4447665503
 40
0.5766197167
 40
0.6949031276
 40
0.7968310081
 40
0.8800040106
 40
0.9424699896
 40
0.9827635986
 40
1.0
 40
1.0
 40
1.0
 40
1.0
 10
7.0868202795
 20
5.4471219176
 30
0.0
 10
7.0868202026
 20
5.4216273536
 30
0.0
 10
7.0867666791
 20
5.3712361452
 30
0.0
 10
7.0865275143
 20
5.2971317575
 30
0.0
 10
7.08613271
 20
5.226554843
 30
0.0
 10
7.0856029908
 20
5.1611651169
 30
0.0
 10
7.0849186548
 20
5.1025166632
 30
0.0
 10
7.0842017796
 20
5.0519536442
 30
0.0
 10
7.0831813369
 20
5.0107706273
 30
0.0
 10
7.082657133
 20
4.979667217
 30
0.0
 10
7.0810040571
 20
4.9599596004
 30
0.0
 10
7.0811454668
 20
4.9500772454
 30
0.0
 10
7.0800796429
 20
4.9474105162
 30
0.0
 11
7.0868202795
 21
5.4471219176
 31
0.0
 11
7.0867381156
 21
5.3706382697
 31
0.0
 11
7.0864935198
 21
5.2959486545
 31
0.0
 11
7.0860920892
 21
5.2248099296
 31
0.0
 11
7.0855433874
 21
5.1589062964
 31
0.0
 11
7.084860233
 21
5.0997870769
 31
0.0
 11
7.0840587368
 21
5.048845417
 31
0.0
 11
7.0831578558
 21
5.0072817138
 31
0.0
 11
7.0821785702
 21
4.9760738757
 31
0.0
 11
7.0811445674
 21
4.9559599467
 31
0.0
 11
7.0800796429
 21
4.9474105162
 31
0.0
  0
SPLINE
  5
60D
100
AcDbEntity
  8
ASSI
100
AcDbSpline
 62
253
  6
CONTINUOUS
 70
0
 71
3
 72
17
 73
13
 74
11
 42
0.0000001
 43
0.0000001
 44
0.0000000001
 12
-0.1855069271
 22
0.4641448815
 32
0.0
 13
-0.000001509
 23
0.4998432665
 33
0.0
 40
0.0
 40
0.0
 40
0.0
 40
0.0
 40
0.0172364015
 40
0.0575300106
 40
0.1199959897
 40
0.2031689922
 40
0.3050968727
 40
0.4233802836
 40
0.5552334501
 40
0.6975577792
 40
0.8469846509
 40
1.0
 40
1.0
 40
1.0
 40
1.0
 10
7.1963172895
 20
4.9474105162
 30
0.0
 10
7.1952514656
 20
4.9500772454
 30
0.0
 10
7.1953928755
 20
4.9599596005
 30
0.0
 10
7.1937397994
 20
4.9796672171
 30
0.0
 10
7.1932155956
 20
5.0107706274
 30
0.0
 10
7.1921951528
 20
5.0519536443
 30
0.0
 10
7.1914782776
 20
5.1025166634
 30
0.0
 10
7.1907939417
 20
5.1611651171
 30
0.0
 10
7.1902642225
 20
5.2265548433
 30
0.0
 10
7.1898694181
 20
5.2971317578
 30
0.0
 10
7.1896302534
 20
5.3712361454
 30
0.0
 10
7.1895767299
 20
5.4216273538
 30
0.0
 10
7.1895766529
 20
5.4471219177
 30
0.0
 11
7.1963172895
 21
4.9474105162
 31
0.0
 11
7.195252365
 21
4.9559599468
 31
0.0
 11
7.1942183622
 21
4.9760738758
 31
0.0
 11
7.1932390767
 21
5.0072817139
 31
0.0
 11
7.1923381957
 21
5.0488454172
 31
0.0
 11
7.1915366994
 21
5.0997870771
 31
0.0
 11
7.1908535451
 21
5.1589062966
 31
0.0
 11
7.1903048433
 21
5.2248099298
 31
0.0
 11
7.1899034126
 21
5.2959486548
 31
0.0
 11
7.1896588168
 21
5.3706382699
 31
0.0
 11
7.1895766529
 21
5.4471219177
 31
0.0
  0
SPLINE
  5
60E
100
AcDbEntity
  8
ASSI
100
AcDbSpline
 62
253
  6
CONTINUOUS
 70
0
 71
3
 72
17
 73
13
 74
11
 42
0.0000001
 43
0.0000001
 44
0.0000000001
 12
-0.000001509
 22
-0.4998432663
 32
0.0
 13
-0.185506915
 23
-0.4641448862
 33
0.0
 40
0.0
 40
0.0
 40
0.0
 40
0.0
 40
0.1530153495
 40
0.3024422212
 40
0.4447665503
 40
0.5766197167
 40
0.6949031276
 40
0.7968310081
 40
0.8800040106
 40
0.9424699896
 40
0.9827635986
 40
1.0
 40
1.0
 40
1.0
 40
1.0
 10
-7.2131797205
 20
5.4471219176
 30
0.0
 10
-7.2131797974
 20
5.4216273536
 30
0.0
 10
-7.2132333209
 20
5.3712361452
 30
0.0
 10
-7.2134724857
 20
5.2971317575
 30
0.0
 10
-7.21386729
 20
5.226554843
 30
0.0
 10
-7.2143970092
 20
5.1611651169
 30
0.0
 10
-7.2150813452
 20
5.1025166632
 30
0.0
 10
-7.2157982204
 20
5.0519536442
 30
0.0
 10
-7.2168186631
 20
5.0107706273
 30
0.0
 10
-7.217342867
 20
4.979667217
 30
0.0
 10
-7.2189959429
 20
4.9599596004
 30
0.0
 10
-7.2188545332
 20
4.9500772454
 30
0.0
 10
-7.2199203571
 20
4.9474105162
 30
0.0
 11
-7.2131797205
 21
5.4471219176
 31
0.0
 11
-7.2132618844
 21
5.3706382697
 31
0.0
 11
-7.2135064802
 21
5.2959486545
 31
0.0
 11
-7.2139079108
 21
5.2248099296
 31
0.0
 11
-7.2144566126
 21
5.1589062964
 31
0.0
 11
-7.215139767
 21
5.0997870769
 31
0.0
 11
-7.2159412632
 21
5.048845417
 31
0.0
 11
-7.2168421442
 21
5.0072817138
 31
0.0
 11
-7.2178214298
 21
4.9760738757
 31
0.0
 11
-7.2188554326
 21
4.9559599467
 31
0.0
 11
-7.2199203571
 21
4.9474105162
 31
0.0
  0
SPLINE
  5
60F
100
AcDbEntity
  8
ASSI
100
AcDbSpline
 62
253
  6
CONTINUOUS
 70
0
 71
3
 72
17
 73
13
 74
11
 42
0.0000001
 43
0.0000001
 44
0.0000000001
 12
-0.1855069271
 22
0.4641448815
 32
0.0
 13
-0.000001509
 23
0.4998432665
 33
0.0
 40
0.0
 40
0.0
 40
0.0
 40
0.0
 40
0.0172364015
 40
0.0575300106
 40
0.1199959897
 40
0.2031689922
 40
0.3050968727
 40
0.4233802836
 40
0.5552334501
 40
0.6975577792
 40
0.8469846509
 40
1.0
 40
1.0
 40
1.0
 40
1.0
 10
-7.1036827105
 20
4.9474105162
 30
0.0
 10
-7.1047485344
 20
4.9500772454
 30
0.0
 10
-7.1046071245
 20
4.9599596005
 30
0.0
 10
-7.1062602006
 20
4.9796672171
 30
0.0
 10
-7.1067844044
 20
5.0107706274
 30
0.0
 10
-7.1078048472
 20
5.0519536443
 30
0.0
 10
-7.1085217224
 20
5.1025166634
 30
0.0
 10
-7.1092060583
 20
5.1611651171
 30
0.0
 10
-7.1097357775
 20
5.2265548433
 30
0.0
 10
-7.1101305819
 20
5.2971317578
 30
0.0
 10
-7.1103697466
 20
5.3712361454
 30
0.0
 10
-7.1104232701
 20
5.4216273538
 30
0.0
 10
-7.1104233471
 20
5.4471219177
 30
0.0
 11
-7.1036827105
 21
4.9474105162
 31
0.0
 11
-7.104747635
 21
4.9559599468
 31
0.0
 11
-7.1057816378
 21
4.9760738758
 31
0.0
 11
-7.1067609233
 21
5.0072817139
 31
0.0
 11
-7.1076618043
 21
5.0488454172
 31
0.0
 11
-7.1084633006
 21
5.0997870771
 31
0.0
 11
-7.1091464549
 21
5.1589062966
 31
0.0
 11
-7.1096951567
 21
5.2248099298
 31
0.0
 11
-7.1100965874
 21
5.2959486548
 31
0.0
 11
-7.1103411832
 21
5.3706382699
 31
0.0
 11
-7.1104233471
 21
5.4471219177
 31
0.0
  0
SPLINE
  5
610
100
AcDbEntity
  8
ASSI
100
AcDbSpline
 62
253
  6
CONTINUOUS
 70
0
 71
3
 72
13
 73
9
 74
7
 42
0.0000001
 43
0.0000001
 44
0.0000000001
 12
0.0049371296
 22
-0.3535273384
 32
0.0
 13
0.000000663
 23
-0.3535618111
 33
0.0
 40
0.0
 40
0.0
 40
0.0
 40
0.0
 40
0.1390722399
 40
0.2928914527
 40
0.4588232532
 40
0.6340132458
 40
0.8154446221
 40
1.0
 40
1.0
 40
1.0
 40
1.0
 10
-7.2152253483
 20
7.1517935147
 30
0.0
 10
-7.2149964758
 20
7.1354049018
 30
0.0
 10
-7.2145799025
 20
7.1008889321
 30
0.0
 10
-7.2140814571
 20
7.0468170491
 30
0.0
 10
-7.2136837256
 20
6.9884876081
 30
0.0
 10
-7.2133944797
 20
6.9269032973
 30
0.0
 10
-7.2132188631
 20
6.8631236925
 30
0.0
 10
-7.2131797778
 20
6.819990702
 30
0.0
 10
-7.213179737
 20
6.7982401241
 30
0.0
 11
-7.2152253483
 21
7.1517935147
 31
0.0
 11
-7.2146230594
 21
7.1026265706
 31
0.0
 11
-7.214115539
 21
7.0482443393
 31
0.0
 11
-7.2137113495
 21
6.9895785837
 31
0.0
 11
-7.213417644
 21
6.927638789
 31
0.0
 11
-7.2132394584
 21
6.8634918305
 31
0.0
 11
-7.213179737
 21
6.7982401241
 31
0.0
  0
SPLINE
  5
611
100
AcDbEntity
  8
ASSI
100
AcDbSpline
 62
253
  6
CONTINUOUS
 70
0
 71
3
 72
13
 73
9
 74
7
 42
0.0000001
 43
0.0000001
 44
0.0000000001
 12
0.000000663
 22
0.3535618111
 32
0.0
 13
0.0049371293
 23
0.3535273384
 33
0.0
 40
0.0
 40
0.0
 40
0.0
 40
0.0
 40
0.184555379
 40
0.3659867553
 40
0.5411767479
 40
0.7071085483
 40
0.8609277611
 40
1.0
 40
1.0
 40
1.0
 40
1.0
 10
-7.1104233305
 20
6.7982401241
 30
0.0
 10
-7.1104232898
 20
6.8199907022
 30
0.0
 10
-7.1103842045
 20
6.8631236928
 30
0.0
 10
-7.1102085878
 20
6.9269032977
 30
0.0
 10
-7.109919342
 20
6.9884876085
 30
0.0
 10
-7.1095216105
 20
7.0468170494
 30
0.0
 10
-7.1090231651
 20
7.1008889323
 30
0.0
 10
-7.1086065918
 20
7.1354049019
 30
0.0
 10
-7.1083777192
 20
7.1517935147
 30
0.0
 11
-7.1104233305
 21
6.7982401241
 31
0.0
 11
-7.1103636091
 21
6.8634918309
 31
0.0
 11
-7.1101854235
 21
6.9276387894
 31
0.0
 11
-7.109891718
 21
6.9895785841
 31
0.0
 11
-7.1094875286
 21
7.0482443396
 31
0.0
 11
-7.1089800081
 21
7.1026265709
 31
0.0
 11
-7.1083777192
 21
7.1517935147
 31
0.0
  0
SPLINE
  5
612
100
AcDbEntity
  8
ASSI
100
AcDbSpline
 62
253
  6
CONTINUOUS
 70
0
 71
3
 72
15
 73
11
 74
9
 42
0.0000001
 43
0.0000001
 44
0.0000000001
 12
-0.4014143352
 22
-0.0070088515
 32
0.0
 13
-0.0139942492
 23
-0.401231546
 33
0.0
 40
0.0
 40
0.0
 40
0.0
 40
0.0
 40
0.1440045699
 40
0.2856957779
 40
0.4226392486
 40
0.5528846346
 40
0.6752427483
 40
0.7895687529
 40
0.8969985064
 40
1.0
 40
1.0
 40
1.0
 40
1.0
 10
-7.2152253483
 20
7.1517935147
 30
0.0
 10
-7.2344938479
 20
7.1514570792
 30
0.0
 10
-7.2727280224
 20
7.1481878024
 30
0.0
 10
-7.3280623008
 20
7.1356484257
 30
0.0
 10
-7.3793240379
 20
7.1159213537
 30
0.0
 10
-7.4246483608
 20
7.0896841049
 30
0.0
 10
-7.4623894541
 20
7.0578197148
 30
0.0
 10
-7.4911194968
 20
7.0213619174
 30
0.0
 10
-7.5096256708
 20
6.9815725921
 30
0.0
 10
-7.5145621202
 20
6.9534372965
 30
0.0
 10
-7.5150425964
 20
6.9396614804
 30
0.0
 11
-7.2152253483
 21
7.1517935147
 31
0.0
 11
-7.2728269205
 21
7.1468383896
 31
0.0
 11
-7.3282836859
 21
7.1341690126
 31
0.0
 11
-7.3795307061
 21
7.1142571328
 31
0.0
 11
-7.4246597949
 21
7.0878441745
 31
0.0
 11
-7.4619905705
 21
7.0559136301
 31
0.0
 11
-7.4901330243
 21
7.019654439
 31
0.0
 11
-7.5080392772
 21
6.9804167161
 31
0.0
 11
-7.5150425964
 21
6.9396614804
 31
0.0
  0
SPLINE
  5
613
100
AcDbEntity
  8
ASSI
100
AcDbSpline
 62
253
  6
CONTINUOUS
 70
0
 71
3
 72
15
 73
11
 74
9
 42
0.0000001
 43
0.0000001
 44
0.0000000001
 12
-0.4014143357
 22
-0.0070088488
 32
0.0
 13
-0.0139942489
 23
-0.4012315464
 33
0.0
 40
0.0
 40
0.0
 40
0.0
 40
0.0
 40
0.1440044844
 40
0.2856956272
 40
0.4226390599
 40
0.5528844372
 40
0.67524257
 40
0.7895686166
 40
0.89699843
 40
1.0
 40
1.0
 40
1.0
 40
1.0
 10
-7.2364259843
 20
7.7589002959
 30
0.0
 10
-7.2556944724
 20
7.7585638607
 30
0.0
 10
-7.2939286268
 20
7.7552945874
 30
0.0
 10
-7.3492628819
 20
7.742755223
 30
0.0
 10
-7.4005246085
 20
7.7230281661
 30
0.0
 10
-7.4458489346
 20
7.6967909303
 30
0.0
 10
-7.4835900424
 20
7.6649265465
 30
0.0
 10
-7.5123201061
 20
7.6284687448
 30
0.0
 10
-7.5308263003
 20
7.5886794018
 30
0.0
 10
-7.5357627559
 20
7.560544088
 30
0.0
 10
-7.5362432324
 20
7.5467682616
 30
0.0
 11
-7.2364259843
 21
7.7589002959
 31
0.0
 11
-7.2940275225
 21
7.7539451764
 31
0.0
 11
-7.3494842641
 21
7.7412758121
 31
0.0
 11
-7.4007312738
 21
7.7213639476
 31
0.0
 11
-7.4458603663
 21
7.6949510022
 31
0.0
 11
-7.4831911571
 21
7.6630204637
 31
0.0
 11
-7.5113336319
 21
7.6267612675
 31
0.0
 11
-7.529239904
 21
7.5875235269
 31
0.0
 11
-7.5362432324
 21
7.5467682616
 31
0.0
  0
ELLIPSE
  5
614
100
AcDbEntity
  8
RACCORDO
100
AcDbEllipse
 62
7
  6
CONTINUOUS
 10
10.6250487601
 20
-10.555564839
 30
0.0
 11
0.498078285
 21
0.0448076117
 31
0.0
 40
0.9965957691
 41
-1.6608206152
 42
-0.0909376769
  0
ELLIPSE
  5
615
100
AcDbEntity
  8
RACCORDO
100
AcDbEllipse
 62
7
  6
CONTINUOUS
 10
-10.6486518276
 20
-10.555564839
 30
0.0
 11
0.498078285
 21
-0.0448076117
 31
0.0
 40
0.9965957691
 41
-3.0506549766
 42
-1.4807720384
  0
ELLIPSE
  5
616
100
AcDbEntity
  8
RACCORDO
100
AcDbEllipse
 62
7
  6
CONTINUOUS
 10
10.9381680006
 20
10.8053392896
 30
0.0
 11
-0.1789222233
 21
-0.0894542984
 31
-0.0
 40
0.9998096356
 41
2.6780516535
 42
4.2486956813
  0
ELLIPSE
  5
617
100
AcDbEntity
  8
RACCORDO
100
AcDbEllipse
 62
7
  6
CONTINUOUS
 10
-10.9617710682
 20
10.8053392896
 30
0.0
 11
-0.1789222233
 21
0.0894542984
 31
-0.0
 40
0.9998096356
 41
-1.1071030277
 42
0.4635410001
  0
ELLIPSE
  5
618
100
AcDbEntity
  8
RACCORDO
100
AcDbEllipse
 62
7
  6
CONTINUOUS
 10
-7.2963314799
 20
-11.0273734203
 30
0.0
 11
0.2
 21
0.0
 31
0.0
 40
0.0524077793
 41
1.5707963268
 42
2.617993878
  0
ELLIPSE
  5
619
100
AcDbEntity
  8
RACCORDO
100
AcDbEllipse
 62
7
  6
CONTINUOUS
 10
-3.9272715876
 20
-11.0273734203
 30
0.0
 11
0.2
 21
0.0
 31
0.0
 40
0.0524077793
 41
0.5235987756
 42
1.5707963268
  0
ELLIPSE
  5
61A
100
AcDbEntity
  8
RACCORDO
100
AcDbEllipse
 62
7
  6
CONTINUOUS
 10
3.9036685201
 20
-11.0273734203
 30
0.0
 11
0.2
 21
0.0
 31
0.0
 40
0.0524077793
 41
1.5707963268
 42
2.617993878
  0
ELLIPSE
  5
61B
100
AcDbEntity
  8
RACCORDO
100
AcDbEllipse
 62
7
  6
CONTINUOUS
 10
7.2727284124
 20
-11.0273734203
 30
0.0
 11
0.2
 21
0.0
 31
0.0
 40
0.0524077793
 41
0.5235987756
 42
1.5707963268
  0
ELLIPSE
  5
61C
100
AcDbEntity
  8
RACCORDO
100
AcDbEllipse
 62
7
  6
CONTINUOUS
 10
5.5182184783
 20
-8.6620603114
 30
0.0
 11
0.0096324734
 21
0.5915363915
 31
0.0
 40
0.4225722455
 41
-4.6738730357
 42
-3.1347116709
  0
ELLIPSE
  5
61D
100
AcDbEntity
  8
RACCORDO
100
AcDbEllipse
 62
7
  6
CONTINUOUS
 10
-5.5418215459
 20
-8.6620603114
 30
0.0
 11
-0.0096324734
 21
0.5915363915
 31
0.0
 40
0.4225722455
 41
-3.1484736363
 42
-1.6093122714
  0
ELLIPSE
  5
61E
100
AcDbEntity
  8
RACCORDO
100
AcDbEllipse
 62
7
  6
CONTINUOUS
 10
-5.6817815217
 20
-8.6620603114
 30
0.0
 11
0.0096324734
 21
0.5915363915
 31
0.0
 40
0.4225722455
 41
-4.6738730357
 42
-3.1347116709
  0
ELLIPSE
  5
61F
100
AcDbEntity
  8
RACCORDO
100
AcDbEllipse
 62
7
  6
CONTINUOUS
 10
-5.5208690842
 20
-6.2485097476
 30
0.0
 11
0.0493464685
 21
0.2491672984
 31
0.0
 40
0.9842259085
 41
0.1636613736
 42
0.1925076875
  0
ELLIPSE
  5
620
100
AcDbEntity
  8
RACCORDO
100
AcDbEllipse
 62
7
  6
CONTINUOUS
 10
-5.7027339834
 20
-6.2485097476
 30
0.0
 11
-0.0493464685
 21
0.2491672984
 31
0.0
 40
0.9842259085
 41
-0.1925076875
 42
-0.1636613736
  0
ELLIPSE
  5
621
100
AcDbEntity
  8
RACCORDO
100
AcDbEllipse
 62
7
  6
CONTINUOUS
 10
5.6791309158
 20
-6.2485097476
 30
0.0
 11
0.0493464685
 21
0.2491672984
 31
0.0
 40
0.9842259085
 41
0.1636613736
 42
0.1925076875
  0
ELLIPSE
  5
622
100
AcDbEntity
  8
RACCORDO
100
AcDbEllipse
 62
7
  6
CONTINUOUS
 10
5.4972660166
 20
-6.2485097476
 30
0.0
 11
-0.0493464685
 21
0.2491672984
 31
0.0
 40
0.9842259085
 41
-0.1925076875
 42
-0.1636613736
  0
ELLIPSE
  5
623
100
AcDbEntity
  8
RACCORDO
100
AcDbEllipse
 62
7
  6
CONTINUOUS
 10
9.8317836063
 20
11.1053469053
 30
0.0
 11
0.0
 21
498.5
 31
0.0
 40
0.0349207695
 41
-4.7097523516
 42
-4.7005263624
  0
ELLIPSE
  5
624
100
AcDbEntity
  8
RACCORDO
100
AcDbEllipse
 62
7
  6
CONTINUOUS
 10
-24.1553866738
 20
11.1053469053
 30
0.0
 11
0.0
 21
498.5
 31
0.0
 40
0.0349207695
 41
-1.5826589448
 42
-1.5734329556
  0
ELLIPSE
  5
625
100
AcDbEntity
  8
RACCORDO
100
AcDbEllipse
 62
7
  6
CONTINUOUS
 10
24.1317836063
 20
11.1053469053
 30
0.0
 11
0.0
 21
498.5
 31
0.0
 40
0.0349207695
 41
-4.7097523516
 42
-4.7005263624
  0
ELLIPSE
  5
626
100
AcDbEntity
  8
RACCORDO
100
AcDbEllipse
 62
7
  6
CONTINUOUS
 10
-9.8553866738
 20
11.1053469053
 30
0.0
 11
0.0
 21
498.5
 31
0.0
 40
0.0349207695
 41
-1.5826589448
 42
-1.5734329556
  0
ELLIPSE
  5
627
100
AcDbEntity
  8
RACCORDO
100
AcDbEllipse
 62
7
  6
CONTINUOUS
 10
7.221005362
 20
9.8223571463
 30
0.0
 11
0.3
 21
0.0
 31
0.0
 40
0.0349207695
 41
0.034906585
 42
1.5707963268
  0
ELLIPSE
  5
628
100
AcDbEntity
  8
RACCORDO
100
AcDbEllipse
 62
7
  6
CONTINUOUS
 10
-22.6053866738
 20
11.1053469053
 30
0.0
 11
0.0
 21
498.5
 31
0.0
 40
0.0349207695
 41
-1.6111588629
 42
-1.6025912052
  0
ELLIPSE
  5
629
100
AcDbEntity
  8
RACCORDO
100
AcDbEllipse
 62
7
  6
CONTINUOUS
 10
-5.2185396108
 20
-9.0018442281
 30
0.0
 11
-0.0
 21
0.2
 31
0.0
 40
0.0349207695
 41
-3.019419606
 42
-1.6111588629
  0
ELLIPSE
  5
62A
100
AcDbEntity
  8
RACCORDO
100
AcDbEllipse
 62
7
  6
CONTINUOUS
 10
-6.0050634567
 20
-9.0018442281
 30
0.0
 11
-0.0
 21
0.2
 31
0.0
 40
0.0349207695
 41
-4.6720264443
 42
-3.2637657012
  0
ELLIPSE
  5
62B
100
AcDbEntity
  8
RACCORDO
100
AcDbEllipse
 62
7
  6
CONTINUOUS
 10
11.3817836063
 20
11.1053469053
 30
0.0
 11
0.0
 21
498.5
 31
0.0
 40
0.0349207695
 41
-4.680594102
 42
-4.6720264443
  0
ELLIPSE
  5
62C
100
AcDbEntity
  8
RACCORDO
100
AcDbEllipse
 62
7
  6
CONTINUOUS
 10
-11.4053866738
 20
11.1053469053
 30
0.0
 11
0.0
 21
498.5
 31
0.0
 40
0.0349207695
 41
-1.6111588629
 42
-1.6025912052
  0
ELLIPSE
  5
62D
100
AcDbEntity
  8
RACCORDO
100
AcDbEllipse
 62
7
  6
CONTINUOUS
 10
5.9814603892
 20
-9.0018442281
 30
0.0
 11
0.0
 21
0.2
 31
0.0
 40
0.0349207695
 41
-3.019419606
 42
-1.6111588629
  0
ELLIPSE
  5
62E
100
AcDbEntity
  8
RACCORDO
100
AcDbEllipse
 62
7
  6
CONTINUOUS
 10
5.1949365433
 20
-9.0018442281
 30
0.0
 11
-0.0
 21
0.2
 31
0.0
 40
0.0349207695
 41
-4.6720264443
 42
-3.2637657012
  0
ELLIPSE
  5
62F
100
AcDbEntity
  8
RACCORDO
100
AcDbEllipse
 62
7
  6
CONTINUOUS
 10
22.5817836063
 20
11.1053469053
 30
0.0
 11
0.0
 21
498.5
 31
0.0
 40
0.0349207695
 41
-4.680594102
 42
-4.6720264443
  0
ELLIPSE
  5
630
100
AcDbEntity
  8
RACCORDO
100
AcDbEllipse
 62
7
  6
CONTINUOUS
 10
3.5281362048
 20
7.3848445874
 30
0.0
 11
0.3
 21
-0.0
 31
0.0
 40
0.0349207695
 41
-1.5707963268
 42
-0.3490658504
  0
ELLIPSE
  5
631
100
AcDbEntity
  8
RACCORDO
100
AcDbEllipse
 62
7
  6
CONTINUOUS
 10
-3.5517392723
 20
7.3848445874
 30
0.0
 11
0.3
 21
0.0
 31
0.0
 40
0.0349207695
 41
-2.7925268032
 42
-1.5707963268
  0
ELLIPSE
  5
632
100
AcDbEntity
  8
RACCORDO
100
AcDbEllipse
 62
7
  6
CONTINUOUS
 10
3.5281362048
 20
5.8258492232
 30
0.0
 11
0.3
 21
-0.0
 31
0.0
 40
0.0349207695
 41
0.3490658504
 42
1.5707963268
  0
ELLIPSE
  5
633
100
AcDbEntity
  8
RACCORDO
100
AcDbEllipse
 62
7
  6
CONTINUOUS
 10
-3.5517392723
 20
5.8258492232
 30
0.0
 11
0.3
 21
0.0
 31
0.0
 40
0.0349207695
 41
1.5707963268
 42
2.7925268032
  0
ELLIPSE
  5
634
100
AcDbEntity
  8
RACCORDO
100
AcDbEllipse
 62
7
  6
CONTINUOUS
 10
7.0553915704
 20
9.8223571463
 30
0.0
 11
0.3
 21
0.0
 31
0.0
 40
0.0349207695
 41
1.5707963268
 42
3.1066860685
  0
ELLIPSE
  5
635
100
AcDbEntity
  8
RACCORDO
100
AcDbEllipse
 62
7
  6
CONTINUOUS
 10
-7.078994638
 20
9.8223571463
 30
0.0
 11
0.3
 21
0.0
 31
0.0
 40
0.0349207695
 41
0.034906585
 42
1.5707963268
  0
ELLIPSE
  5
636
100
AcDbEntity
  8
RACCORDO
100
AcDbEllipse
 62
7
  6
CONTINUOUS
 10
-7.2963314799
 20
-9.4850331655
 30
0.0
 11
0.2
 21
-0.0
 31
0.0
 40
0.1227845609
 41
1.5707963268
 42
2.617993878
  0
ELLIPSE
  5
637
100
AcDbEntity
  8
RACCORDO
100
AcDbEllipse
 62
7
  6
CONTINUOUS
 10
-3.9272715876
 20
-9.4850331655
 30
0.0
 11
0.2
 21
-0.0
 31
0.0
 40
0.1227845609
 41
0.5235987756
 42
1.5707963268
  0
ELLIPSE
  5
638
100
AcDbEntity
  8
RACCORDO
100
AcDbEllipse
 62
7
  6
CONTINUOUS
 10
3.9036685201
 20
-9.4850331655
 30
0.0
 11
0.2
 21
-0.0
 31
0.0
 40
0.1227845609
 41
1.5707963268
 42
2.617993878
  0
ELLIPSE
  5
639
100
AcDbEntity
  8
RACCORDO
100
AcDbEllipse
 62
7
  6
CONTINUOUS
 10
7.2727284124
 20
-9.4850331655
 30
0.0
 11
0.2
 21
0.0
 31
0.0
 40
0.1227845609
 41
0.5235987756
 42
1.5707963268
  0
ELLIPSE
  5
63A
100
AcDbEntity
  8
RACCORDO
100
AcDbEllipse
 62
7
  6
CONTINUOUS
 10
-7.2446084296
 20
9.8223571463
 30
0.0
 11
0.3
 21
0.0
 31
0.0
 40
0.0349207695
 41
1.5707963268
 42
3.1066860685
  0
ELLIPSE
  5
63B
100
AcDbEntity
  8
RACCORDO
100
AcDbEllipse
 62
7
  6
CONTINUOUS
 10
9.6769141399
 20
-9.3639878408
 30
0.0
 11
0.1992395838
 21
-0.0178260286
 31
0.0
 40
0.9965982379
 41
-1.4812606428
 42
0.0874087691
  0
ELLIPSE
  5
63C
100
AcDbEntity
  8
RACCORDO
100
AcDbEllipse
 62
7
  6
CONTINUOUS
 10
5.6581784541
 20
-8.6620603114
 30
0.0
 11
-0.0096324734
 21
0.5915363915
 31
0.0
 40
0.4225722455
 41
-3.1484736363
 42
-1.6093122714
  0
ELLIPSE
  5
63D
100
AcDbEntity
  8
RACCORDO
100
AcDbEllipse
 62
7
  6
CONTINUOUS
 10
-9.7005172075
 20
-9.3639878408
 30
0.0
 11
0.1992395838
 21
0.0178260286
 31
0.0
 40
0.9965982379
 41
3.0541838845
 42
4.6228532963
  0
ELLIPSE
  5
63E
100
AcDbEntity
  8
ASSI
100
AcDbEllipse
 62
7
  6
CONTINUOUS
 10
10.6250487601
 20
-10.555564839
 30
0.0
 11
0.498078285
 21
0.0448076117
 31
0.0
 40
0.9965957691
 41
-1.6608206152
 42
-0.0909376769
  0
ELLIPSE
  5
63F
100
AcDbEntity
  8
ASSI
100
AcDbEllipse
 62
7
  6
CONTINUOUS
 10
-10.6486518276
 20
-10.555564839
 30
0.0
 11
0.498078285
 21
-0.0448076117
 31
0.0
 40
0.9965957691
 41
-3.0506549766
 42
-1.4807720384
  0
ELLIPSE
  5
640
100
AcDbEntity
  8
ASSI
100
AcDbEllipse
 62
7
  6
CONTINUOUS
 10
10.9381680006
 20
10.8053392896
 30
0.0
 11
-0.1789222233
 21
-0.0894542984
 31
-0.0
 40
0.9998096356
 41
2.6780516535
 42
4.2486956813
  0
ELLIPSE
  5
641
100
AcDbEntity
  8
ASSI
100
AcDbEllipse
 62
7
  6
CONTINUOUS
 10
-10.9617710682
 20
10.8053392896
 30
0.0
 11
-0.1789222233
 21
0.0894542984
 31
-0.0
 40
0.9998096356
 41
-1.1071030277
 42
0.4635410001
  0
ELLIPSE
  5
642
100
AcDbEntity
  8
ASSI
100
AcDbEllipse
 62
7
  6
CONTINUOUS
 10
-7.2963314799
 20
-11.0273734203
 30
0.0
 11
0.2
 21
0.0
 31
0.0
 40
0.0524077793
 41
1.5707963268
 42
2.617993878
  0
ELLIPSE
  5
643
100
AcDbEntity
  8
ASSI
100
AcDbEllipse
 62
7
  6
CONTINUOUS
 10
-3.9272715876
 20
-11.0273734203
 30
0.0
 11
0.2
 21
0.0
 31
0.0
 40
0.0524077793
 41
0.5235987756
 42
1.5707963268
  0
ELLIPSE
  5
644
100
AcDbEntity
  8
ASSI
100
AcDbEllipse
 62
7
  6
CONTINUOUS
 10
3.9036685201
 20
-11.0273734203
 30
0.0
 11
0.2
 21
0.0
 31
0.0
 40
0.0524077793
 41
1.5707963268
 42
2.617993878
  0
ELLIPSE
  5
645
100
AcDbEntity
  8
ASSI
100
AcDbEllipse
 62
7
  6
CONTINUOUS
 10
7.2727284124
 20
-11.0273734203
 30
0.0
 11
0.2
 21
0.0
 31
0.0
 40
0.0524077793
 41
0.5235987756
 42
1.5707963268
  0
ELLIPSE
  5
646
100
AcDbEntity
  8
ASSI
100
AcDbEllipse
 62
7
  6
CONTINUOUS
 10
5.5182184783
 20
-8.6620603114
 30
0.0
 11
0.0096324734
 21
0.5915363915
 31
0.0
 40
0.4225722455
 41
-4.6738730357
 42
-3.1347116709
  0
ELLIPSE
  5
647
100
AcDbEntity
  8
ASSI
100
AcDbEllipse
 62
7
  6
CONTINUOUS
 10
9.8317836063
 20
11.1053469053
 30
0.0
 11
0.0
 21
498.5
 31
0.0
 40
0.0349207695
 41
-4.7097523516
 42
-4.7005263624
  0
ELLIPSE
  5
648
100
AcDbEntity
  8
ASSI
100
AcDbEllipse
 62
7
  6
CONTINUOUS
 10
-24.1553866738
 20
11.1053469053
 30
0.0
 11
0.0
 21
498.5
 31
0.0
 40
0.0349207695
 41
-1.5826589448
 42
-1.5734329556
  0
ELLIPSE
  5
649
100
AcDbEntity
  8
ASSI
100
AcDbEllipse
 62
7
  6
CONTINUOUS
 10
24.1317836063
 20
11.1053469053
 30
0.0
 11
0.0
 21
498.5
 31
0.0
 40
0.0349207695
 41
-4.7097523516
 42
-4.7005263624
  0
ELLIPSE
  5
64A
100
AcDbEntity
  8
ASSI
100
AcDbEllipse
 62
7
  6
CONTINUOUS
 10
-9.8553866738
 20
11.1053469053
 30
0.0
 11
0.0
 21
498.5
 31
0.0
 40
0.0349207695
 41
-1.5826589448
 42
-1.5734329556
  0
ELLIPSE
  5
64B
100
AcDbEntity
  8
ASSI
100
AcDbEllipse
 62
7
  6
CONTINUOUS
 10
-5.5418215459
 20
-8.6620603114
 30
0.0
 11
-0.0096324734
 21
0.5915363915
 31
0.0
 40
0.4225722455
 41
-3.1484736363
 42
-1.6093122714
  0
ELLIPSE
  5
64C
100
AcDbEntity
  8
ASSI
100
AcDbEllipse
 62
7
  6
CONTINUOUS
 10
-5.6817815217
 20
-8.6620603114
 30
0.0
 11
0.0096324734
 21
0.5915363915
 31
0.0
 40
0.4225722455
 41
-4.6738730357
 42
-3.1347116709
  0
ELLIPSE
  5
64D
100
AcDbEntity
  8
ASSI
100
AcDbEllipse
 62
7
  6
CONTINUOUS
 10
-5.5208690842
 20
-6.2485097476
 30
0.0
 11
0.0493464685
 21
0.2491672984
 31
0.0
 40
0.9842259085
 41
0.1636613736
 42
0.1925076875
  0
ELLIPSE
  5
64E
100
AcDbEntity
  8
ASSI
100
AcDbEllipse
 62
7
  6
CONTINUOUS
 10
-5.7027339834
 20
-6.2485097476
 30
0.0
 11
-0.0493464685
 21
0.2491672984
 31
0.0
 40
0.9842259085
 41
-0.1925076875
 42
-0.1636613736
  0
ELLIPSE
  5
64F
100
AcDbEntity
  8
ASSI
100
AcDbEllipse
 62
7
  6
CONTINUOUS
 10
5.6791309158
 20
-6.2485097476
 30
0.0
 11
0.0493464685
 21
0.2491672984
 31
0.0
 40
0.9842259085
 41
0.1636613736
 42
0.1925076875
  0
ELLIPSE
  5
650
100
AcDbEntity
  8
ASSI
100
AcDbEllipse
 62
7
  6
CONTINUOUS
 10
5.4972660166
 20
-6.2485097476
 30
0.0
 11
-0.0493464685
 21
0.2491672984
 31
0.0
 40
0.9842259085
 41
-0.1925076875
 42
-0.1636613736
  0
ELLIPSE
  5
651
100
AcDbEntity
  8
ASSI
100
AcDbEllipse
 62
7
  6
CONTINUOUS
 10
5.6581784541
 20
-8.6620603114
 30
0.0
 11
-0.0096324734
 21
0.5915363915
 31
0.0
 40
0.4225722455
 41
-3.1484736363
 42
-1.6093122714
  0
ELLIPSE
  5
652
100
AcDbEntity
  8
ASSI
100
AcDbEllipse
 62
7
  6
CONTINUOUS
 10
-22.6053866738
 20
11.1053469053
 30
0.0
 11
0.0
 21
498.5
 31
0.0
 40
0.0349207695
 41
-1.6111588629
 42
-1.6025912052
  0
ELLIPSE
  5
653
100
AcDbEntity
  8
ASSI
100
AcDbEllipse
 62
7
  6
CONTINUOUS
 10
-5.2185396108
 20
-9.0018442281
 30
0.0
 11
-0.0
 21
0.2
 31
0.0
 40
0.0349207695
 41
-3.019419606
 42
-1.6111588629
  0
ELLIPSE
  5
654
100
AcDbEntity
  8
ASSI
100
AcDbEllipse
 62
7
  6
CONTINUOUS
 10
-6.0050634567
 20
-9.0018442281
 30
0.0
 11
-0.0
 21
0.2
 31
0.0
 40
0.0349207695
 41
-4.6720264443
 42
-3.2637657012
  0
ELLIPSE
  5
655
100
AcDbEntity
  8
ASSI
100
AcDbEllipse
 62
7
  6
CONTINUOUS
 10
11.3817836063
 20
11.1053469053
 30
0.0
 11
0.0
 21
498.5
 31
0.0
 40
0.0349207695
 41
-4.680594102
 42
-4.6720264443
  0
ELLIPSE
  5
656
100
AcDbEntity
  8
ASSI
100
AcDbEllipse
 62
7
  6
CONTINUOUS
 10
-11.4053866738
 20
11.1053469053
 30
0.0
 11
0.0
 21
498.5
 31
0.0
 40
0.0349207695
 41
-1.6111588629
 42
-1.6025912052
  0
ELLIPSE
  5
657
100
AcDbEntity
  8
ASSI
100
AcDbEllipse
 62
7
  6
CONTINUOUS
 10
5.9814603892
 20
-9.0018442281
 30
0.0
 11
0.0
 21
0.2
 31
0.0
 40
0.0349207695
 41
-3.019419606
 42
-1.6111588629
  0
ELLIPSE
  5
658
100
AcDbEntity
  8
ASSI
100
AcDbEllipse
 62
7
  6
CONTINUOUS
 10
5.1949365433
 20
-9.0018442281
 30
0.0
 11
-0.0
 21
0.2
 31
0.0
 40
0.0349207695
 41
-4.6720264443
 42
-3.2637657012
  0
ELLIPSE
  5
659
100
AcDbEntity
  8
ASSI
100
AcDbEllipse
 62
7
  6
CONTINUOUS
 10
22.5817836063
 20
11.1053469053
 30
0.0
 11
0.0
 21
498.5
 31
0.0
 40
0.0349207695
 41
-4.680594102
 42
-4.6720264443
  0
ELLIPSE
  5
65A
100
AcDbEntity
  8
ASSI
100
AcDbEllipse
 62
7
  6
CONTINUOUS
 10
3.5281362048
 20
7.3848445874
 30
0.0
 11
0.3
 21
-0.0
 31
0.0
 40
0.0349207695
 41
-1.5707963268
 42
-0.3490658504
  0
ELLIPSE
  5
65B
100
AcDbEntity
  8
ASSI
100
AcDbEllipse
 62
7
  6
CONTINUOUS
 10
-3.5517392723
 20
7.3848445874
 30
0.0
 11
0.3
 21
0.0
 31
0.0
 40
0.0349207695
 41
-2.7925268032
 42
-1.5707963268
  0
ELLIPSE
  5
65C
100
AcDbEntity
  8
ASSI
100
AcDbEllipse
 62
7
  6
CONTINUOUS
 10
3.5281362048
 20
5.8258492232
 30
0.0
 11
0.3
 21
-0.0
 31
0.0
 40
0.0349207695
 41
0.3490658504
 42
1.5707963268
  0
ELLIPSE
  5
65D
100
AcDbEntity
  8
ASSI
100
AcDbEllipse
 62
7
  6
CONTINUOUS
 10
-3.5517392723
 20
5.8258492232
 30
0.0
 11
0.3
 21
0.0
 31
0.0
 40
0.0349207695
 41
1.5707963268
 42
2.7925268032
  0
ELLIPSE
  5
65E
100
AcDbEntity
  8
ASSI
100
AcDbEllipse
 62
7
  6
CONTINUOUS
 10
7.221005362
 20
9.8223571463
 30
0.0
 11
0.3
 21
0.0
 31
0.0
 40
0.0349207695
 41
0.034906585
 42
1.5707963268
  0
ELLIPSE
  5
65F
100
AcDbEntity
  8
ASSI
100
AcDbEllipse
 62
7
  6
CONTINUOUS
 10
7.0553915704
 20
9.8223571463
 30
0.0
 11
0.3
 21
0.0
 31
0.0
 40
0.0349207695
 41
1.5707963268
 42
3.1066860685
  0
ELLIPSE
  5
660
100
AcDbEntity
  8
ASSI
100
AcDbEllipse
 62
7
  6
CONTINUOUS
 10
-7.2963314799
 20
-9.4850331655
 30
0.0
 11
0.2
 21
-0.0
 31
0.0
 40
0.1227845609
 41
1.5707963268
 42
2.617993878
  0
ELLIPSE
  5
661
100
AcDbEntity
  8
ASSI
100
AcDbEllipse
 62
7
  6
CONTINUOUS
 10
-3.9272715876
 20
-9.4850331655
 30
0.0
 11
0.2
 21
-0.0
 31
0.0
 40
0.1227845609
 41
0.5235987756
 42
1.5707963268
  0
ELLIPSE
  5
662
100
AcDbEntity
  8
ASSI
100
AcDbEllipse
 62
7
  6
CONTINUOUS
 10
3.9036685201
 20
-9.4850331655
 30
0.0
 11
0.2
 21
-0.0
 31
0.0
 40
0.1227845609
 41
1.5707963268
 42
2.617993878
  0
ELLIPSE
  5
663
100
AcDbEntity
  8
ASSI
100
AcDbEllipse
 62
7
  6
CONTINUOUS
 10
7.2727284124
 20
-9.4850331655
 30
0.0
 11
0.2
 21
0.0
 31
0.0
 40
0.1227845609
 41
0.5235987756
 42
1.5707963268
  0
ELLIPSE
  5
664
100
AcDbEntity
  8
ASSI
100
AcDbEllipse
 62
7
  6
CONTINUOUS
 10
9.6769141399
 20
-9.3639878408
 30
0.0
 11
0.1992395838
 21
-0.0178260286
 31
0.0
 40
0.9965982379
 41
-1.4812606428
 42
0.0874087691
  0
ELLIPSE
  5
665
100
AcDbEntity
  8
ASSI
100
AcDbEllipse
 62
7
  6
CONTINUOUS
 10
-9.7005172075
 20
-9.3639878408
 30
0.0
 11
0.1992395838
 21
0.0178260286
 31
0.0
 40
0.9965982379
 41
3.0541838845
 42
4.6228532963
  0
ELLIPSE
  5
666
100
AcDbEntity
  8
ASSI
100
AcDbEllipse
 62
7
  6
CONTINUOUS
 10
-7.2446084296
 20
9.8223571463
 30
0.0
 11
0.3
 21
0.0
 31
0.0
 40
0.0349207695
 41
1.5707963268
 42
3.1066860685
  0
ELLIPSE
  5
667
100
AcDbEntity
  8
ASSI
100
AcDbEllipse
 62
7
  6
CONTINUOUS
 10
-7.078994638
 20
9.8223571463
 30
0.0
 11
0.3
 21
0.0
 31
0.0
 40
0.0349207695
 41
0.034906585
 42
1.5707963268
  0
ENDSEC
  0
SECTION
  2
OBJECTS
  0
DICTIONARY
  5
C
100
AcDbDictionary
280
0
281
1
  3
ACAD_GROUP
350
D
  3
ACAD_MLINESTYLE
350
17
  3
ACAD_LAYOUT
350
1A
  3
ACAD_PLOTSETTINGS
350
19
  3
ACAD_PLOTSTYLENAME
350
E
  0
DICTIONARY
  5
D
102
{ACAD_REACTORS
330
C
102
}
100
AcDbDictionary
280
0
281
1
  0
ACDBDICTIONARYWDFLT
  5
E
102
{ACAD_REACTORS
330
C
102
}
100
AcDbDictionary
281
1
  3
Normal
350
F
100
AcDbDictionaryWithDefault
340
F
  0
DICTIONARY
  5
17
102
{ACAD_REACTORS
330
C
102
}
100
AcDbDictionary
280
0
281
1
  3
Standard
350
18
  0
DICTIONARY
  5
19
102
{ACAD_REACTORS
330
C
102
}
100
AcDbDictionary
281
1
  0
DICTIONARY
  5
1A
102
{ACAD_REACTORS
330
C
102
}
100
AcDbDictionary
281
1
  3
Model
350
668
  3
Layout1
350
669
  0
ACDBPLACEHOLDER
  5
F
102
{ACAD_REACTORS
330
E
102
}
  0
MLINESTYLE
  5
18
102
{ACAD_REACTORS
330
17
102
}
100
AcDbMlineStyle
  2
STANDARD
 70
0
  3

 62
256
 51
90.0
 52
90.0
 71
2
 49
0.5
 62
256
  6
BYLAYER
 49
-0.5
 62
256
  6
BYLAYER
  0
LAYOUT
  5
668
102
{ACAD_REACTORS
330
1A
102
}
100
AcDbPlotSettings
  1

  2
none_device
  4
ISO_A4_(297.00_x_210.00_MM)
  6

 40
0.0
 41
0.0
 42
0.0
 43
0.0
 44
297.0
 45
210.0
 46
0.0
 47
0.0
 48
0.0
 49
0.0
140
0.0
141
0.0
142
1.0
143
1.0
 70
1024
 72
1
 73
0
 74
0
  7

 75
0
147
1.0
148
0.0
149
0.0
100
AcDbLayout
  1
Model
 70
0
 71
0
 10
0.0
 20
0.0
 11
297.0
 21
210.0
 12
0.0
 22
0.0
 32
0.0
 14
0.0
 24
0.0
 34
0.0
 15
0.0
 25
0.0
 35
0.0
146
0.0
 13
0.0
 23
0.0
 33
0.0
 16
1.0
 26
0.0
 36
0.0
 17
0.0
 27
1.0
 37
0.0
 76
0
330
214
345
0
346
0
  0
LAYOUT
  5
669
102
{ACAD_REACTORS
330
1A
102
}
100
AcDbPlotSettings
  1

  2
none_device
  4
ISO_A4_(297.00_x_210.00_MM)
  6

 40
0.0
 41
0.0
 42
0.0
 43
0.0
 44
297.0
 45
210.0
 46
0.0
 47
0.0
 48
0.0
 49
0.0
140
0.0
141
0.0
142
1.0
143
1.0
 70
0
 72
1
 73
0
 74
0
  7

 75
0
147
1.0
148
0.0
149
0.0
100
AcDbLayout
  1
Layout1
 70
0
 71
1
 10
0.0
 20
0.0
 11
297.0
 21
210.0
 12
0.0
 22
0.0
 32
0.0
 14
0.0
 24
0.0
 34
0.0
 15
0.0
 25
0.0
 35
0.0
146
0.0
 13
0.0
 23
0.0
 33
0.0
 16
1.0
 26
0.0
 36
0.0
 17
0.0
 27
1.0
 37
0.0
 76
0
330
215
345
0
346
0
  0
ENDSEC
  0
EOF
