  0
SECTION
  2
HEADER
  9
$ACADVER
  1
AC1015
  9
$DWGCODEPAGE
  3
ANSI_1252
  9
$EXTMAX
 10
297.0
 20
210.0
 30
0.0
  9
$EXTMIN
 10
0.0
 20
0.0
 30
0.0
  9
$LIMMIN
 10
0.0
 20
0.0
  9
$LIMMAX
 10
297.0
 20
210.0
  9
$VIEWCTR
 10
148.5
 20
105.0
  9
$VIEWSIZE
 40
210.0
  9
$CLAYER
  8
0
  9
$LTSCALE
 40
16.335
  9
$CELTYPE
  6
BYLAYER
  9
$DIMSCALE
 40
1.0
  9
$DIMASZ
 40
3.0
  9
$DIMEXO
 40
1.85625
  9
$DIMDLI
 40
11.286
  9
$DIMEXE
 40
5.346
  9
$DIMCEN
 40
2.673
  9
$DIMLFAC
 40
1.0
  9
$DIMBLK
  1
_FILLED
  9
$DIMTXT
 40
3.0
  9
$DIMTOL
 70
1
  9
$DIMLIM
 70
0
  9
$DIMTFAC
 40
1.0
  9
$DIMTP
 40
0.01
  9
$DIMTM
 40
0.01
  9
$PDMODE
 70
3
  9
$PDSIZE
 40
3.0
  9
$HANDSEED
  5
66A
  9
$TILEMODE
 70
1
  9
$MEASUREMENT
 70
1
  9
$INSUNITS
 70
4
  0
ENDSEC
  0
SECTION
  2
CLASSES
  0
CLASS
  1
ACDBDICTIONARYWDFLT
  2
AcDbDictionaryWithDefault
  3
AutoCAD 2000
 90
0
280
0
281
0
  0
CLASS
  1
ACDBPLACEHOLDER
  2
AcDbPlaceHolder
  3
AutoCAD 2000
 90
0
280
0
281
0
  0
CLASS
  1
LAYOUT
  2
AcDbLayout
  3
AutoCAD 2000
 90
0
280
0
281
0
  0
ENDSEC
  0
SECTION
  2
TABLES
  0
TABLE
  2
VPORT
  5
8
100
AcDbSymbolTable
 70
2
  0
VPORT
  5
1F4
100
AcDbSymbolTableRecord
100
AcDbViewportTableRecord
  2
*ACTIVE
 70
0
 10
0.0
 20
0.0
 11
1.0
 21
1.0
 12
148.5
 22
105.0
 13
0.0
 23
0.0
 14
1.0
 24
1.0
 15
0.0
 25
0.0
 16
0.0
 26
0.0
 36
1.0
 17
0.0
 27
0.0
 37
0.0
 40
210.0
 41
1.4142857143
 42
50.0
 43
0.0
 44
0.0
 50
0.0
 51
0.0
 71
0
 72
100
 73
1
 74
1
 75
0
 76
0
 77
0
 78
0
  0
ENDTAB
  0
TABLE
  2
LTYPE
  5
5
100
AcDbSymbolTable
 70
6
  0
LTYPE
  5
14
100
AcDbSymbolTableRecord
100
AcDbLinetypeTableRecord
  2
BYBLOCK
 70
0
  3

 72
65
 73
0
 40
0.0
  0
LTYPE
  5
15
100
AcDbSymbolTableRecord
100
AcDbLinetypeTableRecord
  2
BYLAYER
 70
0
  3

 72
65
 73
0
 40
0.0
  0
LTYPE
  5
16
100
AcDbSymbolTableRecord
100
AcDbLinetypeTableRecord
  2
CONTINUOUS
 70
64
  3
Solid line
 72
65
 73
0
 40
0.0
  0
LTYPE
  5
1F5
100
AcDbSymbolTableRecord
100
AcDbLinetypeTableRecord
  2
CENTER
 70
64
  3
____ _ ____ _ ____ _ ____ _ ____ _ ____ _ ____
 72
65
 73
4
 40
0.6
 49
0.375
 74
0
 49
-0.075
 74
0
 49
0.075
 74
0
 49
-0.075
 74
0
  0
LTYPE
  5
1F6
100
AcDbSymbolTableRecord
100
AcDbLinetypeTableRecord
  2
HIDDEN
 70
64
  3
- - - - - - - - - - - - - - - - - - - -
 72
65
 73
2
 40
0.2
 49
0.1
 74
0
 49
-0.1
 74
0
  0
LTYPE
  5
1F7
100
AcDbSymbolTableRecord
100
AcDbLinetypeTableRecord
  2
PHANTOM
 70
64
  3
_____ _ _ _____ _ _ _____ _ _ _____
 72
65
 73
6
 40
0.8
 49
0.45
 74
0
 49
-0.05
 74
0
 49
0.1
 74
0
 49
-0.05
 74
0
 49
0.1
 74
0
 49
-0.05
 74
0
  0
LTYPE
  5
1F8
100
AcDbSymbolTableRecord
100
AcDbLinetypeTableRecord
  2
DOT
 70
64
  3
. . . . . . . . . . . . . . . . . . . .
 72
65
 73
2
 40
0.2
 49
0.1
 74
0
 49
-0.1
 74
0
  0
LTYPE
  5
1F9
100
AcDbSymbolTableRecord
100
AcDbLinetypeTableRecord
  2
DASHED
 70
64
  3
- - - - - - - - - - - - - - - - - - - -
 72
65
 73
2
 40
0.2
 49
0.1
 74
0
 49
-0.1
 74
0
  0
ENDTAB
  0
TABLE
  2
LAYER
  5
2
100
AcDbSymbolTable
 70
36
  0
LAYER
  5
10
100
AcDbSymbolTableRecord
100
AcDbLayerTableRecord
  2
0
 70
0
 62
7
  6
CONTINUOUS
370
-3
390
F
  0
LAYER
  5
1FA
100
AcDbSymbolTableRecord
100
AcDbLayerTableRecord
  2
DEFAULT_1
 70
0
 62
7
  6
CENTER
370
-3
390
F
  0
LAYER
  5
1FB
100
AcDbSymbolTableRecord
100
AcDbLayerTableRecord
  2
DEFAULT_2
 70
0
 62
7
  6
HIDDEN
370
-3
390
F
  0
LAYER
  5
1FC
100
AcDbSymbolTableRecord
100
AcDbLayerTableRecord
  2
DEFAULT_3
 70
0
 62
7
  6
PHANTOM
370
-3
390
F
  0
LAYER
  5
1FD
100
AcDbSymbolTableRecord
100
AcDbLayerTableRecord
  2
ASSI
 70
0
 62
7
  6
CONTINUOUS
370
-3
390
F
  0
LAYER
  5
1FE
100
AcDbSymbolTableRecord
100
AcDbLayerTableRecord
  2
COORDINATE
 70
0
 62
7
  6
CONTINUOUS
370
-3
390
F
  0
LAYER
  5
1FF
100
AcDbSymbolTableRecord
100
AcDbLayerTableRecord
  2
COORD_ORIGINE
 70
0
 62
7
  6
CONTINUOUS
370
-3
390
F
  0
LAYER
  5
200
100
AcDbSymbolTableRecord
100
AcDbLayerTableRecord
  2
COPY_PUBLISH
 70
0
 62
7
  6
CONTINUOUS
370
-3
390
F
  0
LAYER
  5
201
100
AcDbSymbolTableRecord
100
AcDbLayerTableRecord
  2
COSMETIC
 70
0
 62
7
  6
CONTINUOUS
370
-3
390
F
  0
LAYER
  5
202
100
AcDbSymbolTableRecord
100
AcDbLayerTableRecord
  2
CURVE
 70
0
 62
7
  6
CONTINUOUS
370
-3
390
F
  0
LAYER
  5
203
100
AcDbSymbolTableRecord
100
AcDbLayerTableRecord
  2
DRAFT
 70
0
 62
7
  6
CONTINUOUS
370
-3
390
F
  0
LAYER
  5
204
100
AcDbSymbolTableRecord
100
AcDbLayerTableRecord
  2
IGES
 70
0
 62
7
  6
CONTINUOUS
370
-3
390
F
  0
LAYER
  5
205
100
AcDbSymbolTableRecord
100
AcDbLayerTableRecord
  2
IMPORT_IGES
 70
0
 62
7
  6
CONTINUOUS
370
-3
390
F
  0
LAYER
  5
206
100
AcDbSymbolTableRecord
100
AcDbLayerTableRecord
  2
INTF_6
 70
0
 62
7
  6
CONTINUOUS
370
-3
390
F
  0
LAYER
  5
207
100
AcDbSymbolTableRecord
100
AcDbLayerTableRecord
  2
NOTE
 70
0
 62
7
  6
CONTINUOUS
370
-3
390
F
  0
LAYER
  5
208
100
AcDbSymbolTableRecord
100
AcDbLayerTableRecord
  2
PIANI
 70
0
 62
7
  6
CONTINUOUS
370
-3
390
F
  0
LAYER
  5
209
100
AcDbSymbolTableRecord
100
AcDbLayerTableRecord
  2
PIANI_ORIGINE
 70
0
 62
7
  6
CONTINUOUS
370
-3
390
F
  0
LAYER
  5
20A
100
AcDbSymbolTableRecord
100
AcDbLayerTableRecord
  2
PIANI_RIFERIMENTO
 70
0
 62
7
  6
CONTINUOUS
370
-3
390
F
  0
LAYER
  5
20B
100
AcDbSymbolTableRecord
100
AcDbLayerTableRecord
  2
PUNTI
 70
0
 62
7
  6
CONTINUOUS
370
-3
390
F
  0
LAYER
  5
20C
100
AcDbSymbolTableRecord
100
AcDbLayerTableRecord
  2
RACCORDO
 70
0
 62
7
  6
CONTINUOUS
370
-3
390
F
  0
LAYER
  5
20D
100
AcDbSymbolTableRecord
100
AcDbLayerTableRecord
  2
SMUSSO
 70
0
 62
7
  6
CONTINUOUS
370
-3
390
F
  0
LAYER
  5
20E
100
AcDbSymbolTableRecord
100
AcDbLayerTableRecord
  2
SNAPLINE
 70
0
 62
7
  6
CONTINUOUS
370
-3
390
F
  0
LAYER
  5
20F
100
AcDbSymbolTableRecord
100
AcDbLayerTableRecord
  2
SUPERFICI
 70
0
 62
7
  6
CONTINUOUS
370
-3
390
F
  0
LAYER
  5
210
100
AcDbSymbolTableRecord
100
AcDbLayerTableRecord
  2
TRASH
 70
0
 62
7
  6
CONTINUOUS
370
-3
390
F
  0
LAYER
  5
211
100
AcDbSymbolTableRecord
100
AcDbLayerTableRecord
  2
XSEC_DATUMS
 70
0
 62
7
  6
CONTINUOUS
370
-3
390
F
  0
ENDTAB
  0
TABLE
  2
STYLE
  5
3
100
AcDbSymbolTable
 70
1
  0
STYLE
  5
11
100
AcDbSymbolTableRecord
100
AcDbTextStyleTableRecord
  2
STANDARD
 70
0
 40
0.0
 41
0.8
 50
0.0
 71
0
 42
0.2
  3
txt
  4

  0
STYLE
  5
212
100
AcDbSymbolTableRecord
100
AcDbTextStyleTableRecord
  2
TEXTSTYLE_1
 70
0
 40
0.0
 41
0.8
 50
0.0
 71
0
 42
0.2
  3
gdt
  4

  0
ENDTAB
  0
TABLE
  2
VIEW
  5
6
100
AcDbSymbolTable
 70
0
  0
ENDTAB
  0
TABLE
  2
UCS
  5
7
100
AcDbSymbolTable
 70
0
  0
ENDTAB
  0
TABLE
  2
APPID
  5
9
100
AcDbSymbolTable
 70
1
  0
APPID
  5
213
100
AcDbSymbolTableRecord
100
AcDbRegAppTableRecord
  2
ACAD
 70
0
  0
ENDTAB
  0
TABLE
  2
BLOCK_RECORD
  5
1
100
AcDbSymbolTable
 70
0
  0
BLOCK_RECORD
  5
214
100
AcDbSymbolTableRecord
100
AcDbBlockTableRecord
  2
*Model_Space
  0
BLOCK_RECORD
  5
215
100
AcDbSymbolTableRecord
100
AcDbBlockTableRecord
  2
*Paper_Space
  0
ENDTAB
  0
TABLE
  2
DIMSTYLE
  5
A
100
AcDbSymbolTable
 70
1
100
AcDbDimStyleTable
 71
0
  0
DIMSTYLE
105
216
100
AcDbSymbolTableRecord
100
AcDbDimStyleTableRecord
  2
STANDARD
 70
0
  3

  4

 40
1.0
 41
3.0
 42
0.0625
 43
0.38
 44
0.18
 45
0.0
 46
0.0
 47
0.01
 48
0.01
140
3.0
141
0.09
142
0.0
143
25.4
144
1.0
145
0.0
146
1.0
147
0.09
 71
1.0
 72
0.0
 73
0
 74
0
 75
0
 76
0
 77
1
 78
8
170
0
171
2
172
0
173
0
174
0
175
0
176
0
177
0
178
0
270
2
271
2
272
2
273
2
274
2
275
0
280
0
281
0
282
0
283
1
284
8
285
0
286
0
287
3
288
0
340
11
  0
ENDTAB
  0
ENDSEC
  0
SECTION
  2
BLOCKS
  0
BLOCK
  5
20
100
AcDbEntity
  8
0
100
AcDbBlockBegin
  2
*Model_Space
 70
0
 10
0.0
 20
0.0
 30
0.0
  3
*Model_Space
  1

  0
ENDBLK
  5
21
100
AcDbEntity
  8
0
100
AcDbBlockEnd
  0
BLOCK
  5
1C
100
AcDbEntity
  8
0
100
AcDbBlockBegin
  2
*Paper_Space
 70
0
 10
0.0
 20
0.0
 30
0.0
  3
*Paper_Space
  1

  0
ENDBLK
  5
1D
100
AcDbEntity
  8
0
100
AcDbBlockEnd
  0
ENDSEC
  0
SECTION
  2
ENTITIES
  0
LINE
  5
217
100
AcDbEntity
  8
RACCORDO
100
AcDbLine
 62
7
  6
CONTINUOUS
 10
-7.5535742935
 20
9.6998364706
 11
-7.5218404944
 21
9.7315702698
  0
LINE
  5
218
100
AcDbEntity
  8
ASSI
100
AcDbLine
 62
7
  6
CONTINUOUS
 10
-7.5535742935
 20
9.6998364706
 11
-7.5218404944
 21
9.7315702698
  0
LINE
  5
219
100
AcDbEntity
  8
RACCORDO
100
AcDbLine
 62
7
  6
CONTINUOUS
 10
-11.1392163505
 20
-2.0858055863
 11
-11.1261421132
 21
-10.6471725642
  0
LINE
  5
21A
100
AcDbEntity
  8
ASSI
100
AcDbLine
 62
7
  6
CONTINUOUS
 10
-11.1392163505
 20
-2.0858055863
 11
-11.1261421132
 21
-10.6471725642
  0
LINE
  5
21B
100
AcDbEntity
  8
RACCORDO
100
AcDbLine
 62
7
  6
CONTINUOUS
 10
-11.1392163505
 20
10.714217259
 11
-11.1392163505
 21
-2.0858055863
  0
LINE
  5
21C
100
AcDbEntity
  8
ASSI
100
AcDbLine
 62
7
  6
CONTINUOUS
 10
-11.1392163505
 20
10.714217259
 11
-11.1392163505
 21
-2.0858055863
  0
LINE
  5
21D
100
AcDbEntity
  8
RACCORDO
100
AcDbLine
 62
7
  6
CONTINUOUS
 10
3.4023586565
 20
-11.145118292
 11
3.7530486226
 21
-11.113285134
  0
LINE
  5
21E
100
AcDbEntity
  8
ASSI
100
AcDbLine
 62
7
  6
CONTINUOUS
 10
3.4023586565
 20
-11.145118292
 11
3.7530486226
 21
-11.113285134
  0
LINE
  5
21F
100
AcDbEntity
  8
RACCORDO
100
AcDbLine
 62
7
  6
CONTINUOUS
 10
10.6473295889
 20
-11.145118292
 11
7.8192086425
 21
-11.145118292
  0
LINE
  5
220
100
AcDbEntity
  8
ASSI
100
AcDbLine
 62
7
  6
CONTINUOUS
 10
10.6473295889
 20
-11.145118292
 11
7.8192086425
 21
-11.145118292
  0
LINE
  5
221
100
AcDbEntity
  8
DRAFT
100
AcDbLine
 62
7
  6
CONTINUOUS
 10
3.4023586565
 20
-11.145118292
 11
-3.3807913575
 21
-11.145118292
  0
LINE
  5
222
100
AcDbEntity
  8
ASSI
100
AcDbLine
 62
7
  6
CONTINUOUS
 10
3.4023586565
 20
-11.145118292
 11
-3.3807913575
 21
-11.145118292
  0
LINE
  5
223
100
AcDbEntity
  8
RACCORDO
100
AcDbLine
 62
7
  6
CONTINUOUS
 10
-7.7976413435
 20
-11.145118292
 11
-10.6257622899
 21
-11.145118292
  0
LINE
  5
224
100
AcDbEntity
  8
ASSI
100
AcDbLine
 62
7
  6
CONTINUOUS
 10
-7.7976413435
 20
-11.145118292
 11
-10.6257622899
 21
-11.145118292
  0
LINE
  5
225
100
AcDbEntity
  8
RACCORDO
100
AcDbLine
 62
7
  6
CONTINUOUS
 10
7.2953135957
 20
-11.1080443561
 11
3.9262537034
 21
-11.1080443561
  0
LINE
  5
226
100
AcDbEntity
  8
ASSI
100
AcDbLine
 62
7
  6
CONTINUOUS
 10
7.2953135957
 20
-11.1080443561
 11
3.9262537034
 21
-11.1080443561
  0
LINE
  5
227
100
AcDbEntity
  8
RACCORDO
100
AcDbLine
 62
7
  6
CONTINUOUS
 10
-3.9046864043
 20
-11.1080443561
 11
-7.2737462966
 21
-11.1080443561
  0
LINE
  5
228
100
AcDbEntity
  8
ASSI
100
AcDbLine
 62
7
  6
CONTINUOUS
 10
-3.9046864043
 20
-11.1080443561
 11
-7.2737462966
 21
-11.1080443561
  0
LINE
  5
229
100
AcDbEntity
  8
RACCORDO
100
AcDbLine
 62
7
  6
CONTINUOUS
 10
-3.3807913575
 20
-11.145118292
 11
-3.7314813236
 21
-11.113285134
  0
LINE
  5
22A
100
AcDbEntity
  8
ASSI
100
AcDbLine
 62
7
  6
CONTINUOUS
 10
-3.3807913575
 20
-11.145118292
 11
-3.7314813236
 21
-11.113285134
  0
LINE
  5
22B
100
AcDbEntity
  8
RACCORDO
100
AcDbLine
 62
7
  6
CONTINUOUS
 10
-9.8779618422
 20
-9.4555643547
 11
-9.8892163505
 21
-2.0858055863
  0
LINE
  5
22C
100
AcDbEntity
  8
ASSI
100
AcDbLine
 62
7
  6
CONTINUOUS
 10
-9.8779618422
 20
-9.4555643547
 11
-9.8892163505
 21
-2.0858055863
  0
LINE
  5
22D
100
AcDbEntity
  8
DRAFT
100
AcDbLine
 62
7
  6
CONTINUOUS
 10
-9.8892163505
 20
-2.0858055863
 11
-9.8892163505
 21
9.846443194
  0
LINE
  5
22E
100
AcDbEntity
  8
ASSI
100
AcDbLine
 62
7
  6
CONTINUOUS
 10
-9.8892163505
 20
-2.0858055863
 11
-9.8892163505
 21
9.846443194
  0
LINE
  5
22F
100
AcDbEntity
  8
DRAFT
100
AcDbLine
 62
7
  6
CONTINUOUS
 10
-9.8723394514
 20
-3.0858055863
 11
-9.8723394514
 21
0.7141944137
  0
LINE
  5
230
100
AcDbEntity
  8
ASSI
100
AcDbLine
 62
7
  6
CONTINUOUS
 10
-9.8723394514
 20
-3.0858055863
 11
-9.8723394514
 21
0.7141944137
  0
LINE
  5
231
100
AcDbEntity
  8
RACCORDO
100
AcDbLine
 62
253
  6
CONTINUOUS
 10
-9.6264496535
 20
-9.1010670352
 11
-9.6264496535
 21
-9.29150595
  0
LINE
  5
232
100
AcDbEntity
  8
0
100
AcDbLine
 62
7
  6
CONTINUOUS
 10
-9.4892163505
 20
-3.0858055863
 11
-9.4892163505
 21
0.7141944137
  0
LINE
  5
233
100
AcDbEntity
  8
ASSI
100
AcDbLine
 62
7
  6
CONTINUOUS
 10
-9.4892163505
 20
-3.0858055863
 11
-9.4892163505
 21
0.7141944137
  0
LINE
  5
234
100
AcDbEntity
  8
ASSI
100
AcDbLine
 62
253
  6
CONTINUOUS
 10
-9.6193958581
 20
9.6998364706
 11
-9.6212224582
 21
0.7141944137
  0
LINE
  5
235
100
AcDbEntity
  8
ASSI
100
AcDbLine
 62
253
  6
CONTINUOUS
 10
-9.6228456084
 20
-3.0858055863
 11
-9.6264496535
 21
-9.29150595
  0
LINE
  5
236
100
AcDbEntity
  8
RACCORDO
100
AcDbLine
 62
7
  6
CONTINUOUS
 10
3.7530486226
 20
-9.563907201
 11
3.3270651727
 21
-9.654500717
  0
LINE
  5
237
100
AcDbEntity
  8
ASSI
100
AcDbLine
 62
7
  6
CONTINUOUS
 10
3.7530486226
 20
-9.563907201
 11
3.3270651727
 21
-9.654500717
  0
LINE
  5
238
100
AcDbEntity
  8
RACCORDO
100
AcDbLine
 62
7
  6
CONTINUOUS
 10
-7.7976413435
 20
-11.145118292
 11
-7.4469513774
 21
-11.113285134
  0
LINE
  5
239
100
AcDbEntity
  8
ASSI
100
AcDbLine
 62
7
  6
CONTINUOUS
 10
-7.7976413435
 20
-11.145118292
 11
-7.4469513774
 21
-11.113285134
  0
LINE
  5
23A
100
AcDbEntity
  8
RACCORDO
100
AcDbLine
 62
7
  6
CONTINUOUS
 10
9.6996203234
 20
-9.654500717
 11
7.8945021263
 21
-9.654500717
  0
LINE
  5
23B
100
AcDbEntity
  8
ASSI
100
AcDbLine
 62
7
  6
CONTINUOUS
 10
9.6996203234
 20
-9.654500717
 11
7.8945021263
 21
-9.654500717
  0
LINE
  5
23C
100
AcDbEntity
  8
DRAFT
100
AcDbLine
 62
7
  6
CONTINUOUS
 10
3.3270651727
 20
-9.654500717
 11
-3.3054978737
 21
-9.654500717
  0
LINE
  5
23D
100
AcDbEntity
  8
ASSI
100
AcDbLine
 62
7
  6
CONTINUOUS
 10
3.3270651727
 20
-9.654500717
 11
-3.3054978737
 21
-9.654500717
  0
LINE
  5
23E
100
AcDbEntity
  8
RACCORDO
100
AcDbLine
 62
7
  6
CONTINUOUS
 10
-7.8729348273
 20
-9.654500717
 11
-9.6780530243
 21
-9.654500717
  0
LINE
  5
23F
100
AcDbEntity
  8
ASSI
100
AcDbLine
 62
7
  6
CONTINUOUS
 10
-7.8729348273
 20
-9.654500717
 11
-9.6780530243
 21
-9.654500717
  0
LINE
  5
240
100
AcDbEntity
  8
RACCORDO
100
AcDbLine
 62
7
  6
CONTINUOUS
 10
7.2953135957
 20
-9.551628745
 11
5.9309160235
 21
-9.551628745
  0
LINE
  5
241
100
AcDbEntity
  8
ASSI
100
AcDbLine
 62
7
  6
CONTINUOUS
 10
7.2953135957
 20
-9.551628745
 11
5.9309160235
 21
-9.551628745
  0
LINE
  5
242
100
AcDbEntity
  8
RACCORDO
100
AcDbLine
 62
7
  6
CONTINUOUS
 10
5.2906512755
 20
-9.551628745
 11
3.9262537034
 21
-9.551628745
  0
LINE
  5
243
100
AcDbEntity
  8
ASSI
100
AcDbLine
 62
7
  6
CONTINUOUS
 10
5.2906512755
 20
-9.551628745
 11
3.9262537034
 21
-9.551628745
  0
LINE
  5
244
100
AcDbEntity
  8
RACCORDO
100
AcDbLine
 62
7
  6
CONTINUOUS
 10
-3.9046864043
 20
-9.551628745
 11
-5.2690839765
 21
-9.551628745
  0
LINE
  5
245
100
AcDbEntity
  8
ASSI
100
AcDbLine
 62
7
  6
CONTINUOUS
 10
-3.9046864043
 20
-9.551628745
 11
-5.2690839765
 21
-9.551628745
  0
LINE
  5
246
100
AcDbEntity
  8
RACCORDO
100
AcDbLine
 62
7
  6
CONTINUOUS
 10
-5.9093487245
 20
-9.551628745
 11
-7.2737462966
 21
-9.551628745
  0
LINE
  5
247
100
AcDbEntity
  8
ASSI
100
AcDbLine
 62
7
  6
CONTINUOUS
 10
-5.9093487245
 20
-9.551628745
 11
-7.2737462966
 21
-9.551628745
  0
LINE
  5
248
100
AcDbEntity
  8
RACCORDO
100
AcDbLine
 62
7
  6
CONTINUOUS
 10
7.8192086425
 20
-11.145118292
 11
7.4685186764
 21
-11.113285134
  0
LINE
  5
249
100
AcDbEntity
  8
ASSI
100
AcDbLine
 62
7
  6
CONTINUOUS
 10
7.8192086425
 20
-11.145118292
 11
7.4685186764
 21
-11.113285134
  0
LINE
  5
24A
100
AcDbEntity
  8
RACCORDO
100
AcDbLine
 62
7
  6
CONTINUOUS
 10
-3.7314813236
 20
-9.563907201
 11
-3.3054978737
 21
-9.654500717
  0
LINE
  5
24B
100
AcDbEntity
  8
ASSI
100
AcDbLine
 62
7
  6
CONTINUOUS
 10
-3.7314813236
 20
-9.563907201
 11
-3.3054978737
 21
-9.654500717
  0
LINE
  5
24C
100
AcDbEntity
  8
DRAFT
100
AcDbLine
 62
7
  6
CONTINUOUS
 10
-7.7976413435
 20
-11.145118292
 11
-7.8729348273
 21
-9.654500717
  0
LINE
  5
24D
100
AcDbEntity
  8
ASSI
100
AcDbLine
 62
7
  6
CONTINUOUS
 10
-7.7976413435
 20
-11.145118292
 11
-7.8729348273
 21
-9.654500717
  0
LINE
  5
24E
100
AcDbEntity
  8
DRAFT
100
AcDbLine
 62
7
  6
CONTINUOUS
 10
-8.5016823411
 20
10.9141944137
 11
-8.5016823411
 21
9.846443194
  0
LINE
  5
24F
100
AcDbEntity
  8
ASSI
100
AcDbLine
 62
7
  6
CONTINUOUS
 10
-8.5016823411
 20
10.9141944137
 11
-8.5016823411
 21
9.846443194
  0
LINE
  5
250
100
AcDbEntity
  8
DRAFT
100
AcDbLine
 62
7
  6
CONTINUOUS
 10
-8.2392163505
 20
9.7416808855
 11
-8.2392163505
 21
10.8880138103
  0
LINE
  5
251
100
AcDbEntity
  8
ASSI
100
AcDbLine
 62
7
  6
CONTINUOUS
 10
-8.2392163505
 20
9.7416808855
 11
-8.2392163505
 21
10.8880138103
  0
LINE
  5
252
100
AcDbEntity
  8
RACCORDO
100
AcDbLine
 62
253
  6
CONTINUOUS
 10
-9.826419193
 20
-9.0929967228
 11
-9.8779618422
 21
-9.4555643547
  0
LINE
  5
253
100
AcDbEntity
  8
ASSI
100
AcDbLine
 62
253
  6
CONTINUOUS
 10
-9.826419193
 20
-9.0929967228
 11
-9.8779618422
 21
-9.4555643547
  0
LINE
  5
254
100
AcDbEntity
  8
RACCORDO
100
AcDbLine
 62
253
  6
CONTINUOUS
 10
-9.6264496535
 20
-9.29150595
 11
-9.6780530243
 21
-9.654500717
  0
LINE
  5
255
100
AcDbEntity
  8
ASSI
100
AcDbLine
 62
253
  6
CONTINUOUS
 10
-9.6264496535
 20
-9.29150595
 11
-9.6780530243
 21
-9.654500717
  0
LINE
  5
256
100
AcDbEntity
  8
RACCORDO
100
AcDbLine
 62
253
  6
CONTINUOUS
 10
-7.4971522123
 20
5.1560758
 11
-7.5524099745
 21
5.1008180378
  0
LINE
  5
257
100
AcDbEntity
  8
ASSI
100
AcDbLine
 62
253
  6
CONTINUOUS
 10
-7.4971522123
 20
5.1560758
 11
-7.5524099745
 21
5.1008180378
  0
LINE
  5
258
100
AcDbEntity
  8
RACCORDO
100
AcDbLine
 62
253
  6
CONTINUOUS
 10
-7.1973354917
 20
4.8562580244
 11
-7.252465427
 21
4.8011280891
  0
LINE
  5
259
100
AcDbEntity
  8
ASSI
100
AcDbLine
 62
253
  6
CONTINUOUS
 10
-7.1973354917
 20
4.8562580244
 11
-7.252465427
 21
4.8011280891
  0
LINE
  5
25A
100
AcDbEntity
  8
RACCORDO
100
AcDbLine
 62
7
  6
CONTINUOUS
 10
5.5328914203
 20
-9.3447631989
 11
5.6886758787
 21
-9.3447631989
  0
LINE
  5
25B
100
AcDbEntity
  8
ASSI
100
AcDbLine
 62
7
  6
CONTINUOUS
 10
5.5328914203
 20
-9.3447631989
 11
5.6886758787
 21
-9.3447631989
  0
LINE
  5
25C
100
AcDbEntity
  8
RACCORDO
100
AcDbLine
 62
7
  6
CONTINUOUS
 10
-5.5113241213
 20
-9.3447631989
 11
-5.6671085797
 21
-9.3447631989
  0
LINE
  5
25D
100
AcDbEntity
  8
ASSI
100
AcDbLine
 62
7
  6
CONTINUOUS
 10
-5.5113241213
 20
-9.3447631989
 11
-5.6671085797
 21
-9.3447631989
  0
LINE
  5
25E
100
AcDbEntity
  8
RACCORDO
100
AcDbLine
 62
253
  6
CONTINUOUS
 10
-9.6264496535
 20
-9.29150595
 11
-5.9833294277
 21
-9.29150595
  0
LINE
  5
25F
100
AcDbEntity
  8
ASSI
100
AcDbLine
 62
253
  6
CONTINUOUS
 10
-9.6264496535
 20
-9.29150595
 11
-5.9833294277
 21
-9.29150595
  0
LINE
  5
260
100
AcDbEntity
  8
RACCORDO
100
AcDbLine
 62
253
  6
CONTINUOUS
 10
-5.1951032733
 20
-9.29150595
 11
5.2166705723
 21
-9.29150595
  0
LINE
  5
261
100
AcDbEntity
  8
ASSI
100
AcDbLine
 62
253
  6
CONTINUOUS
 10
-5.1951032733
 20
-9.29150595
 11
5.2166705723
 21
-9.29150595
  0
LINE
  5
262
100
AcDbEntity
  8
RACCORDO
100
AcDbLine
 62
253
  6
CONTINUOUS
 10
6.0048967267
 20
-9.29150595
 11
9.6480169526
 21
-9.29150595
  0
LINE
  5
263
100
AcDbEntity
  8
ASSI
100
AcDbLine
 62
253
  6
CONTINUOUS
 10
6.0048967267
 20
-9.29150595
 11
9.6480169526
 21
-9.29150595
  0
LINE
  5
264
100
AcDbEntity
  8
RACCORDO
100
AcDbLine
 62
253
  6
CONTINUOUS
 10
-9.626449643
 20
-9.1010670352
 11
-5.9894567391
 21
-9.1010670352
  0
LINE
  5
265
100
AcDbEntity
  8
ASSI
100
AcDbLine
 62
253
  6
CONTINUOUS
 10
-9.626449643
 20
-9.1010670352
 11
-5.9894567391
 21
-9.1010670352
  0
LINE
  5
266
100
AcDbEntity
  8
RACCORDO
100
AcDbLine
 62
253
  6
CONTINUOUS
 10
-5.1889759619
 20
-9.1010670352
 11
5.2105432609
 21
-9.1010670352
  0
LINE
  5
267
100
AcDbEntity
  8
ASSI
100
AcDbLine
 62
253
  6
CONTINUOUS
 10
-5.1889759619
 20
-9.1010670352
 11
5.2105432609
 21
-9.1010670352
  0
LINE
  5
268
100
AcDbEntity
  8
RACCORDO
100
AcDbLine
 62
253
  6
CONTINUOUS
 10
6.0110240381
 20
-9.1010670352
 11
9.648016942
 21
-9.1010670352
  0
LINE
  5
269
100
AcDbEntity
  8
ASSI
100
AcDbLine
 62
253
  6
CONTINUOUS
 10
6.0110240381
 20
-9.1010670352
 11
9.648016942
 21
-9.1010670352
  0
LINE
  5
26A
100
AcDbEntity
  8
RACCORDO
100
AcDbLine
 62
7
  6
CONTINUOUS
 10
-5.9093487245
 20
-9.551628745
 11
-5.9833294277
 21
-9.29150595
  0
LINE
  5
26B
100
AcDbEntity
  8
ASSI
100
AcDbLine
 62
7
  6
CONTINUOUS
 10
-5.9093487245
 20
-9.551628745
 11
-5.9833294277
 21
-9.29150595
  0
LINE
  5
26C
100
AcDbEntity
  8
RACCORDO
100
AcDbLine
 62
253
  6
CONTINUOUS
 10
-7.5136580491
 20
7.4556157699
 11
-7.4924574131
 21
6.8485089887
  0
LINE
  5
26D
100
AcDbEntity
  8
ASSI
100
AcDbLine
 62
253
  6
CONTINUOUS
 10
-7.5136580491
 20
7.4556157699
 11
-7.4924574131
 21
6.8485089887
  0
LINE
  5
26E
100
AcDbEntity
  8
RACCORDO
100
AcDbLine
 62
253
  6
CONTINUOUS
 10
-7.5218404944
 20
9.7315702698
 11
-7.5218404944
 21
8.0213011949
  0
LINE
  5
26F
100
AcDbEntity
  8
ASSI
100
AcDbLine
 62
253
  6
CONTINUOUS
 10
-7.5218404944
 20
9.7315702698
 11
-7.5218404944
 21
8.0213011949
  0
LINE
  5
270
100
AcDbEntity
  8
RACCORDO
100
AcDbLine
 62
253
  6
CONTINUOUS
 10
-7.4904118018
 20
6.7070876325
 11
-7.4904118018
 21
5.3559539654
  0
LINE
  5
271
100
AcDbEntity
  8
ASSI
100
AcDbLine
 62
253
  6
CONTINUOUS
 10
-7.4904118018
 20
6.7070876325
 11
-7.4904118018
 21
5.3559539654
  0
LINE
  5
272
100
AcDbEntity
  8
RACCORDO
100
AcDbLine
 62
253
  6
CONTINUOUS
 10
-7.4469513774
 20
-11.113285134
 11
-7.4469513774
 21
-9.563907201
  0
LINE
  5
273
100
AcDbEntity
  8
ASSI
100
AcDbLine
 62
253
  6
CONTINUOUS
 10
-7.4469513774
 20
-11.113285134
 11
-7.4469513774
 21
-9.563907201
  0
LINE
  5
274
100
AcDbEntity
  8
RACCORDO
100
AcDbLine
 62
253
  6
CONTINUOUS
 10
-7.2737462966
 20
-11.1080443561
 11
-7.2737462966
 21
-9.551628745
  0
LINE
  5
275
100
AcDbEntity
  8
ASSI
100
AcDbLine
 62
253
  6
CONTINUOUS
 10
-7.2737462966
 20
-11.1080443561
 11
-7.2737462966
 21
-9.551628745
  0
LINE
  5
276
100
AcDbEntity
  8
RACCORDO
100
AcDbLine
 62
253
  6
CONTINUOUS
 10
-7.2220232463
 20
9.7416808855
 11
-7.2220232463
 21
8.0213121588
  0
LINE
  5
277
100
AcDbEntity
  8
ASSI
100
AcDbLine
 62
253
  6
CONTINUOUS
 10
-7.2220232463
 20
9.7416808855
 11
-7.2220232463
 21
8.0213121588
  0
LINE
  5
278
100
AcDbEntity
  8
RACCORDO
100
AcDbLine
 62
253
  6
CONTINUOUS
 10
-7.1905945537
 20
6.7070876325
 11
-7.1905945537
 21
5.355969426
  0
LINE
  5
279
100
AcDbEntity
  8
ASSI
100
AcDbLine
 62
253
  6
CONTINUOUS
 10
-7.1905945537
 20
6.7070876325
 11
-7.1905945537
 21
5.355969426
  0
LINE
  5
27A
100
AcDbEntity
  8
RACCORDO
100
AcDbLine
 62
253
  6
CONTINUOUS
 10
-7.0857925359
 20
7.0606410231
 11
-7.0645921569
 21
7.6677404464
  0
LINE
  5
27B
100
AcDbEntity
  8
ASSI
100
AcDbLine
 62
253
  6
CONTINUOUS
 10
-7.0857925359
 20
7.0606410231
 11
-7.0645921569
 21
7.6677404464
  0
LINE
  5
27C
100
AcDbEntity
  8
DRAFT
100
AcDbLine
 62
7
  6
CONTINUOUS
 10
-2.4857253375
 20
8.9351404916
 11
-2.4892163505
 21
8.9316494786
  0
LINE
  5
27D
100
AcDbEntity
  8
RACCORDO
100
AcDbLine
 62
7
  6
CONTINUOUS
 10
-7.4469513774
 20
-9.563907201
 11
-7.8729348273
 21
-9.654500717
  0
LINE
  5
27E
100
AcDbEntity
  8
ASSI
100
AcDbLine
 62
7
  6
CONTINUOUS
 10
-7.4469513774
 20
-9.563907201
 11
-7.8729348273
 21
-9.654500717
  0
LINE
  5
27F
100
AcDbEntity
  8
0
100
AcDbLine
 62
7
  6
CONTINUOUS
 10
0.9533368777
 20
-8.3269715863
 11
0.6639751087
 21
-8.3269715863
  0
LINE
  5
280
100
AcDbEntity
  8
ASSI
100
AcDbLine
 62
7
  6
CONTINUOUS
 10
0.9533368777
 20
-8.3269715863
 11
0.6639751087
 21
-8.3269715863
  0
LINE
  5
281
100
AcDbEntity
  8
0
100
AcDbLine
 62
7
  6
CONTINUOUS
 10
2.1107836495
 20
-8.1144715863
 11
0.7001453171
 21
-8.1144715863
  0
LINE
  5
282
100
AcDbEntity
  8
ASSI
100
AcDbLine
 62
7
  6
CONTINUOUS
 10
2.1107836495
 20
-8.1144715863
 11
0.7001453171
 21
-8.1144715863
  0
LINE
  5
283
100
AcDbEntity
  8
0
100
AcDbLine
 62
7
  6
CONTINUOUS
 10
2.1107836495
 20
-7.9019715863
 11
0.4107836495
 21
-7.9019715863
  0
LINE
  5
284
100
AcDbEntity
  8
ASSI
100
AcDbLine
 62
7
  6
CONTINUOUS
 10
2.1107836495
 20
-7.9019715863
 11
0.4107836495
 21
-7.9019715863
  0
LINE
  5
285
100
AcDbEntity
  8
0
100
AcDbLine
 62
7
  6
CONTINUOUS
 10
1.6044006805
 20
-7.6186382699
 11
1.3873793791
 21
-7.6186382699
  0
LINE
  5
286
100
AcDbEntity
  8
ASSI
100
AcDbLine
 62
7
  6
CONTINUOUS
 10
1.6044006805
 20
-7.6186382699
 11
1.3873793791
 21
-7.6186382699
  0
LINE
  5
287
100
AcDbEntity
  8
RACCORDO
100
AcDbLine
 62
7
  6
CONTINUOUS
 10
7.4685186764
 20
-9.563907201
 11
7.8945021263
 21
-9.654500717
  0
LINE
  5
288
100
AcDbEntity
  8
ASSI
100
AcDbLine
 62
7
  6
CONTINUOUS
 10
7.4685186764
 20
-9.563907201
 11
7.8945021263
 21
-9.654500717
  0
LINE
  5
289
100
AcDbEntity
  8
0
100
AcDbLine
 62
7
  6
CONTINUOUS
 10
-2.1067783505
 20
-7.2835715863
 11
-0.9367103505
 21
-7.6174935863
  0
LINE
  5
28A
100
AcDbEntity
  8
ASSI
100
AcDbLine
 62
7
  6
CONTINUOUS
 10
-2.1067783505
 20
-7.2835715863
 11
-0.9367103505
 21
-7.6174935863
  0
LINE
  5
28B
100
AcDbEntity
  8
RACCORDO
100
AcDbLine
 62
253
  6
CONTINUOUS
 10
-7.2138405442
 20
7.6677404498
 11
-7.192640165
 21
7.0606410231
  0
LINE
  5
28C
100
AcDbEntity
  8
ASSI
100
AcDbLine
 62
253
  6
CONTINUOUS
 10
-7.2138405442
 20
7.6677404498
 11
-7.192640165
 21
7.0606410231
  0
LINE
  5
28D
100
AcDbEntity
  8
RACCORDO
100
AcDbLine
 62
253
  6
CONTINUOUS
 10
-7.0878381473
 20
5.3559694261
 11
-7.0878381473
 21
6.7070876325
  0
LINE
  5
28E
100
AcDbEntity
  8
ASSI
100
AcDbLine
 62
253
  6
CONTINUOUS
 10
-7.0878381473
 20
5.3559694261
 11
-7.0878381473
 21
6.7070876325
  0
LINE
  5
28F
100
AcDbEntity
  8
RACCORDO
100
AcDbLine
 62
253
  6
CONTINUOUS
 10
-7.0564094547
 20
8.0213121626
 11
-7.0564094547
 21
9.7416808855
  0
LINE
  5
290
100
AcDbEntity
  8
ASSI
100
AcDbLine
 62
253
  6
CONTINUOUS
 10
-7.0564094547
 20
8.0213121626
 11
-7.0564094547
 21
9.7416808855
  0
LINE
  5
291
100
AcDbEntity
  8
RACCORDO
100
AcDbLine
 62
253
  6
CONTINUOUS
 10
-6.7880208991
 20
5.3559539654
 11
-6.7880208991
 21
6.7070876325
  0
LINE
  5
292
100
AcDbEntity
  8
ASSI
100
AcDbLine
 62
253
  6
CONTINUOUS
 10
-6.7880208991
 20
5.3559539654
 11
-6.7880208991
 21
6.7070876325
  0
LINE
  5
293
100
AcDbEntity
  8
RACCORDO
100
AcDbLine
 62
253
  6
CONTINUOUS
 10
-6.7565922066
 20
8.0213011949
 11
-6.7565922066
 21
9.7315702698
  0
LINE
  5
294
100
AcDbEntity
  8
ASSI
100
AcDbLine
 62
253
  6
CONTINUOUS
 10
-6.7565922066
 20
8.0213011949
 11
-6.7565922066
 21
9.7315702698
  0
LINE
  5
295
100
AcDbEntity
  8
RACCORDO
100
AcDbLine
 62
253
  6
CONTINUOUS
 10
-6.7859752878
 20
6.8485089887
 11
-6.7647746519
 21
7.4556157699
  0
LINE
  5
296
100
AcDbEntity
  8
ASSI
100
AcDbLine
 62
253
  6
CONTINUOUS
 10
-6.7859752878
 20
6.8485089887
 11
-6.7647746519
 21
7.4556157699
  0
LINE
  5
297
100
AcDbEntity
  8
0
100
AcDbLine
 62
7
  6
CONTINUOUS
 10
-2.1067783505
 20
-7.9415185863
 11
-0.9367103505
 21
-7.6174935863
  0
LINE
  5
298
100
AcDbEntity
  8
ASSI
100
AcDbLine
 62
7
  6
CONTINUOUS
 10
-2.1067783505
 20
-7.9415185863
 11
-0.9367103505
 21
-7.6174935863
  0
LINE
  5
299
100
AcDbEntity
  8
RACCORDO
100
AcDbLine
 62
253
  6
CONTINUOUS
 10
5.6512445736
 20
-7.046082666
 11
5.5703227255
 21
-7.046082666
  0
LINE
  5
29A
100
AcDbEntity
  8
ASSI
100
AcDbLine
 62
253
  6
CONTINUOUS
 10
5.6512445736
 20
-7.046082666
 11
5.5703227255
 21
-7.046082666
  0
LINE
  5
29B
100
AcDbEntity
  8
RACCORDO
100
AcDbLine
 62
253
  6
CONTINUOUS
 10
-5.5487554264
 20
-7.046082666
 11
-5.6296772745
 21
-7.046082666
  0
LINE
  5
29C
100
AcDbEntity
  8
ASSI
100
AcDbLine
 62
253
  6
CONTINUOUS
 10
-5.5487554264
 20
-7.046082666
 11
-5.6296772745
 21
-7.046082666
  0
LINE
  5
29D
100
AcDbEntity
  8
RACCORDO
100
AcDbLine
 62
253
  6
CONTINUOUS
 10
-5.2990713099
 20
-6.9192971875
 11
-5.8793613911
 21
-6.9192971875
  0
LINE
  5
29E
100
AcDbEntity
  8
RACCORDO
100
AcDbLine
 62
253
  6
CONTINUOUS
 10
5.3206386089
 20
-6.9192971875
 11
5.9009286901
 21
-6.9192971875
  0
LINE
  5
29F
100
AcDbEntity
  8
ASSI
100
AcDbLine
 62
253
  6
CONTINUOUS
 10
-5.2990713099
 20
-6.9192971875
 11
-5.8793613911
 21
-6.9192971875
  0
LINE
  5
2A0
100
AcDbEntity
  8
ASSI
100
AcDbLine
 62
253
  6
CONTINUOUS
 10
5.3206386089
 20
-6.9192971875
 11
5.9009286901
 21
-6.9192971875
  0
LINE
  5
2A1
100
AcDbEntity
  8
0
100
AcDbLine
 62
7
  6
CONTINUOUS
 10
-2.1068803505
 20
-6.7973075863
 11
-0.4069153505
 21
-6.7973075863
  0
LINE
  5
2A2
100
AcDbEntity
  8
ASSI
100
AcDbLine
 62
7
  6
CONTINUOUS
 10
-2.1068803505
 20
-6.7973075863
 11
-0.4069153505
 21
-6.7973075863
  0
LINE
  5
2A3
100
AcDbEntity
  8
0
100
AcDbLine
 62
7
  6
CONTINUOUS
 10
2.1107836495
 20
-6.7686382192
 11
1.6044006805
 21
-6.7686382192
  0
LINE
  5
2A4
100
AcDbEntity
  8
ASSI
100
AcDbLine
 62
7
  6
CONTINUOUS
 10
2.1107836495
 20
-6.7686382192
 11
1.6044006805
 21
-6.7686382192
  0
LINE
  5
2A5
100
AcDbEntity
  8
0
100
AcDbLine
 62
7
  6
CONTINUOUS
 10
1.3873793791
 20
-6.7686382192
 11
0.7001453171
 21
-6.7686382192
  0
LINE
  5
2A6
100
AcDbEntity
  8
ASSI
100
AcDbLine
 62
7
  6
CONTINUOUS
 10
1.3873793791
 20
-6.7686382192
 11
0.7001453171
 21
-6.7686382192
  0
LINE
  5
2A7
100
AcDbEntity
  8
RACCORDO
100
AcDbLine
 62
253
  6
CONTINUOUS
 10
-5.2990713099
 20
-6.6372913429
 11
-5.8793613911
 21
-6.6372913429
  0
LINE
  5
2A8
100
AcDbEntity
  8
RACCORDO
100
AcDbLine
 62
253
  6
CONTINUOUS
 10
5.3206386089
 20
-6.6372913429
 11
5.9009286901
 21
-6.6372913429
  0
LINE
  5
2A9
100
AcDbEntity
  8
ASSI
100
AcDbLine
 62
253
  6
CONTINUOUS
 10
-5.2990713099
 20
-6.6372913429
 11
-5.8793613911
 21
-6.6372913429
  0
LINE
  5
2AA
100
AcDbEntity
  8
ASSI
100
AcDbLine
 62
253
  6
CONTINUOUS
 10
5.3206386089
 20
-6.6372913429
 11
5.9009286901
 21
-6.6372913429
  0
LINE
  5
2AB
100
AcDbEntity
  8
0
100
AcDbLine
 62
7
  6
CONTINUOUS
 10
2.1107836495
 20
-6.5561383205
 11
1.6044006805
 21
-6.5561383205
  0
LINE
  5
2AC
100
AcDbEntity
  8
ASSI
100
AcDbLine
 62
7
  6
CONTINUOUS
 10
2.1107836495
 20
-6.5561383205
 11
1.6044006805
 21
-6.5561383205
  0
LINE
  5
2AD
100
AcDbEntity
  8
0
100
AcDbLine
 62
7
  6
CONTINUOUS
 10
1.3873793791
 20
-6.5561383205
 11
0.4107836495
 21
-6.5561383205
  0
LINE
  5
2AE
100
AcDbEntity
  8
ASSI
100
AcDbLine
 62
7
  6
CONTINUOUS
 10
1.3873793791
 20
-6.5561383205
 11
0.4107836495
 21
-6.5561383205
  0
LINE
  5
2AF
100
AcDbEntity
  8
0
100
AcDbLine
 62
7
  6
CONTINUOUS
 10
-2.1068803505
 20
-6.4424795863
 11
-0.4069153505
 21
-6.4424795863
  0
LINE
  5
2B0
100
AcDbEntity
  8
ASSI
100
AcDbLine
 62
7
  6
CONTINUOUS
 10
-2.1068803505
 20
-6.4424795863
 11
-0.4069153505
 21
-6.4424795863
  0
LINE
  5
2B1
100
AcDbEntity
  8
RACCORDO
100
AcDbLine
 62
253
  6
CONTINUOUS
 10
5.6525238254
 20
-6.341849017
 11
5.5690434736
 21
-6.341849017
  0
LINE
  5
2B2
100
AcDbEntity
  8
ASSI
100
AcDbLine
 62
253
  6
CONTINUOUS
 10
5.6525238254
 20
-6.341849017
 11
5.5690434736
 21
-6.341849017
  0
LINE
  5
2B3
100
AcDbEntity
  8
RACCORDO
100
AcDbLine
 62
253
  6
CONTINUOUS
 10
-5.5474761746
 20
-6.341849017
 11
-5.6309565264
 21
-6.341849017
  0
LINE
  5
2B4
100
AcDbEntity
  8
ASSI
100
AcDbLine
 62
253
  6
CONTINUOUS
 10
-5.5474761746
 20
-6.341849017
 11
-5.6309565264
 21
-6.341849017
  0
LINE
  5
2B5
100
AcDbEntity
  8
0
100
AcDbLine
 62
7
  6
CONTINUOUS
 10
-2.1067783505
 20
-6.0979775863
 11
-0.4069153505
 21
-6.2514645863
  0
LINE
  5
2B6
100
AcDbEntity
  8
ASSI
100
AcDbLine
 62
7
  6
CONTINUOUS
 10
-2.1067783505
 20
-6.0979775863
 11
-0.4069153505
 21
-6.2514645863
  0
LINE
  5
2B7
100
AcDbEntity
  8
0
100
AcDbLine
 62
7
  6
CONTINUOUS
 10
-2.1067783505
 20
-6.9289855863
 11
-0.4069153505
 21
-7.4753895863
  0
LINE
  5
2B8
100
AcDbEntity
  8
ASSI
100
AcDbLine
 62
7
  6
CONTINUOUS
 10
-2.1067783505
 20
-6.9289855863
 11
-0.4069153505
 21
-7.4753895863
  0
LINE
  5
2B9
100
AcDbEntity
  8
RACCORDO
100
AcDbLine
 62
253
  6
CONTINUOUS
 10
-5.9948365435
 20
-4.8328821347
 11
-5.9404422651
 21
-4.8600709875
  0
LINE
  5
2BA
100
AcDbEntity
  8
ASSI
100
AcDbLine
 62
253
  6
CONTINUOUS
 10
-5.9948365435
 20
-4.8328821347
 11
-5.9404422651
 21
-4.8600709875
  0
LINE
  5
2BB
100
AcDbEntity
  8
RACCORDO
100
AcDbLine
 62
253
  6
CONTINUOUS
 10
-5.7451120226
 20
-4.5828586368
 11
-5.6905950168
 21
-4.6101088346
  0
LINE
  5
2BC
100
AcDbEntity
  8
ASSI
100
AcDbLine
 62
253
  6
CONTINUOUS
 10
-5.7451120226
 20
-4.5828586368
 11
-5.6905950168
 21
-4.6101088346
  0
LINE
  5
2BD
100
AcDbEntity
  8
RACCORDO
100
AcDbLine
 62
253
  6
CONTINUOUS
 10
-5.9387266992
 20
-6.2955804941
 11
-5.8808042332
 21
-6.5880509552
  0
LINE
  5
2BE
100
AcDbEntity
  8
ASSI
100
AcDbLine
 62
253
  6
CONTINUOUS
 10
-5.9387266992
 20
-6.2955804941
 11
-5.8808042332
 21
-6.5880509552
  0
LINE
  5
2BF
100
AcDbEntity
  8
RACCORDO
100
AcDbLine
 62
253
  6
CONTINUOUS
 10
-5.6816647821
 20
-6.0858055863
 11
-5.6309565264
 21
-6.341849017
  0
LINE
  5
2C0
100
AcDbEntity
  8
ASSI
100
AcDbLine
 62
253
  6
CONTINUOUS
 10
-5.6816647821
 20
-6.0858055863
 11
-5.6309565264
 21
-6.341849017
  0
LINE
  5
2C1
100
AcDbEntity
  8
RACCORDO
100
AcDbLine
 62
253
  6
CONTINUOUS
 10
-5.5113241213
 20
-9.3447631989
 11
-5.5487554264
 21
-7.046082666
  0
LINE
  5
2C2
100
AcDbEntity
  8
ASSI
100
AcDbLine
 62
253
  6
CONTINUOUS
 10
-5.5113241213
 20
-9.3447631989
 11
-5.5487554264
 21
-7.046082666
  0
LINE
  5
2C3
100
AcDbEntity
  8
RACCORDO
100
AcDbLine
 62
253
  6
CONTINUOUS
 10
-5.2690839765
 20
-8.7719233561
 11
-5.2989077197
 21
-6.9404281006
  0
LINE
  5
2C4
100
AcDbEntity
  8
ASSI
100
AcDbLine
 62
253
  6
CONTINUOUS
 10
-5.2690839765
 20
-8.7719233561
 11
-5.2989077197
 21
-6.9404281006
  0
LINE
  5
2C5
100
AcDbEntity
  8
RACCORDO
100
AcDbLine
 62
253
  6
CONTINUOUS
 10
-5.9387266992
 20
-4.9100633723
 11
-5.9387266992
 21
-6.2955804941
  0
LINE
  5
2C6
100
AcDbEntity
  8
ASSI
100
AcDbLine
 62
253
  6
CONTINUOUS
 10
-5.9387266992
 20
-4.9100633723
 11
-5.9387266992
 21
-6.2955804941
  0
LINE
  5
2C7
100
AcDbEntity
  8
RACCORDO
100
AcDbLine
 62
7
  6
CONTINUOUS
 10
-5.9093487245
 20
-9.551628745
 11
-5.9093487245
 21
-8.7719233561
  0
LINE
  5
2C8
100
AcDbEntity
  8
ASSI
100
AcDbLine
 62
7
  6
CONTINUOUS
 10
-5.9093487245
 20
-9.551628745
 11
-5.9093487245
 21
-8.7719233561
  0
LINE
  5
2C9
100
AcDbEntity
  8
RACCORDO
100
AcDbLine
 62
253
  6
CONTINUOUS
 10
-5.8793613911
 20
-6.6372913429
 11
-5.8793613911
 21
-6.9192971875
  0
LINE
  5
2CA
100
AcDbEntity
  8
ASSI
100
AcDbLine
 62
253
  6
CONTINUOUS
 10
-5.8793613911
 20
-6.6372913429
 11
-5.8793613911
 21
-6.9192971875
  0
LINE
  5
2CB
100
AcDbEntity
  8
RACCORDO
100
AcDbLine
 62
253
  6
CONTINUOUS
 10
-5.6888789925
 20
-4.9100633723
 11
-5.6888789925
 21
-6.0859111973
  0
LINE
  5
2CC
100
AcDbEntity
  8
ASSI
100
AcDbLine
 62
253
  6
CONTINUOUS
 10
-5.6888789925
 20
-4.9100633723
 11
-5.6888789925
 21
-6.0859111973
  0
LINE
  5
2CD
100
AcDbEntity
  8
RACCORDO
100
AcDbLine
 62
253
  6
CONTINUOUS
 10
-5.6295136843
 20
-6.6372913429
 11
-5.6295136843
 21
-6.9192971875
  0
LINE
  5
2CE
100
AcDbEntity
  8
ASSI
100
AcDbLine
 62
253
  6
CONTINUOUS
 10
-5.6295136843
 20
-6.6372913429
 11
-5.6295136843
 21
-6.9192971875
  0
LINE
  5
2CF
100
AcDbEntity
  8
RACCORDO
100
AcDbLine
 62
253
  6
CONTINUOUS
 10
-5.5489190166
 20
-6.9192971875
 11
-5.5489190166
 21
-6.6372913429
  0
LINE
  5
2D0
100
AcDbEntity
  8
ASSI
100
AcDbLine
 62
253
  6
CONTINUOUS
 10
-5.5489190166
 20
-6.9192971875
 11
-5.5489190166
 21
-6.6372913429
  0
LINE
  5
2D1
100
AcDbEntity
  8
RACCORDO
100
AcDbLine
 62
253
  6
CONTINUOUS
 10
-5.4895537085
 20
-6.0859111973
 11
-5.4895537085
 21
-4.9100633723
  0
LINE
  5
2D2
100
AcDbEntity
  8
ASSI
100
AcDbLine
 62
253
  6
CONTINUOUS
 10
-5.4895537085
 20
-6.0859111973
 11
-5.4895537085
 21
-4.9100633723
  0
LINE
  5
2D3
100
AcDbEntity
  8
RACCORDO
100
AcDbLine
 62
253
  6
CONTINUOUS
 10
-5.2990713099
 20
-6.9192971875
 11
-5.2990713099
 21
-6.6372913429
  0
LINE
  5
2D4
100
AcDbEntity
  8
ASSI
100
AcDbLine
 62
253
  6
CONTINUOUS
 10
-5.2990713099
 20
-6.9192971875
 11
-5.2990713099
 21
-6.6372913429
  0
LINE
  5
2D5
100
AcDbEntity
  8
RACCORDO
100
AcDbLine
 62
7
  6
CONTINUOUS
 10
-5.2690839765
 20
-8.7719233561
 11
-5.2690839765
 21
-9.551628745
  0
LINE
  5
2D6
100
AcDbEntity
  8
ASSI
100
AcDbLine
 62
7
  6
CONTINUOUS
 10
-5.2690839765
 20
-8.7719233561
 11
-5.2690839765
 21
-9.551628745
  0
LINE
  5
2D7
100
AcDbEntity
  8
RACCORDO
100
AcDbLine
 62
253
  6
CONTINUOUS
 10
-5.2397060018
 20
-6.2955804941
 11
-5.2397060018
 21
-4.9100633723
  0
LINE
  5
2D8
100
AcDbEntity
  8
ASSI
100
AcDbLine
 62
253
  6
CONTINUOUS
 10
-5.2397060018
 20
-6.2955804941
 11
-5.2397060018
 21
-4.9100633723
  0
LINE
  5
2D9
100
AcDbEntity
  8
RACCORDO
100
AcDbLine
 62
253
  6
CONTINUOUS
 10
-5.8795249813
 20
-6.9404281006
 11
-5.9093487245
 21
-8.7719233561
  0
LINE
  5
2DA
100
AcDbEntity
  8
ASSI
100
AcDbLine
 62
253
  6
CONTINUOUS
 10
-5.8795249813
 20
-6.9404281006
 11
-5.9093487245
 21
-8.7719233561
  0
LINE
  5
2DB
100
AcDbEntity
  8
RACCORDO
100
AcDbLine
 62
253
  6
CONTINUOUS
 10
-5.6296772745
 20
-7.046082666
 11
-5.6671085797
 21
-9.3447631989
  0
LINE
  5
2DC
100
AcDbEntity
  8
ASSI
100
AcDbLine
 62
253
  6
CONTINUOUS
 10
-5.6296772745
 20
-7.046082666
 11
-5.6671085797
 21
-9.3447631989
  0
LINE
  5
2DD
100
AcDbEntity
  8
DRAFT
100
AcDbLine
 62
7
  6
CONTINUOUS
 10
8.5232496401
 20
9.846443194
 11
8.2607836495
 21
9.7416808855
  0
LINE
  5
2DE
100
AcDbEntity
  8
ASSI
100
AcDbLine
 62
7
  6
CONTINUOUS
 10
8.5232496401
 20
9.846443194
 11
8.2607836495
 21
9.7416808855
  0
LINE
  5
2DF
100
AcDbEntity
  8
0
100
AcDbLine
 62
7
  6
CONTINUOUS
 10
1.6044006805
 20
-6.2019715863
 11
1.3873793791
 21
-6.2019715863
  0
LINE
  5
2E0
100
AcDbEntity
  8
ASSI
100
AcDbLine
 62
7
  6
CONTINUOUS
 10
1.6044006805
 20
-6.2019715863
 11
1.3873793791
 21
-6.2019715863
  0
LINE
  5
2E1
100
AcDbEntity
  8
RACCORDO
100
AcDbLine
 62
7
  6
CONTINUOUS
 10
-5.6816647821
 20
-6.0858055863
 11
-5.4967679189
 21
-6.0858055863
  0
LINE
  5
2E2
100
AcDbEntity
  8
ASSI
100
AcDbLine
 62
7
  6
CONTINUOUS
 10
-5.6816647821
 20
-6.0858055863
 11
-5.4967679189
 21
-6.0858055863
  0
LINE
  5
2E3
100
AcDbEntity
  8
RACCORDO
100
AcDbLine
 62
7
  6
CONTINUOUS
 10
5.7032320811
 20
-6.0858055863
 11
5.5183352179
 21
-6.0858055863
  0
LINE
  5
2E4
100
AcDbEntity
  8
ASSI
100
AcDbLine
 62
7
  6
CONTINUOUS
 10
5.7032320811
 20
-6.0858055863
 11
5.5183352179
 21
-6.0858055863
  0
LINE
  5
2E5
100
AcDbEntity
  8
0
100
AcDbLine
 62
7
  6
CONTINUOUS
 10
1.6767410974
 20
-5.9186383205
 11
1.568230472
 21
-5.9186383205
  0
LINE
  5
2E6
100
AcDbEntity
  8
ASSI
100
AcDbLine
 62
7
  6
CONTINUOUS
 10
1.6767410974
 20
-5.9186383205
 11
1.568230472
 21
-5.9186383205
  0
LINE
  5
2E7
100
AcDbEntity
  8
0
100
AcDbLine
 62
7
  6
CONTINUOUS
 10
0.9533368777
 20
-5.8832215863
 11
0.8448262523
 21
-5.8832215863
  0
LINE
  5
2E8
100
AcDbEntity
  8
ASSI
100
AcDbLine
 62
7
  6
CONTINUOUS
 10
0.9533368777
 20
-5.8832215863
 11
0.8448262523
 21
-5.8832215863
  0
LINE
  5
2E9
100
AcDbEntity
  8
0
100
AcDbLine
 62
7
  6
CONTINUOUS
 10
1.6767410974
 20
-5.7415548521
 11
1.568230472
 21
-5.7415548521
  0
LINE
  5
2EA
100
AcDbEntity
  8
ASSI
100
AcDbLine
 62
7
  6
CONTINUOUS
 10
1.6767410974
 20
-5.7415548521
 11
1.568230472
 21
-5.7415548521
  0
LINE
  5
2EB
100
AcDbEntity
  8
0
100
AcDbLine
 62
7
  6
CONTINUOUS
 10
0.9171666692
 20
-5.7061383205
 11
0.8448262523
 21
-5.7061383205
  0
LINE
  5
2EC
100
AcDbEntity
  8
ASSI
100
AcDbLine
 62
7
  6
CONTINUOUS
 10
0.9171666692
 20
-5.7061383205
 11
0.8448262523
 21
-5.7061383205
  0
LINE
  5
2ED
100
AcDbEntity
  8
0
100
AcDbLine
 62
7
  6
CONTINUOUS
 10
-1.5168943505
 20
-5.8354375863
 11
-0.4069153505
 21
-5.9120095863
  0
LINE
  5
2EE
100
AcDbEntity
  8
ASSI
100
AcDbLine
 62
7
  6
CONTINUOUS
 10
-1.5168943505
 20
-5.8354375863
 11
-0.4069153505
 21
-5.9120095863
  0
LINE
  5
2EF
100
AcDbEntity
  8
0
100
AcDbLine
 62
7
  6
CONTINUOUS
 10
-2.1067783505
 20
-5.0375335863
 11
-1.1630093505
 21
-5.3923615863
  0
LINE
  5
2F0
100
AcDbEntity
  8
ASSI
100
AcDbLine
 62
7
  6
CONTINUOUS
 10
-2.1067783505
 20
-5.0375335863
 11
-1.1630093505
 21
-5.3923615863
  0
LINE
  5
2F1
100
AcDbEntity
  8
0
100
AcDbLine
 62
7
  6
CONTINUOUS
 10
0.4107836495
 20
-8.1144715863
 11
0.6639751087
 21
-8.3269715863
  0
LINE
  5
2F2
100
AcDbEntity
  8
ASSI
100
AcDbLine
 62
7
  6
CONTINUOUS
 10
0.4107836495
 20
-8.1144715863
 11
0.6639751087
 21
-8.3269715863
  0
LINE
  5
2F3
100
AcDbEntity
  8
0
100
AcDbLine
 62
7
  6
CONTINUOUS
 10
0.7001453171
 20
-8.1144715863
 11
0.9533368777
 21
-8.3269715863
  0
LINE
  5
2F4
100
AcDbEntity
  8
ASSI
100
AcDbLine
 62
7
  6
CONTINUOUS
 10
0.7001453171
 20
-8.1144715863
 11
0.9533368777
 21
-8.3269715863
  0
LINE
  5
2F5
100
AcDbEntity
  8
ASSI
100
AcDbLine
 62
253
  6
CONTINUOUS
 10
-4.3421162789
 20
5.7007648586
 11
-4.3474609218
 21
7.3281369619
  0
LINE
  5
2F6
100
AcDbEntity
  8
RACCORDO
100
AcDbLine
 62
253
  6
CONTINUOUS
 10
-5.5474761746
 20
-6.341849017
 11
-5.4967679189
 21
-6.0858055863
  0
LINE
  5
2F7
100
AcDbEntity
  8
ASSI
100
AcDbLine
 62
253
  6
CONTINUOUS
 10
-5.5474761746
 20
-6.341849017
 11
-5.4967679189
 21
-6.0858055863
  0
LINE
  5
2F8
100
AcDbEntity
  8
0
100
AcDbLine
 62
7
  6
CONTINUOUS
 10
-2.1067783505
 20
-4.6864665863
 11
-0.4069153505
 21
-4.5275095863
  0
LINE
  5
2F9
100
AcDbEntity
  8
ASSI
100
AcDbLine
 62
7
  6
CONTINUOUS
 10
-2.1067783505
 20
-4.6864665863
 11
-0.4069153505
 21
-4.5275095863
  0
LINE
  5
2FA
100
AcDbEntity
  8
0
100
AcDbLine
 62
7
  6
CONTINUOUS
 10
-1.5122673505
 20
-4.9475265863
 11
-0.4069153505
 21
-4.8746255863
  0
LINE
  5
2FB
100
AcDbEntity
  8
ASSI
100
AcDbLine
 62
7
  6
CONTINUOUS
 10
-1.5122673505
 20
-4.9475265863
 11
-0.4069153505
 21
-4.8746255863
  0
LINE
  5
2FC
100
AcDbEntity
  8
RACCORDO
100
AcDbLine
 62
253
  6
CONTINUOUS
 10
-5.2397060018
 20
-4.9100633723
 11
-5.9387266992
 21
-4.9100633723
  0
LINE
  5
2FD
100
AcDbEntity
  8
RACCORDO
100
AcDbLine
 62
253
  6
CONTINUOUS
 10
5.2612733008
 20
-4.9100633723
 11
5.9602939982
 21
-4.9100633723
  0
LINE
  5
2FE
100
AcDbEntity
  8
ASSI
100
AcDbLine
 62
253
  6
CONTINUOUS
 10
-5.2397060018
 20
-4.9100633723
 11
-5.9387266992
 21
-4.9100633723
  0
LINE
  5
2FF
100
AcDbEntity
  8
ASSI
100
AcDbLine
 62
253
  6
CONTINUOUS
 10
5.2612733008
 20
-4.9100633723
 11
5.9602939982
 21
-4.9100633723
  0
LINE
  5
300
100
AcDbEntity
  8
0
100
AcDbLine
 62
7
  6
CONTINUOUS
 10
0.9171666692
 20
-4.8561381179
 11
0.8448262523
 21
-4.8561381179
  0
LINE
  5
301
100
AcDbEntity
  8
ASSI
100
AcDbLine
 62
7
  6
CONTINUOUS
 10
0.9171666692
 20
-4.8561381179
 11
0.8448262523
 21
-4.8561381179
  0
LINE
  5
302
100
AcDbEntity
  8
0
100
AcDbLine
 62
7
  6
CONTINUOUS
 10
1.6767410974
 20
-4.8207215863
 11
1.568230472
 21
-4.8207215863
  0
LINE
  5
303
100
AcDbEntity
  8
ASSI
100
AcDbLine
 62
7
  6
CONTINUOUS
 10
1.6767410974
 20
-4.8207215863
 11
1.568230472
 21
-4.8207215863
  0
LINE
  5
304
100
AcDbEntity
  8
0
100
AcDbLine
 62
7
  6
CONTINUOUS
 10
0.9533368777
 20
-4.6790550547
 11
0.8448262523
 21
-4.6790550547
  0
LINE
  5
305
100
AcDbEntity
  8
ASSI
100
AcDbLine
 62
7
  6
CONTINUOUS
 10
0.9533368777
 20
-4.6790550547
 11
0.8448262523
 21
-4.6790550547
  0
LINE
  5
306
100
AcDbEntity
  8
0
100
AcDbLine
 62
7
  6
CONTINUOUS
 10
1.6767410974
 20
-4.6436381179
 11
1.568230472
 21
-4.6436381179
  0
LINE
  5
307
100
AcDbEntity
  8
ASSI
100
AcDbLine
 62
7
  6
CONTINUOUS
 10
1.6767410974
 20
-4.6436381179
 11
1.568230472
 21
-4.6436381179
  0
LINE
  5
308
100
AcDbEntity
  8
RACCORDO
100
AcDbLine
 62
253
  6
CONTINUOUS
 10
5.7121623158
 20
-4.6101088346
 11
5.5094049832
 21
-4.6101088346
  0
LINE
  5
309
100
AcDbEntity
  8
ASSI
100
AcDbLine
 62
253
  6
CONTINUOUS
 10
5.7121623158
 20
-4.6101088346
 11
5.5094049832
 21
-4.6101088346
  0
LINE
  5
30A
100
AcDbEntity
  8
RACCORDO
100
AcDbLine
 62
253
  6
CONTINUOUS
 10
-5.4878376842
 20
-4.6101088346
 11
-5.6905950168
 21
-4.6101088346
  0
LINE
  5
30B
100
AcDbEntity
  8
ASSI
100
AcDbLine
 62
253
  6
CONTINUOUS
 10
-5.4878376842
 20
-4.6101088346
 11
-5.6905950168
 21
-4.6101088346
  0
LINE
  5
30C
100
AcDbEntity
  8
RACCORDO
100
AcDbLine
 62
7
  6
CONTINUOUS
 10
5.7666793216
 20
-4.5828586368
 11
5.4548879774
 21
-4.5828586368
  0
LINE
  5
30D
100
AcDbEntity
  8
ASSI
100
AcDbLine
 62
7
  6
CONTINUOUS
 10
5.7666793216
 20
-4.5828586368
 11
5.4548879774
 21
-4.5828586368
  0
LINE
  5
30E
100
AcDbEntity
  8
RACCORDO
100
AcDbLine
 62
7
  6
CONTINUOUS
 10
-5.4333206784
 20
-4.5828586368
 11
-5.7451120226
 21
-4.5828586368
  0
LINE
  5
30F
100
AcDbEntity
  8
ASSI
100
AcDbLine
 62
7
  6
CONTINUOUS
 10
-5.4333206784
 20
-4.5828586368
 11
-5.7451120226
 21
-4.5828586368
  0
LINE
  5
310
100
AcDbEntity
  8
0
100
AcDbLine
 62
7
  6
CONTINUOUS
 10
1.6044006805
 20
-4.3603050547
 11
1.3873793791
 21
-4.3603050547
  0
LINE
  5
311
100
AcDbEntity
  8
ASSI
100
AcDbLine
 62
7
  6
CONTINUOUS
 10
1.6044006805
 20
-4.3603050547
 11
1.3873793791
 21
-4.3603050547
  0
LINE
  5
312
100
AcDbEntity
  8
0
100
AcDbLine
 62
7
  6
CONTINUOUS
 10
-2.1067783505
 20
-3.9386075863
 11
-0.4069153505
 21
-4.4717925863
  0
LINE
  5
313
100
AcDbEntity
  8
ASSI
100
AcDbLine
 62
7
  6
CONTINUOUS
 10
-2.1067783505
 20
-3.9386075863
 11
-0.4069153505
 21
-4.4717925863
  0
LINE
  5
314
100
AcDbEntity
  8
0
100
AcDbLine
 62
7
  6
CONTINUOUS
 10
-1.5122673505
 20
-4.9475265863
 11
-0.4069153505
 21
-5.3694175863
  0
LINE
  5
315
100
AcDbEntity
  8
ASSI
100
AcDbLine
 62
7
  6
CONTINUOUS
 10
-1.5122673505
 20
-4.9475265863
 11
-0.4069153505
 21
-5.3694175863
  0
LINE
  5
316
100
AcDbEntity
  8
0
100
AcDbLine
 62
7
  6
CONTINUOUS
 10
0.6639751087
 20
-5.8123883205
 11
0.8448262523
 21
-5.8832215863
  0
LINE
  5
317
100
AcDbEntity
  8
ASSI
100
AcDbLine
 62
7
  6
CONTINUOUS
 10
0.6639751087
 20
-5.8123883205
 11
0.8448262523
 21
-5.8832215863
  0
LINE
  5
318
100
AcDbEntity
  8
0
100
AcDbLine
 62
7
  6
CONTINUOUS
 10
1.3873793791
 20
-5.8478048521
 11
1.568230472
 21
-5.9186383205
  0
LINE
  5
319
100
AcDbEntity
  8
ASSI
100
AcDbLine
 62
7
  6
CONTINUOUS
 10
1.3873793791
 20
-5.8478048521
 11
1.568230472
 21
-5.9186383205
  0
LINE
  5
31A
100
AcDbEntity
  8
0
100
AcDbLine
 62
7
  6
CONTINUOUS
 10
0.7363155256
 20
-5.6353048521
 11
0.8448262523
 21
-5.7061383205
  0
LINE
  5
31B
100
AcDbEntity
  8
ASSI
100
AcDbLine
 62
7
  6
CONTINUOUS
 10
0.7363155256
 20
-5.6353048521
 11
0.8448262523
 21
-5.7061383205
  0
LINE
  5
31C
100
AcDbEntity
  8
0
100
AcDbLine
 62
7
  6
CONTINUOUS
 10
0.4107836495
 20
-6.7686382192
 11
1.3873793791
 21
-7.6186382699
  0
LINE
  5
31D
100
AcDbEntity
  8
ASSI
100
AcDbLine
 62
7
  6
CONTINUOUS
 10
0.4107836495
 20
-6.7686382192
 11
1.3873793791
 21
-7.6186382699
  0
LINE
  5
31E
100
AcDbEntity
  8
0
100
AcDbLine
 62
7
  6
CONTINUOUS
 10
0.7001453171
 20
-6.7686382192
 11
1.3873793791
 21
-7.3707215863
  0
LINE
  5
31F
100
AcDbEntity
  8
ASSI
100
AcDbLine
 62
7
  6
CONTINUOUS
 10
0.7001453171
 20
-6.7686382192
 11
1.3873793791
 21
-7.3707215863
  0
LINE
  5
320
100
AcDbEntity
  8
RACCORDO
100
AcDbLine
 62
7
  6
CONTINUOUS
 10
-9.8892163505
 20
9.846443194
 11
-9.8193651063
 21
9.7066981281
  0
LINE
  5
321
100
AcDbEntity
  8
ASSI
100
AcDbLine
 62
7
  6
CONTINUOUS
 10
-9.8892163505
 20
9.846443194
 11
-9.8193651063
 21
9.7066981281
  0
LINE
  5
322
100
AcDbEntity
  8
RACCORDO
100
AcDbLine
 62
253
  6
CONTINUOUS
 10
-3.9046864043
 20
-9.551628745
 11
-3.9046864043
 21
-11.1080443561
  0
LINE
  5
323
100
AcDbEntity
  8
ASSI
100
AcDbLine
 62
253
  6
CONTINUOUS
 10
-3.9046864043
 20
-9.551628745
 11
-3.9046864043
 21
-11.1080443561
  0
LINE
  5
324
100
AcDbEntity
  8
RACCORDO
100
AcDbLine
 62
253
  6
CONTINUOUS
 10
-3.8110618753
 20
7.2901090138
 11
-3.8110618753
 21
5.7382798136
  0
LINE
  5
325
100
AcDbEntity
  8
ASSI
100
AcDbLine
 62
253
  6
CONTINUOUS
 10
-3.8110618753
 20
7.2901090138
 11
-3.8110618753
 21
5.7382798136
  0
LINE
  5
326
100
AcDbEntity
  8
RACCORDO
100
AcDbLine
 62
253
  6
CONTINUOUS
 10
-3.7314813236
 20
-9.563907201
 11
-3.7314813236
 21
-11.113285134
  0
LINE
  5
327
100
AcDbEntity
  8
ASSI
100
AcDbLine
 62
253
  6
CONTINUOUS
 10
-3.7314813236
 20
-9.563907201
 11
-3.7314813236
 21
-11.113285134
  0
LINE
  5
328
100
AcDbEntity
  8
RACCORDO
100
AcDbLine
 62
253
  6
CONTINUOUS
 10
-3.529154089
 20
7.283215865
 11
-3.529154089
 21
5.7451729624
  0
LINE
  5
329
100
AcDbEntity
  8
ASSI
100
AcDbLine
 62
253
  6
CONTINUOUS
 10
-3.529154089
 20
7.283215865
 11
-3.529154089
 21
5.7451729624
  0
LINE
  5
32A
100
AcDbEntity
  8
DRAFT
100
AcDbLine
 62
7
  6
CONTINUOUS
 10
-3.0588521109
 20
7.283215865
 11
-3.0588521109
 21
5.7451729624
  0
LINE
  5
32B
100
AcDbEntity
  8
ASSI
100
AcDbLine
 62
7
  6
CONTINUOUS
 10
-3.0588521109
 20
7.283215865
 11
-3.0588521109
 21
5.7451729624
  0
LINE
  5
32C
100
AcDbEntity
  8
DRAFT
100
AcDbLine
 62
7
  6
CONTINUOUS
 10
-2.9892163505
 20
2.4660048126
 11
-2.9892163505
 21
5.7277125777
  0
LINE
  5
32D
100
AcDbEntity
  8
ASSI
100
AcDbLine
 62
7
  6
CONTINUOUS
 10
-2.9892163505
 20
2.4660048126
 11
-2.9892163505
 21
5.7277125777
  0
LINE
  5
32E
100
AcDbEntity
  8
DRAFT
100
AcDbLine
 62
7
  6
CONTINUOUS
 10
-2.9892163505
 20
7.3006762497
 11
-2.9892163505
 21
9.0501420408
  0
LINE
  5
32F
100
AcDbEntity
  8
ASSI
100
AcDbLine
 62
7
  6
CONTINUOUS
 10
-2.9892163505
 20
7.3006762497
 11
-2.9892163505
 21
9.0501420408
  0
LINE
  5
330
100
AcDbEntity
  8
RACCORDO
100
AcDbLine
 62
253
  6
CONTINUOUS
 10
-5.2976284678
 20
-6.5880509552
 11
-5.2397060018
 21
-6.2955804941
  0
LINE
  5
331
100
AcDbEntity
  8
ASSI
100
AcDbLine
 62
253
  6
CONTINUOUS
 10
-5.2976284678
 20
-6.5880509552
 11
-5.2397060018
 21
-6.2955804941
  0
LINE
  5
332
100
AcDbEntity
  8
0
100
AcDbLine
 62
7
  6
CONTINUOUS
 10
-0.7462683505
 20
-3.5396865863
 11
-0.4069153505
 21
-3.4477675863
  0
LINE
  5
333
100
AcDbEntity
  8
ASSI
100
AcDbLine
 62
7
  6
CONTINUOUS
 10
-0.7462683505
 20
-3.5396865863
 11
-0.4069153505
 21
-3.4477675863
  0
LINE
  5
334
100
AcDbEntity
  8
0
100
AcDbLine
 62
7
  6
CONTINUOUS
 10
-1.6396993505
 20
-3.7736475863
 11
-1.0088583505
 21
-3.6105995863
  0
LINE
  5
335
100
AcDbEntity
  8
ASSI
100
AcDbLine
 62
7
  6
CONTINUOUS
 10
-1.6396993505
 20
-3.7736475863
 11
-1.0088583505
 21
-3.6105995863
  0
LINE
  5
336
100
AcDbEntity
  8
0
100
AcDbLine
 62
7
  6
CONTINUOUS
 10
2.1107836495
 20
-3.5103050547
 11
1.6044006805
 21
-3.5103050547
  0
LINE
  5
337
100
AcDbEntity
  8
ASSI
100
AcDbLine
 62
7
  6
CONTINUOUS
 10
2.1107836495
 20
-3.5103050547
 11
1.6044006805
 21
-3.5103050547
  0
LINE
  5
338
100
AcDbEntity
  8
0
100
AcDbLine
 62
7
  6
CONTINUOUS
 10
1.3873793791
 20
-3.5103050547
 11
0.7001453171
 21
-3.5103050547
  0
LINE
  5
339
100
AcDbEntity
  8
ASSI
100
AcDbLine
 62
7
  6
CONTINUOUS
 10
1.3873793791
 20
-3.5103050547
 11
0.7001453171
 21
-3.5103050547
  0
LINE
  5
33A
100
AcDbEntity
  8
0
100
AcDbLine
 62
7
  6
CONTINUOUS
 10
2.1107836495
 20
-3.2978050547
 11
1.6044006805
 21
-3.2978050547
  0
LINE
  5
33B
100
AcDbEntity
  8
ASSI
100
AcDbLine
 62
7
  6
CONTINUOUS
 10
2.1107836495
 20
-3.2978050547
 11
1.6044006805
 21
-3.2978050547
  0
LINE
  5
33C
100
AcDbEntity
  8
0
100
AcDbLine
 62
7
  6
CONTINUOUS
 10
1.3873793791
 20
-3.2978050547
 11
0.4107836495
 21
-3.2978050547
  0
LINE
  5
33D
100
AcDbEntity
  8
ASSI
100
AcDbLine
 62
7
  6
CONTINUOUS
 10
1.3873793791
 20
-3.2978050547
 11
0.4107836495
 21
-3.2978050547
  0
LINE
  5
33E
100
AcDbEntity
  8
0
100
AcDbLine
 62
7
  6
CONTINUOUS
 10
-1.6396993505
 20
-3.7736475863
 11
-1.0088583505
 21
-3.9503215863
  0
LINE
  5
33F
100
AcDbEntity
  8
ASSI
100
AcDbLine
 62
7
  6
CONTINUOUS
 10
-1.6396993505
 20
-3.7736475863
 11
-1.0088583505
 21
-3.9503215863
  0
LINE
  5
340
100
AcDbEntity
  8
0
100
AcDbLine
 62
7
  6
CONTINUOUS
 10
-0.7462683505
 20
-4.0229035863
 11
-0.4069153505
 21
-4.1208145863
  0
LINE
  5
341
100
AcDbEntity
  8
ASSI
100
AcDbLine
 62
7
  6
CONTINUOUS
 10
-0.7462683505
 20
-4.0229035863
 11
-0.4069153505
 21
-4.1208145863
  0
LINE
  5
342
100
AcDbEntity
  8
0
100
AcDbLine
 62
7
  6
CONTINUOUS
 10
1.6767410974
 20
-4.6436381179
 11
1.857592165
 21
-4.7144715863
  0
LINE
  5
343
100
AcDbEntity
  8
ASSI
100
AcDbLine
 62
7
  6
CONTINUOUS
 10
1.6767410974
 20
-4.6436381179
 11
1.857592165
 21
-4.7144715863
  0
LINE
  5
344
100
AcDbEntity
  8
0
100
AcDbLine
 62
7
  6
CONTINUOUS
 10
0.9533368777
 20
-4.6790550547
 11
1.0980177115
 21
-4.7498881179
  0
LINE
  5
345
100
AcDbEntity
  8
ASSI
100
AcDbLine
 62
7
  6
CONTINUOUS
 10
0.9533368777
 20
-4.6790550547
 11
1.0980177115
 21
-4.7498881179
  0
LINE
  5
346
100
AcDbEntity
  8
0
100
AcDbLine
 62
7
  6
CONTINUOUS
 10
0.9171666692
 20
-4.8561381179
 11
1.0256772946
 21
-4.9269715863
  0
LINE
  5
347
100
AcDbEntity
  8
ASSI
100
AcDbLine
 62
7
  6
CONTINUOUS
 10
0.9171666692
 20
-4.8561381179
 11
1.0256772946
 21
-4.9269715863
  0
LINE
  5
348
100
AcDbEntity
  8
0
100
AcDbLine
 62
7
  6
CONTINUOUS
 10
1.4235495876
 20
-5.6353048521
 11
1.568230472
 21
-5.7415548521
  0
LINE
  5
349
100
AcDbEntity
  8
ASSI
100
AcDbLine
 62
7
  6
CONTINUOUS
 10
1.4235495876
 20
-5.6353048521
 11
1.568230472
 21
-5.7415548521
  0
LINE
  5
34A
100
AcDbEntity
  8
0
100
AcDbLine
 62
7
  6
CONTINUOUS
 10
0.5554644833
 20
-5.7061383205
 11
0.6639751087
 21
-5.8123883205
  0
LINE
  5
34B
100
AcDbEntity
  8
ASSI
100
AcDbLine
 62
7
  6
CONTINUOUS
 10
0.5554644833
 20
-5.7061383205
 11
0.6639751087
 21
-5.8123883205
  0
LINE
  5
34C
100
AcDbEntity
  8
DRAFT
100
AcDbLine
 62
7
  6
CONTINUOUS
 10
-2.9566714154
 20
4.0967393488
 11
-2.9566714154
 21
5.7277125777
  0
LINE
  5
34D
100
AcDbEntity
  8
DRAFT
100
AcDbLine
 62
7
  6
CONTINUOUS
 10
-2.9566714154
 20
7.3006762497
 11
-2.9566714154
 21
8.9316494786
  0
LINE
  5
34E
100
AcDbEntity
  8
DRAFT
100
AcDbLine
 62
7
  6
CONTINUOUS
 10
-2.8892163505
 20
7.2916759442
 11
-2.8892163505
 21
5.7367128831
  0
LINE
  5
34F
100
AcDbEntity
  8
ASSI
100
AcDbLine
 62
7
  6
CONTINUOUS
 10
-2.8892163505
 20
7.2916759442
 11
-2.8892163505
 21
5.7367128831
  0
LINE
  5
350
100
AcDbEntity
  8
DRAFT
100
AcDbLine
 62
7
  6
CONTINUOUS
 10
-2.4892163505
 20
4.0967393488
 11
-2.4892163505
 21
8.9316494786
  0
LINE
  5
351
100
AcDbEntity
  8
DRAFT
100
AcDbLine
 62
7
  6
CONTINUOUS
 10
-2.4857253375
 20
8.9351404916
 11
-2.4857253375
 21
4.0932483358
  0
LINE
  5
352
100
AcDbEntity
  8
0
100
AcDbLine
 62
7
  6
CONTINUOUS
 10
-2.1068803505
 20
-6.4424795863
 11
-2.1068803505
 21
-6.7973075863
  0
LINE
  5
353
100
AcDbEntity
  8
ASSI
100
AcDbLine
 62
7
  6
CONTINUOUS
 10
-2.1068803505
 20
-6.4424795863
 11
-2.1068803505
 21
-6.7973075863
  0
LINE
  5
354
100
AcDbEntity
  8
0
100
AcDbLine
 62
7
  6
CONTINUOUS
 10
-2.1067783505
 20
-3.5953535863
 11
-2.1067783505
 21
-3.9386075863
  0
LINE
  5
355
100
AcDbEntity
  8
ASSI
100
AcDbLine
 62
7
  6
CONTINUOUS
 10
-2.1067783505
 20
-3.5953535863
 11
-2.1067783505
 21
-3.9386075863
  0
LINE
  5
356
100
AcDbEntity
  8
0
100
AcDbLine
 62
7
  6
CONTINUOUS
 10
-2.1067783505
 20
-4.6864665863
 11
-2.1067783505
 21
-5.0375335863
  0
LINE
  5
357
100
AcDbEntity
  8
ASSI
100
AcDbLine
 62
7
  6
CONTINUOUS
 10
-2.1067783505
 20
-4.6864665863
 11
-2.1067783505
 21
-5.0375335863
  0
LINE
  5
358
100
AcDbEntity
  8
0
100
AcDbLine
 62
7
  6
CONTINUOUS
 10
-2.1067783505
 20
-5.7434425863
 11
-2.1067783505
 21
-6.0979775863
  0
LINE
  5
359
100
AcDbEntity
  8
ASSI
100
AcDbLine
 62
7
  6
CONTINUOUS
 10
-2.1067783505
 20
-5.7434425863
 11
-2.1067783505
 21
-6.0979775863
  0
LINE
  5
35A
100
AcDbEntity
  8
0
100
AcDbLine
 62
7
  6
CONTINUOUS
 10
-2.1067783505
 20
-6.9289855863
 11
-2.1067783505
 21
-7.2835715863
  0
LINE
  5
35B
100
AcDbEntity
  8
ASSI
100
AcDbLine
 62
7
  6
CONTINUOUS
 10
-2.1067783505
 20
-6.9289855863
 11
-2.1067783505
 21
-7.2835715863
  0
LINE
  5
35C
100
AcDbEntity
  8
0
100
AcDbLine
 62
7
  6
CONTINUOUS
 10
-2.1067783505
 20
-7.9415185863
 11
-2.1067783505
 21
-8.3269715863
  0
LINE
  5
35D
100
AcDbEntity
  8
ASSI
100
AcDbLine
 62
7
  6
CONTINUOUS
 10
-2.1067783505
 20
-7.9415185863
 11
-2.1067783505
 21
-8.3269715863
  0
LINE
  5
35E
100
AcDbEntity
  8
DRAFT
100
AcDbLine
 62
7
  6
CONTINUOUS
 10
-3.3807913575
 20
-11.145118292
 11
-3.3054978737
 21
-9.654500717
  0
LINE
  5
35F
100
AcDbEntity
  8
ASSI
100
AcDbLine
 62
7
  6
CONTINUOUS
 10
-3.3807913575
 20
-11.145118292
 11
-3.3054978737
 21
-9.654500717
  0
LINE
  5
360
100
AcDbEntity
  8
RACCORDO
100
AcDbLine
 62
7
  6
CONTINUOUS
 10
-5.1951032733
 20
-9.29150595
 11
-5.2690839765
 21
-9.551628745
  0
LINE
  5
361
100
AcDbEntity
  8
ASSI
100
AcDbLine
 62
7
  6
CONTINUOUS
 10
-5.1951032733
 20
-9.29150595
 11
-5.2690839765
 21
-9.551628745
  0
LINE
  5
362
100
AcDbEntity
  8
RACCORDO
100
AcDbLine
 62
7
  6
CONTINUOUS
 10
6.7464257065
 20
9.6998364706
 11
6.7781595056
 21
9.7315702698
  0
LINE
  5
363
100
AcDbEntity
  8
ASSI
100
AcDbLine
 62
7
  6
CONTINUOUS
 10
6.7464257065
 20
9.6998364706
 11
6.7781595056
 21
9.7315702698
  0
LINE
  5
364
100
AcDbEntity
  8
DRAFT
100
AcDbLine
 62
7
  6
CONTINUOUS
 10
-9.8723394514
 20
-3.0858055863
 11
-9.4892163505
 21
-3.0858055863
  0
LINE
  5
365
100
AcDbEntity
  8
ASSI
100
AcDbLine
 62
7
  6
CONTINUOUS
 10
-9.8723394514
 20
-3.0858055863
 11
-9.4892163505
 21
-3.0858055863
  0
LINE
  5
366
100
AcDbEntity
  8
DRAFT
100
AcDbLine
 62
7
  6
CONTINUOUS
 10
9.5107836495
 20
-3.0858055863
 11
9.8939067505
 21
-3.0858055863
  0
LINE
  5
367
100
AcDbEntity
  8
ASSI
100
AcDbLine
 62
7
  6
CONTINUOUS
 10
9.5107836495
 20
-3.0858055863
 11
9.8939067505
 21
-3.0858055863
  0
LINE
  5
368
100
AcDbEntity
  8
0
100
AcDbLine
 62
7
  6
CONTINUOUS
 10
-2.0869184327
 20
-2.9695989224
 11
-0.4069156638
 21
-2.9695989224
  0
LINE
  5
369
100
AcDbEntity
  8
ASSI
100
AcDbLine
 62
7
  6
CONTINUOUS
 10
-2.0869184327
 20
-2.9695989224
 11
-0.4069156638
 21
-2.9695989224
  0
LINE
  5
36A
100
AcDbEntity
  8
0
100
AcDbLine
 62
7
  6
CONTINUOUS
 10
1.6044006805
 20
-2.9436381179
 11
1.3873793791
 21
-2.9436381179
  0
LINE
  5
36B
100
AcDbEntity
  8
ASSI
100
AcDbLine
 62
7
  6
CONTINUOUS
 10
1.6044006805
 20
-2.9436381179
 11
1.3873793791
 21
-2.9436381179
  0
LINE
  5
36C
100
AcDbEntity
  8
0
100
AcDbLine
 62
7
  6
CONTINUOUS
 10
0.9533368777
 20
-2.6603050547
 11
0.6639751087
 21
-2.6603050547
  0
LINE
  5
36D
100
AcDbEntity
  8
ASSI
100
AcDbLine
 62
7
  6
CONTINUOUS
 10
0.9533368777
 20
-2.6603050547
 11
0.6639751087
 21
-2.6603050547
  0
LINE
  5
36E
100
AcDbEntity
  8
0
100
AcDbLine
 62
7
  6
CONTINUOUS
 10
-1.8171900015
 20
-2.6279641547
 11
-1.350544519
 21
-2.6279641547
  0
LINE
  5
36F
100
AcDbEntity
  8
ASSI
100
AcDbLine
 62
7
  6
CONTINUOUS
 10
-1.8171900015
 20
-2.6279641547
 11
-1.350544519
 21
-2.6279641547
  0
LINE
  5
370
100
AcDbEntity
  8
0
100
AcDbLine
 62
7
  6
CONTINUOUS
 10
-1.0721480664
 20
-2.6161985903
 11
-0.4069156638
 21
-2.6161985903
  0
LINE
  5
371
100
AcDbEntity
  8
ASSI
100
AcDbLine
 62
7
  6
CONTINUOUS
 10
-1.0721480664
 20
-2.6161985903
 11
-0.4069156638
 21
-2.6161985903
  0
LINE
  5
372
100
AcDbEntity
  8
0
100
AcDbLine
 62
7
  6
CONTINUOUS
 10
2.1107836495
 20
-2.4478050547
 11
0.7001453171
 21
-2.4478050547
  0
LINE
  5
373
100
AcDbEntity
  8
ASSI
100
AcDbLine
 62
7
  6
CONTINUOUS
 10
2.1107836495
 20
-2.4478050547
 11
0.7001453171
 21
-2.4478050547
  0
LINE
  5
374
100
AcDbEntity
  8
0
100
AcDbLine
 62
7
  6
CONTINUOUS
 10
2.1107836495
 20
-2.2353050547
 11
0.4107836495
 21
-2.2353050547
  0
LINE
  5
375
100
AcDbEntity
  8
ASSI
100
AcDbLine
 62
7
  6
CONTINUOUS
 10
2.1107836495
 20
-2.2353050547
 11
0.4107836495
 21
-2.2353050547
  0
LINE
  5
376
100
AcDbEntity
  8
DRAFT
100
AcDbLine
 62
7
  6
CONTINUOUS
 10
11.1607836495
 20
-2.0858055863
 11
9.9107836495
 21
-2.0858055863
  0
LINE
  5
377
100
AcDbEntity
  8
ASSI
100
AcDbLine
 62
7
  6
CONTINUOUS
 10
11.1607836495
 20
-2.0858055863
 11
9.9107836495
 21
-2.0858055863
  0
LINE
  5
378
100
AcDbEntity
  8
DRAFT
100
AcDbLine
 62
7
  6
CONTINUOUS
 10
-9.8892163505
 20
-2.0858055863
 11
-11.1392163505
 21
-2.0858055863
  0
LINE
  5
379
100
AcDbEntity
  8
ASSI
100
AcDbLine
 62
7
  6
CONTINUOUS
 10
-9.8892163505
 20
-2.0858055863
 11
-11.1392163505
 21
-2.0858055863
  0
LINE
  5
37A
100
AcDbEntity
  8
0
100
AcDbLine
 62
7
  6
CONTINUOUS
 10
1.6767410974
 20
-4.8207215863
 11
1.8214219565
 21
-4.9269715863
  0
LINE
  5
37B
100
AcDbEntity
  8
ASSI
100
AcDbLine
 62
7
  6
CONTINUOUS
 10
1.6767410974
 20
-4.8207215863
 11
1.8214219565
 21
-4.9269715863
  0
LINE
  5
37C
100
AcDbEntity
  8
0
100
AcDbLine
 62
7
  6
CONTINUOUS
 10
0.4107836495
 20
-3.5103050547
 11
1.3873793791
 21
-4.3603050547
  0
LINE
  5
37D
100
AcDbEntity
  8
ASSI
100
AcDbLine
 62
7
  6
CONTINUOUS
 10
0.4107836495
 20
-3.5103050547
 11
1.3873793791
 21
-4.3603050547
  0
LINE
  5
37E
100
AcDbEntity
  8
0
100
AcDbLine
 62
7
  6
CONTINUOUS
 10
0.7001453171
 20
-3.5103050547
 11
1.3873793791
 21
-4.1123881179
  0
LINE
  5
37F
100
AcDbEntity
  8
ASSI
100
AcDbLine
 62
7
  6
CONTINUOUS
 10
0.7001453171
 20
-3.5103050547
 11
1.3873793791
 21
-4.1123881179
  0
LINE
  5
380
100
AcDbEntity
  8
0
100
AcDbLine
 62
7
  6
CONTINUOUS
 10
1.0980177115
 20
-4.7498881179
 11
1.2065283368
 21
-4.8561381179
  0
LINE
  5
381
100
AcDbEntity
  8
ASSI
100
AcDbLine
 62
7
  6
CONTINUOUS
 10
1.0980177115
 20
-4.7498881179
 11
1.2065283368
 21
-4.8561381179
  0
LINE
  5
382
100
AcDbEntity
  8
0
100
AcDbLine
 62
7
  6
CONTINUOUS
 10
1.857592165
 20
-4.7144715863
 11
1.966102803
 21
-4.8207215863
  0
LINE
  5
383
100
AcDbEntity
  8
ASSI
100
AcDbLine
 62
7
  6
CONTINUOUS
 10
1.857592165
 20
-4.7144715863
 11
1.966102803
 21
-4.8207215863
  0
LINE
  5
384
100
AcDbEntity
  8
0
100
AcDbLine
 62
7
  6
CONTINUOUS
 10
0.6278049002
 20
-5.4936383205
 11
0.7363155256
 21
-5.6353048521
  0
LINE
  5
385
100
AcDbEntity
  8
ASSI
100
AcDbLine
 62
7
  6
CONTINUOUS
 10
0.6278049002
 20
-5.4936383205
 11
0.7363155256
 21
-5.6353048521
  0
LINE
  5
386
100
AcDbEntity
  8
0
100
AcDbLine
 62
7
  6
CONTINUOUS
 10
1.2788687537
 20
-5.7061383205
 11
1.3873793791
 21
-5.8478048521
  0
LINE
  5
387
100
AcDbEntity
  8
ASSI
100
AcDbLine
 62
7
  6
CONTINUOUS
 10
1.2788687537
 20
-5.7061383205
 11
1.3873793791
 21
-5.8478048521
  0
LINE
  5
388
100
AcDbEntity
  8
0
100
AcDbLine
 62
7
  6
CONTINUOUS
 10
1.0256772946
 20
-4.9269715863
 11
1.1341879199
 21
-5.0686383205
  0
LINE
  5
389
100
AcDbEntity
  8
ASSI
100
AcDbLine
 62
7
  6
CONTINUOUS
 10
1.0256772946
 20
-4.9269715863
 11
1.1341879199
 21
-5.0686383205
  0
LINE
  5
38A
100
AcDbEntity
  8
0
100
AcDbLine
 62
7
  6
CONTINUOUS
 10
0.446953858
 20
-5.5290548521
 11
0.5554644833
 21
-5.7061383205
  0
LINE
  5
38B
100
AcDbEntity
  8
ASSI
100
AcDbLine
 62
7
  6
CONTINUOUS
 10
0.446953858
 20
-5.5290548521
 11
0.5554644833
 21
-5.7061383205
  0
LINE
  5
38C
100
AcDbEntity
  8
0
100
AcDbLine
 62
7
  6
CONTINUOUS
 10
-1.350544519
 20
-2.4251834419
 11
-1.350544519
 21
-2.6279641547
  0
LINE
  5
38D
100
AcDbEntity
  8
ASSI
100
AcDbLine
 62
7
  6
CONTINUOUS
 10
-1.350544519
 20
-2.4251834419
 11
-1.350544519
 21
-2.6279641547
  0
LINE
  5
38E
100
AcDbEntity
  8
0
100
AcDbLine
 62
7
  6
CONTINUOUS
 10
-1.0721480664
 20
-2.4259482673
 11
-1.0721480664
 21
-2.6161985903
  0
LINE
  5
38F
100
AcDbEntity
  8
ASSI
100
AcDbLine
 62
7
  6
CONTINUOUS
 10
-1.0721480664
 20
-2.4259482673
 11
-1.0721480664
 21
-2.6161985903
  0
LINE
  5
390
100
AcDbEntity
  8
0
100
AcDbLine
 62
7
  6
CONTINUOUS
 10
-1.0088583505
 20
-3.6105995863
 11
-1.0088583505
 21
-3.9503215863
  0
LINE
  5
391
100
AcDbEntity
  8
ASSI
100
AcDbLine
 62
7
  6
CONTINUOUS
 10
-1.0088583505
 20
-3.6105995863
 11
-1.0088583505
 21
-3.9503215863
  0
LINE
  5
392
100
AcDbEntity
  8
DRAFT
100
AcDbLine
 62
7
  6
CONTINUOUS
 10
2.5072926365
 20
4.0932483358
 11
2.5107836495
 21
4.0967393488
  0
LINE
  5
393
100
AcDbEntity
  8
0
100
AcDbLine
 62
7
  6
CONTINUOUS
 10
-1.2104412493
 20
-2.0573534035
 11
-1.2003965421
 21
-2.0573534035
  0
LINE
  5
394
100
AcDbEntity
  8
ASSI
100
AcDbLine
 62
7
  6
CONTINUOUS
 10
-1.2104412493
 20
-2.0573534035
 11
-1.2003965421
 21
-2.0573534035
  0
LINE
  5
395
100
AcDbEntity
  8
RACCORDO
100
AcDbLine
 62
253
  6
CONTINUOUS
 10
5.2051634565
 20
-4.8328821347
 11
5.2595577349
 21
-4.8600709875
  0
LINE
  5
396
100
AcDbEntity
  8
ASSI
100
AcDbLine
 62
253
  6
CONTINUOUS
 10
5.2051634565
 20
-4.8328821347
 11
5.2595577349
 21
-4.8600709875
  0
LINE
  5
397
100
AcDbEntity
  8
RACCORDO
100
AcDbLine
 62
253
  6
CONTINUOUS
 10
5.4548879774
 20
-4.5828586368
 11
5.5094049832
 21
-4.6101088346
  0
LINE
  5
398
100
AcDbEntity
  8
ASSI
100
AcDbLine
 62
253
  6
CONTINUOUS
 10
5.4548879774
 20
-4.5828586368
 11
5.5094049832
 21
-4.6101088346
  0
LINE
  5
399
100
AcDbEntity
  8
0
100
AcDbLine
 62
7
  6
CONTINUOUS
 10
0.4107836495
 20
-2.4478050547
 11
0.6639751087
 21
-2.6603050547
  0
LINE
  5
39A
100
AcDbEntity
  8
ASSI
100
AcDbLine
 62
7
  6
CONTINUOUS
 10
0.4107836495
 20
-2.4478050547
 11
0.6639751087
 21
-2.6603050547
  0
LINE
  5
39B
100
AcDbEntity
  8
0
100
AcDbLine
 62
7
  6
CONTINUOUS
 10
0.7001453171
 20
-2.4478050547
 11
0.9533368777
 21
-2.6603050547
  0
LINE
  5
39C
100
AcDbEntity
  8
ASSI
100
AcDbLine
 62
7
  6
CONTINUOUS
 10
0.7001453171
 20
-2.4478050547
 11
0.9533368777
 21
-2.6603050547
  0
LINE
  5
39D
100
AcDbEntity
  8
RACCORDO
100
AcDbLine
 62
253
  6
CONTINUOUS
 10
-7.025967274
 20
4.8011280891
 11
-7.0810972093
 21
4.8562580244
  0
LINE
  5
39E
100
AcDbEntity
  8
ASSI
100
AcDbLine
 62
253
  6
CONTINUOUS
 10
-7.025967274
 20
4.8011280891
 11
-7.0810972093
 21
4.8562580244
  0
LINE
  5
39F
100
AcDbEntity
  8
RACCORDO
100
AcDbLine
 62
253
  6
CONTINUOUS
 10
-6.7260227265
 20
5.1008180378
 11
-6.7812804887
 21
5.1560758
  0
LINE
  5
3A0
100
AcDbEntity
  8
ASSI
100
AcDbLine
 62
253
  6
CONTINUOUS
 10
-6.7260227265
 20
5.1008180378
 11
-6.7812804887
 21
5.1560758
  0
LINE
  5
3A1
100
AcDbEntity
  8
0
100
AcDbLine
 62
7
  6
CONTINUOUS
 10
1.2426985453
 20
-5.6353048521
 11
1.2788687537
 21
-5.7061383205
  0
LINE
  5
3A2
100
AcDbEntity
  8
ASSI
100
AcDbLine
 62
7
  6
CONTINUOUS
 10
1.2426985453
 20
-5.6353048521
 11
1.2788687537
 21
-5.7061383205
  0
LINE
  5
3A3
100
AcDbEntity
  8
0
100
AcDbLine
 62
7
  6
CONTINUOUS
 10
1.3512091706
 20
-5.4936383205
 11
1.4235495876
 21
-5.6353048521
  0
LINE
  5
3A4
100
AcDbEntity
  8
ASSI
100
AcDbLine
 62
7
  6
CONTINUOUS
 10
1.3512091706
 20
-5.4936383205
 11
1.4235495876
 21
-5.6353048521
  0
LINE
  5
3A5
100
AcDbEntity
  8
0
100
AcDbLine
 62
7
  6
CONTINUOUS
 10
1.2065283368
 20
-4.8561381179
 11
1.2426985453
 21
-4.9269715863
  0
LINE
  5
3A6
100
AcDbEntity
  8
ASSI
100
AcDbLine
 62
7
  6
CONTINUOUS
 10
1.2065283368
 20
-4.8561381179
 11
1.2426985453
 21
-4.9269715863
  0
LINE
  5
3A7
100
AcDbEntity
  8
0
100
AcDbLine
 62
7
  6
CONTINUOUS
 10
-0.7462683505
 20
-3.5396865863
 11
-0.7462683505
 21
-4.0229035863
  0
LINE
  5
3A8
100
AcDbEntity
  8
ASSI
100
AcDbLine
 62
7
  6
CONTINUOUS
 10
-0.7462683505
 20
-3.5396865863
 11
-0.7462683505
 21
-4.0229035863
  0
LINE
  5
3A9
100
AcDbEntity
  8
0
100
AcDbLine
 62
7
  6
CONTINUOUS
 10
-0.4069156638
 20
-1.7315250278
 11
-0.4069156638
 21
-2.0728283712
  0
LINE
  5
3AA
100
AcDbEntity
  8
ASSI
100
AcDbLine
 62
7
  6
CONTINUOUS
 10
-0.4069156638
 20
-1.7315250278
 11
-0.4069156638
 21
-2.0728283712
  0
LINE
  5
3AB
100
AcDbEntity
  8
0
100
AcDbLine
 62
7
  6
CONTINUOUS
 10
-0.4069156638
 20
-2.6161985903
 11
-0.4069156638
 21
-2.9695989224
  0
LINE
  5
3AC
100
AcDbEntity
  8
ASSI
100
AcDbLine
 62
7
  6
CONTINUOUS
 10
-0.4069156638
 20
-2.6161985903
 11
-0.4069156638
 21
-2.9695989224
  0
LINE
  5
3AD
100
AcDbEntity
  8
0
100
AcDbLine
 62
7
  6
CONTINUOUS
 10
-0.4069153505
 20
-3.0737935863
 11
-0.4069153505
 21
-3.4477675863
  0
LINE
  5
3AE
100
AcDbEntity
  8
ASSI
100
AcDbLine
 62
7
  6
CONTINUOUS
 10
-0.4069153505
 20
-3.0737935863
 11
-0.4069153505
 21
-3.4477675863
  0
LINE
  5
3AF
100
AcDbEntity
  8
0
100
AcDbLine
 62
7
  6
CONTINUOUS
 10
-0.4069153505
 20
-4.1208145863
 11
-0.4069153505
 21
-4.4717925863
  0
LINE
  5
3B0
100
AcDbEntity
  8
ASSI
100
AcDbLine
 62
7
  6
CONTINUOUS
 10
-0.4069153505
 20
-4.1208145863
 11
-0.4069153505
 21
-4.4717925863
  0
LINE
  5
3B1
100
AcDbEntity
  8
0
100
AcDbLine
 62
7
  6
CONTINUOUS
 10
-0.4069153505
 20
-4.5275095863
 11
-0.4069153505
 21
-4.8746255863
  0
LINE
  5
3B2
100
AcDbEntity
  8
ASSI
100
AcDbLine
 62
7
  6
CONTINUOUS
 10
-0.4069153505
 20
-4.5275095863
 11
-0.4069153505
 21
-4.8746255863
  0
LINE
  5
3B3
100
AcDbEntity
  8
0
100
AcDbLine
 62
7
  6
CONTINUOUS
 10
-0.4069153505
 20
-5.3694175863
 11
-0.4069153505
 21
-5.4191815863
  0
LINE
  5
3B4
100
AcDbEntity
  8
ASSI
100
AcDbLine
 62
7
  6
CONTINUOUS
 10
-0.4069153505
 20
-5.3694175863
 11
-0.4069153505
 21
-5.4191815863
  0
LINE
  5
3B5
100
AcDbEntity
  8
0
100
AcDbLine
 62
7
  6
CONTINUOUS
 10
-0.4069153505
 20
-5.9120095863
 11
-0.4069153505
 21
-6.2514645863
  0
LINE
  5
3B6
100
AcDbEntity
  8
ASSI
100
AcDbLine
 62
7
  6
CONTINUOUS
 10
-0.4069153505
 20
-5.9120095863
 11
-0.4069153505
 21
-6.2514645863
  0
LINE
  5
3B7
100
AcDbEntity
  8
0
100
AcDbLine
 62
7
  6
CONTINUOUS
 10
-0.4069153505
 20
-6.4424795863
 11
-0.4069153505
 21
-6.7973075863
  0
LINE
  5
3B8
100
AcDbEntity
  8
ASSI
100
AcDbLine
 62
7
  6
CONTINUOUS
 10
-0.4069153505
 20
-6.4424795863
 11
-0.4069153505
 21
-6.7973075863
  0
LINE
  5
3B9
100
AcDbEntity
  8
0
100
AcDbLine
 62
7
  6
CONTINUOUS
 10
-0.4069153505
 20
-7.4753895863
 11
-0.4069153505
 21
-7.7880815863
  0
LINE
  5
3BA
100
AcDbEntity
  8
ASSI
100
AcDbLine
 62
7
  6
CONTINUOUS
 10
-0.4069153505
 20
-7.4753895863
 11
-0.4069153505
 21
-7.7880815863
  0
LINE
  5
3BB
100
AcDbEntity
  8
0
100
AcDbLine
 62
7
  6
CONTINUOUS
 10
1.966102803
 20
-4.8207215863
 11
2.0746134379
 21
-4.9978048521
  0
LINE
  5
3BC
100
AcDbEntity
  8
ASSI
100
AcDbLine
 62
7
  6
CONTINUOUS
 10
1.966102803
 20
-4.8207215863
 11
2.0746134379
 21
-4.9978048521
  0
LINE
  5
3BD
100
AcDbEntity
  8
0
100
AcDbLine
 62
7
  6
CONTINUOUS
 10
1.8214219565
 20
-4.9269715863
 11
1.8937623735
 21
-5.0686383205
  0
LINE
  5
3BE
100
AcDbEntity
  8
ASSI
100
AcDbLine
 62
7
  6
CONTINUOUS
 10
1.8214219565
 20
-4.9269715863
 11
1.8937623735
 21
-5.0686383205
  0
LINE
  5
3BF
100
AcDbEntity
  8
0
100
AcDbLine
 62
7
  6
CONTINUOUS
 10
0.5916346918
 20
-5.3519715863
 11
0.6278049002
 21
-5.4936383205
  0
LINE
  5
3C0
100
AcDbEntity
  8
ASSI
100
AcDbLine
 62
7
  6
CONTINUOUS
 10
0.5916346918
 20
-5.3519715863
 11
0.6278049002
 21
-5.4936383205
  0
LINE
  5
3C1
100
AcDbEntity
  8
0
100
AcDbLine
 62
7
  6
CONTINUOUS
 10
1.1341879199
 20
-5.0686383205
 11
1.1703581284
 21
-5.2103048521
  0
LINE
  5
3C2
100
AcDbEntity
  8
ASSI
100
AcDbLine
 62
7
  6
CONTINUOUS
 10
1.1341879199
 20
-5.0686383205
 11
1.1703581284
 21
-5.2103048521
  0
LINE
  5
3C3
100
AcDbEntity
  8
0
100
AcDbLine
 62
7
  6
CONTINUOUS
 10
1.3150389622
 20
-5.3519715863
 11
1.3512091706
 21
-5.4936383205
  0
LINE
  5
3C4
100
AcDbEntity
  8
ASSI
100
AcDbLine
 62
7
  6
CONTINUOUS
 10
1.3150389622
 20
-5.3519715863
 11
1.3512091706
 21
-5.4936383205
  0
LINE
  5
3C5
100
AcDbEntity
  8
0
100
AcDbLine
 62
7
  6
CONTINUOUS
 10
0.4107836495
 20
-5.3519715863
 11
0.446953858
 21
-5.5290548521
  0
LINE
  5
3C6
100
AcDbEntity
  8
ASSI
100
AcDbLine
 62
7
  6
CONTINUOUS
 10
0.4107836495
 20
-5.3519715863
 11
0.446953858
 21
-5.5290548521
  0
LINE
  5
3C7
100
AcDbEntity
  8
0
100
AcDbLine
 62
7
  6
CONTINUOUS
 10
0.4107836495
 20
-2.2353050547
 11
0.4107836495
 21
-2.4478050547
  0
LINE
  5
3C8
100
AcDbEntity
  8
ASSI
100
AcDbLine
 62
7
  6
CONTINUOUS
 10
0.4107836495
 20
-2.2353050547
 11
0.4107836495
 21
-2.4478050547
  0
LINE
  5
3C9
100
AcDbEntity
  8
0
100
AcDbLine
 62
7
  6
CONTINUOUS
 10
0.4107836495
 20
-3.2978050547
 11
0.4107836495
 21
-3.5103050547
  0
LINE
  5
3CA
100
AcDbEntity
  8
ASSI
100
AcDbLine
 62
7
  6
CONTINUOUS
 10
0.4107836495
 20
-3.2978050547
 11
0.4107836495
 21
-3.5103050547
  0
LINE
  5
3CB
100
AcDbEntity
  8
0
100
AcDbLine
 62
7
  6
CONTINUOUS
 10
0.4107836495
 20
-5.2103048521
 11
0.4107836495
 21
-5.3519715863
  0
LINE
  5
3CC
100
AcDbEntity
  8
ASSI
100
AcDbLine
 62
7
  6
CONTINUOUS
 10
0.4107836495
 20
-5.2103048521
 11
0.4107836495
 21
-5.3519715863
  0
LINE
  5
3CD
100
AcDbEntity
  8
0
100
AcDbLine
 62
7
  6
CONTINUOUS
 10
0.4107836495
 20
-6.5561383205
 11
0.4107836495
 21
-6.7686382192
  0
LINE
  5
3CE
100
AcDbEntity
  8
ASSI
100
AcDbLine
 62
7
  6
CONTINUOUS
 10
0.4107836495
 20
-6.5561383205
 11
0.4107836495
 21
-6.7686382192
  0
LINE
  5
3CF
100
AcDbEntity
  8
0
100
AcDbLine
 62
7
  6
CONTINUOUS
 10
0.4107836495
 20
-7.9019715863
 11
0.4107836495
 21
-8.1144715863
  0
LINE
  5
3D0
100
AcDbEntity
  8
ASSI
100
AcDbLine
 62
7
  6
CONTINUOUS
 10
0.4107836495
 20
-7.9019715863
 11
0.4107836495
 21
-8.1144715863
  0
LINE
  5
3D1
100
AcDbEntity
  8
0
100
AcDbLine
 62
7
  6
CONTINUOUS
 10
0.5916346918
 20
-5.2103048521
 11
0.5916346918
 21
-5.3519715863
  0
LINE
  5
3D2
100
AcDbEntity
  8
ASSI
100
AcDbLine
 62
7
  6
CONTINUOUS
 10
0.5916346918
 20
-5.2103048521
 11
0.5916346918
 21
-5.3519715863
  0
LINE
  5
3D3
100
AcDbEntity
  8
0
100
AcDbLine
 62
7
  6
CONTINUOUS
 10
1.1703581284
 20
-5.2103048521
 11
1.1703581284
 21
-5.3519715863
  0
LINE
  5
3D4
100
AcDbEntity
  8
ASSI
100
AcDbLine
 62
7
  6
CONTINUOUS
 10
1.1703581284
 20
-5.2103048521
 11
1.1703581284
 21
-5.3519715863
  0
LINE
  5
3D5
100
AcDbEntity
  8
RACCORDO
100
AcDbLine
 62
253
  6
CONTINUOUS
 10
6.8028477877
 20
5.1560758
 11
6.7475900255
 21
5.1008180378
  0
LINE
  5
3D6
100
AcDbEntity
  8
ASSI
100
AcDbLine
 62
253
  6
CONTINUOUS
 10
6.8028477877
 20
5.1560758
 11
6.7475900255
 21
5.1008180378
  0
LINE
  5
3D7
100
AcDbEntity
  8
DRAFT
100
AcDbLine
 62
7
  6
CONTINUOUS
 10
-9.8723394514
 20
0.7141944137
 11
-9.4892163505
 21
0.7141944137
  0
LINE
  5
3D8
100
AcDbEntity
  8
ASSI
100
AcDbLine
 62
7
  6
CONTINUOUS
 10
-9.8723394514
 20
0.7141944137
 11
-9.4892163505
 21
0.7141944137
  0
LINE
  5
3D9
100
AcDbEntity
  8
DRAFT
100
AcDbLine
 62
7
  6
CONTINUOUS
 10
9.5107836495
 20
0.7141944137
 11
9.8939067505
 21
0.7141944137
  0
LINE
  5
3DA
100
AcDbEntity
  8
ASSI
100
AcDbLine
 62
7
  6
CONTINUOUS
 10
9.5107836495
 20
0.7141944137
 11
9.8939067505
 21
0.7141944137
  0
LINE
  5
3DB
100
AcDbEntity
  8
0
100
AcDbLine
 62
7
  6
CONTINUOUS
 10
1.8937623735
 20
-5.0686383205
 11
1.9299325819
 21
-5.2103048521
  0
LINE
  5
3DC
100
AcDbEntity
  8
ASSI
100
AcDbLine
 62
7
  6
CONTINUOUS
 10
1.8937623735
 20
-5.0686383205
 11
1.9299325819
 21
-5.2103048521
  0
LINE
  5
3DD
100
AcDbEntity
  8
0
100
AcDbLine
 62
7
  6
CONTINUOUS
 10
2.0746134379
 20
-4.9978048521
 11
2.1107836495
 21
-5.1748883205
  0
LINE
  5
3DE
100
AcDbEntity
  8
ASSI
100
AcDbLine
 62
7
  6
CONTINUOUS
 10
2.0746134379
 20
-4.9978048521
 11
2.1107836495
 21
-5.1748883205
  0
LINE
  5
3DF
100
AcDbEntity
  8
0
100
AcDbLine
 62
7
  6
CONTINUOUS
 10
1.3150389622
 20
-5.2103048521
 11
1.3150389622
 21
-5.3519715863
  0
LINE
  5
3E0
100
AcDbEntity
  8
ASSI
100
AcDbLine
 62
7
  6
CONTINUOUS
 10
1.3150389622
 20
-5.2103048521
 11
1.3150389622
 21
-5.3519715863
  0
LINE
  5
3E1
100
AcDbEntity
  8
0
100
AcDbLine
 62
7
  6
CONTINUOUS
 10
1.3873793791
 20
-2.9436381179
 11
1.3873793791
 21
-3.2978050547
  0
LINE
  5
3E2
100
AcDbEntity
  8
ASSI
100
AcDbLine
 62
7
  6
CONTINUOUS
 10
1.3873793791
 20
-2.9436381179
 11
1.3873793791
 21
-3.2978050547
  0
LINE
  5
3E3
100
AcDbEntity
  8
0
100
AcDbLine
 62
7
  6
CONTINUOUS
 10
1.3873793791
 20
-3.5103050547
 11
1.3873793791
 21
-4.1123881179
  0
LINE
  5
3E4
100
AcDbEntity
  8
ASSI
100
AcDbLine
 62
7
  6
CONTINUOUS
 10
1.3873793791
 20
-3.5103050547
 11
1.3873793791
 21
-4.1123881179
  0
LINE
  5
3E5
100
AcDbEntity
  8
0
100
AcDbLine
 62
7
  6
CONTINUOUS
 10
1.3873793791
 20
-6.2019715863
 11
1.3873793791
 21
-6.5561383205
  0
LINE
  5
3E6
100
AcDbEntity
  8
ASSI
100
AcDbLine
 62
7
  6
CONTINUOUS
 10
1.3873793791
 20
-6.2019715863
 11
1.3873793791
 21
-6.5561383205
  0
LINE
  5
3E7
100
AcDbEntity
  8
0
100
AcDbLine
 62
7
  6
CONTINUOUS
 10
1.3873793791
 20
-6.7686382192
 11
1.3873793791
 21
-7.3707215863
  0
LINE
  5
3E8
100
AcDbEntity
  8
ASSI
100
AcDbLine
 62
7
  6
CONTINUOUS
 10
1.3873793791
 20
-6.7686382192
 11
1.3873793791
 21
-7.3707215863
  0
LINE
  5
3E9
100
AcDbEntity
  8
0
100
AcDbLine
 62
7
  6
CONTINUOUS
 10
1.6044006805
 20
-2.9436381179
 11
1.6044006805
 21
-3.2978050547
  0
LINE
  5
3EA
100
AcDbEntity
  8
ASSI
100
AcDbLine
 62
7
  6
CONTINUOUS
 10
1.6044006805
 20
-2.9436381179
 11
1.6044006805
 21
-3.2978050547
  0
LINE
  5
3EB
100
AcDbEntity
  8
0
100
AcDbLine
 62
7
  6
CONTINUOUS
 10
1.6044006805
 20
-3.5103050547
 11
1.6044006805
 21
-4.3603050547
  0
LINE
  5
3EC
100
AcDbEntity
  8
ASSI
100
AcDbLine
 62
7
  6
CONTINUOUS
 10
1.6044006805
 20
-3.5103050547
 11
1.6044006805
 21
-4.3603050547
  0
LINE
  5
3ED
100
AcDbEntity
  8
0
100
AcDbLine
 62
7
  6
CONTINUOUS
 10
1.6044006805
 20
-6.2019715863
 11
1.6044006805
 21
-6.5561383205
  0
LINE
  5
3EE
100
AcDbEntity
  8
ASSI
100
AcDbLine
 62
7
  6
CONTINUOUS
 10
1.6044006805
 20
-6.2019715863
 11
1.6044006805
 21
-6.5561383205
  0
LINE
  5
3EF
100
AcDbEntity
  8
0
100
AcDbLine
 62
7
  6
CONTINUOUS
 10
1.6044006805
 20
-6.7686382192
 11
1.6044006805
 21
-7.6186382699
  0
LINE
  5
3F0
100
AcDbEntity
  8
ASSI
100
AcDbLine
 62
7
  6
CONTINUOUS
 10
1.6044006805
 20
-6.7686382192
 11
1.6044006805
 21
-7.6186382699
  0
LINE
  5
3F1
100
AcDbEntity
  8
0
100
AcDbLine
 62
7
  6
CONTINUOUS
 10
1.9299325819
 20
-5.2103048521
 11
1.9299325819
 21
-5.3519715863
  0
LINE
  5
3F2
100
AcDbEntity
  8
ASSI
100
AcDbLine
 62
7
  6
CONTINUOUS
 10
1.9299325819
 20
-5.2103048521
 11
1.9299325819
 21
-5.3519715863
  0
LINE
  5
3F3
100
AcDbEntity
  8
0
100
AcDbLine
 62
7
  6
CONTINUOUS
 10
2.1107836495
 20
-2.2353050547
 11
2.1107836495
 21
-2.4478050547
  0
LINE
  5
3F4
100
AcDbEntity
  8
ASSI
100
AcDbLine
 62
7
  6
CONTINUOUS
 10
2.1107836495
 20
-2.2353050547
 11
2.1107836495
 21
-2.4478050547
  0
LINE
  5
3F5
100
AcDbEntity
  8
0
100
AcDbLine
 62
7
  6
CONTINUOUS
 10
2.1107836495
 20
-3.2978050547
 11
2.1107836495
 21
-3.5103050547
  0
LINE
  5
3F6
100
AcDbEntity
  8
ASSI
100
AcDbLine
 62
7
  6
CONTINUOUS
 10
2.1107836495
 20
-3.2978050547
 11
2.1107836495
 21
-3.5103050547
  0
LINE
  5
3F7
100
AcDbEntity
  8
0
100
AcDbLine
 62
7
  6
CONTINUOUS
 10
2.1107836495
 20
-5.1748883205
 11
2.1107836495
 21
-5.3873883205
  0
LINE
  5
3F8
100
AcDbEntity
  8
ASSI
100
AcDbLine
 62
7
  6
CONTINUOUS
 10
2.1107836495
 20
-5.1748883205
 11
2.1107836495
 21
-5.3873883205
  0
LINE
  5
3F9
100
AcDbEntity
  8
0
100
AcDbLine
 62
7
  6
CONTINUOUS
 10
2.1107836495
 20
-6.5561383205
 11
2.1107836495
 21
-6.7686382192
  0
LINE
  5
3FA
100
AcDbEntity
  8
ASSI
100
AcDbLine
 62
7
  6
CONTINUOUS
 10
2.1107836495
 20
-6.5561383205
 11
2.1107836495
 21
-6.7686382192
  0
LINE
  5
3FB
100
AcDbEntity
  8
0
100
AcDbLine
 62
7
  6
CONTINUOUS
 10
2.1107836495
 20
-7.9019715863
 11
2.1107836495
 21
-8.1144715863
  0
LINE
  5
3FC
100
AcDbEntity
  8
ASSI
100
AcDbLine
 62
7
  6
CONTINUOUS
 10
2.1107836495
 20
-7.9019715863
 11
2.1107836495
 21
-8.1144715863
  0
LINE
  5
3FD
100
AcDbEntity
  8
0
100
AcDbLine
 62
7
  6
CONTINUOUS
 10
0.446953858
 20
-5.0332215863
 11
0.4107836495
 21
-5.2103048521
  0
LINE
  5
3FE
100
AcDbEntity
  8
ASSI
100
AcDbLine
 62
7
  6
CONTINUOUS
 10
0.446953858
 20
-5.0332215863
 11
0.4107836495
 21
-5.2103048521
  0
LINE
  5
3FF
100
AcDbEntity
  8
0
100
AcDbLine
 62
7
  6
CONTINUOUS
 10
0.6278049002
 20
-5.0686383205
 11
0.5916346918
 21
-5.2103048521
  0
LINE
  5
400
100
AcDbEntity
  8
ASSI
100
AcDbLine
 62
7
  6
CONTINUOUS
 10
0.6278049002
 20
-5.0686383205
 11
0.5916346918
 21
-5.2103048521
  0
LINE
  5
401
100
AcDbEntity
  8
RACCORDO
100
AcDbLine
 62
253
  6
CONTINUOUS
 10
7.1026645083
 20
4.8562580244
 11
7.047534573
 21
4.8011280891
  0
LINE
  5
402
100
AcDbEntity
  8
ASSI
100
AcDbLine
 62
253
  6
CONTINUOUS
 10
7.1026645083
 20
4.8562580244
 11
7.047534573
 21
4.8011280891
  0
LINE
  5
403
100
AcDbEntity
  8
RACCORDO
100
AcDbLine
 62
253
  6
CONTINUOUS
 10
-5.4878376842
 20
-4.6101088346
 11
-5.4333206784
 21
-4.5828586368
  0
LINE
  5
404
100
AcDbEntity
  8
ASSI
100
AcDbLine
 62
253
  6
CONTINUOUS
 10
-5.4878376842
 20
-4.6101088346
 11
-5.4333206784
 21
-4.5828586368
  0
LINE
  5
405
100
AcDbEntity
  8
RACCORDO
100
AcDbLine
 62
253
  6
CONTINUOUS
 10
-5.2379904359
 20
-4.8600709875
 11
-5.1835961575
 21
-4.8328821347
  0
LINE
  5
406
100
AcDbEntity
  8
ASSI
100
AcDbLine
 62
253
  6
CONTINUOUS
 10
-5.2379904359
 20
-4.8600709875
 11
-5.1835961575
 21
-4.8328821347
  0
LINE
  5
407
100
AcDbEntity
  8
DRAFT
100
AcDbLine
 62
7
  6
CONTINUOUS
 10
-2.4857253375
 20
4.0932483358
 11
-2.4892163505
 21
4.0967393488
  0
LINE
  5
408
100
AcDbEntity
  8
RACCORDO
100
AcDbLine
 62
7
  6
CONTINUOUS
 10
-6.7565922066
 20
9.7315702698
 11
-6.7248584074
 21
9.6998364706
  0
LINE
  5
409
100
AcDbEntity
  8
ASSI
100
AcDbLine
 62
7
  6
CONTINUOUS
 10
-6.7565922066
 20
9.7315702698
 11
-6.7248584074
 21
9.6998364706
  0
LINE
  5
40A
100
AcDbEntity
  8
DRAFT
100
AcDbLine
 62
7
  6
CONTINUOUS
 10
3.4023586565
 20
-11.145118292
 11
3.3270651727
 21
-9.654500717
  0
LINE
  5
40B
100
AcDbEntity
  8
ASSI
100
AcDbLine
 62
7
  6
CONTINUOUS
 10
3.4023586565
 20
-11.145118292
 11
3.3270651727
 21
-9.654500717
  0
LINE
  5
40C
100
AcDbEntity
  8
DRAFT
100
AcDbLine
 62
7
  6
CONTINUOUS
 10
2.5072926365
 20
8.9351404916
 11
2.5072926365
 21
4.0932483358
  0
LINE
  5
40D
100
AcDbEntity
  8
DRAFT
100
AcDbLine
 62
7
  6
CONTINUOUS
 10
2.5107836495
 20
4.0967393488
 11
2.5107836495
 21
8.9316494786
  0
LINE
  5
40E
100
AcDbEntity
  8
DRAFT
100
AcDbLine
 62
7
  6
CONTINUOUS
 10
2.9107836495
 20
7.2916759442
 11
2.9107836495
 21
5.7367128831
  0
LINE
  5
40F
100
AcDbEntity
  8
ASSI
100
AcDbLine
 62
7
  6
CONTINUOUS
 10
2.9107836495
 20
7.2916759442
 11
2.9107836495
 21
5.7367128831
  0
LINE
  5
410
100
AcDbEntity
  8
DRAFT
100
AcDbLine
 62
7
  6
CONTINUOUS
 10
2.9782387144
 20
8.9316494786
 11
2.9782387144
 21
7.3006762497
  0
LINE
  5
411
100
AcDbEntity
  8
DRAFT
100
AcDbLine
 62
7
  6
CONTINUOUS
 10
2.9782387144
 20
5.7277125777
 11
2.9782387144
 21
4.0967393488
  0
LINE
  5
412
100
AcDbEntity
  8
DRAFT
100
AcDbLine
 62
7
  6
CONTINUOUS
 10
3.0107836495
 20
2.4660048126
 11
3.0107836495
 21
5.7277125777
  0
LINE
  5
413
100
AcDbEntity
  8
ASSI
100
AcDbLine
 62
7
  6
CONTINUOUS
 10
3.0107836495
 20
2.4660048126
 11
3.0107836495
 21
5.7277125777
  0
LINE
  5
414
100
AcDbEntity
  8
DRAFT
100
AcDbLine
 62
7
  6
CONTINUOUS
 10
3.0107836495
 20
7.3006762497
 11
3.0107836495
 21
9.0501420408
  0
LINE
  5
415
100
AcDbEntity
  8
ASSI
100
AcDbLine
 62
7
  6
CONTINUOUS
 10
3.0107836495
 20
7.3006762497
 11
3.0107836495
 21
9.0501420408
  0
LINE
  5
416
100
AcDbEntity
  8
DRAFT
100
AcDbLine
 62
7
  6
CONTINUOUS
 10
3.0804194099
 20
7.283215865
 11
3.0804194099
 21
5.7451729624
  0
LINE
  5
417
100
AcDbEntity
  8
ASSI
100
AcDbLine
 62
7
  6
CONTINUOUS
 10
3.0804194099
 20
7.283215865
 11
3.0804194099
 21
5.7451729624
  0
LINE
  5
418
100
AcDbEntity
  8
0
100
AcDbLine
 62
7
  6
CONTINUOUS
 10
2.1107836495
 20
-5.3873883205
 11
2.0746134379
 21
-5.5644715863
  0
LINE
  5
419
100
AcDbEntity
  8
ASSI
100
AcDbLine
 62
7
  6
CONTINUOUS
 10
2.1107836495
 20
-5.3873883205
 11
2.0746134379
 21
-5.5644715863
  0
LINE
  5
41A
100
AcDbEntity
  8
0
100
AcDbLine
 62
7
  6
CONTINUOUS
 10
1.1703581284
 20
-5.3519715863
 11
1.1341879199
 21
-5.4936383205
  0
LINE
  5
41B
100
AcDbEntity
  8
ASSI
100
AcDbLine
 62
7
  6
CONTINUOUS
 10
1.1703581284
 20
-5.3519715863
 11
1.1341879199
 21
-5.4936383205
  0
LINE
  5
41C
100
AcDbEntity
  8
0
100
AcDbLine
 62
7
  6
CONTINUOUS
 10
1.3512091706
 20
-5.0686383205
 11
1.3150389622
 21
-5.2103048521
  0
LINE
  5
41D
100
AcDbEntity
  8
ASSI
100
AcDbLine
 62
7
  6
CONTINUOUS
 10
1.3512091706
 20
-5.0686383205
 11
1.3150389622
 21
-5.2103048521
  0
LINE
  5
41E
100
AcDbEntity
  8
0
100
AcDbLine
 62
7
  6
CONTINUOUS
 10
1.9299325819
 20
-5.3519715863
 11
1.8937623735
 21
-5.4936383205
  0
LINE
  5
41F
100
AcDbEntity
  8
ASSI
100
AcDbLine
 62
7
  6
CONTINUOUS
 10
1.9299325819
 20
-5.3519715863
 11
1.8937623735
 21
-5.4936383205
  0
LINE
  5
420
100
AcDbEntity
  8
0
100
AcDbLine
 62
7
  6
CONTINUOUS
 10
0.5554644833
 20
-4.8561381179
 11
0.446953858
 21
-5.0332215863
  0
LINE
  5
421
100
AcDbEntity
  8
ASSI
100
AcDbLine
 62
7
  6
CONTINUOUS
 10
0.5554644833
 20
-4.8561381179
 11
0.446953858
 21
-5.0332215863
  0
LINE
  5
422
100
AcDbEntity
  8
0
100
AcDbLine
 62
7
  6
CONTINUOUS
 10
-2.1067783505
 20
-3.5953535863
 11
-0.4069153505
 21
-3.0737935863
  0
LINE
  5
423
100
AcDbEntity
  8
ASSI
100
AcDbLine
 62
7
  6
CONTINUOUS
 10
-2.1067783505
 20
-3.5953535863
 11
-0.4069153505
 21
-3.0737935863
  0
LINE
  5
424
100
AcDbEntity
  8
DRAFT
100
AcDbLine
 62
7
  6
CONTINUOUS
 10
3.0107836495
 20
2.4660048126
 11
-2.9892163505
 21
2.4660048126
  0
LINE
  5
425
100
AcDbEntity
  8
ASSI
100
AcDbLine
 62
7
  6
CONTINUOUS
 10
3.0107836495
 20
2.4660048126
 11
-2.9892163505
 21
2.4660048126
  0
LINE
  5
426
100
AcDbEntity
  8
DRAFT
100
AcDbLine
 62
7
  6
CONTINUOUS
 10
3.0107836495
 20
2.5141944137
 11
-2.9892163505
 21
2.5141944137
  0
LINE
  5
427
100
AcDbEntity
  8
ASSI
100
AcDbLine
 62
7
  6
CONTINUOUS
 10
3.0107836495
 20
2.5141944137
 11
-2.9892163505
 21
2.5141944137
  0
LINE
  5
428
100
AcDbEntity
  8
RACCORDO
100
AcDbLine
 62
7
  6
CONTINUOUS
 10
5.2906512755
 20
-9.551628745
 11
5.2166705723
 21
-9.29150595
  0
LINE
  5
429
100
AcDbEntity
  8
ASSI
100
AcDbLine
 62
7
  6
CONTINUOUS
 10
5.2906512755
 20
-9.551628745
 11
5.2166705723
 21
-9.29150595
  0
LINE
  5
42A
100
AcDbEntity
  8
RACCORDO
100
AcDbLine
 62
253
  6
CONTINUOUS
 10
3.5507213881
 20
7.283215865
 11
3.5507213881
 21
5.7451729624
  0
LINE
  5
42B
100
AcDbEntity
  8
ASSI
100
AcDbLine
 62
253
  6
CONTINUOUS
 10
3.5507213881
 20
7.283215865
 11
3.5507213881
 21
5.7451729624
  0
LINE
  5
42C
100
AcDbEntity
  8
RACCORDO
100
AcDbLine
 62
253
  6
CONTINUOUS
 10
3.7530486226
 20
-11.113285134
 11
3.7530486226
 21
-9.563907201
  0
LINE
  5
42D
100
AcDbEntity
  8
ASSI
100
AcDbLine
 62
253
  6
CONTINUOUS
 10
3.7530486226
 20
-11.113285134
 11
3.7530486226
 21
-9.563907201
  0
LINE
  5
42E
100
AcDbEntity
  8
RACCORDO
100
AcDbLine
 62
253
  6
CONTINUOUS
 10
3.8326291743
 20
7.2901090138
 11
3.8326291743
 21
5.7382798136
  0
LINE
  5
42F
100
AcDbEntity
  8
ASSI
100
AcDbLine
 62
253
  6
CONTINUOUS
 10
3.8326291743
 20
7.2901090138
 11
3.8326291743
 21
5.7382798136
  0
LINE
  5
430
100
AcDbEntity
  8
RACCORDO
100
AcDbLine
 62
253
  6
CONTINUOUS
 10
3.9262537034
 20
-11.1080443561
 11
3.9262537034
 21
-9.551628745
  0
LINE
  5
431
100
AcDbEntity
  8
ASSI
100
AcDbLine
 62
253
  6
CONTINUOUS
 10
3.9262537034
 20
-11.1080443561
 11
3.9262537034
 21
-9.551628745
  0
LINE
  5
432
100
AcDbEntity
  8
0
100
AcDbLine
 62
7
  6
CONTINUOUS
 10
1.2788687537
 20
-4.8561381179
 11
1.2426985453
 21
-4.9269715863
  0
LINE
  5
433
100
AcDbEntity
  8
ASSI
100
AcDbLine
 62
7
  6
CONTINUOUS
 10
1.2788687537
 20
-4.8561381179
 11
1.2426985453
 21
-4.9269715863
  0
LINE
  5
434
100
AcDbEntity
  8
0
100
AcDbLine
 62
7
  6
CONTINUOUS
 10
1.4235495876
 20
-4.9269715863
 11
1.3512091706
 21
-5.0686383205
  0
LINE
  5
435
100
AcDbEntity
  8
ASSI
100
AcDbLine
 62
7
  6
CONTINUOUS
 10
1.4235495876
 20
-4.9269715863
 11
1.3512091706
 21
-5.0686383205
  0
LINE
  5
436
100
AcDbEntity
  8
0
100
AcDbLine
 62
7
  6
CONTINUOUS
 10
1.2426985453
 20
-5.6353048521
 11
1.2065283368
 21
-5.7061383205
  0
LINE
  5
437
100
AcDbEntity
  8
ASSI
100
AcDbLine
 62
7
  6
CONTINUOUS
 10
1.2426985453
 20
-5.6353048521
 11
1.2065283368
 21
-5.7061383205
  0
LINE
  5
438
100
AcDbEntity
  8
0
100
AcDbLine
 62
7
  6
CONTINUOUS
 10
1.8937623735
 20
-5.4936383205
 11
1.8214219565
 21
-5.6353048521
  0
LINE
  5
439
100
AcDbEntity
  8
ASSI
100
AcDbLine
 62
7
  6
CONTINUOUS
 10
1.8937623735
 20
-5.4936383205
 11
1.8214219565
 21
-5.6353048521
  0
LINE
  5
43A
100
AcDbEntity
  8
0
100
AcDbLine
 62
7
  6
CONTINUOUS
 10
0.7363155256
 20
-4.9269715863
 11
0.6278049002
 21
-5.0686383205
  0
LINE
  5
43B
100
AcDbEntity
  8
ASSI
100
AcDbLine
 62
7
  6
CONTINUOUS
 10
0.7363155256
 20
-4.9269715863
 11
0.6278049002
 21
-5.0686383205
  0
LINE
  5
43C
100
AcDbEntity
  8
0
100
AcDbLine
 62
7
  6
CONTINUOUS
 10
1.3873793791
 20
-4.7144715863
 11
1.2788687537
 21
-4.8561381179
  0
LINE
  5
43D
100
AcDbEntity
  8
ASSI
100
AcDbLine
 62
7
  6
CONTINUOUS
 10
1.3873793791
 20
-4.7144715863
 11
1.2788687537
 21
-4.8561381179
  0
LINE
  5
43E
100
AcDbEntity
  8
0
100
AcDbLine
 62
7
  6
CONTINUOUS
 10
1.1341879199
 20
-5.4936383205
 11
1.0256772946
 21
-5.6353048521
  0
LINE
  5
43F
100
AcDbEntity
  8
ASSI
100
AcDbLine
 62
7
  6
CONTINUOUS
 10
1.1341879199
 20
-5.4936383205
 11
1.0256772946
 21
-5.6353048521
  0
LINE
  5
440
100
AcDbEntity
  8
0
100
AcDbLine
 62
7
  6
CONTINUOUS
 10
0.6639751087
 20
-4.7498881179
 11
0.5554644833
 21
-4.8561381179
  0
LINE
  5
441
100
AcDbEntity
  8
ASSI
100
AcDbLine
 62
7
  6
CONTINUOUS
 10
0.6639751087
 20
-4.7498881179
 11
0.5554644833
 21
-4.8561381179
  0
LINE
  5
442
100
AcDbEntity
  8
DRAFT
100
AcDbLine
 62
7
  6
CONTINUOUS
 10
2.5072926365
 20
4.0932483358
 11
-2.4857253375
 21
4.0932483358
  0
LINE
  5
443
100
AcDbEntity
  8
DRAFT
100
AcDbLine
 62
7
  6
CONTINUOUS
 10
-2.9566714154
 20
4.0967393488
 11
-2.4892163505
 21
4.0967393488
  0
LINE
  5
444
100
AcDbEntity
  8
DRAFT
100
AcDbLine
 62
7
  6
CONTINUOUS
 10
2.9782387144
 20
4.0967393488
 11
2.5107836495
 21
4.0967393488
  0
LINE
  5
445
100
AcDbEntity
  8
RACCORDO
100
AcDbLine
 62
253
  6
CONTINUOUS
 10
5.2612733008
 20
-6.2955804941
 11
5.3191957668
 21
-6.5880509552
  0
LINE
  5
446
100
AcDbEntity
  8
ASSI
100
AcDbLine
 62
253
  6
CONTINUOUS
 10
5.2612733008
 20
-6.2955804941
 11
5.3191957668
 21
-6.5880509552
  0
LINE
  5
447
100
AcDbEntity
  8
RACCORDO
100
AcDbLine
 62
253
  6
CONTINUOUS
 10
5.5183352179
 20
-6.0858055863
 11
5.5690434736
 21
-6.341849017
  0
LINE
  5
448
100
AcDbEntity
  8
ASSI
100
AcDbLine
 62
253
  6
CONTINUOUS
 10
5.5183352179
 20
-6.0858055863
 11
5.5690434736
 21
-6.341849017
  0
LINE
  5
449
100
AcDbEntity
  8
RACCORDO
100
AcDbLine
 62
253
  6
CONTINUOUS
 10
5.2612733008
 20
-4.9100633723
 11
5.2612733008
 21
-6.2955804941
  0
LINE
  5
44A
100
AcDbEntity
  8
ASSI
100
AcDbLine
 62
253
  6
CONTINUOUS
 10
5.2612733008
 20
-4.9100633723
 11
5.2612733008
 21
-6.2955804941
  0
LINE
  5
44B
100
AcDbEntity
  8
RACCORDO
100
AcDbLine
 62
7
  6
CONTINUOUS
 10
5.2906512755
 20
-9.551628745
 11
5.2906512755
 21
-8.7719233561
  0
LINE
  5
44C
100
AcDbEntity
  8
ASSI
100
AcDbLine
 62
7
  6
CONTINUOUS
 10
5.2906512755
 20
-9.551628745
 11
5.2906512755
 21
-8.7719233561
  0
LINE
  5
44D
100
AcDbEntity
  8
RACCORDO
100
AcDbLine
 62
253
  6
CONTINUOUS
 10
5.3206386089
 20
-6.6372913429
 11
5.3206386089
 21
-6.9192971875
  0
LINE
  5
44E
100
AcDbEntity
  8
ASSI
100
AcDbLine
 62
253
  6
CONTINUOUS
 10
5.3206386089
 20
-6.6372913429
 11
5.3206386089
 21
-6.9192971875
  0
LINE
  5
44F
100
AcDbEntity
  8
ASSI
100
AcDbLine
 62
253
  6
CONTINUOUS
 10
4.3690282208
 20
7.3281369619
 11
4.3636835779
 21
5.7007648586
  0
LINE
  5
450
100
AcDbEntity
  8
RACCORDO
100
AcDbLine
 62
7
  6
CONTINUOUS
 10
9.8409324053
 20
9.7066981281
 11
9.9107836495
 21
9.846443194
  0
LINE
  5
451
100
AcDbEntity
  8
ASSI
100
AcDbLine
 62
7
  6
CONTINUOUS
 10
9.8409324053
 20
9.7066981281
 11
9.9107836495
 21
9.846443194
  0
LINE
  5
452
100
AcDbEntity
  8
0
100
AcDbLine
 62
7
  6
CONTINUOUS
 10
2.0746134379
 20
-5.5644715863
 11
1.966102803
 21
-5.7415548521
  0
LINE
  5
453
100
AcDbEntity
  8
ASSI
100
AcDbLine
 62
7
  6
CONTINUOUS
 10
2.0746134379
 20
-5.5644715863
 11
1.966102803
 21
-5.7415548521
  0
LINE
  5
454
100
AcDbEntity
  8
0
100
AcDbLine
 62
7
  6
CONTINUOUS
 10
1.2065283368
 20
-5.7061383205
 11
1.0980177115
 21
-5.8123883205
  0
LINE
  5
455
100
AcDbEntity
  8
ASSI
100
AcDbLine
 62
7
  6
CONTINUOUS
 10
1.2065283368
 20
-5.7061383205
 11
1.0980177115
 21
-5.8123883205
  0
LINE
  5
456
100
AcDbEntity
  8
0
100
AcDbLine
 62
7
  6
CONTINUOUS
 10
1.568230472
 20
-4.8207215863
 11
1.4235495876
 21
-4.9269715863
  0
LINE
  5
457
100
AcDbEntity
  8
ASSI
100
AcDbLine
 62
7
  6
CONTINUOUS
 10
1.568230472
 20
-4.8207215863
 11
1.4235495876
 21
-4.9269715863
  0
LINE
  5
458
100
AcDbEntity
  8
0
100
AcDbLine
 62
7
  6
CONTINUOUS
 10
0.8448262523
 20
-4.8561381179
 11
0.7363155256
 21
-4.9269715863
  0
LINE
  5
459
100
AcDbEntity
  8
ASSI
100
AcDbLine
 62
7
  6
CONTINUOUS
 10
0.8448262523
 20
-4.8561381179
 11
0.7363155256
 21
-4.9269715863
  0
LINE
  5
45A
100
AcDbEntity
  8
0
100
AcDbLine
 62
7
  6
CONTINUOUS
 10
1.0256772946
 20
-5.6353048521
 11
0.9171666692
 21
-5.7061383205
  0
LINE
  5
45B
100
AcDbEntity
  8
ASSI
100
AcDbLine
 62
7
  6
CONTINUOUS
 10
1.0256772946
 20
-5.6353048521
 11
0.9171666692
 21
-5.7061383205
  0
LINE
  5
45C
100
AcDbEntity
  8
0
100
AcDbLine
 62
7
  6
CONTINUOUS
 10
0.8448262523
 20
-4.6790550547
 11
0.6639751087
 21
-4.7498881179
  0
LINE
  5
45D
100
AcDbEntity
  8
ASSI
100
AcDbLine
 62
7
  6
CONTINUOUS
 10
0.8448262523
 20
-4.6790550547
 11
0.6639751087
 21
-4.7498881179
  0
LINE
  5
45E
100
AcDbEntity
  8
0
100
AcDbLine
 62
7
  6
CONTINUOUS
 10
1.568230472
 20
-4.6436381179
 11
1.3873793791
 21
-4.7144715863
  0
LINE
  5
45F
100
AcDbEntity
  8
ASSI
100
AcDbLine
 62
7
  6
CONTINUOUS
 10
1.568230472
 20
-4.6436381179
 11
1.3873793791
 21
-4.7144715863
  0
LINE
  5
460
100
AcDbEntity
  8
0
100
AcDbLine
 62
7
  6
CONTINUOUS
 10
-1.5168943505
 20
-5.8354375863
 11
-0.4069153505
 21
-5.4191815863
  0
LINE
  5
461
100
AcDbEntity
  8
ASSI
100
AcDbLine
 62
7
  6
CONTINUOUS
 10
-1.5168943505
 20
-5.8354375863
 11
-0.4069153505
 21
-5.4191815863
  0
LINE
  5
462
100
AcDbEntity
  8
0
100
AcDbLine
 62
7
  6
CONTINUOUS
 10
-2.1067783505
 20
-5.7434425863
 11
-1.1630093505
 21
-5.3923615863
  0
LINE
  5
463
100
AcDbEntity
  8
ASSI
100
AcDbLine
 62
7
  6
CONTINUOUS
 10
-2.1067783505
 20
-5.7434425863
 11
-1.1630093505
 21
-5.3923615863
  0
LINE
  5
464
100
AcDbEntity
  8
RACCORDO
100
AcDbLine
 62
7
  6
CONTINUOUS
 10
7.274032726
 20
4.8011280891
 11
7.047534573
 21
4.8011280891
  0
LINE
  5
465
100
AcDbEntity
  8
ASSI
100
AcDbLine
 62
7
  6
CONTINUOUS
 10
7.274032726
 20
4.8011280891
 11
7.047534573
 21
4.8011280891
  0
LINE
  5
466
100
AcDbEntity
  8
RACCORDO
100
AcDbLine
 62
7
  6
CONTINUOUS
 10
-7.025967274
 20
4.8011280891
 11
-7.252465427
 21
4.8011280891
  0
LINE
  5
467
100
AcDbEntity
  8
ASSI
100
AcDbLine
 62
7
  6
CONTINUOUS
 10
-7.025967274
 20
4.8011280891
 11
-7.252465427
 21
4.8011280891
  0
LINE
  5
468
100
AcDbEntity
  8
RACCORDO
100
AcDbLine
 62
253
  6
CONTINUOUS
 10
-7.1973354917
 20
4.8562580244
 11
-7.0810972093
 21
4.8562580244
  0
LINE
  5
469
100
AcDbEntity
  8
ASSI
100
AcDbLine
 62
253
  6
CONTINUOUS
 10
-7.1973354917
 20
4.8562580244
 11
-7.0810972093
 21
4.8562580244
  0
LINE
  5
46A
100
AcDbEntity
  8
RACCORDO
100
AcDbLine
 62
253
  6
CONTINUOUS
 10
7.1026645083
 20
4.8562580244
 11
7.2189027907
 21
4.8562580244
  0
LINE
  5
46B
100
AcDbEntity
  8
ASSI
100
AcDbLine
 62
253
  6
CONTINUOUS
 10
7.1026645083
 20
4.8562580244
 11
7.2189027907
 21
4.8562580244
  0
LINE
  5
46C
100
AcDbEntity
  8
RACCORDO
100
AcDbLine
 62
253
  6
CONTINUOUS
 10
5.6886758787
 20
-9.3447631989
 11
5.6512445736
 21
-7.046082666
  0
LINE
  5
46D
100
AcDbEntity
  8
ASSI
100
AcDbLine
 62
253
  6
CONTINUOUS
 10
5.6886758787
 20
-9.3447631989
 11
5.6512445736
 21
-7.046082666
  0
LINE
  5
46E
100
AcDbEntity
  8
RACCORDO
100
AcDbLine
 62
253
  6
CONTINUOUS
 10
5.9309160235
 20
-8.7719233561
 11
5.9010922803
 21
-6.9404281006
  0
LINE
  5
46F
100
AcDbEntity
  8
ASSI
100
AcDbLine
 62
253
  6
CONTINUOUS
 10
5.9309160235
 20
-8.7719233561
 11
5.9010922803
 21
-6.9404281006
  0
LINE
  5
470
100
AcDbEntity
  8
RACCORDO
100
AcDbLine
 62
253
  6
CONTINUOUS
 10
5.5111210075
 20
-4.9100633723
 11
5.5111210075
 21
-6.0859111973
  0
LINE
  5
471
100
AcDbEntity
  8
ASSI
100
AcDbLine
 62
253
  6
CONTINUOUS
 10
5.5111210075
 20
-4.9100633723
 11
5.5111210075
 21
-6.0859111973
  0
LINE
  5
472
100
AcDbEntity
  8
RACCORDO
100
AcDbLine
 62
253
  6
CONTINUOUS
 10
5.5704863157
 20
-6.6372913429
 11
5.5704863157
 21
-6.9192971875
  0
LINE
  5
473
100
AcDbEntity
  8
ASSI
100
AcDbLine
 62
253
  6
CONTINUOUS
 10
5.5704863157
 20
-6.6372913429
 11
5.5704863157
 21
-6.9192971875
  0
LINE
  5
474
100
AcDbEntity
  8
RACCORDO
100
AcDbLine
 62
253
  6
CONTINUOUS
 10
5.6510809834
 20
-6.9192971875
 11
5.6510809834
 21
-6.6372913429
  0
LINE
  5
475
100
AcDbEntity
  8
ASSI
100
AcDbLine
 62
253
  6
CONTINUOUS
 10
5.6510809834
 20
-6.9192971875
 11
5.6510809834
 21
-6.6372913429
  0
LINE
  5
476
100
AcDbEntity
  8
RACCORDO
100
AcDbLine
 62
253
  6
CONTINUOUS
 10
5.7104462915
 20
-6.0859111973
 11
5.7104462915
 21
-4.9100633723
  0
LINE
  5
477
100
AcDbEntity
  8
ASSI
100
AcDbLine
 62
253
  6
CONTINUOUS
 10
5.7104462915
 20
-6.0859111973
 11
5.7104462915
 21
-4.9100633723
  0
LINE
  5
478
100
AcDbEntity
  8
RACCORDO
100
AcDbLine
 62
253
  6
CONTINUOUS
 10
5.9009286901
 20
-6.9192971875
 11
5.9009286901
 21
-6.6372913429
  0
LINE
  5
479
100
AcDbEntity
  8
ASSI
100
AcDbLine
 62
253
  6
CONTINUOUS
 10
5.9009286901
 20
-6.9192971875
 11
5.9009286901
 21
-6.6372913429
  0
LINE
  5
47A
100
AcDbEntity
  8
RACCORDO
100
AcDbLine
 62
7
  6
CONTINUOUS
 10
5.9309160235
 20
-8.7719233561
 11
5.9309160235
 21
-9.551628745
  0
LINE
  5
47B
100
AcDbEntity
  8
ASSI
100
AcDbLine
 62
7
  6
CONTINUOUS
 10
5.9309160235
 20
-8.7719233561
 11
5.9309160235
 21
-9.551628745
  0
LINE
  5
47C
100
AcDbEntity
  8
RACCORDO
100
AcDbLine
 62
253
  6
CONTINUOUS
 10
5.9602939982
 20
-6.2955804941
 11
5.9602939982
 21
-4.9100633723
  0
LINE
  5
47D
100
AcDbEntity
  8
ASSI
100
AcDbLine
 62
253
  6
CONTINUOUS
 10
5.9602939982
 20
-6.2955804941
 11
5.9602939982
 21
-4.9100633723
  0
LINE
  5
47E
100
AcDbEntity
  8
RACCORDO
100
AcDbLine
 62
253
  6
CONTINUOUS
 10
5.3204750187
 20
-6.9404281006
 11
5.2906512755
 21
-8.7719233561
  0
LINE
  5
47F
100
AcDbEntity
  8
ASSI
100
AcDbLine
 62
253
  6
CONTINUOUS
 10
5.3204750187
 20
-6.9404281006
 11
5.2906512755
 21
-8.7719233561
  0
LINE
  5
480
100
AcDbEntity
  8
RACCORDO
100
AcDbLine
 62
253
  6
CONTINUOUS
 10
5.5703227255
 20
-7.046082666
 11
5.5328914203
 21
-9.3447631989
  0
LINE
  5
481
100
AcDbEntity
  8
ASSI
100
AcDbLine
 62
253
  6
CONTINUOUS
 10
5.5703227255
 20
-7.046082666
 11
5.5328914203
 21
-9.3447631989
  0
LINE
  5
482
100
AcDbEntity
  8
0
100
AcDbLine
 62
7
  6
CONTINUOUS
 10
1.966102803
 20
-5.7415548521
 11
1.857592165
 21
-5.8478048521
  0
LINE
  5
483
100
AcDbEntity
  8
ASSI
100
AcDbLine
 62
7
  6
CONTINUOUS
 10
1.966102803
 20
-5.7415548521
 11
1.857592165
 21
-5.8478048521
  0
LINE
  5
484
100
AcDbEntity
  8
0
100
AcDbLine
 62
7
  6
CONTINUOUS
 10
1.8214219565
 20
-5.6353048521
 11
1.6767410974
 21
-5.7415548521
  0
LINE
  5
485
100
AcDbEntity
  8
ASSI
100
AcDbLine
 62
7
  6
CONTINUOUS
 10
1.8214219565
 20
-5.6353048521
 11
1.6767410974
 21
-5.7415548521
  0
LINE
  5
486
100
AcDbEntity
  8
0
100
AcDbLine
 62
7
  6
CONTINUOUS
 10
1.0980177115
 20
-5.8123883205
 11
0.9533368777
 21
-5.8832215863
  0
LINE
  5
487
100
AcDbEntity
  8
ASSI
100
AcDbLine
 62
7
  6
CONTINUOUS
 10
1.0980177115
 20
-5.8123883205
 11
0.9533368777
 21
-5.8832215863
  0
LINE
  5
488
100
AcDbEntity
  8
0
100
AcDbLine
 62
7
  6
CONTINUOUS
 10
1.857592165
 20
-5.8478048521
 11
1.6767410974
 21
-5.9186383205
  0
LINE
  5
489
100
AcDbEntity
  8
ASSI
100
AcDbLine
 62
7
  6
CONTINUOUS
 10
1.857592165
 20
-5.8478048521
 11
1.6767410974
 21
-5.9186383205
  0
LINE
  5
48A
100
AcDbEntity
  8
RACCORDO
100
AcDbLine
 62
7
  6
CONTINUOUS
 10
-4.1541873099
 20
5.705358978
 11
-3.8110618753
 21
5.7382798136
  0
LINE
  5
48B
100
AcDbEntity
  8
ASSI
100
AcDbLine
 62
7
  6
CONTINUOUS
 10
-4.1541873099
 20
5.705358978
 11
-3.8110618753
 21
5.7382798136
  0
LINE
  5
48C
100
AcDbEntity
  8
DRAFT
100
AcDbLine
 62
7
  6
CONTINUOUS
 10
2.9107836495
 20
5.7367128831
 11
3.0804194099
 21
5.7451729624
  0
LINE
  5
48D
100
AcDbEntity
  8
ASSI
100
AcDbLine
 62
7
  6
CONTINUOUS
 10
2.9107836495
 20
5.7367128831
 11
3.0804194099
 21
5.7451729624
  0
LINE
  5
48E
100
AcDbEntity
  8
DRAFT
100
AcDbLine
 62
7
  6
CONTINUOUS
 10
-2.8892163505
 20
5.7297287292
 11
-2.9892163505
 21
5.7277125777
  0
LINE
  5
48F
100
AcDbEntity
  8
ASSI
100
AcDbLine
 62
7
  6
CONTINUOUS
 10
-2.8892163505
 20
5.7297287292
 11
-2.9892163505
 21
5.7277125777
  0
LINE
  5
490
100
AcDbEntity
  8
RACCORDO
100
AcDbLine
 62
253
  6
CONTINUOUS
 10
-7.4904118018
 20
5.3559539654
 11
-6.7880208991
 21
5.3559539654
  0
LINE
  5
491
100
AcDbEntity
  8
ASSI
100
AcDbLine
 62
253
  6
CONTINUOUS
 10
-7.4904118018
 20
5.3559539654
 11
-6.7880208991
 21
5.3559539654
  0
LINE
  5
492
100
AcDbEntity
  8
RACCORDO
100
AcDbLine
 62
253
  6
CONTINUOUS
 10
6.8095881982
 20
5.3559539654
 11
7.5119791009
 21
5.3559539654
  0
LINE
  5
493
100
AcDbEntity
  8
ASSI
100
AcDbLine
 62
253
  6
CONTINUOUS
 10
6.8095881982
 20
5.3559539654
 11
7.5119791009
 21
5.3559539654
  0
LINE
  5
494
100
AcDbEntity
  8
RACCORDO
100
AcDbLine
 62
7
  6
CONTINUOUS
 10
4.3636835779
 20
5.7007648586
 11
3.0107836495
 21
5.7007648586
  0
LINE
  5
495
100
AcDbEntity
  8
ASSI
100
AcDbLine
 62
7
  6
CONTINUOUS
 10
4.3636835779
 20
5.7007648586
 11
3.0107836495
 21
5.7007648586
  0
LINE
  5
496
100
AcDbEntity
  8
RACCORDO
100
AcDbLine
 62
7
  6
CONTINUOUS
 10
-2.9892163505
 20
5.7007648586
 11
-4.3421162789
 21
5.7007648586
  0
LINE
  5
497
100
AcDbEntity
  8
ASSI
100
AcDbLine
 62
7
  6
CONTINUOUS
 10
-2.9892163505
 20
5.7007648586
 11
-4.3421162789
 21
5.7007648586
  0
LINE
  5
498
100
AcDbEntity
  8
RACCORDO
100
AcDbLine
 62
7
  6
CONTINUOUS
 10
-3.529154089
 20
5.7451729624
 11
-3.0588521109
 21
5.7451729624
  0
LINE
  5
499
100
AcDbEntity
  8
ASSI
100
AcDbLine
 62
7
  6
CONTINUOUS
 10
-3.529154089
 20
5.7451729624
 11
-3.0588521109
 21
5.7451729624
  0
LINE
  5
49A
100
AcDbEntity
  8
RACCORDO
100
AcDbLine
 62
7
  6
CONTINUOUS
 10
3.0804194099
 20
5.7451729624
 11
3.5507213881
 21
5.7451729624
  0
LINE
  5
49B
100
AcDbEntity
  8
ASSI
100
AcDbLine
 62
7
  6
CONTINUOUS
 10
3.0804194099
 20
5.7451729624
 11
3.5507213881
 21
5.7451729624
  0
LINE
  5
49C
100
AcDbEntity
  8
DRAFT
100
AcDbLine
 62
7
  6
CONTINUOUS
 10
3.0107836495
 20
5.7277125777
 11
2.9107836495
 21
5.7297287292
  0
LINE
  5
49D
100
AcDbEntity
  8
ASSI
100
AcDbLine
 62
7
  6
CONTINUOUS
 10
3.0107836495
 20
5.7277125777
 11
2.9107836495
 21
5.7297287292
  0
LINE
  5
49E
100
AcDbEntity
  8
DRAFT
100
AcDbLine
 62
7
  6
CONTINUOUS
 10
-3.0588521109
 20
5.7451729624
 11
-2.8892163505
 21
5.7367128831
  0
LINE
  5
49F
100
AcDbEntity
  8
ASSI
100
AcDbLine
 62
7
  6
CONTINUOUS
 10
-3.0588521109
 20
5.7451729624
 11
-2.8892163505
 21
5.7367128831
  0
LINE
  5
4A0
100
AcDbEntity
  8
RACCORDO
100
AcDbLine
 62
7
  6
CONTINUOUS
 10
3.8326291743
 20
5.7382798136
 11
4.175754609
 21
5.705358978
  0
LINE
  5
4A1
100
AcDbEntity
  8
ASSI
100
AcDbLine
 62
7
  6
CONTINUOUS
 10
3.8326291743
 20
5.7382798136
 11
4.175754609
 21
5.705358978
  0
LINE
  5
4A2
100
AcDbEntity
  8
DRAFT
100
AcDbLine
 62
7
  6
CONTINUOUS
 10
-8.5016823411
 20
9.846443194
 11
-8.2392163505
 21
9.7416808855
  0
LINE
  5
4A3
100
AcDbEntity
  8
ASSI
100
AcDbLine
 62
7
  6
CONTINUOUS
 10
-8.5016823411
 20
9.846443194
 11
-8.2392163505
 21
9.7416808855
  0
LINE
  5
4A4
100
AcDbEntity
  8
RACCORDO
100
AcDbLine
 62
253
  6
CONTINUOUS
 10
6.7863419509
 20
7.4556157699
 11
6.8075425869
 21
6.8485089887
  0
LINE
  5
4A5
100
AcDbEntity
  8
ASSI
100
AcDbLine
 62
253
  6
CONTINUOUS
 10
6.7863419509
 20
7.4556157699
 11
6.8075425869
 21
6.8485089887
  0
LINE
  5
4A6
100
AcDbEntity
  8
RACCORDO
100
AcDbLine
 62
253
  6
CONTINUOUS
 10
7.0861594558
 20
7.6677404498
 11
7.107359835
 21
7.0606410231
  0
LINE
  5
4A7
100
AcDbEntity
  8
ASSI
100
AcDbLine
 62
253
  6
CONTINUOUS
 10
7.0861594558
 20
7.6677404498
 11
7.107359835
 21
7.0606410231
  0
LINE
  5
4A8
100
AcDbEntity
  8
RACCORDO
100
AcDbLine
 62
253
  6
CONTINUOUS
 10
6.7781595056
 20
9.7315702698
 11
6.7781595056
 21
8.0213011949
  0
LINE
  5
4A9
100
AcDbEntity
  8
ASSI
100
AcDbLine
 62
253
  6
CONTINUOUS
 10
6.7781595056
 20
9.7315702698
 11
6.7781595056
 21
8.0213011949
  0
LINE
  5
4AA
100
AcDbEntity
  8
RACCORDO
100
AcDbLine
 62
253
  6
CONTINUOUS
 10
6.8095881982
 20
6.7070876325
 11
6.8095881982
 21
5.3559539654
  0
LINE
  5
4AB
100
AcDbEntity
  8
ASSI
100
AcDbLine
 62
253
  6
CONTINUOUS
 10
6.8095881982
 20
6.7070876325
 11
6.8095881982
 21
5.3559539654
  0
LINE
  5
4AC
100
AcDbEntity
  8
RACCORDO
100
AcDbLine
 62
253
  6
CONTINUOUS
 10
7.0779767537
 20
9.7416808855
 11
7.0779767537
 21
8.0213121588
  0
LINE
  5
4AD
100
AcDbEntity
  8
ASSI
100
AcDbLine
 62
253
  6
CONTINUOUS
 10
7.0779767537
 20
9.7416808855
 11
7.0779767537
 21
8.0213121588
  0
LINE
  5
4AE
100
AcDbEntity
  8
RACCORDO
100
AcDbLine
 62
253
  6
CONTINUOUS
 10
7.1094054463
 20
6.7070876325
 11
7.1094054463
 21
5.355969426
  0
LINE
  5
4AF
100
AcDbEntity
  8
ASSI
100
AcDbLine
 62
253
  6
CONTINUOUS
 10
7.1094054463
 20
6.7070876325
 11
7.1094054463
 21
5.355969426
  0
LINE
  5
4B0
100
AcDbEntity
  8
RACCORDO
100
AcDbLine
 62
253
  6
CONTINUOUS
 10
7.2121618527
 20
5.3559694261
 11
7.2121618527
 21
6.7070876325
  0
LINE
  5
4B1
100
AcDbEntity
  8
ASSI
100
AcDbLine
 62
253
  6
CONTINUOUS
 10
7.2121618527
 20
5.3559694261
 11
7.2121618527
 21
6.7070876325
  0
LINE
  5
4B2
100
AcDbEntity
  8
RACCORDO
100
AcDbLine
 62
253
  6
CONTINUOUS
 10
7.2435905453
 20
8.0213121626
 11
7.2435905453
 21
9.7416808855
  0
LINE
  5
4B3
100
AcDbEntity
  8
ASSI
100
AcDbLine
 62
253
  6
CONTINUOUS
 10
7.2435905453
 20
8.0213121626
 11
7.2435905453
 21
9.7416808855
  0
LINE
  5
4B4
100
AcDbEntity
  8
RACCORDO
100
AcDbLine
 62
253
  6
CONTINUOUS
 10
7.2953135957
 20
-9.551628745
 11
7.2953135957
 21
-11.1080443561
  0
LINE
  5
4B5
100
AcDbEntity
  8
ASSI
100
AcDbLine
 62
253
  6
CONTINUOUS
 10
7.2953135957
 20
-9.551628745
 11
7.2953135957
 21
-11.1080443561
  0
LINE
  5
4B6
100
AcDbEntity
  8
RACCORDO
100
AcDbLine
 62
253
  6
CONTINUOUS
 10
7.4685186764
 20
-9.563907201
 11
7.4685186764
 21
-11.113285134
  0
LINE
  5
4B7
100
AcDbEntity
  8
ASSI
100
AcDbLine
 62
253
  6
CONTINUOUS
 10
7.4685186764
 20
-9.563907201
 11
7.4685186764
 21
-11.113285134
  0
LINE
  5
4B8
100
AcDbEntity
  8
RACCORDO
100
AcDbLine
 62
253
  6
CONTINUOUS
 10
7.2142074641
 20
7.0606410231
 11
7.2354078431
 21
7.6677404464
  0
LINE
  5
4B9
100
AcDbEntity
  8
ASSI
100
AcDbLine
 62
253
  6
CONTINUOUS
 10
7.2142074641
 20
7.0606410231
 11
7.2354078431
 21
7.6677404464
  0
LINE
  5
4BA
100
AcDbEntity
  8
RACCORDO
100
AcDbLine
 62
253
  6
CONTINUOUS
 10
7.5140247122
 20
6.8485089887
 11
7.5352253481
 21
7.4556157699
  0
LINE
  5
4BB
100
AcDbEntity
  8
ASSI
100
AcDbLine
 62
253
  6
CONTINUOUS
 10
7.5140247122
 20
6.8485089887
 11
7.5352253481
 21
7.4556157699
  0
LINE
  5
4BC
100
AcDbEntity
  8
RACCORDO
100
AcDbLine
 62
253
  6
CONTINUOUS
 10
5.6525238254
 20
-6.341849017
 11
5.7032320811
 21
-6.0858055863
  0
LINE
  5
4BD
100
AcDbEntity
  8
ASSI
100
AcDbLine
 62
253
  6
CONTINUOUS
 10
5.6525238254
 20
-6.341849017
 11
5.7032320811
 21
-6.0858055863
  0
LINE
  5
4BE
100
AcDbEntity
  8
RACCORDO
100
AcDbLine
 62
253
  6
CONTINUOUS
 10
5.9023715322
 20
-6.5880509552
 11
5.9602939982
 21
-6.2955804941
  0
LINE
  5
4BF
100
AcDbEntity
  8
ASSI
100
AcDbLine
 62
253
  6
CONTINUOUS
 10
5.9023715322
 20
-6.5880509552
 11
5.9602939982
 21
-6.2955804941
  0
LINE
  5
4C0
100
AcDbEntity
  8
RACCORDO
100
AcDbLine
 62
253
  6
CONTINUOUS
 10
5.7121623158
 20
-4.6101088346
 11
5.7666793216
 21
-4.5828586368
  0
LINE
  5
4C1
100
AcDbEntity
  8
ASSI
100
AcDbLine
 62
253
  6
CONTINUOUS
 10
5.7121623158
 20
-4.6101088346
 11
5.7666793216
 21
-4.5828586368
  0
LINE
  5
4C2
100
AcDbEntity
  8
RACCORDO
100
AcDbLine
 62
253
  6
CONTINUOUS
 10
5.9620095641
 20
-4.8600709875
 11
6.0164038425
 21
-4.8328821347
  0
LINE
  5
4C3
100
AcDbEntity
  8
ASSI
100
AcDbLine
 62
253
  6
CONTINUOUS
 10
5.9620095641
 20
-4.8600709875
 11
6.0164038425
 21
-4.8328821347
  0
LINE
  5
4C4
100
AcDbEntity
  8
0
100
AcDbLine
 62
7
  6
CONTINUOUS
 10
-2.1067783505
 20
-8.3269715863
 11
-0.4069153505
 21
-7.7880815863
  0
LINE
  5
4C5
100
AcDbEntity
  8
ASSI
100
AcDbLine
 62
7
  6
CONTINUOUS
 10
-2.1067783505
 20
-8.3269715863
 11
-0.4069153505
 21
-7.7880815863
  0
LINE
  5
4C6
100
AcDbEntity
  8
RACCORDO
100
AcDbLine
 62
7
  6
CONTINUOUS
 10
4.1810733433
 20
7.3235401501
 11
3.8326291743
 21
7.2901090138
  0
LINE
  5
4C7
100
AcDbEntity
  8
ASSI
100
AcDbLine
 62
7
  6
CONTINUOUS
 10
4.1810733433
 20
7.3235401501
 11
3.8326291743
 21
7.2901090138
  0
LINE
  5
4C8
100
AcDbEntity
  8
DRAFT
100
AcDbLine
 62
7
  6
CONTINUOUS
 10
3.0107836495
 20
7.3006762497
 11
2.9107836495
 21
7.2986600981
  0
LINE
  5
4C9
100
AcDbEntity
  8
ASSI
100
AcDbLine
 62
7
  6
CONTINUOUS
 10
3.0107836495
 20
7.3006762497
 11
2.9107836495
 21
7.2986600981
  0
LINE
  5
4CA
100
AcDbEntity
  8
RACCORDO
100
AcDbLine
 62
253
  6
CONTINUOUS
 10
6.8095881982
 20
6.7070876325
 11
7.5119791009
 21
6.7070876325
  0
LINE
  5
4CB
100
AcDbEntity
  8
ASSI
100
AcDbLine
 62
253
  6
CONTINUOUS
 10
6.8095881982
 20
6.7070876325
 11
7.5119791009
 21
6.7070876325
  0
LINE
  5
4CC
100
AcDbEntity
  8
RACCORDO
100
AcDbLine
 62
253
  6
CONTINUOUS
 10
-6.7880208991
 20
6.7070876325
 11
-7.4904118018
 21
6.7070876325
  0
LINE
  5
4CD
100
AcDbEntity
  8
ASSI
100
AcDbLine
 62
253
  6
CONTINUOUS
 10
-6.7880208991
 20
6.7070876325
 11
-7.4904118018
 21
6.7070876325
  0
LINE
  5
4CE
100
AcDbEntity
  8
RACCORDO
100
AcDbLine
 62
253
  6
CONTINUOUS
 10
7.2142074641
 20
7.0606410231
 11
7.107359835
 21
7.0606410231
  0
LINE
  5
4CF
100
AcDbEntity
  8
ASSI
100
AcDbLine
 62
253
  6
CONTINUOUS
 10
7.2142074641
 20
7.0606410231
 11
7.107359835
 21
7.0606410231
  0
LINE
  5
4D0
100
AcDbEntity
  8
RACCORDO
100
AcDbLine
 62
253
  6
CONTINUOUS
 10
-7.0857925359
 20
7.0606410231
 11
-7.192640165
 21
7.0606410231
  0
LINE
  5
4D1
100
AcDbEntity
  8
ASSI
100
AcDbLine
 62
253
  6
CONTINUOUS
 10
-7.0857925359
 20
7.0606410231
 11
-7.192640165
 21
7.0606410231
  0
LINE
  5
4D2
100
AcDbEntity
  8
RACCORDO
100
AcDbLine
 62
7
  6
CONTINUOUS
 10
-3.529154089
 20
7.283215865
 11
-3.0588521109
 21
7.283215865
  0
LINE
  5
4D3
100
AcDbEntity
  8
ASSI
100
AcDbLine
 62
7
  6
CONTINUOUS
 10
-3.529154089
 20
7.283215865
 11
-3.0588521109
 21
7.283215865
  0
LINE
  5
4D4
100
AcDbEntity
  8
RACCORDO
100
AcDbLine
 62
7
  6
CONTINUOUS
 10
3.0804194099
 20
7.283215865
 11
3.5507213881
 21
7.283215865
  0
LINE
  5
4D5
100
AcDbEntity
  8
ASSI
100
AcDbLine
 62
7
  6
CONTINUOUS
 10
3.0804194099
 20
7.283215865
 11
3.5507213881
 21
7.283215865
  0
LINE
  5
4D6
100
AcDbEntity
  8
RACCORDO
100
AcDbLine
 62
7
  6
CONTINUOUS
 10
-4.3474609218
 20
7.3281369619
 11
-2.9892163505
 21
7.3281369619
  0
LINE
  5
4D7
100
AcDbEntity
  8
ASSI
100
AcDbLine
 62
7
  6
CONTINUOUS
 10
-4.3474609218
 20
7.3281369619
 11
-2.9892163505
 21
7.3281369619
  0
LINE
  5
4D8
100
AcDbEntity
  8
RACCORDO
100
AcDbLine
 62
7
  6
CONTINUOUS
 10
3.0107836495
 20
7.3281369619
 11
4.3690282208
 21
7.3281369619
  0
LINE
  5
4D9
100
AcDbEntity
  8
ASSI
100
AcDbLine
 62
7
  6
CONTINUOUS
 10
3.0107836495
 20
7.3281369619
 11
4.3690282208
 21
7.3281369619
  0
LINE
  5
4DA
100
AcDbEntity
  8
DRAFT
100
AcDbLine
 62
7
  6
CONTINUOUS
 10
-2.8892163505
 20
7.2986600981
 11
-2.9892163505
 21
7.3006762497
  0
LINE
  5
4DB
100
AcDbEntity
  8
ASSI
100
AcDbLine
 62
7
  6
CONTINUOUS
 10
-2.8892163505
 20
7.2986600981
 11
-2.9892163505
 21
7.3006762497
  0
LINE
  5
4DC
100
AcDbEntity
  8
RACCORDO
100
AcDbLine
 62
7
  6
CONTINUOUS
 10
-3.8110618753
 20
7.2901090138
 11
-4.1595060442
 21
7.3235401501
  0
LINE
  5
4DD
100
AcDbEntity
  8
ASSI
100
AcDbLine
 62
7
  6
CONTINUOUS
 10
-3.8110618753
 20
7.2901090138
 11
-4.1595060442
 21
7.3235401501
  0
LINE
  5
4DE
100
AcDbEntity
  8
RACCORDO
100
AcDbLine
 62
253
  6
CONTINUOUS
 10
7.5119791009
 20
5.3559539654
 11
7.5119791009
 21
6.7070876325
  0
LINE
  5
4DF
100
AcDbEntity
  8
ASSI
100
AcDbLine
 62
253
  6
CONTINUOUS
 10
7.5119791009
 20
5.3559539654
 11
7.5119791009
 21
6.7070876325
  0
LINE
  5
4E0
100
AcDbEntity
  8
RACCORDO
100
AcDbLine
 62
253
  6
CONTINUOUS
 10
7.5434077934
 20
8.0213011949
 11
7.5434077934
 21
9.7315702698
  0
LINE
  5
4E1
100
AcDbEntity
  8
ASSI
100
AcDbLine
 62
253
  6
CONTINUOUS
 10
7.5434077934
 20
8.0213011949
 11
7.5434077934
 21
9.7315702698
  0
LINE
  5
4E2
100
AcDbEntity
  8
DRAFT
100
AcDbLine
 62
7
  6
CONTINUOUS
 10
8.2607836495
 20
9.7416808855
 11
8.2607836495
 21
10.8880138103
  0
LINE
  5
4E3
100
AcDbEntity
  8
ASSI
100
AcDbLine
 62
7
  6
CONTINUOUS
 10
8.2607836495
 20
9.7416808855
 11
8.2607836495
 21
10.8880138103
  0
LINE
  5
4E4
100
AcDbEntity
  8
DRAFT
100
AcDbLine
 62
7
  6
CONTINUOUS
 10
7.8192086425
 20
-11.145118292
 11
7.8945021263
 21
-9.654500717
  0
LINE
  5
4E5
100
AcDbEntity
  8
ASSI
100
AcDbLine
 62
7
  6
CONTINUOUS
 10
7.8192086425
 20
-11.145118292
 11
7.8945021263
 21
-9.654500717
  0
LINE
  5
4E6
100
AcDbEntity
  8
RACCORDO
100
AcDbLine
 62
7
  6
CONTINUOUS
 10
6.0048967267
 20
-9.29150595
 11
5.9309160235
 21
-9.551628745
  0
LINE
  5
4E7
100
AcDbEntity
  8
ASSI
100
AcDbLine
 62
7
  6
CONTINUOUS
 10
6.0048967267
 20
-9.29150595
 11
5.9309160235
 21
-9.551628745
  0
LINE
  5
4E8
100
AcDbEntity
  8
DRAFT
100
AcDbLine
 62
7
  6
CONTINUOUS
 10
-3.0588521109
 20
7.283215865
 11
-2.8892163505
 21
7.2916759442
  0
LINE
  5
4E9
100
AcDbEntity
  8
ASSI
100
AcDbLine
 62
7
  6
CONTINUOUS
 10
-3.0588521109
 20
7.283215865
 11
-2.8892163505
 21
7.2916759442
  0
LINE
  5
4EA
100
AcDbEntity
  8
RACCORDO
100
AcDbLine
 62
253
  6
CONTINUOUS
 10
-7.2138405442
 20
7.6677404498
 11
-7.0645921569
 21
7.6677404464
  0
LINE
  5
4EB
100
AcDbEntity
  8
ASSI
100
AcDbLine
 62
253
  6
CONTINUOUS
 10
-7.2138405442
 20
7.6677404498
 11
-7.0645921569
 21
7.6677404464
  0
LINE
  5
4EC
100
AcDbEntity
  8
RACCORDO
100
AcDbLine
 62
253
  6
CONTINUOUS
 10
7.0861594558
 20
7.6677404498
 11
7.2354078431
 21
7.6677404464
  0
LINE
  5
4ED
100
AcDbEntity
  8
ASSI
100
AcDbLine
 62
253
  6
CONTINUOUS
 10
7.0861594558
 20
7.6677404498
 11
7.2354078431
 21
7.6677404464
  0
LINE
  5
4EE
100
AcDbEntity
  8
RACCORDO
100
AcDbLine
 62
253
  6
CONTINUOUS
 10
-7.5218404944
 20
8.0213011949
 11
-6.7565922066
 21
8.0213011949
  0
LINE
  5
4EF
100
AcDbEntity
  8
ASSI
100
AcDbLine
 62
253
  6
CONTINUOUS
 10
-7.5218404944
 20
8.0213011949
 11
-6.7565922066
 21
8.0213011949
  0
LINE
  5
4F0
100
AcDbEntity
  8
RACCORDO
100
AcDbLine
 62
253
  6
CONTINUOUS
 10
6.7781595056
 20
8.0213011949
 11
7.5434077934
 21
8.0213011949
  0
LINE
  5
4F1
100
AcDbEntity
  8
ASSI
100
AcDbLine
 62
253
  6
CONTINUOUS
 10
6.7781595056
 20
8.0213011949
 11
7.5434077934
 21
8.0213011949
  0
LINE
  5
4F2
100
AcDbEntity
  8
DRAFT
100
AcDbLine
 62
7
  6
CONTINUOUS
 10
2.9107836495
 20
7.2916759442
 11
3.0804194099
 21
7.283215865
  0
LINE
  5
4F3
100
AcDbEntity
  8
ASSI
100
AcDbLine
 62
7
  6
CONTINUOUS
 10
2.9107836495
 20
7.2916759442
 11
3.0804194099
 21
7.283215865
  0
LINE
  5
4F4
100
AcDbEntity
  8
DRAFT
100
AcDbLine
 62
7
  6
CONTINUOUS
 10
2.5072926365
 20
8.9351404916
 11
2.5107836495
 21
8.9316494786
  0
LINE
  5
4F5
100
AcDbEntity
  8
RACCORDO
100
AcDbLine
 62
253
  6
CONTINUOUS
 10
9.6996203234
 20
-9.654500717
 11
9.6480169526
 21
-9.29150595
  0
LINE
  5
4F6
100
AcDbEntity
  8
ASSI
100
AcDbLine
 62
253
  6
CONTINUOUS
 10
9.6996203234
 20
-9.654500717
 11
9.6480169526
 21
-9.29150595
  0
LINE
  5
4F7
100
AcDbEntity
  8
RACCORDO
100
AcDbLine
 62
253
  6
CONTINUOUS
 10
9.8995291413
 20
-9.4555643547
 11
9.847986492
 21
-9.0929967228
  0
LINE
  5
4F8
100
AcDbEntity
  8
ASSI
100
AcDbLine
 62
253
  6
CONTINUOUS
 10
9.8995291413
 20
-9.4555643547
 11
9.847986492
 21
-9.0929967228
  0
LINE
  5
4F9
100
AcDbEntity
  8
DRAFT
100
AcDbLine
 62
7
  6
CONTINUOUS
 10
8.5232496401
 20
10.9141944137
 11
8.5232496401
 21
9.846443194
  0
LINE
  5
4FA
100
AcDbEntity
  8
ASSI
100
AcDbLine
 62
7
  6
CONTINUOUS
 10
8.5232496401
 20
10.9141944137
 11
8.5232496401
 21
9.846443194
  0
LINE
  5
4FB
100
AcDbEntity
  8
0
100
AcDbLine
 62
7
  6
CONTINUOUS
 10
9.5107836495
 20
-3.0858055863
 11
9.5107836495
 21
0.7141944137
  0
LINE
  5
4FC
100
AcDbEntity
  8
ASSI
100
AcDbLine
 62
7
  6
CONTINUOUS
 10
9.5107836495
 20
-3.0858055863
 11
9.5107836495
 21
0.7141944137
  0
LINE
  5
4FD
100
AcDbEntity
  8
DRAFT
100
AcDbLine
 62
7
  6
CONTINUOUS
 10
-2.9566714154
 20
8.9316494786
 11
-2.4892163505
 21
8.9316494786
  0
LINE
  5
4FE
100
AcDbEntity
  8
DRAFT
100
AcDbLine
 62
7
  6
CONTINUOUS
 10
2.9782387144
 20
8.9316494786
 11
2.5107836495
 21
8.9316494786
  0
LINE
  5
4FF
100
AcDbEntity
  8
DRAFT
100
AcDbLine
 62
7
  6
CONTINUOUS
 10
-2.4857253375
 20
8.9351404916
 11
2.5072926365
 21
8.9351404916
  0
LINE
  5
500
100
AcDbEntity
  8
DRAFT
100
AcDbLine
 62
7
  6
CONTINUOUS
 10
3.0107836495
 20
9.0141944137
 11
-2.9892163505
 21
9.0141944137
  0
LINE
  5
501
100
AcDbEntity
  8
ASSI
100
AcDbLine
 62
7
  6
CONTINUOUS
 10
3.0107836495
 20
9.0141944137
 11
-2.9892163505
 21
9.0141944137
  0
LINE
  5
502
100
AcDbEntity
  8
DRAFT
100
AcDbLine
 62
7
  6
CONTINUOUS
 10
3.0107836495
 20
9.0501420408
 11
-2.9892163505
 21
9.0501420408
  0
LINE
  5
503
100
AcDbEntity
  8
ASSI
100
AcDbLine
 62
7
  6
CONTINUOUS
 10
3.0107836495
 20
9.0501420408
 11
-2.9892163505
 21
9.0501420408
  0
LINE
  5
504
100
AcDbEntity
  8
RACCORDO
100
AcDbLine
 62
253
  6
CONTINUOUS
 10
7.274032726
 20
4.8011280891
 11
7.2189027907
 21
4.8562580244
  0
LINE
  5
505
100
AcDbEntity
  8
ASSI
100
AcDbLine
 62
253
  6
CONTINUOUS
 10
7.274032726
 20
4.8011280891
 11
7.2189027907
 21
4.8562580244
  0
LINE
  5
506
100
AcDbEntity
  8
RACCORDO
100
AcDbLine
 62
253
  6
CONTINUOUS
 10
7.5739772735
 20
5.1008180378
 11
7.5187195113
 21
5.1560758
  0
LINE
  5
507
100
AcDbEntity
  8
ASSI
100
AcDbLine
 62
253
  6
CONTINUOUS
 10
7.5739772735
 20
5.1008180378
 11
7.5187195113
 21
5.1560758
  0
LINE
  5
508
100
AcDbEntity
  8
ASSI
100
AcDbLine
 62
253
  6
CONTINUOUS
 10
9.6427897572
 20
0.7141944137
 11
9.6409631571
 21
9.6998364706
  0
LINE
  5
509
100
AcDbEntity
  8
RACCORDO
100
AcDbLine
 62
253
  6
CONTINUOUS
 10
9.6480169526
 20
-9.29150595
 11
9.6480169526
 21
-9.1010670352
  0
LINE
  5
50A
100
AcDbEntity
  8
ASSI
100
AcDbLine
 62
253
  6
CONTINUOUS
 10
9.6480169526
 20
-9.29150595
 11
9.6444129075
 21
-3.0858055863
  0
LINE
  5
50B
100
AcDbEntity
  8
DRAFT
100
AcDbLine
 62
7
  6
CONTINUOUS
 10
9.8939067505
 20
-3.0858055863
 11
9.8939067505
 21
0.7141944137
  0
LINE
  5
50C
100
AcDbEntity
  8
ASSI
100
AcDbLine
 62
7
  6
CONTINUOUS
 10
9.8939067505
 20
-3.0858055863
 11
9.8939067505
 21
0.7141944137
  0
LINE
  5
50D
100
AcDbEntity
  8
DRAFT
100
AcDbLine
 62
7
  6
CONTINUOUS
 10
9.9107836495
 20
9.846443194
 11
9.9107836495
 21
-2.0858055863
  0
LINE
  5
50E
100
AcDbEntity
  8
ASSI
100
AcDbLine
 62
7
  6
CONTINUOUS
 10
9.9107836495
 20
9.846443194
 11
9.9107836495
 21
-2.0858055863
  0
LINE
  5
50F
100
AcDbEntity
  8
RACCORDO
100
AcDbLine
 62
7
  6
CONTINUOUS
 10
9.8995291413
 20
-9.4555643547
 11
9.9107836495
 21
-2.0858055863
  0
LINE
  5
510
100
AcDbEntity
  8
ASSI
100
AcDbLine
 62
7
  6
CONTINUOUS
 10
9.8995291413
 20
-9.4555643547
 11
9.9107836495
 21
-2.0858055863
  0
LINE
  5
511
100
AcDbEntity
  8
DRAFT
100
AcDbLine
 62
7
  6
CONTINUOUS
 10
8.5232496401
 20
10.9141944137
 11
8.2607836495
 21
10.8880138103
  0
LINE
  5
512
100
AcDbEntity
  8
ASSI
100
AcDbLine
 62
7
  6
CONTINUOUS
 10
8.5232496401
 20
10.9141944137
 11
8.2607836495
 21
10.8880138103
  0
LINE
  5
513
100
AcDbEntity
  8
RACCORDO
100
AcDbLine
 62
7
  6
CONTINUOUS
 10
9.6409631574
 20
9.6998364706
 11
7.5751415926
 21
9.6998364706
  0
LINE
  5
514
100
AcDbEntity
  8
ASSI
100
AcDbLine
 62
7
  6
CONTINUOUS
 10
9.6409631574
 20
9.6998364706
 11
7.5751415926
 21
9.6998364706
  0
LINE
  5
515
100
AcDbEntity
  8
DRAFT
100
AcDbLine
 62
7
  6
CONTINUOUS
 10
6.7464257065
 20
9.6998364706
 11
-6.7248584074
 21
9.6998364706
  0
LINE
  5
516
100
AcDbEntity
  8
ASSI
100
AcDbLine
 62
7
  6
CONTINUOUS
 10
6.7464257065
 20
9.6998364706
 11
-6.7248584074
 21
9.6998364706
  0
LINE
  5
517
100
AcDbEntity
  8
RACCORDO
100
AcDbLine
 62
7
  6
CONTINUOUS
 10
-7.5535742935
 20
9.6998364706
 11
-9.6193958581
 21
9.6998364706
  0
LINE
  5
518
100
AcDbEntity
  8
ASSI
100
AcDbLine
 62
7
  6
CONTINUOUS
 10
-7.5535742935
 20
9.6998364706
 11
-9.6193958581
 21
9.6998364706
  0
LINE
  5
519
100
AcDbEntity
  8
RACCORDO
100
AcDbLine
 62
7
  6
CONTINUOUS
 10
-8.2392163505
 20
9.7416808855
 11
-7.2220232463
 21
9.7416808855
  0
LINE
  5
51A
100
AcDbEntity
  8
ASSI
100
AcDbLine
 62
7
  6
CONTINUOUS
 10
-8.2392163505
 20
9.7416808855
 11
-7.2220232463
 21
9.7416808855
  0
LINE
  5
51B
100
AcDbEntity
  8
RACCORDO
100
AcDbLine
 62
7
  6
CONTINUOUS
 10
-7.0564094547
 20
9.7416808855
 11
7.0779767537
 21
9.7416808855
  0
LINE
  5
51C
100
AcDbEntity
  8
ASSI
100
AcDbLine
 62
7
  6
CONTINUOUS
 10
-7.0564094547
 20
9.7416808855
 11
7.0779767537
 21
9.7416808855
  0
LINE
  5
51D
100
AcDbEntity
  8
RACCORDO
100
AcDbLine
 62
7
  6
CONTINUOUS
 10
7.2435905453
 20
9.7416808855
 11
8.2607836495
 21
9.7416808855
  0
LINE
  5
51E
100
AcDbEntity
  8
ASSI
100
AcDbLine
 62
7
  6
CONTINUOUS
 10
7.2435905453
 20
9.7416808855
 11
8.2607836495
 21
9.7416808855
  0
LINE
  5
51F
100
AcDbEntity
  8
DRAFT
100
AcDbLine
 62
7
  6
CONTINUOUS
 10
9.9107836495
 20
9.846443194
 11
8.5232496401
 21
9.846443194
  0
LINE
  5
520
100
AcDbEntity
  8
ASSI
100
AcDbLine
 62
7
  6
CONTINUOUS
 10
9.9107836495
 20
9.846443194
 11
8.5232496401
 21
9.846443194
  0
LINE
  5
521
100
AcDbEntity
  8
DRAFT
100
AcDbLine
 62
7
  6
CONTINUOUS
 10
-8.5016823411
 20
9.846443194
 11
-9.8892163505
 21
9.846443194
  0
LINE
  5
522
100
AcDbEntity
  8
ASSI
100
AcDbLine
 62
7
  6
CONTINUOUS
 10
-8.5016823411
 20
9.846443194
 11
-9.8892163505
 21
9.846443194
  0
LINE
  5
523
100
AcDbEntity
  8
DRAFT
100
AcDbLine
 62
7
  6
CONTINUOUS
 10
-8.5016823411
 20
10.9141944137
 11
-8.2392163505
 21
10.8880138103
  0
LINE
  5
524
100
AcDbEntity
  8
ASSI
100
AcDbLine
 62
7
  6
CONTINUOUS
 10
-8.5016823411
 20
10.9141944137
 11
-8.2392163505
 21
10.8880138103
  0
LINE
  5
525
100
AcDbEntity
  8
RACCORDO
100
AcDbLine
 62
7
  6
CONTINUOUS
 10
11.1607836495
 20
10.714217259
 11
11.1607836495
 21
-2.0858055863
  0
LINE
  5
526
100
AcDbEntity
  8
ASSI
100
AcDbLine
 62
7
  6
CONTINUOUS
 10
11.1607836495
 20
10.714217259
 11
11.1607836495
 21
-2.0858055863
  0
LINE
  5
527
100
AcDbEntity
  8
RACCORDO
100
AcDbLine
 62
7
  6
CONTINUOUS
 10
11.1607836495
 20
-2.0858055863
 11
11.1477094122
 21
-10.6471725642
  0
LINE
  5
528
100
AcDbEntity
  8
ASSI
100
AcDbLine
 62
7
  6
CONTINUOUS
 10
11.1607836495
 20
-2.0858055863
 11
11.1477094122
 21
-10.6471725642
  0
LINE
  5
529
100
AcDbEntity
  8
DRAFT
100
AcDbLine
 62
7
  6
CONTINUOUS
 10
8.2607836495
 20
10.8880138103
 11
-8.2392163505
 21
10.8880138103
  0
LINE
  5
52A
100
AcDbEntity
  8
ASSI
100
AcDbLine
 62
7
  6
CONTINUOUS
 10
8.2607836495
 20
10.8880138103
 11
-8.2392163505
 21
10.8880138103
  0
LINE
  5
52B
100
AcDbEntity
  8
RACCORDO
100
AcDbLine
 62
7
  6
CONTINUOUS
 10
10.9607836484
 20
10.9141944137
 11
8.5232496401
 21
10.9141944137
  0
LINE
  5
52C
100
AcDbEntity
  8
ASSI
100
AcDbLine
 62
7
  6
CONTINUOUS
 10
10.9607836484
 20
10.9141944137
 11
8.5232496401
 21
10.9141944137
  0
LINE
  5
52D
100
AcDbEntity
  8
RACCORDO
100
AcDbLine
 62
7
  6
CONTINUOUS
 10
-8.5016823411
 20
10.9141944137
 11
-10.9392163493
 21
10.9141944137
  0
LINE
  5
52E
100
AcDbEntity
  8
ASSI
100
AcDbLine
 62
7
  6
CONTINUOUS
 10
-8.5016823411
 20
10.9141944137
 11
-10.9392163493
 21
10.9141944137
  0
LINE
  5
52F
100
AcDbEntity
  8
RACCORDO
100
AcDbLine
 62
7
  6
CONTINUOUS
 10
7.5434077934
 20
9.7315702698
 11
7.5751415926
 21
9.6998364706
  0
LINE
  5
530
100
AcDbEntity
  8
ASSI
100
AcDbLine
 62
7
  6
CONTINUOUS
 10
7.5434077934
 20
9.7315702698
 11
7.5751415926
 21
9.6998364706
  0
ARC
  5
531
100
AcDbEntity
  8
RACCORDO
100
AcDbCircle
 62
253
  6
CONTINUOUS
 10
-52.0768407093
 20
-6.9229036862
 40
46.447326629
100
AcDbArc
 50
359.8480505891
 51
0.0044488492
  0
ARC
  5
532
100
AcDbEntity
  8
ASSI
100
AcDbCircle
 62
253
  6
CONTINUOUS
 10
-52.0768407093
 20
-6.9229036862
 40
46.447326629
100
AcDbArc
 50
359.8480505891
 51
0.0044488492
  0
ARC
  5
533
100
AcDbEntity
  8
RACCORDO
100
AcDbCircle
 62
253
  6
CONTINUOUS
 10
-40.876840708
 20
-6.9229036862
 40
46.4473266277
100
AcDbArc
 50
359.8480505891
 51
0.0044488492
  0
ARC
  5
534
100
AcDbEntity
  8
ASSI
100
AcDbCircle
 62
253
  6
CONTINUOUS
 10
-40.876840708
 20
-6.9229036862
 40
46.4473266277
100
AcDbArc
 50
359.8480505891
 51
0.0044488492
  0
ARC
  5
535
100
AcDbEntity
  8
RACCORDO
100
AcDbCircle
 62
253
  6
CONTINUOUS
 10
-3.9633871671
 20
-6.9195465842
 40
1.3356842781
100
AcDbArc
 50
179.9893018286
 51
180.8957745167
  0
ARC
  5
536
100
AcDbEntity
  8
ASSI
100
AcDbCircle
 62
253
  6
CONTINUOUS
 10
-3.9633871671
 20
-6.9195465842
 40
1.3356842781
100
AcDbArc
 50
179.9893018286
 51
180.8957745167
  0
ARC
  5
537
100
AcDbEntity
  8
RACCORDO
100
AcDbCircle
 62
253
  6
CONTINUOUS
 10
-7.1721277432
 20
-6.9198773451
 40
1.2927659852
100
AcDbArc
 50
359.0891460249
 51
0.0257127486
  0
ARC
  5
538
100
AcDbEntity
  8
ASSI
100
AcDbCircle
 62
253
  6
CONTINUOUS
 10
-7.1721277432
 20
-6.9198773451
 40
1.2927659852
100
AcDbArc
 50
359.0891460249
 51
0.0257127486
  0
ARC
  5
539
100
AcDbEntity
  8
RACCORDO
100
AcDbCircle
 62
253
  6
CONTINUOUS
 10
-5.4880844901
 20
-4.8601899485
 40
0.2500887179
100
AcDbArc
 50
0.0272536006
 51
89.9435595895
  0
ARC
  5
53A
100
AcDbEntity
  8
RACCORDO
100
AcDbCircle
 62
253
  6
CONTINUOUS
 10
-5.6903481818
 20
-4.8601899775
 40
0.2500887181
100
AcDbArc
 50
90.0564470504
 51
179.9727397652
  0
ARC
  5
53B
100
AcDbEntity
  8
ASSI
100
AcDbCircle
 62
253
  6
CONTINUOUS
 10
-5.4880844901
 20
-4.8601899485
 40
0.2500887179
100
AcDbArc
 50
0.0272536006
 51
89.9435595895
  0
ARC
  5
53C
100
AcDbEntity
  8
ASSI
100
AcDbCircle
 62
253
  6
CONTINUOUS
 10
-5.6903481818
 20
-4.8601899775
 40
0.2500887181
100
AcDbArc
 50
90.0564470504
 51
179.9727397652
  0
ARC
  5
53D
100
AcDbEntity
  8
RACCORDO
100
AcDbCircle
 62
7
  6
CONTINUOUS
 10
-5.4332451216
 20
-4.8325053459
 40
0.2496440616
100
AcDbArc
 50
359.9135250016
 51
90.0173408389
  0
ARC
  5
53E
100
AcDbEntity
  8
RACCORDO
100
AcDbCircle
 62
7
  6
CONTINUOUS
 10
-5.7451875795
 20
-4.8325053461
 40
0.2496440616
100
AcDbArc
 50
89.9826591193
 51
180.0864749415
  0
ARC
  5
53F
100
AcDbEntity
  8
ASSI
100
AcDbCircle
 62
7
  6
CONTINUOUS
 10
-5.4332451216
 20
-4.8325053459
 40
0.2496440616
100
AcDbArc
 50
359.9135250016
 51
90.0173408389
  0
ARC
  5
540
100
AcDbEntity
  8
ASSI
100
AcDbCircle
 62
7
  6
CONTINUOUS
 10
-5.7451875795
 20
-4.8325053461
 40
0.2496440616
100
AcDbArc
 50
89.9826591193
 51
180.0864749415
  0
CIRCLE
  5
541
100
AcDbEntity
  8
0
100
AcDbCircle
 62
7
  6
CONTINUOUS
 10
0.0107836495
 20
6.5141944137
 40
1.1
  0
CIRCLE
  5
542
100
AcDbEntity
  8
0
100
AcDbCircle
 62
7
  6
CONTINUOUS
 10
0.0107836495
 20
6.5141944137
 40
0.9
  0
ARC
  5
543
100
AcDbEntity
  8
RACCORDO
100
AcDbCircle
 62
253
  6
CONTINUOUS
 10
-7.0815361444
 20
5.1565142076
 40
0.3002587517
100
AcDbArc
 50
270.0836583225
 51
359.9163416774
  0
ARC
  5
544
100
AcDbEntity
  8
RACCORDO
100
AcDbCircle
 62
253
  6
CONTINUOUS
 10
-7.1968965731
 20
5.1565141911
 40
0.3002587515
100
AcDbArc
 50
180.0836551819
 51
269.9163448181
  0
ARC
  5
545
100
AcDbEntity
  8
ASSI
100
AcDbCircle
 62
253
  6
CONTINUOUS
 10
-7.0815361444
 20
5.1565142076
 40
0.3002587517
100
AcDbArc
 50
270.0836583225
 51
359.9163416774
  0
ARC
  5
546
100
AcDbEntity
  8
ASSI
100
AcDbCircle
 62
253
  6
CONTINUOUS
 10
-7.1968965731
 20
5.1565141911
 40
0.3002587515
100
AcDbArc
 50
180.0836551819
 51
269.9163448181
  0
ARC
  5
547
100
AcDbEntity
  8
RACCORDO
100
AcDbCircle
 62
7
  6
CONTINUOUS
 10
-7.0258449662
 20
5.1009661039
 40
0.299827954
100
AcDbArc
 50
269.9766283019
 51
359.9717046972
  0
ARC
  5
548
100
AcDbEntity
  8
RACCORDO
100
AcDbCircle
 62
7
  6
CONTINUOUS
 10
-7.2525877347
 20
5.100966104
 40
0.2998279541
100
AcDbArc
 50
180.0282953179
 51
270.023371681
  0
ARC
  5
549
100
AcDbEntity
  8
ASSI
100
AcDbCircle
 62
7
  6
CONTINUOUS
 10
-7.0258449662
 20
5.1009661039
 40
0.299827954
100
AcDbArc
 50
269.9766283019
 51
359.9717046972
  0
ARC
  5
54A
100
AcDbEntity
  8
ASSI
100
AcDbCircle
 62
7
  6
CONTINUOUS
 10
-7.2525877347
 20
5.100966104
 40
0.2998279541
100
AcDbArc
 50
180.0282953179
 51
270.023371681
  0
ARC
  5
54B
100
AcDbEntity
  8
RACCORDO
100
AcDbCircle
 62
253
  6
CONTINUOUS
 10
53.7619362502
 20
-6.9207671904
 40
48.1108554102
100
AcDbArc
 50
179.9982493564
 51
180.1492398337
  0
ARC
  5
54C
100
AcDbEntity
  8
ASSI
100
AcDbCircle
 62
253
  6
CONTINUOUS
 10
53.7619362502
 20
-6.9207671904
 40
48.1108554102
100
AcDbArc
 50
179.9982493564
 51
180.1492398337
  0
ARC
  5
54D
100
AcDbEntity
  8
RACCORDO
100
AcDbCircle
 62
253
  6
CONTINUOUS
 10
42.5619362488
 20
-6.9207671904
 40
48.1108554088
100
AcDbArc
 50
179.9982493564
 51
180.1492398337
  0
ARC
  5
54E
100
AcDbEntity
  8
ASSI
100
AcDbCircle
 62
253
  6
CONTINUOUS
 10
42.5619362488
 20
-6.9207671904
 40
48.1108554088
100
AcDbArc
 50
179.9982493564
 51
180.1492398337
  0
ARC
  5
54F
100
AcDbEntity
  8
RACCORDO
100
AcDbCircle
 62
253
  6
CONTINUOUS
 10
7.2366128329
 20
-6.9195465842
 40
1.3356842781
100
AcDbArc
 50
179.9893018286
 51
180.8957745167
  0
ARC
  5
550
100
AcDbEntity
  8
ASSI
100
AcDbCircle
 62
253
  6
CONTINUOUS
 10
7.2366128329
 20
-6.9195465842
 40
1.3356842781
100
AcDbArc
 50
179.9893018286
 51
180.8957745167
  0
ARC
  5
551
100
AcDbEntity
  8
RACCORDO
100
AcDbCircle
 62
253
  6
CONTINUOUS
 10
4.0278722568
 20
-6.9198773451
 40
1.2927659852
100
AcDbArc
 50
359.0891460249
 51
0.0257127486
  0
ARC
  5
552
100
AcDbEntity
  8
ASSI
100
AcDbCircle
 62
253
  6
CONTINUOUS
 10
4.0278722568
 20
-6.9198773451
 40
1.2927659852
100
AcDbArc
 50
359.0891460249
 51
0.0257127486
  0
ARC
  5
553
100
AcDbEntity
  8
RACCORDO
100
AcDbCircle
 62
253
  6
CONTINUOUS
 10
5.5096518182
 20
-4.8601899775
 40
0.2500887181
100
AcDbArc
 50
90.0564470504
 51
179.9727397652
  0
ARC
  5
554
100
AcDbEntity
  8
RACCORDO
100
AcDbCircle
 62
253
  6
CONTINUOUS
 10
5.7119155099
 20
-4.8601899485
 40
0.2500887179
100
AcDbArc
 50
0.0272536006
 51
89.9435595895
  0
ARC
  5
555
100
AcDbEntity
  8
ASSI
100
AcDbCircle
 62
253
  6
CONTINUOUS
 10
5.5096518182
 20
-4.8601899775
 40
0.2500887181
100
AcDbArc
 50
90.0564470504
 51
179.9727397652
  0
ARC
  5
556
100
AcDbEntity
  8
ASSI
100
AcDbCircle
 62
253
  6
CONTINUOUS
 10
5.7119155099
 20
-4.8601899485
 40
0.2500887179
100
AcDbArc
 50
0.0272536006
 51
89.9435595895
  0
ARC
  5
557
100
AcDbEntity
  8
RACCORDO
100
AcDbCircle
 62
7
  6
CONTINUOUS
 10
5.4548124204
 20
-4.832505346
 40
0.2496440615
100
AcDbArc
 50
89.9826590959
 51
180.086474966
  0
ARC
  5
558
100
AcDbEntity
  8
RACCORDO
100
AcDbCircle
 62
7
  6
CONTINUOUS
 10
5.7667548784
 20
-4.8325053459
 40
0.2496440616
100
AcDbArc
 50
359.9135250008
 51
90.0173408392
  0
ARC
  5
559
100
AcDbEntity
  8
ASSI
100
AcDbCircle
 62
7
  6
CONTINUOUS
 10
5.4548124204
 20
-4.832505346
 40
0.2496440615
100
AcDbArc
 50
89.9826590959
 51
180.086474966
  0
ARC
  5
55A
100
AcDbEntity
  8
ASSI
100
AcDbCircle
 62
7
  6
CONTINUOUS
 10
5.7667548784
 20
-4.8325053459
 40
0.2496440616
100
AcDbArc
 50
359.9135250008
 51
90.0173408392
  0
ARC
  5
55B
100
AcDbEntity
  8
RACCORDO
100
AcDbCircle
 62
253
  6
CONTINUOUS
 10
7.2184638556
 20
5.1565142076
 40
0.3002587517
100
AcDbArc
 50
270.0836583225
 51
359.9163416774
  0
ARC
  5
55C
100
AcDbEntity
  8
RACCORDO
100
AcDbCircle
 62
253
  6
CONTINUOUS
 10
7.1031034269
 20
5.1565141911
 40
0.3002587515
100
AcDbArc
 50
180.0836551819
 51
269.9163448181
  0
ARC
  5
55D
100
AcDbEntity
  8
ASSI
100
AcDbCircle
 62
253
  6
CONTINUOUS
 10
7.2184638556
 20
5.1565142076
 40
0.3002587517
100
AcDbArc
 50
270.0836583225
 51
359.9163416774
  0
ARC
  5
55E
100
AcDbEntity
  8
ASSI
100
AcDbCircle
 62
253
  6
CONTINUOUS
 10
7.1031034269
 20
5.1565141911
 40
0.3002587515
100
AcDbArc
 50
180.0836551819
 51
269.9163448181
  0
ARC
  5
55F
100
AcDbEntity
  8
RACCORDO
100
AcDbCircle
 62
7
  6
CONTINUOUS
 10
7.2741550338
 20
5.100966104
 40
0.2998279541
100
AcDbArc
 50
269.9766283139
 51
359.9717046852
  0
ARC
  5
560
100
AcDbEntity
  8
RACCORDO
100
AcDbCircle
 62
7
  6
CONTINUOUS
 10
7.0474122652
 20
5.1009661039
 40
0.2998279541
100
AcDbArc
 50
180.0282953137
 51
270.0233716853
  0
ARC
  5
561
100
AcDbEntity
  8
ASSI
100
AcDbCircle
 62
7
  6
CONTINUOUS
 10
7.2741550338
 20
5.100966104
 40
0.2998279541
100
AcDbArc
 50
269.9766283139
 51
359.9717046852
  0
ARC
  5
562
100
AcDbEntity
  8
ASSI
100
AcDbCircle
 62
7
  6
CONTINUOUS
 10
7.0474122652
 20
5.1009661039
 40
0.2998279541
100
AcDbArc
 50
180.0282953137
 51
270.0233716853
  0
SPLINE
  5
563
100
AcDbEntity
  8
0
100
AcDbSpline
 62
7
  6
CONTINUOUS
 70
0
 71
3
 72
10
 73
6
 74
4
 42
0.0000001
 43
0.0000001
 44
0.0000000001
 12
-0.0095948202
 22
0.4295727449
 32
0.0
 13
-0.4296447263
 23
-0.0065610381
 33
0.0
 40
0.0
 40
0.0
 40
0.0
 40
0.0
 40
0.4724875075
 40
0.7072006687
 40
1.0
 40
1.0
 40
1.0
 40
1.0
 10
-1.350544519
 20
-2.4251834419
 30
0.0
 10
-1.3520556632
 20
-2.3575275233
 30
0.0
 10
-1.3741973982
 20
-2.2468948489
 30
0.0
 10
-1.4947600969
 20
-2.1579707345
 30
0.0
 10
-1.572695292
 20
-2.1489116168
 30
0.0
 10
-1.6146285216
 20
-2.1495519727
 30
0.0
 11
-1.350544519
 21
-2.4251834419
 31
0.0
 11
-1.4098168956
 21
-2.2310102018
 31
0.0
 11
-1.4905954061
 21
-2.1706292266
 31
0.0
 11
-1.6146285216
 21
-2.1495519727
 31
0.0
  0
SPLINE
  5
564
100
AcDbEntity
  8
0
100
AcDbSpline
 62
7
  6
CONTINUOUS
 70
0
 71
3
 72
9
 73
5
 74
3
 42
0.0000001
 43
0.0000001
 44
0.0000000001
 12
-0.3133068914
 22
-0.0047845217
 32
0.0
 13
-0.0361262538
 23
-0.3112658327
 33
0.0
 40
0.0
 40
0.0
 40
0.0
 40
0.0
 40
0.4987528619
 40
1.0
 40
1.0
 40
1.0
 40
1.0
 10
-1.6146285217
 20
-2.1495519649
 30
0.0
 10
-1.6667160913
 20
-2.1503473962
 30
0.0
 10
-1.7753539514
 20
-2.1927762311
 30
0.0
 10
-1.8211614526
 20
-2.2979903286
 30
0.0
 10
-1.8271975131
 20
-2.3499973645
 30
0.0
 11
-1.6146285217
 21
-2.1495519649
 31
0.0
 11
-1.7594536492
 21
-2.2082885133
 31
0.0
 11
-1.8271975131
 21
-2.3499973645
 31
0.0
  0
SPLINE
  5
565
100
AcDbEntity
  8
0
100
AcDbSpline
 62
7
  6
CONTINUOUS
 70
0
 71
3
 72
9
 73
5
 74
3
 42
0.0000001
 43
0.0000001
 44
0.0000000001
 12
-0.0321345864
 22
-0.2768734101
 32
0.0
 13
0.0468836161
 23
-0.274760569
 33
0.0
 40
0.0
 40
0.0
 40
0.0
 40
0.0
 40
0.7295958324
 40
1.0
 40
1.0
 40
1.0
 40
1.0
 10
-1.827197513
 20
-2.3499973646
 30
0.0
 10
-1.8350125997
 20
-2.4173325933
 30
0.0
 10
-1.8353138477
 20
-2.5113252819
 30
0.0
 10
-1.8214158432
 20
-2.603198687
 30
0.0
 10
-1.8171900015
 20
-2.6279641547
 30
0.0
 11
-1.827197513
 21
-2.3499973646
 31
0.0
 11
-1.827893773
 21
-2.5533578251
 31
0.0
 11
-1.8171900015
 21
-2.6279641547
 31
0.0
  0
SPLINE
  5
566
100
AcDbEntity
  8
0
100
AcDbSpline
 62
7
  6
CONTINUOUS
 70
0
 71
3
 72
10
 73
6
 74
4
 42
0.0000001
 43
0.0000001
 44
0.0000000001
 12
-0.1284599377
 22
0.8731819798
 32
0.0
 13
0.2998855628
 23
0.8300707046
 33
0.0
 40
0.0
 40
0.0
 40
0.0
 40
0.0
 40
0.4151262789
 40
0.7045762354
 40
1.0
 40
1.0
 40
1.0
 40
1.0
 10
-2.0869184327
 20
-2.9695989224
 30
0.0
 10
-2.1046941313
 20
-2.8487719937
 30
0.0
 10
-2.1272061253
 20
-2.6421505932
 30
0.0
 10
-2.1272613614
 20
-2.3478480081
 30
0.0
 10
-2.0985526252
 20
-2.1756784236
 30
0.0
 10
-2.0690215179
 20
-2.0939375528
 30
0.0
 11
-2.0869184327
 21
-2.9695989224
 31
0.0
 11
-2.1234203233
 21
-2.6050393094
 31
0.0
 11
-2.1202217995
 21
-2.349596383
 31
0.0
 11
-2.0690215179
 21
-2.0939375528
 31
0.0
  0
SPLINE
  5
567
100
AcDbEntity
  8
0
100
AcDbSpline
 62
7
  6
CONTINUOUS
 70
0
 71
3
 72
23
 73
19
 74
17
 42
0.0000001
 43
0.0000001
 44
0.0000000001
 12
0.359969576
 22
0.9978268927
 32
0.0
 13
0.1357483736
 23
-1.0520498955
 33
0.0
 40
0.0
 40
0.0
 40
0.0
 40
0.0
 40
0.079828561
 40
0.1893471136
 40
0.252931641
 40
0.322277794
 40
0.3983621185
 40
0.4395068157
 40
0.4830801905
 40
0.5370931167
 40
0.5873706499
 40
0.6784900216
 40
0.7593486609
 40
0.8310612156
 40
0.8931649411
 40
0.9439081722
 40
0.9806071038
 40
1.0
 40
1.0
 40
1.0
 40
1.0
 10
-2.0690215179
 20
-2.0939375528
 30
0.0
 10
-2.0594429001
 20
-2.0673858578
 30
0.0
 10
-2.0267695299
 20
-2.0081008772
 30
0.0
 10
-1.9670454346
 20
-1.9403012382
 30
0.0
 10
-1.8982815686
 20
-1.8885960255
 30
0.0
 10
-1.8326919766
 20
-1.8538249405
 30
0.0
 10
-1.7696895109
 20
-1.8331061012
 30
0.0
 10
-1.7138141967
 20
-1.8222724419
 30
0.0
 10
-1.6649753246
 20
-1.8171171689
 30
0.0
 10
-1.6126131634
 20
-1.8161684832
 30
0.0
 10
-1.5436444796
 20
-1.8215599252
 30
0.0
 10
-1.4664484902
 20
-1.8389927186
 30
0.0
 10
-1.3871418869
 20
-1.8738511687
 30
0.0
 10
-1.3236440796
 20
-1.9161279467
 30
0.0
 10
-1.2754073064
 20
-1.9602536241
 30
0.0
 10
-1.2409107684
 20
-2.0008337172
 30
0.0
 10
-1.2211194198
 20
-2.0325925951
 30
0.0
 10
-1.2113187673
 20
-2.0505526387
 30
0.0
 10
-1.2104412493
 20
-2.0573534035
 30
0.0
 11
-2.0690215179
 21
-2.0939375528
 31
0.0
 11
-2.0297533094
 21
-2.0189129593
 31
0.0
 11
-1.9529082721
 21
-1.9317850036
 31
0.0
 11
-1.89899774
 21
-1.8912513477
 31
0.0
 11
-1.8340169574
 21
-1.8567747506
 31
0.0
 11
-1.7574072433
 21
-1.8313828454
 31
0.0
 11
-1.7145669491
 21
-1.8230397877
 31
0.0
 11
-1.6686099167
 21
-1.8181032653
 31
0.0
 11
-1.6113233911
 21
-1.8170958033
 31
0.0
 11
-1.5581597152
 21
-1.8213420719
 31
0.0
 11
-1.4639414394
 21
-1.8429166717
 31
0.0
 11
-1.3854361434
 21
-1.8774688052
 31
0.0
 11
-1.3221248811
 21
-1.9196402133
 31
0.0
 11
-1.2734869044
 21
-1.9640726517
 31
0.0
 11
-1.2390086737
 21
-2.0054078154
 31
0.0
 11
-1.218166197
 21
-2.0382874879
 31
0.0
 11
-1.2104412493
 21
-2.0573534035
 31
0.0
  0
SPLINE
  5
568
100
AcDbEntity
  8
0
100
AcDbSpline
 62
7
  6
CONTINUOUS
 70
0
 71
3
 72
10
 73
6
 74
4
 42
0.0000001
 43
0.0000001
 44
0.0000000001
 12
0.1499049954
 22
0.3759372924
 32
0.0
 13
0.3904867251
 23
0.1063828202
 33
0.0
 40
0.0
 40
0.0
 40
0.0
 40
0.0
 40
0.2520036888
 40
0.5059767291
 40
1.0
 40
1.0
 40
1.0
 40
1.0
 10
-1.2003965421
 20
-2.0573534035
 30
0.0
 10
-1.1878043382
 20
-2.0257742087
 30
0.0
 10
-1.145948243
 20
-1.9683495361
 30
0.0
 10
-1.0297137465
 20
-1.8965085227
 30
0.0
 10
-0.9312069579
 20
-1.870319638
 30
0.0
 10
-0.8669037815
 20
-1.8528011084
 30
0.0
 11
-1.2003965421
 21
-2.0573534035
 31
0.0
 11
-1.1419051239
 21
-1.9738008075
 31
0.0
 11
-1.0562827191
 21
-1.9169298632
 31
0.0
 11
-0.8669037815
 21
-1.8528011084
 31
0.0
  0
SPLINE
  5
569
100
AcDbEntity
  8
0
100
AcDbSpline
 62
7
  6
CONTINUOUS
 70
0
 71
3
 72
9
 73
5
 74
3
 42
0.0000001
 43
0.0000001
 44
0.0000000001
 12
0.4589786715
 22
0.125042516
 32
0.0
 13
0.4590762626
 23
0.1246838126
 33
0.0
 40
0.0
 40
0.0
 40
0.0
 40
0.0
 40
0.8019458722
 40
1.0
 40
1.0
 40
1.0
 40
1.0
 10
-0.8669037817
 20
-1.8528011078
 30
0.0
 10
-0.7442117647
 20
-1.8193753313
 30
0.0
 10
-0.5905923617
 20
-1.7800372041
 30
0.0
 10
-0.43722298
 20
-1.7397564091
 30
0.0
 10
-0.4069156638
 20
-1.7315250278
 30
0.0
 11
-0.8669037817
 21
-1.8528011078
 31
0.0
 11
-0.4979836655
 21
-1.755674988
 31
0.0
 11
-0.4069156638
 21
-1.7315250278
 31
0.0
  0
SPLINE
  5
56A
100
AcDbEntity
  8
0
100
AcDbSpline
 62
7
  6
CONTINUOUS
 70
0
 71
3
 72
11
 73
7
 74
5
 42
0.0000001
 43
0.0000001
 44
0.0000000001
 12
-0.5175092969
 22
-0.1487860009
 32
0.0
 13
-0.5040440549
 23
-0.1894590043
 33
0.0
 40
0.0
 40
0.0
 40
0.0
 40
0.0
 40
0.1342305347
 40
0.4412509806
 40
0.7775650777
 40
1.0
 40
1.0
 40
1.0
 40
1.0
 10
-0.4069156638
 20
-2.0728283712
 30
0.0
 10
-0.430070847
 20
-2.0794855793
 30
0.0
 10
-0.5061409084
 20
-2.1015267096
 30
0.0
 10
-0.6401844732
 20
-2.14045969
 30
0.0
 10
-0.7888416106
 20
-2.1855273237
 30
0.0
 10
-0.8851280088
 20
-2.2139875939
 30
0.0
 10
-0.9225003422
 20
-2.2280350269
 30
0.0
 11
-0.4069156638
 21
-2.0728283712
 31
0.0
 11
-0.4763522515
 21
-2.0929004575
 31
0.0
 11
-0.6350344054
 21
-2.1392837332
 31
0.0
 11
-0.8085207113
 21
-2.1912287238
 31
0.0
 11
-0.9225003422
 21
-2.2280350269
 31
0.0
  0
SPLINE
  5
56B
100
AcDbEntity
  8
0
100
AcDbSpline
 62
7
  6
CONTINUOUS
 70
0
 71
3
 72
9
 73
5
 74
3
 42
0.0000001
 43
0.0000001
 44
0.0000000001
 12
-0.2438689275
 22
-0.0916651113
 32
0.0
 13
0.0
 23
-0.2604910834
 33
0.0
 40
0.0
 40
0.0
 40
0.0
 40
0.0
 40
0.6438952445
 40
1.0
 40
1.0
 40
1.0
 40
1.0
 10
-0.9225003507
 20
-2.2280350041
 30
0.0
 10
-0.974842365
 20
-2.2477092472
 30
0.0
 10
-1.0534346199
 20
-2.3061245954
 30
0.0
 10
-1.0721480664
 20
-2.3950275628
 30
0.0
 10
-1.0721480664
 20
-2.4259482673
 30
0.0
 11
-0.9225003507
 21
-2.2280350041
 31
0.0
 11
-1.0512269044
 21
-2.3355761771
 31
0.0
 11
-1.0721480664
 21
-2.4259482673
 31
0.0
  0
SPLINE
  5
56C
100
AcDbEntity
  8
RACCORDO
100
AcDbSpline
 62
253
  6
CONTINUOUS
 70
0
 71
3
 72
15
 73
11
 74
9
 42
0.0000001
 43
0.0000001
 44
0.0000000001
 12
-0.2881576716
 22
0.0038542319
 32
0.0
 13
-0.0214951041
 23
0.2873806871
 33
0.0
 40
0.0
 40
0.0
 40
0.0
 40
0.0
 40
0.1661006305
 40
0.3273703266
 40
0.47908113
 40
0.6171090564
 40
0.7383291943
 40
0.8411944316
 40
0.9267165463
 40
1.0
 40
1.0
 40
1.0
 40
1.0
 10
5.5703227255
 20
-7.046082666
 30
0.0
 10
5.5543683352
 20
-7.0458692693
 30
0.0
 10
5.5229249028
 20
-7.0441844799
 30
0.0
 10
5.4772761203
 20
-7.0379347025
 30
0.0
 10
5.4349884039
 20
-7.0282077982
 30
0.0
 10
5.3975692892
 20
-7.0153594828
 30
0.0
 10
5.3662939791
 20
-6.9998447797
 30
0.0
 10
5.3421766699
 20
-6.9820983804
 30
0.0
 10
5.3259245415
 20
-6.9624533538
 30
0.0
 10
5.3210000972
 20
-6.9474481837
 30
0.0
 10
5.3204750187
 20
-6.9404281006
 30
0.0
 11
5.5703227255
 21
-7.046082666
 31
0.0
 11
5.5225253257
 21
-7.0434939303
 31
0.0
 11
5.476491739
 21
-7.0371018735
 31
0.0
 11
5.4339206903
 21
-7.0271423746
 31
0.0
 11
5.3963831305
 21
-7.0139829575
 31
0.0
 11
5.3652642655
 21
-6.9981092294
 31
0.0
 11
5.3417124393
 21
-6.9801069603
 31
0.0
 11
5.3265967581
 21
-6.9606404674
 31
0.0
 11
5.3204750187
 21
-6.9404281006
 31
0.0
  0
SPLINE
  5
56D
100
AcDbEntity
  8
RACCORDO
100
AcDbSpline
 62
7
  6
CONTINUOUS
 70
0
 71
3
 72
17
 73
13
 74
11
 42
0.0000001
 43
0.0000001
 44
0.0000000001
 12
-0.3573152673
 22
-0.0104647825
 32
0.0
 13
-0.0148532747
 23
-0.3571597571
 33
0.0
 40
0.0
 40
0.0
 40
0.0
 40
0.0
 40
0.1289111824
 40
0.2505325819
 40
0.3645536477
 40
0.4713211985
 40
0.5715020992
 40
0.6658608772
 40
0.7551733224
 40
0.840186145
 40
0.9215951935
 40
1.0
 40
1.0
 40
1.0
 40
1.0
 10
5.5111210075
 20
-6.0859111973
 30
0.0
 10
5.4957670297
 20
-6.0863608731
 30
0.0
 10
5.4659428988
 20
-6.089543194
 30
0.0
 10
5.4237809375
 20
-6.1005996807
 30
0.0
 10
5.3860980069
 20
-6.1166110515
 30
0.0
 10
5.3532861242
 20
-6.1365131141
 30
0.0
 10
5.3254759411
 20
-6.1594171518
 30
0.0
 10
5.3026882371
 20
-6.1845766504
 30
0.0
 10
5.2848922349
 20
-6.2113359
 30
0.0
 10
5.272022861
 20
-6.2390925016
 30
0.0
 10
5.2639723859
 20
-6.2672509306
 30
0.0
 10
5.2616614902
 20
-6.2862461469
 30
0.0
 10
5.2612733008
 20
-6.2955804941
 30
0.0
 11
5.5111210075
 21
-6.0859111973
 31
0.0
 11
5.4652999156
 21
-6.0908049822
 31
0.0
 11
5.4232535542
 21
-6.1018616593
 31
0.0
 11
5.3857604857
 21
-6.1178479264
 31
0.0
 11
5.3531597047
 21
-6.1376932083
 31
0.0
 11
5.3255585833
 21
-6.1605108031
 31
0.0
 11
5.3029640178
 21
-6.1855551234
 31
0.0
 11
5.2853354909
 21
-6.2121733318
 31
0.0
 11
5.2725989099
 21
-6.2397649137
 31
0.0
 11
5.2646375718
 21
-6.2677558963
 31
0.0
 11
5.2612733008
 21
-6.2955804941
 31
0.0
  0
SPLINE
  5
56E
100
AcDbEntity
  8
RACCORDO
100
AcDbSpline
 62
253
  6
CONTINUOUS
 70
0
 71
3
 72
15
 73
11
 74
9
 42
0.0000001
 43
0.0000001
 44
0.0000000001
 12
0.3882348029
 22
-0.0023184616
 32
0.0
 13
0.0023876314
 23
-0.3882343837
 33
0.0
 40
0.0
 40
0.0
 40
0.0
 40
0.0
 40
0.1257290456
 40
0.2514557317
 40
0.3770343051
 40
0.502340937
 40
0.627292244
 40
0.751858067
 40
0.8760664778
 40
1.0
 40
1.0
 40
1.0
 40
1.0
 10
-5.5474761746
 20
-6.341849017
 30
0.0
 10
-5.5312053775
 20
-6.3419461829
 30
0.0
 10
-5.4985965054
 20
-6.345291663
 30
0.0
 10
-5.4516329125
 20
-6.3595541839
 30
0.0
 10
-5.4082977214
 20
-6.382522338
 30
0.0
 10
-5.3702639689
 20
-6.4133262186
 30
0.0
 10
-5.3389761927
 20
-6.4507958537
 30
0.0
 10
-5.3156331647
 20
-6.4935142447
 30
0.0
 10
-5.3011310484
 20
-6.5398298295
 30
0.0
 10
-5.2977271037
 20
-6.572012537
 30
0.0
 10
-5.2976284678
 20
-6.5880509552
 30
0.0
 11
-5.5474761746
 21
-6.341849017
 31
0.0
 11
-5.4989180586
 21
-6.3468333814
 31
0.0
 11
-5.4522116787
 21
-6.3610164398
 31
0.0
 11
-5.4091381556
 21
-6.3838573293
 31
0.0
 11
-5.3713400737
 21
-6.4144850258
 31
0.0
 11
-5.340258841
 21
-6.4517315595
 31
0.0
 11
-5.3170797226
 21
-6.4941765553
 31
0.0
 11
-5.3026866409
 21
-6.5402013975
 31
0.0
 11
-5.2976284678
 21
-6.5880509552
 31
0.0
  0
SPLINE
  5
56F
100
AcDbEntity
  8
RACCORDO
100
AcDbSpline
 62
7
  6
CONTINUOUS
 70
0
 71
3
 72
17
 73
13
 74
11
 42
0.0000001
 43
0.0000001
 44
0.0000000001
 12
-0.0148532747
 22
0.3571597571
 32
0.0
 13
-0.3573152673
 23
0.0104647825
 33
0.0
 40
0.0
 40
0.0
 40
0.0
 40
0.0
 40
0.0784048065
 40
0.159813855
 40
0.2448266776
 40
0.3341391228
 40
0.4284979008
 40
0.5286788015
 40
0.6354463523
 40
0.7494674181
 40
0.8710888176
 40
1.0
 40
1.0
 40
1.0
 40
1.0
 10
-5.2397060018
 20
-6.2955804941
 30
0.0
 10
-5.2400941911
 20
-6.2862461469
 30
0.0
 10
-5.2424050868
 20
-6.2672509306
 30
0.0
 10
-5.2504555619
 20
-6.2390925016
 30
0.0
 10
-5.2633249359
 20
-6.2113359
 30
0.0
 10
-5.2811209381
 20
-6.1845766504
 30
0.0
 10
-5.303908642
 20
-6.1594171518
 30
0.0
 10
-5.3317188251
 20
-6.1365131141
 30
0.0
 10
-5.3645307078
 20
-6.1166110515
 30
0.0
 10
-5.4022136385
 20
-6.1005996807
 30
0.0
 10
-5.4443755997
 20
-6.089543194
 30
0.0
 10
-5.4741997306
 20
-6.0863608731
 30
0.0
 10
-5.4895537085
 20
-6.0859111973
 30
0.0
 11
-5.2397060018
 21
-6.2955804941
 31
0.0
 11
-5.2430702728
 21
-6.2677558963
 31
0.0
 11
-5.2510316109
 21
-6.2397649137
 31
0.0
 11
-5.2637681919
 21
-6.2121733318
 31
0.0
 11
-5.2813967188
 21
-6.1855551234
 31
0.0
 11
-5.3039912843
 21
-6.1605108031
 31
0.0
 11
-5.3315924057
 21
-6.1376932083
 31
0.0
 11
-5.3641931867
 21
-6.1178479264
 31
0.0
 11
-5.4016862552
 21
-6.1018616593
 31
0.0
 11
-5.4437326165
 21
-6.0908049822
 31
0.0
 11
-5.4895537085
 21
-6.0859111973
 31
0.0
  0
SPLINE
  5
570
100
AcDbEntity
  8
RACCORDO
100
AcDbSpline
 62
253
  6
CONTINUOUS
 70
0
 71
3
 72
15
 73
11
 74
9
 42
0.0000001
 43
0.0000001
 44
0.0000000001
 12
0.2881576673
 22
0.0038542516
 32
0.0
 13
0.0214951096
 23
0.2873806826
 33
0.0
 40
0.0
 40
0.0
 40
0.0
 40
0.0
 40
0.1661012139
 40
0.3273713521
 40
0.4790823685
 40
0.6171102583
 40
0.7383301595
 40
0.8411950579
 40
0.9267168348
 40
1.0
 40
1.0
 40
1.0
 40
1.0
 10
-5.5487554264
 20
-7.046082666
 30
0.0
 10
-5.5328009803
 20
-7.0458692674
 30
0.0
 10
-5.50135745
 20
-7.0441844664
 30
0.0
 10
-5.4557085527
 20
-7.0379346513
 30
0.0
 10
-5.4134207857
 20
-7.0282077023
 30
0.0
 10
-5.3760016898
 20
-7.0153593505
 30
0.0
 10
-5.3447264531
 20
-6.9998446326
 30
0.0
 10
-5.3206092425
 20
-6.9820982482
 30
0.0
 10
-5.3043572069
 20
-6.9624532679
 30
0.0
 10
-5.2994327962
 20
-6.9474481559
 30
0.0
 10
-5.2989077197
 20
-6.9404281006
 30
0.0
 11
-5.5487554264
 21
-7.046082666
 31
0.0
 11
-5.50095786
 21
-7.0434939113
 31
0.0
 11
-5.4549241509
 21
-7.0371018145
 31
0.0
 11
-5.4123530507
 21
-7.0271422688
 31
0.0
 11
-5.3748155154
 21
-7.0139828155
 31
0.0
 11
-5.343696733
 21
-6.9981090766
 31
0.0
 11
-5.3201450129
 21
-6.9801068302
 31
0.0
 11
-5.3050294208
 21
-6.9606403919
 31
0.0
 11
-5.2989077197
 21
-6.9404281006
 31
0.0
  0
SPLINE
  5
571
100
AcDbEntity
  8
RACCORDO
100
AcDbSpline
 62
253
  6
CONTINUOUS
 70
0
 71
3
 72
15
 73
11
 74
9
 42
0.0000001
 43
0.0000001
 44
0.0000000001
 12
-0.3882348025
 22
-0.0023184634
 32
0.0
 13
-0.0023876319
 23
-0.3882343833
 33
0.0
 40
0.0
 40
0.0
 40
0.0
 40
0.0
 40
0.125729459
 40
0.2514564959
 40
0.3770353051
 40
0.5023420228
 40
0.6272932526
 40
0.7518588458
 40
0.8760669051
 40
1.0
 40
1.0
 40
1.0
 40
1.0
 10
-5.6309565264
 20
-6.341849017
 30
0.0
 10
-5.647227377
 20
-6.3419461833
 30
0.0
 10
-5.6798363487
 20
-6.3452916842
 30
0.0
 10
-5.7268000546
 20
-6.3595542861
 30
0.0
 10
-5.7701352929
 20
-6.3825225407
 30
0.0
 10
-5.8081690205
 20
-6.4133265032
 30
0.0
 10
-5.8394567166
 20
-6.4507961671
 30
0.0
 10
-5.8627996427
 20
-6.4935145147
 30
0.0
 10
-5.8773016748
 20
-6.5398299865
 30
0.0
 10
-5.8807055976
 20
-6.5720125923
 30
0.0
 10
-5.8808042332
 20
-6.5880509552
 30
0.0
 11
-5.6309565264
 21
-6.341849017
 31
0.0
 11
-5.6795148003
 21
-6.3468334134
 31
0.0
 11
-5.7262212977
 21
-6.3610165538
 31
0.0
 11
-5.7692948705
 21
-6.3838575449
 31
0.0
 11
-5.8070929287
 21
-6.4144853234
 31
0.0
 11
-5.8381740811
 21
-6.451731885
 31
0.0
 11
-5.8613530969
 21
-6.4941768351
 31
0.0
 11
-5.8757460938
 21
-6.5402015608
 31
0.0
 11
-5.8808042332
 21
-6.5880509552
 31
0.0
  0
SPLINE
  5
572
100
AcDbEntity
  8
RACCORDO
100
AcDbSpline
 62
253
  6
CONTINUOUS
 70
0
 71
3
 72
9
 73
5
 74
3
 42
0.0000001
 43
0.0000001
 44
0.0000000001
 12
-0.0004118646
 22
-8.9925039188
 32
0.0
 13
-0.0032451975
 23
-8.9925033427
 33
0.0
 40
0.0
 40
0.0
 40
0.0
 40
0.0
 40
0.5000414317
 40
1.0
 40
1.0
 40
1.0
 40
1.0
 10
-9.8193651063
 20
9.7066981281
 30
0.0
 10
-9.8194337561
 20
8.2078232834
 30
0.0
 10
-9.8198071144
 20
5.2103219833
 30
0.0
 10
-9.8206526667
 20
2.2128207792
 30
0.0
 10
-9.8211934882
 20
0.7141944137
 30
0.0
 11
-9.8193651063
 21
9.7066981281
 31
0.0
 11
-9.8199252134
 21
5.2100736239
 31
0.0
 11
-9.8211934882
 21
0.7141944137
 31
0.0
  0
SPLINE
  5
573
100
AcDbEntity
  8
RACCORDO
100
AcDbSpline
 62
253
  6
CONTINUOUS
 70
0
 71
3
 72
15
 73
11
 74
9
 42
0.0000001
 43
0.0000001
 44
0.0000000001
 12
-0.2881576716
 22
0.0038542319
 32
0.0
 13
-0.0214951041
 23
0.2873806871
 33
0.0
 40
0.0
 40
0.0
 40
0.0
 40
0.0
 40
0.1661006305
 40
0.3273703266
 40
0.47908113
 40
0.6171090564
 40
0.7383291943
 40
0.8411944316
 40
0.9267165463
 40
1.0
 40
1.0
 40
1.0
 40
1.0
 10
-5.6296772745
 20
-7.046082666
 30
0.0
 10
-5.6456316648
 20
-7.0458692693
 30
0.0
 10
-5.6770750972
 20
-7.0441844799
 30
0.0
 10
-5.7227238797
 20
-7.0379347025
 30
0.0
 10
-5.7650115961
 20
-7.0282077982
 30
0.0
 10
-5.8024307108
 20
-7.0153594828
 30
0.0
 10
-5.8337060209
 20
-6.9998447797
 30
0.0
 10
-5.8578233301
 20
-6.9820983804
 30
0.0
 10
-5.8740754585
 20
-6.9624533538
 30
0.0
 10
-5.8789999028
 20
-6.9474481837
 30
0.0
 10
-5.8795249813
 20
-6.9404281006
 30
0.0
 11
-5.6296772745
 21
-7.046082666
 31
0.0
 11
-5.6774746743
 21
-7.0434939303
 31
0.0
 11
-5.723508261
 21
-7.0371018735
 31
0.0
 11
-5.7660793097
 21
-7.0271423746
 31
0.0
 11
-5.8036168695
 21
-7.0139829575
 31
0.0
 11
-5.8347357345
 21
-6.9981092294
 31
0.0
 11
-5.8582875607
 21
-6.9801069603
 31
0.0
 11
-5.8734032419
 21
-6.9606404674
 31
0.0
 11
-5.8795249813
 21
-6.9404281006
 31
0.0
  0
SPLINE
  5
574
100
AcDbEntity
  8
RACCORDO
100
AcDbSpline
 62
253
  6
CONTINUOUS
 70
0
 71
3
 72
9
 73
5
 74
3
 42
0.0000001
 43
0.0000001
 44
0.0000000001
 12
-0.0029682127
 22
-6.007191491
 32
0.0
 13
-0.0042345483
 23
-6.0071907318
 33
0.0
 40
0.0
 40
0.0
 40
0.0
 40
0.0
 40
0.5000502626
 40
1.0
 40
1.0
 40
1.0
 40
1.0
 10
-9.822817942
 20
-3.0858055863
 30
0.0
 10
-9.8233126939
 20
-4.0871048138
 30
0.0
 10
-9.8244075747
 20
-6.0895019268
 30
0.0
 10
-9.8257135059
 20
-8.0918989132
 30
0.0
 10
-9.826419193
 20
-9.0929967228
 30
0.0
 11
-9.822817942
 21
-3.0858055863
 31
0.0
 11
-9.824460458
 21
-6.0897031865
 31
0.0
 11
-9.826419193
 21
-9.0929967228
 31
0.0
  0
SPLINE
  5
575
100
AcDbEntity
  8
RACCORDO
100
AcDbSpline
 62
253
  6
CONTINUOUS
 70
0
 71
3
 72
9
 73
5
 74
3
 42
0.0000001
 43
0.0000001
 44
0.0000000001
 12
-0.0042345483
 22
6.0071907318
 32
0.0
 13
-0.0029682127
 23
6.007191491
 33
0.0
 40
0.0
 40
0.0
 40
0.0
 40
0.0
 40
0.4999497374
 40
1.0
 40
1.0
 40
1.0
 40
1.0
 10
9.847986492
 20
-9.0929967228
 30
0.0
 10
9.8472808049
 20
-8.0918989132
 30
0.0
 10
9.8459748738
 20
-6.0895019268
 30
0.0
 10
9.8448799929
 20
-4.0871048138
 30
0.0
 10
9.844385241
 20
-3.0858055863
 30
0.0
 11
9.847986492
 21
-9.0929967228
 31
0.0
 11
9.846027757
 21
-6.0897031865
 31
0.0
 11
9.844385241
 21
-3.0858055863
 31
0.0
  0
SPLINE
  5
576
100
AcDbEntity
  8
RACCORDO
100
AcDbSpline
 62
253
  6
CONTINUOUS
 70
0
 71
3
 72
9
 73
5
 74
3
 42
0.0000001
 43
0.0000001
 44
0.0000000001
 12
-0.0032451975
 22
8.9925033427
 32
0.0
 13
-0.0004118646
 23
8.9925039188
 33
0.0
 40
0.0
 40
0.0
 40
0.0
 40
0.0
 40
0.4999585687
 40
1.0
 40
1.0
 40
1.0
 40
1.0
 10
9.8427607872
 20
0.7141944137
 30
0.0
 10
9.8422199658
 20
2.2128207806
 30
0.0
 10
9.8413744134
 20
5.2103219847
 30
0.0
 10
9.8410010551
 20
8.2078232848
 30
0.0
 10
9.8409324053
 20
9.7066981281
 30
0.0
 11
9.8427607872
 21
0.7141944137
 31
0.0
 11
9.8414925124
 21
5.2100736281
 31
0.0
 11
9.8409324053
 21
9.7066981281
 31
0.0
  0
SPLINE
  5
577
100
AcDbEntity
  8
RACCORDO
100
AcDbSpline
 62
7
  6
CONTINUOUS
 70
0
 71
3
 72
17
 73
13
 74
11
 42
0.0000001
 43
0.0000001
 44
0.0000000001
 12
0.0148532747
 22
0.3571597571
 32
0.0
 13
0.3573152673
 23
0.0104647825
 33
0.0
 40
0.0
 40
0.0
 40
0.0
 40
0.0
 40
0.0784048065
 40
0.159813855
 40
0.2448266776
 40
0.3341391228
 40
0.4284979008
 40
0.5286788015
 40
0.6354463523
 40
0.7494674181
 40
0.8710888176
 40
1.0
 40
1.0
 40
1.0
 40
1.0
 10
-5.9387266992
 20
-6.2955804941
 30
0.0
 10
-5.9383385098
 20
-6.2862461469
 30
0.0
 10
-5.9360276141
 20
-6.2672509306
 30
0.0
 10
-5.927977139
 20
-6.2390925016
 30
0.0
 10
-5.9151077651
 20
-6.2113359
 30
0.0
 10
-5.8973117629
 20
-6.1845766504
 30
0.0
 10
-5.8745240589
 20
-6.1594171518
 30
0.0
 10
-5.8467138758
 20
-6.1365131141
 30
0.0
 10
-5.8139019931
 20
-6.1166110515
 30
0.0
 10
-5.7762190625
 20
-6.1005996807
 30
0.0
 10
-5.7340571012
 20
-6.089543194
 30
0.0
 10
-5.7042329703
 20
-6.0863608731
 30
0.0
 10
-5.6888789925
 20
-6.0859111973
 30
0.0
 11
-5.9387266992
 21
-6.2955804941
 31
0.0
 11
-5.9353624282
 21
-6.2677558963
 31
0.0
 11
-5.9274010901
 21
-6.2397649137
 31
0.0
 11
-5.9146645091
 21
-6.2121733318
 31
0.0
 11
-5.8970359822
 21
-6.1855551234
 31
0.0
 11
-5.8744414167
 21
-6.1605108031
 31
0.0
 11
-5.8468402953
 21
-6.1376932083
 31
0.0
 11
-5.8142395143
 21
-6.1178479264
 31
0.0
 11
-5.7767464458
 21
-6.1018616593
 31
0.0
 11
-5.7347000844
 21
-6.0908049822
 31
0.0
 11
-5.6888789925
 21
-6.0859111973
 31
0.0
  0
SPLINE
  5
578
100
AcDbEntity
  8
RACCORDO
100
AcDbSpline
 62
253
  6
CONTINUOUS
 70
0
 71
3
 72
9
 73
5
 74
3
 42
0.0000001
 43
0.0000001
 44
0.0000000001
 12
-0.006311189
 22
1.6273687137
 32
0.0
 13
-0.0043781238
 23
1.6273750623
 33
0.0
 40
0.0
 40
0.0
 40
0.0
 40
0.0
 40
0.499990412
 40
1.0
 40
1.0
 40
1.0
 40
1.0
 10
-4.3421162789
 20
5.7007648586
 30
0.0
 10
-4.3431681236
 20
5.9719877765
 30
0.0
 10
-4.3451107603
 20
6.5144446511
 30
0.0
 10
-4.3467312205
 20
7.0569025838
 30
0.0
 10
-4.3474609218
 20
7.3281369619
 30
0.0
 11
-4.3421162789
 21
5.7007648586
 31
0.0
 11
-4.345030182
 21
6.5144345134
 31
0.0
 11
-4.3474609218
 21
7.3281369619
 31
0.0
  0
SPLINE
  5
579
100
AcDbEntity
  8
RACCORDO
100
AcDbSpline
 62
253
  6
CONTINUOUS
 70
0
 71
3
 72
15
 73
11
 74
9
 42
0.0000001
 43
0.0000001
 44
0.0000000001
 12
0.00000131
 22
0.2954494977
 32
0.0
 13
0.00976487
 23
0.2952880848
 33
0.0
 40
0.0
 40
0.0
 40
0.0
 40
0.0
 40
0.1762543538
 40
0.3472428692
 40
0.5076801248
 40
0.6526883366
 40
0.7778610396
 40
0.8793945376
 40
0.9542028934
 40
1.0
 40
1.0
 40
1.0
 40
1.0
 10
5.6510809834
 20
-6.6372913429
 30
0.0
 10
5.6510810603
 20
-6.6199332561
 30
0.0
 10
5.6510981027
 20
-6.585735677
 30
0.0
 10
5.6511746271
 20
-6.5357377777
 30
0.0
 10
5.6512998964
 20
-6.4888172152
 30
0.0
 10
5.6514684951
 20
-6.4464088671
 30
0.0
 10
5.6516770204
 20
-6.4098019059
 30
0.0
 10
5.6519096025
 20
-6.3801084638
 30
0.0
 10
5.6521731605
 20
-6.3582334764
 30
0.0
 10
5.6523747578
 20
-6.3463567969
 30
0.0
 10
5.6525238254
 20
-6.341849017
 30
0.0
 11
5.6510809834
 21
-6.6372913429
 31
0.0
 11
5.6511074555
 21
-6.5852170893
 31
0.0
 11
5.6511861151
 21
-6.5346986795
 31
0.0
 11
5.65131479
 21
-6.4872977476
 31
0.0
 11
5.6514894494
 21
-6.4444555003
 31
0.0
 11
5.6517048226
 21
-6.4074739152
 31
0.0
 11
5.6519544833
 21
-6.3774769331
 31
0.0
 11
5.6522300899
 21
-6.3553765604
 31
0.0
 11
5.6525238254
 21
-6.341849017
 31
0.0
  0
SPLINE
  5
57A
100
AcDbEntity
  8
RACCORDO
100
AcDbSpline
 62
253
  6
CONTINUOUS
 70
0
 71
3
 72
9
 73
5
 74
3
 42
0.0000001
 43
0.0000001
 44
0.0000000001
 12
-0.0043781238
 22
-1.6273750623
 32
0.0
 13
-0.006311189
 23
-1.6273687137
 33
0.0
 40
0.0
 40
0.0
 40
0.0
 40
0.0
 40
0.5000088287
 40
1.0
 40
1.0
 40
1.0
 40
1.0
 10
4.3690282208
 20
7.3281369619
 30
0.0
 10
4.3682985206
 20
7.0569029956
 30
0.0
 10
4.3666780607
 20
6.5144450629
 30
0.0
 10
4.3647354242
 20
5.9719881883
 30
0.0
 10
4.3636835779
 20
5.7007648586
 30
0.0
 11
4.3690282208
 21
7.3281369619
 31
0.0
 11
4.3665974851
 21
6.514435749
 31
0.0
 11
4.3636835779
 21
5.7007648586
 31
0.0
  0
SPLINE
  5
57B
100
AcDbEntity
  8
RACCORDO
100
AcDbSpline
 62
253
  6
CONTINUOUS
 70
0
 71
3
 72
15
 73
11
 74
9
 42
0.0000001
 43
0.0000001
 44
0.0000000001
 12
0.0097648701
 22
-0.2952880848
 32
0.0
 13
0.00000131
 23
-0.2954494977
 33
0.0
 40
0.0
 40
0.0
 40
0.0
 40
0.0
 40
0.0457971067
 40
0.1206054626
 40
0.2221389606
 40
0.3473116637
 40
0.4923198754
 40
0.652757131
 40
0.8237456464
 40
1.0
 40
1.0
 40
1.0
 40
1.0
 10
5.5690434736
 20
-6.341849017
 30
0.0
 10
5.5691925412
 20
-6.3463567969
 30
0.0
 10
5.5693941385
 20
-6.3582334765
 30
0.0
 10
5.5696576966
 20
-6.3801084639
 30
0.0
 10
5.5698902786
 20
-6.409801906
 30
0.0
 10
5.570098804
 20
-6.4464088672
 30
0.0
 10
5.5702674027
 20
-6.4888172152
 30
0.0
 10
5.5703926719
 20
-6.5357377777
 30
0.0
 10
5.5704691963
 20
-6.5857356771
 30
0.0
 10
5.5704862387
 20
-6.6199332561
 30
0.0
 10
5.5704863157
 20
-6.6372913429
 30
0.0
 11
5.5690434736
 21
-6.341849017
 31
0.0
 11
5.5693372091
 21
-6.3553765604
 31
0.0
 11
5.5696128157
 21
-6.3774769332
 31
0.0
 11
5.5698624764
 21
-6.4074739152
 31
0.0
 11
5.5700778496
 21
-6.4444555004
 31
0.0
 11
5.570252509
 21
-6.4872977477
 31
0.0
 11
5.5703811839
 21
-6.5346986796
 31
0.0
 11
5.5704598435
 21
-6.5852170894
 31
0.0
 11
5.5704863157
 21
-6.6372913429
 31
0.0
  0
SPLINE
  5
57C
100
AcDbEntity
  8
RACCORDO
100
AcDbSpline
 62
253
  6
CONTINUOUS
 70
0
 71
3
 72
16
 73
12
 74
10
 42
0.0000001
 43
0.0000001
 44
0.0000000001
 12
0.0000012478
 22
0.2999696776
 32
0.0
 13
0.0949852704
 23
0.2845340153
 33
0.0
 40
0.0
 40
0.0
 40
0.0
 40
0.0
 40
0.1716903986
 40
0.3383600475
 40
0.4949773352
 40
0.6368827949
 40
0.7598615728
 40
0.8602569174
 40
0.9350874649
 40
0.9821296043
 40
1.0
 40
1.0
 40
1.0
 40
1.0
 10
5.7104462915
 20
-4.9100633723
 30
0.0
 10
5.7104463629
 20
-4.8928960678
 30
0.0
 10
5.7104625922
 20
-4.85906338
 30
0.0
 10
5.710539449
 20
-4.8095711296
 30
0.0
 10
5.7106556286
 20
-4.7630553042
 30
0.0
 10
5.7108415634
 20
-4.7209143274
 30
0.0
 10
5.7109838919
 20
-4.6843767934
 30
0.0
 10
5.7113840747
 20
-4.6545981263
 30
0.0
 10
5.7112325206
 20
-4.6322839639
 30
0.0
 10
5.7122317594
 20
-4.6184831572
 30
0.0
 10
5.7115961251
 20
-4.6118037467
 30
0.0
 10
5.7121619333
 20
-4.6101088349
 30
0.0
 11
5.7104462915
 21
-4.9100633723
 31
0.0
 11
5.7104721817
 21
-4.8585614653
 31
0.0
 11
5.7105491275
 21
-4.8085656836
 31
0.0
 11
5.7106750281
 21
-4.761585415
 31
0.0
 11
5.7108459986
 21
-4.7190184234
 31
0.0
 11
5.7110571699
 21
-4.6821291234
 31
0.0
 11
5.7113019688
 21
-4.6520145593
 31
0.0
 11
5.7115734434
 21
-4.6295693057
 31
0.0
 11
5.7118627516
 21
-4.6154610563
 31
0.0
 11
5.7121619333
 21
-4.6101088349
 31
0.0
  0
SPLINE
  5
57D
100
AcDbEntity
  8
RACCORDO
100
AcDbSpline
 62
253
  6
CONTINUOUS
 70
0
 71
3
 72
16
 73
12
 74
10
 42
0.0000001
 43
0.0000001
 44
0.0000000001
 12
0.0949852718
 22
-0.2845340149
 32
0.0
 13
0.0000012478
 23
-0.2999696776
 33
0.0
 40
0.0
 40
0.0
 40
0.0
 40
0.0
 40
0.0178703958
 40
0.0649125353
 40
0.1397430829
 40
0.2401384275
 40
0.3631172055
 40
0.5050226653
 40
0.661639953
 40
0.8283096018
 40
1.0
 40
1.0
 40
1.0
 40
1.0
 10
5.5094053658
 20
-4.6101088349
 30
0.0
 10
5.5099711739
 20
-4.6118037467
 30
0.0
 10
5.5093355396
 20
-4.6184831572
 30
0.0
 10
5.5103347784
 20
-4.6322839639
 30
0.0
 10
5.5101832243
 20
-4.6545981264
 30
0.0
 10
5.5105834072
 20
-4.6843767935
 30
0.0
 10
5.5107257356
 20
-4.7209143276
 30
0.0
 10
5.5109116704
 20
-4.7630553043
 30
0.0
 10
5.51102785
 20
-4.8095711298
 30
0.0
 10
5.5111047068
 20
-4.8590633801
 30
0.0
 10
5.5111209361
 20
-4.8928960678
 30
0.0
 10
5.5111210075
 20
-4.9100633723
 30
0.0
 11
5.5094053658
 21
-4.6101088349
 31
0.0
 11
5.5097045474
 21
-4.6154610564
 31
0.0
 11
5.5099938557
 21
-4.6295693058
 31
0.0
 11
5.5102653302
 21
-4.6520145593
 31
0.0
 11
5.5105101291
 21
-4.6821291235
 31
0.0
 11
5.5107213004
 21
-4.7190184235
 31
0.0
 11
5.510892271
 21
-4.7615854152
 31
0.0
 11
5.5110181715
 21
-4.8085656838
 31
0.0
 11
5.5110951174
 21
-4.8585614654
 31
0.0
 11
5.5111210075
 21
-4.9100633723
 31
0.0
  0
SPLINE
  5
57E
100
AcDbEntity
  8
RACCORDO
100
AcDbSpline
 62
253
  6
CONTINUOUS
 70
0
 71
3
 72
15
 73
11
 74
9
 42
0.0000001
 43
0.0000001
 44
0.0000000001
 12
0.00000131
 22
0.2954494977
 32
0.0
 13
0.00976487
 23
0.2952880848
 33
0.0
 40
0.0
 40
0.0
 40
0.0
 40
0.0
 40
0.1762543538
 40
0.3472428692
 40
0.5076801248
 40
0.6526883366
 40
0.7778610396
 40
0.8793945376
 40
0.9542028934
 40
1.0
 40
1.0
 40
1.0
 40
1.0
 10
-5.5489190166
 20
-6.6372913429
 30
0.0
 10
-5.5489189397
 20
-6.6199332561
 30
0.0
 10
-5.5489018973
 20
-6.585735677
 30
0.0
 10
-5.5488253729
 20
-6.5357377777
 30
0.0
 10
-5.5487001036
 20
-6.4888172152
 30
0.0
 10
-5.5485315049
 20
-6.4464088671
 30
0.0
 10
-5.5483229796
 20
-6.4098019059
 30
0.0
 10
-5.5480903975
 20
-6.3801084638
 30
0.0
 10
-5.5478268395
 20
-6.3582334764
 30
0.0
 10
-5.5476252422
 20
-6.3463567969
 30
0.0
 10
-5.5474761746
 20
-6.341849017
 30
0.0
 11
-5.5489190166
 21
-6.6372913429
 31
0.0
 11
-5.5488925445
 21
-6.5852170893
 31
0.0
 11
-5.5488138849
 21
-6.5346986795
 31
0.0
 11
-5.54868521
 21
-6.4872977476
 31
0.0
 11
-5.5485105506
 21
-6.4444555003
 31
0.0
 11
-5.5482951774
 21
-6.4074739152
 31
0.0
 11
-5.5480455167
 21
-6.3774769331
 31
0.0
 11
-5.5477699101
 21
-6.3553765604
 31
0.0
 11
-5.5474761746
 21
-6.341849017
 31
0.0
  0
SPLINE
  5
57F
100
AcDbEntity
  8
RACCORDO
100
AcDbSpline
 62
253
  6
CONTINUOUS
 70
0
 71
3
 72
15
 73
11
 74
9
 42
0.0000001
 43
0.0000001
 44
0.0000000001
 12
0.0097648701
 22
-0.2952880848
 32
0.0
 13
0.00000131
 23
-0.2954494977
 33
0.0
 40
0.0
 40
0.0
 40
0.0
 40
0.0
 40
0.0457971067
 40
0.1206054626
 40
0.2221389606
 40
0.3473116637
 40
0.4923198754
 40
0.652757131
 40
0.8237456464
 40
1.0
 40
1.0
 40
1.0
 40
1.0
 10
-5.6309565264
 20
-6.341849017
 30
0.0
 10
-5.6308074588
 20
-6.3463567969
 30
0.0
 10
-5.6306058615
 20
-6.3582334765
 30
0.0
 10
-5.6303423034
 20
-6.3801084639
 30
0.0
 10
-5.6301097214
 20
-6.409801906
 30
0.0
 10
-5.629901196
 20
-6.4464088672
 30
0.0
 10
-5.6297325973
 20
-6.4888172152
 30
0.0
 10
-5.6296073281
 20
-6.5357377777
 30
0.0
 10
-5.6295308037
 20
-6.5857356771
 30
0.0
 10
-5.6295137613
 20
-6.6199332561
 30
0.0
 10
-5.6295136843
 20
-6.6372913429
 30
0.0
 11
-5.6309565264
 21
-6.341849017
 31
0.0
 11
-5.6306627909
 21
-6.3553765604
 31
0.0
 11
-5.6303871843
 21
-6.3774769332
 31
0.0
 11
-5.6301375236
 21
-6.4074739152
 31
0.0
 11
-5.6299221504
 21
-6.4444555004
 31
0.0
 11
-5.629747491
 21
-6.4872977477
 31
0.0
 11
-5.6296188161
 21
-6.5346986796
 31
0.0
 11
-5.6295401565
 21
-6.5852170894
 31
0.0
 11
-5.6295136843
 21
-6.6372913429
 31
0.0
  0
SPLINE
  5
580
100
AcDbEntity
  8
RACCORDO
100
AcDbSpline
 62
253
  6
CONTINUOUS
 70
0
 71
3
 72
9
 73
5
 74
3
 42
0.0000001
 43
0.0000001
 44
0.0000000001
 12
-0.002969815
 22
-6.0152618038
 32
0.0
 13
-0.004238536
 23
-6.0152610437
 33
0.0
 40
0.0
 40
0.0
 40
0.0
 40
0.0
 40
0.5000541149
 40
1.0
 40
1.0
 40
1.0
 40
1.0
 10
-9.6228456084
 20
-3.0858055863
 30
0.0
 10
-9.6233406312
 20
-4.0884577253
 30
0.0
 10
-9.624436251
 20
-6.0935449425
 30
0.0
 10
-9.6257432968
 20
-8.098632033
 30
0.0
 10
-9.626449643
 20
-9.1010670352
 30
0.0
 11
-9.6228456084
 21
-3.0858055863
 31
0.0
 11
-9.6244892375
 21
-6.0937619209
 31
0.0
 11
-9.626449643
 21
-9.1010670352
 31
0.0
  0
SPLINE
  5
581
100
AcDbEntity
  8
RACCORDO
100
AcDbSpline
 62
253
  6
CONTINUOUS
 70
0
 71
3
 72
16
 73
12
 74
10
 42
0.0000001
 43
0.0000001
 44
0.0000000001
 12
0.0000012478
 22
0.2999696776
 32
0.0
 13
0.0949852704
 23
0.2845340153
 33
0.0
 40
0.0
 40
0.0
 40
0.0
 40
0.0
 40
0.1716903986
 40
0.3383600475
 40
0.4949773352
 40
0.6368827949
 40
0.7598615728
 40
0.8602569174
 40
0.9350874649
 40
0.9821296043
 40
1.0
 40
1.0
 40
1.0
 40
1.0
 10
-5.4895537085
 20
-4.9100633723
 30
0.0
 10
-5.4895536371
 20
-4.8928960678
 30
0.0
 10
-5.4895374078
 20
-4.85906338
 30
0.0
 10
-5.489460551
 20
-4.8095711296
 30
0.0
 10
-5.4893443714
 20
-4.7630553042
 30
0.0
 10
-5.4891584366
 20
-4.7209143274
 30
0.0
 10
-5.4890161081
 20
-4.6843767934
 30
0.0
 10
-5.4886159253
 20
-4.6545981263
 30
0.0
 10
-5.4887674794
 20
-4.6322839639
 30
0.0
 10
-5.4877682406
 20
-4.6184831572
 30
0.0
 10
-5.4884038749
 20
-4.6118037467
 30
0.0
 10
-5.4878380667
 20
-4.6101088349
 30
0.0
 11
-5.4895537085
 21
-4.9100633723
 31
0.0
 11
-5.4895278183
 21
-4.8585614653
 31
0.0
 11
-5.4894508725
 21
-4.8085656836
 31
0.0
 11
-5.4893249719
 21
-4.761585415
 31
0.0
 11
-5.4891540014
 21
-4.7190184234
 31
0.0
 11
-5.4889428301
 21
-4.6821291234
 31
0.0
 11
-5.4886980312
 21
-4.6520145593
 31
0.0
 11
-5.4884265566
 21
-4.6295693057
 31
0.0
 11
-5.4881372484
 21
-4.6154610563
 31
0.0
 11
-5.4878380667
 21
-4.6101088349
 31
0.0
  0
SPLINE
  5
582
100
AcDbEntity
  8
RACCORDO
100
AcDbSpline
 62
253
  6
CONTINUOUS
 70
0
 71
3
 72
9
 73
5
 74
3
 42
0.0000001
 43
0.0000001
 44
0.0000000001
 12
-0.0004133782
 22
-8.9856422609
 32
0.0
 13
-0.0032401193
 23
-8.9856416862
 33
0.0
 40
0.0
 40
0.0
 40
0.0
 40
0.0
 40
0.5000412892
 40
1.0
 40
1.0
 40
1.0
 40
1.0
 10
-9.6193958581
 20
9.6998364706
 30
0.0
 10
-9.6194647601
 20
8.2021057571
 30
0.0
 10
-9.6198380737
 20
5.2068916763
 30
0.0
 10
-9.6206824829
 20
2.2116776913
 30
0.0
 10
-9.6212224582
 20
0.7141944137
 30
0.0
 11
-9.6193958581
 21
9.6998364706
 31
0.0
 11
-9.6199558979
 21
5.2066443602
 31
0.0
 11
-9.6212224582
 21
0.7141944137
 31
0.0
  0
SPLINE
  5
583
100
AcDbEntity
  8
RACCORDO
100
AcDbSpline
 62
253
  6
CONTINUOUS
 70
0
 71
3
 72
16
 73
12
 74
10
 42
0.0000001
 43
0.0000001
 44
0.0000000001
 12
0.0949852718
 22
-0.2845340149
 32
0.0
 13
0.0000012478
 23
-0.2999696776
 33
0.0
 40
0.0
 40
0.0
 40
0.0
 40
0.0
 40
0.0178703958
 40
0.0649125353
 40
0.1397430829
 40
0.2401384275
 40
0.3631172055
 40
0.5050226653
 40
0.661639953
 40
0.8283096018
 40
1.0
 40
1.0
 40
1.0
 40
1.0
 10
-5.6905946342
 20
-4.6101088349
 30
0.0
 10
-5.6900288261
 20
-4.6118037467
 30
0.0
 10
-5.6906644604
 20
-4.6184831572
 30
0.0
 10
-5.6896652216
 20
-4.6322839639
 30
0.0
 10
-5.6898167757
 20
-4.6545981264
 30
0.0
 10
-5.6894165928
 20
-4.6843767935
 30
0.0
 10
-5.6892742644
 20
-4.7209143276
 30
0.0
 10
-5.6890883296
 20
-4.7630553043
 30
0.0
 10
-5.68897215
 20
-4.8095711298
 30
0.0
 10
-5.6888952932
 20
-4.8590633801
 30
0.0
 10
-5.6888790639
 20
-4.8928960678
 30
0.0
 10
-5.6888789925
 20
-4.9100633723
 30
0.0
 11
-5.6905946342
 21
-4.6101088349
 31
0.0
 11
-5.6902954526
 21
-4.6154610564
 31
0.0
 11
-5.6900061443
 21
-4.6295693058
 31
0.0
 11
-5.6897346698
 21
-4.6520145593
 31
0.0
 11
-5.6894898709
 21
-4.6821291235
 31
0.0
 11
-5.6892786996
 21
-4.7190184235
 31
0.0
 11
-5.689107729
 21
-4.7615854152
 31
0.0
 11
-5.6889818285
 21
-4.8085656838
 31
0.0
 11
-5.6889048826
 21
-4.8585614654
 31
0.0
 11
-5.6888789925
 21
-4.9100633723
 31
0.0
  0
SPLINE
  5
584
100
AcDbEntity
  8
RACCORDO
100
AcDbSpline
 62
253
  6
CONTINUOUS
 70
0
 71
3
 72
9
 73
5
 74
3
 42
0.0000001
 43
0.0000001
 44
0.0000000001
 12
-0.0043623264
 22
-1.6181841037
 32
0.0
 13
-0.0062751532
 23
-1.6181778165
 33
0.0
 40
0.0
 40
0.0
 40
0.0
 40
0.0
 40
0.5000111748
 40
1.0
 40
1.0
 40
1.0
 40
1.0
 10
4.1810733433
 20
7.3235401501
 30
0.0
 10
4.1803462726
 20
7.0538367719
 30
0.0
 10
4.1787327441
 20
6.5144424886
 30
0.0
 10
4.1768004445
 20
5.9750492532
 30
0.0
 10
4.175754609
 20
5.705358978
 30
0.0
 11
4.1810733433
 21
7.3235401501
 31
0.0
 11
4.1786530117
 21
6.5144306953
 31
0.0
 11
4.175754609
 21
5.705358978
 31
0.0
  0
SPLINE
  5
585
100
AcDbEntity
  8
RACCORDO
100
AcDbSpline
 62
253
  6
CONTINUOUS
 70
0
 71
3
 72
9
 73
5
 74
3
 42
0.0000001
 43
0.0000001
 44
0.0000000001
 12
-0.0062751532
 22
1.6181778165
 32
0.0
 13
-0.0043623264
 23
1.6181841037
 33
0.0
 40
0.0
 40
0.0
 40
0.0
 40
0.0
 40
0.4999892045
 40
1.0
 40
1.0
 40
1.0
 40
1.0
 10
-4.1541873099
 20
5.705358978
 30
0.0
 10
-4.1552331462
 20
5.9750494578
 30
0.0
 10
-4.1571654457
 20
6.5144426933
 30
0.0
 10
-4.1587789741
 20
7.0538369765
 30
0.0
 10
-4.1595060442
 20
7.3235401501
 30
0.0
 11
-4.1541873099
 21
5.705358978
 31
0.0
 11
-4.1570857147
 21
6.5144313092
 31
0.0
 11
-4.1595060442
 21
7.3235401501
 31
0.0
  0
SPLINE
  5
586
100
AcDbEntity
  8
RACCORDO
100
AcDbSpline
 62
253
  6
CONTINUOUS
 70
0
 71
3
 72
9
 73
5
 74
3
 42
0.0000001
 43
0.0000001
 44
0.0000000001
 12
-0.0032401193
 22
8.9856416862
 32
0.0
 13
-0.0004133782
 23
8.9856422609
 33
0.0
 40
0.0
 40
0.0
 40
0.0
 40
0.0
 40
0.4999587091
 40
1.0
 40
1.0
 40
1.0
 40
1.0
 10
9.6427897572
 20
0.7141944137
 30
0.0
 10
9.6422497819
 20
2.2116776864
 30
0.0
 10
9.6414053728
 20
5.2068916714
 30
0.0
 10
9.6410320592
 20
8.2021057522
 30
0.0
 10
9.6409631571
 20
9.6998364706
 30
0.0
 11
9.6427897572
 21
0.7141944137
 31
0.0
 11
9.6415231969
 21
5.2066443454
 31
0.0
 11
9.6409631571
 21
9.6998364706
 31
0.0
  0
SPLINE
  5
587
100
AcDbEntity
  8
RACCORDO
100
AcDbSpline
 62
253
  6
CONTINUOUS
 70
0
 71
3
 72
9
 73
5
 74
3
 42
0.0000001
 43
0.0000001
 44
0.0000000001
 12
-0.004238536
 22
6.0152610437
 32
0.0
 13
-0.002969815
 23
6.0152618038
 33
0.0
 40
0.0
 40
0.0
 40
0.0
 40
0.0
 40
0.4999458851
 40
1.0
 40
1.0
 40
1.0
 40
1.0
 10
9.648016942
 20
-9.1010670352
 30
0.0
 10
9.6473105958
 20
-8.098632033
 30
0.0
 10
9.64600355
 20
-6.0935449425
 30
0.0
 10
9.6449079302
 20
-4.0884577253
 30
0.0
 10
9.6444129075
 20
-3.0858055863
 30
0.0
 11
9.648016942
 21
-9.1010670352
 31
0.0
 11
9.6460565365
 21
-6.0937619209
 31
0.0
 11
9.6444129075
 21
-3.0858055863
 31
0.0
  0
SPLINE
  5
588
100
AcDbEntity
  8
RACCORDO
100
AcDbSpline
 62
253
  6
CONTINUOUS
 70
0
 71
3
 72
15
 73
11
 74
9
 42
0.0000001
 43
0.0000001
 44
0.0000000001
 12
0.4014143357
 22
-0.0070088487
 32
0.0
 13
0.0139942489
 23
-0.4012315464
 33
0.0
 40
0.0
 40
0.0
 40
0.0
 40
0.0
 40
0.1440044844
 40
0.2856956272
 40
0.4226390599
 40
0.5528844372
 40
0.67524257
 40
0.7895686166
 40
0.89699843
 40
1.0
 40
1.0
 40
1.0
 40
1.0
 10
7.2142074641
 20
7.0606410231
 30
0.0
 10
7.2334759522
 20
7.0603045879
 30
0.0
 10
7.2717101065
 20
7.0570353146
 30
0.0
 10
7.3270443616
 20
7.0444959502
 30
0.0
 10
7.3783060883
 20
7.0247688933
 30
0.0
 10
7.4236304143
 20
6.9985316575
 30
0.0
 10
7.4613715222
 20
6.9666672737
 30
0.0
 10
7.4901015859
 20
6.9302094719
 30
0.0
 10
7.5086077801
 20
6.890420129
 30
0.0
 10
7.5135442356
 20
6.8622848152
 30
0.0
 10
7.5140247122
 20
6.8485089887
 30
0.0
 11
7.2142074641
 21
7.0606410231
 31
0.0
 11
7.2718090023
 21
7.0556859036
 31
0.0
 11
7.3272657439
 21
7.0430165393
 31
0.0
 11
7.3785127536
 21
7.0231046748
 31
0.0
 11
7.4236418461
 21
6.9966917294
 31
0.0
 11
7.4609726368
 21
6.9647611909
 31
0.0
 11
7.4891151117
 21
6.9285019946
 31
0.0
 11
7.5070213838
 21
6.8892642541
 31
0.0
 11
7.5140247122
 21
6.8485089887
 31
0.0
  0
SPLINE
  5
589
100
AcDbEntity
  8
RACCORDO
100
AcDbSpline
 62
253
  6
CONTINUOUS
 70
0
 71
3
 72
15
 73
11
 74
9
 42
0.0000001
 43
0.0000001
 44
0.0000000001
 12
0.4014143351
 22
-0.007008849
 32
0.0
 13
0.0139942489
 23
-0.4012315459
 33
0.0
 40
0.0
 40
0.0
 40
0.0
 40
0.0
 40
0.1440042721
 40
0.2856952433
 40
0.4226385679
 40
0.5528839124
 40
0.6752420872
 40
0.7895682409
 40
0.8969982159
 40
1.0
 40
1.0
 40
1.0
 40
1.0
 10
7.2354081
 20
7.6677478043
 30
0.0
 10
7.2546765597
 20
7.6674113696
 30
0.0
 10
7.2929106625
 20
7.6641421045
 30
0.0
 10
7.3482448563
 20
7.651602771
 30
0.0
 10
7.3995065527
 20
7.6318757538
 30
0.0
 10
7.4448308837
 20
7.6056385542
 30
0.0
 10
7.4825720281
 20
7.57377419
 30
0.0
 10
7.5113021478
 20
7.537316379
 30
0.0
 10
7.5298083976
 20
7.4975269892
 30
0.0
 10
7.5347448706
 20
7.4693916249
 30
0.0
 10
7.5352253481
 20
7.4556157699
 30
0.0
 11
7.2354081
 21
7.6677478043
 31
0.0
 11
7.2930095538
 21
7.6627926979
 31
0.0
 11
7.3484662319
 21
7.6501233656
 31
0.0
 11
7.3997132108
 21
7.6302115418
 31
0.0
 11
7.4448423092
 21
7.6037986328
 31
0.0
 11
7.4821731378
 21
7.5718681127
 31
0.0
 11
7.5103156686
 21
7.5356089054
 31
0.0
 11
7.528221994
 21
7.4963711179
 31
0.0
 11
7.5352253481
 21
7.4556157699
 31
0.0
  0
SPLINE
  5
58A
100
AcDbEntity
  8
RACCORDO
100
AcDbSpline
 62
7
  6
CONTINUOUS
 70
0
 71
3
 72
15
 73
11
 74
9
 42
0.0000001
 43
0.0000001
 44
0.0000000001
 12
0.0895635424
 22
-0.1791816741
 32
0.0
 13
0.2003189968
 23
0.0
 33
0.0
 40
0.0
 40
0.0
 40
0.0
 40
0.0
 40
0.0228702366
 40
0.0820374114
 40
0.1750076777
 40
0.3001514248
 40
0.4519007439
 40
0.6225386226
 40
0.8086061726
 40
1.0
 40
1.0
 40
1.0
 40
1.0
 10
-9.8193651063
 20
9.7066981281
 30
0.0
 10
-9.8186823265
 20
9.7053321524
 30
0.0
 10
-9.8117558226
 20
9.7055547719
 30
0.0
 10
-9.801447692
 20
9.7034191828
 30
0.0
 10
-9.7822595636
 20
9.7028735224
 30
0.0
 10
-9.7578742142
 20
9.7016582485
 30
0.0
 10
-9.7278967174
 20
9.7009238405
 30
0.0
 10
-9.6939848138
 20
9.7002878398
 30
0.0
 10
-9.657377647
 20
9.6999219907
 30
0.0
 10
-9.6321757979
 20
9.6998364706
 30
0.0
 10
-9.6193958581
 20
9.6998364706
 30
0.0
 11
-9.8193651063
 21
9.7066981281
 31
0.0
 11
-9.8149831831
 21
9.705361172
 31
0.0
 11
-9.8032017217
 21
9.7040671869
 31
0.0
 11
-9.7846155949
 21
9.7028846127
 31
0.0
 11
-9.7595687536
 21
9.7018386919
 31
0.0
 11
-9.7291825364
 21
9.7009827067
 31
0.0
 11
-9.6950062962
 21
9.700354759
 31
0.0
 11
-9.6577354588
 21
9.6999659876
 31
0.0
 11
-9.6193958581
 21
9.6998364706
 31
0.0
  0
SPLINE
  5
58B
100
AcDbEntity
  8
RACCORDO
100
AcDbSpline
 62
7
  6
CONTINUOUS
 70
0
 71
3
 72
15
 73
11
 74
9
 42
0.0000001
 43
0.0000001
 44
0.0000000001
 12
0.2003189965
 22
-0.0
 32
0.0
 13
0.0895635422
 23
0.1791816739
 33
0.0
 40
0.0
 40
0.0
 40
0.0
 40
0.0
 40
0.1913938261
 40
0.3774613764
 40
0.5480992554
 40
0.6998485747
 40
0.824992322
 40
0.9179625885
 40
0.9771297633
 40
1.0
 40
1.0
 40
1.0
 40
1.0
 10
9.6409631574
 20
9.6998364706
 30
0.0
 10
9.6537430971
 20
9.6998364706
 30
0.0
 10
9.6789449462
 20
9.6999219907
 30
0.0
 10
9.7155521129
 20
9.7002878398
 30
0.0
 10
9.7494640165
 20
9.7009238405
 30
0.0
 10
9.7794415132
 20
9.7016582485
 30
0.0
 10
9.8038268626
 20
9.7028735224
 30
0.0
 10
9.823014991
 20
9.7034191828
 30
0.0
 10
9.8333231216
 20
9.7055547719
 30
0.0
 10
9.8402496255
 20
9.7053321524
 30
0.0
 10
9.8409324053
 20
9.7066981281
 30
0.0
 11
9.6409631574
 21
9.6998364706
 31
0.0
 11
9.6793027578
 21
9.6999659876
 31
0.0
 11
9.7165735952
 21
9.700354759
 31
0.0
 11
9.7507498355
 21
9.7009827067
 31
0.0
 11
9.7811360526
 21
9.7018386919
 31
0.0
 11
9.8061828939
 21
9.7028846127
 31
0.0
 11
9.8247690207
 21
9.7040671869
 31
0.0
 11
9.8365504821
 21
9.705361172
 31
0.0
 11
9.8409324053
 21
9.7066981281
 31
0.0
  0
SPLINE
  5
58C
100
AcDbEntity
  8
RACCORDO
100
AcDbSpline
 62
253
  6
CONTINUOUS
 70
0
 71
3
 72
17
 73
13
 74
11
 42
0.0000001
 43
0.0000001
 44
0.0000000001
 12
-0.1414238943
 22
0.1417076164
 32
0.0
 13
-0.0000004892
 23
0.2002043117
 33
0.0
 40
0.0
 40
0.0
 40
0.0
 40
0.0
 40
0.0178774913
 40
0.058389992
 40
0.1209323587
 40
0.2041033138
 40
0.3059766177
 40
0.4241622179
 40
0.5558804402
 40
0.698040467
 40
0.8472808104
 40
1.0
 40
1.0
 40
1.0
 40
1.0
 10
-6.7812804887
 20
5.1560758
 30
0.0
 10
-6.7821232569
 20
5.1569202589
 30
0.0
 10
-6.7824387136
 20
5.1612137559
 30
0.0
 10
-6.7837194388
 20
5.168861445
 30
0.0
 10
-6.7844401142
 20
5.1814487042
 30
0.0
 10
-6.7853802792
 20
5.197870872
 30
0.0
 10
-6.7861266963
 20
5.2181211036
 30
0.0
 10
-6.7868012264
 20
5.2415781252
 30
0.0
 10
-6.7873341616
 20
5.2677401887
 30
0.0
 10
-6.7877279577
 20
5.2959734385
 30
0.0
 10
-6.7879673786
 20
5.3256111042
 30
0.0
 10
-6.7880208742
 20
5.3457622853
 30
0.0
 10
-6.7880208991
 20
5.3559539654
 30
0.0
 11
-6.7812804887
 21
5.1560758
 31
0.0
 11
-6.7823448224
 21
5.1594930379
 31
0.0
 11
-6.7833791014
 21
5.1675375998
 31
0.0
 11
-6.7843583352
 21
5.1800205016
 31
0.0
 11
-6.7852593264
 21
5.1966472914
 31
0.0
 11
-6.7860608842
 21
5.2170270091
 31
0.0
 11
-6.7867440791
 21
5.2406784105
 31
0.0
 11
-6.7872928164
 21
5.2670432566
 31
0.0
 11
-6.7876942089
 21
5.2955014764
 31
0.0
 11
-6.7879388071
 21
5.3253790354
 31
0.0
 11
-6.7880208991
 21
5.3559539654
 31
0.0
  0
SPLINE
  5
58D
100
AcDbEntity
  8
RACCORDO
100
AcDbSpline
 62
253
  6
CONTINUOUS
 70
0
 71
3
 72
13
 73
9
 74
7
 42
0.0000001
 43
0.0000001
 44
0.0000000001
 12
0.0000002346
 22
0.141442405
 32
0.0
 13
0.0049357932
 23
0.1413562587
 33
0.0
 40
0.0
 40
0.0
 40
0.0
 40
0.0
 40
0.1844732589
 40
0.3659045925
 40
0.541117895
 40
0.7070849145
 40
0.8609356791
 40
1.0
 40
1.0
 40
1.0
 40
1.0
 10
-6.7880208991
 20
6.7070876325
 30
0.0
 10
-6.7880208847
 20
6.7157850796
 30
0.0
 10
-6.7879817782
 20
6.7330365814
 30
0.0
 10
-6.7878061651
 20
6.7585484064
 30
0.0
 10
-6.7875168886
 20
6.783186629
 30
0.0
 10
-6.7871192145
 20
6.8065228307
 30
0.0
 10
-6.7866205727
 20
6.8281523471
 30
0.0
 10
-6.7862040854
 20
6.8419564514
 30
0.0
 10
-6.7859752878
 20
6.8485089887
 30
0.0
 11
-6.7880208991
 21
6.7070876325
 31
0.0
 11
-6.7879612099
 21
6.7331799056
 31
0.0
 11
-6.7877830126
 21
6.7588413711
 31
0.0
 11
-6.7874892924
 21
6.7836222214
 31
0.0
 11
-6.7870850801
 21
6.8070935154
 31
0.0
 11
-6.786577416
 21
6.8288486151
 31
0.0
 11
-6.7859752878
 21
6.8485089887
 31
0.0
  0
SPLINE
  5
58E
100
AcDbEntity
  8
RACCORDO
100
AcDbSpline
 62
253
  6
CONTINUOUS
 70
0
 71
3
 72
13
 73
9
 74
7
 42
0.0000001
 43
0.0000001
 44
0.0000000001
 12
0.0197318509
 22
0.5654254321
 32
0.0
 13
0.0000091903
 23
0.565769622
 33
0.0
 40
0.0
 40
0.0
 40
0.0
 40
0.0
 40
0.1361522584
 40
0.2904133641
 40
0.4589859497
 40
0.637088475
 40
0.8192974361
 40
1.0
 40
1.0
 40
1.0
 40
1.0
 10
-6.7647746519
 20
7.4556157699
 30
0.0
 10
-6.7638791398
 20
7.4812770864
 30
0.0
 10
-6.7622214125
 20
7.5360217002
 30
0.0
 10
-6.7602170839
 20
7.6225591509
 30
0.0
 10
-6.7586038587
 20
7.7170174039
 30
0.0
 10
-6.7574376791
 20
7.8167532017
 30
0.0
 10
-6.7567440397
 20
7.9187809828
 30
0.0
 10
-6.7565927602
 20
7.9872225211
 30
0.0
 10
-6.7565922066
 20
8.0213011949
 30
0.0
 11
-6.7647746519
 21
7.4556157699
 31
0.0
 11
-6.7624103977
 21
7.5326102909
 31
0.0
 11
-6.7603640859
 21
7.6198625458
 31
0.0
 11
-6.7587177839
 21
7.7152215839
 31
0.0
 11
-6.75752798
 21
7.8159795576
 31
0.0
 11
-6.7568212646
 21
7.9190654302
 31
0.0
 11
-6.7565922066
 21
8.0213011949
 31
0.0
  0
SPLINE
  5
58F
100
AcDbEntity
  8
RACCORDO
100
AcDbSpline
 62
253
  6
CONTINUOUS
 70
0
 71
3
 72
13
 73
9
 74
7
 42
0.0000001
 43
0.0000001
 44
0.0000000001
 12
0.0000092097
 22
-0.565769622
 32
0.0
 13
0.0197318825
 23
-0.565425431
 33
0.0
 40
0.0
 40
0.0
 40
0.0
 40
0.0
 40
0.1807025814
 40
0.3629115369
 40
0.5410140573
 40
0.709586639
 40
0.8638477379
 40
1.0
 40
1.0
 40
1.0
 40
1.0
 10
-7.5218404944
 20
8.0213011949
 30
0.0
 10
-7.5218399396
 20
7.9872225178
 30
0.0
 10
-7.5216886619
 20
7.9187809773
 30
0.0
 10
-7.5209950216
 20
7.8167531948
 30
0.0
 10
-7.5198288421
 20
7.7170173998
 30
0.0
 10
-7.5182156174
 20
7.6225591497
 30
0.0
 10
-7.5162112876
 20
7.5360217004
 30
0.0
 10
-7.5145535626
 20
7.4812770871
 30
0.0
 10
-7.5136580491
 20
7.4556157699
 30
0.0
 11
-7.5218404944
 21
8.0213011949
 31
0.0
 11
-7.5216114364
 21
7.9190654203
 31
0.0
 11
-7.5209047209
 21
7.8159795509
 31
0.0
 11
-7.519714917
 21
7.7152215799
 31
0.0
 11
-7.5180686151
 21
7.6198625441
 31
0.0
 11
-7.5160223032
 21
7.532610293
 31
0.0
 11
-7.5136580491
 21
7.4556157699
 31
0.0
  0
SPLINE
  5
590
100
AcDbEntity
  8
RACCORDO
100
AcDbSpline
 62
253
  6
CONTINUOUS
 70
0
 71
3
 72
13
 73
9
 74
7
 42
0.0000001
 43
0.0000001
 44
0.0000000001
 12
0.0049357932
 22
-0.1413562587
 32
0.0
 13
0.0000002346
 23
-0.141442405
 33
0.0
 40
0.0
 40
0.0
 40
0.0
 40
0.0
 40
0.1390643219
 40
0.2929150865
 40
0.4588821061
 40
0.6340954086
 40
0.8155267422
 40
1.0
 40
1.0
 40
1.0
 40
1.0
 10
-7.4924574131
 20
6.8485089887
 30
0.0
 10
-7.4922286156
 20
6.8419564513
 30
0.0
 10
-7.4918121283
 20
6.828152347
 30
0.0
 10
-7.4913134865
 20
6.8065228305
 30
0.0
 10
-7.4909158123
 20
6.7831866289
 30
0.0
 10
-7.4906265359
 20
6.7585484063
 30
0.0
 10
-7.4904509227
 20
6.7330365813
 30
0.0
 10
-7.4904118162
 20
6.7157850796
 30
0.0
 10
-7.4904118018
 20
6.7070876325
 30
0.0
 11
-7.4924574131
 21
6.8485089887
 31
0.0
 11
-7.491855285
 21
6.828848615
 31
0.0
 11
-7.4913476209
 21
6.8070935153
 31
0.0
 11
-7.4909434086
 21
6.7836222212
 31
0.0
 11
-7.4906496884
 21
6.7588413709
 31
0.0
 11
-7.4904714911
 21
6.7331799055
 31
0.0
 11
-7.4904118018
 21
6.7070876325
 31
0.0
  0
SPLINE
  5
591
100
AcDbEntity
  8
RACCORDO
100
AcDbSpline
 62
253
  6
CONTINUOUS
 70
0
 71
3
 72
17
 73
13
 74
11
 42
0.0000001
 43
0.0000001
 44
0.0000000001
 12
-0.0000004892
 22
-0.2002043117
 32
0.0
 13
-0.1414238981
 23
-0.1417076126
 33
0.0
 40
0.0
 40
0.0
 40
0.0
 40
0.0
 40
0.1527191901
 40
0.3019595335
 40
0.4441195603
 40
0.5758377826
 40
0.6940233827
 40
0.7958966866
 40
0.8790676415
 40
0.9416100082
 40
0.9821225088
 40
1.0
 40
1.0
 40
1.0
 40
1.0
 10
-7.4904118018
 20
5.3559539654
 30
0.0
 10
-7.4904118267
 20
5.3457622853
 30
0.0
 10
-7.4904653224
 20
5.3256111041
 30
0.0
 10
-7.4907047433
 20
5.2959734384
 30
0.0
 10
-7.4910985394
 20
5.2677401886
 30
0.0
 10
-7.4916314746
 20
5.2415781251
 30
0.0
 10
-7.4923060047
 20
5.2181211035
 30
0.0
 10
-7.4930524218
 20
5.1978708719
 30
0.0
 10
-7.4939925868
 20
5.1814487041
 30
0.0
 10
-7.4947132621
 20
5.168861445
 30
0.0
 10
-7.4959939874
 20
5.1612137559
 30
0.0
 10
-7.4963094441
 20
5.1569202589
 30
0.0
 10
-7.4971522123
 20
5.1560758
 30
0.0
 11
-7.4904118018
 21
5.3559539654
 31
0.0
 11
-7.4904938939
 21
5.3253790353
 31
0.0
 11
-7.4907384921
 21
5.2955014763
 31
0.0
 11
-7.4911398846
 21
5.2670432565
 31
0.0
 11
-7.4916886219
 21
5.2406784104
 31
0.0
 11
-7.4923718168
 21
5.217027009
 31
0.0
 11
-7.4931733746
 21
5.1966472913
 31
0.0
 11
-7.4940743658
 21
5.1800205016
 31
0.0
 11
-7.4950535996
 21
5.1675375997
 31
0.0
 11
-7.4960878786
 21
5.1594930378
 31
0.0
 11
-7.4971522123
 21
5.1560758
 31
0.0
  0
SPLINE
  5
592
100
AcDbEntity
  8
RACCORDO
100
AcDbSpline
 62
253
  6
CONTINUOUS
 70
0
 71
3
 72
13
 73
9
 74
7
 42
0.0000001
 43
0.0000001
 44
0.0000000001
 12
0.0000092097
 22
-0.565769622
 32
0.0
 13
0.0197318825
 23
-0.565425431
 33
0.0
 40
0.0
 40
0.0
 40
0.0
 40
0.0
 40
0.1807025814
 40
0.3629115369
 40
0.5410140573
 40
0.709586639
 40
0.8638477379
 40
1.0
 40
1.0
 40
1.0
 40
1.0
 10
6.7781595056
 20
8.0213011949
 30
0.0
 10
6.7781600604
 20
7.9872225178
 30
0.0
 10
6.7783113381
 20
7.9187809773
 30
0.0
 10
6.7790049784
 20
7.8167531948
 30
0.0
 10
6.7801711579
 20
7.7170173998
 30
0.0
 10
6.7817843826
 20
7.6225591497
 30
0.0
 10
6.7837887124
 20
7.5360217004
 30
0.0
 10
6.7854464374
 20
7.4812770871
 30
0.0
 10
6.7863419509
 20
7.4556157699
 30
0.0
 11
6.7781595056
 21
8.0213011949
 31
0.0
 11
6.7783885636
 21
7.9190654203
 31
0.0
 11
6.7790952791
 21
7.8159795509
 31
0.0
 11
6.780285083
 21
7.7152215799
 31
0.0
 11
6.7819313849
 21
7.6198625441
 31
0.0
 11
6.7839776968
 21
7.532610293
 31
0.0
 11
6.7863419509
 21
7.4556157699
 31
0.0
  0
SPLINE
  5
593
100
AcDbEntity
  8
RACCORDO
100
AcDbSpline
 62
253
  6
CONTINUOUS
 70
0
 71
3
 72
13
 73
9
 74
7
 42
0.0000001
 43
0.0000001
 44
0.0000000001
 12
0.0049357932
 22
-0.1413562587
 32
0.0
 13
0.0000002346
 23
-0.141442405
 33
0.0
 40
0.0
 40
0.0
 40
0.0
 40
0.0
 40
0.1390643219
 40
0.2929150865
 40
0.4588821061
 40
0.6340954086
 40
0.8155267422
 40
1.0
 40
1.0
 40
1.0
 40
1.0
 10
6.8075425869
 20
6.8485089887
 30
0.0
 10
6.8077713844
 20
6.8419564513
 30
0.0
 10
6.8081878717
 20
6.828152347
 30
0.0
 10
6.8086865135
 20
6.8065228305
 30
0.0
 10
6.8090841877
 20
6.7831866289
 30
0.0
 10
6.8093734641
 20
6.7585484063
 30
0.0
 10
6.8095490773
 20
6.7330365813
 30
0.0
 10
6.8095881838
 20
6.7157850796
 30
0.0
 10
6.8095881982
 20
6.7070876325
 30
0.0
 11
6.8075425869
 21
6.8485089887
 31
0.0
 11
6.808144715
 21
6.828848615
 31
0.0
 11
6.8086523791
 21
6.8070935153
 31
0.0
 11
6.8090565914
 21
6.7836222212
 31
0.0
 11
6.8093503116
 21
6.7588413709
 31
0.0
 11
6.8095285089
 21
6.7331799055
 31
0.0
 11
6.8095881982
 21
6.7070876325
 31
0.0
  0
SPLINE
  5
594
100
AcDbEntity
  8
RACCORDO
100
AcDbSpline
 62
253
  6
CONTINUOUS
 70
0
 71
3
 72
17
 73
13
 74
11
 42
0.0000001
 43
0.0000001
 44
0.0000000001
 12
-0.0000004892
 22
-0.2002043117
 32
0.0
 13
-0.1414238981
 23
-0.1417076126
 33
0.0
 40
0.0
 40
0.0
 40
0.0
 40
0.0
 40
0.1527191901
 40
0.3019595335
 40
0.4441195603
 40
0.5758377826
 40
0.6940233827
 40
0.7958966866
 40
0.8790676415
 40
0.9416100082
 40
0.9821225088
 40
1.0
 40
1.0
 40
1.0
 40
1.0
 10
6.8095881982
 20
5.3559539654
 30
0.0
 10
6.8095881733
 20
5.3457622853
 30
0.0
 10
6.8095346776
 20
5.3256111041
 30
0.0
 10
6.8092952567
 20
5.2959734384
 30
0.0
 10
6.8089014606
 20
5.2677401886
 30
0.0
 10
6.8083685254
 20
5.2415781251
 30
0.0
 10
6.8076939953
 20
5.2181211035
 30
0.0
 10
6.8069475782
 20
5.1978708719
 30
0.0
 10
6.8060074132
 20
5.1814487041
 30
0.0
 10
6.8052867379
 20
5.168861445
 30
0.0
 10
6.8040060126
 20
5.1612137559
 30
0.0
 10
6.8036905559
 20
5.1569202589
 30
0.0
 10
6.8028477877
 20
5.1560758
 30
0.0
 11
6.8095881982
 21
5.3559539654
 31
0.0
 11
6.8095061061
 21
5.3253790353
 31
0.0
 11
6.8092615079
 21
5.2955014763
 31
0.0
 11
6.8088601154
 21
5.2670432565
 31
0.0
 11
6.8083113781
 21
5.2406784104
 31
0.0
 11
6.8076281832
 21
5.217027009
 31
0.0
 11
6.8068266254
 21
5.1966472913
 31
0.0
 11
6.8059256342
 21
5.1800205016
 31
0.0
 11
6.8049464004
 21
5.1675375997
 31
0.0
 11
6.8039121214
 21
5.1594930378
 31
0.0
 11
6.8028477877
 21
5.1560758
 31
0.0
  0
SPLINE
  5
595
100
AcDbEntity
  8
RACCORDO
100
AcDbSpline
 62
253
  6
CONTINUOUS
 70
0
 71
3
 72
17
 73
13
 74
11
 42
0.0000001
 43
0.0000001
 44
0.0000000001
 12
-0.1414238943
 22
0.1417076164
 32
0.0
 13
-0.0000004892
 23
0.2002043117
 33
0.0
 40
0.0
 40
0.0
 40
0.0
 40
0.0
 40
0.0178774913
 40
0.058389992
 40
0.1209323587
 40
0.2041033138
 40
0.3059766177
 40
0.4241622179
 40
0.5558804402
 40
0.698040467
 40
0.8472808104
 40
1.0
 40
1.0
 40
1.0
 40
1.0
 10
7.5187195113
 20
5.1560758
 30
0.0
 10
7.5178767431
 20
5.1569202589
 30
0.0
 10
7.5175612864
 20
5.1612137559
 30
0.0
 10
7.5162805612
 20
5.168861445
 30
0.0
 10
7.5155598858
 20
5.1814487042
 30
0.0
 10
7.5146197208
 20
5.197870872
 30
0.0
 10
7.5138733037
 20
5.2181211036
 30
0.0
 10
7.5131987736
 20
5.2415781252
 30
0.0
 10
7.5126658384
 20
5.2677401887
 30
0.0
 10
7.5122720423
 20
5.2959734385
 30
0.0
 10
7.5120326214
 20
5.3256111042
 30
0.0
 10
7.5119791258
 20
5.3457622853
 30
0.0
 10
7.5119791009
 20
5.3559539654
 30
0.0
 11
7.5187195113
 21
5.1560758
 31
0.0
 11
7.5176551776
 21
5.1594930379
 31
0.0
 11
7.5166208986
 21
5.1675375998
 31
0.0
 11
7.5156416648
 21
5.1800205016
 31
0.0
 11
7.5147406736
 21
5.1966472914
 31
0.0
 11
7.5139391158
 21
5.2170270091
 31
0.0
 11
7.5132559209
 21
5.2406784105
 31
0.0
 11
7.5127071836
 21
5.2670432566
 31
0.0
 11
7.5123057911
 21
5.2955014764
 31
0.0
 11
7.5120611929
 21
5.3253790354
 31
0.0
 11
7.5119791009
 21
5.3559539654
 31
0.0
  0
SPLINE
  5
596
100
AcDbEntity
  8
RACCORDO
100
AcDbSpline
 62
253
  6
CONTINUOUS
 70
0
 71
3
 72
13
 73
9
 74
7
 42
0.0000001
 43
0.0000001
 44
0.0000000001
 12
0.0000002346
 22
0.141442405
 32
0.0
 13
0.0049357932
 23
0.1413562587
 33
0.0
 40
0.0
 40
0.0
 40
0.0
 40
0.0
 40
0.1844732589
 40
0.3659045925
 40
0.541117895
 40
0.7070849145
 40
0.8609356791
 40
1.0
 40
1.0
 40
1.0
 40
1.0
 10
7.5119791009
 20
6.7070876325
 30
0.0
 10
7.5119791153
 20
6.7157850796
 30
0.0
 10
7.5120182218
 20
6.7330365814
 30
0.0
 10
7.5121938349
 20
6.7585484064
 30
0.0
 10
7.5124831114
 20
6.783186629
 30
0.0
 10
7.5128807855
 20
6.8065228307
 30
0.0
 10
7.5133794273
 20
6.8281523471
 30
0.0
 10
7.5137959146
 20
6.8419564514
 30
0.0
 10
7.5140247122
 20
6.8485089887
 30
0.0
 11
7.5119791009
 21
6.7070876325
 31
0.0
 11
7.5120387901
 21
6.7331799056
 31
0.0
 11
7.5122169874
 21
6.7588413711
 31
0.0
 11
7.5125107076
 21
6.7836222214
 31
0.0
 11
7.5129149199
 21
6.8070935154
 31
0.0
 11
7.513422584
 21
6.8288486151
 31
0.0
 11
7.5140247122
 21
6.8485089887
 31
0.0
  0
SPLINE
  5
597
100
AcDbEntity
  8
RACCORDO
100
AcDbSpline
 62
253
  6
CONTINUOUS
 70
0
 71
3
 72
13
 73
9
 74
7
 42
0.0000001
 43
0.0000001
 44
0.0000000001
 12
0.0197318509
 22
0.5654254321
 32
0.0
 13
0.0000091903
 23
0.565769622
 33
0.0
 40
0.0
 40
0.0
 40
0.0
 40
0.0
 40
0.1361522584
 40
0.2904133641
 40
0.4589859497
 40
0.637088475
 40
0.8192974361
 40
1.0
 40
1.0
 40
1.0
 40
1.0
 10
7.5352253481
 20
7.4556157699
 30
0.0
 10
7.5361208602
 20
7.4812770864
 30
0.0
 10
7.5377785875
 20
7.5360217002
 30
0.0
 10
7.5397829161
 20
7.6225591509
 30
0.0
 10
7.5413961413
 20
7.7170174039
 30
0.0
 10
7.5425623209
 20
7.8167532017
 30
0.0
 10
7.5432559603
 20
7.9187809828
 30
0.0
 10
7.5434072398
 20
7.9872225211
 30
0.0
 10
7.5434077934
 20
8.0213011949
 30
0.0
 11
7.5352253481
 21
7.4556157699
 31
0.0
 11
7.5375896023
 21
7.5326102909
 31
0.0
 11
7.5396359141
 21
7.6198625458
 31
0.0
 11
7.5412822161
 21
7.7152215839
 31
0.0
 11
7.54247202
 21
7.8159795576
 31
0.0
 11
7.5431787354
 21
7.9190654302
 31
0.0
 11
7.5434077934
 21
8.0213011949
 31
0.0
  0
SPLINE
  5
598
100
AcDbEntity
  8
RACCORDO
100
AcDbSpline
 62
253
  6
CONTINUOUS
 70
0
 71
3
 72
15
 73
11
 74
9
 42
0.0000001
 43
0.0000001
 44
0.0000000001
 12
0.0000001707
 22
0.0492833389
 32
0.0
 13
0.0095687383
 23
0.0483454935
 33
0.0
 40
0.0
 40
0.0
 40
0.0
 40
0.0
 40
0.1760003266
 40
0.3468630124
 40
0.5072188018
 40
0.6521964061
 40
0.7773808262
 40
0.8789617246
 40
0.9539026917
 40
1.0
 40
1.0
 40
1.0
 40
1.0
 10
-5.2990713099
 20
-6.6372913429
 30
0.0
 10
-5.2990712999
 20
-6.6344000483
 30
0.0
 10
-5.2990541763
 20
-6.6287018468
 30
0.0
 10
-5.298977534
 20
-6.6203696507
 30
0.0
 10
-5.2988523564
 20
-6.6125477873
 30
0.0
 10
-5.2986837301
 20
-6.6054771047
 30
0.0
 10
-5.298475307
 20
-6.5993740548
 30
0.0
 10
-5.2982425503
 20
-6.5944217945
 30
0.0
 10
-5.2979797353
 20
-6.5907761316
 30
0.0
 10
-5.2977754988
 20
-6.5887938209
 30
0.0
 10
-5.2976284678
 20
-6.5880509552
 30
0.0
 11
-5.2990713099
 21
-6.6372913429
 31
0.0
 11
-5.2990448373
 21
-6.6286174995
 31
0.0
 11
-5.2989660951
 21
-6.620197184
 31
0.0
 11
-5.2988374658
 21
-6.6122953622
 31
0.0
 11
-5.2986628307
 21
-6.6051525163
 31
0.0
 11
-5.2984475053
 21
-6.5989867688
 31
0.0
 11
-5.2981980848
 21
-6.5939867401
 31
0.0
 11
-5.2979221677
 21
-6.5903037199
 31
0.0
 11
-5.2976284678
 21
-6.5880509552
 31
0.0
  0
SPLINE
  5
599
100
AcDbEntity
  8
RACCORDO
100
AcDbSpline
 62
253
  6
CONTINUOUS
 70
0
 71
3
 72
16
 73
12
 74
10
 42
0.0000001
 43
0.0000001
 44
0.0000000001
 12
0.0000001618
 22
0.0500818853
 32
0.0
 13
0.0447468108
 23
0.0224926245
 33
0.0
 40
0.0
 40
0.0
 40
0.0
 40
0.0
 40
0.1712952529
 40
0.3376892171
 40
0.4940782646
 40
0.6358142909
 40
0.7586920905
 40
0.8590498286
 40
0.9339391758
 40
0.981233087
 40
1.0
 40
1.0
 40
1.0
 40
1.0
 10
-5.2397060018
 20
-4.9100633723
 30
0.0
 10
-5.2397059925
 20
-4.9072037759
 30
0.0
 10
-5.2396893499
 20
-4.9015662422
 30
0.0
 10
-5.2396138373
 20
-4.8933190416
 30
0.0
 10
-5.2394929241
 20
-4.8855631672
 30
0.0
 10
-5.2393223379
 20
-4.8785435919
 30
0.0
 10
-5.2391337482
 20
-4.8724337356
 30
0.0
 10
-5.2388609781
 20
-4.8675178357
 30
0.0
 10
-5.2387065567
 20
-4.8636767738
 30
0.0
 10
-5.2382762721
 20
-4.8615889155
 30
0.0
 10
-5.2382703557
 20
-4.8602116932
 30
0.0
 10
-5.2379904359
 20
-4.8600709875
 30
0.0
 11
-5.2397060018
 21
-4.9100633723
 31
0.0
 11
-5.2396801107
 21
-4.9014846221
 31
0.0
 11
-5.2396030905
 21
-4.8931516546
 31
0.0
 11
-5.2394772233
 21
-4.8853204077
 31
0.0
 11
-5.2393062292
 21
-4.8782240602
 31
0.0
 11
-5.2390951766
 21
-4.8720737284
 31
0.0
 11
-5.2388503799
 21
-4.8670535887
 31
0.0
 11
-5.2385791334
 21
-4.8633128102
 31
0.0
 11
-5.2382895151
 21
-4.8609620153
 31
0.0
 11
-5.2379904359
 21
-4.8600709875
 31
0.0
  0
SPLINE
  5
59A
100
AcDbEntity
  8
RACCORDO
100
AcDbSpline
 62
253
  6
CONTINUOUS
 70
0
 71
3
 72
16
 73
12
 74
10
 42
0.0000001
 43
0.0000001
 44
0.0000000001
 12
0.0447468108
 22
-0.0224926245
 32
0.0
 13
0.0000001618
 23
-0.0500818853
 33
0.0
 40
0.0
 40
0.0
 40
0.0
 40
0.0
 40
0.0187669131
 40
0.0660608243
 40
0.1409501717
 40
0.2413079099
 40
0.3641857095
 40
0.5059217359
 40
0.6623107834
 40
0.8287047476
 40
1.0
 40
1.0
 40
1.0
 40
1.0
 10
-5.9404422651
 20
-4.8600709875
 30
0.0
 10
-5.9401623453
 20
-4.8602116932
 30
0.0
 10
-5.9401564289
 20
-4.8615889155
 30
0.0
 10
-5.9397261443
 20
-4.8636767738
 30
0.0
 10
-5.9395717228
 20
-4.8675178357
 30
0.0
 10
-5.9392989528
 20
-4.8724337356
 30
0.0
 10
-5.9391103631
 20
-4.8785435919
 30
0.0
 10
-5.9389397768
 20
-4.8855631673
 30
0.0
 10
-5.9388188637
 20
-4.8933190416
 30
0.0
 10
-5.9387433511
 20
-4.9015662422
 30
0.0
 10
-5.9387267085
 20
-4.9072037759
 30
0.0
 10
-5.9387266992
 20
-4.9100633723
 30
0.0
 11
-5.9404422651
 21
-4.8600709875
 31
0.0
 11
-5.9401431858
 21
-4.8609620153
 31
0.0
 11
-5.9398535675
 21
-4.8633128102
 31
0.0
 11
-5.9395823211
 21
-4.8670535887
 31
0.0
 11
-5.9393375243
 21
-4.8720737285
 31
0.0
 11
-5.9391264718
 21
-4.8782240602
 31
0.0
 11
-5.9389554777
 21
-4.8853204078
 31
0.0
 11
-5.9388296104
 21
-4.8931516547
 31
0.0
 11
-5.9387525903
 21
-4.9014846222
 31
0.0
 11
-5.9387266992
 21
-4.9100633723
 31
0.0
  0
SPLINE
  5
59B
100
AcDbEntity
  8
RACCORDO
100
AcDbSpline
 62
253
  6
CONTINUOUS
 70
0
 71
3
 72
15
 73
11
 74
9
 42
0.0000001
 43
0.0000001
 44
0.0000000001
 12
0.0095687383
 22
-0.0483454935
 32
0.0
 13
0.0000001707
 23
-0.0492833389
 33
0.0
 40
0.0
 40
0.0
 40
0.0
 40
0.0
 40
0.0460973084
 40
0.1210382755
 40
0.222619174
 40
0.3478035941
 40
0.4927811984
 40
0.6531369878
 40
0.8239996736
 40
1.0
 40
1.0
 40
1.0
 40
1.0
 10
-5.8808042332
 20
-6.5880509552
 30
0.0
 10
-5.8806572021
 20
-6.5887938209
 30
0.0
 10
-5.8804529656
 20
-6.5907761316
 30
0.0
 10
-5.8801901507
 20
-6.5944217945
 30
0.0
 10
-5.879957394
 20
-6.5993740548
 30
0.0
 10
-5.8797489709
 20
-6.6054771047
 30
0.0
 10
-5.8795803446
 20
-6.6125477874
 30
0.0
 10
-5.879455167
 20
-6.6203696507
 30
0.0
 10
-5.8793785246
 20
-6.6287018468
 30
0.0
 10
-5.8793614011
 20
-6.6344000483
 30
0.0
 10
-5.8793613911
 20
-6.6372913429
 30
0.0
 11
-5.8808042332
 21
-6.5880509552
 31
0.0
 11
-5.8805105333
 21
-6.5903037199
 31
0.0
 11
-5.8802346162
 21
-6.5939867401
 31
0.0
 11
-5.8799851957
 21
-6.5989867688
 31
0.0
 11
-5.8797698703
 21
-6.6051525163
 31
0.0
 11
-5.8795952351
 21
-6.6122953622
 31
0.0
 11
-5.8794666059
 21
-6.620197184
 31
0.0
 11
-5.8793878637
 21
-6.6286174995
 31
0.0
 11
-5.8793613911
 21
-6.6372913429
 31
0.0
  0
SPLINE
  5
59C
100
AcDbEntity
  8
RACCORDO
100
AcDbSpline
 62
253
  6
CONTINUOUS
 70
0
 71
3
 72
15
 73
11
 74
9
 42
0.0000001
 43
0.0000001
 44
0.0000000001
 12
0.0000001707
 22
0.0492833389
 32
0.0
 13
0.0095687383
 23
0.0483454935
 33
0.0
 40
0.0
 40
0.0
 40
0.0
 40
0.0
 40
0.1760003266
 40
0.3468630124
 40
0.5072188018
 40
0.6521964061
 40
0.7773808262
 40
0.8789617246
 40
0.9539026917
 40
1.0
 40
1.0
 40
1.0
 40
1.0
 10
5.9009286901
 20
-6.6372913429
 30
0.0
 10
5.9009287001
 20
-6.6344000483
 30
0.0
 10
5.9009458237
 20
-6.6287018468
 30
0.0
 10
5.901022466
 20
-6.6203696507
 30
0.0
 10
5.9011476436
 20
-6.6125477873
 30
0.0
 10
5.9013162699
 20
-6.6054771047
 30
0.0
 10
5.901524693
 20
-6.5993740548
 30
0.0
 10
5.9017574497
 20
-6.5944217945
 30
0.0
 10
5.9020202647
 20
-6.5907761316
 30
0.0
 10
5.9022245012
 20
-6.5887938209
 30
0.0
 10
5.9023715322
 20
-6.5880509552
 30
0.0
 11
5.9009286901
 21
-6.6372913429
 31
0.0
 11
5.9009551627
 21
-6.6286174995
 31
0.0
 11
5.9010339049
 21
-6.620197184
 31
0.0
 11
5.9011625342
 21
-6.6122953622
 31
0.0
 11
5.9013371693
 21
-6.6051525163
 31
0.0
 11
5.9015524947
 21
-6.5989867688
 31
0.0
 11
5.9018019152
 21
-6.5939867401
 31
0.0
 11
5.9020778323
 21
-6.5903037199
 31
0.0
 11
5.9023715322
 21
-6.5880509552
 31
0.0
  0
SPLINE
  5
59D
100
AcDbEntity
  8
RACCORDO
100
AcDbSpline
 62
253
  6
CONTINUOUS
 70
0
 71
3
 72
16
 73
12
 74
10
 42
0.0000001
 43
0.0000001
 44
0.0000000001
 12
0.0000001618
 22
0.0500818853
 32
0.0
 13
0.0447468108
 23
0.0224926245
 33
0.0
 40
0.0
 40
0.0
 40
0.0
 40
0.0
 40
0.1712952529
 40
0.3376892171
 40
0.4940782646
 40
0.6358142909
 40
0.7586920905
 40
0.8590498286
 40
0.9339391758
 40
0.981233087
 40
1.0
 40
1.0
 40
1.0
 40
1.0
 10
5.9602939982
 20
-4.9100633723
 30
0.0
 10
5.9602940075
 20
-4.9072037759
 30
0.0
 10
5.9603106501
 20
-4.9015662422
 30
0.0
 10
5.9603861627
 20
-4.8933190416
 30
0.0
 10
5.9605070759
 20
-4.8855631672
 30
0.0
 10
5.9606776621
 20
-4.8785435919
 30
0.0
 10
5.9608662518
 20
-4.8724337356
 30
0.0
 10
5.9611390219
 20
-4.8675178357
 30
0.0
 10
5.9612934433
 20
-4.8636767738
 30
0.0
 10
5.9617237279
 20
-4.8615889155
 30
0.0
 10
5.9617296443
 20
-4.8602116932
 30
0.0
 10
5.9620095641
 20
-4.8600709875
 30
0.0
 11
5.9602939982
 21
-4.9100633723
 31
0.0
 11
5.9603198893
 21
-4.9014846221
 31
0.0
 11
5.9603969095
 21
-4.8931516546
 31
0.0
 11
5.9605227767
 21
-4.8853204077
 31
0.0
 11
5.9606937708
 21
-4.8782240602
 31
0.0
 11
5.9609048234
 21
-4.8720737284
 31
0.0
 11
5.9611496201
 21
-4.8670535887
 31
0.0
 11
5.9614208666
 21
-4.8633128102
 31
0.0
 11
5.9617104849
 21
-4.8609620153
 31
0.0
 11
5.9620095641
 21
-4.8600709875
 31
0.0
  0
SPLINE
  5
59E
100
AcDbEntity
  8
RACCORDO
100
AcDbSpline
 62
253
  6
CONTINUOUS
 70
0
 71
3
 72
16
 73
12
 74
10
 42
0.0000001
 43
0.0000001
 44
0.0000000001
 12
0.0447468108
 22
-0.0224926245
 32
0.0
 13
0.0000001618
 23
-0.0500818853
 33
0.0
 40
0.0
 40
0.0
 40
0.0
 40
0.0
 40
0.0187669131
 40
0.0660608243
 40
0.1409501717
 40
0.2413079099
 40
0.3641857095
 40
0.5059217359
 40
0.6623107834
 40
0.8287047476
 40
1.0
 40
1.0
 40
1.0
 40
1.0
 10
5.2595577349
 20
-4.8600709875
 30
0.0
 10
5.2598376547
 20
-4.8602116932
 30
0.0
 10
5.2598435711
 20
-4.8615889155
 30
0.0
 10
5.2602738557
 20
-4.8636767738
 30
0.0
 10
5.2604282772
 20
-4.8675178357
 30
0.0
 10
5.2607010472
 20
-4.8724337356
 30
0.0
 10
5.2608896369
 20
-4.8785435919
 30
0.0
 10
5.2610602232
 20
-4.8855631673
 30
0.0
 10
5.2611811363
 20
-4.8933190416
 30
0.0
 10
5.2612566489
 20
-4.9015662422
 30
0.0
 10
5.2612732915
 20
-4.9072037759
 30
0.0
 10
5.2612733008
 20
-4.9100633723
 30
0.0
 11
5.2595577349
 21
-4.8600709875
 31
0.0
 11
5.2598568142
 21
-4.8609620153
 31
0.0
 11
5.2601464325
 21
-4.8633128102
 31
0.0
 11
5.2604176789
 21
-4.8670535887
 31
0.0
 11
5.2606624757
 21
-4.8720737285
 31
0.0
 11
5.2608735282
 21
-4.8782240602
 31
0.0
 11
5.2610445223
 21
-4.8853204078
 31
0.0
 11
5.2611703896
 21
-4.8931516547
 31
0.0
 11
5.2612474097
 21
-4.9014846222
 31
0.0
 11
5.2612733008
 21
-4.9100633723
 31
0.0
  0
SPLINE
  5
59F
100
AcDbEntity
  8
RACCORDO
100
AcDbSpline
 62
253
  6
CONTINUOUS
 70
0
 71
3
 72
15
 73
11
 74
9
 42
0.0000001
 43
0.0000001
 44
0.0000000001
 12
0.0095687383
 22
-0.0483454935
 32
0.0
 13
0.0000001707
 23
-0.0492833389
 33
0.0
 40
0.0
 40
0.0
 40
0.0
 40
0.0
 40
0.0460973084
 40
0.1210382755
 40
0.222619174
 40
0.3478035941
 40
0.4927811984
 40
0.6531369878
 40
0.8239996736
 40
1.0
 40
1.0
 40
1.0
 40
1.0
 10
5.3191957668
 20
-6.5880509552
 30
0.0
 10
5.3193427979
 20
-6.5887938209
 30
0.0
 10
5.3195470344
 20
-6.5907761316
 30
0.0
 10
5.3198098493
 20
-6.5944217945
 30
0.0
 10
5.320042606
 20
-6.5993740548
 30
0.0
 10
5.3202510291
 20
-6.6054771047
 30
0.0
 10
5.3204196554
 20
-6.6125477874
 30
0.0
 10
5.320544833
 20
-6.6203696507
 30
0.0
 10
5.3206214754
 20
-6.6287018468
 30
0.0
 10
5.3206385989
 20
-6.6344000483
 30
0.0
 10
5.3206386089
 20
-6.6372913429
 30
0.0
 11
5.3191957668
 21
-6.5880509552
 31
0.0
 11
5.3194894667
 21
-6.5903037199
 31
0.0
 11
5.3197653838
 21
-6.5939867401
 31
0.0
 11
5.3200148043
 21
-6.5989867688
 31
0.0
 11
5.3202301297
 21
-6.6051525163
 31
0.0
 11
5.3204047649
 21
-6.6122953622
 31
0.0
 11
5.3205333941
 21
-6.620197184
 31
0.0
 11
5.3206121363
 21
-6.6286174995
 31
0.0
 11
5.3206386089
 21
-6.6372913429
 31
0.0
  0
SPLINE
  5
5A0
100
AcDbEntity
  8
RACCORDO
100
AcDbSpline
 62
253
  6
CONTINUOUS
 70
0
 71
3
 72
15
 73
11
 74
9
 42
0.0000001
 43
0.0000001
 44
0.0000000001
 12
-0.4014143357
 22
-0.0070088488
 32
0.0
 13
-0.0139942489
 23
-0.4012315464
 33
0.0
 40
0.0
 40
0.0
 40
0.0
 40
0.0
 40
0.1440044844
 40
0.2856956272
 40
0.4226390599
 40
0.5528844372
 40
0.67524257
 40
0.7895686166
 40
0.89699843
 40
1.0
 40
1.0
 40
1.0
 40
1.0
 10
7.086159199
 20
7.6677478043
 30
0.0
 10
7.0668907109
 20
7.6674113691
 30
0.0
 10
7.0286565565
 20
7.6641420958
 30
0.0
 10
6.9733223014
 20
7.6516027314
 30
0.0
 10
6.9220605748
 20
7.6318756745
 30
0.0
 10
6.8767362487
 20
7.6056384387
 30
0.0
 10
6.8389951409
 20
7.5737740549
 30
0.0
 10
6.8102650772
 20
7.5373162531
 30
0.0
 10
6.791758883
 20
7.4975269102
 30
0.0
 10
6.7868224274
 20
7.4693915963
 30
0.0
 10
6.7863419509
 20
7.4556157699
 30
0.0
 11
7.086159199
 21
7.6677478043
 31
0.0
 11
7.0285576607
 21
7.6627926848
 31
0.0
 11
6.9731009192
 21
7.6501233205
 31
0.0
 11
6.9218539095
 21
7.6302114559
 31
0.0
 11
6.876724817
 21
7.6037985106
 31
0.0
 11
6.8393940262
 21
7.5718679721
 31
0.0
 11
6.8112515514
 21
7.5356087758
 31
0.0
 11
6.7933452793
 21
7.4963710352
 31
0.0
 11
6.7863419509
 21
7.4556157699
 31
0.0
  0
SPLINE
  5
5A1
100
AcDbEntity
  8
RACCORDO
100
AcDbSpline
 62
253
  6
CONTINUOUS
 70
0
 71
3
 72
15
 73
11
 74
9
 42
0.0000001
 43
0.0000001
 44
0.0000000001
 12
-0.4014143352
 22
-0.0070088515
 32
0.0
 13
-0.0139942492
 23
-0.401231546
 33
0.0
 40
0.0
 40
0.0
 40
0.0
 40
0.0
 40
0.1440045699
 40
0.2856957779
 40
0.4226392486
 40
0.5528846346
 40
0.6752427483
 40
0.7895687529
 40
0.8969985064
 40
1.0
 40
1.0
 40
1.0
 40
1.0
 10
7.107359835
 20
7.0606410231
 30
0.0
 10
7.0880913354
 20
7.0603045876
 30
0.0
 10
7.0498571609
 20
7.0570353108
 30
0.0
 10
6.9945228825
 20
7.0444959341
 30
0.0
 10
6.9432611454
 20
7.0247688621
 30
0.0
 10
6.8979368225
 20
6.9985316133
 30
0.0
 10
6.8601957292
 20
6.9666672232
 30
0.0
 10
6.8314656865
 20
6.9302094258
 30
0.0
 10
6.8129595124
 20
6.8904201005
 30
0.0
 10
6.808023063
 20
6.8622848049
 30
0.0
 10
6.8075425869
 20
6.8485089887
 30
0.0
 11
7.107359835
 21
7.0606410231
 31
0.0
 11
7.0497582628
 21
7.055685898
 31
0.0
 11
6.9943014974
 21
7.043016521
 31
0.0
 11
6.9430544772
 21
7.0231046411
 31
0.0
 11
6.8979253884
 21
6.9966916828
 31
0.0
 11
6.8605946128
 21
6.9647611385
 31
0.0
 11
6.832452159
 21
6.9285019474
 31
0.0
 11
6.8145459061
 21
6.8892642244
 31
0.0
 11
6.8075425869
 21
6.8485089887
 31
0.0
  0
SPLINE
  5
5A2
100
AcDbEntity
  8
RACCORDO
100
AcDbSpline
 62
253
  6
CONTINUOUS
 70
0
 71
3
 72
15
 73
11
 74
9
 42
0.0000001
 43
0.0000001
 44
0.0000000001
 12
0.4014143357
 22
-0.0070088487
 32
0.0
 13
0.0139942489
 23
-0.4012315464
 33
0.0
 40
0.0
 40
0.0
 40
0.0
 40
0.0
 40
0.1440044844
 40
0.2856956272
 40
0.4226390599
 40
0.5528844372
 40
0.67524257
 40
0.7895686166
 40
0.89699843
 40
1.0
 40
1.0
 40
1.0
 40
1.0
 10
-7.0857925359
 20
7.0606410231
 30
0.0
 10
-7.0665240478
 20
7.0603045879
 30
0.0
 10
-7.0282898935
 20
7.0570353146
 30
0.0
 10
-6.9729556384
 20
7.0444959502
 30
0.0
 10
-6.9216939117
 20
7.0247688933
 30
0.0
 10
-6.8763695857
 20
6.9985316575
 30
0.0
 10
-6.8386284778
 20
6.9666672737
 30
0.0
 10
-6.8098984141
 20
6.9302094719
 30
0.0
 10
-6.7913922199
 20
6.890420129
 30
0.0
 10
-6.7864557644
 20
6.8622848152
 30
0.0
 10
-6.7859752878
 20
6.8485089887
 30
0.0
 11
-7.0857925359
 21
7.0606410231
 31
0.0
 11
-7.0281909977
 21
7.0556859036
 31
0.0
 11
-6.9727342561
 21
7.0430165393
 31
0.0
 11
-6.9214872464
 21
7.0231046748
 31
0.0
 11
-6.8763581539
 21
6.9966917294
 31
0.0
 11
-6.8390273632
 21
6.9647611909
 31
0.0
 11
-6.8108848883
 21
6.9285019946
 31
0.0
 11
-6.7929786162
 21
6.8892642541
 31
0.0
 11
-6.7859752878
 21
6.8485089887
 31
0.0
  0
SPLINE
  5
5A3
100
AcDbEntity
  8
RACCORDO
100
AcDbSpline
 62
253
  6
CONTINUOUS
 70
0
 71
3
 72
15
 73
11
 74
9
 42
0.0000001
 43
0.0000001
 44
0.0000000001
 12
0.4014143351
 22
-0.007008849
 32
0.0
 13
0.0139942489
 23
-0.4012315459
 33
0.0
 40
0.0
 40
0.0
 40
0.0
 40
0.0
 40
0.1440042721
 40
0.2856952433
 40
0.4226385679
 40
0.5528839124
 40
0.6752420872
 40
0.7895682409
 40
0.8969982159
 40
1.0
 40
1.0
 40
1.0
 40
1.0
 10
-7.0645919
 20
7.6677478043
 30
0.0
 10
-7.0453234403
 20
7.6674113696
 30
0.0
 10
-7.0070893375
 20
7.6641421045
 30
0.0
 10
-6.9517551437
 20
7.651602771
 30
0.0
 10
-6.9004934473
 20
7.6318757538
 30
0.0
 10
-6.8551691163
 20
7.6056385542
 30
0.0
 10
-6.8174279719
 20
7.57377419
 30
0.0
 10
-6.7886978522
 20
7.537316379
 30
0.0
 10
-6.7701916024
 20
7.4975269892
 30
0.0
 10
-6.7652551294
 20
7.4693916249
 30
0.0
 10
-6.7647746519
 20
7.4556157699
 30
0.0
 11
-7.0645919
 21
7.6677478043
 31
0.0
 11
-7.0069904462
 21
7.6627926979
 31
0.0
 11
-6.9515337681
 21
7.6501233656
 31
0.0
 11
-6.9002867892
 21
7.6302115418
 31
0.0
 11
-6.8551576908
 21
7.6037986328
 31
0.0
 11
-6.8178268622
 21
7.5718681127
 31
0.0
 11
-6.7896843314
 21
7.5356089054
 31
0.0
 11
-6.771778006
 21
7.4963711179
 31
0.0
 11
-6.7647746519
 21
7.4556157699
 31
0.0
  0
SPLINE
  5
5A4
100
AcDbEntity
  8
RACCORDO
100
AcDbSpline
 62
253
  6
CONTINUOUS
 70
0
 71
3
 72
15
 73
11
 74
9
 42
0.0000001
 43
0.0000001
 44
0.0000000001
 12
0.3882348029
 22
-0.0023184616
 32
0.0
 13
0.0023876314
 23
-0.3882343837
 33
0.0
 40
0.0
 40
0.0
 40
0.0
 40
0.0
 40
0.1257290456
 40
0.2514557317
 40
0.3770343051
 40
0.502340937
 40
0.627292244
 40
0.751858067
 40
0.8760664778
 40
1.0
 40
1.0
 40
1.0
 40
1.0
 10
5.6525238254
 20
-6.341849017
 30
0.0
 10
5.6687946225
 20
-6.3419461829
 30
0.0
 10
5.7014034946
 20
-6.345291663
 30
0.0
 10
5.7483670875
 20
-6.3595541839
 30
0.0
 10
5.7917022786
 20
-6.382522338
 30
0.0
 10
5.8297360311
 20
-6.4133262186
 30
0.0
 10
5.8610238073
 20
-6.4507958537
 30
0.0
 10
5.8843668353
 20
-6.4935142447
 30
0.0
 10
5.8988689516
 20
-6.5398298295
 30
0.0
 10
5.9022728963
 20
-6.572012537
 30
0.0
 10
5.9023715322
 20
-6.5880509552
 30
0.0
 11
5.6525238254
 21
-6.341849017
 31
0.0
 11
5.7010819414
 21
-6.3468333814
 31
0.0
 11
5.7477883213
 21
-6.3610164398
 31
0.0
 11
5.7908618444
 21
-6.3838573293
 31
0.0
 11
5.8286599263
 21
-6.4144850258
 31
0.0
 11
5.859741159
 21
-6.4517315595
 31
0.0
 11
5.8829202774
 21
-6.4941765553
 31
0.0
 11
5.8973133591
 21
-6.5402013975
 31
0.0
 11
5.9023715322
 21
-6.5880509552
 31
0.0
  0
SPLINE
  5
5A5
100
AcDbEntity
  8
RACCORDO
100
AcDbSpline
 62
7
  6
CONTINUOUS
 70
0
 71
3
 72
17
 73
13
 74
11
 42
0.0000001
 43
0.0000001
 44
0.0000000001
 12
-0.0148532747
 22
0.3571597571
 32
0.0
 13
-0.3573152673
 23
0.0104647825
 33
0.0
 40
0.0
 40
0.0
 40
0.0
 40
0.0
 40
0.0784048065
 40
0.159813855
 40
0.2448266776
 40
0.3341391228
 40
0.4284979008
 40
0.5286788015
 40
0.6354463523
 40
0.7494674181
 40
0.8710888176
 40
1.0
 40
1.0
 40
1.0
 40
1.0
 10
5.9602939982
 20
-6.2955804941
 30
0.0
 10
5.9599058089
 20
-6.2862461469
 30
0.0
 10
5.9575949132
 20
-6.2672509306
 30
0.0
 10
5.9495444381
 20
-6.2390925016
 30
0.0
 10
5.9366750641
 20
-6.2113359
 30
0.0
 10
5.9188790619
 20
-6.1845766504
 30
0.0
 10
5.896091358
 20
-6.1594171518
 30
0.0
 10
5.8682811749
 20
-6.1365131141
 30
0.0
 10
5.8354692922
 20
-6.1166110515
 30
0.0
 10
5.7977863615
 20
-6.1005996807
 30
0.0
 10
5.7556244003
 20
-6.089543194
 30
0.0
 10
5.7258002694
 20
-6.0863608731
 30
0.0
 10
5.7104462915
 20
-6.0859111973
 30
0.0
 11
5.9602939982
 21
-6.2955804941
 31
0.0
 11
5.9569297272
 21
-6.2677558963
 31
0.0
 11
5.9489683891
 21
-6.2397649137
 31
0.0
 11
5.9362318081
 21
-6.2121733318
 31
0.0
 11
5.9186032812
 21
-6.1855551234
 31
0.0
 11
5.8960087157
 21
-6.1605108031
 31
0.0
 11
5.8684075943
 21
-6.1376932083
 31
0.0
 11
5.8358068133
 21
-6.1178479264
 31
0.0
 11
5.7983137448
 21
-6.1018616593
 31
0.0
 11
5.7562673835
 21
-6.0908049822
 31
0.0
 11
5.7104462915
 21
-6.0859111973
 31
0.0
  0
SPLINE
  5
5A6
100
AcDbEntity
  8
RACCORDO
100
AcDbSpline
 62
253
  6
CONTINUOUS
 70
0
 71
3
 72
15
 73
11
 74
9
 42
0.0000001
 43
0.0000001
 44
0.0000000001
 12
-0.4014143357
 22
-0.0070088488
 32
0.0
 13
-0.0139942489
 23
-0.4012315464
 33
0.0
 40
0.0
 40
0.0
 40
0.0
 40
0.0
 40
0.1440044844
 40
0.2856956272
 40
0.4226390599
 40
0.5528844372
 40
0.67524257
 40
0.7895686166
 40
0.89699843
 40
1.0
 40
1.0
 40
1.0
 40
1.0
 10
-7.213840801
 20
7.6677478043
 30
0.0
 10
-7.2331092891
 20
7.6674113691
 30
0.0
 10
-7.2713434435
 20
7.6641420958
 30
0.0
 10
-7.3266776986
 20
7.6516027314
 30
0.0
 10
-7.3779394252
 20
7.6318756745
 30
0.0
 10
-7.4232637513
 20
7.6056384387
 30
0.0
 10
-7.4610048591
 20
7.5737740549
 30
0.0
 10
-7.4897349228
 20
7.5373162531
 30
0.0
 10
-7.508241117
 20
7.4975269102
 30
0.0
 10
-7.5131775726
 20
7.4693915963
 30
0.0
 10
-7.5136580491
 20
7.4556157699
 30
0.0
 11
-7.213840801
 21
7.6677478043
 31
0.0
 11
-7.2714423393
 21
7.6627926848
 31
0.0
 11
-7.3268990808
 21
7.6501233205
 31
0.0
 11
-7.3781460905
 21
7.6302114559
 31
0.0
 11
-7.423275183
 21
7.6037985106
 31
0.0
 11
-7.4606059738
 21
7.5718679721
 31
0.0
 11
-7.4887484486
 21
7.5356087758
 31
0.0
 11
-7.5066547207
 21
7.4963710352
 31
0.0
 11
-7.5136580491
 21
7.4556157699
 31
0.0
  0
SPLINE
  5
5A7
100
AcDbEntity
  8
RACCORDO
100
AcDbSpline
 62
253
  6
CONTINUOUS
 70
0
 71
3
 72
15
 73
11
 74
9
 42
0.0000001
 43
0.0000001
 44
0.0000000001
 12
-0.4014143352
 22
-0.0070088515
 32
0.0
 13
-0.0139942492
 23
-0.401231546
 33
0.0
 40
0.0
 40
0.0
 40
0.0
 40
0.0
 40
0.1440045699
 40
0.2856957779
 40
0.4226392486
 40
0.5528846346
 40
0.6752427483
 40
0.7895687529
 40
0.8969985064
 40
1.0
 40
1.0
 40
1.0
 40
1.0
 10
-7.192640165
 20
7.0606410231
 30
0.0
 10
-7.2119086646
 20
7.0603045876
 30
0.0
 10
-7.2501428391
 20
7.0570353108
 30
0.0
 10
-7.3054771175
 20
7.0444959341
 30
0.0
 10
-7.3567388546
 20
7.0247688621
 30
0.0
 10
-7.4020631775
 20
6.9985316133
 30
0.0
 10
-7.4398042708
 20
6.9666672232
 30
0.0
 10
-7.4685343135
 20
6.9302094258
 30
0.0
 10
-7.4870404876
 20
6.8904201005
 30
0.0
 10
-7.491976937
 20
6.8622848049
 30
0.0
 10
-7.4924574131
 20
6.8485089887
 30
0.0
 11
-7.192640165
 21
7.0606410231
 31
0.0
 11
-7.2502417372
 21
7.055685898
 31
0.0
 11
-7.3056985026
 21
7.043016521
 31
0.0
 11
-7.3569455228
 21
7.0231046411
 31
0.0
 11
-7.4020746116
 21
6.9966916828
 31
0.0
 11
-7.4394053872
 21
6.9647611385
 31
0.0
 11
-7.467547841
 21
6.9285019474
 31
0.0
 11
-7.4854540939
 21
6.8892642244
 31
0.0
 11
-7.4924574131
 21
6.8485089887
 31
0.0
  0
SPLINE
  5
5A8
100
AcDbEntity
  8
RACCORDO
100
AcDbSpline
 62
7
  6
CONTINUOUS
 70
0
 71
3
 72
14
 73
10
 74
8
 42
0.0000001
 43
0.0000001
 44
0.0000000001
 12
-0.187164952
 22
-0.0179573555
 32
0.0
 13
-0.188024429
 23
-0.0
 33
0.0
 40
0.0
 40
0.0
 40
0.0
 40
0.0
 40
0.0778830372
 40
0.1849747095
 40
0.3167251878
 40
0.4673848541
 40
0.636225452
 40
0.8166806958
 40
1.0
 40
1.0
 40
1.0
 40
1.0
 10
-4.1541873099
 20
5.705358978
 30
0.0
 10
-4.1590463016
 20
5.7048927869
 30
0.0
 10
-4.1706149659
 20
5.7040947271
 30
0.0
 10
-4.1904428614
 20
5.7031426691
 30
0.0
 10
-4.2148417387
 20
5.7023174412
 30
0.0
 10
-4.2431159233
 20
5.7016404436
 30
0.0
 10
-4.2744468533
 20
5.7011393528
 30
0.0
 10
-4.3078272108
 20
5.7008329315
 30
0.0
 10
-4.3306267764
 20
5.7007648586
 30
0.0
 10
-4.3421162789
 20
5.7007648586
 30
0.0
 11
-4.1541873099
 21
5.705358978
 31
0.0
 11
-4.1687902025
 21
5.7042636539
 31
0.0
 11
-4.1889009942
 21
5.7032593966
 31
0.0
 11
-4.213658235
 21
5.7023955136
 31
0.0
 11
-4.2419774691
 21
5.7017030993
 31
0.0
 11
-4.2737194118
 21
5.7011858391
 31
0.0
 11
-4.3076479297
 21
5.7008693285
 31
0.0
 11
-4.3421162789
 21
5.7007648586
 31
0.0
  0
SPLINE
  5
5A9
100
AcDbEntity
  8
RACCORDO
100
AcDbSpline
 62
7
  6
CONTINUOUS
 70
0
 71
3
 72
14
 73
10
 74
8
 42
0.0000001
 43
0.0000001
 44
0.0000000001
 12
0.1880504183
 22
0.0
 32
0.0
 13
0.1871908232
 23
-0.0179598313
 33
0.0
 40
0.0
 40
0.0
 40
0.0
 40
0.0
 40
0.1832425357
 40
0.3636522946
 40
0.53247933
 40
0.6831485856
 40
0.8149281021
 40
0.9220655165
 40
1.0
 40
1.0
 40
1.0
 40
1.0
 10
-4.3474609218
 20
7.3281369619
 30
0.0
 10
-4.3359746433
 20
7.3281369619
 30
0.0
 10
-4.3131795895
 20
7.3280688786
 30
0.0
 10
-4.2798031319
 20
7.3277624021
 30
0.0
 10
-4.2484709733
 20
7.3272611473
 30
0.0
 10
-4.2201913138
 20
7.3265838393
 30
0.0
 10
-4.1957837849
 20
7.3257581274
 30
0.0
 10
-4.1759452527
 20
7.3248053954
 30
0.0
 10
-4.1643689176
 20
7.3240067135
 30
0.0
 10
-4.1595060442
 20
7.3235401501
 30
0.0
 11
-4.3474609218
 21
7.3281369619
 31
0.0
 11
-4.3130022446
 21
7.3280324905
 31
0.0
 11
-4.279077591
 21
7.3277159281
 31
0.0
 11
-4.2473338132
 21
7.3271984978
 31
0.0
 11
-4.2190088662
 21
7.3265057707
 31
0.0
 11
-4.1942427523
 21
7.3256413972
 31
0.0
 11
-4.1741205972
 21
7.3246364216
 31
0.0
 11
-4.1595060442
 21
7.3235401501
 31
0.0
  0
SPLINE
  5
5AA
100
AcDbEntity
  8
RACCORDO
100
AcDbSpline
 62
7
  6
CONTINUOUS
 70
0
 71
3
 72
14
 73
10
 74
8
 42
0.0000001
 43
0.0000001
 44
0.0000000001
 12
0.1871908232
 22
0.0179598313
 32
0.0
 13
0.1880504183
 23
0.0
 33
0.0
 40
0.0
 40
0.0
 40
0.0
 40
0.0
 40
0.0779344835
 40
0.1850718979
 40
0.3168514144
 40
0.46752067
 40
0.6363477055
 40
0.8167574643
 40
1.0
 40
1.0
 40
1.0
 40
1.0
 10
4.1810733433
 20
7.3235401501
 30
0.0
 10
4.1859362166
 20
7.3240067135
 30
0.0
 10
4.1975125517
 20
7.3248053954
 30
0.0
 10
4.2173510839
 20
7.3257581274
 30
0.0
 10
4.2417586129
 20
7.3265838393
 30
0.0
 10
4.2700382723
 20
7.3272611473
 30
0.0
 10
4.301370431
 20
7.3277624021
 30
0.0
 10
4.3347468886
 20
7.3280688786
 30
0.0
 10
4.3575419423
 20
7.3281369619
 30
0.0
 10
4.3690282208
 20
7.3281369619
 30
0.0
 11
4.1810733433
 21
7.3235401501
 31
0.0
 11
4.1956878962
 21
7.3246364216
 31
0.0
 11
4.2158100513
 21
7.3256413972
 31
0.0
 11
4.2405761652
 21
7.3265057707
 31
0.0
 11
4.2689011122
 21
7.3271984978
 31
0.0
 11
4.30064489
 21
7.3277159281
 31
0.0
 11
4.3345695437
 21
7.3280324905
 31
0.0
 11
4.3690282208
 21
7.3281369619
 31
0.0
  0
SPLINE
  5
5AB
100
AcDbEntity
  8
RACCORDO
100
AcDbSpline
 62
7
  6
CONTINUOUS
 70
0
 71
3
 72
14
 73
10
 74
8
 42
0.0000001
 43
0.0000001
 44
0.0000000001
 12
-0.188024429
 22
0.0
 32
0.0
 13
-0.187164952
 23
0.0179573555
 33
0.0
 40
0.0
 40
0.0
 40
0.0
 40
0.0
 40
0.1833193042
 40
0.363774548
 40
0.5326151459
 40
0.6832748122
 40
0.8150252905
 40
0.9221169628
 40
1.0
 40
1.0
 40
1.0
 40
1.0
 10
4.3636835779
 20
5.7007648586
 30
0.0
 10
4.3521940754
 20
5.7007648586
 30
0.0
 10
4.3293945098
 20
5.7008329315
 30
0.0
 10
4.2960141524
 20
5.7011393528
 30
0.0
 10
4.2646832223
 20
5.7016404436
 30
0.0
 10
4.2364090377
 20
5.7023174412
 30
0.0
 10
4.2120101604
 20
5.7031426691
 30
0.0
 10
4.1921822649
 20
5.7040947271
 30
0.0
 10
4.1806136006
 20
5.7048927869
 30
0.0
 10
4.175754609
 20
5.705358978
 30
0.0
 11
4.3636835779
 21
5.7007648586
 31
0.0
 11
4.3292152287
 21
5.7008693285
 31
0.0
 11
4.2952867109
 21
5.7011858391
 31
0.0
 11
4.2635447682
 21
5.7017030993
 31
0.0
 11
4.235225534
 21
5.7023955136
 31
0.0
 11
4.2104682932
 21
5.7032593966
 31
0.0
 11
4.1903575015
 21
5.7042636539
 31
0.0
 11
4.175754609
 21
5.705358978
 31
0.0
  0
SPLINE
  5
5AC
100
AcDbEntity
  8
RACCORDO
100
AcDbSpline
 62
253
  6
CONTINUOUS
 70
0
 71
3
 72
15
 73
11
 74
9
 42
0.0000001
 43
0.0000001
 44
0.0000000001
 12
0.2881576673
 22
0.0038542516
 32
0.0
 13
0.0214951096
 23
0.2873806826
 33
0.0
 40
0.0
 40
0.0
 40
0.0
 40
0.0
 40
0.1661012139
 40
0.3273713521
 40
0.4790823685
 40
0.6171102583
 40
0.7383301595
 40
0.8411950579
 40
0.9267168348
 40
1.0
 40
1.0
 40
1.0
 40
1.0
 10
5.6512445736
 20
-7.046082666
 30
0.0
 10
5.6671990197
 20
-7.0458692674
 30
0.0
 10
5.69864255
 20
-7.0441844664
 30
0.0
 10
5.7442914473
 20
-7.0379346513
 30
0.0
 10
5.7865792143
 20
-7.0282077023
 30
0.0
 10
5.8239983102
 20
-7.0153593505
 30
0.0
 10
5.8552735469
 20
-6.9998446326
 30
0.0
 10
5.8793907575
 20
-6.9820982482
 30
0.0
 10
5.8956427931
 20
-6.9624532679
 30
0.0
 10
5.9005672038
 20
-6.9474481559
 30
0.0
 10
5.9010922803
 20
-6.9404281006
 30
0.0
 11
5.6512445736
 21
-7.046082666
 31
0.0
 11
5.69904214
 21
-7.0434939113
 31
0.0
 11
5.7450758491
 21
-7.0371018145
 31
0.0
 11
5.7876469493
 21
-7.0271422688
 31
0.0
 11
5.8251844846
 21
-7.0139828155
 31
0.0
 11
5.856303267
 21
-6.9981090766
 31
0.0
 11
5.8798549871
 21
-6.9801068302
 31
0.0
 11
5.8949705792
 21
-6.9606403919
 31
0.0
 11
5.9010922803
 21
-6.9404281006
 31
0.0
  0
SPLINE
  5
5AD
100
AcDbEntity
  8
RACCORDO
100
AcDbSpline
 62
253
  6
CONTINUOUS
 70
0
 71
3
 72
14
 73
10
 74
8
 42
0.0000001
 43
0.0000001
 44
0.0000000001
 12
0.2004260331
 22
0.0001424279
 32
0.0
 13
0.0795097631
 23
0.183980468
 33
0.0
 40
0.0
 40
0.0
 40
0.0
 40
0.0
 40
0.219626445
 40
0.4285016891
 40
0.6164034558
 40
0.7741463891
 40
0.8940461608
 40
0.9703499162
 40
1.0
 40
1.0
 40
1.0
 40
1.0
 10
9.6480169526
 20
-9.1010670352
 30
0.0
 10
9.6626899049
 20
-9.1010566082
 30
0.0
 10
9.6913285047
 20
-9.1009185513
 30
0.0
 10
9.7324606087
 20
-9.1002971454
 30
0.0
 10
9.7696378757
 20
-9.0994771129
 30
0.0
 10
9.8003161814
 20
-9.0979852959
 30
0.0
 10
9.8249155618
 20
-9.0973143824
 30
0.0
 10
9.8380549367
 20
-9.0945137377
 30
0.0
 10
9.8472006679
 20
-9.0948150651
 30
0.0
 10
9.8479864916
 20
-9.0929967197
 30
0.0
 11
9.6480169526
 21
-9.1010670352
 31
0.0
 11
9.6920352243
 21
-9.1008378733
 31
0.0
 11
9.733894774
 21
-9.1002242445
 31
0.0
 11
9.7715427467
 21
-9.099256242
 31
0.0
 11
9.8031328294
 21
-9.0979813381
 31
0.0
 11
9.8271157973
 21
-9.0964620561
 31
0.0
 11
9.8423154898
 21
-9.0947729038
 31
0.0
 11
9.8479864916
 21
-9.0929967197
 31
0.0
  0
SPLINE
  5
5AE
100
AcDbEntity
  8
RACCORDO
100
AcDbSpline
 62
253
  6
CONTINUOUS
 70
0
 71
3
 72
15
 73
11
 74
9
 42
0.0000001
 43
0.0000001
 44
0.0000000001
 12
-0.0006690231
 22
-0.3122541311
 32
0.0
 13
-0.3122541518
 23
-0.0006592875
 33
0.0
 40
0.0
 40
0.0
 40
0.0
 40
0.0
 40
0.1239311267
 40
0.2485008945
 40
0.3733674625
 40
0.4983911403
 40
0.623641287
 40
0.7490227936
 40
0.8745020714
 40
1.0
 40
1.0
 40
1.0
 40
1.0
 10
9.8479864916
 20
-9.0929967197
 30
0.0
 10
9.847958854
 20
-9.1058960551
 30
0.0
 10
9.8453469471
 20
-9.1318271727
 30
0.0
 10
9.8338882039
 20
-9.1692131287
 30
0.0
 10
9.8152817541
 20
-9.2037507264
 30
0.0
 10
9.7902500591
 20
-9.2340435696
 30
0.0
 10
9.7597633711
 20
-9.2589222883
 30
0.0
 10
9.724983418
 20
-9.2774335031
 30
0.0
 10
9.687268005
 20
-9.2888664491
 30
0.0
 10
9.661079369
 20
-9.2914783703
 30
0.0
 10
9.6480169526
 20
-9.29150595
 30
0.0
 11
9.8479864916
 21
-9.0929967197
 31
0.0
 11
9.8441064328
 21
-9.1314998067
 31
0.0
 11
9.8327154019
 21
-9.1686920236
 31
0.0
 11
9.8142265251
 21
-9.2030198031
 31
0.0
 11
9.7893639531
 21
-9.2331182336
 31
0.0
 11
9.7590657014
 21
-9.2578488894
 31
0.0
 11
9.7245075
 21
-9.2762480799
 31
0.0
 11
9.6870104445
 21
-9.2876130158
 31
0.0
 11
9.6480169526
 21
-9.29150595
 31
0.0
  0
SPLINE
  5
5AF
100
AcDbEntity
  8
RACCORDO
100
AcDbSpline
 62
253
  6
CONTINUOUS
 70
0
 71
3
 72
15
 73
11
 74
9
 42
0.0000001
 43
0.0000001
 44
0.0000000001
 12
-0.3882348025
 22
-0.0023184634
 32
0.0
 13
-0.0023876319
 23
-0.3882343833
 33
0.0
 40
0.0
 40
0.0
 40
0.0
 40
0.0
 40
0.125729459
 40
0.2514564959
 40
0.3770353051
 40
0.5023420228
 40
0.6272932526
 40
0.7518588458
 40
0.8760669051
 40
1.0
 40
1.0
 40
1.0
 40
1.0
 10
5.5690434736
 20
-6.341849017
 30
0.0
 10
5.552772623
 20
-6.3419461833
 30
0.0
 10
5.5201636513
 20
-6.3452916842
 30
0.0
 10
5.4731999454
 20
-6.3595542861
 30
0.0
 10
5.4298647071
 20
-6.3825225407
 30
0.0
 10
5.3918309795
 20
-6.4133265032
 30
0.0
 10
5.3605432834
 20
-6.4507961671
 30
0.0
 10
5.3372003573
 20
-6.4935145147
 30
0.0
 10
5.3226983252
 20
-6.5398299865
 30
0.0
 10
5.3192944024
 20
-6.5720125923
 30
0.0
 10
5.3191957668
 20
-6.5880509552
 30
0.0
 11
5.5690434736
 21
-6.341849017
 31
0.0
 11
5.5204851997
 21
-6.3468334134
 31
0.0
 11
5.4737787023
 21
-6.3610165538
 31
0.0
 11
5.4307051295
 21
-6.3838575449
 31
0.0
 11
5.3929070713
 21
-6.4144853234
 31
0.0
 11
5.3618259189
 21
-6.451731885
 31
0.0
 11
5.3386469031
 21
-6.4941768351
 31
0.0
 11
5.3242539062
 21
-6.5402015608
 31
0.0
 11
5.3191957668
 21
-6.5880509552
 31
0.0
  0
SPLINE
  5
5B0
100
AcDbEntity
  8
RACCORDO
100
AcDbSpline
 62
253
  6
CONTINUOUS
 70
0
 71
3
 72
14
 73
10
 74
8
 42
0.0000001
 43
0.0000001
 44
0.0000000001
 12
0.0619574506
 22
-0.1906092583
 32
0.0
 13
0.2004085935
 23
-0.0026477693
 33
0.0
 40
0.0
 40
0.0
 40
0.0
 40
0.0
 40
0.0296500838
 40
0.1059538392
 40
0.2258536109
 40
0.3835965442
 40
0.5714983109
 40
0.780373555
 40
1.0
 40
1.0
 40
1.0
 40
1.0
 10
-9.8264191926
 20
-9.0929967197
 30
0.0
 10
-9.8258068447
 20
-9.0948805799
 30
0.0
 10
-9.816275043
 20
-9.0944334402
 30
0.0
 10
-9.8034722878
 20
-9.0973613332
 30
0.0
 10
-9.77869614
 20
-9.0979646251
 30
0.0
 10
-9.7480896154
 20
-9.0994883469
 30
0.0
 10
-9.7108870162
 20
-9.1002757696
 30
0.0
 10
-9.6697637113
 20
-9.1010004548
 30
0.0
 10
-9.6411213292
 20
-9.1008731952
 30
0.0
 10
-9.6264496535
 20
-9.1010670352
 30
0.0
 11
-9.8264191926
 21
-9.0929967197
 31
0.0
 11
-9.8207481908
 21
-9.0947729038
 31
0.0
 11
-9.8055484982
 21
-9.0964620561
 31
0.0
 11
-9.7815655304
 21
-9.0979813381
 31
0.0
 11
-9.7499754477
 21
-9.099256242
 31
0.0
 11
-9.712327475
 21
-9.1002242445
 31
0.0
 11
-9.6704679253
 21
-9.1008378733
 31
0.0
 11
-9.6264496535
 21
-9.1010670352
 31
0.0
  0
SPLINE
  5
5B1
100
AcDbEntity
  8
RACCORDO
100
AcDbSpline
 62
253
  6
CONTINUOUS
 70
0
 71
3
 72
15
 73
11
 74
9
 42
0.0000001
 43
0.0000001
 44
0.0000000001
 12
-0.3122541466
 22
0.0006592875
 32
0.0
 13
-0.0006690231
 23
0.3122541259
 33
0.0
 40
0.0
 40
0.0
 40
0.0
 40
0.0
 40
0.1253892911
 40
0.2507579262
 40
0.376037153
 40
0.5011716683
 40
0.6261279947
 40
0.7508996291
 40
0.8755081425
 40
1.0
 40
1.0
 40
1.0
 40
1.0
 10
-9.6264496535
 20
-9.29150595
 30
0.0
 10
-9.6395007622
 20
-9.2914783942
 30
0.0
 10
-9.6656664002
 20
-9.2888709928
 30
0.0
 10
-9.7033520971
 20
-9.27745757
 30
0.0
 10
-9.738109109
 20
-9.258977373
 30
0.0
 10
-9.7685870277
 20
-9.2341359625
 30
0.0
 10
-9.793622434
 20
-9.2038842992
 30
0.0
 10
-9.8122526397
 20
-9.1693746621
 30
0.0
 10
-9.8237614108
 20
-9.1319488771
 30
0.0
 10
-9.8263914299
 20
-9.1059544184
 30
0.0
 10
-9.8264191926
 20
-9.0929967197
 30
0.0
 11
-9.6264496535
 21
-9.29150595
 31
0.0
 11
-9.6654097188
 21
-9.2876196806
 31
0.0
 11
-9.7028766095
 21
-9.2762743357
 31
0.0
 11
-9.7374143779
 21
-9.2579047343
 31
0.0
 11
-9.7676993375
 21
-9.2332149058
 31
0.0
 11
-9.7925707937
 21
-9.2031511069
 31
0.0
 11
-9.8110755287
 21
-9.1688655559
 31
0.0
 11
-9.8225043343
 21
-9.131672273
 31
0.0
 11
-9.8264191926
 21
-9.0929967197
 31
0.0
  0
SPLINE
  5
5B2
100
AcDbEntity
  8
RACCORDO
100
AcDbSpline
 62
253
  6
CONTINUOUS
 70
0
 71
3
 72
13
 73
9
 74
7
 42
0.0000001
 43
0.0000001
 44
0.0000000001
 12
0.0000009478
 22
-0.3537064006
 32
0.0
 13
0.0197326764
 23
-0.3531555455
 33
0.0
 40
0.0
 40
0.0
 40
0.0
 40
0.0
 40
0.1807365394
 40
0.3628821371
 40
0.5409121621
 40
0.7094442518
 40
0.8637208192
 40
1.0
 40
1.0
 40
1.0
 40
1.0
 10
7.0779767145
 20
8.0213121588
 30
0.0
 10
7.0779767716
 20
8.0000029352
 30
0.0
 10
7.0781288635
 20
7.9572181978
 30
0.0
 10
7.0788223004
 20
7.893446685
 30
0.0
 10
7.0799885399
 20
7.8311211323
 30
0.0
 10
7.0816014955
 20
7.7720923662
 30
0.0
 10
7.0836062814
 20
7.7180011882
 30
0.0
 10
7.0852631981
 20
7.6837830327
 30
0.0
 10
7.0861595825
 20
7.6677404499
 30
0.0
 11
7.0779767145
 21
8.0213121588
 31
0.0
 11
7.0782059449
 21
7.957384899
 31
0.0
 11
7.0789126758
 21
7.8929627116
 31
0.0
 11
7.0801022878
 21
7.8300035901
 31
0.0
 11
7.0817482724
 21
7.7704154402
 31
0.0
 11
7.0837942886
 21
7.7158852014
 31
0.0
 11
7.0861595825
 21
7.6677404499
 31
0.0
  0
SPLINE
  5
5B3
100
AcDbEntity
  8
RACCORDO
100
AcDbSpline
 62
253
  6
CONTINUOUS
 70
0
 71
3
 72
13
 73
9
 74
7
 42
0.0000001
 43
0.0000001
 44
0.0000000001
 12
0.0197326329
 22
0.3531555552
 32
0.0
 13
0.0000009482
 23
0.3537064079
 33
0.0
 40
0.0
 40
0.0
 40
0.0
 40
0.0
 40
0.1362791858
 40
0.2905557542
 40
0.4590878453
 40
0.6371178717
 40
0.8192634707
 40
1.0
 40
1.0
 40
1.0
 40
1.0
 10
7.2354077164
 20
7.6677404465
 30
0.0
 10
7.2363040988
 20
7.6837830303
 30
0.0
 10
7.2379610195
 20
7.718001187
 30
0.0
 10
7.2399658025
 20
7.7720923671
 30
0.0
 10
7.2415787598
 20
7.8311211348
 30
0.0
 10
7.2427449983
 20
7.8934466893
 30
0.0
 10
7.2434384357
 20
7.9572182026
 30
0.0
 10
7.2435905274
 20
8.0000029398
 30
0.0
 10
7.2435905845
 20
8.0213121626
 30
0.0
 11
7.2354077164
 21
7.6677404465
 31
0.0
 11
7.2377730107
 21
7.7158852007
 31
0.0
 11
7.2398190263
 21
7.770415441
 31
0.0
 11
7.2414650115
 21
7.8300035926
 31
0.0
 11
7.2426546232
 21
7.8929627159
 31
0.0
 11
7.2433613542
 21
7.957384905
 31
0.0
 11
7.2435905845
 21
8.0213121626
 31
0.0
  0
SPLINE
  5
5B4
100
AcDbEntity
  8
RACCORDO
100
AcDbSpline
 62
253
  6
CONTINUOUS
 70
0
 71
3
 72
13
 73
9
 74
7
 42
0.0000001
 43
0.0000001
 44
0.0000000001
 12
0.0000009478
 22
-0.3537064006
 32
0.0
 13
0.0197326764
 23
-0.3531555455
 33
0.0
 40
0.0
 40
0.0
 40
0.0
 40
0.0
 40
0.1807365394
 40
0.3628821371
 40
0.5409121621
 40
0.7094442518
 40
0.8637208192
 40
1.0
 40
1.0
 40
1.0
 40
1.0
 10
-7.2220232855
 20
8.0213121588
 30
0.0
 10
-7.2220232284
 20
8.0000029352
 30
0.0
 10
-7.2218711365
 20
7.9572181978
 30
0.0
 10
-7.2211776996
 20
7.893446685
 30
0.0
 10
-7.2200114601
 20
7.8311211323
 30
0.0
 10
-7.2183985045
 20
7.7720923662
 30
0.0
 10
-7.2163937186
 20
7.7180011882
 30
0.0
 10
-7.2147368019
 20
7.6837830327
 30
0.0
 10
-7.2138404175
 20
7.6677404499
 30
0.0
 11
-7.2220232855
 21
8.0213121588
 31
0.0
 11
-7.2217940551
 21
7.957384899
 31
0.0
 11
-7.2210873242
 21
7.8929627116
 31
0.0
 11
-7.2198977122
 21
7.8300035901
 31
0.0
 11
-7.2182517276
 21
7.7704154402
 31
0.0
 11
-7.2162057114
 21
7.7158852014
 31
0.0
 11
-7.2138404175
 21
7.6677404499
 31
0.0
  0
SPLINE
  5
5B5
100
AcDbEntity
  8
RACCORDO
100
AcDbSpline
 62
253
  6
CONTINUOUS
 70
0
 71
3
 72
13
 73
9
 74
7
 42
0.0000001
 43
0.0000001
 44
0.0000000001
 12
0.0197326329
 22
0.3531555552
 32
0.0
 13
0.0000009482
 23
0.3537064079
 33
0.0
 40
0.0
 40
0.0
 40
0.0
 40
0.0
 40
0.1362791858
 40
0.2905557542
 40
0.4590878453
 40
0.6371178717
 40
0.8192634707
 40
1.0
 40
1.0
 40
1.0
 40
1.0
 10
-7.0645922836
 20
7.6677404465
 30
0.0
 10
-7.0636959012
 20
7.6837830303
 30
0.0
 10
-7.0620389805
 20
7.718001187
 30
0.0
 10
-7.0600341975
 20
7.7720923671
 30
0.0
 10
-7.0584212402
 20
7.8311211348
 30
0.0
 10
-7.0572550017
 20
7.8934466893
 30
0.0
 10
-7.0565615643
 20
7.9572182026
 30
0.0
 10
-7.0564094726
 20
8.0000029398
 30
0.0
 10
-7.0564094155
 20
8.0213121626
 30
0.0
 11
-7.0645922836
 21
7.6677404465
 31
0.0
 11
-7.0622269893
 21
7.7158852007
 31
0.0
 11
-7.0601809737
 21
7.770415441
 31
0.0
 11
-7.0585349885
 21
7.8300035926
 31
0.0
 11
-7.0573453768
 21
7.8929627159
 31
0.0
 11
-7.0566386458
 21
7.957384905
 31
0.0
 11
-7.0564094155
 21
8.0213121626
 31
0.0
  0
SPLINE
  5
5B6
100
AcDbEntity
  8
RACCORDO
100
AcDbSpline
 62
253
  6
CONTINUOUS
 70
0
 71
3
 72
13
 73
9
 74
7
 42
0.0000001
 43
0.0000001
 44
0.0000000001
 12
0.0049371296
 22
-0.3535273384
 32
0.0
 13
0.000000663
 23
-0.3535618111
 33
0.0
 40
0.0
 40
0.0
 40
0.0
 40
0.0
 40
0.1390722399
 40
0.2928914527
 40
0.4588232532
 40
0.6340132458
 40
0.8154446221
 40
1.0
 40
1.0
 40
1.0
 40
1.0
 10
7.107359835
 20
7.0606410231
 30
0.0
 10
7.1075887075
 20
7.0442524102
 30
0.0
 10
7.1080052808
 20
7.0097364405
 30
0.0
 10
7.1085037262
 20
6.9556645574
 30
0.0
 10
7.1089014577
 20
6.8973351165
 30
0.0
 10
7.1091907035
 20
6.8357508056
 30
0.0
 10
7.1093663202
 20
6.7719712009
 30
0.0
 10
7.1094054055
 20
6.7288382104
 30
0.0
 10
7.1094054463
 20
6.7070876325
 30
0.0
 11
7.107359835
 21
7.0606410231
 31
0.0
 11
7.1079621239
 21
7.0114740789
 31
0.0
 11
7.1084696443
 21
6.9570918476
 31
0.0
 11
7.1088738337
 21
6.8984260921
 31
0.0
 11
7.1091675393
 21
6.8364862974
 31
0.0
 11
7.1093457249
 21
6.7723393389
 31
0.0
 11
7.1094054463
 21
6.7070876325
 31
0.0
  0
SPLINE
  5
5B7
100
AcDbEntity
  8
RACCORDO
100
AcDbSpline
 62
253
  6
CONTINUOUS
 70
0
 71
3
 72
13
 73
9
 74
7
 42
0.0000001
 43
0.0000001
 44
0.0000000001
 12
0.000000663
 22
0.3535618111
 32
0.0
 13
0.0049371293
 23
0.3535273384
 33
0.0
 40
0.0
 40
0.0
 40
0.0
 40
0.0
 40
0.184555379
 40
0.3659867553
 40
0.5411767479
 40
0.7071085483
 40
0.8609277611
 40
1.0
 40
1.0
 40
1.0
 40
1.0
 10
7.2121618527
 20
6.7070876325
 30
0.0
 10
7.2121618935
 20
6.7288382105
 30
0.0
 10
7.2122009788
 20
6.7719712012
 30
0.0
 10
7.2123765955
 20
6.835750806
 30
0.0
 10
7.2126658413
 20
6.8973351169
 30
0.0
 10
7.2130635728
 20
6.9556645578
 30
0.0
 10
7.2135620182
 20
7.0097364407
 30
0.0
 10
7.2139785915
 20
7.0442524103
 30
0.0
 10
7.2142074641
 20
7.0606410231
 30
0.0
 11
7.2121618527
 21
6.7070876325
 31
0.0
 11
7.2122215741
 21
6.7723393392
 31
0.0
 11
7.2123997598
 21
6.8364862977
 31
0.0
 11
7.2126934653
 21
6.8984260925
 31
0.0
 11
7.2130976547
 21
6.957091848
 31
0.0
 11
7.2136051752
 21
7.0114740793
 31
0.0
 11
7.2142074641
 21
7.0606410231
 31
0.0
  0
SPLINE
  5
5B8
100
AcDbEntity
  8
RACCORDO
100
AcDbSpline
 62
253
  6
CONTINUOUS
 70
0
 71
3
 72
17
 73
13
 74
11
 42
0.0000001
 43
0.0000001
 44
0.0000000001
 12
-0.000001509
 22
-0.4998432663
 32
0.0
 13
-0.185506915
 23
-0.4641448862
 33
0.0
 40
0.0
 40
0.0
 40
0.0
 40
0.0
 40
0.1530153495
 40
0.3024422212
 40
0.4447665503
 40
0.5766197167
 40
0.6949031276
 40
0.7968310081
 40
0.8800040106
 40
0.9424699896
 40
0.9827635986
 40
1.0
 40
1.0
 40
1.0
 40
1.0
 10
7.1094054628
 20
5.355969426
 30
0.0
 10
7.1094053859
 20
5.3304748619
 30
0.0
 10
7.1093518623
 20
5.2800836535
 30
0.0
 10
7.1091126976
 20
5.2059792659
 30
0.0
 10
7.1087178932
 20
5.1354023514
 30
0.0
 10
7.108188174
 20
5.0700126252
 30
0.0
 10
7.1075038381
 20
5.0113641716
 30
0.0
 10
7.1067869629
 20
4.9608011525
 30
0.0
 10
7.1057665202
 20
4.9196181356
 30
0.0
 10
7.1052423163
 20
4.8885147253
 30
0.0
 10
7.1035892404
 20
4.8688071088
 30
0.0
 10
7.1037306501
 20
4.8589247538
 30
0.0
 10
7.1026648262
 20
4.8562580246
 30
0.0
 11
7.1094054628
 21
5.355969426
 31
0.0
 11
7.1093232989
 21
5.279485778
 31
0.0
 11
7.1090787031
 21
5.2047961629
 31
0.0
 11
7.1086772725
 21
5.133657438
 31
0.0
 11
7.1081285707
 21
5.0677538047
 31
0.0
 11
7.1074454163
 21
5.0086345853
 31
0.0
 11
7.1066439201
 21
4.9576929254
 31
0.0
 11
7.1057430391
 21
4.9161292222
 31
0.0
 11
7.1047637535
 21
4.8849213841
 31
0.0
 11
7.1037297507
 21
4.8648074551
 31
0.0
 11
7.1026648262
 21
4.8562580246
 31
0.0
  0
SPLINE
  5
5B9
100
AcDbEntity
  8
RACCORDO
100
AcDbSpline
 62
253
  6
CONTINUOUS
 70
0
 71
3
 72
17
 73
13
 74
11
 42
0.0000001
 43
0.0000001
 44
0.0000000001
 12
-0.1855069271
 22
0.4641448815
 32
0.0
 13
-0.000001509
 23
0.4998432665
 33
0.0
 40
0.0
 40
0.0
 40
0.0
 40
0.0
 40
0.0172364015
 40
0.0575300106
 40
0.1199959897
 40
0.2031689922
 40
0.3050968727
 40
0.4233802836
 40
0.5552334501
 40
0.6975577792
 40
0.8469846509
 40
1.0
 40
1.0
 40
1.0
 40
1.0
 10
7.2189024728
 20
4.8562580246
 30
0.0
 10
7.2178366489
 20
4.8589247538
 30
0.0
 10
7.2179780587
 20
4.8688071089
 30
0.0
 10
7.2163249827
 20
4.8885147254
 30
0.0
 10
7.2158007789
 20
4.9196181358
 30
0.0
 10
7.2147803361
 20
4.9608011527
 30
0.0
 10
7.2140634609
 20
5.0113641718
 30
0.0
 10
7.213379125
 20
5.0700126255
 30
0.0
 10
7.2128494058
 20
5.1354023516
 30
0.0
 10
7.2124546014
 20
5.2059792662
 30
0.0
 10
7.2122154367
 20
5.2800836538
 30
0.0
 10
7.2121619132
 20
5.3304748621
 30
0.0
 10
7.2121618362
 20
5.3559694261
 30
0.0
 11
7.2189024728
 21
4.8562580246
 31
0.0
 11
7.2178375483
 21
4.8648074551
 31
0.0
 11
7.2168035455
 21
4.8849213842
 31
0.0
 11
7.21582426
 21
4.9161292223
 31
0.0
 11
7.2149233789
 21
4.9576929255
 31
0.0
 11
7.2141218827
 21
5.0086345855
 31
0.0
 11
7.2134387284
 21
5.067753805
 31
0.0
 11
7.2128900266
 21
5.1336574382
 31
0.0
 11
7.2124885959
 21
5.2047961632
 31
0.0
 11
7.2122440001
 21
5.2794857783
 31
0.0
 11
7.2121618362
 21
5.3559694261
 31
0.0
  0
SPLINE
  5
5BA
100
AcDbEntity
  8
RACCORDO
100
AcDbSpline
 62
253
  6
CONTINUOUS
 70
0
 71
3
 72
17
 73
13
 74
11
 42
0.0000001
 43
0.0000001
 44
0.0000000001
 12
-0.000001509
 22
-0.4998432663
 32
0.0
 13
-0.185506915
 23
-0.4641448862
 33
0.0
 40
0.0
 40
0.0
 40
0.0
 40
0.0
 40
0.1530153495
 40
0.3024422212
 40
0.4447665503
 40
0.5766197167
 40
0.6949031276
 40
0.7968310081
 40
0.8800040106
 40
0.9424699896
 40
0.9827635986
 40
1.0
 40
1.0
 40
1.0
 40
1.0
 10
-7.1905945372
 20
5.355969426
 30
0.0
 10
-7.1905946141
 20
5.3304748619
 30
0.0
 10
-7.1906481377
 20
5.2800836535
 30
0.0
 10
-7.1908873024
 20
5.2059792659
 30
0.0
 10
-7.1912821068
 20
5.1354023514
 30
0.0
 10
-7.191811826
 20
5.0700126252
 30
0.0
 10
-7.1924961619
 20
5.0113641716
 30
0.0
 10
-7.1932130371
 20
4.9608011525
 30
0.0
 10
-7.1942334798
 20
4.9196181356
 30
0.0
 10
-7.1947576837
 20
4.8885147253
 30
0.0
 10
-7.1964107596
 20
4.8688071088
 30
0.0
 10
-7.1962693499
 20
4.8589247538
 30
0.0
 10
-7.1973351738
 20
4.8562580246
 30
0.0
 11
-7.1905945372
 21
5.355969426
 31
0.0
 11
-7.1906767011
 21
5.279485778
 31
0.0
 11
-7.1909212969
 21
5.2047961629
 31
0.0
 11
-7.1913227275
 21
5.133657438
 31
0.0
 11
-7.1918714293
 21
5.0677538047
 31
0.0
 11
-7.1925545837
 21
5.0086345853
 31
0.0
 11
-7.1933560799
 21
4.9576929254
 31
0.0
 11
-7.1942569609
 21
4.9161292222
 31
0.0
 11
-7.1952362465
 21
4.8849213841
 31
0.0
 11
-7.1962702493
 21
4.8648074551
 31
0.0
 11
-7.1973351738
 21
4.8562580246
 31
0.0
  0
SPLINE
  5
5BB
100
AcDbEntity
  8
RACCORDO
100
AcDbSpline
 62
253
  6
CONTINUOUS
 70
0
 71
3
 72
17
 73
13
 74
11
 42
0.0000001
 43
0.0000001
 44
0.0000000001
 12
-0.1855069271
 22
0.4641448815
 32
0.0
 13
-0.000001509
 23
0.4998432665
 33
0.0
 40
0.0
 40
0.0
 40
0.0
 40
0.0
 40
0.0172364015
 40
0.0575300106
 40
0.1199959897
 40
0.2031689922
 40
0.3050968727
 40
0.4233802836
 40
0.5552334501
 40
0.6975577792
 40
0.8469846509
 40
1.0
 40
1.0
 40
1.0
 40
1.0
 10
-7.0810975272
 20
4.8562580246
 30
0.0
 10
-7.0821633511
 20
4.8589247538
 30
0.0
 10
-7.0820219413
 20
4.8688071089
 30
0.0
 10
-7.0836750173
 20
4.8885147254
 30
0.0
 10
-7.0841992211
 20
4.9196181358
 30
0.0
 10
-7.0852196639
 20
4.9608011527
 30
0.0
 10
-7.0859365391
 20
5.0113641718
 30
0.0
 10
-7.086620875
 20
5.0700126255
 30
0.0
 10
-7.0871505942
 20
5.1354023516
 30
0.0
 10
-7.0875453986
 20
5.2059792662
 30
0.0
 10
-7.0877845633
 20
5.2800836538
 30
0.0
 10
-7.0878380868
 20
5.3304748621
 30
0.0
 10
-7.0878381638
 20
5.3559694261
 30
0.0
 11
-7.0810975272
 21
4.8562580246
 31
0.0
 11
-7.0821624517
 21
4.8648074551
 31
0.0
 11
-7.0831964545
 21
4.8849213842
 31
0.0
 11
-7.08417574
 21
4.9161292223
 31
0.0
 11
-7.0850766211
 21
4.9576929255
 31
0.0
 11
-7.0858781173
 21
5.0086345855
 31
0.0
 11
-7.0865612716
 21
5.067753805
 31
0.0
 11
-7.0871099734
 21
5.1336574382
 31
0.0
 11
-7.0875114041
 21
5.2047961632
 31
0.0
 11
-7.0877559999
 21
5.2794857783
 31
0.0
 11
-7.0878381638
 21
5.3559694261
 31
0.0
  0
SPLINE
  5
5BC
100
AcDbEntity
  8
RACCORDO
100
AcDbSpline
 62
253
  6
CONTINUOUS
 70
0
 71
3
 72
13
 73
9
 74
7
 42
0.0000001
 43
0.0000001
 44
0.0000000001
 12
0.0049371296
 22
-0.3535273384
 32
0.0
 13
0.000000663
 23
-0.3535618111
 33
0.0
 40
0.0
 40
0.0
 40
0.0
 40
0.0
 40
0.1390722399
 40
0.2928914527
 40
0.4588232532
 40
0.6340132458
 40
0.8154446221
 40
1.0
 40
1.0
 40
1.0
 40
1.0
 10
-7.192640165
 20
7.0606410231
 30
0.0
 10
-7.1924112925
 20
7.0442524102
 30
0.0
 10
-7.1919947192
 20
7.0097364405
 30
0.0
 10
-7.1914962738
 20
6.9556645574
 30
0.0
 10
-7.1910985423
 20
6.8973351165
 30
0.0
 10
-7.1908092965
 20
6.8357508056
 30
0.0
 10
-7.1906336798
 20
6.7719712009
 30
0.0
 10
-7.1905945945
 20
6.7288382104
 30
0.0
 10
-7.1905945537
 20
6.7070876325
 30
0.0
 11
-7.192640165
 21
7.0606410231
 31
0.0
 11
-7.1920378761
 21
7.0114740789
 31
0.0
 11
-7.1915303557
 21
6.9570918476
 31
0.0
 11
-7.1911261663
 21
6.8984260921
 31
0.0
 11
-7.1908324607
 21
6.8364862974
 31
0.0
 11
-7.1906542751
 21
6.7723393389
 31
0.0
 11
-7.1905945537
 21
6.7070876325
 31
0.0
  0
SPLINE
  5
5BD
100
AcDbEntity
  8
RACCORDO
100
AcDbSpline
 62
253
  6
CONTINUOUS
 70
0
 71
3
 72
13
 73
9
 74
7
 42
0.0000001
 43
0.0000001
 44
0.0000000001
 12
0.000000663
 22
0.3535618111
 32
0.0
 13
0.0049371293
 23
0.3535273384
 33
0.0
 40
0.0
 40
0.0
 40
0.0
 40
0.0
 40
0.184555379
 40
0.3659867553
 40
0.5411767479
 40
0.7071085483
 40
0.8609277611
 40
1.0
 40
1.0
 40
1.0
 40
1.0
 10
-7.0878381473
 20
6.7070876325
 30
0.0
 10
-7.0878381065
 20
6.7288382105
 30
0.0
 10
-7.0877990212
 20
6.7719712012
 30
0.0
 10
-7.0876234045
 20
6.835750806
 30
0.0
 10
-7.0873341587
 20
6.8973351169
 30
0.0
 10
-7.0869364272
 20
6.9556645578
 30
0.0
 10
-7.0864379818
 20
7.0097364407
 30
0.0
 10
-7.0860214085
 20
7.0442524103
 30
0.0
 10
-7.0857925359
 20
7.0606410231
 30
0.0
 11
-7.0878381473
 21
6.7070876325
 31
0.0
 11
-7.0877784259
 21
6.7723393392
 31
0.0
 11
-7.0876002402
 21
6.8364862977
 31
0.0
 11
-7.0873065347
 21
6.8984260925
 31
0.0
 11
-7.0869023453
 21
6.957091848
 31
0.0
 11
-7.0863948248
 21
7.0114740793
 31
0.0
 11
-7.0857925359
 21
7.0606410231
 31
0.0
  0
SPLINE
  5
5BE
100
AcDbEntity
  8
ASSI
100
AcDbSpline
 62
7
  6
CONTINUOUS
 70
0
 71
3
 72
10
 73
6
 74
4
 42
0.0000001
 43
0.0000001
 44
0.0000000001
 12
-0.0095948202
 22
0.4295727449
 32
0.0
 13
-0.4296447263
 23
-0.0065610381
 33
0.0
 40
0.0
 40
0.0
 40
0.0
 40
0.0
 40
0.4724875075
 40
0.7072006687
 40
1.0
 40
1.0
 40
1.0
 40
1.0
 10
-1.350544519
 20
-2.4251834419
 30
0.0
 10
-1.3520556632
 20
-2.3575275233
 30
0.0
 10
-1.3741973982
 20
-2.2468948489
 30
0.0
 10
-1.4947600969
 20
-2.1579707345
 30
0.0
 10
-1.572695292
 20
-2.1489116168
 30
0.0
 10
-1.6146285216
 20
-2.1495519727
 30
0.0
 11
-1.350544519
 21
-2.4251834419
 31
0.0
 11
-1.4098168956
 21
-2.2310102018
 31
0.0
 11
-1.4905954061
 21
-2.1706292266
 31
0.0
 11
-1.6146285216
 21
-2.1495519727
 31
0.0
  0
SPLINE
  5
5BF
100
AcDbEntity
  8
ASSI
100
AcDbSpline
 62
7
  6
CONTINUOUS
 70
0
 71
3
 72
9
 73
5
 74
3
 42
0.0000001
 43
0.0000001
 44
0.0000000001
 12
-0.3133068914
 22
-0.0047845217
 32
0.0
 13
-0.0361262538
 23
-0.3112658327
 33
0.0
 40
0.0
 40
0.0
 40
0.0
 40
0.0
 40
0.4987528619
 40
1.0
 40
1.0
 40
1.0
 40
1.0
 10
-1.6146285217
 20
-2.1495519649
 30
0.0
 10
-1.6667160913
 20
-2.1503473962
 30
0.0
 10
-1.7753539514
 20
-2.1927762311
 30
0.0
 10
-1.8211614526
 20
-2.2979903286
 30
0.0
 10
-1.8271975131
 20
-2.3499973645
 30
0.0
 11
-1.6146285217
 21
-2.1495519649
 31
0.0
 11
-1.7594536492
 21
-2.2082885133
 31
0.0
 11
-1.8271975131
 21
-2.3499973645
 31
0.0
  0
SPLINE
  5
5C0
100
AcDbEntity
  8
ASSI
100
AcDbSpline
 62
7
  6
CONTINUOUS
 70
0
 71
3
 72
9
 73
5
 74
3
 42
0.0000001
 43
0.0000001
 44
0.0000000001
 12
-0.0321345864
 22
-0.2768734101
 32
0.0
 13
0.0468836161
 23
-0.274760569
 33
0.0
 40
0.0
 40
0.0
 40
0.0
 40
0.0
 40
0.7295958324
 40
1.0
 40
1.0
 40
1.0
 40
1.0
 10
-1.827197513
 20
-2.3499973646
 30
0.0
 10
-1.8350125997
 20
-2.4173325933
 30
0.0
 10
-1.8353138477
 20
-2.5113252819
 30
0.0
 10
-1.8214158432
 20
-2.603198687
 30
0.0
 10
-1.8171900015
 20
-2.6279641547
 30
0.0
 11
-1.827197513
 21
-2.3499973646
 31
0.0
 11
-1.827893773
 21
-2.5533578251
 31
0.0
 11
-1.8171900015
 21
-2.6279641547
 31
0.0
  0
SPLINE
  5
5C1
100
AcDbEntity
  8
ASSI
100
AcDbSpline
 62
7
  6
CONTINUOUS
 70
0
 71
3
 72
10
 73
6
 74
4
 42
0.0000001
 43
0.0000001
 44
0.0000000001
 12
-0.1284599377
 22
0.8731819798
 32
0.0
 13
0.2998855628
 23
0.8300707046
 33
0.0
 40
0.0
 40
0.0
 40
0.0
 40
0.0
 40
0.4151262789
 40
0.7045762354
 40
1.0
 40
1.0
 40
1.0
 40
1.0
 10
-2.0869184327
 20
-2.9695989224
 30
0.0
 10
-2.1046941313
 20
-2.8487719937
 30
0.0
 10
-2.1272061253
 20
-2.6421505932
 30
0.0
 10
-2.1272613614
 20
-2.3478480081
 30
0.0
 10
-2.0985526252
 20
-2.1756784236
 30
0.0
 10
-2.0690215179
 20
-2.0939375528
 30
0.0
 11
-2.0869184327
 21
-2.9695989224
 31
0.0
 11
-2.1234203233
 21
-2.6050393094
 31
0.0
 11
-2.1202217995
 21
-2.349596383
 31
0.0
 11
-2.0690215179
 21
-2.0939375528
 31
0.0
  0
SPLINE
  5
5C2
100
AcDbEntity
  8
ASSI
100
AcDbSpline
 62
7
  6
CONTINUOUS
 70
0
 71
3
 72
23
 73
19
 74
17
 42
0.0000001
 43
0.0000001
 44
0.0000000001
 12
0.359969576
 22
0.9978268927
 32
0.0
 13
0.1357483736
 23
-1.0520498955
 33
0.0
 40
0.0
 40
0.0
 40
0.0
 40
0.0
 40
0.079828561
 40
0.1893471136
 40
0.252931641
 40
0.322277794
 40
0.3983621185
 40
0.4395068157
 40
0.4830801905
 40
0.5370931167
 40
0.5873706499
 40
0.6784900216
 40
0.7593486609
 40
0.8310612156
 40
0.8931649411
 40
0.9439081722
 40
0.9806071038
 40
1.0
 40
1.0
 40
1.0
 40
1.0
 10
-2.0690215179
 20
-2.0939375528
 30
0.0
 10
-2.0594429001
 20
-2.0673858578
 30
0.0
 10
-2.0267695299
 20
-2.0081008772
 30
0.0
 10
-1.9670454346
 20
-1.9403012382
 30
0.0
 10
-1.8982815686
 20
-1.8885960255
 30
0.0
 10
-1.8326919766
 20
-1.8538249405
 30
0.0
 10
-1.7696895109
 20
-1.8331061012
 30
0.0
 10
-1.7138141967
 20
-1.8222724419
 30
0.0
 10
-1.6649753246
 20
-1.8171171689
 30
0.0
 10
-1.6126131634
 20
-1.8161684832
 30
0.0
 10
-1.5436444796
 20
-1.8215599252
 30
0.0
 10
-1.4664484902
 20
-1.8389927186
 30
0.0
 10
-1.3871418869
 20
-1.8738511687
 30
0.0
 10
-1.3236440796
 20
-1.9161279467
 30
0.0
 10
-1.2754073064
 20
-1.9602536241
 30
0.0
 10
-1.2409107684
 20
-2.0008337172
 30
0.0
 10
-1.2211194198
 20
-2.0325925951
 30
0.0
 10
-1.2113187673
 20
-2.0505526387
 30
0.0
 10
-1.2104412493
 20
-2.0573534035
 30
0.0
 11
-2.0690215179
 21
-2.0939375528
 31
0.0
 11
-2.0297533094
 21
-2.0189129593
 31
0.0
 11
-1.9529082721
 21
-1.9317850036
 31
0.0
 11
-1.89899774
 21
-1.8912513477
 31
0.0
 11
-1.8340169574
 21
-1.8567747506
 31
0.0
 11
-1.7574072433
 21
-1.8313828454
 31
0.0
 11
-1.7145669491
 21
-1.8230397877
 31
0.0
 11
-1.6686099167
 21
-1.8181032653
 31
0.0
 11
-1.6113233911
 21
-1.8170958033
 31
0.0
 11
-1.5581597152
 21
-1.8213420719
 31
0.0
 11
-1.4639414394
 21
-1.8429166717
 31
0.0
 11
-1.3854361434
 21
-1.8774688052
 31
0.0
 11
-1.3221248811
 21
-1.9196402133
 31
0.0
 11
-1.2734869044
 21
-1.9640726517
 31
0.0
 11
-1.2390086737
 21
-2.0054078154
 31
0.0
 11
-1.218166197
 21
-2.0382874879
 31
0.0
 11
-1.2104412493
 21
-2.0573534035
 31
0.0
  0
SPLINE
  5
5C3
100
AcDbEntity
  8
ASSI
100
AcDbSpline
 62
7
  6
CONTINUOUS
 70
0
 71
3
 72
8
 73
4
 74
2
 42
0.0000001
 43
0.0000001
 44
0.0000000001
 12
0.0253486975
 22
0.0635704013
 32
0.0
 13
0.0439790954
 23
0.0534848382
 33
0.0
 40
0.0
 40
0.0
 40
0.0
 40
0.0
 40
1.0
 40
1.0
 40
1.0
 40
1.0
 10
-1.2003965421
 20
-2.0573534035
 30
0.0
 10
-1.1919469763
 20
-2.0361632698
 30
0.0
 10
-1.1797807732
 20
-2.0163142918
 30
0.0
 10
-1.1651210748
 20
-1.9984860124
 30
0.0
 11
-1.2003965421
 21
-2.0573534035
 31
0.0
 11
-1.1651210748
 21
-1.9984860124
 31
0.0
  0
SPLINE
  5
5C4
100
AcDbEntity
  8
ASSI
100
AcDbSpline
 62
7
  6
CONTINUOUS
 70
0
 71
3
 72
10
 73
6
 74
4
 42
0.0000001
 43
0.0000001
 44
0.0000000001
 12
0.2161007798
 22
0.2628092995
 32
0.0
 13
0.3244560378
 23
0.0883936536
 33
0.0
 40
0.0
 40
0.0
 40
0.0
 40
0.0
 40
0.0997774862
 40
0.4054370801
 40
1.0
 40
1.0
 40
1.0
 40
1.0
 10
-1.1651210748
 20
-1.9984860124
 30
0.0
 10
-1.1579337439
 20
-1.9897451953
 30
0.0
 10
-1.1262931735
 20
-1.9562013344
 30
0.0
 10
-1.0297137465
 20
-1.8965085227
 30
0.0
 10
-0.9312069579
 20
-1.870319638
 30
0.0
 10
-0.8669037815
 20
-1.8528011084
 30
0.0
 11
-1.1651210748
 21
-1.9984860124
 31
0.0
 11
-1.1419051239
 21
-1.9738008075
 31
0.0
 11
-1.0562827191
 21
-1.9169298632
 31
0.0
 11
-0.8669037815
 21
-1.8528011084
 31
0.0
  0
SPLINE
  5
5C5
100
AcDbEntity
  8
ASSI
100
AcDbSpline
 62
7
  6
CONTINUOUS
 70
0
 71
3
 72
9
 73
5
 74
3
 42
0.0000001
 43
0.0000001
 44
0.0000000001
 12
0.4589786715
 22
0.125042516
 32
0.0
 13
0.4590762626
 23
0.1246838126
 33
0.0
 40
0.0
 40
0.0
 40
0.0
 40
0.0
 40
0.8019458722
 40
1.0
 40
1.0
 40
1.0
 40
1.0
 10
-0.8669037817
 20
-1.8528011078
 30
0.0
 10
-0.7442117647
 20
-1.8193753313
 30
0.0
 10
-0.5905923617
 20
-1.7800372041
 30
0.0
 10
-0.43722298
 20
-1.7397564091
 30
0.0
 10
-0.4069156638
 20
-1.7315250278
 30
0.0
 11
-0.8669037817
 21
-1.8528011078
 31
0.0
 11
-0.4979836655
 21
-1.755674988
 31
0.0
 11
-0.4069156638
 21
-1.7315250278
 31
0.0
  0
SPLINE
  5
5C6
100
AcDbEntity
  8
ASSI
100
AcDbSpline
 62
7
  6
CONTINUOUS
 70
0
 71
3
 72
11
 73
7
 74
5
 42
0.0000001
 43
0.0000001
 44
0.0000000001
 12
-0.5175092969
 22
-0.1487860009
 32
0.0
 13
-0.5040440549
 23
-0.1894590043
 33
0.0
 40
0.0
 40
0.0
 40
0.0
 40
0.0
 40
0.1342305347
 40
0.4412509806
 40
0.7775650777
 40
1.0
 40
1.0
 40
1.0
 40
1.0
 10
-0.4069156638
 20
-2.0728283712
 30
0.0
 10
-0.430070847
 20
-2.0794855793
 30
0.0
 10
-0.5061409084
 20
-2.1015267096
 30
0.0
 10
-0.6401844732
 20
-2.14045969
 30
0.0
 10
-0.7888416106
 20
-2.1855273237
 30
0.0
 10
-0.8851280088
 20
-2.2139875939
 30
0.0
 10
-0.9225003422
 20
-2.2280350269
 30
0.0
 11
-0.4069156638
 21
-2.0728283712
 31
0.0
 11
-0.4763522515
 21
-2.0929004575
 31
0.0
 11
-0.6350344054
 21
-2.1392837332
 31
0.0
 11
-0.8085207113
 21
-2.1912287238
 31
0.0
 11
-0.9225003422
 21
-2.2280350269
 31
0.0
  0
SPLINE
  5
5C7
100
AcDbEntity
  8
ASSI
100
AcDbSpline
 62
7
  6
CONTINUOUS
 70
0
 71
3
 72
9
 73
5
 74
3
 42
0.0000001
 43
0.0000001
 44
0.0000000001
 12
-0.2438689275
 22
-0.0916651113
 32
0.0
 13
0.0
 23
-0.2604910834
 33
0.0
 40
0.0
 40
0.0
 40
0.0
 40
0.0
 40
0.6438952445
 40
1.0
 40
1.0
 40
1.0
 40
1.0
 10
-0.9225003507
 20
-2.2280350041
 30
0.0
 10
-0.974842365
 20
-2.2477092472
 30
0.0
 10
-1.0534346199
 20
-2.3061245954
 30
0.0
 10
-1.0721480664
 20
-2.3950275628
 30
0.0
 10
-1.0721480664
 20
-2.4259482673
 30
0.0
 11
-0.9225003507
 21
-2.2280350041
 31
0.0
 11
-1.0512269044
 21
-2.3355761771
 31
0.0
 11
-1.0721480664
 21
-2.4259482673
 31
0.0
  0
SPLINE
  5
5C8
100
AcDbEntity
  8
ASSI
100
AcDbSpline
 62
253
  6
CONTINUOUS
 70
0
 71
3
 72
15
 73
11
 74
9
 42
0.0000001
 43
0.0000001
 44
0.0000000001
 12
-0.2881576716
 22
0.0038542319
 32
0.0
 13
-0.0214951041
 23
0.2873806871
 33
0.0
 40
0.0
 40
0.0
 40
0.0
 40
0.0
 40
0.1661006305
 40
0.3273703266
 40
0.47908113
 40
0.6171090564
 40
0.7383291943
 40
0.8411944316
 40
0.9267165463
 40
1.0
 40
1.0
 40
1.0
 40
1.0
 10
5.5703227255
 20
-7.046082666
 30
0.0
 10
5.5543683352
 20
-7.0458692693
 30
0.0
 10
5.5229249028
 20
-7.0441844799
 30
0.0
 10
5.4772761203
 20
-7.0379347025
 30
0.0
 10
5.4349884039
 20
-7.0282077982
 30
0.0
 10
5.3975692892
 20
-7.0153594828
 30
0.0
 10
5.3662939791
 20
-6.9998447797
 30
0.0
 10
5.3421766699
 20
-6.9820983804
 30
0.0
 10
5.3259245415
 20
-6.9624533538
 30
0.0
 10
5.3210000972
 20
-6.9474481837
 30
0.0
 10
5.3204750187
 20
-6.9404281006
 30
0.0
 11
5.5703227255
 21
-7.046082666
 31
0.0
 11
5.5225253257
 21
-7.0434939303
 31
0.0
 11
5.476491739
 21
-7.0371018735
 31
0.0
 11
5.4339206903
 21
-7.0271423746
 31
0.0
 11
5.3963831305
 21
-7.0139829575
 31
0.0
 11
5.3652642655
 21
-6.9981092294
 31
0.0
 11
5.3417124393
 21
-6.9801069603
 31
0.0
 11
5.3265967581
 21
-6.9606404674
 31
0.0
 11
5.3204750187
 21
-6.9404281006
 31
0.0
  0
SPLINE
  5
5C9
100
AcDbEntity
  8
ASSI
100
AcDbSpline
 62
7
  6
CONTINUOUS
 70
0
 71
3
 72
17
 73
13
 74
11
 42
0.0000001
 43
0.0000001
 44
0.0000000001
 12
-0.3573152673
 22
-0.0104647825
 32
0.0
 13
-0.0148532747
 23
-0.3571597571
 33
0.0
 40
0.0
 40
0.0
 40
0.0
 40
0.0
 40
0.1289111824
 40
0.2505325819
 40
0.3645536477
 40
0.4713211985
 40
0.5715020992
 40
0.6658608772
 40
0.7551733224
 40
0.840186145
 40
0.9215951935
 40
1.0
 40
1.0
 40
1.0
 40
1.0
 10
5.5111210075
 20
-6.0859111973
 30
0.0
 10
5.4957670297
 20
-6.0863608731
 30
0.0
 10
5.4659428988
 20
-6.089543194
 30
0.0
 10
5.4237809375
 20
-6.1005996807
 30
0.0
 10
5.3860980069
 20
-6.1166110515
 30
0.0
 10
5.3532861242
 20
-6.1365131141
 30
0.0
 10
5.3254759411
 20
-6.1594171518
 30
0.0
 10
5.3026882371
 20
-6.1845766504
 30
0.0
 10
5.2848922349
 20
-6.2113359
 30
0.0
 10
5.272022861
 20
-6.2390925016
 30
0.0
 10
5.2639723859
 20
-6.2672509306
 30
0.0
 10
5.2616614902
 20
-6.2862461469
 30
0.0
 10
5.2612733008
 20
-6.2955804941
 30
0.0
 11
5.5111210075
 21
-6.0859111973
 31
0.0
 11
5.4652999156
 21
-6.0908049822
 31
0.0
 11
5.4232535542
 21
-6.1018616593
 31
0.0
 11
5.3857604857
 21
-6.1178479264
 31
0.0
 11
5.3531597047
 21
-6.1376932083
 31
0.0
 11
5.3255585833
 21
-6.1605108031
 31
0.0
 11
5.3029640178
 21
-6.1855551234
 31
0.0
 11
5.2853354909
 21
-6.2121733318
 31
0.0
 11
5.2725989099
 21
-6.2397649137
 31
0.0
 11
5.2646375718
 21
-6.2677558963
 31
0.0
 11
5.2612733008
 21
-6.2955804941
 31
0.0
  0
SPLINE
  5
5CA
100
AcDbEntity
  8
ASSI
100
AcDbSpline
 62
253
  6
CONTINUOUS
 70
0
 71
3
 72
15
 73
11
 74
9
 42
0.0000001
 43
0.0000001
 44
0.0000000001
 12
0.3882348029
 22
-0.0023184616
 32
0.0
 13
0.0023876314
 23
-0.3882343837
 33
0.0
 40
0.0
 40
0.0
 40
0.0
 40
0.0
 40
0.1257290456
 40
0.2514557317
 40
0.3770343051
 40
0.502340937
 40
0.627292244
 40
0.751858067
 40
0.8760664778
 40
1.0
 40
1.0
 40
1.0
 40
1.0
 10
-5.5474761746
 20
-6.341849017
 30
0.0
 10
-5.5312053775
 20
-6.3419461829
 30
0.0
 10
-5.4985965054
 20
-6.345291663
 30
0.0
 10
-5.4516329125
 20
-6.3595541839
 30
0.0
 10
-5.4082977214
 20
-6.382522338
 30
0.0
 10
-5.3702639689
 20
-6.4133262186
 30
0.0
 10
-5.3389761927
 20
-6.4507958537
 30
0.0
 10
-5.3156331647
 20
-6.4935142447
 30
0.0
 10
-5.3011310484
 20
-6.5398298295
 30
0.0
 10
-5.2977271037
 20
-6.572012537
 30
0.0
 10
-5.2976284678
 20
-6.5880509552
 30
0.0
 11
-5.5474761746
 21
-6.341849017
 31
0.0
 11
-5.4989180586
 21
-6.3468333814
 31
0.0
 11
-5.4522116787
 21
-6.3610164398
 31
0.0
 11
-5.4091381556
 21
-6.3838573293
 31
0.0
 11
-5.3713400737
 21
-6.4144850258
 31
0.0
 11
-5.340258841
 21
-6.4517315595
 31
0.0
 11
-5.3170797226
 21
-6.4941765553
 31
0.0
 11
-5.3026866409
 21
-6.5402013975
 31
0.0
 11
-5.2976284678
 21
-6.5880509552
 31
0.0
  0
SPLINE
  5
5CB
100
AcDbEntity
  8
ASSI
100
AcDbSpline
 62
7
  6
CONTINUOUS
 70
0
 71
3
 72
17
 73
13
 74
11
 42
0.0000001
 43
0.0000001
 44
0.0000000001
 12
-0.0148532747
 22
0.3571597571
 32
0.0
 13
-0.3573152673
 23
0.0104647825
 33
0.0
 40
0.0
 40
0.0
 40
0.0
 40
0.0
 40
0.0784048065
 40
0.159813855
 40
0.2448266776
 40
0.3341391228
 40
0.4284979008
 40
0.5286788015
 40
0.6354463523
 40
0.7494674181
 40
0.8710888176
 40
1.0
 40
1.0
 40
1.0
 40
1.0
 10
-5.2397060018
 20
-6.2955804941
 30
0.0
 10
-5.2400941911
 20
-6.2862461469
 30
0.0
 10
-5.2424050868
 20
-6.2672509306
 30
0.0
 10
-5.2504555619
 20
-6.2390925016
 30
0.0
 10
-5.2633249359
 20
-6.2113359
 30
0.0
 10
-5.2811209381
 20
-6.1845766504
 30
0.0
 10
-5.303908642
 20
-6.1594171518
 30
0.0
 10
-5.3317188251
 20
-6.1365131141
 30
0.0
 10
-5.3645307078
 20
-6.1166110515
 30
0.0
 10
-5.4022136385
 20
-6.1005996807
 30
0.0
 10
-5.4443755997
 20
-6.089543194
 30
0.0
 10
-5.4741997306
 20
-6.0863608731
 30
0.0
 10
-5.4895537085
 20
-6.0859111973
 30
0.0
 11
-5.2397060018
 21
-6.2955804941
 31
0.0
 11
-5.2430702728
 21
-6.2677558963
 31
0.0
 11
-5.2510316109
 21
-6.2397649137
 31
0.0
 11
-5.2637681919
 21
-6.2121733318
 31
0.0
 11
-5.2813967188
 21
-6.1855551234
 31
0.0
 11
-5.3039912843
 21
-6.1605108031
 31
0.0
 11
-5.3315924057
 21
-6.1376932083
 31
0.0
 11
-5.3641931867
 21
-6.1178479264
 31
0.0
 11
-5.4016862552
 21
-6.1018616593
 31
0.0
 11
-5.4437326165
 21
-6.0908049822
 31
0.0
 11
-5.4895537085
 21
-6.0859111973
 31
0.0
  0
SPLINE
  5
5CC
100
AcDbEntity
  8
ASSI
100
AcDbSpline
 62
253
  6
CONTINUOUS
 70
0
 71
3
 72
15
 73
11
 74
9
 42
0.0000001
 43
0.0000001
 44
0.0000000001
 12
0.2881576673
 22
0.0038542516
 32
0.0
 13
0.0214951096
 23
0.2873806826
 33
0.0
 40
0.0
 40
0.0
 40
0.0
 40
0.0
 40
0.1661012139
 40
0.3273713521
 40
0.4790823685
 40
0.6171102583
 40
0.7383301595
 40
0.8411950579
 40
0.9267168348
 40
1.0
 40
1.0
 40
1.0
 40
1.0
 10
-5.5487554264
 20
-7.046082666
 30
0.0
 10
-5.5328009803
 20
-7.0458692674
 30
0.0
 10
-5.50135745
 20
-7.0441844664
 30
0.0
 10
-5.4557085527
 20
-7.0379346513
 30
0.0
 10
-5.4134207857
 20
-7.0282077023
 30
0.0
 10
-5.3760016898
 20
-7.0153593505
 30
0.0
 10
-5.3447264531
 20
-6.9998446326
 30
0.0
 10
-5.3206092425
 20
-6.9820982482
 30
0.0
 10
-5.3043572069
 20
-6.9624532679
 30
0.0
 10
-5.2994327962
 20
-6.9474481559
 30
0.0
 10
-5.2989077197
 20
-6.9404281006
 30
0.0
 11
-5.5487554264
 21
-7.046082666
 31
0.0
 11
-5.50095786
 21
-7.0434939113
 31
0.0
 11
-5.4549241509
 21
-7.0371018145
 31
0.0
 11
-5.4123530507
 21
-7.0271422688
 31
0.0
 11
-5.3748155154
 21
-7.0139828155
 31
0.0
 11
-5.343696733
 21
-6.9981090766
 31
0.0
 11
-5.3201450129
 21
-6.9801068302
 31
0.0
 11
-5.3050294208
 21
-6.9606403919
 31
0.0
 11
-5.2989077197
 21
-6.9404281006
 31
0.0
  0
SPLINE
  5
5CD
100
AcDbEntity
  8
ASSI
100
AcDbSpline
 62
253
  6
CONTINUOUS
 70
0
 71
3
 72
9
 73
5
 74
3
 42
0.0000001
 43
0.0000001
 44
0.0000000001
 12
-0.0032451975
 22
8.9925033427
 32
0.0
 13
-0.0004118646
 23
8.9925039188
 33
0.0
 40
0.0
 40
0.0
 40
0.0
 40
0.0
 40
0.4999585687
 40
1.0
 40
1.0
 40
1.0
 40
1.0
 10
9.8427607872
 20
0.7141944137
 30
0.0
 10
9.8422199658
 20
2.2128207806
 30
0.0
 10
9.8413744134
 20
5.2103219847
 30
0.0
 10
9.8410010551
 20
8.2078232848
 30
0.0
 10
9.8409324053
 20
9.7066981281
 30
0.0
 11
9.8427607872
 21
0.7141944137
 31
0.0
 11
9.8414925124
 21
5.2100736281
 31
0.0
 11
9.8409324053
 21
9.7066981281
 31
0.0
  0
SPLINE
  5
5CE
100
AcDbEntity
  8
ASSI
100
AcDbSpline
 62
253
  6
CONTINUOUS
 70
0
 71
3
 72
15
 73
11
 74
9
 42
0.0000001
 43
0.0000001
 44
0.0000000001
 12
-0.3882348025
 22
-0.0023184634
 32
0.0
 13
-0.0023876319
 23
-0.3882343833
 33
0.0
 40
0.0
 40
0.0
 40
0.0
 40
0.0
 40
0.125729459
 40
0.2514564959
 40
0.3770353051
 40
0.5023420228
 40
0.6272932526
 40
0.7518588458
 40
0.8760669051
 40
1.0
 40
1.0
 40
1.0
 40
1.0
 10
-5.6309565264
 20
-6.341849017
 30
0.0
 10
-5.647227377
 20
-6.3419461833
 30
0.0
 10
-5.6798363487
 20
-6.3452916842
 30
0.0
 10
-5.7268000546
 20
-6.3595542861
 30
0.0
 10
-5.7701352929
 20
-6.3825225407
 30
0.0
 10
-5.8081690205
 20
-6.4133265032
 30
0.0
 10
-5.8394567166
 20
-6.4507961671
 30
0.0
 10
-5.8627996427
 20
-6.4935145147
 30
0.0
 10
-5.8773016748
 20
-6.5398299865
 30
0.0
 10
-5.8807055976
 20
-6.5720125923
 30
0.0
 10
-5.8808042332
 20
-6.5880509552
 30
0.0
 11
-5.6309565264
 21
-6.341849017
 31
0.0
 11
-5.6795148003
 21
-6.3468334134
 31
0.0
 11
-5.7262212977
 21
-6.3610165538
 31
0.0
 11
-5.7692948705
 21
-6.3838575449
 31
0.0
 11
-5.8070929287
 21
-6.4144853234
 31
0.0
 11
-5.8381740811
 21
-6.451731885
 31
0.0
 11
-5.8613530969
 21
-6.4941768351
 31
0.0
 11
-5.8757460938
 21
-6.5402015608
 31
0.0
 11
-5.8808042332
 21
-6.5880509552
 31
0.0
  0
SPLINE
  5
5CF
100
AcDbEntity
  8
ASSI
100
AcDbSpline
 62
253
  6
CONTINUOUS
 70
0
 71
3
 72
9
 73
5
 74
3
 42
0.0000001
 43
0.0000001
 44
0.0000000001
 12
-0.0004118646
 22
-8.9925039188
 32
0.0
 13
-0.0032451975
 23
-8.9925033427
 33
0.0
 40
0.0
 40
0.0
 40
0.0
 40
0.0
 40
0.5000414317
 40
1.0
 40
1.0
 40
1.0
 40
1.0
 10
-9.8193651063
 20
9.7066981281
 30
0.0
 10
-9.8194337561
 20
8.2078232834
 30
0.0
 10
-9.8198071144
 20
5.2103219833
 30
0.0
 10
-9.8206526667
 20
2.2128207792
 30
0.0
 10
-9.8211934882
 20
0.7141944137
 30
0.0
 11
-9.8193651063
 21
9.7066981281
 31
0.0
 11
-9.8199252134
 21
5.2100736239
 31
0.0
 11
-9.8211934882
 21
0.7141944137
 31
0.0
  0
SPLINE
  5
5D0
100
AcDbEntity
  8
ASSI
100
AcDbSpline
 62
253
  6
CONTINUOUS
 70
0
 71
3
 72
15
 73
11
 74
9
 42
0.0000001
 43
0.0000001
 44
0.0000000001
 12
-0.2881576716
 22
0.0038542319
 32
0.0
 13
-0.0214951041
 23
0.2873806871
 33
0.0
 40
0.0
 40
0.0
 40
0.0
 40
0.0
 40
0.1661006305
 40
0.3273703266
 40
0.47908113
 40
0.6171090564
 40
0.7383291943
 40
0.8411944316
 40
0.9267165463
 40
1.0
 40
1.0
 40
1.0
 40
1.0
 10
-5.6296772745
 20
-7.046082666
 30
0.0
 10
-5.6456316648
 20
-7.0458692693
 30
0.0
 10
-5.6770750972
 20
-7.0441844799
 30
0.0
 10
-5.7227238797
 20
-7.0379347025
 30
0.0
 10
-5.7650115961
 20
-7.0282077982
 30
0.0
 10
-5.8024307108
 20
-7.0153594828
 30
0.0
 10
-5.8337060209
 20
-6.9998447797
 30
0.0
 10
-5.8578233301
 20
-6.9820983804
 30
0.0
 10
-5.8740754585
 20
-6.9624533538
 30
0.0
 10
-5.8789999028
 20
-6.9474481837
 30
0.0
 10
-5.8795249813
 20
-6.9404281006
 30
0.0
 11
-5.6296772745
 21
-7.046082666
 31
0.0
 11
-5.6774746743
 21
-7.0434939303
 31
0.0
 11
-5.723508261
 21
-7.0371018735
 31
0.0
 11
-5.7660793097
 21
-7.0271423746
 31
0.0
 11
-5.8036168695
 21
-7.0139829575
 31
0.0
 11
-5.8347357345
 21
-6.9981092294
 31
0.0
 11
-5.8582875607
 21
-6.9801069603
 31
0.0
 11
-5.8734032419
 21
-6.9606404674
 31
0.0
 11
-5.8795249813
 21
-6.9404281006
 31
0.0
  0
SPLINE
  5
5D1
100
AcDbEntity
  8
ASSI
100
AcDbSpline
 62
253
  6
CONTINUOUS
 70
0
 71
3
 72
9
 73
5
 74
3
 42
0.0000001
 43
0.0000001
 44
0.0000000001
 12
-0.0029682127
 22
-6.007191491
 32
0.0
 13
-0.0042345483
 23
-6.0071907318
 33
0.0
 40
0.0
 40
0.0
 40
0.0
 40
0.0
 40
0.5000502626
 40
1.0
 40
1.0
 40
1.0
 40
1.0
 10
-9.822817942
 20
-3.0858055863
 30
0.0
 10
-9.8233126939
 20
-4.0871048138
 30
0.0
 10
-9.8244075747
 20
-6.0895019268
 30
0.0
 10
-9.8257135059
 20
-8.0918989132
 30
0.0
 10
-9.826419193
 20
-9.0929967228
 30
0.0
 11
-9.822817942
 21
-3.0858055863
 31
0.0
 11
-9.824460458
 21
-6.0897031865
 31
0.0
 11
-9.826419193
 21
-9.0929967228
 31
0.0
  0
SPLINE
  5
5D2
100
AcDbEntity
  8
ASSI
100
AcDbSpline
 62
7
  6
CONTINUOUS
 70
0
 71
3
 72
17
 73
13
 74
11
 42
0.0000001
 43
0.0000001
 44
0.0000000001
 12
0.0148532747
 22
0.3571597571
 32
0.0
 13
0.3573152673
 23
0.0104647825
 33
0.0
 40
0.0
 40
0.0
 40
0.0
 40
0.0
 40
0.0784048065
 40
0.159813855
 40
0.2448266776
 40
0.3341391228
 40
0.4284979008
 40
0.5286788015
 40
0.6354463523
 40
0.7494674181
 40
0.8710888176
 40
1.0
 40
1.0
 40
1.0
 40
1.0
 10
-5.9387266992
 20
-6.2955804941
 30
0.0
 10
-5.9383385098
 20
-6.2862461469
 30
0.0
 10
-5.9360276141
 20
-6.2672509306
 30
0.0
 10
-5.927977139
 20
-6.2390925016
 30
0.0
 10
-5.9151077651
 20
-6.2113359
 30
0.0
 10
-5.8973117629
 20
-6.1845766504
 30
0.0
 10
-5.8745240589
 20
-6.1594171518
 30
0.0
 10
-5.8467138758
 20
-6.1365131141
 30
0.0
 10
-5.8139019931
 20
-6.1166110515
 30
0.0
 10
-5.7762190625
 20
-6.1005996807
 30
0.0
 10
-5.7340571012
 20
-6.089543194
 30
0.0
 10
-5.7042329703
 20
-6.0863608731
 30
0.0
 10
-5.6888789925
 20
-6.0859111973
 30
0.0
 11
-5.9387266992
 21
-6.2955804941
 31
0.0
 11
-5.9353624282
 21
-6.2677558963
 31
0.0
 11
-5.9274010901
 21
-6.2397649137
 31
0.0
 11
-5.9146645091
 21
-6.2121733318
 31
0.0
 11
-5.8970359822
 21
-6.1855551234
 31
0.0
 11
-5.8744414167
 21
-6.1605108031
 31
0.0
 11
-5.8468402953
 21
-6.1376932083
 31
0.0
 11
-5.8142395143
 21
-6.1178479264
 31
0.0
 11
-5.7767464458
 21
-6.1018616593
 31
0.0
 11
-5.7347000844
 21
-6.0908049822
 31
0.0
 11
-5.6888789925
 21
-6.0859111973
 31
0.0
  0
SPLINE
  5
5D3
100
AcDbEntity
  8
ASSI
100
AcDbSpline
 62
253
  6
CONTINUOUS
 70
0
 71
3
 72
9
 73
5
 74
3
 42
0.0000001
 43
0.0000001
 44
0.0000000001
 12
-0.0042345483
 22
6.0071907318
 32
0.0
 13
-0.0029682127
 23
6.007191491
 33
0.0
 40
0.0
 40
0.0
 40
0.0
 40
0.0
 40
0.4999497374
 40
1.0
 40
1.0
 40
1.0
 40
1.0
 10
9.847986492
 20
-9.0929967228
 30
0.0
 10
9.8472808049
 20
-8.0918989132
 30
0.0
 10
9.8459748738
 20
-6.0895019268
 30
0.0
 10
9.8448799929
 20
-4.0871048138
 30
0.0
 10
9.844385241
 20
-3.0858055863
 30
0.0
 11
9.847986492
 21
-9.0929967228
 31
0.0
 11
9.846027757
 21
-6.0897031865
 31
0.0
 11
9.844385241
 21
-3.0858055863
 31
0.0
  0
SPLINE
  5
5D4
100
AcDbEntity
  8
ASSI
100
AcDbSpline
 62
253
  6
CONTINUOUS
 70
0
 71
3
 72
15
 73
11
 74
9
 42
0.0000001
 43
0.0000001
 44
0.0000000001
 12
0.00000131
 22
0.2954494977
 32
0.0
 13
0.00976487
 23
0.2952880848
 33
0.0
 40
0.0
 40
0.0
 40
0.0
 40
0.0
 40
0.1762543538
 40
0.3472428692
 40
0.5076801248
 40
0.6526883366
 40
0.7778610396
 40
0.8793945376
 40
0.9542028934
 40
1.0
 40
1.0
 40
1.0
 40
1.0
 10
5.6510809834
 20
-6.6372913429
 30
0.0
 10
5.6510810603
 20
-6.6199332561
 30
0.0
 10
5.6510981027
 20
-6.585735677
 30
0.0
 10
5.6511746271
 20
-6.5357377777
 30
0.0
 10
5.6512998964
 20
-6.4888172152
 30
0.0
 10
5.6514684951
 20
-6.4464088671
 30
0.0
 10
5.6516770204
 20
-6.4098019059
 30
0.0
 10
5.6519096025
 20
-6.3801084638
 30
0.0
 10
5.6521731605
 20
-6.3582334764
 30
0.0
 10
5.6523747578
 20
-6.3463567969
 30
0.0
 10
5.6525238254
 20
-6.341849017
 30
0.0
 11
5.6510809834
 21
-6.6372913429
 31
0.0
 11
5.6511074555
 21
-6.5852170893
 31
0.0
 11
5.6511861151
 21
-6.5346986795
 31
0.0
 11
5.65131479
 21
-6.4872977476
 31
0.0
 11
5.6514894494
 21
-6.4444555003
 31
0.0
 11
5.6517048226
 21
-6.4074739152
 31
0.0
 11
5.6519544833
 21
-6.3774769331
 31
0.0
 11
5.6522300899
 21
-6.3553765604
 31
0.0
 11
5.6525238254
 21
-6.341849017
 31
0.0
  0
SPLINE
  5
5D5
100
AcDbEntity
  8
ASSI
100
AcDbSpline
 62
253
  6
CONTINUOUS
 70
0
 71
3
 72
15
 73
11
 74
9
 42
0.0000001
 43
0.0000001
 44
0.0000000001
 12
0.0097648701
 22
-0.2952880848
 32
0.0
 13
0.00000131
 23
-0.2954494977
 33
0.0
 40
0.0
 40
0.0
 40
0.0
 40
0.0
 40
0.0457971067
 40
0.1206054626
 40
0.2221389606
 40
0.3473116637
 40
0.4923198754
 40
0.652757131
 40
0.8237456464
 40
1.0
 40
1.0
 40
1.0
 40
1.0
 10
5.5690434736
 20
-6.341849017
 30
0.0
 10
5.5691925412
 20
-6.3463567969
 30
0.0
 10
5.5693941385
 20
-6.3582334765
 30
0.0
 10
5.5696576966
 20
-6.3801084639
 30
0.0
 10
5.5698902786
 20
-6.409801906
 30
0.0
 10
5.570098804
 20
-6.4464088672
 30
0.0
 10
5.5702674027
 20
-6.4888172152
 30
0.0
 10
5.5703926719
 20
-6.5357377777
 30
0.0
 10
5.5704691963
 20
-6.5857356771
 30
0.0
 10
5.5704862387
 20
-6.6199332561
 30
0.0
 10
5.5704863157
 20
-6.6372913429
 30
0.0
 11
5.5690434736
 21
-6.341849017
 31
0.0
 11
5.5693372091
 21
-6.3553765604
 31
0.0
 11
5.5696128157
 21
-6.3774769332
 31
0.0
 11
5.5698624764
 21
-6.4074739152
 31
0.0
 11
5.5700778496
 21
-6.4444555004
 31
0.0
 11
5.570252509
 21
-6.4872977477
 31
0.0
 11
5.5703811839
 21
-6.5346986796
 31
0.0
 11
5.5704598435
 21
-6.5852170894
 31
0.0
 11
5.5704863157
 21
-6.6372913429
 31
0.0
  0
SPLINE
  5
5D6
100
AcDbEntity
  8
ASSI
100
AcDbSpline
 62
253
  6
CONTINUOUS
 70
0
 71
3
 72
16
 73
12
 74
10
 42
0.0000001
 43
0.0000001
 44
0.0000000001
 12
0.0000012478
 22
0.2999696776
 32
0.0
 13
0.0949852704
 23
0.2845340153
 33
0.0
 40
0.0
 40
0.0
 40
0.0
 40
0.0
 40
0.1716903986
 40
0.3383600475
 40
0.4949773352
 40
0.6368827949
 40
0.7598615728
 40
0.8602569174
 40
0.9350874649
 40
0.9821296043
 40
1.0
 40
1.0
 40
1.0
 40
1.0
 10
5.7104462915
 20
-4.9100633723
 30
0.0
 10
5.7104463629
 20
-4.8928960678
 30
0.0
 10
5.7104625922
 20
-4.85906338
 30
0.0
 10
5.710539449
 20
-4.8095711296
 30
0.0
 10
5.7106556286
 20
-4.7630553042
 30
0.0
 10
5.7108415634
 20
-4.7209143274
 30
0.0
 10
5.7109838919
 20
-4.6843767934
 30
0.0
 10
5.7113840747
 20
-4.6545981263
 30
0.0
 10
5.7112325206
 20
-4.6322839639
 30
0.0
 10
5.7122317594
 20
-4.6184831572
 30
0.0
 10
5.7115961251
 20
-4.6118037467
 30
0.0
 10
5.7121619333
 20
-4.6101088349
 30
0.0
 11
5.7104462915
 21
-4.9100633723
 31
0.0
 11
5.7104721817
 21
-4.8585614653
 31
0.0
 11
5.7105491275
 21
-4.8085656836
 31
0.0
 11
5.7106750281
 21
-4.761585415
 31
0.0
 11
5.7108459986
 21
-4.7190184234
 31
0.0
 11
5.7110571699
 21
-4.6821291234
 31
0.0
 11
5.7113019688
 21
-4.6520145593
 31
0.0
 11
5.7115734434
 21
-4.6295693057
 31
0.0
 11
5.7118627516
 21
-4.6154610563
 31
0.0
 11
5.7121619333
 21
-4.6101088349
 31
0.0
  0
SPLINE
  5
5D7
100
AcDbEntity
  8
ASSI
100
AcDbSpline
 62
253
  6
CONTINUOUS
 70
0
 71
3
 72
16
 73
12
 74
10
 42
0.0000001
 43
0.0000001
 44
0.0000000001
 12
0.0949852718
 22
-0.2845340149
 32
0.0
 13
0.0000012478
 23
-0.2999696776
 33
0.0
 40
0.0
 40
0.0
 40
0.0
 40
0.0
 40
0.0178703958
 40
0.0649125353
 40
0.1397430829
 40
0.2401384275
 40
0.3631172055
 40
0.5050226653
 40
0.661639953
 40
0.8283096018
 40
1.0
 40
1.0
 40
1.0
 40
1.0
 10
5.5094053658
 20
-4.6101088349
 30
0.0
 10
5.5099711739
 20
-4.6118037467
 30
0.0
 10
5.5093355396
 20
-4.6184831572
 30
0.0
 10
5.5103347784
 20
-4.6322839639
 30
0.0
 10
5.5101832243
 20
-4.6545981264
 30
0.0
 10
5.5105834072
 20
-4.6843767935
 30
0.0
 10
5.5107257356
 20
-4.7209143276
 30
0.0
 10
5.5109116704
 20
-4.7630553043
 30
0.0
 10
5.51102785
 20
-4.8095711298
 30
0.0
 10
5.5111047068
 20
-4.8590633801
 30
0.0
 10
5.5111209361
 20
-4.8928960678
 30
0.0
 10
5.5111210075
 20
-4.9100633723
 30
0.0
 11
5.5094053658
 21
-4.6101088349
 31
0.0
 11
5.5097045474
 21
-4.6154610564
 31
0.0
 11
5.5099938557
 21
-4.6295693058
 31
0.0
 11
5.5102653302
 21
-4.6520145593
 31
0.0
 11
5.5105101291
 21
-4.6821291235
 31
0.0
 11
5.5107213004
 21
-4.7190184235
 31
0.0
 11
5.510892271
 21
-4.7615854152
 31
0.0
 11
5.5110181715
 21
-4.8085656838
 31
0.0
 11
5.5110951174
 21
-4.8585614654
 31
0.0
 11
5.5111210075
 21
-4.9100633723
 31
0.0
  0
SPLINE
  5
5D8
100
AcDbEntity
  8
ASSI
100
AcDbSpline
 62
253
  6
CONTINUOUS
 70
0
 71
3
 72
15
 73
11
 74
9
 42
0.0000001
 43
0.0000001
 44
0.0000000001
 12
0.00000131
 22
0.2954494977
 32
0.0
 13
0.00976487
 23
0.2952880848
 33
0.0
 40
0.0
 40
0.0
 40
0.0
 40
0.0
 40
0.1762543538
 40
0.3472428692
 40
0.5076801248
 40
0.6526883366
 40
0.7778610396
 40
0.8793945376
 40
0.9542028934
 40
1.0
 40
1.0
 40
1.0
 40
1.0
 10
-5.5489190166
 20
-6.6372913429
 30
0.0
 10
-5.5489189397
 20
-6.6199332561
 30
0.0
 10
-5.5489018973
 20
-6.585735677
 30
0.0
 10
-5.5488253729
 20
-6.5357377777
 30
0.0
 10
-5.5487001036
 20
-6.4888172152
 30
0.0
 10
-5.5485315049
 20
-6.4464088671
 30
0.0
 10
-5.5483229796
 20
-6.4098019059
 30
0.0
 10
-5.5480903975
 20
-6.3801084638
 30
0.0
 10
-5.5478268395
 20
-6.3582334764
 30
0.0
 10
-5.5476252422
 20
-6.3463567969
 30
0.0
 10
-5.5474761746
 20
-6.341849017
 30
0.0
 11
-5.5489190166
 21
-6.6372913429
 31
0.0
 11
-5.5488925445
 21
-6.5852170893
 31
0.0
 11
-5.5488138849
 21
-6.5346986795
 31
0.0
 11
-5.54868521
 21
-6.4872977476
 31
0.0
 11
-5.5485105506
 21
-6.4444555003
 31
0.0
 11
-5.5482951774
 21
-6.4074739152
 31
0.0
 11
-5.5480455167
 21
-6.3774769331
 31
0.0
 11
-5.5477699101
 21
-6.3553765604
 31
0.0
 11
-5.5474761746
 21
-6.341849017
 31
0.0
  0
SPLINE
  5
5D9
100
AcDbEntity
  8
ASSI
100
AcDbSpline
 62
253
  6
CONTINUOUS
 70
0
 71
3
 72
15
 73
11
 74
9
 42
0.0000001
 43
0.0000001
 44
0.0000000001
 12
0.0097648701
 22
-0.2952880848
 32
0.0
 13
0.00000131
 23
-0.2954494977
 33
0.0
 40
0.0
 40
0.0
 40
0.0
 40
0.0
 40
0.0457971067
 40
0.1206054626
 40
0.2221389606
 40
0.3473116637
 40
0.4923198754
 40
0.652757131
 40
0.8237456464
 40
1.0
 40
1.0
 40
1.0
 40
1.0
 10
-5.6309565264
 20
-6.341849017
 30
0.0
 10
-5.6308074588
 20
-6.3463567969
 30
0.0
 10
-5.6306058615
 20
-6.3582334765
 30
0.0
 10
-5.6303423034
 20
-6.3801084639
 30
0.0
 10
-5.6301097214
 20
-6.409801906
 30
0.0
 10
-5.629901196
 20
-6.4464088672
 30
0.0
 10
-5.6297325973
 20
-6.4888172152
 30
0.0
 10
-5.6296073281
 20
-6.5357377777
 30
0.0
 10
-5.6295308037
 20
-6.5857356771
 30
0.0
 10
-5.6295137613
 20
-6.6199332561
 30
0.0
 10
-5.6295136843
 20
-6.6372913429
 30
0.0
 11
-5.6309565264
 21
-6.341849017
 31
0.0
 11
-5.6306627909
 21
-6.3553765604
 31
0.0
 11
-5.6303871843
 21
-6.3774769332
 31
0.0
 11
-5.6301375236
 21
-6.4074739152
 31
0.0
 11
-5.6299221504
 21
-6.4444555004
 31
0.0
 11
-5.629747491
 21
-6.4872977477
 31
0.0
 11
-5.6296188161
 21
-6.5346986796
 31
0.0
 11
-5.6295401565
 21
-6.5852170894
 31
0.0
 11
-5.6295136843
 21
-6.6372913429
 31
0.0
  0
SPLINE
  5
5DA
100
AcDbEntity
  8
ASSI
100
AcDbSpline
 62
253
  6
CONTINUOUS
 70
0
 71
3
 72
16
 73
12
 74
10
 42
0.0000001
 43
0.0000001
 44
0.0000000001
 12
0.0000012478
 22
0.2999696776
 32
0.0
 13
0.0949852704
 23
0.2845340153
 33
0.0
 40
0.0
 40
0.0
 40
0.0
 40
0.0
 40
0.1716903986
 40
0.3383600475
 40
0.4949773352
 40
0.6368827949
 40
0.7598615728
 40
0.8602569174
 40
0.9350874649
 40
0.9821296043
 40
1.0
 40
1.0
 40
1.0
 40
1.0
 10
-5.4895537085
 20
-4.9100633723
 30
0.0
 10
-5.4895536371
 20
-4.8928960678
 30
0.0
 10
-5.4895374078
 20
-4.85906338
 30
0.0
 10
-5.489460551
 20
-4.8095711296
 30
0.0
 10
-5.4893443714
 20
-4.7630553042
 30
0.0
 10
-5.4891584366
 20
-4.7209143274
 30
0.0
 10
-5.4890161081
 20
-4.6843767934
 30
0.0
 10
-5.4886159253
 20
-4.6545981263
 30
0.0
 10
-5.4887674794
 20
-4.6322839639
 30
0.0
 10
-5.4877682406
 20
-4.6184831572
 30
0.0
 10
-5.4884038749
 20
-4.6118037467
 30
0.0
 10
-5.4878380667
 20
-4.6101088349
 30
0.0
 11
-5.4895537085
 21
-4.9100633723
 31
0.0
 11
-5.4895278183
 21
-4.8585614653
 31
0.0
 11
-5.4894508725
 21
-4.8085656836
 31
0.0
 11
-5.4893249719
 21
-4.761585415
 31
0.0
 11
-5.4891540014
 21
-4.7190184234
 31
0.0
 11
-5.4889428301
 21
-4.6821291234
 31
0.0
 11
-5.4886980312
 21
-4.6520145593
 31
0.0
 11
-5.4884265566
 21
-4.6295693057
 31
0.0
 11
-5.4881372484
 21
-4.6154610563
 31
0.0
 11
-5.4878380667
 21
-4.6101088349
 31
0.0
  0
SPLINE
  5
5DB
100
AcDbEntity
  8
ASSI
100
AcDbSpline
 62
253
  6
CONTINUOUS
 70
0
 71
3
 72
16
 73
12
 74
10
 42
0.0000001
 43
0.0000001
 44
0.0000000001
 12
0.0949852718
 22
-0.2845340149
 32
0.0
 13
0.0000012478
 23
-0.2999696776
 33
0.0
 40
0.0
 40
0.0
 40
0.0
 40
0.0
 40
0.0178703958
 40
0.0649125353
 40
0.1397430829
 40
0.2401384275
 40
0.3631172055
 40
0.5050226653
 40
0.661639953
 40
0.8283096018
 40
1.0
 40
1.0
 40
1.0
 40
1.0
 10
-5.6905946342
 20
-4.6101088349
 30
0.0
 10
-5.6900288261
 20
-4.6118037467
 30
0.0
 10
-5.6906644604
 20
-4.6184831572
 30
0.0
 10
-5.6896652216
 20
-4.6322839639
 30
0.0
 10
-5.6898167757
 20
-4.6545981264
 30
0.0
 10
-5.6894165928
 20
-4.6843767935
 30
0.0
 10
-5.6892742644
 20
-4.7209143276
 30
0.0
 10
-5.6890883296
 20
-4.7630553043
 30
0.0
 10
-5.68897215
 20
-4.8095711298
 30
0.0
 10
-5.6888952932
 20
-4.8590633801
 30
0.0
 10
-5.6888790639
 20
-4.8928960678
 30
0.0
 10
-5.6888789925
 20
-4.9100633723
 30
0.0
 11
-5.6905946342
 21
-4.6101088349
 31
0.0
 11
-5.6902954526
 21
-4.6154610564
 31
0.0
 11
-5.6900061443
 21
-4.6295693058
 31
0.0
 11
-5.6897346698
 21
-4.6520145593
 31
0.0
 11
-5.6894898709
 21
-4.6821291235
 31
0.0
 11
-5.6892786996
 21
-4.7190184235
 31
0.0
 11
-5.689107729
 21
-4.7615854152
 31
0.0
 11
-5.6889818285
 21
-4.8085656838
 31
0.0
 11
-5.6889048826
 21
-4.8585614654
 31
0.0
 11
-5.6888789925
 21
-4.9100633723
 31
0.0
  0
SPLINE
  5
5DC
100
AcDbEntity
  8
ASSI
100
AcDbSpline
 62
253
  6
CONTINUOUS
 70
0
 71
3
 72
9
 73
5
 74
3
 42
0.0000001
 43
0.0000001
 44
0.0000000001
 12
-0.0043623264
 22
-1.6181841037
 32
0.0
 13
-0.0062751532
 23
-1.6181778165
 33
0.0
 40
0.0
 40
0.0
 40
0.0
 40
0.0
 40
0.5000111748
 40
1.0
 40
1.0
 40
1.0
 40
1.0
 10
4.1810733433
 20
7.3235401501
 30
0.0
 10
4.1803462726
 20
7.0538367719
 30
0.0
 10
4.1787327441
 20
6.5144424886
 30
0.0
 10
4.1768004445
 20
5.9750492532
 30
0.0
 10
4.175754609
 20
5.705358978
 30
0.0
 11
4.1810733433
 21
7.3235401501
 31
0.0
 11
4.1786530117
 21
6.5144306953
 31
0.0
 11
4.175754609
 21
5.705358978
 31
0.0
  0
SPLINE
  5
5DD
100
AcDbEntity
  8
ASSI
100
AcDbSpline
 62
253
  6
CONTINUOUS
 70
0
 71
3
 72
9
 73
5
 74
3
 42
0.0000001
 43
0.0000001
 44
0.0000000001
 12
-0.0062751532
 22
1.6181778165
 32
0.0
 13
-0.0043623264
 23
1.6181841037
 33
0.0
 40
0.0
 40
0.0
 40
0.0
 40
0.0
 40
0.4999892045
 40
1.0
 40
1.0
 40
1.0
 40
1.0
 10
-4.1541873099
 20
5.705358978
 30
0.0
 10
-4.1552331462
 20
5.9750494578
 30
0.0
 10
-4.1571654457
 20
6.5144426933
 30
0.0
 10
-4.1587789741
 20
7.0538369765
 30
0.0
 10
-4.1595060442
 20
7.3235401501
 30
0.0
 11
-4.1541873099
 21
5.705358978
 31
0.0
 11
-4.1570857147
 21
6.5144313092
 31
0.0
 11
-4.1595060442
 21
7.3235401501
 31
0.0
  0
SPLINE
  5
5DE
100
AcDbEntity
  8
ASSI
100
AcDbSpline
 62
253
  6
CONTINUOUS
 70
0
 71
3
 72
15
 73
11
 74
9
 42
0.0000001
 43
0.0000001
 44
0.0000000001
 12
0.4014143357
 22
-0.0070088487
 32
0.0
 13
0.0139942489
 23
-0.4012315464
 33
0.0
 40
0.0
 40
0.0
 40
0.0
 40
0.0
 40
0.1440044844
 40
0.2856956272
 40
0.4226390599
 40
0.5528844372
 40
0.67524257
 40
0.7895686166
 40
0.89699843
 40
1.0
 40
1.0
 40
1.0
 40
1.0
 10
7.2142074641
 20
7.0606410231
 30
0.0
 10
7.2334759522
 20
7.0603045879
 30
0.0
 10
7.2717101065
 20
7.0570353146
 30
0.0
 10
7.3270443616
 20
7.0444959502
 30
0.0
 10
7.3783060883
 20
7.0247688933
 30
0.0
 10
7.4236304143
 20
6.9985316575
 30
0.0
 10
7.4613715222
 20
6.9666672737
 30
0.0
 10
7.4901015859
 20
6.9302094719
 30
0.0
 10
7.5086077801
 20
6.890420129
 30
0.0
 10
7.5135442356
 20
6.8622848152
 30
0.0
 10
7.5140247122
 20
6.8485089887
 30
0.0
 11
7.2142074641
 21
7.0606410231
 31
0.0
 11
7.2718090023
 21
7.0556859036
 31
0.0
 11
7.3272657439
 21
7.0430165393
 31
0.0
 11
7.3785127536
 21
7.0231046748
 31
0.0
 11
7.4236418461
 21
6.9966917294
 31
0.0
 11
7.4609726368
 21
6.9647611909
 31
0.0
 11
7.4891151117
 21
6.9285019946
 31
0.0
 11
7.5070213838
 21
6.8892642541
 31
0.0
 11
7.5140247122
 21
6.8485089887
 31
0.0
  0
SPLINE
  5
5DF
100
AcDbEntity
  8
ASSI
100
AcDbSpline
 62
253
  6
CONTINUOUS
 70
0
 71
3
 72
15
 73
11
 74
9
 42
0.0000001
 43
0.0000001
 44
0.0000000001
 12
0.4014143351
 22
-0.007008849
 32
0.0
 13
0.0139942489
 23
-0.4012315459
 33
0.0
 40
0.0
 40
0.0
 40
0.0
 40
0.0
 40
0.1440042721
 40
0.2856952433
 40
0.4226385679
 40
0.5528839124
 40
0.6752420872
 40
0.7895682409
 40
0.8969982159
 40
1.0
 40
1.0
 40
1.0
 40
1.0
 10
7.2354081
 20
7.6677478043
 30
0.0
 10
7.2546765597
 20
7.6674113696
 30
0.0
 10
7.2929106625
 20
7.6641421045
 30
0.0
 10
7.3482448563
 20
7.651602771
 30
0.0
 10
7.3995065527
 20
7.6318757538
 30
0.0
 10
7.4448308837
 20
7.6056385542
 30
0.0
 10
7.4825720281
 20
7.57377419
 30
0.0
 10
7.5113021478
 20
7.537316379
 30
0.0
 10
7.5298083976
 20
7.4975269892
 30
0.0
 10
7.5347448706
 20
7.4693916249
 30
0.0
 10
7.5352253481
 20
7.4556157699
 30
0.0
 11
7.2354081
 21
7.6677478043
 31
0.0
 11
7.2930095538
 21
7.6627926979
 31
0.0
 11
7.3484662319
 21
7.6501233656
 31
0.0
 11
7.3997132108
 21
7.6302115418
 31
0.0
 11
7.4448423092
 21
7.6037986328
 31
0.0
 11
7.4821731378
 21
7.5718681127
 31
0.0
 11
7.5103156686
 21
7.5356089054
 31
0.0
 11
7.528221994
 21
7.4963711179
 31
0.0
 11
7.5352253481
 21
7.4556157699
 31
0.0
  0
SPLINE
  5
5E0
100
AcDbEntity
  8
ASSI
100
AcDbSpline
 62
7
  6
CONTINUOUS
 70
0
 71
3
 72
15
 73
11
 74
9
 42
0.0000001
 43
0.0000001
 44
0.0000000001
 12
0.0895635424
 22
-0.1791816741
 32
0.0
 13
0.2003189968
 23
0.0
 33
0.0
 40
0.0
 40
0.0
 40
0.0
 40
0.0
 40
0.0228702366
 40
0.0820374114
 40
0.1750076777
 40
0.3001514248
 40
0.4519007439
 40
0.6225386226
 40
0.8086061726
 40
1.0
 40
1.0
 40
1.0
 40
1.0
 10
-9.8193651063
 20
9.7066981281
 30
0.0
 10
-9.8186823265
 20
9.7053321524
 30
0.0
 10
-9.8117558226
 20
9.7055547719
 30
0.0
 10
-9.801447692
 20
9.7034191828
 30
0.0
 10
-9.7822595636
 20
9.7028735224
 30
0.0
 10
-9.7578742142
 20
9.7016582485
 30
0.0
 10
-9.7278967174
 20
9.7009238405
 30
0.0
 10
-9.6939848138
 20
9.7002878398
 30
0.0
 10
-9.657377647
 20
9.6999219907
 30
0.0
 10
-9.6321757979
 20
9.6998364706
 30
0.0
 10
-9.6193958581
 20
9.6998364706
 30
0.0
 11
-9.8193651063
 21
9.7066981281
 31
0.0
 11
-9.8149831831
 21
9.705361172
 31
0.0
 11
-9.8032017217
 21
9.7040671869
 31
0.0
 11
-9.7846155949
 21
9.7028846127
 31
0.0
 11
-9.7595687536
 21
9.7018386919
 31
0.0
 11
-9.7291825364
 21
9.7009827067
 31
0.0
 11
-9.6950062962
 21
9.700354759
 31
0.0
 11
-9.6577354588
 21
9.6999659876
 31
0.0
 11
-9.6193958581
 21
9.6998364706
 31
0.0
  0
SPLINE
  5
5E1
100
AcDbEntity
  8
ASSI
100
AcDbSpline
 62
7
  6
CONTINUOUS
 70
0
 71
3
 72
15
 73
11
 74
9
 42
0.0000001
 43
0.0000001
 44
0.0000000001
 12
0.2003189965
 22
-0.0
 32
0.0
 13
0.0895635422
 23
0.1791816739
 33
0.0
 40
0.0
 40
0.0
 40
0.0
 40
0.0
 40
0.1913938261
 40
0.3774613764
 40
0.5480992554
 40
0.6998485747
 40
0.824992322
 40
0.9179625885
 40
0.9771297633
 40
1.0
 40
1.0
 40
1.0
 40
1.0
 10
9.6409631574
 20
9.6998364706
 30
0.0
 10
9.6537430971
 20
9.6998364706
 30
0.0
 10
9.6789449462
 20
9.6999219907
 30
0.0
 10
9.7155521129
 20
9.7002878398
 30
0.0
 10
9.7494640165
 20
9.7009238405
 30
0.0
 10
9.7794415132
 20
9.7016582485
 30
0.0
 10
9.8038268626
 20
9.7028735224
 30
0.0
 10
9.823014991
 20
9.7034191828
 30
0.0
 10
9.8333231216
 20
9.7055547719
 30
0.0
 10
9.8402496255
 20
9.7053321524
 30
0.0
 10
9.8409324053
 20
9.7066981281
 30
0.0
 11
9.6409631574
 21
9.6998364706
 31
0.0
 11
9.6793027578
 21
9.6999659876
 31
0.0
 11
9.7165735952
 21
9.700354759
 31
0.0
 11
9.7507498355
 21
9.7009827067
 31
0.0
 11
9.7811360526
 21
9.7018386919
 31
0.0
 11
9.8061828939
 21
9.7028846127
 31
0.0
 11
9.8247690207
 21
9.7040671869
 31
0.0
 11
9.8365504821
 21
9.705361172
 31
0.0
 11
9.8409324053
 21
9.7066981281
 31
0.0
  0
SPLINE
  5
5E2
100
AcDbEntity
  8
ASSI
100
AcDbSpline
 62
253
  6
CONTINUOUS
 70
0
 71
3
 72
17
 73
13
 74
11
 42
0.0000001
 43
0.0000001
 44
0.0000000001
 12
-0.1414238943
 22
0.1417076164
 32
0.0
 13
-0.0000004892
 23
0.2002043117
 33
0.0
 40
0.0
 40
0.0
 40
0.0
 40
0.0
 40
0.0178774913
 40
0.058389992
 40
0.1209323587
 40
0.2041033138
 40
0.3059766177
 40
0.4241622179
 40
0.5558804402
 40
0.698040467
 40
0.8472808104
 40
1.0
 40
1.0
 40
1.0
 40
1.0
 10
-6.7812804887
 20
5.1560758
 30
0.0
 10
-6.7821232569
 20
5.1569202589
 30
0.0
 10
-6.7824387136
 20
5.1612137559
 30
0.0
 10
-6.7837194388
 20
5.168861445
 30
0.0
 10
-6.7844401142
 20
5.1814487042
 30
0.0
 10
-6.7853802792
 20
5.197870872
 30
0.0
 10
-6.7861266963
 20
5.2181211036
 30
0.0
 10
-6.7868012264
 20
5.2415781252
 30
0.0
 10
-6.7873341616
 20
5.2677401887
 30
0.0
 10
-6.7877279577
 20
5.2959734385
 30
0.0
 10
-6.7879673786
 20
5.3256111042
 30
0.0
 10
-6.7880208742
 20
5.3457622853
 30
0.0
 10
-6.7880208991
 20
5.3559539654
 30
0.0
 11
-6.7812804887
 21
5.1560758
 31
0.0
 11
-6.7823448224
 21
5.1594930379
 31
0.0
 11
-6.7833791014
 21
5.1675375998
 31
0.0
 11
-6.7843583352
 21
5.1800205016
 31
0.0
 11
-6.7852593264
 21
5.1966472914
 31
0.0
 11
-6.7860608842
 21
5.2170270091
 31
0.0
 11
-6.7867440791
 21
5.2406784105
 31
0.0
 11
-6.7872928164
 21
5.2670432566
 31
0.0
 11
-6.7876942089
 21
5.2955014764
 31
0.0
 11
-6.7879388071
 21
5.3253790354
 31
0.0
 11
-6.7880208991
 21
5.3559539654
 31
0.0
  0
SPLINE
  5
5E3
100
AcDbEntity
  8
ASSI
100
AcDbSpline
 62
253
  6
CONTINUOUS
 70
0
 71
3
 72
13
 73
9
 74
7
 42
0.0000001
 43
0.0000001
 44
0.0000000001
 12
0.0000002346
 22
0.141442405
 32
0.0
 13
0.0049357932
 23
0.1413562587
 33
0.0
 40
0.0
 40
0.0
 40
0.0
 40
0.0
 40
0.1844732589
 40
0.3659045925
 40
0.541117895
 40
0.7070849145
 40
0.8609356791
 40
1.0
 40
1.0
 40
1.0
 40
1.0
 10
-6.7880208991
 20
6.7070876325
 30
0.0
 10
-6.7880208847
 20
6.7157850796
 30
0.0
 10
-6.7879817782
 20
6.7330365814
 30
0.0
 10
-6.7878061651
 20
6.7585484064
 30
0.0
 10
-6.7875168886
 20
6.783186629
 30
0.0
 10
-6.7871192145
 20
6.8065228307
 30
0.0
 10
-6.7866205727
 20
6.8281523471
 30
0.0
 10
-6.7862040854
 20
6.8419564514
 30
0.0
 10
-6.7859752878
 20
6.8485089887
 30
0.0
 11
-6.7880208991
 21
6.7070876325
 31
0.0
 11
-6.7879612099
 21
6.7331799056
 31
0.0
 11
-6.7877830126
 21
6.7588413711
 31
0.0
 11
-6.7874892924
 21
6.7836222214
 31
0.0
 11
-6.7870850801
 21
6.8070935154
 31
0.0
 11
-6.786577416
 21
6.8288486151
 31
0.0
 11
-6.7859752878
 21
6.8485089887
 31
0.0
  0
SPLINE
  5
5E4
100
AcDbEntity
  8
ASSI
100
AcDbSpline
 62
253
  6
CONTINUOUS
 70
0
 71
3
 72
13
 73
9
 74
7
 42
0.0000001
 43
0.0000001
 44
0.0000000001
 12
0.0197318509
 22
0.5654254321
 32
0.0
 13
0.0000091903
 23
0.565769622
 33
0.0
 40
0.0
 40
0.0
 40
0.0
 40
0.0
 40
0.1361522584
 40
0.2904133641
 40
0.4589859497
 40
0.637088475
 40
0.8192974361
 40
1.0
 40
1.0
 40
1.0
 40
1.0
 10
-6.7647746519
 20
7.4556157699
 30
0.0
 10
-6.7638791398
 20
7.4812770864
 30
0.0
 10
-6.7622214125
 20
7.5360217002
 30
0.0
 10
-6.7602170839
 20
7.6225591509
 30
0.0
 10
-6.7586038587
 20
7.7170174039
 30
0.0
 10
-6.7574376791
 20
7.8167532017
 30
0.0
 10
-6.7567440397
 20
7.9187809828
 30
0.0
 10
-6.7565927602
 20
7.9872225211
 30
0.0
 10
-6.7565922066
 20
8.0213011949
 30
0.0
 11
-6.7647746519
 21
7.4556157699
 31
0.0
 11
-6.7624103977
 21
7.5326102909
 31
0.0
 11
-6.7603640859
 21
7.6198625458
 31
0.0
 11
-6.7587177839
 21
7.7152215839
 31
0.0
 11
-6.75752798
 21
7.8159795576
 31
0.0
 11
-6.7568212646
 21
7.9190654302
 31
0.0
 11
-6.7565922066
 21
8.0213011949
 31
0.0
  0
SPLINE
  5
5E5
100
AcDbEntity
  8
ASSI
100
AcDbSpline
 62
253
  6
CONTINUOUS
 70
0
 71
3
 72
13
 73
9
 74
7
 42
0.0000001
 43
0.0000001
 44
0.0000000001
 12
0.0000092097
 22
-0.565769622
 32
0.0
 13
0.0197318825
 23
-0.565425431
 33
0.0
 40
0.0
 40
0.0
 40
0.0
 40
0.0
 40
0.1807025814
 40
0.3629115369
 40
0.5410140573
 40
0.709586639
 40
0.8638477379
 40
1.0
 40
1.0
 40
1.0
 40
1.0
 10
-7.5218404944
 20
8.0213011949
 30
0.0
 10
-7.5218399396
 20
7.9872225178
 30
0.0
 10
-7.5216886619
 20
7.9187809773
 30
0.0
 10
-7.5209950216
 20
7.8167531948
 30
0.0
 10
-7.5198288421
 20
7.7170173998
 30
0.0
 10
-7.5182156174
 20
7.6225591497
 30
0.0
 10
-7.5162112876
 20
7.5360217004
 30
0.0
 10
-7.5145535626
 20
7.4812770871
 30
0.0
 10
-7.5136580491
 20
7.4556157699
 30
0.0
 11
-7.5218404944
 21
8.0213011949
 31
0.0
 11
-7.5216114364
 21
7.9190654203
 31
0.0
 11
-7.5209047209
 21
7.8159795509
 31
0.0
 11
-7.519714917
 21
7.7152215799
 31
0.0
 11
-7.5180686151
 21
7.6198625441
 31
0.0
 11
-7.5160223032
 21
7.532610293
 31
0.0
 11
-7.5136580491
 21
7.4556157699
 31
0.0
  0
SPLINE
  5
5E6
100
AcDbEntity
  8
ASSI
100
AcDbSpline
 62
253
  6
CONTINUOUS
 70
0
 71
3
 72
13
 73
9
 74
7
 42
0.0000001
 43
0.0000001
 44
0.0000000001
 12
0.0049357932
 22
-0.1413562587
 32
0.0
 13
0.0000002346
 23
-0.141442405
 33
0.0
 40
0.0
 40
0.0
 40
0.0
 40
0.0
 40
0.1390643219
 40
0.2929150865
 40
0.4588821061
 40
0.6340954086
 40
0.8155267422
 40
1.0
 40
1.0
 40
1.0
 40
1.0
 10
-7.4924574131
 20
6.8485089887
 30
0.0
 10
-7.4922286156
 20
6.8419564513
 30
0.0
 10
-7.4918121283
 20
6.828152347
 30
0.0
 10
-7.4913134865
 20
6.8065228305
 30
0.0
 10
-7.4909158123
 20
6.7831866289
 30
0.0
 10
-7.4906265359
 20
6.7585484063
 30
0.0
 10
-7.4904509227
 20
6.7330365813
 30
0.0
 10
-7.4904118162
 20
6.7157850796
 30
0.0
 10
-7.4904118018
 20
6.7070876325
 30
0.0
 11
-7.4924574131
 21
6.8485089887
 31
0.0
 11
-7.491855285
 21
6.828848615
 31
0.0
 11
-7.4913476209
 21
6.8070935153
 31
0.0
 11
-7.4909434086
 21
6.7836222212
 31
0.0
 11
-7.4906496884
 21
6.7588413709
 31
0.0
 11
-7.4904714911
 21
6.7331799055
 31
0.0
 11
-7.4904118018
 21
6.7070876325
 31
0.0
  0
SPLINE
  5
5E7
100
AcDbEntity
  8
ASSI
100
AcDbSpline
 62
253
  6
CONTINUOUS
 70
0
 71
3
 72
17
 73
13
 74
11
 42
0.0000001
 43
0.0000001
 44
0.0000000001
 12
-0.0000004892
 22
-0.2002043117
 32
0.0
 13
-0.1414238981
 23
-0.1417076126
 33
0.0
 40
0.0
 40
0.0
 40
0.0
 40
0.0
 40
0.1527191901
 40
0.3019595335
 40
0.4441195603
 40
0.5758377826
 40
0.6940233827
 40
0.7958966866
 40
0.8790676415
 40
0.9416100082
 40
0.9821225088
 40
1.0
 40
1.0
 40
1.0
 40
1.0
 10
-7.4904118018
 20
5.3559539654
 30
0.0
 10
-7.4904118267
 20
5.3457622853
 30
0.0
 10
-7.4904653224
 20
5.3256111041
 30
0.0
 10
-7.4907047433
 20
5.2959734384
 30
0.0
 10
-7.4910985394
 20
5.2677401886
 30
0.0
 10
-7.4916314746
 20
5.2415781251
 30
0.0
 10
-7.4923060047
 20
5.2181211035
 30
0.0
 10
-7.4930524218
 20
5.1978708719
 30
0.0
 10
-7.4939925868
 20
5.1814487041
 30
0.0
 10
-7.4947132621
 20
5.168861445
 30
0.0
 10
-7.4959939874
 20
5.1612137559
 30
0.0
 10
-7.4963094441
 20
5.1569202589
 30
0.0
 10
-7.4971522123
 20
5.1560758
 30
0.0
 11
-7.4904118018
 21
5.3559539654
 31
0.0
 11
-7.4904938939
 21
5.3253790353
 31
0.0
 11
-7.4907384921
 21
5.2955014763
 31
0.0
 11
-7.4911398846
 21
5.2670432565
 31
0.0
 11
-7.4916886219
 21
5.2406784104
 31
0.0
 11
-7.4923718168
 21
5.217027009
 31
0.0
 11
-7.4931733746
 21
5.1966472913
 31
0.0
 11
-7.4940743658
 21
5.1800205016
 31
0.0
 11
-7.4950535996
 21
5.1675375997
 31
0.0
 11
-7.4960878786
 21
5.1594930378
 31
0.0
 11
-7.4971522123
 21
5.1560758
 31
0.0
  0
SPLINE
  5
5E8
100
AcDbEntity
  8
ASSI
100
AcDbSpline
 62
253
  6
CONTINUOUS
 70
0
 71
3
 72
13
 73
9
 74
7
 42
0.0000001
 43
0.0000001
 44
0.0000000001
 12
0.0000092097
 22
-0.565769622
 32
0.0
 13
0.0197318825
 23
-0.565425431
 33
0.0
 40
0.0
 40
0.0
 40
0.0
 40
0.0
 40
0.1807025814
 40
0.3629115369
 40
0.5410140573
 40
0.709586639
 40
0.8638477379
 40
1.0
 40
1.0
 40
1.0
 40
1.0
 10
6.7781595056
 20
8.0213011949
 30
0.0
 10
6.7781600604
 20
7.9872225178
 30
0.0
 10
6.7783113381
 20
7.9187809773
 30
0.0
 10
6.7790049784
 20
7.8167531948
 30
0.0
 10
6.7801711579
 20
7.7170173998
 30
0.0
 10
6.7817843826
 20
7.6225591497
 30
0.0
 10
6.7837887124
 20
7.5360217004
 30
0.0
 10
6.7854464374
 20
7.4812770871
 30
0.0
 10
6.7863419509
 20
7.4556157699
 30
0.0
 11
6.7781595056
 21
8.0213011949
 31
0.0
 11
6.7783885636
 21
7.9190654203
 31
0.0
 11
6.7790952791
 21
7.8159795509
 31
0.0
 11
6.780285083
 21
7.7152215799
 31
0.0
 11
6.7819313849
 21
7.6198625441
 31
0.0
 11
6.7839776968
 21
7.532610293
 31
0.0
 11
6.7863419509
 21
7.4556157699
 31
0.0
  0
SPLINE
  5
5E9
100
AcDbEntity
  8
ASSI
100
AcDbSpline
 62
253
  6
CONTINUOUS
 70
0
 71
3
 72
13
 73
9
 74
7
 42
0.0000001
 43
0.0000001
 44
0.0000000001
 12
0.0049357932
 22
-0.1413562587
 32
0.0
 13
0.0000002346
 23
-0.141442405
 33
0.0
 40
0.0
 40
0.0
 40
0.0
 40
0.0
 40
0.1390643219
 40
0.2929150865
 40
0.4588821061
 40
0.6340954086
 40
0.8155267422
 40
1.0
 40
1.0
 40
1.0
 40
1.0
 10
6.8075425869
 20
6.8485089887
 30
0.0
 10
6.8077713844
 20
6.8419564513
 30
0.0
 10
6.8081878717
 20
6.828152347
 30
0.0
 10
6.8086865135
 20
6.8065228305
 30
0.0
 10
6.8090841877
 20
6.7831866289
 30
0.0
 10
6.8093734641
 20
6.7585484063
 30
0.0
 10
6.8095490773
 20
6.7330365813
 30
0.0
 10
6.8095881838
 20
6.7157850796
 30
0.0
 10
6.8095881982
 20
6.7070876325
 30
0.0
 11
6.8075425869
 21
6.8485089887
 31
0.0
 11
6.808144715
 21
6.828848615
 31
0.0
 11
6.8086523791
 21
6.8070935153
 31
0.0
 11
6.8090565914
 21
6.7836222212
 31
0.0
 11
6.8093503116
 21
6.7588413709
 31
0.0
 11
6.8095285089
 21
6.7331799055
 31
0.0
 11
6.8095881982
 21
6.7070876325
 31
0.0
  0
SPLINE
  5
5EA
100
AcDbEntity
  8
ASSI
100
AcDbSpline
 62
253
  6
CONTINUOUS
 70
0
 71
3
 72
17
 73
13
 74
11
 42
0.0000001
 43
0.0000001
 44
0.0000000001
 12
-0.0000004892
 22
-0.2002043117
 32
0.0
 13
-0.1414238981
 23
-0.1417076126
 33
0.0
 40
0.0
 40
0.0
 40
0.0
 40
0.0
 40
0.1527191901
 40
0.3019595335
 40
0.4441195603
 40
0.5758377826
 40
0.6940233827
 40
0.7958966866
 40
0.8790676415
 40
0.9416100082
 40
0.9821225088
 40
1.0
 40
1.0
 40
1.0
 40
1.0
 10
6.8095881982
 20
5.3559539654
 30
0.0
 10
6.8095881733
 20
5.3457622853
 30
0.0
 10
6.8095346776
 20
5.3256111041
 30
0.0
 10
6.8092952567
 20
5.2959734384
 30
0.0
 10
6.8089014606
 20
5.2677401886
 30
0.0
 10
6.8083685254
 20
5.2415781251
 30
0.0
 10
6.8076939953
 20
5.2181211035
 30
0.0
 10
6.8069475782
 20
5.1978708719
 30
0.0
 10
6.8060074132
 20
5.1814487041
 30
0.0
 10
6.8052867379
 20
5.168861445
 30
0.0
 10
6.8040060126
 20
5.1612137559
 30
0.0
 10
6.8036905559
 20
5.1569202589
 30
0.0
 10
6.8028477877
 20
5.1560758
 30
0.0
 11
6.8095881982
 21
5.3559539654
 31
0.0
 11
6.8095061061
 21
5.3253790353
 31
0.0
 11
6.8092615079
 21
5.2955014763
 31
0.0
 11
6.8088601154
 21
5.2670432565
 31
0.0
 11
6.8083113781
 21
5.2406784104
 31
0.0
 11
6.8076281832
 21
5.217027009
 31
0.0
 11
6.8068266254
 21
5.1966472913
 31
0.0
 11
6.8059256342
 21
5.1800205016
 31
0.0
 11
6.8049464004
 21
5.1675375997
 31
0.0
 11
6.8039121214
 21
5.1594930378
 31
0.0
 11
6.8028477877
 21
5.1560758
 31
0.0
  0
SPLINE
  5
5EB
100
AcDbEntity
  8
ASSI
100
AcDbSpline
 62
253
  6
CONTINUOUS
 70
0
 71
3
 72
17
 73
13
 74
11
 42
0.0000001
 43
0.0000001
 44
0.0000000001
 12
-0.1414238943
 22
0.1417076164
 32
0.0
 13
-0.0000004892
 23
0.2002043117
 33
0.0
 40
0.0
 40
0.0
 40
0.0
 40
0.0
 40
0.0178774913
 40
0.058389992
 40
0.1209323587
 40
0.2041033138
 40
0.3059766177
 40
0.4241622179
 40
0.5558804402
 40
0.698040467
 40
0.8472808104
 40
1.0
 40
1.0
 40
1.0
 40
1.0
 10
7.5187195113
 20
5.1560758
 30
0.0
 10
7.5178767431
 20
5.1569202589
 30
0.0
 10
7.5175612864
 20
5.1612137559
 30
0.0
 10
7.5162805612
 20
5.168861445
 30
0.0
 10
7.5155598858
 20
5.1814487042
 30
0.0
 10
7.5146197208
 20
5.197870872
 30
0.0
 10
7.5138733037
 20
5.2181211036
 30
0.0
 10
7.5131987736
 20
5.2415781252
 30
0.0
 10
7.5126658384
 20
5.2677401887
 30
0.0
 10
7.5122720423
 20
5.2959734385
 30
0.0
 10
7.5120326214
 20
5.3256111042
 30
0.0
 10
7.5119791258
 20
5.3457622853
 30
0.0
 10
7.5119791009
 20
5.3559539654
 30
0.0
 11
7.5187195113
 21
5.1560758
 31
0.0
 11
7.5176551776
 21
5.1594930379
 31
0.0
 11
7.5166208986
 21
5.1675375998
 31
0.0
 11
7.5156416648
 21
5.1800205016
 31
0.0
 11
7.5147406736
 21
5.1966472914
 31
0.0
 11
7.5139391158
 21
5.2170270091
 31
0.0
 11
7.5132559209
 21
5.2406784105
 31
0.0
 11
7.5127071836
 21
5.2670432566
 31
0.0
 11
7.5123057911
 21
5.2955014764
 31
0.0
 11
7.5120611929
 21
5.3253790354
 31
0.0
 11
7.5119791009
 21
5.3559539654
 31
0.0
  0
SPLINE
  5
5EC
100
AcDbEntity
  8
ASSI
100
AcDbSpline
 62
253
  6
CONTINUOUS
 70
0
 71
3
 72
13
 73
9
 74
7
 42
0.0000001
 43
0.0000001
 44
0.0000000001
 12
0.0000002346
 22
0.141442405
 32
0.0
 13
0.0049357932
 23
0.1413562587
 33
0.0
 40
0.0
 40
0.0
 40
0.0
 40
0.0
 40
0.1844732589
 40
0.3659045925
 40
0.541117895
 40
0.7070849145
 40
0.8609356791
 40
1.0
 40
1.0
 40
1.0
 40
1.0
 10
7.5119791009
 20
6.7070876325
 30
0.0
 10
7.5119791153
 20
6.7157850796
 30
0.0
 10
7.5120182218
 20
6.7330365814
 30
0.0
 10
7.5121938349
 20
6.7585484064
 30
0.0
 10
7.5124831114
 20
6.783186629
 30
0.0
 10
7.5128807855
 20
6.8065228307
 30
0.0
 10
7.5133794273
 20
6.8281523471
 30
0.0
 10
7.5137959146
 20
6.8419564514
 30
0.0
 10
7.5140247122
 20
6.8485089887
 30
0.0
 11
7.5119791009
 21
6.7070876325
 31
0.0
 11
7.5120387901
 21
6.7331799056
 31
0.0
 11
7.5122169874
 21
6.7588413711
 31
0.0
 11
7.5125107076
 21
6.7836222214
 31
0.0
 11
7.5129149199
 21
6.8070935154
 31
0.0
 11
7.513422584
 21
6.8288486151
 31
0.0
 11
7.5140247122
 21
6.8485089887
 31
0.0
  0
SPLINE
  5
5ED
100
AcDbEntity
  8
ASSI
100
AcDbSpline
 62
253
  6
CONTINUOUS
 70
0
 71
3
 72
13
 73
9
 74
7
 42
0.0000001
 43
0.0000001
 44
0.0000000001
 12
0.0197318509
 22
0.5654254321
 32
0.0
 13
0.0000091903
 23
0.565769622
 33
0.0
 40
0.0
 40
0.0
 40
0.0
 40
0.0
 40
0.1361522584
 40
0.2904133641
 40
0.4589859497
 40
0.637088475
 40
0.8192974361
 40
1.0
 40
1.0
 40
1.0
 40
1.0
 10
7.5352253481
 20
7.4556157699
 30
0.0
 10
7.5361208602
 20
7.4812770864
 30
0.0
 10
7.5377785875
 20
7.5360217002
 30
0.0
 10
7.5397829161
 20
7.6225591509
 30
0.0
 10
7.5413961413
 20
7.7170174039
 30
0.0
 10
7.5425623209
 20
7.8167532017
 30
0.0
 10
7.5432559603
 20
7.9187809828
 30
0.0
 10
7.5434072398
 20
7.9872225211
 30
0.0
 10
7.5434077934
 20
8.0213011949
 30
0.0
 11
7.5352253481
 21
7.4556157699
 31
0.0
 11
7.5375896023
 21
7.5326102909
 31
0.0
 11
7.5396359141
 21
7.6198625458
 31
0.0
 11
7.5412822161
 21
7.7152215839
 31
0.0
 11
7.54247202
 21
7.8159795576
 31
0.0
 11
7.5431787354
 21
7.9190654302
 31
0.0
 11
7.5434077934
 21
8.0213011949
 31
0.0
  0
SPLINE
  5
5EE
100
AcDbEntity
  8
ASSI
100
AcDbSpline
 62
253
  6
CONTINUOUS
 70
0
 71
3
 72
15
 73
11
 74
9
 42
0.0000001
 43
0.0000001
 44
0.0000000001
 12
0.0000001707
 22
0.0492833389
 32
0.0
 13
0.0095687383
 23
0.0483454935
 33
0.0
 40
0.0
 40
0.0
 40
0.0
 40
0.0
 40
0.1760003266
 40
0.3468630124
 40
0.5072188018
 40
0.6521964061
 40
0.7773808262
 40
0.8789617246
 40
0.9539026917
 40
1.0
 40
1.0
 40
1.0
 40
1.0
 10
-5.2990713099
 20
-6.6372913429
 30
0.0
 10
-5.2990712999
 20
-6.6344000483
 30
0.0
 10
-5.2990541763
 20
-6.6287018468
 30
0.0
 10
-5.298977534
 20
-6.6203696507
 30
0.0
 10
-5.2988523564
 20
-6.6125477873
 30
0.0
 10
-5.2986837301
 20
-6.6054771047
 30
0.0
 10
-5.298475307
 20
-6.5993740548
 30
0.0
 10
-5.2982425503
 20
-6.5944217945
 30
0.0
 10
-5.2979797353
 20
-6.5907761316
 30
0.0
 10
-5.2977754988
 20
-6.5887938209
 30
0.0
 10
-5.2976284678
 20
-6.5880509552
 30
0.0
 11
-5.2990713099
 21
-6.6372913429
 31
0.0
 11
-5.2990448373
 21
-6.6286174995
 31
0.0
 11
-5.2989660951
 21
-6.620197184
 31
0.0
 11
-5.2988374658
 21
-6.6122953622
 31
0.0
 11
-5.2986628307
 21
-6.6051525163
 31
0.0
 11
-5.2984475053
 21
-6.5989867688
 31
0.0
 11
-5.2981980848
 21
-6.5939867401
 31
0.0
 11
-5.2979221677
 21
-6.5903037199
 31
0.0
 11
-5.2976284678
 21
-6.5880509552
 31
0.0
  0
SPLINE
  5
5EF
100
AcDbEntity
  8
ASSI
100
AcDbSpline
 62
253
  6
CONTINUOUS
 70
0
 71
3
 72
15
 73
11
 74
9
 42
0.0000001
 43
0.0000001
 44
0.0000000001
 12
0.0000001618
 22
0.050068276
 32
0.0
 13
0.0447346513
 23
0.0224865123
 33
0.0
 40
0.0
 40
0.0
 40
0.0
 40
0.0
 40
0.1713418136
 40
0.3377810062
 40
0.4942125627
 40
0.6359871151
 40
0.7588983147
 40
0.8592833316
 40
0.9341930349
 40
1.0
 40
1.0
 40
1.0
 40
1.0
 10
-5.2397060018
 20
-4.9100633723
 30
0.0
 10
-5.2397059925
 20
-4.9072037759
 30
0.0
 10
-5.2396887888
 20
-4.9015668061
 30
0.0
 10
-5.2396156918
 20
-4.8933171775
 30
0.0
 10
-5.2394867416
 20
-4.8855693816
 30
0.0
 10
-5.2393418999
 20
-4.8785239291
 30
0.0
 10
-5.2390760419
 20
-4.8724917391
 30
0.0
 10
-5.2390155243
 20
-4.8673624938
 30
0.0
 10
-5.238295658
 20
-4.8637576613
 30
0.0
 10
-5.2389717197
 20
-4.8605642439
 30
0.0
 10
-5.2379904359
 20
-4.8600709875
 30
0.0
 11
-5.2397060018
 21
-4.9100633723
 31
0.0
 11
-5.2396801107
 21
-4.9014846221
 31
0.0
 11
-5.2396030905
 21
-4.8931516546
 31
0.0
 11
-5.2394772233
 21
-4.8853204077
 31
0.0
 11
-5.2393062292
 21
-4.8782240602
 31
0.0
 11
-5.2390951766
 21
-4.8720737284
 31
0.0
 11
-5.2388503799
 21
-4.8670535887
 31
0.0
 11
-5.2385791334
 21
-4.8633128102
 31
0.0
 11
-5.2379904359
 21
-4.8600709875
 31
0.0
  0
SPLINE
  5
5F0
100
AcDbEntity
  8
ASSI
100
AcDbSpline
 62
253
  6
CONTINUOUS
 70
0
 71
3
 72
15
 73
11
 74
9
 42
0.0000001
 43
0.0000001
 44
0.0000000001
 12
0.0447346513
 22
-0.0224865123
 32
0.0
 13
0.0000001618
 23
-0.050068276
 33
0.0
 40
0.0
 40
0.0
 40
0.0
 40
0.0
 40
0.0658069653
 40
0.1407166687
 40
0.2411016857
 40
0.3640128853
 40
0.5057874378
 40
0.6622189942
 40
0.8286581869
 40
1.0
 40
1.0
 40
1.0
 40
1.0
 10
-5.9404422651
 20
-4.8600709875
 30
0.0
 10
-5.9394609812
 20
-4.8605642439
 30
0.0
 10
-5.940137043
 20
-4.8637576613
 30
0.0
 10
-5.9394171767
 20
-4.8673624938
 30
0.0
 10
-5.9393566591
 20
-4.8724917391
 30
0.0
 10
-5.939090801
 20
-4.8785239291
 30
0.0
 10
-5.9389459594
 20
-4.8855693816
 30
0.0
 10
-5.9388170091
 20
-4.8933171775
 30
0.0
 10
-5.9387439121
 20
-4.9015668062
 30
0.0
 10
-5.9387267085
 20
-4.9072037759
 30
0.0
 10
-5.9387266992
 20
-4.9100633723
 30
0.0
 11
-5.9404422651
 21
-4.8600709875
 31
0.0
 11
-5.9398535675
 21
-4.8633128102
 31
0.0
 11
-5.9395823211
 21
-4.8670535887
 31
0.0
 11
-5.9393375243
 21
-4.8720737285
 31
0.0
 11
-5.9391264718
 21
-4.8782240602
 31
0.0
 11
-5.9389554777
 21
-4.8853204078
 31
0.0
 11
-5.9388296104
 21
-4.8931516547
 31
0.0
 11
-5.9387525903
 21
-4.9014846222
 31
0.0
 11
-5.9387266992
 21
-4.9100633723
 31
0.0
  0
SPLINE
  5
5F1
100
AcDbEntity
  8
ASSI
100
AcDbSpline
 62
253
  6
CONTINUOUS
 70
0
 71
3
 72
15
 73
11
 74
9
 42
0.0000001
 43
0.0000001
 44
0.0000000001
 12
0.0095687383
 22
-0.0483454935
 32
0.0
 13
0.0000001707
 23
-0.0492833389
 33
0.0
 40
0.0
 40
0.0
 40
0.0
 40
0.0
 40
0.0460973084
 40
0.1210382755
 40
0.222619174
 40
0.3478035941
 40
0.4927811984
 40
0.6531369878
 40
0.8239996736
 40
1.0
 40
1.0
 40
1.0
 40
1.0
 10
-5.8808042332
 20
-6.5880509552
 30
0.0
 10
-5.8806572021
 20
-6.5887938209
 30
0.0
 10
-5.8804529656
 20
-6.5907761316
 30
0.0
 10
-5.8801901507
 20
-6.5944217945
 30
0.0
 10
-5.879957394
 20
-6.5993740548
 30
0.0
 10
-5.8797489709
 20
-6.6054771047
 30
0.0
 10
-5.8795803446
 20
-6.6125477874
 30
0.0
 10
-5.879455167
 20
-6.6203696507
 30
0.0
 10
-5.8793785246
 20
-6.6287018468
 30
0.0
 10
-5.8793614011
 20
-6.6344000483
 30
0.0
 10
-5.8793613911
 20
-6.6372913429
 30
0.0
 11
-5.8808042332
 21
-6.5880509552
 31
0.0
 11
-5.8805105333
 21
-6.5903037199
 31
0.0
 11
-5.8802346162
 21
-6.5939867401
 31
0.0
 11
-5.8799851957
 21
-6.5989867688
 31
0.0
 11
-5.8797698703
 21
-6.6051525163
 31
0.0
 11
-5.8795952351
 21
-6.6122953622
 31
0.0
 11
-5.8794666059
 21
-6.620197184
 31
0.0
 11
-5.8793878637
 21
-6.6286174995
 31
0.0
 11
-5.8793613911
 21
-6.6372913429
 31
0.0
  0
SPLINE
  5
5F2
100
AcDbEntity
  8
ASSI
100
AcDbSpline
 62
253
  6
CONTINUOUS
 70
0
 71
3
 72
15
 73
11
 74
9
 42
0.0000001
 43
0.0000001
 44
0.0000000001
 12
0.0000001707
 22
0.0492833389
 32
0.0
 13
0.0095687383
 23
0.0483454935
 33
0.0
 40
0.0
 40
0.0
 40
0.0
 40
0.0
 40
0.1760003266
 40
0.3468630124
 40
0.5072188018
 40
0.6521964061
 40
0.7773808262
 40
0.8789617246
 40
0.9539026917
 40
1.0
 40
1.0
 40
1.0
 40
1.0
 10
5.9009286901
 20
-6.6372913429
 30
0.0
 10
5.9009287001
 20
-6.6344000483
 30
0.0
 10
5.9009458237
 20
-6.6287018468
 30
0.0
 10
5.901022466
 20
-6.6203696507
 30
0.0
 10
5.9011476436
 20
-6.6125477873
 30
0.0
 10
5.9013162699
 20
-6.6054771047
 30
0.0
 10
5.901524693
 20
-6.5993740548
 30
0.0
 10
5.9017574497
 20
-6.5944217945
 30
0.0
 10
5.9020202647
 20
-6.5907761316
 30
0.0
 10
5.9022245012
 20
-6.5887938209
 30
0.0
 10
5.9023715322
 20
-6.5880509552
 30
0.0
 11
5.9009286901
 21
-6.6372913429
 31
0.0
 11
5.9009551627
 21
-6.6286174995
 31
0.0
 11
5.9010339049
 21
-6.620197184
 31
0.0
 11
5.9011625342
 21
-6.6122953622
 31
0.0
 11
5.9013371693
 21
-6.6051525163
 31
0.0
 11
5.9015524947
 21
-6.5989867688
 31
0.0
 11
5.9018019152
 21
-6.5939867401
 31
0.0
 11
5.9020778323
 21
-6.5903037199
 31
0.0
 11
5.9023715322
 21
-6.5880509552
 31
0.0
  0
SPLINE
  5
5F3
100
AcDbEntity
  8
ASSI
100
AcDbSpline
 62
253
  6
CONTINUOUS
 70
0
 71
3
 72
15
 73
11
 74
9
 42
0.0000001
 43
0.0000001
 44
0.0000000001
 12
0.0000001618
 22
0.050068276
 32
0.0
 13
0.0447346513
 23
0.0224865123
 33
0.0
 40
0.0
 40
0.0
 40
0.0
 40
0.0
 40
0.1713418136
 40
0.3377810062
 40
0.4942125627
 40
0.6359871151
 40
0.7588983147
 40
0.8592833316
 40
0.9341930349
 40
1.0
 40
1.0
 40
1.0
 40
1.0
 10
5.9602939982
 20
-4.9100633723
 30
0.0
 10
5.9602940075
 20
-4.9072037759
 30
0.0
 10
5.9603112112
 20
-4.9015668061
 30
0.0
 10
5.9603843082
 20
-4.8933171775
 30
0.0
 10
5.9605132584
 20
-4.8855693816
 30
0.0
 10
5.9606581001
 20
-4.8785239291
 30
0.0
 10
5.9609239581
 20
-4.8724917391
 30
0.0
 10
5.9609844757
 20
-4.8673624938
 30
0.0
 10
5.961704342
 20
-4.8637576613
 30
0.0
 10
5.9610282803
 20
-4.8605642439
 30
0.0
 10
5.9620095641
 20
-4.8600709875
 30
0.0
 11
5.9602939982
 21
-4.9100633723
 31
0.0
 11
5.9603198893
 21
-4.9014846221
 31
0.0
 11
5.9603969095
 21
-4.8931516546
 31
0.0
 11
5.9605227767
 21
-4.8853204077
 31
0.0
 11
5.9606937708
 21
-4.8782240602
 31
0.0
 11
5.9609048234
 21
-4.8720737284
 31
0.0
 11
5.9611496201
 21
-4.8670535887
 31
0.0
 11
5.9614208666
 21
-4.8633128102
 31
0.0
 11
5.9620095641
 21
-4.8600709875
 31
0.0
  0
SPLINE
  5
5F4
100
AcDbEntity
  8
ASSI
100
AcDbSpline
 62
253
  6
CONTINUOUS
 70
0
 71
3
 72
15
 73
11
 74
9
 42
0.0000001
 43
0.0000001
 44
0.0000000001
 12
0.0447346513
 22
-0.0224865123
 32
0.0
 13
0.0000001618
 23
-0.050068276
 33
0.0
 40
0.0
 40
0.0
 40
0.0
 40
0.0
 40
0.0658069653
 40
0.1407166687
 40
0.2411016857
 40
0.3640128853
 40
0.5057874378
 40
0.6622189942
 40
0.8286581869
 40
1.0
 40
1.0
 40
1.0
 40
1.0
 10
5.2595577349
 20
-4.8600709875
 30
0.0
 10
5.2605390188
 20
-4.8605642439
 30
0.0
 10
5.259862957
 20
-4.8637576613
 30
0.0
 10
5.2605828233
 20
-4.8673624938
 30
0.0
 10
5.2606433409
 20
-4.8724917391
 30
0.0
 10
5.260909199
 20
-4.8785239291
 30
0.0
 10
5.2610540406
 20
-4.8855693816
 30
0.0
 10
5.2611829909
 20
-4.8933171775
 30
0.0
 10
5.2612560879
 20
-4.9015668062
 30
0.0
 10
5.2612732915
 20
-4.9072037759
 30
0.0
 10
5.2612733008
 20
-4.9100633723
 30
0.0
 11
5.2595577349
 21
-4.8600709875
 31
0.0
 11
5.2601464325
 21
-4.8633128102
 31
0.0
 11
5.2604176789
 21
-4.8670535887
 31
0.0
 11
5.2606624757
 21
-4.8720737285
 31
0.0
 11
5.2608735282
 21
-4.8782240602
 31
0.0
 11
5.2610445223
 21
-4.8853204078
 31
0.0
 11
5.2611703896
 21
-4.8931516547
 31
0.0
 11
5.2612474097
 21
-4.9014846222
 31
0.0
 11
5.2612733008
 21
-4.9100633723
 31
0.0
  0
SPLINE
  5
5F5
100
AcDbEntity
  8
ASSI
100
AcDbSpline
 62
253
  6
CONTINUOUS
 70
0
 71
3
 72
15
 73
11
 74
9
 42
0.0000001
 43
0.0000001
 44
0.0000000001
 12
0.0095687383
 22
-0.0483454935
 32
0.0
 13
0.0000001707
 23
-0.0492833389
 33
0.0
 40
0.0
 40
0.0
 40
0.0
 40
0.0
 40
0.0460973084
 40
0.1210382755
 40
0.222619174
 40
0.3478035941
 40
0.4927811984
 40
0.6531369878
 40
0.8239996736
 40
1.0
 40
1.0
 40
1.0
 40
1.0
 10
5.3191957668
 20
-6.5880509552
 30
0.0
 10
5.3193427979
 20
-6.5887938209
 30
0.0
 10
5.3195470344
 20
-6.5907761316
 30
0.0
 10
5.3198098493
 20
-6.5944217945
 30
0.0
 10
5.320042606
 20
-6.5993740548
 30
0.0
 10
5.3202510291
 20
-6.6054771047
 30
0.0
 10
5.3204196554
 20
-6.6125477874
 30
0.0
 10
5.320544833
 20
-6.6203696507
 30
0.0
 10
5.3206214754
 20
-6.6287018468
 30
0.0
 10
5.3206385989
 20
-6.6344000483
 30
0.0
 10
5.3206386089
 20
-6.6372913429
 30
0.0
 11
5.3191957668
 21
-6.5880509552
 31
0.0
 11
5.3194894667
 21
-6.5903037199
 31
0.0
 11
5.3197653838
 21
-6.5939867401
 31
0.0
 11
5.3200148043
 21
-6.5989867688
 31
0.0
 11
5.3202301297
 21
-6.6051525163
 31
0.0
 11
5.3204047649
 21
-6.6122953622
 31
0.0
 11
5.3205333941
 21
-6.620197184
 31
0.0
 11
5.3206121363
 21
-6.6286174995
 31
0.0
 11
5.3206386089
 21
-6.6372913429
 31
0.0
  0
SPLINE
  5
5F6
100
AcDbEntity
  8
ASSI
100
AcDbSpline
 62
253
  6
CONTINUOUS
 70
0
 71
3
 72
15
 73
11
 74
9
 42
0.0000001
 43
0.0000001
 44
0.0000000001
 12
-0.4014143357
 22
-0.0070088488
 32
0.0
 13
-0.0139942489
 23
-0.4012315464
 33
0.0
 40
0.0
 40
0.0
 40
0.0
 40
0.0
 40
0.1440044844
 40
0.2856956272
 40
0.4226390599
 40
0.5528844372
 40
0.67524257
 40
0.7895686166
 40
0.89699843
 40
1.0
 40
1.0
 40
1.0
 40
1.0
 10
7.086159199
 20
7.6677478043
 30
0.0
 10
7.0668907109
 20
7.6674113691
 30
0.0
 10
7.0286565565
 20
7.6641420958
 30
0.0
 10
6.9733223014
 20
7.6516027314
 30
0.0
 10
6.9220605748
 20
7.6318756745
 30
0.0
 10
6.8767362487
 20
7.6056384387
 30
0.0
 10
6.8389951409
 20
7.5737740549
 30
0.0
 10
6.8102650772
 20
7.5373162531
 30
0.0
 10
6.791758883
 20
7.4975269102
 30
0.0
 10
6.7868224274
 20
7.4693915963
 30
0.0
 10
6.7863419509
 20
7.4556157699
 30
0.0
 11
7.086159199
 21
7.6677478043
 31
0.0
 11
7.0285576607
 21
7.6627926848
 31
0.0
 11
6.9731009192
 21
7.6501233205
 31
0.0
 11
6.9218539095
 21
7.6302114559
 31
0.0
 11
6.876724817
 21
7.6037985106
 31
0.0
 11
6.8393940262
 21
7.5718679721
 31
0.0
 11
6.8112515514
 21
7.5356087758
 31
0.0
 11
6.7933452793
 21
7.4963710352
 31
0.0
 11
6.7863419509
 21
7.4556157699
 31
0.0
  0
SPLINE
  5
5F7
100
AcDbEntity
  8
ASSI
100
AcDbSpline
 62
253
  6
CONTINUOUS
 70
0
 71
3
 72
15
 73
11
 74
9
 42
0.0000001
 43
0.0000001
 44
0.0000000001
 12
-0.4014143352
 22
-0.0070088515
 32
0.0
 13
-0.0139942492
 23
-0.401231546
 33
0.0
 40
0.0
 40
0.0
 40
0.0
 40
0.0
 40
0.1440045699
 40
0.2856957779
 40
0.4226392486
 40
0.5528846346
 40
0.6752427483
 40
0.7895687529
 40
0.8969985064
 40
1.0
 40
1.0
 40
1.0
 40
1.0
 10
7.107359835
 20
7.0606410231
 30
0.0
 10
7.0880913354
 20
7.0603045876
 30
0.0
 10
7.0498571609
 20
7.0570353108
 30
0.0
 10
6.9945228825
 20
7.0444959341
 30
0.0
 10
6.9432611454
 20
7.0247688621
 30
0.0
 10
6.8979368225
 20
6.9985316133
 30
0.0
 10
6.8601957292
 20
6.9666672232
 30
0.0
 10
6.8314656865
 20
6.9302094258
 30
0.0
 10
6.8129595124
 20
6.8904201005
 30
0.0
 10
6.808023063
 20
6.8622848049
 30
0.0
 10
6.8075425869
 20
6.8485089887
 30
0.0
 11
7.107359835
 21
7.0606410231
 31
0.0
 11
7.0497582628
 21
7.055685898
 31
0.0
 11
6.9943014974
 21
7.043016521
 31
0.0
 11
6.9430544772
 21
7.0231046411
 31
0.0
 11
6.8979253884
 21
6.9966916828
 31
0.0
 11
6.8605946128
 21
6.9647611385
 31
0.0
 11
6.832452159
 21
6.9285019474
 31
0.0
 11
6.8145459061
 21
6.8892642244
 31
0.0
 11
6.8075425869
 21
6.8485089887
 31
0.0
  0
SPLINE
  5
5F8
100
AcDbEntity
  8
ASSI
100
AcDbSpline
 62
253
  6
CONTINUOUS
 70
0
 71
3
 72
15
 73
11
 74
9
 42
0.0000001
 43
0.0000001
 44
0.0000000001
 12
0.4014143357
 22
-0.0070088487
 32
0.0
 13
0.0139942489
 23
-0.4012315464
 33
0.0
 40
0.0
 40
0.0
 40
0.0
 40
0.0
 40
0.1440044844
 40
0.2856956272
 40
0.4226390599
 40
0.5528844372
 40
0.67524257
 40
0.7895686166
 40
0.89699843
 40
1.0
 40
1.0
 40
1.0
 40
1.0
 10
-7.0857925359
 20
7.0606410231
 30
0.0
 10
-7.0665240478
 20
7.0603045879
 30
0.0
 10
-7.0282898935
 20
7.0570353146
 30
0.0
 10
-6.9729556384
 20
7.0444959502
 30
0.0
 10
-6.9216939117
 20
7.0247688933
 30
0.0
 10
-6.8763695857
 20
6.9985316575
 30
0.0
 10
-6.8386284778
 20
6.9666672737
 30
0.0
 10
-6.8098984141
 20
6.9302094719
 30
0.0
 10
-6.7913922199
 20
6.890420129
 30
0.0
 10
-6.7864557644
 20
6.8622848152
 30
0.0
 10
-6.7859752878
 20
6.8485089887
 30
0.0
 11
-7.0857925359
 21
7.0606410231
 31
0.0
 11
-7.0281909977
 21
7.0556859036
 31
0.0
 11
-6.9727342561
 21
7.0430165393
 31
0.0
 11
-6.9214872464
 21
7.0231046748
 31
0.0
 11
-6.8763581539
 21
6.9966917294
 31
0.0
 11
-6.8390273632
 21
6.9647611909
 31
0.0
 11
-6.8108848883
 21
6.9285019946
 31
0.0
 11
-6.7929786162
 21
6.8892642541
 31
0.0
 11
-6.7859752878
 21
6.8485089887
 31
0.0
  0
SPLINE
  5
5F9
100
AcDbEntity
  8
ASSI
100
AcDbSpline
 62
253
  6
CONTINUOUS
 70
0
 71
3
 72
15
 73
11
 74
9
 42
0.0000001
 43
0.0000001
 44
0.0000000001
 12
0.4014143351
 22
-0.007008849
 32
0.0
 13
0.0139942489
 23
-0.4012315459
 33
0.0
 40
0.0
 40
0.0
 40
0.0
 40
0.0
 40
0.1440042721
 40
0.2856952433
 40
0.4226385679
 40
0.5528839124
 40
0.6752420872
 40
0.7895682409
 40
0.8969982159
 40
1.0
 40
1.0
 40
1.0
 40
1.0
 10
-7.0645919
 20
7.6677478043
 30
0.0
 10
-7.0453234403
 20
7.6674113696
 30
0.0
 10
-7.0070893375
 20
7.6641421045
 30
0.0
 10
-6.9517551437
 20
7.651602771
 30
0.0
 10
-6.9004934473
 20
7.6318757538
 30
0.0
 10
-6.8551691163
 20
7.6056385542
 30
0.0
 10
-6.8174279719
 20
7.57377419
 30
0.0
 10
-6.7886978522
 20
7.537316379
 30
0.0
 10
-6.7701916024
 20
7.4975269892
 30
0.0
 10
-6.7652551294
 20
7.4693916249
 30
0.0
 10
-6.7647746519
 20
7.4556157699
 30
0.0
 11
-7.0645919
 21
7.6677478043
 31
0.0
 11
-7.0069904462
 21
7.6627926979
 31
0.0
 11
-6.9515337681
 21
7.6501233656
 31
0.0
 11
-6.9002867892
 21
7.6302115418
 31
0.0
 11
-6.8551576908
 21
7.6037986328
 31
0.0
 11
-6.8178268622
 21
7.5718681127
 31
0.0
 11
-6.7896843314
 21
7.5356089054
 31
0.0
 11
-6.771778006
 21
7.4963711179
 31
0.0
 11
-6.7647746519
 21
7.4556157699
 31
0.0
  0
SPLINE
  5
5FA
100
AcDbEntity
  8
ASSI
100
AcDbSpline
 62
253
  6
CONTINUOUS
 70
0
 71
3
 72
15
 73
11
 74
9
 42
0.0000001
 43
0.0000001
 44
0.0000000001
 12
0.3882348029
 22
-0.0023184616
 32
0.0
 13
0.0023876314
 23
-0.3882343837
 33
0.0
 40
0.0
 40
0.0
 40
0.0
 40
0.0
 40
0.1257290456
 40
0.2514557317
 40
0.3770343051
 40
0.502340937
 40
0.627292244
 40
0.751858067
 40
0.8760664778
 40
1.0
 40
1.0
 40
1.0
 40
1.0
 10
5.6525238254
 20
-6.341849017
 30
0.0
 10
5.6687946225
 20
-6.3419461829
 30
0.0
 10
5.7014034946
 20
-6.345291663
 30
0.0
 10
5.7483670875
 20
-6.3595541839
 30
0.0
 10
5.7917022786
 20
-6.382522338
 30
0.0
 10
5.8297360311
 20
-6.4133262186
 30
0.0
 10
5.8610238073
 20
-6.4507958537
 30
0.0
 10
5.8843668353
 20
-6.4935142447
 30
0.0
 10
5.8988689516
 20
-6.5398298295
 30
0.0
 10
5.9022728963
 20
-6.572012537
 30
0.0
 10
5.9023715322
 20
-6.5880509552
 30
0.0
 11
5.6525238254
 21
-6.341849017
 31
0.0
 11
5.7010819414
 21
-6.3468333814
 31
0.0
 11
5.7477883213
 21
-6.3610164398
 31
0.0
 11
5.7908618444
 21
-6.3838573293
 31
0.0
 11
5.8286599263
 21
-6.4144850258
 31
0.0
 11
5.859741159
 21
-6.4517315595
 31
0.0
 11
5.8829202774
 21
-6.4941765553
 31
0.0
 11
5.8973133591
 21
-6.5402013975
 31
0.0
 11
5.9023715322
 21
-6.5880509552
 31
0.0
  0
SPLINE
  5
5FB
100
AcDbEntity
  8
ASSI
100
AcDbSpline
 62
7
  6
CONTINUOUS
 70
0
 71
3
 72
17
 73
13
 74
11
 42
0.0000001
 43
0.0000001
 44
0.0000000001
 12
-0.0148532747
 22
0.3571597571
 32
0.0
 13
-0.3573152673
 23
0.0104647825
 33
0.0
 40
0.0
 40
0.0
 40
0.0
 40
0.0
 40
0.0784048065
 40
0.159813855
 40
0.2448266776
 40
0.3341391228
 40
0.4284979008
 40
0.5286788015
 40
0.6354463523
 40
0.7494674181
 40
0.8710888176
 40
1.0
 40
1.0
 40
1.0
 40
1.0
 10
5.9602939982
 20
-6.2955804941
 30
0.0
 10
5.9599058089
 20
-6.2862461469
 30
0.0
 10
5.9575949132
 20
-6.2672509306
 30
0.0
 10
5.9495444381
 20
-6.2390925016
 30
0.0
 10
5.9366750641
 20
-6.2113359
 30
0.0
 10
5.9188790619
 20
-6.1845766504
 30
0.0
 10
5.896091358
 20
-6.1594171518
 30
0.0
 10
5.8682811749
 20
-6.1365131141
 30
0.0
 10
5.8354692922
 20
-6.1166110515
 30
0.0
 10
5.7977863615
 20
-6.1005996807
 30
0.0
 10
5.7556244003
 20
-6.089543194
 30
0.0
 10
5.7258002694
 20
-6.0863608731
 30
0.0
 10
5.7104462915
 20
-6.0859111973
 30
0.0
 11
5.9602939982
 21
-6.2955804941
 31
0.0
 11
5.9569297272
 21
-6.2677558963
 31
0.0
 11
5.9489683891
 21
-6.2397649137
 31
0.0
 11
5.9362318081
 21
-6.2121733318
 31
0.0
 11
5.9186032812
 21
-6.1855551234
 31
0.0
 11
5.8960087157
 21
-6.1605108031
 31
0.0
 11
5.8684075943
 21
-6.1376932083
 31
0.0
 11
5.8358068133
 21
-6.1178479264
 31
0.0
 11
5.7983137448
 21
-6.1018616593
 31
0.0
 11
5.7562673835
 21
-6.0908049822
 31
0.0
 11
5.7104462915
 21
-6.0859111973
 31
0.0
  0
SPLINE
  5
5FC
100
AcDbEntity
  8
ASSI
100
AcDbSpline
 62
7
  6
CONTINUOUS
 70
0
 71
3
 72
14
 73
10
 74
8
 42
0.0000001
 43
0.0000001
 44
0.0000000001
 12
-0.187164952
 22
-0.0179573555
 32
0.0
 13
-0.188024429
 23
-0.0
 33
0.0
 40
0.0
 40
0.0
 40
0.0
 40
0.0
 40
0.0778830372
 40
0.1849747095
 40
0.3167251878
 40
0.4673848541
 40
0.636225452
 40
0.8166806958
 40
1.0
 40
1.0
 40
1.0
 40
1.0
 10
-4.1541873099
 20
5.705358978
 30
0.0
 10
-4.1590463016
 20
5.7048927869
 30
0.0
 10
-4.1706149659
 20
5.7040947271
 30
0.0
 10
-4.1904428614
 20
5.7031426691
 30
0.0
 10
-4.2148417387
 20
5.7023174412
 30
0.0
 10
-4.2431159233
 20
5.7016404436
 30
0.0
 10
-4.2744468533
 20
5.7011393528
 30
0.0
 10
-4.3078272108
 20
5.7008329315
 30
0.0
 10
-4.3306267764
 20
5.7007648586
 30
0.0
 10
-4.3421162789
 20
5.7007648586
 30
0.0
 11
-4.1541873099
 21
5.705358978
 31
0.0
 11
-4.1687902025
 21
5.7042636539
 31
0.0
 11
-4.1889009942
 21
5.7032593966
 31
0.0
 11
-4.213658235
 21
5.7023955136
 31
0.0
 11
-4.2419774691
 21
5.7017030993
 31
0.0
 11
-4.2737194118
 21
5.7011858391
 31
0.0
 11
-4.3076479297
 21
5.7008693285
 31
0.0
 11
-4.3421162789
 21
5.7007648586
 31
0.0
  0
SPLINE
  5
5FD
100
AcDbEntity
  8
ASSI
100
AcDbSpline
 62
7
  6
CONTINUOUS
 70
0
 71
3
 72
14
 73
10
 74
8
 42
0.0000001
 43
0.0000001
 44
0.0000000001
 12
0.1880504183
 22
0.0
 32
0.0
 13
0.1871908232
 23
-0.0179598313
 33
0.0
 40
0.0
 40
0.0
 40
0.0
 40
0.0
 40
0.1832425357
 40
0.3636522946
 40
0.53247933
 40
0.6831485856
 40
0.8149281021
 40
0.9220655165
 40
1.0
 40
1.0
 40
1.0
 40
1.0
 10
-4.3474609218
 20
7.3281369619
 30
0.0
 10
-4.3359746433
 20
7.3281369619
 30
0.0
 10
-4.3131795895
 20
7.3280688786
 30
0.0
 10
-4.2798031319
 20
7.3277624021
 30
0.0
 10
-4.2484709733
 20
7.3272611473
 30
0.0
 10
-4.2201913138
 20
7.3265838393
 30
0.0
 10
-4.1957837849
 20
7.3257581274
 30
0.0
 10
-4.1759452527
 20
7.3248053954
 30
0.0
 10
-4.1643689176
 20
7.3240067135
 30
0.0
 10
-4.1595060442
 20
7.3235401501
 30
0.0
 11
-4.3474609218
 21
7.3281369619
 31
0.0
 11
-4.3130022446
 21
7.3280324905
 31
0.0
 11
-4.279077591
 21
7.3277159281
 31
0.0
 11
-4.2473338132
 21
7.3271984978
 31
0.0
 11
-4.2190088662
 21
7.3265057707
 31
0.0
 11
-4.1942427523
 21
7.3256413972
 31
0.0
 11
-4.1741205972
 21
7.3246364216
 31
0.0
 11
-4.1595060442
 21
7.3235401501
 31
0.0
  0
SPLINE
  5
5FE
100
AcDbEntity
  8
ASSI
100
AcDbSpline
 62
7
  6
CONTINUOUS
 70
0
 71
3
 72
14
 73
10
 74
8
 42
0.0000001
 43
0.0000001
 44
0.0000000001
 12
0.1871908232
 22
0.0179598313
 32
0.0
 13
0.1880504183
 23
0.0
 33
0.0
 40
0.0
 40
0.0
 40
0.0
 40
0.0
 40
0.0779344835
 40
0.1850718979
 40
0.3168514144
 40
0.46752067
 40
0.6363477055
 40
0.8167574643
 40
1.0
 40
1.0
 40
1.0
 40
1.0
 10
4.1810733433
 20
7.3235401501
 30
0.0
 10
4.1859362166
 20
7.3240067135
 30
0.0
 10
4.1975125517
 20
7.3248053954
 30
0.0
 10
4.2173510839
 20
7.3257581274
 30
0.0
 10
4.2417586129
 20
7.3265838393
 30
0.0
 10
4.2700382723
 20
7.3272611473
 30
0.0
 10
4.301370431
 20
7.3277624021
 30
0.0
 10
4.3347468886
 20
7.3280688786
 30
0.0
 10
4.3575419423
 20
7.3281369619
 30
0.0
 10
4.3690282208
 20
7.3281369619
 30
0.0
 11
4.1810733433
 21
7.3235401501
 31
0.0
 11
4.1956878962
 21
7.3246364216
 31
0.0
 11
4.2158100513
 21
7.3256413972
 31
0.0
 11
4.2405761652
 21
7.3265057707
 31
0.0
 11
4.2689011122
 21
7.3271984978
 31
0.0
 11
4.30064489
 21
7.3277159281
 31
0.0
 11
4.3345695437
 21
7.3280324905
 31
0.0
 11
4.3690282208
 21
7.3281369619
 31
0.0
  0
SPLINE
  5
5FF
100
AcDbEntity
  8
ASSI
100
AcDbSpline
 62
7
  6
CONTINUOUS
 70
0
 71
3
 72
14
 73
10
 74
8
 42
0.0000001
 43
0.0000001
 44
0.0000000001
 12
-0.188024429
 22
0.0
 32
0.0
 13
-0.187164952
 23
0.0179573555
 33
0.0
 40
0.0
 40
0.0
 40
0.0
 40
0.0
 40
0.1833193042
 40
0.363774548
 40
0.5326151459
 40
0.6832748122
 40
0.8150252905
 40
0.9221169628
 40
1.0
 40
1.0
 40
1.0
 40
1.0
 10
4.3636835779
 20
5.7007648586
 30
0.0
 10
4.3521940754
 20
5.7007648586
 30
0.0
 10
4.3293945098
 20
5.7008329315
 30
0.0
 10
4.2960141524
 20
5.7011393528
 30
0.0
 10
4.2646832223
 20
5.7016404436
 30
0.0
 10
4.2364090377
 20
5.7023174412
 30
0.0
 10
4.2120101604
 20
5.7031426691
 30
0.0
 10
4.1921822649
 20
5.7040947271
 30
0.0
 10
4.1806136006
 20
5.7048927869
 30
0.0
 10
4.175754609
 20
5.705358978
 30
0.0
 11
4.3636835779
 21
5.7007648586
 31
0.0
 11
4.3292152287
 21
5.7008693285
 31
0.0
 11
4.2952867109
 21
5.7011858391
 31
0.0
 11
4.2635447682
 21
5.7017030993
 31
0.0
 11
4.235225534
 21
5.7023955136
 31
0.0
 11
4.2104682932
 21
5.7032593966
 31
0.0
 11
4.1903575015
 21
5.7042636539
 31
0.0
 11
4.175754609
 21
5.705358978
 31
0.0
  0
SPLINE
  5
600
100
AcDbEntity
  8
ASSI
100
AcDbSpline
 62
253
  6
CONTINUOUS
 70
0
 71
3
 72
15
 73
11
 74
9
 42
0.0000001
 43
0.0000001
 44
0.0000000001
 12
0.2881576673
 22
0.0038542516
 32
0.0
 13
0.0214951096
 23
0.2873806826
 33
0.0
 40
0.0
 40
0.0
 40
0.0
 40
0.0
 40
0.1661012139
 40
0.3273713521
 40
0.4790823685
 40
0.6171102583
 40
0.7383301595
 40
0.8411950579
 40
0.9267168348
 40
1.0
 40
1.0
 40
1.0
 40
1.0
 10
5.6512445736
 20
-7.046082666
 30
0.0
 10
5.6671990197
 20
-7.0458692674
 30
0.0
 10
5.69864255
 20
-7.0441844664
 30
0.0
 10
5.7442914473
 20
-7.0379346513
 30
0.0
 10
5.7865792143
 20
-7.0282077023
 30
0.0
 10
5.8239983102
 20
-7.0153593505
 30
0.0
 10
5.8552735469
 20
-6.9998446326
 30
0.0
 10
5.8793907575
 20
-6.9820982482
 30
0.0
 10
5.8956427931
 20
-6.9624532679
 30
0.0
 10
5.9005672038
 20
-6.9474481559
 30
0.0
 10
5.9010922803
 20
-6.9404281006
 30
0.0
 11
5.6512445736
 21
-7.046082666
 31
0.0
 11
5.69904214
 21
-7.0434939113
 31
0.0
 11
5.7450758491
 21
-7.0371018145
 31
0.0
 11
5.7876469493
 21
-7.0271422688
 31
0.0
 11
5.8251844846
 21
-7.0139828155
 31
0.0
 11
5.856303267
 21
-6.9981090766
 31
0.0
 11
5.8798549871
 21
-6.9801068302
 31
0.0
 11
5.8949705792
 21
-6.9606403919
 31
0.0
 11
5.9010922803
 21
-6.9404281006
 31
0.0
  0
SPLINE
  5
601
100
AcDbEntity
  8
ASSI
100
AcDbSpline
 62
253
  6
CONTINUOUS
 70
0
 71
3
 72
14
 73
10
 74
8
 42
0.0000001
 43
0.0000001
 44
0.0000000001
 12
0.2004260331
 22
0.0001424279
 32
0.0
 13
0.0795097631
 23
0.183980468
 33
0.0
 40
0.0
 40
0.0
 40
0.0
 40
0.0
 40
0.219626445
 40
0.4285016891
 40
0.6164034558
 40
0.7741463891
 40
0.8940461608
 40
0.9703499162
 40
1.0
 40
1.0
 40
1.0
 40
1.0
 10
9.6480169526
 20
-9.1010670352
 30
0.0
 10
9.6626899049
 20
-9.1010566082
 30
0.0
 10
9.6913285047
 20
-9.1009185513
 30
0.0
 10
9.7324606087
 20
-9.1002971454
 30
0.0
 10
9.7696378757
 20
-9.0994771129
 30
0.0
 10
9.8003161814
 20
-9.0979852959
 30
0.0
 10
9.8249155618
 20
-9.0973143824
 30
0.0
 10
9.8380549367
 20
-9.0945137377
 30
0.0
 10
9.8472006679
 20
-9.0948150651
 30
0.0
 10
9.8479864916
 20
-9.0929967197
 30
0.0
 11
9.6480169526
 21
-9.1010670352
 31
0.0
 11
9.6920352243
 21
-9.1008378733
 31
0.0
 11
9.733894774
 21
-9.1002242445
 31
0.0
 11
9.7715427467
 21
-9.099256242
 31
0.0
 11
9.8031328294
 21
-9.0979813381
 31
0.0
 11
9.8271157973
 21
-9.0964620561
 31
0.0
 11
9.8423154898
 21
-9.0947729038
 31
0.0
 11
9.8479864916
 21
-9.0929967197
 31
0.0
  0
SPLINE
  5
602
100
AcDbEntity
  8
ASSI
100
AcDbSpline
 62
253
  6
CONTINUOUS
 70
0
 71
3
 72
15
 73
11
 74
9
 42
0.0000001
 43
0.0000001
 44
0.0000000001
 12
-0.0006690231
 22
-0.3122541311
 32
0.0
 13
-0.3122541518
 23
-0.0006592875
 33
0.0
 40
0.0
 40
0.0
 40
0.0
 40
0.0
 40
0.1239311267
 40
0.2485008945
 40
0.3733674625
 40
0.4983911403
 40
0.623641287
 40
0.7490227936
 40
0.8745020714
 40
1.0
 40
1.0
 40
1.0
 40
1.0
 10
9.8479864916
 20
-9.0929967197
 30
0.0
 10
9.847958854
 20
-9.1058960551
 30
0.0
 10
9.8453469471
 20
-9.1318271727
 30
0.0
 10
9.8338882039
 20
-9.1692131287
 30
0.0
 10
9.8152817541
 20
-9.2037507264
 30
0.0
 10
9.7902500591
 20
-9.2340435696
 30
0.0
 10
9.7597633711
 20
-9.2589222883
 30
0.0
 10
9.724983418
 20
-9.2774335031
 30
0.0
 10
9.687268005
 20
-9.2888664491
 30
0.0
 10
9.661079369
 20
-9.2914783703
 30
0.0
 10
9.6480169526
 20
-9.29150595
 30
0.0
 11
9.8479864916
 21
-9.0929967197
 31
0.0
 11
9.8441064328
 21
-9.1314998067
 31
0.0
 11
9.8327154019
 21
-9.1686920236
 31
0.0
 11
9.8142265251
 21
-9.2030198031
 31
0.0
 11
9.7893639531
 21
-9.2331182336
 31
0.0
 11
9.7590657014
 21
-9.2578488894
 31
0.0
 11
9.7245075
 21
-9.2762480799
 31
0.0
 11
9.6870104445
 21
-9.2876130158
 31
0.0
 11
9.6480169526
 21
-9.29150595
 31
0.0
  0
SPLINE
  5
603
100
AcDbEntity
  8
ASSI
100
AcDbSpline
 62
253
  6
CONTINUOUS
 70
0
 71
3
 72
15
 73
11
 74
9
 42
0.0000001
 43
0.0000001
 44
0.0000000001
 12
-0.3882348025
 22
-0.0023184634
 32
0.0
 13
-0.0023876319
 23
-0.3882343833
 33
0.0
 40
0.0
 40
0.0
 40
0.0
 40
0.0
 40
0.125729459
 40
0.2514564959
 40
0.3770353051
 40
0.5023420228
 40
0.6272932526
 40
0.7518588458
 40
0.8760669051
 40
1.0
 40
1.0
 40
1.0
 40
1.0
 10
5.5690434736
 20
-6.341849017
 30
0.0
 10
5.552772623
 20
-6.3419461833
 30
0.0
 10
5.5201636513
 20
-6.3452916842
 30
0.0
 10
5.4731999454
 20
-6.3595542861
 30
0.0
 10
5.4298647071
 20
-6.3825225407
 30
0.0
 10
5.3918309795
 20
-6.4133265032
 30
0.0
 10
5.3605432834
 20
-6.4507961671
 30
0.0
 10
5.3372003573
 20
-6.4935145147
 30
0.0
 10
5.3226983252
 20
-6.5398299865
 30
0.0
 10
5.3192944024
 20
-6.5720125923
 30
0.0
 10
5.3191957668
 20
-6.5880509552
 30
0.0
 11
5.5690434736
 21
-6.341849017
 31
0.0
 11
5.5204851997
 21
-6.3468334134
 31
0.0
 11
5.4737787023
 21
-6.3610165538
 31
0.0
 11
5.4307051295
 21
-6.3838575449
 31
0.0
 11
5.3929070713
 21
-6.4144853234
 31
0.0
 11
5.3618259189
 21
-6.451731885
 31
0.0
 11
5.3386469031
 21
-6.4941768351
 31
0.0
 11
5.3242539062
 21
-6.5402015608
 31
0.0
 11
5.3191957668
 21
-6.5880509552
 31
0.0
  0
SPLINE
  5
604
100
AcDbEntity
  8
ASSI
100
AcDbSpline
 62
253
  6
CONTINUOUS
 70
0
 71
3
 72
14
 73
10
 74
8
 42
0.0000001
 43
0.0000001
 44
0.0000000001
 12
0.0619574506
 22
-0.1906092583
 32
0.0
 13
0.2004085935
 23
-0.0026477693
 33
0.0
 40
0.0
 40
0.0
 40
0.0
 40
0.0
 40
0.0296500838
 40
0.1059538392
 40
0.2258536109
 40
0.3835965442
 40
0.5714983109
 40
0.780373555
 40
1.0
 40
1.0
 40
1.0
 40
1.0
 10
-9.8264191926
 20
-9.0929967197
 30
0.0
 10
-9.8258068447
 20
-9.0948805799
 30
0.0
 10
-9.816275043
 20
-9.0944334402
 30
0.0
 10
-9.8034722878
 20
-9.0973613332
 30
0.0
 10
-9.77869614
 20
-9.0979646251
 30
0.0
 10
-9.7480896154
 20
-9.0994883469
 30
0.0
 10
-9.7108870162
 20
-9.1002757696
 30
0.0
 10
-9.6697637113
 20
-9.1010004548
 30
0.0
 10
-9.6411213292
 20
-9.1008731952
 30
0.0
 10
-9.6264496535
 20
-9.1010670352
 30
0.0
 11
-9.8264191926
 21
-9.0929967197
 31
0.0
 11
-9.8207481908
 21
-9.0947729038
 31
0.0
 11
-9.8055484982
 21
-9.0964620561
 31
0.0
 11
-9.7815655304
 21
-9.0979813381
 31
0.0
 11
-9.7499754477
 21
-9.099256242
 31
0.0
 11
-9.712327475
 21
-9.1002242445
 31
0.0
 11
-9.6704679253
 21
-9.1008378733
 31
0.0
 11
-9.6264496535
 21
-9.1010670352
 31
0.0
  0
SPLINE
  5
605
100
AcDbEntity
  8
ASSI
100
AcDbSpline
 62
253
  6
CONTINUOUS
 70
0
 71
3
 72
15
 73
11
 74
9
 42
0.0000001
 43
0.0000001
 44
0.0000000001
 12
-0.3122541466
 22
0.0006592875
 32
0.0
 13
-0.0006690231
 23
0.3122541259
 33
0.0
 40
0.0
 40
0.0
 40
0.0
 40
0.0
 40
0.1253892911
 40
0.2507579262
 40
0.376037153
 40
0.5011716683
 40
0.6261279947
 40
0.7508996291
 40
0.8755081425
 40
1.0
 40
1.0
 40
1.0
 40
1.0
 10
-9.6264496535
 20
-9.29150595
 30
0.0
 10
-9.6395007622
 20
-9.2914783942
 30
0.0
 10
-9.6656664002
 20
-9.2888709928
 30
0.0
 10
-9.7033520971
 20
-9.27745757
 30
0.0
 10
-9.738109109
 20
-9.258977373
 30
0.0
 10
-9.7685870277
 20
-9.2341359625
 30
0.0
 10
-9.793622434
 20
-9.2038842992
 30
0.0
 10
-9.8122526397
 20
-9.1693746621
 30
0.0
 10
-9.8237614108
 20
-9.1319488771
 30
0.0
 10
-9.8263914299
 20
-9.1059544184
 30
0.0
 10
-9.8264191926
 20
-9.0929967197
 30
0.0
 11
-9.6264496535
 21
-9.29150595
 31
0.0
 11
-9.6654097188
 21
-9.2876196806
 31
0.0
 11
-9.7028766095
 21
-9.2762743357
 31
0.0
 11
-9.7374143779
 21
-9.2579047343
 31
0.0
 11
-9.7676993375
 21
-9.2332149058
 31
0.0
 11
-9.7925707937
 21
-9.2031511069
 31
0.0
 11
-9.8110755287
 21
-9.1688655559
 31
0.0
 11
-9.8225043343
 21
-9.131672273
 31
0.0
 11
-9.8264191926
 21
-9.0929967197
 31
0.0
  0
SPLINE
  5
606
100
AcDbEntity
  8
ASSI
100
AcDbSpline
 62
253
  6
CONTINUOUS
 70
0
 71
3
 72
13
 73
9
 74
7
 42
0.0000001
 43
0.0000001
 44
0.0000000001
 12
0.0000009478
 22
-0.3537064006
 32
0.0
 13
0.0197326764
 23
-0.3531555455
 33
0.0
 40
0.0
 40
0.0
 40
0.0
 40
0.0
 40
0.1807365394
 40
0.3628821371
 40
0.5409121621
 40
0.7094442518
 40
0.8637208192
 40
1.0
 40
1.0
 40
1.0
 40
1.0
 10
7.0779767145
 20
8.0213121588
 30
0.0
 10
7.0779767716
 20
8.0000029352
 30
0.0
 10
7.0781288635
 20
7.9572181978
 30
0.0
 10
7.0788223004
 20
7.893446685
 30
0.0
 10
7.0799885399
 20
7.8311211323
 30
0.0
 10
7.0816014955
 20
7.7720923662
 30
0.0
 10
7.0836062814
 20
7.7180011882
 30
0.0
 10
7.0852631981
 20
7.6837830327
 30
0.0
 10
7.0861595825
 20
7.6677404499
 30
0.0
 11
7.0779767145
 21
8.0213121588
 31
0.0
 11
7.0782059449
 21
7.957384899
 31
0.0
 11
7.0789126758
 21
7.8929627116
 31
0.0
 11
7.0801022878
 21
7.8300035901
 31
0.0
 11
7.0817482724
 21
7.7704154402
 31
0.0
 11
7.0837942886
 21
7.7158852014
 31
0.0
 11
7.0861595825
 21
7.6677404499
 31
0.0
  0
SPLINE
  5
607
100
AcDbEntity
  8
ASSI
100
AcDbSpline
 62
253
  6
CONTINUOUS
 70
0
 71
3
 72
13
 73
9
 74
7
 42
0.0000001
 43
0.0000001
 44
0.0000000001
 12
0.0197326329
 22
0.3531555552
 32
0.0
 13
0.0000009482
 23
0.3537064079
 33
0.0
 40
0.0
 40
0.0
 40
0.0
 40
0.0
 40
0.1362791858
 40
0.2905557542
 40
0.4590878453
 40
0.6371178717
 40
0.8192634707
 40
1.0
 40
1.0
 40
1.0
 40
1.0
 10
7.2354077164
 20
7.6677404465
 30
0.0
 10
7.2363040988
 20
7.6837830303
 30
0.0
 10
7.2379610195
 20
7.718001187
 30
0.0
 10
7.2399658025
 20
7.7720923671
 30
0.0
 10
7.2415787598
 20
7.8311211348
 30
0.0
 10
7.2427449983
 20
7.8934466893
 30
0.0
 10
7.2434384357
 20
7.9572182026
 30
0.0
 10
7.2435905274
 20
8.0000029398
 30
0.0
 10
7.2435905845
 20
8.0213121626
 30
0.0
 11
7.2354077164
 21
7.6677404465
 31
0.0
 11
7.2377730107
 21
7.7158852007
 31
0.0
 11
7.2398190263
 21
7.770415441
 31
0.0
 11
7.2414650115
 21
7.8300035926
 31
0.0
 11
7.2426546232
 21
7.8929627159
 31
0.0
 11
7.2433613542
 21
7.957384905
 31
0.0
 11
7.2435905845
 21
8.0213121626
 31
0.0
  0
SPLINE
  5
608
100
AcDbEntity
  8
ASSI
100
AcDbSpline
 62
253
  6
CONTINUOUS
 70
0
 71
3
 72
13
 73
9
 74
7
 42
0.0000001
 43
0.0000001
 44
0.0000000001
 12
0.0000009478
 22
-0.3537064006
 32
0.0
 13
0.0197326764
 23
-0.3531555455
 33
0.0
 40
0.0
 40
0.0
 40
0.0
 40
0.0
 40
0.1807365394
 40
0.3628821371
 40
0.5409121621
 40
0.7094442518
 40
0.8637208192
 40
1.0
 40
1.0
 40
1.0
 40
1.0
 10
-7.2220232855
 20
8.0213121588
 30
0.0
 10
-7.2220232284
 20
8.0000029352
 30
0.0
 10
-7.2218711365
 20
7.9572181978
 30
0.0
 10
-7.2211776996
 20
7.893446685
 30
0.0
 10
-7.2200114601
 20
7.8311211323
 30
0.0
 10
-7.2183985045
 20
7.7720923662
 30
0.0
 10
-7.2163937186
 20
7.7180011882
 30
0.0
 10
-7.2147368019
 20
7.6837830327
 30
0.0
 10
-7.2138404175
 20
7.6677404499
 30
0.0
 11
-7.2220232855
 21
8.0213121588
 31
0.0
 11
-7.2217940551
 21
7.957384899
 31
0.0
 11
-7.2210873242
 21
7.8929627116
 31
0.0
 11
-7.2198977122
 21
7.8300035901
 31
0.0
 11
-7.2182517276
 21
7.7704154402
 31
0.0
 11
-7.2162057114
 21
7.7158852014
 31
0.0
 11
-7.2138404175
 21
7.6677404499
 31
0.0
  0
SPLINE
  5
609
100
AcDbEntity
  8
ASSI
100
AcDbSpline
 62
253
  6
CONTINUOUS
 70
0
 71
3
 72
13
 73
9
 74
7
 42
0.0000001
 43
0.0000001
 44
0.0000000001
 12
0.0197326329
 22
0.3531555552
 32
0.0
 13
0.0000009482
 23
0.3537064079
 33
0.0
 40
0.0
 40
0.0
 40
0.0
 40
0.0
 40
0.1362791858
 40
0.2905557542
 40
0.4590878453
 40
0.6371178717
 40
0.8192634707
 40
1.0
 40
1.0
 40
1.0
 40
1.0
 10
-7.0645922836
 20
7.6677404465
 30
0.0
 10
-7.0636959012
 20
7.6837830303
 30
0.0
 10
-7.0620389805
 20
7.718001187
 30
0.0
 10
-7.0600341975
 20
7.7720923671
 30
0.0
 10
-7.0584212402
 20
7.8311211348
 30
0.0
 10
-7.0572550017
 20
7.8934466893
 30
0.0
 10
-7.0565615643
 20
7.9572182026
 30
0.0
 10
-7.0564094726
 20
8.0000029398
 30
0.0
 10
-7.0564094155
 20
8.0213121626
 30
0.0
 11
-7.0645922836
 21
7.6677404465
 31
0.0
 11
-7.0622269893
 21
7.7158852007
 31
0.0
 11
-7.0601809737
 21
7.770415441
 31
0.0
 11
-7.0585349885
 21
7.8300035926
 31
0.0
 11
-7.0573453768
 21
7.8929627159
 31
0.0
 11
-7.0566386458
 21
7.957384905
 31
0.0
 11
-7.0564094155
 21
8.0213121626
 31
0.0
  0
SPLINE
  5
60A
100
AcDbEntity
  8
ASSI
100
AcDbSpline
 62
253
  6
CONTINUOUS
 70
0
 71
3
 72
13
 73
9
 74
7
 42
0.0000001
 43
0.0000001
 44
0.0000000001
 12
0.0049371296
 22
-0.3535273384
 32
0.0
 13
0.000000663
 23
-0.3535618111
 33
0.0
 40
0.0
 40
0.0
 40
0.0
 40
0.0
 40
0.1390722399
 40
0.2928914527
 40
0.4588232532
 40
0.6340132458
 40
0.8154446221
 40
1.0
 40
1.0
 40
1.0
 40
1.0
 10
7.107359835
 20
7.0606410231
 30
0.0
 10
7.1075887075
 20
7.0442524102
 30
0.0
 10
7.1080052808
 20
7.0097364405
 30
0.0
 10
7.1085037262
 20
6.9556645574
 30
0.0
 10
7.1089014577
 20
6.8973351165
 30
0.0
 10
7.1091907035
 20
6.8357508056
 30
0.0
 10
7.1093663202
 20
6.7719712009
 30
0.0
 10
7.1094054055
 20
6.7288382104
 30
0.0
 10
7.1094054463
 20
6.7070876325
 30
0.0
 11
7.107359835
 21
7.0606410231
 31
0.0
 11
7.1079621239
 21
7.0114740789
 31
0.0
 11
7.1084696443
 21
6.9570918476
 31
0.0
 11
7.1088738337
 21
6.8984260921
 31
0.0
 11
7.1091675393
 21
6.8364862974
 31
0.0
 11
7.1093457249
 21
6.7723393389
 31
0.0
 11
7.1094054463
 21
6.7070876325
 31
0.0
  0
SPLINE
  5
60B
100
AcDbEntity
  8
ASSI
100
AcDbSpline
 62
253
  6
CONTINUOUS
 70
0
 71
3
 72
13
 73
9
 74
7
 42
0.0000001
 43
0.0000001
 44
0.0000000001
 12
0.000000663
 22
0.3535618111
 32
0.0
 13
0.0049371293
 23
0.3535273384
 33
0.0
 40
0.0
 40
0.0
 40
0.0
 40
0.0
 40
0.184555379
 40
0.3659867553
 40
0.5411767479
 40
0.7071085483
 40
0.8609277611
 40
1.0
 40
1.0
 40
1.0
 40
1.0
 10
7.2121618527
 20
6.7070876325
 30
0.0
 10
7.2121618935
 20
6.7288382105
 30
0.0
 10
7.2122009788
 20
6.7719712012
 30
0.0
 10
7.2123765955
 20
6.835750806
 30
0.0
 10
7.2126658413
 20
6.8973351169
 30
0.0
 10
7.2130635728
 20
6.9556645578
 30
0.0
 10
7.2135620182
 20
7.0097364407
 30
0.0
 10
7.2139785915
 20
7.0442524103
 30
0.0
 10
7.2142074641
 20
7.0606410231
 30
0.0
 11
7.2121618527
 21
6.7070876325
 31
0.0
 11
7.2122215741
 21
6.7723393392
 31
0.0
 11
7.2123997598
 21
6.8364862977
 31
0.0
 11
7.2126934653
 21
6.8984260925
 31
0.0
 11
7.2130976547
 21
6.957091848
 31
0.0
 11
7.2136051752
 21
7.0114740793
 31
0.0
 11
7.2142074641
 21
7.0606410231
 31
0.0
  0
SPLINE
  5
60C
100
AcDbEntity
  8
ASSI
100
AcDbSpline
 62
253
  6
CONTINUOUS
 70
0
 71
3
 72
17
 73
13
 74
11
 42
0.0000001
 43
0.0000001
 44
0.0000000001
 12
-0.000001509
 22
-0.4998432663
 32
0.0
 13
-0.185506915
 23
-0.4641448862
 33
0.0
 40
0.0
 40
0.0
 40
0.0
 40
0.0
 40
0.1530153495
 40
0.3024422212
 40
0.4447665503
 40
0.5766197167
 40
0.6949031276
 40
0.7968310081
 40
0.8800040106
 40
0.9424699896
 40
0.9827635986
 40
1.0
 40
1.0
 40
1.0
 40
1.0
 10
7.1094054628
 20
5.355969426
 30
0.0
 10
7.1094053859
 20
5.3304748619
 30
0.0
 10
7.1093518623
 20
5.2800836535
 30
0.0
 10
7.1091126976
 20
5.2059792659
 30
0.0
 10
7.1087178932
 20
5.1354023514
 30
0.0
 10
7.108188174
 20
5.0700126252
 30
0.0
 10
7.1075038381
 20
5.0113641716
 30
0.0
 10
7.1067869629
 20
4.9608011525
 30
0.0
 10
7.1057665202
 20
4.9196181356
 30
0.0
 10
7.1052423163
 20
4.8885147253
 30
0.0
 10
7.1035892404
 20
4.8688071088
 30
0.0
 10
7.1037306501
 20
4.8589247538
 30
0.0
 10
7.1026648262
 20
4.8562580246
 30
0.0
 11
7.1094054628
 21
5.355969426
 31
0.0
 11
7.1093232989
 21
5.279485778
 31
0.0
 11
7.1090787031
 21
5.2047961629
 31
0.0
 11
7.1086772725
 21
5.133657438
 31
0.0
 11
7.1081285707
 21
5.0677538047
 31
0.0
 11
7.1074454163
 21
5.0086345853
 31
0.0
 11
7.1066439201
 21
4.9576929254
 31
0.0
 11
7.1057430391
 21
4.9161292222
 31
0.0
 11
7.1047637535
 21
4.8849213841
 31
0.0
 11
7.1037297507
 21
4.8648074551
 31
0.0
 11
7.1026648262
 21
4.8562580246
 31
0.0
  0
SPLINE
  5
60D
100
AcDbEntity
  8
ASSI
100
AcDbSpline
 62
253
  6
CONTINUOUS
 70
0
 71
3
 72
17
 73
13
 74
11
 42
0.0000001
 43
0.0000001
 44
0.0000000001
 12
-0.1855069271
 22
0.4641448815
 32
0.0
 13
-0.000001509
 23
0.4998432665
 33
0.0
 40
0.0
 40
0.0
 40
0.0
 40
0.0
 40
0.0172364015
 40
0.0575300106
 40
0.1199959897
 40
0.2031689922
 40
0.3050968727
 40
0.4233802836
 40
0.5552334501
 40
0.6975577792
 40
0.8469846509
 40
1.0
 40
1.0
 40
1.0
 40
1.0
 10
7.2189024728
 20
4.8562580246
 30
0.0
 10
7.2178366489
 20
4.8589247538
 30
0.0
 10
7.2179780587
 20
4.8688071089
 30
0.0
 10
7.2163249827
 20
4.8885147254
 30
0.0
 10
7.2158007789
 20
4.9196181358
 30
0.0
 10
7.2147803361
 20
4.9608011527
 30
0.0
 10
7.2140634609
 20
5.0113641718
 30
0.0
 10
7.213379125
 20
5.0700126255
 30
0.0
 10
7.2128494058
 20
5.1354023516
 30
0.0
 10
7.2124546014
 20
5.2059792662
 30
0.0
 10
7.2122154367
 20
5.2800836538
 30
0.0
 10
7.2121619132
 20
5.3304748621
 30
0.0
 10
7.2121618362
 20
5.3559694261
 30
0.0
 11
7.2189024728
 21
4.8562580246
 31
0.0
 11
7.2178375483
 21
4.8648074551
 31
0.0
 11
7.2168035455
 21
4.8849213842
 31
0.0
 11
7.21582426
 21
4.9161292223
 31
0.0
 11
7.2149233789
 21
4.9576929255
 31
0.0
 11
7.2141218827
 21
5.0086345855
 31
0.0
 11
7.2134387284
 21
5.067753805
 31
0.0
 11
7.2128900266
 21
5.1336574382
 31
0.0
 11
7.2124885959
 21
5.2047961632
 31
0.0
 11
7.2122440001
 21
5.2794857783
 31
0.0
 11
7.2121618362
 21
5.3559694261
 31
0.0
  0
SPLINE
  5
60E
100
AcDbEntity
  8
ASSI
100
AcDbSpline
 62
253
  6
CONTINUOUS
 70
0
 71
3
 72
17
 73
13
 74
11
 42
0.0000001
 43
0.0000001
 44
0.0000000001
 12
-0.000001509
 22
-0.4998432663
 32
0.0
 13
-0.185506915
 23
-0.4641448862
 33
0.0
 40
0.0
 40
0.0
 40
0.0
 40
0.0
 40
0.1530153495
 40
0.3024422212
 40
0.4447665503
 40
0.5766197167
 40
0.6949031276
 40
0.7968310081
 40
0.8800040106
 40
0.9424699896
 40
0.9827635986
 40
1.0
 40
1.0
 40
1.0
 40
1.0
 10
-7.1905945372
 20
5.355969426
 30
0.0
 10
-7.1905946141
 20
5.3304748619
 30
0.0
 10
-7.1906481377
 20
5.2800836535
 30
0.0
 10
-7.1908873024
 20
5.2059792659
 30
0.0
 10
-7.1912821068
 20
5.1354023514
 30
0.0
 10
-7.191811826
 20
5.0700126252
 30
0.0
 10
-7.1924961619
 20
5.0113641716
 30
0.0
 10
-7.1932130371
 20
4.9608011525
 30
0.0
 10
-7.1942334798
 20
4.9196181356
 30
0.0
 10
-7.1947576837
 20
4.8885147253
 30
0.0
 10
-7.1964107596
 20
4.8688071088
 30
0.0
 10
-7.1962693499
 20
4.8589247538
 30
0.0
 10
-7.1973351738
 20
4.8562580246
 30
0.0
 11
-7.1905945372
 21
5.355969426
 31
0.0
 11
-7.1906767011
 21
5.279485778
 31
0.0
 11
-7.1909212969
 21
5.2047961629
 31
0.0
 11
-7.1913227275
 21
5.133657438
 31
0.0
 11
-7.1918714293
 21
5.0677538047
 31
0.0
 11
-7.1925545837
 21
5.0086345853
 31
0.0
 11
-7.1933560799
 21
4.9576929254
 31
0.0
 11
-7.1942569609
 21
4.9161292222
 31
0.0
 11
-7.1952362465
 21
4.8849213841
 31
0.0
 11
-7.1962702493
 21
4.8648074551
 31
0.0
 11
-7.1973351738
 21
4.8562580246
 31
0.0
  0
SPLINE
  5
60F
100
AcDbEntity
  8
ASSI
100
AcDbSpline
 62
253
  6
CONTINUOUS
 70
0
 71
3
 72
17
 73
13
 74
11
 42
0.0000001
 43
0.0000001
 44
0.0000000001
 12
-0.1855069271
 22
0.4641448815
 32
0.0
 13
-0.000001509
 23
0.4998432665
 33
0.0
 40
0.0
 40
0.0
 40
0.0
 40
0.0
 40
0.0172364015
 40
0.0575300106
 40
0.1199959897
 40
0.2031689922
 40
0.3050968727
 40
0.4233802836
 40
0.5552334501
 40
0.6975577792
 40
0.8469846509
 40
1.0
 40
1.0
 40
1.0
 40
1.0
 10
-7.0810975272
 20
4.8562580246
 30
0.0
 10
-7.0821633511
 20
4.8589247538
 30
0.0
 10
-7.0820219413
 20
4.8688071089
 30
0.0
 10
-7.0836750173
 20
4.8885147254
 30
0.0
 10
-7.0841992211
 20
4.9196181358
 30
0.0
 10
-7.0852196639
 20
4.9608011527
 30
0.0
 10
-7.0859365391
 20
5.0113641718
 30
0.0
 10
-7.086620875
 20
5.0700126255
 30
0.0
 10
-7.0871505942
 20
5.1354023516
 30
0.0
 10
-7.0875453986
 20
5.2059792662
 30
0.0
 10
-7.0877845633
 20
5.2800836538
 30
0.0
 10
-7.0878380868
 20
5.3304748621
 30
0.0
 10
-7.0878381638
 20
5.3559694261
 30
0.0
 11
-7.0810975272
 21
4.8562580246
 31
0.0
 11
-7.0821624517
 21
4.8648074551
 31
0.0
 11
-7.0831964545
 21
4.8849213842
 31
0.0
 11
-7.08417574
 21
4.9161292223
 31
0.0
 11
-7.0850766211
 21
4.9576929255
 31
0.0
 11
-7.0858781173
 21
5.0086345855
 31
0.0
 11
-7.0865612716
 21
5.067753805
 31
0.0
 11
-7.0871099734
 21
5.1336574382
 31
0.0
 11
-7.0875114041
 21
5.2047961632
 31
0.0
 11
-7.0877559999
 21
5.2794857783
 31
0.0
 11
-7.0878381638
 21
5.3559694261
 31
0.0
  0
SPLINE
  5
610
100
AcDbEntity
  8
ASSI
100
AcDbSpline
 62
253
  6
CONTINUOUS
 70
0
 71
3
 72
13
 73
9
 74
7
 42
0.0000001
 43
0.0000001
 44
0.0000000001
 12
0.0049371296
 22
-0.3535273384
 32
0.0
 13
0.000000663
 23
-0.3535618111
 33
0.0
 40
0.0
 40
0.0
 40
0.0
 40
0.0
 40
0.1390722399
 40
0.2928914527
 40
0.4588232532
 40
0.6340132458
 40
0.8154446221
 40
1.0
 40
1.0
 40
1.0
 40
1.0
 10
-7.192640165
 20
7.0606410231
 30
0.0
 10
-7.1924112925
 20
7.0442524102
 30
0.0
 10
-7.1919947192
 20
7.0097364405
 30
0.0
 10
-7.1914962738
 20
6.9556645574
 30
0.0
 10
-7.1910985423
 20
6.8973351165
 30
0.0
 10
-7.1908092965
 20
6.8357508056
 30
0.0
 10
-7.1906336798
 20
6.7719712009
 30
0.0
 10
-7.1905945945
 20
6.7288382104
 30
0.0
 10
-7.1905945537
 20
6.7070876325
 30
0.0
 11
-7.192640165
 21
7.0606410231
 31
0.0
 11
-7.1920378761
 21
7.0114740789
 31
0.0
 11
-7.1915303557
 21
6.9570918476
 31
0.0
 11
-7.1911261663
 21
6.8984260921
 31
0.0
 11
-7.1908324607
 21
6.8364862974
 31
0.0
 11
-7.1906542751
 21
6.7723393389
 31
0.0
 11
-7.1905945537
 21
6.7070876325
 31
0.0
  0
SPLINE
  5
611
100
AcDbEntity
  8
ASSI
100
AcDbSpline
 62
253
  6
CONTINUOUS
 70
0
 71
3
 72
13
 73
9
 74
7
 42
0.0000001
 43
0.0000001
 44
0.0000000001
 12
0.000000663
 22
0.3535618111
 32
0.0
 13
0.0049371293
 23
0.3535273384
 33
0.0
 40
0.0
 40
0.0
 40
0.0
 40
0.0
 40
0.184555379
 40
0.3659867553
 40
0.5411767479
 40
0.7071085483
 40
0.8609277611
 40
1.0
 40
1.0
 40
1.0
 40
1.0
 10
-7.0878381473
 20
6.7070876325
 30
0.0
 10
-7.0878381065
 20
6.7288382105
 30
0.0
 10
-7.0877990212
 20
6.7719712012
 30
0.0
 10
-7.0876234045
 20
6.835750806
 30
0.0
 10
-7.0873341587
 20
6.8973351169
 30
0.0
 10
-7.0869364272
 20
6.9556645578
 30
0.0
 10
-7.0864379818
 20
7.0097364407
 30
0.0
 10
-7.0860214085
 20
7.0442524103
 30
0.0
 10
-7.0857925359
 20
7.0606410231
 30
0.0
 11
-7.0878381473
 21
6.7070876325
 31
0.0
 11
-7.0877784259
 21
6.7723393392
 31
0.0
 11
-7.0876002402
 21
6.8364862977
 31
0.0
 11
-7.0873065347
 21
6.8984260925
 31
0.0
 11
-7.0869023453
 21
6.957091848
 31
0.0
 11
-7.0863948248
 21
7.0114740793
 31
0.0
 11
-7.0857925359
 21
7.0606410231
 31
0.0
  0
SPLINE
  5
612
100
AcDbEntity
  8
ASSI
100
AcDbSpline
 62
253
  6
CONTINUOUS
 70
0
 71
3
 72
15
 73
11
 74
9
 42
0.0000001
 43
0.0000001
 44
0.0000000001
 12
-0.4014143352
 22
-0.0070088515
 32
0.0
 13
-0.0139942492
 23
-0.401231546
 33
0.0
 40
0.0
 40
0.0
 40
0.0
 40
0.0
 40
0.1440045699
 40
0.2856957779
 40
0.4226392486
 40
0.5528846346
 40
0.6752427483
 40
0.7895687529
 40
0.8969985064
 40
1.0
 40
1.0
 40
1.0
 40
1.0
 10
-7.192640165
 20
7.0606410231
 30
0.0
 10
-7.2119086646
 20
7.0603045876
 30
0.0
 10
-7.2501428391
 20
7.0570353108
 30
0.0
 10
-7.3054771175
 20
7.0444959341
 30
0.0
 10
-7.3567388546
 20
7.0247688621
 30
0.0
 10
-7.4020631775
 20
6.9985316133
 30
0.0
 10
-7.4398042708
 20
6.9666672232
 30
0.0
 10
-7.4685343135
 20
6.9302094258
 30
0.0
 10
-7.4870404876
 20
6.8904201005
 30
0.0
 10
-7.491976937
 20
6.8622848049
 30
0.0
 10
-7.4924574131
 20
6.8485089887
 30
0.0
 11
-7.192640165
 21
7.0606410231
 31
0.0
 11
-7.2502417372
 21
7.055685898
 31
0.0
 11
-7.3056985026
 21
7.043016521
 31
0.0
 11
-7.3569455228
 21
7.0231046411
 31
0.0
 11
-7.4020746116
 21
6.9966916828
 31
0.0
 11
-7.4394053872
 21
6.9647611385
 31
0.0
 11
-7.467547841
 21
6.9285019474
 31
0.0
 11
-7.4854540939
 21
6.8892642244
 31
0.0
 11
-7.4924574131
 21
6.8485089887
 31
0.0
  0
SPLINE
  5
613
100
AcDbEntity
  8
ASSI
100
AcDbSpline
 62
253
  6
CONTINUOUS
 70
0
 71
3
 72
15
 73
11
 74
9
 42
0.0000001
 43
0.0000001
 44
0.0000000001
 12
-0.4014143357
 22
-0.0070088488
 32
0.0
 13
-0.0139942489
 23
-0.4012315464
 33
0.0
 40
0.0
 40
0.0
 40
0.0
 40
0.0
 40
0.1440044844
 40
0.2856956272
 40
0.4226390599
 40
0.5528844372
 40
0.67524257
 40
0.7895686166
 40
0.89699843
 40
1.0
 40
1.0
 40
1.0
 40
1.0
 10
-7.213840801
 20
7.6677478043
 30
0.0
 10
-7.2331092891
 20
7.6674113691
 30
0.0
 10
-7.2713434435
 20
7.6641420958
 30
0.0
 10
-7.3266776986
 20
7.6516027314
 30
0.0
 10
-7.3779394252
 20
7.6318756745
 30
0.0
 10
-7.4232637513
 20
7.6056384387
 30
0.0
 10
-7.4610048591
 20
7.5737740549
 30
0.0
 10
-7.4897349228
 20
7.5373162531
 30
0.0
 10
-7.508241117
 20
7.4975269102
 30
0.0
 10
-7.5131775726
 20
7.4693915963
 30
0.0
 10
-7.5136580491
 20
7.4556157699
 30
0.0
 11
-7.213840801
 21
7.6677478043
 31
0.0
 11
-7.2714423393
 21
7.6627926848
 31
0.0
 11
-7.3268990808
 21
7.6501233205
 31
0.0
 11
-7.3781460905
 21
7.6302114559
 31
0.0
 11
-7.423275183
 21
7.6037985106
 31
0.0
 11
-7.4606059738
 21
7.5718679721
 31
0.0
 11
-7.4887484486
 21
7.5356087758
 31
0.0
 11
-7.5066547207
 21
7.4963710352
 31
0.0
 11
-7.5136580491
 21
7.4556157699
 31
0.0
  0
ELLIPSE
  5
614
100
AcDbEntity
  8
RACCORDO
100
AcDbEllipse
 62
7
  6
CONTINUOUS
 10
10.6476339434
 20
-10.6467173306
 30
0.0
 11
0.498078285
 21
0.0448076117
 31
0.0
 40
0.9965957691
 41
-1.6608206152
 42
-0.0909376769
  0
ELLIPSE
  5
615
100
AcDbEntity
  8
RACCORDO
100
AcDbEllipse
 62
7
  6
CONTINUOUS
 10
-10.6260666443
 20
-10.6467173306
 30
0.0
 11
0.498078285
 21
-0.0448076117
 31
0.0
 40
0.9965957691
 41
-3.0506549766
 42
-1.4807720384
  0
ELLIPSE
  5
616
100
AcDbEntity
  8
RACCORDO
100
AcDbEllipse
 62
7
  6
CONTINUOUS
 10
10.9607531839
 20
10.714186798
 30
0.0
 11
-0.1789222233
 21
-0.0894542984
 31
-0.0
 40
0.9998096356
 41
2.6780516535
 42
4.2486956813
  0
ELLIPSE
  5
617
100
AcDbEntity
  8
RACCORDO
100
AcDbEllipse
 62
7
  6
CONTINUOUS
 10
-10.9391858849
 20
10.714186798
 30
0.0
 11
-0.1789222233
 21
0.0894542984
 31
-0.0
 40
0.9998096356
 41
-1.1071030277
 42
0.4635410001
  0
ELLIPSE
  5
618
100
AcDbEntity
  8
RACCORDO
100
AcDbEllipse
 62
7
  6
CONTINUOUS
 10
-7.2737462966
 20
-11.118525912
 30
0.0
 11
0.2
 21
0.0
 31
0.0
 40
0.0524077793
 41
1.5707963268
 42
2.617993878
  0
ELLIPSE
  5
619
100
AcDbEntity
  8
RACCORDO
100
AcDbEllipse
 62
7
  6
CONTINUOUS
 10
-3.9046864043
 20
-11.118525912
 30
0.0
 11
0.2
 21
0.0
 31
0.0
 40
0.0524077793
 41
0.5235987756
 42
1.5707963268
  0
ELLIPSE
  5
61A
100
AcDbEntity
  8
RACCORDO
100
AcDbEllipse
 62
7
  6
CONTINUOUS
 10
3.9262537034
 20
-11.118525912
 30
0.0
 11
0.2
 21
0.0
 31
0.0
 40
0.0524077793
 41
1.5707963268
 42
2.617993878
  0
ELLIPSE
  5
61B
100
AcDbEntity
  8
RACCORDO
100
AcDbEllipse
 62
7
  6
CONTINUOUS
 10
7.2953135957
 20
-11.118525912
 30
0.0
 11
0.2
 21
-0.0
 31
0.0
 40
0.0524077793
 41
0.5235987756
 42
1.5707963268
  0
ELLIPSE
  5
61C
100
AcDbEntity
  8
RACCORDO
100
AcDbEllipse
 62
7
  6
CONTINUOUS
 10
5.5408036616
 20
-8.7532128031
 30
0.0
 11
0.0096324734
 21
0.5915363915
 31
0.0
 40
0.4225722455
 41
-4.6738730357
 42
-3.1347116709
  0
ELLIPSE
  5
61D
100
AcDbEntity
  8
RACCORDO
100
AcDbEllipse
 62
7
  6
CONTINUOUS
 10
-5.5192363626
 20
-8.7532128031
 30
0.0
 11
-0.0096324734
 21
0.5915363915
 31
0.0
 40
0.4225722455
 41
-3.1484736363
 42
-1.6093122714
  0
ELLIPSE
  5
61E
100
AcDbEntity
  8
RACCORDO
100
AcDbEllipse
 62
7
  6
CONTINUOUS
 10
-5.6591963384
 20
-8.7532128031
 30
0.0
 11
0.0096324734
 21
0.5915363915
 31
0.0
 40
0.4225722455
 41
-4.6738730357
 42
-3.1347116709
  0
ELLIPSE
  5
61F
100
AcDbEntity
  8
RACCORDO
100
AcDbEllipse
 62
7
  6
CONTINUOUS
 10
-5.4982839009
 20
-6.3396622393
 30
0.0
 11
0.0493464685
 21
0.2491672984
 31
0.0
 40
0.9842259085
 41
0.1636613736
 42
0.1925076875
  0
ELLIPSE
  5
620
100
AcDbEntity
  8
RACCORDO
100
AcDbEllipse
 62
7
  6
CONTINUOUS
 10
-5.6801488001
 20
-6.3396622393
 30
0.0
 11
-0.0493464685
 21
0.2491672984
 31
0.0
 40
0.9842259085
 41
-0.1925076875
 42
-0.1636613736
  0
ELLIPSE
  5
621
100
AcDbEntity
  8
RACCORDO
100
AcDbEllipse
 62
7
  6
CONTINUOUS
 10
5.7017160991
 20
-6.3396622393
 30
0.0
 11
0.0493464685
 21
0.2491672984
 31
0.0
 40
0.9842259085
 41
0.1636613736
 42
0.1925076875
  0
ELLIPSE
  5
622
100
AcDbEntity
  8
RACCORDO
100
AcDbEllipse
 62
7
  6
CONTINUOUS
 10
5.5198511999
 20
-6.3396622393
 30
0.0
 11
-0.0493464685
 21
0.2491672984
 31
0.0
 40
0.9842259085
 41
-0.1925076875
 42
-0.1636613736
  0
ELLIPSE
  5
623
100
AcDbEntity
  8
RACCORDO
100
AcDbEllipse
 62
7
  6
CONTINUOUS
 10
9.8543687895
 20
11.0141944137
 30
0.0
 11
0.0
 21
498.5
 31
0.0
 40
0.0349207695
 41
-4.7097523516
 42
-4.7005263624
  0
ELLIPSE
  5
624
100
AcDbEntity
  8
RACCORDO
100
AcDbEllipse
 62
7
  6
CONTINUOUS
 10
-24.1328014905
 20
11.0141944137
 30
0.0
 11
0.0
 21
498.5
 31
0.0
 40
0.0349207695
 41
-1.5826589448
 42
-1.5734329556
  0
ELLIPSE
  5
625
100
AcDbEntity
  8
RACCORDO
100
AcDbEllipse
 62
7
  6
CONTINUOUS
 10
24.1543687895
 20
11.0141944137
 30
0.0
 11
0.0
 21
498.5
 31
0.0
 40
0.0349207695
 41
-4.7097523516
 42
-4.7005263624
  0
ELLIPSE
  5
626
100
AcDbEntity
  8
RACCORDO
100
AcDbEllipse
 62
7
  6
CONTINUOUS
 10
-9.8328014905
 20
11.0141944137
 30
0.0
 11
0.0
 21
498.5
 31
0.0
 40
0.0349207695
 41
-1.5826589448
 42
-1.5734329556
  0
ELLIPSE
  5
627
100
AcDbEntity
  8
RACCORDO
100
AcDbEllipse
 62
7
  6
CONTINUOUS
 10
7.2435905453
 20
9.7312046546
 30
0.0
 11
0.3
 21
0.0
 31
0.0
 40
0.0349207695
 41
0.034906585
 42
1.5707963268
  0
ELLIPSE
  5
628
100
AcDbEntity
  8
RACCORDO
100
AcDbEllipse
 62
7
  6
CONTINUOUS
 10
-22.5828014905
 20
11.0141944137
 30
0.0
 11
0.0
 21
498.5
 31
0.0
 40
0.0349207695
 41
-1.6111588629
 42
-1.6025912052
  0
ELLIPSE
  5
629
100
AcDbEntity
  8
RACCORDO
100
AcDbEllipse
 62
7
  6
CONTINUOUS
 10
-5.1959544275
 20
-9.0929967197
 30
0.0
 11
-0.0
 21
0.2
 31
0.0
 40
0.0349207695
 41
-3.019419606
 42
-1.6111588629
  0
ELLIPSE
  5
62A
100
AcDbEntity
  8
RACCORDO
100
AcDbEllipse
 62
7
  6
CONTINUOUS
 10
-5.9824782734
 20
-9.0929967197
 30
0.0
 11
-0.0
 21
0.2
 31
0.0
 40
0.0349207695
 41
-4.6720264443
 42
-3.2637657012
  0
ELLIPSE
  5
62B
100
AcDbEntity
  8
RACCORDO
100
AcDbEllipse
 62
7
  6
CONTINUOUS
 10
11.4043687895
 20
11.0141944137
 30
0.0
 11
0.0
 21
498.5
 31
0.0
 40
0.0349207695
 41
-4.680594102
 42
-4.6720264443
  0
ELLIPSE
  5
62C
100
AcDbEntity
  8
RACCORDO
100
AcDbEllipse
 62
7
  6
CONTINUOUS
 10
-11.3828014905
 20
11.0141944137
 30
0.0
 11
0.0
 21
498.5
 31
0.0
 40
0.0349207695
 41
-1.6111588629
 42
-1.6025912052
  0
ELLIPSE
  5
62D
100
AcDbEntity
  8
RACCORDO
100
AcDbEllipse
 62
7
  6
CONTINUOUS
 10
6.0040455725
 20
-9.0929967197
 30
0.0
 11
0.0
 21
0.2
 31
0.0
 40
0.0349207695
 41
-3.019419606
 42
-1.6111588629
  0
ELLIPSE
  5
62E
100
AcDbEntity
  8
RACCORDO
100
AcDbEllipse
 62
7
  6
CONTINUOUS
 10
5.2175217266
 20
-9.0929967197
 30
0.0
 11
-0.0
 21
0.2
 31
0.0
 40
0.0349207695
 41
-4.6720264443
 42
-3.2637657012
  0
ELLIPSE
  5
62F
100
AcDbEntity
  8
RACCORDO
100
AcDbEllipse
 62
7
  6
CONTINUOUS
 10
22.6043687895
 20
11.0141944137
 30
0.0
 11
0.0
 21
498.5
 31
0.0
 40
0.0349207695
 41
-4.680594102
 42
-4.6720264443
  0
ELLIPSE
  5
630
100
AcDbEntity
  8
RACCORDO
100
AcDbEllipse
 62
7
  6
CONTINUOUS
 10
3.5507213881
 20
7.2936920958
 30
0.0
 11
0.3
 21
-0.0
 31
0.0
 40
0.0349207695
 41
-1.5707963268
 42
-0.3490658504
  0
ELLIPSE
  5
631
100
AcDbEntity
  8
RACCORDO
100
AcDbEllipse
 62
7
  6
CONTINUOUS
 10
-3.529154089
 20
7.2936920958
 30
0.0
 11
0.3
 21
0.0
 31
0.0
 40
0.0349207695
 41
-2.7925268032
 42
-1.5707963268
  0
ELLIPSE
  5
632
100
AcDbEntity
  8
RACCORDO
100
AcDbEllipse
 62
7
  6
CONTINUOUS
 10
3.5507213881
 20
5.7346967316
 30
0.0
 11
0.3
 21
-0.0
 31
0.0
 40
0.0349207695
 41
0.3490658504
 42
1.5707963268
  0
ELLIPSE
  5
633
100
AcDbEntity
  8
RACCORDO
100
AcDbEllipse
 62
7
  6
CONTINUOUS
 10
-3.529154089
 20
5.7346967316
 30
0.0
 11
0.3
 21
0.0
 31
0.0
 40
0.0349207695
 41
1.5707963268
 42
2.7925268032
  0
ELLIPSE
  5
634
100
AcDbEntity
  8
RACCORDO
100
AcDbEllipse
 62
7
  6
CONTINUOUS
 10
7.0779767537
 20
9.7312046546
 30
0.0
 11
0.3
 21
0.0
 31
0.0
 40
0.0349207695
 41
1.5707963268
 42
3.1066860685
  0
ELLIPSE
  5
635
100
AcDbEntity
  8
RACCORDO
100
AcDbEllipse
 62
7
  6
CONTINUOUS
 10
-7.0564094547
 20
9.7312046546
 30
0.0
 11
0.3
 21
0.0
 31
0.0
 40
0.0349207695
 41
0.034906585
 42
1.5707963268
  0
ELLIPSE
  5
636
100
AcDbEntity
  8
RACCORDO
100
AcDbEllipse
 62
7
  6
CONTINUOUS
 10
-7.2737462966
 20
-9.5761856571
 30
0.0
 11
0.2
 21
-0.0
 31
0.0
 40
0.1227845609
 41
1.5707963268
 42
2.617993878
  0
ELLIPSE
  5
637
100
AcDbEntity
  8
RACCORDO
100
AcDbEllipse
 62
7
  6
CONTINUOUS
 10
-3.9046864043
 20
-9.5761856571
 30
0.0
 11
0.2
 21
-0.0
 31
0.0
 40
0.1227845609
 41
0.5235987756
 42
1.5707963268
  0
ELLIPSE
  5
638
100
AcDbEntity
  8
RACCORDO
100
AcDbEllipse
 62
7
  6
CONTINUOUS
 10
3.9262537034
 20
-9.5761856571
 30
0.0
 11
0.2
 21
0.0
 31
0.0
 40
0.1227845609
 41
1.5707963268
 42
2.617993878
  0
ELLIPSE
  5
639
100
AcDbEntity
  8
RACCORDO
100
AcDbEllipse
 62
7
  6
CONTINUOUS
 10
7.2953135957
 20
-9.5761856571
 30
0.0
 11
0.2
 21
-0.0
 31
0.0
 40
0.1227845609
 41
0.5235987756
 42
1.5707963268
  0
ELLIPSE
  5
63A
100
AcDbEntity
  8
RACCORDO
100
AcDbEllipse
 62
7
  6
CONTINUOUS
 10
-7.2220232463
 20
9.7312046546
 30
0.0
 11
0.3
 21
0.0
 31
0.0
 40
0.0349207695
 41
1.5707963268
 42
3.1066860685
  0
ELLIPSE
  5
63B
100
AcDbEntity
  8
RACCORDO
100
AcDbEllipse
 62
7
  6
CONTINUOUS
 10
9.6994993232
 20
-9.4551403325
 30
0.0
 11
0.1992395838
 21
-0.0178260286
 31
0.0
 40
0.9965982379
 41
-1.4812606428
 42
0.0874087691
  0
ELLIPSE
  5
63C
100
AcDbEntity
  8
RACCORDO
100
AcDbEllipse
 62
7
  6
CONTINUOUS
 10
5.6807636374
 20
-8.7532128031
 30
0.0
 11
-0.0096324734
 21
0.5915363915
 31
0.0
 40
0.4225722455
 41
-3.1484736363
 42
-1.6093122714
  0
ELLIPSE
  5
63D
100
AcDbEntity
  8
RACCORDO
100
AcDbEllipse
 62
7
  6
CONTINUOUS
 10
-9.6779320242
 20
-9.4551403325
 30
0.0
 11
0.1992395838
 21
0.0178260286
 31
0.0
 40
0.9965982379
 41
3.0541838845
 42
4.6228532963
  0
ELLIPSE
  5
63E
100
AcDbEntity
  8
ASSI
100
AcDbEllipse
 62
7
  6
CONTINUOUS
 10
10.6476339434
 20
-10.6467173306
 30
0.0
 11
0.498078285
 21
0.0448076117
 31
0.0
 40
0.9965957691
 41
-1.6608206152
 42
-0.0909376769
  0
ELLIPSE
  5
63F
100
AcDbEntity
  8
ASSI
100
AcDbEllipse
 62
7
  6
CONTINUOUS
 10
-10.6260666443
 20
-10.6467173306
 30
0.0
 11
0.498078285
 21
-0.0448076117
 31
0.0
 40
0.9965957691
 41
-3.0506549766
 42
-1.4807720384
  0
ELLIPSE
  5
640
100
AcDbEntity
  8
ASSI
100
AcDbEllipse
 62
7
  6
CONTINUOUS
 10
10.9607531839
 20
10.714186798
 30
0.0
 11
-0.1789222233
 21
-0.0894542984
 31
-0.0
 40
0.9998096356
 41
2.6780516535
 42
4.2486956813
  0
ELLIPSE
  5
641
100
AcDbEntity
  8
ASSI
100
AcDbEllipse
 62
7
  6
CONTINUOUS
 10
-10.9391858849
 20
10.714186798
 30
0.0
 11
-0.1789222233
 21
0.0894542984
 31
-0.0
 40
0.9998096356
 41
-1.1071030277
 42
0.4635410001
  0
ELLIPSE
  5
642
100
AcDbEntity
  8
ASSI
100
AcDbEllipse
 62
7
  6
CONTINUOUS
 10
-7.2737462966
 20
-11.118525912
 30
0.0
 11
0.2
 21
0.0
 31
0.0
 40
0.0524077793
 41
1.5707963268
 42
2.617993878
  0
ELLIPSE
  5
643
100
AcDbEntity
  8
ASSI
100
AcDbEllipse
 62
7
  6
CONTINUOUS
 10
-3.9046864043
 20
-11.118525912
 30
0.0
 11
0.2
 21
0.0
 31
0.0
 40
0.0524077793
 41
0.5235987756
 42
1.5707963268
  0
ELLIPSE
  5
644
100
AcDbEntity
  8
ASSI
100
AcDbEllipse
 62
7
  6
CONTINUOUS
 10
3.9262537034
 20
-11.118525912
 30
0.0
 11
0.2
 21
0.0
 31
0.0
 40
0.0524077793
 41
1.5707963268
 42
2.617993878
  0
ELLIPSE
  5
645
100
AcDbEntity
  8
ASSI
100
AcDbEllipse
 62
7
  6
CONTINUOUS
 10
7.2953135957
 20
-11.118525912
 30
0.0
 11
0.2
 21
-0.0
 31
0.0
 40
0.0524077793
 41
0.5235987756
 42
1.5707963268
  0
ELLIPSE
  5
646
100
AcDbEntity
  8
ASSI
100
AcDbEllipse
 62
7
  6
CONTINUOUS
 10
5.5408036616
 20
-8.7532128031
 30
0.0
 11
0.0096324734
 21
0.5915363915
 31
0.0
 40
0.4225722455
 41
-4.6738730357
 42
-3.1347116709
  0
ELLIPSE
  5
647
100
AcDbEntity
  8
ASSI
100
AcDbEllipse
 62
7
  6
CONTINUOUS
 10
-5.5192363626
 20
-8.7532128031
 30
0.0
 11
-0.0096324734
 21
0.5915363915
 31
0.0
 40
0.4225722455
 41
-3.1484736363
 42
-1.6093122714
  0
ELLIPSE
  5
648
100
AcDbEntity
  8
ASSI
100
AcDbEllipse
 62
7
  6
CONTINUOUS
 10
-5.6591963384
 20
-8.7532128031
 30
0.0
 11
0.0096324734
 21
0.5915363915
 31
0.0
 40
0.4225722455
 41
-4.6738730357
 42
-3.1347116709
  0
ELLIPSE
  5
649
100
AcDbEntity
  8
ASSI
100
AcDbEllipse
 62
7
  6
CONTINUOUS
 10
-5.4982839009
 20
-6.3396622393
 30
0.0
 11
0.0493464685
 21
0.2491672984
 31
0.0
 40
0.9842259085
 41
0.1636613736
 42
0.1925076875
  0
ELLIPSE
  5
64A
100
AcDbEntity
  8
ASSI
100
AcDbEllipse
 62
7
  6
CONTINUOUS
 10
-5.6801488001
 20
-6.3396622393
 30
0.0
 11
-0.0493464685
 21
0.2491672984
 31
0.0
 40
0.9842259085
 41
-0.1925076875
 42
-0.1636613736
  0
ELLIPSE
  5
64B
100
AcDbEntity
  8
ASSI
100
AcDbEllipse
 62
7
  6
CONTINUOUS
 10
5.7017160991
 20
-6.3396622393
 30
0.0
 11
0.0493464685
 21
0.2491672984
 31
0.0
 40
0.9842259085
 41
0.1636613736
 42
0.1925076875
  0
ELLIPSE
  5
64C
100
AcDbEntity
  8
ASSI
100
AcDbEllipse
 62
7
  6
CONTINUOUS
 10
5.5198511999
 20
-6.3396622393
 30
0.0
 11
-0.0493464685
 21
0.2491672984
 31
0.0
 40
0.9842259085
 41
-0.1925076875
 42
-0.1636613736
  0
ELLIPSE
  5
64D
100
AcDbEntity
  8
ASSI
100
AcDbEllipse
 62
7
  6
CONTINUOUS
 10
9.8543687895
 20
11.0141944137
 30
0.0
 11
0.0
 21
498.5
 31
0.0
 40
0.0349207695
 41
-4.7097523516
 42
-4.7005263624
  0
ELLIPSE
  5
64E
100
AcDbEntity
  8
ASSI
100
AcDbEllipse
 62
7
  6
CONTINUOUS
 10
-24.1328014905
 20
11.0141944137
 30
0.0
 11
0.0
 21
498.5
 31
0.0
 40
0.0349207695
 41
-1.5826589448
 42
-1.5734329556
  0
ELLIPSE
  5
64F
100
AcDbEntity
  8
ASSI
100
AcDbEllipse
 62
7
  6
CONTINUOUS
 10
24.1543687895
 20
11.0141944137
 30
0.0
 11
0.0
 21
498.5
 31
0.0
 40
0.0349207695
 41
-4.7097523516
 42
-4.7005263624
  0
ELLIPSE
  5
650
100
AcDbEntity
  8
ASSI
100
AcDbEllipse
 62
7
  6
CONTINUOUS
 10
-9.8328014905
 20
11.0141944137
 30
0.0
 11
0.0
 21
498.5
 31
0.0
 40
0.0349207695
 41
-1.5826589448
 42
-1.5734329556
  0
ELLIPSE
  5
651
100
AcDbEntity
  8
ASSI
100
AcDbEllipse
 62
7
  6
CONTINUOUS
 10
-22.5828014905
 20
11.0141944137
 30
0.0
 11
0.0
 21
498.5
 31
0.0
 40
0.0349207695
 41
-1.6111588629
 42
-1.6025912052
  0
ELLIPSE
  5
652
100
AcDbEntity
  8
ASSI
100
AcDbEllipse
 62
7
  6
CONTINUOUS
 10
-5.1959544275
 20
-9.0929967197
 30
0.0
 11
-0.0
 21
0.2
 31
0.0
 40
0.0349207695
 41
-3.019419606
 42
-1.6111588629
  0
ELLIPSE
  5
653
100
AcDbEntity
  8
ASSI
100
AcDbEllipse
 62
7
  6
CONTINUOUS
 10
-5.9824782734
 20
-9.0929967197
 30
0.0
 11
-0.0
 21
0.2
 31
0.0
 40
0.0349207695
 41
-4.6720264443
 42
-3.2637657012
  0
ELLIPSE
  5
654
100
AcDbEntity
  8
ASSI
100
AcDbEllipse
 62
7
  6
CONTINUOUS
 10
11.4043687895
 20
11.0141944137
 30
0.0
 11
0.0
 21
498.5
 31
0.0
 40
0.0349207695
 41
-4.680594102
 42
-4.6720264443
  0
ELLIPSE
  5
655
100
AcDbEntity
  8
ASSI
100
AcDbEllipse
 62
7
  6
CONTINUOUS
 10
-11.3828014905
 20
11.0141944137
 30
0.0
 11
0.0
 21
498.5
 31
0.0
 40
0.0349207695
 41
-1.6111588629
 42
-1.6025912052
  0
ELLIPSE
  5
656
100
AcDbEntity
  8
ASSI
100
AcDbEllipse
 62
7
  6
CONTINUOUS
 10
6.0040455725
 20
-9.0929967197
 30
0.0
 11
0.0
 21
0.2
 31
0.0
 40
0.0349207695
 41
-3.019419606
 42
-1.6111588629
  0
ELLIPSE
  5
657
100
AcDbEntity
  8
ASSI
100
AcDbEllipse
 62
7
  6
CONTINUOUS
 10
5.2175217266
 20
-9.0929967197
 30
0.0
 11
-0.0
 21
0.2
 31
0.0
 40
0.0349207695
 41
-4.6720264443
 42
-3.2637657012
  0
ELLIPSE
  5
658
100
AcDbEntity
  8
ASSI
100
AcDbEllipse
 62
7
  6
CONTINUOUS
 10
22.6043687895
 20
11.0141944137
 30
0.0
 11
0.0
 21
498.5
 31
0.0
 40
0.0349207695
 41
-4.680594102
 42
-4.6720264443
  0
ELLIPSE
  5
659
100
AcDbEntity
  8
ASSI
100
AcDbEllipse
 62
7
  6
CONTINUOUS
 10
3.5507213881
 20
7.2936920958
 30
0.0
 11
0.3
 21
-0.0
 31
0.0
 40
0.0349207695
 41
-1.5707963268
 42
-0.3490658504
  0
ELLIPSE
  5
65A
100
AcDbEntity
  8
ASSI
100
AcDbEllipse
 62
7
  6
CONTINUOUS
 10
-3.529154089
 20
7.2936920958
 30
0.0
 11
0.3
 21
0.0
 31
0.0
 40
0.0349207695
 41
-2.7925268032
 42
-1.5707963268
  0
ELLIPSE
  5
65B
100
AcDbEntity
  8
ASSI
100
AcDbEllipse
 62
7
  6
CONTINUOUS
 10
3.5507213881
 20
5.7346967316
 30
0.0
 11
0.3
 21
-0.0
 31
0.0
 40
0.0349207695
 41
0.3490658504
 42
1.5707963268
  0
ELLIPSE
  5
65C
100
AcDbEntity
  8
ASSI
100
AcDbEllipse
 62
7
  6
CONTINUOUS
 10
-3.529154089
 20
5.7346967316
 30
0.0
 11
0.3
 21
0.0
 31
0.0
 40
0.0349207695
 41
1.5707963268
 42
2.7925268032
  0
ELLIPSE
  5
65D
100
AcDbEntity
  8
ASSI
100
AcDbEllipse
 62
7
  6
CONTINUOUS
 10
7.2435905453
 20
9.7312046546
 30
0.0
 11
0.3
 21
0.0
 31
0.0
 40
0.0349207695
 41
0.034906585
 42
1.5707963268
  0
ELLIPSE
  5
65E
100
AcDbEntity
  8
ASSI
100
AcDbEllipse
 62
7
  6
CONTINUOUS
 10
7.0779767537
 20
9.7312046546
 30
0.0
 11
0.3
 21
0.0
 31
0.0
 40
0.0349207695
 41
1.5707963268
 42
3.1066860685
  0
ELLIPSE
  5
65F
100
AcDbEntity
  8
ASSI
100
AcDbEllipse
 62
7
  6
CONTINUOUS
 10
-7.2737462966
 20
-9.5761856571
 30
0.0
 11
0.2
 21
-0.0
 31
0.0
 40
0.1227845609
 41
1.5707963268
 42
2.617993878
  0
ELLIPSE
  5
660
100
AcDbEntity
  8
ASSI
100
AcDbEllipse
 62
7
  6
CONTINUOUS
 10
-3.9046864043
 20
-9.5761856571
 30
0.0
 11
0.2
 21
-0.0
 31
0.0
 40
0.1227845609
 41
0.5235987756
 42
1.5707963268
  0
ELLIPSE
  5
661
100
AcDbEntity
  8
ASSI
100
AcDbEllipse
 62
7
  6
CONTINUOUS
 10
3.9262537034
 20
-9.5761856571
 30
0.0
 11
0.2
 21
0.0
 31
0.0
 40
0.1227845609
 41
1.5707963268
 42
2.617993878
  0
ELLIPSE
  5
662
100
AcDbEntity
  8
ASSI
100
AcDbEllipse
 62
7
  6
CONTINUOUS
 10
7.2953135957
 20
-9.5761856571
 30
0.0
 11
0.2
 21
-0.0
 31
0.0
 40
0.1227845609
 41
0.5235987756
 42
1.5707963268
  0
ELLIPSE
  5
663
100
AcDbEntity
  8
ASSI
100
AcDbEllipse
 62
7
  6
CONTINUOUS
 10
-7.0564094547
 20
9.7312046546
 30
0.0
 11
0.3
 21
0.0
 31
0.0
 40
0.0349207695
 41
0.034906585
 42
1.5707963268
  0
ELLIPSE
  5
664
100
AcDbEntity
  8
ASSI
100
AcDbEllipse
 62
7
  6
CONTINUOUS
 10
-7.2220232463
 20
9.7312046546
 30
0.0
 11
0.3
 21
0.0
 31
0.0
 40
0.0349207695
 41
1.5707963268
 42
3.1066860685
  0
ELLIPSE
  5
665
100
AcDbEntity
  8
ASSI
100
AcDbEllipse
 62
7
  6
CONTINUOUS
 10
9.6994993232
 20
-9.4551403325
 30
0.0
 11
0.1992395838
 21
-0.0178260286
 31
0.0
 40
0.9965982379
 41
-1.4812606428
 42
0.0874087691
  0
ELLIPSE
  5
666
100
AcDbEntity
  8
ASSI
100
AcDbEllipse
 62
7
  6
CONTINUOUS
 10
5.6807636374
 20
-8.7532128031
 30
0.0
 11
-0.0096324734
 21
0.5915363915
 31
0.0
 40
0.4225722455
 41
-3.1484736363
 42
-1.6093122714
  0
ELLIPSE
  5
667
100
AcDbEntity
  8
ASSI
100
AcDbEllipse
 62
7
  6
CONTINUOUS
 10
-9.6779320242
 20
-9.4551403325
 30
0.0
 11
0.1992395838
 21
0.0178260286
 31
0.0
 40
0.9965982379
 41
3.0541838845
 42
4.6228532963
  0
ENDSEC
  0
SECTION
  2
OBJECTS
  0
DICTIONARY
  5
C
100
AcDbDictionary
280
0
281
1
  3
ACAD_GROUP
350
D
  3
ACAD_MLINESTYLE
350
17
  3
ACAD_LAYOUT
350
1A
  3
ACAD_PLOTSETTINGS
350
19
  3
ACAD_PLOTSTYLENAME
350
E
  0
DICTIONARY
  5
D
102
{ACAD_REACTORS
330
C
102
}
100
AcDbDictionary
280
0
281
1
  0
ACDBDICTIONARYWDFLT
  5
E
102
{ACAD_REACTORS
330
C
102
}
100
AcDbDictionary
281
1
  3
Normal
350
F
100
AcDbDictionaryWithDefault
340
F
  0
DICTIONARY
  5
17
102
{ACAD_REACTORS
330
C
102
}
100
AcDbDictionary
280
0
281
1
  3
Standard
350
18
  0
DICTIONARY
  5
19
102
{ACAD_REACTORS
330
C
102
}
100
AcDbDictionary
281
1
  0
DICTIONARY
  5
1A
102
{ACAD_REACTORS
330
C
102
}
100
AcDbDictionary
281
1
  3
Model
350
668
  3
Layout1
350
669
  0
ACDBPLACEHOLDER
  5
F
102
{ACAD_REACTORS
330
E
102
}
  0
MLINESTYLE
  5
18
102
{ACAD_REACTORS
330
17
102
}
100
AcDbMlineStyle
  2
STANDARD
 70
0
  3

 62
256
 51
90.0
 52
90.0
 71
2
 49
0.5
 62
256
  6
BYLAYER
 49
-0.5
 62
256
  6
BYLAYER
  0
LAYOUT
  5
668
102
{ACAD_REACTORS
330
1A
102
}
100
AcDbPlotSettings
  1

  2
none_device
  4
ISO_A4_(297.00_x_210.00_MM)
  6

 40
0.0
 41
0.0
 42
0.0
 43
0.0
 44
297.0
 45
210.0
 46
0.0
 47
0.0
 48
0.0
 49
0.0
140
0.0
141
0.0
142
1.0
143
1.0
 70
1024
 72
1
 73
0
 74
0
  7

 75
0
147
1.0
148
0.0
149
0.0
100
AcDbLayout
  1
Model
 70
0
 71
0
 10
0.0
 20
0.0
 11
297.0
 21
210.0
 12
0.0
 22
0.0
 32
0.0
 14
0.0
 24
0.0
 34
0.0
 15
0.0
 25
0.0
 35
0.0
146
0.0
 13
0.0
 23
0.0
 33
0.0
 16
1.0
 26
0.0
 36
0.0
 17
0.0
 27
1.0
 37
0.0
 76
0
330
214
345
0
346
0
  0
LAYOUT
  5
669
102
{ACAD_REACTORS
330
1A
102
}
100
AcDbPlotSettings
  1

  2
none_device
  4
ISO_A4_(297.00_x_210.00_MM)
  6

 40
0.0
 41
0.0
 42
0.0
 43
0.0
 44
297.0
 45
210.0
 46
0.0
 47
0.0
 48
0.0
 49
0.0
140
0.0
141
0.0
142
1.0
143
1.0
 70
0
 72
1
 73
0
 74
0
  7

 75
0
147
1.0
148
0.0
149
0.0
100
AcDbLayout
  1
Layout1
 70
0
 71
1
 10
0.0
 20
0.0
 11
297.0
 21
210.0
 12
0.0
 22
0.0
 32
0.0
 14
0.0
 24
0.0
 34
0.0
 15
0.0
 25
0.0
 35
0.0
146
0.0
 13
0.0
 23
0.0
 33
0.0
 16
1.0
 26
0.0
 36
0.0
 17
0.0
 27
1.0
 37
0.0
 76
0
330
215
345
0
346
0
  0
ENDSEC
  0
EOF
