  0
SECTION
  2
HEADER
  9
$ACADVER
  1
AC1015
  9
$DWGCODEPAGE
  3
ANSI_1252
  9
$EXTMAX
 10
297.0
 20
210.0
 30
0.0
  9
$EXTMIN
 10
0.0
 20
0.0
 30
0.0
  9
$LIMMIN
 10
0.0
 20
0.0
  9
$LIMMAX
 10
297.0
 20
210.0
  9
$VIEWCTR
 10
148.5
 20
105.0
  9
$VIEWSIZE
 40
210.0
  9
$CLAYER
  8
0
  9
$LTSCALE
 40
16.335
  9
$CELTYPE
  6
BYLAYER
  9
$DIMSCALE
 40
1.0
  9
$DIMASZ
 40
3.0
  9
$DIMEXO
 40
0.5
  9
$DIMDLI
 40
11.286
  9
$DIMEXE
 40
1.5
  9
$DIMCEN
 40
2.673
  9
$DIMLFAC
 40
1.0
  9
$DIMBLK
  1
_FILLED
  9
$DIMTXT
 40
3.0
  9
$DIMTOL
 70
1
  9
$DIMLIM
 70
0
  9
$DIMTFAC
 40
1.0
  9
$DIMTP
 40
0.01
  9
$DIMTM
 40
0.01
  9
$DIMGAP
 40
0.625
  9
$DIMDSEP
 70
44
  9
$PDMODE
 70
3
  9
$PDSIZE
 40
3.0
  9
$HANDSEED
  5
408
  9
$TILEMODE
 70
1
  9
$MEASUREMENT
 70
1
  9
$INSUNITS
 70
4
  0
ENDSEC
  0
SECTION
  2
CLASSES
  0
CLASS
  1
ACDBDICTIONARYWDFLT
  2
AcDbDictionaryWithDefault
  3
AutoCAD 2000
 90
0
280
0
281
0
  0
CLASS
  1
ACDBPLACEHOLDER
  2
AcDbPlaceHolder
  3
AutoCAD 2000
 90
0
280
0
281
0
  0
CLASS
  1
LAYOUT
  2
AcDbLayout
  3
AutoCAD 2000
 90
0
280
0
281
0
  0
ENDSEC
  0
SECTION
  2
TABLES
  0
TABLE
  2
VPORT
  5
8
100
AcDbSymbolTable
 70
2
  0
VPORT
  5
1F4
100
AcDbSymbolTableRecord
100
AcDbViewportTableRecord
  2
*ACTIVE
 70
0
 10
0.0
 20
0.0
 11
1.0
 21
1.0
 12
148.5
 22
105.0
 13
0.0
 23
0.0
 14
1.0
 24
1.0
 15
0.0
 25
0.0
 16
0.0
 26
0.0
 36
1.0
 17
0.0
 27
0.0
 37
0.0
 40
210.0
 41
1.4142857143
 42
50.0
 43
0.0
 44
0.0
 50
0.0
 51
0.0
 71
0
 72
100
 73
1
 74
1
 75
0
 76
0
 77
0
 78
0
  0
ENDTAB
  0
TABLE
  2
LTYPE
  5
5
100
AcDbSymbolTable
 70
6
  0
LTYPE
  5
14
100
AcDbSymbolTableRecord
100
AcDbLinetypeTableRecord
  2
BYBLOCK
 70
0
  3

 72
65
 73
0
 40
0.0
  0
LTYPE
  5
15
100
AcDbSymbolTableRecord
100
AcDbLinetypeTableRecord
  2
BYLAYER
 70
0
  3

 72
65
 73
0
 40
0.0
  0
LTYPE
  5
16
100
AcDbSymbolTableRecord
100
AcDbLinetypeTableRecord
  2
CONTINUOUS
 70
64
  3
Solid line
 72
65
 73
0
 40
0.0
  0
LTYPE
  5
1F5
100
AcDbSymbolTableRecord
100
AcDbLinetypeTableRecord
  2
CENTER
 70
64
  3
____ _ ____ _ ____ _ ____ _ ____ _ ____ _ ____
 72
65
 73
4
 40
0.6
 49
0.375
 74
0
 49
-0.075
 74
0
 49
0.075
 74
0
 49
-0.075
 74
0
  0
LTYPE
  5
1F6
100
AcDbSymbolTableRecord
100
AcDbLinetypeTableRecord
  2
HIDDEN
 70
64
  3
- - - - - - - - - - - - - - - - - - - -
 72
65
 73
2
 40
0.2
 49
0.1
 74
0
 49
-0.1
 74
0
  0
LTYPE
  5
1F7
100
AcDbSymbolTableRecord
100
AcDbLinetypeTableRecord
  2
PHANTOM
 70
64
  3
_____ _ _ _____ _ _ _____ _ _ _____
 72
65
 73
6
 40
0.8
 49
0.45
 74
0
 49
-0.05
 74
0
 49
0.1
 74
0
 49
-0.05
 74
0
 49
0.1
 74
0
 49
-0.05
 74
0
  0
LTYPE
  5
1F8
100
AcDbSymbolTableRecord
100
AcDbLinetypeTableRecord
  2
DOT
 70
64
  3
. . . . . . . . . . . . . . . . . . . .
 72
65
 73
2
 40
0.2
 49
0.1
 74
0
 49
-0.1
 74
0
  0
LTYPE
  5
1F9
100
AcDbSymbolTableRecord
100
AcDbLinetypeTableRecord
  2
DASHED
 70
64
  3
- - - - - - - - - - - - - - - - - - - -
 72
65
 73
2
 40
0.2
 49
0.1
 74
0
 49
-0.1
 74
0
  0
ENDTAB
  0
TABLE
  2
LAYER
  5
2
100
AcDbSymbolTable
 70
36
  0
LAYER
  5
10
100
AcDbSymbolTableRecord
100
AcDbLayerTableRecord
  2
0
 70
0
 62
7
  6
CONTINUOUS
370
-3
390
F
  0
LAYER
  5
1FA
100
AcDbSymbolTableRecord
100
AcDbLayerTableRecord
  2
DEFAULT_1
 70
0
 62
7
  6
CENTER
370
-3
390
F
  0
LAYER
  5
1FB
100
AcDbSymbolTableRecord
100
AcDbLayerTableRecord
  2
DEFAULT_2
 70
0
 62
7
  6
HIDDEN
370
-3
390
F
  0
LAYER
  5
1FC
100
AcDbSymbolTableRecord
100
AcDbLayerTableRecord
  2
DEFAULT_3
 70
0
 62
7
  6
PHANTOM
370
-3
390
F
  0
LAYER
  5
1FD
100
AcDbSymbolTableRecord
100
AcDbLayerTableRecord
  2
ASSI
 70
0
 62
7
  6
CONTINUOUS
370
-3
390
F
  0
LAYER
  5
1FE
100
AcDbSymbolTableRecord
100
AcDbLayerTableRecord
  2
COLOR1
 70
0
 62
7
  6
CONTINUOUS
370
-3
390
F
  0
LAYER
  5
1FF
100
AcDbSymbolTableRecord
100
AcDbLayerTableRecord
  2
COLOR6
 70
0
 62
7
  6
CONTINUOUS
370
-3
390
F
  0
LAYER
  5
200
100
AcDbSymbolTableRecord
100
AcDbLayerTableRecord
  2
COLOR7
 70
0
 62
7
  6
CONTINUOUS
370
-3
390
F
  0
LAYER
  5
201
100
AcDbSymbolTableRecord
100
AcDbLayerTableRecord
  2
COORDINATE
 70
0
 62
7
  6
CONTINUOUS
370
-3
390
F
  0
LAYER
  5
202
100
AcDbSymbolTableRecord
100
AcDbLayerTableRecord
  2
COORD_ORIGINE
 70
0
 62
7
  6
CONTINUOUS
370
-3
390
F
  0
LAYER
  5
203
100
AcDbSymbolTableRecord
100
AcDbLayerTableRecord
  2
COPY_PUBLISH
 70
0
 62
7
  6
CONTINUOUS
370
-3
390
F
  0
LAYER
  5
204
100
AcDbSymbolTableRecord
100
AcDbLayerTableRecord
  2
COSMETICI
 70
0
 62
7
  6
CONTINUOUS
370
-3
390
F
  0
LAYER
  5
205
100
AcDbSymbolTableRecord
100
AcDbLayerTableRecord
  2
CURVE
 70
0
 62
7
  6
CONTINUOUS
370
-3
390
F
  0
LAYER
  5
206
100
AcDbSymbolTableRecord
100
AcDbLayerTableRecord
  2
CURVE_LED_TASTO
 70
0
 62
7
  6
CONTINUOUS
370
-3
390
F
  0
LAYER
  5
207
100
AcDbSymbolTableRecord
100
AcDbLayerTableRecord
  2
DRAFT
 70
0
 62
7
  6
CONTINUOUS
370
-3
390
F
  0
LAYER
  5
208
100
AcDbSymbolTableRecord
100
AcDbLayerTableRecord
  2
IGES_SCRITTE
 70
0
 62
7
  6
CONTINUOUS
370
-3
390
F
  0
LAYER
  5
209
100
AcDbSymbolTableRecord
100
AcDbLayerTableRecord
  2
IMPORT_IGES
 70
0
 62
7
  6
CONTINUOUS
370
-3
390
F
  0
LAYER
  5
20A
100
AcDbSymbolTableRecord
100
AcDbLayerTableRecord
  2
INTF_YELLOW
 70
0
 62
7
  6
CONTINUOUS
370
-3
390
F
  0
LAYER
  5
20B
100
AcDbSymbolTableRecord
100
AcDbLayerTableRecord
  2
NOTE
 70
0
 62
7
  6
CONTINUOUS
370
-3
390
F
  0
LAYER
  5
20C
100
AcDbSymbolTableRecord
100
AcDbLayerTableRecord
  2
PIANI
 70
0
 62
7
  6
CONTINUOUS
370
-3
390
F
  0
LAYER
  5
20D
100
AcDbSymbolTableRecord
100
AcDbLayerTableRecord
  2
PIANI_ORIGINE
 70
0
 62
7
  6
CONTINUOUS
370
-3
390
F
  0
LAYER
  5
20E
100
AcDbSymbolTableRecord
100
AcDbLayerTableRecord
  2
PIANI_RIFERIMENTO
 70
0
 62
7
  6
CONTINUOUS
370
-3
390
F
  0
LAYER
  5
20F
100
AcDbSymbolTableRecord
100
AcDbLayerTableRecord
  2
PUNTI
 70
0
 62
7
  6
CONTINUOUS
370
-3
390
F
  0
LAYER
  5
210
100
AcDbSymbolTableRecord
100
AcDbLayerTableRecord
  2
RACCORDO
 70
0
 62
7
  6
CONTINUOUS
370
-3
390
F
  0
LAYER
  5
211
100
AcDbSymbolTableRecord
100
AcDbLayerTableRecord
  2
SIMBOLI
 70
0
 62
7
  6
CONTINUOUS
370
-3
390
F
  0
LAYER
  5
212
100
AcDbSymbolTableRecord
100
AcDbLayerTableRecord
  2
SMUSSO
 70
0
 62
7
  6
CONTINUOUS
370
-3
390
F
  0
LAYER
  5
213
100
AcDbSymbolTableRecord
100
AcDbLayerTableRecord
  2
SNAPLINE
 70
0
 62
7
  6
CONTINUOUS
370
-3
390
F
  0
LAYER
  5
214
100
AcDbSymbolTableRecord
100
AcDbLayerTableRecord
  2
SUPERFICI
 70
0
 62
7
  6
CONTINUOUS
370
-3
390
F
  0
LAYER
  5
215
100
AcDbSymbolTableRecord
100
AcDbLayerTableRecord
  2
TRASH
 70
0
 62
7
  6
CONTINUOUS
370
-3
390
F
  0
LAYER
  5
216
100
AcDbSymbolTableRecord
100
AcDbLayerTableRecord
  2
___SHELL
 70
0
 62
7
  6
CONTINUOUS
370
-3
390
F
  0
ENDTAB
  0
TABLE
  2
STYLE
  5
3
100
AcDbSymbolTable
 70
1
  0
STYLE
  5
11
100
AcDbSymbolTableRecord
100
AcDbTextStyleTableRecord
  2
STANDARD
 70
0
 40
0.0
 41
0.8
 50
0.0
 71
0
 42
0.2
  3
txt
  4

  0
STYLE
  5
217
100
AcDbSymbolTableRecord
100
AcDbTextStyleTableRecord
  2
TEXTSTYLE_1
 70
0
 40
0.0
 41
0.8
 50
0.0
 71
0
 42
0.2
  3
gdt
  4

  0
ENDTAB
  0
TABLE
  2
VIEW
  5
6
100
AcDbSymbolTable
 70
0
  0
ENDTAB
  0
TABLE
  2
UCS
  5
7
100
AcDbSymbolTable
 70
0
  0
ENDTAB
  0
TABLE
  2
APPID
  5
9
100
AcDbSymbolTable
 70
1
  0
APPID
  5
218
100
AcDbSymbolTableRecord
100
AcDbRegAppTableRecord
  2
ACAD
 70
0
  0
ENDTAB
  0
TABLE
  2
BLOCK_RECORD
  5
1
100
AcDbSymbolTable
 70
0
  0
BLOCK_RECORD
  5
219
100
AcDbSymbolTableRecord
100
AcDbBlockTableRecord
  2
*Model_Space
  0
BLOCK_RECORD
  5
21A
100
AcDbSymbolTableRecord
100
AcDbBlockTableRecord
  2
*Paper_Space
  0
ENDTAB
  0
TABLE
  2
DIMSTYLE
  5
A
100
AcDbSymbolTable
 70
1
100
AcDbDimStyleTable
 71
0
  0
DIMSTYLE
105
21B
100
AcDbSymbolTableRecord
100
AcDbDimStyleTableRecord
  2
STANDARD
 70
0
  3

  4

 40
1.0
 41
3.0
 42
0.5
 43
0.38
 44
1.5
 45
0.0
 46
0.0
 47
0.01
 48
0.01
140
3.0
141
0.09
142
0.0
143
25.4
144
1.0
145
0.0
146
1.0
147
0.625
 71
1.0
 72
0.0
 73
0
 74
0
 75
0
 76
0
 77
1
 78
8
170
0
171
2
172
0
173
0
174
0
175
0
176
0
177
0
178
0
270
2
271
2
272
2
273
2
274
2
275
0
280
0
281
0
282
0
283
1
284
8
285
0
286
0
287
3
288
0
340
11
278
44
  0
ENDTAB
  0
ENDSEC
  0
SECTION
  2
BLOCKS
  0
BLOCK
  5
20
100
AcDbEntity
  8
0
100
AcDbBlockBegin
  2
*Model_Space
 70
0
 10
0.0
 20
0.0
 30
0.0
  3
*Model_Space
  1

  0
ENDBLK
  5
21
100
AcDbEntity
  8
0
100
AcDbBlockEnd
  0
BLOCK
  5
1C
100
AcDbEntity
  8
0
100
AcDbBlockBegin
  2
*Paper_Space
 70
0
 10
0.0
 20
0.0
 30
0.0
  3
*Paper_Space
  1

  0
ENDBLK
  5
1D
100
AcDbEntity
  8
0
100
AcDbBlockEnd
  0
ENDSEC
  0
SECTION
  2
ENTITIES
  0
LINE
  5
21C
100
AcDbEntity
  8
RACCORDO
100
AcDbLine
 62
7
  6
CONTINUOUS
 10
-45.5814680917
 20
20.1767380032
 11
-45.5814680917
 21
-0.4235056845
  0
LINE
  5
21D
100
AcDbEntity
  8
ASSI
100
AcDbLine
 62
7
  6
CONTINUOUS
 10
-45.5814680917
 20
20.1767380032
 11
-45.5814680917
 21
-0.4235056845
  0
LINE
  5
21E
100
AcDbEntity
  8
0
100
AcDbLine
 62
7
  6
CONTINUOUS
 10
-44.0814680917
 20
19.7766161594
 11
-44.0814680917
 21
-0.0233838406
  0
LINE
  5
21F
100
AcDbEntity
  8
ASSI
100
AcDbLine
 62
7
  6
CONTINUOUS
 10
-44.0814680917
 20
19.7766161594
 11
-44.0814680917
 21
-0.0233838406
  0
LINE
  5
220
100
AcDbEntity
  8
0
100
AcDbLine
 62
7
  6
CONTINUOUS
 10
-43.6814680917
 20
16.6416675225
 11
-43.6814680917
 21
16.1266161594
  0
LINE
  5
221
100
AcDbEntity
  8
ASSI
100
AcDbLine
 62
7
  6
CONTINUOUS
 10
-43.6814680917
 20
16.6416675225
 11
-43.6814680917
 21
16.1266161594
  0
LINE
  5
222
100
AcDbEntity
  8
0
100
AcDbLine
 62
7
  6
CONTINUOUS
 10
-43.6814680917
 20
3.6266161594
 11
-43.6814680917
 21
3.1115647962
  0
LINE
  5
223
100
AcDbEntity
  8
ASSI
100
AcDbLine
 62
7
  6
CONTINUOUS
 10
-43.6814680917
 20
3.6266161594
 11
-43.6814680917
 21
3.1115647962
  0
LINE
  5
224
100
AcDbEntity
  8
0
100
AcDbLine
 62
7
  6
CONTINUOUS
 10
-43.6814680917
 20
3.1115647962
 11
-44.0314680917
 21
1.1266161594
  0
LINE
  5
225
100
AcDbEntity
  8
ASSI
100
AcDbLine
 62
7
  6
CONTINUOUS
 10
-43.6814680917
 20
3.1115647962
 11
-44.0314680917
 21
1.1266161594
  0
LINE
  5
226
100
AcDbEntity
  8
0
100
AcDbLine
 62
7
  6
CONTINUOUS
 10
-44.0314680917
 20
18.6266161594
 11
-43.6814680917
 21
16.6416675225
  0
LINE
  5
227
100
AcDbEntity
  8
ASSI
100
AcDbLine
 62
7
  6
CONTINUOUS
 10
-44.0314680917
 20
18.6266161594
 11
-43.6814680917
 21
16.6416675225
  0
LINE
  5
228
100
AcDbEntity
  8
0
100
AcDbLine
 62
7
  6
CONTINUOUS
 10
-40.5814680917
 20
19.7766161594
 11
-40.5814680917
 21
18.6766161594
  0
LINE
  5
229
100
AcDbEntity
  8
ASSI
100
AcDbLine
 62
7
  6
CONTINUOUS
 10
-40.5814680917
 20
19.7766161594
 11
-40.5814680917
 21
18.6766161594
  0
LINE
  5
22A
100
AcDbEntity
  8
0
100
AcDbLine
 62
7
  6
CONTINUOUS
 10
-40.5814680917
 20
17.6766161594
 11
-40.5814680917
 21
2.0766161594
  0
LINE
  5
22B
100
AcDbEntity
  8
ASSI
100
AcDbLine
 62
7
  6
CONTINUOUS
 10
-40.5814680917
 20
17.6766161594
 11
-40.5814680917
 21
2.0766161594
  0
LINE
  5
22C
100
AcDbEntity
  8
0
100
AcDbLine
 62
7
  6
CONTINUOUS
 10
-40.5814680917
 20
1.0766161594
 11
-40.5814680917
 21
-0.0233838406
  0
LINE
  5
22D
100
AcDbEntity
  8
ASSI
100
AcDbLine
 62
7
  6
CONTINUOUS
 10
-40.5814680917
 20
1.0766161594
 11
-40.5814680917
 21
-0.0233838406
  0
LINE
  5
22E
100
AcDbEntity
  8
0
100
AcDbLine
 62
7
  6
CONTINUOUS
 10
-39.1314680917
 20
19.7766161594
 11
-39.1314680917
 21
18.6766161594
  0
LINE
  5
22F
100
AcDbEntity
  8
ASSI
100
AcDbLine
 62
7
  6
CONTINUOUS
 10
-39.1314680917
 20
19.7766161594
 11
-39.1314680917
 21
18.6766161594
  0
LINE
  5
230
100
AcDbEntity
  8
0
100
AcDbLine
 62
7
  6
CONTINUOUS
 10
-39.1314680917
 20
-0.0233838406
 11
-39.1314680917
 21
1.0766161594
  0
LINE
  5
231
100
AcDbEntity
  8
ASSI
100
AcDbLine
 62
7
  6
CONTINUOUS
 10
-39.1314680917
 20
-0.0233838406
 11
-39.1314680917
 21
1.0766161594
  0
LINE
  5
232
100
AcDbEntity
  8
0
100
AcDbLine
 62
7
  6
CONTINUOUS
 10
-34.1314680917
 20
19.7766161594
 11
-34.1314680917
 21
18.6766161594
  0
LINE
  5
233
100
AcDbEntity
  8
ASSI
100
AcDbLine
 62
7
  6
CONTINUOUS
 10
-34.1314680917
 20
19.7766161594
 11
-34.1314680917
 21
18.6766161594
  0
LINE
  5
234
100
AcDbEntity
  8
0
100
AcDbLine
 62
7
  6
CONTINUOUS
 10
-34.1314680917
 20
-0.0233838406
 11
-34.1314680917
 21
1.0766161594
  0
LINE
  5
235
100
AcDbEntity
  8
ASSI
100
AcDbLine
 62
7
  6
CONTINUOUS
 10
-34.1314680917
 20
-0.0233838406
 11
-34.1314680917
 21
1.0766161594
  0
LINE
  5
236
100
AcDbEntity
  8
RACCORDO
100
AcDbLine
 62
7
  6
CONTINUOUS
 10
-2.6813462478
 20
-1.2233838406
 11
-23.3814680917
 21
-1.2233838406
  0
LINE
  5
237
100
AcDbEntity
  8
ASSI
100
AcDbLine
 62
7
  6
CONTINUOUS
 10
-2.6813462478
 20
-1.2233838406
 11
-23.3814680917
 21
-1.2233838406
  0
LINE
  5
238
100
AcDbEntity
  8
RACCORDO
100
AcDbLine
 62
7
  6
CONTINUOUS
 10
-24.0814680917
 20
-1.2233838406
 11
-44.7815899355
 21
-1.2233838406
  0
LINE
  5
239
100
AcDbEntity
  8
ASSI
100
AcDbLine
 62
7
  6
CONTINUOUS
 10
-24.0814680917
 20
-1.2233838406
 11
-44.7815899355
 21
-1.2233838406
  0
LINE
  5
23A
100
AcDbEntity
  8
0
100
AcDbLine
 62
7
  6
CONTINUOUS
 10
-23.8814680917
 20
-0.8233229094
 11
-23.5814680917
 21
-0.8233229094
  0
LINE
  5
23B
100
AcDbEntity
  8
ASSI
100
AcDbLine
 62
7
  6
CONTINUOUS
 10
-23.8814680917
 20
-0.8233229094
 11
-23.5814680917
 21
-0.8233229094
  0
LINE
  5
23C
100
AcDbEntity
  8
ASSI
100
AcDbLine
 62
7
  6
CONTINUOUS
 10
-3.3814680917
 20
-0.0233838406
 11
-44.0814680917
 21
-0.0233838406
  0
LINE
  5
23D
100
AcDbEntity
  8
0
100
AcDbLine
 62
7
  6
CONTINUOUS
 10
-6.8814680917
 20
1.0766161594
 11
-18.4706985762
 21
1.0766161594
  0
LINE
  5
23E
100
AcDbEntity
  8
ASSI
100
AcDbLine
 62
7
  6
CONTINUOUS
 10
-6.8814680917
 20
1.0766161594
 11
-18.4706985762
 21
1.0766161594
  0
LINE
  5
23F
100
AcDbEntity
  8
0
100
AcDbLine
 62
7
  6
CONTINUOUS
 10
-28.9922376071
 20
1.0766161594
 11
-40.5814680917
 21
1.0766161594
  0
LINE
  5
240
100
AcDbEntity
  8
ASSI
100
AcDbLine
 62
7
  6
CONTINUOUS
 10
-28.9922376071
 20
1.0766161594
 11
-40.5814680917
 21
1.0766161594
  0
LINE
  5
241
100
AcDbEntity
  8
0
100
AcDbLine
 62
7
  6
CONTINUOUS
 10
-3.3814680917
 20
1.1266161594
 11
-3.4314680917
 21
1.1266161594
  0
LINE
  5
242
100
AcDbEntity
  8
ASSI
100
AcDbLine
 62
7
  6
CONTINUOUS
 10
-3.3814680917
 20
1.1266161594
 11
-3.4314680917
 21
1.1266161594
  0
LINE
  5
243
100
AcDbEntity
  8
0
100
AcDbLine
 62
7
  6
CONTINUOUS
 10
-44.0314680917
 20
1.1266161594
 11
-44.0814680917
 21
1.1266161594
  0
LINE
  5
244
100
AcDbEntity
  8
ASSI
100
AcDbLine
 62
7
  6
CONTINUOUS
 10
-44.0314680917
 20
1.1266161594
 11
-44.0814680917
 21
1.1266161594
  0
LINE
  5
245
100
AcDbEntity
  8
0
100
AcDbLine
 62
7
  6
CONTINUOUS
 10
-40.5814680917
 20
2.0766161594
 11
-28.9922376071
 21
2.0766161594
  0
LINE
  5
246
100
AcDbEntity
  8
ASSI
100
AcDbLine
 62
7
  6
CONTINUOUS
 10
-40.5814680917
 20
2.0766161594
 11
-28.9922376071
 21
2.0766161594
  0
LINE
  5
247
100
AcDbEntity
  8
0
100
AcDbLine
 62
7
  6
CONTINUOUS
 10
-18.4706985762
 20
2.0766161594
 11
-6.8814680917
 21
2.0766161594
  0
LINE
  5
248
100
AcDbEntity
  8
ASSI
100
AcDbLine
 62
7
  6
CONTINUOUS
 10
-18.4706985762
 20
2.0766161594
 11
-6.8814680917
 21
2.0766161594
  0
LINE
  5
249
100
AcDbEntity
  8
0
100
AcDbLine
 62
7
  6
CONTINUOUS
 10
-30.0314680917
 20
18.6766161594
 11
-30.0314680917
 21
17.6766161594
  0
LINE
  5
24A
100
AcDbEntity
  8
ASSI
100
AcDbLine
 62
7
  6
CONTINUOUS
 10
-30.0314680917
 20
18.6766161594
 11
-30.0314680917
 21
17.6766161594
  0
LINE
  5
24B
100
AcDbEntity
  8
0
100
AcDbLine
 62
7
  6
CONTINUOUS
 10
-30.0314680917
 20
2.0766161594
 11
-30.0314680917
 21
1.0766161594
  0
LINE
  5
24C
100
AcDbEntity
  8
ASSI
100
AcDbLine
 62
7
  6
CONTINUOUS
 10
-30.0314680917
 20
2.0766161594
 11
-30.0314680917
 21
1.0766161594
  0
LINE
  5
24D
100
AcDbEntity
  8
0
100
AcDbLine
 62
7
  6
CONTINUOUS
 10
-28.9922376071
 20
19.7766161594
 11
-28.9922376071
 21
-0.0233838406
  0
LINE
  5
24E
100
AcDbEntity
  8
ASSI
100
AcDbLine
 62
7
  6
CONTINUOUS
 10
-28.9922376071
 20
19.7766161594
 11
-28.9922376071
 21
-0.0233838406
  0
LINE
  5
24F
100
AcDbEntity
  8
0
100
AcDbLine
 62
7
  6
CONTINUOUS
 10
-28.7016930917
 20
15.3766161594
 11
-28.7016930917
 21
16.3766161594
  0
LINE
  5
250
100
AcDbEntity
  8
ASSI
100
AcDbLine
 62
7
  6
CONTINUOUS
 10
-28.7016930917
 20
15.3766161594
 11
-28.7016930917
 21
16.3766161594
  0
LINE
  5
251
100
AcDbEntity
  8
0
100
AcDbLine
 62
7
  6
CONTINUOUS
 10
-28.5707790917
 20
16.2151121594
 11
-28.5707790917
 21
15.3766161594
  0
LINE
  5
252
100
AcDbEntity
  8
ASSI
100
AcDbLine
 62
7
  6
CONTINUOUS
 10
-28.5707790917
 20
16.2151121594
 11
-28.5707790917
 21
15.3766161594
  0
LINE
  5
253
100
AcDbEntity
  8
0
100
AcDbLine
 62
7
  6
CONTINUOUS
 10
-27.8744010917
 20
16.2164871594
 11
-28.1557080917
 21
15.3766161594
  0
LINE
  5
254
100
AcDbEntity
  8
ASSI
100
AcDbLine
 62
7
  6
CONTINUOUS
 10
-27.8744010917
 20
16.2164871594
 11
-28.1557080917
 21
15.3766161594
  0
LINE
  5
255
100
AcDbEntity
  8
0
100
AcDbLine
 62
7
  6
CONTINUOUS
 10
-28.2211890917
 20
15.5270981594
 11
-27.9356630917
 21
16.3766161594
  0
LINE
  5
256
100
AcDbEntity
  8
ASSI
100
AcDbLine
 62
7
  6
CONTINUOUS
 10
-28.2211890917
 20
15.5270981594
 11
-27.9356630917
 21
16.3766161594
  0
LINE
  5
257
100
AcDbEntity
  8
0
100
AcDbLine
 62
7
  6
CONTINUOUS
 10
-27.3799170917
 20
15.6676791594
 11
-27.4843890917
 21
15.3766161594
  0
LINE
  5
258
100
AcDbEntity
  8
ASSI
100
AcDbLine
 62
7
  6
CONTINUOUS
 10
-27.3799170917
 20
15.6676791594
 11
-27.4843890917
 21
15.3766161594
  0
LINE
  5
259
100
AcDbEntity
  8
0
100
AcDbLine
 62
7
  6
CONTINUOUS
 10
-27.1765120917
 20
16.2315671594
 11
-27.3381210917
 21
15.7874531594
  0
LINE
  5
25A
100
AcDbEntity
  8
ASSI
100
AcDbLine
 62
7
  6
CONTINUOUS
 10
-27.1765120917
 20
16.2315671594
 11
-27.3381210917
 21
15.7874531594
  0
LINE
  5
25B
100
AcDbEntity
  8
0
100
AcDbLine
 62
7
  6
CONTINUOUS
 10
-27.6236530917
 20
15.3766161594
 11
-27.2476240917
 21
16.3766161594
  0
LINE
  5
25C
100
AcDbEntity
  8
ASSI
100
AcDbLine
 62
7
  6
CONTINUOUS
 10
-27.6236530917
 20
15.3766161594
 11
-27.2476240917
 21
16.3766161594
  0
LINE
  5
25D
100
AcDbEntity
  8
0
100
AcDbLine
 62
7
  6
CONTINUOUS
 10
-3.3814680917
 20
3.6266161594
 11
-3.7814680917
 21
3.6266161594
  0
LINE
  5
25E
100
AcDbEntity
  8
ASSI
100
AcDbLine
 62
7
  6
CONTINUOUS
 10
-3.3814680917
 20
3.6266161594
 11
-3.7814680917
 21
3.6266161594
  0
LINE
  5
25F
100
AcDbEntity
  8
0
100
AcDbLine
 62
7
  6
CONTINUOUS
 10
-43.6814680917
 20
3.6266161594
 11
-44.0814680917
 21
3.6266161594
  0
LINE
  5
260
100
AcDbEntity
  8
ASSI
100
AcDbLine
 62
7
  6
CONTINUOUS
 10
-43.6814680917
 20
3.6266161594
 11
-44.0814680917
 21
3.6266161594
  0
LINE
  5
261
100
AcDbEntity
  8
0
100
AcDbLine
 62
7
  6
CONTINUOUS
 10
-27.8744010917
 20
15.3766161594
 11
-27.8744010917
 21
16.2164871594
  0
LINE
  5
262
100
AcDbEntity
  8
ASSI
100
AcDbLine
 62
7
  6
CONTINUOUS
 10
-27.8744010917
 20
15.3766161594
 11
-27.8744010917
 21
16.2164871594
  0
LINE
  5
263
100
AcDbEntity
  8
0
100
AcDbLine
 62
7
  6
CONTINUOUS
 10
-27.7434350917
 20
16.3766161594
 11
-27.7434350917
 21
15.3766161594
  0
LINE
  5
264
100
AcDbEntity
  8
ASSI
100
AcDbLine
 62
7
  6
CONTINUOUS
 10
-27.7434350917
 20
16.3766161594
 11
-27.7434350917
 21
15.3766161594
  0
LINE
  5
265
100
AcDbEntity
  8
ASSI
100
AcDbLine
 62
7
  6
CONTINUOUS
 10
-26.1718920917
 20
14.5266941594
 11
-26.5366690917
 21
13.3905291594
  0
LINE
  5
266
100
AcDbEntity
  8
ASSI
100
AcDbLine
 62
7
  6
CONTINUOUS
 10
-26.3716610917
 20
12.8766201594
 11
-25.8418750917
 21
14.5266941594
  0
LWPOLYLINE
  5
267
100
AcDbEntity
  8
0
100
AcDbPolyline
 62
7
  6
CONTINUOUS
 90
90
 70
0
 10
-22.6267980614
 20
6.1109443978
 10
-22.6112445018
 20
6.1148881409
 10
-22.5962240165
 20
6.1184078937
 10
-22.5817366054
 20
6.1215036562
 10
-22.5677887051
 20
6.1241750105
 10
-22.554373879
 20
6.1264223745
 10
-22.5414728181
 20
6.1282470022
 10
-22.5292690029
 20
6.1296490427
 10
-22.5175789529
 20
6.1306283469
 10
-22.5058329171
 20
6.1311857217
 10
-22.4937876311
 20
6.1313138741
 10
-22.4816863593
 20
6.1310200972
 10
-22.4696891444
 20
6.130327077
 10
-22.4577587763
 20
6.1292257766
 10
-22.4459324651
 20
6.127725233
 10
-22.4344818837
 20
6.1258752431
 10
-22.4235254931
 20
6.1236836031
 10
-22.4129448323
 20
6.1211425168
 10
-22.4026561913
 20
6.1182783931
 10
-22.392652819
 20
6.1150986718
 10
-22.3829414664
 20
6.1115959129
 10
-22.3734586766
 20
6.1077742051
 10
-22.3642006186
 20
6.1036408635
 10
-22.3551711234
 20
6.0991885729
 10
-22.3463182265
 20
6.0943994765
 10
-22.3376379378
 20
6.0892807735
 10
-22.3291342475
 20
6.0838252646
 10
-22.3207671606
 20
6.0779934955
 10
-22.3125092773
 20
6.0717675879
 10
-22.3043879974
 20
6.06516542
 10
-22.2964455264
 20
6.0582011724
 10
-22.2886246325
 20
6.0508061866
 10
-22.2809825473
 20
6.0430491211
 10
-22.2737331718
 20
6.0351501317
 10
-22.2669550601
 20
6.0271805725
 10
-22.2605696579
 20
6.0190690894
 10
-22.2545552032
 20
6.010821775
 10
-22.2489166895
 20
6.0024540979
 10
-22.2436491233
 20
5.9939505896
 10
-22.2387157615
 20
5.9852709366
 10
-22.2341095672
 20
5.9764190006
 10
-22.2298375775
 20
5.96739092
 10
-22.2258841605
 20
5.9581347968
 10
-22.2222422255
 20
5.9486554003
 10
-22.2189188633
 20
5.9389479611
 10
-22.2159197143
 20
5.9289462732
 10
-22.2132368592
 20
5.9186559966
 10
-22.2108782172
 20
5.9080714712
 10
-22.2088731867
 20
5.8971095113
 10
-22.2072132937
 20
5.8857486128
 10
-22.2059070121
 20
5.8740102798
 10
-22.2050091613
 20
5.8618758385
 10
-22.2045337706
 20
5.8491287682
 10
-22.2044668108
 20
5.8359855895
 10
-22.204821013
 20
5.8230771907
 10
-22.205616374
 20
5.8105751402
 10
-22.2068328971
 20
5.7983078695
 10
-22.2084233234
 20
5.7863915606
 10
-22.2103807239
 20
5.7748909142
 10
-22.2127120277
 20
5.7637412296
 10
-22.2153907629
 20
5.752864587
 10
-22.2184092731
 20
5.7422558078
 10
-22.2217752147
 20
5.7319200705
 10
-22.2254850848
 20
5.7217949909
 10
-22.2295315692
 20
5.7118769101
 10
-22.2339219821
 20
5.702169487
 10
-22.2386747631
 20
5.6926213144
 10
-22.2437819864
 20
5.6832297117
 10
-22.2492515778
 20
5.6739973594
 10
-22.2551257542
 20
5.6648808917
 10
-22.2614032057
 20
5.6558700134
 10
-22.2680852423
 20
5.6469750198
 10
-22.2752180113
 20
5.6381834303
 10
-22.2828997304
 20
5.6294011716
 10
-22.2910321819
 20
5.620722317
 10
-22.2993668607
 20
5.6124166062
 10
-22.3078594252
 20
5.6045500391
 10
-22.3165542169
 20
5.5970566158
 10
-22.3253357547
 20
5.5900080758
 10
-22.33415373
 20
5.5834475419
 10
-22.3430584515
 20
5.5773318914
 10
-22.352085364
 20
5.5716034955
 10
-22.361231809
 20
5.5662542565
 10
-22.3705004451
 20
5.5612922723
 10
-22.3799346928
 20
5.5566842075
 10
-22.3895312318
 20
5.5524228097
 10
-22.3992933823
 20
5.5485153315
 10
-22.4092745263
 20
5.5449501951
 10
-22.4194699152
 20
5.5417202131
 10
-22.4298842976
 20
5.5388325729
  0
LWPOLYLINE
  5
268
100
AcDbEntity
  8
ASSI
100
AcDbPolyline
 62
7
  6
CONTINUOUS
 90
90
 70
0
 10
-22.6267980614
 20
6.1109443978
 10
-22.6112445018
 20
6.1148881409
 10
-22.5962240165
 20
6.1184078937
 10
-22.5817366054
 20
6.1215036562
 10
-22.5677887051
 20
6.1241750105
 10
-22.554373879
 20
6.1264223745
 10
-22.5414728181
 20
6.1282470022
 10
-22.5292690029
 20
6.1296490427
 10
-22.5175789529
 20
6.1306283469
 10
-22.5058329171
 20
6.1311857217
 10
-22.4937876311
 20
6.1313138741
 10
-22.4816863593
 20
6.1310200972
 10
-22.4696891444
 20
6.130327077
 10
-22.4577587763
 20
6.1292257766
 10
-22.4459324651
 20
6.127725233
 10
-22.4344818837
 20
6.1258752431
 10
-22.4235254931
 20
6.1236836031
 10
-22.4129448323
 20
6.1211425168
 10
-22.4026561913
 20
6.1182783931
 10
-22.392652819
 20
6.1150986718
 10
-22.3829414664
 20
6.1115959129
 10
-22.3734586766
 20
6.1077742051
 10
-22.3642006186
 20
6.1036408635
 10
-22.3551711234
 20
6.0991885729
 10
-22.3463182265
 20
6.0943994765
 10
-22.3376379378
 20
6.0892807735
 10
-22.3291342475
 20
6.0838252646
 10
-22.3207671606
 20
6.0779934955
 10
-22.3125092773
 20
6.0717675879
 10
-22.3043879974
 20
6.06516542
 10
-22.2964455264
 20
6.0582011724
 10
-22.2886246325
 20
6.0508061866
 10
-22.2809825473
 20
6.0430491211
 10
-22.2737331718
 20
6.0351501317
 10
-22.2669550601
 20
6.0271805725
 10
-22.2605696579
 20
6.0190690894
 10
-22.2545552032
 20
6.010821775
 10
-22.2489166895
 20
6.0024540979
 10
-22.2436491233
 20
5.9939505896
 10
-22.2387157615
 20
5.9852709366
 10
-22.2341095672
 20
5.9764190006
 10
-22.2298375775
 20
5.96739092
 10
-22.2258841605
 20
5.9581347968
 10
-22.2222422255
 20
5.9486554003
 10
-22.2189188633
 20
5.9389479611
 10
-22.2159197143
 20
5.9289462732
 10
-22.2132368592
 20
5.9186559966
 10
-22.2108782172
 20
5.9080714712
 10
-22.2088731867
 20
5.8971095113
 10
-22.2072132937
 20
5.8857486128
 10
-22.2059070121
 20
5.8740102798
 10
-22.2050091613
 20
5.8618758385
 10
-22.2045337706
 20
5.8491287682
 10
-22.2044668108
 20
5.8359855895
 10
-22.204821013
 20
5.8230771907
 10
-22.205616374
 20
5.8105751402
 10
-22.2068328971
 20
5.7983078695
 10
-22.2084233234
 20
5.7863915606
 10
-22.2103807239
 20
5.7748909142
 10
-22.2127120277
 20
5.7637412296
 10
-22.2153907629
 20
5.752864587
 10
-22.2184092731
 20
5.7422558078
 10
-22.2217752147
 20
5.7319200705
 10
-22.2254850848
 20
5.7217949909
 10
-22.2295315692
 20
5.7118769101
 10
-22.2339219821
 20
5.702169487
 10
-22.2386747631
 20
5.6926213144
 10
-22.2437819864
 20
5.6832297117
 10
-22.2492515778
 20
5.6739973594
 10
-22.2551257542
 20
5.6648808917
 10
-22.2614032057
 20
5.6558700134
 10
-22.2680852423
 20
5.6469750198
 10
-22.2752180113
 20
5.6381834303
 10
-22.2828997304
 20
5.6294011716
 10
-22.2910321819
 20
5.620722317
 10
-22.2993668607
 20
5.6124166062
 10
-22.3078594252
 20
5.6045500391
 10
-22.3165542169
 20
5.5970566158
 10
-22.3253357547
 20
5.5900080758
 10
-22.33415373
 20
5.5834475419
 10
-22.3430584515
 20
5.5773318914
 10
-22.352085364
 20
5.5716034955
 10
-22.361231809
 20
5.5662542565
 10
-22.3705004451
 20
5.5612922723
 10
-22.3799346928
 20
5.5566842075
 10
-22.3895312318
 20
5.5524228097
 10
-22.3992933823
 20
5.5485153315
 10
-22.4092745263
 20
5.5449501951
 10
-22.4194699152
 20
5.5417202131
 10
-22.4298842976
 20
5.5388325729
  0
LWPOLYLINE
  5
269
100
AcDbEntity
  8
0
100
AcDbPolyline
 62
7
  6
CONTINUOUS
 90
47
 70
0
 10
-22.4298842976
 20
5.5388325729
 10
-22.4405853009
 20
5.5362972596
 10
-22.451577412
 20
5.5341059431
 10
-22.4628561441
 20
5.5322669534
 10
-22.4744756645
 20
5.5308152651
 10
-22.4866332116
 20
5.5297534854
 10
-22.499131547
 20
5.5290790072
 10
-22.5114331228
 20
5.5288189826
 10
-22.5234238539
 20
5.528997566
 10
-22.5352178254
 20
5.5295906031
 10
-22.5466197443
 20
5.5305527837
 10
-22.5575337911
 20
5.531882043
 10
-22.5680557854
 20
5.5335804459
 10
-22.5782778931
 20
5.5356088769
 10
-22.5882081614
 20
5.5379591127
 10
-22.5978385431
 20
5.5406393766
 10
-22.6072370628
 20
5.5436352241
 10
-22.6164074034
 20
5.5469388584
 10
-22.625345882
 20
5.5505580762
 10
-22.6341094743
 20
5.554501823
 10
-22.6427044952
 20
5.5587645716
 10
-22.6511246299
 20
5.5633518492
 10
-22.6594079099
 20
5.5682891824
 10
-22.6676212499
 20
5.5736306968
 10
-22.6756977352
 20
5.5793222668
 10
-22.6834746539
 20
5.5852270434
 10
-22.6908882837
 20
5.5912873846
 10
-22.6980023469
 20
5.5975609324
 10
-22.7048452981
 20
5.6040837625
 10
-22.711354705
 20
5.6107718578
 10
-22.7175929999
 20
5.6177092355
 10
-22.7237759337
 20
5.6251840227
 10
-22.7299777638
 20
5.6332479613
 10
-22.7361242328
 20
5.6418493094
 10
-22.7422083193
 20
5.651120969
 10
-22.7482443624
 20
5.6610761353
 10
-22.754218023
 20
5.671701613
 10
-22.7600792627
 20
5.6830907191
 10
-22.7658326153
 20
5.6952482167
 10
-22.7714735471
 20
5.7081693427
 10
-22.7769384185
 20
5.7219331237
 10
-22.7822275402
 20
5.7365421408
 10
-22.7873406015
 20
5.751993813
 10
-22.7922130311
 20
5.7683594244
 10
-22.7968233052
 20
5.7856627363
 10
-22.8011929476
 20
5.8038799873
 10
-22.8053219582
 20
5.8230111776
  0
LWPOLYLINE
  5
26A
100
AcDbEntity
  8
ASSI
100
AcDbPolyline
 62
7
  6
CONTINUOUS
 90
47
 70
0
 10
-22.4298842976
 20
5.5388325729
 10
-22.4405853009
 20
5.5362972596
 10
-22.451577412
 20
5.5341059431
 10
-22.4628561441
 20
5.5322669534
 10
-22.4744756645
 20
5.5308152651
 10
-22.4866332116
 20
5.5297534854
 10
-22.499131547
 20
5.5290790072
 10
-22.5114331228
 20
5.5288189826
 10
-22.5234238539
 20
5.528997566
 10
-22.5352178254
 20
5.5295906031
 10
-22.5466197443
 20
5.5305527837
 10
-22.5575337911
 20
5.531882043
 10
-22.5680557854
 20
5.5335804459
 10
-22.5782778931
 20
5.5356088769
 10
-22.5882081614
 20
5.5379591127
 10
-22.5978385431
 20
5.5406393766
 10
-22.6072370628
 20
5.5436352241
 10
-22.6164074034
 20
5.5469388584
 10
-22.625345882
 20
5.5505580762
 10
-22.6341094743
 20
5.554501823
 10
-22.6427044952
 20
5.5587645716
 10
-22.6511246299
 20
5.5633518492
 10
-22.6594079099
 20
5.5682891824
 10
-22.6676212499
 20
5.5736306968
 10
-22.6756977352
 20
5.5793222668
 10
-22.6834746539
 20
5.5852270434
 10
-22.6908882837
 20
5.5912873846
 10
-22.6980023469
 20
5.5975609324
 10
-22.7048452981
 20
5.6040837625
 10
-22.711354705
 20
5.6107718578
 10
-22.7175929999
 20
5.6177092355
 10
-22.7237759337
 20
5.6251840227
 10
-22.7299777638
 20
5.6332479613
 10
-22.7361242328
 20
5.6418493094
 10
-22.7422083193
 20
5.651120969
 10
-22.7482443624
 20
5.6610761353
 10
-22.754218023
 20
5.671701613
 10
-22.7600792627
 20
5.6830907191
 10
-22.7658326153
 20
5.6952482167
 10
-22.7714735471
 20
5.7081693427
 10
-22.7769384185
 20
5.7219331237
 10
-22.7822275402
 20
5.7365421408
 10
-22.7873406015
 20
5.751993813
 10
-22.7922130311
 20
5.7683594244
 10
-22.7968233052
 20
5.7856627363
 10
-22.8011929476
 20
5.8038799873
 10
-22.8053219582
 20
5.8230111776
  0
LINE
  5
26B
100
AcDbEntity
  8
0
100
AcDbLine
 62
7
  6
CONTINUOUS
 10
-22.8053219582
 20
5.8230111776
 11
-22.9889318543
 21
5.7979731917
  0
LINE
  5
26C
100
AcDbEntity
  8
ASSI
100
AcDbLine
 62
7
  6
CONTINUOUS
 10
-22.8053219582
 20
5.8230111776
 11
-22.9889318543
 21
5.7979731917
  0
LINE
  5
26D
100
AcDbEntity
  8
0
100
AcDbLine
 62
7
  6
CONTINUOUS
 10
-23.9570571468
 20
5.8084051552
 11
-24.1490130962
 21
5.793800159
  0
LINE
  5
26E
100
AcDbEntity
  8
ASSI
100
AcDbLine
 62
7
  6
CONTINUOUS
 10
-23.9570571468
 20
5.8084051552
 11
-24.1490130962
 21
5.793800159
  0
LINE
  5
26F
100
AcDbEntity
  8
0
100
AcDbLine
 62
7
  6
CONTINUOUS
 10
-25.9642480917
 20
5.4015421594
 11
-25.7806380917
 21
5.4015421594
  0
LINE
  5
270
100
AcDbEntity
  8
ASSI
100
AcDbLine
 62
7
  6
CONTINUOUS
 10
-25.9642480917
 20
5.4015421594
 11
-25.7806380917
 21
5.4015421594
  0
LINE
  5
271
100
AcDbEntity
  8
0
100
AcDbLine
 62
7
  6
CONTINUOUS
 10
-24.7227940917
 20
5.4015421594
 11
-24.5391840917
 21
5.4015421594
  0
LINE
  5
272
100
AcDbEntity
  8
ASSI
100
AcDbLine
 62
7
  6
CONTINUOUS
 10
-24.7227940917
 20
5.4015421594
 11
-24.5391840917
 21
5.4015421594
  0
LINE
  5
273
100
AcDbEntity
  8
0
100
AcDbLine
 62
7
  6
CONTINUOUS
 10
-21.3239230917
 20
5.4015421594
 11
-21.1403130917
 21
5.4015421594
  0
LINE
  5
274
100
AcDbEntity
  8
ASSI
100
AcDbLine
 62
7
  6
CONTINUOUS
 10
-21.3239230917
 20
5.4015421594
 11
-21.1403130917
 21
5.4015421594
  0
LINE
  5
275
100
AcDbEntity
  8
0
100
AcDbLine
 62
7
  6
CONTINUOUS
 10
-25.3716890917
 20
5.7583301594
 11
-24.7227940917
 21
5.7583301594
  0
LINE
  5
276
100
AcDbEntity
  8
ASSI
100
AcDbLine
 62
7
  6
CONTINUOUS
 10
-25.3716890917
 20
5.7583301594
 11
-24.7227940917
 21
5.7583301594
  0
LINE
  5
277
100
AcDbEntity
  8
0
100
AcDbLine
 62
7
  6
CONTINUOUS
 10
-24.5391840917
 20
5.7583301594
 11
-24.3367960917
 21
5.7583301594
  0
LINE
  5
278
100
AcDbEntity
  8
ASSI
100
AcDbLine
 62
7
  6
CONTINUOUS
 10
-24.5391840917
 20
5.7583301594
 11
-24.3367960917
 21
5.7583301594
  0
LINE
  5
279
100
AcDbEntity
  8
0
100
AcDbLine
 62
7
  6
CONTINUOUS
 10
-24.3367960917
 20
5.9273341594
 11
-24.5391840917
 21
5.9273341594
  0
LINE
  5
27A
100
AcDbEntity
  8
ASSI
100
AcDbLine
 62
7
  6
CONTINUOUS
 10
-24.3367960917
 20
5.9273341594
 11
-24.5391840917
 21
5.9273341594
  0
LINE
  5
27B
100
AcDbEntity
  8
0
100
AcDbLine
 62
7
  6
CONTINUOUS
 10
-24.7227940917
 20
5.9273341594
 11
-25.1913060917
 21
5.9273341594
  0
LINE
  5
27C
100
AcDbEntity
  8
ASSI
100
AcDbLine
 62
7
  6
CONTINUOUS
 10
-24.7227940917
 20
5.9273341594
 11
-25.1913060917
 21
5.9273341594
  0
LINE
  5
27D
100
AcDbEntity
  8
0
100
AcDbLine
 62
7
  6
CONTINUOUS
 10
-23.8253480917
 20
6.7014171594
 11
-23.2309630917
 21
6.7014171594
  0
LINE
  5
27E
100
AcDbEntity
  8
ASSI
100
AcDbLine
 62
7
  6
CONTINUOUS
 10
-23.8253480917
 20
6.7014171594
 11
-23.2309630917
 21
6.7014171594
  0
LINE
  5
27F
100
AcDbEntity
  8
0
100
AcDbLine
 62
7
  6
CONTINUOUS
 10
-24.1156290917
 20
6.1088581594
 11
-23.9424519532
 21
6.0838201394
  0
LINE
  5
280
100
AcDbEntity
  8
ASSI
100
AcDbLine
 62
7
  6
CONTINUOUS
 10
-24.1156290917
 20
6.1088581594
 11
-23.9424519532
 21
6.0838201394
  0
LINE
  5
281
100
AcDbEntity
  8
0
100
AcDbLine
 62
7
  6
CONTINUOUS
 10
-22.9701535978
 20
6.5136342514
 11
-22.7865434855
 21
6.480251231
  0
LINE
  5
282
100
AcDbEntity
  8
ASSI
100
AcDbLine
 62
7
  6
CONTINUOUS
 10
-22.9701535978
 20
6.5136342514
 11
-22.7865434855
 21
6.480251231
  0
LWPOLYLINE
  5
283
100
AcDbEntity
  8
0
100
AcDbPolyline
 62
7
  6
CONTINUOUS
 90
52
 70
0
 10
-25.7759162312
 20
15.8766161594
 10
-25.7758334879
 20
15.8547274397
 10
-25.7762337708
 20
15.833759199
 10
-25.7771170801
 20
15.8137114372
 10
-25.7785010897
 20
15.7946593812
 10
-25.7803681256
 20
15.7765278041
 10
-25.7826651657
 20
15.7590910257
 10
-25.7853475636
 20
15.7424885759
 10
-25.7884599656
 20
15.7265809248
 10
-25.7920832887
 20
15.7107238025
 10
-25.7963205603
 20
15.6945629751
 10
-25.801068753
 20
15.6784526765
 10
-25.806099701
 20
15.662811338
 10
-25.8113996791
 20
15.6476876723
 10
-25.8169824127
 20
15.6330329667
 10
-25.8226609123
 20
15.6191195141
 10
-25.828351547
 20
15.6060874086
 10
-25.8341379478
 20
15.5937965562
 10
-25.8400840181
 20
15.5820989677
 10
-25.8461308089
 20
15.5710792368
 10
-25.8523372692
 20
15.5606527698
 10
-25.8589441492
 20
15.5504177961
 10
-25.865946289
 20
15.540344648
 10
-25.8733488484
 20
15.5304629932
 10
-25.881408058
 20
15.5204600645
 10
-25.8903528582
 20
15.5100711535
 10
-25.8999543086
 20
15.4995609686
 10
-25.909781818
 20
15.4894108674
 10
-25.9198227698
 20
15.4796718754
 10
-25.9300897806
 20
15.470292967
 10
-25.9401901089
 20
15.4616024235
 10
-25.949897431
 20
15.4537983064
 10
-25.9594380706
 20
15.4466825542
 10
-25.9690982566
 20
15.4399892628
 10
-25.9788900592
 20
15.4336810415
 10
-25.9888014082
 20
15.427795281
 10
-25.9990823221
 20
15.4221782487
 10
-26.0098026003
 20
15.416771968
 10
-26.0208924436
 20
15.4116344155
 10
-26.0323924719
 20
15.4067857883
 10
-26.04433985
 20
15.4022104817
 10
-26.0566974133
 20
15.3979241004
 10
-26.0693942879
 20
15.3939936552
 10
-26.0824325305
 20
15.3904235744
 10
-26.0958100845
 20
15.3872094296
 10
-26.1094499065
 20
15.3844049473
 10
-26.1233476226
 20
15.3820158976
 10
-26.1375076066
 20
15.3800365104
 10
-26.1518659367
 20
15.3785032014
 10
-26.1664013054
 20
15.3774281092
 10
-26.1811350201
 20
15.3767990952
 10
-26.1960670807
 20
15.3766161594
  0
LWPOLYLINE
  5
284
100
AcDbEntity
  8
ASSI
100
AcDbPolyline
 62
7
  6
CONTINUOUS
 90
52
 70
0
 10
-25.7759162312
 20
15.8766161594
 10
-25.7758334879
 20
15.8547274397
 10
-25.7762337708
 20
15.833759199
 10
-25.7771170801
 20
15.8137114372
 10
-25.7785010897
 20
15.7946593812
 10
-25.7803681256
 20
15.7765278041
 10
-25.7826651657
 20
15.7590910257
 10
-25.7853475636
 20
15.7424885759
 10
-25.7884599656
 20
15.7265809248
 10
-25.7920832887
 20
15.7107238025
 10
-25.7963205603
 20
15.6945629751
 10
-25.801068753
 20
15.6784526765
 10
-25.806099701
 20
15.662811338
 10
-25.8113996791
 20
15.6476876723
 10
-25.8169824127
 20
15.6330329667
 10
-25.8226609123
 20
15.6191195141
 10
-25.828351547
 20
15.6060874086
 10
-25.8341379478
 20
15.5937965562
 10
-25.8400840181
 20
15.5820989677
 10
-25.8461308089
 20
15.5710792368
 10
-25.8523372692
 20
15.5606527698
 10
-25.8589441492
 20
15.5504177961
 10
-25.865946289
 20
15.540344648
 10
-25.8733488484
 20
15.5304629932
 10
-25.881408058
 20
15.5204600645
 10
-25.8903528582
 20
15.5100711535
 10
-25.8999543086
 20
15.4995609686
 10
-25.909781818
 20
15.4894108674
 10
-25.9198227698
 20
15.4796718754
 10
-25.9300897806
 20
15.470292967
 10
-25.9401901089
 20
15.4616024235
 10
-25.949897431
 20
15.4537983064
 10
-25.9594380706
 20
15.4466825542
 10
-25.9690982566
 20
15.4399892628
 10
-25.9788900592
 20
15.4336810415
 10
-25.9888014082
 20
15.427795281
 10
-25.9990823221
 20
15.4221782487
 10
-26.0098026003
 20
15.416771968
 10
-26.0208924436
 20
15.4116344155
 10
-26.0323924719
 20
15.4067857883
 10
-26.04433985
 20
15.4022104817
 10
-26.0566974133
 20
15.3979241004
 10
-26.0693942879
 20
15.3939936552
 10
-26.0824325305
 20
15.3904235744
 10
-26.0958100845
 20
15.3872094296
 10
-26.1094499065
 20
15.3844049473
 10
-26.1233476226
 20
15.3820158976
 10
-26.1375076066
 20
15.3800365104
 10
-26.1518659367
 20
15.3785032014
 10
-26.1664013054
 20
15.3774281092
 10
-26.1811350201
 20
15.3767990952
 10
-26.1960670807
 20
15.3766161594
  0
LINE
  5
285
100
AcDbEntity
  8
0
100
AcDbLine
 62
7
  6
CONTINUOUS
 10
-26.6013800917
 20
15.3766161594
 11
-26.6013800917
 21
16.3766161594
  0
LINE
  5
286
100
AcDbEntity
  8
ASSI
100
AcDbLine
 62
7
  6
CONTINUOUS
 10
-26.6013800917
 20
15.3766161594
 11
-26.6013800917
 21
16.3766161594
  0
LINE
  5
287
100
AcDbEntity
  8
0
100
AcDbLine
 62
7
  6
CONTINUOUS
 10
-26.4662410917
 20
16.2610481594
 11
-26.4662410917
 21
15.4921841594
  0
LINE
  5
288
100
AcDbEntity
  8
ASSI
100
AcDbLine
 62
7
  6
CONTINUOUS
 10
-26.4662410917
 20
16.2610481594
 11
-26.4662410917
 21
15.4921841594
  0
LINE
  5
289
100
AcDbEntity
  8
0
100
AcDbLine
 62
7
  6
CONTINUOUS
 10
-26.3314680917
 20
6.5266750658
 11
-26.3314680917
 21
6.3493571161
  0
LINE
  5
28A
100
AcDbEntity
  8
ASSI
100
AcDbLine
 62
7
  6
CONTINUOUS
 10
-26.3314680917
 20
6.5266750658
 11
-26.3314680917
 21
6.3493571161
  0
LINE
  5
28B
100
AcDbEntity
  8
0
100
AcDbLine
 62
7
  6
CONTINUOUS
 10
-25.9642480917
 20
6.5704911147
 11
-25.9642480917
 21
5.4015421594
  0
LINE
  5
28C
100
AcDbEntity
  8
ASSI
100
AcDbLine
 62
7
  6
CONTINUOUS
 10
-25.9642480917
 20
6.5704911147
 11
-25.9642480917
 21
5.4015421594
  0
LINE
  5
28D
100
AcDbEntity
  8
0
100
AcDbLine
 62
7
  6
CONTINUOUS
 10
-25.7806380917
 20
5.4015421594
 11
-25.7806380917
 21
6.9017191594
  0
LINE
  5
28E
100
AcDbEntity
  8
ASSI
100
AcDbLine
 62
7
  6
CONTINUOUS
 10
-25.7806380917
 20
5.4015421594
 11
-25.7806380917
 21
6.9017191594
  0
LINE
  5
28F
100
AcDbEntity
  8
ASSI
100
AcDbLine
 62
7
  6
CONTINUOUS
 10
-25.6218680917
 20
14.5266941594
 11
-25.6218720917
 21
12.8766161594
  0
LINE
  5
290
100
AcDbEntity
  8
0
100
AcDbLine
 62
7
  6
CONTINUOUS
 10
-25.5888050917
 20
15.3766161594
 11
-25.5888050917
 21
16.3766161594
  0
LINE
  5
291
100
AcDbEntity
  8
ASSI
100
AcDbLine
 62
7
  6
CONTINUOUS
 10
-25.5888050917
 20
15.3766161594
 11
-25.5888050917
 21
16.3766161594
  0
LINE
  5
292
100
AcDbEntity
  8
0
100
AcDbLine
 62
7
  6
CONTINUOUS
 10
-25.4536730917
 20
16.2568421594
 11
-25.4536730917
 21
15.9504131594
  0
LINE
  5
293
100
AcDbEntity
  8
ASSI
100
AcDbLine
 62
7
  6
CONTINUOUS
 10
-25.4536730917
 20
16.2568421594
 11
-25.4536730917
 21
15.9504131594
  0
LINE
  5
294
100
AcDbEntity
  8
0
100
AcDbLine
 62
7
  6
CONTINUOUS
 10
-25.4536730917
 20
15.8306391594
 11
-25.4536730917
 21
15.4963901594
  0
LINE
  5
295
100
AcDbEntity
  8
ASSI
100
AcDbLine
 62
7
  6
CONTINUOUS
 10
-25.4536730917
 20
15.8306391594
 11
-25.4536730917
 21
15.4963901594
  0
LINE
  5
296
100
AcDbEntity
  8
0
100
AcDbLine
 62
7
  6
CONTINUOUS
 10
-25.3716890917
 20
5.9273341594
 11
-25.3716890917
 21
5.7583301594
  0
LINE
  5
297
100
AcDbEntity
  8
ASSI
100
AcDbLine
 62
7
  6
CONTINUOUS
 10
-25.3716890917
 20
5.9273341594
 11
-25.3716890917
 21
5.7583301594
  0
LINE
  5
298
100
AcDbEntity
  8
ASSI
100
AcDbLine
 62
7
  6
CONTINUOUS
 10
-25.2918600917
 20
12.8766201594
 11
-25.2918560917
 21
14.5266941594
  0
LWPOLYLINE
  5
299
100
AcDbEntity
  8
0
100
AcDbPolyline
 62
7
  6
CONTINUOUS
 90
49
 70
0
 10
-25.9149226138
 20
15.8766161594
 10
-25.9147414411
 20
15.8929643718
 10
-25.915032056
 20
15.9093158275
 10
-25.9157944585
 20
15.9256705265
 10
-25.917079578
 20
15.9422320143
 10
-25.9188364851
 20
15.9587967454
 10
-25.9209123921
 20
15.9747540828
 10
-25.923298181
 20
15.9899063788
 10
-25.9260029697
 20
16.0044512811
 10
-25.9289013248
 20
16.0183710961
 10
-25.9319542118
 20
16.0316531277
 10
-25.9352006651
 20
16.0443100721
 10
-25.938632355
 20
16.056362324
 10
-25.9422373622
 20
16.0677700001
 10
-25.9460276059
 20
16.0785729838
 10
-25.9500305144
 20
16.0889113199
 10
-25.9542414174
 20
16.0987686311
 10
-25.9586649851
 20
16.1081612949
 10
-25.9633426566
 20
16.117278488
 10
-25.9683017128
 20
16.1261906149
 10
-25.9735148728
 20
16.1348272711
 10
-25.9789417332
 20
16.1431664209
 10
-25.9845776705
 20
16.1512024626
 10
-25.9904273083
 20
16.1589409978
 10
-25.9964641143
 20
16.1663767955
 10
-26.002671039
 20
16.1734940425
 10
-26.009065132
 20
16.180308552
 10
-26.0156710103
 20
16.186862532
 10
-26.0224988592
 20
16.193169208
 10
-26.0295384934
 20
16.1992153545
 10
-26.0367839738
 20
16.2050035033
 10
-26.0442392142
 20
16.2105400456
 10
-26.0519003007
 20
16.2158185901
 10
-26.059749552
 20
16.2208224951
 10
-26.0677754926
 20
16.2255463178
 10
-26.075989598
 20
16.2299955009
 10
-26.0844086136
 20
16.2341697302
 10
-26.0930391139
 20
16.2380737686
 10
-26.1018745244
 20
16.2417028532
 10
-26.1109118666
 20
16.2450423807
 10
-26.1201645842
 20
16.2480969182
 10
-26.1296192335
 20
16.2508618986
 10
-26.139232505
 20
16.2533090172
 10
-26.1490140258
 20
16.2554366858
 10
-26.1589541689
 20
16.2572464927
 10
-26.1689807436
 20
16.2587148975
 10
-26.1790696864
 20
16.2598340535
 10
-26.1892450609
 20
16.2606118075
 10
-26.199506867
 20
16.2610481594
  0
LWPOLYLINE
  5
29A
100
AcDbEntity
  8
ASSI
100
AcDbPolyline
 62
7
  6
CONTINUOUS
 90
49
 70
0
 10
-25.9149226138
 20
15.8766161594
 10
-25.9147414411
 20
15.8929643718
 10
-25.915032056
 20
15.9093158275
 10
-25.9157944585
 20
15.9256705265
 10
-25.917079578
 20
15.9422320143
 10
-25.9188364851
 20
15.9587967454
 10
-25.9209123921
 20
15.9747540828
 10
-25.923298181
 20
15.9899063788
 10
-25.9260029697
 20
16.0044512811
 10
-25.9289013248
 20
16.0183710961
 10
-25.9319542118
 20
16.0316531277
 10
-25.9352006651
 20
16.0443100721
 10
-25.938632355
 20
16.056362324
 10
-25.9422373622
 20
16.0677700001
 10
-25.9460276059
 20
16.0785729838
 10
-25.9500305144
 20
16.0889113199
 10
-25.9542414174
 20
16.0987686311
 10
-25.9586649851
 20
16.1081612949
 10
-25.9633426566
 20
16.117278488
 10
-25.9683017128
 20
16.1261906149
 10
-25.9735148728
 20
16.1348272711
 10
-25.9789417332
 20
16.1431664209
 10
-25.9845776705
 20
16.1512024626
 10
-25.9904273083
 20
16.1589409978
 10
-25.9964641143
 20
16.1663767955
 10
-26.002671039
 20
16.1734940425
 10
-26.009065132
 20
16.180308552
 10
-26.0156710103
 20
16.186862532
 10
-26.0224988592
 20
16.193169208
 10
-26.0295384934
 20
16.1992153545
 10
-26.0367839738
 20
16.2050035033
 10
-26.0442392142
 20
16.2105400456
 10
-26.0519003007
 20
16.2158185901
 10
-26.059749552
 20
16.2208224951
 10
-26.0677754926
 20
16.2255463178
 10
-26.075989598
 20
16.2299955009
 10
-26.0844086136
 20
16.2341697302
 10
-26.0930391139
 20
16.2380737686
 10
-26.1018745244
 20
16.2417028532
 10
-26.1109118666
 20
16.2450423807
 10
-26.1201645842
 20
16.2480969182
 10
-26.1296192335
 20
16.2508618986
 10
-26.139232505
 20
16.2533090172
 10
-26.1490140258
 20
16.2554366858
 10
-26.1589541689
 20
16.2572464927
 10
-26.1689807436
 20
16.2587148975
 10
-26.1790696864
 20
16.2598340535
 10
-26.1892450609
 20
16.2606118075
 10
-26.199506867
 20
16.2610481594
  0
LINE
  5
29B
100
AcDbEntity
  8
0
100
AcDbLine
 62
7
  6
CONTINUOUS
 10
-23.2309630917
 20
6.8766811594
 11
-23.9716620917
 21
6.8766811594
  0
LINE
  5
29C
100
AcDbEntity
  8
ASSI
100
AcDbLine
 62
7
  6
CONTINUOUS
 10
-23.2309630917
 20
6.8766811594
 11
-23.9716620917
 21
6.8766811594
  0
LINE
  5
29D
100
AcDbEntity
  8
0
100
AcDbLine
 62
7
  6
CONTINUOUS
 10
-24.5391840917
 20
6.8954601594
 11
-24.6894110917
 21
6.8954601594
  0
LINE
  5
29E
100
AcDbEntity
  8
ASSI
100
AcDbLine
 62
7
  6
CONTINUOUS
 10
-24.5391840917
 20
6.8954601594
 11
-24.6894110917
 21
6.8954601594
  0
LINE
  5
29F
100
AcDbEntity
  8
0
100
AcDbLine
 62
7
  6
CONTINUOUS
 10
-21.1403130917
 20
6.9017191594
 11
-21.2586555767
 21
6.9017191594
  0
LINE
  5
2A0
100
AcDbEntity
  8
ASSI
100
AcDbLine
 62
7
  6
CONTINUOUS
 10
-21.1403130917
 20
6.9017191594
 11
-21.2586555767
 21
6.9017191594
  0
LINE
  5
2A1
100
AcDbEntity
  8
0
100
AcDbLine
 62
7
  6
CONTINUOUS
 10
-25.7806380917
 20
6.9017191594
 11
-25.8989805912
 21
6.9017191594
  0
LINE
  5
2A2
100
AcDbEntity
  8
ASSI
100
AcDbLine
 62
7
  6
CONTINUOUS
 10
-25.7806380917
 20
6.9017191594
 11
-25.8989805912
 21
6.9017191594
  0
LINE
  5
2A3
100
AcDbEntity
  8
0
100
AcDbLine
 62
7
  6
CONTINUOUS
 10
-28.5080910917
 20
16.3766161594
 11
-28.2211890917
 21
15.5270981594
  0
LINE
  5
2A4
100
AcDbEntity
  8
ASSI
100
AcDbLine
 62
7
  6
CONTINUOUS
 10
-28.5080910917
 20
16.3766161594
 11
-28.2211890917
 21
15.5270981594
  0
LINE
  5
2A5
100
AcDbEntity
  8
0
100
AcDbLine
 62
7
  6
CONTINUOUS
 10
-28.2894180917
 20
15.3766161594
 11
-28.5707790917
 21
16.2151121594
  0
LINE
  5
2A6
100
AcDbEntity
  8
ASSI
100
AcDbLine
 62
7
  6
CONTINUOUS
 10
-28.2894180917
 20
15.3766161594
 11
-28.5707790917
 21
16.2151121594
  0
LINE
  5
2A7
100
AcDbEntity
  8
ASSI
100
AcDbLine
 62
7
  6
CONTINUOUS
 10
-27.2314680917
 20
14.5266941594
 11
-26.7016860917
 21
12.8766161594
  0
LINE
  5
2A8
100
AcDbEntity
  8
ASSI
100
AcDbLine
 62
7
  6
CONTINUOUS
 10
-26.5366690917
 20
13.3905291594
 11
-26.9014510917
 21
14.5266941594
  0
LINE
  5
2A9
100
AcDbEntity
  8
ASSI
100
AcDbLine
 62
7
  6
CONTINUOUS
 10
-24.9618560917
 20
14.5266941594
 11
-24.9618560917
 21
12.8766201594
  0
LINE
  5
2AA
100
AcDbEntity
  8
0
100
AcDbLine
 62
7
  6
CONTINUOUS
 10
-24.9063140917
 20
15.9504131594
 11
-24.9063140917
 21
15.8306391594
  0
LINE
  5
2AB
100
AcDbEntity
  8
ASSI
100
AcDbLine
 62
7
  6
CONTINUOUS
 10
-24.9063140917
 20
15.9504131594
 11
-24.9063140917
 21
15.8306391594
  0
LINE
  5
2AC
100
AcDbEntity
  8
0
100
AcDbLine
 62
7
  6
CONTINUOUS
 10
-24.8603530917
 20
16.3766161594
 11
-24.8603530917
 21
16.2568421594
  0
LINE
  5
2AD
100
AcDbEntity
  8
ASSI
100
AcDbLine
 62
7
  6
CONTINUOUS
 10
-24.8603530917
 20
16.3766161594
 11
-24.8603530917
 21
16.2568421594
  0
LINE
  5
2AE
100
AcDbEntity
  8
0
100
AcDbLine
 62
7
  6
CONTINUOUS
 10
-24.8505920917
 20
15.4963901594
 11
-24.8505920917
 21
15.3766161594
  0
LINE
  5
2AF
100
AcDbEntity
  8
ASSI
100
AcDbLine
 62
7
  6
CONTINUOUS
 10
-24.8505920917
 20
15.4963901594
 11
-24.8505920917
 21
15.3766161594
  0
LINE
  5
2B0
100
AcDbEntity
  8
0
100
AcDbLine
 62
7
  6
CONTINUOUS
 10
-24.7227940917
 20
6.5994081594
 11
-24.7227940917
 21
5.9273341594
  0
LINE
  5
2B1
100
AcDbEntity
  8
ASSI
100
AcDbLine
 62
7
  6
CONTINUOUS
 10
-24.7227940917
 20
6.5994081594
 11
-24.7227940917
 21
5.9273341594
  0
LINE
  5
2B2
100
AcDbEntity
  8
0
100
AcDbLine
 62
7
  6
CONTINUOUS
 10
-24.7227940917
 20
5.7583301594
 11
-24.7227940917
 21
5.4015421594
  0
LINE
  5
2B3
100
AcDbEntity
  8
ASSI
100
AcDbLine
 62
7
  6
CONTINUOUS
 10
-24.7227940917
 20
5.7583301594
 11
-24.7227940917
 21
5.4015421594
  0
LINE
  5
2B4
100
AcDbEntity
  8
ASSI
100
AcDbLine
 62
7
  6
CONTINUOUS
 10
-24.6318430917
 20
12.8766201594
 11
-24.6318430917
 21
13.9647331594
  0
LINE
  5
2B5
100
AcDbEntity
  8
0
100
AcDbLine
 62
7
  6
CONTINUOUS
 10
-24.5391840917
 20
5.4015421594
 11
-24.5391840917
 21
5.7583301594
  0
LINE
  5
2B6
100
AcDbEntity
  8
ASSI
100
AcDbLine
 62
7
  6
CONTINUOUS
 10
-24.5391840917
 20
5.4015421594
 11
-24.5391840917
 21
5.7583301594
  0
LINE
  5
2B7
100
AcDbEntity
  8
0
100
AcDbLine
 62
7
  6
CONTINUOUS
 10
-24.5391840917
 20
5.9273341594
 11
-24.5391840917
 21
6.8954601594
  0
LINE
  5
2B8
100
AcDbEntity
  8
ASSI
100
AcDbLine
 62
7
  6
CONTINUOUS
 10
-24.5391840917
 20
5.9273341594
 11
-24.5391840917
 21
6.8954601594
  0
LINE
  5
2B9
100
AcDbEntity
  8
0
100
AcDbLine
 62
7
  6
CONTINUOUS
 10
-24.3367960917
 20
5.7583301594
 11
-24.3367960917
 21
5.9273341594
  0
LINE
  5
2BA
100
AcDbEntity
  8
ASSI
100
AcDbLine
 62
7
  6
CONTINUOUS
 10
-24.3367960917
 20
5.7583301594
 11
-24.3367960917
 21
5.9273341594
  0
LINE
  5
2BB
100
AcDbEntity
  8
0
100
AcDbLine
 62
7
  6
CONTINUOUS
 10
-24.2656020917
 20
15.3766161594
 11
-24.2656020917
 21
16.3766161594
  0
LINE
  5
2BC
100
AcDbEntity
  8
ASSI
100
AcDbLine
 62
7
  6
CONTINUOUS
 10
-24.2656020917
 20
15.3766161594
 11
-24.2656020917
 21
16.3766161594
  0
LINE
  5
2BD
100
AcDbEntity
  8
0
100
AcDbLine
 62
7
  6
CONTINUOUS
 10
-24.1305110917
 20
16.3766161594
 11
-24.1305110917
 21
15.3766161594
  0
LINE
  5
2BE
100
AcDbEntity
  8
ASSI
100
AcDbLine
 62
7
  6
CONTINUOUS
 10
-24.1305110917
 20
16.3766161594
 11
-24.1305110917
 21
15.3766161594
  0
LINE
  5
2BF
100
AcDbEntity
  8
0
100
AcDbLine
 62
7
  6
CONTINUOUS
 10
-23.8993420917
 20
15.3766161594
 11
-23.8993420917
 21
16.3766161594
  0
LINE
  5
2C0
100
AcDbEntity
  8
ASSI
100
AcDbLine
 62
7
  6
CONTINUOUS
 10
-23.8993420917
 20
15.3766161594
 11
-23.8993420917
 21
16.3766161594
  0
LINE
  5
2C1
100
AcDbEntity
  8
RACCORDO
100
AcDbLine
 62
7
  6
CONTINUOUS
 10
-23.8814680917
 20
-0.8233229094
 11
-23.8814680917
 21
-1.023353375
  0
LINE
  5
2C2
100
AcDbEntity
  8
ASSI
100
AcDbLine
 62
7
  6
CONTINUOUS
 10
-23.8814680917
 20
-0.8233229094
 11
-23.8814680917
 21
-1.023353375
  0
LINE
  5
2C3
100
AcDbEntity
  8
RACCORDO
100
AcDbLine
 62
7
  6
CONTINUOUS
 10
-23.8814680917
 20
20.5765552282
 11
-23.8814680917
 21
20.7765856938
  0
LINE
  5
2C4
100
AcDbEntity
  8
ASSI
100
AcDbLine
 62
7
  6
CONTINUOUS
 10
-23.8814680917
 20
20.5765552282
 11
-23.8814680917
 21
20.7765856938
  0
LINE
  5
2C5
100
AcDbEntity
  8
0
100
AcDbLine
 62
7
  6
CONTINUOUS
 10
-23.7683680917
 20
16.1887361594
 11
-23.7683680917
 21
15.3766161594
  0
LINE
  5
2C6
100
AcDbEntity
  8
ASSI
100
AcDbLine
 62
7
  6
CONTINUOUS
 10
-23.7683680917
 20
16.1887361594
 11
-23.7683680917
 21
15.3766161594
  0
LINE
  5
2C7
100
AcDbEntity
  8
ASSI
100
AcDbLine
 62
7
  6
CONTINUOUS
 10
-23.6778260917
 20
13.9647331594
 11
-23.6778220917
 21
12.8766201594
  0
LINE
  5
2C8
100
AcDbEntity
  8
RACCORDO
100
AcDbLine
 62
7
  6
CONTINUOUS
 10
-23.5814680917
 20
-0.8233229094
 11
-23.5814680917
 21
-1.023353375
  0
LINE
  5
2C9
100
AcDbEntity
  8
ASSI
100
AcDbLine
 62
7
  6
CONTINUOUS
 10
-23.5814680917
 20
-0.8233229094
 11
-23.5814680917
 21
-1.023353375
  0
LINE
  5
2CA
100
AcDbEntity
  8
RACCORDO
100
AcDbLine
 62
7
  6
CONTINUOUS
 10
-23.5814680917
 20
20.5765552282
 11
-23.5814680917
 21
20.7765856938
  0
LINE
  5
2CB
100
AcDbEntity
  8
ASSI
100
AcDbLine
 62
7
  6
CONTINUOUS
 10
-23.5814680917
 20
20.5765552282
 11
-23.5814680917
 21
20.7765856938
  0
LINE
  5
2CC
100
AcDbEntity
  8
ASSI
100
AcDbLine
 62
7
  6
CONTINUOUS
 10
-23.8466990917
 20
14.5266941594
 11
-24.1548330917
 21
13.4521071594
  0
LINE
  5
2CD
100
AcDbEntity
  8
ASSI
100
AcDbLine
 62
7
  6
CONTINUOUS
 10
-23.9898330917
 20
12.8766241594
 11
-23.6778260917
 21
13.9647331594
  0
LINE
  5
2CE
100
AcDbEntity
  8
ASSI
100
AcDbLine
 62
7
  6
CONTINUOUS
 10
-22.5980250917
 20
14.5266991594
 11
-23.1278020917
 21
12.8766201594
  0
LINE
  5
2CF
100
AcDbEntity
  8
ASSI
100
AcDbLine
 62
7
  6
CONTINUOUS
 10
-22.7977900917
 20
12.8766241594
 11
-22.6936050917
 21
13.2011221594
  0
LINE
  5
2D0
100
AcDbEntity
  8
ASSI
100
AcDbLine
 62
7
  6
CONTINUOUS
 10
-22.5929430917
 20
13.5146341594
 11
-22.4330120917
 21
14.0127851594
  0
LWPOLYLINE
  5
2D1
100
AcDbEntity
  8
0
100
AcDbPolyline
 62
7
  6
CONTINUOUS
 90
28
 70
0
 10
-25.8989805912
 20
6.9017191594
 10
-25.9047754901
 20
6.8903620683
 10
-25.9112393722
 20
6.8787061714
 10
-25.9183722375
 20
6.8667514686
 10
-25.9261457695
 20
6.8544953684
 10
-25.9345882847
 20
6.8419404623
 10
-25.9437847322
 20
6.8290945255
 10
-25.953735641
 20
6.8159581157
 10
-25.9644404821
 20
6.8025306751
 10
-25.9759826179
 20
6.7888183056
 10
-25.9883597399
 20
6.7748239707
 10
-26.0015741565
 20
6.7605447069
 10
-26.0157161557
 20
6.7459777253
 10
-26.0308033138
 20
6.7310784177
 10
-26.0468180545
 20
6.7158913923
 10
-26.0637979369
 20
6.7005476849
 10
-26.0818388429
 20
6.6849636883
 10
-26.1008448907
 20
6.6692230097
 10
-26.1205659932
 20
6.6537075065
 10
-26.1409071567
 20
6.6385287385
 10
-26.1619633751
 20
6.6235751461
 10
-26.1837695425
 20
6.6088939073
 10
-26.2062986674
 20
6.5944987185
 10
-26.2295777413
 20
6.5803758835
 10
-26.2537226338
 20
6.5665314917
 10
-26.2787719679
 20
6.5529675731
 10
-26.3046871205
 20
6.5396820978
 10
-26.3314680917
 20
6.5266750658
  0
LWPOLYLINE
  5
2D2
100
AcDbEntity
  8
ASSI
100
AcDbPolyline
 62
7
  6
CONTINUOUS
 90
28
 70
0
 10
-25.8989805912
 20
6.9017191594
 10
-25.9047754901
 20
6.8903620683
 10
-25.9112393722
 20
6.8787061714
 10
-25.9183722375
 20
6.8667514686
 10
-25.9261457695
 20
6.8544953684
 10
-25.9345882847
 20
6.8419404623
 10
-25.9437847322
 20
6.8290945255
 10
-25.953735641
 20
6.8159581157
 10
-25.9644404821
 20
6.8025306751
 10
-25.9759826179
 20
6.7888183056
 10
-25.9883597399
 20
6.7748239707
 10
-26.0015741565
 20
6.7605447069
 10
-26.0157161557
 20
6.7459777253
 10
-26.0308033138
 20
6.7310784177
 10
-26.0468180545
 20
6.7158913923
 10
-26.0637979369
 20
6.7005476849
 10
-26.0818388429
 20
6.6849636883
 10
-26.1008448907
 20
6.6692230097
 10
-26.1205659932
 20
6.6537075065
 10
-26.1409071567
 20
6.6385287385
 10
-26.1619633751
 20
6.6235751461
 10
-26.1837695425
 20
6.6088939073
 10
-26.2062986674
 20
6.5944987185
 10
-26.2295777413
 20
6.5803758835
 10
-26.2537226338
 20
6.5665314917
 10
-26.2787719679
 20
6.5529675731
 10
-26.3046871205
 20
6.5396820978
 10
-26.3314680917
 20
6.5266750658
  0
LINE
  5
2D3
100
AcDbEntity
  8
0
100
AcDbLine
 62
7
  6
CONTINUOUS
 10
-27.0943930917
 20
16.3766161594
 11
-26.7322900917
 21
15.3766161594
  0
LINE
  5
2D4
100
AcDbEntity
  8
ASSI
100
AcDbLine
 62
7
  6
CONTINUOUS
 10
-27.0943930917
 20
16.3766161594
 11
-26.7322900917
 21
15.3766161594
  0
LINE
  5
2D5
100
AcDbEntity
  8
0
100
AcDbLine
 62
7
  6
CONTINUOUS
 10
-26.8799410917
 20
15.3766161594
 11
-26.9788170917
 21
15.6676791594
  0
LINE
  5
2D6
100
AcDbEntity
  8
ASSI
100
AcDbLine
 62
7
  6
CONTINUOUS
 10
-26.8799410917
 20
15.3766161594
 11
-26.9788170917
 21
15.6676791594
  0
LINE
  5
2D7
100
AcDbEntity
  8
0
100
AcDbLine
 62
7
  6
CONTINUOUS
 10
-27.0275270917
 20
15.7874531594
 11
-27.1765120917
 21
16.2315671594
  0
LINE
  5
2D8
100
AcDbEntity
  8
ASSI
100
AcDbLine
 62
7
  6
CONTINUOUS
 10
-27.0275270917
 20
15.7874531594
 11
-27.1765120917
 21
16.2315671594
  0
LWPOLYLINE
  5
2D9
100
AcDbEntity
  8
0
100
AcDbPolyline
 62
7
  6
CONTINUOUS
 90
64
 70
0
 10
-23.1650587334
 20
5.9881464527
 10
-23.167553542
 20
6.0051826487
 10
-23.1705264026
 20
6.0216409436
 10
-23.1739272393
 20
6.0376328324
 10
-23.1777475769
 20
6.053165901
 10
-23.1819958905
 20
6.0682325635
 10
-23.1866475301
 20
6.0829215571
 10
-23.1916946855
 20
6.097237629
 10
-23.1971451669
 20
6.1111760321
 10
-23.2029977538
 20
6.1248112616
 10
-23.2092453677
 20
6.138148304
 10
-23.2158950872
 20
6.1511821728
 10
-23.2229669277
 20
6.1639724042
 10
-23.2304546932
 20
6.1765241352
 10
-23.2383645798
 20
6.1888322289
 10
-23.2467351914
 20
6.2009408105
 10
-23.2555434779
 20
6.2128376147
 10
-23.2648124894
 20
6.2245349069
 10
-23.2746499801
 20
6.2361136081
 10
-23.2851809688
 20
6.2476960449
 10
-23.2962804367
 20
6.2591598907
 10
-23.3076810823
 20
6.2702190866
 10
-23.3193640879
 20
6.2808309172
 10
-23.3313482712
 20
6.2910380979
 10
-23.3434227833
 20
6.3006827156
 10
-23.3555034117
 20
6.3096882974
 10
-23.3676743689
 20
6.3181313163
 10
-23.3799774441
 20
6.3260832782
 10
-23.3924110192
 20
6.3335534734
 10
-23.4049767124
 20
6.3405326117
 10
-23.4177211673
 20
6.3470643276
 10
-23.430641034
 20
6.353156104
 10
-23.4437396624
 20
6.358800458
 10
-23.4570737463
 20
6.3640185766
 10
-23.4706399726
 20
6.3688178948
 10
-23.4844416542
 20
6.3731909776
 10
-23.498545424
 20
6.3771367065
 10
-23.5129464006
 20
6.3806627633
 10
-23.5276494653
 20
6.3837614663
 10
-23.5427358952
 20
6.3864086516
 10
-23.5583763601
 20
6.3886095719
 10
-23.5744001901
 20
6.3903589745
 10
-23.5903766527
 20
6.3916169379
 10
-23.6062468788
 20
6.3923677774
 10
-23.6220697374
 20
6.3926271775
 10
-23.6375911034
 20
6.3924022707
 10
-23.6526502985
 20
6.3916961586
 10
-23.6674080011
 20
6.3905057396
 10
-23.6820921207
 20
6.3888288398
 10
-23.6967591385
 20
6.3866708164
 10
-23.7113525733
 20
6.3840263124
 10
-23.7259308921
 20
6.3808770826
 10
-23.7404944508
 20
6.3772315124
 10
-23.7550428933
 20
6.3730812165
 10
-23.7696336187
 20
6.3683827942
 10
-23.7842679233
 20
6.3631450069
 10
-23.7989445108
 20
6.3573590932
 10
-23.8137168907
 20
6.3509553682
 10
-23.8285822903
 20
6.3439459135
 10
-23.8435434822
 20
6.3363186476
 10
-23.8586622936
 20
6.3279676408
 10
-23.8739593336
 20
6.3188575834
 10
-23.8894139932
 20
6.3090237851
 10
-23.9050262723
 20
6.298466246
  0
LWPOLYLINE
  5
2DA
100
AcDbEntity
  8
ASSI
100
AcDbPolyline
 62
7
  6
CONTINUOUS
 90
64
 70
0
 10
-23.1650587334
 20
5.9881464527
 10
-23.167553542
 20
6.0051826487
 10
-23.1705264026
 20
6.0216409436
 10
-23.1739272393
 20
6.0376328324
 10
-23.1777475769
 20
6.053165901
 10
-23.1819958905
 20
6.0682325635
 10
-23.1866475301
 20
6.0829215571
 10
-23.1916946855
 20
6.097237629
 10
-23.1971451669
 20
6.1111760321
 10
-23.2029977538
 20
6.1248112616
 10
-23.2092453677
 20
6.138148304
 10
-23.2158950872
 20
6.1511821728
 10
-23.2229669277
 20
6.1639724042
 10
-23.2304546932
 20
6.1765241352
 10
-23.2383645798
 20
6.1888322289
 10
-23.2467351914
 20
6.2009408105
 10
-23.2555434779
 20
6.2128376147
 10
-23.2648124894
 20
6.2245349069
 10
-23.2746499801
 20
6.2361136081
 10
-23.2851809688
 20
6.2476960449
 10
-23.2962804367
 20
6.2591598907
 10
-23.3076810823
 20
6.2702190866
 10
-23.3193640879
 20
6.2808309172
 10
-23.3313482712
 20
6.2910380979
 10
-23.3434227833
 20
6.3006827156
 10
-23.3555034117
 20
6.3096882974
 10
-23.3676743689
 20
6.3181313163
 10
-23.3799774441
 20
6.3260832782
 10
-23.3924110192
 20
6.3335534734
 10
-23.4049767124
 20
6.3405326117
 10
-23.4177211673
 20
6.3470643276
 10
-23.430641034
 20
6.353156104
 10
-23.4437396624
 20
6.358800458
 10
-23.4570737463
 20
6.3640185766
 10
-23.4706399726
 20
6.3688178948
 10
-23.4844416542
 20
6.3731909776
 10
-23.498545424
 20
6.3771367065
 10
-23.5129464006
 20
6.3806627633
 10
-23.5276494653
 20
6.3837614663
 10
-23.5427358952
 20
6.3864086516
 10
-23.5583763601
 20
6.3886095719
 10
-23.5744001901
 20
6.3903589745
 10
-23.5903766527
 20
6.3916169379
 10
-23.6062468788
 20
6.3923677774
 10
-23.6220697374
 20
6.3926271775
 10
-23.6375911034
 20
6.3924022707
 10
-23.6526502985
 20
6.3916961586
 10
-23.6674080011
 20
6.3905057396
 10
-23.6820921207
 20
6.3888288398
 10
-23.6967591385
 20
6.3866708164
 10
-23.7113525733
 20
6.3840263124
 10
-23.7259308921
 20
6.3808770826
 10
-23.7404944508
 20
6.3772315124
 10
-23.7550428933
 20
6.3730812165
 10
-23.7696336187
 20
6.3683827942
 10
-23.7842679233
 20
6.3631450069
 10
-23.7989445108
 20
6.3573590932
 10
-23.8137168907
 20
6.3509553682
 10
-23.8285822903
 20
6.3439459135
 10
-23.8435434822
 20
6.3363186476
 10
-23.8586622936
 20
6.3279676408
 10
-23.8739593336
 20
6.3188575834
 10
-23.8894139932
 20
6.3090237851
 10
-23.9050262723
 20
6.298466246
  0
LWPOLYLINE
  5
2DB
100
AcDbEntity
  8
0
100
AcDbPolyline
 62
7
  6
CONTINUOUS
 90
100
 70
0
 10
-24.1490130962
 20
5.793800159
 10
-24.1469158907
 20
5.7755500053
 10
-24.1443878303
 20
5.7579126247
 10
-24.141428915
 20
5.7408880171
 10
-24.1380246278
 20
5.72451682
 10
-24.1341894857
 20
5.7087583959
 10
-24.1299670399
 20
5.6934908326
 10
-24.1253653566
 20
5.6787030919
 10
-24.1203763695
 20
5.6644062119
 10
-24.115019431
 20
5.6505113949
 10
-24.1093021737
 20
5.6370162159
 10
-24.103216965
 20
5.6239230999
 10
-24.0967602594
 20
5.6111505234
 10
-24.0899355888
 20
5.5986848791
 10
-24.0827394214
 20
5.5865397743
 10
-24.0751576157
 20
5.5746745082
 10
-24.0672025487
 20
5.563095408
 10
-24.0588618434
 20
5.5517961466
 10
-24.0500842283
 20
5.5407170416
 10
-24.0408433312
 20
5.5298215812
 10
-24.0311655242
 20
5.5191462772
 10
-24.0210786518
 20
5.5087409831
 10
-24.0105225045
 20
5.4985591676
 10
-23.9995572917
 20
5.4886473619
 10
-23.9883914868
 20
5.4791950139
 10
-23.9771153673
 20
5.4702849963
 10
-23.9656386556
 20
5.4618344363
 10
-23.9538989927
 20
5.4537841634
 10
-23.9418926112
 20
5.4461212716
 10
-23.9296232785
 20
5.4388586668
 10
-23.9170399384
 20
5.4319758962
 10
-23.9041507263
 20
5.4254679876
 10
-23.8909475067
 20
5.4193399131
 10
-23.8773548168
 20
5.4135861364
 10
-23.8633764549
 20
5.408198488
 10
-23.8490086228
 20
5.4031851372
 10
-23.8341644631
 20
5.3985650563
 10
-23.8188527102
 20
5.3943305805
 10
-23.8030646298
 20
5.3904893745
 10
-23.7866871612
 20
5.3870834047
 10
-23.7697235737
 20
5.3841025859
 10
-23.7521705981
 20
5.3815570033
 10
-23.7339053657
 20
5.3795188779
 10
-23.7146064401
 20
5.3779905423
 10
-23.6945952578
 20
5.376969664
 10
-23.6747132587
 20
5.376521466
 10
-23.6550659211
 20
5.3766866681
 10
-23.6355477669
 20
5.3774245506
 10
-23.6166838017
 20
5.3786781777
 10
-23.5986927292
 20
5.3804504412
 10
-23.5813558458
 20
5.3827384494
 10
-23.5645420465
 20
5.3854765905
 10
-23.5482419833
 20
5.3886551501
 10
-23.5324650043
 20
5.3922838425
 10
-23.5171080484
 20
5.3963261994
 10
-23.5021631393
 20
5.4007745509
 10
-23.4876382533
 20
5.4056365668
 10
-23.4734542586
 20
5.4108987871
 10
-23.4596081973
 20
5.4165530947
 10
-23.4461030273
 20
5.4226076067
 10
-23.4328684903
 20
5.4290732144
 10
-23.4198971379
 20
5.4359444586
 10
-23.4071964185
 20
5.4432267984
 10
-23.3947184194
 20
5.4509475027
 10
-23.3824617349
 20
5.459098098
 10
-23.3704277706
 20
5.4676870577
 10
-23.3585728313
 20
5.4767670708
 10
-23.3468920299
 20
5.4863309583
 10
-23.3353902535
 20
5.4963858992
 10
-23.3240384675
 20
5.5070061192
 10
-23.3128240406
 20
5.518204396
 10
-23.3017596041
 20
5.5299679519
 10
-23.2908540181
 20
5.5423326798
 10
-23.2799993796
 20
5.5554402138
 10
-23.2693035916
 20
5.5691489197
 10
-23.259099224
 20
5.583069788
 10
-23.2494901767
 20
5.5970849102
 10
-23.2403725498
 20
5.6113121947
 10
-23.2317672135
 20
5.6257163573
 10
-23.2236928167
 20
5.6402681054
 10
-23.2161307105
 20
5.6549967316
 10
-23.2090458184
 20
5.6699548295
 10
-23.2024308952
 20
5.685139015
 10
-23.1962931861
 20
5.7005526722
 10
-23.1906193506
 20
5.7162585473
 10
-23.1854022455
 20
5.7322515179
 10
-23.180649014
 20
5.7485367063
 10
-23.1763677451
 20
5.7651922256
 10
-23.1725501078
 20
5.7822143298
 10
-23.169204433
 20
5.799606765
 10
-23.1663638024
 20
5.8174588819
 10
-23.1640207028
 20
5.835835451
 10
-23.1621826473
 20
5.8546717018
 10
-23.1609052568
 20
5.8738626745
 10
-23.1602095673
 20
5.8936734304
 10
-23.1600745428
 20
5.9138389081
 10
-23.1604926958
 20
5.9334589635
 10
-23.1614865726
 20
5.9522443751
 10
-23.163033627
 20
5.9704843644
 10
-23.1650587334
 20
5.9881464527
  0
LWPOLYLINE
  5
2DC
100
AcDbEntity
  8
ASSI
100
AcDbPolyline
 62
7
  6
CONTINUOUS
 90
100
 70
0
 10
-24.1490130962
 20
5.793800159
 10
-24.1469158907
 20
5.7755500053
 10
-24.1443878303
 20
5.7579126247
 10
-24.141428915
 20
5.7408880171
 10
-24.1380246278
 20
5.72451682
 10
-24.1341894857
 20
5.7087583959
 10
-24.1299670399
 20
5.6934908326
 10
-24.1253653566
 20
5.6787030919
 10
-24.1203763695
 20
5.6644062119
 10
-24.115019431
 20
5.6505113949
 10
-24.1093021737
 20
5.6370162159
 10
-24.103216965
 20
5.6239230999
 10
-24.0967602594
 20
5.6111505234
 10
-24.0899355888
 20
5.5986848791
 10
-24.0827394214
 20
5.5865397743
 10
-24.0751576157
 20
5.5746745082
 10
-24.0672025487
 20
5.563095408
 10
-24.0588618434
 20
5.5517961466
 10
-24.0500842283
 20
5.5407170416
 10
-24.0408433312
 20
5.5298215812
 10
-24.0311655242
 20
5.5191462772
 10
-24.0210786518
 20
5.5087409831
 10
-24.0105225045
 20
5.4985591676
 10
-23.9995572917
 20
5.4886473619
 10
-23.9883914868
 20
5.4791950139
 10
-23.9771153673
 20
5.4702849963
 10
-23.9656386556
 20
5.4618344363
 10
-23.9538989927
 20
5.4537841634
 10
-23.9418926112
 20
5.4461212716
 10
-23.9296232785
 20
5.4388586668
 10
-23.9170399384
 20
5.4319758962
 10
-23.9041507263
 20
5.4254679876
 10
-23.8909475067
 20
5.4193399131
 10
-23.8773548168
 20
5.4135861364
 10
-23.8633764549
 20
5.408198488
 10
-23.8490086228
 20
5.4031851372
 10
-23.8341644631
 20
5.3985650563
 10
-23.8188527102
 20
5.3943305805
 10
-23.8030646298
 20
5.3904893745
 10
-23.7866871612
 20
5.3870834047
 10
-23.7697235737
 20
5.3841025859
 10
-23.7521705981
 20
5.3815570033
 10
-23.7339053657
 20
5.3795188779
 10
-23.7146064401
 20
5.3779905423
 10
-23.6945952578
 20
5.376969664
 10
-23.6747132587
 20
5.376521466
 10
-23.6550659211
 20
5.3766866681
 10
-23.6355477669
 20
5.3774245506
 10
-23.6166838017
 20
5.3786781777
 10
-23.5986927292
 20
5.3804504412
 10
-23.5813558458
 20
5.3827384494
 10
-23.5645420465
 20
5.3854765905
 10
-23.5482419833
 20
5.3886551501
 10
-23.5324650043
 20
5.3922838425
 10
-23.5171080484
 20
5.3963261994
 10
-23.5021631393
 20
5.4007745509
 10
-23.4876382533
 20
5.4056365668
 10
-23.4734542586
 20
5.4108987871
 10
-23.4596081973
 20
5.4165530947
 10
-23.4461030273
 20
5.4226076067
 10
-23.4328684903
 20
5.4290732144
 10
-23.4198971379
 20
5.4359444586
 10
-23.4071964185
 20
5.4432267984
 10
-23.3947184194
 20
5.4509475027
 10
-23.3824617349
 20
5.459098098
 10
-23.3704277706
 20
5.4676870577
 10
-23.3585728313
 20
5.4767670708
 10
-23.3468920299
 20
5.4863309583
 10
-23.3353902535
 20
5.4963858992
 10
-23.3240384675
 20
5.5070061192
 10
-23.3128240406
 20
5.518204396
 10
-23.3017596041
 20
5.5299679519
 10
-23.2908540181
 20
5.5423326798
 10
-23.2799993796
 20
5.5554402138
 10
-23.2693035916
 20
5.5691489197
 10
-23.259099224
 20
5.583069788
 10
-23.2494901767
 20
5.5970849102
 10
-23.2403725498
 20
5.6113121947
 10
-23.2317672135
 20
5.6257163573
 10
-23.2236928167
 20
5.6402681054
 10
-23.2161307105
 20
5.6549967316
 10
-23.2090458184
 20
5.6699548295
 10
-23.2024308952
 20
5.685139015
 10
-23.1962931861
 20
5.7005526722
 10
-23.1906193506
 20
5.7162585473
 10
-23.1854022455
 20
5.7322515179
 10
-23.180649014
 20
5.7485367063
 10
-23.1763677451
 20
5.7651922256
 10
-23.1725501078
 20
5.7822143298
 10
-23.169204433
 20
5.799606765
 10
-23.1663638024
 20
5.8174588819
 10
-23.1640207028
 20
5.835835451
 10
-23.1621826473
 20
5.8546717018
 10
-23.1609052568
 20
5.8738626745
 10
-23.1602095673
 20
5.8936734304
 10
-23.1600745428
 20
5.9138389081
 10
-23.1604926958
 20
5.9334589635
 10
-23.1614865726
 20
5.9522443751
 10
-23.163033627
 20
5.9704843644
 10
-23.1650587334
 20
5.9881464527
  0
LINE
  5
2DD
100
AcDbEntity
  8
ASSI
100
AcDbLine
 62
7
  6
CONTINUOUS
 10
-23.3478090917
 20
12.8766201594
 11
-23.3478090917
 21
14.5266941594
  0
LINE
  5
2DE
100
AcDbEntity
  8
0
100
AcDbLine
 62
7
  6
CONTINUOUS
 10
-23.2363100917
 20
15.5643321594
 11
-23.2363100917
 21
16.3766161594
  0
LINE
  5
2DF
100
AcDbEntity
  8
ASSI
100
AcDbLine
 62
7
  6
CONTINUOUS
 10
-23.2363100917
 20
15.5643321594
 11
-23.2363100917
 21
16.3766161594
  0
LINE
  5
2E0
100
AcDbEntity
  8
0
100
AcDbLine
 62
7
  6
CONTINUOUS
 10
-23.2309630917
 20
6.7014171594
 11
-23.2309630917
 21
6.8766811594
  0
LINE
  5
2E1
100
AcDbEntity
  8
ASSI
100
AcDbLine
 62
7
  6
CONTINUOUS
 10
-23.2309630917
 20
6.7014171594
 11
-23.2309630917
 21
6.8766811594
  0
LINE
  5
2E2
100
AcDbEntity
  8
0
100
AcDbLine
 62
7
  6
CONTINUOUS
 10
-23.1054000917
 20
16.3766161594
 11
-23.1054000917
 21
15.3766161594
  0
LINE
  5
2E3
100
AcDbEntity
  8
ASSI
100
AcDbLine
 62
7
  6
CONTINUOUS
 10
-23.1054000917
 20
16.3766161594
 11
-23.1054000917
 21
15.3766161594
  0
LINE
  5
2E4
100
AcDbEntity
  8
0
100
AcDbLine
 62
7
  6
CONTINUOUS
 10
-22.4856340917
 20
15.3766161594
 11
-22.4856340917
 21
16.3766161594
  0
LINE
  5
2E5
100
AcDbEntity
  8
ASSI
100
AcDbLine
 62
7
  6
CONTINUOUS
 10
-22.4856340917
 20
15.3766161594
 11
-22.4856340917
 21
16.3766161594
  0
LINE
  5
2E6
100
AcDbEntity
  8
0
100
AcDbLine
 62
7
  6
CONTINUOUS
 10
-22.3505030917
 20
16.3766161594
 11
-22.3505030917
 21
15.3766161594
  0
LINE
  5
2E7
100
AcDbEntity
  8
ASSI
100
AcDbLine
 62
7
  6
CONTINUOUS
 10
-22.3505030917
 20
16.3766161594
 11
-22.3505030917
 21
15.3766161594
  0
LINE
  5
2E8
100
AcDbEntity
  8
0
100
AcDbLine
 62
7
  6
CONTINUOUS
 10
-22.2056500917
 20
16.2568421594
 11
-22.2056500917
 21
16.3766161594
  0
LINE
  5
2E9
100
AcDbEntity
  8
ASSI
100
AcDbLine
 62
7
  6
CONTINUOUS
 10
-22.2056500917
 20
16.2568421594
 11
-22.2056500917
 21
16.3766161594
  0
LINE
  5
2EA
100
AcDbEntity
  8
0
100
AcDbLine
 62
7
  6
CONTINUOUS
 10
-22.6063890838
 20
6.2716032215
 11
-22.6267980614
 21
6.1109443978
  0
LINE
  5
2EB
100
AcDbEntity
  8
ASSI
100
AcDbLine
 62
7
  6
CONTINUOUS
 10
-22.6063890838
 20
6.2716032215
 11
-22.6267980614
 21
6.1109443978
  0
LWPOLYLINE
  5
2EC
100
AcDbEntity
  8
0
100
AcDbPolyline
 62
7
  6
CONTINUOUS
 90
86
 70
0
 10
-22.7865434855
 20
6.480251231
 10
-22.7837089461
 20
6.4971733991
 10
-22.7805803169
 20
6.5132739281
 10
-22.7771575977
 20
6.528552818
 10
-22.7734162698
 20
6.5429779713
 10
-22.769380852
 20
6.5565814856
 10
-22.7651249008
 20
6.5694596532
 10
-22.7606515817
 20
6.581612736
 10
-22.7559577292
 20
6.5930404721
 10
-22.7511074035
 20
6.6038383685
 10
-22.7461192421
 20
6.6139906322
 10
-22.7409746076
 20
6.6235130562
 10
-22.7356816476
 20
6.6325485266
 10
-22.730243983
 20
6.6411129861
 10
-22.7246579929
 20
6.6491904921
 10
-22.7189209627
 20
6.6568761023
 10
-22.7130791285
 20
6.6641412119
 10
-22.7070862541
 20
6.6710144258
 10
-22.7008009171
 20
6.677676616
 10
-22.6941401871
 20
6.6842172191
 10
-22.6871869944
 20
6.6905467987
 10
-22.6800487072
 20
6.6965779173
 10
-22.6727411479
 20
6.7022933518
 10
-22.6652484942
 20
6.7077103254
 10
-22.657630647
 20
6.712793071
 10
-22.6499271172
 20
6.7175171415
 10
-22.6420983941
 20
6.721906984
 10
-22.634085846
 20
6.7260001727
 10
-22.6258814868
 20
6.7298096424
 10
-22.6174933027
 20
6.7333224583
 10
-22.6088866209
 20
6.7365373905
 10
-22.6000760207
 20
6.7394569019
 10
-22.5910469227
 20
6.7420785296
 10
-22.5817209157
 20
6.7443936545
 10
-22.5720993939
 20
6.7464122585
 10
-22.5621809629
 20
6.7481243598
 10
-22.5518830292
 20
6.7494913935
 10
-22.5410979633
 20
6.7505155664
 10
-22.5299333946
 20
6.7511946717
 10
-22.5186296175
 20
6.7514835241
 10
-22.507075679
 20
6.7513541306
 10
-22.495382532
 20
6.7508344842
 10
-22.4841233296
 20
6.7499633782
 10
-22.473514867
 20
6.7487370922
 10
-22.4633403489
 20
6.7471593466
 10
-22.4535225426
 20
6.7452800954
 10
-22.4440618229
 20
6.7431079695
 10
-22.4349578151
 20
6.740634338
 10
-22.4261321619
 20
6.7378832624
 10
-22.4175789597
 20
6.7348619321
 10
-22.4093041122
 20
6.7315631577
 10
-22.4012469737
 20
6.7279894318
 10
-22.3934031193
 20
6.724147461
 10
-22.3857769739
 20
6.7200305388
 10
-22.3783211673
 20
6.7156210384
 10
-22.3710325848
 20
6.7109264641
 10
-22.363914341
 20
6.7059393115
 10
-22.3569284095
 20
6.700619441
 10
-22.3500226143
 20
6.6949190544
 10
-22.3432491314
 20
6.6888859497
 10
-22.3367264613
 20
6.682623382
 10
-22.3304567892
 20
6.6761188666
 10
-22.32443793
 20
6.669384888
 10
-22.3187818295
 20
6.662562155
 10
-22.3135419425
 20
6.6557081931
 10
-22.3086648142
 20
6.6487654767
 10
-22.3041020266
 20
6.6417021375
 10
-22.2998461626
 20
6.6345211765
 10
-22.2959046393
 20
6.6272195929
 10
-22.2922512898
 20
6.6197565148
 10
-22.288879244
 20
6.6121352976
 10
-22.2857953719
 20
6.604352586
 10
-22.2829941166
 20
6.596357443
 10
-22.2804685373
 20
6.5881547397
 10
-22.2782255747
 20
6.579739605
 10
-22.2762804935
 20
6.5710464883
 10
-22.2746253968
 20
6.5620830008
 10
-22.2732681814
 20
6.5528415313
 10
-22.2722478028
 20
6.5432336962
 10
-22.2715673752
 20
6.5331436529
 10
-22.2712237844
 20
6.5226872439
 10
-22.2712466422
 20
6.5121236132
 10
-22.2716626319
 20
6.5013490725
 10
-22.2724450702
 20
6.4904673101
 10
-22.2735435199
 20
6.480048535
 10
-22.2749585172
 20
6.470311103
  0
LWPOLYLINE
  5
2ED
100
AcDbEntity
  8
ASSI
100
AcDbPolyline
 62
7
  6
CONTINUOUS
 90
86
 70
0
 10
-22.7865434855
 20
6.480251231
 10
-22.7837089461
 20
6.4971733991
 10
-22.7805803169
 20
6.5132739281
 10
-22.7771575977
 20
6.528552818
 10
-22.7734162698
 20
6.5429779713
 10
-22.769380852
 20
6.5565814856
 10
-22.7651249008
 20
6.5694596532
 10
-22.7606515817
 20
6.581612736
 10
-22.7559577292
 20
6.5930404721
 10
-22.7511074035
 20
6.6038383685
 10
-22.7461192421
 20
6.6139906322
 10
-22.7409746076
 20
6.6235130562
 10
-22.7356816476
 20
6.6325485266
 10
-22.730243983
 20
6.6411129861
 10
-22.7246579929
 20
6.6491904921
 10
-22.7189209627
 20
6.6568761023
 10
-22.7130791285
 20
6.6641412119
 10
-22.7070862541
 20
6.6710144258
 10
-22.7008009171
 20
6.677676616
 10
-22.6941401871
 20
6.6842172191
 10
-22.6871869944
 20
6.6905467987
 10
-22.6800487072
 20
6.6965779173
 10
-22.6727411479
 20
6.7022933518
 10
-22.6652484942
 20
6.7077103254
 10
-22.657630647
 20
6.712793071
 10
-22.6499271172
 20
6.7175171415
 10
-22.6420983941
 20
6.721906984
 10
-22.634085846
 20
6.7260001727
 10
-22.6258814868
 20
6.7298096424
 10
-22.6174933027
 20
6.7333224583
 10
-22.6088866209
 20
6.7365373905
 10
-22.6000760207
 20
6.7394569019
 10
-22.5910469227
 20
6.7420785296
 10
-22.5817209157
 20
6.7443936545
 10
-22.5720993939
 20
6.7464122585
 10
-22.5621809629
 20
6.7481243598
 10
-22.5518830292
 20
6.7494913935
 10
-22.5410979633
 20
6.7505155664
 10
-22.5299333946
 20
6.7511946717
 10
-22.5186296175
 20
6.7514835241
 10
-22.507075679
 20
6.7513541306
 10
-22.495382532
 20
6.7508344842
 10
-22.4841233296
 20
6.7499633782
 10
-22.473514867
 20
6.7487370922
 10
-22.4633403489
 20
6.7471593466
 10
-22.4535225426
 20
6.7452800954
 10
-22.4440618229
 20
6.7431079695
 10
-22.4349578151
 20
6.740634338
 10
-22.4261321619
 20
6.7378832624
 10
-22.4175789597
 20
6.7348619321
 10
-22.4093041122
 20
6.7315631577
 10
-22.4012469737
 20
6.7279894318
 10
-22.3934031193
 20
6.724147461
 10
-22.3857769739
 20
6.7200305388
 10
-22.3783211673
 20
6.7156210384
 10
-22.3710325848
 20
6.7109264641
 10
-22.363914341
 20
6.7059393115
 10
-22.3569284095
 20
6.700619441
 10
-22.3500226143
 20
6.6949190544
 10
-22.3432491314
 20
6.6888859497
 10
-22.3367264613
 20
6.682623382
 10
-22.3304567892
 20
6.6761188666
 10
-22.32443793
 20
6.669384888
 10
-22.3187818295
 20
6.662562155
 10
-22.3135419425
 20
6.6557081931
 10
-22.3086648142
 20
6.6487654767
 10
-22.3041020266
 20
6.6417021375
 10
-22.2998461626
 20
6.6345211765
 10
-22.2959046393
 20
6.6272195929
 10
-22.2922512898
 20
6.6197565148
 10
-22.288879244
 20
6.6121352976
 10
-22.2857953719
 20
6.604352586
 10
-22.2829941166
 20
6.596357443
 10
-22.2804685373
 20
6.5881547397
 10
-22.2782255747
 20
6.579739605
 10
-22.2762804935
 20
6.5710464883
 10
-22.2746253968
 20
6.5620830008
 10
-22.2732681814
 20
6.5528415313
 10
-22.2722478028
 20
6.5432336962
 10
-22.2715673752
 20
6.5331436529
 10
-22.2712237844
 20
6.5226872439
 10
-22.2712466422
 20
6.5121236132
 10
-22.2716626319
 20
6.5013490725
 10
-22.2724450702
 20
6.4904673101
 10
-22.2735435199
 20
6.480048535
 10
-22.2749585172
 20
6.470311103
  0
LINE
  5
2EE
100
AcDbEntity
  8
0
100
AcDbLine
 62
7
  6
CONTINUOUS
 10
-23.9716620917
 20
6.8766811594
 11
-24.1156290917
 21
6.1088581594
  0
LINE
  5
2EF
100
AcDbEntity
  8
ASSI
100
AcDbLine
 62
7
  6
CONTINUOUS
 10
-23.9716620917
 20
6.8766811594
 11
-24.1156290917
 21
6.1088581594
  0
LINE
  5
2F0
100
AcDbEntity
  8
0
100
AcDbLine
 62
7
  6
CONTINUOUS
 10
-23.9050262723
 20
6.298466246
 11
-23.8253480917
 21
6.7014171594
  0
LINE
  5
2F1
100
AcDbEntity
  8
ASSI
100
AcDbLine
 62
7
  6
CONTINUOUS
 10
-23.9050262723
 20
6.298466246
 11
-23.8253480917
 21
6.7014171594
  0
LINE
  5
2F2
100
AcDbEntity
  8
0
100
AcDbLine
 62
7
  6
CONTINUOUS
 10
-21.1109230917
 20
15.6676791594
 11
-21.2154040917
 21
15.3766161594
  0
LINE
  5
2F3
100
AcDbEntity
  8
ASSI
100
AcDbLine
 62
7
  6
CONTINUOUS
 10
-21.1109230917
 20
15.6676791594
 11
-21.2154040917
 21
15.3766161594
  0
LINE
  5
2F4
100
AcDbEntity
  8
0
100
AcDbLine
 62
7
  6
CONTINUOUS
 10
-20.9075350917
 20
16.2315671594
 11
-21.0691360917
 21
15.7874531594
  0
LINE
  5
2F5
100
AcDbEntity
  8
ASSI
100
AcDbLine
 62
7
  6
CONTINUOUS
 10
-20.9075350917
 20
16.2315671594
 11
-21.0691360917
 21
15.7874531594
  0
LINE
  5
2F6
100
AcDbEntity
  8
0
100
AcDbLine
 62
7
  6
CONTINUOUS
 10
-21.3546600917
 20
15.3766161594
 11
-20.9785820917
 21
16.3766161594
  0
LINE
  5
2F7
100
AcDbEntity
  8
ASSI
100
AcDbLine
 62
7
  6
CONTINUOUS
 10
-21.3546600917
 20
15.3766161594
 11
-20.9785820917
 21
16.3766161594
  0
LINE
  5
2F8
100
AcDbEntity
  8
0
100
AcDbLine
 62
7
  6
CONTINUOUS
 10
-19.2069360917
 20
15.8960661594
 11
-18.9200780917
 21
16.3766161594
  0
LINE
  5
2F9
100
AcDbEntity
  8
ASSI
100
AcDbLine
 62
7
  6
CONTINUOUS
 10
-19.2069360917
 20
15.8960661594
 11
-18.9200780917
 21
16.3766161594
  0
LINE
  5
2FA
100
AcDbEntity
  8
0
100
AcDbLine
 62
7
  6
CONTINUOUS
 10
-18.7612430917
 20
16.3766161594
 11
-19.1387600917
 21
15.7791231594
  0
LINE
  5
2FB
100
AcDbEntity
  8
ASSI
100
AcDbLine
 62
7
  6
CONTINUOUS
 10
-18.7612430917
 20
16.3766161594
 11
-19.1387600917
 21
15.7791231594
  0
LINE
  5
2FC
100
AcDbEntity
  8
0
100
AcDbLine
 62
7
  6
CONTINUOUS
 10
-25.1913060917
 20
5.9273341594
 11
-24.7227940917
 21
6.5994081594
  0
LINE
  5
2FD
100
AcDbEntity
  8
ASSI
100
AcDbLine
 62
7
  6
CONTINUOUS
 10
-25.1913060917
 20
5.9273341594
 11
-24.7227940917
 21
6.5994081594
  0
LINE
  5
2FE
100
AcDbEntity
  8
0
100
AcDbLine
 62
7
  6
CONTINUOUS
 10
-24.6894110917
 20
6.8954601594
 11
-25.3716890917
 21
5.9273341594
  0
LINE
  5
2FF
100
AcDbEntity
  8
ASSI
100
AcDbLine
 62
7
  6
CONTINUOUS
 10
-24.6894110917
 20
6.8954601594
 11
-25.3716890917
 21
5.9273341594
  0
LINE
  5
300
100
AcDbEntity
  8
ASSI
100
AcDbLine
 62
7
  6
CONTINUOUS
 10
-24.6318430917
 20
13.9647331594
 11
-24.3198370917
 21
12.8766201594
  0
LINE
  5
301
100
AcDbEntity
  8
ASSI
100
AcDbLine
 62
7
  6
CONTINUOUS
 10
-24.1548330917
 20
13.4521071594
 11
-24.4629660917
 21
14.5266941594
  0
LWPOLYLINE
  5
302
100
AcDbEntity
  8
0
100
AcDbPolyline
 62
7
  6
CONTINUOUS
 90
36
 70
0
 10
-22.0137375585
 20
5.9044838591
 10
-22.0157501823
 20
5.919409742
 10
-22.0181550276
 20
5.933794441
 10
-22.0209419786
 20
5.947629094
 10
-22.024121151
 20
5.9609225631
 10
-22.0276502432
 20
5.9737833177
 10
-22.0315205117
 20
5.9862181885
 10
-22.0357407
 20
5.9982203448
 10
-22.0402947366
 20
6.0098777632
 10
-22.0451766565
 20
6.0211990854
 10
-22.0503924246
 20
6.0321756696
 10
-22.0559438642
 20
6.0428695671
 10
-22.0618295034
 20
6.0532910839
 10
-22.0680508142
 20
6.0634299138
 10
-22.0746140355
 20
6.0733171893
 10
-22.0815465247
 20
6.0829915975
 10
-22.0888209245
 20
6.0924144511
 10
-22.0963614029
 20
6.1015008213
 10
-22.1041412342
 20
6.1102173827
 10
-22.1121871442
 20
6.1185974606
 10
-22.1205034778
 20
6.1266561022
 10
-22.1290744045
 20
6.1343860451
 10
-22.1379157549
 20
6.1417945517
 10
-22.1470793659
 20
6.1489184559
 10
-22.1565642966
 20
6.1557677672
 10
-22.166371488
 20
6.162332476
 10
-22.1765555992
 20
6.1686193883
 10
-22.1870948232
 20
6.1746272846
 10
-22.1980109669
 20
6.1803573843
 10
-22.2094241114
 20
6.185820151
 10
-22.2213508758
 20
6.1910329988
 10
-22.2337746408
 20
6.1959785135
 10
-22.2467656293
 20
6.2006149169
 10
-22.2603472489
 20
6.2049282827
 10
-22.274496092
 20
6.2089325372
 10
-22.2892121585
 20
6.2126276802
  0
LWPOLYLINE
  5
303
100
AcDbEntity
  8
ASSI
100
AcDbPolyline
 62
7
  6
CONTINUOUS
 90
36
 70
0
 10
-22.0137375585
 20
5.9044838591
 10
-22.0157501823
 20
5.919409742
 10
-22.0181550276
 20
5.933794441
 10
-22.0209419786
 20
5.947629094
 10
-22.024121151
 20
5.9609225631
 10
-22.0276502432
 20
5.9737833177
 10
-22.0315205117
 20
5.9862181885
 10
-22.0357407
 20
5.9982203448
 10
-22.0402947366
 20
6.0098777632
 10
-22.0451766565
 20
6.0211990854
 10
-22.0503924246
 20
6.0321756696
 10
-22.0559438642
 20
6.0428695671
 10
-22.0618295034
 20
6.0532910839
 10
-22.0680508142
 20
6.0634299138
 10
-22.0746140355
 20
6.0733171893
 10
-22.0815465247
 20
6.0829915975
 10
-22.0888209245
 20
6.0924144511
 10
-22.0963614029
 20
6.1015008213
 10
-22.1041412342
 20
6.1102173827
 10
-22.1121871442
 20
6.1185974606
 10
-22.1205034778
 20
6.1266561022
 10
-22.1290744045
 20
6.1343860451
 10
-22.1379157549
 20
6.1417945517
 10
-22.1470793659
 20
6.1489184559
 10
-22.1565642966
 20
6.1557677672
 10
-22.166371488
 20
6.162332476
 10
-22.1765555992
 20
6.1686193883
 10
-22.1870948232
 20
6.1746272846
 10
-22.1980109669
 20
6.1803573843
 10
-22.2094241114
 20
6.185820151
 10
-22.2213508758
 20
6.1910329988
 10
-22.2337746408
 20
6.1959785135
 10
-22.2467656293
 20
6.2006149169
 10
-22.2603472489
 20
6.2049282827
 10
-22.274496092
 20
6.2089325372
 10
-22.2892121585
 20
6.2126276802
  0
LWPOLYLINE
  5
304
100
AcDbEntity
  8
0
100
AcDbPolyline
 62
7
  6
CONTINUOUS
 90
98
 70
0
 10
-22.9889318543
 20
5.7979731917
 10
-22.9868474832
 20
5.7800135636
 10
-22.9843223251
 20
5.7626089983
 10
-22.9813563799
 20
5.7457594959
 10
-22.977936434
 20
5.7294997076
 10
-22.9740757011
 20
5.7137949821
 10
-22.9698138222
 20
5.6985413662
 10
-22.965160501
 20
5.683735365
 10
-22.9601060338
 20
5.6693804734
 10
-22.9546609509
 20
5.6553832221
 10
-22.9488304503
 20
5.6417325442
 10
-22.942609334
 20
5.6284395065
 10
-22.9359925381
 20
5.6154438404
 10
-22.928986883
 20
5.6027432873
 10
-22.9215855483
 20
5.5903401057
 10
-22.9137630089
 20
5.5781808028
 10
-22.905529437
 20
5.5662635372
 10
-22.8968746604
 20
5.5545901502
 10
-22.8877426371
 20
5.5431126739
 10
-22.8780945426
 20
5.5317862334
 10
-22.8679692013
 20
5.5206557035
 10
-22.8574270448
 20
5.5098077406
 10
-22.8464053471
 20
5.4991974778
 10
-22.834966834
 20
5.488869782
 10
-22.8233601152
 20
5.4790459096
 10
-22.8116813393
 20
5.4698179784
 10
-22.7998343577
 20
5.4610938706
 10
-22.787779334
 20
5.45281849
 10
-22.7755201562
 20
5.4449848152
 10
-22.7630529364
 20
5.4375998676
 10
-22.7503261744
 20
5.4306296145
 10
-22.7373432673
 20
5.4240666646
 10
-22.7241008179
 20
5.4179184091
 10
-22.7105371348
 20
5.4121729897
 10
-22.6966583241
 20
5.4068236163
 10
-22.6824582797
 20
5.4018770789
 10
-22.6678569917
 20
5.3973418891
 10
-22.6528600267
 20
5.3932098447
 10
-22.6374618181
 20
5.3894891479
 10
-22.6215656564
 20
5.3862129171
 10
-22.6051791202
 20
5.3833718497
 10
-22.5882946309
 20
5.3809752483
 10
-22.5707927433
 20
5.3790841385
 10
-22.5525160513
 20
5.3776977827
 10
-22.5336219609
 20
5.3768169186
 10
-22.5144632451
 20
5.3765047843
 10
-22.4948768437
 20
5.3767967021
 10
-22.4750258168
 20
5.3776573499
 10
-22.4557521176
 20
5.3790439988
 10
-22.4373602397
 20
5.3809628565
 10
-22.4195456895
 20
5.3834077155
 10
-22.4022369403
 20
5.3863172244
 10
-22.3854427268
 20
5.3896820547
 10
-22.3691543142
 20
5.393511535
 10
-22.3532739713
 20
5.3977722996
 10
-22.3377957329
 20
5.402456291
 10
-22.3227255641
 20
5.4075715667
 10
-22.3079836287
 20
5.4131089333
 10
-22.2935648007
 20
5.419061192
 10
-22.2794742061
 20
5.4254355416
 10
-22.2656473859
 20
5.4322443844
 10
-22.2520803
 20
5.4394805711
 10
-22.2387769885
 20
5.4471512509
 10
-22.2256851129
 20
5.4552902744
 10
-22.2128026013
 20
5.4638885136
 10
-22.2001315257
 20
5.4729550963
 10
-22.1876257628
 20
5.4825512565
 10
-22.1752285179
 20
5.4927278867
 10
-22.1629965858
 20
5.5034340944
 10
-22.151054228
 20
5.5145784354
 10
-22.1393290409
 20
5.5262569134
 10
-22.1278934282
 20
5.5383735247
 10
-22.1170888623
 20
5.5505488144
 10
-22.1070569659
 20
5.56264729
 10
-22.0976561164
 20
5.5748044441
 10
-22.0888029173
 20
5.5870472984
 10
-22.0804903781
 20
5.5993709894
 10
-22.0727254894
 20
5.6117803808
 10
-22.0654458266
 20
5.6243170854
 10
-22.0586434598
 20
5.6369777451
 10
-22.0523263189
 20
5.649765718
 10
-22.046455769
 20
5.6627326907
 10
-22.0410238924
 20
5.675875747
 10
-22.0360386067
 20
5.6891978031
 10
-22.0314850295
 20
5.7027592944
 10
-22.0273553384
 20
5.7165573519
 10
-22.0236573558
 20
5.7305948444
 10
-22.0203996669
 20
5.7449408147
 10
-22.0175743354
 20
5.7595873504
 10
-22.0151892976
 20
5.7745423637
 10
-22.0132769473
 20
5.7898986343
 10
-22.0118334254
 20
5.8057505448
 10
-22.010862591
 20
5.8220037127
 10
-22.0104084146
 20
5.8384677698
 10
-22.0105028159
 20
5.8553572458
 10
-22.0111138752
 20
5.872457611
 10
-22.0121898049
 20
5.8889349088
 10
-22.0137375585
 20
5.9044838591
  0
LWPOLYLINE
  5
305
100
AcDbEntity
  8
ASSI
100
AcDbPolyline
 62
7
  6
CONTINUOUS
 90
98
 70
0
 10
-22.9889318543
 20
5.7979731917
 10
-22.9868474832
 20
5.7800135636
 10
-22.9843223251
 20
5.7626089983
 10
-22.9813563799
 20
5.7457594959
 10
-22.977936434
 20
5.7294997076
 10
-22.9740757011
 20
5.7137949821
 10
-22.9698138222
 20
5.6985413662
 10
-22.965160501
 20
5.683735365
 10
-22.9601060338
 20
5.6693804734
 10
-22.9546609509
 20
5.6553832221
 10
-22.9488304503
 20
5.6417325442
 10
-22.942609334
 20
5.6284395065
 10
-22.9359925381
 20
5.6154438404
 10
-22.928986883
 20
5.6027432873
 10
-22.9215855483
 20
5.5903401057
 10
-22.9137630089
 20
5.5781808028
 10
-22.905529437
 20
5.5662635372
 10
-22.8968746604
 20
5.5545901502
 10
-22.8877426371
 20
5.5431126739
 10
-22.8780945426
 20
5.5317862334
 10
-22.8679692013
 20
5.5206557035
 10
-22.8574270448
 20
5.5098077406
 10
-22.8464053471
 20
5.4991974778
 10
-22.834966834
 20
5.488869782
 10
-22.8233601152
 20
5.4790459096
 10
-22.8116813393
 20
5.4698179784
 10
-22.7998343577
 20
5.4610938706
 10
-22.787779334
 20
5.45281849
 10
-22.7755201562
 20
5.4449848152
 10
-22.7630529364
 20
5.4375998676
 10
-22.7503261744
 20
5.4306296145
 10
-22.7373432673
 20
5.4240666646
 10
-22.7241008179
 20
5.4179184091
 10
-22.7105371348
 20
5.4121729897
 10
-22.6966583241
 20
5.4068236163
 10
-22.6824582797
 20
5.4018770789
 10
-22.6678569917
 20
5.3973418891
 10
-22.6528600267
 20
5.3932098447
 10
-22.6374618181
 20
5.3894891479
 10
-22.6215656564
 20
5.3862129171
 10
-22.6051791202
 20
5.3833718497
 10
-22.5882946309
 20
5.3809752483
 10
-22.5707927433
 20
5.3790841385
 10
-22.5525160513
 20
5.3776977827
 10
-22.5336219609
 20
5.3768169186
 10
-22.5144632451
 20
5.3765047843
 10
-22.4948768437
 20
5.3767967021
 10
-22.4750258168
 20
5.3776573499
 10
-22.4557521176
 20
5.3790439988
 10
-22.4373602397
 20
5.3809628565
 10
-22.4195456895
 20
5.3834077155
 10
-22.4022369403
 20
5.3863172244
 10
-22.3854427268
 20
5.3896820547
 10
-22.3691543142
 20
5.393511535
 10
-22.3532739713
 20
5.3977722996
 10
-22.3377957329
 20
5.402456291
 10
-22.3227255641
 20
5.4075715667
 10
-22.3079836287
 20
5.4131089333
 10
-22.2935648007
 20
5.419061192
 10
-22.2794742061
 20
5.4254355416
 10
-22.2656473859
 20
5.4322443844
 10
-22.2520803
 20
5.4394805711
 10
-22.2387769885
 20
5.4471512509
 10
-22.2256851129
 20
5.4552902744
 10
-22.2128026013
 20
5.4638885136
 10
-22.2001315257
 20
5.4729550963
 10
-22.1876257628
 20
5.4825512565
 10
-22.1752285179
 20
5.4927278867
 10
-22.1629965858
 20
5.5034340944
 10
-22.151054228
 20
5.5145784354
 10
-22.1393290409
 20
5.5262569134
 10
-22.1278934282
 20
5.5383735247
 10
-22.1170888623
 20
5.5505488144
 10
-22.1070569659
 20
5.56264729
 10
-22.0976561164
 20
5.5748044441
 10
-22.0888029173
 20
5.5870472984
 10
-22.0804903781
 20
5.5993709894
 10
-22.0727254894
 20
5.6117803808
 10
-22.0654458266
 20
5.6243170854
 10
-22.0586434598
 20
5.6369777451
 10
-22.0523263189
 20
5.649765718
 10
-22.046455769
 20
5.6627326907
 10
-22.0410238924
 20
5.675875747
 10
-22.0360386067
 20
5.6891978031
 10
-22.0314850295
 20
5.7027592944
 10
-22.0273553384
 20
5.7165573519
 10
-22.0236573558
 20
5.7305948444
 10
-22.0203996669
 20
5.7449408147
 10
-22.0175743354
 20
5.7595873504
 10
-22.0151892976
 20
5.7745423637
 10
-22.0132769473
 20
5.7898986343
 10
-22.0118334254
 20
5.8057505448
 10
-22.010862591
 20
5.8220037127
 10
-22.0104084146
 20
5.8384677698
 10
-22.0105028159
 20
5.8553572458
 10
-22.0111138752
 20
5.872457611
 10
-22.0121898049
 20
5.8889349088
 10
-22.0137375585
 20
5.9044838591
  0
LINE
  5
306
100
AcDbEntity
  8
0
100
AcDbLine
 62
7
  6
CONTINUOUS
 10
-21.8671950917
 20
15.3766161594
 11
-21.8671950917
 21
16.2568421594
  0
LINE
  5
307
100
AcDbEntity
  8
ASSI
100
AcDbLine
 62
7
  6
CONTINUOUS
 10
-21.8671950917
 20
15.3766161594
 11
-21.8671950917
 21
16.2568421594
  0
LINE
  5
308
100
AcDbEntity
  8
0
100
AcDbLine
 62
7
  6
CONTINUOUS
 10
-21.7321120917
 20
16.2568421594
 11
-21.7321120917
 21
15.3766161594
  0
LINE
  5
309
100
AcDbEntity
  8
ASSI
100
AcDbLine
 62
7
  6
CONTINUOUS
 10
-21.7321120917
 20
16.2568421594
 11
-21.7321120917
 21
15.3766161594
  0
LINE
  5
30A
100
AcDbEntity
  8
0
100
AcDbLine
 62
7
  6
CONTINUOUS
 10
-21.6911430917
 20
6.5266750583
 11
-21.6911430917
 21
6.3493571101
  0
LINE
  5
30B
100
AcDbEntity
  8
ASSI
100
AcDbLine
 62
7
  6
CONTINUOUS
 10
-21.6911430917
 20
6.5266750583
 11
-21.6911430917
 21
6.3493571101
  0
LINE
  5
30C
100
AcDbEntity
  8
ASSI
100
AcDbLine
 62
7
  6
CONTINUOUS
 10
-21.5182030917
 20
14.5266991594
 11
-21.5182030917
 21
12.8766241594
  0
LINE
  5
30D
100
AcDbEntity
  8
0
100
AcDbLine
 62
7
  6
CONTINUOUS
 10
-21.3936570917
 20
16.3766161594
 11
-21.3936570917
 21
16.2568421594
  0
LINE
  5
30E
100
AcDbEntity
  8
ASSI
100
AcDbLine
 62
7
  6
CONTINUOUS
 10
-21.3936570917
 20
16.3766161594
 11
-21.3936570917
 21
16.2568421594
  0
LINE
  5
30F
100
AcDbEntity
  8
0
100
AcDbLine
 62
7
  6
CONTINUOUS
 10
-21.3239230917
 20
6.570491102
 11
-21.3239230917
 21
5.4015421594
  0
LINE
  5
310
100
AcDbEntity
  8
ASSI
100
AcDbLine
 62
7
  6
CONTINUOUS
 10
-21.3239230917
 20
6.570491102
 11
-21.3239230917
 21
5.4015421594
  0
LINE
  5
311
100
AcDbEntity
  8
ASSI
100
AcDbLine
 62
7
  6
CONTINUOUS
 10
-21.1927360917
 20
13.8199001594
 11
-21.1927400917
 21
14.2214361594
  0
LINE
  5
312
100
AcDbEntity
  8
0
100
AcDbLine
 62
7
  6
CONTINUOUS
 10
-21.1403130917
 20
5.4015421594
 11
-21.1403130917
 21
6.9017191594
  0
LINE
  5
313
100
AcDbEntity
  8
ASSI
100
AcDbLine
 62
7
  6
CONTINUOUS
 10
-21.1403130917
 20
5.4015421594
 11
-21.1403130917
 21
6.9017191594
  0
LINE
  5
314
100
AcDbEntity
  8
0
100
AcDbLine
 62
7
  6
CONTINUOUS
 10
-20.3393260917
 20
15.3766161594
 11
-20.3393260917
 21
16.3766161594
  0
LINE
  5
315
100
AcDbEntity
  8
ASSI
100
AcDbLine
 62
7
  6
CONTINUOUS
 10
-20.3393260917
 20
15.3766161594
 11
-20.3393260917
 21
16.3766161594
  0
LINE
  5
316
100
AcDbEntity
  8
ASSI
100
AcDbLine
 62
7
  6
CONTINUOUS
 10
-21.1881860917
 20
12.8766241594
 11
-21.1881490917
 21
13.5146381594
  0
LWPOLYLINE
  5
317
100
AcDbEntity
  8
0
100
AcDbPolyline
 62
7
  6
CONTINUOUS
 90
45
 70
0
 10
-22.2749585172
 20
6.470311103
 10
-22.2766895258
 20
6.4610366583
 10
-22.2786844992
 20
6.4521403428
 10
-22.2809340757
 20
6.4436225654
 10
-22.2834476169
 20
6.4354829173
 10
-22.2862011613
 20
6.4276353142
 10
-22.2891878882
 20
6.4200716996
 10
-22.2924146183
 20
6.4128001299
 10
-22.2958778522
 20
6.405758691
 10
-22.2995714012
 20
6.3989421313
 10
-22.303501454
 20
6.3923557023
 10
-22.3076830773
 20
6.3859532444
 10
-22.3121100109
 20
6.3797304638
 10
-22.3167885151
 20
6.3736916543
 10
-22.3217524371
 20
6.3678035366
 10
-22.326994799
 20
6.3620620191
 10
-22.3325225787
 20
6.3564711934
 10
-22.3383905582
 20
6.3510100556
 10
-22.3445865577
 20
6.3456883566
 10
-22.3511227569
 20
6.3404963455
 10
-22.3580904767
 20
6.3353837651
 10
-22.3654959941
 20
6.3303551222
 10
-22.373333032
 20
6.32540591
 10
-22.3816740796
 20
6.3204723517
 10
-22.3905111707
 20
6.315504426
 10
-22.3998522716
 20
6.3105521541
 10
-22.4097937706
 20
6.3057018233
 10
-22.4204575873
 20
6.3009081979
 10
-22.4317218021
 20
6.2962165136
 10
-22.4433170448
 20
6.2918487639
 10
-22.4552475769
 20
6.2878462319
 10
-22.4675091369
 20
6.2841676346
 10
-22.479819571
 20
6.2809111169
 10
-22.4922496477
 20
6.2781102235
 10
-22.5047285985
 20
6.2757314098
 10
-22.5167619636
 20
6.2737721864
 10
-22.5281779782
 20
6.2722771104
 10
-22.5391484072
 20
6.2712016246
 10
-22.5496940856
 20
6.270409569
 10
-22.5597368097
 20
6.2698456947
 10
-22.5693547832
 20
6.2695652505
 10
-22.5788034528
 20
6.2695978224
 10
-22.5881679671
 20
6.2699532726
 10
-22.5973631775
 20
6.2706217389
 10
-22.6063890838
 20
6.2716032215
  0
LWPOLYLINE
  5
318
100
AcDbEntity
  8
ASSI
100
AcDbPolyline
 62
7
  6
CONTINUOUS
 90
45
 70
0
 10
-22.2749585172
 20
6.470311103
 10
-22.2766895258
 20
6.4610366583
 10
-22.2786844992
 20
6.4521403428
 10
-22.2809340757
 20
6.4436225654
 10
-22.2834476169
 20
6.4354829173
 10
-22.2862011613
 20
6.4276353142
 10
-22.2891878882
 20
6.4200716996
 10
-22.2924146183
 20
6.4128001299
 10
-22.2958778522
 20
6.405758691
 10
-22.2995714012
 20
6.3989421313
 10
-22.303501454
 20
6.3923557023
 10
-22.3076830773
 20
6.3859532444
 10
-22.3121100109
 20
6.3797304638
 10
-22.3167885151
 20
6.3736916543
 10
-22.3217524371
 20
6.3678035366
 10
-22.326994799
 20
6.3620620191
 10
-22.3325225787
 20
6.3564711934
 10
-22.3383905582
 20
6.3510100556
 10
-22.3445865577
 20
6.3456883566
 10
-22.3511227569
 20
6.3404963455
 10
-22.3580904767
 20
6.3353837651
 10
-22.3654959941
 20
6.3303551222
 10
-22.373333032
 20
6.32540591
 10
-22.3816740796
 20
6.3204723517
 10
-22.3905111707
 20
6.315504426
 10
-22.3998522716
 20
6.3105521541
 10
-22.4097937706
 20
6.3057018233
 10
-22.4204575873
 20
6.3009081979
 10
-22.4317218021
 20
6.2962165136
 10
-22.4433170448
 20
6.2918487639
 10
-22.4552475769
 20
6.2878462319
 10
-22.4675091369
 20
6.2841676346
 10
-22.479819571
 20
6.2809111169
 10
-22.4922496477
 20
6.2781102235
 10
-22.5047285985
 20
6.2757314098
 10
-22.5167619636
 20
6.2737721864
 10
-22.5281779782
 20
6.2722771104
 10
-22.5391484072
 20
6.2712016246
 10
-22.5496940856
 20
6.270409569
 10
-22.5597368097
 20
6.2698456947
 10
-22.5693547832
 20
6.2695652505
 10
-22.5788034528
 20
6.2695978224
 10
-22.5881679671
 20
6.2699532726
 10
-22.5973631775
 20
6.2706217389
 10
-22.6063890838
 20
6.2716032215
  0
LWPOLYLINE
  5
319
100
AcDbEntity
  8
0
100
AcDbPolyline
 62
7
  6
CONTINUOUS
 90
90
 70
0
 10
-23.9424519532
 20
6.0838201394
 10
-23.9364241361
 20
6.0930674325
 10
-23.9300871987
 20
6.1020584591
 10
-23.9234411411
 20
6.1107932191
 10
-23.9164991724
 20
6.1192601784
 10
-23.9092480835
 20
6.1274708711
 10
-23.9016482465
 20
6.1354598997
 10
-23.8937057027
 20
6.1432322571
 10
-23.8854144108
 20
6.1507829504
 10
-23.8767166191
 20
6.1581316029
 10
-23.8674810265
 20
6.1653577298
 10
-23.8578389341
 20
6.1723818159
 10
-23.8481264927
 20
6.1789849387
 10
-23.8384418436
 20
6.1850986214
 10
-23.8286868457
 20
6.1907913407
 10
-23.8189032264
 20
6.1960496046
 10
-23.8091631127
 20
6.2008402008
 10
-23.7993943777
 20
6.2051963417
 10
-23.7894223678
 20
6.2092041716
 10
-23.7792084165
 20
6.2128936026
 10
-23.7687911904
 20
6.2162347227
 10
-23.7581120359
 20
6.2192239405
 10
-23.7471769343
 20
6.2218684364
 10
-23.7359799045
 20
6.22416103
 10
-23.7244443491
 20
6.2260765879
 10
-23.7125734736
 20
6.2276217747
 10
-23.7003640725
 20
6.2287899258
 10
-23.6877299329
 20
6.2295359139
 10
-23.6744461687
 20
6.2298463939
 10
-23.6607376659
 20
6.2297347109
 10
-23.6471928691
 20
6.2291957733
 10
-23.6339033134
 20
6.22820738
 10
-23.6207774638
 20
6.2267917322
 10
-23.6081291588
 20
6.2250103414
 10
-23.5960963516
 20
6.222869908
 10
-23.5845410891
 20
6.2203637317
 10
-23.5733633511
 20
6.2175332229
 10
-23.5625569234
 20
6.2143871256
 10
-23.5521280204
 20
6.2109166958
 10
-23.5419952641
 20
6.2071371119
 10
-23.5321508366
 20
6.2030546382
 10
-23.522602556
 20
6.1986630103
 10
-23.5132924984
 20
6.193958614
 10
-23.5042179325
 20
6.1889491466
 10
-23.4953815896
 20
6.1836269108
 10
-23.4867337396
 20
6.1779651996
 10
-23.4782630628
 20
6.171963995
 10
-23.4699808789
 20
6.1656233152
 10
-23.4618714162
 20
6.1589165076
 10
-23.4538778134
 20
6.1517862274
 10
-23.4460569317
 20
6.1442898196
 10
-23.438563583
 20
6.136572666
 10
-23.4314556538
 20
6.128690216
 10
-23.4246752576
 20
6.1205870202
 10
-23.4182035459
 20
6.1122421123
 10
-23.4120409716
 20
6.1036649283
 10
-23.406187082
 20
6.0948460321
 10
-23.4006216699
 20
6.0857361495
 10
-23.3953394024
 20
6.0763426556
 10
-23.3903456124
 20
6.0666581753
 10
-23.3856360921
 20
6.0566113089
 10
-23.3812032243
 20
6.0462079409
 10
-23.3770546261
 20
6.0354421868
 10
-23.3732089401
 20
6.0242249941
 10
-23.3696581472
 20
6.0125656562
 10
-23.3664102666
 20
6.0004548795
 10
-23.3635079989
 20
5.9877757307
 10
-23.3609408698
 20
5.974538689
 10
-23.3587193537
 20
5.9607332752
 10
-23.3569175743
 20
5.9462111177
 10
-23.3555312382
 20
5.9308191398
 10
-23.3545646389
 20
5.9147104183
 10
-23.3541047802
 20
5.8981958121
 10
-23.3541947109
 20
5.8810204845
 10
-23.3547913823
 20
5.8634392722
 10
-23.3558526515
 20
5.8465275434
 10
-23.3573911121
 20
5.8306689147
 10
-23.3593941706
 20
5.8154797695
 10
-23.3617819037
 20
5.8008846268
 10
-23.3645437542
 20
5.7868982545
 10
-23.3676902793
 20
5.7735058847
 10
-23.3711732274
 20
5.7605877325
 10
-23.3749840094
 20
5.7481349887
 10
-23.3791312145
 20
5.7361564626
 10
-23.3835923591
 20
5.7245587969
 10
-23.3883605563
 20
5.7133348146
 10
-23.3934426931
 20
5.7024916928
 10
-23.3988369466
 20
5.6919576055
 10
-23.4045358414
 20
5.6817281038
 10
-23.4105468531
 20
5.6718076367
  0
LWPOLYLINE
  5
31A
100
AcDbEntity
  8
ASSI
100
AcDbPolyline
 62
7
  6
CONTINUOUS
 90
90
 70
0
 10
-23.9424519532
 20
6.0838201394
 10
-23.9364241361
 20
6.0930674325
 10
-23.9300871987
 20
6.1020584591
 10
-23.9234411411
 20
6.1107932191
 10
-23.9164991724
 20
6.1192601784
 10
-23.9092480835
 20
6.1274708711
 10
-23.9016482465
 20
6.1354598997
 10
-23.8937057027
 20
6.1432322571
 10
-23.8854144108
 20
6.1507829504
 10
-23.8767166191
 20
6.1581316029
 10
-23.8674810265
 20
6.1653577298
 10
-23.8578389341
 20
6.1723818159
 10
-23.8481264927
 20
6.1789849387
 10
-23.8384418436
 20
6.1850986214
 10
-23.8286868457
 20
6.1907913407
 10
-23.8189032264
 20
6.1960496046
 10
-23.8091631127
 20
6.2008402008
 10
-23.7993943777
 20
6.2051963417
 10
-23.7894223678
 20
6.2092041716
 10
-23.7792084165
 20
6.2128936026
 10
-23.7687911904
 20
6.2162347227
 10
-23.7581120359
 20
6.2192239405
 10
-23.7471769343
 20
6.2218684364
 10
-23.7359799045
 20
6.22416103
 10
-23.7244443491
 20
6.2260765879
 10
-23.7125734736
 20
6.2276217747
 10
-23.7003640725
 20
6.2287899258
 10
-23.6877299329
 20
6.2295359139
 10
-23.6744461687
 20
6.2298463939
 10
-23.6607376659
 20
6.2297347109
 10
-23.6471928691
 20
6.2291957733
 10
-23.6339033134
 20
6.22820738
 10
-23.6207774638
 20
6.2267917322
 10
-23.6081291588
 20
6.2250103414
 10
-23.5960963516
 20
6.222869908
 10
-23.5845410891
 20
6.2203637317
 10
-23.5733633511
 20
6.2175332229
 10
-23.5625569234
 20
6.2143871256
 10
-23.5521280204
 20
6.2109166958
 10
-23.5419952641
 20
6.2071371119
 10
-23.5321508366
 20
6.2030546382
 10
-23.522602556
 20
6.1986630103
 10
-23.5132924984
 20
6.193958614
 10
-23.5042179325
 20
6.1889491466
 10
-23.4953815896
 20
6.1836269108
 10
-23.4867337396
 20
6.1779651996
 10
-23.4782630628
 20
6.171963995
 10
-23.4699808789
 20
6.1656233152
 10
-23.4618714162
 20
6.1589165076
 10
-23.4538778134
 20
6.1517862274
 10
-23.4460569317
 20
6.1442898196
 10
-23.438563583
 20
6.136572666
 10
-23.4314556538
 20
6.128690216
 10
-23.4246752576
 20
6.1205870202
 10
-23.4182035459
 20
6.1122421123
 10
-23.4120409716
 20
6.1036649283
 10
-23.406187082
 20
6.0948460321
 10
-23.4006216699
 20
6.0857361495
 10
-23.3953394024
 20
6.0763426556
 10
-23.3903456124
 20
6.0666581753
 10
-23.3856360921
 20
6.0566113089
 10
-23.3812032243
 20
6.0462079409
 10
-23.3770546261
 20
6.0354421868
 10
-23.3732089401
 20
6.0242249941
 10
-23.3696581472
 20
6.0125656562
 10
-23.3664102666
 20
6.0004548795
 10
-23.3635079989
 20
5.9877757307
 10
-23.3609408698
 20
5.974538689
 10
-23.3587193537
 20
5.9607332752
 10
-23.3569175743
 20
5.9462111177
 10
-23.3555312382
 20
5.9308191398
 10
-23.3545646389
 20
5.9147104183
 10
-23.3541047802
 20
5.8981958121
 10
-23.3541947109
 20
5.8810204845
 10
-23.3547913823
 20
5.8634392722
 10
-23.3558526515
 20
5.8465275434
 10
-23.3573911121
 20
5.8306689147
 10
-23.3593941706
 20
5.8154797695
 10
-23.3617819037
 20
5.8008846268
 10
-23.3645437542
 20
5.7868982545
 10
-23.3676902793
 20
5.7735058847
 10
-23.3711732274
 20
5.7605877325
 10
-23.3749840094
 20
5.7481349887
 10
-23.3791312145
 20
5.7361564626
 10
-23.3835923591
 20
5.7245587969
 10
-23.3883605563
 20
5.7133348146
 10
-23.3934426931
 20
5.7024916928
 10
-23.3988369466
 20
5.6919576055
 10
-23.4045358414
 20
5.6817281038
 10
-23.4105468531
 20
5.6718076367
  0
LWPOLYLINE
  5
31B
100
AcDbEntity
  8
0
100
AcDbPolyline
 62
7
  6
CONTINUOUS
 90
68
 70
0
 10
-23.4105468531
 20
5.6718076367
 10
-23.4168905853
 20
5.6621377253
 10
-23.4235385619
 20
5.6527372886
 10
-23.4305192591
 20
5.6435874078
 10
-23.437938709
 20
5.6345728473
 10
-23.4459355145
 20
5.625551002
 10
-23.4543710726
 20
5.6166644771
 10
-23.4629356065
 20
5.6082258531
 10
-23.4715466516
 20
5.6003358877
 10
-23.4802866726
 20
5.5928938231
 10
-23.4890932861
 20
5.5859099669
 10
-23.497934348
 20
5.579408094
 10
-23.5068420024
 20
5.5733644294
 10
-23.5158502992
 20
5.5677179554
 10
-23.5249571405
 20
5.5624604235
 10
-23.5341646242
 20
5.5576000822
 10
-23.5435130932
 20
5.5531006588
 10
-23.5529975655
 20
5.5489554621
 10
-23.5626230232
 20
5.5451711834
 10
-23.572444756
 20
5.5417316235
 10
-23.5824601729
 20
5.5386287609
 10
-23.5926718649
 20
5.5358706172
 10
-23.6031428936
 20
5.5334650576
 10
-23.6138760221
 20
5.5314040985
 10
-23.6248684873
 20
5.5296957235
 10
-23.6361750626
 20
5.5283717486
 10
-23.6479636189
 20
5.5274346703
 10
-23.6600662851
 20
5.5268819921
 10
-23.672034222
 20
5.52673804
 10
-23.6837912314
 20
5.5270250679
 10
-23.6954135114
 20
5.5277208219
 10
-23.706680816
 20
5.5287828661
 10
-23.7174925807
 20
5.530208063
 10
-23.72794937
 20
5.53199955
 10
-23.7381326318
 20
5.5341243039
 10
-23.7480483554
 20
5.5365744505
 10
-23.7576905515
 20
5.5393578641
 10
-23.7671227004
 20
5.5424651436
 10
-23.7763482432
 20
5.5458886851
 10
-23.7853637387
 20
5.5496360927
 10
-23.7942223439
 20
5.5537207779
 10
-23.8029275568
 20
5.5581352808
 10
-23.8114758794
 20
5.5628870614
 10
-23.8199099744
 20
5.5680119106
 10
-23.8282852261
 20
5.5735513226
 10
-23.8365462502
 20
5.5794638033
 10
-23.844569556
 20
5.5856606622
 10
-23.8523545704
 20
5.5921477188
 10
-23.8599018666
 20
5.5989191537
 10
-23.8670896734
 20
5.6058688174
 10
-23.8738151944
 20
5.6128910164
 10
-23.8801812259
 20
5.6200914443
 10
-23.8863743861
 20
5.6276810327
 10
-23.8924565495
 20
5.6357016509
 10
-23.8983658414
 20
5.6441114298
 10
-23.9041032564
 20
5.6529956933
 10
-23.909673944
 20
5.6623438461
 10
-23.9150727546
 20
5.6721664837
 10
-23.9202852338
 20
5.6825807165
 10
-23.9253187096
 20
5.6935740148
 10
-23.930165854
 20
5.7051589084
 10
-23.934790229
 20
5.7174900969
 10
-23.9392066626
 20
5.7305840978
 10
-23.9434003267
 20
5.7444243938
 10
-23.9472902994
 20
5.7591161327
 10
-23.9508496067
 20
5.7746943639
 10
-23.9541052225
 20
5.791124038
 10
-23.9570571468
 20
5.8084051552
  0
LWPOLYLINE
  5
31C
100
AcDbEntity
  8
ASSI
100
AcDbPolyline
 62
7
  6
CONTINUOUS
 90
68
 70
0
 10
-23.4105468531
 20
5.6718076367
 10
-23.4168905853
 20
5.6621377253
 10
-23.4235385619
 20
5.6527372886
 10
-23.4305192591
 20
5.6435874078
 10
-23.437938709
 20
5.6345728473
 10
-23.4459355145
 20
5.625551002
 10
-23.4543710726
 20
5.6166644771
 10
-23.4629356065
 20
5.6082258531
 10
-23.4715466516
 20
5.6003358877
 10
-23.4802866726
 20
5.5928938231
 10
-23.4890932861
 20
5.5859099669
 10
-23.497934348
 20
5.579408094
 10
-23.5068420024
 20
5.5733644294
 10
-23.5158502992
 20
5.5677179554
 10
-23.5249571405
 20
5.5624604235
 10
-23.5341646242
 20
5.5576000822
 10
-23.5435130932
 20
5.5531006588
 10
-23.5529975655
 20
5.5489554621
 10
-23.5626230232
 20
5.5451711834
 10
-23.572444756
 20
5.5417316235
 10
-23.5824601729
 20
5.5386287609
 10
-23.5926718649
 20
5.5358706172
 10
-23.6031428936
 20
5.5334650576
 10
-23.6138760221
 20
5.5314040985
 10
-23.6248684873
 20
5.5296957235
 10
-23.6361750626
 20
5.5283717486
 10
-23.6479636189
 20
5.5274346703
 10
-23.6600662851
 20
5.5268819921
 10
-23.672034222
 20
5.52673804
 10
-23.6837912314
 20
5.5270250679
 10
-23.6954135114
 20
5.5277208219
 10
-23.706680816
 20
5.5287828661
 10
-23.7174925807
 20
5.530208063
 10
-23.72794937
 20
5.53199955
 10
-23.7381326318
 20
5.5341243039
 10
-23.7480483554
 20
5.5365744505
 10
-23.7576905515
 20
5.5393578641
 10
-23.7671227004
 20
5.5424651436
 10
-23.7763482432
 20
5.5458886851
 10
-23.7853637387
 20
5.5496360927
 10
-23.7942223439
 20
5.5537207779
 10
-23.8029275568
 20
5.5581352808
 10
-23.8114758794
 20
5.5628870614
 10
-23.8199099744
 20
5.5680119106
 10
-23.8282852261
 20
5.5735513226
 10
-23.8365462502
 20
5.5794638033
 10
-23.844569556
 20
5.5856606622
 10
-23.8523545704
 20
5.5921477188
 10
-23.8599018666
 20
5.5989191537
 10
-23.8670896734
 20
5.6058688174
 10
-23.8738151944
 20
5.6128910164
 10
-23.8801812259
 20
5.6200914443
 10
-23.8863743861
 20
5.6276810327
 10
-23.8924565495
 20
5.6357016509
 10
-23.8983658414
 20
5.6441114298
 10
-23.9041032564
 20
5.6529956933
 10
-23.909673944
 20
5.6623438461
 10
-23.9150727546
 20
5.6721664837
 10
-23.9202852338
 20
5.6825807165
 10
-23.9253187096
 20
5.6935740148
 10
-23.930165854
 20
5.7051589084
 10
-23.934790229
 20
5.7174900969
 10
-23.9392066626
 20
5.7305840978
 10
-23.9434003267
 20
5.7444243938
 10
-23.9472902994
 20
5.7591161327
 10
-23.9508496067
 20
5.7746943639
 10
-23.9541052225
 20
5.791124038
 10
-23.9570571468
 20
5.8084051552
  0
LWPOLYLINE
  5
31D
100
AcDbEntity
  8
0
100
AcDbPolyline
 62
7
  6
CONTINUOUS
 90
30
 70
0
 10
-22.7305483809
 20
6.8569253676
 10
-22.7426339286
 20
6.8507965834
 10
-22.7544942329
 20
6.8442742697
 10
-22.7661385898
 20
6.837360339
 10
-22.7775577033
 20
6.8300528789
 10
-22.7887788045
 20
6.8223279567
 10
-22.7998609924
 20
6.8141381826
 10
-22.810745168
 20
6.8055309464
 10
-22.8212812649
 20
6.7966244847
 10
-22.8314097319
 20
6.7874668194
 10
-22.8411901203
 20
6.7780099286
 10
-22.850651017
 20
6.7682279827
 10
-22.8597939158
 20
6.7581276974
 10
-22.868617323
 20
6.747702357
 10
-22.877145344
 20
6.7369059848
 10
-22.8853771648
 20
6.7257534791
 10
-22.8933135993
 20
6.7142299416
 10
-22.9009811948
 20
6.7022446999
 10
-22.9083962532
 20
6.6897877766
 10
-22.9155424726
 20
6.6768691491
 10
-22.9223974943
 20
6.6634280775
 10
-22.9289576024
 20
6.6494921164
 10
-22.9352265129
 20
6.6350337113
 10
-22.9411930143
 20
6.6199094582
 10
-22.9468706071
 20
6.6041182253
 10
-22.9522457909
 20
6.5876611444
 10
-22.9572668531
 20
6.5703982075
 10
-22.9619165562
 20
6.5522827449
 10
-22.9662121378
 20
6.5333614262
 10
-22.9701535978
 20
6.5136342514
  0
LWPOLYLINE
  5
31E
100
AcDbEntity
  8
ASSI
100
AcDbPolyline
 62
7
  6
CONTINUOUS
 90
30
 70
0
 10
-22.7305483809
 20
6.8569253676
 10
-22.7426339286
 20
6.8507965834
 10
-22.7544942329
 20
6.8442742697
 10
-22.7661385898
 20
6.837360339
 10
-22.7775577033
 20
6.8300528789
 10
-22.7887788045
 20
6.8223279567
 10
-22.7998609924
 20
6.8141381826
 10
-22.810745168
 20
6.8055309464
 10
-22.8212812649
 20
6.7966244847
 10
-22.8314097319
 20
6.7874668194
 10
-22.8411901203
 20
6.7780099286
 10
-22.850651017
 20
6.7682279827
 10
-22.8597939158
 20
6.7581276974
 10
-22.868617323
 20
6.747702357
 10
-22.877145344
 20
6.7369059848
 10
-22.8853771648
 20
6.7257534791
 10
-22.8933135993
 20
6.7142299416
 10
-22.9009811948
 20
6.7022446999
 10
-22.9083962532
 20
6.6897877766
 10
-22.9155424726
 20
6.6768691491
 10
-22.9223974943
 20
6.6634280775
 10
-22.9289576024
 20
6.6494921164
 10
-22.9352265129
 20
6.6350337113
 10
-22.9411930143
 20
6.6199094582
 10
-22.9468706071
 20
6.6041182253
 10
-22.9522457909
 20
6.5876611444
 10
-22.9572668531
 20
6.5703982075
 10
-22.9619165562
 20
6.5522827449
 10
-22.9662121378
 20
6.5333614262
 10
-22.9701535978
 20
6.5136342514
  0
LWPOLYLINE
  5
31F
100
AcDbEntity
  8
0
100
AcDbPolyline
 62
7
  6
CONTINUOUS
 90
19
 70
0
 10
-26.3314680917
 20
6.3493571161
 10
-26.3109314594
 20
6.3572364835
 10
-26.2896218115
 20
6.3660909774
 10
-26.2675391479
 20
6.3759205976
 10
-26.2445081509
 20
6.3868194949
 10
-26.2207041382
 20
6.3986935186
 10
-26.1966530632
 20
6.4112602166
 10
-26.1720780608
 20
6.424690766
 10
-26.1472559961
 20
6.4388139896
 10
-26.1235434181
 20
6.4528339042
 10
-26.1013818963
 20
6.4665022605
 10
-26.0803298612
 20
6.4800673078
 10
-26.060419153
 20
6.4934778114
 10
-26.0416877319
 20
6.5067204645
 10
-26.0240976378
 20
6.5198085739
 10
-26.0075668307
 20
6.5327308251
 10
-25.992067964
 20
6.5454834465
 10
-25.9776283843
 20
6.5580702097
 10
-25.9642480917
 20
6.5704911147
  0
LWPOLYLINE
  5
320
100
AcDbEntity
  8
ASSI
100
AcDbPolyline
 62
7
  6
CONTINUOUS
 90
19
 70
0
 10
-26.3314680917
 20
6.3493571161
 10
-26.3109314594
 20
6.3572364835
 10
-26.2896218115
 20
6.3660909774
 10
-26.2675391479
 20
6.3759205976
 10
-26.2445081509
 20
6.3868194949
 10
-26.2207041382
 20
6.3986935186
 10
-26.1966530632
 20
6.4112602166
 10
-26.1720780608
 20
6.424690766
 10
-26.1472559961
 20
6.4388139896
 10
-26.1235434181
 20
6.4528339042
 10
-26.1013818963
 20
6.4665022605
 10
-26.0803298612
 20
6.4800673078
 10
-26.060419153
 20
6.4934778114
 10
-26.0416877319
 20
6.5067204645
 10
-26.0240976378
 20
6.5198085739
 10
-26.0075668307
 20
6.5327308251
 10
-25.992067964
 20
6.5454834465
 10
-25.9776283843
 20
6.5580702097
 10
-25.9642480917
 20
6.5704911147
  0
LINE
  5
321
100
AcDbEntity
  8
ASSI
100
AcDbLine
 62
7
  6
CONTINUOUS
 10
-20.5694070917
 20
12.8766241594
 11
-20.1976990917
 21
12.8766281594
  0
LINE
  5
322
100
AcDbEntity
  8
ASSI
100
AcDbLine
 62
7
  6
CONTINUOUS
 10
-23.1278020917
 20
12.8766201594
 11
-22.7977900917
 21
12.8766241594
  0
LINE
  5
323
100
AcDbEntity
  8
ASSI
100
AcDbLine
 62
7
  6
CONTINUOUS
 10
-24.9618560917
 20
12.8766201594
 11
-24.6318430917
 21
12.8766201594
  0
LINE
  5
324
100
AcDbEntity
  8
ASSI
100
AcDbLine
 62
7
  6
CONTINUOUS
 10
-23.6778220917
 20
12.8766201594
 11
-23.3478090917
 21
12.8766201594
  0
LINE
  5
325
100
AcDbEntity
  8
ASSI
100
AcDbLine
 62
7
  6
CONTINUOUS
 10
-21.5182030917
 20
12.8766241594
 11
-21.1881860917
 21
12.8766241594
  0
LINE
  5
326
100
AcDbEntity
  8
ASSI
100
AcDbLine
 62
7
  6
CONTINUOUS
 10
-24.3198370917
 20
12.8766201594
 11
-23.9898330917
 21
12.8766241594
  0
LINE
  5
327
100
AcDbEntity
  8
ASSI
100
AcDbLine
 62
7
  6
CONTINUOUS
 10
-25.6218720917
 20
12.8766161594
 11
-25.2918600917
 21
12.8766201594
  0
LINE
  5
328
100
AcDbEntity
  8
ASSI
100
AcDbLine
 62
7
  6
CONTINUOUS
 10
-22.0682260917
 20
12.8766241594
 11
-21.7382100917
 21
12.8766201594
  0
LINE
  5
329
100
AcDbEntity
  8
ASSI
100
AcDbLine
 62
7
  6
CONTINUOUS
 10
-26.7016860917
 20
12.8766161594
 11
-26.3716610917
 21
12.8766201594
  0
LINE
  5
32A
100
AcDbEntity
  8
ASSI
100
AcDbLine
 62
7
  6
CONTINUOUS
 10
-22.6936050917
 20
13.2011221594
 11
-22.1724070917
 21
13.2011221594
  0
LINE
  5
32B
100
AcDbEntity
  8
0
100
AcDbLine
 62
7
  6
CONTINUOUS
 10
-23.2572070917
 20
15.3766161594
 11
-23.7683680917
 21
16.1887361594
  0
LINE
  5
32C
100
AcDbEntity
  8
ASSI
100
AcDbLine
 62
7
  6
CONTINUOUS
 10
-23.2572070917
 20
15.3766161594
 11
-23.7683680917
 21
16.1887361594
  0
LINE
  5
32D
100
AcDbEntity
  8
0
100
AcDbLine
 62
7
  6
CONTINUOUS
 10
-23.7391400917
 20
16.3766161594
 11
-23.2363100917
 21
15.5643321594
  0
LINE
  5
32E
100
AcDbEntity
  8
ASSI
100
AcDbLine
 62
7
  6
CONTINUOUS
 10
-23.7391400917
 20
16.3766161594
 11
-23.2363100917
 21
15.5643321594
  0
LINE
  5
32F
100
AcDbEntity
  8
ASSI
100
AcDbLine
 62
7
  6
CONTINUOUS
 10
-22.1724070917
 20
13.2011221594
 11
-22.0682260917
 21
12.8766241594
  0
LINE
  5
330
100
AcDbEntity
  8
ASSI
100
AcDbLine
 62
7
  6
CONTINUOUS
 10
-22.4330120917
 20
14.0127851594
 11
-22.2730740917
 21
13.5146341594
  0
LINE
  5
331
100
AcDbEntity
  8
ASSI
100
AcDbLine
 62
7
  6
CONTINUOUS
 10
-21.7382100917
 20
12.8766201594
 11
-22.2679960917
 21
14.5266991594
  0
LINE
  5
332
100
AcDbEntity
  8
0
100
AcDbLine
 62
7
  6
CONTINUOUS
 10
-20.2041870917
 20
16.3766161594
 11
-20.2041870917
 21
15.4963901594
  0
LINE
  5
333
100
AcDbEntity
  8
ASSI
100
AcDbLine
 62
7
  6
CONTINUOUS
 10
-20.2041870917
 20
16.3766161594
 11
-20.2041870917
 21
15.4963901594
  0
LINE
  5
334
100
AcDbEntity
  8
0
100
AcDbLine
 62
7
  6
CONTINUOUS
 10
-19.6971910917
 20
15.4963901594
 11
-19.6971910917
 21
15.3766161594
  0
LINE
  5
335
100
AcDbEntity
  8
ASSI
100
AcDbLine
 62
7
  6
CONTINUOUS
 10
-19.6971910917
 20
15.4963901594
 11
-19.6971910917
 21
15.3766161594
  0
LINE
  5
336
100
AcDbEntity
  8
0
100
AcDbLine
 62
7
  6
CONTINUOUS
 10
-19.2738190917
 20
15.3766161594
 11
-19.2738190917
 21
15.7791231594
  0
LINE
  5
337
100
AcDbEntity
  8
ASSI
100
AcDbLine
 62
7
  6
CONTINUOUS
 10
-19.2738190917
 20
15.3766161594
 11
-19.2738190917
 21
15.7791231594
  0
LINE
  5
338
100
AcDbEntity
  8
0
100
AcDbLine
 62
7
  6
CONTINUOUS
 10
-19.1387600917
 20
15.7791231594
 11
-19.1387600917
 21
15.3766161594
  0
LINE
  5
339
100
AcDbEntity
  8
ASSI
100
AcDbLine
 62
7
  6
CONTINUOUS
 10
-19.1387600917
 20
15.7791231594
 11
-19.1387600917
 21
15.3766161594
  0
LWPOLYLINE
  5
33A
100
AcDbEntity
  8
0
100
AcDbPolyline
 62
7
  6
CONTINUOUS
 90
28
 70
0
 10
-21.2586555767
 20
6.9017191594
 10
-21.2644504756
 20
6.8903620683
 10
-21.2709143577
 20
6.8787061714
 10
-21.2780472229
 20
6.8667514686
 10
-21.285820755
 20
6.8544953684
 10
-21.2942632701
 20
6.8419404623
 10
-21.3034597176
 20
6.8290945255
 10
-21.3134106264
 20
6.8159581157
 10
-21.3241154676
 20
6.8025306751
 10
-21.3356576034
 20
6.7888183056
 10
-21.3480347253
 20
6.7748239707
 10
-21.361249142
 20
6.7605447069
 10
-21.3753911412
 20
6.7459777253
 10
-21.3904782993
 20
6.7310784177
 10
-21.40649304
 20
6.7158913924
 10
-21.4234729223
 20
6.700547685
 10
-21.4415138284
 20
6.6849636883
 10
-21.4605198761
 20
6.6692230097
 10
-21.4802409786
 20
6.6537075065
 10
-21.5005821422
 20
6.6385287386
 10
-21.5216383605
 20
6.6235751461
 10
-21.5434445279
 20
6.6088939073
 10
-21.5659736523
 20
6.5944987188
 10
-21.5892527257
 20
6.580375884
 10
-21.6133976193
 20
6.5665314917
 10
-21.6384469566
 20
6.5529675715
 10
-21.6643621141
 20
6.5396820937
 10
-21.6911430917
 20
6.5266750583
  0
LWPOLYLINE
  5
33B
100
AcDbEntity
  8
ASSI
100
AcDbPolyline
 62
7
  6
CONTINUOUS
 90
28
 70
0
 10
-21.2586555767
 20
6.9017191594
 10
-21.2644504756
 20
6.8903620683
 10
-21.2709143577
 20
6.8787061714
 10
-21.2780472229
 20
6.8667514686
 10
-21.285820755
 20
6.8544953684
 10
-21.2942632701
 20
6.8419404623
 10
-21.3034597176
 20
6.8290945255
 10
-21.3134106264
 20
6.8159581157
 10
-21.3241154676
 20
6.8025306751
 10
-21.3356576034
 20
6.7888183056
 10
-21.3480347253
 20
6.7748239707
 10
-21.361249142
 20
6.7605447069
 10
-21.3753911412
 20
6.7459777253
 10
-21.3904782993
 20
6.7310784177
 10
-21.40649304
 20
6.7158913924
 10
-21.4234729223
 20
6.700547685
 10
-21.4415138284
 20
6.6849636883
 10
-21.4605198761
 20
6.6692230097
 10
-21.4802409786
 20
6.6537075065
 10
-21.5005821422
 20
6.6385287386
 10
-21.5216383605
 20
6.6235751461
 10
-21.5434445279
 20
6.6088939073
 10
-21.5659736523
 20
6.5944987188
 10
-21.5892527257
 20
6.580375884
 10
-21.6133976193
 20
6.5665314917
 10
-21.6384469566
 20
6.5529675715
 10
-21.6643621141
 20
6.5396820937
 10
-21.6911430917
 20
6.5266750583
  0
LWPOLYLINE
  5
33C
100
AcDbEntity
  8
0
100
AcDbPolyline
 62
7
  6
CONTINUOUS
 90
95
 70
0
 10
-22.2892121585
 20
6.2126276802
 10
-22.275360681
 20
6.2193028853
 10
-22.262188935
 20
6.2261189807
 10
-22.2496969203
 20
6.2330759663
 10
-22.2379234512
 20
6.240177976
 10
-22.2268297134
 20
6.247420876
 10
-22.2162992649
 20
6.2547922646
 10
-22.2063281647
 20
6.2622833823
 10
-22.1969203538
 20
6.2699029885
 10
-22.1879712131
 20
6.2776649605
 10
-22.1794692964
 20
6.2855662663
 10
-22.1714260501
 20
6.2936099379
 10
-22.1637711935
 20
6.3018189485
 10
-22.156523899
 20
6.3101471674
 10
-22.1496649943
 20
6.3186407253
 10
-22.1430666822
 20
6.3274609883
 10
-22.1366547039
 20
6.3367127013
 10
-22.1305033181
 20
6.3462911194
 10
-22.1247075044
 20
6.3560433736
 10
-22.1192851039
 20
6.3659484014
 10
-22.1142182754
 20
6.3760272654
 10
-22.109548475
 20
6.3861902849
 10
-22.1052978509
 20
6.396390695
 10
-22.1014442549
 20
6.4066752606
 10
-22.0979626975
 20
6.4170945956
 10
-22.094845316
 20
6.4276486371
 10
-22.0920999732
 20
6.4383374481
 10
-22.0897252675
 20
6.4492118321
 10
-22.0877143162
 20
6.4602593604
 10
-22.086074002
 20
6.4714924617
 10
-22.0848235715
 20
6.4829992255
 10
-22.0839591236
 20
6.4948500087
 10
-22.0834845593
 20
6.5069744543
 10
-22.083430828
 20
6.5192495814
 10
-22.0838100647
 20
6.5317288809
 10
-22.0846101343
 20
6.544358862
 10
-22.0858255818
 20
6.556856071
 10
-22.0874528844
 20
6.5691059234
 10
-22.0894955648
 20
6.5812230038
 10
-22.0919587353
 20
6.5932676123
 10
-22.0948369244
 20
6.6052470342
 10
-22.0981356036
 20
6.6171539843
 10
-22.1018762999
 20
6.6290269072
 10
-22.1060537413
 20
6.640868328
 10
-22.1106731998
 20
6.6526757215
 10
-22.1157720183
 20
6.6644799572
 10
-22.1214352079
 20
6.6764237493
 10
-22.1275777575
 20
6.6883643835
 10
-22.1339819764
 20
6.6999045858
 10
-22.1405677509
 20
6.7108932448
 10
-22.1474151948
 20
6.721481472
 10
-22.1545469589
 20
6.7317253277
 10
-22.1619446787
 20
6.7416071694
 10
-22.1696267187
 20
6.7511446398
 10
-22.1776708241
 20
6.7604467275
 10
-22.1860861917
 20
6.7695423753
 10
-22.1948636247
 20
6.7784026406
 10
-22.204053277
 20
6.7870496842
 10
-22.2136466635
 20
6.7954859083
 10
-22.2236522694
 20
6.8037089108
 10
-22.2341457039
 20
6.8117336456
 10
-22.2451240507
 20
6.8195678605
 10
-22.2565902263
 20
6.8272038076
 10
-22.2686285886
 20
6.8346331979
 10
-22.2813653551
 20
6.8419179346
 10
-22.2946743085
 20
6.8489961144
 10
-22.308261154
 20
6.8556737384
 10
-22.3220623203
 20
6.8619051448
 10
-22.3361413789
 20
6.8677359955
 10
-22.3503947488
 20
6.8731092772
 10
-22.3647675911
 20
6.8780033312
 10
-22.3793147449
 20
6.8824398164
 10
-22.3940971463
 20
6.8864266955
 10
-22.4091116423
 20
6.8899713356
 10
-22.424361386
 20
6.8930663697
 10
-22.439916772
 20
6.8956976599
 10
-22.4557637691
 20
6.8978728689
 10
-22.4719164086
 20
6.899584334
 10
-22.4884871788
 20
6.9007949287
 10
-22.5057136555
 20
6.9014957005
 10
-22.523358263
 20
6.9016956019
 10
-22.5408207625
 20
6.9013843637
 10
-22.5580192264
 20
6.9005372452
 10
-22.5750355822
 20
6.8991789871
 10
-22.5915153748
 20
6.8973735419
 10
-22.6073060061
 20
6.8951263935
 10
-22.6225600742
 20
6.892432058
 10
-22.6373809176
 20
6.8893380368
 10
-22.6517745556
 20
6.8858526338
 10
-22.665734969
 20
6.8819675451
 10
-22.6793474391
 20
6.8777053601
 10
-22.692617866
 20
6.8730730215
 10
-22.7055403496
 20
6.8680635867
 10
-22.7181824701
 20
6.8626788179
 10
-22.7305483809
 20
6.8569253676
  0
LWPOLYLINE
  5
33D
100
AcDbEntity
  8
ASSI
100
AcDbPolyline
 62
7
  6
CONTINUOUS
 90
95
 70
0
 10
-22.2892121585
 20
6.2126276802
 10
-22.275360681
 20
6.2193028853
 10
-22.262188935
 20
6.2261189807
 10
-22.2496969203
 20
6.2330759663
 10
-22.2379234512
 20
6.240177976
 10
-22.2268297134
 20
6.247420876
 10
-22.2162992649
 20
6.2547922646
 10
-22.2063281647
 20
6.2622833823
 10
-22.1969203538
 20
6.2699029885
 10
-22.1879712131
 20
6.2776649605
 10
-22.1794692964
 20
6.2855662663
 10
-22.1714260501
 20
6.2936099379
 10
-22.1637711935
 20
6.3018189485
 10
-22.156523899
 20
6.3101471674
 10
-22.1496649943
 20
6.3186407253
 10
-22.1430666822
 20
6.3274609883
 10
-22.1366547039
 20
6.3367127013
 10
-22.1305033181
 20
6.3462911194
 10
-22.1247075044
 20
6.3560433736
 10
-22.1192851039
 20
6.3659484014
 10
-22.1142182754
 20
6.3760272654
 10
-22.109548475
 20
6.3861902849
 10
-22.1052978509
 20
6.396390695
 10
-22.1014442549
 20
6.4066752606
 10
-22.0979626975
 20
6.4170945956
 10
-22.094845316
 20
6.4276486371
 10
-22.0920999732
 20
6.4383374481
 10
-22.0897252675
 20
6.4492118321
 10
-22.0877143162
 20
6.4602593604
 10
-22.086074002
 20
6.4714924617
 10
-22.0848235715
 20
6.4829992255
 10
-22.0839591236
 20
6.4948500087
 10
-22.0834845593
 20
6.5069744543
 10
-22.083430828
 20
6.5192495814
 10
-22.0838100647
 20
6.5317288809
 10
-22.0846101343
 20
6.544358862
 10
-22.0858255818
 20
6.556856071
 10
-22.0874528844
 20
6.5691059234
 10
-22.0894955648
 20
6.5812230038
 10
-22.0919587353
 20
6.5932676123
 10
-22.0948369244
 20
6.6052470342
 10
-22.0981356036
 20
6.6171539843
 10
-22.1018762999
 20
6.6290269072
 10
-22.1060537413
 20
6.640868328
 10
-22.1106731998
 20
6.6526757215
 10
-22.1157720183
 20
6.6644799572
 10
-22.1214352079
 20
6.6764237493
 10
-22.1275777575
 20
6.6883643835
 10
-22.1339819764
 20
6.6999045858
 10
-22.1405677509
 20
6.7108932448
 10
-22.1474151948
 20
6.721481472
 10
-22.1545469589
 20
6.7317253277
 10
-22.1619446787
 20
6.7416071694
 10
-22.1696267187
 20
6.7511446398
 10
-22.1776708241
 20
6.7604467275
 10
-22.1860861917
 20
6.7695423753
 10
-22.1948636247
 20
6.7784026406
 10
-22.204053277
 20
6.7870496842
 10
-22.2136466635
 20
6.7954859083
 10
-22.2236522694
 20
6.8037089108
 10
-22.2341457039
 20
6.8117336456
 10
-22.2451240507
 20
6.8195678605
 10
-22.2565902263
 20
6.8272038076
 10
-22.2686285886
 20
6.8346331979
 10
-22.2813653551
 20
6.8419179346
 10
-22.2946743085
 20
6.8489961144
 10
-22.308261154
 20
6.8556737384
 10
-22.3220623203
 20
6.8619051448
 10
-22.3361413789
 20
6.8677359955
 10
-22.3503947488
 20
6.8731092772
 10
-22.3647675911
 20
6.8780033312
 10
-22.3793147449
 20
6.8824398164
 10
-22.3940971463
 20
6.8864266955
 10
-22.4091116423
 20
6.8899713356
 10
-22.424361386
 20
6.8930663697
 10
-22.439916772
 20
6.8956976599
 10
-22.4557637691
 20
6.8978728689
 10
-22.4719164086
 20
6.899584334
 10
-22.4884871788
 20
6.9007949287
 10
-22.5057136555
 20
6.9014957005
 10
-22.523358263
 20
6.9016956019
 10
-22.5408207625
 20
6.9013843637
 10
-22.5580192264
 20
6.9005372452
 10
-22.5750355822
 20
6.8991789871
 10
-22.5915153748
 20
6.8973735419
 10
-22.6073060061
 20
6.8951263935
 10
-22.6225600742
 20
6.892432058
 10
-22.6373809176
 20
6.8893380368
 10
-22.6517745556
 20
6.8858526338
 10
-22.665734969
 20
6.8819675451
 10
-22.6793474391
 20
6.8777053601
 10
-22.692617866
 20
6.8730730215
 10
-22.7055403496
 20
6.8680635867
 10
-22.7181824701
 20
6.8626788179
 10
-22.7305483809
 20
6.8569253676
  0
LWPOLYLINE
  5
33E
100
AcDbEntity
  8
0
100
AcDbPolyline
 62
7
  6
CONTINUOUS
 90
19
 70
0
 10
-21.6911430917
 20
6.3493571101
 10
-21.670606453
 20
6.3572364802
 10
-21.6492968002
 20
6.366090976
 10
-21.6272141334
 20
6.3759205976
 10
-21.6041831353
 20
6.3868194954
 10
-21.5803791232
 20
6.3986935189
 10
-21.5563280487
 20
6.4112602166
 10
-21.5317530463
 20
6.424690766
 10
-21.5069309816
 20
6.4388139896
 10
-21.4832184036
 20
6.4528339042
 10
-21.4610568818
 20
6.4665022605
 10
-21.4400048467
 20
6.4800673078
 10
-21.4200941385
 20
6.4934778114
 10
-21.4013627169
 20
6.506720465
 10
-21.3837726222
 20
6.5198085748
 10
-21.3672418162
 20
6.5327308251
 10
-21.3517429527
 20
6.5454834437
 10
-21.3373033779
 20
6.5580702027
 10
-21.3239230917
 20
6.570491102
  0
LWPOLYLINE
  5
33F
100
AcDbEntity
  8
ASSI
100
AcDbPolyline
 62
7
  6
CONTINUOUS
 90
19
 70
0
 10
-21.6911430917
 20
6.3493571101
 10
-21.670606453
 20
6.3572364802
 10
-21.6492968002
 20
6.366090976
 10
-21.6272141334
 20
6.3759205976
 10
-21.6041831353
 20
6.3868194954
 10
-21.5803791232
 20
6.3986935189
 10
-21.5563280487
 20
6.4112602166
 10
-21.5317530463
 20
6.424690766
 10
-21.5069309816
 20
6.4388139896
 10
-21.4832184036
 20
6.4528339042
 10
-21.4610568818
 20
6.4665022605
 10
-21.4400048467
 20
6.4800673078
 10
-21.4200941385
 20
6.4934778114
 10
-21.4013627169
 20
6.506720465
 10
-21.3837726222
 20
6.5198085748
 10
-21.3672418162
 20
6.5327308251
 10
-21.3517429527
 20
6.5454834437
 10
-21.3373033779
 20
6.5580702027
 10
-21.3239230917
 20
6.570491102
  0
LINE
  5
340
100
AcDbEntity
  8
ASSI
100
AcDbLine
 62
7
  6
CONTINUOUS
 10
-22.2730740917
 20
13.5146341594
 11
-22.5929430917
 21
13.5146341594
  0
LINE
  5
341
100
AcDbEntity
  8
ASSI
100
AcDbLine
 62
7
  6
CONTINUOUS
 10
-21.1881490917
 20
13.5146381594
 11
-20.9001210917
 21
13.5146341594
  0
LINE
  5
342
100
AcDbEntity
  8
ASSI
100
AcDbLine
 62
7
  6
CONTINUOUS
 10
-20.7912141971
 20
13.8199001594
 11
-21.1927360917
 21
13.8199001594
  0
LINE
  5
343
100
AcDbEntity
  8
ASSI
100
AcDbLine
 62
7
  6
CONTINUOUS
 10
-21.1927400917
 20
14.2214361594
 11
-20.7912141971
 21
14.2214361594
  0
LINE
  5
344
100
AcDbEntity
  8
ASSI
100
AcDbLine
 62
7
  6
CONTINUOUS
 10
-23.3478090917
 20
14.5266941594
 11
-23.8466990917
 21
14.5266941594
  0
LINE
  5
345
100
AcDbEntity
  8
ASSI
100
AcDbLine
 62
7
  6
CONTINUOUS
 10
-24.4629660917
 20
14.5266941594
 11
-24.9618560917
 21
14.5266941594
  0
LINE
  5
346
100
AcDbEntity
  8
ASSI
100
AcDbLine
 62
7
  6
CONTINUOUS
 10
-25.2918560917
 20
14.5266941594
 11
-25.6218680917
 21
14.5266941594
  0
LINE
  5
347
100
AcDbEntity
  8
ASSI
100
AcDbLine
 62
7
  6
CONTINUOUS
 10
-25.8418750917
 20
14.5266941594
 11
-26.1718920917
 21
14.5266941594
  0
LINE
  5
348
100
AcDbEntity
  8
ASSI
100
AcDbLine
 62
7
  6
CONTINUOUS
 10
-26.9014510917
 20
14.5266941594
 11
-27.2314680917
 21
14.5266941594
  0
LINE
  5
349
100
AcDbEntity
  8
ASSI
100
AcDbLine
 62
7
  6
CONTINUOUS
 10
-20.7453857021
 20
14.5266991594
 11
-21.5182030917
 21
14.5266991594
  0
LINE
  5
34A
100
AcDbEntity
  8
ASSI
100
AcDbLine
 62
7
  6
CONTINUOUS
 10
-22.2679960917
 20
14.5266991594
 11
-22.5980250917
 21
14.5266991594
  0
LINE
  5
34B
100
AcDbEntity
  8
ASSI
100
AcDbLine
 62
7
  6
CONTINUOUS
 10
-20.9001210917
 20
13.5146341594
 11
-20.5694070917
 21
12.8766241594
  0
LINE
  5
34C
100
AcDbEntity
  8
ASSI
100
AcDbLine
 62
7
  6
CONTINUOUS
 10
-20.1976990917
 20
12.8766281594
 11
-20.5489804902
 21
13.5543219283
  0
LINE
  5
34D
100
AcDbEntity
  8
0
100
AcDbLine
 62
7
  6
CONTINUOUS
 10
-20.8254000917
 20
16.3766161594
 11
-20.4632240917
 21
15.3766161594
  0
LINE
  5
34E
100
AcDbEntity
  8
ASSI
100
AcDbLine
 62
7
  6
CONTINUOUS
 10
-20.8254000917
 20
16.3766161594
 11
-20.4632240917
 21
15.3766161594
  0
LINE
  5
34F
100
AcDbEntity
  8
0
100
AcDbLine
 62
7
  6
CONTINUOUS
 10
-20.6108990917
 20
15.3766161594
 11
-20.7097830917
 21
15.6676791594
  0
LINE
  5
350
100
AcDbEntity
  8
ASSI
100
AcDbLine
 62
7
  6
CONTINUOUS
 10
-20.6108990917
 20
15.3766161594
 11
-20.7097830917
 21
15.6676791594
  0
LINE
  5
351
100
AcDbEntity
  8
0
100
AcDbLine
 62
7
  6
CONTINUOUS
 10
-20.7585420917
 20
15.7874531594
 11
-20.9075350917
 21
16.2315671594
  0
LINE
  5
352
100
AcDbEntity
  8
ASSI
100
AcDbLine
 62
7
  6
CONTINUOUS
 10
-20.7585420917
 20
15.7874531594
 11
-20.9075350917
 21
16.2315671594
  0
LINE
  5
353
100
AcDbEntity
  8
0
100
AcDbLine
 62
7
  6
CONTINUOUS
 10
-18.4706985762
 20
19.7766161594
 11
-18.4706985762
 21
-0.0233838406
  0
LINE
  5
354
100
AcDbEntity
  8
ASSI
100
AcDbLine
 62
7
  6
CONTINUOUS
 10
-18.4706985762
 20
19.7766161594
 11
-18.4706985762
 21
-0.0233838406
  0
LINE
  5
355
100
AcDbEntity
  8
0
100
AcDbLine
 62
7
  6
CONTINUOUS
 10
-17.4314680917
 20
18.6766161594
 11
-17.4314680917
 21
17.6766161594
  0
LINE
  5
356
100
AcDbEntity
  8
ASSI
100
AcDbLine
 62
7
  6
CONTINUOUS
 10
-17.4314680917
 20
18.6766161594
 11
-17.4314680917
 21
17.6766161594
  0
LINE
  5
357
100
AcDbEntity
  8
0
100
AcDbLine
 62
7
  6
CONTINUOUS
 10
-17.4314680917
 20
2.0766161594
 11
-17.4314680917
 21
1.0766161594
  0
LINE
  5
358
100
AcDbEntity
  8
ASSI
100
AcDbLine
 62
7
  6
CONTINUOUS
 10
-17.4314680917
 20
2.0766161594
 11
-17.4314680917
 21
1.0766161594
  0
LWPOLYLINE
  5
359
100
AcDbEntity
  8
0
100
AcDbPolyline
 62
7
  6
CONTINUOUS
 90
49
 70
0
 10
-26.199506867
 20
15.4921841594
 10
-26.1892450609
 20
15.4926205113
 10
-26.1790696864
 20
15.4933982652
 10
-26.1689807436
 20
15.4945174212
 10
-26.1589541689
 20
15.4959858261
 10
-26.1490140258
 20
15.4977956329
 10
-26.139232505
 20
15.4999233016
 10
-26.1296192335
 20
15.5023704202
 10
-26.1201645842
 20
15.5051354006
 10
-26.1109118666
 20
15.5081899381
 10
-26.1018745244
 20
15.5115294655
 10
-26.0930391139
 20
15.5151585501
 10
-26.0844086136
 20
15.5190625885
 10
-26.075989598
 20
15.5232368178
 10
-26.0677754926
 20
15.5276860009
 10
-26.059749552
 20
15.5324098237
 10
-26.0519003007
 20
15.5374137286
 10
-26.0442392142
 20
15.5426922732
 10
-26.0367839738
 20
15.5482288155
 10
-26.0295384934
 20
15.5540169643
 10
-26.0224988592
 20
15.5600631108
 10
-26.0156710103
 20
15.5663697868
 10
-26.009065132
 20
15.5729237668
 10
-26.002671039
 20
15.5797382762
 10
-25.9964641143
 20
15.5868555233
 10
-25.9904273083
 20
15.5942913209
 10
-25.9845776705
 20
15.6020298561
 10
-25.9789417332
 20
15.6100658979
 10
-25.9735148728
 20
15.6184050476
 10
-25.9683017128
 20
15.6270417039
 10
-25.9633426566
 20
15.6359538307
 10
-25.9586649851
 20
15.6450710239
 10
-25.9542414174
 20
15.6544636876
 10
-25.9500305144
 20
15.6643209989
 10
-25.9460276059
 20
15.674659335
 10
-25.9422373622
 20
15.6854623186
 10
-25.938632355
 20
15.6968699947
 10
-25.9352006651
 20
15.7089222466
 10
-25.9319542118
 20
15.721579191
 10
-25.9289013248
 20
15.7348612226
 10
-25.9260029697
 20
15.7487810377
 10
-25.923298181
 20
15.76332594
 10
-25.9209123921
 20
15.7784782359
 10
-25.9188364851
 20
15.7944355733
 10
-25.917079578
 20
15.8110003044
 10
-25.9157944585
 20
15.8275617922
 10
-25.915032056
 20
15.8439164912
 10
-25.9147414411
 20
15.8602679469
 10
-25.9149226138
 20
15.8766161594
  0
LWPOLYLINE
  5
35A
100
AcDbEntity
  8
ASSI
100
AcDbPolyline
 62
7
  6
CONTINUOUS
 90
49
 70
0
 10
-26.199506867
 20
15.4921841594
 10
-26.1892450609
 20
15.4926205113
 10
-26.1790696864
 20
15.4933982652
 10
-26.1689807436
 20
15.4945174212
 10
-26.1589541689
 20
15.4959858261
 10
-26.1490140258
 20
15.4977956329
 10
-26.139232505
 20
15.4999233016
 10
-26.1296192335
 20
15.5023704202
 10
-26.1201645842
 20
15.5051354006
 10
-26.1109118666
 20
15.5081899381
 10
-26.1018745244
 20
15.5115294655
 10
-26.0930391139
 20
15.5151585501
 10
-26.0844086136
 20
15.5190625885
 10
-26.075989598
 20
15.5232368178
 10
-26.0677754926
 20
15.5276860009
 10
-26.059749552
 20
15.5324098237
 10
-26.0519003007
 20
15.5374137286
 10
-26.0442392142
 20
15.5426922732
 10
-26.0367839738
 20
15.5482288155
 10
-26.0295384934
 20
15.5540169643
 10
-26.0224988592
 20
15.5600631108
 10
-26.0156710103
 20
15.5663697868
 10
-26.009065132
 20
15.5729237668
 10
-26.002671039
 20
15.5797382762
 10
-25.9964641143
 20
15.5868555233
 10
-25.9904273083
 20
15.5942913209
 10
-25.9845776705
 20
15.6020298561
 10
-25.9789417332
 20
15.6100658979
 10
-25.9735148728
 20
15.6184050476
 10
-25.9683017128
 20
15.6270417039
 10
-25.9633426566
 20
15.6359538307
 10
-25.9586649851
 20
15.6450710239
 10
-25.9542414174
 20
15.6544636876
 10
-25.9500305144
 20
15.6643209989
 10
-25.9460276059
 20
15.674659335
 10
-25.9422373622
 20
15.6854623186
 10
-25.938632355
 20
15.6968699947
 10
-25.9352006651
 20
15.7089222466
 10
-25.9319542118
 20
15.721579191
 10
-25.9289013248
 20
15.7348612226
 10
-25.9260029697
 20
15.7487810377
 10
-25.923298181
 20
15.76332594
 10
-25.9209123921
 20
15.7784782359
 10
-25.9188364851
 20
15.7944355733
 10
-25.917079578
 20
15.8110003044
 10
-25.9157944585
 20
15.8275617922
 10
-25.915032056
 20
15.8439164912
 10
-25.9147414411
 20
15.8602679469
 10
-25.9149226138
 20
15.8766161594
  0
LINE
  5
35B
100
AcDbEntity
  8
0
100
AcDbLine
 62
7
  6
CONTINUOUS
 10
-19.1387600917
 20
15.3766161594
 11
-19.2738190917
 21
15.3766161594
  0
LINE
  5
35C
100
AcDbEntity
  8
ASSI
100
AcDbLine
 62
7
  6
CONTINUOUS
 10
-19.1387600917
 20
15.3766161594
 11
-19.2738190917
 21
15.3766161594
  0
LINE
  5
35D
100
AcDbEntity
  8
0
100
AcDbLine
 62
7
  6
CONTINUOUS
 10
-19.6971910917
 20
15.3766161594
 11
-20.3393260917
 21
15.3766161594
  0
LINE
  5
35E
100
AcDbEntity
  8
ASSI
100
AcDbLine
 62
7
  6
CONTINUOUS
 10
-19.6971910917
 20
15.3766161594
 11
-20.3393260917
 21
15.3766161594
  0
LINE
  5
35F
100
AcDbEntity
  8
0
100
AcDbLine
 62
7
  6
CONTINUOUS
 10
-20.4632240917
 20
15.3766161594
 11
-20.6108990917
 21
15.3766161594
  0
LINE
  5
360
100
AcDbEntity
  8
ASSI
100
AcDbLine
 62
7
  6
CONTINUOUS
 10
-20.4632240917
 20
15.3766161594
 11
-20.6108990917
 21
15.3766161594
  0
LINE
  5
361
100
AcDbEntity
  8
0
100
AcDbLine
 62
7
  6
CONTINUOUS
 10
-21.2154040917
 20
15.3766161594
 11
-21.3546600917
 21
15.3766161594
  0
LINE
  5
362
100
AcDbEntity
  8
ASSI
100
AcDbLine
 62
7
  6
CONTINUOUS
 10
-21.2154040917
 20
15.3766161594
 11
-21.3546600917
 21
15.3766161594
  0
LINE
  5
363
100
AcDbEntity
  8
0
100
AcDbLine
 62
7
  6
CONTINUOUS
 10
-21.7321120917
 20
15.3766161594
 11
-21.8671950917
 21
15.3766161594
  0
LINE
  5
364
100
AcDbEntity
  8
ASSI
100
AcDbLine
 62
7
  6
CONTINUOUS
 10
-21.7321120917
 20
15.3766161594
 11
-21.8671950917
 21
15.3766161594
  0
LINE
  5
365
100
AcDbEntity
  8
0
100
AcDbLine
 62
7
  6
CONTINUOUS
 10
-22.3505030917
 20
15.3766161594
 11
-22.4856340917
 21
15.3766161594
  0
LINE
  5
366
100
AcDbEntity
  8
ASSI
100
AcDbLine
 62
7
  6
CONTINUOUS
 10
-22.3505030917
 20
15.3766161594
 11
-22.4856340917
 21
15.3766161594
  0
LINE
  5
367
100
AcDbEntity
  8
0
100
AcDbLine
 62
7
  6
CONTINUOUS
 10
-23.1054000917
 20
15.3766161594
 11
-23.2572070917
 21
15.3766161594
  0
LINE
  5
368
100
AcDbEntity
  8
ASSI
100
AcDbLine
 62
7
  6
CONTINUOUS
 10
-23.1054000917
 20
15.3766161594
 11
-23.2572070917
 21
15.3766161594
  0
LINE
  5
369
100
AcDbEntity
  8
0
100
AcDbLine
 62
7
  6
CONTINUOUS
 10
-23.7683680917
 20
15.3766161594
 11
-23.8993420917
 21
15.3766161594
  0
LINE
  5
36A
100
AcDbEntity
  8
ASSI
100
AcDbLine
 62
7
  6
CONTINUOUS
 10
-23.7683680917
 20
15.3766161594
 11
-23.8993420917
 21
15.3766161594
  0
LINE
  5
36B
100
AcDbEntity
  8
0
100
AcDbLine
 62
7
  6
CONTINUOUS
 10
-24.1305110917
 20
15.3766161594
 11
-24.2656020917
 21
15.3766161594
  0
LINE
  5
36C
100
AcDbEntity
  8
ASSI
100
AcDbLine
 62
7
  6
CONTINUOUS
 10
-24.1305110917
 20
15.3766161594
 11
-24.2656020917
 21
15.3766161594
  0
LINE
  5
36D
100
AcDbEntity
  8
0
100
AcDbLine
 62
7
  6
CONTINUOUS
 10
-24.8505920917
 20
15.3766161594
 11
-25.5888050917
 21
15.3766161594
  0
LINE
  5
36E
100
AcDbEntity
  8
ASSI
100
AcDbLine
 62
7
  6
CONTINUOUS
 10
-24.8505920917
 20
15.3766161594
 11
-25.5888050917
 21
15.3766161594
  0
LINE
  5
36F
100
AcDbEntity
  8
0
100
AcDbLine
 62
7
  6
CONTINUOUS
 10
-26.1960670807
 20
15.3766161594
 11
-26.6013800917
 21
15.3766161594
  0
LINE
  5
370
100
AcDbEntity
  8
ASSI
100
AcDbLine
 62
7
  6
CONTINUOUS
 10
-26.1960670807
 20
15.3766161594
 11
-26.6013800917
 21
15.3766161594
  0
LINE
  5
371
100
AcDbEntity
  8
0
100
AcDbLine
 62
7
  6
CONTINUOUS
 10
-26.7322900917
 20
15.3766161594
 11
-26.8799410917
 21
15.3766161594
  0
LINE
  5
372
100
AcDbEntity
  8
ASSI
100
AcDbLine
 62
7
  6
CONTINUOUS
 10
-26.7322900917
 20
15.3766161594
 11
-26.8799410917
 21
15.3766161594
  0
LINE
  5
373
100
AcDbEntity
  8
0
100
AcDbLine
 62
7
  6
CONTINUOUS
 10
-27.7434350917
 20
15.3766161594
 11
-27.8744010917
 21
15.3766161594
  0
LINE
  5
374
100
AcDbEntity
  8
0
100
AcDbLine
 62
7
  6
CONTINUOUS
 10
-27.4843890917
 20
15.3766161594
 11
-27.6236530917
 21
15.3766161594
  0
LINE
  5
375
100
AcDbEntity
  8
ASSI
100
AcDbLine
 62
7
  6
CONTINUOUS
 10
-27.7434350917
 20
15.3766161594
 11
-27.8744010917
 21
15.3766161594
  0
LINE
  5
376
100
AcDbEntity
  8
ASSI
100
AcDbLine
 62
7
  6
CONTINUOUS
 10
-27.4843890917
 20
15.3766161594
 11
-27.6236530917
 21
15.3766161594
  0
LINE
  5
377
100
AcDbEntity
  8
0
100
AcDbLine
 62
7
  6
CONTINUOUS
 10
-28.1557080917
 20
15.3766161594
 11
-28.2894180917
 21
15.3766161594
  0
LINE
  5
378
100
AcDbEntity
  8
ASSI
100
AcDbLine
 62
7
  6
CONTINUOUS
 10
-28.1557080917
 20
15.3766161594
 11
-28.2894180917
 21
15.3766161594
  0
LINE
  5
379
100
AcDbEntity
  8
0
100
AcDbLine
 62
7
  6
CONTINUOUS
 10
-28.5707790917
 20
15.3766161594
 11
-28.7016930917
 21
15.3766161594
  0
LINE
  5
37A
100
AcDbEntity
  8
ASSI
100
AcDbLine
 62
7
  6
CONTINUOUS
 10
-28.5707790917
 20
15.3766161594
 11
-28.7016930917
 21
15.3766161594
  0
LINE
  5
37B
100
AcDbEntity
  8
0
100
AcDbLine
 62
7
  6
CONTINUOUS
 10
-26.4662410917
 20
15.4921841594
 11
-26.199506867
 21
15.4921841594
  0
LINE
  5
37C
100
AcDbEntity
  8
ASSI
100
AcDbLine
 62
7
  6
CONTINUOUS
 10
-26.4662410917
 20
15.4921841594
 11
-26.199506867
 21
15.4921841594
  0
LINE
  5
37D
100
AcDbEntity
  8
0
100
AcDbLine
 62
7
  6
CONTINUOUS
 10
-25.4536730917
 20
15.4963901594
 11
-24.8505920917
 21
15.4963901594
  0
LINE
  5
37E
100
AcDbEntity
  8
ASSI
100
AcDbLine
 62
7
  6
CONTINUOUS
 10
-25.4536730917
 20
15.4963901594
 11
-24.8505920917
 21
15.4963901594
  0
LINE
  5
37F
100
AcDbEntity
  8
0
100
AcDbLine
 62
7
  6
CONTINUOUS
 10
-20.2041870917
 20
15.4963901594
 11
-19.6971910917
 21
15.4963901594
  0
LINE
  5
380
100
AcDbEntity
  8
ASSI
100
AcDbLine
 62
7
  6
CONTINUOUS
 10
-20.2041870917
 20
15.4963901594
 11
-19.6971910917
 21
15.4963901594
  0
LINE
  5
381
100
AcDbEntity
  8
0
100
AcDbLine
 62
7
  6
CONTINUOUS
 10
-20.7097830917
 20
15.6676791594
 11
-21.1109230917
 21
15.6676791594
  0
LINE
  5
382
100
AcDbEntity
  8
ASSI
100
AcDbLine
 62
7
  6
CONTINUOUS
 10
-20.7097830917
 20
15.6676791594
 11
-21.1109230917
 21
15.6676791594
  0
LINE
  5
383
100
AcDbEntity
  8
0
100
AcDbLine
 62
7
  6
CONTINUOUS
 10
-26.9788170917
 20
15.6676791594
 11
-27.3799170917
 21
15.6676791594
  0
LINE
  5
384
100
AcDbEntity
  8
ASSI
100
AcDbLine
 62
7
  6
CONTINUOUS
 10
-26.9788170917
 20
15.6676791594
 11
-27.3799170917
 21
15.6676791594
  0
LINE
  5
385
100
AcDbEntity
  8
0
100
AcDbLine
 62
7
  6
CONTINUOUS
 10
-27.3381210917
 20
15.7874531594
 11
-27.0275270917
 21
15.7874531594
  0
LINE
  5
386
100
AcDbEntity
  8
ASSI
100
AcDbLine
 62
7
  6
CONTINUOUS
 10
-27.3381210917
 20
15.7874531594
 11
-27.0275270917
 21
15.7874531594
  0
LINE
  5
387
100
AcDbEntity
  8
0
100
AcDbLine
 62
7
  6
CONTINUOUS
 10
-21.0691360917
 20
15.7874531594
 11
-20.7585420917
 21
15.7874531594
  0
LINE
  5
388
100
AcDbEntity
  8
ASSI
100
AcDbLine
 62
7
  6
CONTINUOUS
 10
-21.0691360917
 20
15.7874531594
 11
-20.7585420917
 21
15.7874531594
  0
LINE
  5
389
100
AcDbEntity
  8
0
100
AcDbLine
 62
7
  6
CONTINUOUS
 10
-24.9063140917
 20
15.8306391594
 11
-25.4536730917
 21
15.8306391594
  0
LINE
  5
38A
100
AcDbEntity
  8
ASSI
100
AcDbLine
 62
7
  6
CONTINUOUS
 10
-24.9063140917
 20
15.8306391594
 11
-25.4536730917
 21
15.8306391594
  0
LINE
  5
38B
100
AcDbEntity
  8
0
100
AcDbLine
 62
7
  6
CONTINUOUS
 10
-25.4536730917
 20
15.9504131594
 11
-24.9063140917
 21
15.9504131594
  0
LINE
  5
38C
100
AcDbEntity
  8
ASSI
100
AcDbLine
 62
7
  6
CONTINUOUS
 10
-25.4536730917
 20
15.9504131594
 11
-24.9063140917
 21
15.9504131594
  0
LINE
  5
38D
100
AcDbEntity
  8
0
100
AcDbLine
 62
7
  6
CONTINUOUS
 10
-3.3814680917
 20
16.1266161594
 11
-3.7814680917
 21
16.1266161594
  0
LINE
  5
38E
100
AcDbEntity
  8
ASSI
100
AcDbLine
 62
7
  6
CONTINUOUS
 10
-3.3814680917
 20
16.1266161594
 11
-3.7814680917
 21
16.1266161594
  0
LINE
  5
38F
100
AcDbEntity
  8
0
100
AcDbLine
 62
7
  6
CONTINUOUS
 10
-43.6814680917
 20
16.1266161594
 11
-44.0814680917
 21
16.1266161594
  0
LINE
  5
390
100
AcDbEntity
  8
ASSI
100
AcDbLine
 62
7
  6
CONTINUOUS
 10
-43.6814680917
 20
16.1266161594
 11
-44.0814680917
 21
16.1266161594
  0
LINE
  5
391
100
AcDbEntity
  8
0
100
AcDbLine
 62
7
  6
CONTINUOUS
 10
-21.3936570917
 20
16.2568421594
 11
-21.7321120917
 21
16.2568421594
  0
LINE
  5
392
100
AcDbEntity
  8
ASSI
100
AcDbLine
 62
7
  6
CONTINUOUS
 10
-21.3936570917
 20
16.2568421594
 11
-21.7321120917
 21
16.2568421594
  0
LINE
  5
393
100
AcDbEntity
  8
0
100
AcDbLine
 62
7
  6
CONTINUOUS
 10
-21.8671950917
 20
16.2568421594
 11
-22.2056500917
 21
16.2568421594
  0
LINE
  5
394
100
AcDbEntity
  8
ASSI
100
AcDbLine
 62
7
  6
CONTINUOUS
 10
-21.8671950917
 20
16.2568421594
 11
-22.2056500917
 21
16.2568421594
  0
LINE
  5
395
100
AcDbEntity
  8
0
100
AcDbLine
 62
7
  6
CONTINUOUS
 10
-24.8603530917
 20
16.2568421594
 11
-25.4536730917
 21
16.2568421594
  0
LINE
  5
396
100
AcDbEntity
  8
ASSI
100
AcDbLine
 62
7
  6
CONTINUOUS
 10
-24.8603530917
 20
16.2568421594
 11
-25.4536730917
 21
16.2568421594
  0
LINE
  5
397
100
AcDbEntity
  8
0
100
AcDbLine
 62
7
  6
CONTINUOUS
 10
-26.199506867
 20
16.2610481594
 11
-26.4662410917
 21
16.2610481594
  0
LINE
  5
398
100
AcDbEntity
  8
ASSI
100
AcDbLine
 62
7
  6
CONTINUOUS
 10
-26.199506867
 20
16.2610481594
 11
-26.4662410917
 21
16.2610481594
  0
LINE
  5
399
100
AcDbEntity
  8
0
100
AcDbLine
 62
7
  6
CONTINUOUS
 10
-28.7016930917
 20
16.3766161594
 11
-28.5080910917
 21
16.3766161594
  0
LINE
  5
39A
100
AcDbEntity
  8
ASSI
100
AcDbLine
 62
7
  6
CONTINUOUS
 10
-28.7016930917
 20
16.3766161594
 11
-28.5080910917
 21
16.3766161594
  0
LINE
  5
39B
100
AcDbEntity
  8
0
100
AcDbLine
 62
7
  6
CONTINUOUS
 10
-27.9356630917
 20
16.3766161594
 11
-27.7434350917
 21
16.3766161594
  0
LINE
  5
39C
100
AcDbEntity
  8
ASSI
100
AcDbLine
 62
7
  6
CONTINUOUS
 10
-27.9356630917
 20
16.3766161594
 11
-27.7434350917
 21
16.3766161594
  0
LINE
  5
39D
100
AcDbEntity
  8
0
100
AcDbLine
 62
7
  6
CONTINUOUS
 10
-27.2476240917
 20
16.3766161594
 11
-27.0943930917
 21
16.3766161594
  0
LINE
  5
39E
100
AcDbEntity
  8
ASSI
100
AcDbLine
 62
7
  6
CONTINUOUS
 10
-27.2476240917
 20
16.3766161594
 11
-27.0943930917
 21
16.3766161594
  0
LINE
  5
39F
100
AcDbEntity
  8
0
100
AcDbLine
 62
7
  6
CONTINUOUS
 10
-26.6013800917
 20
16.3766161594
 11
-26.191815307
 21
16.3766161594
  0
LINE
  5
3A0
100
AcDbEntity
  8
ASSI
100
AcDbLine
 62
7
  6
CONTINUOUS
 10
-26.6013800917
 20
16.3766161594
 11
-26.191815307
 21
16.3766161594
  0
LINE
  5
3A1
100
AcDbEntity
  8
0
100
AcDbLine
 62
7
  6
CONTINUOUS
 10
-25.5888050917
 20
16.3766161594
 11
-24.8603530917
 21
16.3766161594
  0
LINE
  5
3A2
100
AcDbEntity
  8
ASSI
100
AcDbLine
 62
7
  6
CONTINUOUS
 10
-25.5888050917
 20
16.3766161594
 11
-24.8603530917
 21
16.3766161594
  0
LINE
  5
3A3
100
AcDbEntity
  8
0
100
AcDbLine
 62
7
  6
CONTINUOUS
 10
-24.2656020917
 20
16.3766161594
 11
-24.1305110917
 21
16.3766161594
  0
LINE
  5
3A4
100
AcDbEntity
  8
ASSI
100
AcDbLine
 62
7
  6
CONTINUOUS
 10
-24.2656020917
 20
16.3766161594
 11
-24.1305110917
 21
16.3766161594
  0
LINE
  5
3A5
100
AcDbEntity
  8
0
100
AcDbLine
 62
7
  6
CONTINUOUS
 10
-23.8993420917
 20
16.3766161594
 11
-23.7391400917
 21
16.3766161594
  0
LINE
  5
3A6
100
AcDbEntity
  8
ASSI
100
AcDbLine
 62
7
  6
CONTINUOUS
 10
-23.8993420917
 20
16.3766161594
 11
-23.7391400917
 21
16.3766161594
  0
LINE
  5
3A7
100
AcDbEntity
  8
0
100
AcDbLine
 62
7
  6
CONTINUOUS
 10
-23.2363100917
 20
16.3766161594
 11
-23.1054000917
 21
16.3766161594
  0
LINE
  5
3A8
100
AcDbEntity
  8
ASSI
100
AcDbLine
 62
7
  6
CONTINUOUS
 10
-23.2363100917
 20
16.3766161594
 11
-23.1054000917
 21
16.3766161594
  0
LINE
  5
3A9
100
AcDbEntity
  8
0
100
AcDbLine
 62
7
  6
CONTINUOUS
 10
-22.4856340917
 20
16.3766161594
 11
-22.3505030917
 21
16.3766161594
  0
LINE
  5
3AA
100
AcDbEntity
  8
ASSI
100
AcDbLine
 62
7
  6
CONTINUOUS
 10
-22.4856340917
 20
16.3766161594
 11
-22.3505030917
 21
16.3766161594
  0
LINE
  5
3AB
100
AcDbEntity
  8
0
100
AcDbLine
 62
7
  6
CONTINUOUS
 10
-22.2056500917
 20
16.3766161594
 11
-21.3936570917
 21
16.3766161594
  0
LINE
  5
3AC
100
AcDbEntity
  8
ASSI
100
AcDbLine
 62
7
  6
CONTINUOUS
 10
-22.2056500917
 20
16.3766161594
 11
-21.3936570917
 21
16.3766161594
  0
LINE
  5
3AD
100
AcDbEntity
  8
0
100
AcDbLine
 62
7
  6
CONTINUOUS
 10
-20.9785820917
 20
16.3766161594
 11
-20.8254000917
 21
16.3766161594
  0
LINE
  5
3AE
100
AcDbEntity
  8
ASSI
100
AcDbLine
 62
7
  6
CONTINUOUS
 10
-20.9785820917
 20
16.3766161594
 11
-20.8254000917
 21
16.3766161594
  0
LINE
  5
3AF
100
AcDbEntity
  8
0
100
AcDbLine
 62
7
  6
CONTINUOUS
 10
-20.3393260917
 20
16.3766161594
 11
-20.2041870917
 21
16.3766161594
  0
LINE
  5
3B0
100
AcDbEntity
  8
ASSI
100
AcDbLine
 62
7
  6
CONTINUOUS
 10
-20.3393260917
 20
16.3766161594
 11
-20.2041870917
 21
16.3766161594
  0
LINE
  5
3B1
100
AcDbEntity
  8
0
100
AcDbLine
 62
7
  6
CONTINUOUS
 10
-19.6512550917
 20
16.3766161594
 11
-19.4938750917
 21
16.3766161594
  0
LINE
  5
3B2
100
AcDbEntity
  8
ASSI
100
AcDbLine
 62
7
  6
CONTINUOUS
 10
-19.6512550917
 20
16.3766161594
 11
-19.4938750917
 21
16.3766161594
  0
LINE
  5
3B3
100
AcDbEntity
  8
0
100
AcDbLine
 62
7
  6
CONTINUOUS
 10
-18.9200780917
 20
16.3766161594
 11
-18.7612430917
 21
16.3766161594
  0
LINE
  5
3B4
100
AcDbEntity
  8
ASSI
100
AcDbLine
 62
7
  6
CONTINUOUS
 10
-18.9200780917
 20
16.3766161594
 11
-18.7612430917
 21
16.3766161594
  0
LWPOLYLINE
  5
3B5
100
AcDbEntity
  8
0
100
AcDbPolyline
 62
7
  6
CONTINUOUS
 90
52
 70
0
 10
-26.191815307
 20
16.3766161594
 10
-26.1769924707
 20
16.3762995372
 10
-26.1623776431
 20
16.3755457562
 10
-26.1479708243
 20
16.3743548165
 10
-26.1337522479
 20
16.3727143812
 10
-26.1197416803
 20
16.370636787
 10
-26.1059984208
 20
16.3681590449
 10
-26.0925177228
 20
16.3652756353
 10
-26.0793043329
 20
16.3619920776
 10
-26.0664317914
 20
16.3583619407
 10
-26.0539020829
 20
16.3543809238
 10
-26.0417132227
 20
16.3500533277
 10
-26.0299327973
 20
16.3454456229
 10
-26.018603338
 20
16.340577551
 10
-26.0076823134
 20
16.3354293703
 10
-25.997109715
 20
16.330008326
 10
-25.9869480335
 20
16.3243695591
 10
-25.9771347783
 20
16.3184579287
 10
-25.9674224686
 20
16.3121152569
 10
-25.9578183191
 20
16.3053742861
 10
-25.9483151153
 20
16.298202274
 10
-25.9386437326
 20
16.2903428159
 10
-25.928575848
 20
16.2815926958
 10
-25.9183397845
 20
16.2721551298
 10
-25.9083513877
 20
16.2623833609
 10
-25.8986099397
 20
16.2522364831
 10
-25.8891161584
 20
16.2417554025
 10
-25.8802880424
 20
16.2314160803
 10
-25.8723612478
 20
16.2214964596
 10
-25.8651001185
 20
16.2117185974
 10
-25.8582156844
 20
16.2017246251
 10
-25.8516874406
 20
16.191525024
 10
-25.8455358921
 20
16.1811093129
 10
-25.839533584
 20
16.1700881793
 10
-25.8336226408
 20
16.1583758595
 10
-25.827860938
 20
16.1460581172
 10
-25.8221946471
 20
16.1330029308
 10
-25.8165406041
 20
16.1190683239
 10
-25.8109819729
 20
16.1043962731
 10
-25.8057144167
 20
16.0892806863
 10
-25.8007308017
 20
16.0736858865
 10
-25.7960382616
 20
16.0576475508
 10
-25.7918538606
 20
16.0415666185
 10
-25.7882780473
 20
16.0257936986
 10
-25.7852103731
 20
16.0099781819
 10
-25.7825665557
 20
15.9934691806
 10
-25.7803007175
 20
15.9761213638
 10
-25.7784587362
 20
15.9580800623
 10
-25.7770939618
 20
15.9391303806
 10
-25.7762241779
 20
15.919200687
 10
-25.7758316011
 20
15.8983626133
 10
-25.7759162312
 20
15.8766161594
  0
LWPOLYLINE
  5
3B6
100
AcDbEntity
  8
ASSI
100
AcDbPolyline
 62
7
  6
CONTINUOUS
 90
52
 70
0
 10
-26.191815307
 20
16.3766161594
 10
-26.1769924707
 20
16.3762995372
 10
-26.1623776431
 20
16.3755457562
 10
-26.1479708243
 20
16.3743548165
 10
-26.1337522479
 20
16.3727143812
 10
-26.1197416803
 20
16.370636787
 10
-26.1059984208
 20
16.3681590449
 10
-26.0925177228
 20
16.3652756353
 10
-26.0793043329
 20
16.3619920776
 10
-26.0664317914
 20
16.3583619407
 10
-26.0539020829
 20
16.3543809238
 10
-26.0417132227
 20
16.3500533277
 10
-26.0299327973
 20
16.3454456229
 10
-26.018603338
 20
16.340577551
 10
-26.0076823134
 20
16.3354293703
 10
-25.997109715
 20
16.330008326
 10
-25.9869480335
 20
16.3243695591
 10
-25.9771347783
 20
16.3184579287
 10
-25.9674224686
 20
16.3121152569
 10
-25.9578183191
 20
16.3053742861
 10
-25.9483151153
 20
16.298202274
 10
-25.9386437326
 20
16.2903428159
 10
-25.928575848
 20
16.2815926958
 10
-25.9183397845
 20
16.2721551298
 10
-25.9083513877
 20
16.2623833609
 10
-25.8986099397
 20
16.2522364831
 10
-25.8891161584
 20
16.2417554025
 10
-25.8802880424
 20
16.2314160803
 10
-25.8723612478
 20
16.2214964596
 10
-25.8651001185
 20
16.2117185974
 10
-25.8582156844
 20
16.2017246251
 10
-25.8516874406
 20
16.191525024
 10
-25.8455358921
 20
16.1811093129
 10
-25.839533584
 20
16.1700881793
 10
-25.8336226408
 20
16.1583758595
 10
-25.827860938
 20
16.1460581172
 10
-25.8221946471
 20
16.1330029308
 10
-25.8165406041
 20
16.1190683239
 10
-25.8109819729
 20
16.1043962731
 10
-25.8057144167
 20
16.0892806863
 10
-25.8007308017
 20
16.0736858865
 10
-25.7960382616
 20
16.0576475508
 10
-25.7918538606
 20
16.0415666185
 10
-25.7882780473
 20
16.0257936986
 10
-25.7852103731
 20
16.0099781819
 10
-25.7825665557
 20
15.9934691806
 10
-25.7803007175
 20
15.9761213638
 10
-25.7784587362
 20
15.9580800623
 10
-25.7770939618
 20
15.9391303806
 10
-25.7762241779
 20
15.919200687
 10
-25.7758316011
 20
15.8983626133
 10
-25.7759162312
 20
15.8766161594
  0
LINE
  5
3B7
100
AcDbEntity
  8
0
100
AcDbLine
 62
7
  6
CONTINUOUS
 10
-6.8814680917
 20
17.6766161594
 11
-18.4706985762
 21
17.6766161594
  0
LINE
  5
3B8
100
AcDbEntity
  8
ASSI
100
AcDbLine
 62
7
  6
CONTINUOUS
 10
-6.8814680917
 20
17.6766161594
 11
-18.4706985762
 21
17.6766161594
  0
LINE
  5
3B9
100
AcDbEntity
  8
0
100
AcDbLine
 62
7
  6
CONTINUOUS
 10
-28.9922376071
 20
17.6766161594
 11
-40.5814680917
 21
17.6766161594
  0
LINE
  5
3BA
100
AcDbEntity
  8
ASSI
100
AcDbLine
 62
7
  6
CONTINUOUS
 10
-28.9922376071
 20
17.6766161594
 11
-40.5814680917
 21
17.6766161594
  0
LINE
  5
3BB
100
AcDbEntity
  8
0
100
AcDbLine
 62
7
  6
CONTINUOUS
 10
-19.2738190917
 20
15.7791231594
 11
-19.6512550917
 21
16.3766161594
  0
LINE
  5
3BC
100
AcDbEntity
  8
ASSI
100
AcDbLine
 62
7
  6
CONTINUOUS
 10
-19.2738190917
 20
15.7791231594
 11
-19.6512550917
 21
16.3766161594
  0
LINE
  5
3BD
100
AcDbEntity
  8
0
100
AcDbLine
 62
7
  6
CONTINUOUS
 10
-19.4938750917
 20
16.3766161594
 11
-19.2069360917
 21
15.8960661594
  0
LINE
  5
3BE
100
AcDbEntity
  8
ASSI
100
AcDbLine
 62
7
  6
CONTINUOUS
 10
-19.4938750917
 20
16.3766161594
 11
-19.2069360917
 21
15.8960661594
  0
LINE
  5
3BF
100
AcDbEntity
  8
0
100
AcDbLine
 62
7
  6
CONTINUOUS
 10
-3.3814680917
 20
18.6266161594
 11
-3.4314680917
 21
18.6266161594
  0
LINE
  5
3C0
100
AcDbEntity
  8
ASSI
100
AcDbLine
 62
7
  6
CONTINUOUS
 10
-3.3814680917
 20
18.6266161594
 11
-3.4314680917
 21
18.6266161594
  0
LINE
  5
3C1
100
AcDbEntity
  8
0
100
AcDbLine
 62
7
  6
CONTINUOUS
 10
-44.0314680917
 20
18.6266161594
 11
-44.0814680917
 21
18.6266161594
  0
LINE
  5
3C2
100
AcDbEntity
  8
ASSI
100
AcDbLine
 62
7
  6
CONTINUOUS
 10
-44.0314680917
 20
18.6266161594
 11
-44.0814680917
 21
18.6266161594
  0
LINE
  5
3C3
100
AcDbEntity
  8
0
100
AcDbLine
 62
7
  6
CONTINUOUS
 10
-40.5814680917
 20
18.6766161594
 11
-28.9922376071
 21
18.6766161594
  0
LINE
  5
3C4
100
AcDbEntity
  8
ASSI
100
AcDbLine
 62
7
  6
CONTINUOUS
 10
-40.5814680917
 20
18.6766161594
 11
-28.9922376071
 21
18.6766161594
  0
LINE
  5
3C5
100
AcDbEntity
  8
0
100
AcDbLine
 62
7
  6
CONTINUOUS
 10
-18.4706985762
 20
18.6766161594
 11
-6.8814680917
 21
18.6766161594
  0
LINE
  5
3C6
100
AcDbEntity
  8
ASSI
100
AcDbLine
 62
7
  6
CONTINUOUS
 10
-18.4706985762
 20
18.6766161594
 11
-6.8814680917
 21
18.6766161594
  0
LINE
  5
3C7
100
AcDbEntity
  8
ASSI
100
AcDbLine
 62
7
  6
CONTINUOUS
 10
-3.3814680917
 20
19.7766161594
 11
-44.0814680917
 21
19.7766161594
  0
LINE
  5
3C8
100
AcDbEntity
  8
0
100
AcDbLine
 62
7
  6
CONTINUOUS
 10
-13.3314680917
 20
19.7766161594
 11
-13.3314680917
 21
18.6766161594
  0
LINE
  5
3C9
100
AcDbEntity
  8
ASSI
100
AcDbLine
 62
7
  6
CONTINUOUS
 10
-13.3314680917
 20
19.7766161594
 11
-13.3314680917
 21
18.6766161594
  0
LINE
  5
3CA
100
AcDbEntity
  8
0
100
AcDbLine
 62
7
  6
CONTINUOUS
 10
-13.3314680917
 20
-0.0233838406
 11
-13.3314680917
 21
1.0766161594
  0
LINE
  5
3CB
100
AcDbEntity
  8
ASSI
100
AcDbLine
 62
7
  6
CONTINUOUS
 10
-13.3314680917
 20
-0.0233838406
 11
-13.3314680917
 21
1.0766161594
  0
LINE
  5
3CC
100
AcDbEntity
  8
0
100
AcDbLine
 62
7
  6
CONTINUOUS
 10
-23.8814680917
 20
20.5765552282
 11
-23.5814680917
 21
20.5765552282
  0
LINE
  5
3CD
100
AcDbEntity
  8
ASSI
100
AcDbLine
 62
7
  6
CONTINUOUS
 10
-23.8814680917
 20
20.5765552282
 11
-23.5814680917
 21
20.5765552282
  0
LINE
  5
3CE
100
AcDbEntity
  8
RACCORDO
100
AcDbLine
 62
7
  6
CONTINUOUS
 10
-2.6813462478
 20
20.9766161594
 11
-23.3814680917
 21
20.9766161594
  0
LINE
  5
3CF
100
AcDbEntity
  8
ASSI
100
AcDbLine
 62
7
  6
CONTINUOUS
 10
-2.6813462478
 20
20.9766161594
 11
-23.3814680917
 21
20.9766161594
  0
LINE
  5
3D0
100
AcDbEntity
  8
RACCORDO
100
AcDbLine
 62
7
  6
CONTINUOUS
 10
-24.0814680917
 20
20.9766161594
 11
-44.7815899355
 21
20.9766161594
  0
LINE
  5
3D1
100
AcDbEntity
  8
ASSI
100
AcDbLine
 62
7
  6
CONTINUOUS
 10
-24.0814680917
 20
20.9766161594
 11
-44.7815899355
 21
20.9766161594
  0
LINE
  5
3D2
100
AcDbEntity
  8
0
100
AcDbLine
 62
7
  6
CONTINUOUS
 10
-8.3314680917
 20
19.7766161594
 11
-8.3314680917
 21
18.6766161594
  0
LINE
  5
3D3
100
AcDbEntity
  8
ASSI
100
AcDbLine
 62
7
  6
CONTINUOUS
 10
-8.3314680917
 20
19.7766161594
 11
-8.3314680917
 21
18.6766161594
  0
LINE
  5
3D4
100
AcDbEntity
  8
0
100
AcDbLine
 62
7
  6
CONTINUOUS
 10
-8.3314680917
 20
-0.0233838406
 11
-8.3314680917
 21
1.0766161594
  0
LINE
  5
3D5
100
AcDbEntity
  8
ASSI
100
AcDbLine
 62
7
  6
CONTINUOUS
 10
-8.3314680917
 20
-0.0233838406
 11
-8.3314680917
 21
1.0766161594
  0
LINE
  5
3D6
100
AcDbEntity
  8
0
100
AcDbLine
 62
7
  6
CONTINUOUS
 10
-6.8814680917
 20
19.7766161594
 11
-6.8814680917
 21
18.6766161594
  0
LINE
  5
3D7
100
AcDbEntity
  8
ASSI
100
AcDbLine
 62
7
  6
CONTINUOUS
 10
-6.8814680917
 20
19.7766161594
 11
-6.8814680917
 21
18.6766161594
  0
LINE
  5
3D8
100
AcDbEntity
  8
0
100
AcDbLine
 62
7
  6
CONTINUOUS
 10
-6.8814680917
 20
17.6766161594
 11
-6.8814680917
 21
2.0766161594
  0
LINE
  5
3D9
100
AcDbEntity
  8
ASSI
100
AcDbLine
 62
7
  6
CONTINUOUS
 10
-6.8814680917
 20
17.6766161594
 11
-6.8814680917
 21
2.0766161594
  0
LINE
  5
3DA
100
AcDbEntity
  8
0
100
AcDbLine
 62
7
  6
CONTINUOUS
 10
-6.8814680917
 20
1.0766161594
 11
-6.8814680917
 21
-0.0233838406
  0
LINE
  5
3DB
100
AcDbEntity
  8
ASSI
100
AcDbLine
 62
7
  6
CONTINUOUS
 10
-6.8814680917
 20
1.0766161594
 11
-6.8814680917
 21
-0.0233838406
  0
LINE
  5
3DC
100
AcDbEntity
  8
0
100
AcDbLine
 62
7
  6
CONTINUOUS
 10
-3.4314680917
 20
18.6266161594
 11
-3.7814680917
 21
16.6416675225
  0
LINE
  5
3DD
100
AcDbEntity
  8
ASSI
100
AcDbLine
 62
7
  6
CONTINUOUS
 10
-3.4314680917
 20
18.6266161594
 11
-3.7814680917
 21
16.6416675225
  0
LINE
  5
3DE
100
AcDbEntity
  8
0
100
AcDbLine
 62
7
  6
CONTINUOUS
 10
-3.7814680917
 20
3.1115647962
 11
-3.4314680917
 21
1.1266161594
  0
LINE
  5
3DF
100
AcDbEntity
  8
ASSI
100
AcDbLine
 62
7
  6
CONTINUOUS
 10
-3.7814680917
 20
3.1115647962
 11
-3.4314680917
 21
1.1266161594
  0
LINE
  5
3E0
100
AcDbEntity
  8
0
100
AcDbLine
 62
7
  6
CONTINUOUS
 10
-3.7814680917
 20
16.6416675225
 11
-3.7814680917
 21
16.1266161594
  0
LINE
  5
3E1
100
AcDbEntity
  8
ASSI
100
AcDbLine
 62
7
  6
CONTINUOUS
 10
-3.7814680917
 20
16.6416675225
 11
-3.7814680917
 21
16.1266161594
  0
LINE
  5
3E2
100
AcDbEntity
  8
0
100
AcDbLine
 62
7
  6
CONTINUOUS
 10
-3.7814680917
 20
3.6266161594
 11
-3.7814680917
 21
3.1115647962
  0
LINE
  5
3E3
100
AcDbEntity
  8
ASSI
100
AcDbLine
 62
7
  6
CONTINUOUS
 10
-3.7814680917
 20
3.6266161594
 11
-3.7814680917
 21
3.1115647962
  0
LINE
  5
3E4
100
AcDbEntity
  8
0
100
AcDbLine
 62
7
  6
CONTINUOUS
 10
-3.3814680917
 20
19.7766161594
 11
-3.3814680917
 21
-0.0233838406
  0
LINE
  5
3E5
100
AcDbEntity
  8
ASSI
100
AcDbLine
 62
7
  6
CONTINUOUS
 10
-3.3814680917
 20
19.7766161594
 11
-3.3814680917
 21
-0.0233838406
  0
LINE
  5
3E6
100
AcDbEntity
  8
RACCORDO
100
AcDbLine
 62
7
  6
CONTINUOUS
 10
-1.8814680917
 20
20.1767380032
 11
-1.8814680917
 21
-0.4235056845
  0
LINE
  5
3E7
100
AcDbEntity
  8
ASSI
100
AcDbLine
 62
7
  6
CONTINUOUS
 10
-1.8814680917
 20
20.1767380032
 11
-1.8814680917
 21
-0.4235056845
  0
CIRCLE
  5
3E8
100
AcDbEntity
  8
DRAFT
100
AcDbCircle
 62
7
  6
CONTINUOUS
 10
-23.7314680917
 20
9.8766161594
 40
2.75
  0
CIRCLE
  5
3E9
100
AcDbEntity
  8
ASSI
100
AcDbCircle
 62
7
  6
CONTINUOUS
 10
-23.7314680917
 20
9.8766161594
 40
2.75
  0
CIRCLE
  5
3EA
100
AcDbEntity
  8
RACCORDO
100
AcDbCircle
 62
253
  6
CONTINUOUS
 10
-23.7314680917
 20
9.8766161594
 40
2.7447296094
  0
CIRCLE
  5
3EB
100
AcDbEntity
  8
ASSI
100
AcDbCircle
 62
7
  6
CONTINUOUS
 10
-23.7314680917
 20
9.8766161594
 40
2.7447296094
  0
CIRCLE
  5
3EC
100
AcDbEntity
  8
RACCORDO
100
AcDbCircle
 62
253
  6
CONTINUOUS
 10
-23.7314680917
 20
9.8766161594
 40
2.2947467435
  0
CIRCLE
  5
3ED
100
AcDbEntity
  8
ASSI
100
AcDbCircle
 62
253
  6
CONTINUOUS
 10
-23.7314680917
 20
9.8766161594
 40
2.2947467435
  0
CIRCLE
  5
3EE
100
AcDbEntity
  8
0
100
AcDbCircle
 62
7
  6
CONTINUOUS
 10
-23.7314680917
 20
9.8766161594
 40
1.775
  0
CIRCLE
  5
3EF
100
AcDbEntity
  8
ASSI
100
AcDbCircle
 62
7
  6
CONTINUOUS
 10
-23.7314680917
 20
9.8766161594
 40
1.775
  0
CIRCLE
  5
3F0
100
AcDbEntity
  8
0
100
AcDbCircle
 62
7
  6
CONTINUOUS
 10
-23.7314680917
 20
9.8766161594
 40
1.7
  0
CIRCLE
  5
3F1
100
AcDbEntity
  8
ASSI
100
AcDbCircle
 62
7
  6
CONTINUOUS
 10
-23.7314680917
 20
9.8766161594
 40
1.7
  0
CIRCLE
  5
3F2
100
AcDbEntity
  8
DRAFT
100
AcDbCircle
 62
7
  6
CONTINUOUS
 10
-23.7314680917
 20
9.8766161594
 40
1.25
  0
CIRCLE
  5
3F3
100
AcDbEntity
  8
DRAFT
100
AcDbCircle
 62
7
  6
CONTINUOUS
 10
-23.7314680917
 20
9.8766161594
 40
1.2185839459
  0
ARC
  5
3F4
100
AcDbEntity
  8
ASSI
100
AcDbCircle
 62
7
  6
CONTINUOUS
 10
-20.7454250917
 20
14.0206681594
 40
0.5060329798
100
AcDbArc
 50
292.8428678398
 51
89.9955400795
  0
ARC
  5
3F5
100
AcDbEntity
  8
ASSI
100
AcDbCircle
 62
7
  6
CONTINUOUS
 10
-20.7912300917
 20
14.0206681594
 40
0.200769
100
AcDbArc
 50
270.0045360333
 51
89.9954639667
  0
ELLIPSE
  5
3F6
100
AcDbEntity
  8
RACCORDO
100
AcDbEllipse
 62
7
  6
CONTINUOUS
 10
-23.3814680917
 20
-1.023353375
 30
0.0
 11
-0.0
 21
0.2000304656
 31
0.0
 40
0.9998476952
 41
1.5707963268
 42
3.1415926536
  0
ELLIPSE
  5
3F7
100
AcDbEntity
  8
RACCORDO
100
AcDbEllipse
 62
7
  6
CONTINUOUS
 10
-23.3814680917
 20
20.7765856938
 30
0.0
 11
-0.0
 21
0.2000304656
 31
0.0
 40
0.9998476952
 41
-0.0
 42
1.5707963268
  0
ELLIPSE
  5
3F8
100
AcDbEntity
  8
RACCORDO
100
AcDbEllipse
 62
7
  6
CONTINUOUS
 10
-24.0814680917
 20
20.7765856938
 30
0.0
 11
0.0
 21
-0.2000304656
 31
0.0
 40
0.9998476952
 41
1.5707963268
 42
3.1415926536
  0
ELLIPSE
  5
3F9
100
AcDbEntity
  8
RACCORDO
100
AcDbEllipse
 62
7
  6
CONTINUOUS
 10
-24.0814680917
 20
-1.023353375
 30
0.0
 11
0.0
 21
-0.2000304656
 31
0.0
 40
0.9998476952
 41
-0.0
 42
1.5707963268
  0
ELLIPSE
  5
3FA
100
AcDbEntity
  8
RACCORDO
100
AcDbEllipse
 62
7
  6
CONTINUOUS
 10
-44.7813462292
 20
-0.4232619782
 30
0.0
 11
0.5658577513
 21
0.5658577513
 31
0.0
 40
0.9996954599
 41
2.3563467834
 42
3.9268385237
  0
ELLIPSE
  5
3FB
100
AcDbEntity
  8
RACCORDO
100
AcDbEllipse
 62
7
  6
CONTINUOUS
 10
-2.6815899541
 20
-0.4232619782
 30
0.0
 11
0.5658577513
 21
-0.5658577513
 31
0.0
 40
0.9996954599
 41
-0.7852458702
 42
0.7852458701
  0
ELLIPSE
  5
3FC
100
AcDbEntity
  8
RACCORDO
100
AcDbEllipse
 62
7
  6
CONTINUOUS
 10
-2.6815899541
 20
20.1764942969
 30
0.0
 11
-0.5658577513
 21
-0.5658577513
 31
0.0
 40
0.9996954599
 41
2.3563467834
 42
3.9268385237
  0
ELLIPSE
  5
3FD
100
AcDbEntity
  8
RACCORDO
100
AcDbEllipse
 62
7
  6
CONTINUOUS
 10
-44.7813462292
 20
20.1764942969
 30
0.0
 11
-0.5658577513
 21
0.5658577513
 31
0.0
 40
0.9996954599
 41
-0.7852458701
 42
0.7852458701
  0
ELLIPSE
  5
3FE
100
AcDbEntity
  8
ASSI
100
AcDbEllipse
 62
7
  6
CONTINUOUS
 10
-23.3814680917
 20
-1.023353375
 30
0.0
 11
-0.0
 21
0.2000304656
 31
0.0
 40
0.9998476952
 41
1.5707963268
 42
3.1415926536
  0
ELLIPSE
  5
3FF
100
AcDbEntity
  8
ASSI
100
AcDbEllipse
 62
7
  6
CONTINUOUS
 10
-23.3814680917
 20
20.7765856938
 30
0.0
 11
-0.0
 21
0.2000304656
 31
0.0
 40
0.9998476952
 41
-0.0
 42
1.5707963268
  0
ELLIPSE
  5
400
100
AcDbEntity
  8
ASSI
100
AcDbEllipse
 62
7
  6
CONTINUOUS
 10
-24.0814680917
 20
20.7765856938
 30
0.0
 11
0.0
 21
-0.2000304656
 31
0.0
 40
0.9998476952
 41
1.5707963268
 42
3.1415926536
  0
ELLIPSE
  5
401
100
AcDbEntity
  8
ASSI
100
AcDbEllipse
 62
7
  6
CONTINUOUS
 10
-24.0814680917
 20
-1.023353375
 30
0.0
 11
0.0
 21
-0.2000304656
 31
0.0
 40
0.9998476952
 41
-0.0
 42
1.5707963268
  0
ELLIPSE
  5
402
100
AcDbEntity
  8
ASSI
100
AcDbEllipse
 62
7
  6
CONTINUOUS
 10
-44.7813462292
 20
-0.4232619782
 30
0.0
 11
0.5658577513
 21
0.5658577513
 31
0.0
 40
0.9996954599
 41
2.3563467834
 42
3.9268385237
  0
ELLIPSE
  5
403
100
AcDbEntity
  8
ASSI
100
AcDbEllipse
 62
7
  6
CONTINUOUS
 10
-2.6815899541
 20
-0.4232619782
 30
0.0
 11
0.5658577513
 21
-0.5658577513
 31
0.0
 40
0.9996954599
 41
-0.7852458702
 42
0.7852458701
  0
ELLIPSE
  5
404
100
AcDbEntity
  8
ASSI
100
AcDbEllipse
 62
7
  6
CONTINUOUS
 10
-2.6815899541
 20
20.1764942969
 30
0.0
 11
-0.5658577513
 21
-0.5658577513
 31
0.0
 40
0.9996954599
 41
2.3563467834
 42
3.9268385237
  0
ELLIPSE
  5
405
100
AcDbEntity
  8
ASSI
100
AcDbEllipse
 62
7
  6
CONTINUOUS
 10
-44.7813462292
 20
20.1764942969
 30
0.0
 11
-0.5658577513
 21
0.5658577513
 31
0.0
 40
0.9996954599
 41
-0.7852458701
 42
0.7852458701
  0
ENDSEC
  0
SECTION
  2
OBJECTS
  0
DICTIONARY
  5
C
100
AcDbDictionary
280
0
281
1
  3
ACAD_GROUP
350
D
  3
ACAD_MLINESTYLE
350
17
  3
ACAD_LAYOUT
350
1A
  3
ACAD_PLOTSETTINGS
350
19
  3
ACAD_PLOTSTYLENAME
350
E
  0
DICTIONARY
  5
D
102
{ACAD_REACTORS
330
C
102
}
100
AcDbDictionary
280
0
281
1
  0
ACDBDICTIONARYWDFLT
  5
E
102
{ACAD_REACTORS
330
C
102
}
100
AcDbDictionary
281
1
  3
Normal
350
F
100
AcDbDictionaryWithDefault
340
F
  0
DICTIONARY
  5
17
102
{ACAD_REACTORS
330
C
102
}
100
AcDbDictionary
280
0
281
1
  3
Standard
350
18
  0
DICTIONARY
  5
19
102
{ACAD_REACTORS
330
C
102
}
100
AcDbDictionary
281
1
  0
DICTIONARY
  5
1A
102
{ACAD_REACTORS
330
C
102
}
100
AcDbDictionary
281
1
  3
Model
350
406
  3
Layout1
350
407
  0
ACDBPLACEHOLDER
  5
F
102
{ACAD_REACTORS
330
E
102
}
  0
MLINESTYLE
  5
18
102
{ACAD_REACTORS
330
17
102
}
100
AcDbMlineStyle
  2
STANDARD
 70
0
  3

 62
256
 51
90.0
 52
90.0
 71
2
 49
0.5
 62
256
  6
BYLAYER
 49
-0.5
 62
256
  6
BYLAYER
  0
LAYOUT
  5
406
102
{ACAD_REACTORS
330
1A
102
}
100
AcDbPlotSettings
  1

  2
none_device
  4
ISO_A4_(297.00_x_210.00_MM)
  6

 40
0.0
 41
0.0
 42
0.0
 43
0.0
 44
297.0
 45
210.0
 46
0.0
 47
0.0
 48
0.0
 49
0.0
140
0.0
141
0.0
142
1.0
143
1.0
 70
1024
 72
1
 73
0
 74
0
  7

 75
0
147
1.0
148
0.0
149
0.0
100
AcDbLayout
  1
Model
 70
0
 71
0
 10
0.0
 20
0.0
 11
297.0
 21
210.0
 12
0.0
 22
0.0
 32
0.0
 14
0.0
 24
0.0
 34
0.0
 15
0.0
 25
0.0
 35
0.0
146
0.0
 13
0.0
 23
0.0
 33
0.0
 16
1.0
 26
0.0
 36
0.0
 17
0.0
 27
1.0
 37
0.0
 76
0
330
219
345
0
346
0
  0
LAYOUT
  5
407
102
{ACAD_REACTORS
330
1A
102
}
100
AcDbPlotSettings
  1

  2
none_device
  4
ISO_A4_(297.00_x_210.00_MM)
  6

 40
0.0
 41
0.0
 42
0.0
 43
0.0
 44
297.0
 45
210.0
 46
0.0
 47
0.0
 48
0.0
 49
0.0
140
0.0
141
0.0
142
1.0
143
1.0
 70
0
 72
1
 73
0
 74
0
  7

 75
0
147
1.0
148
0.0
149
0.0
100
AcDbLayout
  1
Layout1
 70
0
 71
1
 10
0.0
 20
0.0
 11
297.0
 21
210.0
 12
0.0
 22
0.0
 32
0.0
 14
0.0
 24
0.0
 34
0.0
 15
0.0
 25
0.0
 35
0.0
146
0.0
 13
0.0
 23
0.0
 33
0.0
 16
1.0
 26
0.0
 36
0.0
 17
0.0
 27
1.0
 37
0.0
 76
0
330
21A
345
0
346
0
  0
ENDSEC
  0
EOF
