0
SECTION
2
HEADER
9
$ACADVER
1
AC1015
9
$DWGCODEPAGE
3
ANSI_1252
9
$EXTMAX
10
297.0000000000
20
210.0000000000
30
0.0000000000
9
$EXTMIN
10
0.0000000000
20
0.0000000000
30
0.0000000000
9
$LIMMIN
10
0.0000000000
20
0.0000000000
9
$LIMMAX
10
297.0000000000
20
210.0000000000
9
$VIEWCTR
10
148.5000000000
20
105.0000000000
9
$VIEWSIZE
40
210.0000000000
9
$CLAYER
8
0
9
$LTSCALE
40
16.3350000000
9
$CELTYPE
6
BYLAYER
9
$DIMSCALE
40
1
9
$DIMASZ
40
3.0000000000
9
$DIMEXO
40
1.8562500000
9
$DIMDLI
40
11.2860000000
9
$DIMEXE
40
5.3460000000
9
$DIMCEN
40
2.6730000000
9
$DIMLFAC
40
1.0000000000
9
$DIMBLK
1
_FILLED
9
$DIMTXT
40
3.0000000000
9
$DIMTOL
70
1
9
$DIMLIM
70
0
9
$DIMTFAC
40
1.0000000000
9
$DIMTP
40
0.0100000000
9
$DIMTM
40
0.0100000000
9
$PDMODE
70
3
9
$PDSIZE
40
3.0000000000
9
$HANDSEED
5
389
9
$MEASUREMENT
70
1
9
$INSUNITS
70
4
0
ENDSEC
0
SECTION
2
CLASSES
0
CLASS
1
ACDBDICTIONARYWDFLT
2
AcDbDictionaryWithDefault
3
AutoCAD 2000
90
0
280
0
281
0
0
CLASS
1
ACDBPLACEHOLDER
2
AcDbPlaceHolder
3
AutoCAD 2000
90
0
280
0
281
0
0
CLASS
1
LAYOUT
2
AcDbLayout
3
AutoCAD 2000
90
0
280
0
281
0
0
ENDSEC
0
SECTION
2
TABLES
0
TABLE
2
VPORT
5
8
100
AcDbSymbolTable
70
2
0
VPORT
5
1F4
100
AcDbSymbolTableRecord
100
AcDbViewportTableRecord
2
*ACTIVE
70
0
10
0.0
20
0.0
11
1.0
21
1.0
12
148.5000000000
22
105.0000000000
13
0.0
23
0.0
14
1.0
24
1.0
15
0.0
25
0.0
16
0.0
26
0.0
36
1.0
17
0.0
27
0.0
37
0.0
40
210.0000000000
41
1.4142857143
42
50.0
43
0.0
44
0.0
50
0.0
51
0.0
71
0
72
100
73
1
74
1
75
0
76
0
77
0
78
0
0
ENDTAB
0
TABLE
2
LTYPE
5
5
100
AcDbSymbolTable
70
6
0
LTYPE
5
14
100
AcDbSymbolTableRecord
100
AcDbLinetypeTableRecord
2
BYBLOCK
70
0
3

72
65
73
0
40
0.0
0
LTYPE
5
15
100
AcDbSymbolTableRecord
100
AcDbLinetypeTableRecord
2
BYLAYER
70
0
3

72
65
73
0
40
0.0
0
LTYPE
5
16
100
AcDbSymbolTableRecord
100
AcDbLinetypeTableRecord
2
CONTINUOUS
70
64
3
Solid line
72
65
73
0
40
0
0
LTYPE
5
1F5
100
AcDbSymbolTableRecord
100
AcDbLinetypeTableRecord
2
CENTER
70
64
3
____ _ ____ _ ____ _ ____ _ ____ _ ____ _ ____
72
65
73
4
40
0.6
49
0.375
74
0
49
-0.075
74
0
49
0.075
74
0
49
-0.075
74
0
0
LTYPE
5
1F6
100
AcDbSymbolTableRecord
100
AcDbLinetypeTableRecord
2
HIDDEN
70
64
3
- - - - - - - - - - - - - - - - - - - -
72
65
73
2
40
0.2
49
0.1
74
0
49
-0.1
74
0
0
LTYPE
5
1F7
100
AcDbSymbolTableRecord
100
AcDbLinetypeTableRecord
2
PHANTOM
70
64
3
_____ _ _ _____ _ _ _____ _ _ _____
72
65
73
6
40
0.8
49
0.45
74
0
49
-0.05
74
0
49
0.1
74
0
49
-0.05
74
0
49
0.1
74
0
49
-0.05
74
0
0
LTYPE
5
1F8
100
AcDbSymbolTableRecord
100
AcDbLinetypeTableRecord
2
DOT
70
64
3
. . . . . . . . . . . . . . . . . . . .
72
65
73
2
40
0.2
49
0.1
74
0
49
-0.1
74
0
0
LTYPE
5
1F9
100
AcDbSymbolTableRecord
100
AcDbLinetypeTableRecord
2
DASHED
70
64
3
- - - - - - - - - - - - - - - - - - - -
72
65
73
2
40
0.2
49
0.1
74
0
49
-0.1
74
0
0
ENDTAB
0
TABLE
2
LAYER
5
2
100
AcDbSymbolTable
70
36
0
LAYER
5
10
100
AcDbSymbolTableRecord
100
AcDbLayerTableRecord
2
0
70
0
62
7
6
CONTINUOUS
370
-3
390
F
0
LAYER
5
1FA
100
AcDbSymbolTableRecord
100
AcDbLayerTableRecord
2
DEFAULT_1
70
0
62
7
6
CENTER
370
-3
390
F
0
LAYER
5
1FB
100
AcDbSymbolTableRecord
100
AcDbLayerTableRecord
2
DEFAULT_2
70
0
62
0
6
HIDDEN
370
-3
390
F
0
LAYER
5
1FC
100
AcDbSymbolTableRecord
100
AcDbLayerTableRecord
2
DEFAULT_3
70
0
62
7
6
PHANTOM
370
-3
390
F
0
LAYER
5
1FD
100
AcDbSymbolTableRecord
100
AcDbLayerTableRecord
2
_BLACK_HOLE
70
0
62
7
6
CONTINUOUS
370
-3
390
F
0
LAYER
5
1FE
100
AcDbSymbolTableRecord
100
AcDbLayerTableRecord
2
ASSI
70
0
62
7
6
CONTINUOUS
370
-3
390
F
0
LAYER
5
1FF
100
AcDbSymbolTableRecord
100
AcDbLayerTableRecord
2
CIRCUITO_LETTORE_SA
70
0
62
7
6
CONTINUOUS
370
-3
390
F
0
LAYER
5
200
100
AcDbSymbolTableRecord
100
AcDbLayerTableRecord
2
COLOR5
70
0
62
7
6
CONTINUOUS
370
-3
390
F
0
LAYER
5
201
100
AcDbSymbolTableRecord
100
AcDbLayerTableRecord
2
CONNETTORE_L26
70
0
62
7
6
CONTINUOUS
370
-3
390
F
0
LAYER
5
202
100
AcDbSymbolTableRecord
100
AcDbLayerTableRecord
2
COORDINATE
70
0
62
7
6
CONTINUOUS
370
-3
390
F
0
LAYER
5
203
100
AcDbSymbolTableRecord
100
AcDbLayerTableRecord
2
COORD_ORIGINE
70
0
62
7
6
CONTINUOUS
370
-3
390
F
0
LAYER
5
204
100
AcDbSymbolTableRecord
100
AcDbLayerTableRecord
2
COPY_PUBLISH
70
0
62
7
6
CONTINUOUS
370
-3
390
F
0
LAYER
5
205
100
AcDbSymbolTableRecord
100
AcDbLayerTableRecord
2
CORPO
70
0
62
7
6
CONTINUOUS
370
-3
390
F
0
LAYER
5
206
100
AcDbSymbolTableRecord
100
AcDbLayerTableRecord
2
COSMETIC
70
0
62
7
6
CONTINUOUS
370
-3
390
F
0
LAYER
5
207
100
AcDbSymbolTableRecord
100
AcDbLayerTableRecord
2
COSMETICI
70
0
62
7
6
CONTINUOUS
370
-3
390
F
0
LAYER
5
208
100
AcDbSymbolTableRecord
100
AcDbLayerTableRecord
2
CURVE
70
0
62
7
6
CONTINUOUS
370
-3
390
F
0
LAYER
5
209
100
AcDbSymbolTableRecord
100
AcDbLayerTableRecord
2
DRAFT
70
0
62
7
6
CONTINUOUS
370
-3
390
F
0
LAYER
5
20A
100
AcDbSymbolTableRecord
100
AcDbLayerTableRecord
2
IGES
70
0
62
7
6
CONTINUOUS
370
-3
390
F
0
LAYER
5
20B
100
AcDbSymbolTableRecord
100
AcDbLayerTableRecord
2
IGES-IMPORTATI
70
0
62
7
6
CONTINUOUS
370
-3
390
F
0
LAYER
5
20C
100
AcDbSymbolTableRecord
100
AcDbLayerTableRecord
2
IGES_SCRITTE
70
0
62
7
6
CONTINUOUS
370
-3
390
F
0
LAYER
5
20D
100
AcDbSymbolTableRecord
100
AcDbLayerTableRecord
2
IMPORT_IGES
70
0
62
7
6
CONTINUOUS
370
-3
390
F
0
LAYER
5
20E
100
AcDbSymbolTableRecord
100
AcDbLayerTableRecord
2
INTF_1
70
0
62
7
6
CONTINUOUS
370
-3
390
F
0
LAYER
5
20F
100
AcDbSymbolTableRecord
100
AcDbLayerTableRecord
2
NOTE
70
0
62
7
6
CONTINUOUS
370
-3
390
F
0
LAYER
5
210
100
AcDbSymbolTableRecord
100
AcDbLayerTableRecord
2
PIANI
70
0
62
7
6
CONTINUOUS
370
-3
390
F
0
LAYER
5
211
100
AcDbSymbolTableRecord
100
AcDbLayerTableRecord
2
PIANI_DI_RIFERIMENTO
70
0
62
7
6
CONTINUOUS
370
-3
390
F
0
LAYER
5
212
100
AcDbSymbolTableRecord
100
AcDbLayerTableRecord
2
PIANI_ORIGINE
70
0
62
7
6
CONTINUOUS
370
-3
390
F
0
LAYER
5
213
100
AcDbSymbolTableRecord
100
AcDbLayerTableRecord
2
PIANI_RIFERIMENTO
70
0
62
7
6
CONTINUOUS
370
-3
390
F
0
LAYER
5
214
100
AcDbSymbolTableRecord
100
AcDbLayerTableRecord
2
PUNTI
70
0
62
7
6
CONTINUOUS
370
-3
390
F
0
LAYER
5
215
100
AcDbSymbolTableRecord
100
AcDbLayerTableRecord
2
RACCORDO
70
0
62
7
6
CONTINUOUS
370
-3
390
F
0
LAYER
5
216
100
AcDbSymbolTableRecord
100
AcDbLayerTableRecord
2
RGB____0____0____0__
70
0
62
7
6
CONTINUOUS
370
-3
390
F
0
LAYER
5
217
100
AcDbSymbolTableRecord
100
AcDbLayerTableRecord
2
SMUSSO
70
0
62
7
6
CONTINUOUS
370
-3
390
F
0
LAYER
5
218
100
AcDbSymbolTableRecord
100
AcDbLayerTableRecord
2
SUPERFICI
70
0
62
7
6
CONTINUOUS
370
-3
390
F
0
LAYER
5
219
100
AcDbSymbolTableRecord
100
AcDbLayerTableRecord
2
TRASH
70
0
62
7
6
CONTINUOUS
370
-3
390
F
0
LAYER
5
21A
100
AcDbSymbolTableRecord
100
AcDbLayerTableRecord
2
XSEC_DATUMS
70
0
62
7
6
CONTINUOUS
370
-3
390
F
0
ENDTAB
0
TABLE
2
STYLE
5
3
100
AcDbSymbolTable
70
1
0
STYLE
5
11
100
AcDbSymbolTableRecord
100
AcDbTextStyleTableRecord
2
STANDARD
70
0
40
0.0
41
0.8000000000
50
0.0
71
0
42
0.2
3
txt
4

0
ENDTAB
0
TABLE
2
VIEW
5
6
100
AcDbSymbolTable
70
0
0
ENDTAB
0
TABLE
2
UCS
5
7
100
AcDbSymbolTable
70
0
0
ENDTAB
0
TABLE
2
APPID
5
9
100
AcDbSymbolTable
70
1
0
APPID
5
21B
100
AcDbSymbolTableRecord
100
AcDbRegAppTableRecord
2
ACAD
70
0
0
ENDTAB
0
TABLE
2
BLOCK_RECORD
5
1
100
AcDbSymbolTable
70
0
0
BLOCK_RECORD
5
1F
100
AcDbSymbolTableRecord
100
AcDbBlockTableRecord
2
*MODEL_SPACE
0
BLOCK_RECORD
5
1B
100
AcDbSymbolTableRecord
100
AcDbBlockTableRecord
2
*PAPER_SPACE
0
ENDTAB
0
TABLE
2
DIMSTYLE
5
A
100
AcDbSymbolTable
70
1
100
AcDbDimStyleTable
71
0
0
DIMSTYLE
105
21C
100
AcDbSymbolTableRecord
100
AcDbDimStyleTableRecord
2
STANDARD
70
0
3

4

40
1.0
41
3.0000000000
42
0.0625
43
0.38
44
0.18
45
0.0
46
0.0
47
0.0100000000
48
0.0100000000
140
3.0000000000
141
0.09
142
0.0
143
25.4
144
1.0000000000
145
0.0
146
1.0000000000
147
0.09
71
1
72
0
73
0
74
0
75
0
76
0
77
1
78
8
170
0
171
2
172
0
173
0
174
0
175
0
176
0
177
0
178
0
270
2
271
2
272
2
273
2
274
2
275
0
280
0
281
0
282
0
283
1
284
8
285
0
286
0
287
3
288
0
340
11
0
ENDTAB
0
ENDSEC
0
SECTION
2
BLOCKS
0
BLOCK
5
20
100
AcDbEntity
8
0
100
AcDbBlockBegin
2
*MODEL_SPACE
70
0
10
0.0
20
0.0
30
0.0
3
*MODEL_SPACE
1

0
ENDBLK
5
21
100
AcDbEntity
8
0
100
AcDbBlockEnd
0
BLOCK
5
1C
100
AcDbEntity
8
0
100
AcDbBlockBegin
2
*PAPER_SPACE
70
0
10
0.0
20
0.0
30
0.0
3
*PAPER_SPACE
1

0
ENDBLK
5
1D
100
AcDbEntity
8
0
100
AcDbBlockEnd
0
ENDSEC
0
SECTION
2
ENTITIES
0
LWPOLYLINE
5
21D
100
AcDbEntity
8
0
100
AcDbPolyline
62
0
6
CONTINUOUS
90
11
70
0
10
-63.7449365379
20
48.7936726303
10
-64.4273115798
20
47.6702475509
10
-65.0549277536
20
46.4273428713
10
-65.6289427332
20
45.0674574928
10
-66.1506170407
20
43.5916106321
10
-66.6207213987
20
42.0013431329
10
-67.0397201110
20
40.2983903536
10
-67.4076287247
20
38.4858064281
10
-67.7242299398
20
36.5700905859
10
-67.9898644392
20
34.5565843638
10
-68.2054196200
20
32.4480155903
0
LINE
5
21E
100
AcDbEntity
8
0
100
AcDbLine
62
0
6
CONTINUOUS
10
-63.0701525348
20
49.7162460685
11
-63.7449365379
21
48.7936726303
0
LINE
5
21F
100
AcDbEntity
8
0
100
AcDbLine
62
0
6
CONTINUOUS
10
-63.0701849325
20
49.7162721212
11
-63.0719284748
21
49.7140981920
0
LWPOLYLINE
5
220
100
AcDbEntity
8
0
100
AcDbPolyline
62
0
6
CONTINUOUS
90
9
70
0
10
-70.5635511639
20
30.0881382050
10
-70.6580013014
20
29.3687955105
10
-70.7415573356
20
28.6410068916
10
-70.8142207589
20
27.9048580795
10
-70.8760040915
20
27.1604109635
10
-70.9269211960
20
26.4077074275
10
-70.9669826697
20
25.6468061355
10
-70.9961985130
20
24.8777852741
10
-71.0101854806
20
24.3356699599
0
LINE
5
221
100
AcDbEntity
8
0
100
AcDbLine
62
0
6
CONTINUOUS
10
-70.4882475670
20
30.6044365097
11
-70.5635511639
21
30.0881382050
0
LINE
5
222
100
AcDbEntity
8
0
100
AcDbLine
62
0
6
CONTINUOUS
10
-70.4885314651
20
30.6024942623
11
-70.4882303196
21
30.6044844578
0
LINE
5
223
100
AcDbEntity
8
0
100
AcDbLine
62
0
6
CONTINUOUS
10
-71.0106268772
20
24.2936709191
11
-71.0106268776
21
-36.3238430486
0
LINE
5
224
100
AcDbEntity
8
0
100
AcDbLine
62
0
6
CONTINUOUS
10
-70.5126638354
20
-29.7690652160
11
-70.5126638711
21
30.2910976224
0
LINE
5
225
100
AcDbEntity
8
0
100
AcDbLine
62
0
6
CONTINUOUS
10
-68.5186600919
20
-28.7106801120
11
-68.5186588255
21
31.3494829371
0
LINE
5
226
100
AcDbEntity
8
0
100
AcDbLine
62
0
6
CONTINUOUS
10
-68.3593210050
20
32.0356717304
11
-68.3593210050
21
31.7930091935
0
LINE
5
227
100
AcDbEntity
8
0
100
AcDbLine
62
0
6
CONTINUOUS
10
-68.3593209974
20
30.3978033153
11
-68.3593210050
21
-29.1535640683
0
LINE
5
228
100
AcDbEntity
8
0
100
AcDbLine
62
0
6
CONTINUOUS
10
-67.5169958645
20
-32.2940375909
11
-67.5169959175
21
-31.0327332667
0
LINE
5
229
100
AcDbEntity
8
0
100
AcDbLine
62
0
6
CONTINUOUS
10
-71.0100846718
20
24.3356684160
11
-71.0106268772
21
24.2936709191
0
LINE
5
22A
100
AcDbEntity
8
0
100
AcDbLine
62
0
6
CONTINUOUS
10
-68.3593209974
20
30.3978033153
11
-68.3563530604
21
30.4861463993
0
LINE
5
22B
100
AcDbEntity
8
0
100
AcDbLine
62
0
6
CONTINUOUS
10
-68.2054196200
20
32.4480155903
11
-68.3564135272
21
30.4861490661
0
LINE
5
22C
100
AcDbEntity
8
0
100
AcDbLine
62
0
6
CONTINUOUS
10
-65.1584676312
20
-19.4393925127
11
-65.1584676312
21
-17.8213591771
0
LINE
5
22D
100
AcDbEntity
8
0
100
AcDbLine
62
0
6
CONTINUOUS
10
-61.5108069060
20
49.8781513191
11
-61.5108069060
21
50.4639370691
0
LINE
5
22E
100
AcDbEntity
8
0
100
AcDbLine
62
0
6
CONTINUOUS
10
-61.0356592692
20
37.1188237758
11
-61.0356592692
21
38.5330366717
0
LINE
5
22F
100
AcDbEntity
8
0
100
AcDbLine
62
0
6
CONTINUOUS
10
-18.3677347117
20
49.4188291677
11
-19.0748412725
21
48.9188291392
0
LINE
5
230
100
AcDbEntity
8
0
100
AcDbLine
62
0
6
CONTINUOUS
10
-18.8715223106
20
49.9919475183
11
-19.4106997085
21
49.3964278836
0
LINE
5
231
100
AcDbEntity
8
0
100
AcDbLine
62
0
6
CONTINUOUS
10
-37.5707929081
20
8.0926912466
11
-37.5707929081
21
5.0926912466
0
LINE
5
232
100
AcDbEntity
8
0
100
AcDbLine
62
0
6
CONTINUOUS
10
-37.0106268776
20
8.0926912466
11
-37.0106268776
21
5.0926912466
0
LINE
5
233
100
AcDbEntity
8
0
100
AcDbLine
62
0
6
CONTINUOUS
10
-36.5106268776
20
8.0926912466
11
-36.5106268776
21
5.0926912466
0
LINE
5
234
100
AcDbEntity
8
0
100
AcDbLine
62
0
6
CONTINUOUS
10
-35.9393676749
20
8.0926912466
11
-35.9393676749
21
5.0926912466
0
LINE
5
235
100
AcDbEntity
8
0
100
AcDbLine
62
0
6
CONTINUOUS
10
-20.4890503195
20
37.1188237758
11
-19.0748371157
21
38.1188238302
0
LINE
5
236
100
AcDbEntity
8
0
100
AcDbLine
62
0
6
CONTINUOUS
10
-10.7464137943
20
38.6406574084
11
-11.4535203551
21
38.1406573800
0
LINE
5
237
100
AcDbEntity
8
0
100
AcDbLine
62
0
6
CONTINUOUS
10
68.4897794629
20
-38.7811775387
11
-68.0110332181
21
-38.7811775387
0
LINE
5
238
100
AcDbEntity
8
0
100
AcDbLine
62
0
6
CONTINUOUS
10
-33.5818860803
20
5.0926912466
11
-33.5818860803
21
8.0926912466
0
LINE
5
239
100
AcDbEntity
8
0
100
AcDbLine
62
0
6
CONTINUOUS
10
-33.0106268776
20
5.0926912466
11
-33.0106268776
21
8.0926912466
0
LINE
5
23A
100
AcDbEntity
8
0
100
AcDbLine
62
0
6
CONTINUOUS
10
-32.5106268776
20
5.0926912466
11
-32.5106268776
21
8.0926912466
0
LINE
5
23B
100
AcDbEntity
8
0
100
AcDbLine
62
0
6
CONTINUOUS
10
-31.9504608470
20
5.0926912466
11
-31.9504608470
21
8.0926912466
0
LINE
5
23C
100
AcDbEntity
8
0
100
AcDbLine
62
0
6
CONTINUOUS
10
67.9957420962
20
-32.2940375909
11
-67.5169958512
21
-32.2940375909
0
LINE
5
23D
100
AcDbEntity
8
0
100
AcDbLine
62
0
6
CONTINUOUS
10
66.8746107475
20
-31.6198784159
11
-66.3958645026
21
-31.6198784159
0
LINE
5
23E
100
AcDbEntity
8
0
100
AcDbLine
62
0
6
CONTINUOUS
10
-20.4890503195
20
37.1188237758
11
-20.4890546862
21
49.8781513191
0
LINE
5
23F
100
AcDbEntity
8
0
100
AcDbLine
62
0
6
CONTINUOUS
10
-19.0748371157
20
38.1188238302
11
-19.0748412725
21
48.9188291392
0
LINE
5
240
100
AcDbEntity
8
0
100
AcDbLine
62
0
6
CONTINUOUS
10
65.6372138761
20
-17.8213591771
11
67.6295663990
21
-17.7211367797
0
LINE
5
241
100
AcDbEntity
8
0
100
AcDbLine
62
0
6
CONTINUOUS
10
65.6372179683
20
-19.4393925127
11
-65.1584717234
21
-19.4393925127
0
LINE
5
242
100
AcDbEntity
8
0
100
AcDbLine
62
0
6
CONTINUOUS
10
65.6365133971
20
-17.8213591771
11
-65.1577808343
21
-17.8213591771
0
LINE
5
243
100
AcDbEntity
8
0
100
AcDbLine
62
0
6
CONTINUOUS
10
-65.1584676312
20
-17.8213591771
11
-67.1508201542
21
-17.7211367797
0
LINE
5
244
100
AcDbEntity
8
0
100
AcDbLine
62
0
6
CONTINUOUS
10
-11.4535215943
20
27.3406593757
11
-11.4535203551
21
38.1406573800
0
LINE
5
245
100
AcDbEntity
8
0
100
AcDbLine
62
0
6
CONTINUOUS
10
18.8464768925
20
49.4188297301
11
11.2251575934
21
38.6406547621
0
LINE
5
246
100
AcDbEntity
8
0
100
AcDbLine
62
0
6
CONTINUOUS
10
19.5535837637
20
48.9188297663
11
11.9322644646
21
38.1406547984
0
LINE
5
247
100
AcDbEntity
8
0
100
AcDbLine
62
0
6
CONTINUOUS
10
-10.7464137943
20
38.6406574084
11
-10.7464151067
21
27.1335527051
0
LINE
5
248
100
AcDbEntity
8
0
100
AcDbLine
62
0
6
CONTINUOUS
10
-7.8207929081
20
10.3426912466
11
-7.8207929081
21
7.3426912466
0
LINE
5
249
100
AcDbEntity
8
0
100
AcDbLine
62
0
6
CONTINUOUS
10
-7.2606268776
20
10.3426912466
11
-7.2606268776
21
7.3426912466
0
LINE
5
24A
100
AcDbEntity
8
0
100
AcDbLine
62
0
6
CONTINUOUS
10
-6.7606268776
20
10.3426912466
11
-6.7606268776
21
7.3426912466
0
LINE
5
24B
100
AcDbEntity
8
0
100
AcDbLine
62
0
6
CONTINUOUS
10
-6.1893676749
20
10.3426912466
11
-6.1893676749
21
7.3426912466
0
LINE
5
24C
100
AcDbEntity
8
0
100
AcDbLine
62
0
6
CONTINUOUS
10
19.5535766535
20
38.1188237009
11
11.9322627506
21
27.3406566645
0
LINE
5
24D
100
AcDbEntity
8
0
100
AcDbLine
62
0
6
CONTINUOUS
10
-4.0106203114
20
35.6736079172
11
-4.0106203114
21
33.4181163387
0
LINE
5
24E
100
AcDbEntity
8
0
100
AcDbLine
62
0
6
CONTINUOUS
10
-4.0106203114
20
32.0039026095
11
-4.0106203114
21
29.9734757601
0
LINE
5
24F
100
AcDbEntity
8
0
100
AcDbLine
62
0
6
CONTINUOUS
10
-3.3106204184
20
29.5590973071
11
-3.3106203114
21
32.0039025529
0
LINE
5
250
100
AcDbEntity
8
0
100
AcDbLine
62
0
6
CONTINUOUS
10
-3.3106203114
20
33.4181162822
11
-3.3106203114
21
35.2007433341
0
LINE
5
251
100
AcDbEntity
8
0
100
AcDbLine
62
0
6
CONTINUOUS
10
-0.7606203114
20
28.8088409941
11
-0.7606203114
21
29.2469062318
0
LINE
5
252
100
AcDbEntity
8
0
100
AcDbLine
62
0
6
CONTINUOUS
10
-0.7606203114
20
36.1751121914
11
-0.7606203114
21
36.8713240572
0
LINE
5
253
100
AcDbEntity
8
0
100
AcDbLine
62
0
6
CONTINUOUS
10
20.9677903136
20
37.1188237758
11
12.4677964885
21
25.0980154976
0
LINE
5
254
100
AcDbEntity
8
0
100
AcDbLine
62
0
6
CONTINUOUS
10
1.2393796886
20
36.8713222734
11
1.2393796886
21
36.1751120298
0
LINE
5
255
100
AcDbEntity
8
0
100
AcDbLine
62
0
6
CONTINUOUS
10
1.2393796886
20
29.2469060702
11
1.2393796886
21
28.8088427712
0
LINE
5
256
100
AcDbEntity
8
0
100
AcDbLine
62
0
6
CONTINUOUS
10
3.7893796886
20
35.2007359769
11
3.7893796886
21
33.4181157086
0
LINE
5
257
100
AcDbEntity
8
0
100
AcDbLine
62
0
6
CONTINUOUS
10
3.7893796886
20
32.0039019794
11
3.7893795816
21
29.5591032253
0
LINE
5
258
100
AcDbEntity
8
0
100
AcDbLine
62
0
6
CONTINUOUS
10
4.4893796886
20
29.9734842601
11
4.4893796886
21
32.0039019229
0
LINE
5
259
100
AcDbEntity
8
0
100
AcDbLine
62
0
6
CONTINUOUS
10
4.4893796886
20
33.4181156521
11
4.4893796886
21
35.6735975490
0
LINE
5
25A
100
AcDbEntity
8
0
100
AcDbLine
62
0
6
CONTINUOUS
10
6.6681139197
20
7.3426912466
11
6.6681139197
21
10.3426912466
0
LINE
5
25B
100
AcDbEntity
8
0
100
AcDbLine
62
0
6
CONTINUOUS
10
38.0495391530
20
5.0926912466
11
37.4893731224
21
5.0926912466
0
LINE
5
25C
100
AcDbEntity
8
0
100
AcDbLine
62
0
6
CONTINUOUS
10
-37.5707929081
20
5.0926912466
11
-37.0106268776
21
5.0926912466
0
LINE
5
25D
100
AcDbEntity
8
0
100
AcDbLine
62
0
6
CONTINUOUS
10
36.9893731224
20
5.0926912466
11
36.4181139197
21
5.0926912466
0
LINE
5
25E
100
AcDbEntity
8
0
100
AcDbLine
62
0
6
CONTINUOUS
10
-36.5106268776
20
5.0926912466
11
-35.9393676749
21
5.0926912466
0
LINE
5
25F
100
AcDbEntity
8
0
100
AcDbLine
62
0
6
CONTINUOUS
10
32.4292070919
20
5.0926912466
11
32.9893731224
21
5.0926912466
0
LINE
5
260
100
AcDbEntity
8
0
100
AcDbLine
62
0
6
CONTINUOUS
10
-31.9504608470
20
5.0926912466
11
-32.5106268776
21
5.0926912466
0
LINE
5
261
100
AcDbEntity
8
0
100
AcDbLine
62
0
6
CONTINUOUS
10
33.4893731224
20
5.0926912466
11
34.0606323251
21
5.0926912466
0
LINE
5
262
100
AcDbEntity
8
0
100
AcDbLine
62
0
6
CONTINUOUS
10
-33.0106268776
20
5.0926912466
11
-33.5818860803
21
5.0926912466
0
LINE
5
263
100
AcDbEntity
8
0
100
AcDbLine
62
0
6
CONTINUOUS
10
-7.8207929081
20
7.3426912466
11
-7.2606268776
21
7.3426912466
0
LINE
5
264
100
AcDbEntity
8
0
100
AcDbLine
62
0
6
CONTINUOUS
10
8.2995391530
20
7.3426912466
11
7.7393731224
21
7.3426912466
0
LINE
5
265
100
AcDbEntity
8
0
100
AcDbLine
62
0
6
CONTINUOUS
10
-6.7606268776
20
7.3426912466
11
-6.1893676749
21
7.3426912466
0
LINE
5
266
100
AcDbEntity
8
0
100
AcDbLine
62
0
6
CONTINUOUS
10
7.2393731224
20
7.3426912466
11
6.6681139197
21
7.3426912466
0
LINE
5
267
100
AcDbEntity
8
0
100
AcDbLine
62
0
6
CONTINUOUS
10
38.0495391530
20
8.0926912466
11
37.4893731224
21
8.0926912466
0
LINE
5
268
100
AcDbEntity
8
0
100
AcDbLine
62
0
6
CONTINUOUS
10
-37.5707929081
20
8.0926912466
11
-37.0106268776
21
8.0926912466
0
LINE
5
269
100
AcDbEntity
8
0
100
AcDbLine
62
0
6
CONTINUOUS
10
36.9893731224
20
8.0926912466
11
36.4181139197
21
8.0926912466
0
LINE
5
26A
100
AcDbEntity
8
0
100
AcDbLine
62
0
6
CONTINUOUS
10
-36.5106268776
20
8.0926912466
11
-35.9393676749
21
8.0926912466
0
LINE
5
26B
100
AcDbEntity
8
0
100
AcDbLine
62
0
6
CONTINUOUS
10
32.4292070919
20
8.0926912466
11
32.9893731224
21
8.0926912466
0
LINE
5
26C
100
AcDbEntity
8
0
100
AcDbLine
62
0
6
CONTINUOUS
10
-31.9504608470
20
8.0926912466
11
-32.5106268776
21
8.0926912466
0
LINE
5
26D
100
AcDbEntity
8
0
100
AcDbLine
62
0
6
CONTINUOUS
10
33.4893731224
20
8.0926912466
11
34.0606323251
21
8.0926912466
0
LINE
5
26E
100
AcDbEntity
8
0
100
AcDbLine
62
0
6
CONTINUOUS
10
-33.0106268776
20
8.0926912466
11
-33.5818860803
21
8.0926912466
0
LINE
5
26F
100
AcDbEntity
8
0
100
AcDbLine
62
0
6
CONTINUOUS
10
-11.9890554473
20
25.0980194489
11
-20.4890503195
21
37.1188237758
0
LINE
5
270
100
AcDbEntity
8
0
100
AcDbLine
62
0
6
CONTINUOUS
10
-11.4535215943
20
27.3406593757
11
-19.0748371157
21
38.1188238302
0
LINE
5
271
100
AcDbEntity
8
0
100
AcDbLine
62
0
6
CONTINUOUS
10
7.2393731224
20
7.3426912466
11
7.2393731224
21
10.3426912466
0
LINE
5
272
100
AcDbEntity
8
0
100
AcDbLine
62
0
6
CONTINUOUS
10
7.7393731224
20
7.3426912466
11
7.7393731224
21
10.3426912466
0
LINE
5
273
100
AcDbEntity
8
0
100
AcDbLine
62
0
6
CONTINUOUS
10
8.2995391530
20
7.3426912466
11
8.2995391530
21
10.3426912466
0
LINE
5
274
100
AcDbEntity
8
0
100
AcDbLine
62
0
6
CONTINUOUS
10
11.2251575934
20
38.6406547621
11
11.2251558063
21
27.1335499293
0
LINE
5
275
100
AcDbEntity
8
0
100
AcDbLine
62
0
6
CONTINUOUS
10
11.9322627506
20
27.3406566645
11
11.9322644646
21
38.1406547984
0
LINE
5
276
100
AcDbEntity
8
0
100
AcDbLine
62
0
6
CONTINUOUS
10
-7.8207929081
20
10.3426912466
11
-7.2606268776
21
10.3426912466
0
LINE
5
277
100
AcDbEntity
8
0
100
AcDbLine
62
0
6
CONTINUOUS
10
8.2995391530
20
10.3426912466
11
7.7393731224
21
10.3426912466
0
LINE
5
278
100
AcDbEntity
8
0
100
AcDbLine
62
0
6
CONTINUOUS
10
-6.7606268776
20
10.3426912466
11
-6.1893676749
21
10.3426912466
0
LINE
5
279
100
AcDbEntity
8
0
100
AcDbLine
62
0
6
CONTINUOUS
10
7.2393731224
20
10.3426912466
11
6.6681139197
21
10.3426912466
0
LINE
5
27A
100
AcDbEntity
8
0
100
AcDbLine
62
0
6
CONTINUOUS
10
-11.4535203551
20
38.1406573800
11
-19.0748412725
21
48.9188291392
0
LINE
5
27B
100
AcDbEntity
8
0
100
AcDbLine
62
0
6
CONTINUOUS
10
-10.7464137943
20
38.6406574084
11
-18.3677347117
21
49.4188291677
0
LINE
5
27C
100
AcDbEntity
8
0
100
AcDbLine
62
0
6
CONTINUOUS
10
19.5535837637
20
48.9188297663
11
19.5535766535
21
38.1188237009
0
LINE
5
27D
100
AcDbEntity
8
0
100
AcDbLine
62
0
6
CONTINUOUS
10
20.9677977826
20
49.8781513191
11
20.9677903136
21
37.1188237758
0
LINE
5
27E
100
AcDbEntity
8
0
100
AcDbLine
62
0
6
CONTINUOUS
10
12.4677964885
20
25.0980154976
11
-11.9890554473
21
25.0980194489
0
LINE
5
27F
100
AcDbEntity
8
0
100
AcDbLine
62
0
6
CONTINUOUS
10
61.5144055141
20
37.1188237758
11
63.4846518257
21
37.3159617935
0
LINE
5
280
100
AcDbEntity
8
0
100
AcDbLine
62
0
6
CONTINUOUS
10
11.3697203266
20
26.5122290705
11
-10.8909795495
21
26.5122326670
0
LINE
5
281
100
AcDbEntity
8
0
100
AcDbLine
62
0
6
CONTINUOUS
10
4.4893795744
20
31.2967952251
11
3.7893795744
21
31.2967952816
0
LINE
5
282
100
AcDbEntity
8
0
100
AcDbLine
62
0
6
CONTINUOUS
10
-3.3106204256
20
31.2967958552
11
-4.0106204256
21
31.2967959117
0
LINE
5
283
100
AcDbEntity
8
0
100
AcDbLine
62
0
6
CONTINUOUS
10
4.4893796886
20
32.0039019229
11
3.7893796886
21
32.0039019794
0
LINE
5
284
100
AcDbEntity
8
0
100
AcDbLine
62
0
6
CONTINUOUS
10
-3.3106203114
20
32.0039025529
11
-4.0106203114
21
32.0039026095
0
LINE
5
285
100
AcDbEntity
8
0
100
AcDbLine
62
0
6
CONTINUOUS
10
-61.0356592692
20
37.1188237758
11
-63.0059055808
21
37.3159617935
0
LINE
5
286
100
AcDbEntity
8
0
100
AcDbLine
62
0
6
CONTINUOUS
10
32.4292070919
20
5.0926912466
11
32.4292070919
21
8.0926912466
0
LINE
5
287
100
AcDbEntity
8
0
100
AcDbLine
62
0
6
CONTINUOUS
10
32.9893731224
20
5.0926912466
11
32.9893731224
21
8.0926912466
0
LINE
5
288
100
AcDbEntity
8
0
100
AcDbLine
62
0
6
CONTINUOUS
10
33.4893731224
20
5.0926912466
11
33.4893731224
21
8.0926912466
0
LINE
5
289
100
AcDbEntity
8
0
100
AcDbLine
62
0
6
CONTINUOUS
10
34.0606323251
20
5.0926912466
11
34.0606323251
21
8.0926912466
0
LINE
5
28A
100
AcDbEntity
8
0
100
AcDbLine
62
0
6
CONTINUOUS
10
36.4181139197
20
8.0926912466
11
36.4181139197
21
5.0926912466
0
LINE
5
28B
100
AcDbEntity
8
0
100
AcDbLine
62
0
6
CONTINUOUS
10
36.9893731224
20
8.0926912466
11
36.9893731224
21
5.0926912466
0
LINE
5
28C
100
AcDbEntity
8
0
100
AcDbLine
62
0
6
CONTINUOUS
10
-4.0106203114
20
33.4181163387
11
-3.3106203114
21
33.4181162822
0
LINE
5
28D
100
AcDbEntity
8
0
100
AcDbLine
62
0
6
CONTINUOUS
10
3.7893796886
20
33.4181157086
11
4.4893796886
21
33.4181156521
0
LINE
5
28E
100
AcDbEntity
8
0
100
AcDbLine
62
0
6
CONTINUOUS
10
61.5150234414
20
37.1188237758
11
20.9677903136
21
37.1188237758
0
LINE
5
28F
100
AcDbEntity
8
0
100
AcDbLine
62
0
6
CONTINUOUS
10
-20.4890503195
20
37.1188237758
11
-61.0362642749
21
37.1188237758
0
LINE
5
290
100
AcDbEntity
8
0
100
AcDbLine
62
0
6
CONTINUOUS
10
11.2251575203
20
37.9335480632
11
-10.7464138674
21
37.9335507094
0
LINE
5
291
100
AcDbEntity
8
0
100
AcDbLine
62
0
6
CONTINUOUS
10
11.9322644646
20
38.1406547984
11
11.2251575934
21
38.6406547621
0
LINE
5
292
100
AcDbEntity
8
0
100
AcDbLine
62
0
6
CONTINUOUS
10
37.4893731224
20
8.0926912466
11
37.4893731224
21
5.0926912466
0
LINE
5
293
100
AcDbEntity
8
0
100
AcDbLine
62
0
6
CONTINUOUS
10
38.0495391530
20
8.0926912466
11
38.0495391530
21
5.0926912466
0
LINE
5
294
100
AcDbEntity
8
0
100
AcDbLine
62
0
6
CONTINUOUS
10
61.5144055025
20
38.5330366717
11
20.9677903136
21
38.5330366717
0
LINE
5
295
100
AcDbEntity
8
0
100
AcDbLine
62
0
6
CONTINUOUS
10
-20.4890503195
20
38.5330366717
11
-61.0356592570
21
38.5330366717
0
LINE
5
296
100
AcDbEntity
8
0
100
AcDbLine
62
0
6
CONTINUOUS
10
11.2251575934
20
38.6406547621
11
-10.7464137943
21
38.6406574084
0
LINE
5
297
100
AcDbEntity
8
0
100
AcDbLine
62
0
6
CONTINUOUS
10
20.9677903136
20
37.1188237758
11
19.5535766535
21
38.1188237009
0
LWPOLYLINE
5
298
100
AcDbEntity
8
0
100
AcDbPolyline
62
0
6
CONTINUOUS
90
15
70
0
10
-68.1537177102
20
32.9537655898
10
-68.2326788141
20
32.9394087793
10
-68.5021865465
20
32.8654837834
10
-68.7619844342
20
32.7686871309
10
-69.0103091384
20
32.6499860347
10
-69.2461057538
20
32.5098298411
10
-69.4656906325
20
32.3504557371
10
-69.6670816907
20
32.1739743463
10
-69.8496913538
20
31.9813171741
10
-70.0122411588
20
31.7741769173
10
-70.1533729521
20
31.5548887061
10
-70.2722952040
20
31.3251762252
10
-70.3685654421
20
31.0862714738
10
-70.4415160754
20
30.8401539875
10
-70.4884491030
20
30.6030339287
0
LINE
5
299
100
AcDbEntity
8
0
100
AcDbLine
62
0
6
CONTINUOUS
10
61.9895531636
20
49.8781513191
11
20.9677977826
21
49.8781513191
0
LINE
5
29A
100
AcDbEntity
8
0
100
AcDbLine
62
0
6
CONTINUOUS
10
-20.4890546862
20
49.8781513191
11
-61.5108069178
21
49.8781513191
0
LINE
5
29B
100
AcDbEntity
8
0
100
AcDbLine
62
0
6
CONTINUOUS
10
-18.8715223106
20
49.9919475183
11
19.3502643646
21
49.9919482847
0
LINE
5
29C
100
AcDbEntity
8
0
100
AcDbLine
62
0
6
CONTINUOUS
10
-20.4908880100
20
50.2615961444
11
20.9696286683
21
50.2615971225
0
LINE
5
29D
100
AcDbEntity
8
0
100
AcDbLine
62
0
6
CONTINUOUS
10
61.9895531509
20
50.4639384232
11
-61.5108069060
21
50.4639384232
0
LINE
5
29E
100
AcDbEntity
8
0
100
AcDbLine
62
0
6
CONTINUOUS
10
19.8894421413
20
49.3964287105
11
19.3502643646
21
49.9919482847
0
LINE
5
29F
100
AcDbEntity
8
0
100
AcDbLine
62
0
6
CONTINUOUS
10
19.5535837637
20
48.9188297663
11
18.8464768925
21
49.4188297301
0
LINE
5
2A0
100
AcDbEntity
8
0
100
AcDbLine
62
0
6
CONTINUOUS
10
61.5144055141
20
37.1188237758
11
61.5144055141
21
38.5330366717
0
LINE
5
2A1
100
AcDbEntity
8
0
100
AcDbLine
62
0
6
CONTINUOUS
10
61.9895531509
20
49.8781513191
11
61.9895531509
21
50.4639384224
0
LINE
5
2A2
100
AcDbEntity
8
0
100
AcDbLine
62
0
6
CONTINUOUS
10
65.6372138761
20
-19.4393925127
11
65.6372138761
21
-17.8213591771
0
LWPOLYLINE
5
2A3
100
AcDbEntity
8
0
100
AcDbPolyline
62
0
6
CONTINUOUS
90
12
70
0
10
68.8351586846
20
30.4861657011
10
68.6827234465
20
32.4642859958
10
68.4668079593
20
34.5720269384
10
68.2008055234
20
36.5847370947
10
67.8838237046
20
38.4997001285
10
67.5155200029
20
40.3115486545
10
67.0961200321
20
42.0137376365
10
66.6256084324
20
43.6032157498
10
66.1035187201
20
45.0782476125
10
65.5290924585
20
46.4372656631
10
64.9010736212
20
47.6792509741
10
64.2183002815
20
48.8017215829
0
LINE
5
2A4
100
AcDbEntity
8
0
100
AcDbLine
62
0
6
CONTINUOUS
10
68.8350980803
20
30.4861630277
11
68.8380672423
21
30.3978033650
0
LWPOLYLINE
5
2A5
100
AcDbEntity
8
0
100
AcDbPolyline
62
0
6
CONTINUOUS
90
9
70
0
10
71.4889317171
20
24.3356703588
10
71.4743690236
20
24.8963827860
10
71.4448919176
20
25.6652200690
10
71.4045685529
20
26.4259356847
10
71.3533890164
20
27.1784517199
10
71.2913426877
20
27.9227094636
10
71.2184156819
20
28.6586669260
10
71.1345956035
20
29.3862621010
10
71.0398811692
20
30.1054091557
0
LINE
5
2A6
100
AcDbEntity
8
0
100
AcDbLine
62
0
6
CONTINUOUS
10
71.4893731221
20
24.2936709182
11
71.4888309047
21
24.3356688149
0
LINE
5
2A7
100
AcDbEntity
8
0
100
AcDbLine
62
0
6
CONTINUOUS
10
67.9957421095
20
-32.2940375909
11
67.9957421134
21
-31.0327333160
0
LINE
5
2A8
100
AcDbEntity
8
0
100
AcDbLine
62
0
6
CONTINUOUS
10
68.8380672499
20
-29.1535640688
11
68.8380672423
21
30.3978033650
0
LINE
5
2A9
100
AcDbEntity
8
0
100
AcDbLine
62
0
6
CONTINUOUS
10
68.8380672499
20
31.7930091905
11
68.8380672499
21
32.0356717304
0
LINE
5
2AA
100
AcDbEntity
8
0
100
AcDbLine
62
0
6
CONTINUOUS
10
68.9974050700
20
31.3494829364
11
68.9974063368
21
-28.7106801120
0
LINE
5
2AB
100
AcDbEntity
8
0
100
AcDbLine
62
0
6
CONTINUOUS
10
70.9914101160
20
30.2910976216
11
70.9914100803
21
-29.7690652160
0
LINE
5
2AC
100
AcDbEntity
8
0
100
AcDbLine
62
0
6
CONTINUOUS
10
71.4893731225
20
-36.3238430483
11
71.4893731221
21
24.2936709182
0
LWPOLYLINE
5
2AD
100
AcDbEntity
8
0
100
AcDbPolyline
62
0
6
CONTINUOUS
90
15
70
0
10
70.9672092427
20
30.6029417746
10
70.9192893280
20
30.8441078296
10
70.8452798848
20
31.0920746762
10
70.7475868360
20
31.3326714643
10
70.6269000328
20
31.5638633113
10
70.4836992238
20
31.7843678125
10
70.3187880814
20
31.9924409251
10
70.1335727768
20
32.1856873478
10
69.9294443887
20
32.3623455708
10
69.7070176733
20
32.5214772121
10
69.4683234904
20
32.6609634142
10
69.2172052799
20
32.7785544202
10
68.9547545174
20
32.8738043134
10
68.6827499231
20
32.9457891904
10
68.6325132312
20
32.9544320612
0
LINE
5
2AE
100
AcDbEntity
8
0
100
AcDbLine
62
0
6
CONTINUOUS
10
70.9669764960
20
30.6044848869
11
70.9672916425
21
30.6024018564
0
LINE
5
2AF
100
AcDbEntity
8
0
100
AcDbLine
62
0
6
CONTINUOUS
10
71.0398811692
20
30.1054091557
11
70.9669937456
21
30.6044369389
0
LINE
5
2B0
100
AcDbEntity
8
0
100
AcDbLine
62
0
6
CONTINUOUS
10
63.5486041105
20
49.7166792847
11
63.5488962473
21
49.7163156886
0
LINE
5
2B1
100
AcDbEntity
8
0
100
AcDbLine
62
0
6
CONTINUOUS
10
64.2183002815
20
48.8017215829
11
63.5488594272
21
49.7162950605
0
CIRCLE
5
2B2
100
AcDbEntity
8
0
100
AcDbCircle
62
0
6
CONTINUOUS
10
-57.0106268776
20
-10.1573087534
40
6.0000000000
0
CIRCLE
5
2B3
100
AcDbEntity
8
0
100
AcDbCircle
62
0
6
CONTINUOUS
10
-57.0106268776
20
-10.1573087534
40
4.0481345110
0
CIRCLE
5
2B4
100
AcDbEntity
8
0
100
AcDbCircle
62
0
6
CONTINUOUS
10
57.4893731224
20
-10.1573087534
40
6.0000000000
0
CIRCLE
5
2B5
100
AcDbEntity
8
0
100
AcDbCircle
62
0
6
CONTINUOUS
10
57.4893731224
20
-10.1573087534
40
4.0481345110
0
CIRCLE
5
2B6
100
AcDbEntity
8
0
100
AcDbCircle
62
0
6
CONTINUOUS
10
54.4893731224
20
29.4426909982
40
6.0000000000
0
CIRCLE
5
2B7
100
AcDbEntity
8
0
100
AcDbCircle
62
0
6
CONTINUOUS
10
54.4893731224
20
29.4426909982
40
4.0481345110
0
CIRCLE
5
2B8
100
AcDbEntity
8
0
100
AcDbCircle
62
0
6
CONTINUOUS
10
-54.0106268776
20
29.4426909982
40
6.0000000000
0
CIRCLE
5
2B9
100
AcDbEntity
8
0
100
AcDbCircle
62
0
6
CONTINUOUS
10
-54.0106268776
20
29.4426909982
40
4.0481345110
0
ARC
5
2BA
100
AcDbEntity
8
0
100
AcDbCircle
62
0
6
CONTINUOUS
10
0.2393731224
20
10.3426912466
40
7.0000000000
100
AcDbArc
50
0.0000000000
51
180.0000000000
0
ARC
5
2BB
100
AcDbEntity
8
0
100
AcDbCircle
62
0
6
CONTINUOUS
10
0.2393731224
20
10.3426912466
40
6.4287407973
100
AcDbArc
50
0.0000000000
51
180.0000000000
0
ARC
5
2BC
100
AcDbEntity
8
0
100
AcDbCircle
62
0
6
CONTINUOUS
10
0.2393731224
20
7.3426912466
40
6.4287407973
100
AcDbArc
50
180.0000000000
51
360.0000000000
0
ARC
5
2BD
100
AcDbEntity
8
0
100
AcDbCircle
62
0
6
CONTINUOUS
10
0.2393731224
20
7.3426912466
40
7.0000000000
100
AcDbArc
50
180.0000000000
51
360.0000000000
0
ARC
5
2BE
100
AcDbEntity
8
0
100
AcDbCircle
62
0
6
CONTINUOUS
10
0.2393731224
20
10.3426912466
40
7.5000000000
100
AcDbArc
50
0.0000000000
51
180.0000000000
0
ARC
5
2BF
100
AcDbEntity
8
0
100
AcDbCircle
62
0
6
CONTINUOUS
10
0.2393731224
20
7.3426912466
40
7.5000000000
100
AcDbArc
50
180.0000000000
51
360.0000000000
0
ARC
5
2C0
100
AcDbEntity
8
0
100
AcDbCircle
62
0
6
CONTINUOUS
10
35.2393731224
20
5.0926912466
40
1.7500000000
100
AcDbArc
50
180.0000000000
51
360.0000000000
0
ARC
5
2C1
100
AcDbEntity
8
0
100
AcDbCircle
62
0
6
CONTINUOUS
10
35.2393731224
20
8.0926912466
40
1.7500000000
100
AcDbArc
50
0.0000000000
51
180.0000000000
0
ARC
5
2C2
100
AcDbEntity
8
0
100
AcDbCircle
62
0
6
CONTINUOUS
10
35.2393731224
20
5.0926912466
40
1.1787407973
100
AcDbArc
50
180.0000000000
51
360.0000000000
0
ARC
5
2C3
100
AcDbEntity
8
0
100
AcDbCircle
62
0
6
CONTINUOUS
10
35.2393731224
20
8.0926912466
40
1.1787407973
100
AcDbArc
50
0.0000000000
51
180.0000000000
0
ARC
5
2C4
100
AcDbEntity
8
0
100
AcDbCircle
62
0
6
CONTINUOUS
10
35.2393731224
20
5.0926912466
40
2.2500000000
100
AcDbArc
50
180.0000000000
51
360.0000000000
0
ARC
5
2C5
100
AcDbEntity
8
0
100
AcDbCircle
62
0
6
CONTINUOUS
10
35.2393731224
20
8.0926912466
40
2.2500000000
100
AcDbArc
50
0.0000000000
51
180.0000000000
0
ARC
5
2C6
100
AcDbEntity
8
0
100
AcDbCircle
62
0
6
CONTINUOUS
10
-34.7606268776
20
5.0926912466
40
1.7500000000
100
AcDbArc
50
180.0000000000
51
360.0000000000
0
ARC
5
2C7
100
AcDbEntity
8
0
100
AcDbCircle
62
0
6
CONTINUOUS
10
-34.7606268776
20
8.0926912466
40
1.7500000000
100
AcDbArc
50
0.0000000000
51
180.0000000000
0
ARC
5
2C8
100
AcDbEntity
8
0
100
AcDbCircle
62
0
6
CONTINUOUS
10
-34.7606268776
20
8.0926912466
40
1.1787407973
100
AcDbArc
50
0.0000000000
51
180.0000000000
0
ARC
5
2C9
100
AcDbEntity
8
0
100
AcDbCircle
62
0
6
CONTINUOUS
10
-34.7606268776
20
5.0926912466
40
1.1787407973
100
AcDbArc
50
180.0000000000
51
360.0000000000
0
ARC
5
2CA
100
AcDbEntity
8
0
100
AcDbCircle
62
0
6
CONTINUOUS
10
-34.7606268776
20
8.0926912466
40
2.2500000000
100
AcDbArc
50
0.0000000000
51
180.0000000000
0
ARC
5
2CB
100
AcDbEntity
8
0
100
AcDbCircle
62
0
6
CONTINUOUS
10
-34.7606268776
20
5.0926912466
40
2.2500000000
100
AcDbArc
50
180.0000000000
51
360.0000000000
0
CIRCLE
5
2CC
100
AcDbEntity
8
0
100
AcDbCircle
62
0
6
CONTINUOUS
10
54.4893731224
20
29.4426911340
40
6.1000000000
0
CIRCLE
5
2CD
100
AcDbEntity
8
0
100
AcDbCircle
62
0
6
CONTINUOUS
10
57.4893731224
20
-10.1573087534
40
6.1000000000
0
CIRCLE
5
2CE
100
AcDbEntity
8
0
100
AcDbCircle
62
0
6
CONTINUOUS
10
-54.0106268776
20
29.4426911340
40
6.1000000000
0
CIRCLE
5
2CF
100
AcDbEntity
8
0
100
AcDbCircle
62
0
6
CONTINUOUS
10
-57.0106268776
20
-10.1573087534
40
6.1000000000
0
CIRCLE
5
2D0
100
AcDbEntity
8
0
100
AcDbCircle
62
0
6
CONTINUOUS
10
-57.0106268776
20
-10.1573087534
40
7.1503111394
0
CIRCLE
5
2D1
100
AcDbEntity
8
0
100
AcDbCircle
62
0
6
CONTINUOUS
10
-54.0106268776
20
29.4426910213
40
7.1503116228
0
CIRCLE
5
2D2
100
AcDbEntity
8
0
100
AcDbCircle
62
0
6
CONTINUOUS
10
57.4893731224
20
-10.1573087534
40
7.1503111394
0
CIRCLE
5
2D3
100
AcDbEntity
8
0
100
AcDbCircle
62
0
6
CONTINUOUS
10
54.4893731224
20
29.4426910213
40
7.1503116228
0
ARC
5
2D4
100
AcDbEntity
8
0
100
AcDbCircle
62
0
6
CONTINUOUS
10
-34.7606268776
20
8.0926912466
40
2.8101660306
100
AcDbArc
50
0.0000000000
51
180.0000000000
0
ARC
5
2D5
100
AcDbEntity
8
0
100
AcDbCircle
62
0
6
CONTINUOUS
10
-34.7606268776
20
5.0926912466
40
2.8101660306
100
AcDbArc
50
180.0000000000
51
360.0000000000
0
ARC
5
2D6
100
AcDbEntity
8
0
100
AcDbCircle
62
0
6
CONTINUOUS
10
35.2393731224
20
5.0926912466
40
2.8101660306
100
AcDbArc
50
180.0000000000
51
360.0000000000
0
ARC
5
2D7
100
AcDbEntity
8
0
100
AcDbCircle
62
0
6
CONTINUOUS
10
35.2393731224
20
8.0926912466
40
2.8101660306
100
AcDbArc
50
0.0000000000
51
180.0000000000
0
ARC
5
2D8
100
AcDbEntity
8
0
100
AcDbCircle
62
0
6
CONTINUOUS
10
0.2393731224
20
7.3426912466
40
8.0601660306
100
AcDbArc
50
180.0000000000
51
360.0000000000
0
ARC
5
2D9
100
AcDbEntity
8
0
100
AcDbCircle
62
0
6
CONTINUOUS
10
0.2393731224
20
10.3426912466
40
8.0601660306
100
AcDbArc
50
0.0000000000
51
180.0000000000
0
SPLINE
5
2DA
100
AcDbEntity
8
0
100
AcDbSpline
62
0
6
CONTINUOUS
70
0
71
3
72
15
73
11
74
9
42
0.0000001000
43
0.0000001000
44
0.0000000001
12
-8.4824256671
22
2.9960377262
32
0.0000000000
13
-0.0000014243
23
8.9746216199
33
0.0000000000
40
0.0000000000
40
0.0000000000
40
0.0000000000
40
0.0000000000
40
0.0973925748
40
0.2195227133
40
0.3533085487
40
0.4934109492
40
0.6338016195
40
0.7684221965
40
0.8918389161
40
1.0000000000
40
1.0000000000
40
1.0000000000
40
1.0000000000
10
-14.0238608777
20
33.5686206572
30
0.0000000000
10
-14.2992359697
20
33.6658846000
30
0.0000000000
10
-14.8928105608
20
33.9560913260
30
0.0000000000
10
-15.7537357037
20
34.5765542709
30
0.0000000000
10
-16.6099012685
20
35.4003064359
30
0.0000000000
10
-17.3914647763
20
36.3660035033
30
0.0000000000
10
-18.0545267742
20
37.4194559066
30
0.0000000000
10
-18.5619961495
20
38.5018497931
30
0.0000000000
10
-18.8858981528
20
39.5521421656
30
0.0000000000
10
-18.9741569005
20
40.2452286804
30
0.0000000000
10
-18.9741569519
20
40.5687969477
30
0.0000000000
11
-14.0238608777
21
33.5686206572
31
0.0000000000
11
-14.8143772903
21
33.9421480973
31
0.0000000000
11
-15.7093162374
21
34.5749653157
31
0.0000000000
11
-16.5782497671
21
35.4035667773
31
0.0000000000
11
-17.3706786622
21
36.3797971725
31
0.0000000000
11
-18.0405498878
21
37.4469215652
31
0.0000000000
11
-18.5489330144
21
38.5429226156
31
0.0000000000
11
-18.8662827010
21
39.6041047902
31
0.0000000000
11
-18.9741569519
21
40.5687969477
31
0.0000000000
0
SPLINE
5
2DB
100
AcDbEntity
8
0
100
AcDbSpline
62
0
6
CONTINUOUS
70
0
71
3
72
15
73
11
74
9
42
0.0000001000
43
0.0000001000
44
0.0000000001
12
8.4824296849
22
2.9960391419
32
0.0000000000
13
0.0000014243
23
8.9746257959
33
0.0000000000
40
0.0000000000
40
0.0000000000
40
0.0000000000
40
0.0000000000
40
0.0973925356
40
0.2195226533
40
0.3533084931
40
0.4934109197
40
0.6338016302
40
0.7684222507
40
0.8918390060
40
1.0000000000
40
1.0000000000
40
1.0000000000
40
1.0000000000
10
14.5026049500
20
33.5686198892
30
0.0000000000
10
14.7779800617
20
33.6658838388
30
0.0000000000
10
15.3715547471
20
33.9560906594
30
0.0000000000
10
16.2324800920
20
34.5765538854
30
0.0000000000
10
17.0886459945
20
35.4003065415
30
0.0000000000
10
17.8702098977
20
36.3660042911
30
0.0000000000
10
18.5332723858
20
37.4194574924
30
0.0000000000
10
19.0407418844
20
38.5018522455
30
0.0000000000
10
19.3646448118
20
39.5521449825
30
0.0000000000
10
19.4529019477
20
40.2452318384
30
0.0000000000
10
19.4529019991
20
40.5687999874
30
0.0000000000
11
14.5026049500
21
33.5686198892
31
0.0000000000
11
15.2931213950
21
33.9421473890
31
0.0000000000
11
16.1880605486
21
34.5749648751
31
0.0000000000
11
17.0569944309
21
35.4035668332
31
0.0000000000
11
17.8494237630
21
36.3797979295
31
0.0000000000
11
18.5192954327
21
37.4469231609
31
0.0000000000
11
19.0276789332
21
38.5429250880
31
0.0000000000
11
19.3450288635
21
39.6041080626
31
0.0000000000
11
19.4529019991
21
40.5687999874
31
0.0000000000
0
SPLINE
5
2DC
100
AcDbEntity
8
0
100
AcDbSpline
62
0
6
CONTINUOUS
70
0
71
3
72
8
73
4
74
2
42
0.0000001000
43
0.0000001000
44
0.0000000001
12
0.1507368401
22
-0.3831763186
32
0.0000000000
13
0.1942685163
23
-0.3626597994
33
0.0000000000
40
0.0000000000
40
0.0000000000
40
0.0000000000
40
0.0000000000
40
1.0000000000
40
1.0000000000
40
1.0000000000
40
1.0000000000
10
-5.6389711021
20
31.9078816261
30
0.0000000000
10
-5.5887254888
20
31.7801561865
30
0.0000000000
10
-5.5307810670
20
31.6554314649
30
0.0000000000
10
-5.4660248949
20
31.5345448651
30
0.0000000000
11
-5.6389711021
21
31.9078816261
31
0.0000000000
11
-5.4660248949
21
31.5345448651
31
0.0000000000
0
SPLINE
5
2DD
100
AcDbEntity
8
0
100
AcDbSpline
62
0
6
CONTINUOUS
70
0
71
3
72
9
73
5
74
3
42
0.0000001000
43
0.0000001000
44
0.0000000001
12
0.9331396393
22
-1.7419818754
32
0.0000000000
13
1.5896109105
23
-1.1693924125
33
0.0000000000
40
0.0000000000
40
0.0000000000
40
0.0000000000
40
0.0000000000
40
0.5826409489
40
1.0000000000
40
1.0000000000
40
1.0000000000
40
1.0000000000
10
-5.4660248949
20
31.5345448651
30
0.0000000000
10
-5.2847964399
20
31.1962282075
30
0.0000000000
10
-4.8821809602
20
30.6671626512
30
0.0000000000
10
-4.3816951824
20
30.2376911448
30
0.0000000000
10
-4.1605490154
20
30.0750056422
30
0.0000000000
11
-5.4660248949
21
31.5345448651
31
0.0000000000
11
-4.7824118330
21
30.6135269315
31
0.0000000000
11
-4.1605490154
21
30.0750056422
31
0.0000000000
0
SPLINE
5
2DE
100
AcDbEntity
8
0
100
AcDbSpline
62
0
6
CONTINUOUS
70
0
71
3
72
8
73
4
74
2
42
0.0000001000
43
0.0000001000
44
0.0000000001
12
0.1458735135
22
-0.1073114048
32
0.0000000000
13
0.1492783428
23
-0.1025335211
33
0.0000000000
40
0.0000000000
40
0.0000000000
40
0.0000000000
40
0.0000000000
40
1.0000000000
40
1.0000000000
40
1.0000000000
40
1.0000000000
10
-4.1605490154
20
30.0750056422
30
0.0000000000
10
-4.1119245108
20
30.0392351740
30
0.0000000000
10
-4.0627071082
20
30.0042652175
30
0.0000000000
10
-4.0129476606
20
29.9700873772
30
0.0000000000
11
-4.1605490154
21
30.0750056422
31
0.0000000000
11
-4.0129476606
21
29.9700873772
31
0.0000000000
0
SPLINE
5
2DF
100
AcDbEntity
8
0
100
AcDbSpline
62
0
6
CONTINUOUS
70
0
71
3
72
8
73
4
74
2
42
0.0000001000
43
0.0000001000
44
0.0000000001
12
0.2031143395
22
-0.1395113853
32
0.0000000000
13
0.2087511162
23
-0.1307759475
33
0.0000000000
40
0.0000000000
40
0.0000000000
40
0.0000000000
40
0.0000000000
40
1.0000000000
40
1.0000000000
40
1.0000000000
40
1.0000000000
10
-4.0129476606
20
29.9700873772
30
0.0000000000
10
-3.9452428808
20
29.9235835821
30
0.0000000000
10
-3.8765345882
20
29.8785462678
30
0.0000000000
10
-3.8069508828
20
29.8349542853
30
0.0000000000
11
-4.0129476606
21
29.9700873772
31
0.0000000000
11
-3.8069508828
21
29.8349542853
31
0.0000000000
0
SPLINE
5
2E0
100
AcDbEntity
8
0
100
AcDbSpline
62
0
6
CONTINUOUS
70
0
71
3
72
8
73
4
74
2
42
0.0000001000
43
0.0000001000
44
0.0000000001
12
0.2009710281
22
-0.1259019694
32
0.0000000000
13
0.2056390682
23
-0.1179359172
33
0.0000000000
40
0.0000000000
40
0.0000000000
40
0.0000000000
40
0.0000000000
40
1.0000000000
40
1.0000000000
40
1.0000000000
40
1.0000000000
10
-3.8069508828
20
29.8349542853
30
0.0000000000
10
-3.7399605401
20
29.7929869622
30
0.0000000000
10
-3.6721588213
20
29.7523592443
30
0.0000000000
10
-3.6036124653
20
29.7130472719
30
0.0000000000
11
-3.8069508828
21
29.8349542853
31
0.0000000000
11
-3.6036124653
21
29.7130472719
31
0.0000000000
0
SPLINE
5
2E1
100
AcDbEntity
8
0
100
AcDbSpline
62
0
6
CONTINUOUS
70
0
71
3
72
8
73
4
74
2
42
0.0000001000
43
0.0000001000
44
0.0000000001
12
0.1749390622
22
-0.1003291784
32
0.0000000000
13
0.1780491883
23
-0.0946599679
33
0.0000000000
40
0.0000000000
40
0.0000000000
40
0.0000000000
40
0.0000000000
40
1.0000000000
40
1.0000000000
40
1.0000000000
40
1.0000000000
10
-3.6036124653
20
29.7130472719
30
0.0000000000
10
-3.5452994445
20
29.6796042124
30
0.0000000000
10
-3.4864475251
20
29.6471133662
30
0.0000000000
10
-3.4270977957
20
29.6155600435
30
0.0000000000
11
-3.6036124653
21
29.7130472719
31
0.0000000000
11
-3.4270977957
21
29.6155600435
31
0.0000000000
0
SPLINE
5
2E2
100
AcDbEntity
8
0
100
AcDbSpline
62
0
6
CONTINUOUS
70
0
71
3
72
8
73
4
74
2
42
0.0000001000
43
0.0000001000
44
0.0000000001
12
0.3991304161
22
-0.2121979478
32
0.0000000000
13
0.4127512886
23
-0.1844271542
33
0.0000000000
40
0.0000000000
40
0.0000000000
40
0.0000000000
40
0.0000000000
40
1.0000000000
40
1.0000000000
40
1.0000000000
40
1.0000000000
10
-3.4270977957
20
29.6155600435
30
0.0000000000
10
-3.2940543237
20
29.5448273943
30
0.0000000000
10
-3.1585092780
20
29.4788059486
30
0.0000000000
10
-3.0209255152
20
29.4173302305
30
0.0000000000
11
-3.4270977957
21
29.6155600435
31
0.0000000000
11
-3.0209255152
21
29.4173302305
31
0.0000000000
0
SPLINE
5
2E3
100
AcDbEntity
8
0
100
AcDbSpline
62
0
6
CONTINUOUS
70
0
71
3
72
10
73
6
74
4
42
0.0000001000
43
0.0000001000
44
0.0000000001
12
2.0888116790
22
-0.9333310502
32
0.0000000000
13
2.2699465837
23
-0.2838273464
33
0.0000000000
40
0.0000000000
40
0.0000000000
40
0.0000000000
40
0.0000000000
40
0.2004874453
40
0.8240118503
40
1.0000000000
40
1.0000000000
40
1.0000000000
40
1.0000000000
10
-3.0209255152
20
29.4173302305
30
0.0000000000
10
-2.8813320094
20
29.3549565112
30
0.0000000000
10
-2.2989710184
20
29.1178308392
30
0.0000000000
10
-1.5591188611
20
28.9224488772
30
0.0000000000
10
-0.9559318703
20
28.8323661008
30
0.0000000000
10
-0.8227706373
20
28.8157160176
30
0.0000000000
11
-3.0209255152
21
29.4173302305
31
0.0000000000
11
-2.5963322965
21
29.2440747395
31
0.0000000000
11
-1.2209128332
21
28.8752280635
31
0.0000000000
11
-0.8227706373
21
28.8157160176
31
0.0000000000
0
SPLINE
5
2E4
100
AcDbEntity
8
0
100
AcDbSpline
62
0
6
CONTINUOUS
70
0
71
3
72
8
73
4
74
2
42
0.0000001000
43
0.0000001000
44
0.0000000001
12
0.0791242975
22
-0.0098934660
32
0.0000000000
13
0.0792115278
23
-0.0091458034
33
0.0000000000
40
0.0000000000
40
0.0000000000
40
0.0000000000
40
0.0000000000
40
1.0000000000
40
1.0000000000
40
1.0000000000
40
1.0000000000
10
-0.8227706373
20
28.8157160176
30
0.0000000000
10
-0.7963958715
20
28.8124181956
30
0.0000000000
10
-0.7700058792
20
28.8092450818
30
0.0000000000
10
-0.7436020366
20
28.8061964807
30
0.0000000000
11
-0.8227706373
21
28.8157160176
31
0.0000000000
11
-0.7436020366
21
28.8061964807
31
0.0000000000
0
SPLINE
5
2E5
100
AcDbEntity
8
0
100
AcDbSpline
62
0
6
CONTINUOUS
70
0
71
3
72
8
73
4
74
2
42
0.0000001000
43
0.0000001000
44
0.0000000001
12
0.9792251734
22
-0.1130618385
32
0.0000000000
13
0.9841252109
23
-0.0000000582
33
0.0000000000
40
0.0000000000
40
0.0000000000
40
0.0000000000
40
0.0000000000
40
1.0000000000
40
1.0000000000
40
1.0000000000
40
1.0000000000
10
-0.7436020366
20
28.8061964807
30
0.0000000000
10
-0.4171936454
20
28.7685092012
30
0.0000000000
10
-0.0886686145
20
28.7498503008
30
0.0000000000
10
0.2393731224
20
28.7498502814
30
0.0000000000
11
-0.7436020366
21
28.8061964807
31
0.0000000000
11
0.2393731224
21
28.7498502814
31
0.0000000000
0
SPLINE
5
2E6
100
AcDbEntity
8
0
100
AcDbSpline
62
0
6
CONTINUOUS
70
0
71
3
72
10
73
6
74
4
42
0.0000001000
43
0.0000001000
44
0.0000000001
12
1.1148192252
22
1.3921137740
32
0.0000000000
13
1.7870325846
23
0.0009631169
33
0.0000000000
40
0.0000000000
40
0.0000000000
40
0.0000000000
40
0.0000000000
40
0.3482461831
40
0.6995089600
40
1.0000000000
40
1.0000000000
40
1.0000000000
40
1.0000000000
10
-63.0719284748
20
49.7140981919
30
0.0000000000
10
-62.9425179614
20
49.8756976280
30
0.0000000000
10
-62.6294445407
20
50.1615211830
30
0.0000000000
10
-62.0799959264
20
50.4112017772
30
0.0000000000
10
-61.6898026505
20
50.4638118850
30
0.0000000000
10
-61.5108068906
20
50.4639083544
30
0.0000000000
11
-63.0719284748
21
49.7140981919
31
0.0000000000
11
-62.6131302949
21
50.1327353390
31
0.0000000000
11
-62.0427789416
21
50.3918921968
31
0.0000000000
11
-61.5108068906
21
50.4639083544
31
0.0000000000
0
SPLINE
5
2E7
100
AcDbEntity
8
0
100
AcDbSpline
62
0
6
CONTINUOUS
70
0
71
3
72
11
73
7
74
5
42
0.0000001000
43
0.0000001000
44
0.0000000001
12
-1.1192171218
22
1.3928241072
32
0.0000000000
13
-1.7910766125
23
-0.0010702428
33
0.0000000000
40
0.0000000000
40
0.0000000000
40
0.0000000000
40
0.0000000000
40
0.1735554110
40
0.5335774111
40
0.9036262312
40
1.0000000000
40
1.0000000000
40
1.0000000000
40
1.0000000000
10
63.5486079842
20
49.7166823975
30
0.0000000000
10
63.4838592550
20
49.7972597843
30
0.0000000000
10
63.2656678146
20
50.0295178810
30
0.0000000000
10
62.8087198102
20
50.3276076460
30
0.0000000000
10
62.3255739033
20
50.4520780166
30
0.0000000000
10
62.0470908158
20
50.4638624053
30
0.0000000000
10
61.9895532147
20
50.4638280242
30
0.0000000000
11
63.5486079842
21
49.7166823975
31
0.0000000000
11
63.3364557387
21
49.9424016181
31
0.0000000000
11
62.7997779174
21
50.2924722150
31
0.0000000000
11
62.1619250006
21
50.4564965642
31
0.0000000000
11
61.9895532147
21
50.4638280242
31
0.0000000000
0
SPLINE
5
2E8
100
AcDbEntity
8
0
100
AcDbSpline
62
0
6
CONTINUOUS
70
0
71
3
72
8
73
4
74
2
42
0.0000001000
43
0.0000001000
44
0.0000000001
12
-0.6587292172
22
0.5211790353
32
0.0000000000
13
-0.7337060965
23
0.4132276776
33
0.0000000000
40
0.0000000000
40
0.0000000000
40
0.0000000000
40
0.0000000000
40
1.0000000000
40
1.0000000000
40
1.0000000000
40
1.0000000000
10
4.4893795744
20
34.6897396760
30
0.0000000000
10
4.2698031686
20
34.8634660211
30
0.0000000000
10
4.0351725478
20
35.0188168754
30
0.0000000000
10
3.7906038490
20
35.1565594346
30
0.0000000000
11
4.4893795744
21
34.6897396760
31
0.0000000000
11
3.7906038490
21
35.1565594346
31
0.0000000000
0
SPLINE
5
2E9
100
AcDbEntity
8
0
100
AcDbSpline
62
0
6
CONTINUOUS
70
0
71
3
72
8
73
4
74
2
42
0.0000001000
43
0.0000001000
44
0.0000000001
12
-0.7337059586
22
-0.4132249130
32
0.0000000000
13
-0.6587299070
23
-0.5211758148
33
0.0000000000
40
0.0000000000
40
0.0000000000
40
0.0000000000
40
0.0000000000
40
1.0000000000
40
1.0000000000
40
1.0000000000
40
1.0000000000
10
-3.3118444545
20
35.1565676114
30
0.0000000000
10
-3.5564131074
20
35.0188259737
30
0.0000000000
10
-3.7910437899
20
34.8634761197
30
0.0000000000
10
-4.0106204256
20
34.6897508481
30
0.0000000000
11
-3.3118444545
21
35.1565676114
31
0.0000000000
11
-4.0106204256
21
34.6897508481
31
0.0000000000
0
SPLINE
5
2EA
100
AcDbEntity
8
0
100
AcDbSpline
62
0
6
CONTINUOUS
70
0
71
3
72
14
73
10
74
8
42
0.0000001000
43
0.0000001000
44
0.0000000001
12
0.0000000000
22
-4.2874773161
32
0.0000000000
13
4.2874773161
23
0.0000000000
33
0.0000000000
40
0.0000000000
40
0.0000000000
40
0.0000000000
40
0.0000000000
40
0.1286685105
40
0.2604867632
40
0.3975356897
40
0.5408434688
40
0.6901481880
40
0.8440900676
40
1.0000000000
40
1.0000000000
40
1.0000000000
40
1.0000000000
10
-71.0106268776
20
-36.3238430486
30
0.0000000000
10
-71.0106268776
20
-36.5077308220
30
0.0000000000
10
-70.9586544187
20
-36.8819101532
30
0.0000000000
10
-70.7306562020
20
-37.4090645043
30
0.0000000000
10
-70.3660948870
20
-37.8791088878
30
0.0000000000
10
-69.8852428947
20
-38.2688547159
30
0.0000000000
10
-69.3126913915
20
-38.5605662219
30
0.0000000000
10
-68.6777763242
20
-38.7407063141
30
0.0000000000
10
-68.2338533176
20
-38.7811775387
30
0.0000000000
10
-68.0110332181
20
-38.7811775387
30
0.0000000000
11
-71.0106268776
21
-36.3238430486
31
0.0000000000
11
-70.9355122522
21
-36.8703686307
31
0.0000000000
11
-70.7135602147
21
-37.3901300174
31
0.0000000000
11
-70.3559097784
21
-37.8563414144
31
0.0000000000
11
-69.8805132323
21
-38.2455983194
31
0.0000000000
11
-69.3112394355
21
-38.5383564580
31
0.0000000000
11
-68.6766805840
21
-38.7199178054
31
0.0000000000
11
-68.0110332181
21
-38.7811775387
31
0.0000000000
0
SPLINE
5
2EB
100
AcDbEntity
8
0
100
AcDbSpline
62
0
6
CONTINUOUS
70
0
71
3
72
14
73
10
74
8
42
0.0000001000
43
0.0000001000
44
0.0000000001
12
4.2874772508
22
0.0000000000
32
0.0000000000
13
0.0000000000
23
4.2874772508
33
0.0000000000
40
0.0000000000
40
0.0000000000
40
0.0000000000
40
0.0000000000
40
0.1559075126
40
0.3098459956
40
0.4591483565
40
0.6024562114
40
0.7395074584
40
0.8713289685
40
1.0000000000
40
1.0000000000
40
1.0000000000
40
1.0000000000
10
68.4897794629
20
-38.7811775387
30
0.0000000000
10
68.7125961006
20
-38.7811775387
30
0.0000000000
10
69.1565107379
20
-38.7407077036
30
0.0000000000
10
69.7914152125
20
-38.5605740548
30
0.0000000000
10
70.3639619924
20
-38.2688717229
30
0.0000000000
10
70.8448188285
20
-37.8791319277
30
0.0000000000
10
71.2093910286
20
-37.4090855285
30
0.0000000000
10
71.4373984582
20
-36.8819221131
30
0.0000000000
10
71.4893731225
20
-36.5077344217
30
0.0000000000
10
71.4893731225
20
-36.3238430483
30
0.0000000000
11
68.4897794629
21
-38.7811775387
31
0.0000000000
11
69.1554165756
21
-38.7199197168
31
0.0000000000
11
69.7899623523
21
-38.5383656492
31
0.0000000000
11
70.3592299538
21
-38.2456175935
31
0.0000000000
11
70.8346316338
21
-37.8563664599
31
0.0000000000
11
71.1922938076
21
-37.3901515395
31
0.0000000000
11
71.4142555738
21
-36.8703791303
31
0.0000000000
11
71.4893731225
21
-36.3238430483
31
0.0000000000
0
SPLINE
5
2EC
100
AcDbEntity
8
0
100
AcDbSpline
62
0
6
CONTINUOUS
70
0
71
3
72
8
73
4
74
2
42
0.0000001000
43
0.0000001000
44
0.0000000001
12
0.9783227463
22
-0.0000000579
32
0.0000000000
13
0.9735257805
23
0.1117259596
33
0.0000000000
40
0.0000000000
40
0.0000000000
40
0.0000000000
40
0.0000000000
40
1.0000000000
40
1.0000000000
40
1.0000000000
40
1.0000000000
10
0.2393731224
20
28.7498502814
30
0.0000000000
10
0.5654807045
20
28.7498502621
30
0.0000000000
10
0.8920659006
20
28.7682897445
30
0.0000000000
10
1.2165744941
20
28.8055317311
30
0.0000000000
11
0.2393731224
21
28.7498502814
31
0.0000000000
11
1.2165744941
21
28.8055317311
31
0.0000000000
0
SPLINE
5
2ED
100
AcDbEntity
8
0
100
AcDbSpline
62
0
6
CONTINUOUS
70
0
71
3
72
8
73
4
74
2
42
0.0000001000
43
0.0000001000
44
0.0000000001
12
0.0228854647
22
0.0026264333
32
0.0000000000
13
0.0228784798
23
0.0026887910
33
0.0000000000
40
0.0000000000
40
0.0000000000
40
0.0000000000
40
0.0000000000
40
1.0000000000
40
1.0000000000
40
1.0000000000
40
1.0000000000
10
1.2165744941
20
28.8055317311
30
0.0000000000
10
1.2242029824
20
28.8064072088
30
0.0000000000
10
1.2318303230
20
28.8072930772
30
0.0000000000
10
1.2394564830
20
28.8081893408
30
0.0000000000
11
1.2165744941
21
28.8055317311
31
0.0000000000
11
1.2394564830
21
28.8081893408
31
0.0000000000
0
SPLINE
5
2EE
100
AcDbEntity
8
0
100
AcDbSpline
62
0
6
CONTINUOUS
70
0
71
3
72
8
73
4
74
2
42
0.0000001000
43
0.0000001000
44
0.0000000001
12
0.0621000037
22
0.0072982965
32
0.0000000000
13
0.0620458170
23
0.0077581133
33
0.0000000000
40
0.0000000000
40
0.0000000000
40
0.0000000000
40
0.0000000000
40
1.0000000000
40
1.0000000000
40
1.0000000000
40
1.0000000000
10
1.2394564830
20
28.8081893408
30
0.0000000000
10
1.2601564842
20
28.8106221063
30
0.0000000000
10
1.2808477861
20
28.8131314608
30
0.0000000000
10
1.3015297251
20
28.8157174986
30
0.0000000000
11
1.2394564830
21
28.8081893408
31
0.0000000000
11
1.3015297251
21
28.8157174986
31
0.0000000000
0
SPLINE
5
2EF
100
AcDbEntity
8
0
100
AcDbSpline
62
0
6
CONTINUOUS
70
0
71
3
72
10
73
6
74
4
42
0.0000001000
43
0.0000001000
44
0.0000000001
12
2.2699331719
22
0.2838289430
32
0.0000000000
13
2.0887997858
23
0.9333255054
33
0.0000000000
40
0.0000000000
40
0.0000000000
40
0.0000000000
40
0.0000000000
40
0.1759834887
40
0.7995114250
40
1.0000000000
40
1.0000000000
40
1.0000000000
40
1.0000000000
10
1.3015297251
20
28.8157174986
30
0.0000000000
10
1.4346866447
20
28.8323672344
30
0.0000000000
10
2.0378692514
20
28.9224497659
30
0.0000000000
10
2.7777171877
20
29.1178305254
30
0.0000000000
10
3.3600781559
20
29.3549561229
30
0.0000000000
10
3.4996716534
20
29.4173298230
30
0.0000000000
11
1.3015297251
21
28.8157174986
31
0.0000000000
11
1.6996590567
21
28.8752278889
31
0.0000000000
11
3.0750784607
21
29.2440743900
31
0.0000000000
11
3.4996716534
21
29.4173298230
31
0.0000000000
0
SPLINE
5
2F0
100
AcDbEntity
8
0
100
AcDbSpline
62
0
6
CONTINUOUS
70
0
71
3
72
8
73
4
74
2
42
0.0000001000
43
0.0000001000
44
0.0000000001
12
0.4127512589
22
0.1844270954
32
0.0000000000
13
0.3991303887
23
0.2121978904
33
0.0000000000
40
0.0000000000
40
0.0000000000
40
0.0000000000
40
0.0000000000
40
1.0000000000
40
1.0000000000
40
1.0000000000
40
1.0000000000
10
3.4996716534
20
29.4173298230
30
0.0000000000
10
3.6372554064
20
29.4788055215
30
0.0000000000
10
3.7728004425
20
29.5448269478
30
0.0000000000
10
3.9058439054
20
29.6155595779
30
0.0000000000
11
3.4996716534
21
29.4173298230
31
0.0000000000
11
3.9058439054
21
29.6155595779
31
0.0000000000
0
SPLINE
5
2F1
100
AcDbEntity
8
0
100
AcDbSpline
62
0
6
CONTINUOUS
70
0
71
3
72
8
73
4
74
2
42
0.0000001000
43
0.0000001000
44
0.0000000001
12
0.1780622556
22
0.0946668960
32
0.0000000000
13
0.1749516639
23
0.1003369431
33
0.0000000000
40
0.0000000000
40
0.0000000000
40
0.0000000000
40
0.0000000000
40
1.0000000000
40
1.0000000000
40
1.0000000000
40
1.0000000000
10
3.9058439054
20
29.6155595779
30
0.0000000000
10
3.9651979906
20
29.6471152099
30
0.0000000000
10
4.0240541927
20
29.6796085033
30
0.0000000000
10
4.0823714140
20
29.7130541510
30
0.0000000000
11
3.9058439054
21
29.6155595779
31
0.0000000000
11
4.0823714140
21
29.7130541510
31
0.0000000000
0
SPLINE
5
2F2
100
AcDbEntity
8
0
100
AcDbSpline
62
0
6
CONTINUOUS
70
0
71
3
72
8
73
4
74
2
42
0.0000001000
43
0.0000001000
44
0.0000000001
12
0.2056259205
22
0.1179290086
32
0.0000000000
13
0.2009584520
23
0.1258940700
33
0.0000000000
40
0.0000000000
40
0.0000000000
40
0.0000000000
40
0.0000000000
40
1.0000000000
40
1.0000000000
40
1.0000000000
40
1.0000000000
10
4.0823714140
20
29.7130541510
30
0.0000000000
10
4.1509133875
20
29.7523638206
30
0.0000000000
10
4.2187108127
20
29.7929890727
30
0.0000000000
10
4.2856969634
20
29.8349537627
30
0.0000000000
11
4.0823714140
21
29.7130541510
31
0.0000000000
11
4.2856969634
21
29.8349537627
31
0.0000000000
0
SPLINE
5
2F3
100
AcDbEntity
8
0
100
AcDbSpline
62
0
6
CONTINUOUS
70
0
71
3
72
8
73
4
74
2
42
0.0000001000
43
0.0000001000
44
0.0000000001
12
0.2087647485
22
0.1307844661
32
0.0000000000
13
0.2031272101
23
0.1395210509
33
0.0000000000
40
0.0000000000
40
0.0000000000
40
0.0000000000
40
0.0000000000
40
1.0000000000
40
1.0000000000
40
1.0000000000
40
1.0000000000
10
4.2856969634
20
29.8349537627
30
0.0000000000
10
4.3552852129
20
29.8785485847
30
0.0000000000
10
4.4239979352
20
29.9235889276
30
0.0000000000
10
4.4917070053
20
29.9700959446
30
0.0000000000
11
4.2856969634
21
29.8349537627
31
0.0000000000
11
4.4917070053
21
29.9700959446
31
0.0000000000
0
SPLINE
5
2F4
100
AcDbEntity
8
0
100
AcDbSpline
62
0
6
CONTINUOUS
70
0
71
3
72
8
73
4
74
2
42
0.0000001000
43
0.0000001000
44
0.0000000001
12
0.1492647593
22
0.1025247975
32
0.0000000000
13
0.1458605226
23
0.1073018336
33
0.0000000000
40
0.0000000000
40
0.0000000000
40
0.0000000000
40
0.0000000000
40
1.0000000000
40
1.0000000000
40
1.0000000000
40
1.0000000000
10
4.4917070053
20
29.9700959446
30
0.0000000000
10
4.5414619251
20
30.0042708771
30
0.0000000000
10
4.5906748918
20
30.0392377856
30
0.0000000000
10
4.6392950660
20
30.0750050634
30
0.0000000000
11
4.4917070053
21
29.9700959446
31
0.0000000000
11
4.6392950660
21
30.0750050634
31
0.0000000000
0
SPLINE
5
2F5
100
AcDbEntity
8
0
100
AcDbSpline
62
0
6
CONTINUOUS
70
0
71
3
72
10
73
6
74
4
42
0.0000001000
43
0.0000001000
44
0.0000000001
12
1.8820441606
22
1.3845198536
32
0.0000000000
13
0.8876003585
23
2.1670169091
33
0.0000000000
40
0.0000000000
40
0.0000000000
40
0.0000000000
40
0.0000000000
40
0.3525094965
40
0.8446192688
40
1.0000000000
40
1.0000000000
40
1.0000000000
40
1.0000000000
10
4.6392950660
20
30.0750050634
30
0.0000000000
10
4.8604412125
20
30.2376905289
30
0.0000000000
10
5.3609269439
20
30.6671619482
30
0.0000000000
10
5.8376096952
20
31.2935571699
30
0.0000000000
10
6.0538955393
20
31.7511838915
30
0.0000000000
10
6.0998675368
20
31.8634214487
30
0.0000000000
11
4.6392950660
21
30.0750050634
31
0.0000000000
11
5.2611578249
21
30.6135262436
31
0.0000000000
11
5.9447708132
21
31.5345440309
31
0.0000000000
11
6.0998675368
21
31.8634214487
31
0.0000000000
0
SPLINE
5
2F6
100
AcDbEntity
8
0
100
AcDbSpline
62
0
6
CONTINUOUS
70
0
71
3
72
8
73
4
74
2
42
0.0000001000
43
0.0000001000
44
0.0000000001
12
0.0181593316
22
0.0443347935
32
0.0000000000
13
0.0175381979
23
0.0445824796
33
0.0000000000
40
0.0000000000
40
0.0000000000
40
0.0000000000
40
0.0000000000
40
1.0000000000
40
1.0000000000
40
1.0000000000
40
1.0000000000
10
6.0998675368
20
31.8634214487
30
0.0000000000
10
6.1059206474
20
31.8781997132
30
0.0000000000
10
6.1118709342
20
31.8930199182
30
0.0000000000
10
6.1177170001
20
31.9078807448
30
0.0000000000
11
6.0998675368
21
31.8634214487
31
0.0000000000
11
6.1177170001
21
31.9078807448
31
0.0000000000
0
SPLINE
5
2F7
100
AcDbEntity
8
0
100
AcDbSpline
62
0
6
CONTINUOUS
70
0
71
3
72
10
73
6
74
4
42
0.0000001000
43
0.0000001000
44
0.0000000001
12
1.9770196249
22
1.4094693790
32
0.0000000000
13
2.3857944723
23
0.4617388086
33
0.0000000000
40
0.0000000000
40
0.0000000000
40
0.0000000000
40
0.0000000000
40
0.3597723127
40
0.7393881209
40
1.0000000000
40
1.0000000000
40
1.0000000000
40
1.0000000000
10
-3.3106203114
20
35.2007433341
30
0.0000000000
10
-3.0735280038
20
35.3697726869
30
0.0000000000
10
-2.5523751418
20
35.6712222998
30
0.0000000000
10
-1.7926153139
20
35.9583545479
30
0.0000000000
10
-1.2878555641
20
36.0810086313
30
0.0000000000
10
-1.0806001039
20
36.1211201708
30
0.0000000000
11
-3.3106203114
21
35.2007433341
31
0.0000000000
11
-2.5567481220
21
35.6420254228
31
0.0000000000
11
-1.6957528327
21
35.9710164017
31
0.0000000000
11
-1.0806001039
21
36.1211201708
31
0.0000000000
0
SPLINE
5
2F8
100
AcDbEntity
8
0
100
AcDbSpline
62
0
6
CONTINUOUS
70
0
71
3
72
8
73
4
74
2
42
0.0000001000
43
0.0000001000
44
0.0000000001
12
0.3187393126
22
0.0616877573
32
0.0000000000
13
0.3210516505
23
0.0463394740
33
0.0000000000
40
0.0000000000
40
0.0000000000
40
0.0000000000
40
0.0000000000
40
1.0000000000
40
1.0000000000
40
1.0000000000
40
1.0000000000
10
-1.0806001039
20
36.1211201708
30
0.0000000000
10
-0.9743536663
20
36.1416827566
30
0.0000000000
10
-0.8676375282
20
36.1596657000
30
0.0000000000
10
-0.7606203114
20
36.1751121914
30
0.0000000000
11
-1.0806001039
21
36.1211201708
31
0.0000000000
11
-0.7606203114
21
36.1751121914
31
0.0000000000
0
SPLINE
5
2F9
100
AcDbEntity
8
0
100
AcDbSpline
62
0
6
CONTINUOUS
70
0
71
3
72
8
73
4
74
2
42
0.0000001000
43
0.0000001000
44
0.0000000001
12
0.3210519858
22
-0.0463401881
32
0.0000000000
13
0.3187396099
23
-0.0616885126
33
0.0000000000
40
0.0000000000
40
0.0000000000
40
0.0000000000
40
0.0000000000
40
1.0000000000
40
1.0000000000
40
1.0000000000
40
1.0000000000
10
1.2393796886
20
36.1751120298
30
0.0000000000
10
1.3463970172
20
36.1596653004
30
0.0000000000
10
1.4531132613
20
36.1416821123
30
0.0000000000
10
1.5593597980
20
36.1211192748
30
0.0000000000
11
1.2393796886
21
36.1751120298
31
0.0000000000
11
1.5593597980
21
36.1211192748
31
0.0000000000
0
SPLINE
5
2FA
100
AcDbEntity
8
0
100
AcDbSpline
62
0
6
CONTINUOUS
70
0
71
3
72
10
73
6
74
4
42
0.0000001000
43
0.0000001000
44
0.0000000001
12
2.3857957288
22
-0.4617442744
32
0.0000000000
13
1.9770170147
23
-1.4094769372
33
0.0000000000
40
0.0000000000
40
0.0000000000
40
0.0000000000
40
0.0000000000
40
0.2606119452
40
0.6402277674
40
1.0000000000
40
1.0000000000
40
1.0000000000
40
1.0000000000
10
1.5593597980
20
36.1211192748
30
0.0000000000
10
1.7666154199
20
36.0810072502
30
0.0000000000
10
2.2713754392
20
35.9583519325
30
0.0000000000
10
3.0311352890
20
35.6712175645
30
0.0000000000
10
3.5522877468
20
35.3697661985
30
0.0000000000
10
3.7893796886
20
35.2007359769
30
0.0000000000
11
1.5593597980
21
36.1211192748
31
0.0000000000
11
2.1745129276
21
35.9710139761
31
0.0000000000
11
3.0355082408
21
35.6420205585
31
0.0000000000
11
3.7893796886
21
35.2007359769
31
0.0000000000
0
SPLINE
5
2FB
100
AcDbEntity
8
0
100
AcDbSpline
62
0
6
CONTINUOUS
70
0
71
3
72
10
73
6
74
4
42
0.0000001000
43
0.0000001000
44
0.0000000001
12
-0.4059268616
22
0.2750365901
32
0.0000000000
13
-0.3472531114
23
0.3461748394
33
0.0000000000
40
0.0000000000
40
0.0000000000
40
0.0000000000
40
0.0000000000
40
0.2959514323
40
0.6331528526
40
1.0000000000
40
1.0000000000
40
1.0000000000
40
1.0000000000
10
20.2219289687
20
49.7761271151
30
0.0000000000
10
20.1818840900
20
49.8032596060
30
0.0000000000
10
20.0990026915
20
49.8654358356
30
0.0000000000
10
19.9748148900
20
49.9718051591
30
0.0000000000
10
19.8914574893
20
50.0512186962
30
0.0000000000
10
19.8489945515
20
50.0935497803
30
0.0000000000
11
20.2219289687
21
49.7761271151
31
0.0000000000
11
20.1053313268
21
49.8625150151
31
0.0000000000
11
19.9794317127
21
49.9696896056
31
0.0000000000
11
19.8489945515
21
50.0935497803
31
0.0000000000
0
SPLINE
5
2FC
100
AcDbEntity
8
0
100
AcDbSpline
62
0
6
CONTINUOUS
70
0
71
3
72
11
73
7
74
5
42
0.0000001000
43
0.0000001000
44
0.0000000001
12
-0.5079448754
22
-0.1039138810
32
0.0000000000
13
-0.5075138779
23
-0.1059988438
33
0.0000000000
40
0.0000000000
40
0.0000000000
40
0.0000000000
40
0.0000000000
40
0.2558191762
40
0.4985786841
40
0.7470936488
40
1.0000000000
40
1.0000000000
40
1.0000000000
40
1.0000000000
10
19.8583006540
20
50.0954099384
30
0.0000000000
10
19.8149866408
20
50.0865488839
30
0.0000000000
10
19.7305273985
20
50.0694869959
30
0.0000000000
10
19.6039517729
20
50.0440110694
30
0.0000000000
10
19.4779123912
20
50.0184220353
30
0.0000000000
10
19.3930488590
20
50.0008842117
30
0.0000000000
10
19.3502643646
20
49.9919482847
30
0.0000000000
11
19.8583006540
21
50.0954099384
31
0.0000000000
11
19.7283119381
21
50.0690559640
31
0.0000000000
11
19.6049337753
21
50.0441730874
31
0.0000000000
11
19.4786710054
21
50.0185002772
31
0.0000000000
11
19.3502643646
21
49.9919482847
31
0.0000000000
0
SPLINE
5
2FD
100
AcDbEntity
8
0
100
AcDbSpline
62
0
6
CONTINUOUS
70
0
71
3
72
11
73
7
74
5
42
0.0000001000
43
0.0000001000
44
0.0000000001
12
-0.3251937334
22
-0.3859775860
32
0.0000000000
13
-0.3342873525
23
-0.3781291143
33
0.0000000000
40
0.0000000000
40
0.0000000000
40
0.0000000000
40
0.0000000000
40
0.2448573608
40
0.4923936839
40
0.7441120313
40
1.0000000000
40
1.0000000000
40
1.0000000000
40
1.0000000000
10
20.2219289907
20
49.7761270982
30
0.0000000000
10
20.1953869643
20
49.7446239472
30
0.0000000000
10
20.1414652223
20
49.6817329500
30
0.0000000000
10
20.0587937741
20
49.5877260917
30
0.0000000000
10
19.9745614934
20
49.4926230959
30
0.0000000000
10
19.9179555118
20
49.4286816075
30
0.0000000000
10
19.8894421413
20
49.3964287105
30
0.0000000000
11
20.2219289907
21
49.7761270982
31
0.0000000000
11
20.1415648212
21
49.6822444616
31
0.0000000000
11
20.0592039012
21
49.5883027614
31
0.0000000000
11
19.9750302559
21
49.4931449429
31
0.0000000000
11
19.8894421413
21
49.3964287105
31
0.0000000000
0
SPLINE
5
2FE
100
AcDbEntity
8
0
100
AcDbSpline
62
0
6
CONTINUOUS
70
0
71
3
72
10
73
6
74
4
42
0.0000001000
43
0.0000001000
44
0.0000000001
12
-0.1244405352
22
-0.1126672827
32
0.0000000000
13
-0.1183458678
23
-0.1190530090
33
0.0000000000
40
0.0000000000
40
0.0000000000
40
0.0000000000
40
0.0000000000
40
0.3348377069
40
0.6682129095
40
1.0000000000
40
1.0000000000
40
1.0000000000
40
1.0000000000
10
19.3502643646
20
49.9919482847
30
0.0000000000
10
19.3363752368
20
49.9793731999
30
0.0000000000
10
19.3088837316
20
49.9540269366
30
0.0000000000
10
19.2684211731
20
49.9153732140
30
0.0000000000
10
19.2419564361
20
49.8891991703
30
0.0000000000
10
19.2288678924
20
49.8760324198
30
0.0000000000
11
19.3502643646
21
49.9919482847
31
0.0000000000
11
19.3089375340
21
49.9538502697
31
0.0000000000
11
19.2684698090
21
49.9151955129
31
0.0000000000
11
19.2288678924
21
49.8760324198
31
0.0000000000
0
SPLINE
5
2FF
100
AcDbEntity
8
0
100
AcDbSpline
62
0
6
CONTINUOUS
70
0
71
3
72
10
73
6
74
4
42
0.0000001000
43
0.0000001000
44
0.0000000001
12
-0.0834512896
22
-0.0944445303
32
0.0000000000
13
-0.0784451965
23
-0.0986419697
33
0.0000000000
40
0.0000000000
40
0.0000000000
40
0.0000000000
40
0.0000000000
40
0.3335364614
40
0.6669260284
40
1.0000000000
40
1.0000000000
40
1.0000000000
40
1.0000000000
10
19.8894421413
20
49.3964287105
30
0.0000000000
10
19.8801641254
20
49.3859284790
30
0.0000000000
10
19.8618014219
20
49.3647645777
30
0.0000000000
10
19.8348288964
20
49.3325540663
30
0.0000000000
10
19.8172204982
20
49.3107838149
30
0.0000000000
10
19.8085111471
20
49.2998321240
30
0.0000000000
11
19.8894421413
21
49.3964287105
31
0.0000000000
11
19.8618909247
21
49.3646803494
31
0.0000000000
11
19.8349124228
21
49.3324680491
31
0.0000000000
11
19.8085111471
21
49.2998321240
31
0.0000000000
0
SPLINE
5
300
100
AcDbEntity
8
0
100
AcDbSpline
62
0
6
CONTINUOUS
70
0
71
3
72
10
73
6
74
4
42
0.0000001000
43
0.0000001000
44
0.0000000001
12
-0.0951698607
22
-0.0957385264
32
0.0000000000
13
-0.0912278698
23
-0.0995019778
33
0.0000000000
40
0.0000000000
40
0.0000000000
40
0.0000000000
40
0.0000000000
40
0.3297049654
40
0.6630285995
40
1.0000000000
40
1.0000000000
40
1.0000000000
40
1.0000000000
10
19.2288678924
20
49.8760324198
30
0.0000000000
10
19.2184085672
20
49.8655105973
30
0.0000000000
10
19.1975185875
20
49.8442082944
30
0.0000000000
10
19.1664478250
20
49.8116581150
30
0.0000000000
10
19.1459161778
20
49.7895617621
30
0.0000000000
10
19.1356691168
20
49.7783853218
30
0.0000000000
11
19.2288678924
21
49.8760324198
31
0.0000000000
11
19.1977041075
21
49.8442554690
31
0.0000000000
11
19.1666340962
21
49.8117080729
31
0.0000000000
11
19.1356691168
21
49.7783853218
31
0.0000000000
0
SPLINE
5
301
100
AcDbEntity
8
0
100
AcDbSpline
62
0
6
CONTINUOUS
70
0
71
3
72
10
73
6
74
4
42
0.0000001000
43
0.0000001000
44
0.0000000001
12
-0.0637283963
22
-0.0801362863
32
0.0000000000
13
-0.0605557944
23
-0.0825598488
33
0.0000000000
40
0.0000000000
40
0.0000000000
40
0.0000000000
40
0.0000000000
40
0.3287337745
40
0.6620525952
40
1.0000000000
40
1.0000000000
40
1.0000000000
40
1.0000000000
10
19.8085111471
20
49.2998321240
30
0.0000000000
10
19.8015279217
20
49.2910509561
30
0.0000000000
10
19.7875811733
20
49.2732726610
30
0.0000000000
10
19.7668676932
20
49.2461469664
30
0.0000000000
10
19.7532001770
20
49.2277598118
30
0.0000000000
10
19.7463786192
20
49.2184595162
30
0.0000000000
11
19.8085111471
21
49.2998321240
31
0.0000000000
11
19.7877352901
21
49.2733513216
31
0.0000000000
11
19.7670219398
21
49.2462284855
31
0.0000000000
11
19.7463786192
21
49.2184595162
31
0.0000000000
0
SPLINE
5
302
100
AcDbEntity
8
0
100
AcDbSpline
62
0
6
CONTINUOUS
70
0
71
3
72
10
73
6
74
4
42
0.0000001000
43
0.0000001000
44
0.0000000001
12
-0.3120132783
22
-0.3403125470
32
0.0000000000
13
-0.2665609899
23
-0.3769750047
33
0.0000000000
40
0.0000000000
40
0.0000000000
40
0.0000000000
40
0.0000000000
40
0.3353608591
40
0.6684666882
40
1.0000000000
40
1.0000000000
40
1.0000000000
40
1.0000000000
10
19.1356691168
20
49.7783853218
30
0.0000000000
10
19.1007901031
20
49.7403428191
30
0.0000000000
10
19.0329772863
20
49.6629259659
30
0.0000000000
10
18.9366383073
20
49.5428579122
30
0.0000000000
10
18.8759348417
20
49.4604896540
30
0.0000000000
10
18.8464768925
20
49.4188297301
30
0.0000000000
11
19.1356691168
21
49.7783853218
31
0.0000000000
11
19.0336076459
21
49.6619488386
31
0.0000000000
11
18.9373225509
21
49.5420244810
31
0.0000000000
11
18.8464768925
21
49.4188297301
31
0.0000000000
0
SPLINE
5
303
100
AcDbEntity
8
0
100
AcDbSpline
62
0
6
CONTINUOUS
70
0
71
3
72
10
73
6
74
4
42
0.0000001000
43
0.0000001000
44
0.0000000001
12
-0.2108395106
22
-0.2874461752
32
0.0000000000
13
-0.1755193406
23
-0.3102765926
33
0.0000000000
40
0.0000000000
40
0.0000000000
40
0.0000000000
40
0.0000000000
40
0.3324420199
40
0.6656330565
40
1.0000000000
40
1.0000000000
40
1.0000000000
40
1.0000000000
10
19.7463786192
20
49.2184595162
30
0.0000000000
10
19.7230146483
20
49.1866064539
30
0.0000000000
10
19.6776211392
20
49.1217996347
30
0.0000000000
10
19.6134342331
20
49.0217679157
30
0.0000000000
10
19.5731463855
20
48.9534118450
30
0.0000000000
10
19.5535837637
20
48.9188297663
30
0.0000000000
11
19.7463786192
21
49.2184595162
31
0.0000000000
11
19.6783378642
21
49.1214291595
31
0.0000000000
11
19.6141476161
21
49.0214921586
31
0.0000000000
11
19.5535837637
21
48.9188297663
31
0.0000000000
0
SPLINE
5
304
100
AcDbEntity
8
0
100
AcDbSpline
62
0
6
CONTINUOUS
70
0
71
3
72
15
73
11
74
9
42
0.0000001000
43
0.0000001000
44
0.0000000001
12
-1.0356397189
22
1.3333424301
32
0.0000000000
13
-1.0353793805
23
1.3335446006
33
0.0000000000
40
0.0000000000
40
0.0000000000
40
0.0000000000
40
0.0000000000
40
0.1363150752
40
0.2713529661
40
0.4043087809
40
0.5340338447
40
0.6593036162
40
0.7793012758
40
0.8932033917
40
1.0000000000
40
1.0000000000
40
1.0000000000
40
1.0000000000
10
12.4677964885
20
25.0980154976
30
0.0000000000
10
12.4207387198
20
25.1586003888
30
0.0000000000
10
12.3270998909
20
25.2792303376
30
0.0000000000
10
12.1875490985
20
25.4589414029
30
0.0000000000
10
12.0502844486
20
25.6357322384
30
0.0000000000
10
11.9163856319
20
25.8081768040
30
0.0000000000
10
11.7869625763
20
25.9748640403
30
0.0000000000
10
11.6629970016
20
26.1345150724
30
0.0000000000
10
11.5454129893
20
26.2859591557
30
0.0000000000
10
11.4692375205
20
26.3840579733
30
0.0000000000
10
11.4323791851
20
26.4315306534
30
0.0000000000
11
12.4677964885
21
25.0980154976
31
0.0000000000
11
12.3266538401
21
25.2797939797
31
0.0000000000
11
12.1868324258
21
25.4598683974
31
0.0000000000
11
12.0491684766
21
25.6371676143
31
0.0000000000
11
11.9148485012
21
25.8101576425
31
0.0000000000
11
11.7851423492
21
25.9772070430
31
0.0000000000
11
11.6608941748
21
26.1372253360
31
0.0000000000
11
11.5429590619
21
26.2891163949
31
0.0000000000
11
11.4323791851
21
26.4315306534
31
0.0000000000
0
SPLINE
5
305
100
AcDbEntity
8
0
100
AcDbSpline
62
0
6
CONTINUOUS
70
0
71
3
72
15
73
11
74
9
42
0.0000001000
43
0.0000001000
44
0.0000000001
12
-0.4907425136
22
1.6154019464
32
0.0000000000
13
-0.4910907675
23
1.6152961095
33
0.0000000000
40
0.0000000000
40
0.0000000000
40
0.0000000000
40
0.0000000000
40
0.1363150752
40
0.2713529663
40
0.4043087802
40
0.5340338471
40
0.6593036096
40
0.7793012943
40
0.8932033622
40
1.0000000000
40
1.0000000000
40
1.0000000000
40
1.0000000000
10
12.4677964885
20
25.0980154976
30
0.0000000000
10
12.4454979543
20
25.1714167102
30
0.0000000000
10
12.4010664172
20
25.3175182275
30
0.0000000000
10
12.3349027159
20
25.5352172286
30
0.0000000000
10
12.2698032414
20
25.7493635400
30
0.0000000000
10
12.2063097211
20
25.9582524879
30
0.0000000000
10
12.1449319927
20
26.1601627182
30
0.0000000000
10
12.0861501582
20
26.3535550769
30
0.0000000000
10
12.0303819212
20
26.5369977533
30
0.0000000000
10
11.9942668143
20
26.6558328347
30
0.0000000000
10
11.9767845333
20
26.7133355659
30
0.0000000000
11
12.4677964885
21
25.0980154976
31
0.0000000000
11
12.4008637465
21
25.3182078494
31
0.0000000000
11
12.3345595611
21
25.5363375790
31
0.0000000000
11
12.2692756548
21
25.7511034658
31
0.0000000000
11
12.2055796710
21
25.9606511444
31
0.0000000000
11
12.1440701478
21
26.1630017319
31
0.0000000000
11
12.0851507903
21
26.3568366859
31
0.0000000000
11
12.0292217265
21
26.5408244389
31
0.0000000000
11
11.9767845333
21
26.7133355659
31
0.0000000000
0
SPLINE
5
306
100
AcDbEntity
8
0
100
AcDbSpline
62
0
6
CONTINUOUS
70
0
71
3
72
9
73
5
74
3
42
0.0000001000
43
0.0000001000
44
0.0000000001
12
-0.0626585433
22
0.0806986618
32
0.0000000000
13
-0.0626582958
23
0.0806988540
33
0.0000000000
40
0.0000000000
40
0.0000000000
40
0.0000000000
40
0.0000000000
40
0.4950021843
40
1.0000000000
40
1.0000000000
40
1.0000000000
40
1.0000000000
10
11.4323791851
20
26.4315306534
30
0.0000000000
10
11.4220404798
20
26.4448459914
30
0.0000000000
10
11.4011542214
20
26.4717454853
30
0.0000000000
10
11.3802677608
20
26.4986448222
30
0.0000000000
10
11.3697203266
20
26.5122290705
30
0.0000000000
11
11.4323791851
21
26.4315306534
31
0.0000000000
11
11.4013629432
21
26.4714765694
31
0.0000000000
11
11.3697203266
21
26.5122290705
31
0.0000000000
0
SPLINE
5
307
100
AcDbEntity
8
0
100
AcDbSpline
62
0
6
CONTINUOUS
70
0
71
3
72
9
73
5
74
3
42
0.0000001000
43
0.0000001000
44
0.0000000001
12
-0.0297131300
22
0.0977522223
32
0.0000000000
13
-0.0297151915
23
0.0977515957
33
0.0000000000
40
0.0000000000
40
0.0000000000
40
0.0000000000
40
0.0000000000
40
0.4950025395
40
1.0000000000
40
1.0000000000
40
1.0000000000
40
1.0000000000
10
11.9767845333
20
26.7133355659
30
0.0000000000
10
11.9718818417
20
26.7294647653
30
0.0000000000
10
11.9619771241
20
26.7620487358
30
0.0000000000
10
11.9520727017
20
26.7946327960
30
0.0000000000
10
11.9470706697
20
26.8110875652
30
0.0000000000
11
11.9767845333
21
26.7133355659
31
0.0000000000
11
11.9620761933
21
26.7617230835
31
0.0000000000
11
11.9470706697
21
26.8110875652
31
0.0000000000
0
SPLINE
5
308
100
AcDbEntity
8
0
100
AcDbSpline
62
0
6
CONTINUOUS
70
0
71
3
72
10
73
6
74
4
42
0.0000001000
43
0.0000001000
44
0.0000000001
12
-0.1880926124
22
0.3633661817
32
0.0000000000
13
-0.0647369140
23
0.4040085950
33
0.0000000000
40
0.0000000000
40
0.0000000000
40
0.0000000000
40
0.0000000000
40
0.3141793989
40
0.6457124362
40
1.0000000000
40
1.0000000000
40
1.0000000000
40
1.0000000000
10
11.3697203266
20
26.5122290705
30
0.0000000000
10
11.3500220520
20
26.5502831267
30
0.0000000000
10
11.3135873726
20
26.6306670033
30
0.0000000000
10
11.2706467837
20
26.7603676178
30
0.0000000000
10
11.2509756238
20
26.8520396625
30
0.0000000000
10
11.2433304626
20
26.8997514028
30
0.0000000000
11
11.3697203266
21
26.5122290705
31
0.0000000000
11
11.3166279787
21
26.6293034124
31
0.0000000000
11
11.2739089465
21
26.7580521290
31
0.0000000000
11
11.2433304626
21
26.8997514028
31
0.0000000000
0
SPLINE
5
309
100
AcDbEntity
8
0
100
AcDbSpline
62
0
6
CONTINUOUS
70
0
71
3
72
10
73
6
74
4
42
0.0000001000
43
0.0000001000
44
0.0000000001
12
-0.4999963669
22
-0.4229006147
32
0.0000000000
13
-0.6339699557
23
-0.1640834912
33
0.0000000000
40
0.0000000000
40
0.0000000000
40
0.0000000000
40
0.0000000000
40
0.3318209605
40
0.6681790383
40
1.0000000000
40
1.0000000000
40
1.0000000000
40
1.0000000000
10
11.9470706697
20
26.8110875652
30
0.0000000000
10
11.8917675781
20
26.7643118024
30
0.0000000000
10
11.7728244506
20
26.6787563019
30
0.0000000000
10
11.5783694582
20
26.5780990038
30
0.0000000000
10
11.4398418334
20
26.5303778511
30
0.0000000000
10
11.3697203266
20
26.5122290705
30
0.0000000000
11
11.9470706697
21
26.8110875652
31
0.0000000000
11
11.7709223790
21
26.6838499333
31
0.0000000000
11
11.5753086880
21
26.5825928484
31
0.0000000000
11
11.3697203266
21
26.5122290705
31
0.0000000000
0
SPLINE
5
30A
100
AcDbEntity
8
0
100
AcDbSpline
62
0
6
CONTINUOUS
70
0
71
3
72
10
73
6
74
4
42
0.0000001000
43
0.0000001000
44
0.0000000001
12
-0.0954587859
22
0.3139011400
32
0.0000000000
13
0.0123112213
23
0.3278639036
33
0.0000000000
40
0.0000000000
40
0.0000000000
40
0.0000000000
40
0.0000000000
40
0.2999873018
40
0.6307169990
40
1.0000000000
40
1.0000000000
40
1.0000000000
40
1.0000000000
10
11.9470706697
20
26.8110875652
30
0.0000000000
10
11.9375251951
20
26.8424763505
30
0.0000000000
10
11.9216267219
20
26.9097951473
30
0.0000000000
10
11.9088423780
20
27.0186155844
30
0.0000000000
10
11.9081452600
20
27.0953334299
30
0.0000000000
10
11.9096607016
20
27.1356916187
30
0.0000000000
11
11.9470706697
21
26.8110875652
31
0.0000000000
11
11.9241741403
21
26.9068116285
31
0.0000000000
11
11.9111772933
21
27.0145412179
31
0.0000000000
11
11.9096607016
21
27.1356916187
31
0.0000000000
0
SPLINE
5
30B
100
AcDbEntity
8
0
100
AcDbSpline
62
0
6
CONTINUOUS
70
0
71
3
72
9
73
5
74
3
42
0.0000001000
43
0.0000001000
44
0.0000000001
12
-0.0371297086
22
0.2317330926
32
0.0000000000
13
0.0000022602
23
0.2346888184
33
0.0000000000
40
0.0000000000
40
0.0000000000
40
0.0000000000
40
0.0000000000
40
0.5114312623
40
1.0000000000
40
1.0000000000
40
1.0000000000
40
1.0000000000
10
11.2433304626
20
26.8997514028
30
0.0000000000
10
11.2370006980
20
26.9392565855
30
0.0000000000
10
11.2279765008
20
27.0170719091
30
0.0000000000
10
11.2251554382
20
27.0953293894
30
0.0000000000
10
11.2251558063
20
27.1335499293
30
0.0000000000
11
11.2433304626
21
26.8997514028
31
0.0000000000
11
11.2293926888
21
27.0189666152
31
0.0000000000
11
11.2251558063
21
27.1335499293
31
0.0000000000
0
SPLINE
5
30C
100
AcDbEntity
8
0
100
AcDbSpline
62
0
6
CONTINUOUS
70
0
71
3
72
9
73
5
74
3
42
0.0000001000
43
0.0000001000
44
0.0000000001
12
0.0077507146
22
0.2061826440
32
0.0000000000
13
0.0359166621
23
0.2031781229
33
0.0000000000
40
0.0000000000
40
0.0000000000
40
0.0000000000
40
0.0000000000
40
0.5044567408
40
1.0000000000
40
1.0000000000
40
1.0000000000
40
1.0000000000
10
11.9096607016
20
27.1356916187
30
0.0000000000
10
11.9109640017
20
27.1703616936
30
0.0000000000
10
11.9163245217
20
27.2390037631
30
0.0000000000
10
11.9263299973
20
27.3070954814
30
0.0000000000
10
11.9322627506
20
27.3406566645
30
0.0000000000
11
11.9096607016
21
27.1356916187
31
0.0000000000
11
11.9175543351
21
27.2394755514
31
0.0000000000
11
11.9322627506
21
27.3406566645
31
0.0000000000
0
SPLINE
5
30D
100
AcDbEntity
8
0
100
AcDbSpline
62
0
6
CONTINUOUS
70
0
71
3
72
10
73
6
74
4
42
0.0000001000
43
0.0000001000
44
0.0000000001
12
-0.6098249733
22
-0.4312113343
32
0.0000000000
13
-0.7468799856
23
0.0000001196
33
0.0000000000
40
0.0000000000
40
0.0000000000
40
0.0000000000
40
0.0000000000
40
0.3153518083
40
0.6519065206
40
1.0000000000
40
1.0000000000
40
1.0000000000
40
1.0000000000
10
11.9322644646
20
38.1406547984
30
0.0000000000
10
11.8681613286
20
38.0953270404
30
0.0000000000
10
11.7233642493
20
38.0183564720
30
0.0000000000
10
11.4827371107
20
37.9491889519
30
0.0000000000
10
11.3118188713
20
37.9335480493
30
0.0000000000
10
11.2251575203
20
37.9335480632
30
0.0000000000
11
11.9322644646
21
38.1406547984
31
0.0000000000
11
11.7252494472
21
38.0283198447
31
0.0000000000
11
11.4840219079
21
37.9576506892
31
0.0000000000
11
11.2251575203
21
37.9335480632
31
0.0000000000
0
SPLINE
5
30E
100
AcDbEntity
8
0
100
AcDbSpline
62
0
6
CONTINUOUS
70
0
71
3
72
10
73
6
74
4
42
0.0000001000
43
0.0000001000
44
0.0000000001
12
-0.6098249030
22
-0.4312112846
32
0.0000000000
13
-0.7468798995
23
0.0000001196
33
0.0000000000
40
0.0000000000
40
0.0000000000
40
0.0000000000
40
0.0000000000
40
0.3154838192
40
0.6519679093
40
1.0000000000
40
1.0000000000
40
1.0000000000
40
1.0000000000
10
11.9322627506
20
27.3406566645
30
0.0000000000
10
11.8681327874
20
27.2953099369
30
0.0000000000
10
11.7233168459
20
27.2183389803
30
0.0000000000
10
11.4826870724
20
27.1491850979
30
0.0000000000
10
11.3118018639
20
27.1335499155
30
0.0000000000
10
11.2251558063
20
27.1335499293
30
0.0000000000
11
11.9322627506
21
27.3406566645
31
0.0000000000
11
11.7251559274
21
27.2282842268
31
0.0000000000
11
11.4839749143
21
27.1576439755
31
0.0000000000
11
11.2251558063
21
27.1335499293
31
0.0000000000
0
SPLINE
5
30F
100
AcDbEntity
8
0
100
AcDbSpline
62
0
6
CONTINUOUS
70
0
71
3
72
9
73
5
74
3
42
0.0000001000
43
0.0000001000
44
0.0000000001
12
-0.0047999744
22
-0.3834212488
32
0.0000000000
13
-0.0012810145
23
-0.3834491528
33
0.0000000000
40
0.0000000000
40
0.0000000000
40
0.0000000000
40
0.0000000000
40
0.4433363364
40
1.0000000000
40
1.0000000000
40
1.0000000000
40
1.0000000000
10
20.9665239221
20
50.2615971224
30
0.0000000000
10
20.9658145878
20
50.2049355985
30
0.0000000000
10
20.9691303595
20
50.0771203290
30
0.0000000000
10
20.9680354807
20
49.9493020558
30
0.0000000000
10
20.9677977826
20
49.8781513191
30
0.0000000000
11
20.9665239221
21
50.2615971224
31
0.0000000000
11
20.9678876913
21
50.0916047015
31
0.0000000000
11
20.9677977826
21
49.8781513191
31
0.0000000000
0
SPLINE
5
310
100
AcDbEntity
8
0
100
AcDbSpline
62
0
6
CONTINUOUS
70
0
71
3
72
10
73
6
74
4
42
0.0000001000
43
0.0000001000
44
0.0000000001
12
-1.4937595951
22
0.0000004917
32
0.0000000000
13
-1.2196499268
23
-0.8624220452
33
0.0000000000
40
0.0000000000
40
0.0000000000
40
0.0000000000
40
0.0000000000
40
0.3480935049
40
0.6846482177
40
1.0000000000
40
1.0000000000
40
1.0000000000
40
1.0000000000
10
20.9677903136
20
38.5330366717
30
0.0000000000
10
20.7944676427
20
38.5330367287
30
0.0000000000
10
20.4526312322
20
38.5017550048
30
0.0000000000
10
19.9713770379
20
38.3634201388
30
0.0000000000
10
19.6817829129
20
38.2094791439
30
0.0000000000
10
19.5535766535
20
38.1188237009
30
0.0000000000
11
20.9677903136
21
38.5330366717
31
0.0000000000
11
20.4500616206
21
38.4848315382
31
0.0000000000
11
19.9676066230
21
38.3434933986
31
0.0000000000
11
19.5535766535
21
38.1188237009
31
0.0000000000
0
SPLINE
5
311
100
AcDbEntity
8
0
100
AcDbSpline
62
0
6
CONTINUOUS
70
0
71
3
72
9
73
5
74
3
42
0.0000001000
43
0.0000001000
44
0.0000000001
12
-0.7546048116
22
0.0000009230
32
0.0000000000
13
-0.7258586829
23
-0.2062949203
33
0.0000000000
40
0.0000000000
40
0.0000000000
40
0.0000000000
40
0.0000000000
40
0.5047785279
40
1.0000000000
40
1.0000000000
40
1.0000000000
40
1.0000000000
10
20.9677977826
20
49.8781513191
30
0.0000000000
10
20.8408283473
20
49.8781514744
30
0.0000000000
10
20.5890045390
20
49.8612560333
30
0.0000000000
10
20.3417492592
20
49.8101809896
30
0.0000000000
10
20.2219289907
20
49.7761270982
30
0.0000000000
11
20.9677977826
21
49.8781513191
31
0.0000000000
11
20.5877619121
21
49.8523855533
31
0.0000000000
11
20.2219289907
21
49.7761270982
31
0.0000000000
0
SPLINE
5
312
100
AcDbEntity
8
0
100
AcDbSpline
62
0
6
CONTINUOUS
70
0
71
3
72
9
73
5
74
3
42
0.0000001000
43
0.0000001000
44
0.0000000001
12
-0.0012810115
22
0.3834480313
32
0.0000000000
13
-0.0047840301
23
0.3834203264
33
0.0000000000
40
0.0000000000
40
0.0000000000
40
0.0000000000
40
0.0000000000
40
0.5582605640
40
1.0000000000
40
1.0000000000
40
1.0000000000
40
1.0000000000
10
-20.4890546862
20
49.8781513191
30
0.0000000000
10
-20.4892930656
20
49.9495059571
30
0.0000000000
10
-20.4903753851
20
50.0773238020
30
0.0000000000
10
-20.4870934226
20
50.2051388515
30
0.0000000000
10
-20.4877978542
20
50.2615961444
30
0.0000000000
11
-20.4890546862
21
49.8781513191
31
0.0000000000
11
-20.4891413485
21
50.0922164103
31
0.0000000000
11
-20.4877978542
21
50.2615961444
31
0.0000000000
0
SPLINE
5
313
100
AcDbEntity
8
0
100
AcDbSpline
62
0
6
CONTINUOUS
70
0
71
3
72
9
73
5
74
3
42
0.0000001000
43
0.0000001000
44
0.0000000001
12
0.7546026234
22
0.0000008197
32
0.0000000000
13
0.7258567314
23
-0.2062937824
33
0.0000000000
40
0.0000000000
40
0.0000000000
40
0.0000000000
40
0.0000000000
40
0.5047986545
40
1.0000000000
40
1.0000000000
40
1.0000000000
40
1.0000000000
10
-20.4890546862
20
49.8781513191
30
0.0000000000
10
-20.3620805565
20
49.8781514570
30
0.0000000000
10
-20.1102574314
20
49.8612554052
30
0.0000000000
10
-19.8630030956
20
49.8101799196
30
0.0000000000
10
-19.7431880189
20
49.7761276001
30
0.0000000000
11
-20.4890546862
21
49.8781513191
31
0.0000000000
11
-20.1090048336
21
49.8523835878
31
0.0000000000
11
-19.7431880189
21
49.7761276001
31
0.0000000000
0
SPLINE
5
314
100
AcDbEntity
8
0
100
AcDbSpline
62
0
6
CONTINUOUS
70
0
71
3
72
10
73
6
74
4
42
0.0000001000
43
0.0000001000
44
0.0000000001
12
1.4937589198
22
0.0000002875
32
0.0000000000
13
1.2196495591
23
-0.8624213955
33
0.0000000000
40
0.0000000000
40
0.0000000000
40
0.0000000000
40
0.0000000000
40
0.3480320974
40
0.6845161865
40
1.0000000000
40
1.0000000000
40
1.0000000000
40
1.0000000000
10
-20.4890503195
20
38.5330366717
30
0.0000000000
10
-20.3157583029
20
38.5330367050
30
0.0000000000
10
-19.9739880847
20
38.5017663984
30
0.0000000000
10
-19.4927287872
20
38.3634588492
30
0.0000000000
10
-19.2030970137
20
38.2095171604
30
0.0000000000
10
-19.0748371157
20
38.1188238302
30
0.0000000000
11
-20.4890503195
21
38.5330366717
31
0.0000000000
11
-19.9714123926
21
38.4848486663
31
0.0000000000
11
-19.4890506122
21
38.3435683819
31
0.0000000000
11
-19.0748371157
21
38.1188238302
31
0.0000000000
0
SPLINE
5
315
100
AcDbEntity
8
0
100
AcDbSpline
62
0
6
CONTINUOUS
70
0
71
3
72
8
73
4
74
2
42
0.0000001000
43
0.0000001000
44
0.0000000001
12
-0.0265516494
22
-0.0331463980
32
0.0000000000
13
-0.0257920892
23
-0.0337385321
33
0.0000000000
40
0.0000000000
40
0.0000000000
40
0.0000000000
40
0.0000000000
40
1.0000000000
40
1.0000000000
40
1.0000000000
40
1.0000000000
10
-63.0719305312
20
49.7140998392
30
0.0000000000
10
-63.0807810810
20
49.7030510399
30
0.0000000000
10
-63.0895058957
20
49.6919020508
30
0.0000000000
10
-63.0981032587
20
49.6806558735
30
0.0000000000
11
-63.0719305312
21
49.7140998392
31
0.0000000000
11
-63.0981032587
21
49.6806558735
31
0.0000000000
0
SPLINE
5
316
100
AcDbEntity
8
0
100
AcDbSpline
62
0
6
CONTINUOUS
70
0
71
3
72
9
73
5
74
3
42
0.0000001000
43
0.0000001000
44
0.0000000001
12
-0.6762959883
22
-0.8846601680
32
0.0000000000
13
-0.0749479056
23
-1.1069424704
33
0.0000000000
40
0.0000000000
40
0.0000000000
40
0.0000000000
40
0.0000000000
40
0.4728473025
40
1.0000000000
40
1.0000000000
40
1.0000000000
40
1.0000000000
10
-63.0981032587
20
49.6806558735
30
0.0000000000
10
-63.2046981700
20
49.5412194821
30
0.0000000000
10
-63.3886952130
20
49.2147364939
30
0.0000000000
10
-63.4704312638
20
48.8470171604
30
0.0000000000
10
-63.4836009274
20
48.6525079240
30
0.0000000000
11
-63.0981032587
21
49.6806558735
31
0.0000000000
11
-63.3558392008
21
49.2232464709
31
0.0000000000
11
-63.4836009274
21
48.6525079240
31
0.0000000000
0
SPLINE
5
317
100
AcDbEntity
8
0
100
AcDbSpline
62
0
6
CONTINUOUS
70
0
71
3
72
8
73
4
74
2
42
0.0000001000
43
0.0000001000
44
0.0000000001
12
0.3136023064
22
-0.0537126327
32
0.0000000000
13
0.3168035415
23
0.0022100496
33
0.0000000000
40
0.0000000000
40
0.0000000000
40
0.0000000000
40
0.0000000000
40
1.0000000000
40
1.0000000000
40
1.0000000000
40
1.0000000000
10
-14.5411492115
20
33.7892375955
30
0.0000000000
10
-14.4366151094
20
33.7713333846
30
0.0000000000
10
-14.3308563874
20
33.7612246460
30
0.0000000000
10
-14.2252552069
20
33.7619613292
30
0.0000000000
11
-14.5411492115
21
33.7892375955
31
0.0000000000
11
-14.2252552069
21
33.7619613292
31
0.0000000000
0
SPLINE
5
318
100
AcDbEntity
8
0
100
AcDbSpline
62
0
6
CONTINUOUS
70
0
71
3
72
11
73
7
74
5
42
0.0000001000
43
0.0000001000
44
0.0000000001
12
2.2540518646
22
0.0157244654
32
0.0000000000
13
-0.0000003560
23
2.2432118739
33
0.0000000000
40
0.0000000000
40
0.0000000000
40
0.0000000000
40
0.0000000000
40
0.0998322420
40
0.3733474322
40
0.6566234246
40
1.0000000000
40
1.0000000000
40
1.0000000000
40
1.0000000000
10
-14.2252552069
20
33.7619613292
30
0.0000000000
10
-14.1502461899
20
33.7624845988
30
0.0000000000
10
-13.8700286179
20
33.7849049138
30
0.0000000000
10
-13.3913358493
20
33.9858152364
30
0.0000000000
10
-13.0189053268
20
34.5866613024
30
0.0000000000
10
-12.9637484887
20
35.0620452504
30
0.0000000000
10
-12.9637485295
20
35.3188007209
30
0.0000000000
11
-14.2252552069
21
33.7619613292
31
0.0000000000
11
-14.0009619381
21
33.7810397673
31
0.0000000000
11
-13.4408137282
21
34.0314008677
31
0.0000000000
11
-13.0854802571
21
34.5582142821
31
0.0000000000
11
-12.9637485295
21
35.3188007209
31
0.0000000000
0
SPLINE
5
319
100
AcDbEntity
8
0
100
AcDbSpline
62
0
6
CONTINUOUS
70
0
71
3
72
8
73
4
74
2
42
0.0000001000
43
0.0000001000
44
0.0000000001
12
0.0574239520
22
0.3250015889
32
0.0000000000
13
0.1170117427
23
0.3111621192
33
0.0000000000
40
0.0000000000
40
0.0000000000
40
0.0000000000
40
0.0000000000
40
1.0000000000
40
1.0000000000
40
1.0000000000
40
1.0000000000
10
-18.9384392352
20
40.0104962410
30
0.0000000000
10
-18.9192979179
20
40.1188301040
30
0.0000000000
10
-18.8914279408
20
40.2256657685
30
0.0000000000
10
-18.8524240266
20
40.3293864750
30
0.0000000000
11
-18.9384392352
21
40.0104962410
31
0.0000000000
11
-18.8524240266
21
40.3293864750
31
0.0000000000
0
SPLINE
5
31A
100
AcDbEntity
8
0
100
AcDbSpline
62
0
6
CONTINUOUS
70
0
71
3
72
8
73
4
74
2
42
0.0000001000
43
0.0000001000
44
0.0000000001
12
0.1539312658
22
0.4093399328
32
0.0000000000
13
0.2730549047
23
0.3389100173
33
0.0000000000
40
0.0000000000
40
0.0000000000
40
0.0000000000
40
0.0000000000
40
1.0000000000
40
1.0000000000
40
1.0000000000
40
1.0000000000
10
-18.8524240266
20
40.3293864750
30
0.0000000000
10
-18.8011136046
20
40.4658331192
30
0.0000000000
10
-18.7305348759
20
40.5968890406
30
0.0000000000
10
-18.6395165743
20
40.7098590464
30
0.0000000000
11
-18.8524240266
21
40.3293864750
31
0.0000000000
11
-18.6395165743
21
40.7098590464
31
0.0000000000
0
SPLINE
5
31B
100
AcDbEntity
8
0
100
AcDbSpline
62
0
6
CONTINUOUS
70
0
71
3
72
17
73
13
74
11
42
0.0000001000
43
0.0000001000
44
0.0000000001
12
5.7258747318
22
7.1068355521
32
0.0000000000
13
0.0000014374
23
-9.0568579551
33
0.0000000000
40
0.0000000000
40
0.0000000000
40
0.0000000000
40
0.0000000000
40
0.0224741950
40
0.0902187180
40
0.1698352724
40
0.2678949410
40
0.3835653154
40
0.5117666534
40
0.6452331269
40
0.7759058848
40
0.8961393284
40
1.0000000000
40
1.0000000000
40
1.0000000000
40
1.0000000000
10
-18.6395165743
20
40.7098590464
30
0.0000000000
10
-18.5966217659
20
40.7630991824
30
0.0000000000
10
-18.4062043828
20
40.9606971833
30
0.0000000000
10
-17.9063130022
20
41.1705046948
30
0.0000000000
10
-17.1499429934
20
41.0853634015
30
0.0000000000
10
-16.3328287267
20
40.7239731024
30
0.0000000000
10
-15.4925187451
20
40.1139868927
30
0.0000000000
10
-14.6886749765
20
39.3009120983
30
0.0000000000
10
-13.9818879788
20
38.3456760114
30
0.0000000000
10
-13.4268566454
20
37.3216627463
30
0.0000000000
10
-13.0659179477
20
36.3088676471
30
0.0000000000
10
-12.9637485792
20
35.6323511707
30
0.0000000000
10
-12.9637485295
20
35.3188007209
30
0.0000000000
11
-18.6395165743
21
40.7098590464
31
0.0000000000
11
-18.4970905555
21
40.8561998894
31
0.0000000000
11
-17.9369423455
21
41.1065609898
31
0.0000000000
11
-17.2173592734
21
41.0601870087
31
0.0000000000
11
-16.3966376800
21
40.7208348904
31
0.0000000000
11
-15.5412675479
21
40.1159969252
31
0.0000000000
11
-14.7205458780
21
39.2946734879
31
0.0000000000
11
-14.0009626590
21
38.3234033189
31
0.0000000000
11
-13.4408142439
21
37.2808729508
31
0.0000000000
11
-13.0854805259
21
36.2515419940
31
0.0000000000
11
-12.9637485295
21
35.3188007209
31
0.0000000000
0
SPLINE
5
31C
100
AcDbEntity
8
0
100
AcDbSpline
62
0
6
CONTINUOUS
70
0
71
3
72
20
73
16
74
14
42
0.0000001000
43
0.0000001000
44
0.0000000001
12
-0.0000000475
22
12.6851637369
32
0.0000000000
13
-0.0000014555
23
-12.6851635777
33
0.0000000000
40
0.0000000000
40
0.0000000000
40
0.0000000000
40
0.0000000000
40
0.0645847163
40
0.1189574362
40
0.1688534641
40
0.2224985506
40
0.2859966662
40
0.3614144595
40
0.4478202627
40
0.5424723777
40
0.6415934214
40
0.7409184290
40
0.8361611589
40
0.9234772672
40
1.0000000000
40
1.0000000000
40
1.0000000000
40
1.0000000000
10
-18.9741569519
20
40.5687975467
30
0.0000000000
10
-18.9741569529
20
40.8418867803
30
0.0000000000
10
-18.9208485376
20
41.3492006510
30
0.0000000000
10
-18.6044565630
20
42.0123891478
30
0.0000000000
10
-18.0460481581
20
42.4284521071
30
0.0000000000
10
-17.3250798194
20
42.5335730979
30
0.0000000000
10
-16.5180363144
20
42.3629046292
30
0.0000000000
10
-15.6533173834
20
41.9476761325
30
0.0000000000
10
-14.7699577603
20
41.3110453555
30
0.0000000000
10
-13.9137917223
20
40.4872932348
30
0.0000000000
10
-13.1322276701
20
39.5215958740
30
0.0000000000
10
-12.4691649656
20
38.4681429288
30
0.0000000000
10
-11.9616956290
20
37.3857482838
30
0.0000000000
10
-11.6377920580
20
36.3354560182
30
0.0000000000
10
-11.5495367355
20
35.6423693362
30
0.0000000000
10
-11.5495367727
20
35.3188015418
30
0.0000000000
11
-18.9741569519
21
40.5687975467
31
0.0000000000
11
-18.8662829759
21
41.3809322416
31
0.0000000000
11
-18.5489335080
21
41.9933148321
31
0.0000000000
11
-18.0405504999
21
42.3703544109
31
0.0000000000
11
-17.3706792711
21
42.4901387686
31
0.0000000000
11
-16.5782502563
21
42.3457064146
31
0.0000000000
11
-15.7093165209
21
41.9454511672
31
0.0000000000
11
-14.8143773309
21
41.3126343503
31
0.0000000000
11
-13.9454433197
21
40.4840329429
31
0.0000000000
11
-13.1530138148
21
39.5078022423
31
0.0000000000
11
-12.4831419908
21
38.4406772543
31
0.0000000000
11
-11.9747584144
21
37.3446754555
31
0.0000000000
11
-11.6574085295
21
36.2834925505
31
0.0000000000
11
-11.5495367727
21
35.3188015418
31
0.0000000000
0
SPLINE
5
31D
100
AcDbEntity
8
0
100
AcDbSpline
62
0
6
CONTINUOUS
70
0
71
3
72
8
73
4
74
2
42
0.0000001000
43
0.0000001000
44
0.0000000001
12
0.0466864452
22
-0.3094576106
32
0.0000000000
13
0.0014671258
23
-0.3118240372
33
0.0000000000
40
0.0000000000
40
0.0000000000
40
0.0000000000
40
0.0000000000
40
1.0000000000
40
1.0000000000
40
1.0000000000
40
1.0000000000
10
70.9671742563
20
30.6023841469
30
0.0000000000
10
70.9827364047
20
30.4992316100
30
0.0000000000
10
70.9908503528
20
30.3950353558
30
0.0000000000
10
70.9913393947
20
30.2910940101
30
0.0000000000
11
70.9671742563
21
30.6023841469
31
0.0000000000
11
70.9913393947
21
30.2910940101
31
0.0000000000
0
SPLINE
5
31E
100
AcDbEntity
8
0
100
AcDbSpline
62
0
6
CONTINUOUS
70
0
71
3
72
8
73
4
74
2
42
0.0000001000
43
0.0000001000
44
0.0000000001
12
-0.3136011061
22
-0.0537122389
32
0.0000000000
13
-0.3168023000
23
0.0022100409
33
0.0000000000
40
0.0000000000
40
0.0000000000
40
0.0000000000
40
0.0000000000
40
1.0000000000
40
1.0000000000
40
1.0000000000
40
1.0000000000
10
15.0198942274
20
33.7892373850
30
0.0000000000
10
14.9153605253
20
33.7713333054
30
0.0000000000
10
14.8096022185
20
33.7612246489
30
0.0000000000
10
14.7040014518
20
33.7619613292
30
0.0000000000
11
15.0198942274
21
33.7892373850
31
0.0000000000
11
14.7040014518
21
33.7619613292
31
0.0000000000
0
SPLINE
5
31F
100
AcDbEntity
8
0
100
AcDbSpline
62
0
6
CONTINUOUS
70
0
71
3
72
11
73
7
74
5
42
0.0000001000
43
0.0000001000
44
0.0000000001
12
-2.2540518646
22
0.0157244654
32
0.0000000000
13
0.0000003560
23
2.2432118739
33
0.0000000000
40
0.0000000000
40
0.0000000000
40
0.0000000000
40
0.0000000000
40
0.0998322420
40
0.3733474322
40
0.6566234246
40
1.0000000000
40
1.0000000000
40
1.0000000000
40
1.0000000000
10
14.7040014518
20
33.7619613292
30
0.0000000000
10
14.6289924347
20
33.7624845988
30
0.0000000000
10
14.3487748627
20
33.7849049138
30
0.0000000000
10
13.8700820942
20
33.9858152364
30
0.0000000000
10
13.4976515717
20
34.5866613024
30
0.0000000000
10
13.4424947336
20
35.0620452504
30
0.0000000000
10
13.4424947744
20
35.3188007209
30
0.0000000000
11
14.7040014518
21
33.7619613292
31
0.0000000000
11
14.4797081830
21
33.7810397673
31
0.0000000000
11
13.9195599731
21
34.0314008677
31
0.0000000000
11
13.5642265020
21
34.5582142821
31
0.0000000000
11
13.4424947744
21
35.3188007209
31
0.0000000000
0
SPLINE
5
320
100
AcDbEntity
8
0
100
AcDbSpline
62
0
6
CONTINUOUS
70
0
71
3
72
20
73
16
74
14
42
0.0000001000
43
0.0000001000
44
0.0000000001
12
0.0000000476
22
12.6851679722
32
0.0000000000
13
-0.0000020132
23
-12.6851678131
33
0.0000000000
40
0.0000000000
40
0.0000000000
40
0.0000000000
40
0.0000000000
40
0.0645847763
40
0.1189574878
40
0.1688535031
40
0.2224985843
40
0.2859967025
40
0.3614144998
40
0.4478203023
40
0.5424724083
40
0.6415934345
40
0.7409184187
40
0.8361611235
40
0.9234772089
40
1.0000000000
40
1.0000000000
40
1.0000000000
40
1.0000000000
10
19.4529019991
20
40.5688005863
30
0.0000000000
10
19.4529020001
20
40.8418901648
30
0.0000000000
10
19.3995953552
20
41.3492046696
30
0.0000000000
10
19.0832024816
20
42.0123934432
30
0.0000000000
10
18.5247938368
20
42.4284561770
30
0.0000000000
10
17.8038251830
20
42.5335765631
30
0.0000000000
10
16.9967815638
20
42.3629074131
30
0.0000000000
10
16.1320625885
20
41.9476782190
30
0.0000000000
10
15.2487030213
20
41.3110467968
30
0.0000000000
10
14.3925371188
20
40.4872941408
30
0.0000000000
10
13.6109732157
20
39.5215963911
30
0.0000000000
10
12.9479107275
20
38.4681431898
30
0.0000000000
10
12.4404412290
20
37.3857484368
30
0.0000000000
10
12.1165383015
20
36.3354556998
30
0.0000000000
10
12.0282811656
20
35.6423688438
30
0.0000000000
10
12.0282811143
20
35.3188006949
30
0.0000000000
11
19.4529019991
21
40.5688005863
31
0.0000000000
11
19.3450291455
21
41.3809364741
31
0.0000000000
11
19.0276794808
21
41.9933191024
31
0.0000000000
11
18.5192962141
21
42.3703584196
31
0.0000000000
11
17.8494247328
21
42.4901422712
31
0.0000000000
11
17.0569955327
21
42.3457092551
31
0.0000000000
11
16.1880617183
21
41.9454532932
31
0.0000000000
11
15.2931225647
21
41.3126358071
31
0.0000000000
11
14.4241886825
21
40.4840338490
31
0.0000000000
11
13.6317593503
21
39.5078027528
31
0.0000000000
11
12.9618876807
21
38.4406775213
31
0.0000000000
11
12.4535041801
21
37.3446755942
31
0.0000000000
11
12.1361542499
21
36.2834926196
31
0.0000000000
11
12.0282811143
21
35.3188006949
31
0.0000000000
0
SPLINE
5
321
100
AcDbEntity
8
0
100
AcDbSpline
62
0
6
CONTINUOUS
70
0
71
3
72
8
73
4
74
2
42
0.0000001000
43
0.0000001000
44
0.0000000001
12
-0.0574239088
22
0.3249987329
32
0.0000000000
13
-0.1170107421
23
0.3111594584
33
0.0000000000
40
0.0000000000
40
0.0000000000
40
0.0000000000
40
0.0000000000
40
1.0000000000
40
1.0000000000
40
1.0000000000
40
1.0000000000
10
19.4171849890
20
40.0104990201
30
0.0000000000
10
19.3980436861
20
40.1188319311
30
0.0000000000
10
19.3701738521
20
40.2256666555
30
0.0000000000
10
19.3311702714
20
40.3293864750
30
0.0000000000
11
19.4171849890
21
40.0104990201
31
0.0000000000
11
19.3311702714
21
40.3293864750
31
0.0000000000
0
SPLINE
5
322
100
AcDbEntity
8
0
100
AcDbSpline
62
0
6
CONTINUOUS
70
0
71
3
72
8
73
4
74
2
42
0.0000001000
43
0.0000001000
44
0.0000000001
12
-0.1539312658
22
0.4093399328
32
0.0000000000
13
-0.2730549047
23
0.3389100173
33
0.0000000000
40
0.0000000000
40
0.0000000000
40
0.0000000000
40
0.0000000000
40
1.0000000000
40
1.0000000000
40
1.0000000000
40
1.0000000000
10
19.3311702714
20
40.3293864750
30
0.0000000000
10
19.2798598495
20
40.4658331192
30
0.0000000000
10
19.2092811208
20
40.5968890406
30
0.0000000000
10
19.1182628192
20
40.7098590464
30
0.0000000000
11
19.3311702714
21
40.3293864750
31
0.0000000000
11
19.1182628192
21
40.7098590464
31
0.0000000000
0
SPLINE
5
323
100
AcDbEntity
8
0
100
AcDbSpline
62
0
6
CONTINUOUS
70
0
71
3
72
17
73
13
74
11
42
0.0000001000
43
0.0000001000
44
0.0000000001
12
-5.7258747318
22
7.1068355521
32
0.0000000000
13
-0.0000014374
23
-9.0568579551
33
0.0000000000
40
0.0000000000
40
0.0000000000
40
0.0000000000
40
0.0000000000
40
0.0224741950
40
0.0902187180
40
0.1698352724
40
0.2678949410
40
0.3835653154
40
0.5117666534
40
0.6452331269
40
0.7759058848
40
0.8961393284
40
1.0000000000
40
1.0000000000
40
1.0000000000
40
1.0000000000
10
19.1182628192
20
40.7098590464
30
0.0000000000
10
19.0753680108
20
40.7630991824
30
0.0000000000
10
18.8849506276
20
40.9606971833
30
0.0000000000
10
18.3850592470
20
41.1705046948
30
0.0000000000
10
17.6286892383
20
41.0853634015
30
0.0000000000
10
16.8115749716
20
40.7239731024
30
0.0000000000
10
15.9712649900
20
40.1139868927
30
0.0000000000
10
15.1674212214
20
39.3009120983
30
0.0000000000
10
14.4606342236
20
38.3456760114
30
0.0000000000
10
13.9056028903
20
37.3216627463
30
0.0000000000
10
13.5446641926
20
36.3088676471
30
0.0000000000
10
13.4424948241
20
35.6323511707
30
0.0000000000
10
13.4424947744
20
35.3188007209
30
0.0000000000
11
19.1182628192
21
40.7098590464
31
0.0000000000
11
18.9758368004
21
40.8561998894
31
0.0000000000
11
18.4156885904
21
41.1065609898
31
0.0000000000
11
17.6961055183
21
41.0601870087
31
0.0000000000
11
16.8753839249
21
40.7208348904
31
0.0000000000
11
16.0200137927
21
40.1159969252
31
0.0000000000
11
15.1992921229
21
39.2946734879
31
0.0000000000
11
14.4797089039
21
38.3234033189
31
0.0000000000
11
13.9195604888
21
37.2808729508
31
0.0000000000
11
13.5642267707
21
36.2515419940
31
0.0000000000
11
13.4424947744
21
35.3188007209
31
0.0000000000
0
SPLINE
5
324
100
AcDbEntity
8
0
100
AcDbSpline
62
0
6
CONTINUOUS
70
0
71
3
72
8
73
4
74
2
42
0.0000001000
43
0.0000001000
44
0.0000000001
12
0.1139145895
22
0.2895733589
32
0.0000000000
13
0.0863848205
23
0.2987715363
33
0.0000000000
40
0.0000000000
40
0.0000000000
40
0.0000000000
40
0.0000000000
40
1.0000000000
40
1.0000000000
40
1.0000000000
40
1.0000000000
10
6.1177170001
20
31.9078807448
30
0.0000000000
10
6.1556885300
20
32.0044051977
30
0.0000000000
10
6.1892631913
20
32.1026433915
30
0.0000000000
10
6.2180581315
20
32.2022339036
30
0.0000000000
11
6.1177170001
21
31.9078807448
31
0.0000000000
11
6.2180581315
21
32.2022339036
31
0.0000000000
0
SPLINE
5
325
100
AcDbEntity
8
0
100
AcDbSpline
62
0
6
CONTINUOUS
70
0
71
3
72
15
73
11
74
9
42
0.0000001000
43
0.0000001000
44
0.0000000001
12
2.5356994830
22
8.7699994741
32
0.0000000000
13
-9.0915335083
23
0.0000009312
33
0.0000000000
40
0.0000000000
40
0.0000000000
40
0.0000000000
40
0.0000000000
40
0.0384935927
40
0.1529035695
40
0.2705441788
40
0.3967051147
40
0.5339842898
40
0.6821574565
40
0.8387886464
40
1.0000000000
40
1.0000000000
40
1.0000000000
40
1.0000000000
10
6.2180581315
20
32.2022339036
30
0.0000000000
10
6.2505941926
20
32.3147634995
30
0.0000000000
10
6.3555935432
20
32.7686097041
30
0.0000000000
10
6.3555935389
20
33.6052800840
30
0.0000000000
10
5.9822801533
20
34.6454595362
30
0.0000000000
10
5.2737089457
20
35.5765728829
30
0.0000000000
10
4.2820195188
20
36.3519545876
30
0.0000000000
10
3.0657911148
20
36.9352187446
30
0.0000000000
10
1.6932647579
20
37.2976789143
30
0.0000000000
10
0.7279259301
20
37.3792746279
30
0.0000000000
10
0.2393731224
20
37.3792746779
30
0.0000000000
11
6.2180581315
21
32.2022339036
31
0.0000000000
11
6.2968068324
21
32.5444809215
31
0.0000000000
11
6.2968068324
21
33.5846430592
31
0.0000000000
11
5.9447708132
21
34.5945800067
31
0.0000000000
11
5.2611578249
21
35.5155979044
31
0.0000000000
11
4.2856969634
21
36.2941705429
31
0.0000000000
11
3.0750784607
21
36.8850501112
31
0.0000000000
11
1.6996590567
21
37.2538968345
31
0.0000000000
11
0.2393731224
21
37.3792746779
31
0.0000000000
0
SPLINE
5
326
100
AcDbEntity
8
0
100
AcDbSpline
62
0
6
CONTINUOUS
70
0
71
3
72
8
73
4
74
2
42
0.0000001000
43
0.0000001000
44
0.0000000001
12
-0.0810595378
22
0.3052354657
32
0.0000000000
13
-0.0492052669
23
0.3119617421
33
0.0000000000
40
0.0000000000
40
0.0000000000
40
0.0000000000
40
0.0000000000
40
1.0000000000
40
1.0000000000
40
1.0000000000
40
1.0000000000
10
-5.6263618906
20
31.9337648790
30
0.0000000000
10
-5.6533817365
20
32.0355100342
30
0.0000000000
10
-5.6752923874
20
32.1385883082
30
0.0000000000
10
-5.6916941430
20
32.2425755556
30
0.0000000000
11
-5.6263618906
21
31.9337648790
31
0.0000000000
11
-5.6916941430
21
32.2425755556
31
0.0000000000
0
SPLINE
5
327
100
AcDbEntity
8
0
100
AcDbSpline
62
0
6
CONTINUOUS
70
0
71
3
72
11
73
7
74
5
42
0.0000001000
43
0.0000001000
44
0.0000000001
12
-0.6280090503
22
3.9815818468
32
0.0000000000
13
3.2634334315
23
2.3407782114
33
0.0000000000
40
0.0000000000
40
0.0000000000
40
0.0000000000
40
0.0000000000
40
0.2332767726
40
0.4720982566
40
0.7259071093
40
1.0000000000
40
1.0000000000
40
1.0000000000
40
1.0000000000
10
-5.6916941430
20
32.2425755556
30
0.0000000000
10
-5.7405274512
20
32.5521790766
30
0.0000000000
10
-5.7405274539
20
33.1950516358
30
0.0000000000
10
-5.4329980729
20
34.1328018459
30
0.0000000000
10
-4.8441892487
20
34.9878082202
30
0.0000000000
10
-4.3087816123
20
35.4597443618
30
0.0000000000
10
-4.0106203114
20
35.6736079172
30
0.0000000000
11
-5.6916941430
21
32.2425755556
31
0.0000000000
11
-5.6916941430
21
33.1794436642
31
0.0000000000
11
-5.3994843719
21
34.0929840222
31
0.0000000000
11
-4.8297153668
21
34.9382010054
31
0.0000000000
11
-4.0106203114
21
35.6736079172
31
0.0000000000
0
SPLINE
5
328
100
AcDbEntity
8
0
100
AcDbSpline
62
0
6
CONTINUOUS
70
0
71
3
72
9
73
5
74
3
42
0.0000001000
43
0.0000001000
44
0.0000000001
12
0.0000000000
22
-0.1866380814
32
0.0000000000
13
0.0003564631
23
-0.1866377410
33
0.0000000000
40
0.0000000000
40
0.0000000000
40
0.0000000000
40
0.0000000000
40
0.4972082047
40
1.0000000000
40
1.0000000000
40
1.0000000000
40
1.0000000000
10
68.8380672499
20
-29.1535640688
30
0.0000000000
10
68.8380672499
20
-29.1844967306
30
0.0000000000
10
68.8380893463
20
-29.2467094280
30
0.0000000000
10
68.8381719440
20
-29.3089220813
30
0.0000000000
10
68.8382316862
20
-29.3402020563
30
0.0000000000
11
68.8380672499
21
-29.1535640688
31
0.0000000000
11
68.8381041798
21
-29.2463620469
31
0.0000000000
11
68.8382316862
21
-29.3402020563
31
0.0000000000
0
SPLINE
5
329
100
AcDbEntity
8
0
100
AcDbSpline
62
0
6
CONTINUOUS
70
0
71
3
72
9
73
5
74
3
42
0.0000001000
43
0.0000001000
44
0.0000000001
12
0.0003564631
22
0.1866377416
32
0.0000000000
13
0.0000000000
23
0.1866380820
33
0.0000000000
40
0.0000000000
40
0.0000000000
40
0.0000000000
40
0.0000000000
40
0.5037061478
40
1.0000000000
40
1.0000000000
40
1.0000000000
40
1.0000000000
10
-68.3594854413
20
-29.3402020563
30
0.0000000000
10
-68.3594255905
20
-29.3088651970
30
0.0000000000
10
-68.3593430598
20
-29.2466525433
30
0.0000000000
10
-68.3593210050
20
-29.1844398458
30
0.0000000000
10
-68.3593210050
20
-29.1535640683
30
0.0000000000
11
-68.3594854413
21
-29.3402020563
31
0.0000000000
11
-68.3593577920
21
-29.2461913936
31
0.0000000000
11
-68.3593210050
21
-29.1535640683
31
0.0000000000
0
SPLINE
5
32A
100
AcDbEntity
8
0
100
AcDbSpline
62
0
6
CONTINUOUS
70
0
71
3
72
10
73
6
74
4
42
0.0000001000
43
0.0000001000
44
0.0000000001
12
0.1316528847
22
6.5753760627
32
0.0000000000
13
0.8611741842
23
6.5200676279
33
0.0000000000
40
0.0000000000
40
0.0000000000
40
0.0000000000
40
0.0000000000
40
0.3327652077
40
0.6659560186
40
1.0000000000
40
1.0000000000
40
1.0000000000
40
1.0000000000
10
-71.0106268776
20
-36.3238515720
30
0.0000000000
10
-70.9960237111
20
-35.5944994450
30
0.0000000000
10
-70.9395837800
20
-34.1352561129
30
0.0000000000
10
-70.7734170207
20
-31.9488763114
30
0.0000000000
10
-70.6085538531
20
-30.4950616659
30
0.0000000000
10
-70.5126638354
20
-29.7690652160
30
0.0000000000
11
-71.0106268776
21
-36.3238515720
31
0.0000000000
11
-70.9260822144
21
-34.1369903055
31
0.0000000000
11
-70.7600955543
21
-31.9519919695
31
0.0000000000
11
-70.5126638354
21
-29.7690652160
31
0.0000000000
0
SPLINE
5
32B
100
AcDbEntity
8
0
100
AcDbSpline
62
0
6
CONTINUOUS
70
0
71
3
72
10
73
6
74
4
42
0.0000001000
43
0.0000001000
44
0.0000000001
12
0.1291093024
22
6.5076724642
32
0.0000000000
13
0.8558484711
23
6.4524408953
33
0.0000000000
40
0.0000000000
40
0.0000000000
40
0.0000000000
40
0.0000000000
40
0.3327663372
40
0.6659595309
40
1.0000000000
40
1.0000000000
40
1.0000000000
40
1.0000000000
10
-68.0110332181
20
-38.7811775387
30
0.0000000000
10
-67.9967121415
20
-38.0593327621
30
0.0000000000
10
-67.9409398521
20
-36.6151035526
30
0.0000000000
10
-67.7760785306
20
-34.4512686226
30
0.0000000000
10
-67.6122918595
20
-33.0124963854
30
0.0000000000
10
-67.5169958512
20
-32.2940375909
30
0.0000000000
11
-68.0110332181
21
-38.7811775387
31
0.0000000000
11
-67.9274882369
21
-36.6168289049
31
0.0000000000
11
-67.7628059293
21
-34.4543516243
31
0.0000000000
11
-67.5169958512
21
-32.2940375909
31
0.0000000000
0
SPLINE
5
32C
100
AcDbEntity
8
0
100
AcDbSpline
62
0
6
CONTINUOUS
70
0
71
3
72
10
73
6
74
4
42
0.0000001000
43
0.0000001000
44
0.0000000001
12
-0.8977356674
22
-5.9120511387
32
0.0000000000
13
-0.1294026861
23
-5.9784560144
33
0.0000000000
40
0.0000000000
40
0.0000000000
40
0.0000000000
40
0.0000000000
40
0.3249184864
40
0.6603835885
40
1.0000000000
40
1.0000000000
40
1.0000000000
40
1.0000000000
10
-70.5126638711
20
30.2910975653
30
0.0000000000
10
-70.6098941759
20
29.6507859962
30
0.0000000000
10
-70.7763983240
20
28.3444746875
30
0.0000000000
10
-70.9402622534
20
26.3573887199
30
0.0000000000
10
-70.9950861917
20
25.0124499789
30
0.0000000000
10
-71.0097352836
20
24.3356560529
30
0.0000000000
11
-70.5126638711
21
30.2910975653
31
0.0000000000
11
-70.7596281555
21
28.3639020947
31
0.0000000000
11
-70.9258036425
21
26.3647750031
31
0.0000000000
11
-71.0097352836
21
24.3356560529
31
0.0000000000
0
SPLINE
5
32D
100
AcDbEntity
8
0
100
AcDbSpline
62
0
6
CONTINUOUS
70
0
71
3
72
8
73
4
74
2
42
0.0000001000
43
0.0000001000
44
0.0000000001
12
-0.0009081491
22
-0.0419568547
32
0.0000000000
13
-0.0008750486
23
-0.0419573214
33
0.0000000000
40
0.0000000000
40
0.0000000000
40
0.0000000000
40
0.0000000000
40
1.0000000000
40
1.0000000000
40
1.0000000000
40
1.0000000000
10
-71.0097352836
20
24.3356560529
30
0.0000000000
10
-71.0100380000
20
24.3216704346
30
0.0000000000
10
-71.0103351944
20
24.3076847356
30
0.0000000000
10
-71.0106268772
20
24.2936989618
30
0.0000000000
11
-71.0097352836
21
24.3356560529
31
0.0000000000
11
-71.0106268772
21
24.2936989618
31
0.0000000000
0
SPLINE
5
32E
100
AcDbEntity
8
0
100
AcDbSpline
62
0
6
CONTINUOUS
70
0
71
3
72
8
73
4
74
2
42
0.0000001000
43
0.0000001000
44
0.0000000001
12
-0.0008750569
22
0.0419577204
32
0.0000000000
13
-0.0009081581
23
0.0419572538
33
0.0000000000
40
0.0000000000
40
0.0000000000
40
0.0000000000
40
0.0000000000
40
1.0000000000
40
1.0000000000
40
1.0000000000
40
1.0000000000
10
71.4893731221
20
24.2936989617
30
0.0000000000
10
71.4890814365
20
24.3076848685
30
0.0000000000
10
71.4887842392
20
24.3216707006
30
0.0000000000
10
71.4884815199
20
24.3356564519
30
0.0000000000
11
71.4893731221
21
24.2936989617
31
0.0000000000
11
71.4884815199
21
24.3356564519
31
0.0000000000
0
SPLINE
5
32F
100
AcDbEntity
8
0
100
AcDbSpline
62
0
6
CONTINUOUS
70
0
71
3
72
10
73
6
74
4
42
0.0000001000
43
0.0000001000
44
0.0000000001
12
-0.1294027235
22
5.9784556135
32
0.0000000000
13
-0.8977356060
23
5.9120507434
33
0.0000000000
40
0.0000000000
40
0.0000000000
40
0.0000000000
40
0.0000000000
40
0.3396151477
40
0.6750803098
40
1.0000000000
40
1.0000000000
40
1.0000000000
40
1.0000000000
10
71.4884815199
20
24.3356564519
30
0.0000000000
10
71.4738324782
20
25.0124478140
30
0.0000000000
10
71.4190087282
20
26.3573840666
30
0.0000000000
10
71.2551451174
20
28.3444699260
30
0.0000000000
10
71.0886407744
20
29.6507836657
30
0.0000000000
10
70.9914101160
20
30.2910975645
30
0.0000000000
11
71.4884815199
21
24.3356564519
31
0.0000000000
11
71.4045503368
21
26.3647677212
31
0.0000000000
11
71.2383751407
21
28.3638950621
31
0.0000000000
11
70.9914101160
21
30.2910975645
31
0.0000000000
0
SPLINE
5
330
100
AcDbEntity
8
0
100
AcDbSpline
62
0
6
CONTINUOUS
70
0
71
3
72
10
73
6
74
4
42
0.0000001000
43
0.0000001000
44
0.0000000001
12
0.8558484708
22
-6.4524408953
32
0.0000000000
13
0.1291093019
23
-6.5076724642
33
0.0000000000
40
0.0000000000
40
0.0000000000
40
0.0000000000
40
0.0000000000
40
0.3340404691
40
0.6672336628
40
1.0000000000
40
1.0000000000
40
1.0000000000
40
1.0000000000
10
67.9957420962
20
-32.2940375909
30
0.0000000000
10
68.0910381045
20
-33.0124963854
30
0.0000000000
10
68.2548247754
20
-34.4512686226
30
0.0000000000
10
68.4196860970
20
-36.6151035526
30
0.0000000000
10
68.4754583864
20
-38.0593327621
30
0.0000000000
10
68.4897794629
20
-38.7811775387
30
0.0000000000
11
67.9957420962
21
-32.2940375909
31
0.0000000000
11
68.2415521742
21
-34.4543516242
31
0.0000000000
11
68.4062344818
21
-36.6168289049
31
0.0000000000
11
68.4897794629
21
-38.7811775387
31
0.0000000000
0
SPLINE
5
331
100
AcDbEntity
8
0
100
AcDbSpline
62
0
6
CONTINUOUS
70
0
71
3
72
10
73
6
74
4
42
0.0000001000
43
0.0000001000
44
0.0000000001
12
0.8611741840
22
-6.5200676279
32
0.0000000000
13
0.1316528845
23
-6.5753760627
33
0.0000000000
40
0.0000000000
40
0.0000000000
40
0.0000000000
40
0.0000000000
40
0.3340439814
40
0.6672347923
40
1.0000000000
40
1.0000000000
40
1.0000000000
40
1.0000000000
10
70.9914100803
20
-29.7690652160
30
0.0000000000
10
71.0873000980
20
-30.4950616659
30
0.0000000000
10
71.2521632656
20
-31.9488763114
30
0.0000000000
10
71.4183300249
20
-34.1352561130
30
0.0000000000
10
71.4747699560
20
-35.5944994450
30
0.0000000000
10
71.4893731225
20
-36.3238515720
30
0.0000000000
11
70.9914100803
21
-29.7690652160
31
0.0000000000
11
71.2388417992
21
-31.9519919695
31
0.0000000000
11
71.4048284593
21
-34.1369903056
31
0.0000000000
11
71.4893731225
21
-36.3238515720
31
0.0000000000
0
SPLINE
5
332
100
AcDbEntity
8
0
100
AcDbSpline
62
0
6
CONTINUOUS
70
0
71
3
72
8
73
4
74
2
42
0.0000001000
43
0.0000001000
44
0.0000000001
12
0.1223145090
22
0.0000000000
32
0.0000000000
13
0.1223145090
23
0.0000000000
33
0.0000000000
40
0.0000000000
40
0.0000000000
40
0.0000000000
40
0.0000000000
40
1.0000000000
40
1.0000000000
40
1.0000000000
40
1.0000000000
10
68.7157527409
20
32.0356717304
30
0.0000000000
10
68.7565242439
20
32.0356717304
30
0.0000000000
10
68.7972957469
20
32.0356717304
30
0.0000000000
10
68.8380672499
20
32.0356717304
30
0.0000000000
11
68.7157527409
21
32.0356717304
31
0.0000000000
11
68.8380672499
21
32.0356717304
31
0.0000000000
0
SPLINE
5
333
100
AcDbEntity
8
0
100
AcDbSpline
62
0
6
CONTINUOUS
70
0
71
3
72
8
73
4
74
2
42
0.0000001000
43
0.0000001000
44
0.0000000001
12
0.1221655815
22
0.0000000000
32
0.0000000000
13
0.1221655815
23
0.0000000000
33
0.0000000000
40
0.0000000000
40
0.0000000000
40
0.0000000000
40
0.0000000000
40
1.0000000000
40
1.0000000000
40
1.0000000000
40
1.0000000000
10
-68.3593210050
20
32.0356717304
30
0.0000000000
10
-68.3185991445
20
32.0356717304
30
0.0000000000
10
-68.2778772840
20
32.0356717304
30
0.0000000000
10
-68.2371554235
20
32.0356717304
30
0.0000000000
11
-68.3593210050
21
32.0356717304
31
0.0000000000
11
-68.2371554235
21
32.0356717304
31
0.0000000000
0
SPLINE
5
334
100
AcDbEntity
8
0
100
AcDbSpline
62
0
6
CONTINUOUS
70
0
71
3
72
14
73
10
74
8
42
0.0000001000
43
0.0000001000
44
0.0000000001
12
-4.3063331889
22
0.1309453826
32
0.0000000000
13
-0.0049393924
23
4.3083207668
33
0.0000000000
40
0.0000000000
40
0.0000000000
40
0.0000000000
40
0.0000000000
40
0.1558934441
40
0.3098660765
40
0.4597206449
40
0.6035837911
40
0.7410120296
40
0.8724479841
40
1.0000000000
40
1.0000000000
40
1.0000000000
40
1.0000000000
10
-67.5169958620
20
-32.2939823965
30
0.0000000000
10
-67.7407722327
20
-32.2871778876
30
0.0000000000
10
-68.1853980483
20
-32.2331339280
30
0.0000000000
10
-68.8188983140
20
-32.0348550902
30
0.0000000000
10
-69.3891018905
20
-31.7289449307
30
0.0000000000
10
-69.8680083475
20
-31.3292232901
30
0.0000000000
10
-70.2313132887
20
-30.8539884271
30
0.0000000000
10
-70.4595629258
20
-30.3259511405
30
0.0000000000
10
-70.5123831486
20
-29.9522468318
30
0.0000000000
10
-70.5125931584
20
-29.7690684989
30
0.0000000000
11
-67.5169958620
21
-32.2939823965
31
0.0000000000
11
-68.1836927009
21
-32.2126508896
31
0.0000000000
11
-68.8164302414
21
-32.0134150927
31
0.0000000000
11
-69.3842797640
21
-31.7062105160
31
0.0000000000
11
-69.8581949755
21
-31.3067514399
31
0.0000000000
11
-70.2152002578
21
-30.8344038367
31
0.0000000000
11
-70.4369965764
21
-30.3133793188
31
0.0000000000
11
-70.5125931584
21
-29.7690684989
31
0.0000000000
0
SPLINE
5
335
100
AcDbEntity
8
0
100
AcDbSpline
62
0
6
CONTINUOUS
70
0
71
3
72
10
73
6
74
4
42
0.0000001000
43
0.0000001000
44
0.0000000001
12
-0.2961374260
22
0.3760196297
32
0.0000000000
13
-0.0000408233
23
0.4786315235
33
0.0000000000
40
0.0000000000
40
0.0000000000
40
0.0000000000
40
0.0000000000
40
0.3427689465
40
0.6746701114
40
1.0000000000
40
1.0000000000
40
1.0000000000
40
1.0000000000
10
-68.3593210050
20
-29.1535640683
30
0.0000000000
10
-68.3931565762
20
-29.1106014508
30
0.0000000000
10
-68.4515157874
20
-29.0190160883
30
0.0000000000
10
-68.5062886155
20
-28.8678442173
30
0.0000000000
10
-68.5186556648
20
-28.7625844921
30
0.0000000000
10
-68.5186600919
20
-28.7106801120
30
0.0000000000
11
-68.3593210050
21
-29.1535640683
31
0.0000000000
11
-68.4469306567
21
-29.0148548749
31
0.0000000000
11
-68.5006219755
21
-28.8653449386
31
0.0000000000
11
-68.5186600919
21
-28.7106801120
31
0.0000000000
0
SPLINE
5
336
100
AcDbEntity
8
0
100
AcDbSpline
62
0
6
CONTINUOUS
70
0
71
3
72
12
73
8
74
6
42
0.0000001000
43
0.0000001000
44
0.0000000001
12
0.3245038873
22
2.3981345931
32
0.0000000000
13
2.4199901445
23
-0.0000003642
33
0.0000000000
40
0.0000000000
40
0.0000000000
40
0.0000000000
40
0.0000000000
40
0.1481466737
40
0.3216579006
40
0.5259998104
40
0.7559157503
40
1.0000000000
40
1.0000000000
40
1.0000000000
40
1.0000000000
10
-70.5126638354
20
-29.7690652160
30
0.0000000000
10
-70.4966391116
20
-29.6506399949
30
0.0000000000
10
-70.3884961830
20
-29.4022019878
30
0.0000000000
10
-70.0715499402
20
-29.1090119695
30
0.0000000000
10
-69.6306186687
20
-28.8844203663
30
0.0000000000
10
-69.0987705576
20
-28.7427679829
30
0.0000000000
10
-68.7155539181
20
-28.7106800824
30
0.0000000000
10
-68.5186600919
20
-28.7106801120
30
0.0000000000
11
-70.5126638354
21
-29.7690652160
31
0.0000000000
11
-70.3788498832
21
-29.4364607226
31
0.0000000000
11
-70.0803324435
21
-29.1411650495
31
0.0000000000
11
-69.6435426245
21
-28.9093240424
31
0.0000000000
11
-69.1071543439
21
-28.7614651940
31
0.0000000000
11
-68.5186600919
21
-28.7106801120
31
0.0000000000
0
SPLINE
5
337
100
AcDbEntity
8
0
100
AcDbSpline
62
0
6
CONTINUOUS
70
0
71
3
72
10
73
6
74
4
42
0.0000001000
43
0.0000001000
44
0.0000000001
12
0.0000451086
22
0.4792486188
32
0.0000000000
13
0.2965467459
23
0.3764827595
33
0.0000000000
40
0.0000000000
40
0.0000000000
40
0.0000000000
40
0.0000000000
40
0.3256757322
40
0.6575855455
40
1.0000000000
40
1.0000000000
40
1.0000000000
40
1.0000000000
10
-68.5186588255
20
31.3494829371
30
0.0000000000
10
-68.5186539286
20
31.4015094854
30
0.0000000000
10
-68.5063047313
20
31.5069620434
30
0.0000000000
10
-68.4515497605
20
31.6583618219
30
0.0000000000
10
-68.3931683024
20
31.7500381472
30
0.0000000000
10
-68.3593210050
20
31.7930091935
30
0.0000000000
11
-68.5186588255
21
31.3494829371
31
0.0000000000
11
-68.5006191900
21
31.5045165699
31
0.0000000000
11
-68.4469260701
21
31.6542478668
31
0.0000000000
11
-68.3593210050
21
31.7930091935
31
0.0000000000
0
SPLINE
5
338
100
AcDbEntity
8
0
100
AcDbSpline
62
0
6
CONTINUOUS
70
0
71
3
72
9
73
5
74
3
42
0.0000001000
43
0.0000001000
44
0.0000000001
12
0.0657526339
22
0.4859246483
32
0.0000000000
13
0.3285615978
23
0.3668337701
33
0.0000000000
40
0.0000000000
40
0.0000000000
40
0.0000000000
40
0.0000000000
40
0.7311445981
40
1.0000000000
40
1.0000000000
40
1.0000000000
40
1.0000000000
10
-70.5126638711
20
30.2910976224
30
0.0000000000
10
-70.4966389768
20
30.4095246830
30
0.0000000000
10
-70.4285146040
20
30.5660263705
30
0.0000000000
10
-70.3263923092
20
30.6950884398
30
0.0000000000
10
-70.2969471224
20
30.7279635200
30
0.0000000000
11
-70.5126638711
21
30.2910976224
31
0.0000000000
11
-70.3788470909
21
30.6237069466
31
0.0000000000
11
-70.2969471224
21
30.7279635200
31
0.0000000000
0
SPLINE
5
339
100
AcDbEntity
8
0
100
AcDbSpline
62
0
6
CONTINUOUS
70
0
71
3
72
8
73
4
74
2
42
0.0000001000
43
0.0000001000
44
0.0000000001
12
0.1930192369
22
0.2155028915
32
0.0000000000
13
0.2353393092
23
0.1682428995
33
0.0000000000
40
0.0000000000
40
0.0000000000
40
0.0000000000
40
0.0000000000
40
1.0000000000
40
1.0000000000
40
1.0000000000
40
1.0000000000
10
-70.2969471224
20
30.7279635200
30
0.0000000000
10
-70.2326073768
20
30.7997978172
30
0.0000000000
10
-70.1587708351
20
30.8629236015
30
0.0000000000
10
-70.0803243987
20
30.9190045680
30
0.0000000000
11
-70.2969471224
21
30.7279635200
31
0.0000000000
11
-70.0803243987
21
30.9190045680
31
0.0000000000
0
SPLINE
5
33A
100
AcDbEntity
8
0
100
AcDbSpline
62
0
6
CONTINUOUS
70
0
71
3
72
10
73
6
74
4
42
0.0000001000
43
0.0000001000
44
0.0000000001
12
1.3411020163
22
0.9587471491
32
0.0000000000
13
1.6415724991
23
-0.0000025510
33
0.0000000000
40
0.0000000000
40
0.0000000000
40
0.0000000000
40
0.0000000000
40
0.3012402657
40
0.6401784723
40
1.0000000000
40
1.0000000000
40
1.0000000000
40
1.0000000000
10
-70.0803243987
20
30.9190045680
30
0.0000000000
10
-69.9456597561
20
31.0152756500
30
0.0000000000
10
-69.6306086750
20
31.1757471357
30
0.0000000000
10
-69.0987628385
20
31.3173965561
30
0.0000000000
10
-68.7155498670
20
31.3494832431
30
0.0000000000
10
-68.5186588255
20
31.3494829371
30
0.0000000000
11
-70.0803243987
21
30.9190045680
31
0.0000000000
11
-69.6435312319
21
31.1508442329
31
0.0000000000
11
-69.1071448802
21
31.2987000323
31
0.0000000000
11
-68.5186588255
21
31.3494829371
31
0.0000000000
0
SPLINE
5
33B
100
AcDbEntity
8
0
100
AcDbSpline
62
0
6
CONTINUOUS
70
0
71
3
72
8
73
4
74
2
42
0.0000001000
43
0.0000001000
44
0.0000000001
12
0.0014675619
22
0.3119170926
32
0.0000000000
13
0.0467137367
23
0.3095480868
33
0.0000000000
40
0.0000000000
40
0.0000000000
40
0.0000000000
40
0.0000000000
40
1.0000000000
40
1.0000000000
40
1.0000000000
40
1.0000000000
10
-70.5125931554
20
30.2910940629
30
0.0000000000
10
-70.5121039681
20
30.3950664271
30
0.0000000000
10
-70.5039853170
20
30.4992938509
30
0.0000000000
10
-70.4884140714
20
30.6024765465
30
0.0000000000
11
-70.5125931554
21
30.2910940629
31
0.0000000000
11
-70.4884140714
21
30.6024765465
31
0.0000000000
0
SPLINE
5
33C
100
AcDbEntity
8
0
100
AcDbSpline
62
0
6
CONTINUOUS
70
0
71
3
72
10
73
6
74
4
42
0.0000001000
43
0.0000001000
44
0.0000000001
12
0.2965467407
22
-0.3764827609
32
0.0000000000
13
0.0000451383
23
-0.4792486167
33
0.0000000000
40
0.0000000000
40
0.0000000000
40
0.0000000000
40
0.0000000000
40
0.3424144547
40
0.6743242677
40
1.0000000000
40
1.0000000000
40
1.0000000000
40
1.0000000000
10
68.8380672499
20
31.7930091905
30
0.0000000000
10
68.8719145468
20
31.7500381441
30
0.0000000000
10
68.9302960055
20
31.6583618201
30
0.0000000000
10
68.9850509773
20
31.5069620419
30
0.0000000000
10
68.9974001698
20
31.4015094844
30
0.0000000000
10
68.9974050700
20
31.3494829364
30
0.0000000000
11
68.8380672499
21
31.7930091905
31
0.0000000000
11
68.9256723151
21
31.6542478647
31
0.0000000000
11
68.9793654346
21
31.5045165685
31
0.0000000000
11
68.9974050700
21
31.3494829364
31
0.0000000000
0
SPLINE
5
33D
100
AcDbEntity
8
0
100
AcDbSpline
62
0
6
CONTINUOUS
70
0
71
3
72
9
73
5
74
3
42
0.0000001000
43
0.0000001000
44
0.0000000001
12
-0.0657518077
22
0.4859175950
32
0.0000000000
13
-0.3285548376
23
0.3668302271
33
0.0000000000
40
0.0000000000
40
0.0000000000
40
0.0000000000
40
0.0000000000
40
0.7311442420
40
1.0000000000
40
1.0000000000
40
1.0000000000
40
1.0000000000
10
70.9914101160
20
30.2910976216
30
0.0000000000
10
70.9753854308
20
30.4095229055
30
0.0000000000
10
70.9072625831
20
30.5660223939
30
0.0000000000
10
70.8051424297
20
30.6950830986
30
0.0000000000
10
70.7756978098
20
30.7279579049
30
0.0000000000
11
70.9914101160
21
30.2910976216
31
0.0000000000
11
70.8575961707
21
30.6237023024
31
0.0000000000
11
70.7756978098
21
30.7279579049
31
0.0000000000
0
SPLINE
5
33E
100
AcDbEntity
8
0
100
AcDbSpline
62
0
6
CONTINUOUS
70
0
71
3
72
8
73
4
74
2
42
0.0000001000
43
0.0000001000
44
0.0000000001
12
-0.1930159644
22
0.2155015905
32
0.0000000000
13
-0.2353357405
23
0.1682424839
33
0.0000000000
40
0.0000000000
40
0.0000000000
40
0.0000000000
40
0.0000000000
40
1.0000000000
40
1.0000000000
40
1.0000000000
40
1.0000000000
10
70.7756978098
20
30.7279579049
30
0.0000000000
10
70.7113591550
20
30.7997917684
30
0.0000000000
10
70.6375237917
20
30.8629173032
30
0.0000000000
10
70.5590785449
20
30.9189981311
30
0.0000000000
11
70.7756978098
21
30.7279579049
31
0.0000000000
11
70.5590785449
21
30.9189981311
31
0.0000000000
0
SPLINE
5
33F
100
AcDbEntity
8
0
100
AcDbSpline
62
0
6
CONTINUOUS
70
0
71
3
72
10
73
6
74
4
42
0.0000001000
43
0.0000001000
44
0.0000000001
12
-1.3411042280
22
0.9587609003
32
0.0000000000
13
-1.6415822734
23
-0.0000008730
33
0.0000000000
40
0.0000000000
40
0.0000000000
40
0.0000000000
40
0.0000000000
40
0.3012372538
40
0.6401752997
40
1.0000000000
40
1.0000000000
40
1.0000000000
40
1.0000000000
10
70.5590785449
20
30.9189981311
30
0.0000000000
10
70.4244150266
20
31.0152696314
30
0.0000000000
10
70.1093644224
20
31.1757429086
30
0.0000000000
10
69.5775159226
20
31.3173952456
30
0.0000000000
10
69.1942990198
20
31.3494830411
30
0.0000000000
10
68.9974050700
20
31.3494829364
30
0.0000000000
11
70.5590785449
21
30.9189981311
31
0.0000000000
11
70.1222883937
21
31.1508392118
31
0.0000000000
11
69.5858997085
21
31.2986980202
31
0.0000000000
11
68.9974050700
21
31.3494829364
31
0.0000000000
0
SPLINE
5
340
100
AcDbEntity
8
0
100
AcDbSpline
62
0
6
CONTINUOUS
70
0
71
3
72
10
73
6
74
4
42
0.0000001000
43
0.0000001000
44
0.0000000001
12
-0.0000408038
22
-0.4786315240
32
0.0000000000
13
-0.2961374278
23
-0.3760196290
33
0.0000000000
40
0.0000000000
40
0.0000000000
40
0.0000000000
40
0.0000000000
40
0.3253298886
40
0.6572310536
40
1.0000000000
40
1.0000000000
40
1.0000000000
40
1.0000000000
10
68.9974063368
20
-28.7106801120
30
0.0000000000
10
68.9974019119
20
-28.7625844922
30
0.0000000000
10
68.9850348597
20
-28.8678442176
30
0.0000000000
10
68.9302620321
20
-29.0190160884
30
0.0000000000
10
68.8719028213
20
-29.1106014515
30
0.0000000000
10
68.8380672499
20
-29.1535640688
30
0.0000000000
11
68.9974063368
21
-28.7106801120
31
0.0000000000
11
68.9793682206
21
-28.8653449388
31
0.0000000000
11
68.9256769014
21
-29.0148548752
31
0.0000000000
11
68.8380672499
21
-29.1535640688
31
0.0000000000
0
SPLINE
5
341
100
AcDbEntity
8
0
100
AcDbSpline
62
0
6
CONTINUOUS
70
0
71
3
72
12
73
8
74
6
42
0.0000001000
43
0.0000001000
44
0.0000000001
12
-0.3245039789
22
2.3981343768
32
0.0000000000
13
-2.4199899425
23
0.0000001565
33
0.0000000000
40
0.0000000000
40
0.0000000000
40
0.0000000000
40
0.0000000000
40
0.1481487867
40
0.3216619307
40
0.5260046452
40
0.7559193344
40
1.0000000000
40
1.0000000000
40
1.0000000000
40
1.0000000000
10
70.9914100803
20
-29.7690652160
30
0.0000000000
10
70.9753851234
20
-29.6506383166
30
0.0000000000
10
70.8672396847
20
-29.4021974245
30
0.0000000000
10
70.5502886294
20
-29.1090068524
30
0.0000000000
10
70.1093552283
20
-28.8844170416
30
0.0000000000
10
69.5775099129
20
-28.7427673002
30
0.0000000000
10
69.1942972555
20
-28.7106801248
30
0.0000000000
10
68.9974063368
20
-28.7106801120
30
0.0000000000
11
70.9914100803
21
-29.7690652160
31
0.0000000000
11
70.8575931181
21
-29.4364564542
31
0.0000000000
11
70.5590705761
21
-29.1411593916
31
0.0000000000
11
70.1222778041
21
-28.9093198830
31
0.0000000000
11
69.5858919563
21
-28.7614637733
31
0.0000000000
11
68.9974063368
21
-28.7106801120
31
0.0000000000
0
SPLINE
5
342
100
AcDbEntity
8
0
100
AcDbSpline
62
0
6
CONTINUOUS
70
0
71
3
72
14
73
10
74
8
42
0.0000001000
43
0.0000001000
44
0.0000000001
12
-0.0049393453
22
-4.3083207632
32
0.0000000000
13
-4.3063331851
23
-0.1309453879
33
0.0000000000
40
0.0000000000
40
0.0000000000
40
0.0000000000
40
0.0000000000
40
0.1275520002
40
0.2589879576
40
0.3964161947
40
0.5402793400
40
0.6901339087
40
0.8441065351
40
1.0000000000
40
1.0000000000
40
1.0000000000
40
1.0000000000
10
70.9913394042
20
-29.7690685024
30
0.0000000000
10
70.9911293964
20
-29.9522468128
30
0.0000000000
10
70.9383091704
20
-30.3259511003
30
0.0000000000
10
70.7100595684
20
-30.8539883786
30
0.0000000000
10
70.3467546316
20
-31.3292232465
30
0.0000000000
10
69.8678481884
20
-31.7289448983
30
0.0000000000
10
69.2976446227
20
-32.0348550555
30
0.0000000000
10
68.6641443464
20
-32.2331339306
30
0.0000000000
10
68.2195185074
20
-32.2871778838
30
0.0000000000
10
67.9957421070
20
-32.2939823939
30
0.0000000000
11
70.9913394042
21
-29.7690685024
31
0.0000000000
11
70.9157428351
21
-30.3133792557
31
0.0000000000
11
70.6939465303
21
-30.8344037923
31
0.0000000000
11
70.3369412612
21
-31.3067513971
31
0.0000000000
11
69.8630260617
21
-31.7062104807
31
0.0000000000
11
69.2951765431
21
-32.0134150665
31
0.0000000000
11
68.6624390342
21
-32.2126508756
31
0.0000000000
11
67.9957421070
21
-32.2939823939
31
0.0000000000
0
SPLINE
5
343
100
AcDbEntity
8
0
100
AcDbSpline
62
0
6
CONTINUOUS
70
0
71
3
72
9
73
5
74
3
42
0.0000001000
43
0.0000001000
44
0.0000000001
12
-1.8069842015
22
-12.1125152277
32
0.0000000000
13
-0.6622165082
23
-12.2286420481
33
0.0000000000
40
0.0000000000
40
0.0000000000
40
0.0000000000
40
0.0000000000
40
0.5006633040
40
1.0000000000
40
1.0000000000
40
1.0000000000
40
1.0000000000
10
-65.1584717234
20
-19.4393925127
30
0.0000000000
10
-65.4600352836
20
-21.4608231440
30
0.0000000000
10
-65.9683893717
20
-25.5129233395
30
0.0000000000
10
-66.2856415015
20
-29.5844751770
30
0.0000000000
10
-66.3958645026
20
-31.6198784159
30
0.0000000000
11
-65.1584717234
21
-19.4393925127
31
0.0000000000
11
-65.9211614260
21
-25.5231747097
31
0.0000000000
11
-66.3958645026
21
-31.6198784159
31
0.0000000000
0
SPLINE
5
344
100
AcDbEntity
8
0
100
AcDbSpline
62
0
6
CONTINUOUS
70
0
71
3
72
11
73
7
74
5
42
0.0000001000
43
0.0000001000
44
0.0000000001
12
-1.2958642973
22
0.0000000000
32
0.0000000000
13
-0.9129271765
23
0.9196892124
33
0.0000000000
40
0.0000000000
40
0.0000000000
40
0.0000000000
40
0.0000000000
40
0.2179111818
40
0.4587563492
40
0.7170606753
40
1.0000000000
40
1.0000000000
40
1.0000000000
40
1.0000000000
10
-66.3958645026
20
-31.6198784159
30
0.0000000000
10
-66.4899922761
20
-31.6198784159
30
0.0000000000
10
-66.6889787683
20
-31.5902519157
30
0.0000000000
10
-66.9754527247
20
-31.4660400728
30
0.0000000000
10
-67.2564861324
20
-31.2762555577
30
0.0000000000
10
-67.4308949179
20
-31.1194720149
30
0.0000000000
10
-67.5169959175
20
-31.0327332667
30
0.0000000000
11
-66.3958645026
21
-31.6198784159
31
0.0000000000
11
-66.6754869093
21
-31.5804874349
31
0.0000000000
11
-66.9638088919
21
-31.4609947546
31
0.0000000000
11
-67.2430604310
21
-31.2764385855
31
0.0000000000
11
-67.5169959175
21
-31.0327332667
31
0.0000000000
0
SPLINE
5
345
100
AcDbEntity
8
0
100
AcDbSpline
62
0
6
CONTINUOUS
70
0
71
3
72
11
73
7
74
5
42
0.0000001000
43
0.0000001000
44
0.0000000001
12
-1.3630886292
22
1.3734919021
32
0.0000000000
13
0.0036960724
23
1.9350651036
33
0.0000000000
40
0.0000000000
40
0.0000000000
40
0.0000000000
40
0.0000000000
40
0.2825566581
40
0.5440431751
40
0.7826189221
40
1.0000000000
40
1.0000000000
40
1.0000000000
40
1.0000000000
10
-67.5169959175
20
-31.0327332667
30
0.0000000000
10
-67.6453791734
20
-30.9033701728
30
0.0000000000
10
-67.8777878494
20
-30.6386229823
30
0.0000000000
10
-68.1479255092
20
-30.2091736791
30
0.0000000000
10
-68.3174908741
20
-29.7753130416
30
0.0000000000
10
-68.3597510641
20
-29.4804176036
30
0.0000000000
10
-68.3594832454
20
-29.3402020909
30
0.0000000000
11
-67.5169959175
21
-31.0327332667
31
0.0000000000
11
-67.8747528430
21
-30.6192557987
31
0.0000000000
11
-68.1409536848
21
-30.1889449795
31
0.0000000000
11
-68.3045664198
21
-29.7572492079
31
0.0000000000
11
-68.3594832454
21
-29.3402020909
31
0.0000000000
0
SPLINE
5
346
100
AcDbEntity
8
0
100
AcDbSpline
62
0
6
CONTINUOUS
70
0
71
3
72
9
73
5
74
3
42
0.0000001000
43
0.0000001000
44
0.0000000001
12
-1.7243023440
22
-11.5567515063
32
0.0000000000
13
-0.6881116395
23
-11.6643999556
33
0.0000000000
40
0.0000000000
40
0.0000000000
40
0.0000000000
40
0.0000000000
40
0.5007565665
40
1.0000000000
40
1.0000000000
40
1.0000000000
40
1.0000000000
10
-67.1508174946
20
-17.7211256733
30
0.0000000000
10
-67.4386360684
20
-19.6501654082
30
0.0000000000
10
-67.9283040187
20
-23.5156085861
30
0.0000000000
10
-68.2449737022
20
-27.3990770286
30
0.0000000000
10
-68.3594854413
20
-29.3402020563
30
0.0000000000
11
-67.1508174946
21
-17.7211256733
31
0.0000000000
11
-67.8856644011
21
-23.5259774799
31
0.0000000000
11
-68.3594854413
21
-29.3402020563
31
0.0000000000
0
SPLINE
5
347
100
AcDbEntity
8
0
100
AcDbSpline
62
0
6
CONTINUOUS
70
0
71
3
72
12
73
8
74
6
42
0.0000001000
43
0.0000001000
44
0.0000000001
12
-2.8728123161
22
0.1628922661
32
0.0000000000
13
-0.0002970522
23
2.8774266986
33
0.0000000000
40
0.0000000000
40
0.0000000000
40
0.0000000000
40
0.0000000000
40
0.2167171412
40
0.4295398218
40
0.6318997007
40
0.8212618985
40
1.0000000000
40
1.0000000000
40
1.0000000000
40
1.0000000000
10
-65.1584676312
20
-19.4393925126
30
0.0000000000
10
-65.3659968553
20
-19.4276253305
30
0.0000000000
10
-65.7766809949
20
-19.3557261273
30
0.0000000000
10
-66.3335640487
20
-19.0998295118
30
0.0000000000
10
-66.7826198035
20
-18.7201409020
30
0.0000000000
10
-67.0781917963
20
-18.2482984356
30
0.0000000000
10
-67.1508024560
20
-17.8925720415
30
0.0000000000
10
-67.1508201542
20
-17.7211367797
30
0.0000000000
11
-65.1584676312
21
-19.4393925126
31
0.0000000000
11
-65.7722237502
21
-19.3290972940
31
0.0000000000
11
-66.3276771095
21
-19.0712545685
31
0.0000000000
11
-66.7687880282
21
-18.6911675085
31
0.0000000000
11
-67.0524391683
21
-18.2259452834
31
0.0000000000
11
-67.1508201542
21
-17.7211367797
31
0.0000000000
0
SPLINE
5
348
100
AcDbEntity
8
0
100
AcDbSpline
62
0
6
CONTINUOUS
70
0
71
3
72
13
73
9
74
7
42
0.0000001000
43
0.0000001000
44
0.0000000001
12
-5.4857795930
22
-54.8262446033
32
0.0000000000
13
-2.7682227141
23
-55.0304262935
33
0.0000000000
40
0.0000000000
40
0.0000000000
40
0.0000000000
40
0.0000000000
40
0.1276875629
40
0.2709649604
40
0.4298295518
40
0.6042844214
40
0.7943370162
40
1.0000000000
40
1.0000000000
40
1.0000000000
40
1.0000000000
10
-61.0362642749
20
37.1188237758
30
0.0000000000
10
-61.2697528840
20
34.7852805894
30
0.0000000000
10
-61.7484952174
20
29.8315975193
30
0.0000000000
10
-62.4566355362
20
21.9688224866
30
0.0000000000
10
-63.1757821836
20
13.2448229123
30
0.0000000000
10
-63.8865076477
20
3.6584130238
30
0.0000000000
10
-64.5672813290
20
-6.7917157164
30
0.0000000000
10
-64.9680071866
20
-14.0487852870
30
0.0000000000
10
-65.1577808343
20
-17.8213591771
30
0.0000000000
11
-61.0362642749
21
37.1188237758
31
0.0000000000
11
-61.7137718054
21
30.1159350759
31
0.0000000000
11
-62.4215408707
21
22.2531399694
31
0.0000000000
11
-63.1408284707
21
13.5293024209
31
0.0000000000
11
-63.8516339495
21
3.9431544368
31
0.0000000000
11
-64.5320921986
21
-6.5066137590
31
0.0000000000
11
-65.1577808343
21
-17.8213591771
31
0.0000000000
0
SPLINE
5
349
100
AcDbEntity
8
0
100
AcDbSpline
62
0
6
CONTINUOUS
70
0
71
3
72
13
73
9
74
7
42
0.0000001000
43
0.0000001000
44
0.0000000001
12
-5.5151330537
22
-54.9223657836
32
0.0000000000
13
-2.7831123540
23
-55.1283705681
33
0.0000000000
40
0.0000000000
40
0.0000000000
40
0.0000000000
40
0.0000000000
40
0.1276927638
40
0.2709705514
40
0.4298347051
40
0.6042880615
40
0.7943380592
40
1.0000000000
40
1.0000000000
40
1.0000000000
40
1.0000000000
10
-63.0059110302
20
37.3160988679
30
0.0000000000
10
-63.2406585577
20
34.9783693067
30
0.0000000000
10
-63.7228613095
20
30.0159732884
30
0.0000000000
10
-64.4344091261
20
22.1392269488
30
0.0000000000
10
-65.1575150420
20
13.3998720656
30
0.0000000000
10
-65.8720964773
20
3.7965853863
30
0.0000000000
10
-66.5561694862
20
-6.6720040743
30
0.0000000000
10
-66.9600240652
20
-13.9418564456
30
0.0000000000
10
-67.1508174946
20
-17.7211256733
30
0.0000000000
11
-63.0059110302
21
37.3160988679
31
0.0000000000
11
-63.6876570821
21
30.3006875866
31
0.0000000000
11
-64.3992200117
21
22.4240328798
31
0.0000000000
11
-65.1223627265
21
13.6848254733
31
0.0000000000
11
-65.8369771511
21
4.0818008676
31
0.0000000000
11
-66.5210816571
21
-6.3863590224
31
0.0000000000
11
-67.1508174946
21
-17.7211256733
31
0.0000000000
0
SPLINE
5
34A
100
AcDbEntity
8
0
100
AcDbSpline
62
0
6
CONTINUOUS
70
0
71
3
72
9
73
5
74
3
42
0.0000001000
43
0.0000001000
44
0.0000000001
12
0.4859974395
22
11.3446563455
32
0.0000000000
13
0.4643106325
23
11.3455646288
33
0.0000000000
40
0.0000000000
40
0.0000000000
40
0.0000000000
40
0.0000000000
40
0.4998531828
40
1.0000000000
40
1.0000000000
40
1.0000000000
40
1.0000000000
10
61.5144055025
20
38.5330366717
30
0.0000000000
10
61.5953812915
20
40.4232575323
30
0.0000000000
10
61.7555705457
20
44.2048873981
30
0.0000000000
10
61.9121453352
20
47.9866686395
30
0.0000000000
10
61.9895531636
20
49.8781513191
30
0.0000000000
11
61.5144055025
21
38.5330366717
31
0.0000000000
11
61.7546204231
21
44.2038148030
31
0.0000000000
11
61.9895531636
21
49.8781513191
31
0.0000000000
0
SPLINE
5
34B
100
AcDbEntity
8
0
100
AcDbSpline
62
0
6
CONTINUOUS
70
0
71
3
72
10
73
6
74
4
42
0.0000001000
43
0.0000001000
44
0.0000000001
12
1.2723123302
22
-0.0260266422
32
0.0000000000
13
1.1103784282
23
-0.6286454291
33
0.0000000000
40
0.0000000000
40
0.0000000000
40
0.0000000000
40
0.0000000000
40
0.4397878588
40
0.8644128913
40
1.0000000000
40
1.0000000000
40
1.0000000000
40
1.0000000000
10
61.9895531509
20
49.8781513191
30
0.0000000000
10
62.1760689894
20
49.8743359186
30
0.0000000000
10
62.5430108642
20
49.8306485667
30
0.0000000000
10
62.9484484659
20
49.6960166195
30
0.0000000000
10
63.1606005207
20
49.5870476423
30
0.0000000000
10
63.2107848542
20
49.5586355703
30
0.0000000000
11
61.9895531509
21
49.8781513191
31
0.0000000000
11
62.5451825880
21
49.8110665511
31
0.0000000000
11
63.0570295466
21
49.6378296866
31
0.0000000000
11
63.2107848542
21
49.5586355703
31
0.0000000000
0
SPLINE
5
34C
100
AcDbEntity
8
0
100
AcDbSpline
62
0
6
CONTINUOUS
70
0
71
3
72
8
73
4
74
2
42
0.0000001000
43
0.0000001000
44
0.0000000001
12
0.1465646197
22
-0.0829781775
32
0.0000000000
13
0.1391658093
23
-0.0947730525
33
0.0000000000
40
0.0000000000
40
0.0000000000
40
0.0000000000
40
0.0000000000
40
1.0000000000
40
1.0000000000
40
1.0000000000
40
1.0000000000
10
63.2107848542
20
49.5586355703
30
0.0000000000
10
63.2596397274
20
49.5309761778
30
0.0000000000
10
63.3073929383
20
49.5013848493
30
0.0000000000
10
63.3537815414
20
49.4697938318
30
0.0000000000
11
63.2107848542
21
49.5586355703
31
0.0000000000
11
63.3537815414
21
49.4697938318
31
0.0000000000
0
SPLINE
5
34D
100
AcDbEntity
8
0
100
AcDbSpline
62
0
6
CONTINUOUS
70
0
71
3
72
8
73
4
74
2
42
0.0000001000
43
0.0000001000
44
0.0000000001
12
0.1350772811
22
-0.0919887315
32
0.0000000000
13
0.1266423208
23
-0.1034781052
33
0.0000000000
40
0.0000000000
40
0.0000000000
40
0.0000000000
40
0.0000000000
40
1.0000000000
40
1.0000000000
40
1.0000000000
40
1.0000000000
10
63.3537815414
20
49.4697938318
30
0.0000000000
10
63.3988073018
20
49.4391309213
30
0.0000000000
10
63.4425474577
20
49.4065840929
30
0.0000000000
10
63.4847615646
20
49.3720913911
30
0.0000000000
11
63.3537815414
21
49.4697938318
31
0.0000000000
11
63.4847615646
21
49.3720913911
31
0.0000000000
0
SPLINE
5
34E
100
AcDbEntity
8
0
100
AcDbSpline
62
0
6
CONTINUOUS
70
0
71
3
72
9
73
5
74
3
42
0.0000001000
43
0.0000001000
44
0.0000000001
12
0.6800499040
22
-0.5556616073
32
0.0000000000
13
0.1968909772
23
-0.8530697531
33
0.0000000000
40
0.0000000000
40
0.0000000000
40
0.0000000000
40
0.0000000000
40
0.5231981400
40
1.0000000000
40
1.0000000000
40
1.0000000000
40
1.0000000000
10
63.4847615646
20
49.3720913911
30
0.0000000000
10
63.6033618463
20
49.2751843513
30
0.0000000000
10
63.8070223279
20
49.0606072944
30
0.0000000000
10
63.9310545109
20
48.7880896730
30
0.0000000000
10
63.9623471723
20
48.6525079247
30
0.0000000000
11
63.4847615646
21
49.3720913911
31
0.0000000000
11
63.7946742613
21
49.0347912818
31
0.0000000000
11
63.9623471723
21
48.6525079247
31
0.0000000000
0
SPLINE
5
34F
100
AcDbEntity
8
0
100
AcDbSpline
62
0
6
CONTINUOUS
70
0
71
3
72
9
73
5
74
3
42
0.0000001000
43
0.0000001000
44
0.0000000001
12
0.4885955309
22
11.3359099736
32
0.0000000000
13
0.4667933723
23
11.3368286778
33
0.0000000000
40
0.0000000000
40
0.0000000000
40
0.0000000000
40
0.0000000000
40
0.4998471719
40
1.0000000000
40
1.0000000000
40
1.0000000000
40
1.0000000000
10
63.4846574691
20
37.3161017332
30
0.0000000000
10
63.5660651672
20
39.2048425804
30
0.0000000000
10
63.7271111211
20
42.9835578681
30
0.0000000000
10
63.8845235670
20
46.7624262613
30
0.0000000000
10
63.9623462421
20
48.6524752362
30
0.0000000000
11
63.4846574691
21
37.3161017332
31
0.0000000000
11
63.7261540746
21
42.9824411334
31
0.0000000000
11
63.9623462421
21
48.6524752362
31
0.0000000000
0
SPLINE
5
350
100
AcDbEntity
8
0
100
AcDbSpline
62
0
6
CONTINUOUS
70
0
71
3
72
12
73
8
74
6
42
0.0000001000
43
0.0000001000
44
0.0000000001
12
2.4691972110
22
-0.0111135564
32
0.0000000000
13
0.6052253321
23
-2.3939007238
33
0.0000000000
40
0.0000000000
40
0.0000000000
40
0.0000000000
40
0.0000000000
40
0.2256967114
40
0.4438211417
40
0.6471518308
40
0.8322641779
40
1.0000000000
40
1.0000000000
40
1.0000000000
40
1.0000000000
10
61.5144055141
20
38.5330366717
30
0.0000000000
10
61.7001687442
20
38.5322005739
30
0.0000000000
10
62.0656695386
20
38.4841596172
30
0.0000000000
10
62.5746750921
20
38.3165558822
30
0.0000000000
10
63.0063012735
20
38.0558173002
30
0.0000000000
10
63.3273194883
20
37.7202511219
30
0.0000000000
10
63.4508125028
20
37.4498094288
30
0.0000000000
10
63.4846518257
20
37.3159617935
30
0.0000000000
11
61.5144055141
21
38.5330366717
31
0.0000000000
11
62.0676589427
21
38.4660386543
31
0.0000000000
11
62.5778503997
21
38.2934346301
31
0.0000000000
11
63.0049602549
21
38.0295215638
31
0.0000000000
11
63.3152849843
21
37.6939267076
31
0.0000000000
11
63.4846518257
21
37.3159617935
31
0.0000000000
0
SPLINE
5
351
100
AcDbEntity
8
0
100
AcDbSpline
62
0
6
CONTINUOUS
70
0
71
3
72
9
73
5
74
3
42
0.0000001000
43
0.0000001000
44
0.0000000001
12
0.4643106325
22
-11.3455646288
32
0.0000000000
13
0.4859974403
23
-11.3446563455
33
0.0000000000
40
0.0000000000
40
0.0000000000
40
0.0000000000
40
0.0000000000
40
0.5001468649
40
1.0000000000
40
1.0000000000
40
1.0000000000
40
1.0000000000
10
-61.5108069178
20
49.8781513191
30
0.0000000000
10
-61.4333990821
20
47.9866684591
30
0.0000000000
10
-61.2768242938
20
44.2048872176
30
0.0000000000
10
-61.1166350384
20
40.4232573518
30
0.0000000000
10
-61.0356592570
20
38.5330366717
30
0.0000000000
11
-61.5108069178
21
49.8781513191
31
0.0000000000
11
-61.2758741554
21
44.2038142616
31
0.0000000000
11
-61.0356592570
21
38.5330366717
31
0.0000000000
0
SPLINE
5
352
100
AcDbEntity
8
0
100
AcDbSpline
62
0
6
CONTINUOUS
70
0
71
3
72
12
73
8
74
6
42
0.0000001000
43
0.0000001000
44
0.0000000001
12
-2.4686528619
22
-0.0528777282
32
0.0000000000
13
-0.5795992383
23
-2.4002307660
33
0.0000000000
40
0.0000000000
40
0.0000000000
40
0.0000000000
40
0.0000000000
40
0.2254900700
40
0.4433288398
40
0.6465004415
40
0.8314572729
40
1.0000000000
40
1.0000000000
40
1.0000000000
40
1.0000000000
10
-61.0356592692
20
38.5330366717
30
0.0000000000
10
-61.2212115047
20
38.5290622041
30
0.0000000000
10
-61.5863153587
20
38.4854194261
30
0.0000000000
10
-62.0949786297
20
38.3169140347
30
0.0000000000
10
-62.5261950264
20
38.0565776753
30
0.0000000000
10
-62.8474673546
20
37.7213264085
30
0.0000000000
10
-62.9733431688
20
37.4508089399
30
0.0000000000
10
-63.0059055808
20
37.3159617935
30
0.0000000000
11
-61.0356592692
21
38.5330366717
31
0.0000000000
11
-61.5884010224
21
38.4660634625
31
0.0000000000
11
-62.0980450529
21
38.2940448799
31
0.0000000000
11
-62.5248540024
21
38.0303933520
31
0.0000000000
11
-62.8355492313
21
37.6956660023
31
0.0000000000
11
-63.0059055808
21
37.3159617935
31
0.0000000000
0
SPLINE
5
353
100
AcDbEntity
8
0
100
AcDbSpline
62
0
6
CONTINUOUS
70
0
71
3
72
9
73
5
74
3
42
0.0000001000
43
0.0000001000
44
0.0000000001
12
0.4667934969
22
-11.3368316362
32
0.0000000000
13
0.4885956630
23
-11.3359129316
33
0.0000000000
40
0.0000000000
40
0.0000000000
40
0.0000000000
40
0.0000000000
40
0.5001527550
40
1.0000000000
40
1.0000000000
40
1.0000000000
40
1.0000000000
10
-63.4835999324
20
48.6524753289
30
0.0000000000
10
-63.4057772479
20
46.7624261369
30
0.0000000000
10
-63.2483648995
20
42.9835567517
30
0.0000000000
10
-63.0873187622
20
39.2048404840
30
0.0000000000
10
-63.0059110302
20
37.3160988679
30
0.0000000000
11
-63.4835999324
21
48.6524753289
31
0.0000000000
11
-63.2474078061
21
42.9824405719
31
0.0000000000
11
-63.0059110302
21
37.3160988679
31
0.0000000000
0
SPLINE
5
354
100
AcDbEntity
8
0
100
AcDbSpline
62
0
6
CONTINUOUS
70
0
71
3
72
10
73
6
74
4
42
0.0000001000
43
0.0000001000
44
0.0000000001
12
-1.2730055051
22
-0.0456730087
32
0.0000000000
13
-1.1109484073
23
-0.6305617733
33
0.0000000000
40
0.0000000000
40
0.0000000000
40
0.0000000000
40
0.0000000000
40
0.4398430215
40
0.8643834222
40
1.0000000000
40
1.0000000000
40
1.0000000000
40
1.0000000000
10
-61.5108069060
20
49.8781513191
30
0.0000000000
10
-61.6974477686
20
49.8714550010
30
0.0000000000
10
-62.0648370224
20
49.8317595028
30
0.0000000000
10
-62.4706474083
20
49.6957901871
30
0.0000000000
10
-62.6829178940
20
49.5864246246
30
0.0000000000
10
-62.7331389011
20
49.5579197480
30
0.0000000000
11
-61.5108069060
21
49.8781513191
31
0.0000000000
11
-62.0670393708
21
49.8109031549
31
0.0000000000
11
-62.5792525981
21
49.6374343468
31
0.0000000000
11
-62.7331389011
21
49.5579197480
31
0.0000000000
0
SPLINE
5
355
100
AcDbEntity
8
0
100
AcDbSpline
62
0
6
CONTINUOUS
70
0
71
3
72
8
73
4
74
2
42
0.0000001000
43
0.0000001000
44
0.0000000001
12
-0.1468501392
22
-0.0833504811
32
0.0000000000
13
-0.1393753096
23
-0.0951292223
33
0.0000000000
40
0.0000000000
40
0.0000000000
40
0.0000000000
40
0.0000000000
40
1.0000000000
40
1.0000000000
40
1.0000000000
40
1.0000000000
10
-62.7331389011
20
49.5579197480
30
0.0000000000
10
-62.7820889475
20
49.5301362543
30
0.0000000000
10
-62.8299268437
20
49.5004270855
30
0.0000000000
10
-62.8763852802
20
49.4687173447
30
0.0000000000
11
-62.7331389011
21
49.5579197480
31
0.0000000000
11
-62.8763852802
21
49.4687173447
31
0.0000000000
0
SPLINE
5
356
100
AcDbEntity
8
0
100
AcDbSpline
62
0
6
CONTINUOUS
70
0
71
3
72
8
73
4
74
2
42
0.0000001000
43
0.0000001000
44
0.0000000001
12
-0.1350358513
22
-0.0921673685
32
0.0000000000
13
-0.1265371327
23
-0.1036393307
33
0.0000000000
40
0.0000000000
40
0.0000000000
40
0.0000000000
40
0.0000000000
40
1.0000000000
40
1.0000000000
40
1.0000000000
40
1.0000000000
10
-62.8763852802
20
49.4687173447
30
0.0000000000
10
-62.9213972306
20
49.4379948886
30
0.0000000000
10
-62.9651142833
20
49.4053944970
30
0.0000000000
10
-63.0072933275
20
49.3708480534
30
0.0000000000
11
-62.8763852802
21
49.4687173447
31
0.0000000000
11
-63.0072933275
21
49.3708480534
31
0.0000000000
0
SPLINE
5
357
100
AcDbEntity
8
0
100
AcDbSpline
62
0
6
CONTINUOUS
70
0
71
3
72
9
73
5
74
3
42
0.0000001000
43
0.0000001000
44
0.0000000001
12
-0.6777312699
22
-0.5550909341
32
0.0000000000
13
-0.1884457975
23
-0.8531982302
33
0.0000000000
40
0.0000000000
40
0.0000000000
40
0.0000000000
40
0.0000000000
40
0.5239195289
40
1.0000000000
40
1.0000000000
40
1.0000000000
40
1.0000000000
10
-63.0072933275
20
49.3708480534
30
0.0000000000
10
-63.1256522100
20
49.2739070599
30
0.0000000000
10
-63.3284471824
20
49.0596286193
30
0.0000000000
10
-63.4536958060
20
48.7879049291
30
0.0000000000
10
-63.4836009274
20
48.6525079240
30
0.0000000000
11
-63.0072933275
21
49.3708480534
31
0.0000000000
11
-63.3168628758
21
49.0336094979
31
0.0000000000
11
-63.4836009274
21
48.6525079240
31
0.0000000000
0
SPLINE
5
358
100
AcDbEntity
8
0
100
AcDbSpline
62
0
6
CONTINUOUS
70
0
71
3
72
8
73
4
74
2
42
0.0000001000
43
0.0000001000
44
0.0000000001
12
0.0057940457
22
0.0879847237
32
0.0000000000
13
0.0058780744
23
0.0879804678
33
0.0000000000
40
0.0000000000
40
0.0000000000
40
0.0000000000
40
0.0000000000
40
1.0000000000
40
1.0000000000
40
1.0000000000
40
1.0000000000
10
-68.3593210050
20
30.3979374816
30
0.0000000000
10
-68.3573896565
20
30.4272657229
30
0.0000000000
10
-68.3554443528
20
30.4565932705
30
0.0000000000
10
-68.3534849946
20
30.4859200931
30
0.0000000000
11
-68.3593210050
21
30.3979374816
31
0.0000000000
11
-68.3534849946
21
30.4859200931
31
0.0000000000
0
SPLINE
5
359
100
AcDbEntity
8
0
100
AcDbSpline
62
0
6
CONTINUOUS
70
0
71
3
72
12
73
8
74
6
42
0.0000001000
43
0.0000001000
44
0.0000000001
12
1.2692302026
22
18.9972870046
32
0.0000000000
13
11.8497693297
23
14.9023492669
33
0.0000000000
40
0.0000000000
40
0.0000000000
40
0.0000000000
40
0.0000000000
40
0.2565992169
40
0.4866439838
40
0.6865312732
40
0.8571423405
40
1.0000000000
40
1.0000000000
40
1.0000000000
40
1.0000000000
10
-68.3534849946
20
30.4859200931
30
0.0000000000
10
-68.2449238360
20
32.1108164157
30
0.0000000000
10
-67.9572099929
20
35.1882337032
30
0.0000000000
10
-67.2466301037
20
39.4912775176
30
0.0000000000
10
-66.2834700006
20
43.1865777436
30
0.0000000000
10
-65.0845498398
20
46.2253188464
30
0.0000000000
10
-64.0478767031
20
47.9428370831
30
0.0000000000
10
-63.4835999324
20
48.6524753289
30
0.0000000000
11
-68.3534849946
21
30.4859200931
31
0.0000000000
11
-67.8814629259
21
35.3485874209
31
0.0000000000
11
-67.1454040384
21
39.6661997976
31
0.0000000000
11
-66.1576154812
21
43.3414980651
31
0.0000000000
11
-64.9295076419
21
46.3487168085
31
0.0000000000
11
-63.4835999324
21
48.6524753289
31
0.0000000000
0
SPLINE
5
35A
100
AcDbEntity
8
0
100
AcDbSpline
62
0
6
CONTINUOUS
70
0
71
3
72
12
73
8
74
6
42
0.0000001000
43
0.0000001000
44
0.0000000001
12
11.8497591282
22
-14.9023359366
32
0.0000000000
13
1.2692324881
23
-18.9972700837
33
0.0000000000
40
0.0000000000
40
0.0000000000
40
0.0000000000
40
0.0000000000
40
0.1428577804
40
0.3134689966
40
0.5133564629
40
0.7434014326
40
1.0000000000
40
1.0000000000
40
1.0000000000
40
1.0000000000
10
63.9623462421
20
48.6524752362
30
0.0000000000
10
64.5266230045
20
47.9428370247
30
0.0000000000
10
65.5632960784
20
46.2253187949
30
0.0000000000
10
66.7622162579
20
43.1865777452
30
0.0000000000
10
67.7253763442
20
39.4912775166
30
0.0000000000
10
68.4359553315
20
35.1882391895
30
0.0000000000
10
68.7236690491
20
32.1108274881
30
0.0000000000
10
68.8322301285
20
30.4859367252
30
0.0000000000
11
63.9623462421
21
48.6524752362
31
0.0000000000
11
65.4082538879
21
46.3487167893
31
0.0000000000
11
66.6363617259
21
43.3414980738
31
0.0000000000
11
67.6241502834
21
39.6661997945
31
0.0000000000
11
68.3602091708
21
35.3485874187
31
0.0000000000
11
68.8322301285
21
30.4859367252
31
0.0000000000
0
SPLINE
5
35B
100
AcDbEntity
8
0
100
AcDbSpline
62
0
6
CONTINUOUS
70
0
71
3
72
8
73
4
74
2
42
0.0000001000
43
0.0000001000
44
0.0000000001
12
0.0058792014
22
-0.0879970990
32
0.0000000000
13
0.0057951408
23
-0.0880013566
33
0.0000000000
40
0.0000000000
40
0.0000000000
40
0.0000000000
40
0.0000000000
40
1.0000000000
40
1.0000000000
40
1.0000000000
40
1.0000000000
10
68.8322301285
20
30.4859367252
30
0.0000000000
10
68.8341898623
20
30.4566043588
30
0.0000000000
10
68.8361355363
20
30.4272712672
30
0.0000000000
10
68.8380672499
20
30.3979374816
30
0.0000000000
11
68.8322301285
21
30.4859367252
31
0.0000000000
11
68.8380672499
21
30.3979374816
31
0.0000000000
0
SPLINE
5
35C
100
AcDbEntity
8
0
100
AcDbSpline
62
0
6
CONTINUOUS
70
0
71
3
72
13
73
9
74
7
42
0.0000001000
43
0.0000001000
44
0.0000000001
12
-2.7682224972
22
55.0304238099
32
0.0000000000
13
-5.4857793321
23
54.8262421255
33
0.0000000000
40
0.0000000000
40
0.0000000000
40
0.0000000000
40
0.0000000000
40
0.2064365797
40
0.3969533063
40
0.5715629288
40
0.7302728925
40
0.8730861834
40
1.0000000000
40
1.0000000000
40
1.0000000000
40
1.0000000000
10
65.6365133971
20
-17.8213591771
30
0.0000000000
10
65.4460259357
20
-14.0345950203
30
0.0000000000
10
65.0439246620
20
-6.7548325468
30
0.0000000000
10
64.3609647181
20
3.7207838441
30
0.0000000000
10
63.6489854514
20
13.3156508666
30
0.0000000000
10
62.9299738412
20
22.0311102413
30
0.0000000000
10
62.2237233734
20
29.8683757048
30
0.0000000000
10
61.7470971721
20
34.7994212290
30
0.0000000000
10
61.5150234414
20
37.1188237758
30
0.0000000000
11
65.6365133971
21
-17.8213591771
31
0.0000000000
11
65.0082667047
21
-6.4640654695
31
0.0000000000
11
64.3256280480
21
4.0111880841
31
0.0000000000
11
63.6135685207
21
13.6057929182
31
0.0000000000
11
62.8944124677
21
22.3210919955
31
0.0000000000
11
62.1885435478
21
30.1583821103
31
0.0000000000
11
61.5150234414
21
37.1188237758
31
0.0000000000
0
SPLINE
5
35D
100
AcDbEntity
8
0
100
AcDbSpline
62
0
6
CONTINUOUS
70
0
71
3
72
13
73
9
74
7
42
0.0000001000
43
0.0000001000
44
0.0000000001
12
-2.7831124569
22
55.1283715000
32
0.0000000000
13
-5.5151330928
23
54.9223667203
33
0.0000000000
40
0.0000000000
40
0.0000000000
40
0.0000000000
40
0.0000000000
40
0.2064353572
40
0.3969495271
40
0.5715576852
40
0.7302672408
40
0.8730809351
40
1.0000000000
40
1.0000000000
40
1.0000000000
40
1.0000000000
10
67.6295635281
20
-17.7211242568
30
0.0000000000
10
67.4380525901
20
-13.9276425692
30
0.0000000000
10
67.0327964720
20
-6.6350601486
30
0.0000000000
10
66.3465317173
20
3.8590612607
30
0.0000000000
10
65.6306894791
20
13.4708225318
30
0.0000000000
10
64.9077158688
20
22.2016237024
30
0.0000000000
10
64.1980778262
20
30.0528184332
30
0.0000000000
10
63.7179826474
20
34.9925365909
30
0.0000000000
10
63.4846574691
20
37.3161017332
30
0.0000000000
11
67.6295635281
21
-17.7211242568
31
0.0000000000
11
66.9972428710
21
-6.3437436985
31
0.0000000000
11
66.3109461245
21
4.1499493880
31
0.0000000000
11
65.5950707361
21
13.7614487628
31
0.0000000000
11
64.8720601348
21
22.4921044745
31
0.0000000000
11
64.1624074443
21
30.3432102629
31
0.0000000000
11
63.4846574691
21
37.3161017332
31
0.0000000000
0
SPLINE
5
35E
100
AcDbEntity
8
0
100
AcDbSpline
62
0
6
CONTINUOUS
70
0
71
3
72
9
73
5
74
3
42
0.0000001000
43
0.0000001000
44
0.0000000001
12
-0.6622165081
22
12.2286420481
32
0.0000000000
13
-1.8069842015
23
12.1125152277
33
0.0000000000
40
0.0000000000
40
0.0000000000
40
0.0000000000
40
0.0000000000
40
0.4993366960
40
1.0000000000
40
1.0000000000
40
1.0000000000
40
1.0000000000
10
66.8746107475
20
-31.6198784159
30
0.0000000000
10
66.7643877464
20
-29.5844751770
30
0.0000000000
10
66.4471356165
20
-25.5129233395
30
0.0000000000
10
65.9387815285
20
-21.4608231440
30
0.0000000000
10
65.6372179683
20
-19.4393925127
30
0.0000000000
11
66.8746107475
21
-31.6198784159
31
0.0000000000
11
66.3999076708
21
-25.5231747097
31
0.0000000000
11
65.6372179683
21
-19.4393925127
31
0.0000000000
0
SPLINE
5
35F
100
AcDbEntity
8
0
100
AcDbSpline
62
0
6
CONTINUOUS
70
0
71
3
72
12
73
8
74
6
42
0.0000001000
43
0.0000001000
44
0.0000000001
12
2.8757743809
22
0.0977370415
32
0.0000000000
13
0.0201049798
23
2.8773645249
33
0.0000000000
40
0.0000000000
40
0.0000000000
40
0.0000000000
40
0.0000000000
40
0.2173164669
40
0.4301560914
40
0.6325134554
40
0.8218393660
40
1.0000000000
40
1.0000000000
40
1.0000000000
40
1.0000000000
10
65.6372138761
20
-19.4393925126
30
0.0000000000
10
65.8455315854
20
-19.4323125564
30
0.0000000000
10
66.2564861262
20
-19.3532952941
30
0.0000000000
10
66.8139080053
20
-19.0994214865
30
0.0000000000
10
67.2623714560
20
-18.7186730755
30
0.0000000000
10
67.5578864312
20
-18.2471740050
30
0.0000000000
10
67.6283724271
20
-17.8920144758
30
0.0000000000
10
67.6295663990
20
-17.7211367797
30
0.0000000000
11
65.6372138761
21
-19.4393925126
31
0.0000000000
11
66.2526298683
21
-19.3285741894
31
0.0000000000
11
66.8079326856
21
-19.0702877190
31
0.0000000000
11
67.2486983500
21
-18.6898089226
31
0.0000000000
11
67.5318024435
21
-18.2243740221
31
0.0000000000
11
67.6295663990
21
-17.7211367797
31
0.0000000000
0
SPLINE
5
360
100
AcDbEntity
8
0
100
AcDbSpline
62
0
6
CONTINUOUS
70
0
71
3
72
9
73
5
74
3
42
0.0000001000
43
0.0000001000
44
0.0000000001
12
-0.6881117238
22
11.6644013849
32
0.0000000000
13
-1.7243026178
23
11.5567529131
33
0.0000000000
40
0.0000000000
40
0.0000000000
40
0.0000000000
40
0.0000000000
40
0.4992433723
40
1.0000000000
40
1.0000000000
40
1.0000000000
40
1.0000000000
10
68.8382316862
20
-29.3402020563
30
0.0000000000
10
68.7237199470
20
-27.3990770285
30
0.0000000000
10
68.4070502300
20
-23.5156081094
30
0.0000000000
10
67.9173821828
20
-19.6501644620
30
0.0000000000
10
67.6295635281
20
-17.7211242568
30
0.0000000000
11
68.8382316862
21
-29.3402020563
31
0.0000000000
11
68.3644106459
21
-23.5259774794
31
0.0000000000
11
67.6295635281
21
-17.7211242568
31
0.0000000000
0
SPLINE
5
361
100
AcDbEntity
8
0
100
AcDbSpline
62
0
6
CONTINUOUS
70
0
71
3
72
11
73
7
74
5
42
0.0000001000
43
0.0000001000
44
0.0000000001
12
0.0036960725
22
-1.9350651728
32
0.0000000000
13
-1.3630887027
23
-1.3734919266
33
0.0000000000
40
0.0000000000
40
0.0000000000
40
0.0000000000
40
0.0000000000
40
0.2173810784
40
0.4559568231
40
0.7174433382
40
1.0000000000
40
1.0000000000
40
1.0000000000
40
1.0000000000
10
68.8382294903
20
-29.3402020909
30
0.0000000000
10
68.8384973090
20
-29.4804176089
30
0.0000000000
10
68.7962371161
20
-29.7753130562
30
0.0000000000
10
68.6266717414
20
-30.2091737053
30
0.0000000000
10
68.3565340661
20
-30.6386230199
30
0.0000000000
10
68.1241253780
20
-30.9033702181
30
0.0000000000
10
67.9957421134
20
-31.0327333160
30
0.0000000000
11
68.8382294903
21
-29.3402020909
31
0.0000000000
11
68.7833126607
21
-29.7572492234
31
0.0000000000
11
68.6196999170
21
-30.1889450047
31
0.0000000000
11
68.3534990621
21
-30.6192558328
31
0.0000000000
11
67.9957421134
21
-31.0327333160
31
0.0000000000
0
SPLINE
5
362
100
AcDbEntity
8
0
100
AcDbSpline
62
0
6
CONTINUOUS
70
0
71
3
72
11
73
7
74
5
42
0.0000001000
43
0.0000001000
44
0.0000000001
12
-0.9129271479
22
-0.9196891432
32
0.0000000000
13
-1.2958642281
23
0.0000000000
33
0.0000000000
40
0.0000000000
40
0.0000000000
40
0.0000000000
40
0.0000000000
40
0.2829393230
40
0.5412436487
40
0.7820888165
40
1.0000000000
40
1.0000000000
40
1.0000000000
40
1.0000000000
10
67.9957421134
20
-31.0327333160
30
0.0000000000
10
67.9096411171
20
-31.1194720572
30
0.0000000000
10
67.7352323384
20
-31.2762555874
30
0.0000000000
10
67.4541989428
20
-31.4660400867
30
0.0000000000
10
67.1677249991
20
-31.5902519186
30
0.0000000000
10
66.9687385167
20
-31.6198784159
30
0.0000000000
10
66.8746107475
20
-31.6198784159
30
0.0000000000
11
67.9957421134
21
-31.0327333160
31
0.0000000000
11
67.7218066382
21
-31.2764386147
31
0.0000000000
11
67.4425551112
21
-31.4609947685
31
0.0000000000
11
67.1542331416
21
-31.5804874384
31
0.0000000000
11
66.8746107475
21
-31.6198784159
31
0.0000000000
0
SPLINE
5
363
100
AcDbEntity
8
0
100
AcDbSpline
62
0
6
CONTINUOUS
70
0
71
3
72
13
73
9
74
7
42
0.0000001000
43
0.0000001000
44
0.0000000001
12
-0.0000005889
22
-3.7105426161
32
0.0000000000
13
3.5070450344
23
1.2387069019
33
0.0000000000
40
0.0000000000
40
0.0000000000
40
0.0000000000
40
0.0000000000
40
0.2207950182
40
0.4066780658
40
0.5772567098
40
0.7606522202
40
0.9777321377
40
1.0000000000
40
1.0000000000
40
1.0000000000
40
1.0000000000
10
12.0282811143
20
35.3188006949
30
0.0000000000
10
12.0282810709
20
35.0457109201
30
0.0000000000
10
12.0815876697
20
34.5383961981
30
0.0000000000
10
12.3979806317
20
33.8752072390
30
0.0000000000
10
12.9563892765
20
33.4591445052
30
0.0000000000
10
13.6773579304
20
33.3540241192
30
0.0000000000
10
14.1956166447
20
33.4636226243
30
0.0000000000
10
14.4765734848
20
33.5594254376
30
0.0000000000
10
14.5026049500
20
33.5686198892
30
0.0000000000
11
12.0282811143
21
35.3188006949
31
0.0000000000
11
12.1361539679
21
34.5066642081
31
0.0000000000
11
12.4535036325
21
33.8942815798
31
0.0000000000
11
12.9618868993
21
33.5172422626
31
0.0000000000
11
13.6317583805
21
33.3974584110
31
0.0000000000
11
14.4241875807
21
33.5418914271
31
0.0000000000
11
14.5026049500
21
33.5686198892
31
0.0000000000
0
SPLINE
5
364
100
AcDbEntity
8
0
100
AcDbSpline
62
0
6
CONTINUOUS
70
0
71
3
72
15
73
11
74
9
42
0.0000001000
43
0.0000001000
44
0.0000000001
12
-9.0915335410
22
0.0000009312
32
0.0000000000
13
2.5356995239
23
-8.7699994903
33
0.0000000000
40
0.0000000000
40
0.0000000000
40
0.0000000000
40
0.0000000000
40
0.1612113526
40
0.3178425405
40
0.4660157044
40
0.6032948764
40
0.7294558100
40
0.8470964203
40
0.9615064037
40
1.0000000000
40
1.0000000000
40
1.0000000000
40
1.0000000000
10
0.2393731224
20
37.3792746779
30
0.0000000000
10
-0.2491796839
20
37.3792747280
30
0.0000000000
10
-1.2145185230
20
37.2976792129
30
0.0000000000
10
-2.5870449401
20
36.9352193147
30
0.0000000000
10
-3.8032734313
20
36.3519553784
30
0.0000000000
10
-4.7949629550
20
35.5765738240
30
0.0000000000
10
-5.5035342462
20
34.6454605450
30
0.0000000000
10
-5.8768476748
20
33.6052810794
30
0.0000000000
10
-5.8768476705
20
32.7686106600
30
0.0000000000
10
-5.7718483101
20
32.3147644245
30
0.0000000000
10
-5.7393122455
20
32.2022348178
30
0.0000000000
11
0.2393731224
21
37.3792746779
31
0.0000000000
11
-1.2209128332
21
37.2538971318
31
0.0000000000
11
-2.5963322965
21
36.8850506780
31
0.0000000000
11
-3.8069508828
21
36.2941713278
31
0.0000000000
11
-4.7824118330
21
35.5155988392
31
0.0000000000
11
-5.4660248949
21
34.5945810160
31
0.0000000000
11
-5.8180609557
21
33.5846440694
31
0.0000000000
11
-5.8180609557
21
32.5444818686
31
0.0000000000
11
-5.7393122455
21
32.2022348178
31
0.0000000000
0
SPLINE
5
365
100
AcDbEntity
8
0
100
AcDbSpline
62
0
6
CONTINUOUS
70
0
71
3
72
8
73
4
74
2
42
0.0000001000
43
0.0000001000
44
0.0000000001
12
0.0863848313
22
-0.2987715696
32
0.0000000000
13
0.1139146025
23
-0.2895733915
33
0.0000000000
40
0.0000000000
40
0.0000000000
40
0.0000000000
40
0.0000000000
40
1.0000000000
40
1.0000000000
40
1.0000000000
40
1.0000000000
10
-5.7393122455
20
32.2022348178
30
0.0000000000
10
-5.7105173017
20
32.1026442946
30
0.0000000000
10
-5.6769426363
20
32.0044060899
30
0.0000000000
10
-5.6389711021
20
31.9078816261
30
0.0000000000
11
-5.7393122455
21
32.2022348178
31
0.0000000000
11
-5.6389711021
21
31.9078816261
31
0.0000000000
0
SPLINE
5
366
100
AcDbEntity
8
0
100
AcDbSpline
62
0
6
CONTINUOUS
70
0
71
3
72
13
73
9
74
7
42
0.0000001000
43
0.0000001000
44
0.0000000001
12
-0.0000004258
22
-3.7105438378
32
0.0000000000
13
-3.5070461599
23
1.2387073008
33
0.0000000000
40
0.0000000000
40
0.0000000000
40
0.0000000000
40
0.0000000000
40
0.2207951100
40
0.4066781018
40
0.5772567358
40
0.7606522533
40
0.9777321434
40
1.0000000000
40
1.0000000000
40
1.0000000000
40
1.0000000000
10
-11.5495367727
20
35.3188015418
30
0.0000000000
10
-11.5495368040
20
35.0457115635
30
0.0000000000
10
-11.6028418029
20
34.5383963920
30
0.0000000000
10
-11.9192359033
20
33.8752074440
30
0.0000000000
10
-12.4776447985
20
33.4591449885
30
0.0000000000
10
-13.1986136890
20
33.3540248202
30
0.0000000000
10
-13.7168725203
20
33.4636233730
30
0.0000000000
10
-13.9978294108
20
33.5594262051
30
0.0000000000
10
-14.0238608777
20
33.5686206572
30
0.0000000000
11
-11.5495367727
21
35.3188015418
31
0.0000000000
11
-11.6574087263
21
34.5066643194
31
0.0000000000
11
-11.9747587562
21
33.8942818584
31
0.0000000000
11
-12.4831423865
21
33.5172427433
31
0.0000000000
11
-13.1530141551
21
33.3974590776
31
0.0000000000
11
-13.9454435037
21
33.5418921932
31
0.0000000000
11
-14.0238608777
21
33.5686206572
31
0.0000000000
0
SPLINE
5
367
100
AcDbEntity
8
0
100
AcDbSpline
62
0
6
CONTINUOUS
70
0
71
3
72
13
73
9
74
7
42
0.0000001000
43
0.0000001000
44
0.0000000001
12
-0.5602318391
22
0.4503515986
32
0.0000000000
13
-0.6664943709
23
0.2691867928
33
0.0000000000
40
0.0000000000
40
0.0000000000
40
0.0000000000
40
0.0000000000
40
0.1886081772
40
0.3807981767
40
0.5676505176
40
0.7346240858
40
0.8766956144
40
1.0000000000
40
1.0000000000
40
1.0000000000
40
1.0000000000
10
-19.8761004883
20
49.8890908132
30
0.0000000000
10
-19.9113219236
20
49.9174041446
30
0.0000000000
10
-19.9834023793
20
49.9733816743
30
0.0000000000
10
-20.0942651859
20
50.0522548041
30
0.0000000000
10
-20.2046416844
20
50.1226135385
30
0.0000000000
10
-20.3083748446
20
50.1806852017
30
0.0000000000
10
-20.4016246540
20
50.2259617816
30
0.0000000000
10
-20.4604230785
20
50.2502176545
30
0.0000000000
10
-20.4878169715
20
50.2612816252
30
0.0000000000
11
-19.8761004883
21
49.8890908132
31
0.0000000000
11
-19.9832861331
21
49.9721027745
31
0.0000000000
11
-20.0959749334
21
50.0520133730
31
0.0000000000
11
-20.2093542187
21
50.1240152372
31
0.0000000000
11
-20.3141702085
21
50.1824843056
31
0.0000000000
11
-20.4061199890
21
50.2269139889
31
0.0000000000
11
-20.4878169715
21
50.2612816252
31
0.0000000000
0
SPLINE
5
368
100
AcDbEntity
8
0
100
AcDbSpline
62
0
6
CONTINUOUS
70
0
71
3
72
13
73
9
74
7
42
0.0000001000
43
0.0000001000
44
0.0000000001
12
-0.9146865972
22
0.1714134581
32
0.0000000000
13
-0.9268298722
23
0.0837886192
33
0.0000000000
40
0.0000000000
40
0.0000000000
40
0.0000000000
40
0.0000000000
40
0.1754879073
40
0.3596850609
40
0.5446227605
40
0.7151701516
40
0.8644007258
40
1.0000000000
40
1.0000000000
40
1.0000000000
40
1.0000000000
10
-19.5696037728
20
50.1326833486
30
0.0000000000
10
-19.6231092518
20
50.1427103449
30
0.0000000000
10
-19.7329321328
20
50.1624364172
30
0.0000000000
10
-19.8996722332
20
50.1896814433
30
0.0000000000
10
-20.0653419768
20
50.2138245714
30
0.0000000000
10
-20.2206423356
20
50.2337443330
30
0.0000000000
10
-20.3610491771
20
50.2492914559
30
0.0000000000
10
-20.4489955240
20
50.2578089190
30
0.0000000000
10
-20.4908880100
20
50.2615961444
30
0.0000000000
11
-19.5696037728
21
50.1326833486
31
0.0000000000
11
-19.7303436873
21
50.1615463403
31
0.0000000000
11
-19.8995208242
21
50.1891582025
31
0.0000000000
11
-20.0698289521
21
50.2139614379
31
0.0000000000
11
-20.2272589890
21
50.2341011979
31
0.0000000000
11
-20.3652863091
21
50.2494255303
31
0.0000000000
11
-20.4908880100
21
50.2615961444
31
0.0000000000
0
SPLINE
5
369
100
AcDbEntity
8
0
100
AcDbSpline
62
0
6
CONTINUOUS
70
0
71
3
72
10
73
6
74
4
42
0.0000001000
43
0.0000001000
44
0.0000000001
12
-0.1306207016
22
0.1166282187
32
0.0000000000
13
-0.1364814701
23
0.1097119748
33
0.0000000000
40
0.0000000000
40
0.0000000000
40
0.0000000000
40
0.0000000000
40
0.3416069184
40
0.6753433774
40
1.0000000000
40
1.0000000000
40
1.0000000000
40
1.0000000000
10
-19.7425255532
20
49.7758875246
30
0.0000000000
10
-19.7573991983
20
49.7891678601
30
0.0000000000
10
-19.7870100684
20
49.8151927944
30
0.0000000000
10
-19.8315267152
20
49.8529524571
30
0.0000000000
10
-19.8613306173
20
49.8772179068
30
0.0000000000
10
-19.8761004883
20
49.8890908132
30
0.0000000000
11
-19.7425255532
21
49.7758875246
31
0.0000000000
11
-19.7874710979
21
49.8153619680
31
0.0000000000
11
-19.8320579645
21
49.8531423631
31
0.0000000000
11
-19.8761004883
21
49.8890908132
31
0.0000000000
0
SPLINE
5
36A
100
AcDbEntity
8
0
100
AcDbSpline
62
0
6
CONTINUOUS
70
0
71
3
72
10
73
6
74
4
42
0.0000001000
43
0.0000001000
44
0.0000000001
12
-0.3475025806
22
-0.3461547630
32
0.0000000000
13
-0.4060418377
23
-0.2751566635
33
0.0000000000
40
0.0000000000
40
0.0000000000
40
0.0000000000
40
0.0000000000
40
0.3676461908
40
0.7047730250
40
1.0000000000
40
1.0000000000
40
1.0000000000
40
1.0000000000
10
-19.3693962564
20
50.0933359438
30
0.0000000000
10
-19.4119822564
20
50.0509151171
30
0.0000000000
10
-19.4954847017
20
49.9714266560
30
0.0000000000
10
-19.6197526210
20
49.8650676677
30
0.0000000000
10
-19.7025673854
20
49.8029654144
30
0.0000000000
10
-19.7425255532
20
49.7758875246
30
0.0000000000
11
-19.3693962564
21
50.0933359438
31
0.0000000000
11
-19.5002104471
21
49.9692170777
31
0.0000000000
11
-19.6261626993
21
49.8620762238
31
0.0000000000
11
-19.7425255532
21
49.7758875246
31
0.0000000000
0
SPLINE
5
36B
100
AcDbEntity
8
0
100
AcDbSpline
62
0
6
CONTINUOUS
70
0
71
3
72
10
73
6
74
4
42
0.0000001000
43
0.0000001000
44
0.0000000001
12
-0.1897925144
22
0.0388942353
32
0.0000000000
13
-0.1904301337
23
0.0356416083
33
0.0000000000
40
0.0000000000
40
0.0000000000
40
0.0000000000
40
0.0000000000
40
0.3016910908
40
0.6532451207
40
1.0000000000
40
1.0000000000
40
1.0000000000
40
1.0000000000
10
-19.3794911596
20
50.0953954017
30
0.0000000000
10
-19.3985773965
20
50.0993067498
30
0.0000000000
10
-19.4399285547
20
50.1076583380
30
0.0000000000
10
-19.5032947683
20
50.1201162480
30
0.0000000000
10
-19.5475929135
20
50.1285637147
30
0.0000000000
10
-19.5696037728
20
50.1326833486
30
0.0000000000
11
-19.3794911596
21
50.0953954017
31
0.0000000000
11
-19.4367812413
21
50.1069753101
31
0.0000000000
11
-19.5036112795
21
50.1201121658
31
0.0000000000
11
-19.5696037728
21
50.1326833486
31
0.0000000000
0
SPLINE
5
36C
100
AcDbEntity
8
0
100
AcDbSpline
62
0
6
CONTINUOUS
70
0
71
3
72
11
73
7
74
5
42
0.0000001000
43
0.0000001000
44
0.0000000001
12
-0.3341895050
22
0.3782179111
32
0.0000000000
13
-0.3246716964
23
0.3864190770
33
0.0000000000
40
0.0000000000
40
0.0000000000
40
0.0000000000
40
0.0000000000
40
0.2575981579
40
0.5100143747
40
0.7571152963
40
1.0000000000
40
1.0000000000
40
1.0000000000
40
1.0000000000
10
-19.4106997085
20
49.3964278836
30
0.0000000000
10
-19.4393952422
20
49.4289039626
30
0.0000000000
10
-19.4962864016
20
49.4931343684
30
0.0000000000
10
-19.5807376070
20
49.5884878008
30
0.0000000000
10
-19.6631601937
20
49.6823297057
30
0.0000000000
10
-19.7169020893
20
49.7448425057
30
0.0000000000
10
-19.7431880189
20
49.7761276001
30
0.0000000000
11
-19.4106997085
21
49.3964278836
31
0.0000000000
11
-19.4968638181
21
49.4937875799
31
0.0000000000
11
-19.5812639292
21
49.5892159033
31
0.0000000000
11
-19.6634611813
21
49.6830094151
31
0.0000000000
11
-19.7431880189
21
49.7761276001
31
0.0000000000
0
SPLINE
5
36D
100
AcDbEntity
8
0
100
AcDbSpline
62
0
6
CONTINUOUS
70
0
71
3
72
11
73
7
74
5
42
0.0000001000
43
0.0000001000
44
0.0000000001
12
-0.5074589922
22
0.1059249202
32
0.0000000000
13
-0.5078676080
23
0.1039481131
33
0.0000000000
40
0.0000000000
40
0.0000000000
40
0.0000000000
40
0.0000000000
40
0.2545705697
40
0.5037574216
40
0.7463927933
40
1.0000000000
40
1.0000000000
40
1.0000000000
40
1.0000000000
10
-18.8715223106
20
49.9919475183
30
0.0000000000
10
-18.9145836855
20
50.0009359741
30
0.0000000000
10
-18.9998295753
20
50.0185613517
30
0.0000000000
10
-19.1262290793
20
50.0442119107
30
0.0000000000
10
-19.2525025099
20
50.0696448252
30
0.0000000000
10
-19.3365581978
20
50.0866080715
30
0.0000000000
10
-19.3794911596
20
50.0953954017
30
0.0000000000
11
-18.8715223106
21
49.9919475183
31
0.0000000000
11
-19.0007569529
21
50.0186697252
31
0.0000000000
11
-19.1273448323
21
50.0444058040
31
0.0000000000
11
-19.2506424176
21
50.0692781825
31
0.0000000000
11
-19.3794911596
21
50.0953954017
31
0.0000000000
0
SPLINE
5
36E
100
AcDbEntity
8
0
100
AcDbSpline
62
0
6
CONTINUOUS
70
0
71
3
72
9
73
5
74
3
42
0.0000001000
43
0.0000001000
44
0.0000000001
12
-0.0784419485
22
0.0986391865
32
0.0000000000
13
-0.0834481976
23
0.0944416578
33
0.0000000000
40
0.0000000000
40
0.0000000000
40
0.0000000000
40
0.0000000000
40
0.4975386219
40
1.0000000000
40
1.0000000000
40
1.0000000000
40
1.0000000000
10
-19.3297700741
20
49.2998330771
30
0.0000000000
10
-19.3427793737
20
49.3161920120
30
0.0000000000
10
-19.3693340057
20
49.3487500169
30
0.0000000000
10
-19.3967232098
20
49.3806101217
30
0.0000000000
10
-19.4106997085
20
49.3964278836
30
0.0000000000
11
-19.3297700741
21
49.2998330771
31
0.0000000000
11
-19.3694098776
21
49.3484169803
31
0.0000000000
11
-19.4106997085
21
49.3964278836
31
0.0000000000
0
SPLINE
5
36F
100
AcDbEntity
8
0
100
AcDbSpline
62
0
6
CONTINUOUS
70
0
71
3
72
9
73
5
74
3
42
0.0000001000
43
0.0000001000
44
0.0000000001
12
-0.1183419976
22
0.1190489251
32
0.0000000000
13
-0.1244364629
23
0.1126633997
33
0.0000000000
40
0.0000000000
40
0.0000000000
40
0.0000000000
40
0.0000000000
40
0.4960533442
40
1.0000000000
40
1.0000000000
40
1.0000000000
40
1.0000000000
10
-18.7501278701
20
49.8760337807
30
0.0000000000
10
-18.7696958513
20
49.8957186531
30
0.0000000000
10
-18.8096490226
20
49.9349020922
30
0.0000000000
10
-18.8506191975
20
49.9730220704
30
0.0000000000
10
-18.8715223106
20
49.9919475183
30
0.0000000000
11
-18.7501278701
21
49.8760337807
31
0.0000000000
11
-18.8095839127
21
49.9343311205
31
0.0000000000
11
-18.8715223106
21
49.9919475183
31
0.0000000000
0
SPLINE
5
370
100
AcDbEntity
8
0
100
AcDbSpline
62
0
6
CONTINUOUS
70
0
71
3
72
10
73
6
74
4
42
0.0000001000
43
0.0000001000
44
0.0000000001
12
-0.0605571911
22
0.0825619501
32
0.0000000000
13
-0.0637299520
23
0.0801382693
33
0.0000000000
40
0.0000000000
40
0.0000000000
40
0.0000000000
40
0.0000000000
40
0.3379476159
40
0.6712663860
40
1.0000000000
40
1.0000000000
40
1.0000000000
40
1.0000000000
10
-19.2676359620
20
49.2184585083
30
0.0000000000
10
-19.2744576814
20
49.2277590464
30
0.0000000000
10
-19.2881255649
20
49.2461466376
30
0.0000000000
10
-19.3088395551
20
49.2732729999
30
0.0000000000
10
-19.3227866816
20
49.2910516961
30
0.0000000000
10
-19.3297700741
20
49.2998330771
30
0.0000000000
11
-19.2676359620
21
49.2184585083
31
0.0000000000
11
-19.2882798139
21
49.2462281709
31
0.0000000000
11
-19.3089936879
21
49.2733516576
31
0.0000000000
11
-19.3297700741
21
49.2998330771
31
0.0000000000
0
SPLINE
5
371
100
AcDbEntity
8
0
100
AcDbSpline
62
0
6
CONTINUOUS
70
0
71
3
72
10
73
6
74
4
42
0.0000001000
43
0.0000001000
44
0.0000000001
12
-0.0912301556
22
0.0995044310
32
0.0000000000
13
-0.0951723416
23
0.0957407879
33
0.0000000000
40
0.0000000000
40
0.0000000000
40
0.0000000000
40
0.0000000000
40
0.3369715838
40
0.6702951720
40
1.0000000000
40
1.0000000000
40
1.0000000000
40
1.0000000000
10
-18.6569267114
20
49.7783843230
30
0.0000000000
10
-18.6671740347
20
49.7895610449
30
0.0000000000
10
-18.6877062039
20
49.8116579440
30
0.0000000000
10
-18.7187777612
20
49.8442089100
30
0.0000000000
10
-18.7396682766
20
49.8655117140
30
0.0000000000
10
-18.7501278701
20
49.8760337807
30
0.0000000000
11
-18.6569267114
21
49.7783843230
31
0.0000000000
11
-18.6878924888
21
49.8117079086
31
0.0000000000
11
-18.7189632906
21
49.8442560867
31
0.0000000000
11
-18.7501278701
21
49.8760337807
31
0.0000000000
0
SPLINE
5
372
100
AcDbEntity
8
0
100
AcDbSpline
62
0
6
CONTINUOUS
70
0
71
3
72
10
73
6
74
4
42
0.0000001000
43
0.0000001000
44
0.0000000001
12
-0.1755181077
22
0.3102768039
32
0.0000000000
13
-0.2108354801
23
0.2874486067
33
0.0000000000
40
0.0000000000
40
0.0000000000
40
0.0000000000
40
0.0000000000
40
0.3329177289
40
0.6661141009
40
1.0000000000
40
1.0000000000
40
1.0000000000
40
1.0000000000
10
-19.0748412725
20
48.9188291392
30
0.0000000000
10
-19.0943189691
20
48.9532613555
30
0.0000000000
10
-19.1345144655
20
49.0214723008
30
0.0000000000
10
-19.1986839259
20
49.1215150269
30
0.0000000000
10
-19.2441709640
20
49.1864668295
30
0.0000000000
10
-19.2676359620
20
49.2184585083
30
0.0000000000
11
-19.0748412725
21
48.9188291392
31
0.0000000000
11
-19.1351342898
21
49.0210513272
31
0.0000000000
11
-19.1993084768
21
49.1210007351
31
0.0000000000
11
-19.2676359620
21
49.2184585083
31
0.0000000000
0
SPLINE
5
373
100
AcDbEntity
8
0
100
AcDbSpline
62
0
6
CONTINUOUS
70
0
71
3
72
10
73
6
74
4
42
0.0000001000
43
0.0000001000
44
0.0000000001
12
-0.2665613422
22
0.3769741382
32
0.0000000000
13
-0.3120130508
23
0.3403120718
33
0.0000000000
40
0.0000000000
40
0.0000000000
40
0.0000000000
40
0.0000000000
40
0.3300909764
40
0.6631898549
40
1.0000000000
40
1.0000000000
40
1.0000000000
40
1.0000000000
10
-18.3677347117
20
49.4188291677
30
0.0000000000
10
-18.3970645430
20
49.4603077548
30
0.0000000000
10
-18.4576283360
20
49.5425012641
30
0.0000000000
10
-18.5539452704
20
49.6625867445
30
0.0000000000
10
-18.6218969911
20
49.7401774702
30
0.0000000000
10
-18.6569267114
20
49.7783843230
30
0.0000000000
11
-18.3677347117
21
49.4188291677
31
0.0000000000
11
-18.4581743085
21
49.5414957444
31
0.0000000000
11
-18.5544353773
21
49.6614350580
31
0.0000000000
11
-18.6569267114
21
49.7783843230
31
0.0000000000
0
SPLINE
5
374
100
AcDbEntity
8
0
100
AcDbSpline
62
0
6
CONTINUOUS
70
0
71
3
72
15
73
11
74
9
42
0.0000001000
43
0.0000001000
44
0.0000000001
12
0.4907422180
22
1.6154017192
32
0.0000000000
13
0.4910575923
23
1.6153058782
33
0.0000000000
40
0.0000000000
40
0.0000000000
40
0.0000000000
40
0.0000000000
40
0.1363472642
40
0.2714045350
40
0.4043254370
40
0.5340921034
40
0.6593701802
40
0.7793774396
40
0.8933369643
40
1.0000000000
40
1.0000000000
40
1.0000000000
40
1.0000000000
10
-11.9890554473
20
25.0980194489
30
0.0000000000
10
-11.9667516610
20
25.1714379839
30
0.0000000000
10
-11.9223116600
20
25.3175672321
30
0.0000000000
10
-11.8561451738
20
25.5352751413
30
0.0000000000
10
-11.7910415791
20
25.7494354908
30
0.0000000000
10
-11.7275452556
20
25.9583323695
30
0.0000000000
10
-11.6661584098
20
26.1602747794
30
0.0000000000
10
-11.6073631064
20
26.3537073238
30
0.0000000000
10
-11.5516076292
20
26.5371146865
30
0.0000000000
10
-11.5155026417
20
26.6559080326
30
0.0000000000
10
-11.4980434106
20
26.7133391754
30
0.0000000000
11
-11.9890554473
21
25.0980194489
31
0.0000000000
11
-11.9221068887
21
25.3182637496
31
0.0000000000
11
-11.8557931683
21
25.5364247350
31
0.0000000000
11
-11.7905264314
21
25.7511341940
31
0.0000000000
11
-11.7268099218
21
25.9607489976
31
0.0000000000
11
-11.6652964716
21
26.1631130229
31
0.0000000000
11
-11.6063720875
21
26.3569633062
31
0.0000000000
11
-11.5504152575
21
26.5410439696
31
0.0000000000
11
-11.4980434106
21
26.7133391754
31
0.0000000000
0
SPLINE
5
375
100
AcDbEntity
8
0
100
AcDbSpline
62
0
6
CONTINUOUS
70
0
71
3
72
15
73
11
74
9
42
0.0000001000
43
0.0000001000
44
0.0000000001
12
1.0356398508
22
1.3333419436
32
0.0000000000
13
1.0353525421
23
1.3335650538
33
0.0000000000
40
0.0000000000
40
0.0000000000
40
0.0000000000
40
0.0000000000
40
0.1363472642
40
0.2714045352
40
0.4043254363
40
0.5340921058
40
0.6593701737
40
0.7793774581
40
0.8933369351
40
1.0000000000
40
1.0000000000
40
1.0000000000
40
1.0000000000
10
-11.9890554473
20
25.0980194489
30
0.0000000000
10
-11.9419865605
20
25.1586186243
30
0.0000000000
10
-11.8483299843
20
25.2792715009
30
0.0000000000
10
-11.7087734063
20
25.4589898889
30
0.0000000000
10
-11.5714999226
20
25.6357923907
30
0.0000000000
10
-11.4375956749
20
25.8082433687
30
0.0000000000
10
-11.3081526008
20
25.9749574260
30
0.0000000000
10
-11.1841601752
20
26.1346412014
30
0.0000000000
10
-11.0666006318
20
26.2860568185
30
0.0000000000
10
-10.9904496149
20
26.3841203147
30
0.0000000000
10
-10.9536383231
20
26.4315343600
30
0.0000000000
11
-11.9890554473
21
25.0980194489
31
0.0000000000
11
-11.8478794937
21
25.2798408217
31
0.0000000000
11
-11.7080380285
21
25.4599410432
31
0.0000000000
11
-11.5704102891
21
25.6371936973
31
0.0000000000
11
-11.4360471815
21
25.8102391167
31
0.0000000000
11
-11.3063325952
21
25.9772996536
31
0.0000000000
11
-11.1820742289
21
26.1373305596
31
0.0000000000
11
-11.0640800971
21
26.2892983568
31
0.0000000000
11
-10.9536383231
21
26.4315343600
31
0.0000000000
0
SPLINE
5
376
100
AcDbEntity
8
0
100
AcDbSpline
62
0
6
CONTINUOUS
70
0
71
3
72
9
73
5
74
3
42
0.0000001000
43
0.0000001000
44
0.0000000001
12
0.0297177750
22
0.0977506651
32
0.0000000000
13
0.0297127900
23
0.0977521805
33
0.0000000000
40
0.0000000000
40
0.0000000000
40
0.0000000000
40
0.0000000000
40
0.4946255032
40
1.0000000000
40
1.0000000000
40
1.0000000000
40
1.0000000000
10
-11.4980434106
20
26.7133391754
30
0.0000000000
10
-11.4931436874
20
26.7294558327
30
0.0000000000
10
-11.4832395025
20
26.7620399167
30
0.0000000000
10
-11.4733349391
20
26.7946238857
30
0.0000000000
10
-11.4683295770
20
26.8110910387
30
0.0000000000
11
-11.4980434106
21
26.7133391754
31
0.0000000000
11
-11.4833458699
21
26.7616896425
31
0.0000000000
11
-11.4683295770
21
26.8110910387
31
0.0000000000
0
SPLINE
5
377
100
AcDbEntity
8
0
100
AcDbSpline
62
0
6
CONTINUOUS
70
0
71
3
72
9
73
5
74
3
42
0.0000001000
43
0.0000001000
44
0.0000000001
12
0.0626520526
22
0.0807035252
32
0.0000000000
13
0.0626602321
23
0.0806971746
33
0.0000000000
40
0.0000000000
40
0.0000000000
40
0.0000000000
40
0.0000000000
40
0.4946251091
40
1.0000000000
40
1.0000000000
40
1.0000000000
40
1.0000000000
10
-10.9536383231
20
26.4315343600
30
0.0000000000
10
-10.9433085637
20
26.4448403566
30
0.0000000000
10
-10.9224213054
20
26.4717390157
30
0.0000000000
10
-10.9015351855
20
26.4986385584
30
0.0000000000
10
-10.8909795495
20
26.5122326670
30
0.0000000000
11
-10.9536383231
21
26.4315343600
31
0.0000000000
11
-10.9226461174
21
26.4714500772
31
0.0000000000
11
-10.8909795495
21
26.5122326670
31
0.0000000000
0
SPLINE
5
378
100
AcDbEntity
8
0
100
AcDbSpline
62
0
6
CONTINUOUS
70
0
71
3
72
10
73
6
74
4
42
0.0000001000
43
0.0000001000
44
0.0000000001
12
0.0954415523
22
0.3139058547
32
0.0000000000
13
-0.0123428933
23
0.3278622096
33
0.0000000000
40
0.0000000000
40
0.0000000000
40
0.0000000000
40
0.0000000000
40
0.2999733438
40
0.6307118897
40
1.0000000000
40
1.0000000000
40
1.0000000000
40
1.0000000000
10
-11.4683295770
20
26.8110910387
30
0.0000000000
10
-11.4587862698
20
26.8424788350
30
0.0000000000
10
-11.4428839574
20
26.9097960026
30
0.0000000000
10
-11.4301045646
20
27.0186167723
30
0.0000000000
10
-11.4294002533
20
27.0953360810
30
0.0000000000
10
-11.4309196146
20
27.1356946196
30
0.0000000000
11
-11.4683295770
21
26.8110910387
31
0.0000000000
11
-11.4454335977
21
26.9068103697
31
0.0000000000
11
-11.4324369268
21
27.0145427371
31
0.0000000000
11
-11.4309196146
21
27.1356946196
31
0.0000000000
0
SPLINE
5
379
100
AcDbEntity
8
0
100
AcDbSpline
62
0
6
CONTINUOUS
70
0
71
3
72
10
73
6
74
4
42
0.0000001000
43
0.0000001000
44
0.0000000001
12
-0.6339695930
22
0.1640835183
32
0.0000000000
13
-0.4999961351
23
0.4229003555
33
0.0000000000
40
0.0000000000
40
0.0000000000
40
0.0000000000
40
0.0000000000
40
0.3318209627
40
0.6681790372
40
1.0000000000
40
1.0000000000
40
1.0000000000
40
1.0000000000
10
-10.8909795495
20
26.5122326670
30
0.0000000000
10
-10.9611010163
20
26.5303814507
30
0.0000000000
10
-11.0996285608
20
26.5781025963
30
0.0000000000
10
-11.2940834447
20
26.6787598521
30
0.0000000000
10
-11.4130265107
20
26.7643153043
30
0.0000000000
10
-11.4683295770
20
26.8110910387
30
0.0000000000
11
-10.8909795495
21
26.5122326670
31
0.0000000000
11
-11.0965677938
21
26.5825964360
31
0.0000000000
11
-11.2921813744
21
26.6838534776
31
0.0000000000
11
-11.4683295770
21
26.8110910387
31
0.0000000000
0
SPLINE
5
37A
100
AcDbEntity
8
0
100
AcDbSpline
62
0
6
CONTINUOUS
70
0
71
3
72
10
73
6
74
4
42
0.0000001000
43
0.0000001000
44
0.0000000001
12
0.1880948080
22
0.3633644467
32
0.0000000000
13
0.0647414417
23
0.4040073311
33
0.0000000000
40
0.0000000000
40
0.0000000000
40
0.0000000000
40
0.0000000000
40
0.3141653413
40
0.6457065284
40
1.0000000000
40
1.0000000000
40
1.0000000000
40
1.0000000000
10
-10.8909795495
20
26.5122326670
30
0.0000000000
10
-10.8712819263
20
26.5502848388
30
0.0000000000
10
-10.8348478870
20
26.6306679776
30
0.0000000000
10
-10.7919064371
20
26.7603681581
30
0.0000000000
10
-10.7722356198
20
26.8520420940
30
0.0000000000
10
-10.7645897964
20
26.8997544807
30
0.0000000000
11
-10.8909795495
21
26.5122326670
31
0.0000000000
11
-10.8378893681
21
26.6293014924
31
0.0000000000
11
-10.7951689010
21
26.7580530606
31
0.0000000000
11
-10.7645897964
21
26.8997544807
31
0.0000000000
0
SPLINE
5
37B
100
AcDbEntity
8
0
100
AcDbSpline
62
0
6
CONTINUOUS
70
0
71
3
72
9
73
5
74
3
42
0.0000001000
43
0.0000001000
44
0.0000000001
12
-0.0077686377
22
0.2061821003
32
0.0000000000
13
-0.0359100139
23
0.2031794308
33
0.0000000000
40
0.0000000000
40
0.0000000000
40
0.0000000000
40
0.0000000000
40
0.4875361278
40
1.0000000000
40
1.0000000000
40
1.0000000000
40
1.0000000000
10
-11.4309196146
20
27.1356946196
30
0.0000000000
10
-11.4321821118
20
27.1692016939
30
0.0000000000
10
-11.4374430085
20
27.2378457514
30
0.0000000000
10
-11.4473873994
20
27.3059520031
30
0.0000000000
10
-11.4535215943
20
27.3406593757
30
0.0000000000
11
-11.4309196146
21
27.1356946196
31
0.0000000000
11
-11.4384250928
21
27.2360067780
31
0.0000000000
11
-11.4535215943
21
27.3406593757
31
0.0000000000
0
SPLINE
5
37C
100
AcDbEntity
8
0
100
AcDbSpline
62
0
6
CONTINUOUS
70
0
71
3
72
9
73
5
74
3
42
0.0000001000
43
0.0000001000
44
0.0000000001
12
0.0371281447
22
0.2317335036
32
0.0000000000
13
0.0000065381
23
0.2346889767
33
0.0000000000
40
0.0000000000
40
0.0000000000
40
0.0000000000
40
0.0000000000
40
0.4946176038
40
1.0000000000
40
1.0000000000
40
1.0000000000
40
1.0000000000
10
-10.7645897964
20
26.8997544807
30
0.0000000000
10
-10.7584683851
20
26.9379609708
30
0.0000000000
10
-10.7493303897
20
27.0157546042
30
0.0000000000
10
-10.7464162081
20
27.0940168127
30
0.0000000000
10
-10.7464151067
20
27.1335527051
30
0.0000000000
11
-10.7645897964
21
26.8997544807
31
0.0000000000
11
-10.7509513930
21
27.0150318072
31
0.0000000000
11
-10.7464151067
21
27.1335527051
31
0.0000000000
0
SPLINE
5
37D
100
AcDbEntity
8
0
100
AcDbSpline
62
0
6
CONTINUOUS
70
0
71
3
72
10
73
6
74
4
42
0.0000001000
43
0.0000001000
44
0.0000000001
12
-0.7468794205
22
0.0000001032
32
0.0000000000
13
-0.6098246038
23
0.4312108782
33
0.0000000000
40
0.0000000000
40
0.0000000000
40
0.0000000000
40
0.0000000000
40
0.3480320724
40
0.6845161589
40
1.0000000000
40
1.0000000000
40
1.0000000000
40
1.0000000000
10
-10.7464138674
20
37.9335507094
30
0.0000000000
10
-10.8330598650
20
37.9335507214
30
0.0000000000
10
-11.0039449530
20
37.9491859335
30
0.0000000000
10
-11.2445745633
20
38.0183397952
30
0.0000000000
10
-11.3893904190
20
38.0953106919
30
0.0000000000
10
-11.4535203551
20
38.1406573800
30
0.0000000000
11
-10.7464138674
21
37.9335507094
31
0.0000000000
11
-11.0052327902
21
37.9576447992
31
0.0000000000
11
-11.2464136398
21
38.0282850261
31
0.0000000000
11
-11.4535203551
21
38.1406573800
31
0.0000000000
0
SPLINE
5
37E
100
AcDbEntity
8
0
100
AcDbSpline
62
0
6
CONTINUOUS
70
0
71
3
72
10
73
6
74
4
42
0.0000001000
43
0.0000001000
44
0.0000000001
12
-0.7468794205
22
0.0000001032
32
0.0000000000
13
-0.6098246038
23
0.4312108781
33
0.0000000000
40
0.0000000000
40
0.0000000000
40
0.0000000000
40
0.0000000000
40
0.3480320315
40
0.6845161395
40
1.0000000000
40
1.0000000000
40
1.0000000000
40
1.0000000000
10
-10.7464151067
20
27.1335527051
30
0.0000000000
10
-10.8330610940
20
27.1335527171
30
0.0000000000
10
-11.0039461770
20
27.1491879269
30
0.0000000000
10
-11.2445757887
20
27.2183417843
30
0.0000000000
10
-11.3893916542
20
27.2953126849
30
0.0000000000
10
-11.4535215943
20
27.3406593757
30
0.0000000000
11
-10.7464151067
21
27.1335527051
31
0.0000000000
11
-11.0052339993
21
27.1576467892
31
0.0000000000
11
-11.2464148655
21
27.2282870163
31
0.0000000000
11
-11.4535215943
21
27.3406593757
31
0.0000000000
0
SPLINE
5
37F
100
AcDbEntity
8
0
100
AcDbSpline
62
0
6
CONTINUOUS
70
0
71
3
72
13
73
9
74
7
42
0.0000001000
43
0.0000001000
44
0.0000000001
12
-0.9266409736
22
-0.0858334960
32
0.0000000000
13
-0.9146961738
23
-0.1713528309
33
0.0000000000
40
0.0000000000
40
0.0000000000
40
0.0000000000
40
0.0000000000
40
0.1305296283
40
0.2733723263
40
0.4362503895
40
0.6211091273
40
0.8149440519
40
1.0000000000
40
1.0000000000
40
1.0000000000
40
1.0000000000
10
20.9696286683
20
50.2615971225
30
0.0000000000
10
20.9293106344
20
50.2578625177
30
0.0000000000
10
20.8448892668
20
50.2498306205
30
0.0000000000
10
20.7103718481
20
50.2350057938
30
0.0000000000
10
20.5593902151
20
50.2158988685
30
0.0000000000
10
20.3930976324
20
50.1919664602
30
0.0000000000
10
20.2204637446
20
50.1639942917
30
0.0000000000
10
20.1047693232
20
50.1432542261
30
0.0000000000
10
20.0483460006
20
50.1326842726
30
0.0000000000
11
20.9696286683
21
50.2615971225
31
0.0000000000
11
20.8487207349
21
50.2499055938
31
0.0000000000
11
20.7165889321
21
50.2353552564
31
0.0000000000
11
20.5662089114
21
50.2163549703
31
0.0000000000
11
20.3959288179
21
50.1918733616
31
0.0000000000
11
20.2178620918
21
50.1630508998
31
0.0000000000
11
20.0483460006
21
50.1326842726
31
0.0000000000
0
SPLINE
5
380
100
AcDbEntity
8
0
100
AcDbSpline
62
0
6
CONTINUOUS
70
0
71
3
72
10
73
6
74
4
42
0.0000001000
43
0.0000001000
44
0.0000000001
12
-2.7241542746
22
0.3931953546
32
0.0000000000
13
-2.2411470482
23
1.5977731401
33
0.0000000000
40
0.0000000000
40
0.0000000000
40
0.0000000000
40
0.0000000000
40
0.3477514983
40
0.6826281795
40
1.0000000000
40
1.0000000000
40
1.0000000000
40
1.0000000000
10
-0.7606203114
20
29.2469062318
30
0.0000000000
10
-1.0763965549
20
29.2924843230
30
0.0000000000
10
-1.6911123109
20
29.4253035004
30
0.0000000000
10
-2.5523751487
20
29.7507964162
30
0.0000000000
10
-3.0735280052
20
30.0522461109
30
0.0000000000
10
-3.3106203114
20
30.2212755010
30
0.0000000000
11
-0.7606203114
21
29.2469062318
31
0.0000000000
11
-1.6957528327
21
29.4510021725
31
0.0000000000
11
-2.5567481220
21
29.7799932905
31
0.0000000000
11
-3.3106203114
21
30.2212755010
31
0.0000000000
0
SPLINE
5
381
100
AcDbEntity
8
0
100
AcDbSpline
62
0
6
CONTINUOUS
70
0
71
3
72
13
73
9
74
7
42
0.0000001000
43
0.0000001000
44
0.0000000001
12
-0.6660821364
22
-0.2701644573
32
0.0000000000
13
-0.5602167782
23
-0.4503458758
33
0.0000000000
40
0.0000000000
40
0.0000000000
40
0.0000000000
40
0.0000000000
40
0.1195611315
40
0.2552602087
40
0.4142137488
40
0.6001344866
40
0.8015842523
40
1.0000000000
40
1.0000000000
40
1.0000000000
40
1.0000000000
10
20.9665273519
20
50.2613194792
30
0.0000000000
10
20.9399815073
20
50.2505524231
30
0.0000000000
10
20.8834204056
20
50.2272410827
30
0.0000000000
10
20.7939519118
20
50.1841497508
30
0.0000000000
10
20.6931494959
20
50.1283795994
30
0.0000000000
10
20.5823223055
20
50.0585958889
30
0.0000000000
10
20.4676367028
20
49.9775915198
30
0.0000000000
10
20.3918949869
20
49.9188769409
30
0.0000000000
10
20.3548430432
20
49.8890917030
30
0.0000000000
11
20.9665273519
21
50.2613194792
31
0.0000000000
11
20.8873091185
21
50.2280032104
31
0.0000000000
11
20.7993648408
21
50.1858179158
31
0.0000000000
11
20.6993111052
21
50.1306531269
31
0.0000000000
11
20.5861042224
21
50.0596380481
31
0.0000000000
11
20.4676884415
21
49.9763039637
31
0.0000000000
11
20.3548430432
21
49.8890917030
31
0.0000000000
0
SPLINE
5
382
100
AcDbEntity
8
0
100
AcDbSpline
62
0
6
CONTINUOUS
70
0
71
3
72
10
73
6
74
4
42
0.0000001000
43
0.0000001000
44
0.0000000001
12
-2.2411443052
22
-1.5977811379
32
0.0000000000
13
-2.7241559850
23
-0.3932003699
33
0.0000000000
40
0.0000000000
40
0.0000000000
40
0.0000000000
40
0.0000000000
40
0.3173717230
40
0.6522483994
40
1.0000000000
40
1.0000000000
40
1.0000000000
40
1.0000000000
10
3.7893796886
20
30.2212817111
30
0.0000000000
10
3.5522877454
20
30.0522515269
30
0.0000000000
10
3.0311352821
20
29.7508002426
30
0.0000000000
10
2.1698723737
20
29.4253051878
30
0.0000000000
10
1.5551562233
20
29.2924847562
30
0.0000000000
10
1.2393796886
20
29.2469060702
30
0.0000000000
11
3.7893796886
21
30.2212817111
31
0.0000000000
11
3.0355082408
21
29.7799972513
31
0.0000000000
11
2.1745129276
21
29.4510039728
31
0.0000000000
11
1.2393796886
21
29.2469060702
31
0.0000000000
0
SPLINE
5
383
100
AcDbEntity
8
0
100
AcDbSpline
62
0
6
CONTINUOUS
70
0
71
3
72
9
73
5
74
3
42
0.0000001000
43
0.0000001000
44
0.0000000001
12
0.7263811013
22
-0.9032761413
32
0.0000000000
13
0.0839381596
23
-1.1515740763
33
0.0000000000
40
0.0000000000
40
0.0000000000
40
0.0000000000
40
0.0000000000
40
0.4943212043
40
1.0000000000
40
1.0000000000
40
1.0000000000
40
1.0000000000
10
63.5489011224
20
49.7163196090
30
0.0000000000
10
63.6685896493
20
49.5674834257
30
0.0000000000
10
63.8646925662
20
49.2293888583
30
0.0000000000
10
63.9481985898
20
48.8466167887
30
0.0000000000
10
63.9623471723
20
48.6525079247
30
0.0000000000
11
63.5489011224
21
49.7163196090
31
0.0000000000
11
63.8349518697
21
49.2223116963
31
0.0000000000
11
63.9623471723
21
48.6525079247
31
0.0000000000
0
SPLINE
5
384
100
AcDbEntity
8
0
100
AcDbSpline
62
0
6
CONTINUOUS
70
0
71
3
72
11
73
7
74
5
42
0.0000001000
43
0.0000001000
44
0.0000000001
12
3.2634112529
22
-2.3407779142
32
0.0000000000
13
-0.6280036884
23
-3.9815641008
33
0.0000000000
40
0.0000000000
40
0.0000000000
40
0.0000000000
40
0.0000000000
40
0.2740927535
40
0.5279015736
40
0.7667231241
40
1.0000000000
40
1.0000000000
40
1.0000000000
40
1.0000000000
10
4.4893796886
20
35.6735975490
30
0.0000000000
10
4.7875388140
20
35.4597341277
30
0.0000000000
10
5.3229424288
20
34.9877987089
30
0.0000000000
10
5.9117464730
20
34.1327950101
30
0.0000000000
10
6.2192732351
20
33.1950485754
30
0.0000000000
10
6.2192732378
20
32.5521787904
30
0.0000000000
10
6.1704403250
20
32.2425765121
30
0.0000000000
11
4.4893796886
21
35.6735975490
31
0.0000000000
11
5.3084684820
21
34.9381919522
31
0.0000000000
11
5.8782329381
21
34.0929776299
31
0.0000000000
11
6.1704403250
21
33.1794407912
31
0.0000000000
11
6.1704403250
21
32.2425765121
31
0.0000000000
0
SPLINE
5
385
100
AcDbEntity
8
0
100
AcDbSpline
62
0
6
CONTINUOUS
70
0
71
3
72
10
73
6
74
4
42
0.0000001000
43
0.0000001000
44
0.0000000001
12
-0.1903559803
22
-0.0356647712
32
0.0000000000
13
-0.1897265019
23
-0.0388745370
33
0.0000000000
40
0.0000000000
40
0.0000000000
40
0.0000000000
40
0.0000000000
40
0.3451029281
40
0.6967308362
40
1.0000000000
40
1.0000000000
40
1.0000000000
40
1.0000000000
10
20.0483460006
20
50.1326842726
30
0.0000000000
10
20.0264485319
20
50.1285816003
30
0.0000000000
10
19.9822643911
20
50.1201655441
30
0.0000000000
10
19.9189213536
20
50.1077081712
30
0.0000000000
10
19.8774800532
20
50.0993397545
30
0.0000000000
10
19.8583006540
20
50.0954099384
30
0.0000000000
11
20.0483460006
21
50.1326842726
31
0.0000000000
11
19.9826907169
21
50.1201797442
31
0.0000000000
11
19.9158702341
21
50.1070451741
31
0.0000000000
11
19.8583006540
21
50.0954099384
31
0.0000000000
0
SPLINE
5
386
100
AcDbEntity
8
0
100
AcDbSpline
62
0
6
CONTINUOUS
70
0
71
3
72
11
73
7
74
5
42
0.0000001000
43
0.0000001000
44
0.0000000001
12
-0.1364831821
22
-0.1097147308
32
0.0000000000
13
-0.1306226134
23
-0.1166306736
33
0.0000000000
40
0.0000000000
40
0.0000000000
40
0.0000000000
40
0.0000000000
40
0.2412751635
40
0.4885420719
40
0.7415639752
40
1.0000000000
40
1.0000000000
40
1.0000000000
40
1.0000000000
10
20.3548430432
20
49.8890917030
30
0.0000000000
10
20.3438663759
20
49.8802678898
30
0.0000000000
10
20.3217177294
20
49.8623041945
30
0.0000000000
10
20.2884930201
20
49.8345562984
30
0.0000000000
10
20.2549063174
20
49.8056865814
30
0.0000000000
10
20.2325190566
20
49.7859342123
30
0.0000000000
10
20.2212665269
20
49.7758870231
30
0.0000000000
11
20.3548430432
21
49.8890917030
31
0.0000000000
11
20.3220528415
21
49.8624472885
31
0.0000000000
11
20.2888164015
21
49.8346943727
31
0.0000000000
11
20.2552080515
21
49.8058213149
31
0.0000000000
11
20.2212665269
21
49.7758870231
31
0.0000000000
0
SPLINE
5
387
100
AcDbEntity
8
0
100
AcDbSpline
62
0
6
CONTINUOUS
70
0
71
3
72
9
73
5
74
3
42
0.0000001000
43
0.0000001000
44
0.0000000001
12
1.0022321528
22
-0.0000001027
32
0.0000000000
13
0.9950713946
23
-0.1195918384
33
0.0000000000
40
0.0000000000
40
0.0000000000
40
0.0000000000
40
0.0000000000
40
0.5041359719
40
1.0000000000
40
1.0000000000
40
1.0000000000
40
1.0000000000
10
0.2393731224
20
36.9309869724
30
0.0000000000
10
0.4077935492
20
36.9309869551
30
0.0000000000
10
0.7419469780
20
36.9209915675
30
0.0000000000
10
1.0749063186
20
36.8910893703
30
0.0000000000
10
1.2393796886
20
36.8713222734
30
0.0000000000
11
0.2393731224
21
36.9309869724
31
0.0000000000
11
0.7444075952
21
36.9158495093
31
0.0000000000
11
1.2393796886
21
36.8713222734
31
0.0000000000
0
SPLINE
5
388
100
AcDbEntity
8
0
100
AcDbSpline
62
0
6
CONTINUOUS
70
0
71
3
72
9
73
5
74
3
42
0.0000001000
43
0.0000001000
44
0.0000000001
12
0.9950584718
22
0.1195884637
32
0.0000000000
13
1.0022189196
23
-0.0000001027
33
0.0000000000
40
0.0000000000
40
0.0000000000
40
0.0000000000
40
0.0000000000
40
0.4958640728
40
1.0000000000
40
1.0000000000
40
1.0000000000
40
1.0000000000
10
-0.7606203114
20
36.8713240572
30
0.0000000000
10
-0.5961490625
20
36.8910905981
30
0.0000000000
10
-0.2631940824
20
36.9209919352
30
0.0000000000
10
0.0709549343
20
36.9309869896
30
0.0000000000
10
0.2393731224
20
36.9309869724
30
0.0000000000
11
-0.7606203114
21
36.8713240572
31
0.0000000000
11
-0.2656546464
21
36.9158500154
31
0.0000000000
11
0.2393731224
21
36.9309869724
31
0.0000000000
0
ENDSEC
0
SECTION
2
OBJECTS
0
DICTIONARY
5
C
100
AcDbDictionary
280
0
281
1
3
ACAD_GROUP
350
D
3
ACAD_MLINESTYLE
350
17
3
ACAD_LAYOUT
350
1A
3
ACAD_PLOTSETTINGS
350
19
3
ACAD_PLOTSTYLENAME
350
E
0
DICTIONARY
5
D
102
{ACAD_REACTORS
330
C
102
}
100
AcDbDictionary
280
0
281
1
0
ACDBDICTIONARYWDFLT
5
E
102
{ACAD_REACTORS
330
C
102
}
100
AcDbDictionary
281
1
3
Normal
350
F
100
AcDbDictionaryWithDefault
340
F
0
DICTIONARY
5
17
102
{ACAD_REACTORS
330
C
102
}
100
AcDbDictionary
280
0
281
1
3
Standard
350
18
0
DICTIONARY
5
19
102
{ACAD_REACTORS
330
C
102
}
100
AcDbDictionary
281
1
0
DICTIONARY
5
1A
102
{ACAD_REACTORS
330
C
102
}
100
AcDbDictionary
281
1
3
Layout1
350
1E
3
Model
350
22
0
ACDBPLACEHOLDER
5
F
102
{ACAD_REACTORS
330
E
102
}
0
MLINESTYLE
5
18
102
{ACAD_REACTORS
330
17
102
}
100
AcDbMlineStyle
2
STANDARD
70
0
3

62
256
51
90.0
52
90.0
71
2
49
0.5
62
256
6
BYLAYER
49
-0.5
62
256
6
BYLAYER
0
LAYOUT
5
1E
102
{ACAD_REACTORS
330
1A
102
}
100
AcDbPlotSettings
1

2

4

6

40
0.0
41
0.0
42
0.0
43
0.0
44
0.0
45
0.0
46
0.0
47
0.0
48
0.0
49
0.0
140
0.0
141
0.0
142
1.0
143
1.0
70
0
72
0
73
0
74
0
7

75
0
147
1.0
148
0.0
149
0.0
100
AcDbLayout
1
Layout1
70
0
71
0
10
0.0
20
0.0
11
0.0
21
0.0
12
0.0
22
0.0
32
0.0
14
0.0
24
0.0
34
0.0
15
0.0
25
0.0
35
0.0
146
0.0
13
0.0
23
0.0
33
0.0
16
0.0
26
0.0
36
0.0
17
0.0
27
0.0
37
0.0
76
0
330
1B
331
0
345
0
346
0
0
LAYOUT
5
22
102
{ACAD_REACTORS
330
1A
102
}
100
AcDbPlotSettings
1

2

4

6

40
0.0
41
0.0
42
0.0
43
0.0
44
0.0
45
0.0
46
0.0
47
0.0
48
0.0
49
0.0
140
0.0
141
0.0
142
1.0
143
1.0
70
0
72
0
73
0
74
0
7

75
0
147
1.0
148
0.0
149
0.0
100
AcDbLayout
1
Model
70
0
71
0
10
0.0
20
0.0
11
0.0
21
0.0
12
0.0
22
0.0
32
0.0
14
0.0
24
0.0
34
0.0
15
0.0
25
0.0
35
0.0
146
0.0
13
0.0
23
0.0
33
0.0
16
0.0
26
0.0
36
0.0
17
0.0
27
0.0
37
0.0
76
0
330
1F
331
0
345
0
346
0
0
ENDSEC
0
EOF
