0
SECTION
2
HEADER
9
$ACADVER
1
AC1015
9
$DWGCODEPAGE
3
ANSI_1252
9
$EXTMAX
10
431.8000000000
20
558.8000000000
30
0.0000000000
9
$EXTMIN
10
0.0000000000
20
0.0000000000
30
0.0000000000
9
$LIMMIN
10
0.0000000000
20
0.0000000000
9
$LIMMAX
10
431.8000000000
20
558.8000000000
9
$VIEWCTR
10
215.9000000000
20
279.4000000000
9
$VIEWSIZE
40
558.8000000000
9
$CLAYER
8
0
9
$LTSCALE
40
36.4254814815
9
$CELTYPE
6
BYLAYER
9
$DIMSCALE
40
1
9
$DIMASZ
40
3.0000000000
9
$DIMEXO
40
4.1392592593
9
$DIMDLI
40
25.1666962963
9
$DIMEXE
40
11.9210666667
9
$DIMCEN
40
5.9605333333
9
$DIMLFAC
40
1.0000000000
9
$DIMBLK
1
_FILLED
9
$DIMTXT
40
3.0000000000
9
$DIMTOL
70
1
9
$DIMLIM
70
0
9
$DIMTFAC
40
1.0000000000
9
$DIMTP
40
0.0100000000
9
$DIMTM
40
0.0100000000
9
$PDMODE
70
3
9
$PDSIZE
40
3.0000000000
9
$HANDSEED
5
3FA
9
$MEASUREMENT
70
1
9
$INSUNITS
70
4
0
ENDSEC
0
SECTION
2
CLASSES
0
CLASS
1
ACDBDICTIONARYWDFLT
2
AcDbDictionaryWithDefault
3
AutoCAD 2000
90
0
280
0
281
0
0
CLASS
1
ACDBPLACEHOLDER
2
AcDbPlaceHolder
3
AutoCAD 2000
90
0
280
0
281
0
0
CLASS
1
LAYOUT
2
AcDbLayout
3
AutoCAD 2000
90
0
280
0
281
0
0
ENDSEC
0
SECTION
2
TABLES
0
TABLE
2
VPORT
5
8
100
AcDbSymbolTable
70
2
0
VPORT
5
1F4
100
AcDbSymbolTableRecord
100
AcDbViewportTableRecord
2
*ACTIVE
70
0
10
0.0
20
0.0
11
1.0
21
1.0
12
215.9000000000
22
279.4000000000
13
0.0
23
0.0
14
1.0
24
1.0
15
0.0
25
0.0
16
0.0
26
0.0
36
1.0
17
0.0
27
0.0
37
0.0
40
558.8000000000
41
0.7727272727
42
50.0
43
0.0
44
0.0
50
0.0
51
0.0
71
0
72
100
73
1
74
1
75
0
76
0
77
0
78
0
0
ENDTAB
0
TABLE
2
LTYPE
5
5
100
AcDbSymbolTable
70
6
0
LTYPE
5
14
100
AcDbSymbolTableRecord
100
AcDbLinetypeTableRecord
2
BYBLOCK
70
0
3

72
65
73
0
40
0.0
0
LTYPE
5
15
100
AcDbSymbolTableRecord
100
AcDbLinetypeTableRecord
2
BYLAYER
70
0
3

72
65
73
0
40
0.0
0
LTYPE
5
16
100
AcDbSymbolTableRecord
100
AcDbLinetypeTableRecord
2
CONTINUOUS
70
64
3
Solid line
72
65
73
0
40
0
0
LTYPE
5
1F5
100
AcDbSymbolTableRecord
100
AcDbLinetypeTableRecord
2
CENTER
70
64
3
____ _ ____ _ ____ _ ____ _ ____ _ ____ _ ____
72
65
73
4
40
0.6
49
0.375
74
0
49
-0.075
74
0
49
0.075
74
0
49
-0.075
74
0
0
LTYPE
5
1F6
100
AcDbSymbolTableRecord
100
AcDbLinetypeTableRecord
2
HIDDEN
70
64
3
- - - - - - - - - - - - - - - - - - - -
72
65
73
2
40
0.2
49
0.1
74
0
49
-0.1
74
0
0
LTYPE
5
1F7
100
AcDbSymbolTableRecord
100
AcDbLinetypeTableRecord
2
PHANTOM
70
64
3
_____ _ _ _____ _ _ _____ _ _ _____
72
65
73
6
40
0.8
49
0.45
74
0
49
-0.05
74
0
49
0.1
74
0
49
-0.05
74
0
49
0.1
74
0
49
-0.05
74
0
0
LTYPE
5
1F8
100
AcDbSymbolTableRecord
100
AcDbLinetypeTableRecord
2
DOT
70
64
3
. . . . . . . . . . . . . . . . . . . .
72
65
73
2
40
0.2
49
0.1
74
0
49
-0.1
74
0
0
LTYPE
5
1F9
100
AcDbSymbolTableRecord
100
AcDbLinetypeTableRecord
2
DASHED
70
64
3
- - - - - - - - - - - - - - - - - - - -
72
65
73
2
40
0.2
49
0.1
74
0
49
-0.1
74
0
0
ENDTAB
0
TABLE
2
LAYER
5
2
100
AcDbSymbolTable
70
36
0
LAYER
5
10
100
AcDbSymbolTableRecord
100
AcDbLayerTableRecord
2
0
70
0
62
7
6
CONTINUOUS
370
-3
390
F
0
LAYER
5
1FA
100
AcDbSymbolTableRecord
100
AcDbLayerTableRecord
2
DEFAULT_1
70
0
62
7
6
CENTER
370
-3
390
F
0
LAYER
5
1FB
100
AcDbSymbolTableRecord
100
AcDbLayerTableRecord
2
DEFAULT_2
70
0
62
9
6
HIDDEN
370
-3
390
F
0
LAYER
5
1FC
100
AcDbSymbolTableRecord
100
AcDbLayerTableRecord
2
DEFAULT_3
70
0
62
7
6
PHANTOM
370
-3
390
F
0
LAYER
5
1FD
100
AcDbSymbolTableRecord
100
AcDbLayerTableRecord
2
_2D_DELETED_OBJS
70
0
62
7
6
CONTINUOUS
370
-3
390
F
0
LAYER
5
1FE
100
AcDbSymbolTableRecord
100
AcDbLayerTableRecord
2
_BLACK_HOLE
70
0
62
7
6
CONTINUOUS
370
-3
390
F
0
LAYER
5
1FF
100
AcDbSymbolTableRecord
100
AcDbLayerTableRecord
2
ASSI
70
0
62
7
6
CONTINUOUS
370
-3
390
F
0
LAYER
5
200
100
AcDbSymbolTableRecord
100
AcDbLayerTableRecord
2
COORDINATE
70
0
62
7
6
CONTINUOUS
370
-3
390
F
0
LAYER
5
201
100
AcDbSymbolTableRecord
100
AcDbLayerTableRecord
2
COORD_ORIGINE
70
0
62
7
6
CONTINUOUS
370
-3
390
F
0
LAYER
5
202
100
AcDbSymbolTableRecord
100
AcDbLayerTableRecord
2
CURVE
70
0
62
7
6
CONTINUOUS
370
-3
390
F
0
LAYER
5
203
100
AcDbSymbolTableRecord
100
AcDbLayerTableRecord
2
DRAFT
70
0
62
7
6
CONTINUOUS
370
-3
390
F
0
LAYER
5
204
100
AcDbSymbolTableRecord
100
AcDbLayerTableRecord
2
IMPORT_INCISIONI
70
0
62
7
6
CONTINUOUS
370
-3
390
F
0
LAYER
5
205
100
AcDbSymbolTableRecord
100
AcDbLayerTableRecord
2
NOTE
70
0
62
7
6
CONTINUOUS
370
-3
390
F
0
LAYER
5
206
100
AcDbSymbolTableRecord
100
AcDbLayerTableRecord
2
PIANI
70
0
62
7
6
CONTINUOUS
370
-3
390
F
0
LAYER
5
207
100
AcDbSymbolTableRecord
100
AcDbLayerTableRecord
2
PIANI_ORIGINE
70
0
62
7
6
CONTINUOUS
370
-3
390
F
0
LAYER
5
208
100
AcDbSymbolTableRecord
100
AcDbLayerTableRecord
2
PIANI_RIFERIMENTO
70
0
62
7
6
CONTINUOUS
370
-3
390
F
0
LAYER
5
209
100
AcDbSymbolTableRecord
100
AcDbLayerTableRecord
2
PUNTI
70
0
62
7
6
CONTINUOUS
370
-3
390
F
0
LAYER
5
20A
100
AcDbSymbolTableRecord
100
AcDbLayerTableRecord
2
RACCORDO
70
0
62
7
6
CONTINUOUS
370
-3
390
F
0
LAYER
5
20B
100
AcDbSymbolTableRecord
100
AcDbLayerTableRecord
2
SMUSSO
70
0
62
7
6
CONTINUOUS
370
-3
390
F
0
LAYER
5
20C
100
AcDbSymbolTableRecord
100
AcDbLayerTableRecord
2
SNAPLINE
70
0
62
7
6
CONTINUOUS
370
-3
390
F
0
LAYER
5
20D
100
AcDbSymbolTableRecord
100
AcDbLayerTableRecord
2
SUPERFICI
70
0
62
7
6
CONTINUOUS
370
-3
390
F
0
LAYER
5
20E
100
AcDbSymbolTableRecord
100
AcDbLayerTableRecord
2
TRASH
70
0
62
7
6
CONTINUOUS
370
-3
390
F
0
LAYER
5
20F
100
AcDbSymbolTableRecord
100
AcDbLayerTableRecord
2
XSEC_DATUMS
70
0
62
7
6
CONTINUOUS
370
-3
390
F
0
ENDTAB
0
TABLE
2
STYLE
5
3
100
AcDbSymbolTable
70
1
0
STYLE
5
11
100
AcDbSymbolTableRecord
100
AcDbTextStyleTableRecord
2
STANDARD
70
0
40
0.0
41
0.8000000000
50
0.0
71
0
42
0.2
3
txt
4

0
ENDTAB
0
TABLE
2
VIEW
5
6
100
AcDbSymbolTable
70
0
0
ENDTAB
0
TABLE
2
UCS
5
7
100
AcDbSymbolTable
70
0
0
ENDTAB
0
TABLE
2
APPID
5
9
100
AcDbSymbolTable
70
1
0
APPID
5
210
100
AcDbSymbolTableRecord
100
AcDbRegAppTableRecord
2
ACAD
70
0
0
ENDTAB
0
TABLE
2
BLOCK_RECORD
5
1
100
AcDbSymbolTable
70
0
0
BLOCK_RECORD
5
1F
100
AcDbSymbolTableRecord
100
AcDbBlockTableRecord
2
*MODEL_SPACE
0
BLOCK_RECORD
5
1B
100
AcDbSymbolTableRecord
100
AcDbBlockTableRecord
2
*PAPER_SPACE
0
ENDTAB
0
TABLE
2
DIMSTYLE
5
A
100
AcDbSymbolTable
70
1
100
AcDbDimStyleTable
71
0
0
DIMSTYLE
105
211
100
AcDbSymbolTableRecord
100
AcDbDimStyleTableRecord
2
STANDARD
70
0
3

4

40
1.0
41
3.0000000000
42
0.0625
43
0.38
44
0.18
45
0.0
46
0.0
47
0.0100000000
48
0.0100000000
140
3.0000000000
141
0.09
142
0.0
143
25.4
144
1.0000000000
145
0.0
146
1.0000000000
147
0.09
71
1
72
0
73
0
74
0
75
0
76
0
77
1
78
8
170
0
171
2
172
0
173
0
174
0
175
0
176
0
177
0
178
0
270
2
271
2
272
2
273
2
274
2
275
0
280
0
281
0
282
0
283
1
284
8
285
0
286
0
287
3
288
0
340
11
0
ENDTAB
0
ENDSEC
0
SECTION
2
BLOCKS
0
BLOCK
5
20
100
AcDbEntity
8
0
100
AcDbBlockBegin
2
*MODEL_SPACE
70
0
10
0.0
20
0.0
30
0.0
3
*MODEL_SPACE
1

0
ENDBLK
5
21
100
AcDbEntity
8
0
100
AcDbBlockEnd
0
BLOCK
5
1C
100
AcDbEntity
8
0
100
AcDbBlockBegin
2
*PAPER_SPACE
70
0
10
0.0
20
0.0
30
0.0
3
*PAPER_SPACE
1

0
ENDBLK
5
1D
100
AcDbEntity
8
0
100
AcDbBlockEnd
0
ENDSEC
0
SECTION
2
ENTITIES
0
LINE
5
212
100
AcDbEntity
8
0
100
AcDbLine
62
9
6
CONTINUOUS
10
-8.8134532117
20
24.6402008269
11
-8.8090813777
21
24.6445726609
0
LINE
5
213
100
AcDbEntity
8
0
100
AcDbLine
62
9
6
CONTINUOUS
10
-11.0089485158
20
22.5358457931
11
-10.9914934509
21
22.5445726609
0
LINE
5
214
100
AcDbEntity
8
0
100
AcDbLine
62
0
6
CONTINUOUS
10
-10.7090898393
20
-24.3554273391
11
-8.8090813777
21
-24.3554273391
0
LINE
5
215
100
AcDbEntity
8
0
100
AcDbLine
62
0
6
CONTINUOUS
10
8.1909101607
20
-24.3554273391
11
10.0909186223
21
-24.3554273391
0
LINE
5
216
100
AcDbEntity
8
0
100
AcDbLine
62
9
6
CONTINUOUS
10
-10.7047180053
20
-24.3510555051
11
-8.8134532117
21
-24.3510555051
0
LINE
5
217
100
AcDbEntity
8
0
100
AcDbLine
62
9
6
CONTINUOUS
10
8.1952819947
20
-24.3510555051
11
10.0865467883
21
-24.3510555051
0
LINE
5
218
100
AcDbEntity
8
0
100
AcDbLine
62
9
6
CONTINUOUS
10
-10.9547137745
20
-24.1010597359
11
-8.5634574425
21
-24.1010597359
0
LINE
5
219
100
AcDbEntity
8
0
100
AcDbLine
62
9
6
CONTINUOUS
10
7.9452862255
20
-24.1010597359
11
10.3365425575
21
-24.1010597359
0
LINE
5
21A
100
AcDbEntity
8
0
100
AcDbLine
62
9
6
CONTINUOUS
10
-10.9547137745
20
-23.6997649064
11
-8.5634574425
21
-23.6997649064
0
LINE
5
21B
100
AcDbEntity
8
0
100
AcDbLine
62
9
6
CONTINUOUS
10
7.9452862255
20
-23.6997649064
11
10.3365425575
21
-23.6997649064
0
LINE
5
21C
100
AcDbEntity
8
0
100
AcDbLine
62
0
6
CONTINUOUS
10
-4.7090856085
20
-23.6554273391
11
4.0909143915
21
-23.6554273391
0
LINE
5
21D
100
AcDbEntity
8
0
100
AcDbLine
62
0
6
CONTINUOUS
10
-3.8090856085
20
-23.6496095093
11
3.1909143915
21
-23.6496095093
0
LINE
5
21E
100
AcDbEntity
8
0
100
AcDbLine
62
9
6
CONTINUOUS
10
-4.6654349616
20
-23.6117766922
11
-3.8090856085
21
-23.6117766922
0
LINE
5
21F
100
AcDbEntity
8
0
100
AcDbLine
62
9
6
CONTINUOUS
10
3.1909143915
20
-23.6117766922
11
4.0472637447
21
-23.6117766922
0
LINE
5
220
100
AcDbEntity
8
0
100
AcDbLine
62
9
6
CONTINUOUS
10
10.0865467883
20
-23.4832585555
11
8.1952819947
21
-23.4832585555
0
LINE
5
221
100
AcDbEntity
8
0
100
AcDbLine
62
9
6
CONTINUOUS
10
-8.8134532117
20
-23.4832585555
11
-10.7047180053
21
-23.4832585555
0
LINE
5
222
100
AcDbEntity
8
0
100
AcDbLine
62
0
6
CONTINUOUS
10
10.0916373894
20
-22.9780770699
11
8.1901913937
21
-22.9780770699
0
LINE
5
223
100
AcDbEntity
8
0
100
AcDbLine
62
0
6
CONTINUOUS
10
-8.8083626106
20
-22.9780770699
11
-10.7098086063
21
-22.9780770699
0
LINE
5
224
100
AcDbEntity
8
0
100
AcDbLine
62
9
6
CONTINUOUS
10
-10.9914934509
20
-22.2554273391
11
-11.0089485158
21
-22.2467004713
0
LINE
5
225
100
AcDbEntity
8
0
100
AcDbLine
62
9
6
CONTINUOUS
10
-8.8134532117
20
-24.3510555051
11
-8.8090813777
21
-24.3554273391
0
LINE
5
226
100
AcDbEntity
8
0
100
AcDbLine
62
9
6
CONTINUOUS
10
-8.5634574425
20
24.3902050577
11
-8.5590856085
21
24.3945768917
0
LINE
5
227
100
AcDbEntity
8
0
100
AcDbLine
62
0
6
CONTINUOUS
10
-8.3931101752
20
21.1362809251
11
-8.5555983176
21
21.0550430413
0
LINE
5
228
100
AcDbEntity
8
0
100
AcDbLine
62
0
6
CONTINUOUS
10
-10.9919776315
20
-22.2554273391
11
-4.7090856085
21
-22.2554273391
0
LINE
5
229
100
AcDbEntity
8
0
100
AcDbLine
62
0
6
CONTINUOUS
10
4.0909143915
20
-22.2554273391
11
10.3738018664
21
-22.2554273391
0
LINE
5
22A
100
AcDbEntity
8
0
100
AcDbLine
62
0
6
CONTINUOUS
10
-11.0089485158
20
-22.2467004713
11
-7.5678124763
21
-22.2467004713
0
LINE
5
22B
100
AcDbEntity
8
0
100
AcDbLine
62
0
6
CONTINUOUS
10
-3.8090856085
20
-22.2467004713
11
-3.3090856085
21
-22.2467004713
0
LINE
5
22C
100
AcDbEntity
8
0
100
AcDbLine
62
0
6
CONTINUOUS
10
2.6909143915
20
-22.2467004713
11
3.1909143915
21
-22.2467004713
0
LINE
5
22D
100
AcDbEntity
8
0
100
AcDbLine
62
0
6
CONTINUOUS
10
6.9496412593
20
-22.2467004713
11
10.3907772989
21
-22.2467004713
0
LINE
5
22E
100
AcDbEntity
8
0
100
AcDbLine
62
9
6
CONTINUOUS
10
-7.6464304417
20
-22.1680825059
11
-3.3090856085
21
-22.1680825059
0
LINE
5
22F
100
AcDbEntity
8
0
100
AcDbLine
62
9
6
CONTINUOUS
10
2.6909143915
20
-22.1680825059
11
7.0282592248
21
-22.1680825059
0
LINE
5
230
100
AcDbEntity
8
0
100
AcDbLine
62
0
6
CONTINUOUS
10
2.6909143915
20
-21.5554273391
11
-3.3090856085
21
-21.5554273391
0
LINE
5
231
100
AcDbEntity
8
0
100
AcDbLine
62
9
6
CONTINUOUS
10
-7.8931863276
20
-21.1681205828
11
-3.3090856085
21
-21.1681205828
0
LINE
5
232
100
AcDbEntity
8
0
100
AcDbLine
62
9
6
CONTINUOUS
10
2.6909143915
20
-21.1681205828
11
7.2750151107
21
-21.1681205828
0
LINE
5
233
100
AcDbEntity
8
0
100
AcDbLine
62
0
6
CONTINUOUS
10
-8.3931101752
20
-20.8471356033
11
-8.5555983176
21
-20.7658977195
0
LINE
5
234
100
AcDbEntity
8
0
100
AcDbLine
62
9
6
CONTINUOUS
10
-8.5634574425
20
-24.1010597359
11
-8.5590856085
21
-24.1054315699
0
LINE
5
235
100
AcDbEntity
8
0
100
AcDbLine
62
0
6
CONTINUOUS
10
-9.9590856085
20
20.2935437147
11
-9.2089716753
21
21.0445726609
0
LINE
5
236
100
AcDbEntity
8
0
100
AcDbLine
62
0
6
CONTINUOUS
10
-9.8037355306
20
19.8271144791
11
-9.0536215975
21
20.5781434253
0
LINE
5
237
100
AcDbEntity
8
0
100
AcDbLine
62
0
6
CONTINUOUS
10
-8.5590856085
20
21.5445726609
11
-7.5678124763
21
22.5358457931
0
LINE
5
238
100
AcDbEntity
8
0
100
AcDbLine
62
0
6
CONTINUOUS
10
-3.3090856085
20
-20.8554273391
11
2.6909143915
21
-20.8554273391
0
LINE
5
239
100
AcDbEntity
8
0
100
AcDbLine
62
0
6
CONTINUOUS
10
-7.8931863276
20
-20.8514228848
11
-7.5509073104
21
-20.8514228848
0
LINE
5
23A
100
AcDbEntity
8
0
100
AcDbLine
62
0
6
CONTINUOUS
10
6.9327360934
20
-20.8514228848
11
7.2750151107
21
-20.8514228848
0
LINE
5
23B
100
AcDbEntity
8
0
100
AcDbLine
62
0
6
CONTINUOUS
10
-8.5555983176
20
-20.7658977195
11
-7.6079232831
21
-20.7658977195
0
LINE
5
23C
100
AcDbEntity
8
0
100
AcDbLine
62
0
6
CONTINUOUS
10
6.9897520662
20
-20.7658977195
11
7.9374271007
21
-20.7658977195
0
LINE
5
23D
100
AcDbEntity
8
0
100
AcDbLine
62
0
6
CONTINUOUS
10
-9.2089716753
20
-20.7554273391
11
-8.5590856085
21
-20.7554273391
0
LINE
5
23E
100
AcDbEntity
8
0
100
AcDbLine
62
0
6
CONTINUOUS
10
7.9409143915
20
-20.7554273391
11
8.5908004584
21
-20.7554273391
0
LINE
5
23F
100
AcDbEntity
8
0
100
AcDbLine
62
9
6
CONTINUOUS
10
6.2490926896
20
-20.4383516223
11
-6.8672639066
21
-20.4383516223
0
LINE
5
240
100
AcDbEntity
8
0
100
AcDbLine
62
0
6
CONTINUOUS
10
8.4354503805
20
-20.2889981035
11
7.0426930768
21
-20.2889981035
0
LINE
5
241
100
AcDbEntity
8
0
100
AcDbLine
62
0
6
CONTINUOUS
10
-7.6608642938
20
-20.2889981035
11
-9.0536215975
21
-20.2889981035
0
LINE
5
242
100
AcDbEntity
8
0
100
AcDbLine
62
9
6
CONTINUOUS
10
6.2462091595
20
-19.9383706608
11
-6.8643803764
21
-19.9383706608
0
LINE
5
243
100
AcDbEntity
8
0
100
AcDbLine
62
0
6
CONTINUOUS
10
-6.7573069232
20
-19.7777582158
11
6.1391357062
21
-19.7777582158
0
LINE
5
244
100
AcDbEntity
8
0
100
AcDbLine
62
0
6
CONTINUOUS
10
-8.5590856085
20
-21.2554273391
11
-7.5678124763
21
-22.2467004713
0
LINE
5
245
100
AcDbEntity
8
0
100
AcDbLine
62
0
6
CONTINUOUS
10
-9.9590856085
20
-20.0043983929
11
-9.2089716753
21
-20.7554273391
0
LINE
5
246
100
AcDbEntity
8
0
100
AcDbLine
62
0
6
CONTINUOUS
10
-9.8037355306
20
-19.5379691573
11
-9.0536215975
21
-20.2889981035
0
LINE
5
247
100
AcDbEntity
8
0
100
AcDbLine
62
9
6
CONTINUOUS
10
6.9327360934
20
-18.4954688468
11
6.2490926896
21
-18.4954688468
0
LINE
5
248
100
AcDbEntity
8
0
100
AcDbLine
62
9
6
CONTINUOUS
10
-6.8672639066
20
-18.4954688468
11
-7.5509073104
21
-18.4954688468
0
LINE
5
249
100
AcDbEntity
8
0
100
AcDbLine
62
9
6
CONTINUOUS
10
6.9335016964
20
-18.3075303226
11
6.2483270867
21
-18.3075303226
0
LINE
5
24A
100
AcDbEntity
8
0
100
AcDbLine
62
9
6
CONTINUOUS
10
-6.8664983036
20
-18.3075303226
11
-7.5516729133
21
-18.3075303226
0
LINE
5
24B
100
AcDbEntity
8
0
100
AcDbLine
62
0
6
CONTINUOUS
10
-7.5509073104
20
21.1405682066
11
-7.6079232831
21
21.0550430413
0
LINE
5
24C
100
AcDbEntity
8
0
100
AcDbLine
62
0
6
CONTINUOUS
10
-7.5509073104
20
-20.8514228848
11
-7.6079232831
21
-20.7658977195
0
LINE
5
24D
100
AcDbEntity
8
0
100
AcDbLine
62
0
6
CONTINUOUS
10
-8.5590856085
20
21.0445726609
11
-8.5555983176
21
21.0550430413
0
LINE
5
24E
100
AcDbEntity
8
0
100
AcDbLine
62
0
6
CONTINUOUS
10
-8.5555983176
20
-20.7658977195
11
-8.5590856085
21
-20.7554273391
0
LINE
5
24F
100
AcDbEntity
8
0
100
AcDbLine
62
0
6
CONTINUOUS
10
4.0909143915
20
23.9445726609
11
4.0472637447
21
23.9009220140
0
LINE
5
250
100
AcDbEntity
8
0
100
AcDbLine
62
0
6
CONTINUOUS
10
4.0909143915
20
-23.6554273391
11
4.0472637447
21
-23.6117766922
0
LINE
5
251
100
AcDbEntity
8
0
100
AcDbLine
62
9
6
CONTINUOUS
10
-10.9547137745
20
-23.6997649064
11
-10.9590856085
21
-23.2659124873
0
LINE
5
252
100
AcDbEntity
8
0
100
AcDbLine
62
9
6
CONTINUOUS
10
-10.7047180053
20
-23.4832585555
11
-10.7098086063
21
-22.9780770699
0
LINE
5
253
100
AcDbEntity
8
0
100
AcDbLine
62
0
6
CONTINUOUS
10
-11.4590856085
20
22.0857601206
11
-11.4590856085
21
-21.7966147989
0
LINE
5
254
100
AcDbEntity
8
0
100
AcDbLine
62
0
6
CONTINUOUS
10
-10.9590856085
20
-22.2554273391
11
-10.9590856085
21
-24.1054315699
0
LINE
5
255
100
AcDbEntity
8
0
100
AcDbLine
62
0
6
CONTINUOUS
10
-10.9590856085
20
22.5445726609
11
-10.9590856085
21
24.3945768917
0
LINE
5
256
100
AcDbEntity
8
0
100
AcDbLine
62
9
6
CONTINUOUS
10
-10.9547137745
20
24.3902050577
11
-10.9547137745
21
23.9889102282
0
LINE
5
257
100
AcDbEntity
8
0
100
AcDbLine
62
9
6
CONTINUOUS
10
-10.9547137745
20
-23.6997649064
11
-10.9547137745
21
-24.1010597359
0
LINE
5
258
100
AcDbEntity
8
0
100
AcDbLine
62
9
6
CONTINUOUS
10
-10.9590856085
20
23.5550578091
11
-10.9547137745
21
23.9889102282
0
LINE
5
259
100
AcDbEntity
8
0
100
AcDbLine
62
9
6
CONTINUOUS
10
-10.7098086063
20
23.2672223917
11
-10.7047180053
21
23.7724038772
0
LINE
5
25A
100
AcDbEntity
8
0
100
AcDbLine
62
0
6
CONTINUOUS
10
-7.6608642938
20
-11.4763899115
11
-6.7573069232
21
-11.4763899115
0
LINE
5
25B
100
AcDbEntity
8
0
100
AcDbLine
62
0
6
CONTINUOUS
10
6.1391357062
20
-11.4763899115
11
7.0426930768
21
-11.4763899115
0
LINE
5
25C
100
AcDbEntity
8
0
100
AcDbLine
62
9
6
CONTINUOUS
10
-10.7047180053
20
-23.4832585555
11
-10.7047180053
21
-24.3510555051
0
LINE
5
25D
100
AcDbEntity
8
0
100
AcDbLine
62
9
6
CONTINUOUS
10
-10.7047180053
20
23.7724038772
11
-10.7047180053
21
24.6402008269
0
LINE
5
25E
100
AcDbEntity
8
0
100
AcDbLine
62
0
6
CONTINUOUS
10
-9.9590856085
20
20.2935437147
11
-9.9590856085
21
4.0287223330
0
LINE
5
25F
100
AcDbEntity
8
0
100
AcDbLine
62
0
6
CONTINUOUS
10
-9.9590856085
20
-3.7395770112
11
-9.9590856085
21
-20.0043983929
0
LINE
5
260
100
AcDbEntity
8
0
100
AcDbLine
62
0
6
CONTINUOUS
10
-9.8543552189
20
4.1458634606
11
-9.8543552189
21
-3.8567181389
0
LINE
5
261
100
AcDbEntity
8
0
100
AcDbLine
62
0
6
CONTINUOUS
10
-9.8107175566
20
5.1410819138
11
-9.8107175566
21
-4.8519365920
0
LINE
5
262
100
AcDbEntity
8
0
100
AcDbLine
62
0
6
CONTINUOUS
10
-9.8037355306
20
-19.5379691573
11
-9.8037355306
21
-4.8554273391
0
LINE
5
263
100
AcDbEntity
8
0
100
AcDbLine
62
0
6
CONTINUOUS
10
-9.8037355306
20
5.1445726609
11
-9.8037355306
21
19.8271144791
0
LINE
5
264
100
AcDbEntity
8
0
100
AcDbLine
62
0
6
CONTINUOUS
10
-7.6608642938
20
20.5781434253
11
-7.6079232831
21
21.0550430413
0
LINE
5
265
100
AcDbEntity
8
0
100
AcDbLine
62
0
6
CONTINUOUS
10
4.0909143915
20
22.5445726609
11
4.0468471243
21
22.4784708278
0
LINE
5
266
100
AcDbEntity
8
0
100
AcDbLine
62
9
6
CONTINUOUS
10
10.0865467883
20
24.6402008269
11
10.0909186223
21
24.6445726609
0
LINE
5
267
100
AcDbEntity
8
0
100
AcDbLine
62
0
6
CONTINUOUS
10
-8.9337776919
20
5.1698805775
11
-8.9555948614
21
5.1480634080
0
LINE
5
268
100
AcDbEntity
8
0
100
AcDbLine
62
9
6
CONTINUOUS
10
10.3365425575
20
24.3902050577
11
10.3409143915
21
24.3945768917
0
LINE
5
269
100
AcDbEntity
8
0
100
AcDbLine
62
9
6
CONTINUOUS
10
10.0865467883
20
-24.3510555051
11
10.0909186223
21
-24.3554273391
0
LINE
5
26A
100
AcDbEntity
8
0
100
AcDbLine
62
0
6
CONTINUOUS
10
-8.9337776919
20
-4.8807352557
11
-8.9555948614
21
-4.8589180862
0
LINE
5
26B
100
AcDbEntity
8
0
100
AcDbLine
62
9
6
CONTINUOUS
10
10.3365425575
20
-24.1010597359
11
10.3409143915
21
-24.1054315699
0
LINE
5
26C
100
AcDbEntity
8
0
100
AcDbLine
62
0
6
CONTINUOUS
10
4.0909143915
20
-22.2554273391
11
4.0468471243
21
-22.1893255060
0
LINE
5
26D
100
AcDbEntity
8
0
100
AcDbLine
62
0
6
CONTINUOUS
10
-7.6079232831
20
-20.7658977195
11
-7.6608642938
21
-20.2889981035
0
LINE
5
26E
100
AcDbEntity
8
0
100
AcDbLine
62
0
6
CONTINUOUS
10
-7.5516729133
20
-18.3075303226
11
-7.6608642938
21
-11.4763899115
0
LINE
5
26F
100
AcDbEntity
8
0
100
AcDbLine
62
9
6
CONTINUOUS
10
-8.8134532117
20
23.7724038772
11
-8.8083626106
21
23.2672223917
0
LINE
5
270
100
AcDbEntity
8
0
100
AcDbLine
62
9
6
CONTINUOUS
10
-8.5634574425
20
23.9889102282
11
-8.5590856085
21
23.5550578091
0
LINE
5
271
100
AcDbEntity
8
0
100
AcDbLine
62
0
6
CONTINUOUS
10
-8.9590856085
20
-7.0484795424
11
-8.9590856085
21
-4.8554273391
0
LINE
5
272
100
AcDbEntity
8
0
100
AcDbLine
62
0
6
CONTINUOUS
10
-8.9590856085
20
5.1445726609
11
-8.9590856085
21
7.3376248642
0
LINE
5
273
100
AcDbEntity
8
0
100
AcDbLine
62
0
6
CONTINUOUS
10
-8.9555948614
20
5.1410819138
11
-8.9555948614
21
5.1480634080
0
LINE
5
274
100
AcDbEntity
8
0
100
AcDbLine
62
0
6
CONTINUOUS
10
-8.9555948614
20
-4.8519365920
11
-8.9555948614
21
-4.8589180862
0
LINE
5
275
100
AcDbEntity
8
0
100
AcDbLine
62
0
6
CONTINUOUS
10
-8.9337776919
20
-7.0393259209
11
-8.9337776919
21
-4.8807352557
0
LINE
5
276
100
AcDbEntity
8
0
100
AcDbLine
62
0
6
CONTINUOUS
10
-8.9337776919
20
5.1698805775
11
-8.9337776919
21
7.3284712427
0
LINE
5
277
100
AcDbEntity
8
0
100
AcDbLine
62
9
6
CONTINUOUS
10
-8.8134532117
20
-23.4832585555
11
-8.8134532117
21
-24.3510555051
0
LINE
5
278
100
AcDbEntity
8
0
100
AcDbLine
62
9
6
CONTINUOUS
10
-8.8134532117
20
23.7724038772
11
-8.8134532117
21
24.6402008269
0
LINE
5
279
100
AcDbEntity
8
0
100
AcDbLine
62
0
6
CONTINUOUS
10
-8.6090856085
20
3.4120486723
11
-8.6090856085
21
-3.1229033683
0
LINE
5
27A
100
AcDbEntity
8
0
100
AcDbLine
62
9
6
CONTINUOUS
10
-8.5634574425
20
-24.1010597359
11
-8.5634574425
21
-23.6997649064
0
LINE
5
27B
100
AcDbEntity
8
0
100
AcDbLine
62
9
6
CONTINUOUS
10
-8.5634574425
20
23.9889102282
11
-8.5634574425
21
24.3902050577
0
LINE
5
27C
100
AcDbEntity
8
0
100
AcDbLine
62
0
6
CONTINUOUS
10
-8.5590856085
20
-21.2554273391
11
-8.5590856085
21
-20.7554273391
0
LINE
5
27D
100
AcDbEntity
8
0
100
AcDbLine
62
0
6
CONTINUOUS
10
-8.5590856085
20
21.0445726609
11
-8.5590856085
21
21.5445726609
0
LINE
5
27E
100
AcDbEntity
8
0
100
AcDbLine
62
0
6
CONTINUOUS
10
-8.5590856085
20
-22.2554273391
11
-8.5590856085
21
-24.1054315699
0
LINE
5
27F
100
AcDbEntity
8
0
100
AcDbLine
62
0
6
CONTINUOUS
10
-8.5590856085
20
22.5445726609
11
-8.5590856085
21
24.3945768917
0
LINE
5
280
100
AcDbEntity
8
0
100
AcDbLine
62
9
6
CONTINUOUS
10
-8.3931101752
20
21.7105480942
11
-8.3931101752
21
21.1362809251
0
LINE
5
281
100
AcDbEntity
8
0
100
AcDbLine
62
9
6
CONTINUOUS
10
-8.3931101752
20
-20.8471356033
11
-8.3931101752
21
-21.4214027724
0
LINE
5
282
100
AcDbEntity
8
0
100
AcDbLine
62
9
6
CONTINUOUS
10
-7.8931863276
20
21.4572659046
11
-7.8931863276
21
21.1405682066
0
LINE
5
283
100
AcDbEntity
8
0
100
AcDbLine
62
9
6
CONTINUOUS
10
-7.8931863276
20
-20.8514228848
11
-7.8931863276
21
-21.1681205828
0
LINE
5
284
100
AcDbEntity
8
0
100
AcDbLine
62
0
6
CONTINUOUS
10
-7.6608642938
20
20.5781434253
11
-7.6608642938
21
11.7655352333
0
LINE
5
285
100
AcDbEntity
8
0
100
AcDbLine
62
0
6
CONTINUOUS
10
-7.6608642938
20
-20.2889981035
11
-7.6608642938
21
-11.4763899115
0
LINE
5
286
100
AcDbEntity
8
0
100
AcDbLine
62
0
6
CONTINUOUS
10
-7.5509073104
20
-20.8514228848
11
-7.5509073104
21
-18.4954688468
0
LINE
5
287
100
AcDbEntity
8
0
100
AcDbLine
62
0
6
CONTINUOUS
10
-7.5509073104
20
18.7846141685
11
-7.5509073104
21
21.1405682066
0
LINE
5
288
100
AcDbEntity
8
0
100
AcDbLine
62
9
6
CONTINUOUS
10
-8.8083626106
20
-22.9780770699
11
-8.8134532117
21
-23.4832585555
0
LINE
5
289
100
AcDbEntity
8
0
100
AcDbLine
62
9
6
CONTINUOUS
10
-8.5590856085
20
-23.2659124873
11
-8.5634574425
21
-23.6997649064
0
LINE
5
28A
100
AcDbEntity
8
0
100
AcDbLine
62
0
6
CONTINUOUS
10
-7.5516729133
20
18.5966756444
11
-7.6608642938
21
11.7655352333
0
LINE
5
28B
100
AcDbEntity
8
0
100
AcDbLine
62
0
6
CONTINUOUS
10
-9.8037355306
20
5.1445726609
11
-9.8107175566
21
5.1410819138
0
LINE
5
28C
100
AcDbEntity
8
0
100
AcDbLine
62
0
6
CONTINUOUS
10
-0.5142153896
20
9.0622137038
11
-3.1991558196
21
8.0849753065
0
LINE
5
28D
100
AcDbEntity
8
0
100
AcDbLine
62
0
6
CONTINUOUS
10
-9.8037355306
20
-4.8554273391
11
-9.8107175566
21
-4.8519365920
0
LINE
5
28E
100
AcDbEntity
8
0
100
AcDbLine
62
0
6
CONTINUOUS
10
-6.8664983036
20
18.5966756444
11
-6.7573069232
21
11.7655352333
0
LINE
5
28F
100
AcDbEntity
8
0
100
AcDbLine
62
0
6
CONTINUOUS
10
-6.8672639066
20
-20.4383516223
11
-6.8672639066
21
-18.4954688468
0
LINE
5
290
100
AcDbEntity
8
0
100
AcDbLine
62
0
6
CONTINUOUS
10
-6.8672639066
20
18.7846141685
11
-6.8672639066
21
20.7274969441
0
LINE
5
291
100
AcDbEntity
8
0
100
AcDbLine
62
0
6
CONTINUOUS
10
-6.7573069232
20
20.0669035376
11
-6.7573069232
21
11.7655352333
0
LINE
5
292
100
AcDbEntity
8
0
100
AcDbLine
62
0
6
CONTINUOUS
10
-6.7573069232
20
-11.4763899115
11
-6.7573069232
21
-19.7777582158
0
LINE
5
293
100
AcDbEntity
8
0
100
AcDbLine
62
0
6
CONTINUOUS
10
-6.8664983036
20
-18.3075303226
11
-6.7573069232
21
-11.4763899115
0
LINE
5
294
100
AcDbEntity
8
0
100
AcDbLine
62
0
6
CONTINUOUS
10
6.2462091595
20
20.2275159826
11
6.1391357062
21
20.0669035376
0
LINE
5
295
100
AcDbEntity
8
0
100
AcDbLine
62
0
6
CONTINUOUS
10
1.2188403685
20
10.1059999786
11
1.1909143915
21
10.0819944394
0
LINE
5
296
100
AcDbEntity
8
0
100
AcDbLine
62
0
6
CONTINUOUS
10
1.2188403685
20
9.1944216899
11
1.1909143915
21
9.1707864592
0
LINE
5
297
100
AcDbEntity
8
0
100
AcDbLine
62
0
6
CONTINUOUS
10
6.2462091595
20
-19.9383706608
11
6.1391357062
21
-19.7777582158
0
LINE
5
298
100
AcDbEntity
8
0
100
AcDbLine
62
0
6
CONTINUOUS
10
-4.8090856085
20
-0.5902742619
11
-4.8090856085
21
0.8794195837
0
LINE
5
299
100
AcDbEntity
8
0
100
AcDbLine
62
0
6
CONTINUOUS
10
-4.7090856085
20
23.9445726609
11
-4.7090856085
21
22.5445726609
0
LINE
5
29A
100
AcDbEntity
8
0
100
AcDbLine
62
0
6
CONTINUOUS
10
-4.7090856085
20
-22.2554273391
11
-4.7090856085
21
-23.6554273391
0
LINE
5
29B
100
AcDbEntity
8
0
100
AcDbLine
62
9
6
CONTINUOUS
10
-4.6650183412
20
-22.1893255060
11
-4.6650183412
21
-23.6062007638
0
LINE
5
29C
100
AcDbEntity
8
0
100
AcDbLine
62
9
6
CONTINUOUS
10
-4.6650183412
20
22.4784708278
11
-4.6650183412
21
23.8953460856
0
LINE
5
29D
100
AcDbEntity
8
0
100
AcDbLine
62
9
6
CONTINUOUS
10
-4.2430840259
20
1.1783253307
11
-4.2430840259
21
0.8716521492
0
LINE
5
29E
100
AcDbEntity
8
0
100
AcDbLine
62
9
6
CONTINUOUS
10
-4.2430840259
20
-0.5825068274
11
-4.2430840259
21
-0.8891800089
0
LINE
5
29F
100
AcDbEntity
8
0
100
AcDbLine
62
0
6
CONTINUOUS
10
-3.8090856085
20
-22.1893472343
11
-3.8090856085
21
-23.6496095093
0
LINE
5
2A0
100
AcDbEntity
8
0
100
AcDbLine
62
0
6
CONTINUOUS
10
-3.8090856085
20
22.4784925561
11
-3.8090856085
21
23.9387548311
0
LINE
5
2A1
100
AcDbEntity
8
0
100
AcDbLine
62
0
6
CONTINUOUS
10
-7.9889687835
20
-4.8807352557
11
-7.9771628667
21
-4.8589180862
0
LINE
5
2A2
100
AcDbEntity
8
0
100
AcDbLine
62
0
6
CONTINUOUS
10
8.3156064749
20
7.3284712427
11
8.3409143915
21
7.3376248642
0
LINE
5
2A3
100
AcDbEntity
8
0
100
AcDbLine
62
0
6
CONTINUOUS
10
-8.9337776919
20
-4.8807352557
11
-7.9889687835
21
-4.8807352557
0
LINE
5
2A4
100
AcDbEntity
8
0
100
AcDbLine
62
0
6
CONTINUOUS
10
7.3707975665
20
-4.8807352557
11
8.3156064749
21
-4.8807352557
0
LINE
5
2A5
100
AcDbEntity
8
0
100
AcDbLine
62
0
6
CONTINUOUS
10
-8.9555948614
20
-4.8589180862
11
-7.9771628667
21
-4.8589180862
0
LINE
5
2A6
100
AcDbEntity
8
0
100
AcDbLine
62
0
6
CONTINUOUS
10
7.3589916497
20
-4.8589180862
11
8.3374236444
21
-4.8589180862
0
LINE
5
2A7
100
AcDbEntity
8
0
100
AcDbLine
62
0
6
CONTINUOUS
10
-9.8037355306
20
-4.8554273391
11
-8.9590856085
21
-4.8554273391
0
LINE
5
2A8
100
AcDbEntity
8
0
100
AcDbLine
62
0
6
CONTINUOUS
10
8.3409143915
20
-4.8554273391
11
9.1855643137
21
-4.8554273391
0
LINE
5
2A9
100
AcDbEntity
8
0
100
AcDbLine
62
0
6
CONTINUOUS
10
9.1925463396
20
-4.8519365920
11
8.3374236444
21
-4.8519365920
0
LINE
5
2AA
100
AcDbEntity
8
0
100
AcDbLine
62
0
6
CONTINUOUS
10
-8.9555948614
20
-4.8519365920
11
-9.8107175566
21
-4.8519365920
0
LINE
5
2AB
100
AcDbEntity
8
0
100
AcDbLine
62
0
6
CONTINUOUS
10
0.4257613144
20
-4.3554273391
11
-1.0439325313
21
-4.3554273391
0
LINE
5
2AC
100
AcDbEntity
8
0
100
AcDbLine
62
9
6
CONTINUOUS
10
-1.3428382783
20
-3.7894257566
11
-1.0361650968
21
-3.7894257566
0
LINE
5
2AD
100
AcDbEntity
8
0
100
AcDbLine
62
9
6
CONTINUOUS
10
0.4179938799
20
-3.7894257566
11
0.7246670614
21
-3.7894257566
0
LINE
5
2AE
100
AcDbEntity
8
0
100
AcDbLine
62
0
6
CONTINUOUS
10
8.3156064749
20
-7.0393259209
11
8.3409143915
21
-7.0484795424
0
LINE
5
2AF
100
AcDbEntity
8
0
100
AcDbLine
62
0
6
CONTINUOUS
10
-2.9714508815
20
-3.5570230967
11
-4.0106813661
21
-2.5177926122
0
LINE
5
2B0
100
AcDbEntity
8
0
100
AcDbLine
62
9
6
CONTINUOUS
10
-3.8218160895
20
-1.9062107744
11
-3.6049654033
21
-2.1230614606
0
LINE
5
2B1
100
AcDbEntity
8
0
100
AcDbLine
62
9
6
CONTINUOUS
10
-2.5767197300
20
-3.1513071340
11
-2.3598690437
21
-3.3681578202
0
LINE
5
2B2
100
AcDbEntity
8
0
100
AcDbLine
62
0
6
CONTINUOUS
10
-7.9889687835
20
5.1698805775
11
-7.9771628667
21
5.1480634080
0
LINE
5
2B3
100
AcDbEntity
8
0
100
AcDbLine
62
0
6
CONTINUOUS
10
-3.3090856085
20
-20.8554273391
11
-3.3090856085
21
-22.2467004713
0
LINE
5
2B4
100
AcDbEntity
8
0
100
AcDbLine
62
0
6
CONTINUOUS
10
-3.3090856085
20
21.1445726609
11
-3.3090856085
21
22.5358457931
0
LINE
5
2B5
100
AcDbEntity
8
0
100
AcDbLine
62
0
6
CONTINUOUS
10
-9.9590856085
20
-20.0043983929
11
-9.8037355306
21
-19.5379691573
0
LINE
5
2B6
100
AcDbEntity
8
0
100
AcDbLine
62
0
6
CONTINUOUS
10
-9.2089716753
20
-20.7554273391
11
-9.0536215975
21
-20.2889981035
0
LINE
5
2B7
100
AcDbEntity
8
0
100
AcDbLine
62
0
6
CONTINUOUS
10
-8.9590856085
20
-4.8554273391
11
-8.9555948614
21
-4.8519365920
0
LINE
5
2B8
100
AcDbEntity
8
0
100
AcDbLine
62
0
6
CONTINUOUS
10
-8.9590856085
20
5.1445726609
11
-8.9555948614
21
5.1410819138
0
LINE
5
2B9
100
AcDbEntity
8
0
100
AcDbLine
62
0
6
CONTINUOUS
10
-9.8037355306
20
19.8271144791
11
-9.9590856085
21
20.2935437147
0
LINE
5
2BA
100
AcDbEntity
8
0
100
AcDbLine
62
0
6
CONTINUOUS
10
-9.0536215975
20
20.5781434253
11
-9.2089716753
21
21.0445726609
0
LINE
5
2BB
100
AcDbEntity
8
0
100
AcDbLine
62
0
6
CONTINUOUS
10
-1.8370115854
20
10.1059999786
11
-1.8370115854
21
9.1944216899
0
LINE
5
2BC
100
AcDbEntity
8
0
100
AcDbLine
62
0
6
CONTINUOUS
10
-1.8090856085
20
10.0820002350
11
-1.8090856085
21
9.1707762899
0
LINE
5
2BD
100
AcDbEntity
8
0
100
AcDbLine
62
0
6
CONTINUOUS
10
-1.4590856085
20
8.9882394232
11
-1.4590856085
21
10.0027228423
0
LINE
5
2BE
100
AcDbEntity
8
0
100
AcDbLine
62
0
6
CONTINUOUS
10
-1.0433609729
20
-6.2634956666
11
-1.0433609729
21
-5.6591623166
0
LINE
5
2BF
100
AcDbEntity
8
0
100
AcDbLine
62
0
6
CONTINUOUS
10
-1.0433609729
20
5.9483076384
11
-1.0433609729
21
6.5526409883
0
LINE
5
2C0
100
AcDbEntity
8
0
100
AcDbLine
62
0
6
CONTINUOUS
10
-2.7790856085
20
-7.3067091080
11
-2.1780229901
21
-4.8203138498
0
LINE
5
2C1
100
AcDbEntity
8
0
100
AcDbLine
62
0
6
CONTINUOUS
10
0.2962490974
20
5.4149232084
11
0.8973117158
21
7.9013184667
0
LINE
5
2C2
100
AcDbEntity
8
0
100
AcDbLine
62
0
6
CONTINUOUS
10
0.8973117158
20
-7.6121731449
11
0.2962490974
21
-5.1257778866
0
LINE
5
2C3
100
AcDbEntity
8
0
100
AcDbLine
62
0
6
CONTINUOUS
10
-2.1780229901
20
5.1094591715
11
-2.7790856085
21
7.5958544298
0
LINE
5
2C4
100
AcDbEntity
8
0
100
AcDbLine
62
0
6
CONTINUOUS
10
0.4251897560
20
6.5526409883
11
0.4251897560
21
5.9483076384
0
LINE
5
2C5
100
AcDbEntity
8
0
100
AcDbLine
62
0
6
CONTINUOUS
10
0.4251897560
20
-5.6591623166
11
0.4251897560
21
-6.2634956666
0
LINE
5
2C6
100
AcDbEntity
8
0
100
AcDbLine
62
0
6
CONTINUOUS
10
0.8409143915
20
10.0027228423
11
0.8409143915
21
8.9882394368
0
LINE
5
2C7
100
AcDbEntity
8
0
100
AcDbLine
62
0
6
CONTINUOUS
10
1.1909143915
20
9.1707864592
11
1.1909143915
21
10.0819944394
0
LINE
5
2C8
100
AcDbEntity
8
0
100
AcDbLine
62
0
6
CONTINUOUS
10
1.2188403685
20
9.1944216899
11
1.2188403685
21
10.1059999786
0
LINE
5
2C9
100
AcDbEntity
8
0
100
AcDbLine
62
0
6
CONTINUOUS
10
2.1609143915
20
7.5958544298
11
1.5598517731
21
5.1094591715
0
LINE
5
2CA
100
AcDbEntity
8
0
100
AcDbLine
62
0
6
CONTINUOUS
10
-0.9144203143
20
-5.1257778866
11
-1.5154829327
21
-7.6121731449
0
LINE
5
2CB
100
AcDbEntity
8
0
100
AcDbLine
62
0
6
CONTINUOUS
10
8.4354503805
20
20.5781434253
11
8.5908004584
21
21.0445726609
0
LINE
5
2CC
100
AcDbEntity
8
0
100
AcDbLine
62
0
6
CONTINUOUS
10
8.5908004584
20
-20.7554273391
11
8.4354503805
21
-20.2889981035
0
LINE
5
2CD
100
AcDbEntity
8
0
100
AcDbLine
62
0
6
CONTINUOUS
10
-1.5154829327
20
7.9013184667
11
-0.9144203143
21
5.4149232084
0
LINE
5
2CE
100
AcDbEntity
8
0
100
AcDbLine
62
0
6
CONTINUOUS
10
1.5598517731
20
-4.8203138498
11
2.1609143915
21
-7.3067091080
0
LINE
5
2CF
100
AcDbEntity
8
0
100
AcDbLine
62
0
6
CONTINUOUS
10
2.6909143915
20
-20.8554273391
11
2.6909143915
21
-22.2467004713
0
LINE
5
2D0
100
AcDbEntity
8
0
100
AcDbLine
62
0
6
CONTINUOUS
10
2.6909143915
20
21.1445726609
11
2.6909143915
21
22.5358457931
0
LINE
5
2D1
100
AcDbEntity
8
0
100
AcDbLine
62
0
6
CONTINUOUS
10
3.1909143915
20
-22.1893472343
11
3.1909143915
21
-23.6496095093
0
LINE
5
2D2
100
AcDbEntity
8
0
100
AcDbLine
62
0
6
CONTINUOUS
10
3.1909143915
20
22.4784925561
11
3.1909143915
21
23.9387548311
0
LINE
5
2D3
100
AcDbEntity
8
0
100
AcDbLine
62
0
6
CONTINUOUS
10
9.1855643137
20
19.8271144791
11
9.3409143915
21
20.2935437147
0
LINE
5
2D4
100
AcDbEntity
8
0
100
AcDbLine
62
0
6
CONTINUOUS
10
8.3409143915
20
5.1445726609
11
8.3374236444
21
5.1410819138
0
LINE
5
2D5
100
AcDbEntity
8
0
100
AcDbLine
62
0
6
CONTINUOUS
10
-8.9337776919
20
-7.0393259209
11
-8.9590856085
21
-7.0484795424
0
LINE
5
2D6
100
AcDbEntity
8
0
100
AcDbLine
62
0
6
CONTINUOUS
10
-8.9337776919
20
7.3284712427
11
-8.9590856085
21
7.3376248642
0
LINE
5
2D7
100
AcDbEntity
8
0
100
AcDbLine
62
0
6
CONTINUOUS
10
8.3409143915
20
-4.8554273391
11
8.3374236444
21
-4.8519365920
0
LINE
5
2D8
100
AcDbEntity
8
0
100
AcDbLine
62
0
6
CONTINUOUS
10
9.3409143915
20
-20.0043983929
11
9.1855643137
21
-19.5379691573
0
LINE
5
2D9
100
AcDbEntity
8
0
100
AcDbLine
62
9
6
CONTINUOUS
10
3.6249128090
20
-0.8891800089
11
3.6249128090
21
-0.5825068274
0
LINE
5
2DA
100
AcDbEntity
8
0
100
AcDbLine
62
9
6
CONTINUOUS
10
3.6249128090
20
0.8716521492
11
3.6249128090
21
1.1783253307
0
LINE
5
2DB
100
AcDbEntity
8
0
100
AcDbLine
62
9
6
CONTINUOUS
10
4.0468471243
20
-22.1893255060
11
4.0468471243
21
-23.6062007638
0
LINE
5
2DC
100
AcDbEntity
8
0
100
AcDbLine
62
9
6
CONTINUOUS
10
4.0468471243
20
22.4784708278
11
4.0468471243
21
23.8953460856
0
LINE
5
2DD
100
AcDbEntity
8
0
100
AcDbLine
62
0
6
CONTINUOUS
10
4.0909143915
20
-23.6554273391
11
4.0909143915
21
-22.2554273391
0
LINE
5
2DE
100
AcDbEntity
8
0
100
AcDbLine
62
0
6
CONTINUOUS
10
4.0909143915
20
22.5445726609
11
4.0909143915
21
23.9445726609
0
LINE
5
2DF
100
AcDbEntity
8
0
100
AcDbLine
62
0
6
CONTINUOUS
10
4.1909143915
20
0.8794195837
11
4.1909143915
21
-0.5902742619
0
LINE
5
2E0
100
AcDbEntity
8
0
100
AcDbLine
62
0
6
CONTINUOUS
10
7.3707975665
20
5.1698805775
11
7.3589916497
21
5.1480634080
0
LINE
5
2E1
100
AcDbEntity
8
0
100
AcDbLine
62
9
6
CONTINUOUS
10
1.7416978268
20
-3.3681578202
11
1.9585485130
21
-3.1513071340
0
LINE
5
2E2
100
AcDbEntity
8
0
100
AcDbLine
62
9
6
CONTINUOUS
10
2.9867941864
20
-2.1230614606
11
3.2036448726
21
-1.9062107744
0
LINE
5
2E3
100
AcDbEntity
8
0
100
AcDbLine
62
0
6
CONTINUOUS
10
3.3925101491
20
-2.5177926122
11
2.3532796646
21
-3.5570230967
0
LINE
5
2E4
100
AcDbEntity
8
0
100
AcDbLine
62
0
6
CONTINUOUS
10
-9.8107175566
20
5.1410819138
11
-8.9555948614
21
5.1410819138
0
LINE
5
2E5
100
AcDbEntity
8
0
100
AcDbLine
62
0
6
CONTINUOUS
10
8.3374236444
20
5.1410819138
11
9.1925463396
21
5.1410819138
0
LINE
5
2E6
100
AcDbEntity
8
0
100
AcDbLine
62
0
6
CONTINUOUS
10
-9.8037355306
20
5.1445726609
11
-8.9590856085
21
5.1445726609
0
LINE
5
2E7
100
AcDbEntity
8
0
100
AcDbLine
62
0
6
CONTINUOUS
10
8.3409143915
20
5.1445726609
11
9.1855643137
21
5.1445726609
0
LINE
5
2E8
100
AcDbEntity
8
0
100
AcDbLine
62
0
6
CONTINUOUS
10
8.3374236444
20
5.1480634080
11
7.3589916497
21
5.1480634080
0
LINE
5
2E9
100
AcDbEntity
8
0
100
AcDbLine
62
0
6
CONTINUOUS
10
-7.9771628667
20
5.1480634080
11
-8.9555948614
21
5.1480634080
0
LINE
5
2EA
100
AcDbEntity
8
0
100
AcDbLine
62
0
6
CONTINUOUS
10
8.3156064749
20
5.1698805775
11
7.3707975665
21
5.1698805775
0
LINE
5
2EB
100
AcDbEntity
8
0
100
AcDbLine
62
0
6
CONTINUOUS
10
-7.9889687835
20
5.1698805775
11
-8.9337776919
21
5.1698805775
0
LINE
5
2EC
100
AcDbEntity
8
0
100
AcDbLine
62
0
6
CONTINUOUS
10
7.3707975665
20
-4.8807352557
11
7.3589916497
21
-4.8589180862
0
LINE
5
2ED
100
AcDbEntity
8
0
100
AcDbLine
62
0
6
CONTINUOUS
10
6.2483270867
20
-18.3075303226
11
6.1391357062
21
-11.4763899115
0
LINE
5
2EE
100
AcDbEntity
8
0
100
AcDbLine
62
0
6
CONTINUOUS
10
6.1391357062
20
-19.7777582158
11
6.1391357062
21
-11.4763899115
0
LINE
5
2EF
100
AcDbEntity
8
0
100
AcDbLine
62
0
6
CONTINUOUS
10
6.1391357062
20
11.7655352333
11
6.1391357062
21
20.0669035376
0
LINE
5
2F0
100
AcDbEntity
8
0
100
AcDbLine
62
0
6
CONTINUOUS
10
6.2490926896
20
20.7274969441
11
6.2490926896
21
18.7846141685
0
LINE
5
2F1
100
AcDbEntity
8
0
100
AcDbLine
62
0
6
CONTINUOUS
10
6.2490926896
20
-18.4954688468
11
6.2490926896
21
-20.4383516223
0
LINE
5
2F2
100
AcDbEntity
8
0
100
AcDbLine
62
0
6
CONTINUOUS
10
6.9327360934
20
21.1405682066
11
6.9327360934
21
18.7846141685
0
LINE
5
2F3
100
AcDbEntity
8
0
100
AcDbLine
62
0
6
CONTINUOUS
10
6.9327360934
20
-18.4954688468
11
6.9327360934
21
-20.8514228848
0
LINE
5
2F4
100
AcDbEntity
8
0
100
AcDbLine
62
0
6
CONTINUOUS
10
7.0426930768
20
20.5781434253
11
7.0426930768
21
11.7655352333
0
LINE
5
2F5
100
AcDbEntity
8
0
100
AcDbLine
62
0
6
CONTINUOUS
10
7.0426930768
20
-20.2889981035
11
7.0426930768
21
-11.4763899115
0
LINE
5
2F6
100
AcDbEntity
8
0
100
AcDbLine
62
0
6
CONTINUOUS
10
6.2483270867
20
18.5966756444
11
6.1391357062
21
11.7655352333
0
LINE
5
2F7
100
AcDbEntity
8
0
100
AcDbLine
62
0
6
CONTINUOUS
10
-6.8643803764
20
-19.9383706608
11
-6.7573069232
21
-19.7777582158
0
LINE
5
2F8
100
AcDbEntity
8
0
100
AcDbLine
62
0
6
CONTINUOUS
10
-1.8370115854
20
9.1944216899
11
-1.8090856085
21
9.1707762899
0
LINE
5
2F9
100
AcDbEntity
8
0
100
AcDbLine
62
0
6
CONTINUOUS
10
-1.8370115854
20
10.1059999786
11
-1.8090856085
21
10.0820002350
0
LINE
5
2FA
100
AcDbEntity
8
0
100
AcDbLine
62
0
6
CONTINUOUS
10
-6.8643803764
20
20.2275159826
11
-6.7573069232
21
20.0669035376
0
LINE
5
2FB
100
AcDbEntity
8
0
100
AcDbLine
62
0
6
CONTINUOUS
10
6.9335016964
20
18.5966756444
11
7.0426930768
21
11.7655352333
0
LINE
5
2FC
100
AcDbEntity
8
0
100
AcDbLine
62
9
6
CONTINUOUS
10
7.9452862255
20
-23.6997649064
11
7.9409143915
21
-23.2659124873
0
LINE
5
2FD
100
AcDbEntity
8
0
100
AcDbLine
62
9
6
CONTINUOUS
10
8.1952819947
20
-23.4832585555
11
8.1901913937
21
-22.9780770699
0
LINE
5
2FE
100
AcDbEntity
8
0
100
AcDbLine
62
9
6
CONTINUOUS
10
7.2750151107
20
-21.1681205828
11
7.2750151107
21
-20.8514228848
0
LINE
5
2FF
100
AcDbEntity
8
0
100
AcDbLine
62
9
6
CONTINUOUS
10
7.2750151107
20
21.1405682066
11
7.2750151107
21
21.4572659046
0
LINE
5
300
100
AcDbEntity
8
0
100
AcDbLine
62
9
6
CONTINUOUS
10
7.7749389583
20
-21.4214027724
11
7.7749389583
21
-20.8471356033
0
LINE
5
301
100
AcDbEntity
8
0
100
AcDbLine
62
9
6
CONTINUOUS
10
7.7749389583
20
21.1362809251
11
7.7749389583
21
21.7105480942
0
LINE
5
302
100
AcDbEntity
8
0
100
AcDbLine
62
0
6
CONTINUOUS
10
7.9409143915
20
21.5445726609
11
7.9409143915
21
21.0445726609
0
LINE
5
303
100
AcDbEntity
8
0
100
AcDbLine
62
0
6
CONTINUOUS
10
7.9409143915
20
-20.7554273391
11
7.9409143915
21
-21.2554273391
0
LINE
5
304
100
AcDbEntity
8
0
100
AcDbLine
62
0
6
CONTINUOUS
10
7.9409143915
20
-22.2554273391
11
7.9409143915
21
-24.1054315699
0
LINE
5
305
100
AcDbEntity
8
0
100
AcDbLine
62
0
6
CONTINUOUS
10
7.9409143915
20
22.5445726609
11
7.9409143915
21
24.3945768917
0
LINE
5
306
100
AcDbEntity
8
0
100
AcDbLine
62
9
6
CONTINUOUS
10
7.9452862255
20
24.3902050577
11
7.9452862255
21
23.9889102282
0
LINE
5
307
100
AcDbEntity
8
0
100
AcDbLine
62
9
6
CONTINUOUS
10
7.9452862255
20
-23.6997649064
11
7.9452862255
21
-24.1010597359
0
LINE
5
308
100
AcDbEntity
8
0
100
AcDbLine
62
0
6
CONTINUOUS
10
7.9909143915
20
-3.1229034129
11
7.9909143915
21
3.4120487434
0
LINE
5
309
100
AcDbEntity
8
0
100
AcDbLine
62
9
6
CONTINUOUS
10
8.1952819947
20
-23.4832585555
11
8.1952819947
21
-24.3510555051
0
LINE
5
30A
100
AcDbEntity
8
0
100
AcDbLine
62
9
6
CONTINUOUS
10
8.1952819947
20
23.7724038772
11
8.1952819947
21
24.6402008269
0
LINE
5
30B
100
AcDbEntity
8
0
100
AcDbLine
62
0
6
CONTINUOUS
10
8.3156064749
20
7.3284712427
11
8.3156064749
21
5.1698805775
0
LINE
5
30C
100
AcDbEntity
8
0
100
AcDbLine
62
0
6
CONTINUOUS
10
8.3156064749
20
-4.8807352557
11
8.3156064749
21
-7.0393259209
0
LINE
5
30D
100
AcDbEntity
8
0
100
AcDbLine
62
0
6
CONTINUOUS
10
8.3374236444
20
-4.8519365920
11
8.3374236444
21
-4.8589180862
0
LINE
5
30E
100
AcDbEntity
8
0
100
AcDbLine
62
0
6
CONTINUOUS
10
8.3374236444
20
5.1410819138
11
8.3374236444
21
5.1480634080
0
LINE
5
30F
100
AcDbEntity
8
0
100
AcDbLine
62
0
6
CONTINUOUS
10
8.3409143915
20
7.3376248642
11
8.3409143915
21
5.1445726609
0
LINE
5
310
100
AcDbEntity
8
0
100
AcDbLine
62
0
6
CONTINUOUS
10
8.3409143915
20
-4.8554273391
11
8.3409143915
21
-7.0484795424
0
LINE
5
311
100
AcDbEntity
8
0
100
AcDbLine
62
9
6
CONTINUOUS
10
7.9409143915
20
23.5550578091
11
7.9452862255
21
23.9889102282
0
LINE
5
312
100
AcDbEntity
8
0
100
AcDbLine
62
9
6
CONTINUOUS
10
8.1901913937
20
23.2672223917
11
8.1952819947
21
23.7724038772
0
LINE
5
313
100
AcDbEntity
8
0
100
AcDbLine
62
0
6
CONTINUOUS
10
6.9335016964
20
-18.3075303226
11
7.0426930768
21
-11.4763899115
0
LINE
5
314
100
AcDbEntity
8
0
100
AcDbLine
62
0
6
CONTINUOUS
10
-4.7090856085
20
-22.2554273391
11
-4.6650183412
21
-22.1893255060
0
LINE
5
315
100
AcDbEntity
8
0
100
AcDbLine
62
0
6
CONTINUOUS
10
9.1855643137
20
-4.8554273391
11
9.1925463396
21
-4.8519365920
0
LINE
5
316
100
AcDbEntity
8
0
100
AcDbLine
62
0
6
CONTINUOUS
10
9.1855643137
20
5.1445726609
11
9.1925463396
21
5.1410819138
0
LINE
5
317
100
AcDbEntity
8
0
100
AcDbLine
62
0
6
CONTINUOUS
10
-4.7090856085
20
22.5445726609
11
-4.6650183412
21
22.4784708278
0
LINE
5
318
100
AcDbEntity
8
0
100
AcDbLine
62
9
6
CONTINUOUS
10
10.0865467883
20
23.7724038772
11
10.0916373894
21
23.2672223917
0
LINE
5
319
100
AcDbEntity
8
0
100
AcDbLine
62
9
6
CONTINUOUS
10
10.3365425575
20
23.9889102282
11
10.3409143915
21
23.5550578091
0
LINE
5
31A
100
AcDbEntity
8
0
100
AcDbLine
62
0
6
CONTINUOUS
10
9.1855643137
20
-19.5379691573
11
9.1855643137
21
-4.8554273391
0
LINE
5
31B
100
AcDbEntity
8
0
100
AcDbLine
62
0
6
CONTINUOUS
10
9.1855643137
20
5.1445726609
11
9.1855643137
21
19.8271144791
0
LINE
5
31C
100
AcDbEntity
8
0
100
AcDbLine
62
0
6
CONTINUOUS
10
9.1925463396
20
5.1410819138
11
9.1925463396
21
-4.8519365920
0
LINE
5
31D
100
AcDbEntity
8
0
100
AcDbLine
62
0
6
CONTINUOUS
10
9.2361840020
20
4.1458634606
11
9.2361840020
21
-3.8567181389
0
LINE
5
31E
100
AcDbEntity
8
0
100
AcDbLine
62
0
6
CONTINUOUS
10
9.3409143915
20
20.2935437147
11
9.3409143915
21
4.0287223330
0
LINE
5
31F
100
AcDbEntity
8
0
100
AcDbLine
62
0
6
CONTINUOUS
10
9.3409143915
20
-3.7395770112
11
9.3409143915
21
-20.0043983929
0
LINE
5
320
100
AcDbEntity
8
0
100
AcDbLine
62
9
6
CONTINUOUS
10
10.0865467883
20
-23.4832585555
11
10.0865467883
21
-24.3510555051
0
LINE
5
321
100
AcDbEntity
8
0
100
AcDbLine
62
9
6
CONTINUOUS
10
10.0865467883
20
23.7724038772
11
10.0865467883
21
24.6402008269
0
LINE
5
322
100
AcDbEntity
8
0
100
AcDbLine
62
9
6
CONTINUOUS
10
10.3365425575
20
-24.1010597359
11
10.3365425575
21
-23.6997649064
0
LINE
5
323
100
AcDbEntity
8
0
100
AcDbLine
62
9
6
CONTINUOUS
10
10.3365425575
20
23.9889102282
11
10.3365425575
21
24.3902050577
0
LINE
5
324
100
AcDbEntity
8
0
100
AcDbLine
62
0
6
CONTINUOUS
10
10.3409143915
20
-22.2554273391
11
10.3409143915
21
-24.1054315699
0
LINE
5
325
100
AcDbEntity
8
0
100
AcDbLine
62
0
6
CONTINUOUS
10
10.3409143915
20
22.5445726609
11
10.3409143915
21
24.3945768917
0
LINE
5
326
100
AcDbEntity
8
0
100
AcDbLine
62
9
6
CONTINUOUS
10
10.0916373894
20
-22.9780770699
11
10.0865467883
21
-23.4832585555
0
LINE
5
327
100
AcDbEntity
8
0
100
AcDbLine
62
9
6
CONTINUOUS
10
10.3409143915
20
-23.2659124873
11
10.3365425575
21
-23.6997649064
0
LINE
5
328
100
AcDbEntity
8
0
100
AcDbLine
62
0
6
CONTINUOUS
10
6.9897520662
20
-20.7658977195
11
7.0426930768
21
-20.2889981035
0
LINE
5
329
100
AcDbEntity
8
0
100
AcDbLine
62
9
6
CONTINUOUS
10
-10.9547137745
20
-24.1010597359
11
-10.9590856085
21
-24.1054315699
0
LINE
5
32A
100
AcDbEntity
8
0
100
AcDbLine
62
0
6
CONTINUOUS
10
8.3156064749
20
-4.8807352557
11
8.3374236444
21
-4.8589180862
0
LINE
5
32B
100
AcDbEntity
8
0
100
AcDbLine
62
9
6
CONTINUOUS
10
-10.7047180053
20
-24.3510555051
11
-10.7090898393
21
-24.3554273391
0
LINE
5
32C
100
AcDbEntity
8
0
100
AcDbLine
62
9
6
CONTINUOUS
10
-10.9547137745
20
24.3902050577
11
-10.9590856085
21
24.3945768917
0
LINE
5
32D
100
AcDbEntity
8
0
100
AcDbLine
62
0
6
CONTINUOUS
10
8.3156064749
20
5.1698805775
11
8.3374236444
21
5.1480634080
0
LINE
5
32E
100
AcDbEntity
8
0
100
AcDbLine
62
9
6
CONTINUOUS
10
-10.7047180053
20
24.6402008269
11
-10.7090898393
21
24.6445726609
0
LINE
5
32F
100
AcDbEntity
8
0
100
AcDbLine
62
0
6
CONTINUOUS
10
7.0426930768
20
20.5781434253
11
6.9897520662
21
21.0550430413
0
LINE
5
330
100
AcDbEntity
8
0
100
AcDbLine
62
0
6
CONTINUOUS
10
10.8409143915
20
22.0857601206
11
10.8409143915
21
-21.7966147989
0
LINE
5
331
100
AcDbEntity
8
0
100
AcDbLine
62
0
6
CONTINUOUS
10
7.0426930768
20
11.7655352333
11
6.1391357062
21
11.7655352333
0
LINE
5
332
100
AcDbEntity
8
0
100
AcDbLine
62
0
6
CONTINUOUS
10
-6.7573069232
20
11.7655352333
11
-7.6608642938
21
11.7655352333
0
LINE
5
333
100
AcDbEntity
8
0
100
AcDbLine
62
0
6
CONTINUOUS
10
7.9409143915
20
-20.7554273391
11
7.9374271007
21
-20.7658977195
0
LINE
5
334
100
AcDbEntity
8
0
100
AcDbLine
62
0
6
CONTINUOUS
10
-4.7090856085
20
-23.6554273391
11
-4.6654349616
21
-23.6117766922
0
LINE
5
335
100
AcDbEntity
8
0
100
AcDbLine
62
0
6
CONTINUOUS
10
-4.7090856085
20
23.9445726609
11
-4.6654349616
21
23.9009220140
0
LINE
5
336
100
AcDbEntity
8
0
100
AcDbLine
62
0
6
CONTINUOUS
10
7.9374271007
20
21.0550430413
11
7.9409143915
21
21.0445726609
0
LINE
5
337
100
AcDbEntity
8
0
100
AcDbLine
62
0
6
CONTINUOUS
10
6.9327360934
20
-20.8514228848
11
6.9897520662
21
-20.7658977195
0
LINE
5
338
100
AcDbEntity
8
0
100
AcDbLine
62
0
6
CONTINUOUS
10
6.9327360934
20
21.1405682066
11
6.9897520662
21
21.0550430413
0
LINE
5
339
100
AcDbEntity
8
0
100
AcDbLine
62
9
6
CONTINUOUS
10
-7.5516729133
20
18.5966756444
11
-6.8664983036
21
18.5966756444
0
LINE
5
33A
100
AcDbEntity
8
0
100
AcDbLine
62
9
6
CONTINUOUS
10
6.2483270867
20
18.5966756444
11
6.9335016964
21
18.5966756444
0
LINE
5
33B
100
AcDbEntity
8
0
100
AcDbLine
62
9
6
CONTINUOUS
10
-7.5509073104
20
18.7846141685
11
-6.8672639066
21
18.7846141685
0
LINE
5
33C
100
AcDbEntity
8
0
100
AcDbLine
62
9
6
CONTINUOUS
10
6.2490926896
20
18.7846141685
11
6.9327360934
21
18.7846141685
0
LINE
5
33D
100
AcDbEntity
8
0
100
AcDbLine
62
0
6
CONTINUOUS
10
6.1391357062
20
20.0669035376
11
-6.7573069232
21
20.0669035376
0
LINE
5
33E
100
AcDbEntity
8
0
100
AcDbLine
62
0
6
CONTINUOUS
10
9.1855643137
20
-19.5379691573
11
8.4354503805
21
-20.2889981035
0
LINE
5
33F
100
AcDbEntity
8
0
100
AcDbLine
62
0
6
CONTINUOUS
10
9.3409143915
20
-20.0043983929
11
8.5908004584
21
-20.7554273391
0
LINE
5
340
100
AcDbEntity
8
0
100
AcDbLine
62
0
6
CONTINUOUS
10
6.9496412593
20
-22.2467004713
11
7.9409143915
21
-21.2554273391
0
LINE
5
341
100
AcDbEntity
8
0
100
AcDbLine
62
9
6
CONTINUOUS
10
-6.8643803764
20
20.2275159826
11
6.2462091595
21
20.2275159826
0
LINE
5
342
100
AcDbEntity
8
0
100
AcDbLine
62
0
6
CONTINUOUS
10
8.4354503805
20
20.5781434253
11
7.0426930768
21
20.5781434253
0
LINE
5
343
100
AcDbEntity
8
0
100
AcDbLine
62
0
6
CONTINUOUS
10
-7.6608642938
20
20.5781434253
11
-9.0536215975
21
20.5781434253
0
LINE
5
344
100
AcDbEntity
8
0
100
AcDbLine
62
9
6
CONTINUOUS
10
-6.8672639066
20
20.7274969441
11
6.2490926896
21
20.7274969441
0
LINE
5
345
100
AcDbEntity
8
0
100
AcDbLine
62
0
6
CONTINUOUS
10
-9.2089716753
20
21.0445726609
11
-8.5590856085
21
21.0445726609
0
LINE
5
346
100
AcDbEntity
8
0
100
AcDbLine
62
0
6
CONTINUOUS
10
7.9409143915
20
21.0445726609
11
8.5908004584
21
21.0445726609
0
LINE
5
347
100
AcDbEntity
8
0
100
AcDbLine
62
0
6
CONTINUOUS
10
7.9374271007
20
21.0550430413
11
6.9897520662
21
21.0550430413
0
LINE
5
348
100
AcDbEntity
8
0
100
AcDbLine
62
0
6
CONTINUOUS
10
-7.6079232831
20
21.0550430413
11
-8.5555983176
21
21.0550430413
0
LINE
5
349
100
AcDbEntity
8
0
100
AcDbLine
62
0
6
CONTINUOUS
10
7.2750151107
20
21.1405682066
11
6.9327360934
21
21.1405682066
0
LINE
5
34A
100
AcDbEntity
8
0
100
AcDbLine
62
0
6
CONTINUOUS
10
-7.5509073104
20
21.1405682066
11
-7.8931863276
21
21.1405682066
0
LINE
5
34B
100
AcDbEntity
8
0
100
AcDbLine
62
0
6
CONTINUOUS
10
-3.3090856085
20
21.1445726609
11
2.6909143915
21
21.1445726609
0
LINE
5
34C
100
AcDbEntity
8
0
100
AcDbLine
62
9
6
CONTINUOUS
10
7.2750151107
20
21.4572659046
11
2.6909143915
21
21.4572659046
0
LINE
5
34D
100
AcDbEntity
8
0
100
AcDbLine
62
9
6
CONTINUOUS
10
-3.3090856085
20
21.4572659046
11
-7.8931863276
21
21.4572659046
0
LINE
5
34E
100
AcDbEntity
8
0
100
AcDbLine
62
0
6
CONTINUOUS
10
-3.3090856085
20
21.8445726609
11
2.6909143915
21
21.8445726609
0
LINE
5
34F
100
AcDbEntity
8
0
100
AcDbLine
62
0
6
CONTINUOUS
10
6.9496412593
20
22.5358457931
11
7.9409143915
21
21.5445726609
0
LINE
5
350
100
AcDbEntity
8
0
100
AcDbLine
62
0
6
CONTINUOUS
10
9.1855643137
20
19.8271144791
11
8.4354503805
21
20.5781434253
0
LINE
5
351
100
AcDbEntity
8
0
100
AcDbLine
62
0
6
CONTINUOUS
10
9.3409143915
20
20.2935437147
11
8.5908004584
21
21.0445726609
0
LINE
5
352
100
AcDbEntity
8
0
100
AcDbLine
62
9
6
CONTINUOUS
10
7.9452862255
20
-24.1010597359
11
7.9409143915
21
-24.1054315699
0
LINE
5
353
100
AcDbEntity
8
0
100
AcDbLine
62
9
6
CONTINUOUS
10
8.1952819947
20
-24.3510555051
11
8.1909101607
21
-24.3554273391
0
LINE
5
354
100
AcDbEntity
8
0
100
AcDbLine
62
0
6
CONTINUOUS
10
7.7749389583
20
-20.8471356033
11
7.9374271007
21
-20.7658977195
0
LINE
5
355
100
AcDbEntity
8
0
100
AcDbLine
62
9
6
CONTINUOUS
10
7.0282592248
20
22.4572278277
11
2.6909143915
21
22.4572278277
0
LINE
5
356
100
AcDbEntity
8
0
100
AcDbLine
62
9
6
CONTINUOUS
10
-3.3090856085
20
22.4572278277
11
-7.6464304417
21
22.4572278277
0
LINE
5
357
100
AcDbEntity
8
0
100
AcDbLine
62
0
6
CONTINUOUS
10
10.3907772989
20
22.5358457931
11
6.9496412593
21
22.5358457931
0
LINE
5
358
100
AcDbEntity
8
0
100
AcDbLine
62
0
6
CONTINUOUS
10
3.1909143915
20
22.5358457931
11
2.6909143915
21
22.5358457931
0
LINE
5
359
100
AcDbEntity
8
0
100
AcDbLine
62
0
6
CONTINUOUS
10
-3.3090856085
20
22.5358457931
11
-3.8090856085
21
22.5358457931
0
LINE
5
35A
100
AcDbEntity
8
0
100
AcDbLine
62
0
6
CONTINUOUS
10
-7.5678124763
20
22.5358457931
11
-11.0089485158
21
22.5358457931
0
LINE
5
35B
100
AcDbEntity
8
0
100
AcDbLine
62
0
6
CONTINUOUS
10
-10.9914934509
20
22.5445726609
11
-4.7090856085
21
22.5445726609
0
LINE
5
35C
100
AcDbEntity
8
0
100
AcDbLine
62
0
6
CONTINUOUS
10
4.0909143915
20
22.5445726609
11
10.3733222340
21
22.5445726609
0
LINE
5
35D
100
AcDbEntity
8
0
100
AcDbLine
62
0
6
CONTINUOUS
10
10.0916373894
20
23.2672223917
11
8.1901913937
21
23.2672223917
0
LINE
5
35E
100
AcDbEntity
8
0
100
AcDbLine
62
0
6
CONTINUOUS
10
-8.8083626106
20
23.2672223917
11
-10.7098086063
21
23.2672223917
0
LINE
5
35F
100
AcDbEntity
8
0
100
AcDbLine
62
0
6
CONTINUOUS
10
7.7749389583
20
21.1362809251
11
7.9374271007
21
21.0550430413
0
LINE
5
360
100
AcDbEntity
8
0
100
AcDbLine
62
9
6
CONTINUOUS
10
7.9452862255
20
24.3902050577
11
7.9409143915
21
24.3945768917
0
LINE
5
361
100
AcDbEntity
8
0
100
AcDbLine
62
9
6
CONTINUOUS
10
8.1952819947
20
24.6402008269
11
8.1909101607
21
24.6445726609
0
LINE
5
362
100
AcDbEntity
8
0
100
AcDbLine
62
9
6
CONTINUOUS
10
10.3907772989
20
-22.2467004713
11
10.3733222340
21
-22.2554273391
0
LINE
5
363
100
AcDbEntity
8
0
100
AcDbLine
62
9
6
CONTINUOUS
10
-10.7047180053
20
23.7724038772
11
-8.8134532117
21
23.7724038772
0
LINE
5
364
100
AcDbEntity
8
0
100
AcDbLine
62
9
6
CONTINUOUS
10
8.1952819947
20
23.7724038772
11
10.0865467883
21
23.7724038772
0
LINE
5
365
100
AcDbEntity
8
0
100
AcDbLine
62
9
6
CONTINUOUS
10
-4.6654349616
20
23.9009220140
11
-3.8090856085
21
23.9009220140
0
LINE
5
366
100
AcDbEntity
8
0
100
AcDbLine
62
9
6
CONTINUOUS
10
3.1909143915
20
23.9009220140
11
4.0472637447
21
23.9009220140
0
LINE
5
367
100
AcDbEntity
8
0
100
AcDbLine
62
0
6
CONTINUOUS
10
-3.8090856085
20
23.9387548311
11
3.1909143915
21
23.9387548311
0
LINE
5
368
100
AcDbEntity
8
0
100
AcDbLine
62
0
6
CONTINUOUS
10
4.0909143915
20
23.9445726609
11
-4.7090856085
21
23.9445726609
0
LINE
5
369
100
AcDbEntity
8
0
100
AcDbLine
62
9
6
CONTINUOUS
10
-10.9547137745
20
23.9889102282
11
-8.5634574425
21
23.9889102282
0
LINE
5
36A
100
AcDbEntity
8
0
100
AcDbLine
62
9
6
CONTINUOUS
10
7.9452862255
20
23.9889102282
11
10.3365425575
21
23.9889102282
0
LINE
5
36B
100
AcDbEntity
8
0
100
AcDbLine
62
9
6
CONTINUOUS
10
-10.9547137745
20
24.3902050577
11
-8.5634574425
21
24.3902050577
0
LINE
5
36C
100
AcDbEntity
8
0
100
AcDbLine
62
9
6
CONTINUOUS
10
7.9452862255
20
24.3902050577
11
10.3365425575
21
24.3902050577
0
LINE
5
36D
100
AcDbEntity
8
0
100
AcDbLine
62
9
6
CONTINUOUS
10
10.0865467883
20
24.6402008269
11
8.1952819947
21
24.6402008269
0
LINE
5
36E
100
AcDbEntity
8
0
100
AcDbLine
62
9
6
CONTINUOUS
10
-8.8134532117
20
24.6402008269
11
-10.7047180053
21
24.6402008269
0
LINE
5
36F
100
AcDbEntity
8
0
100
AcDbLine
62
0
6
CONTINUOUS
10
10.0909186223
20
24.6445726609
11
8.1909101607
21
24.6445726609
0
LINE
5
370
100
AcDbEntity
8
0
100
AcDbLine
62
0
6
CONTINUOUS
10
-8.8090813777
20
24.6445726609
11
-10.7090898393
21
24.6445726609
0
LINE
5
371
100
AcDbEntity
8
0
100
AcDbLine
62
9
6
CONTINUOUS
10
10.3733222340
20
22.5445726609
11
10.3907772989
21
22.5358457931
0
ARC
5
372
100
AcDbEntity
8
0
100
AcDbCircle
62
0
6
CONTINUOUS
10
-0.3090856085
20
0.1445726609
40
8.4500000000
100
AcDbArc
50
190.8118361094
51
349.1881638906
0
ARC
5
373
100
AcDbEntity
8
0
100
AcDbCircle
62
0
6
CONTINUOUS
10
-0.3090856085
20
0.1445726609
40
8.4500000000
100
AcDbArc
50
10.8118361094
51
169.1881638906
0
ARC
5
374
100
AcDbEntity
8
0
100
AcDbCircle
62
0
6
CONTINUOUS
10
-0.3090856085
20
0.1445726609
40
9.9250000000
100
AcDbArc
50
81.3052116472
51
98.6947883528
0
ARC
5
375
100
AcDbEntity
8
0
100
AcDbCircle
62
0
6
CONTINUOUS
10
-0.3090856085
20
0.1445726609
40
5.3050000000
100
AcDbArc
50
69.3721048525
51
83.4479109757
0
ARC
5
376
100
AcDbEntity
8
0
100
AcDbCircle
62
0
6
CONTINUOUS
10
-0.3090856085
20
0.1445726609
40
5.3050000000
100
AcDbArc
50
276.5520890243
51
290.6278951475
0
ARC
5
377
100
AcDbEntity
8
0
100
AcDbCircle
62
0
6
CONTINUOUS
10
-0.3090856085
20
0.1445726609
40
5.3050000000
100
AcDbArc
50
249.3721048525
51
263.4479109757
0
ARC
5
378
100
AcDbEntity
8
0
100
AcDbCircle
62
0
6
CONTINUOUS
10
-0.3090856085
20
0.1445726609
40
5.3050000000
100
AcDbArc
50
96.5520890243
51
110.6278951475
0
CIRCLE
5
379
100
AcDbEntity
8
0
100
AcDbCircle
62
0
6
CONTINUOUS
10
3.4409143915
20
0.1445726609
40
0.7500000000
0
CIRCLE
5
37A
100
AcDbEntity
8
0
100
AcDbCircle
62
0
6
CONTINUOUS
10
2.3425648210
20
-2.5070777686
40
0.7500000000
0
ARC
5
37B
100
AcDbEntity
8
0
100
AcDbCircle
62
0
6
CONTINUOUS
10
-0.3090856085
20
0.1445726609
40
6.4500000000
100
AcDbArc
50
263.4632115970
51
276.5367884030
0
CIRCLE
5
37C
100
AcDbEntity
8
0
100
AcDbCircle
62
0
6
CONTINUOUS
10
-0.3090856085
20
-3.6054273391
40
0.7500000000
0
ARC
5
37D
100
AcDbEntity
8
0
100
AcDbCircle
62
0
6
CONTINUOUS
10
-0.3090856085
20
0.1445726609
40
5.8500000000
100
AcDbArc
50
109.9693622944
51
250.0306377056
0
ARC
5
37E
100
AcDbEntity
8
0
100
AcDbCircle
62
0
6
CONTINUOUS
10
-0.3090856085
20
0.1445726609
40
6.4500000000
100
AcDbArc
50
83.4632115970
51
96.5367884030
0
CIRCLE
5
37F
100
AcDbEntity
8
0
100
AcDbCircle
62
0
6
CONTINUOUS
10
-2.9607360379
20
-2.5070777686
40
0.7500000000
0
ARC
5
380
100
AcDbEntity
8
0
100
AcDbCircle
62
0
6
CONTINUOUS
10
-0.3090856085
20
0.1445726609
40
5.8500000000
100
AcDbArc
50
289.9693622944
51
70.0306377056
0
CIRCLE
5
381
100
AcDbEntity
8
0
100
AcDbCircle
62
0
6
CONTINUOUS
10
-0.3090856085
20
0.6445726609
40
1.4500000000
0
CIRCLE
5
382
100
AcDbEntity
8
0
100
AcDbCircle
62
0
6
CONTINUOUS
10
-4.0590856085
20
0.1445726609
40
0.7500000000
0
CIRCLE
5
383
100
AcDbEntity
8
0
100
AcDbCircle
62
0
6
CONTINUOUS
10
3.4409143915
20
0.1445726609
40
1.0500000000
0
ARC
5
384
100
AcDbEntity
8
0
100
AcDbCircle
62
0
6
CONTINUOUS
10
-0.3090856085
20
0.1445726609
40
6.4500000000
100
AcDbArc
50
289.3738034047
51
70.6261965953
0
ARC
5
385
100
AcDbEntity
8
0
100
AcDbCircle
62
0
6
CONTINUOUS
10
-0.3090856085
20
0.1445726609
40
6.4500000000
100
AcDbArc
50
109.3738034047
51
250.6261965953
0
CIRCLE
5
386
100
AcDbEntity
8
0
100
AcDbCircle
62
0
6
CONTINUOUS
10
2.3425648210
20
-2.5070777686
40
1.0500000000
0
CIRCLE
5
387
100
AcDbEntity
8
0
100
AcDbCircle
62
0
6
CONTINUOUS
10
-0.3090856085
20
-3.6054273391
40
1.0500000000
0
CIRCLE
5
388
100
AcDbEntity
8
0
100
AcDbCircle
62
0
6
CONTINUOUS
10
-2.9607360379
20
-2.5070777686
40
1.0500000000
0
CIRCLE
5
389
100
AcDbEntity
8
0
100
AcDbCircle
62
0
6
CONTINUOUS
10
-4.0590856085
20
0.1445726609
40
1.0500000000
0
ARC
5
38A
100
AcDbEntity
8
0
100
AcDbCircle
62
0
6
CONTINUOUS
10
-0.3090856085
20
0.1445726609
40
7.8500000000
100
AcDbArc
50
278.8403174827
51
288.3396666891
0
ARC
5
38B
100
AcDbEntity
8
0
100
AcDbCircle
62
0
6
CONTINUOUS
10
-0.3090856085
20
0.1445726609
40
7.8500000000
100
AcDbArc
50
71.6603333109
51
81.1596825173
0
ARC
5
38C
100
AcDbEntity
8
0
100
AcDbCircle
62
0
6
CONTINUOUS
10
-0.3090856085
20
0.1445726609
40
7.8500000000
100
AcDbArc
50
98.8403174827
51
108.3396666891
0
ARC
5
38D
100
AcDbEntity
8
0
100
AcDbCircle
62
0
6
CONTINUOUS
10
-0.3090856085
20
0.1445726609
40
7.8500000000
100
AcDbArc
50
251.6603333109
51
261.1596825173
0
ARC
5
38E
100
AcDbEntity
8
0
100
AcDbCircle
62
0
6
CONTINUOUS
10
-0.3090856085
20
0.1445726609
40
10.0500000000
100
AcDbArc
50
81.4163119611
51
98.5837337567
0
ARC
5
38F
100
AcDbEntity
8
0
100
AcDbCircle
62
0
6
CONTINUOUS
10
-0.3090856085
20
0.1445726609
40
9.1500000000
100
AcDbArc
50
99.4353386740
51
80.5646609132
0
ARC
5
390
100
AcDbEntity
8
0
100
AcDbCircle
62
0
6
CONTINUOUS
10
-0.3090856085
20
0.1445726609
40
11.2500000000
100
AcDbArc
50
219.7457833723
51
320.2542166277
0
ARC
5
391
100
AcDbEntity
8
0
100
AcDbCircle
62
0
6
CONTINUOUS
10
-0.3090856085
20
0.1445726609
40
9.1561088075
100
AcDbArc
50
146.8751832656
51
213.1248167344
0
ARC
5
392
100
AcDbEntity
8
0
100
AcDbCircle
62
0
6
CONTINUOUS
10
-0.3090856085
20
0.1445726609
40
9.1561088075
100
AcDbArc
50
326.8751832656
51
33.1248167344
0
ARC
5
393
100
AcDbEntity
8
0
100
AcDbCircle
62
0
6
CONTINUOUS
10
-0.3090856085
20
0.1445726609
40
11.2500000000
100
AcDbArc
50
39.7457833723
51
140.2542166277
0
ARC
5
394
100
AcDbEntity
8
0
100
AcDbCircle
62
0
6
CONTINUOUS
10
-0.3090856085
20
0.1445726609
40
9.1779259769
100
AcDbArc
50
33.1986062456
51
80.4168743760
0
ARC
5
395
100
AcDbEntity
8
0
100
AcDbCircle
62
0
6
CONTINUOUS
10
-0.3090856085
20
0.1445726609
40
11.2246920834
100
AcDbArc
50
39.7924549108
51
140.2075450892
0
ARC
5
396
100
AcDbEntity
8
0
100
AcDbCircle
62
0
6
CONTINUOUS
10
-0.3090856085
20
0.1445726609
40
9.1779259769
100
AcDbArc
50
99.5831256240
51
146.8013937544
0
ARC
5
397
100
AcDbEntity
8
0
100
AcDbCircle
62
0
6
CONTINUOUS
10
-0.3090856085
20
0.1445726609
40
10.0779259769
100
AcDbArc
50
81.2796932165
51
98.7203067835
0
ARC
5
398
100
AcDbEntity
8
0
100
AcDbCircle
62
0
6
CONTINUOUS
10
-0.3090856085
20
0.1445726609
40
9.1779259769
100
AcDbArc
50
213.1986062456
51
326.8013937544
0
ARC
5
399
100
AcDbEntity
8
0
100
AcDbCircle
62
0
6
CONTINUOUS
10
-0.3090856085
20
0.1445726609
40
11.2246920834
100
AcDbArc
50
219.7924549108
51
320.2075450892
0
ARC
5
39A
100
AcDbEntity
8
0
100
AcDbCircle
62
0
6
CONTINUOUS
10
-0.3090856085
20
0.1445726609
40
10.3500000000
100
AcDbArc
50
157.2570090545
51
202.7429909455
0
ARC
5
39B
100
AcDbEntity
8
0
100
AcDbCircle
62
0
6
CONTINUOUS
10
-0.3090856085
20
0.1445726609
40
10.4023612067
100
AcDbArc
50
158.0750887148
51
201.9249112852
0
ARC
5
39C
100
AcDbEntity
8
0
100
AcDbCircle
62
0
6
CONTINUOUS
10
-0.3090856085
20
0.1445726609
40
10.4023612067
100
AcDbArc
50
338.0750887148
51
21.9249112852
0
ARC
5
39D
100
AcDbEntity
8
0
100
AcDbCircle
62
0
6
CONTINUOUS
10
-0.3090856085
20
0.1445726609
40
10.3500000000
100
AcDbArc
50
337.2570090545
51
22.7429909455
0
SPLINE
5
39E
100
AcDbEntity
8
0
100
AcDbSpline
62
0
6
CONTINUOUS
70
0
71
3
72
8
73
4
74
2
42
0.0000001000
43
0.0000001000
44
0.0000000001
12
0.1531571424
22
0.3890477768
32
0.0000000000
13
0.1713695975
23
0.3817208484
33
0.0000000000
40
0.0000000000
40
0.0000000000
40
0.0000000000
40
0.0000000000
40
1.0000000000
40
1.0000000000
40
1.0000000000
40
1.0000000000
10
-8.6090856085
20
3.4120486723
30
0.0000000000
10
-8.5580332277
20
3.5417312645
30
0.0000000000
10
-8.5039072203
20
3.6702750455
30
0.0000000000
10
-8.4467840211
20
3.7975153283
30
0.0000000000
11
-8.6090856085
21
3.4120486723
31
0.0000000000
11
-8.4467840211
21
3.7975153283
31
0.0000000000
0
SPLINE
5
39F
100
AcDbEntity
8
0
100
AcDbSpline
62
0
6
CONTINUOUS
70
0
71
3
72
16
73
12
74
10
42
0.0000001000
43
0.0000001000
44
0.0000000001
12
4.1110936869
22
9.1573429189
32
0.0000000000
13
10.0358085892
23
0.2351697297
33
0.0000000000
40
0.0000000000
40
0.0000000000
40
0.0000000000
40
0.0000000000
40
0.0833174990
40
0.2083196669
40
0.3333218305
40
0.4583239897
40
0.5833261448
40
0.7083282958
40
0.8333304429
40
0.9583325861
40
1.0000000000
40
1.0000000000
40
1.0000000000
40
1.0000000000
10
-8.4467840211
20
3.7975153283
30
0.0000000000
10
-8.3326086730
20
4.0518376315
30
0.0000000000
10
-8.0171964090
20
4.6747021134
30
0.0000000000
10
-7.3988540671
20
5.6060725288
30
0.0000000000
10
-6.5630131104
20
6.5462509490
30
0.0000000000
10
-5.6036353324
20
7.3598844302
30
0.0000000000
10
-4.5396438172
20
8.0309784794
30
0.0000000000
10
-3.3920689098
20
8.5462523103
30
0.0000000000
10
-2.1835815344
20
8.8955312220
30
0.0000000000
10
-1.2148416565
20
9.0327169170
30
0.0000000000
10
-0.6575939030
20
9.0588474587
30
0.0000000000
10
-0.5182051728
20
9.0621137635
30
0.0000000000
11
-8.4467840211
21
3.7975153283
31
0.0000000000
11
-8.0689467358
21
4.5435446710
31
0.0000000000
11
-7.3754924287
21
5.5881279413
31
0.0000000000
11
-6.5424236249
21
6.5251601408
31
0.0000000000
11
-5.5861996927
21
7.3361278706
31
0.0000000000
11
-4.5257132338
21
8.0050084527
31
0.0000000000
11
-3.3819168131
21
8.5185864973
31
0.0000000000
11
-2.1774089873
21
8.8667150051
31
0.0000000000
11
-0.9359878150
21
9.0425158456
31
0.0000000000
11
-0.5182051728
21
9.0621137635
31
0.0000000000
0
SPLINE
5
3A0
100
AcDbEntity
8
0
100
AcDbSpline
62
0
6
CONTINUOUS
70
0
71
3
72
9
73
5
74
3
42
0.0000001000
43
0.0000001000
44
0.0000000001
12
-0.6123580840
22
-1.5555039958
32
0.0000000000
13
-0.8924404753
23
-1.4152201511
33
0.0000000000
40
0.0000000000
40
0.0000000000
40
0.0000000000
40
0.0000000000
40
0.7500203089
40
1.0000000000
40
1.0000000000
40
1.0000000000
40
1.0000000000
10
7.9909143915
20
-3.1229034129
30
0.0000000000
10
7.8378207251
20
-3.5117899420
30
0.0000000000
10
7.5968494099
20
-4.0166372337
30
0.0000000000
10
7.3104076016
20
-4.4953849140
30
0.0000000000
10
7.2360436035
20
-4.6133103461
30
0.0000000000
11
7.9909143915
21
-3.1229034129
31
0.0000000000
11
7.4507754270
21
-4.2543995588
31
0.0000000000
11
7.2360436035
21
-4.6133103461
31
0.0000000000
0
SPLINE
5
3A1
100
AcDbEntity
8
0
100
AcDbSpline
62
0
6
CONTINUOUS
70
0
71
3
72
22
73
18
74
16
42
0.0000001000
43
0.0000001000
44
0.0000000001
12
-9.3709157347
22
-14.8602726443
32
0.0000000000
13
-10.0561037081
23
14.4034896541
33
0.0000000000
40
0.0000000000
40
0.0000000000
40
0.0000000000
40
0.0000000000
40
0.0476214346
40
0.1190497165
40
0.1904779946
40
0.2619062691
40
0.3333345400
40
0.4047628074
40
0.4761910713
40
0.5476193318
40
0.6190475890
40
0.6904758428
40
0.7619040934
40
0.8333323408
40
0.9047605851
40
0.9761888262
40
1.0000000000
40
1.0000000000
40
1.0000000000
40
1.0000000000
10
7.2360436035
20
-4.6133103461
30
0.0000000000
10
7.0872914532
20
-4.8491995134
30
0.0000000000
10
6.6878214663
20
-5.4213804894
30
0.0000000000
10
5.9448415606
20
-6.2571059942
30
0.0000000000
10
4.9854636507
20
-7.0707394859
30
0.0000000000
10
3.9214720154
20
-7.7418335041
30
0.0000000000
10
2.7738970097
20
-8.2571072693
30
0.0000000000
10
1.5654095658
20
-8.6063860895
30
0.0000000000
10
0.3198869887
20
-8.7827675684
30
0.0000000000
10
-0.9380624922
20
-8.7827672626
30
0.0000000000
10
-2.1835848658
20
-8.6063852033
30
0.0000000000
10
-3.3920719185
20
-8.2571058945
30
0.0000000000
10
-4.5396463760
20
-7.7418317878
30
0.0000000000
10
-5.6036373503
20
-7.0707376221
30
0.0000000000
10
-6.5630145424
20
-6.2571042122
30
0.0000000000
10
-7.2131194914
20
-5.5258468096
30
0.0000000000
10
-7.5430776833
20
-5.0760794841
30
0.0000000000
10
-7.6228935608
20
-4.9617581525
30
0.0000000000
11
7.2360436035
21
-4.6133103461
31
0.0000000000
11
6.7573210018
21
-5.2989829312
31
0.0000000000
11
5.9242520672
21
-6.2360151861
31
0.0000000000
11
4.9680280040
21
-7.0469829259
31
0.0000000000
11
3.9075414260
21
-7.7158634768
31
0.0000000000
11
2.7637449076
21
-8.2294414558
31
0.0000000000
11
1.5592370138
21
-8.5775698723
31
0.0000000000
11
0.3178158082
21
-8.7533706064
31
0.0000000000
11
-0.9359913371
21
-8.7533703016
31
0.0000000000
11
-2.1774123407
21
-8.5775689890
31
0.0000000000
11
-3.3819198461
21
-8.2294400850
31
0.0000000000
11
-4.5257158202
21
-7.7158617647
31
0.0000000000
11
-5.5862017422
21
-7.0469810651
31
0.0000000000
11
-6.5424250928
21
-6.2360134044
31
0.0000000000
11
-7.3754933227
21
-5.2989814776
31
0.0000000000
11
-7.6228935608
21
-4.9617581525
31
0.0000000000
0
SPLINE
5
3A2
100
AcDbEntity
8
0
100
AcDbSpline
62
0
6
CONTINUOUS
70
0
71
3
72
9
73
5
74
3
42
0.0000001000
43
0.0000001000
44
0.0000000001
12
-1.1971318790
22
1.7146677415
32
0.0000000000
13
-0.7654564289
23
1.9444024442
33
0.0000000000
40
0.0000000000
40
0.0000000000
40
0.0000000000
40
0.0000000000
40
0.3999911342
40
1.0000000000
40
1.0000000000
40
1.0000000000
40
1.0000000000
10
-7.6228935608
20
-4.9617581525
30
0.0000000000
10
-7.7825076069
20
-4.7331408543
30
0.0000000000
10
-8.1547744788
20
-4.1428560167
30
0.0000000000
10
-8.4559920606
20
-3.5117896034
30
0.0000000000
10
-8.6090856085
20
-3.1229033683
30
0.0000000000
11
-7.6228935608
21
-4.9617581525
31
0.0000000000
11
-8.0689471210
21
-4.2543986880
31
0.0000000000
11
-8.6090856085
21
-3.1229033683
31
0.0000000000
0
SPLINE
5
3A3
100
AcDbEntity
8
0
100
AcDbSpline
62
0
6
CONTINUOUS
70
0
71
3
72
8
73
4
74
2
42
0.0000001000
43
0.0000001000
44
0.0000000001
12
0.4023815388
22
0.0092558600
32
0.0000000000
13
0.4026694182
23
-0.0089311674
33
0.0000000000
40
0.0000000000
40
0.0000000000
40
0.0000000000
40
0.0000000000
40
1.0000000000
40
1.0000000000
40
1.0000000000
40
1.0000000000
10
-0.5142153896
20
9.0622137038
30
0.0000000000
10
-0.3800882100
20
9.0652989905
30
0.0000000000
10
-0.2458321318
20
9.0653503313
30
0.0000000000
10
-0.1116089924
20
9.0623732755
30
0.0000000000
11
-0.5142153896
21
9.0622137038
31
0.0000000000
11
-0.1116089924
21
9.0623732755
31
0.0000000000
0
SPLINE
5
3A4
100
AcDbEntity
8
0
100
AcDbSpline
62
0
6
CONTINUOUS
70
0
71
3
72
15
73
11
74
9
42
0.0000001000
43
0.0000001000
44
0.0000000001
12
9.2576811245
22
-0.2053344401
32
0.0000000000
13
4.5251789567
23
-8.0818036815
33
0.0000000000
40
0.0000000000
40
0.0000000000
40
0.0000000000
40
0.0000000000
40
0.0869412809
40
0.2173782643
40
0.3478152396
40
0.4782522071
40
0.6086891668
40
0.7391261188
40
0.8695630631
40
1.0000000000
40
1.0000000000
40
1.0000000000
40
1.0000000000
10
-0.1116089924
20
9.0623732755
30
0.0000000000
10
0.1566825594
20
9.0564225958
30
0.0000000000
10
0.8271597305
20
9.0112916271
30
0.0000000000
10
1.8857097436
20
8.8184956283
30
0.0000000000
10
3.0366775903
20
8.4427764709
30
0.0000000000
10
4.1263233922
20
7.9151182018
30
0.0000000000
10
5.1347754786
20
7.2451787905
30
0.0000000000
10
6.0435408854
20
6.4452436008
30
0.0000000000
10
6.8360142535
20
5.5298873153
30
0.0000000000
10
7.2770567954
20
4.8540552301
30
0.0000000000
10
7.4738069560
20
4.5026666579
30
0.0000000000
11
-0.1116089924
21
9.0623732755
31
0.0000000000
11
0.6915783896
21
9.0082666740
31
0.0000000000
11
1.8790500875
21
8.7920267468
31
0.0000000000
11
3.0264572833
21
8.4174532720
31
0.0000000000
11
4.1127911376
21
7.8914046602
31
0.0000000000
11
5.1181610603
21
7.2235128057
31
0.0000000000
11
6.0241589037
21
6.4260067265
31
0.0000000000
11
6.8141960121
21
5.5134886520
31
0.0000000000
11
7.4738069560
21
4.5026666579
31
0.0000000000
0
SPLINE
5
3A5
100
AcDbEntity
8
0
100
AcDbSpline
62
0
6
CONTINUOUS
70
0
71
3
72
8
73
4
74
2
42
0.0000001000
43
0.0000001000
44
0.0000000001
12
0.5902504483
22
-1.0541656566
32
0.0000000000
13
0.4421347137
23
-1.1231048172
33
0.0000000000
40
0.0000000000
40
0.0000000000
40
0.0000000000
40
0.0000000000
40
1.0000000000
40
1.0000000000
40
1.0000000000
40
1.0000000000
10
7.4738069560
20
4.5026666579
30
0.0000000000
10
7.6705571055
20
4.1512781057
30
0.0000000000
10
7.8435361536
20
3.7864170158
30
0.0000000000
10
7.9909143915
20
3.4120487434
30
0.0000000000
11
7.4738069560
21
4.5026666579
31
0.0000000000
11
7.9909143915
21
3.4120487434
31
0.0000000000
0
SPLINE
5
3A6
100
AcDbEntity
8
0
100
AcDbSpline
62
0
6
CONTINUOUS
70
0
71
3
72
11
73
7
74
5
42
0.0000001000
43
0.0000001000
44
0.0000000001
12
0.1866259954
22
0.0933111920
32
0.0000000000
13
0.2084756136
23
0.0000000003
33
0.0000000000
40
0.0000000000
40
0.0000000000
40
0.0000000000
40
0.0000000000
40
0.0747601706
40
0.3827092822
40
0.6907316443
40
1.0000000000
40
1.0000000000
40
1.0000000000
40
1.0000000000
10
-11.1927531719
20
22.4970750456
30
0.0000000000
10
-11.1881024415
20
22.4994003658
30
0.0000000000
10
-11.1640882552
20
22.5108915102
30
0.0000000000
10
-11.1189688276
20
22.5277484561
30
0.0000000000
10
-11.0559459625
20
22.5414987364
30
0.0000000000
10
-11.0129850876
20
22.5445726609
30
0.0000000000
10
-10.9914934509
20
22.5445726609
30
0.0000000000
11
-11.1927531719
21
22.4970750456
31
0.0000000000
11
-11.1786827796
21
22.5038077371
31
0.0000000000
11
-11.1185434655
21
22.5262774387
31
0.0000000000
11
-11.0558032514
21
22.5399614125
31
0.0000000000
11
-10.9914934509
21
22.5445726609
31
0.0000000000
0
SPLINE
5
3A7
100
AcDbEntity
8
0
100
AcDbSpline
62
0
6
CONTINUOUS
70
0
71
3
72
15
73
11
74
9
42
0.0000001000
43
0.0000001000
44
0.0000000001
12
-0.4457073323
22
-0.2228573874
32
0.0000000000
13
0.0000000000
23
-0.4978982073
33
0.0000000000
40
0.0000000000
40
0.0000000000
40
0.0000000000
40
0.0000000000
40
0.0964765027
40
0.2256966879
40
0.3556448788
40
0.4848709142
40
0.6130127965
40
0.7422716168
40
0.8717870463
40
1.0000000000
40
1.0000000000
40
1.0000000000
40
1.0000000000
10
-11.2102580297
20
22.4883232716
30
0.0000000000
10
-11.2245914579
20
22.4811564378
30
0.0000000000
10
-11.2572273039
20
22.4626002449
30
0.0000000000
10
-11.3046640298
20
22.4271378097
30
0.0000000000
10
-11.3504018134
20
22.3813997755
30
0.0000000000
10
-11.3890215048
20
22.3297380036
30
0.0000000000
10
-11.4198577089
20
22.2732217866
30
0.0000000000
10
-11.4423736670
20
22.2128461683
30
0.0000000000
10
-11.4560412870
20
22.1498750168
30
0.0000000000
10
-11.4590856085
20
22.1070391206
30
0.0000000000
10
-11.4590856085
20
22.0857601206
30
0.0000000000
11
-11.2102580297
21
22.4883232716
31
0.0000000000
11
-11.2520299151
21
22.4645708254
31
0.0000000000
11
-11.3035604808
21
22.4260475441
31
0.0000000000
11
-11.3493107959
21
22.3802968681
31
0.0000000000
11
-11.3878348877
21
22.3287632716
31
0.0000000000
11
-11.4183930165
21
22.2727557128
31
0.0000000000
11
-11.4408817787
21
22.2124550194
31
0.0000000000
11
-11.4545574079
21
22.1494363167
31
0.0000000000
11
-11.4590856085
21
22.0857601206
31
0.0000000000
0
SPLINE
5
3A8
100
AcDbEntity
8
0
100
AcDbSpline
62
0
6
CONTINUOUS
70
0
71
3
72
11
73
7
74
5
42
0.0000001000
43
0.0000001000
44
0.0000000001
12
0.1866260954
22
-0.0933112425
32
0.0000000000
13
0.2084757254
23
-0.0000000001
33
0.0000000000
40
0.0000000000
40
0.0000000000
40
0.0000000000
40
0.0000000000
40
0.0747600286
40
0.3827091501
40
0.6907315570
40
1.0000000000
40
1.0000000000
40
1.0000000000
40
1.0000000000
10
-11.1927532758
20
-22.2079296718
30
0.0000000000
10
-11.1881025518
20
-22.2102549888
30
0.0000000000
10
-11.1640883614
20
-22.2217461365
30
0.0000000000
10
-11.1189689173
20
-22.2386030949
30
0.0000000000
10
-11.0559460113
20
-22.2523533922
30
0.0000000000
10
-11.0129851052
20
-22.2554273391
30
0.0000000000
10
-10.9914934509
20
-22.2554273391
30
0.0000000000
11
-11.1927532758
21
-22.2079296718
31
0.0000000000
11
-11.1786829030
21
-22.2146623548
31
0.0000000000
11
-11.1185435573
21
-22.2371320759
31
0.0000000000
11
-11.0558033029
21
-22.2508160705
31
0.0000000000
11
-10.9914934509
21
-22.2554273391
31
0.0000000000
0
SPLINE
5
3A9
100
AcDbEntity
8
0
100
AcDbSpline
62
0
6
CONTINUOUS
70
0
71
3
72
11
73
7
74
5
42
0.0000001000
43
0.0000001000
44
0.0000000001
12
-0.1866268865
22
-0.0933116412
32
0.0000000000
13
-0.2084766108
23
-0.0000001645
33
0.0000000000
40
0.0000000000
40
0.0000000000
40
0.0000000000
40
0.0000000000
40
0.0747585204
40
0.3827078459
40
0.6907307298
40
1.0000000000
40
1.0000000000
40
1.0000000000
40
1.0000000000
10
10.5745828817
20
-22.2079292601
30
0.0000000000
10
10.5699322317
20
-22.2102545402
30
0.0000000000
10
10.5459180263
20
-22.2217457078
30
0.0000000000
10
10.5007984632
20
-22.2386027680
30
0.0000000000
10
10.4377752090
20
-22.2523532221
30
0.0000000000
10
10.3948140371
20
-22.2554273221
30
0.0000000000
10
10.3733222340
20
-22.2554273391
30
0.0000000000
11
10.5745828817
21
-22.2079292601
31
0.0000000000
11
10.5605127358
21
-22.2146618420
31
0.0000000000
11
10.5003731186
21
-22.2371317372
31
0.0000000000
11
10.4376325216
21
-22.2508159077
31
0.0000000000
11
10.3733222340
21
-22.2554273391
31
0.0000000000
0
SPLINE
5
3AA
100
AcDbEntity
8
0
100
AcDbSpline
62
0
6
CONTINUOUS
70
0
71
3
72
15
73
11
74
9
42
0.0000001000
43
0.0000001000
44
0.0000000001
12
0.4457630340
22
0.2228419816
32
0.0000000000
13
0.0000000000
23
0.4979340247
33
0.0000000000
40
0.0000000000
40
0.0000000000
40
0.0000000000
40
0.0000000000
40
0.0973271354
40
0.2260972216
40
0.3552949958
40
0.4840559134
40
0.6132095317
40
0.7420195137
40
0.8710792965
40
1.0000000000
40
1.0000000000
40
1.0000000000
40
1.0000000000
10
10.5920547330
20
-22.1991939471
30
0.0000000000
10
10.6065163460
20
-22.1919644232
30
0.0000000000
10
10.6392066734
20
-22.1733601923
30
0.0000000000
10
10.6865763814
20
-22.1379013649
30
0.0000000000
10
10.7321208722
20
-22.0923592140
30
0.0000000000
10
10.7707576601
20
-22.0407493631
30
0.0000000000
10
10.8016273708
20
-21.9842227110
30
0.0000000000
10
10.8241537385
20
-21.9238290302
30
0.0000000000
10
10.8378496412
20
-21.8608946827
30
0.0000000000
10
10.8409143915
20
-21.8180128005
30
0.0000000000
10
10.8409143915
20
-21.7966147989
30
0.0000000000
11
10.5920547330
21
-22.1991939471
31
0.0000000000
11
10.6341887260
21
-22.1752135632
31
0.0000000000
11
10.6855194178
21
-22.1367895191
31
0.0000000000
11
10.7310101036
21
-22.0913010637
31
0.0000000000
11
10.7694338338
21
-22.0399758397
31
0.0000000000
11
10.8002568317
21
-21.9835336883
31
0.0000000000
11
10.8226725062
21
-21.9234393247
31
0.0000000000
11
10.8363354025
21
-21.8606452846
31
0.0000000000
11
10.8409143915
21
-21.7966147989
31
0.0000000000
0
SPLINE
5
3AB
100
AcDbEntity
8
0
100
AcDbSpline
62
0
6
CONTINUOUS
70
0
71
3
72
11
73
7
74
5
42
0.0000001000
43
0.0000001000
44
0.0000000001
12
-0.1866265666
22
0.0933114806
32
0.0000000000
13
-0.2084762528
23
-0.0000000204
33
0.0000000000
40
0.0000000000
40
0.0000000000
40
0.0000000000
40
0.0000000000
40
0.0747594302
40
0.3827085325
40
0.6907311312
40
1.0000000000
40
1.0000000000
40
1.0000000000
40
1.0000000000
10
10.5745825494
20
22.4970747480
30
0.0000000000
10
10.5699318509
20
22.4994000524
30
0.0000000000
10
10.5459176406
20
22.5108912151
30
0.0000000000
10
10.5007981190
20
22.5277482310
30
0.0000000000
10
10.4377750254
20
22.5414986051
30
0.0000000000
10
10.3948139723
20
22.5445726630
30
0.0000000000
10
10.3733222340
20
22.5445726609
30
0.0000000000
11
10.5745825494
21
22.4970747480
31
0.0000000000
11
10.5605122548
21
22.5038073969
31
0.0000000000
11
10.5003727720
21
22.5262772037
31
0.0000000000
11
10.4376323315
21
22.5399612951
31
0.0000000000
11
10.3733222340
21
22.5445726609
31
0.0000000000
0
SPLINE
5
3AC
100
AcDbEntity
8
0
100
AcDbSpline
62
0
6
CONTINUOUS
70
0
71
3
72
15
73
11
74
9
42
0.0000001000
43
0.0000001000
44
0.0000000001
12
0.0000000000
22
-0.4978982073
32
0.0000000000
13
0.4457073323
23
-0.2228573874
33
0.0000000000
40
0.0000000000
40
0.0000000000
40
0.0000000000
40
0.0000000000
40
0.1282129537
40
0.2577283832
40
0.3869872035
40
0.5151290858
40
0.6443551212
40
0.7743033121
40
0.9035234973
40
1.0000000000
40
1.0000000000
40
1.0000000000
40
1.0000000000
10
-11.4590856085
20
-21.7966147989
30
0.0000000000
10
-11.4590856085
20
-21.8178937988
30
0.0000000000
10
-11.4560412870
20
-21.8607296950
30
0.0000000000
10
-11.4423736670
20
-21.9237008465
30
0.0000000000
10
-11.4198577089
20
-21.9840764648
30
0.0000000000
10
-11.3890215048
20
-22.0405926818
30
0.0000000000
10
-11.3504018134
20
-22.0922544537
30
0.0000000000
10
-11.3046640298
20
-22.1379924880
30
0.0000000000
10
-11.2572273039
20
-22.1734549231
30
0.0000000000
10
-11.2245914579
20
-22.1920111160
30
0.0000000000
10
-11.2102580297
20
-22.1991779498
30
0.0000000000
11
-11.4590856085
21
-21.7966147989
31
0.0000000000
11
-11.4545574079
21
-21.8602909949
31
0.0000000000
11
-11.4408817787
21
-21.9233096977
31
0.0000000000
11
-11.4183930165
21
-21.9836103910
31
0.0000000000
11
-11.3878348877
21
-22.0396179498
31
0.0000000000
11
-11.3493107959
21
-22.0911515463
31
0.0000000000
11
-11.3035604808
21
-22.1369022223
31
0.0000000000
11
-11.2520299151
21
-22.1754255036
31
0.0000000000
11
-11.2102580297
21
-22.1991779498
31
0.0000000000
0
SPLINE
5
3AD
100
AcDbEntity
8
0
100
AcDbSpline
62
0
6
CONTINUOUS
70
0
71
3
72
15
73
11
74
9
42
0.0000001000
43
0.0000001000
44
0.0000000001
12
0.0000000000
22
0.4979340247
32
0.0000000000
13
-0.4457630340
23
0.2228419816
33
0.0000000000
40
0.0000000000
40
0.0000000000
40
0.0000000000
40
0.0000000000
40
0.1289207035
40
0.2579804863
40
0.3867904683
40
0.5159440866
40
0.6447050042
40
0.7739027784
40
0.9026728646
40
1.0000000000
40
1.0000000000
40
1.0000000000
40
1.0000000000
10
10.8409143915
20
22.0857601206
30
0.0000000000
10
10.8409143915
20
22.1071581222
30
0.0000000000
10
10.8378496412
20
22.1500400045
30
0.0000000000
10
10.8241537385
20
22.2129743520
30
0.0000000000
10
10.8016273708
20
22.2733680328
30
0.0000000000
10
10.7707576601
20
22.3298946849
30
0.0000000000
10
10.7321208722
20
22.3815045357
30
0.0000000000
10
10.6865763814
20
22.4270466866
30
0.0000000000
10
10.6392066734
20
22.4625055141
30
0.0000000000
10
10.6065163460
20
22.4811097450
30
0.0000000000
10
10.5920547330
20
22.4883392689
30
0.0000000000
11
10.8409143915
21
22.0857601206
31
0.0000000000
11
10.8363354025
21
22.1497906064
31
0.0000000000
11
10.8226725062
21
22.2125846465
31
0.0000000000
11
10.8002568317
21
22.2726790101
31
0.0000000000
11
10.7694338338
21
22.3291211615
31
0.0000000000
11
10.7310101036
21
22.3804463855
31
0.0000000000
11
10.6855194178
21
22.4259348409
31
0.0000000000
11
10.6341887260
21
22.4643588850
31
0.0000000000
11
10.5920547330
21
22.4883392689
31
0.0000000000
0
SPLINE
5
3AE
100
AcDbEntity
8
0
100
AcDbSpline
62
0
6
CONTINUOUS
70
0
71
3
72
18
73
14
74
12
42
0.0000001000
43
0.0000001000
44
0.0000000001
12
0.0000000000
22
0.3923594660
32
0.0000000000
13
0.3923594660
23
0.0000000000
33
0.0000000000
40
0.0000000000
40
0.0000000000
40
0.0000000000
40
0.0000000000
40
0.0909090103
40
0.1818180598
40
0.2727271497
40
0.3636362742
40
0.4545454220
40
0.5454545780
40
0.6363637258
40
0.7272728503
40
0.8181819402
40
0.9090909897
40
1.0000000000
40
1.0000000000
40
1.0000000000
40
1.0000000000
10
7.9409143915
20
24.3945768917
30
0.0000000000
10
7.9409143915
20
24.4064665619
30
0.0000000000
10
7.9426165091
20
24.4302808266
30
0.0000000000
10
7.9502241413
20
24.4652474645
30
0.0000000000
10
7.9627314378
20
24.4987829997
30
0.0000000000
10
7.9798838400
20
24.5301952163
30
0.0000000000
10
8.0013322171
20
24.5588471589
30
0.0000000000
10
8.0266398935
20
24.5841548353
30
0.0000000000
10
8.0552918362
20
24.6056032125
30
0.0000000000
10
8.0867040527
20
24.6227556146
30
0.0000000000
10
8.1202395880
20
24.6352629111
30
0.0000000000
10
8.1552062258
20
24.6428705433
30
0.0000000000
10
8.1790204905
20
24.6445726609
30
0.0000000000
10
8.1909101607
20
24.6445726609
30
0.0000000000
11
7.9409143915
21
24.3945768917
31
0.0000000000
11
7.9434589174
21
24.4301550270
31
0.0000000000
11
7.9510407498
21
24.4650089399
31
0.0000000000
11
7.9635056193
21
24.4984291072
31
0.0000000000
11
7.9805998334
21
24.5297351668
31
0.0000000000
11
8.0019754327
21
24.5582897800
31
0.0000000000
11
8.0271972725
21
24.5835116198
31
0.0000000000
11
8.0557518856
21
24.6048872190
31
0.0000000000
11
8.0870579452
21
24.6219814331
31
0.0000000000
11
8.1204781125
21
24.6344463026
31
0.0000000000
11
8.1553320254
21
24.6420281350
31
0.0000000000
11
8.1909101607
21
24.6445726609
31
0.0000000000
0
SPLINE
5
3AF
100
AcDbEntity
8
0
100
AcDbSpline
62
0
6
CONTINUOUS
70
0
71
3
72
18
73
14
74
12
42
0.0000001000
43
0.0000001000
44
0.0000000001
12
0.3923594660
22
0.0000000000
32
0.0000000000
13
0.0000000000
23
-0.3923594660
33
0.0000000000
40
0.0000000000
40
0.0000000000
40
0.0000000000
40
0.0000000000
40
0.0909090103
40
0.1818180598
40
0.2727271497
40
0.3636362742
40
0.4545454220
40
0.5454545780
40
0.6363637258
40
0.7272728503
40
0.8181819402
40
0.9090909897
40
1.0000000000
40
1.0000000000
40
1.0000000000
40
1.0000000000
10
10.0909186223
20
24.6445726609
30
0.0000000000
10
10.1028082926
20
24.6445726609
30
0.0000000000
10
10.1266225572
20
24.6428705433
30
0.0000000000
10
10.1615891951
20
24.6352629111
30
0.0000000000
10
10.1951247304
20
24.6227556146
30
0.0000000000
10
10.2265369469
20
24.6056032125
30
0.0000000000
10
10.2551888895
20
24.5841548353
30
0.0000000000
10
10.2804965659
20
24.5588471589
30
0.0000000000
10
10.3019449431
20
24.5301952163
30
0.0000000000
10
10.3190973452
20
24.4987829997
30
0.0000000000
10
10.3316046418
20
24.4652474645
30
0.0000000000
10
10.3392122740
20
24.4302808266
30
0.0000000000
10
10.3409143915
20
24.4064665619
30
0.0000000000
10
10.3409143915
20
24.3945768917
30
0.0000000000
11
10.0909186223
21
24.6445726609
31
0.0000000000
11
10.1264967577
21
24.6420281350
31
0.0000000000
11
10.1613506705
21
24.6344463026
31
0.0000000000
11
10.1947708378
21
24.6219814331
31
0.0000000000
11
10.2260768974
21
24.6048872190
31
0.0000000000
11
10.2546315106
21
24.5835116198
31
0.0000000000
11
10.2798533504
21
24.5582897800
31
0.0000000000
11
10.3012289497
21
24.5297351668
31
0.0000000000
11
10.3183231637
21
24.4984291072
31
0.0000000000
11
10.3307880332
21
24.4650089399
31
0.0000000000
11
10.3383698657
21
24.4301550270
31
0.0000000000
11
10.3409143915
21
24.3945768917
31
0.0000000000
0
SPLINE
5
3B0
100
AcDbEntity
8
0
100
AcDbSpline
62
0
6
CONTINUOUS
70
0
71
3
72
18
73
14
74
12
42
0.0000001000
43
0.0000001000
44
0.0000000001
12
0.0000000000
22
-0.3923594660
32
0.0000000000
13
-0.3923594660
23
0.0000000000
33
0.0000000000
40
0.0000000000
40
0.0000000000
40
0.0000000000
40
0.0000000000
40
0.0909090103
40
0.1818180598
40
0.2727271497
40
0.3636362742
40
0.4545454220
40
0.5454545780
40
0.6363637258
40
0.7272728503
40
0.8181819402
40
0.9090909897
40
1.0000000000
40
1.0000000000
40
1.0000000000
40
1.0000000000
10
-8.5590856085
20
-24.1054315699
30
0.0000000000
10
-8.5590856085
20
-24.1173212401
30
0.0000000000
10
-8.5607877260
20
-24.1411355048
30
0.0000000000
10
-8.5683953582
20
-24.1761021427
30
0.0000000000
10
-8.5809026548
20
-24.2096376779
30
0.0000000000
10
-8.5980550569
20
-24.2410498945
30
0.0000000000
10
-8.6195034341
20
-24.2697018371
30
0.0000000000
10
-8.6448111105
20
-24.2950095135
30
0.0000000000
10
-8.6734630531
20
-24.3164578907
30
0.0000000000
10
-8.7048752696
20
-24.3336102928
30
0.0000000000
10
-8.7384108049
20
-24.3461175894
30
0.0000000000
10
-8.7733774428
20
-24.3537252216
30
0.0000000000
10
-8.7971917074
20
-24.3554273391
30
0.0000000000
10
-8.8090813777
20
-24.3554273391
30
0.0000000000
11
-8.5590856085
21
-24.1054315699
31
0.0000000000
11
-8.5616301343
21
-24.1410097052
31
0.0000000000
11
-8.5692119668
21
-24.1758636181
31
0.0000000000
11
-8.5816768363
21
-24.2092837854
31
0.0000000000
11
-8.5987710503
21
-24.2405898450
31
0.0000000000
11
-8.6201466496
21
-24.2691444582
31
0.0000000000
11
-8.6453684894
21
-24.2943662980
31
0.0000000000
11
-8.6739231026
21
-24.3157418972
31
0.0000000000
11
-8.7052291622
21
-24.3328361113
31
0.0000000000
11
-8.7386493295
21
-24.3453009808
31
0.0000000000
11
-8.7735032423
21
-24.3528828133
31
0.0000000000
11
-8.8090813777
21
-24.3554273391
31
0.0000000000
0
SPLINE
5
3B1
100
AcDbEntity
8
0
100
AcDbSpline
62
0
6
CONTINUOUS
70
0
71
3
72
18
73
14
74
12
42
0.0000001000
43
0.0000001000
44
0.0000000001
12
0.3923594660
22
0.0000000000
32
0.0000000000
13
0.0000000000
23
-0.3923594660
33
0.0000000000
40
0.0000000000
40
0.0000000000
40
0.0000000000
40
0.0000000000
40
0.0909090103
40
0.1818180598
40
0.2727271497
40
0.3636362742
40
0.4545454220
40
0.5454545780
40
0.6363637258
40
0.7272728503
40
0.8181819402
40
0.9090909897
40
1.0000000000
40
1.0000000000
40
1.0000000000
40
1.0000000000
10
-8.8090813777
20
24.6445726609
30
0.0000000000
10
-8.7971917074
20
24.6445726609
30
0.0000000000
10
-8.7733774428
20
24.6428705433
30
0.0000000000
10
-8.7384108049
20
24.6352629111
30
0.0000000000
10
-8.7048752696
20
24.6227556146
30
0.0000000000
10
-8.6734630531
20
24.6056032125
30
0.0000000000
10
-8.6448111105
20
24.5841548353
30
0.0000000000
10
-8.6195034341
20
24.5588471589
30
0.0000000000
10
-8.5980550569
20
24.5301952163
30
0.0000000000
10
-8.5809026548
20
24.4987829997
30
0.0000000000
10
-8.5683953582
20
24.4652474645
30
0.0000000000
10
-8.5607877260
20
24.4302808266
30
0.0000000000
10
-8.5590856085
20
24.4064665619
30
0.0000000000
10
-8.5590856085
20
24.3945768917
30
0.0000000000
11
-8.8090813777
21
24.6445726609
31
0.0000000000
11
-8.7735032423
21
24.6420281350
31
0.0000000000
11
-8.7386493295
21
24.6344463026
31
0.0000000000
11
-8.7052291622
21
24.6219814331
31
0.0000000000
11
-8.6739231026
21
24.6048872190
31
0.0000000000
11
-8.6453684894
21
24.5835116198
31
0.0000000000
11
-8.6201466496
21
24.5582897800
31
0.0000000000
11
-8.5987710503
21
24.5297351668
31
0.0000000000
11
-8.5816768363
21
24.4984291072
31
0.0000000000
11
-8.5692119668
21
24.4650089399
31
0.0000000000
11
-8.5616301343
21
24.4301550270
31
0.0000000000
11
-8.5590856085
21
24.3945768917
31
0.0000000000
0
SPLINE
5
3B2
100
AcDbEntity
8
0
100
AcDbSpline
62
0
6
CONTINUOUS
70
0
71
3
72
18
73
14
74
12
42
0.0000001000
43
0.0000001000
44
0.0000000001
12
0.0000000000
22
0.3923594660
32
0.0000000000
13
0.3923594660
23
0.0000000000
33
0.0000000000
40
0.0000000000
40
0.0000000000
40
0.0000000000
40
0.0000000000
40
0.0909090103
40
0.1818180598
40
0.2727271497
40
0.3636362742
40
0.4545454220
40
0.5454545780
40
0.6363637258
40
0.7272728503
40
0.8181819402
40
0.9090909897
40
1.0000000000
40
1.0000000000
40
1.0000000000
40
1.0000000000
10
-10.9590856085
20
24.3945768917
30
0.0000000000
10
-10.9590856085
20
24.4064665619
30
0.0000000000
10
-10.9573834909
20
24.4302808266
30
0.0000000000
10
-10.9497758587
20
24.4652474645
30
0.0000000000
10
-10.9372685622
20
24.4987829997
30
0.0000000000
10
-10.9201161600
20
24.5301952163
30
0.0000000000
10
-10.8986677829
20
24.5588471589
30
0.0000000000
10
-10.8733601065
20
24.5841548353
30
0.0000000000
10
-10.8447081638
20
24.6056032125
30
0.0000000000
10
-10.8132959473
20
24.6227556146
30
0.0000000000
10
-10.7797604120
20
24.6352629111
30
0.0000000000
10
-10.7447937742
20
24.6428705433
30
0.0000000000
10
-10.7209795095
20
24.6445726609
30
0.0000000000
10
-10.7090898393
20
24.6445726609
30
0.0000000000
11
-10.9590856085
21
24.3945768917
31
0.0000000000
11
-10.9565410826
21
24.4301550270
31
0.0000000000
11
-10.9489592502
21
24.4650089399
31
0.0000000000
11
-10.9364943807
21
24.4984291072
31
0.0000000000
11
-10.9194001666
21
24.5297351668
31
0.0000000000
11
-10.8980245673
21
24.5582897800
31
0.0000000000
11
-10.8728027275
21
24.5835116198
31
0.0000000000
11
-10.8442481144
21
24.6048872190
31
0.0000000000
11
-10.8129420548
21
24.6219814331
31
0.0000000000
11
-10.7795218875
21
24.6344463026
31
0.0000000000
11
-10.7446679746
21
24.6420281350
31
0.0000000000
11
-10.7090898393
21
24.6445726609
31
0.0000000000
0
SPLINE
5
3B3
100
AcDbEntity
8
0
100
AcDbSpline
62
0
6
CONTINUOUS
70
0
71
3
72
18
73
14
74
12
42
0.0000001000
43
0.0000001000
44
0.0000000001
12
-0.3923594660
22
0.0000000000
32
0.0000000000
13
0.0000000000
23
0.3923594660
33
0.0000000000
40
0.0000000000
40
0.0000000000
40
0.0000000000
40
0.0000000000
40
0.0909090103
40
0.1818180598
40
0.2727271497
40
0.3636362742
40
0.4545454220
40
0.5454545780
40
0.6363637258
40
0.7272728503
40
0.8181819402
40
0.9090909897
40
1.0000000000
40
1.0000000000
40
1.0000000000
40
1.0000000000
10
-10.7090898393
20
-24.3554273391
30
0.0000000000
10
-10.7209795095
20
-24.3554273391
30
0.0000000000
10
-10.7447937742
20
-24.3537252216
30
0.0000000000
10
-10.7797604120
20
-24.3461175894
30
0.0000000000
10
-10.8132959473
20
-24.3336102928
30
0.0000000000
10
-10.8447081638
20
-24.3164578907
30
0.0000000000
10
-10.8733601065
20
-24.2950095135
30
0.0000000000
10
-10.8986677829
20
-24.2697018371
30
0.0000000000
10
-10.9201161600
20
-24.2410498945
30
0.0000000000
10
-10.9372685622
20
-24.2096376779
30
0.0000000000
10
-10.9497758587
20
-24.1761021427
30
0.0000000000
10
-10.9573834909
20
-24.1411355048
30
0.0000000000
10
-10.9590856085
20
-24.1173212401
30
0.0000000000
10
-10.9590856085
20
-24.1054315699
30
0.0000000000
11
-10.7090898393
21
-24.3554273391
31
0.0000000000
11
-10.7446679746
21
-24.3528828133
31
0.0000000000
11
-10.7795218875
21
-24.3453009808
31
0.0000000000
11
-10.8129420548
21
-24.3328361113
31
0.0000000000
11
-10.8442481144
21
-24.3157418972
31
0.0000000000
11
-10.8728027275
21
-24.2943662980
31
0.0000000000
11
-10.8980245673
21
-24.2691444582
31
0.0000000000
11
-10.9194001666
21
-24.2405898450
31
0.0000000000
11
-10.9364943807
21
-24.2092837854
31
0.0000000000
11
-10.9489592502
21
-24.1758636181
31
0.0000000000
11
-10.9565410826
21
-24.1410097052
31
0.0000000000
11
-10.9590856085
21
-24.1054315699
31
0.0000000000
0
SPLINE
5
3B4
100
AcDbEntity
8
0
100
AcDbSpline
62
0
6
CONTINUOUS
70
0
71
3
72
18
73
14
74
12
42
0.0000001000
43
0.0000001000
44
0.0000000001
12
0.0000000000
22
-0.3923594660
32
0.0000000000
13
-0.3923594660
23
0.0000000000
33
0.0000000000
40
0.0000000000
40
0.0000000000
40
0.0000000000
40
0.0000000000
40
0.0909090103
40
0.1818180598
40
0.2727271497
40
0.3636362742
40
0.4545454220
40
0.5454545780
40
0.6363637258
40
0.7272728503
40
0.8181819402
40
0.9090909897
40
1.0000000000
40
1.0000000000
40
1.0000000000
40
1.0000000000
10
10.3409143915
20
-24.1054315699
30
0.0000000000
10
10.3409143915
20
-24.1173212401
30
0.0000000000
10
10.3392122740
20
-24.1411355048
30
0.0000000000
10
10.3316046418
20
-24.1761021427
30
0.0000000000
10
10.3190973452
20
-24.2096376779
30
0.0000000000
10
10.3019449431
20
-24.2410498945
30
0.0000000000
10
10.2804965659
20
-24.2697018371
30
0.0000000000
10
10.2551888895
20
-24.2950095135
30
0.0000000000
10
10.2265369469
20
-24.3164578907
30
0.0000000000
10
10.1951247304
20
-24.3336102928
30
0.0000000000
10
10.1615891951
20
-24.3461175894
30
0.0000000000
10
10.1266225572
20
-24.3537252216
30
0.0000000000
10
10.1028082926
20
-24.3554273391
30
0.0000000000
10
10.0909186223
20
-24.3554273391
30
0.0000000000
11
10.3409143915
21
-24.1054315699
31
0.0000000000
11
10.3383698657
21
-24.1410097052
31
0.0000000000
11
10.3307880332
21
-24.1758636181
31
0.0000000000
11
10.3183231637
21
-24.2092837854
31
0.0000000000
11
10.3012289497
21
-24.2405898450
31
0.0000000000
11
10.2798533504
21
-24.2691444582
31
0.0000000000
11
10.2546315106
21
-24.2943662980
31
0.0000000000
11
10.2260768974
21
-24.3157418972
31
0.0000000000
11
10.1947708378
21
-24.3328361113
31
0.0000000000
11
10.1613506705
21
-24.3453009808
31
0.0000000000
11
10.1264967577
21
-24.3528828133
31
0.0000000000
11
10.0909186223
21
-24.3554273391
31
0.0000000000
0
SPLINE
5
3B5
100
AcDbEntity
8
0
100
AcDbSpline
62
0
6
CONTINUOUS
70
0
71
3
72
18
73
14
74
12
42
0.0000001000
43
0.0000001000
44
0.0000000001
12
-0.3923594660
22
0.0000000000
32
0.0000000000
13
-0.0000000000
23
0.3923594660
33
0.0000000000
40
0.0000000000
40
0.0000000000
40
0.0000000000
40
0.0000000000
40
0.0909090103
40
0.1818180598
40
0.2727271497
40
0.3636362742
40
0.4545454220
40
0.5454545780
40
0.6363637258
40
0.7272728503
40
0.8181819402
40
0.9090909897
40
1.0000000000
40
1.0000000000
40
1.0000000000
40
1.0000000000
10
8.1909101607
20
-24.3554273391
30
0.0000000000
10
8.1790204905
20
-24.3554273391
30
0.0000000000
10
8.1552062258
20
-24.3537252216
30
0.0000000000
10
8.1202395880
20
-24.3461175894
30
0.0000000000
10
8.0867040527
20
-24.3336102928
30
0.0000000000
10
8.0552918362
20
-24.3164578907
30
0.0000000000
10
8.0266398935
20
-24.2950095135
30
0.0000000000
10
8.0013322171
20
-24.2697018371
30
0.0000000000
10
7.9798838400
20
-24.2410498945
30
0.0000000000
10
7.9627314378
20
-24.2096376779
30
0.0000000000
10
7.9502241413
20
-24.1761021427
30
0.0000000000
10
7.9426165091
20
-24.1411355048
30
0.0000000000
10
7.9409143915
20
-24.1173212401
30
0.0000000000
10
7.9409143915
20
-24.1054315699
30
0.0000000000
11
8.1909101607
21
-24.3554273391
31
0.0000000000
11
8.1553320254
21
-24.3528828133
31
0.0000000000
11
8.1204781125
21
-24.3453009808
31
0.0000000000
11
8.0870579452
21
-24.3328361113
31
0.0000000000
11
8.0557518856
21
-24.3157418972
31
0.0000000000
11
8.0271972725
21
-24.2943662980
31
0.0000000000
11
8.0019754327
21
-24.2691444582
31
0.0000000000
11
7.9805998334
21
-24.2405898450
31
0.0000000000
11
7.9635056193
21
-24.2092837854
31
0.0000000000
11
7.9510407498
21
-24.1758636181
31
0.0000000000
11
7.9434589174
21
-24.1410097052
31
0.0000000000
11
7.9409143915
21
-24.1054315699
31
0.0000000000
0
SPLINE
5
3B6
100
AcDbEntity
8
0
100
AcDbSpline
62
0
6
CONTINUOUS
70
0
71
3
72
10
73
6
74
4
42
0.0000001000
43
0.0000001000
44
0.0000000001
12
0.1061059798
22
-0.1159009881
32
0.0000000000
13
0.1033399646
23
-0.1183738558
33
0.0000000000
40
0.0000000000
40
0.0000000000
40
0.0000000000
40
0.0000000000
40
0.3347556610
40
0.6680914203
40
1.0000000000
40
1.0000000000
40
1.0000000000
40
1.0000000000
10
9.2361840020
20
4.1458634606
30
0.0000000000
10
9.2480238611
20
4.1329306233
30
0.0000000000
10
9.2715519643
20
4.1070267566
30
0.0000000000
10
9.3064623339
20
4.0679778246
30
0.0000000000
10
9.3294812512
20
4.0418187658
30
0.0000000000
10
9.3409143915
20
4.0287223330
30
0.0000000000
11
9.2361840020
21
4.1458634606
31
0.0000000000
11
9.2715505548
21
4.1069254093
31
0.0000000000
11
9.3064606850
21
4.0678764049
31
0.0000000000
11
9.3409143915
21
4.0287223330
31
0.0000000000
0
SPLINE
5
3B7
100
AcDbEntity
8
0
100
AcDbSpline
62
0
6
CONTINUOUS
70
0
71
3
72
10
73
6
74
4
42
0.0000001000
43
0.0000001000
44
0.0000000001
12
-0.1033399646
22
-0.1183738558
32
0.0000000000
13
-0.1061059798
23
-0.1159009881
33
0.0000000000
40
0.0000000000
40
0.0000000000
40
0.0000000000
40
0.0000000000
40
0.3319085797
40
0.6652443390
40
1.0000000000
40
1.0000000000
40
1.0000000000
40
1.0000000000
10
9.3409143915
20
-3.7395770112
30
0.0000000000
10
9.3294812512
20
-3.7526734440
30
0.0000000000
10
9.3064623339
20
-3.7788325028
30
0.0000000000
10
9.2715519643
20
-3.8178814348
30
0.0000000000
10
9.2480238611
20
-3.8437853016
30
0.0000000000
10
9.2361840020
20
-3.8567181389
30
0.0000000000
11
9.3409143915
21
-3.7395770112
31
0.0000000000
11
9.3064606850
21
-3.7787310831
31
0.0000000000
11
9.2715505548
21
-3.8177800875
31
0.0000000000
11
9.2361840020
21
-3.8567181389
31
0.0000000000
0
SPLINE
5
3B8
100
AcDbEntity
8
0
100
AcDbSpline
62
0
6
CONTINUOUS
70
0
71
3
72
10
73
6
74
4
42
0.0000001000
43
0.0000001000
44
0.0000000001
12
-0.1061059798
22
0.1159009881
32
0.0000000000
13
-0.1033399646
23
0.1183738558
33
0.0000000000
40
0.0000000000
40
0.0000000000
40
0.0000000000
40
0.0000000000
40
0.3347556610
40
0.6680914203
40
1.0000000000
40
1.0000000000
40
1.0000000000
40
1.0000000000
10
-9.8543552189
20
-3.8567181389
30
0.0000000000
10
-9.8661950780
20
-3.8437853016
30
0.0000000000
10
-9.8897231813
20
-3.8178814348
30
0.0000000000
10
-9.9246335508
20
-3.7788325028
30
0.0000000000
10
-9.9476524682
20
-3.7526734440
30
0.0000000000
10
-9.9590856085
20
-3.7395770112
30
0.0000000000
11
-9.8543552189
21
-3.8567181389
31
0.0000000000
11
-9.8897217717
21
-3.8177800875
31
0.0000000000
11
-9.9246319020
21
-3.7787310831
31
0.0000000000
11
-9.9590856085
21
-3.7395770112
31
0.0000000000
0
SPLINE
5
3B9
100
AcDbEntity
8
0
100
AcDbSpline
62
0
6
CONTINUOUS
70
0
71
3
72
10
73
6
74
4
42
0.0000001000
43
0.0000001000
44
0.0000000001
12
0.1033399646
22
0.1183738558
32
0.0000000000
13
0.1061059798
23
0.1159009881
33
0.0000000000
40
0.0000000000
40
0.0000000000
40
0.0000000000
40
0.0000000000
40
0.3319085797
40
0.6652443390
40
1.0000000000
40
1.0000000000
40
1.0000000000
40
1.0000000000
10
-9.9590856085
20
4.0287223330
30
0.0000000000
10
-9.9476524682
20
4.0418187658
30
0.0000000000
10
-9.9246335508
20
4.0679778246
30
0.0000000000
10
-9.8897231813
20
4.1070267566
30
0.0000000000
10
-9.8661950780
20
4.1329306233
30
0.0000000000
10
-9.8543552189
20
4.1458634606
30
0.0000000000
11
-9.9590856085
21
4.0287223330
31
0.0000000000
11
-9.9246319020
21
4.0678764049
31
0.0000000000
11
-9.8897217717
21
4.1069254093
31
0.0000000000
11
-9.8543552189
21
4.1458634606
31
0.0000000000
0
SPLINE
5
3BA
100
AcDbEntity
8
0
100
AcDbSpline
62
0
6
CONTINUOUS
70
0
71
3
72
11
73
7
74
5
42
0.0000001000
43
0.0000001000
44
0.0000000001
12
-0.1866489250
22
0.0933079083
32
0.0000000000
13
-0.2084938484
23
-0.0000000000
33
0.0000000000
40
0.0000000000
40
0.0000000000
40
0.0000000000
40
0.0000000000
40
0.0760497115
40
0.3837369054
40
0.6920303720
40
1.0000000000
40
1.0000000000
40
1.0000000000
40
1.0000000000
10
10.5920547330
20
22.4883392689
30
0.0000000000
10
10.5873232007
20
22.4907046154
30
0.0000000000
10
10.5632380993
20
22.5022190962
30
0.0000000000
10
10.5180206408
20
22.5190831118
30
0.0000000000
10
10.4550723770
20
22.5327806385
30
0.0000000000
10
10.4121805565
20
22.5358457931
30
0.0000000000
10
10.3907772989
20
22.5358457931
30
0.0000000000
11
10.5920547330
21
22.4883392689
31
0.0000000000
11
10.5777379186
21
22.4951835755
31
0.0000000000
11
10.5176315748
21
22.5176015095
31
0.0000000000
11
10.4548235437
21
22.5312661135
31
0.0000000000
11
10.3907772989
21
22.5358457931
31
0.0000000000
0
SPLINE
5
3BB
100
AcDbEntity
8
0
100
AcDbSpline
62
0
6
CONTINUOUS
70
0
71
3
72
11
73
7
74
5
42
0.0000001000
43
0.0000001000
44
0.0000000001
12
0.1866710540
22
-0.0933370855
32
0.0000000000
13
0.2085296256
23
-0.0000000000
33
0.0000000000
40
0.0000000000
40
0.0000000000
40
0.0000000000
40
0.0000000000
40
0.0756363117
40
0.3844068434
40
0.6937708829
40
1.0000000000
40
1.0000000000
40
1.0000000000
40
1.0000000000
10
-11.2102580297
20
-22.1991779498
30
0.0000000000
10
-11.2055516597
20
-22.2015311741
30
0.0000000000
10
-11.1814226538
20
-22.2130716885
30
0.0000000000
10
-11.1360823134
20
-22.2299817834
30
0.0000000000
10
-11.0730860163
20
-22.2436550940
30
0.0000000000
10
-11.0302344636
20
-22.2467004713
30
0.0000000000
10
-11.0089485158
20
-22.2467004713
30
0.0000000000
11
-11.2102580297
21
-22.1991779498
31
0.0000000000
11
-11.1960179042
21
-22.2059885758
31
0.0000000000
11
-11.1356896219
21
-22.2284894110
31
0.0000000000
11
-11.0726455072
21
-22.2421708555
31
0.0000000000
11
-11.0089485158
21
-22.2467004713
31
0.0000000000
0
SPLINE
5
3BC
100
AcDbEntity
8
0
100
AcDbSpline
62
0
6
CONTINUOUS
70
0
71
3
72
11
73
7
74
5
42
0.0000001000
43
0.0000001000
44
0.0000000001
12
-0.2085296256
22
0.0000000000
32
0.0000000000
13
-0.1866710540
23
-0.0933370855
33
0.0000000000
40
0.0000000000
40
0.0000000000
40
0.0000000000
40
0.0000000000
40
0.3062291171
40
0.6155931566
40
0.9243636883
40
1.0000000000
40
1.0000000000
40
1.0000000000
40
1.0000000000
10
-11.0089485158
20
22.5358457931
30
0.0000000000
10
-11.0302344636
20
22.5358457931
30
0.0000000000
10
-11.0730860163
20
22.5328004158
30
0.0000000000
10
-11.1360823134
20
22.5191271051
30
0.0000000000
10
-11.1814226538
20
22.5022170103
30
0.0000000000
10
-11.2055516597
20
22.4906764959
30
0.0000000000
10
-11.2102580297
20
22.4883232716
30
0.0000000000
11
-11.0089485158
21
22.5358457931
31
0.0000000000
11
-11.0726455072
21
22.5313161773
31
0.0000000000
11
-11.1356896219
21
22.5176347328
31
0.0000000000
11
-11.1960179042
21
22.4951338976
31
0.0000000000
11
-11.2102580297
21
22.4883232716
31
0.0000000000
0
SPLINE
5
3BD
100
AcDbEntity
8
0
100
AcDbSpline
62
0
6
CONTINUOUS
70
0
71
3
72
9
73
5
74
3
42
0.0000001000
43
0.0000001000
44
0.0000000001
12
0.0039567437
22
-0.0039567437
32
0.0000000000
13
0.0002158296
23
-0.0055915167
33
0.0000000000
40
0.0000000000
40
0.0000000000
40
0.0000000000
40
0.0000000000
40
0.2717515543
40
1.0000000000
40
1.0000000000
40
1.0000000000
40
1.0000000000
10
-4.6654349616
20
23.9009220140
30
0.0000000000
10
-4.6650765445
20
23.9005635969
30
0.0000000000
10
-4.6654543111
20
23.8983840607
30
0.0000000000
10
-4.6650707337
20
23.8967034234
30
0.0000000000
10
-4.6650183412
20
23.8953460856
30
0.0000000000
11
-4.6654349616
21
23.9009220140
31
0.0000000000
11
-4.6652256374
21
23.8994158554
31
0.0000000000
11
-4.6650183412
21
23.8953460856
31
0.0000000000
0
SPLINE
5
3BE
100
AcDbEntity
8
0
100
AcDbSpline
62
0
6
CONTINUOUS
70
0
71
3
72
9
73
5
74
3
42
0.0000001000
43
0.0000001000
44
0.0000000001
12
-0.0039567437
22
-0.0039567437
32
0.0000000000
13
-0.0002158296
23
-0.0055915167
33
0.0000000000
40
0.0000000000
40
0.0000000000
40
0.0000000000
40
0.0000000000
40
0.2717515543
40
1.0000000000
40
1.0000000000
40
1.0000000000
40
1.0000000000
10
4.0472637447
20
23.9009220140
30
0.0000000000
10
4.0469053276
20
23.9005635969
30
0.0000000000
10
4.0472830942
20
23.8983840607
30
0.0000000000
10
4.0468995168
20
23.8967034234
30
0.0000000000
10
4.0468471243
20
23.8953460856
30
0.0000000000
11
4.0472637447
21
23.9009220140
31
0.0000000000
11
4.0470544205
21
23.8994158554
31
0.0000000000
11
4.0468471243
21
23.8953460856
31
0.0000000000
0
SPLINE
5
3BF
100
AcDbEntity
8
0
100
AcDbSpline
62
0
6
CONTINUOUS
70
0
71
3
72
9
73
5
74
3
42
0.0000001000
43
0.0000001000
44
0.0000000001
12
0.0002158296
22
-0.0055915167
32
0.0000000000
13
0.0039567437
23
-0.0039567437
33
0.0000000000
40
0.0000000000
40
0.0000000000
40
0.0000000000
40
0.0000000000
40
0.7282484456
40
1.0000000000
40
1.0000000000
40
1.0000000000
40
1.0000000000
10
4.0468471243
20
-23.6062007638
30
0.0000000000
10
4.0468995168
20
-23.6075581016
30
0.0000000000
10
4.0472830942
20
-23.6092387389
30
0.0000000000
10
4.0469053276
20
-23.6114182752
30
0.0000000000
10
4.0472637447
20
-23.6117766922
30
0.0000000000
11
4.0468471243
21
-23.6062007638
31
0.0000000000
11
4.0470544205
21
-23.6102705336
31
0.0000000000
11
4.0472637447
21
-23.6117766922
31
0.0000000000
0
SPLINE
5
3C0
100
AcDbEntity
8
0
100
AcDbSpline
62
0
6
CONTINUOUS
70
0
71
3
72
9
73
5
74
3
42
0.0000001000
43
0.0000001000
44
0.0000000001
12
-0.0002158296
22
-0.0055915167
32
0.0000000000
13
-0.0039567437
23
-0.0039567437
33
0.0000000000
40
0.0000000000
40
0.0000000000
40
0.0000000000
40
0.0000000000
40
0.7282484456
40
1.0000000000
40
1.0000000000
40
1.0000000000
40
1.0000000000
10
-4.6650183412
20
-23.6062007638
30
0.0000000000
10
-4.6650707337
20
-23.6075581016
30
0.0000000000
10
-4.6654543111
20
-23.6092387389
30
0.0000000000
10
-4.6650765445
20
-23.6114182752
30
0.0000000000
10
-4.6654349616
20
-23.6117766922
30
0.0000000000
11
-4.6650183412
21
-23.6062007638
31
0.0000000000
11
-4.6652256374
21
-23.6102705336
31
0.0000000000
11
-4.6654349616
21
-23.6117766922
31
0.0000000000
0
SPLINE
5
3C1
100
AcDbEntity
8
0
100
AcDbSpline
62
0
6
CONTINUOUS
70
0
71
3
72
18
73
14
74
12
42
0.0000001000
43
0.0000001000
44
0.0000000001
12
0.4450903692
22
-0.4810902355
32
0.0000000000
13
0.0252793885
23
-0.6549154174
33
0.0000000000
40
0.0000000000
40
0.0000000000
40
0.0000000000
40
0.0000000000
40
0.1610700427
40
0.3161797675
40
0.4596391690
40
0.5858983805
40
0.6937258751
40
0.7831374497
40
0.8554530788
40
0.9120560403
40
0.9545072575
40
0.9834021834
40
1.0000000000
40
1.0000000000
40
1.0000000000
40
1.0000000000
10
3.6188843792
20
-23.1117851538
30
0.0000000000
10
3.6427812875
20
-23.1376148954
30
0.0000000000
10
3.6896910161
20
-23.1883183995
30
0.0000000000
10
3.7577730059
20
-23.2621308701
30
0.0000000000
10
3.8204808717
20
-23.3305541654
30
0.0000000000
10
3.8758916976
20
-23.3916510550
30
0.0000000000
10
3.9229661545
20
-23.4443695738
30
0.0000000000
10
3.9616874867
20
-23.4887324878
30
0.0000000000
10
3.9924712856
20
-23.5251923785
30
0.0000000000
10
4.0158566107
20
-23.5543827122
30
0.0000000000
10
4.0325232927
20
-23.5769645080
30
0.0000000000
10
4.0425389465
20
-23.5931530339
30
0.0000000000
10
4.0467072634
20
-23.6025773752
30
0.0000000000
10
4.0468471243
20
-23.6062007638
30
0.0000000000
11
3.6188843792
21
-23.1117851538
31
0.0000000000
11
3.6905553258
21
-23.1892926722
31
0.0000000000
11
3.7594573218
21
-23.2640399002
31
0.0000000000
11
3.8229555152
21
-23.3333828380
31
0.0000000000
11
3.8785117947
21
-23.3947112578
31
0.0000000000
11
3.9255358903
21
-23.4474658849
31
0.0000000000
11
3.9640121788
21
-23.4916655283
31
0.0000000000
11
3.9945027413
21
-23.5279518330
31
0.0000000000
11
4.0175872061
21
-23.5569923409
31
0.0000000000
11
4.0338755670
21
-23.5795487086
31
0.0000000000
11
4.0435308778
21
-23.5958403069
31
0.0000000000
11
4.0468471243
21
-23.6062007638
31
0.0000000000
0
SPLINE
5
3C2
100
AcDbEntity
8
0
100
AcDbSpline
62
0
6
CONTINUOUS
70
0
71
3
72
18
73
14
74
12
42
0.0000001000
43
0.0000001000
44
0.0000000001
12
0.0000000000
22
0.6557630403
32
0.0000000000
13
0.4453347936
23
0.4813544294
33
0.0000000000
40
0.0000000000
40
0.0000000000
40
0.0000000000
40
0.0000000000
40
0.0161526913
40
0.0446274527
40
0.0867517597
40
0.1430990577
40
0.2152238647
40
0.3045425997
40
0.4124115318
40
0.5388851786
40
0.6827559966
40
0.8383959184
40
1.0000000000
40
1.0000000000
40
1.0000000000
40
1.0000000000
10
3.1909143915
20
-23.6065696294
30
0.0000000000
10
3.1909143915
20
-23.6030388501
30
0.0000000000
10
3.1949349808
20
-23.5937000856
30
0.0000000000
10
3.2047336758
20
-23.5777057767
30
0.0000000000
10
3.2212456166
20
-23.5552431288
30
0.0000000000
10
3.2445054809
20
-23.5261508604
30
0.0000000000
10
3.2752118819
20
-23.4897420980
30
0.0000000000
10
3.3139053862
20
-23.4453834878
30
0.0000000000
10
3.3610205070
20
-23.3926009730
30
0.0000000000
10
3.4165541265
20
-23.3313575312
30
0.0000000000
10
3.4794644232
20
-23.2627077939
30
0.0000000000
10
3.5478015975
20
-23.1886168730
30
0.0000000000
10
3.5948950724
20
-23.1377147673
30
0.0000000000
10
3.6188843792
20
-23.1117851538
30
0.0000000000
11
3.1909143915
21
-23.6065696294
31
0.0000000000
11
3.1939584980
21
-23.5964241359
31
0.0000000000
11
3.2033885566
21
-23.5803075738
31
0.0000000000
11
3.2195086898
21
-23.5578753966
31
0.0000000000
11
3.2424691240
21
-23.5289244709
31
0.0000000000
11
3.2728742134
21
-23.4926958056
31
0.0000000000
11
3.3113168150
21
-23.4485048924
31
0.0000000000
11
3.3583749068
21
-23.3956921798
31
0.0000000000
11
3.4140500097
21
-23.3342203465
31
0.0000000000
11
3.4777621170
21
-23.2646374641
31
0.0000000000
11
3.5469364695
21
-23.1895925027
31
0.0000000000
11
3.6188843792
21
-23.1117851538
31
0.0000000000
0
SPLINE
5
3C3
100
AcDbEntity
8
0
100
AcDbSpline
62
0
6
CONTINUOUS
70
0
71
3
72
28
73
24
74
22
42
0.0000001000
43
0.0000001000
44
0.0000000001
12
0.0000000000
22
0.8560454358
32
0.0000000000
13
0.4748439349
23
-0.7122759476
33
0.0000000000
40
0.0000000000
40
0.0000000000
40
0.0000000000
40
0.0000000000
40
0.0056001076
40
0.0221878247
40
0.0493779407
40
0.0866467356
40
0.1330293372
40
0.1876956588
40
0.2491587429
40
0.3163869080
40
0.3874909704
40
0.4613265883
40
0.5357849589
40
0.6096852126
40
0.6809167069
40
0.7483330403
40
0.8100397611
40
0.8650010733
40
0.9117220307
40
0.9493664272
40
0.9769597041
40
0.9939700659
40
1.0000000000
40
1.0000000000
40
1.0000000000
40
1.0000000000
10
3.1909143915
20
-22.1893472343
30
0.0000000000
10
3.1909143915
20
-22.1877492521
30
0.0000000000
10
3.2010305783
20
-22.1903258554
30
0.0000000000
10
3.2114941703
20
-22.1870383025
30
0.0000000000
10
3.2366380767
20
-22.1881404378
30
0.0000000000
10
3.2673957133
20
-22.1870025859
30
0.0000000000
10
3.3071863177
20
-22.1868346949
30
0.0000000000
10
3.3534463683
20
-22.1863787996
30
0.0000000000
10
3.4058019831
20
-22.1860991672
30
0.0000000000
10
3.4628018621
20
-22.1858530169
30
0.0000000000
10
3.5233466512
20
-22.1856931533
30
0.0000000000
10
3.5859505772
20
-22.1856096130
30
0.0000000000
10
3.6493537387
20
-22.1856080615
30
0.0000000000
10
3.7120129560
20
-22.1856883018
30
0.0000000000
10
3.7726644352
20
-22.1858456509
30
0.0000000000
10
3.8298301260
20
-22.1860872106
30
0.0000000000
10
3.8823728683
20
-22.1863699260
30
0.0000000000
10
3.9289462189
20
-22.1868060979
30
0.0000000000
10
3.9688412824
20
-22.1870226328
30
0.0000000000
10
4.0004074409
20
-22.1880264578
30
0.0000000000
10
4.0247589872
20
-22.1872248784
30
0.0000000000
10
4.0375889486
20
-22.1900110128
30
0.0000000000
10
4.0458926984
20
-22.1878938470
30
0.0000000000
10
4.0468471243
20
-22.1893255060
30
0.0000000000
11
3.1909143915
21
-22.1893472343
31
0.0000000000
11
3.1956760355
21
-22.1887916536
31
0.0000000000
11
3.2098654695
21
-22.1882481394
31
0.0000000000
11
3.2331356690
21
-22.1877296712
31
0.0000000000
11
3.2650357910
21
-22.1872464416
31
0.0000000000
11
3.3047390161
21
-22.1868108666
31
0.0000000000
11
3.3515343280
21
-22.1864308114
31
0.0000000000
11
3.4041485821
21
-22.1861165619
31
0.0000000000
11
3.4616984324
21
-22.1858734269
31
0.0000000000
11
3.5225665162
21
-22.1857082122
31
0.0000000000
11
3.5857731033
21
-22.1856235916
31
0.0000000000
11
3.6495128516
21
-22.1856219736
31
0.0000000000
11
3.7127747741
21
-22.1857033839
31
0.0000000000
11
3.7737519542
21
-22.1858655055
31
0.0000000000
11
3.8314628987
21
-22.1861057146
31
0.0000000000
11
3.8842857365
21
-22.1864172876
31
0.0000000000
11
3.9313336012
21
-22.1867949605
31
0.0000000000
11
3.9713265136
21
-22.1872285123
31
0.0000000000
11
4.0035482284
21
-22.1877101140
31
0.0000000000
11
4.0271636626
21
-22.1882273919
31
0.0000000000
11
4.0417151855
21
-22.1887701765
31
0.0000000000
11
4.0468471243
21
-22.1893255060
31
0.0000000000
0
SPLINE
5
3C4
100
AcDbEntity
8
0
100
AcDbSpline
62
0
6
CONTINUOUS
70
0
71
3
72
18
73
14
74
12
42
0.0000001000
43
0.0000001000
44
0.0000000001
12
0.4453347054
22
-0.4813543341
32
0.0000000000
13
0.0000000000
23
-0.6557629105
33
0.0000000000
40
0.0000000000
40
0.0000000000
40
0.0000000000
40
0.0000000000
40
0.1614952952
40
0.3171097781
40
0.4609917901
40
0.5874696091
40
0.6953300589
40
0.7846477581
40
0.8567778755
40
0.9131578401
40
0.9553196044
40
0.9838298659
40
1.0000000000
40
1.0000000000
40
1.0000000000
40
1.0000000000
10
-4.2370555961
20
-23.1117851538
30
0.0000000000
10
-4.2130824429
20
-23.1376973072
30
0.0000000000
10
-4.1660089033
20
-23.1885778670
30
0.0000000000
10
-4.0976898479
20
-23.2626488865
30
0.0000000000
10
-4.0347807947
20
-23.3312967521
30
0.0000000000
10
-3.9792458051
20
-23.3925409588
30
0.0000000000
10
-3.9321309223
20
-23.4453221022
30
0.0000000000
10
-3.8934371969
20
-23.4896792706
30
0.0000000000
10
-3.8627243204
20
-23.5260931446
30
0.0000000000
10
-3.8394524833
20
-23.5551968192
30
0.0000000000
10
-3.8229244294
20
-23.5776765867
30
0.0000000000
10
-3.8131135602
20
-23.5936858687
30
0.0000000000
10
-3.8090856085
20
-23.6030350380
30
0.0000000000
10
-3.8090856085
20
-23.6065696294
30
0.0000000000
11
-4.2370555961
21
-23.1117851538
31
0.0000000000
11
-4.1651561063
21
-23.1895400848
31
0.0000000000
11
-4.0959929298
21
-23.2645726326
31
0.0000000000
11
-4.0322756085
21
-23.3341606686
31
0.0000000000
11
-3.9765982873
21
-23.3956341619
31
0.0000000000
11
-3.9295433096
21
-23.4484421803
31
0.0000000000
11
-3.8911002450
21
-23.4926317751
31
0.0000000000
11
-3.8606915361
21
-23.5288619368
31
0.0000000000
11
-3.8377158757
21
-23.5578281180
31
0.0000000000
11
-3.8215790225
21
-23.5802785206
31
0.0000000000
11
-3.8121346574
21
-23.5964136791
31
0.0000000000
11
-3.8090856085
21
-23.6065696294
31
0.0000000000
0
SPLINE
5
3C5
100
AcDbEntity
8
0
100
AcDbSpline
62
0
6
CONTINUOUS
70
0
71
3
72
18
73
14
74
12
42
0.0000001000
43
0.0000001000
44
0.0000000001
12
0.0252793929
22
0.6549155310
32
0.0000000000
13
0.4450904464
23
0.4810903189
33
0.0000000000
40
0.0000000000
40
0.0000000000
40
0.0000000000
40
0.0000000000
40
0.0165806563
40
0.0454411065
40
0.0878560839
40
0.1444275358
40
0.2167384756
40
0.3061519021
40
0.4139889825
40
0.5402449784
40
0.6836932136
40
0.8388260589
40
1.0000000000
40
1.0000000000
40
1.0000000000
40
1.0000000000
10
-4.6650183412
20
-23.6062007638
30
0.0000000000
10
-4.6648786249
20
-23.6025811207
30
0.0000000000
10
-4.6607173965
20
-23.5931668164
30
0.0000000000
10
-4.6507136313
20
-23.5769928858
30
0.0000000000
10
-4.6340624955
20
-23.5544276309
30
0.0000000000
10
-4.6106886697
20
-23.5252482507
30
0.0000000000
10
-4.5799109187
20
-23.4887930807
30
0.0000000000
10
-4.5411894030
20
-23.4444283453
30
0.0000000000
10
-4.4941142587
20
-23.3917080165
30
0.0000000000
10
-4.4387044733
20
-23.3306115769
30
0.0000000000
10
-4.3759955467
20
-23.2621866424
30
0.0000000000
10
-4.3078965058
20
-23.1883554427
30
0.0000000000
10
-4.2609679233
20
-23.1376315614
30
0.0000000000
10
-4.2370555961
20
-23.1117851538
30
0.0000000000
11
-4.6650183412
21
-23.6062007638
31
0.0000000000
11
-4.6617070457
21
-23.5958505294
31
0.0000000000
11
-4.6520656356
21
-23.5795769547
31
0.0000000000
11
-4.6357934298
21
-23.5570382125
31
0.0000000000
11
-4.6127236339
21
-23.5280124172
31
0.0000000000
11
-4.5822363641
21
-23.4917273495
31
0.0000000000
11
-4.5437601429
21
-23.4475260247
31
0.0000000000
11
-4.4967324207
21
-23.3947661977
31
0.0000000000
11
-4.4411779136
21
-23.3334389967
31
0.0000000000
11
-4.3776849034
21
-23.2641012137
31
0.0000000000
11
-4.3087727607
21
-23.1893427058
31
0.0000000000
11
-4.2370555961
21
-23.1117851538
31
0.0000000000
0
SPLINE
5
3C6
100
AcDbEntity
8
0
100
AcDbSpline
62
0
6
CONTINUOUS
70
0
71
3
72
28
73
24
74
22
42
0.0000001000
43
0.0000001000
44
0.0000000001
12
0.4748439350
22
0.7122759476
32
0.0000000000
13
-0.0000000000
23
-0.8560454358
33
0.0000000000
40
0.0000000000
40
0.0000000000
40
0.0000000000
40
0.0000000000
40
0.0060299341
40
0.0230402959
40
0.0506335728
40
0.0882779693
40
0.1349989267
40
0.1899602389
40
0.2516669597
40
0.3190832931
40
0.3903147874
40
0.4642150411
40
0.5386734117
40
0.6125090296
40
0.6836130920
40
0.7508412571
40
0.8123043412
40
0.8669706628
40
0.9133532644
40
0.9506220593
40
0.9778121753
40
0.9943998924
40
1.0000000000
40
1.0000000000
40
1.0000000000
40
1.0000000000
10
-4.6650183412
20
-22.1893255060
30
0.0000000000
10
-4.6640639153
20
-22.1878938470
30
0.0000000000
10
-4.6557601655
20
-22.1900110128
30
0.0000000000
10
-4.6429302041
20
-22.1872248784
30
0.0000000000
10
-4.6185786578
20
-22.1880264578
30
0.0000000000
10
-4.5870124993
20
-22.1870226328
30
0.0000000000
10
-4.5471174359
20
-22.1868060979
30
0.0000000000
10
-4.5005440852
20
-22.1863699260
30
0.0000000000
10
-4.4480013430
20
-22.1860872106
30
0.0000000000
10
-4.3908356522
20
-22.1858456509
30
0.0000000000
10
-4.3301841730
20
-22.1856883018
30
0.0000000000
10
-4.2675249556
20
-22.1856080615
30
0.0000000000
10
-4.2041217942
20
-22.1856096130
30
0.0000000000
10
-4.1415178682
20
-22.1856931533
30
0.0000000000
10
-4.0809730790
20
-22.1858530169
30
0.0000000000
10
-4.0239732000
20
-22.1860991672
30
0.0000000000
10
-3.9716175852
20
-22.1863787996
30
0.0000000000
10
-3.9253575346
20
-22.1868346949
30
0.0000000000
10
-3.8855669302
20
-22.1870025859
30
0.0000000000
10
-3.8548092937
20
-22.1881404378
30
0.0000000000
10
-3.8296653873
20
-22.1870383025
30
0.0000000000
10
-3.8192017953
20
-22.1903258554
30
0.0000000000
10
-3.8090856085
20
-22.1877492521
30
0.0000000000
10
-3.8090856085
20
-22.1893472343
30
0.0000000000
11
-4.6650183412
21
-22.1893255060
31
0.0000000000
11
-4.6598864025
21
-22.1887701765
31
0.0000000000
11
-4.6453348795
21
-22.1882273919
31
0.0000000000
11
-4.6217194454
21
-22.1877101140
31
0.0000000000
11
-4.5894977305
21
-22.1872285123
31
0.0000000000
11
-4.5495048181
21
-22.1867949605
31
0.0000000000
11
-4.5024569534
21
-22.1864172876
31
0.0000000000
11
-4.4496341157
21
-22.1861057146
31
0.0000000000
11
-4.3919231711
21
-22.1858655055
31
0.0000000000
11
-4.3309459911
21
-22.1857033839
31
0.0000000000
11
-4.2676840685
21
-22.1856219736
31
0.0000000000
11
-4.2039443203
21
-22.1856235916
31
0.0000000000
11
-4.1407377331
21
-22.1857082122
31
0.0000000000
11
-4.0798696493
21
-22.1858734269
31
0.0000000000
11
-4.0223197990
21
-22.1861165619
31
0.0000000000
11
-3.9697055449
21
-22.1864308114
31
0.0000000000
11
-3.9229102331
21
-22.1868108666
31
0.0000000000
11
-3.8832070079
21
-22.1872464416
31
0.0000000000
11
-3.8513068860
21
-22.1877296712
31
0.0000000000
11
-3.8280366864
21
-22.1882481394
31
0.0000000000
11
-3.8138472525
21
-22.1887916536
31
0.0000000000
11
-3.8090856085
21
-22.1893472343
31
0.0000000000
0
SPLINE
5
3C7
100
AcDbEntity
8
0
100
AcDbSpline
62
0
6
CONTINUOUS
70
0
71
3
72
18
73
14
74
12
42
0.0000001000
43
0.0000001000
44
0.0000000001
12
-0.4453347138
22
0.4813543431
32
0.0000000000
13
0.0000000000
23
0.6557629228
33
0.0000000000
40
0.0000000000
40
0.0000000000
40
0.0000000000
40
0.0000000000
40
0.1612016661
40
0.3168616821
40
0.4607450366
40
0.5870767765
40
0.6948071043
40
0.7840907429
40
0.8562933587
40
0.9129036648
40
0.9552698300
40
0.9838485666
40
1.0000000000
40
1.0000000000
40
1.0000000000
40
1.0000000000
10
3.6188843792
20
23.4009304756
30
0.0000000000
10
3.5949548133
20
23.4267955163
30
0.0000000000
10
3.5479181044
20
23.4776362723
30
0.0000000000
10
3.4796353093
20
23.5516673620
30
0.0000000000
10
3.4167404174
20
23.6202987927
30
0.0000000000
10
3.3612448651
20
23.6814976605
30
0.0000000000
10
3.3141731974
20
23.7342264464
30
0.0000000000
10
3.2754891055
20
23.7785654383
30
0.0000000000
10
3.2447331844
20
23.8150198106
30
0.0000000000
10
3.2213856077
20
23.8442047292
30
0.0000000000
10
3.2047868937
20
23.8667696683
30
0.0000000000
10
3.1949439668
20
23.8828243571
30
0.0000000000
10
3.1909143915
20
23.8921844475
30
0.0000000000
10
3.1909143915
20
23.8957149512
30
0.0000000000
11
3.6188843792
21
23.4009304756
31
0.0000000000
11
3.5471155415
21
23.4785439670
31
0.0000000000
11
3.4779318134
21
23.5535981823
31
0.0000000000
11
3.4142133768
21
23.6231863931
31
0.0000000000
11
3.3585993025
21
23.6845879287
31
0.0000000000
11
3.3115988615
21
23.7373302545
31
0.0000000000
11
3.2731665905
21
23.7814996355
31
0.0000000000
11
3.2427216234
21
23.8177614334
31
0.0000000000
11
3.2196456001
21
23.8468408042
31
0.0000000000
11
3.2034258147
21
23.8693966681
31
0.0000000000
11
3.1939581408
21
23.8855702137
31
0.0000000000
11
3.1909143915
21
23.8957149512
31
0.0000000000
0
SPLINE
5
3C8
100
AcDbEntity
8
0
100
AcDbSpline
62
0
6
CONTINUOUS
70
0
71
3
72
18
73
14
74
12
42
0.0000001000
43
0.0000001000
44
0.0000000001
12
-0.0252793934
22
-0.6549155442
32
0.0000000000
13
-0.4450904554
23
-0.4810903286
33
0.0000000000
40
0.0000000000
40
0.0000000000
40
0.0000000000
40
0.0000000000
40
0.0165612013
40
0.0454873726
40
0.0880998360
40
0.1448866598
40
0.2172643667
40
0.3066417466
40
0.4143507724
40
0.5404648439
40
0.6839186683
40
0.8391027189
40
1.0000000000
40
1.0000000000
40
1.0000000000
40
1.0000000000
10
4.0468471243
20
23.8953460856
30
0.0000000000
10
4.0467075719
20
23.8917306896
30
0.0000000000
10
4.0425448534
20
23.8823062366
30
0.0000000000
10
4.0325103465
20
23.8660887267
30
0.0000000000
10
4.0157920276
20
23.8434426265
30
0.0000000000
10
3.9923466333
20
23.8141864395
30
0.0000000000
10
3.9615293831
20
23.7776943081
30
0.0000000000
10
3.9228185648
20
23.7333484489
30
0.0000000000
10
3.8757861603
20
23.6806796088
30
0.0000000000
10
3.8204143518
20
23.6196267010
30
0.0000000000
10
3.7577175525
20
23.5512158783
30
0.0000000000
10
3.6896507919
20
23.4774202476
30
0.0000000000
10
3.6427556606
20
23.4267325175
30
0.0000000000
10
3.6188843792
20
23.4009304756
30
0.0000000000
11
4.0468471243
21
23.8953460856
31
0.0000000000
11
4.0435414405
21
23.8850074432
31
0.0000000000
11
4.0338776073
21
23.8686970870
31
0.0000000000
11
4.0175252866
21
23.8460565445
31
0.0000000000
11
3.9943616053
21
23.8169250598
31
0.0000000000
11
3.9638408809
21
23.7806109454
31
0.0000000000
11
3.9253765789
21
23.7364305659
31
0.0000000000
11
3.8784026483
21
23.6837352184
31
0.0000000000
11
3.8229096349
21
23.6224778183
31
0.0000000000
11
3.7594136867
21
23.5531377560
31
0.0000000000
11
3.6904785092
21
23.4783548357
31
0.0000000000
11
3.6188843792
21
23.4009304756
31
0.0000000000
0
SPLINE
5
3C9
100
AcDbEntity
8
0
100
AcDbSpline
62
0
6
CONTINUOUS
70
0
71
3
72
28
73
24
74
22
42
0.0000001000
43
0.0000001000
44
0.0000000001
12
-0.4748439349
22
-0.7122759476
32
0.0000000000
13
-0.0000000000
23
0.8560454358
33
0.0000000000
40
0.0000000000
40
0.0000000000
40
0.0000000000
40
0.0000000000
40
0.0060299341
40
0.0230402959
40
0.0506335728
40
0.0882779693
40
0.1349989267
40
0.1899602389
40
0.2516669597
40
0.3190832931
40
0.3903147874
40
0.4642150411
40
0.5386734117
40
0.6125090296
40
0.6836130920
40
0.7508412571
40
0.8123043412
40
0.8669706628
40
0.9133532644
40
0.9506220593
40
0.9778121753
40
0.9943998924
40
1.0000000000
40
1.0000000000
40
1.0000000000
40
1.0000000000
10
4.0468471243
20
22.4784708278
30
0.0000000000
10
4.0458926984
20
22.4770391688
30
0.0000000000
10
4.0375889486
20
22.4791563346
30
0.0000000000
10
4.0247589872
20
22.4763702001
30
0.0000000000
10
4.0004074409
20
22.4771717796
30
0.0000000000
10
3.9688412824
20
22.4761679545
30
0.0000000000
10
3.9289462189
20
22.4759514197
30
0.0000000000
10
3.8823728683
20
22.4755152478
30
0.0000000000
10
3.8298301260
20
22.4752325324
30
0.0000000000
10
3.7726644352
20
22.4749909727
30
0.0000000000
10
3.7120129560
20
22.4748336236
30
0.0000000000
10
3.6493537387
20
22.4747533833
30
0.0000000000
10
3.5859505772
20
22.4747549348
30
0.0000000000
10
3.5233466512
20
22.4748384751
30
0.0000000000
10
3.4628018621
20
22.4749983387
30
0.0000000000
10
3.4058019831
20
22.4752444890
30
0.0000000000
10
3.3534463683
20
22.4755241214
30
0.0000000000
10
3.3071863177
20
22.4759800166
30
0.0000000000
10
3.2673957133
20
22.4761479077
30
0.0000000000
10
3.2366380767
20
22.4772857596
30
0.0000000000
10
3.2114941703
20
22.4761836243
30
0.0000000000
10
3.2010305783
20
22.4794711771
30
0.0000000000
10
3.1909143915
20
22.4768945739
30
0.0000000000
10
3.1909143915
20
22.4784925561
30
0.0000000000
11
4.0468471243
21
22.4784708278
31
0.0000000000
11
4.0417151855
21
22.4779154983
31
0.0000000000
11
4.0271636626
21
22.4773727137
31
0.0000000000
11
4.0035482284
21
22.4768554358
31
0.0000000000
11
3.9713265136
21
22.4763738341
31
0.0000000000
11
3.9313336012
21
22.4759402823
31
0.0000000000
11
3.8842857365
21
22.4755626094
31
0.0000000000
11
3.8314628987
21
22.4752510364
31
0.0000000000
11
3.7737519542
21
22.4750108273
31
0.0000000000
11
3.7127747741
21
22.4748487057
31
0.0000000000
11
3.6495128516
21
22.4747672954
31
0.0000000000
11
3.5857731033
21
22.4747689134
31
0.0000000000
11
3.5225665162
21
22.4748535340
31
0.0000000000
11
3.4616984324
21
22.4750187487
31
0.0000000000
11
3.4041485821
21
22.4752618837
31
0.0000000000
11
3.3515343280
21
22.4755761332
31
0.0000000000
11
3.3047390161
21
22.4759561883
31
0.0000000000
11
3.2650357910
21
22.4763917634
31
0.0000000000
11
3.2331356690
21
22.4768749930
31
0.0000000000
11
3.2098654695
21
22.4773934611
31
0.0000000000
11
3.1956760355
21
22.4779369754
31
0.0000000000
11
3.1909143915
21
22.4784925561
31
0.0000000000
0
SPLINE
5
3CA
100
AcDbEntity
8
0
100
AcDbSpline
62
0
6
CONTINUOUS
70
0
71
3
72
18
73
14
74
12
42
0.0000001000
43
0.0000001000
44
0.0000000001
12
-0.4450903719
22
0.4810902383
32
0.0000000000
13
-0.0252793887
23
0.6549154213
33
0.0000000000
40
0.0000000000
40
0.0000000000
40
0.0000000000
40
0.0000000000
40
0.1607870617
40
0.3159451345
40
0.4594086114
40
0.5855248047
40
0.6932231358
40
0.7825985590
40
0.8549817506
40
0.9118040473
40
0.9544563951
40
0.9834203014
40
1.0000000000
40
1.0000000000
40
1.0000000000
40
1.0000000000
10
-4.2370555961
20
23.4009304756
30
0.0000000000
10
-4.2609105205
20
23.4267148375
30
0.0000000000
10
-4.3077854355
20
23.4773807179
30
0.0000000000
10
-4.3758335678
20
23.5511558945
30
0.0000000000
10
-4.4385285174
20
23.6195641797
30
0.0000000000
10
-4.4939008530
20
23.6806169053
30
0.0000000000
10
-4.5409322860
20
23.7332835118
30
0.0000000000
10
-4.5796429408
20
23.7776274088
30
0.0000000000
10
-4.6104670159
20
23.8141249356
30
0.0000000000
10
-4.6339252186
20
23.8433933689
30
0.0000000000
10
-4.6506607070
20
23.8660577856
30
0.0000000000
10
-4.6607082200
20
23.8822912626
30
0.0000000000
10
-4.6648786330
20
23.8917266522
30
0.0000000000
10
-4.6650183412
20
23.8953460856
30
0.0000000000
11
-4.2370555961
21
23.4009304756
31
0.0000000000
11
-4.3086006960
21
23.4783017579
31
0.0000000000
11
-4.3775244655
21
23.5530720122
31
0.0000000000
11
-4.4410249466
21
23.6224164777
31
0.0000000000
11
-4.4965192856
21
23.6836745323
31
0.0000000000
11
-4.5434891622
21
23.7363640861
31
0.0000000000
11
-4.5819535735
21
23.7805426554
31
0.0000000000
11
-4.6124780568
21
23.8168582946
31
0.0000000000
11
-4.6356582033
21
23.8460063809
31
0.0000000000
11
-4.6520282913
21
23.8686663298
31
0.0000000000
11
-4.6617073228
21
23.8849964234
31
0.0000000000
11
-4.6650183412
21
23.8953460856
31
0.0000000000
0
SPLINE
5
3CB
100
AcDbEntity
8
0
100
AcDbSpline
62
0
6
CONTINUOUS
70
0
71
3
72
18
73
14
74
12
42
0.0000001000
43
0.0000001000
44
0.0000000001
12
0.0000000000
22
-0.6557630631
32
0.0000000000
13
-0.4453348090
23
-0.4813544461
33
0.0000000000
40
0.0000000000
40
0.0000000000
40
0.0000000000
40
0.0000000000
40
0.0161326616
40
0.0446726060
40
0.0869974468
40
0.1435711078
40
0.2157675599
40
0.3050524484
40
0.4127923755
40
0.5391209607
40
0.6829945913
40
0.8386829812
40
1.0000000000
40
1.0000000000
40
1.0000000000
40
1.0000000000
10
-3.8090856085
20
23.8957149512
30
0.0000000000
10
-3.8090856085
20
23.8921885500
30
0.0000000000
10
-3.8131072061
20
23.8828397789
30
0.0000000000
10
-3.8229368157
20
23.8668014755
30
0.0000000000
10
-3.8395177470
20
23.8442554779
30
0.0000000000
10
-3.8628519963
20
23.8150833043
30
0.0000000000
10
-3.8936006649
20
23.7786347091
30
0.0000000000
10
-3.9322845221
20
23.7342941226
30
0.0000000000
10
-3.9793567166
20
23.6815635333
30
0.0000000000
10
-4.0348513951
20
23.6203648150
30
0.0000000000
10
-4.0977483130
20
23.5517306198
30
0.0000000000
10
-4.1660508462
20
23.4776778575
30
0.0000000000
10
-4.2131089016
20
23.4268140303
30
0.0000000000
10
-4.2370555961
20
23.4009304756
30
0.0000000000
11
-3.8090856085
21
23.8957149512
31
0.0000000000
11
-3.8121240410
21
23.8855814683
31
0.0000000000
11
-3.8215760993
21
23.8694282538
31
0.0000000000
11
-3.8377774597
21
23.8468925115
31
0.0000000000
11
-3.8608364466
21
23.8178302889
31
0.0000000000
11
-3.8912772986
21
23.7815703004
31
0.0000000000
11
-3.9297091088
21
23.7373994155
31
0.0000000000
11
-3.9767130937
21
23.6846517958
31
0.0000000000
11
-4.0323253621
21
23.6232513919
31
0.0000000000
11
-4.0960392154
21
23.5536676028
31
0.0000000000
11
-4.1652354156
21
23.4785995489
31
0.0000000000
11
-4.2370555961
21
23.4009304756
31
0.0000000000
0
SPLINE
5
3CC
100
AcDbEntity
8
0
100
AcDbSpline
62
0
6
CONTINUOUS
70
0
71
3
72
28
73
24
74
22
42
0.0000001000
43
0.0000001000
44
0.0000000001
12
0.0000000000
22
-0.8560454358
32
0.0000000000
13
-0.4748439350
23
0.7122759476
33
0.0000000000
40
0.0000000000
40
0.0000000000
40
0.0000000000
40
0.0000000000
40
0.0056001076
40
0.0221878247
40
0.0493779407
40
0.0866467356
40
0.1330293372
40
0.1876956588
40
0.2491587429
40
0.3163869080
40
0.3874909704
40
0.4613265883
40
0.5357849589
40
0.6096852126
40
0.6809167069
40
0.7483330403
40
0.8100397611
40
0.8650010733
40
0.9117220307
40
0.9493664272
40
0.9769597041
40
0.9939700659
40
1.0000000000
40
1.0000000000
40
1.0000000000
40
1.0000000000
10
-3.8090856085
20
22.4784925561
30
0.0000000000
10
-3.8090856085
20
22.4768945739
30
0.0000000000
10
-3.8192017953
20
22.4794711771
30
0.0000000000
10
-3.8296653873
20
22.4761836243
30
0.0000000000
10
-3.8548092937
20
22.4772857596
30
0.0000000000
10
-3.8855669302
20
22.4761479077
30
0.0000000000
10
-3.9253575346
20
22.4759800166
30
0.0000000000
10
-3.9716175852
20
22.4755241214
30
0.0000000000
10
-4.0239732000
20
22.4752444890
30
0.0000000000
10
-4.0809730790
20
22.4749983387
30
0.0000000000
10
-4.1415178682
20
22.4748384751
30
0.0000000000
10
-4.2041217942
20
22.4747549348
30
0.0000000000
10
-4.2675249556
20
22.4747533833
30
0.0000000000
10
-4.3301841730
20
22.4748336236
30
0.0000000000
10
-4.3908356522
20
22.4749909727
30
0.0000000000
10
-4.4480013430
20
22.4752325324
30
0.0000000000
10
-4.5005440852
20
22.4755152478
30
0.0000000000
10
-4.5471174359
20
22.4759514197
30
0.0000000000
10
-4.5870124993
20
22.4761679545
30
0.0000000000
10
-4.6185786578
20
22.4771717796
30
0.0000000000
10
-4.6429302041
20
22.4763702001
30
0.0000000000
10
-4.6557601655
20
22.4791563346
30
0.0000000000
10
-4.6640639153
20
22.4770391688
30
0.0000000000
10
-4.6650183412
20
22.4784708278
30
0.0000000000
11
-3.8090856085
21
22.4784925561
31
0.0000000000
11
-3.8138472525
21
22.4779369754
31
0.0000000000
11
-3.8280366864
21
22.4773934611
31
0.0000000000
11
-3.8513068860
21
22.4768749930
31
0.0000000000
11
-3.8832070079
21
22.4763917634
31
0.0000000000
11
-3.9229102331
21
22.4759561883
31
0.0000000000
11
-3.9697055449
21
22.4755761332
31
0.0000000000
11
-4.0223197990
21
22.4752618837
31
0.0000000000
11
-4.0798696493
21
22.4750187487
31
0.0000000000
11
-4.1407377331
21
22.4748535340
31
0.0000000000
11
-4.2039443203
21
22.4747689134
31
0.0000000000
11
-4.2676840685
21
22.4747672954
31
0.0000000000
11
-4.3309459911
21
22.4748487057
31
0.0000000000
11
-4.3919231711
21
22.4750108273
31
0.0000000000
11
-4.4496341157
21
22.4752510364
31
0.0000000000
11
-4.5024569534
21
22.4755626094
31
0.0000000000
11
-4.5495048181
21
22.4759402823
31
0.0000000000
11
-4.5894977305
21
22.4763738341
31
0.0000000000
11
-4.6217194454
21
22.4768554358
31
0.0000000000
11
-4.6453348795
21
22.4773727137
31
0.0000000000
11
-4.6598864025
21
22.4779154983
31
0.0000000000
11
-4.6650183412
21
22.4784708278
31
0.0000000000
0
SPLINE
5
3CD
100
AcDbEntity
8
0
100
AcDbSpline
62
0
6
CONTINUOUS
70
0
71
3
72
11
73
7
74
5
42
0.0000001000
43
0.0000001000
44
0.0000000001
12
0.2084938484
22
0.0000000000
32
0.0000000000
13
0.1866489250
23
0.0933079083
33
0.0000000000
40
0.0000000000
40
0.0000000000
40
0.0000000000
40
0.0000000000
40
0.3079696280
40
0.6162630946
40
0.9239502885
40
1.0000000000
40
1.0000000000
40
1.0000000000
40
1.0000000000
10
10.3907772989
20
-22.2467004713
30
0.0000000000
10
10.4121805565
20
-22.2467004713
30
0.0000000000
10
10.4550723770
20
-22.2436353167
30
0.0000000000
10
10.5180206408
20
-22.2299377900
30
0.0000000000
10
10.5632380993
20
-22.2130737744
30
0.0000000000
10
10.5873232007
20
-22.2015592936
30
0.0000000000
10
10.5920547330
20
-22.1991939471
30
0.0000000000
11
10.3907772989
21
-22.2467004713
31
0.0000000000
11
10.4548235437
21
-22.2421207917
31
0.0000000000
11
10.5176315748
21
-22.2284561877
31
0.0000000000
11
10.5777379186
21
-22.2060382537
31
0.0000000000
11
10.5920547330
21
-22.1991939471
31
0.0000000000
0
SPLINE
5
3CE
100
AcDbEntity
8
0
100
AcDbSpline
62
0
6
CONTINUOUS
70
0
71
3
72
18
73
14
74
12
42
0.0000001000
43
0.0000001000
44
0.0000000001
12
-0.4472051012
22
0.2235855214
32
0.0000000000
13
-0.4999828876
23
-0.0000000000
33
0.0000000000
40
0.0000000000
40
0.0000000000
40
0.0000000000
40
0.0000000000
40
0.0124656256
40
0.0445860838
40
0.0956297107
40
0.1648293831
40
0.2504153456
40
0.3512246475
40
0.4645991173
40
0.5889859396
40
0.7212300941
40
0.8592827416
40
1.0000000000
40
1.0000000000
40
1.0000000000
40
1.0000000000
10
7.7749389583
20
21.1362809251
30
0.0000000000
10
7.7730807278
20
21.1372099696
30
0.0000000000
10
7.7652275220
20
21.1364333919
30
0.0000000000
10
7.7496774968
20
21.1380154210
30
0.0000000000
10
7.7240866193
20
21.1379783944
30
0.0000000000
10
7.6898722672
20
21.1387315084
30
0.0000000000
10
7.6472454159
20
21.1391160747
30
0.0000000000
10
7.5972980744
20
21.1395668397
30
0.0000000000
10
7.5408691875
20
21.1399147777
30
0.0000000000
10
7.4792054365
20
21.1402041095
30
0.0000000000
10
7.4134270778
20
21.1404123796
30
0.0000000000
10
7.3449272717
20
21.1405398805
30
0.0000000000
10
7.2984671844
20
21.1405682066
30
0.0000000000
10
7.2750151107
20
21.1405682066
30
0.0000000000
11
7.7749389583
21
21.1362809251
31
0.0000000000
11
7.7687365938
21
21.1368940901
31
0.0000000000
11
7.7526881276
21
21.1374941209
31
0.0000000000
11
7.7271736263
21
21.1380673545
31
0.0000000000
11
7.6925791503
21
21.1386049037
31
0.0000000000
11
7.6497904190
21
21.1390931348
31
0.0000000000
11
7.5993893464
21
21.1395253586
31
0.0000000000
11
7.5427052256
21
21.1398901777
31
0.0000000000
11
7.4805146306
21
21.1401826351
31
0.0000000000
11
7.4143951583
21
21.1403952434
31
0.0000000000
11
7.3453713185
21
21.1405247927
31
0.0000000000
11
7.2750151107
21
21.1405682066
31
0.0000000000
0
SPLINE
5
3CF
100
AcDbEntity
8
0
100
AcDbSpline
62
0
6
CONTINUOUS
70
0
71
3
72
18
73
14
74
12
42
0.0000001000
43
0.0000001000
44
0.0000000001
12
-0.4999828876
22
0.0000000000
32
0.0000000000
13
-0.4472051012
23
-0.2235855214
33
0.0000000000
40
0.0000000000
40
0.0000000000
40
0.0000000000
40
0.0000000000
40
0.1407172584
40
0.2787699059
40
0.4110140604
40
0.5354008827
40
0.6487753525
40
0.7495846544
40
0.8351706169
40
0.9043702893
40
0.9554139162
40
0.9875343744
40
1.0000000000
40
1.0000000000
40
1.0000000000
40
1.0000000000
10
-7.8931863276
20
21.1405682066
30
0.0000000000
10
-7.9166384014
20
21.1405682066
30
0.0000000000
10
-7.9630984886
20
21.1405398805
30
0.0000000000
10
-8.0315982947
20
21.1404123796
30
0.0000000000
10
-8.0973766534
20
21.1402041095
30
0.0000000000
10
-8.1590404044
20
21.1399147777
30
0.0000000000
10
-8.2154692914
20
21.1395668397
30
0.0000000000
10
-8.2654166329
20
21.1391160747
30
0.0000000000
10
-8.3080434842
20
21.1387315084
30
0.0000000000
10
-8.3422578362
20
21.1379783944
30
0.0000000000
10
-8.3678487137
20
21.1380154210
30
0.0000000000
10
-8.3833987390
20
21.1364333919
30
0.0000000000
10
-8.3912519448
20
21.1372099696
30
0.0000000000
10
-8.3931101752
20
21.1362809251
30
0.0000000000
11
-7.8931863276
21
21.1405682066
31
0.0000000000
11
-7.9635425354
21
21.1405247927
31
0.0000000000
11
-8.0325663752
21
21.1403952434
31
0.0000000000
11
-8.0986858476
21
21.1401826351
31
0.0000000000
11
-8.1608764425
21
21.1398901777
31
0.0000000000
11
-8.2175605633
21
21.1395253586
31
0.0000000000
11
-8.2679616359
21
21.1390931348
31
0.0000000000
11
-8.3107503673
21
21.1386049037
31
0.0000000000
11
-8.3453448432
21
21.1380673545
31
0.0000000000
11
-8.3708593445
21
21.1374941209
31
0.0000000000
11
-8.3869078107
21
21.1368940901
31
0.0000000000
11
-8.3931101752
21
21.1362809251
31
0.0000000000
0
SPLINE
5
3D0
100
AcDbEntity
8
0
100
AcDbSpline
62
0
6
CONTINUOUS
70
0
71
3
72
18
73
14
74
12
42
0.0000001000
43
0.0000001000
44
0.0000000001
12
0.4999828876
22
0.0000000000
32
0.0000000000
13
0.4472051012
23
0.2235855214
33
0.0000000000
40
0.0000000000
40
0.0000000000
40
0.0000000000
40
0.0000000000
40
0.1407172584
40
0.2787699059
40
0.4110140604
40
0.5354008827
40
0.6487753525
40
0.7495846544
40
0.8351706169
40
0.9043702893
40
0.9554139162
40
0.9875343744
40
1.0000000000
40
1.0000000000
40
1.0000000000
40
1.0000000000
10
7.2750151107
20
-20.8514228848
30
0.0000000000
10
7.2984671844
20
-20.8514228848
30
0.0000000000
10
7.3449272717
20
-20.8513945587
30
0.0000000000
10
7.4134270778
20
-20.8512670578
30
0.0000000000
10
7.4792054365
20
-20.8510587877
30
0.0000000000
10
7.5408691875
20
-20.8507694559
30
0.0000000000
10
7.5972980744
20
-20.8504215179
30
0.0000000000
10
7.6472454159
20
-20.8499707529
30
0.0000000000
10
7.6898722672
20
-20.8495861866
30
0.0000000000
10
7.7240866193
20
-20.8488330726
30
0.0000000000
10
7.7496774968
20
-20.8488700992
30
0.0000000000
10
7.7652275220
20
-20.8472880701
30
0.0000000000
10
7.7730807278
20
-20.8480646478
30
0.0000000000
10
7.7749389583
20
-20.8471356033
30
0.0000000000
11
7.2750151107
21
-20.8514228848
31
0.0000000000
11
7.3453713185
21
-20.8513794709
31
0.0000000000
11
7.4143951583
21
-20.8512499216
31
0.0000000000
11
7.4805146306
21
-20.8510373134
31
0.0000000000
11
7.5427052256
21
-20.8507448559
31
0.0000000000
11
7.5993893464
21
-20.8503800368
31
0.0000000000
11
7.6497904190
21
-20.8499478130
31
0.0000000000
11
7.6925791503
21
-20.8494595819
31
0.0000000000
11
7.7271736263
21
-20.8489220327
31
0.0000000000
11
7.7526881276
21
-20.8483487992
31
0.0000000000
11
7.7687365938
21
-20.8477487684
31
0.0000000000
11
7.7749389583
21
-20.8471356033
31
0.0000000000
0
SPLINE
5
3D1
100
AcDbEntity
8
0
100
AcDbSpline
62
0
6
CONTINUOUS
70
0
71
3
72
18
73
14
74
12
42
0.0000001000
43
0.0000001000
44
0.0000000001
12
0.4472051012
22
-0.2235855214
32
0.0000000000
13
0.4999828876
23
0.0000000000
33
0.0000000000
40
0.0000000000
40
0.0000000000
40
0.0000000000
40
0.0000000000
40
0.0124656256
40
0.0445860838
40
0.0956297107
40
0.1648293831
40
0.2504153456
40
0.3512246475
40
0.4645991173
40
0.5889859396
40
0.7212300941
40
0.8592827416
40
1.0000000000
40
1.0000000000
40
1.0000000000
40
1.0000000000
10
-8.3931101752
20
-20.8471356033
30
0.0000000000
10
-8.3912519448
20
-20.8480646478
30
0.0000000000
10
-8.3833987390
20
-20.8472880701
30
0.0000000000
10
-8.3678487137
20
-20.8488700992
30
0.0000000000
10
-8.3422578362
20
-20.8488330726
30
0.0000000000
10
-8.3080434842
20
-20.8495861866
30
0.0000000000
10
-8.2654166329
20
-20.8499707529
30
0.0000000000
10
-8.2154692914
20
-20.8504215179
30
0.0000000000
10
-8.1590404044
20
-20.8507694559
30
0.0000000000
10
-8.0973766534
20
-20.8510587877
30
0.0000000000
10
-8.0315982947
20
-20.8512670578
30
0.0000000000
10
-7.9630984886
20
-20.8513945587
30
0.0000000000
10
-7.9166384014
20
-20.8514228848
30
0.0000000000
10
-7.8931863276
20
-20.8514228848
30
0.0000000000
11
-8.3931101752
21
-20.8471356033
31
0.0000000000
11
-8.3869078107
21
-20.8477487684
31
0.0000000000
11
-8.3708593445
21
-20.8483487992
31
0.0000000000
11
-8.3453448432
21
-20.8489220327
31
0.0000000000
11
-8.3107503673
21
-20.8494595819
31
0.0000000000
11
-8.2679616359
21
-20.8499478130
31
0.0000000000
11
-8.2175605633
21
-20.8503800368
31
0.0000000000
11
-8.1608764425
21
-20.8507448559
31
0.0000000000
11
-8.0986858476
21
-20.8510373134
31
0.0000000000
11
-8.0325663752
21
-20.8512499216
31
0.0000000000
11
-7.9635425354
21
-20.8513794709
31
0.0000000000
11
-7.8931863276
21
-20.8514228848
31
0.0000000000
0
SPLINE
5
3D2
100
AcDbEntity
8
0
100
AcDbSpline
62
0
6
CONTINUOUS
70
0
71
3
72
11
73
7
74
5
42
0.0000001000
43
0.0000001000
44
0.0000000001
12
-0.3127582945
22
0.4423070219
32
0.0000000000
13
-0.2926807401
23
0.4558412408
33
0.0000000000
40
0.0000000000
40
0.0000000000
40
0.0000000000
40
0.0000000000
40
0.2559001112
40
0.5096100791
40
0.7585931600
40
1.0000000000
40
1.0000000000
40
1.0000000000
40
1.0000000000
10
-7.8931863276
20
21.4572659046
30
0.0000000000
10
-7.9198646217
20
21.4949947100
30
0.0000000000
10
-7.9729933751
20
21.5701290357
30
0.0000000000
10
-8.0515675685
20
21.6823340773
30
0.0000000000
10
-8.1275554266
20
21.7931488868
30
0.0000000000
10
-8.1764173713
20
21.8670081227
30
0.0000000000
10
-8.1999690821
20
21.9036891872
30
0.0000000000
11
-7.8931863276
21
21.4572659046
31
0.0000000000
11
-7.9731349809
21
21.5705132446
31
0.0000000000
11
-8.0518704386
21
21.6831629055
31
0.0000000000
11
-8.1280154124
21
21.7944906451
31
0.0000000000
11
-8.1999690821
21
21.9036891872
31
0.0000000000
0
SPLINE
5
3D3
100
AcDbEntity
8
0
100
AcDbSpline
62
0
6
CONTINUOUS
70
0
71
3
72
11
73
7
74
5
42
0.0000001000
43
0.0000001000
44
0.0000000001
12
-0.2926807401
22
-0.4558412408
32
0.0000000000
13
-0.3127582945
23
-0.4423070219
33
0.0000000000
40
0.0000000000
40
0.0000000000
40
0.0000000000
40
0.0000000000
40
0.2414068400
40
0.4903899209
40
0.7440998888
40
1.0000000000
40
1.0000000000
40
1.0000000000
40
1.0000000000
10
7.5817978652
20
21.9036891872
30
0.0000000000
10
7.5582461543
20
21.8670081227
30
0.0000000000
10
7.5093842096
20
21.7931488868
30
0.0000000000
10
7.4333963515
20
21.6823340773
30
0.0000000000
10
7.3548221581
20
21.5701290357
30
0.0000000000
10
7.3016934048
20
21.4949947100
30
0.0000000000
10
7.2750151107
20
21.4572659046
30
0.0000000000
11
7.5817978652
21
21.9036891872
31
0.0000000000
11
7.5098441955
21
21.7944906451
31
0.0000000000
11
7.4336992217
21
21.6831629055
31
0.0000000000
11
7.3549637639
21
21.5705132446
31
0.0000000000
11
7.2750151107
21
21.4572659046
31
0.0000000000
0
SPLINE
5
3D4
100
AcDbEntity
8
0
100
AcDbSpline
62
0
6
CONTINUOUS
70
0
71
3
72
11
73
7
74
5
42
0.0000001000
43
0.0000001000
44
0.0000000001
12
0.2926807401
22
0.4558412408
32
0.0000000000
13
0.3127582945
23
0.4423070219
33
0.0000000000
40
0.0000000000
40
0.0000000000
40
0.0000000000
40
0.0000000000
40
0.2414068400
40
0.4903899209
40
0.7440998888
40
1.0000000000
40
1.0000000000
40
1.0000000000
40
1.0000000000
10
-8.1999690821
20
-21.6145438655
30
0.0000000000
10
-8.1764173713
20
-21.5778628010
30
0.0000000000
10
-8.1275554266
20
-21.5040035650
30
0.0000000000
10
-8.0515675685
20
-21.3931887555
30
0.0000000000
10
-7.9729933751
20
-21.2809837139
30
0.0000000000
10
-7.9198646217
20
-21.2058493882
30
0.0000000000
10
-7.8931863276
20
-21.1681205828
30
0.0000000000
11
-8.1999690821
21
-21.6145438655
31
0.0000000000
11
-8.1280154124
21
-21.5053453233
31
0.0000000000
11
-8.0518704386
21
-21.3940175837
31
0.0000000000
11
-7.9731349809
21
-21.2813679228
31
0.0000000000
11
-7.8931863276
21
-21.1681205828
31
0.0000000000
0
SPLINE
5
3D5
100
AcDbEntity
8
0
100
AcDbSpline
62
0
6
CONTINUOUS
70
0
71
3
72
11
73
7
74
5
42
0.0000001000
43
0.0000001000
44
0.0000000001
12
0.3127582945
22
-0.4423070219
32
0.0000000000
13
0.2926807401
23
-0.4558412408
33
0.0000000000
40
0.0000000000
40
0.0000000000
40
0.0000000000
40
0.0000000000
40
0.2559001112
40
0.5096100791
40
0.7585931600
40
1.0000000000
40
1.0000000000
40
1.0000000000
40
1.0000000000
10
7.2750151107
20
-21.1681205828
30
0.0000000000
10
7.3016934048
20
-21.2058493882
30
0.0000000000
10
7.3548221581
20
-21.2809837139
30
0.0000000000
10
7.4333963515
20
-21.3931887555
30
0.0000000000
10
7.5093842096
20
-21.5040035650
30
0.0000000000
10
7.5582461543
20
-21.5778628010
30
0.0000000000
10
7.5817978652
20
-21.6145438655
30
0.0000000000
11
7.2750151107
21
-21.1681205828
31
0.0000000000
11
7.3549637639
21
-21.2813679228
31
0.0000000000
11
7.4336992217
21
-21.3940175837
31
0.0000000000
11
7.5098441955
21
-21.5053453233
31
0.0000000000
11
7.5817978652
21
-21.6145438655
31
0.0000000000
0
SPLINE
5
3D6
100
AcDbEntity
8
0
100
AcDbSpline
62
0
6
CONTINUOUS
70
0
71
3
72
18
73
14
74
12
42
0.0000001000
43
0.0000001000
44
0.0000000001
12
0.2773524497
22
-0.4160345418
32
0.0000000000
13
0.0000000000
23
-0.5000091213
33
0.0000000000
40
0.0000000000
40
0.0000000000
40
0.0000000000
40
0.0000000000
40
0.0113261436
40
0.0425694612
40
0.0929959749
40
0.1618372222
40
0.2473117421
40
0.3482448350
40
0.4619448742
40
0.5868367556
40
0.7197171256
40
0.8585035741
40
1.0000000000
40
1.0000000000
40
1.0000000000
40
1.0000000000
10
6.2462091595
20
-19.9383706608
30
0.0000000000
10
6.2472562707
20
-19.9399413498
30
0.0000000000
10
6.2457378257
20
-19.9477367149
30
0.0000000000
10
6.2477359453
20
-19.9625880127
30
0.0000000000
10
6.2471880952
20
-19.9880238401
30
0.0000000000
10
6.2479180685
20
-20.0219962998
30
0.0000000000
10
6.2480929670
20
-20.0645933422
30
0.0000000000
10
6.2484251751
20
-20.1145922083
30
0.0000000000
10
6.2486501872
20
-20.1711864360
30
0.0000000000
10
6.2488479752
20
-20.2330974161
30
0.0000000000
10
6.2489874723
20
-20.2991921629
30
0.0000000000
10
6.2490736540
20
-20.3680537498
30
0.0000000000
10
6.2490926896
20
-20.4147684545
30
0.0000000000
10
6.2490926896
20
-20.4383516223
30
0.0000000000
11
6.2462091595
21
-19.9383706608
31
0.0000000000
11
6.2466205050
21
-19.9440188771
31
0.0000000000
11
6.2470234589
21
-19.9596356230
31
0.0000000000
11
6.2474087424
21
-19.9848463960
31
0.0000000000
11
6.2477703155
21
-20.0192657485
31
0.0000000000
11
6.2480989046
21
-20.0620025248
31
0.0000000000
11
6.2483899570
21
-20.1124691527
31
0.0000000000
11
6.2486357109
21
-20.1693196782
31
0.0000000000
11
6.2488327890
21
-20.2317664471
31
0.0000000000
11
6.2489760887
21
-20.2982076896
31
0.0000000000
11
6.2490634213
21
-20.3676021248
31
0.0000000000
11
6.2490926896
21
-20.4383516223
31
0.0000000000
0
SPLINE
5
3D7
100
AcDbEntity
8
0
100
AcDbSpline
62
0
6
CONTINUOUS
70
0
71
3
72
18
73
14
74
12
42
0.0000001000
43
0.0000001000
44
0.0000000001
12
0.0000000000
22
0.5000091213
32
0.0000000000
13
0.2773524497
23
0.4160345418
33
0.0000000000
40
0.0000000000
40
0.0000000000
40
0.0000000000
40
0.0000000000
40
0.1414964259
40
0.2802828744
40
0.4131632444
40
0.5380551258
40
0.6517551650
40
0.7526882579
40
0.8381627778
40
0.9070040251
40
0.9574305388
40
0.9886738564
40
1.0000000000
40
1.0000000000
40
1.0000000000
40
1.0000000000
10
-6.8672639066
20
-20.4383516223
30
0.0000000000
10
-6.8672639066
20
-20.4147684545
30
0.0000000000
10
-6.8672448710
20
-20.3680537498
30
0.0000000000
10
-6.8671586892
20
-20.2991921629
30
0.0000000000
10
-6.8670191921
20
-20.2330974161
30
0.0000000000
10
-6.8668214041
20
-20.1711864360
30
0.0000000000
10
-6.8665963920
20
-20.1145922083
30
0.0000000000
10
-6.8662641840
20
-20.0645933422
30
0.0000000000
10
-6.8660892855
20
-20.0219962998
30
0.0000000000
10
-6.8653593121
20
-19.9880238401
30
0.0000000000
10
-6.8659071622
20
-19.9625880127
30
0.0000000000
10
-6.8639090426
20
-19.9477367149
30
0.0000000000
10
-6.8654274877
20
-19.9399413498
30
0.0000000000
10
-6.8643803764
20
-19.9383706608
30
0.0000000000
11
-6.8672639066
21
-20.4383516223
31
0.0000000000
11
-6.8672346382
21
-20.3676021248
31
0.0000000000
11
-6.8671473056
21
-20.2982076896
31
0.0000000000
11
-6.8670040060
21
-20.2317664471
31
0.0000000000
11
-6.8668069279
21
-20.1693196782
31
0.0000000000
11
-6.8665611739
21
-20.1124691527
31
0.0000000000
11
-6.8662701215
21
-20.0620025248
31
0.0000000000
11
-6.8659415324
21
-20.0192657485
31
0.0000000000
11
-6.8655799593
21
-19.9848463960
31
0.0000000000
11
-6.8651946759
21
-19.9596356230
31
0.0000000000
11
-6.8647917219
21
-19.9440188771
31
0.0000000000
11
-6.8643803764
21
-19.9383706608
31
0.0000000000
0
SPLINE
5
3D8
100
AcDbEntity
8
0
100
AcDbSpline
62
0
6
CONTINUOUS
70
0
71
3
72
18
73
14
74
12
42
0.0000001000
43
0.0000001000
44
0.0000000001
12
-0.2773524497
22
0.4160345418
32
0.0000000000
13
-0.0000000000
23
0.5000091213
33
0.0000000000
40
0.0000000000
40
0.0000000000
40
0.0000000000
40
0.0000000000
40
0.0113261436
40
0.0425694612
40
0.0929959749
40
0.1618372222
40
0.2473117421
40
0.3482448350
40
0.4619448742
40
0.5868367556
40
0.7197171256
40
0.8585035741
40
1.0000000000
40
1.0000000000
40
1.0000000000
40
1.0000000000
10
-6.8643803764
20
20.2275159826
30
0.0000000000
10
-6.8654274877
20
20.2290866716
30
0.0000000000
10
-6.8639090426
20
20.2368820367
30
0.0000000000
10
-6.8659071622
20
20.2517333345
30
0.0000000000
10
-6.8653593121
20
20.2771691619
30
0.0000000000
10
-6.8660892855
20
20.3111416215
30
0.0000000000
10
-6.8662641840
20
20.3537386640
30
0.0000000000
10
-6.8665963920
20
20.4037375301
30
0.0000000000
10
-6.8668214041
20
20.4603317578
30
0.0000000000
10
-6.8670191921
20
20.5222427379
30
0.0000000000
10
-6.8671586892
20
20.5883374847
30
0.0000000000
10
-6.8672448710
20
20.6571990716
30
0.0000000000
10
-6.8672639066
20
20.7039137762
30
0.0000000000
10
-6.8672639066
20
20.7274969441
30
0.0000000000
11
-6.8643803764
21
20.2275159826
31
0.0000000000
11
-6.8647917219
21
20.2331641989
31
0.0000000000
11
-6.8651946759
21
20.2487809448
31
0.0000000000
11
-6.8655799593
21
20.2739917178
31
0.0000000000
11
-6.8659415324
21
20.3084110702
31
0.0000000000
11
-6.8662701215
21
20.3511478466
31
0.0000000000
11
-6.8665611739
21
20.4016144745
31
0.0000000000
11
-6.8668069279
21
20.4584650000
31
0.0000000000
11
-6.8670040060
21
20.5209117689
31
0.0000000000
11
-6.8671473056
21
20.5873530114
31
0.0000000000
11
-6.8672346382
21
20.6567474466
31
0.0000000000
11
-6.8672639066
21
20.7274969441
31
0.0000000000
0
SPLINE
5
3D9
100
AcDbEntity
8
0
100
AcDbSpline
62
0
6
CONTINUOUS
70
0
71
3
72
18
73
14
74
12
42
0.0000001000
43
0.0000001000
44
0.0000000001
12
0.0000000000
22
-0.5000091213
32
0.0000000000
13
-0.2773524497
23
-0.4160345418
33
0.0000000000
40
0.0000000000
40
0.0000000000
40
0.0000000000
40
0.0000000000
40
0.1414964259
40
0.2802828744
40
0.4131632444
40
0.5380551258
40
0.6517551650
40
0.7526882579
40
0.8381627778
40
0.9070040251
40
0.9574305388
40
0.9886738564
40
1.0000000000
40
1.0000000000
40
1.0000000000
40
1.0000000000
10
6.2490926896
20
20.7274969441
30
0.0000000000
10
6.2490926896
20
20.7039137762
30
0.0000000000
10
6.2490736540
20
20.6571990716
30
0.0000000000
10
6.2489874723
20
20.5883374847
30
0.0000000000
10
6.2488479752
20
20.5222427379
30
0.0000000000
10
6.2486501872
20
20.4603317578
30
0.0000000000
10
6.2484251751
20
20.4037375301
30
0.0000000000
10
6.2480929670
20
20.3537386640
30
0.0000000000
10
6.2479180685
20
20.3111416215
30
0.0000000000
10
6.2471880952
20
20.2771691619
30
0.0000000000
10
6.2477359453
20
20.2517333345
30
0.0000000000
10
6.2457378257
20
20.2368820367
30
0.0000000000
10
6.2472562707
20
20.2290866716
30
0.0000000000
10
6.2462091595
20
20.2275159826
30
0.0000000000
11
6.2490926896
21
20.7274969441
31
0.0000000000
11
6.2490634213
21
20.6567474466
31
0.0000000000
11
6.2489760887
21
20.5873530114
31
0.0000000000
11
6.2488327890
21
20.5209117689
31
0.0000000000
11
6.2486357109
21
20.4584650000
31
0.0000000000
11
6.2483899570
21
20.4016144745
31
0.0000000000
11
6.2480989046
21
20.3511478466
31
0.0000000000
11
6.2477703155
21
20.3084110702
31
0.0000000000
11
6.2474087424
21
20.2739917178
31
0.0000000000
11
6.2470234589
21
20.2487809448
31
0.0000000000
11
6.2466205050
21
20.2331641989
31
0.0000000000
11
6.2462091595
21
20.2275159826
31
0.0000000000
0
SPLINE
5
3DA
100
AcDbEntity
8
0
100
AcDbSpline
62
0
6
CONTINUOUS
70
0
71
3
72
14
73
10
74
8
42
0.0000001000
43
0.0000001000
44
0.0000000001
12
-0.0030037350
22
-0.1879171720
32
0.0000000000
13
0.0000000000
23
-0.1879411769
33
0.0000000000
40
0.0000000000
40
0.0000000000
40
0.0000000000
40
0.0000000000
40
0.0783473452
40
0.1849693055
40
0.3157651624
40
0.4681512810
40
0.6357913309
40
0.8153168490
40
1.0000000000
40
1.0000000000
40
1.0000000000
40
1.0000000000
10
-6.8664983036
20
-18.3075303226
30
0.0000000000
10
-6.8665767485
20
-18.3124379264
30
0.0000000000
10
-6.8667095215
20
-18.3240250312
30
0.0000000000
10
-6.8668676550
20
-18.3438061579
30
0.0000000000
10
-6.8670053807
20
-18.3682258643
30
0.0000000000
10
-6.8671179947
20
-18.3964683204
30
0.0000000000
10
-6.8672013456
20
-18.4277636621
30
0.0000000000
10
-6.8672524758
20
-18.4610823867
30
0.0000000000
10
-6.8672639066
20
-18.4838989905
30
0.0000000000
10
-6.8672639066
20
-18.4954688468
30
0.0000000000
11
-6.8664983036
21
-18.3075303226
31
0.0000000000
11
-6.8666820239
21
-18.3222538687
31
0.0000000000
11
-6.8668484874
21
-18.3422918339
31
0.0000000000
11
-6.8669914984
21
-18.3668733452
31
0.0000000000
11
-6.8671081657
21
-18.3955127340
31
0.0000000000
11
-6.8671936381
21
-18.4270190864
31
0.0000000000
11
-6.8672462500
21
-18.4607592825
31
0.0000000000
11
-6.8672639066
21
-18.4954688468
31
0.0000000000
0
SPLINE
5
3DB
100
AcDbEntity
8
0
100
AcDbSpline
62
9
6
CONTINUOUS
70
0
71
3
72
17
73
13
74
11
42
0.0000001000
43
0.0000001000
44
0.0000000001
12
0.3922846478
22
-0.0000132773
32
0.0000000000
13
0.0000132773
23
-0.3922846478
33
0.0000000000
40
0.0000000000
40
0.0000000000
40
0.0000000000
40
0.0000000000
40
0.0998239394
40
0.1998359985
40
0.2998483200
40
0.3998691378
40
0.4998893118
40
0.5999112671
40
0.6999336806
40
0.7999562942
40
0.8999787118
40
1.0000000000
40
1.0000000000
40
1.0000000000
40
1.0000000000
10
10.0865467883
20
24.6402008269
30
0.0000000000
10
10.0995999213
20
24.6402003851
30
0.0000000000
10
10.1257769103
20
24.6381445392
30
0.0000000000
10
10.1640537263
20
24.6289628823
30
0.0000000000
10
10.2004564526
20
24.6138948877
30
0.0000000000
10
10.2340517848
20
24.5933169049
30
0.0000000000
10
10.2640154724
20
24.5677352636
30
0.0000000000
10
10.2896076519
20
24.5377802888
30
0.0000000000
10
10.3101981425
20
24.5041905192
30
0.0000000000
10
10.3252794638
20
24.4677900889
30
0.0000000000
10
10.3344800160
20
24.4294884273
30
0.0000000000
10
10.3365421149
20
24.4032839963
30
0.0000000000
10
10.3365425575
20
24.3902050577
30
0.0000000000
11
10.0865467883
21
24.6402008269
31
0.0000000000
11
10.1255857972
21
24.6371325528
31
0.0000000000
11
10.1637371658
21
24.6279828696
31
0.0000000000
11
10.1999874041
21
24.6129771400
31
0.0000000000
11
10.2334464021
21
24.5924830265
31
0.0000000000
11
10.2632866996
21
24.5670065655
31
0.0000000000
11
10.2887739684
21
24.5371745796
31
0.0000000000
11
10.3092799302
21
24.5037221075
31
0.0000000000
11
10.3242993490
21
24.4674731686
31
0.0000000000
11
10.3334621424
21
24.4293207676
31
0.0000000000
11
10.3365425575
21
24.3902050577
31
0.0000000000
0
SPLINE
5
3DC
100
AcDbEntity
8
0
100
AcDbSpline
62
0
6
CONTINUOUS
70
0
71
3
72
17
73
13
74
11
42
0.0000001000
43
0.0000001000
44
0.0000000001
12
0.0000000000
22
-0.4220147089
32
0.0000000000
13
-0.4220147089
23
0.0000000000
33
0.0000000000
40
0.0000000000
40
0.0000000000
40
0.0000000000
40
0.0000000000
40
0.1163097356
40
0.2303278571
40
0.3412445469
40
0.4475088604
40
0.5491224320
40
0.6456322518
40
0.7382753117
40
0.8272646510
40
0.9144010609
40
1.0000000000
40
1.0000000000
40
1.0000000000
40
1.0000000000
10
10.3409143915
20
23.5550578091
30
0.0000000000
10
10.3409143915
20
23.5386963360
30
0.0000000000
10
10.3385244280
20
23.5062438322
30
0.0000000000
10
10.3279614271
20
23.4592458202
30
0.0000000000
10
10.3110567764
20
23.4156398736
30
0.0000000000
10
10.2886546654
20
23.3765914283
30
0.0000000000
10
10.2618039658
20
23.3430157385
30
0.0000000000
10
10.2314590145
20
23.3153360668
30
0.0000000000
10
10.1985792923
20
23.2938141271
30
0.0000000000
10
10.1638472985
20
23.2784476969
30
0.0000000000
10
10.1280256582
20
23.2692624318
30
0.0000000000
10
10.1036787265
20
23.2672223917
30
0.0000000000
10
10.0916373894
20
23.2672223917
30
0.0000000000
11
10.3409143915
21
23.5550578091
31
0.0000000000
11
10.3372920327
21
23.5061072348
31
0.0000000000
11
10.3267045284
21
23.4591691729
31
0.0000000000
11
10.3097299746
21
23.4155469559
31
0.0000000000
11
10.2873532887
21
23.3766835127
31
0.0000000000
11
10.2605120978
21
23.3432402387
31
0.0000000000
11
10.2303734807
21
23.3158453551
31
0.0000000000
11
10.1976269131
21
23.2944861203
31
0.0000000000
11
10.1632642747
21
23.2793344589
31
0.0000000000
11
10.1276358135
21
23.2702319865
31
0.0000000000
11
10.0916373894
21
23.2672223917
31
0.0000000000
0
SPLINE
5
3DD
100
AcDbEntity
8
0
100
AcDbSpline
62
9
6
CONTINUOUS
70
0
71
3
72
17
73
13
74
11
42
0.0000001000
43
0.0000001000
44
0.0000000001
12
-0.0012298291
22
-0.3661500354
32
0.0000000000
13
-0.3661509389
23
-0.0009224053
33
0.0000000000
40
0.0000000000
40
0.0000000000
40
0.0000000000
40
0.0000000000
40
0.0926637669
40
0.1861959939
40
0.2811621264
40
0.3780472439
40
0.4771141944
40
0.5784104998
40
0.6817687109
40
0.7868361684
40
0.8931123906
40
1.0000000000
40
1.0000000000
40
1.0000000000
40
1.0000000000
10
10.3365425575
20
23.9889102282
30
0.0000000000
10
10.3365045707
20
23.9776006143
30
0.0000000000
10
10.3343565028
20
23.9548298509
30
0.0000000000
10
10.3250219249
20
23.9216281779
30
0.0000000000
10
10.3098121768
20
23.8900985205
30
0.0000000000
10
10.2891262909
20
23.8610407796
30
0.0000000000
10
10.2634911865
20
23.8351552002
30
0.0000000000
10
10.2335479225
20
23.8130632492
30
0.0000000000
10
10.2000350234
20
23.7952896114
30
0.0000000000
10
10.1637687217
20
23.7822553445
30
0.0000000000
10
10.1256395384
20
23.7742686892
30
0.0000000000
10
10.0995924545
20
23.7724367418
30
0.0000000000
10
10.0865467883
20
23.7724038772
30
0.0000000000
11
10.3365425575
21
23.9889102282
31
0.0000000000
11
10.3333674978
21
23.9551300821
31
0.0000000000
11
10.3241368752
21
23.9221504811
31
0.0000000000
11
10.3090772511
21
23.8908087659
31
0.0000000000
11
10.2885563757
21
23.8618718128
31
0.0000000000
11
10.2630786864
21
23.8360520651
31
0.0000000000
11
10.2332691127
21
23.8139829313
31
0.0000000000
11
10.1998592853
21
23.7962061404
31
0.0000000000
11
10.1636690125
21
23.7831578980
31
0.0000000000
11
10.1255868535
21
23.7751584527
31
0.0000000000
11
10.0865467883
21
23.7724038772
31
0.0000000000
0
SPLINE
5
3DE
100
AcDbEntity
8
0
100
AcDbSpline
62
0
6
CONTINUOUS
70
0
71
3
72
17
73
13
74
11
42
0.0000001000
43
0.0000001000
44
0.0000000001
12
-0.4220147089
22
0.0000000000
32
0.0000000000
13
0.0000000000
23
0.4220147089
33
0.0000000000
40
0.0000000000
40
0.0000000000
40
0.0000000000
40
0.0000000000
40
0.0855989391
40
0.1727353490
40
0.2617246883
40
0.3543677482
40
0.4508775680
40
0.5524911396
40
0.6587554531
40
0.7696721429
40
0.8836902644
40
1.0000000000
40
1.0000000000
40
1.0000000000
40
1.0000000000
10
8.1901913937
20
23.2672223917
30
0.0000000000
10
8.1781500565
20
23.2672223917
30
0.0000000000
10
8.1538031248
20
23.2692624318
30
0.0000000000
10
8.1179814846
20
23.2784476969
30
0.0000000000
10
8.0832494907
20
23.2938141271
30
0.0000000000
10
8.0503697686
20
23.3153360668
30
0.0000000000
10
8.0200248172
20
23.3430157385
30
0.0000000000
10
7.9931741177
20
23.3765914283
30
0.0000000000
10
7.9707720066
20
23.4156398736
30
0.0000000000
10
7.9538673560
20
23.4592458202
30
0.0000000000
10
7.9433043550
20
23.5062438322
30
0.0000000000
10
7.9409143915
20
23.5386963360
30
0.0000000000
10
7.9409143915
20
23.5550578091
30
0.0000000000
11
8.1901913937
21
23.2672223917
31
0.0000000000
11
8.1541929696
21
23.2702319865
31
0.0000000000
11
8.1185645084
21
23.2793344589
31
0.0000000000
11
8.0842018699
21
23.2944861203
31
0.0000000000
11
8.0514553023
21
23.3158453551
31
0.0000000000
11
8.0213166852
21
23.3432402387
31
0.0000000000
11
7.9944754944
21
23.3766835127
31
0.0000000000
11
7.9720988084
21
23.4155469559
31
0.0000000000
11
7.9551242546
21
23.4591691729
31
0.0000000000
11
7.9445367504
21
23.5061072348
31
0.0000000000
11
7.9409143915
21
23.5550578091
31
0.0000000000
0
SPLINE
5
3DF
100
AcDbEntity
8
0
100
AcDbSpline
62
9
6
CONTINUOUS
70
0
71
3
72
17
73
13
74
11
42
0.0000001000
43
0.0000001000
44
0.0000000001
12
0.0012298290
22
-0.3661500127
32
0.0000000000
13
0.3661509162
23
-0.0009224053
33
0.0000000000
40
0.0000000000
40
0.0000000000
40
0.0000000000
40
0.0000000000
40
0.0927409810
40
0.1862742706
40
0.2812426722
40
0.3781228716
40
0.4771847111
40
0.5784746944
40
0.6818263867
40
0.7868857196
40
0.8931548188
40
1.0000000000
40
1.0000000000
40
1.0000000000
40
1.0000000000
10
7.9452862255
20
23.9889102282
30
0.0000000000
10
7.9453242440
20
23.9775911911
30
0.0000000000
10
7.9474749782
20
23.9548107533
30
0.0000000000
10
7.9568171571
20
23.9216010068
30
0.0000000000
10
7.9720313760
20
23.8900737198
30
0.0000000000
10
7.9927205692
20
23.8610195522
30
0.0000000000
10
8.0183572620
20
23.8351384114
30
0.0000000000
10
8.0483009504
20
23.8130507964
30
0.0000000000
10
8.0818130782
20
23.7952812423
30
0.0000000000
10
8.1180777758
20
23.7822504846
30
0.0000000000
10
8.1562005136
20
23.7742675455
30
0.0000000000
10
8.1822415077
20
23.7724367288
30
0.0000000000
10
8.1952819947
20
23.7724038772
30
0.0000000000
11
7.9452862255
21
23.9889102282
31
0.0000000000
11
7.9484664711
21
23.9551021750
31
0.0000000000
11
7.9577020741
21
23.9221235666
31
0.0000000000
11
7.9727665790
21
23.8907832777
31
0.0000000000
11
7.9932902805
21
23.8618505394
31
0.0000000000
11
8.0187696759
21
23.8360351077
31
0.0000000000
11
8.0485796149
21
23.8139703620
31
0.0000000000
11
8.0819888611
21
23.7961975656
31
0.0000000000
11
8.1181772726
21
23.7831529388
31
0.0000000000
11
8.1562573541
21
23.7751563023
31
0.0000000000
11
8.1952819947
21
23.7724038772
31
0.0000000000
0
SPLINE
5
3E0
100
AcDbEntity
8
0
100
AcDbSpline
62
9
6
CONTINUOUS
70
0
71
3
72
17
73
13
74
11
42
0.0000001000
43
0.0000001000
44
0.0000000001
12
0.0000132773
22
0.3922846478
32
0.0000000000
13
0.3922846478
23
0.0000132773
33
0.0000000000
40
0.0000000000
40
0.0000000000
40
0.0000000000
40
0.0000000000
40
0.1000212882
40
0.2000437058
40
0.3000663194
40
0.4000887329
40
0.5001106882
40
0.6001308622
40
0.7001516800
40
0.8001640015
40
0.9001760606
40
1.0000000000
40
1.0000000000
40
1.0000000000
40
1.0000000000
10
7.9452862255
20
24.3902050577
30
0.0000000000
10
7.9452866682
20
24.4032839963
30
0.0000000000
10
7.9473487670
20
24.4294884273
30
0.0000000000
10
7.9565493192
20
24.4677900889
30
0.0000000000
10
7.9716306405
20
24.5041905192
30
0.0000000000
10
7.9922211311
20
24.5377802888
30
0.0000000000
10
8.0178133106
20
24.5677352636
30
0.0000000000
10
8.0477769982
20
24.5933169049
30
0.0000000000
10
8.0813723305
20
24.6138948877
30
0.0000000000
10
8.1177750567
20
24.6289628823
30
0.0000000000
10
8.1560518727
20
24.6381445392
30
0.0000000000
10
8.1822288618
20
24.6402003851
30
0.0000000000
10
8.1952819947
20
24.6402008269
30
0.0000000000
11
7.9452862255
21
24.3902050577
31
0.0000000000
11
7.9483666407
21
24.4293207676
31
0.0000000000
11
7.9575294341
21
24.4674731686
31
0.0000000000
11
7.9725488529
21
24.5037221075
31
0.0000000000
11
7.9930548147
21
24.5371745796
31
0.0000000000
11
8.0185420835
21
24.5670065655
31
0.0000000000
11
8.0483823810
21
24.5924830265
31
0.0000000000
11
8.0818413790
21
24.6129771400
31
0.0000000000
11
8.1180916173
21
24.6279828696
31
0.0000000000
11
8.1562429858
21
24.6371325528
31
0.0000000000
11
8.1952819947
21
24.6402008269
31
0.0000000000
0
SPLINE
5
3E1
100
AcDbEntity
8
0
100
AcDbSpline
62
0
6
CONTINUOUS
70
0
71
3
72
14
73
10
74
8
42
0.0000001000
43
0.0000001000
44
0.0000000001
12
0.0000000000
22
0.1879411769
32
0.0000000000
13
-0.0030037350
23
0.1879171720
33
0.0000000000
40
0.0000000000
40
0.0000000000
40
0.0000000000
40
0.0000000000
40
0.1846831510
40
0.3642086691
40
0.5318487190
40
0.6842348376
40
0.8150306945
40
0.9216526548
40
1.0000000000
40
1.0000000000
40
1.0000000000
40
1.0000000000
10
-7.5509073104
20
-18.4954688468
30
0.0000000000
10
-7.5509073104
20
-18.4838989905
30
0.0000000000
10
-7.5509187412
20
-18.4610823867
30
0.0000000000
10
-7.5509698714
20
-18.4277636621
30
0.0000000000
10
-7.5510532222
20
-18.3964683204
30
0.0000000000
10
-7.5511658362
20
-18.3682258643
30
0.0000000000
10
-7.5513035619
20
-18.3438061579
30
0.0000000000
10
-7.5514616955
20
-18.3240250312
30
0.0000000000
10
-7.5515944684
20
-18.3124379264
30
0.0000000000
10
-7.5516729133
20
-18.3075303226
30
0.0000000000
11
-7.5509073104
21
-18.4954688468
31
0.0000000000
11
-7.5509249670
21
-18.4607592825
31
0.0000000000
11
-7.5509775788
21
-18.4270190864
31
0.0000000000
11
-7.5510630513
21
-18.3955127340
31
0.0000000000
11
-7.5511797185
21
-18.3668733452
31
0.0000000000
11
-7.5513227296
21
-18.3422918339
31
0.0000000000
11
-7.5514891931
21
-18.3222538687
31
0.0000000000
11
-7.5516729133
21
-18.3075303226
31
0.0000000000
0
SPLINE
5
3E2
100
AcDbEntity
8
0
100
AcDbSpline
62
0
6
CONTINUOUS
70
0
71
3
72
14
73
10
74
8
42
0.0000001000
43
0.0000001000
44
0.0000000001
12
-0.0030037350
22
-0.1879171720
32
0.0000000000
13
0.0000000000
23
-0.1879411769
33
0.0000000000
40
0.0000000000
40
0.0000000000
40
0.0000000000
40
0.0000000000
40
0.0783473452
40
0.1849693055
40
0.3157651624
40
0.4681512810
40
0.6357913309
40
0.8153168490
40
1.0000000000
40
1.0000000000
40
1.0000000000
40
1.0000000000
10
6.9335016964
20
-18.3075303226
30
0.0000000000
10
6.9334232515
20
-18.3124379264
30
0.0000000000
10
6.9332904785
20
-18.3240250312
30
0.0000000000
10
6.9331323450
20
-18.3438061579
30
0.0000000000
10
6.9329946193
20
-18.3682258643
30
0.0000000000
10
6.9328820053
20
-18.3964683204
30
0.0000000000
10
6.9327986544
20
-18.4277636621
30
0.0000000000
10
6.9327475242
20
-18.4610823867
30
0.0000000000
10
6.9327360934
20
-18.4838989905
30
0.0000000000
10
6.9327360934
20
-18.4954688468
30
0.0000000000
11
6.9335016964
21
-18.3075303226
31
0.0000000000
11
6.9333179761
21
-18.3222538687
31
0.0000000000
11
6.9331515126
21
-18.3422918339
31
0.0000000000
11
6.9330085016
21
-18.3668733452
31
0.0000000000
11
6.9328918343
21
-18.3955127340
31
0.0000000000
11
6.9328063619
21
-18.4270190864
31
0.0000000000
11
6.9327537500
21
-18.4607592825
31
0.0000000000
11
6.9327360934
21
-18.4954688468
31
0.0000000000
0
SPLINE
5
3E3
100
AcDbEntity
8
0
100
AcDbSpline
62
0
6
CONTINUOUS
70
0
71
3
72
14
73
10
74
8
42
0.0000001000
43
0.0000001000
44
0.0000000001
12
0.0000000000
22
0.1879411769
32
0.0000000000
13
-0.0030037350
23
0.1879171720
33
0.0000000000
40
0.0000000000
40
0.0000000000
40
0.0000000000
40
0.0000000000
40
0.1846831510
40
0.3642086691
40
0.5318487190
40
0.6842348376
40
0.8150306945
40
0.9216526548
40
1.0000000000
40
1.0000000000
40
1.0000000000
40
1.0000000000
10
6.2490926896
20
-18.4954688468
30
0.0000000000
10
6.2490926896
20
-18.4838989905
30
0.0000000000
10
6.2490812588
20
-18.4610823867
30
0.0000000000
10
6.2490301286
20
-18.4277636621
30
0.0000000000
10
6.2489467778
20
-18.3964683204
30
0.0000000000
10
6.2488341638
20
-18.3682258643
30
0.0000000000
10
6.2486964381
20
-18.3438061579
30
0.0000000000
10
6.2485383045
20
-18.3240250312
30
0.0000000000
10
6.2484055316
20
-18.3124379264
30
0.0000000000
10
6.2483270867
20
-18.3075303226
30
0.0000000000
11
6.2490926896
21
-18.4954688468
31
0.0000000000
11
6.2490750330
21
-18.4607592825
31
0.0000000000
11
6.2490224212
21
-18.4270190864
31
0.0000000000
11
6.2489369487
21
-18.3955127340
31
0.0000000000
11
6.2488202815
21
-18.3668733452
31
0.0000000000
11
6.2486772704
21
-18.3422918339
31
0.0000000000
11
6.2485108069
21
-18.3222538687
31
0.0000000000
11
6.2483270867
21
-18.3075303226
31
0.0000000000
0
SPLINE
5
3E4
100
AcDbEntity
8
0
100
AcDbSpline
62
0
6
CONTINUOUS
70
0
71
3
72
14
73
10
74
8
42
0.0000001000
43
0.0000001000
44
0.0000000001
12
0.0030037350
22
0.1879171720
32
0.0000000000
13
0.0000000000
23
0.1879411769
33
0.0000000000
40
0.0000000000
40
0.0000000000
40
0.0000000000
40
0.0000000000
40
0.0783473452
40
0.1849693055
40
0.3157651624
40
0.4681512810
40
0.6357913309
40
0.8153168490
40
1.0000000000
40
1.0000000000
40
1.0000000000
40
1.0000000000
10
6.2483270867
20
18.5966756444
30
0.0000000000
10
6.2484055316
20
18.6015832482
30
0.0000000000
10
6.2485383045
20
18.6131703530
30
0.0000000000
10
6.2486964381
20
18.6329514797
30
0.0000000000
10
6.2488341638
20
18.6573711861
30
0.0000000000
10
6.2489467778
20
18.6856136422
30
0.0000000000
10
6.2490301286
20
18.7169089839
30
0.0000000000
10
6.2490812588
20
18.7502277085
30
0.0000000000
10
6.2490926896
20
18.7730443123
30
0.0000000000
10
6.2490926896
20
18.7846141685
30
0.0000000000
11
6.2483270867
21
18.5966756444
31
0.0000000000
11
6.2485108069
21
18.6113991904
31
0.0000000000
11
6.2486772704
21
18.6314371557
31
0.0000000000
11
6.2488202815
21
18.6560186670
31
0.0000000000
11
6.2489369487
21
18.6846580558
31
0.0000000000
11
6.2490224212
21
18.7161644081
31
0.0000000000
11
6.2490750330
21
18.7499046043
31
0.0000000000
11
6.2490926896
21
18.7846141685
31
0.0000000000
0
SPLINE
5
3E5
100
AcDbEntity
8
0
100
AcDbSpline
62
0
6
CONTINUOUS
70
0
71
3
72
14
73
10
74
8
42
0.0000001000
43
0.0000001000
44
0.0000000001
12
0.0000000000
22
-0.1879411769
32
0.0000000000
13
0.0030037350
23
-0.1879171720
33
0.0000000000
40
0.0000000000
40
0.0000000000
40
0.0000000000
40
0.0000000000
40
0.1846831510
40
0.3642086691
40
0.5318487190
40
0.6842348376
40
0.8150306945
40
0.9216526548
40
1.0000000000
40
1.0000000000
40
1.0000000000
40
1.0000000000
10
6.9327360934
20
18.7846141685
30
0.0000000000
10
6.9327360934
20
18.7730443123
30
0.0000000000
10
6.9327475242
20
18.7502277085
30
0.0000000000
10
6.9327986544
20
18.7169089839
30
0.0000000000
10
6.9328820053
20
18.6856136422
30
0.0000000000
10
6.9329946193
20
18.6573711861
30
0.0000000000
10
6.9331323450
20
18.6329514797
30
0.0000000000
10
6.9332904785
20
18.6131703530
30
0.0000000000
10
6.9334232515
20
18.6015832482
30
0.0000000000
10
6.9335016964
20
18.5966756444
30
0.0000000000
11
6.9327360934
21
18.7846141685
31
0.0000000000
11
6.9327537500
21
18.7499046043
31
0.0000000000
11
6.9328063619
21
18.7161644081
31
0.0000000000
11
6.9328918343
21
18.6846580558
31
0.0000000000
11
6.9330085016
21
18.6560186670
31
0.0000000000
11
6.9331515126
21
18.6314371557
31
0.0000000000
11
6.9333179761
21
18.6113991904
31
0.0000000000
11
6.9335016964
21
18.5966756444
31
0.0000000000
0
SPLINE
5
3E6
100
AcDbEntity
8
0
100
AcDbSpline
62
0
6
CONTINUOUS
70
0
71
3
72
14
73
10
74
8
42
0.0000001000
43
0.0000001000
44
0.0000000001
12
0.0030037350
22
0.1879171720
32
0.0000000000
13
0.0000000000
23
0.1879411769
33
0.0000000000
40
0.0000000000
40
0.0000000000
40
0.0000000000
40
0.0000000000
40
0.0783473452
40
0.1849693055
40
0.3157651624
40
0.4681512810
40
0.6357913309
40
0.8153168490
40
1.0000000000
40
1.0000000000
40
1.0000000000
40
1.0000000000
10
-7.5516729133
20
18.5966756444
30
0.0000000000
10
-7.5515944684
20
18.6015832482
30
0.0000000000
10
-7.5514616955
20
18.6131703530
30
0.0000000000
10
-7.5513035619
20
18.6329514797
30
0.0000000000
10
-7.5511658362
20
18.6573711861
30
0.0000000000
10
-7.5510532222
20
18.6856136422
30
0.0000000000
10
-7.5509698714
20
18.7169089839
30
0.0000000000
10
-7.5509187412
20
18.7502277085
30
0.0000000000
10
-7.5509073104
20
18.7730443123
30
0.0000000000
10
-7.5509073104
20
18.7846141685
30
0.0000000000
11
-7.5516729133
21
18.5966756444
31
0.0000000000
11
-7.5514891931
21
18.6113991904
31
0.0000000000
11
-7.5513227296
21
18.6314371557
31
0.0000000000
11
-7.5511797185
21
18.6560186670
31
0.0000000000
11
-7.5510630513
21
18.6846580558
31
0.0000000000
11
-7.5509775789
21
18.7161644081
31
0.0000000000
11
-7.5509249670
21
18.7499046043
31
0.0000000000
11
-7.5509073104
21
18.7846141685
31
0.0000000000
0
SPLINE
5
3E7
100
AcDbEntity
8
0
100
AcDbSpline
62
0
6
CONTINUOUS
70
0
71
3
72
14
73
10
74
8
42
0.0000001000
43
0.0000001000
44
0.0000000001
12
0.0000000000
22
-0.1879411769
32
0.0000000000
13
0.0030037350
23
-0.1879171720
33
0.0000000000
40
0.0000000000
40
0.0000000000
40
0.0000000000
40
0.0000000000
40
0.1846831510
40
0.3642086691
40
0.5318487190
40
0.6842348376
40
0.8150306945
40
0.9216526548
40
1.0000000000
40
1.0000000000
40
1.0000000000
40
1.0000000000
10
-6.8672639066
20
18.7846141685
30
0.0000000000
10
-6.8672639066
20
18.7730443123
30
0.0000000000
10
-6.8672524758
20
18.7502277085
30
0.0000000000
10
-6.8672013456
20
18.7169089839
30
0.0000000000
10
-6.8671179947
20
18.6856136422
30
0.0000000000
10
-6.8670053807
20
18.6573711861
30
0.0000000000
10
-6.8668676550
20
18.6329514797
30
0.0000000000
10
-6.8667095215
20
18.6131703530
30
0.0000000000
10
-6.8665767485
20
18.6015832482
30
0.0000000000
10
-6.8664983036
20
18.5966756444
30
0.0000000000
11
-6.8672639066
21
18.7846141685
31
0.0000000000
11
-6.8672462500
21
18.7499046043
31
0.0000000000
11
-6.8671936381
21
18.7161644081
31
0.0000000000
11
-6.8671081657
21
18.6846580558
31
0.0000000000
11
-6.8669914984
21
18.6560186670
31
0.0000000000
11
-6.8668484874
21
18.6314371557
31
0.0000000000
11
-6.8666820239
21
18.6113991904
31
0.0000000000
11
-6.8664983036
21
18.5966756444
31
0.0000000000
0
SPLINE
5
3E8
100
AcDbEntity
8
0
100
AcDbSpline
62
0
6
CONTINUOUS
70
0
71
3
72
17
73
13
74
11
42
0.0000001000
43
0.0000001000
44
0.0000000001
12
0.4220147089
22
0.0000000000
32
0.0000000000
13
0.0000000000
23
-0.4220147089
33
0.0000000000
40
0.0000000000
40
0.0000000000
40
0.0000000000
40
0.0000000000
40
0.0855989391
40
0.1727353490
40
0.2617246883
40
0.3543677482
40
0.4508775680
40
0.5524911396
40
0.6587554531
40
0.7696721429
40
0.8836902644
40
1.0000000000
40
1.0000000000
40
1.0000000000
40
1.0000000000
10
-8.8083626106
20
-22.9780770699
30
0.0000000000
10
-8.7963212735
20
-22.9780770699
30
0.0000000000
10
-8.7719743418
20
-22.9801171100
30
0.0000000000
10
-8.7361527015
20
-22.9893023751
30
0.0000000000
10
-8.7014207077
20
-23.0046688053
30
0.0000000000
10
-8.6685409855
20
-23.0261907450
30
0.0000000000
10
-8.6381960342
20
-23.0538704167
30
0.0000000000
10
-8.6113453346
20
-23.0874461065
30
0.0000000000
10
-8.5889432236
20
-23.1264945518
30
0.0000000000
10
-8.5720385729
20
-23.1701004984
30
0.0000000000
10
-8.5614755720
20
-23.2170985105
30
0.0000000000
10
-8.5590856085
20
-23.2495510143
30
0.0000000000
10
-8.5590856085
20
-23.2659124873
30
0.0000000000
11
-8.8083626106
21
-22.9780770699
31
0.0000000000
11
-8.7723641865
21
-22.9810866648
31
0.0000000000
11
-8.7367357253
21
-22.9901891372
31
0.0000000000
11
-8.7023730869
21
-23.0053407985
31
0.0000000000
11
-8.6696265193
21
-23.0267000334
31
0.0000000000
11
-8.6394879022
21
-23.0540949169
31
0.0000000000
11
-8.6126467113
21
-23.0875381909
31
0.0000000000
11
-8.5902700254
21
-23.1264016342
31
0.0000000000
11
-8.5732954716
21
-23.1700238511
31
0.0000000000
11
-8.5627079673
21
-23.2169619130
31
0.0000000000
11
-8.5590856085
21
-23.2659124873
31
0.0000000000
0
SPLINE
5
3E9
100
AcDbEntity
8
0
100
AcDbSpline
62
9
6
CONTINUOUS
70
0
71
3
72
17
73
13
74
11
42
0.0000001000
43
0.0000001000
44
0.0000000001
12
-0.0012298290
22
0.3661500177
32
0.0000000000
13
-0.3661509212
23
0.0009224053
33
0.0000000000
40
0.0000000000
40
0.0000000000
40
0.0000000000
40
0.0000000000
40
0.0927380474
40
0.1862683312
40
0.2812329042
40
0.3781093545
40
0.4771672798
40
0.5784533210
40
0.6818006960
40
0.7868568096
40
0.8931227640
40
1.0000000000
40
1.0000000000
40
1.0000000000
40
1.0000000000
10
-8.5634574425
20
-23.6997649064
30
0.0000000000
10
-8.5634954598
20
-23.6884462272
30
0.0000000000
10
-8.5656460588
20
-23.6656665185
30
0.0000000000
10
-8.5749876276
20
-23.6324578554
30
0.0000000000
10
-8.5902008234
20
-23.6009315300
30
0.0000000000
10
-8.6108886117
20
-23.5718781032
30
0.0000000000
10
-8.6365236543
20
-23.5459973417
30
0.0000000000
10
-8.6664654945
20
-23.5239097449
30
0.0000000000
10
-8.6999757834
20
-23.5061397412
30
0.0000000000
10
-8.7362387722
20
-23.4931081006
30
0.0000000000
10
-8.7743642582
20
-23.4851230147
30
0.0000000000
10
-8.8004088122
20
-23.4832914168
30
0.0000000000
10
-8.8134532117
20
-23.4832585555
30
0.0000000000
11
-8.5634574425
21
-23.6997649064
31
0.0000000000
11
-8.5666374910
21
-23.6659579131
31
0.0000000000
11
-8.5758725198
21
-23.6329802863
31
0.0000000000
11
-8.5909359715
21
-23.6016410460
31
0.0000000000
11
-8.6114583035
21
-23.5727090188
31
0.0000000000
11
-8.6369360539
21
-23.5468939765
31
0.0000000000
11
-8.6667441927
21
-23.5248292240
31
0.0000000000
11
-8.7001514547
21
-23.5070560623
31
0.0000000000
11
-8.7363382799
21
-23.4940105098
31
0.0000000000
11
-8.7744169190
21
-23.4860126049
31
0.0000000000
11
-8.8134532117
21
-23.4832585555
31
0.0000000000
0
SPLINE
5
3EA
100
AcDbEntity
8
0
100
AcDbSpline
62
9
6
CONTINUOUS
70
0
71
3
72
17
73
13
74
11
42
0.0000001000
43
0.0000001000
44
0.0000000001
12
-0.0000132773
22
-0.3922846478
32
0.0000000000
13
-0.3922846478
23
-0.0000132773
33
0.0000000000
40
0.0000000000
40
0.0000000000
40
0.0000000000
40
0.0000000000
40
0.1000212882
40
0.2000437058
40
0.3000663194
40
0.4000887329
40
0.5001106882
40
0.6001308622
40
0.7001516800
40
0.8001640015
40
0.9001760606
40
1.0000000000
40
1.0000000000
40
1.0000000000
40
1.0000000000
10
-8.5634574425
20
-24.1010597359
30
0.0000000000
10
-8.5634578851
20
-24.1141386745
30
0.0000000000
10
-8.5655199840
20
-24.1403431055
30
0.0000000000
10
-8.5747205362
20
-24.1786447671
30
0.0000000000
10
-8.5898018575
20
-24.2150451974
30
0.0000000000
10
-8.6103923481
20
-24.2486349670
30
0.0000000000
10
-8.6359845276
20
-24.2785899419
30
0.0000000000
10
-8.6659482152
20
-24.3041715831
30
0.0000000000
10
-8.6995435474
20
-24.3247495659
30
0.0000000000
10
-8.7359462737
20
-24.3398175605
30
0.0000000000
10
-8.7742230897
20
-24.3489992174
30
0.0000000000
10
-8.8004000787
20
-24.3510550633
30
0.0000000000
10
-8.8134532117
20
-24.3510555051
30
0.0000000000
11
-8.5634574425
21
-24.1010597359
31
0.0000000000
11
-8.5665378576
21
-24.1401754458
31
0.0000000000
11
-8.5757006510
21
-24.1783278468
31
0.0000000000
11
-8.5907200698
21
-24.2145767858
31
0.0000000000
11
-8.6112260316
21
-24.2480292579
31
0.0000000000
11
-8.6367133004
21
-24.2778612437
31
0.0000000000
11
-8.6665535979
21
-24.3033377047
31
0.0000000000
11
-8.7000125959
21
-24.3238318182
31
0.0000000000
11
-8.7362628342
21
-24.3388375478
31
0.0000000000
11
-8.7744142028
21
-24.3479872311
31
0.0000000000
11
-8.8134532117
21
-24.3510555051
31
0.0000000000
0
SPLINE
5
3EB
100
AcDbEntity
8
0
100
AcDbSpline
62
9
6
CONTINUOUS
70
0
71
3
72
17
73
13
74
11
42
0.0000001000
43
0.0000001000
44
0.0000000001
12
0.3922846482
22
-0.0000132773
32
0.0000000000
13
0.0000132773
23
-0.3922846482
33
0.0000000000
40
0.0000000000
40
0.0000000000
40
0.0000000000
40
0.0000000000
40
0.0999991830
40
0.1999988695
40
0.2999989843
40
0.3999994104
40
0.5000000000
40
0.6000005896
40
0.7000010157
40
0.8000011305
40
0.9000008170
40
1.0000000000
40
1.0000000000
40
1.0000000000
40
1.0000000000
10
-8.8134532117
20
24.6402008269
30
0.0000000000
10
-8.8003771636
20
24.6402003843
30
0.0000000000
10
-8.7741786262
20
24.6381392068
30
0.0000000000
10
-8.7358851433
20
24.6289427542
30
0.0000000000
10
-8.6994916045
20
24.6138680518
30
0.0000000000
10
-8.6659067292
20
24.5932862574
30
0.0000000000
10
-8.6359540633
20
24.5677042061
30
0.0000000000
10
-8.6103720120
20
24.5377515401
30
0.0000000000
10
-8.5897902176
20
24.5041666648
30
0.0000000000
10
-8.5747155151
20
24.4677731260
30
0.0000000000
10
-8.5655190626
20
24.4294796432
30
0.0000000000
10
-8.5634578850
20
24.4032811058
30
0.0000000000
10
-8.5634574425
20
24.3902050577
30
0.0000000000
11
-8.8134532117
21
24.6402008269
31
0.0000000000
11
-8.7743460930
21
24.6371217729
31
0.0000000000
11
-8.7362018799
21
24.6279630713
31
0.0000000000
11
-8.6999597692
21
24.6129502302
31
0.0000000000
11
-8.6665121235
21
24.5924528995
31
0.0000000000
11
-8.6366824995
21
24.5669757699
31
0.0000000000
11
-8.6112053699
21
24.5371461459
31
0.0000000000
11
-8.5907080392
21
24.5036985002
31
0.0000000000
11
-8.5756951980
21
24.4674563895
31
0.0000000000
11
-8.5665364965
21
24.4293121764
31
0.0000000000
11
-8.5634574425
21
24.3902050577
31
0.0000000000
0
SPLINE
5
3EC
100
AcDbEntity
8
0
100
AcDbSpline
62
0
6
CONTINUOUS
70
0
71
3
72
17
73
13
74
11
42
0.0000001000
43
0.0000001000
44
0.0000000001
12
0.0000000000
22
-0.4220147089
32
0.0000000000
13
-0.4220147089
23
0.0000000000
33
0.0000000000
40
0.0000000000
40
0.0000000000
40
0.0000000000
40
0.0000000000
40
0.1163097356
40
0.2303278571
40
0.3412445469
40
0.4475088604
40
0.5491224320
40
0.6456322518
40
0.7382753117
40
0.8272646510
40
0.9144010609
40
1.0000000000
40
1.0000000000
40
1.0000000000
40
1.0000000000
10
-8.5590856085
20
23.5550578091
30
0.0000000000
10
-8.5590856085
20
23.5386963360
30
0.0000000000
10
-8.5614755720
20
23.5062438322
30
0.0000000000
10
-8.5720385729
20
23.4592458202
30
0.0000000000
10
-8.5889432236
20
23.4156398736
30
0.0000000000
10
-8.6113453346
20
23.3765914283
30
0.0000000000
10
-8.6381960342
20
23.3430157385
30
0.0000000000
10
-8.6685409855
20
23.3153360668
30
0.0000000000
10
-8.7014207077
20
23.2938141271
30
0.0000000000
10
-8.7361527015
20
23.2784476969
30
0.0000000000
10
-8.7719743418
20
23.2692624318
30
0.0000000000
10
-8.7963212735
20
23.2672223917
30
0.0000000000
10
-8.8083626106
20
23.2672223917
30
0.0000000000
11
-8.5590856085
21
23.5550578091
31
0.0000000000
11
-8.5627079673
21
23.5061072348
31
0.0000000000
11
-8.5732954716
21
23.4591691729
31
0.0000000000
11
-8.5902700254
21
23.4155469559
31
0.0000000000
11
-8.6126467113
21
23.3766835127
31
0.0000000000
11
-8.6394879022
21
23.3432402387
31
0.0000000000
11
-8.6696265193
21
23.3158453551
31
0.0000000000
11
-8.7023730869
21
23.2944861203
31
0.0000000000
11
-8.7367357253
21
23.2793344589
31
0.0000000000
11
-8.7723641865
21
23.2702319865
31
0.0000000000
11
-8.8083626106
21
23.2672223917
31
0.0000000000
0
SPLINE
5
3ED
100
AcDbEntity
8
0
100
AcDbSpline
62
9
6
CONTINUOUS
70
0
71
3
72
17
73
13
74
11
42
0.0000001000
43
0.0000001000
44
0.0000000001
12
-0.0012298291
22
-0.3661500354
32
0.0000000000
13
-0.3661509389
23
-0.0009224053
33
0.0000000000
40
0.0000000000
40
0.0000000000
40
0.0000000000
40
0.0000000000
40
0.0926637669
40
0.1861959939
40
0.2811621264
40
0.3780472439
40
0.4771141944
40
0.5784104998
40
0.6817687109
40
0.7868361684
40
0.8931123906
40
1.0000000000
40
1.0000000000
40
1.0000000000
40
1.0000000000
10
-8.5634574425
20
23.9889102282
30
0.0000000000
10
-8.5634954293
20
23.9776006143
30
0.0000000000
10
-8.5656434972
20
23.9548298509
30
0.0000000000
10
-8.5749780751
20
23.9216281779
30
0.0000000000
10
-8.5901878232
20
23.8900985205
30
0.0000000000
10
-8.6108737091
20
23.8610407796
30
0.0000000000
10
-8.6365088135
20
23.8351552002
30
0.0000000000
10
-8.6664520775
20
23.8130632492
30
0.0000000000
10
-8.6999649766
20
23.7952896114
30
0.0000000000
10
-8.7362312783
20
23.7822553445
30
0.0000000000
10
-8.7743604616
20
23.7742686892
30
0.0000000000
10
-8.8004075455
20
23.7724367418
30
0.0000000000
10
-8.8134532117
20
23.7724038772
30
0.0000000000
11
-8.5634574425
21
23.9889102282
31
0.0000000000
11
-8.5666325022
21
23.9551300821
31
0.0000000000
11
-8.5758631248
21
23.9221504811
31
0.0000000000
11
-8.5909227489
21
23.8908087659
31
0.0000000000
11
-8.6114436243
21
23.8618718128
31
0.0000000000
11
-8.6369213136
21
23.8360520651
31
0.0000000000
11
-8.6667308873
21
23.8139829313
31
0.0000000000
11
-8.7001407147
21
23.7962061404
31
0.0000000000
11
-8.7363309875
21
23.7831578980
31
0.0000000000
11
-8.7744131465
21
23.7751584527
31
0.0000000000
11
-8.8134532117
21
23.7724038772
31
0.0000000000
0
SPLINE
5
3EE
100
AcDbEntity
8
0
100
AcDbSpline
62
9
6
CONTINUOUS
70
0
71
3
72
17
73
13
74
11
42
0.0000001000
43
0.0000001000
44
0.0000000001
12
0.0012298291
22
-0.3661500354
32
0.0000000000
13
0.3661509389
23
-0.0009224053
33
0.0000000000
40
0.0000000000
40
0.0000000000
40
0.0000000000
40
0.0000000000
40
0.0926637669
40
0.1861959939
40
0.2811621264
40
0.3780472439
40
0.4771141944
40
0.5784104998
40
0.6817687109
40
0.7868361684
40
0.8931123906
40
1.0000000000
40
1.0000000000
40
1.0000000000
40
1.0000000000
10
-10.9547137745
20
23.9889102282
30
0.0000000000
10
-10.9546757876
20
23.9776006143
30
0.0000000000
10
-10.9525277197
20
23.9548298509
30
0.0000000000
10
-10.9431931418
20
23.9216281779
30
0.0000000000
10
-10.9279833938
20
23.8900985205
30
0.0000000000
10
-10.9072975078
20
23.8610407796
30
0.0000000000
10
-10.8816624034
20
23.8351552002
30
0.0000000000
10
-10.8517191394
20
23.8130632492
30
0.0000000000
10
-10.8182062403
20
23.7952896114
30
0.0000000000
10
-10.7819399386
20
23.7822553445
30
0.0000000000
10
-10.7438107554
20
23.7742686892
30
0.0000000000
10
-10.7177636714
20
23.7724367418
30
0.0000000000
10
-10.7047180053
20
23.7724038772
30
0.0000000000
11
-10.9547137745
21
23.9889102282
31
0.0000000000
11
-10.9515387147
21
23.9551300821
31
0.0000000000
11
-10.9423080921
21
23.9221504811
31
0.0000000000
11
-10.9272484681
21
23.8908087659
31
0.0000000000
11
-10.9067275927
21
23.8618718128
31
0.0000000000
11
-10.8812499033
21
23.8360520651
31
0.0000000000
11
-10.8514403297
21
23.8139829313
31
0.0000000000
11
-10.8180305022
21
23.7962061404
31
0.0000000000
11
-10.7818402295
21
23.7831578980
31
0.0000000000
11
-10.7437580704
21
23.7751584527
31
0.0000000000
11
-10.7047180053
21
23.7724038772
31
0.0000000000
0
SPLINE
5
3EF
100
AcDbEntity
8
0
100
AcDbSpline
62
0
6
CONTINUOUS
70
0
71
3
72
17
73
13
74
11
42
0.0000001000
43
0.0000001000
44
0.0000000001
12
-0.4220147089
22
0.0000000000
32
0.0000000000
13
-0.0000000000
23
0.4220147089
33
0.0000000000
40
0.0000000000
40
0.0000000000
40
0.0000000000
40
0.0000000000
40
0.0855989391
40
0.1727353490
40
0.2617246883
40
0.3543677482
40
0.4508775680
40
0.5524911396
40
0.6587554531
40
0.7696721429
40
0.8836902644
40
1.0000000000
40
1.0000000000
40
1.0000000000
40
1.0000000000
10
-10.7098086063
20
23.2672223917
30
0.0000000000
10
-10.7218499435
20
23.2672223917
30
0.0000000000
10
-10.7461968752
20
23.2692624318
30
0.0000000000
10
-10.7820185154
20
23.2784476969
30
0.0000000000
10
-10.8167505093
20
23.2938141271
30
0.0000000000
10
-10.8496302314
20
23.3153360668
30
0.0000000000
10
-10.8799751828
20
23.3430157385
30
0.0000000000
10
-10.9068258823
20
23.3765914283
30
0.0000000000
10
-10.9292279934
20
23.4156398736
30
0.0000000000
10
-10.9461326440
20
23.4592458202
30
0.0000000000
10
-10.9566956450
20
23.5062438322
30
0.0000000000
10
-10.9590856085
20
23.5386963360
30
0.0000000000
10
-10.9590856085
20
23.5550578091
30
0.0000000000
11
-10.7098086063
21
23.2672223917
31
0.0000000000
11
-10.7458070304
21
23.2702319865
31
0.0000000000
11
-10.7814354916
21
23.2793344589
31
0.0000000000
11
-10.8157981301
21
23.2944861203
31
0.0000000000
11
-10.8485446977
21
23.3158453551
31
0.0000000000
11
-10.8786833148
21
23.3432402387
31
0.0000000000
11
-10.9055245056
21
23.3766835127
31
0.0000000000
11
-10.9279011916
21
23.4155469559
31
0.0000000000
11
-10.9448757454
21
23.4591691729
31
0.0000000000
11
-10.9554632496
21
23.5061072348
31
0.0000000000
11
-10.9590856085
21
23.5550578091
31
0.0000000000
0
SPLINE
5
3F0
100
AcDbEntity
8
0
100
AcDbSpline
62
9
6
CONTINUOUS
70
0
71
3
72
17
73
13
74
11
42
0.0000001000
43
0.0000001000
44
0.0000000001
12
0.0000132773
22
0.3922846482
32
0.0000000000
13
0.3922846482
23
0.0000132773
33
0.0000000000
40
0.0000000000
40
0.0000000000
40
0.0000000000
40
0.0000000000
40
0.0999991830
40
0.1999988695
40
0.2999989843
40
0.3999994104
40
0.5000000000
40
0.6000005896
40
0.7000010157
40
0.8000011305
40
0.9000008170
40
1.0000000000
40
1.0000000000
40
1.0000000000
40
1.0000000000
10
-10.9547137745
20
24.3902050577
30
0.0000000000
10
-10.9547133319
20
24.4032811058
30
0.0000000000
10
-10.9526521544
20
24.4294796432
30
0.0000000000
10
-10.9434557018
20
24.4677731260
30
0.0000000000
10
-10.9283809994
20
24.5041666648
30
0.0000000000
10
-10.9077992050
20
24.5377515401
30
0.0000000000
10
-10.8822171536
20
24.5677042061
30
0.0000000000
10
-10.8522644877
20
24.5932862574
30
0.0000000000
10
-10.8186796124
20
24.6138680518
30
0.0000000000
10
-10.7822860736
20
24.6289427542
30
0.0000000000
10
-10.7439925908
20
24.6381392068
30
0.0000000000
10
-10.7177940534
20
24.6402003843
30
0.0000000000
10
-10.7047180053
20
24.6402008269
30
0.0000000000
11
-10.9547137745
21
24.3902050577
31
0.0000000000
11
-10.9516347205
21
24.4293121764
31
0.0000000000
11
-10.9424760189
21
24.4674563895
31
0.0000000000
11
-10.9274631777
21
24.5036985002
31
0.0000000000
11
-10.9069658471
21
24.5371461459
31
0.0000000000
11
-10.8814887175
21
24.5669757699
31
0.0000000000
11
-10.8516590935
21
24.5924528995
31
0.0000000000
11
-10.8182114478
21
24.6129502302
31
0.0000000000
11
-10.7819693371
21
24.6279630713
31
0.0000000000
11
-10.7438251240
21
24.6371217729
31
0.0000000000
11
-10.7047180053
21
24.6402008269
31
0.0000000000
0
SPLINE
5
3F1
100
AcDbEntity
8
0
100
AcDbSpline
62
9
6
CONTINUOUS
70
0
71
3
72
17
73
13
74
11
42
0.0000001000
43
0.0000001000
44
0.0000000001
12
0.0012298291
22
0.3661500354
32
0.0000000000
13
0.3661509389
23
0.0009224053
33
0.0000000000
40
0.0000000000
40
0.0000000000
40
0.0000000000
40
0.0000000000
40
0.0926637669
40
0.1861959939
40
0.2811621264
40
0.3780472439
40
0.4771141944
40
0.5784104998
40
0.6817687109
40
0.7868361684
40
0.8931123906
40
1.0000000000
40
1.0000000000
40
1.0000000000
40
1.0000000000
10
-10.9547137745
20
-23.6997649064
30
0.0000000000
10
-10.9546757876
20
-23.6884552926
30
0.0000000000
10
-10.9525277197
20
-23.6656845291
30
0.0000000000
10
-10.9431931418
20
-23.6324828561
30
0.0000000000
10
-10.9279833938
20
-23.6009531988
30
0.0000000000
10
-10.9072975078
20
-23.5718954578
30
0.0000000000
10
-10.8816624034
20
-23.5460098784
30
0.0000000000
10
-10.8517191394
20
-23.5239179274
30
0.0000000000
10
-10.8182062403
20
-23.5061442897
30
0.0000000000
10
-10.7819399386
20
-23.4931100228
30
0.0000000000
10
-10.7438107554
20
-23.4851233674
30
0.0000000000
10
-10.7177636714
20
-23.4832914200
30
0.0000000000
10
-10.7047180053
20
-23.4832585555
30
0.0000000000
11
-10.9547137745
21
-23.6997649064
31
0.0000000000
11
-10.9515387147
21
-23.6659847603
31
0.0000000000
11
-10.9423080921
21
-23.6330051593
31
0.0000000000
11
-10.9272484681
21
-23.6016634441
31
0.0000000000
11
-10.9067275927
21
-23.5727264911
31
0.0000000000
11
-10.8812499033
21
-23.5469067433
31
0.0000000000
11
-10.8514403297
21
-23.5248376095
31
0.0000000000
11
-10.8180305022
21
-23.5070608187
31
0.0000000000
11
-10.7818402295
21
-23.4940125762
31
0.0000000000
11
-10.7437580704
21
-23.4860131309
31
0.0000000000
11
-10.7047180053
21
-23.4832585555
31
0.0000000000
0
SPLINE
5
3F2
100
AcDbEntity
8
0
100
AcDbSpline
62
0
6
CONTINUOUS
70
0
71
3
72
17
73
13
74
11
42
0.0000001000
43
0.0000001000
44
0.0000000001
12
0.0000000000
22
0.4220147089
32
0.0000000000
13
0.4220147089
23
0.0000000000
33
0.0000000000
40
0.0000000000
40
0.0000000000
40
0.0000000000
40
0.0000000000
40
0.1163097356
40
0.2303278571
40
0.3412445469
40
0.4475088604
40
0.5491224320
40
0.6456322518
40
0.7382753117
40
0.8272646510
40
0.9144010609
40
1.0000000000
40
1.0000000000
40
1.0000000000
40
1.0000000000
10
-10.9590856085
20
-23.2659124873
30
0.0000000000
10
-10.9590856085
20
-23.2495510143
30
0.0000000000
10
-10.9566956450
20
-23.2170985105
30
0.0000000000
10
-10.9461326440
20
-23.1701004984
30
0.0000000000
10
-10.9292279934
20
-23.1264945518
30
0.0000000000
10
-10.9068258823
20
-23.0874461065
30
0.0000000000
10
-10.8799751828
20
-23.0538704167
30
0.0000000000
10
-10.8496302314
20
-23.0261907450
30
0.0000000000
10
-10.8167505093
20
-23.0046688053
30
0.0000000000
10
-10.7820185154
20
-22.9893023751
30
0.0000000000
10
-10.7461968752
20
-22.9801171100
30
0.0000000000
10
-10.7218499435
20
-22.9780770699
30
0.0000000000
10
-10.7098086063
20
-22.9780770699
30
0.0000000000
11
-10.9590856085
21
-23.2659124873
31
0.0000000000
11
-10.9554632496
21
-23.2169619130
31
0.0000000000
11
-10.9448757454
21
-23.1700238511
31
0.0000000000
11
-10.9279011916
21
-23.1264016342
31
0.0000000000
11
-10.9055245056
21
-23.0875381909
31
0.0000000000
11
-10.8786833148
21
-23.0540949169
31
0.0000000000
11
-10.8485446977
21
-23.0267000334
31
0.0000000000
11
-10.8157981301
21
-23.0053407985
31
0.0000000000
11
-10.7814354916
21
-22.9901891372
31
0.0000000000
11
-10.7458070304
21
-22.9810866648
31
0.0000000000
11
-10.7098086063
21
-22.9780770699
31
0.0000000000
0
SPLINE
5
3F3
100
AcDbEntity
8
0
100
AcDbSpline
62
9
6
CONTINUOUS
70
0
71
3
72
17
73
13
74
11
42
0.0000001000
43
0.0000001000
44
0.0000000001
12
-0.3922846478
22
0.0000132773
32
0.0000000000
13
-0.0000132773
23
0.3922846478
33
0.0000000000
40
0.0000000000
40
0.0000000000
40
0.0000000000
40
0.0000000000
40
0.0998239394
40
0.1998359985
40
0.2998483200
40
0.3998691378
40
0.4998893118
40
0.5999112671
40
0.6999336806
40
0.7999562942
40
0.8999787118
40
1.0000000000
40
1.0000000000
40
1.0000000000
40
1.0000000000
10
-10.7047180053
20
-24.3510555051
30
0.0000000000
10
-10.7177711382
20
-24.3510550633
30
0.0000000000
10
-10.7439481273
20
-24.3489992174
30
0.0000000000
10
-10.7822249433
20
-24.3398175605
30
0.0000000000
10
-10.8186276695
20
-24.3247495659
30
0.0000000000
10
-10.8522230018
20
-24.3041715831
30
0.0000000000
10
-10.8821866894
20
-24.2785899419
30
0.0000000000
10
-10.9077788689
20
-24.2486349670
30
0.0000000000
10
-10.9283693595
20
-24.2150451974
30
0.0000000000
10
-10.9434506808
20
-24.1786447671
30
0.0000000000
10
-10.9526512330
20
-24.1403431055
30
0.0000000000
10
-10.9547133318
20
-24.1141386745
30
0.0000000000
10
-10.9547137745
20
-24.1010597359
30
0.0000000000
11
-10.7047180053
21
-24.3510555051
31
0.0000000000
11
-10.7437570142
21
-24.3479872311
31
0.0000000000
11
-10.7819083827
21
-24.3388375478
31
0.0000000000
11
-10.8181586210
21
-24.3238318182
31
0.0000000000
11
-10.8516176190
21
-24.3033377047
31
0.0000000000
11
-10.8814579165
21
-24.2778612437
31
0.0000000000
11
-10.9069451853
21
-24.2480292579
31
0.0000000000
11
-10.9274511471
21
-24.2145767858
31
0.0000000000
11
-10.9424705659
21
-24.1783278468
31
0.0000000000
11
-10.9516333593
21
-24.1401754458
31
0.0000000000
11
-10.9547137745
21
-24.1010597359
31
0.0000000000
0
SPLINE
5
3F4
100
AcDbEntity
8
0
100
AcDbSpline
62
0
6
CONTINUOUS
70
0
71
3
72
17
73
13
74
11
42
0.0000001000
43
0.0000001000
44
0.0000000001
12
0.4220147089
22
0.0000000000
32
0.0000000000
13
0.0000000000
23
-0.4220147089
33
0.0000000000
40
0.0000000000
40
0.0000000000
40
0.0000000000
40
0.0000000000
40
0.0855989391
40
0.1727353490
40
0.2617246883
40
0.3543677482
40
0.4508775680
40
0.5524911396
40
0.6587554531
40
0.7696721429
40
0.8836902644
40
1.0000000000
40
1.0000000000
40
1.0000000000
40
1.0000000000
10
10.0916373894
20
-22.9780770699
30
0.0000000000
10
10.1036787265
20
-22.9780770699
30
0.0000000000
10
10.1280256582
20
-22.9801171100
30
0.0000000000
10
10.1638472985
20
-22.9893023751
30
0.0000000000
10
10.1985792923
20
-23.0046688053
30
0.0000000000
10
10.2314590145
20
-23.0261907450
30
0.0000000000
10
10.2618039658
20
-23.0538704167
30
0.0000000000
10
10.2886546654
20
-23.0874461065
30
0.0000000000
10
10.3110567764
20
-23.1264945518
30
0.0000000000
10
10.3279614271
20
-23.1701004984
30
0.0000000000
10
10.3385244280
20
-23.2170985105
30
0.0000000000
10
10.3409143915
20
-23.2495510143
30
0.0000000000
10
10.3409143915
20
-23.2659124873
30
0.0000000000
11
10.0916373894
21
-22.9780770699
31
0.0000000000
11
10.1276358135
21
-22.9810866648
31
0.0000000000
11
10.1632642747
21
-22.9901891372
31
0.0000000000
11
10.1976269131
21
-23.0053407985
31
0.0000000000
11
10.2303734807
21
-23.0267000334
31
0.0000000000
11
10.2605120978
21
-23.0540949169
31
0.0000000000
11
10.2873532887
21
-23.0875381909
31
0.0000000000
11
10.3097299746
21
-23.1264016342
31
0.0000000000
11
10.3267045284
21
-23.1700238511
31
0.0000000000
11
10.3372920327
21
-23.2169619130
31
0.0000000000
11
10.3409143915
21
-23.2659124873
31
0.0000000000
0
SPLINE
5
3F5
100
AcDbEntity
8
0
100
AcDbSpline
62
9
6
CONTINUOUS
70
0
71
3
72
17
73
13
74
11
42
0.0000001000
43
0.0000001000
44
0.0000000001
12
-0.0012298290
22
0.3661500177
32
0.0000000000
13
-0.3661509212
23
0.0009224053
33
0.0000000000
40
0.0000000000
40
0.0000000000
40
0.0000000000
40
0.0000000000
40
0.0927380474
40
0.1862683312
40
0.2812329042
40
0.3781093545
40
0.4771672798
40
0.5784533210
40
0.6818006960
40
0.7868568096
40
0.8931227640
40
1.0000000000
40
1.0000000000
40
1.0000000000
40
1.0000000000
10
10.3365425575
20
-23.6997649064
30
0.0000000000
10
10.3365045402
20
-23.6884462272
30
0.0000000000
10
10.3343539412
20
-23.6656665185
30
0.0000000000
10
10.3250123724
20
-23.6324578554
30
0.0000000000
10
10.3097991766
20
-23.6009315300
30
0.0000000000
10
10.2891113883
20
-23.5718781032
30
0.0000000000
10
10.2634763457
20
-23.5459973417
30
0.0000000000
10
10.2335345055
20
-23.5239097449
30
0.0000000000
10
10.2000242166
20
-23.5061397412
30
0.0000000000
10
10.1637612278
20
-23.4931081006
30
0.0000000000
10
10.1256357418
20
-23.4851230147
30
0.0000000000
10
10.0995911878
20
-23.4832914168
30
0.0000000000
10
10.0865467883
20
-23.4832585555
30
0.0000000000
11
10.3365425575
21
-23.6997649064
31
0.0000000000
11
10.3333625090
21
-23.6659579131
31
0.0000000000
11
10.3241274802
21
-23.6329802863
31
0.0000000000
11
10.3090640285
21
-23.6016410460
31
0.0000000000
11
10.2885416965
21
-23.5727090188
31
0.0000000000
11
10.2630639461
21
-23.5468939765
31
0.0000000000
11
10.2332558073
21
-23.5248292240
31
0.0000000000
11
10.1998485453
21
-23.5070560623
31
0.0000000000
11
10.1636617201
21
-23.4940105098
31
0.0000000000
11
10.1255830810
21
-23.4860126049
31
0.0000000000
11
10.0865467883
21
-23.4832585555
31
0.0000000000
0
SPLINE
5
3F6
100
AcDbEntity
8
0
100
AcDbSpline
62
9
6
CONTINUOUS
70
0
71
3
72
17
73
13
74
11
42
0.0000001000
43
0.0000001000
44
0.0000000001
12
-0.0000132773
22
-0.3922846478
32
0.0000000000
13
-0.3922846478
23
-0.0000132773
33
0.0000000000
40
0.0000000000
40
0.0000000000
40
0.0000000000
40
0.0000000000
40
0.0998239394
40
0.1998359985
40
0.2998483200
40
0.3998691378
40
0.4998893118
40
0.5999112671
40
0.6999336806
40
0.7999562942
40
0.8999787118
40
1.0000000000
40
1.0000000000
40
1.0000000000
40
1.0000000000
10
10.3365425575
20
-24.1010597359
30
0.0000000000
10
10.3365421157
20
-24.1141128689
30
0.0000000000
10
10.3344862698
20
-24.1402898579
30
0.0000000000
10
10.3253046129
20
-24.1785666739
30
0.0000000000
10
10.3102366184
20
-24.2149694002
30
0.0000000000
10
10.2896586355
20
-24.2485647324
30
0.0000000000
10
10.2640769943
20
-24.2785284200
30
0.0000000000
10
10.2341220194
20
-24.3041205995
30
0.0000000000
10
10.2005322498
20
-24.3247110901
30
0.0000000000
10
10.1641318195
20
-24.3397924114
30
0.0000000000
10
10.1258301579
20
-24.3489929636
30
0.0000000000
10
10.0996257269
20
-24.3510550624
30
0.0000000000
10
10.0865467883
20
-24.3510555051
30
0.0000000000
11
10.3365425575
21
-24.1010597359
31
0.0000000000
11
10.3334742835
21
-24.1400987448
31
0.0000000000
11
10.3243246002
21
-24.1782501133
31
0.0000000000
11
10.3093188706
21
-24.2145003516
31
0.0000000000
11
10.2888247571
21
-24.2479593497
31
0.0000000000
11
10.2633482961
21
-24.2777996471
31
0.0000000000
11
10.2335163103
21
-24.3032869159
31
0.0000000000
11
10.2000638382
21
-24.3237928778
31
0.0000000000
11
10.1638148992
21
-24.3388122966
31
0.0000000000
11
10.1256624982
21
-24.3479750900
31
0.0000000000
11
10.0865467883
21
-24.3510555051
31
0.0000000000
0
SPLINE
5
3F7
100
AcDbEntity
8
0
100
AcDbSpline
62
9
6
CONTINUOUS
70
0
71
3
72
17
73
13
74
11
42
0.0000001000
43
0.0000001000
44
0.0000000001
12
0.0012298291
22
0.3661500354
32
0.0000000000
13
0.3661509389
23
0.0009224053
33
0.0000000000
40
0.0000000000
40
0.0000000000
40
0.0000000000
40
0.0000000000
40
0.0926637669
40
0.1861959939
40
0.2811621264
40
0.3780472439
40
0.4771141944
40
0.5784104998
40
0.6817687109
40
0.7868361684
40
0.8931123906
40
1.0000000000
40
1.0000000000
40
1.0000000000
40
1.0000000000
10
7.9452862255
20
-23.6997649064
30
0.0000000000
10
7.9453242124
20
-23.6884552926
30
0.0000000000
10
7.9474722803
20
-23.6656845291
30
0.0000000000
10
7.9568068582
20
-23.6324828561
30
0.0000000000
10
7.9720166062
20
-23.6009531988
30
0.0000000000
10
7.9927024922
20
-23.5718954578
30
0.0000000000
10
8.0183375966
20
-23.5460098784
30
0.0000000000
10
8.0482808606
20
-23.5239179274
30
0.0000000000
10
8.0817937597
20
-23.5061442897
30
0.0000000000
10
8.1180600614
20
-23.4931100228
30
0.0000000000
10
8.1561892446
20
-23.4851233674
30
0.0000000000
10
8.1822363286
20
-23.4832914200
30
0.0000000000
10
8.1952819947
20
-23.4832585555
30
0.0000000000
11
7.9452862255
21
-23.6997649064
31
0.0000000000
11
7.9484612853
21
-23.6659847603
31
0.0000000000
11
7.9576919079
21
-23.6330051593
31
0.0000000000
11
7.9727515319
21
-23.6016634441
31
0.0000000000
11
7.9932724073
21
-23.5727264911
31
0.0000000000
11
8.0187500967
21
-23.5469067433
31
0.0000000000
11
8.0485596703
21
-23.5248376095
31
0.0000000000
11
8.0819694978
21
-23.5070608187
31
0.0000000000
11
8.1181597705
21
-23.4940125762
31
0.0000000000
11
8.1562419296
21
-23.4860131309
31
0.0000000000
11
8.1952819947
21
-23.4832585555
31
0.0000000000
0
SPLINE
5
3F8
100
AcDbEntity
8
0
100
AcDbSpline
62
0
6
CONTINUOUS
70
0
71
3
72
17
73
13
74
11
42
0.0000001000
43
0.0000001000
44
0.0000000001
12
0.0000000000
22
0.4220147089
32
0.0000000000
13
0.4220147089
23
0.0000000000
33
0.0000000000
40
0.0000000000
40
0.0000000000
40
0.0000000000
40
0.0000000000
40
0.1163097356
40
0.2303278571
40
0.3412445469
40
0.4475088604
40
0.5491224320
40
0.6456322518
40
0.7382753117
40
0.8272646510
40
0.9144010609
40
1.0000000000
40
1.0000000000
40
1.0000000000
40
1.0000000000
10
7.9409143915
20
-23.2659124873
30
0.0000000000
10
7.9409143915
20
-23.2495510143
30
0.0000000000
10
7.9433043550
20
-23.2170985105
30
0.0000000000
10
7.9538673560
20
-23.1701004984
30
0.0000000000
10
7.9707720066
20
-23.1264945518
30
0.0000000000
10
7.9931741177
20
-23.0874461065
30
0.0000000000
10
8.0200248172
20
-23.0538704167
30
0.0000000000
10
8.0503697686
20
-23.0261907450
30
0.0000000000
10
8.0832494907
20
-23.0046688053
30
0.0000000000
10
8.1179814846
20
-22.9893023751
30
0.0000000000
10
8.1538031248
20
-22.9801171100
30
0.0000000000
10
8.1781500565
20
-22.9780770699
30
0.0000000000
10
8.1901913937
20
-22.9780770699
30
0.0000000000
11
7.9409143915
21
-23.2659124873
31
0.0000000000
11
7.9445367504
21
-23.2169619130
31
0.0000000000
11
7.9551242546
21
-23.1700238511
31
0.0000000000
11
7.9720988084
21
-23.1264016342
31
0.0000000000
11
7.9944754944
21
-23.0875381909
31
0.0000000000
11
8.0213166852
21
-23.0540949169
31
0.0000000000
11
8.0514553023
21
-23.0267000334
31
0.0000000000
11
8.0842018699
21
-23.0053407985
31
0.0000000000
11
8.1185645084
21
-22.9901891372
31
0.0000000000
11
8.1541929696
21
-22.9810866648
31
0.0000000000
11
8.1901913937
21
-22.9780770699
31
0.0000000000
0
SPLINE
5
3F9
100
AcDbEntity
8
0
100
AcDbSpline
62
9
6
CONTINUOUS
70
0
71
3
72
17
73
13
74
11
42
0.0000001000
43
0.0000001000
44
0.0000000001
12
-0.3922846482
22
0.0000132773
32
0.0000000000
13
-0.0000132773
23
0.3922846482
33
0.0000000000
40
0.0000000000
40
0.0000000000
40
0.0000000000
40
0.0000000000
40
0.0999991830
40
0.1999988695
40
0.2999989843
40
0.3999994104
40
0.5000000000
40
0.6000005896
40
0.7000010157
40
0.8000011305
40
0.9000008170
40
1.0000000000
40
1.0000000000
40
1.0000000000
40
1.0000000000
10
8.1952819947
20
-24.3510555051
30
0.0000000000
10
8.1822059466
20
-24.3510550625
30
0.0000000000
10
8.1560074092
20
-24.3489938850
30
0.0000000000
10
8.1177139264
20
-24.3397974325
30
0.0000000000
10
8.0813203876
20
-24.3247227300
30
0.0000000000
10
8.0477355123
20
-24.3041409356
30
0.0000000000
10
8.0177828464
20
-24.2785588843
30
0.0000000000
10
7.9922007950
20
-24.2486062183
30
0.0000000000
10
7.9716190006
20
-24.2150213431
30
0.0000000000
10
7.9565442982
20
-24.1786278042
30
0.0000000000
10
7.9473478456
20
-24.1403343214
30
0.0000000000
10
7.9452866681
20
-24.1141357840
30
0.0000000000
10
7.9452862255
20
-24.1010597359
30
0.0000000000
11
8.1952819947
21
-24.3510555051
31
0.0000000000
11
8.1561748760
21
-24.3479764511
31
0.0000000000
11
8.1180306629
21
-24.3388177495
31
0.0000000000
11
8.0817885522
21
-24.3238049084
31
0.0000000000
11
8.0483409065
21
-24.3033075777
31
0.0000000000
11
8.0185112825
21
-24.2778304481
31
0.0000000000
11
7.9930341529
21
-24.2480008241
31
0.0000000000
11
7.9725368223
21
-24.2145531784
31
0.0000000000
11
7.9575239811
21
-24.1783110677
31
0.0000000000
11
7.9483652795
21
-24.1401668546
31
0.0000000000
11
7.9452862255
21
-24.1010597359
31
0.0000000000
0
ENDSEC
0
SECTION
2
OBJECTS
0
DICTIONARY
5
C
100
AcDbDictionary
280
0
281
1
3
ACAD_GROUP
350
D
3
ACAD_MLINESTYLE
350
17
3
ACAD_LAYOUT
350
1A
3
ACAD_PLOTSETTINGS
350
19
3
ACAD_PLOTSTYLENAME
350
E
0
DICTIONARY
5
D
102
{ACAD_REACTORS
330
C
102
}
100
AcDbDictionary
280
0
281
1
0
ACDBDICTIONARYWDFLT
5
E
102
{ACAD_REACTORS
330
C
102
}
100
AcDbDictionary
281
1
3
Normal
350
F
100
AcDbDictionaryWithDefault
340
F
0
DICTIONARY
5
17
102
{ACAD_REACTORS
330
C
102
}
100
AcDbDictionary
280
0
281
1
3
Standard
350
18
0
DICTIONARY
5
19
102
{ACAD_REACTORS
330
C
102
}
100
AcDbDictionary
281
1
0
DICTIONARY
5
1A
102
{ACAD_REACTORS
330
C
102
}
100
AcDbDictionary
281
1
3
Layout1
350
1E
3
Model
350
22
0
ACDBPLACEHOLDER
5
F
102
{ACAD_REACTORS
330
E
102
}
0
MLINESTYLE
5
18
102
{ACAD_REACTORS
330
17
102
}
100
AcDbMlineStyle
2
STANDARD
70
0
3

62
256
51
90.0
52
90.0
71
2
49
0.5
62
256
6
BYLAYER
49
-0.5
62
256
6
BYLAYER
0
LAYOUT
5
1E
102
{ACAD_REACTORS
330
1A
102
}
100
AcDbPlotSettings
1

2

4

6

40
0.0
41
0.0
42
0.0
43
0.0
44
0.0
45
0.0
46
0.0
47
0.0
48
0.0
49
0.0
140
0.0
141
0.0
142
1.0
143
1.0
70
0
72
0
73
0
74
0
7

75
0
147
1.0
148
0.0
149
0.0
100
AcDbLayout
1
Layout1
70
0
71
0
10
0.0
20
0.0
11
0.0
21
0.0
12
0.0
22
0.0
32
0.0
14
0.0
24
0.0
34
0.0
15
0.0
25
0.0
35
0.0
146
0.0
13
0.0
23
0.0
33
0.0
16
0.0
26
0.0
36
0.0
17
0.0
27
0.0
37
0.0
76
0
330
1B
331
0
345
0
346
0
0
LAYOUT
5
22
102
{ACAD_REACTORS
330
1A
102
}
100
AcDbPlotSettings
1

2

4

6

40
0.0
41
0.0
42
0.0
43
0.0
44
0.0
45
0.0
46
0.0
47
0.0
48
0.0
49
0.0
140
0.0
141
0.0
142
1.0
143
1.0
70
0
72
0
73
0
74
0
7

75
0
147
1.0
148
0.0
149
0.0
100
AcDbLayout
1
Model
70
0
71
0
10
0.0
20
0.0
11
0.0
21
0.0
12
0.0
22
0.0
32
0.0
14
0.0
24
0.0
34
0.0
15
0.0
25
0.0
35
0.0
146
0.0
13
0.0
23
0.0
33
0.0
16
0.0
26
0.0
36
0.0
17
0.0
27
0.0
37
0.0
76
0
330
1F
331
0
345
0
346
0
0
ENDSEC
0
EOF
