  0
SECTION
  2
HEADER
  9
$ACADVER
  1
AC1024
  9
$DWGCODEPAGE
  3
ANSI_1252
  9
$EXTMAX
 10
297.0
 20
210.0
 30
0.0
  9
$EXTMIN
 10
0.0
 20
0.0
 30
0.0
  9
$LIMMIN
 10
0.0
 20
0.0
  9
$LIMMAX
 10
297.0
 20
210.0
  9
$VIEWCTR
 10
148.5
 20
105.0
  9
$VIEWSIZE
 40
210.0
  9
$CLAYER
  8
0
  9
$LTSCALE
 40
16.335
  9
$CELTYPE
  6
BYLAYER
  9
$DIMSCALE
 40
1.0
  9
$DIMASZ
 40
3.0
  9
$DIMEXO
 40
0.5
  9
$DIMDLI
 40
11.286
  9
$DIMEXE
 40
1.5
  9
$DIMCEN
 40
2.673
  9
$DIMLFAC
 40
1.0
  9
$DIMBLK
  1
_FILLED
  9
$DIMALT
 70
0
  9
$DIMALTF
 40
0.0393700787
  9
$DIMTXT
 40
3.0
  9
$DIMTOL
 70
1
  9
$DIMLIM
 70
0
  9
$DIMTFAC
 40
1.0
  9
$DIMTP
 40
0.01
  9
$DIMTM
 40
0.01
  9
$DIMGAP
 40
0.625
  9
$DIMDSEP
 70
44
  9
$AUNITS
 70
0
  9
$PDMODE
 70
3
  9
$PDSIZE
 40
3.0
  9
$HANDSEED
  5
74E
  9
$TILEMODE
 70
1
  9
$MEASUREMENT
 70
1
  9
$INSUNITS
 70
4
  0
ENDSEC
  0
SECTION
  2
CLASSES
  0
CLASS
  1
ACDBDICTIONARYWDFLT
  2
AcDbDictionaryWithDefault
  3
AutoCAD 2000
 90
0
 91
1
280
0
281
0
  0
CLASS
  1
ACDBPLACEHOLDER
  2
AcDbPlaceHolder
  3
AutoCAD 2000
 90
0
 91
1
280
0
281
0
  0
CLASS
  1
LAYOUT
  2
AcDbLayout
  3
AutoCAD 2000
 90
0
 91
0
280
0
281
0
  0
ENDSEC
  0
SECTION
  2
TABLES
  0
TABLE
  2
VPORT
  5
8
100
AcDbSymbolTable
 70
2
  0
VPORT
  5
1F4
100
AcDbSymbolTableRecord
100
AcDbViewportTableRecord
  2
*ACTIVE
 70
0
 10
0.0
 20
0.0
 11
1.0
 21
1.0
 12
148.5
 22
105.0
 13
0.0
 23
0.0
 14
1.0
 24
1.0
 15
0.0
 25
0.0
 16
0.0
 26
0.0
 36
1.0
 17
0.0
 27
0.0
 37
0.0
 40
210.0
 41
1.4142857143
 42
50.0
 43
0.0
 44
0.0
 50
0.0
 51
0.0
 71
0
 72
100
 73
1
 74
1
 75
0
 76
0
 77
0
 78
0
  0
ENDTAB
  0
TABLE
  2
LTYPE
  5
5
100
AcDbSymbolTable
 70
6
  0
LTYPE
  5
14
100
AcDbSymbolTableRecord
100
AcDbLinetypeTableRecord
  2
BYBLOCK
 70
0
  3

 72
65
 73
0
 40
0.0
  0
LTYPE
  5
15
100
AcDbSymbolTableRecord
100
AcDbLinetypeTableRecord
  2
BYLAYER
 70
0
  3

 72
65
 73
0
 40
0.0
  0
LTYPE
  5
16
100
AcDbSymbolTableRecord
100
AcDbLinetypeTableRecord
  2
CONTINUOUS
 70
64
  3
Solid line
 72
65
 73
0
 40
0.0
  0
LTYPE
  5
1F5
100
AcDbSymbolTableRecord
100
AcDbLinetypeTableRecord
  2
CENTER
 70
64
  3
____ _ ____ _ ____ _ ____ _ ____ _ ____ _ ____
 72
65
 73
4
 40
0.6
 49
0.375
 74
0
 49
-0.075
 74
0
 49
0.075
 74
0
 49
-0.075
 74
0
  0
LTYPE
  5
1F6
100
AcDbSymbolTableRecord
100
AcDbLinetypeTableRecord
  2
HIDDEN
 70
64
  3
- - - - - - - - - - - - - - - - - - - -
 72
65
 73
2
 40
0.2
 49
0.1
 74
0
 49
-0.1
 74
0
  0
LTYPE
  5
1F7
100
AcDbSymbolTableRecord
100
AcDbLinetypeTableRecord
  2
PHANTOM
 70
64
  3
_____ _ _ _____ _ _ _____ _ _ _____
 72
65
 73
6
 40
0.8
 49
0.45
 74
0
 49
-0.05
 74
0
 49
0.1
 74
0
 49
-0.05
 74
0
 49
0.1
 74
0
 49
-0.05
 74
0
  0
LTYPE
  5
1F8
100
AcDbSymbolTableRecord
100
AcDbLinetypeTableRecord
  2
DOT
 70
64
  3
. . . . . . . . . . . . . . . . . . . .
 72
65
 73
2
 40
0.2
 49
0.1
 74
0
 49
-0.1
 74
0
  0
LTYPE
  5
1F9
100
AcDbSymbolTableRecord
100
AcDbLinetypeTableRecord
  2
DASHED
 70
64
  3
- - - - - - - - - - - - - - - - - - - -
 72
65
 73
2
 40
0.2
 49
0.1
 74
0
 49
-0.1
 74
0
  0
ENDTAB
  0
TABLE
  2
LAYER
  5
2
100
AcDbSymbolTable
 70
36
  0
LAYER
  5
10
100
AcDbSymbolTableRecord
100
AcDbLayerTableRecord
  2
0
 70
0
 62
7
  6
CONTINUOUS
370
-3
390
F
  0
LAYER
  5
1FA
100
AcDbSymbolTableRecord
100
AcDbLayerTableRecord
  2
DEFAULT_1
 70
0
 62
7
  6
CENTER
370
-3
390
F
  0
LAYER
  5
1FB
100
AcDbSymbolTableRecord
100
AcDbLayerTableRecord
  2
DEFAULT_2
 70
0
 62
7
  6
HIDDEN
370
-3
390
F
  0
LAYER
  5
1FC
100
AcDbSymbolTableRecord
100
AcDbLayerTableRecord
  2
DEFAULT_3
 70
0
 62
7
  6
PHANTOM
370
-3
390
F
  0
LAYER
  5
1FD
100
AcDbSymbolTableRecord
100
AcDbLayerTableRecord
  2
ASSI
 70
0
 62
7
  6
CONTINUOUS
370
-3
390
F
  0
LAYER
  5
1FE
100
AcDbSymbolTableRecord
100
AcDbLayerTableRecord
  2
COORDINATE
 70
0
 62
7
  6
CONTINUOUS
370
-3
390
F
  0
LAYER
  5
1FF
100
AcDbSymbolTableRecord
100
AcDbLayerTableRecord
  2
COORD_ORIGINE
 70
0
 62
7
  6
CONTINUOUS
370
-3
390
F
  0
LAYER
  5
200
100
AcDbSymbolTableRecord
100
AcDbLayerTableRecord
  2
COSMETICHE
 70
0
 62
7
  6
CONTINUOUS
370
-3
390
F
  0
LAYER
  5
201
100
AcDbSymbolTableRecord
100
AcDbLayerTableRecord
  2
COSMETICI
 70
0
 62
7
  6
CONTINUOUS
370
-3
390
F
  0
LAYER
  5
202
100
AcDbSymbolTableRecord
100
AcDbLayerTableRecord
  2
CURVE
 70
0
 62
7
  6
CONTINUOUS
370
-3
390
F
  0
LAYER
  5
203
100
AcDbSymbolTableRecord
100
AcDbLayerTableRecord
  2
C_CONTATTI
 70
0
 62
7
  6
CONTINUOUS
370
-3
390
F
  0
LAYER
  5
204
100
AcDbSymbolTableRecord
100
AcDbLayerTableRecord
  2
C_COPERCHIO
 70
0
 62
7
  6
CONTINUOUS
370
-3
390
F
  0
LAYER
  5
205
100
AcDbSymbolTableRecord
100
AcDbLayerTableRecord
  2
C_CORPO
 70
0
 62
7
  6
CONTINUOUS
370
-3
390
F
  0
LAYER
  5
206
100
AcDbSymbolTableRecord
100
AcDbLayerTableRecord
  2
C_OTTURATORE
 70
0
 62
7
  6
CONTINUOUS
370
-3
390
F
  0
LAYER
  5
207
100
AcDbSymbolTableRecord
100
AcDbLayerTableRecord
  2
DRAFT
 70
0
 62
7
  6
CONTINUOUS
370
-3
390
F
  0
LAYER
  5
208
100
AcDbSymbolTableRecord
100
AcDbLayerTableRecord
  2
INTF_1
 70
0
 62
7
  6
CONTINUOUS
370
-3
390
F
  0
LAYER
  5
209
100
AcDbSymbolTableRecord
100
AcDbLayerTableRecord
  2
INTF_11
 70
0
 62
7
  6
CONTINUOUS
370
-3
390
F
  0
LAYER
  5
20A
100
AcDbSymbolTableRecord
100
AcDbLayerTableRecord
  2
INTF_12
 70
0
 62
7
  6
CONTINUOUS
370
-3
390
F
  0
LAYER
  5
20B
100
AcDbSymbolTableRecord
100
AcDbLayerTableRecord
  2
INTF_YELLOW
 70
0
 62
7
  6
CONTINUOUS
370
-3
390
F
  0
LAYER
  5
20C
100
AcDbSymbolTableRecord
100
AcDbLayerTableRecord
  2
NOTE
 70
0
 62
7
  6
CONTINUOUS
370
-3
390
F
  0
LAYER
  5
20D
100
AcDbSymbolTableRecord
100
AcDbLayerTableRecord
  2
PIANI
 70
0
 62
7
  6
CONTINUOUS
370
-3
390
F
  0
LAYER
  5
20E
100
AcDbSymbolTableRecord
100
AcDbLayerTableRecord
  2
PIANI_ORIGINE
 70
0
 62
7
  6
CONTINUOUS
370
-3
390
F
  0
LAYER
  5
20F
100
AcDbSymbolTableRecord
100
AcDbLayerTableRecord
  2
PIANI_SFORMO
 70
0
 62
7
  6
CONTINUOUS
370
-3
390
F
  0
LAYER
  5
210
100
AcDbSymbolTableRecord
100
AcDbLayerTableRecord
  2
PUNTI
 70
0
 62
7
  6
CONTINUOUS
370
-3
390
F
  0
LAYER
  5
211
100
AcDbSymbolTableRecord
100
AcDbLayerTableRecord
  2
RACCORDO
 70
0
 62
7
  6
CONTINUOUS
370
-3
390
F
  0
LAYER
  5
212
100
AcDbSymbolTableRecord
100
AcDbLayerTableRecord
  2
SCRITTE
 70
0
 62
7
  6
CONTINUOUS
370
-3
390
F
  0
LAYER
  5
213
100
AcDbSymbolTableRecord
100
AcDbLayerTableRecord
  2
SIMBOLI
 70
0
 62
7
  6
CONTINUOUS
370
-3
390
F
  0
LAYER
  5
214
100
AcDbSymbolTableRecord
100
AcDbLayerTableRecord
  2
SMUSSO
 70
0
 62
7
  6
CONTINUOUS
370
-3
390
F
  0
LAYER
  5
215
100
AcDbSymbolTableRecord
100
AcDbLayerTableRecord
  2
SUPERFICI
 70
0
 62
7
  6
CONTINUOUS
370
-3
390
F
  0
LAYER
  5
216
100
AcDbSymbolTableRecord
100
AcDbLayerTableRecord
  2
TRASH
 70
0
 62
7
  6
CONTINUOUS
370
-3
390
F
  0
LAYER
  5
217
100
AcDbSymbolTableRecord
100
AcDbLayerTableRecord
  2
XSEC_DATUMS
 70
0
 62
7
  6
CONTINUOUS
370
-3
390
F
  0
ENDTAB
  0
TABLE
  2
STYLE
  5
3
100
AcDbSymbolTable
 70
1
  0
STYLE
  5
11
100
AcDbSymbolTableRecord
100
AcDbTextStyleTableRecord
  2
STANDARD
 70
0
 40
0.0
 41
0.8
 50
0.0
 71
0
 42
0.2
  3
txt
  4

  0
STYLE
  5
218
100
AcDbSymbolTableRecord
100
AcDbTextStyleTableRecord
  2
TEXTSTYLE_1
 70
0
 40
0.0
 41
0.8
 50
0.0
 71
0
 42
0.2
  3
gdt
  4

  0
ENDTAB
  0
TABLE
  2
VIEW
  5
6
100
AcDbSymbolTable
 70
0
  0
ENDTAB
  0
TABLE
  2
UCS
  5
7
100
AcDbSymbolTable
 70
0
  0
ENDTAB
  0
TABLE
  2
APPID
  5
9
100
AcDbSymbolTable
 70
1
  0
APPID
  5
219
100
AcDbSymbolTableRecord
100
AcDbRegAppTableRecord
  2
ACAD
 70
0
  0
ENDTAB
  0
TABLE
  2
BLOCK_RECORD
  5
1
100
AcDbSymbolTable
 70
0
  0
BLOCK_RECORD
  5
21A
100
AcDbSymbolTableRecord
100
AcDbBlockTableRecord
  2
*Model_Space
  0
BLOCK_RECORD
  5
21B
100
AcDbSymbolTableRecord
100
AcDbBlockTableRecord
  2
*Paper_Space
  0
BLOCK_RECORD
  5
21C
100
AcDbSymbolTableRecord
100
AcDbBlockTableRecord
  2
_FILLED
  0
ENDTAB
  0
TABLE
  2
DIMSTYLE
  5
A
100
AcDbSymbolTable
 70
1
100
AcDbDimStyleTable
 71
0
  0
DIMSTYLE
105
21D
100
AcDbSymbolTableRecord
100
AcDbDimStyleTableRecord
  2
STANDARD
 70
0
  3

  4

 40
1.0
 41
3.0
 42
0.5
 43
0.38
 44
1.5
 45
0.0
 46
0.0
 47
0.01
 48
0.01
140
3.0
141
0.09
142
0.0
143
25.4
144
1.0
145
0.0
146
1.0
147
0.625
 71
1
 72
0
 73
0
 74
0
 75
0
 76
0
 77
1
 78
8
 79
2
170
0
171
1
172
0
173
0
174
0
175
0
176
0
177
0
178
0
270
2
179
2
271
2
272
2
273
2
274
2
275
0
280
0
281
0
282
0
283
1
284
8
285
0
286
0
287
3
288
0
340
11
278
44
341
21C
342
21C
343
21C
344
21C
  0
ENDTAB
  0
ENDSEC
  0
SECTION
  2
BLOCKS
  0
BLOCK
  5
20
100
AcDbEntity
  8
0
100
AcDbBlockBegin
  2
*Model_Space
 70
0
 10
0.0
 20
0.0
 30
0.0
  3
*Model_Space
  1

  0
ENDBLK
  5
21
100
AcDbEntity
  8
0
100
AcDbBlockEnd
  0
BLOCK
  5
1C
100
AcDbEntity
  8
0
100
AcDbBlockBegin
  2
*Paper_Space
 70
0
 10
0.0
 20
0.0
 30
0.0
  3
*Paper_Space
  1

  0
ENDBLK
  5
1D
100
AcDbEntity
  8
0
100
AcDbBlockEnd
  0
BLOCK
  5
21E
100
AcDbEntity
  8
0
100
AcDbBlockBegin
  2
_FILLED
 70
64
 10
0.0
 20
0.0
  3
_FILLED
  1

  0
SOLID
  5
21F
100
AcDbEntity
  8
0
  6
BYBLOCK
 62
0
100
AcDbTrace
 10
0.0
 20
0.0
 11
-1.0
 21
0.3166666667
 12
-1.0
 22
-0.3166666667
 13
-1.0
 23
-0.3166666667
  0
ENDBLK
  5
220
100
AcDbEntity
  8
0
  6
BYBLOCK
 62
0
100
AcDbBlockEnd
  0
ENDSEC
  0
SECTION
  2
ENTITIES
  0
LWPOLYLINE
  5
221
100
AcDbEntity
  8
C_COPERCHIO
100
AcDbPolyline
 62
7
  6
CONTINUOUS
 90
3
 70
0
 10
-10.5500460563
 20
23.6811920369
 10
-10.5920247849
 20
23.6390385494
 10
-10.6033769702
 20
23.6278312164
  0
LINE
  5
222
100
AcDbEntity
  8
C_COPERCHIO
100
AcDbLine
 62
250
  6
CONTINUOUS
 10
-10.6413041988
 20
22.3910122558
 11
-10.6323164546
 21
22.4
  0
LINE
  5
223
100
AcDbEntity
  8
C_COPERCHIO
100
AcDbLine
 62
250
  6
CONTINUOUS
 10
-8.4999619238
 20
24.5
 11
-8.5131293807
 21
24.4868325431
  0
LINE
  5
224
100
AcDbEntity
  8
C_COPERCHIO
100
AcDbLine
 62
7
  6
CONTINUOUS
 10
-10.4765623279
 20
23.754586152
 11
-10.5333937755
 21
23.6977777564
  0
LINE
  5
225
100
AcDbEntity
  8
C_COPERCHIO
100
AcDbLine
 62
7
  6
CONTINUOUS
 10
-10.5333937755
 20
23.6977777564
 11
-10.5500460563
 21
23.6811920369
  0
LWPOLYLINE
  5
226
100
AcDbEntity
  8
C_COPERCHIO
100
AcDbPolyline
 62
7
  6
CONTINUOUS
 90
3
 70
0
 10
-10.3868706193
 20
23.8443375673
 10
-10.4107062725
 20
23.8207626766
 10
-10.4765623279
 20
23.754586152
  0
LWPOLYLINE
  5
227
100
AcDbEntity
  8
C_COPERCHIO
100
AcDbPolyline
 62
7
  6
CONTINUOUS
 90
9
 70
0
 10
10.6491820368
 20
-22.3997180294
 10
10.7021542515
 20
-22.395115231
 10
10.7542172895
 20
-22.3849398487
 10
10.8047927581
 20
-22.369345737
 10
10.8534810615
 20
-22.3484691028
 10
10.8995838191
 20
-22.3226233164
 10
10.9421983278
 20
-22.2924539227
 10
10.9807646256
 20
-22.2586595885
 10
10.9859590363
 20
-22.2535403519
  0
LWPOLYLINE
  5
228
100
AcDbEntity
  8
C_COPERCHIO
100
AcDbPolyline
 62
250
  6
CONTINUOUS
 90
13
 70
0
 10
4.0669670874
 20
-23.6274588868
 10
4.0929400444
 20
-23.6257373336
 10
4.1184723362
 20
-23.6209354669
 10
4.143131043
 20
-23.6131347141
 10
4.1664980572
 20
-23.6024673539
 10
4.1881771734
 20
-23.5891142718
 10
4.2078008063
 20
-23.5733018923
 10
4.2250362221
 20
-23.5552983396
 10
4.2395911809
 20
-23.5354088948
 10
4.2512188919
 20
-23.5139708184
 10
4.2597221983
 20
-23.4913476259
 10
4.2649569199
 20
-23.467922924
 10
4.2668342979
 20
-23.4440939096
  0
LWPOLYLINE
  5
229
100
AcDbEntity
  8
C_COPERCHIO
100
AcDbPolyline
 62
250
  6
CONTINUOUS
 90
13
 70
0
 10
4.0689651576
 20
-23.6689346966
 10
4.0950624985
 20
-23.6672164968
 10
4.120713281
 20
-23.6621072286
 10
4.1454787639
 20
-23.6536943491
 10
4.1689353847
 20
-23.6421218061
 10
4.1906819334
 20
-23.6275876071
 10
4.2103464319
 20
-23.610340458
 10
4.2275925946
 20
-23.5906754346
 10
4.2421255308
 20
-23.5689289354
 10
4.2536967429
 20
-23.5454729879
 10
4.2621084252
 20
-23.5207088198
 10
4.2672168284
 20
-23.4950599856
 10
4.2689346966
 20
-23.4689651576
  0
LWPOLYLINE
  5
22A
100
AcDbEntity
  8
C_COPERCHIO
100
AcDbPolyline
 62
7
  6
CONTINUOUS
 90
13
 70
0
 10
4.200030461
 20
-23.8
 10
4.2261325878
 20
-23.7982897358
 10
4.2517877661
 20
-23.7931875595
 10
4.2765572875
 20
-23.7847805782
 10
4.3000177444
 20
-23.7732123371
 10
4.3217675502
 20
-23.75868055
 10
4.3414339722
 20
-23.7414339722
 10
4.35868055
 20
-23.7217675502
 10
4.3732123371
 20
-23.7000177444
 10
4.3847805782
 20
-23.6765572875
 10
4.3931875595
 20
-23.6517877661
 10
4.3982897358
 20
-23.6261325878
 10
4.4
 20
-23.600030461
  0
LINE
  5
22B
100
AcDbEntity
  8
C_COPERCHIO
100
AcDbLine
 62
7
  6
CONTINUOUS
 10
8.4999619238
 20
-24.5
 11
10.4000380762
 21
-24.5
  0
LINE
  5
22C
100
AcDbEntity
  8
C_COPERCHIO
100
AcDbLine
 62
7
  6
CONTINUOUS
 10
-8.4999619238
 20
-24.5
 11
-10.4000380762
 21
-24.5
  0
LINE
  5
22D
100
AcDbEntity
  8
C_COPERCHIO
100
AcDbLine
 62
250
  6
CONTINUOUS
 10
-10.3868706193
 20
-24.4868325431
 11
-8.5131293807
 21
-24.4868325431
  0
LINE
  5
22E
100
AcDbEntity
  8
C_COPERCHIO
100
AcDbLine
 62
250
  6
CONTINUOUS
 10
10.3868706193
 20
-24.4868325431
 11
8.5131293807
 21
-24.4868325431
  0
LINE
  5
22F
100
AcDbEntity
  8
C_COPERCHIO
100
AcDbLine
 62
250
  6
CONTINUOUS
 10
8.2631674569
 20
-24.2368706193
 11
10.6368325431
 21
-24.2368706193
  0
LINE
  5
230
100
AcDbEntity
  8
C_COPERCHIO
100
AcDbLine
 62
250
  6
CONTINUOUS
 10
-8.2631674569
 20
-24.2368706193
 11
-10.6368325431
 21
-24.2368706193
  0
LINE
  5
231
100
AcDbEntity
  8
C_COPERCHIO
100
AcDbLine
 62
250
  6
CONTINUOUS
 10
-10.3868706193
 20
-23.8443375673
 11
-8.5131293807
 21
-23.8443375673
  0
LINE
  5
232
100
AcDbEntity
  8
C_COPERCHIO
100
AcDbLine
 62
250
  6
CONTINUOUS
 10
10.3868706193
 20
-23.8443375673
 11
8.5131293807
 21
-23.8443375673
  0
LINE
  5
233
100
AcDbEntity
  8
C_COPERCHIO
100
AcDbLine
 62
7
  6
CONTINUOUS
 10
4.200030461
 20
-23.8
 11
-4.200030461
 21
-23.8
  0
LINE
  5
234
100
AcDbEntity
  8
C_COPERCHIO
100
AcDbLine
 62
7
  6
CONTINUOUS
 10
-3.5
 20
-23.7825449351
 11
3.5
 21
-23.7825449351
  0
LINE
  5
235
100
AcDbEntity
  8
C_COPERCHIO
100
AcDbLine
 62
250
  6
CONTINUOUS
 10
4.0689651576
 20
-23.6689346966
 11
3.5
 21
-23.6689346966
  0
LINE
  5
236
100
AcDbEntity
  8
C_COPERCHIO
100
AcDbLine
 62
250
  6
CONTINUOUS
 10
-3.5
 20
-23.6689346966
 11
-4.0689651576
 21
-23.6689346966
  0
LINE
  5
237
100
AcDbEntity
  8
C_COPERCHIO
100
AcDbLine
 62
250
  6
CONTINUOUS
 10
-10.6033769702
 20
-23.6278312164
 11
-8.2966230298
 21
-23.6278312164
  0
LINE
  5
238
100
AcDbEntity
  8
C_COPERCHIO
100
AcDbLine
 62
250
  6
CONTINUOUS
 10
10.6033769702
 20
-23.6278312164
 11
8.2966230298
 21
-23.6278312164
  0
LINE
  5
239
100
AcDbEntity
  8
C_COPERCHIO
100
AcDbLine
 62
7
  6
CONTINUOUS
 10
8.25
 20
-23.1226497308
 11
10.65
 21
-23.1226497308
  0
LINE
  5
23A
100
AcDbEntity
  8
C_COPERCHIO
100
AcDbLine
 62
7
  6
CONTINUOUS
 10
-8.25
 20
-23.1226497308
 11
-10.65
 21
-23.1226497308
  0
LWPOLYLINE
  5
23B
100
AcDbEntity
  8
C_COPERCHIO
100
AcDbPolyline
 62
7
  6
CONTINUOUS
 90
13
 70
0
 10
-4.200030461
 20
-23.8
 10
-4.2261325878
 20
-23.7982897358
 10
-4.2517877661
 20
-23.7931875595
 10
-4.2765572875
 20
-23.7847805782
 10
-4.3000177444
 20
-23.7732123371
 10
-4.3217675502
 20
-23.75868055
 10
-4.3414339722
 20
-23.7414339722
 10
-4.35868055
 20
-23.7217675502
 10
-4.3732123371
 20
-23.7000177444
 10
-4.3847805782
 20
-23.6765572875
 10
-4.3931875595
 20
-23.6517877661
 10
-4.3982897358
 20
-23.6261325878
 10
-4.4
 20
-23.600030461
  0
LWPOLYLINE
  5
23C
100
AcDbEntity
  8
C_COPERCHIO
100
AcDbPolyline
 62
250
  6
CONTINUOUS
 90
13
 70
0
 10
-4.0689651576
 20
-23.6689346966
 10
-4.0950613892
 20
-23.6672166433
 10
-4.1207112799
 20
-23.6621077656
 10
-4.1454761229
 20
-23.653695444
 10
-4.168932349
 20
-23.6421235598
 10
-4.190678771
 20
-23.6275900347
 10
-4.2103434457
 20
-23.6103434449
 10
-4.2275900353
 20
-23.5906787702
 10
-4.2421235603
 20
-23.5689323482
 10
-4.2536954443
 20
-23.5454761223
 10
-4.2621077658
 20
-23.5207112794
 10
-4.2672166434
 20
-23.4950613889
 10
-4.2689346966
 20
-23.4689651576
  0
LWPOLYLINE
  5
23D
100
AcDbEntity
  8
C_COPERCHIO
100
AcDbPolyline
 62
250
  6
CONTINUOUS
 90
13
 70
0
 10
-4.0669670897
 20
-23.6274840058
 10
-4.0929539975
 20
-23.6257629727
 10
-4.1185001876
 20
-23.6209609898
 10
-4.1431724168
 20
-23.6131594949
 10
-4.1665522634
 20
-23.6024907955
 10
-4.1882432237
 20
-23.5891358243
 10
-4.2078774362
 20
-23.5733210706
 10
-4.22512192
 20
-23.5553147388
 10
-4.2396842223
 20
-23.5354222037
 10
-4.2513173779
 20
-23.5139808317
 10
-4.2598240977
 20
-23.4913542519
 10
-4.2650601142
 20
-23.4679261913
 10
-4.2669366287
 20
-23.4440939707
  0
LWPOLYLINE
  5
23E
100
AcDbEntity
  8
C_COPERCHIO
100
AcDbPolyline
 62
7
  6
CONTINUOUS
 90
8
 70
0
 10
-10.9807646256
 20
-22.2586595885
 10
-10.9421983278
 20
-22.2924539227
 10
-10.8995838469
 20
-22.3226232988
 10
-10.8534811206
 20
-22.3484690737
 10
-10.8047927581
 20
-22.369345737
 10
-10.754217098
 20
-22.3849398969
 10
-10.7021537625
 20
-22.3951153
 10
-10.6491811484
 20
-22.3997180594
  0
LINE
  5
23F
100
AcDbEntity
  8
C_COPERCHIO
100
AcDbLine
 62
7
  6
CONTINUOUS
 10
-10.6033769702
 20
-23.6278312164
 11
-10.5920248
 21
-23.6390385408
  0
LINE
  5
240
100
AcDbEntity
  8
C_COPERCHIO
100
AcDbLine
 62
7
  6
CONTINUOUS
 10
-10.4107058967
 20
-23.8207630626
 11
-10.3868706193
 21
-23.8443375673
  0
LINE
  5
241
100
AcDbEntity
  8
C_COPERCHIO
100
AcDbLine
 62
250
  6
CONTINUOUS
 10
-10.6323164546
 20
-22.4
 11
-10.6413041988
 21
-22.3910122558
  0
LINE
  5
242
100
AcDbEntity
  8
C_COPERCHIO
100
AcDbLine
 62
250
  6
CONTINUOUS
 10
-8.5131293807
 20
-24.4868325431
 11
-8.4999619238
 21
-24.5
  0
LWPOLYLINE
  5
243
100
AcDbEntity
  8
C_COPERCHIO
100
AcDbPolyline
 62
7
  6
CONTINUOUS
 90
3
 70
0
 10
-10.5920248
 20
-23.6390385408
 10
-10.565387281
 20
-23.6658209056
 10
-10.5333936491
 20
-23.6977778826
  0
LINE
  5
244
100
AcDbEntity
  8
C_COPERCHIO
100
AcDbLine
 62
7
  6
CONTINUOUS
 10
-10.5333936491
 20
-23.6977778826
 11
-10.4107058967
 21
-23.8207630626
  0
LINE
  5
245
100
AcDbEntity
  8
C_COPERCHIO
100
AcDbLine
 62
250
  6
CONTINUOUS
 10
-8.25
 20
24.2500380762
 11
-8.2631674569
 21
24.2368706193
  0
LINE
  5
246
100
AcDbEntity
  8
C_COPERCHIO
100
AcDbLine
 62
7
  6
CONTINUOUS
 10
-8.0665695018
 20
20.9829813964
 11
-8.2325449351
 21
20.9
  0
LWPOLYLINE
  5
247
100
AcDbEntity
  8
C_COPERCHIO
100
AcDbPolyline
 62
7
  6
CONTINUOUS
 90
6
 70
0
 10
10.65
 20
-22.3997025937
 10
10.6467414675
 20
-22.3997966761
 10
10.6436074449
 20
-22.3998729526
 10
10.6405979324
 20
-22.3999314232
 10
10.6377129298
 20
-22.399972088
 10
10.6349524372
 20
-22.3999949469
  0
LINE
  5
248
100
AcDbEntity
  8
C_COPERCHIO
100
AcDbLine
 62
7
  6
CONTINUOUS
 10
4.4
 20
-22.4
 11
10.6349524372
 21
-22.3999949469
  0
LINE
  5
249
100
AcDbEntity
  8
C_COPERCHIO
100
AcDbLine
 62
7
  6
CONTINUOUS
 10
10.6497715195
 20
-22.3825449351
 11
7.2427698754
 21
-22.3825449351
  0
LINE
  5
24A
100
AcDbEntity
  8
C_COPERCHIO
100
AcDbLine
 62
7
  6
CONTINUOUS
 10
-7.2427698754
 20
-22.3825449351
 11
-10.6497715195
 21
-22.3825449351
  0
LINE
  5
24B
100
AcDbEntity
  8
C_COPERCHIO
100
AcDbLine
 62
7
  6
CONTINUOUS
 10
3.5
 20
-22.276069039
 11
3.0
 21
-22.276069039
  0
LINE
  5
24C
100
AcDbEntity
  8
C_COPERCHIO
100
AcDbLine
 62
7
  6
CONTINUOUS
 10
-3.0
 20
-22.276069039
 11
-3.5
 21
-22.276069039
  0
LINE
  5
24D
100
AcDbEntity
  8
C_COPERCHIO
100
AcDbLine
 62
250
  6
CONTINUOUS
 10
-7.1775725707
 20
-22.2251447178
 11
-3.0
 21
-22.2251447178
  0
LINE
  5
24E
100
AcDbEntity
  8
C_COPERCHIO
100
AcDbLine
 62
250
  6
CONTINUOUS
 10
3.0
 20
-22.2251447178
 11
7.1775725707
 21
-22.2251447178
  0
LINE
  5
24F
100
AcDbEntity
  8
C_COPERCHIO
100
AcDbLine
 62
7
  6
CONTINUOUS
 10
2.5
 20
-21.7
 11
-2.5
 21
-21.7
  0
LINE
  5
250
100
AcDbEntity
  8
C_COPERCHIO
100
AcDbLine
 62
7
  6
CONTINUOUS
 10
-3.0
 20
-21.6637573199
 11
3.0
 21
-21.6637573199
  0
LWPOLYLINE
  5
251
100
AcDbEntity
  8
C_COPERCHIO
100
AcDbPolyline
 62
7
  6
CONTINUOUS
 90
7
 70
0
 10
-4.4
 20
-22.4
 10
-10.6349680195
 20
-22.3999946916
 10
-10.6377378615
 20
-22.3999716776
 10
-10.6406259805
 20
-22.3999309579
 10
-10.6436323766
 20
-22.3998725325
 10
-10.6467570498
 20
-22.3997964014
 10
-10.65
 20
-22.3997025646
  0
LINE
  5
252
100
AcDbEntity
  8
C_COPERCHIO
100
AcDbLine
 62
7
  6
CONTINUOUS
 10
-8.0665695018
 20
-20.9829813964
 11
-8.2325449351
 21
-20.9
  0
LINE
  5
253
100
AcDbEntity
  8
C_COPERCHIO
100
AcDbLine
 62
250
  6
CONTINUOUS
 10
-8.2631674569
 20
-24.2368706193
 11
-8.25
 21
-24.2500380762
  0
LINE
  5
254
100
AcDbEntity
  8
C_CORPO
100
AcDbLine
 62
7
  6
CONTINUOUS
 10
-10.1965069853
 20
19.1967670433
 11
-10.0829378052
 21
19.3131096223
  0
LINE
  5
255
100
AcDbEntity
  8
C_COPERCHIO
100
AcDbLine
 62
7
  6
CONTINUOUS
 10
-9.65
 20
20.15
 11
-8.9
 21
20.9
  0
LINE
  5
256
100
AcDbEntity
  8
C_COPERCHIO
100
AcDbLine
 62
7
  6
CONTINUOUS
 10
-9.5723308767
 20
20.1178283957
 11
-9.363484001
 21
20.3266752714
  0
LINE
  5
257
100
AcDbEntity
  8
C_CORPO
100
AcDbLine
 62
7
  6
CONTINUOUS
 10
-8.8
 20
20.85
 11
-10.5643027805
 21
19.0856972195
  0
LINE
  5
258
100
AcDbEntity
  8
C_COPERCHIO
100
AcDbLine
 62
7
  6
CONTINUOUS
 10
-8.2325449351
 20
21.3927698754
 11
-7.2427698754
 21
22.3825449351
  0
LINE
  5
259
100
AcDbEntity
  8
C_CORPO
100
AcDbLine
 62
7
  6
CONTINUOUS
 10
-10.0850175454
 20
19.3181305591
 11
-8.5531481045
 21
20.85
  0
LINE
  5
25A
100
AcDbEntity
  8
C_CORPO
100
AcDbLine
 62
7
  6
CONTINUOUS
 10
-10.3827701052
 20
19.0105039234
 11
-10.1965069853
 21
19.1967670433
  0
LINE
  5
25B
100
AcDbEntity
  8
C_COPERCHIO
100
AcDbLine
 62
7
  6
CONTINUOUS
 10
-7.3733437671
 20
20.8266562329
 11
-7.2153265358
 21
20.9846734642
  0
LWPOLYLINE
  5
25C
100
AcDbEntity
  8
C_CORPO
100
AcDbPolyline
 62
250
  6
CONTINUOUS
 90
31
 70
0
 10
-10.9684673247
 20
16.3517637946
 10
-10.9408371034
 20
16.3762455491
 10
-10.9126464133
 20
16.4000143413
 10
-10.8838952544
 20
16.4230701714
 10
-10.8545651097
 20
16.4454265706
 10
-10.8246744961
 20
16.4670700076
 10
-10.7942789651
 20
16.4879598887
 10
-10.7633763508
 20
16.5080952314
 10
-10.7319688191
 20
16.5274770183
 10
-10.7001184185
 20
16.5460676022
 10
-10.6678264719
 20
16.5638641265
 10
-10.6350916565
 20
16.5808694479
 10
-10.6019720524
 20
16.5970544895
 10
-10.5684709788
 20
16.6124167311
 10
-10.5345851165
 20
16.6269586929
 10
-10.5003625883
 20
16.640658859
 10
-10.4657999392
 20
16.6535177611
 10
-10.4309006242
 20
16.6655348674
 10
-10.3957231312
 20
16.6766870665
 10
-10.360258558
 20
16.6869744564
 10
-10.3245158067
 20
16.696396939
 10
-10.2885800717
 20
16.7049311083
 10
-10.2524494155
 20
16.7125733805
 10
-10.2161257755
 20
16.7193273394
 10
-10.1797001591
 20
16.7251803304
 10
-10.1431711445
 20
16.7301282841
 10
-10.1065401534
 20
16.7341752699
 10
-10.0699024576
 20
16.7373208422
 10
-10.0332898143
 20
16.7395648522
 10
-9.9966704663
 20
16.7409074487
 10
-9.9600444136
 20
16.7413486316
  0
LINE
  5
25D
100
AcDbEntity
  8
C_COPERCHIO
100
AcDbLine
 62
250
  6
CONTINUOUS
 10
-7.5666456542
 20
-21.2252970227
 11
-3.0
 21
-21.2252970227
  0
LINE
  5
25E
100
AcDbEntity
  8
C_COPERCHIO
100
AcDbLine
 62
250
  6
CONTINUOUS
 10
3.0
 20
-21.2252970227
 11
7.5666456542
 21
-21.2252970227
  0
LINE
  5
25F
100
AcDbEntity
  8
C_COPERCHIO
100
AcDbLine
 62
7
  6
CONTINUOUS
 10
3.0
 20
-21.0
 11
-3.0
 21
-21.0
  0
LINE
  5
260
100
AcDbEntity
  8
C_COPERCHIO
100
AcDbLine
 62
7
  6
CONTINUOUS
 10
7.5666456542
 20
-20.9872686779
 11
6.9153379589
 21
-20.9872686779
  0
LINE
  5
261
100
AcDbEntity
  8
C_COPERCHIO
100
AcDbLine
 62
7
  6
CONTINUOUS
 10
-6.9153379589
 20
-20.9872686779
 11
-7.5666456542
 21
-20.9872686779
  0
LINE
  5
262
100
AcDbEntity
  8
C_COPERCHIO
100
AcDbLine
 62
7
  6
CONTINUOUS
 10
-8.9
 20
-20.9
 11
-8.2325449351
 21
-20.9
  0
LINE
  5
263
100
AcDbEntity
  8
C_COPERCHIO
100
AcDbLine
 62
7
  6
CONTINUOUS
 10
8.2325449351
 20
-20.9
 11
8.9
 21
-20.9
  0
LINE
  5
264
100
AcDbEntity
  8
C_CORPO
100
AcDbLine
 62
7
  6
CONTINUOUS
 10
7.4
 20
-20.85
 11
8.8
 21
-20.85
  0
LINE
  5
265
100
AcDbEntity
  8
C_CORPO
100
AcDbLine
 62
7
  6
CONTINUOUS
 10
-7.4
 20
-20.85
 11
-8.8
 21
-20.85
  0
LINE
  5
266
100
AcDbEntity
  8
C_COPERCHIO
100
AcDbLine
 62
7
  6
CONTINUOUS
 10
8.869620017
 20
-20.8266562329
 11
8.8233437671
 21
-20.8266562329
  0
LINE
  5
267
100
AcDbEntity
  8
C_COPERCHIO
100
AcDbLine
 62
7
  6
CONTINUOUS
 10
7.4
 20
-20.8266562329
 11
7.3733437671
 21
-20.8266562329
  0
LINE
  5
268
100
AcDbEntity
  8
C_COPERCHIO
100
AcDbLine
 62
7
  6
CONTINUOUS
 10
-7.3733437671
 20
-20.8266562329
 11
-7.4
 21
-20.8266562329
  0
LINE
  5
269
100
AcDbEntity
  8
C_COPERCHIO
100
AcDbLine
 62
7
  6
CONTINUOUS
 10
-8.8233437671
 20
-20.8266562329
 11
-8.869620017
 21
-20.8266562329
  0
LINE
  5
26A
100
AcDbEntity
  8
C_COPERCHIO
100
AcDbLine
 62
250
  6
CONTINUOUS
 10
6.8846620411
 20
-20.3846620411
 11
-6.8846620411
 21
-20.3846620411
  0
LINE
  5
26B
100
AcDbEntity
  8
C_COPERCHIO
100
AcDbLine
 62
250
  6
CONTINUOUS
 10
9.363484001
 20
-20.3266752714
 11
9.3233247286
 21
-20.3266752714
  0
LINE
  5
26C
100
AcDbEntity
  8
C_COPERCHIO
100
AcDbLine
 62
250
  6
CONTINUOUS
 10
7.4
 20
-20.3266752714
 11
7.3776691233
 21
-20.3266752714
  0
LINE
  5
26D
100
AcDbEntity
  8
C_COPERCHIO
100
AcDbLine
 62
250
  6
CONTINUOUS
 10
-7.3776691233
 20
-20.3266752714
 11
-7.4
 21
-20.3266752714
  0
LINE
  5
26E
100
AcDbEntity
  8
C_COPERCHIO
100
AcDbLine
 62
250
  6
CONTINUOUS
 10
-9.3233247286
 20
-20.3266752714
 11
-9.363484001
 21
-20.3266752714
  0
LINE
  5
26F
100
AcDbEntity
  8
C_COPERCHIO
100
AcDbLine
 62
7
  6
CONTINUOUS
 10
6.5846734642
 20
-20.0846734642
 11
-6.5846734642
 21
-20.0846734642
  0
LINE
  5
270
100
AcDbEntity
  8
C_COPERCHIO
100
AcDbLine
 62
250
  6
CONTINUOUS
 10
6.9153379589
 20
-20.0846620411
 11
6.8846620411
 21
-20.0846620411
  0
LINE
  5
271
100
AcDbEntity
  8
C_COPERCHIO
100
AcDbLine
 62
250
  6
CONTINUOUS
 10
-6.8846620411
 20
-20.0846620411
 11
-6.9153379589
 21
-20.0846620411
  0
LINE
  5
272
100
AcDbEntity
  8
C_COPERCHIO
100
AcDbLine
 62
7
  6
CONTINUOUS
 10
2.5
 20
-20.0532338935
 11
2.4413111231
 21
-20.0532338935
  0
LINE
  5
273
100
AcDbEntity
  8
C_COPERCHIO
100
AcDbLine
 62
7
  6
CONTINUOUS
 10
-2.4413111231
 20
-20.0532338935
 11
-2.5
 21
-20.0532338935
  0
LINE
  5
274
100
AcDbEntity
  8
C_COPERCHIO
100
AcDbLine
 62
7
  6
CONTINUOUS
 10
-3.5
 20
-20.0
 11
-3.3993510221
 21
-20.0
  0
LINE
  5
275
100
AcDbEntity
  8
C_COPERCHIO
100
AcDbLine
 62
7
  6
CONTINUOUS
 10
3.3993510221
 20
-20.0
 11
3.5
 21
-20.0
  0
LINE
  5
276
100
AcDbEntity
  8
C_COPERCHIO
100
AcDbLine
 62
7
  6
CONTINUOUS
 10
6.4266562329
 20
-19.9266562329
 11
3.3991663033
 21
-19.9266562329
  0
LINE
  5
277
100
AcDbEntity
  8
C_COPERCHIO
100
AcDbLine
 62
7
  6
CONTINUOUS
 10
-3.3991663033
 20
-19.9266562329
 11
-6.4266562329
 21
-19.9266562329
  0
LINE
  5
278
100
AcDbEntity
  8
C_CORPO
100
AcDbLine
 62
7
  6
CONTINUOUS
 10
-5.75
 20
-19.9
 11
-3.4
 21
-19.9
  0
LINE
  5
279
100
AcDbEntity
  8
C_CORPO
100
AcDbLine
 62
7
  6
CONTINUOUS
 10
3.4
 20
-19.9
 11
5.75
 21
-19.9
  0
LINE
  5
27A
100
AcDbEntity
  8
C_CORPO
100
AcDbLine
 62
7
  6
CONTINUOUS
 10
-2.4015242349
 20
-19.8844866796
 11
2.4015242349
 21
-19.8844866796
  0
LINE
  5
27B
100
AcDbEntity
  8
C_CORPO
100
AcDbLine
 62
7
  6
CONTINUOUS
 10
-5.6609791689
 20
-19.8109791689
 11
5.6609791689
 21
-19.8109791689
  0
LINE
  5
27C
100
AcDbEntity
  8
C_COPERCHIO
100
AcDbLine
 62
7
  6
CONTINUOUS
 10
7.2153265358
 20
-19.7846734642
 11
6.5846734642
 21
-19.7846734642
  0
LINE
  5
27D
100
AcDbEntity
  8
C_COPERCHIO
100
AcDbLine
 62
7
  6
CONTINUOUS
 10
-6.5846734642
 20
-19.7846734642
 11
-7.2153265358
 21
-19.7846734642
  0
LINE
  5
27E
100
AcDbEntity
  8
C_CORPO
100
AcDbLine
 62
7
  6
CONTINUOUS
 10
-7.4
 20
-19.7
 11
-5.75
 21
-19.7
  0
LINE
  5
27F
100
AcDbEntity
  8
C_CORPO
100
AcDbLine
 62
7
  6
CONTINUOUS
 10
5.75
 20
-19.7
 11
7.4
 21
-19.7
  0
LINE
  5
280
100
AcDbEntity
  8
C_CORPO
100
AcDbLine
 62
7
  6
CONTINUOUS
 10
-9.37801846
 20
-19.6109791689
 11
9.37801846
 21
-19.6109791689
  0
LINE
  5
281
100
AcDbEntity
  8
C_COPERCHIO
100
AcDbLine
 62
7
  6
CONTINUOUS
 10
-9.65
 20
-20.15
 11
-8.9
 21
-20.9
  0
LINE
  5
282
100
AcDbEntity
  8
C_COPERCHIO
100
AcDbLine
 62
7
  6
CONTINUOUS
 10
-9.5723308767
 20
-20.1178283957
 11
-9.363484001
 21
-20.3266752714
  0
LINE
  5
283
100
AcDbEntity
  8
C_CORPO
100
AcDbLine
 62
7
  6
CONTINUOUS
 10
-10.5643027805
 20
-19.0856972195
 11
-8.8
 21
-20.85
  0
LINE
  5
284
100
AcDbEntity
  8
C_COPERCHIO
100
AcDbLine
 62
7
  6
CONTINUOUS
 10
-7.2427698754
 20
-22.3825449351
 11
-8.2325449351
 21
-21.3927698754
  0
LINE
  5
285
100
AcDbEntity
  8
C_CORPO
100
AcDbLine
 62
7
  6
CONTINUOUS
 10
-8.5531481045
 20
-20.85
 11
-10.0850175454
 21
-19.3181305591
  0
LINE
  5
286
100
AcDbEntity
  8
C_CORPO
100
AcDbLine
 62
7
  6
CONTINUOUS
 10
-10.3827701052
 20
-19.0105039234
 11
-10.1965069853
 21
-19.1967670433
  0
LINE
  5
287
100
AcDbEntity
  8
C_COPERCHIO
100
AcDbLine
 62
7
  6
CONTINUOUS
 10
-7.2153265358
 20
-20.9846734642
 11
-7.3733437671
 21
-20.8266562329
  0
LINE
  5
288
100
AcDbEntity
  8
C_CORPO
100
AcDbLine
 62
7
  6
CONTINUOUS
 10
-10.0829378052
 20
-19.3131096223
 11
-10.1965069853
 21
-19.1967670433
  0
LWPOLYLINE
  5
289
100
AcDbEntity
  8
C_COPERCHIO
100
AcDbPolyline
 62
7
  6
CONTINUOUS
 90
4
 70
0
 10
-3.8116691637
 20
23.2507472186
 10
-3.7143881309
 20
23.3632848192
 10
-3.6851253031
 20
23.3975603285
 10
-3.6319883812
 20
23.4607983071
  0
LWPOLYLINE
  5
28A
100
AcDbEntity
  8
C_COPERCHIO
100
AcDbPolyline
 62
7
  6
CONTINUOUS
 90
3
 70
0
 10
-3.8834632412
 20
23.168936633
 10
-3.8468560235
 20
23.2103579719
 10
-3.8116691637
 20
23.2507472186
  0
LWPOLYLINE
  5
28B
100
AcDbEntity
  8
C_COPERCHIO
100
AcDbPolyline
 62
7
  6
CONTINUOUS
 90
6
 70
0
 10
-7.1745628471
 20
19.8254721381
 10
-7.1877131234
 20
19.8120575279
 10
-7.1988295074
 20
19.8011704926
 10
-7.2074816553
 20
19.7931439081
 10
-7.2131382556
 20
19.7876448986
 10
-7.2153265358
 20
19.7846734642
  0
LINE
  5
28C
100
AcDbEntity
  8
C_COPERCHIO
100
AcDbLine
 62
7
  6
CONTINUOUS
 10
-6.9153379589
 20
20.0846620411
 11
-6.9367668684
 21
20.0630071079
  0
LWPOLYLINE
  5
28D
100
AcDbEntity
  8
C_COPERCHIO
100
AcDbPolyline
 62
7
  6
CONTINUOUS
 90
3
 70
0
 10
-7.1253889798
 20
19.8746409496
 10
-7.1430816389
 20
19.856763849
 10
-7.1745628471
 20
19.8254721381
  0
LINE
  5
28E
100
AcDbEntity
  8
C_CORPO
100
AcDbLine
 62
7
  6
CONTINUOUS
 10
-7.4
 20
19.7
 11
-7.4890208311
 21
19.6109791689
  0
LINE
  5
28F
100
AcDbEntity
  8
C_COPERCHIO
100
AcDbLine
 62
7
  6
CONTINUOUS
 10
-7.2153265358
 20
19.7846734642
 11
-7.3
 21
19.7
  0
LINE
  5
290
100
AcDbEntity
  8
C_COPERCHIO
100
AcDbLine
 62
7
  6
CONTINUOUS
 10
-7.0454423972
 20
19.9545576028
 11
-7.0868483579
 21
19.9130509196
  0
LINE
  5
291
100
AcDbEntity
  8
C_COPERCHIO
100
AcDbLine
 62
7
  6
CONTINUOUS
 10
-7.0868483579
 20
19.9130509196
 11
-7.1253889798
 21
19.8746409496
  0
LINE
  5
292
100
AcDbEntity
  8
C_COPERCHIO
100
AcDbLine
 62
7
  6
CONTINUOUS
 10
-6.9367668684
 20
20.0630071079
 11
-7.0454423972
 21
19.9545576028
  0
LWPOLYLINE
  5
293
100
AcDbEntity
  8
C_COPERCHIO
100
AcDbPolyline
 62
250
  6
CONTINUOUS
 90
14
 70
0
 10
3.9252991036
 20
23.1949198369
 10
4.0062060645
 20
23.2444791825
 10
4.0444409339
 20
23.2683019054
 10
4.0806071324
 20
23.2913714976
 10
4.1142183599
 20
23.3131697211
 10
4.144934812
 20
23.3336025571
 10
4.1725382727
 20
23.3527640243
 10
4.196817731
 20
23.3704179409
 10
4.2175878465
 20
23.3864898959
 10
4.2347698389
 20
23.4010543002
 10
4.2483428083
 20
23.4140982047
 10
4.2582503992
 20
23.4256172931
 10
4.2644447924
 20
23.4356158818
 10
4.2669366287
 20
23.4440939707
  0
LINE
  5
294
100
AcDbEntity
  8
C_CORPO
100
AcDbLine
 62
7
  6
CONTINUOUS
 10
-10.1965069853
 20
-19.1967670433
 11
10.1965069853
 21
-19.1967670433
  0
LWPOLYLINE
  5
295
100
AcDbEntity
  8
C_COPERCHIO
100
AcDbPolyline
 62
250
  6
CONTINUOUS
 90
3
 70
0
 10
4.0057035837
 20
-23.2441575383
 10
3.9250116203
 20
-23.1947395726
 10
3.8834318824
 20
-23.1689711919
  0
LWPOLYLINE
  5
296
100
AcDbEntity
  8
C_COPERCHIO
100
AcDbPolyline
 62
7
  6
CONTINUOUS
 90
7
 70
0
 10
-7.1430816389
 20
-19.856763849
 10
-7.1745628471
 20
-19.8254721381
 10
-7.1877131234
 20
-19.8120575279
 10
-7.1988295074
 20
-19.8011704926
 10
-7.2074816553
 20
-19.7931439081
 10
-7.2131382556
 20
-19.7876448986
 10
-7.2153265358
 20
-19.7846734642
  0
LWPOLYLINE
  5
297
100
AcDbEntity
  8
C_COPERCHIO
100
AcDbPolyline
 62
7
  6
CONTINUOUS
 90
3
 70
0
 10
-7.0868483579
 20
-19.9130509196
 10
-7.1253889798
 20
-19.8746409496
 10
-7.1430816389
 20
-19.856763849
  0
LINE
  5
298
100
AcDbEntity
  8
C_CORPO
100
AcDbLine
 62
7
  6
CONTINUOUS
 10
-7.4
 20
-19.7
 11
-7.4890208311
 21
-19.6109791689
  0
LINE
  5
299
100
AcDbEntity
  8
C_COPERCHIO
100
AcDbLine
 62
7
  6
CONTINUOUS
 10
-7.2153265358
 20
-19.7846734642
 11
-7.3
 21
-19.7
  0
LINE
  5
29A
100
AcDbEntity
  8
C_COPERCHIO
100
AcDbLine
 62
7
  6
CONTINUOUS
 10
-6.9367668684
 20
-20.0630071079
 11
-7.066449948
 21
-19.933583789
  0
LINE
  5
29B
100
AcDbEntity
  8
C_COPERCHIO
100
AcDbLine
 62
7
  6
CONTINUOUS
 10
-7.066449948
 20
-19.933583789
 11
-7.0868483579
 21
-19.9130509196
  0
LINE
  5
29C
100
AcDbEntity
  8
C_COPERCHIO
100
AcDbLine
 62
7
  6
CONTINUOUS
 10
-6.9153379589
 20
-20.0846620411
 11
-6.9367668684
 21
-20.0630071079
  0
LWPOLYLINE
  5
29D
100
AcDbEntity
  8
C_COPERCHIO
100
AcDbPolyline
 62
7
  6
CONTINUOUS
 90
4
 70
0
 10
-3.7117762371
 20
-23.366324032
 10
-3.8101522021
 20
-23.2525045608
 10
-3.8460361143
 20
-23.2113475607
 10
-3.8834971643
 20
-23.1690100818
  0
LWPOLYLINE
  5
29E
100
AcDbEntity
  8
C_COPERCHIO
100
AcDbPolyline
 62
7
  6
CONTINUOUS
 90
11
 70
0
 10
-3.6319883812
 20
23.4607983071
 10
-3.6084062727
 20
23.4895937432
 10
-3.586947112
 20
23.5163876959
 10
-3.5675821744
 20
23.5411162206
 10
-3.5505352496
 20
23.563832981
 10
-3.5357838803
 20
23.5844125717
 10
-3.5233505238
 20
23.6028398223
 10
-3.5135263414
 20
23.6192471812
 10
-3.5064083868
 20
23.6335634203
 10
-3.5018996064
 20
23.645599966
 10
-3.5
 20
23.655248622
  0
LINE
  5
29F
100
AcDbEntity
  8
C_CORPO
100
AcDbLine
 62
7
  6
CONTINUOUS
 10
-3.4
 20
19.9
 11
-3.3991663033
 21
19.9008336967
  0
LINE
  5
2A0
100
AcDbEntity
  8
C_CORPO
100
AcDbLine
 62
7
  6
CONTINUOUS
 10
-8.3024659223
 20
14.7369096983
 11
-8.2498952884
 21
14.7894803322
  0
LINE
  5
2A1
100
AcDbEntity
  8
C_COPERCHIO
100
AcDbLine
 62
250
  6
CONTINUOUS
 10
3.8834968882
 20
23.1690104681
 11
3.9252991036
 21
23.1949198369
  0
LINE
  5
2A2
100
AcDbEntity
  8
C_COPERCHIO
100
AcDbLine
 62
7
  6
CONTINUOUS
 10
8.0665695018
 20
21.3240205999
 11
8.2325449351
 21
21.3927698754
  0
LINE
  5
2A3
100
AcDbEntity
  8
C_CORPO
100
AcDbLine
 62
250
  6
CONTINUOUS
 10
9.9600444136
 20
-16.7413486316
 11
-9.9600444136
 21
-16.7413486316
  0
LINE
  5
2A4
100
AcDbEntity
  8
C_CORPO
100
AcDbLine
 62
250
  6
CONTINUOUS
 10
9.9600444136
 20
-16.241424784
 11
-9.9600444136
 21
-16.241424784
  0
LINE
  5
2A5
100
AcDbEntity
  8
C_CORPO
100
AcDbLine
 62
250
  6
CONTINUOUS
 10
-9.7413991526
 20
-16.022779523
 11
-3.2400728142
 21
-16.022779523
  0
LINE
  5
2A6
100
AcDbEntity
  8
C_CORPO
100
AcDbLine
 62
250
  6
CONTINUOUS
 10
3.2400728142
 20
-16.022779523
 11
9.7413991526
 21
-16.022779523
  0
LWPOLYLINE
  5
2A7
100
AcDbEntity
  8
C_CORPO
100
AcDbPolyline
 62
250
  6
CONTINUOUS
 90
31
 70
0
 10
-9.9600444136
 20
-16.7413486316
 10
-9.9966704663
 20
-16.7409074487
 10
-10.0332898143
 20
-16.7395648522
 10
-10.0699024576
 20
-16.7373208422
 10
-10.1065401534
 20
-16.7341752699
 10
-10.1431711445
 20
-16.7301282841
 10
-10.1797001591
 20
-16.7251803304
 10
-10.2161257755
 20
-16.7193273393
 10
-10.2524494155
 20
-16.7125733805
 10
-10.2885800717
 20
-16.7049311083
 10
-10.3245158067
 20
-16.696396939
 10
-10.360258558
 20
-16.6869744564
 10
-10.3957231312
 20
-16.6766870665
 10
-10.4309006242
 20
-16.6655348674
 10
-10.4657999392
 20
-16.6535177611
 10
-10.5003625883
 20
-16.640658859
 10
-10.5345851165
 20
-16.6269586929
 10
-10.5684709788
 20
-16.6124167311
 10
-10.6019720524
 20
-16.5970544895
 10
-10.6350916565
 20
-16.5808694479
 10
-10.6678264719
 20
-16.5638641265
 10
-10.7001184185
 20
-16.5460676022
 10
-10.7319688191
 20
-16.5274770183
 10
-10.7633763508
 20
-16.5080952314
 10
-10.7942789651
 20
-16.4879598887
 10
-10.8246744961
 20
-16.4670700076
 10
-10.8545651097
 20
-16.4454265706
 10
-10.8838952544
 20
-16.4230701714
 10
-10.9126464133
 20
-16.4000143413
 10
-10.9408371034
 20
-16.3762455491
 10
-10.9684673247
 20
-16.3517637946
  0
LWPOLYLINE
  5
2A8
100
AcDbEntity
  8
C_CORPO
100
AcDbPolyline
 62
250
  6
CONTINUOUS
 90
64
 70
0
 10
-9.9600444136
 20
-16.241424784
 10
-9.9847994587
 20
-16.2411222027
 10
-10.0095775101
 20
-16.2402051644
 10
-10.0343632434
 20
-16.2386713791
 10
-10.0591470264
 20
-16.2365183676
 10
-10.0839074489
 20
-16.2337448883
 10
-10.1086114945
 20
-16.2303523864
 10
-10.133243517
 20
-16.2263414348
 10
-10.1577880193
 20
-16.2217129769
 10
-10.1822125637
 20
-16.216472172
 10
-10.2065008231
 20
-16.2106222827
 10
-10.2306386323
 20
-16.2041664821
 10
-10.2545974169
 20
-16.197112655
 10
-10.2783569028
 20
-16.1894678086
 10
-10.3019081758
 20
-16.1812358593
 10
-10.3252401134
 20
-16.1724213613
 10
-10.3483365321
 20
-16.1630310561
 10
-10.3711851644
 20
-16.1530705656
 10
-10.393780635
 20
-16.1425423854
 10
-10.4161114416
 20
-16.1314515277
 10
-10.4381609292
 20
-16.1198059142
 10
-10.459915919
 20
-16.1076122287
 10
-10.4813641159
 20
-16.0948769954
 10
-10.5024906432
 20
-16.081608677
 10
-10.5232788589
 20
-16.0678175857
 10
-10.5437150333
 20
-16.0535129246
 10
-10.5637873199
 20
-16.0387030847
 10
-10.5834824384
 20
-16.0233979573
 10
-10.602787689
 20
-16.0076075929
 10
-10.6216916799
 20
-15.9913414971
 10
-10.6401834583
 20
-15.9746091973
 10
-10.6582515177
 20
-15.9574211654
 10
-10.675884689
 20
-15.9397880902
 10
-10.6930728134
 20
-15.9217201307
 10
-10.7098052008
 20
-15.9032284586
 10
-10.7260713818
 20
-15.8843245787
 10
-10.7418618346
 20
-15.8650194374
 10
-10.7571670513
 20
-15.8453244296
 10
-10.771976984
 20
-15.8252522518
 10
-10.7862817526
 20
-15.8048161675
 10
-10.8000729693
 20
-15.7840280156
 10
-10.813341425
 20
-15.7629015313
 10
-10.8260768043
 20
-15.7414533587
 10
-10.8382706518
 20
-15.7196983584
 10
-10.8499164328
 20
-15.6976488399
 10
-10.8610074381
 20
-15.6753180316
 10
-10.8715357444
 20
-15.6527225993
 10
-10.8814963466
 20
-15.6298740374
 10
-10.8908867426
 20
-15.6067777449
 10
-10.8997013014
 20
-15.5834460286
 10
-10.9079333015
 20
-15.5598950365
 10
-10.9155782211
 20
-15.5361358012
 10
-10.9226321403
 20
-15.5121772404
 10
-10.9290880512
 20
-15.4880396225
 10
-10.9349380909
 20
-15.4637514133
 10
-10.940179083
 20
-15.4393267409
 10
-10.9448077455
 20
-15.4147819645
 10
-10.9488189089
 20
-15.3901495161
 10
-10.9522116209
 20
-15.3654448747
 10
-10.9549852946
 20
-15.3406837029
 10
-10.95713847
 20
-15.3158990645
 10
-10.9586723803
 20
-15.291112386
 10
-10.9595894991
 20
-15.2663332854
 10
-10.9598921087
 20
-15.2415770888
  0
LINE
  5
2A9
100
AcDbEntity
  8
C_COPERCHIO
100
AcDbLine
 62
7
  6
CONTINUOUS
 10
8.0665695018
 20
-21.3240205999
 11
8.2325449351
 21
-21.3927698754
  0
LINE
  5
2AA
100
AcDbEntity
  8
C_CORPO
100
AcDbLine
 62
7
  6
CONTINUOUS
 10
-3.4
 20
-19.9
 11
-3.3991663033
 21
-19.9008336967
  0
LINE
  5
2AB
100
AcDbEntity
  8
C_CORPO
100
AcDbLine
 62
250
  6
CONTINUOUS
 10
-10.5328974572
 20
10.3512658528
 11
-10.5367135295
 21
10.3439342406
  0
LINE
  5
2AC
100
AcDbEntity
  8
C_CORPO
100
AcDbLine
 62
250
  6
CONTINUOUS
 10
-10.5256582263
 20
10.3649980792
 11
-10.5328974572
 21
10.3512658528
  0
LINE
  5
2AD
100
AcDbEntity
  8
C_CORPO
100
AcDbLine
 62
250
  6
CONTINUOUS
 10
-10.5164784082
 20
10.3821589415
 11
-10.5256582263
 21
10.3649980792
  0
LINE
  5
2AE
100
AcDbEntity
  8
C_CORPO
100
AcDbLine
 62
250
  6
CONTINUOUS
 10
-10.5092275416
 20
10.3955474019
 11
-10.5164784082
 21
10.3821589415
  0
LINE
  5
2AF
100
AcDbEntity
  8
C_CORPO
100
AcDbLine
 62
250
  6
CONTINUOUS
 10
-10.5009478579
 20
10.4106713074
 11
-10.5092275416
 21
10.3955474019
  0
LINE
  5
2B0
100
AcDbEntity
  8
C_CORPO
100
AcDbLine
 62
250
  6
CONTINUOUS
 10
-10.4915382283
 20
10.4276685639
 11
-10.5009478579
 21
10.4106713074
  0
LINE
  5
2B1
100
AcDbEntity
  8
C_CORPO
100
AcDbLine
 62
250
  6
CONTINUOUS
 10
-10.4808188935
 20
10.4468006141
 11
-10.4915382283
 21
10.4276685639
  0
LINE
  5
2B2
100
AcDbEntity
  8
C_CORPO
100
AcDbLine
 62
250
  6
CONTINUOUS
 10
-10.4685840525
 20
10.4683494188
 11
-10.4808188935
 21
10.4468006141
  0
LINE
  5
2B3
100
AcDbEntity
  8
C_CORPO
100
AcDbLine
 62
250
  6
CONTINUOUS
 10
-10.4546802677
 20
10.4924979234
 11
-10.4685840525
 21
10.4683494188
  0
LWPOLYLINE
  5
2B4
100
AcDbEntity
  8
C_CORPO
100
AcDbPolyline
 62
7
  6
CONTINUOUS
 90
44
 70
0
 10
-10.581336614
 20
10.2682644337
 10
-10.5874579917
 20
10.2577421257
 10
-10.5936952563
 20
10.2468479026
 10
-10.5997166691
 20
10.2361537727
 10
-10.6055497913
 20
10.2256215194
 10
-10.6112018042
 20
10.2152442986
 10
-10.6166697519
 20
10.2050323564
 10
-10.6219652813
 20
10.1949726546
 10
-10.6270930418
 20
10.1850617886
 10
-10.6320521479
 20
10.1753060822
 10
-10.6368457363
 20
10.1657069071
 10
-10.6414769345
 20
10.1562631125
 10
-10.64594625
 20
10.1469784788
 10
-10.6502529283
 20
10.1378617152
 10
-10.654399251
 20
10.128913007
 10
-10.6583865713
 20
10.1201345766
 10
-10.6622128798
 20
10.1115381687
 10
-10.6658799324
 20
10.1031248393
 10
-10.6693896245
 20
10.0948957261
 10
-10.6727403057
 20
10.086862676
 10
-10.6759334133
 20
10.0790272455
 10
-10.6789711281
 20
10.0713898387
 10
-10.6818530277
 20
10.0639605339
 10
-10.6845803378
 20
10.0567411388
 10
-10.6871553366
 20
10.0497315483
 10
-10.689579235
 20
10.0429389114
 10
-10.6918530735
 20
10.0363651671
 10
-10.6939791129
 20
10.0300098026
 10
-10.6959603845
 20
10.0238762088
 10
-10.6977978958
 20
10.0179660963
 10
-10.6994936555
 20
10.0122788972
 10
-10.7010521284
 20
10.0068144947
 10
-10.7024741413
 20
10.0015746049
 10
-10.7037615443
 20
9.9965583806
 10
-10.7049202253
 20
9.9917617689
 10
-10.705951126
 20
9.987185891
 10
-10.7068556023
 20
9.9828302398
 10
-10.7076400244
 20
9.978688237
 10
-10.7083051969
 20
9.9747609076
 10
-10.7088522327
 20
9.971047617
 10
-10.7092878172
 20
9.9675392289
 10
-10.7096129288
 20
9.9642360265
 10
-10.7098281359
 20
9.9611379264
 10
-10.709930118
 20
9.9586194531
  0
LINE
  5
2B5
100
AcDbEntity
  8
C_CORPO
100
AcDbLine
 62
250
  6
CONTINUOUS
 10
-10.4388336448
 20
10.5195985722
 11
-10.4546802677
 21
10.4924979234
  0
LINE
  5
2B6
100
AcDbEntity
  8
C_CORPO
100
AcDbLine
 62
250
  6
CONTINUOUS
 10
-10.4210624517
 20
10.5494934779
 11
-10.4388336448
 21
10.5195985722
  0
LINE
  5
2B7
100
AcDbEntity
  8
C_CORPO
100
AcDbLine
 62
250
  6
CONTINUOUS
 10
-10.4013223391
 20
10.5821226673
 11
-10.4210624517
 21
10.5494934779
  0
LWPOLYLINE
  5
2B8
100
AcDbEntity
  8
C_CORPO
100
AcDbPolyline
 62
7
  6
CONTINUOUS
 90
6
 70
0
 10
-10.5448494214
 20
10.3279378762
 10
-10.5526485863
 20
10.3155788821
 10
-10.5601633483
 20
10.3034795562
 10
-10.5673977456
 20
10.2916431521
 10
-10.5743397686
 20
10.2800981007
 10
-10.581336614
 20
10.2682644337
  0
LWPOLYLINE
  5
2B9
100
AcDbEntity
  8
C_CORPO
100
AcDbPolyline
 62
250
  6
CONTINUOUS
 90
16
 70
0
 10
-10.152373615
 20
10.9544819952
 10
-10.1723944715
 20
10.9265998397
 10
-10.1921975185
 20
10.8987428361
 10
-10.2117551083
 20
10.8709548799
 10
-10.2306813088
 20
10.8437486397
 10
-10.2489501298
 20
10.817193533
 10
-10.2666263211
 20
10.7912292037
 10
-10.2834804263
 20
10.7661804684
 10
-10.2994601349
 20
10.7421617499
 10
-10.3146645834
 20
10.7190693321
 10
-10.3290980005
 20
10.6969040763
 10
-10.3427426853
 20
10.675724829
 10
-10.3556545746
 20
10.6554815504
 10
-10.3679454812
 20
10.6360127322
 10
-10.3796372807
 20
10.6173084369
 10
-10.4013223391
 20
10.5821226673
  0
LINE
  5
2BA
100
AcDbEntity
  8
C_CORPO
100
AcDbLine
 62
250
  6
CONTINUOUS
 10
-10.1118621405
 20
11.0100674528
 11
-10.152373615
 21
10.9544819952
  0
LINE
  5
2BB
100
AcDbEntity
  8
C_CORPO
100
AcDbLine
 62
250
  6
CONTINUOUS
 10
-10.0717054092
 20
11.0642322487
 11
-10.1118621405
 21
11.0100674528
  0
LINE
  5
2BC
100
AcDbEntity
  8
C_CORPO
100
AcDbLine
 62
250
  6
CONTINUOUS
 10
-10.0321155057
 20
11.1168510896
 11
-10.0717054092
 21
11.0642322487
  0
LINE
  5
2BD
100
AcDbEntity
  8
C_CORPO
100
AcDbLine
 62
250
  6
CONTINUOUS
 10
-9.9932889237
 20
11.1678078271
 11
-10.0321155057
 21
11.1168510896
  0
LINE
  5
2BE
100
AcDbEntity
  8
C_CORPO
100
AcDbLine
 62
250
  6
CONTINUOUS
 10
-9.9368635219
 20
11.2409781917
 11
-9.9932889237
 21
11.1678078271
  0
LINE
  5
2BF
100
AcDbEntity
  8
C_CORPO
100
AcDbLine
 62
250
  6
CONTINUOUS
 10
-9.8492566337
 20
11.3532386082
 11
-9.9368635219
 21
11.2409781917
  0
LINE
  5
2C0
100
AcDbEntity
  8
C_CORPO
100
AcDbLine
 62
250
  6
CONTINUOUS
 10
-9.7413991526
 20
11.490929717
 11
-9.8492566337
 21
11.3532386082
  0
LINE
  5
2C1
100
AcDbEntity
  8
C_COPERCHIO
100
AcDbLine
 62
7
  6
CONTINUOUS
 10
9.5723308767
 20
20.1178283957
 11
9.65
 21
20.15
  0
LINE
  5
2C2
100
AcDbEntity
  8
C_CORPO
100
AcDbLine
 62
7
  6
CONTINUOUS
 10
2.8022379666
 20
-15.25
 11
-2.8022379666
 21
-15.25
  0
LINE
  5
2C3
100
AcDbEntity
  8
C_CORPO
100
AcDbLine
 62
250
  6
CONTINUOUS
 10
2.8024659223
 20
-15.0229318279
 11
10.7412468478
 21
-15.0229318279
  0
LINE
  5
2C4
100
AcDbEntity
  8
C_CORPO
100
AcDbLine
 62
250
  6
CONTINUOUS
 10
-2.8024659223
 20
-15.0229318279
 11
-10.7412468478
 21
-15.0229318279
  0
LINE
  5
2C5
100
AcDbEntity
  8
C_CORPO
100
AcDbLine
 62
7
  6
CONTINUOUS
 10
-2.8024659223
 20
-14.7369096983
 11
2.8024659223
 21
-14.7369096983
  0
LINE
  5
2C6
100
AcDbEntity
  8
C_COPERCHIO
100
AcDbLine
 62
7
  6
CONTINUOUS
 10
9.65
 20
-20.15
 11
9.5723308767
 21
-20.1178283957
  0
LWPOLYLINE
  5
2C7
100
AcDbEntity
  8
C_COPERCHIO
100
AcDbPolyline
 62
7
  6
CONTINUOUS
 90
11
 70
0
 10
-3.5121230458
 20
-23.6217645853
 10
-3.5215151458
 20
-23.6059319734
 10
-3.533546259
 20
-23.5877482156
 10
-3.5479972099
 20
-23.5672975908
 10
-3.5648946889
 20
-23.5446609458
 10
-3.5842120057
 20
-23.5198741291
 10
-3.6056499129
 20
-23.4929948055
 10
-3.6291962852
 20
-23.4641644364
 10
-3.654863248
 20
-23.4334475557
 10
-3.6823879307
 20
-23.4007813254
 10
-3.7117762371
 20
-23.366324032
  0
LINE
  5
2C8
100
AcDbEntity
  8
C_CORPO
100
AcDbLine
 62
250
  6
CONTINUOUS
 10
-10.5441242158
 20
10.3294120169
 11
-10.5448494214
 21
10.3279378762
  0
LINE
  5
2C9
100
AcDbEntity
  8
C_CORPO
100
AcDbLine
 62
250
  6
CONTINUOUS
 10
-10.54224033
 20
10.3331544346
 11
-10.5441242158
 21
10.3294120169
  0
LINE
  5
2CA
100
AcDbEntity
  8
C_CORPO
100
AcDbLine
 62
250
  6
CONTINUOUS
 10
-10.5398099334
 20
10.3379289047
 11
-10.54224033
 21
10.3331544346
  0
LINE
  5
2CB
100
AcDbEntity
  8
C_CORPO
100
AcDbLine
 62
250
  6
CONTINUOUS
 10
-10.5367135295
 20
10.3439342406
 11
-10.5398099334
 21
10.3379289047
  0
LINE
  5
2CC
100
AcDbEntity
  8
C_COPERCHIO
100
AcDbLine
 62
250
  6
CONTINUOUS
 10
4.0689651576
 20
23.6689346966
 11
4.200030461
 21
23.8
  0
LINE
  5
2CD
100
AcDbEntity
  8
C_COPERCHIO
100
AcDbLine
 62
250
  6
CONTINUOUS
 10
4.2689346966
 20
23.4689651576
 11
4.4
 21
23.600030461
  0
LINE
  5
2CE
100
AcDbEntity
  8
C_COPERCHIO
100
AcDbLine
 62
7
  6
CONTINUOUS
 10
4.4
 20
22.4
 11
4.2669366287
 21
22.2669366287
  0
LINE
  5
2CF
100
AcDbEntity
  8
C_CORPO
100
AcDbLine
 62
250
  6
CONTINUOUS
 10
10.5643027805
 20
19.0856972195
 11
10.3827701052
 21
19.0105039234
  0
LINE
  5
2D0
100
AcDbEntity
  8
C_CORPO
100
AcDbLine
 62
250
  6
CONTINUOUS
 10
10.3827701052
 20
-19.0105039234
 11
10.5643027805
 21
-19.0856972195
  0
LINE
  5
2D1
100
AcDbEntity
  8
C_COPERCHIO
100
AcDbLine
 62
250
  6
CONTINUOUS
 10
4.200030461
 20
-23.8
 11
4.0689651576
 21
-23.6689346966
  0
LINE
  5
2D2
100
AcDbEntity
  8
C_COPERCHIO
100
AcDbLine
 62
250
  6
CONTINUOUS
 10
4.4
 20
-23.600030461
 11
4.2689346966
 21
-23.4689651576
  0
LINE
  5
2D3
100
AcDbEntity
  8
C_COPERCHIO
100
AcDbLine
 62
7
  6
CONTINUOUS
 10
4.4
 20
-22.4
 11
4.2669366287
 21
-22.2669366287
  0
LINE
  5
2D4
100
AcDbEntity
  8
C_CORPO
100
AcDbLine
 62
7
  6
CONTINUOUS
 10
-2.7498952884
 20
-14.7894803322
 11
-2.8024659223
 21
-14.7369096983
  0
LWPOLYLINE
  5
2D5
100
AcDbEntity
  8
C_COPERCHIO
100
AcDbPolyline
 62
250
  6
CONTINUOUS
 90
13
 70
0
 10
-10.6368325431
 20
-24.2368706193
 10
-10.6346849765
 20
-24.2694909086
 10
-10.6282988795
 20
-24.3015532718
 10
-10.6177834776
 20
-24.3325093255
 10
-10.6033186225
 20
-24.3618296081
 10
-10.5851517162
 20
-24.3890126356
 10
-10.563593479
 20
-24.413593479
 10
-10.5390126356
 20
-24.4351517162
 10
-10.5118296081
 20
-24.4533186225
 10
-10.4825093255
 20
-24.4677834776
 10
-10.4515532718
 20
-24.4782988795
 10
-10.4194909086
 20
-24.4846849765
 10
-10.3868706193
 20
-24.4868325431
  0
LWPOLYLINE
  5
2D6
100
AcDbEntity
  8
C_COPERCHIO
100
AcDbPolyline
 62
7
  6
CONTINUOUS
 90
13
 70
0
 10
-10.65
 20
-24.2500380762
 10
-10.6478621698
 20
-24.2826657348
 10
-10.6414844493
 20
-24.3147347076
 10
-10.6309757228
 20
-24.3456966094
 10
-10.6165154214
 20
-24.3750221805
 10
-10.5983506875
 20
-24.4022094378
 10
-10.5767924653
 20
-24.4267924653
 10
-10.5522094378
 20
-24.4483506875
 10
-10.5250221805
 20
-24.4665154214
 10
-10.4956966094
 20
-24.4809757228
 10
-10.4647347076
 20
-24.4914844493
 10
-10.4326657348
 20
-24.4978621698
 10
-10.4000380762
 20
-24.5
  0
LINE
  5
2D7
100
AcDbEntity
  8
C_COPERCHIO
100
AcDbLine
 62
7
  6
CONTINUOUS
 10
-10.6368325431
 20
-23.5581814706
 11
-10.65
 21
-23.1226497308
  0
LINE
  5
2D8
100
AcDbEntity
  8
C_CORPO
100
AcDbLine
 62
250
  6
CONTINUOUS
 10
-10.7326936399
 20
10.1992491742
 11
-10.7298502619
 21
10.0345262279
  0
LWPOLYLINE
  5
2D9
100
AcDbEntity
  8
C_CORPO
100
AcDbPolyline
 62
250
  6
CONTINUOUS
 90
58
 70
0
 10
-10.7412468478
 20
-15.0229318279
 10
-10.7408591524
 20
-15.0504700901
 10
-10.7397130438
 20
-15.0779891192
 10
-10.7378092544
 20
-15.1054680274
 10
-10.7351490308
 20
-15.1328865023
 10
-10.731734286
 20
-15.1602231653
 10
-10.7275677501
 20
-15.1874556064
 10
-10.7226526964
 20
-15.2145625888
 10
-10.7169927768
 20
-15.2415241048
 10
-10.7105922728
 20
-15.2683197469
 10
-10.7034560263
 20
-15.2949292156
 10
-10.6955894591
 20
-15.3213322673
 10
-10.6869985614
 20
-15.3475087902
 10
-10.6776898648
 20
-15.3734388885
 10
-10.6676704285
 20
-15.3991029046
 10
-10.6569478552
 20
-15.4244813658
 10
-10.6455302834
 20
-15.4495550102
 10
-10.6334263814
 20
-15.4743048012
 10
-10.6206453374
 20
-15.4987119515
 10
-10.6071968544
 20
-15.5227579323
 10
-10.5930911406
 20
-15.5464244913
 10
-10.5783389014
 20
-15.5696936671
 10
-10.5629513345
 20
-15.5925477966
 10
-10.546940121
 20
-15.61496953
 10
-10.5303174143
 20
-15.6369418475
 10
-10.5130958325
 20
-15.6584480698
 10
-10.4952884483
 20
-15.6794718709
 10
-10.4769087792
 20
-15.6999972913
 10
-10.4579707768
 20
-15.7200087502
 10
-10.4384888171
 20
-15.7394910562
 10
-10.418477689
 20
-15.7584294195
 10
-10.3979525828
 20
-15.7768094639
 10
-10.3769290792
 20
-15.7946172365
 10
-10.3554231375
 20
-15.8118392187
 10
-10.3334510829
 20
-15.828462337
 10
-10.3110295945
 20
-15.8444739724
 10
-10.2881756929
 20
-15.8598619699
 10
-10.2649067266
 20
-15.874614648
 10
-10.2412403593
 20
-15.8887208078
 10
-10.2171945566
 20
-15.9021697406
 10
-10.1927875719
 20
-15.9149512372
 10
-10.1680379326
 20
-15.9270555949
 10
-10.1429644268
 20
-15.9384736248
 10
-10.117586088
 20
-15.9491966592
 10
-10.091922181
 20
-15.9592165581
 10
-10.0659921879
 20
-15.9685257151
 10
-10.0398157921
 20
-15.9771170636
 10
-10.0134128646
 20
-15.9849840815
 10
-9.9868034485
 20
-15.9921207968
 10
-9.9600077433
 20
-15.9985217919
 10
-9.93304609
 20
-16.0041822076
 10
-9.9059389554
 20
-16.0090977471
 10
-9.878706916
 20
-16.013264679
 10
-9.8513706447
 20
-16.01667984
 10
-9.8239508957
 20
-16.0193406373
 10
-9.7964684844
 20
-16.0212450513
 10
-9.7689442721
 20
-16.0223916366
 10
-9.7413991526
 20
-16.022779523
  0
LINE
  5
2DA
100
AcDbEntity
  8
C_CORPO
100
AcDbLine
 62
250
  6
CONTINUOUS
 10
-10.7358286744
 20
10.4430162518
 11
-10.7326936399
 21
10.1992491742
  0
LINE
  5
2DB
100
AcDbEntity
  8
C_CORPO
100
AcDbLine
 62
7
  6
CONTINUOUS
 10
-10.9598921082
 20
15.2415770883
 11
-10.9634748374
 21
15.543549584
  0
LINE
  5
2DC
100
AcDbEntity
  8
C_CORPO
100
AcDbLine
 62
7
  6
CONTINUOUS
 10
-10.9634748374
 20
15.543549584
 11
-10.9653729751
 21
15.7304717245
  0
LINE
  5
2DD
100
AcDbEntity
  8
C_CORPO
100
AcDbLine
 62
7
  6
CONTINUOUS
 10
-10.9653729751
 20
15.7304717245
 11
-10.9666157508
 21
15.8798462046
  0
LINE
  5
2DE
100
AcDbEntity
  8
C_CORPO
100
AcDbLine
 62
250
  6
CONTINUOUS
 10
-10.7388424893
 20
10.7849719005
 11
-10.7358286744
 21
10.4430162518
  0
LINE
  5
2DF
100
AcDbEntity
  8
C_CORPO
100
AcDbLine
 62
7
  6
CONTINUOUS
 10
-10.9666157508
 20
15.8798462046
 11
-10.96761613
 21
16.0382023667
  0
LINE
  5
2E0
100
AcDbEntity
  8
C_CORPO
100
AcDbLine
 62
7
  6
CONTINUOUS
 10
-10.96761613
 20
16.0382023667
 11
-10.9681930304
 21
16.1772473411
  0
LINE
  5
2E1
100
AcDbEntity
  8
C_CORPO
100
AcDbLine
 62
250
  6
CONTINUOUS
 10
-10.7407989759
 20
11.1865958431
 11
-10.7388424893
 21
10.7849719005
  0
LINE
  5
2E2
100
AcDbEntity
  8
C_CORPO
100
AcDbLine
 62
7
  6
CONTINUOUS
 10
-10.9681930304
 20
16.1772473411
 11
-10.9684577898
 21
16.322162466
  0
LINE
  5
2E3
100
AcDbEntity
  8
C_CORPO
100
AcDbLine
 62
250
  6
CONTINUOUS
 10
-10.7412468478
 20
11.490651889
 11
-10.7407989759
 21
11.1865958431
  0
LINE
  5
2E4
100
AcDbEntity
  8
C_CORPO
100
AcDbLine
 62
7
  6
CONTINUOUS
 10
-11.15
 20
17.6716990487
 11
-11.15
 21
-17.6716990487
  0
LINE
  5
2E5
100
AcDbEntity
  8
C_COPERCHIO
100
AcDbLine
 62
7
  6
CONTINUOUS
 10
-11.15
 20
21.8823164546
 11
-11.15
 21
-21.8823164546
  0
LINE
  5
2E6
100
AcDbEntity
  8
C_CORPO
100
AcDbLine
 62
7
  6
CONTINUOUS
 10
-10.9684577898
 20
16.322162466
 11
-10.9684673247
 21
17.5965057526
  0
LINE
  5
2E7
100
AcDbEntity
  8
C_CORPO
100
AcDbLine
 62
250
  6
CONTINUOUS
 10
-10.7412468478
 20
15.0229318279
 11
-10.7412468478
 21
11.490651889
  0
LINE
  5
2E8
100
AcDbEntity
  8
C_CORPO
100
AcDbLine
 62
250
  6
CONTINUOUS
 10
-10.6943314155
 20
9.8032726188
 11
-10.6943314155
 21
7.3967273812
  0
LINE
  5
2E9
100
AcDbEntity
  8
C_COPERCHIO
100
AcDbLine
 62
7
  6
CONTINUOUS
 10
-10.65
 20
-24.2500380762
 11
-10.65
 21
-22.399708057
  0
LINE
  5
2EA
100
AcDbEntity
  8
C_COPERCHIO
100
AcDbLine
 62
7
  6
CONTINUOUS
 10
-10.65
 20
22.399708057
 11
-10.65
 21
24.2500380762
  0
LINE
  5
2EB
100
AcDbEntity
  8
C_COPERCHIO
100
AcDbLine
 62
250
  6
CONTINUOUS
 10
-10.6368325431
 20
-24.2368706193
 11
-10.6368325431
 21
-23.5581814706
  0
LINE
  5
2EC
100
AcDbEntity
  8
C_COPERCHIO
100
AcDbLine
 62
250
  6
CONTINUOUS
 10
-10.6368325431
 20
23.5581814706
 11
-10.6368325431
 21
24.2368706193
  0
LINE
  5
2ED
100
AcDbEntity
  8
C_CORPO
100
AcDbLine
 62
7
  6
CONTINUOUS
 10
-10.9684673247
 20
-17.5965057526
 11
-10.9683416575
 21
-16.2345855809
  0
LINE
  5
2EE
100
AcDbEntity
  8
C_CORPO
100
AcDbLine
 62
250
  6
CONTINUOUS
 10
-10.7406610363
 20
6.0574504496
 11
-10.7412468478
 21
-15.0229318279
  0
LWPOLYLINE
  5
2EF
100
AcDbEntity
  8
C_CORPO
100
AcDbPolyline
 62
7
  6
CONTINUOUS
 90
4
 70
0
 10
-10.7099393668
 20
9.9582351899
 10
-10.7099489873
 20
9.955524584
 10
-10.709855838
 20
9.9530093852
 10
-10.7096604628
 20
9.9506895805
  0
LINE
  5
2F0
100
AcDbEntity
  8
C_CORPO
100
AcDbLine
 62
7
  6
CONTINUOUS
 10
-10.9683416575
 20
-16.2345855809
 11
-10.9678792341
 21
-16.0930585669
  0
LINE
  5
2F1
100
AcDbEntity
  8
C_CORPO
100
AcDbLine
 62
7
  6
CONTINUOUS
 10
-10.9678792341
 20
-16.0930585669
 11
-10.966980735
 21
-15.9315995474
  0
LINE
  5
2F2
100
AcDbEntity
  8
C_CORPO
100
AcDbLine
 62
250
  6
CONTINUOUS
 10
-10.7385310782
 20
6.4588234238
 11
-10.7406610363
 21
6.0574504496
  0
LINE
  5
2F3
100
AcDbEntity
  8
C_CORPO
100
AcDbLine
 62
7
  6
CONTINUOUS
 10
-10.966980735
 20
-15.9315995474
 11
-10.9658089854
 21
-15.7793133666
  0
LINE
  5
2F4
100
AcDbEntity
  8
C_CORPO
100
AcDbLine
 62
7
  6
CONTINUOUS
 10
-10.9658089854
 20
-15.7793133666
 11
-10.9642104225
 21
-15.6121629265
  0
LINE
  5
2F5
100
AcDbEntity
  8
C_CORPO
100
AcDbLine
 62
250
  6
CONTINUOUS
 10
-10.7353892692
 20
6.7961488528
 11
-10.7385310782
 21
6.4588234238
  0
LINE
  5
2F6
100
AcDbEntity
  8
C_CORPO
100
AcDbLine
 62
7
  6
CONTINUOUS
 10
-10.9642104225
 20
-15.6121629265
 11
-10.962464982
 21
-15.4544850967
  0
LINE
  5
2F7
100
AcDbEntity
  8
C_CORPO
100
AcDbLine
 62
7
  6
CONTINUOUS
 10
-10.962464982
 20
-15.4544850967
 11
-10.9616947556
 21
-15.389281788
  0
LWPOLYLINE
  5
2F8
100
AcDbEntity
  8
C_CORPO
100
AcDbPolyline
 62
250
  6
CONTINUOUS
 90
64
 70
0
 10
-10.9598921087
 20
15.2415770888
 10
-10.9595894991
 20
15.2663332854
 10
-10.9586723803
 20
15.291112386
 10
-10.95713847
 20
15.3158990645
 10
-10.9549852946
 20
15.3406837029
 10
-10.9522116209
 20
15.3654448747
 10
-10.9488189089
 20
15.3901495161
 10
-10.9448077455
 20
15.4147819645
 10
-10.940179083
 20
15.4393267409
 10
-10.9349380909
 20
15.4637514133
 10
-10.9290880512
 20
15.4880396225
 10
-10.9226321403
 20
15.5121772404
 10
-10.9155782211
 20
15.5361358012
 10
-10.9079333015
 20
15.5598950365
 10
-10.8997013014
 20
15.5834460286
 10
-10.8908867426
 20
15.6067777449
 10
-10.8814963466
 20
15.6298740374
 10
-10.8715357444
 20
15.6527225993
 10
-10.8610074381
 20
15.6753180316
 10
-10.8499164328
 20
15.6976488399
 10
-10.8382706518
 20
15.7196983584
 10
-10.8260768043
 20
15.7414533587
 10
-10.813341425
 20
15.7629015313
 10
-10.8000729693
 20
15.7840280156
 10
-10.7862817526
 20
15.8048161675
 10
-10.771976984
 20
15.8252522518
 10
-10.7571670513
 20
15.8453244296
 10
-10.7418618346
 20
15.8650194374
 10
-10.7260713818
 20
15.8843245787
 10
-10.7098052008
 20
15.9032284586
 10
-10.6930728134
 20
15.9217201307
 10
-10.675884689
 20
15.9397880902
 10
-10.6582515177
 20
15.9574211654
 10
-10.6401834583
 20
15.9746091973
 10
-10.6216916799
 20
15.9913414971
 10
-10.602787689
 20
16.0076075929
 10
-10.5834824384
 20
16.0233979573
 10
-10.5637873199
 20
16.0387030847
 10
-10.5437150333
 20
16.0535129246
 10
-10.5232788589
 20
16.0678175857
 10
-10.5024906432
 20
16.081608677
 10
-10.4813641159
 20
16.0948769954
 10
-10.459915919
 20
16.1076122287
 10
-10.4381609292
 20
16.1198059142
 10
-10.4161114416
 20
16.1314515277
 10
-10.393780635
 20
16.1425423854
 10
-10.3711851644
 20
16.1530705656
 10
-10.3483365321
 20
16.1630310561
 10
-10.3252401134
 20
16.1724213613
 10
-10.3019081758
 20
16.1812358593
 10
-10.2783569028
 20
16.1894678086
 10
-10.2545974169
 20
16.197112655
 10
-10.2306386323
 20
16.2041664821
 10
-10.2065008231
 20
16.2106222827
 10
-10.1822125637
 20
16.216472172
 10
-10.1577880193
 20
16.2217129769
 10
-10.133243517
 20
16.2263414348
 10
-10.1086114945
 20
16.2303523864
 10
-10.0839074489
 20
16.2337448883
 10
-10.0591470264
 20
16.2365183676
 10
-10.0343632434
 20
16.2386713791
 10
-10.0095775101
 20
16.2402051644
 10
-9.9847994587
 20
16.2411222027
 10
-9.9600444136
 20
16.241424784
  0
LWPOLYLINE
  5
2F9
100
AcDbEntity
  8
C_CORPO
100
AcDbPolyline
 62
7
  6
CONTINUOUS
 90
4
 70
0
 10
-10.9616947556
 20
-15.389281788
 10
-10.9611787726
 20
-15.346484702
 10
-10.9609204442
 20
-15.3252777838
 10
-10.9606625476
 20
-15.3041849566
  0
LWPOLYLINE
  5
2FA
100
AcDbEntity
  8
C_CORPO
100
AcDbPolyline
 62
7
  6
CONTINUOUS
 90
3
 70
0
 10
-10.9606625476
 20
-15.3041849566
 10
-10.9601484895
 20
-15.2623322867
 10
-10.9598921082
 20
-15.2415770883
  0
LWPOLYLINE
  5
2FB
100
AcDbEntity
  8
C_CORPO
100
AcDbPolyline
 62
250
  6
CONTINUOUS
 90
58
 70
0
 10
-10.7412468478
 20
15.0229318279
 10
-10.7408589613
 20
15.0504769473
 10
-10.7397123761
 20
15.0780011596
 10
-10.7378079621
 20
15.1054835709
 10
-10.7351471648
 20
15.13290332
 10
-10.7317320038
 20
15.1602395912
 10
-10.7275650719
 20
15.1874716306
 10
-10.7226495324
 20
15.2145787652
 10
-10.7169891166
 20
15.2415404186
 10
-10.7105881216
 20
15.2683361237
 10
-10.7034514063
 20
15.2949455398
 10
-10.6955843883
 20
15.3213484674
 10
-10.6869930399
 20
15.3475248631
 10
-10.6776838828
 20
15.3734548563
 10
-10.6676639839
 20
15.3991187632
 10
-10.6569409495
 20
15.424497102
 10
-10.6455229196
 20
15.4495706078
 10
-10.633418562
 20
15.4743202471
 10
-10.6206370654
 20
15.4987272319
 10
-10.6071881325
 20
15.5227730346
 10
-10.5930819728
 20
15.5464394019
 10
-10.5783292947
 20
15.5697083681
 10
-10.5629412972
 20
15.5925622697
 10
-10.5469296617
 20
15.6149837582
 10
-10.5303065434
 20
15.6369558127
 10
-10.5130845612
 20
15.6584617544
 10
-10.4952767886
 20
15.6794852581
 10
-10.4768967443
 20
15.7000103642
 10
-10.4579583809
 20
15.7200214924
 10
-10.4384760749
 20
15.7395034521
 10
-10.4184646161
 20
15.7584414545
 10
-10.3979391956
 20
15.7768211236
 10
-10.3769153945
 20
15.7946285077
 10
-10.3554091723
 20
15.8118500896
 10
-10.3334368548
 20
15.8284727962
 10
-10.3110151214
 20
15.8444840097
 10
-10.2881609919
 20
15.8598715766
 10
-10.2648918161
 20
15.8746238158
 10
-10.241225257
 20
15.8887295296
 10
-10.2171792763
 20
15.9021780127
 10
-10.192772126
 20
15.9149590567
 10
-10.1680223349
 20
15.9270629587
 10
-10.1429486906
 20
15.9384805305
 10
-10.1175702294
 20
15.9492031037
 10
-10.0919062133
 20
15.9592225401
 10
-10.065976115
 20
15.9685312366
 10
-10.039799592
 20
15.9771221344
 10
-10.0133965403
 20
15.9849887015
 10
-9.9867870716
 20
15.992124948
 10
-9.9599914296
 20
15.998525452
 10
-9.9330299135
 20
16.0041853716
 10
-9.9059229312
 20
16.0091004253
 10
-9.87869049
 20
16.0132669612
 10
-9.851353827
 20
16.016681706
 10
-9.8239353522
 20
16.0193419297
 10
-9.796456444
 20
16.0212457191
 10
-9.7689374149
 20
16.0223918276
 10
-9.7413991526
 20
16.022779523
  0
LINE
  5
2FC
100
AcDbEntity
  8
C_CORPO
100
AcDbLine
 62
250
  6
CONTINUOUS
 10
-10.731845685
 20
7.0546196796
 11
-10.7353892692
 21
6.7961488528
  0
LINE
  5
2FD
100
AcDbEntity
  8
C_CORPO
100
AcDbLine
 62
250
  6
CONTINUOUS
 10
-10.7294704616
 20
7.1842211515
 11
-10.731845685
 21
7.0546196796
  0
LINE
  5
2FE
100
AcDbEntity
  8
C_CORPO
100
AcDbLine
 62
250
  6
CONTINUOUS
 10
-10.7276439922
 20
7.2645450652
 11
-10.7294704616
 21
7.1842211515
  0
LINE
  5
2FF
100
AcDbEntity
  8
C_CORPO
100
AcDbLine
 62
7
  6
CONTINUOUS
 10
-10.709930118
 20
9.9586194531
 11
-10.7106909447
 21
9.9306203665
  0
LINE
  5
300
100
AcDbEntity
  8
C_CORPO
100
AcDbLine
 62
250
  6
CONTINUOUS
 10
-10.7110713395
 20
9.8976937847
 11
-10.709660312
 21
9.9506893282
  0
LINE
  5
301
100
AcDbEntity
  8
C_CORPO
100
AcDbLine
 62
250
  6
CONTINUOUS
 10
-10.7263242878
 20
7.3128730377
 11
-10.7276439922
 21
7.2645450652
  0
LINE
  5
302
100
AcDbEntity
  8
C_COPERCHIO
100
AcDbLine
 62
7
  6
CONTINUOUS
 10
-10.65
 20
23.1226497308
 11
-10.6368325431
 21
23.5581814706
  0
LINE
  5
303
100
AcDbEntity
  8
C_CORPO
100
AcDbLine
 62
7
  6
CONTINUOUS
 10
-10.7106909447
 20
9.9306203665
 11
-10.7116951785
 21
9.8979678265
  0
LINE
  5
304
100
AcDbEntity
  8
C_CORPO
100
AcDbLine
 62
250
  6
CONTINUOUS
 10
-10.7123486021
 20
9.8572737824
 11
-10.7110713395
 21
9.8976937847
  0
LINE
  5
305
100
AcDbEntity
  8
C_CORPO
100
AcDbLine
 62
250
  6
CONTINUOUS
 10
-10.7251206694
 20
7.3500240577
 11
-10.7263242878
 21
7.3128730377
  0
LINE
  5
306
100
AcDbEntity
  8
C_CORPO
100
AcDbLine
 62
7
  6
CONTINUOUS
 10
-10.7116951785
 20
9.8979678265
 11
-10.7123280119
 21
9.8800608382
  0
LINE
  5
307
100
AcDbEntity
  8
C_CORPO
100
AcDbLine
 62
250
  6
CONTINUOUS
 10
-10.7132369433
 20
9.8333211374
 11
-10.7123486021
 21
9.8572737824
  0
LINE
  5
308
100
AcDbEntity
  8
C_CORPO
100
AcDbLine
 62
250
  6
CONTINUOUS
 10
-10.7242750426
 20
7.3721971273
 11
-10.7251206694
 21
7.3500240577
  0
LINE
  5
309
100
AcDbEntity
  8
C_CORPO
100
AcDbLine
 62
7
  6
CONTINUOUS
 10
-10.7123280119
 20
9.8800608382
 11
-10.7128657064
 21
9.8666258374
  0
LINE
  5
30A
100
AcDbEntity
  8
C_CORPO
100
AcDbLine
 62
250
  6
CONTINUOUS
 10
-10.7138045195
 20
9.8198076444
 11
-10.7132369433
 21
9.8333211374
  0
LINE
  5
30B
100
AcDbEntity
  8
C_CORPO
100
AcDbLine
 62
250
  6
CONTINUOUS
 10
-10.7237311722
 20
7.3847541807
 11
-10.7242750426
 21
7.3721971273
  0
LINE
  5
30C
100
AcDbEntity
  8
C_CORPO
100
AcDbLine
 62
7
  6
CONTINUOUS
 10
-10.7128657064
 20
9.8666258374
 11
-10.713203562
 21
9.8591517077
  0
LINE
  5
30D
100
AcDbEntity
  8
C_CORPO
100
AcDbLine
 62
250
  6
CONTINUOUS
 10
-10.7143551374
 20
9.8080541574
 11
-10.7138045195
 21
9.8198076444
  0
LINE
  5
30E
100
AcDbEntity
  8
C_CORPO
100
AcDbLine
 62
250
  6
CONTINUOUS
 10
-10.7232022062
 20
7.3956887287
 11
-10.7237311722
 21
7.3847541807
  0
LINE
  5
30F
100
AcDbEntity
  8
C_CORPO
100
AcDbLine
 62
7
  6
CONTINUOUS
 10
-10.713203562
 20
9.8591517077
 11
-10.713385702
 21
9.8555137819
  0
LINE
  5
310
100
AcDbEntity
  8
C_CORPO
100
AcDbLine
 62
250
  6
CONTINUOUS
 10
-10.7148898186
 20
9.7979128046
 11
-10.7143551374
 21
9.8080541574
  0
LINE
  5
311
100
AcDbEntity
  8
C_CORPO
100
AcDbLine
 62
250
  6
CONTINUOUS
 10
-10.7226917268
 20
7.4050642678
 11
-10.7232022062
 21
7.3956887287
  0
LINE
  5
312
100
AcDbEntity
  8
C_CORPO
100
AcDbLine
 62
7
  6
CONTINUOUS
 10
-10.713385702
 20
9.8555137819
 11
-10.7134914834
 21
9.8535791616
  0
LWPOLYLINE
  5
313
100
AcDbEntity
  8
C_COPERCHIO
100
AcDbPolyline
 62
7
  6
CONTINUOUS
 90
13
 70
0
 10
-10.65
 20
24.2500380762
 10
-10.6478621698
 20
24.2826657348
 10
-10.6414844493
 20
24.3147347076
 10
-10.6309757228
 20
24.3456966094
 10
-10.6165154214
 20
24.3750221805
 10
-10.5983506875
 20
24.4022094378
 10
-10.5767924653
 20
24.4267924653
 10
-10.5522094378
 20
24.4483506875
 10
-10.5250221805
 20
24.4665154214
 10
-10.4956966094
 20
24.4809757228
 10
-10.4647347076
 20
24.4914844493
 10
-10.4326657348
 20
24.4978621698
 10
-10.4000380762
 20
24.5
  0
LWPOLYLINE
  5
314
100
AcDbEntity
  8
C_COPERCHIO
100
AcDbPolyline
 62
250
  6
CONTINUOUS
 90
13
 70
0
 10
-10.6368325431
 20
24.2368706193
 10
-10.6346676715
 20
24.2696218093
 10
-10.6282280429
 20
24.301816816
 10
-10.6176213639
 20
24.3328995664
 10
-10.6030260364
 20
24.3623348706
 10
-10.5846917919
 20
24.3896100732
 10
-10.5629385705
 20
24.4142459709
 10
-10.5380872416
 20
24.4358584739
 10
-10.5106111787
 20
24.4540177327
 10
-10.4811867163
 20
24.4683271787
 10
-10.4504240871
 20
24.4785988997
 10
-10.4188050415
 20
24.4847744987
 10
-10.3868706193
 20
24.4868325431
  0
LWPOLYLINE
  5
315
100
AcDbEntity
  8
C_CORPO
100
AcDbPolyline
 62
7
  6
CONTINUOUS
 90
5
 70
0
 10
-10.709660466
 20
7.249310389
 10
-10.7098558415
 20
7.2469905858
 10
-10.7099489903
 20
7.2444753869
 10
-10.7099393686
 20
7.2417647794
 10
-10.7099301111
 20
7.2413801969
  0
LWPOLYLINE
  5
316
100
AcDbEntity
  8
C_CORPO
100
AcDbPolyline
 62
7
  6
CONTINUOUS
 90
13
 70
0
 10
-10.394377107
 20
9.0957650849
 10
-10.402092841
 20
9.0140341309
 10
-10.4084134259
 20
8.9319448922
 10
-10.4133390391
 20
8.8494973685
 10
-10.4168857121
 20
8.7665722364
 10
-10.4190424816
 20
8.6832888195
 10
-10.4197703247
 20
8.6000050885
 10
-10.4190426358
 20
8.5167210018
 10
-10.4168860206
 20
8.4334366011
 10
-10.413339418
 20
8.3505099825
 10
-10.4084137631
 20
8.2680605113
 10
-10.4020930519
 20
8.1859688222
 10
-10.394377107
 20
8.1042349151
  0
LINE
  5
317
100
AcDbEntity
  8
C_CORPO
100
AcDbLine
 62
7
  6
CONTINUOUS
 10
-10.7017984106
 20
7.3233448507
 11
-10.6943314155
 21
7.3967273812
  0
LINE
  5
318
100
AcDbEntity
  8
C_CORPO
100
AcDbLine
 62
7
  6
CONTINUOUS
 10
-10.7096603153
 20
7.2493106413
 11
-10.7017984106
 21
7.3233448507
  0
LINE
  5
319
100
AcDbEntity
  8
C_CORPO
100
AcDbLine
 62
250
  6
CONTINUOUS
 10
-5.7488761714
 20
11.114435763
 11
-5.948220577
 21
10.8917742209
  0
LINE
  5
31A
100
AcDbEntity
  8
C_CORPO
100
AcDbLine
 62
250
  6
CONTINUOUS
 10
-6.164058233
 20
10.5111440349
 11
-5.9570163184
 21
10.7266666215
  0
LWPOLYLINE
  5
31B
100
AcDbEntity
  8
C_CORPO
100
AcDbPolyline
 62
250
  6
CONTINUOUS
 90
58
 70
0
 10
-5.2511382765
 20
10.7424786031
 10
-5.2607194565
 20
10.7325936573
 10
-5.2705819198
 20
10.7229602432
 10
-5.2807192746
 20
10.7135879052
 10
-5.2911284246
 20
10.7044824284
 10
-5.3018002338
 20
10.6956548935
 10
-5.3127185856
 20
10.6871209286
 10
-5.3238756564
 20
10.6788879278
 10
-5.3352635905
 20
10.6709631767
 10
-5.3468643406
 20
10.6633602751
 10
-5.3586685003
 20
10.6560853708
 10
-5.3706675314
 20
10.6491438547
 10
-5.3828433651
 20
10.6425460589
 10
-5.3951837883
 20
10.6362975093
 10
-5.4076813005
 20
10.6304010198
 10
-5.4203241541
 20
10.6248614318
 10
-5.4330992141
 20
10.6196832339
 10
-5.4459992287
 20
10.614868136
 10
-5.4590212805
 20
10.6104167493
 10
-5.4721556981
 20
10.6063319818
 10
-5.4853918338
 20
10.60261671
 10
-5.4987255457
 20
10.5992721799
 10
-5.5121484338
 20
10.596300699
 10
-5.5256483955
 20
10.5937050418
 10
-5.5392157871
 20
10.5914873775
 10
-5.5528407433
 20
10.5896495107
 10
-5.566512229
 20
10.5881929577
 10
-5.5802187932
 20
10.5871191701
 10
-5.5939497714
 20
10.5864290558
 10
-5.6076946867
 20
10.5861229944
 10
-5.6214423443
 20
10.5862013264
 10
-5.6351822061
 20
10.5866640075
 10
-5.6489036443
 20
10.5875104276
 10
-5.6625953382
 20
10.5887398458
 10
-5.6762460363
 20
10.5903511553
 10
-5.6898460078
 20
10.5923428033
 10
-5.7033862159
 20
10.5947133738
 10
-5.716854394
 20
10.5974606737
 10
-5.7302421451
 20
10.6005826069
 10
-5.7435460897
 20
10.6040785812
 10
-5.7567559409
 20
10.6079465251
 10
-5.7698614203
 20
10.6121837119
 10
-5.7828588051
 20
10.6167896803
 10
-5.7957412818
 20
10.621763415
 10
-5.8084950163
 20
10.6271006248
 10
-5.8211056371
 20
10.6327960878
 10
-5.8335651099
 20
10.6388470911
 10
-5.845861619
 20
10.6452484807
 10
-5.8579756564
 20
10.6519901184
 10
-5.8698981066
 20
10.6590666733
 10
-5.8816199372
 20
10.6664721713
 10
-5.8931227569
 20
10.6741937789
 10
-5.9043984139
 20
10.682224515
 10
-5.915439269
 20
10.6905571876
 10
-5.9262289969
 20
10.6991770386
 10
-5.9367580634
 20
10.7080734442
 10
-5.9470227963
 20
10.7172398811
 10
-5.957016258
 20
10.7266666844
  0
LWPOLYLINE
  5
31C
100
AcDbEntity
  8
C_CORPO
100
AcDbPolyline
 62
250
  6
CONTINUOUS
 90
58
 70
0
 10
-5.0346532229
 20
10.5364430177
 10
-5.0499910284
 20
10.5207546885
 10
-5.0657616616
 20
10.5054901695
 10
-5.0819651224
 20
10.4906494608
 10
-5.0986185319
 20
10.4762149036
 10
-5.115704769
 20
10.4622041567
 10
-5.1331724706
 20
10.4486701958
 10
-5.1510230348
 20
10.4356166048
 10
-5.1692550635
 20
10.4230397999
 10
-5.1878129986
 20
10.4109820048
 10
-5.2066979771
 20
10.399446525
 10
-5.225908862
 20
10.3884300552
 10
-5.2453866845
 20
10.3779649026
 10
-5.2651287058
 20
10.3680553492
 10
-5.2851376646
 20
10.3586971131
 10
-5.3053628082
 20
10.349909656
 10
-5.3257996214
 20
10.341695926
 10
-5.3464526195
 20
10.334052975
 10
-5.3672845955
 20
10.3269914195
 10
-5.3882962526
 20
10.3205112916
 10
-5.4094868877
 20
10.3146125594
 10
-5.4308171851
 20
10.3093057433
 10
-5.4522902293
 20
10.3045910075
 10
-5.4739029359
 20
10.3004681878
 10
-5.4956067353
 20
10.2969473126
 10
-5.5174027559
 20
10.2940297346
 10
-5.5392898695
 20
10.2917141011
 10
-5.5612161215
 20
10.2900063814
 10
-5.5831814465
 20
10.2889082061
 10
-5.60518591
 20
10.2884179448
 10
-5.6271777541
 20
10.2885366758
 10
-5.6491570065
 20
10.2892660055
 10
-5.6711236397
 20
10.2906043276
 10
-5.6930258129
 20
10.292547902
 10
-5.7148621828
 20
10.2950980194
 10
-5.7366340927
 20
10.2982533892
 10
-5.7582937322
 20
10.3020063991
 10
-5.779837982
 20
10.306357196
 10
-5.8012699614
 20
10.311305633
 10
-5.8225512171
 20
10.3168436573
 10
-5.8436819185
 20
10.3229715604
 10
-5.8646618964
 20
10.3296890509
 10
-5.8854521891
 20
10.3369872018
 10
-5.9060582384
 20
10.3448693623
 10
-5.9264746026
 20
10.3533321831
 10
-5.9466459948
 20
10.3623566898
 10
-5.9665745014
 20
10.3719470149
 10
-5.9862580361
 20
10.3820990259
 10
-6.005635053
 20
10.3927813506
 10
-6.0247038533
 20
10.4039970242
 10
-6.0434661358
 20
10.4157430116
 10
-6.0618654518
 20
10.4279788353
 10
-6.0799003156
 20
10.440707868
 10
-6.0975722129
 20
10.453926737
 10
-6.1148291524
 20
10.4675848477
 10
-6.1316538037
 20
10.4816653351
 10
-6.1480634973
 20
10.4961850642
 10
-6.164058233
 20
10.5111440349
  0
LWPOLYLINE
  5
31D
100
AcDbEntity
  8
C_COPERCHIO
100
AcDbPolyline
 62
7
  6
CONTINUOUS
 90
3
 70
0
 10
8.3206384298
 20
23.6517269794
 10
8.3079752
 20
23.6390385408
 10
8.2966230298
 20
23.6278312164
  0
LINE
  5
31E
100
AcDbEntity
  8
C_COPERCHIO
100
AcDbLine
 62
7
  6
CONTINUOUS
 10
8.423438307
 20
23.7545867768
 11
8.3666063509
 21
23.6977778826
  0
LWPOLYLINE
  5
31F
100
AcDbEntity
  8
C_COPERCHIO
100
AcDbPolyline
 62
7
  6
CONTINUOUS
 90
3
 70
0
 10
8.3666063509
 20
23.6977778826
 10
8.3499540052
 20
23.6811920965
 10
8.3206384298
 20
23.6517269794
  0
LWPOLYLINE
  5
320
100
AcDbEntity
  8
C_COPERCHIO
100
AcDbPolyline
 62
7
  6
CONTINUOUS
 90
3
 70
0
 10
8.5131293807
 20
23.8443375673
 10
8.4892941033
 20
23.8207630626
 10
8.423438307
 20
23.7545867768
  0
LWPOLYLINE
  5
321
100
AcDbEntity
  8
C_CORPO
100
AcDbPolyline
 62
250
  6
CONTINUOUS
 90
49
 70
0
 10
-5.4763537837
 20
11.1207475964
 10
-5.4809029305
 20
11.1164171691
 10
-5.4855745673
 20
11.1122398283
 10
-5.490368694
 20
11.1082155741
 10
-5.4952902589
 20
11.1043407794
 10
-5.5003343136
 20
11.1006190712
 10
-5.5054860138
 20
11.0970613306
 10
-5.5107456473
 20
11.0936680612
 10
-5.5161129261
 20
11.0904387593
 10
-5.5215721417
 20
11.0873827954
 10
-5.5271235377
 20
11.0845006818
 10
-5.5327668705
 20
11.0817919062
 10
-5.5384857009
 20
11.0792643015
 10
-5.5442802746
 20
11.0769183818
 10
-5.5501503459
 20
11.0747536331
 10
-5.5560787395
 20
11.0727763462
 10
-5.5620656075
 20
11.0709870726
 10
-5.5681107977
 20
11.0693852609
 10
-5.5741966777
 20
11.0679755473
 10
-5.5803233704
 20
11.0667584882
 10
-5.5864907529
 20
11.0657335273
 10
-5.5926808245
 20
11.0649036308
 10
-5.5988936282
 20
11.0642693649
 10
-5.605129121
 20
11.0638301635
 10
-5.6113691733
 20
11.0635872956
 10
-5.6176138191
 20
11.0635413272
 10
-5.6238630244
 20
11.0636916923
 10
-5.6300985577
 20
11.064037961
 10
-5.6363203718
 20
11.0645807008
 10
-5.6425285139
 20
11.0653193442
 10
-5.6487048945
 20
11.06625176
 10
-5.6548494398
 20
11.0673785143
 10
-5.6609622236
 20
11.068699041
 10
-5.6670253776
 20
11.0702095095
 10
-5.6730387304
 20
11.0719104626
 10
-5.6790024535
 20
11.0738013576
 10
-5.6848991928
 20
11.0758767357
 10
-5.6907287764
 20
11.0781371358
 10
-5.6964913762
 20
11.080582019
 10
-5.7021701537
 20
11.083204309
 10
-5.7077648952
 20
11.0860045454
 10
-5.7132758144
 20
11.0889821885
 10
-5.7186867145
 20
11.0921285431
 10
-5.7239974984
 20
11.0954442831
 10
-5.7292082632
 20
11.0989287345
 10
-5.7343031035
 20
11.10257118
 10
-5.7392767174
 20
11.106368047
 10
-5.7441344067
 20
11.110322908
 10
-5.7488761714
 20
11.114435763
  0
LWPOLYLINE
  5
322
100
AcDbEntity
  8
C_CORPO
100
AcDbPolyline
 62
250
  6
CONTINUOUS
 90
49
 70
0
 10
-5.2669146264
 20
10.9075538043
 10
-5.2782699678
 20
10.8968340053
 10
-5.2899542629
 20
10.8864743231
 10
-5.3019565293
 20
10.8764845454
 10
-5.3142654683
 20
10.8668743252
 10
-5.3268687425
 20
10.8576529256
 10
-5.3397537967
 20
10.8488294704
 10
-5.3529080139
 20
10.8404128595
 10
-5.3663184409
 20
10.8324110435
 10
-5.3799720761
 20
10.8248316414
 10
-5.3938556408
 20
10.8176822522
 10
-5.4079554491
 20
10.8109696139
 10
-5.4222579825
 20
10.8047000581
 10
-5.4367494142
 20
10.798879923
 10
-5.4514153729
 20
10.7935147034
 10
-5.4662416186
 20
10.7886095076
 10
-5.4812136742
 20
10.7841693894
 10
-5.4963168294
 20
10.7801984328
 10
-5.5115365753
 20
10.7767003601
 10
-5.5268580837
 20
10.7736788574
 10
-5.5422662658
 20
10.7711366421
 10
-5.5577462818
 20
10.7690760806
 10
-5.5732829436
 20
10.7674994689
 10
-5.5888610511
 20
10.7664080997
 10
-5.6044657784
 20
10.7658029454
 10
-5.6200818909
 20
10.7656848902
 10
-5.6356940308
 20
10.7660538337
 10
-5.6512871903
 20
10.7669093713
 10
-5.6668460413
 20
10.7682509492
 10
-5.6823553784
 20
10.770077051
 10
-5.6978003545
 20
10.7723858896
 10
-5.7131658221
 20
10.7751754933
 10
-5.7284367213
 20
10.7784429496
 10
-5.7435982994
 20
10.7821850732
 10
-5.7586355498
 20
10.7863984379
 10
-5.7735338641
 20
10.7910787747
 10
-5.7882790451
 20
10.7962215998
 10
-5.8028565842
 20
10.8018221449
 10
-5.8172522281
 20
10.8078748143
 10
-5.8314521365
 20
10.8143738003
 10
-5.8454423789
 20
10.8213130358
 10
-5.8592091751
 20
10.8286855602
 10
-5.8727389104
 20
10.8364840271
 10
-5.8860179466
 20
10.8447007987
 10
-5.8990337264
 20
10.8533280506
 10
-5.9117743857
 20
10.8623580244
 10
-5.9242277356
 20
10.871782561
 10
-5.9363808571
 20
10.8815916699
 10
-5.9482205278
 20
10.8917742758
  0
LINE
  5
323
100
AcDbEntity
  8
C_CORPO
100
AcDbLine
 62
250
  6
CONTINUOUS
 10
11.15
 20
17.6716990487
 11
10.9684673247
 21
17.5965057526
  0
LINE
  5
324
100
AcDbEntity
  8
C_CORPO
100
AcDbLine
 62
250
  6
CONTINUOUS
 10
10.9684673247
 20
-17.5965057526
 11
11.15
 21
-17.6716990487
  0
LINE
  5
325
100
AcDbEntity
  8
C_COPERCHIO
100
AcDbLine
 62
7
  6
CONTINUOUS
 10
8.2966230298
 20
-23.6278312164
 11
8.3079752151
 21
-23.6390385494
  0
LINE
  5
326
100
AcDbEntity
  8
C_COPERCHIO
100
AcDbLine
 62
7
  6
CONTINUOUS
 10
8.4892937275
 20
-23.8207626766
 11
8.5131293807
 21
-23.8443375673
  0
LWPOLYLINE
  5
327
100
AcDbEntity
  8
C_COPERCHIO
100
AcDbPolyline
 62
7
  6
CONTINUOUS
 90
3
 70
0
 10
8.3079752151
 20
-23.6390385494
 10
8.3346127014
 20
-23.665820888
 10
8.3666062245
 20
-23.6977777564
  0
LINE
  5
328
100
AcDbEntity
  8
C_COPERCHIO
100
AcDbLine
 62
7
  6
CONTINUOUS
 10
8.3666062245
 20
-23.6977777564
 11
8.4892937275
 21
-23.8207626766
  0
LINE
  5
329
100
AcDbEntity
  8
C_CORPO
100
AcDbLine
 62
7
  6
CONTINUOUS
 10
-10.6992640008
 20
9.8521071597
 11
-10.709660312
 21
9.9506893282
  0
LINE
  5
32A
100
AcDbEntity
  8
C_CORPO
100
AcDbLine
 62
7
  6
CONTINUOUS
 10
-10.6943314155
 20
9.8032726188
 11
-10.6992640008
 21
9.8521071597
  0
LWPOLYLINE
  5
32B
100
AcDbEntity
  8
C_CORPO
100
AcDbPolyline
 62
250
  6
CONTINUOUS
 90
37
 70
0
 10
-10.72220175
 20
9.7870557475
 10
-10.7219659655
 20
9.7836416823
 10
-10.7217361876
 20
9.7805747475
 10
-10.7215129823
 20
9.777804307
 10
-10.7212966313
 20
9.7753327256
 10
-10.7210868527
 20
9.7731576385
 10
-10.7208833675
 20
9.7712213141
 10
-10.7206864207
 20
9.7695221765
 10
-10.7204957672
 20
9.7680618016
 10
-10.7203103918
 20
9.7667871861
 10
-10.7201305605
 20
9.7656943421
 10
-10.7199560072
 20
9.7647872574
 10
-10.7197849185
 20
9.7640248925
 10
-10.7196174282
 20
9.7634011157
 10
-10.7194534026
 20
9.7629220586
 10
-10.7192906273
 20
9.7625650759
 10
-10.7191291425
 20
9.7623234379
 10
-10.718968908
 20
9.7622038743
 10
-10.7188075884
 20
9.7622039288
 10
-10.7186451825
 20
9.7623166674
 10
-10.7184816914
 20
9.762549024
 10
-10.7183147834
 20
9.7629193441
 10
-10.7181443513
 20
9.7634208364
 10
-10.7179705021
 20
9.7640602922
 10
-10.7177912255
 20
9.7648764305
 10
-10.7176061966
 20
9.7658648791
 10
-10.7174157402
 20
9.7670300103
 10
-10.7172188202
 20
9.7684236605
 10
-10.7170151809
 20
9.7700440103
 10
-10.716805078
 20
9.7718928792
 10
-10.7165882425
 20
9.7740275616
 10
-10.7163644187
 20
9.7764496759
 10
-10.7161338623
 20
9.7791576038
 10
-10.715897072
 20
9.782203785
 10
-10.7156538909
 20
9.7855921775
 10
-10.715404476
 20
9.7893188234
 10
-10.7148898186
 20
9.7979128046
  0
LWPOLYLINE
  5
32C
100
AcDbEntity
  8
C_CORPO
100
AcDbPolyline
 62
250
  6
CONTINUOUS
 90
37
 70
0
 10
-10.7154052967
 20
7.4106939476
 10
-10.7156546605
 20
7.4144189489
 10
-10.7158977915
 20
7.4178058298
 10
-10.7161345339
 20
7.4208506678
 10
-10.7163650433
 20
7.4235573853
 10
-10.7165888244
 20
7.4259784271
 10
-10.7168056228
 20
7.4281121938
 10
-10.7170156928
 20
7.4299602848
 10
-10.7172193021
 20
7.4315799437
 10
-10.717416195
 20
7.432972984
 10
-10.7176066271
 20
7.4341375921
 10
-10.7177916328
 20
7.4351255707
 10
-10.7179708866
 20
7.4359412861
 10
-10.718144714
 20
7.4365803721
 10
-10.7183151259
 20
7.4370815331
 10
-10.7184820153
 20
7.4374515603
 10
-10.7186454892
 20
7.4376836625
 10
-10.7188078793
 20
7.4377961706
 10
-10.7189691846
 20
7.4377960175
 10
-10.7191294061
 20
7.4376762703
 10
-10.7192908791
 20
7.4374344614
 10
-10.719453644
 20
7.4370773191
 10
-10.7196176604
 20
7.4365981152
 10
-10.7197851423
 20
7.4359741968
 10
-10.7199562235
 20
7.4352116934
 10
-10.7201307703
 20
7.4343044756
 10
-10.7203105953
 20
7.4332115028
 10
-10.7204959653
 20
7.4319367525
 10
-10.7206866135
 20
7.4304762472
 10
-10.7208835525
 20
7.4287770147
 10
-10.7210870272
 20
7.4268406251
 10
-10.7212967926
 20
7.4246655082
 10
-10.7215131265
 20
7.4221939806
 10
-10.7217363091
 20
7.4194236982
 10
-10.7219660601
 20
7.4163570051
 10
-10.7222018168
 20
7.4129432506
 10
-10.7226917268
 20
7.4050642678
  0
LINE
  5
32D
100
AcDbEntity
  8
C_CORPO
100
AcDbLine
 62
7
  6
CONTINUOUS
 10
-10.7134588105
 20
7.3459443363
 11
-10.7135032244
 21
7.3466247485
  0
LINE
  5
32E
100
AcDbEntity
  8
C_CORPO
100
AcDbLine
 62
250
  6
CONTINUOUS
 10
-10.7226917198
 20
9.7949356293
 11
-10.72220175
 21
9.7870557475
  0
LINE
  5
32F
100
AcDbEntity
  8
C_CORPO
100
AcDbLine
 62
250
  6
CONTINUOUS
 10
-10.7148907247
 20
7.4021033338
 11
-10.7154052967
 21
7.4106939476
  0
LINE
  5
330
100
AcDbEntity
  8
C_CORPO
100
AcDbLine
 62
7
  6
CONTINUOUS
 10
-10.7135080793
 20
7.3467027769
 11
-10.7134549253
 21
7.3457727818
  0
LINE
  5
331
100
AcDbEntity
  8
C_CORPO
100
AcDbLine
 62
250
  6
CONTINUOUS
 10
-10.7232022435
 20
9.8043120026
 11
-10.7226917198
 21
9.7949356293
  0
LINE
  5
332
100
AcDbEntity
  8
C_CORPO
100
AcDbLine
 62
7
  6
CONTINUOUS
 10
-10.7134549253
 20
7.3457727818
 11
-10.7133194465
 21
7.3432005919
  0
LINE
  5
333
100
AcDbEntity
  8
C_CORPO
100
AcDbLine
 62
250
  6
CONTINUOUS
 10
-10.7143561018
 20
7.3919652765
 11
-10.7148907247
 21
7.4021033338
  0
LINE
  5
334
100
AcDbEntity
  8
C_CORPO
100
AcDbLine
 62
250
  6
CONTINUOUS
 10
-10.723731227
 20
9.8152470181
 11
-10.7232022435
 21
9.8043120026
  0
LINE
  5
335
100
AcDbEntity
  8
C_CORPO
100
AcDbLine
 62
7
  6
CONTINUOUS
 10
-10.7133194465
 20
7.3432005919
 11
-10.7130426569
 21
7.3373933571
  0
LINE
  5
336
100
AcDbEntity
  8
C_CORPO
100
AcDbLine
 62
250
  6
CONTINUOUS
 10
-10.7138054988
 20
7.3802144624
 11
-10.7143561018
 21
7.3919652765
  0
LINE
  5
337
100
AcDbEntity
  8
C_CORPO
100
AcDbLine
 62
250
  6
CONTINUOUS
 10
-10.7242750713
 20
9.8278035909
 11
-10.723731227
 21
9.8152470181
  0
LWPOLYLINE
  5
338
100
AcDbEntity
  8
C_CORPO
100
AcDbPolyline
 62
7
  6
CONTINUOUS
 90
44
 70
0
 10
-10.7099301111
 20
7.2413801969
 10
-10.7098281353
 20
7.2388620389
 10
-10.7096129249
 20
7.2357639333
 10
-10.7092878109
 20
7.2324607272
 10
-10.708852226
 20
7.2289523391
 10
-10.7083051906
 20
7.2252390503
 10
-10.707640018
 20
7.2213117216
 10
-10.7068555942
 20
7.2171697165
 10
-10.7059511157
 20
7.212814062
 10
-10.7049202132
 20
7.2082381817
 10
-10.7037615316
 20
7.2034415699
 10
-10.7024741285
 20
7.1984253465
 10
-10.7010521153
 20
7.193185457
 10
-10.6994936413
 20
7.1877210534
 10
-10.6977978802
 20
7.1820338528
 10
-10.6959603678
 20
7.1761237394
 10
-10.6939790959
 20
7.1699901459
 10
-10.6918530564
 20
7.1636347825
 10
-10.6895792178
 20
7.1570610391
 10
-10.6871553187
 20
7.150268402
 10
-10.6845803191
 20
7.143258811
 10
-10.6818530083
 20
7.1360394159
 10
-10.6789711086
 20
7.1286101121
 10
-10.6759333941
 20
7.1209727066
 10
-10.6727402865
 20
7.1131372774
 10
-10.6693896053
 20
7.1051042281
 10
-10.6658799129
 20
7.0968751156
 10
-10.6622128603
 20
7.0884617872
 10
-10.658386552
 20
7.0798653806
 10
-10.6543992321
 20
7.0710869518
 10
-10.6502529098
 20
7.0621382453
 10
-10.6459462319
 20
7.0530214834
 10
-10.641476917
 20
7.0437368515
 10
-10.6368457194
 20
7.0342930588
 10
-10.6320521316
 20
7.0246938856
 10
-10.6270930263
 20
7.0149381811
 10
-10.6219652665
 20
7.0050273172
 10
-10.616669738
 20
6.9949676174
 10
-10.6112017912
 20
6.9847556774
 10
-10.6055497794
 20
6.9743784588
 10
-10.5997166583
 20
6.963846208
 10
-10.5936952468
 20
6.9531520806
 10
-10.5874579835
 20
6.9422578601
 10
-10.5813366527
 20
6.9317356324
  0
LINE
  5
339
100
AcDbEntity
  8
C_CORPO
100
AcDbLine
 62
7
  6
CONTINUOUS
 10
-10.7130426569
 20
7.3373933571
 11
-10.7125744019
 21
7.3263154024
  0
LINE
  5
33A
100
AcDbEntity
  8
C_CORPO
100
AcDbLine
 62
250
  6
CONTINUOUS
 10
-10.7129476921
 20
7.3592695983
 11
-10.7138054988
 21
7.3802144624
  0
LINE
  5
33B
100
AcDbEntity
  8
C_CORPO
100
AcDbLine
 62
250
  6
CONTINUOUS
 10
-10.7251205732
 20
9.8499732608
 11
-10.7242750713
 21
9.8278035909
  0
LINE
  5
33C
100
AcDbEntity
  8
C_CORPO
100
AcDbLine
 62
7
  6
CONTINUOUS
 10
-10.7125744019
 20
7.3263154024
 11
-10.7120051534
 21
7.3110749791
  0
LINE
  5
33D
100
AcDbEntity
  8
C_CORPO
100
AcDbLine
 62
250
  6
CONTINUOUS
 10
-10.7120413556
 20
7.3336632836
 11
-10.7129476921
 21
7.3592695983
  0
LINE
  5
33E
100
AcDbEntity
  8
C_CORPO
100
AcDbLine
 62
7
  6
CONTINUOUS
 10
-10.7120051534
 20
7.3110749791
 11
-10.7110827433
 21
7.2827258093
  0
LINE
  5
33F
100
AcDbEntity
  8
C_CORPO
100
AcDbLine
 62
250
  6
CONTINUOUS
 10
-10.7263238544
 20
9.8871124091
 11
-10.7251205732
 21
9.8499732608
  0
LINE
  5
340
100
AcDbEntity
  8
C_CORPO
100
AcDbLine
 62
250
  6
CONTINUOUS
 10
-10.7107323764
 20
7.2903615535
 11
-10.7120413556
 21
7.3336632836
  0
LINE
  5
341
100
AcDbEntity
  8
C_CORPO
100
AcDbLine
 62
7
  6
CONTINUOUS
 10
-10.7110827433
 20
7.2827258093
 11
-10.7099303595
 21
7.2413806728
  0
LINE
  5
342
100
AcDbEntity
  8
C_CORPO
100
AcDbLine
 62
250
  6
CONTINUOUS
 10
-10.7276430352
 20
9.9354169396
 11
-10.7263238544
 21
9.8871124091
  0
LINE
  5
343
100
AcDbEntity
  8
C_CORPO
100
AcDbLine
 62
250
  6
CONTINUOUS
 10
-10.7096603153
 20
7.2493106413
 11
-10.7107323764
 21
7.2903615535
  0
LWPOLYLINE
  5
344
100
AcDbEntity
  8
C_CORPO
100
AcDbPolyline
 62
250
  6
CONTINUOUS
 90
3
 70
0
 10
-10.7298502619
 20
10.0345262279
 10
-10.7294688204
 20
10.015699413
 10
-10.7276430352
 20
9.9354169396
  0
LINE
  5
345
100
AcDbEntity
  8
C_CORPO
100
AcDbLine
 62
250
  6
CONTINUOUS
 10
-10.394377107
 20
9.7358309226
 11
-10.394377107
 21
9.0957607476
  0
LINE
  5
346
100
AcDbEntity
  8
C_CORPO
100
AcDbLine
 62
250
  6
CONTINUOUS
 10
-10.394377107
 20
8.1042392505
 11
-10.394377107
 21
7.4641690774
  0
LINE
  5
347
100
AcDbEntity
  8
C_COPERCHIO
100
AcDbLine
 62
250
  6
CONTINUOUS
 10
-10.3868706193
 20
-23.8443375673
 11
-10.3868706193
 21
-24.4868325431
  0
LINE
  5
348
100
AcDbEntity
  8
C_COPERCHIO
100
AcDbLine
 62
250
  6
CONTINUOUS
 10
-10.3868706193
 20
23.8443375673
 11
-10.3868706193
 21
24.4868325431
  0
LINE
  5
349
100
AcDbEntity
  8
C_CORPO
100
AcDbLine
 62
250
  6
CONTINUOUS
 10
-9.9600444136
 20
-16.241424784
 11
-9.9600444136
 21
-16.7413486316
  0
LINE
  5
34A
100
AcDbEntity
  8
C_CORPO
100
AcDbLine
 62
250
  6
CONTINUOUS
 10
-9.9600444136
 20
16.241424784
 11
-9.9600444136
 21
16.7413486316
  0
LINE
  5
34B
100
AcDbEntity
  8
C_CORPO
100
AcDbLine
 62
250
  6
CONTINUOUS
 10
-9.7413991526
 20
5.7090702919
 11
-9.7413991526
 21
-16.022779523
  0
LINE
  5
34C
100
AcDbEntity
  8
C_CORPO
100
AcDbLine
 62
250
  6
CONTINUOUS
 10
-9.7413991526
 20
11.4909297082
 11
-9.7413991526
 21
16.022779523
  0
LINE
  5
34D
100
AcDbEntity
  8
C_COPERCHIO
100
AcDbLine
 62
7
  6
CONTINUOUS
 10
-9.65
 20
20.15
 11
-9.65
 21
20.0
  0
LINE
  5
34E
100
AcDbEntity
  8
C_COPERCHIO
100
AcDbLine
 62
7
  6
CONTINUOUS
 10
-9.65
 20
-20.0
 11
-9.65
 21
-20.15
  0
LINE
  5
34F
100
AcDbEntity
  8
C_COPERCHIO
100
AcDbLine
 62
7
  6
CONTINUOUS
 10
-9.5723308767
 20
-20.1178283957
 11
-9.5723308767
 21
-20.0776691233
  0
LINE
  5
350
100
AcDbEntity
  8
C_COPERCHIO
100
AcDbLine
 62
7
  6
CONTINUOUS
 10
-9.5723308767
 20
20.0776691233
 11
-9.5723308767
 21
20.1178283957
  0
LINE
  5
351
100
AcDbEntity
  8
C_CORPO
100
AcDbLine
 62
7
  6
CONTINUOUS
 10
-9.5
 20
9.5013878189
 11
-9.5
 21
7.6986121811
  0
LINE
  5
352
100
AcDbEntity
  8
C_CONTATTI
100
AcDbLine
 62
7
  6
CONTINUOUS
 10
-9.15
 20
8.8234547798
 11
-9.15
 21
7.2810452113
  0
LINE
  5
353
100
AcDbEntity
  8
C_CONTATTI
100
AcDbLine
 62
250
  6
CONTINUOUS
 10
-8.95
 20
8.8234547798
 11
-8.95
 21
7.1666114973
  0
LINE
  5
354
100
AcDbEntity
  8
C_CONTATTI
100
AcDbLine
 62
250
  6
CONTINUOUS
 10
-8.8105321998
 20
9.84
 11
-8.8105321998
 21
10.1509567884
  0
LINE
  5
355
100
AcDbEntity
  8
C_CORPO
100
AcDbLine
 62
250
  6
CONTINUOUS
 10
-2.2531093055
 20
16.1108540731
 11
-2.7501047116
 21
15.25
  0
LWPOLYLINE
  5
356
100
AcDbEntity
  8
C_COPERCHIO
100
AcDbPolyline
 62
7
  6
CONTINUOUS
 90
6
 70
0
 10
6.6254371529
 20
19.8254721381
 10
6.6122868766
 20
19.8120575279
 10
6.6011704926
 20
19.8011704926
 10
6.5925183447
 20
19.7931439081
 10
6.5868617444
 20
19.7876448986
 10
6.5846734642
 20
19.7846734642
  0
LINE
  5
357
100
AcDbEntity
  8
C_COPERCHIO
100
AcDbLine
 62
7
  6
CONTINUOUS
 10
6.8846620411
 20
20.0846620411
 11
6.8632331316
 21
20.0630071079
  0
LWPOLYLINE
  5
358
100
AcDbEntity
  8
C_COPERCHIO
100
AcDbPolyline
 62
7
  6
CONTINUOUS
 90
3
 70
0
 10
6.6746110202
 20
19.8746409496
 10
6.6569183611
 20
19.856763849
 10
6.6254371529
 20
19.8254721381
  0
LWPOLYLINE
  5
359
100
AcDbEntity
  8
C_COPERCHIO
100
AcDbPolyline
 62
7
  6
CONTINUOUS
 90
7
 70
0
 10
6.656763849
 20
20.1569183611
 10
6.6254721381
 20
20.1254371529
 10
6.6120575279
 20
20.1122868766
 10
6.6011704926
 20
20.1011704926
 10
6.5931439081
 20
20.0925183447
 10
6.5876448986
 20
20.0868617444
 10
6.5846734642
 20
20.0846734642
  0
LWPOLYLINE
  5
35A
100
AcDbEntity
  8
C_COPERCHIO
100
AcDbPolyline
 62
7
  6
CONTINUOUS
 90
3
 70
0
 10
6.8630071079
 20
20.3632331316
 10
6.7978215059
 20
20.2977875939
 10
6.733583789
 20
20.233550052
  0
LWPOLYLINE
  5
35B
100
AcDbEntity
  8
C_COPERCHIO
100
AcDbPolyline
 62
7
  6
CONTINUOUS
 90
3
 70
0
 10
6.7130509196
 20
20.2131516421
 10
6.6746409496
 20
20.1746110202
 10
6.656763849
 20
20.1569183611
  0
LINE
  5
35C
100
AcDbEntity
  8
C_CORPO
100
AcDbLine
 62
7
  6
CONTINUOUS
 10
5.75
 20
19.9
 11
5.6609791689
 21
19.8109791689
  0
LINE
  5
35D
100
AcDbEntity
  8
C_COPERCHIO
100
AcDbLine
 62
250
  6
CONTINUOUS
 10
10.4000380762
 20
24.5
 11
10.3868706193
 21
24.4868325431
  0
LINE
  5
35E
100
AcDbEntity
  8
C_CORPO
100
AcDbLine
 62
7
  6
CONTINUOUS
 10
5.75
 20
19.7
 11
5.6609791689
 21
19.6109791689
  0
LINE
  5
35F
100
AcDbEntity
  8
C_COPERCHIO
100
AcDbLine
 62
250
  6
CONTINUOUS
 10
10.65
 20
24.2500380762
 11
10.6368325431
 21
24.2368706193
  0
LINE
  5
360
100
AcDbEntity
  8
C_COPERCHIO
100
AcDbLine
 62
7
  6
CONTINUOUS
 10
6.5846734642
 20
20.0846734642
 11
6.4266562329
 21
19.9266562329
  0
LINE
  5
361
100
AcDbEntity
  8
C_COPERCHIO
100
AcDbLine
 62
7
  6
CONTINUOUS
 10
6.5846734642
 20
19.7846734642
 11
6.5
 21
19.7
  0
LINE
  5
362
100
AcDbEntity
  8
C_COPERCHIO
100
AcDbLine
 62
7
  6
CONTINUOUS
 10
6.7545576028
 20
19.9545576028
 11
6.7131516421
 21
19.9130509196
  0
LINE
  5
363
100
AcDbEntity
  8
C_COPERCHIO
100
AcDbLine
 62
7
  6
CONTINUOUS
 10
6.7131516421
 20
19.9130509196
 11
6.6746110202
 21
19.8746409496
  0
LINE
  5
364
100
AcDbEntity
  8
C_COPERCHIO
100
AcDbLine
 62
7
  6
CONTINUOUS
 10
6.733583789
 20
20.233550052
 11
6.7130509196
 21
20.2131516421
  0
LINE
  5
365
100
AcDbEntity
  8
C_COPERCHIO
100
AcDbLine
 62
7
  6
CONTINUOUS
 10
6.8632331316
 20
20.0630071079
 11
6.7545576028
 21
19.9545576028
  0
LINE
  5
366
100
AcDbEntity
  8
C_COPERCHIO
100
AcDbLine
 62
7
  6
CONTINUOUS
 10
6.8846620411
 20
20.3846620411
 11
6.8630071079
 21
20.3632331316
  0
LWPOLYLINE
  5
367
100
AcDbEntity
  8
C_CORPO
100
AcDbPolyline
 62
250
  6
CONTINUOUS
 90
58
 70
0
 10
-5.9570162364
 20
6.4733332938
 10
-5.9470161798
 20
6.4827661953
 10
-5.936745299
 20
6.4919376843
 10
-5.9262105155
 20
6.5008381392
 10
-5.9154153635
 20
6.5094613716
 10
-5.9043694144
 20
6.5177967527
 10
-5.8930891674
 20
6.5258294235
 10
-5.8815824624
 20
6.5335522334
 10
-5.8698574531
 20
6.5409582461
 10
-5.8579325798
 20
6.548034628
 10
-5.8458170647
 20
6.5547754974
 10
-5.8335199398
 20
6.5611756404
 10
-5.8210604125
 20
6.5672250831
 10
-5.8084504828
 20
6.5729187325
 10
-5.7956980823
 20
6.5782539715
 10
-5.7828168769
 20
6.5832258262
 10
-5.76982058
 20
6.5878301088
 10
-5.7567161366
 20
6.5920657447
 10
-5.743506948
 20
6.5959322813
 10
-5.7302031309
 20
6.5994270499
 10
-5.7168151339
 20
6.6025479158
 10
-5.7033465143
 20
6.6052941465
 10
-5.6898056466
 20
6.6076636669
 10
-5.6762048314
 20
6.6096543008
 10
-5.6625533744
 20
6.6112645165
 10
-5.6488610735
 20
6.6124927785
 10
-5.6351391257
 20
6.6133380529
 10
-5.6213989351
 20
6.6137995349
 10
-5.6076511602
 20
6.6138766272
 10
-5.5939063098
 20
6.6135693733
 10
-5.5801755685
 20
6.6128780614
 10
-5.5664694142
 20
6.6118030672
 10
-5.5527985004
 20
6.6103453937
 10
-5.5391742612
 20
6.6085064422
 10
-5.5256077982
 20
6.6062877209
 10
-5.5121088903
 20
6.6036911245
 10
-5.4986869688
 20
6.6007187284
 10
-5.4853541953
 20
6.5973732717
 10
-5.4721188937
 20
6.5936571298
 10
-5.4589848558
 20
6.5895713793
 10
-5.445962585
 20
6.5851187485
 10
-5.4330619084
 20
6.580302241
 10
-5.4202859221
 20
6.5751224633
 10
-5.4076416812
 20
6.5695809418
 10
-5.3951425376
 20
6.5636823107
 10
-5.3828010917
 20
6.5574318058
 10
-5.3706250113
 20
6.5508323193
 10
-5.3586262841
 20
6.5438894032
 10
-5.3468232926
 20
6.5366136445
 10
-5.335224698
 20
6.5290105376
 10
-5.3238396967
 20
6.5210862783
 10
-5.3126862293
 20
6.5128545097
 10
-5.3017721336
 20
6.5043225154
 10
-5.2911051206
 20
6.4954977383
 10
-5.280701173
 20
6.4863958227
 10
-5.2705694061
 20
6.4770278439
 10
-5.2607129574
 20
6.4673997832
 10
-5.2511382627
 20
6.4575214095
  0
LWPOLYLINE
  5
368
100
AcDbEntity
  8
C_CORPO
100
AcDbPolyline
 62
250
  6
CONTINUOUS
 90
58
 70
0
 10
-6.164058233
 20
6.6888559651
 10
-6.1480551142
 20
6.7038224536
 10
-6.1316371722
 20
6.718348896
 10
-6.1148044071
 20
6.7324352923
 10
-6.0975391908
 20
6.7460986217
 10
-6.0798591512
 20
6.7593219051
 10
-6.0618171724
 20
6.7720542047
 10
-6.0434119744
 20
6.7842919467
 10
-6.024644837
 20
6.796038705
 10
-6.0055724836
 20
6.8072542633
 10
-5.9861934168
 20
6.8179354967
 10
-5.9665091341
 20
6.8280855301
 10
-5.9465808507
 20
6.8376735218
 10
-5.9264108977
 20
6.8466953328
 10
-5.9059969442
 20
6.8551551022
 10
-5.8853932124
 20
6.8630344049
 10
-5.8646049812
 20
6.8703300543
 10
-5.8436269718
 20
6.877045237
 10
-5.8224975704
 20
6.8831710887
 10
-5.8012166661
 20
6.8887074093
 10
-5.7797843699
 20
6.8936543988
 10
-5.7582393999
 20
6.8980037922
 10
-5.7365785609
 20
6.9017554112
 10
-5.7148050481
 20
6.9049094341
 10
-5.6929671663
 20
6.907458131
 10
-5.6710636703
 20
6.9094001625
 10
-5.6490958054
 20
6.910736868
 10
-5.6271156112
 20
6.9114645364
 10
-5.6051231875
 20
6.9115815504
 10
-5.5831184346
 20
6.9110895273
 10
-5.5611530929
 20
6.909989608
 10
-5.5392271059
 20
6.9082801655
 10
-5.51734053
 20
6.9059628268
 10
-5.4955452761
 20
6.9030436129
 10
-5.4738425779
 20
6.8995212091
 10
-5.4522312015
 20
6.8953969302
 10
-5.4307593559
 20
6.8906807418
 10
-5.4094301925
 20
6.8853725513
 10
-5.3882405599
 20
6.8794724512
 10
-5.367229213
 20
6.8729906853
 10
-5.3463965661
 20
6.8659271492
 10
-5.3257422049
 20
6.8582819472
 10
-5.3053036404
 20
6.8500656366
 10
-5.2850760139
 20
6.8412750205
 10
-5.265064184
 20
6.8319132959
 10
-5.2453202387
 20
6.8220006102
 10
-5.2258417533
 20
6.811532711
 10
-5.2066311524
 20
6.8005138508
 10
-5.1877477972
 20
6.7889769348
 10
-5.1691930652
 20
6.7769187774
 10
-5.150965579
 20
6.7643425642
 10
-5.1331205669
 20
6.7512907578
 10
-5.11565939
 20
6.7377597498
 10
-5.0985806873
 20
6.7237531485
 10
-5.0819356047
 20
6.7093242423
 10
-5.0657411907
 20
6.6944907939
 10
-5.0499803968
 20
6.6792350406
 10
-5.0346532229
 20
6.6635569823
  0
LWPOLYLINE
  5
369
100
AcDbEntity
  8
C_CORPO
100
AcDbPolyline
 62
7
  6
CONTINUOUS
 90
10
 70
0
 10
-10.6932355164
 20
7.3987607656
 10
-10.6934278282
 20
7.398698266
 10
-10.6936027284
 20
7.3985951739
 10
-10.6937601137
 20
7.3984514892
 10
-10.6938998259
 20
7.3982675659
 10
-10.6940218349
 20
7.3980430501
 10
-10.6941261623
 20
7.3977768799
 10
-10.6942126717
 20
7.3974687014
 10
-10.6942811456
 20
7.3971188685
 10
-10.6943314155
 20
7.3967273812
  0
LWPOLYLINE
  5
36A
100
AcDbEntity
  8
C_CONTATTI
100
AcDbPolyline
 62
7
  6
CONTINUOUS
 90
16
 70
0
 10
-2.05
 20
8.8234547798
 10
-2.2322562219
 20
8.7656058782
 10
-2.4097288637
 20
8.7109273896
 10
-2.5824179256
 20
8.659419314
 10
-2.7496225417
 20
8.6112818487
 10
-2.9120435779
 20
8.5663147965
 10
-3.0717836307
 20
8.5239175649
 10
-3.2290670535
 20
8.4839679601
 10
-3.383669493
 20
8.446588176
 10
-3.5370204863
 20
8.4115442019
 10
-3.6892566894
 20
8.37875301
 10
-3.8402414462
 20
8.348297628
 10
-3.9909943262
 20
8.3201931287
 10
-4.1418551858
 20
8.2944445364
 10
-4.2924841685
 20
8.2710468269
 10
-4.4428812744
 20
8.25
  0
LINE
  5
36B
100
AcDbEntity
  8
C_CONTATTI
100
AcDbLine
 62
7
  6
CONTINUOUS
 10
2.9223036322
 20
-9.8911112606
 11
1.7831940941
 21
-10.1963347414
  0
LINE
  5
36C
100
AcDbEntity
  8
C_CONTATTI
100
AcDbLine
 62
250
  6
CONTINUOUS
 10
2.8058857162
 20
-9.8705415381
 11
1.75
 21
-10.1534652631
  0
LINE
  5
36D
100
AcDbEntity
  8
C_CONTATTI
100
AcDbLine
 62
7
  6
CONTINUOUS
 10
-2.8003816276
 20
-9.85
 11
-1.75
 21
-9.85
  0
LINE
  5
36E
100
AcDbEntity
  8
C_CONTATTI
100
AcDbLine
 62
7
  6
CONTINUOUS
 10
2.8003816276
 20
-9.85
 11
1.75
 21
-9.85
  0
LINE
  5
36F
100
AcDbEntity
  8
C_CONTATTI
100
AcDbLine
 62
7
  6
CONTINUOUS
 10
3.734750841
 20
-9.84
 11
3.3105321998
 21
-9.84
  0
LINE
  5
370
100
AcDbEntity
  8
C_CONTATTI
100
AcDbLine
 62
7
  6
CONTINUOUS
 10
-3.3105321998
 20
-9.84
 11
-3.59
 21
-9.84
  0
LINE
  5
371
100
AcDbEntity
  8
C_COPERCHIO
100
AcDbLine
 62
7
  6
CONTINUOUS
 10
3.3000190385
 20
-9.75
 11
2.8003816276
 21
-9.75
  0
LINE
  5
372
100
AcDbEntity
  8
C_COPERCHIO
100
AcDbLine
 62
7
  6
CONTINUOUS
 10
-2.8003816276
 20
-9.75
 11
-3.3000190385
 21
-9.75
  0
LINE
  5
373
100
AcDbEntity
  8
C_COPERCHIO
100
AcDbLine
 62
7
  6
CONTINUOUS
 10
3.2511485788
 20
-9.7011295404
 11
2.8003816276
 21
-9.7011295404
  0
LINE
  5
374
100
AcDbEntity
  8
C_COPERCHIO
100
AcDbLine
 62
7
  6
CONTINUOUS
 10
-2.8003816276
 20
-9.7011295404
 11
-3.2511485788
 21
-9.7011295404
  0
LINE
  5
375
100
AcDbEntity
  8
C_CONTATTI
100
AcDbLine
 62
250
  6
CONTINUOUS
 10
-2.8003816276
 20
-9.45
 11
-1.75
 21
-9.45
  0
LINE
  5
376
100
AcDbEntity
  8
C_CONTATTI
100
AcDbLine
 62
250
  6
CONTINUOUS
 10
1.75
 20
-9.45
 11
2.8003816276
 21
-9.45
  0
LINE
  5
377
100
AcDbEntity
  8
C_CONTATTI
100
AcDbLine
 62
7
  6
CONTINUOUS
 10
-2.8003816276
 20
-9.45
 11
-4.0
 21
-9.45
  0
LINE
  5
378
100
AcDbEntity
  8
C_CONTATTI
100
AcDbLine
 62
7
  6
CONTINUOUS
 10
2.8003816276
 20
-9.45
 11
4.0
 21
-9.45
  0
LINE
  5
379
100
AcDbEntity
  8
C_CONTATTI
100
AcDbLine
 62
7
  6
CONTINUOUS
 10
-1.7831940941
 20
-10.1963347414
 11
-2.9223036322
 21
-9.8911112606
  0
LINE
  5
37A
100
AcDbEntity
  8
C_CONTATTI
100
AcDbLine
 62
250
  6
CONTINUOUS
 10
-1.75
 20
-10.1534652631
 11
-2.8058857162
 21
-9.8705415381
  0
LWPOLYLINE
  5
37B
100
AcDbEntity
  8
C_COPERCHIO
100
AcDbPolyline
 62
7
  6
CONTINUOUS
 90
6
 70
0
 10
6.6254721381
 20
-20.1254371529
 10
6.6120575279
 20
-20.1122868766
 10
6.6011704926
 20
-20.1011704926
 10
6.5931439081
 20
-20.0925183447
 10
6.5876448986
 20
-20.0868617444
 10
6.5846734642
 20
-20.0846734642
  0
LINE
  5
37C
100
AcDbEntity
  8
C_COPERCHIO
100
AcDbLine
 62
7
  6
CONTINUOUS
 10
6.8846620411
 20
-20.3846620411
 11
6.8630071079
 21
-20.3632331316
  0
LWPOLYLINE
  5
37D
100
AcDbEntity
  8
C_COPERCHIO
100
AcDbPolyline
 62
7
  6
CONTINUOUS
 90
3
 70
0
 10
6.6746409496
 20
-20.1746110202
 10
6.656763849
 20
-20.1569183611
 10
6.6254721381
 20
-20.1254371529
  0
LWPOLYLINE
  5
37E
100
AcDbEntity
  8
C_COPERCHIO
100
AcDbPolyline
 62
7
  6
CONTINUOUS
 90
7
 70
0
 10
6.6569183611
 20
-19.856763849
 10
6.6254371529
 20
-19.8254721381
 10
6.6122868766
 20
-19.8120575279
 10
6.6011704926
 20
-19.8011704926
 10
6.5925183447
 20
-19.7931439081
 10
6.5868617444
 20
-19.7876448986
 10
6.5846734642
 20
-19.7846734642
  0
LWPOLYLINE
  5
37F
100
AcDbEntity
  8
C_COPERCHIO
100
AcDbPolyline
 62
7
  6
CONTINUOUS
 90
3
 70
0
 10
6.7131516421
 20
-19.9130509196
 10
6.6746110202
 20
-19.8746409496
 10
6.6569183611
 20
-19.856763849
  0
LINE
  5
380
100
AcDbEntity
  8
C_CORPO
100
AcDbLine
 62
7
  6
CONTINUOUS
 10
5.6609791689
 20
-19.8109791689
 11
5.75
 21
-19.9
  0
LINE
  5
381
100
AcDbEntity
  8
C_COPERCHIO
100
AcDbLine
 62
250
  6
CONTINUOUS
 10
10.3868706193
 20
-24.4868325431
 11
10.4000380762
 21
-24.5
  0
LINE
  5
382
100
AcDbEntity
  8
C_CORPO
100
AcDbLine
 62
7
  6
CONTINUOUS
 10
5.75
 20
-19.7
 11
5.6609791689
 21
-19.6109791689
  0
LINE
  5
383
100
AcDbEntity
  8
C_COPERCHIO
100
AcDbLine
 62
250
  6
CONTINUOUS
 10
10.6368325431
 20
-24.2368706193
 11
10.65
 21
-24.2500380762
  0
LINE
  5
384
100
AcDbEntity
  8
C_COPERCHIO
100
AcDbLine
 62
7
  6
CONTINUOUS
 10
6.5846734642
 20
-20.0846734642
 11
6.4266562329
 21
-19.9266562329
  0
LINE
  5
385
100
AcDbEntity
  8
C_COPERCHIO
100
AcDbLine
 62
7
  6
CONTINUOUS
 10
6.5846734642
 20
-19.7846734642
 11
6.5
 21
-19.7
  0
LINE
  5
386
100
AcDbEntity
  8
C_COPERCHIO
100
AcDbLine
 62
7
  6
CONTINUOUS
 10
6.8632331316
 20
-20.0630071079
 11
6.733550052
 21
-19.933583789
  0
LINE
  5
387
100
AcDbEntity
  8
C_COPERCHIO
100
AcDbLine
 62
7
  6
CONTINUOUS
 10
6.7545576028
 20
-20.2545576028
 11
6.6746409496
 21
-20.1746110202
  0
LINE
  5
388
100
AcDbEntity
  8
C_COPERCHIO
100
AcDbLine
 62
7
  6
CONTINUOUS
 10
6.733550052
 20
-19.933583789
 11
6.7131516421
 21
-19.9130509196
  0
LINE
  5
389
100
AcDbEntity
  8
C_COPERCHIO
100
AcDbLine
 62
7
  6
CONTINUOUS
 10
6.8630071079
 20
-20.3632331316
 11
6.7545576028
 21
-20.2545576028
  0
LINE
  5
38A
100
AcDbEntity
  8
C_COPERCHIO
100
AcDbLine
 62
7
  6
CONTINUOUS
 10
6.8846620411
 20
-20.0846620411
 11
6.8632331316
 21
-20.0630071079
  0
LINE
  5
38B
100
AcDbEntity
  8
C_CORPO
100
AcDbLine
 62
7
  6
CONTINUOUS
 10
-8.7400728142
 20
16.022779523
 11
-8.7468906945
 21
16.1108540731
  0
LINE
  5
38C
100
AcDbEntity
  8
C_COPERCHIO
100
AcDbLine
 62
7
  6
CONTINUOUS
 10
-8.25
 20
23.1226497308
 11
-8.2631674569
 21
23.5581814706
  0
LINE
  5
38D
100
AcDbEntity
  8
C_COPERCHIO
100
AcDbLine
 62
7
  6
CONTINUOUS
 10
-8.55
 20
9.45
 11
-8.55
 21
9.5500380769
  0
LINE
  5
38E
100
AcDbEntity
  8
C_COPERCHIO
100
AcDbLine
 62
250
  6
CONTINUOUS
 10
-8.5131293807
 20
24.4868325431
 11
-8.5131293807
 21
23.8443375673
  0
LINE
  5
38F
100
AcDbEntity
  8
C_COPERCHIO
100
AcDbLine
 62
250
  6
CONTINUOUS
 10
-8.5131293807
 20
-23.8443375673
 11
-8.5131293807
 21
-24.4868325431
  0
LINE
  5
390
100
AcDbEntity
  8
C_COPERCHIO
100
AcDbLine
 62
7
  6
CONTINUOUS
 10
-8.5011295404
 20
9.45
 11
-8.5011295404
 21
9.5011676173
  0
LINE
  5
391
100
AcDbEntity
  8
C_CONTATTI
100
AcDbLine
 62
250
  6
CONTINUOUS
 10
-8.5
 20
8.6840021607
 11
-8.5
 21
9.45
  0
LINE
  5
392
100
AcDbEntity
  8
C_CORPO
100
AcDbLine
 62
7
  6
CONTINUOUS
 10
-8.3024659223
 20
15.0229318279
 11
-8.3024659223
 21
14.7369096983
  0
LINE
  5
393
100
AcDbEntity
  8
C_CONTATTI
100
AcDbLine
 62
7
  6
CONTINUOUS
 10
-8.3003816276
 20
9.45
 11
-8.3003816276
 21
9.85
  0
LINE
  5
394
100
AcDbEntity
  8
C_COPERCHIO
100
AcDbLine
 62
250
  6
CONTINUOUS
 10
-8.2631674569
 20
24.2368706193
 11
-8.2631674569
 21
23.5581814706
  0
LINE
  5
395
100
AcDbEntity
  8
C_COPERCHIO
100
AcDbLine
 62
250
  6
CONTINUOUS
 10
-8.2631674569
 20
-23.5581814706
 11
-8.2631674569
 21
-24.2368706193
  0
LINE
  5
396
100
AcDbEntity
  8
C_COPERCHIO
100
AcDbLine
 62
7
  6
CONTINUOUS
 10
-8.25
 20
-24.2500380762
 11
-8.25
 21
-22.4
  0
LINE
  5
397
100
AcDbEntity
  8
C_COPERCHIO
100
AcDbLine
 62
7
  6
CONTINUOUS
 10
-8.25
 20
22.4
 11
-8.25
 21
24.2500380762
  0
LINE
  5
398
100
AcDbEntity
  8
C_CORPO
100
AcDbLine
 62
250
  6
CONTINUOUS
 10
-8.2498952884
 20
14.7894803322
 11
-8.2498952884
 21
15.25
  0
LINE
  5
399
100
AcDbEntity
  8
C_COPERCHIO
100
AcDbLine
 62
7
  6
CONTINUOUS
 10
-8.2325449351
 20
21.3927698754
 11
-8.2325449351
 21
20.9
  0
LINE
  5
39A
100
AcDbEntity
  8
C_COPERCHIO
100
AcDbLine
 62
7
  6
CONTINUOUS
 10
-8.2325449351
 20
-21.3927698754
 11
-8.2325449351
 21
-20.9
  0
LINE
  5
39B
100
AcDbEntity
  8
C_COPERCHIO
100
AcDbLine
 62
250
  6
CONTINUOUS
 10
-8.0665695018
 20
21.3240205999
 11
-8.0665695018
 21
20.9829813964
  0
LINE
  5
39C
100
AcDbEntity
  8
C_COPERCHIO
100
AcDbLine
 62
250
  6
CONTINUOUS
 10
-8.0665695018
 20
-20.9829813964
 11
-8.0665695018
 21
-21.3240205999
  0
LINE
  5
39D
100
AcDbEntity
  8
C_COPERCHIO
100
AcDbLine
 62
250
  6
CONTINUOUS
 10
-7.5666456542
 20
21.2252970227
 11
-7.5666456542
 21
20.9872686779
  0
LINE
  5
39E
100
AcDbEntity
  8
C_COPERCHIO
100
AcDbLine
 62
250
  6
CONTINUOUS
 10
-7.5666456542
 20
-20.9872686779
 11
-7.5666456542
 21
-21.2252970227
  0
LINE
  5
39F
100
AcDbEntity
  8
C_CORPO
100
AcDbLine
 62
7
  6
CONTINUOUS
 10
-7.4890208311
 20
-20.85
 11
-7.4890208311
 21
-19.6109791689
  0
LINE
  5
3A0
100
AcDbEntity
  8
C_CORPO
100
AcDbLine
 62
7
  6
CONTINUOUS
 10
-7.4890208311
 20
19.6109791689
 11
-7.4890208311
 21
20.85
  0
LINE
  5
3A1
100
AcDbEntity
  8
C_CORPO
100
AcDbLine
 62
7
  6
CONTINUOUS
 10
-7.4
 20
-20.85
 11
-7.4
 21
-19.7
  0
LINE
  5
3A2
100
AcDbEntity
  8
C_CORPO
100
AcDbLine
 62
7
  6
CONTINUOUS
 10
-7.4
 20
19.7
 11
-7.4
 21
20.85
  0
LINE
  5
3A3
100
AcDbEntity
  8
C_COPERCHIO
100
AcDbLine
 62
7
  6
CONTINUOUS
 10
-7.3776691233
 20
20.3266752714
 11
-7.3776691233
 21
19.7
  0
LINE
  5
3A4
100
AcDbEntity
  8
C_COPERCHIO
100
AcDbLine
 62
7
  6
CONTINUOUS
 10
-7.3776691233
 20
-20.3266752714
 11
-7.3776691233
 21
-19.7
  0
LINE
  5
3A5
100
AcDbEntity
  8
C_CONTATTI
100
AcDbLine
 62
7
  6
CONTINUOUS
 10
-7.25
 20
10.1810513336
 11
-7.25
 21
8.3665008265
  0
LINE
  5
3A6
100
AcDbEntity
  8
C_COPERCHIO
100
AcDbLine
 62
7
  6
CONTINUOUS
 10
-7.2153265358
 20
20.9846734642
 11
-7.2153265358
 21
19.7846734642
  0
LINE
  5
3A7
100
AcDbEntity
  8
C_COPERCHIO
100
AcDbLine
 62
7
  6
CONTINUOUS
 10
-7.2153265358
 20
-19.7846734642
 11
-7.2153265358
 21
-20.9846734642
  0
LINE
  5
3A8
100
AcDbEntity
  8
C_CONTATTI
100
AcDbLine
 62
7
  6
CONTINUOUS
 10
-7.0107603059
 20
14.8093228724
 11
-7.0107603059
 21
14.7608413094
  0
LINE
  5
3A9
100
AcDbEntity
  8
C_CONTATTI
100
AcDbLine
 62
7
  6
CONTINUOUS
 10
-7.0
 20
10.0361255297
 11
-7.0
 21
8.3186579086
  0
LINE
  5
3AA
100
AcDbEntity
  8
C_COPERCHIO
100
AcDbLine
 62
7
  6
CONTINUOUS
 10
-8.2631674569
 20
-23.5581814706
 11
-8.25
 21
-23.1226497308
  0
LINE
  5
3AB
100
AcDbEntity
  8
C_CORPO
100
AcDbLine
 62
250
  6
CONTINUOUS
 10
-5.4763537837
 20
6.0792524036
 11
-5.2669146258
 21
6.292446196
  0
LINE
  5
3AC
100
AcDbEntity
  8
C_CORPO
100
AcDbLine
 62
7
  6
CONTINUOUS
 10
2.6975340777
 20
14.7369096983
 11
2.7501047116
 21
14.7894803322
  0
LINE
  5
3AD
100
AcDbEntity
  8
C_CORPO
100
AcDbLine
 62
250
  6
CONTINUOUS
 10
-5.0346532229
 20
6.6635569823
 11
-5.2511381545
 21
6.4575215125
  0
LWPOLYLINE
  5
3AE
100
AcDbEntity
  8
C_CORPO
100
AcDbPolyline
 62
250
  6
CONTINUOUS
 90
49
 70
0
 10
-5.7488761714
 20
6.085564237
 10
-5.7441351211
 20
6.0896765403
 10
-5.739277967
 20
6.0936310051
 10
-5.7343047092
 20
6.0974276316
 10
-5.7292099856
 20
6.1010700445
 10
-5.7239991583
 20
6.104554619
 10
-5.7186883128
 20
6.1078704807
 10
-5.7132774124
 20
6.1110169036
 10
-5.7077664938
 20
6.1139946138
 10
-5.7021717526
 20
6.1167949147
 10
-5.6964929761
 20
6.1194172655
 10
-5.690730377
 20
6.121862207
 10
-5.6849007895
 20
6.1241226657
 10
-5.6790040388
 20
6.1261981038
 10
-5.6730402996
 20
6.1280890591
 10
-5.6670269302
 20
6.1297900707
 10
-5.6609637607
 20
6.1313005949
 10
-5.654850961
 20
6.1326211754
 10
-5.648706399
 20
6.1337479821
 10
-5.6425300004
 20
6.1346804489
 10
-5.6363218395
 20
6.1354191419
 10
-5.6301000068
 20
6.1359619299
 10
-5.6238644558
 20
6.1363082455
 10
-5.617615233
 20
6.136458656
 10
-5.6113705674
 20
6.1364127318
 10
-5.6051304917
 20
6.1361699066
 10
-5.5988949733
 20
6.1357307467
 10
-5.5926821432
 20
6.1350965208
 10
-5.586492045
 20
6.1342666629
 10
-5.5803246351
 20
6.133241739
 10
-5.5741979142
 20
6.1320247155
 10
-5.5681120062
 20
6.1306150365
 10
-5.5620667872
 20
6.1290132579
 10
-5.5560798853
 20
6.127224014
 10
-5.5501514521
 20
6.1252467534
 10
-5.544281336
 20
6.1230820276
 10
-5.5384867103
 20
6.1207361246
 10
-5.5327678194
 20
6.1182085305
 10
-5.5271244188
 20
6.1154997592
 10
-5.5215729486
 20
6.1126176408
 10
-5.5161136508
 20
6.1095616613
 10
-5.5107462834
 20
6.1063323346
 10
-5.5054865595
 20
6.1029390332
 10
-5.5003347678
 20
6.0993812553
 10
-5.4952906196
 20
6.0956595027
 10
-5.4903689623
 20
6.0917846534
 10
-5.4855747452
 20
6.0877603334
 10
-5.480903019
 20
6.0835829168
 10
-5.4763537837
 20
6.0792524036
  0
LWPOLYLINE
  5
3AF
100
AcDbEntity
  8
C_CORPO
100
AcDbPolyline
 62
250
  6
CONTINUOUS
 90
49
 70
0
 10
-5.9482205019
 20
6.3082256956
 10
-5.9363805282
 20
6.3184086024
 10
-5.9242273826
 20
6.3282177664
 10
-5.911774185
 20
6.3376421123
 10
-5.899033647
 20
6.346671998
 10
-5.8860178848
 20
6.3552992482
 10
-5.8727387644
 20
6.3635160269
 10
-5.8592090049
 20
6.3713145337
 10
-5.8454422165
 20
6.3786870773
 10
-5.8314519693
 20
6.3856262581
 10
-5.8172520916
 20
6.3921252396
 10
-5.8028564846
 20
6.3981779153
 10
-5.7882789397
 20
6.4037784153
 10
-5.773533759
 20
6.4089212535
 10
-5.7586354465
 20
6.4136016156
 10
-5.7435981778
 20
6.4178149385
 10
-5.7284366021
 20
6.4215570694
 10
-5.7131657154
 20
6.4248245495
 10
-5.6978002445
 20
6.4276141098
 10
-5.6823552722
 20
6.4299229535
 10
-5.6668459468
 20
6.4317490824
 10
-5.6512871019
 20
6.4330906188
 10
-5.6356939547
 20
6.4339461585
 10
-5.620081834
 20
6.4343151323
 10
-5.6044657369
 20
6.4341970402
 10
-5.5888610139
 20
6.4335918866
 10
-5.5732829079
 20
6.4325005503
 10
-5.5577462548
 20
6.4309239061
 10
-5.5422662404
 20
6.4288633416
 10
-5.5268580556
 20
6.4263211602
 10
-5.51153656
 20
6.42329963
 10
-5.4963168178
 20
6.4198015513
 10
-5.4812136578
 20
6.4158306292
 10
-5.4662416217
 20
6.4113904911
 10
-5.4514153928
 20
6.4064852902
 10
-5.4367494383
 20
6.4011201099
 10
-5.4222580336
 20
6.3952999647
 10
-5.4079555188
 20
6.3890304032
 10
-5.3938557066
 20
6.3823178047
 10
-5.3799721629
 20
6.3751684131
 10
-5.3663185371
 20
6.3675889988
 10
-5.3529080818
 20
6.3595872065
 10
-5.3397538663
 20
6.3511705814
 10
-5.3268688344
 20
6.3423471169
 10
-5.3142655701
 20
6.3331257772
 10
-5.3019566853
 20
6.3235156081
 10
-5.2899544607
 20
6.3135258404
 10
-5.278270094
 20
6.3031661248
 10
-5.2669146342
 20
6.2924461876
  0
LINE
  5
3B0
100
AcDbEntity
  8
C_CORPO
100
AcDbLine
 62
250
  6
CONTINUOUS
 10
-0.7581375421
 20
10.2922405091
 11
-0.1796625347
 21
10.7288947907
  0
LWPOLYLINE
  5
3B1
100
AcDbEntity
  8
C_CONTATTI
100
AcDbPolyline
 62
7
  6
CONTINUOUS
 90
9
 70
0
 10
-2.05
 20
7.1666114973
 10
-2.2067211963
 20
7.1167438457
 10
-2.3600837634
 20
7.0691800531
 10
-2.5100877012
 20
7.0239201196
 10
-2.6562808188
 20
6.9810903264
 10
-2.7991153071
 20
6.9405643923
 10
-2.9399477388
 20
6.9019634731
 10
-3.0792303046
 20
6.8651612874
 10
-3.1219264263
 20
6.8543140088
  0
LWPOLYLINE
  5
3B2
100
AcDbEntity
  8
C_CONTATTI
100
AcDbPolyline
 62
7
  6
CONTINUOUS
 90
6
 70
0
 10
-2.05
 20
7.1666114973
 10
-2.0320577992
 20
7.1721523609
 10
-2.0144022838
 20
7.1770487499
 10
-1.9971684175
 20
7.1813006644
 10
-1.9805023901
 20
7.184912603
 10
-1.9672419249
 20
7.187371497
  0
LINE
  5
3B3
100
AcDbEntity
  8
C_CONTATTI
100
AcDbLine
 62
7
  6
CONTINUOUS
 10
-1.0571187256
 20
-8.25
 11
-0.7854512338
 21
-8.25
  0
LINE
  5
3B4
100
AcDbEntity
  8
C_CONTATTI
100
AcDbLine
 62
7
  6
CONTINUOUS
 10
0.7854512338
 20
-8.25
 11
1.0571187256
 21
-8.25
  0
LWPOLYLINE
  5
3B5
100
AcDbEntity
  8
C_CONTATTI
100
AcDbPolyline
 62
7
  6
CONTINUOUS
 90
16
 70
0
 10
1.0571187256
 20
-8.25
 10
1.2076049022
 20
-8.271061077
 10
1.3583112719
 20
-8.2944726573
 10
1.5092378346
 20
-8.3202347409
 10
1.6600450844
 20
-8.3483530202
 10
1.8110725273
 20
-8.3788218029
 10
1.9633386808
 20
-8.4116240111
 10
2.116706944
 20
-8.4466765468
 10
2.2713139179
 20
-8.4840625081
 10
2.4285879232
 20
-8.5240141117
 10
2.5883049282
 20
-8.5664092031
 10
2.7506889645
 20
-8.6113699368
 10
2.9178404482
 20
-8.6594949933
 10
3.090459518
 20
-8.7109839327
 10
3.2678460353
 20
-8.7656371949
 10
3.45
 20
-8.8234547798
  0
LWPOLYLINE
  5
3B6
100
AcDbEntity
  8
C_CONTATTI
100
AcDbPolyline
 62
7
  6
CONTINUOUS
 90
19
 70
0
 10
3.45
 20
-8.8234547798
 10
3.4679424284
 20
-8.8289957255
 10
3.4855982418
 20
-8.833892183
 10
3.5028324667
 20
-8.8381441525
 10
3.5194990909
 20
-8.8417561422
 10
3.5355028176
 20
-8.8447236438
 10
3.5507924814
 20
-8.8470331328
 10
3.5652588898
 20
-8.8486805423
 10
3.5788115555
 20
-8.8496699392
 10
3.5914211176
 20
-8.85
 10
3.6029954318
 20
-8.8496698286
 10
3.6134493371
 20
-8.8486803212
 10
3.6227463913
 20
-8.8470328428
 10
3.6308027295
 20
-8.8447233497
 10
3.6375368827
 20
-8.8417558856
 10
3.6428958888
 20
-8.8381439469
 10
3.6468065106
 20
-8.8338920325
 10
3.6491935677
 20
-8.8289956434
 10
3.65
 20
-8.8234547798
  0
LINE
  5
3B7
100
AcDbEntity
  8
C_CORPO
100
AcDbLine
 62
250
  6
CONTINUOUS
 10
-0.5779935412
 20
-10.4245670411
 11
-0.3612459852
 21
-10.6303262057
  0
LINE
  5
3B8
100
AcDbEntity
  8
C_CORPO
100
AcDbLine
 62
250
  6
CONTINUOUS
 10
-0.1393615328
 20
-11.011914538
 11
-0.3484038204
 21
-10.7983315856
  0
LWPOLYLINE
  5
3B9
100
AcDbEntity
  8
C_COPERCHIO
100
AcDbPolyline
 62
7
  6
CONTINUOUS
 90
4
 70
0
 10
-3.5
 20
-23.655248622
 10
-3.5014020021
 20
-23.6463866942
 10
-3.5054430174
 20
-23.6352363667
 10
-3.5121230458
 20
-23.6217645853
  0
LWPOLYLINE
  5
3BA
100
AcDbEntity
  8
C_COPERCHIO
100
AcDbPolyline
 62
250
  6
CONTINUOUS
 90
13
 70
0
 10
-8.2631674569
 20
24.2368706193
 10
-8.2653150235
 20
24.2694909086
 10
-8.2717011205
 20
24.3015532718
 10
-8.2822165224
 20
24.3325093255
 10
-8.2966813775
 20
24.3618296081
 10
-8.3148482838
 20
24.3890126356
 10
-8.336406521
 20
24.413593479
 10
-8.3609873644
 20
24.4351517162
 10
-8.3881703919
 20
24.4533186225
 10
-8.4174906745
 20
24.4677834776
 10
-8.4484467282
 20
24.4782988795
 10
-8.4805090914
 20
24.4846849765
 10
-8.5131293807
 20
24.4868325431
  0
LWPOLYLINE
  5
3BB
100
AcDbEntity
  8
C_COPERCHIO
100
AcDbPolyline
 62
7
  6
CONTINUOUS
 90
13
 70
0
 10
-8.25
 20
24.2500380762
 10
-8.2521378302
 20
24.2826657348
 10
-8.2585155507
 20
24.3147347076
 10
-8.2690242772
 20
24.3456966094
 10
-8.2834845786
 20
24.3750221805
 10
-8.3016493125
 20
24.4022094378
 10
-8.3232075347
 20
24.4267924653
 10
-8.3477905622
 20
24.4483506875
 10
-8.3749778195
 20
24.4665154214
 10
-8.4043033906
 20
24.4809757228
 10
-8.4352652924
 20
24.4914844493
 10
-8.4673342652
 20
24.4978621698
 10
-8.4999619238
 20
24.5
  0
LINE
  5
3BC
100
AcDbEntity
  8
C_CORPO
100
AcDbLine
 62
250
  6
CONTINUOUS
 10
-5.948220577
 20
6.3082257791
 11
-5.9570163186
 21
6.4733333784
  0
LINE
  5
3BD
100
AcDbEntity
  8
C_COPERCHIO
100
AcDbLine
 62
250
  6
CONTINUOUS
 10
-6.9153379589
 20
20.9872686779
 11
-6.9153379589
 21
20.0846620411
  0
LINE
  5
3BE
100
AcDbEntity
  8
C_COPERCHIO
100
AcDbLine
 62
250
  6
CONTINUOUS
 10
-6.9153379589
 20
-20.0846620411
 11
-6.9153379589
 21
-20.9872686779
  0
LINE
  5
3BF
100
AcDbEntity
  8
C_COPERCHIO
100
AcDbLine
 62
250
  6
CONTINUOUS
 10
-6.8846620411
 20
-20.3846620411
 11
-6.8846620411
 21
-20.0846620411
  0
LINE
  5
3C0
100
AcDbEntity
  8
C_COPERCHIO
100
AcDbLine
 62
250
  6
CONTINUOUS
 10
-6.8846620411
 20
20.0846620411
 11
-6.8846620411
 21
20.3846620411
  0
LINE
  5
3C1
100
AcDbEntity
  8
C_COPERCHIO
100
AcDbLine
 62
7
  6
CONTINUOUS
 10
-6.5846734642
 20
-20.0846734642
 11
-6.5846734642
 21
-19.7846734642
  0
LINE
  5
3C2
100
AcDbEntity
  8
C_COPERCHIO
100
AcDbLine
 62
7
  6
CONTINUOUS
 10
-6.5846734642
 20
19.7846734642
 11
-6.5846734642
 21
20.0846734642
  0
LINE
  5
3C3
100
AcDbEntity
  8
C_CONTATTI
100
AcDbLine
 62
7
  6
CONTINUOUS
 10
-6.3229597563
 20
14.8121699176
 11
-6.3229597563
 21
14.7580058088
  0
LINE
  5
3C4
100
AcDbEntity
  8
C_CORPO
100
AcDbLine
 62
7
  6
CONTINUOUS
 10
-5.75
 20
19.9
 11
-5.75
 21
19.7
  0
LINE
  5
3C5
100
AcDbEntity
  8
C_CORPO
100
AcDbLine
 62
7
  6
CONTINUOUS
 10
-5.75
 20
-19.7
 11
-5.75
 21
-19.9
  0
LINE
  5
3C6
100
AcDbEntity
  8
C_CORPO
100
AcDbLine
 62
7
  6
CONTINUOUS
 10
-5.6609791689
 20
19.8109791689
 11
-5.6609791689
 21
19.6109791689
  0
LINE
  5
3C7
100
AcDbEntity
  8
C_CORPO
100
AcDbLine
 62
7
  6
CONTINUOUS
 10
-5.6609791689
 20
-19.6109791689
 11
-5.6609791689
 21
-19.8109791689
  0
LINE
  5
3C8
100
AcDbEntity
  8
C_CONTATTI
100
AcDbLine
 62
7
  6
CONTINUOUS
 10
-5.6187662117
 20
14.8132473424
 11
-5.6187662117
 21
14.7569319361
  0
LINE
  5
3C9
100
AcDbEntity
  8
C_CONTATTI
100
AcDbLine
 62
7
  6
CONTINUOUS
 10
-5.3812337883
 20
14.7569319361
 11
-5.3812337883
 21
14.8132473424
  0
LINE
  5
3CA
100
AcDbEntity
  8
C_CORPO
100
AcDbLine
 62
250
  6
CONTINUOUS
 10
-5.948220577
 20
10.8917742209
 11
-5.9549606421
 21
10.7640210762
  0
LINE
  5
3CB
100
AcDbEntity
  8
C_CORPO
100
AcDbLine
 62
250
  6
CONTINUOUS
 10
-5.9549606421
 20
10.7640210762
 11
-5.9570163185
 21
10.7266666216
  0
LWPOLYLINE
  5
3CC
100
AcDbEntity
  8
C_COPERCHIO
100
AcDbPolyline
 62
7
  6
CONTINUOUS
 90
13
 70
0
 10
-8.25
 20
-24.2500380762
 10
-8.2521378302
 20
-24.2826657348
 10
-8.2585155507
 20
-24.3147347076
 10
-8.2690242772
 20
-24.3456966094
 10
-8.2834845786
 20
-24.3750221805
 10
-8.3016493125
 20
-24.4022094378
 10
-8.3232075347
 20
-24.4267924653
 10
-8.3477905622
 20
-24.4483506875
 10
-8.3749778195
 20
-24.4665154214
 10
-8.4043033906
 20
-24.4809757228
 10
-8.4352652924
 20
-24.4914844493
 10
-8.4673342652
 20
-24.4978621698
 10
-8.4999619238
 20
-24.5
  0
LWPOLYLINE
  5
3CD
100
AcDbEntity
  8
C_COPERCHIO
100
AcDbPolyline
 62
250
  6
CONTINUOUS
 90
13
 70
0
 10
-8.2631674569
 20
-24.2368706193
 10
-8.2653150235
 20
-24.2694909086
 10
-8.2717011205
 20
-24.3015532718
 10
-8.2822165224
 20
-24.3325093255
 10
-8.2966813775
 20
-24.3618296081
 10
-8.3148482838
 20
-24.3890126356
 10
-8.336406521
 20
-24.413593479
 10
-8.3609873644
 20
-24.4351517162
 10
-8.3881703919
 20
-24.4533186225
 10
-8.4174906745
 20
-24.4677834776
 10
-8.4484467282
 20
-24.4782988795
 10
-8.4805090914
 20
-24.4846849765
 10
-8.5131293807
 20
-24.4868325431
  0
LINE
  5
3CE
100
AcDbEntity
  8
C_CORPO
100
AcDbLine
 62
250
  6
CONTINUOUS
 10
-5.2669146258
 20
6.292446196
 11
-5.2511381543
 21
6.4575215124
  0
LINE
  5
3CF
100
AcDbEntity
  8
C_CONTATTI
100
AcDbLine
 62
7
  6
CONTINUOUS
 10
-2.6811733316
 20
9.9188378294
 11
-2.6996183724
 21
9.85
  0
LWPOLYLINE
  5
3D0
100
AcDbEntity
  8
C_COPERCHIO
100
AcDbPolyline
 62
250
  6
CONTINUOUS
 90
11
 70
0
 10
3.9778590634
 20
23.3730243619
 10
3.9939197973
 20
23.4093638527
 10
4.0085430512
 20
23.4435213072
 10
4.0218156906
 20
23.4753981227
 10
4.0334345854
 20
23.5047770366
 10
4.0433300248
 20
23.531579922
 10
4.0515717196
 20
23.5558190979
 10
4.0580656732
 20
23.577483342
 10
4.0627805533
 20
23.5966036497
 10
4.0657476921
 20
23.6132445837
 10
4.0669670897
 20
23.6274827185
  0
LWPOLYLINE
  5
3D1
100
AcDbEntity
  8
C_COPERCHIO
100
AcDbPolyline
 62
250
  6
CONTINUOUS
 90
4
 70
0
 10
3.8834971643
 20
23.1690100818
 10
3.9038681573
 20
23.2117714252
 10
3.9234522619
 20
23.2538153258
 10
3.9778590634
 20
23.3730243619
  0
LWPOLYLINE
  5
3D2
100
AcDbEntity
  8
C_COPERCHIO
100
AcDbPolyline
 62
7
  6
CONTINUOUS
 90
4
 70
0
 10
7.7113734643
 20
21.4310795752
 10
7.7369251224
 20
21.4679562732
 10
7.761565504
 20
21.5038484957
 10
7.8079061647
 20
21.5720886589
  0
LINE
  5
3D3
100
AcDbEntity
  8
C_COPERCHIO
100
AcDbLine
 62
7
  6
CONTINUOUS
 10
7.6281507071
 20
21.3122422671
 11
7.7113734643
 21
21.4310795752
  0
LINE
  5
3D4
100
AcDbEntity
  8
C_COPERCHIO
100
AcDbLine
 62
7
  6
CONTINUOUS
 10
7.5666456542
 20
21.2252970227
 11
7.6281507071
 21
21.3122422671
  0
LWPOLYLINE
  5
3D5
100
AcDbEntity
  8
C_CORPO
100
AcDbPolyline
 62
7
  6
CONTINUOUS
 90
10
 70
0
 10
10.6932355164
 20
9.8012392344
 10
10.6934278282
 20
9.801301734
 10
10.6936027284
 20
9.8014048261
 10
10.6937601137
 20
9.8015485108
 10
10.6938998259
 20
9.8017324341
 10
10.6940218349
 20
9.8019569499
 10
10.6941261623
 20
9.8022231201
 10
10.6942126717
 20
9.8025312986
 10
10.6942811456
 20
9.8028811315
 10
10.6943314155
 20
9.8032726188
  0
LWPOLYLINE
  5
3D6
100
AcDbEntity
  8
C_CONTATTI
100
AcDbPolyline
 62
7
  6
CONTINUOUS
 90
16
 70
0
 10
8.95
 20
8.8234547798
 10
8.7677437781
 20
8.7656058782
 10
8.5902711363
 20
8.7109273896
 10
8.4175820744
 20
8.659419314
 10
8.2503774583
 20
8.6112818487
 10
8.0879564221
 20
8.5663147965
 10
7.9282163693
 20
8.5239175649
 10
7.7709329465
 20
8.4839679601
 10
7.616330507
 20
8.446588176
 10
7.4629795137
 20
8.4115442019
 10
7.3107433106
 20
8.37875301
 10
7.1597585538
 20
8.348297628
 10
7.0090056738
 20
8.3201931287
 10
6.8581448142
 20
8.2944445364
 10
6.7075158315
 20
8.2710468269
 10
6.5571187256
 20
8.25
  0
LWPOLYLINE
  5
3D7
100
AcDbEntity
  8
C_CONTATTI
100
AcDbPolyline
 62
7
  6
CONTINUOUS
 90
9
 70
0
 10
2.378073019
 20
-6.8543140426
 10
2.420787152
 20
-6.865165932
 10
2.560074227
 20
-6.90196939
 10
2.700907983
 20
-6.9405708391
 10
2.8437409829
 20
-6.9810966031
 10
2.9899309156
 20
-7.0239256537
 10
3.1399303442
 20
-7.0691843149
 10
3.2932867057
 20
-7.1167462628
 10
3.45
 20
-7.1666114973
  0
LWPOLYLINE
  5
3D8
100
AcDbEntity
  8
C_CONTATTI
100
AcDbPolyline
 62
7
  6
CONTINUOUS
 90
6
 70
0
 10
3.45
 20
-7.1666114973
 10
3.4679424284
 20
-7.1721524429
 10
3.4855982418
 20
-7.1770489005
 10
3.5028324667
 20
-7.18130087
 10
3.51949909
 20
-7.1849128596
 10
3.5327579255
 20
-7.1873713881
  0
LINE
  5
3D9
100
AcDbEntity
  8
C_COPERCHIO
100
AcDbLine
 62
7
  6
CONTINUOUS
 10
7.6281640716
 20
-21.3122613247
 11
7.5666456542
 21
-21.2252970227
  0
LWPOLYLINE
  5
3DA
100
AcDbEntity
  8
C_COPERCHIO
100
AcDbPolyline
 62
7
  6
CONTINUOUS
 90
3
 70
0
 10
7.736932534
 20
-21.4679670057
 10
7.7113845494
 20
-21.4310954671
 10
7.6281640716
 20
-21.3122613247
  0
LWPOLYLINE
  5
3DB
100
AcDbEntity
  8
C_COPERCHIO
100
AcDbPolyline
 62
7
  6
CONTINUOUS
 90
3
 70
0
 10
7.8079061647
 20
-21.5720886589
 10
7.7852281955
 20
-21.5385690635
 10
7.736932534
 20
-21.4679670057
  0
LWPOLYLINE
  5
3DC
100
AcDbEntity
  8
C_CORPO
100
AcDbPolyline
 62
250
  6
CONTINUOUS
 90
16
 70
0
 10
-10.3679296256
 20
6.5639620454
 10
-10.3556351342
 20
6.5444878339
 10
-10.3427189998
 20
6.5242382443
 10
-10.3290694838
 20
6.5030519159
 10
-10.3146304776
 20
6.480878594
 10
-10.2994198084
 20
6.4577773489
 10
-10.2834337802
 20
6.4337498442
 10
-10.2665729641
 20
6.408691957
 10
-10.2488899339
 20
6.3827185247
 10
-10.2306155727
 20
6.3561563877
 10
-10.2116856138
 20
6.3289458008
 10
-10.1921256532
 20
6.3011555567
 10
-10.1723217912
 20
6.273298483
 10
-10.1523022171
 20
6.245419124
 10
-10.1320253422
 20
6.2174758148
 10
-10.0916937309
 20
6.1626129759
  0
LINE
  5
3DD
100
AcDbEntity
  8
C_CORPO
100
AcDbLine
 62
250
  6
CONTINUOUS
 10
-10.390724251
 20
6.6005967671
 11
-10.3679296256
 21
6.5639620454
  0
LINE
  5
3DE
100
AcDbEntity
  8
C_CORPO
100
AcDbLine
 62
250
  6
CONTINUOUS
 10
-10.4114305687
 20
6.634513312
 11
-10.390724251
 21
6.6005967671
  0
LINE
  5
3DF
100
AcDbEntity
  8
C_CORPO
100
AcDbLine
 62
250
  6
CONTINUOUS
 10
-10.4301886684
 20
6.6657936655
 11
-10.4114305687
 21
6.634513312
  0
LWPOLYLINE
  5
3E0
100
AcDbEntity
  8
C_CORPO
100
AcDbPolyline
 62
7
  6
CONTINUOUS
 90
6
 70
0
 10
-10.5813366527
 20
6.9317356324
 10
-10.5743397632
 20
6.9199018903
 10
-10.5673977419
 20
6.9083568418
 10
-10.5601633465
 20
6.8965204408
 10
-10.5526485865
 20
6.8844211182
 10
-10.5448494239
 20
6.8720621275
  0
LINE
  5
3E1
100
AcDbEntity
  8
C_CORPO
100
AcDbLine
 62
250
  6
CONTINUOUS
 10
-10.4469983297
 20
6.6943123538
 11
-10.4301886684
 21
6.6657936655
  0
LINE
  5
3E2
100
AcDbEntity
  8
C_CORPO
100
AcDbLine
 62
250
  6
CONTINUOUS
 10
-10.4618707767
 20
6.7199445407
 11
-10.4469983297
 21
6.6943123538
  0
LINE
  5
3E3
100
AcDbEntity
  8
C_CORPO
100
AcDbLine
 62
250
  6
CONTINUOUS
 10
2.7498952884
 20
-15.25
 11
3.2468906945
 21
-16.1108540731
  0
LINE
  5
3E4
100
AcDbEntity
  8
C_CORPO
100
AcDbLine
 62
250
  6
CONTINUOUS
 10
-10.4749077871
 20
6.7427520684
 11
-10.4618707767
 21
6.7199445407
  0
LINE
  5
3E5
100
AcDbEntity
  8
C_CORPO
100
AcDbLine
 62
250
  6
CONTINUOUS
 10
-10.4863534923
 20
6.7630493076
 11
-10.4749077871
 21
6.7427520684
  0
LINE
  5
3E6
100
AcDbEntity
  8
C_CORPO
100
AcDbLine
 62
250
  6
CONTINUOUS
 10
-10.496415753
 20
6.7811154192
 11
-10.4863534923
 21
6.7630493076
  0
LINE
  5
3E7
100
AcDbEntity
  8
C_CORPO
100
AcDbLine
 62
250
  6
CONTINUOUS
 10
-10.5052285228
 20
6.7971278103
 11
-10.496415753
 21
6.7811154192
  0
LINE
  5
3E8
100
AcDbEntity
  8
C_CORPO
100
AcDbLine
 62
250
  6
CONTINUOUS
 10
-10.512977996
 20
6.8113613835
 11
-10.5052285228
 21
6.7971278103
  0
LINE
  5
3E9
100
AcDbEntity
  8
C_CORPO
100
AcDbLine
 62
250
  6
CONTINUOUS
 10
-10.5228255576
 20
6.8296806037
 11
-10.512977996
 21
6.8113613835
  0
LINE
  5
3EA
100
AcDbEntity
  8
C_CORPO
100
AcDbLine
 62
250
  6
CONTINUOUS
 10
-10.5282856416
 20
6.8399627233
 11
-10.5228255576
 21
6.8296806037
  0
LINE
  5
3EB
100
AcDbEntity
  8
C_CORPO
100
AcDbLine
 62
250
  6
CONTINUOUS
 10
-10.5349075561
 20
6.8525845398
 11
-10.5282856416
 21
6.8399627233
  0
LINE
  5
3EC
100
AcDbEntity
  8
C_CORPO
100
AcDbLine
 62
250
  6
CONTINUOUS
 10
-10.5398110163
 20
6.862073208
 11
-10.5349075561
 21
6.8525845398
  0
LWPOLYLINE
  5
3ED
100
AcDbEntity
  8
C_CORPO
100
AcDbPolyline
 62
250
  6
CONTINUOUS
 90
4
 70
0
 10
-10.5448494239
 20
6.8720621275
 10
-10.5441243052
 20
6.8705881703
 10
-10.5432543324
 20
6.8688499685
 10
-10.5398110163
 20
6.862073208
  0
LWPOLYLINE
  5
3EE
100
AcDbEntity
  8
C_COPERCHIO
100
AcDbPolyline
 62
250
  6
CONTINUOUS
 90
3
 70
0
 10
3.9232413705
 20
-23.2533688564
 10
3.9037271914
 20
-23.2114717421
 10
3.8834632412
 20
-23.168936633
  0
LINE
  5
3EF
100
AcDbEntity
  8
C_CONTATTI
100
AcDbLine
 62
250
  6
CONTINUOUS
 10
-8.4223036322
 20
9.8911112606
 11
-8.5237436935
 21
10.2696907236
  0
LINE
  5
3F0
100
AcDbEntity
  8
C_CONTATTI
100
AcDbLine
 62
7
  6
CONTINUOUS
 10
-8.3188266684
 20
9.9188378294
 11
-8.3003816276
 21
9.85
  0
LINE
  5
3F1
100
AcDbEntity
  8
C_CORPO
100
AcDbLine
 62
250
  6
CONTINUOUS
 10
-5.2669146258
 20
10.907553804
 11
-5.2635028361
 21
10.8715294105
  0
LINE
  5
3F2
100
AcDbEntity
  8
C_CORPO
100
AcDbLine
 62
250
  6
CONTINUOUS
 10
-5.2635028361
 20
10.8715294105
 11
-5.2511381544
 21
10.7424784876
  0
LINE
  5
3F3
100
AcDbEntity
  8
C_CONTATTI
100
AcDbLine
 62
7
  6
CONTINUOUS
 10
-4.6770402437
 20
14.7580058088
 11
-4.6770402437
 21
14.8121699176
  0
LINE
  5
3F4
100
AcDbEntity
  8
C_COPERCHIO
100
AcDbLine
 62
7
  6
CONTINUOUS
 10
-4.4
 20
23.600030461
 11
-4.4
 21
22.4
  0
LINE
  5
3F5
100
AcDbEntity
  8
C_COPERCHIO
100
AcDbLine
 62
7
  6
CONTINUOUS
 10
-4.4
 20
-23.600030461
 11
-4.4
 21
-22.4
  0
LINE
  5
3F6
100
AcDbEntity
  8
C_COPERCHIO
100
AcDbLine
 62
250
  6
CONTINUOUS
 10
-4.2669366287
 20
-22.2669366287
 11
-4.2669366287
 21
-23.4440939707
  0
LINE
  5
3F7
100
AcDbEntity
  8
C_COPERCHIO
100
AcDbLine
 62
250
  6
CONTINUOUS
 10
-4.2669366287
 20
22.2669366287
 11
-4.2669366287
 21
23.4440939707
  0
LINE
  5
3F8
100
AcDbEntity
  8
C_CONTATTI
100
AcDbLine
 62
7
  6
CONTINUOUS
 10
-4.0
 20
10.0361255297
 11
-4.0
 21
8.3186560606
  0
LINE
  5
3F9
100
AcDbEntity
  8
C_CORPO
100
AcDbLine
 62
7
  6
CONTINUOUS
 10
-4.0
 20
-7.6986121811
 11
-4.0
 21
-9.5013878189
  0
LINE
  5
3FA
100
AcDbEntity
  8
C_CONTATTI
100
AcDbLine
 62
7
  6
CONTINUOUS
 10
-3.9892396941
 20
14.7608413094
 11
-3.9892396941
 21
14.8093228724
  0
LINE
  5
3FB
100
AcDbEntity
  8
C_CONTATTI
100
AcDbLine
 62
7
  6
CONTINUOUS
 10
-3.75
 20
10.1810513336
 11
-3.75
 21
8.3665003775
  0
LINE
  5
3FC
100
AcDbEntity
  8
C_CONTATTI
100
AcDbLine
 62
7
  6
CONTINUOUS
 10
-3.65
 20
-8.8234547798
 11
-3.65
 21
-7.2810452113
  0
LINE
  5
3FD
100
AcDbEntity
  8
C_CONTATTI
100
AcDbLine
 62
250
  6
CONTINUOUS
 10
-3.59
 20
-9.84
 11
-3.59
 21
-9.9689471305
  0
LINE
  5
3FE
100
AcDbEntity
  8
C_COPERCHIO
100
AcDbLine
 62
7
  6
CONTINUOUS
 10
-3.5
 20
20.0445070257
 11
-3.5
 21
20.0
  0
LINE
  5
3FF
100
AcDbEntity
  8
C_COPERCHIO
100
AcDbLine
 62
7
  6
CONTINUOUS
 10
-3.5
 20
-20.0445070257
 11
-3.5
 21
-20.0
  0
LINE
  5
400
100
AcDbEntity
  8
C_COPERCHIO
100
AcDbLine
 62
7
  6
CONTINUOUS
 10
-3.5
 20
-22.2670534547
 11
-3.5
 21
-23.7825449351
  0
LINE
  5
401
100
AcDbEntity
  8
C_COPERCHIO
100
AcDbLine
 62
7
  6
CONTINUOUS
 10
-3.5
 20
22.2670534547
 11
-3.5
 21
23.7825449351
  0
LINE
  5
402
100
AcDbEntity
  8
C_CONTATTI
100
AcDbLine
 62
250
  6
CONTINUOUS
 10
-3.45
 20
-8.8234547798
 11
-3.45
 21
-7.1666114973
  0
LWPOLYLINE
  5
403
100
AcDbEntity
  8
C_COPERCHIO
100
AcDbPolyline
 62
250
  6
CONTINUOUS
 90
7
 70
0
 10
-4.0669670897
 20
-23.6274827185
 10
-4.0672881941
 20
-23.6395573066
 10
-4.0676140612
 20
-23.6496142753
 10
-4.0679446912
 20
-23.6576103932
 10
-4.0682800839
 20
-23.6635112633
 10
-4.0686202393
 20
-23.6672914715
 10
-4.0689651576
 20
-23.6689346966
  0
LINE
  5
404
100
AcDbEntity
  8
C_CORPO
100
AcDbLine
 62
7
  6
CONTINUOUS
 10
-2.2599271858
 20
16.022779523
 11
-2.2531093055
 21
16.1108540731
  0
LINE
  5
405
100
AcDbEntity
  8
C_CONTATTI
100
AcDbLine
 62
250
  6
CONTINUOUS
 10
-2.5776963678
 20
9.8911112606
 11
-2.4762563065
 21
10.2696907236
  0
LINE
  5
406
100
AcDbEntity
  8
C_CORPO
100
AcDbLine
 62
250
  6
CONTINUOUS
 10
5.4763537837
 20
11.1207475964
 11
5.2669146258
 21
10.907553804
  0
LINE
  5
407
100
AcDbEntity
  8
C_CORPO
100
AcDbLine
 62
250
  6
CONTINUOUS
 10
9.9600444136
 20
16.241424784
 11
9.7413991526
 21
16.022779523
  0
LINE
  5
408
100
AcDbEntity
  8
C_CORPO
100
AcDbLine
 62
250
  6
CONTINUOUS
 10
5.0346532229
 20
10.5364430177
 11
5.2511381545
 21
10.7424784875
  0
LWPOLYLINE
  5
409
100
AcDbEntity
  8
C_CORPO
100
AcDbPolyline
 62
250
  6
CONTINUOUS
 90
58
 70
0
 10
5.9570162364
 20
10.7266667062
 10
5.9470161798
 20
10.7172338047
 10
5.936745299
 20
10.7080623157
 10
5.9262105155
 20
10.6991618608
 10
5.9154153635
 20
10.6905386284
 10
5.9043694144
 20
10.6822032473
 10
5.8930891674
 20
10.6741705765
 10
5.8815824624
 20
10.6664477666
 10
5.8698574531
 20
10.6590417539
 10
5.8579325798
 20
10.651965372
 10
5.8458170647
 20
10.6452245026
 10
5.8335199398
 20
10.6388243596
 10
5.8210604125
 20
10.6327749169
 10
5.8084504828
 20
10.6270812675
 10
5.7956980823
 20
10.6217460285
 10
5.7828168769
 20
10.6167741738
 10
5.76982058
 20
10.6121698912
 10
5.7567161366
 20
10.6079342553
 10
5.743506948
 20
10.6040677187
 10
5.7302031309
 20
10.6005729501
 10
5.7168151339
 20
10.5974520842
 10
5.7033465143
 20
10.5947058535
 10
5.6898056466
 20
10.5923363331
 10
5.6762048314
 20
10.5903456992
 10
5.6625533744
 20
10.5887354835
 10
5.6488610735
 20
10.5875072215
 10
5.6351391257
 20
10.5866619471
 10
5.6213989351
 20
10.5862004651
 10
5.6076511602
 20
10.5861233728
 10
5.5939063098
 20
10.5864306267
 10
5.5801755685
 20
10.5871219386
 10
5.5664694142
 20
10.5881969328
 10
5.5527985004
 20
10.5896546063
 10
5.5391742612
 20
10.5914935578
 10
5.5256077982
 20
10.5937122791
 10
5.5121088903
 20
10.5963088755
 10
5.4986869688
 20
10.5992812716
 10
5.4853541953
 20
10.6026267283
 10
5.4721188937
 20
10.6063428702
 10
5.4589848558
 20
10.6104286207
 10
5.445962585
 20
10.6148812515
 10
5.4330619084
 20
10.619697759
 10
5.4202859221
 20
10.6248775367
 10
5.4076416812
 20
10.6304190582
 10
5.3951425376
 20
10.6363176893
 10
5.3828010917
 20
10.6425681942
 10
5.3706250113
 20
10.6491676807
 10
5.3586262841
 20
10.6561105968
 10
5.3468232926
 20
10.6633863555
 10
5.335224698
 20
10.6709894624
 10
5.3238396967
 20
10.6789137217
 10
5.3126862293
 20
10.6871454903
 10
5.3017721336
 20
10.6956774846
 10
5.2911051206
 20
10.7045022617
 10
5.280701173
 20
10.7136041773
 10
5.2705694061
 20
10.7229721561
 10
5.2607129574
 20
10.7326002168
 10
5.2511382627
 20
10.7424785905
  0
LWPOLYLINE
  5
40A
100
AcDbEntity
  8
C_CORPO
100
AcDbPolyline
 62
250
  6
CONTINUOUS
 90
58
 70
0
 10
6.164058233
 20
10.5111440349
 10
6.1480551142
 20
10.4961775464
 10
6.1316371722
 20
10.481651104
 10
6.1148044071
 20
10.4675647077
 10
6.0975391908
 20
10.4539013783
 10
6.0798591512
 20
10.4406780949
 10
6.0618171724
 20
10.4279457953
 10
6.0434119744
 20
10.4157080533
 10
6.024644837
 20
10.403961295
 10
6.0055724836
 20
10.3927457367
 10
5.9861934168
 20
10.3820645033
 10
5.9665091341
 20
10.3719144699
 10
5.9465808507
 20
10.3623264782
 10
5.9264108977
 20
10.3533046672
 10
5.9059969442
 20
10.3448448978
 10
5.8853932124
 20
10.3369655951
 10
5.8646049812
 20
10.3296699457
 10
5.8436269718
 20
10.322954763
 10
5.8224975704
 20
10.3168289113
 10
5.8012166661
 20
10.3112925907
 10
5.7797843699
 20
10.3063456012
 10
5.7582393999
 20
10.3019962078
 10
5.7365785609
 20
10.2982445888
 10
5.7148050481
 20
10.2950905659
 10
5.6929671663
 20
10.292541869
 10
5.6710636703
 20
10.2905998375
 10
5.6490958054
 20
10.289263132
 10
5.6271156112
 20
10.2885354636
 10
5.6051231875
 20
10.2884184496
 10
5.5831184346
 20
10.2889104727
 10
5.5611530929
 20
10.290010392
 10
5.5392271059
 20
10.2917198345
 10
5.51734053
 20
10.2940371732
 10
5.4955452761
 20
10.2969563871
 10
5.4738425779
 20
10.3004787909
 10
5.4522312015
 20
10.3046030698
 10
5.4307593559
 20
10.3093192582
 10
5.4094301925
 20
10.3146274487
 10
5.3882405599
 20
10.3205275488
 10
5.367229213
 20
10.3270093147
 10
5.3463965661
 20
10.3340728508
 10
5.3257422049
 20
10.3417180528
 10
5.3053036404
 20
10.3499343634
 10
5.2850760139
 20
10.3587249795
 10
5.265064184
 20
10.3680867041
 10
5.2453202387
 20
10.3779993898
 10
5.2258417533
 20
10.388467289
 10
5.2066311524
 20
10.3994861492
 10
5.1877477972
 20
10.4110230652
 10
5.1691930652
 20
10.4230812226
 10
5.150965579
 20
10.4356574358
 10
5.1331205669
 20
10.4487092422
 10
5.11565939
 20
10.4622402502
 10
5.0985806873
 20
10.4762468515
 10
5.0819356047
 20
10.4906757577
 10
5.0657411907
 20
10.5055092061
 10
5.0499803968
 20
10.5207649594
 10
5.0346532229
 20
10.5364430177
  0
LWPOLYLINE
  5
40B
100
AcDbEntity
  8
C_CORPO
100
AcDbPolyline
 62
250
  6
CONTINUOUS
 90
49
 70
0
 10
5.7488761714
 20
11.114435763
 10
5.7441351211
 20
11.1103234597
 10
5.739277967
 20
11.1063689949
 10
5.7343047092
 20
11.1025723684
 10
5.7292099856
 20
11.0989299555
 10
5.7239991583
 20
11.095445381
 10
5.7186883128
 20
11.0921295193
 10
5.7132774124
 20
11.0889830964
 10
5.7077664938
 20
11.0860053862
 10
5.7021717526
 20
11.0832050853
 10
5.6964929761
 20
11.0805827345
 10
5.690730377
 20
11.078137793
 10
5.6849007895
 20
11.0758773343
 10
5.6790040388
 20
11.0738018962
 10
5.6730402996
 20
11.0719109409
 10
5.6670269302
 20
11.0702099293
 10
5.6609637607
 20
11.0686994051
 10
5.654850961
 20
11.0673788246
 10
5.648706399
 20
11.0662520179
 10
5.6425300004
 20
11.0653195511
 10
5.6363218395
 20
11.0645808581
 10
5.6301000068
 20
11.0640380701
 10
5.6238644558
 20
11.0636917545
 10
5.617615233
 20
11.063541344
 10
5.6113705674
 20
11.0635872682
 10
5.6051304917
 20
11.0638300934
 10
5.5988949733
 20
11.0642692533
 10
5.5926821432
 20
11.0649034792
 10
5.586492045
 20
11.0657333371
 10
5.5803246351
 20
11.066758261
 10
5.5741979142
 20
11.0679752845
 10
5.5681120062
 20
11.0693849635
 10
5.5620667872
 20
11.0709867421
 10
5.5560798853
 20
11.072775986
 10
5.5501514521
 20
11.0747532466
 10
5.544281336
 20
11.0769179724
 10
5.5384867103
 20
11.0792638754
 10
5.5327678194
 20
11.0817914695
 10
5.5271244188
 20
11.0845002408
 10
5.5215729486
 20
11.0873823592
 10
5.5161136508
 20
11.0904383387
 10
5.5107462834
 20
11.0936676654
 10
5.5054865595
 20
11.0970609668
 10
5.5003347678
 20
11.1006187447
 10
5.4952906196
 20
11.1043404973
 10
5.4903689623
 20
11.1082153466
 10
5.4855747452
 20
11.1122396666
 10
5.480903019
 20
11.1164170832
 10
5.4763537837
 20
11.1207475964
  0
LWPOLYLINE
  5
40C
100
AcDbEntity
  8
C_CORPO
100
AcDbPolyline
 62
250
  6
CONTINUOUS
 90
49
 70
0
 10
5.9482205019
 20
10.8917743044
 10
5.9363805282
 20
10.8815913976
 10
5.9242273826
 20
10.8717822336
 10
5.911774185
 20
10.8623578877
 10
5.899033647
 20
10.853328002
 10
5.8860178848
 20
10.8447007518
 10
5.8727387644
 20
10.8364839731
 10
5.8592090049
 20
10.8286854663
 10
5.8454422165
 20
10.8213129227
 10
5.8314519693
 20
10.8143737419
 10
5.8172520916
 20
10.8078747604
 10
5.8028564846
 20
10.8018220847
 10
5.7882789397
 20
10.7962215847
 10
5.773533759
 20
10.7910787465
 10
5.7586354465
 20
10.7863983844
 10
5.7435981778
 20
10.7821850615
 10
5.7284366021
 20
10.7784429306
 10
5.7131657154
 20
10.7751754505
 10
5.6978002445
 20
10.7723858902
 10
5.6823552722
 20
10.7700770465
 10
5.6668459468
 20
10.7682509176
 10
5.6512871019
 20
10.7669093812
 10
5.6356939547
 20
10.7660538415
 10
5.620081834
 20
10.7656848677
 10
5.6044657369
 20
10.7658029598
 10
5.5888610139
 20
10.7664081134
 10
5.5732829079
 20
10.7674994497
 10
5.5577462548
 20
10.7690760939
 10
5.5422662404
 20
10.7711366584
 10
5.5268580556
 20
10.7736788398
 10
5.51153656
 20
10.77670037
 10
5.4963168178
 20
10.7801984487
 10
5.4812136578
 20
10.7841693708
 10
5.4662416217
 20
10.7886095089
 10
5.4514153928
 20
10.7935147098
 10
5.4367494383
 20
10.7988798901
 10
5.4222580336
 20
10.8047000353
 10
5.4079555188
 20
10.8109695968
 10
5.3938557066
 20
10.8176821953
 10
5.3799721629
 20
10.8248315869
 10
5.3663185371
 20
10.8324110012
 10
5.3529080818
 20
10.8404127935
 10
5.3397538663
 20
10.8488294186
 10
5.3268688344
 20
10.8576528831
 10
5.3142655701
 20
10.8668742228
 10
5.3019566853
 20
10.8764843919
 10
5.2899544607
 20
10.8864741596
 10
5.278270094
 20
10.8968338752
 10
5.2669146342
 20
10.9075538124
  0
LINE
  5
40D
100
AcDbEntity
  8
C_CORPO
100
AcDbLine
 62
250
  6
CONTINUOUS
 10
0.8162360808
 20
6.8334212823
 11
0.4851025892
 21
6.5655473725
  0
LWPOLYLINE
  5
40E
100
AcDbEntity
  8
C_CONTATTI
100
AcDbPolyline
 62
7
  6
CONTINUOUS
 90
9
 70
0
 10
8.95
 20
7.1666114973
 10
8.7932788037
 20
7.1167438457
 10
8.6399162366
 20
7.0691800531
 10
8.4899122988
 20
7.0239201196
 10
8.3437191812
 20
6.9810903264
 10
8.2008846929
 20
6.9405643923
 10
8.0600522612
 20
6.9019634731
 10
7.9207696954
 20
6.8651612874
 10
7.8780735737
 20
6.8543140088
  0
LWPOLYLINE
  5
40F
100
AcDbEntity
  8
C_CONTATTI
100
AcDbPolyline
 62
7
  6
CONTINUOUS
 90
6
 70
0
 10
8.95
 20
7.1666114973
 10
8.9679422008
 20
7.1721523609
 10
8.9855977162
 20
7.1770487499
 10
9.0028315825
 20
7.1813006644
 10
9.0194976099
 20
7.184912603
 10
9.0327580751
 20
7.187371497
  0
LINE
  5
410
100
AcDbEntity
  8
C_CORPO
100
AcDbLine
 62
250
  6
CONTINUOUS
 10
0.5779935412
 20
-6.7754329589
 11
0.3612459852
 21
-6.5696737943
  0
LINE
  5
411
100
AcDbEntity
  8
C_COPERCHIO
100
AcDbLine
 62
250
  6
CONTINUOUS
 10
3.3000190385
 20
-9.75
 11
3.2511485788
 21
-9.7011295404
  0
LINE
  5
412
100
AcDbEntity
  8
C_CORPO
100
AcDbLine
 62
250
  6
CONTINUOUS
 10
9.7413991526
 20
-16.022779523
 11
9.9600444136
 21
-16.241424784
  0
LINE
  5
413
100
AcDbEntity
  8
C_CORPO
100
AcDbLine
 62
250
  6
CONTINUOUS
 10
0.1393615328
 20
-6.188085462
 11
0.3484038204
 21
-6.4016684144
  0
LINE
  5
414
100
AcDbEntity
  8
C_CORPO
100
AcDbLine
 62
250
  6
CONTINUOUS
 10
-9.7557362871
 20
5.7274323208
 11
-9.7413991526
 21
5.709070283
  0
LINE
  5
415
100
AcDbEntity
  8
C_CORPO
100
AcDbLine
 62
250
  6
CONTINUOUS
 10
-9.9186304299
 20
5.9355519283
 11
-9.7557362871
 21
5.7274323208
  0
LINE
  5
416
100
AcDbEntity
  8
C_CORPO
100
AcDbLine
 62
250
  6
CONTINUOUS
 10
-9.9741774383
 20
6.0073006173
 11
-9.9186304299
 21
5.9355519283
  0
LINE
  5
417
100
AcDbEntity
  8
C_CORPO
100
AcDbLine
 62
250
  6
CONTINUOUS
 10
-10.0125417338
 20
6.0573905483
 11
-9.9741774383
 21
6.0073006173
  0
LINE
  5
418
100
AcDbEntity
  8
C_CORPO
100
AcDbLine
 62
250
  6
CONTINUOUS
 10
-10.0517624119
 20
6.1091739152
 11
-10.0125417338
 21
6.0573905483
  0
LINE
  5
419
100
AcDbEntity
  8
C_CORPO
100
AcDbLine
 62
250
  6
CONTINUOUS
 10
-10.0916937309
 20
6.1626129759
 11
-10.0517624119
 21
6.1091739152
  0
LWPOLYLINE
  5
41A
100
AcDbEntity
  8
C_COPERCHIO
100
AcDbPolyline
 62
250
  6
CONTINUOUS
 90
7
 70
0
 10
4.2689346966
 20
-23.4689651576
 10
4.2685929381
 20
-23.467994741
 10
4.2682546784
 20
-23.4657544119
 10
4.2679199177
 20
-23.4622441703
 10
4.2675886558
 20
-23.4574640163
 10
4.2672608928
 20
-23.4514139497
 10
4.2669366287
 20
-23.4440939707
  0
LWPOLYLINE
  5
41B
100
AcDbEntity
  8
C_CONTATTI
100
AcDbPolyline
 62
7
  6
CONTINUOUS
 90
19
 70
0
 10
-3.65
 20
-8.8234547798
 10
-3.6491935472
 20
-8.8289957255
 10
-3.6468064155
 20
-8.833892183
 10
-3.6428956466
 20
-8.8381441525
 10
-3.6375363335
 20
-8.8417561422
 10
-3.6308017374
 20
-8.8447236438
 10
-3.6227451177
 20
-8.8470331328
 10
-3.6134484262
 20
-8.8486805423
 10
-3.6029953673
 20
-8.8496699392
 10
-3.5914215914
 20
-8.85
 10
-3.5788114789
 20
-8.8496698286
 10
-3.565257598
 20
-8.8486803212
 10
-3.5507902986
 20
-8.8470328428
 10
-3.5355007196
 20
-8.8447233497
 10
-3.519497609
 20
-8.8417558856
 10
-3.5028315824
 20
-8.8381439469
 10
-3.4855977161
 20
-8.8338920325
 10
-3.4679422008
 20
-8.8289956434
 10
-3.45
 20
-8.8234547798
  0
LWPOLYLINE
  5
41C
100
AcDbEntity
  8
C_COPERCHIO
100
AcDbPolyline
 62
250
  6
CONTINUOUS
 90
12
 70
0
 10
-4.0669670897
 20
23.6274827185
 10
-4.065750163
 20
23.6132151729
 10
-4.0627768322
 20
23.5965362196
 10
-4.0580470972
 20
23.5773691396
 10
-4.0515233217
 20
23.5556415011
 10
-4.0432431421
 20
23.5313289659
 10
-4.0333194669
 20
23.5044707911
 10
-4.021696749
 20
23.4750893245
 10
-4.0084305355
 20
23.4432430479
 10
-3.9938003767
 20
23.4090912709
 10
-3.9776947312
 20
23.3726727044
 10
-3.9232413705
 20
23.2533688564
  0
LINE
  5
41D
100
AcDbEntity
  8
C_CORPO
100
AcDbLine
 62
250
  6
CONTINUOUS
 10
-2.4010050231
 20
-20.0531824733
 11
-2.4015242349
 21
-19.8844866796
  0
LINE
  5
41E
100
AcDbEntity
  8
C_CONTATTI
100
AcDbLine
 62
250
  6
CONTINUOUS
 10
-3.3105321998
 20
-9.84
 11
-3.3105321998
 21
-10.1509567884
  0
LINE
  5
41F
100
AcDbEntity
  8
C_CONTATTI
100
AcDbLine
 62
250
  6
CONTINUOUS
 10
-3.0
 20
-8.684001603
 11
-3.0
 21
-9.45
  0
LINE
  5
420
100
AcDbEntity
  8
C_COPERCHIO
100
AcDbLine
 62
7
  6
CONTINUOUS
 10
-3.0
 20
-21.0
 11
-3.0
 21
-22.276069039
  0
LINE
  5
421
100
AcDbEntity
  8
C_COPERCHIO
100
AcDbLine
 62
7
  6
CONTINUOUS
 10
-3.0
 20
21.0
 11
-3.0
 21
22.276069039
  0
LINE
  5
422
100
AcDbEntity
  8
C_CORPO
100
AcDbLine
 62
7
  6
CONTINUOUS
 10
-2.8024659223
 20
-15.0229318279
 11
-2.8024659223
 21
-14.7369096983
  0
LINE
  5
423
100
AcDbEntity
  8
C_CONTATTI
100
AcDbLine
 62
7
  6
CONTINUOUS
 10
-2.8003816276
 20
-9.45
 11
-2.8003816276
 21
-9.85
  0
LINE
  5
424
100
AcDbEntity
  8
C_CORPO
100
AcDbLine
 62
250
  6
CONTINUOUS
 10
-2.7501047116
 20
14.7894803322
 11
-2.7501047116
 21
15.25
  0
LINE
  5
425
100
AcDbEntity
  8
C_CORPO
100
AcDbLine
 62
250
  6
CONTINUOUS
 10
-2.7498952884
 20
-14.7894803322
 11
-2.7498952884
 21
-15.25
  0
LINE
  5
426
100
AcDbEntity
  8
C_CONTATTI
100
AcDbLine
 62
7
  6
CONTINUOUS
 10
-2.6996183724
 20
9.45
 11
-2.6996183724
 21
9.85
  0
LINE
  5
427
100
AcDbEntity
  8
C_CORPO
100
AcDbLine
 62
7
  6
CONTINUOUS
 10
-2.6975340777
 20
15.0229318279
 11
-2.6975340777
 21
14.7369096983
  0
LINE
  5
428
100
AcDbEntity
  8
C_CONTATTI
100
AcDbLine
 62
250
  6
CONTINUOUS
 10
-2.5
 20
8.684001603
 11
-2.5
 21
9.45
  0
LINE
  5
429
100
AcDbEntity
  8
C_CONTATTI
100
AcDbLine
 62
250
  6
CONTINUOUS
 10
-2.1894678002
 20
9.84
 11
-2.1894678002
 21
10.1509567884
  0
LINE
  5
42A
100
AcDbEntity
  8
C_CONTATTI
100
AcDbLine
 62
250
  6
CONTINUOUS
 10
-2.05
 20
8.8234547798
 11
-2.05
 21
7.1666114973
  0
LINE
  5
42B
100
AcDbEntity
  8
C_CONTATTI
100
AcDbLine
 62
250
  6
CONTINUOUS
 10
-1.91
 20
9.84
 11
-1.91
 21
9.9689471305
  0
LINE
  5
42C
100
AcDbEntity
  8
C_CONTATTI
100
AcDbLine
 62
7
  6
CONTINUOUS
 10
-1.85
 20
8.8234547798
 11
-1.85
 21
7.2810452113
  0
LINE
  5
42D
100
AcDbEntity
  8
C_CONTATTI
100
AcDbLine
 62
7
  6
CONTINUOUS
 10
-1.75
 20
-10.1810513336
 11
-1.75
 21
-8.3665003775
  0
LINE
  5
42E
100
AcDbEntity
  8
C_CORPO
100
AcDbLine
 62
250
  6
CONTINUOUS
 10
-2.4015242349
 20
19.8844866796
 11
-2.4010050231
 21
20.0531824733
  0
LWPOLYLINE
  5
42F
100
AcDbEntity
  8
C_COPERCHIO
100
AcDbPolyline
 62
250
  6
CONTINUOUS
 90
7
 70
0
 10
-4.2669366287
 20
-23.4440939707
 10
-4.2672608928
 20
-23.4514139498
 10
-4.2675886558
 20
-23.4574640164
 10
-4.2679199177
 20
-23.4622441705
 10
-4.2682546784
 20
-23.4657544121
 10
-4.2685929381
 20
-23.4679947411
 10
-4.2689346966
 20
-23.4689651576
  0
LINE
  5
430
100
AcDbEntity
  8
C_CORPO
100
AcDbLine
 62
7
  6
CONTINUOUS
 10
-3.2400728142
 20
-16.022779523
 11
-3.2468906945
 21
-16.1108540731
  0
LINE
  5
431
100
AcDbEntity
  8
C_CORPO
100
AcDbLine
 62
250
  6
CONTINUOUS
 10
-10.0829378052
 20
-19.3131096223
 11
-10.0850175454
 21
-19.3181305591
  0
LINE
  5
432
100
AcDbEntity
  8
C_COPERCHIO
100
AcDbLine
 62
7
  6
CONTINUOUS
 10
7.1775725707
 20
22.2251447178
 11
7.2427698754
 21
22.3825449351
  0
LINE
  5
433
100
AcDbEntity
  8
C_CORPO
100
AcDbLine
 62
250
  6
CONTINUOUS
 10
10.9598921082
 20
15.2415770883
 11
10.7412468478
 21
15.0229318279
  0
LINE
  5
434
100
AcDbEntity
  8
C_CORPO
100
AcDbLine
 62
250
  6
CONTINUOUS
 10
10.7412468478
 20
-15.0229318279
 11
10.9598921082
 21
-15.2415770883
  0
LINE
  5
435
100
AcDbEntity
  8
C_CORPO
100
AcDbLine
 62
250
  6
CONTINUOUS
 10
-10.0850175454
 20
19.3181305591
 11
-10.0829378052
 21
19.3131096223
  0
LINE
  5
436
100
AcDbEntity
  8
C_COPERCHIO
100
AcDbLine
 62
7
  6
CONTINUOUS
 10
7.1775725707
 20
-22.2251447178
 11
7.2427698754
 21
-22.3825449351
  0
LWPOLYLINE
  5
437
100
AcDbEntity
  8
C_COPERCHIO
100
AcDbPolyline
 62
250
  6
CONTINUOUS
 90
13
 70
0
 10
4.2669366287
 20
-23.4440939707
 10
4.2644278921
 20
-23.4355871505
 10
4.2581932337
 20
-23.4255546368
 10
4.2482296588
 20
-23.4139964297
 10
4.234591852
 20
-23.4008984596
 10
4.2173445487
 20
-23.3862747961
 10
4.1965206162
 20
-23.3701676473
 10
4.1722238513
 20
-23.352528062
 10
4.1446352762
 20
-23.3334049915
 10
4.1139199238
 20
-23.3129874977
 10
4.0802409943
 20
-23.2911425485
 10
4.0439751338
 20
-23.268003176
 10
4.0057035837
 20
-23.2441575383
  0
LWPOLYLINE
  5
438
100
AcDbEntity
  8
C_CORPO
100
AcDbPolyline
 62
7
  6
CONTINUOUS
 90
34
 70
0
 10
-0.6
 20
6.1339340044
 10
-0.6011843672
 20
6.1495359854
 10
-0.6019925877
 20
6.1650049066
 10
-0.6024365902
 20
6.1803323317
 10
-0.6025304793
 20
6.1955060829
 10
-0.6022843092
 20
6.2105232847
 10
-0.6017029939
 20
6.2253898385
 10
-0.6007972516
 20
6.2400983238
 10
-0.5995784535
 20
6.254643234
 10
-0.5980504749
 20
6.2690331823
 10
-0.5962230159
 20
6.2832622749
 10
-0.5941063169
 20
6.2973253293
 10
-0.5917029681
 20
6.3112317839
 10
-0.5890216077
 20
6.3249769396
 10
-0.5860714345
 20
6.3385558701
 10
-0.5828539217
 20
6.3519773427
 10
-0.5793767918
 20
6.3652373142
 10
-0.5756483065
 20
6.3783313142
 10
-0.5716690272
 20
6.3912670701
 10
-0.5674458818
 20
6.4040410134
 10
-0.5629863345
 20
6.4166490357
 10
-0.5582902777
 20
6.4290976068
 10
-0.5533639655
 20
6.441383516
 10
-0.5482142088
 20
6.4535029213
 10
-0.542840508
 20
6.4654608716
 10
-0.5372486137
 20
6.4772543325
 10
-0.5314447822
 20
6.4888797587
 10
-0.5254282726
 20
6.500340952
 10
-0.5192043586
 20
6.5116351545
 10
-0.5127789325
 20
6.522758902
 10
-0.5061513995
 20
6.5337144727
 10
-0.4993249417
 20
6.5445005032
 10
-0.4923068978
 20
6.5551123745
 10
-0.4851025892
 20
6.5655473725
  0
LINE
  5
439
100
AcDbEntity
  8
C_CORPO
100
AcDbLine
 62
250
  6
CONTINUOUS
 10
-0.3484038204
 20
-10.7983315856
 11
-0.3612459852
 21
-10.6303262067
  0
LINE
  5
43A
100
AcDbEntity
  8
C_CORPO
100
AcDbLine
 62
250
  6
CONTINUOUS
 10
0.3484038204
 20
-6.4016684144
 11
0.3612459852
 21
-6.5696737933
  0
LINE
  5
43B
100
AcDbEntity
  8
C_CONTATTI
100
AcDbLine
 62
7
  6
CONTINUOUS
 10
-1.5107603059
 20
-14.7608413094
 11
-1.5107603059
 21
-14.8093228724
  0
LINE
  5
43C
100
AcDbEntity
  8
C_CORPO
100
AcDbLine
 62
7
  6
CONTINUOUS
 10
-1.5
 20
9.5013878189
 11
-1.5
 21
7.6986121811
  0
LINE
  5
43D
100
AcDbEntity
  8
C_CONTATTI
100
AcDbLine
 62
7
  6
CONTINUOUS
 10
-1.5
 20
-10.0361255297
 11
-1.5
 21
-8.3186560606
  0
LINE
  5
43E
100
AcDbEntity
  8
C_CONTATTI
100
AcDbLine
 62
7
  6
CONTINUOUS
 10
-0.8229597563
 20
-14.7580058088
 11
-0.8229597563
 21
-14.8121699176
  0
LINE
  5
43F
100
AcDbEntity
  8
C_CORPO
100
AcDbLine
 62
7
  6
CONTINUOUS
 10
-0.6
 20
6.173118547
 11
-0.6
 21
5.9
  0
LINE
  5
440
100
AcDbEntity
  8
C_CONTATTI
100
AcDbLine
 62
7
  6
CONTINUOUS
 10
-0.1187662117
 20
-14.7569319361
 11
-0.1187662117
 21
-14.8132473424
  0
LINE
  5
441
100
AcDbEntity
  8
C_CONTATTI
100
AcDbLine
 62
7
  6
CONTINUOUS
 10
0.1187662117
 20
-14.8132473424
 11
0.1187662117
 21
-14.7569319361
  0
LWPOLYLINE
  5
442
100
AcDbEntity
  8
C_CORPO
100
AcDbPolyline
 62
7
  6
CONTINUOUS
 90
34
 70
0
 10
0.6
 20
6.1339340044
 10
0.6011843672
 20
6.1495359854
 10
0.6019925877
 20
6.1650049066
 10
0.6024365902
 20
6.1803323317
 10
0.6025304793
 20
6.1955060829
 10
0.6022843092
 20
6.2105232847
 10
0.6017029939
 20
6.2253898385
 10
0.6007972516
 20
6.2400983238
 10
0.5995784535
 20
6.254643234
 10
0.5980504749
 20
6.2690331823
 10
0.5962230159
 20
6.2832622749
 10
0.5941063169
 20
6.2973253293
 10
0.5917029681
 20
6.3112317839
 10
0.5890216077
 20
6.3249769396
 10
0.5860714345
 20
6.3385558701
 10
0.5828539217
 20
6.3519773427
 10
0.5793767918
 20
6.3652373142
 10
0.5756483065
 20
6.3783313142
 10
0.5716690272
 20
6.3912670701
 10
0.5674458818
 20
6.4040410134
 10
0.5629863345
 20
6.4166490357
 10
0.5582902777
 20
6.4290976068
 10
0.5533639655
 20
6.441383516
 10
0.5482142088
 20
6.4535029213
 10
0.542840508
 20
6.4654608716
 10
0.5372486137
 20
6.4772543325
 10
0.5314447822
 20
6.4888797587
 10
0.5254282726
 20
6.500340952
 10
0.5192043586
 20
6.5116351545
 10
0.5127789325
 20
6.522758902
 10
0.5061513995
 20
6.5337144727
 10
0.4993249417
 20
6.5445005032
 10
0.4923068978
 20
6.5551123745
 10
0.4851025892
 20
6.5655473725
  0
LWPOLYLINE
  5
443
100
AcDbEntity
  8
C_CORPO
100
AcDbPolyline
 62
250
  6
CONTINUOUS
 90
3
 70
0
 10
-0.3484038204
 20
-6.4016684144
 10
-0.3597538408
 20
-6.5505926398
 10
-0.3612459852
 20
-6.5696737933
  0
LINE
  5
444
100
AcDbEntity
  8
C_CONTATTI
100
AcDbLine
 62
250
  6
CONTINUOUS
 10
-2.9223036322
 20
-9.8911112606
 11
-3.0237436935
 21
-10.2696907236
  0
LINE
  5
445
100
AcDbEntity
  8
C_CONTATTI
100
AcDbLine
 62
7
  6
CONTINUOUS
 10
-2.8188266684
 20
-9.9188378294
 11
-2.8003816276
 21
-9.85
  0
LINE
  5
446
100
AcDbEntity
  8
C_COPERCHIO
100
AcDbLine
 62
7
  6
CONTINUOUS
 10
-8.9
 20
-20.9
 11
-8.869620017
 21
-20.8266562329
  0
LINE
  5
447
100
AcDbEntity
  8
C_COPERCHIO
100
AcDbLine
 62
7
  6
CONTINUOUS
 10
8.869620017
 20
20.8266562329
 11
8.9
 21
20.9
  0
LINE
  5
448
100
AcDbEntity
  8
C_CORPO
100
AcDbLine
 62
250
  6
CONTINUOUS
 10
8.7468906945
 20
16.1108540731
 11
8.2498952884
 21
15.25
  0
LINE
  5
449
100
AcDbEntity
  8
C_CORPO
100
AcDbLine
 62
250
  6
CONTINUOUS
 10
5.7488761714
 20
6.085564237
 11
5.948220577
 21
6.3082257791
  0
LINE
  5
44A
100
AcDbEntity
  8
C_CORPO
100
AcDbLine
 62
250
  6
CONTINUOUS
 10
6.164058233
 20
6.6888559651
 11
5.9570163184
 21
6.4733333785
  0
LWPOLYLINE
  5
44B
100
AcDbEntity
  8
C_CORPO
100
AcDbPolyline
 62
250
  6
CONTINUOUS
 90
58
 70
0
 10
5.2511382765
 20
6.4575213969
 10
5.2607194565
 20
6.4674063427
 10
5.2705819198
 20
6.4770397568
 10
5.2807192746
 20
6.4864120948
 10
5.2911284246
 20
6.4955175716
 10
5.3018002338
 20
6.5043451065
 10
5.3127185856
 20
6.5128790714
 10
5.3238756564
 20
6.5211120722
 10
5.3352635905
 20
6.5290368233
 10
5.3468643406
 20
6.5366397249
 10
5.3586685003
 20
6.5439146292
 10
5.3706675314
 20
6.5508561453
 10
5.3828433651
 20
6.5574539411
 10
5.3951837883
 20
6.5637024907
 10
5.4076813005
 20
6.5695989802
 10
5.4203241541
 20
6.5751385682
 10
5.4330992141
 20
6.5803167661
 10
5.4459992287
 20
6.585131864
 10
5.4590212805
 20
6.5895832507
 10
5.4721556981
 20
6.5936680182
 10
5.4853918338
 20
6.59738329
 10
5.4987255457
 20
6.6007278201
 10
5.5121484338
 20
6.603699301
 10
5.5256483955
 20
6.6062949582
 10
5.5392157871
 20
6.6085126225
 10
5.5528407433
 20
6.6103504893
 10
5.566512229
 20
6.6118070423
 10
5.5802187932
 20
6.6128808299
 10
5.5939497714
 20
6.6135709442
 10
5.6076946867
 20
6.6138770056
 10
5.6214423443
 20
6.6137986736
 10
5.6351822061
 20
6.6133359925
 10
5.6489036443
 20
6.6124895724
 10
5.6625953382
 20
6.6112601542
 10
5.6762460363
 20
6.6096488447
 10
5.6898460078
 20
6.6076571967
 10
5.7033862159
 20
6.6052866262
 10
5.716854394
 20
6.6025393263
 10
5.7302421451
 20
6.5994173931
 10
5.7435460897
 20
6.5959214188
 10
5.7567559409
 20
6.5920534749
 10
5.7698614203
 20
6.5878162881
 10
5.7828588051
 20
6.5832103197
 10
5.7957412818
 20
6.578236585
 10
5.8084950163
 20
6.5728993752
 10
5.8211056371
 20
6.5672039122
 10
5.8335651099
 20
6.5611529089
 10
5.845861619
 20
6.5547515193
 10
5.8579756564
 20
6.5480098816
 10
5.8698981066
 20
6.5409333267
 10
5.8816199372
 20
6.5335278287
 10
5.8931227569
 20
6.5258062211
 10
5.9043984139
 20
6.517775485
 10
5.915439269
 20
6.5094428124
 10
5.9262289969
 20
6.5008229614
 10
5.9367580634
 20
6.4919265558
 10
5.9470227963
 20
6.4827601189
 10
5.957016258
 20
6.4733333156
  0
LWPOLYLINE
  5
44C
100
AcDbEntity
  8
C_CORPO
100
AcDbPolyline
 62
250
  6
CONTINUOUS
 90
58
 70
0
 10
5.0346532229
 20
6.6635569823
 10
5.0499910284
 20
6.6792453115
 10
5.0657616616
 20
6.6945098305
 10
5.0819651224
 20
6.7093505392
 10
5.0986185319
 20
6.7237850964
 10
5.115704769
 20
6.7377958433
 10
5.1331724706
 20
6.7513298042
 10
5.1510230348
 20
6.7643833952
 10
5.1692550635
 20
6.7769602001
 10
5.1878129986
 20
6.7890179952
 10
5.2066979771
 20
6.800553475
 10
5.225908862
 20
6.8115699448
 10
5.2453866845
 20
6.8220350974
 10
5.2651287058
 20
6.8319446508
 10
5.2851376646
 20
6.8413028869
 10
5.3053628082
 20
6.850090344
 10
5.3257996214
 20
6.858304074
 10
5.3464526195
 20
6.865947025
 10
5.3672845955
 20
6.8730085805
 10
5.3882962526
 20
6.8794887084
 10
5.4094868877
 20
6.8853874406
 10
5.4308171851
 20
6.8906942567
 10
5.4522902293
 20
6.8954089925
 10
5.4739029359
 20
6.8995318122
 10
5.4956067353
 20
6.9030526874
 10
5.5174027559
 20
6.9059702654
 10
5.5392898695
 20
6.9082858989
 10
5.5612161215
 20
6.9099936186
 10
5.5831814465
 20
6.9110917939
 10
5.60518591
 20
6.9115820552
 10
5.6271777541
 20
6.9114633242
 10
5.6491570065
 20
6.9107339945
 10
5.6711236397
 20
6.9093956724
 10
5.6930258129
 20
6.907452098
 10
5.7148621828
 20
6.9049019806
 10
5.7366340927
 20
6.9017466108
 10
5.7582937322
 20
6.8979936009
 10
5.779837982
 20
6.893642804
 10
5.8012699614
 20
6.888694367
 10
5.8225512171
 20
6.8831563427
 10
5.8436819185
 20
6.8770284396
 10
5.8646618964
 20
6.8703109491
 10
5.8854521891
 20
6.8630127982
 10
5.9060582384
 20
6.8551306377
 10
5.9264746026
 20
6.8466678169
 10
5.9466459948
 20
6.8376433102
 10
5.9665745014
 20
6.8280529851
 10
5.9862580361
 20
6.8179009741
 10
6.005635053
 20
6.8072186494
 10
6.0247038533
 20
6.7960029758
 10
6.0434661358
 20
6.7842569884
 10
6.0618654518
 20
6.7720211647
 10
6.0799003156
 20
6.759292132
 10
6.0975722129
 20
6.746073263
 10
6.1148291524
 20
6.7324151523
 10
6.1316538037
 20
6.7183346649
 10
6.1480634973
 20
6.7038149358
 10
6.164058233
 20
6.6888559651
  0
LWPOLYLINE
  5
44D
100
AcDbEntity
  8
C_CORPO
100
AcDbPolyline
 62
250
  6
CONTINUOUS
 90
49
 70
0
 10
5.4763537837
 20
6.0792524036
 10
5.4809029305
 20
6.0835828309
 10
5.4855745673
 20
6.0877601717
 10
5.490368694
 20
6.0917844259
 10
5.4952902589
 20
6.0956592206
 10
5.5003343136
 20
6.0993809288
 10
5.5054860138
 20
6.1029386694
 10
5.5107456473
 20
6.1063319388
 10
5.5161129261
 20
6.1095612407
 10
5.5215721417
 20
6.1126172046
 10
5.5271235377
 20
6.1154993182
 10
5.5327668705
 20
6.1182080938
 10
5.5384857009
 20
6.1207356985
 10
5.5442802746
 20
6.1230816182
 10
5.5501503459
 20
6.1252463669
 10
5.5560787395
 20
6.1272236538
 10
5.5620656075
 20
6.1290129274
 10
5.5681107977
 20
6.1306147391
 10
5.5741966777
 20
6.1320244527
 10
5.5803233704
 20
6.1332415118
 10
5.5864907529
 20
6.1342664727
 10
5.5926808245
 20
6.1350963692
 10
5.5988936282
 20
6.1357306351
 10
5.605129121
 20
6.1361698365
 10
5.6113691733
 20
6.1364127044
 10
5.6176138191
 20
6.1364586728
 10
5.6238630244
 20
6.1363083077
 10
5.6300985577
 20
6.135962039
 10
5.6363203718
 20
6.1354192992
 10
5.6425285139
 20
6.1346806558
 10
5.6487048945
 20
6.13374824
 10
5.6548494398
 20
6.1326214857
 10
5.6609622236
 20
6.131300959
 10
5.6670253776
 20
6.1297904905
 10
5.6730387304
 20
6.1280895374
 10
5.6790024535
 20
6.1261986424
 10
5.6848991928
 20
6.1241232643
 10
5.6907287764
 20
6.1218628642
 10
5.6964913762
 20
6.119417981
 10
5.7021701537
 20
6.116795691
 10
5.7077648952
 20
6.1139954546
 10
5.7132758144
 20
6.1110178115
 10
5.7186867145
 20
6.1078714569
 10
5.7239974984
 20
6.1045557169
 10
5.7292082632
 20
6.1010712655
 10
5.7343031035
 20
6.09742882
 10
5.7392767174
 20
6.093631953
 10
5.7441344067
 20
6.089677092
 10
5.7488761714
 20
6.085564237
  0
LWPOLYLINE
  5
44E
100
AcDbEntity
  8
C_CORPO
100
AcDbPolyline
 62
250
  6
CONTINUOUS
 90
49
 70
0
 10
5.2669146264
 20
6.2924461957
 10
5.2782699678
 20
6.3031659947
 10
5.2899542629
 20
6.3135256769
 10
5.3019565293
 20
6.3235154546
 10
5.3142654683
 20
6.3331256748
 10
5.3268687425
 20
6.3423470744
 10
5.3397537967
 20
6.3511705296
 10
5.3529080139
 20
6.3595871405
 10
5.3663184409
 20
6.3675889565
 10
5.3799720761
 20
6.3751683586
 10
5.3938556408
 20
6.3823177478
 10
5.4079554491
 20
6.3890303861
 10
5.4222579825
 20
6.3952999419
 10
5.4367494142
 20
6.401120077
 10
5.4514153729
 20
6.4064852966
 10
5.4662416186
 20
6.4113904924
 10
5.4812136742
 20
6.4158306106
 10
5.4963168294
 20
6.4198015672
 10
5.5115365753
 20
6.4232996399
 10
5.5268580837
 20
6.4263211426
 10
5.5422662658
 20
6.4288633579
 10
5.5577462818
 20
6.4309239194
 10
5.5732829436
 20
6.4325005311
 10
5.5888610511
 20
6.4335919003
 10
5.6044657784
 20
6.4341970546
 10
5.6200818909
 20
6.4343151098
 10
5.6356940308
 20
6.4339461663
 10
5.6512871903
 20
6.4330906287
 10
5.6668460413
 20
6.4317490508
 10
5.6823553784
 20
6.429922949
 10
5.6978003545
 20
6.4276141104
 10
5.7131658221
 20
6.4248245067
 10
5.7284367213
 20
6.4215570504
 10
5.7435982994
 20
6.4178149268
 10
5.7586355498
 20
6.4136015621
 10
5.7735338641
 20
6.4089212253
 10
5.7882790451
 20
6.4037784002
 10
5.8028565842
 20
6.3981778551
 10
5.8172522281
 20
6.3921251857
 10
5.8314521365
 20
6.3856261997
 10
5.8454423789
 20
6.3786869642
 10
5.8592091751
 20
6.3713144398
 10
5.8727389104
 20
6.3635159729
 10
5.8860179466
 20
6.3552992013
 10
5.8990337264
 20
6.3466719494
 10
5.9117743857
 20
6.3376419756
 10
5.9242277356
 20
6.328217439
 10
5.9363808571
 20
6.3184083301
 10
5.9482205278
 20
6.3082257242
  0
LINE
  5
44F
100
AcDbEntity
  8
C_CORPO
100
AcDbLine
 62
250
  6
CONTINUOUS
 10
-6.164058233
 20
6.6888559651
 11
-5.9570163181
 21
6.4733333788
  0
LINE
  5
450
100
AcDbEntity
  8
C_CORPO
100
AcDbLine
 62
250
  6
CONTINUOUS
 10
-5.7488761714
 20
6.085564237
 11
-5.948220577
 21
6.3082257791
  0
LINE
  5
451
100
AcDbEntity
  8
C_COPERCHIO
100
AcDbLine
 62
7
  6
CONTINUOUS
 10
-8.869620017
 20
20.8266562329
 11
-8.9
 21
20.9
  0
LINE
  5
452
100
AcDbEntity
  8
C_COPERCHIO
100
AcDbLine
 62
7
  6
CONTINUOUS
 10
8.9
 20
-20.9
 11
8.869620017
 21
-20.8266562329
  0
LINE
  5
453
100
AcDbEntity
  8
C_CONTATTI
100
AcDbLine
 62
7
  6
CONTINUOUS
 10
2.8188266684
 20
-9.9188378294
 11
2.8003816276
 21
-9.85
  0
LWPOLYLINE
  5
454
100
AcDbEntity
  8
C_COPERCHIO
100
AcDbPolyline
 62
250
  6
CONTINUOUS
 90
7
 70
0
 10
4.0689651576
 20
-23.6689346966
 10
4.0686202393
 20
-23.6672914715
 10
4.0682800839
 20
-23.6635112633
 10
4.0679446912
 20
-23.6576103932
 10
4.0676140612
 20
-23.6496142753
 10
4.0672881941
 20
-23.6395573066
 10
4.0669670897
 20
-23.6274827185
  0
LWPOLYLINE
  5
455
100
AcDbEntity
  8
C_CONTATTI
100
AcDbPolyline
 62
7
  6
CONTINUOUS
 90
19
 70
0
 10
-1.85
 20
8.8234547798
 10
-1.8508064528
 20
8.8289957255
 10
-1.8531935845
 20
8.833892183
 10
-1.8571043534
 20
8.8381441525
 10
-1.8624636665
 20
8.8417561422
 10
-1.8691982626
 20
8.8447236438
 10
-1.8772548823
 20
8.8470331328
 10
-1.8865515738
 20
8.8486805423
 10
-1.8970046327
 20
8.8496699392
 10
-1.9085784086
 20
8.85
 10
-1.9211885211
 20
8.8496698286
 10
-1.934742402
 20
8.8486803212
 10
-1.9492097014
 20
8.8470328428
 10
-1.9644992804
 20
8.8447233497
 10
-1.980502391
 20
8.8417558856
 10
-1.9971684176
 20
8.8381439469
 10
-2.0144022839
 20
8.8338920325
 10
-2.0320577992
 20
8.8289956434
 10
-2.05
 20
8.8234547798
  0
LINE
  5
456
100
AcDbEntity
  8
C_CORPO
100
AcDbLine
 62
7
  6
CONTINUOUS
 10
3.2400728142
 20
-16.022779523
 11
3.2468906945
 21
-16.1108540731
  0
LINE
  5
457
100
AcDbEntity
  8
C_CORPO
100
AcDbLine
 62
7
  6
CONTINUOUS
 10
0.6
 20
5.9
 11
0.6
 21
6.173118547
  0
LINE
  5
458
100
AcDbEntity
  8
C_CONTATTI
100
AcDbLine
 62
7
  6
CONTINUOUS
 10
0.8229597563
 20
-14.8121699176
 11
0.8229597563
 21
-14.7580058088
  0
LINE
  5
459
100
AcDbEntity
  8
C_CORPO
100
AcDbLine
 62
7
  6
CONTINUOUS
 10
1.5
 20
9.5013878189
 11
1.5
 21
7.6986121811
  0
LINE
  5
45A
100
AcDbEntity
  8
C_CONTATTI
100
AcDbLine
 62
7
  6
CONTINUOUS
 10
1.5
 20
-10.0361255297
 11
1.5
 21
-8.3186579086
  0
LINE
  5
45B
100
AcDbEntity
  8
C_CONTATTI
100
AcDbLine
 62
7
  6
CONTINUOUS
 10
1.5107603059
 20
-14.8093228724
 11
1.5107603059
 21
-14.7608413094
  0
LINE
  5
45C
100
AcDbEntity
  8
C_CONTATTI
100
AcDbLine
 62
7
  6
CONTINUOUS
 10
1.75
 20
-10.1810513336
 11
1.75
 21
-8.3665008265
  0
LINE
  5
45D
100
AcDbEntity
  8
C_CONTATTI
100
AcDbLine
 62
7
  6
CONTINUOUS
 10
1.85
 20
8.8234547798
 11
1.85
 21
7.2810452113
  0
LWPOLYLINE
  5
45E
100
AcDbEntity
  8
C_CORPO
100
AcDbPolyline
 62
250
  6
CONTINUOUS
 90
3
 70
0
 10
0.3484038204
 20
-10.7983315856
 10
0.3597538408
 20
-10.6494073602
 10
0.3612459852
 20
-10.6303262067
  0
LINE
  5
45F
100
AcDbEntity
  8
C_COPERCHIO
100
AcDbLine
 62
7
  6
CONTINUOUS
 10
-7.1775725707
 20
-22.2251447178
 11
-7.2427698754
 21
-22.3825449351
  0
LINE
  5
460
100
AcDbEntity
  8
C_CORPO
100
AcDbLine
 62
250
  6
CONTINUOUS
 10
10.0829378052
 20
19.3131096223
 11
10.0850175454
 21
19.3181305591
  0
LINE
  5
461
100
AcDbEntity
  8
C_COPERCHIO
100
AcDbLine
 62
250
  6
CONTINUOUS
 10
-8.55
 20
9.5500380769
 11
-8.5011295404
 21
9.5011676173
  0
LINE
  5
462
100
AcDbEntity
  8
C_CORPO
100
AcDbLine
 62
250
  6
CONTINUOUS
 10
-8.7468906945
 20
16.1108540731
 11
-8.2498952884
 21
15.25
  0
LINE
  5
463
100
AcDbEntity
  8
C_COPERCHIO
100
AcDbLine
 62
7
  6
CONTINUOUS
 10
-7.1775725707
 20
22.2251447178
 11
-7.2427698754
 21
22.3825449351
  0
LINE
  5
464
100
AcDbEntity
  8
C_CORPO
100
AcDbLine
 62
250
  6
CONTINUOUS
 10
10.0850175454
 20
-19.3181305591
 11
10.0829378052
 21
-19.3131096223
  0
LINE
  5
465
100
AcDbEntity
  8
C_CONTATTI
100
AcDbLine
 62
250
  6
CONTINUOUS
 10
2.9223036322
 20
-9.8911112606
 11
3.0237436935
 21
-10.2696907236
  0
LWPOLYLINE
  5
466
100
AcDbEntity
  8
C_COPERCHIO
100
AcDbPolyline
 62
250
  6
CONTINUOUS
 90
7
 70
0
 10
-4.0689651576
 20
23.6689346966
 10
-4.0686202393
 20
23.6672914715
 10
-4.0682800839
 20
23.6635112633
 10
-4.0679446912
 20
23.6576103932
 10
-4.0676140612
 20
23.6496142753
 10
-4.0672881941
 20
23.6395573066
 10
-4.0669670897
 20
23.6274827185
  0
LWPOLYLINE
  5
467
100
AcDbEntity
  8
C_COPERCHIO
100
AcDbPolyline
 62
250
  6
CONTINUOUS
 90
12
 70
0
 10
4.0669670897
 20
-23.6274827185
 10
4.065750163
 20
-23.6132151729
 10
4.0627768322
 20
-23.5965362196
 10
4.0580470972
 20
-23.5773691396
 10
4.0515233217
 20
-23.5556415011
 10
4.0432431421
 20
-23.5313289659
 10
4.0333194669
 20
-23.5044707911
 10
4.021696749
 20
-23.4750893245
 10
4.0084305355
 20
-23.4432430479
 10
3.9938003767
 20
-23.4090912709
 10
3.9776947312
 20
-23.3726727044
 10
3.9232413705
 20
-23.2533688564
  0
LINE
  5
468
100
AcDbEntity
  8
C_CORPO
100
AcDbLine
 62
7
  6
CONTINUOUS
 10
2.2599271858
 20
16.022779523
 11
2.2531093055
 21
16.1108540731
  0
LINE
  5
469
100
AcDbEntity
  8
C_CORPO
100
AcDbLine
 62
250
  6
CONTINUOUS
 10
2.4010050231
 20
20.0531824733
 11
2.4015242349
 21
19.8844866796
  0
LINE
  5
46A
100
AcDbEntity
  8
C_CONTATTI
100
AcDbLine
 62
250
  6
CONTINUOUS
 10
2.05
 20
8.8234547798
 11
2.05
 21
7.1666114973
  0
LINE
  5
46B
100
AcDbEntity
  8
C_CONTATTI
100
AcDbLine
 62
250
  6
CONTINUOUS
 10
2.1894678002
 20
9.84
 11
2.1894678002
 21
10.1509567884
  0
LINE
  5
46C
100
AcDbEntity
  8
C_CONTATTI
100
AcDbLine
 62
250
  6
CONTINUOUS
 10
2.5
 20
8.6840021607
 11
2.5
 21
9.45
  0
LINE
  5
46D
100
AcDbEntity
  8
C_CORPO
100
AcDbLine
 62
7
  6
CONTINUOUS
 10
2.6975340777
 20
15.0229318279
 11
2.6975340777
 21
14.7369096983
  0
LINE
  5
46E
100
AcDbEntity
  8
C_CONTATTI
100
AcDbLine
 62
7
  6
CONTINUOUS
 10
2.6996183724
 20
9.45
 11
2.6996183724
 21
9.85
  0
LINE
  5
46F
100
AcDbEntity
  8
C_CORPO
100
AcDbLine
 62
250
  6
CONTINUOUS
 10
2.7498952884
 20
-14.7894803322
 11
2.7498952884
 21
-15.25
  0
LINE
  5
470
100
AcDbEntity
  8
C_CORPO
100
AcDbLine
 62
250
  6
CONTINUOUS
 10
2.7501047116
 20
14.7894803322
 11
2.7501047116
 21
15.25
  0
LINE
  5
471
100
AcDbEntity
  8
C_CONTATTI
100
AcDbLine
 62
7
  6
CONTINUOUS
 10
2.8003816276
 20
-9.45
 11
2.8003816276
 21
-9.85
  0
LINE
  5
472
100
AcDbEntity
  8
C_CORPO
100
AcDbLine
 62
7
  6
CONTINUOUS
 10
2.8024659223
 20
-15.0229318279
 11
2.8024659223
 21
-14.7369096983
  0
LINE
  5
473
100
AcDbEntity
  8
C_CONTATTI
100
AcDbLine
 62
250
  6
CONTINUOUS
 10
3.0
 20
-8.6840021607
 11
3.0
 21
-9.45
  0
LINE
  5
474
100
AcDbEntity
  8
C_COPERCHIO
100
AcDbLine
 62
7
  6
CONTINUOUS
 10
3.0
 20
-21.0
 11
3.0
 21
-22.276069039
  0
LINE
  5
475
100
AcDbEntity
  8
C_COPERCHIO
100
AcDbLine
 62
7
  6
CONTINUOUS
 10
3.0
 20
21.0
 11
3.0
 21
22.276069039
  0
LINE
  5
476
100
AcDbEntity
  8
C_CONTATTI
100
AcDbLine
 62
250
  6
CONTINUOUS
 10
3.3105321998
 20
-9.84
 11
3.3105321998
 21
-10.1509567884
  0
LINE
  5
477
100
AcDbEntity
  8
C_CONTATTI
100
AcDbLine
 62
250
  6
CONTINUOUS
 10
3.45
 20
-8.8234547798
 11
3.45
 21
-7.1666114973
  0
LINE
  5
478
100
AcDbEntity
  8
C_COPERCHIO
100
AcDbLine
 62
7
  6
CONTINUOUS
 10
3.5
 20
-20.0
 11
3.5
 21
-20.0445070257
  0
LINE
  5
479
100
AcDbEntity
  8
C_COPERCHIO
100
AcDbLine
 62
7
  6
CONTINUOUS
 10
3.5
 20
-22.2670534547
 11
3.5
 21
-23.7825449351
  0
LINE
  5
47A
100
AcDbEntity
  8
C_COPERCHIO
100
AcDbLine
 62
7
  6
CONTINUOUS
 10
3.5
 20
20.0
 11
3.5
 21
20.0445070257
  0
LINE
  5
47B
100
AcDbEntity
  8
C_COPERCHIO
100
AcDbLine
 62
7
  6
CONTINUOUS
 10
3.5
 20
22.2670534547
 11
3.5
 21
23.7825449351
  0
LINE
  5
47C
100
AcDbEntity
  8
C_CONTATTI
100
AcDbLine
 62
7
  6
CONTINUOUS
 10
3.65
 20
-8.8234547798
 11
3.65
 21
-7.2810452113
  0
LINE
  5
47D
100
AcDbEntity
  8
C_CONTATTI
100
AcDbLine
 62
7
  6
CONTINUOUS
 10
3.75
 20
10.1810513336
 11
3.75
 21
8.3665008265
  0
LINE
  5
47E
100
AcDbEntity
  8
C_CORPO
100
AcDbLine
 62
250
  6
CONTINUOUS
 10
2.4015242349
 20
-19.8844866796
 11
2.4010050231
 21
-20.0531824733
  0
LWPOLYLINE
  5
47F
100
AcDbEntity
  8
C_COPERCHIO
100
AcDbPolyline
 62
250
  6
CONTINUOUS
 90
7
 70
0
 10
4.0669670897
 20
23.6274827185
 10
4.0672881941
 20
23.6395573066
 10
4.0676140612
 20
23.6496142753
 10
4.0679446912
 20
23.6576103932
 10
4.0682800839
 20
23.6635112633
 10
4.0686202393
 20
23.6672914715
 10
4.0689651576
 20
23.6689346966
  0
LWPOLYLINE
  5
480
100
AcDbEntity
  8
C_COPERCHIO
100
AcDbPolyline
 62
250
  6
CONTINUOUS
 90
7
 70
0
 10
4.2669366287
 20
23.4440939707
 10
4.2672608928
 20
23.4514139498
 10
4.2675886558
 20
23.4574640164
 10
4.2679199177
 20
23.4622441705
 10
4.2682546784
 20
23.4657544121
 10
4.2685929381
 20
23.4679947411
 10
4.2689346966
 20
23.4689651576
  0
LINE
  5
481
100
AcDbEntity
  8
C_CORPO
100
AcDbLine
 62
250
  6
CONTINUOUS
 10
-10.9598921082
 20
-15.2415770883
 11
-10.7412468478
 21
-15.0229318279
  0
LINE
  5
482
100
AcDbEntity
  8
C_CORPO
100
AcDbLine
 62
250
  6
CONTINUOUS
 10
-10.7412468478
 20
15.0229318279
 11
-10.9598921082
 21
15.2415770883
  0
LWPOLYLINE
  5
483
100
AcDbEntity
  8
C_COPERCHIO
100
AcDbPolyline
 62
250
  6
CONTINUOUS
 90
7
 70
0
 10
-4.2689346966
 20
23.4689651576
 10
-4.2685929381
 20
23.467994741
 10
-4.2682546784
 20
23.4657544119
 10
-4.2679199177
 20
23.4622441703
 10
-4.2675886558
 20
23.4574640163
 10
-4.2672608928
 20
23.4514139497
 10
-4.2669366287
 20
23.4440939707
  0
LWPOLYLINE
  5
484
100
AcDbEntity
  8
C_COPERCHIO
100
AcDbPolyline
 62
250
  6
CONTINUOUS
 90
13
 70
0
 10
-4.2669366287
 20
23.4440939707
 10
-4.2644278921
 20
23.4355871505
 10
-4.2581932337
 20
23.4255546368
 10
-4.2482296588
 20
23.4139964297
 10
-4.234591852
 20
23.4008984596
 10
-4.2173445487
 20
23.3862747961
 10
-4.1965206162
 20
23.3701676473
 10
-4.1722238513
 20
23.352528062
 10
-4.1446352762
 20
23.3334049915
 10
-4.1139199238
 20
23.3129874977
 10
-4.0802409943
 20
23.2911425485
 10
-4.0439751338
 20
23.268003176
 10
-4.0057035837
 20
23.2441575383
  0
LINE
  5
485
100
AcDbEntity
  8
C_CONTATTI
100
AcDbLine
 62
7
  6
CONTINUOUS
 10
3.9892396941
 20
14.8093228724
 11
3.9892396941
 21
14.7608413094
  0
LINE
  5
486
100
AcDbEntity
  8
C_CONTATTI
100
AcDbLine
 62
7
  6
CONTINUOUS
 10
4.0
 20
10.0361255297
 11
4.0
 21
8.3186579086
  0
LINE
  5
487
100
AcDbEntity
  8
C_CORPO
100
AcDbLine
 62
7
  6
CONTINUOUS
 10
4.0
 20
-7.6986121811
 11
4.0
 21
-9.5013878189
  0
LINE
  5
488
100
AcDbEntity
  8
C_COPERCHIO
100
AcDbLine
 62
250
  6
CONTINUOUS
 10
4.2669366287
 20
-22.2669366287
 11
4.2669366287
 21
-23.4440939707
  0
LINE
  5
489
100
AcDbEntity
  8
C_COPERCHIO
100
AcDbLine
 62
250
  6
CONTINUOUS
 10
4.2669366287
 20
22.2669366287
 11
4.2669366287
 21
23.4440939707
  0
LINE
  5
48A
100
AcDbEntity
  8
C_COPERCHIO
100
AcDbLine
 62
7
  6
CONTINUOUS
 10
4.4
 20
23.600030461
 11
4.4
 21
22.4
  0
LINE
  5
48B
100
AcDbEntity
  8
C_COPERCHIO
100
AcDbLine
 62
7
  6
CONTINUOUS
 10
4.4
 20
-23.600030461
 11
4.4
 21
-22.4
  0
LINE
  5
48C
100
AcDbEntity
  8
C_CONTATTI
100
AcDbLine
 62
7
  6
CONTINUOUS
 10
4.6770402437
 20
14.8121699176
 11
4.6770402437
 21
14.7580058088
  0
LINE
  5
48D
100
AcDbEntity
  8
C_CONTATTI
100
AcDbLine
 62
7
  6
CONTINUOUS
 10
5.3812337883
 20
14.8132473424
 11
5.3812337883
 21
14.7569319361
  0
LINE
  5
48E
100
AcDbEntity
  8
C_CONTATTI
100
AcDbLine
 62
7
  6
CONTINUOUS
 10
5.6187662117
 20
14.7569319361
 11
5.6187662117
 21
14.8132473424
  0
LINE
  5
48F
100
AcDbEntity
  8
C_CORPO
100
AcDbLine
 62
250
  6
CONTINUOUS
 10
5.948220577
 20
6.3082257791
 11
5.9549606421
 21
6.4359789238
  0
LINE
  5
490
100
AcDbEntity
  8
C_CORPO
100
AcDbLine
 62
250
  6
CONTINUOUS
 10
5.9549606421
 20
6.4359789238
 11
5.9570163185
 21
6.4733333784
  0
LINE
  5
491
100
AcDbEntity
  8
C_CORPO
100
AcDbLine
 62
250
  6
CONTINUOUS
 10
5.2669146258
 20
10.907553804
 11
5.2511381543
 21
10.7424784876
  0
LINE
  5
492
100
AcDbEntity
  8
C_CONTATTI
100
AcDbLine
 62
7
  6
CONTINUOUS
 10
8.3188266684
 20
9.9188378294
 11
8.3003816276
 21
9.85
  0
LINE
  5
493
100
AcDbEntity
  8
C_CONTATTI
100
AcDbLine
 62
250
  6
CONTINUOUS
 10
8.4223036322
 20
9.8911112606
 11
8.5237436935
 21
10.2696907236
  0
LINE
  5
494
100
AcDbEntity
  8
C_CORPO
100
AcDbLine
 62
250
  6
CONTINUOUS
 10
-2.7498952884
 20
-15.25
 11
-3.2468906945
 21
-16.1108540731
  0
LINE
  5
495
100
AcDbEntity
  8
C_CORPO
100
AcDbLine
 62
250
  6
CONTINUOUS
 10
10.4301919475
 20
6.6657991664
 11
10.4469972763
 21
6.6943105326
  0
LINE
  5
496
100
AcDbEntity
  8
C_CORPO
100
AcDbLine
 62
250
  6
CONTINUOUS
 10
10.4114375973
 20
6.6345249171
 11
10.4301919475
 21
6.6657991664
  0
LINE
  5
497
100
AcDbEntity
  8
C_CORPO
100
AcDbLine
 62
250
  6
CONTINUOUS
 10
10.3907352351
 20
6.6006145812
 11
10.4114375973
 21
6.6345249171
  0
LWPOLYLINE
  5
498
100
AcDbEntity
  8
C_CORPO
100
AcDbPolyline
 62
7
  6
CONTINUOUS
 90
6
 70
0
 10
10.5448494214
 20
6.8720621238
 10
10.5526485863
 20
6.8844211179
 10
10.5601633483
 20
6.8965204438
 10
10.5673977456
 20
6.9083568479
 10
10.5743397686
 20
6.9199018993
 10
10.581336614
 20
6.9317355663
  0
LINE
  5
499
100
AcDbEntity
  8
C_COPERCHIO
100
AcDbLine
 62
7
  6
CONTINUOUS
 10
-7.7852258515
 20
-21.5385656435
 11
-7.8079061647
 21
-21.5720886589
  0
LWPOLYLINE
  5
49A
100
AcDbEntity
  8
C_CORPO
100
AcDbPolyline
 62
250
  6
CONTINUOUS
 90
15
 70
0
 10
10.152373615
 20
6.2455180048
 10
10.1723944715
 20
6.2734001603
 10
10.1921975185
 20
6.3012571639
 10
10.2117551083
 20
6.3290451201
 10
10.2306813088
 20
6.3562513603
 10
10.2489501298
 20
6.382806467
 10
10.2666263211
 20
6.4087707963
 10
10.2834804263
 20
6.4338195316
 10
10.2994601349
 20
6.4578382501
 10
10.3146645834
 20
6.4809306679
 10
10.3290980005
 20
6.5030959237
 10
10.3427426853
 20
6.524275171
 10
10.3556545746
 20
6.5445184496
 10
10.3679454812
 20
6.5639872678
 10
10.3907352351
 20
6.6006145812
  0
LINE
  5
49B
100
AcDbEntity
  8
C_CORPO
100
AcDbLine
 62
250
  6
CONTINUOUS
 10
10.1118621405
 20
6.1899325472
 11
10.152373615
 21
6.2455180048
  0
LINE
  5
49C
100
AcDbEntity
  8
C_CORPO
100
AcDbLine
 62
250
  6
CONTINUOUS
 10
10.0717054092
 20
6.1357677513
 11
10.1118621405
 21
6.1899325472
  0
LINE
  5
49D
100
AcDbEntity
  8
C_CORPO
100
AcDbLine
 62
250
  6
CONTINUOUS
 10
10.0321155057
 20
6.0831489104
 11
10.0717054092
 21
6.1357677513
  0
LINE
  5
49E
100
AcDbEntity
  8
C_CORPO
100
AcDbLine
 62
250
  6
CONTINUOUS
 10
9.9932889237
 20
6.0321921729
 11
10.0321155057
 21
6.0831489104
  0
LINE
  5
49F
100
AcDbEntity
  8
C_CORPO
100
AcDbLine
 62
250
  6
CONTINUOUS
 10
9.9368635219
 20
5.9590218083
 11
9.9932889237
 21
6.0321921729
  0
LINE
  5
4A0
100
AcDbEntity
  8
C_CORPO
100
AcDbLine
 62
250
  6
CONTINUOUS
 10
9.8492566337
 20
5.8467613918
 11
9.9368635219
 21
5.9590218083
  0
LINE
  5
4A1
100
AcDbEntity
  8
C_CORPO
100
AcDbLine
 62
250
  6
CONTINUOUS
 10
9.7413991526
 20
5.709070283
 11
9.8492566337
 21
5.8467613918
  0
LWPOLYLINE
  5
4A2
100
AcDbEntity
  8
C_CORPO
100
AcDbPolyline
 62
250
  6
CONTINUOUS
 90
58
 70
0
 10
0.3612458423
 20
-6.5696736586
 10
0.3513573044
 20
-6.5798973789
 10
0.3411724567
 20
-6.5898496887
 10
0.3306986
 20
-6.5995203752
 10
0.3199393116
 20
-6.6089034653
 10
0.3089049957
 20
-6.6179870171
 10
0.2976139627
 20
-6.6267540014
 10
0.2860752733
 20
-6.635196596
 10
0.2742976687
 20
-6.643307371
 10
0.2623010737
 20
-6.651072042
 10
0.2500970546
 20
-6.6584837849
 10
0.237694261
 20
-6.6655378354
 10
0.225109524
 20
-6.6722251439
 10
0.2123574313
 20
-6.6785394472
 10
0.1994451536
 20
-6.6844785576
 10
0.1863787956
 20
-6.6900403051
 10
0.1731701075
 20
-6.6952204925
 10
0.1598292587
 20
-6.7000159014
 10
0.1463597646
 20
-6.7044253468
 10
0.1327703752
 20
-6.7084459009
 10
0.1190743798
 20
-6.7120736134
 10
0.1052820216
 20
-6.7153055188
 10
0.0914035537
 20
-6.7181391426
 10
0.0774513105
 20
-6.7205720101
 10
0.0634387657
 20
-6.722601651
 10
0.0493785609
 20
-6.7242264575
 10
0.0352810581
 20
-6.7254456371
 10
0.0211563597
 20
-6.7262583073
 10
0.0070166824
 20
-6.7266638577
 10
-0.0071270998
 20
-6.7266623124
 10
-0.0212669071
 20
-6.7262535378
 10
-0.0353920725
 20
-6.7254375846
 10
-0.0494901826
 20
-6.7242152107
 10
-0.0635505242
 20
-6.7225871124
 10
-0.0775625927
 20
-6.7205541891
 10
-0.0915139401
 20
-6.7181182748
 10
-0.1053909558
 20
-6.7152816631
 10
-0.1191809315
 20
-6.7120469585
 10
-0.1328740845
 20
-6.7084168448
 10
-0.1464611844
 20
-6.7043937858
 10
-0.1599289928
 20
-6.6999815942
 10
-0.1732687681
 20
-6.6951834286
 10
-0.1864777162
 20
-6.689999907
 10
-0.199546391
 20
-6.6844336692
 10
-0.2124622787
 20
-6.67848938
 10
-0.2252175418
 20
-6.672169764
 10
-0.2378052867
 20
-6.6654767128
 10
-0.2502107412
 20
-6.6584169296
 10
-0.2624144939
 20
-6.6510009543
 10
-0.2744071239
 20
-6.6432341892
 10
-0.2861781846
 20
-6.6351234827
 10
-0.2977078
 20
-6.6266833275
 10
-0.3089871843
 20
-6.6179212861
 10
-0.3200079355
 20
-6.6088452992
 10
-0.3307522732
 20
-6.5994722334
 10
-0.3412098923
 20
-6.5898139988
 10
-0.3513769093
 20
-6.5798775988
 10
-0.3612459121
 20
-6.5696737241
  0
LWPOLYLINE
  5
4A3
100
AcDbEntity
  8
C_CORPO
100
AcDbPolyline
 62
250
  6
CONTINUOUS
 90
58
 70
0
 10
0.5779935412
 20
-6.7754329589
 10
0.562165899
 20
-6.7916484142
 10
0.5458838743
 20
-6.8074071279
 10
0.529147467
 20
-6.8227091
 10
0.5119372526
 20
-6.8375732525
 10
0.4942726557
 20
-6.8519806633
 10
0.4762119501
 20
-6.8658745666
 10
0.4577538907
 20
-6.8792506442
 10
0.4388997226
 20
-6.8921132143
 10
0.4197114552
 20
-6.9044184652
 10
0.4001896261
 20
-6.9161619605
 10
0.3803336977
 20
-6.9273481367
 10
0.3602040664
 20
-6.9379464918
 10
0.3398059938
 20
-6.9479522721
 10
0.3191342183
 20
-6.9573702314
 10
0.2982333507
 20
-6.9661841293
 10
0.2771046549
 20
-6.9743929412
 10
0.2557468671
 20
-6.9819976917
 10
0.2342008061
 20
-6.9889852142
 10
0.2124627066
 20
-6.995355768
 10
0.1905363339
 20
-7.0011090938
 10
0.1684738035
 20
-7.0062312465
 10
0.1462731459
 20
-7.0107208352
 10
0.1239363305
 20
-7.0145792509
 10
0.1015213802
 20
-7.017796722
 10
0.0790299567
 20
-7.0203712836
 10
0.0564603983
 20
-7.0223049006
 10
0.0338657436
 20
-7.0235936971
 10
0.0112470471
 20
-7.0242363982
 10
-0.0113967459
 20
-7.0242342787
 10
-0.0340157602
 20
-7.0235872868
 10
-0.0566113606
 20
-7.0222940811
 10
-0.0791821823
 20
-7.0203560031
 10
-0.1016742569
 20
-7.0177770251
 10
-0.1240889777
 20
-7.0145551537
 10
-0.1464249513
 20
-7.0106923823
 10
-0.1686240288
 20
-7.0061986639
 10
-0.1906836359
 20
-7.0010728327
 10
-0.2126063469
 20
-6.9953160545
 10
-0.2343417361
 20
-6.9889417794
 10
-0.2558862383
 20
-6.9819503888
 10
-0.2772434187
 20
-6.9743415015
 10
-0.2983735471
 20
-6.9661274234
 10
-0.3192791588
 20
-6.9573065229
 10
-0.3399577186
 20
-6.9478804316
 10
-0.3603618905
 20
-6.9378663505
 10
-0.3804972836
 20
-6.9272588595
 10
-0.4003582889
 20
-6.9160633787
 10
-0.4198807429
 20
-6.9043133693
 10
-0.4390636915
 20
-6.8920050101
 10
-0.4579080889
 20
-6.8791421222
 10
-0.4763526338
 20
-6.8657696302
 10
-0.4943956652
 20
-6.8518836159
 10
-0.5120388442
 20
-6.8374879976
 10
-0.5292258531
 20
-6.8226394547
 10
-0.5459379192
 20
-6.8073568805
 10
-0.5621938152
 20
-6.7916213818
 10
-0.577993541
 20
-6.7754329586
  0
LINE
  5
4A4
100
AcDbEntity
  8
C_CORPO
100
AcDbLine
 62
250
  6
CONTINUOUS
 10
-0.1393615326
 20
-6.1880854619
 11
-0.3484038204
 21
-6.4016684144
  0
LINE
  5
4A5
100
AcDbEntity
  8
C_CORPO
100
AcDbLine
 62
250
  6
CONTINUOUS
 10
-9.9600444136
 20
-16.241424784
 11
-9.7413991526
 21
-16.022779523
  0
LINE
  5
4A6
100
AcDbEntity
  8
C_COPERCHIO
100
AcDbLine
 62
250
  6
CONTINUOUS
 10
-3.3000190385
 20
-9.75
 11
-3.2511485788
 21
-9.7011295404
  0
LINE
  5
4A7
100
AcDbEntity
  8
C_CORPO
100
AcDbLine
 62
250
  6
CONTINUOUS
 10
-0.577993541
 20
-6.7754329586
 11
-0.3612459851
 21
-6.5696737934
  0
LWPOLYLINE
  5
4A8
100
AcDbEntity
  8
C_CORPO
100
AcDbPolyline
 62
250
  6
CONTINUOUS
 90
49
 70
0
 10
0.1393615328
 20
-6.188085462
 10
0.1346718399
 20
-6.1925290937
 10
0.1298534643
 20
-6.1968102188
 10
0.1249064062
 20
-6.2009288373
 10
0.119825267
 20
-6.2048888543
 10
0.1146154453
 20
-6.2086863647
 10
0.109293136
 20
-6.2123096529
 10
0.1038580306
 20
-6.2157581523
 10
0.0983104378
 20
-6.2190324295
 10
0.0926674779
 20
-6.2221224682
 10
0.0869288472
 20
-6.2250277113
 10
0.0810948496
 20
-6.2277487161
 10
0.075183517
 20
-6.2302771381
 10
0.0691946194
 20
-6.2326123822
 10
0.0631283868
 20
-6.2347550437
 10
0.0570035416
 20
-6.2366985639
 10
0.0508199066
 20
-6.2384423313
 10
0.0445776589
 20
-6.2399869575
 10
0.0382960531
 20
-6.2413277188
 10
0.0319749803
 20
-6.2424639897
 10
0.0256145493
 20
-6.2433963958
 10
0.0192343413
 20
-6.2441220907
 10
0.0128342837
 20
-6.2446404428
 10
0.0064144492
 20
-6.2449520836
 10
-0.0000053631
 20
-6.2450560615
 10
-0.0064251367
 20
-6.2449517412
 10
-0.0128448879
 20
-6.2446397579
 10
-0.0192448664
 20
-6.2441210648
 10
-0.0256250239
 20
-6.2433950295
 10
-0.0319854086
 20
-6.2424622844
 10
-0.0383064146
 20
-6.2413256799
 10
-0.0445879224
 20
-6.2399845914
 10
-0.0508300516
 20
-6.2384396435
 10
-0.0570135545
 20
-6.2366955613
 10
-0.0631382581
 20
-6.2347517313
 10
-0.0692043354
 20
-6.2326087669
 10
-0.0751930585
 20
-6.2302732331
 10
-0.0811041783
 20
-6.2277445475
 10
-0.0869379439
 20
-6.2250232925
 10
-0.0926763753
 20
-6.2221177804
 10
-0.0983192193
 20
-6.2190274185
 10
-0.1038667291
 20
-6.2157527996
 10
-0.1093016841
 20
-6.2123040141
 10
-0.1146239661
 20
-6.2086802965
 10
-0.1198336935
 20
-6.2048824122
 10
-0.1249140003
 20
-6.200922748
 10
-0.1298592649
 20
-6.1968054326
 10
-0.134675109
 20
-6.1925263372
 10
-0.1393615326
 20
-6.1880854619
  0
LWPOLYLINE
  5
4A9
100
AcDbEntity
  8
C_CORPO
100
AcDbPolyline
 62
250
  6
CONTINUOUS
 90
49
 70
0
 10
0.3484038185
 20
-6.4016684129
 10
0.3367009904
 20
-6.4126613072
 10
0.324651548
 20
-6.4232724137
 10
0.3122674416
 20
-6.4334911153
 10
0.2995610679
 20
-6.4433069671
 10
0.2865458974
 20
-6.4527099759
 10
0.2732355739
 20
-6.4616903186
 10
0.2596439124
 20
-6.4702384425
 10
0.2457850463
 20
-6.4783458407
 10
0.2316730527
 20
-6.4860043904
 10
0.2173223621
 20
-6.4932060303
 10
0.2027480228
 20
-6.4999435421
 10
0.1879649572
 20
-6.5062101075
 10
0.1729883811
 20
-6.5119990149
 10
0.1578339171
 20
-6.5173045594
 10
0.1425170033
 20
-6.5221214192
 10
0.1270534129
 20
-6.5264443601
 10
0.1114592597
 20
-6.5302691982
 10
0.0957504028
 20
-6.5335921162
 10
0.0799430818
 20
-6.5364093914
 10
0.0640537072
 20
-6.5387184106
 10
0.0480983242
 20
-6.5405169013
 10
0.0320933918
 20
-6.5418026997
 10
0.0160555598
 20
-6.5425747549
 10
0.0000011225
 20
-6.5428323281
 10
-0.0160532461
 20
-6.5425748428
 10
-0.0320909526
 20
-6.541802843
 10
-0.0480958239
 20
-6.5405171389
 10
-0.064051269
 20
-6.5387187383
 10
-0.0799407581
 20
-6.5364097532
 10
-0.0957481769
 20
-6.5335925426
 10
-0.111457076
 20
-6.5302697122
 10
-0.1270512377
 20
-6.5264449204
 10
-0.1425148413
 20
-6.522122052
 10
-0.1578317793
 20
-6.5173052795
 10
-0.1729862399
 20
-6.5119997831
 10
-0.1879627862
 20
-6.5062109708
 10
-0.2027457358
 20
-6.499944583
 10
-0.2173199182
 20
-6.4932072216
 10
-0.2316706191
 20
-6.4860056575
 10
-0.2457829477
 20
-6.4783470034
 10
-0.2596422069
 20
-6.4702393955
 10
-0.273233954
 20
-6.4616913197
 10
-0.2865437664
 20
-6.4527115691
 10
-0.2995582701
 20
-6.4433092263
 10
-0.3122647245
 20
-6.4334933598
 10
-0.3246501873
 20
-6.4232734302
 10
-0.3367011442
 20
-6.4126608773
 10
-0.348403763
 20
-6.4016683558
  0
LWPOLYLINE
  5
4AA
100
AcDbEntity
  8
C_CONTATTI
100
AcDbPolyline
 62
7
  6
CONTINUOUS
 90
9
 70
0
 10
-7.878073019
 20
6.8543140426
 10
-7.920787152
 20
6.865165932
 10
-8.060074227
 20
6.90196939
 10
-8.200907983
 20
6.9405708391
 10
-8.3437409829
 20
6.9810966031
 10
-8.4899309156
 20
7.0239256537
 10
-8.6399303442
 20
7.0691843149
 10
-8.7932867057
 20
7.1167462628
 10
-8.95
 20
7.1666114973
  0
LWPOLYLINE
  5
4AB
100
AcDbEntity
  8
C_CONTATTI
100
AcDbPolyline
 62
7
  6
CONTINUOUS
 90
6
 70
0
 10
-8.95
 20
7.1666114973
 10
-8.9679424284
 20
7.1721524429
 10
-8.9855982418
 20
7.1770489005
 10
-9.0028324667
 20
7.18130087
 10
-9.01949909
 20
7.1849128596
 10
-9.0327579255
 20
7.1873713881
  0
LINE
  5
4AC
100
AcDbEntity
  8
C_CORPO
100
AcDbLine
 62
250
  6
CONTINUOUS
 10
-0.8162360808
 20
6.8334212823
 11
-0.4851025892
 21
6.5655473725
  0
LINE
  5
4AD
100
AcDbEntity
  8
C_CORPO
100
AcDbLine
 62
250
  6
CONTINUOUS
 10
-5.0346532229
 20
10.5364430177
 11
-5.2511381544
 21
10.7424784868
  0
LINE
  5
4AE
100
AcDbEntity
  8
C_CORPO
100
AcDbLine
 62
250
  6
CONTINUOUS
 10
-9.7413991526
 20
16.022779523
 11
-9.9600444136
 21
16.241424784
  0
LINE
  5
4AF
100
AcDbEntity
  8
C_CORPO
100
AcDbLine
 62
250
  6
CONTINUOUS
 10
-5.4763537837
 20
11.1207475964
 11
-5.2669146258
 21
10.907553804
  0
LWPOLYLINE
  5
4B0
100
AcDbEntity
  8
C_COPERCHIO
100
AcDbPolyline
 62
7
  6
CONTINUOUS
 90
3
 70
0
 10
-7.8079061647
 20
21.5720886589
 10
-7.7852281955
 20
21.5385690635
 10
-7.736932534
 20
21.4679670057
  0
LINE
  5
4B1
100
AcDbEntity
  8
C_CONTATTI
100
AcDbLine
 62
250
  6
CONTINUOUS
 10
2.5776963678
 20
9.8911112606
 11
2.4762563065
 21
10.2696907236
  0
LINE
  5
4B2
100
AcDbEntity
  8
C_CONTATTI
100
AcDbLine
 62
7
  6
CONTINUOUS
 10
2.6811733316
 20
9.9188378294
 11
2.6996183724
 21
9.85
  0
LINE
  5
4B3
100
AcDbEntity
  8
C_CORPO
100
AcDbLine
 62
250
  6
CONTINUOUS
 10
5.2669146258
 20
6.292446196
 11
5.2635028361
 21
6.3284705895
  0
LINE
  5
4B4
100
AcDbEntity
  8
C_CORPO
100
AcDbLine
 62
250
  6
CONTINUOUS
 10
5.2635028361
 20
6.3284705895
 11
5.2511381544
 21
6.4575215124
  0
LWPOLYLINE
  5
4B5
100
AcDbEntity
  8
C_COPERCHIO
100
AcDbPolyline
 62
250
  6
CONTINUOUS
 90
13
 70
0
 10
8.2631674569
 20
-24.2368706193
 10
8.2653150235
 20
-24.2694909086
 10
8.2717011205
 20
-24.3015532718
 10
8.2822165224
 20
-24.3325093255
 10
8.2966813775
 20
-24.3618296081
 10
8.3148482838
 20
-24.3890126356
 10
8.336406521
 20
-24.413593479
 10
8.3609873644
 20
-24.4351517162
 10
8.3881703919
 20
-24.4533186225
 10
8.4174906745
 20
-24.4677834776
 10
8.4484467282
 20
-24.4782988795
 10
8.4805090914
 20
-24.4846849765
 10
8.5131293807
 20
-24.4868325431
  0
LWPOLYLINE
  5
4B6
100
AcDbEntity
  8
C_COPERCHIO
100
AcDbPolyline
 62
7
  6
CONTINUOUS
 90
13
 70
0
 10
8.25
 20
-24.2500380762
 10
8.2521378302
 20
-24.2826657348
 10
8.2585155507
 20
-24.3147347076
 10
8.2690242772
 20
-24.3456966094
 10
8.2834845786
 20
-24.3750221805
 10
8.3016493125
 20
-24.4022094378
 10
8.3232075347
 20
-24.4267924653
 10
8.3477905622
 20
-24.4483506875
 10
8.3749778195
 20
-24.4665154214
 10
8.4043033906
 20
-24.4809757228
 10
8.4352652924
 20
-24.4914844493
 10
8.4673342652
 20
-24.4978621698
 10
8.4999619238
 20
-24.5
  0
LINE
  5
4B7
100
AcDbEntity
  8
C_CORPO
100
AcDbLine
 62
250
  6
CONTINUOUS
 10
5.948220577
 20
10.8917742209
 11
5.9570163186
 21
10.7266666216
  0
LINE
  5
4B8
100
AcDbEntity
  8
C_CORPO
100
AcDbLine
 62
7
  6
CONTINUOUS
 10
5.6609791689
 20
19.8109791689
 11
5.6609791689
 21
19.6109791689
  0
LINE
  5
4B9
100
AcDbEntity
  8
C_CORPO
100
AcDbLine
 62
7
  6
CONTINUOUS
 10
5.6609791689
 20
-19.6109791689
 11
5.6609791689
 21
-19.8109791689
  0
LINE
  5
4BA
100
AcDbEntity
  8
C_CORPO
100
AcDbLine
 62
7
  6
CONTINUOUS
 10
5.75
 20
19.9
 11
5.75
 21
19.7
  0
LINE
  5
4BB
100
AcDbEntity
  8
C_CORPO
100
AcDbLine
 62
7
  6
CONTINUOUS
 10
5.75
 20
-19.7
 11
5.75
 21
-19.9
  0
LINE
  5
4BC
100
AcDbEntity
  8
C_CONTATTI
100
AcDbLine
 62
7
  6
CONTINUOUS
 10
6.3229597563
 20
14.7580058088
 11
6.3229597563
 21
14.8121699176
  0
LINE
  5
4BD
100
AcDbEntity
  8
C_COPERCHIO
100
AcDbLine
 62
7
  6
CONTINUOUS
 10
6.5846734642
 20
20.0846734642
 11
6.5846734642
 21
19.7846734642
  0
LINE
  5
4BE
100
AcDbEntity
  8
C_COPERCHIO
100
AcDbLine
 62
7
  6
CONTINUOUS
 10
6.5846734642
 20
-19.7846734642
 11
6.5846734642
 21
-20.0846734642
  0
LINE
  5
4BF
100
AcDbEntity
  8
C_COPERCHIO
100
AcDbLine
 62
250
  6
CONTINUOUS
 10
6.8846620411
 20
20.3846620411
 11
6.8846620411
 21
20.0846620411
  0
LINE
  5
4C0
100
AcDbEntity
  8
C_COPERCHIO
100
AcDbLine
 62
250
  6
CONTINUOUS
 10
6.8846620411
 20
-20.0846620411
 11
6.8846620411
 21
-20.3846620411
  0
LINE
  5
4C1
100
AcDbEntity
  8
C_COPERCHIO
100
AcDbLine
 62
250
  6
CONTINUOUS
 10
6.9153379589
 20
-20.9872686779
 11
6.9153379589
 21
-20.0846620411
  0
LINE
  5
4C2
100
AcDbEntity
  8
C_COPERCHIO
100
AcDbLine
 62
250
  6
CONTINUOUS
 10
6.9153379589
 20
20.0846620411
 11
6.9153379589
 21
20.9872686779
  0
LINE
  5
4C3
100
AcDbEntity
  8
C_CONTATTI
100
AcDbLine
 62
7
  6
CONTINUOUS
 10
7.0
 20
10.0361255297
 11
7.0
 21
8.3186560606
  0
LINE
  5
4C4
100
AcDbEntity
  8
C_CONTATTI
100
AcDbLine
 62
7
  6
CONTINUOUS
 10
7.0107603059
 20
14.7608413094
 11
7.0107603059
 21
14.8093228724
  0
LINE
  5
4C5
100
AcDbEntity
  8
C_COPERCHIO
100
AcDbLine
 62
7
  6
CONTINUOUS
 10
7.2153265358
 20
-20.9846734642
 11
7.2153265358
 21
-19.7846734642
  0
LINE
  5
4C6
100
AcDbEntity
  8
C_COPERCHIO
100
AcDbLine
 62
7
  6
CONTINUOUS
 10
7.2153265358
 20
19.7846734642
 11
7.2153265358
 21
20.9846734642
  0
LINE
  5
4C7
100
AcDbEntity
  8
C_CONTATTI
100
AcDbLine
 62
7
  6
CONTINUOUS
 10
7.25
 20
10.1810513336
 11
7.25
 21
8.3665003775
  0
LINE
  5
4C8
100
AcDbEntity
  8
C_COPERCHIO
100
AcDbLine
 62
7
  6
CONTINUOUS
 10
7.3776691233
 20
20.3266752714
 11
7.3776691233
 21
19.7
  0
LINE
  5
4C9
100
AcDbEntity
  8
C_COPERCHIO
100
AcDbLine
 62
7
  6
CONTINUOUS
 10
7.3776691233
 20
-20.3266752714
 11
7.3776691233
 21
-19.7
  0
LINE
  5
4CA
100
AcDbEntity
  8
C_CORPO
100
AcDbLine
 62
7
  6
CONTINUOUS
 10
7.4
 20
20.85
 11
7.4
 21
19.7
  0
LINE
  5
4CB
100
AcDbEntity
  8
C_CORPO
100
AcDbLine
 62
7
  6
CONTINUOUS
 10
7.4
 20
-19.7
 11
7.4
 21
-20.85
  0
LWPOLYLINE
  5
4CC
100
AcDbEntity
  8
C_COPERCHIO
100
AcDbPolyline
 62
7
  6
CONTINUOUS
 90
13
 70
0
 10
8.25
 20
24.2500380762
 10
8.2521378302
 20
24.2826657348
 10
8.2585155507
 20
24.3147347076
 10
8.2690242772
 20
24.3456966094
 10
8.2834845786
 20
24.3750221805
 10
8.3016493125
 20
24.4022094378
 10
8.3232075347
 20
24.4267924653
 10
8.3477905622
 20
24.4483506875
 10
8.3749778195
 20
24.4665154214
 10
8.4043033906
 20
24.4809757228
 10
8.4352652924
 20
24.4914844493
 10
8.4673342652
 20
24.4978621698
 10
8.4999619238
 20
24.5
  0
LWPOLYLINE
  5
4CD
100
AcDbEntity
  8
C_COPERCHIO
100
AcDbPolyline
 62
250
  6
CONTINUOUS
 90
13
 70
0
 10
8.2631674569
 20
24.2368706193
 10
8.2653150235
 20
24.2694909086
 10
8.2717011205
 20
24.3015532718
 10
8.2822165224
 20
24.3325093255
 10
8.2966813775
 20
24.3618296081
 10
8.3148482838
 20
24.3890126356
 10
8.336406521
 20
24.413593479
 10
8.3609873644
 20
24.4351517162
 10
8.3881703919
 20
24.4533186225
 10
8.4174906745
 20
24.4677834776
 10
8.4484467282
 20
24.4782988795
 10
8.4805090914
 20
24.4846849765
 10
8.5131293807
 20
24.4868325431
  0
LWPOLYLINE
  5
4CE
100
AcDbEntity
  8
C_COPERCHIO
100
AcDbPolyline
 62
250
  6
CONTINUOUS
 90
11
 70
0
 10
-3.9778590634
 20
-23.3730243619
 10
-3.9939197973
 20
-23.4093638527
 10
-4.0085430512
 20
-23.4435213072
 10
-4.0218156906
 20
-23.4753981227
 10
-4.0334345854
 20
-23.5047770366
 10
-4.0433300248
 20
-23.531579922
 10
-4.0515717196
 20
-23.5558190979
 10
-4.0580656732
 20
-23.577483342
 10
-4.0627805533
 20
-23.5966036497
 10
-4.0657476921
 20
-23.6132445837
 10
-4.0669670897
 20
-23.6274827185
  0
LWPOLYLINE
  5
4CF
100
AcDbEntity
  8
C_COPERCHIO
100
AcDbPolyline
 62
250
  6
CONTINUOUS
 90
4
 70
0
 10
-3.8834971643
 20
-23.1690100818
 10
-3.9038681573
 20
-23.2117714252
 10
-3.9234522619
 20
-23.2538153258
 10
-3.9778590634
 20
-23.3730243619
  0
LINE
  5
4D0
100
AcDbEntity
  8
C_CORPO
100
AcDbLine
 62
250
  6
CONTINUOUS
 10
10.5441242158
 20
6.8705879831
 11
10.5448494214
 21
6.8720621238
  0
LINE
  5
4D1
100
AcDbEntity
  8
C_CORPO
100
AcDbLine
 62
250
  6
CONTINUOUS
 10
10.54224033
 20
6.8668455654
 11
10.5441242158
 21
6.8705879831
  0
LINE
  5
4D2
100
AcDbEntity
  8
C_CORPO
100
AcDbLine
 62
250
  6
CONTINUOUS
 10
10.5398099334
 20
6.8620710953
 11
10.54224033
 21
6.8668455654
  0
LINE
  5
4D3
100
AcDbEntity
  8
C_CORPO
100
AcDbLine
 62
250
  6
CONTINUOUS
 10
10.5349048639
 20
6.8525793742
 11
10.5398099334
 21
6.8620710953
  0
LINE
  5
4D4
100
AcDbEntity
  8
C_CORPO
100
AcDbLine
 62
250
  6
CONTINUOUS
 10
10.5282806325
 20
6.8399532487
 11
10.5349048639
 21
6.8525793742
  0
LINE
  5
4D5
100
AcDbEntity
  8
C_CORPO
100
AcDbLine
 62
250
  6
CONTINUOUS
 10
10.5197634525
 20
6.8239529742
 11
10.5282806325
 21
6.8399532487
  0
LINE
  5
4D6
100
AcDbEntity
  8
C_CORPO
100
AcDbLine
 62
250
  6
CONTINUOUS
 10
10.5092275416
 20
6.8044525981
 11
10.5197634525
 21
6.8239529742
  0
LINE
  5
4D7
100
AcDbEntity
  8
C_CORPO
100
AcDbLine
 62
250
  6
CONTINUOUS
 10
10.5009478579
 20
6.7893286926
 11
10.5092275416
 21
6.8044525981
  0
LINE
  5
4D8
100
AcDbEntity
  8
C_CORPO
100
AcDbLine
 62
250
  6
CONTINUOUS
 10
10.4915382283
 20
6.7723314361
 11
10.5009478579
 21
6.7893286926
  0
LINE
  5
4D9
100
AcDbEntity
  8
C_CORPO
100
AcDbLine
 62
250
  6
CONTINUOUS
 10
10.4808188935
 20
6.7531993859
 11
10.4915382283
 21
6.7723314361
  0
LINE
  5
4DA
100
AcDbEntity
  8
C_CORPO
100
AcDbLine
 62
250
  6
CONTINUOUS
 10
10.4685840525
 20
6.7316505812
 11
10.4808188935
 21
6.7531993859
  0
LWPOLYLINE
  5
4DB
100
AcDbEntity
  8
C_CORPO
100
AcDbPolyline
 62
7
  6
CONTINUOUS
 90
44
 70
0
 10
10.581336614
 20
6.9317355663
 10
10.5874579917
 20
6.9422578743
 10
10.5936952563
 20
6.9531520974
 10
10.5997166691
 20
6.9638462273
 10
10.6055497913
 20
6.9743784806
 10
10.6112018042
 20
6.9847557014
 10
10.6166697519
 20
6.9949676436
 10
10.6219652813
 20
7.0050273454
 10
10.6270930418
 20
7.0149382114
 10
10.6320521479
 20
7.0246939178
 10
10.6368457363
 20
7.0342930929
 10
10.6414769345
 20
7.0437368875
 10
10.64594625
 20
7.0530215212
 10
10.6502529283
 20
7.0621382848
 10
10.654399251
 20
7.071086993
 10
10.6583865713
 20
7.0798654234
 10
10.6622128798
 20
7.0884618313
 10
10.6658799324
 20
7.0968751607
 10
10.6693896245
 20
7.1051042739
 10
10.6727403057
 20
7.113137324
 10
10.6759334133
 20
7.1209727545
 10
10.6789711281
 20
7.1286101613
 10
10.6818530277
 20
7.1360394661
 10
10.6845803378
 20
7.1432588612
 10
10.6871553366
 20
7.1502684517
 10
10.689579235
 20
7.1570610886
 10
10.6918530735
 20
7.1636348329
 10
10.6939791129
 20
7.1699901974
 10
10.6959603845
 20
7.1761237912
 10
10.6977978958
 20
7.1820339037
 10
10.6994936555
 20
7.1877211028
 10
10.7010521284
 20
7.1931855053
 10
10.7024741413
 20
7.1984253951
 10
10.7037615443
 20
7.2034416194
 10
10.7049202253
 20
7.2082382311
 10
10.705951126
 20
7.212814109
 10
10.7068556023
 20
7.2171697602
 10
10.7076400244
 20
7.221311763
 10
10.7083051969
 20
7.2252390924
 10
10.7088522327
 20
7.228952383
 10
10.7092878172
 20
7.2324607711
 10
10.7096129288
 20
7.2357639735
 10
10.7098281359
 20
7.2388620736
 10
10.709930118
 20
7.2413805469
  0
LWPOLYLINE
  5
4DC
100
AcDbEntity
  8
C_CORPO
100
AcDbPolyline
 62
250
  6
CONTINUOUS
 90
3
 70
0
 10
10.4469972763
 20
6.6943105326
 10
10.4546802677
 20
6.7075020766
 10
10.4685840525
 20
6.7316505812
  0
LWPOLYLINE
  5
4DD
100
AcDbEntity
  8
C_COPERCHIO
100
AcDbPolyline
 62
7
  6
CONTINUOUS
 90
3
 70
0
 10
-7.7113734643
 20
-21.4310795752
 10
-7.7369251224
 20
-21.4679562732
 10
-7.7852258515
 20
-21.5385656435
  0
LINE
  5
4DE
100
AcDbEntity
  8
C_COPERCHIO
100
AcDbLine
 62
7
  6
CONTINUOUS
 10
-7.6281507071
 20
-21.3122422671
 11
-7.7113734643
 21
-21.4310795752
  0
LINE
  5
4DF
100
AcDbEntity
  8
C_COPERCHIO
100
AcDbLine
 62
7
  6
CONTINUOUS
 10
-7.5666456542
 20
-21.2252970227
 11
-7.6281507071
 21
-21.3122422671
  0
LWPOLYLINE
  5
4E0
100
AcDbEntity
  8
C_CORPO
100
AcDbPolyline
 62
250
  6
CONTINUOUS
 90
58
 70
0
 10
-0.3612458423
 20
-10.6303263414
 10
-0.3513573044
 20
-10.6201026211
 10
-0.3411724567
 20
-10.6101503113
 10
-0.3306986
 20
-10.6004796248
 10
-0.3199393116
 20
-10.5910965347
 10
-0.3089049957
 20
-10.5820129829
 10
-0.2976139627
 20
-10.5732459986
 10
-0.2860752733
 20
-10.564803404
 10
-0.2742976687
 20
-10.556692629
 10
-0.2623010737
 20
-10.548927958
 10
-0.2500970546
 20
-10.5415162151
 10
-0.237694261
 20
-10.5344621646
 10
-0.225109524
 20
-10.5277748561
 10
-0.2123574313
 20
-10.5214605528
 10
-0.1994451536
 20
-10.5155214424
 10
-0.1863787956
 20
-10.5099596949
 10
-0.1731701075
 20
-10.5047795075
 10
-0.1598292587
 20
-10.4999840986
 10
-0.1463597646
 20
-10.4955746532
 10
-0.1327703752
 20
-10.4915540991
 10
-0.1190743798
 20
-10.4879263866
 10
-0.1052820216
 20
-10.4846944812
 10
-0.0914035537
 20
-10.4818608574
 10
-0.0774513105
 20
-10.4794279899
 10
-0.0634387657
 20
-10.477398349
 10
-0.0493785609
 20
-10.4757735425
 10
-0.0352810581
 20
-10.4745543629
 10
-0.0211563597
 20
-10.4737416927
 10
-0.0070166824
 20
-10.4733361423
 10
0.0071270998
 20
-10.4733376876
 10
0.0212669071
 20
-10.4737464622
 10
0.0353920725
 20
-10.4745624154
 10
0.0494901826
 20
-10.4757847893
 10
0.0635505242
 20
-10.4774128876
 10
0.0775625927
 20
-10.4794458109
 10
0.0915139401
 20
-10.4818817252
 10
0.1053909558
 20
-10.4847183369
 10
0.1191809315
 20
-10.4879530415
 10
0.1328740845
 20
-10.4915831552
 10
0.1464611844
 20
-10.4956062142
 10
0.1599289928
 20
-10.5000184058
 10
0.1732687681
 20
-10.5048165714
 10
0.1864777162
 20
-10.510000093
 10
0.199546391
 20
-10.5155663308
 10
0.2124622787
 20
-10.52151062
 10
0.2252175418
 20
-10.527830236
 10
0.2378052867
 20
-10.5345232872
 10
0.2502107412
 20
-10.5415830704
 10
0.2624144939
 20
-10.5489990457
 10
0.2744071239
 20
-10.5567658108
 10
0.2861781846
 20
-10.5648765173
 10
0.2977078
 20
-10.5733166725
 10
0.3089871843
 20
-10.5820787139
 10
0.3200079355
 20
-10.5911547008
 10
0.3307522732
 20
-10.6005277666
 10
0.3412098923
 20
-10.6101860012
 10
0.3513769093
 20
-10.6201224012
 10
0.3612459121
 20
-10.6303262759
  0
LWPOLYLINE
  5
4E1
100
AcDbEntity
  8
C_CORPO
100
AcDbPolyline
 62
250
  6
CONTINUOUS
 90
58
 70
0
 10
-0.5779935412
 20
-10.4245670411
 10
-0.562165899
 20
-10.4083515858
 10
-0.5458838743
 20
-10.3925928721
 10
-0.529147467
 20
-10.3772909
 10
-0.5119372526
 20
-10.3624267475
 10
-0.4942726557
 20
-10.3480193367
 10
-0.4762119501
 20
-10.3341254334
 10
-0.4577538907
 20
-10.3207493558
 10
-0.4388997226
 20
-10.3078867857
 10
-0.4197114552
 20
-10.2955815348
 10
-0.4001896261
 20
-10.2838380395
 10
-0.3803336977
 20
-10.2726518633
 10
-0.3602040664
 20
-10.2620535082
 10
-0.3398059938
 20
-10.2520477279
 10
-0.3191342183
 20
-10.2426297686
 10
-0.2982333507
 20
-10.2338158707
 10
-0.2771046549
 20
-10.2256070588
 10
-0.2557468671
 20
-10.2180023083
 10
-0.2342008061
 20
-10.2110147858
 10
-0.2124627066
 20
-10.204644232
 10
-0.1905363339
 20
-10.1988909062
 10
-0.1684738035
 20
-10.1937687535
 10
-0.1462731459
 20
-10.1892791648
 10
-0.1239363305
 20
-10.1854207491
 10
-0.1015213802
 20
-10.182203278
 10
-0.0790299567
 20
-10.1796287164
 10
-0.0564603983
 20
-10.1776950994
 10
-0.0338657436
 20
-10.1764063029
 10
-0.0112470471
 20
-10.1757636018
 10
0.0113967459
 20
-10.1757657213
 10
0.0340157602
 20
-10.1764127132
 10
0.0566113606
 20
-10.1777059189
 10
0.0791821823
 20
-10.1796439969
 10
0.1016742569
 20
-10.1822229749
 10
0.1240889777
 20
-10.1854448463
 10
0.1464249513
 20
-10.1893076177
 10
0.1686240288
 20
-10.1938013361
 10
0.1906836359
 20
-10.1989271673
 10
0.2126063469
 20
-10.2046839455
 10
0.2343417361
 20
-10.2110582206
 10
0.2558862383
 20
-10.2180496112
 10
0.2772434187
 20
-10.2256584985
 10
0.2983735471
 20
-10.2338725766
 10
0.3192791588
 20
-10.2426934771
 10
0.3399577186
 20
-10.2521195684
 10
0.3603618905
 20
-10.2621336495
 10
0.3804972836
 20
-10.2727411405
 10
0.4003582889
 20
-10.2839366213
 10
0.4198807429
 20
-10.2956866307
 10
0.4390636915
 20
-10.3079949899
 10
0.4579080889
 20
-10.3208578778
 10
0.4763526338
 20
-10.3342303698
 10
0.4943956652
 20
-10.3481163841
 10
0.5120388442
 20
-10.3625120024
 10
0.5292258531
 20
-10.3773605453
 10
0.5459379192
 20
-10.3926431195
 10
0.5621938152
 20
-10.4083786182
 10
0.577993541
 20
-10.4245670414
  0
LWPOLYLINE
  5
4E2
100
AcDbEntity
  8
C_CONTATTI
100
AcDbPolyline
 62
7
  6
CONTINUOUS
 90
9
 70
0
 10
-3.45
 20
-7.1666114973
 10
-3.2932788037
 20
-7.1167438457
 10
-3.1399162366
 20
-7.0691800531
 10
-2.9899122988
 20
-7.0239201196
 10
-2.8437191812
 20
-6.9810903264
 10
-2.7008846929
 20
-6.9405643923
 10
-2.5600522612
 20
-6.9019634731
 10
-2.4207696954
 20
-6.8651612874
 10
-2.3780735737
 20
-6.8543140088
  0
LWPOLYLINE
  5
4E3
100
AcDbEntity
  8
C_CONTATTI
100
AcDbPolyline
 62
7
  6
CONTINUOUS
 90
16
 70
0
 10
-3.45
 20
-8.8234547798
 10
-3.2677437781
 20
-8.7656058782
 10
-3.0902711363
 20
-8.7109273896
 10
-2.9175820744
 20
-8.659419314
 10
-2.7503774583
 20
-8.6112818487
 10
-2.5879564221
 20
-8.5663147965
 10
-2.4282163693
 20
-8.5239175649
 10
-2.2709329465
 20
-8.4839679601
 10
-2.116330507
 20
-8.446588176
 10
-1.9629795137
 20
-8.4115442019
 10
-1.8107433106
 20
-8.37875301
 10
-1.6597585538
 20
-8.348297628
 10
-1.5090056738
 20
-8.3201931287
 10
-1.3581448142
 20
-8.2944445364
 10
-1.2075158315
 20
-8.2710468269
 10
-1.0571187256
 20
-8.25
  0
LWPOLYLINE
  5
4E4
100
AcDbEntity
  8
C_CONTATTI
100
AcDbPolyline
 62
7
  6
CONTINUOUS
 90
6
 70
0
 10
-3.45
 20
-7.1666114973
 10
-3.4679422008
 20
-7.1721523609
 10
-3.4855977162
 20
-7.1770487499
 10
-3.5028315825
 20
-7.1813006644
 10
-3.5194976099
 20
-7.184912603
 10
-3.5327580751
 20
-7.187371497
  0
LINE
  5
4E5
100
AcDbEntity
  8
C_CORPO
100
AcDbLine
 62
7
  6
CONTINUOUS
 10
10.4931888231
 20
9.7578663957
 11
10.394377107
 21
9.7358309226
  0
LINE
  5
4E6
100
AcDbEntity
  8
C_CORPO
100
AcDbLine
 62
7
  6
CONTINUOUS
 10
10.5352984315
 20
9.7671292691
 11
10.4931888231
 21
9.7578663957
  0
LINE
  5
4E7
100
AcDbEntity
  8
C_CORPO
100
AcDbLine
 62
7
  6
CONTINUOUS
 10
10.6024469342
 20
9.7817516053
 11
10.5352984315
 21
9.7671292691
  0
LINE
  5
4E8
100
AcDbEntity
  8
C_CORPO
100
AcDbLine
 62
7
  6
CONTINUOUS
 10
10.6932355164
 20
9.8012392344
 11
10.6024469342
 21
9.7817516053
  0
LINE
  5
4E9
100
AcDbEntity
  8
C_CORPO
100
AcDbLine
 62
250
  6
CONTINUOUS
 10
10.7334137604
 20
5.7093288783
 11
10.7412468478
 21
5.7093481111
  0
LWPOLYLINE
  5
4EA
100
AcDbEntity
  8
C_CORPO
100
AcDbPolyline
 62
250
  6
CONTINUOUS
 90
3
 70
0
 10
10.7070868241
 20
5.7093046307
 10
10.7138048038
 20
5.7093095003
 10
10.7334137604
 20
5.7093288783
  0
LINE
  5
4EB
100
AcDbEntity
  8
C_CORPO
100
AcDbLine
 62
250
  6
CONTINUOUS
 10
10.6915050113
 20
5.7092948613
 11
10.7070868241
 21
5.7093046307
  0
LINE
  5
4EC
100
AcDbEntity
  8
C_CORPO
100
AcDbLine
 62
250
  6
CONTINUOUS
 10
9.7413991526
 20
5.709070283
 11
10.6915050113
 21
5.7092948613
  0
LINE
  5
4ED
100
AcDbEntity
  8
C_CORPO
100
AcDbLine
 62
250
  6
CONTINUOUS
 10
-9.7413991526
 20
5.709070283
 11
-10.7412468478
 21
5.709070283
  0
LWPOLYLINE
  5
4EE
100
AcDbEntity
  8
C_CONTATTI
100
AcDbPolyline
 62
7
  6
CONTINUOUS
 90
16
 70
0
 10
-6.5571187256
 20
8.25
 10
-6.7076049022
 20
8.271061077
 10
-6.8583112719
 20
8.2944726573
 10
-7.0092378346
 20
8.3202347409
 10
-7.1600450844
 20
8.3483530202
 10
-7.3110725273
 20
8.3788218029
 10
-7.4633386808
 20
8.4116240111
 10
-7.616706944
 20
8.4466765468
 10
-7.7713139179
 20
8.4840625081
 10
-7.9285879232
 20
8.5240141117
 10
-8.0883049282
 20
8.5664092031
 10
-8.2506889645
 20
8.6113699368
 10
-8.4178404482
 20
8.6594949933
 10
-8.590459518
 20
8.7109839327
 10
-8.7678460353
 20
8.7656371949
 10
-8.95
 20
8.8234547798
  0
LINE
  5
4EF
100
AcDbEntity
  8
C_CORPO
100
AcDbLine
 62
7
  6
CONTINUOUS
 10
-10.6932355164
 20
9.8012392344
 11
-10.6668600037
 21
9.7956103086
  0
LINE
  5
4F0
100
AcDbEntity
  8
C_CORPO
100
AcDbLine
 62
7
  6
CONTINUOUS
 10
-10.6668600037
 20
9.7956103086
 11
-10.5270988093
 21
9.7653317255
  0
LINE
  5
4F1
100
AcDbEntity
  8
C_CORPO
100
AcDbLine
 62
7
  6
CONTINUOUS
 10
-10.5270988093
 20
9.7653317255
 11
-10.4398880876
 21
9.7460330536
  0
LINE
  5
4F2
100
AcDbEntity
  8
C_CORPO
100
AcDbLine
 62
7
  6
CONTINUOUS
 10
-10.4398880876
 20
9.7460330536
 11
-10.394377107
 21
9.7358309226
  0
LWPOLYLINE
  5
4F3
100
AcDbEntity
  8
C_CONTATTI
100
AcDbPolyline
 62
7
  6
CONTINUOUS
 90
9
 70
0
 10
3.121926981
 20
6.8543140426
 10
3.079212848
 20
6.865165932
 10
2.939925773
 20
6.90196939
 10
2.799092017
 20
6.9405708391
 10
2.6562590171
 20
6.9810966031
 10
2.5100690844
 20
7.0239256537
 10
2.3600696558
 20
7.0691843149
 10
2.2067132943
 20
7.1167462628
 10
2.05
 20
7.1666114973
  0
LWPOLYLINE
  5
4F4
100
AcDbEntity
  8
C_CONTATTI
100
AcDbPolyline
 62
7
  6
CONTINUOUS
 90
19
 70
0
 10
-8.95
 20
8.8234547798
 10
-8.9679424284
 20
8.8289957255
 10
-8.9855982418
 20
8.833892183
 10
-9.0028324667
 20
8.8381441525
 10
-9.0194990909
 20
8.8417561422
 10
-9.0355028176
 20
8.8447236438
 10
-9.0507924814
 20
8.8470331328
 10
-9.0652588898
 20
8.8486805423
 10
-9.0788115555
 20
8.8496699392
 10
-9.0914211176
 20
8.85
 10
-9.1029954318
 20
8.8496698286
 10
-9.1134493371
 20
8.8486803212
 10
-9.1227463913
 20
8.8470328428
 10
-9.1308027295
 20
8.8447233497
 10
-9.1375368827
 20
8.8417558856
 10
-9.1428958888
 20
8.8381439469
 10
-9.1468065106
 20
8.8338920325
 10
-9.1491935677
 20
8.8289956434
 10
-9.15
 20
8.8234547798
  0
LWPOLYLINE
  5
4F5
100
AcDbEntity
  8
C_CORPO
100
AcDbPolyline
 62
7
  6
CONTINUOUS
 90
10
 70
0
 10
-10.6932355164
 20
9.8012392344
 10
-10.6934278282
 20
9.801301734
 10
-10.6936027284
 20
9.8014048261
 10
-10.6937601137
 20
9.8015485108
 10
-10.6938998259
 20
9.8017324341
 10
-10.6940218349
 20
9.8019569499
 10
-10.6941261623
 20
9.8022231201
 10
-10.6942126717
 20
9.8025312986
 10
-10.6942811456
 20
9.8028811315
 10
-10.6943314155
 20
9.8032726188
  0
LINE
  5
4F6
100
AcDbEntity
  8
C_COPERCHIO
100
AcDbLine
 62
7
  6
CONTINUOUS
 10
-7.6281640716
 20
21.3122613247
 11
-7.5666456542
 21
21.2252970227
  0
LWPOLYLINE
  5
4F7
100
AcDbEntity
  8
C_COPERCHIO
100
AcDbPolyline
 62
7
  6
CONTINUOUS
 90
3
 70
0
 10
-7.736932534
 20
21.4679670057
 10
-7.7113845494
 20
21.4310954671
 10
-7.6281640716
 20
21.3122613247
  0
LWPOLYLINE
  5
4F8
100
AcDbEntity
  8
C_COPERCHIO
100
AcDbPolyline
 62
250
  6
CONTINUOUS
 90
3
 70
0
 10
-3.9232413705
 20
23.2533688564
 10
-3.9037271914
 20
23.2114717421
 10
-3.8834632412
 20
23.168936633
  0
LWPOLYLINE
  5
4F9
100
AcDbEntity
  8
C_COPERCHIO
100
AcDbPolyline
 62
7
  6
CONTINUOUS
 90
4
 70
0
 10
3.5
 20
23.655248622
 10
3.5014020021
 20
23.6463866942
 10
3.5054430174
 20
23.6352363667
 10
3.5121230458
 20
23.6217645853
  0
LINE
  5
4FA
100
AcDbEntity
  8
C_COPERCHIO
100
AcDbLine
 62
7
  6
CONTINUOUS
 10
8.25
 20
-23.1226497308
 11
8.2631674569
 21
-23.5581814706
  0
LINE
  5
4FB
100
AcDbEntity
  8
C_CORPO
100
AcDbLine
 62
7
  6
CONTINUOUS
 10
7.4890208311
 20
20.85
 11
7.4890208311
 21
19.6109791689
  0
LINE
  5
4FC
100
AcDbEntity
  8
C_CORPO
100
AcDbLine
 62
7
  6
CONTINUOUS
 10
7.4890208311
 20
-19.6109791689
 11
7.4890208311
 21
-20.85
  0
LINE
  5
4FD
100
AcDbEntity
  8
C_COPERCHIO
100
AcDbLine
 62
250
  6
CONTINUOUS
 10
7.5666456542
 20
-21.2252970227
 11
7.5666456542
 21
-20.9872686779
  0
LINE
  5
4FE
100
AcDbEntity
  8
C_COPERCHIO
100
AcDbLine
 62
250
  6
CONTINUOUS
 10
7.5666456542
 20
20.9872686779
 11
7.5666456542
 21
21.2252970227
  0
LINE
  5
4FF
100
AcDbEntity
  8
C_COPERCHIO
100
AcDbLine
 62
250
  6
CONTINUOUS
 10
8.0665695018
 20
-21.3240205999
 11
8.0665695018
 21
-20.9829813964
  0
LINE
  5
500
100
AcDbEntity
  8
C_COPERCHIO
100
AcDbLine
 62
250
  6
CONTINUOUS
 10
8.0665695018
 20
20.9829813964
 11
8.0665695018
 21
21.3240205999
  0
LINE
  5
501
100
AcDbEntity
  8
C_COPERCHIO
100
AcDbLine
 62
7
  6
CONTINUOUS
 10
8.2325449351
 20
21.3927698754
 11
8.2325449351
 21
20.9
  0
LINE
  5
502
100
AcDbEntity
  8
C_COPERCHIO
100
AcDbLine
 62
7
  6
CONTINUOUS
 10
8.2325449351
 20
-20.9
 11
8.2325449351
 21
-21.3927698754
  0
LINE
  5
503
100
AcDbEntity
  8
C_CORPO
100
AcDbLine
 62
250
  6
CONTINUOUS
 10
8.2498952884
 20
14.7894803322
 11
8.2498952884
 21
15.25
  0
LINE
  5
504
100
AcDbEntity
  8
C_COPERCHIO
100
AcDbLine
 62
7
  6
CONTINUOUS
 10
8.25
 20
24.2500380762
 11
8.25
 21
22.4
  0
LINE
  5
505
100
AcDbEntity
  8
C_COPERCHIO
100
AcDbLine
 62
7
  6
CONTINUOUS
 10
8.25
 20
-22.4
 11
8.25
 21
-24.2500380762
  0
LINE
  5
506
100
AcDbEntity
  8
C_COPERCHIO
100
AcDbLine
 62
250
  6
CONTINUOUS
 10
8.2631674569
 20
-24.2368706193
 11
8.2631674569
 21
-23.5581814706
  0
LINE
  5
507
100
AcDbEntity
  8
C_COPERCHIO
100
AcDbLine
 62
250
  6
CONTINUOUS
 10
8.2631674569
 20
23.5581814706
 11
8.2631674569
 21
24.2368706193
  0
LINE
  5
508
100
AcDbEntity
  8
C_CONTATTI
100
AcDbLine
 62
7
  6
CONTINUOUS
 10
8.3003816276
 20
9.45
 11
8.3003816276
 21
9.85
  0
LINE
  5
509
100
AcDbEntity
  8
C_CORPO
100
AcDbLine
 62
7
  6
CONTINUOUS
 10
8.3024659223
 20
15.0229318279
 11
8.3024659223
 21
14.7369096983
  0
LINE
  5
50A
100
AcDbEntity
  8
C_CONTATTI
100
AcDbLine
 62
250
  6
CONTINUOUS
 10
8.5
 20
8.684001603
 11
8.5
 21
9.45
  0
LINE
  5
50B
100
AcDbEntity
  8
C_COPERCHIO
100
AcDbLine
 62
7
  6
CONTINUOUS
 10
8.5011295404
 20
9.8723379831
 11
8.5011295404
 21
9.45
  0
LINE
  5
50C
100
AcDbEntity
  8
C_COPERCHIO
100
AcDbLine
 62
250
  6
CONTINUOUS
 10
8.5131293807
 20
-24.4868325431
 11
8.5131293807
 21
-23.8443375673
  0
LINE
  5
50D
100
AcDbEntity
  8
C_COPERCHIO
100
AcDbLine
 62
250
  6
CONTINUOUS
 10
8.5131293807
 20
23.8443375673
 11
8.5131293807
 21
24.4868325431
  0
LINE
  5
50E
100
AcDbEntity
  8
C_COPERCHIO
100
AcDbLine
 62
7
  6
CONTINUOUS
 10
8.55
 20
9.86279984
 11
8.55
 21
9.45
  0
LINE
  5
50F
100
AcDbEntity
  8
C_CONTATTI
100
AcDbLine
 62
250
  6
CONTINUOUS
 10
8.8105321998
 20
9.84
 11
8.8105321998
 21
10.1509567884
  0
LINE
  5
510
100
AcDbEntity
  8
C_CONTATTI
100
AcDbLine
 62
250
  6
CONTINUOUS
 10
8.95
 20
8.8234547798
 11
8.95
 21
7.1666114973
  0
LINE
  5
511
100
AcDbEntity
  8
C_CONTATTI
100
AcDbLine
 62
250
  6
CONTINUOUS
 10
9.09
 20
9.84
 11
9.09
 21
9.9689471305
  0
LINE
  5
512
100
AcDbEntity
  8
C_CONTATTI
100
AcDbLine
 62
7
  6
CONTINUOUS
 10
9.15
 20
8.8234547798
 11
9.15
 21
7.2810452112
  0
LINE
  5
513
100
AcDbEntity
  8
C_COPERCHIO
100
AcDbLine
 62
7
  6
CONTINUOUS
 10
8.2631674569
 20
23.5581814706
 11
8.25
 21
23.1226497308
  0
LINE
  5
514
100
AcDbEntity
  8
C_CORPO
100
AcDbLine
 62
7
  6
CONTINUOUS
 10
8.7400728142
 20
16.022779523
 11
8.7468906945
 21
16.1108540731
  0
LINE
  5
515
100
AcDbEntity
  8
C_CORPO
100
AcDbLine
 62
250
  6
CONTINUOUS
 10
0.1393615326
 20
-11.0119145381
 11
0.3484038204
 21
-10.7983315856
  0
LINE
  5
516
100
AcDbEntity
  8
C_CORPO
100
AcDbLine
 62
250
  6
CONTINUOUS
 10
0.577993541
 20
-10.4245670414
 11
0.3612459851
 21
-10.6303262066
  0
LWPOLYLINE
  5
517
100
AcDbEntity
  8
C_CORPO
100
AcDbPolyline
 62
250
  6
CONTINUOUS
 90
49
 70
0
 10
-0.1393615328
 20
-11.011914538
 10
-0.1346718399
 20
-11.0074709063
 10
-0.1298534643
 20
-11.0031897812
 10
-0.1249064062
 20
-10.9990711627
 10
-0.119825267
 20
-10.9951111457
 10
-0.1146154453
 20
-10.9913136353
 10
-0.109293136
 20
-10.9876903471
 10
-0.1038580306
 20
-10.9842418477
 10
-0.0983104378
 20
-10.9809675705
 10
-0.0926674779
 20
-10.9778775318
 10
-0.0869288472
 20
-10.9749722887
 10
-0.0810948496
 20
-10.9722512839
 10
-0.075183517
 20
-10.9697228619
 10
-0.0691946194
 20
-10.9673876178
 10
-0.0631283868
 20
-10.9652449563
 10
-0.0570035416
 20
-10.9633014361
 10
-0.0508199066
 20
-10.9615576687
 10
-0.0445776589
 20
-10.9600130425
 10
-0.0382960531
 20
-10.9586722812
 10
-0.0319749803
 20
-10.9575360103
 10
-0.0256145493
 20
-10.9566036042
 10
-0.0192343413
 20
-10.9558779093
 10
-0.0128342837
 20
-10.9553595572
 10
-0.0064144492
 20
-10.9550479164
 10
0.0000053631
 20
-10.9549439385
 10
0.0064251367
 20
-10.9550482588
 10
0.0128448879
 20
-10.9553602421
 10
0.0192448664
 20
-10.9558789352
 10
0.0256250239
 20
-10.9566049705
 10
0.0319854086
 20
-10.9575377156
 10
0.0383064146
 20
-10.9586743201
 10
0.0445879224
 20
-10.9600154086
 10
0.0508300516
 20
-10.9615603565
 10
0.0570135545
 20
-10.9633044387
 10
0.0631382581
 20
-10.9652482687
 10
0.0692043354
 20
-10.9673912331
 10
0.0751930585
 20
-10.9697267669
 10
0.0811041783
 20
-10.9722554525
 10
0.0869379439
 20
-10.9749767075
 10
0.0926763753
 20
-10.9778822196
 10
0.0983192193
 20
-10.9809725815
 10
0.1038667291
 20
-10.9842472004
 10
0.1093016841
 20
-10.9876959859
 10
0.1146239661
 20
-10.9913197035
 10
0.1198336935
 20
-10.9951175878
 10
0.1249140003
 20
-10.999077252
 10
0.1298592649
 20
-11.0031945674
 10
0.134675109
 20
-11.0074736628
 10
0.1393615326
 20
-11.0119145381
  0
LWPOLYLINE
  5
518
100
AcDbEntity
  8
C_CORPO
100
AcDbPolyline
 62
250
  6
CONTINUOUS
 90
49
 70
0
 10
-0.3484038185
 20
-10.7983315871
 10
-0.3367009904
 20
-10.7873386928
 10
-0.324651548
 20
-10.7767275863
 10
-0.3122674416
 20
-10.7665088847
 10
-0.2995610679
 20
-10.7566930329
 10
-0.2865458974
 20
-10.7472900241
 10
-0.2732355739
 20
-10.7383096814
 10
-0.2596439124
 20
-10.7297615575
 10
-0.2457850463
 20
-10.7216541593
 10
-0.2316730527
 20
-10.7139956096
 10
-0.2173223621
 20
-10.7067939697
 10
-0.2027480228
 20
-10.7000564579
 10
-0.1879649572
 20
-10.6937898925
 10
-0.1729883811
 20
-10.6880009851
 10
-0.1578339171
 20
-10.6826954406
 10
-0.1425170033
 20
-10.6778785808
 10
-0.1270534129
 20
-10.6735556399
 10
-0.1114592597
 20
-10.6697308018
 10
-0.0957504028
 20
-10.6664078838
 10
-0.0799430818
 20
-10.6635906086
 10
-0.0640537072
 20
-10.6612815894
 10
-0.0480983242
 20
-10.6594830987
 10
-0.0320933918
 20
-10.6581973003
 10
-0.0160555598
 20
-10.6574252451
 10
-0.0000011225
 20
-10.6571676719
 10
0.0160532461
 20
-10.6574251572
 10
0.0320909526
 20
-10.658197157
 10
0.0480958239
 20
-10.6594828611
 10
0.064051269
 20
-10.6612812617
 10
0.0799407581
 20
-10.6635902468
 10
0.0957481769
 20
-10.6664074574
 10
0.111457076
 20
-10.6697302878
 10
0.1270512377
 20
-10.6735550796
 10
0.1425148413
 20
-10.677877948
 10
0.1578317793
 20
-10.6826947205
 10
0.1729862399
 20
-10.6880002169
 10
0.1879627862
 20
-10.6937890292
 10
0.2027457358
 20
-10.700055417
 10
0.2173199182
 20
-10.7067927784
 10
0.2316706191
 20
-10.7139943425
 10
0.2457829477
 20
-10.7216529966
 10
0.2596422069
 20
-10.7297606045
 10
0.273233954
 20
-10.7383086803
 10
0.2865437664
 20
-10.7472884309
 10
0.2995582701
 20
-10.7566907737
 10
0.3122647245
 20
-10.7665066402
 10
0.3246501873
 20
-10.7767265698
 10
0.3367011442
 20
-10.7873391227
 10
0.348403763
 20
-10.7983316442
  0
LINE
  5
519
100
AcDbEntity
  8
C_CONTATTI
100
AcDbLine
 62
250
  6
CONTINUOUS
 10
2.6941142838
 20
9.8705415381
 11
3.75
 21
10.1534652631
  0
LINE
  5
51A
100
AcDbEntity
  8
C_CONTATTI
100
AcDbLine
 62
7
  6
CONTINUOUS
 10
2.5776963678
 20
9.8911112606
 11
3.7168059059
 21
10.1963347414
  0
LINE
  5
51B
100
AcDbEntity
  8
C_CONTATTI
100
AcDbLine
 62
7
  6
CONTINUOUS
 10
6.5571187256
 20
8.25
 11
6.2854512338
 21
8.25
  0
LINE
  5
51C
100
AcDbEntity
  8
C_CONTATTI
100
AcDbLine
 62
7
  6
CONTINUOUS
 10
4.7145487662
 20
8.25
 11
4.4428812744
 21
8.25
  0
LINE
  5
51D
100
AcDbEntity
  8
C_CONTATTI
100
AcDbLine
 62
7
  6
CONTINUOUS
 10
-4.4428812744
 20
8.25
 11
-4.7145487662
 21
8.25
  0
LINE
  5
51E
100
AcDbEntity
  8
C_CONTATTI
100
AcDbLine
 62
7
  6
CONTINUOUS
 10
-6.2854512338
 20
8.25
 11
-6.5571187256
 21
8.25
  0
LWPOLYLINE
  5
51F
100
AcDbEntity
  8
C_CONTATTI
100
AcDbPolyline
 62
7
  6
CONTINUOUS
 90
16
 70
0
 10
4.4428812744
 20
8.25
 10
4.2923950978
 20
8.271061077
 10
4.1416887281
 20
8.2944726573
 10
3.9907621654
 20
8.3202347409
 10
3.8399549156
 20
8.3483530202
 10
3.6889274727
 20
8.3788218029
 10
3.5366613192
 20
8.4116240111
 10
3.383293056
 20
8.4466765468
 10
3.2286860821
 20
8.4840625081
 10
3.0714120768
 20
8.5240141117
 10
2.9116950718
 20
8.5664092031
 10
2.7493110355
 20
8.6113699368
 10
2.5821595518
 20
8.6594949933
 10
2.409540482
 20
8.7109839327
 10
2.2321539647
 20
8.7656371949
 10
2.05
 20
8.8234547798
  0
LINE
  5
520
100
AcDbEntity
  8
C_CONTATTI
100
AcDbLine
 62
250
  6
CONTINUOUS
 10
-3.75
 20
10.1534652631
 11
-2.6941142838
 21
9.8705415381
  0
LINE
  5
521
100
AcDbEntity
  8
C_CONTATTI
100
AcDbLine
 62
7
  6
CONTINUOUS
 10
-3.7168059059
 20
10.1963347414
 11
-2.5776963678
 21
9.8911112606
  0
LWPOLYLINE
  5
522
100
AcDbEntity
  8
C_CONTATTI
100
AcDbPolyline
 62
7
  6
CONTINUOUS
 90
6
 70
0
 10
2.05
 20
7.1666114973
 10
2.0320575716
 20
7.1721524429
 10
2.0144017582
 20
7.1770489005
 10
1.9971675333
 20
7.18130087
 10
1.98050091
 20
7.1849128596
 10
1.9672420745
 20
7.1873713881
  0
LWPOLYLINE
  5
523
100
AcDbEntity
  8
C_CONTATTI
100
AcDbPolyline
 62
7
  6
CONTINUOUS
 90
19
 70
0
 10
2.05
 20
8.8234547798
 10
2.0320575716
 20
8.8289957255
 10
2.0144017582
 20
8.833892183
 10
1.9971675333
 20
8.8381441525
 10
1.9805009091
 20
8.8417561422
 10
1.9644971824
 20
8.8447236438
 10
1.9492075186
 20
8.8470331328
 10
1.9347411102
 20
8.8486805423
 10
1.9211884445
 20
8.8496699392
 10
1.9085788824
 20
8.85
 10
1.8970045682
 20
8.8496698286
 10
1.8865506629
 20
8.8486803212
 10
1.8772536087
 20
8.8470328428
 10
1.8691972705
 20
8.8447233497
 10
1.8624631173
 20
8.8417558856
 10
1.8571041112
 20
8.8381439469
 10
1.8531934894
 20
8.8338920325
 10
1.8508064323
 20
8.8289956434
 10
1.85
 20
8.8234547798
  0
LINE
  5
524
100
AcDbEntity
  8
C_CORPO
100
AcDbLine
 62
250
  6
CONTINUOUS
 10
0.7581375421
 20
10.2922405091
 11
0.1796625347
 21
10.7288947907
  0
LINE
  5
525
100
AcDbEntity
  8
C_CORPO
100
AcDbLine
 62
250
  6
CONTINUOUS
 10
5.0346532229
 20
6.6635569823
 11
5.2511381544
 21
6.4575215132
  0
LINE
  5
526
100
AcDbEntity
  8
C_CORPO
100
AcDbLine
 62
7
  6
CONTINUOUS
 10
-2.6975340777
 20
14.7369096983
 11
-2.7501047116
 21
14.7894803322
  0
LINE
  5
527
100
AcDbEntity
  8
C_CORPO
100
AcDbLine
 62
250
  6
CONTINUOUS
 10
5.4763537837
 20
6.0792524036
 11
5.2669146258
 21
6.292446196
  0
LINE
  5
528
100
AcDbEntity
  8
C_CORPO
100
AcDbLine
 62
250
  6
CONTINUOUS
 10
10.7254122191
 20
7.3416174269
 11
10.7245530903
 21
7.3652537952
  0
LINE
  5
529
100
AcDbEntity
  8
C_CORPO
100
AcDbLine
 62
250
  6
CONTINUOUS
 10
10.7266419083
 20
7.3019687207
 11
10.7254122191
 21
7.3416174269
  0
LINE
  5
52A
100
AcDbEntity
  8
C_CORPO
100
AcDbLine
 62
7
  6
CONTINUOUS
 10
10.7110827433
 20
9.9172741907
 11
10.7099303595
 21
9.9586193272
  0
LWPOLYLINE
  5
52B
100
AcDbEntity
  8
C_CORPO
100
AcDbPolyline
 62
250
  6
CONTINUOUS
 90
3
 70
0
 10
10.7096603153
 20
9.9506893587
 10
10.7100264095
 20
9.936170329
 10
10.7114025641
 20
9.8865499271
  0
LINE
  5
52C
100
AcDbEntity
  8
C_CORPO
100
AcDbLine
 62
250
  6
CONTINUOUS
 10
10.7283514793
 20
7.2353293784
 11
10.7266419083
 21
7.3019687207
  0
LINE
  5
52D
100
AcDbEntity
  8
C_CORPO
100
AcDbLine
 62
250
  6
CONTINUOUS
 10
10.7306286723
 20
7.1247674121
 11
10.7283514793
 21
7.2353293784
  0
LINE
  5
52E
100
AcDbEntity
  8
C_CORPO
100
AcDbLine
 62
250
  6
CONTINUOUS
 10
10.7335750936
 20
6.9397271948
 11
10.7306286723
 21
7.1247674121
  0
LWPOLYLINE
  5
52F
100
AcDbEntity
  8
C_CORPO
100
AcDbPolyline
 62
250
  6
CONTINUOUS
 90
58
 70
0
 10
10.7412468478
 20
15.0229318279
 10
10.7408591524
 20
15.0504700901
 10
10.7397130438
 20
15.0779891192
 10
10.7378092544
 20
15.1054680274
 10
10.7351490308
 20
15.1328865023
 10
10.731734286
 20
15.1602231653
 10
10.7275677501
 20
15.1874556064
 10
10.7226526964
 20
15.2145625888
 10
10.7169927768
 20
15.2415241048
 10
10.7105922728
 20
15.2683197469
 10
10.7034560263
 20
15.2949292156
 10
10.6955894591
 20
15.3213322673
 10
10.6869985614
 20
15.3475087902
 10
10.6776898648
 20
15.3734388885
 10
10.6676704285
 20
15.3991029046
 10
10.6569478552
 20
15.4244813658
 10
10.6455302834
 20
15.4495550102
 10
10.6334263814
 20
15.4743048012
 10
10.6206453374
 20
15.4987119515
 10
10.6071968544
 20
15.5227579323
 10
10.5930911406
 20
15.5464244913
 10
10.5783389014
 20
15.5696936671
 10
10.5629513345
 20
15.5925477966
 10
10.546940121
 20
15.61496953
 10
10.5303174143
 20
15.6369418475
 10
10.5130958325
 20
15.6584480698
 10
10.4952884483
 20
15.6794718709
 10
10.4769087792
 20
15.6999972913
 10
10.4579707768
 20
15.7200087502
 10
10.4384888171
 20
15.7394910562
 10
10.418477689
 20
15.7584294195
 10
10.3979525828
 20
15.7768094639
 10
10.3769290792
 20
15.7946172365
 10
10.3554231375
 20
15.8118392187
 10
10.3334510829
 20
15.828462337
 10
10.3110295945
 20
15.8444739724
 10
10.2881756929
 20
15.8598619699
 10
10.2649067266
 20
15.874614648
 10
10.2412403593
 20
15.8887208078
 10
10.2171945566
 20
15.9021697406
 10
10.1927875719
 20
15.9149512372
 10
10.1680379326
 20
15.9270555949
 10
10.1429644268
 20
15.9384736248
 10
10.117586088
 20
15.9491966592
 10
10.091922181
 20
15.9592165581
 10
10.0659921879
 20
15.9685257151
 10
10.0398157921
 20
15.9771170636
 10
10.0134128646
 20
15.9849840815
 10
9.9868034485
 20
15.9921207968
 10
9.9600077433
 20
15.9985217919
 10
9.93304609
 20
16.0041822076
 10
9.9059389554
 20
16.0090977471
 10
9.878706916
 20
16.013264679
 10
9.8513706447
 20
16.01667984
 10
9.8239508957
 20
16.0193406373
 10
9.7964684844
 20
16.0212450513
 10
9.7689442721
 20
16.0223916366
 10
9.7413991526
 20
16.022779523
  0
LWPOLYLINE
  5
530
100
AcDbEntity
  8
C_CORPO
100
AcDbPolyline
 62
7
  6
CONTINUOUS
 90
4
 70
0
 10
10.9598921082
 20
-15.2415770883
 10
10.9604053027
 20
-15.2832015765
 10
10.9606625476
 20
-15.3041849571
 10
10.9609204442
 20
-15.3252777844
  0
LINE
  5
531
100
AcDbEntity
  8
C_CORPO
100
AcDbLine
 62
7
  6
CONTINUOUS
 10
10.9609204442
 20
-15.3252777844
 11
10.9614368732
 21
-15.3678196448
  0
LINE
  5
532
100
AcDbEntity
  8
C_CORPO
100
AcDbLine
 62
7
  6
CONTINUOUS
 10
10.9614368732
 20
-15.3678196448
 11
10.9622091483
 21
-15.4326065459
  0
LINE
  5
533
100
AcDbEntity
  8
C_CORPO
100
AcDbLine
 62
7
  6
CONTINUOUS
 10
10.9622091483
 20
-15.4326065459
 11
10.964449958
 21
-15.6354145162
  0
LINE
  5
534
100
AcDbEntity
  8
C_CORPO
100
AcDbLine
 62
250
  6
CONTINUOUS
 10
10.7366829636
 20
6.6746521791
 11
10.7335750936
 21
6.9397271948
  0
LINE
  5
535
100
AcDbEntity
  8
C_CORPO
100
AcDbLine
 62
7
  6
CONTINUOUS
 10
10.964449958
 20
-15.6354145162
 11
10.9660192673
 21
-15.8040856776
  0
LINE
  5
536
100
AcDbEntity
  8
C_CORPO
100
AcDbLine
 62
7
  6
CONTINUOUS
 10
10.9660192673
 20
-15.8040856776
 11
10.9671519549
 21
-15.9578626823
  0
LINE
  5
537
100
AcDbEntity
  8
C_CORPO
100
AcDbLine
 62
250
  6
CONTINUOUS
 10
10.7394134288
 20
6.326104748
 11
10.7366829636
 21
6.6746521791
  0
LINE
  5
538
100
AcDbEntity
  8
C_CORPO
100
AcDbLine
 62
7
  6
CONTINUOUS
 10
10.9671519549
 20
-15.9578626823
 11
10.9678792341
 21
-16.0930585673
  0
LINE
  5
539
100
AcDbEntity
  8
C_CORPO
100
AcDbLine
 62
250
  6
CONTINUOUS
 10
10.7410200114
 20
5.9252871703
 11
10.7394134288
 21
6.326104748
  0
LINE
  5
53A
100
AcDbEntity
  8
C_CORPO
100
AcDbLine
 62
7
  6
CONTINUOUS
 10
10.9678792341
 20
-16.0930585673
 11
10.9683416575
 21
-16.2345855812
  0
LINE
  5
53B
100
AcDbEntity
  8
C_CORPO
100
AcDbLine
 62
250
  6
CONTINUOUS
 10
10.7412468478
 20
5.7093481111
 11
10.7410200114
 21
5.9252871703
  0
LINE
  5
53C
100
AcDbEntity
  8
C_CORPO
100
AcDbLine
 62
7
  6
CONTINUOUS
 10
9.5
 20
9.5013878189
 11
9.5
 21
7.6986121811
  0
LINE
  5
53D
100
AcDbEntity
  8
C_COPERCHIO
100
AcDbLine
 62
7
  6
CONTINUOUS
 10
9.5723308767
 20
-20.1178283957
 11
9.5723308767
 21
-20.0776691233
  0
LINE
  5
53E
100
AcDbEntity
  8
C_COPERCHIO
100
AcDbLine
 62
7
  6
CONTINUOUS
 10
9.5723308767
 20
20.0776691233
 11
9.5723308767
 21
20.1178283957
  0
LINE
  5
53F
100
AcDbEntity
  8
C_COPERCHIO
100
AcDbLine
 62
7
  6
CONTINUOUS
 10
9.65
 20
20.15
 11
9.65
 21
20.0
  0
LINE
  5
540
100
AcDbEntity
  8
C_COPERCHIO
100
AcDbLine
 62
7
  6
CONTINUOUS
 10
9.65
 20
-20.0
 11
9.65
 21
-20.15
  0
LINE
  5
541
100
AcDbEntity
  8
C_CORPO
100
AcDbLine
 62
250
  6
CONTINUOUS
 10
9.7413991526
 20
-16.022779523
 11
9.7413991526
 21
5.7090702918
  0
LINE
  5
542
100
AcDbEntity
  8
C_CORPO
100
AcDbLine
 62
250
  6
CONTINUOUS
 10
9.7413991526
 20
11.4909297081
 11
9.7413991526
 21
16.022779523
  0
LINE
  5
543
100
AcDbEntity
  8
C_CORPO
100
AcDbLine
 62
250
  6
CONTINUOUS
 10
9.9600444136
 20
-16.241424784
 11
9.9600444136
 21
-16.7413486316
  0
LINE
  5
544
100
AcDbEntity
  8
C_CORPO
100
AcDbLine
 62
250
  6
CONTINUOUS
 10
9.9600444136
 20
16.241424784
 11
9.9600444136
 21
16.7413486316
  0
LINE
  5
545
100
AcDbEntity
  8
C_COPERCHIO
100
AcDbLine
 62
250
  6
CONTINUOUS
 10
10.3868706193
 20
-23.8443375673
 11
10.3868706193
 21
-24.4868325431
  0
LINE
  5
546
100
AcDbEntity
  8
C_COPERCHIO
100
AcDbLine
 62
250
  6
CONTINUOUS
 10
10.3868706193
 20
23.8443375673
 11
10.3868706193
 21
24.4868325431
  0
LINE
  5
547
100
AcDbEntity
  8
C_CORPO
100
AcDbLine
 62
250
  6
CONTINUOUS
 10
10.394377107
 20
7.4641690774
 11
10.394377107
 21
8.1042392524
  0
LINE
  5
548
100
AcDbEntity
  8
C_CORPO
100
AcDbLine
 62
250
  6
CONTINUOUS
 10
10.394377107
 20
9.0957607495
 11
10.394377107
 21
9.7358309226
  0
LINE
  5
549
100
AcDbEntity
  8
C_COPERCHIO
100
AcDbLine
 62
250
  6
CONTINUOUS
 10
10.6368325431
 20
24.2368706193
 11
10.6368325431
 21
23.5581814706
  0
LINE
  5
54A
100
AcDbEntity
  8
C_COPERCHIO
100
AcDbLine
 62
250
  6
CONTINUOUS
 10
10.6368325431
 20
-23.5581814706
 11
10.6368325431
 21
-24.2368706193
  0
LINE
  5
54B
100
AcDbEntity
  8
C_COPERCHIO
100
AcDbLine
 62
7
  6
CONTINUOUS
 10
10.65
 20
24.2500380762
 11
10.65
 21
22.399708057
  0
LINE
  5
54C
100
AcDbEntity
  8
C_COPERCHIO
100
AcDbLine
 62
7
  6
CONTINUOUS
 10
10.65
 20
-22.399708057
 11
10.65
 21
-24.2500380762
  0
LINE
  5
54D
100
AcDbEntity
  8
C_CORPO
100
AcDbLine
 62
250
  6
CONTINUOUS
 10
10.6943314155
 20
7.3967273812
 11
10.6943314155
 21
9.8032726188
  0
LINE
  5
54E
100
AcDbEntity
  8
C_CORPO
100
AcDbLine
 62
250
  6
CONTINUOUS
 10
10.7412468478
 20
-15.0229318279
 11
10.7412468478
 21
5.7093481111
  0
LINE
  5
54F
100
AcDbEntity
  8
C_CORPO
100
AcDbLine
 62
7
  6
CONTINUOUS
 10
10.9683416575
 20
-16.2345855812
 11
10.9684673247
 21
-17.5965057526
  0
LINE
  5
550
100
AcDbEntity
  8
C_CORPO
100
AcDbLine
 62
7
  6
CONTINUOUS
 10
10.9684673247
 20
17.5965057526
 11
10.9683416575
 21
16.2345855809
  0
LINE
  5
551
100
AcDbEntity
  8
C_CORPO
100
AcDbLine
 62
250
  6
CONTINUOUS
 10
10.7406610363
 20
11.1425495504
 11
10.7412468478
 21
15.0229318279
  0
LWPOLYLINE
  5
552
100
AcDbEntity
  8
C_CORPO
100
AcDbPolyline
 62
7
  6
CONTINUOUS
 90
4
 70
0
 10
10.7099393668
 20
7.2417648101
 10
10.7099489873
 20
7.244475416
 10
10.709855838
 20
7.2469906148
 10
10.7096604628
 20
7.2493104195
  0
LINE
  5
553
100
AcDbEntity
  8
C_CORPO
100
AcDbLine
 62
7
  6
CONTINUOUS
 10
10.9683416575
 20
16.2345855809
 11
10.9678792341
 21
16.0930585669
  0
LINE
  5
554
100
AcDbEntity
  8
C_CORPO
100
AcDbLine
 62
7
  6
CONTINUOUS
 10
10.9678792341
 20
16.0930585669
 11
10.966980735
 21
15.9315995474
  0
LINE
  5
555
100
AcDbEntity
  8
C_CORPO
100
AcDbLine
 62
250
  6
CONTINUOUS
 10
10.7385310782
 20
10.7411765762
 11
10.7406610363
 21
11.1425495504
  0
LINE
  5
556
100
AcDbEntity
  8
C_CORPO
100
AcDbLine
 62
7
  6
CONTINUOUS
 10
10.966980735
 20
15.9315995474
 11
10.9658089854
 21
15.7793133666
  0
LINE
  5
557
100
AcDbEntity
  8
C_CORPO
100
AcDbLine
 62
7
  6
CONTINUOUS
 10
10.9658089854
 20
15.7793133666
 11
10.9642104225
 21
15.6121629265
  0
LINE
  5
558
100
AcDbEntity
  8
C_CORPO
100
AcDbLine
 62
250
  6
CONTINUOUS
 10
10.7353892692
 20
10.4038511472
 11
10.7385310782
 21
10.7411765762
  0
LINE
  5
559
100
AcDbEntity
  8
C_CORPO
100
AcDbLine
 62
7
  6
CONTINUOUS
 10
10.9642104225
 20
15.6121629265
 11
10.9616947556
 21
15.389281788
  0
LWPOLYLINE
  5
55A
100
AcDbEntity
  8
C_CORPO
100
AcDbPolyline
 62
7
  6
CONTINUOUS
 90
3
 70
0
 10
10.9616947556
 20
15.389281788
 10
10.9601484895
 20
15.2623322867
 10
10.9598921082
 20
15.2415770883
  0
LWPOLYLINE
  5
55B
100
AcDbEntity
  8
C_CORPO
100
AcDbPolyline
 62
250
  6
CONTINUOUS
 90
58
 70
0
 10
10.7412468478
 20
-15.0229318279
 10
10.7408591524
 20
-15.0504700901
 10
10.7397130438
 20
-15.0779891192
 10
10.7378092544
 20
-15.1054680274
 10
10.7351490308
 20
-15.1328865023
 10
10.731734286
 20
-15.1602231653
 10
10.7275677501
 20
-15.1874556064
 10
10.7226526964
 20
-15.2145625888
 10
10.7169927768
 20
-15.2415241048
 10
10.7105922728
 20
-15.2683197469
 10
10.7034560263
 20
-15.2949292156
 10
10.6955894591
 20
-15.3213322673
 10
10.6869985614
 20
-15.3475087902
 10
10.6776898648
 20
-15.3734388885
 10
10.6676704285
 20
-15.3991029046
 10
10.6569478552
 20
-15.4244813658
 10
10.6455302834
 20
-15.4495550102
 10
10.6334263814
 20
-15.4743048012
 10
10.6206453374
 20
-15.4987119515
 10
10.6071968544
 20
-15.5227579323
 10
10.5930911406
 20
-15.5464244913
 10
10.5783389014
 20
-15.5696936671
 10
10.5629513345
 20
-15.5925477966
 10
10.546940121
 20
-15.61496953
 10
10.5303174143
 20
-15.6369418475
 10
10.5130958325
 20
-15.6584480698
 10
10.4952884483
 20
-15.6794718709
 10
10.4769087792
 20
-15.6999972913
 10
10.4579707768
 20
-15.7200087502
 10
10.4384888171
 20
-15.7394910562
 10
10.418477689
 20
-15.7584294195
 10
10.3979525828
 20
-15.7768094639
 10
10.3769290792
 20
-15.7946172365
 10
10.3554231375
 20
-15.8118392187
 10
10.3334510829
 20
-15.828462337
 10
10.3110295945
 20
-15.8444739724
 10
10.2881756929
 20
-15.8598619699
 10
10.2649067266
 20
-15.874614648
 10
10.2412403593
 20
-15.8887208078
 10
10.2171945566
 20
-15.9021697406
 10
10.1927875719
 20
-15.9149512372
 10
10.1680379326
 20
-15.9270555949
 10
10.1429644268
 20
-15.9384736248
 10
10.117586088
 20
-15.9491966592
 10
10.091922181
 20
-15.9592165581
 10
10.0659921879
 20
-15.9685257151
 10
10.0398157921
 20
-15.9771170636
 10
10.0134128646
 20
-15.9849840815
 10
9.9868034485
 20
-15.9921207968
 10
9.9600077433
 20
-15.9985217919
 10
9.93304609
 20
-16.0041822076
 10
9.9059389554
 20
-16.0090977471
 10
9.878706916
 20
-16.013264679
 10
9.8513706447
 20
-16.01667984
 10
9.8239508957
 20
-16.0193406373
 10
9.7964684844
 20
-16.0212450513
 10
9.7689442721
 20
-16.0223916366
 10
9.7413991526
 20
-16.022779523
  0
LINE
  5
55C
100
AcDbEntity
  8
C_CORPO
100
AcDbLine
 62
250
  6
CONTINUOUS
 10
10.731845685
 20
10.1453803204
 11
10.7353892692
 21
10.4038511472
  0
LINE
  5
55D
100
AcDbEntity
  8
C_CORPO
100
AcDbLine
 62
250
  6
CONTINUOUS
 10
10.7294704616
 20
10.0157788485
 11
10.731845685
 21
10.1453803204
  0
LINE
  5
55E
100
AcDbEntity
  8
C_CORPO
100
AcDbLine
 62
250
  6
CONTINUOUS
 10
10.7276439922
 20
9.9354549348
 11
10.7294704616
 21
10.0157788485
  0
LINE
  5
55F
100
AcDbEntity
  8
C_CORPO
100
AcDbLine
 62
7
  6
CONTINUOUS
 10
10.709930118
 20
7.2413805469
 11
10.7106909447
 21
7.2693796335
  0
LINE
  5
560
100
AcDbEntity
  8
C_CORPO
100
AcDbLine
 62
250
  6
CONTINUOUS
 10
10.7110713395
 20
7.3023062153
 11
10.709660312
 21
7.2493106718
  0
LINE
  5
561
100
AcDbEntity
  8
C_CORPO
100
AcDbLine
 62
250
  6
CONTINUOUS
 10
10.7263242878
 20
9.8871269623
 11
10.7276439922
 21
9.9354549348
  0
LINE
  5
562
100
AcDbEntity
  8
C_CORPO
100
AcDbLine
 62
7
  6
CONTINUOUS
 10
10.7106909447
 20
7.2693796335
 11
10.7116951785
 21
7.3020321735
  0
LINE
  5
563
100
AcDbEntity
  8
C_CORPO
100
AcDbLine
 62
250
  6
CONTINUOUS
 10
10.7123486021
 20
7.3427262176
 11
10.7110713395
 21
7.3023062153
  0
LINE
  5
564
100
AcDbEntity
  8
C_CORPO
100
AcDbLine
 62
250
  6
CONTINUOUS
 10
10.7251206694
 20
9.8499759423
 11
10.7263242878
 21
9.8871269623
  0
LINE
  5
565
100
AcDbEntity
  8
C_CORPO
100
AcDbLine
 62
7
  6
CONTINUOUS
 10
10.7116951785
 20
7.3020321735
 11
10.7123280119
 21
7.3199391618
  0
LINE
  5
566
100
AcDbEntity
  8
C_CORPO
100
AcDbLine
 62
250
  6
CONTINUOUS
 10
10.7132369433
 20
7.3666788626
 11
10.7123486021
 21
7.3427262176
  0
LINE
  5
567
100
AcDbEntity
  8
C_CORPO
100
AcDbLine
 62
250
  6
CONTINUOUS
 10
10.7242750426
 20
9.8278028727
 11
10.7251206694
 21
9.8499759423
  0
LINE
  5
568
100
AcDbEntity
  8
C_CORPO
100
AcDbLine
 62
7
  6
CONTINUOUS
 10
10.7123280119
 20
7.3199391618
 11
10.7128657064
 21
7.3333741626
  0
LINE
  5
569
100
AcDbEntity
  8
C_CORPO
100
AcDbLine
 62
250
  6
CONTINUOUS
 10
10.7138045195
 20
7.3801923556
 11
10.7132369433
 21
7.3666788626
  0
LINE
  5
56A
100
AcDbEntity
  8
C_CORPO
100
AcDbLine
 62
250
  6
CONTINUOUS
 10
10.7237311722
 20
9.8152458193
 11
10.7242750426
 21
9.8278028727
  0
LINE
  5
56B
100
AcDbEntity
  8
C_CORPO
100
AcDbLine
 62
7
  6
CONTINUOUS
 10
10.7128657064
 20
7.3333741626
 11
10.713203562
 21
7.3408482923
  0
LINE
  5
56C
100
AcDbEntity
  8
C_CORPO
100
AcDbLine
 62
250
  6
CONTINUOUS
 10
10.7143551374
 20
7.3919458426
 11
10.7138045195
 21
7.3801923556
  0
LINE
  5
56D
100
AcDbEntity
  8
C_CORPO
100
AcDbLine
 62
250
  6
CONTINUOUS
 10
10.7232022062
 20
9.8043112713
 11
10.7237311722
 21
9.8152458193
  0
LINE
  5
56E
100
AcDbEntity
  8
C_CORPO
100
AcDbLine
 62
7
  6
CONTINUOUS
 10
10.713203562
 20
7.3408482923
 11
10.713385702
 21
7.3444862181
  0
LINE
  5
56F
100
AcDbEntity
  8
C_CORPO
100
AcDbLine
 62
250
  6
CONTINUOUS
 10
10.7148898186
 20
7.4020871954
 11
10.7143551374
 21
7.3919458426
  0
LINE
  5
570
100
AcDbEntity
  8
C_CORPO
100
AcDbLine
 62
250
  6
CONTINUOUS
 10
10.7226917268
 20
9.7949357322
 11
10.7232022062
 21
9.8043112713
  0
LINE
  5
571
100
AcDbEntity
  8
C_CORPO
100
AcDbLine
 62
7
  6
CONTINUOUS
 10
10.713385702
 20
7.3444862181
 11
10.7134914834
 21
7.3464208384
  0
LWPOLYLINE
  5
572
100
AcDbEntity
  8
C_CORPO
100
AcDbPolyline
 62
7
  6
CONTINUOUS
 90
5
 70
0
 10
10.709660466
 20
9.950689611
 10
10.7098558415
 20
9.9530094142
 10
10.7099489903
 20
9.9555246131
 10
10.7099393686
 20
9.9582352206
 10
10.7099301111
 20
9.9586198031
  0
LWPOLYLINE
  5
573
100
AcDbEntity
  8
C_CORPO
100
AcDbPolyline
 62
7
  6
CONTINUOUS
 90
13
 70
0
 10
10.394377107
 20
8.1042349151
 10
10.402092841
 20
8.1859658691
 10
10.4084134259
 20
8.2680551078
 10
10.4133390391
 20
8.3505026315
 10
10.4168857121
 20
8.4334277636
 10
10.4190424816
 20
8.5167111805
 10
10.4197703247
 20
8.5999949115
 10
10.4190426358
 20
8.6832789982
 10
10.4168860206
 20
8.7665633989
 10
10.413339418
 20
8.8494900175
 10
10.4084137631
 20
8.9319394887
 10
10.4020930519
 20
9.0140311778
 10
10.394377107
 20
9.0957650849
  0
LINE
  5
574
100
AcDbEntity
  8
C_CORPO
100
AcDbLine
 62
7
  6
CONTINUOUS
 10
10.7017984106
 20
9.8766551493
 11
10.6943314155
 21
9.8032726188
  0
LINE
  5
575
100
AcDbEntity
  8
C_CORPO
100
AcDbLine
 62
7
  6
CONTINUOUS
 10
10.7096603153
 20
9.9506893587
 11
10.7017984106
 21
9.8766551493
  0
LWPOLYLINE
  5
576
100
AcDbEntity
  8
C_COPERCHIO
100
AcDbPolyline
 62
7
  6
CONTINUOUS
 90
6
 70
0
 10
-6.6254371529
 20
-20.1254721381
 10
-6.6122868766
 20
-20.1120575279
 10
-6.6011704926
 20
-20.1011704926
 10
-6.5925183447
 20
-20.0931439081
 10
-6.5868617444
 20
-20.0876448986
 10
-6.5846734642
 20
-20.0846734642
  0
LINE
  5
577
100
AcDbEntity
  8
C_COPERCHIO
100
AcDbLine
 62
7
  6
CONTINUOUS
 10
-6.8846620411
 20
-20.3846620411
 11
-6.8632331316
 21
-20.3630071079
  0
LWPOLYLINE
  5
578
100
AcDbEntity
  8
C_COPERCHIO
100
AcDbPolyline
 62
7
  6
CONTINUOUS
 90
3
 70
0
 10
-6.6746110202
 20
-20.1746409496
 10
-6.6569183611
 20
-20.156763849
 10
-6.6254371529
 20
-20.1254721381
  0
LWPOLYLINE
  5
579
100
AcDbEntity
  8
C_COPERCHIO
100
AcDbPolyline
 62
7
  6
CONTINUOUS
 90
7
 70
0
 10
-6.656763849
 20
-19.8569183611
 10
-6.6254721381
 20
-19.8254371529
 10
-6.6120575279
 20
-19.8122868766
 10
-6.6011704926
 20
-19.8011704926
 10
-6.5931439081
 20
-19.7925183447
 10
-6.5876448986
 20
-19.7868617444
 10
-6.5846734642
 20
-19.7846734642
  0
LWPOLYLINE
  5
57A
100
AcDbEntity
  8
C_COPERCHIO
100
AcDbPolyline
 62
7
  6
CONTINUOUS
 90
3
 70
0
 10
-8.334612719
 20
-23.6658209056
 10
-8.3079752
 20
-23.6390385408
 10
-8.2966230298
 20
-23.6278312164
  0
LWPOLYLINE
  5
57B
100
AcDbEntity
  8
C_COPERCHIO
100
AcDbPolyline
 62
7
  6
CONTINUOUS
 90
3
 70
0
 10
-6.7130509196
 20
-19.9131516421
 10
-6.6746409496
 20
-19.8746110202
 10
-6.656763849
 20
-19.8569183611
  0
LINE
  5
57C
100
AcDbEntity
  8
C_COPERCHIO
100
AcDbLine
 62
7
  6
CONTINUOUS
 10
-6.5846734642
 20
-19.7846734642
 11
-6.5
 21
-19.7
  0
LINE
  5
57D
100
AcDbEntity
  8
C_COPERCHIO
100
AcDbLine
 62
7
  6
CONTINUOUS
 10
-6.5846734642
 20
-20.0846734642
 11
-6.4266562329
 21
-19.9266562329
  0
LINE
  5
57E
100
AcDbEntity
  8
C_COPERCHIO
100
AcDbLine
 62
250
  6
CONTINUOUS
 10
-10.65
 20
-24.2500380762
 11
-10.6368325431
 21
-24.2368706193
  0
LINE
  5
57F
100
AcDbEntity
  8
C_CORPO
100
AcDbLine
 62
7
  6
CONTINUOUS
 10
-5.75
 20
-19.7
 11
-5.6609791689
 21
-19.6109791689
  0
LINE
  5
580
100
AcDbEntity
  8
C_COPERCHIO
100
AcDbLine
 62
250
  6
CONTINUOUS
 10
-10.4000380762
 20
-24.5
 11
-10.3868706193
 21
-24.4868325431
  0
LINE
  5
581
100
AcDbEntity
  8
C_CORPO
100
AcDbLine
 62
7
  6
CONTINUOUS
 10
-5.6609791689
 20
-19.8109791689
 11
-5.75
 21
-19.9
  0
LINE
  5
582
100
AcDbEntity
  8
C_COPERCHIO
100
AcDbLine
 62
7
  6
CONTINUOUS
 10
-8.4033485018
 20
-23.7345809999
 11
-8.334612719
 21
-23.6658209056
  0
LINE
  5
583
100
AcDbEntity
  8
C_COPERCHIO
100
AcDbLine
 62
7
  6
CONTINUOUS
 10
-8.423438307
 20
-23.7545867768
 11
-8.4033485018
 21
-23.7345809999
  0
LINE
  5
584
100
AcDbEntity
  8
C_COPERCHIO
100
AcDbLine
 62
7
  6
CONTINUOUS
 10
-6.8630071079
 20
-20.0632331316
 11
-6.733583789
 21
-19.933550052
  0
LINE
  5
585
100
AcDbEntity
  8
C_COPERCHIO
100
AcDbLine
 62
7
  6
CONTINUOUS
 10
-6.7545576028
 20
-20.2545576028
 11
-6.6746110202
 21
-20.1746409496
  0
LINE
  5
586
100
AcDbEntity
  8
C_COPERCHIO
100
AcDbLine
 62
7
  6
CONTINUOUS
 10
-6.733583789
 20
-19.933550052
 11
-6.7130509196
 21
-19.9131516421
  0
LINE
  5
587
100
AcDbEntity
  8
C_COPERCHIO
100
AcDbLine
 62
7
  6
CONTINUOUS
 10
-6.8632331316
 20
-20.3630071079
 11
-6.7545576028
 21
-20.2545576028
  0
LINE
  5
588
100
AcDbEntity
  8
C_COPERCHIO
100
AcDbLine
 62
7
  6
CONTINUOUS
 10
-6.8846620411
 20
-20.0846620411
 11
-6.8630071079
 21
-20.0632331316
  0
LWPOLYLINE
  5
589
100
AcDbEntity
  8
C_COPERCHIO
100
AcDbPolyline
 62
7
  6
CONTINUOUS
 90
3
 70
0
 10
-8.5131293807
 20
-23.8443375673
 10
-8.4892941033
 20
-23.8207630626
 10
-8.423438307
 20
-23.7545867768
  0
LINE
  5
58A
100
AcDbEntity
  8
C_CORPO
100
AcDbLine
 62
7
  6
CONTINUOUS
 10
-10.4931888231
 20
7.4421336043
 11
-10.394377107
 21
7.4641690774
  0
LINE
  5
58B
100
AcDbEntity
  8
C_CORPO
100
AcDbLine
 62
7
  6
CONTINUOUS
 10
-10.6154174932
 20
7.4154442316
 11
-10.4931888231
 21
7.4421336043
  0
LINE
  5
58C
100
AcDbEntity
  8
C_CORPO
100
AcDbLine
 62
7
  6
CONTINUOUS
 10
-10.6774044569
 20
7.4021362661
 11
-10.6154174932
 21
7.4154442316
  0
LINE
  5
58D
100
AcDbEntity
  8
C_CORPO
100
AcDbLine
 62
7
  6
CONTINUOUS
 10
-10.6932355164
 20
7.3987607656
 11
-10.6774044569
 21
7.4021362661
  0
LINE
  5
58E
100
AcDbEntity
  8
C_CONTATTI
100
AcDbLine
 62
250
  6
CONTINUOUS
 10
8.3003816276
 20
9.45
 11
7.25
 21
9.45
  0
LINE
  5
58F
100
AcDbEntity
  8
C_CONTATTI
100
AcDbLine
 62
250
  6
CONTINUOUS
 10
3.75
 20
9.45
 11
2.6996183724
 21
9.45
  0
LINE
  5
590
100
AcDbEntity
  8
C_CONTATTI
100
AcDbLine
 62
7
  6
CONTINUOUS
 10
-1.5
 20
9.45
 11
-2.6996183724
 21
9.45
  0
LINE
  5
591
100
AcDbEntity
  8
C_CONTATTI
100
AcDbLine
 62
7
  6
CONTINUOUS
 10
1.5
 20
9.45
 11
2.6996183724
 21
9.45
  0
LINE
  5
592
100
AcDbEntity
  8
C_CONTATTI
100
AcDbLine
 62
250
  6
CONTINUOUS
 10
-2.6996183724
 20
9.45
 11
-3.75
 21
9.45
  0
LINE
  5
593
100
AcDbEntity
  8
C_CONTATTI
100
AcDbLine
 62
250
  6
CONTINUOUS
 10
-7.25
 20
9.45
 11
-8.3003816276
 21
9.45
  0
LINE
  5
594
100
AcDbEntity
  8
C_CONTATTI
100
AcDbLine
 62
7
  6
CONTINUOUS
 10
8.3003816276
 20
9.45
 11
9.5
 21
9.45
  0
LINE
  5
595
100
AcDbEntity
  8
C_CONTATTI
100
AcDbLine
 62
7
  6
CONTINUOUS
 10
-8.3003816276
 20
9.45
 11
-9.5
 21
9.45
  0
LINE
  5
596
100
AcDbEntity
  8
C_CONTATTI
100
AcDbLine
 62
7
  6
CONTINUOUS
 10
-9.234750841
 20
9.84
 11
-8.8105321998
 21
9.84
  0
LINE
  5
597
100
AcDbEntity
  8
C_CONTATTI
100
AcDbLine
 62
7
  6
CONTINUOUS
 10
-2.1894678002
 20
9.84
 11
-1.91
 21
9.84
  0
LINE
  5
598
100
AcDbEntity
  8
C_CONTATTI
100
AcDbLine
 62
7
  6
CONTINUOUS
 10
1.765249159
 20
9.84
 11
2.1894678002
 21
9.84
  0
LINE
  5
599
100
AcDbEntity
  8
C_CONTATTI
100
AcDbLine
 62
7
  6
CONTINUOUS
 10
8.8105321998
 20
9.84
 11
9.09
 21
9.84
  0
LINE
  5
59A
100
AcDbEntity
  8
C_CONTATTI
100
AcDbLine
 62
7
  6
CONTINUOUS
 10
-8.3003816276
 20
9.85
 11
-7.25
 21
9.85
  0
LINE
  5
59B
100
AcDbEntity
  8
C_CONTATTI
100
AcDbLine
 62
7
  6
CONTINUOUS
 10
8.3003816276
 20
9.85
 11
7.25
 21
9.85
  0
LINE
  5
59C
100
AcDbEntity
  8
C_CONTATTI
100
AcDbLine
 62
7
  6
CONTINUOUS
 10
-3.75
 20
9.85
 11
-2.6996183724
 21
9.85
  0
LINE
  5
59D
100
AcDbEntity
  8
C_CONTATTI
100
AcDbLine
 62
7
  6
CONTINUOUS
 10
3.75
 20
9.85
 11
2.6996183724
 21
9.85
  0
LINE
  5
59E
100
AcDbEntity
  8
C_CORPO
100
AcDbLine
 62
7
  6
CONTINUOUS
 10
10.6932355164
 20
7.3987607656
 11
10.5815526702
 21
7.4227788945
  0
LINE
  5
59F
100
AcDbEntity
  8
C_CORPO
100
AcDbLine
 62
7
  6
CONTINUOUS
 10
10.5815526702
 20
7.4227788945
 11
10.5591026807
 21
7.4276662279
  0
LINE
  5
5A0
100
AcDbEntity
  8
C_CORPO
100
AcDbLine
 62
7
  6
CONTINUOUS
 10
10.5591026807
 20
7.4276662279
 11
10.5103500268
 21
7.4383504097
  0
LINE
  5
5A1
100
AcDbEntity
  8
C_CORPO
100
AcDbLine
 62
7
  6
CONTINUOUS
 10
10.5103500268
 20
7.4383504097
 11
10.4217365468
 21
7.4580253807
  0
LINE
  5
5A2
100
AcDbEntity
  8
C_CORPO
100
AcDbLine
 62
7
  6
CONTINUOUS
 10
10.4217365468
 20
7.4580253807
 11
10.394377107
 21
7.4641690774
  0
LWPOLYLINE
  5
5A3
100
AcDbEntity
  8
C_CORPO
100
AcDbPolyline
 62
7
  6
CONTINUOUS
 90
10
 70
0
 10
10.6932355164
 20
7.3987607656
 10
10.6934278282
 20
7.398698266
 10
10.6936027284
 20
7.3985951739
 10
10.6937601137
 20
7.3984514892
 10
10.6938998259
 20
7.3982675659
 10
10.6940218349
 20
7.3980430501
 10
10.6941261623
 20
7.3977768799
 10
10.6942126717
 20
7.3974687014
 10
10.6942811456
 20
7.3971188685
 10
10.6943314155
 20
7.3967273812
  0
LWPOLYLINE
  5
5A4
100
AcDbEntity
  8
C_COPERCHIO
100
AcDbPolyline
 62
7
  6
CONTINUOUS
 90
6
 70
0
 10
-6.6254721381
 20
19.8254371529
 10
-6.6120575279
 20
19.8122868766
 10
-6.6011704926
 20
19.8011704926
 10
-6.5931439081
 20
19.7925183447
 10
-6.5876448986
 20
19.7868617444
 10
-6.5846734642
 20
19.7846734642
  0
LINE
  5
5A5
100
AcDbEntity
  8
C_COPERCHIO
100
AcDbLine
 62
7
  6
CONTINUOUS
 10
-8.2966230298
 20
23.6278312164
 11
-8.3079752151
 21
23.6390385494
  0
LINE
  5
5A6
100
AcDbEntity
  8
C_COPERCHIO
100
AcDbLine
 62
7
  6
CONTINUOUS
 10
-8.4892937275
 20
23.8207626766
 11
-8.5131293807
 21
23.8443375673
  0
LINE
  5
5A7
100
AcDbEntity
  8
C_COPERCHIO
100
AcDbLine
 62
7
  6
CONTINUOUS
 10
-6.8846620411
 20
20.0846620411
 11
-6.8630071079
 21
20.0632331316
  0
LWPOLYLINE
  5
5A8
100
AcDbEntity
  8
C_COPERCHIO
100
AcDbPolyline
 62
7
  6
CONTINUOUS
 90
3
 70
0
 10
-6.6746409496
 20
19.8746110202
 10
-6.656763849
 20
19.8569183611
 10
-6.6254721381
 20
19.8254371529
  0
LWPOLYLINE
  5
5A9
100
AcDbEntity
  8
C_COPERCHIO
100
AcDbPolyline
 62
7
  6
CONTINUOUS
 90
7
 70
0
 10
-6.6569183611
 20
20.156763849
 10
-6.6254371529
 20
20.1254721381
 10
-6.6122868766
 20
20.1120575279
 10
-6.6011704926
 20
20.1011704926
 10
-6.5925183447
 20
20.0931439081
 10
-6.5868617444
 20
20.0876448986
 10
-6.5846734642
 20
20.0846734642
  0
LWPOLYLINE
  5
5AA
100
AcDbEntity
  8
C_COPERCHIO
100
AcDbPolyline
 62
7
  6
CONTINUOUS
 90
3
 70
0
 10
-6.8632331316
 20
20.3630071079
 10
-6.7977875939
 20
20.2978215059
 10
-6.733550052
 20
20.233583789
  0
LWPOLYLINE
  5
5AB
100
AcDbEntity
  8
C_COPERCHIO
100
AcDbPolyline
 62
7
  6
CONTINUOUS
 90
3
 70
0
 10
-6.7131516421
 20
20.2130509196
 10
-6.6746110202
 20
20.1746409496
 10
-6.6569183611
 20
20.156763849
  0
LINE
  5
5AC
100
AcDbEntity
  8
C_COPERCHIO
100
AcDbLine
 62
7
  6
CONTINUOUS
 10
-6.5846734642
 20
19.7846734642
 11
-6.5
 21
19.7
  0
LINE
  5
5AD
100
AcDbEntity
  8
C_COPERCHIO
100
AcDbLine
 62
7
  6
CONTINUOUS
 10
-6.5846734642
 20
20.0846734642
 11
-6.4266562329
 21
19.9266562329
  0
LINE
  5
5AE
100
AcDbEntity
  8
C_COPERCHIO
100
AcDbLine
 62
250
  6
CONTINUOUS
 10
-10.6368325431
 20
24.2368706193
 11
-10.65
 21
24.2500380762
  0
LINE
  5
5AF
100
AcDbEntity
  8
C_CORPO
100
AcDbLine
 62
7
  6
CONTINUOUS
 10
-5.75
 20
19.7
 11
-5.6609791689
 21
19.6109791689
  0
LINE
  5
5B0
100
AcDbEntity
  8
C_COPERCHIO
100
AcDbLine
 62
250
  6
CONTINUOUS
 10
-10.3868706193
 20
24.4868325431
 11
-10.4000380762
 21
24.5
  0
LINE
  5
5B1
100
AcDbEntity
  8
C_CORPO
100
AcDbLine
 62
7
  6
CONTINUOUS
 10
-5.75
 20
19.9
 11
-5.6609791689
 21
19.8109791689
  0
LINE
  5
5B2
100
AcDbEntity
  8
C_COPERCHIO
100
AcDbLine
 62
7
  6
CONTINUOUS
 10
-6.7545576028
 20
19.9545576028
 11
-6.7130509196
 21
19.9131516421
  0
LINE
  5
5B3
100
AcDbEntity
  8
C_COPERCHIO
100
AcDbLine
 62
7
  6
CONTINUOUS
 10
-8.3499539437
 20
23.6811920369
 11
-8.4234376721
 21
23.754586152
  0
LINE
  5
5B4
100
AcDbEntity
  8
C_COPERCHIO
100
AcDbLine
 62
7
  6
CONTINUOUS
 10
-6.7130509196
 20
19.9131516421
 11
-6.6746409496
 21
19.8746110202
  0
LINE
  5
5B5
100
AcDbEntity
  8
C_COPERCHIO
100
AcDbLine
 62
7
  6
CONTINUOUS
 10
-6.733550052
 20
20.233583789
 11
-6.7131516421
 21
20.2130509196
  0
LINE
  5
5B6
100
AcDbEntity
  8
C_COPERCHIO
100
AcDbLine
 62
7
  6
CONTINUOUS
 10
-6.8630071079
 20
20.0632331316
 11
-6.7545576028
 21
19.9545576028
  0
LINE
  5
5B7
100
AcDbEntity
  8
C_COPERCHIO
100
AcDbLine
 62
7
  6
CONTINUOUS
 10
-8.3079752151
 20
23.6390385494
 11
-8.3499539437
 21
23.6811920369
  0
LINE
  5
5B8
100
AcDbEntity
  8
C_COPERCHIO
100
AcDbLine
 62
7
  6
CONTINUOUS
 10
-8.4234376721
 20
23.754586152
 11
-8.4892937275
 21
23.8207626766
  0
LINE
  5
5B9
100
AcDbEntity
  8
C_COPERCHIO
100
AcDbLine
 62
7
  6
CONTINUOUS
 10
-6.8846620411
 20
20.3846620411
 11
-6.8632331316
 21
20.3630071079
  0
LINE
  5
5BA
100
AcDbEntity
  8
C_CORPO
100
AcDbLine
 62
250
  6
CONTINUOUS
 10
2.2531093055
 20
16.1108540731
 11
2.7501047116
 21
15.25
  0
LWPOLYLINE
  5
5BB
100
AcDbEntity
  8
C_CONTATTI
100
AcDbPolyline
 62
7
  6
CONTINUOUS
 90
19
 70
0
 10
9.15
 20
8.8234547798
 10
9.1491935472
 20
8.8289957255
 10
9.1468064155
 20
8.833892183
 10
9.1428956466
 20
8.8381441525
 10
9.1375363335
 20
8.8417561422
 10
9.1308017374
 20
8.8447236438
 10
9.1227451177
 20
8.8470331328
 10
9.1134484262
 20
8.8486805423
 10
9.1029953673
 20
8.8496699392
 10
9.0914215914
 20
8.85
 10
9.0788114789
 20
8.8496698286
 10
9.065257598
 20
8.8486803212
 10
9.0507902986
 20
8.8470328428
 10
9.0355007196
 20
8.8447233497
 10
9.019497609
 20
8.8417558856
 10
9.0028315824
 20
8.8381439469
 10
8.9855977161
 20
8.8338920325
 10
8.9679422008
 20
8.8289956434
 10
8.95
 20
8.8234547798
  0
LINE
  5
5BC
100
AcDbEntity
  8
C_CORPO
100
AcDbLine
 62
7
  6
CONTINUOUS
 10
10.6992640008
 20
7.3478928403
 11
10.709660312
 21
7.2493106718
  0
LINE
  5
5BD
100
AcDbEntity
  8
C_CORPO
100
AcDbLine
 62
7
  6
CONTINUOUS
 10
10.6943314155
 20
7.3967273812
 11
10.6992640008
 21
7.3478928403
  0
LWPOLYLINE
  5
5BE
100
AcDbEntity
  8
C_CORPO
100
AcDbPolyline
 62
250
  6
CONTINUOUS
 90
37
 70
0
 10
10.72220175
 20
7.4129442525
 10
10.7219659655
 20
7.4163583178
 10
10.7217361876
 20
7.4194252525
 10
10.7215129823
 20
7.422195693
 10
10.7212966313
 20
7.4246672744
 10
10.7210868527
 20
7.4268423615
 10
10.7208833675
 20
7.4287786859
 10
10.7206864207
 20
7.4304778235
 10
10.7204957672
 20
7.4319381984
 10
10.7203103918
 20
7.4332128139
 10
10.7201305605
 20
7.4343056579
 10
10.7199560072
 20
7.4352127426
 10
10.7197849185
 20
7.4359751075
 10
10.7196174282
 20
7.4365988843
 10
10.7194534026
 20
7.4370779414
 10
10.7192906273
 20
7.4374349241
 10
10.7191291425
 20
7.4376765621
 10
10.718968908
 20
7.4377961257
 10
10.7188075884
 20
7.4377960712
 10
10.7186451825
 20
7.4376833326
 10
10.7184816914
 20
7.437450976
 10
10.7183147834
 20
7.4370806559
 10
10.7181443513
 20
7.4365791636
 10
10.7179705021
 20
7.4359397078
 10
10.7177912255
 20
7.4351235695
 10
10.7176061966
 20
7.4341351209
 10
10.7174157402
 20
7.4329699897
 10
10.7172188202
 20
7.4315763395
 10
10.7170151809
 20
7.4299559897
 10
10.716805078
 20
7.4281071208
 10
10.7165882425
 20
7.4259724384
 10
10.7163644187
 20
7.4235503241
 10
10.7161338623
 20
7.4208423962
 10
10.715897072
 20
7.417796215
 10
10.7156538909
 20
7.4144078225
 10
10.715404476
 20
7.4106811766
 10
10.7148898186
 20
7.4020871954
  0
LWPOLYLINE
  5
5BF
100
AcDbEntity
  8
C_CORPO
100
AcDbPolyline
 62
250
  6
CONTINUOUS
 90
37
 70
0
 10
10.7154052967
 20
9.7893060524
 10
10.7156546605
 20
9.7855810511
 10
10.7158977915
 20
9.7821941702
 10
10.7161345339
 20
9.7791493322
 10
10.7163650433
 20
9.7764426147
 10
10.7165888244
 20
9.7740215729
 10
10.7168056228
 20
9.7718878062
 10
10.7170156928
 20
9.7700397152
 10
10.7172193021
 20
9.7684200563
 10
10.717416195
 20
9.767027016
 10
10.7176066271
 20
9.7658624079
 10
10.7177916328
 20
9.7648744293
 10
10.7179708866
 20
9.7640587139
 10
10.718144714
 20
9.7634196279
 10
10.7183151259
 20
9.7629184669
 10
10.7184820153
 20
9.7625484397
 10
10.7186454892
 20
9.7623163375
 10
10.7188078793
 20
9.7622038294
 10
10.7189691846
 20
9.7622039825
 10
10.7191294061
 20
9.7623237297
 10
10.7192908791
 20
9.7625655386
 10
10.719453644
 20
9.7629226809
 10
10.7196176604
 20
9.7634018848
 10
10.7197851423
 20
9.7640258032
 10
10.7199562235
 20
9.7647883066
 10
10.7201307703
 20
9.7656955244
 10
10.7203105953
 20
9.7667884972
 10
10.7204959653
 20
9.7680632475
 10
10.7206866135
 20
9.7695237528
 10
10.7208835525
 20
9.7712229853
 10
10.7210870272
 20
9.7731593749
 10
10.7212967926
 20
9.7753344918
 10
10.7215131265
 20
9.7778060194
 10
10.7217363091
 20
9.7805763018
 10
10.7219660601
 20
9.7836429949
 10
10.7222018168
 20
9.7870567494
 10
10.7226917268
 20
9.7949357322
  0
LWPOLYLINE
  5
5C0
100
AcDbEntity
  8
C_COPERCHIO
100
AcDbPolyline
 62
250
  6
CONTINUOUS
 90
13
 70
0
 10
10.6368325431
 20
24.2368706193
 10
10.6346849765
 20
24.2694909086
 10
10.6282988795
 20
24.3015532718
 10
10.6177834776
 20
24.3325093255
 10
10.6033186225
 20
24.3618296081
 10
10.5851517162
 20
24.3890126356
 10
10.563593479
 20
24.413593479
 10
10.5390126356
 20
24.4351517162
 10
10.5118296081
 20
24.4533186225
 10
10.4825093255
 20
24.4677834776
 10
10.4515532718
 20
24.4782988795
 10
10.4194909086
 20
24.4846849765
 10
10.3868706193
 20
24.4868325431
  0
LWPOLYLINE
  5
5C1
100
AcDbEntity
  8
C_COPERCHIO
100
AcDbPolyline
 62
7
  6
CONTINUOUS
 90
13
 70
0
 10
10.65
 20
24.2500380762
 10
10.6478621698
 20
24.2826657348
 10
10.6414844493
 20
24.3147347076
 10
10.6309757228
 20
24.3456966094
 10
10.6165154214
 20
24.3750221805
 10
10.5983506875
 20
24.4022094378
 10
10.5767924653
 20
24.4267924653
 10
10.5522094378
 20
24.4483506875
 10
10.5250221805
 20
24.4665154214
 10
10.4956966094
 20
24.4809757228
 10
10.4647347076
 20
24.4914844493
 10
10.4326657348
 20
24.4978621698
 10
10.4000380762
 20
24.5
  0
LINE
  5
5C2
100
AcDbEntity
  8
C_CORPO
100
AcDbLine
 62
7
  6
CONTINUOUS
 10
10.7134588105
 20
9.8540556637
 11
10.7135032244
 21
9.8533752515
  0
LINE
  5
5C3
100
AcDbEntity
  8
C_CORPO
100
AcDbLine
 62
250
  6
CONTINUOUS
 10
10.7226917198
 20
7.4050643707
 11
10.72220175
 21
7.4129442525
  0
LINE
  5
5C4
100
AcDbEntity
  8
C_CORPO
100
AcDbLine
 62
250
  6
CONTINUOUS
 10
10.7148907247
 20
9.7978966662
 11
10.7154052967
 21
9.7893060524
  0
LINE
  5
5C5
100
AcDbEntity
  8
C_CORPO
100
AcDbLine
 62
7
  6
CONTINUOUS
 10
10.7135080793
 20
9.8532972231
 11
10.7134549253
 21
9.8542272182
  0
LINE
  5
5C6
100
AcDbEntity
  8
C_CORPO
100
AcDbLine
 62
250
  6
CONTINUOUS
 10
10.7232022435
 20
7.3956879974
 11
10.7226917198
 21
7.4050643707
  0
LINE
  5
5C7
100
AcDbEntity
  8
C_CORPO
100
AcDbLine
 62
7
  6
CONTINUOUS
 10
10.7134549253
 20
9.8542272182
 11
10.7133194465
 21
9.8567994081
  0
LINE
  5
5C8
100
AcDbEntity
  8
C_CORPO
100
AcDbLine
 62
250
  6
CONTINUOUS
 10
10.7143561018
 20
9.8080347235
 11
10.7148907247
 21
9.7978966662
  0
LINE
  5
5C9
100
AcDbEntity
  8
C_CORPO
100
AcDbLine
 62
250
  6
CONTINUOUS
 10
10.723731227
 20
7.3847529819
 11
10.7232022435
 21
7.3956879974
  0
LINE
  5
5CA
100
AcDbEntity
  8
C_CORPO
100
AcDbLine
 62
7
  6
CONTINUOUS
 10
10.7133194465
 20
9.8567994081
 11
10.7130426569
 21
9.8626066429
  0
LINE
  5
5CB
100
AcDbEntity
  8
C_CORPO
100
AcDbLine
 62
250
  6
CONTINUOUS
 10
10.7138054988
 20
9.8197855376
 11
10.7143561018
 21
9.8080347235
  0
LWPOLYLINE
  5
5CC
100
AcDbEntity
  8
C_CORPO
100
AcDbPolyline
 62
7
  6
CONTINUOUS
 90
44
 70
0
 10
10.7099301111
 20
9.9586198031
 10
10.7098281353
 20
9.9611379611
 10
10.7096129249
 20
9.9642360667
 10
10.7092878109
 20
9.9675392728
 10
10.708852226
 20
9.9710476609
 10
10.7083051906
 20
9.9747609497
 10
10.707640018
 20
9.9786882784
 10
10.7068555942
 20
9.9828302835
 10
10.7059511157
 20
9.987185938
 10
10.7049202132
 20
9.9917618183
 10
10.7037615316
 20
9.9965584301
 10
10.7024741285
 20
10.0015746535
 10
10.7010521153
 20
10.006814543
 10
10.6994936413
 20
10.0122789466
 10
10.6977978802
 20
10.0179661472
 10
10.6959603678
 20
10.0238762606
 10
10.6939790959
 20
10.0300098541
 10
10.6918530564
 20
10.0363652175
 10
10.6895792178
 20
10.0429389609
 10
10.6871553187
 20
10.049731598
 10
10.6845803191
 20
10.056741189
 10
10.6818530083
 20
10.0639605841
 10
10.6789711086
 20
10.0713898879
 10
10.6759333941
 20
10.0790272934
 10
10.6727402865
 20
10.0868627226
 10
10.6693896053
 20
10.0948957719
 10
10.6658799129
 20
10.1031248844
 10
10.6622128603
 20
10.1115382128
 10
10.658386552
 20
10.1201346194
 10
10.6543992321
 20
10.1289130482
 10
10.6502529098
 20
10.1378617547
 10
10.6459462319
 20
10.1469785166
 10
10.641476917
 20
10.1562631485
 10
10.6368457194
 20
10.1657069412
 10
10.6320521316
 20
10.1753061144
 10
10.6270930263
 20
10.1850618189
 10
10.6219652665
 20
10.1949726828
 10
10.616669738
 20
10.2050323826
 10
10.6112017912
 20
10.2152443226
 10
10.6055497794
 20
10.2256215412
 10
10.5997166583
 20
10.236153792
 10
10.5936952468
 20
10.2468479194
 10
10.5874579835
 20
10.2577421399
 10
10.5813366527
 20
10.2682643676
  0
LINE
  5
5CD
100
AcDbEntity
  8
C_CORPO
100
AcDbLine
 62
7
  6
CONTINUOUS
 10
10.7130426569
 20
9.8626066429
 11
10.7125744019
 21
9.8736845976
  0
LWPOLYLINE
  5
5CE
100
AcDbEntity
  8
C_CORPO
100
AcDbPolyline
 62
250
  6
CONTINUOUS
 90
3
 70
0
 10
10.7245530903
 20
7.3652537952
 10
10.7242750713
 20
7.3721964091
 10
10.723731227
 20
7.3847529819
  0
LINE
  5
5CF
100
AcDbEntity
  8
C_CORPO
100
AcDbLine
 62
250
  6
CONTINUOUS
 10
10.7129476921
 20
9.8407304017
 11
10.7138054988
 21
9.8197855376
  0
LINE
  5
5D0
100
AcDbEntity
  8
C_CORPO
100
AcDbLine
 62
7
  6
CONTINUOUS
 10
10.7125744019
 20
9.8736845976
 11
10.7120051534
 21
9.8889250209
  0
LINE
  5
5D1
100
AcDbEntity
  8
C_CORPO
100
AcDbLine
 62
250
  6
CONTINUOUS
 10
10.7120413556
 20
9.8663367164
 11
10.7129476921
 21
9.8407304017
  0
LINE
  5
5D2
100
AcDbEntity
  8
C_CORPO
100
AcDbLine
 62
250
  6
CONTINUOUS
 10
10.7114025641
 20
9.8865499271
 11
10.7120413556
 21
9.8663367164
  0
LINE
  5
5D3
100
AcDbEntity
  8
C_CORPO
100
AcDbLine
 62
7
  6
CONTINUOUS
 10
10.7120051534
 20
9.8889250209
 11
10.7110827433
 21
9.9172741907
  0
LINE
  5
5D4
100
AcDbEntity
  8
C_COPERCHIO
100
AcDbLine
 62
7
  6
CONTINUOUS
 10
10.6368325431
 20
23.5581814706
 11
10.65
 21
23.1226497308
  0
LINE
  5
5D5
100
AcDbEntity
  8
C_COPERCHIO
100
AcDbLine
 62
7
  6
CONTINUOUS
 10
11.15
 20
21.8823164546
 11
11.15
 21
-21.8823164546
  0
LINE
  5
5D6
100
AcDbEntity
  8
C_CORPO
100
AcDbLine
 62
7
  6
CONTINUOUS
 10
11.15
 20
-17.6716990487
 11
11.15
 21
17.6716990487
  0
LWPOLYLINE
  5
5D7
100
AcDbEntity
  8
C_CORPO
100
AcDbPolyline
 62
250
  6
CONTINUOUS
 90
64
 70
0
 10
10.9598921087
 20
-15.2415770888
 10
10.9595894991
 20
-15.2663332854
 10
10.9586723803
 20
-15.291112386
 10
10.95713847
 20
-15.3158990645
 10
10.9549852946
 20
-15.3406837029
 10
10.9522116209
 20
-15.3654448747
 10
10.9488189089
 20
-15.3901495161
 10
10.9448077455
 20
-15.4147819645
 10
10.940179083
 20
-15.4393267409
 10
10.9349380909
 20
-15.4637514133
 10
10.9290880512
 20
-15.4880396225
 10
10.9226321403
 20
-15.5121772404
 10
10.9155782211
 20
-15.5361358012
 10
10.9079333015
 20
-15.5598950365
 10
10.8997013014
 20
-15.5834460286
 10
10.8908867426
 20
-15.6067777449
 10
10.8814963466
 20
-15.6298740374
 10
10.8715357444
 20
-15.6527225993
 10
10.8610074381
 20
-15.6753180316
 10
10.8499164328
 20
-15.6976488399
 10
10.8382706518
 20
-15.7196983584
 10
10.8260768043
 20
-15.7414533587
 10
10.813341425
 20
-15.7629015313
 10
10.8000729693
 20
-15.7840280156
 10
10.7862817526
 20
-15.8048161675
 10
10.771976984
 20
-15.8252522518
 10
10.7571670513
 20
-15.8453244296
 10
10.7418618346
 20
-15.8650194374
 10
10.7260713818
 20
-15.8843245787
 10
10.7098052008
 20
-15.9032284586
 10
10.6930728134
 20
-15.9217201307
 10
10.675884689
 20
-15.9397880902
 10
10.6582515177
 20
-15.9574211654
 10
10.6401834583
 20
-15.9746091973
 10
10.6216916799
 20
-15.9913414971
 10
10.602787689
 20
-16.0076075929
 10
10.5834824384
 20
-16.0233979573
 10
10.5637873199
 20
-16.0387030847
 10
10.5437150333
 20
-16.0535129246
 10
10.5232788589
 20
-16.0678175857
 10
10.5024906432
 20
-16.081608677
 10
10.4813641159
 20
-16.0948769954
 10
10.459915919
 20
-16.1076122287
 10
10.4381609292
 20
-16.1198059142
 10
10.4161114416
 20
-16.1314515277
 10
10.393780635
 20
-16.1425423854
 10
10.3711851644
 20
-16.1530705656
 10
10.3483365321
 20
-16.1630310561
 10
10.3252401134
 20
-16.1724213613
 10
10.3019081758
 20
-16.1812358593
 10
10.2783569028
 20
-16.1894678086
 10
10.2545974169
 20
-16.197112655
 10
10.2306386323
 20
-16.2041664821
 10
10.2065008231
 20
-16.2106222827
 10
10.1822125637
 20
-16.216472172
 10
10.1577880193
 20
-16.2217129769
 10
10.133243517
 20
-16.2263414348
 10
10.1086114945
 20
-16.2303523864
 10
10.0839074489
 20
-16.2337448883
 10
10.0591470264
 20
-16.2365183676
 10
10.0343632434
 20
-16.2386713791
 10
10.0095775101
 20
-16.2402051644
 10
9.9847994587
 20
-16.2411222027
 10
9.9600444136
 20
-16.241424784
  0
LINE
  5
5D8
100
AcDbEntity
  8
C_COPERCHIO
100
AcDbLine
 62
7
  6
CONTINUOUS
 10
10.65
 20
-23.1226497308
 11
10.6368325431
 21
-23.5581814706
  0
LWPOLYLINE
  5
5D9
100
AcDbEntity
  8
C_COPERCHIO
100
AcDbPolyline
 62
7
  6
CONTINUOUS
 90
13
 70
0
 10
10.65
 20
-24.2500380762
 10
10.6478621698
 20
-24.2826657348
 10
10.6414844493
 20
-24.3147347076
 10
10.6309757228
 20
-24.3456966094
 10
10.6165154214
 20
-24.3750221805
 10
10.5983506875
 20
-24.4022094378
 10
10.5767924653
 20
-24.4267924653
 10
10.5522094378
 20
-24.4483506875
 10
10.5250221805
 20
-24.4665154214
 10
10.4956966094
 20
-24.4809757228
 10
10.4647347076
 20
-24.4914844493
 10
10.4326657348
 20
-24.4978621698
 10
10.4000380762
 20
-24.5
  0
LWPOLYLINE
  5
5DA
100
AcDbEntity
  8
C_COPERCHIO
100
AcDbPolyline
 62
250
  6
CONTINUOUS
 90
13
 70
0
 10
10.6368325431
 20
-24.2368706193
 10
10.6346849765
 20
-24.2694909086
 10
10.6282988795
 20
-24.3015532718
 10
10.6177834776
 20
-24.3325093255
 10
10.6033186225
 20
-24.3618296081
 10
10.5851517162
 20
-24.3890126356
 10
10.563593479
 20
-24.413593479
 10
10.5390126356
 20
-24.4351517162
 10
10.5118296081
 20
-24.4533186225
 10
10.4825093255
 20
-24.4677834776
 10
10.4515532718
 20
-24.4782988795
 10
10.4194909086
 20
-24.4846849765
 10
10.3868706193
 20
-24.4868325431
  0
LINE
  5
5DB
100
AcDbEntity
  8
C_CORPO
100
AcDbLine
 62
7
  6
CONTINUOUS
 10
2.8024659223
 20
-14.7369096983
 11
2.7498952884
 21
-14.7894803322
  0
LINE
  5
5DC
100
AcDbEntity
  8
C_COPERCHIO
100
AcDbLine
 62
7
  6
CONTINUOUS
 10
-4.4
 20
-22.4
 11
-4.2669366287
 21
-22.2669366287
  0
LINE
  5
5DD
100
AcDbEntity
  8
C_CORPO
100
AcDbLine
 62
250
  6
CONTINUOUS
 10
-11.15
 20
-17.6716990487
 11
-10.9684673247
 21
-17.5965057526
  0
LINE
  5
5DE
100
AcDbEntity
  8
C_CONTATTI
100
AcDbLine
 62
250
  6
CONTINUOUS
 10
-8.3058857162
 20
9.8705415381
 11
-7.25
 21
10.1534652631
  0
LINE
  5
5DF
100
AcDbEntity
  8
C_CONTATTI
100
AcDbLine
 62
7
  6
CONTINUOUS
 10
-8.4223036322
 20
9.8911112606
 11
-7.2831940941
 21
10.1963347414
  0
LINE
  5
5E0
100
AcDbEntity
  8
C_CORPO
100
AcDbLine
 62
250
  6
CONTINUOUS
 10
-10.7334137604
 20
11.4906711218
 11
-10.7412468478
 21
11.490651889
  0
LINE
  5
5E1
100
AcDbEntity
  8
C_CORPO
100
AcDbLine
 62
250
  6
CONTINUOUS
 10
-9.7413991526
 20
11.490929717
 11
-10.7334137604
 21
11.4906711218
  0
LINE
  5
5E2
100
AcDbEntity
  8
C_CORPO
100
AcDbLine
 62
250
  6
CONTINUOUS
 10
9.7413991526
 20
11.490929717
 11
10.7412468478
 21
11.490929717
  0
LINE
  5
5E3
100
AcDbEntity
  8
C_CONTATTI
100
AcDbLine
 62
250
  6
CONTINUOUS
 10
7.25
 20
10.1534652631
 11
8.3058857162
 21
9.8705415381
  0
LINE
  5
5E4
100
AcDbEntity
  8
C_CONTATTI
100
AcDbLine
 62
7
  6
CONTINUOUS
 10
7.2831940941
 20
10.1963347414
 11
8.4223036322
 21
9.8911112606
  0
LINE
  5
5E5
100
AcDbEntity
  8
C_CORPO
100
AcDbLine
 62
250
  6
CONTINUOUS
 10
-10.9684673247
 20
17.5965057526
 11
-11.15
 21
17.6716990487
  0
LINE
  5
5E6
100
AcDbEntity
  8
C_COPERCHIO
100
AcDbLine
 62
7
  6
CONTINUOUS
 10
-4.4
 20
22.4
 11
-4.2669366287
 21
22.2669366287
  0
LINE
  5
5E7
100
AcDbEntity
  8
C_CORPO
100
AcDbLine
 62
250
  6
CONTINUOUS
 10
6.164058233
 20
10.5111440349
 11
5.9570163181
 21
10.7266666212
  0
LINE
  5
5E8
100
AcDbEntity
  8
C_CORPO
100
AcDbLine
 62
250
  6
CONTINUOUS
 10
5.7488761714
 20
11.114435763
 11
5.948220577
 21
10.8917742209
  0
LINE
  5
5E9
100
AcDbEntity
  8
C_COPERCHIO
100
AcDbLine
 62
250
  6
CONTINUOUS
 10
-4.2689346966
 20
-23.4689651576
 11
-4.4
 21
-23.600030461
  0
LINE
  5
5EA
100
AcDbEntity
  8
C_COPERCHIO
100
AcDbLine
 62
250
  6
CONTINUOUS
 10
-4.0689651576
 20
-23.6689346966
 11
-4.200030461
 21
-23.8
  0
LINE
  5
5EB
100
AcDbEntity
  8
C_CORPO
100
AcDbLine
 62
250
  6
CONTINUOUS
 10
-10.5643027805
 20
-19.0856972195
 11
-10.3827701052
 21
-19.0105039234
  0
LINE
  5
5EC
100
AcDbEntity
  8
C_CORPO
100
AcDbLine
 62
250
  6
CONTINUOUS
 10
-10.3827701052
 20
19.0105039234
 11
-10.5643027805
 21
19.0856972195
  0
LINE
  5
5ED
100
AcDbEntity
  8
C_COPERCHIO
100
AcDbLine
 62
250
  6
CONTINUOUS
 10
-4.4
 20
23.600030461
 11
-4.2689346966
 21
23.4689651576
  0
LINE
  5
5EE
100
AcDbEntity
  8
C_COPERCHIO
100
AcDbLine
 62
250
  6
CONTINUOUS
 10
-4.200030461
 20
23.8
 11
-4.0689651576
 21
23.6689346966
  0
LWPOLYLINE
  5
5EF
100
AcDbEntity
  8
C_CORPO
100
AcDbPolyline
 62
250
  6
CONTINUOUS
 90
16
 70
0
 10
10.3679296256
 20
10.6360379546
 10
10.3556351342
 20
10.6555121661
 10
10.3427189998
 20
10.6757617557
 10
10.3290694838
 20
10.6969480841
 10
10.3146304776
 20
10.719121406
 10
10.2994198084
 20
10.7422226511
 10
10.2834337802
 20
10.7662501558
 10
10.2665729641
 20
10.791308043
 10
10.2488899339
 20
10.8172814753
 10
10.2306155728
 20
10.8438436123
 10
10.2116856138
 20
10.8710541992
 10
10.1921256532
 20
10.8988444433
 10
10.1723217912
 20
10.926701517
 10
10.1523022171
 20
10.954580876
 10
10.1320253422
 20
10.9825241852
 10
10.0916937309
 20
11.0373870241
  0
LINE
  5
5F0
100
AcDbEntity
  8
C_CORPO
100
AcDbLine
 62
250
  6
CONTINUOUS
 10
10.390724251
 20
10.5994032329
 11
10.3679296256
 21
10.6360379546
  0
LINE
  5
5F1
100
AcDbEntity
  8
C_CORPO
100
AcDbLine
 62
250
  6
CONTINUOUS
 10
10.4114305687
 20
10.565486688
 11
10.390724251
 21
10.5994032329
  0
LINE
  5
5F2
100
AcDbEntity
  8
C_CORPO
100
AcDbLine
 62
250
  6
CONTINUOUS
 10
10.4301886684
 20
10.5342063345
 11
10.4114305687
 21
10.565486688
  0
LWPOLYLINE
  5
5F3
100
AcDbEntity
  8
C_CORPO
100
AcDbPolyline
 62
7
  6
CONTINUOUS
 90
6
 70
0
 10
10.5813366527
 20
10.2682643676
 10
10.5743397632
 20
10.2800981097
 10
10.5673977419
 20
10.2916431582
 10
10.5601633465
 20
10.3034795592
 10
10.5526485865
 20
10.3155788818
 10
10.5448494239
 20
10.3279378725
  0
LINE
  5
5F4
100
AcDbEntity
  8
C_CORPO
100
AcDbLine
 62
250
  6
CONTINUOUS
 10
10.4469983297
 20
10.5056876462
 11
10.4301886684
 21
10.5342063345
  0
LINE
  5
5F5
100
AcDbEntity
  8
C_CORPO
100
AcDbLine
 62
250
  6
CONTINUOUS
 10
10.4618707767
 20
10.4800554593
 11
10.4469983297
 21
10.5056876462
  0
LINE
  5
5F6
100
AcDbEntity
  8
C_CORPO
100
AcDbLine
 62
250
  6
CONTINUOUS
 10
10.4749077871
 20
10.4572479316
 11
10.4618707767
 21
10.4800554593
  0
LINE
  5
5F7
100
AcDbEntity
  8
C_CORPO
100
AcDbLine
 62
250
  6
CONTINUOUS
 10
10.4863534923
 20
10.4369506924
 11
10.4749077871
 21
10.4572479316
  0
LINE
  5
5F8
100
AcDbEntity
  8
C_CORPO
100
AcDbLine
 62
250
  6
CONTINUOUS
 10
10.496415753
 20
10.4188845808
 11
10.4863534923
 21
10.4369506924
  0
LINE
  5
5F9
100
AcDbEntity
  8
C_CORPO
100
AcDbLine
 62
250
  6
CONTINUOUS
 10
10.5052285228
 20
10.4028721897
 11
10.496415753
 21
10.4188845808
  0
LINE
  5
5FA
100
AcDbEntity
  8
C_CORPO
100
AcDbLine
 62
250
  6
CONTINUOUS
 10
10.512977996
 20
10.3886386165
 11
10.5052285228
 21
10.4028721897
  0
LINE
  5
5FB
100
AcDbEntity
  8
C_CORPO
100
AcDbLine
 62
250
  6
CONTINUOUS
 10
10.5228255576
 20
10.3703193963
 11
10.512977996
 21
10.3886386165
  0
LINE
  5
5FC
100
AcDbEntity
  8
C_CORPO
100
AcDbLine
 62
250
  6
CONTINUOUS
 10
10.5282856416
 20
10.3600372767
 11
10.5228255576
 21
10.3703193963
  0
LINE
  5
5FD
100
AcDbEntity
  8
C_CORPO
100
AcDbLine
 62
250
  6
CONTINUOUS
 10
10.5349075561
 20
10.3474154602
 11
10.5282856416
 21
10.3600372767
  0
LINE
  5
5FE
100
AcDbEntity
  8
C_CORPO
100
AcDbLine
 62
250
  6
CONTINUOUS
 10
10.5398110163
 20
10.337926792
 11
10.5349075561
 21
10.3474154602
  0
LWPOLYLINE
  5
5FF
100
AcDbEntity
  8
C_CORPO
100
AcDbPolyline
 62
250
  6
CONTINUOUS
 90
4
 70
0
 10
10.5448494239
 20
10.3279378725
 10
10.5441243052
 20
10.3294118297
 10
10.5432543324
 20
10.3311500315
 10
10.5398110163
 20
10.337926792
  0
LINE
  5
600
100
AcDbEntity
  8
C_COPERCHIO
100
AcDbLine
 62
7
  6
CONTINUOUS
 10
-9.65
 20
-20.15
 11
-9.5723308767
 21
-20.1178283957
  0
LINE
  5
601
100
AcDbEntity
  8
C_CORPO
100
AcDbLine
 62
7
  6
CONTINUOUS
 10
2.6975340777
 20
14.7369096983
 11
8.3024659223
 21
14.7369096983
  0
LINE
  5
602
100
AcDbEntity
  8
C_CORPO
100
AcDbLine
 62
7
  6
CONTINUOUS
 10
-2.6975340777
 20
14.7369096983
 11
-8.3024659223
 21
14.7369096983
  0
LINE
  5
603
100
AcDbEntity
  8
C_CORPO
100
AcDbLine
 62
250
  6
CONTINUOUS
 10
2.6975340777
 20
15.0229318279
 11
-2.6975340777
 21
15.0229318279
  0
LINE
  5
604
100
AcDbEntity
  8
C_CORPO
100
AcDbLine
 62
250
  6
CONTINUOUS
 10
8.3024659223
 20
15.0229318279
 11
10.7412468478
 21
15.0229318279
  0
LINE
  5
605
100
AcDbEntity
  8
C_CORPO
100
AcDbLine
 62
250
  6
CONTINUOUS
 10
-8.3024659223
 20
15.0229318279
 11
-10.7412468478
 21
15.0229318279
  0
LINE
  5
606
100
AcDbEntity
  8
C_CORPO
100
AcDbLine
 62
7
  6
CONTINUOUS
 10
8.3022379666
 20
15.25
 11
2.6977620334
 21
15.25
  0
LINE
  5
607
100
AcDbEntity
  8
C_CORPO
100
AcDbLine
 62
7
  6
CONTINUOUS
 10
-8.3022379666
 20
15.25
 11
-2.6977620334
 21
15.25
  0
LINE
  5
608
100
AcDbEntity
  8
C_CORPO
100
AcDbLine
 62
250
  6
CONTINUOUS
 10
9.7413991526
 20
16.022779523
 11
8.7400728142
 21
16.022779523
  0
LINE
  5
609
100
AcDbEntity
  8
C_CORPO
100
AcDbLine
 62
250
  6
CONTINUOUS
 10
2.2599271858
 20
16.022779523
 11
-2.2599271858
 21
16.022779523
  0
LINE
  5
60A
100
AcDbEntity
  8
C_CORPO
100
AcDbLine
 62
250
  6
CONTINUOUS
 10
-8.7400728142
 20
16.022779523
 11
-9.7413991526
 21
16.022779523
  0
LINE
  5
60B
100
AcDbEntity
  8
C_CORPO
100
AcDbLine
 62
250
  6
CONTINUOUS
 10
-9.9600444136
 20
16.241424784
 11
9.9600444136
 21
16.241424784
  0
LWPOLYLINE
  5
60C
100
AcDbEntity
  8
C_CORPO
100
AcDbPolyline
 62
250
  6
CONTINUOUS
 90
64
 70
0
 10
9.9600444136
 20
16.241424784
 10
9.9847994587
 20
16.2411222027
 10
10.0095775101
 20
16.2402051644
 10
10.0343632434
 20
16.2386713791
 10
10.0591470264
 20
16.2365183676
 10
10.0839074489
 20
16.2337448883
 10
10.1086114945
 20
16.2303523864
 10
10.133243517
 20
16.2263414348
 10
10.1577880193
 20
16.2217129769
 10
10.1822125637
 20
16.216472172
 10
10.2065008231
 20
16.2106222827
 10
10.2306386323
 20
16.2041664821
 10
10.2545974169
 20
16.197112655
 10
10.2783569028
 20
16.1894678086
 10
10.3019081758
 20
16.1812358593
 10
10.3252401134
 20
16.1724213613
 10
10.3483365321
 20
16.1630310561
 10
10.3711851644
 20
16.1530705656
 10
10.393780635
 20
16.1425423854
 10
10.4161114416
 20
16.1314515277
 10
10.4381609292
 20
16.1198059142
 10
10.459915919
 20
16.1076122287
 10
10.4813641159
 20
16.0948769954
 10
10.5024906432
 20
16.081608677
 10
10.5232788589
 20
16.0678175857
 10
10.5437150333
 20
16.0535129246
 10
10.5637873199
 20
16.0387030847
 10
10.5834824384
 20
16.0233979573
 10
10.602787689
 20
16.0076075929
 10
10.6216916799
 20
15.9913414971
 10
10.6401834583
 20
15.9746091973
 10
10.6582515177
 20
15.9574211654
 10
10.675884689
 20
15.9397880902
 10
10.6930728134
 20
15.9217201307
 10
10.7098052008
 20
15.9032284586
 10
10.7260713818
 20
15.8843245787
 10
10.7418618346
 20
15.8650194374
 10
10.7571670513
 20
15.8453244296
 10
10.771976984
 20
15.8252522518
 10
10.7862817526
 20
15.8048161675
 10
10.8000729693
 20
15.7840280156
 10
10.813341425
 20
15.7629015313
 10
10.8260768043
 20
15.7414533587
 10
10.8382706518
 20
15.7196983584
 10
10.8499164328
 20
15.6976488399
 10
10.8610074381
 20
15.6753180316
 10
10.8715357444
 20
15.6527225993
 10
10.8814963466
 20
15.6298740374
 10
10.8908867426
 20
15.6067777449
 10
10.8997013014
 20
15.5834460286
 10
10.9079333015
 20
15.5598950365
 10
10.9155782211
 20
15.5361358012
 10
10.9226321403
 20
15.5121772404
 10
10.9290880512
 20
15.4880396225
 10
10.9349380909
 20
15.4637514133
 10
10.940179083
 20
15.4393267409
 10
10.9448077455
 20
15.4147819645
 10
10.9488189089
 20
15.3901495161
 10
10.9522116209
 20
15.3654448747
 10
10.9549852946
 20
15.3406837029
 10
10.95713847
 20
15.3158990645
 10
10.9586723803
 20
15.291112386
 10
10.9595894991
 20
15.2663332854
 10
10.9598921087
 20
15.2415770888
  0
LINE
  5
60D
100
AcDbEntity
  8
C_COPERCHIO
100
AcDbLine
 62
7
  6
CONTINUOUS
 10
-9.5723308767
 20
20.1178283957
 11
-9.65
 21
20.15
  0
LINE
  5
60E
100
AcDbEntity
  8
C_CORPO
100
AcDbLine
 62
7
  6
CONTINUOUS
 10
8.3024659223
 20
14.7369096983
 11
8.2498952884
 21
14.7894803322
  0
LINE
  5
60F
100
AcDbEntity
  8
C_CORPO
100
AcDbLine
 62
250
  6
CONTINUOUS
 10
9.7557362871
 20
11.4725676792
 11
9.7413991526
 21
11.490929717
  0
LINE
  5
610
100
AcDbEntity
  8
C_CORPO
100
AcDbLine
 62
250
  6
CONTINUOUS
 10
9.9186304299
 20
11.2644480717
 11
9.7557362871
 21
11.4725676792
  0
LINE
  5
611
100
AcDbEntity
  8
C_CORPO
100
AcDbLine
 62
250
  6
CONTINUOUS
 10
9.9741774383
 20
11.1926993827
 11
9.9186304299
 21
11.2644480717
  0
LINE
  5
612
100
AcDbEntity
  8
C_CORPO
100
AcDbLine
 62
250
  6
CONTINUOUS
 10
10.0125417338
 20
11.1426094517
 11
9.9741774383
 21
11.1926993827
  0
LINE
  5
613
100
AcDbEntity
  8
C_CORPO
100
AcDbLine
 62
250
  6
CONTINUOUS
 10
10.0517624119
 20
11.0908260848
 11
10.0125417338
 21
11.1426094517
  0
LINE
  5
614
100
AcDbEntity
  8
C_CORPO
100
AcDbLine
 62
250
  6
CONTINUOUS
 10
10.0916937309
 20
11.0373870241
 11
10.0517624119
 21
11.0908260848
  0
LWPOLYLINE
  5
615
100
AcDbEntity
  8
C_COPERCHIO
100
AcDbPolyline
 62
7
  6
CONTINUOUS
 90
11
 70
0
 10
3.5121230458
 20
23.6217645853
 10
3.5215151458
 20
23.6059319734
 10
3.533546259
 20
23.5877482156
 10
3.5479972099
 20
23.5672975908
 10
3.5648946889
 20
23.5446609458
 10
3.5842120057
 20
23.5198741291
 10
3.6056499129
 20
23.4929948055
 10
3.6291962852
 20
23.4641644364
 10
3.654863248
 20
23.4334475557
 10
3.6823879307
 20
23.4007813254
 10
3.7117762371
 20
23.366324032
  0
LWPOLYLINE
  5
616
100
AcDbEntity
  8
C_COPERCHIO
100
AcDbPolyline
 62
7
  6
CONTINUOUS
 90
11
 70
0
 10
3.6319883812
 20
-23.4607983071
 10
3.6084062727
 20
-23.4895937432
 10
3.586947112
 20
-23.5163876959
 10
3.5675821744
 20
-23.5411162206
 10
3.5505352496
 20
-23.563832981
 10
3.5357838803
 20
-23.5844125717
 10
3.5233505238
 20
-23.6028398223
 10
3.5135263414
 20
-23.6192471812
 10
3.5064083868
 20
-23.6335634203
 10
3.5018996064
 20
-23.645599966
 10
3.5
 20
-23.655248622
  0
LWPOLYLINE
  5
617
100
AcDbEntity
  8
C_COPERCHIO
100
AcDbPolyline
 62
7
  6
CONTINUOUS
 90
4
 70
0
 10
3.8116691637
 20
-23.2507472186
 10
3.7143881309
 20
-23.3632848192
 10
3.6851253031
 20
-23.3975603285
 10
3.6319883812
 20
-23.4607983071
  0
LINE
  5
618
100
AcDbEntity
  8
C_CORPO
100
AcDbLine
 62
7
  6
CONTINUOUS
 10
3.4
 20
-19.9
 11
3.3991663033
 21
-19.9008336967
  0
LINE
  5
619
100
AcDbEntity
  8
C_COPERCHIO
100
AcDbLine
 62
250
  6
CONTINUOUS
 10
-3.8834968882
 20
-23.1690104681
 11
-3.9252991036
 21
-23.1949198369
  0
LWPOLYLINE
  5
61A
100
AcDbEntity
  8
C_COPERCHIO
100
AcDbPolyline
 62
250
  6
CONTINUOUS
 90
14
 70
0
 10
-3.9252991036
 20
-23.1949198369
 10
-4.0062060645
 20
-23.2444791825
 10
-4.0444409339
 20
-23.2683019054
 10
-4.0806071324
 20
-23.2913714976
 10
-4.1142183599
 20
-23.3131697211
 10
-4.144934812
 20
-23.3336025571
 10
-4.1725382727
 20
-23.3527640243
 10
-4.196817731
 20
-23.3704179409
 10
-4.2175878465
 20
-23.3864898959
 10
-4.2347698389
 20
-23.4010543002
 10
-4.2483428083
 20
-23.4140982047
 10
-4.2582503992
 20
-23.4256172931
 10
-4.2644447924
 20
-23.4356158818
 10
-4.2669366287
 20
-23.4440939707
  0
LINE
  5
61B
100
AcDbEntity
  8
C_COPERCHIO
100
AcDbLine
 62
7
  6
CONTINUOUS
 10
-8.0665695018
 20
-21.3240205999
 11
-8.2325449351
 21
-21.3927698754
  0
LINE
  5
61C
100
AcDbEntity
  8
C_CORPO
100
AcDbLine
 62
250
  6
CONTINUOUS
 10
-9.9600444136
 20
16.7413486316
 11
9.9600444136
 21
16.7413486316
  0
LWPOLYLINE
  5
61D
100
AcDbEntity
  8
C_CORPO
100
AcDbPolyline
 62
250
  6
CONTINUOUS
 90
31
 70
0
 10
9.9600444136
 20
16.7413486316
 10
9.9966704663
 20
16.7409074487
 10
10.0332898143
 20
16.7395648522
 10
10.0699024576
 20
16.7373208422
 10
10.1065401534
 20
16.7341752699
 10
10.1431711445
 20
16.7301282841
 10
10.1797001591
 20
16.7251803304
 10
10.2161257755
 20
16.7193273393
 10
10.2524494155
 20
16.7125733805
 10
10.2885800717
 20
16.7049311083
 10
10.3245158067
 20
16.696396939
 10
10.360258558
 20
16.6869744564
 10
10.3957231312
 20
16.6766870665
 10
10.4309006242
 20
16.6655348674
 10
10.4657999392
 20
16.6535177611
 10
10.5003625883
 20
16.640658859
 10
10.5345851165
 20
16.6269586929
 10
10.5684709788
 20
16.6124167311
 10
10.6019720524
 20
16.5970544895
 10
10.6350916565
 20
16.5808694479
 10
10.6678264719
 20
16.5638641265
 10
10.7001184185
 20
16.5460676022
 10
10.7319688191
 20
16.5274770183
 10
10.7633763508
 20
16.5080952314
 10
10.7942789651
 20
16.4879598887
 10
10.8246744961
 20
16.4670700076
 10
10.8545651097
 20
16.4454265706
 10
10.8838952544
 20
16.4230701714
 10
10.9126464133
 20
16.4000143413
 10
10.9408371034
 20
16.3762455491
 10
10.9684673247
 20
16.3517637946
  0
LINE
  5
61E
100
AcDbEntity
  8
C_COPERCHIO
100
AcDbLine
 62
7
  6
CONTINUOUS
 10
-8.0665695018
 20
21.3240205999
 11
-8.2325449351
 21
21.3927698754
  0
LWPOLYLINE
  5
61F
100
AcDbEntity
  8
C_COPERCHIO
100
AcDbPolyline
 62
250
  6
CONTINUOUS
 90
3
 70
0
 10
-4.0057035837
 20
23.2441575383
 10
-3.9250116203
 20
23.1947395726
 10
-3.8834318824
 20
23.1689711919
  0
LINE
  5
620
100
AcDbEntity
  8
C_CORPO
100
AcDbLine
 62
7
  6
CONTINUOUS
 10
3.4
 20
19.9
 11
3.3991663033
 21
19.9008336967
  0
LWPOLYLINE
  5
621
100
AcDbEntity
  8
C_COPERCHIO
100
AcDbPolyline
 62
7
  6
CONTINUOUS
 90
4
 70
0
 10
3.7117762371
 20
23.366324032
 10
3.8101522021
 20
23.2525045608
 10
3.8460361143
 20
23.2113475607
 10
3.8834971643
 20
23.1690100818
  0
LWPOLYLINE
  5
622
100
AcDbEntity
  8
C_COPERCHIO
100
AcDbPolyline
 62
7
  6
CONTINUOUS
 90
3
 70
0
 10
3.8834632412
 20
-23.168936633
 10
3.8468560235
 20
-23.2103579719
 10
3.8116691637
 20
-23.2507472186
  0
LWPOLYLINE
  5
623
100
AcDbEntity
  8
C_COPERCHIO
100
AcDbPolyline
 62
7
  6
CONTINUOUS
 90
7
 70
0
 10
7.143236151
 20
-19.8569183611
 10
7.1745278619
 20
-19.8254371529
 10
7.1879424721
 20
-19.8122868766
 10
7.1988295074
 20
-19.8011704926
 10
7.2068560919
 20
-19.7925183447
 10
7.2123551014
 20
-19.7868617444
 10
7.2153265358
 20
-19.7846734642
  0
LWPOLYLINE
  5
624
100
AcDbEntity
  8
C_COPERCHIO
100
AcDbPolyline
 62
7
  6
CONTINUOUS
 90
3
 70
0
 10
7.0869490804
 20
-19.9131516421
 10
7.1253590504
 20
-19.8746110202
 10
7.143236151
 20
-19.8569183611
  0
LINE
  5
625
100
AcDbEntity
  8
C_COPERCHIO
100
AcDbLine
 62
7
  6
CONTINUOUS
 10
7.2153265358
 20
-19.7846734642
 11
7.3
 21
-19.7
  0
LINE
  5
626
100
AcDbEntity
  8
C_CORPO
100
AcDbLine
 62
7
  6
CONTINUOUS
 10
7.4
 20
-19.7
 11
7.4890208311
 21
-19.6109791689
  0
LINE
  5
627
100
AcDbEntity
  8
C_COPERCHIO
100
AcDbLine
 62
7
  6
CONTINUOUS
 10
7.2153265358
 20
-20.9846734642
 11
7.3733437671
 21
-20.8266562329
  0
LINE
  5
628
100
AcDbEntity
  8
C_COPERCHIO
100
AcDbLine
 62
7
  6
CONTINUOUS
 10
6.9369928921
 20
-20.0632331316
 11
7.066416211
 21
-19.933550052
  0
LINE
  5
629
100
AcDbEntity
  8
C_COPERCHIO
100
AcDbLine
 62
7
  6
CONTINUOUS
 10
7.066416211
 20
-19.933550052
 11
7.0869490804
 21
-19.9131516421
  0
LINE
  5
62A
100
AcDbEntity
  8
C_COPERCHIO
100
AcDbLine
 62
7
  6
CONTINUOUS
 10
6.9153379589
 20
-20.0846620411
 11
6.9369928921
 21
-20.0632331316
  0
LWPOLYLINE
  5
62B
100
AcDbEntity
  8
C_CORPO
100
AcDbPolyline
 62
250
  6
CONTINUOUS
 90
31
 70
0
 10
10.9684673247
 20
-16.3517637946
 10
10.9408371034
 20
-16.3762455491
 10
10.9126464133
 20
-16.4000143413
 10
10.8838952544
 20
-16.4230701714
 10
10.8545651097
 20
-16.4454265706
 10
10.8246744961
 20
-16.4670700076
 10
10.7942789651
 20
-16.4879598887
 10
10.7633763508
 20
-16.5080952314
 10
10.7319688191
 20
-16.5274770183
 10
10.7001184185
 20
-16.5460676022
 10
10.6678264719
 20
-16.5638641265
 10
10.6350916565
 20
-16.5808694479
 10
10.6019720524
 20
-16.5970544895
 10
10.5684709788
 20
-16.6124167311
 10
10.5345851165
 20
-16.6269586929
 10
10.5003625883
 20
-16.640658859
 10
10.4657999392
 20
-16.6535177611
 10
10.4309006242
 20
-16.6655348674
 10
10.3957231312
 20
-16.6766870665
 10
10.360258558
 20
-16.6869744564
 10
10.3245158067
 20
-16.696396939
 10
10.2885800717
 20
-16.7049311083
 10
10.2524494155
 20
-16.7125733805
 10
10.2161257755
 20
-16.7193273394
 10
10.1797001591
 20
-16.7251803304
 10
10.1431711445
 20
-16.7301282841
 10
10.1065401534
 20
-16.7341752699
 10
10.0699024576
 20
-16.7373208422
 10
10.0332898143
 20
-16.7395648522
 10
9.9966704663
 20
-16.7409074487
 10
9.9600444136
 20
-16.7413486316
  0
LINE
  5
62C
100
AcDbEntity
  8
C_CORPO
100
AcDbLine
 62
7
  6
CONTINUOUS
 10
-10.1965069853
 20
19.1967670433
 11
10.1965069853
 21
19.1967670433
  0
LINE
  5
62D
100
AcDbEntity
  8
C_CORPO
100
AcDbLine
 62
7
  6
CONTINUOUS
 10
-9.37801846
 20
19.6109791689
 11
9.37801846
 21
19.6109791689
  0
LINE
  5
62E
100
AcDbEntity
  8
C_CORPO
100
AcDbLine
 62
7
  6
CONTINUOUS
 10
7.4
 20
19.7
 11
5.75
 21
19.7
  0
LINE
  5
62F
100
AcDbEntity
  8
C_CORPO
100
AcDbLine
 62
7
  6
CONTINUOUS
 10
-5.75
 20
19.7
 11
-7.4
 21
19.7
  0
LINE
  5
630
100
AcDbEntity
  8
C_COPERCHIO
100
AcDbLine
 62
7
  6
CONTINUOUS
 10
-7.2153265358
 20
19.7846734642
 11
-6.5846734642
 21
19.7846734642
  0
LINE
  5
631
100
AcDbEntity
  8
C_COPERCHIO
100
AcDbLine
 62
7
  6
CONTINUOUS
 10
6.5846734642
 20
19.7846734642
 11
7.2153265358
 21
19.7846734642
  0
LINE
  5
632
100
AcDbEntity
  8
C_CORPO
100
AcDbLine
 62
7
  6
CONTINUOUS
 10
-5.6609791689
 20
19.8109791689
 11
5.6609791689
 21
19.8109791689
  0
LINE
  5
633
100
AcDbEntity
  8
C_CORPO
100
AcDbLine
 62
7
  6
CONTINUOUS
 10
-2.4015242349
 20
19.8844866796
 11
2.4015242349
 21
19.8844866796
  0
LINE
  5
634
100
AcDbEntity
  8
C_CORPO
100
AcDbLine
 62
7
  6
CONTINUOUS
 10
-5.75
 20
19.9
 11
-3.4
 21
19.9
  0
LINE
  5
635
100
AcDbEntity
  8
C_CORPO
100
AcDbLine
 62
7
  6
CONTINUOUS
 10
3.4
 20
19.9
 11
5.75
 21
19.9
  0
LINE
  5
636
100
AcDbEntity
  8
C_COPERCHIO
100
AcDbLine
 62
7
  6
CONTINUOUS
 10
-6.4266562329
 20
19.9266562329
 11
-3.3991663033
 21
19.9266562329
  0
LINE
  5
637
100
AcDbEntity
  8
C_COPERCHIO
100
AcDbLine
 62
7
  6
CONTINUOUS
 10
3.3991663033
 20
19.9266562329
 11
6.4266562329
 21
19.9266562329
  0
LWPOLYLINE
  5
638
100
AcDbEntity
  8
C_COPERCHIO
100
AcDbPolyline
 62
7
  6
CONTINUOUS
 90
6
 70
0
 10
7.1745278619
 20
19.8254371529
 10
7.1879424721
 20
19.8122868766
 10
7.1988295074
 20
19.8011704926
 10
7.2068560919
 20
19.7925183447
 10
7.2123551014
 20
19.7868617444
 10
7.2153265358
 20
19.7846734642
  0
LINE
  5
639
100
AcDbEntity
  8
C_COPERCHIO
100
AcDbLine
 62
7
  6
CONTINUOUS
 10
6.9153379589
 20
20.0846620411
 11
6.9369928921
 21
20.0632331316
  0
LWPOLYLINE
  5
63A
100
AcDbEntity
  8
C_COPERCHIO
100
AcDbPolyline
 62
7
  6
CONTINUOUS
 90
3
 70
0
 10
7.1253590504
 20
19.8746110202
 10
7.143236151
 20
19.8569183611
 10
7.1745278619
 20
19.8254371529
  0
LINE
  5
63B
100
AcDbEntity
  8
C_COPERCHIO
100
AcDbLine
 62
7
  6
CONTINUOUS
 10
7.2153265358
 20
19.7846734642
 11
7.3
 21
19.7
  0
LINE
  5
63C
100
AcDbEntity
  8
C_CORPO
100
AcDbLine
 62
7
  6
CONTINUOUS
 10
7.4
 20
19.7
 11
7.4890208311
 21
19.6109791689
  0
LINE
  5
63D
100
AcDbEntity
  8
C_COPERCHIO
100
AcDbLine
 62
7
  6
CONTINUOUS
 10
7.3733437671
 20
20.8266562329
 11
7.2153265358
 21
20.9846734642
  0
LINE
  5
63E
100
AcDbEntity
  8
C_COPERCHIO
100
AcDbLine
 62
7
  6
CONTINUOUS
 10
7.0454423972
 20
19.9545576028
 11
7.0869490804
 21
19.9131516421
  0
LINE
  5
63F
100
AcDbEntity
  8
C_COPERCHIO
100
AcDbLine
 62
7
  6
CONTINUOUS
 10
7.0869490804
 20
19.9131516421
 11
7.1253590504
 21
19.8746110202
  0
LINE
  5
640
100
AcDbEntity
  8
C_COPERCHIO
100
AcDbLine
 62
7
  6
CONTINUOUS
 10
6.9369928921
 20
20.0632331316
 11
7.0454423972
 21
19.9545576028
  0
LINE
  5
641
100
AcDbEntity
  8
C_CORPO
100
AcDbLine
 62
7
  6
CONTINUOUS
 10
10.0829378052
 20
-19.3131096223
 11
10.1965069853
 21
-19.1967670433
  0
LINE
  5
642
100
AcDbEntity
  8
C_CORPO
100
AcDbLine
 62
7
  6
CONTINUOUS
 10
10.3827701052
 20
-19.0105039234
 11
10.1965069853
 21
-19.1967670433
  0
LINE
  5
643
100
AcDbEntity
  8
C_CORPO
100
AcDbLine
 62
7
  6
CONTINUOUS
 10
10.0850175454
 20
-19.3181305591
 11
8.5531481045
 21
-20.85
  0
LINE
  5
644
100
AcDbEntity
  8
C_COPERCHIO
100
AcDbLine
 62
7
  6
CONTINUOUS
 10
8.2325449351
 20
-21.3927698754
 11
7.2427698754
 21
-22.3825449351
  0
LINE
  5
645
100
AcDbEntity
  8
C_CORPO
100
AcDbLine
 62
7
  6
CONTINUOUS
 10
8.8
 20
-20.85
 11
10.5643027805
 21
-19.0856972195
  0
LINE
  5
646
100
AcDbEntity
  8
C_COPERCHIO
100
AcDbLine
 62
7
  6
CONTINUOUS
 10
9.5723308767
 20
-20.1178283957
 11
9.363484001
 21
-20.3266752714
  0
LINE
  5
647
100
AcDbEntity
  8
C_COPERCHIO
100
AcDbLine
 62
7
  6
CONTINUOUS
 10
9.65
 20
-20.15
 11
8.9
 21
-20.9
  0
LINE
  5
648
100
AcDbEntity
  8
C_COPERCHIO
100
AcDbLine
 62
7
  6
CONTINUOUS
 10
-3.5
 20
20.0
 11
-3.3993510221
 21
20.0
  0
LINE
  5
649
100
AcDbEntity
  8
C_COPERCHIO
100
AcDbLine
 62
7
  6
CONTINUOUS
 10
3.3993510221
 20
20.0
 11
3.5
 21
20.0
  0
LINE
  5
64A
100
AcDbEntity
  8
C_COPERCHIO
100
AcDbLine
 62
7
  6
CONTINUOUS
 10
2.5
 20
20.0532338935
 11
2.4413111231
 21
20.0532338935
  0
LINE
  5
64B
100
AcDbEntity
  8
C_COPERCHIO
100
AcDbLine
 62
7
  6
CONTINUOUS
 10
-2.4413111231
 20
20.0532338935
 11
-2.5
 21
20.0532338935
  0
LINE
  5
64C
100
AcDbEntity
  8
C_COPERCHIO
100
AcDbLine
 62
250
  6
CONTINUOUS
 10
-6.9153379589
 20
20.0846620411
 11
-6.8846620411
 21
20.0846620411
  0
LINE
  5
64D
100
AcDbEntity
  8
C_COPERCHIO
100
AcDbLine
 62
250
  6
CONTINUOUS
 10
6.8846620411
 20
20.0846620411
 11
6.9153379589
 21
20.0846620411
  0
LINE
  5
64E
100
AcDbEntity
  8
C_COPERCHIO
100
AcDbLine
 62
7
  6
CONTINUOUS
 10
-6.5846734642
 20
20.0846734642
 11
6.5846734642
 21
20.0846734642
  0
LINE
  5
64F
100
AcDbEntity
  8
C_COPERCHIO
100
AcDbLine
 62
250
  6
CONTINUOUS
 10
9.363484001
 20
20.3266752714
 11
9.3233247286
 21
20.3266752714
  0
LINE
  5
650
100
AcDbEntity
  8
C_COPERCHIO
100
AcDbLine
 62
250
  6
CONTINUOUS
 10
7.4
 20
20.3266752714
 11
7.3776691233
 21
20.3266752714
  0
LINE
  5
651
100
AcDbEntity
  8
C_COPERCHIO
100
AcDbLine
 62
250
  6
CONTINUOUS
 10
-7.3776691233
 20
20.3266752714
 11
-7.4
 21
20.3266752714
  0
LINE
  5
652
100
AcDbEntity
  8
C_COPERCHIO
100
AcDbLine
 62
250
  6
CONTINUOUS
 10
-9.3233247286
 20
20.3266752714
 11
-9.363484001
 21
20.3266752714
  0
LINE
  5
653
100
AcDbEntity
  8
C_COPERCHIO
100
AcDbLine
 62
250
  6
CONTINUOUS
 10
-6.8846620411
 20
20.3846620411
 11
6.8846620411
 21
20.3846620411
  0
LINE
  5
654
100
AcDbEntity
  8
C_COPERCHIO
100
AcDbLine
 62
7
  6
CONTINUOUS
 10
8.869620017
 20
20.8266562329
 11
8.8233437671
 21
20.8266562329
  0
LINE
  5
655
100
AcDbEntity
  8
C_COPERCHIO
100
AcDbLine
 62
7
  6
CONTINUOUS
 10
7.4
 20
20.8266562329
 11
7.3733437671
 21
20.8266562329
  0
LINE
  5
656
100
AcDbEntity
  8
C_COPERCHIO
100
AcDbLine
 62
7
  6
CONTINUOUS
 10
-7.3733437671
 20
20.8266562329
 11
-7.4
 21
20.8266562329
  0
LINE
  5
657
100
AcDbEntity
  8
C_COPERCHIO
100
AcDbLine
 62
7
  6
CONTINUOUS
 10
-8.8233437671
 20
20.8266562329
 11
-8.869620017
 21
20.8266562329
  0
LINE
  5
658
100
AcDbEntity
  8
C_CORPO
100
AcDbLine
 62
7
  6
CONTINUOUS
 10
7.4
 20
20.85
 11
8.8
 21
20.85
  0
LINE
  5
659
100
AcDbEntity
  8
C_CORPO
100
AcDbLine
 62
7
  6
CONTINUOUS
 10
-7.4
 20
20.85
 11
-8.8
 21
20.85
  0
LINE
  5
65A
100
AcDbEntity
  8
C_COPERCHIO
100
AcDbLine
 62
7
  6
CONTINUOUS
 10
-8.9
 20
20.9
 11
-8.2325449351
 21
20.9
  0
LINE
  5
65B
100
AcDbEntity
  8
C_COPERCHIO
100
AcDbLine
 62
7
  6
CONTINUOUS
 10
8.2325449351
 20
20.9
 11
8.9
 21
20.9
  0
LINE
  5
65C
100
AcDbEntity
  8
C_COPERCHIO
100
AcDbLine
 62
7
  6
CONTINUOUS
 10
-7.5666456542
 20
20.9872686779
 11
-6.9153379589
 21
20.9872686779
  0
LINE
  5
65D
100
AcDbEntity
  8
C_COPERCHIO
100
AcDbLine
 62
7
  6
CONTINUOUS
 10
6.9153379589
 20
20.9872686779
 11
7.5666456542
 21
20.9872686779
  0
LINE
  5
65E
100
AcDbEntity
  8
C_COPERCHIO
100
AcDbLine
 62
7
  6
CONTINUOUS
 10
3.0
 20
21.0
 11
-3.0
 21
21.0
  0
LINE
  5
65F
100
AcDbEntity
  8
C_COPERCHIO
100
AcDbLine
 62
250
  6
CONTINUOUS
 10
7.5666456542
 20
21.2252970227
 11
3.0
 21
21.2252970227
  0
LINE
  5
660
100
AcDbEntity
  8
C_COPERCHIO
100
AcDbLine
 62
250
  6
CONTINUOUS
 10
-3.0
 20
21.2252970227
 11
-7.5666456542
 21
21.2252970227
  0
LINE
  5
661
100
AcDbEntity
  8
C_COPERCHIO
100
AcDbLine
 62
7
  6
CONTINUOUS
 10
-3.0
 20
21.6637573199
 11
3.0
 21
21.6637573199
  0
LINE
  5
662
100
AcDbEntity
  8
C_COPERCHIO
100
AcDbLine
 62
7
  6
CONTINUOUS
 10
2.5
 20
21.7
 11
-2.5
 21
21.7
  0
LINE
  5
663
100
AcDbEntity
  8
C_CORPO
100
AcDbLine
 62
7
  6
CONTINUOUS
 10
10.3827701052
 20
19.0105039234
 11
10.1965069853
 21
19.1967670433
  0
LINE
  5
664
100
AcDbEntity
  8
C_CORPO
100
AcDbLine
 62
7
  6
CONTINUOUS
 10
8.5531481045
 20
20.85
 11
10.0850175454
 21
19.3181305591
  0
LINE
  5
665
100
AcDbEntity
  8
C_COPERCHIO
100
AcDbLine
 62
7
  6
CONTINUOUS
 10
7.2427698754
 20
22.3825449351
 11
8.2325449351
 21
21.3927698754
  0
LINE
  5
666
100
AcDbEntity
  8
C_CORPO
100
AcDbLine
 62
7
  6
CONTINUOUS
 10
10.5643027805
 20
19.0856972195
 11
8.8
 21
20.85
  0
LINE
  5
667
100
AcDbEntity
  8
C_COPERCHIO
100
AcDbLine
 62
7
  6
CONTINUOUS
 10
9.5723308767
 20
20.1178283957
 11
9.363484001
 21
20.3266752714
  0
LINE
  5
668
100
AcDbEntity
  8
C_COPERCHIO
100
AcDbLine
 62
7
  6
CONTINUOUS
 10
9.65
 20
20.15
 11
8.9
 21
20.9
  0
LINE
  5
669
100
AcDbEntity
  8
C_CORPO
100
AcDbLine
 62
7
  6
CONTINUOUS
 10
10.1965069853
 20
19.1967670433
 11
10.0829378052
 21
19.3131096223
  0
LINE
  5
66A
100
AcDbEntity
  8
C_COPERCHIO
100
AcDbLine
 62
250
  6
CONTINUOUS
 10
8.25
 20
-24.2500380762
 11
8.2631674569
 21
-24.2368706193
  0
LINE
  5
66B
100
AcDbEntity
  8
C_COPERCHIO
100
AcDbLine
 62
250
  6
CONTINUOUS
 10
8.4999619238
 20
-24.5
 11
8.5131293807
 21
-24.4868325431
  0
LINE
  5
66C
100
AcDbEntity
  8
C_COPERCHIO
100
AcDbLine
 62
250
  6
CONTINUOUS
 10
10.6413041988
 20
-22.3910122558
 11
10.6323164546
 21
-22.4
  0
LINE
  5
66D
100
AcDbEntity
  8
C_COPERCHIO
100
AcDbLine
 62
7
  6
CONTINUOUS
 10
8.0665695018
 20
-20.9829813964
 11
8.2325449351
 21
-20.9
  0
LWPOLYLINE
  5
66E
100
AcDbEntity
  8
C_COPERCHIO
100
AcDbPolyline
 62
7
  6
CONTINUOUS
 90
9
 70
0
 10
-10.6491820368
 20
22.3997180294
 10
-10.7021542515
 20
22.395115231
 10
-10.7542172895
 20
22.3849398487
 10
-10.8047927581
 20
22.369345737
 10
-10.8534810615
 20
22.3484691028
 10
-10.8995838191
 20
22.3226233164
 10
-10.9421983278
 20
22.2924539227
 10
-10.9807646256
 20
22.2586595885
 10
-10.9859590363
 20
22.2535403519
  0
LWPOLYLINE
  5
66F
100
AcDbEntity
  8
C_COPERCHIO
100
AcDbPolyline
 62
7
  6
CONTINUOUS
 90
6
 70
0
 10
-10.65
 20
22.3997025937
 10
-10.6467414675
 20
22.3997966761
 10
-10.6436074449
 20
22.3998729526
 10
-10.6405979324
 20
22.3999314232
 10
-10.6377129298
 20
22.399972088
 10
-10.6349524372
 20
22.3999949469
  0
LINE
  5
670
100
AcDbEntity
  8
C_COPERCHIO
100
AcDbLine
 62
250
  6
CONTINUOUS
 10
7.1775725707
 20
22.2251447178
 11
3.0
 21
22.2251447178
  0
LINE
  5
671
100
AcDbEntity
  8
C_COPERCHIO
100
AcDbLine
 62
250
  6
CONTINUOUS
 10
-3.0
 20
22.2251447178
 11
-7.1775725707
 21
22.2251447178
  0
LINE
  5
672
100
AcDbEntity
  8
C_COPERCHIO
100
AcDbLine
 62
7
  6
CONTINUOUS
 10
3.5
 20
22.276069039
 11
3.0
 21
22.276069039
  0
LINE
  5
673
100
AcDbEntity
  8
C_COPERCHIO
100
AcDbLine
 62
7
  6
CONTINUOUS
 10
-3.0
 20
22.276069039
 11
-3.5
 21
22.276069039
  0
LINE
  5
674
100
AcDbEntity
  8
C_COPERCHIO
100
AcDbLine
 62
7
  6
CONTINUOUS
 10
-10.6497715195
 20
22.3825449351
 11
-7.2427698754
 21
22.3825449351
  0
LINE
  5
675
100
AcDbEntity
  8
C_COPERCHIO
100
AcDbLine
 62
7
  6
CONTINUOUS
 10
7.2427698754
 20
22.3825449351
 11
10.6497715195
 21
22.3825449351
  0
LINE
  5
676
100
AcDbEntity
  8
C_COPERCHIO
100
AcDbLine
 62
7
  6
CONTINUOUS
 10
-4.4
 20
22.4
 11
-10.6349524372
 21
22.3999949469
  0
LINE
  5
677
100
AcDbEntity
  8
C_COPERCHIO
100
AcDbLine
 62
7
  6
CONTINUOUS
 10
8.25
 20
23.1226497308
 11
10.65
 21
23.1226497308
  0
LINE
  5
678
100
AcDbEntity
  8
C_COPERCHIO
100
AcDbLine
 62
7
  6
CONTINUOUS
 10
-8.25
 20
23.1226497308
 11
-10.65
 21
23.1226497308
  0
LWPOLYLINE
  5
679
100
AcDbEntity
  8
C_COPERCHIO
100
AcDbPolyline
 62
7
  6
CONTINUOUS
 90
7
 70
0
 10
4.4
 20
22.4
 10
10.6349680195
 20
22.3999946916
 10
10.6377378615
 20
22.3999716776
 10
10.6406259805
 20
22.3999309579
 10
10.6436323766
 20
22.3998725325
 10
10.6467570498
 20
22.3997964014
 10
10.65
 20
22.3997025646
  0
LINE
  5
67A
100
AcDbEntity
  8
C_COPERCHIO
100
AcDbLine
 62
7
  6
CONTINUOUS
 10
8.0665695018
 20
20.9829813964
 11
8.2325449351
 21
20.9
  0
LINE
  5
67B
100
AcDbEntity
  8
C_COPERCHIO
100
AcDbLine
 62
250
  6
CONTINUOUS
 10
8.2631674569
 20
24.2368706193
 11
8.25
 21
24.2500380762
  0
LINE
  5
67C
100
AcDbEntity
  8
C_COPERCHIO
100
AcDbLine
 62
250
  6
CONTINUOUS
 10
8.5131293807
 20
24.4868325431
 11
8.4999619238
 21
24.5
  0
LINE
  5
67D
100
AcDbEntity
  8
C_COPERCHIO
100
AcDbLine
 62
250
  6
CONTINUOUS
 10
10.6323164546
 20
22.4
 11
10.6413041988
 21
22.3910122558
  0
LWPOLYLINE
  5
67E
100
AcDbEntity
  8
C_COPERCHIO
100
AcDbPolyline
 62
7
  6
CONTINUOUS
 90
3
 70
0
 10
10.4966519113
 20
-23.7345805945
 10
10.5500460563
 20
-23.6811920369
 10
10.5920247849
 20
-23.6390385494
  0
LINE
  5
67F
100
AcDbEntity
  8
C_COPERCHIO
100
AcDbLine
 62
7
  6
CONTINUOUS
 10
10.4765623279
 20
-23.754586152
 11
10.4966519113
 21
-23.7345805945
  0
LWPOLYLINE
  5
680
100
AcDbEntity
  8
C_COPERCHIO
100
AcDbPolyline
 62
7
  6
CONTINUOUS
 90
3
 70
0
 10
10.3868706193
 20
-23.8443375673
 10
10.4107062725
 20
-23.8207626766
 10
10.4765623279
 20
-23.754586152
  0
LINE
  5
681
100
AcDbEntity
  8
C_COPERCHIO
100
AcDbLine
 62
7
  6
CONTINUOUS
 10
10.5920247849
 20
-23.6390385494
 11
10.6033769702
 21
-23.6278312164
  0
LWPOLYLINE
  5
682
100
AcDbEntity
  8
C_COPERCHIO
100
AcDbPolyline
 62
250
  6
CONTINUOUS
 90
13
 70
0
 10
-4.0669670874
 20
23.6274588868
 10
-4.0929400444
 20
23.6257373336
 10
-4.1184723362
 20
23.6209354669
 10
-4.143131043
 20
23.6131347141
 10
-4.1664980572
 20
23.6024673539
 10
-4.1881771734
 20
23.5891142718
 10
-4.2078008063
 20
23.5733018923
 10
-4.2250362221
 20
23.5552983396
 10
-4.2395911809
 20
23.5354088948
 10
-4.2512188919
 20
23.5139708184
 10
-4.2597221983
 20
23.4913476259
 10
-4.2649569199
 20
23.467922924
 10
-4.2668342979
 20
23.4440939096
  0
LWPOLYLINE
  5
683
100
AcDbEntity
  8
C_COPERCHIO
100
AcDbPolyline
 62
250
  6
CONTINUOUS
 90
13
 70
0
 10
-4.0689651576
 20
23.6689346966
 10
-4.0950624985
 20
23.6672164968
 10
-4.120713281
 20
23.6621072286
 10
-4.1454787639
 20
23.6536943491
 10
-4.1689353847
 20
23.6421218061
 10
-4.1906819334
 20
23.6275876071
 10
-4.2103464319
 20
23.610340458
 10
-4.2275925946
 20
23.5906754346
 10
-4.2421255308
 20
23.5689289354
 10
-4.2536967429
 20
23.5454729879
 10
-4.2621084252
 20
23.5207088198
 10
-4.2672168284
 20
23.4950599856
 10
-4.2689346966
 20
23.4689651576
  0
LWPOLYLINE
  5
684
100
AcDbEntity
  8
C_COPERCHIO
100
AcDbPolyline
 62
7
  6
CONTINUOUS
 90
13
 70
0
 10
-4.200030461
 20
23.8
 10
-4.2261325878
 20
23.7982897358
 10
-4.2517877661
 20
23.7931875595
 10
-4.2765572875
 20
23.7847805782
 10
-4.3000177444
 20
23.7732123371
 10
-4.3217675502
 20
23.75868055
 10
-4.3414339722
 20
23.7414339722
 10
-4.35868055
 20
23.7217675502
 10
-4.3732123371
 20
23.7000177444
 10
-4.3847805782
 20
23.6765572875
 10
-4.3931875595
 20
23.6517877661
 10
-4.3982897358
 20
23.6261325878
 10
-4.4
 20
23.600030461
  0
LINE
  5
685
100
AcDbEntity
  8
C_COPERCHIO
100
AcDbLine
 62
250
  6
CONTINUOUS
 10
-10.6033769702
 20
23.6278312164
 11
-8.2966230298
 21
23.6278312164
  0
LINE
  5
686
100
AcDbEntity
  8
C_COPERCHIO
100
AcDbLine
 62
250
  6
CONTINUOUS
 10
10.6033769702
 20
23.6278312164
 11
8.2966230298
 21
23.6278312164
  0
LINE
  5
687
100
AcDbEntity
  8
C_COPERCHIO
100
AcDbLine
 62
250
  6
CONTINUOUS
 10
-4.0689651576
 20
23.6689346966
 11
-3.5
 21
23.6689346966
  0
LINE
  5
688
100
AcDbEntity
  8
C_COPERCHIO
100
AcDbLine
 62
250
  6
CONTINUOUS
 10
3.5
 20
23.6689346966
 11
4.0689651576
 21
23.6689346966
  0
LINE
  5
689
100
AcDbEntity
  8
C_COPERCHIO
100
AcDbLine
 62
7
  6
CONTINUOUS
 10
3.5
 20
23.7825449351
 11
-3.5
 21
23.7825449351
  0
LINE
  5
68A
100
AcDbEntity
  8
C_COPERCHIO
100
AcDbLine
 62
7
  6
CONTINUOUS
 10
4.200030461
 20
23.8
 11
-4.200030461
 21
23.8
  0
LINE
  5
68B
100
AcDbEntity
  8
C_COPERCHIO
100
AcDbLine
 62
250
  6
CONTINUOUS
 10
-10.3868706193
 20
23.8443375673
 11
-8.5131293807
 21
23.8443375673
  0
LINE
  5
68C
100
AcDbEntity
  8
C_COPERCHIO
100
AcDbLine
 62
250
  6
CONTINUOUS
 10
10.3868706193
 20
23.8443375673
 11
8.5131293807
 21
23.8443375673
  0
LINE
  5
68D
100
AcDbEntity
  8
C_COPERCHIO
100
AcDbLine
 62
250
  6
CONTINUOUS
 10
8.2631674569
 20
24.2368706193
 11
10.6368325431
 21
24.2368706193
  0
LINE
  5
68E
100
AcDbEntity
  8
C_COPERCHIO
100
AcDbLine
 62
250
  6
CONTINUOUS
 10
-8.2631674569
 20
24.2368706193
 11
-10.6368325431
 21
24.2368706193
  0
LINE
  5
68F
100
AcDbEntity
  8
C_COPERCHIO
100
AcDbLine
 62
250
  6
CONTINUOUS
 10
-10.3868706193
 20
24.4868325431
 11
-8.5131293807
 21
24.4868325431
  0
LINE
  5
690
100
AcDbEntity
  8
C_COPERCHIO
100
AcDbLine
 62
250
  6
CONTINUOUS
 10
10.3868706193
 20
24.4868325431
 11
8.5131293807
 21
24.4868325431
  0
LINE
  5
691
100
AcDbEntity
  8
C_COPERCHIO
100
AcDbLine
 62
7
  6
CONTINUOUS
 10
8.4999619238
 20
24.5
 11
10.4000380762
 21
24.5
  0
LINE
  5
692
100
AcDbEntity
  8
C_COPERCHIO
100
AcDbLine
 62
7
  6
CONTINUOUS
 10
-8.4999619238
 20
24.5
 11
-10.4000380762
 21
24.5
  0
LWPOLYLINE
  5
693
100
AcDbEntity
  8
C_COPERCHIO
100
AcDbPolyline
 62
7
  6
CONTINUOUS
 90
13
 70
0
 10
4.200030461
 20
23.8
 10
4.2261325878
 20
23.7982897358
 10
4.2517877661
 20
23.7931875595
 10
4.2765572875
 20
23.7847805782
 10
4.3000177444
 20
23.7732123371
 10
4.3217675502
 20
23.75868055
 10
4.3414339722
 20
23.7414339722
 10
4.35868055
 20
23.7217675502
 10
4.3732123371
 20
23.7000177444
 10
4.3847805782
 20
23.6765572875
 10
4.3931875595
 20
23.6517877661
 10
4.3982897358
 20
23.6261325878
 10
4.4
 20
23.600030461
  0
LWPOLYLINE
  5
694
100
AcDbEntity
  8
C_COPERCHIO
100
AcDbPolyline
 62
250
  6
CONTINUOUS
 90
13
 70
0
 10
4.0689651576
 20
23.6689346966
 10
4.0950613892
 20
23.6672166433
 10
4.1207112799
 20
23.6621077656
 10
4.1454761229
 20
23.653695444
 10
4.168932349
 20
23.6421235598
 10
4.190678771
 20
23.6275900347
 10
4.2103434457
 20
23.6103434449
 10
4.2275900353
 20
23.5906787702
 10
4.2421235603
 20
23.5689323482
 10
4.2536954443
 20
23.5454761223
 10
4.2621077658
 20
23.5207112794
 10
4.2672166434
 20
23.4950613889
 10
4.2689346966
 20
23.4689651576
  0
LWPOLYLINE
  5
695
100
AcDbEntity
  8
C_COPERCHIO
100
AcDbPolyline
 62
250
  6
CONTINUOUS
 90
13
 70
0
 10
4.0669670897
 20
23.6274840058
 10
4.0929539975
 20
23.6257629727
 10
4.1185001876
 20
23.6209609898
 10
4.1431724168
 20
23.6131594949
 10
4.1665522634
 20
23.6024907955
 10
4.1882432237
 20
23.5891358243
 10
4.2078774362
 20
23.5733210706
 10
4.22512192
 20
23.5553147388
 10
4.2396842223
 20
23.5354222037
 10
4.2513173779
 20
23.5139808317
 10
4.2598240977
 20
23.4913542519
 10
4.2650601142
 20
23.4679261913
 10
4.2669366287
 20
23.4440939707
  0
LWPOLYLINE
  5
696
100
AcDbEntity
  8
C_COPERCHIO
100
AcDbPolyline
 62
7
  6
CONTINUOUS
 90
8
 70
0
 10
10.9807646256
 20
22.2586595885
 10
10.9421983278
 20
22.2924539227
 10
10.8995838469
 20
22.3226232988
 10
10.8534811206
 20
22.3484690737
 10
10.8047927581
 20
22.369345737
 10
10.754217098
 20
22.3849398969
 10
10.7021537625
 20
22.3951153
 10
10.6491811484
 20
22.3997180594
  0
LINE
  5
697
100
AcDbEntity
  8
C_COPERCHIO
100
AcDbLine
 62
7
  6
CONTINUOUS
 10
10.6033769702
 20
23.6278312164
 11
10.5920248
 21
23.6390385408
  0
LINE
  5
698
100
AcDbEntity
  8
C_COPERCHIO
100
AcDbLine
 62
7
  6
CONTINUOUS
 10
10.4107058967
 20
23.8207630626
 11
10.3868706193
 21
23.8443375673
  0
LINE
  5
699
100
AcDbEntity
  8
C_COPERCHIO
100
AcDbLine
 62
7
  6
CONTINUOUS
 10
10.5500459948
 20
23.6811920965
 11
10.476561693
 21
23.7545867768
  0
LINE
  5
69A
100
AcDbEntity
  8
C_COPERCHIO
100
AcDbLine
 62
7
  6
CONTINUOUS
 10
10.5920248
 20
23.6390385408
 11
10.5500459948
 21
23.6811920965
  0
LINE
  5
69B
100
AcDbEntity
  8
C_COPERCHIO
100
AcDbLine
 62
7
  6
CONTINUOUS
 10
10.476561693
 20
23.7545867768
 11
10.4107058967
 21
23.8207630626
  0
ARC
  5
69C
100
AcDbEntity
  8
C_CORPO
100
AcDbCircle
 62
250
  6
CONTINUOUS
 10
-2.5
 20
-8.6
 40
3.3748992489
100
AcDbArc
 50
45.6155593049
 51
314.3844406949
  0
ARC
  5
69D
100
AcDbEntity
  8
C_CORPO
100
AcDbCircle
 62
250
  6
CONTINUOUS
 10
-2.5
 20
-8.6
 40
3.076040942
100
AcDbArc
 50
45.6155593005
 51
314.3844406991
  0
ARC
  5
69E
100
AcDbEntity
  8
C_CORPO
100
AcDbCircle
 62
250
  6
CONTINUOUS
 10
-2.5
 20
-8.6
 40
2.9489817301
100
AcDbArc
 50
43.510209608
 51
316.4897903917
  0
ARC
  5
69F
100
AcDbEntity
  8
C_CORPO
100
AcDbCircle
 62
250
  6
CONTINUOUS
 10
-2.5
 20
-8.6
 40
2.6501233097
100
AcDbArc
 50
43.5102096202
 51
316.4897903808
  0
CIRCLE
  5
6A0
100
AcDbEntity
  8
C_CORPO
100
AcDbCircle
 62
250
  6
CONTINUOUS
 10
-2.5
 20
-8.6
 40
2.4451635404
  0
CIRCLE
  5
6A1
100
AcDbEntity
  8
C_CORPO
100
AcDbCircle
 62
250
  6
CONTINUOUS
 10
-2.5
 20
-8.6
 40
2.147399697
  0
CIRCLE
  5
6A2
100
AcDbEntity
  8
C_CORPO
100
AcDbCircle
 62
7
  6
CONTINUOUS
 10
-2.5
 20
-8.6
 40
1.75
  0
ARC
  5
6A3
100
AcDbEntity
  8
C_CONTATTI
100
AcDbCircle
 62
7
  6
CONTINUOUS
 10
-3.3105321998
 20
-11.34
 40
1.5
100
AcDbArc
 50
75.0
 51
90.0
  0
ARC
  5
6A4
100
AcDbEntity
  8
C_CONTATTI
100
AcDbCircle
 62
7
  6
CONTINUOUS
 10
-3.59
 20
-10.55
 40
0.71
100
AcDbArc
 50
90.0
 51
100.7107814053
  0
ARC
  5
6A5
100
AcDbEntity
  8
C_CORPO
100
AcDbCircle
 62
250
  6
CONTINUOUS
 10
-8.0
 20
8.6
 40
3.3748993522
100
AcDbArc
 50
48.1625536504
 51
121.0633504846
  0
ARC
  5
6A6
100
AcDbEntity
  8
C_CORPO
100
AcDbCircle
 62
250
  6
CONTINUOUS
 10
-8.0
 20
8.6
 40
3.3748993522
100
AcDbArc
 50
238.936649515
 51
311.8374463496
  0
ARC
  5
6A7
100
AcDbEntity
  8
C_CORPO
100
AcDbCircle
 62
250
  6
CONTINUOUS
 10
-8.0
 20
8.6
 40
3.0760409428
100
AcDbArc
 50
48.162553647
 51
145.8237246821
  0
ARC
  5
6A8
100
AcDbEntity
  8
C_CORPO
100
AcDbCircle
 62
250
  6
CONTINUOUS
 10
-8.0
 20
8.6
 40
3.0760409428
100
AcDbArc
 50
214.176275235
 51
311.8374463531
  0
ARC
  5
6A9
100
AcDbEntity
  8
C_CORPO
100
AcDbCircle
 62
250
  6
CONTINUOUS
 10
-8.0
 20
8.6
 40
2.9489817302
100
AcDbArc
 50
46.1497452658
 51
155.9621314464
  0
ARC
  5
6AA
100
AcDbEntity
  8
C_CORPO
100
AcDbCircle
 62
250
  6
CONTINUOUS
 10
-8.0
 20
8.6
 40
2.9489817302
100
AcDbArc
 50
204.0378685536
 51
313.8502547324
  0
ARC
  5
6AB
100
AcDbEntity
  8
C_CORPO
100
AcDbCircle
 62
250
  6
CONTINUOUS
 10
-8.0
 20
8.6
 40
2.6501233207
100
AcDbArc
 50
46.1497452748
 51
154.6215401497
  0
ARC
  5
6AC
100
AcDbEntity
  8
C_CORPO
100
AcDbCircle
 62
250
  6
CONTINUOUS
 10
-8.0
 20
8.6
 40
2.6501233207
100
AcDbArc
 50
205.3784598503
 51
313.8502547252
  0
ARC
  5
6AD
100
AcDbEntity
  8
C_CORPO
100
AcDbCircle
 62
250
  6
CONTINUOUS
 10
-8.0
 20
8.6
 40
2.4451635404
100
AcDbArc
 50
191.6979139848
 51
168.3020860593
  0
CIRCLE
  5
6AE
100
AcDbEntity
  8
C_CORPO
100
AcDbCircle
 62
250
  6
CONTINUOUS
 10
-8.0
 20
8.6
 40
2.147399697
  0
CIRCLE
  5
6AF
100
AcDbEntity
  8
C_CORPO
100
AcDbCircle
 62
7
  6
CONTINUOUS
 10
-8.0
 20
8.6
 40
1.75
  0
ARC
  5
6B0
100
AcDbEntity
  8
C_CONTATTI
100
AcDbCircle
 62
7
  6
CONTINUOUS
 10
-8.8105321998
 20
11.34
 40
1.5
100
AcDbArc
 50
270.0
 51
285.0
  0
ARC
  5
6B1
100
AcDbEntity
  8
C_CORPO
100
AcDbCircle
 62
250
  6
CONTINUOUS
 10
-3.0
 20
8.6
 40
3.5336236993
100
AcDbArc
 50
225.5089973157
 51
312.7803376277
  0
ARC
  5
6B2
100
AcDbEntity
  8
C_CORPO
100
AcDbCircle
 62
250
  6
CONTINUOUS
 10
-3.0
 20
8.6
 40
3.5336236253
100
AcDbArc
 50
37.0468519951
 51
134.4910026843
  0
ARC
  5
6B3
100
AcDbEntity
  8
C_CORPO
100
AcDbCircle
 62
250
  6
CONTINUOUS
 10
-3.0
 20
8.6
 40
3.2347652898
100
AcDbArc
 50
225.5089973127
 51
321.0285096657
  0
ARC
  5
6B4
100
AcDbEntity
  8
C_CORPO
100
AcDbCircle
 62
250
  6
CONTINUOUS
 10
-3.0
 20
8.6
 40
3.2347652893
100
AcDbArc
 50
37.0468519951
 51
134.4910026873
  0
ARC
  5
6B5
100
AcDbEntity
  8
C_CORPO
100
AcDbCircle
 62
250
  6
CONTINUOUS
 10
-3.0
 20
8.6
 40
3.1077060772
100
AcDbArc
 50
37.0468519951
 51
136.4167079168
  0
ARC
  5
6B6
100
AcDbEntity
  8
C_CORPO
100
AcDbCircle
 62
250
  6
CONTINUOUS
 10
-3.0
 20
8.6
 40
3.1077060772
100
AcDbArc
 50
223.5832920837
 51
321.0285096657
  0
ARC
  5
6B7
100
AcDbEntity
  8
C_CORPO
100
AcDbCircle
 62
250
  6
CONTINUOUS
 10
-3.0
 20
8.6
 40
2.8088476621
100
AcDbArc
 50
223.5832920903
 51
321.0285096657
  0
ARC
  5
6B8
100
AcDbEntity
  8
C_CORPO
100
AcDbCircle
 62
250
  6
CONTINUOUS
 10
-3.0
 20
8.6
 40
2.8088476601
100
AcDbArc
 50
37.0468519951
 51
136.4167079097
  0
CIRCLE
  5
6B9
100
AcDbEntity
  8
C_CORPO
100
AcDbCircle
 62
250
  6
CONTINUOUS
 10
-3.0
 20
8.6
 40
2.4451635404
  0
CIRCLE
  5
6BA
100
AcDbEntity
  8
C_CORPO
100
AcDbCircle
 62
250
  6
CONTINUOUS
 10
-3.0
 20
8.6
 40
2.147399697
  0
CIRCLE
  5
6BB
100
AcDbEntity
  8
C_CORPO
100
AcDbCircle
 62
7
  6
CONTINUOUS
 10
-3.0
 20
8.6
 40
1.75
  0
ARC
  5
6BC
100
AcDbEntity
  8
C_CORPO
100
AcDbCircle
 62
250
  6
CONTINUOUS
 10
0.0
 20
6.173118547
 40
1.0498766696
100
AcDbArc
 50
38.9714903343
 51
141.0285096657
  0
ARC
  5
6BD
100
AcDbEntity
  8
C_CORPO
100
AcDbCircle
 62
250
  6
CONTINUOUS
 10
0.0
 20
6.173118547
 40
0.7510182698
100
AcDbArc
 50
38.9714903343
 51
141.0285096657
  0
ARC
  5
6BE
100
AcDbEntity
  8
C_CORPO
100
AcDbCircle
 62
7
  6
CONTINUOUS
 10
0.0
 20
5.9
 40
0.6
100
AcDbArc
 50
180.0
 51
360.0
  0
ARC
  5
6BF
100
AcDbEntity
  8
C_CORPO
100
AcDbCircle
 62
7
  6
CONTINUOUS
 10
0.0
 20
6.173118547
 40
0.6
100
AcDbArc
 50
0.0
 51
180.0
  0
ARC
  5
6C0
100
AcDbEntity
  8
C_CONTATTI
100
AcDbCircle
 62
7
  6
CONTINUOUS
 10
-2.1894678002
 20
11.34
 40
1.5
100
AcDbArc
 50
255.0
 51
270.0
  0
ARC
  5
6C1
100
AcDbEntity
  8
C_CORPO
100
AcDbCircle
 62
250
  6
CONTINUOUS
 10
0.0
 20
10.8645107015
 40
0.9498766671
100
AcDbArc
 50
217.0468519951
 51
322.9531480049
  0
ARC
  5
6C2
100
AcDbEntity
  8
C_CONTATTI
100
AcDbCircle
 62
7
  6
CONTINUOUS
 10
-1.91
 20
10.55
 40
0.71
100
AcDbArc
 50
270.0
 51
280.7107814053
  0
ARC
  5
6C3
100
AcDbEntity
  8
C_CORPO
100
AcDbCircle
 62
250
  6
CONTINUOUS
 10
0.0
 20
10.8645107015
 40
0.6510182697
100
AcDbArc
 50
217.0468519951
 51
322.9531480049
  0
ARC
  5
6C4
100
AcDbEntity
  8
C_CORPO
100
AcDbCircle
 62
250
  6
CONTINUOUS
 10
0.0
 20
10.8645107015
 40
0.5239590571
100
AcDbArc
 50
217.0468519951
 51
322.9531480049
  0
ARC
  5
6C5
100
AcDbEntity
  8
C_CORPO
100
AcDbCircle
 62
250
  6
CONTINUOUS
 10
0.0
 20
10.8645107015
 40
0.2251006444
100
AcDbArc
 50
217.0468519951
 51
322.9531480049
  0
ARC
  5
6C6
100
AcDbEntity
  8
C_CORPO
100
AcDbCircle
 62
250
  6
CONTINUOUS
 10
2.5
 20
-8.6
 40
3.3748992489
100
AcDbArc
 50
225.6155593049
 51
134.3844406949
  0
ARC
  5
6C7
100
AcDbEntity
  8
C_CORPO
100
AcDbCircle
 62
250
  6
CONTINUOUS
 10
2.5
 20
-8.6
 40
3.076040942
100
AcDbArc
 50
225.6155593005
 51
134.3844406991
  0
ARC
  5
6C8
100
AcDbEntity
  8
C_CORPO
100
AcDbCircle
 62
250
  6
CONTINUOUS
 10
2.5
 20
-8.6
 40
2.9489817301
100
AcDbArc
 50
223.510209608
 51
136.4897903917
  0
ARC
  5
6C9
100
AcDbEntity
  8
C_CORPO
100
AcDbCircle
 62
250
  6
CONTINUOUS
 10
2.5
 20
-8.6
 40
2.6501233097
100
AcDbArc
 50
223.5102096202
 51
136.4897903808
  0
CIRCLE
  5
6CA
100
AcDbEntity
  8
C_CORPO
100
AcDbCircle
 62
250
  6
CONTINUOUS
 10
2.5
 20
-8.6
 40
2.4451635404
  0
CIRCLE
  5
6CB
100
AcDbEntity
  8
C_CORPO
100
AcDbCircle
 62
250
  6
CONTINUOUS
 10
2.5
 20
-8.6
 40
2.147399697
  0
CIRCLE
  5
6CC
100
AcDbEntity
  8
C_CORPO
100
AcDbCircle
 62
7
  6
CONTINUOUS
 10
2.5
 20
-8.6
 40
1.75
  0
ARC
  5
6CD
100
AcDbEntity
  8
C_CONTATTI
100
AcDbCircle
 62
7
  6
CONTINUOUS
 10
3.3105321998
 20
-11.34
 40
1.5
100
AcDbArc
 50
90.0
 51
105.0
  0
ARC
  5
6CE
100
AcDbEntity
  8
C_CORPO
100
AcDbCircle
 62
250
  6
CONTINUOUS
 10
3.0
 20
8.6
 40
3.5336236993
100
AcDbArc
 50
227.2196623723
 51
314.4910026843
  0
ARC
  5
6CF
100
AcDbEntity
  8
C_CORPO
100
AcDbCircle
 62
250
  6
CONTINUOUS
 10
3.0
 20
8.6
 40
3.5336236274
100
AcDbArc
 50
45.5089973157
 51
142.9531480049
  0
ARC
  5
6D0
100
AcDbEntity
  8
C_CORPO
100
AcDbCircle
 62
250
  6
CONTINUOUS
 10
3.0
 20
8.6
 40
3.2347652898
100
AcDbArc
 50
218.9714903343
 51
314.4910026873
  0
ARC
  5
6D1
100
AcDbEntity
  8
C_CORPO
100
AcDbCircle
 62
250
  6
CONTINUOUS
 10
3.0
 20
8.6
 40
3.2347652893
100
AcDbArc
 50
45.5089973127
 51
142.9531480049
  0
ARC
  5
6D2
100
AcDbEntity
  8
C_CORPO
100
AcDbCircle
 62
250
  6
CONTINUOUS
 10
3.0
 20
8.6
 40
3.1077060772
100
AcDbArc
 50
43.5832920837
 51
142.9531480049
  0
ARC
  5
6D3
100
AcDbEntity
  8
C_CORPO
100
AcDbCircle
 62
250
  6
CONTINUOUS
 10
3.0
 20
8.6
 40
3.1077060772
100
AcDbArc
 50
218.9714903343
 51
316.4167079168
  0
ARC
  5
6D4
100
AcDbEntity
  8
C_CORPO
100
AcDbCircle
 62
250
  6
CONTINUOUS
 10
3.0
 20
8.6
 40
2.8088476622
100
AcDbArc
 50
43.5832920903
 51
142.9531480049
  0
ARC
  5
6D5
100
AcDbEntity
  8
C_CORPO
100
AcDbCircle
 62
250
  6
CONTINUOUS
 10
3.0
 20
8.6
 40
2.8088476599
100
AcDbArc
 50
218.9714903343
 51
316.4167079097
  0
CIRCLE
  5
6D6
100
AcDbEntity
  8
C_CORPO
100
AcDbCircle
 62
250
  6
CONTINUOUS
 10
3.0
 20
8.6
 40
2.4451635404
  0
CIRCLE
  5
6D7
100
AcDbEntity
  8
C_CORPO
100
AcDbCircle
 62
250
  6
CONTINUOUS
 10
3.0
 20
8.6
 40
2.147399697
  0
CIRCLE
  5
6D8
100
AcDbEntity
  8
C_CORPO
100
AcDbCircle
 62
7
  6
CONTINUOUS
 10
3.0
 20
8.6
 40
1.75
  0
ARC
  5
6D9
100
AcDbEntity
  8
C_CONTATTI
100
AcDbCircle
 62
7
  6
CONTINUOUS
 10
2.1894678002
 20
11.34
 40
1.5
100
AcDbArc
 50
270.0
 51
285.0
  0
ARC
  5
6DA
100
AcDbEntity
  8
C_CORPO
100
AcDbCircle
 62
250
  6
CONTINUOUS
 10
8.0
 20
8.6
 40
3.3748993522
100
AcDbArc
 50
58.936649515
 51
131.8374463496
  0
ARC
  5
6DB
100
AcDbEntity
  8
C_CORPO
100
AcDbCircle
 62
250
  6
CONTINUOUS
 10
8.0
 20
8.6
 40
3.3748993522
100
AcDbArc
 50
228.1625536504
 51
301.0633504846
  0
ARC
  5
6DC
100
AcDbEntity
  8
C_CORPO
100
AcDbCircle
 62
250
  6
CONTINUOUS
 10
8.0
 20
8.6
 40
3.0760409428
100
AcDbArc
 50
34.176275235
 51
131.8374463531
  0
ARC
  5
6DD
100
AcDbEntity
  8
C_CORPO
100
AcDbCircle
 62
250
  6
CONTINUOUS
 10
8.0
 20
8.6
 40
3.0760409428
100
AcDbArc
 50
228.162553647
 51
325.8237246821
  0
ARC
  5
6DE
100
AcDbEntity
  8
C_CORPO
100
AcDbCircle
 62
250
  6
CONTINUOUS
 10
8.0
 20
8.6
 40
2.9489817302
100
AcDbArc
 50
24.0378685536
 51
133.8502547324
  0
ARC
  5
6DF
100
AcDbEntity
  8
C_CORPO
100
AcDbCircle
 62
250
  6
CONTINUOUS
 10
8.0
 20
8.6
 40
2.9489817302
100
AcDbArc
 50
226.1497452658
 51
335.9621314464
  0
ARC
  5
6E0
100
AcDbEntity
  8
C_CORPO
100
AcDbCircle
 62
250
  6
CONTINUOUS
 10
8.0
 20
8.6
 40
2.6501233207
100
AcDbArc
 50
25.3784598503
 51
133.8502547252
  0
ARC
  5
6E1
100
AcDbEntity
  8
C_CORPO
100
AcDbCircle
 62
250
  6
CONTINUOUS
 10
8.0
 20
8.6
 40
2.6501233207
100
AcDbArc
 50
226.1497452748
 51
334.6215401497
  0
ARC
  5
6E2
100
AcDbEntity
  8
C_CORPO
100
AcDbCircle
 62
250
  6
CONTINUOUS
 10
8.0
 20
8.6
 40
2.4451635404
100
AcDbArc
 50
11.6979139848
 51
348.3020860593
  0
CIRCLE
  5
6E3
100
AcDbEntity
  8
C_CORPO
100
AcDbCircle
 62
250
  6
CONTINUOUS
 10
8.0
 20
8.6
 40
2.147399697
  0
CIRCLE
  5
6E4
100
AcDbEntity
  8
C_CORPO
100
AcDbCircle
 62
7
  6
CONTINUOUS
 10
8.0
 20
8.6
 40
1.75
  0
ARC
  5
6E5
100
AcDbEntity
  8
C_CONTATTI
100
AcDbCircle
 62
7
  6
CONTINUOUS
 10
8.8105321998
 20
11.34
 40
1.5
100
AcDbArc
 50
255.0
 51
270.0
  0
ARC
  5
6E6
100
AcDbEntity
  8
C_CONTATTI
100
AcDbCircle
 62
7
  6
CONTINUOUS
 10
9.09
 20
10.55
 40
0.71
100
AcDbArc
 50
270.0
 51
280.7107814053
  0
ELLIPSE
  5
6E7
100
AcDbEntity
  8
C_COPERCHIO
100
AcDbEllipse
 62
7
  6
CONTINUOUS
 10
-2.5
 20
-20.0445070257
 30
0.0
 11
1.0
 21
0.0
 31
0.0
 40
0.0087268678
 41
-3.1415926536
 42
-1.5707963268
  0
ELLIPSE
  5
6E8
100
AcDbEntity
  8
C_COPERCHIO
100
AcDbEllipse
 62
7
  6
CONTINUOUS
 10
0.0
 20
-20.1823915368
 30
0.0
 11
15.0
 21
0.0
 31
0.0
 40
0.0087268678
 41
1.4073150204
 42
1.7342776332
  0
ELLIPSE
  5
6E9
100
AcDbEntity
  8
C_COPERCHIO
100
AcDbEllipse
 62
7
  6
CONTINUOUS
 10
2.5
 20
-20.0445070257
 30
0.0
 11
1.0
 21
0.0
 31
0.0
 40
0.0087268678
 41
-1.5707963268
 42
0.0
  0
ELLIPSE
  5
6EA
100
AcDbEntity
  8
C_COPERCHIO
100
AcDbEllipse
 62
7
  6
CONTINUOUS
 10
2.5
 20
20.0445070257
 30
0.0
 11
1.0
 21
-0.0
 31
0.0
 40
0.0087268678
 41
0.0
 42
1.5707963268
  0
ELLIPSE
  5
6EB
100
AcDbEntity
  8
C_COPERCHIO
100
AcDbEllipse
 62
7
  6
CONTINUOUS
 10
-0.0
 20
20.1823915368
 30
0.0
 11
15.0
 21
0.0
 31
0.0
 40
0.0087268678
 41
-1.7342776332
 42
-1.4073150204
  0
ELLIPSE
  5
6EC
100
AcDbEntity
  8
C_COPERCHIO
100
AcDbEllipse
 62
7
  6
CONTINUOUS
 10
-2.5
 20
20.0445070257
 30
0.0
 11
1.0
 21
-0.0
 31
0.0
 40
0.0087268678
 41
1.5707963268
 42
3.1415926536
  0
ELLIPSE
  5
6ED
100
AcDbEntity
  8
C_COPERCHIO
100
AcDbEllipse
 62
7
  6
CONTINUOUS
 10
-2.5
 20
21.7174550649
 30
0.0
 11
1.0
 21
0.0
 31
0.0
 40
0.0174550649
 41
-2.0944129735
 42
-1.5707963268
  0
ELLIPSE
  5
6EE
100
AcDbEntity
  8
C_COPERCHIO
100
AcDbEllipse
 62
7
  6
CONTINUOUS
 10
2.5
 20
21.7174550649
 30
0.0
 11
1.0
 21
0.0
 31
0.0
 40
0.0174550649
 41
-1.5707963268
 42
-1.047179599
  0
ELLIPSE
  5
6EF
100
AcDbEntity
  8
C_COPERCHIO
100
AcDbEllipse
 62
7
  6
CONTINUOUS
 10
-2.5
 20
-21.7174550649
 30
0.0
 11
1.0
 21
0.0
 31
0.0
 40
0.0174550649
 41
1.5707963268
 42
2.0944130546
  0
ELLIPSE
  5
6F0
100
AcDbEntity
  8
C_COPERCHIO
100
AcDbEllipse
 62
7
  6
CONTINUOUS
 10
2.5
 20
-21.7174550649
 30
0.0
 11
1.0
 21
0.0
 31
0.0
 40
0.0174550649
 41
1.0471796801
 42
1.5707963268
  0
ELLIPSE
  5
6F1
100
AcDbEntity
  8
C_COPERCHIO
100
AcDbEllipse
 62
7
  6
CONTINUOUS
 10
7.5666456542
 20
20.982905244
 30
0.0
 11
0.5
 21
-0.0
 31
0.0
 40
0.0087268678
 41
0.0174532925
 42
1.5707963268
  0
ELLIPSE
  5
6F2
100
AcDbEntity
  8
C_COPERCHIO
100
AcDbEllipse
 62
7
  6
CONTINUOUS
 10
-7.5666456542
 20
20.982905244
 30
0.0
 11
0.5
 21
0.0
 31
0.0
 40
0.0087268678
 41
1.5707963268
 42
3.1241393611
  0
ELLIPSE
  5
6F3
100
AcDbEntity
  8
C_COPERCHIO
100
AcDbEllipse
 62
7
  6
CONTINUOUS
 10
7.5666456542
 20
-20.982905244
 30
0.0
 11
0.5
 21
0.0
 31
0.0
 40
0.0087268678
 41
-1.5707963268
 42
-0.0174532925
  0
ELLIPSE
  5
6F4
100
AcDbEntity
  8
C_COPERCHIO
100
AcDbEllipse
 62
7
  6
CONTINUOUS
 10
-7.5666456542
 20
-20.982905244
 30
0.0
 11
0.5
 21
0.0
 31
0.0
 40
0.0087268678
 41
-3.1241393611
 42
-1.5707963268
  0
ELLIPSE
  5
6F5
100
AcDbEntity
  8
C_COPERCHIO
100
AcDbEllipse
 62
7
  6
CONTINUOUS
 10
3.8834975186
 20
22.2670534547
 30
0.0
 11
0.3834975186
 21
-0.0
 31
0.0
 40
0.0174550649
 41
3.1415926536
 42
6.2657320147
  0
ELLIPSE
  5
6F6
100
AcDbEntity
  8
C_COPERCHIO
100
AcDbEllipse
 62
7
  6
CONTINUOUS
 10
10.3868706193
 20
-23.5556624327
 30
0.0
 11
0.25
 21
0.0
 31
0.0
 40
0.5773502692
 41
-0.5235987756
 42
-0.0174532925
  0
ELLIPSE
  5
6F7
100
AcDbEntity
  8
C_COPERCHIO
100
AcDbEllipse
 62
7
  6
CONTINUOUS
 10
8.5131293807
 20
-23.5556624327
 30
0.0
 11
0.25
 21
0.0
 31
0.0
 40
0.5773502692
 41
-3.1241393611
 42
-2.617993878
  0
ELLIPSE
  5
6F8
100
AcDbEntity
  8
C_COPERCHIO
100
AcDbEllipse
 62
7
  6
CONTINUOUS
 10
-3.8834975186
 20
22.2670534547
 30
0.0
 11
0.3834975186
 21
0.0
 31
0.0
 40
0.0174550649
 41
-3.1241393611
 42
0.0
  0
ELLIPSE
  5
6F9
100
AcDbEntity
  8
C_COPERCHIO
100
AcDbEllipse
 62
7
  6
CONTINUOUS
 10
10.3868706193
 20
23.5556624327
 30
0.0
 11
0.25
 21
0.0
 31
0.0
 40
0.5773502692
 41
0.0174532925
 42
0.5235987756
  0
ELLIPSE
  5
6FA
100
AcDbEntity
  8
C_COPERCHIO
100
AcDbEllipse
 62
7
  6
CONTINUOUS
 10
8.5131293807
 20
23.5556624327
 30
0.0
 11
0.25
 21
0.0
 31
0.0
 40
0.5773502692
 41
2.617993878
 42
3.1241393611
  0
ELLIPSE
  5
6FB
100
AcDbEntity
  8
C_COPERCHIO
100
AcDbEllipse
 62
7
  6
CONTINUOUS
 10
-3.8834975186
 20
-22.2670534547
 30
0.0
 11
0.3834975186
 21
0.0
 31
0.0
 40
0.0174550649
 41
0.0
 42
3.1241393611
  0
ELLIPSE
  5
6FC
100
AcDbEntity
  8
C_COPERCHIO
100
AcDbEllipse
 62
7
  6
CONTINUOUS
 10
3.8834975186
 20
-22.2670534547
 30
0.0
 11
0.3834975186
 21
-0.0
 31
0.0
 40
0.0174550649
 41
0.0174532925
 42
3.1415926536
  0
ELLIPSE
  5
6FD
100
AcDbEntity
  8
C_COPERCHIO
100
AcDbEllipse
 62
7
  6
CONTINUOUS
 10
10.649923836
 20
21.882468771
 30
0.0
 11
0.3536610946
 21
-0.3536610946
 31
0.0
 40
0.9996954599
 41
7.0684311773
 42
8.6395320906
  0
ELLIPSE
  5
6FE
100
AcDbEntity
  8
C_COPERCHIO
100
AcDbEllipse
 62
7
  6
CONTINUOUS
 10
-9.3696548284
 20
-20.3266752714
 30
0.0
 11
0.5000285596
 21
-0.4999904798
 31
0.0
 40
0.0061705924
 41
0.0025556622
 42
1.5646253428
  0
ELLIPSE
  5
6FF
100
AcDbEntity
  8
C_COPERCHIO
100
AcDbEllipse
 62
7
  6
CONTINUOUS
 10
9.3696548284
 20
-20.3266752714
 30
0.0
 11
0.5000285596
 21
0.4999904798
 31
0.0
 40
0.0061705924
 41
1.5769673108
 42
3.1390369914
  0
ELLIPSE
  5
700
100
AcDbEntity
  8
C_COPERCHIO
100
AcDbEllipse
 62
7
  6
CONTINUOUS
 10
-9.3696548284
 20
20.3266752714
 30
0.0
 11
0.5000285596
 21
0.4999904798
 31
0.0
 40
0.0061705924
 41
-1.5646253428
 42
-0.0025556622
  0
ELLIPSE
  5
701
100
AcDbEntity
  8
C_COPERCHIO
100
AcDbEllipse
 62
7
  6
CONTINUOUS
 10
9.3696548284
 20
20.3266752714
 30
0.0
 11
0.5000285596
 21
-0.4999904798
 31
0.0
 40
0.0061705924
 41
-3.1390369914
 42
-1.5769673108
  0
ELLIPSE
  5
702
100
AcDbEntity
  8
C_COPERCHIO
100
AcDbEllipse
 62
7
  6
CONTINUOUS
 10
-8.5131293807
 20
-23.5556624327
 30
0.0
 11
0.25
 21
0.0
 31
0.0
 40
0.5773502692
 41
-0.5235987756
 42
-0.0174532925
  0
ELLIPSE
  5
703
100
AcDbEntity
  8
C_COPERCHIO
100
AcDbEllipse
 62
7
  6
CONTINUOUS
 10
-10.3868706193
 20
-23.5556624327
 30
0.0
 11
0.25
 21
-0.0
 31
0.0
 40
0.5773502692
 41
-3.1241393611
 42
-2.617993878
  0
ELLIPSE
  5
704
100
AcDbEntity
  8
C_COPERCHIO
100
AcDbEllipse
 62
7
  6
CONTINUOUS
 10
-7.5499619216
 20
9.5499619216
 30
0.0
 11
0.7071606311
 21
-0.7071606311
 31
0.0
 40
0.9999238505
 41
-2.6860505549
 42
-2.3562325664
  0
ELLIPSE
  5
705
100
AcDbEntity
  8
C_COPERCHIO
100
AcDbEllipse
 62
7
  6
CONTINUOUS
 10
-10.3868706193
 20
23.5556624327
 30
0.0
 11
0.25
 21
-0.0
 31
0.0
 40
0.5773502692
 41
2.617993878
 42
3.1241393611
  0
ELLIPSE
  5
706
100
AcDbEntity
  8
C_COPERCHIO
100
AcDbEllipse
 62
7
  6
CONTINUOUS
 10
-8.5131293807
 20
23.5556624327
 30
0.0
 11
0.25
 21
-0.0
 31
0.0
 40
0.5773502692
 41
0.0174532925
 42
0.5235987756
  0
ELLIPSE
  5
707
100
AcDbEntity
  8
C_COPERCHIO
100
AcDbEllipse
 62
7
  6
CONTINUOUS
 10
3.2999809608
 20
-9.2499809608
 30
0.0
 11
-0.3535803156
 21
0.3535803156
 31
0.0
 40
0.9999238505
 41
-3.9269527408
 42
-2.7679682725
  0
ELLIPSE
  5
708
100
AcDbEntity
  8
C_COPERCHIO
100
AcDbEllipse
 62
7
  6
CONTINUOUS
 10
-3.2999809608
 20
-9.2499809608
 30
0.0
 11
0.3535803156
 21
0.3535803156
 31
0.0
 40
0.9999238505
 41
-3.5152337682
 42
-2.3562325664
  0
ELLIPSE
  5
709
100
AcDbEntity
  8
C_COPERCHIO
100
AcDbEllipse
 62
7
  6
CONTINUOUS
 10
-7.501091462
 20
9.501091462
 30
0.0
 11
0.7071606311
 21
-0.7071606311
 31
0.0
 40
0.9999238505
 41
9.8084779498
 42
10.210138048
  0
ELLIPSE
  5
70A
100
AcDbEntity
  8
C_COPERCHIO
100
AcDbEllipse
 62
7
  6
CONTINUOUS
 10
-7.3733056894
 20
-20.3266752714
 30
0.0
 11
-0.0
 21
0.5
 31
0.0
 40
0.0087268678
 41
-4.7123889804
 42
-3.1503192998
  0
ELLIPSE
  5
70B
100
AcDbEntity
  8
C_COPERCHIO
100
AcDbEllipse
 62
7
  6
CONTINUOUS
 10
-6.4266943106
 20
-19.4266752714
 30
0.0
 11
-0.0
 21
0.5
 31
0.0
 40
0.0087268678
 41
-3.1328660073
 42
-2.1497501358
  0
ELLIPSE
  5
70C
100
AcDbEntity
  8
C_COPERCHIO
100
AcDbEllipse
 62
7
  6
CONTINUOUS
 10
6.4266943106
 20
-19.4266752714
 30
0.0
 11
-0.0
 21
0.5
 31
0.0
 40
0.0087268678
 41
-4.1334351714
 42
-3.1503192998
  0
ELLIPSE
  5
70D
100
AcDbEntity
  8
C_COPERCHIO
100
AcDbEllipse
 62
7
  6
CONTINUOUS
 10
7.3733056894
 20
-20.3266752714
 30
0.0
 11
-0.0
 21
0.5
 31
0.0
 40
0.0087268678
 41
-3.1328660073
 42
-1.5707963268
  0
ELLIPSE
  5
70E
100
AcDbEntity
  8
C_COPERCHIO
100
AcDbEllipse
 62
7
  6
CONTINUOUS
 10
7.3733056894
 20
20.3266752714
 30
0.0
 11
-0.0
 21
0.5
 31
0.0
 40
0.0087268678
 41
-1.5707963268
 42
-0.0087266463
  0
ELLIPSE
  5
70F
100
AcDbEntity
  8
C_COPERCHIO
100
AcDbEllipse
 62
7
  6
CONTINUOUS
 10
6.4266943106
 20
19.4266752714
 30
0.0
 11
0.0
 21
0.5
 31
0.0
 40
0.0087268678
 41
0.0087266463
 42
0.9918425178
  0
ELLIPSE
  5
710
100
AcDbEntity
  8
C_COPERCHIO
100
AcDbEllipse
 62
7
  6
CONTINUOUS
 10
-10.649923836
 20
21.882468771
 30
0.0
 11
0.3536610946
 21
0.3536610946
 31
0.0
 40
0.9996954599
 41
0.7852458701
 42
2.3563467834
  0
ELLIPSE
  5
711
100
AcDbEntity
  8
C_COPERCHIO
100
AcDbEllipse
 62
7
  6
CONTINUOUS
 10
-6.4266943106
 20
19.4266752714
 30
0.0
 11
0.0
 21
0.5
 31
0.0
 40
0.0087268678
 41
-0.9918425178
 42
-0.0087266463
  0
ELLIPSE
  5
712
100
AcDbEntity
  8
C_COPERCHIO
100
AcDbEllipse
 62
7
  6
CONTINUOUS
 10
-7.3733056894
 20
20.3266752714
 30
0.0
 11
-0.0
 21
0.5
 31
0.0
 40
0.0087268678
 41
0.0087266463
 42
1.5707963268
  0
ELLIPSE
  5
713
100
AcDbEntity
  8
C_COPERCHIO
100
AcDbEllipse
 62
7
  6
CONTINUOUS
 10
10.649923836
 20
-21.882468771
 30
0.0
 11
-0.3536610946
 21
-0.3536610946
 31
0.0
 40
0.9996954599
 41
0.7852458701
 42
2.3563467834
  0
ELLIPSE
  5
714
100
AcDbEntity
  8
C_COPERCHIO
100
AcDbEllipse
 62
7
  6
CONTINUOUS
 10
7.5666456542
 20
-21.8241598555
 30
0.0
 11
0.4999619078
 21
0.5001142591
 31
0.0
 40
0.0123407145
 41
0.0051094445
 42
1.0549217831
  0
ELLIPSE
  5
715
100
AcDbEntity
  8
C_COPERCHIO
100
AcDbEllipse
 62
7
  6
CONTINUOUS
 10
8.1778510818
 20
-21.2252970227
 30
0.0
 11
1.0002285182
 21
0.9999238157
 31
0.0
 40
0.0123407145
 41
1.9372884647
 42
3.1364832091
  0
ELLIPSE
  5
716
100
AcDbEntity
  8
C_COPERCHIO
100
AcDbEllipse
 62
7
  6
CONTINUOUS
 10
-7.5666456542
 20
-21.8241598555
 30
0.0
 11
-0.4999619078
 21
0.5001142591
 31
0.0
 40
0.0123407145
 41
-1.0549217831
 42
-0.0051094445
  0
ELLIPSE
  5
717
100
AcDbEntity
  8
C_COPERCHIO
100
AcDbEllipse
 62
7
  6
CONTINUOUS
 10
-8.1778510818
 20
-21.2252970227
 30
0.0
 11
1.0002285182
 21
-0.9999238157
 31
0.0
 40
0.0123407145
 41
0.0051094445
 42
1.2043041889
  0
ELLIPSE
  5
718
100
AcDbEntity
  8
C_COPERCHIO
100
AcDbEllipse
 62
7
  6
CONTINUOUS
 10
7.5666456542
 20
21.8241598555
 30
0.0
 11
-0.4999619078
 21
0.5001142591
 31
0.0
 40
0.0123407145
 41
-4.1965144367
 42
-3.1467020981
  0
ELLIPSE
  5
719
100
AcDbEntity
  8
C_COPERCHIO
100
AcDbEllipse
 62
7
  6
CONTINUOUS
 10
8.1778510818
 20
21.2252970227
 30
0.0
 11
1.0002285182
 21
-0.9999238157
 31
0.0
 40
0.0123407145
 41
-3.1364832091
 42
-1.9372884647
  0
ELLIPSE
  5
71A
100
AcDbEntity
  8
C_COPERCHIO
100
AcDbEllipse
 62
7
  6
CONTINUOUS
 10
-7.5666456542
 20
21.8241598555
 30
0.0
 11
0.4999619078
 21
0.5001142591
 31
0.0
 40
0.0123407145
 41
-3.1364832091
 42
-2.0866708705
  0
ELLIPSE
  5
71B
100
AcDbEntity
  8
C_COPERCHIO
100
AcDbEllipse
 62
7
  6
CONTINUOUS
 10
-8.1778510818
 20
21.2252970227
 30
0.0
 11
1.0002285182
 21
0.9999238157
 31
0.0
 40
0.0123407145
 41
-1.2043041889
 42
-0.0051094445
  0
ELLIPSE
  5
71C
100
AcDbEntity
  8
C_COPERCHIO
100
AcDbEllipse
 62
7
  6
CONTINUOUS
 10
-3.2511105012
 20
-9.2011105012
 30
0.0
 11
-0.3535803156
 21
-0.3535803156
 31
0.0
 40
0.9999238505
 41
-0.2641731397
 42
0.7853600872
  0
ELLIPSE
  5
71D
100
AcDbEntity
  8
C_COPERCHIO
100
AcDbEllipse
 62
7
  6
CONTINUOUS
 10
3.2511105012
 20
-9.2011105012
 30
0.0
 11
0.3535803156
 21
-0.3535803156
 31
0.0
 40
0.9999238505
 41
-0.7853600872
 42
0.2641435025
  0
ELLIPSE
  5
71E
100
AcDbEntity
  8
C_COPERCHIO
100
AcDbEllipse
 62
7
  6
CONTINUOUS
 10
-10.649923836
 20
-21.882468771
 30
0.0
 11
-0.3536610946
 21
0.3536610946
 31
0.0
 40
0.9996954599
 41
7.0684311773
 42
8.6395320906
  0
ELLIPSE
  5
71F
100
AcDbEntity
  8
C_CORPO
100
AcDbEllipse
 62
7
  6
CONTINUOUS
 10
2.899923836
 20
141.875642436
 30
0.0
 11
-0.4997620717
 21
162.4815824859
 31
0.0
 40
0.000109066
 41
-3.0587203748
 42
-3.0483969569
  0
ELLIPSE
  5
720
100
AcDbEntity
  8
C_CORPO
100
AcDbEllipse
 62
7
  6
CONTINUOUS
 10
2.899923836
 20
-141.875642436
 30
0.0
 11
0.4997620717
 21
162.4815824859
 31
0.0
 40
0.000109066
 41
-0.0931956966
 42
-0.0828722788
  0
ELLIPSE
  5
721
100
AcDbEntity
  8
C_CORPO
100
AcDbEllipse
 62
7
  6
CONTINUOUS
 10
-2.899923836
 20
141.875642436
 30
0.0
 11
0.4997620717
 21
162.4815824859
 31
0.0
 40
0.000109066
 41
-3.2347883502
 42
-3.2244649324
  0
ELLIPSE
  5
722
100
AcDbEntity
  8
C_CORPO
100
AcDbEllipse
 62
7
  6
CONTINUOUS
 10
-2.899923836
 20
-141.875642436
 30
0.0
 11
-0.4997620717
 21
162.4815824859
 31
0.0
 40
0.000109066
 41
0.0828722788
 42
0.0931956966
  0
ELLIPSE
  5
723
100
AcDbEntity
  8
C_CORPO
100
AcDbEllipse
 62
7
  6
CONTINUOUS
 10
-9.1496953439
 20
17.6714466826
 30
0.0
 11
1.8480888181
 21
-0.7655034529
 31
0.0
 40
0.9998215708
 41
2.7489566578
 42
3.5342286494
  0
ELLIPSE
  5
724
100
AcDbEntity
  8
C_CORPO
100
AcDbEllipse
 62
7
  6
CONTINUOUS
 10
-9.1496953439
 20
-17.6714466826
 30
0.0
 11
1.8480888181
 21
0.7655034529
 31
0.0
 40
0.9998215708
 41
2.7489566578
 42
3.5342286494
  0
ELLIPSE
  5
725
100
AcDbEntity
  8
C_CORPO
100
AcDbEllipse
 62
7
  6
CONTINUOUS
 10
9.1496953439
 20
-17.6714466826
 30
0.0
 11
1.8480888181
 21
-0.7655034529
 31
0.0
 40
0.9998215708
 41
-0.3926359958
 42
0.3926359958
  0
ELLIPSE
  5
726
100
AcDbEntity
  8
C_CORPO
100
AcDbEllipse
 62
7
  6
CONTINUOUS
 10
9.1496953439
 20
17.6714466826
 30
0.0
 11
1.8480888181
 21
0.7655034529
 31
0.0
 40
0.9998215708
 41
-0.3926359958
 42
0.3926359958
  0
ELLIPSE
  5
727
100
AcDbEntity
  8
C_CORPO
100
AcDbEllipse
 62
7
  6
CONTINUOUS
 10
-5.5
 20
14.7892709051
 30
0.0
 11
2.75
 21
-0.0
 31
0.0
 40
0.0087268678
 41
0.0087266463
 42
3.1328660073
  0
ELLIPSE
  5
728
100
AcDbEntity
  8
C_CORPO
100
AcDbEllipse
 62
7
  6
CONTINUOUS
 10
5.5
 20
14.7892709051
 30
0.0
 11
2.75
 21
0.0
 31
0.0
 40
0.0087268678
 41
0.0087266463
 42
3.1328660073
  0
ELLIPSE
  5
729
100
AcDbEntity
  8
C_CORPO
100
AcDbEllipse
 62
7
  6
CONTINUOUS
 10
-0.0
 20
-14.7892709051
 30
0.0
 11
2.75
 21
0.0
 31
0.0
 40
0.0087268678
 41
-3.1328660073
 42
-0.0087266463
  0
ELLIPSE
  5
72A
100
AcDbEntity
  8
C_CORPO
100
AcDbEllipse
 62
7
  6
CONTINUOUS
 10
5.5
 20
14.7809803807
 30
0.0
 11
2.75839524
 21
-0.0
 31
0.0
 40
0.0087268678
 41
-3.1415926536
 42
-0.0
  0
ELLIPSE
  5
72B
100
AcDbEntity
  8
C_CORPO
100
AcDbEllipse
 62
7
  6
CONTINUOUS
 10
-5.5
 20
14.7809803807
 30
0.0
 11
2.75839524
 21
-0.0
 31
0.0
 40
0.0087268678
 41
3.1415926536
 42
6.2831853072
  0
ELLIPSE
  5
72C
100
AcDbEntity
  8
C_CORPO
100
AcDbEllipse
 62
7
  6
CONTINUOUS
 10
0.0
 20
-14.7809803807
 30
0.0
 11
2.75839524
 21
-0.0
 31
0.0
 40
0.0087268678
 41
0.0
 42
3.1415926536
  0
ELLIPSE
  5
72D
100
AcDbEntity
  8
C_CORPO
100
AcDbEllipse
 62
7
  6
CONTINUOUS
 10
8.1626361922
 20
15.0229318279
 30
0.0
 11
0.5774011102
 21
0.9999928594
 31
0.0
 40
0.0065449328
 41
-1.33795111
 42
-0.0136742321
  0
ELLIPSE
  5
72E
100
AcDbEntity
  8
C_CORPO
100
AcDbEllipse
 62
7
  6
CONTINUOUS
 10
2.7937390545
 20
-15.0229318279
 30
0.0
 11
-0.0
 21
1.0
 31
0.0
 40
0.0087268678
 41
-1.7998624832
 42
-1.5707963268
  0
ELLIPSE
  5
72F
100
AcDbEntity
  8
C_CORPO
100
AcDbEllipse
 62
7
  6
CONTINUOUS
 10
2.6626361922
 20
-15.0229318279
 30
0.0
 11
-0.5774011102
 21
0.9999928594
 31
0.0
 40
0.0065449328
 41
-3.1279184215
 42
-1.8036415436
  0
ELLIPSE
  5
730
100
AcDbEntity
  8
C_CORPO
100
AcDbEllipse
 62
7
  6
CONTINUOUS
 10
-2.6626361922
 20
-15.0229318279
 30
0.0
 11
0.5774011102
 21
0.9999928594
 31
0.0
 40
0.0065449328
 41
-4.4795437636
 42
-3.1552668857
  0
ELLIPSE
  5
731
100
AcDbEntity
  8
C_CORPO
100
AcDbEllipse
 62
7
  6
CONTINUOUS
 10
-2.7937390545
 20
-15.0229318279
 30
0.0
 11
-0.0
 21
1.0
 31
0.0
 40
0.0087268678
 41
-4.7123889804
 42
-4.483322824
  0
ELLIPSE
  5
732
100
AcDbEntity
  8
C_CORPO
100
AcDbEllipse
 62
7
  6
CONTINUOUS
 10
8.2937390545
 20
15.0229318279
 30
0.0
 11
0.0
 21
1.0
 31
0.0
 40
0.0087268678
 41
-1.5707963268
 42
-1.3417301704
  0
ELLIPSE
  5
733
100
AcDbEntity
  8
C_CORPO
100
AcDbEllipse
 62
7
  6
CONTINUOUS
 10
2.7062609455
 20
15.0229318279
 30
0.0
 11
0.0
 21
1.0
 31
0.0
 40
0.0087268678
 41
1.3417301704
 42
1.5707963268
  0
ELLIPSE
  5
734
100
AcDbEntity
  8
C_CORPO
100
AcDbEllipse
 62
7
  6
CONTINUOUS
 10
2.8373638078
 20
15.0229318279
 30
0.0
 11
-0.5774011102
 21
0.9999928594
 31
0.0
 40
0.0065449328
 41
0.0136742321
 42
1.33795111
  0
ELLIPSE
  5
735
100
AcDbEntity
  8
C_CORPO
100
AcDbEllipse
 62
7
  6
CONTINUOUS
 10
-2.8373638078
 20
15.0229318279
 30
0.0
 11
0.5774011102
 21
0.9999928594
 31
0.0
 40
0.0065449328
 41
-1.33795111
 42
-0.0136742321
  0
ELLIPSE
  5
736
100
AcDbEntity
  8
C_CORPO
100
AcDbEllipse
 62
7
  6
CONTINUOUS
 10
-2.7062609455
 20
15.0229318279
 30
0.0
 11
-0.0
 21
1.0
 31
0.0
 40
0.0087268678
 41
-1.5707963268
 42
-1.3417301704
  0
ELLIPSE
  5
737
100
AcDbEntity
  8
C_CORPO
100
AcDbEllipse
 62
7
  6
CONTINUOUS
 10
-8.2937390545
 20
15.0229318279
 30
0.0
 11
0.0
 21
1.0
 31
0.0
 40
0.0087268678
 41
1.3417301704
 42
1.5707963268
  0
ELLIPSE
  5
738
100
AcDbEntity
  8
C_CORPO
100
AcDbEllipse
 62
7
  6
CONTINUOUS
 10
-8.1626361922
 20
15.0229318279
 30
0.0
 11
-0.5774011102
 21
0.9999928594
 31
0.0
 40
0.0065449328
 41
0.0136742321
 42
1.33795111
  0
ELLIPSE
  5
739
100
AcDbEntity
  8
C_CORPO
100
AcDbEllipse
 62
7
  6
CONTINUOUS
 10
2.4020043045
 20
-19.9021566325
 30
0.0
 11
1.0000047088
 21
-0.0000084854
 31
0.0
 40
0.0176698676
 41
0.0754195703
 42
1.5712765441
  0
ELLIPSE
  5
73A
100
AcDbEntity
  8
C_CORPO
100
AcDbEllipse
 62
7
  6
CONTINUOUS
 10
-2.4020043045
 20
-19.9021566325
 30
0.0
 11
1.0000047088
 21
0.0000084854
 31
0.0
 40
0.0176698676
 41
1.5703161095
 42
3.0661730833
  0
ELLIPSE
  5
73B
100
AcDbEntity
  8
C_CORPO
100
AcDbEllipse
 62
7
  6
CONTINUOUS
 10
2.4020043045
 20
19.9021566325
 30
0.0
 11
1.0000047088
 21
0.0000084854
 31
0.0
 40
0.0176698676
 41
-1.5712765441
 42
-0.0754195703
  0
ELLIPSE
  5
73C
100
AcDbEntity
  8
C_CORPO
100
AcDbEllipse
 62
7
  6
CONTINUOUS
 10
-2.4020043045
 20
19.9021566325
 30
0.0
 11
1.0000047088
 21
-0.0000084854
 31
0.0
 40
0.0176698676
 41
-3.0661730833
 42
-1.5703161095
  0
ELLIPSE
  5
73D
100
AcDbEntity
  8
C_CORPO
100
AcDbEllipse
 62
7
  6
CONTINUOUS
 10
-9.3778922769
 20
18.6108268408
 30
0.0
 11
-0.3827517265
 21
0.924044409
 31
0.0
 40
0.9998215708
 41
-0.3926359958
 42
0.3926359958
  0
ELLIPSE
  5
73E
100
AcDbEntity
  8
C_CORPO
100
AcDbEllipse
 62
7
  6
CONTINUOUS
 10
9.3778922769
 20
18.6108268408
 30
0.0
 11
0.3827517265
 21
0.924044409
 31
0.0
 40
0.9998215708
 41
-0.3926359958
 42
0.3926359958
  0
ELLIPSE
  5
73F
100
AcDbEntity
  8
C_CORPO
100
AcDbEllipse
 62
7
  6
CONTINUOUS
 10
9.3778922769
 20
-18.6108268408
 30
0.0
 11
-0.3827517265
 21
0.924044409
 31
0.0
 40
0.9998215708
 41
-3.5342286494
 42
-2.7489566578
  0
ELLIPSE
  5
740
100
AcDbEntity
  8
C_CORPO
100
AcDbEllipse
 62
7
  6
CONTINUOUS
 10
-9.3778922769
 20
-18.6108268408
 30
0.0
 11
0.3827517265
 21
0.924044409
 31
0.0
 40
0.9998215708
 41
-3.5342286494
 42
-2.7489566578
  0
ELLIPSE
  5
741
100
AcDbEntity
  8
C_CORPO
100
AcDbEllipse
 62
7
  6
CONTINUOUS
 10
0.0
 20
-16.1109306598
 30
0.0
 11
3.2468936588
 21
0.0
 31
0.0
 40
0.0174559514
 41
3.1402413834
 42
6.2845365774
  0
ELLIPSE
  5
742
100
AcDbEntity
  8
C_CORPO
100
AcDbEllipse
 62
7
  6
CONTINUOUS
 10
8.9681626687
 20
-17.5962533865
 30
0.0
 11
1.8480888181
 21
-0.7655034529
 31
0.0
 40
0.9998215708
 41
-0.3926359958
 42
0.3926359958
  0
ELLIPSE
  5
743
100
AcDbEntity
  8
C_CORPO
100
AcDbEllipse
 62
7
  6
CONTINUOUS
 10
-8.9681626687
 20
-17.5962533865
 30
0.0
 11
-1.8480888181
 21
-0.7655034529
 31
0.0
 40
0.9998215708
 41
-0.3926359958
 42
0.3926359958
  0
ELLIPSE
  5
744
100
AcDbEntity
  8
C_CORPO
100
AcDbEllipse
 62
7
  6
CONTINUOUS
 10
-8.9681626687
 20
17.5962533865
 30
0.0
 11
1.8480888181
 21
-0.7655034529
 31
0.0
 40
0.9998215708
 41
2.7489566578
 42
3.5342286494
  0
ELLIPSE
  5
745
100
AcDbEntity
  8
C_CORPO
100
AcDbEllipse
 62
7
  6
CONTINUOUS
 10
8.9681626687
 20
17.5962533865
 30
0.0
 11
1.8480888181
 21
0.7655034529
 31
0.0
 40
0.9998215708
 41
-0.3926359958
 42
0.3926359958
  0
ELLIPSE
  5
746
100
AcDbEntity
  8
C_CORPO
100
AcDbEllipse
 62
7
  6
CONTINUOUS
 10
5.5
 20
16.1109306598
 30
0.0
 11
3.2468936588
 21
0.0
 31
0.0
 40
0.0174559514
 41
-0.0013512702
 42
3.1429439238
  0
ELLIPSE
  5
747
100
AcDbEntity
  8
C_CORPO
100
AcDbEllipse
 62
7
  6
CONTINUOUS
 10
-5.5
 20
16.1109306598
 30
0.0
 11
3.2468936588
 21
-0.0
 31
0.0
 40
0.0174559514
 41
-0.0013512702
 42
3.1429439238
  0
ELLIPSE
  5
748
100
AcDbEntity
  8
C_CORPO
100
AcDbEllipse
 62
7
  6
CONTINUOUS
 10
-9.3707894365
 20
-18.5936790673
 30
0.0
 11
0.2022164363
 21
0.9977467039
 31
0.0
 40
0.9816060652
 41
-3.7304835574
 42
-2.9452115658
  0
ELLIPSE
  5
749
100
AcDbEntity
  8
C_CORPO
100
AcDbEllipse
 62
7
  6
CONTINUOUS
 10
9.3707894365
 20
-18.5936790673
 30
0.0
 11
-0.2022164363
 21
0.9977467039
 31
0.0
 40
0.9816060652
 41
-3.3379737414
 42
-2.5527017498
  0
ELLIPSE
  5
74A
100
AcDbEntity
  8
C_CORPO
100
AcDbEllipse
 62
7
  6
CONTINUOUS
 10
9.3707894365
 20
18.5936790673
 30
0.0
 11
0.2022164363
 21
0.9977467039
 31
0.0
 40
0.9816060652
 41
-0.5888909038
 42
0.1963810878
  0
ELLIPSE
  5
74B
100
AcDbEntity
  8
C_CORPO
100
AcDbEllipse
 62
7
  6
CONTINUOUS
 10
-9.3707894365
 20
18.5936790673
 30
0.0
 11
-0.2022164363
 21
0.9977467039
 31
0.0
 40
0.9816060652
 41
-0.1963810878
 42
0.5888909038
  0
ENDSEC
  0
SECTION
  2
OBJECTS
  0
DICTIONARY
  5
C
100
AcDbDictionary
280
0
281
1
  3
ACAD_GROUP
350
D
  3
ACAD_MLINESTYLE
350
17
  3
ACAD_LAYOUT
350
1A
  3
ACAD_PLOTSETTINGS
350
19
  3
ACAD_PLOTSTYLENAME
350
E
  0
DICTIONARY
  5
D
102
{ACAD_REACTORS
330
C
102
}
100
AcDbDictionary
280
0
281
1
  0
ACDBDICTIONARYWDFLT
  5
E
102
{ACAD_REACTORS
330
C
102
}
100
AcDbDictionary
281
1
  3
Normal
350
F
100
AcDbDictionaryWithDefault
340
F
  0
DICTIONARY
  5
17
102
{ACAD_REACTORS
330
C
102
}
100
AcDbDictionary
280
0
281
1
  3
Standard
350
18
  0
DICTIONARY
  5
19
102
{ACAD_REACTORS
330
C
102
}
100
AcDbDictionary
281
1
  0
DICTIONARY
  5
1A
102
{ACAD_REACTORS
330
C
102
}
100
AcDbDictionary
281
1
  3
Model
350
74C
  3
Layout1
350
74D
  0
ACDBPLACEHOLDER
  5
F
102
{ACAD_REACTORS
330
E
102
}
  0
MLINESTYLE
  5
18
102
{ACAD_REACTORS
330
17
102
}
100
AcDbMlineStyle
  2
STANDARD
 70
0
  3

 62
256
 51
90.0
 52
90.0
 71
2
 49
0.5
 62
256
  6
BYLAYER
 49
-0.5
 62
256
  6
BYLAYER
  0
LAYOUT
  5
74C
102
{ACAD_REACTORS
330
1A
102
}
100
AcDbPlotSettings
  1

  2
none_device
  4
ISO_A4_(297.00_x_210.00_MM)
  6

 40
0.0
 41
0.0
 42
0.0
 43
0.0
 44
297.0
 45
210.0
 46
0.0
 47
0.0
 48
0.0
 49
0.0
140
0.0
141
0.0
142
1.0
143
1.0
 70
1024
 72
1
 73
0
 74
0
  7

 75
0
147
1.0
148
0.0
149
0.0
100
AcDbLayout
  1
Model
 70
0
 71
0
 10
0.0
 20
0.0
 11
297.0
 21
210.0
 12
0.0
 22
0.0
 32
0.0
 14
0.0
 24
0.0
 34
0.0
 15
0.0
 25
0.0
 35
0.0
146
0.0
 13
0.0
 23
0.0
 33
0.0
 16
1.0
 26
0.0
 36
0.0
 17
0.0
 27
1.0
 37
0.0
 76
0
330
21A
345
0
346
0
  0
LAYOUT
  5
74D
102
{ACAD_REACTORS
330
1A
102
}
100
AcDbPlotSettings
  1

  2
none_device
  4
ISO_A4_(297.00_x_210.00_MM)
  6

 40
0.0
 41
0.0
 42
0.0
 43
0.0
 44
297.0
 45
210.0
 46
0.0
 47
0.0
 48
0.0
 49
0.0
140
0.0
141
0.0
142
1.0
143
1.0
 70
0
 72
1
 73
0
 74
0
  7

 75
0
147
1.0
148
0.0
149
0.0
100
AcDbLayout
  1
Layout1
 70
0
 71
1
 10
0.0
 20
0.0
 11
297.0
 21
210.0
 12
0.0
 22
0.0
 32
0.0
 14
0.0
 24
0.0
 34
0.0
 15
0.0
 25
0.0
 35
0.0
146
0.0
 13
0.0
 23
0.0
 33
0.0
 16
1.0
 26
0.0
 36
0.0
 17
0.0
 27
1.0
 37
0.0
 76
0
330
21B
345
0
346
0
  0
ENDSEC
  0
EOF
