  0
SECTION
  2
HEADER
  9
$ACADVER
  1
AC1015
  9
$DWGCODEPAGE
  3
ANSI_1252
  9
$EXTMAX
 10
297.0
 20
210.0
 30
0.0
  9
$EXTMIN
 10
0.0
 20
0.0
 30
0.0
  9
$LIMMIN
 10
0.0
 20
0.0
  9
$LIMMAX
 10
297.0
 20
210.0
  9
$VIEWCTR
 10
148.5
 20
105.0
  9
$VIEWSIZE
 40
210.0
  9
$CLAYER
  8
0
  9
$LTSCALE
 40
16.335
  9
$CELTYPE
  6
BYLAYER
  9
$DIMSCALE
 40
1.0
  9
$DIMASZ
 40
3.0
  9
$DIMEXO
 40
0.5
  9
$DIMDLI
 40
11.286
  9
$DIMEXE
 40
1.5
  9
$DIMCEN
 40
2.673
  9
$DIMLFAC
 40
1.0
  9
$DIMBLK
  1
_FILLED
  9
$DIMTXT
 40
3.0
  9
$DIMTOL
 70
1
  9
$DIMLIM
 70
0
  9
$DIMTFAC
 40
1.0
  9
$DIMTP
 40
0.01
  9
$DIMTM
 40
0.01
  9
$DIMGAP
 40
0.625
  9
$DIMDSEP
 70
44
  9
$PDMODE
 70
3
  9
$PDSIZE
 40
3.0
  9
$HANDSEED
  5
882
  9
$TILEMODE
 70
1
  9
$MEASUREMENT
 70
1
  9
$INSUNITS
 70
4
  0
ENDSEC
  0
SECTION
  2
CLASSES
  0
CLASS
  1
ACDBDICTIONARYWDFLT
  2
AcDbDictionaryWithDefault
  3
AutoCAD 2000
 90
0
280
0
281
0
  0
CLASS
  1
ACDBPLACEHOLDER
  2
AcDbPlaceHolder
  3
AutoCAD 2000
 90
0
280
0
281
0
  0
CLASS
  1
LAYOUT
  2
AcDbLayout
  3
AutoCAD 2000
 90
0
280
0
281
0
  0
ENDSEC
  0
SECTION
  2
TABLES
  0
TABLE
  2
VPORT
  5
8
100
AcDbSymbolTable
 70
2
  0
VPORT
  5
1F4
100
AcDbSymbolTableRecord
100
AcDbViewportTableRecord
  2
*ACTIVE
 70
0
 10
0.0
 20
0.0
 11
1.0
 21
1.0
 12
148.5
 22
105.0
 13
0.0
 23
0.0
 14
1.0
 24
1.0
 15
0.0
 25
0.0
 16
0.0
 26
0.0
 36
1.0
 17
0.0
 27
0.0
 37
0.0
 40
210.0
 41
1.4142857143
 42
50.0
 43
0.0
 44
0.0
 50
0.0
 51
0.0
 71
0
 72
100
 73
1
 74
1
 75
0
 76
0
 77
0
 78
0
  0
ENDTAB
  0
TABLE
  2
LTYPE
  5
5
100
AcDbSymbolTable
 70
6
  0
LTYPE
  5
14
100
AcDbSymbolTableRecord
100
AcDbLinetypeTableRecord
  2
BYBLOCK
 70
0
  3

 72
65
 73
0
 40
0.0
  0
LTYPE
  5
15
100
AcDbSymbolTableRecord
100
AcDbLinetypeTableRecord
  2
BYLAYER
 70
0
  3

 72
65
 73
0
 40
0.0
  0
LTYPE
  5
16
100
AcDbSymbolTableRecord
100
AcDbLinetypeTableRecord
  2
CONTINUOUS
 70
64
  3
Solid line
 72
65
 73
0
 40
0.0
  0
LTYPE
  5
1F5
100
AcDbSymbolTableRecord
100
AcDbLinetypeTableRecord
  2
CENTER
 70
64
  3
____ _ ____ _ ____ _ ____ _ ____ _ ____ _ ____
 72
65
 73
4
 40
0.6
 49
0.375
 74
0
 49
-0.075
 74
0
 49
0.075
 74
0
 49
-0.075
 74
0
  0
LTYPE
  5
1F6
100
AcDbSymbolTableRecord
100
AcDbLinetypeTableRecord
  2
HIDDEN
 70
64
  3
- - - - - - - - - - - - - - - - - - - -
 72
65
 73
2
 40
0.2
 49
0.1
 74
0
 49
-0.1
 74
0
  0
LTYPE
  5
1F7
100
AcDbSymbolTableRecord
100
AcDbLinetypeTableRecord
  2
PHANTOM
 70
64
  3
_____ _ _ _____ _ _ _____ _ _ _____
 72
65
 73
6
 40
0.8
 49
0.45
 74
0
 49
-0.05
 74
0
 49
0.1
 74
0
 49
-0.05
 74
0
 49
0.1
 74
0
 49
-0.05
 74
0
  0
LTYPE
  5
1F8
100
AcDbSymbolTableRecord
100
AcDbLinetypeTableRecord
  2
DOT
 70
64
  3
. . . . . . . . . . . . . . . . . . . .
 72
65
 73
2
 40
0.2
 49
0.1
 74
0
 49
-0.1
 74
0
  0
LTYPE
  5
1F9
100
AcDbSymbolTableRecord
100
AcDbLinetypeTableRecord
  2
DASHED
 70
64
  3
- - - - - - - - - - - - - - - - - - - -
 72
65
 73
2
 40
0.2
 49
0.1
 74
0
 49
-0.1
 74
0
  0
ENDTAB
  0
TABLE
  2
LAYER
  5
2
100
AcDbSymbolTable
 70
36
  0
LAYER
  5
10
100
AcDbSymbolTableRecord
100
AcDbLayerTableRecord
  2
0
 70
0
 62
7
  6
CONTINUOUS
370
-3
390
F
  0
LAYER
  5
1FA
100
AcDbSymbolTableRecord
100
AcDbLayerTableRecord
  2
DEFAULT_1
 70
0
 62
7
  6
CENTER
370
-3
390
F
  0
LAYER
  5
1FB
100
AcDbSymbolTableRecord
100
AcDbLayerTableRecord
  2
DEFAULT_2
 70
0
 62
7
  6
HIDDEN
370
-3
390
F
  0
LAYER
  5
1FC
100
AcDbSymbolTableRecord
100
AcDbLayerTableRecord
  2
DEFAULT_3
 70
0
 62
7
  6
PHANTOM
370
-3
390
F
  0
LAYER
  5
1FD
100
AcDbSymbolTableRecord
100
AcDbLayerTableRecord
  2
ASSI
 70
0
 62
7
  6
CONTINUOUS
370
-3
390
F
  0
LAYER
  5
1FE
100
AcDbSymbolTableRecord
100
AcDbLayerTableRecord
  2
COLOR4
 70
0
 62
7
  6
CONTINUOUS
370
-3
390
F
  0
LAYER
  5
1FF
100
AcDbSymbolTableRecord
100
AcDbLayerTableRecord
  2
COLORE_MATERIALE
 70
0
 62
7
  6
CONTINUOUS
370
-3
390
F
  0
LAYER
  5
200
100
AcDbSymbolTableRecord
100
AcDbLayerTableRecord
  2
COORDINATE
 70
0
 62
7
  6
CONTINUOUS
370
-3
390
F
  0
LAYER
  5
201
100
AcDbSymbolTableRecord
100
AcDbLayerTableRecord
  2
COORD_ORIGINE
 70
0
 62
7
  6
CONTINUOUS
370
-3
390
F
  0
LAYER
  5
202
100
AcDbSymbolTableRecord
100
AcDbLayerTableRecord
  2
COPY
 70
0
 62
7
  6
CONTINUOUS
370
-3
390
F
  0
LAYER
  5
203
100
AcDbSymbolTableRecord
100
AcDbLayerTableRecord
  2
COPY_PUBLISH
 70
0
 62
7
  6
CONTINUOUS
370
-3
390
F
  0
LAYER
  5
204
100
AcDbSymbolTableRecord
100
AcDbLayerTableRecord
  2
COSMETICI
 70
0
 62
7
  6
CONTINUOUS
370
-3
390
F
  0
LAYER
  5
205
100
AcDbSymbolTableRecord
100
AcDbLayerTableRecord
  2
CURVE
 70
0
 62
7
  6
CONTINUOUS
370
-3
390
F
  0
LAYER
  5
206
100
AcDbSymbolTableRecord
100
AcDbLayerTableRecord
  2
DRAFT
 70
0
 62
7
  6
CONTINUOUS
370
-3
390
F
  0
LAYER
  5
207
100
AcDbSymbolTableRecord
100
AcDbLayerTableRecord
  2
IGES
 70
0
 62
7
  6
CONTINUOUS
370
-3
390
F
  0
LAYER
  5
208
100
AcDbSymbolTableRecord
100
AcDbLayerTableRecord
  2
IMPORT_IGES
 70
0
 62
7
  6
CONTINUOUS
370
-3
390
F
  0
LAYER
  5
209
100
AcDbSymbolTableRecord
100
AcDbLayerTableRecord
  2
INTFCLR_137
 70
0
 62
7
  6
CONTINUOUS
370
-3
390
F
  0
LAYER
  5
20A
100
AcDbSymbolTableRecord
100
AcDbLayerTableRecord
  2
INTFCLR_2
 70
0
 62
7
  6
CONTINUOUS
370
-3
390
F
  0
LAYER
  5
20B
100
AcDbSymbolTableRecord
100
AcDbLayerTableRecord
  2
INTFCLR_4627
 70
0
 62
7
  6
CONTINUOUS
370
-3
390
F
  0
LAYER
  5
20C
100
AcDbSymbolTableRecord
100
AcDbLayerTableRecord
  2
INTFCLR_6275
 70
0
 62
7
  6
CONTINUOUS
370
-3
390
F
  0
LAYER
  5
20D
100
AcDbSymbolTableRecord
100
AcDbLayerTableRecord
  2
INTF_1
 70
0
 62
7
  6
CONTINUOUS
370
-3
390
F
  0
LAYER
  5
20E
100
AcDbSymbolTableRecord
100
AcDbLayerTableRecord
  2
INTF_12
 70
0
 62
7
  6
CONTINUOUS
370
-3
390
F
  0
LAYER
  5
20F
100
AcDbSymbolTableRecord
100
AcDbLayerTableRecord
  2
INTF_6
 70
0
 62
7
  6
CONTINUOUS
370
-3
390
F
  0
LAYER
  5
210
100
AcDbSymbolTableRecord
100
AcDbLayerTableRecord
  2
NOTE
 70
0
 62
7
  6
CONTINUOUS
370
-3
390
F
  0
LAYER
  5
211
100
AcDbSymbolTableRecord
100
AcDbLayerTableRecord
  2
PIANI
 70
0
 62
7
  6
CONTINUOUS
370
-3
390
F
  0
LAYER
  5
212
100
AcDbSymbolTableRecord
100
AcDbLayerTableRecord
  2
PIANI_ORIGINE
 70
0
 62
7
  6
CONTINUOUS
370
-3
390
F
  0
LAYER
  5
213
100
AcDbSymbolTableRecord
100
AcDbLayerTableRecord
  2
PIANI_RIFERIMENTO
 70
0
 62
7
  6
CONTINUOUS
370
-3
390
F
  0
LAYER
  5
214
100
AcDbSymbolTableRecord
100
AcDbLayerTableRecord
  2
PIANI_SFORMO
 70
0
 62
7
  6
CONTINUOUS
370
-3
390
F
  0
LAYER
  5
215
100
AcDbSymbolTableRecord
100
AcDbLayerTableRecord
  2
PUNTI
 70
0
 62
7
  6
CONTINUOUS
370
-3
390
F
  0
LAYER
  5
216
100
AcDbSymbolTableRecord
100
AcDbLayerTableRecord
  2
RACCORDO
 70
0
 62
7
  6
CONTINUOUS
370
-3
390
F
  0
LAYER
  5
217
100
AcDbSymbolTableRecord
100
AcDbLayerTableRecord
  2
SIMBOLI
 70
0
 62
7
  6
CONTINUOUS
370
-3
390
F
  0
LAYER
  5
218
100
AcDbSymbolTableRecord
100
AcDbLayerTableRecord
  2
SMUSSO
 70
0
 62
7
  6
CONTINUOUS
370
-3
390
F
  0
LAYER
  5
219
100
AcDbSymbolTableRecord
100
AcDbLayerTableRecord
  2
SNAPLINE
 70
0
 62
7
  6
CONTINUOUS
370
-3
390
F
  0
LAYER
  5
21A
100
AcDbSymbolTableRecord
100
AcDbLayerTableRecord
  2
SUPERFICI
 70
0
 62
7
  6
CONTINUOUS
370
-3
390
F
  0
LAYER
  5
21B
100
AcDbSymbolTableRecord
100
AcDbLayerTableRecord
  2
TRASH
 70
0
 62
7
  6
CONTINUOUS
370
-3
390
F
  0
LAYER
  5
21C
100
AcDbSymbolTableRecord
100
AcDbLayerTableRecord
  2
XSEC_DATUMS
 70
0
 62
7
  6
CONTINUOUS
370
-3
390
F
  0
ENDTAB
  0
TABLE
  2
STYLE
  5
3
100
AcDbSymbolTable
 70
1
  0
STYLE
  5
11
100
AcDbSymbolTableRecord
100
AcDbTextStyleTableRecord
  2
STANDARD
 70
0
 40
0.0
 41
0.8
 50
0.0
 71
0
 42
0.2
  3
txt
  4

  0
STYLE
  5
21D
100
AcDbSymbolTableRecord
100
AcDbTextStyleTableRecord
  2
TEXTSTYLE_1
 70
0
 40
0.0
 41
0.8
 50
0.0
 71
0
 42
0.2
  3
gdt
  4

  0
ENDTAB
  0
TABLE
  2
VIEW
  5
6
100
AcDbSymbolTable
 70
0
  0
ENDTAB
  0
TABLE
  2
UCS
  5
7
100
AcDbSymbolTable
 70
0
  0
ENDTAB
  0
TABLE
  2
APPID
  5
9
100
AcDbSymbolTable
 70
1
  0
APPID
  5
21E
100
AcDbSymbolTableRecord
100
AcDbRegAppTableRecord
  2
ACAD
 70
0
  0
ENDTAB
  0
TABLE
  2
BLOCK_RECORD
  5
1
100
AcDbSymbolTable
 70
0
  0
BLOCK_RECORD
  5
21F
100
AcDbSymbolTableRecord
100
AcDbBlockTableRecord
  2
*Model_Space
  0
BLOCK_RECORD
  5
220
100
AcDbSymbolTableRecord
100
AcDbBlockTableRecord
  2
*Paper_Space
  0
ENDTAB
  0
TABLE
  2
DIMSTYLE
  5
A
100
AcDbSymbolTable
 70
1
100
AcDbDimStyleTable
 71
0
  0
DIMSTYLE
105
221
100
AcDbSymbolTableRecord
100
AcDbDimStyleTableRecord
  2
STANDARD
 70
0
  3

  4

 40
1.0
 41
3.0
 42
0.5
 43
0.38
 44
1.5
 45
0.0
 46
0.0
 47
0.01
 48
0.01
140
3.0
141
0.09
142
0.0
143
25.4
144
1.0
145
0.0
146
1.0
147
0.625
 71
1.0
 72
0.0
 73
0
 74
0
 75
0
 76
0
 77
1
 78
8
170
0
171
2
172
0
173
0
174
0
175
0
176
0
177
0
178
0
270
2
271
2
272
2
273
2
274
2
275
0
280
0
281
0
282
0
283
1
284
8
285
0
286
0
287
3
288
0
340
11
278
44
  0
ENDTAB
  0
ENDSEC
  0
SECTION
  2
BLOCKS
  0
BLOCK
  5
20
100
AcDbEntity
  8
0
100
AcDbBlockBegin
  2
*Model_Space
 70
0
 10
0.0
 20
0.0
 30
0.0
  3
*Model_Space
  1

  0
ENDBLK
  5
21
100
AcDbEntity
  8
0
100
AcDbBlockEnd
  0
BLOCK
  5
1C
100
AcDbEntity
  8
0
100
AcDbBlockBegin
  2
*Paper_Space
 70
0
 10
0.0
 20
0.0
 30
0.0
  3
*Paper_Space
  1

  0
ENDBLK
  5
1D
100
AcDbEntity
  8
0
100
AcDbBlockEnd
  0
ENDSEC
  0
SECTION
  2
ENTITIES
  0
LINE
  5
222
100
AcDbEntity
  8
RACCORDO
100
AcDbLine
 62
253
  6
CONTINUOUS
 10
-21.1691899341
 20
48.64136326
 11
-21.1648181001
 21
48.645735094
  0
LINE
  5
223
100
AcDbEntity
  8
RACCORDO
100
AcDbLine
 62
253
  6
CONTINUOUS
 10
-23.3546821917
 20
46.5370082262
 11
-23.3372271268
 21
46.545735094
  0
LWPOLYLINE
  5
224
100
AcDbEntity
  8
RACCORDO
100
AcDbPolyline
 62
7
  6
CONTINUOUS
 90
11
 70
0
 10
-23.542960013
 20
46.4971818157
 10
-23.5285769536
 20
46.5040639211
 10
-23.5084585473
 20
46.5126925915
 10
-23.4879512963
 20
46.520354803
 10
-23.4671010293
 20
46.5270330606
 10
-23.4459460641
 20
46.5327140707
 10
-23.4245428753
 20
46.5373817065
 10
-23.4029663481
 20
46.5410212475
 10
-23.381274743
 20
46.5436270375
 10
-23.3595086836
 20
46.5451983449
 10
-23.3377174177
 20
46.545735094
  0
LINE
  5
225
100
AcDbEntity
  8
RACCORDO
100
AcDbLine
 62
7
  6
CONTINUOUS
 10
-23.0648265617
 20
-0.354264906
 11
-21.1648181001
 21
-0.354264906
  0
LINE
  5
226
100
AcDbEntity
  8
RACCORDO
100
AcDbLine
 62
7
  6
CONTINUOUS
 10
-4.1648265617
 20
-0.354264906
 11
-2.2648181001
 21
-0.354264906
  0
LINE
  5
227
100
AcDbEntity
  8
RACCORDO
100
AcDbLine
 62
253
  6
CONTINUOUS
 10
-23.0604547277
 20
-0.349893072
 11
-21.1691899341
 21
-0.349893072
  0
LINE
  5
228
100
AcDbEntity
  8
RACCORDO
100
AcDbLine
 62
253
  6
CONTINUOUS
 10
-4.1604547277
 20
-0.349893072
 11
-2.2691899341
 21
-0.349893072
  0
LINE
  5
229
100
AcDbEntity
  8
RACCORDO
100
AcDbLine
 62
253
  6
CONTINUOUS
 10
-2.0191941649
 20
-0.0998973028
 11
-4.4104504969
 21
-0.0998973028
  0
LINE
  5
22A
100
AcDbEntity
  8
RACCORDO
100
AcDbLine
 62
253
  6
CONTINUOUS
 10
-20.9191941649
 20
-0.0998973028
 11
-23.3104504969
 21
-0.0998973028
  0
LINE
  5
22B
100
AcDbEntity
  8
RACCORDO
100
AcDbLine
 62
253
  6
CONTINUOUS
 10
-20.9191941649
 20
0.3013975267
 11
-23.3104504969
 21
0.3013975267
  0
LINE
  5
22C
100
AcDbEntity
  8
DRAFT
100
AcDbLine
 62
7
  6
CONTINUOUS
 10
-17.0648223309
 20
0.345735094
 11
-8.2648223309
 21
0.345735094
  0
LINE
  5
22D
100
AcDbEntity
  8
DRAFT
100
AcDbLine
 62
7
  6
CONTINUOUS
 10
-16.1648223309
 20
0.3515529238
 11
-9.1648223309
 21
0.3515529238
  0
LINE
  5
22E
100
AcDbEntity
  8
ASSI
100
AcDbLine
 62
253
  6
CONTINUOUS
 10
-17.021171684
 20
0.3893857408
 11
-16.1648223309
 21
0.3893857408
  0
LINE
  5
22F
100
AcDbEntity
  8
ASSI
100
AcDbLine
 62
253
  6
CONTINUOUS
 10
-9.1648223309
 20
0.3893857408
 11
-8.3084729777
 21
0.3893857408
  0
LINE
  5
230
100
AcDbEntity
  8
RACCORDO
100
AcDbLine
 62
7
  6
CONTINUOUS
 10
-4.1604547277
 20
0.445735094
 11
-2.2691899341
 21
0.445735094
  0
LINE
  5
231
100
AcDbEntity
  8
RACCORDO
100
AcDbLine
 62
253
  6
CONTINUOUS
 10
-21.1691899341
 20
0.5179038776
 11
-23.0604547277
 21
0.5179038776
  0
LINE
  5
232
100
AcDbEntity
  8
RACCORDO
100
AcDbLine
 62
7
  6
CONTINUOUS
 10
-2.264099333
 20
1.0230853631
 11
-4.1655453287
 21
1.0230853631
  0
LINE
  5
233
100
AcDbEntity
  8
RACCORDO
100
AcDbLine
 62
7
  6
CONTINUOUS
 10
-21.164099333
 20
1.0230853631
 11
-23.0655453287
 21
1.0230853631
  0
LWPOLYLINE
  5
234
100
AcDbEntity
  8
RACCORDO
100
AcDbPolyline
 62
7
  6
CONTINUOUS
 90
34
 70
0
 10
-2.2691899341
 20
0.445735094
 10
-2.2561654589
 20
0.4454815166
 10
-2.2432358867
 20
0.4448561178
 10
-2.2304352883
 20
0.4438588976
 10
-2.2177852312
 20
0.4424772323
 10
-2.2053290809
 20
0.4407237456
 10
-2.1931305674
 20
0.4386363091
 10
-2.1812299451
 20
0.4362138404
 10
-2.1696395462
 20
0.4334574219
 10
-2.1583775612
 20
0.4304081725
 10
-2.1474663886
 20
0.4270656135
 10
-2.1369262838
 20
0.4234302237
 10
-2.1267703906
 20
0.4195445577
 10
-2.117016249
 20
0.4154085695
 10
-2.107679534
 20
0.4110223053
 10
-2.0987691995
 20
0.4064284579
 10
-2.0902983566
 20
0.4016272326
 10
-2.0822786244
 20
0.3966184241
 10
-2.0747157209
 20
0.3914441107
 10
-2.0676188285
 20
0.386104628
 10
-2.0609959195
 20
0.3805996404
 10
-2.0548501755
 20
0.3749702183
 10
-2.0491872945
 20
0.3692167677
 10
-2.0440119374
 20
0.3633388828
 10
-2.0393251593
 20
0.3573764163
 10
-2.0351295344
 20
0.3513298319
 10
-2.0314266842
 20
0.3451986661
 10
-2.028215707
 20
0.339021381
 10
-2.02549634
 20
0.3327985221
 10
-2.0232673936
 20
0.326529544
 10
-2.0215260308
 20
0.3202512728
 10
-2.0202692921
 20
0.3139759839
 10
-2.0194935873
 20
0.3076914018
 10
-2.0191941649
 20
0.3013975267
  0
LWPOLYLINE
  5
235
100
AcDbEntity
  8
RACCORDO
100
AcDbPolyline
 62
7
  6
CONTINUOUS
 90
34
 70
0
 10
-23.0648265617
 20
-0.354264906
 10
-23.0767218469
 20
-0.3539817558
 10
-23.0885901864
 20
-0.3531329403
 10
-23.100404697
 20
-0.3517203802
 10
-23.1121386184
 20
-0.3497472738
 10
-23.1237653697
 20
-0.3472180878
 10
-23.1352586099
 20
-0.3441385478
 10
-23.1465923046
 20
-0.3405156274
 10
-23.1577407802
 20
-0.3363575318
 10
-23.1686787772
 20
-0.3316736782
 10
-23.1793815185
 20
-0.3264746749
 10
-23.1898247591
 20
-0.3207722977
 10
-23.1999848368
 20
-0.3145794642
 10
-23.209838736
 20
-0.3079102015
 10
-23.2193641347
 20
-0.3007796168
 10
-23.2285394499
 20
-0.2932038649
 10
-23.237343897
 20
-0.2852001065
 10
-23.2457575314
 20
-0.2767864721
 10
-23.2537612897
 20
-0.2679820251
 10
-23.2613370416
 20
-0.2588067099
 10
-23.2684676263
 20
-0.2492813112
 10
-23.275136889
 20
-0.239427412
 10
-23.2813297225
 20
-0.2292673343
 10
-23.2870320997
 20
-0.2188240936
 10
-23.2922311031
 20
-0.2081213523
 10
-23.2969149566
 20
-0.1971833553
 10
-23.3010730522
 20
-0.1860348798
 10
-23.3046959726
 20
-0.1747011851
 10
-23.3077755126
 20
-0.1632079449
 10
-23.3103046986
 20
-0.1515811935
 10
-23.312277805
 20
-0.1398472722
 10
-23.3136903651
 20
-0.1280327616
 10
-23.3145391806
 20
-0.1161644221
 10
-23.3148223309
 20
-0.1042691368
  0
LWPOLYLINE
  5
236
100
AcDbEntity
  8
RACCORDO
100
AcDbPolyline
 62
7
  6
CONTINUOUS
 90
34
 70
0
 10
-4.1648265617
 20
-0.354264906
 10
-4.1767218469
 20
-0.3539817558
 10
-4.1885901864
 20
-0.3531329403
 10
-4.200404697
 20
-0.3517203802
 10
-4.2121386184
 20
-0.3497472738
 10
-4.2237653697
 20
-0.3472180878
 10
-4.2352586099
 20
-0.3441385478
 10
-4.2465923046
 20
-0.3405156274
 10
-4.2577407802
 20
-0.3363575318
 10
-4.2686787772
 20
-0.3316736782
 10
-4.2793815185
 20
-0.3264746749
 10
-4.2898247591
 20
-0.3207722977
 10
-4.2999848368
 20
-0.3145794642
 10
-4.309838736
 20
-0.3079102015
 10
-4.3193641347
 20
-0.3007796168
 10
-4.3285394499
 20
-0.2932038649
 10
-4.337343897
 20
-0.2852001065
 10
-4.3457575314
 20
-0.2767864721
 10
-4.3537612897
 20
-0.2679820251
 10
-4.3613370416
 20
-0.2588067099
 10
-4.3684676263
 20
-0.2492813112
 10
-4.375136889
 20
-0.239427412
 10
-4.3813297225
 20
-0.2292673343
 10
-4.3870320997
 20
-0.2188240936
 10
-4.3922311031
 20
-0.2081213523
 10
-4.3969149566
 20
-0.1971833553
 10
-4.4010730522
 20
-0.1860348798
 10
-4.4046959726
 20
-0.1747011851
 10
-4.4077755126
 20
-0.1632079449
 10
-4.4103046986
 20
-0.1515811935
 10
-4.412277805
 20
-0.1398472722
 10
-4.4136903651
 20
-0.1280327616
 10
-4.4145391806
 20
-0.1161644221
 10
-4.4148223309
 20
-0.1042691368
  0
LWPOLYLINE
  5
237
100
AcDbEntity
  8
RACCORDO
100
AcDbPolyline
 62
253
  6
CONTINUOUS
 90
31
 70
0
 10
-23.0604547277
 20
-0.349893072
 10
-23.0735070676
 20
-0.3495516648
 10
-23.086531962
 20
-0.3485284022
 10
-23.0994937366
 20
-0.346824798
 10
-23.1123594554
 20
-0.3444436679
 10
-23.1250909205
 20
-0.3413905545
 10
-23.1376451051
 20
-0.3376751147
 10
-23.149984909
 20
-0.3333085636
 10
-23.1620792651
 20
-0.3283021337
 10
-23.1738953434
 20
-0.3226693851
 10
-23.1854009438
 20
-0.3164255835
 10
-23.1965642622
 20
-0.3095879017
 10
-23.2073543414
 20
-0.3021752716
 10
-23.2177414673
 20
-0.2942081294
 10
-23.2276973044
 20
-0.2857082325
 10
-23.2371946389
 20
-0.2766988106
 10
-23.246207458
 20
-0.2672045175
 10
-23.2547109995
 20
-0.2572514141
 10
-23.2626819077
 20
-0.2468668248
 10
-23.2700983146
 20
-0.2360792345
 10
-23.2769398904
 20
-0.2249182085
 10
-23.2831878695
 20
-0.2134143527
 10
-23.2888251178
 20
-0.2015992071
 10
-23.2938361733
 20
-0.1895051698
 10
-23.2982072883
 20
-0.1771654137
 10
-23.3019264779
 20
-0.1646137663
 10
-23.304983539
 20
-0.1518846524
 10
-23.3073700817
 20
-0.1390130127
 10
-23.3090795649
 20
-0.1260341553
 10
-23.3101073079
 20
-0.112983657
 10
-23.3104504969
 20
-0.0998973028
  0
LWPOLYLINE
  5
238
100
AcDbEntity
  8
RACCORDO
100
AcDbPolyline
 62
253
  6
CONTINUOUS
 90
31
 70
0
 10
-4.1604547277
 20
-0.349893072
 10
-4.1735382136
 20
-0.3495500335
 10
-4.1865858402
 20
-0.3485227436
 10
-4.1995618464
 20
-0.346814018
 10
-4.2124306672
 20
-0.3444285401
 10
-4.2251570318
 20
-0.3413728479
 10
-4.2377060595
 20
-0.3376553165
 10
-4.2500433557
 20
-0.333286135
 10
-4.2621351064
 20
-0.3282772785
 10
-4.2739481702
 20
-0.3226424753
 10
-4.2854501697
 20
-0.3163971694
 10
-4.2966095803
 20
-0.309558478
 10
-4.3073958159
 20
-0.3021451446
 10
-4.3177793135
 20
-0.2941774879
 10
-4.327731614
 20
-0.2856773456
 10
-4.3372254399
 20
-0.276668015
 10
-4.3462347704
 20
-0.2671741891
 10
-4.3547349127
 20
-0.2572218887
 10
-4.3627025695
 20
-0.246838391
 10
-4.3701159028
 20
-0.2360521554
 10
-4.3769545942
 20
-0.2248927449
 10
-4.3831999001
 20
-0.2133907454
 10
-4.3888347033
 20
-0.2015776816
 10
-4.3938435598
 20
-0.1894859309
 10
-4.3982127413
 20
-0.1771486346
 10
-4.4019302727
 20
-0.164599607
 10
-4.4049859649
 20
-0.1518732424
 10
-4.4073714428
 20
-0.1390044216
 10
-4.4090801684
 20
-0.1260284154
 10
-4.4101074583
 20
-0.1129807888
 10
-4.4104504969
 20
-0.0998973028
  0
LWPOLYLINE
  5
239
100
AcDbEntity
  8
RACCORDO
100
AcDbPolyline
 62
7
  6
CONTINUOUS
 90
11
 70
0
 10
-23.5429582005
 20
1.7942874798
 10
-23.5284885975
 20
1.7873658673
 10
-23.5083640396
 20
1.7787396941
 10
-23.4878532131
 20
1.7710813912
 10
-23.4670031703
 20
1.7644083444
 10
-23.4458700231
 20
1.7587376093
 10
-23.424493051
 20
1.754078833
 10
-23.4028942406
 20
1.750438541
 10
-23.3811131115
 20
1.747827689
 10
-23.3592075124
 20
1.7462574803
 10
-23.3372271268
 20
1.745735094
  0
LINE
  5
23A
100
AcDbEntity
  8
RACCORDO
100
AcDbLine
 62
253
  6
CONTINUOUS
 10
-23.3372271268
 20
1.745735094
 11
-23.3546821917
 21
1.7544619617
  0
LINE
  5
23B
100
AcDbEntity
  8
RACCORDO
100
AcDbLine
 62
253
  6
CONTINUOUS
 10
-21.1691899341
 20
-0.349893072
 11
-21.1648181001
 21
-0.354264906
  0
LINE
  5
23C
100
AcDbEntity
  8
RACCORDO
100
AcDbLine
 62
253
  6
CONTINUOUS
 10
-20.9191941649
 20
48.3913674907
 11
-20.9148223309
 21
48.3957393247
  0
LINE
  5
23D
100
AcDbEntity
  8
RACCORDO
100
AcDbLine
 62
7
  6
CONTINUOUS
 10
-20.7488468976
 20
45.1374433582
 11
-20.91133504
 21
45.0562054744
  0
LINE
  5
23E
100
AcDbEntity
  8
RACCORDO
100
AcDbLine
 62
7
  6
CONTINUOUS
 10
-23.3377174177
 20
1.745735094
 11
-23.3148223309
 21
1.745735094
  0
LINE
  5
23F
100
AcDbEntity
  8
RACCORDO
100
AcDbLine
 62
7
  6
CONTINUOUS
 10
-2.0148223309
 20
1.745735094
 11
-1.991927244
 21
1.745735094
  0
LINE
  5
240
100
AcDbEntity
  8
DRAFT
100
AcDbLine
 62
7
  6
CONTINUOUS
 10
-2.0148223309
 20
1.745735094
 11
-8.2648223309
 21
1.745735094
  0
LINE
  5
241
100
AcDbEntity
  8
DRAFT
100
AcDbLine
 62
7
  6
CONTINUOUS
 10
-17.0648223309
 20
1.745735094
 11
-23.3148223309
 21
1.745735094
  0
LINE
  5
242
100
AcDbEntity
  8
RACCORDO
100
AcDbLine
 62
7
  6
CONTINUOUS
 10
-23.3546821917
 20
1.7544619617
 11
-19.9235491987
 21
1.7544619617
  0
LINE
  5
243
100
AcDbEntity
  8
RACCORDO
100
AcDbLine
 62
7
  6
CONTINUOUS
 10
-5.4060954631
 20
1.7544619617
 11
-1.97496247
 21
1.7544619617
  0
LINE
  5
244
100
AcDbEntity
  8
DRAFT
100
AcDbLine
 62
7
  6
CONTINUOUS
 10
-9.1648223309
 20
1.8076958553
 11
-9.6648223309
 21
1.8076958553
  0
LINE
  5
245
100
AcDbEntity
  8
DRAFT
100
AcDbLine
 62
7
  6
CONTINUOUS
 10
-15.6648223309
 20
1.8076958553
 11
-16.1648223309
 21
1.8076958553
  0
LINE
  5
246
100
AcDbEntity
  8
RACCORDO
100
AcDbLine
 62
253
  6
CONTINUOUS
 10
-20.0021671641
 20
1.8330799272
 11
-15.6648223309
 21
1.8330799272
  0
LINE
  5
247
100
AcDbEntity
  8
RACCORDO
100
AcDbLine
 62
253
  6
CONTINUOUS
 10
-9.6648223309
 20
1.8330799272
 11
-5.3274774976
 21
1.8330799272
  0
LINE
  5
248
100
AcDbEntity
  8
0
100
AcDbLine
 62
7
  6
CONTINUOUS
 10
-9.6648223309
 20
2.445735094
 11
-15.6648223309
 21
2.445735094
  0
LINE
  5
249
100
AcDbEntity
  8
RACCORDO
100
AcDbLine
 62
253
  6
CONTINUOUS
 10
-20.24892305
 20
2.8330418502
 11
-15.6648223309
 21
2.8330418502
  0
LINE
  5
24A
100
AcDbEntity
  8
RACCORDO
100
AcDbLine
 62
253
  6
CONTINUOUS
 10
-9.6648223309
 20
2.8330418502
 11
-5.0807216117
 21
2.8330418502
  0
LINE
  5
24B
100
AcDbEntity
  8
RACCORDO
100
AcDbLine
 62
7
  6
CONTINUOUS
 10
-20.7488468976
 20
3.1540268297
 11
-20.91133504
 21
3.2352647135
  0
LINE
  5
24C
100
AcDbEntity
  8
RACCORDO
100
AcDbLine
 62
253
  6
CONTINUOUS
 10
-20.9191941649
 20
-0.0998973028
 11
-20.9148223309
 21
-0.1042691368
  0
LINE
  5
24D
100
AcDbEntity
  8
0
100
AcDbLine
 62
7
  6
CONTINUOUS
 10
-21.4648223309
 20
44.995735094
 11
-23.2291251114
 21
43.2314323135
  0
LINE
  5
24E
100
AcDbEntity
  8
RACCORDO
100
AcDbLine
 62
7
  6
CONTINUOUS
 10
-21.4648223309
 20
44.995735094
 11
-23.2291251114
 21
43.2314323135
  0
LINE
  5
24F
100
AcDbEntity
  8
RACCORDO
100
AcDbLine
 62
7
  6
CONTINUOUS
 10
-20.9148223309
 20
45.545735094
 11
-19.9235491987
 21
46.5370082262
  0
LINE
  5
250
100
AcDbEntity
  8
0
100
AcDbLine
 62
7
  6
CONTINUOUS
 10
-21.292026004
 20
44.995735094
 11
-23.1069396569
 21
43.1808214411
  0
LINE
  5
251
100
AcDbEntity
  8
RACCORDO
100
AcDbLine
 62
7
  6
CONTINUOUS
 10
-21.292026004
 20
44.995735094
 11
-23.1069396569
 21
43.1808214411
  0
LINE
  5
252
100
AcDbEntity
  8
RACCORDO
100
AcDbLine
 62
7
  6
CONTINUOUS
 10
-23.3850305662
 20
41.4440393408
 11
-22.7631265777
 21
42.0659433293
  0
LINE
  5
253
100
AcDbEntity
  8
ASSI
100
AcDbLine
 62
7
  6
CONTINUOUS
 10
-23.3850305662
 20
41.4440393408
 11
-22.7631265777
 21
42.0659433293
  0
LINE
  5
254
100
AcDbEntity
  8
0
100
AcDbLine
 62
7
  6
CONTINUOUS
 10
-20.1014779672
 20
42.4119045616
 11
-20.1189330321
 21
42.4031776938
  0
LINE
  5
255
100
AcDbEntity
  8
DRAFT
100
AcDbLine
 62
7
  6
CONTINUOUS
 10
-20.1014779672
 20
42.4119045616
 11
-20.1189330321
 21
42.4031776938
  0
LWPOLYLINE
  5
256
100
AcDbEntity
  8
0
100
AcDbPolyline
 62
7
  6
CONTINUOUS
 90
12
 70
0
 10
-14.2892187923
 20
4.2611062775
 10
-14.4070906204
 20
4.2607258034
 10
-14.5199620502
 20
4.2601069921
 10
-14.6293178327
 20
4.2592350275
 10
-14.7336732168
 20
4.2581247257
 10
-14.8285739491
 20
4.2568205349
 10
-14.9136420335
 20
4.2553105128
 10
-14.989255466
 20
4.2536066018
 10
-15.052093982
 20
4.2517890769
 10
-15.1010508266
 20
4.2498846965
 10
-15.1372327548
 20
4.2478667022
 10
-15.1606397664
 20
4.245735094
  0
LINE
  5
257
100
AcDbEntity
  8
0
100
AcDbLine
 62
7
  6
CONTINUOUS
 10
-15.6648223309
 20
3.145735094
 11
-9.6648223309
 21
3.145735094
  0
LINE
  5
258
100
AcDbEntity
  8
RACCORDO
100
AcDbLine
 62
7
  6
CONTINUOUS
 10
-20.24892305
 20
3.1497395483
 11
-19.9066440328
 21
3.1497395483
  0
LINE
  5
259
100
AcDbEntity
  8
RACCORDO
100
AcDbLine
 62
7
  6
CONTINUOUS
 10
-5.423000629
 20
3.1497395483
 11
-5.0807216117
 21
3.1497395483
  0
LINE
  5
25A
100
AcDbEntity
  8
DRAFT
100
AcDbLine
 62
7
  6
CONTINUOUS
 10
-20.91133504
 20
3.2352647135
 11
-19.9636600055
 21
3.2352647135
  0
LINE
  5
25B
100
AcDbEntity
  8
DRAFT
100
AcDbLine
 62
7
  6
CONTINUOUS
 10
-5.3659846562
 20
3.2352647135
 11
-4.4183096217
 21
3.2352647135
  0
LINE
  5
25C
100
AcDbEntity
  8
DRAFT
100
AcDbLine
 62
7
  6
CONTINUOUS
 10
-22.3148223309
 20
3.245735094
 11
-20.9148223309
 21
3.245735094
  0
LINE
  5
25D
100
AcDbEntity
  8
DRAFT
100
AcDbLine
 62
7
  6
CONTINUOUS
 10
-4.4148223309
 20
3.245735094
 11
-3.0148223309
 21
3.245735094
  0
LINE
  5
25E
100
AcDbEntity
  8
0
100
AcDbLine
 62
7
  6
CONTINUOUS
 10
-21.4648223309
 20
3.295735094
 11
-20.0648223309
 21
3.295735094
  0
LINE
  5
25F
100
AcDbEntity
  8
DRAFT
100
AcDbLine
 62
7
  6
CONTINUOUS
 10
-21.4648223309
 20
3.295735094
 11
-20.0648223309
 21
3.295735094
  0
LINE
  5
260
100
AcDbEntity
  8
0
100
AcDbLine
 62
7
  6
CONTINUOUS
 10
-3.8648223309
 20
3.295735094
 11
-5.2648223309
 21
3.295735094
  0
LINE
  5
261
100
AcDbEntity
  8
DRAFT
100
AcDbLine
 62
7
  6
CONTINUOUS
 10
-3.8648223309
 20
3.295735094
 11
-5.2648223309
 21
3.295735094
  0
LINE
  5
262
100
AcDbEntity
  8
DRAFT
100
AcDbLine
 62
7
  6
CONTINUOUS
 10
-22.2886397335
 20
3.3243467629
 11
-21.4934339998
 21
3.3243467629
  0
LINE
  5
263
100
AcDbEntity
  8
DRAFT
100
AcDbLine
 62
7
  6
CONTINUOUS
 10
-20.0648223309
 20
3.3243467629
 11
-19.9735490756
 21
3.3243467629
  0
LINE
  5
264
100
AcDbEntity
  8
DRAFT
100
AcDbLine
 62
7
  6
CONTINUOUS
 10
-5.3560955862
 20
3.3243467629
 11
-5.2648223309
 21
3.3243467629
  0
LINE
  5
265
100
AcDbEntity
  8
DRAFT
100
AcDbLine
 62
7
  6
CONTINUOUS
 10
-3.8362106619
 20
3.3243467629
 11
-3.0410049283
 21
3.3243467629
  0
LINE
  5
266
100
AcDbEntity
  8
RACCORDO
100
AcDbLine
 62
253
  6
CONTINUOUS
 10
-6.3066440328
 20
3.5628108107
 11
-19.023000629
 21
3.5628108107
  0
LINE
  5
267
100
AcDbEntity
  8
RACCORDO
100
AcDbLine
 62
253
  6
CONTINUOUS
 10
-6.3095275629
 20
4.0627917723
 11
-19.0201170988
 21
4.0627917723
  0
LINE
  5
268
100
AcDbEntity
  8
DRAFT
100
AcDbLine
 62
7
  6
CONTINUOUS
 10
-10.1648223309
 20
4.0925012004
 11
-10.2235112077
 21
4.0925012004
  0
LINE
  5
269
100
AcDbEntity
  8
DRAFT
100
AcDbLine
 62
7
  6
CONTINUOUS
 10
-15.106133454
 20
4.0925012004
 11
-15.1648223309
 21
4.0925012004
  0
LINE
  5
26A
100
AcDbEntity
  8
DRAFT
100
AcDbLine
 62
7
  6
CONTINUOUS
 10
-16.1648223309
 20
4.145735094
 11
-15.164174512
 21
4.145735094
  0
LINE
  5
26B
100
AcDbEntity
  8
DRAFT
100
AcDbLine
 62
7
  6
CONTINUOUS
 10
-10.1654701498
 20
4.145735094
 11
-9.1648223309
 21
4.145735094
  0
LINE
  5
26C
100
AcDbEntity
  8
DRAFT
100
AcDbLine
 62
7
  6
CONTINUOUS
 10
-18.9560955862
 20
4.1588253956
 11
-15.1641508463
 21
4.1588253956
  0
LINE
  5
26D
100
AcDbEntity
  8
DRAFT
100
AcDbLine
 62
7
  6
CONTINUOUS
 10
-10.1654938155
 20
4.1588253956
 11
-6.3735490756
 21
4.1588253956
  0
LINE
  5
26E
100
AcDbEntity
  8
RACCORDO
100
AcDbLine
 62
253
  6
CONTINUOUS
 10
-5.423000629
 20
4.1887169771
 11
-6.3066440328
 21
4.1887169771
  0
LINE
  5
26F
100
AcDbEntity
  8
RACCORDO
100
AcDbLine
 62
253
  6
CONTINUOUS
 10
-19.023000629
 20
4.1887169771
 11
-19.9066440328
 21
4.1887169771
  0
LINE
  5
270
100
AcDbEntity
  8
0
100
AcDbLine
 62
7
  6
CONTINUOUS
 10
-9.1648223309
 20
4.245735094
 11
-10.1703440506
 21
4.245735094
  0
LINE
  5
271
100
AcDbEntity
  8
0
100
AcDbLine
 62
7
  6
CONTINUOUS
 10
-15.1593006111
 20
4.245735094
 11
-16.1648223309
 21
4.245735094
  0
LINE
  5
272
100
AcDbEntity
  8
0
100
AcDbLine
 62
7
  6
CONTINUOUS
 10
-11.163298096
 20
4.2612484143
 11
-14.2892187923
 21
4.2611062775
  0
LINE
  5
273
100
AcDbEntity
  8
0
100
AcDbLine
 62
7
  6
CONTINUOUS
 10
-9.2014779672
 20
4.2823907303
 11
-16.1281666945
 21
4.2823907303
  0
LINE
  5
274
100
AcDbEntity
  8
DRAFT
100
AcDbLine
 62
7
  6
CONTINUOUS
 10
-9.2014779672
 20
4.2823907303
 11
-16.1281666945
 21
4.2823907303
  0
LINE
  5
275
100
AcDbEntity
  8
RACCORDO
100
AcDbLine
 62
253
  6
CONTINUOUS
 10
-5.4218438323
 20
4.3887135925
 11
-6.3078008294
 21
4.3887135925
  0
LINE
  5
276
100
AcDbEntity
  8
RACCORDO
100
AcDbLine
 62
253
  6
CONTINUOUS
 10
-19.0218438323
 20
4.3887135925
 11
-19.9078008294
 21
4.3887135925
  0
LINE
  5
277
100
AcDbEntity
  8
0
100
AcDbLine
 62
7
  6
CONTINUOUS
 10
-20.0648223309
 20
4.445735094
 11
-16.1648223309
 21
4.445735094
  0
LINE
  5
278
100
AcDbEntity
  8
DRAFT
100
AcDbLine
 62
7
  6
CONTINUOUS
 10
-20.0648223309
 20
4.445735094
 11
-16.1648223309
 21
4.445735094
  0
LINE
  5
279
100
AcDbEntity
  8
0
100
AcDbLine
 62
7
  6
CONTINUOUS
 10
-9.1648223309
 20
4.445735094
 11
-5.2648223309
 21
4.445735094
  0
LINE
  5
27A
100
AcDbEntity
  8
DRAFT
100
AcDbLine
 62
7
  6
CONTINUOUS
 10
-9.1648223309
 20
4.445735094
 11
-5.2648223309
 21
4.445735094
  0
LINE
  5
27B
100
AcDbEntity
  8
0
100
AcDbLine
 62
7
  6
CONTINUOUS
 10
-20.1014779672
 20
4.4823907303
 11
-16.1281666945
 21
4.4823907303
  0
LINE
  5
27C
100
AcDbEntity
  8
DRAFT
100
AcDbLine
 62
7
  6
CONTINUOUS
 10
-20.1014779672
 20
4.4823907303
 11
-16.1281666945
 21
4.4823907303
  0
LINE
  5
27D
100
AcDbEntity
  8
0
100
AcDbLine
 62
7
  6
CONTINUOUS
 10
-9.2014779672
 20
4.4823907303
 11
-5.2281666945
 21
4.4823907303
  0
LINE
  5
27E
100
AcDbEntity
  8
DRAFT
100
AcDbLine
 62
7
  6
CONTINUOUS
 10
-9.2014779672
 20
4.4823907303
 11
-5.2281666945
 21
4.4823907303
  0
LINE
  5
27F
100
AcDbEntity
  8
RACCORDO
100
AcDbLine
 62
7
  6
CONTINUOUS
 10
-16.3779240556
 20
4.5326447923
 11
-3.2735979408
 21
4.5326447923
  0
LINE
  5
280
100
AcDbEntity
  8
ASSI
100
AcDbLine
 62
7
  6
CONTINUOUS
 10
-16.3779240556
 20
4.5326447923
 11
-3.2735979408
 21
4.5326447923
  0
LWPOLYLINE
  5
281
100
AcDbEntity
  8
0
100
AcDbPolyline
 62
7
  6
CONTINUOUS
 90
13
 70
0
 10
-11.163298096
 20
4.2612484143
 10
-11.0404258695
 20
4.2611062775
 10
-10.9225540413
 20
4.2607258034
 10
-10.8096826116
 20
4.2601069921
 10
-10.700326829
 20
4.2592350275
 10
-10.5959714449
 20
4.2581247257
 10
-10.5010707126
 20
4.2568205349
 10
-10.4160026283
 20
4.2553105128
 10
-10.3403891958
 20
4.2536066018
 10
-10.2775506797
 20
4.2517890769
 10
-10.2285938351
 20
4.2498846965
 10
-10.192411907
 20
4.2478667022
 10
-10.1690048954
 20
4.245735094
  0
LINE
  5
282
100
AcDbEntity
  8
0
100
AcDbLine
 62
7
  6
CONTINUOUS
 10
-23.2291251114
 20
5.0600378744
 11
-21.4648223309
 21
3.295735094
  0
LINE
  5
283
100
AcDbEntity
  8
RACCORDO
100
AcDbLine
 62
7
  6
CONTINUOUS
 10
-23.2291251114
 20
5.0600378744
 11
-21.4648223309
 21
3.295735094
  0
LINE
  5
284
100
AcDbEntity
  8
RACCORDO
100
AcDbLine
 62
7
  6
CONTINUOUS
 10
-19.9235491987
 20
1.7544619617
 11
-20.9148223309
 21
2.745735094
  0
LINE
  5
285
100
AcDbEntity
  8
0
100
AcDbLine
 62
7
  6
CONTINUOUS
 10
-23.1069396569
 20
5.1106487468
 11
-21.292026004
 21
3.295735094
  0
LINE
  5
286
100
AcDbEntity
  8
RACCORDO
100
AcDbLine
 62
7
  6
CONTINUOUS
 10
-23.1069396569
 20
5.1106487468
 11
-21.292026004
 21
3.295735094
  0
LINE
  5
287
100
AcDbEntity
  8
RACCORDO
100
AcDbLine
 62
7
  6
CONTINUOUS
 10
-23.3850305662
 20
6.8474308471
 11
-22.7631265777
 21
6.2255268586
  0
LINE
  5
288
100
AcDbEntity
  8
ASSI
100
AcDbLine
 62
7
  6
CONTINUOUS
 10
-23.3850305662
 20
6.8474308471
 11
-22.7631265777
 21
6.2255268586
  0
LINE
  5
289
100
AcDbEntity
  8
ASSI
100
AcDbLine
 62
7
  6
CONTINUOUS
 10
-16.2589729002
 20
47.768842205
 11
-16.2855068008
 21
47.7384926876
  0
LINE
  5
28A
100
AcDbEntity
  8
ASSI
100
AcDbLine
 62
7
  6
CONTINUOUS
 10
-16.2855068008
 20
47.7384926876
 11
-16.3158769957
 21
47.7042900764
  0
LINE
  5
28B
100
AcDbEntity
  8
ASSI
100
AcDbLine
 62
7
  6
CONTINUOUS
 10
-16.3158769957
 20
47.7042900764
 11
-16.3501026449
 21
47.6662278163
  0
LINE
  5
28C
100
AcDbEntity
  8
ASSI
100
AcDbLine
 62
7
  6
CONTINUOUS
 10
-16.3501026449
 20
47.6662278163
 11
-16.4085538402
 21
47.6019616209
  0
LINE
  5
28D
100
AcDbEntity
  8
ASSI
100
AcDbLine
 62
7
  6
CONTINUOUS
 10
-16.4085538402
 20
47.6019616209
 11
-16.5927923185
 21
47.4020929087
  0
LINE
  5
28E
100
AcDbEntity
  8
0
100
AcDbLine
 62
7
  6
CONTINUOUS
 10
-20.0648223309
 20
43.845735094
 11
-20.1014779672
 21
43.8090794576
  0
LINE
  5
28F
100
AcDbEntity
  8
DRAFT
100
AcDbLine
 62
7
  6
CONTINUOUS
 10
-20.0648223309
 20
43.845735094
 11
-20.1014779672
 21
43.8090794576
  0
LINE
  5
290
100
AcDbEntity
  8
RACCORDO
100
AcDbLine
 62
7
  6
CONTINUOUS
 10
-19.9078008294
 20
43.9027565954
 11
-19.9648223309
 21
43.845735094
  0
LINE
  5
291
100
AcDbEntity
  8
ASSI
100
AcDbLine
 62
7
  6
CONTINUOUS
 10
-16.6779126326
 20
5.545735094
 11
-21.6648223309
 21
5.545735094
  0
LINE
  5
292
100
AcDbEntity
  8
0
100
AcDbLine
 62
7
  6
CONTINUOUS
 10
-10.1648223309
 20
5.845735094
 11
-15.1648223309
 21
5.845735094
  0
LINE
  5
293
100
AcDbEntity
  8
ASSI
100
AcDbLine
 62
7
  6
CONTINUOUS
 10
-10.1648223309
 20
5.845735094
 11
-15.1648223309
 21
5.845735094
  0
LINE
  5
294
100
AcDbEntity
  8
RACCORDO
100
AcDbLine
 62
7
  6
CONTINUOUS
 10
-22.056046721
 20
5.9326447923
 11
-16.6779126326
 21
5.9326447923
  0
LINE
  5
295
100
AcDbEntity
  8
ASSI
100
AcDbLine
 62
7
  6
CONTINUOUS
 10
-22.056046721
 20
5.9326447923
 11
-16.6779126326
 21
5.9326447923
  0
LINE
  5
296
100
AcDbEntity
  8
ASSI
100
AcDbLine
 62
7
  6
CONTINUOUS
 10
-15.1648223309
 20
5.945735094
 11
-10.1648223309
 21
5.945735094
  0
LINE
  5
297
100
AcDbEntity
  8
0
100
AcDbLine
 62
7
  6
CONTINUOUS
 10
-20.0648223309
 20
4.445735094
 11
-20.1014779672
 21
4.4823907303
  0
LINE
  5
298
100
AcDbEntity
  8
DRAFT
100
AcDbLine
 62
7
  6
CONTINUOUS
 10
-20.0648223309
 20
4.445735094
 11
-20.1014779672
 21
4.4823907303
  0
LINE
  5
299
100
AcDbEntity
  8
RACCORDO
100
AcDbLine
 62
7
  6
CONTINUOUS
 10
-19.9078008294
 20
4.3887135925
 11
-19.9648223309
 21
4.445735094
  0
LINE
  5
29A
100
AcDbEntity
  8
ASSI
100
AcDbLine
 62
7
  6
CONTINUOUS
 10
-16.5927923185
 20
0.8893772792
 11
-16.4974036972
 21
0.7862081924
  0
LINE
  5
29B
100
AcDbEntity
  8
ASSI
100
AcDbLine
 62
7
  6
CONTINUOUS
 10
-16.4974036972
 20
0.7862081924
 11
-16.4084505776
 21
0.6893950506
  0
LINE
  5
29C
100
AcDbEntity
  8
ASSI
100
AcDbLine
 62
7
  6
CONTINUOUS
 10
-16.4084505776
 20
0.6893950506
 11
-16.3499530091
 21
0.62507701
  0
LINE
  5
29D
100
AcDbEntity
  8
ASSI
100
AcDbLine
 62
7
  6
CONTINUOUS
 10
-16.3499530091
 20
0.62507701
 11
-16.3156839127
 21
0.5869645105
  0
LINE
  5
29E
100
AcDbEntity
  8
ASSI
100
AcDbLine
 62
7
  6
CONTINUOUS
 10
-16.3156839127
 20
0.5869645105
 11
-16.285280032
 21
0.5527202527
  0
LWPOLYLINE
  5
29F
100
AcDbEntity
  8
ASSI
100
AcDbPolyline
 62
7
  6
CONTINUOUS
 90
18
 70
0
 10
-16.285280032
 20
0.5527202527
 10
-16.2587333766
 20
0.5223517344
 10
-16.2468369674
 20
0.508530658
 10
-16.2358346611
 20
0.4955953135
 10
-16.2257140781
 20
0.4835443504
 10
-16.2164282585
 20
0.4723004963
 10
-16.2079739471
 20
0.4618657048
 10
-16.2003329033
 20
0.4522380222
 10
-16.1934525981
 20
0.4433343151
 10
-16.1873179726
 20
0.4351342993
 10
-16.181940309
 20
0.427658259
 10
-16.1773157448
 20
0.4208839125
 10
-16.1734349514
 20
0.4148162783
 10
-16.1702895994
 20
0.4094503379
 10
-16.1678713798
 20
0.404748754
 10
-16.1661657507
 20
0.4006990807
 10
-16.1651551778
 20
0.3973137639
 10
-16.1648223309
 20
0.3945928036
  0
LINE
  5
2A0
100
AcDbEntity
  8
DRAFT
100
AcDbLine
 62
7
  6
CONTINUOUS
 10
-19.9066440328
 20
45.1417306397
 11
-19.9636600055
 21
45.0562054744
  0
LWPOLYLINE
  5
2A1
100
AcDbEntity
  8
0
100
AcDbPolyline
 62
253
  6
CONTINUOUS
 90
3
 70
0
 10
-14.4675742675
 20
6.8478335502
 10
-14.4169647962
 20
6.859979168
 10
-14.3648223309
 20
6.8640632513
  0
LWPOLYLINE
  5
2A2
100
AcDbEntity
  8
RACCORDO
100
AcDbPolyline
 62
253
  6
CONTINUOUS
 90
3
 70
0
 10
-14.4675742675
 20
6.8478335502
 10
-14.4169647962
 20
6.859979168
 10
-14.3648223309
 20
6.8640632513
  0
LINE
  5
2A3
100
AcDbEntity
  8
ASSI
100
AcDbLine
 62
7
  6
CONTINUOUS
 10
-15.1648223309
 20
6.645735094
 11
-10.1648223309
 21
6.645735094
  0
LINE
  5
2A4
100
AcDbEntity
  8
RACCORDO
100
AcDbLine
 62
7
  6
CONTINUOUS
 10
-10.9822444437
 20
6.845735094
 11
-14.3474002181
 21
6.845735094
  0
LINE
  5
2A5
100
AcDbEntity
  8
ASSI
100
AcDbLine
 62
7
  6
CONTINUOUS
 10
-10.9822444437
 20
6.845735094
 11
-14.3474002181
 21
6.845735094
  0
LINE
  5
2A6
100
AcDbEntity
  8
0
100
AcDbLine
 62
253
  6
CONTINUOUS
 10
-14.3648223309
 20
6.8640632513
 11
-10.9648223309
 21
6.8640632513
  0
LINE
  5
2A7
100
AcDbEntity
  8
RACCORDO
100
AcDbLine
 62
253
  6
CONTINUOUS
 10
-14.3648223309
 20
6.8640632513
 11
-10.9648223309
 21
6.8640632513
  0
LINE
  5
2A8
100
AcDbEntity
  8
0
100
AcDbLine
 62
7
  6
CONTINUOUS
 10
-14.3648223309
 20
6.895735094
 11
-10.9648223309
 21
6.895735094
  0
LINE
  5
2A9
100
AcDbEntity
  8
RACCORDO
100
AcDbLine
 62
7
  6
CONTINUOUS
 10
-14.3648223309
 20
6.895735094
 11
-10.9648223309
 21
6.895735094
  0
LINE
  5
2AA
100
AcDbEntity
  8
0
100
AcDbLine
 62
7
  6
CONTINUOUS
 10
-10.1648223309
 20
7.095735094
 11
-15.1648223309
 21
7.095735094
  0
LINE
  5
2AB
100
AcDbEntity
  8
CURVE
100
AcDbLine
 62
253
  6
CONTINUOUS
 10
-23.6978912077
 20
7.145735094
 11
-23.7205793361
 21
7.145735094
  0
LINE
  5
2AC
100
AcDbEntity
  8
0
100
AcDbLine
 62
7
  6
CONTINUOUS
 10
-15.1648223309
 20
7.545735094
 11
-10.1648223309
 21
7.545735094
  0
LINE
  5
2AD
100
AcDbEntity
  8
ASSI
100
AcDbLine
 62
7
  6
CONTINUOUS
 10
-15.1648223309
 20
7.545735094
 11
-10.1648223309
 21
7.545735094
  0
LINE
  5
2AE
100
AcDbEntity
  8
CURVE
100
AcDbLine
 62
253
  6
CONTINUOUS
 10
-23.7173381751
 20
7.795735094
 11
-23.7108558531
 21
7.795735094
  0
LINE
  5
2AF
100
AcDbEntity
  8
CURVE
100
AcDbLine
 62
253
  6
CONTINUOUS
 10
-23.7011323691
 20
8.1671636432
 11
-23.7173381751
 21
8.1671636432
  0
LINE
  5
2B0
100
AcDbEntity
  8
0
100
AcDbLine
 62
253
  6
CONTINUOUS
 10
-10.9648223309
 20
6.8640632513
 11
-10.9127278776
 21
6.8599867436
  0
LINE
  5
2B1
100
AcDbEntity
  8
RACCORDO
100
AcDbLine
 62
253
  6
CONTINUOUS
 10
-10.9648223309
 20
6.8640632513
 11
-10.9127278776
 21
6.8599867436
  0
LINE
  5
2B2
100
AcDbEntity
  8
0
100
AcDbLine
 62
253
  6
CONTINUOUS
 10
-10.9127278776
 20
6.8599867436
 11
-10.8622162879
 21
6.8478810833
  0
LINE
  5
2B3
100
AcDbEntity
  8
RACCORDO
100
AcDbLine
 62
253
  6
CONTINUOUS
 10
-10.9127278776
 20
6.8599867436
 11
-10.8622162879
 21
6.8478810833
  0
LINE
  5
2B4
100
AcDbEntity
  8
DRAFT
100
AcDbLine
 62
7
  6
CONTINUOUS
 10
-19.9066440328
 20
3.1497395483
 11
-19.9636600055
 21
3.2352647135
  0
LINE
  5
2B5
100
AcDbEntity
  8
DRAFT
100
AcDbLine
 62
7
  6
CONTINUOUS
 10
-20.91133504
 20
45.0562054744
 11
-20.9148223309
 21
45.045735094
  0
LINE
  5
2B6
100
AcDbEntity
  8
CURVE
100
AcDbLine
 62
253
  6
CONTINUOUS
 10
-23.7108558531
 20
8.8171636432
 11
-23.6978912077
 21
8.8171636432
  0
LINE
  5
2B7
100
AcDbEntity
  8
CURVE
100
AcDbLine
 62
253
  6
CONTINUOUS
 10
-23.6978912077
 20
9.1885921925
 11
-23.7205793361
 21
9.1885921925
  0
LINE
  5
2B8
100
AcDbEntity
  8
CURVE
100
AcDbLine
 62
253
  6
CONTINUOUS
 10
-23.7173381751
 20
9.745735094
 11
-23.7124764329
 21
9.745735094
  0
LINE
  5
2B9
100
AcDbEntity
  8
CURVE
100
AcDbLine
 62
253
  6
CONTINUOUS
 10
-23.7887609644
 20
9.754800094
 11
-23.738159713
 21
9.754800094
  0
LINE
  5
2BA
100
AcDbEntity
  8
CURVE
100
AcDbLine
 62
253
  6
CONTINUOUS
 10
-23.7059941109
 20
9.8385921925
 11
-23.7011323691
 21
9.8385921925
  0
LWPOLYLINE
  5
2BB
100
AcDbEntity
  8
0
100
AcDbPolyline
 62
253
  6
CONTINUOUS
 90
3
 70
0
 10
-10.8622162879
 20
6.8478810833
 10
-10.8148223309
 20
6.8281140947
 10
-10.771986048
 20
6.8012863878
  0
LWPOLYLINE
  5
2BC
100
AcDbEntity
  8
RACCORDO
100
AcDbPolyline
 62
253
  6
CONTINUOUS
 90
3
 70
0
 10
-10.8622162879
 20
6.8478810833
 10
-10.8148223309
 20
6.8281140947
 10
-10.771986048
 20
6.8012863878
  0
LINE
  5
2BD
100
AcDbEntity
  8
DRAFT
100
AcDbLine
 62
7
  6
CONTINUOUS
 10
-20.91133504
 20
3.2352647135
 11
-20.9148223309
 21
3.245735094
  0
LWPOLYLINE
  5
2BE
100
AcDbEntity
  8
RACCORDO
100
AcDbPolyline
 62
253
  6
CONTINUOUS
 90
4
 70
0
 10
-23.3233582853
 20
35.995735094
 10
-23.3218388017
 20
36.0010855401
 10
-23.3203437649
 20
36.0170751493
 10
-23.318873175
 20
36.0435722338
  0
LWPOLYLINE
  5
2BF
100
AcDbEntity
  8
ASSI
100
AcDbPolyline
 62
253
  6
CONTINUOUS
 90
4
 70
0
 10
-23.3233582853
 20
35.995735094
 10
-23.3218388017
 20
36.0010855401
 10
-23.3203437649
 20
36.0170751493
 10
-23.318873175
 20
36.0435722338
  0
LINE
  5
2C0
100
AcDbEntity
  8
ASSI
100
AcDbLine
 62
7
  6
CONTINUOUS
 10
-8.4166742296
 20
47.7531743719
 11
-8.4451229456
 21
47.7209111297
  0
LINE
  5
2C1
100
AcDbEntity
  8
ASSI
100
AcDbLine
 62
7
  6
CONTINUOUS
 10
-8.4451229456
 20
47.7209111297
 11
-8.4773886537
 21
47.6848369653
  0
LINE
  5
2C2
100
AcDbEntity
  8
ASSI
100
AcDbLine
 62
7
  6
CONTINUOUS
 10
-8.4773886537
 20
47.6848369653
 11
-8.5134596487
 21
47.6449146075
  0
LINE
  5
2C3
100
AcDbEntity
  8
ASSI
100
AcDbLine
 62
7
  6
CONTINUOUS
 10
-8.5134596487
 20
47.6449146075
 11
-8.5744868263
 21
47.5780506741
  0
LWPOLYLINE
  5
2C4
100
AcDbEntity
  8
ASSI
100
AcDbPolyline
 62
7
  6
CONTINUOUS
 90
3
 70
0
 10
-8.5744868263
 20
47.5780506741
 10
-8.6653072433
 20
47.479464191
 10
-8.7368523432
 20
47.4020929087
  0
LINE
  5
2C5
100
AcDbEntity
  8
ASSI
100
AcDbLine
 62
7
  6
CONTINUOUS
 10
-8.2648223309
 20
47.945735094
 11
-8.3084729777
 21
47.9020844471
  0
LWPOLYLINE
  5
2C6
100
AcDbEntity
  8
0
100
AcDbPolyline
 62
253
  6
CONTINUOUS
 90
4
 70
0
 10
-10.7715001402
 20
41.4905492649
 10
-10.8145456742
 20
41.4634991339
 10
-10.8620703943
 20
41.4436366377
 10
-10.9126798656
 20
41.4314910199
  0
LWPOLYLINE
  5
2C7
100
AcDbEntity
  8
RACCORDO
100
AcDbPolyline
 62
253
  6
CONTINUOUS
 90
4
 70
0
 10
-10.7715001402
 20
41.4905492649
 10
-10.8145456742
 20
41.4634991339
 10
-10.8620703943
 20
41.4436366377
 10
-10.9126798656
 20
41.4314910199
  0
LINE
  5
2C8
100
AcDbEntity
  8
0
100
AcDbLine
 62
253
  6
CONTINUOUS
 10
-2.1005195504
 20
43.2314323135
 11
-2.2227050049
 21
43.1808214411
  0
LINE
  5
2C9
100
AcDbEntity
  8
RACCORDO
100
AcDbLine
 62
253
  6
CONTINUOUS
 10
-2.1005195504
 20
43.2314323135
 11
-2.2227050049
 21
43.1808214411
  0
LINE
  5
2CA
100
AcDbEntity
  8
CURVE
100
AcDbLine
 62
253
  6
CONTINUOUS
 10
-23.738159713
 20
10.360071094
 11
-23.7887609644
 21
10.360071094
  0
LINE
  5
2CB
100
AcDbEntity
  8
CURVE
100
AcDbLine
 62
253
  6
CONTINUOUS
 10
-23.6978912077
 20
11.2314492911
 11
-23.7205793361
 21
11.2314492911
  0
LINE
  5
2CC
100
AcDbEntity
  8
0
100
AcDbLine
 62
253
  6
CONTINUOUS
 10
-2.2227050049
 20
5.1106487468
 11
-2.1005195504
 21
5.0600378744
  0
LINE
  5
2CD
100
AcDbEntity
  8
RACCORDO
100
AcDbLine
 62
253
  6
CONTINUOUS
 10
-2.2227050049
 20
5.1106487468
 11
-2.1005195504
 21
5.0600378744
  0
LINE
  5
2CE
100
AcDbEntity
  8
ASSI
100
AcDbLine
 62
7
  6
CONTINUOUS
 10
-8.2648223309
 20
0.345735094
 11
-8.3084729777
 21
0.3893857408
  0
LINE
  5
2CF
100
AcDbEntity
  8
ASSI
100
AcDbLine
 62
7
  6
CONTINUOUS
 10
-8.7368523432
 20
0.8893772792
 11
-8.6417789106
 21
0.7865493934
  0
LINE
  5
2D0
100
AcDbEntity
  8
ASSI
100
AcDbLine
 62
7
  6
CONTINUOUS
 10
-8.6417789106
 20
0.7865493934
 11
-8.5531556165
 21
0.6901000807
  0
LINE
  5
2D1
100
AcDbEntity
  8
ASSI
100
AcDbLine
 62
7
  6
CONTINUOUS
 10
-8.5531556165
 20
0.6901000807
 11
-8.4948131274
 21
0.6259620521
  0
LINE
  5
2D2
100
AcDbEntity
  8
ASSI
100
AcDbLine
 62
7
  6
CONTINUOUS
 10
-8.4948131274
 20
0.6259620521
 11
-8.4605930009
 21
0.5879143526
  0
LWPOLYLINE
  5
2D3
100
AcDbEntity
  8
ASSI
100
AcDbPolyline
 62
7
  6
CONTINUOUS
 90
20
 70
0
 10
-8.4605930009
 20
0.5879143526
 10
-8.4302008321
 20
0.5536965482
 10
-8.4164473918
 20
0.5380365446
 10
-8.4036379798
 20
0.5233270947
 10
-8.3917245436
 20
0.5094969047
 10
-8.3806991408
 20
0.4965469338
 10
-8.3705503829
 20
0.4844762227
 10
-8.3612339811
 20
0.4732106001
 10
-8.3527470952
 20
0.4627535518
 10
-8.3450700569
 20
0.4531015919
 10
-8.3381495163
 20
0.4441700921
 10
-8.3319702054
 20
0.4359389677
 10
-8.3265425125
 20
0.4284283033
 10
-8.3218611554
 20
0.4216137244
 10
-8.3179166888
 20
0.4154994628
 10
-8.3147010436
 20
0.4100812866
 10
-8.3122058446
 20
0.4053221262
 10
-8.3104168988
 20
0.4012096248
 10
-8.3093171297
 20
0.3977561392
 10
-8.3088895981
 20
0.3949616692
  0
LINE
  5
2D4
100
AcDbEntity
  8
CURVE
100
AcDbLine
 62
253
  6
CONTINUOUS
 10
-23.771199398
 20
11.395573094
 11
-23.738159713
 21
11.264956094
  0
LINE
  5
2D5
100
AcDbEntity
  8
CURVE
100
AcDbLine
 62
253
  6
CONTINUOUS
 10
-23.738159713
 20
10.685908094
 11
-23.7887579281
 21
10.947730094
  0
LINE
  5
2D6
100
AcDbEntity
  8
CURVE
100
AcDbLine
 62
253
  6
CONTINUOUS
 10
-23.7572293896
 20
23.204306533
 11
-23.779917518
 21
23.5571637285
  0
LINE
  5
2D7
100
AcDbEntity
  8
CURVE
100
AcDbLine
 62
253
  6
CONTINUOUS
 10
-23.7748548237
 20
14.912609094
 11
-23.7560771844
 21
14.611235094
  0
LINE
  5
2D8
100
AcDbEntity
  8
CURVE
100
AcDbLine
 62
253
  6
CONTINUOUS
 10
-23.7539296089
 20
8.355714094
 11
-23.7887579281
 21
8.925325094
  0
LINE
  5
2D9
100
AcDbEntity
  8
CURVE
100
AcDbLine
 62
253
  6
CONTINUOUS
 10
-23.6978912077
 20
23.6481160462
 11
-23.7205793361
 21
24.0195445955
  0
LINE
  5
2DA
100
AcDbEntity
  8
CURVE
100
AcDbLine
 62
253
  6
CONTINUOUS
 10
-23.7482609186
 20
14.487423094
 11
-23.738159713
 21
14.320406094
  0
LINE
  5
2DB
100
AcDbEntity
  8
CURVE
100
AcDbLine
 62
253
  6
CONTINUOUS
 10
-23.738159713
 20
13.721702094
 11
-23.7887579281
 21
14.631218094
  0
LINE
  5
2DC
100
AcDbEntity
  8
CURVE
100
AcDbLine
 62
253
  6
CONTINUOUS
 10
-23.7887579281
 20
9.530183094
 11
-23.738159713
 21
8.598118094
  0
LINE
  5
2DD
100
AcDbEntity
  8
CURVE
100
AcDbLine
 62
7
  6
CONTINUOUS
 10
-23.7571549506
 20
33.297191094
 11
-23.7789543803
 21
33.727206094
  0
LINE
  5
2DE
100
AcDbEntity
  8
CURVE
100
AcDbLine
 62
7
  6
CONTINUOUS
 10
-23.7380200452
 20
32.919699094
 11
-23.7487453411
 21
33.136547094
  0
LINE
  5
2DF
100
AcDbEntity
  8
CURVE
100
AcDbLine
 62
7
  6
CONTINUOUS
 10
-23.7886243329
 20
33.373584094
 11
-23.7380200452
 21
32.325249094
  0
LINE
  5
2E0
100
AcDbEntity
  8
CURVE
100
AcDbLine
 62
253
  6
CONTINUOUS
 10
-23.7606656481
 20
12.151380094
 11
-23.7887579281
 21
12.756651094
  0
LWPOLYLINE
  5
2E1
100
AcDbEntity
  8
CURVE
100
AcDbPolyline
 62
253
  6
CONTINUOUS
 90
26
 70
0
 10
-23.7688965659
 20
18.1908521035
 10
-23.7693609655
 20
18.2008367377
 10
-23.7698311538
 20
18.2099124907
 10
-23.7703064504
 20
18.2180725183
 10
-23.7707861751
 20
18.2253099764
 10
-23.7712696474
 20
18.2316180209
 10
-23.7717537797
 20
18.2369693351
 10
-23.7722405139
 20
18.2414117294
 10
-23.7727294152
 20
18.2449631749
 10
-23.7732200488
 20
18.2476416426
 10
-23.7737119799
 20
18.2494651034
 10
-23.7742047737
 20
18.2504515284
 10
-23.7746979956
 20
18.2506188886
 10
-23.7751912106
 20
18.2499851551
 10
-23.7756840206
 20
18.2485613251
 10
-23.7761758722
 20
18.2463314488
 10
-23.7766662484
 20
18.2432727622
 10
-23.7771546323
 20
18.2393625012
 10
-23.7776405072
 20
18.2345779018
 10
-23.7781233562
 20
18.2288961999
 10
-23.7786026624
 20
18.2222946315
 10
-23.779077909
 20
18.2147504326
 10
-23.7795489192
 20
18.2062391307
 10
-23.7800146092
 20
18.196771234
 10
-23.7804742425
 20
18.1863570954
 10
-23.781372394
 20
18.1627315038
  0
LINE
  5
2E2
100
AcDbEntity
  8
CURVE
100
AcDbLine
 62
253
  6
CONTINUOUS
 10
-23.7710616672
 20
12.910187094
 11
-23.738159713
 21
12.190519094
  0
LINE
  5
2E3
100
AcDbEntity
  8
CURVE
100
AcDbLine
 62
253
  6
CONTINUOUS
 10
-23.7710006
 20
17.6551211224
 11
-23.770573354
 21
17.6460503573
  0
LWPOLYLINE
  5
2E4
100
AcDbEntity
  8
CURVE
100
AcDbPolyline
 62
7
  6
CONTINUOUS
 90
15
 70
0
 10
-23.7662488875
 20
29.8592126001
 10
-23.766710754
 20
29.869503922
 10
-23.7671791683
 20
29.8788295071
 10
-23.7676534573
 20
29.8872219179
 10
-23.7681329476
 20
29.8947137175
 10
-23.7686169659
 20
29.9013374683
 10
-23.7691048388
 20
29.9071257334
 10
-23.7695958932
 20
29.9121110753
 10
-23.7700894555
 20
29.9163260569
 10
-23.7705848526
 20
29.919803241
 10
-23.7710814112
 20
29.9225751902
 10
-23.7715784578
 20
29.9246744674
 10
-23.7720753192
 20
29.9261336353
 10
-23.7725713221
 20
29.9269852567
 10
-23.7730657932
 20
29.9272618943
  0
LINE
  5
2E5
100
AcDbEntity
  8
CURVE
100
AcDbLine
 62
7
  6
CONTINUOUS
 10
-23.7699197786
 20
29.2380492318
 11
-23.7695217739
 21
29.2290907591
  0
LINE
  5
2E6
100
AcDbEntity
  8
CURVE
100
AcDbLine
 62
253
  6
CONTINUOUS
 10
-23.770573354
 20
17.6460503573
 11
-23.7701576557
 21
17.6356826341
  0
LINE
  5
2E7
100
AcDbEntity
  8
CURVE
100
AcDbLine
 62
253
  6
CONTINUOUS
 10
-23.7679878543
 20
18.1681835676
 11
-23.7688965659
 21
18.1908521035
  0
LINE
  5
2E8
100
AcDbEntity
  8
CURVE
100
AcDbLine
 62
253
  6
CONTINUOUS
 10
-23.7669528733
 20
22.4985922526
 11
-23.779917518
 21
22.8514494112
  0
LINE
  5
2E9
100
AcDbEntity
  8
CURVE
100
AcDbLine
 62
7
  6
CONTINUOUS
 10
-23.7653725428
 20
29.8363327601
 11
-23.7662488875
 21
29.8592126001
  0
LINE
  5
2EA
100
AcDbEntity
  8
CURVE
100
AcDbLine
 62
7
  6
CONTINUOUS
 10
-23.7695217739
 20
29.2290907591
 11
-23.7691339046
 21
29.2187015551
  0
LINE
  5
2EB
100
AcDbEntity
  8
CURVE
100
AcDbLine
 62
253
  6
CONTINUOUS
 10
-23.7076146914
 20
13.6147828311
 11
-23.7205793361
 21
13.9862112254
  0
LINE
  5
2EC
100
AcDbEntity
  8
CURVE
100
AcDbLine
 62
253
  6
CONTINUOUS
 10
-23.7076146914
 20
14.7290686339
 11
-23.7205793361
 21
15.1004970282
  0
LINE
  5
2ED
100
AcDbEntity
  8
CURVE
100
AcDbLine
 62
253
  6
CONTINUOUS
 10
-23.7701576557
 20
17.6356826341
 11
-23.7697559324
 21
17.6240094598
  0
LINE
  5
2EE
100
AcDbEntity
  8
CURVE
100
AcDbLine
 62
253
  6
CONTINUOUS
 10
-23.7671107431
 20
18.1419648848
 11
-23.7679878543
 21
18.1681835676
  0
LINE
  5
2EF
100
AcDbEntity
  8
CURVE
100
AcDbLine
 62
7
  6
CONTINUOUS
 10
-23.7645534393
 20
29.810442092
 11
-23.7653725428
 21
29.8363327601
  0
LINE
  5
2F0
100
AcDbEntity
  8
CURVE
100
AcDbLine
 62
7
  6
CONTINUOUS
 10
-23.7691339046
 20
29.2187015551
 11
-23.7686141079
 21
29.2019894148
  0
LINE
  5
2F1
100
AcDbEntity
  8
CURVE
100
AcDbLine
 62
253
  6
CONTINUOUS
 10
-23.7662708036
 20
18.1121179885
 11
-23.7671107431
 21
18.1419648848
  0
LINE
  5
2F2
100
AcDbEntity
  8
CURVE
100
AcDbLine
 62
253
  6
CONTINUOUS
 10
-23.7697559324
 20
17.6240094598
 11
-23.7691848606
 21
17.6040333988
  0
LINE
  5
2F3
100
AcDbEntity
  8
CURVE
100
AcDbLine
 62
253
  6
CONTINUOUS
 10
-23.7108558531
 20
25.9695447505
 11
-23.7205793361
 21
26.3409731448
  0
LINE
  5
2F4
100
AcDbEntity
  8
CURVE
100
AcDbLine
 62
253
  6
CONTINUOUS
 10
-23.7263136985
 20
39.9576398343
 11
-23.73105078
 21
40.1385924309
  0
LINE
  5
2F5
100
AcDbEntity
  8
CURVE
100
AcDbLine
 62
7
  6
CONTINUOUS
 10
-23.7686141079
 20
29.2019894148
 11
-23.7681991271
 21
29.1858753367
  0
LINE
  5
2F6
100
AcDbEntity
  8
CURVE
100
AcDbLine
 62
7
  6
CONTINUOUS
 10
-23.7633975665
 20
29.7649912696
 11
-23.7645534393
 21
29.810442092
  0
LINE
  5
2F7
100
AcDbEntity
  8
CURVE
100
AcDbLine
 62
253
  6
CONTINUOUS
 10
-23.7691848606
 20
17.6040333988
 11
-23.7686588864
 21
17.5810722992
  0
LINE
  5
2F8
100
AcDbEntity
  8
CURVE
100
AcDbLine
 62
253
  6
CONTINUOUS
 10
-23.7651034599
 20
18.0607657003
 11
-23.7662708036
 21
18.1121179885
  0
LINE
  5
2F9
100
AcDbEntity
  8
CURVE
100
AcDbLine
 62
253
  6
CONTINUOUS
 10
-23.760470551
 20
24.8803778249
 11
-23.7572293896
 21
24.7039493376
  0
LINE
  5
2FA
100
AcDbEntity
  8
CURVE
100
AcDbLine
 62
7
  6
CONTINUOUS
 10
-23.7681991271
 20
29.1858753367
 11
-23.767692417
 21
29.1611024983
  0
LINE
  5
2FB
100
AcDbEntity
  8
CURVE
100
AcDbLine
 62
7
  6
CONTINUOUS
 10
-23.7623478473
 20
29.7118477505
 11
-23.7633975665
 21
29.7649912696
  0
LINE
  5
2FC
100
AcDbEntity
  8
ASSI
100
AcDbLine
 62
7
  6
CONTINUOUS
 10
-23.6153230574
 20
25.4128726409
 11
-23.6139234175
 21
25.3417783456
  0
LINE
  5
2FD
100
AcDbEntity
  8
ASSI
100
AcDbLine
 62
7
  6
CONTINUOUS
 10
-23.6153230574
 20
30.4128726409
 11
-23.6139234175
 21
30.3417783456
  0
LINE
  5
2FE
100
AcDbEntity
  8
ASSI
100
AcDbLine
 62
7
  6
CONTINUOUS
 10
-23.6153230574
 20
35.4128726409
 11
-23.6139234175
 21
35.3417783456
  0
LINE
  5
2FF
100
AcDbEntity
  8
ASSI
100
AcDbLine
 62
7
  6
CONTINUOUS
 10
-23.6153230574
 20
40.4128726409
 11
-23.6139234175
 21
40.3417783456
  0
LINE
  5
300
100
AcDbEntity
  8
RACCORDO
100
AcDbLine
 62
7
  6
CONTINUOUS
 10
-23.615323537
 20
25.4128732321
 11
-23.6136964653
 21
25.3289138756
  0
LINE
  5
301
100
AcDbEntity
  8
RACCORDO
100
AcDbLine
 62
7
  6
CONTINUOUS
 10
-23.615323537
 20
30.4128732321
 11
-23.6136964653
 21
30.3289138756
  0
LINE
  5
302
100
AcDbEntity
  8
RACCORDO
100
AcDbLine
 62
7
  6
CONTINUOUS
 10
-23.615323537
 20
35.4128732321
 11
-23.6136964653
 21
35.3289138756
  0
LINE
  5
303
100
AcDbEntity
  8
RACCORDO
100
AcDbLine
 62
7
  6
CONTINUOUS
 10
-23.615323537
 20
40.4128732321
 11
-23.6136964653
 21
40.3289138756
  0
LINE
  5
304
100
AcDbEntity
  8
CURVE
100
AcDbLine
 62
253
  6
CONTINUOUS
 10
-23.7108558531
 20
7.795735094
 11
-23.7076146914
 21
7.6100208193
  0
LINE
  5
305
100
AcDbEntity
  8
CURVE
100
AcDbLine
 62
253
  6
CONTINUOUS
 10
-23.7173381751
 20
8.1671636432
 11
-23.7205793361
 21
8.3528779179
  0
LINE
  5
306
100
AcDbEntity
  8
CURVE
100
AcDbLine
 62
253
  6
CONTINUOUS
 10
-23.7124764329
 20
9.745735094
 11
-23.7092352719
 21
9.5600207418
  0
LINE
  5
307
100
AcDbEntity
  8
CURVE
100
AcDbLine
 62
253
  6
CONTINUOUS
 10
-23.7108558531
 20
17.0504970282
 11
-23.7076146914
 21
16.8647828311
  0
LINE
  5
308
100
AcDbEntity
  8
CURVE
100
AcDbLine
 62
253
  6
CONTINUOUS
 10
-23.721576617
 20
34.845735094
 11
-23.73105078
 21
35.3885922611
  0
LINE
  5
309
100
AcDbEntity
  8
CURVE
100
AcDbLine
 62
253
  6
CONTINUOUS
 10
-23.721576617
 20
37.4243064255
 11
-23.73105078
 21
37.9671637625
  0
LINE
  5
30A
100
AcDbEntity
  8
CURVE
100
AcDbLine
 62
253
  6
CONTINUOUS
 10
-23.7121024531
 20
39.867163536
 11
-23.7168395356
 21
40.1385924309
  0
LINE
  5
30B
100
AcDbEntity
  8
CURVE
100
AcDbLine
 62
253
  6
CONTINUOUS
 10
-23.7686588864
 20
17.5810722992
 11
-23.7680429709
 21
17.5458443272
  0
LINE
  5
30C
100
AcDbEntity
  8
CURVE
100
AcDbLine
 62
253
  6
CONTINUOUS
 10
-23.7633927462
 20
17.9602646722
 11
-23.7651034599
 21
18.0607657003
  0
LINE
  5
30D
100
AcDbEntity
  8
ASSI
100
AcDbLine
 62
7
  6
CONTINUOUS
 10
-23.6139234175
 20
25.3417783456
 11
-23.6122966098
 21
25.2404151689
  0
LINE
  5
30E
100
AcDbEntity
  8
ASSI
100
AcDbLine
 62
7
  6
CONTINUOUS
 10
-23.6139234175
 20
30.3417783456
 11
-23.6122966098
 21
30.2404151689
  0
LINE
  5
30F
100
AcDbEntity
  8
ASSI
100
AcDbLine
 62
7
  6
CONTINUOUS
 10
-23.6139234175
 20
35.3417783456
 11
-23.6122966098
 21
35.2404151689
  0
LINE
  5
310
100
AcDbEntity
  8
ASSI
100
AcDbLine
 62
7
  6
CONTINUOUS
 10
-23.6139234175
 20
40.3417783456
 11
-23.6122966098
 21
40.2404151689
  0
LWPOLYLINE
  5
311
100
AcDbEntity
  8
RACCORDO
100
AcDbPolyline
 62
253
  6
CONTINUOUS
 90
10
 70
0
 10
-23.31074135
 20
24.8814858089
 10
-23.3119728858
 20
24.9656506704
 10
-23.3132666803
 20
25.0410448887
 10
-23.3146052034
 20
25.1073064703
 10
-23.3159893634
 20
25.1640753588
 10
-23.317418252
 20
25.2110189939
 10
-23.318871614
 20
25.2478644867
 10
-23.3203426977
 20
25.2743800434
 10
-23.3218382548
 20
25.2903808748
 10
-23.3233582853
 20
25.295735094
  0
LWPOLYLINE
  5
312
100
AcDbEntity
  8
ASSI
100
AcDbPolyline
 62
253
  6
CONTINUOUS
 90
10
 70
0
 10
-23.31074135
 20
24.8814858089
 10
-23.3119728858
 20
24.9656506704
 10
-23.3132666803
 20
25.0410448887
 10
-23.3146052034
 20
25.1073064703
 10
-23.3159893634
 20
25.1640753588
 10
-23.317418252
 20
25.2110189939
 10
-23.318871614
 20
25.2478644867
 10
-23.3203426977
 20
25.2743800434
 10
-23.3218382548
 20
25.2903808748
 10
-23.3233582853
 20
25.295735094
  0
LWPOLYLINE
  5
313
100
AcDbEntity
  8
RACCORDO
100
AcDbPolyline
 62
253
  6
CONTINUOUS
 90
10
 70
0
 10
-23.31074135
 20
29.8814858089
 10
-23.3119728858
 20
29.9656506704
 10
-23.3132666803
 20
30.0410448887
 10
-23.3146052034
 20
30.1073064703
 10
-23.3159893634
 20
30.1640753588
 10
-23.317418252
 20
30.2110189939
 10
-23.318871614
 20
30.2478644867
 10
-23.3203426977
 20
30.2743800434
 10
-23.3218382548
 20
30.2903808748
 10
-23.3233582853
 20
30.295735094
  0
LWPOLYLINE
  5
314
100
AcDbEntity
  8
ASSI
100
AcDbPolyline
 62
253
  6
CONTINUOUS
 90
10
 70
0
 10
-23.31074135
 20
29.8814858089
 10
-23.3119728858
 20
29.9656506704
 10
-23.3132666803
 20
30.0410448887
 10
-23.3146052034
 20
30.1073064703
 10
-23.3159893634
 20
30.1640753588
 10
-23.317418252
 20
30.2110189939
 10
-23.318871614
 20
30.2478644867
 10
-23.3203426977
 20
30.2743800434
 10
-23.3218382548
 20
30.2903808748
 10
-23.3233582853
 20
30.295735094
  0
LINE
  5
315
100
AcDbEntity
  8
RACCORDO
100
AcDbLine
 62
7
  6
CONTINUOUS
 10
-23.6136964653
 20
25.3289138756
 11
-23.6121276761
 21
25.2286076859
  0
LINE
  5
316
100
AcDbEntity
  8
RACCORDO
100
AcDbLine
 62
7
  6
CONTINUOUS
 10
-23.6136964653
 20
30.3289138756
 11
-23.6121276761
 21
30.2286076859
  0
LINE
  5
317
100
AcDbEntity
  8
RACCORDO
100
AcDbLine
 62
7
  6
CONTINUOUS
 10
-23.6136964653
 20
35.3289138756
 11
-23.6121276761
 21
35.2286076859
  0
LINE
  5
318
100
AcDbEntity
  8
RACCORDO
100
AcDbLine
 62
7
  6
CONTINUOUS
 10
-23.6136964653
 20
40.3289138756
 11
-23.6121276761
 21
40.2286076859
  0
LINE
  5
319
100
AcDbEntity
  8
CURVE
100
AcDbLine
 62
7
  6
CONTINUOUS
 10
-23.767692417
 20
29.1611024983
 11
-23.7672594477
 21
29.1324112064
  0
LINE
  5
31A
100
AcDbEntity
  8
CURVE
100
AcDbLine
 62
7
  6
CONTINUOUS
 10
-23.7611354582
 20
29.6303090356
 11
-23.7623478473
 21
29.7118477505
  0
LINE
  5
31B
100
AcDbEntity
  8
CURVE
100
AcDbLine
 62
253
  6
CONTINUOUS
 10
-23.7192080753
 20
40.7266876906
 11
-23.7168395356
 21
40.545735094
  0
LINE
  5
31C
100
AcDbEntity
  8
ASSI
100
AcDbLine
 62
7
  6
CONTINUOUS
 10
-23.6122966098
 20
25.2404151689
 11
-23.6106918968
 21
25.1177629447
  0
LINE
  5
31D
100
AcDbEntity
  8
ASSI
100
AcDbLine
 62
7
  6
CONTINUOUS
 10
-23.6122966098
 20
30.2404151689
 11
-23.6106918968
 21
30.1177629447
  0
LINE
  5
31E
100
AcDbEntity
  8
ASSI
100
AcDbLine
 62
7
  6
CONTINUOUS
 10
-23.6122966098
 20
35.2404151689
 11
-23.6106918968
 21
35.1177629447
  0
LINE
  5
31F
100
AcDbEntity
  8
ASSI
100
AcDbLine
 62
7
  6
CONTINUOUS
 10
-23.6122966098
 20
40.2404151689
 11
-23.6106918968
 21
40.1177629447
  0
LINE
  5
320
100
AcDbEntity
  8
RACCORDO
100
AcDbLine
 62
7
  6
CONTINUOUS
 10
-23.6121276761
 20
25.2286076859
 11
-23.6103655161
 21
25.0898337099
  0
LINE
  5
321
100
AcDbEntity
  8
RACCORDO
100
AcDbLine
 62
7
  6
CONTINUOUS
 10
-23.6121276761
 20
30.2286076859
 11
-23.6103655161
 21
30.0898337099
  0
LINE
  5
322
100
AcDbEntity
  8
RACCORDO
100
AcDbLine
 62
7
  6
CONTINUOUS
 10
-23.6121276761
 20
35.2286076859
 11
-23.6103655161
 21
35.0898337099
  0
LINE
  5
323
100
AcDbEntity
  8
RACCORDO
100
AcDbLine
 62
7
  6
CONTINUOUS
 10
-23.6121276761
 20
40.2286076859
 11
-23.6103655161
 21
40.0898337099
  0
LINE
  5
324
100
AcDbEntity
  8
CURVE
100
AcDbLine
 62
253
  6
CONTINUOUS
 10
-23.7623885912
 20
17.8878112797
 11
-23.7633927462
 21
17.9602646722
  0
LINE
  5
325
100
AcDbEntity
  8
RACCORDO
100
AcDbLine
 62
253
  6
CONTINUOUS
 10
-23.3084668502
 20
24.6886305245
 11
-23.31074135
 21
24.8814858089
  0
LINE
  5
326
100
AcDbEntity
  8
ASSI
100
AcDbLine
 62
253
  6
CONTINUOUS
 10
-23.3084668502
 20
24.6886305245
 11
-23.31074135
 21
24.8814858089
  0
LINE
  5
327
100
AcDbEntity
  8
RACCORDO
100
AcDbLine
 62
253
  6
CONTINUOUS
 10
-23.3084668502
 20
29.6886305245
 11
-23.31074135
 21
29.8814858089
  0
LINE
  5
328
100
AcDbEntity
  8
ASSI
100
AcDbLine
 62
253
  6
CONTINUOUS
 10
-23.3084668502
 20
29.6886305245
 11
-23.31074135
 21
29.8814858089
  0
LINE
  5
329
100
AcDbEntity
  8
CURVE
100
AcDbLine
 62
253
  6
CONTINUOUS
 10
-23.7680429709
 20
17.5458443272
 11
-23.7674232033
 21
17.4951166334
  0
LINE
  5
32A
100
AcDbEntity
  8
CURVE
100
AcDbLine
 62
253
  6
CONTINUOUS
 10
-23.7168395356
 20
39.052877757
 11
-23.7192080753
 21
39.2790682763
  0
LINE
  5
32B
100
AcDbEntity
  8
RACCORDO
100
AcDbLine
 62
253
  6
CONTINUOUS
 10
-23.3104504969
 20
0.3013975267
 11
-23.3148223309
 21
0.7352499457
  0
LINE
  5
32C
100
AcDbEntity
  8
RACCORDO
100
AcDbLine
 62
253
  6
CONTINUOUS
 10
-23.0604547277
 20
0.5179038776
 11
-23.0655453287
 21
1.0230853631
  0
LINE
  5
32D
100
AcDbEntity
  8
ASSI
100
AcDbLine
 62
7
  6
CONTINUOUS
 10
-23.6106918968
 20
25.1177629447
 11
-23.6091357181
 21
24.9738729919
  0
LINE
  5
32E
100
AcDbEntity
  8
ASSI
100
AcDbLine
 62
7
  6
CONTINUOUS
 10
-23.6106918968
 20
30.1177629447
 11
-23.6091357181
 21
29.9738729919
  0
LINE
  5
32F
100
AcDbEntity
  8
ASSI
100
AcDbLine
 62
7
  6
CONTINUOUS
 10
-23.6106918968
 20
35.1177629447
 11
-23.6091357181
 21
34.9738729919
  0
LINE
  5
330
100
AcDbEntity
  8
ASSI
100
AcDbLine
 62
7
  6
CONTINUOUS
 10
-23.6106918968
 20
40.1177629447
 11
-23.6091357181
 21
39.9738729919
  0
LINE
  5
331
100
AcDbEntity
  8
RACCORDO
100
AcDbLine
 62
253
  6
CONTINUOUS
 10
-23.307437825
 20
34.580848486
 11
-23.3095729708
 21
34.7889889324
  0
LINE
  5
332
100
AcDbEntity
  8
ASSI
100
AcDbLine
 62
253
  6
CONTINUOUS
 10
-23.307437825
 20
34.580848486
 11
-23.3095729708
 21
34.7889889324
  0
LINE
  5
333
100
AcDbEntity
  8
RACCORDO
100
AcDbLine
 62
7
  6
CONTINUOUS
 10
-23.6103655161
 20
25.0898337099
 11
-23.6086744659
 21
24.925420643
  0
LINE
  5
334
100
AcDbEntity
  8
RACCORDO
100
AcDbLine
 62
7
  6
CONTINUOUS
 10
-23.6103655161
 20
30.0898337099
 11
-23.6086744659
 21
29.925420643
  0
LINE
  5
335
100
AcDbEntity
  8
RACCORDO
100
AcDbLine
 62
7
  6
CONTINUOUS
 10
-23.6103655161
 20
35.0898337099
 11
-23.6086744659
 21
34.925420643
  0
LINE
  5
336
100
AcDbEntity
  8
RACCORDO
100
AcDbLine
 62
7
  6
CONTINUOUS
 10
-23.6103655161
 20
40.0898337099
 11
-23.6086744659
 21
39.925420643
  0
LINE
  5
337
100
AcDbEntity
  8
CURVE
100
AcDbLine
 62
7
  6
CONTINUOUS
 10
-23.7672594477
 20
29.1324112064
 11
-23.7667567367
 21
29.0833266005
  0
LINE
  5
338
100
AcDbEntity
  8
RACCORDO
100
AcDbLine
 62
253
  6
CONTINUOUS
 10
-23.3064868521
 20
24.4661744477
 11
-23.3084668502
 21
24.6886305245
  0
LINE
  5
339
100
AcDbEntity
  8
ASSI
100
AcDbLine
 62
253
  6
CONTINUOUS
 10
-23.3064868521
 20
24.4661744477
 11
-23.3084668502
 21
24.6886305245
  0
LINE
  5
33A
100
AcDbEntity
  8
RACCORDO
100
AcDbLine
 62
253
  6
CONTINUOUS
 10
-23.3064868521
 20
29.4661744477
 11
-23.3084668502
 21
29.6886305245
  0
LINE
  5
33B
100
AcDbEntity
  8
ASSI
100
AcDbLine
 62
253
  6
CONTINUOUS
 10
-23.3064868521
 20
29.4661744477
 11
-23.3084668502
 21
29.6886305245
  0
LINE
  5
33C
100
AcDbEntity
  8
CURVE
100
AcDbLine
 62
7
  6
CONTINUOUS
 10
-23.7596443024
 20
29.4813051071
 11
-23.7611354582
 21
29.6303090356
  0
LINE
  5
33D
100
AcDbEntity
  8
ASSI
100
AcDbLine
 62
7
  6
CONTINUOUS
 10
-23.6091357181
 20
24.9738729919
 11
-23.6074662424
 21
24.7835607311
  0
LINE
  5
33E
100
AcDbEntity
  8
ASSI
100
AcDbLine
 62
7
  6
CONTINUOUS
 10
-23.6091357181
 20
29.9738729919
 11
-23.6074662424
 21
29.7835607311
  0
LINE
  5
33F
100
AcDbEntity
  8
ASSI
100
AcDbLine
 62
7
  6
CONTINUOUS
 10
-23.6091357181
 20
34.9738729919
 11
-23.6074662424
 21
34.7835607311
  0
LINE
  5
340
100
AcDbEntity
  8
ASSI
100
AcDbLine
 62
7
  6
CONTINUOUS
 10
-23.6091357181
 20
39.9738729919
 11
-23.6074662424
 21
39.7835607311
  0
LINE
  5
341
100
AcDbEntity
  8
RACCORDO
100
AcDbLine
 62
7
  6
CONTINUOUS
 10
-23.6086744659
 20
24.925420643
 11
-23.6070971341
 21
24.7354990208
  0
LINE
  5
342
100
AcDbEntity
  8
RACCORDO
100
AcDbLine
 62
7
  6
CONTINUOUS
 10
-23.6086744659
 20
29.925420643
 11
-23.6070971341
 21
29.7354990208
  0
LINE
  5
343
100
AcDbEntity
  8
RACCORDO
100
AcDbLine
 62
7
  6
CONTINUOUS
 10
-23.6086744659
 20
34.925420643
 11
-23.6070971341
 21
34.7354990208
  0
LINE
  5
344
100
AcDbEntity
  8
RACCORDO
100
AcDbLine
 62
7
  6
CONTINUOUS
 10
-23.6086744659
 20
39.925420643
 11
-23.6070971341
 21
39.7354990208
  0
LINE
  5
345
100
AcDbEntity
  8
RACCORDO
100
AcDbLine
 62
253
  6
CONTINUOUS
 10
-23.3056129745
 20
34.3451678195
 11
-23.307437825
 21
34.580848486
  0
LINE
  5
346
100
AcDbEntity
  8
ASSI
100
AcDbLine
 62
253
  6
CONTINUOUS
 10
-23.3056129745
 20
34.3451678195
 11
-23.307437825
 21
34.580848486
  0
LINE
  5
347
100
AcDbEntity
  8
CURVE
100
AcDbLine
 62
253
  6
CONTINUOUS
 10
-23.7621584098
 20
17.8600887687
 11
-23.7623885912
 21
17.8878112797
  0
LINE
  5
348
100
AcDbEntity
  8
ASSI
100
AcDbLine
 62
7
  6
CONTINUOUS
 10
-23.6074662424
 20
24.7835607311
 11
-23.6059414408
 21
24.5663573432
  0
LINE
  5
349
100
AcDbEntity
  8
ASSI
100
AcDbLine
 62
7
  6
CONTINUOUS
 10
-23.6074662424
 20
29.7835607311
 11
-23.6059414408
 21
29.5663573432
  0
LINE
  5
34A
100
AcDbEntity
  8
ASSI
100
AcDbLine
 62
7
  6
CONTINUOUS
 10
-23.6074662424
 20
34.7835607311
 11
-23.6059414408
 21
34.5663573432
  0
LINE
  5
34B
100
AcDbEntity
  8
ASSI
100
AcDbLine
 62
7
  6
CONTINUOUS
 10
-23.6074662424
 20
39.7835607311
 11
-23.6059414408
 21
39.5663573432
  0
LINE
  5
34C
100
AcDbEntity
  8
RACCORDO
100
AcDbLine
 62
253
  6
CONTINUOUS
 10
-23.3048281578
 20
24.2183289538
 11
-23.3064868521
 21
24.4661744477
  0
LINE
  5
34D
100
AcDbEntity
  8
ASSI
100
AcDbLine
 62
253
  6
CONTINUOUS
 10
-23.3048281578
 20
24.2183289538
 11
-23.3064868521
 21
24.4661744477
  0
LINE
  5
34E
100
AcDbEntity
  8
RACCORDO
100
AcDbLine
 62
253
  6
CONTINUOUS
 10
-23.3048281578
 20
29.2183289538
 11
-23.3064868521
 21
29.4661744477
  0
LINE
  5
34F
100
AcDbEntity
  8
ASSI
100
AcDbLine
 62
253
  6
CONTINUOUS
 10
-23.3048281578
 20
29.2183289538
 11
-23.3064868521
 21
29.4661744477
  0
LINE
  5
350
100
AcDbEntity
  8
RACCORDO
100
AcDbLine
 62
253
  6
CONTINUOUS
 10
-23.3048281578
 20
39.2183289538
 11
-23.3064868521
 21
39.4661744477
  0
LINE
  5
351
100
AcDbEntity
  8
ASSI
100
AcDbLine
 62
253
  6
CONTINUOUS
 10
-23.3048281578
 20
39.2183289538
 11
-23.3064868521
 21
39.4661744477
  0
LINE
  5
352
100
AcDbEntity
  8
CURVE
100
AcDbLine
 62
253
  6
CONTINUOUS
 10
-23.7674232033
 20
17.4951166334
 11
-23.7668024031
 21
17.414344175
  0
LINE
  5
353
100
AcDbEntity
  8
RACCORDO
100
AcDbLine
 62
7
  6
CONTINUOUS
 10
-23.6070971341
 20
24.7354990208
 11
-23.6056652334
 21
24.5207805853
  0
LINE
  5
354
100
AcDbEntity
  8
RACCORDO
100
AcDbLine
 62
7
  6
CONTINUOUS
 10
-23.6070971341
 20
29.7354990208
 11
-23.6056652334
 21
29.5207805853
  0
LINE
  5
355
100
AcDbEntity
  8
RACCORDO
100
AcDbLine
 62
7
  6
CONTINUOUS
 10
-23.6070971341
 20
34.7354990208
 11
-23.6056652334
 21
34.5207805853
  0
LINE
  5
356
100
AcDbEntity
  8
RACCORDO
100
AcDbLine
 62
7
  6
CONTINUOUS
 10
-23.6070971341
 20
39.7354990208
 11
-23.6056652334
 21
39.5207805853
  0
LINE
  5
357
100
AcDbEntity
  8
RACCORDO
100
AcDbLine
 62
253
  6
CONTINUOUS
 10
-23.3041334007
 20
34.0862405355
 11
-23.3056129745
 21
34.3451678195
  0
LINE
  5
358
100
AcDbEntity
  8
ASSI
100
AcDbLine
 62
253
  6
CONTINUOUS
 10
-23.3041334007
 20
34.0862405355
 11
-23.3056129745
 21
34.3451678195
  0
LINE
  5
359
100
AcDbEntity
  8
ASSI
100
AcDbLine
 62
7
  6
CONTINUOUS
 10
-23.6059414408
 20
24.5663573432
 11
-23.6046143895
 21
24.3238226526
  0
LINE
  5
35A
100
AcDbEntity
  8
ASSI
100
AcDbLine
 62
7
  6
CONTINUOUS
 10
-23.6059414408
 20
29.5663573432
 11
-23.6046143895
 21
29.3238226526
  0
LINE
  5
35B
100
AcDbEntity
  8
ASSI
100
AcDbLine
 62
7
  6
CONTINUOUS
 10
-23.6059414408
 20
34.5663573432
 11
-23.6046143895
 21
34.3238226526
  0
LINE
  5
35C
100
AcDbEntity
  8
ASSI
100
AcDbLine
 62
7
  6
CONTINUOUS
 10
-23.6059414408
 20
39.5663573432
 11
-23.6046143895
 21
39.3238226526
  0
LINE
  5
35D
100
AcDbEntity
  8
RACCORDO
100
AcDbLine
 62
7
  6
CONTINUOUS
 10
-23.6056652334
 20
29.5207805853
 11
-23.6042790258
 21
29.2513144999
  0
LINE
  5
35E
100
AcDbEntity
  8
RACCORDO
100
AcDbLine
 62
7
  6
CONTINUOUS
 10
-23.6056652334
 20
34.5207805853
 11
-23.6042790258
 21
34.2513144999
  0
LINE
  5
35F
100
AcDbEntity
  8
RACCORDO
100
AcDbLine
 62
7
  6
CONTINUOUS
 10
-23.6056652334
 20
39.5207805853
 11
-23.6042790258
 21
39.2513144999
  0
LINE
  5
360
100
AcDbEntity
  8
RACCORDO
100
AcDbLine
 62
253
  6
CONTINUOUS
 10
-23.3035277044
 20
23.9495593666
 11
-23.3048281578
 21
24.2183289538
  0
LINE
  5
361
100
AcDbEntity
  8
ASSI
100
AcDbLine
 62
253
  6
CONTINUOUS
 10
-23.3035277044
 20
23.9495593666
 11
-23.3048281578
 21
24.2183289538
  0
LINE
  5
362
100
AcDbEntity
  8
RACCORDO
100
AcDbLine
 62
253
  6
CONTINUOUS
 10
-23.3035277044
 20
28.9495593666
 11
-23.3048281578
 21
29.2183289538
  0
LINE
  5
363
100
AcDbEntity
  8
ASSI
100
AcDbLine
 62
253
  6
CONTINUOUS
 10
-23.3035277044
 20
28.9495593666
 11
-23.3048281578
 21
29.2183289538
  0
LINE
  5
364
100
AcDbEntity
  8
RACCORDO
100
AcDbLine
 62
253
  6
CONTINUOUS
 10
-23.3035277044
 20
38.9495593666
 11
-23.3048281578
 21
39.2183289538
  0
LINE
  5
365
100
AcDbEntity
  8
ASSI
100
AcDbLine
 62
253
  6
CONTINUOUS
 10
-23.3035277044
 20
38.9495593666
 11
-23.3048281578
 21
39.2183289538
  0
LINE
  5
366
100
AcDbEntity
  8
CURVE
100
AcDbLine
 62
7
  6
CONTINUOUS
 10
-23.7667567367
 20
29.0833266005
 11
-23.7663020757
 21
29.0016330266
  0
LINE
  5
367
100
AcDbEntity
  8
ASSI
100
AcDbLine
 62
7
  6
CONTINUOUS
 10
-23.6046143895
 20
24.3238226526
 11
-23.6035154964
 21
24.0583108291
  0
LINE
  5
368
100
AcDbEntity
  8
ASSI
100
AcDbLine
 62
7
  6
CONTINUOUS
 10
-23.6046143895
 20
29.3238226526
 11
-23.6035154964
 21
29.0583108291
  0
LINE
  5
369
100
AcDbEntity
  8
ASSI
100
AcDbLine
 62
7
  6
CONTINUOUS
 10
-23.6046143895
 20
34.3238226526
 11
-23.6035154964
 21
34.0583108291
  0
LINE
  5
36A
100
AcDbEntity
  8
ASSI
100
AcDbLine
 62
7
  6
CONTINUOUS
 10
-23.6046143895
 20
39.3238226526
 11
-23.6035154964
 21
39.0583108291
  0
LINE
  5
36B
100
AcDbEntity
  8
RACCORDO
100
AcDbLine
 62
253
  6
CONTINUOUS
 10
-23.3030200383
 20
33.8089215921
 11
-23.3041334007
 21
34.0862405355
  0
LINE
  5
36C
100
AcDbEntity
  8
ASSI
100
AcDbLine
 62
253
  6
CONTINUOUS
 10
-23.3030200383
 20
33.8089215921
 11
-23.3041334007
 21
34.0862405355
  0
LINE
  5
36D
100
AcDbEntity
  8
CURVE
100
AcDbLine
 62
7
  6
CONTINUOUS
 10
-23.7581399726
 20
29.194322343
 11
-23.7596443024
 21
29.4813051071
  0
LINE
  5
36E
100
AcDbEntity
  8
CURVE
100
AcDbLine
 62
253
  6
CONTINUOUS
 10
-23.7620774984
 20
17.8402908039
 11
-23.7621584098
 21
17.8600887687
  0
LINE
  5
36F
100
AcDbEntity
  8
RACCORDO
100
AcDbLine
 62
7
  6
CONTINUOUS
 10
-23.6056652334
 20
24.5207805853
 11
-23.6032853805
 21
23.9893315317
  0
LINE
  5
370
100
AcDbEntity
  8
RACCORDO
100
AcDbLine
 62
7
  6
CONTINUOUS
 10
-23.6042790258
 20
29.2513144999
 11
-23.6032853805
 21
28.9893315317
  0
LINE
  5
371
100
AcDbEntity
  8
RACCORDO
100
AcDbLine
 62
7
  6
CONTINUOUS
 10
-23.6042790258
 20
34.2513144999
 11
-23.6032853805
 21
33.9893315317
  0
LINE
  5
372
100
AcDbEntity
  8
RACCORDO
100
AcDbLine
 62
7
  6
CONTINUOUS
 10
-23.6042790258
 20
39.2513144999
 11
-23.6032853805
 21
38.9893315317
  0
LINE
  5
373
100
AcDbEntity
  8
CURVE
100
AcDbLine
 62
253
  6
CONTINUOUS
 10
-23.7668024031
 20
17.414344175
 11
-23.7663950152
 21
17.3141197886
  0
LINE
  5
374
100
AcDbEntity
  8
RACCORDO
100
AcDbLine
 62
253
  6
CONTINUOUS
 10
-23.302611762
 20
23.6649923595
 11
-23.3035277044
 21
23.9495593666
  0
LINE
  5
375
100
AcDbEntity
  8
ASSI
100
AcDbLine
 62
253
  6
CONTINUOUS
 10
-23.302611762
 20
23.6649923595
 11
-23.3035277044
 21
23.9495593666
  0
LINE
  5
376
100
AcDbEntity
  8
RACCORDO
100
AcDbLine
 62
253
  6
CONTINUOUS
 10
-23.302611762
 20
28.6649923595
 11
-23.3035277044
 21
28.9495593666
  0
LINE
  5
377
100
AcDbEntity
  8
ASSI
100
AcDbLine
 62
253
  6
CONTINUOUS
 10
-23.302611762
 20
28.6649923595
 11
-23.3035277044
 21
28.9495593666
  0
LINE
  5
378
100
AcDbEntity
  8
RACCORDO
100
AcDbLine
 62
253
  6
CONTINUOUS
 10
-23.302611762
 20
38.6649923595
 11
-23.3035277044
 21
38.9495593666
  0
LINE
  5
379
100
AcDbEntity
  8
ASSI
100
AcDbLine
 62
253
  6
CONTINUOUS
 10
-23.302611762
 20
38.6649923595
 11
-23.3035277044
 21
38.9495593666
  0
LINE
  5
37A
100
AcDbEntity
  8
CURVE
100
AcDbLine
 62
253
  6
CONTINUOUS
 10
-23.7883133142
 20
16.3418265432
 11
-23.7881667716
 21
16.2841677496
  0
LINE
  5
37B
100
AcDbEntity
  8
ASSI
100
AcDbLine
 62
7
  6
CONTINUOUS
 10
-23.6035154964
 20
24.0583108291
 11
-23.6026892258
 21
23.7731045844
  0
LINE
  5
37C
100
AcDbEntity
  8
CURVE
100
AcDbLine
 62
253
  6
CONTINUOUS
 10
-23.7885943798
 20
16.4573331239
 11
-23.7883133142
 21
16.3418265432
  0
LINE
  5
37D
100
AcDbEntity
  8
ASSI
100
AcDbLine
 62
7
  6
CONTINUOUS
 10
-23.6035154964
 20
29.0583108291
 11
-23.6026060816
 21
28.7363055417
  0
LINE
  5
37E
100
AcDbEntity
  8
ASSI
100
AcDbLine
 62
7
  6
CONTINUOUS
 10
-23.6035154964
 20
34.0583108291
 11
-23.6026060816
 21
33.7363055417
  0
LINE
  5
37F
100
AcDbEntity
  8
ASSI
100
AcDbLine
 62
7
  6
CONTINUOUS
 10
-23.6035154964
 20
39.0583108291
 11
-23.6026060816
 21
38.7363055417
  0
LINE
  5
380
100
AcDbEntity
  8
RACCORDO
100
AcDbLine
 62
7
  6
CONTINUOUS
 10
-23.6032853805
 20
23.9893315317
 11
-23.6025486942
 21
23.7093748693
  0
LINE
  5
381
100
AcDbEntity
  8
RACCORDO
100
AcDbLine
 62
7
  6
CONTINUOUS
 10
-23.6032853805
 20
28.9893315317
 11
-23.6025486942
 21
28.7093748693
  0
LINE
  5
382
100
AcDbEntity
  8
RACCORDO
100
AcDbLine
 62
7
  6
CONTINUOUS
 10
-23.6032853805
 20
33.9893315317
 11
-23.6025486942
 21
33.7093748693
  0
LINE
  5
383
100
AcDbEntity
  8
RACCORDO
100
AcDbLine
 62
7
  6
CONTINUOUS
 10
-23.6032853805
 20
38.9893315317
 11
-23.6025486942
 21
38.7093748693
  0
LINE
  5
384
100
AcDbEntity
  8
RACCORDO
100
AcDbLine
 62
253
  6
CONTINUOUS
 10
-23.3023015158
 20
33.518475957
 11
-23.3030200383
 21
33.8089215921
  0
LINE
  5
385
100
AcDbEntity
  8
ASSI
100
AcDbLine
 62
253
  6
CONTINUOUS
 10
-23.3023015158
 20
33.518475957
 11
-23.3030200383
 21
33.8089215921
  0
LINE
  5
386
100
AcDbEntity
  8
CURVE
100
AcDbLine
 62
7
  6
CONTINUOUS
 10
-23.7663020757
 20
29.0016330266
 11
-23.7659168643
 21
28.8323472249
  0
LINE
  5
387
100
AcDbEntity
  8
CURVE
100
AcDbLine
 62
253
  6
CONTINUOUS
 10
-23.7801380187
 20
16.8669338221
 11
-23.7805238379
 21
17.0468869493
  0
LINE
  5
388
100
AcDbEntity
  8
RACCORDO
100
AcDbLine
 62
253
  6
CONTINUOUS
 10
-23.3020941898
 20
23.3700920511
 11
-23.302611762
 21
23.6649923595
  0
LINE
  5
389
100
AcDbEntity
  8
ASSI
100
AcDbLine
 62
253
  6
CONTINUOUS
 10
-23.3020941898
 20
23.3700920511
 11
-23.302611762
 21
23.6649923595
  0
LINE
  5
38A
100
AcDbEntity
  8
RACCORDO
100
AcDbLine
 62
253
  6
CONTINUOUS
 10
-23.3020941898
 20
28.3700920511
 11
-23.302611762
 21
28.6649923595
  0
LINE
  5
38B
100
AcDbEntity
  8
ASSI
100
AcDbLine
 62
253
  6
CONTINUOUS
 10
-23.3020941898
 20
28.3700920511
 11
-23.302611762
 21
28.6649923595
  0
LINE
  5
38C
100
AcDbEntity
  8
RACCORDO
100
AcDbLine
 62
253
  6
CONTINUOUS
 10
-23.3020941898
 20
38.3700920511
 11
-23.302611762
 21
38.6649923595
  0
LINE
  5
38D
100
AcDbEntity
  8
ASSI
100
AcDbLine
 62
253
  6
CONTINUOUS
 10
-23.3020941898
 20
38.3700920511
 11
-23.302611762
 21
38.6649923595
  0
LINE
  5
38E
100
AcDbEntity
  8
ASSI
100
AcDbLine
 62
7
  6
CONTINUOUS
 10
-23.6026892258
 20
23.7731045844
 11
-23.6021690856
 21
23.4736306978
  0
LINE
  5
38F
100
AcDbEntity
  8
RACCORDO
100
AcDbLine
 62
7
  6
CONTINUOUS
 10
-23.6025486942
 20
23.7093748693
 11
-23.6021089386
 21
23.4170010278
  0
LINE
  5
390
100
AcDbEntity
  8
ASSI
100
AcDbLine
 62
7
  6
CONTINUOUS
 10
-23.6026060816
 20
28.7363055417
 11
-23.6021274238
 21
28.4355583063
  0
LINE
  5
391
100
AcDbEntity
  8
ASSI
100
AcDbLine
 62
7
  6
CONTINUOUS
 10
-23.6026060816
 20
33.7363055417
 11
-23.6021274238
 21
33.4355583063
  0
LINE
  5
392
100
AcDbEntity
  8
ASSI
100
AcDbLine
 62
7
  6
CONTINUOUS
 10
-23.6026060816
 20
38.7363055417
 11
-23.6021274238
 21
38.4355583063
  0
LINE
  5
393
100
AcDbEntity
  8
RACCORDO
100
AcDbLine
 62
7
  6
CONTINUOUS
 10
-23.6025486942
 20
28.7093748693
 11
-23.6020754511
 21
28.3799290758
  0
LINE
  5
394
100
AcDbEntity
  8
RACCORDO
100
AcDbLine
 62
7
  6
CONTINUOUS
 10
-23.6025486942
 20
33.7093748693
 11
-23.6020754511
 21
33.3799290758
  0
LINE
  5
395
100
AcDbEntity
  8
RACCORDO
100
AcDbLine
 62
7
  6
CONTINUOUS
 10
-23.6025486942
 20
38.7093748693
 11
-23.6020754511
 21
38.3799290758
  0
LINE
  5
396
100
AcDbEntity
  8
CURVE
100
AcDbLine
 62
7
  6
CONTINUOUS
 10
-23.7575883283
 20
28.8619277453
 11
-23.7581399726
 21
29.194322343
  0
LINE
  5
397
100
AcDbEntity
  8
RACCORDO
100
AcDbLine
 62
253
  6
CONTINUOUS
 10
-23.3019914101
 20
33.2205258178
 11
-23.3023015158
 21
33.518475957
  0
LINE
  5
398
100
AcDbEntity
  8
ASSI
100
AcDbLine
 62
253
  6
CONTINUOUS
 10
-23.3019914101
 20
33.2205258178
 11
-23.3023015158
 21
33.518475957
  0
LINE
  5
399
100
AcDbEntity
  8
ASSI
100
AcDbLine
 62
7
  6
CONTINUOUS
 10
-23.6021690856
 20
23.4736306978
 11
-23.6019751826
 21
23.1674677524
  0
LINE
  5
39A
100
AcDbEntity
  8
0
100
AcDbLine
 62
7
  6
CONTINUOUS
 10
-23.8148223309
 20
41.8174341427
 11
-23.8148223309
 21
6.4740360452
  0
LINE
  5
39B
100
AcDbEntity
  8
RACCORDO
100
AcDbLine
 62
7
  6
CONTINUOUS
 10
-23.8148223309
 20
46.0769206499
 11
-23.8148223309
 21
2.214549538
  0
LINE
  5
39C
100
AcDbEntity
  8
CURVE
100
AcDbLine
 62
253
  6
CONTINUOUS
 10
-23.7887609644
 20
10.360071094
 11
-23.7887609644
 21
9.754800094
  0
LINE
  5
39D
100
AcDbEntity
  8
CURVE
100
AcDbLine
 62
253
  6
CONTINUOUS
 10
-23.7887579281
 20
7.145475094
 11
-23.7887579281
 21
7.802987094
  0
LINE
  5
39E
100
AcDbEntity
  8
CURVE
100
AcDbLine
 62
253
  6
CONTINUOUS
 10
-23.7887579281
 20
8.925325094
 11
-23.7887579281
 21
9.530183094
  0
LINE
  5
39F
100
AcDbEntity
  8
CURVE
100
AcDbLine
 62
253
  6
CONTINUOUS
 10
-23.7887579281
 20
10.947730094
 11
-23.7887579281
 21
11.552501094
  0
LINE
  5
3A0
100
AcDbEntity
  8
CURVE
100
AcDbLine
 62
253
  6
CONTINUOUS
 10
-23.7887579281
 20
12.756651094
 11
-23.7887579281
 21
13.355508094
  0
LINE
  5
3A1
100
AcDbEntity
  8
CURVE
100
AcDbLine
 62
253
  6
CONTINUOUS
 10
-23.7887579281
 20
14.631218094
 11
-23.7887579281
 21
15.216745094
  0
LINE
  5
3A2
100
AcDbEntity
  8
CURVE
100
AcDbLine
 62
7
  6
CONTINUOUS
 10
-23.7886243329
 20
40.137670094
 11
-23.7886243329
 21
39.398619094
  0
LINE
  5
3A3
100
AcDbEntity
  8
CURVE
100
AcDbLine
 62
7
  6
CONTINUOUS
 10
-23.7886243329
 20
34.112635094
 11
-23.7886243329
 21
33.373584094
  0
LINE
  5
3A4
100
AcDbEntity
  8
CURVE
100
AcDbLine
 62
7
  6
CONTINUOUS
 10
-23.7886243329
 20
30.316868094
 11
-23.7886243329
 21
30.939474094
  0
LINE
  5
3A5
100
AcDbEntity
  8
CURVE
100
AcDbLine
 62
7
  6
CONTINUOUS
 10
-23.7886243329
 20
35.438060094
 11
-23.7886243329
 21
36.361874094
  0
LINE
  5
3A6
100
AcDbEntity
  8
CURVE
100
AcDbLine
 62
7
  6
CONTINUOUS
 10
-23.7886243329
 20
37.474489094
 11
-23.7886243329
 21
38.056933094
  0
LINE
  5
3A7
100
AcDbEntity
  8
CURVE
100
AcDbLine
 62
253
  6
CONTINUOUS
 10
-23.779917518
 20
24.2628779721
 11
-23.779917518
 21
24.7039493376
  0
LINE
  5
3A8
100
AcDbEntity
  8
CURVE
100
AcDbLine
 62
253
  6
CONTINUOUS
 10
-23.779917518
 20
25.3802589315
 11
-23.779917518
 21
25.9095446879
  0
LINE
  5
3A9
100
AcDbEntity
  8
CURVE
100
AcDbLine
 62
253
  6
CONTINUOUS
 10
-23.770194035
 20
25.7331159061
 11
-23.770194035
 21
25.3802589315
  0
LINE
  5
3AA
100
AcDbEntity
  8
CURVE
100
AcDbLine
 62
253
  6
CONTINUOUS
 10
-23.7663950152
 20
17.3141197886
 11
-23.7662478208
 21
16.8669338221
  0
LINE
  5
3AB
100
AcDbEntity
  8
CURVE
100
AcDbLine
 62
7
  6
CONTINUOUS
 10
-23.7659168706
 20
28.469131094
 11
-23.7659168706
 21
28.832347094
  0
LINE
  5
3AC
100
AcDbEntity
  8
CURVE
100
AcDbLine
 62
253
  6
CONTINUOUS
 10
-23.7637117123
 20
23.3219255736
 11
-23.7637117123
 21
23.7924018097
  0
LINE
  5
3AD
100
AcDbEntity
  8
CURVE
100
AcDbLine
 62
7
  6
CONTINUOUS
 10
-23.7575883283
 20
28.8619277453
 11
-23.7575072611
 21
28.469131094
  0
LINE
  5
3AE
100
AcDbEntity
  8
CURVE
100
AcDbLine
 62
253
  6
CONTINUOUS
 10
-23.7572293896
 20
24.7039493376
 11
-23.7572293896
 21
24.2628779721
  0
LINE
  5
3AF
100
AcDbEntity
  8
CURVE
100
AcDbLine
 62
253
  6
CONTINUOUS
 10
-23.7572293896
 20
25.3802589315
 11
-23.7572293896
 21
25.9095446879
  0
LINE
  5
3B0
100
AcDbEntity
  8
CURVE
100
AcDbLine
 62
7
  6
CONTINUOUS
 10
-23.7571549506
 20
40.153604094
 11
-23.7571549506
 21
39.322226094
  0
LINE
  5
3B1
100
AcDbEntity
  8
CURVE
100
AcDbLine
 62
7
  6
CONTINUOUS
 10
-23.7571549506
 20
34.128678094
 11
-23.7571549506
 21
33.297191094
  0
LINE
  5
3B2
100
AcDbEntity
  8
CURVE
100
AcDbLine
 62
253
  6
CONTINUOUS
 10
-23.7560771844
 20
14.611235094
 11
-23.7560771844
 21
15.190739094
  0
LINE
  5
3B3
100
AcDbEntity
  8
CURVE
100
AcDbLine
 62
7
  6
CONTINUOUS
 10
-23.7487453411
 20
33.136547094
 11
-23.7487453411
 21
34.285284094
  0
LINE
  5
3B4
100
AcDbEntity
  8
CURVE
100
AcDbLine
 62
7
  6
CONTINUOUS
 10
-23.7487453411
 20
39.161581094
 11
-23.7487453411
 21
40.310319094
  0
LINE
  5
3B5
100
AcDbEntity
  8
CURVE
100
AcDbLine
 62
253
  6
CONTINUOUS
 10
-23.7482609186
 20
15.311702094
 11
-23.7482609186
 21
14.487423094
  0
LINE
  5
3B6
100
AcDbEntity
  8
CURVE
100
AcDbLine
 62
7
  6
CONTINUOUS
 10
-23.7464296548
 20
30.939474094
 11
-23.7464296548
 21
32.012473094
  0
LINE
  5
3B7
100
AcDbEntity
  8
CURVE
100
AcDbLine
 62
253
  6
CONTINUOUS
 10
-23.738159713
 20
16.106431094
 11
-23.738159713
 21
15.468500094
  0
LINE
  5
3B8
100
AcDbEntity
  8
CURVE
100
AcDbLine
 62
253
  6
CONTINUOUS
 10
-23.738159713
 20
14.320406094
 11
-23.738159713
 21
13.721702094
  0
LINE
  5
3B9
100
AcDbEntity
  8
CURVE
100
AcDbLine
 62
253
  6
CONTINUOUS
 10
-23.738159713
 20
13.626658094
 11
-23.738159713
 21
13.034542094
  0
LINE
  5
3BA
100
AcDbEntity
  8
CURVE
100
AcDbLine
 62
253
  6
CONTINUOUS
 10
-23.738159713
 20
12.190519094
 11
-23.738159713
 21
12.105630094
  0
LINE
  5
3BB
100
AcDbEntity
  8
CURVE
100
AcDbLine
 62
253
  6
CONTINUOUS
 10
-23.738159713
 20
11.264956094
 11
-23.738159713
 21
10.685908094
  0
LINE
  5
3BC
100
AcDbEntity
  8
CURVE
100
AcDbLine
 62
253
  6
CONTINUOUS
 10
-23.738159713
 20
8.598118094
 11
-23.738159713
 21
8.064722094
  0
LINE
  5
3BD
100
AcDbEntity
  8
CURVE
100
AcDbLine
 62
253
  6
CONTINUOUS
 10
-23.738159713
 20
9.754800094
 11
-23.738159713
 21
10.360071094
  0
LINE
  5
3BE
100
AcDbEntity
  8
CURVE
100
AcDbLine
 62
253
  6
CONTINUOUS
 10
-23.7381597068
 20
16.2841677496
 11
-23.7381597068
 21
16.8870037107
  0
LINE
  5
3BF
100
AcDbEntity
  8
CURVE
100
AcDbLine
 62
253
  6
CONTINUOUS
 10
-23.7381597068
 20
17.8138933556
 11
-23.7381597068
 21
18.3960940791
  0
LINE
  5
3C0
100
AcDbEntity
  8
CURVE
100
AcDbLine
 62
7
  6
CONTINUOUS
 10
-23.7380200452
 20
38.056933094
 11
-23.7380200452
 21
37.173281094
  0
LINE
  5
3C1
100
AcDbEntity
  8
CURVE
100
AcDbLine
 62
7
  6
CONTINUOUS
 10
-23.7380200452
 20
36.020505094
 11
-23.7380200452
 21
35.438060094
  0
LINE
  5
3C2
100
AcDbEntity
  8
CURVE
100
AcDbLine
 62
7
  6
CONTINUOUS
 10
-23.7380200452
 20
32.012473094
 11
-23.7380200452
 21
30.316868094
  0
LINE
  5
3C3
100
AcDbEntity
  8
CURVE
100
AcDbLine
 62
7
  6
CONTINUOUS
 10
-23.7380200452
 20
27.846525094
 11
-23.7380200452
 21
28.469131094
  0
LINE
  5
3C4
100
AcDbEntity
  8
CURVE
100
AcDbLine
 62
7
  6
CONTINUOUS
 10
-23.7380200452
 20
32.325249094
 11
-23.7380200452
 21
32.919699094
  0
LINE
  5
3C5
100
AcDbEntity
  8
CURVE
100
AcDbLine
 62
7
  6
CONTINUOUS
 10
-23.7380200452
 20
34.494166094
 11
-23.7380200452
 21
35.120809094
  0
LINE
  5
3C6
100
AcDbEntity
  8
CURVE
100
AcDbLine
 62
7
  6
CONTINUOUS
 10
-23.7380200452
 20
38.350175094
 11
-23.7380200452
 21
38.944624094
  0
LINE
  5
3C7
100
AcDbEntity
  8
CURVE
100
AcDbLine
 62
7
  6
CONTINUOUS
 10
-23.7380200452
 20
40.519309094
 11
-23.7380200452
 21
41.145735094
  0
LINE
  5
3C8
100
AcDbEntity
  8
CURVE
100
AcDbLine
 62
253
  6
CONTINUOUS
 10
-23.73105078
 20
39.052877757
 11
-23.73105078
 21
38.510020873
  0
LINE
  5
3C9
100
AcDbEntity
  8
CURVE
100
AcDbLine
 62
253
  6
CONTINUOUS
 10
-23.73105078
 20
40.1385924309
 11
-23.73105078
 21
40.545735094
  0
LINE
  5
3CA
100
AcDbEntity
  8
CURVE
100
AcDbLine
 62
253
  6
CONTINUOUS
 10
-23.7205793361
 20
7.145735094
 11
-23.7205793361
 21
7.6100208193
  0
LINE
  5
3CB
100
AcDbEntity
  8
CURVE
100
AcDbLine
 62
253
  6
CONTINUOUS
 10
-23.7205793361
 20
8.3528779179
 11
-23.7205793361
 21
8.8171636432
  0
LINE
  5
3CC
100
AcDbEntity
  8
CURVE
100
AcDbLine
 62
253
  6
CONTINUOUS
 10
-23.7205793361
 20
9.1885921925
 11
-23.7205793361
 21
9.4671636432
  0
LINE
  5
3CD
100
AcDbEntity
  8
CURVE
100
AcDbLine
 62
253
  6
CONTINUOUS
 10
-23.7205793361
 20
11.2314492911
 11
-23.7205793361
 21
11.695735094
  0
LINE
  5
3CE
100
AcDbEntity
  8
CURVE
100
AcDbLine
 62
253
  6
CONTINUOUS
 10
-23.7205793361
 20
15.4719254225
 11
-23.7205793361
 21
16.0290686339
  0
LINE
  5
3CF
100
AcDbEntity
  8
CURVE
100
AcDbLine
 62
253
  6
CONTINUOUS
 10
-23.7205793361
 20
16.4004970282
 11
-23.7205793361
 21
16.8647828311
  0
LINE
  5
3D0
100
AcDbEntity
  8
CURVE
100
AcDbLine
 62
253
  6
CONTINUOUS
 10
-23.7205793361
 20
22.5338303208
 11
-23.7205793361
 21
23.2766874969
  0
LINE
  5
3D1
100
AcDbEntity
  8
CURVE
100
AcDbLine
 62
253
  6
CONTINUOUS
 10
-23.7168395356
 20
39.052877757
 11
-23.7168395356
 21
38.781449315
  0
LINE
  5
3D2
100
AcDbEntity
  8
CURVE
100
AcDbLine
 62
253
  6
CONTINUOUS
 10
-23.7168395356
 20
40.1385924309
 11
-23.7168395356
 21
40.545735094
  0
LINE
  5
3D3
100
AcDbEntity
  8
CURVE
100
AcDbLine
 62
253
  6
CONTINUOUS
 10
-23.7108558531
 20
15.8433544368
 11
-23.7108558531
 21
15.4719254225
  0
LINE
  5
3D4
100
AcDbEntity
  8
CURVE
100
AcDbLine
 62
253
  6
CONTINUOUS
 10
-23.7108558531
 20
8.5385921925
 11
-23.7108558531
 21
8.8171636432
  0
LINE
  5
3D5
100
AcDbEntity
  8
CURVE
100
AcDbLine
 62
253
  6
CONTINUOUS
 10
-23.7092352719
 20
9.1885921925
 11
-23.7092352719
 21
9.6528779954
  0
LINE
  5
3D6
100
AcDbEntity
  8
CURVE
100
AcDbLine
 62
253
  6
CONTINUOUS
 10
-23.7076146914
 20
16.8647828311
 11
-23.7076146914
 21
16.4004970282
  0
LINE
  5
3D7
100
AcDbEntity
  8
CURVE
100
AcDbLine
 62
253
  6
CONTINUOUS
 10
-23.7076146914
 20
7.6100208193
 11
-23.7076146914
 21
7.145735094
  0
LINE
  5
3D8
100
AcDbEntity
  8
CURVE
100
AcDbLine
 62
253
  6
CONTINUOUS
 10
-23.7049968304
 20
36.881449315
 11
-23.7049968304
 21
35.9314494282
  0
LINE
  5
3D9
100
AcDbEntity
  8
CURVE
100
AcDbLine
 62
253
  6
CONTINUOUS
 10
-23.7043735304
 20
23.7719255626
 11
-23.7043735304
 21
24.2671636283
  0
LINE
  5
3DA
100
AcDbEntity
  8
0
100
AcDbLine
 62
7
  6
CONTINUOUS
 10
-23.6926368764
 20
41.7668232703
 11
-23.6926368764
 21
6.5246469176
  0
LINE
  5
3DB
100
AcDbEntity
  8
RACCORDO
100
AcDbLine
 62
7
  6
CONTINUOUS
 10
-23.6926368764
 20
41.7668232703
 11
-23.6926368764
 21
6.5246469176
  0
LINE
  5
3DC
100
AcDbEntity
  8
RACCORDO
100
AcDbLine
 62
7
  6
CONTINUOUS
 10
-23.6779126326
 20
40.7369594841
 11
-23.6779126326
 21
40.595735094
  0
LINE
  5
3DD
100
AcDbEntity
  8
ASSI
100
AcDbLine
 62
7
  6
CONTINUOUS
 10
-23.6779126326
 20
40.7369594841
 11
-23.6779126326
 21
40.595735094
  0
LINE
  5
3DE
100
AcDbEntity
  8
RACCORDO
100
AcDbLine
 62
7
  6
CONTINUOUS
 10
-23.6779126326
 20
35.695735094
 11
-23.6779126326
 21
35.595735094
  0
LINE
  5
3DF
100
AcDbEntity
  8
ASSI
100
AcDbLine
 62
7
  6
CONTINUOUS
 10
-23.6779126326
 20
35.695735094
 11
-23.6779126326
 21
35.595735094
  0
LINE
  5
3E0
100
AcDbEntity
  8
RACCORDO
100
AcDbLine
 62
7
  6
CONTINUOUS
 10
-23.6779126326
 20
30.695735094
 11
-23.6779126326
 21
30.595735094
  0
LINE
  5
3E1
100
AcDbEntity
  8
ASSI
100
AcDbLine
 62
7
  6
CONTINUOUS
 10
-23.6779126326
 20
30.695735094
 11
-23.6779126326
 21
30.595735094
  0
LINE
  5
3E2
100
AcDbEntity
  8
RACCORDO
100
AcDbLine
 62
7
  6
CONTINUOUS
 10
-23.6779126326
 20
25.695735094
 11
-23.6779126326
 21
25.595735094
  0
LINE
  5
3E3
100
AcDbEntity
  8
ASSI
100
AcDbLine
 62
7
  6
CONTINUOUS
 10
-23.6779126326
 20
25.695735094
 11
-23.6779126326
 21
25.595735094
  0
LINE
  5
3E4
100
AcDbEntity
  8
RACCORDO
100
AcDbLine
 62
7
  6
CONTINUOUS
 10
-23.6779126326
 20
20.695735094
 11
-23.6779126326
 21
7.5545107038
  0
LINE
  5
3E5
100
AcDbEntity
  8
ASSI
100
AcDbLine
 62
7
  6
CONTINUOUS
 10
-23.6779126326
 20
20.695735094
 11
-23.6779126326
 21
7.5545107038
  0
LINE
  5
3E6
100
AcDbEntity
  8
ASSI
100
AcDbLine
 62
7
  6
CONTINUOUS
 10
-23.6648223309
 20
40.508962989
 11
-23.6648223309
 21
35.7825071989
  0
LINE
  5
3E7
100
AcDbEntity
  8
ASSI
100
AcDbLine
 62
7
  6
CONTINUOUS
 10
-23.6648223309
 20
35.508962989
 11
-23.6648223309
 21
30.7825071989
  0
LINE
  5
3E8
100
AcDbEntity
  8
ASSI
100
AcDbLine
 62
7
  6
CONTINUOUS
 10
-23.6648223309
 20
30.508962989
 11
-23.6648223309
 21
25.7825071989
  0
LINE
  5
3E9
100
AcDbEntity
  8
ASSI
100
AcDbLine
 62
7
  6
CONTINUOUS
 10
-23.6648223309
 20
25.508962989
 11
-23.6648223309
 21
20.7825071989
  0
LINE
  5
3EA
100
AcDbEntity
  8
RACCORDO
100
AcDbLine
 62
7
  6
CONTINUOUS
 10
-23.6021089386
 20
23.4170010278
 11
-23.6019754344
 21
23.119398661
  0
LINE
  5
3EB
100
AcDbEntity
  8
ASSI
100
AcDbLine
 62
7
  6
CONTINUOUS
 10
-23.6021274238
 20
28.4355583063
 11
-23.6019746832
 21
28.1291314129
  0
LINE
  5
3EC
100
AcDbEntity
  8
ASSI
100
AcDbLine
 62
7
  6
CONTINUOUS
 10
-23.6021274238
 20
33.4355583063
 11
-23.6019746832
 21
33.1291314129
  0
LINE
  5
3ED
100
AcDbEntity
  8
ASSI
100
AcDbLine
 62
7
  6
CONTINUOUS
 10
-23.6021274238
 20
38.4355583063
 11
-23.6019746832
 21
38.1291314129
  0
LINE
  5
3EE
100
AcDbEntity
  8
RACCORDO
100
AcDbLine
 62
7
  6
CONTINUOUS
 10
-23.3148223309
 20
-0.1042691368
 11
-23.3148223309
 21
1.745735094
  0
LINE
  5
3EF
100
AcDbEntity
  8
RACCORDO
100
AcDbLine
 62
7
  6
CONTINUOUS
 10
-23.3148223309
 20
46.545735094
 11
-23.3148223309
 21
48.3957393247
  0
LINE
  5
3F0
100
AcDbEntity
  8
RACCORDO
100
AcDbLine
 62
253
  6
CONTINUOUS
 10
-23.3104504969
 20
48.3913674907
 11
-23.3104504969
 21
47.9900726612
  0
LINE
  5
3F1
100
AcDbEntity
  8
RACCORDO
100
AcDbLine
 62
253
  6
CONTINUOUS
 10
-23.3104504969
 20
0.3013975267
 11
-23.3104504969
 21
-0.0998973028
  0
LINE
  5
3F2
100
AcDbEntity
  8
RACCORDO
100
AcDbLine
 62
253
  6
CONTINUOUS
 10
-23.3019915507
 20
38.0705370517
 11
-23.3020941898
 21
38.3700920511
  0
LINE
  5
3F3
100
AcDbEntity
  8
ASSI
100
AcDbLine
 62
253
  6
CONTINUOUS
 10
-23.3019915507
 20
38.0705370517
 11
-23.3020941898
 21
38.3700920511
  0
LINE
  5
3F4
100
AcDbEntity
  8
RACCORDO
100
AcDbLine
 62
253
  6
CONTINUOUS
 10
-23.3019915507
 20
28.0705370517
 11
-23.3020941898
 21
28.3700920511
  0
LINE
  5
3F5
100
AcDbEntity
  8
ASSI
100
AcDbLine
 62
253
  6
CONTINUOUS
 10
-23.3019915507
 20
28.0705370517
 11
-23.3020941898
 21
28.3700920511
  0
LINE
  5
3F6
100
AcDbEntity
  8
RACCORDO
100
AcDbLine
 62
253
  6
CONTINUOUS
 10
-23.3019915507
 20
23.0705370517
 11
-23.3020941898
 21
23.3700920511
  0
LINE
  5
3F7
100
AcDbEntity
  8
ASSI
100
AcDbLine
 62
253
  6
CONTINUOUS
 10
-23.3019915507
 20
23.0705370517
 11
-23.3020941898
 21
23.3700920511
  0
LINE
  5
3F8
100
AcDbEntity
  8
RACCORDO
100
AcDbLine
 62
7
  6
CONTINUOUS
 10
-23.6020754511
 20
38.3799290758
 11
-23.6019815791
 21
38.0822092307
  0
LINE
  5
3F9
100
AcDbEntity
  8
RACCORDO
100
AcDbLine
 62
7
  6
CONTINUOUS
 10
-23.6020754511
 20
33.3799290758
 11
-23.6019815791
 21
33.0822092307
  0
LINE
  5
3FA
100
AcDbEntity
  8
RACCORDO
100
AcDbLine
 62
7
  6
CONTINUOUS
 10
-23.6020754511
 20
28.3799290758
 11
-23.6019815791
 21
28.0822092307
  0
LINE
  5
3FB
100
AcDbEntity
  8
CURVE
100
AcDbLine
 62
253
  6
CONTINUOUS
 10
-23.7805238379
 20
17.0468869493
 11
-23.7805853517
 21
17.228326608
  0
LINE
  5
3FC
100
AcDbEntity
  8
CURVE
100
AcDbLine
 62
253
  6
CONTINUOUS
 10
-23.7893839138
 20
17.2257561564
 11
-23.7885943798
 21
16.4573331239
  0
LINE
  5
3FD
100
AcDbEntity
  8
RACCORDO
100
AcDbLine
 62
253
  6
CONTINUOUS
 10
-23.3020946228
 20
32.9209683057
 11
-23.3019914101
 21
33.2205258178
  0
LINE
  5
3FE
100
AcDbEntity
  8
ASSI
100
AcDbLine
 62
253
  6
CONTINUOUS
 10
-23.3020946228
 20
32.9209683057
 11
-23.3019914101
 21
33.2205258178
  0
LINE
  5
3FF
100
AcDbEntity
  8
ASSI
100
AcDbLine
 62
7
  6
CONTINUOUS
 10
-23.6019751826
 20
23.1674677524
 11
-23.602120759
 21
22.8627064309
  0
LINE
  5
400
100
AcDbEntity
  8
RACCORDO
100
AcDbLine
 62
7
  6
CONTINUOUS
 10
-23.6019754344
 20
23.119398661
 11
-23.6021624061
 21
22.8241234129
  0
LINE
  5
401
100
AcDbEntity
  8
RACCORDO
100
AcDbLine
 62
7
  6
CONTINUOUS
 10
-23.6019815791
 20
38.0822092307
 11
-23.6022063521
 21
37.7877524661
  0
LINE
  5
402
100
AcDbEntity
  8
ASSI
100
AcDbLine
 62
7
  6
CONTINUOUS
 10
-23.6019746832
 20
38.1291314129
 11
-23.6022064393
 21
37.7876839576
  0
LINE
  5
403
100
AcDbEntity
  8
RACCORDO
100
AcDbLine
 62
7
  6
CONTINUOUS
 10
-23.6019815791
 20
33.0822092307
 11
-23.6022063521
 21
32.7877524661
  0
LINE
  5
404
100
AcDbEntity
  8
ASSI
100
AcDbLine
 62
7
  6
CONTINUOUS
 10
-23.6019746832
 20
33.1291314129
 11
-23.6022064393
 21
32.7876839576
  0
LINE
  5
405
100
AcDbEntity
  8
ASSI
100
AcDbLine
 62
7
  6
CONTINUOUS
 10
-23.6019746832
 20
28.1291314129
 11
-23.6022064393
 21
27.7876839576
  0
LINE
  5
406
100
AcDbEntity
  8
RACCORDO
100
AcDbLine
 62
253
  6
CONTINUOUS
 10
-23.3023022612
 20
37.7725779414
 11
-23.3019915507
 21
38.0705370517
  0
LINE
  5
407
100
AcDbEntity
  8
ASSI
100
AcDbLine
 62
253
  6
CONTINUOUS
 10
-23.3023022612
 20
37.7725779414
 11
-23.3019915507
 21
38.0705370517
  0
LINE
  5
408
100
AcDbEntity
  8
RACCORDO
100
AcDbLine
 62
253
  6
CONTINUOUS
 10
-23.3023022612
 20
27.7725779414
 11
-23.3019915507
 21
28.0705370517
  0
LINE
  5
409
100
AcDbEntity
  8
ASSI
100
AcDbLine
 62
253
  6
CONTINUOUS
 10
-23.3023022612
 20
27.7725779414
 11
-23.3019915507
 21
28.0705370517
  0
LINE
  5
40A
100
AcDbEntity
  8
RACCORDO
100
AcDbLine
 62
253
  6
CONTINUOUS
 10
-23.3023022612
 20
22.7725779414
 11
-23.3019915507
 21
23.0705370517
  0
LINE
  5
40B
100
AcDbEntity
  8
ASSI
100
AcDbLine
 62
253
  6
CONTINUOUS
 10
-23.3023022612
 20
22.7725779414
 11
-23.3019915507
 21
23.0705370517
  0
LINE
  5
40C
100
AcDbEntity
  8
CURVE
100
AcDbLine
 62
7
  6
CONTINUOUS
 10
-23.7802147233
 20
28.469131094
 11
-23.78018245
 21
28.8477601508
  0
LINE
  5
40D
100
AcDbEntity
  8
ASSI
100
AcDbLine
 62
7
  6
CONTINUOUS
 10
-23.602120759
 20
22.8627064309
 11
-23.602579477
 21
22.5673032435
  0
LINE
  5
40E
100
AcDbEntity
  8
RACCORDO
100
AcDbLine
 62
253
  6
CONTINUOUS
 10
-23.3026128313
 20
32.6260529715
 11
-23.3020946228
 21
32.9209683057
  0
LINE
  5
40F
100
AcDbEntity
  8
ASSI
100
AcDbLine
 62
253
  6
CONTINUOUS
 10
-23.3026128313
 20
32.6260529715
 11
-23.3020946228
 21
32.9209683057
  0
LINE
  5
410
100
AcDbEntity
  8
RACCORDO
100
AcDbLine
 62
7
  6
CONTINUOUS
 10
-23.6021624061
 20
22.8241234129
 11
-23.6026424411
 21
22.5385388991
  0
LINE
  5
411
100
AcDbEntity
  8
ASSI
100
AcDbLine
 62
7
  6
CONTINUOUS
 10
-23.6022064393
 20
37.7876839576
 11
-23.6027422794
 21
37.4957796106
  0
LINE
  5
412
100
AcDbEntity
  8
RACCORDO
100
AcDbLine
 62
7
  6
CONTINUOUS
 10
-23.6022063521
 20
37.7877524661
 11
-23.6027228436
 21
37.5038590164
  0
LINE
  5
413
100
AcDbEntity
  8
ASSI
100
AcDbLine
 62
7
  6
CONTINUOUS
 10
-23.6022064393
 20
32.7876839576
 11
-23.6027422794
 21
32.4957796106
  0
LINE
  5
414
100
AcDbEntity
  8
RACCORDO
100
AcDbLine
 62
7
  6
CONTINUOUS
 10
-23.6022063521
 20
32.7877524661
 11
-23.6027228436
 21
32.5038590164
  0
LINE
  5
415
100
AcDbEntity
  8
ASSI
100
AcDbLine
 62
7
  6
CONTINUOUS
 10
-23.6022064393
 20
27.7876839576
 11
-23.6027422794
 21
27.4957796106
  0
LINE
  5
416
100
AcDbEntity
  8
RACCORDO
100
AcDbLine
 62
7
  6
CONTINUOUS
 10
-23.6019815791
 20
28.0822092307
 11
-23.6027228436
 21
27.5038590164
  0
LINE
  5
417
100
AcDbEntity
  8
RACCORDO
100
AcDbLine
 62
253
  6
CONTINUOUS
 10
-23.3030214409
 20
37.4821179344
 11
-23.3023022612
 21
37.7725779414
  0
LINE
  5
418
100
AcDbEntity
  8
ASSI
100
AcDbLine
 62
253
  6
CONTINUOUS
 10
-23.3030214409
 20
37.4821179344
 11
-23.3023022612
 21
37.7725779414
  0
LINE
  5
419
100
AcDbEntity
  8
RACCORDO
100
AcDbLine
 62
253
  6
CONTINUOUS
 10
-23.3030214409
 20
27.4821179344
 11
-23.3023022612
 21
27.7725779414
  0
LINE
  5
41A
100
AcDbEntity
  8
ASSI
100
AcDbLine
 62
253
  6
CONTINUOUS
 10
-23.3030214409
 20
27.4821179344
 11
-23.3023022612
 21
27.7725779414
  0
LINE
  5
41B
100
AcDbEntity
  8
RACCORDO
100
AcDbLine
 62
253
  6
CONTINUOUS
 10
-23.3030214409
 20
22.4821179344
 11
-23.3023022612
 21
22.7725779414
  0
LINE
  5
41C
100
AcDbEntity
  8
ASSI
100
AcDbLine
 62
253
  6
CONTINUOUS
 10
-23.3030214409
 20
22.4821179344
 11
-23.3023022612
 21
22.7725779414
  0
LINE
  5
41D
100
AcDbEntity
  8
ASSI
100
AcDbLine
 62
7
  6
CONTINUOUS
 10
-23.602579477
 20
22.5673032435
 11
-23.60333
 21
22.2884601911
  0
LINE
  5
41E
100
AcDbEntity
  8
CURVE
100
AcDbLine
 62
253
  6
CONTINUOUS
 10
-23.7805853517
 20
17.228326608
 11
-23.7803452622
 21
17.3742920309
  0
LINE
  5
41F
100
AcDbEntity
  8
RACCORDO
100
AcDbLine
 62
7
  6
CONTINUOUS
 10
-23.6026424411
 20
22.5385388991
 11
-23.6033931176
 21
22.2692589452
  0
LINE
  5
420
100
AcDbEntity
  8
ASSI
100
AcDbLine
 62
7
  6
CONTINUOUS
 10
-23.6027422794
 20
37.4957796106
 11
-23.6035553175
 21
37.2220011103
  0
LINE
  5
421
100
AcDbEntity
  8
RACCORDO
100
AcDbLine
 62
7
  6
CONTINUOUS
 10
-23.6027228436
 20
37.5038590164
 11
-23.603502764
 21
37.236998611
  0
LINE
  5
422
100
AcDbEntity
  8
ASSI
100
AcDbLine
 62
7
  6
CONTINUOUS
 10
-23.6027422794
 20
32.4957796106
 11
-23.6035553175
 21
32.2220011103
  0
LINE
  5
423
100
AcDbEntity
  8
RACCORDO
100
AcDbLine
 62
7
  6
CONTINUOUS
 10
-23.6027228436
 20
32.5038590164
 11
-23.603502764
 21
32.236998611
  0
LINE
  5
424
100
AcDbEntity
  8
CURVE
100
AcDbLine
 62
253
  6
CONTINUOUS
 10
-23.7579610551
 20
16.8870037107
 11
-23.7578233851
 21
17.283709945
  0
LINE
  5
425
100
AcDbEntity
  8
RACCORDO
100
AcDbLine
 62
7
  6
CONTINUOUS
 10
-23.6027228436
 20
27.5038590164
 11
-23.603732553
 21
27.1734551988
  0
LINE
  5
426
100
AcDbEntity
  8
RACCORDO
100
AcDbLine
 62
253
  6
CONTINUOUS
 10
-23.3035294595
 20
32.3414776353
 11
-23.3026128313
 21
32.6260529715
  0
LINE
  5
427
100
AcDbEntity
  8
ASSI
100
AcDbLine
 62
253
  6
CONTINUOUS
 10
-23.3035294595
 20
32.3414776353
 11
-23.3026128313
 21
32.6260529715
  0
LINE
  5
428
100
AcDbEntity
  8
CURVE
100
AcDbLine
 62
7
  6
CONTINUOUS
 10
-23.7875886505
 20
29.2986132208
 11
-23.7886243329
 21
27.846525094
  0
LINE
  5
429
100
AcDbEntity
  8
ASSI
100
AcDbLine
 62
7
  6
CONTINUOUS
 10
-23.6027422794
 20
27.4957796106
 11
-23.6043195855
 21
27.0309325375
  0
LINE
  5
42A
100
AcDbEntity
  8
ASSI
100
AcDbLine
 62
7
  6
CONTINUOUS
 10
-23.60333
 20
22.2884601911
 11
-23.6043195855
 21
22.0309325375
  0
LINE
  5
42B
100
AcDbEntity
  8
RACCORDO
100
AcDbLine
 62
7
  6
CONTINUOUS
 10
-23.6033931176
 20
22.2692589452
 11
-23.6043671686
 21
22.0203820173
  0
LINE
  5
42C
100
AcDbEntity
  8
RACCORDO
100
AcDbLine
 62
253
  6
CONTINUOUS
 10
-23.3041355176
 20
37.2047969638
 11
-23.3030214409
 21
37.4821179344
  0
LINE
  5
42D
100
AcDbEntity
  8
ASSI
100
AcDbLine
 62
253
  6
CONTINUOUS
 10
-23.3041355176
 20
37.2047969638
 11
-23.3030214409
 21
37.4821179344
  0
LINE
  5
42E
100
AcDbEntity
  8
RACCORDO
100
AcDbLine
 62
253
  6
CONTINUOUS
 10
-23.3041355176
 20
27.2047969638
 11
-23.3030214409
 21
27.4821179344
  0
LINE
  5
42F
100
AcDbEntity
  8
ASSI
100
AcDbLine
 62
253
  6
CONTINUOUS
 10
-23.3041355176
 20
27.2047969638
 11
-23.3030214409
 21
27.4821179344
  0
LINE
  5
430
100
AcDbEntity
  8
RACCORDO
100
AcDbLine
 62
253
  6
CONTINUOUS
 10
-23.3041355176
 20
22.2047969638
 11
-23.3030214409
 21
22.4821179344
  0
LINE
  5
431
100
AcDbEntity
  8
ASSI
100
AcDbLine
 62
253
  6
CONTINUOUS
 10
-23.3041355176
 20
22.2047969638
 11
-23.3030214409
 21
22.4821179344
  0
LINE
  5
432
100
AcDbEntity
  8
CURVE
100
AcDbLine
 62
7
  6
CONTINUOUS
 10
-23.78018245
 20
28.8477601508
 11
-23.779695223
 21
29.0329041483
  0
LINE
  5
433
100
AcDbEntity
  8
ASSI
100
AcDbLine
 62
7
  6
CONTINUOUS
 10
-23.6035553175
 20
37.2220011103
 11
-23.6046021129
 21
36.9700684695
  0
LINE
  5
434
100
AcDbEntity
  8
RACCORDO
100
AcDbLine
 62
7
  6
CONTINUOUS
 10
-23.603502764
 20
37.236998611
 11
-23.6045038202
 21
36.9907728587
  0
LINE
  5
435
100
AcDbEntity
  8
ASSI
100
AcDbLine
 62
7
  6
CONTINUOUS
 10
-23.6035553175
 20
32.2220011103
 11
-23.6046021129
 21
31.9700684695
  0
LINE
  5
436
100
AcDbEntity
  8
RACCORDO
100
AcDbLine
 62
7
  6
CONTINUOUS
 10
-23.603502764
 20
32.236998611
 11
-23.6045038202
 21
31.9907728587
  0
LINE
  5
437
100
AcDbEntity
  8
CURVE
100
AcDbLine
 62
253
  6
CONTINUOUS
 10
-23.7880439889
 20
17.7068218541
 11
-23.7893839138
 21
17.2257561564
  0
LINE
  5
438
100
AcDbEntity
  8
RACCORDO
100
AcDbLine
 62
253
  6
CONTINUOUS
 10
-23.304830615
 20
32.0727152374
 11
-23.3035294595
 21
32.3414776353
  0
LINE
  5
439
100
AcDbEntity
  8
ASSI
100
AcDbLine
 62
253
  6
CONTINUOUS
 10
-23.304830615
 20
32.0727152374
 11
-23.3035294595
 21
32.3414776353
  0
LINE
  5
43A
100
AcDbEntity
  8
ASSI
100
AcDbLine
 62
7
  6
CONTINUOUS
 10
-23.6043195855
 20
27.0309325375
 11
-23.60551755
 21
26.7961461356
  0
LINE
  5
43B
100
AcDbEntity
  8
ASSI
100
AcDbLine
 62
7
  6
CONTINUOUS
 10
-23.6043195855
 20
22.0309325375
 11
-23.60551755
 21
21.7961461356
  0
LINE
  5
43C
100
AcDbEntity
  8
CURVE
100
AcDbLine
 62
253
  6
CONTINUOUS
 10
-23.7205793361
 20
9.4671636432
 11
-23.7200391419
 21
9.5600207418
  0
LINE
  5
43D
100
AcDbEntity
  8
RACCORDO
100
AcDbLine
 62
7
  6
CONTINUOUS
 10
-23.6043671686
 20
22.0203820173
 11
-23.605692396
 21
21.7662096552
  0
LINE
  5
43E
100
AcDbEntity
  8
RACCORDO
100
AcDbLine
 62
7
  6
CONTINUOUS
 10
-23.6045038202
 20
36.9907728587
 11
-23.605852069
 21
36.739690683
  0
LINE
  5
43F
100
AcDbEntity
  8
ASSI
100
AcDbLine
 62
7
  6
CONTINUOUS
 10
-23.6046021129
 20
36.9700684695
 11
-23.6058435176
 21
36.741091694
  0
LINE
  5
440
100
AcDbEntity
  8
RACCORDO
100
AcDbLine
 62
7
  6
CONTINUOUS
 10
-23.6045038202
 20
31.9907728587
 11
-23.605852069
 21
31.739690683
  0
LINE
  5
441
100
AcDbEntity
  8
ASSI
100
AcDbLine
 62
7
  6
CONTINUOUS
 10
-23.6046021129
 20
31.9700684695
 11
-23.6058435176
 21
31.741091694
  0
LINE
  5
442
100
AcDbEntity
  8
RACCORDO
100
AcDbLine
 62
253
  6
CONTINUOUS
 10
-23.3056157578
 20
36.9458888889
 11
-23.3041355176
 21
37.2047969638
  0
LINE
  5
443
100
AcDbEntity
  8
ASSI
100
AcDbLine
 62
253
  6
CONTINUOUS
 10
-23.3056157578
 20
36.9458888889
 11
-23.3041355176
 21
37.2047969638
  0
LINE
  5
444
100
AcDbEntity
  8
RACCORDO
100
AcDbLine
 62
253
  6
CONTINUOUS
 10
-23.3056157578
 20
26.9458888889
 11
-23.3041355176
 21
27.2047969638
  0
LINE
  5
445
100
AcDbEntity
  8
ASSI
100
AcDbLine
 62
253
  6
CONTINUOUS
 10
-23.3056157578
 20
26.9458888889
 11
-23.3041355176
 21
27.2047969638
  0
LINE
  5
446
100
AcDbEntity
  8
RACCORDO
100
AcDbLine
 62
253
  6
CONTINUOUS
 10
-23.3056157578
 20
21.9458888889
 11
-23.3041355176
 21
22.2047969638
  0
LINE
  5
447
100
AcDbEntity
  8
ASSI
100
AcDbLine
 62
253
  6
CONTINUOUS
 10
-23.3056157578
 20
21.9458888889
 11
-23.3041355176
 21
22.2047969638
  0
LINE
  5
448
100
AcDbEntity
  8
RACCORDO
100
AcDbLine
 62
7
  6
CONTINUOUS
 10
-23.603732553
 20
27.1734551988
 11
-23.6065156972
 21
26.6370818629
  0
LINE
  5
449
100
AcDbEntity
  8
ASSI
100
AcDbLine
 62
7
  6
CONTINUOUS
 10
-23.60551755
 20
26.7961461356
 11
-23.6068844996
 21
26.5847364733
  0
LINE
  5
44A
100
AcDbEntity
  8
ASSI
100
AcDbLine
 62
7
  6
CONTINUOUS
 10
-23.60551755
 20
21.7961461356
 11
-23.6068844996
 21
21.5847364733
  0
LINE
  5
44B
100
AcDbEntity
  8
CURVE
100
AcDbLine
 62
253
  6
CONTINUOUS
 10
-23.7803452622
 20
17.3742920309
 11
-23.7798771379
 21
17.4608546571
  0
LINE
  5
44C
100
AcDbEntity
  8
RACCORDO
100
AcDbLine
 62
7
  6
CONTINUOUS
 10
-23.605692396
 20
21.7662096552
 11
-23.6070383352
 21
21.5637676605
  0
LINE
  5
44D
100
AcDbEntity
  8
RACCORDO
100
AcDbLine
 62
253
  6
CONTINUOUS
 10
-23.30648994
 20
31.8249002435
 11
-23.304830615
 21
32.0727152374
  0
LINE
  5
44E
100
AcDbEntity
  8
ASSI
100
AcDbLine
 62
253
  6
CONTINUOUS
 10
-23.30648994
 20
31.8249002435
 11
-23.304830615
 21
32.0727152374
  0
LINE
  5
44F
100
AcDbEntity
  8
RACCORDO
100
AcDbLine
 62
7
  6
CONTINUOUS
 10
-23.605852069
 20
36.739690683
 11
-23.6072168566
 21
36.5400243829
  0
LINE
  5
450
100
AcDbEntity
  8
RACCORDO
100
AcDbLine
 62
7
  6
CONTINUOUS
 10
-23.605852069
 20
31.739690683
 11
-23.6072168566
 21
31.5400243829
  0
LINE
  5
451
100
AcDbEntity
  8
ASSI
100
AcDbLine
 62
7
  6
CONTINUOUS
 10
-23.6058435176
 20
36.741091694
 11
-23.6072509447
 21
36.5355598736
  0
LINE
  5
452
100
AcDbEntity
  8
ASSI
100
AcDbLine
 62
7
  6
CONTINUOUS
 10
-23.6058435176
 20
31.741091694
 11
-23.6072509447
 21
31.5355598736
  0
LINE
  5
453
100
AcDbEntity
  8
RACCORDO
100
AcDbLine
 62
7
  6
CONTINUOUS
 10
-23.6065156972
 20
26.6370818629
 11
-23.6079492846
 21
26.4485150356
  0
LINE
  5
454
100
AcDbEntity
  8
RACCORDO
100
AcDbLine
 62
253
  6
CONTINUOUS
 10
-23.3074411426
 20
36.7102519278
 11
-23.3056157578
 21
36.9458888889
  0
LINE
  5
455
100
AcDbEntity
  8
ASSI
100
AcDbLine
 62
253
  6
CONTINUOUS
 10
-23.3074411426
 20
36.7102519278
 11
-23.3056157578
 21
36.9458888889
  0
LINE
  5
456
100
AcDbEntity
  8
RACCORDO
100
AcDbLine
 62
253
  6
CONTINUOUS
 10
-23.3074411426
 20
26.7102519278
 11
-23.3056157578
 21
26.9458888889
  0
LINE
  5
457
100
AcDbEntity
  8
ASSI
100
AcDbLine
 62
253
  6
CONTINUOUS
 10
-23.3074411426
 20
26.7102519278
 11
-23.3056157578
 21
26.9458888889
  0
LINE
  5
458
100
AcDbEntity
  8
RACCORDO
100
AcDbLine
 62
253
  6
CONTINUOUS
 10
-23.3074411426
 20
21.7102519278
 11
-23.3056157578
 21
21.9458888889
  0
LINE
  5
459
100
AcDbEntity
  8
ASSI
100
AcDbLine
 62
253
  6
CONTINUOUS
 10
-23.3074411426
 20
21.7102519278
 11
-23.3056157578
 21
21.9458888889
  0
LINE
  5
45A
100
AcDbEntity
  8
CURVE
100
AcDbLine
 62
253
  6
CONTINUOUS
 10
-23.7578233851
 20
17.283709945
 11
-23.757386964
 21
17.3529456737
  0
LINE
  5
45B
100
AcDbEntity
  8
CURVE
100
AcDbLine
 62
7
  6
CONTINUOUS
 10
-23.7860204137
 20
29.5362030473
 11
-23.7875886505
 21
29.2986132208
  0
LINE
  5
45C
100
AcDbEntity
  8
ASSI
100
AcDbLine
 62
7
  6
CONTINUOUS
 10
-23.6068844996
 20
26.5847364733
 11
-23.6083957696
 21
26.3968594091
  0
LINE
  5
45D
100
AcDbEntity
  8
ASSI
100
AcDbLine
 62
7
  6
CONTINUOUS
 10
-23.6068844996
 20
21.5847364733
 11
-23.6083957696
 21
21.3968594091
  0
LINE
  5
45E
100
AcDbEntity
  8
RACCORDO
100
AcDbLine
 62
7
  6
CONTINUOUS
 10
-23.6070383352
 20
21.5637676605
 11
-23.6085153619
 21
21.3835255801
  0
LINE
  5
45F
100
AcDbEntity
  8
CURVE
100
AcDbLine
 62
7
  6
CONTINUOUS
 10
-23.779695223
 20
29.0329041483
 11
-23.7792267701
 21
29.1003242881
  0
LINE
  5
460
100
AcDbEntity
  8
ASSI
100
AcDbLine
 62
7
  6
CONTINUOUS
 10
-23.6072509447
 20
36.5355598736
 11
-23.608791113
 21
36.3535658988
  0
LINE
  5
461
100
AcDbEntity
  8
RACCORDO
100
AcDbLine
 62
7
  6
CONTINUOUS
 10
-23.6072168566
 20
36.5400243829
 11
-23.6087073371
 21
36.3625536266
  0
LINE
  5
462
100
AcDbEntity
  8
ASSI
100
AcDbLine
 62
7
  6
CONTINUOUS
 10
-23.6072509447
 20
31.5355598736
 11
-23.608791113
 21
31.3535658988
  0
LINE
  5
463
100
AcDbEntity
  8
RACCORDO
100
AcDbLine
 62
7
  6
CONTINUOUS
 10
-23.6072168566
 20
31.5400243829
 11
-23.6087073371
 21
31.3625536266
  0
LINE
  5
464
100
AcDbEntity
  8
CURVE
100
AcDbLine
 62
253
  6
CONTINUOUS
 10
-23.7869750416
 20
17.8597662719
 11
-23.7880439889
 21
17.7068218541
  0
LINE
  5
465
100
AcDbEntity
  8
RACCORDO
100
AcDbLine
 62
253
  6
CONTINUOUS
 10
-23.3084703102
 20
31.6025033537
 11
-23.30648994
 21
31.8249002435
  0
LINE
  5
466
100
AcDbEntity
  8
ASSI
100
AcDbLine
 62
253
  6
CONTINUOUS
 10
-23.3084703102
 20
31.6025033537
 11
-23.30648994
 21
31.8249002435
  0
LINE
  5
467
100
AcDbEntity
  8
RACCORDO
100
AcDbLine
 62
7
  6
CONTINUOUS
 10
-23.6079492846
 20
26.4485150356
 11
-23.6094919914
 21
26.2821069428
  0
LINE
  5
468
100
AcDbEntity
  8
RACCORDO
100
AcDbLine
 62
253
  6
CONTINUOUS
 10
-23.3148223309
 20
47.5562202422
 11
-23.3104504969
 21
47.9900726612
  0
LINE
  5
469
100
AcDbEntity
  8
RACCORDO
100
AcDbLine
 62
253
  6
CONTINUOUS
 10
-23.0655453287
 20
47.2683848248
 11
-23.0604547277
 21
47.7735663103
  0
LINE
  5
46A
100
AcDbEntity
  8
ASSI
100
AcDbLine
 62
7
  6
CONTINUOUS
 10
-23.6083957696
 20
26.3968594091
 11
-23.6100193553
 21
26.2324394202
  0
LINE
  5
46B
100
AcDbEntity
  8
ASSI
100
AcDbLine
 62
7
  6
CONTINUOUS
 10
-23.6083957696
 20
21.3968594091
 11
-23.6100193553
 21
21.2324394202
  0
LINE
  5
46C
100
AcDbEntity
  8
RACCORDO
100
AcDbLine
 62
7
  6
CONTINUOUS
 10
-23.6085153619
 20
21.3835255801
 11
-23.6100974433
 21
21.2253624207
  0
LINE
  5
46D
100
AcDbEntity
  8
RACCORDO
100
AcDbLine
 62
7
  6
CONTINUOUS
 10
-23.6087073371
 20
36.3625536266
 11
-23.6103022155
 21
36.2071276171
  0
LINE
  5
46E
100
AcDbEntity
  8
RACCORDO
100
AcDbLine
 62
7
  6
CONTINUOUS
 10
-23.6087073371
 20
31.3625536266
 11
-23.6103022155
 21
31.2071276171
  0
LINE
  5
46F
100
AcDbEntity
  8
ASSI
100
AcDbLine
 62
7
  6
CONTINUOUS
 10
-23.608791113
 20
36.3535658988
 11
-23.6104417638
 21
36.1949623115
  0
LINE
  5
470
100
AcDbEntity
  8
ASSI
100
AcDbLine
 62
7
  6
CONTINUOUS
 10
-23.608791113
 20
31.3535658988
 11
-23.6104417638
 21
31.1949623115
  0
LINE
  5
471
100
AcDbEntity
  8
CURVE
100
AcDbLine
 62
253
  6
CONTINUOUS
 10
-23.7611596551
 20
17.90588025
 11
-23.761778507
 21
17.8402908039
  0
LINE
  5
472
100
AcDbEntity
  8
CURVE
100
AcDbLine
 62
253
  6
CONTINUOUS
 10
-23.7798771379
 20
17.4608546571
 11
-23.7792015941
 21
17.5304827412
  0
LINE
  5
473
100
AcDbEntity
  8
RACCORDO
100
AcDbLine
 62
7
  6
CONTINUOUS
 10
-23.6094919914
 20
26.2821069428
 11
-23.6111337276
 21
26.1375735014
  0
LINE
  5
474
100
AcDbEntity
  8
CURVE
100
AcDbLine
 62
253
  6
CONTINUOUS
 10
-23.7168395356
 20
40.1385924309
 11
-23.7192080753
 21
39.9576398343
  0
LINE
  5
475
100
AcDbEntity
  8
CURVE
100
AcDbLine
 62
253
  6
CONTINUOUS
 10
-23.757386964
 20
17.3529456737
 11
-23.7567711775
 21
17.4084968373
  0
LINE
  5
476
100
AcDbEntity
  8
CURVE
100
AcDbLine
 62
7
  6
CONTINUOUS
 10
-23.7847134817
 20
29.6516866451
 11
-23.7860204137
 21
29.5362030473
  0
LINE
  5
477
100
AcDbEntity
  8
ASSI
100
AcDbLine
 62
7
  6
CONTINUOUS
 10
-23.6100193553
 20
26.2324394202
 11
-23.6117375525
 21
26.0911660497
  0
LINE
  5
478
100
AcDbEntity
  8
ASSI
100
AcDbLine
 62
7
  6
CONTINUOUS
 10
-23.6100193553
 20
21.2324394202
 11
-23.6117375525
 21
21.0911660497
  0
LINE
  5
479
100
AcDbEntity
  8
CURVE
100
AcDbLine
 62
7
  6
CONTINUOUS
 10
-23.7792267701
 20
29.1003242881
 11
-23.7787713534
 21
29.1399360902
  0
LINE
  5
47A
100
AcDbEntity
  8
RACCORDO
100
AcDbLine
 62
7
  6
CONTINUOUS
 10
-23.6100974433
 20
21.2253624207
 11
-23.6117672366
 21
21.0889691342
  0
LINE
  5
47B
100
AcDbEntity
  8
RACCORDO
100
AcDbLine
 62
7
  6
CONTINUOUS
 10
-23.6103022155
 20
36.2071276171
 11
-23.6119799958
 21
36.0734531459
  0
LINE
  5
47C
100
AcDbEntity
  8
RACCORDO
100
AcDbLine
 62
7
  6
CONTINUOUS
 10
-23.6103022155
 20
31.2071276171
 11
-23.6119799958
 21
31.0734531459
  0
LINE
  5
47D
100
AcDbEntity
  8
ASSI
100
AcDbLine
 62
7
  6
CONTINUOUS
 10
-23.6104417638
 20
36.1949623115
 11
-23.6121765705
 21
36.0594747572
  0
LINE
  5
47E
100
AcDbEntity
  8
ASSI
100
AcDbLine
 62
7
  6
CONTINUOUS
 10
-23.6104417638
 20
31.1949623115
 11
-23.6121765705
 21
31.0594747572
  0
LINE
  5
47F
100
AcDbEntity
  8
CURVE
100
AcDbLine
 62
253
  6
CONTINUOUS
 10
-23.7856064682
 20
17.9709566581
 11
-23.7869750416
 21
17.8597662719
  0
LINE
  5
480
100
AcDbEntity
  8
CURVE
100
AcDbLine
 62
253
  6
CONTINUOUS
 10
-23.7200391419
 20
9.5600207418
 11
-23.7173381751
 21
9.745735094
  0
LINE
  5
481
100
AcDbEntity
  8
RACCORDO
100
AcDbLine
 62
7
  6
CONTINUOUS
 10
-23.6111337276
 20
26.1375735014
 11
-23.6128386211
 21
26.0148731861
  0
LINE
  5
482
100
AcDbEntity
  8
CURVE
100
AcDbLine
 62
253
  6
CONTINUOUS
 10
-23.7604652368
 20
17.9545714062
 11
-23.7611596551
 21
17.90588025
  0
LINE
  5
483
100
AcDbEntity
  8
ASSI
100
AcDbLine
 62
7
  6
CONTINUOUS
 10
-23.6117375525
 20
26.0911660497
 11
-23.6132876586
 21
25.9867298696
  0
LINE
  5
484
100
AcDbEntity
  8
RACCORDO
100
AcDbLine
 62
7
  6
CONTINUOUS
 10
-23.6117672366
 20
21.0889691342
 11
-23.6132720297
 21
20.9876816422
  0
LINE
  5
485
100
AcDbEntity
  8
ASSI
100
AcDbLine
 62
7
  6
CONTINUOUS
 10
-23.6117375525
 20
21.0911660497
 11
-23.6132876586
 21
20.9867298696
  0
LINE
  5
486
100
AcDbEntity
  8
CURVE
100
AcDbLine
 62
253
  6
CONTINUOUS
 10
-23.7792015941
 20
17.5304827412
 11
-23.7785698424
 21
17.5742990749
  0
LINE
  5
487
100
AcDbEntity
  8
RACCORDO
100
AcDbLine
 62
7
  6
CONTINUOUS
 10
-23.6119799958
 20
36.0734531459
 11
-23.6134895124
 21
35.9746136907
  0
LINE
  5
488
100
AcDbEntity
  8
RACCORDO
100
AcDbLine
 62
7
  6
CONTINUOUS
 10
-23.6119799958
 20
31.0734531459
 11
-23.6134895124
 21
30.9746136907
  0
LINE
  5
489
100
AcDbEntity
  8
ASSI
100
AcDbLine
 62
7
  6
CONTINUOUS
 10
-23.6121765705
 20
36.0594747572
 11
-23.6137363064
 21
35.9602383189
  0
LINE
  5
48A
100
AcDbEntity
  8
ASSI
100
AcDbLine
 62
7
  6
CONTINUOUS
 10
-23.6121765705
 20
31.0594747572
 11
-23.6137363064
 21
30.9602383189
  0
LINE
  5
48B
100
AcDbEntity
  8
CURVE
100
AcDbLine
 62
253
  6
CONTINUOUS
 10
-23.7168395356
 20
40.545735094
 11
-23.7121024531
 21
40.817163536
  0
LINE
  5
48C
100
AcDbEntity
  8
CURVE
100
AcDbLine
 62
253
  6
CONTINUOUS
 10
-23.7121024531
 20
39.324306652
 11
-23.7168395356
 21
39.052877757
  0
LINE
  5
48D
100
AcDbEntity
  8
CURVE
100
AcDbLine
 62
253
  6
CONTINUOUS
 10
-23.7205793361
 20
16.8647828311
 11
-23.7173381751
 21
17.0504970282
  0
LINE
  5
48E
100
AcDbEntity
  8
CURVE
100
AcDbLine
 62
253
  6
CONTINUOUS
 10
-23.7205793361
 20
11.695735094
 11
-23.7173381751
 21
11.8814492911
  0
LINE
  5
48F
100
AcDbEntity
  8
CURVE
100
AcDbLine
 62
253
  6
CONTINUOUS
 10
-23.7092352719
 20
9.6528779954
 11
-23.7059941109
 21
9.8385921925
  0
LINE
  5
490
100
AcDbEntity
  8
CURVE
100
AcDbLine
 62
253
  6
CONTINUOUS
 10
-23.7205793361
 20
7.6100208193
 11
-23.7173381751
 21
7.795735094
  0
LINE
  5
491
100
AcDbEntity
  8
CURVE
100
AcDbLine
 62
253
  6
CONTINUOUS
 10
-23.7567711775
 20
17.4084968373
 11
-23.7559974304
 21
17.4580774476
  0
LINE
  5
492
100
AcDbEntity
  8
CURVE
100
AcDbLine
 62
7
  6
CONTINUOUS
 10
-23.7834467127
 20
29.7304058749
 11
-23.7847134817
 21
29.6516866451
  0
LINE
  5
493
100
AcDbEntity
  8
CURVE
100
AcDbLine
 62
7
  6
CONTINUOUS
 10
-23.7787713534
 20
29.1399360902
 11
-23.7783184881
 21
29.1676711992
  0
LINE
  5
494
100
AcDbEntity
  8
CURVE
100
AcDbLine
 62
253
  6
CONTINUOUS
 10
-23.779917518
 20
24.7039493376
 11
-23.776676357
 21
24.8803778249
  0
LINE
  5
495
100
AcDbEntity
  8
RACCORDO
100
AcDbLine
 62
7
  6
CONTINUOUS
 10
-23.6128386211
 20
26.0148731861
 11
-23.6143624594
 21
25.9258541762
  0
LINE
  5
496
100
AcDbEntity
  8
CURVE
100
AcDbLine
 62
253
  6
CONTINUOUS
 10
-23.7842224606
 20
18.0519220702
 11
-23.7856064682
 21
17.9709566581
  0
LINE
  5
497
100
AcDbEntity
  8
RACCORDO
100
AcDbLine
 62
7
  6
CONTINUOUS
 10
-23.6132720297
 20
20.9876816422
 11
-23.6147989893
 21
20.9035781125
  0
LINE
  5
498
100
AcDbEntity
  8
ASSI
100
AcDbLine
 62
7
  6
CONTINUOUS
 10
-23.6132876586
 20
25.9867298696
 11
-23.614860794
 21
25.9005325278
  0
LINE
  5
499
100
AcDbEntity
  8
ASSI
100
AcDbLine
 62
7
  6
CONTINUOUS
 10
-23.6132876586
 20
20.9867298696
 11
-23.614860794
 21
20.9005325278
  0
LINE
  5
49A
100
AcDbEntity
  8
RACCORDO
100
AcDbLine
 62
7
  6
CONTINUOUS
 10
-23.6134895124
 20
35.9746136907
 11
-23.6150167526
 21
35.8929640783
  0
LINE
  5
49B
100
AcDbEntity
  8
RACCORDO
100
AcDbLine
 62
7
  6
CONTINUOUS
 10
-23.6134895124
 20
30.9746136907
 11
-23.6150167526
 21
30.8929640783
  0
LINE
  5
49C
100
AcDbEntity
  8
CURVE
100
AcDbLine
 62
253
  6
CONTINUOUS
 10
-23.7263136985
 20
39.2790682763
 11
-23.73105078
 21
39.052877757
  0
LINE
  5
49D
100
AcDbEntity
  8
CURVE
100
AcDbLine
 62
253
  6
CONTINUOUS
 10
-23.7596446244
 20
17.9979470655
 11
-23.7604652368
 21
17.9545714062
  0
LINE
  5
49E
100
AcDbEntity
  8
CURVE
100
AcDbLine
 62
253
  6
CONTINUOUS
 10
-23.7785698424
 20
17.5742990749
 11
-23.7779773677
 21
17.60466871
  0
LINE
  5
49F
100
AcDbEntity
  8
RACCORDO
100
AcDbLine
 62
7
  6
CONTINUOUS
 10
-23.6150167526
 20
35.8929640783
 11
-23.6153234673
 21
35.8785970418
  0
LINE
  5
4A0
100
AcDbEntity
  8
RACCORDO
100
AcDbLine
 62
7
  6
CONTINUOUS
 10
-23.6150167526
 20
30.8929640783
 11
-23.6153234673
 21
30.8785970418
  0
LINE
  5
4A1
100
AcDbEntity
  8
RACCORDO
100
AcDbLine
 62
7
  6
CONTINUOUS
 10
-23.6143624594
 20
25.9258541762
 11
-23.6153234673
 21
25.8785970418
  0
LINE
  5
4A2
100
AcDbEntity
  8
CURVE
100
AcDbLine
 62
253
  6
CONTINUOUS
 10
-23.7559974304
 20
17.4580774476
 11
-23.7553940638
 21
17.488024328
  0
LINE
  5
4A3
100
AcDbEntity
  8
RACCORDO
100
AcDbLine
 62
7
  6
CONTINUOUS
 10
-23.6147989893
 20
20.9035781125
 11
-23.6153234673
 21
20.8785970418
  0
LINE
  5
4A4
100
AcDbEntity
  8
ASSI
100
AcDbLine
 62
7
  6
CONTINUOUS
 10
-23.6137363064
 20
35.9602383189
 11
-23.6153228484
 21
35.8785978047
  0
LINE
  5
4A5
100
AcDbEntity
  8
ASSI
100
AcDbLine
 62
7
  6
CONTINUOUS
 10
-23.6137363064
 20
30.9602383189
 11
-23.6153228484
 21
30.8785978047
  0
LINE
  5
4A6
100
AcDbEntity
  8
ASSI
100
AcDbLine
 62
7
  6
CONTINUOUS
 10
-23.614860794
 20
25.9005325278
 11
-23.6153228484
 21
25.8785978047
  0
LINE
  5
4A7
100
AcDbEntity
  8
ASSI
100
AcDbLine
 62
7
  6
CONTINUOUS
 10
-23.614860794
 20
20.9005325278
 11
-23.6153228484
 21
20.8785978047
  0
LINE
  5
4A8
100
AcDbEntity
  8
CURVE
100
AcDbLine
 62
7
  6
CONTINUOUS
 10
-23.7783184881
 20
29.1676711992
 11
-23.7779324592
 21
29.1858753367
  0
LINE
  5
4A9
100
AcDbEntity
  8
CURVE
100
AcDbLine
 62
7
  6
CONTINUOUS
 10
-23.7823595038
 20
29.7810092302
 11
-23.7834467127
 21
29.7304058749
  0
LINE
  5
4AA
100
AcDbEntity
  8
CURVE
100
AcDbLine
 62
253
  6
CONTINUOUS
 10
-23.7830637591
 20
18.1045813325
 11
-23.7842224606
 21
18.0519220702
  0
LWPOLYLINE
  5
4AB
100
AcDbEntity
  8
RACCORDO
100
AcDbPolyline
 62
7
  6
CONTINUOUS
 90
34
 70
0
 10
-23.3148223309
 20
48.3957393247
 10
-23.3145391806
 20
48.40763461
 10
-23.3136903651
 20
48.4195029495
 10
-23.312277805
 20
48.4313174601
 10
-23.3103046986
 20
48.4430513814
 10
-23.3077755126
 20
48.4546781328
 10
-23.3046959726
 20
48.466171373
 10
-23.3010730522
 20
48.4775050677
 10
-23.2969149566
 20
48.4886535432
 10
-23.2922311031
 20
48.4995915403
 10
-23.2870320997
 20
48.5102942815
 10
-23.2813297225
 20
48.5207375222
 10
-23.275136889
 20
48.5308975999
 10
-23.2684676263
 20
48.5407514991
 10
-23.2613370416
 20
48.5502768978
 10
-23.2537612897
 20
48.559452213
 10
-23.2457575314
 20
48.56825666
 10
-23.237343897
 20
48.5766702944
 10
-23.2285394499
 20
48.5846740528
 10
-23.2193641347
 20
48.5922498047
 10
-23.209838736
 20
48.5993803894
 10
-23.1999848368
 20
48.6060496521
 10
-23.1898247591
 20
48.6122424856
 10
-23.1793815185
 20
48.6179448628
 10
-23.1686787772
 20
48.6231438661
 10
-23.1577407802
 20
48.6278277197
 10
-23.1465923046
 20
48.6319858153
 10
-23.1352586099
 20
48.6356087357
 10
-23.1237653697
 20
48.6386882757
 10
-23.1121386184
 20
48.6412174617
 10
-23.100404697
 20
48.6431905681
 10
-23.0885901864
 20
48.6446031282
 10
-23.0767218469
 20
48.6454519437
 10
-23.0648265617
 20
48.645735094
  0
LINE
  5
4AC
100
AcDbEntity
  8
CURVE
100
AcDbLine
 62
253
  6
CONTINUOUS
 10
-23.73105078
 20
40.545735094
 11
-23.7263136985
 21
40.7266876906
  0
LWPOLYLINE
  5
4AD
100
AcDbEntity
  8
RACCORDO
100
AcDbPolyline
 62
253
  6
CONTINUOUS
 90
31
 70
0
 10
-23.3104504969
 20
48.3913674907
 10
-23.3101074583
 20
48.4044509767
 10
-23.3090801684
 20
48.4174986033
 10
-23.3073714428
 20
48.4304746095
 10
-23.3049859649
 20
48.4433434303
 10
-23.3019302727
 20
48.4560697949
 10
-23.2982127413
 20
48.4686188225
 10
-23.2938435598
 20
48.4809561188
 10
-23.2888347033
 20
48.4930478695
 10
-23.2831999001
 20
48.5048609333
 10
-23.2769545942
 20
48.5163629328
 10
-23.2701159028
 20
48.5275223433
 10
-23.2627025695
 20
48.5383085789
 10
-23.2547349127
 20
48.5486920766
 10
-23.2462347704
 20
48.558644377
 10
-23.2372254399
 20
48.568138203
 10
-23.227731614
 20
48.5771475335
 10
-23.2177793135
 20
48.5856476758
 10
-23.2073958159
 20
48.5936153326
 10
-23.1966095803
 20
48.6010286659
 10
-23.1854501697
 20
48.6078673573
 10
-23.1739481702
 20
48.6141126632
 10
-23.1621351064
 20
48.6197474664
 10
-23.1500433557
 20
48.6247563229
 10
-23.1377060595
 20
48.6291255044
 10
-23.1251570318
 20
48.6328430358
 10
-23.1124306672
 20
48.635898728
 10
-23.0995618464
 20
48.6382842059
 10
-23.0865858402
 20
48.6399929315
 10
-23.0735382136
 20
48.6410202214
 10
-23.0604547277
 20
48.64136326
  0
LINE
  5
4AE
100
AcDbEntity
  8
CURVE
100
AcDbLine
 62
253
  6
CONTINUOUS
 10
-23.7205793361
 20
25.5981160462
 11
-23.7108558531
 21
25.9695447505
  0
LINE
  5
4AF
100
AcDbEntity
  8
CURVE
100
AcDbLine
 62
253
  6
CONTINUOUS
 10
-23.7587318191
 20
18.0361092181
 11
-23.7596446244
 21
17.9979470655
  0
LINE
  5
4B0
100
AcDbEntity
  8
CURVE
100
AcDbLine
 62
253
  6
CONTINUOUS
 10
-23.7076146914
 20
7.4243065253
 11
-23.7041881199
 21
7.5551985596
  0
LINE
  5
4B1
100
AcDbEntity
  8
CURVE
100
AcDbLine
 62
253
  6
CONTINUOUS
 10
-23.7779773677
 20
17.60466871
 11
-23.7774882963
 21
17.6244269069
  0
LINE
  5
4B2
100
AcDbEntity
  8
CURVE
100
AcDbLine
 62
253
  6
CONTINUOUS
 10
-23.7553940638
 20
17.488024328
 11
-23.7547409563
 21
17.5141366802
  0
LINE
  5
4B3
100
AcDbEntity
  8
CURVE
100
AcDbLine
 62
7
  6
CONTINUOUS
 10
-23.7779324592
 20
29.1858753367
 11
-23.7775174784
 21
29.2019894148
  0
LINE
  5
4B4
100
AcDbEntity
  8
CURVE
100
AcDbLine
 62
7
  6
CONTINUOUS
 10
-23.781578147
 20
29.810442092
 11
-23.7823595038
 21
29.7810092302
  0
LINE
  5
4B5
100
AcDbEntity
  8
CURVE
100
AcDbLine
 62
253
  6
CONTINUOUS
 10
-23.7822374825
 20
18.1354451792
 11
-23.7830637591
 21
18.1045813325
  0
LINE
  5
4B6
100
AcDbEntity
  8
CURVE
100
AcDbLine
 62
253
  6
CONTINUOUS
 10
-23.7774882963
 20
17.6244269069
 11
-23.7771443816
 21
17.6361082281
  0
LINE
  5
4B7
100
AcDbEntity
  8
CURVE
100
AcDbLine
 62
253
  6
CONTINUOUS
 10
-23.757958045
 20
18.0629537528
 11
-23.7587318191
 21
18.0361092181
  0
LINE
  5
4B8
100
AcDbEntity
  8
CURVE
100
AcDbLine
 62
253
  6
CONTINUOUS
 10
-23.7547409563
 20
17.5141366802
 11
-23.7542233663
 21
17.5309278544
  0
LINE
  5
4B9
100
AcDbEntity
  8
CURVE
100
AcDbLine
 62
7
  6
CONTINUOUS
 10
-23.7807590435
 20
29.8363327601
 11
-23.781578147
 21
29.810442092
  0
LINE
  5
4BA
100
AcDbEntity
  8
CURVE
100
AcDbLine
 62
7
  6
CONTINUOUS
 10
-23.7775174784
 20
29.2019894148
 11
-23.7769976817
 21
29.2187015551
  0
LINE
  5
4BB
100
AcDbEntity
  8
CURVE
100
AcDbLine
 62
253
  6
CONTINUOUS
 10
-23.781372394
 20
18.1627315038
 11
-23.7822374825
 21
18.1354451792
  0
LINE
  5
4BC
100
AcDbEntity
  8
CURVE
100
AcDbLine
 62
253
  6
CONTINUOUS
 10
-23.7572555932
 20
18.0840399323
 11
-23.757958045
 21
18.0629537528
  0
LINE
  5
4BD
100
AcDbEntity
  8
CURVE
100
AcDbLine
 62
253
  6
CONTINUOUS
 10
-23.7502484271
 20
23.9338303208
 11
-23.7275602987
 21
24.5838303983
  0
LINE
  5
4BE
100
AcDbEntity
  8
CURVE
100
AcDbLine
 62
253
  6
CONTINUOUS
 10
-23.7205793361
 20
14.3576396197
 11
-23.7076146914
 21
14.7290686339
  0
LINE
  5
4BF
100
AcDbEntity
  8
CURVE
100
AcDbLine
 62
253
  6
CONTINUOUS
 10
-23.7205793361
 20
13.2433544368
 11
-23.7076146914
 21
13.6147828311
  0
LINE
  5
4C0
100
AcDbEntity
  8
CURVE
100
AcDbLine
 62
253
  6
CONTINUOUS
 10
-23.7771443816
 20
17.6361082281
 11
-23.776788324
 21
17.6465634901
  0
LINE
  5
4C1
100
AcDbEntity
  8
CURVE
100
AcDbLine
 62
7
  6
CONTINUOUS
 10
-23.7886243329
 20
36.361874094
 11
-23.7485228219
 21
37.474489094
  0
LINE
  5
4C2
100
AcDbEntity
  8
CURVE
100
AcDbLine
 62
7
  6
CONTINUOUS
 10
-23.7380200452
 20
37.173281094
 11
-23.7803723992
 21
36.020505094
  0
LINE
  5
4C3
100
AcDbEntity
  8
CURVE
100
AcDbLine
 62
253
  6
CONTINUOUS
 10
-23.779917518
 20
22.145735094
 11
-23.7669528733
 21
22.4985922526
  0
LINE
  5
4C4
100
AcDbEntity
  8
CURVE
100
AcDbLine
 62
253
  6
CONTINUOUS
 10
-23.7542233663
 20
17.5309278544
 11
-23.7538669901
 21
17.5406841298
  0
LINE
  5
4C5
100
AcDbEntity
  8
CURVE
100
AcDbLine
 62
7
  6
CONTINUOUS
 10
-23.7769976817
 20
29.2187015551
 11
-23.7766098124
 21
29.2290907591
  0
LWPOLYLINE
  5
4C6
100
AcDbEntity
  8
RACCORDO
100
AcDbPolyline
 62
253
  6
CONTINUOUS
 90
9
 70
0
 10
-23.318873175
 20
36.0435722338
 10
-23.3174202973
 20
36.0803919127
 10
-23.3159918665
 20
36.1273029166
 10
-23.3146080865
 20
36.1840343586
 10
-23.3132698526
 20
36.2502551834
 10
-23.3119762694
 20
36.3256063076
 10
-23.310744855
 20
36.4097280796
 10
-23.3095764982
 20
36.5021835045
 10
-23.3074411426
 20
36.7102519278
  0
LWPOLYLINE
  5
4C7
100
AcDbEntity
  8
ASSI
100
AcDbPolyline
 62
253
  6
CONTINUOUS
 90
9
 70
0
 10
-23.318873175
 20
36.0435722338
 10
-23.3174202973
 20
36.0803919127
 10
-23.3159918665
 20
36.1273029166
 10
-23.3146080865
 20
36.1840343586
 10
-23.3132698526
 20
36.2502551834
 10
-23.3119762694
 20
36.3256063076
 10
-23.310744855
 20
36.4097280796
 10
-23.3095764982
 20
36.5021835045
 10
-23.3074411426
 20
36.7102519278
  0
LWPOLYLINE
  5
4C8
100
AcDbEntity
  8
RACCORDO
100
AcDbPolyline
 62
253
  6
CONTINUOUS
 90
8
 70
0
 10
-23.318873175
 20
31.0435722338
 10
-23.3174202973
 20
31.0803919127
 10
-23.3159918665
 20
31.1273029166
 10
-23.3146080865
 20
31.1840343586
 10
-23.3132698526
 20
31.2502551834
 10
-23.3119762694
 20
31.3256063076
 10
-23.310744855
 20
31.4097280796
 10
-23.3084703102
 20
31.6025033537
  0
LWPOLYLINE
  5
4C9
100
AcDbEntity
  8
ASSI
100
AcDbPolyline
 62
253
  6
CONTINUOUS
 90
8
 70
0
 10
-23.318873175
 20
31.0435722338
 10
-23.3174202973
 20
31.0803919127
 10
-23.3159918665
 20
31.1273029166
 10
-23.3146080865
 20
31.1840343586
 10
-23.3132698526
 20
31.2502551834
 10
-23.3119762694
 20
31.3256063076
 10
-23.310744855
 20
31.4097280796
 10
-23.3084703102
 20
31.6025033537
  0
LWPOLYLINE
  5
4CA
100
AcDbEntity
  8
RACCORDO
100
AcDbPolyline
 62
253
  6
CONTINUOUS
 90
9
 70
0
 10
-23.318873175
 20
26.0435722338
 10
-23.3174202973
 20
26.0803919127
 10
-23.3159918665
 20
26.1273029166
 10
-23.3146080865
 20
26.1840343586
 10
-23.3132698526
 20
26.2502551834
 10
-23.3119762694
 20
26.3256063076
 10
-23.310744855
 20
26.4097280796
 10
-23.3095764982
 20
26.5021835045
 10
-23.3074411426
 20
26.7102519278
  0
LWPOLYLINE
  5
4CB
100
AcDbEntity
  8
ASSI
100
AcDbPolyline
 62
253
  6
CONTINUOUS
 90
9
 70
0
 10
-23.318873175
 20
26.0435722338
 10
-23.3174202973
 20
26.0803919127
 10
-23.3159918665
 20
26.1273029166
 10
-23.3146080865
 20
26.1840343586
 10
-23.3132698526
 20
26.2502551834
 10
-23.3119762694
 20
26.3256063076
 10
-23.310744855
 20
26.4097280796
 10
-23.3095764982
 20
26.5021835045
 10
-23.3074411426
 20
26.7102519278
  0
LINE
  5
4CC
100
AcDbEntity
  8
CURVE
100
AcDbLine
 62
253
  6
CONTINUOUS
 10
-23.7563252911
 20
18.1080931067
 11
-23.7572555932
 21
18.0840399323
  0
LINE
  5
4CD
100
AcDbEntity
  8
CURVE
100
AcDbLine
 62
253
  6
CONTINUOUS
 10
-23.776788324
 20
17.6465634901
 11
-23.7764219667
 21
17.6557640548
  0
LINE
  5
4CE
100
AcDbEntity
  8
CURVE
100
AcDbLine
 62
253
  6
CONTINUOUS
 10
-23.7538669901
 20
17.5406841298
 11
-23.7535027447
 21
17.5492230584
  0
LINE
  5
4CF
100
AcDbEntity
  8
CURVE
100
AcDbLine
 62
253
  6
CONTINUOUS
 10
-23.7556981748
 20
18.1222643518
 11
-23.7563252911
 21
18.1080931067
  0
LWPOLYLINE
  5
4D0
100
AcDbEntity
  8
CURVE
100
AcDbPolyline
 62
7
  6
CONTINUOUS
 90
16
 70
0
 10
-23.7766098124
 20
29.2290907591
 10
-23.7762118077
 20
29.2380492318
 10
-23.7760093597
 20
29.2419760397
 10
-23.7757906017
 20
29.2457618348
 10
-23.775569677
 20
29.2491359169
 10
-23.7753468276
 20
29.2521172275
 10
-23.775122296
 20
29.2547247079
 10
-23.7748963245
 20
29.2569772992
 10
-23.7746691554
 20
29.2588939427
 10
-23.774441031
 20
29.2604935799
 10
-23.7742121936
 20
29.2617951519
 10
-23.7739828856
 20
29.2628176
 10
-23.7737533492
 20
29.2635798656
 10
-23.7735238268
 20
29.2641008899
 10
-23.7732945607
 20
29.2643996142
 10
-23.7730657932
 20
29.2644949798
  0
LWPOLYLINE
  5
4D1
100
AcDbEntity
  8
CURVE
100
AcDbPolyline
 62
253
  6
CONTINUOUS
 90
12
 70
0
 10
-23.7764219667
 20
17.6557640548
 10
-23.7760471533
 20
17.6636812841
 10
-23.7758571516
 20
17.6671496987
 10
-23.7756657271
 20
17.6702865401
 10
-23.7754731102
 20
17.6730882286
 10
-23.7752795315
 20
17.6755511845
 10
-23.7750852212
 20
17.677671828
 10
-23.7748904099
 20
17.6794465793
 10
-23.774695328
 20
17.6808718587
 10
-23.7745002058
 20
17.6819440864
 10
-23.7743052739
 20
17.6826596827
 10
-23.7741107625
 20
17.6830150678
  0
LINE
  5
4D2
100
AcDbEntity
  8
CURVE
100
AcDbLine
 62
253
  6
CONTINUOUS
 10
-23.7535027447
 20
17.5492230584
 11
-23.7521317973
 21
17.5773598628
  0
LINE
  5
4D3
100
AcDbEntity
  8
CURVE
100
AcDbLine
 62
253
  6
CONTINUOUS
 10
-23.7550662166
 20
18.135203119
 11
-23.7556981748
 21
18.1222643518
  0
LINE
  5
4D4
100
AcDbEntity
  8
CURVE
100
AcDbLine
 62
7
  6
CONTINUOUS
 10
-23.7380200452
 20
41.145735094
 11
-23.7886243329
 21
40.137670094
  0
LINE
  5
4D5
100
AcDbEntity
  8
CURVE
100
AcDbLine
 62
7
  6
CONTINUOUS
 10
-23.7380200452
 20
35.120809094
 11
-23.7886243329
 21
34.112635094
  0
LINE
  5
4D6
100
AcDbEntity
  8
CURVE
100
AcDbLine
 62
7
  6
CONTINUOUS
 10
-23.7487453411
 20
40.310319094
 11
-23.7380200452
 21
40.519309094
  0
LINE
  5
4D7
100
AcDbEntity
  8
CURVE
100
AcDbLine
 62
7
  6
CONTINUOUS
 10
-23.7487453411
 20
34.285284094
 11
-23.7380200452
 21
34.494166094
  0
LINE
  5
4D8
100
AcDbEntity
  8
CURVE
100
AcDbLine
 62
7
  6
CONTINUOUS
 10
-23.7789515185
 20
39.752184094
 11
-23.7571549506
 21
40.153604094
  0
LINE
  5
4D9
100
AcDbEntity
  8
CURVE
100
AcDbLine
 62
7
  6
CONTINUOUS
 10
-23.7789543803
 20
33.727206094
 11
-23.7571549506
 21
34.128678094
  0
LINE
  5
4DA
100
AcDbEntity
  8
CURVE
100
AcDbLine
 62
253
  6
CONTINUOUS
 10
-23.7521317973
 20
17.5773598628
 11
-23.7500527933
 21
17.6158182916
  0
LINE
  5
4DB
100
AcDbEntity
  8
CURVE
100
AcDbLine
 62
253
  6
CONTINUOUS
 10
-23.7541104945
 20
18.1527857842
 11
-23.7550662166
 21
18.135203119
  0
LINE
  5
4DC
100
AcDbEntity
  8
CURVE
100
AcDbLine
 62
253
  6
CONTINUOUS
 10
-23.7887579281
 20
15.216745094
 11
-23.738159713
 21
16.106431094
  0
LINE
  5
4DD
100
AcDbEntity
  8
CURVE
100
AcDbLine
 62
253
  6
CONTINUOUS
 10
-23.7205793361
 20
24.0195445955
 11
-23.6978912077
 21
24.3909731448
  0
LINE
  5
4DE
100
AcDbEntity
  8
CURVE
100
AcDbLine
 62
253
  6
CONTINUOUS
 10
-23.7500527933
 20
17.6158182916
 11
-23.7381597068
 21
17.8138933556
  0
LINE
  5
4DF
100
AcDbEntity
  8
CURVE
100
AcDbLine
 62
253
  6
CONTINUOUS
 10
-23.752824772
 20
18.1739867498
 11
-23.7541104945
 21
18.1527857842
  0
LINE
  5
4E0
100
AcDbEntity
  8
CURVE
100
AcDbLine
 62
253
  6
CONTINUOUS
 10
-23.779917518
 20
23.5571637285
 11
-23.7572293896
 21
23.9100208503
  0
LWPOLYLINE
  5
4E1
100
AcDbEntity
  8
CURVE
100
AcDbPolyline
 62
253
  6
CONTINUOUS
 90
3
 70
0
 10
-23.7381597068
 20
18.3960940791
 10
-23.7450074692
 20
18.2927124701
 10
-23.752824772
 20
18.1739867498
  0
LWPOLYLINE
  5
4E2
100
AcDbEntity
  8
RACCORDO
100
AcDbPolyline
 62
253
  6
CONTINUOUS
 90
4
 70
0
 10
-23.3233582853
 20
30.995735094
 10
-23.3218388017
 20
31.0010855401
 10
-23.3203437649
 20
31.0170751493
 10
-23.318873175
 20
31.0435722338
  0
LWPOLYLINE
  5
4E3
100
AcDbEntity
  8
ASSI
100
AcDbPolyline
 62
253
  6
CONTINUOUS
 90
4
 70
0
 10
-23.3233582853
 20
30.995735094
 10
-23.3218388017
 20
31.0010855401
 10
-23.3203437649
 20
31.0170751493
 10
-23.318873175
 20
31.0435722338
  0
LWPOLYLINE
  5
4E4
100
AcDbEntity
  8
RACCORDO
100
AcDbPolyline
 62
253
  6
CONTINUOUS
 90
4
 70
0
 10
-23.3233582853
 20
25.995735094
 10
-23.3218388017
 20
26.0010855401
 10
-23.3203437649
 20
26.0170751493
 10
-23.318873175
 20
26.0435722338
  0
LWPOLYLINE
  5
4E5
100
AcDbEntity
  8
ASSI
100
AcDbPolyline
 62
253
  6
CONTINUOUS
 90
4
 70
0
 10
-23.3233582853
 20
25.995735094
 10
-23.3218388017
 20
26.0010855401
 10
-23.3203437649
 20
26.0170751493
 10
-23.318873175
 20
26.0435722338
  0
LINE
  5
4E6
100
AcDbEntity
  8
0
100
AcDbLine
 62
7
  6
CONTINUOUS
 10
-9.2014779672
 20
44.0090794576
 11
-9.1648223309
 21
44.045735094
  0
LINE
  5
4E7
100
AcDbEntity
  8
DRAFT
100
AcDbLine
 62
7
  6
CONTINUOUS
 10
-9.2014779672
 20
44.0090794576
 11
-9.1648223309
 21
44.045735094
  0
LINE
  5
4E8
100
AcDbEntity
  8
0
100
AcDbLine
 62
7
  6
CONTINUOUS
 10
-9.1648223309
 20
43.845735094
 11
-9.2014779672
 21
43.8090794576
  0
LINE
  5
4E9
100
AcDbEntity
  8
DRAFT
100
AcDbLine
 62
7
  6
CONTINUOUS
 10
-9.1648223309
 20
43.845735094
 11
-9.2014779672
 21
43.8090794576
  0
LINE
  5
4EA
100
AcDbEntity
  8
0
100
AcDbLine
 62
253
  6
CONTINUOUS
 10
-1.5148223309
 20
41.8174341427
 11
-1.6370077854
 21
41.7668232703
  0
LINE
  5
4EB
100
AcDbEntity
  8
RACCORDO
100
AcDbLine
 62
253
  6
CONTINUOUS
 10
-1.5148223309
 20
41.8174341427
 11
-1.6370077854
 21
41.7668232703
  0
LINE
  5
4EC
100
AcDbEntity
  8
CURVE
100
AcDbLine
 62
253
  6
CONTINUOUS
 10
-23.7173381751
 20
11.8814492911
 11
-23.7011323691
 21
11.8814492911
  0
LINE
  5
4ED
100
AcDbEntity
  8
CURVE
100
AcDbLine
 62
253
  6
CONTINUOUS
 10
-23.6978912077
 20
12.6552589625
 11
-23.7205793361
 21
12.6552589625
  0
LINE
  5
4EE
100
AcDbEntity
  8
CURVE
100
AcDbLine
 62
253
  6
CONTINUOUS
 10
-23.6978912077
 20
13.2433544368
 11
-23.7205793361
 21
13.2433544368
  0
LINE
  5
4EF
100
AcDbEntity
  8
0
100
AcDbLine
 62
253
  6
CONTINUOUS
 10
-1.6370077854
 20
6.5246469176
 11
-1.5148223309
 21
6.4740360452
  0
LINE
  5
4F0
100
AcDbEntity
  8
RACCORDO
100
AcDbLine
 62
253
  6
CONTINUOUS
 10
-1.6370077854
 20
6.5246469176
 11
-1.5148223309
 21
6.4740360452
  0
LWPOLYLINE
  5
4F1
100
AcDbEntity
  8
0
100
AcDbPolyline
 62
253
  6
CONTINUOUS
 90
4
 70
0
 10
-10.771986048
 20
6.8012863878
 10
-10.7350089979
 20
6.7682131088
 10
-10.7050147097
 20
6.7298991726
 10
-10.6829145446
 20
6.6875087288
  0
LWPOLYLINE
  5
4F2
100
AcDbEntity
  8
RACCORDO
100
AcDbPolyline
 62
253
  6
CONTINUOUS
 90
4
 70
0
 10
-10.771986048
 20
6.8012863878
 10
-10.7350089979
 20
6.7682131088
 10
-10.7050147097
 20
6.7298991726
 10
-10.6829145446
 20
6.6875087288
  0
LINE
  5
4F3
100
AcDbEntity
  8
0
100
AcDbLine
 62
7
  6
CONTINUOUS
 10
-9.1648223309
 20
4.245735094
 11
-9.2014779672
 21
4.2823907303
  0
LINE
  5
4F4
100
AcDbEntity
  8
DRAFT
100
AcDbLine
 62
7
  6
CONTINUOUS
 10
-9.1648223309
 20
4.245735094
 11
-9.2014779672
 21
4.2823907303
  0
LINE
  5
4F5
100
AcDbEntity
  8
0
100
AcDbLine
 62
7
  6
CONTINUOUS
 10
-9.1648223309
 20
4.445735094
 11
-9.2014779672
 21
4.4823907303
  0
LINE
  5
4F6
100
AcDbEntity
  8
DRAFT
100
AcDbLine
 62
7
  6
CONTINUOUS
 10
-9.1648223309
 20
4.445735094
 11
-9.2014779672
 21
4.4823907303
  0
LINE
  5
4F7
100
AcDbEntity
  8
CURVE
100
AcDbLine
 62
253
  6
CONTINUOUS
 10
-23.7049968304
 20
35.9314494282
 11
-23.73105078
 21
36.3385922045
  0
LINE
  5
4F8
100
AcDbEntity
  8
CURVE
100
AcDbLine
 62
7
  6
CONTINUOUS
 10
-23.7571549506
 20
39.322226094
 11
-23.7789515185
 21
39.752184094
  0
LINE
  5
4F9
100
AcDbEntity
  8
CURVE
100
AcDbLine
 62
7
  6
CONTINUOUS
 10
-23.7380200452
 20
38.944624094
 11
-23.7487453411
 21
39.161581094
  0
LINE
  5
4FA
100
AcDbEntity
  8
CURVE
100
AcDbLine
 62
7
  6
CONTINUOUS
 10
-23.7886243329
 20
39.398619094
 11
-23.7380200452
 21
38.350175094
  0
LWPOLYLINE
  5
4FB
100
AcDbEntity
  8
RACCORDO
100
AcDbPolyline
 62
253
  6
CONTINUOUS
 90
31
 70
0
 10
-23.3104504969
 20
47.9900726612
 10
-23.3100719412
 20
47.978774689
 10
-23.3090128137
 20
47.967504385
 10
-23.3072754371
 20
47.9562925151
 10
-23.3048637357
 20
47.945168706
 10
-23.3017838655
 20
47.934164454
 10
-23.2980448145
 20
47.9233129142
 10
-23.2936572701
 20
47.9126447911
 10
-23.2886328711
 20
47.9021881178
 10
-23.2829851905
 20
47.891971199
 10
-23.2767294979
 20
47.8820217939
 10
-23.2698829233
 20
47.8723672693
 10
-23.2624643151
 20
47.8630342459
 10
-23.254494011
 20
47.8540482957
 10
-23.2459937162
 20
47.8454338765
 10
-23.2369866257
 20
47.8372144981
 10
-23.2274973221
 20
47.8294126015
 10
-23.217551735
 20
47.8220495133
 10
-23.2071770521
 20
47.8151453644
 10
-23.1964016197
 20
47.8087190178
 10
-23.1852548617
 20
47.8027880208
 10
-23.1737672246
 20
47.7973685735
 10
-23.1619700679
 20
47.7924754715
 10
-23.1498956315
 20
47.7881220884
 10
-23.1375769519
 20
47.7843203311
 10
-23.1250477165
 20
47.7810805846
 10
-23.1123421136
 20
47.7784116782
 10
-23.0994947928
 20
47.7763208858
 10
-23.0865408256
 20
47.7748139158
 10
-23.0735156118
 20
47.7738948874
 10
-23.0604547277
 20
47.7735663103
  0
LWPOLYLINE
  5
4FC
100
AcDbEntity
  8
RACCORDO
100
AcDbPolyline
 62
253
  6
CONTINUOUS
 90
31
 70
0
 10
-20.9191941649
 20
0.3013975267
 10
-20.9195734966
 20
0.3127076772
 10
-20.9206344785
 20
0.323986942
 10
-20.9223742134
 20
0.3352045199
 10
-20.9247879503
 20
0.346329778
 10
-20.9278690979
 20
0.3573323355
 10
-20.9316092422
 20
0.3681821468
 10
-20.9359981696
 20
0.3788495832
 10
-20.9410238949
 20
0.3893055143
 10
-20.9466726938
 20
0.3995213871
 10
-20.9529291408
 20
0.4094693041
 10
-20.9597761507
 20
0.4191220998
 10
-20.9671950259
 20
0.4284534143
 10
-20.9751655068
 20
0.4374377657
 10
-20.9836658278
 20
0.4460506198
 10
-20.9926727763
 20
0.4542684565
 10
-21.0021617562
 20
0.4620688348
 10
-21.0121068551
 20
0.4694304533
 10
-21.0224809151
 20
0.4763332091
 10
-21.0332556066
 20
0.4827582521
 10
-21.0444015063
 20
0.488688037
 10
-21.0558881771
 20
0.4941063707
 10
-21.0676842512
 20
0.4989984569
 10
-21.0797575162
 20
0.5033509363
 10
-21.0920750023
 20
0.5071519233
 10
-21.1046030732
 20
0.5103910381
 10
-21.1173075173
 20
0.5130594353
 10
-21.1301536414
 20
0.5151498282
 10
-21.1431063654
 20
0.5166565083
 10
-21.1561303182
 20
0.5175753611
 10
-21.1691899341
 20
0.5179038776
  0
LWPOLYLINE
  5
4FD
100
AcDbEntity
  8
RACCORDO
100
AcDbPolyline
 62
253
  6
CONTINUOUS
 90
10
 70
0
 10
-23.31074135
 20
39.8814858089
 10
-23.3119728858
 20
39.9656506704
 10
-23.3132666803
 20
40.0410448887
 10
-23.3146052034
 20
40.1073064703
 10
-23.3159893634
 20
40.1640753588
 10
-23.317418252
 20
40.2110189939
 10
-23.318871614
 20
40.2478644867
 10
-23.3203426977
 20
40.2743800434
 10
-23.3218382548
 20
40.2903808748
 10
-23.3233582853
 20
40.295735094
  0
LWPOLYLINE
  5
4FE
100
AcDbEntity
  8
ASSI
100
AcDbPolyline
 62
253
  6
CONTINUOUS
 90
10
 70
0
 10
-23.31074135
 20
39.8814858089
 10
-23.3119728858
 20
39.9656506704
 10
-23.3132666803
 20
40.0410448887
 10
-23.3146052034
 20
40.1073064703
 10
-23.3159893634
 20
40.1640753588
 10
-23.317418252
 20
40.2110189939
 10
-23.318871614
 20
40.2478644867
 10
-23.3203426977
 20
40.2743800434
 10
-23.3218382548
 20
40.2903808748
 10
-23.3233582853
 20
40.295735094
  0
LWPOLYLINE
  5
4FF
100
AcDbEntity
  8
RACCORDO
100
AcDbPolyline
 62
253
  6
CONTINUOUS
 90
11
 70
0
 10
-23.3095729708
 20
34.7889889324
 10
-23.31074135
 20
34.8814858089
 10
-23.3119728858
 20
34.9656506704
 10
-23.3132666803
 20
35.0410448887
 10
-23.3146052034
 20
35.1073064703
 10
-23.3159893634
 20
35.1640753588
 10
-23.317418252
 20
35.2110189939
 10
-23.318871614
 20
35.2478644867
 10
-23.3203426977
 20
35.2743800434
 10
-23.3218382548
 20
35.2903808748
 10
-23.3233582853
 20
35.295735094
  0
LWPOLYLINE
  5
500
100
AcDbEntity
  8
ASSI
100
AcDbPolyline
 62
253
  6
CONTINUOUS
 90
11
 70
0
 10
-23.3095729708
 20
34.7889889324
 10
-23.31074135
 20
34.8814858089
 10
-23.3119728858
 20
34.9656506704
 10
-23.3132666803
 20
35.0410448887
 10
-23.3146052034
 20
35.1073064703
 10
-23.3159893634
 20
35.1640753588
 10
-23.317418252
 20
35.2110189939
 10
-23.318871614
 20
35.2478644867
 10
-23.3203426977
 20
35.2743800434
 10
-23.3218382548
 20
35.2903808748
 10
-23.3233582853
 20
35.295735094
  0
LINE
  5
501
100
AcDbEntity
  8
RACCORDO
100
AcDbLine
 62
253
  6
CONTINUOUS
 10
-23.3084668502
 20
39.6886305245
 11
-23.31074135
 21
39.8814858089
  0
LINE
  5
502
100
AcDbEntity
  8
ASSI
100
AcDbLine
 62
253
  6
CONTINUOUS
 10
-23.3084668502
 20
39.6886305245
 11
-23.31074135
 21
39.8814858089
  0
LINE
  5
503
100
AcDbEntity
  8
RACCORDO
100
AcDbLine
 62
253
  6
CONTINUOUS
 10
-23.3064868521
 20
39.4661744477
 11
-23.3084668502
 21
39.6886305245
  0
LINE
  5
504
100
AcDbEntity
  8
ASSI
100
AcDbLine
 62
253
  6
CONTINUOUS
 10
-23.3064868521
 20
39.4661744477
 11
-23.3084668502
 21
39.6886305245
  0
LINE
  5
505
100
AcDbEntity
  8
RACCORDO
100
AcDbLine
 62
253
  6
CONTINUOUS
 10
-23.0604547277
 20
-0.349893072
 11
-23.0604547277
 21
0.5179038776
  0
LINE
  5
506
100
AcDbEntity
  8
RACCORDO
100
AcDbLine
 62
253
  6
CONTINUOUS
 10
-23.0604547277
 20
47.7735663103
 11
-23.0604547277
 21
48.64136326
  0
LINE
  5
507
100
AcDbEntity
  8
ASSI
100
AcDbLine
 62
7
  6
CONTINUOUS
 10
-22.4648223309
 20
20.995735094
 11
-22.4648223309
 21
25.295735094
  0
LINE
  5
508
100
AcDbEntity
  8
ASSI
100
AcDbLine
 62
7
  6
CONTINUOUS
 10
-22.4648223309
 20
25.995735094
 11
-22.4648223309
 21
30.295735094
  0
LINE
  5
509
100
AcDbEntity
  8
ASSI
100
AcDbLine
 62
7
  6
CONTINUOUS
 10
-22.4648223309
 20
30.995735094
 11
-22.4648223309
 21
35.295735094
  0
LINE
  5
50A
100
AcDbEntity
  8
ASSI
100
AcDbLine
 62
7
  6
CONTINUOUS
 10
-22.4648223309
 20
35.995735094
 11
-22.4648223309
 21
40.295735094
  0
LINE
  5
50B
100
AcDbEntity
  8
DRAFT
100
AcDbLine
 62
7
  6
CONTINUOUS
 10
-22.3148223309
 20
45.045735094
 11
-22.3148223309
 21
44.145735094
  0
LINE
  5
50C
100
AcDbEntity
  8
DRAFT
100
AcDbLine
 62
7
  6
CONTINUOUS
 10
-22.3148223309
 20
4.145735094
 11
-22.3148223309
 21
3.245735094
  0
LINE
  5
50D
100
AcDbEntity
  8
DRAFT
100
AcDbLine
 62
7
  6
CONTINUOUS
 10
-22.2886397335
 20
44.967123425
 11
-22.2886397335
 21
44.1719176913
  0
LINE
  5
50E
100
AcDbEntity
  8
DRAFT
100
AcDbLine
 62
7
  6
CONTINUOUS
 10
-22.2886397335
 20
4.1195524966
 11
-22.2886397335
 21
3.3243467629
  0
LINE
  5
50F
100
AcDbEntity
  8
0
100
AcDbLine
 62
253
  6
CONTINUOUS
 10
-21.6648223309
 20
5.545735094
 11
-21.6648223309
 21
5.9326447923
  0
LWPOLYLINE
  5
510
100
AcDbEntity
  8
RACCORDO
100
AcDbPolyline
 62
253
  6
CONTINUOUS
 90
31
 70
0
 10
-23.3104504969
 20
0.3013975267
 10
-23.3100719412
 20
0.3126954989
 10
-23.3090128137
 20
0.323965803
 10
-23.3072754371
 20
0.3351776728
 10
-23.3048637357
 20
0.3463014819
 10
-23.3017838655
 20
0.3573057339
 10
-23.2980448145
 20
0.3681572737
 10
-23.2936572701
 20
0.3788253968
 10
-23.2886328711
 20
0.3892820701
 10
-23.2829851905
 20
0.3994989889
 10
-23.2767294979
 20
0.409448394
 10
-23.2698829233
 20
0.4191029186
 10
-23.2624643151
 20
0.428435942
 10
-23.254494011
 20
0.4374218922
 10
-23.2459937162
 20
0.4460363114
 10
-23.2369866257
 20
0.4542556898
 10
-23.2274973221
 20
0.4620575864
 10
-23.217551735
 20
0.4694206746
 10
-23.2071770521
 20
0.4763248235
 10
-23.1964016197
 20
0.4827511701
 10
-23.1852548617
 20
0.4886821671
 10
-23.1737672246
 20
0.4941016144
 10
-23.1619700679
 20
0.4989947164
 10
-23.1498956315
 20
0.5033480995
 10
-23.1375769519
 20
0.5071498568
 10
-23.1250477165
 20
0.5103896033
 10
-23.1123421136
 20
0.5130585097
 10
-23.0994947928
 20
0.5151493022
 10
-23.0865408256
 20
0.5166562721
 10
-23.0735156118
 20
0.5175753005
 10
-23.0604547277
 20
0.5179038776
  0
LWPOLYLINE
  5
511
100
AcDbEntity
  8
RACCORDO
100
AcDbPolyline
 62
253
  6
CONTINUOUS
 90
31
 70
0
 10
-20.9191941649
 20
47.9900726612
 10
-20.9195727205
 20
47.978774689
 10
-20.9206318481
 20
47.967504385
 10
-20.9223692246
 20
47.9562925151
 10
-20.924780926
 20
47.945168706
 10
-20.9278607963
 20
47.934164454
 10
-20.9315998472
 20
47.9233129142
 10
-20.9359873916
 20
47.9126447911
 10
-20.9410117906
 20
47.9021881178
 10
-20.9466594713
 20
47.891971199
 10
-20.9529151638
 20
47.8820217939
 10
-20.9597617384
 20
47.8723672693
 10
-20.9671803467
 20
47.8630342459
 10
-20.9751506507
 20
47.8540482957
 10
-20.9836509455
 20
47.8454338765
 10
-20.992658036
 20
47.8372144981
 10
-21.0021473397
 20
47.8294126015
 10
-21.0120929268
 20
47.8220495133
 10
-21.0224676097
 20
47.8151453644
 10
-21.0332430421
 20
47.8087190178
 10
-21.0443898001
 20
47.8027880208
 10
-21.0558774371
 20
47.7973685735
 10
-21.0676745938
 20
47.7924754715
 10
-21.0797490303
 20
47.7881220884
 10
-21.0920677099
 20
47.7843203311
 10
-21.1045969452
 20
47.7810805846
 10
-21.1173025481
 20
47.7784116782
 10
-21.1301498689
 20
47.7763208858
 10
-21.1431038361
 20
47.7748139158
 10
-21.1561290499
 20
47.7738948874
 10
-21.1691899341
 20
47.7735663103
  0
LWPOLYLINE
  5
512
100
AcDbEntity
  8
RACCORDO
100
AcDbPolyline
 62
253
  6
CONTINUOUS
 90
9
 70
0
 10
-23.318873175
 20
21.0435722338
 10
-23.3174202973
 20
21.0803919127
 10
-23.3159918665
 20
21.1273029166
 10
-23.3146080865
 20
21.1840343586
 10
-23.3132698526
 20
21.2502551834
 10
-23.3119762694
 20
21.3256063076
 10
-23.310744855
 20
21.4097280796
 10
-23.3095764982
 20
21.5021835045
 10
-23.3074411426
 20
21.7102519278
  0
LWPOLYLINE
  5
513
100
AcDbEntity
  8
ASSI
100
AcDbPolyline
 62
253
  6
CONTINUOUS
 90
9
 70
0
 10
-23.318873175
 20
21.0435722338
 10
-23.3174202973
 20
21.0803919127
 10
-23.3159918665
 20
21.1273029166
 10
-23.3146080865
 20
21.1840343586
 10
-23.3132698526
 20
21.2502551834
 10
-23.3119762694
 20
21.3256063076
 10
-23.310744855
 20
21.4097280796
 10
-23.3095764982
 20
21.5021835045
 10
-23.3074411426
 20
21.7102519278
  0
LINE
  5
514
100
AcDbEntity
  8
CURVE
100
AcDbLine
 62
253
  6
CONTINUOUS
 10
-23.738159713
 20
12.105630094
 11
-23.771199398
 21
11.395573094
  0
LINE
  5
515
100
AcDbEntity
  8
CURVE
100
AcDbLine
 62
253
  6
CONTINUOUS
 10
-23.7887579281
 20
11.552501094
 11
-23.7606656481
 21
12.151380094
  0
LINE
  5
516
100
AcDbEntity
  8
CURVE
100
AcDbLine
 62
253
  6
CONTINUOUS
 10
-23.738159713
 20
8.064722094
 11
-23.7887579281
 21
7.145475094
  0
LINE
  5
517
100
AcDbEntity
  8
CURVE
100
AcDbLine
 62
253
  6
CONTINUOUS
 10
-23.7887579281
 20
7.802987094
 11
-23.7539296089
 21
8.355714094
  0
LINE
  5
518
100
AcDbEntity
  8
CURVE
100
AcDbLine
 62
253
  6
CONTINUOUS
 10
-23.738159713
 20
15.468500094
 11
-23.7482609186
 21
15.311702094
  0
LINE
  5
519
100
AcDbEntity
  8
CURVE
100
AcDbLine
 62
253
  6
CONTINUOUS
 10
-23.7560771844
 20
15.190739094
 11
-23.7748548237
 21
14.912609094
  0
LINE
  5
51A
100
AcDbEntity
  8
DRAFT
100
AcDbLine
 62
7
  6
CONTINUOUS
 10
-19.9735490756
 20
44.967123425
 11
-19.9636600055
 21
45.0562054744
  0
LINE
  5
51B
100
AcDbEntity
  8
CURVE
100
AcDbLine
 62
253
  6
CONTINUOUS
 10
-23.7887579281
 20
13.355508094
 11
-23.738159713
 21
13.626658094
  0
LWPOLYLINE
  5
51C
100
AcDbEntity
  8
RACCORDO
100
AcDbPolyline
 62
253
  6
CONTINUOUS
 90
4
 70
0
 10
-23.3233582853
 20
20.995735094
 10
-23.3218388017
 20
21.0010855401
 10
-23.3203437649
 20
21.0170751493
 10
-23.318873175
 20
21.0435722338
  0
LWPOLYLINE
  5
51D
100
AcDbEntity
  8
ASSI
100
AcDbPolyline
 62
253
  6
CONTINUOUS
 90
4
 70
0
 10
-23.3233582853
 20
20.995735094
 10
-23.3218388017
 20
21.0010855401
 10
-23.3203437649
 20
21.0170751493
 10
-23.318873175
 20
21.0435722338
  0
LINE
  5
51E
100
AcDbEntity
  8
DRAFT
100
AcDbLine
 62
7
  6
CONTINUOUS
 10
-8.2648223309
 20
46.545735094
 11
-8.3088895981
 21
46.4796332608
  0
LINE
  5
51F
100
AcDbEntity
  8
RACCORDO
100
AcDbLine
 62
253
  6
CONTINUOUS
 10
-2.2691899341
 20
48.64136326
 11
-2.2648181001
 21
48.645735094
  0
LINE
  5
520
100
AcDbEntity
  8
RACCORDO
100
AcDbLine
 62
253
  6
CONTINUOUS
 10
-2.0191941649
 20
48.3913674907
 11
-2.0148223309
 21
48.3957393247
  0
LINE
  5
521
100
AcDbEntity
  8
RACCORDO
100
AcDbLine
 62
7
  6
CONTINUOUS
 10
-6.3078008294
 20
43.9027565954
 11
-6.3648223309
 21
43.845735094
  0
LWPOLYLINE
  5
522
100
AcDbEntity
  8
CURVE
100
AcDbPolyline
 62
7
  6
CONTINUOUS
 90
16
 70
0
 10
-23.7730657932
 20
29.9272618943
 10
-23.7735602642
 20
29.9269852567
 10
-23.7740562671
 20
29.9261336353
 10
-23.7745531285
 20
29.9246744674
 10
-23.7750501752
 20
29.9225751902
 10
-23.7755467337
 20
29.919803241
 10
-23.7760421308
 20
29.9163260569
 10
-23.7765356931
 20
29.9121110753
 10
-23.7770267475
 20
29.9071257334
 10
-23.7775146204
 20
29.9013374683
 10
-23.7779986387
 20
29.8947137175
 10
-23.778478129
 20
29.8872219179
 10
-23.778952418
 20
29.8788295071
 10
-23.7794208323
 20
29.869503922
 10
-23.7798826988
 20
29.8592126001
 10
-23.7807590435
 20
29.8363327601
  0
LINE
  5
523
100
AcDbEntity
  8
CURVE
100
AcDbLine
 62
253
  6
CONTINUOUS
 10
-23.7205793361
 20
13.9862112254
 11
-23.6978912077
 21
13.9862112254
  0
LINE
  5
524
100
AcDbEntity
  8
CURVE
100
AcDbLine
 62
253
  6
CONTINUOUS
 10
-23.6978912077
 20
14.3576396197
 11
-23.7205793361
 21
14.3576396197
  0
LINE
  5
525
100
AcDbEntity
  8
CURVE
100
AcDbLine
 62
253
  6
CONTINUOUS
 10
-23.7205793361
 20
15.1004970282
 11
-23.6978912077
 21
15.1004970282
  0
LINE
  5
526
100
AcDbEntity
  8
RACCORDO
100
AcDbLine
 62
253
  6
CONTINUOUS
 10
-2.2691899341
 20
-0.349893072
 11
-2.2648181001
 21
-0.354264906
  0
LINE
  5
527
100
AcDbEntity
  8
RACCORDO
100
AcDbLine
 62
253
  6
CONTINUOUS
 10
-2.0191941649
 20
-0.0998973028
 11
-2.0148223309
 21
-0.1042691368
  0
LINE
  5
528
100
AcDbEntity
  8
RACCORDO
100
AcDbLine
 62
7
  6
CONTINUOUS
 10
-6.3078008294
 20
4.3887135925
 11
-6.3648223309
 21
4.445735094
  0
LINE
  5
529
100
AcDbEntity
  8
DRAFT
100
AcDbLine
 62
7
  6
CONTINUOUS
 10
-8.2648223309
 20
1.745735094
 11
-8.3088895981
 21
1.8118369271
  0
LINE
  5
52A
100
AcDbEntity
  8
DRAFT
100
AcDbLine
 62
7
  6
CONTINUOUS
 10
-19.9636600055
 20
3.2352647135
 11
-19.9735490756
 21
3.3243467629
  0
LINE
  5
52B
100
AcDbEntity
  8
RACCORDO
100
AcDbLine
 62
253
  6
CONTINUOUS
 10
-21.1691899341
 20
47.7735663103
 11
-21.164099333
 21
47.2683848248
  0
LINE
  5
52C
100
AcDbEntity
  8
RACCORDO
100
AcDbLine
 62
253
  6
CONTINUOUS
 10
-20.9191941649
 20
47.9900726612
 11
-20.9148223309
 21
47.5562202422
  0
LINE
  5
52D
100
AcDbEntity
  8
0
100
AcDbLine
 62
7
  6
CONTINUOUS
 10
-21.2648223309
 20
44.995735094
 11
-21.2648223309
 21
42.4031776938
  0
LINE
  5
52E
100
AcDbEntity
  8
DRAFT
100
AcDbLine
 62
7
  6
CONTINUOUS
 10
-21.2648223309
 20
44.995735094
 11
-21.2648223309
 21
42.4031776938
  0
LINE
  5
52F
100
AcDbEntity
  8
0
100
AcDbLine
 62
7
  6
CONTINUOUS
 10
-21.2648223309
 20
5.545735094
 11
-21.2648223309
 21
3.295735094
  0
LINE
  5
530
100
AcDbEntity
  8
DRAFT
100
AcDbLine
 62
7
  6
CONTINUOUS
 10
-21.2648223309
 20
5.545735094
 11
-21.2648223309
 21
3.295735094
  0
LINE
  5
531
100
AcDbEntity
  8
RACCORDO
100
AcDbLine
 62
253
  6
CONTINUOUS
 10
-21.1691899341
 20
-0.349893072
 11
-21.1691899341
 21
0.5179038776
  0
LINE
  5
532
100
AcDbEntity
  8
RACCORDO
100
AcDbLine
 62
253
  6
CONTINUOUS
 10
-21.1691899341
 20
47.7735663103
 11
-21.1691899341
 21
48.64136326
  0
LINE
  5
533
100
AcDbEntity
  8
RACCORDO
100
AcDbLine
 62
253
  6
CONTINUOUS
 10
-20.9191941649
 20
-0.0998973028
 11
-20.9191941649
 21
0.3013975267
  0
LINE
  5
534
100
AcDbEntity
  8
RACCORDO
100
AcDbLine
 62
253
  6
CONTINUOUS
 10
-20.9191941649
 20
47.9900726612
 11
-20.9191941649
 21
48.3913674907
  0
LINE
  5
535
100
AcDbEntity
  8
RACCORDO
100
AcDbLine
 62
7
  6
CONTINUOUS
 10
-20.9148223309
 20
-0.1042691368
 11
-20.9148223309
 21
1.745735094
  0
LINE
  5
536
100
AcDbEntity
  8
DRAFT
100
AcDbLine
 62
7
  6
CONTINUOUS
 10
-20.9148223309
 20
2.745735094
 11
-20.9148223309
 21
3.245735094
  0
LINE
  5
537
100
AcDbEntity
  8
DRAFT
100
AcDbLine
 62
7
  6
CONTINUOUS
 10
-20.9148223309
 20
45.045735094
 11
-20.9148223309
 21
45.545735094
  0
LINE
  5
538
100
AcDbEntity
  8
RACCORDO
100
AcDbLine
 62
7
  6
CONTINUOUS
 10
-20.9148223309
 20
46.545735094
 11
-20.9148223309
 21
48.3957393247
  0
LINE
  5
539
100
AcDbEntity
  8
RACCORDO
100
AcDbLine
 62
253
  6
CONTINUOUS
 10
-20.7488468976
 20
45.7117105272
 11
-20.7488468976
 21
45.1374433582
  0
LINE
  5
53A
100
AcDbEntity
  8
RACCORDO
100
AcDbLine
 62
253
  6
CONTINUOUS
 10
-20.7488468976
 20
3.1540268297
 11
-20.7488468976
 21
2.5797596607
  0
LINE
  5
53B
100
AcDbEntity
  8
RACCORDO
100
AcDbLine
 62
253
  6
CONTINUOUS
 10
-20.24892305
 20
45.4584283377
 11
-20.24892305
 21
45.1417306397
  0
LINE
  5
53C
100
AcDbEntity
  8
RACCORDO
100
AcDbLine
 62
253
  6
CONTINUOUS
 10
-20.24892305
 20
3.1497395483
 11
-20.24892305
 21
2.8330418502
  0
LINE
  5
53D
100
AcDbEntity
  8
0
100
AcDbLine
 62
7
  6
CONTINUOUS
 10
-20.1189330321
 20
3.295735094
 11
-20.1189330321
 21
5.545735094
  0
LINE
  5
53E
100
AcDbEntity
  8
DRAFT
100
AcDbLine
 62
7
  6
CONTINUOUS
 10
-20.1189330321
 20
3.295735094
 11
-20.1189330321
 21
5.545735094
  0
LINE
  5
53F
100
AcDbEntity
  8
0
100
AcDbLine
 62
7
  6
CONTINUOUS
 10
-20.1189330321
 20
42.4031776938
 11
-20.1189330321
 21
44.995735094
  0
LINE
  5
540
100
AcDbEntity
  8
DRAFT
100
AcDbLine
 62
7
  6
CONTINUOUS
 10
-20.1189330321
 20
42.4031776938
 11
-20.1189330321
 21
44.995735094
  0
LINE
  5
541
100
AcDbEntity
  8
0
100
AcDbLine
 62
7
  6
CONTINUOUS
 10
-20.1014779672
 20
43.8090794576
 11
-20.1014779672
 21
42.4119045616
  0
LINE
  5
542
100
AcDbEntity
  8
DRAFT
100
AcDbLine
 62
7
  6
CONTINUOUS
 10
-20.1014779672
 20
43.8090794576
 11
-20.1014779672
 21
42.4119045616
  0
LINE
  5
543
100
AcDbEntity
  8
0
100
AcDbLine
 62
7
  6
CONTINUOUS
 10
-20.1014779672
 20
4.4823907303
 11
-20.1014779672
 21
5.545735094
  0
LINE
  5
544
100
AcDbEntity
  8
DRAFT
100
AcDbLine
 62
7
  6
CONTINUOUS
 10
-20.1014779672
 20
4.4823907303
 11
-20.1014779672
 21
5.545735094
  0
LINE
  5
545
100
AcDbEntity
  8
0
100
AcDbLine
 62
7
  6
CONTINUOUS
 10
-20.0648223309
 20
3.295735094
 11
-20.0648223309
 21
4.445735094
  0
LINE
  5
546
100
AcDbEntity
  8
DRAFT
100
AcDbLine
 62
7
  6
CONTINUOUS
 10
-20.0648223309
 20
3.295735094
 11
-20.0648223309
 21
4.445735094
  0
LINE
  5
547
100
AcDbEntity
  8
0
100
AcDbLine
 62
7
  6
CONTINUOUS
 10
-20.0648223309
 20
43.845735094
 11
-20.0648223309
 21
44.995735094
  0
LINE
  5
548
100
AcDbEntity
  8
DRAFT
100
AcDbLine
 62
7
  6
CONTINUOUS
 10
-20.0648223309
 20
43.845735094
 11
-20.0648223309
 21
44.995735094
  0
LINE
  5
549
100
AcDbEntity
  8
DRAFT
100
AcDbLine
 62
7
  6
CONTINUOUS
 10
-19.9735490756
 20
4.445735094
 11
-19.9735490756
 21
3.3243467629
  0
LINE
  5
54A
100
AcDbEntity
  8
DRAFT
100
AcDbLine
 62
7
  6
CONTINUOUS
 10
-19.9735490756
 20
43.845735094
 11
-19.9735490756
 21
44.967123425
  0
LINE
  5
54B
100
AcDbEntity
  8
RACCORDO
100
AcDbLine
 62
7
  6
CONTINUOUS
 10
-19.9066440328
 20
3.1497395483
 11
-19.9066440328
 21
4.1887169771
  0
LINE
  5
54C
100
AcDbEntity
  8
RACCORDO
100
AcDbLine
 62
7
  6
CONTINUOUS
 10
-19.9066440328
 20
44.1027532108
 11
-19.9066440328
 21
45.1417306397
  0
LINE
  5
54D
100
AcDbEntity
  8
RACCORDO
100
AcDbLine
 62
253
  6
CONTINUOUS
 10
-21.164099333
 20
1.0230853631
 11
-21.1691899341
 21
0.5179038776
  0
LINE
  5
54E
100
AcDbEntity
  8
RACCORDO
100
AcDbLine
 62
253
  6
CONTINUOUS
 10
-20.9148223309
 20
0.7352499457
 11
-20.9191941649
 21
0.3013975267
  0
LWPOLYLINE
  5
54F
100
AcDbEntity
  8
RACCORDO
100
AcDbPolyline
 62
7
  6
CONTINUOUS
 90
34
 70
0
 10
-20.9148223309
 20
-0.1042691368
 10
-20.9151054811
 20
-0.1161644221
 10
-20.9159542966
 20
-0.1280327616
 10
-20.9173668567
 20
-0.1398472722
 10
-20.9193399632
 20
-0.1515811935
 10
-20.9218691492
 20
-0.1632079449
 10
-20.9249486892
 20
-0.1747011851
 10
-20.9285716095
 20
-0.1860348798
 10
-20.9327297051
 20
-0.1971833553
 10
-20.9374135587
 20
-0.2081213523
 10
-20.942612562
 20
-0.2188240936
 10
-20.9483149392
 20
-0.2292673343
 10
-20.9545077727
 20
-0.239427412
 10
-20.9611770354
 20
-0.2492813112
 10
-20.9683076202
 20
-0.2588067099
 10
-20.975883372
 20
-0.2679820251
 10
-20.9838871304
 20
-0.2767864721
 10
-20.9923007648
 20
-0.2852001065
 10
-21.0011052118
 20
-0.2932038649
 10
-21.010280527
 20
-0.3007796168
 10
-21.0198059258
 20
-0.3079102015
 10
-21.029659825
 20
-0.3145794642
 10
-21.0398199026
 20
-0.3207722977
 10
-21.0502631433
 20
-0.3264746749
 10
-21.0609658846
 20
-0.3316736782
 10
-21.0719038816
 20
-0.3363575318
 10
-21.0830523571
 20
-0.3405156274
 10
-21.0943860519
 20
-0.3441385478
 10
-21.1058792921
 20
-0.3472180878
 10
-21.1175060434
 20
-0.3497472738
 10
-21.1292399647
 20
-0.3517203802
 10
-21.1410544753
 20
-0.3531329403
 10
-21.1529228149
 20
-0.3539817558
 10
-21.1648181001
 20
-0.354264906
  0
LWPOLYLINE
  5
550
100
AcDbEntity
  8
RACCORDO
100
AcDbPolyline
 62
253
  6
CONTINUOUS
 90
31
 70
0
 10
-20.9191941649
 20
-0.0998973028
 10
-20.9195373539
 20
-0.112983657
 10
-20.9205650969
 20
-0.1260341553
 10
-20.92227458
 20
-0.1390130127
 10
-20.9246611227
 20
-0.1518846524
 10
-20.9277181839
 20
-0.1646137663
 10
-20.9314373734
 20
-0.1771654137
 10
-20.9358084885
 20
-0.1895051698
 10
-20.9408195439
 20
-0.2015992071
 10
-20.9464567922
 20
-0.2134143527
 10
-20.9527047714
 20
-0.2249182085
 10
-20.9595463472
 20
-0.2360792345
 10
-20.966962754
 20
-0.2468668248
 10
-20.9749336622
 20
-0.2572514141
 10
-20.9834372037
 20
-0.2672045175
 10
-20.9924500228
 20
-0.2766988106
 10
-21.0019473573
 20
-0.2857082325
 10
-21.0119031944
 20
-0.2942081294
 10
-21.0222903203
 20
-0.3021752716
 10
-21.0330803995
 20
-0.3095879017
 10
-21.0442437179
 20
-0.3164255835
 10
-21.0557493183
 20
-0.3226693851
 10
-21.0675653966
 20
-0.3283021337
 10
-21.0796597527
 20
-0.3333085636
 10
-21.0919995566
 20
-0.3376751147
 10
-21.1045537412
 20
-0.3413905545
 10
-21.1172852064
 20
-0.3444436679
 10
-21.1301509252
 20
-0.346824798
 10
-21.1431126997
 20
-0.3485284022
 10
-21.1561375941
 20
-0.3495516648
 10
-21.1691899341
 20
-0.349893072
  0
LINE
  5
551
100
AcDbEntity
  8
CURVE
100
AcDbLine
 62
253
  6
CONTINUOUS
 10
-23.738159713
 20
13.034542094
 11
-23.7710616672
 21
12.910187094
  0
LINE
  5
552
100
AcDbEntity
  8
SMUSSO
100
AcDbLine
 62
7
  6
CONTINUOUS
 10
-12.9148223309
 20
35.895735094
 11
-12.4148223309
 21
36.395735094
  0
LINE
  5
553
100
AcDbEntity
  8
ASSI
100
AcDbLine
 62
7
  6
CONTINUOUS
 10
-12.9148223309
 20
35.895735094
 11
-12.4148223309
 21
36.395735094
  0
LINE
  5
554
100
AcDbEntity
  8
SMUSSO
100
AcDbLine
 62
7
  6
CONTINUOUS
 10
-7.9148223309
 20
40.395735094
 11
-8.4148223309
 21
39.895735094
  0
LINE
  5
555
100
AcDbEntity
  8
ASSI
100
AcDbLine
 62
7
  6
CONTINUOUS
 10
-7.9148223309
 20
40.395735094
 11
-8.4148223309
 21
39.895735094
  0
LINE
  5
556
100
AcDbEntity
  8
CURVE
100
AcDbLine
 62
253
  6
CONTINUOUS
 10
-2.3648223309
 20
34.6743063897
 11
-3.6648223309
 21
34.3028779954
  0
LINE
  5
557
100
AcDbEntity
  8
CURVE
100
AcDbLine
 62
253
  6
CONTINUOUS
 10
-23.6978912077
 20
15.4719254225
 11
-23.7205793361
 21
15.4719254225
  0
LINE
  5
558
100
AcDbEntity
  8
CURVE
100
AcDbLine
 62
253
  6
CONTINUOUS
 10
-23.7881667716
 20
16.2841677496
 11
-23.7381597068
 21
16.2841677496
  0
LINE
  5
559
100
AcDbEntity
  8
CURVE
100
AcDbLine
 62
253
  6
CONTINUOUS
 10
-23.6978912077
 20
16.4004970282
 11
-23.7205793361
 21
16.4004970282
  0
LINE
  5
55A
100
AcDbEntity
  8
CURVE
100
AcDbLine
 62
253
  6
CONTINUOUS
 10
-23.7662478208
 20
16.8669338221
 11
-23.7801380187
 21
16.8669338221
  0
LINE
  5
55B
100
AcDbEntity
  8
CURVE
100
AcDbLine
 62
253
  6
CONTINUOUS
 10
-23.7381597068
 20
16.8870037107
 11
-23.7579610551
 21
16.8870037107
  0
LINE
  5
55C
100
AcDbEntity
  8
CURVE
100
AcDbLine
 62
253
  6
CONTINUOUS
 10
-23.7173381751
 20
17.0504970282
 11
-23.7108558531
 21
17.0504970282
  0
LINE
  5
55D
100
AcDbEntity
  8
RACCORDO
100
AcDbLine
 62
7
  6
CONTINUOUS
 10
-19.023000629
 20
3.5628108107
 11
-19.023000629
 21
4.1887169771
  0
LINE
  5
55E
100
AcDbEntity
  8
RACCORDO
100
AcDbLine
 62
7
  6
CONTINUOUS
 10
-19.023000629
 20
44.1027532108
 11
-19.023000629
 21
44.7286593772
  0
LINE
  5
55F
100
AcDbEntity
  8
DRAFT
100
AcDbLine
 62
7
  6
CONTINUOUS
 10
-18.9560955862
 20
44.1326447923
 11
-18.9560955862
 21
43.845735094
  0
LINE
  5
560
100
AcDbEntity
  8
DRAFT
100
AcDbLine
 62
7
  6
CONTINUOUS
 10
-18.9560955862
 20
4.445735094
 11
-18.9560955862
 21
4.1588253956
  0
LINE
  5
561
100
AcDbEntity
  8
CURVE
100
AcDbLine
 62
7
  6
CONTINUOUS
 10
-18.5398223309
 20
33.528179094
 11
-18.5398223309
 21
34.988679094
  0
LINE
  5
562
100
AcDbEntity
  8
ASSI
100
AcDbLine
 62
253
  6
CONTINUOUS
 10
-18.1648223309
 20
5.545735094
 11
-18.1648223309
 21
5.9326447923
  0
LWPOLYLINE
  5
563
100
AcDbEntity
  8
ASSI
100
AcDbPolyline
 62
7
  6
CONTINUOUS
 90
17
 70
0
 10
-16.1648223309
 20
47.8968773843
 10
-16.1651538755
 20
47.8941656727
 10
-16.1661619617
 20
47.8907840935
 10
-16.1678660801
 20
47.8867326468
 10
-16.170286417
 20
47.8820244254
 10
-16.1734394971
 20
47.8766463365
 10
-16.1773337541
 20
47.8705591012
 10
-16.1819793931
 20
47.8637548556
 10
-16.1873863329
 20
47.8562414635
 10
-16.1935535395
 20
47.8480032373
 10
-16.2004680146
 20
47.8390593522
 10
-16.2081445176
 20
47.829390633
 10
-16.2166295627
 20
47.8189238664
 10
-16.2259354246
 20
47.8076615055
 10
-16.2360665084
 20
47.7956010972
 10
-16.2470745298
 20
47.7826620686
 10
-16.2589729002
 20
47.768842205
  0
LWPOLYLINE
  5
564
100
AcDbEntity
  8
RACCORDO
100
AcDbPolyline
 62
7
  6
CONTINUOUS
 90
5
 70
0
 10
-4.7739388572
 20
45.9048516203
 10
-4.7974577133
 20
45.8688040542
 10
-4.8214422699
 20
45.8323808578
 10
-4.8458925269
 20
45.7956530781
 10
-4.870867774
 20
45.7587239784
  0
LINE
  5
565
100
AcDbEntity
  8
RACCORDO
100
AcDbLine
 62
7
  6
CONTINUOUS
 10
-6.3095275629
 20
44.2286784156
 11
-6.3735490756
 21
44.1326447923
  0
LWPOLYLINE
  5
566
100
AcDbEntity
  8
RACCORDO
100
AcDbPolyline
 62
7
  6
CONTINUOUS
 90
3
 70
0
 10
-4.870867774
 20
45.7587239784
 10
-4.9220375007
 20
45.6843253386
 10
-4.9480458324
 20
45.6468733584
  0
LINE
  5
567
100
AcDbEntity
  8
RACCORDO
100
AcDbLine
 62
7
  6
CONTINUOUS
 10
-4.9480458324
 20
45.6468733584
 11
-5.02728771
 21
45.5339189812
  0
LINE
  5
568
100
AcDbEntity
  8
RACCORDO
100
AcDbLine
 62
7
  6
CONTINUOUS
 10
-5.02728771
 20
45.5339189812
 11
-5.0807216117
 21
45.4584283377
  0
LINE
  5
569
100
AcDbEntity
  8
CURVE
100
AcDbLine
 62
253
  6
CONTINUOUS
 10
-3.4791080369
 20
35.6028779954
 11
-3.2933937428
 21
35.695735094
  0
LINE
  5
56A
100
AcDbEntity
  8
CURVE
100
AcDbLine
 62
253
  6
CONTINUOUS
 10
-2.5505366055
 20
35.1385921925
 11
-2.7362508802
 21
35.045735094
  0
LINE
  5
56B
100
AcDbEntity
  8
CURVE
100
AcDbLine
 62
253
  6
CONTINUOUS
 10
-23.761778507
 20
17.8402908039
 11
-23.7620774984
 21
17.8402908039
  0
LINE
  5
56C
100
AcDbEntity
  8
RACCORDO
100
AcDbLine
 62
7
  6
CONTINUOUS
 10
-5.0807216117
 20
2.8330418502
 11
-5.02728771
 21
2.7575512067
  0
LINE
  5
56D
100
AcDbEntity
  8
RACCORDO
100
AcDbLine
 62
7
  6
CONTINUOUS
 10
-5.02728771
 20
2.7575512067
 11
-4.9480458324
 21
2.6445968295
  0
LWPOLYLINE
  5
56E
100
AcDbEntity
  8
RACCORDO
100
AcDbPolyline
 62
7
  6
CONTINUOUS
 90
7
 70
0
 10
-4.9480458324
 20
2.6445968295
 10
-4.8963087216
 20
2.5698424772
 10
-4.870867774
 20
2.5327462095
 10
-4.8458925269
 20
2.4958171098
 10
-4.8214422699
 20
2.4590893301
 10
-4.7974577133
 20
2.4226661337
 10
-4.7739388572
 20
2.3866185676
  0
LINE
  5
56F
100
AcDbEntity
  8
RACCORDO
100
AcDbLine
 62
7
  6
CONTINUOUS
 10
-6.3095275629
 20
4.0627917723
 11
-6.3735490756
 21
4.1588253956
  0
LINE
  5
570
100
AcDbEntity
  8
CURVE
100
AcDbLine
 62
7
  6
CONTINUOUS
 10
-17.7898223309
 20
34.988679094
 11
-17.7898223309
 21
33.528179094
  0
LINE
  5
571
100
AcDbEntity
  8
ASSI
100
AcDbLine
 62
7
  6
CONTINUOUS
 10
-17.1648223309
 20
5.9326447923
 11
-17.1648223309
 21
5.545735094
  0
LINE
  5
572
100
AcDbEntity
  8
DRAFT
100
AcDbLine
 62
7
  6
CONTINUOUS
 10
-17.0648223309
 20
47.945735094
 11
-17.0648223309
 21
46.545735094
  0
LINE
  5
573
100
AcDbEntity
  8
DRAFT
100
AcDbLine
 62
7
  6
CONTINUOUS
 10
-17.0648223309
 20
1.745735094
 11
-17.0648223309
 21
0.345735094
  0
LINE
  5
574
100
AcDbEntity
  8
ASSI
100
AcDbLine
 62
253
  6
CONTINUOUS
 10
-17.0207550636
 20
47.8965085187
 11
-17.0207550636
 21
46.4796332608
  0
LINE
  5
575
100
AcDbEntity
  8
ASSI
100
AcDbLine
 62
253
  6
CONTINUOUS
 10
-17.0207550636
 20
1.8118369271
 11
-17.0207550636
 21
0.3949616692
  0
LINE
  5
576
100
AcDbEntity
  8
RACCORDO
100
AcDbLine
 62
7
  6
CONTINUOUS
 10
-16.6779126326
 20
43.4588368187
 11
-16.6779126326
 21
42.6588139726
  0
LINE
  5
577
100
AcDbEntity
  8
ASSI
100
AcDbLine
 62
7
  6
CONTINUOUS
 10
-16.6779126326
 20
43.4588368187
 11
-16.6779126326
 21
42.6588139726
  0
LINE
  5
578
100
AcDbEntity
  8
RACCORDO
100
AcDbLine
 62
7
  6
CONTINUOUS
 10
-16.6779126326
 20
4.8326333692
 11
-16.6779126326
 21
5.9326447923
  0
LINE
  5
579
100
AcDbEntity
  8
ASSI
100
AcDbLine
 62
7
  6
CONTINUOUS
 10
-16.6779126326
 20
4.8326333692
 11
-16.6779126326
 21
5.9326447923
  0
LINE
  5
57A
100
AcDbEntity
  8
DRAFT
100
AcDbLine
 62
7
  6
CONTINUOUS
 10
-16.1648223309
 20
44.1902421197
 11
-16.1648223309
 21
44.145735094
  0
LINE
  5
57B
100
AcDbEntity
  8
ASSI
100
AcDbLine
 62
7
  6
CONTINUOUS
 10
-16.1648223309
 20
1.8118151988
 11
-16.1648223309
 21
0.3515529238
  0
LINE
  5
57C
100
AcDbEntity
  8
DRAFT
100
AcDbLine
 62
7
  6
CONTINUOUS
 10
-16.1648223309
 20
4.1012280682
 11
-16.1648223309
 21
4.145735094
  0
LINE
  5
57D
100
AcDbEntity
  8
0
100
AcDbLine
 62
7
  6
CONTINUOUS
 10
-16.1648223309
 20
4.245735094
 11
-16.1648223309
 21
4.445735094
  0
LINE
  5
57E
100
AcDbEntity
  8
DRAFT
100
AcDbLine
 62
7
  6
CONTINUOUS
 10
-16.1648223309
 20
4.245735094
 11
-16.1648223309
 21
4.445735094
  0
LINE
  5
57F
100
AcDbEntity
  8
0
100
AcDbLine
 62
7
  6
CONTINUOUS
 10
-16.1648223309
 20
43.845735094
 11
-16.1648223309
 21
44.045735094
  0
LINE
  5
580
100
AcDbEntity
  8
DRAFT
100
AcDbLine
 62
7
  6
CONTINUOUS
 10
-16.1648223309
 20
43.845735094
 11
-16.1648223309
 21
44.045735094
  0
LINE
  5
581
100
AcDbEntity
  8
ASSI
100
AcDbLine
 62
7
  6
CONTINUOUS
 10
-16.1648223309
 20
46.4796549891
 11
-16.1648223309
 21
47.9399172641
  0
LINE
  5
582
100
AcDbEntity
  8
0
100
AcDbLine
 62
7
  6
CONTINUOUS
 10
-16.1281666945
 20
4.2823907303
 11
-16.1281666945
 21
4.4823907303
  0
LINE
  5
583
100
AcDbEntity
  8
DRAFT
100
AcDbLine
 62
7
  6
CONTINUOUS
 10
-16.1281666945
 20
4.2823907303
 11
-16.1281666945
 21
4.4823907303
  0
LINE
  5
584
100
AcDbEntity
  8
0
100
AcDbLine
 62
7
  6
CONTINUOUS
 10
-16.1281666945
 20
43.8090794576
 11
-16.1281666945
 21
44.0090794576
  0
LINE
  5
585
100
AcDbEntity
  8
DRAFT
100
AcDbLine
 62
7
  6
CONTINUOUS
 10
-16.1281666945
 20
43.8090794576
 11
-16.1281666945
 21
44.0090794576
  0
LINE
  5
586
100
AcDbEntity
  8
0
100
AcDbLine
 62
7
  6
CONTINUOUS
 10
-10.6742499833
 20
42.3773525925
 11
-10.6838188469
 21
42.345735094
  0
LINE
  5
587
100
AcDbEntity
  8
RACCORDO
100
AcDbLine
 62
7
  6
CONTINUOUS
 10
-10.6742499833
 20
42.3773525925
 11
-10.6838188469
 21
42.345735094
  0
LINE
  5
588
100
AcDbEntity
  8
SMUSSO
100
AcDbLine
 62
7
  6
CONTINUOUS
 10
-12.9148223309
 20
30.895735094
 11
-12.4148223309
 21
31.395735094
  0
LINE
  5
589
100
AcDbEntity
  8
ASSI
100
AcDbLine
 62
7
  6
CONTINUOUS
 10
-12.9148223309
 20
30.895735094
 11
-12.4148223309
 21
31.395735094
  0
LINE
  5
58A
100
AcDbEntity
  8
SMUSSO
100
AcDbLine
 62
7
  6
CONTINUOUS
 10
-7.9148223309
 20
35.395735094
 11
-8.4148223309
 21
34.895735094
  0
LINE
  5
58B
100
AcDbEntity
  8
ASSI
100
AcDbLine
 62
7
  6
CONTINUOUS
 10
-7.9148223309
 20
35.395735094
 11
-8.4148223309
 21
34.895735094
  0
LWPOLYLINE
  5
58C
100
AcDbEntity
  8
CURVE
100
AcDbPolyline
 62
253
  6
CONTINUOUS
 90
15
 70
0
 10
-23.7741107625
 20
17.6830150678
 10
-23.7738915373
 20
17.6830542934
 10
-23.7736706478
 20
17.6827852039
 10
-23.7734483974
 20
17.6822067377
 10
-23.7732250894
 20
17.6813178332
 10
-23.7730010274
 20
17.6801174288
 10
-23.7727765148
 20
17.6786044628
 10
-23.7725518549
 20
17.6767778736
 10
-23.7723273512
 20
17.6746365996
 10
-23.7721033071
 20
17.6721795791
 10
-23.771880026
 20
17.6694057505
 10
-23.7716578113
 20
17.6663140521
 10
-23.7714369665
 20
17.6629034224
 10
-23.7712177949
 20
17.6591727997
 10
-23.7710006
 20
17.6551211224
  0
LINE
  5
58D
100
AcDbEntity
  8
SMUSSO
100
AcDbLine
 62
7
  6
CONTINUOUS
 10
-7.9148223309
 20
20.645735094
 11
-12.9148223309
 21
20.645735094
  0
LINE
  5
58E
100
AcDbEntity
  8
ASSI
100
AcDbLine
 62
7
  6
CONTINUOUS
 10
-7.9148223309
 20
20.645735094
 11
-12.9148223309
 21
20.645735094
  0
LINE
  5
58F
100
AcDbEntity
  8
0
100
AcDbLine
 62
253
  6
CONTINUOUS
 10
-14.1658305287
 20
4.0935841018
 11
-14.1663465657
 21
4.2612484143
  0
LINE
  5
590
100
AcDbEntity
  8
RACCORDO
100
AcDbLine
 62
7
  6
CONTINUOUS
 10
-15.6648223309
 20
1.8076958553
 11
-15.6648223309
 21
3.145735094
  0
LINE
  5
591
100
AcDbEntity
  8
RACCORDO
100
AcDbLine
 62
7
  6
CONTINUOUS
 10
-15.6648223309
 20
45.145735094
 11
-15.6648223309
 21
46.4837743326
  0
LINE
  5
592
100
AcDbEntity
  8
0
100
AcDbLine
 62
7
  6
CONTINUOUS
 10
-15.1648223309
 20
5.845735094
 11
-15.1648223309
 21
7.545735094
  0
LINE
  5
593
100
AcDbEntity
  8
ASSI
100
AcDbLine
 62
7
  6
CONTINUOUS
 10
-15.1648223309
 20
5.845735094
 11
-15.1648223309
 21
7.545735094
  0
LINE
  5
594
100
AcDbEntity
  8
0
100
AcDbLine
 62
7
  6
CONTINUOUS
 10
-15.1648223309
 20
40.745735094
 11
-15.1648223309
 21
42.445735094
  0
LINE
  5
595
100
AcDbEntity
  8
ASSI
100
AcDbLine
 62
7
  6
CONTINUOUS
 10
-15.1648223309
 20
40.745735094
 11
-15.1648223309
 21
42.445735094
  0
LINE
  5
596
100
AcDbEntity
  8
0
100
AcDbLine
 62
253
  6
CONTINUOUS
 10
-14.8112689403
 20
42.3782751106
 11
-14.8112689403
 21
42.445735094
  0
LINE
  5
597
100
AcDbEntity
  8
RACCORDO
100
AcDbLine
 62
253
  6
CONTINUOUS
 10
-14.8112689403
 20
42.3782751106
 11
-14.8112689403
 21
42.445735094
  0
LINE
  5
598
100
AcDbEntity
  8
0
100
AcDbLine
 62
7
  6
CONTINUOUS
 10
-14.7648223309
 20
42.345735094
 11
-14.7648223309
 21
42.377916296
  0
LINE
  5
599
100
AcDbEntity
  8
0
100
AcDbLine
 62
7
  6
CONTINUOUS
 10
-14.6648223309
 20
42.345735094
 11
-14.6648223309
 21
42.3787836828
  0
LINE
  5
59A
100
AcDbEntity
  8
RACCORDO
100
AcDbLine
 62
7
  6
CONTINUOUS
 10
-14.6648223309
 20
42.345735094
 11
-14.6648223309
 21
42.3787836828
  0
LINE
  5
59B
100
AcDbEntity
  8
RACCORDO
100
AcDbLine
 62
7
  6
CONTINUOUS
 10
-14.6474116416
 20
5.845735094
 11
-14.6474116416
 21
5.945735094
  0
LINE
  5
59C
100
AcDbEntity
  8
ASSI
100
AcDbLine
 62
7
  6
CONTINUOUS
 10
-14.6474116416
 20
5.845735094
 11
-14.6474116416
 21
5.945735094
  0
LINE
  5
59D
100
AcDbEntity
  8
RACCORDO
100
AcDbLine
 62
7
  6
CONTINUOUS
 10
-14.5688267852
 20
42.345735094
 11
-14.5688267852
 21
42.445735094
  0
LINE
  5
59E
100
AcDbEntity
  8
ASSI
100
AcDbLine
 62
7
  6
CONTINUOUS
 10
-14.5688267852
 20
42.345735094
 11
-14.5688267852
 21
42.445735094
  0
LINE
  5
59F
100
AcDbEntity
  8
0
100
AcDbLine
 62
253
  6
CONTINUOUS
 10
-14.3648223309
 20
6.845735094
 11
-14.3648223309
 21
6.895735094
  0
LINE
  5
5A0
100
AcDbEntity
  8
RACCORDO
100
AcDbLine
 62
253
  6
CONTINUOUS
 10
-14.3648223309
 20
6.845735094
 11
-14.3648223309
 21
6.895735094
  0
LINE
  5
5A1
100
AcDbEntity
  8
0
100
AcDbLine
 62
253
  6
CONTINUOUS
 10
-14.3648223309
 20
41.395735094
 11
-14.3648223309
 21
41.4617030124
  0
LINE
  5
5A2
100
AcDbEntity
  8
RACCORDO
100
AcDbLine
 62
253
  6
CONTINUOUS
 10
-14.3648223309
 20
41.395735094
 11
-14.3648223309
 21
41.4617030124
  0
LINE
  5
5A3
100
AcDbEntity
  8
0
100
AcDbLine
 62
253
  6
CONTINUOUS
 10
-14.1663465657
 20
44.0302217736
 11
-14.1658305287
 21
44.1978860861
  0
LWPOLYLINE
  5
5A4
100
AcDbEntity
  8
0
100
AcDbPolyline
 62
253
  6
CONTINUOUS
 90
5
 70
0
 10
-10.669274969
 20
41.6496763759
 10
-10.6825758851
 20
41.6047979998
 10
-10.7044371553
 20
41.5624697636
 10
-10.7343623958
 20
41.5239486723
 10
-10.7715001402
 20
41.4905492649
  0
LWPOLYLINE
  5
5A5
100
AcDbEntity
  8
RACCORDO
100
AcDbPolyline
 62
253
  6
CONTINUOUS
 90
5
 70
0
 10
-10.669274969
 20
41.6496763759
 10
-10.6825758851
 20
41.6047979998
 10
-10.7044371553
 20
41.5624697636
 10
-10.7343623958
 20
41.5239486723
 10
-10.7715001402
 20
41.4905492649
  0
LINE
  5
5A6
100
AcDbEntity
  8
DRAFT
100
AcDbLine
 62
7
  6
CONTINUOUS
 10
-22.3148223309
 20
3.245735094
 11
-22.2886397335
 21
3.3243467629
  0
LINE
  5
5A7
100
AcDbEntity
  8
CURVE
100
AcDbLine
 62
253
  6
CONTINUOUS
 10
-2.5505366055
 20
36.995735094
 11
-2.3648223309
 21
37.1814493686
  0
LINE
  5
5A8
100
AcDbEntity
  8
CURVE
100
AcDbLine
 62
253
  6
CONTINUOUS
 10
-3.1076794682
 20
36.0671636432
 11
-2.9219651548
 21
36.2528779954
  0
LINE
  5
5A9
100
AcDbEntity
  8
CURVE
100
AcDbLine
 62
253
  6
CONTINUOUS
 10
-3.6648223309
 20
35.4171636432
 11
-3.4791080369
 21
35.6028779954
  0
LINE
  5
5AA
100
AcDbEntity
  8
CURVE
100
AcDbLine
 62
253
  6
CONTINUOUS
 10
-2.5505366055
 20
36.0981160611
 11
-2.3648223309
 21
36.2528779954
  0
LINE
  5
5AB
100
AcDbEntity
  8
RACCORDO
100
AcDbLine
 62
7
  6
CONTINUOUS
 10
-23.377901209
 20
20.995735094
 11
-22.4648223309
 21
20.995735094
  0
LINE
  5
5AC
100
AcDbEntity
  8
ASSI
100
AcDbLine
 62
7
  6
CONTINUOUS
 10
-23.377901209
 20
20.995735094
 11
-22.4648223309
 21
20.995735094
  0
LINE
  5
5AD
100
AcDbEntity
  8
SMUSSO
100
AcDbLine
 62
7
  6
CONTINUOUS
 10
-8.4148223309
 20
21.145735094
 11
-12.4148223309
 21
21.145735094
  0
LINE
  5
5AE
100
AcDbEntity
  8
ASSI
100
AcDbLine
 62
7
  6
CONTINUOUS
 10
-8.4148223309
 20
21.145735094
 11
-12.4148223309
 21
21.145735094
  0
LINE
  5
5AF
100
AcDbEntity
  8
0
100
AcDbLine
 62
7
  6
CONTINUOUS
 10
-12.0648223309
 20
21.645735094
 11
-9.0648223309
 21
21.645735094
  0
LINE
  5
5B0
100
AcDbEntity
  8
CURVE
100
AcDbLine
 62
253
  6
CONTINUOUS
 10
-23.6978912077
 20
21.9457350984
 11
-23.7205793361
 21
21.9457350984
  0
LINE
  5
5B1
100
AcDbEntity
  8
CURVE
100
AcDbLine
 62
253
  6
CONTINUOUS
 10
-23.7572293896
 20
22.145735094
 11
-23.779917518
 21
22.145735094
  0
LINE
  5
5B2
100
AcDbEntity
  8
DRAFT
100
AcDbLine
 62
7
  6
CONTINUOUS
 10
-22.2886397335
 20
44.967123425
 11
-22.3148223309
 21
45.045735094
  0
LINE
  5
5B3
100
AcDbEntity
  8
0
100
AcDbLine
 62
253
  6
CONTINUOUS
 10
-10.6829145446
 20
6.6875087288
 11
-10.669380005
 21
6.6423297895
  0
LINE
  5
5B4
100
AcDbEntity
  8
RACCORDO
100
AcDbLine
 62
253
  6
CONTINUOUS
 10
-10.6829145446
 20
6.6875087288
 11
-10.669380005
 21
6.6423297895
  0
LINE
  5
5B5
100
AcDbEntity
  8
SMUSSO
100
AcDbLine
 62
7
  6
CONTINUOUS
 10
-12.9148223309
 20
20.645735094
 11
-12.9148223309
 21
25.645735094
  0
LINE
  5
5B6
100
AcDbEntity
  8
ASSI
100
AcDbLine
 62
7
  6
CONTINUOUS
 10
-12.9148223309
 20
20.645735094
 11
-12.9148223309
 21
25.645735094
  0
LINE
  5
5B7
100
AcDbEntity
  8
SMUSSO
100
AcDbLine
 62
7
  6
CONTINUOUS
 10
-12.9148223309
 20
25.895735094
 11
-12.9148223309
 21
30.395735094
  0
LINE
  5
5B8
100
AcDbEntity
  8
ASSI
100
AcDbLine
 62
7
  6
CONTINUOUS
 10
-12.9148223309
 20
25.895735094
 11
-12.9148223309
 21
30.395735094
  0
LINE
  5
5B9
100
AcDbEntity
  8
SMUSSO
100
AcDbLine
 62
7
  6
CONTINUOUS
 10
-12.9148223309
 20
30.895735094
 11
-12.9148223309
 21
35.395735094
  0
LINE
  5
5BA
100
AcDbEntity
  8
ASSI
100
AcDbLine
 62
7
  6
CONTINUOUS
 10
-12.9148223309
 20
30.895735094
 11
-12.9148223309
 21
35.395735094
  0
LINE
  5
5BB
100
AcDbEntity
  8
SMUSSO
100
AcDbLine
 62
7
  6
CONTINUOUS
 10
-12.9148223309
 20
35.895735094
 11
-12.9148223309
 21
40.395735094
  0
LINE
  5
5BC
100
AcDbEntity
  8
ASSI
100
AcDbLine
 62
7
  6
CONTINUOUS
 10
-12.9148223309
 20
35.895735094
 11
-12.9148223309
 21
40.395735094
  0
LWPOLYLINE
  5
5BD
100
AcDbEntity
  8
ASSI
100
AcDbPolyline
 62
7
  6
CONTINUOUS
 90
17
 70
0
 10
-17.0207550636
 20
0.3949616692
 10
-17.0203281424
 20
0.3977535985
 10
-17.0192300313
 20
0.4012036766
 10
-17.0174437681
 20
0.4053119037
 10
-17.0149523449
 20
0.4100656194
 10
-17.0117414881
 20
0.415477484
 10
-17.007802358
 20
0.4215854783
 10
-17.0031264033
 20
0.4283940447
 10
-16.9977040948
 20
0.4358987408
 10
-16.9915301522
 20
0.4441242206
 10
-16.984615024
 20
0.4530501013
 10
-16.9769430921
 20
0.4626967657
 10
-16.9684603563
 20
0.4731500159
 10
-16.959146264
 20
0.4844141199
 10
-16.9489982088
 20
0.4964848097
 10
-16.9379730865
 20
0.5094350836
 10
-16.9260600426
 20
0.5232654875
  0
LINE
  5
5BE
100
AcDbEntity
  8
SMUSSO
100
AcDbLine
 62
7
  6
CONTINUOUS
 10
-12.9148223309
 20
25.895735094
 11
-12.4148223309
 21
26.395735094
  0
LINE
  5
5BF
100
AcDbEntity
  8
ASSI
100
AcDbLine
 62
7
  6
CONTINUOUS
 10
-12.9148223309
 20
25.895735094
 11
-12.4148223309
 21
26.395735094
  0
LINE
  5
5C0
100
AcDbEntity
  8
SMUSSO
100
AcDbLine
 62
7
  6
CONTINUOUS
 10
-7.9148223309
 20
30.395735094
 11
-8.4148223309
 21
29.895735094
  0
LINE
  5
5C1
100
AcDbEntity
  8
ASSI
100
AcDbLine
 62
7
  6
CONTINUOUS
 10
-7.9148223309
 20
30.395735094
 11
-8.4148223309
 21
29.895735094
  0
LINE
  5
5C2
100
AcDbEntity
  8
CURVE
100
AcDbLine
 62
253
  6
CONTINUOUS
 10
-4.7648223309
 20
32.9671636492
 11
-5.0362508861
 21
32.695735094
  0
LINE
  5
5C3
100
AcDbEntity
  8
CURVE
100
AcDbLine
 62
253
  6
CONTINUOUS
 10
-2.3648223309
 20
35.3243065447
 11
-2.5505366055
 21
35.1385921925
  0
LINE
  5
5C4
100
AcDbEntity
  8
CURVE
100
AcDbLine
 62
253
  6
CONTINUOUS
 10
-3.4791080369
 20
29.5052589625
 11
-3.2933937428
 21
29.5981157511
  0
LINE
  5
5C5
100
AcDbEntity
  8
CURVE
100
AcDbLine
 62
253
  6
CONTINUOUS
 10
-4.7648223309
 20
28.745735094
 11
-6.6648223309
 21
27.795735094
  0
LINE
  5
5C6
100
AcDbEntity
  8
CURVE
100
AcDbLine
 62
253
  6
CONTINUOUS
 10
-2.5505366055
 20
29.0409731597
 11
-2.7362508802
 21
28.9481157511
  0
LINE
  5
5C7
100
AcDbEntity
  8
CURVE
100
AcDbLine
 62
253
  6
CONTINUOUS
 10
-6.3933937473
 20
22.695735094
 11
-6.1219651637
 21
22.695735094
  0
LINE
  5
5C8
100
AcDbEntity
  8
CURVE
100
AcDbLine
 62
253
  6
CONTINUOUS
 10
-23.779917518
 20
22.8514494112
 11
-23.7572293896
 21
22.8514494112
  0
LINE
  5
5C9
100
AcDbEntity
  8
CURVE
100
AcDbLine
 62
253
  6
CONTINUOUS
 10
-23.6978912077
 20
22.9052588701
 11
-23.7205793361
 21
22.9052588701
  0
LINE
  5
5CA
100
AcDbEntity
  8
CURVE
100
AcDbLine
 62
253
  6
CONTINUOUS
 10
-23.7275602987
 20
23.3457350984
 11
-23.7502484271
 21
23.3457350984
  0
LINE
  5
5CB
100
AcDbEntity
  8
CURVE
100
AcDbLine
 62
253
  6
CONTINUOUS
 10
-5.3076794414
 20
23.645735094
 11
-5.0362508861
 21
23.645735094
  0
LINE
  5
5CC
100
AcDbEntity
  8
CURVE
100
AcDbLine
 62
253
  6
CONTINUOUS
 10
-23.7275602987
 20
23.9338303208
 11
-23.7502484271
 21
23.9338303208
  0
LINE
  5
5CD
100
AcDbEntity
  8
CURVE
100
AcDbLine
 62
253
  6
CONTINUOUS
 10
-2.6648223309
 20
23.958235094
 11
-2.7273223309
 21
23.958235094
  0
LINE
  5
5CE
100
AcDbEntity
  8
CURVE
100
AcDbLine
 62
253
  6
CONTINUOUS
 10
-3.5398223309
 20
24.145735094
 11
-3.7273223309
 21
24.145735094
  0
LINE
  5
5CF
100
AcDbEntity
  8
CURVE
100
AcDbLine
 62
253
  6
CONTINUOUS
 10
-23.7572293896
 20
24.2628779721
 11
-23.779917518
 21
24.2628779721
  0
LINE
  5
5D0
100
AcDbEntity
  8
0
100
AcDbLine
 62
253
  6
CONTINUOUS
 10
-11.163814133
 20
44.1978860861
 11
-11.163298096
 21
44.0302217736
  0
LINE
  5
5D1
100
AcDbEntity
  8
SMUSSO
100
AcDbLine
 62
7
  6
CONTINUOUS
 10
-12.4148223309
 20
21.145735094
 11
-12.4148223309
 21
25.145735094
  0
LINE
  5
5D2
100
AcDbEntity
  8
ASSI
100
AcDbLine
 62
7
  6
CONTINUOUS
 10
-12.4148223309
 20
21.145735094
 11
-12.4148223309
 21
25.145735094
  0
LINE
  5
5D3
100
AcDbEntity
  8
SMUSSO
100
AcDbLine
 62
7
  6
CONTINUOUS
 10
-12.4148223309
 20
26.395735094
 11
-12.4148223309
 21
29.895735094
  0
LINE
  5
5D4
100
AcDbEntity
  8
ASSI
100
AcDbLine
 62
7
  6
CONTINUOUS
 10
-12.4148223309
 20
26.395735094
 11
-12.4148223309
 21
29.895735094
  0
LINE
  5
5D5
100
AcDbEntity
  8
SMUSSO
100
AcDbLine
 62
7
  6
CONTINUOUS
 10
-12.4148223309
 20
31.395735094
 11
-12.4148223309
 21
34.895735094
  0
LINE
  5
5D6
100
AcDbEntity
  8
ASSI
100
AcDbLine
 62
7
  6
CONTINUOUS
 10
-12.4148223309
 20
31.395735094
 11
-12.4148223309
 21
34.895735094
  0
LINE
  5
5D7
100
AcDbEntity
  8
SMUSSO
100
AcDbLine
 62
7
  6
CONTINUOUS
 10
-12.4148223309
 20
36.395735094
 11
-12.4148223309
 21
39.895735094
  0
LINE
  5
5D8
100
AcDbEntity
  8
ASSI
100
AcDbLine
 62
7
  6
CONTINUOUS
 10
-12.4148223309
 20
36.395735094
 11
-12.4148223309
 21
39.895735094
  0
LINE
  5
5D9
100
AcDbEntity
  8
0
100
AcDbLine
 62
7
  6
CONTINUOUS
 10
-12.0648223309
 20
39.645735094
 11
-12.0648223309
 21
36.645735094
  0
LINE
  5
5DA
100
AcDbEntity
  8
0
100
AcDbLine
 62
7
  6
CONTINUOUS
 10
-12.0648223309
 20
34.645735094
 11
-12.0648223309
 21
31.645735094
  0
LINE
  5
5DB
100
AcDbEntity
  8
0
100
AcDbLine
 62
7
  6
CONTINUOUS
 10
-12.0648223309
 20
29.645735094
 11
-12.0648223309
 21
26.645735094
  0
LINE
  5
5DC
100
AcDbEntity
  8
0
100
AcDbLine
 62
7
  6
CONTINUOUS
 10
-12.0648223309
 20
24.645735094
 11
-12.0648223309
 21
21.645735094
  0
LINE
  5
5DD
100
AcDbEntity
  8
0
100
AcDbLine
 62
253
  6
CONTINUOUS
 10
-10.9648223309
 20
41.4617030124
 11
-10.9648223309
 21
41.395735094
  0
LINE
  5
5DE
100
AcDbEntity
  8
RACCORDO
100
AcDbLine
 62
253
  6
CONTINUOUS
 10
-10.9648223309
 20
41.4617030124
 11
-10.9648223309
 21
41.395735094
  0
LINE
  5
5DF
100
AcDbEntity
  8
0
100
AcDbLine
 62
253
  6
CONTINUOUS
 10
-10.9648223309
 20
6.845735094
 11
-10.9648223309
 21
6.895735094
  0
LINE
  5
5E0
100
AcDbEntity
  8
RACCORDO
100
AcDbLine
 62
253
  6
CONTINUOUS
 10
-10.9648223309
 20
6.845735094
 11
-10.9648223309
 21
6.895735094
  0
LINE
  5
5E1
100
AcDbEntity
  8
RACCORDO
100
AcDbLine
 62
7
  6
CONTINUOUS
 10
-10.7608178766
 20
42.345735094
 11
-10.7608178766
 21
42.445735094
  0
LINE
  5
5E2
100
AcDbEntity
  8
ASSI
100
AcDbLine
 62
7
  6
CONTINUOUS
 10
-10.7608178766
 20
42.345735094
 11
-10.7608178766
 21
42.445735094
  0
LINE
  5
5E3
100
AcDbEntity
  8
RACCORDO
100
AcDbLine
 62
7
  6
CONTINUOUS
 10
-10.6822330201
 20
5.845735094
 11
-10.6822330201
 21
5.945735094
  0
LINE
  5
5E4
100
AcDbEntity
  8
ASSI
100
AcDbLine
 62
7
  6
CONTINUOUS
 10
-10.6822330201
 20
5.845735094
 11
-10.6822330201
 21
5.945735094
  0
LINE
  5
5E5
100
AcDbEntity
  8
0
100
AcDbLine
 62
7
  6
CONTINUOUS
 10
-10.6648223309
 20
42.3787836828
 11
-10.6648223309
 21
42.345735094
  0
LINE
  5
5E6
100
AcDbEntity
  8
RACCORDO
100
AcDbLine
 62
7
  6
CONTINUOUS
 10
-10.6648223309
 20
42.3787836828
 11
-10.6648223309
 21
42.345735094
  0
LINE
  5
5E7
100
AcDbEntity
  8
0
100
AcDbLine
 62
253
  6
CONTINUOUS
 10
-11.163298096
 20
4.2612484143
 11
-11.163814133
 21
4.0935841018
  0
LWPOLYLINE
  5
5E8
100
AcDbEntity
  8
ASSI
100
AcDbPolyline
 62
7
  6
CONTINUOUS
 90
18
 70
0
 10
-8.3088895981
 20
47.8965085187
 10
-8.3093156994
 20
47.8937231236
 10
-8.3104130279
 20
47.8902732362
 10
-8.3122006166
 20
47.8861588564
 10
-8.3146981358
 20
47.8813929259
 10
-8.3179216774
 20
47.875962503
 10
-8.321879648
 20
47.8698287628
 10
-8.3265819545
 20
47.8629846261
 10
-8.3320385597
 20
47.8554371721
 10
-8.338249736
 20
47.8471688139
 10
-8.3452031576
 20
47.8381988529
 10
-8.3529139067
 20
47.8285079877
 10
-8.3614298826
 20
47.8180207277
 10
-8.3707652384
 20
47.8067376641
 10
-8.380923809
 20
47.7946582057
 10
-8.3919543659
 20
47.7817050885
 10
-8.4038692397
 20
47.7678765596
 10
-8.4166742296
 20
47.7531743719
  0
LINE
  5
5E9
100
AcDbEntity
  8
CURVE
100
AcDbLine
 62
253
  6
CONTINUOUS
 10
-23.7275602987
 20
24.5838303983
 11
-23.7502484271
 21
24.5838303983
  0
LINE
  5
5EA
100
AcDbEntity
  8
0
100
AcDbLine
 62
7
  6
CONTINUOUS
 10
-9.0648223309
 20
24.645735094
 11
-12.0648223309
 21
24.645735094
  0
LINE
  5
5EB
100
AcDbEntity
  8
CURVE
100
AcDbLine
 62
253
  6
CONTINUOUS
 10
-23.7205793361
 20
24.762401849
 11
-23.6978912077
 21
24.762401849
  0
LINE
  5
5EC
100
AcDbEntity
  8
CURVE
100
AcDbLine
 62
253
  6
CONTINUOUS
 10
-23.776676357
 20
24.8803778249
 11
-23.760470551
 21
24.8803778249
  0
LINE
  5
5ED
100
AcDbEntity
  8
SMUSSO
100
AcDbLine
 62
7
  6
CONTINUOUS
 10
-12.4148223309
 20
25.145735094
 11
-8.4148223309
 21
25.145735094
  0
LINE
  5
5EE
100
AcDbEntity
  8
ASSI
100
AcDbLine
 62
7
  6
CONTINUOUS
 10
-12.4148223309
 20
25.145735094
 11
-8.4148223309
 21
25.145735094
  0
LINE
  5
5EF
100
AcDbEntity
  8
RACCORDO
100
AcDbLine
 62
7
  6
CONTINUOUS
 10
-23.377901209
 20
25.295735094
 11
-22.4648223309
 21
25.295735094
  0
LINE
  5
5F0
100
AcDbEntity
  8
ASSI
100
AcDbLine
 62
7
  6
CONTINUOUS
 10
-23.377901209
 20
25.295735094
 11
-22.4648223309
 21
25.295735094
  0
LINE
  5
5F1
100
AcDbEntity
  8
CURVE
100
AcDbLine
 62
253
  6
CONTINUOUS
 10
-23.7572293896
 20
25.3802589315
 11
-23.779917518
 21
25.3802589315
  0
LINE
  5
5F2
100
AcDbEntity
  8
SMUSSO
100
AcDbLine
 62
7
  6
CONTINUOUS
 10
-12.9148223309
 20
25.645735094
 11
-7.9148223309
 21
25.645735094
  0
LINE
  5
5F3
100
AcDbEntity
  8
ASSI
100
AcDbLine
 62
7
  6
CONTINUOUS
 10
-12.9148223309
 20
25.645735094
 11
-7.9148223309
 21
25.645735094
  0
LINE
  5
5F4
100
AcDbEntity
  8
SMUSSO
100
AcDbLine
 62
7
  6
CONTINUOUS
 10
-7.9148223309
 20
25.895735094
 11
-12.9148223309
 21
25.895735094
  0
LINE
  5
5F5
100
AcDbEntity
  8
ASSI
100
AcDbLine
 62
7
  6
CONTINUOUS
 10
-7.9148223309
 20
25.895735094
 11
-12.9148223309
 21
25.895735094
  0
LINE
  5
5F6
100
AcDbEntity
  8
CURVE
100
AcDbLine
 62
253
  6
CONTINUOUS
 10
-23.7108558531
 20
25.9695447505
 11
-23.6978912077
 21
25.9695447505
  0
LINE
  5
5F7
100
AcDbEntity
  8
RACCORDO
100
AcDbLine
 62
7
  6
CONTINUOUS
 10
-23.377901209
 20
25.995735094
 11
-22.4648223309
 21
25.995735094
  0
LINE
  5
5F8
100
AcDbEntity
  8
ASSI
100
AcDbLine
 62
7
  6
CONTINUOUS
 10
-23.377901209
 20
25.995735094
 11
-22.4648223309
 21
25.995735094
  0
LWPOLYLINE
  5
5F9
100
AcDbEntity
  8
CURVE
100
AcDbPolyline
 62
7
  6
CONTINUOUS
 90
15
 70
0
 10
-23.7730657932
 20
29.2644949798
 10
-23.7728370256
 20
29.2643996142
 10
-23.7726077595
 20
29.2641008899
 10
-23.7723782371
 20
29.2635798656
 10
-23.7721487007
 20
29.2628176
 10
-23.7719193927
 20
29.2617951519
 10
-23.7716905553
 20
29.2604935799
 10
-23.7714624309
 20
29.2588939427
 10
-23.7712352618
 20
29.2569772992
 10
-23.7710092903
 20
29.2547247079
 10
-23.7707847587
 20
29.2521172275
 10
-23.7705619094
 20
29.2491359169
 10
-23.7703409846
 20
29.2457618348
 10
-23.7701222266
 20
29.2419760397
 10
-23.7699197786
 20
29.2380492318
  0
LINE
  5
5FA
100
AcDbEntity
  8
SMUSSO
100
AcDbLine
 62
7
  6
CONTINUOUS
 10
-12.9148223309
 20
25.645735094
 11
-12.4148223309
 21
25.145735094
  0
LINE
  5
5FB
100
AcDbEntity
  8
ASSI
100
AcDbLine
 62
7
  6
CONTINUOUS
 10
-12.9148223309
 20
25.645735094
 11
-12.4148223309
 21
25.145735094
  0
LINE
  5
5FC
100
AcDbEntity
  8
SMUSSO
100
AcDbLine
 62
7
  6
CONTINUOUS
 10
-7.9148223309
 20
20.645735094
 11
-8.4148223309
 21
21.145735094
  0
LINE
  5
5FD
100
AcDbEntity
  8
ASSI
100
AcDbLine
 62
7
  6
CONTINUOUS
 10
-7.9148223309
 20
20.645735094
 11
-8.4148223309
 21
21.145735094
  0
LINE
  5
5FE
100
AcDbEntity
  8
0
100
AcDbLine
 62
7
  6
CONTINUOUS
 10
-10.5648223309
 20
42.345735094
 11
-10.5648223309
 21
42.377916296
  0
LINE
  5
5FF
100
AcDbEntity
  8
0
100
AcDbLine
 62
253
  6
CONTINUOUS
 10
-10.5183757215
 20
42.445735094
 11
-10.5183757215
 21
42.3782751106
  0
LINE
  5
600
100
AcDbEntity
  8
RACCORDO
100
AcDbLine
 62
253
  6
CONTINUOUS
 10
-10.5183757215
 20
42.445735094
 11
-10.5183757215
 21
42.3782751106
  0
LINE
  5
601
100
AcDbEntity
  8
0
100
AcDbLine
 62
7
  6
CONTINUOUS
 10
-10.1648223309
 20
42.445735094
 11
-10.1648223309
 21
40.745735094
  0
LINE
  5
602
100
AcDbEntity
  8
ASSI
100
AcDbLine
 62
7
  6
CONTINUOUS
 10
-10.1648223309
 20
42.445735094
 11
-10.1648223309
 21
40.745735094
  0
LINE
  5
603
100
AcDbEntity
  8
0
100
AcDbLine
 62
7
  6
CONTINUOUS
 10
-10.1648223309
 20
7.545735094
 11
-10.1648223309
 21
5.845735094
  0
LINE
  5
604
100
AcDbEntity
  8
ASSI
100
AcDbLine
 62
7
  6
CONTINUOUS
 10
-10.1648223309
 20
7.545735094
 11
-10.1648223309
 21
5.845735094
  0
LINE
  5
605
100
AcDbEntity
  8
RACCORDO
100
AcDbLine
 62
7
  6
CONTINUOUS
 10
-9.6648223309
 20
1.8076958553
 11
-9.6648223309
 21
3.145735094
  0
LINE
  5
606
100
AcDbEntity
  8
RACCORDO
100
AcDbLine
 62
7
  6
CONTINUOUS
 10
-9.6648223309
 20
45.145735094
 11
-9.6648223309
 21
46.4837743326
  0
LINE
  5
607
100
AcDbEntity
  8
0
100
AcDbLine
 62
7
  6
CONTINUOUS
 10
-9.2014779672
 20
4.2823907303
 11
-9.2014779672
 21
4.4823907303
  0
LINE
  5
608
100
AcDbEntity
  8
DRAFT
100
AcDbLine
 62
7
  6
CONTINUOUS
 10
-9.2014779672
 20
4.2823907303
 11
-9.2014779672
 21
4.4823907303
  0
LINE
  5
609
100
AcDbEntity
  8
0
100
AcDbLine
 62
7
  6
CONTINUOUS
 10
-9.2014779672
 20
43.8090794576
 11
-9.2014779672
 21
44.0090794576
  0
LINE
  5
60A
100
AcDbEntity
  8
DRAFT
100
AcDbLine
 62
7
  6
CONTINUOUS
 10
-9.2014779672
 20
43.8090794576
 11
-9.2014779672
 21
44.0090794576
  0
LINE
  5
60B
100
AcDbEntity
  8
DRAFT
100
AcDbLine
 62
7
  6
CONTINUOUS
 10
-9.1648223309
 20
4.145735094
 11
-9.1648223309
 21
4.1012280682
  0
LINE
  5
60C
100
AcDbEntity
  8
ASSI
100
AcDbLine
 62
7
  6
CONTINUOUS
 10
-9.1648223309
 20
1.8118151988
 11
-9.1648223309
 21
0.3515529238
  0
LINE
  5
60D
100
AcDbEntity
  8
0
100
AcDbLine
 62
7
  6
CONTINUOUS
 10
-9.1648223309
 20
4.245735094
 11
-9.1648223309
 21
4.445735094
  0
LINE
  5
60E
100
AcDbEntity
  8
DRAFT
100
AcDbLine
 62
7
  6
CONTINUOUS
 10
-9.1648223309
 20
4.245735094
 11
-9.1648223309
 21
4.445735094
  0
LINE
  5
60F
100
AcDbEntity
  8
0
100
AcDbLine
 62
7
  6
CONTINUOUS
 10
-9.1648223309
 20
43.845735094
 11
-9.1648223309
 21
44.045735094
  0
LINE
  5
610
100
AcDbEntity
  8
DRAFT
100
AcDbLine
 62
7
  6
CONTINUOUS
 10
-9.1648223309
 20
43.845735094
 11
-9.1648223309
 21
44.045735094
  0
LINE
  5
611
100
AcDbEntity
  8
DRAFT
100
AcDbLine
 62
7
  6
CONTINUOUS
 10
-9.1648223309
 20
44.145735094
 11
-9.1648223309
 21
44.1902421197
  0
LINE
  5
612
100
AcDbEntity
  8
ASSI
100
AcDbLine
 62
7
  6
CONTINUOUS
 10
-9.1648223309
 20
46.4796549891
 11
-9.1648223309
 21
47.9399172641
  0
LINE
  5
613
100
AcDbEntity
  8
0
100
AcDbLine
 62
7
  6
CONTINUOUS
 10
-9.0648223309
 20
21.645735094
 11
-9.0648223309
 21
24.645735094
  0
LINE
  5
614
100
AcDbEntity
  8
0
100
AcDbLine
 62
7
  6
CONTINUOUS
 10
-9.0648223309
 20
26.645735094
 11
-9.0648223309
 21
29.645735094
  0
LINE
  5
615
100
AcDbEntity
  8
0
100
AcDbLine
 62
7
  6
CONTINUOUS
 10
-9.0648223309
 20
31.645735094
 11
-9.0648223309
 21
34.645735094
  0
LINE
  5
616
100
AcDbEntity
  8
0
100
AcDbLine
 62
7
  6
CONTINUOUS
 10
-9.0648223309
 20
36.645735094
 11
-9.0648223309
 21
39.645735094
  0
LINE
  5
617
100
AcDbEntity
  8
0
100
AcDbLine
 62
253
  6
CONTINUOUS
 10
-14.6592015876
 20
6.645735094
 11
-14.6470687766
 21
6.6866721881
  0
LINE
  5
618
100
AcDbEntity
  8
RACCORDO
100
AcDbLine
 62
253
  6
CONTINUOUS
 10
-14.6592015876
 20
6.645735094
 11
-14.6470687766
 21
6.6866721881
  0
LINE
  5
619
100
AcDbEntity
  8
DRAFT
100
AcDbLine
 62
7
  6
CONTINUOUS
 10
-3.0410049283
 20
44.967123425
 11
-3.0148223309
 21
45.045735094
  0
LINE
  5
61A
100
AcDbEntity
  8
CURVE
100
AcDbLine
 62
253
  6
CONTINUOUS
 10
-3.1695842264
 20
33.3433541268
 11
-3.3552985204
 21
33.095735094
  0
LINE
  5
61B
100
AcDbEntity
  8
SMUSSO
100
AcDbLine
 62
7
  6
CONTINUOUS
 10
-7.9148223309
 20
25.645735094
 11
-8.4148223309
 21
25.145735094
  0
LINE
  5
61C
100
AcDbEntity
  8
ASSI
100
AcDbLine
 62
7
  6
CONTINUOUS
 10
-7.9148223309
 20
25.645735094
 11
-8.4148223309
 21
25.145735094
  0
LINE
  5
61D
100
AcDbEntity
  8
SMUSSO
100
AcDbLine
 62
7
  6
CONTINUOUS
 10
-12.9148223309
 20
20.645735094
 11
-12.4148223309
 21
21.145735094
  0
LINE
  5
61E
100
AcDbEntity
  8
ASSI
100
AcDbLine
 62
7
  6
CONTINUOUS
 10
-12.9148223309
 20
20.645735094
 11
-12.4148223309
 21
21.145735094
  0
LINE
  5
61F
100
AcDbEntity
  8
CURVE
100
AcDbLine
 62
253
  6
CONTINUOUS
 10
-3.1076794682
 20
29.9695447654
 11
-2.9219651548
 21
30.1552589625
  0
LINE
  5
620
100
AcDbEntity
  8
CURVE
100
AcDbLine
 62
253
  6
CONTINUOUS
 10
-3.6648223309
 20
29.3195447654
 11
-3.4791080369
 21
29.5052589625
  0
LINE
  5
621
100
AcDbEntity
  8
CURVE
100
AcDbLine
 62
253
  6
CONTINUOUS
 10
-2.3648223309
 20
29.2266873568
 11
-2.5505366055
 21
29.0409731597
  0
LINE
  5
622
100
AcDbEntity
  8
CURVE
100
AcDbLine
 62
253
  6
CONTINUOUS
 10
-3.7273223309
 20
24.145735094
 11
-3.9148223309
 21
24.083235094
  0
LINE
  5
623
100
AcDbEntity
  8
SMUSSO
100
AcDbLine
 62
7
  6
CONTINUOUS
 10
-8.4148223309
 20
26.395735094
 11
-12.4148223309
 21
26.395735094
  0
LINE
  5
624
100
AcDbEntity
  8
ASSI
100
AcDbLine
 62
7
  6
CONTINUOUS
 10
-8.4148223309
 20
26.395735094
 11
-12.4148223309
 21
26.395735094
  0
LINE
  5
625
100
AcDbEntity
  8
0
100
AcDbLine
 62
7
  6
CONTINUOUS
 10
-12.0648223309
 20
26.645735094
 11
-9.0648223309
 21
26.645735094
  0
LINE
  5
626
100
AcDbEntity
  8
CURVE
100
AcDbLine
 62
253
  6
CONTINUOUS
 10
-6.6648223309
 20
27.795735094
 11
-4.7648223309
 21
27.795735094
  0
LINE
  5
627
100
AcDbEntity
  8
CURVE
100
AcDbLine
 62
7
  6
CONTINUOUS
 10
-23.7886243329
 20
27.846525094
 11
-23.7380200452
 21
27.846525094
  0
LINE
  5
628
100
AcDbEntity
  8
CURVE
100
AcDbLine
 62
253
  6
CONTINUOUS
 10
-2.3648223309
 20
27.9266873568
 11
-3.6648223309
 21
27.9266873568
  0
LINE
  5
629
100
AcDbEntity
  8
CURVE
100
AcDbLine
 62
253
  6
CONTINUOUS
 10
-3.3523223309
 20
24.083235094
 11
-3.5398223309
 21
24.145735094
  0
LINE
  5
62A
100
AcDbEntity
  8
CURVE
100
AcDbLine
 62
253
  6
CONTINUOUS
 10
-2.4773223309
 20
23.895735094
 11
-2.6648223309
 21
23.958235094
  0
LINE
  5
62B
100
AcDbEntity
  8
CURVE
100
AcDbLine
 62
253
  6
CONTINUOUS
 10
-6.6648223309
 20
22.9671636492
 11
-6.3933937473
 21
22.695735094
  0
LINE
  5
62C
100
AcDbEntity
  8
DRAFT
100
AcDbLine
 62
7
  6
CONTINUOUS
 10
-3.0148223309
 20
3.245735094
 11
-3.0410049283
 21
3.3243467629
  0
LINE
  5
62D
100
AcDbEntity
  8
0
100
AcDbLine
 62
7
  6
CONTINUOUS
 10
-14.6458337158
 20
42.345735094
 11
-14.6553946785
 21
42.3773525925
  0
LINE
  5
62E
100
AcDbEntity
  8
RACCORDO
100
AcDbLine
 62
7
  6
CONTINUOUS
 10
-14.6458337158
 20
42.345735094
 11
-14.6553946785
 21
42.3773525925
  0
LWPOLYLINE
  5
62F
100
AcDbEntity
  8
0
100
AcDbPolyline
 62
253
  6
CONTINUOUS
 90
5
 70
0
 10
-14.6592015876
 20
41.645735094
 10
-14.6470687766
 20
41.6047979998
 10
-14.6252075064
 20
41.5624697636
 10
-14.5952822659
 20
41.5239486723
 10
-14.5581445216
 20
41.4905492649
  0
LWPOLYLINE
  5
630
100
AcDbEntity
  8
RACCORDO
100
AcDbPolyline
 62
253
  6
CONTINUOUS
 90
5
 70
0
 10
-14.6592015876
 20
41.645735094
 10
-14.6470687766
 20
41.6047979998
 10
-14.6252075064
 20
41.5624697636
 10
-14.5952822659
 20
41.5239486723
 10
-14.5581445216
 20
41.4905492649
  0
LINE
  5
631
100
AcDbEntity
  8
SMUSSO
100
AcDbLine
 62
7
  6
CONTINUOUS
 10
-8.4148223309
 20
39.895735094
 11
-8.4148223309
 21
36.395735094
  0
LINE
  5
632
100
AcDbEntity
  8
ASSI
100
AcDbLine
 62
7
  6
CONTINUOUS
 10
-8.4148223309
 20
39.895735094
 11
-8.4148223309
 21
36.395735094
  0
LINE
  5
633
100
AcDbEntity
  8
SMUSSO
100
AcDbLine
 62
7
  6
CONTINUOUS
 10
-8.4148223309
 20
34.895735094
 11
-8.4148223309
 21
31.395735094
  0
LINE
  5
634
100
AcDbEntity
  8
ASSI
100
AcDbLine
 62
7
  6
CONTINUOUS
 10
-8.4148223309
 20
34.895735094
 11
-8.4148223309
 21
31.395735094
  0
LINE
  5
635
100
AcDbEntity
  8
SMUSSO
100
AcDbLine
 62
7
  6
CONTINUOUS
 10
-8.4148223309
 20
29.895735094
 11
-8.4148223309
 21
26.395735094
  0
LINE
  5
636
100
AcDbEntity
  8
ASSI
100
AcDbLine
 62
7
  6
CONTINUOUS
 10
-8.4148223309
 20
29.895735094
 11
-8.4148223309
 21
26.395735094
  0
LINE
  5
637
100
AcDbEntity
  8
SMUSSO
100
AcDbLine
 62
7
  6
CONTINUOUS
 10
-8.4148223309
 20
25.145735094
 11
-8.4148223309
 21
21.145735094
  0
LINE
  5
638
100
AcDbEntity
  8
ASSI
100
AcDbLine
 62
7
  6
CONTINUOUS
 10
-8.4148223309
 20
25.145735094
 11
-8.4148223309
 21
21.145735094
  0
LINE
  5
639
100
AcDbEntity
  8
ASSI
100
AcDbLine
 62
253
  6
CONTINUOUS
 10
-8.3088895981
 20
47.8965085187
 11
-8.3088895981
 21
46.4796332608
  0
LINE
  5
63A
100
AcDbEntity
  8
ASSI
100
AcDbLine
 62
253
  6
CONTINUOUS
 10
-8.3088895981
 20
1.8118369271
 11
-8.3088895981
 21
0.3949616692
  0
LINE
  5
63B
100
AcDbEntity
  8
DRAFT
100
AcDbLine
 62
7
  6
CONTINUOUS
 10
-8.2648223309
 20
0.345735094
 11
-8.2648223309
 21
1.745735094
  0
LINE
  5
63C
100
AcDbEntity
  8
DRAFT
100
AcDbLine
 62
7
  6
CONTINUOUS
 10
-8.2648223309
 20
46.545735094
 11
-8.2648223309
 21
47.945735094
  0
LINE
  5
63D
100
AcDbEntity
  8
SMUSSO
100
AcDbLine
 62
7
  6
CONTINUOUS
 10
-7.9148223309
 20
40.395735094
 11
-7.9148223309
 21
35.895735094
  0
LINE
  5
63E
100
AcDbEntity
  8
ASSI
100
AcDbLine
 62
7
  6
CONTINUOUS
 10
-7.9148223309
 20
40.395735094
 11
-7.9148223309
 21
35.895735094
  0
LINE
  5
63F
100
AcDbEntity
  8
SMUSSO
100
AcDbLine
 62
7
  6
CONTINUOUS
 10
-7.9148223309
 20
35.395735094
 11
-7.9148223309
 21
30.895735094
  0
LINE
  5
640
100
AcDbEntity
  8
ASSI
100
AcDbLine
 62
7
  6
CONTINUOUS
 10
-7.9148223309
 20
35.395735094
 11
-7.9148223309
 21
30.895735094
  0
LINE
  5
641
100
AcDbEntity
  8
SMUSSO
100
AcDbLine
 62
7
  6
CONTINUOUS
 10
-7.9148223309
 20
30.395735094
 11
-7.9148223309
 21
25.895735094
  0
LINE
  5
642
100
AcDbEntity
  8
ASSI
100
AcDbLine
 62
7
  6
CONTINUOUS
 10
-7.9148223309
 20
30.395735094
 11
-7.9148223309
 21
25.895735094
  0
LINE
  5
643
100
AcDbEntity
  8
SMUSSO
100
AcDbLine
 62
7
  6
CONTINUOUS
 10
-7.9148223309
 20
25.645735094
 11
-7.9148223309
 21
20.645735094
  0
LINE
  5
644
100
AcDbEntity
  8
ASSI
100
AcDbLine
 62
7
  6
CONTINUOUS
 10
-7.9148223309
 20
25.645735094
 11
-7.9148223309
 21
20.645735094
  0
LWPOLYLINE
  5
645
100
AcDbEntity
  8
RACCORDO
100
AcDbPolyline
 62
7
  6
CONTINUOUS
 90
5
 70
0
 10
-20.5557058045
 20
2.3866185676
 10
-20.5321869484
 20
2.4226661337
 10
-20.5082023919
 20
2.4590893301
 10
-20.4837521348
 20
2.4958171098
 10
-20.4587768877
 20
2.5327462095
  0
LINE
  5
646
100
AcDbEntity
  8
CURVE
100
AcDbLine
 62
253
  6
CONTINUOUS
 10
-6.5291080391
 20
23.645735094
 11
-6.6648223309
 21
23.5100208022
  0
LINE
  5
647
100
AcDbEntity
  8
CURVE
100
AcDbLine
 62
253
  6
CONTINUOUS
 10
-2.7273223309
 20
23.958235094
 11
-2.8523223309
 21
23.895735094
  0
LINE
  5
648
100
AcDbEntity
  8
CURVE
100
AcDbLine
 62
7
  6
CONTINUOUS
 10
-23.7380200452
 20
28.469131094
 11
-23.7575072611
 21
28.469131094
  0
LINE
  5
649
100
AcDbEntity
  8
CURVE
100
AcDbLine
 62
7
  6
CONTINUOUS
 10
-23.7659168706
 20
28.469131094
 11
-23.7802147233
 21
28.469131094
  0
LINE
  5
64A
100
AcDbEntity
  8
CURVE
100
AcDbLine
 62
253
  6
CONTINUOUS
 10
-3.6648223309
 20
28.5766873568
 11
-2.3648223309
 21
28.5766873568
  0
LINE
  5
64B
100
AcDbEntity
  8
CURVE
100
AcDbLine
 62
253
  6
CONTINUOUS
 10
-6.6648223309
 20
28.745735094
 11
-4.7648223309
 21
28.745735094
  0
LINE
  5
64C
100
AcDbEntity
  8
CURVE
100
AcDbLine
 62
253
  6
CONTINUOUS
 10
-2.7362508802
 20
28.9481157511
 11
-3.2933937428
 21
28.9481157511
  0
LINE
  5
64D
100
AcDbEntity
  8
CURVE
100
AcDbLine
 62
253
  6
CONTINUOUS
 10
-3.2933937428
 20
29.5981157511
 11
-2.7362508802
 21
29.5981157511
  0
LINE
  5
64E
100
AcDbEntity
  8
0
100
AcDbLine
 62
7
  6
CONTINUOUS
 10
-9.0648223309
 20
29.645735094
 11
-12.0648223309
 21
29.645735094
  0
LINE
  5
64F
100
AcDbEntity
  8
SMUSSO
100
AcDbLine
 62
7
  6
CONTINUOUS
 10
-12.9148223309
 20
30.395735094
 11
-12.4148223309
 21
29.895735094
  0
LINE
  5
650
100
AcDbEntity
  8
ASSI
100
AcDbLine
 62
7
  6
CONTINUOUS
 10
-12.9148223309
 20
30.395735094
 11
-12.4148223309
 21
29.895735094
  0
LINE
  5
651
100
AcDbEntity
  8
SMUSSO
100
AcDbLine
 62
7
  6
CONTINUOUS
 10
-7.9148223309
 20
25.895735094
 11
-8.4148223309
 21
26.395735094
  0
LINE
  5
652
100
AcDbEntity
  8
ASSI
100
AcDbLine
 62
7
  6
CONTINUOUS
 10
-7.9148223309
 20
25.895735094
 11
-8.4148223309
 21
26.395735094
  0
LINE
  5
653
100
AcDbEntity
  8
CURVE
100
AcDbLine
 62
253
  6
CONTINUOUS
 10
-5.0362508861
 20
23.645735094
 11
-4.7648223309
 21
23.3743065104
  0
LINE
  5
654
100
AcDbEntity
  8
CURVE
100
AcDbLine
 62
253
  6
CONTINUOUS
 10
-3.9773223309
 20
23.020735094
 11
-3.8523223309
 21
22.895735094
  0
LINE
  5
655
100
AcDbEntity
  8
CURVE
100
AcDbLine
 62
253
  6
CONTINUOUS
 10
-6.6648223309
 20
38.445735094
 11
-6.6648223309
 21
37.7671636492
  0
LINE
  5
656
100
AcDbEntity
  8
CURVE
100
AcDbLine
 62
253
  6
CONTINUOUS
 10
-6.6648223309
 20
23.5100208022
 11
-6.6648223309
 21
22.9671636492
  0
LINE
  5
657
100
AcDbEntity
  8
DRAFT
100
AcDbLine
 62
7
  6
CONTINUOUS
 10
-6.3735490756
 20
4.1588253956
 11
-6.3735490756
 21
4.445735094
  0
LINE
  5
658
100
AcDbEntity
  8
DRAFT
100
AcDbLine
 62
7
  6
CONTINUOUS
 10
-6.3735490756
 20
43.845735094
 11
-6.3735490756
 21
44.1326447923
  0
LINE
  5
659
100
AcDbEntity
  8
RACCORDO
100
AcDbLine
 62
7
  6
CONTINUOUS
 10
-6.3066440328
 20
44.7286593772
 11
-6.3066440328
 21
44.1027532108
  0
LINE
  5
65A
100
AcDbEntity
  8
RACCORDO
100
AcDbLine
 62
7
  6
CONTINUOUS
 10
-6.3066440328
 20
4.1887169771
 11
-6.3066440328
 21
3.5628108107
  0
LINE
  5
65B
100
AcDbEntity
  8
CURVE
100
AcDbLine
 62
253
  6
CONTINUOUS
 10
-5.8505366085
 20
32.9671636492
 11
-5.8505366085
 21
33.645735094
  0
LINE
  5
65C
100
AcDbEntity
  8
RACCORDO
100
AcDbLine
 62
7
  6
CONTINUOUS
 10
-5.423000629
 20
45.1417306397
 11
-5.423000629
 21
44.1027532108
  0
LINE
  5
65D
100
AcDbEntity
  8
RACCORDO
100
AcDbLine
 62
7
  6
CONTINUOUS
 10
-5.423000629
 20
4.1887169771
 11
-5.423000629
 21
3.1497395483
  0
LINE
  5
65E
100
AcDbEntity
  8
DRAFT
100
AcDbLine
 62
7
  6
CONTINUOUS
 10
-5.3560955862
 20
4.445735094
 11
-5.3560955862
 21
3.3243467629
  0
LINE
  5
65F
100
AcDbEntity
  8
DRAFT
100
AcDbLine
 62
7
  6
CONTINUOUS
 10
-5.3560955862
 20
43.845735094
 11
-5.3560955862
 21
44.967123425
  0
LINE
  5
660
100
AcDbEntity
  8
0
100
AcDbLine
 62
7
  6
CONTINUOUS
 10
-5.2648223309
 20
44.995735094
 11
-5.2648223309
 21
43.845735094
  0
LINE
  5
661
100
AcDbEntity
  8
DRAFT
100
AcDbLine
 62
7
  6
CONTINUOUS
 10
-5.2648223309
 20
44.995735094
 11
-5.2648223309
 21
43.845735094
  0
LINE
  5
662
100
AcDbEntity
  8
0
100
AcDbLine
 62
7
  6
CONTINUOUS
 10
-5.2648223309
 20
4.445735094
 11
-5.2648223309
 21
3.295735094
  0
LINE
  5
663
100
AcDbEntity
  8
DRAFT
100
AcDbLine
 62
7
  6
CONTINUOUS
 10
-5.2648223309
 20
4.445735094
 11
-5.2648223309
 21
3.295735094
  0
LWPOLYLINE
  5
664
100
AcDbEntity
  8
ASSI
100
AcDbPolyline
 62
7
  6
CONTINUOUS
 90
17
 70
0
 10
-9.1648223309
 20
0.3945928036
 10
-9.1644900409
 20
0.3973111827
 10
-9.1634811241
 20
0.4006930139
 10
-9.1617782244
 20
0.4047382971
 10
-9.1593638744
 20
0.4094342715
 10
-9.1562234503
 20
0.4147936979
 10
-9.1523481658
 20
0.4208548593
 10
-9.1477291889
 20
0.4276229932
 10
-9.1423570975
 20
0.4350928622
 10
-9.1362280326
 20
0.4432870365
 10
-9.1293533356
 20
0.4521849289
 10
-9.1217175873
 20
0.4618071267
 10
-9.1132675984
 20
0.4722379622
 10
-9.1039842208
 20
0.483480194
 10
-9.0938644365
 20
0.4955310637
 10
-9.082862509
 20
0.5084666275
 10
-9.0709666132
 20
0.5222878098
  0
LWPOLYLINE
  5
665
100
AcDbEntity
  8
0
100
AcDbPolyline
 62
253
  6
CONTINUOUS
 90
4
 70
0
 10
-14.6470687766
 20
6.6866721881
 10
-14.6252075064
 20
6.7290004243
 10
-14.5952822659
 20
6.7675215156
 10
-14.5581445216
 20
6.800920923
  0
LWPOLYLINE
  5
666
100
AcDbEntity
  8
RACCORDO
100
AcDbPolyline
 62
253
  6
CONTINUOUS
 90
4
 70
0
 10
-14.6470687766
 20
6.6866721881
 10
-14.6252075064
 20
6.7290004243
 10
-14.5952822659
 20
6.7675215156
 10
-14.5581445216
 20
6.800920923
  0
LINE
  5
667
100
AcDbEntity
  8
RACCORDO
100
AcDbLine
 62
7
  6
CONTINUOUS
 10
-19.0201170988
 20
4.0627917723
 11
-18.9560955862
 21
4.1588253956
  0
LWPOLYLINE
  5
668
100
AcDbEntity
  8
RACCORDO
100
AcDbPolyline
 62
7
  6
CONTINUOUS
 90
3
 70
0
 10
-20.4587768877
 20
2.5327462095
 10
-20.407607161
 20
2.6071448493
 10
-20.3815988293
 20
2.6445968295
  0
LINE
  5
669
100
AcDbEntity
  8
RACCORDO
100
AcDbLine
 62
7
  6
CONTINUOUS
 10
-20.3815988293
 20
2.6445968295
 11
-20.3023569517
 21
2.7575512067
  0
LINE
  5
66A
100
AcDbEntity
  8
RACCORDO
100
AcDbLine
 62
7
  6
CONTINUOUS
 10
-20.3023569517
 20
2.7575512067
 11
-20.24892305
 21
2.8330418502
  0
LINE
  5
66B
100
AcDbEntity
  8
CURVE
100
AcDbLine
 62
253
  6
CONTINUOUS
 10
-6.1219651637
 20
22.695735094
 11
-5.3076794414
 21
23.645735094
  0
LINE
  5
66C
100
AcDbEntity
  8
CURVE
100
AcDbLine
 62
253
  6
CONTINUOUS
 10
-3.9148223309
 20
24.083235094
 11
-4.0398223309
 21
23.958235094
  0
LINE
  5
66D
100
AcDbEntity
  8
CURVE
100
AcDbLine
 62
253
  6
CONTINUOUS
 10
-4.7648223309
 20
22.8314493716
 11
-4.9005366651
 21
22.695735094
  0
LINE
  5
66E
100
AcDbEntity
  8
CURVE
100
AcDbLine
 62
253
  6
CONTINUOUS
 10
-2.8523223309
 20
23.895735094
 11
-2.9148223309
 21
23.833235094
  0
LINE
  5
66F
100
AcDbEntity
  8
SMUSSO
100
AcDbLine
 62
7
  6
CONTINUOUS
 10
-12.4148223309
 20
29.895735094
 11
-8.4148223309
 21
29.895735094
  0
LINE
  5
670
100
AcDbEntity
  8
ASSI
100
AcDbLine
 62
7
  6
CONTINUOUS
 10
-12.4148223309
 20
29.895735094
 11
-8.4148223309
 21
29.895735094
  0
LINE
  5
671
100
AcDbEntity
  8
CURVE
100
AcDbLine
 62
253
  6
CONTINUOUS
 10
-3.4791080369
 20
29.9695447654
 11
-3.1076794682
 21
29.9695447654
  0
LINE
  5
672
100
AcDbEntity
  8
RACCORDO
100
AcDbLine
 62
7
  6
CONTINUOUS
 10
-23.377901209
 20
30.295735094
 11
-22.4648223309
 21
30.295735094
  0
LINE
  5
673
100
AcDbEntity
  8
ASSI
100
AcDbLine
 62
7
  6
CONTINUOUS
 10
-23.377901209
 20
30.295735094
 11
-22.4648223309
 21
30.295735094
  0
LINE
  5
674
100
AcDbEntity
  8
CURVE
100
AcDbLine
 62
7
  6
CONTINUOUS
 10
-23.7380200452
 20
30.316868094
 11
-23.7886243329
 21
30.316868094
  0
LINE
  5
675
100
AcDbEntity
  8
SMUSSO
100
AcDbLine
 62
7
  6
CONTINUOUS
 10
-12.9148223309
 20
30.395735094
 11
-7.9148223309
 21
30.395735094
  0
LINE
  5
676
100
AcDbEntity
  8
ASSI
100
AcDbLine
 62
7
  6
CONTINUOUS
 10
-12.9148223309
 20
30.395735094
 11
-7.9148223309
 21
30.395735094
  0
LINE
  5
677
100
AcDbEntity
  8
CURVE
100
AcDbLine
 62
253
  6
CONTINUOUS
 10
-2.9219651548
 20
30.5266873568
 11
-2.3648223309
 21
30.5266873568
  0
LINE
  5
678
100
AcDbEntity
  8
SMUSSO
100
AcDbLine
 62
7
  6
CONTINUOUS
 10
-7.9148223309
 20
30.895735094
 11
-12.9148223309
 21
30.895735094
  0
LINE
  5
679
100
AcDbEntity
  8
ASSI
100
AcDbLine
 62
7
  6
CONTINUOUS
 10
-7.9148223309
 20
30.895735094
 11
-12.9148223309
 21
30.895735094
  0
LINE
  5
67A
100
AcDbEntity
  8
CURVE
100
AcDbLine
 62
7
  6
CONTINUOUS
 10
-23.7886243329
 20
30.939474094
 11
-23.7464296548
 21
30.939474094
  0
LINE
  5
67B
100
AcDbEntity
  8
RACCORDO
100
AcDbLine
 62
7
  6
CONTINUOUS
 10
-23.377901209
 20
30.995735094
 11
-22.4648223309
 21
30.995735094
  0
LINE
  5
67C
100
AcDbEntity
  8
ASSI
100
AcDbLine
 62
7
  6
CONTINUOUS
 10
-23.377901209
 20
30.995735094
 11
-22.4648223309
 21
30.995735094
  0
LINE
  5
67D
100
AcDbEntity
  8
SMUSSO
100
AcDbLine
 62
7
  6
CONTINUOUS
 10
-8.4148223309
 20
31.395735094
 11
-12.4148223309
 21
31.395735094
  0
LINE
  5
67E
100
AcDbEntity
  8
ASSI
100
AcDbLine
 62
7
  6
CONTINUOUS
 10
-8.4148223309
 20
31.395735094
 11
-12.4148223309
 21
31.395735094
  0
LINE
  5
67F
100
AcDbEntity
  8
CURVE
100
AcDbLine
 62
253
  6
CONTINUOUS
 10
-3.2273223309
 20
23.958235094
 11
-3.3523223309
 21
24.083235094
  0
LINE
  5
680
100
AcDbEntity
  8
CURVE
100
AcDbLine
 62
253
  6
CONTINUOUS
 10
-2.3523223309
 20
23.770735094
 11
-2.4773223309
 21
23.895735094
  0
LINE
  5
681
100
AcDbEntity
  8
RACCORDO
100
AcDbLine
 62
7
  6
CONTINUOUS
 10
-20.24892305
 20
45.4584283377
 11
-20.3023569517
 21
45.5339189812
  0
LINE
  5
682
100
AcDbEntity
  8
RACCORDO
100
AcDbLine
 62
7
  6
CONTINUOUS
 10
-20.3023569517
 20
45.5339189812
 11
-20.3815988293
 21
45.6468733584
  0
LWPOLYLINE
  5
683
100
AcDbEntity
  8
RACCORDO
100
AcDbPolyline
 62
7
  6
CONTINUOUS
 90
7
 70
0
 10
-20.3815988293
 20
45.6468733584
 10
-20.4333359401
 20
45.7216277107
 10
-20.4587768877
 20
45.7587239784
 10
-20.4837521348
 20
45.7956530781
 10
-20.5082023919
 20
45.8323808578
 10
-20.5321869484
 20
45.8688040542
 10
-20.5557058045
 20
45.9048516203
  0
LINE
  5
684
100
AcDbEntity
  8
RACCORDO
100
AcDbLine
 62
7
  6
CONTINUOUS
 10
-19.0201170988
 20
44.2286784156
 11
-18.9560955862
 21
44.1326447923
  0
LINE
  5
685
100
AcDbEntity
  8
CURVE
100
AcDbLine
 62
253
  6
CONTINUOUS
 10
-4.1023223309
 20
23.208235094
 11
-3.9773223309
 21
23.020735094
  0
LWPOLYLINE
  5
686
100
AcDbEntity
  8
RACCORDO
100
AcDbPolyline
 62
253
  6
CONTINUOUS
 90
31
 70
0
 10
-4.4104504969
 20
47.9900726612
 10
-4.4100711424
 20
47.9787621535
 10
-4.4090100946
 20
47.9674825344
 10
-4.4072702513
 20
47.9562646081
 10
-4.4048563661
 20
47.9451390192
 10
-4.40177503
 20
47.9341361423
 10
-4.3980346483
 20
47.9232859996
 10
-4.3936454219
 20
47.9126182035
 10
-4.3886193398
 20
47.90216191
 10
-4.3829701434
 20
47.8919457107
 10
-4.3767132716
 20
47.8819975192
 10
-4.369865806
 20
47.8723444886
 10
-4.3624464419
 20
47.8630129724
 10
-4.3544754383
 20
47.8540284514
 10
-4.3459745668
 20
47.845415466
 10
-4.3369670465
 20
47.8371975408
 10
-4.3274774827
 20
47.8293971225
 10
-4.317531787
 20
47.8220355089
 10
-4.3071571075
 20
47.815132795
 10
-4.296381755
 20
47.8087078215
 10
-4.2852351755
 20
47.8027781499
 10
-4.2737478612
 20
47.7973599986
 10
-4.2619512193
 20
47.7924681714
 10
-4.2498774384
 20
47.7881160068
 10
-4.2375594498
 20
47.7843153719
 10
-4.2250304175
 20
47.7810765347
 10
-4.2123250197
 20
47.7784084946
 10
-4.1994793683
 20
47.7763187354
 10
-4.1865290536
 20
47.7748128168
 10
-4.1735089897
 20
47.7738945708
 10
-4.1604547277
 20
47.7735663103
  0
LINE
  5
687
100
AcDbEntity
  8
RACCORDO
100
AcDbLine
 62
253
  6
CONTINUOUS
 10
-4.4104504969
 20
0.3013975267
 11
-4.4148223309
 21
0.7352499457
  0
LINE
  5
688
100
AcDbEntity
  8
RACCORDO
100
AcDbLine
 62
253
  6
CONTINUOUS
 10
-4.1597274989
 20
0.445735094
 11
-4.1655453287
 21
1.0230853631
  0
LINE
  5
689
100
AcDbEntity
  8
0
100
AcDbLine
 62
7
  6
CONTINUOUS
 10
-5.2281666945
 20
44.995735094
 11
-5.2281666945
 21
43.8090794576
  0
LINE
  5
68A
100
AcDbEntity
  8
DRAFT
100
AcDbLine
 62
7
  6
CONTINUOUS
 10
-5.2281666945
 20
44.995735094
 11
-5.2281666945
 21
43.8090794576
  0
LINE
  5
68B
100
AcDbEntity
  8
0
100
AcDbLine
 62
7
  6
CONTINUOUS
 10
-5.2281666945
 20
4.4823907303
 11
-5.2281666945
 21
3.295735094
  0
LINE
  5
68C
100
AcDbEntity
  8
DRAFT
100
AcDbLine
 62
7
  6
CONTINUOUS
 10
-5.2281666945
 20
4.4823907303
 11
-5.2281666945
 21
3.295735094
  0
LINE
  5
68D
100
AcDbEntity
  8
RACCORDO
100
AcDbLine
 62
253
  6
CONTINUOUS
 10
-5.0807216117
 20
2.8330418502
 11
-5.0807216117
 21
3.1497395483
  0
LINE
  5
68E
100
AcDbEntity
  8
RACCORDO
100
AcDbLine
 62
253
  6
CONTINUOUS
 10
-5.0807216117
 20
45.1417306397
 11
-5.0807216117
 21
45.4584283377
  0
LINE
  5
68F
100
AcDbEntity
  8
CURVE
100
AcDbLine
 62
253
  6
CONTINUOUS
 10
-4.7648223309
 20
33.645735094
 11
-4.7648223309
 21
32.9671636492
  0
LINE
  5
690
100
AcDbEntity
  8
CURVE
100
AcDbLine
 62
253
  6
CONTINUOUS
 10
-4.7648223309
 20
23.3743065104
 11
-4.7648223309
 21
22.8314493716
  0
LINE
  5
691
100
AcDbEntity
  8
RACCORDO
100
AcDbLine
 62
253
  6
CONTINUOUS
 10
-4.5807977641
 20
2.5797596607
 11
-4.5807977641
 21
3.1540268297
  0
LINE
  5
692
100
AcDbEntity
  8
RACCORDO
100
AcDbLine
 62
253
  6
CONTINUOUS
 10
-4.5807977641
 20
45.1374433582
 11
-4.5807977641
 21
45.7117105272
  0
LINE
  5
693
100
AcDbEntity
  8
DRAFT
100
AcDbLine
 62
7
  6
CONTINUOUS
 10
-4.4148223309
 20
45.545735094
 11
-4.4148223309
 21
45.045735094
  0
LINE
  5
694
100
AcDbEntity
  8
DRAFT
100
AcDbLine
 62
7
  6
CONTINUOUS
 10
-4.4148223309
 20
3.245735094
 11
-4.4148223309
 21
2.745735094
  0
LINE
  5
695
100
AcDbEntity
  8
RACCORDO
100
AcDbLine
 62
7
  6
CONTINUOUS
 10
-4.4148223309
 20
-0.1042691368
 11
-4.4148223309
 21
1.745735094
  0
LINE
  5
696
100
AcDbEntity
  8
RACCORDO
100
AcDbLine
 62
7
  6
CONTINUOUS
 10
-4.4148223309
 20
46.545735094
 11
-4.4148223309
 21
48.3957393247
  0
LINE
  5
697
100
AcDbEntity
  8
RACCORDO
100
AcDbLine
 62
253
  6
CONTINUOUS
 10
-4.4104504969
 20
48.3913674907
 11
-4.4104504969
 21
47.9900726612
  0
LINE
  5
698
100
AcDbEntity
  8
RACCORDO
100
AcDbLine
 62
253
  6
CONTINUOUS
 10
-4.4104504969
 20
0.3013975267
 11
-4.4104504969
 21
-0.0998973028
  0
LINE
  5
699
100
AcDbEntity
  8
CURVE
100
AcDbLine
 62
253
  6
CONTINUOUS
 10
-4.1648223309
 20
23.645735094
 11
-4.1648223309
 21
23.458235094
  0
LINE
  5
69A
100
AcDbEntity
  8
RACCORDO
100
AcDbLine
 62
253
  6
CONTINUOUS
 10
-4.1604547277
 20
0.445735094
 11
-4.1604547277
 21
-0.349893072
  0
LINE
  5
69B
100
AcDbEntity
  8
RACCORDO
100
AcDbLine
 62
253
  6
CONTINUOUS
 10
-4.1604547277
 20
47.7735663103
 11
-4.1604547277
 21
48.64136326
  0
LINE
  5
69C
100
AcDbEntity
  8
CURVE
100
AcDbLine
 62
253
  6
CONTINUOUS
 10
-3.6648223309
 20
36.6243065447
 11
-3.6648223309
 21
36.1600207418
  0
LINE
  5
69D
100
AcDbEntity
  8
CURVE
100
AcDbLine
 62
253
  6
CONTINUOUS
 10
-3.6648223309
 20
30.5266873568
 11
-3.6648223309
 21
30.1552589625
  0
LINE
  5
69E
100
AcDbEntity
  8
CURVE
100
AcDbLine
 62
253
  6
CONTINUOUS
 10
-3.6648223309
 20
27.5552589625
 11
-3.6648223309
 21
26.9981157511
  0
LINE
  5
69F
100
AcDbEntity
  8
CURVE
100
AcDbLine
 62
253
  6
CONTINUOUS
 10
-3.6648223309
 20
29.2266873568
 11
-3.6648223309
 21
29.3195447654
  0
LINE
  5
6A0
100
AcDbEntity
  8
CURVE
100
AcDbLine
 62
253
  6
CONTINUOUS
 10
-3.6648223309
 20
35.3243065447
 11
-3.6648223309
 21
35.4171636432
  0
LINE
  5
6A1
100
AcDbEntity
  8
CURVE
100
AcDbLine
 62
253
  6
CONTINUOUS
 10
-3.6648223309
 20
36.995735094
 11
-3.6648223309
 21
37.645735094
  0
LINE
  5
6A2
100
AcDbEntity
  8
RACCORDO
100
AcDbLine
 62
253
  6
CONTINUOUS
 10
-4.4148223309
 20
47.5562202422
 11
-4.4104504969
 21
47.9900726612
  0
LINE
  5
6A3
100
AcDbEntity
  8
RACCORDO
100
AcDbLine
 62
253
  6
CONTINUOUS
 10
-4.1655453287
 20
47.2683848248
 11
-4.1604547277
 21
47.7735663103
  0
LWPOLYLINE
  5
6A4
100
AcDbEntity
  8
RACCORDO
100
AcDbPolyline
 62
7
  6
CONTINUOUS
 90
34
 70
0
 10
-4.4148223309
 20
48.3957393247
 10
-4.4145391806
 20
48.40763461
 10
-4.4136903651
 20
48.4195029495
 10
-4.412277805
 20
48.4313174601
 10
-4.4103046986
 20
48.4430513814
 10
-4.4077755126
 20
48.4546781328
 10
-4.4046959726
 20
48.466171373
 10
-4.4010730522
 20
48.4775050677
 10
-4.3969149566
 20
48.4886535432
 10
-4.3922311031
 20
48.4995915403
 10
-4.3870320997
 20
48.5102942815
 10
-4.3813297225
 20
48.5207375222
 10
-4.375136889
 20
48.5308975999
 10
-4.3684676263
 20
48.5407514991
 10
-4.3613370416
 20
48.5502768978
 10
-4.3537612897
 20
48.559452213
 10
-4.3457575314
 20
48.56825666
 10
-4.337343897
 20
48.5766702944
 10
-4.3285394499
 20
48.5846740528
 10
-4.3193641347
 20
48.5922498047
 10
-4.309838736
 20
48.5993803894
 10
-4.2999848368
 20
48.6060496521
 10
-4.2898247591
 20
48.6122424856
 10
-4.2793815185
 20
48.6179448628
 10
-4.2686787772
 20
48.6231438661
 10
-4.2577407802
 20
48.6278277197
 10
-4.2465923046
 20
48.6319858153
 10
-4.2352586099
 20
48.6356087357
 10
-4.2237653697
 20
48.6386882757
 10
-4.2121386184
 20
48.6412174617
 10
-4.200404697
 20
48.6431905681
 10
-4.1885901864
 20
48.6446031282
 10
-4.1767218469
 20
48.6454519437
 10
-4.1648265617
 20
48.645735094
  0
LWPOLYLINE
  5
6A5
100
AcDbEntity
  8
RACCORDO
100
AcDbPolyline
 62
253
  6
CONTINUOUS
 90
31
 70
0
 10
-4.4104504969
 20
48.3913674907
 10
-4.4101073079
 20
48.4044538449
 10
-4.4090795649
 20
48.4175043432
 10
-4.4073700817
 20
48.4304832006
 10
-4.404983539
 20
48.4433548403
 10
-4.4019264779
 20
48.4560839542
 10
-4.3982072883
 20
48.4686356016
 10
-4.3938361733
 20
48.4809753578
 10
-4.3888251178
 20
48.493069395
 10
-4.3831878695
 20
48.5048845406
 10
-4.3769398904
 20
48.5163883964
 10
-4.3700983146
 20
48.5275494224
 10
-4.3626819077
 20
48.5383370127
 10
-4.3547109995
 20
48.548721602
 10
-4.346207458
 20
48.5586747054
 10
-4.3371946389
 20
48.5681689986
 10
-4.3276973044
 20
48.5771784204
 10
-4.3177414673
 20
48.5856783173
 10
-4.3073543414
 20
48.5936454595
 10
-4.2965642622
 20
48.6010580896
 10
-4.2854009438
 20
48.6078957714
 10
-4.2738953434
 20
48.614139573
 10
-4.2620792651
 20
48.6197723216
 10
-4.249984909
 20
48.6247787515
 10
-4.2376451051
 20
48.6291453026
 10
-4.2250909205
 20
48.6328607424
 10
-4.2123594554
 20
48.6359138558
 10
-4.1994937366
 20
48.6382949859
 10
-4.186531962
 20
48.6399985901
 10
-4.1735070676
 20
48.6410218527
 10
-4.1604547277
 20
48.64136326
  0
LINE
  5
6A6
100
AcDbEntity
  8
CURVE
100
AcDbLine
 62
253
  6
CONTINUOUS
 10
-4.1023223309
 20
23.833235094
 11
-4.1648223309
 21
23.645735094
  0
LINE
  5
6A7
100
AcDbEntity
  8
CURVE
100
AcDbLine
 62
253
  6
CONTINUOUS
 10
-4.0398223309
 20
23.958235094
 11
-4.1023223309
 21
23.833235094
  0
LINE
  5
6A8
100
AcDbEntity
  8
CURVE
100
AcDbLine
 62
253
  6
CONTINUOUS
 10
-2.9148223309
 20
23.833235094
 11
-2.9773223309
 21
23.708235094
  0
LINE
  5
6A9
100
AcDbEntity
  8
DRAFT
100
AcDbLine
 62
7
  6
CONTINUOUS
 10
-17.0648223309
 20
1.745735094
 11
-17.0207550636
 21
1.8118369271
  0
LINE
  5
6AA
100
AcDbEntity
  8
0
100
AcDbLine
 62
7
  6
CONTINUOUS
 10
-12.0648223309
 20
31.645735094
 11
-9.0648223309
 21
31.645735094
  0
LINE
  5
6AB
100
AcDbEntity
  8
CURVE
100
AcDbLine
 62
7
  6
CONTINUOUS
 10
-23.7464296548
 20
32.012473094
 11
-23.7380200452
 21
32.012473094
  0
LINE
  5
6AC
100
AcDbEntity
  8
CURVE
100
AcDbLine
 62
253
  6
CONTINUOUS
 10
-5.0362508861
 20
32.695735094
 11
-5.5791079966
 21
32.695735094
  0
LINE
  5
6AD
100
AcDbEntity
  8
CURVE
100
AcDbLine
 62
7
  6
CONTINUOUS
 10
-15.6167823309
 20
33.128179094
 11
-16.3676023309
 21
33.128179094
  0
LINE
  5
6AE
100
AcDbEntity
  8
CURVE
100
AcDbLine
 62
7
  6
CONTINUOUS
 10
-19.9620423309
 20
33.128179094
 11
-20.7128623309
 21
33.128179094
  0
LINE
  5
6AF
100
AcDbEntity
  8
CURVE
100
AcDbLine
 62
253
  6
CONTINUOUS
 10
-3.2933937428
 20
28.9481157511
 11
-3.4791080369
 21
29.0409731597
  0
LINE
  5
6B0
100
AcDbEntity
  8
CURVE
100
AcDbLine
 62
253
  6
CONTINUOUS
 10
-2.7362508802
 20
26.9981157511
 11
-3.6648223309
 21
27.5552589625
  0
LINE
  5
6B1
100
AcDbEntity
  8
SMUSSO
100
AcDbLine
 62
7
  6
CONTINUOUS
 10
-12.9148223309
 20
35.395735094
 11
-12.4148223309
 21
34.895735094
  0
LINE
  5
6B2
100
AcDbEntity
  8
ASSI
100
AcDbLine
 62
7
  6
CONTINUOUS
 10
-12.9148223309
 20
35.395735094
 11
-12.4148223309
 21
34.895735094
  0
LINE
  5
6B3
100
AcDbEntity
  8
SMUSSO
100
AcDbLine
 62
7
  6
CONTINUOUS
 10
-7.9148223309
 20
30.895735094
 11
-8.4148223309
 21
31.395735094
  0
LINE
  5
6B4
100
AcDbEntity
  8
ASSI
100
AcDbLine
 62
7
  6
CONTINUOUS
 10
-7.9148223309
 20
30.895735094
 11
-8.4148223309
 21
31.395735094
  0
LINE
  5
6B5
100
AcDbEntity
  8
DRAFT
100
AcDbLine
 62
7
  6
CONTINUOUS
 10
-17.0648223309
 20
46.545735094
 11
-17.0207550636
 21
46.4796332608
  0
LINE
  5
6B6
100
AcDbEntity
  8
CURVE
100
AcDbLine
 62
253
  6
CONTINUOUS
 10
-3.1023223309
 20
23.708235094
 11
-3.2273223309
 21
23.958235094
  0
LINE
  5
6B7
100
AcDbEntity
  8
CURVE
100
AcDbLine
 62
253
  6
CONTINUOUS
 10
-4.1648223309
 20
23.458235094
 11
-4.1023223309
 21
23.208235094
  0
LINE
  5
6B8
100
AcDbEntity
  8
CURVE
100
AcDbLine
 62
253
  6
CONTINUOUS
 10
-3.0398223309
 20
23.458235094
 11
-3.1023223309
 21
23.708235094
  0
LINE
  5
6B9
100
AcDbEntity
  8
RACCORDO
100
AcDbLine
 62
253
  6
CONTINUOUS
 10
-2.2691899341
 20
47.7735663103
 11
-2.264099333
 21
47.2683848248
  0
LINE
  5
6BA
100
AcDbEntity
  8
RACCORDO
100
AcDbLine
 62
253
  6
CONTINUOUS
 10
-2.0191941649
 20
47.9900726612
 11
-2.0148223309
 21
47.5562202422
  0
LINE
  5
6BB
100
AcDbEntity
  8
DRAFT
100
AcDbLine
 62
7
  6
CONTINUOUS
 10
-3.0410049283
 20
44.967123425
 11
-3.0410049283
 21
44.1719176913
  0
LINE
  5
6BC
100
AcDbEntity
  8
DRAFT
100
AcDbLine
 62
7
  6
CONTINUOUS
 10
-3.0410049283
 20
4.1195524966
 11
-3.0410049283
 21
3.3243467629
  0
LINE
  5
6BD
100
AcDbEntity
  8
CURVE
100
AcDbLine
 62
253
  6
CONTINUOUS
 10
-3.0398223309
 20
23.520735094
 11
-3.0398223309
 21
23.458235094
  0
LINE
  5
6BE
100
AcDbEntity
  8
DRAFT
100
AcDbLine
 62
7
  6
CONTINUOUS
 10
-3.0148223309
 20
45.045735094
 11
-3.0148223309
 21
44.145735094
  0
LINE
  5
6BF
100
AcDbEntity
  8
DRAFT
100
AcDbLine
 62
7
  6
CONTINUOUS
 10
-3.0148223309
 20
4.145735094
 11
-3.0148223309
 21
3.245735094
  0
LINE
  5
6C0
100
AcDbEntity
  8
CURVE
100
AcDbLine
 62
253
  6
CONTINUOUS
 10
-2.9219651548
 20
28.5766873568
 11
-2.9219651548
 21
27.9266873568
  0
LINE
  5
6C1
100
AcDbEntity
  8
CURVE
100
AcDbLine
 62
253
  6
CONTINUOUS
 10
-2.9219651548
 20
30.1552589625
 11
-2.9219651548
 21
30.5266873568
  0
LINE
  5
6C2
100
AcDbEntity
  8
CURVE
100
AcDbLine
 62
253
  6
CONTINUOUS
 10
-2.9219651548
 20
36.2528779954
 11
-2.9219651548
 21
36.43859227
  0
LINE
  5
6C3
100
AcDbEntity
  8
RACCORDO
100
AcDbLine
 62
7
  6
CONTINUOUS
 10
-2.8674403912
 20
4.6194272193
 11
-2.8674403912
 21
4.5431167516
  0
LINE
  5
6C4
100
AcDbEntity
  8
ASSI
100
AcDbLine
 62
7
  6
CONTINUOUS
 10
-2.8674403912
 20
4.6194272193
 11
-2.8674403912
 21
4.5431167516
  0
LINE
  5
6C5
100
AcDbEntity
  8
CURVE
100
AcDbLine
 62
253
  6
CONTINUOUS
 10
-2.7362508802
 20
27.5552589625
 11
-2.7362508802
 21
26.9981157511
  0
LINE
  5
6C6
100
AcDbEntity
  8
CURVE
100
AcDbLine
 62
253
  6
CONTINUOUS
 10
-2.3648223309
 20
35.4171636432
 11
-2.3648223309
 21
35.3243065447
  0
LINE
  5
6C7
100
AcDbEntity
  8
CURVE
100
AcDbLine
 62
253
  6
CONTINUOUS
 10
-2.3648223309
 20
30.5266873568
 11
-2.3648223309
 21
29.9695447654
  0
LINE
  5
6C8
100
AcDbEntity
  8
CURVE
100
AcDbLine
 62
253
  6
CONTINUOUS
 10
-2.3648223309
 20
29.3195447654
 11
-2.3648223309
 21
29.2266873568
  0
LINE
  5
6C9
100
AcDbEntity
  8
CURVE
100
AcDbLine
 62
253
  6
CONTINUOUS
 10
-2.3648223309
 20
36.2528779954
 11
-2.3648223309
 21
36.6243065447
  0
LINE
  5
6CA
100
AcDbEntity
  8
CURVE
100
AcDbLine
 62
253
  6
CONTINUOUS
 10
-2.3648223309
 20
37.1814493686
 11
-2.3648223309
 21
37.4600207999
  0
LINE
  5
6CB
100
AcDbEntity
  8
CURVE
100
AcDbLine
 62
253
  6
CONTINUOUS
 10
-2.2898223309
 20
23.458235094
 11
-2.2898223309
 21
23.583235094
  0
LINE
  5
6CC
100
AcDbEntity
  8
RACCORDO
100
AcDbLine
 62
253
  6
CONTINUOUS
 10
-2.2691899341
 20
-0.349893072
 11
-2.2691899341
 21
0.445735094
  0
LINE
  5
6CD
100
AcDbEntity
  8
RACCORDO
100
AcDbLine
 62
253
  6
CONTINUOUS
 10
-2.2691899341
 20
47.7735663103
 11
-2.2691899341
 21
48.64136326
  0
LINE
  5
6CE
100
AcDbEntity
  8
RACCORDO
100
AcDbLine
 62
253
  6
CONTINUOUS
 10
-2.0191941649
 20
-0.0998973028
 11
-2.0191941649
 21
0.3013975267
  0
LINE
  5
6CF
100
AcDbEntity
  8
RACCORDO
100
AcDbLine
 62
253
  6
CONTINUOUS
 10
-2.0191941649
 20
47.9900726612
 11
-2.0191941649
 21
48.3913674907
  0
LINE
  5
6D0
100
AcDbEntity
  8
RACCORDO
100
AcDbLine
 62
7
  6
CONTINUOUS
 10
-2.0148223309
 20
-0.1042691368
 11
-2.0148223309
 21
1.745735094
  0
LINE
  5
6D1
100
AcDbEntity
  8
RACCORDO
100
AcDbLine
 62
7
  6
CONTINUOUS
 10
-2.0148223309
 20
46.545735094
 11
-2.0148223309
 21
48.3957393247
  0
LINE
  5
6D2
100
AcDbEntity
  8
RACCORDO
100
AcDbLine
 62
253
  6
CONTINUOUS
 10
-2.264099333
 20
1.0230853631
 11
-2.2699171628
 21
0.445735094
  0
LINE
  5
6D3
100
AcDbEntity
  8
RACCORDO
100
AcDbLine
 62
253
  6
CONTINUOUS
 10
-2.0148223309
 20
0.7352499457
 11
-2.0191941649
 21
0.3013975267
  0
LWPOLYLINE
  5
6D4
100
AcDbEntity
  8
RACCORDO
100
AcDbPolyline
 62
253
  6
CONTINUOUS
 90
31
 70
0
 10
-2.0191941649
 20
47.9900726612
 10
-2.0195727205
 20
47.978774689
 10
-2.0206318481
 20
47.967504385
 10
-2.0223692246
 20
47.9562925151
 10
-2.024780926
 20
47.945168706
 10
-2.0278607963
 20
47.934164454
 10
-2.0315998472
 20
47.9233129142
 10
-2.0359873916
 20
47.9126447911
 10
-2.0410117906
 20
47.9021881178
 10
-2.0466594713
 20
47.891971199
 10
-2.0529151638
 20
47.8820217939
 10
-2.0597617384
 20
47.8723672693
 10
-2.0671803467
 20
47.8630342459
 10
-2.0751506507
 20
47.8540482957
 10
-2.0836509455
 20
47.8454338765
 10
-2.092658036
 20
47.8372144981
 10
-2.1021473397
 20
47.8294126015
 10
-2.1120929268
 20
47.8220495133
 10
-2.1224676097
 20
47.8151453644
 10
-2.1332430421
 20
47.8087190178
 10
-2.1443898001
 20
47.8027880208
 10
-2.1558774371
 20
47.7973685735
 10
-2.1676745938
 20
47.7924754715
 10
-2.1797490303
 20
47.7881220884
 10
-2.1920677099
 20
47.7843203311
 10
-2.2045969452
 20
47.7810805846
 10
-2.2173025481
 20
47.7784116782
 10
-2.2301498689
 20
47.7763208858
 10
-2.2431038361
 20
47.7748139158
 10
-2.2561290499
 20
47.7738948874
 10
-2.2691899341
 20
47.7735663103
  0
LWPOLYLINE
  5
6D5
100
AcDbEntity
  8
RACCORDO
100
AcDbPolyline
 62
7
  6
CONTINUOUS
 90
34
 70
0
 10
-4.4104504969
 20
0.3013975267
 10
-4.4101527705
 20
0.3076391057
 10
-4.4093815191
 20
0.3139122168
 10
-4.4081311563
 20
0.3201986328
 10
-4.4063971091
 20
0.3264726649
 10
-4.4041756663
 20
0.3327222032
 10
-4.4014636463
 20
0.3389486872
 10
-4.3982591495
 20
0.3451316247
 10
-4.394561225
 20
0.3512512549
 10
-4.390368974
 20
0.3573094114
 10
-4.3856834898
 20
0.3632845881
 10
-4.3805068478
 20
0.3691559958
 10
-4.3748404771
 20
0.3749258177
 10
-4.3686886932
 20
0.3805717986
 10
-4.3620569108
 20
0.3860722917
 10
-4.354949108
 20
0.3914296275
 10
-4.3473731124
 20
0.3966210798
 10
-4.3393380304
 20
0.4016243886
 10
-4.3308508049
 20
0.4064418026
 10
-4.3219230954
 20
0.411050496
 10
-4.3125681167
 20
0.4154279048
 10
-4.3027964421
 20
0.4195759528
 10
-4.2926239309
 20
0.4234722117
 10
-4.2820683438
 20
0.4270942545
 10
-4.271144743
 20
0.4304434907
 10
-4.2598736854
 20
0.4334985238
 10
-4.248277761
 20
0.4362377301
 10
-4.2363770632
 20
0.4386620115
 10
-4.2242102355
 20
0.4407488122
 10
-4.2117921806
 20
0.4424822712
 10
-4.1991081865
 20
0.4438683922
 10
-4.1861734759
 20
0.4448914742
 10
-4.1730349744
 20
0.445520664
 10
-4.1597274989
 20
0.445735094
  0
LINE
  5
6D6
100
AcDbEntity
  8
DRAFT
100
AcDbLine
 62
7
  6
CONTINUOUS
 10
-5.3659846562
 20
3.2352647135
 11
-5.3560955862
 21
3.3243467629
  0
LINE
  5
6D7
100
AcDbEntity
  8
CURVE
100
AcDbLine
 62
253
  6
CONTINUOUS
 10
-2.3523223309
 20
23.208235094
 11
-2.2898223309
 21
23.458235094
  0
LINE
  5
6D8
100
AcDbEntity
  8
CURVE
100
AcDbLine
 62
253
  6
CONTINUOUS
 10
-2.9773223309
 20
23.708235094
 11
-3.0398223309
 21
23.520735094
  0
LINE
  5
6D9
100
AcDbEntity
  8
CURVE
100
AcDbLine
 62
253
  6
CONTINUOUS
 10
-2.4148223309
 20
23.020735094
 11
-2.3523223309
 21
23.208235094
  0
LINE
  5
6DA
100
AcDbEntity
  8
CURVE
100
AcDbLine
 62
253
  6
CONTINUOUS
 10
-2.4773223309
 20
22.895735094
 11
-2.4148223309
 21
23.020735094
  0
LINE
  5
6DB
100
AcDbEntity
  8
RACCORDO
100
AcDbLine
 62
7
  6
CONTINUOUS
 10
-19.0218438323
 20
4.3887135925
 11
-18.9648223309
 21
4.445735094
  0
LINE
  5
6DC
100
AcDbEntity
  8
RACCORDO
100
AcDbLine
 62
253
  6
CONTINUOUS
 10
-23.3104504969
 20
-0.0998973028
 11
-23.3148223309
 21
-0.1042691368
  0
LINE
  5
6DD
100
AcDbEntity
  8
RACCORDO
100
AcDbLine
 62
253
  6
CONTINUOUS
 10
-23.0604547277
 20
-0.349893072
 11
-23.0648265617
 21
-0.354264906
  0
LINE
  5
6DE
100
AcDbEntity
  8
CURVE
100
AcDbLine
 62
7
  6
CONTINUOUS
 10
-17.7898223309
 20
33.528179094
 11
-18.5398223309
 21
33.528179094
  0
LINE
  5
6DF
100
AcDbEntity
  8
CURVE
100
AcDbLine
 62
253
  6
CONTINUOUS
 10
-6.6648223309
 20
33.645735094
 11
-4.7648223309
 21
33.645735094
  0
LINE
  5
6E0
100
AcDbEntity
  8
0
100
AcDbLine
 62
7
  6
CONTINUOUS
 10
-9.0648223309
 20
34.645735094
 11
-12.0648223309
 21
34.645735094
  0
LINE
  5
6E1
100
AcDbEntity
  8
SMUSSO
100
AcDbLine
 62
7
  6
CONTINUOUS
 10
-12.4148223309
 20
34.895735094
 11
-8.4148223309
 21
34.895735094
  0
LINE
  5
6E2
100
AcDbEntity
  8
ASSI
100
AcDbLine
 62
7
  6
CONTINUOUS
 10
-12.4148223309
 20
34.895735094
 11
-8.4148223309
 21
34.895735094
  0
LINE
  5
6E3
100
AcDbEntity
  8
CURVE
100
AcDbLine
 62
253
  6
CONTINUOUS
 10
-2.7362508802
 20
35.045735094
 11
-3.2933937428
 21
35.045735094
  0
LINE
  5
6E4
100
AcDbEntity
  8
CURVE
100
AcDbLine
 62
253
  6
CONTINUOUS
 10
-2.7362508802
 20
29.5981157511
 11
-2.5505366055
 21
29.5052589625
  0
LINE
  5
6E5
100
AcDbEntity
  8
RACCORDO
100
AcDbLine
 62
7
  6
CONTINUOUS
 10
-19.0218438323
 20
43.9027565954
 11
-18.9648223309
 21
43.845735094
  0
LINE
  5
6E6
100
AcDbEntity
  8
RACCORDO
100
AcDbLine
 62
253
  6
CONTINUOUS
 10
-23.3104504969
 20
48.3913674907
 11
-23.3148223309
 21
48.3957393247
  0
LINE
  5
6E7
100
AcDbEntity
  8
CURVE
100
AcDbLine
 62
253
  6
CONTINUOUS
 10
-3.4791080369
 20
29.0409731597
 11
-3.6648223309
 21
29.2266873568
  0
LINE
  5
6E8
100
AcDbEntity
  8
RACCORDO
100
AcDbLine
 62
253
  6
CONTINUOUS
 10
-23.0604547277
 20
48.64136326
 11
-23.0648265617
 21
48.645735094
  0
LINE
  5
6E9
100
AcDbEntity
  8
CURVE
100
AcDbLine
 62
253
  6
CONTINUOUS
 10
-3.6648223309
 20
30.1552589625
 11
-3.4791080369
 21
29.9695447654
  0
LINE
  5
6EA
100
AcDbEntity
  8
CURVE
100
AcDbLine
 62
253
  6
CONTINUOUS
 10
-2.5505366055
 20
29.5052589625
 11
-2.3648223309
 21
29.3195447654
  0
LINE
  5
6EB
100
AcDbEntity
  8
CURVE
100
AcDbLine
 62
253
  6
CONTINUOUS
 10
-2.2898223309
 20
23.583235094
 11
-2.3523223309
 21
23.770735094
  0
LINE
  5
6EC
100
AcDbEntity
  8
DRAFT
100
AcDbLine
 62
7
  6
CONTINUOUS
 10
-5.3560955862
 20
44.967123425
 11
-5.3659846562
 21
45.0562054744
  0
LINE
  5
6ED
100
AcDbEntity
  8
RACCORDO
100
AcDbLine
 62
7
  6
CONTINUOUS
 10
-1.6517320292
 20
6.1545107038
 11
-1.6517320292
 21
42.1369594841
  0
LINE
  5
6EE
100
AcDbEntity
  8
ASSI
100
AcDbLine
 62
7
  6
CONTINUOUS
 10
-1.6517320292
 20
6.1545107038
 11
-1.6517320292
 21
42.1369594841
  0
LINE
  5
6EF
100
AcDbEntity
  8
0
100
AcDbLine
 62
7
  6
CONTINUOUS
 10
-1.6370077854
 20
6.5246469176
 11
-1.6370077854
 21
41.7668232703
  0
LINE
  5
6F0
100
AcDbEntity
  8
RACCORDO
100
AcDbLine
 62
7
  6
CONTINUOUS
 10
-1.6370077854
 20
6.5246469176
 11
-1.6370077854
 21
41.7668232703
  0
LINE
  5
6F1
100
AcDbEntity
  8
RACCORDO
100
AcDbLine
 62
7
  6
CONTINUOUS
 10
-1.5148223309
 20
2.214549538
 11
-1.5148223309
 21
46.0769206499
  0
LINE
  5
6F2
100
AcDbEntity
  8
0
100
AcDbLine
 62
7
  6
CONTINUOUS
 10
-1.5148223309
 20
6.4740360452
 11
-1.5148223309
 21
41.8174341427
  0
LWPOLYLINE
  5
6F3
100
AcDbEntity
  8
RACCORDO
100
AcDbPolyline
 62
7
  6
CONTINUOUS
 90
34
 70
0
 10
-2.0148223309
 20
-0.1042691368
 10
-2.0151054811
 20
-0.1161644221
 10
-2.0159542966
 20
-0.1280327616
 10
-2.0173668567
 20
-0.1398472722
 10
-2.0193399632
 20
-0.1515811935
 10
-2.0218691492
 20
-0.1632079449
 10
-2.0249486892
 20
-0.1747011851
 10
-2.0285716095
 20
-0.1860348798
 10
-2.0327297051
 20
-0.1971833553
 10
-2.0374135587
 20
-0.2081213523
 10
-2.042612562
 20
-0.2188240936
 10
-2.0483149392
 20
-0.2292673343
 10
-2.0545077727
 20
-0.239427412
 10
-2.0611770354
 20
-0.2492813112
 10
-2.0683076202
 20
-0.2588067099
 10
-2.075883372
 20
-0.2679820251
 10
-2.0838871304
 20
-0.2767864721
 10
-2.0923007648
 20
-0.2852001065
 10
-2.1011052118
 20
-0.2932038649
 10
-2.110280527
 20
-0.3007796168
 10
-2.1198059258
 20
-0.3079102015
 10
-2.129659825
 20
-0.3145794642
 10
-2.1398199026
 20
-0.3207722977
 10
-2.1502631433
 20
-0.3264746749
 10
-2.1609658846
 20
-0.3316736782
 10
-2.1719038816
 20
-0.3363575318
 10
-2.1830523571
 20
-0.3405156274
 10
-2.1943860519
 20
-0.3441385478
 10
-2.2058792921
 20
-0.3472180878
 10
-2.2175060434
 20
-0.3497472738
 10
-2.2292399647
 20
-0.3517203802
 10
-2.2410544753
 20
-0.3531329403
 10
-2.2529228149
 20
-0.3539817558
 10
-2.2648181001
 20
-0.354264906
  0
LWPOLYLINE
  5
6F4
100
AcDbEntity
  8
RACCORDO
100
AcDbPolyline
 62
253
  6
CONTINUOUS
 90
31
 70
0
 10
-2.0191941649
 20
-0.0998973028
 10
-2.0195355721
 20
-0.1129496428
 10
-2.0205588347
 20
-0.1259745372
 10
-2.0222624389
 20
-0.1389363118
 10
-2.0246435691
 20
-0.1518020305
 10
-2.0276966825
 20
-0.1645334957
 10
-2.0314121222
 20
-0.1770876803
 10
-2.0357786733
 20
-0.1894274842
 10
-2.0407851032
 20
-0.2015218403
 10
-2.0464178518
 20
-0.2133379186
 10
-2.0526616534
 20
-0.224843519
 10
-2.0594993353
 20
-0.2360068374
 10
-2.0669119653
 20
-0.2467969166
 10
-2.0748791075
 20
-0.2571840425
 10
-2.0833790045
 20
-0.2671398796
 10
-2.0923884263
 20
-0.2766372141
 10
-2.1018827194
 20
-0.2856500332
 10
-2.1118358229
 20
-0.2941535747
 10
-2.1222204121
 20
-0.3021244829
 10
-2.1330080024
 20
-0.3095408897
 10
-2.1441690284
 20
-0.3163824655
 10
-2.1556728842
 20
-0.3226304447
 10
-2.1674880298
 20
-0.328267693
 10
-2.1795820671
 20
-0.3332787485
 10
-2.1919218232
 20
-0.3376498635
 10
-2.2044734706
 20
-0.341369053
 10
-2.2172025846
 20
-0.3444261142
 10
-2.2300742242
 20
-0.3468126569
 10
-2.2430530816
 20
-0.3485221401
 10
-2.25610358
 20
-0.349549883
 10
-2.2691899341
 20
-0.349893072
  0
LINE
  5
6F5
100
AcDbEntity
  8
ASSI
100
AcDbLine
 62
7
  6
CONTINUOUS
 10
-16.9260600426
 20
0.5232654875
 11
-16.8994968653
 21
0.5536364083
  0
LINE
  5
6F6
100
AcDbEntity
  8
ASSI
100
AcDbLine
 62
7
  6
CONTINUOUS
 10
-16.8994968653
 20
0.5536364083
 11
-16.869102109
 21
0.5878580245
  0
LINE
  5
6F7
100
AcDbEntity
  8
ASSI
100
AcDbLine
 62
7
  6
CONTINUOUS
 10
-16.869102109
 20
0.5878580245
 11
-16.8348809409
 21
0.6259073272
  0
LWPOLYLINE
  5
6F8
100
AcDbEntity
  8
ASSI
100
AcDbPolyline
 62
7
  6
CONTINUOUS
 90
3
 70
0
 10
-16.8348809409
 20
0.6259073272
 10
-16.7765421891
 20
0.6900418867
 10
-16.7553125808
 20
0.7132504017
  0
LINE
  5
6F9
100
AcDbEntity
  8
0
100
AcDbLine
 62
7
  6
CONTINUOUS
 10
-16.1648223309
 20
4.445735094
 11
-16.1281666945
 21
4.4823907303
  0
LINE
  5
6FA
100
AcDbEntity
  8
DRAFT
100
AcDbLine
 62
7
  6
CONTINUOUS
 10
-16.1648223309
 20
4.445735094
 11
-16.1281666945
 21
4.4823907303
  0
LINE
  5
6FB
100
AcDbEntity
  8
0
100
AcDbLine
 62
7
  6
CONTINUOUS
 10
-16.1648223309
 20
4.245735094
 11
-16.1281666945
 21
4.2823907303
  0
LINE
  5
6FC
100
AcDbEntity
  8
DRAFT
100
AcDbLine
 62
7
  6
CONTINUOUS
 10
-16.1648223309
 20
4.245735094
 11
-16.1281666945
 21
4.2823907303
  0
LINE
  5
6FD
100
AcDbEntity
  8
0
100
AcDbLine
 62
253
  6
CONTINUOUS
 10
-23.8148223309
 20
6.4740360452
 11
-23.6926368764
 21
6.5246469176
  0
LINE
  5
6FE
100
AcDbEntity
  8
RACCORDO
100
AcDbLine
 62
253
  6
CONTINUOUS
 10
-23.8148223309
 20
6.4740360452
 11
-23.6926368764
 21
6.5246469176
  0
LINE
  5
6FF
100
AcDbEntity
  8
RACCORDO
100
AcDbLine
 62
7
  6
CONTINUOUS
 10
-23.377901209
 20
35.295735094
 11
-22.4648223309
 21
35.295735094
  0
LINE
  5
700
100
AcDbEntity
  8
ASSI
100
AcDbLine
 62
7
  6
CONTINUOUS
 10
-23.377901209
 20
35.295735094
 11
-22.4648223309
 21
35.295735094
  0
LINE
  5
701
100
AcDbEntity
  8
CURVE
100
AcDbLine
 62
253
  6
CONTINUOUS
 10
-23.73105078
 20
35.3885922611
 11
-23.6978912077
 21
35.3885922611
  0
LINE
  5
702
100
AcDbEntity
  8
SMUSSO
100
AcDbLine
 62
7
  6
CONTINUOUS
 10
-12.9148223309
 20
35.395735094
 11
-7.9148223309
 21
35.395735094
  0
LINE
  5
703
100
AcDbEntity
  8
ASSI
100
AcDbLine
 62
7
  6
CONTINUOUS
 10
-12.9148223309
 20
35.395735094
 11
-7.9148223309
 21
35.395735094
  0
LINE
  5
704
100
AcDbEntity
  8
CURVE
100
AcDbLine
 62
7
  6
CONTINUOUS
 10
-23.7380200452
 20
35.438060094
 11
-23.7886243329
 21
35.438060094
  0
LINE
  5
705
100
AcDbEntity
  8
CURVE
100
AcDbLine
 62
253
  6
CONTINUOUS
 10
-3.2933937428
 20
35.695735094
 11
-2.7362508802
 21
35.695735094
  0
LINE
  5
706
100
AcDbEntity
  8
SMUSSO
100
AcDbLine
 62
7
  6
CONTINUOUS
 10
-7.9148223309
 20
35.895735094
 11
-12.9148223309
 21
35.895735094
  0
LINE
  5
707
100
AcDbEntity
  8
ASSI
100
AcDbLine
 62
7
  6
CONTINUOUS
 10
-7.9148223309
 20
35.895735094
 11
-12.9148223309
 21
35.895735094
  0
LINE
  5
708
100
AcDbEntity
  8
RACCORDO
100
AcDbLine
 62
7
  6
CONTINUOUS
 10
-23.377901209
 20
35.995735094
 11
-22.4648223309
 21
35.995735094
  0
LINE
  5
709
100
AcDbEntity
  8
ASSI
100
AcDbLine
 62
7
  6
CONTINUOUS
 10
-23.377901209
 20
35.995735094
 11
-22.4648223309
 21
35.995735094
  0
LINE
  5
70A
100
AcDbEntity
  8
CURVE
100
AcDbLine
 62
7
  6
CONTINUOUS
 10
-23.7803723992
 20
36.020505094
 11
-23.7380200452
 21
36.020505094
  0
LINE
  5
70B
100
AcDbEntity
  8
CURVE
100
AcDbLine
 62
253
  6
CONTINUOUS
 10
-3.5719651839
 20
36.0671636432
 11
-3.1076794682
 21
36.0671636432
  0
LINE
  5
70C
100
AcDbEntity
  8
CURVE
100
AcDbLine
 62
253
  6
CONTINUOUS
 10
-2.8291080562
 20
36.0981160611
 11
-2.5505366055
 21
36.0981160611
  0
LINE
  5
70D
100
AcDbEntity
  8
SMUSSO
100
AcDbLine
 62
7
  6
CONTINUOUS
 10
-8.4148223309
 20
36.395735094
 11
-12.4148223309
 21
36.395735094
  0
LINE
  5
70E
100
AcDbEntity
  8
ASSI
100
AcDbLine
 62
7
  6
CONTINUOUS
 10
-8.4148223309
 20
36.395735094
 11
-12.4148223309
 21
36.395735094
  0
LINE
  5
70F
100
AcDbEntity
  8
CURVE
100
AcDbLine
 62
253
  6
CONTINUOUS
 10
-23.6978912077
 20
36.5647827238
 11
-23.7144709939
 21
36.5647827238
  0
LINE
  5
710
100
AcDbEntity
  8
0
100
AcDbLine
 62
7
  6
CONTINUOUS
 10
-12.0648223309
 20
36.645735094
 11
-9.0648223309
 21
36.645735094
  0
LINE
  5
711
100
AcDbEntity
  8
CURVE
100
AcDbLine
 62
253
  6
CONTINUOUS
 10
-3.6648223309
 20
34.3028779954
 11
-2.3648223309
 21
33.9314492911
  0
LINE
  5
712
100
AcDbEntity
  8
0
100
AcDbLine
 62
253
  6
CONTINUOUS
 10
-23.6926368764
 20
41.7668232703
 11
-23.8148223309
 21
41.8174341427
  0
LINE
  5
713
100
AcDbEntity
  8
RACCORDO
100
AcDbLine
 62
253
  6
CONTINUOUS
 10
-23.6926368764
 20
41.7668232703
 11
-23.8148223309
 21
41.8174341427
  0
LINE
  5
714
100
AcDbEntity
  8
CURVE
100
AcDbLine
 62
253
  6
CONTINUOUS
 10
-5.5791079966
 20
32.695735094
 11
-5.8505366085
 21
32.9671636492
  0
LINE
  5
715
100
AcDbEntity
  8
SMUSSO
100
AcDbLine
 62
7
  6
CONTINUOUS
 10
-12.9148223309
 20
40.395735094
 11
-12.4148223309
 21
39.895735094
  0
LINE
  5
716
100
AcDbEntity
  8
ASSI
100
AcDbLine
 62
7
  6
CONTINUOUS
 10
-12.9148223309
 20
40.395735094
 11
-12.4148223309
 21
39.895735094
  0
LINE
  5
717
100
AcDbEntity
  8
0
100
AcDbLine
 62
7
  6
CONTINUOUS
 10
-16.1648223309
 20
43.845735094
 11
-16.1281666945
 21
43.8090794576
  0
LINE
  5
718
100
AcDbEntity
  8
DRAFT
100
AcDbLine
 62
7
  6
CONTINUOUS
 10
-16.1648223309
 20
43.845735094
 11
-16.1281666945
 21
43.8090794576
  0
LINE
  5
719
100
AcDbEntity
  8
0
100
AcDbLine
 62
7
  6
CONTINUOUS
 10
-16.1281666945
 20
44.0090794576
 11
-16.1648223309
 21
44.045735094
  0
LINE
  5
71A
100
AcDbEntity
  8
DRAFT
100
AcDbLine
 62
7
  6
CONTINUOUS
 10
-16.1281666945
 20
44.0090794576
 11
-16.1648223309
 21
44.045735094
  0
LINE
  5
71B
100
AcDbEntity
  8
SMUSSO
100
AcDbLine
 62
7
  6
CONTINUOUS
 10
-7.9148223309
 20
35.895735094
 11
-8.4148223309
 21
36.395735094
  0
LINE
  5
71C
100
AcDbEntity
  8
ASSI
100
AcDbLine
 62
7
  6
CONTINUOUS
 10
-7.9148223309
 20
35.895735094
 11
-8.4148223309
 21
36.395735094
  0
LINE
  5
71D
100
AcDbEntity
  8
ASSI
100
AcDbLine
 62
7
  6
CONTINUOUS
 10
-16.7552177318
 20
47.5781160757
 11
-16.8162400178
 21
47.6449752135
  0
LINE
  5
71E
100
AcDbEntity
  8
ASSI
100
AcDbLine
 62
7
  6
CONTINUOUS
 10
-16.8162400178
 20
47.6449752135
 11
-16.8523105876
 21
47.6848976514
  0
LINE
  5
71F
100
AcDbEntity
  8
ASSI
100
AcDbLine
 62
7
  6
CONTINUOUS
 10
-16.8523105876
 20
47.6848976514
 11
-16.884579172
 21
47.7209757346
  0
LWPOLYLINE
  5
720
100
AcDbEntity
  8
ASSI
100
AcDbPolyline
 62
7
  6
CONTINUOUS
 90
19
 70
0
 10
-16.884579172
 20
47.7209757346
 10
-16.913029467
 20
47.7532418737
 10
-16.9258344024
 20
47.7679446408
 10
-16.9377488203
 20
47.7817733785
 10
-16.948779039
 20
47.7947267929
 10
-16.9589367973
 20
47.8068061779
 10
-16.9682695446
 20
47.8180874928
 10
-16.9767808371
 20
47.8285704396
 10
-16.9844858395
 20
47.8382553165
 10
-16.991433226
 20
47.8472189775
 10
-16.9976384759
 20
47.8554810869
 10
-17.0030891652
 20
47.8630219805
 10
-17.0077855466
 20
47.8698595201
 10
-17.0117376656
 20
47.8759863828
 10
-17.0149559685
 20
47.8814098914
 10
-17.0174493798
 20
47.8861698763
 10
-17.0192340696
 20
47.8902796142
 10
-17.0203296155
 20
47.8937258283
 10
-17.0207550636
 20
47.8965085187
  0
LINE
  5
721
100
AcDbEntity
  8
CURVE
100
AcDbLine
 62
253
  6
CONTINUOUS
 10
-3.2624413637
 20
33.5600208968
 11
-3.1695842264
 21
33.3433541268
  0
LINE
  5
722
100
AcDbEntity
  8
CURVE
100
AcDbLine
 62
253
  6
CONTINUOUS
 10
-3.3552985204
 20
33.095735094
 11
-3.2624413637
 21
32.8481160611
  0
LINE
  5
723
100
AcDbEntity
  8
DRAFT
100
AcDbLine
 62
7
  6
CONTINUOUS
 10
-4.4183096217
 20
3.2352647135
 11
-4.4148223309
 21
3.245735094
  0
LWPOLYLINE
  5
724
100
AcDbEntity
  8
ASSI
100
AcDbPolyline
 62
7
  6
CONTINUOUS
 90
3
 70
0
 10
-16.7553125808
 20
0.7132504017
 10
-16.6645094831
 20
0.8118197272
 10
-16.5927923185
 20
0.8893772792
  0
LINE
  5
725
100
AcDbEntity
  8
ASSI
100
AcDbLine
 62
7
  6
CONTINUOUS
 10
-17.0648223309
 20
0.345735094
 11
-17.021171684
 21
0.3893857408
  0
LWPOLYLINE
  5
726
100
AcDbEntity
  8
0
100
AcDbPolyline
 62
253
  6
CONTINUOUS
 90
3
 70
0
 10
-14.5581445216
 20
6.800920923
 10
-14.5150989876
 20
6.8279710541
 10
-14.4675742675
 20
6.8478335502
  0
LWPOLYLINE
  5
727
100
AcDbEntity
  8
RACCORDO
100
AcDbPolyline
 62
253
  6
CONTINUOUS
 90
3
 70
0
 10
-14.5581445216
 20
6.800920923
 10
-14.5150989876
 20
6.8279710541
 10
-14.4675742675
 20
6.8478335502
  0
LINE
  5
728
100
AcDbEntity
  8
0
100
AcDbLine
 62
253
  6
CONTINUOUS
 10
-23.2291251114
 20
5.0600378744
 11
-23.1069396569
 21
5.1106487468
  0
LINE
  5
729
100
AcDbEntity
  8
RACCORDO
100
AcDbLine
 62
253
  6
CONTINUOUS
 10
-23.2291251114
 20
5.0600378744
 11
-23.1069396569
 21
5.1106487468
  0
LINE
  5
72A
100
AcDbEntity
  8
CURVE
100
AcDbLine
 62
253
  6
CONTINUOUS
 10
-2.7362508802
 20
36.995735094
 11
-2.5505366055
 21
36.995735094
  0
LINE
  5
72B
100
AcDbEntity
  8
CURVE
100
AcDbLine
 62
7
  6
CONTINUOUS
 10
-23.7485228219
 20
37.474489094
 11
-23.7886243329
 21
37.474489094
  0
LINE
  5
72C
100
AcDbEntity
  8
CURVE
100
AcDbLine
 62
7
  6
CONTINUOUS
 10
-15.6167823309
 20
37.513289094
 11
-16.3676023309
 21
37.513289094
  0
LINE
  5
72D
100
AcDbEntity
  8
CURVE
100
AcDbLine
 62
7
  6
CONTINUOUS
 10
-19.9620423309
 20
37.513289094
 11
-20.7128623309
 21
37.513289094
  0
LINE
  5
72E
100
AcDbEntity
  8
CURVE
100
AcDbLine
 62
253
  6
CONTINUOUS
 10
-23.73105078
 20
37.9671637625
 11
-23.6978912077
 21
37.9671637625
  0
LINE
  5
72F
100
AcDbEntity
  8
CURVE
100
AcDbLine
 62
7
  6
CONTINUOUS
 10
-23.7886243329
 20
38.056933094
 11
-23.7380200452
 21
38.056933094
  0
LINE
  5
730
100
AcDbEntity
  8
CURVE
100
AcDbLine
 62
253
  6
CONTINUOUS
 10
-4.7648223309
 20
38.445735094
 11
-6.6648223309
 21
38.445735094
  0
LINE
  5
731
100
AcDbEntity
  8
0
100
AcDbLine
 62
253
  6
CONTINUOUS
 10
-22.5243631034
 20
38.7112853956
 11
-22.4648223309
 21
38.7112853956
  0
LINE
  5
732
100
AcDbEntity
  8
RACCORDO
100
AcDbLine
 62
253
  6
CONTINUOUS
 10
-22.5243631034
 20
38.7112853956
 11
-22.4648223309
 21
38.7112853956
  0
LINE
  5
733
100
AcDbEntity
  8
0
100
AcDbLine
 62
253
  6
CONTINUOUS
 10
-23.1069396569
 20
43.1808214411
 11
-23.2291251114
 21
43.2314323135
  0
LINE
  5
734
100
AcDbEntity
  8
RACCORDO
100
AcDbLine
 62
253
  6
CONTINUOUS
 10
-23.1069396569
 20
43.1808214411
 11
-23.2291251114
 21
43.2314323135
  0
LINE
  5
735
100
AcDbEntity
  8
CURVE
100
AcDbLine
 62
253
  6
CONTINUOUS
 10
-3.2933937428
 20
35.045735094
 11
-3.4791080369
 21
35.1385921925
  0
LWPOLYLINE
  5
736
100
AcDbEntity
  8
0
100
AcDbPolyline
 62
253
  6
CONTINUOUS
 90
4
 70
0
 10
-14.5581445216
 20
41.4905492649
 10
-14.5150989876
 20
41.4634991339
 10
-14.4675742675
 20
41.4436366377
 10
-14.4169647962
 20
41.4314910199
  0
LWPOLYLINE
  5
737
100
AcDbEntity
  8
RACCORDO
100
AcDbPolyline
 62
253
  6
CONTINUOUS
 90
4
 70
0
 10
-14.5581445216
 20
41.4905492649
 10
-14.5150989876
 20
41.4634991339
 10
-14.4675742675
 20
41.4436366377
 10
-14.4169647962
 20
41.4314910199
  0
LINE
  5
738
100
AcDbEntity
  8
ASSI
100
AcDbLine
 62
7
  6
CONTINUOUS
 10
-17.0648223309
 20
47.945735094
 11
-17.021171684
 21
47.9020844471
  0
LINE
  5
739
100
AcDbEntity
  8
CURVE
100
AcDbLine
 62
253
  6
CONTINUOUS
 10
-3.4791080369
 20
35.1385921925
 11
-3.6648223309
 21
35.3243065447
  0
LINE
  5
73A
100
AcDbEntity
  8
ASSI
100
AcDbLine
 62
7
  6
CONTINUOUS
 10
-16.5927923185
 20
47.4020929087
 11
-16.6877935333
 21
47.5048421584
  0
LINE
  5
73B
100
AcDbEntity
  8
ASSI
100
AcDbLine
 62
7
  6
CONTINUOUS
 10
-16.6877935333
 20
47.5048421584
 11
-16.7552177318
 21
47.5781160757
  0
LINE
  5
73C
100
AcDbEntity
  8
CURVE
100
AcDbLine
 62
253
  6
CONTINUOUS
 10
-2.9219651548
 20
36.2528779954
 11
-2.8291080562
 21
36.0981160611
  0
LINE
  5
73D
100
AcDbEntity
  8
DRAFT
100
AcDbLine
 62
7
  6
CONTINUOUS
 10
-4.4183096217
 20
45.0562054744
 11
-4.4148223309
 21
45.045735094
  0
LINE
  5
73E
100
AcDbEntity
  8
0
100
AcDbLine
 62
253
  6
CONTINUOUS
 10
-22.5234356508
 20
39.0112397041
 11
-22.4648223309
 21
39.0112397041
  0
LINE
  5
73F
100
AcDbEntity
  8
RACCORDO
100
AcDbLine
 62
253
  6
CONTINUOUS
 10
-22.5234356508
 20
39.0112397041
 11
-22.4648223309
 21
39.0112397041
  0
LINE
  5
740
100
AcDbEntity
  8
0
100
AcDbLine
 62
7
  6
CONTINUOUS
 10
-22.5233888526
 20
39.0235496395
 11
-22.4648223309
 21
39.0235496395
  0
LINE
  5
741
100
AcDbEntity
  8
RACCORDO
100
AcDbLine
 62
7
  6
CONTINUOUS
 10
-22.5233888526
 20
39.0235496395
 11
-22.4648223309
 21
39.0235496395
  0
LINE
  5
742
100
AcDbEntity
  8
CURVE
100
AcDbLine
 62
253
  6
CONTINUOUS
 10
-23.7192080753
 20
39.2790682763
 11
-23.7263136985
 21
39.2790682763
  0
LINE
  5
743
100
AcDbEntity
  8
CURVE
100
AcDbLine
 62
253
  6
CONTINUOUS
 10
-23.7002597487
 20
39.324306652
 11
-23.7121024531
 21
39.324306652
  0
LINE
  5
744
100
AcDbEntity
  8
0
100
AcDbLine
 62
7
  6
CONTINUOUS
 10
-9.0648223309
 20
39.645735094
 11
-12.0648223309
 21
39.645735094
  0
LINE
  5
745
100
AcDbEntity
  8
CURVE
100
AcDbLine
 62
253
  6
CONTINUOUS
 10
-23.7026282897
 20
39.867163536
 11
-23.7121024531
 21
39.867163536
  0
LINE
  5
746
100
AcDbEntity
  8
SMUSSO
100
AcDbLine
 62
7
  6
CONTINUOUS
 10
-12.4148223309
 20
39.895735094
 11
-8.4148223309
 21
39.895735094
  0
LINE
  5
747
100
AcDbEntity
  8
ASSI
100
AcDbLine
 62
7
  6
CONTINUOUS
 10
-12.4148223309
 20
39.895735094
 11
-8.4148223309
 21
39.895735094
  0
LINE
  5
748
100
AcDbEntity
  8
CURVE
100
AcDbLine
 62
253
  6
CONTINUOUS
 10
-23.7192080753
 20
39.9576398343
 11
-23.7263136985
 21
39.9576398343
  0
LINE
  5
749
100
AcDbEntity
  8
RACCORDO
100
AcDbLine
 62
7
  6
CONTINUOUS
 10
-23.377901209
 20
40.295735094
 11
-22.4648223309
 21
40.295735094
  0
LINE
  5
74A
100
AcDbEntity
  8
ASSI
100
AcDbLine
 62
7
  6
CONTINUOUS
 10
-23.377901209
 20
40.295735094
 11
-22.4648223309
 21
40.295735094
  0
LINE
  5
74B
100
AcDbEntity
  8
SMUSSO
100
AcDbLine
 62
7
  6
CONTINUOUS
 10
-12.9148223309
 20
40.395735094
 11
-7.9148223309
 21
40.395735094
  0
LINE
  5
74C
100
AcDbEntity
  8
ASSI
100
AcDbLine
 62
7
  6
CONTINUOUS
 10
-12.9148223309
 20
40.395735094
 11
-7.9148223309
 21
40.395735094
  0
LINE
  5
74D
100
AcDbEntity
  8
CURVE
100
AcDbLine
 62
253
  6
CONTINUOUS
 10
-2.7362508802
 20
35.695735094
 11
-2.5505366055
 21
35.6028779954
  0
LINE
  5
74E
100
AcDbEntity
  8
CURVE
100
AcDbLine
 62
253
  6
CONTINUOUS
 10
-3.6648223309
 20
37.645735094
 11
-2.7362508802
 21
36.995735094
  0
LINE
  5
74F
100
AcDbEntity
  8
CURVE
100
AcDbLine
 62
253
  6
CONTINUOUS
 10
-3.6648223309
 20
36.1600207418
 11
-3.5719651839
 21
36.0671636432
  0
LINE
  5
750
100
AcDbEntity
  8
CURVE
100
AcDbLine
 62
253
  6
CONTINUOUS
 10
-2.5505366055
 20
35.6028779954
 11
-2.3648223309
 21
35.4171636432
  0
LINE
  5
751
100
AcDbEntity
  8
DRAFT
100
AcDbLine
 62
7
  6
CONTINUOUS
 10
-5.423000629
 20
3.1497395483
 11
-5.3659846562
 21
3.2352647135
  0
LINE
  5
752
100
AcDbEntity
  8
0
100
AcDbLine
 62
253
  6
CONTINUOUS
 10
-10.9126798656
 20
41.4314910199
 11
-10.9648223309
 21
41.4274069367
  0
LINE
  5
753
100
AcDbEntity
  8
RACCORDO
100
AcDbLine
 62
253
  6
CONTINUOUS
 10
-10.9126798656
 20
41.4314910199
 11
-10.9648223309
 21
41.4274069367
  0
LINE
  5
754
100
AcDbEntity
  8
CURVE
100
AcDbLine
 62
253
  6
CONTINUOUS
 10
-23.7263136985
 20
40.7266876906
 11
-23.7192080753
 21
40.7266876906
  0
LINE
  5
755
100
AcDbEntity
  8
0
100
AcDbLine
 62
7
  6
CONTINUOUS
 10
-10.1648223309
 20
40.745735094
 11
-15.1648223309
 21
40.745735094
  0
LINE
  5
756
100
AcDbEntity
  8
ASSI
100
AcDbLine
 62
7
  6
CONTINUOUS
 10
-10.1648223309
 20
40.745735094
 11
-15.1648223309
 21
40.745735094
  0
LINE
  5
757
100
AcDbEntity
  8
CURVE
100
AcDbLine
 62
253
  6
CONTINUOUS
 10
-23.7121024531
 20
40.817163536
 11
-23.7026282897
 21
40.817163536
  0
LINE
  5
758
100
AcDbEntity
  8
0
100
AcDbLine
 62
7
  6
CONTINUOUS
 10
-14.3648223309
 20
41.395735094
 11
-10.9648223309
 21
41.395735094
  0
LINE
  5
759
100
AcDbEntity
  8
RACCORDO
100
AcDbLine
 62
7
  6
CONTINUOUS
 10
-14.3648223309
 20
41.395735094
 11
-10.9648223309
 21
41.395735094
  0
LINE
  5
75A
100
AcDbEntity
  8
0
100
AcDbLine
 62
253
  6
CONTINUOUS
 10
-14.3648223309
 20
41.4274069367
 11
-10.9648223309
 21
41.4274069367
  0
LINE
  5
75B
100
AcDbEntity
  8
RACCORDO
100
AcDbLine
 62
253
  6
CONTINUOUS
 10
-14.3648223309
 20
41.4274069367
 11
-10.9648223309
 21
41.4274069367
  0
LINE
  5
75C
100
AcDbEntity
  8
RACCORDO
100
AcDbLine
 62
7
  6
CONTINUOUS
 10
-11.0608293001
 20
41.445735094
 11
-14.2688153617
 21
41.445735094
  0
LINE
  5
75D
100
AcDbEntity
  8
ASSI
100
AcDbLine
 62
7
  6
CONTINUOUS
 10
-11.0608293001
 20
41.445735094
 11
-14.2688153617
 21
41.445735094
  0
LINE
  5
75E
100
AcDbEntity
  8
ASSI
100
AcDbLine
 62
7
  6
CONTINUOUS
 10
-10.1648223309
 20
41.645735094
 11
-15.1648223309
 21
41.645735094
  0
LINE
  5
75F
100
AcDbEntity
  8
0
100
AcDbLine
 62
253
  6
CONTINUOUS
 10
-14.4169647962
 20
41.4314910199
 11
-14.3648223309
 21
41.4274069367
  0
LINE
  5
760
100
AcDbEntity
  8
RACCORDO
100
AcDbLine
 62
253
  6
CONTINUOUS
 10
-14.4169647962
 20
41.4314910199
 11
-14.3648223309
 21
41.4274069367
  0
LINE
  5
761
100
AcDbEntity
  8
CURVE
100
AcDbLine
 62
253
  6
CONTINUOUS
 10
-2.3648223309
 20
37.4600207999
 11
-2.6433937816
 21
37.645735094
  0
LINE
  5
762
100
AcDbEntity
  8
DRAFT
100
AcDbLine
 62
7
  6
CONTINUOUS
 10
-5.423000629
 20
45.1417306397
 11
-5.3659846562
 21
45.0562054744
  0
LINE
  5
763
100
AcDbEntity
  8
ASSI
100
AcDbLine
 62
7
  6
CONTINUOUS
 10
-9.0709666132
 20
0.5222878098
 11
-9.0444199074
 21
0.5526575406
  0
LINE
  5
764
100
AcDbEntity
  8
ASSI
100
AcDbLine
 62
7
  6
CONTINUOUS
 10
-9.0444199074
 20
0.5526575406
 11
-9.01401378
 21
0.5869052735
  0
LINE
  5
765
100
AcDbEntity
  8
ASSI
100
AcDbLine
 62
7
  6
CONTINUOUS
 10
-9.01401378
 20
0.5869052735
 11
-8.979743981
 21
0.6250190388
  0
LINE
  5
766
100
AcDbEntity
  8
ASSI
100
AcDbLine
 62
7
  6
CONTINUOUS
 10
-8.979743981
 20
0.6250190388
 11
-8.9212505084
 21
0.689333263
  0
LINE
  5
767
100
AcDbEntity
  8
ASSI
100
AcDbLine
 62
7
  6
CONTINUOUS
 10
-8.9212505084
 20
0.689333263
 11
-8.7368523432
 21
0.8893772792
  0
LINE
  5
768
100
AcDbEntity
  8
RACCORDO
100
AcDbLine
 62
7
  6
CONTINUOUS
 10
-5.4218438323
 20
4.3887135925
 11
-5.3648223309
 21
4.445735094
  0
LINE
  5
769
100
AcDbEntity
  8
0
100
AcDbLine
 62
7
  6
CONTINUOUS
 10
-5.2648223309
 20
4.445735094
 11
-5.2281666945
 21
4.4823907303
  0
LINE
  5
76A
100
AcDbEntity
  8
DRAFT
100
AcDbLine
 62
7
  6
CONTINUOUS
 10
-5.2648223309
 20
4.445735094
 11
-5.2281666945
 21
4.4823907303
  0
LINE
  5
76B
100
AcDbEntity
  8
0
100
AcDbLine
 62
7
  6
CONTINUOUS
 10
-10.5183757215
 20
42.3782751106
 11
-10.1642605853
 21
42.3813654266
  0
LINE
  5
76C
100
AcDbEntity
  8
RACCORDO
100
AcDbLine
 62
7
  6
CONTINUOUS
 10
-10.5183757215
 20
42.3782751106
 11
-10.1642605853
 21
42.3813654266
  0
LWPOLYLINE
  5
76D
100
AcDbEntity
  8
0
100
AcDbPolyline
 62
7
  6
CONTINUOUS
 90
12
 70
0
 10
-11.0404258695
 20
44.0303639104
 10
-10.9225540413
 20
44.0307443845
 10
-10.8096826116
 20
44.0313631958
 10
-10.700326829
 20
44.0322351604
 10
-10.5959714449
 20
44.0333454622
 10
-10.5010707126
 20
44.034649653
 10
-10.4160026283
 20
44.0361596751
 10
-10.3403891958
 20
44.0378635861
 10
-10.2775506797
 20
44.039681111
 10
-10.2285938351
 20
44.0415854914
 10
-10.192411907
 20
44.0436034857
 10
-10.1690048954
 20
44.045735094
  0
LINE
  5
76E
100
AcDbEntity
  8
ASSI
100
AcDbLine
 62
7
  6
CONTINUOUS
 10
-10.1648223309
 20
42.345735094
 11
-15.1648223309
 21
42.345735094
  0
LINE
  5
76F
100
AcDbEntity
  8
RACCORDO
100
AcDbLine
 62
7
  6
CONTINUOUS
 10
-22.056046721
 20
42.3588253956
 11
-16.9779012095
 21
42.3588253956
  0
LINE
  5
770
100
AcDbEntity
  8
ASSI
100
AcDbLine
 62
7
  6
CONTINUOUS
 10
-22.056046721
 20
42.3588253956
 11
-16.9779012095
 21
42.3588253956
  0
LINE
  5
771
100
AcDbEntity
  8
0
100
AcDbLine
 62
7
  6
CONTINUOUS
 10
-21.2648223309
 20
42.4031776938
 11
-20.1189330321
 21
42.4031776938
  0
LINE
  5
772
100
AcDbEntity
  8
DRAFT
100
AcDbLine
 62
7
  6
CONTINUOUS
 10
-21.2648223309
 20
42.4031776938
 11
-20.1189330321
 21
42.4031776938
  0
LINE
  5
773
100
AcDbEntity
  8
0
100
AcDbLine
 62
7
  6
CONTINUOUS
 10
-16.8081046857
 20
42.4119045616
 11
-20.1014779672
 21
42.4119045616
  0
LINE
  5
774
100
AcDbEntity
  8
DRAFT
100
AcDbLine
 62
7
  6
CONTINUOUS
 10
-16.8081046857
 20
42.4119045616
 11
-20.1014779672
 21
42.4119045616
  0
LINE
  5
775
100
AcDbEntity
  8
0
100
AcDbLine
 62
7
  6
CONTINUOUS
 10
-21.2648223309
 20
42.4119045616
 11
-21.931010837
 21
42.4119045616
  0
LINE
  5
776
100
AcDbEntity
  8
RACCORDO
100
AcDbLine
 62
7
  6
CONTINUOUS
 10
-21.2648223309
 20
42.4119045616
 11
-21.931010837
 21
42.4119045616
  0
LINE
  5
777
100
AcDbEntity
  8
0
100
AcDbLine
 62
7
  6
CONTINUOUS
 10
-15.1648223309
 20
42.445735094
 11
-10.1648223309
 21
42.445735094
  0
LINE
  5
778
100
AcDbEntity
  8
ASSI
100
AcDbLine
 62
7
  6
CONTINUOUS
 10
-15.1648223309
 20
42.445735094
 11
-10.1648223309
 21
42.445735094
  0
LINE
  5
779
100
AcDbEntity
  8
RACCORDO
100
AcDbLine
 62
7
  6
CONTINUOUS
 10
-3.2735979408
 20
43.7588253956
 11
-16.3779240556
 21
43.7588253956
  0
LINE
  5
77A
100
AcDbEntity
  8
ASSI
100
AcDbLine
 62
7
  6
CONTINUOUS
 10
-3.2735979408
 20
43.7588253956
 11
-16.3779240556
 21
43.7588253956
  0
LINE
  5
77B
100
AcDbEntity
  8
0
100
AcDbLine
 62
7
  6
CONTINUOUS
 10
-5.2281666945
 20
43.8090794576
 11
-9.2014779672
 21
43.8090794576
  0
LINE
  5
77C
100
AcDbEntity
  8
DRAFT
100
AcDbLine
 62
7
  6
CONTINUOUS
 10
-5.2281666945
 20
43.8090794576
 11
-9.2014779672
 21
43.8090794576
  0
LINE
  5
77D
100
AcDbEntity
  8
0
100
AcDbLine
 62
7
  6
CONTINUOUS
 10
-16.1281666945
 20
43.8090794576
 11
-20.1014779672
 21
43.8090794576
  0
LINE
  5
77E
100
AcDbEntity
  8
DRAFT
100
AcDbLine
 62
7
  6
CONTINUOUS
 10
-16.1281666945
 20
43.8090794576
 11
-20.1014779672
 21
43.8090794576
  0
LINE
  5
77F
100
AcDbEntity
  8
0
100
AcDbLine
 62
7
  6
CONTINUOUS
 10
-5.2648223309
 20
43.845735094
 11
-9.1648223309
 21
43.845735094
  0
LINE
  5
780
100
AcDbEntity
  8
DRAFT
100
AcDbLine
 62
7
  6
CONTINUOUS
 10
-5.2648223309
 20
43.845735094
 11
-9.1648223309
 21
43.845735094
  0
LINE
  5
781
100
AcDbEntity
  8
0
100
AcDbLine
 62
7
  6
CONTINUOUS
 10
-16.1648223309
 20
43.845735094
 11
-20.0648223309
 21
43.845735094
  0
LINE
  5
782
100
AcDbEntity
  8
DRAFT
100
AcDbLine
 62
7
  6
CONTINUOUS
 10
-16.1648223309
 20
43.845735094
 11
-20.0648223309
 21
43.845735094
  0
LINE
  5
783
100
AcDbEntity
  8
RACCORDO
100
AcDbLine
 62
253
  6
CONTINUOUS
 10
-19.9078008294
 20
43.9027565954
 11
-19.0218438323
 21
43.9027565954
  0
LINE
  5
784
100
AcDbEntity
  8
RACCORDO
100
AcDbLine
 62
253
  6
CONTINUOUS
 10
-6.3078008294
 20
43.9027565954
 11
-5.4218438323
 21
43.9027565954
  0
LINE
  5
785
100
AcDbEntity
  8
0
100
AcDbLine
 62
7
  6
CONTINUOUS
 10
-9.2014779672
 20
44.0090794576
 11
-16.1281666945
 21
44.0090794576
  0
LINE
  5
786
100
AcDbEntity
  8
DRAFT
100
AcDbLine
 62
7
  6
CONTINUOUS
 10
-9.2014779672
 20
44.0090794576
 11
-16.1281666945
 21
44.0090794576
  0
LINE
  5
787
100
AcDbEntity
  8
0
100
AcDbLine
 62
7
  6
CONTINUOUS
 10
-11.0404258695
 20
44.0303639104
 11
-14.1663465657
 21
44.0302217736
  0
LINE
  5
788
100
AcDbEntity
  8
0
100
AcDbLine
 62
7
  6
CONTINUOUS
 10
-9.1648223309
 20
44.045735094
 11
-10.1703440506
 21
44.045735094
  0
LINE
  5
789
100
AcDbEntity
  8
0
100
AcDbLine
 62
7
  6
CONTINUOUS
 10
-15.1593006111
 20
44.045735094
 11
-16.1648223309
 21
44.045735094
  0
LINE
  5
78A
100
AcDbEntity
  8
RACCORDO
100
AcDbLine
 62
253
  6
CONTINUOUS
 10
-19.9066440328
 20
44.1027532108
 11
-19.023000629
 21
44.1027532108
  0
LINE
  5
78B
100
AcDbEntity
  8
RACCORDO
100
AcDbLine
 62
253
  6
CONTINUOUS
 10
-6.3066440328
 20
44.1027532108
 11
-5.423000629
 21
44.1027532108
  0
LWPOLYLINE
  5
78C
100
AcDbEntity
  8
0
100
AcDbPolyline
 62
7
  6
CONTINUOUS
 90
13
 70
0
 10
-14.1663465657
 20
44.0302217736
 10
-14.2892187923
 20
44.0303639104
 10
-14.4070906204
 20
44.0307443845
 10
-14.5199620502
 20
44.0313631958
 10
-14.6293178327
 20
44.0322351604
 10
-14.7336732168
 20
44.0333454622
 10
-14.8285739491
 20
44.034649653
 10
-14.9136420335
 20
44.0361596751
 10
-14.989255466
 20
44.0378635861
 10
-15.052093982
 20
44.039681111
 10
-15.1010508266
 20
44.0415854914
 10
-15.1372327548
 20
44.0436034857
 10
-15.1606397664
 20
44.045735094
  0
LINE
  5
78D
100
AcDbEntity
  8
0
100
AcDbLine
 62
7
  6
CONTINUOUS
 10
-14.8112689403
 20
42.3782751106
 11
-15.1653840764
 21
42.3813654266
  0
LINE
  5
78E
100
AcDbEntity
  8
RACCORDO
100
AcDbLine
 62
7
  6
CONTINUOUS
 10
-14.8112689403
 20
42.3782751106
 11
-15.1653840764
 21
42.3813654266
  0
LINE
  5
78F
100
AcDbEntity
  8
RACCORDO
100
AcDbLine
 62
7
  6
CONTINUOUS
 10
-5.4218438323
 20
43.9027565954
 11
-5.3648223309
 21
43.845735094
  0
LINE
  5
790
100
AcDbEntity
  8
0
100
AcDbLine
 62
7
  6
CONTINUOUS
 10
-5.2648223309
 20
43.845735094
 11
-5.2281666945
 21
43.8090794576
  0
LINE
  5
791
100
AcDbEntity
  8
DRAFT
100
AcDbLine
 62
7
  6
CONTINUOUS
 10
-5.2648223309
 20
43.845735094
 11
-5.2281666945
 21
43.8090794576
  0
LINE
  5
792
100
AcDbEntity
  8
ASSI
100
AcDbLine
 62
7
  6
CONTINUOUS
 10
-8.7368523432
 20
47.4020929087
 11
-8.832166079
 21
47.5051804556
  0
LINE
  5
793
100
AcDbEntity
  8
ASSI
100
AcDbLine
 62
7
  6
CONTINUOUS
 10
-8.832166079
 20
47.5051804556
 11
-8.9211519249
 21
47.6020285262
  0
LINE
  5
794
100
AcDbEntity
  8
ASSI
100
AcDbLine
 62
7
  6
CONTINUOUS
 10
-8.9211519249
 20
47.6020285262
 11
-8.9795994731
 21
47.6662914629
  0
LINE
  5
795
100
AcDbEntity
  8
ASSI
100
AcDbLine
 62
7
  6
CONTINUOUS
 10
-8.9795994731
 20
47.6662914629
 11
-9.0138261215
 21
47.7043553726
  0
LINE
  5
796
100
AcDbEntity
  8
ASSI
100
AcDbLine
 62
7
  6
CONTINUOUS
 10
-9.0138261215
 20
47.7043553726
 11
-9.0441988305
 21
47.7385618486
  0
LWPOLYLINE
  5
797
100
AcDbEntity
  8
ASSI
100
AcDbPolyline
 62
7
  6
CONTINUOUS
 90
18
 70
0
 10
-9.0441988305
 20
47.7385618486
 10
-9.0707328381
 20
47.7689127544
 10
-9.0826306407
 20
47.7827327335
 10
-9.0936382196
 20
47.7956719726
 10
-9.1037683824
 20
47.8077322231
 10
-9.1130714928
 20
47.8189927219
 10
-9.1215516816
 20
47.8294550188
 10
-9.1292222491
 20
47.8391175639
 10
-9.1361304797
 20
47.8480549446
 10
-9.1422915353
 20
47.8562866916
 10
-9.1476923351
 20
47.8637932741
 10
-9.15233184
 20
47.8705906869
 10
-9.1562200635
 20
47.8766708246
 10
-9.1593677631
 20
47.8820417925
 10
-9.1617838983
 20
47.8867439014
 10
-9.1634850724
 20
47.8907905881
 10
-9.1644913813
 20
47.8941684157
 10
-9.1648223309
 20
47.8968773843
  0
LINE
  5
798
100
AcDbEntity
  8
RACCORDO
100
AcDbLine
 62
7
  6
CONTINUOUS
 10
-2.6745106581
 20
4.7323443288
 11
-2.8637379431
 21
4.5431171504
  0
LINE
  5
799
100
AcDbEntity
  8
ASSI
100
AcDbLine
 62
7
  6
CONTINUOUS
 10
-2.6745106581
 20
4.7323443288
 11
-2.8637379431
 21
4.5431171504
  0
LINE
  5
79A
100
AcDbEntity
  8
RACCORDO
100
AcDbLine
 62
7
  6
CONTINUOUS
 10
-1.9446140955
 20
5.4474308471
 11
-2.566518084
 21
4.8255268586
  0
LINE
  5
79B
100
AcDbEntity
  8
ASSI
100
AcDbLine
 62
7
  6
CONTINUOUS
 10
-1.9446140955
 20
5.4474308471
 11
-2.566518084
 21
4.8255268586
  0
LINE
  5
79C
100
AcDbEntity
  8
0
100
AcDbLine
 62
7
  6
CONTINUOUS
 10
-4.0376186577
 20
3.295735094
 11
-2.2227050049
 21
5.1106487468
  0
LINE
  5
79D
100
AcDbEntity
  8
RACCORDO
100
AcDbLine
 62
7
  6
CONTINUOUS
 10
-4.0376186577
 20
3.295735094
 11
-2.2227050049
 21
5.1106487468
  0
LINE
  5
79E
100
AcDbEntity
  8
RACCORDO
100
AcDbLine
 62
7
  6
CONTINUOUS
 10
-5.4060954631
 20
1.7544619617
 11
-4.4148223309
 21
2.745735094
  0
LINE
  5
79F
100
AcDbEntity
  8
0
100
AcDbLine
 62
7
  6
CONTINUOUS
 10
-3.8648223309
 20
3.295735094
 11
-2.1005195504
 21
5.0600378744
  0
LINE
  5
7A0
100
AcDbEntity
  8
RACCORDO
100
AcDbLine
 62
7
  6
CONTINUOUS
 10
-3.8648223309
 20
3.295735094
 11
-2.1005195504
 21
5.0600378744
  0
LINE
  5
7A1
100
AcDbEntity
  8
DRAFT
100
AcDbLine
 62
7
  6
CONTINUOUS
 10
-6.3735490756
 20
44.1326447923
 11
-10.1654938155
 21
44.1326447923
  0
LINE
  5
7A2
100
AcDbEntity
  8
DRAFT
100
AcDbLine
 62
7
  6
CONTINUOUS
 10
-15.1641508463
 20
44.1326447923
 11
-18.9560955862
 21
44.1326447923
  0
LINE
  5
7A3
100
AcDbEntity
  8
DRAFT
100
AcDbLine
 62
7
  6
CONTINUOUS
 10
-16.1648223309
 20
44.145735094
 11
-15.164174512
 21
44.145735094
  0
LINE
  5
7A4
100
AcDbEntity
  8
DRAFT
100
AcDbLine
 62
7
  6
CONTINUOUS
 10
-10.1654701498
 20
44.145735094
 11
-9.1648223309
 21
44.145735094
  0
LINE
  5
7A5
100
AcDbEntity
  8
DRAFT
100
AcDbLine
 62
7
  6
CONTINUOUS
 10
-10.1648223309
 20
44.1989689875
 11
-10.2235112077
 21
44.1989689875
  0
LINE
  5
7A6
100
AcDbEntity
  8
DRAFT
100
AcDbLine
 62
7
  6
CONTINUOUS
 10
-15.106133454
 20
44.1989689875
 11
-15.1648223309
 21
44.1989689875
  0
LINE
  5
7A7
100
AcDbEntity
  8
RACCORDO
100
AcDbLine
 62
253
  6
CONTINUOUS
 10
-19.0201170988
 20
44.2286784156
 11
-6.3095275629
 21
44.2286784156
  0
LINE
  5
7A8
100
AcDbEntity
  8
RACCORDO
100
AcDbLine
 62
253
  6
CONTINUOUS
 10
-19.023000629
 20
44.7286593772
 11
-6.3066440328
 21
44.7286593772
  0
LINE
  5
7A9
100
AcDbEntity
  8
DRAFT
100
AcDbLine
 62
7
  6
CONTINUOUS
 10
-22.2886397335
 20
44.967123425
 11
-21.4934339998
 21
44.967123425
  0
LINE
  5
7AA
100
AcDbEntity
  8
DRAFT
100
AcDbLine
 62
7
  6
CONTINUOUS
 10
-20.0648223309
 20
44.967123425
 11
-19.9735490756
 21
44.967123425
  0
LINE
  5
7AB
100
AcDbEntity
  8
DRAFT
100
AcDbLine
 62
7
  6
CONTINUOUS
 10
-5.3560955862
 20
44.967123425
 11
-5.2648223309
 21
44.967123425
  0
LINE
  5
7AC
100
AcDbEntity
  8
DRAFT
100
AcDbLine
 62
7
  6
CONTINUOUS
 10
-3.8362106619
 20
44.967123425
 11
-3.0410049283
 21
44.967123425
  0
LINE
  5
7AD
100
AcDbEntity
  8
0
100
AcDbLine
 62
7
  6
CONTINUOUS
 10
-3.8648223309
 20
44.995735094
 11
-5.2648223309
 21
44.995735094
  0
LINE
  5
7AE
100
AcDbEntity
  8
DRAFT
100
AcDbLine
 62
7
  6
CONTINUOUS
 10
-3.8648223309
 20
44.995735094
 11
-5.2648223309
 21
44.995735094
  0
LINE
  5
7AF
100
AcDbEntity
  8
0
100
AcDbLine
 62
7
  6
CONTINUOUS
 10
-20.0648223309
 20
44.995735094
 11
-21.4648223309
 21
44.995735094
  0
LINE
  5
7B0
100
AcDbEntity
  8
DRAFT
100
AcDbLine
 62
7
  6
CONTINUOUS
 10
-20.0648223309
 20
44.995735094
 11
-21.4648223309
 21
44.995735094
  0
LINE
  5
7B1
100
AcDbEntity
  8
DRAFT
100
AcDbLine
 62
7
  6
CONTINUOUS
 10
-22.3148223309
 20
45.045735094
 11
-20.9148223309
 21
45.045735094
  0
LINE
  5
7B2
100
AcDbEntity
  8
DRAFT
100
AcDbLine
 62
7
  6
CONTINUOUS
 10
-4.4148223309
 20
45.045735094
 11
-3.0148223309
 21
45.045735094
  0
LINE
  5
7B3
100
AcDbEntity
  8
DRAFT
100
AcDbLine
 62
7
  6
CONTINUOUS
 10
-4.4183096217
 20
45.0562054744
 11
-5.3659846562
 21
45.0562054744
  0
LINE
  5
7B4
100
AcDbEntity
  8
DRAFT
100
AcDbLine
 62
7
  6
CONTINUOUS
 10
-19.9636600055
 20
45.0562054744
 11
-20.91133504
 21
45.0562054744
  0
LINE
  5
7B5
100
AcDbEntity
  8
RACCORDO
100
AcDbLine
 62
7
  6
CONTINUOUS
 10
-5.0807216117
 20
45.1417306397
 11
-5.423000629
 21
45.1417306397
  0
LINE
  5
7B6
100
AcDbEntity
  8
RACCORDO
100
AcDbLine
 62
7
  6
CONTINUOUS
 10
-19.9066440328
 20
45.1417306397
 11
-20.24892305
 21
45.1417306397
  0
LINE
  5
7B7
100
AcDbEntity
  8
0
100
AcDbLine
 62
7
  6
CONTINUOUS
 10
-15.6648223309
 20
45.145735094
 11
-9.6648223309
 21
45.145735094
  0
LINE
  5
7B8
100
AcDbEntity
  8
RACCORDO
100
AcDbLine
 62
253
  6
CONTINUOUS
 10
-5.0807216117
 20
45.4584283377
 11
-9.6648223309
 21
45.4584283377
  0
LINE
  5
7B9
100
AcDbEntity
  8
RACCORDO
100
AcDbLine
 62
253
  6
CONTINUOUS
 10
-15.6648223309
 20
45.4584283377
 11
-20.24892305
 21
45.4584283377
  0
LINE
  5
7BA
100
AcDbEntity
  8
0
100
AcDbLine
 62
7
  6
CONTINUOUS
 10
-15.6648223309
 20
45.845735094
 11
-9.6648223309
 21
45.845735094
  0
LINE
  5
7BB
100
AcDbEntity
  8
RACCORDO
100
AcDbLine
 62
7
  6
CONTINUOUS
 10
-2.566518084
 20
43.4659433293
 11
-1.9446140955
 21
42.8440393408
  0
LINE
  5
7BC
100
AcDbEntity
  8
ASSI
100
AcDbLine
 62
7
  6
CONTINUOUS
 10
-2.566518084
 20
43.4659433293
 11
-1.9446140955
 21
42.8440393408
  0
LINE
  5
7BD
100
AcDbEntity
  8
0
100
AcDbLine
 62
7
  6
CONTINUOUS
 10
-2.2227050049
 20
43.1808214411
 11
-4.0376186577
 21
44.995735094
  0
LINE
  5
7BE
100
AcDbEntity
  8
RACCORDO
100
AcDbLine
 62
7
  6
CONTINUOUS
 10
-2.2227050049
 20
43.1808214411
 11
-4.0376186577
 21
44.995735094
  0
LINE
  5
7BF
100
AcDbEntity
  8
0
100
AcDbLine
 62
7
  6
CONTINUOUS
 10
-2.1005195504
 20
43.2314323135
 11
-3.8648223309
 21
44.995735094
  0
LINE
  5
7C0
100
AcDbEntity
  8
RACCORDO
100
AcDbLine
 62
7
  6
CONTINUOUS
 10
-2.1005195504
 20
43.2314323135
 11
-3.8648223309
 21
44.995735094
  0
LINE
  5
7C1
100
AcDbEntity
  8
RACCORDO
100
AcDbLine
 62
7
  6
CONTINUOUS
 10
-4.4148223309
 20
45.545735094
 11
-5.4060954631
 21
46.5370082262
  0
LINE
  5
7C2
100
AcDbEntity
  8
RACCORDO
100
AcDbLine
 62
253
  6
CONTINUOUS
 10
-4.4104504969
 20
-0.0998973028
 11
-4.4148223309
 21
-0.1042691368
  0
LINE
  5
7C3
100
AcDbEntity
  8
RACCORDO
100
AcDbLine
 62
253
  6
CONTINUOUS
 10
-4.1604547277
 20
-0.349893072
 11
-4.1648265617
 21
-0.354264906
  0
LINE
  5
7C4
100
AcDbEntity
  8
RACCORDO
100
AcDbLine
 62
7
  6
CONTINUOUS
 10
-4.5807977641
 20
3.1540268297
 11
-4.4183096217
 21
3.2352647135
  0
LINE
  5
7C5
100
AcDbEntity
  8
RACCORDO
100
AcDbLine
 62
253
  6
CONTINUOUS
 10
-5.3274774976
 20
46.4583902607
 11
-9.6648223309
 21
46.4583902607
  0
LINE
  5
7C6
100
AcDbEntity
  8
RACCORDO
100
AcDbLine
 62
253
  6
CONTINUOUS
 10
-15.6648223309
 20
46.4583902607
 11
-20.0021671641
 21
46.4583902607
  0
LINE
  5
7C7
100
AcDbEntity
  8
DRAFT
100
AcDbLine
 62
7
  6
CONTINUOUS
 10
-9.1648223309
 20
46.4837743326
 11
-9.6648223309
 21
46.4837743326
  0
LINE
  5
7C8
100
AcDbEntity
  8
DRAFT
100
AcDbLine
 62
7
  6
CONTINUOUS
 10
-15.6648223309
 20
46.4837743326
 11
-16.1648223309
 21
46.4837743326
  0
LINE
  5
7C9
100
AcDbEntity
  8
RACCORDO
100
AcDbLine
 62
7
  6
CONTINUOUS
 10
-1.97496247
 20
46.5370082262
 11
-5.4060954631
 21
46.5370082262
  0
LINE
  5
7CA
100
AcDbEntity
  8
RACCORDO
100
AcDbLine
 62
7
  6
CONTINUOUS
 10
-19.9235491987
 20
46.5370082262
 11
-23.3546821917
 21
46.5370082262
  0
LINE
  5
7CB
100
AcDbEntity
  8
RACCORDO
100
AcDbLine
 62
7
  6
CONTINUOUS
 10
-23.3372271268
 20
46.545735094
 11
-23.3148223309
 21
46.545735094
  0
LINE
  5
7CC
100
AcDbEntity
  8
RACCORDO
100
AcDbLine
 62
7
  6
CONTINUOUS
 10
-2.0148223309
 20
46.545735094
 11
-1.9924175349
 21
46.545735094
  0
LINE
  5
7CD
100
AcDbEntity
  8
DRAFT
100
AcDbLine
 62
7
  6
CONTINUOUS
 10
-2.0148223309
 20
46.545735094
 11
-8.2648223309
 21
46.545735094
  0
LINE
  5
7CE
100
AcDbEntity
  8
DRAFT
100
AcDbLine
 62
7
  6
CONTINUOUS
 10
-17.0648223309
 20
46.545735094
 11
-23.3148223309
 21
46.545735094
  0
LINE
  5
7CF
100
AcDbEntity
  8
RACCORDO
100
AcDbLine
 62
7
  6
CONTINUOUS
 10
-2.264099333
 20
47.2683848248
 11
-4.1655453287
 21
47.2683848248
  0
LINE
  5
7D0
100
AcDbEntity
  8
RACCORDO
100
AcDbLine
 62
7
  6
CONTINUOUS
 10
-21.164099333
 20
47.2683848248
 11
-23.0655453287
 21
47.2683848248
  0
LINE
  5
7D1
100
AcDbEntity
  8
RACCORDO
100
AcDbLine
 62
7
  6
CONTINUOUS
 10
-4.5807977641
 20
45.1374433582
 11
-4.4183096217
 21
45.0562054744
  0
LINE
  5
7D2
100
AcDbEntity
  8
RACCORDO
100
AcDbLine
 62
253
  6
CONTINUOUS
 10
-4.4104504969
 20
48.3913674907
 11
-4.4148223309
 21
48.3957393247
  0
LINE
  5
7D3
100
AcDbEntity
  8
RACCORDO
100
AcDbLine
 62
253
  6
CONTINUOUS
 10
-4.1604547277
 20
48.64136326
 11
-4.1648265617
 21
48.645735094
  0
LINE
  5
7D4
100
AcDbEntity
  8
RACCORDO
100
AcDbLine
 62
253
  6
CONTINUOUS
 10
-1.97496247
 20
1.7544619617
 11
-1.9924175349
 21
1.745735094
  0
LWPOLYLINE
  5
7D5
100
AcDbEntity
  8
RACCORDO
100
AcDbPolyline
 62
7
  6
CONTINUOUS
 90
11
 70
0
 10
-1.7866846487
 20
1.7942883722
 10
-1.8010677082
 20
1.7874062668
 10
-1.8211861144
 20
1.7787775964
 10
-1.8416933654
 20
1.7711153849
 10
-1.8625436325
 20
1.7644371273
 10
-1.8836985977
 20
1.7587561172
 10
-1.9051017865
 20
1.7540884814
 10
-1.9266783137
 20
1.7504489404
 10
-1.9483699188
 20
1.7478431504
 10
-1.9701359782
 20
1.746271843
 10
-1.991927244
 20
1.745735094
  0
LINE
  5
7D6
100
AcDbEntity
  8
RACCORDO
100
AcDbLine
 62
253
  6
CONTINUOUS
 10
-23.0604547277
 20
47.7735663103
 11
-21.1691899341
 21
47.7735663103
  0
LINE
  5
7D7
100
AcDbEntity
  8
RACCORDO
100
AcDbLine
 62
253
  6
CONTINUOUS
 10
-4.1604547277
 20
47.7735663103
 11
-2.2691899341
 21
47.7735663103
  0
LINE
  5
7D8
100
AcDbEntity
  8
ASSI
100
AcDbLine
 62
253
  6
CONTINUOUS
 10
-17.021171684
 20
47.9020844471
 11
-16.1648223309
 21
47.9020844471
  0
LINE
  5
7D9
100
AcDbEntity
  8
ASSI
100
AcDbLine
 62
253
  6
CONTINUOUS
 10
-9.1648223309
 20
47.9020844471
 11
-8.3084729777
 21
47.9020844471
  0
LINE
  5
7DA
100
AcDbEntity
  8
DRAFT
100
AcDbLine
 62
7
  6
CONTINUOUS
 10
-16.1648223309
 20
47.9399172641
 11
-9.1648223309
 21
47.9399172641
  0
LINE
  5
7DB
100
AcDbEntity
  8
DRAFT
100
AcDbLine
 62
7
  6
CONTINUOUS
 10
-8.2648223309
 20
47.945735094
 11
-17.0648223309
 21
47.945735094
  0
LINE
  5
7DC
100
AcDbEntity
  8
RACCORDO
100
AcDbLine
 62
253
  6
CONTINUOUS
 10
-2.0191941649
 20
47.9900726612
 11
-4.4104504969
 21
47.9900726612
  0
LINE
  5
7DD
100
AcDbEntity
  8
RACCORDO
100
AcDbLine
 62
253
  6
CONTINUOUS
 10
-20.9191941649
 20
47.9900726612
 11
-23.3104504969
 21
47.9900726612
  0
LINE
  5
7DE
100
AcDbEntity
  8
RACCORDO
100
AcDbLine
 62
253
  6
CONTINUOUS
 10
-2.0191941649
 20
48.3913674907
 11
-4.4104504969
 21
48.3913674907
  0
LINE
  5
7DF
100
AcDbEntity
  8
RACCORDO
100
AcDbLine
 62
253
  6
CONTINUOUS
 10
-20.9191941649
 20
48.3913674907
 11
-23.3104504969
 21
48.3913674907
  0
LINE
  5
7E0
100
AcDbEntity
  8
RACCORDO
100
AcDbLine
 62
253
  6
CONTINUOUS
 10
-2.2691899341
 20
48.64136326
 11
-4.1604547277
 21
48.64136326
  0
LINE
  5
7E1
100
AcDbEntity
  8
RACCORDO
100
AcDbLine
 62
253
  6
CONTINUOUS
 10
-21.1691899341
 20
48.64136326
 11
-23.0604547277
 21
48.64136326
  0
LINE
  5
7E2
100
AcDbEntity
  8
RACCORDO
100
AcDbLine
 62
7
  6
CONTINUOUS
 10
-2.2648181001
 20
48.645735094
 11
-4.1648265617
 21
48.645735094
  0
LINE
  5
7E3
100
AcDbEntity
  8
RACCORDO
100
AcDbLine
 62
7
  6
CONTINUOUS
 10
-21.1648181001
 20
48.645735094
 11
-23.0648265617
 21
48.645735094
  0
LWPOLYLINE
  5
7E4
100
AcDbEntity
  8
RACCORDO
100
AcDbPolyline
 62
7
  6
CONTINUOUS
 90
34
 70
0
 10
-21.1648181001
 20
48.645735094
 10
-21.1529228149
 20
48.6454519437
 10
-21.1410544753
 20
48.6446031282
 10
-21.1292399647
 20
48.6431905681
 10
-21.1175060434
 20
48.6412174617
 10
-21.1058792921
 20
48.6386882757
 10
-21.0943860519
 20
48.6356087357
 10
-21.0830523571
 20
48.6319858153
 10
-21.0719038816
 20
48.6278277197
 10
-21.0609658846
 20
48.6231438661
 10
-21.0502631433
 20
48.6179448628
 10
-21.0398199026
 20
48.6122424856
 10
-21.029659825
 20
48.6060496521
 10
-21.0198059258
 20
48.5993803894
 10
-21.010280527
 20
48.5922498047
 10
-21.0011052118
 20
48.5846740528
 10
-20.9923007648
 20
48.5766702944
 10
-20.9838871304
 20
48.56825666
 10
-20.975883372
 20
48.559452213
 10
-20.9683076202
 20
48.5502768978
 10
-20.9611770354
 20
48.5407514991
 10
-20.9545077727
 20
48.5308975999
 10
-20.9483149392
 20
48.5207375222
 10
-20.942612562
 20
48.5102942815
 10
-20.9374135587
 20
48.4995915403
 10
-20.9327297051
 20
48.4886535432
 10
-20.9285716095
 20
48.4775050677
 10
-20.9249486892
 20
48.466171373
 10
-20.9218691492
 20
48.4546781328
 10
-20.9193399632
 20
48.4430513814
 10
-20.9173668567
 20
48.4313174601
 10
-20.9159542966
 20
48.4195029495
 10
-20.9151054811
 20
48.40763461
 10
-20.9148223309
 20
48.3957393247
  0
LWPOLYLINE
  5
7E5
100
AcDbEntity
  8
RACCORDO
100
AcDbPolyline
 62
7
  6
CONTINUOUS
 90
34
 70
0
 10
-2.2648181001
 20
48.645735094
 10
-2.2529228149
 20
48.6454519437
 10
-2.2410544753
 20
48.6446031282
 10
-2.2292399647
 20
48.6431905681
 10
-2.2175060434
 20
48.6412174617
 10
-2.2058792921
 20
48.6386882757
 10
-2.1943860519
 20
48.6356087357
 10
-2.1830523571
 20
48.6319858153
 10
-2.1719038816
 20
48.6278277197
 10
-2.1609658846
 20
48.6231438661
 10
-2.1502631433
 20
48.6179448628
 10
-2.1398199026
 20
48.6122424856
 10
-2.129659825
 20
48.6060496521
 10
-2.1198059258
 20
48.5993803894
 10
-2.110280527
 20
48.5922498047
 10
-2.1011052118
 20
48.5846740528
 10
-2.0923007648
 20
48.5766702944
 10
-2.0838871304
 20
48.56825666
 10
-2.075883372
 20
48.559452213
 10
-2.0683076202
 20
48.5502768978
 10
-2.0611770354
 20
48.5407514991
 10
-2.0545077727
 20
48.5308975999
 10
-2.0483149392
 20
48.5207375222
 10
-2.042612562
 20
48.5102942815
 10
-2.0374135587
 20
48.4995915403
 10
-2.0327297051
 20
48.4886535432
 10
-2.0285716095
 20
48.4775050677
 10
-2.0249486892
 20
48.466171373
 10
-2.0218691492
 20
48.4546781328
 10
-2.0193399632
 20
48.4430513814
 10
-2.0173668567
 20
48.4313174601
 10
-2.0159542966
 20
48.4195029495
 10
-2.0151054811
 20
48.40763461
 10
-2.0148223309
 20
48.3957393247
  0
LWPOLYLINE
  5
7E6
100
AcDbEntity
  8
RACCORDO
100
AcDbPolyline
 62
253
  6
CONTINUOUS
 90
31
 70
0
 10
-21.1691899341
 20
48.64136326
 10
-21.1561064481
 20
48.6410202214
 10
-21.1430588215
 20
48.6399929315
 10
-21.1300828154
 20
48.6382842059
 10
-21.1172139945
 20
48.635898728
 10
-21.10448763
 20
48.6328430358
 10
-21.0919386023
 20
48.6291255044
 10
-21.079601306
 20
48.6247563229
 10
-21.0675095554
 20
48.6197474664
 10
-21.0556964916
 20
48.6141126632
 10
-21.044194492
 20
48.6078673573
 10
-21.0330350815
 20
48.6010286659
 10
-21.0222488459
 20
48.5936153326
 10
-21.0118653482
 20
48.5856476758
 10
-21.0019130478
 20
48.5771475335
 10
-20.9924192219
 20
48.568138203
 10
-20.9834098913
 20
48.558644377
 10
-20.974909749
 20
48.5486920766
 10
-20.9669420923
 20
48.5383085789
 10
-20.9595287589
 20
48.5275223433
 10
-20.9526900675
 20
48.5163629328
 10
-20.9464447616
 20
48.5048609333
 10
-20.9408099584
 20
48.4930478695
 10
-20.9358011019
 20
48.4809561188
 10
-20.9314319204
 20
48.4686188225
 10
-20.9277143891
 20
48.4560697949
 10
-20.9246586969
 20
48.4433434303
 10
-20.9222732189
 20
48.4304746095
 10
-20.9205644933
 20
48.4174986033
 10
-20.9195372034
 20
48.4044509767
 10
-20.9191941649
 20
48.3913674907
  0
LWPOLYLINE
  5
7E7
100
AcDbEntity
  8
RACCORDO
100
AcDbPolyline
 62
253
  6
CONTINUOUS
 90
31
 70
0
 10
-2.2691899341
 20
48.64136326
 10
-2.2561375941
 20
48.6410218527
 10
-2.2431126997
 20
48.6399985901
 10
-2.2301509252
 20
48.6382949859
 10
-2.2172852064
 20
48.6359138558
 10
-2.2045537412
 20
48.6328607424
 10
-2.1919995566
 20
48.6291453026
 10
-2.1796597527
 20
48.6247787515
 10
-2.1675653966
 20
48.6197723216
 10
-2.1557493183
 20
48.614139573
 10
-2.1442437179
 20
48.6078957714
 10
-2.1330803995
 20
48.6010580896
 10
-2.1222903203
 20
48.5936454595
 10
-2.1119031944
 20
48.5856783173
 10
-2.1019473573
 20
48.5771784204
 10
-2.0924500228
 20
48.5681689986
 10
-2.0834372037
 20
48.5586747054
 10
-2.0749336622
 20
48.548721602
 10
-2.066962754
 20
48.5383370127
 10
-2.0595463472
 20
48.5275494224
 10
-2.0527047714
 20
48.5163883964
 10
-2.0464567922
 20
48.5048845406
 10
-2.0408195439
 20
48.493069395
 10
-2.0358084885
 20
48.4809753578
 10
-2.0314373734
 20
48.4686356016
 10
-2.0277181839
 20
48.4560839542
 10
-2.0246611227
 20
48.4433548403
 10
-2.02227458
 20
48.4304832006
 10
-2.0205650969
 20
48.4175043432
 10
-2.0195373539
 20
48.4044538449
 10
-2.0191941649
 20
48.3913674907
  0
LWPOLYLINE
  5
7E8
100
AcDbEntity
  8
RACCORDO
100
AcDbPolyline
 62
7
  6
CONTINUOUS
 90
11
 70
0
 10
-1.7866864613
 20
46.4971827081
 10
-1.8011560642
 20
46.5041043206
 10
-1.8212806221
 20
46.5127304938
 10
-1.8417914486
 20
46.5203887967
 10
-1.8626414915
 20
46.5270618435
 10
-1.8837746386
 20
46.5327325786
 10
-1.9051516107
 20
46.5373913549
 10
-1.9267504211
 20
46.5410316469
 10
-1.9485315502
 20
46.5436424989
 10
-1.9704371493
 20
46.5452127076
 10
-1.9924175349
 20
46.545735094
  0
LINE
  5
7E9
100
AcDbEntity
  8
RACCORDO
100
AcDbLine
 62
253
  6
CONTINUOUS
 10
-1.9924175349
 20
46.545735094
 11
-1.97496247
 21
46.5370082262
  0
ARC
  5
7EA
100
AcDbEntity
  8
0
100
AcDbCircle
 62
7
  6
CONTINUOUS
 10
-21.6648223309
 20
6.945735094
 40
1.4
100
AcDbArc
 50
201.7133555171
 51
270.0
  0
ARC
  5
7EB
100
AcDbEntity
  8
ASSI
100
AcDbCircle
 62
7
  6
CONTINUOUS
 10
-22.1707307016
 20
6.655735094
 40
0.71
100
AcDbArc
 50
229.7010712477
 51
265.2998279782
  0
ARC
  5
7EC
100
AcDbEntity
  8
ASSI
100
AcDbCircle
 62
7
  6
CONTINUOUS
 10
-22.9548223309
 20
7.4398267232
 40
0.71
100
AcDbArc
 50
184.7001961556
 51
220.2989529286
  0
ARC
  5
7ED
100
AcDbEntity
  8
0
100
AcDbCircle
 62
7
  6
CONTINUOUS
 10
-14.3648223309
 20
6.595735094
 40
0.3
100
AcDbArc
 50
90.0
 51
170.0
  0
ARC
  5
7EE
100
AcDbEntity
  8
RACCORDO
100
AcDbCircle
 62
7
  6
CONTINUOUS
 10
-14.3648223309
 20
6.595735094
 40
0.3
100
AcDbArc
 50
90.0
 51
170.0
  0
ARC
  5
7EF
100
AcDbEntity
  8
CURVE
100
AcDbCircle
 62
7
  6
CONTINUOUS
 10
-18.1648223309
 20
33.228179094
 40
2.5499986575
100
AcDbArc
 50
357.7524617393
 51
182.2474682623
  0
ARC
  5
7F0
100
AcDbEntity
  8
CURVE
100
AcDbCircle
 62
7
  6
CONTINUOUS
 10
-18.1648223309
 20
37.613289094
 40
2.5499985399
100
AcDbArc
 50
357.7525290943
 51
182.2474682623
  0
ARC
  5
7F1
100
AcDbEntity
  8
CURVE
100
AcDbCircle
 62
7
  6
CONTINUOUS
 10
-18.1648223309
 20
33.228179094
 40
1.7999999246
100
AcDbArc
 50
356.8152613297
 51
77.9753174348
  0
ARC
  5
7F2
100
AcDbEntity
  8
CURVE
100
AcDbCircle
 62
7
  6
CONTINUOUS
 10
-18.1648223309
 20
37.613289094
 40
1.7999999246
100
AcDbArc
 50
356.8152613297
 51
183.1847351336
  0
ARC
  5
7F3
100
AcDbEntity
  8
CURVE
100
AcDbCircle
 62
7
  6
CONTINUOUS
 10
-18.1648223309
 20
33.228179094
 40
1.7999968808
100
AcDbArc
 50
102.0247203293
 51
183.1848322474
  0
ARC
  5
7F4
100
AcDbEntity
  8
ASSI
100
AcDbCircle
 62
7
  6
CONTINUOUS
 10
-22.9548223309
 20
40.8516434647
 40
0.71
100
AcDbArc
 50
139.7020215745
 51
175.2988538673
  0
ARC
  5
7F5
100
AcDbEntity
  8
ASSI
100
AcDbCircle
 62
7
  6
CONTINUOUS
 10
-22.1707307016
 20
41.635735094
 40
0.71
100
AcDbArc
 50
94.7020215745
 51
130.2988538673
  0
ARC
  5
7F6
100
AcDbEntity
  8
0
100
AcDbCircle
 62
7
  6
CONTINUOUS
 10
-14.3648223309
 20
41.695735094
 40
0.3
100
AcDbArc
 50
189.5979508052
 51
270.0
  0
ARC
  5
7F7
100
AcDbEntity
  8
RACCORDO
100
AcDbCircle
 62
7
  6
CONTINUOUS
 10
-14.3648223309
 20
41.695735094
 40
0.3
100
AcDbArc
 50
189.5979508052
 51
270.0
  0
ARC
  5
7F8
100
AcDbEntity
  8
ASSI
100
AcDbCircle
 62
7
  6
CONTINUOUS
 10
-3.1589139602
 20
5.255735094
 40
0.71
100
AcDbArc
 50
289.9961491498
 51
294.2412807351
  0
ARC
  5
7F9
100
AcDbEntity
  8
ASSI
100
AcDbCircle
 62
7
  6
CONTINUOUS
 10
-2.3748223309
 20
6.0398267232
 40
0.71
100
AcDbArc
 50
319.7010712477
 51
355.2998279782
  0
ARC
  5
7FA
100
AcDbEntity
  8
0
100
AcDbCircle
 62
7
  6
CONTINUOUS
 10
-10.9648223309
 20
6.595735094
 40
0.3
100
AcDbArc
 50
9.8838085533
 51
90.0
  0
ARC
  5
7FB
100
AcDbEntity
  8
RACCORDO
100
AcDbCircle
 62
7
  6
CONTINUOUS
 10
-10.9648223309
 20
6.595735094
 40
0.3
100
AcDbArc
 50
9.8838085533
 51
90.0
  0
ARC
  5
7FC
100
AcDbEntity
  8
ASSI
100
AcDbCircle
 62
7
  6
CONTINUOUS
 10
-3.1589139602
 20
43.035735094
 40
0.71
100
AcDbArc
 50
49.7020215745
 51
85.2988538673
  0
ARC
  5
7FD
100
AcDbEntity
  8
ASSI
100
AcDbCircle
 62
7
  6
CONTINUOUS
 10
-2.3748223309
 20
42.2516434647
 40
0.71
100
AcDbArc
 50
4.7020215745
 51
40.2988538673
  0
ARC
  5
7FE
100
AcDbEntity
  8
0
100
AcDbCircle
 62
7
  6
CONTINUOUS
 10
-10.9648223309
 20
41.695735094
 40
0.3
100
AcDbArc
 50
270.0
 51
350.0
  0
ARC
  5
7FF
100
AcDbEntity
  8
RACCORDO
100
AcDbCircle
 62
7
  6
CONTINUOUS
 10
-10.9648223309
 20
41.695735094
 40
0.3
100
AcDbArc
 50
270.0
 51
350.0
  0
ELLIPSE
  5
800
100
AcDbEntity
  8
0
100
AcDbEllipse
 62
7
  6
CONTINUOUS
 10
-14.4577155497
 20
42.3813605243
 30
0.0
 11
0.5
 21
0.0
 31
0.0
 40
0.0087268678
 41
-2.3561944902
 42
-1.9981274692
  0
ELLIPSE
  5
801
100
AcDbEntity
  8
0
100
AcDbEllipse
 62
7
  6
CONTINUOUS
 10
-10.8719291121
 20
42.3813605243
 30
0.0
 11
0.5
 21
0.0
 31
0.0
 40
0.0087268678
 41
-1.1643384736
 42
-0.7853981634
  0
ELLIPSE
  5
802
100
AcDbEntity
  8
0
100
AcDbEllipse
 62
7
  6
CONTINUOUS
 10
-3.515126987
 20
6.4742884114
 30
0.0
 11
1.8480888181
 21
-0.7655034529
 31
0.0
 40
0.9998215708
 41
-0.3926359958
 42
0.3926359958
  0
ELLIPSE
  5
803
100
AcDbEntity
  8
0
100
AcDbEllipse
 62
7
  6
CONTINUOUS
 10
-3.515126987
 20
41.8171817765
 30
0.0
 11
1.8480888181
 21
0.7655034529
 31
0.0
 40
0.9998215708
 41
-0.3926359958
 42
0.3926359958
  0
ELLIPSE
  5
804
100
AcDbEntity
  8
0
100
AcDbEllipse
 62
7
  6
CONTINUOUS
 10
-21.8145176748
 20
41.8171817765
 30
0.0
 11
1.8480888181
 21
-0.7655034529
 31
0.0
 40
0.9998215708
 41
2.7489566578
 42
3.5342286494
  0
ELLIPSE
  5
805
100
AcDbEntity
  8
0
100
AcDbEllipse
 62
7
  6
CONTINUOUS
 10
-21.8145176748
 20
6.4742884114
 30
0.0
 11
1.8480888181
 21
0.7655034529
 31
0.0
 40
0.9998215708
 41
2.7489566578
 42
3.5342286494
  0
ELLIPSE
  5
806
100
AcDbEntity
  8
0
100
AcDbEllipse
 62
7
  6
CONTINUOUS
 10
-21.9309727593
 20
41.9118855224
 30
0.0
 11
-0.3535803156
 21
0.3535803156
 31
0.0
 40
0.9999238505
 41
-0.651298773
 42
-0.2962124934
  0
ELLIPSE
  5
807
100
AcDbEntity
  8
0
100
AcDbEllipse
 62
7
  6
CONTINUOUS
 10
-21.9309727593
 20
41.9118855224
 30
0.0
 11
0.3535803156
 21
-0.3535803156
 31
0.0
 40
0.9999238505
 41
2.3562325664
 42
2.4902938806
  0
ELLIPSE
  5
808
100
AcDbEntity
  8
0
100
AcDbEllipse
 62
7
  6
CONTINUOUS
 10
-3.6373124415
 20
6.5248992838
 30
0.0
 11
-1.8480888181
 21
0.7655034529
 31
0.0
 40
0.9998215708
 41
9.032141965
 42
9.2322752141
  0
ELLIPSE
  5
809
100
AcDbEntity
  8
0
100
AcDbEllipse
 62
7
  6
CONTINUOUS
 10
-3.6373124415
 20
6.5248992838
 30
0.0
 11
-1.8480888181
 21
0.7655034529
 31
0.0
 40
0.9998215708
 41
3.4204543746
 42
3.5342286494
  0
ELLIPSE
  5
80A
100
AcDbEntity
  8
0
100
AcDbEllipse
 62
7
  6
CONTINUOUS
 10
-3.6373124415
 20
41.7665709041
 30
0.0
 11
1.8480888181
 21
0.7655034529
 31
0.0
 40
0.9998215708
 41
-0.3926359958
 42
-0.278861721
  0
ELLIPSE
  5
80B
100
AcDbEntity
  8
0
100
AcDbEllipse
 62
7
  6
CONTINUOUS
 10
-3.6373124415
 20
41.7665709041
 30
0.0
 11
1.8480888181
 21
0.7655034529
 31
0.0
 40
0.9998215708
 41
6.4756880539
 42
6.675821303
  0
ELLIPSE
  5
80C
100
AcDbEntity
  8
0
100
AcDbEllipse
 62
7
  6
CONTINUOUS
 10
-21.6923322203
 20
41.7665709041
 30
0.0
 11
1.8480888181
 21
-0.7655034529
 31
0.0
 40
0.9998215708
 41
2.7489566578
 42
3.5342286494
  0
ELLIPSE
  5
80D
100
AcDbEntity
  8
0
100
AcDbEllipse
 62
7
  6
CONTINUOUS
 10
-21.6923322203
 20
6.5248992838
 30
0.0
 11
-1.8480888181
 21
-0.7655034529
 31
0.0
 40
0.9998215708
 41
-0.3926359958
 42
0.3926359958
  0
ELLIPSE
  5
80E
100
AcDbEntity
  8
RACCORDO
100
AcDbEllipse
 62
7
  6
CONTINUOUS
 10
-21.9309727593
 20
41.9118855224
 30
0.0
 11
-0.3535803156
 21
0.3535803156
 31
0.0
 40
0.9999238505
 41
-0.651298773
 42
-0.2962124934
  0
ELLIPSE
  5
80F
100
AcDbEntity
  8
RACCORDO
100
AcDbEllipse
 62
7
  6
CONTINUOUS
 10
-21.9309727593
 20
41.9118855224
 30
0.0
 11
0.3535803156
 21
-0.3535803156
 31
0.0
 40
0.9999238505
 41
2.3562325664
 42
2.4902938806
  0
ELLIPSE
  5
810
100
AcDbEntity
  8
RACCORDO
100
AcDbEllipse
 62
7
  6
CONTINUOUS
 10
-14.4577155497
 20
42.3813605243
 30
0.0
 11
0.5
 21
0.0
 31
0.0
 40
0.0087268678
 41
-2.3561944902
 42
-1.9981274692
  0
ELLIPSE
  5
811
100
AcDbEntity
  8
RACCORDO
100
AcDbEllipse
 62
7
  6
CONTINUOUS
 10
-10.8719291121
 20
42.3813605243
 30
0.0
 11
0.5
 21
0.0
 31
0.0
 40
0.0087268678
 41
-1.1643384736
 42
-0.7853981634
  0
ELLIPSE
  5
812
100
AcDbEntity
  8
RACCORDO
100
AcDbEllipse
 62
7
  6
CONTINUOUS
 10
-21.8145176748
 20
6.4742884114
 30
0.0
 11
1.8480888181
 21
0.7655034529
 31
0.0
 40
0.9998215708
 41
2.7489566578
 42
3.5342286494
  0
ELLIPSE
  5
813
100
AcDbEntity
  8
RACCORDO
100
AcDbEllipse
 62
7
  6
CONTINUOUS
 10
-21.8145176748
 20
41.8171817765
 30
0.0
 11
1.8480888181
 21
-0.7655034529
 31
0.0
 40
0.9998215708
 41
2.7489566578
 42
3.5342286494
  0
ELLIPSE
  5
814
100
AcDbEntity
  8
RACCORDO
100
AcDbEllipse
 62
7
  6
CONTINUOUS
 10
-3.515126987
 20
41.8171817765
 30
0.0
 11
1.8480888181
 21
0.7655034529
 31
0.0
 40
0.9998215708
 41
-0.3926359958
 42
0.3926359958
  0
ELLIPSE
  5
815
100
AcDbEntity
  8
RACCORDO
100
AcDbEllipse
 62
7
  6
CONTINUOUS
 10
-3.515126987
 20
6.4742884114
 30
0.0
 11
1.8480888181
 21
-0.7655034529
 31
0.0
 40
0.9998215708
 41
-0.3926359958
 42
0.3926359958
  0
ELLIPSE
  5
816
100
AcDbEntity
  8
0
100
AcDbEllipse
 62
7
  6
CONTINUOUS
 10
-10.6648984949
 20
166.02137753
 30
0.0
 11
-0.4997620717
 21
162.4815824859
 31
0.0
 40
0.000109066
 41
3.2240975184
 42
3.234898768
  0
ELLIPSE
  5
817
100
AcDbEntity
  8
0
100
AcDbEllipse
 62
7
  6
CONTINUOUS
 10
-10.6648984949
 20
-117.7299073421
 30
0.0
 11
0.4997620717
 21
162.4815824859
 31
0.0
 40
0.000109066
 41
-0.0933061144
 42
-0.0825048648
  0
ELLIPSE
  5
818
100
AcDbEntity
  8
0
100
AcDbEllipse
 62
7
  6
CONTINUOUS
 10
-14.6647461668
 20
166.02137753
 30
0.0
 11
0.4997620717
 21
162.4815824859
 31
0.0
 40
0.000109066
 41
-3.234898768
 42
-3.2241050087
  0
ELLIPSE
  5
819
100
AcDbEntity
  8
0
100
AcDbEllipse
 62
7
  6
CONTINUOUS
 10
-14.6647461668
 20
-117.7299073421
 30
0.0
 11
-0.4997620717
 21
162.4815824859
 31
0.0
 40
0.000109066
 41
6.3656976623
 42
6.3764914216
  0
ELLIPSE
  5
81A
100
AcDbEntity
  8
RACCORDO
100
AcDbEllipse
 62
7
  6
CONTINUOUS
 10
-21.6923322203
 20
6.5248992838
 30
0.0
 11
-1.8480888181
 21
-0.7655034529
 31
0.0
 40
0.9998215708
 41
-0.3926359958
 42
0.3926359958
  0
ELLIPSE
  5
81B
100
AcDbEntity
  8
RACCORDO
100
AcDbEllipse
 62
7
  6
CONTINUOUS
 10
-21.6923322203
 20
41.7665709041
 30
0.0
 11
1.8480888181
 21
-0.7655034529
 31
0.0
 40
0.9998215708
 41
2.7489566578
 42
3.5342286494
  0
ELLIPSE
  5
81C
100
AcDbEntity
  8
RACCORDO
100
AcDbEllipse
 62
7
  6
CONTINUOUS
 10
-3.6373124415
 20
41.7665709041
 30
0.0
 11
1.8480888181
 21
0.7655034529
 31
0.0
 40
0.9998215708
 41
-0.3926359958
 42
-0.278861721
  0
ELLIPSE
  5
81D
100
AcDbEntity
  8
RACCORDO
100
AcDbEllipse
 62
7
  6
CONTINUOUS
 10
-3.6373124415
 20
41.7665709041
 30
0.0
 11
1.8480888181
 21
0.7655034529
 31
0.0
 40
0.9998215708
 41
6.4756880539
 42
6.675821303
  0
ELLIPSE
  5
81E
100
AcDbEntity
  8
RACCORDO
100
AcDbEllipse
 62
7
  6
CONTINUOUS
 10
-3.6373124415
 20
6.5248992838
 30
0.0
 11
-1.8480888181
 21
0.7655034529
 31
0.0
 40
0.9998215708
 41
9.032141965
 42
9.2322752141
  0
ELLIPSE
  5
81F
100
AcDbEntity
  8
RACCORDO
100
AcDbEllipse
 62
7
  6
CONTINUOUS
 10
-3.6373124415
 20
6.5248992838
 30
0.0
 11
-1.8480888181
 21
0.7655034529
 31
0.0
 40
0.9998215708
 41
3.4204543746
 42
3.5342286494
  0
ELLIPSE
  5
820
100
AcDbEntity
  8
DRAFT
100
AcDbEllipse
 62
7
  6
CONTINUOUS
 10
-10.1648223309
 20
4.1012280682
 30
0.0
 11
1.0
 21
0.0
 31
0.0
 40
0.0087268678
 41
-1.5707963268
 42
-0.0
  0
ELLIPSE
  5
821
100
AcDbEntity
  8
DRAFT
100
AcDbEllipse
 62
7
  6
CONTINUOUS
 10
-10.1648223309
 20
44.1902421197
 30
0.0
 11
1.0
 21
0.0
 31
0.0
 40
0.0087268678
 41
-0.0
 42
1.5707963268
  0
ELLIPSE
  5
822
100
AcDbEntity
  8
DRAFT
100
AcDbEllipse
 62
7
  6
CONTINUOUS
 10
-12.6648223309
 20
3.9633435571
 30
0.0
 11
15.0
 21
0.0
 31
0.0
 40
0.0087268678
 41
1.4073150204
 42
1.7342776332
  0
ELLIPSE
  5
823
100
AcDbEntity
  8
DRAFT
100
AcDbEllipse
 62
7
  6
CONTINUOUS
 10
-15.1648223309
 20
4.1012280682
 30
0.0
 11
1.0
 21
0.0
 31
0.0
 40
0.0087268678
 41
-3.1415926536
 42
-1.5707963268
  0
ELLIPSE
  5
824
100
AcDbEntity
  8
DRAFT
100
AcDbEllipse
 62
7
  6
CONTINUOUS
 10
-12.6648223309
 20
44.3281266308
 30
0.0
 11
15.0
 21
-0.0
 31
0.0
 40
0.0087268678
 41
-1.7342776332
 42
-1.4073150204
  0
ELLIPSE
  5
825
100
AcDbEntity
  8
DRAFT
100
AcDbEllipse
 62
7
  6
CONTINUOUS
 10
-15.1648223309
 20
44.1902421197
 30
0.0
 11
1.0
 21
-0.0
 31
0.0
 40
0.0087268678
 41
1.5707963268
 42
3.1415926536
  0
ELLIPSE
  5
826
100
AcDbEntity
  8
RACCORDO
100
AcDbEllipse
 62
7
  6
CONTINUOUS
 10
-23.0648181
 20
47.5570599594
 30
0.0
 11
0.0029088041
 21
0.2886641433
 31
0.0
 40
0.8660144118
 41
-4.7007536982
 42
-3.1328662412
  0
ELLIPSE
  5
827
100
AcDbEntity
  8
RACCORDO
100
AcDbEllipse
 62
7
  6
CONTINUOUS
 10
-21.1648265617
 20
47.5570599594
 30
0.0
 11
-0.0029088041
 21
0.2886641433
 31
0.0
 40
0.8660144118
 41
-3.150319066
 42
-1.582431609
  0
ELLIPSE
  5
828
100
AcDbEntity
  8
RACCORDO
100
AcDbEllipse
 62
7
  6
CONTINUOUS
 10
-23.35475226
 20
2.2144794778
 30
0.0
 11
-0.4115211136
 21
0.2057448864
 31
0.0
 40
0.9998096356
 41
6.7467263073
 42
8.3176749331
  0
ELLIPSE
  5
829
100
AcDbEntity
  8
RACCORDO
100
AcDbEllipse
 62
7
  6
CONTINUOUS
 10
-1.9748924018
 20
46.0769907101
 30
0.0
 11
0.4115211136
 21
-0.2057448864
 31
0.0
 40
0.9998096356
 41
6.7467263073
 42
8.3176749331
  0
ELLIPSE
  5
82A
100
AcDbEntity
  8
RACCORDO
100
AcDbEllipse
 62
7
  6
CONTINUOUS
 10
-4.1648181
 20
47.5570599594
 30
0.0
 11
0.0029088041
 21
0.2886641433
 31
0.0
 40
0.8660144118
 41
-4.7007536982
 42
-3.1328662411
  0
ELLIPSE
  5
82B
100
AcDbEntity
  8
RACCORDO
100
AcDbEllipse
 62
7
  6
CONTINUOUS
 10
-2.2648265617
 20
47.5570599594
 30
0.0
 11
-0.0029088041
 21
0.2886641433
 31
0.0
 40
0.8660144118
 41
-3.150319066
 42
-1.582431609
  0
ELLIPSE
  5
82C
100
AcDbEntity
  8
RACCORDO
100
AcDbEllipse
 62
7
  6
CONTINUOUS
 10
-1.9748924018
 20
2.2144794778
 30
0.0
 11
-0.4115211136
 21
-0.2057448864
 31
0.0
 40
0.9998096356
 41
1.1071030277
 42
2.6780516535
  0
ELLIPSE
  5
82D
100
AcDbEntity
  8
RACCORDO
100
AcDbEllipse
 62
7
  6
CONTINUOUS
 10
-20.24892305
 20
3.1541029821
 30
0.0
 11
0.5
 21
0.0
 31
0.0
 40
0.0087268678
 41
-3.1241393611
 42
-1.5707963268
  0
ELLIPSE
  5
82E
100
AcDbEntity
  8
RACCORDO
100
AcDbEllipse
 62
7
  6
CONTINUOUS
 10
-5.0807216117
 20
3.1541029821
 30
0.0
 11
0.5
 21
0.0
 31
0.0
 40
0.0087268678
 41
-1.5707963268
 42
-0.0174532925
  0
ELLIPSE
  5
82F
100
AcDbEntity
  8
RACCORDO
100
AcDbEllipse
 62
7
  6
CONTINUOUS
 10
-20.24892305
 20
45.1373672058
 30
0.0
 11
0.5
 21
0.0
 31
0.0
 40
0.0087268678
 41
1.5707963268
 42
3.1241393611
  0
ELLIPSE
  5
830
100
AcDbEntity
  8
RACCORDO
100
AcDbEllipse
 62
7
  6
CONTINUOUS
 10
-5.0807216117
 20
45.1373672058
 30
0.0
 11
0.5
 21
-0.0
 31
0.0
 40
0.0087268678
 41
0.0174532925
 42
1.5707963268
  0
ELLIPSE
  5
831
100
AcDbEntity
  8
RACCORDO
100
AcDbEllipse
 62
7
  6
CONTINUOUS
 10
-23.35475226
 20
46.0769907101
 30
0.0
 11
0.4115211136
 21
0.2057448864
 31
0.0
 40
0.9998096356
 41
1.1071030277
 42
2.6780516535
  0
ELLIPSE
  5
832
100
AcDbEntity
  8
RACCORDO
100
AcDbEllipse
 62
7
  6
CONTINUOUS
 10
-6.3095529477
 20
3.5628108107
 30
0.0
 11
-0.0
 21
0.5
 31
0.0
 40
0.0058178298
 41
-1.5707963268
 42
-0.0087266463
  0
ELLIPSE
  5
833
100
AcDbEntity
  8
RACCORDO
100
AcDbEllipse
 62
7
  6
CONTINUOUS
 10
-19.0200917141
 20
3.5628108107
 30
0.0
 11
-0.0
 21
0.5
 31
0.0
 40
0.0058178298
 41
0.0087266463
 42
1.5707963268
  0
ELLIPSE
  5
834
100
AcDbEntity
  8
RACCORDO
100
AcDbEllipse
 62
7
  6
CONTINUOUS
 10
-19.0200917141
 20
44.7286593772
 30
0.0
 11
0.0
 21
0.5
 31
0.0
 40
0.0058178298
 41
-4.7123889804
 42
-3.1503192998
  0
ELLIPSE
  5
835
100
AcDbEntity
  8
RACCORDO
100
AcDbEllipse
 62
7
  6
CONTINUOUS
 10
-6.3095529477
 20
44.7286593772
 30
0.0
 11
-0.0
 21
0.5
 31
0.0
 40
0.0058178298
 41
-3.1328660073
 42
-1.5707963268
  0
ELLIPSE
  5
836
100
AcDbEntity
  8
RACCORDO
100
AcDbEllipse
 62
7
  6
CONTINUOUS
 10
-19.021837063
 20
4.1887169771
 30
0.0
 11
0.0
 21
0.2
 31
0.0
 40
0.0058178298
 41
0.0058177642
 42
1.5707963268
  0
ELLIPSE
  5
837
100
AcDbEntity
  8
RACCORDO
100
AcDbEllipse
 62
7
  6
CONTINUOUS
 10
-19.9078075987
 20
4.1887169771
 30
0.0
 11
0.0
 21
0.2
 31
0.0
 40
0.0058178298
 41
-1.5707963268
 42
-0.0058177642
  0
ELLIPSE
  5
838
100
AcDbEntity
  8
RACCORDO
100
AcDbEllipse
 62
7
  6
CONTINUOUS
 10
-5.421837063
 20
4.1887169771
 30
0.0
 11
0.0
 21
0.2
 31
0.0
 40
0.0058178298
 41
0.0058177642
 42
1.5707963268
  0
ELLIPSE
  5
839
100
AcDbEntity
  8
RACCORDO
100
AcDbEllipse
 62
7
  6
CONTINUOUS
 10
-6.3078075987
 20
4.1887169771
 30
0.0
 11
-0.0
 21
0.2
 31
0.0
 40
0.0058178298
 41
-1.5707963268
 42
-0.0058177642
  0
ELLIPSE
  5
83A
100
AcDbEntity
  8
RACCORDO
100
AcDbEllipse
 62
7
  6
CONTINUOUS
 10
-6.3078075987
 20
44.1027532108
 30
0.0
 11
-0.0
 21
0.2
 31
0.0
 40
0.0058178298
 41
-3.1357748894
 42
-1.5707963268
  0
ELLIPSE
  5
83B
100
AcDbEntity
  8
RACCORDO
100
AcDbEllipse
 62
7
  6
CONTINUOUS
 10
-5.421837063
 20
44.1027532108
 30
0.0
 11
-0.0
 21
0.2
 31
0.0
 40
0.0058178298
 41
-4.7123889804
 42
-3.1474104178
  0
ELLIPSE
  5
83C
100
AcDbEntity
  8
RACCORDO
100
AcDbEllipse
 62
7
  6
CONTINUOUS
 10
-19.9078075987
 20
44.1027532108
 30
0.0
 11
0.0
 21
0.2
 31
0.0
 40
0.0058178298
 41
-3.1357748894
 42
-1.5707963268
  0
ELLIPSE
  5
83D
100
AcDbEntity
  8
RACCORDO
100
AcDbEllipse
 62
7
  6
CONTINUOUS
 10
-19.021837063
 20
44.1027532108
 30
0.0
 11
0.0
 21
0.2
 31
0.0
 40
0.0058178298
 41
-4.7123889804
 42
-3.1474104178
  0
ELLIPSE
  5
83E
100
AcDbEntity
  8
RACCORDO
100
AcDbEllipse
 62
7
  6
CONTINUOUS
 10
-21.1648265617
 20
0.7344102285
 30
0.0
 11
0.0029088041
 21
0.2886641433
 31
0.0
 40
0.8660144118
 41
-1.5591610446
 42
0.0087264124
  0
ELLIPSE
  5
83F
100
AcDbEntity
  8
ASSI
100
AcDbEllipse
 62
7
  6
CONTINUOUS
 10
-17.0211886073
 20
0.8893772792
 30
0.0
 11
0.0
 21
0.5
 31
0.0
 40
0.0058178298
 41
-3.1357748894
 42
-2.9919956456
  0
ELLIPSE
  5
840
100
AcDbEntity
  8
RACCORDO
100
AcDbEllipse
 62
7
  6
CONTINUOUS
 10
-23.0648181
 20
0.7344102285
 30
0.0
 11
-0.0029088041
 21
0.2886641433
 31
0.0
 40
0.8660144118
 41
-0.0087264124
 42
1.5591610446
  0
ELLIPSE
  5
841
100
AcDbEntity
  8
ASSI
100
AcDbEllipse
 62
7
  6
CONTINUOUS
 10
-8.3084560545
 20
0.8893772792
 30
0.0
 11
0.0
 21
0.5
 31
0.0
 40
0.0058178298
 41
-3.2911896616
 42
-3.1474104178
  0
ELLIPSE
  5
842
100
AcDbEntity
  8
ASSI
100
AcDbEllipse
 62
7
  6
CONTINUOUS
 10
-8.3084560545
 20
47.4020929087
 30
0.0
 11
-0.0
 21
0.5
 31
0.0
 40
0.0058178298
 41
0.0058177642
 42
0.149597008
  0
ELLIPSE
  5
843
100
AcDbEntity
  8
ASSI
100
AcDbEllipse
 62
7
  6
CONTINUOUS
 10
-17.0211886073
 20
47.4020929087
 30
0.0
 11
0.0
 21
0.5
 31
0.0
 40
0.0058178298
 41
-0.149597008
 42
-0.0058177642
  0
ELLIPSE
  5
844
100
AcDbEntity
  8
DRAFT
100
AcDbEllipse
 62
7
  6
CONTINUOUS
 10
-16.5927923185
 20
1.8118151988
 30
0.0
 11
0.4279699877
 21
-0.0
 31
0.0
 40
0.0087268678
 41
-0.0
 42
3.1357748894
  0
ELLIPSE
  5
845
100
AcDbEntity
  8
RACCORDO
100
AcDbEllipse
 62
7
  6
CONTINUOUS
 10
-2.2648265617
 20
0.7344102285
 30
0.0
 11
0.0029088041
 21
0.2886641433
 31
0.0
 40
0.8660144118
 41
-1.5591610446
 42
0.0087264124
  0
ELLIPSE
  5
846
100
AcDbEntity
  8
DRAFT
100
AcDbEllipse
 62
7
  6
CONTINUOUS
 10
-8.7368523432
 20
1.8118151988
 30
0.0
 11
0.4279699877
 21
0.0
 31
0.0
 40
0.0087268678
 41
0.0058177642
 42
3.1415926536
  0
ELLIPSE
  5
847
100
AcDbEntity
  8
DRAFT
100
AcDbEllipse
 62
7
  6
CONTINUOUS
 10
-8.7368523432
 20
46.4796549891
 30
0.0
 11
0.4279699877
 21
-0.0
 31
0.0
 40
0.0087268678
 41
-3.1415926536
 42
-0.0058177642
  0
ELLIPSE
  5
848
100
AcDbEntity
  8
DRAFT
100
AcDbEllipse
 62
7
  6
CONTINUOUS
 10
-16.5927923185
 20
46.4796549891
 30
0.0
 11
0.4279699877
 21
0.0
 31
0.0
 40
0.0087268678
 41
-3.1357748894
 42
-0.0
  0
ELLIPSE
  5
849
100
AcDbEntity
  8
RACCORDO
100
AcDbEllipse
 62
7
  6
CONTINUOUS
 10
-4.1648181
 20
0.7344102285
 30
0.0
 11
-0.0029088041
 21
0.2886641433
 31
0.0
 40
0.8660144118
 41
-0.0087264124
 42
1.5591610446
  0
ELLIPSE
  5
84A
100
AcDbEntity
  8
RACCORDO
100
AcDbEllipse
 62
7
  6
CONTINUOUS
 10
-14.3474002181
 20
6.545735094
 30
0.0
 11
0.3000114235
 21
0.0
 31
0.0
 40
0.9999619231
 41
1.5707963268
 42
2.80137059
  0
ELLIPSE
  5
84B
100
AcDbEntity
  8
RACCORDO
100
AcDbEllipse
 62
7
  6
CONTINUOUS
 10
-23.377901209
 20
20.695735094
 30
0.0
 11
0.3000114235
 21
0.0
 31
0.0
 40
0.9999619231
 41
1.5707963268
 42
3.1415926536
  0
ELLIPSE
  5
84C
100
AcDbEntity
  8
RACCORDO
100
AcDbEllipse
 62
7
  6
CONTINUOUS
 10
-23.377901209
 20
25.695735094
 30
0.0
 11
0.3000114235
 21
0.0
 31
0.0
 40
0.9999619231
 41
1.5707963268
 42
3.1415926536
  0
ELLIPSE
  5
84D
100
AcDbEntity
  8
DRAFT
100
AcDbEllipse
 62
7
  6
CONTINUOUS
 10
-22.5062749529
 20
23.145735094
 30
0.0
 11
-0.0
 21
2.15
 31
0.0
 40
0.0087268678
 41
0.0
 42
3.1415926536
  0
ELLIPSE
  5
84E
100
AcDbEntity
  8
DRAFT
100
AcDbEllipse
 62
7
  6
CONTINUOUS
 10
-22.5062749529
 20
38.145735094
 30
0.0
 11
-0.0
 21
2.15
 31
0.0
 40
0.0087268678
 41
-0.0
 42
3.1415926536
  0
ELLIPSE
  5
84F
100
AcDbEntity
  8
DRAFT
100
AcDbEllipse
 62
7
  6
CONTINUOUS
 10
-22.5062749529
 20
33.145735094
 30
0.0
 11
-0.0
 21
2.15
 31
0.0
 40
0.0087268678
 41
0.0
 42
3.1415926536
  0
ELLIPSE
  5
850
100
AcDbEntity
  8
DRAFT
100
AcDbEllipse
 62
7
  6
CONTINUOUS
 10
-22.5062749529
 20
28.145735094
 30
0.0
 11
-0.0
 21
2.15
 31
0.0
 40
0.0087268678
 41
-0.0
 42
3.1415926536
  0
ELLIPSE
  5
851
100
AcDbEntity
  8
RACCORDO
100
AcDbEllipse
 62
7
  6
CONTINUOUS
 10
-16.377901209
 20
43.4588139721
 30
0.0
 11
0.2121481893
 21
-0.2121481893
 31
0.0
 40
0.9999238505
 41
2.3562325664
 42
3.9269527408
  0
ELLIPSE
  5
852
100
AcDbEntity
  8
RACCORDO
100
AcDbEllipse
 62
7
  6
CONTINUOUS
 10
-3.2736294853
 20
42.7587873173
 30
0.0
 11
0.3827005044
 21
0.9239207481
 31
0.0
 40
0.9999553905
 41
-0.3926833098
 42
0.3926833098
  0
ELLIPSE
  5
853
100
AcDbEntity
  8
RACCORDO
100
AcDbEllipse
 62
7
  6
CONTINUOUS
 10
-2.6517701076
 20
42.1369279395
 30
0.0
 11
0.9239207481
 21
0.3827005044
 31
0.0
 40
0.9999553905
 41
-0.3926833098
 42
0.3926833098
  0
ELLIPSE
  5
854
100
AcDbEntity
  8
RACCORDO
100
AcDbEllipse
 62
7
  6
CONTINUOUS
 10
-2.6517701076
 20
6.1545422484
 30
0.0
 11
0.9239207481
 21
-0.3827005044
 31
0.0
 40
0.9999553905
 41
-0.3926833098
 42
0.3926833098
  0
ELLIPSE
  5
855
100
AcDbEntity
  8
RACCORDO
100
AcDbEllipse
 62
7
  6
CONTINUOUS
 10
-3.2736294853
 20
5.5326828707
 30
0.0
 11
-0.3827005044
 21
0.9239207481
 31
0.0
 40
0.9999553905
 41
2.7489093438
 42
3.5342759634
  0
ELLIPSE
  5
856
100
AcDbEntity
  8
RACCORDO
100
AcDbEllipse
 62
7
  6
CONTINUOUS
 10
-16.377901209
 20
4.8326562158
 30
0.0
 11
-0.2121481893
 21
-0.2121481893
 31
0.0
 40
0.9999238505
 41
-0.7853600872
 42
0.7853600872
  0
ELLIPSE
  5
857
100
AcDbEntity
  8
RACCORDO
100
AcDbEllipse
 62
7
  6
CONTINUOUS
 10
-22.0560151764
 20
6.9326828707
 30
0.0
 11
-0.3827005044
 21
-0.9239207481
 31
0.0
 40
0.9999553905
 41
-0.3926833098
 42
0.3926833098
  0
ELLIPSE
  5
858
100
AcDbEntity
  8
RACCORDO
100
AcDbEllipse
 62
7
  6
CONTINUOUS
 10
-22.6778745542
 20
7.5545422484
 30
0.0
 11
0.9239207481
 21
0.3827005044
 31
0.0
 40
0.9999553905
 41
2.7489093438
 42
3.5342759634
  0
ELLIPSE
  5
859
100
AcDbEntity
  8
RACCORDO
100
AcDbEllipse
 62
7
  6
CONTINUOUS
 10
-23.377901209
 20
25.595735094
 30
0.0
 11
-0.3000114235
 21
-0.0
 31
0.0
 40
0.9999619231
 41
0.0
 42
1.5707963268
  0
ELLIPSE
  5
85A
100
AcDbEntity
  8
RACCORDO
100
AcDbEllipse
 62
7
  6
CONTINUOUS
 10
-23.377901209
 20
30.595735094
 30
0.0
 11
-0.3000114235
 21
-0.0
 31
0.0
 40
0.9999619231
 41
0.0
 42
1.5707963268
  0
ELLIPSE
  5
85B
100
AcDbEntity
  8
RACCORDO
100
AcDbEllipse
 62
7
  6
CONTINUOUS
 10
-23.377901209
 20
30.695735094
 30
0.0
 11
0.3000114235
 21
0.0
 31
0.0
 40
0.9999619231
 41
1.5707963268
 42
3.1415926536
  0
ELLIPSE
  5
85C
100
AcDbEntity
  8
RACCORDO
100
AcDbEllipse
 62
7
  6
CONTINUOUS
 10
-23.377901209
 20
35.595735094
 30
0.0
 11
-0.3000114235
 21
-0.0
 31
0.0
 40
0.9999619231
 41
0.0
 42
1.5707963268
  0
ELLIPSE
  5
85D
100
AcDbEntity
  8
RACCORDO
100
AcDbEllipse
 62
7
  6
CONTINUOUS
 10
-23.377901209
 20
35.695735094
 30
0.0
 11
0.3000114235
 21
0.0
 31
0.0
 40
0.9999619231
 41
1.5707963268
 42
3.1415926536
  0
ELLIPSE
  5
85E
100
AcDbEntity
  8
RACCORDO
100
AcDbEllipse
 62
7
  6
CONTINUOUS
 10
-23.377901209
 20
40.595735094
 30
0.0
 11
-0.3000114235
 21
-0.0
 31
0.0
 40
0.9999619231
 41
0.0
 42
1.5707963268
  0
ELLIPSE
  5
85F
100
AcDbEntity
  8
RACCORDO
100
AcDbEllipse
 62
7
  6
CONTINUOUS
 10
-22.6778745542
 20
40.7369279395
 30
0.0
 11
-0.9239207481
 21
0.3827005044
 31
0.0
 40
0.9999553905
 41
-0.3926833098
 42
0.3926833098
  0
ELLIPSE
  5
860
100
AcDbEntity
  8
RACCORDO
100
AcDbEllipse
 62
7
  6
CONTINUOUS
 10
-22.0560151764
 20
41.3587873173
 30
0.0
 11
-0.3827005044
 21
0.9239207481
 31
0.0
 40
0.9999553905
 41
-0.3926833098
 42
0.3926833098
  0
ELLIPSE
  5
861
100
AcDbEntity
  8
RACCORDO
100
AcDbEllipse
 62
7
  6
CONTINUOUS
 10
-16.9779240561
 20
42.6588368192
 30
0.0
 11
0.2121481893
 21
-0.2121481893
 31
0.0
 40
0.9999238505
 41
-0.7853600872
 42
0.7853600872
  0
ELLIPSE
  5
862
100
AcDbEntity
  8
RACCORDO
100
AcDbEllipse
 62
7
  6
CONTINUOUS
 10
-10.9822444437
 20
6.545735094
 30
0.0
 11
0.3000114235
 21
0.0
 31
0.0
 40
0.9999619231
 41
0.3402220636
 42
1.5707963268
  0
ELLIPSE
  5
863
100
AcDbEntity
  8
RACCORDO
100
AcDbEllipse
 62
7
  6
CONTINUOUS
 10
-11.0608293001
 20
41.745735094
 30
0.0
 11
-0.3000114235
 21
-0.0
 31
0.0
 40
0.9999619231
 41
1.5707963268
 42
2.80137059
  0
ELLIPSE
  5
864
100
AcDbEntity
  8
RACCORDO
100
AcDbEllipse
 62
7
  6
CONTINUOUS
 10
-14.2688153617
 20
41.745735094
 30
0.0
 11
-0.3000114235
 21
-0.0
 31
0.0
 40
0.9999619231
 41
0.3402220636
 42
1.5707963268
  0
ELLIPSE
  5
865
100
AcDbEntity
  8
ASSI
100
AcDbEllipse
 62
7
  6
CONTINUOUS
 10
-16.377901209
 20
43.4588139721
 30
0.0
 11
0.2121481893
 21
-0.2121481893
 31
0.0
 40
0.9999238505
 41
2.3562325664
 42
3.9269527408
  0
ELLIPSE
  5
866
100
AcDbEntity
  8
ASSI
100
AcDbEllipse
 62
7
  6
CONTINUOUS
 10
-3.2736294853
 20
42.7587873173
 30
0.0
 11
0.3827005044
 21
0.9239207481
 31
0.0
 40
0.9999553905
 41
-0.3926833098
 42
0.3926833098
  0
ELLIPSE
  5
867
100
AcDbEntity
  8
ASSI
100
AcDbEllipse
 62
7
  6
CONTINUOUS
 10
-2.6517701076
 20
42.1369279395
 30
0.0
 11
0.9239207481
 21
0.3827005044
 31
0.0
 40
0.9999553905
 41
-0.3926833098
 42
0.3926833098
  0
ELLIPSE
  5
868
100
AcDbEntity
  8
ASSI
100
AcDbEllipse
 62
7
  6
CONTINUOUS
 10
-2.6517701076
 20
6.1545422484
 30
0.0
 11
0.9239207481
 21
-0.3827005044
 31
0.0
 40
0.9999553905
 41
-0.3926833098
 42
0.3926833098
  0
ELLIPSE
  5
869
100
AcDbEntity
  8
ASSI
100
AcDbEllipse
 62
7
  6
CONTINUOUS
 10
-3.2736294853
 20
5.5326828707
 30
0.0
 11
-0.3827005044
 21
0.9239207481
 31
0.0
 40
0.9999553905
 41
2.7489093438
 42
3.5342759634
  0
ELLIPSE
  5
86A
100
AcDbEntity
  8
ASSI
100
AcDbEllipse
 62
7
  6
CONTINUOUS
 10
-16.377901209
 20
4.8326562158
 30
0.0
 11
-0.2121481893
 21
-0.2121481893
 31
0.0
 40
0.9999238505
 41
-0.7853600872
 42
0.7853600872
  0
ELLIPSE
  5
86B
100
AcDbEntity
  8
ASSI
100
AcDbEllipse
 62
7
  6
CONTINUOUS
 10
-22.0560151764
 20
6.9326828707
 30
0.0
 11
-0.3827005044
 21
-0.9239207481
 31
0.0
 40
0.9999553905
 41
-0.3926833098
 42
0.3926833098
  0
ELLIPSE
  5
86C
100
AcDbEntity
  8
ASSI
100
AcDbEllipse
 62
7
  6
CONTINUOUS
 10
-22.6778745542
 20
7.5545422484
 30
0.0
 11
0.9239207481
 21
0.3827005044
 31
0.0
 40
0.9999553905
 41
2.7489093438
 42
3.5342759634
  0
ELLIPSE
  5
86D
100
AcDbEntity
  8
ASSI
100
AcDbEllipse
 62
7
  6
CONTINUOUS
 10
-23.377901209
 20
25.595735094
 30
0.0
 11
-0.3000114235
 21
-0.0
 31
0.0
 40
0.9999619231
 41
0.0
 42
1.5707963268
  0
ELLIPSE
  5
86E
100
AcDbEntity
  8
ASSI
100
AcDbEllipse
 62
7
  6
CONTINUOUS
 10
-23.377901209
 20
30.595735094
 30
0.0
 11
-0.3000114235
 21
-0.0
 31
0.0
 40
0.9999619231
 41
0.0
 42
1.5707963268
  0
ELLIPSE
  5
86F
100
AcDbEntity
  8
ASSI
100
AcDbEllipse
 62
7
  6
CONTINUOUS
 10
-23.377901209
 20
30.695735094
 30
0.0
 11
0.3000114235
 21
0.0
 31
0.0
 40
0.9999619231
 41
1.5707963268
 42
3.1415926536
  0
ELLIPSE
  5
870
100
AcDbEntity
  8
ASSI
100
AcDbEllipse
 62
7
  6
CONTINUOUS
 10
-23.377901209
 20
35.595735094
 30
0.0
 11
-0.3000114235
 21
-0.0
 31
0.0
 40
0.9999619231
 41
0.0
 42
1.5707963268
  0
ELLIPSE
  5
871
100
AcDbEntity
  8
ASSI
100
AcDbEllipse
 62
7
  6
CONTINUOUS
 10
-23.377901209
 20
35.695735094
 30
0.0
 11
0.3000114235
 21
0.0
 31
0.0
 40
0.9999619231
 41
1.5707963268
 42
3.1415926536
  0
ELLIPSE
  5
872
100
AcDbEntity
  8
ASSI
100
AcDbEllipse
 62
7
  6
CONTINUOUS
 10
-23.377901209
 20
40.595735094
 30
0.0
 11
-0.3000114235
 21
-0.0
 31
0.0
 40
0.9999619231
 41
0.0
 42
1.5707963268
  0
ELLIPSE
  5
873
100
AcDbEntity
  8
ASSI
100
AcDbEllipse
 62
7
  6
CONTINUOUS
 10
-22.6778745542
 20
40.7369279395
 30
0.0
 11
-0.9239207481
 21
0.3827005044
 31
0.0
 40
0.9999553905
 41
-0.3926833098
 42
0.3926833098
  0
ELLIPSE
  5
874
100
AcDbEntity
  8
ASSI
100
AcDbEllipse
 62
7
  6
CONTINUOUS
 10
-22.0560151764
 20
41.3587873173
 30
0.0
 11
-0.3827005044
 21
0.9239207481
 31
0.0
 40
0.9999553905
 41
-0.3926833098
 42
0.3926833098
  0
ELLIPSE
  5
875
100
AcDbEntity
  8
ASSI
100
AcDbEllipse
 62
7
  6
CONTINUOUS
 10
-10.9822444437
 20
6.545735094
 30
0.0
 11
0.3000114235
 21
0.0
 31
0.0
 40
0.9999619231
 41
0.3402220636
 42
1.5707963268
  0
ELLIPSE
  5
876
100
AcDbEntity
  8
ASSI
100
AcDbEllipse
 62
7
  6
CONTINUOUS
 10
-11.0608293001
 20
41.745735094
 30
0.0
 11
-0.3000114235
 21
-0.0
 31
0.0
 40
0.9999619231
 41
1.5707963268
 42
2.80137059
  0
ELLIPSE
  5
877
100
AcDbEntity
  8
ASSI
100
AcDbEllipse
 62
7
  6
CONTINUOUS
 10
-14.2688153617
 20
41.745735094
 30
0.0
 11
-0.3000114235
 21
-0.0
 31
0.0
 40
0.9999619231
 41
0.3402220636
 42
1.5707963268
  0
ELLIPSE
  5
878
100
AcDbEntity
  8
ASSI
100
AcDbEllipse
 62
7
  6
CONTINUOUS
 10
-14.3474002181
 20
6.545735094
 30
0.0
 11
0.3000114235
 21
0.0
 31
0.0
 40
0.9999619231
 41
1.5707963268
 42
2.80137059
  0
ELLIPSE
  5
879
100
AcDbEntity
  8
ASSI
100
AcDbEllipse
 62
7
  6
CONTINUOUS
 10
-23.377901209
 20
20.695735094
 30
0.0
 11
0.3000114235
 21
0.0
 31
0.0
 40
0.9999619231
 41
1.5707963268
 42
3.1415926536
  0
ELLIPSE
  5
87A
100
AcDbEntity
  8
ASSI
100
AcDbEllipse
 62
7
  6
CONTINUOUS
 10
-23.377901209
 20
25.695735094
 30
0.0
 11
0.3000114235
 21
0.0
 31
0.0
 40
0.9999619231
 41
1.5707963268
 42
3.1415926536
  0
ELLIPSE
  5
87B
100
AcDbEntity
  8
ASSI
100
AcDbEllipse
 62
7
  6
CONTINUOUS
 10
-22.5062749529
 20
23.145735094
 30
0.0
 11
-0.0
 21
2.15
 31
0.0
 40
0.0087268678
 41
0.0
 42
3.1415926536
  0
ELLIPSE
  5
87C
100
AcDbEntity
  8
ASSI
100
AcDbEllipse
 62
7
  6
CONTINUOUS
 10
-22.5062749529
 20
38.145735094
 30
0.0
 11
-0.0
 21
2.15
 31
0.0
 40
0.0087268678
 41
-0.0
 42
3.1415926536
  0
ELLIPSE
  5
87D
100
AcDbEntity
  8
ASSI
100
AcDbEllipse
 62
7
  6
CONTINUOUS
 10
-22.5062749529
 20
33.145735094
 30
0.0
 11
-0.0
 21
2.15
 31
0.0
 40
0.0087268678
 41
0.0
 42
3.1415926536
  0
ELLIPSE
  5
87E
100
AcDbEntity
  8
ASSI
100
AcDbEllipse
 62
7
  6
CONTINUOUS
 10
-22.5062749529
 20
28.145735094
 30
0.0
 11
-0.0
 21
2.15
 31
0.0
 40
0.0087268678
 41
-0.0
 42
3.1415926536
  0
ELLIPSE
  5
87F
100
AcDbEntity
  8
ASSI
100
AcDbEllipse
 62
7
  6
CONTINUOUS
 10
-16.9779240561
 20
42.6588368192
 30
0.0
 11
0.2121481893
 21
-0.2121481893
 31
0.0
 40
0.9999238505
 41
-0.7853600872
 42
0.7853600872
  0
ENDSEC
  0
SECTION
  2
OBJECTS
  0
DICTIONARY
  5
C
100
AcDbDictionary
280
0
281
1
  3
ACAD_GROUP
350
D
  3
ACAD_MLINESTYLE
350
17
  3
ACAD_LAYOUT
350
1A
  3
ACAD_PLOTSETTINGS
350
19
  3
ACAD_PLOTSTYLENAME
350
E
  0
DICTIONARY
  5
D
102
{ACAD_REACTORS
330
C
102
}
100
AcDbDictionary
280
0
281
1
  0
ACDBDICTIONARYWDFLT
  5
E
102
{ACAD_REACTORS
330
C
102
}
100
AcDbDictionary
281
1
  3
Normal
350
F
100
AcDbDictionaryWithDefault
340
F
  0
DICTIONARY
  5
17
102
{ACAD_REACTORS
330
C
102
}
100
AcDbDictionary
280
0
281
1
  3
Standard
350
18
  0
DICTIONARY
  5
19
102
{ACAD_REACTORS
330
C
102
}
100
AcDbDictionary
281
1
  0
DICTIONARY
  5
1A
102
{ACAD_REACTORS
330
C
102
}
100
AcDbDictionary
281
1
  3
Model
350
880
  3
Layout1
350
881
  0
ACDBPLACEHOLDER
  5
F
102
{ACAD_REACTORS
330
E
102
}
  0
MLINESTYLE
  5
18
102
{ACAD_REACTORS
330
17
102
}
100
AcDbMlineStyle
  2
STANDARD
 70
0
  3

 62
256
 51
90.0
 52
90.0
 71
2
 49
0.5
 62
256
  6
BYLAYER
 49
-0.5
 62
256
  6
BYLAYER
  0
LAYOUT
  5
880
102
{ACAD_REACTORS
330
1A
102
}
100
AcDbPlotSettings
  1

  2
none_device
  4
ISO_A4_(297.00_x_210.00_MM)
  6

 40
0.0
 41
0.0
 42
0.0
 43
0.0
 44
297.0
 45
210.0
 46
0.0
 47
0.0
 48
0.0
 49
0.0
140
0.0
141
0.0
142
1.0
143
1.0
 70
1024
 72
1
 73
0
 74
0
  7

 75
0
147
1.0
148
0.0
149
0.0
100
AcDbLayout
  1
Model
 70
0
 71
0
 10
0.0
 20
0.0
 11
297.0
 21
210.0
 12
0.0
 22
0.0
 32
0.0
 14
0.0
 24
0.0
 34
0.0
 15
0.0
 25
0.0
 35
0.0
146
0.0
 13
0.0
 23
0.0
 33
0.0
 16
1.0
 26
0.0
 36
0.0
 17
0.0
 27
1.0
 37
0.0
 76
0
330
21F
345
0
346
0
  0
LAYOUT
  5
881
102
{ACAD_REACTORS
330
1A
102
}
100
AcDbPlotSettings
  1

  2
none_device
  4
ISO_A4_(297.00_x_210.00_MM)
  6

 40
0.0
 41
0.0
 42
0.0
 43
0.0
 44
297.0
 45
210.0
 46
0.0
 47
0.0
 48
0.0
 49
0.0
140
0.0
141
0.0
142
1.0
143
1.0
 70
0
 72
1
 73
0
 74
0
  7

 75
0
147
1.0
148
0.0
149
0.0
100
AcDbLayout
  1
Layout1
 70
0
 71
1
 10
0.0
 20
0.0
 11
297.0
 21
210.0
 12
0.0
 22
0.0
 32
0.0
 14
0.0
 24
0.0
 34
0.0
 15
0.0
 25
0.0
 35
0.0
146
0.0
 13
0.0
 23
0.0
 33
0.0
 16
1.0
 26
0.0
 36
0.0
 17
0.0
 27
1.0
 37
0.0
 76
0
330
220
345
0
346
0
  0
ENDSEC
  0
EOF
