  0
SECTION
  2
HEADER
  9
$ACADVER
  1
AC1021
  9
$DWGCODEPAGE
  3
ANSI_1252
  9
$EXTMAX
 10
297.0
 20
210.0
 30
0.0
  9
$EXTMIN
 10
0.0
 20
0.0
 30
0.0
  9
$LIMMIN
 10
0.0
 20
0.0
  9
$LIMMAX
 10
297.0
 20
210.0
  9
$VIEWCTR
 10
148.5
 20
105.0
  9
$VIEWSIZE
 40
210.0
  9
$CLAYER
  8
0
  9
$LTSCALE
 40
16.335
  9
$CELTYPE
  6
BYLAYER
  9
$DIMSCALE
 40
1.0
  9
$DIMASZ
 40
3.0
  9
$DIMEXO
 40
0.5
  9
$DIMDLI
 40
11.286
  9
$DIMEXE
 40
1.5
  9
$DIMCEN
 40
2.673
  9
$DIMLFAC
 40
1.0
  9
$DIMBLK
  1
_FILLED
  9
$DIMALT
 70
0
  9
$DIMALTF
 40
0.0393700787
  9
$DIMTXT
 40
3.0
  9
$DIMTOL
 70
1
  9
$DIMLIM
 70
0
  9
$DIMTFAC
 40
1.0
  9
$DIMTP
 40
0.01
  9
$DIMTM
 40
0.01
  9
$DIMGAP
 40
0.625
  9
$DIMDSEP
 70
44
  9
$AUNITS
 70
0
  9
$PDMODE
 70
3
  9
$PDSIZE
 40
3.0
  9
$HANDSEED
  5
554
  9
$TILEMODE
 70
1
  9
$MEASUREMENT
 70
1
  9
$INSUNITS
 70
4
  0
ENDSEC
  0
SECTION
  2
CLASSES
  0
CLASS
  1
ACDBDICTIONARYWDFLT
  2
AcDbDictionaryWithDefault
  3
AutoCAD 2000
 90
0
 91
1
280
0
281
0
  0
CLASS
  1
ACDBPLACEHOLDER
  2
AcDbPlaceHolder
  3
AutoCAD 2000
 90
0
 91
1
280
0
281
0
  0
CLASS
  1
LAYOUT
  2
AcDbLayout
  3
AutoCAD 2000
 90
0
 91
0
280
0
281
0
  0
ENDSEC
  0
SECTION
  2
TABLES
  0
TABLE
  2
VPORT
  5
8
100
AcDbSymbolTable
 70
2
  0
VPORT
  5
1F4
100
AcDbSymbolTableRecord
100
AcDbViewportTableRecord
  2
*ACTIVE
 70
0
 10
0.0
 20
0.0
 11
1.0
 21
1.0
 12
148.5
 22
105.0
 13
0.0
 23
0.0
 14
1.0
 24
1.0
 15
0.0
 25
0.0
 16
0.0
 26
0.0
 36
1.0
 17
0.0
 27
0.0
 37
0.0
 40
210.0
 41
1.4142857143
 42
50.0
 43
0.0
 44
0.0
 50
0.0
 51
0.0
 71
0
 72
100
 73
1
 74
1
 75
0
 76
0
 77
0
 78
0
  0
ENDTAB
  0
TABLE
  2
LTYPE
  5
5
100
AcDbSymbolTable
 70
6
  0
LTYPE
  5
14
100
AcDbSymbolTableRecord
100
AcDbLinetypeTableRecord
  2
BYBLOCK
 70
0
  3

 72
65
 73
0
 40
0.0
  0
LTYPE
  5
15
100
AcDbSymbolTableRecord
100
AcDbLinetypeTableRecord
  2
BYLAYER
 70
0
  3

 72
65
 73
0
 40
0.0
  0
LTYPE
  5
16
100
AcDbSymbolTableRecord
100
AcDbLinetypeTableRecord
  2
CONTINUOUS
 70
64
  3
Solid line
 72
65
 73
0
 40
0.0
  0
LTYPE
  5
1F5
100
AcDbSymbolTableRecord
100
AcDbLinetypeTableRecord
  2
CENTER
 70
64
  3
____ _ ____ _ ____ _ ____ _ ____ _ ____ _ ____
 72
65
 73
4
 40
0.6
 49
0.375
 74
0
 49
-0.075
 74
0
 49
0.075
 74
0
 49
-0.075
 74
0
  0
LTYPE
  5
1F6
100
AcDbSymbolTableRecord
100
AcDbLinetypeTableRecord
  2
HIDDEN
 70
64
  3
- - - - - - - - - - - - - - - - - - - -
 72
65
 73
2
 40
0.2
 49
0.1
 74
0
 49
-0.1
 74
0
  0
LTYPE
  5
1F7
100
AcDbSymbolTableRecord
100
AcDbLinetypeTableRecord
  2
PHANTOM
 70
64
  3
_____ _ _ _____ _ _ _____ _ _ _____
 72
65
 73
6
 40
0.8
 49
0.45
 74
0
 49
-0.05
 74
0
 49
0.1
 74
0
 49
-0.05
 74
0
 49
0.1
 74
0
 49
-0.05
 74
0
  0
LTYPE
  5
1F8
100
AcDbSymbolTableRecord
100
AcDbLinetypeTableRecord
  2
DOT
 70
64
  3
. . . . . . . . . . . . . . . . . . . .
 72
65
 73
2
 40
0.2
 49
0.1
 74
0
 49
-0.1
 74
0
  0
LTYPE
  5
1F9
100
AcDbSymbolTableRecord
100
AcDbLinetypeTableRecord
  2
DASHED
 70
64
  3
- - - - - - - - - - - - - - - - - - - -
 72
65
 73
2
 40
0.2
 49
0.1
 74
0
 49
-0.1
 74
0
  0
ENDTAB
  0
TABLE
  2
LAYER
  5
2
100
AcDbSymbolTable
 70
36
  0
LAYER
  5
10
100
AcDbSymbolTableRecord
100
AcDbLayerTableRecord
  2
0
 70
0
 62
7
  6
CONTINUOUS
370
-3
390
F
  0
LAYER
  5
1FA
100
AcDbSymbolTableRecord
100
AcDbLayerTableRecord
  2
DEFAULT_1
 70
0
 62
7
  6
CENTER
370
-3
390
F
  0
LAYER
  5
1FB
100
AcDbSymbolTableRecord
100
AcDbLayerTableRecord
  2
DEFAULT_2
 70
0
 62
7
  6
HIDDEN
370
-3
390
F
  0
LAYER
  5
1FC
100
AcDbSymbolTableRecord
100
AcDbLayerTableRecord
  2
DEFAULT_3
 70
0
 62
7
  6
PHANTOM
370
-3
390
F
  0
LAYER
  5
1FD
100
AcDbSymbolTableRecord
100
AcDbLayerTableRecord
  2
ASSI
 70
0
 62
7
  6
CONTINUOUS
370
-3
390
F
  0
LAYER
  5
1FE
100
AcDbSymbolTableRecord
100
AcDbLayerTableRecord
  2
COORDINATE
 70
0
 62
7
  6
CONTINUOUS
370
-3
390
F
  0
LAYER
  5
1FF
100
AcDbSymbolTableRecord
100
AcDbLayerTableRecord
  2
COORD_ORIGINE
 70
0
 62
7
  6
CONTINUOUS
370
-3
390
F
  0
LAYER
  5
200
100
AcDbSymbolTableRecord
100
AcDbLayerTableRecord
  2
COPY_PUBLISH
 70
0
 62
7
  6
CONTINUOUS
370
-3
390
F
  0
LAYER
  5
201
100
AcDbSymbolTableRecord
100
AcDbLayerTableRecord
  2
COSMETICI
 70
0
 62
7
  6
CONTINUOUS
370
-3
390
F
  0
LAYER
  5
202
100
AcDbSymbolTableRecord
100
AcDbLayerTableRecord
  2
CURVE
 70
0
 62
7
  6
CONTINUOUS
370
-3
390
F
  0
LAYER
  5
203
100
AcDbSymbolTableRecord
100
AcDbLayerTableRecord
  2
DRAFT
 70
0
 62
7
  6
CONTINUOUS
370
-3
390
F
  0
LAYER
  5
204
100
AcDbSymbolTableRecord
100
AcDbLayerTableRecord
  2
IGES
 70
0
 62
7
  6
CONTINUOUS
370
-3
390
F
  0
LAYER
  5
205
100
AcDbSymbolTableRecord
100
AcDbLayerTableRecord
  2
IMPORT_IGES
 70
0
 62
7
  6
CONTINUOUS
370
-3
390
F
  0
LAYER
  5
206
100
AcDbSymbolTableRecord
100
AcDbLayerTableRecord
  2
IMPORT_SCRITTE
 70
0
 62
7
  6
CONTINUOUS
370
-3
390
F
  0
LAYER
  5
207
100
AcDbSymbolTableRecord
100
AcDbLayerTableRecord
  2
INTF_MAGENTA
 70
0
 62
7
  6
CONTINUOUS
370
-3
390
F
  0
LAYER
  5
208
100
AcDbSymbolTableRecord
100
AcDbLayerTableRecord
  2
MARCABILE
 70
0
 62
7
  6
CONTINUOUS
370
-3
390
F
  0
LAYER
  5
209
100
AcDbSymbolTableRecord
100
AcDbLayerTableRecord
  2
NOTE
 70
0
 62
7
  6
CONTINUOUS
370
-3
390
F
  0
LAYER
  5
20A
100
AcDbSymbolTableRecord
100
AcDbLayerTableRecord
  2
PIANI
 70
0
 62
7
  6
CONTINUOUS
370
-3
390
F
  0
LAYER
  5
20B
100
AcDbSymbolTableRecord
100
AcDbLayerTableRecord
  2
PIANI_ORIGINE
 70
0
 62
7
  6
CONTINUOUS
370
-3
390
F
  0
LAYER
  5
20C
100
AcDbSymbolTableRecord
100
AcDbLayerTableRecord
  2
PUNTI
 70
0
 62
7
  6
CONTINUOUS
370
-3
390
F
  0
LAYER
  5
20D
100
AcDbSymbolTableRecord
100
AcDbLayerTableRecord
  2
RACCORDO
 70
0
 62
7
  6
CONTINUOUS
370
-3
390
F
  0
LAYER
  5
20E
100
AcDbSymbolTableRecord
100
AcDbLayerTableRecord
  2
SIMBOLI
 70
0
 62
7
  6
CONTINUOUS
370
-3
390
F
  0
LAYER
  5
20F
100
AcDbSymbolTableRecord
100
AcDbLayerTableRecord
  2
SMUSSO
 70
0
 62
7
  6
CONTINUOUS
370
-3
390
F
  0
LAYER
  5
210
100
AcDbSymbolTableRecord
100
AcDbLayerTableRecord
  2
SNAPLINE
 70
0
 62
7
  6
CONTINUOUS
370
-3
390
F
  0
LAYER
  5
211
100
AcDbSymbolTableRecord
100
AcDbLayerTableRecord
  2
SUPERFICI
 70
0
 62
7
  6
CONTINUOUS
370
-3
390
F
  0
LAYER
  5
212
100
AcDbSymbolTableRecord
100
AcDbLayerTableRecord
  2
TRASH
 70
0
 62
7
  6
CONTINUOUS
370
-3
390
F
  0
ENDTAB
  0
TABLE
  2
STYLE
  5
3
100
AcDbSymbolTable
 70
1
  0
STYLE
  5
11
100
AcDbSymbolTableRecord
100
AcDbTextStyleTableRecord
  2
STANDARD
 70
0
 40
0.0
 41
0.8
 50
0.0
 71
0
 42
0.2
  3
txt
  4

  0
STYLE
  5
213
100
AcDbSymbolTableRecord
100
AcDbTextStyleTableRecord
  2
TEXTSTYLE_1
 70
0
 40
0.0
 41
0.8
 50
0.0
 71
0
 42
0.2
  3
gdt
  4

  0
ENDTAB
  0
TABLE
  2
VIEW
  5
6
100
AcDbSymbolTable
 70
0
  0
ENDTAB
  0
TABLE
  2
UCS
  5
7
100
AcDbSymbolTable
 70
0
  0
ENDTAB
  0
TABLE
  2
APPID
  5
9
100
AcDbSymbolTable
 70
1
  0
APPID
  5
214
100
AcDbSymbolTableRecord
100
AcDbRegAppTableRecord
  2
ACAD
 70
0
  0
ENDTAB
  0
TABLE
  2
BLOCK_RECORD
  5
1
100
AcDbSymbolTable
 70
0
  0
BLOCK_RECORD
  5
215
100
AcDbSymbolTableRecord
100
AcDbBlockTableRecord
  2
*Model_Space
  0
BLOCK_RECORD
  5
216
100
AcDbSymbolTableRecord
100
AcDbBlockTableRecord
  2
*Paper_Space
  0
ENDTAB
  0
TABLE
  2
DIMSTYLE
  5
A
100
AcDbSymbolTable
 70
1
100
AcDbDimStyleTable
 71
0
  0
DIMSTYLE
105
217
100
AcDbSymbolTableRecord
100
AcDbDimStyleTableRecord
  2
STANDARD
 70
0
  3

  4

 40
1.0
 41
3.0
 42
0.5
 43
0.38
 44
1.5
 45
0.0
 46
0.0
 47
0.01
 48
0.01
140
3.0
141
0.09
142
0.0
143
25.4
144
1.0
145
0.0
146
1.0
147
0.625
 71
1.0
 72
0.0
 73
0
 74
0
 75
0
 76
0
 77
1
 78
8
170
0
171
2
172
0
173
0
174
0
175
0
176
0
177
0
178
0
270
2
271
2
272
2
273
2
274
2
275
0
280
0
281
0
282
0
283
1
284
8
285
0
286
0
287
3
288
0
340
11
278
44
  0
ENDTAB
  0
ENDSEC
  0
SECTION
  2
BLOCKS
  0
BLOCK
  5
20
100
AcDbEntity
  8
0
100
AcDbBlockBegin
  2
*Model_Space
 70
0
 10
0.0
 20
0.0
 30
0.0
  3
*Model_Space
  1

  0
ENDBLK
  5
21
100
AcDbEntity
  8
0
100
AcDbBlockEnd
  0
BLOCK
  5
1C
100
AcDbEntity
  8
0
100
AcDbBlockBegin
  2
*Paper_Space
 70
0
 10
0.0
 20
0.0
 30
0.0
  3
*Paper_Space
  1

  0
ENDBLK
  5
1D
100
AcDbEntity
  8
0
100
AcDbBlockEnd
  0
ENDSEC
  0
SECTION
  2
ENTITIES
  0
LINE
  5
218
100
AcDbEntity
  8
RACCORDO
100
AcDbLine
 62
7
  6
CONTINUOUS
 10
147.1355482888
 20
78.004125665
 11
126.535304601
 21
78.004125665
  0
LINE
  5
219
100
AcDbEntity
  8
ASSI
100
AcDbLine
 62
7
  6
CONTINUOUS
 10
147.1355482888
 20
78.004125665
 11
126.535304601
 21
78.004125665
  0
LINE
  5
21A
100
AcDbEntity
  8
RACCORDO
100
AcDbLine
 62
7
  6
CONTINUOUS
 10
146.4354264449
 20
79.504125665
 11
143.8354264449
 21
79.504125665
  0
LINE
  5
21B
100
AcDbEntity
  8
RACCORDO
100
AcDbLine
 62
7
  6
CONTINUOUS
 10
129.8354264449
 20
79.504125665
 11
127.2354264449
 21
79.504125665
  0
LINE
  5
21C
100
AcDbEntity
  8
0
100
AcDbLine
 62
7
  6
CONTINUOUS
 10
129.8354264449
 20
79.504125665
 11
143.8354264449
 21
79.504125665
  0
LINE
  5
21D
100
AcDbEntity
  8
ASSI
100
AcDbLine
 62
7
  6
CONTINUOUS
 10
127.2354264449
 20
79.504125665
 11
146.4354264449
 21
79.504125665
  0
LINE
  5
21E
100
AcDbEntity
  8
0
100
AcDbLine
 62
7
  6
CONTINUOUS
 10
130.4354264449
 20
79.904125665
 11
129.8354264449
 21
79.904125665
  0
LINE
  5
21F
100
AcDbEntity
  8
ASSI
100
AcDbLine
 62
7
  6
CONTINUOUS
 10
130.4354264449
 20
79.904125665
 11
129.8354264449
 21
79.904125665
  0
LINE
  5
220
100
AcDbEntity
  8
SUPERFICI
100
AcDbLine
 62
7
  6
CONTINUOUS
 10
143.2354264449
 20
79.904125665
 11
143.8354264449
 21
79.904125665
  0
LINE
  5
221
100
AcDbEntity
  8
ASSI
100
AcDbLine
 62
7
  6
CONTINUOUS
 10
143.2354264449
 20
79.904125665
 11
143.8354264449
 21
79.904125665
  0
LINE
  5
222
100
AcDbEntity
  8
RACCORDO
100
AcDbLine
 62
253
  6
CONTINUOUS
 10
126.9354264449
 20
80.004125665
 11
146.7354264449
 21
80.004125665
  0
LINE
  5
223
100
AcDbEntity
  8
ASSI
100
AcDbLine
 62
253
  6
CONTINUOUS
 10
126.9354264449
 20
80.004125665
 11
146.7354264449
 21
80.004125665
  0
LINE
  5
224
100
AcDbEntity
  8
0
100
AcDbLine
 62
7
  6
CONTINUOUS
 10
129.8354264449
 20
79.904125665
 11
127.2354264449
 21
79.504125665
  0
LINE
  5
225
100
AcDbEntity
  8
ASSI
100
AcDbLine
 62
7
  6
CONTINUOUS
 10
129.8354264449
 20
79.904125665
 11
127.2354264449
 21
79.504125665
  0
LINE
  5
226
100
AcDbEntity
  8
0
100
AcDbLine
 62
7
  6
CONTINUOUS
 10
143.8354264449
 20
79.904125665
 11
146.4354264449
 21
79.504125665
  0
LINE
  5
227
100
AcDbEntity
  8
ASSI
100
AcDbLine
 62
7
  6
CONTINUOUS
 10
143.8354264449
 20
79.904125665
 11
146.4354264449
 21
79.504125665
  0
LINE
  5
228
100
AcDbEntity
  8
RACCORDO
100
AcDbLine
 62
253
  6
CONTINUOUS
 10
142.3756748247
 20
84.2506479248
 11
131.331867159
 21
84.2506273022
  0
LINE
  5
229
100
AcDbEntity
  8
ASSI
100
AcDbLine
 62
253
  6
CONTINUOUS
 10
142.3756748247
 20
84.2506479248
 11
131.331867159
 21
84.2506273022
  0
LINE
  5
22A
100
AcDbEntity
  8
RACCORDO
100
AcDbLine
 62
7
  6
CONTINUOUS
 10
142.3389857308
 20
84.4506196868
 11
131.331867159
 21
84.4506196868
  0
LINE
  5
22B
100
AcDbEntity
  8
ASSI
100
AcDbLine
 62
7
  6
CONTINUOUS
 10
142.3389857308
 20
84.4506196868
 11
131.331867159
 21
84.4506196868
  0
LINE
  5
22C
100
AcDbEntity
  8
RACCORDO
100
AcDbLine
 62
7
  6
CONTINUOUS
 10
142.3354264449
 20
84.554125665
 11
131.3354264449
 21
84.554125665
  0
LWPOLYLINE
  5
22D
100
AcDbEntity
  8
RACCORDO
100
AcDbPolyline
 62
253
  6
CONTINUOUS
 90
42
 70
0
 10
131.331867159
 20
84.2506273022
 10
131.291474293
 20
84.2507871024
 10
131.2487119396
 20
84.2525042062
 10
131.2035800987
 20
84.2557786136
 10
131.1559773956
 20
84.2603901244
 10
131.106005205
 20
84.2665589387
 10
131.0539676517
 20
84.2749456571
 10
130.9996497808
 20
84.2856109465
 10
130.9432665472
 20
84.2984941399
 10
130.8857669398
 20
84.3140738363
 10
130.8271722567
 20
84.3324146458
 10
130.7674611998
 20
84.3534519583
 10
130.7075188639
 20
84.3774705421
 10
130.6473321536
 20
84.4045591023
 10
130.5869141643
 20
84.4346289338
 10
130.5271892764
 20
84.4676986896
 10
130.4681795272
 20
84.5038600119
 10
130.4098628793
 20
84.5430212584
 10
130.3530976015
 20
84.5849261555
 10
130.2979335957
 20
84.6296579217
 10
130.2443209601
 20
84.6771333384
 10
130.1929682577
 20
84.7268464757
 10
130.1439389494
 20
84.778876993
 10
130.0971695743
 20
84.833145231
 10
130.0531783134
 20
84.8889062825
 10
130.012051896
 20
84.9462184645
 10
129.9737035928
 20
85.00502346
 10
129.9383913968
 20
85.0644014107
 10
129.9062162267
 20
85.124373604
 10
129.8770771638
 20
85.1849187527
 10
129.8509294448
 20
85.2450531368
 10
129.8278672983
 20
85.3047637409
 10
129.8077964956
 20
85.3640635806
 10
129.7903895874
 20
85.4220079829
 10
129.7757185527
 20
85.4785618847
 10
129.7637114124
 20
85.5337603491
 10
129.7538247799
 20
85.5867638925
 10
129.7461005186
 20
85.6375314449
 10
129.7404967651
 20
85.6861040763
 10
129.7363445424
 20
85.7317655128
 10
129.7334208581
 20
85.7742769965
 10
129.7319487047
 20
85.8138772852
  0
LWPOLYLINE
  5
22E
100
AcDbEntity
  8
ASSI
100
AcDbPolyline
 62
253
  6
CONTINUOUS
 90
42
 70
0
 10
131.331867159
 20
84.2506273022
 10
131.291474293
 20
84.2507871024
 10
131.2487119396
 20
84.2525042062
 10
131.2035800987
 20
84.2557786136
 10
131.1559773956
 20
84.2603901244
 10
131.106005205
 20
84.2665589387
 10
131.0539676517
 20
84.2749456571
 10
130.9996497808
 20
84.2856109465
 10
130.9432665472
 20
84.2984941399
 10
130.8857669398
 20
84.3140738363
 10
130.8271722567
 20
84.3324146458
 10
130.7674611998
 20
84.3534519583
 10
130.7075188639
 20
84.3774705421
 10
130.6473321536
 20
84.4045591023
 10
130.5869141643
 20
84.4346289338
 10
130.5271892764
 20
84.4676986896
 10
130.4681795272
 20
84.5038600119
 10
130.4098628793
 20
84.5430212584
 10
130.3530976015
 20
84.5849261555
 10
130.2979335957
 20
84.6296579217
 10
130.2443209601
 20
84.6771333384
 10
130.1929682577
 20
84.7268464757
 10
130.1439389494
 20
84.778876993
 10
130.0971695743
 20
84.833145231
 10
130.0531783134
 20
84.8889062825
 10
130.012051896
 20
84.9462184645
 10
129.9737035928
 20
85.00502346
 10
129.9383913968
 20
85.0644014107
 10
129.9062162267
 20
85.124373604
 10
129.8770771638
 20
85.1849187527
 10
129.8509294448
 20
85.2450531368
 10
129.8278672983
 20
85.3047637409
 10
129.8077964956
 20
85.3640635806
 10
129.7903895874
 20
85.4220079829
 10
129.7757185527
 20
85.4785618847
 10
129.7637114124
 20
85.5337603491
 10
129.7538247799
 20
85.5867638925
 10
129.7461005186
 20
85.6375314449
 10
129.7404967651
 20
85.6861040763
 10
129.7363445424
 20
85.7317655128
 10
129.7334208581
 20
85.7742769965
 10
129.7319487047
 20
85.8138772852
  0
LWPOLYLINE
  5
22F
100
AcDbEntity
  8
RACCORDO
100
AcDbPolyline
 62
253
  6
CONTINUOUS
 90
43
 70
0
 10
131.331867159
 20
84.4506196868
 10
131.2965961211
 20
84.4510636213
 10
131.2591657231
 20
84.4525077361
 10
131.2196096527
 20
84.4551261576
 10
131.1779533017
 20
84.4591039291
 10
131.1342714562
 20
84.464631459
 10
131.0886889835
 20
84.4718979291
 10
131.0411369323
 20
84.4811354034
 10
130.9918681038
 20
84.4925276523
 10
130.9415001176
 20
84.5061388098
 10
130.8901905874
 20
84.5221096796
 10
130.8380284996
 20
84.5406036296
 10
130.7855210713
 20
84.5616177737
 10
130.7328032701
 20
84.5852567645
 10
130.6800319091
 20
84.6116151729
 10
130.6277244285
 20
84.6405765859
 10
130.5760278307
 20
84.6721768706
 10
130.525091337
 20
84.7064466274
 10
130.4753917533
 20
84.7431599812
 10
130.4270599911
 20
84.7822853688
 10
130.380221705
 20
84.82378888
 10
130.3352821185
 20
84.8673473925
 10
130.2923242263
 20
84.912882306
 10
130.2514422521
 20
84.9602956304
 10
130.2129742462
 20
85.00915257
 10
130.1769465372
 20
85.0593300448
 10
130.1433901582
 20
85.1106903424
 10
130.1125466394
 20
85.1627082191
 10
130.0843756534
 20
85.2152292813
 10
130.0588300347
 20
85.2681049021
 10
130.0360282745
 20
85.3207711055
 10
130.0158597473
 20
85.3730704072
 10
129.9982057929
 20
85.4248650072
 10
129.9830644784
 20
85.4755967819
 10
129.9702652591
 20
85.5251315219
 10
129.9596354234
 20
85.5733580324
 10
129.9510757733
 20
85.6197488689
 10
129.9443764132
 20
85.6642106539
 10
129.9393337554
 20
85.7066656509
 10
129.9357834764
 20
85.7466186935
 10
129.9335091344
 20
85.7838725938
 10
129.932286629
 20
85.8185312802
 10
129.9319204667
 20
85.8505663791
  0
LWPOLYLINE
  5
230
100
AcDbEntity
  8
ASSI
100
AcDbPolyline
 62
253
  6
CONTINUOUS
 90
43
 70
0
 10
131.331867159
 20
84.4506196868
 10
131.2965961211
 20
84.4510636213
 10
131.2591657231
 20
84.4525077361
 10
131.2196096527
 20
84.4551261576
 10
131.1779533017
 20
84.4591039291
 10
131.1342714562
 20
84.464631459
 10
131.0886889835
 20
84.4718979291
 10
131.0411369323
 20
84.4811354034
 10
130.9918681038
 20
84.4925276523
 10
130.9415001176
 20
84.5061388098
 10
130.8901905874
 20
84.5221096796
 10
130.8380284996
 20
84.5406036296
 10
130.7855210713
 20
84.5616177737
 10
130.7328032701
 20
84.5852567645
 10
130.6800319091
 20
84.6116151729
 10
130.6277244285
 20
84.6405765859
 10
130.5760278307
 20
84.6721768706
 10
130.525091337
 20
84.7064466274
 10
130.4753917533
 20
84.7431599812
 10
130.4270599911
 20
84.7822853688
 10
130.380221705
 20
84.82378888
 10
130.3352821185
 20
84.8673473925
 10
130.2923242263
 20
84.912882306
 10
130.2514422521
 20
84.9602956304
 10
130.2129742462
 20
85.00915257
 10
130.1769465372
 20
85.0593300448
 10
130.1433901582
 20
85.1106903424
 10
130.1125466394
 20
85.1627082191
 10
130.0843756534
 20
85.2152292813
 10
130.0588300347
 20
85.2681049021
 10
130.0360282745
 20
85.3207711055
 10
130.0158597473
 20
85.3730704072
 10
129.9982057929
 20
85.4248650072
 10
129.9830644784
 20
85.4755967819
 10
129.9702652591
 20
85.5251315219
 10
129.9596354234
 20
85.5733580324
 10
129.9510757733
 20
85.6197488689
 10
129.9443764132
 20
85.6642106539
 10
129.9393337554
 20
85.7066656509
 10
129.9357834764
 20
85.7466186935
 10
129.9335091344
 20
85.7838725938
 10
129.932286629
 20
85.8185312802
 10
129.9319204667
 20
85.8505663791
  0
LINE
  5
231
100
AcDbEntity
  8
0
100
AcDbLine
 62
7
  6
CONTINUOUS
 10
131.0354264449
 20
85.404125665
 11
142.6354264449
 21
85.404125665
  0
LINE
  5
232
100
AcDbEntity
  8
0
100
AcDbLine
 62
7
  6
CONTINUOUS
 10
142.6354264449
 20
85.804125665
 11
131.0354264449
 21
85.804125665
  0
LINE
  5
233
100
AcDbEntity
  8
RACCORDO
100
AcDbLine
 62
253
  6
CONTINUOUS
 10
143.9389248077
 20
85.8505663791
 11
143.7389324231
 21
85.8505663791
  0
LINE
  5
234
100
AcDbEntity
  8
ASSI
100
AcDbLine
 62
253
  6
CONTINUOUS
 10
143.9389248077
 20
85.8505663791
 11
143.7389324231
 21
85.8505663791
  0
LINE
  5
235
100
AcDbEntity
  8
RACCORDO
100
AcDbLine
 62
253
  6
CONTINUOUS
 10
129.7319280821
 20
85.8505663791
 11
129.9319204667
 21
85.8505663791
  0
LINE
  5
236
100
AcDbEntity
  8
ASSI
100
AcDbLine
 62
253
  6
CONTINUOUS
 10
129.7319280821
 20
85.8505663791
 11
129.9319204667
 21
85.8505663791
  0
LINE
  5
237
100
AcDbEntity
  8
0
100
AcDbLine
 62
7
  6
CONTINUOUS
 10
142.6354264449
 20
86.204125665
 11
131.0354264449
 21
86.204125665
  0
LINE
  5
238
100
AcDbEntity
  8
0
100
AcDbLine
 62
7
  6
CONTINUOUS
 10
142.6354264449
 20
86.604125665
 11
131.0354264449
 21
86.604125665
  0
LINE
  5
239
100
AcDbEntity
  8
0
100
AcDbLine
 62
7
  6
CONTINUOUS
 10
131.0354264449
 20
85.804125665
 11
131.4354264449
 21
85.404125665
  0
LINE
  5
23A
100
AcDbEntity
  8
0
100
AcDbLine
 62
7
  6
CONTINUOUS
 10
131.0354264449
 20
86.204125665
 11
131.8354264449
 21
85.404125665
  0
LINE
  5
23B
100
AcDbEntity
  8
0
100
AcDbLine
 62
7
  6
CONTINUOUS
 10
131.0354264449
 20
86.604125665
 11
132.2354264449
 21
85.404125665
  0
LINE
  5
23C
100
AcDbEntity
  8
0
100
AcDbLine
 62
7
  6
CONTINUOUS
 10
131.0354264449
 20
87.004125665
 11
132.6354264449
 21
85.404125665
  0
LINE
  5
23D
100
AcDbEntity
  8
0
100
AcDbLine
 62
7
  6
CONTINUOUS
 10
131.0354264449
 20
87.404125665
 11
133.0354264449
 21
85.404125665
  0
LINE
  5
23E
100
AcDbEntity
  8
0
100
AcDbLine
 62
7
  6
CONTINUOUS
 10
142.6354264449
 20
87.004125665
 11
131.0354264449
 21
87.004125665
  0
LINE
  5
23F
100
AcDbEntity
  8
0
100
AcDbLine
 62
7
  6
CONTINUOUS
 10
142.6354264449
 20
87.404125665
 11
131.0354264449
 21
87.404125665
  0
LINE
  5
240
100
AcDbEntity
  8
0
100
AcDbLine
 62
7
  6
CONTINUOUS
 10
142.6354264449
 20
87.804125665
 11
131.0354264449
 21
87.804125665
  0
LINE
  5
241
100
AcDbEntity
  8
0
100
AcDbLine
 62
7
  6
CONTINUOUS
 10
142.6354264449
 20
88.204125665
 11
131.0354264449
 21
88.204125665
  0
LINE
  5
242
100
AcDbEntity
  8
0
100
AcDbLine
 62
7
  6
CONTINUOUS
 10
142.6354264449
 20
88.604125665
 11
131.0354264449
 21
88.604125665
  0
LINE
  5
243
100
AcDbEntity
  8
0
100
AcDbLine
 62
7
  6
CONTINUOUS
 10
131.0354264449
 20
87.804125665
 11
133.4354264449
 21
85.404125665
  0
LINE
  5
244
100
AcDbEntity
  8
0
100
AcDbLine
 62
7
  6
CONTINUOUS
 10
131.0354264449
 20
88.204125665
 11
133.8354264449
 21
85.404125665
  0
LINE
  5
245
100
AcDbEntity
  8
0
100
AcDbLine
 62
7
  6
CONTINUOUS
 10
131.0354264449
 20
88.604125665
 11
134.2354264449
 21
85.404125665
  0
LINE
  5
246
100
AcDbEntity
  8
0
100
AcDbLine
 62
7
  6
CONTINUOUS
 10
131.0354264449
 20
89.004125665
 11
134.6354264449
 21
85.404125665
  0
LINE
  5
247
100
AcDbEntity
  8
0
100
AcDbLine
 62
7
  6
CONTINUOUS
 10
131.0354264449
 20
89.404125665
 11
135.0354264449
 21
85.404125665
  0
LINE
  5
248
100
AcDbEntity
  8
RACCORDO
100
AcDbLine
 62
7
  6
CONTINUOUS
 10
125.7354264449
 20
78.8040038211
 11
125.7354264449
 21
120.9042475089
  0
LINE
  5
249
100
AcDbEntity
  8
ASSI
100
AcDbLine
 62
7
  6
CONTINUOUS
 10
125.7354264449
 20
78.8040038211
 11
125.7354264449
 21
120.9042475089
  0
LINE
  5
24A
100
AcDbEntity
  8
0
100
AcDbLine
 62
7
  6
CONTINUOUS
 10
126.2354264449
 20
93.8739940804
 11
126.2354264449
 21
105.8342572497
  0
LINE
  5
24B
100
AcDbEntity
  8
ASSI
100
AcDbLine
 62
7
  6
CONTINUOUS
 10
126.2354264449
 20
93.8739940804
 11
126.2354264449
 21
105.8342572497
  0
LINE
  5
24C
100
AcDbEntity
  8
RACCORDO
100
AcDbLine
 62
7
  6
CONTINUOUS
 10
126.9354264449
 20
79.804125665
 11
126.9354264449
 21
92.354125665
  0
LINE
  5
24D
100
AcDbEntity
  8
0
100
AcDbLine
 62
7
  6
CONTINUOUS
 10
126.9354264449
 20
92.354125665
 11
126.9354264449
 21
107.354125665
  0
LINE
  5
24E
100
AcDbEntity
  8
RACCORDO
100
AcDbLine
 62
7
  6
CONTINUOUS
 10
126.9354264449
 20
107.354125665
 11
126.9354264449
 21
119.904125665
  0
LINE
  5
24F
100
AcDbEntity
  8
ASSI
100
AcDbLine
 62
7
  6
CONTINUOUS
 10
126.9354264449
 20
79.804125665
 11
126.9354264449
 21
119.904125665
  0
LINE
  5
250
100
AcDbEntity
  8
RACCORDO
100
AcDbLine
 62
253
  6
CONTINUOUS
 10
127.2354264449
 20
120.204125665
 11
127.2354264449
 21
79.504125665
  0
LINE
  5
251
100
AcDbEntity
  8
ASSI
100
AcDbLine
 62
253
  6
CONTINUOUS
 10
127.2354264449
 20
120.204125665
 11
127.2354264449
 21
79.504125665
  0
LINE
  5
252
100
AcDbEntity
  8
0
100
AcDbLine
 62
7
  6
CONTINUOUS
 10
142.6354264449
 20
89.004125665
 11
131.0354264449
 21
89.004125665
  0
LINE
  5
253
100
AcDbEntity
  8
RACCORDO
100
AcDbLine
 62
253
  6
CONTINUOUS
 10
143.9389248077
 20
89.3576849509
 11
143.7389324231
 21
89.3576849509
  0
LINE
  5
254
100
AcDbEntity
  8
ASSI
100
AcDbLine
 62
253
  6
CONTINUOUS
 10
143.9389248077
 20
89.3576849509
 11
143.7389324231
 21
89.3576849509
  0
LINE
  5
255
100
AcDbEntity
  8
RACCORDO
100
AcDbLine
 62
253
  6
CONTINUOUS
 10
129.7319280821
 20
89.3576849509
 11
129.9319204667
 21
89.3576849509
  0
LINE
  5
256
100
AcDbEntity
  8
ASSI
100
AcDbLine
 62
253
  6
CONTINUOUS
 10
129.7319280821
 20
89.3576849509
 11
129.9319204667
 21
89.3576849509
  0
LINE
  5
257
100
AcDbEntity
  8
0
100
AcDbLine
 62
7
  6
CONTINUOUS
 10
142.6354264449
 20
89.404125665
 11
131.0354264449
 21
89.404125665
  0
LINE
  5
258
100
AcDbEntity
  8
0
100
AcDbLine
 62
7
  6
CONTINUOUS
 10
142.6354264449
 20
89.804125665
 11
131.0354264449
 21
89.804125665
  0
LINE
  5
259
100
AcDbEntity
  8
0
100
AcDbLine
 62
7
  6
CONTINUOUS
 10
131.0354264449
 20
89.804125665
 11
135.4354264449
 21
85.404125665
  0
LINE
  5
25A
100
AcDbEntity
  8
0
100
AcDbLine
 62
7
  6
CONTINUOUS
 10
131.4354264449
 20
89.804125665
 11
135.8354264449
 21
85.404125665
  0
LINE
  5
25B
100
AcDbEntity
  8
0
100
AcDbLine
 62
7
  6
CONTINUOUS
 10
131.8354264449
 20
89.804125665
 11
136.2354264449
 21
85.404125665
  0
LINE
  5
25C
100
AcDbEntity
  8
0
100
AcDbLine
 62
7
  6
CONTINUOUS
 10
132.2354264449
 20
89.804125665
 11
136.6354264449
 21
85.404125665
  0
LINE
  5
25D
100
AcDbEntity
  8
0
100
AcDbLine
 62
7
  6
CONTINUOUS
 10
132.6354264449
 20
89.804125665
 11
137.0354264449
 21
85.404125665
  0
LINE
  5
25E
100
AcDbEntity
  8
0
100
AcDbLine
 62
7
  6
CONTINUOUS
 10
133.0354264449
 20
89.804125665
 11
137.4354264449
 21
85.404125665
  0
LINE
  5
25F
100
AcDbEntity
  8
0
100
AcDbLine
 62
7
  6
CONTINUOUS
 10
128.8830664449
 20
93.654125665
 11
128.8830664449
 21
92.054125665
  0
LINE
  5
260
100
AcDbEntity
  8
ASSI
100
AcDbLine
 62
7
  6
CONTINUOUS
 10
128.8830664449
 20
93.654125665
 11
128.8830664449
 21
92.054125665
  0
LINE
  5
261
100
AcDbEntity
  8
RACCORDO
100
AcDbLine
 62
7
  6
CONTINUOUS
 10
131.3354264449
 20
90.654125665
 11
142.3354264449
 21
90.654125665
  0
LINE
  5
262
100
AcDbEntity
  8
RACCORDO
100
AcDbLine
 62
7
  6
CONTINUOUS
 10
131.331867159
 20
90.7576316432
 11
142.3389857308
 21
90.7576316432
  0
LINE
  5
263
100
AcDbEntity
  8
ASSI
100
AcDbLine
 62
7
  6
CONTINUOUS
 10
131.331867159
 20
90.7576316432
 11
142.3389857308
 21
90.7576316432
  0
LINE
  5
264
100
AcDbEntity
  8
RACCORDO
100
AcDbLine
 62
253
  6
CONTINUOUS
 10
131.2951780651
 20
90.9576034052
 11
142.3389857308
 21
90.9576240278
  0
LINE
  5
265
100
AcDbEntity
  8
ASSI
100
AcDbLine
 62
253
  6
CONTINUOUS
 10
131.2951780651
 20
90.9576034052
 11
142.3389857308
 21
90.9576240278
  0
LWPOLYLINE
  5
266
100
AcDbEntity
  8
RACCORDO
100
AcDbPolyline
 62
253
  6
CONTINUOUS
 90
42
 70
0
 10
142.3389857308
 20
90.9576240278
 10
142.3793785968
 20
90.9574642276
 10
142.4221409502
 20
90.9557471238
 10
142.467272791
 20
90.9524727164
 10
142.5148754942
 20
90.9478612056
 10
142.5648476847
 20
90.9416923913
 10
142.6168852381
 20
90.933305673
 10
142.6712031089
 20
90.9226403835
 10
142.7275863426
 20
90.9097571901
 10
142.78508595
 20
90.8941774937
 10
142.8436806331
 20
90.8758366842
 10
142.90339169
 20
90.8547993717
 10
142.9633340259
 20
90.8307807879
 10
143.0235207361
 20
90.8036922277
 10
143.0839387254
 20
90.7736223962
 10
143.1436636133
 20
90.7405526404
 10
143.2026733626
 20
90.7043913181
 10
143.2609900105
 20
90.6652300716
 10
143.3177552883
 20
90.6233251745
 10
143.3729192941
 20
90.5785934083
 10
143.4265319297
 20
90.5311179917
 10
143.4778846321
 20
90.4814048543
 10
143.5269139404
 20
90.429374337
 10
143.5736833155
 20
90.375106099
 10
143.6176745764
 20
90.3193450475
 10
143.6588009938
 20
90.2620328655
 10
143.697149297
 20
90.2032278701
 10
143.732461493
 20
90.1438499193
 10
143.7646366631
 20
90.083877726
 10
143.7937757259
 20
90.0233325773
 10
143.819923445
 20
89.9631981932
 10
143.8429855915
 20
89.9034875891
 10
143.8630563942
 20
89.8441877494
 10
143.8804633024
 20
89.7862433471
 10
143.8951343371
 20
89.7296894453
 10
143.9071414773
 20
89.6744909809
 10
143.9170281098
 20
89.6214874375
 10
143.9247523711
 20
89.5707198851
 10
143.9303561247
 20
89.5221472537
 10
143.9345083474
 20
89.4764858172
 10
143.9374320316
 20
89.4339743336
 10
143.9389041851
 20
89.3943740448
  0
LWPOLYLINE
  5
267
100
AcDbEntity
  8
ASSI
100
AcDbPolyline
 62
253
  6
CONTINUOUS
 90
42
 70
0
 10
142.3389857308
 20
90.9576240278
 10
142.3793785968
 20
90.9574642276
 10
142.4221409502
 20
90.9557471238
 10
142.467272791
 20
90.9524727164
 10
142.5148754942
 20
90.9478612056
 10
142.5648476847
 20
90.9416923913
 10
142.6168852381
 20
90.933305673
 10
142.6712031089
 20
90.9226403835
 10
142.7275863426
 20
90.9097571901
 10
142.78508595
 20
90.8941774937
 10
142.8436806331
 20
90.8758366842
 10
142.90339169
 20
90.8547993717
 10
142.9633340259
 20
90.8307807879
 10
143.0235207361
 20
90.8036922277
 10
143.0839387254
 20
90.7736223962
 10
143.1436636133
 20
90.7405526404
 10
143.2026733626
 20
90.7043913181
 10
143.2609900105
 20
90.6652300716
 10
143.3177552883
 20
90.6233251745
 10
143.3729192941
 20
90.5785934083
 10
143.4265319297
 20
90.5311179917
 10
143.4778846321
 20
90.4814048543
 10
143.5269139404
 20
90.429374337
 10
143.5736833155
 20
90.375106099
 10
143.6176745764
 20
90.3193450475
 10
143.6588009938
 20
90.2620328655
 10
143.697149297
 20
90.2032278701
 10
143.732461493
 20
90.1438499193
 10
143.7646366631
 20
90.083877726
 10
143.7937757259
 20
90.0233325773
 10
143.819923445
 20
89.9631981932
 10
143.8429855915
 20
89.9034875891
 10
143.8630563942
 20
89.8441877494
 10
143.8804633024
 20
89.7862433471
 10
143.8951343371
 20
89.7296894453
 10
143.9071414773
 20
89.6744909809
 10
143.9170281098
 20
89.6214874375
 10
143.9247523711
 20
89.5707198851
 10
143.9303561247
 20
89.5221472537
 10
143.9345083474
 20
89.4764858172
 10
143.9374320316
 20
89.4339743336
 10
143.9389041851
 20
89.3943740448
  0
LWPOLYLINE
  5
268
100
AcDbEntity
  8
RACCORDO
100
AcDbPolyline
 62
253
  6
CONTINUOUS
 90
43
 70
0
 10
142.3389857308
 20
90.7576316432
 10
142.3742567687
 20
90.7571877088
 10
142.4116871666
 20
90.7557435939
 10
142.4512432371
 20
90.7531251724
 10
142.492899588
 20
90.7491474009
 10
142.5365814336
 20
90.743619871
 10
142.5821639062
 20
90.7363534009
 10
142.6297159574
 20
90.7271159266
 10
142.678984786
 20
90.7157236777
 10
142.7293527722
 20
90.7021125202
 10
142.7806623023
 20
90.6861416504
 10
142.8328243902
 20
90.6676477005
 10
142.8853318185
 20
90.6466335563
 10
142.9380496197
 20
90.6229945655
 10
142.9908209807
 20
90.5966361571
 10
143.0431284613
 20
90.5676747441
 10
143.094825059
 20
90.5360744594
 10
143.1457615527
 20
90.5018047026
 10
143.1954611365
 20
90.4650913488
 10
143.2437928987
 20
90.4259659612
 10
143.2906311848
 20
90.38446245
 10
143.3355707713
 20
90.3409039375
 10
143.3785286635
 20
90.2953690241
 10
143.4194106377
 20
90.2479556996
 10
143.4578786436
 20
90.19909876
 10
143.4939063525
 20
90.1489212852
 10
143.5274627315
 20
90.0975609876
 10
143.5583062504
 20
90.0455431109
 10
143.5864772364
 20
89.9930220487
 10
143.6120228551
 20
89.9401464279
 10
143.6348246153
 20
89.8874802245
 10
143.6549931424
 20
89.8351809228
 10
143.6726470969
 20
89.7833863228
 10
143.6877884113
 20
89.7326545481
 10
143.7005876307
 20
89.6831198081
 10
143.7112174664
 20
89.6348932976
 10
143.7197771165
 20
89.5885024611
 10
143.7264764765
 20
89.5440406762
 10
143.7315191344
 20
89.5015856791
 10
143.7350694134
 20
89.4616326365
 10
143.7373437554
 20
89.4243787363
 10
143.7385662608
 20
89.3897200498
 10
143.7389324231
 20
89.3576849509
  0
LWPOLYLINE
  5
269
100
AcDbEntity
  8
ASSI
100
AcDbPolyline
 62
253
  6
CONTINUOUS
 90
43
 70
0
 10
142.3389857308
 20
90.7576316432
 10
142.3742567687
 20
90.7571877088
 10
142.4116871666
 20
90.7557435939
 10
142.4512432371
 20
90.7531251724
 10
142.492899588
 20
90.7491474009
 10
142.5365814336
 20
90.743619871
 10
142.5821639062
 20
90.7363534009
 10
142.6297159574
 20
90.7271159266
 10
142.678984786
 20
90.7157236777
 10
142.7293527722
 20
90.7021125202
 10
142.7806623023
 20
90.6861416504
 10
142.8328243902
 20
90.6676477005
 10
142.8853318185
 20
90.6466335563
 10
142.9380496197
 20
90.6229945655
 10
142.9908209807
 20
90.5966361571
 10
143.0431284613
 20
90.5676747441
 10
143.094825059
 20
90.5360744594
 10
143.1457615527
 20
90.5018047026
 10
143.1954611365
 20
90.4650913488
 10
143.2437928987
 20
90.4259659612
 10
143.2906311848
 20
90.38446245
 10
143.3355707713
 20
90.3409039375
 10
143.3785286635
 20
90.2953690241
 10
143.4194106377
 20
90.2479556996
 10
143.4578786436
 20
90.19909876
 10
143.4939063525
 20
90.1489212852
 10
143.5274627315
 20
90.0975609876
 10
143.5583062504
 20
90.0455431109
 10
143.5864772364
 20
89.9930220487
 10
143.6120228551
 20
89.9401464279
 10
143.6348246153
 20
89.8874802245
 10
143.6549931424
 20
89.8351809228
 10
143.6726470969
 20
89.7833863228
 10
143.6877884113
 20
89.7326545481
 10
143.7005876307
 20
89.6831198081
 10
143.7112174664
 20
89.6348932976
 10
143.7197771165
 20
89.5885024611
 10
143.7264764765
 20
89.5440406762
 10
143.7315191344
 20
89.5015856791
 10
143.7350694134
 20
89.4616326365
 10
143.7373437554
 20
89.4243787363
 10
143.7385662608
 20
89.3897200498
 10
143.7389324231
 20
89.3576849509
  0
LINE
  5
26A
100
AcDbEntity
  8
0
100
AcDbLine
 62
7
  6
CONTINUOUS
 10
133.4354264449
 20
89.804125665
 11
137.8354264449
 21
85.404125665
  0
LINE
  5
26B
100
AcDbEntity
  8
0
100
AcDbLine
 62
7
  6
CONTINUOUS
 10
133.8354264449
 20
89.804125665
 11
138.2354264449
 21
85.404125665
  0
LINE
  5
26C
100
AcDbEntity
  8
0
100
AcDbLine
 62
7
  6
CONTINUOUS
 10
134.2354264449
 20
89.804125665
 11
138.6354264449
 21
85.404125665
  0
LINE
  5
26D
100
AcDbEntity
  8
0
100
AcDbLine
 62
7
  6
CONTINUOUS
 10
134.6354264449
 20
89.804125665
 11
139.0354264449
 21
85.404125665
  0
LINE
  5
26E
100
AcDbEntity
  8
0
100
AcDbLine
 62
7
  6
CONTINUOUS
 10
135.0354264449
 20
89.804125665
 11
139.4354264449
 21
85.404125665
  0
LINE
  5
26F
100
AcDbEntity
  8
0
100
AcDbLine
 62
7
  6
CONTINUOUS
 10
135.4354264449
 20
89.804125665
 11
139.8354264449
 21
85.404125665
  0
LINE
  5
270
100
AcDbEntity
  8
0
100
AcDbLine
 62
7
  6
CONTINUOUS
 10
129.6518724449
 20
92.294896665
 11
129.1928294449
 21
93.654125665
  0
LINE
  5
271
100
AcDbEntity
  8
ASSI
100
AcDbLine
 62
7
  6
CONTINUOUS
 10
129.6518724449
 20
92.294896665
 11
129.1928294449
 21
93.654125665
  0
LINE
  5
272
100
AcDbEntity
  8
0
100
AcDbLine
 62
7
  6
CONTINUOUS
 10
129.0925284449
 20
93.395718665
 11
129.5427054449
 21
92.054125665
  0
LINE
  5
273
100
AcDbEntity
  8
ASSI
100
AcDbLine
 62
7
  6
CONTINUOUS
 10
129.0925284449
 20
93.395718665
 11
129.5427054449
 21
92.054125665
  0
LINE
  5
274
100
AcDbEntity
  8
0
100
AcDbLine
 62
7
  6
CONTINUOUS
 10
129.0925284449
 20
92.054125665
 11
129.0925284449
 21
93.395718665
  0
LINE
  5
275
100
AcDbEntity
  8
ASSI
100
AcDbLine
 62
7
  6
CONTINUOUS
 10
129.0925284449
 20
92.054125665
 11
129.0925284449
 21
93.395718665
  0
LINE
  5
276
100
AcDbEntity
  8
RACCORDO
100
AcDbLine
 62
253
  6
CONTINUOUS
 10
129.7319487047
 20
85.8138772852
 11
129.7319280821
 21
89.3576849509
  0
LINE
  5
277
100
AcDbEntity
  8
ASSI
100
AcDbLine
 62
253
  6
CONTINUOUS
 10
129.7319487047
 20
85.8138772852
 11
129.7319280821
 21
89.3576849509
  0
LINE
  5
278
100
AcDbEntity
  8
0
100
AcDbLine
 62
7
  6
CONTINUOUS
 10
129.8354264449
 20
120.204125665
 11
129.8354264449
 21
119.804125665
  0
LINE
  5
279
100
AcDbEntity
  8
ASSI
100
AcDbLine
 62
7
  6
CONTINUOUS
 10
129.8354264449
 20
120.204125665
 11
129.8354264449
 21
119.804125665
  0
LINE
  5
27A
100
AcDbEntity
  8
0
100
AcDbLine
 62
7
  6
CONTINUOUS
 10
129.8354264449
 20
79.504125665
 11
129.8354264449
 21
79.904125665
  0
LINE
  5
27B
100
AcDbEntity
  8
ASSI
100
AcDbLine
 62
7
  6
CONTINUOUS
 10
129.8354264449
 20
79.504125665
 11
129.8354264449
 21
79.904125665
  0
LINE
  5
27C
100
AcDbEntity
  8
RACCORDO
100
AcDbLine
 62
7
  6
CONTINUOUS
 10
129.9319204667
 20
85.8505663791
 11
129.9319204667
 21
89.3576849509
  0
LINE
  5
27D
100
AcDbEntity
  8
ASSI
100
AcDbLine
 62
7
  6
CONTINUOUS
 10
129.9319204667
 20
85.8505663791
 11
129.9319204667
 21
89.3576849509
  0
LINE
  5
27E
100
AcDbEntity
  8
RACCORDO
100
AcDbLine
 62
7
  6
CONTINUOUS
 10
130.0354264449
 20
85.854125665
 11
130.0354264449
 21
89.354125665
  0
LINE
  5
27F
100
AcDbEntity
  8
0
100
AcDbLine
 62
7
  6
CONTINUOUS
 10
130.2067334449
 20
93.397918665
 11
130.2067334449
 21
92.054125665
  0
LINE
  5
280
100
AcDbEntity
  8
ASSI
100
AcDbLine
 62
7
  6
CONTINUOUS
 10
130.2067334449
 20
93.397918665
 11
130.2067334449
 21
92.054125665
  0
LINE
  5
281
100
AcDbEntity
  8
0
100
AcDbLine
 62
7
  6
CONTINUOUS
 10
130.4162794449
 20
92.054125665
 11
130.4162794449
 21
93.654125665
  0
LINE
  5
282
100
AcDbEntity
  8
ASSI
100
AcDbLine
 62
7
  6
CONTINUOUS
 10
130.4162794449
 20
92.054125665
 11
130.4162794449
 21
93.654125665
  0
LINE
  5
283
100
AcDbEntity
  8
0
100
AcDbLine
 62
7
  6
CONTINUOUS
 10
130.4354264449
 20
120.204125665
 11
130.4354264449
 21
119.804125665
  0
LINE
  5
284
100
AcDbEntity
  8
ASSI
100
AcDbLine
 62
7
  6
CONTINUOUS
 10
130.4354264449
 20
120.204125665
 11
130.4354264449
 21
119.804125665
  0
LINE
  5
285
100
AcDbEntity
  8
0
100
AcDbLine
 62
7
  6
CONTINUOUS
 10
130.4354264449
 20
79.504125665
 11
130.4354264449
 21
79.904125665
  0
LINE
  5
286
100
AcDbEntity
  8
ASSI
100
AcDbLine
 62
7
  6
CONTINUOUS
 10
130.4354264449
 20
79.504125665
 11
130.4354264449
 21
79.904125665
  0
LWPOLYLINE
  5
287
100
AcDbEntity
  8
RACCORDO
100
AcDbPolyline
 62
253
  6
CONTINUOUS
 90
42
 70
0
 10
129.7319280821
 20
89.3576849509
 10
129.7320878823
 20
89.3980778169
 10
129.7338049861
 20
89.4408401703
 10
129.7370793935
 20
89.4859720112
 10
129.7416909043
 20
89.5335747143
 10
129.7478597186
 20
89.5835469049
 10
129.7562464369
 20
89.6355844582
 10
129.7669117264
 20
89.6899023291
 10
129.7797949198
 20
89.7462855627
 10
129.7953746162
 20
89.8037851701
 10
129.8137154257
 20
89.8623798532
 10
129.8347527382
 20
89.9220909101
 10
129.8587713219
 20
89.982033246
 10
129.8858598822
 20
90.0422199563
 10
129.9159297137
 20
90.1026379455
 10
129.9489994694
 20
90.1623628335
 10
129.9851607917
 20
90.2213725827
 10
130.0243220383
 20
90.2796892306
 10
130.0662269354
 20
90.3364545084
 10
130.1109587016
 20
90.3916185142
 10
130.1584341182
 20
90.4452311498
 10
130.2081472556
 20
90.4965838522
 10
130.2601777729
 20
90.5456131605
 10
130.3144460109
 20
90.5923825356
 10
130.3702070624
 20
90.6363737965
 10
130.4275192444
 20
90.6775002139
 10
130.4863242398
 20
90.7158485171
 10
130.5457021906
 20
90.7511607131
 10
130.6056743839
 20
90.7833358832
 10
130.6662195325
 20
90.8124749461
 10
130.7263539167
 20
90.8386226651
 10
130.7860645208
 20
90.8616848116
 10
130.8453643605
 20
90.8817556143
 10
130.9033087628
 20
90.8991625225
 10
130.9598626646
 20
90.9138335572
 10
131.015061129
 20
90.9258406975
 10
131.0680646724
 20
90.9357273299
 10
131.1188322248
 20
90.9434515913
 10
131.1674048562
 20
90.9490553448
 10
131.2130662927
 20
90.9532075675
 10
131.2555777763
 20
90.9561312518
 10
131.2951780651
 20
90.9576034052
  0
LWPOLYLINE
  5
288
100
AcDbEntity
  8
ASSI
100
AcDbPolyline
 62
253
  6
CONTINUOUS
 90
42
 70
0
 10
129.7319280821
 20
89.3576849509
 10
129.7320878823
 20
89.3980778169
 10
129.7338049861
 20
89.4408401703
 10
129.7370793935
 20
89.4859720112
 10
129.7416909043
 20
89.5335747143
 10
129.7478597186
 20
89.5835469049
 10
129.7562464369
 20
89.6355844582
 10
129.7669117264
 20
89.6899023291
 10
129.7797949198
 20
89.7462855627
 10
129.7953746162
 20
89.8037851701
 10
129.8137154257
 20
89.8623798532
 10
129.8347527382
 20
89.9220909101
 10
129.8587713219
 20
89.982033246
 10
129.8858598822
 20
90.0422199563
 10
129.9159297137
 20
90.1026379455
 10
129.9489994694
 20
90.1623628335
 10
129.9851607917
 20
90.2213725827
 10
130.0243220383
 20
90.2796892306
 10
130.0662269354
 20
90.3364545084
 10
130.1109587016
 20
90.3916185142
 10
130.1584341182
 20
90.4452311498
 10
130.2081472556
 20
90.4965838522
 10
130.2601777729
 20
90.5456131605
 10
130.3144460109
 20
90.5923825356
 10
130.3702070624
 20
90.6363737965
 10
130.4275192444
 20
90.6775002139
 10
130.4863242398
 20
90.7158485171
 10
130.5457021906
 20
90.7511607131
 10
130.6056743839
 20
90.7833358832
 10
130.6662195325
 20
90.8124749461
 10
130.7263539167
 20
90.8386226651
 10
130.7860645208
 20
90.8616848116
 10
130.8453643605
 20
90.8817556143
 10
130.9033087628
 20
90.8991625225
 10
130.9598626646
 20
90.9138335572
 10
131.015061129
 20
90.9258406975
 10
131.0680646724
 20
90.9357273299
 10
131.1188322248
 20
90.9434515913
 10
131.1674048562
 20
90.9490553448
 10
131.2130662927
 20
90.9532075675
 10
131.2555777763
 20
90.9561312518
 10
131.2951780651
 20
90.9576034052
  0
LWPOLYLINE
  5
289
100
AcDbEntity
  8
RACCORDO
100
AcDbPolyline
 62
253
  6
CONTINUOUS
 90
43
 70
0
 10
129.9319204667
 20
89.3576849509
 10
129.9323644011
 20
89.3929559888
 10
129.933808516
 20
89.4303863868
 10
129.9364269375
 20
89.4699424572
 10
129.940404709
 20
89.5115988082
 10
129.9459322389
 20
89.5552806537
 10
129.953198709
 20
89.6008631264
 10
129.9624361833
 20
89.6484151775
 10
129.9738284322
 20
89.6976840061
 10
129.9874395897
 20
89.7480519923
 10
130.0034104595
 20
89.7993615225
 10
130.0219044094
 20
89.8515236103
 10
130.0429185536
 20
89.9040310386
 10
130.0665575444
 20
89.9567488398
 10
130.0929159528
 20
90.0095202008
 10
130.1218773658
 20
90.0618276814
 10
130.1534776505
 20
90.1135242792
 10
130.1877474073
 20
90.1644607729
 10
130.2244607611
 20
90.2141603566
 10
130.2635861487
 20
90.2624921188
 10
130.3050896599
 20
90.3093304049
 10
130.3486481724
 20
90.3542699914
 10
130.3941830858
 20
90.3972278836
 10
130.4415964103
 20
90.4381098578
 10
130.4904533499
 20
90.4765778637
 10
130.5406308247
 20
90.5126055727
 10
130.5919911223
 20
90.5461619517
 10
130.644008999
 20
90.5770054705
 10
130.6965300612
 20
90.6051764565
 10
130.749405682
 20
90.6307220752
 10
130.8020718854
 20
90.6535238354
 10
130.8543711871
 20
90.6736923626
 10
130.9061657871
 20
90.691346317
 10
130.9568975618
 20
90.7064876315
 10
131.0064323018
 20
90.7192868508
 10
131.0546588123
 20
90.7299166865
 10
131.1010496488
 20
90.7384763366
 10
131.1455114337
 20
90.7451756967
 10
131.1879664308
 20
90.7502183545
 10
131.2279194734
 20
90.7537686335
 10
131.2651733736
 20
90.7560429755
 10
131.2998320601
 20
90.7572654809
 10
131.331867159
 20
90.7576316432
  0
LWPOLYLINE
  5
28A
100
AcDbEntity
  8
ASSI
100
AcDbPolyline
 62
253
  6
CONTINUOUS
 90
43
 70
0
 10
129.9319204667
 20
89.3576849509
 10
129.9323644011
 20
89.3929559888
 10
129.933808516
 20
89.4303863868
 10
129.9364269375
 20
89.4699424572
 10
129.940404709
 20
89.5115988082
 10
129.9459322389
 20
89.5552806537
 10
129.953198709
 20
89.6008631264
 10
129.9624361833
 20
89.6484151775
 10
129.9738284322
 20
89.6976840061
 10
129.9874395897
 20
89.7480519923
 10
130.0034104595
 20
89.7993615225
 10
130.0219044094
 20
89.8515236103
 10
130.0429185536
 20
89.9040310386
 10
130.0665575444
 20
89.9567488398
 10
130.0929159528
 20
90.0095202008
 10
130.1218773658
 20
90.0618276814
 10
130.1534776505
 20
90.1135242792
 10
130.1877474073
 20
90.1644607729
 10
130.2244607611
 20
90.2141603566
 10
130.2635861487
 20
90.2624921188
 10
130.3050896599
 20
90.3093304049
 10
130.3486481724
 20
90.3542699914
 10
130.3941830858
 20
90.3972278836
 10
130.4415964103
 20
90.4381098578
 10
130.4904533499
 20
90.4765778637
 10
130.5406308247
 20
90.5126055727
 10
130.5919911223
 20
90.5461619517
 10
130.644008999
 20
90.5770054705
 10
130.6965300612
 20
90.6051764565
 10
130.749405682
 20
90.6307220752
 10
130.8020718854
 20
90.6535238354
 10
130.8543711871
 20
90.6736923626
 10
130.9061657871
 20
90.691346317
 10
130.9568975618
 20
90.7064876315
 10
131.0064323018
 20
90.7192868508
 10
131.0546588123
 20
90.7299166865
 10
131.1010496488
 20
90.7384763366
 10
131.1455114337
 20
90.7451756967
 10
131.1879664308
 20
90.7502183545
 10
131.2279194734
 20
90.7537686335
 10
131.2651733736
 20
90.7560429755
 10
131.2998320601
 20
90.7572654809
 10
131.331867159
 20
90.7576316432
  0
LINE
  5
28B
100
AcDbEntity
  8
RACCORDO
100
AcDbLine
 62
7
  6
CONTINUOUS
 10
131.447230563
 20
119.112331345
 11
131.4577028043
 21
119.2809803466
  0
LINE
  5
28C
100
AcDbEntity
  8
ASSI
100
AcDbLine
 62
7
  6
CONTINUOUS
 10
131.447230563
 20
119.112331345
 11
131.4577028043
 21
119.2809803466
  0
LWPOLYLINE
  5
28D
100
AcDbEntity
  8
0
100
AcDbPolyline
 62
7
  6
CONTINUOUS
 90
19
 70
0
 10
132.8920680624
 20
92.054125665
 10
132.9598450289
 20
92.0573994492
 10
133.024135638
 20
92.0657406421
 10
133.0849398896
 20
92.0791492436
 10
133.1421283494
 20
92.0976154949
 10
133.1958304518
 20
92.1211491548
 10
133.2464344997
 20
92.1497795
 10
133.2942669773
 20
92.1837854123
 10
133.3390014004
 20
92.2228880098
 10
133.3800466202
 20
92.2662799234
 10
133.4172908911
 20
92.3135280501
 10
133.4508459587
 20
92.365065493
 10
133.4804559103
 20
92.4213841913
 10
133.5064223656
 20
92.4828911233
 10
133.5284437049
 20
92.5491793109
 10
133.5453591573
 20
92.6195197584
 10
133.556781799
 20
92.6936694673
 10
133.5630985538
 20
92.7718714362
 10
133.5643094216
 20
92.854125665
  0
LWPOLYLINE
  5
28E
100
AcDbEntity
  8
ASSI
100
AcDbPolyline
 62
7
  6
CONTINUOUS
 90
19
 70
0
 10
132.8920680624
 20
92.054125665
 10
132.9598450289
 20
92.0573994492
 10
133.024135638
 20
92.0657406421
 10
133.0849398896
 20
92.0791492436
 10
133.1421283494
 20
92.0976154949
 10
133.1958304518
 20
92.1211491548
 10
133.2464344997
 20
92.1497795
 10
133.2942669773
 20
92.1837854123
 10
133.3390014004
 20
92.2228880098
 10
133.3800466202
 20
92.2662799234
 10
133.4172908911
 20
92.3135280501
 10
133.4508459587
 20
92.365065493
 10
133.4804559103
 20
92.4213841913
 10
133.5064223656
 20
92.4828911233
 10
133.5284437049
 20
92.5491793109
 10
133.5453591573
 20
92.6195197584
 10
133.556781799
 20
92.6936694673
 10
133.5630985538
 20
92.7718714362
 10
133.5643094216
 20
92.854125665
  0
LINE
  5
28F
100
AcDbEntity
  8
0
100
AcDbLine
 62
7
  6
CONTINUOUS
 10
128.8830664449
 20
92.054125665
 11
129.0925284449
 21
92.054125665
  0
LINE
  5
290
100
AcDbEntity
  8
ASSI
100
AcDbLine
 62
7
  6
CONTINUOUS
 10
128.8830664449
 20
92.054125665
 11
129.0925284449
 21
92.054125665
  0
LINE
  5
291
100
AcDbEntity
  8
0
100
AcDbLine
 62
7
  6
CONTINUOUS
 10
129.5427054449
 20
92.054125665
 11
129.7566424449
 21
92.054125665
  0
LINE
  5
292
100
AcDbEntity
  8
ASSI
100
AcDbLine
 62
7
  6
CONTINUOUS
 10
129.5427054449
 20
92.054125665
 11
129.7566424449
 21
92.054125665
  0
LINE
  5
293
100
AcDbEntity
  8
0
100
AcDbLine
 62
7
  6
CONTINUOUS
 10
130.2067334449
 20
92.054125665
 11
130.4162794449
 21
92.054125665
  0
LINE
  5
294
100
AcDbEntity
  8
ASSI
100
AcDbLine
 62
7
  6
CONTINUOUS
 10
130.2067334449
 20
92.054125665
 11
130.4162794449
 21
92.054125665
  0
LINE
  5
295
100
AcDbEntity
  8
0
100
AcDbLine
 62
7
  6
CONTINUOUS
 10
130.6079304449
 20
92.054125665
 11
130.8307534449
 21
92.054125665
  0
LINE
  5
296
100
AcDbEntity
  8
ASSI
100
AcDbLine
 62
7
  6
CONTINUOUS
 10
130.6079304449
 20
92.054125665
 11
130.8307534449
 21
92.054125665
  0
LINE
  5
297
100
AcDbEntity
  8
0
100
AcDbLine
 62
7
  6
CONTINUOUS
 10
131.7978694449
 20
92.054125665
 11
132.0341104449
 21
92.054125665
  0
LINE
  5
298
100
AcDbEntity
  8
ASSI
100
AcDbLine
 62
7
  6
CONTINUOUS
 10
131.7978694449
 20
92.054125665
 11
132.0341104449
 21
92.054125665
  0
LINE
  5
299
100
AcDbEntity
  8
0
100
AcDbLine
 62
7
  6
CONTINUOUS
 10
132.2435664449
 20
92.054125665
 11
132.8920680624
 21
92.054125665
  0
LINE
  5
29A
100
AcDbEntity
  8
ASSI
100
AcDbLine
 62
7
  6
CONTINUOUS
 10
132.2435664449
 20
92.054125665
 11
132.8920680624
 21
92.054125665
  0
LINE
  5
29B
100
AcDbEntity
  8
0
100
AcDbLine
 62
7
  6
CONTINUOUS
 10
133.8636884449
 20
92.054125665
 11
135.0448284449
 21
92.054125665
  0
LINE
  5
29C
100
AcDbEntity
  8
ASSI
100
AcDbLine
 62
7
  6
CONTINUOUS
 10
133.8636884449
 20
92.054125665
 11
135.0448284449
 21
92.054125665
  0
LINE
  5
29D
100
AcDbEntity
  8
0
100
AcDbLine
 62
7
  6
CONTINUOUS
 10
135.9808124449
 20
92.054125665
 11
136.1969574449
 21
92.054125665
  0
LINE
  5
29E
100
AcDbEntity
  8
ASSI
100
AcDbLine
 62
7
  6
CONTINUOUS
 10
135.9808124449
 20
92.054125665
 11
136.1969574449
 21
92.054125665
  0
LINE
  5
29F
100
AcDbEntity
  8
0
100
AcDbLine
 62
7
  6
CONTINUOUS
 10
136.5668274449
 20
92.054125665
 11
136.7763864449
 21
92.054125665
  0
LINE
  5
2A0
100
AcDbEntity
  8
ASSI
100
AcDbLine
 62
7
  6
CONTINUOUS
 10
136.5668274449
 20
92.054125665
 11
136.7763864449
 21
92.054125665
  0
LINE
  5
2A1
100
AcDbEntity
  8
0
100
AcDbLine
 62
7
  6
CONTINUOUS
 10
137.5942434449
 20
92.054125665
 11
137.8371354449
 21
92.054125665
  0
LINE
  5
2A2
100
AcDbEntity
  8
ASSI
100
AcDbLine
 62
7
  6
CONTINUOUS
 10
137.5942434449
 20
92.054125665
 11
137.8371354449
 21
92.054125665
  0
LINE
  5
2A3
100
AcDbEntity
  8
0
100
AcDbLine
 62
7
  6
CONTINUOUS
 10
138.8287604449
 20
92.054125665
 11
139.0449704449
 21
92.054125665
  0
LINE
  5
2A4
100
AcDbEntity
  8
ASSI
100
AcDbLine
 62
7
  6
CONTINUOUS
 10
138.8287604449
 20
92.054125665
 11
139.0449704449
 21
92.054125665
  0
LINE
  5
2A5
100
AcDbEntity
  8
0
100
AcDbLine
 62
7
  6
CONTINUOUS
 10
139.8182634449
 20
92.054125665
 11
140.0343954449
 21
92.054125665
  0
LINE
  5
2A6
100
AcDbEntity
  8
ASSI
100
AcDbLine
 62
7
  6
CONTINUOUS
 10
139.8182634449
 20
92.054125665
 11
140.0343954449
 21
92.054125665
  0
LINE
  5
2A7
100
AcDbEntity
  8
0
100
AcDbLine
 62
7
  6
CONTINUOUS
 10
140.6383194449
 20
92.054125665
 11
140.8611294449
 21
92.054125665
  0
LINE
  5
2A8
100
AcDbEntity
  8
ASSI
100
AcDbLine
 62
7
  6
CONTINUOUS
 10
140.6383194449
 20
92.054125665
 11
140.8611294449
 21
92.054125665
  0
LINE
  5
2A9
100
AcDbEntity
  8
0
100
AcDbLine
 62
7
  6
CONTINUOUS
 10
141.8283364449
 20
92.054125665
 11
142.0646164449
 21
92.054125665
  0
LINE
  5
2AA
100
AcDbEntity
  8
ASSI
100
AcDbLine
 62
7
  6
CONTINUOUS
 10
141.8283364449
 20
92.054125665
 11
142.0646164449
 21
92.054125665
  0
LINE
  5
2AB
100
AcDbEntity
  8
0
100
AcDbLine
 62
7
  6
CONTINUOUS
 10
142.2628534449
 20
92.054125665
 11
143.2902694449
 21
92.054125665
  0
LINE
  5
2AC
100
AcDbEntity
  8
ASSI
100
AcDbLine
 62
7
  6
CONTINUOUS
 10
142.2628534449
 20
92.054125665
 11
143.2902694449
 21
92.054125665
  0
LINE
  5
2AD
100
AcDbEntity
  8
0
100
AcDbLine
 62
7
  6
CONTINUOUS
 10
143.9676654449
 20
92.054125665
 11
144.1837594449
 21
92.054125665
  0
LINE
  5
2AE
100
AcDbEntity
  8
ASSI
100
AcDbLine
 62
7
  6
CONTINUOUS
 10
143.9676654449
 20
92.054125665
 11
144.1837594449
 21
92.054125665
  0
LINE
  5
2AF
100
AcDbEntity
  8
0
100
AcDbLine
 62
7
  6
CONTINUOUS
 10
132.8865671474
 20
92.239034665
 11
132.4597894449
 21
92.239034665
  0
LINE
  5
2B0
100
AcDbEntity
  8
ASSI
100
AcDbLine
 62
7
  6
CONTINUOUS
 10
132.8865671474
 20
92.239034665
 11
132.4597894449
 21
92.239034665
  0
LINE
  5
2B1
100
AcDbEntity
  8
0
100
AcDbLine
 62
7
  6
CONTINUOUS
 10
143.2902694449
 20
92.245763665
 11
142.4790764449
 21
92.245763665
  0
LINE
  5
2B2
100
AcDbEntity
  8
ASSI
100
AcDbLine
 62
7
  6
CONTINUOUS
 10
143.2902694449
 20
92.245763665
 11
142.4790764449
 21
92.245763665
  0
LINE
  5
2B3
100
AcDbEntity
  8
0
100
AcDbLine
 62
7
  6
CONTINUOUS
 10
135.0448284449
 20
92.245763665
 11
134.0798984449
 21
92.245763665
  0
LINE
  5
2B4
100
AcDbEntity
  8
ASSI
100
AcDbLine
 62
7
  6
CONTINUOUS
 10
135.0448284449
 20
92.245763665
 11
134.0798984449
 21
92.245763665
  0
LINE
  5
2B5
100
AcDbEntity
  8
0
100
AcDbLine
 62
7
  6
CONTINUOUS
 10
130.9979084449
 20
92.519827665
 11
131.6396684449
 21
92.519827665
  0
LINE
  5
2B6
100
AcDbEntity
  8
ASSI
100
AcDbLine
 62
7
  6
CONTINUOUS
 10
130.9979084449
 20
92.519827665
 11
131.6396684449
 21
92.519827665
  0
LINE
  5
2B7
100
AcDbEntity
  8
0
100
AcDbLine
 62
7
  6
CONTINUOUS
 10
141.0282974449
 20
92.519827665
 11
141.6701224449
 21
92.519827665
  0
LINE
  5
2B8
100
AcDbEntity
  8
ASSI
100
AcDbLine
 62
7
  6
CONTINUOUS
 10
141.0282974449
 20
92.519827665
 11
141.6701224449
 21
92.519827665
  0
LINE
  5
2B9
100
AcDbEntity
  8
0
100
AcDbLine
 62
7
  6
CONTINUOUS
 10
141.5921084449
 20
92.711464665
 11
141.0951574449
 21
92.711464665
  0
LINE
  5
2BA
100
AcDbEntity
  8
ASSI
100
AcDbLine
 62
7
  6
CONTINUOUS
 10
141.5921084449
 20
92.711464665
 11
141.0951574449
 21
92.711464665
  0
LINE
  5
2BB
100
AcDbEntity
  8
0
100
AcDbLine
 62
7
  6
CONTINUOUS
 10
131.5617324449
 20
92.711464665
 11
131.0647814449
 21
92.711464665
  0
LINE
  5
2BC
100
AcDbEntity
  8
ASSI
100
AcDbLine
 62
7
  6
CONTINUOUS
 10
131.5617324449
 20
92.711464665
 11
131.0647814449
 21
92.711464665
  0
LINE
  5
2BD
100
AcDbEntity
  8
0
100
AcDbLine
 62
7
  6
CONTINUOUS
 10
134.0798984449
 20
92.780563665
 11
134.9556734449
 21
92.780563665
  0
LINE
  5
2BE
100
AcDbEntity
  8
ASSI
100
AcDbLine
 62
7
  6
CONTINUOUS
 10
134.0798984449
 20
92.780563665
 11
134.9556734449
 21
92.780563665
  0
LINE
  5
2BF
100
AcDbEntity
  8
0
100
AcDbLine
 62
7
  6
CONTINUOUS
 10
134.9556734449
 20
92.972200665
 11
134.0798984449
 21
92.972200665
  0
LINE
  5
2C0
100
AcDbEntity
  8
ASSI
100
AcDbLine
 62
7
  6
CONTINUOUS
 10
134.9556734449
 20
92.972200665
 11
134.0798984449
 21
92.972200665
  0
LINE
  5
2C1
100
AcDbEntity
  8
0
100
AcDbLine
 62
7
  6
CONTINUOUS
 10
134.0798984449
 20
93.462487665
 11
135.0292104449
 21
93.462487665
  0
LINE
  5
2C2
100
AcDbEntity
  8
ASSI
100
AcDbLine
 62
7
  6
CONTINUOUS
 10
134.0798984449
 20
93.462487665
 11
135.0292104449
 21
93.462487665
  0
LINE
  5
2C3
100
AcDbEntity
  8
0
100
AcDbLine
 62
7
  6
CONTINUOUS
 10
139.2767344449
 20
93.462487665
 11
139.8182634449
 21
93.462487665
  0
LINE
  5
2C4
100
AcDbEntity
  8
ASSI
100
AcDbLine
 62
7
  6
CONTINUOUS
 10
139.2767344449
 20
93.462487665
 11
139.8182634449
 21
93.462487665
  0
LINE
  5
2C5
100
AcDbEntity
  8
0
100
AcDbLine
 62
7
  6
CONTINUOUS
 10
140.0343954449
 20
93.462487665
 11
140.5759244449
 21
93.462487665
  0
LINE
  5
2C6
100
AcDbEntity
  8
ASSI
100
AcDbLine
 62
7
  6
CONTINUOUS
 10
140.0343954449
 20
93.462487665
 11
140.5759244449
 21
93.462487665
  0
LINE
  5
2C7
100
AcDbEntity
  8
0
100
AcDbLine
 62
7
  6
CONTINUOUS
 10
132.4597894449
 20
93.469216665
 11
132.8865671474
 21
93.469216665
  0
LINE
  5
2C8
100
AcDbEntity
  8
ASSI
100
AcDbLine
 62
7
  6
CONTINUOUS
 10
132.4597894449
 20
93.469216665
 11
132.8865671474
 21
93.469216665
  0
LWPOLYLINE
  5
2C9
100
AcDbEntity
  8
0
100
AcDbPolyline
 62
7
  6
CONTINUOUS
 90
19
 70
0
 10
132.8865671474
 20
93.469216665
 10
132.9334878484
 20
93.4654692235
 10
132.9783007646
 20
93.4577621701
 10
133.0210058962
 20
93.4460955047
 10
133.0617860362
 20
93.4303286693
 10
133.1004583916
 20
93.410602222
 10
133.1364745828
 20
93.387337837
 10
133.1697446752
 20
93.3606723832
 10
133.2003586036
 20
93.3304689916
 10
133.2280377925
 20
93.2967387299
 10
133.2527545105
 20
93.2593076605
 10
133.2745364892
 20
93.2183497209
 10
133.2931883473
 20
93.1743977912
 10
133.3085366985
 20
93.1274351472
 10
133.3207549292
 20
93.0774785132
 10
133.3301678178
 20
93.0251109426
 10
133.3368836237
 20
92.9705267866
 10
133.3407940876
 20
92.9135316941
 10
133.3418992094
 20
92.854125665
  0
LWPOLYLINE
  5
2CA
100
AcDbEntity
  8
ASSI
100
AcDbPolyline
 62
7
  6
CONTINUOUS
 90
19
 70
0
 10
132.8865671474
 20
93.469216665
 10
132.9334878484
 20
93.4654692235
 10
132.9783007646
 20
93.4577621701
 10
133.0210058962
 20
93.4460955047
 10
133.0617860362
 20
93.4303286693
 10
133.1004583916
 20
93.410602222
 10
133.1364745828
 20
93.387337837
 10
133.1697446752
 20
93.3606723832
 10
133.2003586036
 20
93.3304689916
 10
133.2280377925
 20
93.2967387299
 10
133.2527545105
 20
93.2593076605
 10
133.2745364892
 20
93.2183497209
 10
133.2931883473
 20
93.1743977912
 10
133.3085366985
 20
93.1274351472
 10
133.3207549292
 20
93.0774785132
 10
133.3301678178
 20
93.0251109426
 10
133.3368836237
 20
92.9705267866
 10
133.3407940876
 20
92.9135316941
 10
133.3418992094
 20
92.854125665
  0
LINE
  5
2CB
100
AcDbEntity
  8
0
100
AcDbLine
 62
7
  6
CONTINUOUS
 10
135.8354264449
 20
89.804125665
 11
140.2354264449
 21
85.404125665
  0
LINE
  5
2CC
100
AcDbEntity
  8
0
100
AcDbLine
 62
7
  6
CONTINUOUS
 10
136.2354264449
 20
89.804125665
 11
140.6354264449
 21
85.404125665
  0
LINE
  5
2CD
100
AcDbEntity
  8
0
100
AcDbLine
 62
7
  6
CONTINUOUS
 10
136.6354264449
 20
89.804125665
 11
141.0354264449
 21
85.404125665
  0
LINE
  5
2CE
100
AcDbEntity
  8
0
100
AcDbLine
 62
7
  6
CONTINUOUS
 10
137.0354264449
 20
89.804125665
 11
141.4354264449
 21
85.404125665
  0
LINE
  5
2CF
100
AcDbEntity
  8
0
100
AcDbLine
 62
7
  6
CONTINUOUS
 10
137.4354264449
 20
89.804125665
 11
141.8354264449
 21
85.404125665
  0
LINE
  5
2D0
100
AcDbEntity
  8
0
100
AcDbLine
 62
7
  6
CONTINUOUS
 10
137.8354264449
 20
89.804125665
 11
142.2354264449
 21
85.404125665
  0
LINE
  5
2D1
100
AcDbEntity
  8
0
100
AcDbLine
 62
7
  6
CONTINUOUS
 10
132.0341104449
 20
92.054125665
 11
131.4547464449
 21
93.654125665
  0
LINE
  5
2D2
100
AcDbEntity
  8
ASSI
100
AcDbLine
 62
7
  6
CONTINUOUS
 10
132.0341104449
 20
92.054125665
 11
131.4547464449
 21
93.654125665
  0
LINE
  5
2D3
100
AcDbEntity
  8
0
100
AcDbLine
 62
7
  6
CONTINUOUS
 10
131.6396684449
 20
92.519827665
 11
131.7978694449
 21
92.054125665
  0
LINE
  5
2D4
100
AcDbEntity
  8
ASSI
100
AcDbLine
 62
7
  6
CONTINUOUS
 10
131.6396684449
 20
92.519827665
 11
131.7978694449
 21
92.054125665
  0
LINE
  5
2D5
100
AcDbEntity
  8
0
100
AcDbLine
 62
7
  6
CONTINUOUS
 10
131.3233564449
 20
93.422047665
 11
131.5617324449
 21
92.711464665
  0
LINE
  5
2D6
100
AcDbEntity
  8
ASSI
100
AcDbLine
 62
7
  6
CONTINUOUS
 10
131.3233564449
 20
93.422047665
 11
131.5617324449
 21
92.711464665
  0
LINE
  5
2D7
100
AcDbEntity
  8
0
100
AcDbLine
 62
7
  6
CONTINUOUS
 10
131.0354264449
 20
89.804125665
 11
131.0354264449
 21
85.404125665
  0
LINE
  5
2D8
100
AcDbEntity
  8
RACCORDO
100
AcDbLine
 62
253
  6
CONTINUOUS
 10
131.331867159
 20
90.9576240278
 11
131.331867159
 21
90.7576316432
  0
LINE
  5
2D9
100
AcDbEntity
  8
ASSI
100
AcDbLine
 62
253
  6
CONTINUOUS
 10
131.331867159
 20
90.9576240278
 11
131.331867159
 21
90.7576316432
  0
LINE
  5
2DA
100
AcDbEntity
  8
RACCORDO
100
AcDbLine
 62
253
  6
CONTINUOUS
 10
131.331867159
 20
84.2506273022
 11
131.331867159
 21
84.4506196868
  0
LINE
  5
2DB
100
AcDbEntity
  8
ASSI
100
AcDbLine
 62
253
  6
CONTINUOUS
 10
131.331867159
 20
84.2506273022
 11
131.331867159
 21
84.4506196868
  0
LINE
  5
2DC
100
AcDbEntity
  8
RACCORDO
100
AcDbLine
 62
7
  6
CONTINUOUS
 10
131.4354264449
 20
119.704125665
 11
131.4354264449
 21
118.754125665
  0
LINE
  5
2DD
100
AcDbEntity
  8
ASSI
100
AcDbLine
 62
7
  6
CONTINUOUS
 10
131.4354264449
 20
119.704125665
 11
131.4354264449
 21
118.754125665
  0
LINE
  5
2DE
100
AcDbEntity
  8
0
100
AcDbLine
 62
7
  6
CONTINUOUS
 10
131.4354264449
 20
85.404125665
 11
131.4354264449
 21
89.804125665
  0
LINE
  5
2DF
100
AcDbEntity
  8
RACCORDO
100
AcDbLine
 62
7
  6
CONTINUOUS
 10
131.447230563
 20
118.754125665
 11
131.447230563
 21
119.112331345
  0
LINE
  5
2E0
100
AcDbEntity
  8
ASSI
100
AcDbLine
 62
7
  6
CONTINUOUS
 10
131.447230563
 20
118.754125665
 11
131.447230563
 21
119.112331345
  0
LINE
  5
2E1
100
AcDbEntity
  8
RACCORDO
100
AcDbLine
 62
7
  6
CONTINUOUS
 10
131.4577028043
 20
119.2809803466
 11
131.4577028043
 21
120.204125665
  0
LINE
  5
2E2
100
AcDbEntity
  8
ASSI
100
AcDbLine
 62
7
  6
CONTINUOUS
 10
131.4577028043
 20
119.2809803466
 11
131.4577028043
 21
120.204125665
  0
LINE
  5
2E3
100
AcDbEntity
  8
RACCORDO
100
AcDbLine
 62
253
  6
CONTINUOUS
 10
131.7472191399
 20
118.754125665
 11
131.7472191399
 21
119.154125665
  0
LINE
  5
2E4
100
AcDbEntity
  8
ASSI
100
AcDbLine
 62
253
  6
CONTINUOUS
 10
131.7472191399
 20
118.754125665
 11
131.7472191399
 21
119.154125665
  0
LINE
  5
2E5
100
AcDbEntity
  8
RACCORDO
100
AcDbLine
 62
253
  6
CONTINUOUS
 10
131.7576913813
 20
119.3227746667
 11
131.7576913813
 21
120.204125665
  0
LINE
  5
2E6
100
AcDbEntity
  8
ASSI
100
AcDbLine
 62
253
  6
CONTINUOUS
 10
131.7576913813
 20
119.3227746667
 11
131.7576913813
 21
120.204125665
  0
LINE
  5
2E7
100
AcDbEntity
  8
0
100
AcDbLine
 62
7
  6
CONTINUOUS
 10
131.8354264449
 20
85.404125665
 11
131.8354264449
 21
89.804125665
  0
LINE
  5
2E8
100
AcDbEntity
  8
RACCORDO
100
AcDbLine
 62
253
  6
CONTINUOUS
 10
131.9131615085
 20
120.204125665
 11
131.9131615085
 21
119.3227746667
  0
LINE
  5
2E9
100
AcDbEntity
  8
ASSI
100
AcDbLine
 62
253
  6
CONTINUOUS
 10
131.9131615085
 20
120.204125665
 11
131.9131615085
 21
119.3227746667
  0
LINE
  5
2EA
100
AcDbEntity
  8
RACCORDO
100
AcDbLine
 62
253
  6
CONTINUOUS
 10
131.9236337499
 20
119.154125665
 11
131.9236337499
 21
118.754125665
  0
LINE
  5
2EB
100
AcDbEntity
  8
ASSI
100
AcDbLine
 62
253
  6
CONTINUOUS
 10
131.9236337499
 20
119.154125665
 11
131.9236337499
 21
118.754125665
  0
LINE
  5
2EC
100
AcDbEntity
  8
0
100
AcDbLine
 62
7
  6
CONTINUOUS
 10
132.1348434449
 20
103.379125665
 11
132.1348434449
 21
101.329125665
  0
LINE
  5
2ED
100
AcDbEntity
  8
ASSI
100
AcDbLine
 62
7
  6
CONTINUOUS
 10
132.1348434449
 20
103.379125665
 11
132.1348434449
 21
101.329125665
  0
LWPOLYLINE
  5
2EE
100
AcDbEntity
  8
RACCORDO
100
AcDbPolyline
 62
253
  6
CONTINUOUS
 90
28
 70
0
 10
131.9236337499
 20
118.754125665
 10
131.9229947201
 20
118.7437472867
 10
131.9212422454
 20
118.7337488784
 10
131.9183763258
 20
118.7241304402
 10
131.9143296056
 20
118.7147663854
 10
131.9091694404
 20
118.7057823007
 10
131.9030978975
 20
118.6975549454
 10
131.8960766396
 20
118.6901197433
 10
131.8881440038
 20
118.6834412706
 10
131.879617069
 20
118.6777900151
 10
131.8704724583
 20
118.6732091061
 10
131.8607335484
 20
118.6696554142
 10
131.8507875481
 20
118.6672700391
 10
131.8406256123
 20
118.6660999799
 10
131.8302565862
 20
118.6660982375
 10
131.8200942137
 20
118.6672649137
 10
131.8101472679
 20
118.6696470795
 10
131.8004069758
 20
118.6731976639
 10
131.7912607631
 20
118.6777755552
 10
131.782732216
 20
118.6834235001
 10
131.7747977483
 20
118.690098752
 10
131.7677740277
 20
118.6975319591
 10
131.7616988913
 20
118.7057586668
 10
131.7565345019
 20
118.7147433298
 10
131.7524840164
 20
118.7241099599
 10
131.7496151537
 20
118.7337332278
 10
131.7478601949
 20
118.7437384628
 10
131.7472191399
 20
118.754125665
  0
LWPOLYLINE
  5
2EF
100
AcDbEntity
  8
ASSI
100
AcDbPolyline
 62
253
  6
CONTINUOUS
 90
28
 70
0
 10
131.9236337499
 20
118.754125665
 10
131.9229947201
 20
118.7437472867
 10
131.9212422454
 20
118.7337488784
 10
131.9183763258
 20
118.7241304402
 10
131.9143296056
 20
118.7147663854
 10
131.9091694404
 20
118.7057823007
 10
131.9030978975
 20
118.6975549454
 10
131.8960766396
 20
118.6901197433
 10
131.8881440038
 20
118.6834412706
 10
131.879617069
 20
118.6777900151
 10
131.8704724583
 20
118.6732091061
 10
131.8607335484
 20
118.6696554142
 10
131.8507875481
 20
118.6672700391
 10
131.8406256123
 20
118.6660999799
 10
131.8302565862
 20
118.6660982375
 10
131.8200942137
 20
118.6672649137
 10
131.8101472679
 20
118.6696470795
 10
131.8004069758
 20
118.6731976639
 10
131.7912607631
 20
118.6777755552
 10
131.782732216
 20
118.6834235001
 10
131.7747977483
 20
118.690098752
 10
131.7677740277
 20
118.6975319591
 10
131.7616988913
 20
118.7057586668
 10
131.7565345019
 20
118.7147433298
 10
131.7524840164
 20
118.7241099599
 10
131.7496151537
 20
118.7337332278
 10
131.7478601949
 20
118.7437384628
 10
131.7472191399
 20
118.754125665
  0
LINE
  5
2F0
100
AcDbEntity
  8
ASSI
100
AcDbLine
 62
7
  6
CONTINUOUS
 10
133.1122324449
 20
108.804175665
 11
132.5595384449
 21
107.082712665
  0
LINE
  5
2F1
100
AcDbEntity
  8
ASSI
100
AcDbLine
 62
7
  6
CONTINUOUS
 10
132.8095514449
 20
106.304062665
 11
133.6122574449
 21
108.804175665
  0
LINE
  5
2F2
100
AcDbEntity
  8
0
100
AcDbLine
 62
7
  6
CONTINUOUS
 10
144.7877864449
 20
93.654125665
 11
144.5336504449
 21
93.654125665
  0
LINE
  5
2F3
100
AcDbEntity
  8
ASSI
100
AcDbLine
 62
7
  6
CONTINUOUS
 10
144.7877864449
 20
93.654125665
 11
144.5336504449
 21
93.654125665
  0
LINE
  5
2F4
100
AcDbEntity
  8
0
100
AcDbLine
 62
7
  6
CONTINUOUS
 10
143.6155744449
 20
93.654125665
 11
143.3637674449
 21
93.654125665
  0
LINE
  5
2F5
100
AcDbEntity
  8
ASSI
100
AcDbLine
 62
7
  6
CONTINUOUS
 10
143.6155744449
 20
93.654125665
 11
143.3637674449
 21
93.654125665
  0
LINE
  5
2F6
100
AcDbEntity
  8
0
100
AcDbLine
 62
7
  6
CONTINUOUS
 10
142.4790764449
 20
93.654125665
 11
142.2628534449
 21
93.654125665
  0
LINE
  5
2F7
100
AcDbEntity
  8
ASSI
100
AcDbLine
 62
7
  6
CONTINUOUS
 10
142.4790764449
 20
93.654125665
 11
142.2628534449
 21
93.654125665
  0
LINE
  5
2F8
100
AcDbEntity
  8
0
100
AcDbLine
 62
7
  6
CONTINUOUS
 10
141.4851354449
 20
93.654125665
 11
141.2400434449
 21
93.654125665
  0
LINE
  5
2F9
100
AcDbEntity
  8
ASSI
100
AcDbLine
 62
7
  6
CONTINUOUS
 10
141.4851354449
 20
93.654125665
 11
141.2400434449
 21
93.654125665
  0
LINE
  5
2FA
100
AcDbEntity
  8
0
100
AcDbLine
 62
7
  6
CONTINUOUS
 10
140.5759244449
 20
93.654125665
 11
139.2767344449
 21
93.654125665
  0
LINE
  5
2FB
100
AcDbEntity
  8
ASSI
100
AcDbLine
 62
7
  6
CONTINUOUS
 10
140.5759244449
 20
93.654125665
 11
139.2767344449
 21
93.654125665
  0
LINE
  5
2FC
100
AcDbEntity
  8
0
100
AcDbLine
 62
7
  6
CONTINUOUS
 10
139.0449704449
 20
93.654125665
 11
138.8287604449
 21
93.654125665
  0
LINE
  5
2FD
100
AcDbEntity
  8
ASSI
100
AcDbLine
 62
7
  6
CONTINUOUS
 10
139.0449704449
 20
93.654125665
 11
138.8287604449
 21
93.654125665
  0
LINE
  5
2FE
100
AcDbEntity
  8
0
100
AcDbLine
 62
7
  6
CONTINUOUS
 10
137.8371354449
 20
93.654125665
 11
137.6276794449
 21
93.654125665
  0
LINE
  5
2FF
100
AcDbEntity
  8
ASSI
100
AcDbLine
 62
7
  6
CONTINUOUS
 10
137.8371354449
 20
93.654125665
 11
137.6276794449
 21
93.654125665
  0
LINE
  5
300
100
AcDbEntity
  8
0
100
AcDbLine
 62
7
  6
CONTINUOUS
 10
136.8231514449
 20
93.654125665
 11
136.5668274449
 21
93.654125665
  0
LINE
  5
301
100
AcDbEntity
  8
ASSI
100
AcDbLine
 62
7
  6
CONTINUOUS
 10
136.8231514449
 20
93.654125665
 11
136.5668274449
 21
93.654125665
  0
LINE
  5
302
100
AcDbEntity
  8
0
100
AcDbLine
 62
7
  6
CONTINUOUS
 10
136.1969574449
 20
93.654125665
 11
135.9808124449
 21
93.654125665
  0
LINE
  5
303
100
AcDbEntity
  8
ASSI
100
AcDbLine
 62
7
  6
CONTINUOUS
 10
136.1969574449
 20
93.654125665
 11
135.9808124449
 21
93.654125665
  0
LINE
  5
304
100
AcDbEntity
  8
0
100
AcDbLine
 62
7
  6
CONTINUOUS
 10
135.0292104449
 20
93.654125665
 11
133.8636884449
 21
93.654125665
  0
LINE
  5
305
100
AcDbEntity
  8
ASSI
100
AcDbLine
 62
7
  6
CONTINUOUS
 10
135.0292104449
 20
93.654125665
 11
133.8636884449
 21
93.654125665
  0
LINE
  5
306
100
AcDbEntity
  8
0
100
AcDbLine
 62
7
  6
CONTINUOUS
 10
132.8988709003
 20
93.654125665
 11
132.2435664449
 21
93.654125665
  0
LINE
  5
307
100
AcDbEntity
  8
ASSI
100
AcDbLine
 62
7
  6
CONTINUOUS
 10
132.8988709003
 20
93.654125665
 11
132.2435664449
 21
93.654125665
  0
LINE
  5
308
100
AcDbEntity
  8
0
100
AcDbLine
 62
7
  6
CONTINUOUS
 10
131.4547464449
 20
93.654125665
 11
131.2095774449
 21
93.654125665
  0
LINE
  5
309
100
AcDbEntity
  8
ASSI
100
AcDbLine
 62
7
  6
CONTINUOUS
 10
131.4547464449
 20
93.654125665
 11
131.2095774449
 21
93.654125665
  0
LINE
  5
30A
100
AcDbEntity
  8
0
100
AcDbLine
 62
7
  6
CONTINUOUS
 10
130.4162794449
 20
93.654125665
 11
130.1087154449
 21
93.654125665
  0
LINE
  5
30B
100
AcDbEntity
  8
ASSI
100
AcDbLine
 62
7
  6
CONTINUOUS
 10
130.4162794449
 20
93.654125665
 11
130.1087154449
 21
93.654125665
  0
LINE
  5
30C
100
AcDbEntity
  8
0
100
AcDbLine
 62
7
  6
CONTINUOUS
 10
129.1928294449
 20
93.654125665
 11
128.8830664449
 21
93.654125665
  0
LINE
  5
30D
100
AcDbEntity
  8
ASSI
100
AcDbLine
 62
7
  6
CONTINUOUS
 10
129.1928294449
 20
93.654125665
 11
128.8830664449
 21
93.654125665
  0
LINE
  5
30E
100
AcDbEntity
  8
0
100
AcDbLine
 62
7
  6
CONTINUOUS
 10
138.2354264449
 20
89.804125665
 11
142.6354264449
 21
85.404125665
  0
LINE
  5
30F
100
AcDbEntity
  8
0
100
AcDbLine
 62
7
  6
CONTINUOUS
 10
138.6354264449
 20
89.804125665
 11
142.6354264449
 21
85.804125665
  0
LINE
  5
310
100
AcDbEntity
  8
0
100
AcDbLine
 62
7
  6
CONTINUOUS
 10
139.0354264449
 20
89.804125665
 11
142.6354264449
 21
86.204125665
  0
LINE
  5
311
100
AcDbEntity
  8
0
100
AcDbLine
 62
7
  6
CONTINUOUS
 10
139.4354264449
 20
89.804125665
 11
142.6354264449
 21
86.604125665
  0
LINE
  5
312
100
AcDbEntity
  8
0
100
AcDbLine
 62
7
  6
CONTINUOUS
 10
139.8354264449
 20
89.804125665
 11
142.6354264449
 21
87.004125665
  0
LINE
  5
313
100
AcDbEntity
  8
0
100
AcDbLine
 62
7
  6
CONTINUOUS
 10
140.2354264449
 20
89.804125665
 11
142.6354264449
 21
87.404125665
  0
LINE
  5
314
100
AcDbEntity
  8
RACCORDO
100
AcDbLine
 62
7
  6
CONTINUOUS
 10
132.2131500854
 20
119.2809803466
 11
132.2236223268
 21
119.112331345
  0
LINE
  5
315
100
AcDbEntity
  8
ASSI
100
AcDbLine
 62
7
  6
CONTINUOUS
 10
132.2131500854
 20
119.2809803466
 11
132.2236223268
 21
119.112331345
  0
LWPOLYLINE
  5
316
100
AcDbEntity
  8
0
100
AcDbPolyline
 62
7
  6
CONTINUOUS
 90
22
 70
0
 10
133.6057092345
 20
102.7488431643
 10
133.6039431758
 20
102.8112486184
 10
133.5980558009
 20
102.8705105607
 10
133.5880471099
 20
102.926628991
 10
133.5737925502
 20
102.9798264421
 10
133.5554166744
 20
103.0298803813
 10
133.5332931402
 20
103.0761232106
 10
133.5076271379
 20
103.1181076344
 10
133.4782134772
 20
103.1562809483
 10
133.4448102448
 20
103.1913174415
 10
133.4073641197
 20
103.2234211422
 10
133.3659284229
 20
103.2523880221
 10
133.3204212047
 20
103.2782802848
 10
133.270458331
 20
103.3011212798
 10
133.2164239359
 20
103.3208876576
 10
133.1593884724
 20
103.3375715734
 10
133.0994910912
 20
103.3509408574
 10
133.0365926416
 20
103.3612276795
 10
132.9713461239
 20
103.3691207048
 10
132.903969205
 20
103.3748494883
 10
132.8342442179
 20
103.3781844751
 10
132.7621711628
 20
103.379125665
  0
LWPOLYLINE
  5
317
100
AcDbEntity
  8
ASSI
100
AcDbPolyline
 62
7
  6
CONTINUOUS
 90
22
 70
0
 10
133.6057092345
 20
102.7488431643
 10
133.6039431758
 20
102.8112486184
 10
133.5980558009
 20
102.8705105607
 10
133.5880471099
 20
102.926628991
 10
133.5737925502
 20
102.9798264421
 10
133.5554166744
 20
103.0298803813
 10
133.5332931402
 20
103.0761232106
 10
133.5076271379
 20
103.1181076344
 10
133.4782134772
 20
103.1562809483
 10
133.4448102448
 20
103.1913174415
 10
133.4073641197
 20
103.2234211422
 10
133.3659284229
 20
103.2523880221
 10
133.3204212047
 20
103.2782802848
 10
133.270458331
 20
103.3011212798
 10
133.2164239359
 20
103.3208876576
 10
133.1593884724
 20
103.3375715734
 10
133.0994910912
 20
103.3509408574
 10
133.0365926416
 20
103.3612276795
 10
132.9713461239
 20
103.3691207048
 10
132.903969205
 20
103.3748494883
 10
132.8342442179
 20
103.3781844751
 10
132.7621711628
 20
103.379125665
  0
LWPOLYLINE
  5
318
100
AcDbEntity
  8
0
100
AcDbPolyline
 62
7
  6
CONTINUOUS
 90
19
 70
0
 10
133.5643094216
 20
92.854125665
 10
133.5631575433
 20
92.9355969016
 10
133.5569850624
 20
93.0130872087
 10
133.545791979
 20
93.0865965863
 10
133.5291948861
 20
93.1563490952
 10
133.5075771907
 20
93.2221206746
 10
133.4820891132
 20
93.2832391427
 10
133.4531019189
 20
93.3392971758
 10
133.4202443425
 20
93.3907020975
 10
133.3835528091
 20
93.4380036971
 10
133.3427726189
 20
93.4817223949
 10
133.2981584716
 20
93.5213377706
 10
133.2505108915
 20
93.5558383524
 10
133.2002320336
 20
93.5848604114
 10
133.1469197429
 20
93.6087676766
 10
133.0901680782
 20
93.627639863
 10
133.0298417261
 20
93.6415035424
 10
132.9660760001
 20
93.6503321431
 10
132.8988709003
 20
93.654125665
  0
LWPOLYLINE
  5
319
100
AcDbEntity
  8
ASSI
100
AcDbPolyline
 62
7
  6
CONTINUOUS
 90
19
 70
0
 10
133.5643094216
 20
92.854125665
 10
133.5631575433
 20
92.9355969016
 10
133.5569850624
 20
93.0130872087
 10
133.545791979
 20
93.0865965863
 10
133.5291948861
 20
93.1563490952
 10
133.5075771907
 20
93.2221206746
 10
133.4820891132
 20
93.2832391427
 10
133.4531019189
 20
93.3392971758
 10
133.4202443425
 20
93.3907020975
 10
133.3835528091
 20
93.4380036971
 10
133.3427726189
 20
93.4817223949
 10
133.2981584716
 20
93.5213377706
 10
133.2505108915
 20
93.5558383524
 10
133.2002320336
 20
93.5848604114
 10
133.1469197429
 20
93.6087676766
 10
133.0901680782
 20
93.627639863
 10
133.0298417261
 20
93.6415035424
 10
132.9660760001
 20
93.6503321431
 10
132.8988709003
 20
93.654125665
  0
LINE
  5
31A
100
AcDbEntity
  8
RACCORDO
100
AcDbLine
 62
7
  6
CONTINUOUS
 10
132.2131500854
 20
120.204125665
 11
132.2131500854
 21
119.2809803466
  0
LINE
  5
31B
100
AcDbEntity
  8
ASSI
100
AcDbLine
 62
7
  6
CONTINUOUS
 10
132.2131500854
 20
120.204125665
 11
132.2131500854
 21
119.2809803466
  0
LINE
  5
31C
100
AcDbEntity
  8
RACCORDO
100
AcDbLine
 62
7
  6
CONTINUOUS
 10
132.2236223268
 20
119.112331345
 11
132.2236223268
 21
118.754125665
  0
LINE
  5
31D
100
AcDbEntity
  8
ASSI
100
AcDbLine
 62
7
  6
CONTINUOUS
 10
132.2236223268
 20
119.112331345
 11
132.2236223268
 21
118.754125665
  0
LINE
  5
31E
100
AcDbEntity
  8
RACCORDO
100
AcDbLine
 62
7
  6
CONTINUOUS
 10
132.2354264449
 20
119.704125665
 11
132.2354264449
 21
118.754125665
  0
LINE
  5
31F
100
AcDbEntity
  8
ASSI
100
AcDbLine
 62
7
  6
CONTINUOUS
 10
132.2354264449
 20
119.704125665
 11
132.2354264449
 21
118.754125665
  0
LINE
  5
320
100
AcDbEntity
  8
0
100
AcDbLine
 62
7
  6
CONTINUOUS
 10
132.2354264449
 20
85.404125665
 11
132.2354264449
 21
89.804125665
  0
LINE
  5
321
100
AcDbEntity
  8
0
100
AcDbLine
 62
7
  6
CONTINUOUS
 10
132.2435664449
 20
93.654125665
 11
132.2435664449
 21
92.054125665
  0
LINE
  5
322
100
AcDbEntity
  8
ASSI
100
AcDbLine
 62
7
  6
CONTINUOUS
 10
132.2435664449
 20
93.654125665
 11
132.2435664449
 21
92.054125665
  0
LINE
  5
323
100
AcDbEntity
  8
0
100
AcDbLine
 62
7
  6
CONTINUOUS
 10
132.4597894449
 20
92.239034665
 11
132.4597894449
 21
93.469216665
  0
LINE
  5
324
100
AcDbEntity
  8
ASSI
100
AcDbLine
 62
7
  6
CONTINUOUS
 10
132.4597894449
 20
92.239034665
 11
132.4597894449
 21
93.469216665
  0
LINE
  5
325
100
AcDbEntity
  8
0
100
AcDbLine
 62
7
  6
CONTINUOUS
 10
132.5749614449
 20
101.329125665
 11
132.5749614449
 21
102.118560665
  0
LINE
  5
326
100
AcDbEntity
  8
ASSI
100
AcDbLine
 62
7
  6
CONTINUOUS
 10
132.5749614449
 20
101.329125665
 11
132.5749614449
 21
102.118560665
  0
LINE
  5
327
100
AcDbEntity
  8
0
100
AcDbLine
 62
7
  6
CONTINUOUS
 10
132.5749614449
 20
102.459236665
 11
132.5749614449
 21
103.038449665
  0
LINE
  5
328
100
AcDbEntity
  8
ASSI
100
AcDbLine
 62
7
  6
CONTINUOUS
 10
132.5749614449
 20
102.459236665
 11
132.5749614449
 21
103.038449665
  0
LINE
  5
329
100
AcDbEntity
  8
0
100
AcDbLine
 62
7
  6
CONTINUOUS
 10
132.6354264449
 20
85.404125665
 11
132.6354264449
 21
89.804125665
  0
LINE
  5
32A
100
AcDbEntity
  8
0
100
AcDbLine
 62
7
  6
CONTINUOUS
 10
133.0354264449
 20
85.404125665
 11
133.0354264449
 21
89.804125665
  0
LINE
  5
32B
100
AcDbEntity
  8
0
100
AcDbLine
 62
7
  6
CONTINUOUS
 10
133.0499444449
 20
98.7859882423
 11
133.0499444449
 21
98.612711665
  0
LINE
  5
32C
100
AcDbEntity
  8
ASSI
100
AcDbLine
 62
7
  6
CONTINUOUS
 10
133.0499444449
 20
98.7859882423
 11
133.0499444449
 21
98.612711665
  0
LINE
  5
32D
100
AcDbEntity
  8
0
100
AcDbLine
 62
7
  6
CONTINUOUS
 10
133.4354264449
 20
85.404125665
 11
133.4354264449
 21
89.804125665
  0
LINE
  5
32E
100
AcDbEntity
  8
0
100
AcDbLine
 62
7
  6
CONTINUOUS
 10
133.4740824449
 20
98.612711665
 11
133.4740824449
 21
97.332539665
  0
LINE
  5
32F
100
AcDbEntity
  8
ASSI
100
AcDbLine
 62
7
  6
CONTINUOUS
 10
133.4740824449
 20
98.612711665
 11
133.4740824449
 21
97.332539665
  0
LINE
  5
330
100
AcDbEntity
  8
0
100
AcDbLine
 62
7
  6
CONTINUOUS
 10
133.7171854449
 20
97.332539665
 11
133.7171854449
 21
99.132539665
  0
LINE
  5
331
100
AcDbEntity
  8
ASSI
100
AcDbLine
 62
7
  6
CONTINUOUS
 10
133.7171854449
 20
97.332539665
 11
133.7171854449
 21
99.132539665
  0
LWPOLYLINE
  5
332
100
AcDbEntity
  8
0
100
AcDbPolyline
 62
7
  6
CONTINUOUS
 90
19
 70
0
 10
133.3418992094
 20
92.854125665
 10
133.3407932983
 20
92.7947129573
 10
133.3368820505
 20
92.7377130014
 10
133.3301654659
 20
92.6831257972
 10
133.320751746
 20
92.6307574544
 10
133.3085326894
 20
92.5808018633
 10
133.2931836916
 20
92.533840695
 10
133.2745314352
 20
92.4898904256
 10
133.2527492375
 20
92.448934579
 10
133.2280324461
 20
92.411505397
 10
133.2003533209
 20
92.3777765851
 10
133.1697396019
 20
92.3475744378
 10
133.136469857
 20
92.320910081
 10
133.100454158
 20
92.2976466724
 10
133.0617824331
 20
92.2779210542
 10
133.0210030344
 20
92.2621548791
 10
132.9782987459
 20
92.250488698
 10
132.9334867835
 20
92.2427819599
 10
132.8865671474
 20
92.239034665
  0
LWPOLYLINE
  5
333
100
AcDbEntity
  8
ASSI
100
AcDbPolyline
 62
7
  6
CONTINUOUS
 90
19
 70
0
 10
133.3418992094
 20
92.854125665
 10
133.3407932983
 20
92.7947129573
 10
133.3368820505
 20
92.7377130014
 10
133.3301654659
 20
92.6831257972
 10
133.320751746
 20
92.6307574544
 10
133.3085326894
 20
92.5808018633
 10
133.2931836916
 20
92.533840695
 10
133.2745314352
 20
92.4898904256
 10
133.2527492375
 20
92.448934579
 10
133.2280324461
 20
92.411505397
 10
133.2003533209
 20
92.3777765851
 10
133.1697396019
 20
92.3475744378
 10
133.136469857
 20
92.320910081
 10
133.100454158
 20
92.2976466724
 10
133.0617824331
 20
92.2779210542
 10
133.0210030344
 20
92.2621548791
 10
132.9782987459
 20
92.250488698
 10
132.9334867835
 20
92.2427819599
 10
132.8865671474
 20
92.239034665
  0
LWPOLYLINE
  5
334
100
AcDbEntity
  8
0
100
AcDbPolyline
 62
7
  6
CONTINUOUS
 90
16
 70
0
 10
133.1372015881
 20
102.7488431643
 10
133.1361364864
 20
102.7092084007
 10
133.1316480779
 20
102.6721009445
 10
133.1237363624
 20
102.6375207958
 10
133.1121110945
 20
102.6050394461
 10
133.0970625197
 20
102.5750854039
 10
133.0794613747
 20
102.5489441944
 10
133.0593650873
 20
102.5271989912
 10
133.0367162298
 20
102.5092666207
 10
133.0122132558
 20
102.4946830872
 10
132.9859386736
 20
102.4839360514
 10
132.957809975
 20
102.4765378526
 10
132.9282780884
 20
102.4705615124
 10
132.8974933231
 20
102.4653647047
 10
132.8653053699
 20
102.4615897555
 10
132.8317142285
 20
102.459236665
  0
LWPOLYLINE
  5
335
100
AcDbEntity
  8
ASSI
100
AcDbPolyline
 62
7
  6
CONTINUOUS
 90
16
 70
0
 10
133.1372015881
 20
102.7488431643
 10
133.1361364864
 20
102.7092084007
 10
133.1316480779
 20
102.6721009445
 10
133.1237363624
 20
102.6375207958
 10
133.1121110945
 20
102.6050394461
 10
133.0970625197
 20
102.5750854039
 10
133.0794613747
 20
102.5489441944
 10
133.0593650873
 20
102.5271989912
 10
133.0367162298
 20
102.5092666207
 10
133.0122132558
 20
102.4946830872
 10
132.9859386736
 20
102.4839360514
 10
132.957809975
 20
102.4765378526
 10
132.9282780884
 20
102.4705615124
 10
132.8974933231
 20
102.4653647047
 10
132.8653053699
 20
102.4615897555
 10
132.8317142285
 20
102.459236665
  0
LWPOLYLINE
  5
336
100
AcDbEntity
  8
0
100
AcDbPolyline
 62
7
  6
CONTINUOUS
 90
13
 70
0
 10
133.5374034749
 20
99.132539665
 10
133.5305205637
 20
99.1022435007
 10
133.5227572846
 20
99.0731852662
 10
133.5141136376
 20
99.0453649618
 10
133.5046481059
 20
99.018622466
 10
133.4943022063
 20
98.9931179001
 10
133.4829004892
 20
98.9693316279
 10
133.4703626695
 20
98.9473258761
 10
133.4567690322
 20
98.9270384179
 10
133.4421849828
 20
98.9087629375
 10
133.4266323229
 20
98.8925973293
 10
133.4100892508
 20
98.8784436988
 10
133.3925557665
 20
98.866302046
  0
LWPOLYLINE
  5
337
100
AcDbEntity
  8
ASSI
100
AcDbPolyline
 62
7
  6
CONTINUOUS
 90
13
 70
0
 10
133.5374034749
 20
99.132539665
 10
133.5305205637
 20
99.1022435007
 10
133.5227572846
 20
99.0731852662
 10
133.5141136376
 20
99.0453649618
 10
133.5046481059
 20
99.018622466
 10
133.4943022063
 20
98.9931179001
 10
133.4829004892
 20
98.9693316279
 10
133.4703626695
 20
98.9473258761
 10
133.4567690322
 20
98.9270384179
 10
133.4421849828
 20
98.9087629375
 10
133.4266323229
 20
98.8925973293
 10
133.4100892508
 20
98.8784436988
 10
133.3925557665
 20
98.866302046
  0
LINE
  5
338
100
AcDbEntity
  8
0
100
AcDbLine
 62
7
  6
CONTINUOUS
 10
129.7566424449
 20
92.054125665
 11
130.2067334449
 21
93.397918665
  0
LINE
  5
339
100
AcDbEntity
  8
ASSI
100
AcDbLine
 62
7
  6
CONTINUOUS
 10
129.7566424449
 20
92.054125665
 11
130.2067334449
 21
93.397918665
  0
LINE
  5
33A
100
AcDbEntity
  8
0
100
AcDbLine
 62
7
  6
CONTINUOUS
 10
130.1087154449
 20
93.654125665
 11
129.6518724449
 21
92.294896665
  0
LINE
  5
33B
100
AcDbEntity
  8
ASSI
100
AcDbLine
 62
7
  6
CONTINUOUS
 10
130.1087154449
 20
93.654125665
 11
129.6518724449
 21
92.294896665
  0
LINE
  5
33C
100
AcDbEntity
  8
0
100
AcDbLine
 62
7
  6
CONTINUOUS
 10
131.2095774449
 20
93.654125665
 11
130.6079304449
 21
92.054125665
  0
LINE
  5
33D
100
AcDbEntity
  8
ASSI
100
AcDbLine
 62
7
  6
CONTINUOUS
 10
131.2095774449
 20
93.654125665
 11
130.6079304449
 21
92.054125665
  0
LINE
  5
33E
100
AcDbEntity
  8
0
100
AcDbLine
 62
7
  6
CONTINUOUS
 10
140.6354264449
 20
89.804125665
 11
142.6354264449
 21
87.804125665
  0
LINE
  5
33F
100
AcDbEntity
  8
0
100
AcDbLine
 62
7
  6
CONTINUOUS
 10
141.0354264449
 20
89.804125665
 11
142.6354264449
 21
88.204125665
  0
LINE
  5
340
100
AcDbEntity
  8
0
100
AcDbLine
 62
7
  6
CONTINUOUS
 10
141.4354264449
 20
89.804125665
 11
142.6354264449
 21
88.604125665
  0
LINE
  5
341
100
AcDbEntity
  8
0
100
AcDbLine
 62
7
  6
CONTINUOUS
 10
141.8354264449
 20
89.804125665
 11
142.6354264449
 21
89.004125665
  0
LINE
  5
342
100
AcDbEntity
  8
0
100
AcDbLine
 62
7
  6
CONTINUOUS
 10
142.2354264449
 20
89.804125665
 11
142.6354264449
 21
89.404125665
  0
LINE
  5
343
100
AcDbEntity
  8
0
100
AcDbLine
 62
7
  6
CONTINUOUS
 10
136.7763864449
 20
93.353516665
 11
137.5942434449
 21
92.054125665
  0
LINE
  5
344
100
AcDbEntity
  8
ASSI
100
AcDbLine
 62
7
  6
CONTINUOUS
 10
136.7763864449
 20
93.353516665
 11
137.5942434449
 21
92.054125665
  0
LINE
  5
345
100
AcDbEntity
  8
0
100
AcDbLine
 62
7
  6
CONTINUOUS
 10
137.6276794449
 20
92.354470665
 11
136.8231514449
 21
93.654125665
  0
LINE
  5
346
100
AcDbEntity
  8
ASSI
100
AcDbLine
 62
7
  6
CONTINUOUS
 10
137.6276794449
 20
92.354470665
 11
136.8231514449
 21
93.654125665
  0
LINE
  5
347
100
AcDbEntity
  8
0
100
AcDbLine
 62
7
  6
CONTINUOUS
 10
133.8354264449
 20
85.404125665
 11
133.8354264449
 21
89.804125665
  0
LINE
  5
348
100
AcDbEntity
  8
0
100
AcDbLine
 62
7
  6
CONTINUOUS
 10
133.8636884449
 20
93.654125665
 11
133.8636884449
 21
92.054125665
  0
LINE
  5
349
100
AcDbEntity
  8
ASSI
100
AcDbLine
 62
7
  6
CONTINUOUS
 10
133.8636884449
 20
93.654125665
 11
133.8636884449
 21
92.054125665
  0
LINE
  5
34A
100
AcDbEntity
  8
0
100
AcDbLine
 62
7
  6
CONTINUOUS
 10
133.8811204449
 20
103.379125665
 11
133.8811204449
 21
101.329125665
  0
LINE
  5
34B
100
AcDbEntity
  8
ASSI
100
AcDbLine
 62
7
  6
CONTINUOUS
 10
133.8811204449
 20
103.379125665
 11
133.8811204449
 21
101.329125665
  0
LINE
  5
34C
100
AcDbEntity
  8
ASSI
100
AcDbLine
 62
7
  6
CONTINUOUS
 10
133.9456014449
 20
108.804175665
 11
133.9455954449
 21
106.304056665
  0
LINE
  5
34D
100
AcDbEntity
  8
0
100
AcDbLine
 62
7
  6
CONTINUOUS
 10
134.0798984449
 20
92.245763665
 11
134.0798984449
 21
92.780563665
  0
LINE
  5
34E
100
AcDbEntity
  8
ASSI
100
AcDbLine
 62
7
  6
CONTINUOUS
 10
134.0798984449
 20
92.245763665
 11
134.0798984449
 21
92.780563665
  0
LINE
  5
34F
100
AcDbEntity
  8
0
100
AcDbLine
 62
7
  6
CONTINUOUS
 10
134.0798984449
 20
92.972200665
 11
134.0798984449
 21
93.462487665
  0
LINE
  5
350
100
AcDbEntity
  8
ASSI
100
AcDbLine
 62
7
  6
CONTINUOUS
 10
134.0798984449
 20
92.972200665
 11
134.0798984449
 21
93.462487665
  0
LINE
  5
351
100
AcDbEntity
  8
0
100
AcDbLine
 62
7
  6
CONTINUOUS
 10
134.2354264449
 20
85.404125665
 11
134.2354264449
 21
89.804125665
  0
LINE
  5
352
100
AcDbEntity
  8
0
100
AcDbLine
 62
7
  6
CONTINUOUS
 10
134.3042544449
 20
98.000427665
 11
134.3042544449
 21
97.774780665
  0
LINE
  5
353
100
AcDbEntity
  8
ASSI
100
AcDbLine
 62
7
  6
CONTINUOUS
 10
134.3042544449
 20
98.000427665
 11
134.3042544449
 21
97.774780665
  0
LINE
  5
354
100
AcDbEntity
  8
0
100
AcDbLine
 62
7
  6
CONTINUOUS
 10
134.3212384449
 20
101.669801665
 11
134.3212384449
 21
103.379125665
  0
LINE
  5
355
100
AcDbEntity
  8
ASSI
100
AcDbLine
 62
7
  6
CONTINUOUS
 10
134.3212384449
 20
101.669801665
 11
134.3212384449
 21
103.379125665
  0
LINE
  5
356
100
AcDbEntity
  8
ASSI
100
AcDbLine
 62
7
  6
CONTINUOUS
 10
134.4456134449
 20
106.304062665
 11
134.4456204449
 21
108.804175665
  0
LINE
  5
357
100
AcDbEntity
  8
0
100
AcDbLine
 62
7
  6
CONTINUOUS
 10
134.6354264449
 20
85.404125665
 11
134.6354264449
 21
89.804125665
  0
LINE
  5
358
100
AcDbEntity
  8
ASSI
100
AcDbLine
 62
7
  6
CONTINUOUS
 10
134.9456204449
 20
108.804175665
 11
134.9456204449
 21
106.304062665
  0
LINE
  5
359
100
AcDbEntity
  8
0
100
AcDbLine
 62
7
  6
CONTINUOUS
 10
134.9556734449
 20
92.780563665
 11
134.9556734449
 21
92.972200665
  0
LINE
  5
35A
100
AcDbEntity
  8
ASSI
100
AcDbLine
 62
7
  6
CONTINUOUS
 10
134.9556734449
 20
92.780563665
 11
134.9556734449
 21
92.972200665
  0
LINE
  5
35B
100
AcDbEntity
  8
0
100
AcDbLine
 62
7
  6
CONTINUOUS
 10
135.0292104449
 20
93.462487665
 11
135.0292104449
 21
93.654125665
  0
LINE
  5
35C
100
AcDbEntity
  8
ASSI
100
AcDbLine
 62
7
  6
CONTINUOUS
 10
135.0292104449
 20
93.462487665
 11
135.0292104449
 21
93.654125665
  0
LINE
  5
35D
100
AcDbEntity
  8
0
100
AcDbLine
 62
7
  6
CONTINUOUS
 10
135.0354264449
 20
85.404125665
 11
135.0354264449
 21
89.804125665
  0
LINE
  5
35E
100
AcDbEntity
  8
0
100
AcDbLine
 62
7
  6
CONTINUOUS
 10
135.0448284449
 20
92.054125665
 11
135.0448284449
 21
92.245763665
  0
LINE
  5
35F
100
AcDbEntity
  8
ASSI
100
AcDbLine
 62
7
  6
CONTINUOUS
 10
135.0448284449
 20
92.054125665
 11
135.0448284449
 21
92.245763665
  0
LINE
  5
360
100
AcDbEntity
  8
0
100
AcDbLine
 62
7
  6
CONTINUOUS
 10
135.0797374449
 20
101.329125665
 11
135.0797374449
 21
101.669801665
  0
LINE
  5
361
100
AcDbEntity
  8
ASSI
100
AcDbLine
 62
7
  6
CONTINUOUS
 10
135.0797374449
 20
101.329125665
 11
135.0797374449
 21
101.669801665
  0
LINE
  5
362
100
AcDbEntity
  8
0
100
AcDbLine
 62
7
  6
CONTINUOUS
 10
135.0956344449
 20
98.792372665
 11
135.0956344449
 21
97.976504665
  0
LINE
  5
363
100
AcDbEntity
  8
ASSI
100
AcDbLine
 62
7
  6
CONTINUOUS
 10
135.0956344449
 20
98.792372665
 11
135.0956344449
 21
97.976504665
  0
LINE
  5
364
100
AcDbEntity
  8
0
100
AcDbLine
 62
7
  6
CONTINUOUS
 10
135.0982204449
 20
97.774780665
 11
135.0982204449
 21
97.332539665
  0
LINE
  5
365
100
AcDbEntity
  8
ASSI
100
AcDbLine
 62
7
  6
CONTINUOUS
 10
135.0982204449
 20
97.774780665
 11
135.0982204449
 21
97.332539665
  0
LINE
  5
366
100
AcDbEntity
  8
0
100
AcDbLine
 62
7
  6
CONTINUOUS
 10
135.3258064449
 20
97.332539665
 11
135.3258064449
 21
97.774780665
  0
LINE
  5
367
100
AcDbEntity
  8
ASSI
100
AcDbLine
 62
7
  6
CONTINUOUS
 10
135.3258064449
 20
97.332539665
 11
135.3258064449
 21
97.774780665
  0
LINE
  5
368
100
AcDbEntity
  8
0
100
AcDbLine
 62
7
  6
CONTINUOUS
 10
135.3258064449
 20
97.976504665
 11
135.3258064449
 21
99.145470665
  0
LINE
  5
369
100
AcDbEntity
  8
ASSI
100
AcDbLine
 62
7
  6
CONTINUOUS
 10
135.3258064449
 20
97.976504665
 11
135.3258064449
 21
99.145470665
  0
LINE
  5
36A
100
AcDbEntity
  8
ASSI
100
AcDbLine
 62
7
  6
CONTINUOUS
 10
136.6352514449
 20
108.804175665
 11
136.1683824449
 21
107.176012665
  0
LINE
  5
36B
100
AcDbEntity
  8
ASSI
100
AcDbLine
 62
7
  6
CONTINUOUS
 10
136.4183824449
 20
106.304069665
 11
136.8911204449
 21
107.952719665
  0
LINE
  5
36C
100
AcDbEntity
  8
0
100
AcDbLine
 62
7
  6
CONTINUOUS
 10
135.9879004449
 20
102.104288665
 11
136.2918764449
 21
102.987392665
  0
LINE
  5
36D
100
AcDbEntity
  8
ASSI
100
AcDbLine
 62
7
  6
CONTINUOUS
 10
135.9879004449
 20
102.104288665
 11
136.2918764449
 21
102.987392665
  0
LINE
  5
36E
100
AcDbEntity
  8
0
100
AcDbLine
 62
7
  6
CONTINUOUS
 10
135.7210524449
 20
101.329125665
 11
135.8743414449
 21
101.763611665
  0
LINE
  5
36F
100
AcDbEntity
  8
ASSI
100
AcDbLine
 62
7
  6
CONTINUOUS
 10
135.7210524449
 20
101.329125665
 11
135.8743414449
 21
101.763611665
  0
LINE
  5
370
100
AcDbEntity
  8
0
100
AcDbLine
 62
7
  6
CONTINUOUS
 10
130.8307534449
 20
92.054125665
 11
130.9979084449
 21
92.519827665
  0
LINE
  5
371
100
AcDbEntity
  8
ASSI
100
AcDbLine
 62
7
  6
CONTINUOUS
 10
130.8307534449
 20
92.054125665
 11
130.9979084449
 21
92.519827665
  0
LINE
  5
372
100
AcDbEntity
  8
0
100
AcDbLine
 62
7
  6
CONTINUOUS
 10
136.0419024449
 20
103.379125665
 11
135.3008384449
 21
101.329125665
  0
LINE
  5
373
100
AcDbEntity
  8
ASSI
100
AcDbLine
 62
7
  6
CONTINUOUS
 10
136.0419024449
 20
103.379125665
 11
135.3008384449
 21
101.329125665
  0
LINE
  5
374
100
AcDbEntity
  8
0
100
AcDbLine
 62
7
  6
CONTINUOUS
 10
131.0647814449
 20
92.711464665
 11
131.3233564449
 21
93.422047665
  0
LINE
  5
375
100
AcDbEntity
  8
ASSI
100
AcDbLine
 62
7
  6
CONTINUOUS
 10
131.0647814449
 20
92.711464665
 11
131.3233564449
 21
93.422047665
  0
LWPOLYLINE
  5
376
100
AcDbEntity
  8
0
100
AcDbPolyline
 62
7
  6
CONTINUOUS
 90
40
 70
0
 10
136.3853488908
 20
97.2834985847
 10
136.4453088195
 20
97.2871992813
 10
136.5021012005
 20
97.2958563613
 10
136.5557260336
 20
97.3094698246
 10
136.6059925244
 20
97.327906272
 10
136.6530914674
 20
97.3512991028
 10
136.6975952465
 20
97.3800485144
 10
136.7398233811
 20
97.4142748141
 10
136.7794563519
 20
97.4538576946
 10
136.8161079837
 20
97.498836432
 10
136.8498050309
 20
97.5495797392
 10
136.8805207392
 20
97.6057189031
 10
136.9077886711
 20
97.666187061
 10
136.9314459642
 20
97.7307641888
 10
136.9516554809
 20
97.7996703105
 10
136.9684393709
 20
97.8724986349
 10
136.9817674761
 20
97.9500218573
 10
136.9916699546
 20
98.0314672824
 10
136.9982594307
 20
98.114110033
 10
137.0015044612
 20
98.1983635673
 10
137.0014364894
 20
98.2838144271
 10
136.9982624686
 20
98.3664973608
 10
136.9921690755
 20
98.4453333376
 10
136.9829696336
 20
98.5214013884
 10
136.9703110665
 20
98.5939733539
 10
136.9541196278
 20
98.663112275
 10
136.9344690641
 20
98.7287551109
 10
136.9112275385
 20
98.7899845796
 10
136.8841781792
 20
98.8467698223
 10
136.8535378582
 20
98.8991416979
 10
136.8198253542
 20
98.9462755014
 10
136.7832344144
 20
98.9877741335
 10
136.7435712917
 20
99.0240346934
 10
136.7007735238
 20
99.0554237742
 10
136.6549462273
 20
99.0820378571
 10
136.6059842856
 20
99.1037804609
 10
136.5535098876
 20
99.120728735
 10
136.4973970961
 20
99.132908396
 10
136.4377718482
 20
99.1402937273
 10
136.3746341439
 20
99.1428847289
  0
LWPOLYLINE
  5
377
100
AcDbEntity
  8
ASSI
100
AcDbPolyline
 62
7
  6
CONTINUOUS
 90
40
 70
0
 10
136.3853488908
 20
97.2834985847
 10
136.4453088195
 20
97.2871992813
 10
136.5021012005
 20
97.2958563613
 10
136.5557260336
 20
97.3094698246
 10
136.6059925244
 20
97.327906272
 10
136.6530914674
 20
97.3512991028
 10
136.6975952465
 20
97.3800485144
 10
136.7398233811
 20
97.4142748141
 10
136.7794563519
 20
97.4538576946
 10
136.8161079837
 20
97.498836432
 10
136.8498050309
 20
97.5495797392
 10
136.8805207392
 20
97.6057189031
 10
136.9077886711
 20
97.666187061
 10
136.9314459642
 20
97.7307641888
 10
136.9516554809
 20
97.7996703105
 10
136.9684393709
 20
97.8724986349
 10
136.9817674761
 20
97.9500218573
 10
136.9916699546
 20
98.0314672824
 10
136.9982594307
 20
98.114110033
 10
137.0015044612
 20
98.1983635673
 10
137.0014364894
 20
98.2838144271
 10
136.9982624686
 20
98.3664973608
 10
136.9921690755
 20
98.4453333376
 10
136.9829696336
 20
98.5214013884
 10
136.9703110665
 20
98.5939733539
 10
136.9541196278
 20
98.663112275
 10
136.9344690641
 20
98.7287551109
 10
136.9112275385
 20
98.7899845796
 10
136.8841781792
 20
98.8467698223
 10
136.8535378582
 20
98.8991416979
 10
136.8198253542
 20
98.9462755014
 10
136.7832344144
 20
98.9877741335
 10
136.7435712917
 20
99.0240346934
 10
136.7007735238
 20
99.0554237742
 10
136.6549462273
 20
99.0820378571
 10
136.6059842856
 20
99.1037804609
 10
136.5535098876
 20
99.120728735
 10
136.4973970961
 20
99.132908396
 10
136.4377718482
 20
99.1402937273
 10
136.3746341439
 20
99.1428847289
  0
LINE
  5
378
100
AcDbEntity
  8
0
100
AcDbLine
 62
7
  6
CONTINUOUS
 10
133.4740824449
 20
97.332539665
 11
133.7171854449
 21
97.332539665
  0
LINE
  5
379
100
AcDbEntity
  8
ASSI
100
AcDbLine
 62
7
  6
CONTINUOUS
 10
133.4740824449
 20
97.332539665
 11
133.7171854449
 21
97.332539665
  0
LINE
  5
37A
100
AcDbEntity
  8
0
100
AcDbLine
 62
7
  6
CONTINUOUS
 10
135.0982204449
 20
97.332539665
 11
135.3258064449
 21
97.332539665
  0
LINE
  5
37B
100
AcDbEntity
  8
ASSI
100
AcDbLine
 62
7
  6
CONTINUOUS
 10
135.0982204449
 20
97.332539665
 11
135.3258064449
 21
97.332539665
  0
LINE
  5
37C
100
AcDbEntity
  8
0
100
AcDbLine
 62
7
  6
CONTINUOUS
 10
137.1956335538
 20
97.332539665
 11
138.4370134449
 21
97.332539665
  0
LINE
  5
37D
100
AcDbEntity
  8
ASSI
100
AcDbLine
 62
7
  6
CONTINUOUS
 10
137.1956335538
 20
97.332539665
 11
138.4370134449
 21
97.332539665
  0
LINE
  5
37E
100
AcDbEntity
  8
0
100
AcDbLine
 62
7
  6
CONTINUOUS
 10
138.4370134449
 20
97.547194665
 11
137.4490816913
 21
97.547194665
  0
LINE
  5
37F
100
AcDbEntity
  8
ASSI
100
AcDbLine
 62
7
  6
CONTINUOUS
 10
138.4370134449
 20
97.547194665
 11
137.4490816913
 21
97.547194665
  0
LINE
  5
380
100
AcDbEntity
  8
0
100
AcDbLine
 62
7
  6
CONTINUOUS
 10
134.3042544449
 20
97.774780665
 11
135.0982204449
 21
97.774780665
  0
LINE
  5
381
100
AcDbEntity
  8
ASSI
100
AcDbLine
 62
7
  6
CONTINUOUS
 10
134.3042544449
 20
97.774780665
 11
135.0982204449
 21
97.774780665
  0
LINE
  5
382
100
AcDbEntity
  8
0
100
AcDbLine
 62
7
  6
CONTINUOUS
 10
135.3258064449
 20
97.774780665
 11
135.5921854449
 21
97.774780665
  0
LINE
  5
383
100
AcDbEntity
  8
ASSI
100
AcDbLine
 62
7
  6
CONTINUOUS
 10
135.3258064449
 20
97.774780665
 11
135.5921854449
 21
97.774780665
  0
LINE
  5
384
100
AcDbEntity
  8
0
100
AcDbLine
 62
7
  6
CONTINUOUS
 10
135.5921854449
 20
97.976504665
 11
135.3258064449
 21
97.976504665
  0
LINE
  5
385
100
AcDbEntity
  8
ASSI
100
AcDbLine
 62
7
  6
CONTINUOUS
 10
135.5921854449
 20
97.976504665
 11
135.3258064449
 21
97.976504665
  0
LINE
  5
386
100
AcDbEntity
  8
0
100
AcDbLine
 62
7
  6
CONTINUOUS
 10
135.0956344449
 20
97.976504665
 11
134.5142624449
 21
97.976504665
  0
LINE
  5
387
100
AcDbEntity
  8
ASSI
100
AcDbLine
 62
7
  6
CONTINUOUS
 10
135.0956344449
 20
97.976504665
 11
134.5142624449
 21
97.976504665
  0
LWPOLYLINE
  5
388
100
AcDbEntity
  8
0
100
AcDbPolyline
 62
7
  6
CONTINUOUS
 90
43
 70
0
 10
136.3715226057
 20
97.490298522
 10
136.3335870457
 20
97.4929519594
 10
136.297323108
 20
97.4997289178
 10
136.2627307926
 20
97.5106293971
 10
136.2294158745
 20
97.5258236354
 10
136.1977725788
 20
97.5451413946
 10
136.1689835801
 20
97.5680719606
 10
136.1436709277
 20
97.5945588409
 10
136.1212125724
 20
97.6246585281
 10
136.1009250415
 20
97.6580297857
 10
136.0826405154
 20
97.694941701
 10
136.0665268136
 20
97.7351251868
 10
136.0524039226
 20
97.7774317451
 10
136.0403201582
 20
97.8213942216
 10
136.0302272046
 20
97.8674797705
 10
136.0218001005
 20
97.9159413564
 10
136.0149855367
 20
97.9669613731
 10
136.0098368225
 20
98.0203574268
 10
136.006188924
 20
98.0758352999
 10
136.0040256611
 20
98.1343245512
 10
136.003363214
 20
98.194895622
 10
136.0040850882
 20
98.2544656182
 10
136.0061060678
 20
98.3123283112
 10
136.0095113687
 20
98.3691899297
 10
136.0144401458
 20
98.4240862657
 10
136.0208648859
 20
98.4767615745
 10
136.0288131021
 20
98.5274716009
 10
136.038506488
 20
98.5760193714
 10
136.0498107076
 20
98.6224887751
 10
136.0628600969
 20
98.6667959228
 10
136.0782793569
 20
98.7084921742
 10
136.0963726112
 20
98.747850404
 10
136.1168357362
 20
98.7845977374
 10
136.1393810617
 20
98.8174669105
 10
136.1638390341
 20
98.8460648851
 10
136.190379207
 20
98.8707846992
 10
136.2192225711
 20
98.8915382033
 10
136.2506767834
 20
98.9082599867
 10
136.2844341868
 20
98.9210154601
 10
136.3197928012
 20
98.9299127053
 10
136.3575015414
 20
98.9348989305
 10
136.3968114925
 20
98.9360269277
 10
136.4347739292
 20
98.9335631546
  0
LWPOLYLINE
  5
389
100
AcDbEntity
  8
ASSI
100
AcDbPolyline
 62
7
  6
CONTINUOUS
 90
43
 70
0
 10
136.3715226057
 20
97.490298522
 10
136.3335870457
 20
97.4929519594
 10
136.297323108
 20
97.4997289178
 10
136.2627307926
 20
97.5106293971
 10
136.2294158745
 20
97.5258236354
 10
136.1977725788
 20
97.5451413946
 10
136.1689835801
 20
97.5680719606
 10
136.1436709277
 20
97.5945588409
 10
136.1212125724
 20
97.6246585281
 10
136.1009250415
 20
97.6580297857
 10
136.0826405154
 20
97.694941701
 10
136.0665268136
 20
97.7351251868
 10
136.0524039226
 20
97.7774317451
 10
136.0403201582
 20
97.8213942216
 10
136.0302272046
 20
97.8674797705
 10
136.0218001005
 20
97.9159413564
 10
136.0149855367
 20
97.9669613731
 10
136.0098368225
 20
98.0203574268
 10
136.006188924
 20
98.0758352999
 10
136.0040256611
 20
98.1343245512
 10
136.003363214
 20
98.194895622
 10
136.0040850882
 20
98.2544656182
 10
136.0061060678
 20
98.3123283112
 10
136.0095113687
 20
98.3691899297
 10
136.0144401458
 20
98.4240862657
 10
136.0208648859
 20
98.4767615745
 10
136.0288131021
 20
98.5274716009
 10
136.038506488
 20
98.5760193714
 10
136.0498107076
 20
98.6224887751
 10
136.0628600969
 20
98.6667959228
 10
136.0782793569
 20
98.7084921742
 10
136.0963726112
 20
98.747850404
 10
136.1168357362
 20
98.7845977374
 10
136.1393810617
 20
98.8174669105
 10
136.1638390341
 20
98.8460648851
 10
136.190379207
 20
98.8707846992
 10
136.2192225711
 20
98.8915382033
 10
136.2506767834
 20
98.9082599867
 10
136.2844341868
 20
98.9210154601
 10
136.3197928012
 20
98.9299127053
 10
136.3575015414
 20
98.9348989305
 10
136.3968114925
 20
98.9360269277
 10
136.4347739292
 20
98.9335631546
  0
LINE
  5
38A
100
AcDbEntity
  8
ASSI
100
AcDbLine
 62
7
  6
CONTINUOUS
 10
131.5068134449
 20
108.804175665
 11
132.3095134449
 21
106.304056665
  0
LINE
  5
38B
100
AcDbEntity
  8
ASSI
100
AcDbLine
 62
7
  6
CONTINUOUS
 10
132.5595384449
 20
107.082712665
 11
132.0068384449
 21
108.804175665
  0
LINE
  5
38C
100
AcDbEntity
  8
0
100
AcDbLine
 62
7
  6
CONTINUOUS
 10
135.4354264449
 20
85.404125665
 11
135.4354264449
 21
89.804125665
  0
LINE
  5
38D
100
AcDbEntity
  8
ASSI
100
AcDbLine
 62
7
  6
CONTINUOUS
 10
135.4456384449
 20
106.304062665
 11
135.4456384449
 21
107.952719665
  0
LINE
  5
38E
100
AcDbEntity
  8
0
100
AcDbLine
 62
7
  6
CONTINUOUS
 10
135.5921854449
 20
97.774780665
 11
135.5921854449
 21
97.976504665
  0
LINE
  5
38F
100
AcDbEntity
  8
ASSI
100
AcDbLine
 62
7
  6
CONTINUOUS
 10
135.5921854449
 20
97.774780665
 11
135.5921854449
 21
97.976504665
  0
LINE
  5
390
100
AcDbEntity
  8
0
100
AcDbLine
 62
7
  6
CONTINUOUS
 10
135.8354264449
 20
85.404125665
 11
135.8354264449
 21
89.804125665
  0
LINE
  5
391
100
AcDbEntity
  8
0
100
AcDbLine
 62
7
  6
CONTINUOUS
 10
135.9808124449
 20
93.654125665
 11
135.9808124449
 21
92.054125665
  0
LINE
  5
392
100
AcDbEntity
  8
ASSI
100
AcDbLine
 62
7
  6
CONTINUOUS
 10
135.9808124449
 20
93.654125665
 11
135.9808124449
 21
92.054125665
  0
LINE
  5
393
100
AcDbEntity
  8
0
100
AcDbLine
 62
7
  6
CONTINUOUS
 10
136.1969574449
 20
92.054125665
 11
136.1969574449
 21
93.654125665
  0
LINE
  5
394
100
AcDbEntity
  8
ASSI
100
AcDbLine
 62
7
  6
CONTINUOUS
 10
136.1969574449
 20
92.054125665
 11
136.1969574449
 21
93.654125665
  0
LINE
  5
395
100
AcDbEntity
  8
0
100
AcDbLine
 62
7
  6
CONTINUOUS
 10
136.2354264449
 20
85.404125665
 11
136.2354264449
 21
89.804125665
  0
LINE
  5
396
100
AcDbEntity
  8
0
100
AcDbLine
 62
7
  6
CONTINUOUS
 10
136.5668274449
 20
93.654125665
 11
136.5668274449
 21
92.054125665
  0
LINE
  5
397
100
AcDbEntity
  8
ASSI
100
AcDbLine
 62
7
  6
CONTINUOUS
 10
136.5668274449
 20
93.654125665
 11
136.5668274449
 21
92.054125665
  0
LINE
  5
398
100
AcDbEntity
  8
0
100
AcDbLine
 62
7
  6
CONTINUOUS
 10
136.6354264449
 20
85.404125665
 11
136.6354264449
 21
89.804125665
  0
LINE
  5
399
100
AcDbEntity
  8
0
100
AcDbLine
 62
7
  6
CONTINUOUS
 10
136.7763864449
 20
92.054125665
 11
136.7763864449
 21
93.353516665
  0
LINE
  5
39A
100
AcDbEntity
  8
ASSI
100
AcDbLine
 62
7
  6
CONTINUOUS
 10
136.7763864449
 20
92.054125665
 11
136.7763864449
 21
93.353516665
  0
LINE
  5
39B
100
AcDbEntity
  8
ASSI
100
AcDbLine
 62
7
  6
CONTINUOUS
 10
136.8911204449
 20
107.952719665
 11
136.8911264449
 21
106.304062665
  0
LINE
  5
39C
100
AcDbEntity
  8
0
100
AcDbLine
 62
7
  6
CONTINUOUS
 10
137.0354264449
 20
85.404125665
 11
137.0354264449
 21
89.804125665
  0
LWPOLYLINE
  5
39D
100
AcDbEntity
  8
0
100
AcDbPolyline
 62
7
  6
CONTINUOUS
 90
13
 70
0
 10
136.7559784111
 20
98.230196155
 10
136.7557060984
 20
98.1715474201
 10
136.7541558078
 20
98.114567664
 10
136.7513275395
 20
98.0592568866
 10
136.7473211958
 20
98.005609132
 10
136.7420368743
 20
97.9536303562
 10
136.7351748676
 20
97.903338427
 10
136.7269526909
 20
97.8543756446
 10
136.7171528289
 20
97.8070997087
 10
136.7048230289
 20
97.7626015861
 10
136.6896458733
 20
97.7212449323
 10
136.6719387796
 20
97.6826660918
 10
136.651701748
 20
97.6468650645
  0
LWPOLYLINE
  5
39E
100
AcDbEntity
  8
ASSI
100
AcDbPolyline
 62
7
  6
CONTINUOUS
 90
13
 70
0
 10
136.7559784111
 20
98.230196155
 10
136.7557060984
 20
98.1715474201
 10
136.7541558078
 20
98.114567664
 10
136.7513275395
 20
98.0592568866
 10
136.7473211958
 20
98.005609132
 10
136.7420368743
 20
97.9536303562
 10
136.7351748676
 20
97.903338427
 10
136.7269526909
 20
97.8543756446
 10
136.7171528289
 20
97.8070997087
 10
136.7048230289
 20
97.7626015861
 10
136.6896458733
 20
97.7212449323
 10
136.6719387796
 20
97.6826660918
 10
136.651701748
 20
97.6468650645
  0
LINE
  5
39F
100
AcDbEntity
  8
ASSI
100
AcDbLine
 62
7
  6
CONTINUOUS
 10
138.5271824449
 20
108.804181665
 11
137.7244894449
 21
106.304062665
  0
LINE
  5
3A0
100
AcDbEntity
  8
ASSI
100
AcDbLine
 62
7
  6
CONTINUOUS
 10
138.2245074449
 20
106.304069665
 11
138.3823644449
 21
106.795731665
  0
LINE
  5
3A1
100
AcDbEntity
  8
ASSI
100
AcDbLine
 62
7
  6
CONTINUOUS
 10
138.5348824449
 20
107.270750665
 11
138.7772014449
 21
108.025525665
  0
LINE
  5
3A2
100
AcDbEntity
  8
0
100
AcDbLine
 62
7
  6
CONTINUOUS
 10
134.5142624449
 20
97.976504665
 11
135.0956344449
 21
98.792372665
  0
LINE
  5
3A3
100
AcDbEntity
  8
ASSI
100
AcDbLine
 62
7
  6
CONTINUOUS
 10
134.5142624449
 20
97.976504665
 11
135.0956344449
 21
98.792372665
  0
LINE
  5
3A4
100
AcDbEntity
  8
0
100
AcDbLine
 62
7
  6
CONTINUOUS
 10
135.1336194449
 20
99.145470665
 11
134.3042544449
 21
98.000427665
  0
LINE
  5
3A5
100
AcDbEntity
  8
ASSI
100
AcDbLine
 62
7
  6
CONTINUOUS
 10
135.1336194449
 20
99.145470665
 11
134.3042544449
 21
98.000427665
  0
LWPOLYLINE
  5
3A6
100
AcDbEntity
  8
0
100
AcDbPolyline
 62
7
  6
CONTINUOUS
 90
10
 70
0
 10
133.3925557665
 20
98.866302046
 10
133.3614206465
 20
98.8508544246
 10
133.3283453609
 20
98.8372975468
 10
133.2933299096
 20
98.8256314126
 10
133.25609834
 20
98.8162023917
 10
133.2169266047
 20
98.8086641145
 10
133.1766425617
 20
98.8019774718
 10
133.1355221638
 20
98.795796094
 10
133.0932894582
 20
98.7904663509
 10
133.0499444449
 20
98.7859882423
  0
LWPOLYLINE
  5
3A7
100
AcDbEntity
  8
ASSI
100
AcDbPolyline
 62
7
  6
CONTINUOUS
 90
10
 70
0
 10
133.3925557665
 20
98.866302046
 10
133.3614206465
 20
98.8508544246
 10
133.3283453609
 20
98.8372975468
 10
133.2933299096
 20
98.8256314126
 10
133.25609834
 20
98.8162023917
 10
133.2169266047
 20
98.8086641145
 10
133.1766425617
 20
98.8019774718
 10
133.1355221638
 20
98.795796094
 10
133.0932894582
 20
98.7904663509
 10
133.0499444449
 20
98.7859882423
  0
LINE
  5
3A8
100
AcDbEntity
  8
0
100
AcDbLine
 62
7
  6
CONTINUOUS
 10
139.6274459705
 20
98.6926957073
 11
139.8452069625
 21
98.7102167067
  0
LINE
  5
3A9
100
AcDbEntity
  8
ASSI
100
AcDbLine
 62
7
  6
CONTINUOUS
 10
139.6274459705
 20
98.6926957073
 11
139.8452069625
 21
98.7102167067
  0
LWPOLYLINE
  5
3AA
100
AcDbEntity
  8
0
100
AcDbPolyline
 62
7
  6
CONTINUOUS
 90
40
 70
0
 10
136.3746341439
 20
99.1428847289
 10
136.3146035539
 20
99.1402387519
 10
136.2576700605
 20
99.1325254942
 10
136.2038336638
 20
99.1197449557
 10
136.1532272768
 20
99.1020129185
 10
136.1057179865
 20
99.0792136005
 10
136.0609070531
 20
99.0509996554
 10
136.0185564568
 20
99.0172730524
 10
135.9789042173
 20
98.9781318224
 10
135.9422656545
 20
98.9335227114
 10
135.908595541
 20
98.8830446014
 10
135.8779391042
 20
98.8270986105
 10
135.8507473463
 20
98.7668348394
 10
135.8271869713
 20
98.7025242292
 10
135.8070912752
 20
98.6338958388
 10
135.7904111486
 20
98.561286946
 10
135.7771321735
 20
98.4840137054
 10
135.7672687678
 20
98.4027599625
 10
135.7608150757
 20
98.319914531
 10
135.7578102562
 20
98.2347689655
 10
135.7582151504
 20
98.1480317114
 10
135.7619064255
 20
98.0642169188
 10
135.7687740993
 20
97.9846068799
 10
135.7789281541
 20
97.9079193025
 10
135.792575203
 20
97.8348214598
 10
135.8098078911
 20
97.7652823054
 10
135.8305335734
 20
97.6993328857
 10
135.8546809284
 20
97.6377336133
 10
135.8824277203
 20
97.5804269668
 10
135.9135961849
 20
97.5274704676
 10
135.9475817076
 20
97.4797970919
 10
135.9841779384
 20
97.4378057815
 10
136.0235912274
 20
97.4010975947
 10
136.0658360103
 20
97.3694086823
 10
136.1106743606
 20
97.3426753051
 10
136.1583442049
 20
97.3209612023
 10
136.2095737586
 20
97.304193742
 10
136.26460576
 20
97.2923487137
 10
136.3231974707
 20
97.2854503279
 10
136.3853488908
 20
97.2834985847
  0
LWPOLYLINE
  5
3AB
100
AcDbEntity
  8
ASSI
100
AcDbPolyline
 62
7
  6
CONTINUOUS
 90
40
 70
0
 10
136.3746341439
 20
99.1428847289
 10
136.3146035539
 20
99.1402387519
 10
136.2576700605
 20
99.1325254942
 10
136.2038336638
 20
99.1197449557
 10
136.1532272768
 20
99.1020129185
 10
136.1057179865
 20
99.0792136005
 10
136.0609070531
 20
99.0509996554
 10
136.0185564568
 20
99.0172730524
 10
135.9789042173
 20
98.9781318224
 10
135.9422656545
 20
98.9335227114
 10
135.908595541
 20
98.8830446014
 10
135.8779391042
 20
98.8270986105
 10
135.8507473463
 20
98.7668348394
 10
135.8271869713
 20
98.7025242292
 10
135.8070912752
 20
98.6338958388
 10
135.7904111486
 20
98.561286946
 10
135.7771321735
 20
98.4840137054
 10
135.7672687678
 20
98.4027599625
 10
135.7608150757
 20
98.319914531
 10
135.7578102562
 20
98.2347689655
 10
135.7582151504
 20
98.1480317114
 10
135.7619064255
 20
98.0642169188
 10
135.7687740993
 20
97.9846068799
 10
135.7789281541
 20
97.9079193025
 10
135.792575203
 20
97.8348214598
 10
135.8098078911
 20
97.7652823054
 10
135.8305335734
 20
97.6993328857
 10
135.8546809284
 20
97.6377336133
 10
135.8824277203
 20
97.5804269668
 10
135.9135961849
 20
97.5274704676
 10
135.9475817076
 20
97.4797970919
 10
135.9841779384
 20
97.4378057815
 10
136.0235912274
 20
97.4010975947
 10
136.0658360103
 20
97.3694086823
 10
136.1106743606
 20
97.3426753051
 10
136.1583442049
 20
97.3209612023
 10
136.2095737586
 20
97.304193742
 10
136.26460576
 20
97.2923487137
 10
136.3231974707
 20
97.2854503279
 10
136.3853488908
 20
97.2834985847
  0
LINE
  5
3AC
100
AcDbEntity
  8
0
100
AcDbLine
 62
7
  6
CONTINUOUS
 10
137.2395990448
 20
98.498918665
 11
137.4723576665
 21
98.498918665
  0
LINE
  5
3AD
100
AcDbEntity
  8
ASSI
100
AcDbLine
 62
7
  6
CONTINUOUS
 10
137.2395990448
 20
98.498918665
 11
137.4723576665
 21
98.498918665
  0
LINE
  5
3AE
100
AcDbEntity
  8
0
100
AcDbLine
 62
7
  6
CONTINUOUS
 10
133.0499444449
 20
98.612711665
 11
133.4740824449
 21
98.612711665
  0
LINE
  5
3AF
100
AcDbEntity
  8
ASSI
100
AcDbLine
 62
7
  6
CONTINUOUS
 10
133.0499444449
 20
98.612711665
 11
133.4740824449
 21
98.612711665
  0
LINE
  5
3B0
100
AcDbEntity
  8
0
100
AcDbLine
 62
7
  6
CONTINUOUS
 10
133.7171854449
 20
99.132539665
 11
133.5374034749
 21
99.132539665
  0
LINE
  5
3B1
100
AcDbEntity
  8
ASSI
100
AcDbLine
 62
7
  6
CONTINUOUS
 10
133.7171854449
 20
99.132539665
 11
133.5374034749
 21
99.132539665
  0
LINE
  5
3B2
100
AcDbEntity
  8
0
100
AcDbLine
 62
7
  6
CONTINUOUS
 10
135.3258064449
 20
99.145470665
 11
135.1336194449
 21
99.145470665
  0
LINE
  5
3B3
100
AcDbEntity
  8
ASSI
100
AcDbLine
 62
7
  6
CONTINUOUS
 10
135.3258064449
 20
99.145470665
 11
135.1336194449
 21
99.145470665
  0
LWPOLYLINE
  5
3B4
100
AcDbEntity
  8
0
100
AcDbPolyline
 62
7
  6
CONTINUOUS
 90
10
 70
0
 10
136.4347739292
 20
98.9335631546
 10
136.4706961123
 20
98.927737121
 10
136.5052707811
 20
98.9183193172
 10
136.5376274286
 20
98.9048876715
 10
136.5675815642
 20
98.8873766734
 10
136.5953176785
 20
98.8658518334
 10
136.6205187362
 20
98.8400876117
 10
136.643079059
 20
98.8100088284
 10
136.6631043252
 20
98.7756906635
 10
136.6805945349
 20
98.7371331168
  0
LWPOLYLINE
  5
3B5
100
AcDbEntity
  8
ASSI
100
AcDbPolyline
 62
7
  6
CONTINUOUS
 90
10
 70
0
 10
136.4347739292
 20
98.9335631546
 10
136.4706961123
 20
98.927737121
 10
136.5052707811
 20
98.9183193172
 10
136.5376274286
 20
98.9048876715
 10
136.5675815642
 20
98.8873766734
 10
136.5953176785
 20
98.8658518334
 10
136.6205187362
 20
98.8400876117
 10
136.643079059
 20
98.8100088284
 10
136.6631043252
 20
98.7756906635
 10
136.6805945349
 20
98.7371331168
  0
LWPOLYLINE
  5
3B6
100
AcDbEntity
  8
0
100
AcDbPolyline
 62
7
  6
CONTINUOUS
 90
10
 70
0
 10
136.6805945349
 20
98.7371331168
 10
136.6973630417
 20
98.6882745044
 10
136.7119505243
 20
98.6374233607
 10
136.7243569827
 20
98.5845796856
 10
136.7344718916
 20
98.5295760097
 10
136.7424057763
 20
98.4725798025
 10
136.748490213
 20
98.4140934726
 10
136.752835727
 20
98.3542844895
 10
136.7553317931
 20
98.2929853836
 10
136.7559784111
 20
98.230196155
  0
LWPOLYLINE
  5
3B7
100
AcDbEntity
  8
ASSI
100
AcDbPolyline
 62
7
  6
CONTINUOUS
 90
10
 70
0
 10
136.6805945349
 20
98.7371331168
 10
136.6973630417
 20
98.6882745044
 10
136.7119505243
 20
98.6374233607
 10
136.7243569827
 20
98.5845796856
 10
136.7344718916
 20
98.5295760097
 10
136.7424057763
 20
98.4725798025
 10
136.748490213
 20
98.4140934726
 10
136.752835727
 20
98.3542844895
 10
136.7553317931
 20
98.2929853836
 10
136.7559784111
 20
98.230196155
  0
LINE
  5
3B8
100
AcDbEntity
  8
ASSI
100
AcDbLine
 62
7
  6
CONTINUOUS
 10
137.3911454449
 20
106.304062665
 11
137.3911454449
 21
108.804175665
  0
LINE
  5
3B9
100
AcDbEntity
  8
0
100
AcDbLine
 62
7
  6
CONTINUOUS
 10
137.4354264449
 20
85.404125665
 11
137.4354264449
 21
89.804125665
  0
LINE
  5
3BA
100
AcDbEntity
  8
0
100
AcDbLine
 62
7
  6
CONTINUOUS
 10
137.5012734449
 20
103.379125665
 11
137.5012734449
 21
101.329125665
  0
LINE
  5
3BB
100
AcDbEntity
  8
ASSI
100
AcDbLine
 62
7
  6
CONTINUOUS
 10
137.5012734449
 20
103.379125665
 11
137.5012734449
 21
101.329125665
  0
LINE
  5
3BC
100
AcDbEntity
  8
0
100
AcDbLine
 62
7
  6
CONTINUOUS
 10
137.6276794449
 20
93.654125665
 11
137.6276794449
 21
92.354470665
  0
LINE
  5
3BD
100
AcDbEntity
  8
ASSI
100
AcDbLine
 62
7
  6
CONTINUOUS
 10
137.6276794449
 20
93.654125665
 11
137.6276794449
 21
92.354470665
  0
LINE
  5
3BE
100
AcDbEntity
  8
0
100
AcDbLine
 62
7
  6
CONTINUOUS
 10
137.8354264449
 20
85.404125665
 11
137.8354264449
 21
89.804125665
  0
LINE
  5
3BF
100
AcDbEntity
  8
0
100
AcDbLine
 62
7
  6
CONTINUOUS
 10
137.8371354449
 20
92.054125665
 11
137.8371354449
 21
93.654125665
  0
LINE
  5
3C0
100
AcDbEntity
  8
ASSI
100
AcDbLine
 62
7
  6
CONTINUOUS
 10
137.8371354449
 20
92.054125665
 11
137.8371354449
 21
93.654125665
  0
LINE
  5
3C1
100
AcDbEntity
  8
0
100
AcDbLine
 62
7
  6
CONTINUOUS
 10
137.9130014449
 20
101.329125665
 11
137.9130014449
 21
103.044836665
  0
LINE
  5
3C2
100
AcDbEntity
  8
ASSI
100
AcDbLine
 62
7
  6
CONTINUOUS
 10
137.9130014449
 20
101.329125665
 11
137.9130014449
 21
103.044836665
  0
LINE
  5
3C3
100
AcDbEntity
  8
0
100
AcDbLine
 62
7
  6
CONTINUOUS
 10
138.2354264449
 20
85.404125665
 11
138.2354264449
 21
89.804125665
  0
LINE
  5
3C4
100
AcDbEntity
  8
0
100
AcDbLine
 62
7
  6
CONTINUOUS
 10
138.4370134449
 20
97.332539665
 11
138.4370134449
 21
97.547194665
  0
LINE
  5
3C5
100
AcDbEntity
  8
ASSI
100
AcDbLine
 62
7
  6
CONTINUOUS
 10
138.4370134449
 20
97.332539665
 11
138.4370134449
 21
97.547194665
  0
LINE
  5
3C6
100
AcDbEntity
  8
0
100
AcDbLine
 62
7
  6
CONTINUOUS
 10
138.6354264449
 20
85.404125665
 11
138.6354264449
 21
89.804125665
  0
LWPOLYLINE
  5
3C7
100
AcDbEntity
  8
0
100
AcDbPolyline
 62
7
  6
CONTINUOUS
 90
10
 70
0
 10
138.1939094456
 20
98.5962656809
 10
138.1928665094
 20
98.5699152721
 10
138.189126201
 20
98.5430560723
 10
138.1826885203
 20
98.5156880813
 10
138.1734332601
 20
98.4872724543
 10
138.1614806276
 20
98.4583480362
 10
138.1471912452
 20
98.4305313621
 10
138.1306853202
 20
98.4043612769
 10
138.1118426452
 20
98.3792989357
 10
138.0906632202
 20
98.3553443385
  0
LWPOLYLINE
  5
3C8
100
AcDbEntity
  8
ASSI
100
AcDbPolyline
 62
7
  6
CONTINUOUS
 90
10
 70
0
 10
138.1939094456
 20
98.5962656809
 10
138.1928665094
 20
98.5699152721
 10
138.189126201
 20
98.5430560723
 10
138.1826885203
 20
98.5156880813
 10
138.1734332601
 20
98.4872724543
 10
138.1614806276
 20
98.4583480362
 10
138.1471912452
 20
98.4305313621
 10
138.1306853202
 20
98.4043612769
 10
138.1118426452
 20
98.3792989357
 10
138.0906632202
 20
98.3553443385
  0
LWPOLYLINE
  5
3C9
100
AcDbEntity
  8
0
100
AcDbPolyline
 62
7
  6
CONTINUOUS
 90
31
 70
0
 10
137.4723576665
 20
98.498918665
 10
137.4743563642
 20
98.5492605507
 10
137.4791859635
 20
98.5972898425
 10
137.4868464643
 20
98.6430065404
 10
137.4971651981
 20
98.6868177006
 10
137.5103148335
 20
98.7283162669
 10
137.5268133759
 20
98.7662810706
 10
137.5471959225
 20
98.8004292197
 10
137.5709273762
 20
98.8310436063
 10
137.5969204504
 20
98.8577517372
 10
137.6247080497
 20
98.8802779823
 10
137.6547572695
 20
98.8988979717
 10
137.6873821098
 20
98.9140661028
 10
137.7230612873
 20
98.9258995031
 10
137.7613160853
 20
98.9342810452
 10
137.8010243538
 20
98.9393137439
 10
137.8428579018
 20
98.9412291965
 10
137.8861449202
 20
98.9397958056
 10
137.9277478325
 20
98.9344217949
 10
137.9670942779
 20
98.9247780821
 10
138.0047566171
 20
98.9111937494
 10
138.0393143549
 20
98.8940642661
 10
138.0703838513
 20
98.8733810594
 10
138.0983487464
 20
98.8491527021
 10
138.1229394654
 20
98.8218003817
 10
138.1442579089
 20
98.7913407874
 10
138.1622021763
 20
98.7577572301
 10
138.1761969913
 20
98.7214208288
 10
138.1860505952
 20
98.68245529
 10
138.1919547466
 20
98.6407369074
 10
138.1939094456
 20
98.5962656809
  0
LWPOLYLINE
  5
3CA
100
AcDbEntity
  8
ASSI
100
AcDbPolyline
 62
7
  6
CONTINUOUS
 90
31
 70
0
 10
137.4723576665
 20
98.498918665
 10
137.4743563642
 20
98.5492605507
 10
137.4791859635
 20
98.5972898425
 10
137.4868464643
 20
98.6430065404
 10
137.4971651981
 20
98.6868177006
 10
137.5103148335
 20
98.7283162669
 10
137.5268133759
 20
98.7662810706
 10
137.5471959225
 20
98.8004292197
 10
137.5709273762
 20
98.8310436063
 10
137.5969204504
 20
98.8577517372
 10
137.6247080497
 20
98.8802779823
 10
137.6547572695
 20
98.8988979717
 10
137.6873821098
 20
98.9140661028
 10
137.7230612873
 20
98.9258995031
 10
137.7613160853
 20
98.9342810452
 10
137.8010243538
 20
98.9393137439
 10
137.8428579018
 20
98.9412291965
 10
137.8861449202
 20
98.9397958056
 10
137.9277478325
 20
98.9344217949
 10
137.9670942779
 20
98.9247780821
 10
138.0047566171
 20
98.9111937494
 10
138.0393143549
 20
98.8940642661
 10
138.0703838513
 20
98.8733810594
 10
138.0983487464
 20
98.8491527021
 10
138.1229394654
 20
98.8218003817
 10
138.1442579089
 20
98.7913407874
 10
138.1622021763
 20
98.7577572301
 10
138.1761969913
 20
98.7214208288
 10
138.1860505952
 20
98.68245529
 10
138.1919547466
 20
98.6407369074
 10
138.1939094456
 20
98.5962656809
  0
LWPOLYLINE
  5
3CB
100
AcDbEntity
  8
0
100
AcDbPolyline
 62
7
  6
CONTINUOUS
 90
12
 70
0
 10
137.4490816913
 20
97.547194665
 10
137.4599073814
 20
97.5840261694
 10
137.4748165141
 20
97.6202832019
 10
137.4938090895
 20
97.6559657624
 10
137.5170464988
 20
97.6913144504
 10
137.5443673507
 20
97.7260886665
 10
137.5752874719
 20
97.7595666124
 10
137.6099819993
 20
97.7914399893
 10
137.6482757959
 20
97.8220170959
 10
137.6891592769
 20
97.8515010306
 10
137.7326930251
 20
97.8795558237
 10
137.7788164576
 20
97.9065174448
  0
LWPOLYLINE
  5
3CC
100
AcDbEntity
  8
ASSI
100
AcDbPolyline
 62
7
  6
CONTINUOUS
 90
12
 70
0
 10
137.4490816913
 20
97.547194665
 10
137.4599073814
 20
97.5840261694
 10
137.4748165141
 20
97.6202832019
 10
137.4938090895
 20
97.6559657624
 10
137.5170464988
 20
97.6913144504
 10
137.5443673507
 20
97.7260886665
 10
137.5752874719
 20
97.7595666124
 10
137.6099819993
 20
97.7914399893
 10
137.6482757959
 20
97.8220170959
 10
137.6891592769
 20
97.8515010306
 10
137.7326930251
 20
97.8795558237
 10
137.7788164576
 20
97.9065174448
  0
LWPOLYLINE
  5
3CD
100
AcDbEntity
  8
0
100
AcDbPolyline
 62
7
  6
CONTINUOUS
 90
10
 70
0
 10
136.651701748
 20
97.6468650645
 10
136.6276457566
 20
97.6139736301
 10
136.6017761913
 20
97.5849653548
 10
136.5740930522
 20
97.5598402386
 10
136.5445365821
 20
97.5386107761
 10
136.513166538
 20
97.5212644727
 10
136.4801621913
 20
97.507763844
 10
136.4455832988
 20
97.4980963952
 10
136.4093701036
 20
97.4922746212
 10
136.3715226057
 20
97.490298522
  0
LWPOLYLINE
  5
3CE
100
AcDbEntity
  8
ASSI
100
AcDbPolyline
 62
7
  6
CONTINUOUS
 90
10
 70
0
 10
136.651701748
 20
97.6468650645
 10
136.6276457566
 20
97.6139736301
 10
136.6017761913
 20
97.5849653548
 10
136.5740930522
 20
97.5598402386
 10
136.5445365821
 20
97.5386107761
 10
136.513166538
 20
97.5212644727
 10
136.4801621913
 20
97.507763844
 10
136.4455832988
 20
97.4980963952
 10
136.4093701036
 20
97.4922746212
 10
136.3715226057
 20
97.490298522
  0
LINE
  5
3CF
100
AcDbEntity
  8
0
100
AcDbLine
 62
7
  6
CONTINUOUS
 10
132.1348434449
 20
101.329125665
 11
132.5749614449
 21
101.329125665
  0
LINE
  5
3D0
100
AcDbEntity
  8
ASSI
100
AcDbLine
 62
7
  6
CONTINUOUS
 10
132.1348434449
 20
101.329125665
 11
132.5749614449
 21
101.329125665
  0
LINE
  5
3D1
100
AcDbEntity
  8
0
100
AcDbLine
 62
7
  6
CONTINUOUS
 10
133.8811204449
 20
101.329125665
 11
135.0797374449
 21
101.329125665
  0
LINE
  5
3D2
100
AcDbEntity
  8
ASSI
100
AcDbLine
 62
7
  6
CONTINUOUS
 10
133.8811204449
 20
101.329125665
 11
135.0797374449
 21
101.329125665
  0
LINE
  5
3D3
100
AcDbEntity
  8
0
100
AcDbLine
 62
7
  6
CONTINUOUS
 10
135.3008384449
 20
101.329125665
 11
135.7210524449
 21
101.329125665
  0
LINE
  5
3D4
100
AcDbEntity
  8
ASSI
100
AcDbLine
 62
7
  6
CONTINUOUS
 10
135.3008384449
 20
101.329125665
 11
135.7210524449
 21
101.329125665
  0
LINE
  5
3D5
100
AcDbEntity
  8
0
100
AcDbLine
 62
7
  6
CONTINUOUS
 10
136.8340374449
 20
101.329125665
 11
137.2770104449
 21
101.329125665
  0
LINE
  5
3D6
100
AcDbEntity
  8
ASSI
100
AcDbLine
 62
7
  6
CONTINUOUS
 10
136.8340374449
 20
101.329125665
 11
137.2770104449
 21
101.329125665
  0
LINE
  5
3D7
100
AcDbEntity
  8
0
100
AcDbLine
 62
7
  6
CONTINUOUS
 10
137.5012734449
 20
101.329125665
 11
137.9130014449
 21
101.329125665
  0
LINE
  5
3D8
100
AcDbEntity
  8
ASSI
100
AcDbLine
 62
7
  6
CONTINUOUS
 10
137.5012734449
 20
101.329125665
 11
137.9130014449
 21
101.329125665
  0
LINE
  5
3D9
100
AcDbEntity
  8
0
100
AcDbLine
 62
7
  6
CONTINUOUS
 10
138.7278944449
 20
101.329125665
 11
139.3525464449
 21
101.329125665
  0
LINE
  5
3DA
100
AcDbEntity
  8
ASSI
100
AcDbLine
 62
7
  6
CONTINUOUS
 10
138.7278944449
 20
101.329125665
 11
139.3525464449
 21
101.329125665
  0
LINE
  5
3DB
100
AcDbEntity
  8
0
100
AcDbLine
 62
7
  6
CONTINUOUS
 10
139.5598374449
 20
101.329125665
 11
139.9800514449
 21
101.329125665
  0
LINE
  5
3DC
100
AcDbEntity
  8
ASSI
100
AcDbLine
 62
7
  6
CONTINUOUS
 10
139.5598374449
 20
101.329125665
 11
139.9800514449
 21
101.329125665
  0
LINE
  5
3DD
100
AcDbEntity
  8
0
100
AcDbLine
 62
7
  6
CONTINUOUS
 10
141.0931914449
 20
101.329125665
 11
141.5360094449
 21
101.329125665
  0
LINE
  5
3DE
100
AcDbEntity
  8
ASSI
100
AcDbLine
 62
7
  6
CONTINUOUS
 10
141.0931914449
 20
101.329125665
 11
141.5360094449
 21
101.329125665
  0
LINE
  5
3DF
100
AcDbEntity
  8
0
100
AcDbLine
 62
7
  6
CONTINUOUS
 10
135.0797374449
 20
101.669801665
 11
134.3212384449
 21
101.669801665
  0
LINE
  5
3E0
100
AcDbEntity
  8
ASSI
100
AcDbLine
 62
7
  6
CONTINUOUS
 10
135.0797374449
 20
101.669801665
 11
134.3212384449
 21
101.669801665
  0
LWPOLYLINE
  5
3E1
100
AcDbEntity
  8
0
100
AcDbPolyline
 62
7
  6
CONTINUOUS
 90
28
 70
0
 10
138.3015401076
 20
98.979913304
 10
138.2716050567
 20
99.0117235192
 10
138.2373883787
 20
99.0404424648
 10
138.1988900736
 20
99.0660701406
 10
138.155780975
 20
99.0888855804
 10
138.1083902493
 20
99.1086097505
 10
138.0577053951
 20
99.1244055501
 10
138.003526106
 20
99.1359420769
 10
137.9460526884
 20
99.1435502331
 10
137.8868735602
 20
99.1473856246
 10
137.8251333986
 20
99.1477357987
 10
137.7616875263
 20
99.144313208
 10
137.7006903296
 20
99.1364108161
 10
137.6429311184
 20
99.1237006348
 10
137.5876205828
 20
99.1065106522
 10
137.5365451784
 20
99.0851177962
 10
137.4904761121
 20
99.0596407903
 10
137.4486421769
 20
99.0299609109
 10
137.4105162079
 20
98.995998916
 10
137.3758652647
 20
98.9578366391
 10
137.3449222877
 20
98.9153922467
 10
137.3178589328
 20
98.8683409952
 10
137.2946470536
 20
98.8161939443
 10
137.2753147967
 20
98.7594400345
 10
137.2601182577
 20
98.6992213438
 10
137.249142802
 20
98.635918565
 10
137.2423030644
 20
98.5691510054
 10
137.2395990448
 20
98.498918665
  0
LWPOLYLINE
  5
3E2
100
AcDbEntity
  8
ASSI
100
AcDbPolyline
 62
7
  6
CONTINUOUS
 90
28
 70
0
 10
138.3015401076
 20
98.979913304
 10
138.2716050567
 20
99.0117235192
 10
138.2373883787
 20
99.0404424648
 10
138.1988900736
 20
99.0660701406
 10
138.155780975
 20
99.0888855804
 10
138.1083902493
 20
99.1086097505
 10
138.0577053951
 20
99.1244055501
 10
138.003526106
 20
99.1359420769
 10
137.9460526884
 20
99.1435502331
 10
137.8868735602
 20
99.1473856246
 10
137.8251333986
 20
99.1477357987
 10
137.7616875263
 20
99.144313208
 10
137.7006903296
 20
99.1364108161
 10
137.6429311184
 20
99.1237006348
 10
137.5876205828
 20
99.1065106522
 10
137.5365451784
 20
99.0851177962
 10
137.4904761121
 20
99.0596407903
 10
137.4486421769
 20
99.0299609109
 10
137.4105162079
 20
98.995998916
 10
137.3758652647
 20
98.9578366391
 10
137.3449222877
 20
98.9153922467
 10
137.3178589328
 20
98.8683409952
 10
137.2946470536
 20
98.8161939443
 10
137.2753147967
 20
98.7594400345
 10
137.2601182577
 20
98.6992213438
 10
137.249142802
 20
98.635918565
 10
137.2423030644
 20
98.5691510054
 10
137.2395990448
 20
98.498918665
  0
LINE
  5
3E3
100
AcDbEntity
  8
0
100
AcDbLine
 62
7
  6
CONTINUOUS
 10
137.2770104449
 20
101.329125665
 11
136.5643354449
 21
103.379125665
  0
LINE
  5
3E4
100
AcDbEntity
  8
ASSI
100
AcDbLine
 62
7
  6
CONTINUOUS
 10
137.2770104449
 20
101.329125665
 11
136.5643354449
 21
103.379125665
  0
LINE
  5
3E5
100
AcDbEntity
  8
0
100
AcDbLine
 62
7
  6
CONTINUOUS
 10
136.6863804449
 20
101.763611665
 11
136.8340374449
 21
101.329125665
  0
LINE
  5
3E6
100
AcDbEntity
  8
ASSI
100
AcDbLine
 62
7
  6
CONTINUOUS
 10
136.6863804449
 20
101.763611665
 11
136.8340374449
 21
101.329125665
  0
LINE
  5
3E7
100
AcDbEntity
  8
0
100
AcDbLine
 62
7
  6
CONTINUOUS
 10
136.2918764449
 20
102.987392665
 11
136.5756754449
 21
102.104288665
  0
LINE
  5
3E8
100
AcDbEntity
  8
ASSI
100
AcDbLine
 62
7
  6
CONTINUOUS
 10
136.2918764449
 20
102.987392665
 11
136.5756754449
 21
102.104288665
  0
LINE
  5
3E9
100
AcDbEntity
  8
ASSI
100
AcDbLine
 62
7
  6
CONTINUOUS
 10
135.4456384449
 20
107.952719665
 11
135.9183764449
 21
106.304062665
  0
LINE
  5
3EA
100
AcDbEntity
  8
ASSI
100
AcDbLine
 62
7
  6
CONTINUOUS
 10
136.1683824449
 20
107.176012665
 11
135.7015134449
 21
108.804175665
  0
LWPOLYLINE
  5
3EB
100
AcDbEntity
  8
0
100
AcDbPolyline
 62
7
  6
CONTINUOUS
 90
33
 70
0
 10
138.7111272318
 20
97.911281347
 10
138.723859705
 20
97.8425640703
 10
138.7398351605
 20
97.7772389382
 10
138.7594106161
 20
97.7162183472
 10
138.7825185311
 20
97.659899479
 10
138.8092264462
 20
97.6078851519
 10
138.8400940012
 20
97.5598962181
 10
138.8752973751
 20
97.5157994091
 10
138.9146603888
 20
97.4757279932
 10
138.9582141446
 20
97.4398026278
 10
139.0061486876
 20
97.4075234476
 10
139.0582739726
 20
97.3793903179
 10
139.1140509668
 20
97.3570234914
 10
139.1747136479
 20
97.3408243597
 10
139.2390280381
 20
97.3303915314
 10
139.3027531714
 20
97.3261410843
 10
139.3654359394
 20
97.3283731963
 10
139.4275294504
 20
97.3367876896
 10
139.4861520632
 20
97.350900109
 10
139.5404205615
 20
97.3707497947
 10
139.5912181616
 20
97.3962974065
 10
139.638312871
 20
97.4269404683
 10
139.6816382384
 20
97.4622506393
 10
139.7212607152
 20
97.5026562602
 10
139.7571476632
 20
97.5488398776
 10
139.7899819028
 20
97.6015666106
 10
139.8190806135
 20
97.6600713402
 10
139.8423626963
 20
97.7227412555
 10
139.8593762366
 20
97.7908687143
 10
139.8705731488
 20
97.8631613589
 10
139.8752280771
 20
97.9341293048
 10
139.8727719214
 20
98.0029655552
 10
139.8637737818
 20
98.0704771069
  0
LWPOLYLINE
  5
3EC
100
AcDbEntity
  8
ASSI
100
AcDbPolyline
 62
7
  6
CONTINUOUS
 90
33
 70
0
 10
138.7111272318
 20
97.911281347
 10
138.723859705
 20
97.8425640703
 10
138.7398351605
 20
97.7772389382
 10
138.7594106161
 20
97.7162183472
 10
138.7825185311
 20
97.659899479
 10
138.8092264462
 20
97.6078851519
 10
138.8400940012
 20
97.5598962181
 10
138.8752973751
 20
97.5157994091
 10
138.9146603888
 20
97.4757279932
 10
138.9582141446
 20
97.4398026278
 10
139.0061486876
 20
97.4075234476
 10
139.0582739726
 20
97.3793903179
 10
139.1140509668
 20
97.3570234914
 10
139.1747136479
 20
97.3408243597
 10
139.2390280381
 20
97.3303915314
 10
139.3027531714
 20
97.3261410843
 10
139.3654359394
 20
97.3283731963
 10
139.4275294504
 20
97.3367876896
 10
139.4861520632
 20
97.350900109
 10
139.5404205615
 20
97.3707497947
 10
139.5912181616
 20
97.3962974065
 10
139.638312871
 20
97.4269404683
 10
139.6816382384
 20
97.4622506393
 10
139.7212607152
 20
97.5026562602
 10
139.7571476632
 20
97.5488398776
 10
139.7899819028
 20
97.6015666106
 10
139.8190806135
 20
97.6600713402
 10
139.8423626963
 20
97.7227412555
 10
139.8593762366
 20
97.7908687143
 10
139.8705731488
 20
97.8631613589
 10
139.8752280771
 20
97.9341293048
 10
139.8727719214
 20
98.0029655552
 10
139.8637737818
 20
98.0704771069
  0
LINE
  5
3ED
100
AcDbEntity
  8
0
100
AcDbLine
 62
7
  6
CONTINUOUS
 10
138.8287604449
 20
93.654125665
 11
138.8287604449
 21
92.054125665
  0
LINE
  5
3EE
100
AcDbEntity
  8
ASSI
100
AcDbLine
 62
7
  6
CONTINUOUS
 10
138.8287604449
 20
93.654125665
 11
138.8287604449
 21
92.054125665
  0
LINE
  5
3EF
100
AcDbEntity
  8
0
100
AcDbLine
 62
7
  6
CONTINUOUS
 10
138.9408174449
 20
103.379125665
 11
138.9408174449
 21
101.754597665
  0
LINE
  5
3F0
100
AcDbEntity
  8
ASSI
100
AcDbLine
 62
7
  6
CONTINUOUS
 10
138.9408174449
 20
103.379125665
 11
138.9408174449
 21
101.754597665
  0
LINE
  5
3F1
100
AcDbEntity
  8
0
100
AcDbLine
 62
7
  6
CONTINUOUS
 10
139.0354264449
 20
85.404125665
 11
139.0354264449
 21
89.804125665
  0
LINE
  5
3F2
100
AcDbEntity
  8
0
100
AcDbLine
 62
7
  6
CONTINUOUS
 10
139.0449704449
 20
92.054125665
 11
139.0449704449
 21
93.654125665
  0
LINE
  5
3F3
100
AcDbEntity
  8
ASSI
100
AcDbLine
 62
7
  6
CONTINUOUS
 10
139.0449704449
 20
92.054125665
 11
139.0449704449
 21
93.654125665
  0
LINE
  5
3F4
100
AcDbEntity
  8
0
100
AcDbLine
 62
7
  6
CONTINUOUS
 10
139.2767344449
 20
93.654125665
 11
139.2767344449
 21
93.462487665
  0
LINE
  5
3F5
100
AcDbEntity
  8
ASSI
100
AcDbLine
 62
7
  6
CONTINUOUS
 10
139.2767344449
 20
93.654125665
 11
139.2767344449
 21
93.462487665
  0
LINE
  5
3F6
100
AcDbEntity
  8
0
100
AcDbLine
 62
7
  6
CONTINUOUS
 10
139.3525464449
 20
101.329125665
 11
139.3525464449
 21
103.379125665
  0
LINE
  5
3F7
100
AcDbEntity
  8
ASSI
100
AcDbLine
 62
7
  6
CONTINUOUS
 10
139.3525464449
 20
101.329125665
 11
139.3525464449
 21
103.379125665
  0
LINE
  5
3F8
100
AcDbEntity
  8
0
100
AcDbLine
 62
7
  6
CONTINUOUS
 10
139.4354264449
 20
85.404125665
 11
139.4354264449
 21
89.804125665
  0
LINE
  5
3F9
100
AcDbEntity
  8
0
100
AcDbLine
 62
7
  6
CONTINUOUS
 10
139.8182634449
 20
93.462487665
 11
139.8182634449
 21
92.054125665
  0
LINE
  5
3FA
100
AcDbEntity
  8
ASSI
100
AcDbLine
 62
7
  6
CONTINUOUS
 10
139.8182634449
 20
93.462487665
 11
139.8182634449
 21
92.054125665
  0
LINE
  5
3FB
100
AcDbEntity
  8
0
100
AcDbLine
 62
7
  6
CONTINUOUS
 10
139.8354264449
 20
85.404125665
 11
139.8354264449
 21
89.804125665
  0
LINE
  5
3FC
100
AcDbEntity
  8
0
100
AcDbLine
 62
7
  6
CONTINUOUS
 10
140.0343954449
 20
92.054125665
 11
140.0343954449
 21
93.462487665
  0
LINE
  5
3FD
100
AcDbEntity
  8
ASSI
100
AcDbLine
 62
7
  6
CONTINUOUS
 10
140.0343954449
 20
92.054125665
 11
140.0343954449
 21
93.462487665
  0
LINE
  5
3FE
100
AcDbEntity
  8
ASSI
100
AcDbLine
 62
7
  6
CONTINUOUS
 10
140.1632764449
 20
108.804181665
 11
140.1632764449
 21
106.304069665
  0
LINE
  5
3FF
100
AcDbEntity
  8
0
100
AcDbLine
 62
7
  6
CONTINUOUS
 10
140.2354264449
 20
85.404125665
 11
140.2354264449
 21
89.804125665
  0
LWPOLYLINE
  5
400
100
AcDbEntity
  8
0
100
AcDbPolyline
 62
7
  6
CONTINUOUS
 90
34
 70
0
 10
138.909084882
 20
98.2816564986
 10
138.9102069374
 20
98.3461833938
 10
138.9136085317
 20
98.4083058013
 10
138.9192896652
 20
98.4680237212
 10
138.9270190556
 20
98.5255810235
 10
138.937027985
 20
98.5807338382
 10
138.9500102996
 20
98.6327505545
 10
138.9664249966
 20
98.6815239567
 10
138.9858130788
 20
98.7271612605
 10
139.0074914005
 20
98.7692525015
 10
139.031492544
 20
98.8078127397
 10
139.0577839271
 20
98.842826915
 10
139.0855846575
 20
98.8738398827
 10
139.1146239934
 20
98.9007589566
 10
139.1451726767
 20
98.9236768227
 10
139.1772620415
 20
98.9424163948
 10
139.2111216238
 20
98.9568965415
 10
139.2465218877
 20
98.967198394
 10
139.2828055588
 20
98.9733882602
 10
139.3208271702
 20
98.9753651741
 10
139.3597321888
 20
98.9732301017
 10
139.3962997419
 20
98.9673522479
 10
139.4296582678
 20
98.9573320767
 10
139.4606793282
 20
98.9435691241
 10
139.4887567353
 20
98.9276312042
 10
139.5135408833
 20
98.9100389921
 10
139.5353813781
 20
98.8902718127
 10
139.5547208497
 20
98.8683354547
 10
139.571398526
 20
98.8441755673
 10
139.5855751791
 20
98.8178465014
 10
139.5981757555
 20
98.7895170983
 10
139.6095085706
 20
98.7592436385
 10
139.6192653089
 20
98.7269698415
 10
139.6274459705
 20
98.6926957073
  0
LWPOLYLINE
  5
401
100
AcDbEntity
  8
ASSI
100
AcDbPolyline
 62
7
  6
CONTINUOUS
 90
34
 70
0
 10
138.909084882
 20
98.2816564986
 10
138.9102069374
 20
98.3461833938
 10
138.9136085317
 20
98.4083058013
 10
138.9192896652
 20
98.4680237212
 10
138.9270190556
 20
98.5255810235
 10
138.937027985
 20
98.5807338382
 10
138.9500102996
 20
98.6327505545
 10
138.9664249966
 20
98.6815239567
 10
138.9858130788
 20
98.7271612605
 10
139.0074914005
 20
98.7692525015
 10
139.031492544
 20
98.8078127397
 10
139.0577839271
 20
98.842826915
 10
139.0855846575
 20
98.8738398827
 10
139.1146239934
 20
98.9007589566
 10
139.1451726767
 20
98.9236768227
 10
139.1772620415
 20
98.9424163948
 10
139.2111216238
 20
98.9568965415
 10
139.2465218877
 20
98.967198394
 10
139.2828055588
 20
98.9733882602
 10
139.3208271702
 20
98.9753651741
 10
139.3597321888
 20
98.9732301017
 10
139.3962997419
 20
98.9673522479
 10
139.4296582678
 20
98.9573320767
 10
139.4606793282
 20
98.9435691241
 10
139.4887567353
 20
98.9276312042
 10
139.5135408833
 20
98.9100389921
 10
139.5353813781
 20
98.8902718127
 10
139.5547208497
 20
98.8683354547
 10
139.571398526
 20
98.8441755673
 10
139.5855751791
 20
98.8178465014
 10
139.5981757555
 20
98.7895170983
 10
139.6095085706
 20
98.7592436385
 10
139.6192653089
 20
98.7269698415
 10
139.6274459705
 20
98.6926957073
  0
LWPOLYLINE
  5
402
100
AcDbEntity
  8
0
100
AcDbPolyline
 62
7
  6
CONTINUOUS
 90
7
 70
0
 10
138.944126882
 20
97.9369073299
 10
138.9463182489
 20
97.9838662312
 10
138.9522606264
 20
98.0280022582
 10
138.9619540144
 20
98.0693154108
 10
138.9754329915
 20
98.1076905266
 10
138.9926629792
 20
98.143242768
 10
139.0135402422
 20
98.1763176224
  0
LWPOLYLINE
  5
403
100
AcDbEntity
  8
ASSI
100
AcDbPolyline
 62
7
  6
CONTINUOUS
 90
7
 70
0
 10
138.944126882
 20
97.9369073299
 10
138.9463182489
 20
97.9838662312
 10
138.9522606264
 20
98.0280022582
 10
138.9619540144
 20
98.0693154108
 10
138.9754329915
 20
98.1076905266
 10
138.9926629792
 20
98.143242768
 10
139.0135402422
 20
98.1763176224
  0
LINE
  5
404
100
AcDbEntity
  8
RACCORDO
100
AcDbLine
 62
7
  6
CONTINUOUS
 10
141.447230563
 20
119.112331345
 11
141.4577028043
 21
119.2809803466
  0
LINE
  5
405
100
AcDbEntity
  8
ASSI
100
AcDbLine
 62
7
  6
CONTINUOUS
 10
141.447230563
 20
119.112331345
 11
141.4577028043
 21
119.2809803466
  0
LWPOLYLINE
  5
406
100
AcDbEntity
  8
0
100
AcDbPolyline
 62
7
  6
CONTINUOUS
 90
28
 70
0
 10
139.6496239899
 20
97.9021150797
 10
139.6454959241
 20
97.8475906562
 10
139.6371195771
 20
97.7968474225
 10
139.6244949489
 20
97.7498853786
 10
139.607312622
 20
97.7066454004
 10
139.5858820138
 20
97.6671866119
 10
139.5611313767
 20
97.6316863855
 10
139.532736159
 20
97.5999012654
 10
139.5010209123
 20
97.5720747072
 10
139.4678875437
 20
97.5491144511
 10
139.4340548463
 20
97.5313918173
 10
139.398804027
 20
97.5185354856
 10
139.3618806131
 20
97.5103392341
 10
139.3224303517
 20
97.506620651
 10
139.2813074956
 20
97.5075621481
 10
139.2408203311
 20
97.51350474
 10
139.2010523911
 20
97.5248302986
 10
139.1619201425
 20
97.541156952
 10
139.1254812729
 20
97.5616800979
 10
139.0923212486
 20
97.5859983489
 10
139.0618546032
 20
97.6145130925
 10
139.0343826246
 20
97.647623889
 10
139.0095951659
 20
97.6857119835
 10
138.987802374
 20
97.7283961309
 10
138.9702359769
 20
97.7749321567
 10
138.9573065505
 20
97.8250720028
 10
138.9486035189
 20
97.8790637271
 10
138.944126882
 20
97.9369073299
  0
LWPOLYLINE
  5
407
100
AcDbEntity
  8
ASSI
100
AcDbPolyline
 62
7
  6
CONTINUOUS
 90
28
 70
0
 10
139.6496239899
 20
97.9021150797
 10
139.6454959241
 20
97.8475906562
 10
139.6371195771
 20
97.7968474225
 10
139.6244949489
 20
97.7498853786
 10
139.607312622
 20
97.7066454004
 10
139.5858820138
 20
97.6671866119
 10
139.5611313767
 20
97.6316863855
 10
139.532736159
 20
97.5999012654
 10
139.5010209123
 20
97.5720747072
 10
139.4678875437
 20
97.5491144511
 10
139.4340548463
 20
97.5313918173
 10
139.398804027
 20
97.5185354856
 10
139.3618806131
 20
97.5103392341
 10
139.3224303517
 20
97.506620651
 10
139.2813074956
 20
97.5075621481
 10
139.2408203311
 20
97.51350474
 10
139.2010523911
 20
97.5248302986
 10
139.1619201425
 20
97.541156952
 10
139.1254812729
 20
97.5616800979
 10
139.0923212486
 20
97.5859983489
 10
139.0618546032
 20
97.6145130925
 10
139.0343826246
 20
97.647623889
 10
139.0095951659
 20
97.6857119835
 10
138.987802374
 20
97.7283961309
 10
138.9702359769
 20
97.7749321567
 10
138.9573065505
 20
97.8250720028
 10
138.9486035189
 20
97.8790637271
 10
138.944126882
 20
97.9369073299
  0
LINE
  5
408
100
AcDbEntity
  8
0
100
AcDbLine
 62
7
  6
CONTINUOUS
 10
140.2469764449
 20
102.104288665
 11
140.5509134449
 21
102.987276665
  0
LINE
  5
409
100
AcDbEntity
  8
ASSI
100
AcDbLine
 62
7
  6
CONTINUOUS
 10
140.2469764449
 20
102.104288665
 11
140.5509134449
 21
102.987276665
  0
LINE
  5
40A
100
AcDbEntity
  8
0
100
AcDbLine
 62
7
  6
CONTINUOUS
 10
139.9800514449
 20
101.329125665
 11
140.1334174449
 21
101.763611665
  0
LINE
  5
40B
100
AcDbEntity
  8
ASSI
100
AcDbLine
 62
7
  6
CONTINUOUS
 10
139.9800514449
 20
101.329125665
 11
140.1334174449
 21
101.763611665
  0
LINE
  5
40C
100
AcDbEntity
  8
0
100
AcDbLine
 62
7
  6
CONTINUOUS
 10
140.3009794449
 20
103.379125665
 11
139.5598374449
 21
101.329125665
  0
LINE
  5
40D
100
AcDbEntity
  8
ASSI
100
AcDbLine
 62
7
  6
CONTINUOUS
 10
140.3009794449
 20
103.379125665
 11
139.5598374449
 21
101.329125665
  0
LWPOLYLINE
  5
40E
100
AcDbEntity
  8
0
100
AcDbPolyline
 62
7
  6
CONTINUOUS
 90
25
 70
0
 10
139.0135402422
 20
98.1763176224
 10
139.0386384111
 20
98.2075054457
 10
139.0673838552
 20
98.2362158819
 10
139.097951947
 20
98.2610233508
 10
139.1297037503
 20
98.2814742943
 10
139.1632782014
 20
98.2980222704
 10
139.1987674814
 20
98.3106023734
 10
139.2370533446
 20
98.3192049143
 10
139.2772540367
 20
98.323839582
 10
139.3168164765
 20
98.3244705377
 10
139.3553991843
 20
98.3209997696
 10
139.3933436396
 20
98.3135252896
 10
139.4291212001
 20
98.3023052948
 10
139.462229082
 20
98.2873652548
 10
139.4931700691
 20
98.2686796999
 10
139.5219238706
 20
98.2464304184
 10
139.5488531136
 20
98.2205297456
 10
139.5735951709
 20
98.1910653461
 10
139.595041871
 20
98.1584820014
 10
139.612923054
 20
98.1227894005
 10
139.6275088796
 20
98.0839778545
 10
139.6385016553
 20
98.042463078
 10
139.6458021502
 20
97.9983836424
 10
139.649509595
 20
97.9516009764
 10
139.6496239899
 20
97.9021150797
  0
LWPOLYLINE
  5
40F
100
AcDbEntity
  8
ASSI
100
AcDbPolyline
 62
7
  6
CONTINUOUS
 90
25
 70
0
 10
139.0135402422
 20
98.1763176224
 10
139.0386384111
 20
98.2075054457
 10
139.0673838552
 20
98.2362158819
 10
139.097951947
 20
98.2610233508
 10
139.1297037503
 20
98.2814742943
 10
139.1632782014
 20
98.2980222704
 10
139.1987674814
 20
98.3106023734
 10
139.2370533446
 20
98.3192049143
 10
139.2772540367
 20
98.323839582
 10
139.3168164765
 20
98.3244705377
 10
139.3553991843
 20
98.3209997696
 10
139.3933436396
 20
98.3135252896
 10
139.4291212001
 20
98.3023052948
 10
139.462229082
 20
98.2873652548
 10
139.4931700691
 20
98.2686796999
 10
139.5219238706
 20
98.2464304184
 10
139.5488531136
 20
98.2205297456
 10
139.5735951709
 20
98.1910653461
 10
139.595041871
 20
98.1584820014
 10
139.612923054
 20
98.1227894005
 10
139.6275088796
 20
98.0839778545
 10
139.6385016553
 20
98.042463078
 10
139.6458021502
 20
97.9983836424
 10
139.649509595
 20
97.9516009764
 10
139.6496239899
 20
97.9021150797
  0
LWPOLYLINE
  5
410
100
AcDbEntity
  8
0
100
AcDbPolyline
 62
7
  6
CONTINUOUS
 90
16
 70
0
 10
138.2922661279
 20
98.2339946649
 10
138.3290583109
 20
98.2750379081
 10
138.3607689216
 20
98.3180331137
 10
138.3873979601
 20
98.3629802818
 10
138.4089302502
 20
98.4099219057
 10
138.425380968
 20
98.4588154919
 10
138.4367956421
 20
98.5095335607
 10
138.4432804726
 20
98.5628227528
 10
138.4447292593
 20
98.6179364274
 10
138.4408689307
 20
98.6725071824
 10
138.4317613996
 20
98.7258896724
 10
138.4173447531
 20
98.7787292428
 10
138.3971601817
 20
98.8305945277
 10
138.3710547486
 20
98.8813417386
 10
138.3391813906
 20
98.931114664
 10
138.3015401076
 20
98.979913304
  0
LWPOLYLINE
  5
411
100
AcDbEntity
  8
ASSI
100
AcDbPolyline
 62
7
  6
CONTINUOUS
 90
16
 70
0
 10
138.2922661279
 20
98.2339946649
 10
138.3290583109
 20
98.2750379081
 10
138.3607689216
 20
98.3180331137
 10
138.3873979601
 20
98.3629802818
 10
138.4089302502
 20
98.4099219057
 10
138.425380968
 20
98.4588154919
 10
138.4367956421
 20
98.5095335607
 10
138.4432804726
 20
98.5628227528
 10
138.4447292593
 20
98.6179364274
 10
138.4408689307
 20
98.6725071824
 10
138.4317613996
 20
98.7258896724
 10
138.4173447531
 20
98.7787292428
 10
138.3971601817
 20
98.8305945277
 10
138.3710547486
 20
98.8813417386
 10
138.3391813906
 20
98.931114664
 10
138.3015401076
 20
98.979913304
  0
LINE
  5
412
100
AcDbEntity
  8
0
100
AcDbLine
 62
7
  6
CONTINUOUS
 10
131.0354264449
 20
89.404125665
 11
131.4354264449
 21
89.804125665
  0
LWPOLYLINE
  5
413
100
AcDbEntity
  8
0
100
AcDbPolyline
 62
7
  6
CONTINUOUS
 90
10
 70
0
 10
138.0906632202
 20
98.3553443385
 10
138.0697954169
 20
98.3355890329
 10
138.0476818091
 20
98.3163651702
 10
138.0243223966
 20
98.2976727504
 10
137.9995517397
 20
98.2796308317
 10
137.9735352781
 20
98.2621203559
 10
137.9467693316
 20
98.2447841489
 10
137.9194193398
 20
98.2275031527
 10
137.8913198631
 20
98.2103964252
 10
137.8624709013
 20
98.1934639666
  0
LWPOLYLINE
  5
414
100
AcDbEntity
  8
ASSI
100
AcDbPolyline
 62
7
  6
CONTINUOUS
 90
10
 70
0
 10
138.0906632202
 20
98.3553443385
 10
138.0697954169
 20
98.3355890329
 10
138.0476818091
 20
98.3163651702
 10
138.0243223966
 20
98.2976727504
 10
137.9995517397
 20
98.2796308317
 10
137.9735352781
 20
98.2621203559
 10
137.9467693316
 20
98.2447841489
 10
137.9194193398
 20
98.2275031527
 10
137.8913198631
 20
98.2103964252
 10
137.8624709013
 20
98.1934639666
  0
LWPOLYLINE
  5
415
100
AcDbEntity
  8
0
100
AcDbPolyline
 62
7
  6
CONTINUOUS
 90
16
 70
0
 10
137.620337256
 20
98.0533642831
 10
137.5634428334
 20
98.0188197556
 10
137.5108512402
 20
97.9826652114
 10
137.4625624764
 20
97.9449006503
 10
137.4184207602
 20
97.9055982897
 10
137.3785818734
 20
97.8646859124
 10
137.3435131611
 20
97.8219468662
 10
137.3139265752
 20
97.7775639475
 10
137.2891101638
 20
97.73135436
 10
137.2673954159
 20
97.6825530633
 10
137.2483473201
 20
97.6309513269
 10
137.2324008879
 20
97.5767578814
 10
137.2191926427
 20
97.5198338773
 10
137.208601426
 20
97.4601330317
 10
137.2007483963
 20
97.3977016276
 10
137.1956335538
 20
97.332539665
  0
LWPOLYLINE
  5
416
100
AcDbEntity
  8
ASSI
100
AcDbPolyline
 62
7
  6
CONTINUOUS
 90
16
 70
0
 10
137.620337256
 20
98.0533642831
 10
137.5634428334
 20
98.0188197556
 10
137.5108512402
 20
97.9826652114
 10
137.4625624764
 20
97.9449006503
 10
137.4184207602
 20
97.9055982897
 10
137.3785818734
 20
97.8646859124
 10
137.3435131611
 20
97.8219468662
 10
137.3139265752
 20
97.7775639475
 10
137.2891101638
 20
97.73135436
 10
137.2673954159
 20
97.6825530633
 10
137.2483473201
 20
97.6309513269
 10
137.2324008879
 20
97.5767578814
 10
137.2191926427
 20
97.5198338773
 10
137.208601426
 20
97.4601330317
 10
137.2007483963
 20
97.3977016276
 10
137.1956335538
 20
97.332539665
  0
LINE
  5
417
100
AcDbEntity
  8
0
100
AcDbLine
 62
7
  6
CONTINUOUS
 10
137.8624709013
 20
98.1934639666
 11
137.620337256
 21
98.0533642831
  0
LINE
  5
418
100
AcDbEntity
  8
ASSI
100
AcDbLine
 62
7
  6
CONTINUOUS
 10
137.8624709013
 20
98.1934639666
 11
137.620337256
 21
98.0533642831
  0
LWPOLYLINE
  5
419
100
AcDbEntity
  8
0
100
AcDbPolyline
 62
7
  6
CONTINUOUS
 90
4
 70
0
 10
137.7788164576
 20
97.9065174448
 10
137.8748612646
 20
97.9611978608
 10
137.924782639
 20
97.9889166557
 10
137.9761023644
 20
98.0167532856
  0
LWPOLYLINE
  5
41A
100
AcDbEntity
  8
ASSI
100
AcDbPolyline
 62
7
  6
CONTINUOUS
 90
4
 70
0
 10
137.7788164576
 20
97.9065174448
 10
137.8748612646
 20
97.9611978608
 10
137.924782639
 20
97.9889166557
 10
137.9761023644
 20
98.0167532856
  0
LWPOLYLINE
  5
41B
100
AcDbEntity
  8
0
100
AcDbPolyline
 62
7
  6
CONTINUOUS
 90
10
 70
0
 10
137.9761023644
 20
98.0167532856
 10
138.0171691664
 20
98.0395978951
 10
138.0568494382
 20
98.0626936736
 10
138.09514318
 20
98.086040621
 10
138.1321808497
 20
98.1095425221
 10
138.1678319893
 20
98.1332955921
 10
138.2017052243
 20
98.1575884768
 10
138.2336700967
 20
98.1825173915
 10
138.2638570646
 20
98.2079861208
 10
138.2922661279
 20
98.2339946649
  0
LWPOLYLINE
  5
41C
100
AcDbEntity
  8
ASSI
100
AcDbPolyline
 62
7
  6
CONTINUOUS
 90
10
 70
0
 10
137.9761023644
 20
98.0167532856
 10
138.0171691664
 20
98.0395978951
 10
138.0568494382
 20
98.0626936736
 10
138.09514318
 20
98.086040621
 10
138.1321808497
 20
98.1095425221
 10
138.1678319893
 20
98.1332955921
 10
138.2017052243
 20
98.1575884768
 10
138.2336700967
 20
98.1825173915
 10
138.2638570646
 20
98.2079861208
 10
138.2922661279
 20
98.2339946649
  0
LWPOLYLINE
  5
41D
100
AcDbEntity
  8
0
100
AcDbPolyline
 62
7
  6
CONTINUOUS
 90
22
 70
0
 10
132.7621711935
 20
102.118560665
 10
132.834244235
 20
102.1195018543
 10
132.9039692118
 20
102.1228368406
 10
132.9713461239
 20
102.1285656238
 10
133.0365926393
 20
102.1364586489
 10
133.0994910901
 20
102.1467454711
 10
133.1593884724
 20
102.1601147551
 10
133.2164239359
 20
102.176798671
 10
133.270458331
 20
102.1965650488
 10
133.3204212047
 20
102.2194060438
 10
133.3659284229
 20
102.2452983065
 10
133.4073641197
 20
102.2742651864
 10
133.4448102448
 20
102.3063688871
 10
133.4782134772
 20
102.3414053802
 10
133.5076271379
 20
102.3795786942
 10
133.5332931402
 20
102.421563118
 10
133.5554166744
 20
102.4678059473
 10
133.5737925502
 20
102.5178598865
 10
133.5880471099
 20
102.5710573375
 10
133.5980558009
 20
102.6271757679
 10
133.6039431758
 20
102.6864377101
 10
133.6057092345
 20
102.7488431643
  0
LWPOLYLINE
  5
41E
100
AcDbEntity
  8
ASSI
100
AcDbPolyline
 62
7
  6
CONTINUOUS
 90
22
 70
0
 10
132.7621711935
 20
102.118560665
 10
132.834244235
 20
102.1195018543
 10
132.9039692118
 20
102.1228368406
 10
132.9713461239
 20
102.1285656238
 10
133.0365926393
 20
102.1364586489
 10
133.0994910901
 20
102.1467454711
 10
133.1593884724
 20
102.1601147551
 10
133.2164239359
 20
102.176798671
 10
133.270458331
 20
102.1965650488
 10
133.3204212047
 20
102.2194060438
 10
133.3659284229
 20
102.2452983065
 10
133.4073641197
 20
102.2742651864
 10
133.4448102448
 20
102.3063688871
 10
133.4782134772
 20
102.3414053802
 10
133.5076271379
 20
102.3795786942
 10
133.5332931402
 20
102.421563118
 10
133.5554166744
 20
102.4678059473
 10
133.5737925502
 20
102.5178598865
 10
133.5880471099
 20
102.5710573375
 10
133.5980558009
 20
102.6271757679
 10
133.6039431758
 20
102.6864377101
 10
133.6057092345
 20
102.7488431643
  0
LINE
  5
41F
100
AcDbEntity
  8
0
100
AcDbLine
 62
7
  6
CONTINUOUS
 10
135.8743414449
 20
101.763611665
 11
136.6863804449
 21
101.763611665
  0
LINE
  5
420
100
AcDbEntity
  8
ASSI
100
AcDbLine
 62
7
  6
CONTINUOUS
 10
135.8743414449
 20
101.763611665
 11
136.6863804449
 21
101.763611665
  0
LINE
  5
421
100
AcDbEntity
  8
0
100
AcDbLine
 62
7
  6
CONTINUOUS
 10
140.1334174449
 20
101.763611665
 11
140.9454564449
 21
101.763611665
  0
LINE
  5
422
100
AcDbEntity
  8
ASSI
100
AcDbLine
 62
7
  6
CONTINUOUS
 10
140.1334174449
 20
101.763611665
 11
140.9454564449
 21
101.763611665
  0
LINE
  5
423
100
AcDbEntity
  8
0
100
AcDbLine
 62
7
  6
CONTINUOUS
 10
140.8346754449
 20
102.104288665
 11
140.2469764449
 21
102.104288665
  0
LINE
  5
424
100
AcDbEntity
  8
ASSI
100
AcDbLine
 62
7
  6
CONTINUOUS
 10
140.8346754449
 20
102.104288665
 11
140.2469764449
 21
102.104288665
  0
LINE
  5
425
100
AcDbEntity
  8
0
100
AcDbLine
 62
7
  6
CONTINUOUS
 10
136.5756754449
 20
102.104288665
 11
135.9879004449
 21
102.104288665
  0
LINE
  5
426
100
AcDbEntity
  8
ASSI
100
AcDbLine
 62
7
  6
CONTINUOUS
 10
136.5756754449
 20
102.104288665
 11
135.9879004449
 21
102.104288665
  0
LINE
  5
427
100
AcDbEntity
  8
0
100
AcDbLine
 62
7
  6
CONTINUOUS
 10
132.5749614449
 20
102.118560665
 11
132.7621711935
 21
102.118560665
  0
LINE
  5
428
100
AcDbEntity
  8
ASSI
100
AcDbLine
 62
7
  6
CONTINUOUS
 10
132.5749614449
 20
102.118560665
 11
132.7621711935
 21
102.118560665
  0
LINE
  5
429
100
AcDbEntity
  8
0
100
AcDbLine
 62
7
  6
CONTINUOUS
 10
132.8317142285
 20
102.459236665
 11
132.5749614449
 21
102.459236665
  0
LINE
  5
42A
100
AcDbEntity
  8
ASSI
100
AcDbLine
 62
7
  6
CONTINUOUS
 10
132.8317142285
 20
102.459236665
 11
132.5749614449
 21
102.459236665
  0
LINE
  5
42B
100
AcDbEntity
  8
0
100
AcDbLine
 62
7
  6
CONTINUOUS
 10
132.5749614449
 20
103.038449665
 11
132.831714216
 21
103.038449665
  0
LINE
  5
42C
100
AcDbEntity
  8
ASSI
100
AcDbLine
 62
7
  6
CONTINUOUS
 10
132.5749614449
 20
103.038449665
 11
132.831714216
 21
103.038449665
  0
LWPOLYLINE
  5
42D
100
AcDbEntity
  8
0
100
AcDbPolyline
 62
7
  6
CONTINUOUS
 90
16
 70
0
 10
132.831714216
 20
103.038449665
 10
132.8653053629
 20
103.0360965738
 10
132.8974933204
 20
103.0323216242
 10
132.9282780884
 20
103.0271248162
 10
132.957809976
 20
103.0211484758
 10
132.9859386741
 20
103.0137502771
 10
133.0122132558
 20
103.0030032414
 10
133.0367162298
 20
102.9884197078
 10
133.0593650873
 20
102.9704873374
 10
133.0794613747
 20
102.9487421342
 10
133.0970625197
 20
102.9226009246
 10
133.1121110945
 20
102.8926468824
 10
133.1237363624
 20
102.8601655327
 10
133.1316480779
 20
102.825585384
 10
133.1361364864
 20
102.7884779279
 10
133.1372015881
 20
102.7488431643
  0
LWPOLYLINE
  5
42E
100
AcDbEntity
  8
ASSI
100
AcDbPolyline
 62
7
  6
CONTINUOUS
 90
16
 70
0
 10
132.831714216
 20
103.038449665
 10
132.8653053629
 20
103.0360965738
 10
132.8974933204
 20
103.0323216242
 10
132.9282780884
 20
103.0271248162
 10
132.957809976
 20
103.0211484758
 10
132.9859386741
 20
103.0137502771
 10
133.0122132558
 20
103.0030032414
 10
133.0367162298
 20
102.9884197078
 10
133.0593650873
 20
102.9704873374
 10
133.0794613747
 20
102.9487421342
 10
133.0970625197
 20
102.9226009246
 10
133.1121110945
 20
102.8926468824
 10
133.1237363624
 20
102.8601655327
 10
133.1316480779
 20
102.825585384
 10
133.1361364864
 20
102.7884779279
 10
133.1372015881
 20
102.7488431643
  0
LINE
  5
42F
100
AcDbEntity
  8
0
100
AcDbLine
 62
7
  6
CONTINUOUS
 10
143.3637674449
 20
93.654125665
 11
143.9676654449
 21
92.698136665
  0
LINE
  5
430
100
AcDbEntity
  8
ASSI
100
AcDbLine
 62
7
  6
CONTINUOUS
 10
143.3637674449
 20
93.654125665
 11
143.9676654449
 21
92.698136665
  0
LINE
  5
431
100
AcDbEntity
  8
0
100
AcDbLine
 62
7
  6
CONTINUOUS
 10
144.0746774449
 20
92.885245665
 11
143.6155744449
 21
93.654125665
  0
LINE
  5
432
100
AcDbEntity
  8
ASSI
100
AcDbLine
 62
7
  6
CONTINUOUS
 10
144.0746774449
 20
92.885245665
 11
143.6155744449
 21
93.654125665
  0
LINE
  5
433
100
AcDbEntity
  8
0
100
AcDbLine
 62
7
  6
CONTINUOUS
 10
138.9408174449
 20
101.754597665
 11
138.1543144449
 21
103.379125665
  0
LINE
  5
434
100
AcDbEntity
  8
ASSI
100
AcDbLine
 62
7
  6
CONTINUOUS
 10
138.9408174449
 20
101.754597665
 11
138.1543144449
 21
103.379125665
  0
LINE
  5
435
100
AcDbEntity
  8
0
100
AcDbLine
 62
7
  6
CONTINUOUS
 10
137.9130014449
 20
103.044836665
 11
138.7278944449
 21
101.329125665
  0
LINE
  5
436
100
AcDbEntity
  8
ASSI
100
AcDbLine
 62
7
  6
CONTINUOUS
 10
137.9130014449
 20
103.044836665
 11
138.7278944449
 21
101.329125665
  0
LINE
  5
437
100
AcDbEntity
  8
0
100
AcDbLine
 62
7
  6
CONTINUOUS
 10
142.0646164449
 20
92.054125665
 11
141.4851354449
 21
93.654125665
  0
LINE
  5
438
100
AcDbEntity
  8
ASSI
100
AcDbLine
 62
7
  6
CONTINUOUS
 10
142.0646164449
 20
92.054125665
 11
141.4851354449
 21
93.654125665
  0
LINE
  5
439
100
AcDbEntity
  8
0
100
AcDbLine
 62
7
  6
CONTINUOUS
 10
141.6701224449
 20
92.519827665
 11
141.8283364449
 21
92.054125665
  0
LINE
  5
43A
100
AcDbEntity
  8
ASSI
100
AcDbLine
 62
7
  6
CONTINUOUS
 10
141.6701224449
 20
92.519827665
 11
141.8283364449
 21
92.054125665
  0
LINE
  5
43B
100
AcDbEntity
  8
0
100
AcDbLine
 62
7
  6
CONTINUOUS
 10
141.3537194449
 20
93.422047665
 11
141.5921084449
 21
92.711464665
  0
LINE
  5
43C
100
AcDbEntity
  8
ASSI
100
AcDbLine
 62
7
  6
CONTINUOUS
 10
141.3537194449
 20
93.422047665
 11
141.5921084449
 21
92.711464665
  0
LWPOLYLINE
  5
43D
100
AcDbEntity
  8
0
100
AcDbPolyline
 62
7
  6
CONTINUOUS
 90
23
 70
0
 10
139.8637737818
 20
98.0704771069
 10
139.8492156024
 20
98.1335950665
 10
139.8293590981
 20
98.1910151898
 10
139.8039425541
 20
98.2440417208
 10
139.7731627696
 20
98.2935184983
 10
139.7360806976
 20
98.3405058346
 10
139.6936353851
 20
98.3839434173
 10
139.6488407733
 20
98.4214941483
 10
139.6027970334
 20
98.4523278986
 10
139.5544039942
 20
98.4772747971
 10
139.5033750829
 20
98.4964881325
 10
139.4487008312
 20
98.5101388419
 10
139.3913907075
 20
98.5180559882
 10
139.3341865448
 20
98.5198800495
 10
139.2770268802
 20
98.5151780232
 10
139.2199731767
 20
98.5043829119
 10
139.165951656
 20
98.4884342009
 10
139.1160216488
 20
98.4678205635
 10
139.0691238245
 20
98.4420533265
 10
139.0250064126
 20
98.4106059549
 10
138.9835854899
 20
98.3733029373
 10
138.9449449797
 20
98.3303197852
 10
138.909084882
 20
98.2816564986
  0
LWPOLYLINE
  5
43E
100
AcDbEntity
  8
ASSI
100
AcDbPolyline
 62
7
  6
CONTINUOUS
 90
23
 70
0
 10
139.8637737818
 20
98.0704771069
 10
139.8492156024
 20
98.1335950665
 10
139.8293590981
 20
98.1910151898
 10
139.8039425541
 20
98.2440417208
 10
139.7731627696
 20
98.2935184983
 10
139.7360806976
 20
98.3405058346
 10
139.6936353851
 20
98.3839434173
 10
139.6488407733
 20
98.4214941483
 10
139.6027970334
 20
98.4523278986
 10
139.5544039942
 20
98.4772747971
 10
139.5033750829
 20
98.4964881325
 10
139.4487008312
 20
98.5101388419
 10
139.3913907075
 20
98.5180559882
 10
139.3341865448
 20
98.5198800495
 10
139.2770268802
 20
98.5151780232
 10
139.2199731767
 20
98.5043829119
 10
139.165951656
 20
98.4884342009
 10
139.1160216488
 20
98.4678205635
 10
139.0691238245
 20
98.4420533265
 10
139.0250064126
 20
98.4106059549
 10
138.9835854899
 20
98.3733029373
 10
138.9449449797
 20
98.3303197852
 10
138.909084882
 20
98.2816564986
  0
LWPOLYLINE
  5
43F
100
AcDbEntity
  8
0
100
AcDbPolyline
 62
7
  6
CONTINUOUS
 90
37
 70
0
 10
139.8452069625
 20
98.7102167067
 10
139.8340526906
 20
98.7719235236
 10
139.8184113091
 20
98.828974225
 10
139.798282818
 20
98.881368811
 10
139.7735485428
 20
98.9289586694
 10
139.7443271579
 20
98.9718924122
 10
139.7109746875
 20
99.0106158764
 10
139.6735052341
 20
99.0454904964
 10
139.6319046951
 20
99.0761548376
 10
139.5864867868
 20
99.1019704329
 10
139.5372432778
 20
99.1228952593
 10
139.4841823996
 20
99.1389713397
 10
139.4276425622
 20
99.1496862756
 10
139.3659418687
 20
99.1550016638
 10
139.3007622161
 20
99.1549559075
 10
139.2374877055
 20
99.1491518166
 10
139.1773763058
 20
99.1373950825
 10
139.1191700481
 20
99.1198800138
 10
139.0644791282
 20
99.0967923468
 10
139.0139106144
 20
99.0682867107
 10
138.9668574383
 20
99.0342084763
 10
138.9231085895
 20
98.9942794922
 10
138.8823089548
 20
98.9482636359
 10
138.8448136473
 20
98.89639703
 10
138.8114769967
 20
98.8391098907
 10
138.7826448237
 20
98.7762836128
 10
138.7579713075
 20
98.7080368016
 10
138.7372733153
 20
98.6351554893
 10
138.7206444107
 20
98.5566143351
 10
138.7079910299
 20
98.4734386798
 10
138.6988493496
 20
98.3894905779
 10
138.6932755061
 20
98.3047989867
 10
138.6912133629
 20
98.219334949
 10
138.6920306872
 20
98.1368736479
 10
138.695395563
 20
98.058543675
 10
138.7016399063
 20
97.9832164387
 10
138.7111272318
 20
97.911281347
  0
LWPOLYLINE
  5
440
100
AcDbEntity
  8
ASSI
100
AcDbPolyline
 62
7
  6
CONTINUOUS
 90
37
 70
0
 10
139.8452069625
 20
98.7102167067
 10
139.8340526906
 20
98.7719235236
 10
139.8184113091
 20
98.828974225
 10
139.798282818
 20
98.881368811
 10
139.7735485428
 20
98.9289586694
 10
139.7443271579
 20
98.9718924122
 10
139.7109746875
 20
99.0106158764
 10
139.6735052341
 20
99.0454904964
 10
139.6319046951
 20
99.0761548376
 10
139.5864867868
 20
99.1019704329
 10
139.5372432778
 20
99.1228952593
 10
139.4841823996
 20
99.1389713397
 10
139.4276425622
 20
99.1496862756
 10
139.3659418687
 20
99.1550016638
 10
139.3007622161
 20
99.1549559075
 10
139.2374877055
 20
99.1491518166
 10
139.1773763058
 20
99.1373950825
 10
139.1191700481
 20
99.1198800138
 10
139.0644791282
 20
99.0967923468
 10
139.0139106144
 20
99.0682867107
 10
138.9668574383
 20
99.0342084763
 10
138.9231085895
 20
98.9942794922
 10
138.8823089548
 20
98.9482636359
 10
138.8448136473
 20
98.89639703
 10
138.8114769967
 20
98.8391098907
 10
138.7826448237
 20
98.7762836128
 10
138.7579713075
 20
98.7080368016
 10
138.7372733153
 20
98.6351554893
 10
138.7206444107
 20
98.5566143351
 10
138.7079910299
 20
98.4734386798
 10
138.6988493496
 20
98.3894905779
 10
138.6932755061
 20
98.3047989867
 10
138.6912133629
 20
98.219334949
 10
138.6920306872
 20
98.1368736479
 10
138.695395563
 20
98.058543675
 10
138.7016399063
 20
97.9832164387
 10
138.7111272318
 20
97.911281347
  0
LINE
  5
441
100
AcDbEntity
  8
0
100
AcDbLine
 62
7
  6
CONTINUOUS
 10
140.5759244449
 20
93.462487665
 11
140.5759244449
 21
93.654125665
  0
LINE
  5
442
100
AcDbEntity
  8
ASSI
100
AcDbLine
 62
7
  6
CONTINUOUS
 10
140.5759244449
 20
93.462487665
 11
140.5759244449
 21
93.654125665
  0
LINE
  5
443
100
AcDbEntity
  8
0
100
AcDbLine
 62
7
  6
CONTINUOUS
 10
140.6354264449
 20
85.404125665
 11
140.6354264449
 21
89.804125665
  0
LINE
  5
444
100
AcDbEntity
  8
ASSI
100
AcDbLine
 62
7
  6
CONTINUOUS
 10
140.6564074449
 20
107.733275665
 11
140.6564014449
 21
108.341663665
  0
LINE
  5
445
100
AcDbEntity
  8
0
100
AcDbLine
 62
7
  6
CONTINUOUS
 10
141.0354264449
 20
85.404125665
 11
141.0354264449
 21
89.804125665
  0
LINE
  5
446
100
AcDbEntity
  8
RACCORDO
100
AcDbLine
 62
7
  6
CONTINUOUS
 10
141.4354264449
 20
119.704125665
 11
141.4354264449
 21
118.754125665
  0
LINE
  5
447
100
AcDbEntity
  8
ASSI
100
AcDbLine
 62
7
  6
CONTINUOUS
 10
141.4354264449
 20
119.704125665
 11
141.4354264449
 21
118.754125665
  0
LINE
  5
448
100
AcDbEntity
  8
0
100
AcDbLine
 62
7
  6
CONTINUOUS
 10
141.4354264449
 20
85.404125665
 11
141.4354264449
 21
89.804125665
  0
LINE
  5
449
100
AcDbEntity
  8
RACCORDO
100
AcDbLine
 62
7
  6
CONTINUOUS
 10
141.447230563
 20
118.754125665
 11
141.447230563
 21
119.112331345
  0
LINE
  5
44A
100
AcDbEntity
  8
ASSI
100
AcDbLine
 62
7
  6
CONTINUOUS
 10
141.447230563
 20
118.754125665
 11
141.447230563
 21
119.112331345
  0
LINE
  5
44B
100
AcDbEntity
  8
RACCORDO
100
AcDbLine
 62
7
  6
CONTINUOUS
 10
141.4577028043
 20
119.2809803466
 11
141.4577028043
 21
120.204125665
  0
LINE
  5
44C
100
AcDbEntity
  8
ASSI
100
AcDbLine
 62
7
  6
CONTINUOUS
 10
141.4577028043
 20
119.2809803466
 11
141.4577028043
 21
120.204125665
  0
LINE
  5
44D
100
AcDbEntity
  8
RACCORDO
100
AcDbLine
 62
253
  6
CONTINUOUS
 10
141.7472191399
 20
118.754125665
 11
141.7472191399
 21
119.154125665
  0
LINE
  5
44E
100
AcDbEntity
  8
ASSI
100
AcDbLine
 62
253
  6
CONTINUOUS
 10
141.7472191399
 20
118.754125665
 11
141.7472191399
 21
119.154125665
  0
LINE
  5
44F
100
AcDbEntity
  8
RACCORDO
100
AcDbLine
 62
253
  6
CONTINUOUS
 10
141.7576913813
 20
119.3227746667
 11
141.7576913813
 21
120.204125665
  0
LINE
  5
450
100
AcDbEntity
  8
ASSI
100
AcDbLine
 62
253
  6
CONTINUOUS
 10
141.7576913813
 20
119.3227746667
 11
141.7576913813
 21
120.204125665
  0
LINE
  5
451
100
AcDbEntity
  8
0
100
AcDbLine
 62
7
  6
CONTINUOUS
 10
141.8354264449
 20
85.404125665
 11
141.8354264449
 21
89.804125665
  0
LINE
  5
452
100
AcDbEntity
  8
RACCORDO
100
AcDbLine
 62
253
  6
CONTINUOUS
 10
141.9131615085
 20
120.204125665
 11
141.9131615085
 21
119.3227746667
  0
LINE
  5
453
100
AcDbEntity
  8
ASSI
100
AcDbLine
 62
253
  6
CONTINUOUS
 10
141.9131615085
 20
120.204125665
 11
141.9131615085
 21
119.3227746667
  0
LINE
  5
454
100
AcDbEntity
  8
RACCORDO
100
AcDbLine
 62
253
  6
CONTINUOUS
 10
141.9236337499
 20
119.154125665
 11
141.9236337499
 21
118.754125665
  0
LINE
  5
455
100
AcDbEntity
  8
ASSI
100
AcDbLine
 62
253
  6
CONTINUOUS
 10
141.9236337499
 20
119.154125665
 11
141.9236337499
 21
118.754125665
  0
LINE
  5
456
100
AcDbEntity
  8
ASSI
100
AcDbLine
 62
7
  6
CONTINUOUS
 10
140.6633014449
 20
106.304069665
 11
140.6633574449
 21
107.270756665
  0
LWPOLYLINE
  5
457
100
AcDbEntity
  8
RACCORDO
100
AcDbPolyline
 62
253
  6
CONTINUOUS
 90
28
 70
0
 10
141.9236337499
 20
118.754125665
 10
141.9229947201
 20
118.7437472867
 10
141.9212422454
 20
118.7337488784
 10
141.9183763258
 20
118.7241304402
 10
141.9143296056
 20
118.7147663854
 10
141.9091694404
 20
118.7057823007
 10
141.9030978975
 20
118.6975549454
 10
141.8960766396
 20
118.6901197433
 10
141.8881440038
 20
118.6834412706
 10
141.879617069
 20
118.6777900151
 10
141.8704724583
 20
118.6732091061
 10
141.8607335484
 20
118.6696554142
 10
141.8507875481
 20
118.6672700391
 10
141.8406256123
 20
118.6660999799
 10
141.8302565862
 20
118.6660982375
 10
141.8200942137
 20
118.6672649137
 10
141.8101472679
 20
118.6696470795
 10
141.8004069758
 20
118.6731976639
 10
141.7912607631
 20
118.6777755552
 10
141.782732216
 20
118.6834235001
 10
141.7747977483
 20
118.690098752
 10
141.7677740277
 20
118.6975319591
 10
141.7616988913
 20
118.7057586668
 10
141.7565345019
 20
118.7147433298
 10
141.7524840164
 20
118.7241099599
 10
141.7496151537
 20
118.7337332278
 10
141.7478601949
 20
118.7437384628
 10
141.7472191399
 20
118.754125665
  0
LWPOLYLINE
  5
458
100
AcDbEntity
  8
ASSI
100
AcDbPolyline
 62
253
  6
CONTINUOUS
 90
28
 70
0
 10
141.9236337499
 20
118.754125665
 10
141.9229947201
 20
118.7437472867
 10
141.9212422454
 20
118.7337488784
 10
141.9183763258
 20
118.7241304402
 10
141.9143296056
 20
118.7147663854
 10
141.9091694404
 20
118.7057823007
 10
141.9030978975
 20
118.6975549454
 10
141.8960766396
 20
118.6901197433
 10
141.8881440038
 20
118.6834412706
 10
141.879617069
 20
118.6777900151
 10
141.8704724583
 20
118.6732091061
 10
141.8607335484
 20
118.6696554142
 10
141.8507875481
 20
118.6672700391
 10
141.8406256123
 20
118.6660999799
 10
141.8302565862
 20
118.6660982375
 10
141.8200942137
 20
118.6672649137
 10
141.8101472679
 20
118.6696470795
 10
141.8004069758
 20
118.6731976639
 10
141.7912607631
 20
118.6777755552
 10
141.782732216
 20
118.6834235001
 10
141.7747977483
 20
118.690098752
 10
141.7677740277
 20
118.6975319591
 10
141.7616988913
 20
118.7057586668
 10
141.7565345019
 20
118.7147433298
 10
141.7524840164
 20
118.7241099599
 10
141.7496151537
 20
118.7337332278
 10
141.7478601949
 20
118.7437384628
 10
141.7472191399
 20
118.754125665
  0
LINE
  5
459
100
AcDbEntity
  8
0
100
AcDbLine
 62
7
  6
CONTINUOUS
 10
131.0354264449
 20
89.004125665
 11
131.8354264449
 21
89.804125665
  0
LINE
  5
45A
100
AcDbEntity
  8
0
100
AcDbLine
 62
7
  6
CONTINUOUS
 10
131.0354264449
 20
88.604125665
 11
132.2354264449
 21
89.804125665
  0
LINE
  5
45B
100
AcDbEntity
  8
0
100
AcDbLine
 62
7
  6
CONTINUOUS
 10
131.0354264449
 20
88.204125665
 11
132.6354264449
 21
89.804125665
  0
LINE
  5
45C
100
AcDbEntity
  8
0
100
AcDbLine
 62
7
  6
CONTINUOUS
 10
131.0354264449
 20
87.804125665
 11
133.0354264449
 21
89.804125665
  0
LINE
  5
45D
100
AcDbEntity
  8
0
100
AcDbLine
 62
7
  6
CONTINUOUS
 10
131.0354264449
 20
87.404125665
 11
133.4354264449
 21
89.804125665
  0
LINE
  5
45E
100
AcDbEntity
  8
0
100
AcDbLine
 62
7
  6
CONTINUOUS
 10
131.0354264449
 20
87.004125665
 11
133.8354264449
 21
89.804125665
  0
LINE
  5
45F
100
AcDbEntity
  8
0
100
AcDbLine
 62
7
  6
CONTINUOUS
 10
140.8234114449
 20
103.379125665
 11
140.3009794449
 21
103.379125665
  0
LINE
  5
460
100
AcDbEntity
  8
ASSI
100
AcDbLine
 62
7
  6
CONTINUOUS
 10
140.8234114449
 20
103.379125665
 11
140.3009794449
 21
103.379125665
  0
LINE
  5
461
100
AcDbEntity
  8
0
100
AcDbLine
 62
7
  6
CONTINUOUS
 10
139.3525464449
 20
103.379125665
 11
138.9408174449
 21
103.379125665
  0
LINE
  5
462
100
AcDbEntity
  8
ASSI
100
AcDbLine
 62
7
  6
CONTINUOUS
 10
139.3525464449
 20
103.379125665
 11
138.9408174449
 21
103.379125665
  0
LINE
  5
463
100
AcDbEntity
  8
0
100
AcDbLine
 62
7
  6
CONTINUOUS
 10
138.1543144449
 20
103.379125665
 11
137.5012734449
 21
103.379125665
  0
LINE
  5
464
100
AcDbEntity
  8
ASSI
100
AcDbLine
 62
7
  6
CONTINUOUS
 10
138.1543144449
 20
103.379125665
 11
137.5012734449
 21
103.379125665
  0
LINE
  5
465
100
AcDbEntity
  8
0
100
AcDbLine
 62
7
  6
CONTINUOUS
 10
136.5643354449
 20
103.379125665
 11
136.0419024449
 21
103.379125665
  0
LINE
  5
466
100
AcDbEntity
  8
ASSI
100
AcDbLine
 62
7
  6
CONTINUOUS
 10
136.5643354449
 20
103.379125665
 11
136.0419024449
 21
103.379125665
  0
LINE
  5
467
100
AcDbEntity
  8
0
100
AcDbLine
 62
7
  6
CONTINUOUS
 10
134.3212384449
 20
103.379125665
 11
133.8811204449
 21
103.379125665
  0
LINE
  5
468
100
AcDbEntity
  8
ASSI
100
AcDbLine
 62
7
  6
CONTINUOUS
 10
134.3212384449
 20
103.379125665
 11
133.8811204449
 21
103.379125665
  0
LINE
  5
469
100
AcDbEntity
  8
0
100
AcDbLine
 62
7
  6
CONTINUOUS
 10
132.7621711628
 20
103.379125665
 11
132.1348434449
 21
103.379125665
  0
LINE
  5
46A
100
AcDbEntity
  8
ASSI
100
AcDbLine
 62
7
  6
CONTINUOUS
 10
132.7621711628
 20
103.379125665
 11
132.1348434449
 21
103.379125665
  0
LINE
  5
46B
100
AcDbEntity
  8
0
100
AcDbLine
 62
7
  6
CONTINUOUS
 10
141.5360094449
 20
101.329125665
 11
140.8234114449
 21
103.379125665
  0
LINE
  5
46C
100
AcDbEntity
  8
ASSI
100
AcDbLine
 62
7
  6
CONTINUOUS
 10
141.5360094449
 20
101.329125665
 11
140.8234114449
 21
103.379125665
  0
LINE
  5
46D
100
AcDbEntity
  8
0
100
AcDbLine
 62
7
  6
CONTINUOUS
 10
140.9454564449
 20
101.763611665
 11
141.0931914449
 21
101.329125665
  0
LINE
  5
46E
100
AcDbEntity
  8
ASSI
100
AcDbLine
 62
7
  6
CONTINUOUS
 10
140.9454564449
 20
101.763611665
 11
141.0931914449
 21
101.329125665
  0
LINE
  5
46F
100
AcDbEntity
  8
0
100
AcDbLine
 62
7
  6
CONTINUOUS
 10
140.5509134449
 20
102.987276665
 11
140.8346754449
 21
102.104288665
  0
LINE
  5
470
100
AcDbEntity
  8
ASSI
100
AcDbLine
 62
7
  6
CONTINUOUS
 10
140.5509134449
 20
102.987276665
 11
140.8346754449
 21
102.104288665
  0
LINE
  5
471
100
AcDbEntity
  8
ASSI
100
AcDbLine
 62
7
  6
CONTINUOUS
 10
139.1720574449
 20
106.795731665
 11
139.3299074449
 21
106.304069665
  0
LINE
  5
472
100
AcDbEntity
  8
ASSI
100
AcDbLine
 62
7
  6
CONTINUOUS
 10
138.7772014449
 20
108.025525665
 11
139.0195324449
 21
107.270750665
  0
LINE
  5
473
100
AcDbEntity
  8
ASSI
100
AcDbLine
 62
7
  6
CONTINUOUS
 10
139.8299324449
 20
106.304062665
 11
139.0272264449
 21
108.804181665
  0
LINE
  5
474
100
AcDbEntity
  8
RACCORDO
100
AcDbLine
 62
7
  6
CONTINUOUS
 10
142.2131500854
 20
119.2809803466
 11
142.2236223268
 21
119.112331345
  0
LINE
  5
475
100
AcDbEntity
  8
ASSI
100
AcDbLine
 62
7
  6
CONTINUOUS
 10
142.2131500854
 20
119.2809803466
 11
142.2236223268
 21
119.112331345
  0
LINE
  5
476
100
AcDbEntity
  8
RACCORDO
100
AcDbLine
 62
7
  6
CONTINUOUS
 10
142.2131500854
 20
120.204125665
 11
142.2131500854
 21
119.2809803466
  0
LINE
  5
477
100
AcDbEntity
  8
ASSI
100
AcDbLine
 62
7
  6
CONTINUOUS
 10
142.2131500854
 20
120.204125665
 11
142.2131500854
 21
119.2809803466
  0
LINE
  5
478
100
AcDbEntity
  8
RACCORDO
100
AcDbLine
 62
7
  6
CONTINUOUS
 10
142.2236223268
 20
119.112331345
 11
142.2236223268
 21
118.754125665
  0
LINE
  5
479
100
AcDbEntity
  8
ASSI
100
AcDbLine
 62
7
  6
CONTINUOUS
 10
142.2236223268
 20
119.112331345
 11
142.2236223268
 21
118.754125665
  0
LINE
  5
47A
100
AcDbEntity
  8
RACCORDO
100
AcDbLine
 62
7
  6
CONTINUOUS
 10
142.2354264449
 20
119.704125665
 11
142.2354264449
 21
118.754125665
  0
LINE
  5
47B
100
AcDbEntity
  8
ASSI
100
AcDbLine
 62
7
  6
CONTINUOUS
 10
142.2354264449
 20
119.704125665
 11
142.2354264449
 21
118.754125665
  0
LINE
  5
47C
100
AcDbEntity
  8
0
100
AcDbLine
 62
7
  6
CONTINUOUS
 10
142.2354264449
 20
85.404125665
 11
142.2354264449
 21
89.804125665
  0
LINE
  5
47D
100
AcDbEntity
  8
0
100
AcDbLine
 62
7
  6
CONTINUOUS
 10
142.2628534449
 20
93.654125665
 11
142.2628534449
 21
92.054125665
  0
LINE
  5
47E
100
AcDbEntity
  8
ASSI
100
AcDbLine
 62
7
  6
CONTINUOUS
 10
142.2628534449
 20
93.654125665
 11
142.2628534449
 21
92.054125665
  0
LINE
  5
47F
100
AcDbEntity
  8
RACCORDO
100
AcDbLine
 62
253
  6
CONTINUOUS
 10
142.3389857308
 20
90.9576240278
 11
142.3389857308
 21
90.7576316432
  0
LINE
  5
480
100
AcDbEntity
  8
ASSI
100
AcDbLine
 62
253
  6
CONTINUOUS
 10
142.3389857308
 20
90.9576240278
 11
142.3389857308
 21
90.7576316432
  0
LINE
  5
481
100
AcDbEntity
  8
RACCORDO
100
AcDbLine
 62
253
  6
CONTINUOUS
 10
142.3389857308
 20
84.2506273022
 11
142.3389857308
 21
84.4506196868
  0
LINE
  5
482
100
AcDbEntity
  8
ASSI
100
AcDbLine
 62
253
  6
CONTINUOUS
 10
142.3389857308
 20
84.2506273022
 11
142.3389857308
 21
84.4506196868
  0
LINE
  5
483
100
AcDbEntity
  8
0
100
AcDbLine
 62
7
  6
CONTINUOUS
 10
142.4790764449
 20
92.245763665
 11
142.4790764449
 21
93.654125665
  0
LINE
  5
484
100
AcDbEntity
  8
ASSI
100
AcDbLine
 62
7
  6
CONTINUOUS
 10
142.4790764449
 20
92.245763665
 11
142.4790764449
 21
93.654125665
  0
LINE
  5
485
100
AcDbEntity
  8
0
100
AcDbLine
 62
7
  6
CONTINUOUS
 10
142.6354264449
 20
85.404125665
 11
142.6354264449
 21
89.804125665
  0
LINE
  5
486
100
AcDbEntity
  8
0
100
AcDbLine
 62
7
  6
CONTINUOUS
 10
143.2354264449
 20
120.204125665
 11
143.2354264449
 21
119.804125665
  0
LINE
  5
487
100
AcDbEntity
  8
ASSI
100
AcDbLine
 62
7
  6
CONTINUOUS
 10
143.2354264449
 20
120.204125665
 11
143.2354264449
 21
119.804125665
  0
LINE
  5
488
100
AcDbEntity
  8
0
100
AcDbLine
 62
7
  6
CONTINUOUS
 10
143.2354264449
 20
79.504125665
 11
143.2354264449
 21
79.904125665
  0
LINE
  5
489
100
AcDbEntity
  8
ASSI
100
AcDbLine
 62
7
  6
CONTINUOUS
 10
143.2354264449
 20
79.504125665
 11
143.2354264449
 21
79.904125665
  0
LINE
  5
48A
100
AcDbEntity
  8
0
100
AcDbLine
 62
7
  6
CONTINUOUS
 10
143.2902694449
 20
92.054125665
 11
143.2902694449
 21
92.245763665
  0
LINE
  5
48B
100
AcDbEntity
  8
ASSI
100
AcDbLine
 62
7
  6
CONTINUOUS
 10
143.2902694449
 20
92.054125665
 11
143.2902694449
 21
92.245763665
  0
LINE
  5
48C
100
AcDbEntity
  8
0
100
AcDbLine
 62
7
  6
CONTINUOUS
 10
140.8611294449
 20
92.054125665
 11
141.0282974449
 21
92.519827665
  0
LINE
  5
48D
100
AcDbEntity
  8
ASSI
100
AcDbLine
 62
7
  6
CONTINUOUS
 10
140.8611294449
 20
92.054125665
 11
141.0282974449
 21
92.519827665
  0
LINE
  5
48E
100
AcDbEntity
  8
0
100
AcDbLine
 62
7
  6
CONTINUOUS
 10
141.0951574449
 20
92.711464665
 11
141.3537194449
 21
93.422047665
  0
LINE
  5
48F
100
AcDbEntity
  8
ASSI
100
AcDbLine
 62
7
  6
CONTINUOUS
 10
141.0951574449
 20
92.711464665
 11
141.3537194449
 21
93.422047665
  0
LINE
  5
490
100
AcDbEntity
  8
0
100
AcDbLine
 62
7
  6
CONTINUOUS
 10
141.2400434449
 20
93.654125665
 11
140.6383194449
 21
92.054125665
  0
LINE
  5
491
100
AcDbEntity
  8
ASSI
100
AcDbLine
 62
7
  6
CONTINUOUS
 10
141.2400434449
 20
93.654125665
 11
140.6383194449
 21
92.054125665
  0
LINE
  5
492
100
AcDbEntity
  8
0
100
AcDbLine
 62
7
  6
CONTINUOUS
 10
131.0354264449
 20
86.604125665
 11
134.2354264449
 21
89.804125665
  0
LINE
  5
493
100
AcDbEntity
  8
0
100
AcDbLine
 62
7
  6
CONTINUOUS
 10
131.0354264449
 20
86.204125665
 11
134.6354264449
 21
89.804125665
  0
LINE
  5
494
100
AcDbEntity
  8
0
100
AcDbLine
 62
7
  6
CONTINUOUS
 10
131.0354264449
 20
85.804125665
 11
135.0354264449
 21
89.804125665
  0
LINE
  5
495
100
AcDbEntity
  8
0
100
AcDbLine
 62
7
  6
CONTINUOUS
 10
131.0354264449
 20
85.404125665
 11
135.4354264449
 21
89.804125665
  0
LINE
  5
496
100
AcDbEntity
  8
0
100
AcDbLine
 62
7
  6
CONTINUOUS
 10
131.4354264449
 20
85.404125665
 11
135.8354264449
 21
89.804125665
  0
LINE
  5
497
100
AcDbEntity
  8
0
100
AcDbLine
 62
7
  6
CONTINUOUS
 10
131.8354264449
 20
85.404125665
 11
136.2354264449
 21
89.804125665
  0
LINE
  5
498
100
AcDbEntity
  8
ASSI
100
AcDbLine
 62
7
  6
CONTINUOUS
 10
141.6008454449
 20
106.304069665
 11
142.1640394449
 21
106.304075665
  0
LINE
  5
499
100
AcDbEntity
  8
ASSI
100
AcDbLine
 62
7
  6
CONTINUOUS
 10
137.7244894449
 20
106.304062665
 11
138.2245074449
 21
106.304069665
  0
LINE
  5
49A
100
AcDbEntity
  8
ASSI
100
AcDbLine
 62
7
  6
CONTINUOUS
 10
134.9456204449
 20
106.304062665
 11
135.4456384449
 21
106.304062665
  0
LINE
  5
49B
100
AcDbEntity
  8
ASSI
100
AcDbLine
 62
7
  6
CONTINUOUS
 10
136.8911264449
 20
106.304062665
 11
137.3911454449
 21
106.304062665
  0
LINE
  5
49C
100
AcDbEntity
  8
ASSI
100
AcDbLine
 62
7
  6
CONTINUOUS
 10
140.1632764449
 20
106.304069665
 11
140.6633014449
 21
106.304069665
  0
LINE
  5
49D
100
AcDbEntity
  8
ASSI
100
AcDbLine
 62
7
  6
CONTINUOUS
 10
135.9183764449
 20
106.304062665
 11
136.4183824449
 21
106.304069665
  0
LINE
  5
49E
100
AcDbEntity
  8
ASSI
100
AcDbLine
 62
7
  6
CONTINUOUS
 10
133.9455954449
 20
106.304056665
 11
134.4456134449
 21
106.304062665
  0
LINE
  5
49F
100
AcDbEntity
  8
ASSI
100
AcDbLine
 62
7
  6
CONTINUOUS
 10
139.3299074449
 20
106.304069665
 11
139.8299324449
 21
106.304062665
  0
LINE
  5
4A0
100
AcDbEntity
  8
ASSI
100
AcDbLine
 62
7
  6
CONTINUOUS
 10
132.3095134449
 20
106.304056665
 11
132.8095514449
 21
106.304062665
  0
LINE
  5
4A1
100
AcDbEntity
  8
RACCORDO
100
AcDbLine
 62
7
  6
CONTINUOUS
 10
143.6354264449
 20
89.354125665
 11
143.6354264449
 21
85.854125665
  0
LINE
  5
4A2
100
AcDbEntity
  8
RACCORDO
100
AcDbLine
 62
7
  6
CONTINUOUS
 10
143.7389324231
 20
89.3576849509
 11
143.7389324231
 21
85.8505663791
  0
LINE
  5
4A3
100
AcDbEntity
  8
ASSI
100
AcDbLine
 62
7
  6
CONTINUOUS
 10
143.7389324231
 20
89.3576849509
 11
143.7389324231
 21
85.8505663791
  0
LINE
  5
4A4
100
AcDbEntity
  8
0
100
AcDbLine
 62
7
  6
CONTINUOUS
 10
143.8354264449
 20
120.204125665
 11
143.8354264449
 21
119.804125665
  0
LINE
  5
4A5
100
AcDbEntity
  8
ASSI
100
AcDbLine
 62
7
  6
CONTINUOUS
 10
143.8354264449
 20
120.204125665
 11
143.8354264449
 21
119.804125665
  0
LINE
  5
4A6
100
AcDbEntity
  8
0
100
AcDbLine
 62
7
  6
CONTINUOUS
 10
143.8354264449
 20
79.504125665
 11
143.8354264449
 21
79.904125665
  0
LINE
  5
4A7
100
AcDbEntity
  8
ASSI
100
AcDbLine
 62
7
  6
CONTINUOUS
 10
143.8354264449
 20
79.504125665
 11
143.8354264449
 21
79.904125665
  0
LINE
  5
4A8
100
AcDbEntity
  8
RACCORDO
100
AcDbLine
 62
253
  6
CONTINUOUS
 10
143.9389041851
 20
89.3943740448
 11
143.9389248077
 21
85.8505663791
  0
LINE
  5
4A9
100
AcDbEntity
  8
ASSI
100
AcDbLine
 62
253
  6
CONTINUOUS
 10
143.9389041851
 20
89.3943740448
 11
143.9389248077
 21
85.8505663791
  0
LINE
  5
4AA
100
AcDbEntity
  8
0
100
AcDbLine
 62
7
  6
CONTINUOUS
 10
143.9676654449
 20
92.698136665
 11
143.9676654449
 21
92.054125665
  0
LINE
  5
4AB
100
AcDbEntity
  8
ASSI
100
AcDbLine
 62
7
  6
CONTINUOUS
 10
143.9676654449
 20
92.698136665
 11
143.9676654449
 21
92.054125665
  0
LINE
  5
4AC
100
AcDbEntity
  8
0
100
AcDbLine
 62
7
  6
CONTINUOUS
 10
144.1837594449
 20
92.054125665
 11
144.1837594449
 21
92.698136665
  0
LINE
  5
4AD
100
AcDbEntity
  8
ASSI
100
AcDbLine
 62
7
  6
CONTINUOUS
 10
144.1837594449
 20
92.054125665
 11
144.1837594449
 21
92.698136665
  0
LWPOLYLINE
  5
4AE
100
AcDbEntity
  8
RACCORDO
100
AcDbPolyline
 62
253
  6
CONTINUOUS
 90
42
 70
0
 10
143.9389248077
 20
85.8505663791
 10
143.9387650075
 20
85.8101735131
 10
143.9370479037
 20
85.7674111597
 10
143.9337734963
 20
85.7222793189
 10
143.9291619855
 20
85.6746766157
 10
143.9229931712
 20
85.6247044252
 10
143.9146064528
 20
85.5726668718
 10
143.9039411634
 20
85.518349001
 10
143.89105797
 20
85.4619657673
 10
143.8754782736
 20
85.4044661599
 10
143.8571374641
 20
85.3458714768
 10
143.8361001516
 20
85.2861604199
 10
143.8120815678
 20
85.226218084
 10
143.7849930076
 20
85.1660313738
 10
143.7549231761
 20
85.1056133845
 10
143.7218534203
 20
85.0458884966
 10
143.685692098
 20
84.9868787473
 10
143.6465308514
 20
84.9285620994
 10
143.6046259544
 20
84.8717968216
 10
143.5598941882
 20
84.8166328158
 10
143.5124187715
 20
84.7630201802
 10
143.4627056341
 20
84.7116674778
 10
143.4106751169
 20
84.6626381695
 10
143.3564068789
 20
84.6158687944
 10
143.3006458274
 20
84.5718775335
 10
143.2433336454
 20
84.5307511161
 10
143.1845286499
 20
84.4924028129
 10
143.1251506991
 20
84.4570906169
 10
143.0651785058
 20
84.4249154468
 10
143.0046333572
 20
84.395776384
 10
142.9444989731
 20
84.3696286649
 10
142.8847883689
 20
84.3465665184
 10
142.8254885293
 20
84.3264957157
 10
142.767544127
 20
84.3090888075
 10
142.7109902252
 20
84.2944177728
 10
142.6557917608
 20
84.2824106325
 10
142.6027882174
 20
84.2725240001
 10
142.552020665
 20
84.2647997388
 10
142.5034480336
 20
84.2591959852
 10
142.4577865971
 20
84.2550437625
 10
142.4152751134
 20
84.2521200783
 10
142.3756748247
 20
84.2506479248
  0
LWPOLYLINE
  5
4AF
100
AcDbEntity
  8
ASSI
100
AcDbPolyline
 62
253
  6
CONTINUOUS
 90
42
 70
0
 10
143.9389248077
 20
85.8505663791
 10
143.9387650075
 20
85.8101735131
 10
143.9370479037
 20
85.7674111597
 10
143.9337734963
 20
85.7222793189
 10
143.9291619855
 20
85.6746766157
 10
143.9229931712
 20
85.6247044252
 10
143.9146064528
 20
85.5726668718
 10
143.9039411634
 20
85.518349001
 10
143.89105797
 20
85.4619657673
 10
143.8754782736
 20
85.4044661599
 10
143.8571374641
 20
85.3458714768
 10
143.8361001516
 20
85.2861604199
 10
143.8120815678
 20
85.226218084
 10
143.7849930076
 20
85.1660313738
 10
143.7549231761
 20
85.1056133845
 10
143.7218534203
 20
85.0458884966
 10
143.685692098
 20
84.9868787473
 10
143.6465308514
 20
84.9285620994
 10
143.6046259544
 20
84.8717968216
 10
143.5598941882
 20
84.8166328158
 10
143.5124187715
 20
84.7630201802
 10
143.4627056341
 20
84.7116674778
 10
143.4106751169
 20
84.6626381695
 10
143.3564068789
 20
84.6158687944
 10
143.3006458274
 20
84.5718775335
 10
143.2433336454
 20
84.5307511161
 10
143.1845286499
 20
84.4924028129
 10
143.1251506991
 20
84.4570906169
 10
143.0651785058
 20
84.4249154468
 10
143.0046333572
 20
84.395776384
 10
142.9444989731
 20
84.3696286649
 10
142.8847883689
 20
84.3465665184
 10
142.8254885293
 20
84.3264957157
 10
142.767544127
 20
84.3090888075
 10
142.7109902252
 20
84.2944177728
 10
142.6557917608
 20
84.2824106325
 10
142.6027882174
 20
84.2725240001
 10
142.552020665
 20
84.2647997388
 10
142.5034480336
 20
84.2591959852
 10
142.4577865971
 20
84.2550437625
 10
142.4152751134
 20
84.2521200783
 10
142.3756748247
 20
84.2506479248
  0
LWPOLYLINE
  5
4B0
100
AcDbEntity
  8
RACCORDO
100
AcDbPolyline
 62
253
  6
CONTINUOUS
 90
43
 70
0
 10
143.7389324231
 20
85.8505663791
 10
143.7384884886
 20
85.8152953412
 10
143.7370443738
 20
85.7778649432
 10
143.7344259523
 20
85.7383088728
 10
143.7304481808
 20
85.6966525219
 10
143.7249206509
 20
85.6529706763
 10
143.7176541807
 20
85.6073882037
 10
143.7084167065
 20
85.5598361525
 10
143.6970244576
 20
85.5105673239
 10
143.6834133001
 20
85.4601993377
 10
143.6674424303
 20
85.4088898075
 10
143.6489484803
 20
85.3567277197
 10
143.6279343362
 20
85.3042202914
 10
143.6042953454
 20
85.2515024902
 10
143.577936937
 20
85.1987311292
 10
143.548975524
 20
85.1464236486
 10
143.5173752393
 20
85.0947270509
 10
143.4831054825
 20
85.0437905572
 10
143.4463921287
 20
84.9940909734
 10
143.4072667411
 20
84.9457592112
 10
143.3657632299
 20
84.8989209251
 10
143.3222047174
 20
84.8539813386
 10
143.2766698039
 20
84.8110234464
 10
143.2292564795
 20
84.7701414722
 10
143.1803995399
 20
84.7316734663
 10
143.1302220651
 20
84.6956457573
 10
143.0788617675
 20
84.6620893784
 10
143.0268438908
 20
84.6312458595
 10
142.9743228286
 20
84.6030748735
 10
142.9214472078
 20
84.5775292548
 10
142.8687810044
 20
84.5547274946
 10
142.8164817027
 20
84.5345589675
 10
142.7646871027
 20
84.516905013
 10
142.713955328
 20
84.5017636986
 10
142.664420588
 20
84.4889644792
 10
142.6161940775
 20
84.4783346435
 10
142.569803241
 20
84.4697749934
 10
142.525341456
 20
84.4630756334
 10
142.482886459
 20
84.4580329755
 10
142.4429334164
 20
84.4544826965
 10
142.4056795161
 20
84.4522083545
 10
142.3710208297
 20
84.4509858491
 10
142.3389857308
 20
84.4506196868
  0
LWPOLYLINE
  5
4B1
100
AcDbEntity
  8
ASSI
100
AcDbPolyline
 62
253
  6
CONTINUOUS
 90
43
 70
0
 10
143.7389324231
 20
85.8505663791
 10
143.7384884886
 20
85.8152953412
 10
143.7370443738
 20
85.7778649432
 10
143.7344259523
 20
85.7383088728
 10
143.7304481808
 20
85.6966525219
 10
143.7249206509
 20
85.6529706763
 10
143.7176541807
 20
85.6073882037
 10
143.7084167065
 20
85.5598361525
 10
143.6970244576
 20
85.5105673239
 10
143.6834133001
 20
85.4601993377
 10
143.6674424303
 20
85.4088898075
 10
143.6489484803
 20
85.3567277197
 10
143.6279343362
 20
85.3042202914
 10
143.6042953454
 20
85.2515024902
 10
143.577936937
 20
85.1987311292
 10
143.548975524
 20
85.1464236486
 10
143.5173752393
 20
85.0947270509
 10
143.4831054825
 20
85.0437905572
 10
143.4463921287
 20
84.9940909734
 10
143.4072667411
 20
84.9457592112
 10
143.3657632299
 20
84.8989209251
 10
143.3222047174
 20
84.8539813386
 10
143.2766698039
 20
84.8110234464
 10
143.2292564795
 20
84.7701414722
 10
143.1803995399
 20
84.7316734663
 10
143.1302220651
 20
84.6956457573
 10
143.0788617675
 20
84.6620893784
 10
143.0268438908
 20
84.6312458595
 10
142.9743228286
 20
84.6030748735
 10
142.9214472078
 20
84.5775292548
 10
142.8687810044
 20
84.5547274946
 10
142.8164817027
 20
84.5345589675
 10
142.7646871027
 20
84.516905013
 10
142.713955328
 20
84.5017636986
 10
142.664420588
 20
84.4889644792
 10
142.6161940775
 20
84.4783346435
 10
142.569803241
 20
84.4697749934
 10
142.525341456
 20
84.4630756334
 10
142.482886459
 20
84.4580329755
 10
142.4429334164
 20
84.4544826965
 10
142.4056795161
 20
84.4522083545
 10
142.3710208297
 20
84.4509858491
 10
142.3389857308
 20
84.4506196868
  0
LINE
  5
4B2
100
AcDbEntity
  8
0
100
AcDbLine
 62
7
  6
CONTINUOUS
 10
132.2354264449
 20
85.404125665
 11
136.6354264449
 21
89.804125665
  0
LINE
  5
4B3
100
AcDbEntity
  8
0
100
AcDbLine
 62
7
  6
CONTINUOUS
 10
132.6354264449
 20
85.404125665
 11
137.0354264449
 21
89.804125665
  0
LINE
  5
4B4
100
AcDbEntity
  8
0
100
AcDbLine
 62
7
  6
CONTINUOUS
 10
133.0354264449
 20
85.404125665
 11
137.4354264449
 21
89.804125665
  0
LINE
  5
4B5
100
AcDbEntity
  8
0
100
AcDbLine
 62
7
  6
CONTINUOUS
 10
133.4354264449
 20
85.404125665
 11
137.8354264449
 21
89.804125665
  0
LINE
  5
4B6
100
AcDbEntity
  8
0
100
AcDbLine
 62
7
  6
CONTINUOUS
 10
133.8354264449
 20
85.404125665
 11
138.2354264449
 21
89.804125665
  0
LINE
  5
4B7
100
AcDbEntity
  8
0
100
AcDbLine
 62
7
  6
CONTINUOUS
 10
134.2354264449
 20
85.404125665
 11
138.6354264449
 21
89.804125665
  0
LINE
  5
4B8
100
AcDbEntity
  8
ASSI
100
AcDbLine
 62
7
  6
CONTINUOUS
 10
138.3823644449
 20
106.795731665
 11
139.1720574449
 21
106.795731665
  0
LINE
  5
4B9
100
AcDbEntity
  8
ASSI
100
AcDbLine
 62
7
  6
CONTINUOUS
 10
139.0195324449
 20
107.270750665
 11
138.5348824449
 21
107.270750665
  0
LINE
  5
4BA
100
AcDbEntity
  8
ASSI
100
AcDbLine
 62
7
  6
CONTINUOUS
 10
140.6633574449
 20
107.270756665
 11
141.0997644449
 21
107.270750665
  0
LINE
  5
4BB
100
AcDbEntity
  8
ASSI
100
AcDbLine
 62
7
  6
CONTINUOUS
 10
141.2647594996
 20
107.733275665
 11
140.6564074449
 21
107.733275665
  0
LINE
  5
4BC
100
AcDbEntity
  8
ASSI
100
AcDbLine
 62
7
  6
CONTINUOUS
 10
141.0997644449
 20
107.270750665
 11
141.6008454449
 21
106.304069665
  0
LINE
  5
4BD
100
AcDbEntity
  8
ASSI
100
AcDbLine
 62
7
  6
CONTINUOUS
 10
142.1640394449
 20
106.304075665
 11
141.6317941755
 21
107.330884114
  0
LINE
  5
4BE
100
AcDbEntity
  8
RACCORDO
100
AcDbLine
 62
253
  6
CONTINUOUS
 10
146.4354264449
 20
79.504125665
 11
146.4354264449
 21
120.204125665
  0
LINE
  5
4BF
100
AcDbEntity
  8
ASSI
100
AcDbLine
 62
253
  6
CONTINUOUS
 10
146.4354264449
 20
79.504125665
 11
146.4354264449
 21
120.204125665
  0
LINE
  5
4C0
100
AcDbEntity
  8
RACCORDO
100
AcDbLine
 62
7
  6
CONTINUOUS
 10
146.7354264449
 20
79.804125665
 11
146.7354264449
 21
92.354125665
  0
LINE
  5
4C1
100
AcDbEntity
  8
0
100
AcDbLine
 62
7
  6
CONTINUOUS
 10
146.7354264449
 20
92.354125665
 11
146.7354264449
 21
107.354125665
  0
LINE
  5
4C2
100
AcDbEntity
  8
RACCORDO
100
AcDbLine
 62
7
  6
CONTINUOUS
 10
146.7354264449
 20
107.354125665
 11
146.7354264449
 21
119.904125665
  0
LINE
  5
4C3
100
AcDbEntity
  8
ASSI
100
AcDbLine
 62
7
  6
CONTINUOUS
 10
146.7354264449
 20
79.804125665
 11
146.7354264449
 21
119.904125665
  0
LINE
  5
4C4
100
AcDbEntity
  8
0
100
AcDbLine
 62
7
  6
CONTINUOUS
 10
144.5336504449
 20
93.654125665
 11
144.0746774449
 21
92.885245665
  0
LINE
  5
4C5
100
AcDbEntity
  8
ASSI
100
AcDbLine
 62
7
  6
CONTINUOUS
 10
144.5336504449
 20
93.654125665
 11
144.0746774449
 21
92.885245665
  0
LINE
  5
4C6
100
AcDbEntity
  8
0
100
AcDbLine
 62
7
  6
CONTINUOUS
 10
134.6354264449
 20
85.404125665
 11
139.0354264449
 21
89.804125665
  0
LINE
  5
4C7
100
AcDbEntity
  8
0
100
AcDbLine
 62
7
  6
CONTINUOUS
 10
135.0354264449
 20
85.404125665
 11
139.4354264449
 21
89.804125665
  0
LINE
  5
4C8
100
AcDbEntity
  8
0
100
AcDbLine
 62
7
  6
CONTINUOUS
 10
135.4354264449
 20
85.404125665
 11
139.8354264449
 21
89.804125665
  0
LINE
  5
4C9
100
AcDbEntity
  8
0
100
AcDbLine
 62
7
  6
CONTINUOUS
 10
135.8354264449
 20
85.404125665
 11
140.2354264449
 21
89.804125665
  0
LINE
  5
4CA
100
AcDbEntity
  8
0
100
AcDbLine
 62
7
  6
CONTINUOUS
 10
136.2354264449
 20
85.404125665
 11
140.6354264449
 21
89.804125665
  0
LINE
  5
4CB
100
AcDbEntity
  8
ASSI
100
AcDbLine
 62
7
  6
CONTINUOUS
 10
140.6564014449
 20
108.341663665
 11
141.2647494449
 21
108.341663665
  0
LINE
  5
4CC
100
AcDbEntity
  8
ASSI
100
AcDbLine
 62
7
  6
CONTINUOUS
 10
137.3911454449
 20
108.804175665
 11
136.6352514449
 21
108.804175665
  0
LINE
  5
4CD
100
AcDbEntity
  8
ASSI
100
AcDbLine
 62
7
  6
CONTINUOUS
 10
135.7015134449
 20
108.804175665
 11
134.9456204449
 21
108.804175665
  0
LINE
  5
4CE
100
AcDbEntity
  8
ASSI
100
AcDbLine
 62
7
  6
CONTINUOUS
 10
134.4456204449
 20
108.804175665
 11
133.9456014449
 21
108.804175665
  0
LINE
  5
4CF
100
AcDbEntity
  8
ASSI
100
AcDbLine
 62
7
  6
CONTINUOUS
 10
133.6122574449
 20
108.804175665
 11
133.1122324449
 21
108.804175665
  0
LINE
  5
4D0
100
AcDbEntity
  8
ASSI
100
AcDbLine
 62
7
  6
CONTINUOUS
 10
132.0068384449
 20
108.804175665
 11
131.5068134449
 21
108.804175665
  0
LINE
  5
4D1
100
AcDbEntity
  8
ASSI
100
AcDbLine
 62
7
  6
CONTINUOUS
 10
141.334168696
 20
108.804181665
 11
140.1632764449
 21
108.804181665
  0
LINE
  5
4D2
100
AcDbEntity
  8
ASSI
100
AcDbLine
 62
7
  6
CONTINUOUS
 10
139.0272264449
 20
108.804181665
 11
138.5271824449
 21
108.804181665
  0
LINE
  5
4D3
100
AcDbEntity
  8
0
100
AcDbLine
 62
7
  6
CONTINUOUS
 10
147.4354264449
 20
93.8739940804
 11
147.4354264449
 21
105.8342572497
  0
LINE
  5
4D4
100
AcDbEntity
  8
ASSI
100
AcDbLine
 62
7
  6
CONTINUOUS
 10
147.4354264449
 20
93.8739940804
 11
147.4354264449
 21
105.8342572497
  0
LINE
  5
4D5
100
AcDbEntity
  8
RACCORDO
100
AcDbLine
 62
7
  6
CONTINUOUS
 10
147.9354264449
 20
78.8040038211
 11
147.9354264449
 21
120.9042475089
  0
LINE
  5
4D6
100
AcDbEntity
  8
ASSI
100
AcDbLine
 62
7
  6
CONTINUOUS
 10
147.9354264449
 20
78.8040038211
 11
147.9354264449
 21
120.9042475089
  0
LINE
  5
4D7
100
AcDbEntity
  8
0
100
AcDbLine
 62
7
  6
CONTINUOUS
 10
144.1837594449
 20
92.698136665
 11
144.7877864449
 21
93.654125665
  0
LINE
  5
4D8
100
AcDbEntity
  8
ASSI
100
AcDbLine
 62
7
  6
CONTINUOUS
 10
144.1837594449
 20
92.698136665
 11
144.7877864449
 21
93.654125665
  0
LINE
  5
4D9
100
AcDbEntity
  8
0
100
AcDbLine
 62
7
  6
CONTINUOUS
 10
136.6354264449
 20
85.404125665
 11
141.0354264449
 21
89.804125665
  0
LINE
  5
4DA
100
AcDbEntity
  8
0
100
AcDbLine
 62
7
  6
CONTINUOUS
 10
137.0354264449
 20
85.404125665
 11
141.4354264449
 21
89.804125665
  0
LINE
  5
4DB
100
AcDbEntity
  8
0
100
AcDbLine
 62
7
  6
CONTINUOUS
 10
137.4354264449
 20
85.404125665
 11
141.8354264449
 21
89.804125665
  0
LINE
  5
4DC
100
AcDbEntity
  8
0
100
AcDbLine
 62
7
  6
CONTINUOUS
 10
137.8354264449
 20
85.404125665
 11
142.2354264449
 21
89.804125665
  0
LINE
  5
4DD
100
AcDbEntity
  8
0
100
AcDbLine
 62
7
  6
CONTINUOUS
 10
138.2354264449
 20
85.404125665
 11
142.6354264449
 21
89.804125665
  0
LINE
  5
4DE
100
AcDbEntity
  8
0
100
AcDbLine
 62
7
  6
CONTINUOUS
 10
138.6354264449
 20
85.404125665
 11
142.6354264449
 21
89.404125665
  0
LINE
  5
4DF
100
AcDbEntity
  8
0
100
AcDbLine
 62
7
  6
CONTINUOUS
 10
139.0354264449
 20
85.404125665
 11
142.6354264449
 21
89.004125665
  0
LINE
  5
4E0
100
AcDbEntity
  8
0
100
AcDbLine
 62
7
  6
CONTINUOUS
 10
139.4354264449
 20
85.404125665
 11
142.6354264449
 21
88.604125665
  0
LINE
  5
4E1
100
AcDbEntity
  8
0
100
AcDbLine
 62
7
  6
CONTINUOUS
 10
139.8354264449
 20
85.404125665
 11
142.6354264449
 21
88.204125665
  0
LINE
  5
4E2
100
AcDbEntity
  8
0
100
AcDbLine
 62
7
  6
CONTINUOUS
 10
140.2354264449
 20
85.404125665
 11
142.6354264449
 21
87.804125665
  0
LINE
  5
4E3
100
AcDbEntity
  8
0
100
AcDbLine
 62
7
  6
CONTINUOUS
 10
140.6354264449
 20
85.404125665
 11
142.6354264449
 21
87.404125665
  0
LINE
  5
4E4
100
AcDbEntity
  8
0
100
AcDbLine
 62
7
  6
CONTINUOUS
 10
141.0354264449
 20
85.404125665
 11
142.6354264449
 21
87.004125665
  0
LINE
  5
4E5
100
AcDbEntity
  8
0
100
AcDbLine
 62
7
  6
CONTINUOUS
 10
141.4354264449
 20
85.404125665
 11
142.6354264449
 21
86.604125665
  0
LINE
  5
4E6
100
AcDbEntity
  8
0
100
AcDbLine
 62
7
  6
CONTINUOUS
 10
141.8354264449
 20
85.404125665
 11
142.6354264449
 21
86.204125665
  0
LINE
  5
4E7
100
AcDbEntity
  8
0
100
AcDbLine
 62
7
  6
CONTINUOUS
 10
142.2354264449
 20
85.404125665
 11
142.6354264449
 21
85.804125665
  0
LINE
  5
4E8
100
AcDbEntity
  8
0
100
AcDbLine
 62
7
  6
CONTINUOUS
 10
143.8354264449
 20
119.804125665
 11
146.4354264449
 21
120.204125665
  0
LINE
  5
4E9
100
AcDbEntity
  8
ASSI
100
AcDbLine
 62
7
  6
CONTINUOUS
 10
143.8354264449
 20
119.804125665
 11
146.4354264449
 21
120.204125665
  0
LINE
  5
4EA
100
AcDbEntity
  8
RACCORDO
100
AcDbLine
 62
253
  6
CONTINUOUS
 10
142.2354264449
 20
118.754125665
 11
141.9236337499
 21
118.754125665
  0
LINE
  5
4EB
100
AcDbEntity
  8
ASSI
100
AcDbLine
 62
253
  6
CONTINUOUS
 10
142.2354264449
 20
118.754125665
 11
141.9236337499
 21
118.754125665
  0
LINE
  5
4EC
100
AcDbEntity
  8
RACCORDO
100
AcDbLine
 62
253
  6
CONTINUOUS
 10
132.2354264449
 20
118.754125665
 11
131.9236337499
 21
118.754125665
  0
LINE
  5
4ED
100
AcDbEntity
  8
ASSI
100
AcDbLine
 62
253
  6
CONTINUOUS
 10
132.2354264449
 20
118.754125665
 11
131.9236337499
 21
118.754125665
  0
LINE
  5
4EE
100
AcDbEntity
  8
RACCORDO
100
AcDbLine
 62
253
  6
CONTINUOUS
 10
131.4354264449
 20
118.754125665
 11
131.7472191399
 21
118.754125665
  0
LINE
  5
4EF
100
AcDbEntity
  8
ASSI
100
AcDbLine
 62
253
  6
CONTINUOUS
 10
131.4354264449
 20
118.754125665
 11
131.7472191399
 21
118.754125665
  0
LINE
  5
4F0
100
AcDbEntity
  8
RACCORDO
100
AcDbLine
 62
253
  6
CONTINUOUS
 10
141.4354264449
 20
118.754125665
 11
141.7472191399
 21
118.754125665
  0
LINE
  5
4F1
100
AcDbEntity
  8
ASSI
100
AcDbLine
 62
253
  6
CONTINUOUS
 10
141.4354264449
 20
118.754125665
 11
141.7472191399
 21
118.754125665
  0
LINE
  5
4F2
100
AcDbEntity
  8
RACCORDO
100
AcDbLine
 62
7
  6
CONTINUOUS
 10
141.9236337499
 20
119.154125665
 11
141.7472191399
 21
119.154125665
  0
LINE
  5
4F3
100
AcDbEntity
  8
ASSI
100
AcDbLine
 62
7
  6
CONTINUOUS
 10
141.9236337499
 20
119.154125665
 11
141.7472191399
 21
119.154125665
  0
LINE
  5
4F4
100
AcDbEntity
  8
RACCORDO
100
AcDbLine
 62
7
  6
CONTINUOUS
 10
131.9236337499
 20
119.154125665
 11
131.7472191399
 21
119.154125665
  0
LINE
  5
4F5
100
AcDbEntity
  8
ASSI
100
AcDbLine
 62
7
  6
CONTINUOUS
 10
131.9236337499
 20
119.154125665
 11
131.7472191399
 21
119.154125665
  0
LINE
  5
4F6
100
AcDbEntity
  8
RACCORDO
100
AcDbLine
 62
7
  6
CONTINUOUS
 10
141.9131615085
 20
119.3227746667
 11
141.7576913813
 21
119.3227746667
  0
LINE
  5
4F7
100
AcDbEntity
  8
ASSI
100
AcDbLine
 62
7
  6
CONTINUOUS
 10
141.9131615085
 20
119.3227746667
 11
141.7576913813
 21
119.3227746667
  0
LINE
  5
4F8
100
AcDbEntity
  8
RACCORDO
100
AcDbLine
 62
7
  6
CONTINUOUS
 10
131.9131615085
 20
119.3227746667
 11
131.7576913813
 21
119.3227746667
  0
LINE
  5
4F9
100
AcDbEntity
  8
ASSI
100
AcDbLine
 62
7
  6
CONTINUOUS
 10
131.9131615085
 20
119.3227746667
 11
131.7576913813
 21
119.3227746667
  0
LINE
  5
4FA
100
AcDbEntity
  8
0
100
AcDbLine
 62
7
  6
CONTINUOUS
 10
129.8354264449
 20
119.804125665
 11
127.2354264449
 21
120.204125665
  0
LINE
  5
4FB
100
AcDbEntity
  8
ASSI
100
AcDbLine
 62
7
  6
CONTINUOUS
 10
129.8354264449
 20
119.804125665
 11
127.2354264449
 21
120.204125665
  0
LINE
  5
4FC
100
AcDbEntity
  8
RACCORDO
100
AcDbLine
 62
253
  6
CONTINUOUS
 10
126.9354264449
 20
119.704125665
 11
131.4354264449
 21
119.704125665
  0
LINE
  5
4FD
100
AcDbEntity
  8
ASSI
100
AcDbLine
 62
253
  6
CONTINUOUS
 10
126.9354264449
 20
119.704125665
 11
131.4354264449
 21
119.704125665
  0
LINE
  5
4FE
100
AcDbEntity
  8
RACCORDO
100
AcDbLine
 62
253
  6
CONTINUOUS
 10
132.2354264449
 20
119.704125665
 11
141.4354264449
 21
119.704125665
  0
LINE
  5
4FF
100
AcDbEntity
  8
ASSI
100
AcDbLine
 62
253
  6
CONTINUOUS
 10
132.2354264449
 20
119.704125665
 11
141.4354264449
 21
119.704125665
  0
LINE
  5
500
100
AcDbEntity
  8
RACCORDO
100
AcDbLine
 62
253
  6
CONTINUOUS
 10
142.2354264449
 20
119.704125665
 11
146.7354264449
 21
119.704125665
  0
LINE
  5
501
100
AcDbEntity
  8
ASSI
100
AcDbLine
 62
253
  6
CONTINUOUS
 10
142.2354264449
 20
119.704125665
 11
146.7354264449
 21
119.704125665
  0
LINE
  5
502
100
AcDbEntity
  8
SUPERFICI
100
AcDbLine
 62
7
  6
CONTINUOUS
 10
130.4354264449
 20
119.804125665
 11
129.8354264449
 21
119.804125665
  0
LINE
  5
503
100
AcDbEntity
  8
ASSI
100
AcDbLine
 62
7
  6
CONTINUOUS
 10
130.4354264449
 20
119.804125665
 11
129.8354264449
 21
119.804125665
  0
LINE
  5
504
100
AcDbEntity
  8
SUPERFICI
100
AcDbLine
 62
7
  6
CONTINUOUS
 10
143.2354264449
 20
119.804125665
 11
143.8354264449
 21
119.804125665
  0
LINE
  5
505
100
AcDbEntity
  8
ASSI
100
AcDbLine
 62
7
  6
CONTINUOUS
 10
143.2354264449
 20
119.804125665
 11
143.8354264449
 21
119.804125665
  0
LINE
  5
506
100
AcDbEntity
  8
RACCORDO
100
AcDbLine
 62
7
  6
CONTINUOUS
 10
146.4354264449
 20
120.204125665
 11
143.8354264449
 21
120.204125665
  0
LINE
  5
507
100
AcDbEntity
  8
RACCORDO
100
AcDbLine
 62
7
  6
CONTINUOUS
 10
129.8354264449
 20
120.204125665
 11
127.2354264449
 21
120.204125665
  0
LINE
  5
508
100
AcDbEntity
  8
0
100
AcDbLine
 62
7
  6
CONTINUOUS
 10
129.8354264449
 20
120.204125665
 11
143.8354264449
 21
120.204125665
  0
LINE
  5
509
100
AcDbEntity
  8
ASSI
100
AcDbLine
 62
7
  6
CONTINUOUS
 10
127.2354264449
 20
120.204125665
 11
146.4354264449
 21
120.204125665
  0
LINE
  5
50A
100
AcDbEntity
  8
RACCORDO
100
AcDbLine
 62
7
  6
CONTINUOUS
 10
147.1355482888
 20
121.704125665
 11
126.535304601
 21
121.704125665
  0
LINE
  5
50B
100
AcDbEntity
  8
ASSI
100
AcDbLine
 62
7
  6
CONTINUOUS
 10
147.1355482888
 20
121.704125665
 11
126.535304601
 21
121.704125665
  0
ARC
  5
50C
100
AcDbEntity
  8
0
100
AcDbCircle
 62
7
  6
CONTINUOUS
 10
148.7354264449
 20
92.354125665
 40
2.0
100
AcDbArc
 50
130.5416018735
 51
180.0
  0
ARC
  5
50D
100
AcDbEntity
  8
0
100
AcDbCircle
 62
7
  6
CONTINUOUS
 10
148.7354264449
 20
107.354125665
 40
2.0
100
AcDbArc
 50
180.0
 51
229.4583981265
  0
ARC
  5
50E
100
AcDbEntity
  8
0
100
AcDbCircle
 62
7
  6
CONTINUOUS
 10
124.9354264449
 20
107.354125665
 40
2.0
100
AcDbArc
 50
310.5416018735
 51
360.0
  0
ARC
  5
50F
100
AcDbEntity
  8
0
100
AcDbCircle
 62
7
  6
CONTINUOUS
 10
124.9354264449
 20
92.354125665
 40
2.0
100
AcDbArc
 50
0.0
 51
49.4583981265
  0
ARC
  5
510
100
AcDbEntity
  8
ASSI
100
AcDbCircle
 62
7
  6
CONTINUOUS
 10
148.7354264449
 20
92.354125665
 40
2.0
100
AcDbArc
 50
130.5416018735
 51
180.0
  0
ARC
  5
511
100
AcDbEntity
  8
ASSI
100
AcDbCircle
 62
7
  6
CONTINUOUS
 10
148.7354264449
 20
107.354125665
 40
2.0
100
AcDbArc
 50
180.0
 51
229.4583981265
  0
ARC
  5
512
100
AcDbEntity
  8
ASSI
100
AcDbCircle
 62
7
  6
CONTINUOUS
 10
124.9354264449
 20
107.354125665
 40
2.0
100
AcDbArc
 50
310.5416018735
 51
360.0
  0
ARC
  5
513
100
AcDbEntity
  8
ASSI
100
AcDbCircle
 62
7
  6
CONTINUOUS
 10
124.9354264449
 20
92.354125665
 40
2.0
100
AcDbArc
 50
0.0
 51
49.4583981265
  0
ARC
  5
514
100
AcDbEntity
  8
RACCORDO
100
AcDbCircle
 62
7
  6
CONTINUOUS
 10
131.3354264449
 20
85.854125665
 40
1.3
100
AcDbArc
 50
180.0
 51
270.0
  0
ARC
  5
515
100
AcDbEntity
  8
RACCORDO
100
AcDbCircle
 62
7
  6
CONTINUOUS
 10
131.3354264449
 20
89.354125665
 40
1.3
100
AcDbArc
 50
90.0
 51
180.0
  0
ARC
  5
516
100
AcDbEntity
  8
RACCORDO
100
AcDbCircle
 62
7
  6
CONTINUOUS
 10
142.3354264449
 20
85.854125665
 40
1.3
100
AcDbArc
 50
270.0
 51
360.0
  0
ARC
  5
517
100
AcDbEntity
  8
RACCORDO
100
AcDbCircle
 62
7
  6
CONTINUOUS
 10
142.3354264449
 20
89.354125665
 40
1.3
100
AcDbArc
 50
0.0
 51
90.0
  0
ARC
  5
518
100
AcDbEntity
  8
ASSI
100
AcDbCircle
 62
7
  6
CONTINUOUS
 10
141.3341514449
 20
108.037468665
 40
0.7667158029
100
AcDbArc
 50
292.8428449664
 51
89.9987108403
  0
ARC
  5
519
100
AcDbEntity
  8
RACCORDO
100
AcDbCircle
 62
7
  6
CONTINUOUS
 10
131.8354264449
 20
118.754125665
 40
0.4
100
AcDbArc
 50
180.0
 51
360.0
  0
ARC
  5
51A
100
AcDbEntity
  8
RACCORDO
100
AcDbCircle
 62
7
  6
CONTINUOUS
 10
141.8354264449
 20
118.754125665
 40
0.4
100
AcDbArc
 50
180.0
 51
360.0
  0
ARC
  5
51B
100
AcDbEntity
  8
ASSI
100
AcDbCircle
 62
7
  6
CONTINUOUS
 10
141.8354264449
 20
118.754125665
 40
0.4
100
AcDbArc
 50
180.0
 51
360.0
  0
ARC
  5
51C
100
AcDbEntity
  8
ASSI
100
AcDbCircle
 62
7
  6
CONTINUOUS
 10
131.8354264449
 20
118.754125665
 40
0.4
100
AcDbArc
 50
180.0
 51
360.0
  0
ARC
  5
51D
100
AcDbEntity
  8
RACCORDO
100
AcDbCircle
 62
253
  6
CONTINUOUS
 10
131.8354264449
 20
118.754125665
 40
0.38819588
100
AcDbArc
 50
180.0
 51
360.0
  0
ARC
  5
51E
100
AcDbEntity
  8
RACCORDO
100
AcDbCircle
 62
253
  6
CONTINUOUS
 10
141.8354264449
 20
118.754125665
 40
0.38819588
100
AcDbArc
 50
180.0
 51
360.0
  0
ARC
  5
51F
100
AcDbEntity
  8
ASSI
100
AcDbCircle
 62
253
  6
CONTINUOUS
 10
141.8354264449
 20
118.754125665
 40
0.38819588
100
AcDbArc
 50
180.0
 51
360.0
  0
ARC
  5
520
100
AcDbEntity
  8
ASSI
100
AcDbCircle
 62
253
  6
CONTINUOUS
 10
131.8354264449
 20
118.754125665
 40
0.38819588
100
AcDbArc
 50
180.0
 51
360.0
  0
ARC
  5
521
100
AcDbEntity
  8
ASSI
100
AcDbCircle
 62
7
  6
CONTINUOUS
 10
141.2647494449
 20
108.037468665
 40
0.304195
100
AcDbArc
 50
270.0018938328
 51
90.0
  0
ARC
  5
522
100
AcDbEntity
  8
RACCORDO
100
AcDbCircle
 62
7
  6
CONTINUOUS
 10
146.4354264449
 20
79.804125665
 40
0.3
100
AcDbArc
 50
270.0
 51
360.0
  0
ARC
  5
523
100
AcDbEntity
  8
RACCORDO
100
AcDbCircle
 62
7
  6
CONTINUOUS
 10
146.4354264449
 20
119.904125665
 40
0.3
100
AcDbArc
 50
0.0
 51
90.0
  0
ARC
  5
524
100
AcDbEntity
  8
RACCORDO
100
AcDbCircle
 62
7
  6
CONTINUOUS
 10
127.2354264449
 20
79.804125665
 40
0.3
100
AcDbArc
 50
180.0
 51
270.0
  0
ARC
  5
525
100
AcDbEntity
  8
RACCORDO
100
AcDbCircle
 62
7
  6
CONTINUOUS
 10
127.2354264449
 20
119.904125665
 40
0.3
100
AcDbArc
 50
90.0
 51
180.0
  0
ARC
  5
526
100
AcDbEntity
  8
ASSI
100
AcDbCircle
 62
7
  6
CONTINUOUS
 10
127.2354264449
 20
119.904125665
 40
0.3
100
AcDbArc
 50
90.0
 51
180.0
  0
ARC
  5
527
100
AcDbEntity
  8
ASSI
100
AcDbCircle
 62
7
  6
CONTINUOUS
 10
127.2354264449
 20
79.804125665
 40
0.3
100
AcDbArc
 50
180.0
 51
270.0
  0
ARC
  5
528
100
AcDbEntity
  8
ASSI
100
AcDbCircle
 62
7
  6
CONTINUOUS
 10
146.4354264449
 20
119.904125665
 40
0.3
100
AcDbArc
 50
0.0
 51
90.0
  0
ARC
  5
529
100
AcDbEntity
  8
ASSI
100
AcDbCircle
 62
7
  6
CONTINUOUS
 10
146.4354264449
 20
79.804125665
 40
0.3
100
AcDbArc
 50
270.0
 51
360.0
  0
ELLIPSE
  5
52A
100
AcDbEntity
  8
RACCORDO
100
AcDbEllipse
 62
7
  6
CONTINUOUS
 10
126.5355483073
 20
120.9040038026
 30
0.0
 11
0.5658577513
 21
-0.5658577513
 31
0.0
 40
0.9996954599
 41
2.3563467834
 42
3.9268385237
  0
ELLIPSE
  5
52B
100
AcDbEntity
  8
RACCORDO
100
AcDbEllipse
 62
7
  6
CONTINUOUS
 10
126.5355483073
 20
78.8042475274
 30
0.0
 11
-0.5658577513
 21
-0.5658577513
 31
0.0
 40
0.9996954599
 41
-0.7852458701
 42
0.7852458701
  0
ELLIPSE
  5
52C
100
AcDbEntity
  8
RACCORDO
100
AcDbEllipse
 62
7
  6
CONTINUOUS
 10
147.1353045825
 20
120.9040038026
 30
0.0
 11
0.5658577513
 21
0.5658577513
 31
0.0
 40
0.9996954599
 41
-0.7852458701
 42
0.7852458701
  0
ELLIPSE
  5
52D
100
AcDbEntity
  8
RACCORDO
100
AcDbEllipse
 62
7
  6
CONTINUOUS
 10
147.1353045825
 20
78.8042475274
 30
0.0
 11
-0.5658577513
 21
0.5658577513
 31
0.0
 40
0.9996954599
 41
2.3563467834
 42
3.9268385237
  0
ELLIPSE
  5
52E
100
AcDbEntity
  8
RACCORDO
100
AcDbEllipse
 62
7
  6
CONTINUOUS
 10
141.7576913813
 20
119.2806124162
 30
0.0
 11
0.3
 21
0.0
 31
0.0
 40
0.1405408347
 41
1.5707963268
 42
3.1328660073
  0
ELLIPSE
  5
52F
100
AcDbEntity
  8
RACCORDO
100
AcDbEllipse
 62
7
  6
CONTINUOUS
 10
141.9131615085
 20
119.2806124162
 30
0.0
 11
0.3
 21
-0.0
 31
0.0
 40
0.1405408347
 41
0.0087266463
 42
1.5707963268
  0
ELLIPSE
  5
530
100
AcDbEntity
  8
RACCORDO
100
AcDbEllipse
 62
7
  6
CONTINUOUS
 10
131.7576913813
 20
119.2806124162
 30
0.0
 11
0.3
 21
0.0
 31
0.0
 40
0.1405408347
 41
1.5707963268
 42
3.1328660073
  0
ELLIPSE
  5
531
100
AcDbEntity
  8
RACCORDO
100
AcDbEllipse
 62
7
  6
CONTINUOUS
 10
131.9131615085
 20
119.2806124162
 30
0.0
 11
0.3
 21
0.0
 31
0.0
 40
0.1405408347
 41
0.0087266463
 42
1.5707963268
  0
ELLIPSE
  5
532
100
AcDbEntity
  8
RACCORDO
100
AcDbEllipse
 62
7
  6
CONTINUOUS
 10
141.9236337499
 20
119.1119634146
 30
0.0
 11
0.3
 21
0.0
 31
0.0
 40
0.1405408347
 41
0.0087266463
 42
1.5707963268
  0
ELLIPSE
  5
533
100
AcDbEntity
  8
RACCORDO
100
AcDbEllipse
 62
7
  6
CONTINUOUS
 10
141.7472191399
 20
119.1119634146
 30
0.0
 11
0.3
 21
-0.0
 31
0.0
 40
0.1405408347
 41
1.5707963268
 42
3.1328660073
  0
ELLIPSE
  5
534
100
AcDbEntity
  8
RACCORDO
100
AcDbEllipse
 62
7
  6
CONTINUOUS
 10
131.9236337499
 20
119.1119634146
 30
0.0
 11
0.3
 21
0.0
 31
0.0
 40
0.1405408347
 41
0.0087266463
 42
1.5707963268
  0
ELLIPSE
  5
535
100
AcDbEntity
  8
RACCORDO
100
AcDbEllipse
 62
7
  6
CONTINUOUS
 10
131.7472191399
 20
119.1119634146
 30
0.0
 11
0.3
 21
-0.0
 31
0.0
 40
0.1405408347
 41
1.5707963268
 42
3.1328660073
  0
ELLIPSE
  5
536
100
AcDbEntity
  8
RACCORDO
100
AcDbEllipse
 62
7
  6
CONTINUOUS
 10
131.3354797546
 20
85.8541789747
 30
0.0
 11
0.9900248836
 21
0.9900248836
 31
0.0
 40
0.9999238505
 41
2.3562325664
 42
3.9269527408
  0
ELLIPSE
  5
537
100
AcDbEntity
  8
RACCORDO
100
AcDbEllipse
 62
7
  6
CONTINUOUS
 10
131.3354797546
 20
89.3540723553
 30
0.0
 11
0.9900248836
 21
-0.9900248836
 31
0.0
 40
0.9999238505
 41
2.3562325664
 42
3.9269527408
  0
ELLIPSE
  5
538
100
AcDbEntity
  8
RACCORDO
100
AcDbEllipse
 62
7
  6
CONTINUOUS
 10
142.3353731351
 20
89.3540723553
 30
0.0
 11
-0.9900248836
 21
-0.9900248836
 31
0.0
 40
0.9999238505
 41
2.3562325664
 42
3.9269527408
  0
ELLIPSE
  5
539
100
AcDbEntity
  8
RACCORDO
100
AcDbEllipse
 62
7
  6
CONTINUOUS
 10
142.3353731351
 20
85.8541789747
 30
0.0
 11
-0.9900248836
 21
0.9900248836
 31
0.0
 40
0.9999238505
 41
2.3562325664
 42
3.9269527408
  0
ELLIPSE
  5
53A
100
AcDbEntity
  8
RACCORDO
100
AcDbEllipse
 62
7
  6
CONTINUOUS
 10
132.231063011
 20
119.704125665
 30
0.0
 11
-0.0
 21
0.5
 31
0.0
 40
0.0087268678
 41
4.7123889804
 42
6.2831853072
  0
ELLIPSE
  5
53B
100
AcDbEntity
  8
RACCORDO
100
AcDbEllipse
 62
7
  6
CONTINUOUS
 10
141.4397898788
 20
119.704125665
 30
0.0
 11
-0.0
 21
0.5
 31
0.0
 40
0.0087268678
 41
6.2831853072
 42
7.853981634
  0
ELLIPSE
  5
53C
100
AcDbEntity
  8
RACCORDO
100
AcDbEllipse
 62
7
  6
CONTINUOUS
 10
131.4397898788
 20
119.704125665
 30
0.0
 11
-0.0
 21
0.5
 31
0.0
 40
0.0087268678
 41
6.2831853072
 42
7.853981634
  0
ELLIPSE
  5
53D
100
AcDbEntity
  8
RACCORDO
100
AcDbEllipse
 62
7
  6
CONTINUOUS
 10
142.231063011
 20
119.704125665
 30
0.0
 11
0.0
 21
0.5
 31
0.0
 40
0.0087268678
 41
4.7123889804
 42
6.2831853072
  0
ELLIPSE
  5
53E
100
AcDbEntity
  8
ASSI
100
AcDbEllipse
 62
7
  6
CONTINUOUS
 10
126.5355483073
 20
120.9040038026
 30
0.0
 11
0.5658577513
 21
-0.5658577513
 31
0.0
 40
0.9996954599
 41
2.3563467834
 42
3.9268385237
  0
ELLIPSE
  5
53F
100
AcDbEntity
  8
ASSI
100
AcDbEllipse
 62
7
  6
CONTINUOUS
 10
126.5355483073
 20
78.8042475274
 30
0.0
 11
-0.5658577513
 21
-0.5658577513
 31
0.0
 40
0.9996954599
 41
-0.7852458701
 42
0.7852458701
  0
ELLIPSE
  5
540
100
AcDbEntity
  8
ASSI
100
AcDbEllipse
 62
7
  6
CONTINUOUS
 10
147.1353045825
 20
120.9040038026
 30
0.0
 11
0.5658577513
 21
0.5658577513
 31
0.0
 40
0.9996954599
 41
-0.7852458701
 42
0.7852458701
  0
ELLIPSE
  5
541
100
AcDbEntity
  8
ASSI
100
AcDbEllipse
 62
7
  6
CONTINUOUS
 10
147.1353045825
 20
78.8042475274
 30
0.0
 11
-0.5658577513
 21
0.5658577513
 31
0.0
 40
0.9996954599
 41
2.3563467834
 42
3.9268385237
  0
ELLIPSE
  5
542
100
AcDbEntity
  8
ASSI
100
AcDbEllipse
 62
7
  6
CONTINUOUS
 10
141.7576913813
 20
119.2806124162
 30
0.0
 11
0.3
 21
0.0
 31
0.0
 40
0.1405408347
 41
1.5707963268
 42
3.1328660073
  0
ELLIPSE
  5
543
100
AcDbEntity
  8
ASSI
100
AcDbEllipse
 62
7
  6
CONTINUOUS
 10
141.9131615085
 20
119.2806124162
 30
0.0
 11
0.3
 21
-0.0
 31
0.0
 40
0.1405408347
 41
0.0087266463
 42
1.5707963268
  0
ELLIPSE
  5
544
100
AcDbEntity
  8
ASSI
100
AcDbEllipse
 62
7
  6
CONTINUOUS
 10
131.9131615085
 20
119.2806124162
 30
0.0
 11
0.3
 21
0.0
 31
0.0
 40
0.1405408347
 41
0.0087266463
 42
1.5707963268
  0
ELLIPSE
  5
545
100
AcDbEntity
  8
ASSI
100
AcDbEllipse
 62
7
  6
CONTINUOUS
 10
132.231063011
 20
119.704125665
 30
0.0
 11
0.0
 21
0.5
 31
0.0
 40
0.0087268678
 41
4.7123889804
 42
6.2831853072
  0
ELLIPSE
  5
546
100
AcDbEntity
  8
ASSI
100
AcDbEllipse
 62
7
  6
CONTINUOUS
 10
141.4397898788
 20
119.704125665
 30
0.0
 11
-0.0
 21
0.5
 31
0.0
 40
0.0087268678
 41
6.2831853072
 42
7.853981634
  0
ELLIPSE
  5
547
100
AcDbEntity
  8
ASSI
100
AcDbEllipse
 62
7
  6
CONTINUOUS
 10
131.4397898788
 20
119.704125665
 30
0.0
 11
-0.0
 21
0.5
 31
0.0
 40
0.0087268678
 41
6.2831853072
 42
7.853981634
  0
ELLIPSE
  5
548
100
AcDbEntity
  8
ASSI
100
AcDbEllipse
 62
7
  6
CONTINUOUS
 10
142.231063011
 20
119.704125665
 30
0.0
 11
0.0
 21
0.5
 31
0.0
 40
0.0087268678
 41
4.7123889804
 42
6.2831853072
  0
ELLIPSE
  5
549
100
AcDbEntity
  8
ASSI
100
AcDbEllipse
 62
7
  6
CONTINUOUS
 10
131.7472191399
 20
119.1119634146
 30
0.0
 11
0.3
 21
-0.0
 31
0.0
 40
0.1405408347
 41
1.5707963268
 42
3.1328660073
  0
ELLIPSE
  5
54A
100
AcDbEntity
  8
ASSI
100
AcDbEllipse
 62
7
  6
CONTINUOUS
 10
131.9236337499
 20
119.1119634146
 30
0.0
 11
0.3
 21
0.0
 31
0.0
 40
0.1405408347
 41
0.0087266463
 42
1.5707963268
  0
ELLIPSE
  5
54B
100
AcDbEntity
  8
ASSI
100
AcDbEllipse
 62
7
  6
CONTINUOUS
 10
141.7472191399
 20
119.1119634146
 30
0.0
 11
0.3
 21
-0.0
 31
0.0
 40
0.1405408347
 41
1.5707963268
 42
3.1328660073
  0
ELLIPSE
  5
54C
100
AcDbEntity
  8
ASSI
100
AcDbEllipse
 62
7
  6
CONTINUOUS
 10
141.9236337499
 20
119.1119634146
 30
0.0
 11
0.3
 21
0.0
 31
0.0
 40
0.1405408347
 41
0.0087266463
 42
1.5707963268
  0
ELLIPSE
  5
54D
100
AcDbEntity
  8
ASSI
100
AcDbEllipse
 62
7
  6
CONTINUOUS
 10
131.3354797546
 20
85.8541789747
 30
0.0
 11
0.9900248836
 21
0.9900248836
 31
0.0
 40
0.9999238505
 41
2.3562325664
 42
3.9269527408
  0
ELLIPSE
  5
54E
100
AcDbEntity
  8
ASSI
100
AcDbEllipse
 62
7
  6
CONTINUOUS
 10
131.3354797546
 20
89.3540723553
 30
0.0
 11
0.9900248836
 21
-0.9900248836
 31
0.0
 40
0.9999238505
 41
2.3562325664
 42
3.9269527408
  0
ELLIPSE
  5
54F
100
AcDbEntity
  8
ASSI
100
AcDbEllipse
 62
7
  6
CONTINUOUS
 10
142.3353731351
 20
89.3540723553
 30
0.0
 11
-0.9900248836
 21
-0.9900248836
 31
0.0
 40
0.9999238505
 41
2.3562325664
 42
3.9269527408
  0
ELLIPSE
  5
550
100
AcDbEntity
  8
ASSI
100
AcDbEllipse
 62
7
  6
CONTINUOUS
 10
142.3353731351
 20
85.8541789747
 30
0.0
 11
-0.9900248836
 21
0.9900248836
 31
0.0
 40
0.9999238505
 41
2.3562325664
 42
3.9269527408
  0
ELLIPSE
  5
551
100
AcDbEntity
  8
ASSI
100
AcDbEllipse
 62
7
  6
CONTINUOUS
 10
131.7576913813
 20
119.2806124162
 30
0.0
 11
0.3
 21
0.0
 31
0.0
 40
0.1405408347
 41
1.5707963268
 42
3.1328660073
  0
ENDSEC
  0
SECTION
  2
OBJECTS
  0
DICTIONARY
  5
C
100
AcDbDictionary
280
0
281
1
  3
ACAD_GROUP
350
D
  3
ACAD_MLINESTYLE
350
17
  3
ACAD_LAYOUT
350
1A
  3
ACAD_PLOTSETTINGS
350
19
  3
ACAD_PLOTSTYLENAME
350
E
  0
DICTIONARY
  5
D
102
{ACAD_REACTORS
330
C
102
}
100
AcDbDictionary
280
0
281
1
  0
ACDBDICTIONARYWDFLT
  5
E
102
{ACAD_REACTORS
330
C
102
}
100
AcDbDictionary
281
1
  3
Normal
350
F
100
AcDbDictionaryWithDefault
340
F
  0
DICTIONARY
  5
17
102
{ACAD_REACTORS
330
C
102
}
100
AcDbDictionary
280
0
281
1
  3
Standard
350
18
  0
DICTIONARY
  5
19
102
{ACAD_REACTORS
330
C
102
}
100
AcDbDictionary
281
1
  0
DICTIONARY
  5
1A
102
{ACAD_REACTORS
330
C
102
}
100
AcDbDictionary
281
1
  3
Model
350
552
  3
Layout1
350
553
  0
ACDBPLACEHOLDER
  5
F
102
{ACAD_REACTORS
330
E
102
}
  0
MLINESTYLE
  5
18
102
{ACAD_REACTORS
330
17
102
}
100
AcDbMlineStyle
  2
STANDARD
 70
0
  3

 62
256
 51
90.0
 52
90.0
 71
2
 49
0.5
 62
256
  6
BYLAYER
 49
-0.5
 62
256
  6
BYLAYER
  0
LAYOUT
  5
552
102
{ACAD_REACTORS
330
1A
102
}
100
AcDbPlotSettings
  1

  2
none_device
  4
ISO_A4_(297.00_x_210.00_MM)
  6

 40
0.0
 41
0.0
 42
0.0
 43
0.0
 44
297.0
 45
210.0
 46
0.0
 47
0.0
 48
0.0
 49
0.0
140
0.0
141
0.0
142
1.0
143
1.0
 70
1024
 72
1
 73
0
 74
0
  7

 75
0
147
1.0
148
0.0
149
0.0
100
AcDbLayout
  1
Model
 70
0
 71
0
 10
0.0
 20
0.0
 11
297.0
 21
210.0
 12
0.0
 22
0.0
 32
0.0
 14
0.0
 24
0.0
 34
0.0
 15
0.0
 25
0.0
 35
0.0
146
0.0
 13
0.0
 23
0.0
 33
0.0
 16
1.0
 26
0.0
 36
0.0
 17
0.0
 27
1.0
 37
0.0
 76
0
330
215
345
0
346
0
  0
LAYOUT
  5
553
102
{ACAD_REACTORS
330
1A
102
}
100
AcDbPlotSettings
  1

  2
none_device
  4
ISO_A4_(297.00_x_210.00_MM)
  6

 40
0.0
 41
0.0
 42
0.0
 43
0.0
 44
297.0
 45
210.0
 46
0.0
 47
0.0
 48
0.0
 49
0.0
140
0.0
141
0.0
142
1.0
143
1.0
 70
0
 72
1
 73
0
 74
0
  7

 75
0
147
1.0
148
0.0
149
0.0
100
AcDbLayout
  1
Layout1
 70
0
 71
1
 10
0.0
 20
0.0
 11
297.0
 21
210.0
 12
0.0
 22
0.0
 32
0.0
 14
0.0
 24
0.0
 34
0.0
 15
0.0
 25
0.0
 35
0.0
146
0.0
 13
0.0
 23
0.0
 33
0.0
 16
1.0
 26
0.0
 36
0.0
 17
0.0
 27
1.0
 37
0.0
 76
0
330
216
345
0
346
0
  0
ENDSEC
  0
EOF
