0
SECTION
2
HEADER
9
$ACADVER
1
AC1015
9
$DWGCODEPAGE
3
ANSI_1252
9
$EXTMAX
10
431.8000000000
20
558.8000000000
30
0.0000000000
9
$EXTMIN
10
0.0000000000
20
0.0000000000
30
0.0000000000
9
$LIMMIN
10
0.0000000000
20
0.0000000000
9
$LIMMAX
10
431.8000000000
20
558.8000000000
9
$VIEWCTR
10
215.9000000000
20
279.4000000000
9
$VIEWSIZE
40
558.8000000000
9
$CLAYER
8
0
9
$LTSCALE
40
36.4254814815
9
$CELTYPE
6
BYLAYER
9
$DIMSCALE
40
1
9
$DIMASZ
40
3.0000000000
9
$DIMEXO
40
4.1392592593
9
$DIMDLI
40
25.1666962963
9
$DIMEXE
40
11.9210666667
9
$DIMCEN
40
5.9605333333
9
$DIMLFAC
40
1.0000000000
9
$DIMBLK
1
_FILLED
9
$DIMTXT
40
3.0000000000
9
$DIMTOL
70
1
9
$DIMLIM
70
0
9
$DIMTFAC
40
1.0000000000
9
$DIMTP
40
0.0100000000
9
$DIMTM
40
0.0100000000
9
$PDMODE
70
3
9
$PDSIZE
40
3.0000000000
9
$HANDSEED
5
45D
9
$MEASUREMENT
70
1
9
$INSUNITS
70
4
0
ENDSEC
0
SECTION
2
CLASSES
0
CLASS
1
ACDBDICTIONARYWDFLT
2
AcDbDictionaryWithDefault
3
AutoCAD 2000
90
0
280
0
281
0
0
CLASS
1
ACDBPLACEHOLDER
2
AcDbPlaceHolder
3
AutoCAD 2000
90
0
280
0
281
0
0
CLASS
1
LAYOUT
2
AcDbLayout
3
AutoCAD 2000
90
0
280
0
281
0
0
ENDSEC
0
SECTION
2
TABLES
0
TABLE
2
VPORT
5
8
100
AcDbSymbolTable
70
2
0
VPORT
5
1F4
100
AcDbSymbolTableRecord
100
AcDbViewportTableRecord
2
*ACTIVE
70
0
10
0.0
20
0.0
11
1.0
21
1.0
12
215.9000000000
22
279.4000000000
13
0.0
23
0.0
14
1.0
24
1.0
15
0.0
25
0.0
16
0.0
26
0.0
36
1.0
17
0.0
27
0.0
37
0.0
40
558.8000000000
41
0.7727272727
42
50.0
43
0.0
44
0.0
50
0.0
51
0.0
71
0
72
100
73
1
74
1
75
0
76
0
77
0
78
0
0
ENDTAB
0
TABLE
2
LTYPE
5
5
100
AcDbSymbolTable
70
6
0
LTYPE
5
14
100
AcDbSymbolTableRecord
100
AcDbLinetypeTableRecord
2
BYBLOCK
70
0
3

72
65
73
0
40
0.0
0
LTYPE
5
15
100
AcDbSymbolTableRecord
100
AcDbLinetypeTableRecord
2
BYLAYER
70
0
3

72
65
73
0
40
0.0
0
LTYPE
5
16
100
AcDbSymbolTableRecord
100
AcDbLinetypeTableRecord
2
CONTINUOUS
70
64
3
Solid line
72
65
73
0
40
0
0
LTYPE
5
1F5
100
AcDbSymbolTableRecord
100
AcDbLinetypeTableRecord
2
CENTER
70
64
3
____ _ ____ _ ____ _ ____ _ ____ _ ____ _ ____
72
65
73
4
40
0.6
49
0.375
74
0
49
-0.075
74
0
49
0.075
74
0
49
-0.075
74
0
0
LTYPE
5
1F6
100
AcDbSymbolTableRecord
100
AcDbLinetypeTableRecord
2
HIDDEN
70
64
3
- - - - - - - - - - - - - - - - - - - -
72
65
73
2
40
0.2
49
0.1
74
0
49
-0.1
74
0
0
LTYPE
5
1F7
100
AcDbSymbolTableRecord
100
AcDbLinetypeTableRecord
2
PHANTOM
70
64
3
_____ _ _ _____ _ _ _____ _ _ _____
72
65
73
6
40
0.8
49
0.45
74
0
49
-0.05
74
0
49
0.1
74
0
49
-0.05
74
0
49
0.1
74
0
49
-0.05
74
0
0
LTYPE
5
1F8
100
AcDbSymbolTableRecord
100
AcDbLinetypeTableRecord
2
DOT
70
64
3
. . . . . . . . . . . . . . . . . . . .
72
65
73
2
40
0.2
49
0.1
74
0
49
-0.1
74
0
0
LTYPE
5
1F9
100
AcDbSymbolTableRecord
100
AcDbLinetypeTableRecord
2
DASHED
70
64
3
- - - - - - - - - - - - - - - - - - - -
72
65
73
2
40
0.2
49
0.1
74
0
49
-0.1
74
0
0
ENDTAB
0
TABLE
2
LAYER
5
2
100
AcDbSymbolTable
70
36
0
LAYER
5
10
100
AcDbSymbolTableRecord
100
AcDbLayerTableRecord
2
0
70
0
62
7
6
CONTINUOUS
370
-3
390
F
0
LAYER
5
1FA
100
AcDbSymbolTableRecord
100
AcDbLayerTableRecord
2
DEFAULT_1
70
0
62
7
6
CENTER
370
-3
390
F
0
LAYER
5
1FB
100
AcDbSymbolTableRecord
100
AcDbLayerTableRecord
2
DEFAULT_2
70
0
62
9
6
HIDDEN
370
-3
390
F
0
LAYER
5
1FC
100
AcDbSymbolTableRecord
100
AcDbLayerTableRecord
2
DEFAULT_3
70
0
62
7
6
PHANTOM
370
-3
390
F
0
LAYER
5
1FD
100
AcDbSymbolTableRecord
100
AcDbLayerTableRecord
2
_2D_DELETED_OBJS
70
0
62
7
6
CONTINUOUS
370
-3
390
F
0
LAYER
5
1FE
100
AcDbSymbolTableRecord
100
AcDbLayerTableRecord
2
_BLACK_HOLE
70
0
62
7
6
CONTINUOUS
370
-3
390
F
0
LAYER
5
1FF
100
AcDbSymbolTableRecord
100
AcDbLayerTableRecord
2
ASSI
70
0
62
7
6
CONTINUOUS
370
-3
390
F
0
LAYER
5
200
100
AcDbSymbolTableRecord
100
AcDbLayerTableRecord
2
COORDINATE
70
0
62
7
6
CONTINUOUS
370
-3
390
F
0
LAYER
5
201
100
AcDbSymbolTableRecord
100
AcDbLayerTableRecord
2
COORD_ORIGINE
70
0
62
7
6
CONTINUOUS
370
-3
390
F
0
LAYER
5
202
100
AcDbSymbolTableRecord
100
AcDbLayerTableRecord
2
COPY_PUBLISH
70
0
62
7
6
CONTINUOUS
370
-3
390
F
0
LAYER
5
203
100
AcDbSymbolTableRecord
100
AcDbLayerTableRecord
2
COSMETIC
70
0
62
7
6
CONTINUOUS
370
-3
390
F
0
LAYER
5
204
100
AcDbSymbolTableRecord
100
AcDbLayerTableRecord
2
CURVE
70
0
62
7
6
CONTINUOUS
370
-3
390
F
0
LAYER
5
205
100
AcDbSymbolTableRecord
100
AcDbLayerTableRecord
2
DRAFT
70
0
62
7
6
CONTINUOUS
370
-3
390
F
0
LAYER
5
206
100
AcDbSymbolTableRecord
100
AcDbLayerTableRecord
2
IMPORT
70
0
62
7
6
CONTINUOUS
370
-3
390
F
0
LAYER
5
207
100
AcDbSymbolTableRecord
100
AcDbLayerTableRecord
2
IMPORT_IGES
70
0
62
7
6
CONTINUOUS
370
-3
390
F
0
LAYER
5
208
100
AcDbSymbolTableRecord
100
AcDbLayerTableRecord
2
INCISIONI_LASER
70
0
62
7
6
CONTINUOUS
370
-3
390
F
0
LAYER
5
209
100
AcDbSymbolTableRecord
100
AcDbLayerTableRecord
2
NOTE
70
0
62
7
6
CONTINUOUS
370
-3
390
F
0
LAYER
5
20A
100
AcDbSymbolTableRecord
100
AcDbLayerTableRecord
2
PIANI
70
0
62
7
6
CONTINUOUS
370
-3
390
F
0
LAYER
5
20B
100
AcDbSymbolTableRecord
100
AcDbLayerTableRecord
2
PIANI_ORIGINE
70
0
62
7
6
CONTINUOUS
370
-3
390
F
0
LAYER
5
20C
100
AcDbSymbolTableRecord
100
AcDbLayerTableRecord
2
PUNTI
70
0
62
7
6
CONTINUOUS
370
-3
390
F
0
LAYER
5
20D
100
AcDbSymbolTableRecord
100
AcDbLayerTableRecord
2
RACCORDO
70
0
62
7
6
CONTINUOUS
370
-3
390
F
0
LAYER
5
20E
100
AcDbSymbolTableRecord
100
AcDbLayerTableRecord
2
SMUSSO
70
0
62
7
6
CONTINUOUS
370
-3
390
F
0
LAYER
5
20F
100
AcDbSymbolTableRecord
100
AcDbLayerTableRecord
2
SUPERFICI
70
0
62
7
6
CONTINUOUS
370
-3
390
F
0
LAYER
5
210
100
AcDbSymbolTableRecord
100
AcDbLayerTableRecord
2
TRASH
70
0
62
7
6
CONTINUOUS
370
-3
390
F
0
LAYER
5
211
100
AcDbSymbolTableRecord
100
AcDbLayerTableRecord
2
XSEC_DATUMS
70
0
62
7
6
CONTINUOUS
370
-3
390
F
0
ENDTAB
0
TABLE
2
STYLE
5
3
100
AcDbSymbolTable
70
1
0
STYLE
5
11
100
AcDbSymbolTableRecord
100
AcDbTextStyleTableRecord
2
STANDARD
70
0
40
0.0
41
0.8000000000
50
0.0
71
0
42
0.2
3
txt
4

0
ENDTAB
0
TABLE
2
VIEW
5
6
100
AcDbSymbolTable
70
0
0
ENDTAB
0
TABLE
2
UCS
5
7
100
AcDbSymbolTable
70
0
0
ENDTAB
0
TABLE
2
APPID
5
9
100
AcDbSymbolTable
70
1
0
APPID
5
212
100
AcDbSymbolTableRecord
100
AcDbRegAppTableRecord
2
ACAD
70
0
0
ENDTAB
0
TABLE
2
BLOCK_RECORD
5
1
100
AcDbSymbolTable
70
0
0
BLOCK_RECORD
5
1F
100
AcDbSymbolTableRecord
100
AcDbBlockTableRecord
2
*MODEL_SPACE
0
BLOCK_RECORD
5
1B
100
AcDbSymbolTableRecord
100
AcDbBlockTableRecord
2
*PAPER_SPACE
0
ENDTAB
0
TABLE
2
DIMSTYLE
5
A
100
AcDbSymbolTable
70
1
100
AcDbDimStyleTable
71
0
0
DIMSTYLE
105
213
100
AcDbSymbolTableRecord
100
AcDbDimStyleTableRecord
2
STANDARD
70
0
3

4

40
1.0
41
3.0000000000
42
0.0625
43
0.38
44
0.18
45
0.0
46
0.0
47
0.0100000000
48
0.0100000000
140
3.0000000000
141
0.09
142
0.0
143
25.4
144
1.0000000000
145
0.0
146
1.0000000000
147
0.09
71
1
72
0
73
0
74
0
75
0
76
0
77
1
78
8
170
0
171
2
172
0
173
0
174
0
175
0
176
0
177
0
178
0
270
2
271
2
272
2
273
2
274
2
275
0
280
0
281
0
282
0
283
1
284
8
285
0
286
0
287
3
288
0
340
11
0
ENDTAB
0
ENDSEC
0
SECTION
2
BLOCKS
0
BLOCK
5
20
100
AcDbEntity
8
0
100
AcDbBlockBegin
2
*MODEL_SPACE
70
0
10
0.0
20
0.0
30
0.0
3
*MODEL_SPACE
1

0
ENDBLK
5
21
100
AcDbEntity
8
0
100
AcDbBlockEnd
0
BLOCK
5
1C
100
AcDbEntity
8
0
100
AcDbBlockBegin
2
*PAPER_SPACE
70
0
10
0.0
20
0.0
30
0.0
3
*PAPER_SPACE
1

0
ENDBLK
5
1D
100
AcDbEntity
8
0
100
AcDbBlockEnd
0
ENDSEC
0
SECTION
2
ENTITIES
0
LINE
5
214
100
AcDbEntity
8
0
100
AcDbLine
62
0
6
CONTINUOUS
10
10.0987962648
20
-21.6377904423
11
-10.1014474229
21
-21.6377904423
0
LINE
5
215
100
AcDbEntity
8
0
100
AcDbLine
62
0
6
CONTINUOUS
10
-9.7013560400
20
-20.3377904423
11
9.6987048819
21
-20.3377904423
0
LINE
5
216
100
AcDbEntity
8
0
100
AcDbLine
62
9
6
CONTINUOUS
10
-9.5559424068
20
-20.2408232400
11
-8.9710389060
21
-20.2408232619
0
LINE
5
217
100
AcDbEntity
8
0
100
AcDbLine
62
9
6
CONTINUOUS
10
-6.4013255754
20
-20.2408233581
11
-4.1560877299
21
-20.2408234421
0
LINE
5
218
100
AcDbEntity
8
0
100
AcDbLine
62
9
6
CONTINUOUS
10
4.1534365718
20
-20.2408234421
11
6.3986744210
21
-20.2408234421
0
LINE
5
219
100
AcDbEntity
8
0
100
AcDbLine
62
9
6
CONTINUOUS
10
8.9683889196
20
-20.2408234421
11
9.6017378817
21
-20.2408234421
0
LINE
5
21A
100
AcDbEntity
8
0
100
AcDbLine
62
9
6
CONTINUOUS
10
-2.1013255790
20
-20.2384940973
11
2.0986744210
21
-20.2384940973
0
LINE
5
21B
100
AcDbEntity
8
0
100
AcDbLine
62
9
6
CONTINUOUS
10
-2.1013255790
20
-20.0975155680
11
2.0983950130
21
-20.0975155680
0
LINE
5
21C
100
AcDbEntity
8
0
100
AcDbLine
62
9
6
CONTINUOUS
10
-9.8026435356
20
-19.9408691336
11
-7.0013255792
21
-19.9408689750
0
LINE
5
21D
100
AcDbEntity
8
0
100
AcDbLine
62
9
6
CONTINUOUS
10
-6.4013255569
20
-19.9408690084
11
-4.1560877299
21
-19.9408691336
0
LINE
5
21E
100
AcDbEntity
8
0
100
AcDbLine
62
9
6
CONTINUOUS
10
4.1534365718
20
-19.9408691336
11
6.3986744210
21
-19.9408691336
0
LINE
5
21F
100
AcDbEntity
8
0
100
AcDbLine
62
9
6
CONTINUOUS
10
6.9986744210
20
-19.9408691336
11
9.7999923775
21
-19.9408691336
0
LINE
5
220
100
AcDbEntity
8
0
100
AcDbLine
62
0
6
CONTINUOUS
10
-6.4013255790
20
-19.9377904423
11
-7.0013255790
21
-19.9377904423
0
LINE
5
221
100
AcDbEntity
8
0
100
AcDbLine
62
0
6
CONTINUOUS
10
6.3986744210
20
-19.9377904423
11
6.9986744210
21
-19.9377904423
0
LINE
5
222
100
AcDbEntity
8
0
100
AcDbLine
62
0
6
CONTINUOUS
10
-7.0013255790
20
-19.9377904423
11
-9.5559424102
21
-20.3308084164
0
LINE
5
223
100
AcDbEntity
8
0
100
AcDbLine
62
0
6
CONTINUOUS
10
9.6000228385
20
-19.6826482156
11
5.2486744210
21
-19.6826501778
0
LINE
5
224
100
AcDbEntity
8
0
100
AcDbLine
62
0
6
CONTINUOUS
10
-5.2513255790
20
-19.6826501778
11
-9.6026739966
21
-19.6826482156
0
LINE
5
225
100
AcDbEntity
8
0
100
AcDbLine
62
0
6
CONTINUOUS
10
-2.1013255790
20
-19.2779242540
11
2.0986744210
21
-19.2779242540
0
LINE
5
226
100
AcDbEntity
8
0
100
AcDbLine
62
0
6
CONTINUOUS
10
2.0986744210
20
-18.4773174034
11
-2.1013255790
21
-18.4773174034
0
LINE
5
227
100
AcDbEntity
8
0
100
AcDbLine
62
0
6
CONTINUOUS
10
6.9986744210
20
-19.9377904423
11
9.5532912522
21
-20.3308084164
0
LINE
5
228
100
AcDbEntity
8
0
100
AcDbLine
62
0
6
CONTINUOUS
10
-9.7992134492
20
15.3122095577
11
-9.7981475148
21
15.3132754921
0
LINE
5
229
100
AcDbEntity
8
0
100
AcDbLine
62
9
6
CONTINUOUS
10
4.6486744210
20
-17.3377904423
11
4.6382013820
21
-17.3377904423
0
LINE
5
22A
100
AcDbEntity
8
0
100
AcDbLine
62
9
6
CONTINUOUS
10
-5.2513255790
20
-17.3377904423
11
-5.2617986180
21
-17.3377904423
0
LINE
5
22B
100
AcDbEntity
8
0
100
AcDbLine
62
9
6
CONTINUOUS
10
-4.6513255790
20
-17.3377904423
11
-4.6408525401
21
-17.3377904423
0
LINE
5
22C
100
AcDbEntity
8
0
100
AcDbLine
62
9
6
CONTINUOUS
10
5.2486744210
20
-17.3377904423
11
5.2591474599
21
-17.3377904423
0
LINE
5
22D
100
AcDbEntity
8
0
100
AcDbLine
62
0
6
CONTINUOUS
10
7.5759224359
20
-16.0806107654
11
5.5803326523
21
-16.0806107654
0
LINE
5
22E
100
AcDbEntity
8
0
100
AcDbLine
62
0
6
CONTINUOUS
10
-5.5829838103
20
-16.0806107654
11
-7.5785735940
21
-16.0806107654
0
LINE
5
22F
100
AcDbEntity
8
0
100
AcDbLine
62
0
6
CONTINUOUS
10
-5.5159400870
20
-15.5840279722
11
-5.0836490564
21
-15.5840279722
0
LINE
5
230
100
AcDbEntity
8
0
100
AcDbLine
62
0
6
CONTINUOUS
10
5.0809978984
20
-15.5840279722
11
5.5132889289
21
-15.5840279722
0
LINE
5
231
100
AcDbEntity
8
0
100
AcDbLine
62
0
6
CONTINUOUS
10
-5.5891643641
20
-15.4877904423
11
-5.1860061228
21
-15.4877904423
0
LINE
5
232
100
AcDbEntity
8
0
100
AcDbLine
62
0
6
CONTINUOUS
10
5.1833549648
20
-15.4877904423
11
5.5865132060
21
-15.4877904423
0
LINE
5
233
100
AcDbEntity
8
0
100
AcDbLine
62
0
6
CONTINUOUS
10
7.2136035497
20
-15.3877904423
11
5.8460068055
21
-15.3877904423
0
LINE
5
234
100
AcDbEntity
8
0
100
AcDbLine
62
0
6
CONTINUOUS
10
-5.8486579635
20
-15.3877904423
11
-7.2162547078
21
-15.3877904423
0
LINE
5
235
100
AcDbEntity
8
0
100
AcDbLine
62
0
6
CONTINUOUS
10
6.5341692960
20
-14.9877904423
11
6.0739102630
21
-14.9877904423
0
LINE
5
236
100
AcDbEntity
8
0
100
AcDbLine
62
0
6
CONTINUOUS
10
-6.0765614211
20
-14.9877904423
11
-6.5368204541
21
-14.9877904423
0
LINE
5
237
100
AcDbEntity
8
0
100
AcDbLine
62
0
6
CONTINUOUS
10
-6.5127423688
20
-14.9528696728
11
-6.3157014068
21
-14.9528696728
0
LINE
5
238
100
AcDbEntity
8
0
100
AcDbLine
62
0
6
CONTINUOUS
10
6.3130502488
20
-14.9528696728
11
6.5100912107
21
-14.9528696728
0
LINE
5
239
100
AcDbEntity
8
0
100
AcDbLine
62
9
6
CONTINUOUS
10
4.3090231686
20
-18.0126550843
11
4.3198570775
21
-18.0193257554
0
LINE
5
23A
100
AcDbEntity
8
0
100
AcDbLine
62
0
6
CONTINUOUS
10
-9.7992134492
20
-10.2877904423
11
-9.7944034224
21
-10.2926004691
0
LINE
5
23B
100
AcDbEntity
8
0
100
AcDbLine
62
0
6
CONTINUOUS
10
-10.9013255790
20
-20.8379122862
11
-10.9013255790
21
20.8623314015
0
LINE
5
23C
100
AcDbEntity
8
0
100
AcDbLine
62
0
6
CONTINUOUS
10
6.5100912107
20
-11.0227112118
11
6.3130502488
21
-11.0227112118
0
LINE
5
23D
100
AcDbEntity
8
0
100
AcDbLine
62
0
6
CONTINUOUS
10
-6.3157014068
20
-11.0227112118
11
-6.5127423688
21
-11.0227112118
0
LINE
5
23E
100
AcDbEntity
8
0
100
AcDbLine
62
9
6
CONTINUOUS
10
4.4882013820
20
-17.7380904798
11
4.4986744210
21
-17.7449201743
0
LINE
5
23F
100
AcDbEntity
8
0
100
AcDbLine
62
9
6
CONTINUOUS
10
-6.8167755499
20
-11.1802972688
11
-6.7932397933
21
-11.2166437250
0
LINE
5
240
100
AcDbEntity
8
0
100
AcDbLine
62
0
6
CONTINUOUS
10
-5.8844435866
20
-14.6938145162
11
-5.8854440180
21
-14.6915943159
0
LINE
5
241
100
AcDbEntity
8
0
100
AcDbLine
62
9
6
CONTINUOUS
10
-9.5940713741
20
-9.6791897163
11
-9.5976372787
21
14.7071771698
0
LINE
5
242
100
AcDbEntity
8
0
100
AcDbLine
62
0
6
CONTINUOUS
10
-10.6013255790
20
-5.9679220270
11
-10.6013255790
21
5.9923411423
0
LINE
5
243
100
AcDbEntity
8
0
100
AcDbLine
62
0
6
CONTINUOUS
10
-9.9013255790
20
-20.1378209033
11
-9.9013255790
21
-7.4877904423
0
LINE
5
244
100
AcDbEntity
8
0
100
AcDbLine
62
0
6
CONTINUOUS
10
-9.9013255790
20
7.5122095577
11
-9.9013255790
21
20.1622400186
0
LINE
5
245
100
AcDbEntity
8
0
100
AcDbLine
62
0
6
CONTINUOUS
10
-9.8888899692
20
-7.4877904423
11
-9.8888899692
21
7.5122095577
0
LINE
5
246
100
AcDbEntity
8
0
100
AcDbLine
62
9
6
CONTINUOUS
10
-9.8026435356
20
19.9652882489
11
-9.8026435356
21
19.7004674796
0
LINE
5
247
100
AcDbEntity
8
0
100
AcDbLine
62
9
6
CONTINUOUS
10
-9.8026435356
20
-19.6760483643
11
-9.8026435356
21
-19.9408691336
0
LINE
5
248
100
AcDbEntity
8
0
100
AcDbLine
62
0
6
CONTINUOUS
10
-9.7992134492
20
-10.2877904423
11
-9.7992134492
21
-9.6877904423
0
LINE
5
249
100
AcDbEntity
8
0
100
AcDbLine
62
0
6
CONTINUOUS
10
-9.7992134492
20
14.7122095577
11
-9.7992134492
21
15.3122095577
0
LINE
5
24A
100
AcDbEntity
8
0
100
AcDbLine
62
9
6
CONTINUOUS
10
-9.6026739966
20
19.9653000996
11
-9.5981718708
21
15.3167071583
0
LINE
5
24B
100
AcDbEntity
8
0
100
AcDbLine
62
9
6
CONTINUOUS
10
-9.6026739966
20
-19.9408688300
11
-9.5944317904
21
-10.2960305942
0
LINE
5
24C
100
AcDbEntity
8
0
100
AcDbLine
62
0
6
CONTINUOUS
10
-5.5891643641
20
-10.4877904423
11
-5.1860061228
21
-10.4877904423
0
LINE
5
24D
100
AcDbEntity
8
0
100
AcDbLine
62
0
6
CONTINUOUS
10
5.1833549648
20
-10.4877904423
11
5.5865132060
21
-10.4877904423
0
LINE
5
24E
100
AcDbEntity
8
0
100
AcDbLine
62
0
6
CONTINUOUS
10
6.0990851153
20
-10.4790415760
11
5.5823768266
21
-10.4790415760
0
LINE
5
24F
100
AcDbEntity
8
0
100
AcDbLine
62
0
6
CONTINUOUS
10
-5.5850279846
20
-10.4790415760
11
-6.1017362734
21
-10.4790415760
0
LINE
5
250
100
AcDbEntity
8
0
100
AcDbLine
62
0
6
CONTINUOUS
10
-6.0842812084
20
-10.3915529125
11
-5.0836490564
21
-10.3915529125
0
LINE
5
251
100
AcDbEntity
8
0
100
AcDbLine
62
0
6
CONTINUOUS
10
5.0809978984
20
-10.3915529125
11
6.0816300504
21
-10.3915529125
0
LINE
5
252
100
AcDbEntity
8
0
100
AcDbLine
62
0
6
CONTINUOUS
10
9.5917806339
20
-10.2960305691
11
8.6986744210
21
-10.2960305691
0
LINE
5
253
100
AcDbEntity
8
0
100
AcDbLine
62
0
6
CONTINUOUS
10
-8.7013255790
20
-10.2960305691
11
-9.5944317920
21
-10.2960305691
0
LINE
5
254
100
AcDbEntity
8
0
100
AcDbLine
62
0
6
CONTINUOUS
10
9.7965622911
20
-10.2877904423
11
8.6986744210
21
-10.2877904423
0
LINE
5
255
100
AcDbEntity
8
0
100
AcDbLine
62
0
6
CONTINUOUS
10
-8.7013255790
20
-10.2877904423
11
-9.7992134492
21
-10.2877904423
0
LINE
5
256
100
AcDbEntity
8
0
100
AcDbLine
62
0
6
CONTINUOUS
10
-9.7992134492
20
-9.6877904423
11
-8.7013255790
21
-9.6877904423
0
LINE
5
257
100
AcDbEntity
8
0
100
AcDbLine
62
0
6
CONTINUOUS
10
8.6986744210
20
-9.6877904423
11
9.7965622911
21
-9.6877904423
0
LINE
5
258
100
AcDbEntity
8
0
100
AcDbLine
62
0
6
CONTINUOUS
10
9.5914202270
20
-9.6791896578
11
8.6986744210
21
-9.6791896578
0
LINE
5
259
100
AcDbEntity
8
0
100
AcDbLine
62
0
6
CONTINUOUS
10
-8.7013255790
20
-9.6791896578
11
-9.5940713851
21
-9.6791896578
0
LINE
5
25A
100
AcDbEntity
8
0
100
AcDbLine
62
9
6
CONTINUOUS
10
-8.7013255790
20
14.7122095577
11
-8.7013255790
21
14.7071770669
0
LINE
5
25B
100
AcDbEntity
8
0
100
AcDbLine
62
9
6
CONTINUOUS
10
-8.7013255790
20
-9.6877904423
11
-8.7013255790
21
-9.6791896578
0
LINE
5
25C
100
AcDbEntity
8
0
100
AcDbLine
62
9
6
CONTINUOUS
10
-8.7013255790
20
-10.2877904423
11
-8.7013255790
21
-10.2960305691
0
LINE
5
25D
100
AcDbEntity
8
0
100
AcDbLine
62
9
6
CONTINUOUS
10
-8.7013255790
20
15.3122095577
11
-8.7013255790
21
15.3167070982
0
LINE
5
25E
100
AcDbEntity
8
0
100
AcDbLine
62
9
6
CONTINUOUS
10
9.6017378817
20
20.2652425574
11
9.6225070541
21
20.2860117298
0
LINE
5
25F
100
AcDbEntity
8
0
100
AcDbLine
62
9
6
CONTINUOUS
10
9.8017074208
20
20.0652730184
11
9.8224765931
21
20.0860421908
0
LINE
5
260
100
AcDbEntity
8
0
100
AcDbLine
62
0
6
CONTINUOUS
10
2.0986744210
20
-7.5052455073
11
-2.1013255790
21
-7.5052455073
0
LINE
5
261
100
AcDbEntity
8
0
100
AcDbLine
62
9
6
CONTINUOUS
10
-9.8888899692
20
-7.4877904423
11
-9.9013255790
21
-7.4877904423
0
LINE
5
262
100
AcDbEntity
8
0
100
AcDbLine
62
9
6
CONTINUOUS
10
9.8862388111
20
-7.4877904423
11
9.8986744210
21
-7.4877904423
0
LINE
5
263
100
AcDbEntity
8
0
100
AcDbLine
62
9
6
CONTINUOUS
10
9.6987048819
20
-20.3377904423
11
9.6017378817
21
-20.2408234421
0
LINE
5
264
100
AcDbEntity
8
0
100
AcDbLine
62
9
6
CONTINUOUS
10
9.8986744210
20
-20.1378209033
11
9.8017074208
21
-20.0408539031
0
LINE
5
265
100
AcDbEntity
8
0
100
AcDbLine
62
9
6
CONTINUOUS
10
-5.5650372994
20
-7.6451194670
11
-5.1748781402
21
-8.2469282155
0
LINE
5
266
100
AcDbEntity
8
0
100
AcDbLine
62
0
6
CONTINUOUS
10
-7.0013255790
20
-20.3377904423
11
-7.0013255790
21
-19.9377904423
0
LINE
5
267
100
AcDbEntity
8
0
100
AcDbLine
62
0
6
CONTINUOUS
10
-7.0013255790
20
20.3622095577
11
-7.0013255790
21
19.9622095577
0
LINE
5
268
100
AcDbEntity
8
0
100
AcDbLine
62
0
6
CONTINUOUS
10
-6.4013255790
20
-20.3377904423
11
-6.4013255790
21
-19.9377904423
0
LINE
5
269
100
AcDbEntity
8
0
100
AcDbLine
62
0
6
CONTINUOUS
10
-6.4013255790
20
20.3622095577
11
-6.4013255790
21
19.9622095577
0
LINE
5
26A
100
AcDbEntity
8
0
100
AcDbLine
62
0
6
CONTINUOUS
10
-6.3838705141
20
-9.6714343843
11
-6.3838705141
21
-10.0908650275
0
LINE
5
26B
100
AcDbEntity
8
0
100
AcDbLine
62
0
6
CONTINUOUS
10
-5.3895214609
20
18.8122095577
11
-5.3895214609
21
19.5729955790
0
LINE
5
26C
100
AcDbEntity
8
0
100
AcDbLine
62
0
6
CONTINUOUS
10
-5.3790492196
20
19.7416445807
11
-5.3790492196
21
20.3046535401
0
LINE
5
26D
100
AcDbEntity
8
0
100
AcDbLine
62
0
6
CONTINUOUS
10
-5.2617986180
20
-18.4262822864
11
-5.2617986180
21
-17.3377904423
0
LINE
5
26E
100
AcDbEntity
8
0
100
AcDbLine
62
0
6
CONTINUOUS
10
-5.2513255790
20
-19.6826501778
11
-5.2513255790
21
-17.3377904423
0
LINE
5
26F
100
AcDbEntity
8
0
100
AcDbLine
62
9
6
CONTINUOUS
10
-5.3895214609
20
19.5729955790
11
-5.3790492196
21
19.7416445807
0
LINE
5
270
100
AcDbEntity
8
0
100
AcDbLine
62
9
6
CONTINUOUS
10
-5.0872791872
20
19.3122095577
11
-5.0790606426
21
19.4445641600
0
LINE
5
271
100
AcDbEntity
8
0
100
AcDbLine
62
0
6
CONTINUOUS
10
-3.7245195790
20
8.9622595577
11
-4.2772135790
21
7.2407965577
0
LINE
5
272
100
AcDbEntity
8
0
100
AcDbLine
62
0
6
CONTINUOUS
10
-3.2244945790
20
8.9622595577
11
-4.0272005790
21
6.4621465577
0
LINE
5
273
100
AcDbEntity
8
0
100
AcDbLine
62
0
6
CONTINUOUS
10
2.9986744210
20
-6.8377904423
11
-3.0013255790
21
-6.8377904423
0
LINE
5
274
100
AcDbEntity
8
0
100
AcDbLine
62
0
6
CONTINUOUS
10
-3.1973426805
20
-6.1751088533
11
3.1946915224
21
-6.1751088533
0
LINE
5
275
100
AcDbEntity
8
0
100
AcDbLine
62
9
6
CONTINUOUS
10
-4.9235905154
20
19.4445641600
11
-4.9153719708
21
19.3122095577
0
LINE
5
276
100
AcDbEntity
8
0
100
AcDbLine
62
9
6
CONTINUOUS
10
-5.0895328840
20
18.5122095577
11
-5.0895328840
21
19.3122095577
0
LINE
5
277
100
AcDbEntity
8
0
100
AcDbLine
62
9
6
CONTINUOUS
10
-5.0790606426
20
19.4445641600
11
-5.0790606426
21
20.3098443629
0
LINE
5
278
100
AcDbEntity
8
0
100
AcDbLine
62
9
6
CONTINUOUS
10
-4.9235905154
20
19.4445641600
11
-4.9235905154
21
20.3098443629
0
LINE
5
279
100
AcDbEntity
8
0
100
AcDbLine
62
9
6
CONTINUOUS
10
-4.9131182741
20
18.5122095577
11
-4.9131182741
21
19.3122095577
0
LINE
5
27A
100
AcDbEntity
8
0
100
AcDbLine
62
0
6
CONTINUOUS
10
-4.7019085790
20
3.5372095577
11
-4.7019085790
21
1.4872095577
0
LINE
5
27B
100
AcDbEntity
8
0
100
AcDbLine
62
0
6
CONTINUOUS
10
-4.6513255790
20
-17.3377904423
11
-4.6513255790
21
-19.7748996048
0
LINE
5
27C
100
AcDbEntity
8
0
100
AcDbLine
62
0
6
CONTINUOUS
10
-4.6408525401
20
-18.7424916667
11
-4.6408525401
21
-17.3377904423
0
LINE
5
27D
100
AcDbEntity
8
0
100
AcDbLine
62
0
6
CONTINUOUS
10
-4.6236019385
20
20.3046535401
11
-4.6236019385
21
19.7416445807
0
LINE
5
27E
100
AcDbEntity
8
0
100
AcDbLine
62
0
6
CONTINUOUS
10
-4.6131296971
20
19.5729955790
11
-4.6131296971
21
18.8122095577
0
LINE
5
27F
100
AcDbEntity
8
0
100
AcDbLine
62
0
6
CONTINUOUS
10
-4.4908525401
20
-17.7380904798
11
-4.4908525401
21
-16.5501214842
0
LINE
5
280
100
AcDbEntity
8
0
100
AcDbLine
62
0
6
CONTINUOUS
10
-4.2617905790
20
3.1965335577
11
-4.2617905790
21
2.6173205577
0
LINE
5
281
100
AcDbEntity
8
0
100
AcDbLine
62
0
6
CONTINUOUS
10
-4.2617905790
20
2.2766445577
11
-4.2617905790
21
1.4872095577
0
LINE
5
282
100
AcDbEntity
8
0
100
AcDbLine
62
9
6
CONTINUOUS
10
-4.1560877299
20
-20.2408234421
11
-4.1560877299
21
-19.9408691336
0
LINE
5
283
100
AcDbEntity
8
0
100
AcDbLine
62
9
6
CONTINUOUS
10
-6.4013255790
20
-10.1783536910
11
-6.3838705141
21
-10.0908650275
0
LINE
5
284
100
AcDbEntity
8
0
100
AcDbLine
62
9
6
CONTINUOUS
10
-6.1017362734
20
-10.4790415760
11
-6.0842812084
21
-10.3915529125
0
LINE
5
285
100
AcDbEntity
8
0
100
AcDbLine
62
0
6
CONTINUOUS
10
9.7965622911
20
14.7122095577
11
9.7949670796
21
14.7106143461
0
LINE
5
286
100
AcDbEntity
8
0
100
AcDbLine
62
0
6
CONTINUOUS
10
5.1722269821
20
-8.2469282155
11
2.9986744210
21
-6.8377904423
0
LINE
5
287
100
AcDbEntity
8
0
100
AcDbLine
62
0
6
CONTINUOUS
10
-3.1973426805
20
-6.1751088533
11
-3.0013255790
21
-6.8377904423
0
LINE
5
288
100
AcDbEntity
8
0
100
AcDbLine
62
9
6
CONTINUOUS
10
-4.6236019385
20
19.7416445807
11
-4.6131296971
21
19.5729955790
0
LINE
5
289
100
AcDbEntity
8
0
100
AcDbLine
62
0
6
CONTINUOUS
10
-2.9556315790
20
3.5372095577
11
-2.9556315790
21
1.4872095577
0
LINE
5
28A
100
AcDbEntity
8
0
100
AcDbLine
62
0
6
CONTINUOUS
10
-2.8911505790
20
8.9622595577
11
-2.8911565790
21
6.4621405577
0
LINE
5
28B
100
AcDbEntity
8
0
100
AcDbLine
62
0
6
CONTINUOUS
10
-2.5155135790
20
3.5372095577
11
-2.5155135790
21
1.8278855577
0
LINE
5
28C
100
AcDbEntity
8
0
100
AcDbLine
62
0
6
CONTINUOUS
10
-2.5013255790
20
20.3622095577
11
-2.5013255790
21
21.5622095577
0
LINE
5
28D
100
AcDbEntity
8
0
100
AcDbLine
62
0
6
CONTINUOUS
10
-2.3911315790
20
8.9622595577
11
-2.3911385790
21
6.4621465577
0
LINE
5
28E
100
AcDbEntity
8
0
100
AcDbLine
62
9
6
CONTINUOUS
10
-2.1013255790
20
-20.2384940973
11
-2.1013255790
21
-19.2779242540
0
LINE
5
28F
100
AcDbEntity
8
0
100
AcDbLine
62
9
6
CONTINUOUS
10
-2.1013255790
20
-7.5052455073
11
-2.1013255790
21
-7.4877904423
0
LINE
5
290
100
AcDbEntity
8
0
100
AcDbLine
62
9
6
CONTINUOUS
10
-2.1013255790
20
-18.4773174034
11
-2.1013255790
21
-18.4877904423
0
LINE
5
291
100
AcDbEntity
8
0
100
AcDbLine
62
0
6
CONTINUOUS
10
-1.8911315790
20
8.9622595577
11
-1.8911315790
21
6.4621465577
0
LINE
5
292
100
AcDbEntity
8
0
100
AcDbLine
62
0
6
CONTINUOUS
10
-1.7570145790
20
1.8278855577
11
-1.7570145790
21
1.4872095577
0
LINE
5
293
100
AcDbEntity
8
0
100
AcDbLine
62
0
6
CONTINUOUS
10
-0.2015005790
20
8.9622595577
11
-0.6683695790
21
7.3340965577
0
LINE
5
294
100
AcDbEntity
8
0
100
AcDbLine
62
0
6
CONTINUOUS
10
0.0543684210
20
8.1108035577
11
-0.4183695790
21
6.4621535577
0
LINE
5
295
100
AcDbEntity
8
0
100
AcDbLine
62
0
6
CONTINUOUS
10
-0.7948495790
20
3.5372095577
11
-1.5359135790
21
1.4872095577
0
LINE
5
296
100
AcDbEntity
8
0
100
AcDbLine
62
9
6
CONTINUOUS
10
6.8141243918
20
-14.7952836159
11
6.7905886352
21
-14.7589371596
0
LINE
5
297
100
AcDbEntity
8
0
100
AcDbLine
62
0
6
CONTINUOUS
10
-5.3299385790
20
8.9622595577
11
-4.5272385790
21
6.4621405577
0
LINE
5
298
100
AcDbEntity
8
0
100
AcDbLine
62
0
6
CONTINUOUS
10
-4.8299135790
20
8.9622595577
11
-4.2772135790
21
7.2407965577
0
LINE
5
299
100
AcDbEntity
8
0
100
AcDbLine
62
0
6
CONTINUOUS
10
-1.3911135790
20
8.1108035577
11
-1.3911135790
21
6.4621465577
0
LINE
5
29A
100
AcDbEntity
8
0
100
AcDbLine
62
0
6
CONTINUOUS
10
-0.0013255790
20
21.5622095577
11
-0.0013255790
21
20.3622095577
0
LINE
5
29B
100
AcDbEntity
8
0
100
AcDbLine
62
0
6
CONTINUOUS
10
0.0543684210
20
8.1108035577
11
0.0543744210
21
6.4621465577
0
LINE
5
29C
100
AcDbEntity
8
0
100
AcDbLine
62
0
6
CONTINUOUS
10
1.6904304210
20
8.9622655577
11
0.8877374210
21
6.4621465577
0
LINE
5
29D
100
AcDbEntity
8
0
100
AcDbLine
62
0
6
CONTINUOUS
10
1.5456124210
20
6.9538155577
11
1.3877554210
21
6.4621535577
0
LINE
5
29E
100
AcDbEntity
8
0
100
AcDbLine
62
0
6
CONTINUOUS
10
1.9404494210
20
8.1836095577
11
1.6981304210
21
7.4288345577
0
LINE
5
29F
100
AcDbEntity
8
0
100
AcDbLine
62
0
6
CONTINUOUS
10
-0.5448755790
20
3.1454765577
11
-0.8488515790
21
2.2623725577
0
LINE
5
2A0
100
AcDbEntity
8
0
100
AcDbLine
62
0
6
CONTINUOUS
10
-0.9624105790
20
1.9216955577
11
-1.1156995790
21
1.4872095577
0
LINE
5
2A1
100
AcDbEntity
8
0
100
AcDbLine
62
0
6
CONTINUOUS
10
-5.8844435866
20
-11.2817663685
11
-5.8854440180
21
-11.2839865688
0
LINE
5
2A2
100
AcDbEntity
8
0
100
AcDbLine
62
0
6
CONTINUOUS
10
-5.5850279846
20
-10.4790415760
11
-5.5891643641
21
-10.4877904423
0
LINE
5
2A3
100
AcDbEntity
8
0
100
AcDbLine
62
0
6
CONTINUOUS
10
-9.7992134492
20
-9.6877904423
11
-9.7940465386
21
-9.6826235317
0
LINE
5
2A4
100
AcDbEntity
8
0
100
AcDbLine
62
0
6
CONTINUOUS
10
9.7965622911
20
-9.6877904423
11
9.7913953806
21
-9.6826235317
0
LINE
5
2A5
100
AcDbEntity
8
0
100
AcDbLine
62
0
6
CONTINUOUS
10
0.5543934210
20
8.9622595577
11
0.5543934210
21
6.4621465577
0
LINE
5
2A6
100
AcDbEntity
8
0
100
AcDbLine
62
0
6
CONTINUOUS
10
0.6645214210
20
3.5372095577
11
0.6645214210
21
1.4872095577
0
LINE
5
2A7
100
AcDbEntity
8
0
100
AcDbLine
62
0
6
CONTINUOUS
10
1.0762494210
20
3.2029205577
11
1.0762494210
21
1.4872095577
0
LINE
5
2A8
100
AcDbEntity
8
0
100
AcDbLine
62
0
6
CONTINUOUS
10
3.4642274210
20
3.5372095577
11
2.7230854210
21
1.4872095577
0
LINE
5
2A9
100
AcDbEntity
8
0
100
AcDbLine
62
0
6
CONTINUOUS
10
4.6992574210
20
1.4872095577
11
4.2564394210
21
1.4872095577
0
LINE
5
2AA
100
AcDbEntity
8
0
100
AcDbLine
62
0
6
CONTINUOUS
10
3.1432994210
20
1.4872095577
11
2.7230854210
21
1.4872095577
0
LINE
5
2AB
100
AcDbEntity
8
0
100
AcDbLine
62
0
6
CONTINUOUS
10
2.5157944210
20
1.4872095577
11
1.8911424210
21
1.4872095577
0
LINE
5
2AC
100
AcDbEntity
8
0
100
AcDbLine
62
0
6
CONTINUOUS
10
1.0762494210
20
1.4872095577
11
0.6645214210
21
1.4872095577
0
LINE
5
2AD
100
AcDbEntity
8
0
100
AcDbLine
62
0
6
CONTINUOUS
10
0.4402584210
20
1.4872095577
11
-0.0027145790
21
1.4872095577
0
LINE
5
2AE
100
AcDbEntity
8
0
100
AcDbLine
62
0
6
CONTINUOUS
10
-1.1156995790
20
1.4872095577
11
-1.5359135790
21
1.4872095577
0
LINE
5
2AF
100
AcDbEntity
8
0
100
AcDbLine
62
0
6
CONTINUOUS
10
-1.7570145790
20
1.4872095577
11
-2.9556315790
21
1.4872095577
0
LINE
5
2B0
100
AcDbEntity
8
0
100
AcDbLine
62
0
6
CONTINUOUS
10
-4.2617905790
20
1.4872095577
11
-4.7019085790
21
1.4872095577
0
LINE
5
2B1
100
AcDbEntity
8
0
100
AcDbLine
62
0
6
CONTINUOUS
10
-1.7570145790
20
1.8278855577
11
-2.5155135790
21
1.8278855577
0
LINE
5
2B2
100
AcDbEntity
8
0
100
AcDbLine
62
0
6
CONTINUOUS
10
4.1087044210
20
1.9216955577
11
3.2966654210
21
1.9216955577
0
LINE
5
2B3
100
AcDbEntity
8
0
100
AcDbLine
62
0
6
CONTINUOUS
10
-0.1503715790
20
1.9216955577
11
-0.9624105790
21
1.9216955577
0
LINE
5
2B4
100
AcDbEntity
8
0
100
AcDbLine
62
0
6
CONTINUOUS
10
5.5865132060
20
-10.4877904423
11
5.5823768266
21
-10.4790415760
0
LINE
5
2B5
100
AcDbEntity
8
0
100
AcDbLine
62
0
6
CONTINUOUS
10
5.8817924286
20
-11.2817663685
11
5.8827928600
21
-11.2839865688
0
LINE
5
2B6
100
AcDbEntity
8
0
100
AcDbLine
62
0
6
CONTINUOUS
10
-0.2724165790
20
3.5372095577
11
0.4402584210
21
1.4872095577
0
LINE
5
2B7
100
AcDbEntity
8
0
100
AcDbLine
62
0
6
CONTINUOUS
10
-0.1503715790
20
1.9216955577
11
-0.0027145790
21
1.4872095577
0
LINE
5
2B8
100
AcDbEntity
8
0
100
AcDbLine
62
0
6
CONTINUOUS
10
-0.5448755790
20
3.1454765577
11
-0.2610765790
21
2.2623725577
0
LINE
5
2B9
100
AcDbEntity
8
0
100
AcDbLine
62
0
6
CONTINUOUS
10
-1.3911135790
20
8.1108035577
11
-0.9183755790
21
6.4621465577
0
LINE
5
2BA
100
AcDbEntity
8
0
100
AcDbLine
62
0
6
CONTINUOUS
10
-1.1352385790
20
8.9622595577
11
-0.6683695790
21
7.3340965577
0
LINE
5
2BB
100
AcDbEntity
8
0
100
AcDbLine
62
9
6
CONTINUOUS
10
2.0986744210
20
-7.5052455073
11
2.0986744210
21
-7.4877904423
0
LINE
5
2BC
100
AcDbEntity
8
0
100
AcDbLine
62
9
6
CONTINUOUS
10
2.0986744210
20
-18.4773174034
11
2.0986744210
21
-18.4877904423
0
LINE
5
2BD
100
AcDbEntity
8
0
100
AcDbLine
62
0
6
CONTINUOUS
10
2.1040654210
20
3.5372095577
11
2.1040654210
21
1.9126815577
0
LINE
5
2BE
100
AcDbEntity
8
0
100
AcDbLine
62
0
6
CONTINUOUS
10
2.5157944210
20
3.5372095577
11
2.5157944210
21
1.4872095577
0
LINE
5
2BF
100
AcDbEntity
8
0
100
AcDbLine
62
0
6
CONTINUOUS
10
3.3265244210
20
8.9622655577
11
3.3265244210
21
6.4621535577
0
LINE
5
2C0
100
AcDbEntity
8
0
100
AcDbLine
62
0
6
CONTINUOUS
10
3.8196494210
20
8.4997475577
11
3.8196554210
21
7.8913595577
0
LINE
5
2C1
100
AcDbEntity
8
0
100
AcDbLine
62
0
6
CONTINUOUS
10
3.8266054210
20
7.4288405577
11
3.8265494210
21
6.4621535577
0
LINE
5
2C2
100
AcDbEntity
8
0
100
AcDbLine
62
9
6
CONTINUOUS
10
2.0986744210
20
-20.2384940973
11
2.0986744210
21
-19.2779242540
0
LINE
5
2C3
100
AcDbEntity
8
0
100
AcDbLine
62
9
6
CONTINUOUS
10
4.6104785391
20
19.5729955790
11
4.6209507804
21
19.7416445807
0
LINE
5
2C4
100
AcDbEntity
8
0
100
AcDbLine
62
9
6
CONTINUOUS
10
4.9127208128
20
19.3122095577
11
4.9209393574
21
19.4445641600
0
LINE
5
2C5
100
AcDbEntity
8
0
100
AcDbLine
62
0
6
CONTINUOUS
10
3.7141614210
20
3.1453605577
11
3.4102244210
21
2.2623725577
0
LINE
5
2C6
100
AcDbEntity
8
0
100
AcDbLine
62
0
6
CONTINUOUS
10
3.2966654210
20
1.9216955577
11
3.1432994210
21
1.4872095577
0
LINE
5
2C7
100
AcDbEntity
8
0
100
AcDbLine
62
9
6
CONTINUOUS
10
-6.8167755499
20
-14.7952836159
11
-6.7932397933
21
-14.7589371596
0
LINE
5
2C8
100
AcDbEntity
8
0
100
AcDbLine
62
0
6
CONTINUOUS
10
3.9979234210
20
2.2623725577
11
3.4102244210
21
2.2623725577
0
LINE
5
2C9
100
AcDbEntity
8
0
100
AcDbLine
62
0
6
CONTINUOUS
10
-0.2610765790
20
2.2623725577
11
-0.8488515790
21
2.2623725577
0
LINE
5
2CA
100
AcDbEntity
8
0
100
AcDbLine
62
0
6
CONTINUOUS
10
-4.0745789765
20
2.2766445577
11
-4.2617905790
21
2.2766445577
0
LINE
5
2CB
100
AcDbEntity
8
0
100
AcDbLine
62
0
6
CONTINUOUS
10
-4.0050375494
20
2.6173205577
11
-4.2617905790
21
2.6173205577
0
LINE
5
2CC
100
AcDbEntity
8
0
100
AcDbLine
62
0
6
CONTINUOUS
10
-4.0050375610
20
3.1965335577
11
-4.2617905790
21
3.1965335577
0
LINE
5
2CD
100
AcDbEntity
8
0
100
AcDbLine
62
0
6
CONTINUOUS
10
3.9866594210
20
3.5372095577
11
3.4642274210
21
3.5372095577
0
LINE
5
2CE
100
AcDbEntity
8
0
100
AcDbLine
62
0
6
CONTINUOUS
10
2.5157944210
20
3.5372095577
11
2.1040654210
21
3.5372095577
0
LINE
5
2CF
100
AcDbEntity
8
0
100
AcDbLine
62
0
6
CONTINUOUS
10
1.3175624210
20
3.5372095577
11
0.6645214210
21
3.5372095577
0
LINE
5
2D0
100
AcDbEntity
8
0
100
AcDbLine
62
0
6
CONTINUOUS
10
-0.2724165790
20
3.5372095577
11
-0.7948495790
21
3.5372095577
0
LINE
5
2D1
100
AcDbEntity
8
0
100
AcDbLine
62
0
6
CONTINUOUS
10
-2.5155135790
20
3.5372095577
11
-2.9556315790
21
3.5372095577
0
LINE
5
2D2
100
AcDbEntity
8
0
100
AcDbLine
62
0
6
CONTINUOUS
10
-4.0745790161
20
3.5372095577
11
-4.7019085790
21
3.5372095577
0
LINE
5
2D3
100
AcDbEntity
8
0
100
AcDbLine
62
0
6
CONTINUOUS
10
-9.7992134492
20
14.7122095577
11
-9.7976182376
21
14.7106143461
0
LINE
5
2D4
100
AcDbEntity
8
0
100
AcDbLine
62
0
6
CONTINUOUS
10
1.3175624210
20
3.5372095577
11
2.1040654210
21
1.9126815577
0
LINE
5
2D5
100
AcDbEntity
8
0
100
AcDbLine
62
0
6
CONTINUOUS
10
1.0762494210
20
3.2029205577
11
1.8911424210
21
1.4872095577
0
LINE
5
2D6
100
AcDbEntity
8
0
100
AcDbLine
62
9
6
CONTINUOUS
10
4.1534365718
20
-20.2408234421
11
4.1534365718
21
-19.9408691336
0
LINE
5
2D7
100
AcDbEntity
8
0
100
AcDbLine
62
0
6
CONTINUOUS
10
4.4882013820
20
-16.5501214842
11
4.4882013820
21
-17.7380904798
0
LINE
5
2D8
100
AcDbEntity
8
0
100
AcDbLine
62
0
6
CONTINUOUS
10
4.6104785391
20
18.8122095577
11
4.6104785391
21
19.5729955790
0
LINE
5
2D9
100
AcDbEntity
8
0
100
AcDbLine
62
0
6
CONTINUOUS
10
4.6209507804
20
19.7416445807
11
4.6209507804
21
20.3046535401
0
LINE
5
2DA
100
AcDbEntity
8
0
100
AcDbLine
62
0
6
CONTINUOUS
10
4.6382013820
20
-18.7424916667
11
4.6382013820
21
-17.3377904423
0
LINE
5
2DB
100
AcDbEntity
8
0
100
AcDbLine
62
0
6
CONTINUOUS
10
4.6486744210
20
-19.7748996048
11
4.6486744210
21
-17.3377904423
0
LINE
5
2DC
100
AcDbEntity
8
0
100
AcDbLine
62
9
6
CONTINUOUS
10
4.9104671160
20
18.5122095577
11
4.9104671160
21
19.3122095577
0
LINE
5
2DD
100
AcDbEntity
8
0
100
AcDbLine
62
9
6
CONTINUOUS
10
4.9209393574
20
19.4445641600
11
4.9209393574
21
20.3098443629
0
LINE
5
2DE
100
AcDbEntity
8
0
100
AcDbLine
62
9
6
CONTINUOUS
10
5.0764094846
20
19.4445641600
11
5.0764094846
21
20.3098443629
0
LINE
5
2DF
100
AcDbEntity
8
0
100
AcDbLine
62
9
6
CONTINUOUS
10
5.0868817259
20
18.5122095577
11
5.0868817259
21
19.3122095577
0
LINE
5
2E0
100
AcDbEntity
8
0
100
AcDbLine
62
0
6
CONTINUOUS
10
5.2486744210
20
-17.3377904423
11
5.2486744210
21
-19.6826501778
0
LINE
5
2E1
100
AcDbEntity
8
0
100
AcDbLine
62
0
6
CONTINUOUS
10
5.2591474599
20
-18.4262822864
11
5.2591474599
21
-17.3377904423
0
LINE
5
2E2
100
AcDbEntity
8
0
100
AcDbLine
62
0
6
CONTINUOUS
10
5.3763980615
20
20.3046535401
11
5.3763980615
21
19.7416445807
0
LINE
5
2E3
100
AcDbEntity
8
0
100
AcDbLine
62
0
6
CONTINUOUS
10
5.3868703029
20
19.5729955790
11
5.3868703029
21
18.8122095577
0
LINE
5
2E4
100
AcDbEntity
8
0
100
AcDbLine
62
0
6
CONTINUOUS
10
3.1946915224
20
-6.1751088533
11
2.9986744210
21
-6.8377904423
0
LINE
5
2E5
100
AcDbEntity
8
0
100
AcDbLine
62
0
6
CONTINUOUS
10
-3.0013255790
20
-6.8377904423
11
-5.1748781402
21
-8.2469282155
0
LINE
5
2E6
100
AcDbEntity
8
0
100
AcDbLine
62
0
6
CONTINUOUS
10
3.9866594210
20
3.5372095577
11
4.6992574210
21
1.4872095577
0
LINE
5
2E7
100
AcDbEntity
8
0
100
AcDbLine
62
0
6
CONTINUOUS
10
4.1087044210
20
1.9216955577
11
4.2564394210
21
1.4872095577
0
LINE
5
2E8
100
AcDbEntity
8
0
100
AcDbLine
62
0
6
CONTINUOUS
10
3.7141614210
20
3.1453605577
11
3.9979234210
21
2.2623725577
0
LINE
5
2E9
100
AcDbEntity
8
0
100
AcDbLine
62
0
6
CONTINUOUS
10
2.3353054210
20
6.9538155577
11
2.4931554210
21
6.4621535577
0
LINE
5
2EA
100
AcDbEntity
8
0
100
AcDbLine
62
0
6
CONTINUOUS
10
1.9404494210
20
8.1836095577
11
2.1827804210
21
7.4288345577
0
LINE
5
2EB
100
AcDbEntity
8
0
100
AcDbLine
62
0
6
CONTINUOUS
10
2.1904744210
20
8.9622655577
11
2.9931804210
21
6.4621465577
0
LINE
5
2EC
100
AcDbEntity
8
0
100
AcDbLine
62
9
6
CONTINUOUS
10
6.0816300504
20
-10.3915529125
11
6.0990851153
21
-10.4790415760
0
LINE
5
2ED
100
AcDbEntity
8
0
100
AcDbLine
62
9
6
CONTINUOUS
10
6.3812193560
20
-10.0908650275
11
6.3986744210
21
-10.1783536910
0
LINE
5
2EE
100
AcDbEntity
8
0
100
AcDbLine
62
9
6
CONTINUOUS
10
5.0764094846
20
19.4445641600
11
5.0846280292
21
19.3122095577
0
LINE
5
2EF
100
AcDbEntity
8
0
100
AcDbLine
62
9
6
CONTINUOUS
10
5.3763980615
20
19.7416445807
11
5.3868703029
21
19.5729955790
0
LINE
5
2F0
100
AcDbEntity
8
0
100
AcDbLine
62
0
6
CONTINUOUS
10
6.3812193560
20
-10.0908650275
11
6.3812193560
21
-9.6714343843
0
LINE
5
2F1
100
AcDbEntity
8
0
100
AcDbLine
62
0
6
CONTINUOUS
10
6.3986744210
20
-20.3377904423
11
6.3986744210
21
-19.9377904423
0
LINE
5
2F2
100
AcDbEntity
8
0
100
AcDbLine
62
0
6
CONTINUOUS
10
6.3986744210
20
20.3622095577
11
6.3986744210
21
19.9622095577
0
LINE
5
2F3
100
AcDbEntity
8
0
100
AcDbLine
62
0
6
CONTINUOUS
10
6.9986744210
20
-20.3377904423
11
6.9986744210
21
-19.9377904423
0
LINE
5
2F4
100
AcDbEntity
8
0
100
AcDbLine
62
0
6
CONTINUOUS
10
6.9986744210
20
20.3622095577
11
6.9986744210
21
19.9622095577
0
LINE
5
2F5
100
AcDbEntity
8
0
100
AcDbLine
62
9
6
CONTINUOUS
10
-9.8043585788
20
-20.0408539031
11
-9.8251277512
21
-20.0616230754
0
LINE
5
2F6
100
AcDbEntity
8
0
100
AcDbLine
62
9
6
CONTINUOUS
10
-9.6043888358
20
-20.2408232382
11
-9.6251582121
21
-20.2615926145
0
LINE
5
2F7
100
AcDbEntity
8
0
100
AcDbLine
62
0
6
CONTINUOUS
10
5.3272874210
20
6.4621595577
11
4.7640934210
21
6.4621535577
0
LINE
5
2F8
100
AcDbEntity
8
0
100
AcDbLine
62
0
6
CONTINUOUS
10
1.3877554210
20
6.4621535577
11
0.8877374210
21
6.4621465577
0
LINE
5
2F9
100
AcDbEntity
8
0
100
AcDbLine
62
0
6
CONTINUOUS
10
0.5543934210
20
6.4621465577
11
0.0543744210
21
6.4621465577
0
LINE
5
2FA
100
AcDbEntity
8
0
100
AcDbLine
62
0
6
CONTINUOUS
10
-1.3911135790
20
6.4621465577
11
-1.8911315790
21
6.4621465577
0
LINE
5
2FB
100
AcDbEntity
8
0
100
AcDbLine
62
0
6
CONTINUOUS
10
3.8265494210
20
6.4621535577
11
3.3265244210
21
6.4621535577
0
LINE
5
2FC
100
AcDbEntity
8
0
100
AcDbLine
62
0
6
CONTINUOUS
10
-0.4183695790
20
6.4621535577
11
-0.9183755790
21
6.4621465577
0
LINE
5
2FD
100
AcDbEntity
8
0
100
AcDbLine
62
0
6
CONTINUOUS
10
-2.3911385790
20
6.4621465577
11
-2.8911565790
21
6.4621405577
0
LINE
5
2FE
100
AcDbEntity
8
0
100
AcDbLine
62
0
6
CONTINUOUS
10
2.9931804210
20
6.4621465577
11
2.4931554210
21
6.4621535577
0
LINE
5
2FF
100
AcDbEntity
8
0
100
AcDbLine
62
0
6
CONTINUOUS
10
-4.0272005790
20
6.4621465577
11
-4.5272385790
21
6.4621405577
0
LINE
5
300
100
AcDbEntity
8
0
100
AcDbLine
62
0
6
CONTINUOUS
10
2.3353054210
20
6.9538155577
11
1.5456124210
21
6.9538155577
0
LINE
5
301
100
AcDbEntity
8
0
100
AcDbLine
62
0
6
CONTINUOUS
10
2.1827804210
20
7.4288345577
11
1.6981304210
21
7.4288345577
0
LINE
5
302
100
AcDbEntity
8
0
100
AcDbLine
62
0
6
CONTINUOUS
10
4.2630124210
20
7.4288345577
11
3.8266054210
21
7.4288405577
0
LINE
5
303
100
AcDbEntity
8
0
100
AcDbLine
62
9
6
CONTINUOUS
10
9.8986744210
20
7.5122095577
11
9.8862388111
21
7.5122095577
0
LINE
5
304
100
AcDbEntity
8
0
100
AcDbLine
62
9
6
CONTINUOUS
10
-9.9013255790
20
7.5122095577
11
-9.8888899692
21
7.5122095577
0
LINE
5
305
100
AcDbEntity
8
0
100
AcDbLine
62
9
6
CONTINUOUS
10
-9.9013255790
20
20.1622400186
11
-9.8043585788
21
20.0652730184
0
LINE
5
306
100
AcDbEntity
8
0
100
AcDbLine
62
9
6
CONTINUOUS
10
-9.7013560400
20
20.3622095577
11
-9.6043890465
21
20.2652425642
0
LINE
5
307
100
AcDbEntity
8
0
100
AcDbLine
62
0
6
CONTINUOUS
10
4.2630124210
20
7.4288345577
11
4.7640934210
21
6.4621535577
0
LINE
5
308
100
AcDbEntity
8
0
100
AcDbLine
62
9
6
CONTINUOUS
10
8.6986744210
20
14.7122095577
11
8.6986744210
21
14.7071770669
0
LINE
5
309
100
AcDbEntity
8
0
100
AcDbLine
62
9
6
CONTINUOUS
10
8.6986744210
20
-9.6877904423
11
8.6986744210
21
-9.6791896578
0
LINE
5
30A
100
AcDbEntity
8
0
100
AcDbLine
62
9
6
CONTINUOUS
10
8.6986744210
20
-10.2877904423
11
8.6986744210
21
-10.2960305691
0
LINE
5
30B
100
AcDbEntity
8
0
100
AcDbLine
62
9
6
CONTINUOUS
10
8.6986744210
20
15.3122095577
11
8.6986744210
21
15.3167070982
0
LINE
5
30C
100
AcDbEntity
8
0
100
AcDbLine
62
9
6
CONTINUOUS
10
5.5623861414
20
-7.6451194670
11
5.1722269821
21
-8.2469282155
0
LINE
5
30D
100
AcDbEntity
8
0
100
AcDbLine
62
0
6
CONTINUOUS
10
4.4279974210
20
7.8913595577
11
3.8196554210
21
7.8913595577
0
LINE
5
30E
100
AcDbEntity
8
0
100
AcDbLine
62
0
6
CONTINUOUS
10
4.4279974210
20
8.4997475577
11
3.8196494210
21
8.4997475577
0
LINE
5
30F
100
AcDbEntity
8
0
100
AcDbLine
62
0
6
CONTINUOUS
10
0.5543934210
20
8.9622595577
11
-0.2015005790
21
8.9622595577
0
LINE
5
310
100
AcDbEntity
8
0
100
AcDbLine
62
0
6
CONTINUOUS
10
-1.1352385790
20
8.9622595577
11
-1.8911315790
21
8.9622595577
0
LINE
5
311
100
AcDbEntity
8
0
100
AcDbLine
62
0
6
CONTINUOUS
10
-2.3911315790
20
8.9622595577
11
-2.8911505790
21
8.9622595577
0
LINE
5
312
100
AcDbEntity
8
0
100
AcDbLine
62
0
6
CONTINUOUS
10
-3.2244945790
20
8.9622595577
11
-3.7245195790
21
8.9622595577
0
LINE
5
313
100
AcDbEntity
8
0
100
AcDbLine
62
0
6
CONTINUOUS
10
-4.8299135790
20
8.9622595577
11
-5.3299385790
21
8.9622595577
0
LINE
5
314
100
AcDbEntity
8
0
100
AcDbLine
62
0
6
CONTINUOUS
10
4.4973994210
20
8.9622655577
11
3.3265244210
21
8.9622655577
0
LINE
5
315
100
AcDbEntity
8
0
100
AcDbLine
62
0
6
CONTINUOUS
10
2.1904744210
20
8.9622655577
11
1.6904304210
21
8.9622655577
0
LINE
5
316
100
AcDbEntity
8
0
100
AcDbLine
62
0
6
CONTINUOUS
10
4.7950422116
20
7.4889678907
11
5.3272874210
21
6.4621595577
0
LINE
5
317
100
AcDbEntity
8
0
100
AcDbLine
62
9
6
CONTINUOUS
10
9.6000228385
20
-19.9408691336
11
9.5917806323
21
-10.2960305942
0
LINE
5
318
100
AcDbEntity
8
0
100
AcDbLine
62
0
6
CONTINUOUS
10
9.7965622911
20
-10.2877904423
11
9.7965622911
21
-9.6877904423
0
LINE
5
319
100
AcDbEntity
8
0
100
AcDbLine
62
0
6
CONTINUOUS
10
9.7965622911
20
14.7122095577
11
9.7965622911
21
15.3122095577
0
LINE
5
31A
100
AcDbEntity
8
0
100
AcDbLine
62
9
6
CONTINUOUS
10
9.7999923775
20
-19.9408691336
11
9.7999923775
21
-19.6760483643
0
LINE
5
31B
100
AcDbEntity
8
0
100
AcDbLine
62
9
6
CONTINUOUS
10
9.7999923775
20
19.7004674796
11
9.7999923775
21
19.9652882489
0
LINE
5
31C
100
AcDbEntity
8
0
100
AcDbLine
62
0
6
CONTINUOUS
10
9.8862388111
20
-7.4877904423
11
9.8862388111
21
7.5122095577
0
LINE
5
31D
100
AcDbEntity
8
0
100
AcDbLine
62
0
6
CONTINUOUS
10
9.8986744210
20
-20.1378209033
11
9.8986744210
21
-7.4877904423
0
LINE
5
31E
100
AcDbEntity
8
0
100
AcDbLine
62
0
6
CONTINUOUS
10
9.8986744210
20
7.5122095577
11
9.8986744210
21
20.1622400186
0
LINE
5
31F
100
AcDbEntity
8
0
100
AcDbLine
62
0
6
CONTINUOUS
10
10.5986744210
20
-5.9679220270
11
10.5986744210
21
5.9923411423
0
LINE
5
320
100
AcDbEntity
8
0
100
AcDbLine
62
0
6
CONTINUOUS
10
10.8986744210
20
-20.8379122862
11
10.8986744210
21
20.8623314015
0
LINE
5
321
100
AcDbEntity
8
0
100
AcDbLine
62
9
6
CONTINUOUS
10
9.5949861207
20
14.7071771698
11
9.5914202160
21
-9.6791897163
0
LINE
5
322
100
AcDbEntity
8
0
100
AcDbLine
62
9
6
CONTINUOUS
10
9.6000228385
20
19.9652929501
11
9.5955207127
21
15.3167071583
0
LINE
5
323
100
AcDbEntity
8
0
100
AcDbLine
62
9
6
CONTINUOUS
10
6.3137332120
20
-9.4788217791
11
6.3117666062
21
-9.4794926779
0
LINE
5
324
100
AcDbEntity
8
0
100
AcDbLine
62
0
6
CONTINUOUS
10
5.8817924286
20
-14.6938145162
11
5.8827928600
21
-14.6915943159
0
LINE
5
325
100
AcDbEntity
8
0
100
AcDbLine
62
9
6
CONTINUOUS
10
6.8141243918
20
-11.1802972688
11
6.7905886352
21
-11.2166437250
0
LINE
5
326
100
AcDbEntity
8
0
100
AcDbLine
62
9
6
CONTINUOUS
10
-4.5013255790
20
-17.7449201743
11
-4.4908525401
21
-17.7380904798
0
LINE
5
327
100
AcDbEntity
8
0
100
AcDbLine
62
0
6
CONTINUOUS
10
9.7965622911
20
-10.2877904423
11
9.7917522644
21
-10.2926004691
0
LINE
5
328
100
AcDbEntity
8
0
100
AcDbLine
62
9
6
CONTINUOUS
10
-4.3225082356
20
-18.0193257554
11
-4.3116743266
21
-18.0126550843
0
LINE
5
329
100
AcDbEntity
8
0
100
AcDbLine
62
0
6
CONTINUOUS
10
9.5949861465
20
14.7071770671
11
8.6986744210
21
14.7071770669
0
LINE
5
32A
100
AcDbEntity
8
0
100
AcDbLine
62
0
6
CONTINUOUS
10
-8.7013255790
20
14.7071770669
11
-9.5976373046
21
14.7071770671
0
LINE
5
32B
100
AcDbEntity
8
0
100
AcDbLine
62
0
6
CONTINUOUS
10
9.7965622911
20
14.7122095577
11
8.6986744210
21
14.7122095577
0
LINE
5
32C
100
AcDbEntity
8
0
100
AcDbLine
62
0
6
CONTINUOUS
10
-8.7013255790
20
14.7122095577
11
-9.7992134492
21
14.7122095577
0
LINE
5
32D
100
AcDbEntity
8
0
100
AcDbLine
62
0
6
CONTINUOUS
10
-9.7992134492
20
15.3122095577
11
-8.7013255790
21
15.3122095577
0
LINE
5
32E
100
AcDbEntity
8
0
100
AcDbLine
62
0
6
CONTINUOUS
10
8.6986744210
20
15.3122095577
11
9.7965622911
21
15.3122095577
0
LINE
5
32F
100
AcDbEntity
8
0
100
AcDbLine
62
0
6
CONTINUOUS
10
9.5955207203
20
15.3167070981
11
8.6986744210
21
15.3167070982
0
LINE
5
330
100
AcDbEntity
8
0
100
AcDbLine
62
0
6
CONTINUOUS
10
-8.7013255790
20
15.3167070982
11
-9.5981718784
21
15.3167070981
0
LINE
5
331
100
AcDbEntity
8
0
100
AcDbLine
62
0
6
CONTINUOUS
10
9.7965622911
20
15.3122095577
11
9.7954963567
21
15.3132754921
0
LINE
5
332
100
AcDbEntity
8
0
100
AcDbLine
62
0
6
CONTINUOUS
10
6.9986744210
20
19.9622095577
11
9.5532912522
21
20.3552275317
0
LINE
5
333
100
AcDbEntity
8
0
100
AcDbLine
62
0
6
CONTINUOUS
10
5.0868817259
20
18.5122095577
11
4.9104671160
21
18.5122095577
0
LINE
5
334
100
AcDbEntity
8
0
100
AcDbLine
62
0
6
CONTINUOUS
10
-4.9131182741
20
18.5122095577
11
-5.0895328840
21
18.5122095577
0
LINE
5
335
100
AcDbEntity
8
0
100
AcDbLine
62
9
6
CONTINUOUS
10
5.3868703029
20
18.8122095577
11
4.6104785391
21
18.8122095577
0
LINE
5
336
100
AcDbEntity
8
0
100
AcDbLine
62
9
6
CONTINUOUS
10
-4.6131296971
20
18.8122095577
11
-5.3895214609
21
18.8122095577
0
LINE
5
337
100
AcDbEntity
8
0
100
AcDbLine
62
0
6
CONTINUOUS
10
5.0868817259
20
19.3122095577
11
4.9104671160
21
19.3122095577
0
LINE
5
338
100
AcDbEntity
8
0
100
AcDbLine
62
0
6
CONTINUOUS
10
-4.9131182741
20
19.3122095577
11
-5.0895328840
21
19.3122095577
0
LINE
5
339
100
AcDbEntity
8
0
100
AcDbLine
62
9
6
CONTINUOUS
10
5.0764094846
20
19.4445641600
11
4.9209393574
21
19.4445641600
0
LINE
5
33A
100
AcDbEntity
8
0
100
AcDbLine
62
9
6
CONTINUOUS
10
-4.9235905154
20
19.4445641600
11
-5.0790606426
21
19.4445641600
0
LINE
5
33B
100
AcDbEntity
8
0
100
AcDbLine
62
0
6
CONTINUOUS
10
4.5986744210
20
19.7070692931
11
-4.6013255790
21
19.7070692931
0
LINE
5
33C
100
AcDbEntity
8
0
100
AcDbLine
62
0
6
CONTINUOUS
10
9.6000228385
20
19.7070670376
11
5.3986744210
21
19.7070692931
0
LINE
5
33D
100
AcDbEntity
8
0
100
AcDbLine
62
0
6
CONTINUOUS
10
-5.4013255790
20
19.7070692931
11
-9.6026739966
21
19.7070670377
0
LINE
5
33E
100
AcDbEntity
8
0
100
AcDbLine
62
9
6
CONTINUOUS
10
5.3763980615
20
19.7416445807
11
4.6209507804
21
19.7416445807
0
LINE
5
33F
100
AcDbEntity
8
0
100
AcDbLine
62
9
6
CONTINUOUS
10
-4.6236019385
20
19.7416445807
11
-5.3790492196
21
19.7416445807
0
LINE
5
340
100
AcDbEntity
8
0
100
AcDbLine
62
0
6
CONTINUOUS
10
-6.4013255790
20
19.9622095577
11
-7.0013255790
21
19.9622095577
0
LINE
5
341
100
AcDbEntity
8
0
100
AcDbLine
62
0
6
CONTINUOUS
10
6.3986744210
20
19.9622095577
11
6.9986744210
21
19.9622095577
0
LINE
5
342
100
AcDbEntity
8
0
100
AcDbLine
62
9
6
CONTINUOUS
10
-6.4013266986
20
19.9652910696
11
-5.4013255790
21
19.9652882489
0
LINE
5
343
100
AcDbEntity
8
0
100
AcDbLine
62
9
6
CONTINUOUS
10
5.3986744210
20
19.9652882489
11
6.3986748651
21
19.9652893679
0
LINE
5
344
100
AcDbEntity
8
0
100
AcDbLine
62
9
6
CONTINUOUS
10
9.7999923775
20
19.9652882489
11
6.9986744175
21
19.9652900393
0
LINE
5
345
100
AcDbEntity
8
0
100
AcDbLine
62
9
6
CONTINUOUS
10
-9.8026435356
20
19.9652882489
11
-7.0013255703
21
19.9652927620
0
LINE
5
346
100
AcDbEntity
8
0
100
AcDbLine
62
9
6
CONTINUOUS
10
-4.6013255790
20
19.9652882489
11
4.5986744210
21
19.9652882489
0
LINE
5
347
100
AcDbEntity
8
0
100
AcDbLine
62
9
6
CONTINUOUS
10
-9.5559424104
20
20.2652425641
11
-8.9710401149
21
20.2652425632
0
LINE
5
348
100
AcDbEntity
8
0
100
AcDbLine
62
9
6
CONTINUOUS
10
-6.4013255792
20
20.2652425591
11
-5.3987532101
21
20.2652425574
0
LINE
5
349
100
AcDbEntity
8
0
100
AcDbLine
62
9
6
CONTINUOUS
10
-4.6038979479
20
20.2652425574
11
4.6012467899
21
20.2652425574
0
LINE
5
34A
100
AcDbEntity
8
0
100
AcDbLine
62
9
6
CONTINUOUS
10
5.3961020521
20
20.2652425574
11
6.3986744210
21
20.2652425574
0
LINE
5
34B
100
AcDbEntity
8
0
100
AcDbLine
62
9
6
CONTINUOUS
10
8.9683889196
20
20.2652425574
11
9.6017378817
21
20.2652425574
0
LINE
5
34C
100
AcDbEntity
8
0
100
AcDbLine
62
0
6
CONTINUOUS
10
-7.0013255790
20
19.9622095577
11
-9.5559424102
21
20.3552275317
0
LINE
5
34D
100
AcDbEntity
8
0
100
AcDbLine
62
0
6
CONTINUOUS
10
5.0764094846
20
20.3098443629
11
4.9209393574
21
20.3098443629
0
LINE
5
34E
100
AcDbEntity
8
0
100
AcDbLine
62
0
6
CONTINUOUS
10
-4.9235905154
20
20.3098443629
11
-5.0790606426
21
20.3098443629
0
LINE
5
34F
100
AcDbEntity
8
0
100
AcDbLine
62
0
6
CONTINUOUS
10
-2.5013255790
20
20.3569730382
11
-0.0013255790
21
20.3569730382
0
LINE
5
350
100
AcDbEntity
8
0
100
AcDbLine
62
0
6
CONTINUOUS
10
-2.5013255790
20
20.3622095577
11
-9.7013560400
21
20.3622095577
0
LINE
5
351
100
AcDbEntity
8
0
100
AcDbLine
62
0
6
CONTINUOUS
10
-0.0013255790
20
20.3622095577
11
9.6987048819
21
20.3622095577
0
LINE
5
352
100
AcDbEntity
8
0
100
AcDbLine
62
0
6
CONTINUOUS
10
-2.5013255790
20
21.5622095577
11
-0.0013255790
21
21.5622095577
0
LINE
5
353
100
AcDbEntity
8
0
100
AcDbLine
62
0
6
CONTINUOUS
10
10.0987962648
20
21.6622095577
11
-10.1014474229
21
21.6622095577
0
ARC
5
354
100
AcDbEntity
8
0
100
AcDbCircle
62
0
6
CONTINUOUS
10
-2.1013255790
20
-12.9877904423
40
4.2912724675
100
AcDbArc
50
206.9633147825
51
215.6320551568
0
ARC
5
355
100
AcDbEntity
8
0
100
AcDbCircle
62
0
6
CONTINUOUS
10
-2.1013255790
20
-12.9877904423
40
4.2912724675
100
AcDbArc
50
144.3679448432
51
153.0370354764
0
ARC
5
356
100
AcDbEntity
8
0
100
AcDbCircle
62
0
6
CONTINUOUS
10
2.0986744210
20
-12.9877904423
40
4.2912724675
100
AcDbArc
50
26.9633147825
51
35.6320551568
0
ARC
5
357
100
AcDbEntity
8
0
100
AcDbCircle
62
0
6
CONTINUOUS
10
2.0986744210
20
-12.9877904423
40
4.2912724675
100
AcDbArc
50
324.3679448432
51
333.0370354764
0
ARC
5
358
100
AcDbEntity
8
0
100
AcDbCircle
62
0
6
CONTINUOUS
10
2.0986744210
20
-12.9877904423
40
4.2895269610
100
AcDbArc
50
303.8527694157
51
322.7531437389
0
ARC
5
359
100
AcDbEntity
8
0
100
AcDbCircle
62
0
6
CONTINUOUS
10
2.0986744210
20
-12.9877904423
40
5.4895269610
100
AcDbArc
50
270.0000000000
51
293.7438417905
0
ARC
5
35A
100
AcDbEntity
8
0
100
AcDbCircle
62
0
6
CONTINUOUS
10
-2.1013255790
20
-12.9877904423
40
5.4895269610
100
AcDbArc
50
246.2561582095
51
270.0000000000
0
ARC
5
35B
100
AcDbEntity
8
0
100
AcDbCircle
62
0
6
CONTINUOUS
10
-2.1013255790
20
-12.9877904423
40
4.2895269610
100
AcDbArc
50
217.2468562611
51
236.1472305843
0
ARC
5
35C
100
AcDbEntity
8
0
100
AcDbCircle
62
0
6
CONTINUOUS
10
-2.1013255790
20
-12.9877904423
40
5.4825449351
100
AcDbArc
50
90.0000000000
51
140.2154021118
0
ARC
5
35D
100
AcDbEntity
8
0
100
AcDbCircle
62
0
6
CONTINUOUS
10
2.0986744210
20
-12.9877904423
40
3.7895269610
100
AcDbArc
50
320.0792135662
51
39.9207864311
0
ARC
5
35E
100
AcDbEntity
8
0
100
AcDbCircle
62
0
6
CONTINUOUS
10
-2.1013255790
20
-12.9877904423
40
3.7895269610
100
AcDbArc
50
140.0792135662
51
219.9207864311
0
ARC
5
35F
100
AcDbEntity
8
0
100
AcDbCircle
62
0
6
CONTINUOUS
10
2.0986744210
20
-12.9877904423
40
5.4825449351
100
AcDbArc
50
39.7845978882
51
90.0000000000
0
ARC
5
360
100
AcDbEntity
8
0
100
AcDbCircle
62
0
6
CONTINUOUS
10
-2.1013255790
20
-12.9877904423
40
4.4534946172
100
AcDbArc
50
145.6949857633
51
153.2142589725
0
ARC
5
361
100
AcDbEntity
8
0
100
AcDbCircle
62
0
6
CONTINUOUS
10
-2.1013255790
20
-12.9877904423
40
4.4500000000
100
AcDbArc
50
206.7076453021
51
212.6377578227
0
ARC
5
362
100
AcDbEntity
8
0
100
AcDbCircle
62
0
6
CONTINUOUS
10
2.0986744210
20
-12.9877904423
40
4.4500000000
100
AcDbArc
50
327.3622421773
51
333.2923546979
0
ARC
5
363
100
AcDbEntity
8
0
100
AcDbCircle
62
0
6
CONTINUOUS
10
2.0986744210
20
-12.9877904423
40
4.4534954036
100
AcDbArc
50
26.7857585947
51
34.3053046838
0
ARC
5
364
100
AcDbEntity
8
0
100
AcDbCircle
62
0
6
CONTINUOUS
10
2.0986744210
20
-12.9877904423
40
4.1500000000
100
AcDbArc
50
335.7602867576
51
24.2397132424
0
ARC
5
365
100
AcDbEntity
8
0
100
AcDbCircle
62
0
6
CONTINUOUS
10
-2.1013255790
20
-12.9877904423
40
4.1500000000
100
AcDbArc
50
155.7602867576
51
204.2397132424
0
ARC
5
366
100
AcDbEntity
8
0
100
AcDbCircle
62
0
6
CONTINUOUS
10
4.4279974210
20
8.1955525577
40
0.3041950000
100
AcDbArc
50
270.0016550819
51
90.0000000000
0
ARC
5
367
100
AcDbEntity
8
0
100
AcDbCircle
62
0
6
CONTINUOUS
10
4.4973994210
20
8.1955525577
40
0.7667158029
100
AcDbArc
50
292.8428457417
51
89.9989363352
0
ARC
5
368
100
AcDbEntity
8
0
100
AcDbCircle
62
0
6
CONTINUOUS
10
-2.1013255790
20
-12.9877904423
40
4.4534875415
100
AcDbArc
50
218.0753500692
51
237.3746915521
0
ARC
5
369
100
AcDbEntity
8
0
100
AcDbCircle
62
0
6
CONTINUOUS
10
2.0986744210
20
-12.9877904423
40
4.6501369129
100
AcDbArc
50
335.0013008965
51
24.9986991035
0
ARC
5
36A
100
AcDbEntity
8
0
100
AcDbCircle
62
0
6
CONTINUOUS
10
2.0986744210
20
-12.9877904423
40
5.0150792305
100
AcDbArc
50
339.3190223499
51
20.6809776501
0
ARC
5
36B
100
AcDbEntity
8
0
100
AcDbCircle
62
0
6
CONTINUOUS
10
-2.1013255790
20
-12.9877904423
40
5.0150792305
100
AcDbArc
50
159.3190223499
51
200.6809776501
0
ARC
5
36C
100
AcDbEntity
8
0
100
AcDbCircle
62
0
6
CONTINUOUS
10
-2.1013255790
20
-12.9877904423
40
4.6501369129
100
AcDbArc
50
155.0013008965
51
204.9986991035
0
ARC
5
36D
100
AcDbEntity
8
0
100
AcDbCircle
62
0
6
CONTINUOUS
10
-2.1013255790
20
-12.9877904423
40
5.6500000000
100
AcDbArc
50
122.9557802664
51
205.1366605176
0
ARC
5
36E
100
AcDbEntity
8
0
100
AcDbCircle
62
0
6
CONTINUOUS
10
2.0986744210
20
-12.9877904423
40
5.6500000000
100
AcDbArc
50
334.8633394824
51
57.0442197336
0
ARC
5
36F
100
AcDbEntity
8
0
100
AcDbCircle
62
0
6
CONTINUOUS
10
2.0986744210
20
-12.9877904423
40
5.0500000000
100
AcDbArc
50
339.0275234118
51
20.9724765882
0
ARC
5
370
100
AcDbEntity
8
0
100
AcDbCircle
62
0
6
CONTINUOUS
10
2.0986744210
20
-12.9877904423
40
4.6502945067
100
AcDbArc
50
25.4743842609
51
32.6773198706
0
ARC
5
371
100
AcDbEntity
8
0
100
AcDbCircle
62
0
6
CONTINUOUS
10
-2.1013255790
20
-12.9877904423
40
4.6502474510
100
AcDbArc
50
147.3228640362
51
154.5256157391
0
ARC
5
372
100
AcDbEntity
8
0
100
AcDbCircle
62
0
6
CONTINUOUS
10
-2.1013255790
20
-12.9877904423
40
5.0500000000
100
AcDbArc
50
159.0275234118
51
200.9724765882
0
ARC
5
373
100
AcDbEntity
8
0
100
AcDbCircle
62
0
6
CONTINUOUS
10
-4.9513255790
20
-17.3377904423
40
0.3000000000
100
AcDbArc
50
0.0000000000
51
180.0000000000
0
ARC
5
374
100
AcDbEntity
8
0
100
AcDbCircle
62
0
6
CONTINUOUS
10
4.9486744210
20
-17.3377904423
40
0.3000000000
100
AcDbArc
50
0.0000000000
51
180.0000000000
0
ARC
5
375
100
AcDbEntity
8
0
100
AcDbCircle
62
0
6
CONTINUOUS
10
-11.9013255790
20
7.5122095577
40
2.0000000000
100
AcDbArc
50
310.5416018735
51
360.0000000000
0
ARC
5
376
100
AcDbEntity
8
0
100
AcDbCircle
62
0
6
CONTINUOUS
10
-11.9013255790
20
-7.4877904423
40
2.0000000000
100
AcDbArc
50
0.0000000000
51
49.4583981265
0
ARC
5
377
100
AcDbEntity
8
0
100
AcDbCircle
62
0
6
CONTINUOUS
10
11.8986744210
20
-7.4877904423
40
2.0000000000
100
AcDbArc
50
130.5416018735
51
180.0000000000
0
ARC
5
378
100
AcDbEntity
8
0
100
AcDbCircle
62
0
6
CONTINUOUS
10
11.8986744210
20
7.5122095577
40
2.0000000000
100
AcDbArc
50
180.0000000000
51
229.4583981265
0
ARC
5
379
100
AcDbEntity
8
0
100
AcDbCircle
62
0
6
CONTINUOUS
10
8.6986744210
20
-9.9877904423
40
0.3000000000
100
AcDbArc
50
90.0000000000
51
270.0000000000
0
ARC
5
37A
100
AcDbEntity
8
0
100
AcDbCircle
62
0
6
CONTINUOUS
10
-2.1013255790
20
-12.9877904423
40
4.6572218960
100
AcDbArc
50
221.6152678840
51
238.9576063770
0
ARC
5
37B
100
AcDbEntity
8
0
100
AcDbCircle
62
0
6
CONTINUOUS
10
2.0986744210
20
-12.9877904423
40
4.6571751254
100
AcDbArc
50
301.0302351262
51
318.3847321160
0
ARC
5
37C
100
AcDbEntity
8
0
100
AcDbCircle
62
0
6
CONTINUOUS
10
4.9486744210
20
-17.3377904423
40
0.3104730390
100
AcDbArc
50
0.0000000000
51
180.0000000000
0
ARC
5
37D
100
AcDbEntity
8
0
100
AcDbCircle
62
0
6
CONTINUOUS
10
-4.9513255790
20
-17.3377904423
40
0.3104730390
100
AcDbArc
50
0.0000000000
51
180.0000000000
0
ARC
5
37E
100
AcDbEntity
8
0
100
AcDbCircle
62
0
6
CONTINUOUS
10
-8.7013255790
20
-9.9877904423
40
0.3000000000
100
AcDbArc
50
270.0000000000
51
90.0000000000
0
ARC
5
37F
100
AcDbEntity
8
0
100
AcDbCircle
62
0
6
CONTINUOUS
10
8.6986744210
20
15.0122095577
40
0.3000000000
100
AcDbArc
50
90.0000000000
51
270.0000000000
0
ARC
5
380
100
AcDbEntity
8
0
100
AcDbCircle
62
0
6
CONTINUOUS
10
-8.7013255790
20
15.0122095577
40
0.3000000000
100
AcDbArc
50
270.0000000000
51
90.0000000000
0
ARC
5
381
100
AcDbEntity
8
0
100
AcDbCircle
62
0
6
CONTINUOUS
10
-2.1013255790
20
-12.9877904423
40
6.2901338116
100
AcDbArc
50
246.1883212575
51
270.0000000000
0
ARC
5
382
100
AcDbEntity
8
0
100
AcDbCircle
62
0
6
CONTINUOUS
10
-2.1013255790
20
-12.9877904423
40
7.2503380976
100
AcDbArc
50
249.4081858812
51
258.6339132327
0
ARC
5
383
100
AcDbEntity
8
0
100
AcDbCircle
62
0
6
CONTINUOUS
10
-2.1013255790
20
-12.9877904423
40
6.2901338116
100
AcDbArc
50
209.4519765641
51
239.8378259567
0
ARC
5
384
100
AcDbEntity
8
0
100
AcDbCircle
62
0
6
CONTINUOUS
10
2.0986744210
20
-12.9877904423
40
7.2503369007
100
AcDbArc
50
281.3660867693
51
290.5918141188
0
ARC
5
385
100
AcDbEntity
8
0
100
AcDbCircle
62
0
6
CONTINUOUS
10
2.0986744210
20
-12.9877904423
40
6.2901338116
100
AcDbArc
50
270.0000000000
51
293.8116787425
0
ARC
5
386
100
AcDbEntity
8
0
100
AcDbCircle
62
0
6
CONTINUOUS
10
2.0986744210
20
-12.9877904423
40
6.2901338116
100
AcDbArc
50
300.1621740433
51
330.5480234359
0
ARC
5
387
100
AcDbEntity
8
0
100
AcDbCircle
62
0
6
CONTINUOUS
10
2.0986744210
20
-12.9877904423
40
4.4534883220
100
AcDbArc
50
302.6253907263
51
321.9246279868
0
SPLINE
5
388
100
AcDbEntity
8
0
100
AcDbSpline
62
0
6
CONTINUOUS
70
0
71
3
72
12
73
8
74
6
42
0.0000001000
43
0.0000001000
44
0.0000000001
12
-0.4695527409
22
0.0000000000
32
0.0000000000
13
0.0000000000
23
0.4695527409
33
0.0000000000
40
0.0000000000
40
0.0000000000
40
0.0000000000
40
0.0000000000
40
0.1993649636
40
0.3988522271
40
0.5987371844
40
0.7991447419
40
1.0000000000
40
1.0000000000
40
1.0000000000
40
1.0000000000
10
-6.1017362734
20
-10.4790415760
30
0.0000000000
10
-6.1329403951
20
-10.4790415760
30
0.0000000000
10
-6.1958094276
20
-10.4691015652
30
0.0000000000
10
-6.2805918230
20
-10.4257963489
30
0.0000000000
10
-6.3480266729
20
-10.3582268938
30
0.0000000000
10
-6.3913655108
20
-10.2730386100
30
0.0000000000
10
-6.4013255790
20
-10.2097910700
30
0.0000000000
10
-6.4013255790
20
-10.1783536910
30
0.0000000000
11
-6.1017362734
21
-10.4790415760
31
0.0000000000
11
-6.1941934420
21
-10.4643805094
31
0.0000000000
11
-6.2776289503
21
-10.4218065061
31
0.0000000000
11
-6.3439415795
21
-10.3553860021
31
0.0000000000
11
-6.3866017187
21
-10.2715094054
31
0.0000000000
11
-6.4013255790
21
-10.1783536910
31
0.0000000000
0
SPLINE
5
389
100
AcDbEntity
8
0
100
AcDbSpline
62
0
6
CONTINUOUS
70
0
71
3
72
12
73
8
74
6
42
0.0000001000
43
0.0000001000
44
0.0000000001
12
0.0000000000
22
-0.4695527409
32
0.0000000000
13
-0.4695527409
23
-0.0000000000
33
0.0000000000
40
0.0000000000
40
0.0000000000
40
0.0000000000
40
0.0000000000
40
0.2008552581
40
0.4012628156
40
0.6011477729
40
0.8006350364
40
1.0000000000
40
1.0000000000
40
1.0000000000
40
1.0000000000
10
6.3986744210
20
-10.1783536910
30
0.0000000000
10
6.3986744210
20
-10.2097910700
30
0.0000000000
10
6.3887143527
20
-10.2730386100
30
0.0000000000
10
6.3453755148
20
-10.3582268938
30
0.0000000000
10
6.2779406650
20
-10.4257963489
30
0.0000000000
10
6.1931582695
20
-10.4691015652
30
0.0000000000
10
6.1302892370
20
-10.4790415760
30
0.0000000000
10
6.0990851153
20
-10.4790415760
30
0.0000000000
11
6.3986744210
21
-10.1783536910
31
0.0000000000
11
6.3839505607
21
-10.2715094054
31
0.0000000000
11
6.3412904214
21
-10.3553860021
31
0.0000000000
11
6.2749777922
21
-10.4218065061
31
0.0000000000
11
6.1915422839
21
-10.4643805094
31
0.0000000000
11
6.0990851153
21
-10.4790415760
31
0.0000000000
0
SPLINE
5
38A
100
AcDbEntity
8
0
100
AcDbSpline
62
0
6
CONTINUOUS
70
0
71
3
72
9
73
5
74
3
42
0.0000001000
43
0.0000001000
44
0.0000000001
12
0.0206767351
22
-0.0438711744
32
0.0000000000
13
0.0212091994
23
-0.0436162490
33
0.0000000000
40
0.0000000000
40
0.0000000000
40
0.0000000000
40
0.0000000000
40
0.5000024224
40
1.0000000000
40
1.0000000000
40
1.0000000000
40
1.0000000000
10
-5.5891643641
20
-15.4877904423
30
0.0000000000
10
-5.5857182249
20
-15.4951023402
30
0.0000000000
10
-5.5787814758
20
-15.5097051313
30
0.0000000000
10
-5.5717559814
20
-15.5242654345
30
0.0000000000
10
-5.5682211319
20
-15.5315347741
30
0.0000000000
11
-5.5891643641
21
-15.4877904423
31
0.0000000000
11
-5.5787592556
21
-15.5096945800
31
0.0000000000
11
-5.5682211319
21
-15.5315347741
31
0.0000000000
0
SPLINE
5
38B
100
AcDbEntity
8
0
100
AcDbSpline
62
0
6
CONTINUOUS
70
0
71
3
72
9
73
5
74
3
42
0.0000001000
43
0.0000001000
44
0.0000000001
12
0.0212091994
22
0.0436162490
32
0.0000000000
13
0.0206767351
23
0.0438711744
33
0.0000000000
40
0.0000000000
40
0.0000000000
40
0.0000000000
40
0.0000000000
40
0.4999975776
40
1.0000000000
40
1.0000000000
40
1.0000000000
40
1.0000000000
10
5.5655699739
20
-15.5315347741
30
0.0000000000
10
5.5691048233
20
-15.5242654345
30
0.0000000000
10
5.5761303177
20
-15.5097051313
30
0.0000000000
10
5.5830670668
20
-15.4951023402
30
0.0000000000
10
5.5865132060
20
-15.4877904423
30
0.0000000000
11
5.5655699739
21
-15.5315347741
31
0.0000000000
11
5.5761080976
21
-15.5096945800
31
0.0000000000
11
5.5865132060
21
-15.4877904423
31
0.0000000000
0
SPLINE
5
38C
100
AcDbEntity
8
0
100
AcDbSpline
62
0
6
CONTINUOUS
70
0
71
3
72
11
73
7
74
5
42
0.0000001000
43
0.0000001000
44
0.0000000001
12
0.3163996829
22
0.1391786033
32
0.0000000000
13
-0.0000000000
23
0.3456579856
33
0.0000000000
40
0.0000000000
40
0.0000000000
40
0.0000000000
40
0.0000000000
40
0.2501512982
40
0.5000772344
40
0.7495531928
40
1.0000000000
40
1.0000000000
40
1.0000000000
40
1.0000000000
10
4.3090231686
20
-18.0126550843
30
0.0000000000
10
4.3354057657
20
-18.0010498482
30
0.0000000000
10
4.3850725978
20
-17.9700069091
30
0.0000000000
10
4.4429360741
20
-17.9043269618
30
0.0000000000
10
4.4797761912
20
-17.8248925382
30
0.0000000000
10
4.4882013820
20
-17.7669467927
30
0.0000000000
10
4.4882013820
20
-17.7380904798
30
0.0000000000
11
4.3090231686
21
-18.0126550843
31
0.0000000000
11
4.3823269312
21
-17.9667958996
31
0.0000000000
11
4.4394602873
21
-17.9019975901
31
0.0000000000
11
4.4757101341
21
-17.8237534817
31
0.0000000000
11
4.4882013820
21
-17.7380904798
31
0.0000000000
0
SPLINE
5
38D
100
AcDbEntity
8
0
100
AcDbSpline
62
0
6
CONTINUOUS
70
0
71
3
72
11
73
7
74
5
42
0.0000001000
43
0.0000001000
44
0.0000000001
12
-0.0000000000
22
-0.3456579856
32
0.0000000000
13
0.3163996829
23
-0.1391786033
33
0.0000000000
40
0.0000000000
40
0.0000000000
40
0.0000000000
40
0.0000000000
40
0.2504468072
40
0.4999227656
40
0.7498487018
40
1.0000000000
40
1.0000000000
40
1.0000000000
40
1.0000000000
10
-4.4908525401
20
-17.7380904798
30
0.0000000000
10
-4.4908525401
20
-17.7669467927
30
0.0000000000
10
-4.4824273493
20
-17.8248925382
30
0.0000000000
10
-4.4455872322
20
-17.9043269618
30
0.0000000000
10
-4.3877237558
20
-17.9700069091
30
0.0000000000
10
-4.3380569238
20
-18.0010498482
30
0.0000000000
10
-4.3116743266
20
-18.0126550843
30
0.0000000000
11
-4.4908525401
21
-17.7380904798
31
0.0000000000
11
-4.4783612922
21
-17.8237534817
31
0.0000000000
11
-4.4421114453
21
-17.9019975901
31
0.0000000000
11
-4.3849780892
21
-17.9667958996
31
0.0000000000
11
-4.3116743266
21
-18.0126550843
31
0.0000000000
0
SPLINE
5
38E
100
AcDbEntity
8
0
100
AcDbSpline
62
0
6
CONTINUOUS
70
0
71
3
72
12
73
8
74
6
42
0.0000001000
43
0.0000001000
44
0.0000000001
12
-0.2249711768
22
0.0000000072
32
0.0000000000
13
0.1443702801
23
0.1725376846
33
0.0000000000
40
0.0000000000
40
0.0000000000
40
0.0000000000
40
0.0000000000
40
0.1979326552
40
0.4014972617
40
0.6002837164
40
0.7995798612
40
1.0000000000
40
1.0000000000
40
1.0000000000
40
1.0000000000
10
5.0809978984
20
-15.5840279722
30
0.0000000000
10
5.0661548509
20
-15.5840279717
30
0.0000000000
10
5.0356155944
20
-15.5771386608
30
0.0000000000
10
4.9994226508
20
-15.5477332942
30
0.0000000000
10
4.9800216966
20
-15.5052472623
30
0.0000000000
10
4.9810975207
20
-15.4588897174
30
0.0000000000
10
4.9953404817
20
-15.4311623366
30
0.0000000000
10
5.0049853855
20
-15.4196356610
30
0.0000000000
11
5.0809978984
21
-15.5840279722
31
0.0000000000
11
5.0375828217
21
-15.5741297080
31
0.0000000000
11
5.0020231164
21
-15.5452714949
31
0.0000000000
11
4.9834175352
21
-15.5046043079
31
0.0000000000
11
4.9844576269
21
-15.4597804852
31
0.0000000000
11
5.0049853855
21
-15.4196356610
31
0.0000000000
0
SPLINE
5
38F
100
AcDbEntity
8
0
100
AcDbSpline
62
0
6
CONTINUOUS
70
0
71
3
72
12
73
8
74
6
42
0.0000001000
43
0.0000001000
44
0.0000000001
12
-0.1443708331
22
0.1725383444
32
0.0000000000
13
0.2249720377
23
0.0000000062
33
0.0000000000
40
0.0000000000
40
0.0000000000
40
0.0000000000
40
0.0000000000
40
0.2013081136
40
0.4014154804
40
0.6006504725
40
0.7999541930
40
1.0000000000
40
1.0000000000
40
1.0000000000
40
1.0000000000
10
5.0049853856
20
-10.5559452238
30
0.0000000000
10
4.9952977123
20
-10.5443674343
30
0.0000000000
10
4.9810172453
20
-10.5164979843
30
0.0000000000
10
4.9800738110
20
-10.4699583213
30
0.0000000000
10
4.9995803471
20
-10.4277615988
30
0.0000000000
10
5.0356049738
20
-10.3984927508
30
0.0000000000
10
5.0659963274
20
-10.3915529129
30
0.0000000000
10
5.0809978984
20
-10.3915529125
30
0.0000000000
11
5.0049853856
21
-10.5559452238
31
0.0000000000
11
4.9844074665
21
-10.5156015096
31
0.0000000000
11
4.9834972505
21
-10.4705921501
31
0.0000000000
11
5.0023269372
21
-10.4299168300
31
0.0000000000
11
5.0371437344
21
-10.4016641182
31
0.0000000000
11
5.0809978984
21
-10.3915529125
31
0.0000000000
0
SPLINE
5
390
100
AcDbEntity
8
0
100
AcDbSpline
62
0
6
CONTINUOUS
70
0
71
3
72
12
73
8
74
6
42
0.0000001000
43
0.0000001000
44
0.0000000001
12
0.2249711768
22
-0.0000000072
32
0.0000000000
13
-0.1443702801
23
-0.1725376846
33
0.0000000000
40
0.0000000000
40
0.0000000000
40
0.0000000000
40
0.0000000000
40
0.1979326552
40
0.4014972617
40
0.6002837164
40
0.7995798612
40
1.0000000000
40
1.0000000000
40
1.0000000000
40
1.0000000000
10
-5.0836490564
20
-10.3915529125
30
0.0000000000
10
-5.0688060090
20
-10.3915529129
30
0.0000000000
10
-5.0382667524
20
-10.3984422238
30
0.0000000000
10
-5.0020738089
20
-10.4278475905
30
0.0000000000
10
-4.9826728547
20
-10.4703336223
30
0.0000000000
10
-4.9837486787
20
-10.5166911673
30
0.0000000000
10
-4.9979916397
20
-10.5444185481
30
0.0000000000
10
-5.0076365436
20
-10.5559452237
30
0.0000000000
11
-5.0836490564
21
-10.3915529125
31
0.0000000000
11
-5.0402339797
21
-10.4014511767
31
0.0000000000
11
-5.0046742744
21
-10.4303093898
31
0.0000000000
11
-4.9860686932
21
-10.4709765768
31
0.0000000000
11
-4.9871087850
21
-10.5158003995
31
0.0000000000
11
-5.0076365436
21
-10.5559452237
31
0.0000000000
0
SPLINE
5
391
100
AcDbEntity
8
0
100
AcDbSpline
62
0
6
CONTINUOUS
70
0
71
3
72
12
73
8
74
6
42
0.0000001000
43
0.0000001000
44
0.0000000001
12
0.1443708331
22
-0.1725383444
32
0.0000000000
13
-0.2249720377
23
-0.0000000062
33
0.0000000000
40
0.0000000000
40
0.0000000000
40
0.0000000000
40
0.0000000000
40
0.2013081136
40
0.4014154804
40
0.6006504725
40
0.7999541930
40
1.0000000000
40
1.0000000000
40
1.0000000000
40
1.0000000000
10
-5.0076365437
20
-15.4196356608
30
0.0000000000
10
-4.9979488703
20
-15.4312134504
30
0.0000000000
10
-4.9836684034
20
-15.4590829004
30
0.0000000000
10
-4.9827249690
20
-15.5056225634
30
0.0000000000
10
-5.0022315052
20
-15.5478192858
30
0.0000000000
10
-5.0382561318
20
-15.5770881338
30
0.0000000000
10
-5.0686474855
20
-15.5840279718
30
0.0000000000
10
-5.0836490564
20
-15.5840279722
30
0.0000000000
11
-5.0076365437
21
-15.4196356608
31
0.0000000000
11
-4.9870586246
21
-15.4599793751
31
0.0000000000
11
-4.9861484086
21
-15.5049887345
31
0.0000000000
11
-5.0049780953
21
-15.5456640546
31
0.0000000000
11
-5.0397948925
21
-15.5739167665
31
0.0000000000
11
-5.0836490564
21
-15.5840279722
31
0.0000000000
0
SPLINE
5
392
100
AcDbEntity
8
0
100
AcDbSpline
62
0
6
CONTINUOUS
70
0
71
3
72
12
73
8
74
6
42
0.0000001000
43
0.0000001000
44
0.0000000001
12
0.2214620598
22
0.0000000043
32
0.0000000000
13
-0.1359675803
23
0.1748092132
33
0.0000000000
40
0.0000000000
40
0.0000000000
40
0.0000000000
40
0.0000000000
40
0.1996430843
40
0.3988290180
40
0.5983794923
40
0.7987103633
40
1.0000000000
40
1.0000000000
40
1.0000000000
40
1.0000000000
10
-5.1860061228
20
-15.4877904423
30
0.0000000000
10
-5.1712683333
20
-15.4877904420
30
0.0000000000
10
-5.1414057318
20
-15.4810883669
30
0.0000000000
10
-5.1056626972
20
-15.4527337883
30
0.0000000000
10
-5.0856835029
20
-15.4115791842
30
0.0000000000
10
-5.0854371817
20
-15.3657615916
30
0.0000000000
10
-5.0985896175
20
-15.3379041635
30
0.0000000000
10
-5.1077125725
20
-15.3261750692
30
0.0000000000
11
-5.1860061228
21
-15.4877904423
31
0.0000000000
11
-5.1428847971
21
-15.4780245202
31
0.0000000000
11
-5.1083095868
21
-15.4506304588
31
0.0000000000
11
-5.0889897881
21
-15.4108843374
31
0.0000000000
11
-5.0887509466
21
-15.3665192929
31
0.0000000000
11
-5.1077125725
21
-15.3261750692
31
0.0000000000
0
SPLINE
5
393
100
AcDbEntity
8
0
100
AcDbSpline
62
0
6
CONTINUOUS
70
0
71
3
72
12
73
8
74
6
42
0.0000001000
43
0.0000001000
44
0.0000000001
12
0.1359671642
22
0.1748086791
32
0.0000000000
13
-0.2214613827
23
0.0000000051
33
0.0000000000
40
0.0000000000
40
0.0000000000
40
0.0000000000
40
0.0000000000
40
0.2003556274
40
0.3997456707
40
0.5984189392
40
0.8016719181
40
1.0000000000
40
1.0000000000
40
1.0000000000
40
1.0000000000
10
-5.1077125725
20
-10.6494058154
30
0.0000000000
10
-5.0986319770
20
-10.6377311812
30
0.0000000000
10
-5.0855166928
20
-10.6100273738
30
0.0000000000
10
-5.0856190979
20
-10.5644327197
30
0.0000000000
10
-5.1054391511
20
-10.5230337521
30
0.0000000000
10
-5.1413074231
20
-10.4944837992
30
0.0000000000
10
-5.1713654524
20
-10.4877904427
30
0.0000000000
10
-5.1860061228
20
-10.4877904423
30
0.0000000000
11
-5.1077125725
21
-10.6494058154
31
0.0000000000
11
-5.0887968775
21
-10.6092687357
31
0.0000000000
11
-5.0888941052
21
-10.5651116481
31
0.0000000000
11
-5.1079194982
21
-10.5254392570
31
0.0000000000
11
-5.1431544830
21
-10.4974278714
31
0.0000000000
11
-5.1860061228
21
-10.4877904423
31
0.0000000000
0
SPLINE
5
394
100
AcDbEntity
8
0
100
AcDbSpline
62
0
6
CONTINUOUS
70
0
71
3
72
12
73
8
74
6
42
0.0000001000
43
0.0000001000
44
0.0000000001
12
-0.2214620598
22
-0.0000000043
32
0.0000000000
13
0.1359675803
23
-0.1748092132
33
0.0000000000
40
0.0000000000
40
0.0000000000
40
0.0000000000
40
0.0000000000
40
0.1996430843
40
0.3988290180
40
0.5983794923
40
0.7987103633
40
1.0000000000
40
1.0000000000
40
1.0000000000
40
1.0000000000
10
5.1833549648
20
-10.4877904423
30
0.0000000000
10
5.1686171752
20
-10.4877904426
30
0.0000000000
10
5.1387545737
20
-10.4944925177
30
0.0000000000
10
5.1030115391
20
-10.5228470964
30
0.0000000000
10
5.0830323449
20
-10.5640017005
30
0.0000000000
10
5.0827860236
20
-10.6098192930
30
0.0000000000
10
5.0959384595
20
-10.6376767212
30
0.0000000000
10
5.1050614144
20
-10.6494058155
30
0.0000000000
11
5.1833549648
21
-10.4877904423
31
0.0000000000
11
5.1402336390
21
-10.4975563645
31
0.0000000000
11
5.1056584288
21
-10.5249504259
31
0.0000000000
11
5.0863386300
21
-10.5646965473
31
0.0000000000
11
5.0860997885
21
-10.6090615917
31
0.0000000000
11
5.1050614144
21
-10.6494058155
31
0.0000000000
0
SPLINE
5
395
100
AcDbEntity
8
0
100
AcDbSpline
62
0
6
CONTINUOUS
70
0
71
3
72
12
73
8
74
6
42
0.0000001000
43
0.0000001000
44
0.0000000001
12
-0.1359671642
22
-0.1748086791
32
0.0000000000
13
0.2214613827
23
-0.0000000051
33
0.0000000000
40
0.0000000000
40
0.0000000000
40
0.0000000000
40
0.0000000000
40
0.2003556274
40
0.3997456707
40
0.5984189392
40
0.8016719181
40
1.0000000000
40
1.0000000000
40
1.0000000000
40
1.0000000000
10
5.1050614144
20
-15.3261750692
30
0.0000000000
10
5.0959808189
20
-15.3378497034
30
0.0000000000
10
5.0828655347
20
-15.3655535108
30
0.0000000000
10
5.0829679399
20
-15.4111481649
30
0.0000000000
10
5.1027879931
20
-15.4525471326
30
0.0000000000
10
5.1386562650
20
-15.4810970855
30
0.0000000000
10
5.1687142943
20
-15.4877904420
30
0.0000000000
10
5.1833549648
20
-15.4877904423
30
0.0000000000
11
5.1050614144
21
-15.3261750692
31
0.0000000000
11
5.0861457194
21
-15.3663121489
31
0.0000000000
11
5.0862429472
21
-15.4104692366
31
0.0000000000
11
5.1052683401
21
-15.4501416277
31
0.0000000000
11
5.1405033250
21
-15.4781530132
31
0.0000000000
11
5.1833549648
21
-15.4877904423
31
0.0000000000
0
SPLINE
5
396
100
AcDbEntity
8
0
100
AcDbSpline
62
0
6
CONTINUOUS
70
0
71
3
72
12
73
8
74
6
42
0.0000001000
43
0.0000001000
44
0.0000000001
12
0.0000000000
22
-0.4695527409
32
0.0000000000
13
0.4695527409
23
0.0000000000
33
0.0000000000
40
0.0000000000
40
0.0000000000
40
0.0000000000
40
0.0000000000
40
0.2008552581
40
0.4012628156
40
0.6011477729
40
0.8006350364
40
1.0000000000
40
1.0000000000
40
1.0000000000
40
1.0000000000
10
-6.3838705141
20
-10.0908650275
30
0.0000000000
10
-6.3838705141
20
-10.1223024065
30
0.0000000000
10
-6.3739104459
20
-10.1855499464
30
0.0000000000
10
-6.3305716079
20
-10.2707382302
30
0.0000000000
10
-6.2631367581
20
-10.3383076854
30
0.0000000000
10
-6.1783543626
20
-10.3816129017
30
0.0000000000
10
-6.1154853301
20
-10.3915529125
30
0.0000000000
10
-6.0842812084
20
-10.3915529125
30
0.0000000000
11
-6.3838705141
21
-10.0908650275
31
0.0000000000
11
-6.3691466538
21
-10.1840207419
31
0.0000000000
11
-6.3264865146
21
-10.2678973386
31
0.0000000000
11
-6.2601738854
21
-10.3343178426
31
0.0000000000
11
-6.1767383770
21
-10.3768918458
31
0.0000000000
11
-6.0842812084
21
-10.3915529125
31
0.0000000000
0
SPLINE
5
397
100
AcDbEntity
8
0
100
AcDbSpline
62
0
6
CONTINUOUS
70
0
71
3
72
10
73
6
74
4
42
0.0000001000
43
0.0000001000
44
0.0000000001
12
-0.1329817272
22
-0.1596968995
32
0.0000000000
13
0.0000000000
23
-0.2078153976
33
0.0000000000
40
0.0000000000
40
0.0000000000
40
0.0000000000
40
0.0000000000
40
0.3331959025
40
0.6662685541
40
1.0000000000
40
1.0000000000
40
1.0000000000
40
1.0000000000
10
-6.3144177643
20
-9.4794926779
30
0.0000000000
10
-6.3291874198
20
-9.4972294621
30
0.0000000000
10
-6.3547045748
20
-9.5362790625
30
0.0000000000
10
-6.3784781870
20
-9.6019418812
30
0.0000000000
10
-6.3838705141
20
-9.6483162066
30
0.0000000000
10
-6.3838705141
20
-9.6714343843
30
0.0000000000
11
-6.3144177643
21
-9.4794926779
31
0.0000000000
11
-6.3522890137
21
-9.5374615886
31
0.0000000000
11
-6.3758526860
21
-9.6025448663
31
0.0000000000
11
-6.3838705141
21
-9.6714343843
31
0.0000000000
0
SPLINE
5
398
100
AcDbEntity
8
0
100
AcDbSpline
62
9
6
CONTINUOUS
70
0
71
3
72
8
73
4
74
2
42
0.0000001000
43
0.0000001000
44
0.0000000001
12
-0.0019406335
22
-0.0007020559
32
0.0000000000
13
-0.0019405859
23
-0.0007021873
33
0.0000000000
40
0.0000000000
40
0.0000000000
40
0.0000000000
40
0.0000000000
40
1.0000000000
40
1.0000000000
40
1.0000000000
40
1.0000000000
10
6.3831599657
20
-9.6707322627
30
0.0000000000
10
6.3825130879
20
-9.6709662814
30
0.0000000000
10
6.3818662180
20
-9.6712003219
30
0.0000000000
10
6.3812193560
20
-9.6714343843
30
0.0000000000
11
6.3831599657
21
-9.6707322627
31
0.0000000000
11
6.3812193560
21
-9.6714343843
31
0.0000000000
0
SPLINE
5
399
100
AcDbEntity
8
0
100
AcDbSpline
62
9
6
CONTINUOUS
70
0
71
3
72
10
73
6
74
4
42
0.0000001000
43
0.0000001000
44
0.0000000001
12
0.1015178349
22
-0.0918997268
32
0.0000000000
13
0.0986181861
23
-0.0950046523
33
0.0000000000
40
0.0000000000
40
0.0000000000
40
0.0000000000
40
0.0000000000
40
0.3369604192
40
0.6702419771
40
1.0000000000
40
1.0000000000
40
1.0000000000
40
1.0000000000
10
5.0049853860
20
-10.5559452246
30
0.0000000000
10
5.0163878834
20
-10.5662674148
30
0.0000000000
10
5.0389611453
20
-10.5869179417
30
0.0000000000
10
5.0723179636
20
-10.6180769175
30
0.0000000000
10
5.0942213686
20
-10.6389629672
30
0.0000000000
10
5.1050614147
20
-10.6494058160
30
0.0000000000
11
5.0049853860
21
-10.5559452246
31
0.0000000000
11
5.0390304214
21
-10.5870903138
31
0.0000000000
11
5.0723815573
21
-10.6182439143
31
0.0000000000
11
5.1050614147
21
-10.6494058160
31
0.0000000000
0
SPLINE
5
39A
100
AcDbEntity
8
0
100
AcDbSpline
62
9
6
CONTINUOUS
70
0
71
3
72
10
73
6
74
4
42
0.0000001000
43
0.0000001000
44
0.0000000001
12
0.1015178353
22
0.0918997263
32
0.0000000000
13
0.0986181855
23
0.0950046529
33
0.0000000000
40
0.0000000000
40
0.0000000000
40
0.0000000000
40
0.0000000000
40
0.3369604207
40
0.6702419776
40
1.0000000000
40
1.0000000000
40
1.0000000000
40
1.0000000000
10
5.0049853860
20
-15.4196356600
30
0.0000000000
10
5.0163878835
20
-15.4093134699
30
0.0000000000
10
5.0389611453
20
-15.3886629429
30
0.0000000000
10
5.0723179636
20
-15.3575039671
30
0.0000000000
10
5.0942213687
20
-15.3366179175
30
0.0000000000
10
5.1050614147
20
-15.3261750687
30
0.0000000000
11
5.0049853860
21
-15.4196356600
31
0.0000000000
11
5.0390304215
21
-15.3884905708
31
0.0000000000
11
5.0723815573
21
-15.3573369703
31
0.0000000000
11
5.1050614147
21
-15.3261750687
31
0.0000000000
0
SPLINE
5
39B
100
AcDbEntity
8
0
100
AcDbSpline
62
9
6
CONTINUOUS
70
0
71
3
72
10
73
6
74
4
42
0.0000001000
43
0.0000001000
44
0.0000000001
12
-0.1015178349
22
0.0918997268
32
0.0000000000
13
-0.0986181861
23
0.0950046523
33
0.0000000000
40
0.0000000000
40
0.0000000000
40
0.0000000000
40
0.0000000000
40
0.3369604192
40
0.6702419771
40
1.0000000000
40
1.0000000000
40
1.0000000000
40
1.0000000000
10
-5.0076365441
20
-15.4196356600
30
0.0000000000
10
-5.0190390415
20
-15.4093134699
30
0.0000000000
10
-5.0416123033
20
-15.3886629430
30
0.0000000000
10
-5.0749691217
20
-15.3575039672
30
0.0000000000
10
-5.0968725267
20
-15.3366179175
30
0.0000000000
10
-5.1077125727
20
-15.3261750687
30
0.0000000000
11
-5.0076365441
21
-15.4196356600
31
0.0000000000
11
-5.0416815794
21
-15.3884905709
31
0.0000000000
11
-5.0750327154
21
-15.3573369704
31
0.0000000000
11
-5.1077125727
21
-15.3261750687
31
0.0000000000
0
SPLINE
5
39C
100
AcDbEntity
8
0
100
AcDbSpline
62
9
6
CONTINUOUS
70
0
71
3
72
10
73
6
74
4
42
0.0000001000
43
0.0000001000
44
0.0000000001
12
-0.1015178353
22
-0.0918997263
32
0.0000000000
13
-0.0986181855
23
-0.0950046529
33
0.0000000000
40
0.0000000000
40
0.0000000000
40
0.0000000000
40
0.0000000000
40
0.3369604207
40
0.6702419776
40
1.0000000000
40
1.0000000000
40
1.0000000000
40
1.0000000000
10
-5.0076365441
20
-10.5559452246
30
0.0000000000
10
-5.0190390416
20
-10.5662674148
30
0.0000000000
10
-5.0416123034
20
-10.5869179418
30
0.0000000000
10
-5.0749691217
20
-10.6180769176
30
0.0000000000
10
-5.0968725268
20
-10.6389629672
30
0.0000000000
10
-5.1077125727
20
-10.6494058160
30
0.0000000000
11
-5.0076365441
21
-10.5559452246
31
0.0000000000
11
-5.0416815796
21
-10.5870903139
31
0.0000000000
11
-5.0750327154
21
-10.6182439144
31
0.0000000000
11
-5.1077125727
21
-10.6494058160
31
0.0000000000
0
SPLINE
5
39D
100
AcDbEntity
8
0
100
AcDbSpline
62
9
6
CONTINUOUS
70
0
71
3
72
10
73
6
74
4
42
0.0000001000
43
0.0000001000
44
0.0000000001
12
-0.1038467556
22
0.0946356141
32
0.0000000000
13
-0.1008508744
23
0.0978220285
33
0.0000000000
40
0.0000000000
40
0.0000000000
40
0.0000000000
40
0.0000000000
40
0.3369805061
40
0.6702618819
40
1.0000000000
40
1.0000000000
40
1.0000000000
40
1.0000000000
10
-5.0836490564
20
-15.5840279722
30
0.0000000000
10
-5.0953138338
20
-15.5733978532
30
0.0000000000
10
-5.1184045173
20
-15.5521323081
30
0.0000000000
10
-5.1525215935
20
-15.5200475049
30
0.0000000000
10
-5.1749213303
20
-15.4985423262
30
0.0000000000
10
-5.1860061228
20
-15.4877904423
30
0.0000000000
11
-5.0836490564
21
-15.5840279722
31
0.0000000000
11
-5.1184755084
21
-15.5519543629
31
0.0000000000
11
-5.1525867508
21
-15.5198751155
31
0.0000000000
11
-5.1860061228
21
-15.4877904423
31
0.0000000000
0
SPLINE
5
39E
100
AcDbEntity
8
0
100
AcDbSpline
62
9
6
CONTINUOUS
70
0
71
3
72
10
73
6
74
4
42
0.0000001000
43
0.0000001000
44
0.0000000001
12
0.1038467568
22
0.0946356128
32
0.0000000000
13
0.1008508732
23
0.0978220296
33
0.0000000000
40
0.0000000000
40
0.0000000000
40
0.0000000000
40
0.0000000000
40
0.3369805066
40
0.6702618829
40
1.0000000000
40
1.0000000000
40
1.0000000000
40
1.0000000000
10
5.0809978984
20
-15.5840279722
30
0.0000000000
10
5.0926626759
20
-15.5733978533
30
0.0000000000
10
5.1157533593
20
-15.5521323081
30
0.0000000000
10
5.1498704355
20
-15.5200475049
30
0.0000000000
10
5.1722701724
20
-15.4985423263
30
0.0000000000
10
5.1833549648
20
-15.4877904423
30
0.0000000000
11
5.0809978984
21
-15.5840279722
31
0.0000000000
11
5.1158243504
21
-15.5519543629
31
0.0000000000
11
5.1499355928
21
-15.5198751155
31
0.0000000000
11
5.1833549648
21
-15.4877904423
31
0.0000000000
0
SPLINE
5
39F
100
AcDbEntity
8
0
100
AcDbSpline
62
9
6
CONTINUOUS
70
0
71
3
72
10
73
6
74
4
42
0.0000001000
43
0.0000001000
44
0.0000000001
12
0.1038467556
22
-0.0946356141
32
0.0000000000
13
0.1008508744
23
-0.0978220285
33
0.0000000000
40
0.0000000000
40
0.0000000000
40
0.0000000000
40
0.0000000000
40
0.3369805061
40
0.6702618819
40
1.0000000000
40
1.0000000000
40
1.0000000000
40
1.0000000000
10
5.0809978984
20
-10.3915529125
30
0.0000000000
10
5.0926626758
20
-10.4021830315
30
0.0000000000
10
5.1157533592
20
-10.4234485765
30
0.0000000000
10
5.1498704355
20
-10.4555333798
30
0.0000000000
10
5.1722701723
20
-10.4770385585
30
0.0000000000
10
5.1833549648
20
-10.4877904423
30
0.0000000000
11
5.0809978984
21
-10.3915529125
31
0.0000000000
11
5.1158243503
21
-10.4236265217
31
0.0000000000
11
5.1499355927
21
-10.4557057691
31
0.0000000000
11
5.1833549648
21
-10.4877904423
31
0.0000000000
0
SPLINE
5
3A0
100
AcDbEntity
8
0
100
AcDbSpline
62
9
6
CONTINUOUS
70
0
71
3
72
10
73
6
74
4
42
0.0000001000
43
0.0000001000
44
0.0000000001
12
-0.1038467568
22
-0.0946356128
32
0.0000000000
13
-0.1008508732
23
-0.0978220296
33
0.0000000000
40
0.0000000000
40
0.0000000000
40
0.0000000000
40
0.0000000000
40
0.3369805066
40
0.6702618829
40
1.0000000000
40
1.0000000000
40
1.0000000000
40
1.0000000000
10
-5.0836490564
20
-10.3915529125
30
0.0000000000
10
-5.0953138340
20
-10.4021830314
30
0.0000000000
10
-5.1184045173
20
-10.4234485766
30
0.0000000000
10
-5.1525215936
20
-10.4555333798
30
0.0000000000
10
-5.1749213305
20
-10.4770385584
30
0.0000000000
10
-5.1860061228
20
-10.4877904423
30
0.0000000000
11
-5.0836490564
21
-10.3915529125
31
0.0000000000
11
-5.1184755085
21
-10.4236265218
31
0.0000000000
11
-5.1525867509
21
-10.4557057692
31
0.0000000000
11
-5.1860061228
21
-10.4877904423
31
0.0000000000
0
SPLINE
5
3A1
100
AcDbEntity
8
0
100
AcDbSpline
62
0
6
CONTINUOUS
70
0
71
3
72
10
73
6
74
4
42
0.0000001000
43
0.0000001000
44
0.0000000001
12
0.0526724926
22
0.0521012756
32
0.0000000000
13
0.0518876604
23
0.0528829376
33
0.0000000000
40
0.0000000000
40
0.0000000000
40
0.0000000000
40
0.0000000000
40
0.3339708515
40
0.6672979872
40
1.0000000000
40
1.0000000000
40
1.0000000000
40
1.0000000000
10
5.5132889289
20
-15.5840279722
30
0.0000000000
10
5.5191526213
20
-15.5782278698
30
0.0000000000
10
5.5308397793
20
-15.5666095585
30
0.0000000000
10
5.5482668243
20
-15.5491114373
30
0.0000000000
10
5.5598155975
20
-15.5373995274
30
0.0000000000
10
5.5655699739
20
-15.5315347741
30
0.0000000000
11
5.5132889289
21
-15.5840279722
31
0.0000000000
11
5.5308364939
21
-15.5665837853
31
0.0000000000
11
5.5482631543
21
-15.5490860590
31
0.0000000000
11
5.5655699739
21
-15.5315347741
31
0.0000000000
0
SPLINE
5
3A2
100
AcDbEntity
8
0
100
AcDbSpline
62
0
6
CONTINUOUS
70
0
71
3
72
10
73
6
74
4
42
0.0000001000
43
0.0000001000
44
0.0000000001
12
0.0000000000
22
0.2078153976
32
0.0000000000
13
-0.1329817272
23
0.1596968995
33
0.0000000000
40
0.0000000000
40
0.0000000000
40
0.0000000000
40
0.0000000000
40
0.3337314459
40
0.6668040975
40
1.0000000000
40
1.0000000000
40
1.0000000000
40
1.0000000000
10
6.3812193560
20
-9.6714343843
30
0.0000000000
10
6.3812193560
20
-9.6483162066
30
0.0000000000
10
6.3758270290
20
-9.6019418812
30
0.0000000000
10
6.3520534167
20
-9.5362790625
30
0.0000000000
10
6.3265362617
20
-9.4972294621
30
0.0000000000
10
6.3117666062
20
-9.4794926779
30
0.0000000000
11
6.3812193560
21
-9.6714343843
31
0.0000000000
11
6.3732015279
21
-9.6025448663
31
0.0000000000
11
6.3496378557
21
-9.5374615886
31
0.0000000000
11
6.3117666062
21
-9.4794926779
31
0.0000000000
0
SPLINE
5
3A3
100
AcDbEntity
8
0
100
AcDbSpline
62
0
6
CONTINUOUS
70
0
71
3
72
10
73
6
74
4
42
0.0000001000
43
0.0000001000
44
0.0000000001
12
0.0518876604
22
-0.0528829376
32
0.0000000000
13
0.0526724926
23
-0.0521012756
33
0.0000000000
40
0.0000000000
40
0.0000000000
40
0.0000000000
40
0.0000000000
40
0.3327020128
40
0.6660291475
40
1.0000000000
40
1.0000000000
40
1.0000000000
40
1.0000000000
10
-5.5682211319
20
-15.5315347741
30
0.0000000000
10
-5.5624667556
20
-15.5373995274
30
0.0000000000
10
-5.5509179823
20
-15.5491114373
30
0.0000000000
10
-5.5334909374
20
-15.5666095585
30
0.0000000000
10
-5.5218037794
20
-15.5782278697
30
0.0000000000
10
-5.5159400870
20
-15.5840279722
30
0.0000000000
11
-5.5682211319
21
-15.5315347741
31
0.0000000000
11
-5.5509143124
21
-15.5490860590
31
0.0000000000
11
-5.5334876520
21
-15.5665837852
31
0.0000000000
11
-5.5159400870
21
-15.5840279722
31
0.0000000000
0
SPLINE
5
3A4
100
AcDbEntity
8
0
100
AcDbSpline
62
0
6
CONTINUOUS
70
0
71
3
72
12
73
8
74
6
42
0.0000001000
43
0.0000001000
44
0.0000000001
12
0.4695527409
22
0.0000000000
32
0.0000000000
13
0.0000000000
23
0.4695527409
33
0.0000000000
40
0.0000000000
40
0.0000000000
40
0.0000000000
40
0.0000000000
40
0.1993649636
40
0.3988522271
40
0.5987371844
40
0.7991447419
40
1.0000000000
40
1.0000000000
40
1.0000000000
40
1.0000000000
10
6.0816300504
20
-10.3915529125
30
0.0000000000
10
6.1128341721
20
-10.3915529125
30
0.0000000000
10
6.1757032046
20
-10.3816129017
30
0.0000000000
10
6.2604856000
20
-10.3383076854
30
0.0000000000
10
6.3279204499
20
-10.2707382302
30
0.0000000000
10
6.3712592878
20
-10.1855499464
30
0.0000000000
10
6.3812193560
20
-10.1223024065
30
0.0000000000
10
6.3812193560
20
-10.0908650275
30
0.0000000000
11
6.0816300504
21
-10.3915529125
31
0.0000000000
11
6.1740872190
21
-10.3768918458
31
0.0000000000
11
6.2575227273
21
-10.3343178426
31
0.0000000000
11
6.3238353565
21
-10.2678973386
31
0.0000000000
11
6.3664954958
21
-10.1840207419
31
0.0000000000
11
6.3812193560
21
-10.0908650275
31
0.0000000000
0
SPLINE
5
3A5
100
AcDbEntity
8
0
100
AcDbSpline
62
0
6
CONTINUOUS
70
0
71
3
72
8
73
4
74
2
42
0.0000001000
43
0.0000001000
44
0.0000000001
12
0.1384538100
22
-0.0174284148
32
0.0000000000
13
0.1353244022
23
-0.0368941415
33
0.0000000000
40
0.0000000000
40
0.0000000000
40
0.0000000000
40
0.0000000000
40
1.0000000000
40
1.0000000000
40
1.0000000000
40
1.0000000000
10
-4.0050375610
20
3.1965335577
30
0.0000000000
10
-3.9588862910
20
3.1907240861
30
0.0000000000
10
-3.9120412174
20
3.1887592378
30
0.0000000000
10
-3.8669330834
20
3.1764611906
30
0.0000000000
11
-4.0050375610
21
3.1965335577
31
0.0000000000
11
-3.8669330834
21
3.1764611906
31
0.0000000000
0
SPLINE
5
3A6
100
AcDbEntity
8
0
100
AcDbSpline
62
0
6
CONTINUOUS
70
0
71
3
72
10
73
6
74
4
42
0.0000001000
43
0.0000001000
44
0.0000000001
12
0.0923987270
22
-0.0251911085
32
0.0000000000
13
0.0714524727
23
-0.0630625130
33
0.0000000000
40
0.0000000000
40
0.0000000000
40
0.0000000000
40
0.0000000000
40
0.0427858532
40
0.8788053328
40
1.0000000000
40
1.0000000000
40
1.0000000000
40
1.0000000000
10
-3.8669330834
20
3.1764611906
30
0.0000000000
10
-3.8656152973
20
3.1761019162
30
0.0000000000
10
-3.8385789138
20
3.1685414190
30
0.0000000000
10
-3.8085547137
20
3.1555349946
30
0.0000000000
10
-3.7850983299
20
3.1362030246
30
0.0000000000
10
-3.7822117770
20
3.1336554111
30
0.0000000000
11
-3.8669330834
21
3.1764611906
31
0.0000000000
11
-3.8629842328
21
3.1753565573
31
0.0000000000
11
-3.7911227356
21
3.1409880152
31
0.0000000000
11
-3.7822117770
21
3.1336554111
31
0.0000000000
0
SPLINE
5
3A7
100
AcDbEntity
8
0
100
AcDbSpline
62
0
6
CONTINUOUS
70
0
71
3
72
9
73
5
74
3
42
0.0000001000
43
0.0000001000
44
0.0000000001
12
0.0866203879
22
-0.0764494095
32
0.0000000000
13
0.0402668576
23
-0.1087869447
33
0.0000000000
40
0.0000000000
40
0.0000000000
40
0.0000000000
40
0.0000000000
40
0.6041179728
40
1.0000000000
40
1.0000000000
40
1.0000000000
40
1.0000000000
10
-3.7822117770
20
3.1336554111
30
0.0000000000
10
-3.7647687993
20
3.1182605904
30
0.0000000000
10
-3.7409306229
20
3.0867355724
30
0.0000000000
10
-3.7245874685
20
3.0514770075
30
0.0000000000
10
-3.7192738267
20
3.0371214087
30
0.0000000000
11
-3.7822117770
21
3.1336554111
31
0.0000000000
11
-3.7387020299
21
3.0788083407
31
0.0000000000
11
-3.7192738267
21
3.0371214087
31
0.0000000000
0
SPLINE
5
3A8
100
AcDbEntity
8
0
100
AcDbSpline
62
0
6
CONTINUOUS
70
0
71
3
72
9
73
5
74
3
42
0.0000001000
43
0.0000001000
44
0.0000000001
12
0.0460771613
22
-0.1244843500
32
0.0000000000
13
0.0000000000
23
-0.1321750689
33
0.0000000000
40
0.0000000000
40
0.0000000000
40
0.0000000000
40
0.0000000000
40
0.3788391827
40
1.0000000000
40
1.0000000000
40
1.0000000000
40
1.0000000000
10
-3.7192738267
20
3.0371214087
30
0.0000000000
10
-3.7134552154
20
3.0214015589
30
0.0000000000
10
-3.7017561278
20
2.9786490364
30
0.0000000000
10
-3.6995504358
20
2.9342943815
30
0.0000000000
10
-3.6995504358
20
2.9069270569
30
0.0000000000
11
-3.7192738267
21
3.0371214087
31
0.0000000000
11
-3.7059535537
21
2.9887789609
31
0.0000000000
11
-3.6995504358
21
2.9069270569
31
0.0000000000
0
SPLINE
5
3A9
100
AcDbEntity
8
0
100
AcDbSpline
62
0
6
CONTINUOUS
70
0
71
3
72
9
73
5
74
3
42
0.0000001000
43
0.0000001000
44
0.0000000001
12
0.0000000000
22
-0.1240162106
32
0.0000000000
13
-0.0398804324
23
-0.1179052953
33
0.0000000000
40
0.0000000000
40
0.0000000000
40
0.0000000000
40
0.0000000000
40
0.6620261448
40
1.0000000000
40
1.0000000000
40
1.0000000000
40
1.0000000000
10
-3.6995504358
20
2.9069270569
30
0.0000000000
10
-3.6995504358
20
2.8795597323
30
0.0000000000
10
-3.7016199756
20
2.8379429867
30
0.0000000000
10
-3.7120470734
20
2.7977366863
30
0.0000000000
10
-3.7165399212
20
2.7844537172
30
0.0000000000
11
-3.6995504358
21
2.9069270569
31
0.0000000000
11
-3.7059535537
21
2.8250751529
31
0.0000000000
11
-3.7165399212
21
2.7844537172
31
0.0000000000
0
SPLINE
5
3AA
100
AcDbEntity
8
0
100
AcDbSpline
62
0
6
CONTINUOUS
70
0
71
3
72
11
73
7
74
5
42
0.0000001000
43
0.0000001000
44
0.0000000001
12
-0.1152827020
22
-0.3408298311
32
0.0000000000
13
-0.3556876794
23
-0.0447735727
33
0.0000000000
40
0.0000000000
40
0.0000000000
40
0.0000000000
40
0.0000000000
40
0.1503128121
40
0.3771724865
40
0.5993716183
40
1.0000000000
40
1.0000000000
40
1.0000000000
40
1.0000000000
10
-3.7165399212
20
2.7844537172
30
0.0000000000
10
-3.7223160769
20
2.7673766871
30
0.0000000000
10
-3.7408277617
20
2.7257940480
30
0.0000000000
10
-3.7865661903
20
2.6678445042
30
0.0000000000
10
-3.8825514525
20
2.6262638778
30
0.0000000000
10
-3.9575380229
20
2.6232997457
30
0.0000000000
10
-4.0050375494
20
2.6173205577
30
0.0000000000
11
-3.7165399212
21
2.7844537172
31
0.0000000000
11
-3.7387020299
21
2.7350457732
31
0.0000000000
11
-3.7911227356
21
2.6728660987
31
0.0000000000
11
-3.8629842328
21
2.6384975565
31
0.0000000000
11
-4.0050375494
21
2.6173205577
31
0.0000000000
0
SPLINE
5
3AB
100
AcDbEntity
8
0
100
AcDbSpline
62
0
6
CONTINUOUS
70
0
71
3
72
8
73
4
74
2
42
0.0000001000
43
0.0000001000
44
0.0000000001
12
0.2244462748
22
0.0083182735
32
0.0000000000
13
0.2235366364
23
0.0223511888
33
0.0000000000
40
0.0000000000
40
0.0000000000
40
0.0000000000
40
0.0000000000
40
1.0000000000
40
1.0000000000
40
1.0000000000
40
1.0000000000
10
-4.0745789765
20
2.2766445577
30
0.0000000000
10
-3.9997635515
20
2.2794173155
30
0.0000000000
10
-3.9247807820
20
2.2806287194
30
0.0000000000
10
-3.8502685699
20
2.2880791157
30
0.0000000000
11
-4.0745789765
21
2.2766445577
31
0.0000000000
11
-3.8502685699
21
2.2880791157
31
0.0000000000
0
SPLINE
5
3AC
100
AcDbEntity
8
0
100
AcDbSpline
62
0
6
CONTINUOUS
70
0
71
3
72
8
73
4
74
2
42
0.0000001000
43
0.0000001000
44
0.0000000001
12
0.0517165343
22
0.0051710809
32
0.0000000000
13
0.0514983982
23
0.0072764733
33
0.0000000000
40
0.0000000000
40
0.0000000000
40
0.0000000000
40
0.0000000000
40
1.0000000000
40
1.0000000000
40
1.0000000000
40
1.0000000000
10
-3.8502685699
20
2.2880791157
30
0.0000000000
10
-3.8330297251
20
2.2898028093
30
0.0000000000
10
-3.8158156865
20
2.2918621014
30
0.0000000000
10
-3.7986495538
20
2.2942875925
30
0.0000000000
11
-3.8502685699
21
2.2880791157
31
0.0000000000
11
-3.7986495538
21
2.2942875925
31
0.0000000000
0
SPLINE
5
3AD
100
AcDbEntity
8
0
100
AcDbSpline
62
0
6
CONTINUOUS
70
0
71
3
72
9
73
5
74
3
42
0.0000001000
43
0.0000001000
44
0.0000000001
12
0.1876570665
22
0.0265150313
32
0.0000000000
13
0.1801712170
23
0.0603586284
33
0.0000000000
40
0.0000000000
40
0.0000000000
40
0.0000000000
40
0.0000000000
40
0.8037357841
40
1.0000000000
40
1.0000000000
40
1.0000000000
40
1.0000000000
10
-3.7986495538
20
2.2942875925
30
0.0000000000
10
-3.7483739873
20
2.3013912857
30
0.0000000000
10
-3.6863330050
20
2.3141373160
30
0.0000000000
10
-3.6258278065
20
2.3329300017
30
0.0000000000
10
-3.6140407523
20
2.3368787480
30
0.0000000000
11
-3.7986495538
21
2.2942875925
31
0.0000000000
11
-3.6496369751
21
2.3257862533
31
0.0000000000
11
-3.6140407523
21
2.3368787480
31
0.0000000000
0
SPLINE
5
3AE
100
AcDbEntity
8
0
100
AcDbSpline
62
0
6
CONTINUOUS
70
0
71
3
72
8
73
4
74
2
42
0.0000001000
43
0.0000001000
44
0.0000000001
12
0.0801610617
22
0.0268545210
32
0.0000000000
13
0.0764429166
23
0.0358451320
33
0.0000000000
40
0.0000000000
40
0.0000000000
40
0.0000000000
40
0.0000000000
40
1.0000000000
40
1.0000000000
40
1.0000000000
40
1.0000000000
10
-3.6140407523
20
2.3368787480
30
0.0000000000
10
-3.5873203984
20
2.3458302550
30
0.0000000000
10
-3.5610520204
20
2.3561200178
30
0.0000000000
10
-3.5355710482
20
2.3680683951
30
0.0000000000
11
-3.6140407523
21
2.3368787480
31
0.0000000000
11
-3.5355710482
21
2.3680683951
31
0.0000000000
0
SPLINE
5
3AF
100
AcDbEntity
8
0
100
AcDbSpline
62
0
6
CONTINUOUS
70
0
71
3
72
9
73
5
74
3
42
0.0000001000
43
0.0000001000
44
0.0000000001
12
0.0720562213
22
0.0337881504
32
0.0000000000
13
0.0669961196
23
0.0433925074
33
0.0000000000
40
0.0000000000
40
0.0000000000
40
0.0000000000
40
0.0000000000
40
0.7982856733
40
1.0000000000
40
1.0000000000
40
1.0000000000
40
1.0000000000
10
-3.5355710482
20
2.3680683951
30
0.0000000000
10
-3.5163972318
20
2.3770592606
30
0.0000000000
10
-3.4929369943
20
2.3894984241
30
0.0000000000
10
-3.4704006504
20
2.4036254934
30
0.0000000000
10
-3.4658959580
20
2.4065431235
30
0.0000000000
11
-3.5355710482
21
2.3680683951
31
0.0000000000
11
-3.4795300493
21
2.3979949075
31
0.0000000000
11
-3.4658959580
21
2.4065431235
31
0.0000000000
0
SPLINE
5
3B0
100
AcDbEntity
8
0
100
AcDbSpline
62
0
6
CONTINUOUS
70
0
71
3
72
9
73
5
74
3
42
0.0000001000
43
0.0000001000
44
0.0000000001
12
0.2669940567
22
0.1729285463
32
0.0000000000
13
0.1095947205
23
0.2989867284
33
0.0000000000
40
0.0000000000
40
0.0000000000
40
0.0000000000
40
0.0000000000
40
0.5036827691
40
1.0000000000
40
1.0000000000
40
1.0000000000
40
1.0000000000
10
-3.4658959580
20
2.4065431235
30
0.0000000000
10
-3.4210691894
20
2.4355768332
30
0.0000000000
10
-3.3401733372
20
2.5065881872
30
0.0000000000
10
-3.2894204783
20
2.6014968460
30
0.0000000000
10
-3.2712892289
20
2.6509609344
30
0.0000000000
11
-3.4658959580
21
2.4065431235
31
0.0000000000
11
-3.3472246625
21
2.5131738826
31
0.0000000000
11
-3.2712892289
21
2.6509609344
31
0.0000000000
0
SPLINE
5
3B1
100
AcDbEntity
8
0
100
AcDbSpline
62
0
6
CONTINUOUS
70
0
71
3
72
10
73
6
74
4
42
0.0000001000
43
0.0000001000
44
0.0000000001
12
0.0900655880
22
0.2457090577
32
0.0000000000
13
0.0000000000
23
0.2600733183
33
0.0000000000
40
0.0000000000
40
0.0000000000
40
0.0000000000
40
0.0000000000
40
0.1173677502
40
0.5318453964
40
1.0000000000
40
1.0000000000
40
1.0000000000
40
1.0000000000
10
-3.2712892289
20
2.6509609344
30
0.0000000000
10
-3.2677656304
20
2.6605737075
30
0.0000000000
10
-3.2530066000
20
2.7045372217
30
0.0000000000
10
-3.2354441184
20
2.7896400746
30
0.0000000000
10
-3.2310427894
20
2.8663422165
30
0.0000000000
10
-3.2310427894
20
2.9069270569
30
0.0000000000
11
-3.2712892289
21
2.6509609344
31
0.0000000000
11
-3.2615154586
21
2.6800406765
31
0.0000000000
11
-3.2388345352
21
2.7854221099
31
0.0000000000
11
-3.2310427894
21
2.9069270569
31
0.0000000000
0
SPLINE
5
3B2
100
AcDbEntity
8
0
100
AcDbSpline
62
0
6
CONTINUOUS
70
0
71
3
72
9
73
5
74
3
42
0.0000001000
43
0.0000001000
44
0.0000000001
12
0.0000000000
22
0.1348716125
32
0.0000000000
13
-0.0204184265
23
0.1333705911
33
0.0000000000
40
0.0000000000
40
0.0000000000
40
0.0000000000
40
0.0000000000
40
0.9027438689
40
1.0000000000
40
1.0000000000
40
1.0000000000
40
1.0000000000
10
-3.2310427894
20
2.9069270569
30
0.0000000000
10
-3.2310427894
20
2.9475118974
30
0.0000000000
10
-3.2336287910
20
2.9925782541
30
0.0000000000
10
-3.2400466412
20
3.0370965406
30
0.0000000000
10
-3.2407085803
20
3.0414202432
30
0.0000000000
11
-3.2310427894
21
2.9069270569
31
0.0000000000
11
-3.2388345352
21
3.0284320039
31
0.0000000000
11
-3.2407085803
21
3.0414202432
31
0.0000000000
0
SPLINE
5
3B3
100
AcDbEntity
8
0
100
AcDbSpline
62
0
6
CONTINUOUS
70
0
71
3
72
10
73
6
74
4
42
0.0000001000
43
0.0000001000
44
0.0000000001
12
-0.0463084585
22
0.3024810206
32
0.0000000000
13
-0.2031437236
23
0.2303874033
33
0.0000000000
40
0.0000000000
40
0.0000000000
40
0.0000000000
40
0.0000000000
40
0.3095195690
40
0.9227937743
40
1.0000000000
40
1.0000000000
40
1.0000000000
40
1.0000000000
10
-3.2407085803
20
3.0414202432
30
0.0000000000
10
-3.2454863717
20
3.0726281749
30
0.0000000000
10
-3.2655963274
20
3.1647428514
30
0.0000000000
10
-3.3118421817
20
3.2587063664
30
0.0000000000
10
-3.3572002433
20
3.3129420670
30
0.0000000000
10
-3.3624282300
20
3.3188711810
30
0.0000000000
11
-3.2407085803
21
3.0414202432
31
0.0000000000
11
-3.2615154586
21
3.1338134373
31
0.0000000000
11
-3.3472246625
21
3.3006802312
31
0.0000000000
11
-3.3624282300
21
3.3188711810
31
0.0000000000
0
SPLINE
5
3B4
100
AcDbEntity
8
0
100
AcDbSpline
62
0
6
CONTINUOUS
70
0
71
3
72
8
73
4
74
2
42
0.0000001000
43
0.0000001000
44
0.0000000001
12
-0.0901440685
22
0.1022333227
32
0.0000000000
13
-0.1145101920
23
0.0741808376
33
0.0000000000
40
0.0000000000
40
0.0000000000
40
0.0000000000
40
0.0000000000
40
1.0000000000
40
1.0000000000
40
1.0000000000
40
1.0000000000
10
-3.3624282300
20
3.3188711810
30
0.0000000000
10
-3.3924762529
20
3.3529489552
30
0.0000000000
10
-3.4276863470
20
3.3825584280
30
0.0000000000
10
-3.4658564110
20
3.4072853739
30
0.0000000000
11
-3.3624282300
21
3.3188711810
31
0.0000000000
11
-3.4658564110
21
3.4072853739
31
0.0000000000
0
SPLINE
5
3B5
100
AcDbEntity
8
0
100
AcDbSpline
62
0
6
CONTINUOUS
70
0
71
3
72
9
73
5
74
3
42
0.0000001000
43
0.0000001000
44
0.0000000001
12
-0.0567622025
22
0.0367711175
32
0.0000000000
13
-0.0604905990
23
0.0297929555
33
0.0000000000
40
0.0000000000
40
0.0000000000
40
0.0000000000
40
0.0000000000
40
0.2387662701
40
1.0000000000
40
1.0000000000
40
1.0000000000
40
1.0000000000
10
-3.4658564110
20
3.4072853739
30
0.0000000000
10
-3.4703740441
20
3.4102119414
30
0.0000000000
10
-3.4894684346
20
3.4221825312
30
0.0000000000
10
-3.5092260909
20
3.4329413687
30
0.0000000000
10
-3.5245752524
20
3.4405011696
30
0.0000000000
11
-3.4658564110
21
3.4072853739
31
0.0000000000
11
-3.4795300493
21
3.4158592064
31
0.0000000000
11
-3.5245752524
21
3.4405011696
31
0.0000000000
0
SPLINE
5
3B6
100
AcDbEntity
8
0
100
AcDbSpline
62
0
6
CONTINUOUS
70
0
71
3
72
9
73
5
74
3
42
0.0000001000
43
0.0000001000
44
0.0000000001
12
-0.2251894753
22
0.1109107884
32
0.0000000000
13
-0.2471437008
23
0.0424701227
33
0.0000000000
40
0.0000000000
40
0.0000000000
40
0.0000000000
40
0.0000000000
40
0.5333030399
40
1.0000000000
40
1.0000000000
40
1.0000000000
40
1.0000000000
10
-3.5245752524
20
3.4405011696
30
0.0000000000
10
-3.5646066629
20
3.4602175232
30
0.0000000000
10
-3.6436104955
20
3.4891501320
30
0.0000000000
10
-3.7253017803
20
3.5075017609
30
0.0000000000
10
-3.7637488516
20
3.5141086533
30
0.0000000000
11
-3.5245752524
21
3.4405011696
31
0.0000000000
11
-3.6496369751
21
3.4880678606
31
0.0000000000
11
-3.7637488516
21
3.5141086533
31
0.0000000000
0
SPLINE
5
3B7
100
AcDbEntity
8
0
100
AcDbSpline
62
0
6
CONTINUOUS
70
0
71
3
72
9
73
5
74
3
42
0.0000001000
43
0.0000001000
44
0.0000000001
12
-0.2581236042
22
0.0443569515
32
0.0000000000
13
-0.2615754973
23
0.0086118352
33
0.0000000000
40
0.0000000000
40
0.0000000000
40
0.0000000000
40
0.0000000000
40
0.3282894820
40
1.0000000000
40
1.0000000000
40
1.0000000000
40
1.0000000000
10
-3.7637488516
20
3.5141086533
30
0.0000000000
10
-3.7919952730
20
3.5189626269
30
0.0000000000
10
-3.8785658881
20
3.5305294168
30
0.0000000000
10
-3.9657801682
20
3.5335674681
30
0.0000000000
10
-4.0243478392
20
3.5354956882
30
0.0000000000
11
-3.7637488516
21
3.5141086533
31
0.0000000000
11
-3.8489050882
21
3.5256379617
31
0.0000000000
11
-4.0243478392
21
3.5354956882
31
0.0000000000
0
SPLINE
5
3B8
100
AcDbEntity
8
0
100
AcDbSpline
62
0
6
CONTINUOUS
70
0
71
3
72
8
73
4
74
2
42
0.0000001000
43
0.0000001000
44
0.0000000001
12
-0.0502420184
22
0.0016541151
32
0.0000000000
13
-0.0502131925
23
0.0018609672
33
0.0000000000
40
0.0000000000
40
0.0000000000
40
0.0000000000
40
0.0000000000
40
1.0000000000
40
1.0000000000
40
1.0000000000
40
1.0000000000
10
-4.0243478392
20
3.5354956882
30
0.0000000000
10
-4.0410951787
20
3.5360470599
30
0.0000000000
10
-4.0578412852
20
3.5365892353
30
0.0000000000
10
-4.0745790161
20
3.5372095577
30
0.0000000000
11
-4.0243478392
21
3.5354956882
31
0.0000000000
11
-4.0745790161
21
3.5372095577
31
0.0000000000
0
SPLINE
5
3B9
100
AcDbEntity
8
0
100
AcDbSpline
62
0
6
CONTINUOUS
70
0
71
3
72
8
73
4
74
2
42
0.0000001000
43
0.0000001000
44
0.0000000001
12
0.1410266807
22
-0.0000152493
32
0.0000000000
13
0.1410266627
23
0.0000899271
33
0.0000000000
40
0.0000000000
40
0.0000000000
40
0.0000000000
40
0.0000000000
40
1.0000000000
40
1.0000000000
40
1.0000000000
40
1.0000000000
10
-4.1560877299
20
-20.2408234421
30
0.0000000000
10
-4.1090788363
20
-20.2408285252
30
0.0000000000
10
-4.0620699413
20
-20.2408125619
30
0.0000000000
10
-4.0150610538
20
-20.2407825862
30
0.0000000000
11
-4.1560877299
21
-20.2408234421
31
0.0000000000
11
-4.0150610538
21
-20.2407825862
31
0.0000000000
0
SPLINE
5
3BA
100
AcDbEntity
8
0
100
AcDbSpline
62
0
6
CONTINUOUS
70
0
71
3
72
9
73
5
74
3
42
0.0000001000
43
0.0000001000
44
0.0000000001
12
0.2167209644
22
0.0001381943
32
0.0000000000
13
0.2167207951
23
0.0002937839
33
0.0000000000
40
0.0000000000
40
0.0000000000
40
0.0000000000
40
0.0000000000
40
0.3301895020
40
1.0000000000
40
1.0000000000
40
1.0000000000
40
1.0000000000
10
-4.0150610538
20
-20.2407825862
30
0.0000000000
10
-3.9912080580
20
-20.2407673761
30
0.0000000000
10
-3.9189677423
20
-20.2407103850
30
0.0000000000
10
-3.8467274545
20
-20.2406287316
30
0.0000000000
10
-3.7983401666
20
-20.2405631384
30
0.0000000000
11
-4.0150610538
21
-20.2407825862
31
0.0000000000
11
-3.9435020733
21
-20.2407270516
31
0.0000000000
11
-3.7983401666
21
-20.2405631384
31
0.0000000000
0
SPLINE
5
3BB
100
AcDbEntity
8
0
100
AcDbSpline
62
0
6
CONTINUOUS
70
0
71
3
72
8
73
4
74
2
42
0.0000001000
43
0.0000001000
44
0.0000000001
12
0.0736976386
22
0.0000999036
32
0.0000000000
13
0.0736976139
23
0.0001166976
33
0.0000000000
40
0.0000000000
40
0.0000000000
40
0.0000000000
40
0.0000000000
40
1.0000000000
40
1.0000000000
40
1.0000000000
40
1.0000000000
10
-3.7983401666
20
-20.2405631384
30
0.0000000000
10
-3.7737742870
20
-20.2405298373
30
0.0000000000
10
-3.7492084114
20
-20.2404937263
30
0.0000000000
10
-3.7246425401
20
-20.2404548271
30
0.0000000000
11
-3.7983401666
21
-20.2405631384
31
0.0000000000
11
-3.7246425401
21
-20.2404548271
31
0.0000000000
0
SPLINE
5
3BC
100
AcDbEntity
8
0
100
AcDbSpline
62
0
6
CONTINUOUS
70
0
71
3
72
8
73
4
74
2
42
0.0000001000
43
0.0000001000
44
0.0000000001
12
0.1947448307
22
0.0003083718
32
0.0000000000
13
0.1947446489
23
0.0004080092
33
0.0000000000
40
0.0000000000
40
0.0000000000
40
0.0000000000
40
0.0000000000
40
1.0000000000
40
1.0000000000
40
1.0000000000
40
1.0000000000
10
-3.7246425401
20
-20.2404548271
30
0.0000000000
10
-3.6597275965
20
-20.2403520365
30
0.0000000000
10
-3.5948126829
20
-20.2402297760
30
0.0000000000
10
-3.5298978000
20
-20.2400937729
30
0.0000000000
11
-3.7246425401
21
-20.2404548271
31
0.0000000000
11
-3.5298978000
21
-20.2400937729
31
0.0000000000
0
SPLINE
5
3BD
100
AcDbEntity
8
0
100
AcDbSpline
62
0
6
CONTINUOUS
70
0
71
3
72
8
73
4
74
2
42
0.0000001000
43
0.0000001000
44
0.0000000001
12
0.0310279072
22
0.0000650065
32
0.0000000000
13
0.0310279026
23
0.0000670301
33
0.0000000000
40
0.0000000000
40
0.0000000000
40
0.0000000000
40
0.0000000000
40
1.0000000000
40
1.0000000000
40
1.0000000000
40
1.0000000000
10
-3.5298978000
20
-20.2400937729
30
0.0000000000
10
-3.5195551642
20
-20.2400721041
30
0.0000000000
10
-3.5092125293
20
-20.2400500864
30
0.0000000000
10
-3.4988698951
20
-20.2400277430
30
0.0000000000
11
-3.5298978000
21
-20.2400937729
31
0.0000000000
11
-3.4988698951
21
-20.2400277430
31
0.0000000000
0
SPLINE
5
3BE
100
AcDbEntity
8
0
100
AcDbSpline
62
0
6
CONTINUOUS
70
0
71
3
72
8
73
4
74
2
42
0.0000001000
43
0.0000001000
44
0.0000000001
12
0.2257272169
22
-0.0005059749
32
0.0000000000
13
0.2257275127
23
-0.0003544315
33
0.0000000000
40
0.0000000000
40
0.0000000000
40
0.0000000000
40
0.0000000000
40
1.0000000000
40
1.0000000000
40
1.0000000000
40
1.0000000000
10
3.4962187370
20
-20.2400277430
30
0.0000000000
10
3.5714611426
20
-20.2401964013
30
0.0000000000
10
3.6467036126
20
-20.2403367821
30
0.0000000000
10
3.7219461168
20
-20.2404549260
30
0.0000000000
11
3.4962187370
21
-20.2400277430
31
0.0000000000
11
3.7219461168
21
-20.2404549260
31
0.0000000000
0
SPLINE
5
3BF
100
AcDbEntity
8
0
100
AcDbSpline
62
0
6
CONTINUOUS
70
0
71
3
72
8
73
4
74
2
42
0.0000001000
43
0.0000001000
44
0.0000000001
12
0.2188505662
22
-0.0003436335
32
0.0000000000
13
0.2188507521
23
-0.0001910050
33
0.0000000000
40
0.0000000000
40
0.0000000000
40
0.0000000000
40
0.0000000000
40
1.0000000000
40
1.0000000000
40
1.0000000000
40
1.0000000000
10
3.7219461168
20
-20.2404549260
30
0.0000000000
10
3.7948963055
20
-20.2405694705
30
0.0000000000
10
3.8678465265
20
-20.2406631123
30
0.0000000000
10
3.9407967772
20
-20.2407267806
30
0.0000000000
11
3.7219461168
21
-20.2404549260
31
0.0000000000
11
3.9407967772
21
-20.2407267806
31
0.0000000000
0
SPLINE
5
3C0
100
AcDbEntity
8
0
100
AcDbSpline
62
0
6
CONTINUOUS
70
0
71
3
72
8
73
4
74
2
42
0.0000001000
43
0.0000001000
44
0.0000000001
12
0.0715700188
22
-0.0000624637
32
0.0000000000
13
0.0715700343
23
-0.0000427689
33
0.0000000000
40
0.0000000000
40
0.0000000000
40
0.0000000000
40
0.0000000000
40
1.0000000000
40
1.0000000000
40
1.0000000000
40
1.0000000000
10
3.9407967772
20
-20.2407267806
30
0.0000000000
10
3.9646534501
20
-20.2407476018
30
0.0000000000
10
3.9885101262
20
-20.2407652175
30
0.0000000000
10
4.0123668043
20
-20.2407794738
30
0.0000000000
11
3.9407967772
21
-20.2407267806
31
0.0000000000
11
4.0123668043
21
-20.2407794738
31
0.0000000000
0
SPLINE
5
3C1
100
AcDbEntity
8
0
100
AcDbSpline
62
0
6
CONTINUOUS
70
0
71
3
72
8
73
4
74
2
42
0.0000001000
43
0.0000001000
44
0.0000000001
12
0.1410697534
22
-0.0000843007
32
0.0000000000
13
0.1410697725
23
-0.0000024581
33
0.0000000000
40
0.0000000000
40
0.0000000000
40
0.0000000000
40
0.0000000000
40
1.0000000000
40
1.0000000000
40
1.0000000000
40
1.0000000000
10
4.0123668043
20
-20.2407794738
30
0.0000000000
10
4.0593900554
20
-20.2408075741
30
0.0000000000
10
4.1064133143
20
-20.2408226228
30
0.0000000000
10
4.1534365718
20
-20.2408234421
30
0.0000000000
11
4.0123668043
21
-20.2407794738
31
0.0000000000
11
4.1534365718
21
-20.2408234421
31
0.0000000000
0
SPLINE
5
3C2
100
AcDbEntity
8
0
100
AcDbSpline
62
0
6
CONTINUOUS
70
0
71
3
72
15
73
11
74
9
42
0.0000001000
43
0.0000001000
44
0.0000000001
12
-1.2544455271
22
0.0000000000
32
0.0000000000
13
0.0000000000
23
-1.2544455271
33
0.0000000000
40
0.0000000000
40
0.0000000000
40
0.0000000000
40
0.0000000000
40
0.1249999808
40
0.2499998107
40
0.3750000467
40
0.5000001768
40
0.6250002546
40
0.7500003661
40
0.8750000750
40
1.0000000000
40
1.0000000000
40
1.0000000000
40
1.0000000000
10
-10.1014474229
20
21.6622095577
30
0.0000000000
10
-10.1537159785
20
21.6622095577
30
0.0000000000
10
-10.2585426613
20
21.6519001244
30
0.0000000000
10
-10.4095167467
20
21.6060961010
30
0.0000000000
10
-10.5487151670
20
21.5317081671
30
0.0000000000
10
-10.6707075186
20
21.4315912109
30
0.0000000000
10
-10.7708243779
20
21.3095988488
30
0.0000000000
10
-10.8452121994
20
21.1704005128
30
0.0000000000
10
-10.8910161577
20
21.0194265423
30
0.0000000000
10
-10.9013255790
20
20.9145999338
30
0.0000000000
10
-10.9013255790
20
20.8623314015
30
0.0000000000
11
-10.1014474229
21
21.6622095577
31
0.0000000000
11
-10.2574983780
21
21.6468434733
31
0.0000000000
11
-10.4075539692
21
21.6013321853
31
0.0000000000
11
-10.5458475096
21
21.5274199791
31
0.0000000000
11
-10.6670616255
21
21.4279452890
31
0.0000000000
11
-10.7665362114
21
21.3067311725
31
0.0000000000
11
-10.8404482920
21
21.1684377419
31
0.0000000000
11
-10.8859595083
21
21.0183822876
31
0.0000000000
11
-10.9013255790
21
20.8623314015
31
0.0000000000
0
SPLINE
5
3C3
100
AcDbEntity
8
0
100
AcDbSpline
62
0
6
CONTINUOUS
70
0
71
3
72
15
73
11
74
9
42
0.0000001000
43
0.0000001000
44
0.0000000001
12
0.0000000000
22
-1.2544455271
32
0.0000000000
13
1.2544455271
23
0.0000000000
33
0.0000000000
40
0.0000000000
40
0.0000000000
40
0.0000000000
40
0.0000000000
40
0.1249999808
40
0.2499998107
40
0.3750000467
40
0.5000001768
40
0.6250002546
40
0.7500003661
40
0.8750000750
40
1.0000000000
40
1.0000000000
40
1.0000000000
40
1.0000000000
10
-10.9013255790
20
-20.8379122862
30
0.0000000000
10
-10.9013255790
20
-20.8901808418
30
0.0000000000
10
-10.8910161458
20
-20.9950075246
30
0.0000000000
10
-10.8452121224
20
-21.1459816100
30
0.0000000000
10
-10.7708241885
20
-21.2851800303
30
0.0000000000
10
-10.6707072323
20
-21.4071723819
30
0.0000000000
10
-10.5487148701
20
-21.5072892412
30
0.0000000000
10
-10.4095165342
20
-21.5816770627
30
0.0000000000
10
-10.2585425637
20
-21.6274810210
30
0.0000000000
10
-10.1537159552
20
-21.6377904423
30
0.0000000000
10
-10.1014474229
20
-21.6377904423
30
0.0000000000
11
-10.9013255790
21
-20.8379122862
31
0.0000000000
11
-10.8859594946
21
-20.9939632413
31
0.0000000000
11
-10.8404482067
21
-21.1440188325
31
0.0000000000
11
-10.7665360004
21
-21.2823123729
31
0.0000000000
11
-10.6670613103
21
-21.4035264888
31
0.0000000000
11
-10.5458471938
21
-21.5030010747
31
0.0000000000
11
-10.4075537633
21
-21.5769131553
31
0.0000000000
11
-10.2574983090
21
-21.6224243716
31
0.0000000000
11
-10.1014474229
21
-21.6377904423
31
0.0000000000
0
SPLINE
5
3C4
100
AcDbEntity
8
0
100
AcDbSpline
62
0
6
CONTINUOUS
70
0
71
3
72
15
73
11
74
9
42
0.0000001000
43
0.0000001000
44
0.0000000001
12
0.0000000000
22
1.2544455271
32
0.0000000000
13
-1.2544455271
23
0.0000000000
33
0.0000000000
40
0.0000000000
40
0.0000000000
40
0.0000000000
40
0.0000000000
40
0.1249999808
40
0.2499998107
40
0.3750000467
40
0.5000001768
40
0.6250002546
40
0.7500003661
40
0.8750000750
40
1.0000000000
40
1.0000000000
40
1.0000000000
40
1.0000000000
10
10.8986744210
20
20.8623314015
30
0.0000000000
10
10.8986744210
20
20.9145999571
30
0.0000000000
10
10.8883649878
20
21.0194266400
30
0.0000000000
10
10.8425609643
20
21.1704007253
30
0.0000000000
10
10.7681730304
20
21.3095991456
30
0.0000000000
10
10.6680560742
20
21.4315914972
30
0.0000000000
10
10.5460637121
20
21.5317083566
30
0.0000000000
10
10.4068653762
20
21.6060961780
30
0.0000000000
10
10.2558914056
20
21.6519001364
30
0.0000000000
10
10.1510647971
20
21.6622095577
30
0.0000000000
10
10.0987962648
20
21.6622095577
30
0.0000000000
11
10.8986744210
21
20.8623314015
31
0.0000000000
11
10.8833083366
21
21.0183823566
31
0.0000000000
11
10.8377970486
21
21.1684379478
31
0.0000000000
11
10.7638848424
21
21.3067314882
31
0.0000000000
11
10.6644101523
21
21.4279456042
31
0.0000000000
11
10.5431960358
21
21.5274201900
31
0.0000000000
11
10.4049026052
21
21.6013322706
31
0.0000000000
11
10.2548471509
21
21.6468434870
31
0.0000000000
11
10.0987962648
21
21.6622095577
31
0.0000000000
0
SPLINE
5
3C5
100
AcDbEntity
8
0
100
AcDbSpline
62
0
6
CONTINUOUS
70
0
71
3
72
15
73
11
74
9
42
0.0000001000
43
0.0000001000
44
0.0000000001
12
1.2544455271
22
0.0000000000
32
0.0000000000
13
-0.0000000000
23
1.2544455271
33
0.0000000000
40
0.0000000000
40
0.0000000000
40
0.0000000000
40
0.0000000000
40
0.1249999808
40
0.2499998107
40
0.3750000467
40
0.5000001768
40
0.6250002546
40
0.7500003661
40
0.8750000750
40
1.0000000000
40
1.0000000000
40
1.0000000000
40
1.0000000000
10
10.0987962648
20
-21.6377904423
30
0.0000000000
10
10.1510648204
20
-21.6377904423
30
0.0000000000
10
10.2558915033
20
-21.6274810091
30
0.0000000000
10
10.4068655886
20
-21.5816769857
30
0.0000000000
10
10.5460640089
20
-21.5072890518
30
0.0000000000
10
10.6680563605
20
-21.4071720956
30
0.0000000000
10
10.7681732199
20
-21.2851797334
30
0.0000000000
10
10.8425610413
20
-21.1459813975
30
0.0000000000
10
10.8883649997
20
-20.9950074270
30
0.0000000000
10
10.8986744210
20
-20.8901808185
30
0.0000000000
10
10.8986744210
20
-20.8379122862
30
0.0000000000
11
10.0987962648
21
-21.6377904423
31
0.0000000000
11
10.2548472199
21
-21.6224243579
31
0.0000000000
11
10.4049028112
21
-21.5769130700
31
0.0000000000
11
10.5431963516
21
-21.5030008637
31
0.0000000000
11
10.6644104675
21
-21.4035261736
31
0.0000000000
11
10.7638850533
21
-21.2823120571
31
0.0000000000
11
10.8377971339
21
-21.1440186266
31
0.0000000000
11
10.8833083503
21
-20.9939631723
31
0.0000000000
11
10.8986744210
21
-20.8379122862
31
0.0000000000
0
SPLINE
5
3C6
100
AcDbEntity
8
0
100
AcDbSpline
62
0
6
CONTINUOUS
70
0
71
3
72
10
73
6
74
4
42
0.0000001000
43
0.0000001000
44
0.0000000001
12
-0.0005365532
22
-0.4375069623
32
0.0000000000
13
-0.4383143187
23
-0.0393041685
33
0.0000000000
40
0.0000000000
40
0.0000000000
40
0.0000000000
40
0.0000000000
40
0.3515661539
40
0.7047300360
40
1.0000000000
40
1.0000000000
40
1.0000000000
40
1.0000000000
10
-4.6236019385
20
19.7416445807
30
0.0000000000
10
-4.6236648165
20
19.6903737006
30
0.0000000000
10
-4.6520519273
20
19.5856612237
30
0.0000000000
10
-4.7603350780
20
19.4787547222
30
0.0000000000
10
-4.8544756046
20
19.4496173249
30
0.0000000000
10
-4.8976159557
20
19.4457488781
30
0.0000000000
11
-4.6236019385
21
19.7416445807
31
0.0000000000
11
-4.6639141259
21
19.5932084282
31
0.0000000000
11
-4.7737013034
21
19.4844855521
31
0.0000000000
11
-4.8976159557
21
19.4457488781
31
0.0000000000
0
SPLINE
5
3C7
100
AcDbEntity
8
0
100
AcDbSpline
62
0
6
CONTINUOUS
70
0
71
3
72
8
73
4
74
2
42
0.0000001000
43
0.0000001000
44
0.0000000001
12
-0.0259795242
22
-0.0023296150
32
0.0000000000
13
-0.0259316717
23
-0.0000311887
33
0.0000000000
40
0.0000000000
40
0.0000000000
40
0.0000000000
40
0.0000000000
40
1.0000000000
40
1.0000000000
40
1.0000000000
40
1.0000000000
10
-4.8976159557
20
19.4457488781
30
0.0000000000
10
-4.9062757971
20
19.4449723398
30
0.0000000000
10
-4.9149466248
20
19.4445745563
30
0.0000000000
10
-4.9235905154
20
19.4445641600
30
0.0000000000
11
-4.8976159557
21
19.4457488781
31
0.0000000000
11
-4.9235905154
21
19.4445641600
31
0.0000000000
0
SPLINE
5
3C8
100
AcDbEntity
8
0
100
AcDbSpline
62
0
6
CONTINUOUS
70
0
71
3
72
10
73
6
74
4
42
0.0000001000
43
0.0000001000
44
0.0000000001
12
0.0000000000
22
-0.4397634092
32
0.0000000000
13
-0.4406164218
23
-0.0396848911
33
0.0000000000
40
0.0000000000
40
0.0000000000
40
0.0000000000
40
0.0000000000
40
0.3531240384
40
0.7062422545
40
1.0000000000
40
1.0000000000
40
1.0000000000
40
1.0000000000
10
-4.6131296971
20
18.8122095577
30
0.0000000000
10
-4.6131296971
20
18.7604458807
30
0.0000000000
10
-4.6412519271
20
18.6549313847
30
0.0000000000
10
-4.7494229975
20
18.5467548995
30
0.0000000000
10
-4.8438264806
20
18.5172779490
30
0.0000000000
10
-4.8869713095
20
18.5133920343
30
0.0000000000
11
-4.6131296971
21
18.8122095577
31
0.0000000000
11
-4.6533205456
21
18.6622095577
31
0.0000000000
11
-4.7631239856
21
18.5524019365
31
0.0000000000
11
-4.8869713095
21
18.5133920343
31
0.0000000000
0
SPLINE
5
3C9
100
AcDbEntity
8
0
100
AcDbSpline
62
0
6
CONTINUOUS
70
0
71
3
72
8
73
4
74
2
42
0.0000001000
43
0.0000001000
44
0.0000000001
12
-0.0261526328
22
-0.0023554828
32
0.0000000000
13
-0.0261020025
23
0.0000000000
33
0.0000000000
40
0.0000000000
40
0.0000000000
40
0.0000000000
40
0.0000000000
40
1.0000000000
40
1.0000000000
40
1.0000000000
40
1.0000000000
10
-4.8869713095
20
18.5133920343
30
0.0000000000
10
-4.8956888538
20
18.5126068734
30
0.0000000000
10
-4.9044176066
20
18.5122095577
30
0.0000000000
10
-4.9131182741
20
18.5122095577
30
0.0000000000
11
-4.8869713095
21
18.5133920343
31
0.0000000000
11
-4.9131182741
21
18.5122095577
31
0.0000000000
0
SPLINE
5
3CA
100
AcDbEntity
8
0
100
AcDbSpline
62
0
6
CONTINUOUS
70
0
71
3
72
9
73
5
74
3
42
0.0000001000
43
0.0000001000
44
0.0000000001
12
-0.3096260021
22
0.0003723951
32
0.0000000000
13
-0.1575456116
23
0.2713195887
33
0.0000000000
40
0.0000000000
40
0.0000000000
40
0.0000000000
40
0.0000000000
40
0.5009732366
40
1.0000000000
40
1.0000000000
40
1.0000000000
40
1.0000000000
10
-5.0790606426
20
19.4445641600
30
0.0000000000
10
-5.1307654228
20
19.4446263467
30
0.0000000000
10
-5.2358979810
20
19.4724182191
30
0.0000000000
10
-5.3125305400
20
19.5480765161
30
0.0000000000
10
-5.3387370322
20
19.5932084282
30
0.0000000000
11
-5.0790606426
21
19.4445641600
31
0.0000000000
11
-5.2289498546
21
19.4844855521
31
0.0000000000
11
-5.3387370322
21
19.5932084282
31
0.0000000000
0
SPLINE
5
3CB
100
AcDbEntity
8
0
100
AcDbSpline
62
0
6
CONTINUOUS
70
0
71
3
72
8
73
4
74
2
42
0.0000001000
43
0.0000001000
44
0.0000000001
12
-0.0520525032
22
0.0896430158
32
0.0000000000
13
-0.0184816145
23
0.1017389658
33
0.0000000000
40
0.0000000000
40
0.0000000000
40
0.0000000000
40
0.0000000000
40
1.0000000000
40
1.0000000000
40
1.0000000000
40
1.0000000000
10
-5.3387370322
20
19.5932084282
30
0.0000000000
10
-5.3560878666
20
19.6230894334
30
0.0000000000
10
-5.3681630451
20
19.6562038967
30
0.0000000000
10
-5.3743235832
20
19.6901168853
30
0.0000000000
11
-5.3387370322
21
19.5932084282
31
0.0000000000
11
-5.3743235832
21
19.6901168853
31
0.0000000000
0
SPLINE
5
3CC
100
AcDbEntity
8
0
100
AcDbSpline
62
0
6
CONTINUOUS
70
0
71
3
72
8
73
4
74
2
42
0.0000001000
43
0.0000001000
44
0.0000000001
12
-0.0044835478
22
0.0246813672
32
0.0000000000
13
-0.0023676361
23
0.0248590450
33
0.0000000000
40
0.0000000000
40
0.0000000000
40
0.0000000000
40
0.0000000000
40
1.0000000000
40
1.0000000000
40
1.0000000000
40
1.0000000000
10
-5.3743235832
20
19.6901168853
30
0.0000000000
10
-5.3758180992
20
19.6983440077
30
0.0000000000
10
-5.3769645246
20
19.7066181252
30
0.0000000000
10
-5.3777537366
20
19.7149044735
30
0.0000000000
11
-5.3743235832
21
19.6901168853
31
0.0000000000
11
-5.3777537366
21
19.7149044735
31
0.0000000000
0
SPLINE
5
3CD
100
AcDbEntity
8
0
100
AcDbSpline
62
0
6
CONTINUOUS
70
0
71
3
72
8
73
4
74
2
42
0.0000001000
43
0.0000001000
44
0.0000000001
12
-0.0025468705
22
0.0267409210
32
0.0000000000
13
-0.0000327397
23
0.0266960211
33
0.0000000000
40
0.0000000000
40
0.0000000000
40
0.0000000000
40
0.0000000000
40
1.0000000000
40
1.0000000000
40
1.0000000000
40
1.0000000000
10
-5.3777537366
20
19.7149044735
30
0.0000000000
10
-5.3786026935
20
19.7238181139
30
0.0000000000
10
-5.3790383063
20
19.7327459070
30
0.0000000000
10
-5.3790492196
20
19.7416445807
30
0.0000000000
11
-5.3777537366
21
19.7149044735
31
0.0000000000
11
-5.3790492196
21
19.7416445807
31
0.0000000000
0
SPLINE
5
3CE
100
AcDbEntity
8
0
100
AcDbSpline
62
0
6
CONTINUOUS
70
0
71
3
72
9
73
5
74
3
42
0.0000001000
43
0.0000001000
44
0.0000000001
12
-0.2588284623
22
0.0000000000
32
0.0000000000
13
-0.1682104368
23
0.2004866365
33
0.0000000000
40
0.0000000000
40
0.0000000000
40
0.0000000000
40
0.0000000000
40
0.5999568547
40
1.0000000000
40
1.0000000000
40
1.0000000000
40
1.0000000000
10
-5.0895328840
20
18.5122095577
30
0.0000000000
10
-5.1412948540
20
18.5122095577
30
0.0000000000
10
-5.2292278279
20
18.5356481870
30
0.0000000000
10
-5.2969366088
20
18.5926139885
30
0.0000000000
10
-5.3193670862
20
18.6193484234
30
0.0000000000
11
-5.0895328840
21
18.5122095577
31
0.0000000000
11
-5.2395271725
21
18.5524019365
31
0.0000000000
11
-5.3193670862
21
18.6193484234
31
0.0000000000
0
SPLINE
5
3CF
100
AcDbEntity
8
0
100
AcDbSpline
62
0
6
CONTINUOUS
70
0
71
3
72
9
73
5
74
3
42
0.0000001000
43
0.0000001000
44
0.0000000001
12
-0.1007234916
22
0.1200503039
32
0.0000000000
13
-0.0275529456
23
0.1541972305
33
0.0000000000
40
0.0000000000
40
0.0000000000
40
0.0000000000
40
0.0000000000
40
0.3338767931
40
1.0000000000
40
1.0000000000
40
1.0000000000
40
1.0000000000
10
-5.3193670862
20
18.6193484234
30
0.0000000000
10
-5.3305768317
20
18.6327090935
30
0.0000000000
10
-5.3606684600
20
18.6756773936
30
0.0000000000
10
-5.3787392100
20
18.7258960818
30
0.0000000000
10
-5.3848570955
20
18.7601341997
30
0.0000000000
11
-5.3193670862
21
18.6193484234
31
0.0000000000
11
-5.3493306125
21
18.6622095577
31
0.0000000000
11
-5.3848570955
21
18.7601341997
31
0.0000000000
0
SPLINE
5
3D0
100
AcDbEntity
8
0
100
AcDbSpline
62
0
6
CONTINUOUS
70
0
71
3
72
8
73
4
74
2
42
0.0000001000
43
0.0000001000
44
0.0000000001
12
-0.0046138457
22
0.0258209135
32
0.0000000000
13
-0.0023414663
23
0.0260031960
33
0.0000000000
40
0.0000000000
40
0.0000000000
40
0.0000000000
40
0.0000000000
40
1.0000000000
40
1.0000000000
40
1.0000000000
40
1.0000000000
10
-5.3848570955
20
18.7601341997
30
0.0000000000
10
-5.3863950440
20
18.7687411708
30
0.0000000000
10
-5.3875589138
20
18.7773978310
30
0.0000000000
10
-5.3883394026
20
18.7860655630
30
0.0000000000
11
-5.3848570955
21
18.7601341997
31
0.0000000000
11
-5.3883394026
21
18.7860655630
31
0.0000000000
0
SPLINE
5
3D1
100
AcDbEntity
8
0
100
AcDbSpline
62
0
6
CONTINUOUS
70
0
71
3
72
8
73
4
74
2
42
0.0000001000
43
0.0000001000
44
0.0000000001
12
-0.0023546563
22
0.0261496775
32
0.0000000000
13
0.0000000000
23
0.0260990382
33
0.0000000000
40
0.0000000000
40
0.0000000000
40
0.0000000000
40
0.0000000000
40
1.0000000000
40
1.0000000000
40
1.0000000000
40
1.0000000000
10
-5.3883394026
20
18.7860655630
30
0.0000000000
10
-5.3891242880
20
18.7947821222
30
0.0000000000
10
-5.3895214609
20
18.8035098783
30
0.0000000000
10
-5.3895214609
20
18.8122095577
30
0.0000000000
11
-5.3883394026
21
18.7860655630
31
0.0000000000
11
-5.3895214609
21
18.8122095577
31
0.0000000000
0
SPLINE
5
3D2
100
AcDbEntity
8
0
100
AcDbSpline
62
0
6
CONTINUOUS
70
0
71
3
72
10
73
6
74
4
42
0.0000001000
43
0.0000001000
44
0.0000000001
12
-0.0005365532
22
-0.4375069623
32
0.0000000000
13
-0.4383143187
23
-0.0393041685
33
0.0000000000
40
0.0000000000
40
0.0000000000
40
0.0000000000
40
0.0000000000
40
0.3515661539
40
0.7047300360
40
1.0000000000
40
1.0000000000
40
1.0000000000
40
1.0000000000
10
5.3763980615
20
19.7416445807
30
0.0000000000
10
5.3763351835
20
19.6903737006
30
0.0000000000
10
5.3479480727
20
19.5856612237
30
0.0000000000
10
5.2396649220
20
19.4787547222
30
0.0000000000
10
5.1455243954
20
19.4496173249
30
0.0000000000
10
5.1023840443
20
19.4457488781
30
0.0000000000
11
5.3763980615
21
19.7416445807
31
0.0000000000
11
5.3360858741
21
19.5932084282
31
0.0000000000
11
5.2262986966
21
19.4844855521
31
0.0000000000
11
5.1023840443
21
19.4457488781
31
0.0000000000
0
SPLINE
5
3D3
100
AcDbEntity
8
0
100
AcDbSpline
62
0
6
CONTINUOUS
70
0
71
3
72
8
73
4
74
2
42
0.0000001000
43
0.0000001000
44
0.0000000001
12
-0.0259795242
22
-0.0023296150
32
0.0000000000
13
-0.0259316717
23
-0.0000311887
33
0.0000000000
40
0.0000000000
40
0.0000000000
40
0.0000000000
40
0.0000000000
40
1.0000000000
40
1.0000000000
40
1.0000000000
40
1.0000000000
10
5.1023840443
20
19.4457488781
30
0.0000000000
10
5.0937242029
20
19.4449723398
30
0.0000000000
10
5.0850533752
20
19.4445745563
30
0.0000000000
10
5.0764094846
20
19.4445641600
30
0.0000000000
11
5.1023840443
21
19.4457488781
31
0.0000000000
11
5.0764094846
21
19.4445641600
31
0.0000000000
0
SPLINE
5
3D4
100
AcDbEntity
8
0
100
AcDbSpline
62
0
6
CONTINUOUS
70
0
71
3
72
10
73
6
74
4
42
0.0000001000
43
0.0000001000
44
0.0000000001
12
0.0000000000
22
-0.4397634092
32
0.0000000000
13
-0.4406164218
23
-0.0396848911
33
0.0000000000
40
0.0000000000
40
0.0000000000
40
0.0000000000
40
0.0000000000
40
0.3531240384
40
0.7062422545
40
1.0000000000
40
1.0000000000
40
1.0000000000
40
1.0000000000
10
5.3868703029
20
18.8122095577
30
0.0000000000
10
5.3868703029
20
18.7604458807
30
0.0000000000
10
5.3587480729
20
18.6549313847
30
0.0000000000
10
5.2505770025
20
18.5467548995
30
0.0000000000
10
5.1561735194
20
18.5172779490
30
0.0000000000
10
5.1130286905
20
18.5133920343
30
0.0000000000
11
5.3868703029
21
18.8122095577
31
0.0000000000
11
5.3466794544
21
18.6622095577
31
0.0000000000
11
5.2368760144
21
18.5524019365
31
0.0000000000
11
5.1130286905
21
18.5133920343
31
0.0000000000
0
SPLINE
5
3D5
100
AcDbEntity
8
0
100
AcDbSpline
62
0
6
CONTINUOUS
70
0
71
3
72
8
73
4
74
2
42
0.0000001000
43
0.0000001000
44
0.0000000001
12
-0.0261526328
22
-0.0023554828
32
0.0000000000
13
-0.0261020025
23
0.0000000000
33
0.0000000000
40
0.0000000000
40
0.0000000000
40
0.0000000000
40
0.0000000000
40
1.0000000000
40
1.0000000000
40
1.0000000000
40
1.0000000000
10
5.1130286905
20
18.5133920343
30
0.0000000000
10
5.1043111462
20
18.5126068734
30
0.0000000000
10
5.0955823934
20
18.5122095577
30
0.0000000000
10
5.0868817259
20
18.5122095577
30
0.0000000000
11
5.1130286905
21
18.5133920343
31
0.0000000000
11
5.0868817259
21
18.5122095577
31
0.0000000000
0
SPLINE
5
3D6
100
AcDbEntity
8
0
100
AcDbSpline
62
0
6
CONTINUOUS
70
0
71
3
72
9
73
5
74
3
42
0.0000001000
43
0.0000001000
44
0.0000000001
12
-0.3096260021
22
0.0003723951
32
0.0000000000
13
-0.1575456116
23
0.2713195887
33
0.0000000000
40
0.0000000000
40
0.0000000000
40
0.0000000000
40
0.0000000000
40
0.5009732366
40
1.0000000000
40
1.0000000000
40
1.0000000000
40
1.0000000000
10
4.9209393574
20
19.4445641600
30
0.0000000000
10
4.8692345772
20
19.4446263467
30
0.0000000000
10
4.7641020190
20
19.4724182191
30
0.0000000000
10
4.6874694600
20
19.5480765161
30
0.0000000000
10
4.6612629678
20
19.5932084282
30
0.0000000000
11
4.9209393574
21
19.4445641600
31
0.0000000000
11
4.7710501454
21
19.4844855521
31
0.0000000000
11
4.6612629678
21
19.5932084282
31
0.0000000000
0
SPLINE
5
3D7
100
AcDbEntity
8
0
100
AcDbSpline
62
0
6
CONTINUOUS
70
0
71
3
72
8
73
4
74
2
42
0.0000001000
43
0.0000001000
44
0.0000000001
12
-0.0520525032
22
0.0896430158
32
0.0000000000
13
-0.0184816145
23
0.1017389658
33
0.0000000000
40
0.0000000000
40
0.0000000000
40
0.0000000000
40
0.0000000000
40
1.0000000000
40
1.0000000000
40
1.0000000000
40
1.0000000000
10
4.6612629678
20
19.5932084282
30
0.0000000000
10
4.6439121334
20
19.6230894334
30
0.0000000000
10
4.6318369549
20
19.6562038967
30
0.0000000000
10
4.6256764168
20
19.6901168853
30
0.0000000000
11
4.6612629678
21
19.5932084282
31
0.0000000000
11
4.6256764168
21
19.6901168853
31
0.0000000000
0
SPLINE
5
3D8
100
AcDbEntity
8
0
100
AcDbSpline
62
0
6
CONTINUOUS
70
0
71
3
72
8
73
4
74
2
42
0.0000001000
43
0.0000001000
44
0.0000000001
12
-0.0044835478
22
0.0246813672
32
0.0000000000
13
-0.0023676361
23
0.0248590450
33
0.0000000000
40
0.0000000000
40
0.0000000000
40
0.0000000000
40
0.0000000000
40
1.0000000000
40
1.0000000000
40
1.0000000000
40
1.0000000000
10
4.6256764168
20
19.6901168853
30
0.0000000000
10
4.6241819008
20
19.6983440077
30
0.0000000000
10
4.6230354754
20
19.7066181252
30
0.0000000000
10
4.6222462634
20
19.7149044735
30
0.0000000000
11
4.6256764168
21
19.6901168853
31
0.0000000000
11
4.6222462634
21
19.7149044735
31
0.0000000000
0
SPLINE
5
3D9
100
AcDbEntity
8
0
100
AcDbSpline
62
0
6
CONTINUOUS
70
0
71
3
72
8
73
4
74
2
42
0.0000001000
43
0.0000001000
44
0.0000000001
12
-0.0025468705
22
0.0267409210
32
0.0000000000
13
-0.0000327397
23
0.0266960211
33
0.0000000000
40
0.0000000000
40
0.0000000000
40
0.0000000000
40
0.0000000000
40
1.0000000000
40
1.0000000000
40
1.0000000000
40
1.0000000000
10
4.6222462634
20
19.7149044735
30
0.0000000000
10
4.6213973065
20
19.7238181139
30
0.0000000000
10
4.6209616937
20
19.7327459070
30
0.0000000000
10
4.6209507804
20
19.7416445807
30
0.0000000000
11
4.6222462634
21
19.7149044735
31
0.0000000000
11
4.6209507804
21
19.7416445807
31
0.0000000000
0
SPLINE
5
3DA
100
AcDbEntity
8
0
100
AcDbSpline
62
0
6
CONTINUOUS
70
0
71
3
72
9
73
5
74
3
42
0.0000001000
43
0.0000001000
44
0.0000000001
12
-0.2588284623
22
0.0000000000
32
0.0000000000
13
-0.1682104368
23
0.2004866365
33
0.0000000000
40
0.0000000000
40
0.0000000000
40
0.0000000000
40
0.0000000000
40
0.5999568547
40
1.0000000000
40
1.0000000000
40
1.0000000000
40
1.0000000000
10
4.9104671160
20
18.5122095577
30
0.0000000000
10
4.8587051460
20
18.5122095577
30
0.0000000000
10
4.7707721721
20
18.5356481870
30
0.0000000000
10
4.7030633912
20
18.5926139885
30
0.0000000000
10
4.6806329138
20
18.6193484234
30
0.0000000000
11
4.9104671160
21
18.5122095577
31
0.0000000000
11
4.7604728275
21
18.5524019365
31
0.0000000000
11
4.6806329138
21
18.6193484234
31
0.0000000000
0
SPLINE
5
3DB
100
AcDbEntity
8
0
100
AcDbSpline
62
0
6
CONTINUOUS
70
0
71
3
72
9
73
5
74
3
42
0.0000001000
43
0.0000001000
44
0.0000000001
12
-0.1007234916
22
0.1200503039
32
0.0000000000
13
-0.0275529456
23
0.1541972305
33
0.0000000000
40
0.0000000000
40
0.0000000000
40
0.0000000000
40
0.0000000000
40
0.3338767931
40
1.0000000000
40
1.0000000000
40
1.0000000000
40
1.0000000000
10
4.6806329138
20
18.6193484234
30
0.0000000000
10
4.6694231683
20
18.6327090935
30
0.0000000000
10
4.6393315400
20
18.6756773936
30
0.0000000000
10
4.6212607900
20
18.7258960818
30
0.0000000000
10
4.6151429045
20
18.7601341997
30
0.0000000000
11
4.6806329138
21
18.6193484234
31
0.0000000000
11
4.6506693875
21
18.6622095577
31
0.0000000000
11
4.6151429045
21
18.7601341997
31
0.0000000000
0
SPLINE
5
3DC
100
AcDbEntity
8
0
100
AcDbSpline
62
0
6
CONTINUOUS
70
0
71
3
72
8
73
4
74
2
42
0.0000001000
43
0.0000001000
44
0.0000000001
12
-0.0046138457
22
0.0258209135
32
0.0000000000
13
-0.0023414663
23
0.0260031960
33
0.0000000000
40
0.0000000000
40
0.0000000000
40
0.0000000000
40
0.0000000000
40
1.0000000000
40
1.0000000000
40
1.0000000000
40
1.0000000000
10
4.6151429045
20
18.7601341997
30
0.0000000000
10
4.6136049560
20
18.7687411708
30
0.0000000000
10
4.6124410862
20
18.7773978310
30
0.0000000000
10
4.6116605974
20
18.7860655630
30
0.0000000000
11
4.6151429045
21
18.7601341997
31
0.0000000000
11
4.6116605974
21
18.7860655630
31
0.0000000000
0
SPLINE
5
3DD
100
AcDbEntity
8
0
100
AcDbSpline
62
0
6
CONTINUOUS
70
0
71
3
72
8
73
4
74
2
42
0.0000001000
43
0.0000001000
44
0.0000000001
12
-0.0023546563
22
0.0261496775
32
0.0000000000
13
0.0000000000
23
0.0260990382
33
0.0000000000
40
0.0000000000
40
0.0000000000
40
0.0000000000
40
0.0000000000
40
1.0000000000
40
1.0000000000
40
1.0000000000
40
1.0000000000
10
4.6116605974
20
18.7860655630
30
0.0000000000
10
4.6108757120
20
18.7947821222
30
0.0000000000
10
4.6104785391
20
18.8035098783
30
0.0000000000
10
4.6104785391
20
18.8122095577
30
0.0000000000
11
4.6116605974
21
18.7860655630
31
0.0000000000
11
4.6104785391
21
18.8122095577
31
0.0000000000
0
SPLINE
5
3DE
100
AcDbEntity
8
0
100
AcDbSpline
62
0
6
CONTINUOUS
70
0
71
3
72
8
73
4
74
2
42
0.0000001000
43
0.0000001000
44
0.0000000001
12
-0.0376808778
22
-0.0599547868
32
0.0000000000
13
-0.0386390322
23
-0.0593485228
33
0.0000000000
40
0.0000000000
40
0.0000000000
40
0.0000000000
40
0.0000000000
40
1.0000000000
40
1.0000000000
40
1.0000000000
40
1.0000000000
10
5.8460068055
20
-15.3877904423
30
0.0000000000
10
5.8334465129
20
-15.4077753713
30
0.0000000000
10
5.8207254890
20
-15.4276606036
30
0.0000000000
10
5.8078458116
20
-15.4474434445
30
0.0000000000
11
5.8460068055
21
-15.3877904423
31
0.0000000000
11
5.8078458116
21
-15.4474434445
31
0.0000000000
0
SPLINE
5
3DF
100
AcDbEntity
8
0
100
AcDbSpline
62
0
6
CONTINUOUS
70
0
71
3
72
9
73
5
74
3
42
0.0000001000
43
0.0000001000
44
0.0000000001
12
-0.1536509798
22
-0.2360038064
32
0.0000000000
13
-0.1683309920
23
-0.2257672307
33
0.0000000000
40
0.0000000000
40
0.0000000000
40
0.0000000000
40
0.0000000000
40
0.5010368326
40
1.0000000000
40
1.0000000000
40
1.0000000000
40
1.0000000000
10
5.8078458116
20
-15.4474434445
30
0.0000000000
10
5.7821842115
20
-15.4868589777
30
0.0000000000
10
5.7297102118
20
-15.5647156698
30
0.0000000000
10
5.6747928653
20
-15.6408683320
30
0.0000000000
10
5.6467958770
20
-15.6784181762
30
0.0000000000
11
5.8078458116
21
-15.4474434445
31
0.0000000000
11
5.7289880256
21
-15.5644493424
31
0.0000000000
11
5.6467958770
21
-15.6784181762
31
0.0000000000
0
SPLINE
5
3E0
100
AcDbEntity
8
0
100
AcDbSpline
62
0
6
CONTINUOUS
70
0
71
3
72
8
73
4
74
2
42
0.0000001000
43
0.0000001000
44
0.0000000001
12
-0.0418946999
22
-0.0561895957
32
0.0000000000
13
-0.0427784433
23
-0.0555128499
33
0.0000000000
40
0.0000000000
40
0.0000000000
40
0.0000000000
40
0.0000000000
40
1.0000000000
40
1.0000000000
40
1.0000000000
40
1.0000000000
10
5.6467958770
20
-15.6784181762
30
0.0000000000
10
5.6328309770
20
-15.6971480414
30
0.0000000000
10
5.6187179766
20
-15.7157665607
30
0.0000000000
10
5.6044584955
20
-15.7342708439
30
0.0000000000
11
5.6467958770
21
-15.6784181762
31
0.0000000000
11
5.6044584955
21
-15.7342708439
31
0.0000000000
0
SPLINE
5
3E1
100
AcDbEntity
8
0
100
AcDbSpline
62
0
6
CONTINUOUS
70
0
71
3
72
10
73
6
74
4
42
0.0000001000
43
0.0000001000
44
0.0000000001
12
0.3602846892
22
-0.0000000000
32
0.0000000000
13
0.1272396737
23
0.3370684244
33
0.0000000000
40
0.0000000000
40
0.0000000000
40
0.0000000000
40
0.0000000000
40
0.3326568453
40
0.6656365789
40
1.0000000000
40
1.0000000000
40
1.0000000000
40
1.0000000000
10
6.5100912107
20
-14.9528696728
30
0.0000000000
10
6.5500416001
20
-14.9528696728
30
0.0000000000
10
6.6309134950
20
-14.9364301911
30
0.0000000000
10
6.7322648713
20
-14.8665175303
30
0.0000000000
10
6.7764072044
20
-14.7965049435
30
0.0000000000
10
6.7905886352
20
-14.7589371596
30
0.0000000000
11
6.5100912107
21
-14.9528696728
31
0.0000000000
11
6.6275253390
21
-14.9289212279
31
0.0000000000
11
6.7262755103
21
-14.8607992440
31
0.0000000000
11
6.7905886352
21
-14.7589371596
31
0.0000000000
0
SPLINE
5
3E2
100
AcDbEntity
8
0
100
AcDbSpline
62
0
6
CONTINUOUS
70
0
71
3
72
9
73
5
74
3
42
0.0000001000
43
0.0000001000
44
0.0000000001
12
-0.1715790311
22
0.2226553340
32
0.0000000000
13
-0.1571222304
23
0.2331254868
33
0.0000000000
40
0.0000000000
40
0.0000000000
40
0.0000000000
40
0.0000000000
40
0.7493529556
40
1.0000000000
40
1.0000000000
40
1.0000000000
40
1.0000000000
10
-5.6071094408
20
-15.7342750722
30
0.0000000000
10
-5.6499671922
20
-15.6786592613
30
0.0000000000
10
-5.7053926023
20
-15.6030623927
30
0.0000000000
10
-5.7583849031
20
-15.5257687529
30
0.0000000000
10
-5.7715123107
20
-15.5062913481
30
0.0000000000
11
-5.6071094408
21
-15.7342750722
31
0.0000000000
11
-5.7316673184
21
-15.5644089998
31
0.0000000000
11
-5.7715123107
21
-15.5062913481
31
0.0000000000
0
SPLINE
5
3E3
100
AcDbEntity
8
0
100
AcDbSpline
62
0
6
CONTINUOUS
70
0
71
3
72
8
73
4
74
2
42
0.0000001000
43
0.0000001000
44
0.0000000001
12
-0.0394686966
22
0.0585605174
32
0.0000000000
13
-0.0385285358
23
0.0591792562
33
0.0000000000
40
0.0000000000
40
0.0000000000
40
0.0000000000
40
0.0000000000
40
1.0000000000
40
1.0000000000
40
1.0000000000
40
1.0000000000
10
-5.7715123107
20
-15.5062913481
30
0.0000000000
10
-5.7846685428
20
-15.4867711757
30
0.0000000000
10
-5.7976691378
20
-15.4671465637
30
0.0000000000
10
-5.8105119831
20
-15.4474201450
30
0.0000000000
11
-5.7715123107
21
-15.5062913481
31
0.0000000000
11
-5.8105119831
21
-15.4474201450
31
0.0000000000
0
SPLINE
5
3E4
100
AcDbEntity
8
0
100
AcDbSpline
62
0
6
CONTINUOUS
70
0
71
3
72
8
73
4
74
2
42
0.0000001000
43
0.0000001000
44
0.0000000001
12
-0.0386236981
22
0.0593254241
32
0.0000000000
13
-0.0376661348
23
0.0599313289
33
0.0000000000
40
0.0000000000
40
0.0000000000
40
0.0000000000
40
0.0000000000
40
1.0000000000
40
1.0000000000
40
1.0000000000
40
1.0000000000
10
-5.8105119831
20
-15.4474201450
30
0.0000000000
10
-5.8233865491
20
-15.4276450036
30
0.0000000000
10
-5.8361025853
20
-15.4077675520
30
0.0000000000
10
-5.8486579635
20
-15.3877904423
30
0.0000000000
11
-5.8105119831
21
-15.4474201450
31
0.0000000000
11
-5.8486579635
21
-15.3877904423
31
0.0000000000
0
SPLINE
5
3E5
100
AcDbEntity
8
0
100
AcDbSpline
62
0
6
CONTINUOUS
70
0
71
3
72
10
73
6
74
4
42
0.0000001000
43
0.0000001000
44
0.0000000001
12
-0.1272396737
22
0.3370684244
32
0.0000000000
13
-0.3602846892
23
-0.0000000000
33
0.0000000000
40
0.0000000000
40
0.0000000000
40
0.0000000000
40
0.0000000000
40
0.3326568410
40
0.6656365743
40
1.0000000000
40
1.0000000000
40
1.0000000000
40
1.0000000000
10
6.7905886352
20
-11.2166437250
30
0.0000000000
10
6.7764795859
20
-11.1792676860
30
0.0000000000
10
6.7325383804
20
-11.1094129060
30
0.0000000000
10
6.6313371155
20
-11.0392831290
30
0.0000000000
10
6.5502465517
20
-11.0227112118
30
0.0000000000
10
6.5100912107
20
-11.0227112118
30
0.0000000000
11
6.7905886352
21
-11.2166437250
31
0.0000000000
11
6.7267098608
21
-11.1152346312
31
0.0000000000
11
6.6281025366
21
-11.0469060383
31
0.0000000000
11
6.5100912107
21
-11.0227112118
31
0.0000000000
0
SPLINE
5
3E6
100
AcDbEntity
8
0
100
AcDbSpline
62
0
6
CONTINUOUS
70
0
71
3
72
10
73
6
74
4
42
0.0000001000
43
0.0000001000
44
0.0000000001
12
0.1272396737
22
-0.3370684244
32
0.0000000000
13
0.3602846892
23
0.0000000000
33
0.0000000000
40
0.0000000000
40
0.0000000000
40
0.0000000000
40
0.0000000000
40
0.3326568410
40
0.6656365743
40
1.0000000000
40
1.0000000000
40
1.0000000000
40
1.0000000000
10
-6.7932397933
20
-14.7589371596
30
0.0000000000
10
-6.7791307440
20
-14.7963131987
30
0.0000000000
10
-6.7351895384
20
-14.8661679787
30
0.0000000000
10
-6.6339882736
20
-14.9362977557
30
0.0000000000
10
-6.5528977097
20
-14.9528696728
30
0.0000000000
10
-6.5127423688
20
-14.9528696728
30
0.0000000000
11
-6.7932397933
21
-14.7589371596
31
0.0000000000
11
-6.7293610189
21
-14.8603462534
31
0.0000000000
11
-6.6307536947
21
-14.9286748464
31
0.0000000000
11
-6.5127423688
21
-14.9528696728
31
0.0000000000
0
SPLINE
5
3E7
100
AcDbEntity
8
0
100
AcDbSpline
62
0
6
CONTINUOUS
70
0
71
3
72
10
73
6
74
4
42
0.0000001000
43
0.0000001000
44
0.0000000001
12
-0.3602846892
22
0.0000000000
32
0.0000000000
13
-0.1272396737
23
-0.3370684244
33
0.0000000000
40
0.0000000000
40
0.0000000000
40
0.0000000000
40
0.0000000000
40
0.3326568453
40
0.6656365789
40
1.0000000000
40
1.0000000000
40
1.0000000000
40
1.0000000000
10
-6.5127423688
20
-11.0227112118
30
0.0000000000
10
-6.5526927581
20
-11.0227112118
30
0.0000000000
10
-6.6335646530
20
-11.0391506936
30
0.0000000000
10
-6.7349160294
20
-11.1090633544
30
0.0000000000
10
-6.7790583624
20
-11.1790759412
30
0.0000000000
10
-6.7932397933
20
-11.2166437250
30
0.0000000000
11
-6.5127423688
21
-11.0227112118
31
0.0000000000
11
-6.6301764971
21
-11.0466596568
31
0.0000000000
11
-6.7289266683
21
-11.1147816407
31
0.0000000000
11
-6.7932397933
21
-11.2166437250
31
0.0000000000
0
SPLINE
5
3E8
100
AcDbEntity
8
0
100
AcDbSpline
62
9
6
CONTINUOUS
70
0
71
3
72
8
73
4
74
2
42
0.0000001000
43
0.0000001000
44
0.0000000001
12
0.0019347555
22
0.0043185261
32
0.0000000000
13
0.0019300536
23
0.0043206219
33
0.0000000000
40
0.0000000000
40
0.0000000000
40
0.0000000000
40
0.0000000000
40
1.0000000000
40
1.0000000000
40
1.0000000000
40
1.0000000000
10
6.0684795133
20
-14.9661925825
30
0.0000000000
10
6.0691244318
20
-14.9647530738
30
0.0000000000
10
6.0697685670
20
-14.9633132151
30
0.0000000000
10
6.0704119182
20
-14.9618730078
30
0.0000000000
11
6.0684795133
21
-14.9661925825
31
0.0000000000
11
6.0704119182
21
-14.9618730078
31
0.0000000000
0
SPLINE
5
3E9
100
AcDbEntity
8
0
100
AcDbSpline
62
0
6
CONTINUOUS
70
0
71
3
72
9
73
5
74
3
42
0.0000001000
43
0.0000001000
44
0.0000000001
12
-0.2426364285
22
-0.0090545155
32
0.0000000000
13
-0.2426407411
23
-0.0089382039
33
0.0000000000
40
0.0000000000
40
0.0000000000
40
0.0000000000
40
0.0000000000
40
0.5029630138
40
1.0000000000
40
1.0000000000
40
1.0000000000
40
1.0000000000
10
6.3130502488
20
-14.9528696728
30
0.0000000000
10
6.2723711990
20
-14.9543877016
30
0.0000000000
10
6.1914923631
20
-14.9574051956
30
0.0000000000
10
6.1106123924
20
-14.9603921352
30
0.0000000000
10
6.0704119182
20
-14.9618730078
30
0.0000000000
11
6.3130502488
21
-14.9528696728
31
0.0000000000
11
6.1910127858
21
-14.9574153480
31
0.0000000000
11
6.0704119182
21
-14.9618730078
31
0.0000000000
0
SPLINE
5
3EA
100
AcDbEntity
8
0
100
AcDbSpline
62
9
6
CONTINUOUS
70
0
71
3
72
9
73
5
74
3
42
0.0000001000
43
0.0000001000
44
0.0000000001
12
-0.0240336825
22
0.0349512379
32
0.0000000000
13
-0.0242343111
23
0.0348127356
33
0.0000000000
40
0.0000000000
40
0.0000000000
40
0.0000000000
40
0.0000000000
40
0.6661360037
40
1.0000000000
40
1.0000000000
40
1.0000000000
40
1.0000000000
10
6.5341692960
20
-14.9877904423
30
0.0000000000
10
6.5288327289
20
-14.9800296830
30
0.0000000000
10
6.5208215988
20
-14.9683791663
30
0.0000000000
10
6.5127658714
20
-14.9567594553
30
0.0000000000
10
6.5100688834
20
-14.9528852156
30
0.0000000000
11
6.5341692960
21
-14.9877904423
31
0.0000000000
11
6.5181399350
21
-14.9645216954
31
0.0000000000
11
6.5100688834
21
-14.9528852156
31
0.0000000000
0
SPLINE
5
3EB
100
AcDbEntity
8
0
100
AcDbSpline
62
9
6
CONTINUOUS
70
0
71
3
72
8
73
4
74
2
42
0.0000001000
43
0.0000001000
44
0.0000000001
12
-0.0019347555
22
0.0043185261
32
0.0000000000
13
-0.0019300536
23
0.0043206219
33
0.0000000000
40
0.0000000000
40
0.0000000000
40
0.0000000000
40
0.0000000000
40
1.0000000000
40
1.0000000000
40
1.0000000000
40
1.0000000000
10
-6.0711306714
20
-14.9661925825
30
0.0000000000
10
-6.0717755899
20
-14.9647530738
30
0.0000000000
10
-6.0724197250
20
-14.9633132151
30
0.0000000000
10
-6.0730630762
20
-14.9618730078
30
0.0000000000
11
-6.0711306714
21
-14.9661925825
31
0.0000000000
11
-6.0730630762
21
-14.9618730078
31
0.0000000000
0
SPLINE
5
3EC
100
AcDbEntity
8
0
100
AcDbSpline
62
9
6
CONTINUOUS
70
0
71
3
72
9
73
5
74
3
42
0.0000001000
43
0.0000001000
44
0.0000000001
12
0.0240336825
22
0.0349512379
32
0.0000000000
13
0.0242343111
23
0.0348127356
33
0.0000000000
40
0.0000000000
40
0.0000000000
40
0.0000000000
40
0.0000000000
40
0.6661360037
40
1.0000000000
40
1.0000000000
40
1.0000000000
40
1.0000000000
10
-6.5368204541
20
-14.9877904423
30
0.0000000000
10
-6.5314838870
20
-14.9800296830
30
0.0000000000
10
-6.5234727568
20
-14.9683791663
30
0.0000000000
10
-6.5154170295
20
-14.9567594553
30
0.0000000000
10
-6.5127200415
20
-14.9528852156
30
0.0000000000
11
-6.5368204541
21
-14.9877904423
31
0.0000000000
11
-6.5207910931
21
-14.9645216954
31
0.0000000000
11
-6.5127200415
21
-14.9528852156
31
0.0000000000
0
SPLINE
5
3ED
100
AcDbEntity
8
0
100
AcDbSpline
62
0
6
CONTINUOUS
70
0
71
3
72
9
73
5
74
3
42
0.0000001000
43
0.0000001000
44
0.0000000001
12
-0.2018888897
22
0.0074370200
32
0.0000000000
13
-0.2018854963
23
0.0075285964
33
0.0000000000
40
0.0000000000
40
0.0000000000
40
0.0000000000
40
0.0000000000
40
0.5981471374
40
1.0000000000
40
1.0000000000
40
1.0000000000
40
1.0000000000
10
-6.0730630762
20
-14.9618730078
30
0.0000000000
10
-6.1133161634
20
-14.9603901971
30
0.0000000000
10
-6.1806122299
20
-14.9579049130
30
0.0000000000
10
-6.2479075104
20
-14.9553984671
30
0.0000000000
10
-6.2749502652
20
-14.9543900045
30
0.0000000000
11
-6.0730630762
21
-14.9618730078
31
0.0000000000
11
-6.1938217812
21
-14.9574094947
31
0.0000000000
11
-6.2749502652
21
-14.9543900045
31
0.0000000000
0
SPLINE
5
3EE
100
AcDbEntity
8
0
100
AcDbSpline
62
0
6
CONTINUOUS
70
0
71
3
72
8
73
4
74
2
42
0.0000001000
43
0.0000001000
44
0.0000000001
12
-0.0407511664
22
0.0015196688
32
0.0000000000
13
-0.0407511270
23
0.0015207185
33
0.0000000000
40
0.0000000000
40
0.0000000000
40
0.0000000000
40
0.0000000000
40
1.0000000000
40
1.0000000000
40
1.0000000000
40
1.0000000000
10
-6.2749502652
20
-14.9543900045
30
0.0000000000
10
-6.2885339873
20
-14.9538834482
30
0.0000000000
10
-6.3021176978
20
-14.9533765790
30
0.0000000000
10
-6.3157014068
20
-14.9528696728
30
0.0000000000
11
-6.2749502652
21
-14.9543900045
31
0.0000000000
11
-6.3157014068
21
-14.9528696728
31
0.0000000000
0
SPLINE
5
3EF
100
AcDbEntity
8
0
100
AcDbSpline
62
0
6
CONTINUOUS
70
0
71
3
72
9
73
5
74
3
42
0.0000001000
43
0.0000001000
44
0.0000000001
12
0.2426364285
22
0.0090545155
32
0.0000000000
13
0.2426407411
23
0.0089382039
33
0.0000000000
40
0.0000000000
40
0.0000000000
40
0.0000000000
40
0.0000000000
40
0.5028621667
40
1.0000000000
40
1.0000000000
40
1.0000000000
40
1.0000000000
10
-6.3157014068
20
-11.0227112118
30
0.0000000000
10
-6.2750305134
20
-11.0211934874
30
0.0000000000
10
-6.1941516777
20
-11.0181759905
30
0.0000000000
10
-6.1132717070
20
-11.0151890500
30
0.0000000000
10
-6.0730630762
20
-11.0137078769
30
0.0000000000
11
-6.3157014068
21
-11.0227112118
31
0.0000000000
11
-6.1936884133
21
-11.0181664441
31
0.0000000000
11
-6.0730630762
21
-11.0137078769
31
0.0000000000
0
SPLINE
5
3F0
100
AcDbEntity
8
0
100
AcDbSpline
62
9
6
CONTINUOUS
70
0
71
3
72
9
73
5
74
3
42
0.0000001000
43
0.0000001000
44
0.0000000001
12
0.0240336825
22
-0.0349512379
32
0.0000000000
13
0.0242343111
23
-0.0348127356
33
0.0000000000
40
0.0000000000
40
0.0000000000
40
0.0000000000
40
0.0000000000
40
0.6661360037
40
1.0000000000
40
1.0000000000
40
1.0000000000
40
1.0000000000
10
-6.5368204541
20
-10.9877904423
30
0.0000000000
10
-6.5314838870
20
-10.9955512017
30
0.0000000000
10
-6.5234727568
20
-11.0072017184
30
0.0000000000
10
-6.5154170295
20
-11.0188214294
30
0.0000000000
10
-6.5127200415
20
-11.0226956691
30
0.0000000000
11
-6.5368204541
21
-10.9877904423
31
0.0000000000
11
-6.5207910931
21
-11.0110591893
31
0.0000000000
11
-6.5127200415
21
-11.0226956691
31
0.0000000000
0
SPLINE
5
3F1
100
AcDbEntity
8
0
100
AcDbSpline
62
9
6
CONTINUOUS
70
0
71
3
72
9
73
5
74
3
42
0.0000001000
43
0.0000001000
44
0.0000000001
12
-0.0240336825
22
-0.0349512379
32
0.0000000000
13
-0.0242343111
23
-0.0348127356
33
0.0000000000
40
0.0000000000
40
0.0000000000
40
0.0000000000
40
0.0000000000
40
0.6661360037
40
1.0000000000
40
1.0000000000
40
1.0000000000
40
1.0000000000
10
6.5341692960
20
-10.9877904423
30
0.0000000000
10
6.5288327289
20
-10.9955512017
30
0.0000000000
10
6.5208215988
20
-11.0072017184
30
0.0000000000
10
6.5127658714
20
-11.0188214294
30
0.0000000000
10
6.5100688834
20
-11.0226956691
30
0.0000000000
11
6.5341692960
21
-10.9877904423
31
0.0000000000
11
6.5181399350
21
-11.0110591893
31
0.0000000000
11
6.5100688834
21
-11.0226956691
31
0.0000000000
0
SPLINE
5
3F2
100
AcDbEntity
8
0
100
AcDbSpline
62
0
6
CONTINUOUS
70
0
71
3
72
9
73
5
74
3
42
0.0000001000
43
0.0000001000
44
0.0000000001
12
0.2018351326
22
-0.0074350398
32
0.0000000000
13
0.2018317409
23
-0.0075265683
33
0.0000000000
40
0.0000000000
40
0.0000000000
40
0.0000000000
40
0.0000000000
40
0.5978270337
40
1.0000000000
40
1.0000000000
40
1.0000000000
40
1.0000000000
10
6.0704119182
20
-11.0137078769
30
0.0000000000
10
6.1106327511
20
-11.0151894994
30
0.0000000000
10
6.1779108986
20
-11.0176741186
30
0.0000000000
10
6.2451882609
20
-11.0201798828
30
0.0000000000
10
6.2722453509
20
-11.0211888770
30
0.0000000000
11
6.0704119182
21
-11.0137078769
31
0.0000000000
11
6.1910738612
21
-11.0181678016
31
0.0000000000
11
6.2722453509
21
-11.0211888770
31
0.0000000000
0
SPLINE
5
3F3
100
AcDbEntity
8
0
100
AcDbSpline
62
0
6
CONTINUOUS
70
0
71
3
72
8
73
4
74
2
42
0.0000001000
43
0.0000001000
44
0.0000000001
12
0.0408049228
22
-0.0015216687
32
0.0000000000
13
0.0408048832
23
-0.0015227246
33
0.0000000000
40
0.0000000000
40
0.0000000000
40
0.0000000000
40
0.0000000000
40
1.0000000000
40
1.0000000000
40
1.0000000000
40
1.0000000000
10
6.2722453509
20
-11.0211888770
30
0.0000000000
10
6.2858469918
20
-11.0216960998
30
0.0000000000
10
6.2994486210
20
-11.0222036370
30
0.0000000000
10
6.3130502488
20
-11.0227112118
30
0.0000000000
11
6.2722453509
21
-11.0211888770
31
0.0000000000
11
6.3130502488
21
-11.0227112118
31
0.0000000000
0
SPLINE
5
3F4
100
AcDbEntity
8
0
100
AcDbSpline
62
0
6
CONTINUOUS
70
0
71
3
72
10
73
6
74
4
42
0.0000001000
43
0.0000001000
44
0.0000000001
12
0.0935603073
22
0.1769965789
32
0.0000000000
13
0.2002031969
23
-0.0000001616
33
0.0000000000
40
0.0000000000
40
0.0000000000
40
0.0000000000
40
0.0000000000
40
0.1404419789
40
0.5054229655
40
1.0000000000
40
1.0000000000
40
1.0000000000
40
1.0000000000
10
-9.8026435356
20
19.7004674796
30
0.0000000000
10
-9.7982636040
20
19.7087533962
30
0.0000000000
10
-9.7537449914
20
19.6971507271
30
0.0000000000
10
-9.6962402592
20
19.7106026793
30
0.0000000000
10
-9.6356792977
20
19.7070693198
30
0.0000000000
10
-9.6026739966
20
19.7070692931
30
0.0000000000
11
-9.8026435356
21
19.7004674796
31
0.0000000000
11
-9.7747160755
21
19.7037261454
31
0.0000000000
11
-9.7016855162
21
19.7061375692
31
0.0000000000
11
-9.6026739966
21
19.7070692931
31
0.0000000000
0
SPLINE
5
3F5
100
AcDbEntity
8
0
100
AcDbSpline
62
9
6
CONTINUOUS
70
0
71
3
72
10
73
6
74
4
42
0.0000001000
43
0.0000001000
44
0.0000000001
12
0.0000945766
22
0.3105082439
32
0.0000000000
13
0.3105082439
23
0.0000945766
33
0.0000000000
40
0.0000000000
40
0.0000000000
40
0.0000000000
40
0.0000000000
40
0.3333248798
40
0.6666751249
40
1.0000000000
40
1.0000000000
40
1.0000000000
40
1.0000000000
10
-9.8043585788
20
20.0652730184
30
0.0000000000
10
-9.8043480706
20
20.0997730594
30
0.0000000000
10
-9.7855846962
20
20.1700931044
30
0.0000000000
10
-9.7092091248
20
20.2464686753
30
0.0000000000
10
-9.6388890803
20
20.2652320492
30
0.0000000000
10
-9.6043890398
20
20.2652425574
30
0.0000000000
11
-9.8043585788
21
20.0652730184
31
0.0000000000
11
-9.7775474420
21
20.1652402101
31
0.0000000000
11
-9.7043562301
21
20.2384314214
31
0.0000000000
11
-9.6043890398
21
20.2652425574
31
0.0000000000
0
SPLINE
5
3F6
100
AcDbEntity
8
0
100
AcDbSpline
62
0
6
CONTINUOUS
70
0
71
3
72
10
73
6
74
4
42
0.0000001000
43
0.0000001000
44
0.0000000001
12
0.0000000000
22
0.3105397744
32
0.0000000000
13
0.3105397744
23
0.0000000000
33
0.0000000000
40
0.0000000000
40
0.0000000000
40
0.0000000000
40
0.0000000000
40
0.3333500763
40
0.6666504336
40
1.0000000000
40
1.0000000000
40
1.0000000000
40
1.0000000000
10
-9.9013255790
20
20.1622400186
30
0.0000000000
10
-9.9013255790
20
20.1967461711
30
0.0000000000
10
-9.8825834841
20
20.2670796556
30
0.0000000000
10
-9.8061955657
20
20.3434675091
30
0.0000000000
10
-9.7358621397
20
20.3622095577
30
0.0000000000
10
-9.7013560400
20
20.3622095577
30
0.0000000000
11
-9.9013255790
21
20.1622400186
31
0.0000000000
11
-9.8745354002
21
20.2622318051
31
0.0000000000
11
-9.8013476845
21
20.3354194608
31
0.0000000000
11
-9.7013560400
21
20.3622095577
31
0.0000000000
0
SPLINE
5
3F7
100
AcDbEntity
8
0
100
AcDbSpline
62
0
6
CONTINUOUS
70
0
71
3
72
10
73
6
74
4
42
0.0000001000
43
0.0000001000
44
0.0000000001
12
0.0935594905
22
-0.1769971533
32
0.0000000000
13
0.2002033230
23
0.0000001408
33
0.0000000000
40
0.0000000000
40
0.0000000000
40
0.0000000000
40
0.0000000000
40
0.1404394153
40
0.5054285409
40
1.0000000000
40
1.0000000000
40
1.0000000000
40
1.0000000000
10
-9.8026435356
20
-19.6760483643
30
0.0000000000
10
-9.7982637222
20
-19.6843341565
30
0.0000000000
10
-9.7537448732
20
-19.6727340253
30
0.0000000000
10
-9.6962400610
20
-19.6861843824
30
0.0000000000
10
-9.6356789464
20
-19.6826502010
30
0.0000000000
10
-9.6026739966
20
-19.6826501778
30
0.0000000000
11
-9.8026435356
21
-19.6760483643
31
0.0000000000
11
-9.7747167074
21
-19.6793081693
31
0.0000000000
11
-9.7016844736
21
-19.6817196512
31
0.0000000000
11
-9.6026739966
21
-19.6826501778
31
0.0000000000
0
SPLINE
5
3F8
100
AcDbEntity
8
0
100
AcDbSpline
62
0
6
CONTINUOUS
70
0
71
3
72
10
73
6
74
4
42
0.0000001000
43
0.0000001000
44
0.0000000001
12
-0.0935594899
22
-0.1769971526
32
0.0000000000
13
-0.2002033221
23
0.0000001408
33
0.0000000000
40
0.0000000000
40
0.0000000000
40
0.0000000000
40
0.0000000000
40
0.1404425094
40
0.5054232647
40
1.0000000000
40
1.0000000000
40
1.0000000000
40
1.0000000000
10
9.7999923775
20
-19.6760483643
30
0.0000000000
10
9.7956124677
20
-19.6843343390
30
0.0000000000
10
9.7510940053
20
-19.6727341656
30
0.0000000000
10
9.6935890514
20
-19.6861844023
30
0.0000000000
10
9.6330281403
20
-19.6826502010
30
0.0000000000
10
9.6000228385
20
-19.6826501778
30
0.0000000000
11
9.7999923775
21
-19.6760483643
31
0.0000000000
11
9.7720649299
21
-19.6793082044
31
0.0000000000
11
9.6990343713
21
-19.6817196310
31
0.0000000000
11
9.6000228385
21
-19.6826501778
31
0.0000000000
0
SPLINE
5
3F9
100
AcDbEntity
8
0
100
AcDbSpline
62
9
6
CONTINUOUS
70
0
71
3
72
10
73
6
74
4
42
0.0000001000
43
0.0000001000
44
0.0000000001
12
0.0000945766
22
-0.3105082439
32
0.0000000000
13
0.3105082439
23
-0.0000945766
33
0.0000000000
40
0.0000000000
40
0.0000000000
40
0.0000000000
40
0.0000000000
40
0.3333248774
40
0.6666751226
40
1.0000000000
40
1.0000000000
40
1.0000000000
40
1.0000000000
10
-9.8043585788
20
-20.0408539031
30
0.0000000000
10
-9.8043480706
20
-20.0753539439
30
0.0000000000
10
-9.7855846964
20
-20.1456739886
30
0.0000000000
10
-9.7092091253
20
-20.2220495597
30
0.0000000000
10
-9.6388890806
20
-20.2408129339
30
0.0000000000
10
-9.6043890398
20
-20.2408234421
30
0.0000000000
11
-9.8043585788
21
-20.0408539031
31
0.0000000000
11
-9.7775474424
21
-20.1408210941
31
0.0000000000
11
-9.7043562308
21
-20.2140123057
31
0.0000000000
11
-9.6043890398
21
-20.2408234421
31
0.0000000000
0
SPLINE
5
3FA
100
AcDbEntity
8
0
100
AcDbSpline
62
0
6
CONTINUOUS
70
0
71
3
72
10
73
6
74
4
42
0.0000001000
43
0.0000001000
44
0.0000000001
12
-0.2741695677
22
0.0000000000
32
0.0000000000
13
-0.0510244190
23
0.2724620213
33
0.0000000000
40
0.0000000000
40
0.0000000000
40
0.0000000000
40
0.0000000000
40
0.3775703482
40
0.7550849595
40
1.0000000000
40
1.0000000000
40
1.0000000000
40
1.0000000000
10
-9.7013560400
20
-20.3377904423
30
0.0000000000
10
-9.7358621397
20
-20.3377904423
30
0.0000000000
10
-9.8061955657
20
-20.3190483938
30
0.0000000000
10
-9.8736369832
20
-20.2516070336
30
0.0000000000
10
-9.8937469515
20
-20.1964408206
30
0.0000000000
10
-9.8979125007
20
-20.1741974716
30
0.0000000000
11
-9.7013560400
21
-20.3377904423
31
0.0000000000
11
-9.8013476845
21
-20.3110003455
31
0.0000000000
11
-9.8745354002
21
-20.2378126897
31
0.0000000000
11
-9.8979125007
21
-20.1741974716
31
0.0000000000
0
SPLINE
5
3FB
100
AcDbEntity
8
0
100
AcDbSpline
62
0
6
CONTINUOUS
70
0
71
3
72
8
73
4
74
2
42
0.0000001000
43
0.0000001000
44
0.0000000001
12
-0.0067686895
22
0.0361436906
32
0.0000000000
13
0.0000000000
23
0.0363702067
33
0.0000000000
40
0.0000000000
40
0.0000000000
40
0.0000000000
40
0.0000000000
40
1.0000000000
40
1.0000000000
40
1.0000000000
40
1.0000000000
10
-9.8979125007
20
-20.1741974716
30
0.0000000000
10
-9.9001687306
20
-20.1621495747
30
0.0000000000
10
-9.9013255790
20
-20.1499443055
30
0.0000000000
10
-9.9013255790
20
-20.1378209033
30
0.0000000000
11
-9.8979125007
21
-20.1741974716
31
0.0000000000
11
-9.9013255790
21
-20.1378209033
31
0.0000000000
0
SPLINE
5
3FC
100
AcDbEntity
8
0
100
AcDbSpline
62
9
6
CONTINUOUS
70
0
71
3
72
10
73
6
74
4
42
0.0000001000
43
0.0000001000
44
0.0000000001
12
-0.0000945766
22
-0.3105082439
32
0.0000000000
13
-0.3105082439
23
-0.0000945766
33
0.0000000000
40
0.0000000000
40
0.0000000000
40
0.0000000000
40
0.0000000000
40
0.3333247438
40
0.6666749967
40
1.0000000000
40
1.0000000000
40
1.0000000000
40
1.0000000000
10
9.8017074208
20
-20.0408539031
30
0.0000000000
10
9.8016969125
20
-20.0753539300
30
0.0000000000
10
9.7829335503
20
-20.1456739602
30
0.0000000000
10
9.7065579955
20
-20.2220495481
30
0.0000000000
10
9.6362379355
20
-20.2408129339
30
0.0000000000
10
9.6017378817
20
-20.2408234421
30
0.0000000000
11
9.8017074208
21
-20.0408539031
31
0.0000000000
11
9.7748963058
21
-20.1408210569
31
0.0000000000
11
9.7017051078
21
-20.2140122854
31
0.0000000000
11
9.6017378817
21
-20.2408234421
31
0.0000000000
0
SPLINE
5
3FD
100
AcDbEntity
8
0
100
AcDbSpline
62
9
6
CONTINUOUS
70
0
71
3
72
13
73
9
74
7
42
0.0000001000
43
0.0000001000
44
0.0000000001
12
-0.0000002463
22
0.2999605109
32
0.0000000000
13
0.0954109358
23
0.2843818936
33
0.0000000000
40
0.0000000000
40
0.0000000000
40
0.0000000000
40
0.0000000000
40
0.1657964109
40
0.3442973830
40
0.5288350145
40
0.7058246692
40
0.8562072513
40
1.0000000000
40
1.0000000000
40
1.0000000000
40
1.0000000000
10
9.6000228408
20
19.9652929501
30
0.0000000000
10
9.6000228272
20
19.9818704088
30
0.0000000000
10
9.6000524807
20
20.0162932033
30
0.0000000000
10
9.6000691415
20
20.0691813860
30
0.0000000000
10
9.6004593538
20
20.1231325865
30
0.0000000000
10
9.5998626572
20
20.1744681906
30
0.0000000000
10
9.6027613557
20
20.2211033079
30
0.0000000000
10
9.5971647481
20
20.2516118727
30
0.0000000000
10
9.6017378817
20
20.2652425574
30
0.0000000000
11
9.6000228408
21
19.9652929501
31
0.0000000000
11
9.6000470254
21
20.0150253204
31
0.0000000000
11
9.6001296043
21
20.0685684995
31
0.0000000000
11
9.6002869479
21
20.1239222781
31
0.0000000000
11
9.6005318653
21
20.1770116204
31
0.0000000000
11
9.6008664048
21
20.2221192160
31
0.0000000000
11
9.6017378817
21
20.2652425574
31
0.0000000000
0
SPLINE
5
3FE
100
AcDbEntity
8
0
100
AcDbSpline
62
9
6
CONTINUOUS
70
0
71
3
72
12
73
8
74
6
42
0.0000001000
43
0.0000001000
44
0.0000000001
12
0.0945377513
22
-0.2846653306
32
0.0000000000
13
-0.0000006435
23
-0.2999528911
33
0.0000000000
40
0.0000000000
40
0.0000000000
40
0.0000000000
40
0.0000000000
40
0.1752215306
40
0.3242607681
40
0.5187349349
40
0.7489634834
40
1.0000000000
40
1.0000000000
40
1.0000000000
40
1.0000000000
10
-9.6043890420
20
20.2652425642
30
0.0000000000
10
-9.5988673589
20
20.2486160659
30
0.0000000000
10
-9.6053175775
20
20.2149678469
30
0.0000000000
10
-9.6024533419
20
20.1635614936
30
0.0000000000
10
-9.6030874209
20
20.1060407651
30
0.0000000000
10
-9.6026325140
20
20.0385325854
30
0.0000000000
10
-9.6026739515
20
19.9903998092
30
0.0000000000
10
-9.6026740053
20
19.9653000996
30
0.0000000000
11
-9.6043890420
21
20.2652425642
31
0.0000000000
11
-9.6034321097
21
20.2126930717
31
0.0000000000
11
-9.6031327212
21
20.1679893241
31
0.0000000000
11
-9.6028895414
21
20.1096567424
31
0.0000000000
11
-9.6027301490
21
20.0405992076
31
0.0000000000
11
-9.6026740053
21
19.9653000996
31
0.0000000000
0
SPLINE
5
3FF
100
AcDbEntity
8
0
100
AcDbSpline
62
9
6
CONTINUOUS
70
0
71
3
72
10
73
6
74
4
42
0.0000001000
43
0.0000001000
44
0.0000000001
12
-0.0000945766
22
0.3105082439
32
0.0000000000
13
-0.3105082439
23
0.0000945766
33
0.0000000000
40
0.0000000000
40
0.0000000000
40
0.0000000000
40
0.0000000000
40
0.3333248773
40
0.6666751224
40
1.0000000000
40
1.0000000000
40
1.0000000000
40
1.0000000000
10
9.8017074208
20
20.0652730184
30
0.0000000000
10
9.8016969125
20
20.0997730592
30
0.0000000000
10
9.7829335384
20
20.1700931039
30
0.0000000000
10
9.7065579673
20
20.2464686750
30
0.0000000000
10
9.6362379225
20
20.2652320492
30
0.0000000000
10
9.6017378817
20
20.2652425574
30
0.0000000000
11
9.8017074208
21
20.0652730184
31
0.0000000000
11
9.7748962843
21
20.1652402094
31
0.0000000000
11
9.7017050728
21
20.2384314210
31
0.0000000000
11
9.6017378817
21
20.2652425574
31
0.0000000000
0
SPLINE
5
400
100
AcDbEntity
8
0
100
AcDbSpline
62
9
6
CONTINUOUS
70
0
71
3
72
9
73
5
74
3
42
0.0000001000
43
0.0000001000
44
0.0000000001
12
0.1468705224
22
0.0201855055
32
0.0000000000
13
0.0114188618
23
0.1478107390
33
0.0000000000
40
0.0000000000
40
0.0000000000
40
0.0000000000
40
0.0000000000
40
0.4861579297
40
1.0000000000
40
1.0000000000
40
1.0000000000
40
1.0000000000
10
3.4962187509
20
-20.2399461399
30
0.0000000000
10
3.5200195072
20
-20.2366750254
30
0.0000000000
10
3.5158966429
20
-20.1611495396
30
0.0000000000
10
3.5255938291
20
-20.1212506909
30
0.0000000000
10
3.5275496597
20
-20.0959335655
30
0.0000000000
11
3.4962187509
21
-20.2399461399
31
0.0000000000
11
3.5192771433
21
-20.1716607368
31
0.0000000000
11
3.5275496597
21
-20.0959335655
31
0.0000000000
0
SPLINE
5
401
100
AcDbEntity
8
0
100
AcDbSpline
62
9
6
CONTINUOUS
70
0
71
3
72
9
73
5
74
3
42
0.0000001000
43
0.0000001000
44
0.0000000001
12
-0.1468950503
22
0.0205945447
32
0.0000000000
13
-0.0114239789
23
0.1478911214
33
0.0000000000
40
0.0000000000
40
0.0000000000
40
0.0000000000
40
0.0000000000
40
0.4862860815
40
1.0000000000
40
1.0000000000
40
1.0000000000
40
1.0000000000
10
-3.4988698951
20
-20.2400277430
30
0.0000000000
10
-3.5226809012
20
-20.2366894629
30
0.0000000000
10
-3.5185402683
20
-20.1612094817
30
0.0000000000
10
-3.5282441002
20
-20.1212556618
30
0.0000000000
10
-3.5302003192
20
-20.0959310860
30
0.0000000000
11
-3.4988698951
21
-20.2400277430
31
0.0000000000
11
-3.5219276950
21
-20.1716807532
31
0.0000000000
11
-3.5302003192
21
-20.0959310860
31
0.0000000000
0
SPLINE
5
402
100
AcDbEntity
8
0
100
AcDbSpline
62
0
6
CONTINUOUS
70
0
71
3
72
10
73
6
74
4
42
0.0000001000
43
0.0000001000
44
0.0000000001
12
0.2741695677
22
0.0000000000
32
0.0000000000
13
0.0510244190
23
-0.2724620213
33
0.0000000000
40
0.0000000000
40
0.0000000000
40
0.0000000000
40
0.0000000000
40
0.3775703482
40
0.7550849595
40
1.0000000000
40
1.0000000000
40
1.0000000000
40
1.0000000000
10
9.6987048819
20
20.3622095577
30
0.0000000000
10
9.7332109817
20
20.3622095577
30
0.0000000000
10
9.8035444076
20
20.3434675091
30
0.0000000000
10
9.8709858251
20
20.2760261489
30
0.0000000000
10
9.8910957935
20
20.2208599359
30
0.0000000000
10
9.8952613427
20
20.1986165869
30
0.0000000000
11
9.6987048819
21
20.3622095577
31
0.0000000000
11
9.7986965264
21
20.3354194608
31
0.0000000000
11
9.8718842422
21
20.2622318051
31
0.0000000000
11
9.8952613427
21
20.1986165869
31
0.0000000000
0
SPLINE
5
403
100
AcDbEntity
8
0
100
AcDbSpline
62
0
6
CONTINUOUS
70
0
71
3
72
8
73
4
74
2
42
0.0000001000
43
0.0000001000
44
0.0000000001
12
0.0067686895
22
-0.0361436906
32
0.0000000000
13
0.0000000000
23
-0.0363702067
33
0.0000000000
40
0.0000000000
40
0.0000000000
40
0.0000000000
40
0.0000000000
40
1.0000000000
40
1.0000000000
40
1.0000000000
40
1.0000000000
10
9.8952613427
20
20.1986165869
30
0.0000000000
10
9.8975175725
20
20.1865686900
30
0.0000000000
10
9.8986744210
20
20.1743634209
30
0.0000000000
10
9.8986744210
20
20.1622400186
30
0.0000000000
11
9.8952613427
21
20.1986165869
31
0.0000000000
11
9.8986744210
21
20.1622400186
31
0.0000000000
0
SPLINE
5
404
100
AcDbEntity
8
0
100
AcDbSpline
62
0
6
CONTINUOUS
70
0
71
3
72
10
73
6
74
4
42
0.0000001000
43
0.0000001000
44
0.0000000001
12
-0.0935603079
22
0.1769965796
32
0.0000000000
13
-0.2002031978
23
-0.0000001616
33
0.0000000000
40
0.0000000000
40
0.0000000000
40
0.0000000000
40
0.0000000000
40
0.1404388933
40
0.5054282272
40
1.0000000000
40
1.0000000000
40
1.0000000000
40
1.0000000000
10
9.7999923775
20
19.7004674796
30
0.0000000000
10
9.7956125422
20
19.7087532142
30
0.0000000000
10
9.7510935441
20
19.6971505871
30
0.0000000000
10
9.6935889531
20
19.7106026594
30
0.0000000000
10
9.6330277887
20
19.7070693198
30
0.0000000000
10
9.6000228385
20
19.7070692931
30
0.0000000000
11
9.7999923775
21
19.7004674796
31
0.0000000000
11
9.7720655352
21
19.7037261104
31
0.0000000000
11
9.6990333053
21
19.7061375894
31
0.0000000000
11
9.6000228385
21
19.7070692931
31
0.0000000000
0
SPLINE
5
405
100
AcDbEntity
8
0
100
AcDbSpline
62
9
6
CONTINUOUS
70
0
71
3
72
13
73
9
74
7
42
0.0000001000
43
0.0000001000
44
0.0000000001
12
-0.0000000160
22
-0.2999655167
32
0.0000000000
13
-0.0949482455
23
-0.2845419862
33
0.0000000000
40
0.0000000000
40
0.0000000000
40
0.0000000000
40
0.0000000000
40
0.1755344721
40
0.3628645451
40
0.5512498476
40
0.7254443984
40
0.8682066335
40
1.0000000000
40
1.0000000000
40
1.0000000000
40
1.0000000000
10
-9.6026739964
20
-19.9408688300
30
0.0000000000
10
-9.6026739974
20
-19.9584202596
30
0.0000000000
10
-9.6027070121
20
-19.9946998513
30
0.0000000000
10
-9.6027258575
20
-20.0498312720
30
0.0000000000
10
-9.6031404015
20
-20.1047689962
30
0.0000000000
10
-9.6025515132
20
-20.1554491029
30
0.0000000000
10
-9.6053248233
20
-20.1998666438
30
0.0000000000
10
-9.6002177896
20
-20.2283229892
30
0.0000000000
10
-9.6043889726
20
-20.2408232379
30
0.0000000000
11
-9.6026739964
21
-19.9408688300
31
0.0000000000
11
-9.6027011160
21
-19.9935231117
31
0.0000000000
11
-9.6027930385
21
-20.0497155986
31
0.0000000000
11
-9.6029632527
21
-20.1062244369
31
0.0000000000
11
-9.6032180937
21
-20.1584761739
31
0.0000000000
11
-9.6035530341
21
-20.2012986116
31
0.0000000000
11
-9.6043889726
21
-20.2408232379
31
0.0000000000
0
SPLINE
5
406
100
AcDbEntity
8
0
100
AcDbSpline
62
9
6
CONTINUOUS
70
0
71
3
72
12
73
8
74
6
42
0.0000001000
43
0.0000001000
44
0.0000000001
12
-0.0949437716
22
0.2845428797
32
0.0000000000
13
0.0000002949
23
0.2999649482
33
0.0000000000
40
0.0000000000
40
0.0000000000
40
0.0000000000
40
0.0000000000
40
0.1603703071
40
0.3037018166
40
0.4979767162
40
0.7354621346
40
1.0000000000
40
1.0000000000
40
1.0000000000
40
1.0000000000
10
9.6017378817
20
-20.2408234421
30
0.0000000000
10
9.5966624945
20
-20.2256126991
30
0.0000000000
10
9.6026263333
20
-20.1940976210
30
0.0000000000
10
9.5998149048
20
-20.1447585132
30
0.0000000000
10
9.6004693270
20
-20.0870931662
30
0.0000000000
10
9.5999757710
20
-20.0175318229
30
0.0000000000
10
9.6000228125
20
-19.9673198293
30
0.0000000000
10
9.6000228385
20
-19.9408691336
30
0.0000000000
11
9.6017378817
21
-20.2408234421
31
0.0000000000
11
9.6008198776
21
-20.1927267313
31
0.0000000000
11
9.6005153124
21
-20.1497333812
31
0.0000000000
11
9.6002587185
21
-20.0914582859
31
0.0000000000
11
9.6000851063
21
-20.0202211962
31
0.0000000000
11
9.6000228385
21
-19.9408691336
31
0.0000000000
0
SPLINE
5
407
100
AcDbEntity
8
0
100
AcDbSpline
62
0
6
CONTINUOUS
70
0
71
3
72
10
73
6
74
4
42
0.0000001000
43
0.0000001000
44
0.0000000001
12
0.0000000000
22
-0.3105397744
32
0.0000000000
13
-0.3105397744
23
-0.0000000000
33
0.0000000000
40
0.0000000000
40
0.0000000000
40
0.0000000000
40
0.0000000000
40
0.3333500763
40
0.6666504336
40
1.0000000000
40
1.0000000000
40
1.0000000000
40
1.0000000000
10
9.8986744210
20
-20.1378209033
30
0.0000000000
10
9.8986744210
20
-20.1723270558
30
0.0000000000
10
9.8799323261
20
-20.2426605403
30
0.0000000000
10
9.8035444076
20
-20.3190483938
30
0.0000000000
10
9.7332109817
20
-20.3377904423
30
0.0000000000
10
9.6987048819
20
-20.3377904423
30
0.0000000000
11
9.8986744210
21
-20.1378209033
31
0.0000000000
11
9.8718842422
21
-20.2378126897
31
0.0000000000
11
9.7986965264
21
-20.3110003455
31
0.0000000000
11
9.6987048819
21
-20.3377904423
31
0.0000000000
0
SPLINE
5
408
100
AcDbEntity
8
0
100
AcDbSpline
62
0
6
CONTINUOUS
70
0
71
3
72
10
73
6
74
4
42
0.0000001000
43
0.0000001000
44
0.0000000001
12
0.2000361656
22
-0.0000000018
32
0.0000000000
13
0.1415661040
23
0.1413276538
33
0.0000000000
40
0.0000000000
40
0.0000000000
40
0.0000000000
40
0.0000000000
40
0.4939061932
40
0.8585863064
40
1.0000000000
40
1.0000000000
40
1.0000000000
40
1.0000000000
10
9.5917806339
20
-10.2960305691
30
0.0000000000
10
9.6247136676
20
-10.2960305694
30
0.0000000000
10
9.6837402218
20
-10.2994040379
30
0.0000000000
10
9.7452888897
20
-10.2880685790
30
0.0000000000
10
9.7850791358
20
-10.2992623576
30
0.0000000000
10
9.7917522644
20
-10.2926004691
30
0.0000000000
11
9.5917806339
21
-10.2960305691
31
0.0000000000
11
9.6905786836
21
-10.2955747824
31
0.0000000000
11
9.7635172513
21
-10.2943286663
31
0.0000000000
11
9.7917522644
21
-10.2926004691
31
0.0000000000
0
SPLINE
5
409
100
AcDbEntity
8
0
100
AcDbSpline
62
0
6
CONTINUOUS
70
0
71
3
72
10
73
6
74
4
42
0.0000001000
43
0.0000001000
44
0.0000000001
12
-0.1415446682
22
0.1413542943
32
0.0000000000
13
-0.2000398201
23
-0.0000000014
33
0.0000000000
40
0.0000000000
40
0.0000000000
40
0.0000000000
40
0.0000000000
40
0.1415093173
40
0.5062463800
40
1.0000000000
40
1.0000000000
40
1.0000000000
40
1.0000000000
10
9.7913953806
20
-9.6826235317
30
0.0000000000
10
9.7847187508
20
-9.6759558819
30
0.0000000000
10
9.7449129155
20
-9.6871541160
30
0.0000000000
10
9.6833648513
20
-9.6758176751
30
0.0000000000
10
9.6243436888
20
-9.6791896576
30
0.0000000000
10
9.5914202270
20
-9.6791896578
30
0.0000000000
11
9.7913953806
21
-9.6826235317
31
0.0000000000
11
9.7631408347
21
-9.6808928949
31
0.0000000000
11
9.6901895598
21
-9.6796456360
31
0.0000000000
11
9.5914202270
21
-9.6791896578
31
0.0000000000
0
SPLINE
5
40A
100
AcDbEntity
8
0
100
AcDbSpline
62
0
6
CONTINUOUS
70
0
71
3
72
10
73
6
74
4
42
0.0000001000
43
0.0000001000
44
0.0000000001
12
-0.2000398201
22
0.0000000014
32
0.0000000000
13
-0.1415446684
23
-0.1413542942
33
0.0000000000
40
0.0000000000
40
0.0000000000
40
0.0000000000
40
0.0000000000
40
0.4937536200
40
0.8584906827
40
1.0000000000
40
1.0000000000
40
1.0000000000
40
1.0000000000
10
-9.5940713851
20
-9.6791896578
30
0.0000000000
10
-9.6269948469
20
-9.6791896576
30
0.0000000000
10
-9.6860160093
20
-9.6758176751
30
0.0000000000
10
-9.7475640735
20
-9.6871541160
30
0.0000000000
10
-9.7873699088
20
-9.6759558819
30
0.0000000000
10
-9.7940465386
20
-9.6826235317
30
0.0000000000
11
-9.5940713851
21
-9.6791896578
31
0.0000000000
11
-9.6928407179
21
-9.6796456360
31
0.0000000000
11
-9.7657919928
21
-9.6808928949
31
0.0000000000
11
-9.7940465386
21
-9.6826235317
31
0.0000000000
0
SPLINE
5
40B
100
AcDbEntity
8
0
100
AcDbSpline
62
0
6
CONTINUOUS
70
0
71
3
72
10
73
6
74
4
42
0.0000001000
43
0.0000001000
44
0.0000000001
12
0.1415661042
22
-0.1413276537
32
0.0000000000
13
0.2000361656
23
0.0000000018
33
0.0000000000
40
0.0000000000
40
0.0000000000
40
0.0000000000
40
0.0000000000
40
0.1414136936
40
0.5060938068
40
1.0000000000
40
1.0000000000
40
1.0000000000
40
1.0000000000
10
-9.7944034224
20
-10.2926004691
30
0.0000000000
10
-9.7877302939
20
-10.2992623576
30
0.0000000000
10
-9.7479400478
20
-10.2880685790
30
0.0000000000
10
-9.6863913798
20
-10.2994040379
30
0.0000000000
10
-9.6273648257
20
-10.2960305694
30
0.0000000000
10
-9.5944317920
20
-10.2960305691
30
0.0000000000
11
-9.7944034224
21
-10.2926004691
31
0.0000000000
11
-9.7661684094
21
-10.2943286663
31
0.0000000000
11
-9.6932298417
21
-10.2955747824
31
0.0000000000
11
-9.5944317920
21
-10.2960305691
31
0.0000000000
0
SPLINE
5
40C
100
AcDbEntity
8
0
100
AcDbSpline
62
0
6
CONTINUOUS
70
0
71
3
72
10
73
6
74
4
42
0.0000001000
43
0.0000001000
44
0.0000000001
12
-0.1415935899
22
0.1413058574
32
0.0000000000
13
-0.2000402210
23
-0.0000000022
33
0.0000000000
40
0.0000000000
40
0.0000000000
40
0.0000000000
40
0.0000000000
40
0.1414539305
40
0.5061574823
40
1.0000000000
40
1.0000000000
40
1.0000000000
40
1.0000000000
10
9.7954963567
20
15.3132754921
30
0.0000000000
10
9.7888200335
20
15.3199382484
30
0.0000000000
10
9.7490264137
20
15.3087459207
30
0.0000000000
10
9.6874741361
20
15.3200789261
30
0.0000000000
10
9.6284501758
20
15.3167070985
30
0.0000000000
10
9.5955207203
20
15.3167070981
30
0.0000000000
11
9.7954963567
21
15.3132754921
31
0.0000000000
11
9.7672527633
21
15.3150046409
31
0.0000000000
11
9.6943080348
21
15.3162512078
31
0.0000000000
11
9.5955207203
21
15.3167070981
31
0.0000000000
0
SPLINE
5
40D
100
AcDbEntity
8
0
100
AcDbSpline
62
0
6
CONTINUOUS
70
0
71
3
72
10
73
6
74
4
42
0.0000001000
43
0.0000001000
44
0.0000000001
12
0.2000457144
22
-0.0000000019
32
0.0000000000
13
0.1415779482
23
0.1413293050
33
0.0000000000
40
0.0000000000
40
0.0000000000
40
0.0000000000
40
0.0000000000
40
0.4936112202
40
0.8584008113
40
1.0000000000
40
1.0000000000
40
1.0000000000
40
1.0000000000
10
9.5949861465
20
14.7071770671
30
0.0000000000
10
9.6279010829
20
14.7071770668
30
0.0000000000
10
9.6869163147
20
14.7038080123
30
0.0000000000
10
9.7484691677
20
14.7151410286
30
0.0000000000
10
9.7882846387
20
14.7039436411
30
0.0000000000
10
9.7949670796
20
14.7106143461
30
0.0000000000
11
9.5949861465
21
14.7071770671
31
0.0000000000
11
9.6937299019
21
14.7076332554
31
0.0000000000
11
9.7666938192
21
14.7088815342
31
0.0000000000
11
9.7949670796
21
14.7106143461
31
0.0000000000
0
SPLINE
5
40E
100
AcDbEntity
8
0
100
AcDbSpline
62
0
6
CONTINUOUS
70
0
71
3
72
10
73
6
74
4
42
0.0000001000
43
0.0000001000
44
0.0000000001
12
0.1415779476
22
-0.1413293056
32
0.0000000000
13
0.2000457144
23
0.0000000019
33
0.0000000000
40
0.0000000000
40
0.0000000000
40
0.0000000000
40
0.0000000000
40
0.1415991887
40
0.5063887798
40
1.0000000000
40
1.0000000000
40
1.0000000000
40
1.0000000000
10
-9.7976182376
20
14.7106143461
30
0.0000000000
10
-9.7909357968
20
14.7039436411
30
0.0000000000
10
-9.7511203258
20
14.7151410286
30
0.0000000000
10
-9.6895674728
20
14.7038080123
30
0.0000000000
10
-9.6305522410
20
14.7071770668
30
0.0000000000
10
-9.5976373046
20
14.7071770671
30
0.0000000000
11
-9.7976182376
21
14.7106143461
31
0.0000000000
11
-9.7693449773
21
14.7088815342
31
0.0000000000
11
-9.6963810600
21
14.7076332554
31
0.0000000000
11
-9.5976373046
21
14.7071770671
31
0.0000000000
0
SPLINE
5
40F
100
AcDbEntity
8
0
100
AcDbSpline
62
0
6
CONTINUOUS
70
0
71
3
72
10
73
6
74
4
42
0.0000001000
43
0.0000001000
44
0.0000000001
12
-0.2000402210
22
0.0000000022
32
0.0000000000
13
-0.1415935892
23
-0.1413058581
33
0.0000000000
40
0.0000000000
40
0.0000000000
40
0.0000000000
40
0.0000000000
40
0.4938425178
40
0.8585460695
40
1.0000000000
40
1.0000000000
40
1.0000000000
40
1.0000000000
10
-9.5981718784
20
15.3167070981
30
0.0000000000
10
-9.6311013339
20
15.3167070985
30
0.0000000000
10
-9.6901252942
20
15.3200789261
30
0.0000000000
10
-9.7516775717
20
15.3087459206
30
0.0000000000
10
-9.7914711916
20
15.3199382484
30
0.0000000000
10
-9.7981475148
20
15.3132754921
30
0.0000000000
11
-9.5981718784
21
15.3167070981
31
0.0000000000
11
-9.6969591929
21
15.3162512078
31
0.0000000000
11
-9.7699039213
21
15.3150046409
31
0.0000000000
11
-9.7981475148
21
15.3132754921
31
0.0000000000
0
SPLINE
5
410
100
AcDbEntity
8
0
100
AcDbSpline
62
0
6
CONTINUOUS
70
0
71
3
72
8
73
4
74
2
42
0.0000001000
43
0.0000001000
44
0.0000000001
12
-0.0000570413
22
0.0994202789
32
0.0000000000
13
-0.0000573320
23
0.0994202788
33
0.0000000000
40
0.0000000000
40
0.0000000000
40
0.0000000000
40
0.0000000000
40
1.0000000000
40
1.0000000000
40
1.0000000000
40
1.0000000000
10
-4.6012683924
20
19.6076490143
30
0.0000000000
10
-4.6012874061
20
19.6407891073
30
0.0000000000
10
-4.6013064684
20
19.6739292002
30
0.0000000000
10
-4.6013255790
20
19.7070692931
30
0.0000000000
11
-4.6012683924
21
19.6076490143
31
0.0000000000
11
-4.6013255790
21
19.7070692931
31
0.0000000000
0
SPLINE
5
411
100
AcDbEntity
8
0
100
AcDbSpline
62
0
6
CONTINUOUS
70
0
71
3
72
8
73
4
74
2
42
0.0000001000
43
0.0000001000
44
0.0000000001
12
-0.0000570413
22
0.0994202789
32
0.0000000000
13
-0.0000573320
23
0.0994202788
33
0.0000000000
40
0.0000000000
40
0.0000000000
40
0.0000000000
40
0.0000000000
40
1.0000000000
40
1.0000000000
40
1.0000000000
40
1.0000000000
10
5.3987316076
20
19.6076490143
30
0.0000000000
10
5.3987125939
20
19.6407891073
30
0.0000000000
10
5.3986935316
20
19.6739292002
30
0.0000000000
10
5.3986744210
20
19.7070692931
30
0.0000000000
11
5.3987316076
21
19.6076490143
31
0.0000000000
11
5.3986744210
21
19.7070692931
31
0.0000000000
0
SPLINE
5
412
100
AcDbEntity
8
0
100
AcDbSpline
62
0
6
CONTINUOUS
70
0
71
3
72
13
73
9
74
7
42
0.0000001000
43
0.0000001000
44
0.0000000001
12
-0.9465501270
22
0.0000000000
32
0.0000000000
13
0.9465501270
23
0.0000000000
33
0.0000000000
40
0.0000000000
40
0.0000000000
40
0.0000000000
40
0.0000000000
40
0.1683728946
40
0.3342930806
40
0.4999949065
40
0.6656917469
40
0.8316143386
40
1.0000000000
40
1.0000000000
40
1.0000000000
40
1.0000000000
10
8.6986744210
20
15.3167070982
30
0.0000000000
10
8.6455499594
20
15.3167070982
30
0.0000000000
10
8.5379975018
20
15.2877954288
30
0.0000000000
10
8.4221591668
20
15.1705785206
30
0.0000000000
10
8.3797916615
20
15.0119488636
30
0.0000000000
10
8.4221528106
20
14.8533172691
30
0.0000000000
10
8.5379882323
20
14.7360925019
30
0.0000000000
10
8.6455459312
20
14.7071770669
30
0.0000000000
10
8.6986744210
20
14.7071770669
30
0.0000000000
11
8.6986744210
21
15.3167070982
31
0.0000000000
11
8.5448451703
21
15.2750365159
31
0.0000000000
11
8.4342691708
21
15.1635098028
31
0.0000000000
11
8.3939067986
21
15.0119470784
31
0.0000000000
11
8.4342617715
21
14.8603872673
31
0.0000000000
11
8.5448343620
21
14.7488539677
31
0.0000000000
11
8.6986744210
21
14.7071770669
31
0.0000000000
0
SPLINE
5
413
100
AcDbEntity
8
0
100
AcDbSpline
62
0
6
CONTINUOUS
70
0
71
3
72
13
73
9
74
7
42
0.0000001000
43
0.0000001000
44
0.0000000001
12
-0.9579033827
22
0.0000000000
32
0.0000000000
13
0.9579033827
23
-0.0000000000
33
0.0000000000
40
0.0000000000
40
0.0000000000
40
0.0000000000
40
0.0000000000
40
0.1684222848
40
0.3343404494
40
0.5000034041
40
0.6656696982
40
0.8315862997
40
1.0000000000
40
1.0000000000
40
1.0000000000
40
1.0000000000
10
8.6986744210
20
-9.6791896578
30
0.0000000000
10
8.6448969955
20
-9.6791896578
30
0.0000000000
10
8.5360376459
20
-9.7084619210
30
0.0000000000
10
8.4188271553
20
-9.8271052712
30
0.0000000000
10
8.3759730897
20
-9.9876147022
30
0.0000000000
10
8.4188314591
20
-10.1481228376
30
0.0000000000
10
8.5360439361
20
-10.2667608645
30
0.0000000000
10
8.6448997366
20
-10.2960305691
30
0.0000000000
10
8.6986744210
20
-10.2960305691
30
0.0000000000
11
8.6986744210
21
-9.6791896578
31
0.0000000000
11
8.5429577694
21
-9.7213847736
31
0.0000000000
11
8.4310743835
21
-9.8342651883
31
0.0000000000
11
8.3902512340
21
-9.9876134925
31
0.0000000000
11
8.4310793907
21
-10.1409637739
31
0.0000000000
11
8.5429651237
21
-10.2538397539
31
0.0000000000
11
8.6986744210
21
-10.2960305691
31
0.0000000000
0
SPLINE
5
414
100
AcDbEntity
8
0
100
AcDbSpline
62
0
6
CONTINUOUS
70
0
71
3
72
16
73
12
74
10
42
0.0000001000
43
0.0000001000
44
0.0000000001
12
12.1168517532
22
-7.4891993630
32
0.0000000000
13
-12.4930423318
23
-6.8432519173
33
0.0000000000
40
0.0000000000
40
0.0000000000
40
0.0000000000
40
0.0000000000
40
0.1096104388
40
0.2202439964
40
0.3320433021
40
0.4441924707
40
0.5569501295
40
0.6691855110
40
0.7806422211
40
0.8909604546
40
1.0000000000
40
1.0000000000
40
1.0000000000
40
1.0000000000
10
5.5623841247
20
-7.6451182177
30
0.0000000000
10
6.0050952706
20
-7.9187496940
30
0.0000000000
10
6.8329540293
20
-8.5760178479
30
0.0000000000
10
7.8156046362
20
-9.8263176045
30
0.0000000000
10
8.4895549255
20
-11.2809430938
30
0.0000000000
10
8.8139201561
20
-12.8609123946
30
0.0000000000
10
8.7685762599
20
-14.4753970533
30
0.0000000000
10
8.3566524405
20
-16.0335280279
30
0.0000000000
10
7.6050600647
20
-17.4462836665
30
0.0000000000
10
6.5605846858
20
-18.6374463976
30
0.0000000000
10
5.7027529733
20
-19.2476188799
30
0.0000000000
10
5.2486744210
20
-19.4963472394
30
0.0000000000
11
5.5623841247
21
-7.6451182177
31
0.0000000000
11
6.7854994117
21
-8.6155794928
31
0.0000000000
11
7.7601488266
21
-9.8539601428
31
0.0000000000
11
8.4301938458
21
-11.2986682464
31
0.0000000000
11
8.7519394322
21
-12.8634428539
31
0.0000000000
11
8.7069200439
21
-14.4689899548
31
0.0000000000
11
8.2979285594
21
-16.0145290009
31
0.0000000000
11
7.5516888368
21
-17.4158671191
31
0.0000000000
11
6.5147502274
21
-18.5966082724
31
0.0000000000
11
5.2486744210
21
-19.4963472394
31
0.0000000000
0
SPLINE
5
415
100
AcDbEntity
8
0
100
AcDbSpline
62
0
6
CONTINUOUS
70
0
71
3
72
9
73
5
74
3
42
0.0000001000
43
0.0000001000
44
0.0000000001
12
-2.3706446575
22
1.4652511082
32
0.0000000000
13
-2.3647184590
23
1.4747960915
33
0.0000000000
40
0.0000000000
40
0.0000000000
40
0.0000000000
40
0.0000000000
40
0.5011979925
40
1.0000000000
40
1.0000000000
40
1.0000000000
40
1.0000000000
10
5.5623861414
20
-7.6451194670
30
0.0000000000
10
5.1663320269
20
-7.4003258290
30
0.0000000000
10
4.3766056597
20
-6.9111179608
30
0.0000000000
10
3.5878669606
20
-6.4203192703
30
0.0000000000
10
3.1946915224
20
-6.1751088533
30
0.0000000000
11
5.5623861414
21
-7.6451194670
31
0.0000000000
11
4.3749615889
21
-6.9095462124
31
0.0000000000
11
3.1946915224
21
-6.1751088533
31
0.0000000000
0
SPLINE
5
416
100
AcDbEntity
8
0
100
AcDbSpline
62
0
6
CONTINUOUS
70
0
71
3
72
9
73
5
74
3
42
0.0000001000
43
0.0000001000
44
0.0000000001
12
2.3706446576
22
1.4652511080
32
0.0000000000
13
2.3647184590
23
1.4747960915
33
0.0000000000
40
0.0000000000
40
0.0000000000
40
0.0000000000
40
0.0000000000
40
0.5011979925
40
1.0000000000
40
1.0000000000
40
1.0000000000
40
1.0000000000
10
-5.5650372994
20
-7.6451194670
30
0.0000000000
10
-5.1689831850
20
-7.4003258290
30
0.0000000000
10
-4.3792568178
20
-6.9111179608
30
0.0000000000
10
-3.5905181187
20
-6.4203192703
30
0.0000000000
10
-3.1973426805
20
-6.1751088533
30
0.0000000000
11
-5.5650372994
21
-7.6451194670
31
0.0000000000
11
-4.3776127469
21
-6.9095462124
31
0.0000000000
11
-3.1973426805
21
-6.1751088533
31
0.0000000000
0
SPLINE
5
417
100
AcDbEntity
8
0
100
AcDbSpline
62
0
6
CONTINUOUS
70
0
71
3
72
16
73
12
74
10
42
0.0000001000
43
0.0000001000
44
0.0000000001
12
-12.4930422721
22
6.8432518843
32
0.0000000000
13
12.1168516956
23
7.4891993264
33
0.0000000000
40
0.0000000000
40
0.0000000000
40
0.0000000000
40
0.0000000000
40
0.1090237711
40
0.2193315054
40
0.3307834695
40
0.4430061367
40
0.5557601662
40
0.6679303030
40
0.7797247653
40
0.8903833853
40
1.0000000000
40
1.0000000000
40
1.0000000000
40
1.0000000000
10
-5.2513255790
20
-19.4963472340
30
0.0000000000
10
-5.7053384394
20
-19.2476548583
30
0.0000000000
10
-6.5630750740
20
-18.6375719528
30
0.0000000000
10
-7.6075039750
20
-17.4465693625
30
0.0000000000
10
-8.3591171743
20
-16.0339775259
30
0.0000000000
10
-8.7711342326
20
-14.4759792351
30
0.0000000000
10
-8.8166303649
20
-12.8614781326
30
0.0000000000
10
-8.4923720700
20
-11.2814190951
30
0.0000000000
10
-7.8184274699
20
-9.8265766079
30
0.0000000000
10
-6.8357439485
20
-8.5761322539
30
0.0000000000
10
-6.0077714071
20
-7.9187651327
30
0.0000000000
10
-5.5650353192
20
-7.6451182403
30
0.0000000000
11
-5.2513255790
21
-19.4963472340
31
0.0000000000
11
-6.5172334011
21
-18.5967597942
31
0.0000000000
11
-7.5541256788
21
-17.4161770059
31
0.0000000000
11
-8.3004171640
21
-16.0149430570
31
0.0000000000
11
-8.7094814607
21
-14.4696106325
31
0.0000000000
11
-8.7546499275
21
-12.8641194458
31
0.0000000000
11
-8.4329634695
21
-11.2990277628
31
0.0000000000
11
-7.7630343909
21
-9.8543419483
31
0.0000000000
11
-6.7882131036
21
-8.6156422713
31
0.0000000000
11
-5.5650353192
21
-7.6451182403
31
0.0000000000
0
SPLINE
5
418
100
AcDbEntity
8
0
100
AcDbSpline
62
0
6
CONTINUOUS
70
0
71
3
72
13
73
9
74
7
42
0.0000001000
43
0.0000001000
44
0.0000000001
12
0.9579033827
22
0.0000000000
32
0.0000000000
13
-0.9579033827
23
0.0000000000
33
0.0000000000
40
0.0000000000
40
0.0000000000
40
0.0000000000
40
0.0000000000
40
0.1684137652
40
0.3343304228
40
0.4999967029
40
0.6656596814
40
0.8315777856
40
1.0000000000
40
1.0000000000
40
1.0000000000
40
1.0000000000
10
-8.7013255790
20
-10.2960305691
30
0.0000000000
10
-8.6475508739
20
-10.2960305691
30
0.0000000000
10
-8.5386950324
20
-10.2667608417
30
0.0000000000
10
-8.4214825626
20
-10.1481227497
30
0.0000000000
10
-8.3786242468
20
-9.9876145793
30
0.0000000000
10
-8.4214783703
20
-9.8271051781
30
0.0000000000
10
-8.5386888709
20
-9.7084618963
30
0.0000000000
10
-8.6475481761
20
-9.6791896578
30
0.0000000000
10
-8.7013255790
20
-9.6791896578
30
0.0000000000
11
-8.7013255790
21
-10.2960305691
31
0.0000000000
11
-8.5456162261
21
-10.2538397213
31
0.0000000000
11
-8.4337304892
21
-10.1409636698
31
0.0000000000
11
-8.3929023921
21
-9.9876133863
31
0.0000000000
11
-8.4337256061
21
-9.8342650756
31
0.0000000000
11
-8.5456089878
21
-9.7213847383
31
0.0000000000
11
-8.7013255790
21
-9.6791896578
31
0.0000000000
0
SPLINE
5
419
100
AcDbEntity
8
0
100
AcDbSpline
62
0
6
CONTINUOUS
70
0
71
3
72
13
73
9
74
7
42
0.0000001000
43
0.0000001000
44
0.0000000001
12
0.9465501270
22
0.0000000000
32
0.0000000000
13
-0.9465501270
23
-0.0000000000
33
0.0000000000
40
0.0000000000
40
0.0000000000
40
0.0000000000
40
0.0000000000
40
0.1683855649
40
0.3343080720
40
0.5000049335
40
0.6657067239
40
0.8316270007
40
1.0000000000
40
1.0000000000
40
1.0000000000
40
1.0000000000
10
-8.7013255790
20
14.7071770669
30
0.0000000000
10
-8.6481971197
20
14.7071770669
30
0.0000000000
10
-8.5406394816
20
14.7360924682
30
0.0000000000
10
-8.4248040493
20
14.8533171394
30
0.0000000000
10
-8.3824428209
20
15.0119486820
30
0.0000000000
10
-8.4248102408
20
15.1705783834
30
0.0000000000
10
-8.5406485613
20
15.2877953924
30
0.0000000000
10
-8.6482010844
20
15.3167070982
30
0.0000000000
10
-8.7013255790
20
15.3167070982
30
0.0000000000
11
-8.7013255790
21
14.7071770669
31
0.0000000000
11
-8.5474856018
21
14.7488539200
31
0.0000000000
11
-8.4369130178
21
14.8603871133
31
0.0000000000
11
-8.3965579567
21
15.0119469216
31
0.0000000000
11
-8.4369202335
21
15.1635096365
31
0.0000000000
11
-8.5474962398
21
15.2750364642
31
0.0000000000
11
-8.7013255790
21
15.3167070982
31
0.0000000000
0
SPLINE
5
41A
100
AcDbEntity
8
0
100
AcDbSpline
62
9
6
CONTINUOUS
70
0
71
3
72
9
73
5
74
3
42
0.0000001000
43
0.0000001000
44
0.0000000001
12
0.0707129781
22
-0.0707234489
32
0.0000000000
13
-0.0000001149
23
-0.1000106569
33
0.0000000000
40
0.0000000000
40
0.0000000000
40
0.0000000000
40
0.0000000000
40
0.3245603422
40
1.0000000000
40
1.0000000000
40
1.0000000000
40
1.0000000000
10
-9.8043585788
20
20.0652730184
30
0.0000000000
10
-9.7967083694
20
20.0576216762
30
0.0000000000
10
-9.8098650191
20
20.0178686208
30
0.0000000000
10
-9.8026435097
20
19.9878053035
30
0.0000000000
10
-9.8026435356
20
19.9652882489
30
0.0000000000
11
-9.8043585788
21
20.0652730184
31
0.0000000000
11
-9.8031019995
21
20.0328378570
31
0.0000000000
11
-9.8026435356
21
19.9652882489
31
0.0000000000
0
SPLINE
5
41B
100
AcDbEntity
8
0
100
AcDbSpline
62
9
6
CONTINUOUS
70
0
71
3
72
9
73
5
74
3
42
0.0000001000
43
0.0000001000
44
0.0000000001
12
-0.0039304971
22
4.3871925397
32
0.0000000000
13
-0.0050618704
23
4.3871913802
33
0.0000000000
40
0.0000000000
40
0.0000000000
40
0.0000000000
40
0.0000000000
40
0.5000409325
40
1.0000000000
40
1.0000000000
40
1.0000000000
40
1.0000000000
10
-9.7981475148
20
15.3132754921
30
0.0000000000
10
-9.7988026513
20
16.0445341082
30
0.0000000000
10
-9.8002071649
20
17.5069315384
30
0.0000000000
10
-9.8017999596
20
18.9693287757
30
0.0000000000
10
-9.8026435356
20
19.7004674796
30
0.0000000000
11
-9.7981475148
21
15.3132754921
31
0.0000000000
11
-9.8002543578
21
17.5070512092
31
0.0000000000
11
-9.8026435356
21
19.7004674796
31
0.0000000000
0
SPLINE
5
41C
100
AcDbEntity
8
0
100
AcDbSpline
62
9
6
CONTINUOUS
70
0
71
3
72
10
73
6
74
4
42
0.0000001000
43
0.0000001000
44
0.0000000001
12
0.0138367900
22
24.3932360553
32
0.0000000000
13
-0.0209910981
23
24.3932309479
33
0.0000000000
40
0.0000000000
40
0.0000000000
40
0.0000000000
40
0.0000000000
40
0.3333816775
40
0.6667805794
40
1.0000000000
40
1.0000000000
40
1.0000000000
40
1.0000000000
10
-9.7940465386
20
-9.6826235317
30
0.0000000000
10
-9.7925088945
20
-6.9718708797
30
0.0000000000
10
-9.7907246216
20
-1.5502246985
30
0.0000000000
10
-9.7919148081
20
6.5808554832
30
0.0000000000
10
-9.7952866904
20
12.0011815853
30
0.0000000000
10
-9.7976182376
20
14.7106143461
30
0.0000000000
11
-9.7940465386
21
-9.6826235317
31
0.0000000000
11
-9.7913691010
21
-1.5503647081
31
0.0000000000
11
-9.7925599894
21
6.5823146281
31
0.0000000000
11
-9.7976182376
21
14.7106143461
31
0.0000000000
0
SPLINE
5
41D
100
AcDbEntity
8
0
100
AcDbSpline
62
9
6
CONTINUOUS
70
0
71
3
72
9
73
5
74
3
42
0.0000001000
43
0.0000001000
44
0.0000000001
12
0.0108264765
22
9.3834453564
32
0.0000000000
13
0.0056579316
23
9.3834498963
33
0.0000000000
40
0.0000000000
40
0.0000000000
40
0.0000000000
40
0.0000000000
40
0.4999133897
40
1.0000000000
40
1.0000000000
40
1.0000000000
40
1.0000000000
10
-9.8026435356
20
-19.6760483643
30
0.0000000000
10
-9.8008394354
20
-18.1124117057
30
0.0000000000
10
-9.7976625287
20
-14.9845960738
30
0.0000000000
10
-9.7953465744
20
-11.8567796862
30
0.0000000000
10
-9.7944034224
20
-10.2926004691
30
0.0000000000
11
-9.8026435356
21
-19.6760483643
31
0.0000000000
11
-9.7978782425
21
-14.9851376868
31
0.0000000000
11
-9.7944034224
21
-10.2926004691
31
0.0000000000
0
SPLINE
5
41E
100
AcDbEntity
8
0
100
AcDbSpline
62
9
6
CONTINUOUS
70
0
71
3
72
9
73
5
74
3
42
0.0000001000
43
0.0000001000
44
0.0000000001
12
-0.0000000035
22
-0.1000049608
32
0.0000000000
13
-0.0708473023
23
-0.0705808185
33
0.0000000000
40
0.0000000000
40
0.0000000000
40
0.0000000000
40
0.0000000000
40
0.3630547288
40
1.0000000000
40
1.0000000000
40
1.0000000000
40
1.0000000000
10
-9.8026435356
20
-19.9408691336
30
0.0000000000
10
-9.8026435360
20
-19.9529715582
30
0.0000000000
10
-9.8066992146
20
-19.9845314481
30
0.0000000000
10
-9.7893166274
20
-20.0258685302
30
0.0000000000
10
-9.8043585788
20
-20.0408539031
30
0.0000000000
11
-9.8026435356
21
-19.9408691336
31
0.0000000000
11
-9.8027626519
21
-19.9771762121
31
0.0000000000
11
-9.8043585788
21
-20.0408539031
31
0.0000000000
0
SPLINE
5
41F
100
AcDbEntity
8
0
100
AcDbSpline
62
9
6
CONTINUOUS
70
0
71
3
72
9
73
5
74
3
42
0.0000001000
43
0.0000001000
44
0.0000000001
12
-0.0050618704
22
-4.3871913802
32
0.0000000000
13
-0.0039304971
23
-4.3871925397
33
0.0000000000
40
0.0000000000
40
0.0000000000
40
0.0000000000
40
0.0000000000
40
0.4999590675
40
1.0000000000
40
1.0000000000
40
1.0000000000
40
1.0000000000
10
9.7999923775
20
19.7004674796
30
0.0000000000
10
9.7991488015
20
18.9693287757
30
0.0000000000
10
9.7975560068
20
17.5069315384
30
0.0000000000
10
9.7961514932
20
16.0445341082
30
0.0000000000
10
9.7954963567
20
15.3132754921
30
0.0000000000
11
9.7999923775
21
19.7004674796
31
0.0000000000
11
9.7976031998
21
17.5070512092
31
0.0000000000
11
9.7954963567
21
15.3132754921
31
0.0000000000
0
SPLINE
5
420
100
AcDbEntity
8
0
100
AcDbSpline
62
9
6
CONTINUOUS
70
0
71
3
72
10
73
6
74
4
42
0.0000001000
43
0.0000001000
44
0.0000000001
12
-0.0000000545
22
0.1000118994
32
0.0000000000
13
0.0708144130
23
0.0706236429
33
0.0000000000
40
0.0000000000
40
0.0000000000
40
0.0000000000
40
0.0000000000
40
0.3444206040
40
0.7058672485
40
1.0000000000
40
1.0000000000
40
1.0000000000
40
1.0000000000
10
9.7999923775
20
19.9652882489
30
0.0000000000
10
9.7999923713
20
19.9767703018
30
0.0000000000
10
9.7990151159
20
20.0007903932
30
0.0000000000
10
9.8039411279
20
20.0319826283
30
0.0000000000
10
9.7947644747
20
20.0583487763
30
0.0000000000
10
9.8017074208
20
20.0652730184
30
0.0000000000
11
9.7999923775
21
19.9652882489
31
0.0000000000
11
9.8000992061
21
19.9997342421
31
0.0000000000
11
9.8005015899
21
20.0358809679
31
0.0000000000
11
9.8017074208
21
20.0652730184
31
0.0000000000
0
SPLINE
5
421
100
AcDbEntity
8
0
100
AcDbSpline
62
9
6
CONTINUOUS
70
0
71
3
72
9
73
5
74
3
42
0.0000001000
43
0.0000001000
44
0.0000000001
12
-0.0707816666
22
0.0706553419
32
0.0000000000
13
0.0000000782
23
0.1000111077
33
0.0000000000
40
0.0000000000
40
0.0000000000
40
0.0000000000
40
0.0000000000
40
0.3040444663
40
1.0000000000
40
1.0000000000
40
1.0000000000
40
1.0000000000
10
9.8017074208
20
-20.0408539031
30
0.0000000000
10
9.7945338294
20
-20.0336931145
30
0.0000000000
10
9.8074027207
20
-19.9940282445
30
0.0000000000
10
9.7999923594
20
-19.9640702282
30
0.0000000000
10
9.7999923775
20
-19.9408691336
30
0.0000000000
11
9.8017074208
21
-20.0408539031
31
0.0000000000
11
9.8004845841
21
-20.0104706771
31
0.0000000000
11
9.7999923775
21
-19.9408691336
31
0.0000000000
0
SPLINE
5
422
100
AcDbEntity
8
0
100
AcDbSpline
62
9
6
CONTINUOUS
70
0
71
3
72
9
73
5
74
3
42
0.0000001000
43
0.0000001000
44
0.0000000001
12
0.0056579316
22
-9.3834498964
32
0.0000000000
13
0.0108264765
23
-9.3834453564
33
0.0000000000
40
0.0000000000
40
0.0000000000
40
0.0000000000
40
0.0000000000
40
0.5000866103
40
1.0000000000
40
1.0000000000
40
1.0000000000
40
1.0000000000
10
9.7917522644
20
-10.2926004691
30
0.0000000000
10
9.7926954163
20
-11.8567796862
30
0.0000000000
10
9.7950113706
20
-14.9845960738
30
0.0000000000
10
9.7981882774
20
-18.1124117057
30
0.0000000000
10
9.7999923775
20
-19.6760483643
30
0.0000000000
11
9.7917522644
21
-10.2926004691
31
0.0000000000
11
9.7952270845
21
-14.9851376868
31
0.0000000000
11
9.7999923775
21
-19.6760483643
31
0.0000000000
0
SPLINE
5
423
100
AcDbEntity
8
0
100
AcDbSpline
62
9
6
CONTINUOUS
70
0
71
3
72
10
73
6
74
4
42
0.0000001000
43
0.0000001000
44
0.0000000001
12
-0.0209910981
22
-24.3932309479
32
0.0000000000
13
0.0138367900
23
-24.3932360553
33
0.0000000000
40
0.0000000000
40
0.0000000000
40
0.0000000000
40
0.0000000000
40
0.3332160225
40
0.6666026846
40
1.0000000000
40
1.0000000000
40
1.0000000000
40
1.0000000000
10
9.7949670796
20
14.7106143461
30
0.0000000000
10
9.7926355562
20
12.0012092153
30
0.0000000000
10
9.7892637397
20
6.5810102660
30
0.0000000000
10
9.7880734429
20
-1.5500699156
30
0.0000000000
10
9.7898576643
20
-6.9717437268
30
0.0000000000
10
9.7913953806
20
-9.6826235317
30
0.0000000000
11
9.7949670796
21
14.7106143461
31
0.0000000000
11
9.7899088632
21
6.5823975181
31
0.0000000000
11
9.7887179080
21
-1.5499832493
31
0.0000000000
11
9.7913953806
21
-9.6826235317
31
0.0000000000
0
SPLINE
5
424
100
AcDbEntity
8
0
100
AcDbSpline
62
9
6
CONTINUOUS
70
0
71
3
72
9
73
5
74
3
42
0.0000001000
43
0.0000001000
44
0.0000000001
12
1.3975420665
22
0.0030361016
32
0.0000000000
13
1.3975453644
23
0.0000012202
33
0.0000000000
40
0.0000000000
40
0.0000000000
40
0.0000000000
40
0.0000000000
40
0.4848926964
40
1.0000000000
40
1.0000000000
40
1.0000000000
40
1.0000000000
10
-3.4988698951
20
-20.2400277430
30
0.0000000000
10
-3.2729839147
20
-20.2395370152
30
0.0000000000
10
-2.8071360153
20
-20.2387607368
30
0.0000000000
10
-2.3412875205
20
-20.2384943068
30
0.0000000000
10
-2.1013255790
20
-20.2384940973
30
0.0000000000
11
-3.4988698951
21
-20.2400277430
31
0.0000000000
11
-2.8212112866
21
-20.2389040677
31
0.0000000000
11
-2.1013255790
21
-20.2384940973
31
0.0000000000
0
SPLINE
5
425
100
AcDbEntity
8
0
100
AcDbSpline
62
9
6
CONTINUOUS
70
0
71
3
72
9
73
5
74
3
42
0.0000001000
43
0.0000001000
44
0.0000000001
12
1.3975453644
22
-0.0000011460
32
0.0000000000
13
1.3975420665
23
-0.0030360823
33
0.0000000000
40
0.0000000000
40
0.0000000000
40
0.0000000000
40
0.0000000000
40
0.5151255647
40
1.0000000000
40
1.0000000000
40
1.0000000000
40
1.0000000000
10
2.0986744210
20
-20.2384940973
30
0.0000000000
10
2.3386448693
20
-20.2384942940
30
0.0000000000
10
2.8044933642
20
-20.2387607413
30
0.0000000000
10
3.2703412636
20
-20.2395370368
30
0.0000000000
10
3.4962187370
20
-20.2400277430
30
0.0000000000
11
2.0986744210
21
-20.2384940973
31
0.0000000000
11
2.8185856493
21
-20.2389040921
31
0.0000000000
11
3.4962187370
21
-20.2400277430
31
0.0000000000
0
SPLINE
5
426
100
AcDbEntity
8
0
100
AcDbSpline
62
0
6
CONTINUOUS
70
0
71
3
72
9
73
5
74
3
42
0.0000001000
43
0.0000001000
44
0.0000000001
12
0.3751325403
22
0.0010765389
32
0.0000000000
13
0.3751325440
23
0.0010752698
33
0.0000000000
40
0.0000000000
40
0.0000000000
40
0.0000000000
40
0.0000000000
40
0.7590990349
40
1.0000000000
40
1.0000000000
40
1.0000000000
40
1.0000000000
10
6.9986744210
20
-20.3377904423
30
0.0000000000
10
7.0935953374
20
-20.3375180425
30
0.0000000000
10
7.2186395179
20
-20.3371593230
30
0.0000000000
10
7.3436836990
20
-20.3368008360
30
0.0000000000
10
7.3738069630
20
-20.3367144915
30
0.0000000000
11
6.9986744210
21
-20.3377904423
31
0.0000000000
11
7.2834371712
21
-20.3369735692
31
0.0000000000
11
7.3738069630
21
-20.3367144915
31
0.0000000000
0
SPLINE
5
427
100
AcDbEntity
8
0
100
AcDbSpline
62
0
6
CONTINUOUS
70
0
71
3
72
9
73
5
74
3
42
0.0000001000
43
0.0000001000
44
0.0000000001
12
-0.3751325403
22
-0.0010765389
32
0.0000000000
13
-0.3751325440
23
-0.0010752698
33
0.0000000000
40
0.0000000000
40
0.0000000000
40
0.0000000000
40
0.0000000000
40
0.7590990349
40
1.0000000000
40
1.0000000000
40
1.0000000000
40
1.0000000000
10
-7.0013255790
20
20.3622095577
30
0.0000000000
10
-7.0962464955
20
20.3619371578
30
0.0000000000
10
-7.2212906759
20
20.3615784384
30
0.0000000000
10
-7.3463348571
20
20.3612199513
30
0.0000000000
10
-7.3764581210
20
20.3611336068
30
0.0000000000
11
-7.0013255790
21
20.3622095577
31
0.0000000000
11
-7.2860883293
21
20.3613926846
31
0.0000000000
11
-7.3764581210
21
20.3611336068
31
0.0000000000
0
SPLINE
5
428
100
AcDbEntity
8
0
100
AcDbSpline
62
0
6
CONTINUOUS
70
0
71
3
72
10
73
6
74
4
42
0.0000001000
43
0.0000001000
44
0.0000000001
12
-0.0103476593
22
-1.0324092043
32
0.0000000000
13
-0.0105817516
23
-1.0324068315
33
0.0000000000
40
0.0000000000
40
0.0000000000
40
0.0000000000
40
0.0000000000
40
0.3263091910
40
0.6596571044
40
1.0000000000
40
1.0000000000
40
1.0000000000
40
1.0000000000
10
-4.6408525401
20
-18.7424916667
30
0.0000000000
10
-4.6419780522
20
-18.8547865375
30
0.0000000000
10
-4.6442636989
20
-19.0817984560
30
0.0000000000
10
-4.6477560112
20
-19.4259344231
30
0.0000000000
10
-4.6501251044
20
-19.6577754946
30
0.0000000000
10
-4.6513255790
20
-19.7748996048
30
0.0000000000
11
-4.6408525401
21
-18.7424916667
31
0.0000000000
11
-4.6442437349
21
-19.0793761317
31
0.0000000000
11
-4.6477355867
21
-19.4235271573
31
0.0000000000
11
-4.6513255790
21
-19.7748996048
31
0.0000000000
0
SPLINE
5
429
100
AcDbEntity
8
0
100
AcDbSpline
62
9
6
CONTINUOUS
70
0
71
3
72
8
73
4
74
2
42
0.0000001000
43
0.0000001000
44
0.0000000001
12
0.2269377873
22
-0.0004803748
32
0.0000000000
13
0.2269379239
23
-0.0004143794
33
0.0000000000
40
0.0000000000
40
0.0000000000
40
0.0000000000
40
0.0000000000
40
1.0000000000
40
1.0000000000
40
1.0000000000
40
1.0000000000
10
-3.5302003781
20
-20.0959313801
30
0.0000000000
10
-3.4545544490
20
-20.0960915050
30
0.0000000000
10
-3.3789084959
20
-20.0962409894
30
0.0000000000
10
-3.3032625212
20
-20.0963791158
30
0.0000000000
11
-3.5302003781
21
-20.0959313801
31
0.0000000000
11
-3.3032625212
21
-20.0963791158
31
0.0000000000
0
SPLINE
5
42A
100
AcDbEntity
8
0
100
AcDbSpline
62
9
6
CONTINUOUS
70
0
71
3
72
9
73
5
74
3
42
0.0000001000
43
0.0000001000
44
0.0000000001
12
1.2019356152
22
-0.0021946853
32
0.0000000000
13
1.2019375843
23
0.0000163828
33
0.0000000000
40
0.0000000000
40
0.0000000000
40
0.0000000000
40
0.0000000000
40
0.3876877670
40
1.0000000000
40
1.0000000000
40
1.0000000000
40
1.0000000000
10
-3.3032625212
20
-20.0963791158
30
0.0000000000
10
-3.1479372763
20
-20.0966627334
30
0.0000000000
10
-2.7472918374
20
-20.0972707781
30
0.0000000000
10
-2.3466459411
20
-20.0975189118
30
0.0000000000
10
-2.1013255790
20
-20.0975155680
30
0.0000000000
11
-3.3032625212
21
-20.0963791158
31
0.0000000000
11
-2.8372865365
21
-20.0970801011
31
0.0000000000
11
-2.1013255790
21
-20.0975155680
31
0.0000000000
0
SPLINE
5
42B
100
AcDbEntity
8
0
100
AcDbSpline
62
0
6
CONTINUOUS
70
0
71
3
72
9
73
5
74
3
42
0.0000001000
43
0.0000001000
44
0.0000000001
12
-0.3775378306
22
-0.6846978867
32
0.0000000000
13
-0.3476583876
23
-0.7003425269
33
0.0000000000
40
0.0000000000
40
0.0000000000
40
0.0000000000
40
0.0000000000
40
0.4937633281
40
1.0000000000
40
1.0000000000
40
1.0000000000
40
1.0000000000
10
-7.2162547085
20
-15.3877904423
30
0.0000000000
10
-7.2783928204
20
-15.5004833448
30
0.0000000000
10
-7.4016390270
20
-15.7301575588
30
0.0000000000
10
-7.5199077856
20
-15.9624310754
30
0.0000000000
10
-7.5785735940
20
-16.0806107654
30
0.0000000000
11
-7.2162547085
21
-15.3877904423
31
0.0000000000
11
-7.3988882218
21
-15.7279264691
31
0.0000000000
11
-7.5785735940
21
-16.0806107654
31
0.0000000000
0
SPLINE
5
42C
100
AcDbEntity
8
0
100
AcDbSpline
62
0
6
CONTINUOUS
70
0
71
3
72
10
73
6
74
4
42
0.0000001000
43
0.0000001000
44
0.0000000001
12
0.0102413620
22
-1.0919480669
32
0.0000000000
13
0.0106695413
23
-1.0919439670
33
0.0000000000
40
0.0000000000
40
0.0000000000
40
0.0000000000
40
0.0000000000
40
0.3185577142
40
0.6451521271
40
1.0000000000
40
1.0000000000
40
1.0000000000
40
1.0000000000
10
-5.2617986180
20
-18.4262822864
30
0.0000000000
10
-5.2607111297
20
-18.5422317798
30
0.0000000000
10
-5.2584904502
20
-18.7770558148
30
0.0000000000
10
-5.2549979839
20
-19.1410377582
30
0.0000000000
10
-5.2525876004
20
-19.3890701515
30
0.0000000000
10
-5.2513255790
20
-19.5182281496
30
0.0000000000
11
-5.2617986180
21
-18.4262822864
31
0.0000000000
11
-5.2585101913
21
-18.7741305222
31
0.0000000000
11
-5.2550896594
21
-19.1307539413
31
0.0000000000
11
-5.2513255790
21
-19.5182281496
31
0.0000000000
0
SPLINE
5
42D
100
AcDbEntity
8
0
100
AcDbSpline
62
9
6
CONTINUOUS
70
0
71
3
72
9
73
5
74
3
42
0.0000001000
43
0.0000001000
44
0.0000000001
12
1.3980490258
22
-0.0000261650
32
0.0000000000
13
1.3980460138
23
0.0029067207
33
0.0000000000
40
0.0000000000
40
0.0000000000
40
0.0000000000
40
0.0000000000
40
0.5267404005
40
1.0000000000
40
1.0000000000
40
1.0000000000
40
1.0000000000
10
2.0983950185
20
-20.0975012512
30
0.0000000000
10
2.3438646531
20
-20.0975058452
30
0.0000000000
10
2.8098810476
20
-20.0972359575
30
0.0000000000
10
3.2758968082
20
-20.0964551862
30
0.0000000000
10
3.4964430404
20
-20.0959966417
30
0.0000000000
11
2.0983950185
21
-20.0975012512
31
0.0000000000
11
2.8348038018
21
-20.0970797762
31
0.0000000000
11
3.4964430404
21
-20.0959966417
31
0.0000000000
0
SPLINE
5
42E
100
AcDbEntity
8
0
100
AcDbSpline
62
9
6
CONTINUOUS
70
0
71
3
72
8
73
4
74
2
42
0.0000001000
43
0.0000001000
44
0.0000000001
12
0.0311061812
22
0.0000646738
32
0.0000000000
13
0.0311061785
23
0.0000658467
33
0.0000000000
40
0.0000000000
40
0.0000000000
40
0.0000000000
40
0.0000000000
40
1.0000000000
40
1.0000000000
40
1.0000000000
40
1.0000000000
10
3.4964430404
20
-20.0959966417
30
0.0000000000
10
3.5068117675
20
-20.0959750837
30
0.0000000000
10
3.5171804941
20
-20.0959533290
30
0.0000000000
10
3.5275492203
20
-20.0959313801
30
0.0000000000
11
3.4964430404
21
-20.0959966417
31
0.0000000000
11
3.5275492203
21
-20.0959313801
31
0.0000000000
0
SPLINE
5
42F
100
AcDbEntity
8
0
100
AcDbSpline
62
0
6
CONTINUOUS
70
0
71
3
72
10
73
6
74
4
42
0.0000001000
43
0.0000001000
44
0.0000000001
12
-0.0105817516
22
1.0324068315
32
0.0000000000
13
-0.0103476593
23
1.0324092043
33
0.0000000000
40
0.0000000000
40
0.0000000000
40
0.0000000000
40
0.0000000000
40
0.3401307407
40
0.6734806557
40
1.0000000000
40
1.0000000000
40
1.0000000000
40
1.0000000000
10
4.6486744210
20
-19.7748996048
30
0.0000000000
10
4.6474746946
20
-19.6578485047
30
0.0000000000
10
4.6451063360
20
-19.4260797544
30
0.0000000000
10
4.6416140074
20
-19.0819437875
30
0.0000000000
10
4.6393276190
20
-18.8548588589
30
0.0000000000
10
4.6382013820
20
-18.7424916667
30
0.0000000000
11
4.6486744210
21
-19.7748996048
31
0.0000000000
11
4.6450866590
21
-19.4237461876
31
0.0000000000
11
4.6415947699
21
-19.0795930957
31
0.0000000000
11
4.6382013820
21
-18.7424916667
31
0.0000000000
0
SPLINE
5
430
100
AcDbEntity
8
0
100
AcDbSpline
62
0
6
CONTINUOUS
70
0
71
3
72
9
73
5
74
3
42
0.0000001000
43
0.0000001000
44
0.0000000001
12
-0.3476583874
22
0.7003425266
32
0.0000000000
13
-0.3775378304
23
0.6846978863
33
0.0000000000
40
0.0000000000
40
0.0000000000
40
0.0000000000
40
0.0000000000
40
0.5060194084
40
1.0000000000
40
1.0000000000
40
1.0000000000
40
1.0000000000
10
7.5759224359
20
-16.0806107654
30
0.0000000000
10
7.5172818054
20
-15.9624817950
30
0.0000000000
10
7.3990140726
20
-15.7302077858
30
0.0000000000
10
7.2757690041
20
-15.5005329313
30
0.0000000000
10
7.2136035505
20
-15.3877904423
30
0.0000000000
11
7.5759224359
21
-16.0806107654
31
0.0000000000
11
7.3963157942
21
-15.7280770098
31
0.0000000000
11
7.2136035505
21
-15.3877904423
31
0.0000000000
0
SPLINE
5
431
100
AcDbEntity
8
0
100
AcDbSpline
62
0
6
CONTINUOUS
70
0
71
3
72
10
73
6
74
4
42
0.0000001000
43
0.0000001000
44
0.0000000001
12
0.0106695405
22
1.0919438839
32
0.0000000000
13
0.0102413612
23
1.0919479837
33
0.0000000000
40
0.0000000000
40
0.0000000000
40
0.0000000000
40
0.0000000000
40
0.3546412809
40
0.6812396304
40
1.0000000000
40
1.0000000000
40
1.0000000000
40
1.0000000000
10
5.2486744210
20
-19.5182280664
30
0.0000000000
10
5.2499357075
20
-19.3891452738
30
0.0000000000
10
5.2523453823
20
-19.1411866623
30
0.0000000000
10
5.2558378779
20
-18.7772047469
30
0.0000000000
10
5.2580592799
20
-18.5423055340
30
0.0000000000
10
5.2591474599
20
-18.4262822864
30
0.0000000000
11
5.2486744210
21
-19.5182280664
31
0.0000000000
11
5.2524363238
21
-19.1309794748
31
0.0000000000
11
5.2558569257
21
-18.7743517845
31
0.0000000000
11
5.2591474599
21
-18.4262822864
31
0.0000000000
0
SPLINE
5
432
100
AcDbEntity
8
0
100
AcDbSpline
62
0
6
CONTINUOUS
70
0
71
3
72
8
73
4
74
2
42
0.0000001000
43
0.0000001000
44
0.0000000001
12
-0.0058118227
22
0.0567391165
32
0.0000000000
13
-0.0053383833
23
0.0567892660
33
0.0000000000
40
0.0000000000
40
0.0000000000
40
0.0000000000
40
0.0000000000
40
1.0000000000
40
1.0000000000
40
1.0000000000
40
1.0000000000
10
-5.5829838103
20
-16.0806107654
30
0.0000000000
10
-5.5849210846
20
-16.0616977265
30
0.0000000000
10
-5.5867904283
20
-16.0427765364
30
0.0000000000
10
-5.5885698894
20
-16.0238467810
30
0.0000000000
11
-5.5829838103
21
-16.0806107654
31
0.0000000000
11
-5.5885698894
21
-16.0238467810
31
0.0000000000
0
SPLINE
5
433
100
AcDbEntity
8
0
100
AcDbSpline
62
0
6
CONTINUOUS
70
0
71
3
72
9
73
5
74
3
42
0.0000001000
43
0.0000001000
44
0.0000000001
12
-0.0161998689
22
0.1723328231
32
0.0000000000
13
-0.0098000602
23
0.1728121288
33
0.0000000000
40
0.0000000000
40
0.0000000000
40
0.0000000000
40
0.0000000000
40
0.6647129840
40
1.0000000000
40
1.0000000000
40
1.0000000000
40
1.0000000000
10
-5.5885698894
20
-16.0238467810
30
0.0000000000
10
-5.5921593104
20
-15.9856628260
30
0.0000000000
10
-5.5970090760
20
-15.9281661225
30
0.0000000000
10
-5.6006233607
20
-15.8705828574
30
0.0000000000
10
-5.6017186383
20
-15.8512689697
30
0.0000000000
11
-5.5885698894
21
-16.0238467810
31
0.0000000000
11
-5.5980608257
21
-15.9091869686
31
0.0000000000
11
-5.6017186383
21
-15.8512689697
31
0.0000000000
0
SPLINE
5
434
100
AcDbEntity
8
0
100
AcDbSpline
62
0
6
CONTINUOUS
70
0
71
3
72
8
73
4
74
2
42
0.0000001000
43
0.0000001000
44
0.0000000001
12
-0.0066311072
22
0.1169315014
32
0.0000000000
13
-0.0043341481
23
0.1170335722
33
0.0000000000
40
0.0000000000
40
0.0000000000
40
0.0000000000
40
0.0000000000
40
1.0000000000
40
1.0000000000
40
1.0000000000
40
1.0000000000
10
-5.6017186383
20
-15.8512689697
30
0.0000000000
10
-5.6039290074
20
-15.8122918026
30
0.0000000000
10
-5.6056647248
20
-15.7732862629
30
0.0000000000
10
-5.6071094408
20
-15.7342750722
30
0.0000000000
11
-5.6017186383
21
-15.8512689697
31
0.0000000000
11
-5.6071094408
21
-15.7342750722
31
0.0000000000
0
SPLINE
5
435
100
AcDbEntity
8
0
100
AcDbSpline
62
0
6
CONTINUOUS
70
0
71
3
72
8
73
4
74
2
42
0.0000001000
43
0.0000001000
44
0.0000000001
12
-0.0021741975
22
-0.0586972578
32
0.0000000000
13
-0.0027093251
23
-0.0586785670
33
0.0000000000
40
0.0000000000
40
0.0000000000
40
0.0000000000
40
0.0000000000
40
1.0000000000
40
1.0000000000
40
1.0000000000
40
1.0000000000
10
5.6044584955
20
-15.7342708439
30
0.0000000000
10
5.6037337630
20
-15.7538365966
30
0.0000000000
10
5.6029291716
20
-15.7734005187
30
0.0000000000
10
5.6020260632
20
-15.7929600411
30
0.0000000000
11
5.6044584955
21
-15.7342708439
31
0.0000000000
11
5.6020260632
21
-15.7929600411
31
0.0000000000
0
SPLINE
5
436
100
AcDbEntity
8
0
100
AcDbSpline
62
0
6
CONTINUOUS
70
0
71
3
72
8
73
4
74
2
42
0.0000001000
43
0.0000001000
44
0.0000000001
12
-0.0026928237
22
-0.0583211782
32
0.0000000000
13
-0.0033317049
23
-0.0582875315
33
0.0000000000
40
0.0000000000
40
0.0000000000
40
0.0000000000
40
0.0000000000
40
1.0000000000
40
1.0000000000
40
1.0000000000
40
1.0000000000
10
5.6020260632
20
-15.7929600411
30
0.0000000000
10
5.6011284554
20
-15.8124004338
30
0.0000000000
10
5.6001335269
20
-15.8318364801
30
0.0000000000
10
5.5990229586
20
-15.8512656573
30
0.0000000000
11
5.6020260632
21
-15.7929600411
31
0.0000000000
11
5.5990229586
21
-15.8512656573
31
0.0000000000
0
SPLINE
5
437
100
AcDbEntity
8
0
100
AcDbSpline
62
0
6
CONTINUOUS
70
0
71
3
72
9
73
5
74
3
42
0.0000001000
43
0.0000001000
44
0.0000000001
12
-0.0098776952
22
-0.1728083652
32
0.0000000000
13
-0.0161214125
23
-0.1723394578
33
0.0000000000
40
0.0000000000
40
0.0000000000
40
0.0000000000
40
0.0000000000
40
0.3352902954
40
1.0000000000
40
1.0000000000
40
1.0000000000
40
1.0000000000
10
5.5990229586
20
-15.8512656573
30
0.0000000000
10
5.5979189935
20
-15.8705793132
30
0.0000000000
10
5.5942856229
20
-15.9281618573
30
0.0000000000
10
5.5894757385
20
-15.9856619801
30
0.0000000000
10
5.5859037187
20
-16.0238472168
30
0.0000000000
11
5.5990229586
21
-15.8512656573
31
0.0000000000
11
5.5953502625
21
-15.9091837839
31
0.0000000000
11
5.5859037187
21
-16.0238472168
31
0.0000000000
0
SPLINE
5
438
100
AcDbEntity
8
0
100
AcDbSpline
62
0
6
CONTINUOUS
70
0
71
3
72
8
73
4
74
2
42
0.0000001000
43
0.0000001000
44
0.0000000001
12
-0.0053123693
22
-0.0567897414
32
0.0000000000
13
-0.0058120996
23
-0.0567374487
33
0.0000000000
40
0.0000000000
40
0.0000000000
40
0.0000000000
40
0.0000000000
40
1.0000000000
40
1.0000000000
40
1.0000000000
40
1.0000000000
10
5.5859037187
20
-16.0238472168
30
0.0000000000
10
5.5841329290
20
-16.0427771306
30
0.0000000000
10
5.5822700188
20
-16.0616982825
30
0.0000000000
10
5.5803326523
20
-16.0806107654
30
0.0000000000
11
5.5859037187
21
-16.0238472168
31
0.0000000000
11
5.5803326523
21
-16.0806107654
31
0.0000000000
0
SPLINE
5
439
100
AcDbEntity
8
0
100
AcDbSpline
62
0
6
CONTINUOUS
70
0
71
3
72
10
73
6
74
4
42
0.0000001000
43
0.0000001000
44
0.0000000001
12
0.1284179132
22
0.3350210411
32
0.0000000000
13
0.3587899921
23
-0.0000000000
33
0.0000000000
40
0.0000000000
40
0.0000000000
40
0.0000000000
40
0.0000000000
40
0.3342255691
40
0.6672833410
40
1.0000000000
40
1.0000000000
40
1.0000000000
40
1.0000000000
10
-6.8167755499
20
-11.1802972688
30
0.0000000000
10
-6.8024686998
20
-11.1429730694
30
0.0000000000
10
-6.7582368594
20
-11.0734612482
30
0.0000000000
10
-6.6571580877
20
-11.0040963477
30
0.0000000000
10
-6.5766122566
20
-10.9877904423
30
0.0000000000
10
-6.5368204541
20
-10.9877904423
30
0.0000000000
11
-6.8167755499
21
-11.1802972688
31
0.0000000000
11
-6.7523350323
21
-11.0791663831
31
0.0000000000
11
-6.6538076708
21
-11.0115492098
31
0.0000000000
11
-6.5368204541
21
-10.9877904423
31
0.0000000000
0
SPLINE
5
43A
100
AcDbEntity
8
0
100
AcDbSpline
62
0
6
CONTINUOUS
70
0
71
3
72
10
73
6
74
4
42
0.0000001000
43
0.0000001000
44
0.0000000001
12
-0.3587899764
22
-0.0000000000
32
0.0000000000
13
-0.1284179075
23
0.3350210265
33
0.0000000000
40
0.0000000000
40
0.0000000000
40
0.0000000000
40
0.0000000000
40
0.3344497805
40
0.6674466338
40
1.0000000000
40
1.0000000000
40
1.0000000000
40
1.0000000000
10
-6.5368204541
20
-14.9877904423
30
0.0000000000
10
-6.5768195304
20
-14.9877904423
30
0.0000000000
10
-6.6575791283
20
-14.9713525679
30
0.0000000000
10
-6.7585087079
20
-14.9017734784
30
0.0000000000
10
-6.8025402807
20
-14.8324210726
30
0.0000000000
10
-6.8167755499
20
-14.7952836159
30
0.0000000000
11
-6.5368204541
21
-14.9877904423
31
0.0000000000
11
-6.6543917121
21
-14.9637834807
31
0.0000000000
11
-6.7527602232
21
-14.8959739339
31
0.0000000000
11
-6.8167755499
21
-14.7952836159
31
0.0000000000
0
SPLINE
5
43B
100
AcDbEntity
8
0
100
AcDbSpline
62
0
6
CONTINUOUS
70
0
71
3
72
10
73
6
74
4
42
0.0000001000
43
0.0000001000
44
0.0000000001
12
0.3000887779
22
0.0000000000
32
0.0000000000
13
0.1341956046
23
-0.2684116509
33
0.0000000000
40
0.0000000000
40
0.0000000000
40
0.0000000000
40
0.0000000000
40
0.4973078836
40
0.8628897268
40
1.0000000000
40
1.0000000000
40
1.0000000000
40
1.0000000000
10
-4.9235905154
20
20.3098443629
30
0.0000000000
10
-4.8738450104
20
20.3098443629
30
0.0000000000
10
-4.7823746960
20
20.3167028005
30
0.0000000000
10
-4.6971105522
20
20.2946478061
30
0.0000000000
10
-4.6297351372
20
20.3169208717
30
0.0000000000
10
-4.6236019385
20
20.3046535401
30
0.0000000000
11
-4.9235905154
21
20.3098443629
31
0.0000000000
11
-4.7743556135
21
20.3091504865
31
0.0000000000
11
-4.6646650226
21
20.3072525933
31
0.0000000000
11
-4.6236019385
21
20.3046535401
31
0.0000000000
0
SPLINE
5
43C
100
AcDbEntity
8
0
100
AcDbSpline
62
0
6
CONTINUOUS
70
0
71
3
72
10
73
6
74
4
42
0.0000001000
43
0.0000001000
44
0.0000000001
12
0.2854112351
22
0.0000000000
32
0.0000000000
13
0.1747797118
23
0.2279163333
33
0.0000000000
40
0.0000000000
40
0.0000000000
40
0.0000000000
40
0.0000000000
40
0.4770002960
40
0.8785401781
40
1.0000000000
40
1.0000000000
40
1.0000000000
40
1.0000000000
10
-4.9153719708
20
19.3122095577
30
0.0000000000
10
-4.8699915563
20
19.3122095577
30
0.0000000000
10
-4.7853358481
20
19.3290890803
30
0.0000000000
10
-4.7041064516
20
19.3826942732
30
0.0000000000
10
-4.6710339544
20
19.4204352525
30
0.0000000000
10
-4.6639577169
20
19.4296628116
30
0.0000000000
11
-4.9153719708
21
19.3122095577
31
0.0000000000
11
-4.7819830031
21
19.3394459578
31
0.0000000000
11
-4.6869028049
21
19.4034290126
31
0.0000000000
11
-4.6639577169
21
19.4296628116
31
0.0000000000
0
SPLINE
5
43D
100
AcDbEntity
8
0
100
AcDbSpline
62
0
6
CONTINUOUS
70
0
71
3
72
9
73
5
74
3
42
0.0000001000
43
0.0000001000
44
0.0000000001
12
0.0765721154
22
0.0998516109
32
0.0000000000
13
0.0172869180
23
0.1245271175
33
0.0000000000
40
0.0000000000
40
0.0000000000
40
0.0000000000
40
0.0000000000
40
0.5173499008
40
1.0000000000
40
1.0000000000
40
1.0000000000
40
1.0000000000
10
-4.6639577169
20
19.4296628116
30
0.0000000000
10
-4.6507528581
20
19.4468822186
30
0.0000000000
10
-4.6292971330
20
19.4832805919
30
0.0000000000
10
-4.6180571149
20
19.5242243046
30
0.0000000000
10
-4.6152759373
20
19.5442586464
30
0.0000000000
11
-4.6639577169
21
19.4296628116
31
0.0000000000
11
-4.6312868670
21
19.4857601725
31
0.0000000000
11
-4.6152759373
21
19.5442586464
31
0.0000000000
0
SPLINE
5
43E
100
AcDbEntity
8
0
100
AcDbSpline
62
0
6
CONTINUOUS
70
0
71
3
72
8
73
4
74
2
42
0.0000001000
43
0.0000001000
44
0.0000000001
12
0.0039752813
22
0.0286361239
32
0.0000000000
13
0.0002886394
23
0.0287527314
33
0.0000000000
40
0.0000000000
40
0.0000000000
40
0.0000000000
40
0.0000000000
40
1.0000000000
40
1.0000000000
40
1.0000000000
40
1.0000000000
10
-4.6152759373
20
19.5442586464
30
0.0000000000
10
-4.6139508436
20
19.5538040211
30
0.0000000000
10
-4.6132259103
20
19.5634113352
30
0.0000000000
10
-4.6131296971
20
19.5729955790
30
0.0000000000
11
-4.6152759373
21
19.5442586464
31
0.0000000000
11
-4.6131296971
21
19.5729955790
31
0.0000000000
0
SPLINE
5
43F
100
AcDbEntity
8
0
100
AcDbSpline
62
0
6
CONTINUOUS
70
0
71
3
72
11
73
7
74
5
42
0.0000001000
43
0.0000001000
44
0.0000000001
12
0.0002576444
22
-0.4681422303
32
0.0000000000
13
-0.4681423012
23
0.0000000000
33
0.0000000000
40
0.0000000000
40
0.0000000000
40
0.0000000000
40
0.0000000000
40
0.2503539262
40
0.4991000948
40
0.7487438262
40
1.0000000000
40
1.0000000000
40
1.0000000000
40
1.0000000000
10
-4.6008213186
20
18.8122095577
30
0.0000000000
10
-4.6007998178
20
18.7731424759
30
0.0000000000
10
-4.6163618987
20
18.6943918223
30
0.0000000000
10
-4.6829069630
20
18.5948320822
30
0.0000000000
10
-4.7824293367
20
18.5279276607
30
0.0000000000
10
-4.8614610770
20
18.5122095577
30
0.0000000000
10
-4.9006689581
20
18.5122095577
30
0.0000000000
11
-4.6008213186
21
18.8122095577
31
0.0000000000
11
-4.6236574199
21
18.6972545728
31
0.0000000000
11
-4.6882752932
21
18.6003793552
31
0.0000000000
11
-4.7853283047
21
18.5352715428
31
0.0000000000
11
-4.9006689581
21
18.5122095577
31
0.0000000000
0
SPLINE
5
440
100
AcDbEntity
8
0
100
AcDbSpline
62
0
6
CONTINUOUS
70
0
71
3
72
10
73
6
74
4
42
0.0000001000
43
0.0000001000
44
0.0000000001
12
0.1341956046
22
0.2684116509
32
0.0000000000
13
0.3000887779
23
-0.0000000000
33
0.0000000000
40
0.0000000000
40
0.0000000000
40
0.0000000000
40
0.0000000000
40
0.1371102732
40
0.5026921164
40
1.0000000000
40
1.0000000000
40
1.0000000000
40
1.0000000000
10
-5.3790492196
20
20.3046535401
30
0.0000000000
10
-5.3729160209
20
20.3169208717
30
0.0000000000
10
-5.3055406059
20
20.2946478061
30
0.0000000000
10
-5.2202764621
20
20.3167028005
30
0.0000000000
10
-5.1288061477
20
20.3098443629
30
0.0000000000
10
-5.0790606426
20
20.3098443629
30
0.0000000000
11
-5.3790492196
21
20.3046535401
31
0.0000000000
11
-5.3379861355
21
20.3072525933
31
0.0000000000
11
-5.2282955446
21
20.3091504865
31
0.0000000000
11
-5.0790606426
21
20.3098443629
31
0.0000000000
0
SPLINE
5
441
100
AcDbEntity
8
0
100
AcDbSpline
62
0
6
CONTINUOUS
70
0
71
3
72
10
73
6
74
4
42
0.0000001000
43
0.0000001000
44
0.0000000001
12
0.0030422152
22
-0.3030493991
32
0.0000000000
13
0.2807899531
23
-0.1206886436
33
0.0000000000
40
0.0000000000
40
0.0000000000
40
0.0000000000
40
0.0000000000
40
0.2940131188
40
0.6218497055
40
1.0000000000
40
1.0000000000
40
1.0000000000
40
1.0000000000
10
-5.3895214609
20
19.5729955790
30
0.0000000000
10
-5.3892233105
20
19.5432954127
30
0.0000000000
10
-5.3758230848
20
19.4800097828
30
0.0000000000
10
-5.3169556999
20
19.3948441216
30
0.0000000000
10
-5.2560617561
20
19.3546587732
30
0.0000000000
10
-5.2206681550
20
19.3394459578
30
0.0000000000
11
-5.3895214609
21
19.5729955790
31
0.0000000000
11
-5.3713642911
21
19.4857601725
31
0.0000000000
11
-5.3157483531
21
19.4034290126
31
0.0000000000
11
-5.2206681550
21
19.3394459578
31
0.0000000000
0
SPLINE
5
442
100
AcDbEntity
8
0
100
AcDbSpline
62
0
6
CONTINUOUS
70
0
71
3
72
8
73
4
74
2
42
0.0000001000
43
0.0000001000
44
0.0000000001
12
0.0819298375
22
-0.0352149386
32
0.0000000000
13
0.0881482670
23
-0.0124556959
33
0.0000000000
40
0.0000000000
40
0.0000000000
40
0.0000000000
40
0.0000000000
40
1.0000000000
40
1.0000000000
40
1.0000000000
40
1.0000000000
10
-5.2206681550
20
19.3394459578
30
0.0000000000
10
-5.1933582092
20
19.3277076450
30
0.0000000000
10
-5.1643950445
20
19.3197272381
30
0.0000000000
10
-5.1350122889
20
19.3155753395
30
0.0000000000
11
-5.2206681550
21
19.3394459578
31
0.0000000000
11
-5.1350122889
21
19.3155753395
31
0.0000000000
0
SPLINE
5
443
100
AcDbEntity
8
0
100
AcDbSpline
62
0
6
CONTINUOUS
70
0
71
3
72
8
73
4
74
2
42
0.0000001000
43
0.0000001000
44
0.0000000001
12
0.0475604216
22
-0.0067204741
32
0.0000000000
13
0.0477120147
23
0.0000000000
33
0.0000000000
40
0.0000000000
40
0.0000000000
40
0.0000000000
40
0.0000000000
40
1.0000000000
40
1.0000000000
40
1.0000000000
40
1.0000000000
10
-5.1350122889
20
19.3155753395
30
0.0000000000
10
-5.1191588150
20
19.3133351815
30
0.0000000000
10
-5.1031831921
20
19.3122095577
30
0.0000000000
10
-5.0872791872
20
19.3122095577
30
0.0000000000
11
-5.1350122889
21
19.3155753395
31
0.0000000000
11
-5.0872791872
21
19.3122095577
31
0.0000000000
0
SPLINE
5
444
100
AcDbEntity
8
0
100
AcDbSpline
62
0
6
CONTINUOUS
70
0
71
3
72
9
73
5
74
3
42
0.0000001000
43
0.0000001000
44
0.0000000001
12
-0.2334753857
22
0.0000000000
32
0.0000000000
13
-0.1663155729
23
0.1657258968
33
0.0000000000
40
0.0000000000
40
0.0000000000
40
0.0000000000
40
0.0000000000
40
0.5014211041
40
1.0000000000
40
1.0000000000
40
1.0000000000
40
1.0000000000
10
-5.1019822000
20
18.5122095577
30
0.0000000000
10
-5.1410053618
20
18.5122095577
30
0.0000000000
10
-5.2196862646
20
18.5277825046
30
0.0000000000
10
-5.2860020871
20
18.5721036566
30
0.0000000000
10
-5.3136425654
20
18.5996461349
30
0.0000000000
11
-5.1019822000
21
18.5122095577
31
0.0000000000
11
-5.2168010250
21
18.5350547297
31
0.0000000000
11
-5.3136425654
21
18.5996461349
31
0.0000000000
0
SPLINE
5
445
100
AcDbEntity
8
0
100
AcDbSpline
62
0
6
CONTINUOUS
70
0
71
3
72
9
73
5
74
3
42
0.0000001000
43
0.0000001000
44
0.0000000001
12
-0.1390478725
22
0.1385548748
32
0.0000000000
13
-0.0259093627
23
0.1946549068
33
0.0000000000
40
0.0000000000
40
0.0000000000
40
0.0000000000
40
0.0000000000
40
0.5989768377
40
1.0000000000
40
1.0000000000
40
1.0000000000
40
1.0000000000
10
-5.3136425654
20
18.5996461349
30
0.0000000000
10
-5.3414047170
20
18.6273098551
30
0.0000000000
10
-5.3786200283
20
18.6826653340
30
0.0000000000
10
-5.3957465970
20
18.7467059834
30
0.0000000000
10
-5.3992100151
20
18.7727263588
30
0.0000000000
11
-5.3136425654
21
18.5996461349
31
0.0000000000
11
-5.3787796324
21
18.6967391614
31
0.0000000000
11
-5.3992100151
21
18.7727263588
31
0.0000000000
0
SPLINE
5
446
100
AcDbEntity
8
0
100
AcDbSpline
62
0
6
CONTINUOUS
70
0
71
3
72
10
73
6
74
4
42
0.0000001000
43
0.0000001000
44
0.0000000001
12
0.3000887779
22
0.0000000000
32
0.0000000000
13
0.1341956046
23
-0.2684116509
33
0.0000000000
40
0.0000000000
40
0.0000000000
40
0.0000000000
40
0.0000000000
40
0.4973078836
40
0.8628897268
40
1.0000000000
40
1.0000000000
40
1.0000000000
40
1.0000000000
10
5.0764094846
20
20.3098443629
30
0.0000000000
10
5.1261549896
20
20.3098443629
30
0.0000000000
10
5.2176253040
20
20.3167028005
30
0.0000000000
10
5.3028894478
20
20.2946478061
30
0.0000000000
10
5.3702648628
20
20.3169208717
30
0.0000000000
10
5.3763980615
20
20.3046535401
30
0.0000000000
11
5.0764094846
21
20.3098443629
31
0.0000000000
11
5.2256443865
21
20.3091504865
31
0.0000000000
11
5.3353349774
21
20.3072525933
31
0.0000000000
11
5.3763980615
21
20.3046535401
31
0.0000000000
0
SPLINE
5
447
100
AcDbEntity
8
0
100
AcDbSpline
62
0
6
CONTINUOUS
70
0
71
3
72
10
73
6
74
4
42
0.0000001000
43
0.0000001000
44
0.0000000001
12
0.2854112351
22
0.0000000000
32
0.0000000000
13
0.1747797118
23
0.2279163333
33
0.0000000000
40
0.0000000000
40
0.0000000000
40
0.0000000000
40
0.0000000000
40
0.4770002960
40
0.8785401781
40
1.0000000000
40
1.0000000000
40
1.0000000000
40
1.0000000000
10
5.0846280292
20
19.3122095577
30
0.0000000000
10
5.1300084437
20
19.3122095577
30
0.0000000000
10
5.2146641519
20
19.3290890803
30
0.0000000000
10
5.2958935484
20
19.3826942732
30
0.0000000000
10
5.3289660456
20
19.4204352525
30
0.0000000000
10
5.3360422831
20
19.4296628116
30
0.0000000000
11
5.0846280292
21
19.3122095577
31
0.0000000000
11
5.2180169969
21
19.3394459578
31
0.0000000000
11
5.3130971951
21
19.4034290126
31
0.0000000000
11
5.3360422831
21
19.4296628116
31
0.0000000000
0
SPLINE
5
448
100
AcDbEntity
8
0
100
AcDbSpline
62
0
6
CONTINUOUS
70
0
71
3
72
9
73
5
74
3
42
0.0000001000
43
0.0000001000
44
0.0000000001
12
0.0765721154
22
0.0998516109
32
0.0000000000
13
0.0172869180
23
0.1245271175
33
0.0000000000
40
0.0000000000
40
0.0000000000
40
0.0000000000
40
0.0000000000
40
0.5173499008
40
1.0000000000
40
1.0000000000
40
1.0000000000
40
1.0000000000
10
5.3360422831
20
19.4296628116
30
0.0000000000
10
5.3492471419
20
19.4468822186
30
0.0000000000
10
5.3707028670
20
19.4832805919
30
0.0000000000
10
5.3819428851
20
19.5242243046
30
0.0000000000
10
5.3847240627
20
19.5442586464
30
0.0000000000
11
5.3360422831
21
19.4296628116
31
0.0000000000
11
5.3687131330
21
19.4857601725
31
0.0000000000
11
5.3847240627
21
19.5442586464
31
0.0000000000
0
SPLINE
5
449
100
AcDbEntity
8
0
100
AcDbSpline
62
0
6
CONTINUOUS
70
0
71
3
72
8
73
4
74
2
42
0.0000001000
43
0.0000001000
44
0.0000000001
12
0.0039752813
22
0.0286361239
32
0.0000000000
13
0.0002886394
23
0.0287527314
33
0.0000000000
40
0.0000000000
40
0.0000000000
40
0.0000000000
40
0.0000000000
40
1.0000000000
40
1.0000000000
40
1.0000000000
40
1.0000000000
10
5.3847240627
20
19.5442586464
30
0.0000000000
10
5.3860491564
20
19.5538040211
30
0.0000000000
10
5.3867740897
20
19.5634113352
30
0.0000000000
10
5.3868703029
20
19.5729955790
30
0.0000000000
11
5.3847240627
21
19.5442586464
31
0.0000000000
11
5.3868703029
21
19.5729955790
31
0.0000000000
0
SPLINE
5
44A
100
AcDbEntity
8
0
100
AcDbSpline
62
0
6
CONTINUOUS
70
0
71
3
72
11
73
7
74
5
42
0.0000001000
43
0.0000001000
44
0.0000000001
12
0.0002576444
22
-0.4681422303
32
0.0000000000
13
-0.4681423012
23
0.0000000000
33
0.0000000000
40
0.0000000000
40
0.0000000000
40
0.0000000000
40
0.0000000000
40
0.2503539262
40
0.4991000948
40
0.7487438262
40
1.0000000000
40
1.0000000000
40
1.0000000000
40
1.0000000000
10
5.3991786814
20
18.8122095577
30
0.0000000000
10
5.3992001822
20
18.7731424759
30
0.0000000000
10
5.3836381013
20
18.6943918223
30
0.0000000000
10
5.3170930370
20
18.5948320822
30
0.0000000000
10
5.2175706633
20
18.5279276607
30
0.0000000000
10
5.1385389230
20
18.5122095577
30
0.0000000000
10
5.0993310419
20
18.5122095577
30
0.0000000000
11
5.3991786814
21
18.8122095577
31
0.0000000000
11
5.3763425801
21
18.6972545728
31
0.0000000000
11
5.3117247068
21
18.6003793552
31
0.0000000000
11
5.2146716953
21
18.5352715428
31
0.0000000000
11
5.0993310419
21
18.5122095577
31
0.0000000000
0
SPLINE
5
44B
100
AcDbEntity
8
0
100
AcDbSpline
62
0
6
CONTINUOUS
70
0
71
3
72
10
73
6
74
4
42
0.0000001000
43
0.0000001000
44
0.0000000001
12
0.1341956046
22
0.2684116509
32
0.0000000000
13
0.3000887779
23
-0.0000000000
33
0.0000000000
40
0.0000000000
40
0.0000000000
40
0.0000000000
40
0.0000000000
40
0.1371102732
40
0.5026921164
40
1.0000000000
40
1.0000000000
40
1.0000000000
40
1.0000000000
10
4.6209507804
20
20.3046535401
30
0.0000000000
10
4.6270839791
20
20.3169208717
30
0.0000000000
10
4.6944593942
20
20.2946478061
30
0.0000000000
10
4.7797235379
20
20.3167028005
30
0.0000000000
10
4.8711938523
20
20.3098443629
30
0.0000000000
10
4.9209393574
20
20.3098443629
30
0.0000000000
11
4.6209507804
21
20.3046535401
31
0.0000000000
11
4.6620138645
21
20.3072525933
31
0.0000000000
11
4.7717044554
21
20.3091504865
31
0.0000000000
11
4.9209393574
21
20.3098443629
31
0.0000000000
0
SPLINE
5
44C
100
AcDbEntity
8
0
100
AcDbSpline
62
0
6
CONTINUOUS
70
0
71
3
72
10
73
6
74
4
42
0.0000001000
43
0.0000001000
44
0.0000000001
12
0.0030422152
22
-0.3030493991
32
0.0000000000
13
0.2807899531
23
-0.1206886436
33
0.0000000000
40
0.0000000000
40
0.0000000000
40
0.0000000000
40
0.0000000000
40
0.2940131188
40
0.6218497055
40
1.0000000000
40
1.0000000000
40
1.0000000000
40
1.0000000000
10
4.6104785391
20
19.5729955790
30
0.0000000000
10
4.6107766895
20
19.5432954127
30
0.0000000000
10
4.6241769152
20
19.4800097828
30
0.0000000000
10
4.6830443001
20
19.3948441216
30
0.0000000000
10
4.7439382439
20
19.3546587732
30
0.0000000000
10
4.7793318450
20
19.3394459578
30
0.0000000000
11
4.6104785391
21
19.5729955790
31
0.0000000000
11
4.6286357089
21
19.4857601725
31
0.0000000000
11
4.6842516469
21
19.4034290126
31
0.0000000000
11
4.7793318450
21
19.3394459578
31
0.0000000000
0
SPLINE
5
44D
100
AcDbEntity
8
0
100
AcDbSpline
62
0
6
CONTINUOUS
70
0
71
3
72
8
73
4
74
2
42
0.0000001000
43
0.0000001000
44
0.0000000001
12
0.0819298375
22
-0.0352149386
32
0.0000000000
13
0.0881482670
23
-0.0124556959
33
0.0000000000
40
0.0000000000
40
0.0000000000
40
0.0000000000
40
0.0000000000
40
1.0000000000
40
1.0000000000
40
1.0000000000
40
1.0000000000
10
4.7793318450
20
19.3394459578
30
0.0000000000
10
4.8066417908
20
19.3277076450
30
0.0000000000
10
4.8356049555
20
19.3197272381
30
0.0000000000
10
4.8649877111
20
19.3155753395
30
0.0000000000
11
4.7793318450
21
19.3394459578
31
0.0000000000
11
4.8649877111
21
19.3155753395
31
0.0000000000
0
SPLINE
5
44E
100
AcDbEntity
8
0
100
AcDbSpline
62
0
6
CONTINUOUS
70
0
71
3
72
8
73
4
74
2
42
0.0000001000
43
0.0000001000
44
0.0000000001
12
0.0475604216
22
-0.0067204741
32
0.0000000000
13
0.0477120147
23
0.0000000000
33
0.0000000000
40
0.0000000000
40
0.0000000000
40
0.0000000000
40
0.0000000000
40
1.0000000000
40
1.0000000000
40
1.0000000000
40
1.0000000000
10
4.8649877111
20
19.3155753395
30
0.0000000000
10
4.8808411850
20
19.3133351815
30
0.0000000000
10
4.8968168079
20
19.3122095577
30
0.0000000000
10
4.9127208128
20
19.3122095577
30
0.0000000000
11
4.8649877111
21
19.3155753395
31
0.0000000000
11
4.9127208128
21
19.3122095577
31
0.0000000000
0
SPLINE
5
44F
100
AcDbEntity
8
0
100
AcDbSpline
62
0
6
CONTINUOUS
70
0
71
3
72
9
73
5
74
3
42
0.0000001000
43
0.0000001000
44
0.0000000001
12
-0.2334753857
22
0.0000000000
32
0.0000000000
13
-0.1663155729
23
0.1657258968
33
0.0000000000
40
0.0000000000
40
0.0000000000
40
0.0000000000
40
0.0000000000
40
0.5014211041
40
1.0000000000
40
1.0000000000
40
1.0000000000
40
1.0000000000
10
4.8980178000
20
18.5122095577
30
0.0000000000
10
4.8589946382
20
18.5122095577
30
0.0000000000
10
4.7803137354
20
18.5277825046
30
0.0000000000
10
4.7139979129
20
18.5721036566
30
0.0000000000
10
4.6863574346
20
18.5996461349
30
0.0000000000
11
4.8980178000
21
18.5122095577
31
0.0000000000
11
4.7831989750
21
18.5350547297
31
0.0000000000
11
4.6863574346
21
18.5996461349
31
0.0000000000
0
SPLINE
5
450
100
AcDbEntity
8
0
100
AcDbSpline
62
0
6
CONTINUOUS
70
0
71
3
72
9
73
5
74
3
42
0.0000001000
43
0.0000001000
44
0.0000000001
12
-0.1390478725
22
0.1385548748
32
0.0000000000
13
-0.0259093627
23
0.1946549068
33
0.0000000000
40
0.0000000000
40
0.0000000000
40
0.0000000000
40
0.0000000000
40
0.5989768377
40
1.0000000000
40
1.0000000000
40
1.0000000000
40
1.0000000000
10
4.6863574346
20
18.5996461349
30
0.0000000000
10
4.6585952830
20
18.6273098551
30
0.0000000000
10
4.6213799717
20
18.6826653340
30
0.0000000000
10
4.6042534030
20
18.7467059834
30
0.0000000000
10
4.6007899849
20
18.7727263588
30
0.0000000000
11
4.6863574346
21
18.5996461349
31
0.0000000000
11
4.6212203676
21
18.6967391614
31
0.0000000000
11
4.6007899849
21
18.7727263588
31
0.0000000000
0
SPLINE
5
451
100
AcDbEntity
8
0
100
AcDbSpline
62
0
6
CONTINUOUS
70
0
71
3
72
10
73
6
74
4
42
0.0000001000
43
0.0000001000
44
0.0000000001
12
0.3587899764
22
0.0000000000
32
0.0000000000
13
0.1284179075
23
-0.3350210265
33
0.0000000000
40
0.0000000000
40
0.0000000000
40
0.0000000000
40
0.0000000000
40
0.3344497805
40
0.6674466338
40
1.0000000000
40
1.0000000000
40
1.0000000000
40
1.0000000000
10
6.5341692960
20
-10.9877904423
30
0.0000000000
10
6.5741683723
20
-10.9877904423
30
0.0000000000
10
6.6549279702
20
-11.0042283168
30
0.0000000000
10
6.7558575498
20
-11.0738074062
30
0.0000000000
10
6.7998891227
20
-11.1431598121
30
0.0000000000
10
6.8141243918
20
-11.1802972688
30
0.0000000000
11
6.5341692960
21
-10.9877904423
31
0.0000000000
11
6.6517405541
21
-11.0117974040
31
0.0000000000
11
6.7501090651
21
-11.0796069508
31
0.0000000000
11
6.8141243918
21
-11.1802972688
31
0.0000000000
0
SPLINE
5
452
100
AcDbEntity
8
0
100
AcDbSpline
62
0
6
CONTINUOUS
70
0
71
3
72
10
73
6
74
4
42
0.0000001000
43
0.0000001000
44
0.0000000001
12
-0.1284179132
22
-0.3350210411
32
0.0000000000
13
-0.3587899921
23
0.0000000000
33
0.0000000000
40
0.0000000000
40
0.0000000000
40
0.0000000000
40
0.0000000000
40
0.3342255691
40
0.6672833410
40
1.0000000000
40
1.0000000000
40
1.0000000000
40
1.0000000000
10
6.8141243918
20
-14.7952836159
30
0.0000000000
10
6.7998175418
20
-14.8326078153
30
0.0000000000
10
6.7555857014
20
-14.9021196365
30
0.0000000000
10
6.6545069296
20
-14.9714845370
30
0.0000000000
10
6.5739610985
20
-14.9877904423
30
0.0000000000
10
6.5341692960
20
-14.9877904423
30
0.0000000000
11
6.8141243918
21
-14.7952836159
31
0.0000000000
11
6.7496838742
21
-14.8964145016
31
0.0000000000
11
6.6511565127
21
-14.9640316749
31
0.0000000000
11
6.5341692960
21
-14.9877904423
31
0.0000000000
0
SPLINE
5
453
100
AcDbEntity
8
0
100
AcDbSpline
62
0
6
CONTINUOUS
70
0
71
3
72
10
73
6
74
4
42
0.0000001000
43
0.0000001000
44
0.0000000001
12
-0.1497495011
22
0.0055163513
32
0.0000000000
13
-0.1142117673
23
-0.0980526771
33
0.0000000000
40
0.0000000000
40
0.0000000000
40
0.0000000000
40
0.0000000000
40
0.4674559703
40
0.9069468404
40
1.0000000000
40
1.0000000000
40
1.0000000000
40
1.0000000000
10
6.0704119182
20
-11.0137078769
30
0.0000000000
10
6.0470781521
20
-11.0128483264
30
0.0000000000
10
6.0011226347
20
-11.0188193053
30
0.0000000000
10
5.9557096340
20
-11.0416847473
30
0.0000000000
10
5.9348053226
20
-11.0583525636
30
0.0000000000
10
5.9312627340
20
-11.0613939340
30
0.0000000000
11
6.0704119182
21
-11.0137078769
31
0.0000000000
11
6.0009723596
21
-11.0229262783
31
0.0000000000
11
5.9422108274
21
-11.0526648363
31
0.0000000000
11
5.9312627340
21
-11.0613939340
31
0.0000000000
0
SPLINE
5
454
100
AcDbEntity
8
0
100
AcDbSpline
62
0
6
CONTINUOUS
70
0
71
3
72
11
73
7
74
5
42
0.0000001000
43
0.0000001000
44
0.0000000001
12
-0.1674806200
22
-0.1437848615
32
0.0000000000
13
0.0659886058
23
-0.2107391976
33
0.0000000000
40
0.0000000000
40
0.0000000000
40
0.0000000000
40
0.0000000000
40
0.2207829933
40
0.5025233441
40
0.7979316599
40
1.0000000000
40
1.0000000000
40
1.0000000000
40
1.0000000000
10
5.9312627340
20
-11.0613939340
30
0.0000000000
10
5.9189371098
20
-11.0719756847
30
0.0000000000
10
5.8939161015
20
-11.0996136689
30
0.0000000000
10
5.8685938877
20
-11.1535091663
30
0.0000000000
10
5.8629116950
20
-11.2114217258
30
0.0000000000
10
5.8699553185
20
-11.2477060521
30
0.0000000000
10
5.8744000545
20
-11.2619006254
30
0.0000000000
11
5.9312627340
21
-11.0613939340
31
0.0000000000
11
5.8987026510
21
-11.0974780429
31
0.0000000000
11
5.8723893336
21
-11.1535181113
31
0.0000000000
11
5.8659939017
21
-11.2181159839
31
0.0000000000
11
5.8744000545
21
-11.2619006254
31
0.0000000000
0
SPLINE
5
455
100
AcDbEntity
8
0
100
AcDbSpline
62
0
6
CONTINUOUS
70
0
71
3
72
8
73
4
74
2
42
0.0000001000
43
0.0000001000
44
0.0000000001
12
0.0070798766
22
-0.0226100777
32
0.0000000000
13
0.0096792519
23
-0.0214974483
33
0.0000000000
40
0.0000000000
40
0.0000000000
40
0.0000000000
40
0.0000000000
40
1.0000000000
40
1.0000000000
40
1.0000000000
40
1.0000000000
10
5.8744000545
20
-11.2619006254
30
0.0000000000
10
5.8767600133
20
-11.2694373180
30
0.0000000000
10
5.8795664427
20
-11.2768207527
30
0.0000000000
10
5.8827928600
20
-11.2839865688
30
0.0000000000
11
5.8744000545
21
-11.2619006254
31
0.0000000000
11
5.8827928600
21
-11.2839865688
31
0.0000000000
0
SPLINE
5
456
100
AcDbEntity
8
0
100
AcDbSpline
62
0
6
CONTINUOUS
70
0
71
3
72
11
73
7
74
5
42
0.0000001000
43
0.0000001000
44
0.0000000001
12
-0.0998994696
22
-0.2218749650
32
0.0000000000
13
0.1854491525
23
-0.1592177509
33
0.0000000000
40
0.0000000000
40
0.0000000000
40
0.0000000000
40
0.0000000000
40
0.2774565424
40
0.5424557079
40
0.7963574157
40
1.0000000000
40
1.0000000000
40
1.0000000000
40
1.0000000000
10
5.8827928600
20
-14.6915943159
30
0.0000000000
10
5.8735536062
20
-14.7121145361
30
0.0000000000
10
5.8622227968
20
-14.7557188956
30
0.0000000000
10
5.8684090827
20
-14.8212625389
30
0.0000000000
10
5.8935136194
20
-14.8754339155
30
0.0000000000
10
5.9186722351
20
-14.9033780658
30
0.0000000000
10
5.9312606833
20
-14.9141859039
30
0.0000000000
11
5.8827928600
21
-14.6915943159
31
0.0000000000
11
5.8660293096
21
-14.7569928833
31
0.0000000000
11
5.8721461012
21
-14.8211837615
31
0.0000000000
11
5.8981118007
21
-14.8772436938
31
0.0000000000
11
5.9312606833
21
-14.9141859039
31
0.0000000000
0
SPLINE
5
457
100
AcDbEntity
8
0
100
AcDbSpline
62
0
6
CONTINUOUS
70
0
71
3
72
10
73
6
74
4
42
0.0000001000
43
0.0000001000
44
0.0000000001
12
0.1141995932
22
-0.0980462954
32
0.0000000000
13
0.1497396858
23
0.0055159897
33
0.0000000000
40
0.0000000000
40
0.0000000000
40
0.0000000000
40
0.0000000000
40
0.0853415018
40
0.5272093497
40
1.0000000000
40
1.0000000000
40
1.0000000000
40
1.0000000000
10
5.9312606833
20
-14.9141859039
30
0.0000000000
10
5.9345093383
20
-14.9169750433
30
0.0000000000
10
5.9551506216
20
-14.9335349546
30
0.0000000000
10
6.0004560127
20
-14.9566300409
30
0.0000000000
10
6.0468134104
20
-14.9627423106
30
0.0000000000
10
6.0704119182
20
-14.9618730078
30
0.0000000000
11
5.9312606833
21
-14.9141859039
31
0.0000000000
11
5.9412769206
21
-14.9222214085
31
0.0000000000
11
6.0002029163
21
-14.9524123852
31
0.0000000000
11
6.0704119182
21
-14.9618730078
31
0.0000000000
0
SPLINE
5
458
100
AcDbEntity
8
0
100
AcDbSpline
62
0
6
CONTINUOUS
70
0
71
3
72
10
73
6
74
4
42
0.0000001000
43
0.0000001000
44
0.0000000001
12
0.1497495011
22
-0.0055163513
32
0.0000000000
13
0.1142117673
23
0.0980526771
33
0.0000000000
40
0.0000000000
40
0.0000000000
40
0.0000000000
40
0.0000000000
40
0.4674559703
40
0.9069468404
40
1.0000000000
40
1.0000000000
40
1.0000000000
40
1.0000000000
10
-6.0730630762
20
-14.9618730078
30
0.0000000000
10
-6.0497293101
20
-14.9627325583
30
0.0000000000
10
-6.0037737928
20
-14.9567615794
30
0.0000000000
10
-5.9583607920
20
-14.9338961374
30
0.0000000000
10
-5.9374564806
20
-14.9172283211
30
0.0000000000
10
-5.9339138920
20
-14.9141869506
30
0.0000000000
11
-6.0730630762
21
-14.9618730078
31
0.0000000000
11
-6.0036235177
21
-14.9526546064
31
0.0000000000
11
-5.9448619854
21
-14.9229160484
31
0.0000000000
11
-5.9339138920
21
-14.9141869506
31
0.0000000000
0
SPLINE
5
459
100
AcDbEntity
8
0
100
AcDbSpline
62
0
6
CONTINUOUS
70
0
71
3
72
11
73
7
74
5
42
0.0000001000
43
0.0000001000
44
0.0000000001
12
0.1674806200
22
0.1437848615
32
0.0000000000
13
-0.0659886058
23
0.2107391976
33
0.0000000000
40
0.0000000000
40
0.0000000000
40
0.0000000000
40
0.0000000000
40
0.2207829933
40
0.5025233441
40
0.7979316599
40
1.0000000000
40
1.0000000000
40
1.0000000000
40
1.0000000000
10
-5.9339138920
20
-14.9141869506
30
0.0000000000
10
-5.9215882678
20
-14.9036051999
30
0.0000000000
10
-5.8965672595
20
-14.8759672157
30
0.0000000000
10
-5.8712450458
20
-14.8220717184
30
0.0000000000
10
-5.8655628531
20
-14.7641591589
30
0.0000000000
10
-5.8726064765
20
-14.7278748325
30
0.0000000000
10
-5.8770512125
20
-14.7136802593
30
0.0000000000
11
-5.9339138920
21
-14.9141869506
31
0.0000000000
11
-5.9013538090
21
-14.8781028417
31
0.0000000000
11
-5.8750404917
21
-14.8220627733
31
0.0000000000
11
-5.8686450597
21
-14.7574649008
31
0.0000000000
11
-5.8770512125
21
-14.7136802593
31
0.0000000000
0
SPLINE
5
45A
100
AcDbEntity
8
0
100
AcDbSpline
62
0
6
CONTINUOUS
70
0
71
3
72
8
73
4
74
2
42
0.0000001000
43
0.0000001000
44
0.0000000001
12
-0.0070798766
22
0.0226100777
32
0.0000000000
13
-0.0096792519
23
0.0214974483
33
0.0000000000
40
0.0000000000
40
0.0000000000
40
0.0000000000
40
0.0000000000
40
1.0000000000
40
1.0000000000
40
1.0000000000
40
1.0000000000
10
-5.8770512125
20
-14.7136802593
30
0.0000000000
10
-5.8794111714
20
-14.7061435667
30
0.0000000000
10
-5.8822176007
20
-14.6987601320
30
0.0000000000
10
-5.8854440180
20
-14.6915943159
30
0.0000000000
11
-5.8770512125
21
-14.7136802593
31
0.0000000000
11
-5.8854440180
21
-14.6915943159
31
0.0000000000
0
SPLINE
5
45B
100
AcDbEntity
8
0
100
AcDbSpline
62
0
6
CONTINUOUS
70
0
71
3
72
11
73
7
74
5
42
0.0000001000
43
0.0000001000
44
0.0000000001
12
0.0998994696
22
0.2218749650
32
0.0000000000
13
-0.1854491525
23
0.1592177509
33
0.0000000000
40
0.0000000000
40
0.0000000000
40
0.0000000000
40
0.0000000000
40
0.2774565424
40
0.5424557079
40
0.7963574157
40
1.0000000000
40
1.0000000000
40
1.0000000000
40
1.0000000000
10
-5.8854440180
20
-11.2839865688
30
0.0000000000
10
-5.8762047642
20
-11.2634663486
30
0.0000000000
10
-5.8648739548
20
-11.2198619890
30
0.0000000000
10
-5.8710602407
20
-11.1543183457
30
0.0000000000
10
-5.8961647774
20
-11.1001469692
30
0.0000000000
10
-5.9213233932
20
-11.0722028189
30
0.0000000000
10
-5.9339118414
20
-11.0613949808
30
0.0000000000
11
-5.8854440180
21
-11.2839865688
31
0.0000000000
11
-5.8686804677
21
-11.2185880014
31
0.0000000000
11
-5.8747972592
21
-11.1543971231
31
0.0000000000
11
-5.9007629588
21
-11.0983371909
31
0.0000000000
11
-5.9339118414
21
-11.0613949808
31
0.0000000000
0
SPLINE
5
45C
100
AcDbEntity
8
0
100
AcDbSpline
62
0
6
CONTINUOUS
70
0
71
3
72
10
73
6
74
4
42
0.0000001000
43
0.0000001000
44
0.0000000001
12
-0.1141995932
22
0.0980462954
32
0.0000000000
13
-0.1497396858
23
-0.0055159897
33
0.0000000000
40
0.0000000000
40
0.0000000000
40
0.0000000000
40
0.0000000000
40
0.0853415018
40
0.5272093497
40
1.0000000000
40
1.0000000000
40
1.0000000000
40
1.0000000000
10
-5.9339118414
20
-11.0613949808
30
0.0000000000
10
-5.9371604963
20
-11.0586058414
30
0.0000000000
10
-5.9578017796
20
-11.0420459301
30
0.0000000000
10
-6.0031071708
20
-11.0189508438
30
0.0000000000
10
-6.0494645684
20
-11.0128385741
30
0.0000000000
10
-6.0730630762
20
-11.0137078769
30
0.0000000000
11
-5.9339118414
21
-11.0613949808
31
0.0000000000
11
-5.9439280786
21
-11.0533594762
31
0.0000000000
11
-6.0028540744
21
-11.0231684994
31
0.0000000000
11
-6.0730630762
21
-11.0137078769
31
0.0000000000
0
ENDSEC
0
SECTION
2
OBJECTS
0
DICTIONARY
5
C
100
AcDbDictionary
280
0
281
1
3
ACAD_GROUP
350
D
3
ACAD_MLINESTYLE
350
17
3
ACAD_LAYOUT
350
1A
3
ACAD_PLOTSETTINGS
350
19
3
ACAD_PLOTSTYLENAME
350
E
0
DICTIONARY
5
D
102
{ACAD_REACTORS
330
C
102
}
100
AcDbDictionary
280
0
281
1
0
ACDBDICTIONARYWDFLT
5
E
102
{ACAD_REACTORS
330
C
102
}
100
AcDbDictionary
281
1
3
Normal
350
F
100
AcDbDictionaryWithDefault
340
F
0
DICTIONARY
5
17
102
{ACAD_REACTORS
330
C
102
}
100
AcDbDictionary
280
0
281
1
3
Standard
350
18
0
DICTIONARY
5
19
102
{ACAD_REACTORS
330
C
102
}
100
AcDbDictionary
281
1
0
DICTIONARY
5
1A
102
{ACAD_REACTORS
330
C
102
}
100
AcDbDictionary
281
1
3
Layout1
350
1E
3
Model
350
22
0
ACDBPLACEHOLDER
5
F
102
{ACAD_REACTORS
330
E
102
}
0
MLINESTYLE
5
18
102
{ACAD_REACTORS
330
17
102
}
100
AcDbMlineStyle
2
STANDARD
70
0
3

62
256
51
90.0
52
90.0
71
2
49
0.5
62
256
6
BYLAYER
49
-0.5
62
256
6
BYLAYER
0
LAYOUT
5
1E
102
{ACAD_REACTORS
330
1A
102
}
100
AcDbPlotSettings
1

2

4

6

40
0.0
41
0.0
42
0.0
43
0.0
44
0.0
45
0.0
46
0.0
47
0.0
48
0.0
49
0.0
140
0.0
141
0.0
142
1.0
143
1.0
70
0
72
0
73
0
74
0
7

75
0
147
1.0
148
0.0
149
0.0
100
AcDbLayout
1
Layout1
70
0
71
0
10
0.0
20
0.0
11
0.0
21
0.0
12
0.0
22
0.0
32
0.0
14
0.0
24
0.0
34
0.0
15
0.0
25
0.0
35
0.0
146
0.0
13
0.0
23
0.0
33
0.0
16
0.0
26
0.0
36
0.0
17
0.0
27
0.0
37
0.0
76
0
330
1B
331
0
345
0
346
0
0
LAYOUT
5
22
102
{ACAD_REACTORS
330
1A
102
}
100
AcDbPlotSettings
1

2

4

6

40
0.0
41
0.0
42
0.0
43
0.0
44
0.0
45
0.0
46
0.0
47
0.0
48
0.0
49
0.0
140
0.0
141
0.0
142
1.0
143
1.0
70
0
72
0
73
0
74
0
7

75
0
147
1.0
148
0.0
149
0.0
100
AcDbLayout
1
Model
70
0
71
0
10
0.0
20
0.0
11
0.0
21
0.0
12
0.0
22
0.0
32
0.0
14
0.0
24
0.0
34
0.0
15
0.0
25
0.0
35
0.0
146
0.0
13
0.0
23
0.0
33
0.0
16
0.0
26
0.0
36
0.0
17
0.0
27
0.0
37
0.0
76
0
330
1F
331
0
345
0
346
0
0
ENDSEC
0
EOF
