0
SECTION
2
HEADER
9
$ACADVER
1
AC1015
9
$DWGCODEPAGE
3
ANSI_1252
9
$EXTMAX
10
431.8000000000
20
558.8000000000
30
0.0000000000
9
$EXTMIN
10
0.0000000000
20
0.0000000000
30
0.0000000000
9
$LIMMIN
10
0.0000000000
20
0.0000000000
9
$LIMMAX
10
431.8000000000
20
558.8000000000
9
$VIEWCTR
10
215.9000000000
20
279.4000000000
9
$VIEWSIZE
40
558.8000000000
9
$CLAYER
8
0
9
$LTSCALE
40
36.4254814815
9
$CELTYPE
6
BYLAYER
9
$DIMSCALE
40
1
9
$DIMASZ
40
3.0000000000
9
$DIMEXO
40
4.1392592593
9
$DIMDLI
40
25.1666962963
9
$DIMEXE
40
11.9210666667
9
$DIMCEN
40
5.9605333333
9
$DIMLFAC
40
1.0000000000
9
$DIMBLK
1
_FILLED
9
$DIMTXT
40
3.0000000000
9
$DIMTOL
70
1
9
$DIMLIM
70
0
9
$DIMTFAC
40
1.0000000000
9
$DIMTP
40
0.0100000000
9
$DIMTM
40
0.0100000000
9
$PDMODE
70
3
9
$PDSIZE
40
3.0000000000
9
$HANDSEED
5
4BC
9
$MEASUREMENT
70
1
9
$INSUNITS
70
4
0
ENDSEC
0
SECTION
2
CLASSES
0
CLASS
1
ACDBDICTIONARYWDFLT
2
AcDbDictionaryWithDefault
3
AutoCAD 2000
90
0
280
0
281
0
0
CLASS
1
ACDBPLACEHOLDER
2
AcDbPlaceHolder
3
AutoCAD 2000
90
0
280
0
281
0
0
CLASS
1
LAYOUT
2
AcDbLayout
3
AutoCAD 2000
90
0
280
0
281
0
0
ENDSEC
0
SECTION
2
TABLES
0
TABLE
2
VPORT
5
8
100
AcDbSymbolTable
70
2
0
VPORT
5
1F4
100
AcDbSymbolTableRecord
100
AcDbViewportTableRecord
2
*ACTIVE
70
0
10
0.0
20
0.0
11
1.0
21
1.0
12
215.9000000000
22
279.4000000000
13
0.0
23
0.0
14
1.0
24
1.0
15
0.0
25
0.0
16
0.0
26
0.0
36
1.0
17
0.0
27
0.0
37
0.0
40
558.8000000000
41
0.7727272727
42
50.0
43
0.0
44
0.0
50
0.0
51
0.0
71
0
72
100
73
1
74
1
75
0
76
0
77
0
78
0
0
ENDTAB
0
TABLE
2
LTYPE
5
5
100
AcDbSymbolTable
70
6
0
LTYPE
5
14
100
AcDbSymbolTableRecord
100
AcDbLinetypeTableRecord
2
BYBLOCK
70
0
3

72
65
73
0
40
0.0
0
LTYPE
5
15
100
AcDbSymbolTableRecord
100
AcDbLinetypeTableRecord
2
BYLAYER
70
0
3

72
65
73
0
40
0.0
0
LTYPE
5
16
100
AcDbSymbolTableRecord
100
AcDbLinetypeTableRecord
2
CONTINUOUS
70
64
3
Solid line
72
65
73
0
40
0
0
LTYPE
5
1F5
100
AcDbSymbolTableRecord
100
AcDbLinetypeTableRecord
2
CENTER
70
64
3
____ _ ____ _ ____ _ ____ _ ____ _ ____ _ ____
72
65
73
4
40
0.6
49
0.375
74
0
49
-0.075
74
0
49
0.075
74
0
49
-0.075
74
0
0
LTYPE
5
1F6
100
AcDbSymbolTableRecord
100
AcDbLinetypeTableRecord
2
HIDDEN
70
64
3
- - - - - - - - - - - - - - - - - - - -
72
65
73
2
40
0.2
49
0.1
74
0
49
-0.1
74
0
0
LTYPE
5
1F7
100
AcDbSymbolTableRecord
100
AcDbLinetypeTableRecord
2
PHANTOM
70
64
3
_____ _ _ _____ _ _ _____ _ _ _____
72
65
73
6
40
0.8
49
0.45
74
0
49
-0.05
74
0
49
0.1
74
0
49
-0.05
74
0
49
0.1
74
0
49
-0.05
74
0
0
LTYPE
5
1F8
100
AcDbSymbolTableRecord
100
AcDbLinetypeTableRecord
2
DOT
70
64
3
. . . . . . . . . . . . . . . . . . . .
72
65
73
2
40
0.2
49
0.1
74
0
49
-0.1
74
0
0
LTYPE
5
1F9
100
AcDbSymbolTableRecord
100
AcDbLinetypeTableRecord
2
DASHED
70
64
3
- - - - - - - - - - - - - - - - - - - -
72
65
73
2
40
0.2
49
0.1
74
0
49
-0.1
74
0
0
ENDTAB
0
TABLE
2
LAYER
5
2
100
AcDbSymbolTable
70
36
0
LAYER
5
10
100
AcDbSymbolTableRecord
100
AcDbLayerTableRecord
2
0
70
0
62
7
6
CONTINUOUS
370
-3
390
F
0
LAYER
5
1FA
100
AcDbSymbolTableRecord
100
AcDbLayerTableRecord
2
DEFAULT_1
70
0
62
7
6
CENTER
370
-3
390
F
0
LAYER
5
1FB
100
AcDbSymbolTableRecord
100
AcDbLayerTableRecord
2
DEFAULT_2
70
0
62
9
6
HIDDEN
370
-3
390
F
0
LAYER
5
1FC
100
AcDbSymbolTableRecord
100
AcDbLayerTableRecord
2
DEFAULT_3
70
0
62
7
6
PHANTOM
370
-3
390
F
0
LAYER
5
1FD
100
AcDbSymbolTableRecord
100
AcDbLayerTableRecord
2
_BLACK_HOLE
70
0
62
7
6
CONTINUOUS
370
-3
390
F
0
LAYER
5
1FE
100
AcDbSymbolTableRecord
100
AcDbLayerTableRecord
2
ASSI
70
0
62
7
6
CONTINUOUS
370
-3
390
F
0
LAYER
5
1FF
100
AcDbSymbolTableRecord
100
AcDbLayerTableRecord
2
COORDINATE
70
0
62
7
6
CONTINUOUS
370
-3
390
F
0
LAYER
5
200
100
AcDbSymbolTableRecord
100
AcDbLayerTableRecord
2
COORD_ORIGINE
70
0
62
7
6
CONTINUOUS
370
-3
390
F
0
LAYER
5
201
100
AcDbSymbolTableRecord
100
AcDbLayerTableRecord
2
COPY_PUBLISH
70
0
62
7
6
CONTINUOUS
370
-3
390
F
0
LAYER
5
202
100
AcDbSymbolTableRecord
100
AcDbLayerTableRecord
2
COSMETIC
70
0
62
7
6
CONTINUOUS
370
-3
390
F
0
LAYER
5
203
100
AcDbSymbolTableRecord
100
AcDbLayerTableRecord
2
CURVE
70
0
62
7
6
CONTINUOUS
370
-3
390
F
0
LAYER
5
204
100
AcDbSymbolTableRecord
100
AcDbLayerTableRecord
2
DRAFT
70
0
62
7
6
CONTINUOUS
370
-3
390
F
0
LAYER
5
205
100
AcDbSymbolTableRecord
100
AcDbLayerTableRecord
2
IMPORT
70
0
62
7
6
CONTINUOUS
370
-3
390
F
0
LAYER
5
206
100
AcDbSymbolTableRecord
100
AcDbLayerTableRecord
2
IMPORT_IGES
70
0
62
7
6
CONTINUOUS
370
-3
390
F
0
LAYER
5
207
100
AcDbSymbolTableRecord
100
AcDbLayerTableRecord
2
INCISIONI_LASER
70
0
62
7
6
CONTINUOUS
370
-3
390
F
0
LAYER
5
208
100
AcDbSymbolTableRecord
100
AcDbLayerTableRecord
2
NOTE
70
0
62
7
6
CONTINUOUS
370
-3
390
F
0
LAYER
5
209
100
AcDbSymbolTableRecord
100
AcDbLayerTableRecord
2
PIANI
70
0
62
7
6
CONTINUOUS
370
-3
390
F
0
LAYER
5
20A
100
AcDbSymbolTableRecord
100
AcDbLayerTableRecord
2
PIANI_ORIGINE
70
0
62
7
6
CONTINUOUS
370
-3
390
F
0
LAYER
5
20B
100
AcDbSymbolTableRecord
100
AcDbLayerTableRecord
2
PUNTI
70
0
62
7
6
CONTINUOUS
370
-3
390
F
0
LAYER
5
20C
100
AcDbSymbolTableRecord
100
AcDbLayerTableRecord
2
RACCORDO
70
0
62
7
6
CONTINUOUS
370
-3
390
F
0
LAYER
5
20D
100
AcDbSymbolTableRecord
100
AcDbLayerTableRecord
2
SMUSSO
70
0
62
7
6
CONTINUOUS
370
-3
390
F
0
LAYER
5
20E
100
AcDbSymbolTableRecord
100
AcDbLayerTableRecord
2
SUPERFICI
70
0
62
7
6
CONTINUOUS
370
-3
390
F
0
LAYER
5
20F
100
AcDbSymbolTableRecord
100
AcDbLayerTableRecord
2
TRASH
70
0
62
7
6
CONTINUOUS
370
-3
390
F
0
LAYER
5
210
100
AcDbSymbolTableRecord
100
AcDbLayerTableRecord
2
XSEC_DATUMS
70
0
62
7
6
CONTINUOUS
370
-3
390
F
0
ENDTAB
0
TABLE
2
STYLE
5
3
100
AcDbSymbolTable
70
1
0
STYLE
5
11
100
AcDbSymbolTableRecord
100
AcDbTextStyleTableRecord
2
STANDARD
70
0
40
0.0
41
0.8000000000
50
0.0
71
0
42
0.2
3
txt
4

0
ENDTAB
0
TABLE
2
VIEW
5
6
100
AcDbSymbolTable
70
0
0
ENDTAB
0
TABLE
2
UCS
5
7
100
AcDbSymbolTable
70
0
0
ENDTAB
0
TABLE
2
APPID
5
9
100
AcDbSymbolTable
70
1
0
APPID
5
211
100
AcDbSymbolTableRecord
100
AcDbRegAppTableRecord
2
ACAD
70
0
0
ENDTAB
0
TABLE
2
BLOCK_RECORD
5
1
100
AcDbSymbolTable
70
0
0
BLOCK_RECORD
5
1F
100
AcDbSymbolTableRecord
100
AcDbBlockTableRecord
2
*MODEL_SPACE
0
BLOCK_RECORD
5
1B
100
AcDbSymbolTableRecord
100
AcDbBlockTableRecord
2
*PAPER_SPACE
0
ENDTAB
0
TABLE
2
DIMSTYLE
5
A
100
AcDbSymbolTable
70
1
100
AcDbDimStyleTable
71
0
0
DIMSTYLE
105
212
100
AcDbSymbolTableRecord
100
AcDbDimStyleTableRecord
2
STANDARD
70
0
3

4

40
1.0
41
3.0000000000
42
0.0625
43
0.38
44
0.18
45
0.0
46
0.0
47
0.0100000000
48
0.0100000000
140
3.0000000000
141
0.09
142
0.0
143
25.4
144
1.0000000000
145
0.0
146
1.0000000000
147
0.09
71
1
72
0
73
0
74
0
75
0
76
0
77
1
78
8
170
0
171
2
172
0
173
0
174
0
175
0
176
0
177
0
178
0
270
2
271
2
272
2
273
2
274
2
275
0
280
0
281
0
282
0
283
1
284
8
285
0
286
0
287
3
288
0
340
11
0
ENDTAB
0
ENDSEC
0
SECTION
2
BLOCKS
0
BLOCK
5
20
100
AcDbEntity
8
0
100
AcDbBlockBegin
2
*MODEL_SPACE
70
0
10
0.0
20
0.0
30
0.0
3
*MODEL_SPACE
1

0
ENDBLK
5
21
100
AcDbEntity
8
0
100
AcDbBlockEnd
0
BLOCK
5
1C
100
AcDbEntity
8
0
100
AcDbBlockBegin
2
*PAPER_SPACE
70
0
10
0.0
20
0.0
30
0.0
3
*PAPER_SPACE
1

0
ENDBLK
5
1D
100
AcDbEntity
8
0
100
AcDbBlockEnd
0
ENDSEC
0
SECTION
2
ENTITIES
0
LINE
5
213
100
AcDbEntity
8
0
100
AcDbLine
62
0
6
CONTINUOUS
10
10.0406950030
20
-21.6975161830
11
-10.1595486847
21
-21.6975161830
0
LINE
5
214
100
AcDbEntity
8
0
100
AcDbLine
62
0
6
CONTINUOUS
10
-9.7594573018
20
-20.3975161830
11
9.6406036201
21
-20.3975161830
0
LINE
5
215
100
AcDbEntity
8
0
100
AcDbLine
62
9
6
CONTINUOUS
10
-9.6140436687
20
-20.3005489806
11
-9.0291401679
21
-20.3005490025
0
LINE
5
216
100
AcDbEntity
8
0
100
AcDbLine
62
9
6
CONTINUOUS
10
-6.4594268372
20
-20.3005490987
11
-4.2141889917
21
-20.3005491828
0
LINE
5
217
100
AcDbEntity
8
0
100
AcDbLine
62
9
6
CONTINUOUS
10
4.0953353100
20
-20.3005491828
11
6.3405731591
21
-20.3005491828
0
LINE
5
218
100
AcDbEntity
8
0
100
AcDbLine
62
9
6
CONTINUOUS
10
8.9102876577
20
-20.3005491828
11
9.5436366199
21
-20.3005491828
0
LINE
5
219
100
AcDbEntity
8
0
100
AcDbLine
62
9
6
CONTINUOUS
10
-2.1594268409
20
-20.2982198379
11
2.0405731591
21
-20.2982198379
0
LINE
5
21A
100
AcDbEntity
8
0
100
AcDbLine
62
9
6
CONTINUOUS
10
-2.1594268409
20
-20.1572413086
11
2.0402937512
21
-20.1572413086
0
LINE
5
21B
100
AcDbEntity
8
0
100
AcDbLine
62
9
6
CONTINUOUS
10
-9.8607447975
20
-20.0005948742
11
-7.0594268410
21
-20.0005947156
0
LINE
5
21C
100
AcDbEntity
8
0
100
AcDbLine
62
9
6
CONTINUOUS
10
-6.4594268410
20
-20.0005947491
11
-4.2141889917
21
-20.0005948742
0
LINE
5
21D
100
AcDbEntity
8
0
100
AcDbLine
62
9
6
CONTINUOUS
10
4.0953353100
20
-20.0005948742
11
6.3405731591
21
-20.0005948742
0
LINE
5
21E
100
AcDbEntity
8
0
100
AcDbLine
62
9
6
CONTINUOUS
10
6.9405731591
20
-20.0005948742
11
9.7418911157
21
-20.0005948742
0
LINE
5
21F
100
AcDbEntity
8
0
100
AcDbLine
62
0
6
CONTINUOUS
10
-6.4594268409
20
-19.9975161830
11
-7.0594268409
21
-19.9975161830
0
LINE
5
220
100
AcDbEntity
8
0
100
AcDbLine
62
0
6
CONTINUOUS
10
6.3405731591
20
-19.9975161830
11
6.9405731591
21
-19.9975161830
0
LINE
5
221
100
AcDbEntity
8
0
100
AcDbLine
62
0
6
CONTINUOUS
10
-7.0594268409
20
-19.9975161830
11
-9.6140436721
21
-20.3905341570
0
LINE
5
222
100
AcDbEntity
8
0
100
AcDbLine
62
0
6
CONTINUOUS
10
9.5419215767
20
-19.7423739563
11
5.1905731591
21
-19.7423759185
0
LINE
5
223
100
AcDbEntity
8
0
100
AcDbLine
62
0
6
CONTINUOUS
10
-5.3094268409
20
-19.7423759185
11
-9.6607752584
21
-19.7423739562
0
LINE
5
224
100
AcDbEntity
8
0
100
AcDbLine
62
0
6
CONTINUOUS
10
-2.1594268409
20
-19.3376499946
11
2.0405731591
21
-19.3376499946
0
LINE
5
225
100
AcDbEntity
8
0
100
AcDbLine
62
0
6
CONTINUOUS
10
2.0405731591
20
-18.5370431440
11
-2.1594268409
21
-18.5370431440
0
LINE
5
226
100
AcDbEntity
8
0
100
AcDbLine
62
0
6
CONTINUOUS
10
6.9405731591
20
-19.9975161830
11
9.4951899903
21
-20.3905341570
0
LINE
5
227
100
AcDbEntity
8
0
100
AcDbLine
62
0
6
CONTINUOUS
10
-9.8573147110
20
15.2524838170
11
-9.8562487766
21
15.2535497514
0
LINE
5
228
100
AcDbEntity
8
0
100
AcDbLine
62
9
6
CONTINUOUS
10
4.5905731591
20
-17.3975161830
11
4.5801001202
21
-17.3975161830
0
LINE
5
229
100
AcDbEntity
8
0
100
AcDbLine
62
9
6
CONTINUOUS
10
-5.3094268409
20
-17.3975161830
11
-5.3198998798
21
-17.3975161830
0
LINE
5
22A
100
AcDbEntity
8
0
100
AcDbLine
62
9
6
CONTINUOUS
10
-4.7094268409
20
-17.3975161830
11
-4.6989538019
21
-17.3975161830
0
LINE
5
22B
100
AcDbEntity
8
0
100
AcDbLine
62
9
6
CONTINUOUS
10
5.1905731591
20
-17.3975161830
11
5.2010461981
21
-17.3975161830
0
LINE
5
22C
100
AcDbEntity
8
0
100
AcDbLine
62
0
6
CONTINUOUS
10
7.5178211741
20
-16.1403365060
11
5.5222313904
21
-16.1403365060
0
LINE
5
22D
100
AcDbEntity
8
0
100
AcDbLine
62
0
6
CONTINUOUS
10
-5.6410850722
20
-16.1403365060
11
-7.6366748558
21
-16.1403365060
0
LINE
5
22E
100
AcDbEntity
8
0
100
AcDbLine
62
0
6
CONTINUOUS
10
-5.5740413488
20
-15.6437537129
11
-5.1417503183
21
-15.6437537129
0
LINE
5
22F
100
AcDbEntity
8
0
100
AcDbLine
62
0
6
CONTINUOUS
10
5.0228966365
20
-15.6437537129
11
5.4551876671
21
-15.6437537129
0
LINE
5
230
100
AcDbEntity
8
0
100
AcDbLine
62
0
6
CONTINUOUS
10
-5.6472656259
20
-15.5475161830
11
-5.2441073847
21
-15.5475161830
0
LINE
5
231
100
AcDbEntity
8
0
100
AcDbLine
62
0
6
CONTINUOUS
10
5.1252537029
20
-15.5475161830
11
5.5284119442
21
-15.5475161830
0
LINE
5
232
100
AcDbEntity
8
0
100
AcDbLine
62
0
6
CONTINUOUS
10
7.1555022879
20
-15.4475161830
11
5.7879055436
21
-15.4475161830
0
LINE
5
233
100
AcDbEntity
8
0
100
AcDbLine
62
0
6
CONTINUOUS
10
-5.9067592254
20
-15.4475161830
11
-7.2743559696
21
-15.4475161830
0
LINE
5
234
100
AcDbEntity
8
0
100
AcDbLine
62
0
6
CONTINUOUS
10
6.4760680342
20
-15.0475161830
11
6.0158090012
21
-15.0475161830
0
LINE
5
235
100
AcDbEntity
8
0
100
AcDbLine
62
0
6
CONTINUOUS
10
-6.1346626829
20
-15.0475161830
11
-6.5949217159
21
-15.0475161830
0
LINE
5
236
100
AcDbEntity
8
0
100
AcDbLine
62
0
6
CONTINUOUS
10
-6.5708436306
20
-15.0125954135
11
-6.3738026687
21
-15.0125954135
0
LINE
5
237
100
AcDbEntity
8
0
100
AcDbLine
62
0
6
CONTINUOUS
10
6.2549489869
20
-15.0125954135
11
6.4519899489
21
-15.0125954135
0
LINE
5
238
100
AcDbEntity
8
0
100
AcDbLine
62
0
6
CONTINUOUS
10
-9.8573147110
20
-10.3475161830
11
-9.8525046843
21
-10.3523262098
0
LINE
5
239
100
AcDbEntity
8
0
100
AcDbLine
62
0
6
CONTINUOUS
10
-10.9594268409
20
-20.8976380269
11
-10.9594268409
21
20.8026056609
0
LINE
5
23A
100
AcDbEntity
8
0
100
AcDbLine
62
0
6
CONTINUOUS
10
6.4519899489
20
-11.0824369525
11
6.2549489869
21
-11.0824369525
0
LINE
5
23B
100
AcDbEntity
8
0
100
AcDbLine
62
0
6
CONTINUOUS
10
-6.3738026687
20
-11.0824369525
11
-6.5708436306
21
-11.0824369525
0
LINE
5
23C
100
AcDbEntity
8
0
100
AcDbLine
62
0
6
CONTINUOUS
10
-6.5949217159
20
-11.0475161830
11
-6.3573429906
21
-11.0475161830
0
LINE
5
23D
100
AcDbEntity
8
0
100
AcDbLine
62
0
6
CONTINUOUS
10
6.2384893088
20
-11.0475161830
11
6.4760680342
21
-11.0475161830
0
LINE
5
23E
100
AcDbEntity
8
0
100
AcDbLine
62
9
6
CONTINUOUS
10
-6.8748768117
20
-11.2400230095
11
-6.8513410551
21
-11.2763694657
0
LINE
5
23F
100
AcDbEntity
8
0
100
AcDbLine
62
0
6
CONTINUOUS
10
-5.9425448485
20
-14.7535402569
11
-5.9435452799
21
-14.7513200565
0
LINE
5
240
100
AcDbEntity
8
0
100
AcDbLine
62
9
6
CONTINUOUS
10
-9.6521726359
20
-9.7389154570
11
-9.6557385406
21
14.6474514291
0
LINE
5
241
100
AcDbEntity
8
0
100
AcDbLine
62
0
6
CONTINUOUS
10
-10.6594268409
20
-6.0276477676
11
-10.6594268409
21
5.9326154017
0
LINE
5
242
100
AcDbEntity
8
0
100
AcDbLine
62
0
6
CONTINUOUS
10
-9.9594268409
20
-20.1975466440
11
-9.9594268409
21
-7.5475161830
0
LINE
5
243
100
AcDbEntity
8
0
100
AcDbLine
62
0
6
CONTINUOUS
10
-9.9594268409
20
7.4524838170
11
-9.9594268409
21
20.1025142780
0
LINE
5
244
100
AcDbEntity
8
0
100
AcDbLine
62
0
6
CONTINUOUS
10
-9.9469912310
20
-7.5475161830
11
-9.9469912310
21
7.4524838170
0
LINE
5
245
100
AcDbEntity
8
0
100
AcDbLine
62
9
6
CONTINUOUS
10
-9.8607447975
20
19.9055625082
11
-9.8607447975
21
19.6407417389
0
LINE
5
246
100
AcDbEntity
8
0
100
AcDbLine
62
9
6
CONTINUOUS
10
-9.8607447975
20
-19.7357741049
11
-9.8607447975
21
-20.0005948742
0
LINE
5
247
100
AcDbEntity
8
0
100
AcDbLine
62
0
6
CONTINUOUS
10
-9.8573147110
20
-10.3475161830
11
-9.8573147110
21
-9.7475161830
0
LINE
5
248
100
AcDbEntity
8
0
100
AcDbLine
62
0
6
CONTINUOUS
10
-9.8573147110
20
14.6524838170
11
-9.8573147110
21
15.2524838170
0
LINE
5
249
100
AcDbEntity
8
0
100
AcDbLine
62
9
6
CONTINUOUS
10
-9.6607752584
20
19.9055743589
11
-9.6562731326
21
15.2569814176
0
LINE
5
24A
100
AcDbEntity
8
0
100
AcDbLine
62
9
6
CONTINUOUS
10
-9.6607752584
20
-20.0005945707
11
-9.6525330522
21
-10.3557563348
0
LINE
5
24B
100
AcDbEntity
8
0
100
AcDbLine
62
0
6
CONTINUOUS
10
-5.6472656259
20
-10.5475161830
11
-5.2441073847
21
-10.5475161830
0
LINE
5
24C
100
AcDbEntity
8
0
100
AcDbLine
62
0
6
CONTINUOUS
10
5.1252537029
20
-10.5475161830
11
5.5284119442
21
-10.5475161830
0
LINE
5
24D
100
AcDbEntity
8
0
100
AcDbLine
62
0
6
CONTINUOUS
10
6.0409838535
20
-10.5387673166
11
5.5242755647
21
-10.5387673166
0
LINE
5
24E
100
AcDbEntity
8
0
100
AcDbLine
62
0
6
CONTINUOUS
10
-5.6431292465
20
-10.5387673166
11
-6.1598375352
21
-10.5387673166
0
LINE
5
24F
100
AcDbEntity
8
0
100
AcDbLine
62
0
6
CONTINUOUS
10
-6.1423824703
20
-10.4512786531
11
-5.1417503183
21
-10.4512786531
0
LINE
5
250
100
AcDbEntity
8
0
100
AcDbLine
62
0
6
CONTINUOUS
10
5.0228966365
20
-10.4512786531
11
6.0235287885
21
-10.4512786531
0
LINE
5
251
100
AcDbEntity
8
0
100
AcDbLine
62
0
6
CONTINUOUS
10
9.5336793721
20
-10.3557563097
11
8.6405731591
21
-10.3557563098
0
LINE
5
252
100
AcDbEntity
8
0
100
AcDbLine
62
0
6
CONTINUOUS
10
-8.7594268409
20
-10.3557563098
11
-9.6525330538
21
-10.3557563097
0
LINE
5
253
100
AcDbEntity
8
0
100
AcDbLine
62
0
6
CONTINUOUS
10
9.7384610293
20
-10.3475161830
11
8.6405731591
21
-10.3475161830
0
LINE
5
254
100
AcDbEntity
8
0
100
AcDbLine
62
0
6
CONTINUOUS
10
-8.7594268409
20
-10.3475161830
11
-9.8573147110
21
-10.3475161830
0
LINE
5
255
100
AcDbEntity
8
0
100
AcDbLine
62
0
6
CONTINUOUS
10
-9.8573147110
20
-9.7475161830
11
-8.7594268409
21
-9.7475161830
0
LINE
5
256
100
AcDbEntity
8
0
100
AcDbLine
62
0
6
CONTINUOUS
10
8.6405731591
20
-9.7475161830
11
9.7384610293
21
-9.7475161830
0
LINE
5
257
100
AcDbEntity
8
0
100
AcDbLine
62
0
6
CONTINUOUS
10
9.5333189652
20
-9.7389153985
11
8.6405731591
21
-9.7389153984
0
LINE
5
258
100
AcDbEntity
8
0
100
AcDbLine
62
0
6
CONTINUOUS
10
-8.7594268409
20
-9.7389153984
11
-9.6521726469
21
-9.7389153985
0
LINE
5
259
100
AcDbEntity
8
0
100
AcDbLine
62
9
6
CONTINUOUS
10
-8.7594268409
20
14.6524838170
11
-8.7594268409
21
14.6474513263
0
LINE
5
25A
100
AcDbEntity
8
0
100
AcDbLine
62
9
6
CONTINUOUS
10
-8.7594268409
20
-9.7475161830
11
-8.7594268409
21
-9.7389153984
0
LINE
5
25B
100
AcDbEntity
8
0
100
AcDbLine
62
9
6
CONTINUOUS
10
-8.7594268409
20
-10.3475161830
11
-8.7594268409
21
-10.3557563098
0
LINE
5
25C
100
AcDbEntity
8
0
100
AcDbLine
62
9
6
CONTINUOUS
10
-8.7594268409
20
15.2524838170
11
-8.7594268409
21
15.2569813575
0
LINE
5
25D
100
AcDbEntity
8
0
100
AcDbLine
62
9
6
CONTINUOUS
10
9.5436366199
20
20.2055168168
11
9.5644057922
21
20.2262859891
0
LINE
5
25E
100
AcDbEntity
8
0
100
AcDbLine
62
9
6
CONTINUOUS
10
9.7436061589
20
20.0055472778
11
9.8405731591
21
20.1025142780
0
LINE
5
25F
100
AcDbEntity
8
0
100
AcDbLine
62
0
6
CONTINUOUS
10
2.0405731591
20
-7.5649712479
11
-2.1594268409
21
-7.5649712479
0
LINE
5
260
100
AcDbEntity
8
0
100
AcDbLine
62
9
6
CONTINUOUS
10
-9.9469912310
20
-7.5475161830
11
-9.9594268409
21
-7.5475161830
0
LINE
5
261
100
AcDbEntity
8
0
100
AcDbLine
62
9
6
CONTINUOUS
10
9.8281375493
20
-7.5475161830
11
9.8405731591
21
-7.5475161830
0
LINE
5
262
100
AcDbEntity
8
0
100
AcDbLine
62
9
6
CONTINUOUS
10
9.6406036201
20
-20.3975161830
11
9.5436366199
21
-20.3005491828
0
LINE
5
263
100
AcDbEntity
8
0
100
AcDbLine
62
9
6
CONTINUOUS
10
9.8405731591
20
-20.1975466440
11
9.7436061589
21
-20.1005796437
0
LINE
5
264
100
AcDbEntity
8
0
100
AcDbLine
62
9
6
CONTINUOUS
10
-5.6231385613
20
-7.7048452076
11
-5.2329794020
21
-8.3066539562
0
LINE
5
265
100
AcDbEntity
8
0
100
AcDbLine
62
0
6
CONTINUOUS
10
-7.0594268409
20
-20.3975161830
11
-7.0594268409
21
-19.9975161830
0
LINE
5
266
100
AcDbEntity
8
0
100
AcDbLine
62
0
6
CONTINUOUS
10
-7.0594268409
20
20.3024838170
11
-7.0594268409
21
19.9024838170
0
LINE
5
267
100
AcDbEntity
8
0
100
AcDbLine
62
0
6
CONTINUOUS
10
-6.4594268409
20
-20.3975161830
11
-6.4594268409
21
-19.9975161830
0
LINE
5
268
100
AcDbEntity
8
0
100
AcDbLine
62
0
6
CONTINUOUS
10
-6.4594268409
20
20.3024838170
11
-6.4594268409
21
19.9024838170
0
LINE
5
269
100
AcDbEntity
8
0
100
AcDbLine
62
0
6
CONTINUOUS
10
-6.4419717759
20
-9.7311601250
11
-6.4419717759
21
-10.1505907682
0
LINE
5
26A
100
AcDbEntity
8
0
100
AcDbLine
62
0
6
CONTINUOUS
10
-5.4476227228
20
18.7524838170
11
-5.4476227228
21
19.5132698384
0
LINE
5
26B
100
AcDbEntity
8
0
100
AcDbLine
62
0
6
CONTINUOUS
10
-5.4371504814
20
19.6819188400
11
-5.4371504814
21
20.2449277994
0
LINE
5
26C
100
AcDbEntity
8
0
100
AcDbLine
62
0
6
CONTINUOUS
10
-5.3198998798
20
-18.4860080271
11
-5.3198998798
21
-17.3975161830
0
LINE
5
26D
100
AcDbEntity
8
0
100
AcDbLine
62
0
6
CONTINUOUS
10
-5.3094268409
20
-19.7423759185
11
-5.3094268409
21
-17.3975161830
0
LINE
5
26E
100
AcDbEntity
8
0
100
AcDbLine
62
9
6
CONTINUOUS
10
-5.4476227228
20
19.5132698384
11
-5.4371504814
21
19.6819188400
0
LINE
5
26F
100
AcDbEntity
8
0
100
AcDbLine
62
9
6
CONTINUOUS
10
-5.1453804491
20
19.2524838170
11
-5.1371619045
21
19.3848384194
0
LINE
5
270
100
AcDbEntity
8
0
100
AcDbLine
62
0
6
CONTINUOUS
10
-3.7826208409
20
8.9025338170
11
-4.3353148409
21
7.1810708170
0
LINE
5
271
100
AcDbEntity
8
0
100
AcDbLine
62
0
6
CONTINUOUS
10
-3.2825958409
20
8.9025338170
11
-4.0853018409
21
6.4024208170
0
LINE
5
272
100
AcDbEntity
8
0
100
AcDbLine
62
0
6
CONTINUOUS
10
2.9405731591
20
-6.8975161830
11
-3.0594268409
21
-6.8975161830
0
LINE
5
273
100
AcDbEntity
8
0
100
AcDbLine
62
0
6
CONTINUOUS
10
-3.2554439423
20
-6.2348345939
11
3.1365902606
21
-6.2348345939
0
LINE
5
274
100
AcDbEntity
8
0
100
AcDbLine
62
9
6
CONTINUOUS
10
-4.9816917773
20
19.3848384194
11
-4.9734732327
21
19.2524838170
0
LINE
5
275
100
AcDbEntity
8
0
100
AcDbLine
62
9
6
CONTINUOUS
10
-5.1476341458
20
18.4524838170
11
-5.1476341458
21
19.2524838170
0
LINE
5
276
100
AcDbEntity
8
0
100
AcDbLine
62
9
6
CONTINUOUS
10
-5.1371619045
20
19.3848384194
11
-5.1371619045
21
20.2501186222
0
LINE
5
277
100
AcDbEntity
8
0
100
AcDbLine
62
9
6
CONTINUOUS
10
-4.9816917773
20
19.3848384194
11
-4.9816917773
21
20.2501186222
0
LINE
5
278
100
AcDbEntity
8
0
100
AcDbLine
62
9
6
CONTINUOUS
10
-4.9712195359
20
18.4524838170
11
-4.9712195359
21
19.2524838170
0
LINE
5
279
100
AcDbEntity
8
0
100
AcDbLine
62
0
6
CONTINUOUS
10
-4.7600098409
20
3.4774838170
11
-4.7600098409
21
1.4274838170
0
LINE
5
27A
100
AcDbEntity
8
0
100
AcDbLine
62
0
6
CONTINUOUS
10
-4.7094268409
20
-17.3975161830
11
-4.7094268409
21
-19.8346253454
0
LINE
5
27B
100
AcDbEntity
8
0
100
AcDbLine
62
0
6
CONTINUOUS
10
-4.6989538019
20
-18.8022174074
11
-4.6989538019
21
-17.3975161830
0
LINE
5
27C
100
AcDbEntity
8
0
100
AcDbLine
62
0
6
CONTINUOUS
10
-4.6817032003
20
20.2449277994
11
-4.6817032003
21
19.6819188400
0
LINE
5
27D
100
AcDbEntity
8
0
100
AcDbLine
62
0
6
CONTINUOUS
10
-4.6712309590
20
19.5132698384
11
-4.6712309590
21
18.7524838170
0
LINE
5
27E
100
AcDbEntity
8
0
100
AcDbLine
62
0
6
CONTINUOUS
10
-4.5489538019
20
-17.7978162204
11
-4.5489538019
21
-16.6098472249
0
LINE
5
27F
100
AcDbEntity
8
0
100
AcDbLine
62
0
6
CONTINUOUS
10
-4.3198918409
20
3.1368078170
11
-4.3198918409
21
2.5575948170
0
LINE
5
280
100
AcDbEntity
8
0
100
AcDbLine
62
0
6
CONTINUOUS
10
-4.3198918409
20
2.2169188170
11
-4.3198918409
21
1.4274838170
0
LINE
5
281
100
AcDbEntity
8
0
100
AcDbLine
62
9
6
CONTINUOUS
10
-4.2141889917
20
-20.3005491828
11
-4.2141889917
21
-20.0005948742
0
LINE
5
282
100
AcDbEntity
8
0
100
AcDbLine
62
9
6
CONTINUOUS
10
-6.1598375352
20
-10.5387673166
11
-6.1423824703
21
-10.4512786531
0
LINE
5
283
100
AcDbEntity
8
0
100
AcDbLine
62
0
6
CONTINUOUS
10
9.7384610293
20
14.6524838170
11
9.7368658177
21
14.6508886054
0
LINE
5
284
100
AcDbEntity
8
0
100
AcDbLine
62
0
6
CONTINUOUS
10
5.1141257203
20
-8.3066539562
11
2.9405731591
21
-6.8975161830
0
LINE
5
285
100
AcDbEntity
8
0
100
AcDbLine
62
0
6
CONTINUOUS
10
-3.2554439423
20
-6.2348345939
11
-3.0594268409
21
-6.8975161830
0
LINE
5
286
100
AcDbEntity
8
0
100
AcDbLine
62
9
6
CONTINUOUS
10
-4.6817032003
20
19.6819188400
11
-4.6712309590
21
19.5132698384
0
LINE
5
287
100
AcDbEntity
8
0
100
AcDbLine
62
0
6
CONTINUOUS
10
-3.0137328409
20
3.4774838170
11
-3.0137328409
21
1.4274838170
0
LINE
5
288
100
AcDbEntity
8
0
100
AcDbLine
62
0
6
CONTINUOUS
10
-2.9492518409
20
8.9025338170
11
-2.9492578409
21
6.4024148170
0
LINE
5
289
100
AcDbEntity
8
0
100
AcDbLine
62
0
6
CONTINUOUS
10
-2.5736148409
20
3.4774838170
11
-2.5736148409
21
1.7681598170
0
LINE
5
28A
100
AcDbEntity
8
0
100
AcDbLine
62
0
6
CONTINUOUS
10
-2.5594268409
20
20.3024838170
11
-2.5594268409
21
21.5024838170
0
LINE
5
28B
100
AcDbEntity
8
0
100
AcDbLine
62
0
6
CONTINUOUS
10
-2.4492328409
20
8.9025338170
11
-2.4492398409
21
6.4024208170
0
LINE
5
28C
100
AcDbEntity
8
0
100
AcDbLine
62
9
6
CONTINUOUS
10
-2.1594268409
20
-20.2982198379
11
-2.1594268409
21
-19.3376499946
0
LINE
5
28D
100
AcDbEntity
8
0
100
AcDbLine
62
0
6
CONTINUOUS
10
-1.9492328409
20
8.9025338170
11
-1.9492328409
21
6.4024208170
0
LINE
5
28E
100
AcDbEntity
8
0
100
AcDbLine
62
0
6
CONTINUOUS
10
-1.8151158409
20
1.7681598170
11
-1.8151158409
21
1.4274838170
0
LINE
5
28F
100
AcDbEntity
8
0
100
AcDbLine
62
0
6
CONTINUOUS
10
-0.2596018409
20
8.9025338170
11
-0.7264708409
21
7.2743708170
0
LINE
5
290
100
AcDbEntity
8
0
100
AcDbLine
62
0
6
CONTINUOUS
10
-0.0037328409
20
8.0510778170
11
-0.4764708409
21
6.4024278170
0
LINE
5
291
100
AcDbEntity
8
0
100
AcDbLine
62
0
6
CONTINUOUS
10
-0.8529508409
20
3.4774838170
11
-1.5940148409
21
1.4274838170
0
LINE
5
292
100
AcDbEntity
8
0
100
AcDbLine
62
9
6
CONTINUOUS
10
6.7560231300
20
-14.8550093565
11
6.7324873734
21
-14.8186629003
0
LINE
5
293
100
AcDbEntity
8
0
100
AcDbLine
62
0
6
CONTINUOUS
10
-5.3880398409
20
8.9025338170
11
-4.5853398409
21
6.4024148170
0
LINE
5
294
100
AcDbEntity
8
0
100
AcDbLine
62
0
6
CONTINUOUS
10
-4.8880148409
20
8.9025338170
11
-4.3353148409
21
7.1810708170
0
LINE
5
295
100
AcDbEntity
8
0
100
AcDbLine
62
0
6
CONTINUOUS
10
-1.4492148409
20
8.0510778170
11
-1.4492148409
21
6.4024208170
0
LINE
5
296
100
AcDbEntity
8
0
100
AcDbLine
62
0
6
CONTINUOUS
10
-0.0594268409
20
21.5024838170
11
-0.0594268409
21
20.3024838170
0
LINE
5
297
100
AcDbEntity
8
0
100
AcDbLine
62
0
6
CONTINUOUS
10
-0.0037328409
20
8.0510778170
11
-0.0037268409
21
6.4024208170
0
LINE
5
298
100
AcDbEntity
8
0
100
AcDbLine
62
0
6
CONTINUOUS
10
1.6323291591
20
8.9025398170
11
0.8296361591
21
6.4024208170
0
LINE
5
299
100
AcDbEntity
8
0
100
AcDbLine
62
0
6
CONTINUOUS
10
1.4875111591
20
6.8940898170
11
1.3296541591
21
6.4024278170
0
LINE
5
29A
100
AcDbEntity
8
0
100
AcDbLine
62
0
6
CONTINUOUS
10
1.8823481591
20
8.1238838170
11
1.6400291591
21
7.3691088170
0
LINE
5
29B
100
AcDbEntity
8
0
100
AcDbLine
62
0
6
CONTINUOUS
10
-0.6029768409
20
3.0857508170
11
-0.9069528409
21
2.2026468170
0
LINE
5
29C
100
AcDbEntity
8
0
100
AcDbLine
62
0
6
CONTINUOUS
10
-1.0205118409
20
1.8619698170
11
-1.1738008409
21
1.4274838170
0
LINE
5
29D
100
AcDbEntity
8
0
100
AcDbLine
62
0
6
CONTINUOUS
10
-5.9425448485
20
-11.3414921091
11
-5.9435452799
21
-11.3437123094
0
LINE
5
29E
100
AcDbEntity
8
0
100
AcDbLine
62
0
6
CONTINUOUS
10
-5.6431292465
20
-10.5387673166
11
-5.6472656259
21
-10.5475161830
0
LINE
5
29F
100
AcDbEntity
8
0
100
AcDbLine
62
0
6
CONTINUOUS
10
-9.8573147110
20
-9.7475161830
11
-9.8521478005
21
-9.7423492724
0
LINE
5
2A0
100
AcDbEntity
8
0
100
AcDbLine
62
0
6
CONTINUOUS
10
9.7384610293
20
-9.7475161830
11
9.7332941187
21
-9.7423492724
0
LINE
5
2A1
100
AcDbEntity
8
0
100
AcDbLine
62
0
6
CONTINUOUS
10
0.4962921591
20
8.9025338170
11
0.4962921591
21
6.4024208170
0
LINE
5
2A2
100
AcDbEntity
8
0
100
AcDbLine
62
0
6
CONTINUOUS
10
0.6064201591
20
3.4774838170
11
0.6064201591
21
1.4274838170
0
LINE
5
2A3
100
AcDbEntity
8
0
100
AcDbLine
62
0
6
CONTINUOUS
10
1.0181481591
20
3.1431948170
11
1.0181481591
21
1.4274838170
0
LINE
5
2A4
100
AcDbEntity
8
0
100
AcDbLine
62
0
6
CONTINUOUS
10
3.4061261591
20
3.4774838170
11
2.6649841591
21
1.4274838170
0
LINE
5
2A5
100
AcDbEntity
8
0
100
AcDbLine
62
0
6
CONTINUOUS
10
4.6411561591
20
1.4274838170
11
4.1983381591
21
1.4274838170
0
LINE
5
2A6
100
AcDbEntity
8
0
100
AcDbLine
62
0
6
CONTINUOUS
10
3.0851981591
20
1.4274838170
11
2.6649841591
21
1.4274838170
0
LINE
5
2A7
100
AcDbEntity
8
0
100
AcDbLine
62
0
6
CONTINUOUS
10
2.4576931591
20
1.4274838170
11
1.8330411591
21
1.4274838170
0
LINE
5
2A8
100
AcDbEntity
8
0
100
AcDbLine
62
0
6
CONTINUOUS
10
1.0181481591
20
1.4274838170
11
0.6064201591
21
1.4274838170
0
LINE
5
2A9
100
AcDbEntity
8
0
100
AcDbLine
62
0
6
CONTINUOUS
10
0.3821571591
20
1.4274838170
11
-0.0608158409
21
1.4274838170
0
LINE
5
2AA
100
AcDbEntity
8
0
100
AcDbLine
62
0
6
CONTINUOUS
10
-1.1738008409
20
1.4274838170
11
-1.5940148409
21
1.4274838170
0
LINE
5
2AB
100
AcDbEntity
8
0
100
AcDbLine
62
0
6
CONTINUOUS
10
-1.8151158409
20
1.4274838170
11
-3.0137328409
21
1.4274838170
0
LINE
5
2AC
100
AcDbEntity
8
0
100
AcDbLine
62
0
6
CONTINUOUS
10
-4.3198918409
20
1.4274838170
11
-4.7600098409
21
1.4274838170
0
LINE
5
2AD
100
AcDbEntity
8
0
100
AcDbLine
62
0
6
CONTINUOUS
10
-1.8151158409
20
1.7681598170
11
-2.5736148409
21
1.7681598170
0
LINE
5
2AE
100
AcDbEntity
8
0
100
AcDbLine
62
0
6
CONTINUOUS
10
4.0506031591
20
1.8619698170
11
3.2385641591
21
1.8619698170
0
LINE
5
2AF
100
AcDbEntity
8
0
100
AcDbLine
62
0
6
CONTINUOUS
10
-0.2084728409
20
1.8619698170
11
-1.0205118409
21
1.8619698170
0
LINE
5
2B0
100
AcDbEntity
8
0
100
AcDbLine
62
0
6
CONTINUOUS
10
5.5284119442
20
-10.5475161830
11
5.5242755647
21
-10.5387673166
0
LINE
5
2B1
100
AcDbEntity
8
0
100
AcDbLine
62
0
6
CONTINUOUS
10
5.8236911667
20
-11.3414921091
11
5.8246915981
21
-11.3437123094
0
LINE
5
2B2
100
AcDbEntity
8
0
100
AcDbLine
62
0
6
CONTINUOUS
10
-0.3305178409
20
3.4774838170
11
0.3821571591
21
1.4274838170
0
LINE
5
2B3
100
AcDbEntity
8
0
100
AcDbLine
62
0
6
CONTINUOUS
10
-0.2084728409
20
1.8619698170
11
-0.0608158409
21
1.4274838170
0
LINE
5
2B4
100
AcDbEntity
8
0
100
AcDbLine
62
0
6
CONTINUOUS
10
-0.6029768409
20
3.0857508170
11
-0.3191778409
21
2.2026468170
0
LINE
5
2B5
100
AcDbEntity
8
0
100
AcDbLine
62
0
6
CONTINUOUS
10
-1.4492148409
20
8.0510778170
11
-0.9764768409
21
6.4024208170
0
LINE
5
2B6
100
AcDbEntity
8
0
100
AcDbLine
62
0
6
CONTINUOUS
10
-1.1933398409
20
8.9025338170
11
-0.7264708409
21
7.2743708170
0
LINE
5
2B7
100
AcDbEntity
8
0
100
AcDbLine
62
0
6
CONTINUOUS
10
2.0459641591
20
3.4774838170
11
2.0459641591
21
1.8529558170
0
LINE
5
2B8
100
AcDbEntity
8
0
100
AcDbLine
62
0
6
CONTINUOUS
10
2.4576931591
20
3.4774838170
11
2.4576931591
21
1.4274838170
0
LINE
5
2B9
100
AcDbEntity
8
0
100
AcDbLine
62
0
6
CONTINUOUS
10
3.2684231591
20
8.9025398170
11
3.2684231591
21
6.4024278170
0
LINE
5
2BA
100
AcDbEntity
8
0
100
AcDbLine
62
0
6
CONTINUOUS
10
3.7615481591
20
8.4400218170
11
3.7615541591
21
7.8316338170
0
LINE
5
2BB
100
AcDbEntity
8
0
100
AcDbLine
62
0
6
CONTINUOUS
10
3.7685041591
20
7.3691148170
11
3.7684481591
21
6.4024278170
0
LINE
5
2BC
100
AcDbEntity
8
0
100
AcDbLine
62
9
6
CONTINUOUS
10
2.0405731591
20
-20.2982198379
11
2.0405731591
21
-19.3376499946
0
LINE
5
2BD
100
AcDbEntity
8
0
100
AcDbLine
62
9
6
CONTINUOUS
10
4.5523772772
20
19.5132698384
11
4.5628495186
21
19.6819188400
0
LINE
5
2BE
100
AcDbEntity
8
0
100
AcDbLine
62
9
6
CONTINUOUS
10
4.8546195509
20
19.2524838170
11
4.8628380955
21
19.3848384194
0
LINE
5
2BF
100
AcDbEntity
8
0
100
AcDbLine
62
0
6
CONTINUOUS
10
3.6560601591
20
3.0856348170
11
3.3521231591
21
2.2026468170
0
LINE
5
2C0
100
AcDbEntity
8
0
100
AcDbLine
62
0
6
CONTINUOUS
10
3.2385641591
20
1.8619698170
11
3.0851981591
21
1.4274838170
0
LINE
5
2C1
100
AcDbEntity
8
0
100
AcDbLine
62
9
6
CONTINUOUS
10
-6.8748768117
20
-14.8550093565
11
-6.8513410551
21
-14.8186629003
0
LINE
5
2C2
100
AcDbEntity
8
0
100
AcDbLine
62
0
6
CONTINUOUS
10
3.9398221591
20
2.2026468170
11
3.3521231591
21
2.2026468170
0
LINE
5
2C3
100
AcDbEntity
8
0
100
AcDbLine
62
0
6
CONTINUOUS
10
-0.3191778409
20
2.2026468170
11
-0.9069528409
21
2.2026468170
0
LINE
5
2C4
100
AcDbEntity
8
0
100
AcDbLine
62
0
6
CONTINUOUS
10
-4.1326802383
20
2.2169188170
11
-4.3198918409
21
2.2169188170
0
LINE
5
2C5
100
AcDbEntity
8
0
100
AcDbLine
62
0
6
CONTINUOUS
10
-4.0631388112
20
2.5575948170
11
-4.3198918409
21
2.5575948170
0
LINE
5
2C6
100
AcDbEntity
8
0
100
AcDbLine
62
0
6
CONTINUOUS
10
-4.0631388228
20
3.1368078170
11
-4.3198918409
21
3.1368078170
0
LINE
5
2C7
100
AcDbEntity
8
0
100
AcDbLine
62
0
6
CONTINUOUS
10
3.9285581591
20
3.4774838170
11
3.4061261591
21
3.4774838170
0
LINE
5
2C8
100
AcDbEntity
8
0
100
AcDbLine
62
0
6
CONTINUOUS
10
2.4576931591
20
3.4774838170
11
2.0459641591
21
3.4774838170
0
LINE
5
2C9
100
AcDbEntity
8
0
100
AcDbLine
62
0
6
CONTINUOUS
10
1.2594611591
20
3.4774838170
11
0.6064201591
21
3.4774838170
0
LINE
5
2CA
100
AcDbEntity
8
0
100
AcDbLine
62
0
6
CONTINUOUS
10
-0.3305178409
20
3.4774838170
11
-0.8529508409
21
3.4774838170
0
LINE
5
2CB
100
AcDbEntity
8
0
100
AcDbLine
62
0
6
CONTINUOUS
10
-2.5736148409
20
3.4774838170
11
-3.0137328409
21
3.4774838170
0
LINE
5
2CC
100
AcDbEntity
8
0
100
AcDbLine
62
0
6
CONTINUOUS
10
-4.1326802779
20
3.4774838170
11
-4.7600098409
21
3.4774838170
0
LINE
5
2CD
100
AcDbEntity
8
0
100
AcDbLine
62
0
6
CONTINUOUS
10
-9.8573147110
20
14.6524838170
11
-9.8557194995
21
14.6508886054
0
LINE
5
2CE
100
AcDbEntity
8
0
100
AcDbLine
62
0
6
CONTINUOUS
10
1.2594611591
20
3.4774838170
11
2.0459641591
21
1.8529558170
0
LINE
5
2CF
100
AcDbEntity
8
0
100
AcDbLine
62
0
6
CONTINUOUS
10
1.0181481591
20
3.1431948170
11
1.8330411591
21
1.4274838170
0
LINE
5
2D0
100
AcDbEntity
8
0
100
AcDbLine
62
9
6
CONTINUOUS
10
4.0953353100
20
-20.3005491828
11
4.0953353100
21
-20.0005948742
0
LINE
5
2D1
100
AcDbEntity
8
0
100
AcDbLine
62
0
6
CONTINUOUS
10
4.4301001202
20
-16.6098472249
11
4.4301001202
21
-17.7978162204
0
LINE
5
2D2
100
AcDbEntity
8
0
100
AcDbLine
62
0
6
CONTINUOUS
10
4.5523772772
20
18.7524838170
11
4.5523772772
21
19.5132698384
0
LINE
5
2D3
100
AcDbEntity
8
0
100
AcDbLine
62
0
6
CONTINUOUS
10
4.5628495186
20
19.6819188400
11
4.5628495186
21
20.2449277994
0
LINE
5
2D4
100
AcDbEntity
8
0
100
AcDbLine
62
0
6
CONTINUOUS
10
4.5801001202
20
-18.8022174074
11
4.5801001202
21
-17.3975161830
0
LINE
5
2D5
100
AcDbEntity
8
0
100
AcDbLine
62
0
6
CONTINUOUS
10
4.5905731591
20
-19.8346253454
11
4.5905731591
21
-17.3975161830
0
LINE
5
2D6
100
AcDbEntity
8
0
100
AcDbLine
62
9
6
CONTINUOUS
10
4.8523658542
20
18.4524838170
11
4.8523658542
21
19.2524838170
0
LINE
5
2D7
100
AcDbEntity
8
0
100
AcDbLine
62
9
6
CONTINUOUS
10
4.8628380955
20
19.3848384194
11
4.8628380955
21
20.2501186222
0
LINE
5
2D8
100
AcDbEntity
8
0
100
AcDbLine
62
9
6
CONTINUOUS
10
5.0183082227
20
19.3848384194
11
5.0183082227
21
20.2501186222
0
LINE
5
2D9
100
AcDbEntity
8
0
100
AcDbLine
62
9
6
CONTINUOUS
10
5.0287804641
20
18.4524838170
11
5.0287804641
21
19.2524838170
0
LINE
5
2DA
100
AcDbEntity
8
0
100
AcDbLine
62
0
6
CONTINUOUS
10
5.1905731591
20
-17.3975161830
11
5.1905731591
21
-19.7423759185
0
LINE
5
2DB
100
AcDbEntity
8
0
100
AcDbLine
62
0
6
CONTINUOUS
10
5.2010461981
20
-18.4860080271
11
5.2010461981
21
-17.3975161830
0
LINE
5
2DC
100
AcDbEntity
8
0
100
AcDbLine
62
0
6
CONTINUOUS
10
5.3182967997
20
20.2449277994
11
5.3182967997
21
19.6819188400
0
LINE
5
2DD
100
AcDbEntity
8
0
100
AcDbLine
62
0
6
CONTINUOUS
10
5.3287690410
20
19.5132698384
11
5.3287690410
21
18.7524838170
0
LINE
5
2DE
100
AcDbEntity
8
0
100
AcDbLine
62
0
6
CONTINUOUS
10
3.1365902606
20
-6.2348345939
11
2.9405731591
21
-6.8975161830
0
LINE
5
2DF
100
AcDbEntity
8
0
100
AcDbLine
62
0
6
CONTINUOUS
10
-3.0594268409
20
-6.8975161830
11
-5.2329794020
21
-8.3066539562
0
LINE
5
2E0
100
AcDbEntity
8
0
100
AcDbLine
62
0
6
CONTINUOUS
10
3.9285581591
20
3.4774838170
11
4.6411561591
21
1.4274838170
0
LINE
5
2E1
100
AcDbEntity
8
0
100
AcDbLine
62
0
6
CONTINUOUS
10
4.0506031591
20
1.8619698170
11
4.1983381591
21
1.4274838170
0
LINE
5
2E2
100
AcDbEntity
8
0
100
AcDbLine
62
0
6
CONTINUOUS
10
3.6560601591
20
3.0856348170
11
3.9398221591
21
2.2026468170
0
LINE
5
2E3
100
AcDbEntity
8
0
100
AcDbLine
62
0
6
CONTINUOUS
10
2.2772041591
20
6.8940898170
11
2.4350541591
21
6.4024278170
0
LINE
5
2E4
100
AcDbEntity
8
0
100
AcDbLine
62
0
6
CONTINUOUS
10
1.8823481591
20
8.1238838170
11
2.1246791591
21
7.3691088170
0
LINE
5
2E5
100
AcDbEntity
8
0
100
AcDbLine
62
0
6
CONTINUOUS
10
2.1323731591
20
8.9025398170
11
2.9350791591
21
6.4024208170
0
LINE
5
2E6
100
AcDbEntity
8
0
100
AcDbLine
62
9
6
CONTINUOUS
10
6.0235287885
20
-10.4512786531
11
6.0409838535
21
-10.5387673166
0
LINE
5
2E7
100
AcDbEntity
8
0
100
AcDbLine
62
9
6
CONTINUOUS
10
5.0183082227
20
19.3848384194
11
5.0265267673
21
19.2524838170
0
LINE
5
2E8
100
AcDbEntity
8
0
100
AcDbLine
62
9
6
CONTINUOUS
10
5.3182967997
20
19.6819188400
11
5.3287690410
21
19.5132698384
0
LINE
5
2E9
100
AcDbEntity
8
0
100
AcDbLine
62
0
6
CONTINUOUS
10
6.3231180942
20
-10.1505907682
11
6.3231180942
21
-9.7311601250
0
LINE
5
2EA
100
AcDbEntity
8
0
100
AcDbLine
62
0
6
CONTINUOUS
10
6.3405731591
20
-20.3975161830
11
6.3405731591
21
-19.9975161830
0
LINE
5
2EB
100
AcDbEntity
8
0
100
AcDbLine
62
0
6
CONTINUOUS
10
6.3405731591
20
20.3024838170
11
6.3405731591
21
19.9024838170
0
LINE
5
2EC
100
AcDbEntity
8
0
100
AcDbLine
62
0
6
CONTINUOUS
10
6.9405731591
20
-20.3975161830
11
6.9405731591
21
-19.9975161830
0
LINE
5
2ED
100
AcDbEntity
8
0
100
AcDbLine
62
0
6
CONTINUOUS
10
6.9405731591
20
20.3024838170
11
6.9405731591
21
19.9024838170
0
LINE
5
2EE
100
AcDbEntity
8
0
100
AcDbLine
62
9
6
CONTINUOUS
10
-9.8624598407
20
-20.1005796437
11
-9.9594268409
21
-20.1975466440
0
LINE
5
2EF
100
AcDbEntity
8
0
100
AcDbLine
62
9
6
CONTINUOUS
10
-9.6624900977
20
-20.3005489788
11
-9.6832594740
21
-20.3213183551
0
LINE
5
2F0
100
AcDbEntity
8
0
100
AcDbLine
62
0
6
CONTINUOUS
10
5.2691861591
20
6.4024338170
11
4.7059921591
21
6.4024278170
0
LINE
5
2F1
100
AcDbEntity
8
0
100
AcDbLine
62
0
6
CONTINUOUS
10
1.3296541591
20
6.4024278170
11
0.8296361591
21
6.4024208170
0
LINE
5
2F2
100
AcDbEntity
8
0
100
AcDbLine
62
0
6
CONTINUOUS
10
0.4962921591
20
6.4024208170
11
-0.0037268409
21
6.4024208170
0
LINE
5
2F3
100
AcDbEntity
8
0
100
AcDbLine
62
0
6
CONTINUOUS
10
-1.4492148409
20
6.4024208170
11
-1.9492328409
21
6.4024208170
0
LINE
5
2F4
100
AcDbEntity
8
0
100
AcDbLine
62
0
6
CONTINUOUS
10
3.7684481591
20
6.4024278170
11
3.2684231591
21
6.4024278170
0
LINE
5
2F5
100
AcDbEntity
8
0
100
AcDbLine
62
0
6
CONTINUOUS
10
-0.4764708409
20
6.4024278170
11
-0.9764768409
21
6.4024208170
0
LINE
5
2F6
100
AcDbEntity
8
0
100
AcDbLine
62
0
6
CONTINUOUS
10
-2.4492398409
20
6.4024208170
11
-2.9492578409
21
6.4024148170
0
LINE
5
2F7
100
AcDbEntity
8
0
100
AcDbLine
62
0
6
CONTINUOUS
10
2.9350791591
20
6.4024208170
11
2.4350541591
21
6.4024278170
0
LINE
5
2F8
100
AcDbEntity
8
0
100
AcDbLine
62
0
6
CONTINUOUS
10
-4.0853018409
20
6.4024208170
11
-4.5853398409
21
6.4024148170
0
LINE
5
2F9
100
AcDbEntity
8
0
100
AcDbLine
62
0
6
CONTINUOUS
10
2.2772041591
20
6.8940898170
11
1.4875111591
21
6.8940898170
0
LINE
5
2FA
100
AcDbEntity
8
0
100
AcDbLine
62
0
6
CONTINUOUS
10
2.1246791591
20
7.3691088170
11
1.6400291591
21
7.3691088170
0
LINE
5
2FB
100
AcDbEntity
8
0
100
AcDbLine
62
0
6
CONTINUOUS
10
4.2049111591
20
7.3691088170
11
3.7685041591
21
7.3691148170
0
LINE
5
2FC
100
AcDbEntity
8
0
100
AcDbLine
62
9
6
CONTINUOUS
10
9.8405731591
20
7.4524838170
11
9.8281375493
21
7.4524838170
0
LINE
5
2FD
100
AcDbEntity
8
0
100
AcDbLine
62
9
6
CONTINUOUS
10
-9.9594268409
20
7.4524838170
11
-9.9469912310
21
7.4524838170
0
LINE
5
2FE
100
AcDbEntity
8
0
100
AcDbLine
62
9
6
CONTINUOUS
10
-9.9594268409
20
20.1025142780
11
-9.8624598407
21
20.0055472778
0
LINE
5
2FF
100
AcDbEntity
8
0
100
AcDbLine
62
9
6
CONTINUOUS
10
-9.7594573018
20
20.3024838170
11
-9.6624903084
21
20.2055168236
0
LINE
5
300
100
AcDbEntity
8
0
100
AcDbLine
62
0
6
CONTINUOUS
10
4.2049111591
20
7.3691088170
11
4.7059921591
21
6.4024278170
0
LINE
5
301
100
AcDbEntity
8
0
100
AcDbLine
62
9
6
CONTINUOUS
10
8.6405731591
20
14.6524838170
11
8.6405731591
21
14.6474513263
0
LINE
5
302
100
AcDbEntity
8
0
100
AcDbLine
62
9
6
CONTINUOUS
10
8.6405731591
20
-9.7475161830
11
8.6405731591
21
-9.7389153984
0
LINE
5
303
100
AcDbEntity
8
0
100
AcDbLine
62
9
6
CONTINUOUS
10
8.6405731591
20
-10.3475161830
11
8.6405731591
21
-10.3557563098
0
LINE
5
304
100
AcDbEntity
8
0
100
AcDbLine
62
9
6
CONTINUOUS
10
8.6405731591
20
15.2524838170
11
8.6405731591
21
15.2569813575
0
LINE
5
305
100
AcDbEntity
8
0
100
AcDbLine
62
9
6
CONTINUOUS
10
5.5042848795
20
-7.7048452076
11
5.1141257203
21
-8.3066539562
0
LINE
5
306
100
AcDbEntity
8
0
100
AcDbLine
62
0
6
CONTINUOUS
10
4.3698961591
20
7.8316338170
11
3.7615541591
21
7.8316338170
0
LINE
5
307
100
AcDbEntity
8
0
100
AcDbLine
62
0
6
CONTINUOUS
10
4.3698961591
20
8.4400218170
11
3.7615481591
21
8.4400218170
0
LINE
5
308
100
AcDbEntity
8
0
100
AcDbLine
62
0
6
CONTINUOUS
10
0.4962921591
20
8.9025338170
11
-0.2596018409
21
8.9025338170
0
LINE
5
309
100
AcDbEntity
8
0
100
AcDbLine
62
0
6
CONTINUOUS
10
-1.1933398409
20
8.9025338170
11
-1.9492328409
21
8.9025338170
0
LINE
5
30A
100
AcDbEntity
8
0
100
AcDbLine
62
0
6
CONTINUOUS
10
-2.4492328409
20
8.9025338170
11
-2.9492518409
21
8.9025338170
0
LINE
5
30B
100
AcDbEntity
8
0
100
AcDbLine
62
0
6
CONTINUOUS
10
-3.2825958409
20
8.9025338170
11
-3.7826208409
21
8.9025338170
0
LINE
5
30C
100
AcDbEntity
8
0
100
AcDbLine
62
0
6
CONTINUOUS
10
-4.8880148409
20
8.9025338170
11
-5.3880398409
21
8.9025338170
0
LINE
5
30D
100
AcDbEntity
8
0
100
AcDbLine
62
0
6
CONTINUOUS
10
4.4392981591
20
8.9025398170
11
3.2684231591
21
8.9025398170
0
LINE
5
30E
100
AcDbEntity
8
0
100
AcDbLine
62
0
6
CONTINUOUS
10
2.1323731591
20
8.9025398170
11
1.6323291591
21
8.9025398170
0
LINE
5
30F
100
AcDbEntity
8
0
100
AcDbLine
62
0
6
CONTINUOUS
10
4.7369409498
20
7.4292421501
11
5.2691861591
21
6.4024338170
0
LINE
5
310
100
AcDbEntity
8
0
100
AcDbLine
62
9
6
CONTINUOUS
10
9.5419215767
20
-20.0005948742
11
9.5336793705
21
-10.3557563348
0
LINE
5
311
100
AcDbEntity
8
0
100
AcDbLine
62
0
6
CONTINUOUS
10
9.7384610293
20
-10.3475161830
11
9.7384610293
21
-9.7475161830
0
LINE
5
312
100
AcDbEntity
8
0
100
AcDbLine
62
0
6
CONTINUOUS
10
9.7384610293
20
14.6524838170
11
9.7384610293
21
15.2524838170
0
LINE
5
313
100
AcDbEntity
8
0
100
AcDbLine
62
9
6
CONTINUOUS
10
9.7418911157
20
-20.0005948742
11
9.7418911157
21
-19.7357741049
0
LINE
5
314
100
AcDbEntity
8
0
100
AcDbLine
62
9
6
CONTINUOUS
10
9.7418911157
20
19.6407417389
11
9.7418911157
21
19.9055625082
0
LINE
5
315
100
AcDbEntity
8
0
100
AcDbLine
62
0
6
CONTINUOUS
10
9.8281375493
20
-7.5475161830
11
9.8281375493
21
7.4524838170
0
LINE
5
316
100
AcDbEntity
8
0
100
AcDbLine
62
0
6
CONTINUOUS
10
9.8405731591
20
-20.1975466440
11
9.8405731591
21
-7.5475161830
0
LINE
5
317
100
AcDbEntity
8
0
100
AcDbLine
62
0
6
CONTINUOUS
10
9.8405731591
20
7.4524838170
11
9.8405731591
21
20.1025142780
0
LINE
5
318
100
AcDbEntity
8
0
100
AcDbLine
62
0
6
CONTINUOUS
10
10.5405731591
20
-6.0276477676
11
10.5405731591
21
5.9326154017
0
LINE
5
319
100
AcDbEntity
8
0
100
AcDbLine
62
0
6
CONTINUOUS
10
10.8405731591
20
-20.8976380269
11
10.8405731591
21
20.8026056609
0
LINE
5
31A
100
AcDbEntity
8
0
100
AcDbLine
62
9
6
CONTINUOUS
10
9.5368848588
20
14.6474514291
11
9.5333189542
21
-9.7389154570
0
LINE
5
31B
100
AcDbEntity
8
0
100
AcDbLine
62
9
6
CONTINUOUS
10
9.5419215767
20
19.9055672095
11
9.5374194509
21
15.2569814176
0
LINE
5
31C
100
AcDbEntity
8
0
100
AcDbLine
62
9
6
CONTINUOUS
10
6.2556319502
20
-9.5385475197
11
6.2536653444
21
-9.5392184186
0
LINE
5
31D
100
AcDbEntity
8
0
100
AcDbLine
62
0
6
CONTINUOUS
10
5.8236911667
20
-14.7535402569
11
5.8246915981
21
-14.7513200565
0
LINE
5
31E
100
AcDbEntity
8
0
100
AcDbLine
62
9
6
CONTINUOUS
10
6.7560231300
20
-11.2400230095
11
6.7324873734
21
-11.2763694657
0
LINE
5
31F
100
AcDbEntity
8
0
100
AcDbLine
62
0
6
CONTINUOUS
10
9.7384610293
20
-10.3475161830
11
9.7336510025
21
-10.3523262098
0
LINE
5
320
100
AcDbEntity
8
0
100
AcDbLine
62
0
6
CONTINUOUS
10
9.5368848847
20
14.6474513264
11
8.6405731591
21
14.6474513263
0
LINE
5
321
100
AcDbEntity
8
0
100
AcDbLine
62
0
6
CONTINUOUS
10
-8.7594268409
20
14.6474513263
11
-9.6557385664
21
14.6474513264
0
LINE
5
322
100
AcDbEntity
8
0
100
AcDbLine
62
0
6
CONTINUOUS
10
9.7384610293
20
14.6524838170
11
8.6405731591
21
14.6524838170
0
LINE
5
323
100
AcDbEntity
8
0
100
AcDbLine
62
0
6
CONTINUOUS
10
-8.7594268409
20
14.6524838170
11
-9.8573147110
21
14.6524838170
0
LINE
5
324
100
AcDbEntity
8
0
100
AcDbLine
62
0
6
CONTINUOUS
10
-9.8573147110
20
15.2524838170
11
-8.7594268409
21
15.2524838170
0
LINE
5
325
100
AcDbEntity
8
0
100
AcDbLine
62
0
6
CONTINUOUS
10
8.6405731591
20
15.2524838170
11
9.7384610293
21
15.2524838170
0
LINE
5
326
100
AcDbEntity
8
0
100
AcDbLine
62
0
6
CONTINUOUS
10
9.5374194585
20
15.2569813575
11
8.6405731591
21
15.2569813575
0
LINE
5
327
100
AcDbEntity
8
0
100
AcDbLine
62
0
6
CONTINUOUS
10
-8.7594268409
20
15.2569813575
11
-9.6562731402
21
15.2569813575
0
LINE
5
328
100
AcDbEntity
8
0
100
AcDbLine
62
0
6
CONTINUOUS
10
9.7384610293
20
15.2524838170
11
9.7373950949
21
15.2535497514
0
LINE
5
329
100
AcDbEntity
8
0
100
AcDbLine
62
0
6
CONTINUOUS
10
6.9405731591
20
19.9024838170
11
9.4951899903
21
20.2955017910
0
LINE
5
32A
100
AcDbEntity
8
0
100
AcDbLine
62
0
6
CONTINUOUS
10
5.0287804641
20
18.4524838170
11
4.8523658542
21
18.4524838170
0
LINE
5
32B
100
AcDbEntity
8
0
100
AcDbLine
62
0
6
CONTINUOUS
10
-4.9712195359
20
18.4524838170
11
-5.1476341458
21
18.4524838170
0
LINE
5
32C
100
AcDbEntity
8
0
100
AcDbLine
62
9
6
CONTINUOUS
10
5.3287690410
20
18.7524838170
11
4.5523772772
21
18.7524838170
0
LINE
5
32D
100
AcDbEntity
8
0
100
AcDbLine
62
9
6
CONTINUOUS
10
-4.6712309590
20
18.7524838170
11
-5.4476227228
21
18.7524838170
0
LINE
5
32E
100
AcDbEntity
8
0
100
AcDbLine
62
0
6
CONTINUOUS
10
5.0287804641
20
19.2524838170
11
4.8523658542
21
19.2524838170
0
LINE
5
32F
100
AcDbEntity
8
0
100
AcDbLine
62
0
6
CONTINUOUS
10
-4.9712195359
20
19.2524838170
11
-5.1476341458
21
19.2524838170
0
LINE
5
330
100
AcDbEntity
8
0
100
AcDbLine
62
9
6
CONTINUOUS
10
5.0183082227
20
19.3848384194
11
4.8628380955
21
19.3848384194
0
LINE
5
331
100
AcDbEntity
8
0
100
AcDbLine
62
9
6
CONTINUOUS
10
-4.9816917773
20
19.3848384194
11
-5.1371619045
21
19.3848384194
0
LINE
5
332
100
AcDbEntity
8
0
100
AcDbLine
62
0
6
CONTINUOUS
10
4.5405731591
20
19.6473435525
11
-4.6594268409
21
19.6473435525
0
LINE
5
333
100
AcDbEntity
8
0
100
AcDbLine
62
0
6
CONTINUOUS
10
9.5419215767
20
19.6473412970
11
5.3405731591
21
19.6473435525
0
LINE
5
334
100
AcDbEntity
8
0
100
AcDbLine
62
0
6
CONTINUOUS
10
-5.4594268409
20
19.6473435525
11
-9.6607752584
21
19.6473412971
0
LINE
5
335
100
AcDbEntity
8
0
100
AcDbLine
62
9
6
CONTINUOUS
10
5.3182967997
20
19.6819188400
11
4.5628495186
21
19.6819188400
0
LINE
5
336
100
AcDbEntity
8
0
100
AcDbLine
62
9
6
CONTINUOUS
10
-4.6817032003
20
19.6819188400
11
-5.4371504814
21
19.6819188400
0
LINE
5
337
100
AcDbEntity
8
0
100
AcDbLine
62
0
6
CONTINUOUS
10
-6.4594268409
20
19.9024838170
11
-7.0594268409
21
19.9024838170
0
LINE
5
338
100
AcDbEntity
8
0
100
AcDbLine
62
0
6
CONTINUOUS
10
6.3405731591
20
19.9024838170
11
6.9405731591
21
19.9024838170
0
LINE
5
339
100
AcDbEntity
8
0
100
AcDbLine
62
9
6
CONTINUOUS
10
-6.4594268322
20
19.9055653289
11
-5.4594268409
21
19.9055625082
0
LINE
5
33A
100
AcDbEntity
8
0
100
AcDbLine
62
9
6
CONTINUOUS
10
5.3405731591
20
19.9055625082
11
6.3405731557
21
19.9055636272
0
LINE
5
33B
100
AcDbEntity
8
0
100
AcDbLine
62
9
6
CONTINUOUS
10
9.7418911157
20
19.9055625082
11
6.9405731557
21
19.9055642986
0
LINE
5
33C
100
AcDbEntity
8
0
100
AcDbLine
62
9
6
CONTINUOUS
10
-9.8607447975
20
19.9055625082
11
-7.0594268322
21
19.9055670213
0
LINE
5
33D
100
AcDbEntity
8
0
100
AcDbLine
62
9
6
CONTINUOUS
10
-4.6594268409
20
19.9055625082
11
4.5405731591
21
19.9055625082
0
LINE
5
33E
100
AcDbEntity
8
0
100
AcDbLine
62
9
6
CONTINUOUS
10
-9.6140436722
20
20.2055168235
11
-9.0291413768
21
20.2055168225
0
LINE
5
33F
100
AcDbEntity
8
0
100
AcDbLine
62
9
6
CONTINUOUS
10
-6.4594268410
20
20.2055168184
11
-5.4568544720
21
20.2055168168
0
LINE
5
340
100
AcDbEntity
8
0
100
AcDbLine
62
9
6
CONTINUOUS
10
-4.6619992098
20
20.2055168168
11
4.5431455280
21
20.2055168168
0
LINE
5
341
100
AcDbEntity
8
0
100
AcDbLine
62
9
6
CONTINUOUS
10
5.3380007902
20
20.2055168168
11
6.3405731591
21
20.2055168168
0
LINE
5
342
100
AcDbEntity
8
0
100
AcDbLine
62
9
6
CONTINUOUS
10
8.9102876577
20
20.2055168168
11
9.5436366199
21
20.2055168168
0
LINE
5
343
100
AcDbEntity
8
0
100
AcDbLine
62
0
6
CONTINUOUS
10
-7.0594268409
20
19.9024838170
11
-9.6140436721
21
20.2955017910
0
LINE
5
344
100
AcDbEntity
8
0
100
AcDbLine
62
0
6
CONTINUOUS
10
5.0183082227
20
20.2501186222
11
4.8628380955
21
20.2501186222
0
LINE
5
345
100
AcDbEntity
8
0
100
AcDbLine
62
0
6
CONTINUOUS
10
-4.9816917773
20
20.2501186222
11
-5.1371619045
21
20.2501186222
0
LINE
5
346
100
AcDbEntity
8
0
100
AcDbLine
62
0
6
CONTINUOUS
10
-2.5594268409
20
20.2972472975
11
-0.0594268409
21
20.2972472975
0
LINE
5
347
100
AcDbEntity
8
0
100
AcDbLine
62
0
6
CONTINUOUS
10
-2.5594268409
20
20.3024838170
11
-9.7594573018
21
20.3024838170
0
LINE
5
348
100
AcDbEntity
8
0
100
AcDbLine
62
0
6
CONTINUOUS
10
-0.0594268409
20
20.3024838170
11
9.6406036201
21
20.3024838170
0
LINE
5
349
100
AcDbEntity
8
0
100
AcDbLine
62
0
6
CONTINUOUS
10
-2.5594268409
20
21.5024838170
11
-0.0594268409
21
21.5024838170
0
LINE
5
34A
100
AcDbEntity
8
0
100
AcDbLine
62
0
6
CONTINUOUS
10
10.0406950030
20
21.6024838170
11
-10.1595486847
21
21.6024838170
0
ARC
5
34B
100
AcDbEntity
8
0
100
AcDbCircle
62
0
6
CONTINUOUS
10
-2.1594268409
20
-13.0475161830
40
3.8087275325
100
AcDbArc
50
204.3673439084
51
217.8759767342
0
ARC
5
34C
100
AcDbEntity
8
0
100
AcDbCircle
62
0
6
CONTINUOUS
10
-2.1594268409
20
-13.0475161830
40
3.8087275325
100
AcDbArc
50
142.1240232645
51
155.6326560913
0
ARC
5
34D
100
AcDbEntity
8
0
100
AcDbCircle
62
0
6
CONTINUOUS
10
2.0405731591
20
-13.0475161830
40
3.8087275325
100
AcDbArc
50
24.3673439084
51
37.8759767342
0
ARC
5
34E
100
AcDbEntity
8
0
100
AcDbCircle
62
0
6
CONTINUOUS
10
2.0405731591
20
-13.0475161830
40
3.8087275325
100
AcDbArc
50
322.1240232645
51
335.6326560913
0
ARC
5
34F
100
AcDbEntity
8
0
100
AcDbCircle
62
0
6
CONTINUOUS
10
-2.1594268409
20
-13.0475161830
40
4.2912724675
100
AcDbArc
50
206.9633147825
51
215.6320551568
0
ARC
5
350
100
AcDbEntity
8
0
100
AcDbCircle
62
0
6
CONTINUOUS
10
-2.1594268409
20
-13.0475161830
40
4.2912724675
100
AcDbArc
50
144.3679448432
51
153.0370354764
0
ARC
5
351
100
AcDbEntity
8
0
100
AcDbCircle
62
0
6
CONTINUOUS
10
2.0405731591
20
-13.0475161830
40
4.2912724675
100
AcDbArc
50
26.9633147825
51
35.6320551568
0
ARC
5
352
100
AcDbEntity
8
0
100
AcDbCircle
62
0
6
CONTINUOUS
10
2.0405731591
20
-13.0475161830
40
4.2912724675
100
AcDbArc
50
324.3679448432
51
333.0370354764
0
ARC
5
353
100
AcDbEntity
8
0
100
AcDbCircle
62
0
6
CONTINUOUS
10
-2.1594268409
20
-13.0475161830
40
5.4895269610
100
AcDbArc
50
246.2561582095
51
270.0000000000
0
ARC
5
354
100
AcDbEntity
8
0
100
AcDbCircle
62
0
6
CONTINUOUS
10
2.0405731591
20
-13.0475161830
40
4.2895269610
100
AcDbArc
50
303.8527694157
51
322.7531437389
0
ARC
5
355
100
AcDbEntity
8
0
100
AcDbCircle
62
0
6
CONTINUOUS
10
2.0405731591
20
-13.0475161830
40
5.4895269610
100
AcDbArc
50
270.0000000000
51
293.7438417905
0
ARC
5
356
100
AcDbEntity
8
0
100
AcDbCircle
62
0
6
CONTINUOUS
10
-2.1594268409
20
-13.0475161830
40
4.2895269610
100
AcDbArc
50
217.2468562611
51
236.1472305843
0
ARC
5
357
100
AcDbEntity
8
0
100
AcDbCircle
62
0
6
CONTINUOUS
10
-2.1594268409
20
-13.0475161830
40
5.4825449351
100
AcDbArc
50
90.0000000000
51
140.2154021118
0
ARC
5
358
100
AcDbEntity
8
0
100
AcDbCircle
62
0
6
CONTINUOUS
10
2.0405731591
20
-13.0475161830
40
3.7895269610
100
AcDbArc
50
320.0792135662
51
39.9207864311
0
ARC
5
359
100
AcDbEntity
8
0
100
AcDbCircle
62
0
6
CONTINUOUS
10
-2.1594268409
20
-13.0475161830
40
3.7895269610
100
AcDbArc
50
140.0792135662
51
219.9207864311
0
ARC
5
35A
100
AcDbEntity
8
0
100
AcDbCircle
62
0
6
CONTINUOUS
10
2.0405731591
20
-13.0475161830
40
5.4825449351
100
AcDbArc
50
39.7845978882
51
90.0000000000
0
ARC
5
35B
100
AcDbEntity
8
0
100
AcDbCircle
62
0
6
CONTINUOUS
10
-2.1594268409
20
-13.0475161830
40
4.4534946172
100
AcDbArc
50
145.6949857633
51
153.2142589725
0
ARC
5
35C
100
AcDbEntity
8
0
100
AcDbCircle
62
0
6
CONTINUOUS
10
-2.1594268409
20
-13.0475161830
40
4.4500000000
100
AcDbArc
50
206.7076453021
51
212.6377578227
0
ARC
5
35D
100
AcDbEntity
8
0
100
AcDbCircle
62
0
6
CONTINUOUS
10
2.0405731591
20
-13.0475161830
40
4.4500000000
100
AcDbArc
50
327.3622421773
51
333.2923546979
0
ARC
5
35E
100
AcDbEntity
8
0
100
AcDbCircle
62
0
6
CONTINUOUS
10
2.0405731591
20
-13.0475161830
40
4.4534954036
100
AcDbArc
50
26.7857585947
51
34.3053046838
0
ARC
5
35F
100
AcDbEntity
8
0
100
AcDbCircle
62
0
6
CONTINUOUS
10
2.0405731591
20
-13.0475161830
40
4.1500000000
100
AcDbArc
50
335.7602867576
51
24.2397132424
0
ARC
5
360
100
AcDbEntity
8
0
100
AcDbCircle
62
0
6
CONTINUOUS
10
-2.1594268409
20
-13.0475161830
40
4.1500000000
100
AcDbArc
50
155.7602867576
51
204.2397132424
0
ARC
5
361
100
AcDbEntity
8
0
100
AcDbCircle
62
0
6
CONTINUOUS
10
4.3698961591
20
8.1358268170
40
0.3041950000
100
AcDbArc
50
270.0016550818
51
90.0000000000
0
ARC
5
362
100
AcDbEntity
8
0
100
AcDbCircle
62
0
6
CONTINUOUS
10
4.4392981591
20
8.1358268170
40
0.7667158029
100
AcDbArc
50
292.8428457417
51
89.9989363352
0
ARC
5
363
100
AcDbEntity
8
0
100
AcDbCircle
62
0
6
CONTINUOUS
10
-2.1594268409
20
-13.0475161830
40
4.4534875415
100
AcDbArc
50
218.0753500692
51
237.3746915521
0
ARC
5
364
100
AcDbEntity
8
0
100
AcDbCircle
62
0
6
CONTINUOUS
10
2.0405731591
20
-13.0475161830
40
4.6501369129
100
AcDbArc
50
335.0013008965
51
24.9986991035
0
ARC
5
365
100
AcDbEntity
8
0
100
AcDbCircle
62
0
6
CONTINUOUS
10
2.0405731591
20
-13.0475161830
40
5.0150792305
100
AcDbArc
50
339.3190223499
51
20.6809776501
0
ARC
5
366
100
AcDbEntity
8
0
100
AcDbCircle
62
0
6
CONTINUOUS
10
-2.1594268409
20
-13.0475161830
40
5.0150792305
100
AcDbArc
50
159.3190223499
51
200.6809776501
0
ARC
5
367
100
AcDbEntity
8
0
100
AcDbCircle
62
0
6
CONTINUOUS
10
-2.1594268409
20
-13.0475161830
40
4.6501369129
100
AcDbArc
50
155.0013008965
51
204.9986991035
0
ARC
5
368
100
AcDbEntity
8
0
100
AcDbCircle
62
0
6
CONTINUOUS
10
-2.1594268409
20
-13.0475161830
40
5.6500000000
100
AcDbArc
50
122.9557802664
51
205.1366605176
0
ARC
5
369
100
AcDbEntity
8
0
100
AcDbCircle
62
0
6
CONTINUOUS
10
2.0405731591
20
-13.0475161830
40
5.6500000000
100
AcDbArc
50
334.8633394824
51
57.0442197336
0
ARC
5
36A
100
AcDbEntity
8
0
100
AcDbCircle
62
0
6
CONTINUOUS
10
2.0405731591
20
-13.0475161830
40
5.0500000000
100
AcDbArc
50
339.0275234118
51
20.9724765882
0
ARC
5
36B
100
AcDbEntity
8
0
100
AcDbCircle
62
0
6
CONTINUOUS
10
2.0405731591
20
-13.0475161830
40
4.6502945067
100
AcDbArc
50
25.4743842609
51
32.6773198706
0
ARC
5
36C
100
AcDbEntity
8
0
100
AcDbCircle
62
0
6
CONTINUOUS
10
-2.1594268409
20
-13.0475161830
40
4.6502474510
100
AcDbArc
50
147.3228640362
51
154.5256157391
0
ARC
5
36D
100
AcDbEntity
8
0
100
AcDbCircle
62
0
6
CONTINUOUS
10
-2.1594268409
20
-13.0475161830
40
5.0500000000
100
AcDbArc
50
159.0275234118
51
200.9724765882
0
ARC
5
36E
100
AcDbEntity
8
0
100
AcDbCircle
62
0
6
CONTINUOUS
10
-5.0094268409
20
-17.3975161830
40
0.3000000000
100
AcDbArc
50
0.0000000000
51
180.0000000000
0
ARC
5
36F
100
AcDbEntity
8
0
100
AcDbCircle
62
0
6
CONTINUOUS
10
4.8905731591
20
-17.3975161830
40
0.3000000000
100
AcDbArc
50
0.0000000000
51
180.0000000000
0
ARC
5
370
100
AcDbEntity
8
0
100
AcDbCircle
62
0
6
CONTINUOUS
10
-11.9594268409
20
7.4524838170
40
2.0000000000
100
AcDbArc
50
310.5416018735
51
360.0000000000
0
ARC
5
371
100
AcDbEntity
8
0
100
AcDbCircle
62
0
6
CONTINUOUS
10
-11.9594268409
20
-7.5475161830
40
2.0000000000
100
AcDbArc
50
0.0000000000
51
49.4583981265
0
ARC
5
372
100
AcDbEntity
8
0
100
AcDbCircle
62
0
6
CONTINUOUS
10
11.8405731591
20
-7.5475161830
40
2.0000000000
100
AcDbArc
50
130.5416018735
51
180.0000000000
0
ARC
5
373
100
AcDbEntity
8
0
100
AcDbCircle
62
0
6
CONTINUOUS
10
11.8405731591
20
7.4524838170
40
2.0000000000
100
AcDbArc
50
180.0000000000
51
229.4583981265
0
ARC
5
374
100
AcDbEntity
8
0
100
AcDbCircle
62
0
6
CONTINUOUS
10
-2.1594268409
20
-13.0475161830
40
4.6572218960
100
AcDbArc
50
221.6152678840
51
238.9576063770
0
ARC
5
375
100
AcDbEntity
8
0
100
AcDbCircle
62
0
6
CONTINUOUS
10
2.0405731591
20
-13.0475161830
40
4.6571751254
100
AcDbArc
50
301.0302351262
51
318.3847321160
0
ARC
5
376
100
AcDbEntity
8
0
100
AcDbCircle
62
0
6
CONTINUOUS
10
4.8905731591
20
-17.3975161830
40
0.3104730390
100
AcDbArc
50
0.0000000000
51
180.0000000000
0
ARC
5
377
100
AcDbEntity
8
0
100
AcDbCircle
62
0
6
CONTINUOUS
10
-5.0094268409
20
-17.3975161830
40
0.3104730390
100
AcDbArc
50
0.0000000000
51
180.0000000000
0
ARC
5
378
100
AcDbEntity
8
0
100
AcDbCircle
62
0
6
CONTINUOUS
10
8.6405731591
20
-10.0475161830
40
0.3000000000
100
AcDbArc
50
90.0000000000
51
270.0000000000
0
ARC
5
379
100
AcDbEntity
8
0
100
AcDbCircle
62
0
6
CONTINUOUS
10
-8.7594268409
20
-10.0475161830
40
0.3000000000
100
AcDbArc
50
270.0000000000
51
90.0000000000
0
ARC
5
37A
100
AcDbEntity
8
0
100
AcDbCircle
62
0
6
CONTINUOUS
10
8.6405731591
20
14.9524838170
40
0.3000000000
100
AcDbArc
50
90.0000000000
51
270.0000000000
0
ARC
5
37B
100
AcDbEntity
8
0
100
AcDbCircle
62
0
6
CONTINUOUS
10
-8.7594268409
20
14.9524838170
40
0.3000000000
100
AcDbArc
50
270.0000000000
51
90.0000000000
0
ARC
5
37C
100
AcDbEntity
8
0
100
AcDbCircle
62
0
6
CONTINUOUS
10
-2.1594268409
20
-13.0475161830
40
6.2901338116
100
AcDbArc
50
246.1883212575
51
270.0000000000
0
ARC
5
37D
100
AcDbEntity
8
0
100
AcDbCircle
62
0
6
CONTINUOUS
10
-2.1594268409
20
-13.0475161830
40
7.2503380976
100
AcDbArc
50
249.4081858812
51
258.6339132327
0
ARC
5
37E
100
AcDbEntity
8
0
100
AcDbCircle
62
0
6
CONTINUOUS
10
-2.1594268409
20
-13.0475161830
40
6.2901338116
100
AcDbArc
50
209.4519765641
51
239.8378259567
0
ARC
5
37F
100
AcDbEntity
8
0
100
AcDbCircle
62
0
6
CONTINUOUS
10
2.0405731591
20
-13.0475161830
40
7.2503369007
100
AcDbArc
50
281.3660867693
51
290.5918141188
0
ARC
5
380
100
AcDbEntity
8
0
100
AcDbCircle
62
0
6
CONTINUOUS
10
2.0405731591
20
-13.0475161830
40
6.2901338116
100
AcDbArc
50
270.0000000000
51
293.8116787425
0
ARC
5
381
100
AcDbEntity
8
0
100
AcDbCircle
62
0
6
CONTINUOUS
10
2.0405731591
20
-13.0475161830
40
6.2901338116
100
AcDbArc
50
300.1621740433
51
330.5480234359
0
ARC
5
382
100
AcDbEntity
8
0
100
AcDbCircle
62
0
6
CONTINUOUS
10
2.0405731591
20
-13.0475161830
40
4.4534883220
100
AcDbArc
50
302.6253907263
51
321.9246279868
0
SPLINE
5
383
100
AcDbEntity
8
0
100
AcDbSpline
62
0
6
CONTINUOUS
70
0
71
3
72
9
73
5
74
3
42
0.0000001000
43
0.0000001000
44
0.0000000001
12
-0.0041469995
22
-0.0087438394
32
0.0000000000
13
-0.0041257553
23
-0.0087538834
33
0.0000000000
40
0.0000000000
40
0.0000000000
40
0.0000000000
40
0.0000000000
40
0.4999981899
40
1.0000000000
40
1.0000000000
40
1.0000000000
40
1.0000000000
10
-5.6431292465
20
-10.5387673166
30
0.0000000000
10
-5.6438204106
20
-10.5402246179
30
0.0000000000
10
-5.6452009744
20
-10.5431400705
30
0.0000000000
10
-5.6465779976
20
-10.5460571971
30
0.0000000000
10
-5.6472656259
20
-10.5475161830
30
0.0000000000
11
-5.6431292465
21
-10.5387673166
31
0.0000000000
11
-5.6452000843
21
-10.5431404785
31
0.0000000000
11
-5.6472656259
21
-10.5475161830
31
0.0000000000
0
SPLINE
5
384
100
AcDbEntity
8
0
100
AcDbSpline
62
0
6
CONTINUOUS
70
0
71
3
72
9
73
5
74
3
42
0.0000001000
43
0.0000001000
44
0.0000000001
12
-0.0041257553
22
0.0087538834
32
0.0000000000
13
-0.0041469995
23
0.0087438394
33
0.0000000000
40
0.0000000000
40
0.0000000000
40
0.0000000000
40
0.0000000000
40
0.5000018101
40
1.0000000000
40
1.0000000000
40
1.0000000000
40
1.0000000000
10
5.5284119442
20
-10.5475161830
30
0.0000000000
10
5.5277243158
20
-10.5460571971
30
0.0000000000
10
5.5263472927
20
-10.5431400705
30
0.0000000000
10
5.5249667288
20
-10.5402246179
30
0.0000000000
10
5.5242755647
20
-10.5387673166
30
0.0000000000
11
5.5284119442
21
-10.5475161830
31
0.0000000000
11
5.5263464025
21
-10.5431404785
31
0.0000000000
11
5.5242755647
21
-10.5387673166
31
0.0000000000
0
SPLINE
5
385
100
AcDbEntity
8
0
100
AcDbSpline
62
0
6
CONTINUOUS
70
0
71
3
72
12
73
8
74
6
42
0.0000001000
43
0.0000001000
44
0.0000000001
12
-0.4695527409
22
0.0000000000
32
0.0000000000
13
-0.0000000000
23
0.4695527409
33
0.0000000000
40
0.0000000000
40
0.0000000000
40
0.0000000000
40
0.0000000000
40
0.1993649636
40
0.3988522271
40
0.5987371844
40
0.7991447419
40
1.0000000000
40
1.0000000000
40
1.0000000000
40
1.0000000000
10
-6.1598375352
20
-10.5387673166
30
0.0000000000
10
-6.1910416569
20
-10.5387673166
30
0.0000000000
10
-6.2539106894
20
-10.5288273059
30
0.0000000000
10
-6.3386930849
20
-10.4855220896
30
0.0000000000
10
-6.4061279347
20
-10.4179526344
30
0.0000000000
10
-6.4494667726
20
-10.3327643506
30
0.0000000000
10
-6.4594268409
20
-10.2695168107
30
0.0000000000
10
-6.4594268409
20
-10.2380794317
30
0.0000000000
11
-6.1598375352
21
-10.5387673166
31
0.0000000000
11
-6.2522947038
21
-10.5241062500
31
0.0000000000
11
-6.3357302121
21
-10.4815322467
31
0.0000000000
11
-6.4020428413
21
-10.4151117427
31
0.0000000000
11
-6.4447029806
21
-10.3312351460
31
0.0000000000
11
-6.4594268409
21
-10.2380794317
31
0.0000000000
0
SPLINE
5
386
100
AcDbEntity
8
0
100
AcDbSpline
62
0
6
CONTINUOUS
70
0
71
3
72
12
73
8
74
6
42
0.0000001000
43
0.0000001000
44
0.0000000001
12
0.0000000000
22
-0.4695527409
32
0.0000000000
13
-0.4695527409
23
0.0000000000
33
0.0000000000
40
0.0000000000
40
0.0000000000
40
0.0000000000
40
0.0000000000
40
0.2008552581
40
0.4012628156
40
0.6011477729
40
0.8006350364
40
1.0000000000
40
1.0000000000
40
1.0000000000
40
1.0000000000
10
6.3405731591
20
-10.2380794317
30
0.0000000000
10
6.3405731591
20
-10.2695168107
30
0.0000000000
10
6.3306130909
20
-10.3327643506
30
0.0000000000
10
6.2872742530
20
-10.4179526344
30
0.0000000000
10
6.2198394031
20
-10.4855220896
30
0.0000000000
10
6.1350570077
20
-10.5288273059
30
0.0000000000
10
6.0721879752
20
-10.5387673166
30
0.0000000000
10
6.0409838535
20
-10.5387673166
30
0.0000000000
11
6.3405731591
21
-10.2380794317
31
0.0000000000
11
6.3258492988
21
-10.3312351460
31
0.0000000000
11
6.2831891596
21
-10.4151117427
31
0.0000000000
11
6.2168765304
21
-10.4815322467
31
0.0000000000
11
6.1334410221
21
-10.5241062500
31
0.0000000000
11
6.0409838535
21
-10.5387673166
31
0.0000000000
0
SPLINE
5
387
100
AcDbEntity
8
0
100
AcDbSpline
62
0
6
CONTINUOUS
70
0
71
3
72
9
73
5
74
3
42
0.0000001000
43
0.0000001000
44
0.0000000001
12
0.0206767351
22
-0.0438711744
32
0.0000000000
13
0.0212091994
23
-0.0436162490
33
0.0000000000
40
0.0000000000
40
0.0000000000
40
0.0000000000
40
0.0000000000
40
0.5000024224
40
1.0000000000
40
1.0000000000
40
1.0000000000
40
1.0000000000
10
-5.6472656259
20
-15.5475161830
30
0.0000000000
10
-5.6438194867
20
-15.5548280808
30
0.0000000000
10
-5.6368827376
20
-15.5694308720
30
0.0000000000
10
-5.6298572432
20
-15.5839911751
30
0.0000000000
10
-5.6263223938
20
-15.5912605147
30
0.0000000000
11
-5.6472656259
21
-15.5475161830
31
0.0000000000
11
-5.6368605175
21
-15.5694203206
31
0.0000000000
11
-5.6263223938
21
-15.5912605147
31
0.0000000000
0
SPLINE
5
388
100
AcDbEntity
8
0
100
AcDbSpline
62
0
6
CONTINUOUS
70
0
71
3
72
9
73
5
74
3
42
0.0000001000
43
0.0000001000
44
0.0000000001
12
0.0212091994
22
0.0436162490
32
0.0000000000
13
0.0206767351
23
0.0438711744
33
0.0000000000
40
0.0000000000
40
0.0000000000
40
0.0000000000
40
0.0000000000
40
0.4999975776
40
1.0000000000
40
1.0000000000
40
1.0000000000
40
1.0000000000
10
5.5074687120
20
-15.5912605147
30
0.0000000000
10
5.5110035615
20
-15.5839911751
30
0.0000000000
10
5.5180290559
20
-15.5694308720
30
0.0000000000
10
5.5249658050
20
-15.5548280808
30
0.0000000000
10
5.5284119442
20
-15.5475161830
30
0.0000000000
11
5.5074687120
21
-15.5912605147
31
0.0000000000
11
5.5180068357
21
-15.5694203206
31
0.0000000000
11
5.5284119442
21
-15.5475161830
31
0.0000000000
0
SPLINE
5
389
100
AcDbEntity
8
0
100
AcDbSpline
62
0
6
CONTINUOUS
70
0
71
3
72
11
73
7
74
5
42
0.0000001000
43
0.0000001000
44
0.0000000001
12
-0.0000000000
22
-0.3456579856
32
0.0000000000
13
0.3163996829
23
-0.1391786033
33
0.0000000000
40
0.0000000000
40
0.0000000000
40
0.0000000000
40
0.0000000000
40
0.2504468072
40
0.4999227656
40
0.7498487018
40
1.0000000000
40
1.0000000000
40
1.0000000000
40
1.0000000000
10
-4.5489538019
20
-17.7978162204
30
0.0000000000
10
-4.5489538019
20
-17.8266725334
30
0.0000000000
10
-4.5405286111
20
-17.8846182788
30
0.0000000000
10
-4.5036884940
20
-17.9640527024
30
0.0000000000
10
-4.4458250177
20
-18.0297326497
30
0.0000000000
10
-4.3961581856
20
-18.0607755888
30
0.0000000000
10
-4.3697755885
20
-18.0723808250
30
0.0000000000
11
-4.5489538019
21
-17.7978162204
31
0.0000000000
11
-4.5364625540
21
-17.8834792224
31
0.0000000000
11
-4.5002127072
21
-17.9617233307
31
0.0000000000
11
-4.4430793511
21
-18.0265216402
31
0.0000000000
11
-4.3697755885
21
-18.0723808250
31
0.0000000000
0
SPLINE
5
38A
100
AcDbEntity
8
0
100
AcDbSpline
62
0
6
CONTINUOUS
70
0
71
3
72
11
73
7
74
5
42
0.0000001000
43
0.0000001000
44
0.0000000001
12
0.3163996829
22
0.1391786033
32
0.0000000000
13
-0.0000000000
23
0.3456579856
33
0.0000000000
40
0.0000000000
40
0.0000000000
40
0.0000000000
40
0.0000000000
40
0.2501512982
40
0.5000772344
40
0.7495531928
40
1.0000000000
40
1.0000000000
40
1.0000000000
40
1.0000000000
10
4.2509219067
20
-18.0723808250
30
0.0000000000
10
4.2773045039
20
-18.0607755888
30
0.0000000000
10
4.3269713359
20
-18.0297326497
30
0.0000000000
10
4.3848348122
20
-17.9640527024
30
0.0000000000
10
4.4216749294
20
-17.8846182788
30
0.0000000000
10
4.4301001202
20
-17.8266725334
30
0.0000000000
10
4.4301001202
20
-17.7978162204
30
0.0000000000
11
4.2509219067
21
-18.0723808250
31
0.0000000000
11
4.3242256693
21
-18.0265216402
31
0.0000000000
11
4.3813590254
21
-17.9617233307
31
0.0000000000
11
4.4176088723
21
-17.8834792224
31
0.0000000000
11
4.4301001202
21
-17.7978162204
31
0.0000000000
0
SPLINE
5
38B
100
AcDbEntity
8
0
100
AcDbSpline
62
0
6
CONTINUOUS
70
0
71
3
72
12
73
8
74
6
42
0.0000001000
43
0.0000001000
44
0.0000000001
12
0.2214620598
22
0.0000000043
32
0.0000000000
13
-0.1359675803
23
0.1748092132
33
0.0000000000
40
0.0000000000
40
0.0000000000
40
0.0000000000
40
0.0000000000
40
0.1996430843
40
0.3988290180
40
0.5983794923
40
0.7987103633
40
1.0000000000
40
1.0000000000
40
1.0000000000
40
1.0000000000
10
-5.2441073847
20
-15.5475161830
30
0.0000000000
10
-5.2293695951
20
-15.5475161827
30
0.0000000000
10
-5.1995069936
20
-15.5408141076
30
0.0000000000
10
-5.1637639590
20
-15.5124595290
30
0.0000000000
10
-5.1437847648
20
-15.4713049248
30
0.0000000000
10
-5.1435384435
20
-15.4254873323
30
0.0000000000
10
-5.1566908794
20
-15.3976299041
30
0.0000000000
10
-5.1658138343
20
-15.3859008098
30
0.0000000000
11
-5.2441073847
21
-15.5475161830
31
0.0000000000
11
-5.2009860589
21
-15.5377502608
31
0.0000000000
11
-5.1664108487
21
-15.5103561995
31
0.0000000000
11
-5.1470910499
21
-15.4706100780
31
0.0000000000
11
-5.1468522084
21
-15.4262450336
31
0.0000000000
11
-5.1658138343
21
-15.3859008098
31
0.0000000000
0
SPLINE
5
38C
100
AcDbEntity
8
0
100
AcDbSpline
62
0
6
CONTINUOUS
70
0
71
3
72
12
73
8
74
6
42
0.0000001000
43
0.0000001000
44
0.0000000001
12
0.1359671642
22
0.1748086791
32
0.0000000000
13
-0.2214613827
23
0.0000000051
33
0.0000000000
40
0.0000000000
40
0.0000000000
40
0.0000000000
40
0.0000000000
40
0.2003556274
40
0.3997456707
40
0.5984189392
40
0.8016719181
40
1.0000000000
40
1.0000000000
40
1.0000000000
40
1.0000000000
10
-5.1658138343
20
-10.7091315561
30
0.0000000000
10
-5.1567332388
20
-10.6974569219
30
0.0000000000
10
-5.1436179547
20
-10.6697531145
30
0.0000000000
10
-5.1437203598
20
-10.6241584604
30
0.0000000000
10
-5.1635404130
20
-10.5827594928
30
0.0000000000
10
-5.1994086849
20
-10.5542095399
30
0.0000000000
10
-5.2294667143
20
-10.5475161833
30
0.0000000000
10
-5.2441073847
20
-10.5475161830
30
0.0000000000
11
-5.1658138343
21
-10.7091315561
31
0.0000000000
11
-5.1468981393
21
-10.6689944764
31
0.0000000000
11
-5.1469953671
21
-10.6248373887
31
0.0000000000
11
-5.1660207600
21
-10.5851649976
31
0.0000000000
11
-5.2012557449
21
-10.5571536121
31
0.0000000000
11
-5.2441073847
21
-10.5475161830
31
0.0000000000
0
SPLINE
5
38D
100
AcDbEntity
8
0
100
AcDbSpline
62
0
6
CONTINUOUS
70
0
71
3
72
12
73
8
74
6
42
0.0000001000
43
0.0000001000
44
0.0000000001
12
-0.2214620598
22
-0.0000000043
32
0.0000000000
13
0.1359675803
23
-0.1748092132
33
0.0000000000
40
0.0000000000
40
0.0000000000
40
0.0000000000
40
0.0000000000
40
0.1996430843
40
0.3988290180
40
0.5983794923
40
0.7987103633
40
1.0000000000
40
1.0000000000
40
1.0000000000
40
1.0000000000
10
5.1252537029
20
-10.5475161830
30
0.0000000000
10
5.1105159134
20
-10.5475161833
30
0.0000000000
10
5.0806533119
20
-10.5542182584
30
0.0000000000
10
5.0449102773
20
-10.5825728370
30
0.0000000000
10
5.0249310830
20
-10.6237274411
30
0.0000000000
10
5.0246847618
20
-10.6695450337
30
0.0000000000
10
5.0378371976
20
-10.6974024618
30
0.0000000000
10
5.0469601526
20
-10.7091315562
30
0.0000000000
11
5.1252537029
21
-10.5475161830
31
0.0000000000
11
5.0821323772
21
-10.5572821052
31
0.0000000000
11
5.0475571669
21
-10.5846761665
31
0.0000000000
11
5.0282373682
21
-10.6244222880
31
0.0000000000
11
5.0279985267
21
-10.6687873324
31
0.0000000000
11
5.0469601526
21
-10.7091315562
31
0.0000000000
0
SPLINE
5
38E
100
AcDbEntity
8
0
100
AcDbSpline
62
0
6
CONTINUOUS
70
0
71
3
72
12
73
8
74
6
42
0.0000001000
43
0.0000001000
44
0.0000000001
12
-0.1359671642
22
-0.1748086791
32
0.0000000000
13
0.2214613827
23
-0.0000000051
33
0.0000000000
40
0.0000000000
40
0.0000000000
40
0.0000000000
40
0.0000000000
40
0.2003556274
40
0.3997456707
40
0.5984189392
40
0.8016719181
40
1.0000000000
40
1.0000000000
40
1.0000000000
40
1.0000000000
10
5.0469601525
20
-15.3859008099
30
0.0000000000
10
5.0378795571
20
-15.3975754441
30
0.0000000000
10
5.0247642729
20
-15.4252792515
30
0.0000000000
10
5.0248666780
20
-15.4708739056
30
0.0000000000
10
5.0446867312
20
-15.5122728732
30
0.0000000000
10
5.0805550031
20
-15.5408228261
30
0.0000000000
10
5.1106130325
20
-15.5475161826
30
0.0000000000
10
5.1252537029
20
-15.5475161830
30
0.0000000000
11
5.0469601525
21
-15.3859008099
31
0.0000000000
11
5.0280444576
21
-15.4260378896
31
0.0000000000
11
5.0281416853
21
-15.4701949772
31
0.0000000000
11
5.0471670783
21
-15.5098673684
31
0.0000000000
11
5.0824020631
21
-15.5378787539
31
0.0000000000
11
5.1252537029
21
-15.5475161830
31
0.0000000000
0
SPLINE
5
38F
100
AcDbEntity
8
0
100
AcDbSpline
62
0
6
CONTINUOUS
70
0
71
3
72
12
73
8
74
6
42
0.0000001000
43
0.0000001000
44
0.0000000001
12
0.0000000000
22
-0.4695527409
32
0.0000000000
13
0.4695527409
23
0.0000000000
33
0.0000000000
40
0.0000000000
40
0.0000000000
40
0.0000000000
40
0.0000000000
40
0.2008552581
40
0.4012628156
40
0.6011477729
40
0.8006350364
40
1.0000000000
40
1.0000000000
40
1.0000000000
40
1.0000000000
10
-6.4419717759
20
-10.1505907682
30
0.0000000000
10
-6.4419717759
20
-10.1820281471
30
0.0000000000
10
-6.4320117077
20
-10.2452756871
30
0.0000000000
10
-6.3886728698
20
-10.3304639709
30
0.0000000000
10
-6.3212380199
20
-10.3980334261
30
0.0000000000
10
-6.2364556245
20
-10.4413386424
30
0.0000000000
10
-6.1735865920
20
-10.4512786531
30
0.0000000000
10
-6.1423824703
20
-10.4512786531
30
0.0000000000
11
-6.4419717759
21
-10.1505907682
31
0.0000000000
11
-6.4272479157
21
-10.2437464825
31
0.0000000000
11
-6.3845877764
21
-10.3276230792
31
0.0000000000
11
-6.3182751472
21
-10.3940435832
31
0.0000000000
11
-6.2348396389
21
-10.4366175865
31
0.0000000000
11
-6.1423824703
21
-10.4512786531
31
0.0000000000
0
SPLINE
5
390
100
AcDbEntity
8
0
100
AcDbSpline
62
0
6
CONTINUOUS
70
0
71
3
72
10
73
6
74
4
42
0.0000001000
43
0.0000001000
44
0.0000000001
12
-0.1329817272
22
-0.1596968995
32
0.0000000000
13
0.0000000000
23
-0.2078153976
33
0.0000000000
40
0.0000000000
40
0.0000000000
40
0.0000000000
40
0.0000000000
40
0.3331959025
40
0.6662685541
40
1.0000000000
40
1.0000000000
40
1.0000000000
40
1.0000000000
10
-6.3725190261
20
-9.5392184186
30
0.0000000000
10
-6.3872886816
20
-9.5569552028
30
0.0000000000
10
-6.4128058366
20
-9.5960048032
30
0.0000000000
10
-6.4365794489
20
-9.6616676219
30
0.0000000000
10
-6.4419717759
20
-9.7080419472
30
0.0000000000
10
-6.4419717759
20
-9.7311601250
30
0.0000000000
11
-6.3725190261
21
-9.5392184186
31
0.0000000000
11
-6.4103902756
21
-9.5971873293
31
0.0000000000
11
-6.4339539478
21
-9.6622706069
31
0.0000000000
11
-6.4419717759
21
-9.7311601250
31
0.0000000000
0
SPLINE
5
391
100
AcDbEntity
8
0
100
AcDbSpline
62
9
6
CONTINUOUS
70
0
71
3
72
8
73
4
74
2
42
0.0000001000
43
0.0000001000
44
0.0000000001
12
-0.0019406335
22
-0.0007020559
32
0.0000000000
13
-0.0019405859
23
-0.0007021873
33
0.0000000000
40
0.0000000000
40
0.0000000000
40
0.0000000000
40
0.0000000000
40
1.0000000000
40
1.0000000000
40
1.0000000000
40
1.0000000000
10
6.3250587039
20
-9.7304580034
30
0.0000000000
10
6.3244118261
20
-9.7306920220
30
0.0000000000
10
6.3237649562
20
-9.7309260625
30
0.0000000000
10
6.3231180942
20
-9.7311601250
30
0.0000000000
11
6.3250587039
21
-9.7304580034
31
0.0000000000
11
6.3231180942
21
-9.7311601250
31
0.0000000000
0
SPLINE
5
392
100
AcDbEntity
8
0
100
AcDbSpline
62
9
6
CONTINUOUS
70
0
71
3
72
10
73
6
74
4
42
0.0000001000
43
0.0000001000
44
0.0000000001
12
0.1015178349
22
-0.0918997268
32
0.0000000000
13
0.0986181861
23
-0.0950046523
33
0.0000000000
40
0.0000000000
40
0.0000000000
40
0.0000000000
40
0.0000000000
40
0.3369604192
40
0.6702419771
40
1.0000000000
40
1.0000000000
40
1.0000000000
40
1.0000000000
10
4.9468841242
20
-10.6156709653
30
0.0000000000
10
4.9582866216
20
-10.6259931554
30
0.0000000000
10
4.9808598834
20
-10.6466436823
30
0.0000000000
10
5.0142167018
20
-10.6778026581
30
0.0000000000
10
5.0361201068
20
-10.6986887079
30
0.0000000000
10
5.0469601528
20
-10.7091315566
30
0.0000000000
11
4.9468841242
21
-10.6156709653
31
0.0000000000
11
4.9809291595
21
-10.6468160544
31
0.0000000000
11
5.0142802955
21
-10.6779696550
31
0.0000000000
11
5.0469601528
21
-10.7091315566
31
0.0000000000
0
SPLINE
5
393
100
AcDbEntity
8
0
100
AcDbSpline
62
9
6
CONTINUOUS
70
0
71
3
72
10
73
6
74
4
42
0.0000001000
43
0.0000001000
44
0.0000000001
12
0.1015178353
22
0.0918997263
32
0.0000000000
13
0.0986181855
23
0.0950046529
33
0.0000000000
40
0.0000000000
40
0.0000000000
40
0.0000000000
40
0.0000000000
40
0.3369604207
40
0.6702419776
40
1.0000000000
40
1.0000000000
40
1.0000000000
40
1.0000000000
10
4.9468841242
20
-15.4793614007
30
0.0000000000
10
4.9582866217
20
-15.4690392105
30
0.0000000000
10
4.9808598835
20
-15.4483886836
30
0.0000000000
10
5.0142167018
20
-15.4172297077
30
0.0000000000
10
5.0361201069
20
-15.3963436582
30
0.0000000000
10
5.0469601528
20
-15.3859008093
30
0.0000000000
11
4.9468841242
21
-15.4793614007
31
0.0000000000
11
4.9809291597
21
-15.4482163114
31
0.0000000000
11
5.0142802955
21
-15.4170627110
31
0.0000000000
11
5.0469601528
21
-15.3859008093
31
0.0000000000
0
SPLINE
5
394
100
AcDbEntity
8
0
100
AcDbSpline
62
9
6
CONTINUOUS
70
0
71
3
72
10
73
6
74
4
42
0.0000001000
43
0.0000001000
44
0.0000000001
12
-0.1015178349
22
0.0918997268
32
0.0000000000
13
-0.0986181861
23
0.0950046523
33
0.0000000000
40
0.0000000000
40
0.0000000000
40
0.0000000000
40
0.0000000000
40
0.3369604192
40
0.6702419771
40
1.0000000000
40
1.0000000000
40
1.0000000000
40
1.0000000000
10
-5.0657378059
20
-15.4793614007
30
0.0000000000
10
-5.0771403033
20
-15.4690392105
30
0.0000000000
10
-5.0997135652
20
-15.4483886836
30
0.0000000000
10
-5.1330703835
20
-15.4172297078
30
0.0000000000
10
-5.1549737885
20
-15.3963436581
30
0.0000000000
10
-5.1658138346
20
-15.3859008093
30
0.0000000000
11
-5.0657378059
21
-15.4793614007
31
0.0000000000
11
-5.0997828413
21
-15.4482163116
31
0.0000000000
11
-5.1331339772
21
-15.4170627110
31
0.0000000000
11
-5.1658138346
21
-15.3859008093
31
0.0000000000
0
SPLINE
5
395
100
AcDbEntity
8
0
100
AcDbSpline
62
9
6
CONTINUOUS
70
0
71
3
72
10
73
6
74
4
42
0.0000001000
43
0.0000001000
44
0.0000000001
12
-0.1015178353
22
-0.0918997263
32
0.0000000000
13
-0.0986181855
23
-0.0950046529
33
0.0000000000
40
0.0000000000
40
0.0000000000
40
0.0000000000
40
0.0000000000
40
0.3369604207
40
0.6702419776
40
1.0000000000
40
1.0000000000
40
1.0000000000
40
1.0000000000
10
-5.0657378059
20
-10.6156709653
30
0.0000000000
10
-5.0771403034
20
-10.6259931554
30
0.0000000000
10
-5.0997135652
20
-10.6466436824
30
0.0000000000
10
-5.1330703835
20
-10.6778026582
30
0.0000000000
10
-5.1549737886
20
-10.6986887078
30
0.0000000000
10
-5.1658138346
20
-10.7091315566
30
0.0000000000
11
-5.0657378059
21
-10.6156709653
31
0.0000000000
11
-5.0997828414
21
-10.6468160546
31
0.0000000000
11
-5.1331339772
21
-10.6779696550
31
0.0000000000
11
-5.1658138346
21
-10.7091315566
31
0.0000000000
0
SPLINE
5
396
100
AcDbEntity
8
0
100
AcDbSpline
62
0
6
CONTINUOUS
70
0
71
3
72
12
73
8
74
6
42
0.0000001000
43
0.0000001000
44
0.0000000001
12
-0.2249711768
22
0.0000000072
32
0.0000000000
13
0.1443702801
23
0.1725376846
33
0.0000000000
40
0.0000000000
40
0.0000000000
40
0.0000000000
40
0.0000000000
40
0.1979326552
40
0.4014972617
40
0.6002837164
40
0.7995798612
40
1.0000000000
40
1.0000000000
40
1.0000000000
40
1.0000000000
10
5.0228966365
20
-15.6437537129
30
0.0000000000
10
5.0080535891
20
-15.6437537124
30
0.0000000000
10
4.9775143325
20
-15.6368644015
30
0.0000000000
10
4.9413213890
20
-15.6074590348
30
0.0000000000
10
4.9219204348
20
-15.5649730030
30
0.0000000000
10
4.9229962588
20
-15.5186154580
30
0.0000000000
10
4.9372392198
20
-15.4908880772
30
0.0000000000
10
4.9468841237
20
-15.4793614017
30
0.0000000000
11
5.0228966365
21
-15.6437537129
31
0.0000000000
11
4.9794815598
21
-15.6338554486
31
0.0000000000
11
4.9439218545
21
-15.6049972356
31
0.0000000000
11
4.9253162733
21
-15.5643300485
31
0.0000000000
11
4.9263563651
21
-15.5195062258
31
0.0000000000
11
4.9468841237
21
-15.4793614017
31
0.0000000000
0
SPLINE
5
397
100
AcDbEntity
8
0
100
AcDbSpline
62
0
6
CONTINUOUS
70
0
71
3
72
12
73
8
74
6
42
0.0000001000
43
0.0000001000
44
0.0000000001
12
-0.1443708331
22
0.1725383444
32
0.0000000000
13
0.2249720377
23
0.0000000062
33
0.0000000000
40
0.0000000000
40
0.0000000000
40
0.0000000000
40
0.0000000000
40
0.2013081136
40
0.4014154804
40
0.6006504725
40
0.7999541930
40
1.0000000000
40
1.0000000000
40
1.0000000000
40
1.0000000000
10
4.9468841238
20
-10.6156709645
30
0.0000000000
10
4.9371964504
20
-10.6040931749
30
0.0000000000
10
4.9229159835
20
-10.5762237250
30
0.0000000000
10
4.9219725491
20
-10.5296840620
30
0.0000000000
10
4.9414790853
20
-10.4874873395
30
0.0000000000
10
4.9775037119
20
-10.4582184915
30
0.0000000000
10
5.0078950656
20
-10.4512786535
30
0.0000000000
10
5.0228966365
20
-10.4512786531
30
0.0000000000
11
4.9468841238
21
-10.6156709645
31
0.0000000000
11
4.9263062047
21
-10.5753272502
31
0.0000000000
11
4.9253959887
21
-10.5303178908
31
0.0000000000
11
4.9442256754
21
-10.4896425707
31
0.0000000000
11
4.9790424726
21
-10.4613898589
31
0.0000000000
11
5.0228966365
21
-10.4512786531
31
0.0000000000
0
SPLINE
5
398
100
AcDbEntity
8
0
100
AcDbSpline
62
0
6
CONTINUOUS
70
0
71
3
72
12
73
8
74
6
42
0.0000001000
43
0.0000001000
44
0.0000000001
12
0.2249711768
22
-0.0000000072
32
0.0000000000
13
-0.1443702801
23
-0.1725376846
33
0.0000000000
40
0.0000000000
40
0.0000000000
40
0.0000000000
40
0.0000000000
40
0.1979326552
40
0.4014972617
40
0.6002837164
40
0.7995798612
40
1.0000000000
40
1.0000000000
40
1.0000000000
40
1.0000000000
10
-5.1417503183
20
-10.4512786531
30
0.0000000000
10
-5.1269072708
20
-10.4512786536
30
0.0000000000
10
-5.0963680143
20
-10.4581679645
30
0.0000000000
10
-5.0601750707
20
-10.4875733311
30
0.0000000000
10
-5.0407741165
20
-10.5300593630
30
0.0000000000
10
-5.0418499406
20
-10.5764169080
30
0.0000000000
10
-5.0560929016
20
-10.6041442887
30
0.0000000000
10
-5.0657378054
20
-10.6156709643
30
0.0000000000
11
-5.1417503183
21
-10.4512786531
31
0.0000000000
11
-5.0983352416
21
-10.4611769174
31
0.0000000000
11
-5.0627755363
21
-10.4900351304
31
0.0000000000
11
-5.0441699551
21
-10.5307023174
31
0.0000000000
11
-5.0452100468
21
-10.5755261401
31
0.0000000000
11
-5.0657378054
21
-10.6156709643
31
0.0000000000
0
SPLINE
5
399
100
AcDbEntity
8
0
100
AcDbSpline
62
0
6
CONTINUOUS
70
0
71
3
72
12
73
8
74
6
42
0.0000001000
43
0.0000001000
44
0.0000000001
12
0.1443708331
22
-0.1725383444
32
0.0000000000
13
-0.2249720377
23
-0.0000000062
33
0.0000000000
40
0.0000000000
40
0.0000000000
40
0.0000000000
40
0.0000000000
40
0.2013081136
40
0.4014154804
40
0.6006504725
40
0.7999541930
40
1.0000000000
40
1.0000000000
40
1.0000000000
40
1.0000000000
10
-5.0657378055
20
-15.4793614015
30
0.0000000000
10
-5.0560501322
20
-15.4909391910
30
0.0000000000
10
-5.0417696652
20
-15.5188086410
30
0.0000000000
10
-5.0408262309
20
-15.5653483040
30
0.0000000000
10
-5.0603327670
20
-15.6075450265
30
0.0000000000
10
-5.0963573937
20
-15.6368138745
30
0.0000000000
10
-5.1267487473
20
-15.6437537124
30
0.0000000000
10
-5.1417503183
20
-15.6437537129
30
0.0000000000
11
-5.0657378055
21
-15.4793614015
31
0.0000000000
11
-5.0451598864
21
-15.5197051157
31
0.0000000000
11
-5.0442496704
21
-15.5647144752
31
0.0000000000
11
-5.0630793572
21
-15.6053897953
31
0.0000000000
11
-5.0978961543
21
-15.6336425071
31
0.0000000000
11
-5.1417503183
21
-15.6437537129
31
0.0000000000
0
SPLINE
5
39A
100
AcDbEntity
8
0
100
AcDbSpline
62
0
6
CONTINUOUS
70
0
71
3
72
10
73
6
74
4
42
0.0000001000
43
0.0000001000
44
0.0000000001
12
0.0526724926
22
0.0521012756
32
0.0000000000
13
0.0518876604
23
0.0528829376
33
0.0000000000
40
0.0000000000
40
0.0000000000
40
0.0000000000
40
0.0000000000
40
0.3339708515
40
0.6672979872
40
1.0000000000
40
1.0000000000
40
1.0000000000
40
1.0000000000
10
5.4551876671
20
-15.6437537129
30
0.0000000000
10
5.4610513595
20
-15.6379536104
30
0.0000000000
10
5.4727385174
20
-15.6263352992
30
0.0000000000
10
5.4901655624
20
-15.6088371779
30
0.0000000000
10
5.5017143357
20
-15.5971252680
30
0.0000000000
10
5.5074687120
20
-15.5912605147
30
0.0000000000
11
5.4551876671
21
-15.6437537129
31
0.0000000000
11
5.4727352321
21
-15.6263095259
31
0.0000000000
11
5.4901618925
21
-15.6088117996
31
0.0000000000
11
5.5074687120
21
-15.5912605147
31
0.0000000000
0
SPLINE
5
39B
100
AcDbEntity
8
0
100
AcDbSpline
62
0
6
CONTINUOUS
70
0
71
3
72
10
73
6
74
4
42
0.0000001000
43
0.0000001000
44
0.0000000001
12
0.0000000000
22
0.2078153976
32
0.0000000000
13
-0.1329817272
23
0.1596968995
33
0.0000000000
40
0.0000000000
40
0.0000000000
40
0.0000000000
40
0.0000000000
40
0.3337314459
40
0.6668040975
40
1.0000000000
40
1.0000000000
40
1.0000000000
40
1.0000000000
10
6.3231180942
20
-9.7311601250
30
0.0000000000
10
6.3231180942
20
-9.7080419472
30
0.0000000000
10
6.3177257671
20
-9.6616676219
30
0.0000000000
10
6.2939521549
20
-9.5960048032
30
0.0000000000
10
6.2684349999
20
-9.5569552028
30
0.0000000000
10
6.2536653444
20
-9.5392184186
30
0.0000000000
11
6.3231180942
21
-9.7311601250
31
0.0000000000
11
6.3151002661
21
-9.6622706069
31
0.0000000000
11
6.2915365938
21
-9.5971873293
31
0.0000000000
11
6.2536653444
21
-9.5392184186
31
0.0000000000
0
SPLINE
5
39C
100
AcDbEntity
8
0
100
AcDbSpline
62
9
6
CONTINUOUS
70
0
71
3
72
10
73
6
74
4
42
0.0000001000
43
0.0000001000
44
0.0000000001
12
-0.1038467556
22
0.0946356141
32
0.0000000000
13
-0.1008508744
23
0.0978220285
33
0.0000000000
40
0.0000000000
40
0.0000000000
40
0.0000000000
40
0.0000000000
40
0.3369805061
40
0.6702618819
40
1.0000000000
40
1.0000000000
40
1.0000000000
40
1.0000000000
10
-5.1417503183
20
-15.6437537129
30
0.0000000000
10
-5.1534150957
20
-15.6331235938
30
0.0000000000
10
-5.1765057791
20
-15.6118580488
30
0.0000000000
10
-5.2106228554
20
-15.5797732455
30
0.0000000000
10
-5.2330225922
20
-15.5582680668
30
0.0000000000
10
-5.2441073847
20
-15.5475161830
30
0.0000000000
11
-5.1417503183
21
-15.6437537129
31
0.0000000000
11
-5.1765767702
21
-15.6116801036
31
0.0000000000
11
-5.2106880126
21
-15.5796008562
31
0.0000000000
11
-5.2441073847
21
-15.5475161830
31
0.0000000000
0
SPLINE
5
39D
100
AcDbEntity
8
0
100
AcDbSpline
62
9
6
CONTINUOUS
70
0
71
3
72
10
73
6
74
4
42
0.0000001000
43
0.0000001000
44
0.0000000001
12
0.1038467568
22
0.0946356128
32
0.0000000000
13
0.1008508732
23
0.0978220296
33
0.0000000000
40
0.0000000000
40
0.0000000000
40
0.0000000000
40
0.0000000000
40
0.3369805066
40
0.6702618829
40
1.0000000000
40
1.0000000000
40
1.0000000000
40
1.0000000000
10
5.0228966365
20
-15.6437537129
30
0.0000000000
10
5.0345614141
20
-15.6331235940
30
0.0000000000
10
5.0576520974
20
-15.6118580487
30
0.0000000000
10
5.0917691737
20
-15.5797732455
30
0.0000000000
10
5.1141689106
20
-15.5582680669
30
0.0000000000
10
5.1252537029
20
-15.5475161830
30
0.0000000000
11
5.0228966365
21
-15.6437537129
31
0.0000000000
11
5.0577230885
21
-15.6116801036
31
0.0000000000
11
5.0918343310
21
-15.5796008561
31
0.0000000000
11
5.1252537029
21
-15.5475161830
31
0.0000000000
0
SPLINE
5
39E
100
AcDbEntity
8
0
100
AcDbSpline
62
9
6
CONTINUOUS
70
0
71
3
72
10
73
6
74
4
42
0.0000001000
43
0.0000001000
44
0.0000000001
12
0.1038467556
22
-0.0946356141
32
0.0000000000
13
0.1008508744
23
-0.0978220285
33
0.0000000000
40
0.0000000000
40
0.0000000000
40
0.0000000000
40
0.0000000000
40
0.3369805061
40
0.6702618819
40
1.0000000000
40
1.0000000000
40
1.0000000000
40
1.0000000000
10
5.0228966365
20
-10.4512786531
30
0.0000000000
10
5.0345614139
20
-10.4619087722
30
0.0000000000
10
5.0576520974
20
-10.4831743172
30
0.0000000000
10
5.0917691736
20
-10.5152591204
30
0.0000000000
10
5.1141689104
20
-10.5367642991
30
0.0000000000
10
5.1252537029
20
-10.5475161830
30
0.0000000000
11
5.0228966365
21
-10.4512786531
31
0.0000000000
11
5.0577230885
21
-10.4833522624
31
0.0000000000
11
5.0918343309
21
-10.5154315098
31
0.0000000000
11
5.1252537029
21
-10.5475161830
31
0.0000000000
0
SPLINE
5
39F
100
AcDbEntity
8
0
100
AcDbSpline
62
0
6
CONTINUOUS
70
0
71
3
72
10
73
6
74
4
42
0.0000001000
43
0.0000001000
44
0.0000000001
12
0.0461075976
22
-0.0469920052
32
0.0000000000
13
0.0467278440
23
-0.0463753828
33
0.0000000000
40
0.0000000000
40
0.0000000000
40
0.0000000000
40
0.0000000000
40
0.3744096406
40
0.7495227685
40
1.0000000000
40
1.0000000000
40
1.0000000000
40
1.0000000000
10
-5.6263223938
20
-15.5912605147
30
0.0000000000
10
-5.6205680174
20
-15.5971252680
30
0.0000000000
10
-5.6090192442
20
-15.6088371779
30
0.0000000000
10
-5.5935334973
20
-15.6243860835
30
0.0000000000
10
-5.5838054241
20
-15.6340729732
30
0.0000000000
10
-5.5799040038
20
-15.6379449657
30
0.0000000000
11
-5.6263223938
21
-15.5912605147
31
0.0000000000
11
-5.6090155742
21
-15.6088117996
31
0.0000000000
11
-5.5915889138
21
-15.6263095259
31
0.0000000000
11
-5.5799040038
21
-15.6379449657
31
0.0000000000
0
SPLINE
5
3A0
100
AcDbEntity
8
0
100
AcDbSpline
62
0
6
CONTINUOUS
70
0
71
3
72
8
73
4
74
2
42
0.0000001000
43
0.0000001000
44
0.0000000001
12
0.0058578170
22
-0.0058136324
32
0.0000000000
13
0.0058674897
23
-0.0058038586
33
0.0000000000
40
0.0000000000
40
0.0000000000
40
0.0000000000
40
0.0000000000
40
1.0000000000
40
1.0000000000
40
1.0000000000
40
1.0000000000
10
-5.5799040038
20
-15.6379449657
30
0.0000000000
10
-5.5779513981
20
-15.6398828431
30
0.0000000000
10
-5.5759971787
20
-15.6418190933
30
0.0000000000
10
-5.5740413488
20
-15.6437537129
30
0.0000000000
11
-5.5799040038
21
-15.6379449657
31
0.0000000000
11
-5.5740413488
21
-15.6437537129
31
0.0000000000
0
SPLINE
5
3A1
100
AcDbEntity
8
0
100
AcDbSpline
62
9
6
CONTINUOUS
70
0
71
3
72
10
73
6
74
4
42
0.0000001000
43
0.0000001000
44
0.0000000001
12
-0.1038467568
22
-0.0946356128
32
0.0000000000
13
-0.1008508732
23
-0.0978220296
33
0.0000000000
40
0.0000000000
40
0.0000000000
40
0.0000000000
40
0.0000000000
40
0.3369805066
40
0.6702618829
40
1.0000000000
40
1.0000000000
40
1.0000000000
40
1.0000000000
10
-5.1417503183
20
-10.4512786531
30
0.0000000000
10
-5.1534150958
20
-10.4619087720
30
0.0000000000
10
-5.1765057792
20
-10.4831743173
30
0.0000000000
10
-5.2106228554
20
-10.5152591205
30
0.0000000000
10
-5.2330225923
20
-10.5367642990
30
0.0000000000
10
-5.2441073847
20
-10.5475161830
30
0.0000000000
11
-5.1417503183
21
-10.4512786531
31
0.0000000000
11
-5.1765767703
21
-10.4833522624
31
0.0000000000
11
-5.2106880127
21
-10.5154315098
31
0.0000000000
11
-5.2441073847
21
-10.5475161830
31
0.0000000000
0
SPLINE
5
3A2
100
AcDbEntity
8
0
100
AcDbSpline
62
0
6
CONTINUOUS
70
0
71
3
72
12
73
8
74
6
42
0.0000001000
43
0.0000001000
44
0.0000000001
12
0.4695527409
22
0.0000000000
32
0.0000000000
13
-0.0000000000
23
0.4695527409
33
0.0000000000
40
0.0000000000
40
0.0000000000
40
0.0000000000
40
0.0000000000
40
0.1993649636
40
0.3988522271
40
0.5987371844
40
0.7991447419
40
1.0000000000
40
1.0000000000
40
1.0000000000
40
1.0000000000
10
6.0235287885
20
-10.4512786531
30
0.0000000000
10
6.0547329102
20
-10.4512786531
30
0.0000000000
10
6.1176019427
20
-10.4413386424
30
0.0000000000
10
6.2023843382
20
-10.3980334261
30
0.0000000000
10
6.2698191880
20
-10.3304639709
30
0.0000000000
10
6.3131580260
20
-10.2452756871
30
0.0000000000
10
6.3231180942
20
-10.1820281471
30
0.0000000000
10
6.3231180942
20
-10.1505907682
30
0.0000000000
11
6.0235287885
21
-10.4512786531
31
0.0000000000
11
6.1159859571
21
-10.4366175865
31
0.0000000000
11
6.1994214655
21
-10.3940435832
31
0.0000000000
11
6.2657340947
21
-10.3276230792
31
0.0000000000
11
6.3083942339
21
-10.2437464825
31
0.0000000000
11
6.3231180942
21
-10.1505907682
31
0.0000000000
0
SPLINE
5
3A3
100
AcDbEntity
8
0
100
AcDbSpline
62
0
6
CONTINUOUS
70
0
71
3
72
8
73
4
74
2
42
0.0000001000
43
0.0000001000
44
0.0000000001
12
-0.1036908775
22
0.0000000000
32
0.0000000000
13
-0.0989601342
23
0.0358390060
33
0.0000000000
40
0.0000000000
40
0.0000000000
40
0.0000000000
40
0.0000000000
40
1.0000000000
40
1.0000000000
40
1.0000000000
40
1.0000000000
10
4.8523658542
20
18.4524838170
30
0.0000000000
10
4.8178022283
20
18.4524838170
30
0.0000000000
10
4.7827953897
20
18.4587538414
30
0.0000000000
10
4.7498086783
20
18.4707001767
30
0.0000000000
11
4.8523658542
21
18.4524838170
31
0.0000000000
11
4.7498086783
21
18.4707001767
31
0.0000000000
0
SPLINE
5
3A4
100
AcDbEntity
8
0
100
AcDbSpline
62
0
6
CONTINUOUS
70
0
71
3
72
10
73
6
74
4
42
0.0000001000
43
0.0000001000
44
0.0000000001
12
-0.2959737669
22
0.1071886744
32
0.0000000000
13
-0.0551330049
23
0.3085461996
33
0.0000000000
40
0.0000000000
40
0.0000000000
40
0.0000000000
40
0.0000000000
40
0.1663697627
40
0.6671021916
40
1.0000000000
40
1.0000000000
40
1.0000000000
40
1.0000000000
10
4.7498086783
20
18.4707001767
30
0.0000000000
10
4.7333949832
20
18.4766444948
30
0.0000000000
10
4.6695856072
20
18.5061150846
30
0.0000000000
10
4.5933029995
20
18.5824015108
30
0.0000000000
10
4.5631595282
20
18.6661703411
30
0.0000000000
10
4.5570416427
20
18.7004084590
30
0.0000000000
11
4.7498086783
21
18.4707001767
31
0.0000000000
11
4.7023715657
21
18.4926761959
31
0.0000000000
11
4.5925681257
21
18.6024838170
31
0.0000000000
11
4.5570416427
21
18.7004084590
31
0.0000000000
0
SPLINE
5
3A5
100
AcDbEntity
8
0
100
AcDbSpline
62
0
6
CONTINUOUS
70
0
71
3
72
8
73
4
74
2
42
0.0000001000
43
0.0000001000
44
0.0000000001
12
-0.0092536821
22
0.0517872817
32
0.0000000000
13
0.0000000000
23
0.0520518786
33
0.0000000000
40
0.0000000000
40
0.0000000000
40
0.0000000000
40
0.0000000000
40
1.0000000000
40
1.0000000000
40
1.0000000000
40
1.0000000000
10
4.5570416427
20
18.7004084590
30
0.0000000000
10
4.5539570820
20
18.7176708863
30
0.0000000000
10
4.5523772772
20
18.7351331908
30
0.0000000000
10
4.5523772772
20
18.7524838170
30
0.0000000000
11
4.5570416427
21
18.7004084590
31
0.0000000000
11
4.5523772772
21
18.7524838170
31
0.0000000000
0
SPLINE
5
3A6
100
AcDbEntity
8
0
100
AcDbSpline
62
0
6
CONTINUOUS
70
0
71
3
72
12
73
8
74
6
42
0.0000001000
43
0.0000001000
44
0.0000000001
12
0.4787328492
22
-0.0602623698
32
0.0000000000
13
0.0000000000
23
-0.4825109278
33
0.0000000000
40
0.0000000000
40
0.0000000000
40
0.0000000000
40
0.0000000000
40
0.2976578501
40
0.4627467792
40
0.6312983859
40
0.8298443225
40
1.0000000000
40
1.0000000000
40
1.0000000000
40
1.0000000000
10
-4.0631388228
20
3.1368078170
30
0.0000000000
10
-4.0156392926
20
3.1308286279
30
0.0000000000
10
-3.9406527180
20
3.1278644970
30
0.0000000000
10
-3.8446674522
20
3.0862838690
30
0.0000000000
10
-3.7900069894
20
3.0170303118
30
0.0000000000
10
-3.7606204743
20
2.9342683000
30
0.0000000000
10
-3.7576516977
20
2.8745686409
30
0.0000000000
10
-3.7576516977
20
2.8472013163
30
0.0000000000
11
-4.0631388228
21
3.1368078170
31
0.0000000000
11
-3.9210854946
21
3.1156308167
31
0.0000000000
11
-3.8492239974
21
3.0812622745
31
0.0000000000
11
-3.7968032917
21
3.0190826000
31
0.0000000000
11
-3.7640548155
21
2.9290532203
31
0.0000000000
11
-3.7576516977
21
2.8472013163
31
0.0000000000
0
SPLINE
5
3A7
100
AcDbEntity
8
0
100
AcDbSpline
62
0
6
CONTINUOUS
70
0
71
3
72
12
73
8
74
6
42
0.0000001000
43
0.0000001000
44
0.0000000001
12
0.0000000000
22
-0.4825109161
32
0.0000000000
13
-0.4787328387
23
-0.0602623616
33
0.0000000000
40
0.0000000000
40
0.0000000000
40
0.0000000000
40
0.0000000000
40
0.1701556816
40
0.3687016231
40
0.5372532339
40
0.7023421670
40
1.0000000000
40
1.0000000000
40
1.0000000000
40
1.0000000000
10
-3.7576516977
20
2.8472013163
30
0.0000000000
10
-3.7576516977
20
2.8198339917
30
0.0000000000
10
-3.7606204743
20
2.7601343325
30
0.0000000000
10
-3.7900069894
20
2.6773723207
30
0.0000000000
10
-3.8446674522
20
2.6081187635
30
0.0000000000
10
-3.9406527143
20
2.5665381372
30
0.0000000000
10
-4.0156392847
20
2.5635740050
30
0.0000000000
10
-4.0631388112
20
2.5575948170
30
0.0000000000
11
-3.7576516977
21
2.8472013163
31
0.0000000000
11
-3.7640548155
21
2.7653494123
31
0.0000000000
11
-3.7968032917
21
2.6753200325
31
0.0000000000
11
-3.8492239974
21
2.6131403581
31
0.0000000000
11
-3.9210854946
21
2.5787718159
31
0.0000000000
11
-4.0631388112
21
2.5575948170
31
0.0000000000
0
SPLINE
5
3A8
100
AcDbEntity
8
0
100
AcDbSpline
62
0
6
CONTINUOUS
70
0
71
3
72
9
73
5
74
3
42
0.0000001000
43
0.0000001000
44
0.0000000001
12
0.4209784888
22
0.0156020152
32
0.0000000000
13
0.4066504174
23
0.1143363319
33
0.0000000000
40
0.0000000000
40
0.0000000000
40
0.0000000000
40
0.0000000000
40
0.5364059302
40
1.0000000000
40
1.0000000000
40
1.0000000000
40
1.0000000000
10
-4.1326802383
20
2.2169188170
30
0.0000000000
10
-4.0574084524
20
2.2197084882
30
0.0000000000
10
-3.9167664981
20
2.2219627719
30
0.0000000000
10
-3.7777936504
20
2.2463331777
30
0.0000000000
10
-3.7149534097
20
2.2640017261
30
0.0000000000
11
-4.1326802383
21
2.2169188170
31
0.0000000000
11
-3.9070063500
21
2.2284904115
31
0.0000000000
11
-3.7149534097
21
2.2640017261
31
0.0000000000
0
SPLINE
5
3A9
100
AcDbEntity
8
0
100
AcDbSpline
62
0
6
CONTINUOUS
70
0
71
3
72
13
73
9
74
7
42
0.0000001000
43
0.0000001000
44
0.0000000001
12
0.7576052006
22
0.2130129369
32
0.0000000000
13
-0.0000000000
23
0.7848373072
33
0.0000000000
40
0.0000000000
40
0.0000000000
40
0.0000000000
40
0.0000000000
40
0.0095329708
40
0.2449937702
40
0.4685004684
40
0.7075201497
40
0.8448665473
40
1.0000000000
40
1.0000000000
40
1.0000000000
40
1.0000000000
10
-3.7149534097
20
2.2640017261
30
0.0000000000
10
-3.7125460003
20
2.2646786082
30
0.0000000000
10
-3.6507363314
20
2.2823145089
30
0.0000000000
10
-3.5355664993
20
2.3279633683
30
0.0000000000
10
-3.3928936392
20
2.4487912097
30
0.0000000000
10
-3.3217144567
20
2.5934149015
30
0.0000000000
10
-3.2935453802
20
2.7299143340
30
0.0000000000
10
-3.2891440512
20
2.8066164759
30
0.0000000000
10
-3.2891440512
20
2.8472013163
30
0.0000000000
11
-3.7149534097
21
2.2640017261
31
0.0000000000
11
-3.7077382369
21
2.2660605126
31
0.0000000000
11
-3.5376313111
21
2.3382691668
31
0.0000000000
11
-3.4053259244
21
2.4534481420
31
0.0000000000
11
-3.3196167205
21
2.6203149359
31
0.0000000000
11
-3.2969357970
21
2.7256963693
31
0.0000000000
11
-3.2891440512
21
2.8472013163
31
0.0000000000
0
SPLINE
5
3AA
100
AcDbEntity
8
0
100
AcDbSpline
62
0
6
CONTINUOUS
70
0
71
3
72
13
73
9
74
7
42
0.0000001000
43
0.0000001000
44
0.0000000001
12
0.0000000000
22
0.7821143173
32
0.0000000000
13
-0.7544422258
23
0.2144119618
33
0.0000000000
40
0.0000000000
40
0.0000000000
40
0.0000000000
40
0.0000000000
40
0.1556735615
40
0.2934981409
40
0.5333499873
40
0.7576348408
40
0.9939154148
40
1.0000000000
40
1.0000000000
40
1.0000000000
40
1.0000000000
10
-3.2891440512
20
2.8472013163
30
0.0000000000
10
-3.2891440512
20
2.8877861567
30
0.0000000000
10
-3.2935453802
20
2.9644882986
30
0.0000000000
10
-3.3217144567
20
3.1009877310
30
0.0000000000
10
-3.3928936392
20
3.2456114229
30
0.0000000000
10
-3.5355664993
20
3.3664392642
30
0.0000000000
10
-3.6498834373
20
3.4117500695
30
0.0000000000
10
-3.7107956742
20
3.4292232699
30
0.0000000000
10
-3.7123258302
20
3.4296581391
30
0.0000000000
11
-3.2891440512
21
2.8472013163
31
0.0000000000
11
-3.2969357970
21
2.9687062633
31
0.0000000000
11
-3.3196167205
21
3.0740876967
31
0.0000000000
11
-3.4053259244
21
3.2409544906
31
0.0000000000
11
-3.5376313111
21
3.3561334657
31
0.0000000000
11
-3.7077382369
21
3.4283421200
31
0.0000000000
11
-3.7123258302
21
3.4296581391
31
0.0000000000
0
SPLINE
5
3AB
100
AcDbEntity
8
0
100
AcDbSpline
62
0
6
CONTINUOUS
70
0
71
3
72
9
73
5
74
3
42
0.0000001000
43
0.0000001000
44
0.0000000001
12
-0.4089892252
22
0.1162344566
32
0.0000000000
13
-0.4236996501
23
0.0157028682
33
0.0000000000
40
0.0000000000
40
0.0000000000
40
0.0000000000
40
0.0000000000
40
0.4670389809
40
1.0000000000
40
1.0000000000
40
1.0000000000
40
1.0000000000
10
-3.7123258302
20
3.4296581391
30
0.0000000000
10
-3.7759971339
20
3.4477534799
30
0.0000000000
10
-3.9158574293
20
3.4724252917
30
0.0000000000
10
-4.0574084788
20
3.4746941448
30
0.0000000000
10
-4.1326802779
20
3.4774838170
30
0.0000000000
11
-3.7123258302
21
3.4296581391
31
0.0000000000
11
-3.9070063500
21
3.4659122210
31
0.0000000000
11
-4.1326802779
21
3.4774838170
31
0.0000000000
0
SPLINE
5
3AC
100
AcDbEntity
8
0
100
AcDbSpline
62
0
6
CONTINUOUS
70
0
71
3
72
10
73
6
74
4
42
0.0000001000
43
0.0000001000
44
0.0000000001
12
0.6572184261
22
-0.0000710653
32
0.0000000000
13
0.6572168963
23
0.0014197975
33
0.0000000000
40
0.0000000000
40
0.0000000000
40
0.0000000000
40
0.0000000000
40
0.3234627465
40
0.6564718232
40
1.0000000000
40
1.0000000000
40
1.0000000000
40
1.0000000000
10
-4.2141889917
20
-20.3005491828
30
0.0000000000
10
-4.1433270993
20
-20.3005568451
30
0.0000000000
10
-3.9995119669
20
-20.3004753370
30
0.0000000000
10
-3.7804393170
20
-20.3002022858
30
0.0000000000
10
-3.6322286643
20
-20.2999160638
30
0.0000000000
10
-3.5569711569
20
-20.2997534837
30
0.0000000000
11
-4.2141889917
21
-20.3005491828
31
0.0000000000
11
-4.0016033351
21
-20.3004527922
31
0.0000000000
11
-3.7827438020
21
-20.3001805678
31
0.0000000000
11
-3.5569711569
21
-20.2997534837
31
0.0000000000
0
SPLINE
5
3AD
100
AcDbEntity
8
0
100
AcDbSpline
62
0
6
CONTINUOUS
70
0
71
3
72
10
73
6
74
4
42
0.0000001000
43
0.0000001000
44
0.0000000001
12
0.6572167788
22
-0.0014731729
32
0.0000000000
13
0.6572184297
23
-0.0000114517
33
0.0000000000
40
0.0000000000
40
0.0000000000
40
0.0000000000
40
0.0000000000
40
0.3434593032
40
0.6764548787
40
1.0000000000
40
1.0000000000
40
1.0000000000
40
1.0000000000
10
3.4381174752
20
-20.2997534837
30
0.0000000000
10
3.5133598808
20
-20.2999221420
30
0.0000000000
10
3.6615525062
20
-20.3001986268
30
0.0000000000
10
3.8806251497
20
-20.3004798372
30
0.0000000000
10
4.0244553711
20
-20.3005479477
30
0.0000000000
10
4.0953353100
20
-20.3005491828
30
0.0000000000
11
3.4381174752
21
-20.2997534837
31
0.0000000000
11
3.6638448549
21
-20.3001806666
31
0.0000000000
11
3.8826955153
21
-20.3004525213
31
0.0000000000
11
4.0953353100
21
-20.3005491828
31
0.0000000000
0
SPLINE
5
3AE
100
AcDbEntity
8
0
100
AcDbSpline
62
0
6
CONTINUOUS
70
0
71
3
72
10
73
6
74
4
42
0.0000001000
43
0.0000001000
44
0.0000000001
12
0.0000000000
22
-0.4534904438
32
0.0000000000
13
-0.4544181187
23
-0.0195249843
33
0.0000000000
40
0.0000000000
40
0.0000000000
40
0.0000000000
40
0.0000000000
40
0.3424350681
40
0.6848644901
40
1.0000000000
40
1.0000000000
40
1.0000000000
40
1.0000000000
10
-4.6712309590
20
18.7524838170
30
0.0000000000
10
-4.6712309590
20
18.7007201400
30
0.0000000000
10
-4.6993531890
20
18.5952056441
30
0.0000000000
10
-4.8109007750
20
18.4836524742
30
0.0000000000
10
-4.9110953885
20
18.4548017284
30
0.0000000000
10
-4.9588298170
20
18.4527507231
30
0.0000000000
11
-4.6712309590
21
18.7524838170
31
0.0000000000
11
-4.7114218074
21
18.6024838170
31
0.0000000000
11
-4.8212252474
21
18.4926761959
31
0.0000000000
11
-4.9588298170
21
18.4527507231
31
0.0000000000
0
SPLINE
5
3AF
100
AcDbEntity
8
0
100
AcDbSpline
62
0
6
CONTINUOUS
70
0
71
3
72
8
73
4
74
2
42
0.0000001000
43
0.0000001000
44
0.0000000001
12
-0.0124002826
22
-0.0005328030
32
0.0000000000
13
-0.0123749679
23
0.0000000000
33
0.0000000000
40
0.0000000000
40
0.0000000000
40
0.0000000000
40
0.0000000000
40
1.0000000000
40
1.0000000000
40
1.0000000000
40
1.0000000000
10
-4.9588298170
20
18.4527507231
30
0.0000000000
10
-4.9629632445
20
18.4525731221
30
0.0000000000
10
-4.9670945466
20
18.4524838170
30
0.0000000000
10
-4.9712195359
20
18.4524838170
30
0.0000000000
11
-4.9588298170
21
18.4527507231
31
0.0000000000
11
-4.9712195359
21
18.4524838170
31
0.0000000000
0
SPLINE
5
3B0
100
AcDbEntity
8
0
100
AcDbSpline
62
0
6
CONTINUOUS
70
0
71
3
72
10
73
6
74
4
42
0.0000001000
43
0.0000001000
44
0.0000000001
12
-0.4138135331
22
0.0000000000
32
0.0000000000
13
-0.0735669682
23
0.4117099822
33
0.0000000000
40
0.0000000000
40
0.0000000000
40
0.0000000000
40
0.0000000000
40
0.3752557559
40
0.7505176991
40
1.0000000000
40
1.0000000000
40
1.0000000000
40
1.0000000000
10
-5.1476341458
20
18.4524838170
30
0.0000000000
10
-5.1993961159
20
18.4524838170
30
0.0000000000
10
-5.3049089665
20
18.4806083816
30
0.0000000000
10
-5.4066970005
20
18.5824015108
30
0.0000000000
10
-5.4368404718
20
18.6661703411
30
0.0000000000
10
-5.4429583573
20
18.7004084590
30
0.0000000000
11
-5.1476341458
21
18.4524838170
31
0.0000000000
11
-5.2976284343
21
18.4926761959
31
0.0000000000
11
-5.4074318743
21
18.6024838170
31
0.0000000000
11
-5.4429583573
21
18.7004084590
31
0.0000000000
0
SPLINE
5
3B1
100
AcDbEntity
8
0
100
AcDbSpline
62
0
6
CONTINUOUS
70
0
71
3
72
8
73
4
74
2
42
0.0000001000
43
0.0000001000
44
0.0000000001
12
-0.0092536821
22
0.0517872817
32
0.0000000000
13
0.0000000000
23
0.0520518786
33
0.0000000000
40
0.0000000000
40
0.0000000000
40
0.0000000000
40
0.0000000000
40
1.0000000000
40
1.0000000000
40
1.0000000000
40
1.0000000000
10
-5.4429583573
20
18.7004084590
30
0.0000000000
10
-5.4460429180
20
18.7176708863
30
0.0000000000
10
-5.4476227228
20
18.7351331908
30
0.0000000000
10
-5.4476227228
20
18.7524838170
30
0.0000000000
11
-5.4429583573
21
18.7004084590
31
0.0000000000
11
-5.4476227228
21
18.7524838170
31
0.0000000000
0
SPLINE
5
3B2
100
AcDbEntity
8
0
100
AcDbSpline
62
0
6
CONTINUOUS
70
0
71
3
72
10
73
6
74
4
42
0.0000001000
43
0.0000001000
44
0.0000000001
12
0.0000000000
22
-0.4534904438
32
0.0000000000
13
-0.4544181187
23
-0.0195249843
33
0.0000000000
40
0.0000000000
40
0.0000000000
40
0.0000000000
40
0.0000000000
40
0.3424350681
40
0.6848644901
40
1.0000000000
40
1.0000000000
40
1.0000000000
40
1.0000000000
10
5.3287690410
20
18.7524838170
30
0.0000000000
10
5.3287690410
20
18.7007201400
30
0.0000000000
10
5.3006468110
20
18.5952056441
30
0.0000000000
10
5.1890992250
20
18.4836524742
30
0.0000000000
10
5.0889046115
20
18.4548017284
30
0.0000000000
10
5.0411701830
20
18.4527507231
30
0.0000000000
11
5.3287690410
21
18.7524838170
31
0.0000000000
11
5.2885781926
21
18.6024838170
31
0.0000000000
11
5.1787747526
21
18.4926761959
31
0.0000000000
11
5.0411701830
21
18.4527507231
31
0.0000000000
0
SPLINE
5
3B3
100
AcDbEntity
8
0
100
AcDbSpline
62
0
6
CONTINUOUS
70
0
71
3
72
8
73
4
74
2
42
0.0000001000
43
0.0000001000
44
0.0000000001
12
-0.0124002826
22
-0.0005328030
32
0.0000000000
13
-0.0123749679
23
0.0000000000
33
0.0000000000
40
0.0000000000
40
0.0000000000
40
0.0000000000
40
0.0000000000
40
1.0000000000
40
1.0000000000
40
1.0000000000
40
1.0000000000
10
5.0411701830
20
18.4527507231
30
0.0000000000
10
5.0370367555
20
18.4525731221
30
0.0000000000
10
5.0329054534
20
18.4524838170
30
0.0000000000
10
5.0287804641
20
18.4524838170
30
0.0000000000
11
5.0411701830
21
18.4527507231
31
0.0000000000
11
5.0287804641
21
18.4524838170
31
0.0000000000
0
SPLINE
5
3B4
100
AcDbEntity
8
0
100
AcDbSpline
62
0
6
CONTINUOUS
70
0
71
3
72
8
73
4
74
2
42
0.0000001000
43
0.0000001000
44
0.0000000001
12
-0.0840031577
22
0.1126701675
32
0.0000000000
13
-0.0803916939
23
0.1152859822
33
0.0000000000
40
0.0000000000
40
0.0000000000
40
0.0000000000
40
0.0000000000
40
1.0000000000
40
1.0000000000
40
1.0000000000
40
1.0000000000
10
-5.7075649623
20
-15.7381247133
30
0.0000000000
10
-5.7355660148
20
-15.7005679908
30
0.0000000000
10
-5.7629713490
20
-15.6625634012
30
0.0000000000
10
-5.7897685803
20
-15.6241347404
30
0.0000000000
11
-5.7075649623
21
-15.7381247133
31
0.0000000000
11
-5.7897685803
21
-15.6241347404
31
0.0000000000
0
SPLINE
5
3B5
100
AcDbEntity
8
0
100
AcDbSpline
62
0
6
CONTINUOUS
70
0
71
3
72
8
73
4
74
2
42
0.0000001000
43
0.0000001000
44
0.0000000001
12
-0.0403056633
22
0.0578004736
32
0.0000000000
13
-0.0393822227
23
0.0584322142
33
0.0000000000
40
0.0000000000
40
0.0000000000
40
0.0000000000
40
0.0000000000
40
1.0000000000
40
1.0000000000
40
1.0000000000
40
1.0000000000
10
-5.7897685803
20
-15.6241347404
30
0.0000000000
10
-5.8032038014
20
-15.6048679159
30
0.0000000000
10
-5.8164861649
20
-15.5854944935
30
0.0000000000
10
-5.8296135725
20
-15.5660170888
30
0.0000000000
11
-5.7897685803
21
-15.6241347404
31
0.0000000000
11
-5.8296135725
21
-15.5660170888
31
0.0000000000
0
SPLINE
5
3B6
100
AcDbEntity
8
0
100
AcDbSpline
62
9
6
CONTINUOUS
70
0
71
3
72
10
73
6
74
4
42
0.0000001000
43
0.0000001000
44
0.0000000001
12
-0.0240337377
22
0.0349513183
32
0.0000000000
13
-0.0241225694
23
0.0348900680
33
0.0000000000
40
0.0000000000
40
0.0000000000
40
0.0000000000
40
0.0000000000
40
0.3328018275
40
0.6661345320
40
1.0000000000
40
1.0000000000
40
1.0000000000
40
1.0000000000
10
6.4760680342
20
-15.0475161830
30
0.0000000000
10
6.4734018769
20
-15.0436388955
30
0.0000000000
10
6.4680620421
20
-15.0358803815
30
0.0000000000
10
6.4600360448
20
-15.0242400975
30
0.0000000000
10
6.4546745132
20
-15.0164782765
30
0.0000000000
10
6.4519899489
20
-15.0125954135
30
0.0000000000
11
6.4760680342
21
-15.0475161830
31
0.0000000000
11
6.4680646605
21
-15.0358876926
31
0.0000000000
11
6.4600386732
21
-15.0242474360
31
0.0000000000
11
6.4519899489
21
-15.0125954135
31
0.0000000000
0
SPLINE
5
3B7
100
AcDbEntity
8
0
100
AcDbSpline
62
9
6
CONTINUOUS
70
0
71
3
72
10
73
6
74
4
42
0.0000001000
43
0.0000001000
44
0.0000000001
12
0.0240337377
22
0.0349513183
32
0.0000000000
13
0.0241225694
23
0.0348900680
33
0.0000000000
40
0.0000000000
40
0.0000000000
40
0.0000000000
40
0.0000000000
40
0.3328018275
40
0.6661345320
40
1.0000000000
40
1.0000000000
40
1.0000000000
40
1.0000000000
10
-6.5949217159
20
-15.0475161830
30
0.0000000000
10
-6.5922555586
20
-15.0436388955
30
0.0000000000
10
-6.5869157239
20
-15.0358803815
30
0.0000000000
10
-6.5788897266
20
-15.0242400975
30
0.0000000000
10
-6.5735281949
20
-15.0164782765
30
0.0000000000
10
-6.5708436306
20
-15.0125954135
30
0.0000000000
11
-6.5949217159
21
-15.0475161830
31
0.0000000000
11
-6.5869183423
21
-15.0358876926
31
0.0000000000
11
-6.5788923549
21
-15.0242474360
31
0.0000000000
11
-6.5708436306
21
-15.0125954135
31
0.0000000000
0
SPLINE
5
3B8
100
AcDbEntity
8
0
100
AcDbSpline
62
0
6
CONTINUOUS
70
0
71
3
72
9
73
5
74
3
42
0.0000001000
43
0.0000001000
44
0.0000000001
12
-0.2426407411
22
0.0089382039
32
0.0000000000
13
-0.2426364285
23
0.0090545155
33
0.0000000000
40
0.0000000000
40
0.0000000000
40
0.0000000000
40
0.0000000000
40
0.4976874903
40
1.0000000000
40
1.0000000000
40
1.0000000000
40
1.0000000000
10
-6.1311643381
20
-15.0215987485
30
0.0000000000
10
-6.1714174252
20
-15.0201159377
30
0.0000000000
10
-6.2522973957
20
-15.0171289919
30
0.0000000000
10
-6.3331762309
20
-15.0141114790
30
0.0000000000
10
-6.3738026687
20
-15.0125954135
30
0.0000000000
11
-6.1311643381
21
-15.0215987485
31
0.0000000000
11
-6.2519230431
21
-15.0171352353
31
0.0000000000
11
-6.3738026687
21
-15.0125954135
31
0.0000000000
0
SPLINE
5
3B9
100
AcDbEntity
8
0
100
AcDbSpline
62
9
6
CONTINUOUS
70
0
71
3
72
10
73
6
74
4
42
0.0000001000
43
0.0000001000
44
0.0000000001
12
0.0240337377
22
-0.0349513183
32
0.0000000000
13
0.0241225694
23
-0.0348900680
33
0.0000000000
40
0.0000000000
40
0.0000000000
40
0.0000000000
40
0.0000000000
40
0.3328018275
40
0.6661345320
40
1.0000000000
40
1.0000000000
40
1.0000000000
40
1.0000000000
10
-6.5949217159
20
-11.0475161830
30
0.0000000000
10
-6.5922555586
20
-11.0513934705
30
0.0000000000
10
-6.5869157239
20
-11.0591519845
30
0.0000000000
10
-6.5788897266
20
-11.0707922684
30
0.0000000000
10
-6.5735281949
20
-11.0785540895
30
0.0000000000
10
-6.5708436306
20
-11.0824369525
30
0.0000000000
11
-6.5949217159
21
-11.0475161830
31
0.0000000000
11
-6.5869183423
21
-11.0591446734
31
0.0000000000
11
-6.5788923549
21
-11.0707849300
31
0.0000000000
11
-6.5708436306
21
-11.0824369525
31
0.0000000000
0
SPLINE
5
3BA
100
AcDbEntity
8
0
100
AcDbSpline
62
9
6
CONTINUOUS
70
0
71
3
72
10
73
6
74
4
42
0.0000001000
43
0.0000001000
44
0.0000000001
12
-0.0240337377
22
-0.0349513183
32
0.0000000000
13
-0.0241225694
23
-0.0348900680
33
0.0000000000
40
0.0000000000
40
0.0000000000
40
0.0000000000
40
0.0000000000
40
0.3328018275
40
0.6661345320
40
1.0000000000
40
1.0000000000
40
1.0000000000
40
1.0000000000
10
6.4760680342
20
-11.0475161830
30
0.0000000000
10
6.4734018769
20
-11.0513934705
30
0.0000000000
10
6.4680620421
20
-11.0591519845
30
0.0000000000
10
6.4600360448
20
-11.0707922684
30
0.0000000000
10
6.4546745132
20
-11.0785540895
30
0.0000000000
10
6.4519899489
20
-11.0824369525
30
0.0000000000
11
6.4760680342
21
-11.0475161830
31
0.0000000000
11
6.4680646605
21
-11.0591446734
31
0.0000000000
11
6.4600386732
21
-11.0707849300
31
0.0000000000
11
6.4519899489
21
-11.0824369525
31
0.0000000000
0
SPLINE
5
3BB
100
AcDbEntity
8
0
100
AcDbSpline
62
0
6
CONTINUOUS
70
0
71
3
72
9
73
5
74
3
42
0.0000001000
43
0.0000001000
44
0.0000000001
12
0.2426407411
22
-0.0089382039
32
0.0000000000
13
0.2426364285
23
-0.0090545155
33
0.0000000000
40
0.0000000000
40
0.0000000000
40
0.0000000000
40
0.0000000000
40
0.4972886997
40
1.0000000000
40
1.0000000000
40
1.0000000000
40
1.0000000000
10
6.0123106563
20
-11.0734336175
30
0.0000000000
10
6.0525314892
20
-11.0749152401
30
0.0000000000
10
6.1334114598
20
-11.0779021821
30
0.0000000000
10
6.2142902954
20
-11.0809196834
30
0.0000000000
10
6.2549489869
20
-11.0824369525
30
0.0000000000
11
6.0123106563
21
-11.0734336175
31
0.0000000000
11
6.1329725994
21
-11.0778935423
31
0.0000000000
11
6.2549489869
21
-11.0824369525
31
0.0000000000
0
SPLINE
5
3BC
100
AcDbEntity
8
0
100
AcDbSpline
62
9
6
CONTINUOUS
70
0
71
3
72
10
73
6
74
4
42
0.0000001000
43
0.0000001000
44
0.0000000001
12
0.0234943415
22
0.0363732506
32
0.0000000000
13
0.0235772974
23
0.0363195332
33
0.0000000000
40
0.0000000000
40
0.0000000000
40
0.0000000000
40
0.0000000000
40
0.3327682483
40
0.6661008225
40
1.0000000000
40
1.0000000000
40
1.0000000000
40
1.0000000000
10
-6.8748768117
20
-14.8550093565
30
0.0000000000
10
-6.8722707548
20
-14.8509747356
30
0.0000000000
10
-6.8670511705
20
-14.8429006216
30
0.0000000000
10
-6.8592059482
20
-14.8307851121
30
0.0000000000
10
-6.8539652019
20
-14.8227052544
30
0.0000000000
10
-6.8513410551
20
-14.8186629003
30
0.0000000000
11
-6.8748768117
21
-14.8550093565
31
0.0000000000
11
-6.8670540640
21
-14.8429084512
31
0.0000000000
11
-6.8592088547
21
-14.8307929738
31
0.0000000000
11
-6.8513410551
21
-14.8186629003
31
0.0000000000
0
SPLINE
5
3BD
100
AcDbEntity
8
0
100
AcDbSpline
62
9
6
CONTINUOUS
70
0
71
3
72
10
73
6
74
4
42
0.0000001000
43
0.0000001000
44
0.0000000001
12
0.0234943415
22
-0.0363732506
32
0.0000000000
13
0.0235772974
23
-0.0363195332
33
0.0000000000
40
0.0000000000
40
0.0000000000
40
0.0000000000
40
0.0000000000
40
0.3327682483
40
0.6661008225
40
1.0000000000
40
1.0000000000
40
1.0000000000
40
1.0000000000
10
-6.8748768117
20
-11.2400230095
30
0.0000000000
10
-6.8722707548
20
-11.2440576304
30
0.0000000000
10
-6.8670511705
20
-11.2521317444
30
0.0000000000
10
-6.8592059482
20
-11.2642472539
30
0.0000000000
10
-6.8539652019
20
-11.2723271116
30
0.0000000000
10
-6.8513410551
20
-11.2763694657
30
0.0000000000
11
-6.8748768117
21
-11.2400230095
31
0.0000000000
11
-6.8670540640
21
-11.2521239148
31
0.0000000000
11
-6.8592088547
21
-11.2642393922
31
0.0000000000
11
-6.8513410551
21
-11.2763694657
31
0.0000000000
0
SPLINE
5
3BE
100
AcDbEntity
8
0
100
AcDbSpline
62
9
6
CONTINUOUS
70
0
71
3
72
10
73
6
74
4
42
0.0000001000
43
0.0000001000
44
0.0000000001
12
-0.0234943415
22
0.0363732506
32
0.0000000000
13
-0.0235772974
23
0.0363195332
33
0.0000000000
40
0.0000000000
40
0.0000000000
40
0.0000000000
40
0.0000000000
40
0.3327682483
40
0.6661008225
40
1.0000000000
40
1.0000000000
40
1.0000000000
40
1.0000000000
10
6.7560231300
20
-14.8550093565
30
0.0000000000
10
6.7534170730
20
-14.8509747356
30
0.0000000000
10
6.7481974888
20
-14.8429006216
30
0.0000000000
10
6.7403522664
20
-14.8307851121
30
0.0000000000
10
6.7351115201
20
-14.8227052544
30
0.0000000000
10
6.7324873734
20
-14.8186629003
30
0.0000000000
11
6.7560231300
21
-14.8550093565
31
0.0000000000
11
6.7482003822
21
-14.8429084512
31
0.0000000000
11
6.7403551730
21
-14.8307929738
31
0.0000000000
11
6.7324873734
21
-14.8186629003
31
0.0000000000
0
SPLINE
5
3BF
100
AcDbEntity
8
0
100
AcDbSpline
62
9
6
CONTINUOUS
70
0
71
3
72
10
73
6
74
4
42
0.0000001000
43
0.0000001000
44
0.0000000001
12
-0.0234943415
22
-0.0363732506
32
0.0000000000
13
-0.0235772974
23
-0.0363195332
33
0.0000000000
40
0.0000000000
40
0.0000000000
40
0.0000000000
40
0.0000000000
40
0.3327682483
40
0.6661008225
40
1.0000000000
40
1.0000000000
40
1.0000000000
40
1.0000000000
10
6.7560231300
20
-11.2400230095
30
0.0000000000
10
6.7534170730
20
-11.2440576304
30
0.0000000000
10
6.7481974888
20
-11.2521317444
30
0.0000000000
10
6.7403522664
20
-11.2642472539
30
0.0000000000
10
6.7351115201
20
-11.2723271116
30
0.0000000000
10
6.7324873734
20
-11.2763694657
30
0.0000000000
11
6.7560231300
21
-11.2400230095
31
0.0000000000
11
6.7482003822
21
-11.2521239148
31
0.0000000000
11
6.7403551730
21
-11.2642393922
31
0.0000000000
11
6.7324873734
21
-11.2763694657
31
0.0000000000
0
SPLINE
5
3C0
100
AcDbEntity
8
0
100
AcDbSpline
62
0
6
CONTINUOUS
70
0
71
3
72
11
73
7
74
5
42
0.0000001000
43
0.0000001000
44
0.0000000001
12
0.0000000000
22
-1.7300595342
32
0.0000000000
13
-1.3296995977
23
-1.1067994271
33
0.0000000000
40
0.0000000000
40
0.0000000000
40
0.0000000000
40
0.0000000000
40
0.2387798799
40
0.4856359857
40
0.7389652545
40
1.0000000000
40
1.0000000000
40
1.0000000000
40
1.0000000000
10
-9.9469912310
20
7.4524838170
30
0.0000000000
10
-9.9469912310
20
7.3147826811
30
0.0000000000
10
-9.9764471214
20
7.0338631618
30
0.0000000000
10
-10.1105643318
20
6.6259506573
30
0.0000000000
10
-10.3367338349
20
6.2456611042
30
0.0000000000
10
-10.5437275755
20
6.0289197706
30
0.0000000000
10
-10.6594268409
20
5.9326154017
30
0.0000000000
11
-9.9469912310
21
7.4524838170
31
0.0000000000
11
-9.9901443014
21
7.0416404915
31
0.0000000000
11
-10.1234757089
21
6.6359109756
31
0.0000000000
11
-10.3475839144
21
6.2592675904
31
0.0000000000
11
-10.6594268409
21
5.9326154017
31
0.0000000000
0
SPLINE
5
3C1
100
AcDbEntity
8
0
100
AcDbSpline
62
0
6
CONTINUOUS
70
0
71
3
72
11
73
7
74
5
42
0.0000001000
43
0.0000001000
44
0.0000000001
12
0.0000000000
22
1.7300595342
32
0.0000000000
13
-1.3296995977
23
1.1067994271
33
0.0000000000
40
0.0000000000
40
0.0000000000
40
0.0000000000
40
0.0000000000
40
0.2387798799
40
0.4856359857
40
0.7389652545
40
1.0000000000
40
1.0000000000
40
1.0000000000
40
1.0000000000
10
-9.9469912310
20
-7.5475161830
30
0.0000000000
10
-9.9469912310
20
-7.4098150470
30
0.0000000000
10
-9.9764471214
20
-7.1288955277
30
0.0000000000
10
-10.1105643318
20
-6.7209830233
30
0.0000000000
10
-10.3367338349
20
-6.3406934701
30
0.0000000000
10
-10.5437275755
20
-6.1239521365
30
0.0000000000
10
-10.6594268409
20
-6.0276477676
30
0.0000000000
11
-9.9469912310
21
-7.5475161830
31
0.0000000000
11
-9.9901443014
21
-7.1366728575
31
0.0000000000
11
-10.1234757089
21
-6.7309433416
31
0.0000000000
11
-10.3475839144
21
-6.3542999564
31
0.0000000000
11
-10.6594268409
21
-6.0276477676
31
0.0000000000
0
SPLINE
5
3C2
100
AcDbEntity
8
0
100
AcDbSpline
62
0
6
CONTINUOUS
70
0
71
3
72
11
73
7
74
5
42
0.0000001000
43
0.0000001000
44
0.0000000001
12
-1.3296995966
22
-1.1067994262
32
0.0000000000
13
0.0000000000
23
-1.7300595328
33
0.0000000000
40
0.0000000000
40
0.0000000000
40
0.0000000000
40
0.0000000000
40
0.2610356535
40
0.5143648559
40
0.7612206883
40
1.0000000000
40
1.0000000000
40
1.0000000000
40
1.0000000000
10
10.5405731591
20
-6.0276477676
30
0.0000000000
10
10.4248734914
20
-6.1239524714
30
0.0000000000
10
10.2178794825
20
-6.3406942597
30
0.0000000000
10
9.9917101075
20
-6.7209842668
30
0.0000000000
10
9.8575933171
20
-7.1288963475
30
0.0000000000
10
9.8281375493
20
-7.4098153748
30
0.0000000000
10
9.8281375493
20
-7.5475161830
30
0.0000000000
11
10.5405731591
21
-6.0276477676
31
0.0000000000
11
10.2287292787
21
-6.3543012170
31
0.0000000000
11
10.0046214221
21
-6.7309446759
31
0.0000000000
11
9.8712904142
21
-7.1366738248
31
0.0000000000
11
9.8281375493
21
-7.5475161830
31
0.0000000000
0
SPLINE
5
3C3
100
AcDbEntity
8
0
100
AcDbSpline
62
0
6
CONTINUOUS
70
0
71
3
72
11
73
7
74
5
42
0.0000001000
43
0.0000001000
44
0.0000000001
12
-1.3296995966
22
1.1067994262
32
0.0000000000
13
0.0000000000
23
1.7300595328
33
0.0000000000
40
0.0000000000
40
0.0000000000
40
0.0000000000
40
0.0000000000
40
0.2610356535
40
0.5143648559
40
0.7612206883
40
1.0000000000
40
1.0000000000
40
1.0000000000
40
1.0000000000
10
10.5405731591
20
5.9326154017
30
0.0000000000
10
10.4248734914
20
6.0289201055
30
0.0000000000
10
10.2178794825
20
6.2456618938
30
0.0000000000
10
9.9917101075
20
6.6259519008
30
0.0000000000
10
9.8575933171
20
7.0338639815
30
0.0000000000
10
9.8281375493
20
7.3147830089
30
0.0000000000
10
9.8281375493
20
7.4524838170
30
0.0000000000
11
10.5405731591
21
5.9326154017
31
0.0000000000
11
10.2287292787
21
6.2592688511
31
0.0000000000
11
10.0046214221
21
6.6359123099
31
0.0000000000
11
9.8712904142
21
7.0416414588
31
0.0000000000
11
9.8281375493
21
7.4524838170
31
0.0000000000
0
SPLINE
5
3C4
100
AcDbEntity
8
0
100
AcDbSpline
62
0
6
CONTINUOUS
70
0
71
3
72
10
73
6
74
4
42
0.0000001000
43
0.0000001000
44
0.0000000001
12
0.3105397744
22
0.0000000000
32
0.0000000000
13
0.0000000000
23
-0.3105397744
33
0.0000000000
40
0.0000000000
40
0.0000000000
40
0.0000000000
40
0.0000000000
40
0.3333495664
40
0.6666499237
40
1.0000000000
40
1.0000000000
40
1.0000000000
40
1.0000000000
10
9.6406036201
20
20.3024838170
30
0.0000000000
10
9.6751097198
20
20.3024838170
30
0.0000000000
10
9.7454431457
20
20.2837417685
30
0.0000000000
10
9.8218310642
20
20.2073539150
30
0.0000000000
10
9.8405731591
20
20.1370204305
30
0.0000000000
10
9.8405731591
20
20.1025142780
30
0.0000000000
11
9.6406036201
21
20.3024838170
31
0.0000000000
11
9.7405952646
21
20.2756937202
31
0.0000000000
11
9.8137829803
21
20.2025060644
31
0.0000000000
11
9.8405731591
21
20.1025142780
31
0.0000000000
0
SPLINE
5
3C5
100
AcDbEntity
8
0
100
AcDbSpline
62
0
6
CONTINUOUS
70
0
71
3
72
10
73
6
74
4
42
0.0000001000
43
0.0000001000
44
0.0000000001
12
-0.0935603079
22
0.1769965796
32
0.0000000000
13
-0.2002031978
23
-0.0000001616
33
0.0000000000
40
0.0000000000
40
0.0000000000
40
0.0000000000
40
0.0000000000
40
0.1404388933
40
0.5054282272
40
1.0000000000
40
1.0000000000
40
1.0000000000
40
1.0000000000
10
9.7418911157
20
19.6407417389
30
0.0000000000
10
9.7375112803
20
19.6490274735
30
0.0000000000
10
9.6929922822
20
19.6374248464
30
0.0000000000
10
9.6354876912
20
19.6508769188
30
0.0000000000
10
9.5749265268
20
19.6473435791
30
0.0000000000
10
9.5419215767
20
19.6473435525
30
0.0000000000
11
9.7418911157
21
19.6407417389
31
0.0000000000
11
9.7139642733
21
19.6440003697
31
0.0000000000
11
9.6409320435
21
19.6464118487
31
0.0000000000
11
9.5419215767
21
19.6473435525
31
0.0000000000
0
SPLINE
5
3C6
100
AcDbEntity
8
0
100
AcDbSpline
62
0
6
CONTINUOUS
70
0
71
3
72
10
73
6
74
4
42
0.0000001000
43
0.0000001000
44
0.0000000001
12
0.0935603073
22
0.1769965789
32
0.0000000000
13
0.2002031969
23
-0.0000001616
33
0.0000000000
40
0.0000000000
40
0.0000000000
40
0.0000000000
40
0.0000000000
40
0.1404419789
40
0.5054229655
40
1.0000000000
40
1.0000000000
40
1.0000000000
40
1.0000000000
10
-9.8607447975
20
19.6407417389
30
0.0000000000
10
-9.8563648659
20
19.6490276555
30
0.0000000000
10
-9.8118462533
20
19.6374249865
30
0.0000000000
10
-9.7543415210
20
19.6508769386
30
0.0000000000
10
-9.6937805596
20
19.6473435791
30
0.0000000000
10
-9.6607752584
20
19.6473435525
30
0.0000000000
11
-9.8607447975
21
19.6407417389
31
0.0000000000
11
-9.8328173374
21
19.6440004047
31
0.0000000000
11
-9.7597867780
21
19.6464118286
31
0.0000000000
11
-9.6607752584
21
19.6473435525
31
0.0000000000
0
SPLINE
5
3C7
100
AcDbEntity
8
0
100
AcDbSpline
62
0
6
CONTINUOUS
70
0
71
3
72
10
73
6
74
4
42
0.0000001000
43
0.0000001000
44
0.0000000001
12
0.0935594905
22
-0.1769971533
32
0.0000000000
13
0.2002033230
23
0.0000001408
33
0.0000000000
40
0.0000000000
40
0.0000000000
40
0.0000000000
40
0.0000000000
40
0.1404394153
40
0.5054285409
40
1.0000000000
40
1.0000000000
40
1.0000000000
40
1.0000000000
10
-9.8607447975
20
-19.7357741049
30
0.0000000000
10
-9.8563649841
20
-19.7440598971
30
0.0000000000
10
-9.8118461351
20
-19.7324597659
30
0.0000000000
10
-9.7543413228
20
-19.7459101231
30
0.0000000000
10
-9.6937802083
20
-19.7423759417
30
0.0000000000
10
-9.6607752584
20
-19.7423759185
30
0.0000000000
11
-9.8607447975
21
-19.7357741049
31
0.0000000000
11
-9.8328179692
21
-19.7390339099
31
0.0000000000
11
-9.7597857354
21
-19.7414453918
31
0.0000000000
11
-9.6607752584
21
-19.7423759185
31
0.0000000000
0
SPLINE
5
3C8
100
AcDbEntity
8
0
100
AcDbSpline
62
0
6
CONTINUOUS
70
0
71
3
72
10
73
6
74
4
42
0.0000001000
43
0.0000001000
44
0.0000000001
12
-0.3105397744
22
0.0000000000
32
0.0000000000
13
0.0000000000
23
0.3105397744
33
0.0000000000
40
0.0000000000
40
0.0000000000
40
0.0000000000
40
0.0000000000
40
0.3333495664
40
0.6666499237
40
1.0000000000
40
1.0000000000
40
1.0000000000
40
1.0000000000
10
-9.7594573018
20
-20.3975161830
30
0.0000000000
10
-9.7939634016
20
-20.3975161830
30
0.0000000000
10
-9.8642968275
20
-20.3787741344
30
0.0000000000
10
-9.9406847460
20
-20.3023862809
30
0.0000000000
10
-9.9594268409
20
-20.2320527964
30
0.0000000000
10
-9.9594268409
20
-20.1975466440
30
0.0000000000
11
-9.7594573018
21
-20.3975161830
31
0.0000000000
11
-9.8594489463
21
-20.3707260861
31
0.0000000000
11
-9.9326366621
21
-20.2975384304
31
0.0000000000
11
-9.9594268409
21
-20.1975466440
31
0.0000000000
0
SPLINE
5
3C9
100
AcDbEntity
8
0
100
AcDbSpline
62
9
6
CONTINUOUS
70
0
71
3
72
11
73
7
74
5
42
0.0000001000
43
0.0000001000
44
0.0000000001
12
0.0004230601
22
0.1053451506
32
0.0000000000
13
0.0335018566
23
0.0998556542
33
0.0000000000
40
0.0000000000
40
0.0000000000
40
0.0000000000
40
0.0000000000
40
0.1621836951
40
0.5904627325
40
0.8854382441
40
1.0000000000
40
1.0000000000
40
1.0000000000
40
1.0000000000
10
9.5424129806
20
20.1001887947
30
0.0000000000
10
9.5424358517
20
20.1058838833
30
0.0000000000
10
9.5424698846
20
20.1266296852
30
0.0000000000
10
9.5420450006
20
20.1578468603
30
0.0000000000
10
9.5442333443
20
20.1868790933
30
0.0000000000
10
9.5423572760
20
20.2017036038
30
0.0000000000
10
9.5436366199
20
20.2055168168
30
0.0000000000
11
9.5424129806
21
20.1001887947
31
0.0000000000
11
9.5424306035
21
20.1172858797
31
0.0000000000
11
9.5427651430
21
20.1623934753
31
0.0000000000
11
9.5431763682
21
20.1934592882
31
0.0000000000
11
9.5436366199
21
20.2055168168
31
0.0000000000
0
SPLINE
5
3CA
100
AcDbEntity
8
0
100
AcDbSpline
62
9
6
CONTINUOUS
70
0
71
3
72
10
73
6
74
4
42
0.0000001000
43
0.0000001000
44
0.0000000001
12
0.0306555023
22
-0.0923076610
32
0.0000000000
13
-0.0002348866
23
-0.0974073691
33
0.0000000000
40
0.0000000000
40
0.0000000000
40
0.0000000000
40
0.0000000000
40
0.2296861713
40
0.5403815529
40
1.0000000000
40
1.0000000000
40
1.0000000000
40
1.0000000000
10
-9.6624903039
20
20.2055168236
30
0.0000000000
10
-9.6601432555
20
20.1984495591
30
0.0000000000
10
-9.6630131833
20
20.1803259285
30
0.0000000000
10
-9.6609095524
20
20.1482467178
30
0.0000000000
10
-9.6611979969
20
20.1231869913
30
0.0000000000
10
-9.6612339830
20
20.1082635834
30
0.0000000000
11
-9.6624903039
21
20.2055168236
31
0.0000000000
11
-9.6618590892
21
20.1831853362
31
0.0000000000
11
-9.6615333715
21
20.1529673311
31
0.0000000000
11
-9.6612339830
21
20.1082635834
31
0.0000000000
0
SPLINE
5
3CB
100
AcDbEntity
8
0
100
AcDbSpline
62
9
6
CONTINUOUS
70
0
71
3
72
10
73
6
74
4
42
0.0000001000
43
0.0000001000
44
0.0000000001
12
-0.0003670927
22
-0.1522331633
32
0.0000000000
13
0.0001515735
23
-0.1520106918
33
0.0000000000
40
0.0000000000
40
0.0000000000
40
0.0000000000
40
0.0000000000
40
0.3837437299
40
0.8380393489
40
1.0000000000
40
1.0000000000
40
1.0000000000
40
1.0000000000
10
-9.6612339830
20
20.1082635834
30
0.0000000000
10
-9.6612809395
20
20.0887907428
30
0.0000000000
10
-9.6608773552
20
20.0463721332
30
0.0000000000
10
-9.6608480393
20
19.9956860989
30
0.0000000000
10
-9.6608151449
20
19.9644591026
30
0.0000000000
10
-9.6608069619
20
19.9562525190
30
0.0000000000
11
-9.6612339830
21
20.1082635834
31
0.0000000000
11
-9.6609908033
21
20.0499310017
31
0.0000000000
11
-9.6608314109
21
19.9808734669
31
0.0000000000
11
-9.6608069619
21
19.9562525190
31
0.0000000000
0
SPLINE
5
3CC
100
AcDbEntity
8
0
100
AcDbSpline
62
9
6
CONTINUOUS
70
0
71
3
72
8
73
4
74
2
42
0.0000001000
43
0.0000001000
44
0.0000000001
12
0.0000505337
22
-0.0506794574
32
0.0000000000
13
-0.0000001087
23
-0.0506794042
33
0.0000000000
40
0.0000000000
40
0.0000000000
40
0.0000000000
40
0.0000000000
40
1.0000000000
40
1.0000000000
40
1.0000000000
40
1.0000000000
10
-9.6608069619
20
19.9562525190
30
0.0000000000
10
-9.6607901173
20
19.9393593665
30
0.0000000000
10
-9.6607752309
20
19.9224674936
30
0.0000000000
10
-9.6607752672
20
19.9055743589
30
0.0000000000
11
-9.6608069619
21
19.9562525190
31
0.0000000000
11
-9.6607752672
21
19.9055743589
31
0.0000000000
0
SPLINE
5
3CD
100
AcDbEntity
8
0
100
AcDbSpline
62
9
6
CONTINUOUS
70
0
71
3
72
10
73
6
74
4
42
0.0000001000
43
0.0000001000
44
0.0000000001
12
0.1479178542
22
0.0203294481
32
0.0000000000
13
0.0115002895
23
0.1488647755
33
0.0000000000
40
0.0000000000
40
0.0000000000
40
0.0000000000
40
0.0000000000
40
0.1480408166
40
0.4897961865
40
1.0000000000
40
1.0000000000
40
1.0000000000
40
1.0000000000
10
3.4381174890
20
-20.2996718806
30
0.0000000000
10
3.4454167823
20
-20.2986686845
30
0.0000000000
10
3.4541968465
20
-20.2684787567
30
0.0000000000
10
3.4632674269
20
-20.2253485333
30
0.0000000000
10
3.4674925673
20
-20.1809764315
30
0.0000000000
10
3.4694483978
20
-20.1556593061
30
0.0000000000
11
3.4381174890
21
-20.2996718806
31
0.0000000000
11
3.4503280918
21
-20.2812470075
31
0.0000000000
11
3.4611758815
21
-20.2313864774
31
0.0000000000
11
3.4694483978
21
-20.1556593061
31
0.0000000000
0
SPLINE
5
3CE
100
AcDbEntity
8
0
100
AcDbSpline
62
9
6
CONTINUOUS
70
0
71
3
72
10
73
6
74
4
42
0.0000001000
43
0.0000001000
44
0.0000000001
12
-0.1479391652
22
0.0207409286
32
0.0000000000
13
-0.0115051794
23
0.1489423163
33
0.0000000000
40
0.0000000000
40
0.0000000000
40
0.0000000000
40
0.0000000000
40
0.1481484402
40
0.4899117364
40
1.0000000000
40
1.0000000000
40
1.0000000000
40
1.0000000000
10
-3.5569711569
20
-20.2997534837
30
0.0000000000
10
-3.5642768091
20
-20.2987292383
30
0.0000000000
10
-3.5730386044
20
-20.2685363483
30
0.0000000000
10
-3.5821249877
20
-20.2253636483
30
0.0000000000
10
-3.5863453621
20
-20.1809814025
30
0.0000000000
10
-3.5883015811
20
-20.1556568266
30
0.0000000000
11
-3.5569711569
21
-20.2997534837
31
0.0000000000
11
-3.5691817606
21
-20.2812955355
31
0.0000000000
11
-3.5800289568
21
-20.2314064939
31
0.0000000000
11
-3.5883015811
21
-20.1556568266
31
0.0000000000
0
SPLINE
5
3CF
100
AcDbEntity
8
0
100
AcDbSpline
62
9
6
CONTINUOUS
70
0
71
3
72
11
73
7
74
5
42
0.0000001000
43
0.0000001000
44
0.0000000001
12
-0.0004168390
22
-0.0989806277
32
0.0000000000
13
-0.0313240233
23
-0.0938721906
33
0.0000000000
40
0.0000000000
40
0.0000000000
40
0.0000000000
40
0.0000000000
40
0.1677497597
40
0.6004854792
40
0.8896057188
40
1.0000000000
40
1.0000000000
40
1.0000000000
40
1.0000000000
10
-9.6612988066
20
-20.2015863437
30
0.0000000000
10
-9.6613221148
20
-20.2071210026
30
0.0000000000
10
-9.6613584378
20
-20.2269444621
30
0.0000000000
10
-9.6609746143
20
-20.2564125465
30
0.0000000000
10
-9.6629948693
20
-20.2835141393
30
0.0000000000
10
-9.6613375701
20
-20.2970946609
30
0.0000000000
10
-9.6624902345
20
-20.3005489786
30
0.0000000000
11
-9.6612988066
21
-20.2015863437
31
0.0000000000
11
-9.6613193555
21
-20.2182019145
31
0.0000000000
11
-9.6616542960
21
-20.2610243523
31
0.0000000000
11
-9.6620528753
21
-20.2896330623
31
0.0000000000
11
-9.6624902345
21
-20.3005489786
31
0.0000000000
0
SPLINE
5
3D0
100
AcDbEntity
8
0
100
AcDbSpline
62
9
6
CONTINUOUS
70
0
71
3
72
11
73
7
74
5
42
0.0000001000
43
0.0000001000
44
0.0000000001
12
-0.0344576255
22
0.1032681957
32
0.0000000000
13
-0.0003880284
23
0.1088904294
33
0.0000000000
40
0.0000000000
40
0.0000000000
40
0.0000000000
40
0.0000000000
40
0.1848884759
40
0.4418988544
40
0.8368312942
40
1.0000000000
40
1.0000000000
40
1.0000000000
40
1.0000000000
10
9.5436366199
20
-20.3005491828
30
0.0000000000
10
9.5415130139
20
-20.2941848163
30
0.0000000000
10
9.5440947178
20
-20.2775958577
30
0.0000000000
10
9.5421087216
20
-20.2475530983
30
0.0000000000
10
9.5424475654
20
-20.2178708402
30
0.0000000000
10
9.5424202385
20
-20.1976034226
30
0.0000000000
10
9.5423991338
20
-20.1916809192
30
0.0000000000
11
9.5436366199
21
-20.3005491828
31
0.0000000000
11
9.5430378357
21
-20.2804301565
31
0.0000000000
11
9.5427186157
21
-20.2524524719
31
0.0000000000
11
9.5424140505
21
-20.2094591218
31
0.0000000000
11
9.5423991338
21
-20.1916809192
31
0.0000000000
0
SPLINE
5
3D1
100
AcDbEntity
8
0
100
AcDbSpline
62
9
6
CONTINUOUS
70
0
71
3
72
10
73
6
74
4
42
0.0000001000
43
0.0000001000
44
0.0000000001
12
-0.0004902098
22
0.1375650706
32
0.0000000000
13
-0.0001443699
23
0.1375335143
33
0.0000000000
40
0.0000000000
40
0.0000000000
40
0.0000000000
40
0.0000000000
40
0.2945632528
40
0.8125273022
40
1.0000000000
40
1.0000000000
40
1.0000000000
40
1.0000000000
10
9.5423991338
20
-20.1916809192
30
0.0000000000
10
9.5423510012
20
-20.1781737143
30
0.0000000000
10
9.5420300585
20
-20.1409577335
30
0.0000000000
10
9.5420017417
20
-20.0950980845
30
0.0000000000
10
9.5419659274
20
-20.0627564067
30
0.0000000000
10
9.5419569056
20
-20.0541618137
30
0.0000000000
11
9.5423991338
21
-20.1916809192
31
0.0000000000
11
9.5421574566
21
-20.1511840266
31
0.0000000000
11
9.5419838444
21
-20.0799469369
31
0.0000000000
11
9.5419569056
21
-20.0541618137
31
0.0000000000
0
SPLINE
5
3D2
100
AcDbEntity
8
0
100
AcDbSpline
62
9
6
CONTINUOUS
70
0
71
3
72
8
73
4
74
2
42
0.0000001000
43
0.0000001000
44
0.0000000001
12
-0.0000562311
22
0.0535684360
32
0.0000000000
13
0.0000000527
23
0.0535683497
33
0.0000000000
40
0.0000000000
40
0.0000000000
40
0.0000000000
40
0.0000000000
40
1.0000000000
40
1.0000000000
40
1.0000000000
40
1.0000000000
10
9.5419569056
20
-20.0541618137
30
0.0000000000
10
9.5419381619
20
-20.0363056684
30
0.0000000000
10
9.5419215591
20
-20.0184509908
30
0.0000000000
10
9.5419215767
20
-20.0005948742
30
0.0000000000
11
9.5419569056
21
-20.0541618137
31
0.0000000000
11
9.5419215767
21
-20.0005948742
31
0.0000000000
0
SPLINE
5
3D3
100
AcDbEntity
8
0
100
AcDbSpline
62
0
6
CONTINUOUS
70
0
71
3
72
9
73
5
74
3
42
0.0000001000
43
0.0000001000
44
0.0000000001
12
-0.0621281553
22
0.0475403159
32
0.0000000000
13
-0.0477446855
23
0.0619758402
33
0.0000000000
40
0.0000000000
40
0.0000000000
40
0.0000000000
40
0.0000000000
40
0.4994285084
40
1.0000000000
40
1.0000000000
40
1.0000000000
40
1.0000000000
10
4.6576479912
20
18.5142324531
30
0.0000000000
10
4.6473051339
20
18.5221467828
30
0.0000000000
10
4.6276299162
20
18.5393338551
30
0.0000000000
10
4.6103753014
20
18.5589512143
30
0.0000000000
10
4.6024087586
20
18.5692923272
30
0.0000000000
11
4.6576479912
21
18.5142324531
31
0.0000000000
11
4.6282561728
21
18.5399203942
31
0.0000000000
11
4.6024087586
21
18.5692923272
31
0.0000000000
0
SPLINE
5
3D4
100
AcDbEntity
8
0
100
AcDbSpline
62
0
6
CONTINUOUS
70
0
71
3
72
10
73
6
74
4
42
0.0000001000
43
0.0000001000
44
0.0000000001
12
0.2000361656
22
-0.0000000018
32
0.0000000000
13
0.1415661040
23
0.1413276538
33
0.0000000000
40
0.0000000000
40
0.0000000000
40
0.0000000000
40
0.0000000000
40
0.4939061932
40
0.8585863064
40
1.0000000000
40
1.0000000000
40
1.0000000000
40
1.0000000000
10
9.5336793721
20
-10.3557563097
30
0.0000000000
10
9.5666124058
20
-10.3557563100
30
0.0000000000
10
9.6256389599
20
-10.3591297786
30
0.0000000000
10
9.6871876279
20
-10.3477943197
30
0.0000000000
10
9.7269778740
20
-10.3589880983
30
0.0000000000
10
9.7336510025
20
-10.3523262098
30
0.0000000000
11
9.5336793721
21
-10.3557563097
31
0.0000000000
11
9.6324774218
21
-10.3553005231
31
0.0000000000
11
9.7054159895
21
-10.3540544069
31
0.0000000000
11
9.7336510025
21
-10.3523262098
31
0.0000000000
0
SPLINE
5
3D5
100
AcDbEntity
8
0
100
AcDbSpline
62
0
6
CONTINUOUS
70
0
71
3
72
10
73
6
74
4
42
0.0000001000
43
0.0000001000
44
0.0000000001
12
-0.1415446682
22
0.1413542943
32
0.0000000000
13
-0.2000398201
23
-0.0000000014
33
0.0000000000
40
0.0000000000
40
0.0000000000
40
0.0000000000
40
0.0000000000
40
0.1415093173
40
0.5062463800
40
1.0000000000
40
1.0000000000
40
1.0000000000
40
1.0000000000
10
9.7332941187
20
-9.7423492724
30
0.0000000000
10
9.7266174889
20
-9.7356816225
30
0.0000000000
10
9.6868116536
20
-9.7468798567
30
0.0000000000
10
9.6252635894
20
-9.7355434158
30
0.0000000000
10
9.5662424270
20
-9.7389153982
30
0.0000000000
10
9.5333189652
20
-9.7389153985
30
0.0000000000
11
9.7332941187
21
-9.7423492724
31
0.0000000000
11
9.7050395729
21
-9.7406186355
31
0.0000000000
11
9.6320882980
21
-9.7393713767
31
0.0000000000
11
9.5333189652
21
-9.7389153985
31
0.0000000000
0
SPLINE
5
3D6
100
AcDbEntity
8
0
100
AcDbSpline
62
0
6
CONTINUOUS
70
0
71
3
72
10
73
6
74
4
42
0.0000001000
43
0.0000001000
44
0.0000000001
12
-0.2000398201
22
0.0000000014
32
0.0000000000
13
-0.1415446684
23
-0.1413542942
33
0.0000000000
40
0.0000000000
40
0.0000000000
40
0.0000000000
40
0.0000000000
40
0.4937536200
40
0.8584906827
40
1.0000000000
40
1.0000000000
40
1.0000000000
40
1.0000000000
10
-9.6521726469
20
-9.7389153985
30
0.0000000000
10
-9.6850961087
20
-9.7389153982
30
0.0000000000
10
-9.7441172712
20
-9.7355434158
30
0.0000000000
10
-9.8056653354
20
-9.7468798567
30
0.0000000000
10
-9.8454711707
20
-9.7356816225
30
0.0000000000
10
-9.8521478005
20
-9.7423492724
30
0.0000000000
11
-9.6521726469
21
-9.7389153985
31
0.0000000000
11
-9.7509419797
21
-9.7393713767
31
0.0000000000
11
-9.8238932546
21
-9.7406186355
31
0.0000000000
11
-9.8521478005
21
-9.7423492724
31
0.0000000000
0
SPLINE
5
3D7
100
AcDbEntity
8
0
100
AcDbSpline
62
0
6
CONTINUOUS
70
0
71
3
72
10
73
6
74
4
42
0.0000001000
43
0.0000001000
44
0.0000000001
12
0.1415661042
22
-0.1413276537
32
0.0000000000
13
0.2000361656
23
0.0000000018
33
0.0000000000
40
0.0000000000
40
0.0000000000
40
0.0000000000
40
0.0000000000
40
0.1414136936
40
0.5060938068
40
1.0000000000
40
1.0000000000
40
1.0000000000
40
1.0000000000
10
-9.8525046843
20
-10.3523262098
30
0.0000000000
10
-9.8458315557
20
-10.3589880983
30
0.0000000000
10
-9.8060413096
20
-10.3477943197
30
0.0000000000
10
-9.7444926417
20
-10.3591297786
30
0.0000000000
10
-9.6854660875
20
-10.3557563100
30
0.0000000000
10
-9.6525330538
20
-10.3557563097
30
0.0000000000
11
-9.8525046843
21
-10.3523262098
31
0.0000000000
11
-9.8242696712
21
-10.3540544069
31
0.0000000000
11
-9.7513311035
21
-10.3553005231
31
0.0000000000
11
-9.6525330538
21
-10.3557563097
31
0.0000000000
0
SPLINE
5
3D8
100
AcDbEntity
8
0
100
AcDbSpline
62
0
6
CONTINUOUS
70
0
71
3
72
10
73
6
74
4
42
0.0000001000
43
0.0000001000
44
0.0000000001
12
-0.1415935899
22
0.1413058574
32
0.0000000000
13
-0.2000402210
23
-0.0000000022
33
0.0000000000
40
0.0000000000
40
0.0000000000
40
0.0000000000
40
0.0000000000
40
0.1414539305
40
0.5061574823
40
1.0000000000
40
1.0000000000
40
1.0000000000
40
1.0000000000
10
9.7373950949
20
15.2535497514
30
0.0000000000
10
9.7307187716
20
15.2602125077
30
0.0000000000
10
9.6909251518
20
15.2490201800
30
0.0000000000
10
9.6293728742
20
15.2603531854
30
0.0000000000
10
9.5703489140
20
15.2569813578
30
0.0000000000
10
9.5374194585
20
15.2569813575
30
0.0000000000
11
9.7373950949
21
15.2535497514
31
0.0000000000
11
9.7091515014
21
15.2552789002
31
0.0000000000
11
9.6362067730
21
15.2565254671
31
0.0000000000
11
9.5374194585
21
15.2569813575
31
0.0000000000
0
SPLINE
5
3D9
100
AcDbEntity
8
0
100
AcDbSpline
62
0
6
CONTINUOUS
70
0
71
3
72
10
73
6
74
4
42
0.0000001000
43
0.0000001000
44
0.0000000001
12
0.2000457144
22
-0.0000000019
32
0.0000000000
13
0.1415779482
23
0.1413293050
33
0.0000000000
40
0.0000000000
40
0.0000000000
40
0.0000000000
40
0.0000000000
40
0.4936112202
40
0.8584008113
40
1.0000000000
40
1.0000000000
40
1.0000000000
40
1.0000000000
10
9.5368848847
20
14.6474513264
30
0.0000000000
10
9.5697998211
20
14.6474513261
30
0.0000000000
10
9.6288150529
20
14.6440822717
30
0.0000000000
10
9.6903679059
20
14.6554152880
30
0.0000000000
10
9.7301833769
20
14.6442179005
30
0.0000000000
10
9.7368658177
20
14.6508886054
30
0.0000000000
11
9.5368848847
21
14.6474513264
31
0.0000000000
11
9.6356286401
21
14.6479075148
31
0.0000000000
11
9.7085925574
21
14.6491557935
31
0.0000000000
11
9.7368658177
21
14.6508886054
31
0.0000000000
0
SPLINE
5
3DA
100
AcDbEntity
8
0
100
AcDbSpline
62
0
6
CONTINUOUS
70
0
71
3
72
10
73
6
74
4
42
0.0000001000
43
0.0000001000
44
0.0000000001
12
0.1415779476
22
-0.1413293056
32
0.0000000000
13
0.2000457144
23
0.0000000019
33
0.0000000000
40
0.0000000000
40
0.0000000000
40
0.0000000000
40
0.0000000000
40
0.1415991887
40
0.5063887798
40
1.0000000000
40
1.0000000000
40
1.0000000000
40
1.0000000000
10
-9.8557194995
20
14.6508886054
30
0.0000000000
10
-9.8490370586
20
14.6442179004
30
0.0000000000
10
-9.8092215876
20
14.6554152880
30
0.0000000000
10
-9.7476687346
20
14.6440822717
30
0.0000000000
10
-9.6886535028
20
14.6474513261
30
0.0000000000
10
-9.6557385664
20
14.6474513264
30
0.0000000000
11
-9.8557194995
21
14.6508886054
31
0.0000000000
11
-9.8274462391
21
14.6491557935
31
0.0000000000
11
-9.7544823219
21
14.6479075148
31
0.0000000000
11
-9.6557385664
21
14.6474513264
31
0.0000000000
0
SPLINE
5
3DB
100
AcDbEntity
8
0
100
AcDbSpline
62
0
6
CONTINUOUS
70
0
71
3
72
10
73
6
74
4
42
0.0000001000
43
0.0000001000
44
0.0000000001
12
-0.0002130151
22
-0.1864550309
32
0.0000000000
13
-0.0002150598
23
-0.1864550285
33
0.0000000000
40
0.0000000000
40
0.0000000000
40
0.0000000000
40
0.0000000000
40
0.3333379000
40
0.6666712382
40
1.0000000000
40
1.0000000000
40
1.0000000000
40
1.0000000000
10
5.1907871966
20
-19.5559208888
30
0.0000000000
10
5.1907635279
20
-19.5766383982
30
0.0000000000
10
5.1907161152
20
-19.6180731336
30
0.0000000000
10
5.1906447694
20
-19.6802248101
30
0.0000000000
10
5.1905970543
20
-19.7216589772
30
0.0000000000
10
5.1905731591
20
-19.7423759185
30
0.0000000000
11
5.1907871966
21
-19.5559208888
31
0.0000000000
11
5.1907160770
21
-19.6180734171
31
0.0000000000
11
5.1906447312
21
-19.6802250945
31
0.0000000000
11
5.1905731591
21
-19.7423759185
31
0.0000000000
0
SPLINE
5
3DC
100
AcDbEntity
8
0
100
AcDbSpline
62
0
6
CONTINUOUS
70
0
71
3
72
10
73
6
74
4
42
0.0000001000
43
0.0000001000
44
0.0000000001
12
0.0002130151
22
-0.1864550309
32
0.0000000000
13
0.0002150598
23
-0.1864550285
33
0.0000000000
40
0.0000000000
40
0.0000000000
40
0.0000000000
40
0.0000000000
40
0.3333379000
40
0.6666712382
40
1.0000000000
40
1.0000000000
40
1.0000000000
40
1.0000000000
10
-5.3096408783
20
-19.5559208888
30
0.0000000000
10
-5.3096172096
20
-19.5766383982
30
0.0000000000
10
-5.3095697969
20
-19.6180731336
30
0.0000000000
10
-5.3094984511
20
-19.6802248102
30
0.0000000000
10
-5.3094507361
20
-19.7216589772
30
0.0000000000
10
-5.3094268409
20
-19.7423759185
30
0.0000000000
11
-5.3096408783
21
-19.5559208888
31
0.0000000000
11
-5.3095697587
21
-19.6180734171
31
0.0000000000
11
-5.3094984129
21
-19.6802250945
31
0.0000000000
11
-5.3094268409
21
-19.7423759185
31
0.0000000000
0
SPLINE
5
3DD
100
AcDbEntity
8
0
100
AcDbSpline
62
9
6
CONTINUOUS
70
0
71
3
72
13
73
9
74
7
42
0.0000001000
43
0.0000001000
44
0.0000000001
12
0.0707209077
22
-0.0707313796
32
0.0000000000
13
-0.0000001149
23
-0.1000218719
33
0.0000000000
40
0.0000000000
40
0.0000000000
40
0.0000000000
40
0.0000000000
40
0.0747933911
40
0.1756295326
40
0.3246302845
40
0.5188936257
40
0.7488200151
40
1.0000000000
40
1.0000000000
40
1.0000000000
40
1.0000000000
10
-9.8624598407
20
20.0055472778
30
0.0000000000
10
-9.8606966885
20
20.0037838645
30
0.0000000000
10
-9.8626138272
20
19.9967835339
30
0.0000000000
10
-9.8610495008
20
19.9866107960
30
0.0000000000
10
-9.8613211677
20
19.9715195503
30
0.0000000000
10
-9.8608722546
20
19.9525243416
30
0.0000000000
10
-9.8607989541
20
19.9299672964
30
0.0000000000
10
-9.8607447878
20
19.9139370057
30
0.0000000000
10
-9.8607447975
20
19.9055625082
30
0.0000000000
11
-9.8624598407
21
20.0055472778
31
0.0000000000
11
-9.8618283799
21
19.9980930009
31
0.0000000000
11
-9.8615026088
21
19.9880124438
31
0.0000000000
11
-9.8612032613
21
19.9731121163
31
0.0000000000
11
-9.8609602058
21
19.9536830536
31
0.0000000000
11
-9.8608008155
21
19.9306859381
31
0.0000000000
11
-9.8607447975
21
19.9055625082
31
0.0000000000
0
SPLINE
5
3DE
100
AcDbEntity
8
0
100
AcDbSpline
62
9
6
CONTINUOUS
70
0
71
3
72
13
73
9
74
7
42
0.0000001000
43
0.0000001000
44
0.0000000001
12
-0.0000000035
22
-0.1000180759
32
0.0000000000
13
-0.0708565935
23
-0.0705900748
33
0.0000000000
40
0.0000000000
40
0.0000000000
40
0.0000000000
40
0.0000000000
40
0.1756240431
40
0.3630076350
40
0.5513520660
40
0.7253988301
40
0.8680065199
40
1.0000000000
40
1.0000000000
40
1.0000000000
40
1.0000000000
10
-9.8607447975
20
-20.0005948742
30
0.0000000000
10
-9.8607447977
20
-20.0064500672
30
0.0000000000
10
-9.8607735784
20
-20.0185474073
30
0.0000000000
10
-9.8608126977
20
-20.0369532787
30
0.0000000000
10
-9.8611534077
20
-20.0551932480
30
0.0000000000
10
-9.8608056375
20
-20.0723161673
30
0.0000000000
10
-9.8628653100
20
-20.0864160659
30
0.0000000000
10
-9.8593423045
20
-20.0974738339
30
0.0000000000
10
-9.8624598407
20
-20.1005796437
30
0.0000000000
11
-9.8607447975
21
-20.0005948742
31
0.0000000000
11
-9.8607719380
21
-20.0181604321
31
0.0000000000
11
-9.8608639137
21
-20.0369019527
31
0.0000000000
11
-9.8610341939
21
-20.0557390307
31
0.0000000000
11
-9.8612890422
21
-20.0731449876
31
0.0000000000
11
-9.8616238855
21
-20.0874044034
31
0.0000000000
11
-9.8624598407
21
-20.1005796437
31
0.0000000000
0
SPLINE
5
3DF
100
AcDbEntity
8
0
100
AcDbSpline
62
9
6
CONTINUOUS
70
0
71
3
72
13
73
9
74
7
42
0.0000001000
43
0.0000001000
44
0.0000000001
12
-0.0000000545
22
0.1000174693
32
0.0000000000
13
0.0708183568
23
0.0706275761
33
0.0000000000
40
0.0000000000
40
0.0000000000
40
0.0000000000
40
0.0000000000
40
0.1659092587
40
0.3444018555
40
0.5289102089
40
0.7058296469
40
0.8561217898
40
1.0000000000
40
1.0000000000
40
1.0000000000
40
1.0000000000
10
9.7418911157
20
19.9055625082
30
0.0000000000
10
9.7418911127
20
19.9110937830
30
0.0000000000
10
9.7419168995
20
19.9225713271
30
0.0000000000
10
9.7419522703
20
19.9402265235
30
0.0000000000
10
9.7422718259
20
19.9581433466
30
0.0000000000
10
9.7419175110
20
19.9754867810
30
0.0000000000
10
9.7440598614
20
19.9903006905
30
0.0000000000
10
9.7402097528
20
20.0021600214
30
0.0000000000
10
9.7436061589
20
20.0055472778
30
0.0000000000
11
9.7418911157
21
19.9055625082
31
0.0000000000
11
9.7419153180
21
19.9221563148
31
0.0000000000
11
9.7419979443
21
19.9400085014
31
0.0000000000
11
9.7421553517
21
19.9584618887
31
0.0000000000
11
9.7424003281
21
19.9761552273
31
0.0000000000
11
9.7427348832
21
19.9911833436
31
0.0000000000
11
9.7436061589
21
20.0055472778
31
0.0000000000
0
SPLINE
5
3E0
100
AcDbEntity
8
0
100
AcDbSpline
62
9
6
CONTINUOUS
70
0
71
3
72
13
73
9
74
7
42
0.0000001000
43
0.0000001000
44
0.0000000001
12
-0.0707897528
22
0.0706634136
32
0.0000000000
13
0.0000000782
23
0.1000225331
33
0.0000000000
40
0.0000000000
40
0.0000000000
40
0.0000000000
40
0.0000000000
40
0.0673919306
40
0.1607512254
40
0.3041173562
40
0.4983459014
40
0.7356894277
40
1.0000000000
40
1.0000000000
40
1.0000000000
40
1.0000000000
10
9.7436061589
20
-20.1005796437
30
0.0000000000
10
9.7420159395
20
-20.0989922624
30
0.0000000000
10
9.7437179557
20
-20.0925919117
30
0.0000000000
10
9.7422461488
20
-20.0830645545
30
0.0000000000
10
9.7424981701
20
-20.0684150098
30
0.0000000000
10
9.7420307345
20
-20.0493660503
30
0.0000000000
10
9.7419504660
20
-20.0261215559
30
0.0000000000
10
9.7418911088
20
-20.0094072119
30
0.0000000000
10
9.7418911157
20
-20.0005948742
30
0.0000000000
11
9.7436061589
21
-20.1005796437
31
0.0000000000
11
9.7430071463
21
-20.0938656005
31
0.0000000000
11
9.7426878821
21
-20.0845330267
31
0.0000000000
11
9.7423833222
21
-20.0701964177
31
0.0000000000
11
9.7421267729
21
-20.0507708807
31
0.0000000000
11
9.7419532425
21
-20.0270318142
31
0.0000000000
11
9.7418911157
21
-20.0005948742
31
0.0000000000
0
SPLINE
5
3E1
100
AcDbEntity
8
0
100
AcDbSpline
62
0
6
CONTINUOUS
70
0
71
3
72
10
73
6
74
4
42
0.0000001000
43
0.0000001000
44
0.0000000001
12
-0.2000402210
22
0.0000000022
32
0.0000000000
13
-0.1415935892
23
-0.1413058581
33
0.0000000000
40
0.0000000000
40
0.0000000000
40
0.0000000000
40
0.0000000000
40
0.4938425178
40
0.8585460695
40
1.0000000000
40
1.0000000000
40
1.0000000000
40
1.0000000000
10
-9.6562731402
20
15.2569813575
30
0.0000000000
10
-9.6892025957
20
15.2569813578
30
0.0000000000
10
-9.7482265560
20
15.2603531854
30
0.0000000000
10
-9.8097788335
20
15.2490201800
30
0.0000000000
10
-9.8495724534
20
15.2602125078
30
0.0000000000
10
-9.8562487766
20
15.2535497514
30
0.0000000000
11
-9.6562731402
21
15.2569813575
31
0.0000000000
11
-9.7550604547
21
15.2565254671
31
0.0000000000
11
-9.8280051832
21
15.2552789002
31
0.0000000000
11
-9.8562487766
21
15.2535497514
31
0.0000000000
0
SPLINE
5
3E2
100
AcDbEntity
8
0
100
AcDbSpline
62
9
6
CONTINUOUS
70
0
71
3
72
9
73
5
74
3
42
0.0000001000
43
0.0000001000
44
0.0000000001
12
1.4288726789
22
-0.0030245930
32
0.0000000000
13
1.4288758799
23
0.0000194761
33
0.0000000000
40
0.0000000000
40
0.0000000000
40
0.0000000000
40
0.0000000000
40
0.4849370078
40
1.0000000000
40
1.0000000000
40
1.0000000000
40
1.0000000000
10
-3.5883016399
20
-20.1556571207
30
0.0000000000
10
-3.3573305594
20
-20.1561460331
30
0.0000000000
10
-2.8810392044
20
-20.1569496685
30
0.0000000000
10
-2.4047472029
20
-20.1572446524
30
0.0000000000
10
-2.1594268409
20
-20.1572413086
30
0.0000000000
11
-3.5883016399
21
-20.1556571207
31
0.0000000000
11
-2.8953877983
21
-20.1568058417
31
0.0000000000
11
-2.1594268409
21
-20.1572413086
31
0.0000000000
0
SPLINE
5
3E3
100
AcDbEntity
8
0
100
AcDbSpline
62
9
6
CONTINUOUS
70
0
71
3
72
9
73
5
74
3
42
0.0000001000
43
0.0000001000
44
0.0000000001
12
1.4291552740
22
-0.0000267472
32
0.0000000000
13
1.4291520723
23
0.0030252816
33
0.0000000000
40
0.0000000000
40
0.0000000000
40
0.0000000000
40
0.0000000000
40
0.5152756437
40
1.0000000000
40
1.0000000000
40
1.0000000000
40
1.0000000000
10
2.0402937566
20
-20.1572269918
30
0.0000000000
10
2.2857633912
20
-20.1572315859
30
0.0000000000
10
2.7621485363
20
-20.1569556932
30
0.0000000000
10
3.2385330190
20
-20.1561459300
30
0.0000000000
10
3.4694479584
20
-20.1556571207
30
0.0000000000
11
2.0402937566
21
-20.1572269918
31
0.0000000000
11
2.7767025399
21
-20.1568055169
31
0.0000000000
11
3.4694479584
21
-20.1556571207
31
0.0000000000
0
SPLINE
5
3E4
100
AcDbEntity
8
0
100
AcDbSpline
62
0
6
CONTINUOUS
70
0
71
3
72
9
73
5
74
3
42
0.0000001000
43
0.0000001000
44
0.0000000001
12
-0.0353819898
22
0.3454239664
32
0.0000000000
13
-0.0128503393
23
0.3469934733
33
0.0000000000
40
0.0000000000
40
0.0000000000
40
0.0000000000
40
0.0000000000
40
0.4955933566
40
1.0000000000
40
1.0000000000
40
1.0000000000
40
1.0000000000
10
-5.6410850722
20
-16.1403365060
30
0.0000000000
10
-5.6469300986
20
-16.0832732317
30
0.0000000000
10
-5.6574763372
20
-15.9679821844
30
0.0000000000
10
-5.6630501038
20
-15.8523427505
30
0.0000000000
10
-5.6652107026
20
-15.7940008128
30
0.0000000000
11
-5.6410850722
21
-16.1403365060
31
0.0000000000
11
-5.6561620875
21
-15.9689127093
31
0.0000000000
11
-5.6652107026
21
-15.7940008128
31
0.0000000000
0
SPLINE
5
3E5
100
AcDbEntity
8
0
100
AcDbSpline
62
0
6
CONTINUOUS
70
0
71
3
72
8
73
4
74
2
42
0.0000001000
43
0.0000001000
44
0.0000000001
12
-0.1127566415
22
-0.1794093131
32
0.0000000000
13
-0.1212252424
23
-0.1738362805
33
0.0000000000
40
0.0000000000
40
0.0000000000
40
0.0000000000
40
0.0000000000
40
1.0000000000
40
1.0000000000
40
1.0000000000
40
1.0000000000
10
5.7879055436
20
-15.4475161830
30
0.0000000000
10
5.7503199965
20
-15.5073192873
30
0.0000000000
10
5.7112951779
20
-15.5662296562
30
0.0000000000
10
5.6708867638
20
-15.6241750830
30
0.0000000000
11
5.7879055436
21
-15.4475161830
31
0.0000000000
11
5.6708867638
21
-15.6241750830
31
0.0000000000
0
SPLINE
5
3E6
100
AcDbEntity
8
0
100
AcDbSpline
62
0
6
CONTINUOUS
70
0
71
3
72
10
73
6
74
4
42
0.0000001000
43
0.0000001000
44
0.0000000001
12
0.3000887779
22
0.0000000000
32
0.0000000000
13
0.1341956046
23
-0.2684116509
33
0.0000000000
40
0.0000000000
40
0.0000000000
40
0.0000000000
40
0.0000000000
40
0.4973078836
40
0.8628897268
40
1.0000000000
40
1.0000000000
40
1.0000000000
40
1.0000000000
10
-4.9816917773
20
20.2501186222
30
0.0000000000
10
-4.9319462722
20
20.2501186222
30
0.0000000000
10
-4.8404759578
20
20.2569770599
30
0.0000000000
10
-4.7552118141
20
20.2349220654
30
0.0000000000
10
-4.6878363990
20
20.2571951310
30
0.0000000000
10
-4.6817032003
20
20.2449277994
30
0.0000000000
11
-4.9816917773
21
20.2501186222
31
0.0000000000
11
-4.8324568753
21
20.2494247459
31
0.0000000000
11
-4.7227662844
21
20.2475268526
31
0.0000000000
11
-4.6817032003
21
20.2449277994
31
0.0000000000
0
SPLINE
5
3E7
100
AcDbEntity
8
0
100
AcDbSpline
62
0
6
CONTINUOUS
70
0
71
3
72
11
73
7
74
5
42
0.0000001000
43
0.0000001000
44
0.0000000001
12
0.4104517321
22
0.0000000000
32
0.0000000000
13
0.0567451793
23
0.4087665379
33
0.0000000000
40
0.0000000000
40
0.0000000000
40
0.0000000000
40
0.0000000000
40
0.3316863664
40
0.6109006680
40
0.8529649078
40
1.0000000000
40
1.0000000000
40
1.0000000000
40
1.0000000000
10
-4.9734732327
20
19.2524838170
30
0.0000000000
10
-4.9280928181
20
19.2524838170
30
0.0000000000
10
-4.8434371099
20
19.2693633397
30
0.0000000000
10
-4.7437967200
20
19.3351183810
30
0.0000000000
10
-4.6905145569
20
19.4122036916
30
0.0000000000
10
-4.6761583767
20
19.4644985639
30
0.0000000000
10
-4.6733771992
20
19.4845329058
30
0.0000000000
11
-4.9734732327
21
19.2524838170
31
0.0000000000
11
-4.8400842649
21
19.2797202172
31
0.0000000000
11
-4.7450040668
21
19.3437032720
31
0.0000000000
11
-4.6893881288
21
19.4260344319
31
0.0000000000
11
-4.6733771992
21
19.4845329058
31
0.0000000000
0
SPLINE
5
3E8
100
AcDbEntity
8
0
100
AcDbSpline
62
0
6
CONTINUOUS
70
0
71
3
72
8
73
4
74
2
42
0.0000001000
43
0.0000001000
44
0.0000000001
12
0.0000430917
22
-0.0782979419
32
0.0000000000
13
-0.0203973380
23
-0.0762862416
33
0.0000000000
40
0.0000000000
40
0.0000000000
40
0.0000000000
40
0.0000000000
40
1.0000000000
40
1.0000000000
40
1.0000000000
40
1.0000000000
10
-4.6589225804
20
18.7524838170
30
0.0000000000
10
-4.6589082166
20
18.7263845031
30
0.0000000000
10
-4.6623873886
20
18.7000910064
30
0.0000000000
10
-4.6691865013
20
18.6746622592
30
0.0000000000
11
-4.6589225804
21
18.7524838170
31
0.0000000000
11
-4.6691865013
21
18.6746622592
31
0.0000000000
0
SPLINE
5
3E9
100
AcDbEntity
8
0
100
AcDbSpline
62
0
6
CONTINUOUS
70
0
71
3
72
9
73
5
74
3
42
0.0000001000
43
0.0000001000
44
0.0000000001
12
-0.0303512794
22
-0.1135140789
32
0.0000000000
13
-0.0712295993
23
-0.0930686915
33
0.0000000000
40
0.0000000000
40
0.0000000000
40
0.0000000000
40
0.0000000000
40
0.3339124594
40
1.0000000000
40
1.0000000000
40
1.0000000000
40
1.0000000000
10
-4.6691865013
20
18.6746622592
30
0.0000000000
10
-4.6725647247
20
18.6620276708
30
0.0000000000
10
-4.6851363570
20
18.6248289817
30
0.0000000000
10
-4.7048678584
20
18.5907099383
30
0.0000000000
10
-4.7206829079
20
18.5700459731
30
0.0000000000
11
-4.6691865013
21
18.6746622592
31
0.0000000000
11
-4.6817586818
21
18.6375288321
31
0.0000000000
11
-4.7206829079
21
18.5700459731
31
0.0000000000
0
SPLINE
5
3EA
100
AcDbEntity
8
0
100
AcDbSpline
62
0
6
CONTINUOUS
70
0
71
3
72
9
73
5
74
3
42
0.0000001000
43
0.0000001000
44
0.0000000001
12
-0.0475445216
22
-0.0621217368
32
0.0000000000
13
-0.0619773558
23
-0.0477376501
33
0.0000000000
40
0.0000000000
40
0.0000000000
40
0.0000000000
40
0.0000000000
40
0.4994989082
40
1.0000000000
40
1.0000000000
40
1.0000000000
40
1.0000000000
10
-4.7206829079
20
18.5700459731
30
0.0000000000
10
-4.7285990534
20
18.5597027265
30
0.0000000000
10
-4.7457875565
20
18.5400299193
30
0.0000000000
10
-4.7654058254
20
18.5227778797
30
0.0000000000
10
-4.7757457369
20
18.5148136310
30
0.0000000000
11
-4.7206829079
21
18.5700459731
31
0.0000000000
11
-4.7463765550
21
18.5406536146
31
0.0000000000
11
-4.7757457369
21
18.5148136310
31
0.0000000000
0
SPLINE
5
3EB
100
AcDbEntity
8
0
100
AcDbSpline
62
0
6
CONTINUOUS
70
0
71
3
72
9
73
5
74
3
42
0.0000001000
43
0.0000001000
44
0.0000000001
12
-0.1244466177
22
-0.0958541877
32
0.0000000000
13
-0.1557072447
23
-0.0207822048
33
0.0000000000
40
0.0000000000
40
0.0000000000
40
0.0000000000
40
0.0000000000
40
0.4991745005
40
1.0000000000
40
1.0000000000
40
1.0000000000
40
1.0000000000
10
-4.7757457369
20
18.5148136310
30
0.0000000000
10
-4.7964525963
20
18.4988643089
30
0.0000000000
10
-4.8421201877
20
18.4722991671
30
0.0000000000
10
-4.8933452187
20
18.4585875368
30
0.0000000000
10
-4.9193392715
20
18.4551181174
30
0.0000000000
11
-4.7757457369
21
18.5148136310
31
0.0000000000
11
-4.8434295666
21
18.4755458022
31
0.0000000000
11
-4.9193392715
21
18.4551181174
31
0.0000000000
0
SPLINE
5
3EC
100
AcDbEntity
8
0
100
AcDbSpline
62
0
6
CONTINUOUS
70
0
71
3
72
10
73
6
74
4
42
0.0000001000
43
0.0000001000
44
0.0000000001
12
0.1341956046
22
0.2684116509
32
0.0000000000
13
0.3000887779
23
0.0000000000
33
0.0000000000
40
0.0000000000
40
0.0000000000
40
0.0000000000
40
0.0000000000
40
0.1371102732
40
0.5026921164
40
1.0000000000
40
1.0000000000
40
1.0000000000
40
1.0000000000
10
-5.4371504814
20
20.2449277994
30
0.0000000000
10
-5.4310172827
20
20.2571951310
30
0.0000000000
10
-5.3636418677
20
20.2349220654
30
0.0000000000
10
-5.2783777239
20
20.2569770599
30
0.0000000000
10
-5.1869074095
20
20.2501186222
30
0.0000000000
10
-5.1371619045
20
20.2501186222
30
0.0000000000
11
-5.4371504814
21
20.2449277994
31
0.0000000000
11
-5.3960873973
21
20.2475268526
31
0.0000000000
11
-5.2863968064
21
20.2494247459
31
0.0000000000
11
-5.1371619045
21
20.2501186222
31
0.0000000000
0
SPLINE
5
3ED
100
AcDbEntity
8
0
100
AcDbSpline
62
0
6
CONTINUOUS
70
0
71
3
72
11
73
7
74
5
42
0.0000001000
43
0.0000001000
44
0.0000000001
12
0.0044088244
22
-0.4391837835
32
0.0000000000
13
0.4392059123
23
0.0000000000
33
0.0000000000
40
0.0000000000
40
0.0000000000
40
0.0000000000
40
0.0000000000
40
0.2028774794
40
0.4290941212
40
0.6900286635
40
1.0000000000
40
1.0000000000
40
1.0000000000
40
1.0000000000
10
-5.4476227228
20
19.5132698384
30
0.0000000000
10
-5.4473245724
20
19.4835696720
30
0.0000000000
10
-5.4339243466
20
19.4202840421
30
0.0000000000
10
-5.3750569618
20
19.3351183810
30
0.0000000000
10
-5.2754165718
20
19.2693633397
30
0.0000000000
10
-5.1907608636
20
19.2524838170
30
0.0000000000
10
-5.1453804491
20
19.2524838170
30
0.0000000000
11
-5.4476227228
21
19.5132698384
31
0.0000000000
11
-5.4294655529
21
19.4260344319
31
0.0000000000
11
-5.3738496150
21
19.3437032720
31
0.0000000000
11
-5.2787694168
21
19.2797202172
31
0.0000000000
11
-5.1453804491
21
19.2524838170
31
0.0000000000
0
SPLINE
5
3EE
100
AcDbEntity
8
0
100
AcDbSpline
62
0
6
CONTINUOUS
70
0
71
3
72
10
73
6
74
4
42
0.0000001000
43
0.0000001000
44
0.0000000001
12
-0.0935594899
22
-0.1769971526
32
0.0000000000
13
-0.2002033221
23
0.0000001408
33
0.0000000000
40
0.0000000000
40
0.0000000000
40
0.0000000000
40
0.0000000000
40
0.1404425094
40
0.5054232647
40
1.0000000000
40
1.0000000000
40
1.0000000000
40
1.0000000000
10
9.7418911157
20
-19.7357741049
30
0.0000000000
10
9.7375112059
20
-19.7440600797
30
0.0000000000
10
9.6929927434
20
-19.7324599063
30
0.0000000000
10
9.6354877896
20
-19.7459101430
30
0.0000000000
10
9.5749268785
20
-19.7423759417
30
0.0000000000
10
9.5419215767
20
-19.7423759185
30
0.0000000000
11
9.7418911157
21
-19.7357741049
31
0.0000000000
11
9.7139636680
21
-19.7390339450
31
0.0000000000
11
9.6409331094
21
-19.7414453716
31
0.0000000000
11
9.5419215767
21
-19.7423759185
31
0.0000000000
0
SPLINE
5
3EF
100
AcDbEntity
8
0
100
AcDbSpline
62
0
6
CONTINUOUS
70
0
71
3
72
9
73
5
74
3
42
0.0000001000
43
0.0000001000
44
0.0000000001
12
-0.0621281553
22
0.0475403159
32
0.0000000000
13
-0.0477446855
23
0.0619758402
33
0.0000000000
40
0.0000000000
40
0.0000000000
40
0.0000000000
40
0.0000000000
40
0.4994285084
40
1.0000000000
40
1.0000000000
40
1.0000000000
40
1.0000000000
10
-5.3423520088
20
18.5142324531
30
0.0000000000
10
-5.3526948661
20
18.5221467828
30
0.0000000000
10
-5.3723700838
20
18.5393338551
30
0.0000000000
10
-5.3896246986
20
18.5589512143
30
0.0000000000
10
-5.3975912414
20
18.5692923272
30
0.0000000000
11
-5.3423520088
21
18.5142324531
31
0.0000000000
11
-5.3717438272
21
18.5399203942
31
0.0000000000
11
-5.3975912414
21
18.5692923272
31
0.0000000000
0
SPLINE
5
3F0
100
AcDbEntity
8
0
100
AcDbSpline
62
0
6
CONTINUOUS
70
0
71
3
72
10
73
6
74
4
42
0.0000001000
43
0.0000001000
44
0.0000000001
12
0.3000887779
22
0.0000000000
32
0.0000000000
13
0.1341956046
23
-0.2684116509
33
0.0000000000
40
0.0000000000
40
0.0000000000
40
0.0000000000
40
0.0000000000
40
0.4973078836
40
0.8628897268
40
1.0000000000
40
1.0000000000
40
1.0000000000
40
1.0000000000
10
5.0183082227
20
20.2501186222
30
0.0000000000
10
5.0680537278
20
20.2501186222
30
0.0000000000
10
5.1595240422
20
20.2569770599
30
0.0000000000
10
5.2447881859
20
20.2349220654
30
0.0000000000
10
5.3121636010
20
20.2571951310
30
0.0000000000
10
5.3182967997
20
20.2449277994
30
0.0000000000
11
5.0183082227
21
20.2501186222
31
0.0000000000
11
5.1675431247
21
20.2494247459
31
0.0000000000
11
5.2772337156
21
20.2475268526
31
0.0000000000
11
5.3182967997
21
20.2449277994
31
0.0000000000
0
SPLINE
5
3F1
100
AcDbEntity
8
0
100
AcDbSpline
62
0
6
CONTINUOUS
70
0
71
3
72
11
73
7
74
5
42
0.0000001000
43
0.0000001000
44
0.0000000001
12
0.4104517321
22
0.0000000000
32
0.0000000000
13
0.0567451793
23
0.4087665379
33
0.0000000000
40
0.0000000000
40
0.0000000000
40
0.0000000000
40
0.0000000000
40
0.3316863664
40
0.6109006680
40
0.8529649078
40
1.0000000000
40
1.0000000000
40
1.0000000000
40
1.0000000000
10
5.0265267673
20
19.2524838170
30
0.0000000000
10
5.0719071819
20
19.2524838170
30
0.0000000000
10
5.1565628901
20
19.2693633397
30
0.0000000000
10
5.2562032800
20
19.3351183810
30
0.0000000000
10
5.3094854431
20
19.4122036916
30
0.0000000000
10
5.3238416233
20
19.4644985639
30
0.0000000000
10
5.3266228008
20
19.4845329058
30
0.0000000000
11
5.0265267673
21
19.2524838170
31
0.0000000000
11
5.1599157351
21
19.2797202172
31
0.0000000000
11
5.2549959332
21
19.3437032720
31
0.0000000000
11
5.3106118712
21
19.4260344319
31
0.0000000000
11
5.3266228008
21
19.4845329058
31
0.0000000000
0
SPLINE
5
3F2
100
AcDbEntity
8
0
100
AcDbSpline
62
0
6
CONTINUOUS
70
0
71
3
72
8
73
4
74
2
42
0.0000001000
43
0.0000001000
44
0.0000000001
12
0.0000430917
22
-0.0782979419
32
0.0000000000
13
-0.0203973380
23
-0.0762862416
33
0.0000000000
40
0.0000000000
40
0.0000000000
40
0.0000000000
40
0.0000000000
40
1.0000000000
40
1.0000000000
40
1.0000000000
40
1.0000000000
10
5.3410774196
20
18.7524838170
30
0.0000000000
10
5.3410917834
20
18.7263845031
30
0.0000000000
10
5.3376126114
20
18.7000910064
30
0.0000000000
10
5.3308134987
20
18.6746622592
30
0.0000000000
11
5.3410774196
21
18.7524838170
31
0.0000000000
11
5.3308134987
21
18.6746622592
31
0.0000000000
0
SPLINE
5
3F3
100
AcDbEntity
8
0
100
AcDbSpline
62
0
6
CONTINUOUS
70
0
71
3
72
9
73
5
74
3
42
0.0000001000
43
0.0000001000
44
0.0000000001
12
-0.0303512794
22
-0.1135140789
32
0.0000000000
13
-0.0712295993
23
-0.0930686915
33
0.0000000000
40
0.0000000000
40
0.0000000000
40
0.0000000000
40
0.0000000000
40
0.3339124594
40
1.0000000000
40
1.0000000000
40
1.0000000000
40
1.0000000000
10
5.3308134987
20
18.6746622592
30
0.0000000000
10
5.3274352753
20
18.6620276708
30
0.0000000000
10
5.3148636430
20
18.6248289817
30
0.0000000000
10
5.2951321416
20
18.5907099383
30
0.0000000000
10
5.2793170921
20
18.5700459731
30
0.0000000000
11
5.3308134987
21
18.6746622592
31
0.0000000000
11
5.3182413182
21
18.6375288321
31
0.0000000000
11
5.2793170921
21
18.5700459731
31
0.0000000000
0
SPLINE
5
3F4
100
AcDbEntity
8
0
100
AcDbSpline
62
0
6
CONTINUOUS
70
0
71
3
72
9
73
5
74
3
42
0.0000001000
43
0.0000001000
44
0.0000000001
12
-0.0475445216
22
-0.0621217368
32
0.0000000000
13
-0.0619773558
23
-0.0477376501
33
0.0000000000
40
0.0000000000
40
0.0000000000
40
0.0000000000
40
0.0000000000
40
0.4994989082
40
1.0000000000
40
1.0000000000
40
1.0000000000
40
1.0000000000
10
5.2793170921
20
18.5700459731
30
0.0000000000
10
5.2714009466
20
18.5597027265
30
0.0000000000
10
5.2542124435
20
18.5400299193
30
0.0000000000
10
5.2345941746
20
18.5227778797
30
0.0000000000
10
5.2242542631
20
18.5148136310
30
0.0000000000
11
5.2793170921
21
18.5700459731
31
0.0000000000
11
5.2536234450
21
18.5406536146
31
0.0000000000
11
5.2242542631
21
18.5148136310
31
0.0000000000
0
SPLINE
5
3F5
100
AcDbEntity
8
0
100
AcDbSpline
62
0
6
CONTINUOUS
70
0
71
3
72
9
73
5
74
3
42
0.0000001000
43
0.0000001000
44
0.0000000001
12
-0.1244466177
22
-0.0958541877
32
0.0000000000
13
-0.1557072447
23
-0.0207822048
33
0.0000000000
40
0.0000000000
40
0.0000000000
40
0.0000000000
40
0.0000000000
40
0.4991745005
40
1.0000000000
40
1.0000000000
40
1.0000000000
40
1.0000000000
10
5.2242542631
20
18.5148136310
30
0.0000000000
10
5.2035474037
20
18.4988643089
30
0.0000000000
10
5.1578798123
20
18.4722991671
30
0.0000000000
10
5.1066547813
20
18.4585875368
30
0.0000000000
10
5.0806607285
20
18.4551181174
30
0.0000000000
11
5.2242542631
21
18.5148136310
31
0.0000000000
11
5.1565704334
21
18.4755458022
31
0.0000000000
11
5.0806607285
21
18.4551181174
31
0.0000000000
0
SPLINE
5
3F6
100
AcDbEntity
8
0
100
AcDbSpline
62
0
6
CONTINUOUS
70
0
71
3
72
10
73
6
74
4
42
0.0000001000
43
0.0000001000
44
0.0000000001
12
0.1341956046
22
0.2684116509
32
0.0000000000
13
0.3000887779
23
0.0000000000
33
0.0000000000
40
0.0000000000
40
0.0000000000
40
0.0000000000
40
0.0000000000
40
0.1371102732
40
0.5026921164
40
1.0000000000
40
1.0000000000
40
1.0000000000
40
1.0000000000
10
4.5628495186
20
20.2449277994
30
0.0000000000
10
4.5689827173
20
20.2571951310
30
0.0000000000
10
4.6363581323
20
20.2349220654
30
0.0000000000
10
4.7216222761
20
20.2569770599
30
0.0000000000
10
4.8130925905
20
20.2501186222
30
0.0000000000
10
4.8628380955
20
20.2501186222
30
0.0000000000
11
4.5628495186
21
20.2449277994
31
0.0000000000
11
4.6039126027
21
20.2475268526
31
0.0000000000
11
4.7136031936
21
20.2494247459
31
0.0000000000
11
4.8628380955
21
20.2501186222
31
0.0000000000
0
SPLINE
5
3F7
100
AcDbEntity
8
0
100
AcDbSpline
62
0
6
CONTINUOUS
70
0
71
3
72
11
73
7
74
5
42
0.0000001000
43
0.0000001000
44
0.0000000001
12
0.0044088244
22
-0.4391837835
32
0.0000000000
13
0.4392059123
23
0.0000000000
33
0.0000000000
40
0.0000000000
40
0.0000000000
40
0.0000000000
40
0.0000000000
40
0.2028774794
40
0.4290941212
40
0.6900286635
40
1.0000000000
40
1.0000000000
40
1.0000000000
40
1.0000000000
10
4.5523772772
20
19.5132698384
30
0.0000000000
10
4.5526754276
20
19.4835696720
30
0.0000000000
10
4.5660756534
20
19.4202840421
30
0.0000000000
10
4.6249430382
20
19.3351183810
30
0.0000000000
10
4.7245834282
20
19.2693633397
30
0.0000000000
10
4.8092391364
20
19.2524838170
30
0.0000000000
10
4.8546195509
20
19.2524838170
30
0.0000000000
11
4.5523772772
21
19.5132698384
31
0.0000000000
11
4.5705344471
21
19.4260344319
31
0.0000000000
11
4.6261503850
21
19.3437032720
31
0.0000000000
11
4.7212305832
21
19.2797202172
31
0.0000000000
11
4.8546195509
21
19.2524838170
31
0.0000000000
0
SPLINE
5
3F8
100
AcDbEntity
8
0
100
AcDbSpline
62
0
6
CONTINUOUS
70
0
71
3
72
9
73
5
74
3
42
0.0000001000
43
0.0000001000
44
0.0000000001
12
-0.0128530148
22
-0.3469954860
32
0.0000000000
13
-0.0353849028
23
-0.3454257894
33
0.0000000000
40
0.0000000000
40
0.0000000000
40
0.0000000000
40
0.0000000000
40
0.5044154783
40
1.0000000000
40
1.0000000000
40
1.0000000000
40
1.0000000000
10
5.5463572337
20
-15.7939965846
30
0.0000000000
10
5.5441961472
20
-15.8523398826
30
0.0000000000
10
5.5385040648
20
-15.9679727781
30
0.0000000000
10
5.5280767938
20
-16.0832739478
30
0.0000000000
10
5.5222313904
20
-16.1403365060
30
0.0000000000
11
5.5463572337
21
-15.7939965846
31
0.0000000000
11
5.5372490007
21
-15.9689095245
31
0.0000000000
11
5.5222313904
21
-16.1403365060
31
0.0000000000
0
SPLINE
5
3F9
100
AcDbEntity
8
0
100
AcDbSpline
62
0
6
CONTINUOUS
70
0
71
3
72
13
73
9
74
7
42
0.0000001000
43
0.0000001000
44
0.0000000001
12
-0.3693428047
22
0.0136055522
32
0.0000000000
13
0.1109888888
23
-0.3544507281
33
0.0000000000
40
0.0000000000
40
0.0000000000
40
0.0000000000
40
0.0000000000
40
0.1895293410
40
0.3677202729
40
0.5367153915
40
0.7042245283
40
0.8798599735
40
1.0000000000
40
1.0000000000
40
1.0000000000
40
1.0000000000
10
6.0123106563
20
-11.0734336175
30
0.0000000000
10
5.9889768902
20
-11.0725740671
30
0.0000000000
10
5.9430213729
20
-11.0785450459
30
0.0000000000
10
5.8829055899
20
-11.1088133376
30
0.0000000000
10
5.8378286260
20
-11.1550532908
30
0.0000000000
10
5.8104926259
20
-11.2132349069
30
0.0000000000
10
5.8048104332
20
-11.2711474664
30
0.0000000000
10
5.8118540566
20
-11.3074317928
30
0.0000000000
10
5.8162987926
20
-11.3216263661
30
0.0000000000
11
6.0123106563
21
-11.0734336175
31
0.0000000000
11
5.9428710978
21
-11.0826520190
31
0.0000000000
11
5.8841095655
21
-11.1123905769
31
0.0000000000
11
5.8406013891
21
-11.1572037836
31
0.0000000000
11
5.8142880718
21
-11.2132438520
31
0.0000000000
11
5.8078926398
21
-11.2778417245
31
0.0000000000
11
5.8162987926
21
-11.3216263661
31
0.0000000000
0
SPLINE
5
3FA
100
AcDbEntity
8
0
100
AcDbSpline
62
0
6
CONTINUOUS
70
0
71
3
72
8
73
4
74
2
42
0.0000001000
43
0.0000001000
44
0.0000000001
12
0.0027045661
22
-0.0086372196
32
0.0000000000
13
0.0030910571
23
-0.0084922667
33
0.0000000000
40
0.0000000000
40
0.0000000000
40
0.0000000000
40
0.0000000000
40
1.0000000000
40
1.0000000000
40
1.0000000000
40
1.0000000000
10
5.8162987926
20
-11.3216263661
30
0.0000000000
10
5.8172003146
20
-11.3245054393
30
0.0000000000
10
5.8181669900
20
-11.3273621476
30
0.0000000000
10
5.8191973424
20
-11.3301929032
30
0.0000000000
11
5.8162987926
21
-11.3216263661
31
0.0000000000
11
5.8191973424
21
-11.3301929032
31
0.0000000000
0
SPLINE
5
3FB
100
AcDbEntity
8
0
100
AcDbSpline
62
0
6
CONTINUOUS
70
0
71
3
72
8
73
4
74
2
42
0.0000001000
43
0.0000001000
44
0.0000000001
12
0.0050005562
22
-0.0137383606
32
0.0000000000
13
0.0059817049
23
-0.0132852615
33
0.0000000000
40
0.0000000000
40
0.0000000000
40
0.0000000000
40
0.0000000000
40
1.0000000000
40
1.0000000000
40
1.0000000000
40
1.0000000000
10
5.8191973424
20
-11.3301929032
30
0.0000000000
10
5.8208641944
20
-11.3347723567
30
0.0000000000
10
5.8226976965
20
-11.3392838889
30
0.0000000000
10
5.8246915981
20
-11.3437123094
30
0.0000000000
11
5.8191973424
21
-11.3301929032
31
0.0000000000
11
5.8246915981
21
-11.3437123094
31
0.0000000000
0
SPLINE
5
3FC
100
AcDbEntity
8
0
100
AcDbSpline
62
0
6
CONTINUOUS
70
0
71
3
72
13
73
9
74
7
42
0.0000001000
43
0.0000001000
44
0.0000000001
12
-0.1512986351
22
-0.3360316076
32
0.0000000000
13
0.3690533335
23
-0.0301474012
33
0.0000000000
40
0.0000000000
40
0.0000000000
40
0.0000000000
40
0.0000000000
40
0.1831990183
40
0.3581726793
40
0.5258189104
40
0.6949799399
40
0.8746436145
40
1.0000000000
40
1.0000000000
40
1.0000000000
40
1.0000000000
10
5.8246915981
20
-14.7513200565
30
0.0000000000
10
5.8154523443
20
-14.7718402768
30
0.0000000000
10
5.8041215349
20
-14.8154446363
30
0.0000000000
10
5.8103078208
20
-14.8809882796
30
0.0000000000
10
5.8372383047
20
-14.9390997438
30
0.0000000000
10
5.8820670497
20
-14.9856232434
30
0.0000000000
10
5.9349026004
20
-15.0125569387
30
0.0000000000
10
5.9721979036
20
-15.0197841693
30
0.0000000000
10
5.9876189676
20
-15.0210438924
30
0.0000000000
11
5.8246915981
21
-14.7513200565
31
0.0000000000
11
5.8079280478
21
-14.8167186239
31
0.0000000000
11
5.8140448393
21
-14.8809095022
31
0.0000000000
11
5.8400105388
21
-14.9369694344
31
0.0000000000
11
5.8831756587
21
-14.9819471491
31
0.0000000000
11
5.9421016545
21
-15.0121381259
31
0.0000000000
11
5.9876189676
21
-15.0210438924
31
0.0000000000
0
SPLINE
5
3FD
100
AcDbEntity
8
0
100
AcDbSpline
62
0
6
CONTINUOUS
70
0
71
3
72
8
73
4
74
2
42
0.0000001000
43
0.0000001000
44
0.0000000001
12
0.0246824771
22
-0.0020162737
32
0.0000000000
13
0.0246302404
23
0.0009073089
33
0.0000000000
40
0.0000000000
40
0.0000000000
40
0.0000000000
40
0.0000000000
40
1.0000000000
40
1.0000000000
40
1.0000000000
40
1.0000000000
10
5.9876189676
20
-15.0210438924
30
0.0000000000
10
5.9958464600
20
-15.0217159836
30
0.0000000000
10
6.0041005762
20
-15.0219011848
30
0.0000000000
10
6.0123106563
20
-15.0215987485
30
0.0000000000
11
5.9876189676
21
-15.0210438924
31
0.0000000000
11
6.0123106563
21
-15.0215987485
31
0.0000000000
0
SPLINE
5
3FE
100
AcDbEntity
8
0
100
AcDbSpline
62
0
6
CONTINUOUS
70
0
71
3
72
13
73
9
74
7
42
0.0000001000
43
0.0000001000
44
0.0000000001
12
0.3693428047
22
-0.0136055522
32
0.0000000000
13
-0.1109888888
23
0.3544507281
33
0.0000000000
40
0.0000000000
40
0.0000000000
40
0.0000000000
40
0.0000000000
40
0.1895293410
40
0.3677202729
40
0.5367153915
40
0.7042245283
40
0.8798599735
40
1.0000000000
40
1.0000000000
40
1.0000000000
40
1.0000000000
10
-6.1311643381
20
-15.0215987485
30
0.0000000000
10
-6.1078305720
20
-15.0224582989
30
0.0000000000
10
-6.0618750546
20
-15.0164873201
30
0.0000000000
10
-6.0017592716
20
-14.9862190284
30
0.0000000000
10
-5.9566823077
20
-14.9399790752
30
0.0000000000
10
-5.9293463076
20
-14.8817974591
30
0.0000000000
10
-5.9236641149
20
-14.8238848995
30
0.0000000000
10
-5.9307077384
20
-14.7876005732
30
0.0000000000
10
-5.9351524744
20
-14.7734059999
30
0.0000000000
11
-6.1311643381
21
-15.0215987485
31
0.0000000000
11
-6.0617247795
21
-15.0123803470
31
0.0000000000
11
-6.0029632473
21
-14.9826417891
31
0.0000000000
11
-5.9594550709
21
-14.9378285824
31
0.0000000000
11
-5.9331417536
21
-14.8817885140
31
0.0000000000
11
-5.9267463216
21
-14.8171906414
31
0.0000000000
11
-5.9351524744
21
-14.7734059999
31
0.0000000000
0
SPLINE
5
3FF
100
AcDbEntity
8
0
100
AcDbSpline
62
0
6
CONTINUOUS
70
0
71
3
72
8
73
4
74
2
42
0.0000001000
43
0.0000001000
44
0.0000000001
12
-0.0027045661
22
0.0086372196
32
0.0000000000
13
-0.0030910571
23
0.0084922667
33
0.0000000000
40
0.0000000000
40
0.0000000000
40
0.0000000000
40
0.0000000000
40
1.0000000000
40
1.0000000000
40
1.0000000000
40
1.0000000000
10
-5.9351524744
20
-14.7734059999
30
0.0000000000
10
-5.9360539964
20
-14.7705269267
30
0.0000000000
10
-5.9370206717
20
-14.7676702184
30
0.0000000000
10
-5.9380510241
20
-14.7648394628
30
0.0000000000
11
-5.9351524744
21
-14.7734059999
31
0.0000000000
11
-5.9380510241
21
-14.7648394628
31
0.0000000000
0
SPLINE
5
400
100
AcDbEntity
8
0
100
AcDbSpline
62
0
6
CONTINUOUS
70
0
71
3
72
8
73
4
74
2
42
0.0000001000
43
0.0000001000
44
0.0000000001
12
-0.0050005562
22
0.0137383606
32
0.0000000000
13
-0.0059817049
23
0.0132852615
33
0.0000000000
40
0.0000000000
40
0.0000000000
40
0.0000000000
40
0.0000000000
40
1.0000000000
40
1.0000000000
40
1.0000000000
40
1.0000000000
10
-5.9380510241
20
-14.7648394628
30
0.0000000000
10
-5.9397178762
20
-14.7602600093
30
0.0000000000
10
-5.9415513782
20
-14.7557484770
30
0.0000000000
10
-5.9435452799
20
-14.7513200565
30
0.0000000000
11
-5.9380510241
21
-14.7648394628
31
0.0000000000
11
-5.9435452799
21
-14.7513200565
31
0.0000000000
0
SPLINE
5
401
100
AcDbEntity
8
0
100
AcDbSpline
62
0
6
CONTINUOUS
70
0
71
3
72
13
73
9
74
7
42
0.0000001000
43
0.0000001000
44
0.0000000001
12
0.1512986351
22
0.3360316076
32
0.0000000000
13
-0.3690533335
23
0.0301474012
33
0.0000000000
40
0.0000000000
40
0.0000000000
40
0.0000000000
40
0.0000000000
40
0.1831990183
40
0.3581726793
40
0.5258189104
40
0.6949799399
40
0.8746436145
40
1.0000000000
40
1.0000000000
40
1.0000000000
40
1.0000000000
10
-5.9435452799
20
-11.3437123094
30
0.0000000000
10
-5.9343060261
20
-11.3231920892
30
0.0000000000
10
-5.9229752167
20
-11.2795877297
30
0.0000000000
10
-5.9291615026
20
-11.2140440864
30
0.0000000000
10
-5.9560919865
20
-11.1559326222
30
0.0000000000
10
-6.0009207314
20
-11.1094091226
30
0.0000000000
10
-6.0537562821
20
-11.0824754272
30
0.0000000000
10
-6.0910515854
20
-11.0752481967
30
0.0000000000
10
-6.1064726493
20
-11.0739884736
30
0.0000000000
11
-5.9435452799
21
-11.3437123094
31
0.0000000000
11
-5.9267817295
21
-11.2783137421
31
0.0000000000
11
-5.9328985211
21
-11.2141228638
31
0.0000000000
11
-5.9588642206
21
-11.1580629315
31
0.0000000000
11
-6.0020293405
21
-11.1130852168
31
0.0000000000
11
-6.0609553362
21
-11.0828942401
31
0.0000000000
11
-6.1064726493
21
-11.0739884736
31
0.0000000000
0
SPLINE
5
402
100
AcDbEntity
8
0
100
AcDbSpline
62
0
6
CONTINUOUS
70
0
71
3
72
8
73
4
74
2
42
0.0000001000
43
0.0000001000
44
0.0000000001
12
-0.0246824771
22
0.0020162737
32
0.0000000000
13
-0.0246302404
23
-0.0009073089
33
0.0000000000
40
0.0000000000
40
0.0000000000
40
0.0000000000
40
0.0000000000
40
1.0000000000
40
1.0000000000
40
1.0000000000
40
1.0000000000
10
-6.1064726493
20
-11.0739884736
30
0.0000000000
10
-6.1147001417
20
-11.0733163823
30
0.0000000000
10
-6.1229542579
20
-11.0731311812
30
0.0000000000
10
-6.1311643381
20
-11.0734336175
30
0.0000000000
11
-6.1064726493
21
-11.0739884736
31
0.0000000000
11
-6.1311643381
21
-11.0734336175
31
0.0000000000
0
SPLINE
5
403
100
AcDbEntity
8
0
100
AcDbSpline
62
0
6
CONTINUOUS
70
0
71
3
72
10
73
6
74
4
42
0.0000001000
43
0.0000001000
44
0.0000000001
12
0.1155189407
22
-0.0314944834
32
0.0000000000
13
0.0788693517
23
-0.0902481136
33
0.0000000000
40
0.0000000000
40
0.0000000000
40
0.0000000000
40
0.0000000000
40
0.0342225989
40
0.7029193094
40
1.0000000000
40
1.0000000000
40
1.0000000000
40
1.0000000000
10
-3.9250343452
20
3.1167354500
30
0.0000000000
10
-3.9237165591
20
3.1163761756
30
0.0000000000
10
-3.8966801757
20
3.1088156783
30
0.0000000000
10
-3.8591432538
20
3.0925547577
30
0.0000000000
10
-3.8312972988
20
3.0658999967
30
0.0000000000
10
-3.8234871116
20
3.0569630060
30
0.0000000000
11
-3.9250343452
21
3.1167354500
31
0.0000000000
11
-3.9210854946
21
3.1156308167
31
0.0000000000
11
-3.8492239974
21
3.0812622745
31
0.0000000000
11
-3.8234871116
21
3.0569630060
31
0.0000000000
0
SPLINE
5
404
100
AcDbEntity
8
0
100
AcDbSpline
62
0
6
CONTINUOUS
70
0
71
3
72
9
73
5
74
3
42
0.0000001000
43
0.0000001000
44
0.0000000001
12
0.4632109998
22
-0.0013272478
32
0.0000000000
13
0.4632109939
23
-0.0013293026
33
0.0000000000
40
0.0000000000
40
0.0000000000
40
0.0000000000
40
0.0000000000
40
0.3853069766
40
1.0000000000
40
1.0000000000
40
1.0000000000
40
1.0000000000
10
-7.5226378374
20
-20.3961878120
30
0.0000000000
10
-7.4631450275
20
-20.3963582779
30
0.0000000000
10
-7.3087413614
20
-20.3968008678
30
0.0000000000
10
-7.1543376963
20
-20.3972438120
30
0.0000000000
10
-7.0594268409
20
-20.3975161830
30
0.0000000000
11
-7.5226378374
21
-20.3961878120
31
0.0000000000
11
-7.3441594081
21
-20.3966993964
31
0.0000000000
11
-7.0594268409
21
-20.3975161830
31
0.0000000000
0
SPLINE
5
405
100
AcDbEntity
8
0
100
AcDbSpline
62
0
6
CONTINUOUS
70
0
71
3
72
9
73
5
74
3
42
0.0000001000
43
0.0000001000
44
0.0000000001
12
-0.4632109998
22
0.0013272478
32
0.0000000000
13
-0.4632109939
23
0.0013293026
33
0.0000000000
40
0.0000000000
40
0.0000000000
40
0.0000000000
40
0.0000000000
40
0.3853069766
40
1.0000000000
40
1.0000000000
40
1.0000000000
40
1.0000000000
10
7.4037841557
20
20.3011554460
30
0.0000000000
10
7.3442913457
20
20.3013259119
30
0.0000000000
10
7.1898876796
20
20.3017685018
30
0.0000000000
10
7.0354840146
20
20.3022114460
30
0.0000000000
10
6.9405731591
20
20.3024838170
30
0.0000000000
11
7.4037841557
21
20.3011554460
31
0.0000000000
11
7.2253057263
21
20.3016670305
31
0.0000000000
11
6.9405731591
21
20.3024838170
31
0.0000000000
0
SPLINE
5
406
100
AcDbEntity
8
0
100
AcDbSpline
62
0
6
CONTINUOUS
70
0
71
3
72
8
73
4
74
2
42
0.0000001000
43
0.0000001000
44
0.0000000001
12
-0.0520499026
22
0.0000000000
32
0.0000000000
13
-0.0517852511
23
0.0092540774
33
0.0000000000
40
0.0000000000
40
0.0000000000
40
0.0000000000
40
0.0000000000
40
1.0000000000
40
1.0000000000
40
1.0000000000
40
1.0000000000
10
4.8523658542
20
18.4524838170
30
0.0000000000
10
4.8350158866
20
18.4524838170
30
0.0000000000
10
4.8175542402
20
18.4540637111
30
0.0000000000
10
4.8002924898
20
18.4571484036
30
0.0000000000
11
4.8523658542
21
18.4524838170
31
0.0000000000
11
4.8002924898
21
18.4571484036
31
0.0000000000
0
SPLINE
5
407
100
AcDbEntity
8
0
100
AcDbSpline
62
0
6
CONTINUOUS
70
0
71
3
72
9
73
5
74
3
42
0.0000001000
43
0.0000001000
44
0.0000000001
12
-0.2057271791
22
0.0367636576
32
0.0000000000
13
-0.1343836437
23
0.1601691621
33
0.0000000000
40
0.0000000000
40
0.0000000000
40
0.0000000000
40
0.0000000000
40
0.4992587610
40
1.0000000000
40
1.0000000000
40
1.0000000000
40
1.0000000000
10
4.8002924898
20
18.4571484036
30
0.0000000000
10
4.7660554576
20
18.4632665963
30
0.0000000000
10
4.6990548055
20
18.4873781588
30
0.0000000000
10
4.6449621293
20
18.5328882478
30
0.0000000000
10
4.6225316519
20
18.5596226827
30
0.0000000000
11
4.8002924898
21
18.4571484036
31
0.0000000000
11
4.7023715657
21
18.4926761959
31
0.0000000000
11
4.6225316519
21
18.5596226827
31
0.0000000000
0
SPLINE
5
408
100
AcDbEntity
8
0
100
AcDbSpline
62
0
6
CONTINUOUS
70
0
71
3
72
9
73
5
74
3
42
0.0000001000
43
0.0000001000
44
0.0000000001
12
-0.1007234916
22
0.1200503039
32
0.0000000000
13
-0.0275529456
23
0.1541972305
33
0.0000000000
40
0.0000000000
40
0.0000000000
40
0.0000000000
40
0.0000000000
40
0.3338767931
40
1.0000000000
40
1.0000000000
40
1.0000000000
40
1.0000000000
10
4.6225316519
20
18.5596226827
30
0.0000000000
10
4.6113219065
20
18.5729833529
30
0.0000000000
10
4.5812302782
20
18.6159516529
30
0.0000000000
10
4.5631595282
20
18.6661703411
30
0.0000000000
10
4.5570416427
20
18.7004084590
30
0.0000000000
11
4.6225316519
21
18.5596226827
31
0.0000000000
11
4.5925681257
21
18.6024838170
31
0.0000000000
11
4.5570416427
21
18.7004084590
31
0.0000000000
0
SPLINE
5
409
100
AcDbEntity
8
0
100
AcDbSpline
62
0
6
CONTINUOUS
70
0
71
3
72
8
73
4
74
2
42
0.0000001000
43
0.0000001000
44
0.0000000001
12
-0.0046138457
22
0.0258209135
32
0.0000000000
13
-0.0023414663
23
0.0260031960
33
0.0000000000
40
0.0000000000
40
0.0000000000
40
0.0000000000
40
0.0000000000
40
1.0000000000
40
1.0000000000
40
1.0000000000
40
1.0000000000
10
4.5570416427
20
18.7004084590
30
0.0000000000
10
4.5555036941
20
18.7090154302
30
0.0000000000
10
4.5543398243
20
18.7176720904
30
0.0000000000
10
4.5535593356
20
18.7263398224
30
0.0000000000
11
4.5570416427
21
18.7004084590
31
0.0000000000
11
4.5535593356
21
18.7263398224
31
0.0000000000
0
SPLINE
5
40A
100
AcDbEntity
8
0
100
AcDbSpline
62
0
6
CONTINUOUS
70
0
71
3
72
8
73
4
74
2
42
0.0000001000
43
0.0000001000
44
0.0000000001
12
-0.0023546563
22
0.0261496775
32
0.0000000000
13
0.0000000000
23
0.0260990382
33
0.0000000000
40
0.0000000000
40
0.0000000000
40
0.0000000000
40
0.0000000000
40
1.0000000000
40
1.0000000000
40
1.0000000000
40
1.0000000000
10
4.5535593356
20
18.7263398224
30
0.0000000000
10
4.5527744501
20
18.7350563815
30
0.0000000000
10
4.5523772772
20
18.7437841376
30
0.0000000000
10
4.5523772772
20
18.7524838170
30
0.0000000000
11
4.5535593356
21
18.7263398224
31
0.0000000000
11
4.5523772772
21
18.7524838170
31
0.0000000000
0
SPLINE
5
40B
100
AcDbEntity
8
0
100
AcDbSpline
62
0
6
CONTINUOUS
70
0
71
3
72
8
73
4
74
2
42
0.0000001000
43
0.0000001000
44
0.0000000001
12
0.0922044916
22
-0.0116066010
32
0.0000000000
13
0.0918969236
23
-0.0139384319
33
0.0000000000
40
0.0000000000
40
0.0000000000
40
0.0000000000
40
0.0000000000
40
1.0000000000
40
1.0000000000
40
1.0000000000
40
1.0000000000
10
-4.0631388228
20
3.1368078170
30
0.0000000000
10
-4.0324039923
20
3.1329389500
30
0.0000000000
10
-4.0013614594
20
3.1307751762
30
0.0000000000
10
-3.9707291515
20
3.1261290323
30
0.0000000000
11
-4.0631388228
21
3.1368078170
31
0.0000000000
11
-3.9707291515
21
3.1261290323
31
0.0000000000
0
SPLINE
5
40C
100
AcDbEntity
8
0
100
AcDbSpline
62
0
6
CONTINUOUS
70
0
71
3
72
8
73
4
74
2
42
0.0000001000
43
0.0000001000
44
0.0000000001
12
0.0460950437
22
-0.0069914487
32
0.0000000000
13
0.0452039662
23
-0.0123241743
33
0.0000000000
40
0.0000000000
40
0.0000000000
40
0.0000000000
40
0.0000000000
40
1.0000000000
40
1.0000000000
40
1.0000000000
40
1.0000000000
10
-3.9707291515
20
3.1261290323
30
0.0000000000
10
-3.9553641369
20
3.1237985494
30
0.0000000000
10
-3.9401023340
20
3.1208435081
30
0.0000000000
10
-3.9250343452
20
3.1167354500
30
0.0000000000
11
-3.9707291515
21
3.1261290323
31
0.0000000000
11
-3.9250343452
21
3.1167354500
31
0.0000000000
0
SPLINE
5
40D
100
AcDbEntity
8
0
100
AcDbSpline
62
0
6
CONTINUOUS
70
0
71
3
72
9
73
5
74
3
42
0.0000001000
43
0.0000001000
44
0.0000000001
12
0.0866203879
22
-0.0764494095
32
0.0000000000
13
0.0402668576
23
-0.1087869447
33
0.0000000000
40
0.0000000000
40
0.0000000000
40
0.0000000000
40
0.0000000000
40
0.6041179728
40
1.0000000000
40
1.0000000000
40
1.0000000000
40
1.0000000000
10
-3.8403130388
20
3.0739296705
30
0.0000000000
10
-3.8228700611
20
3.0585348497
30
0.0000000000
10
-3.7990318848
20
3.0270098318
30
0.0000000000
10
-3.7826887303
20
2.9917512668
30
0.0000000000
10
-3.7773750886
20
2.9773956681
30
0.0000000000
11
-3.8403130388
21
3.0739296705
31
0.0000000000
11
-3.7968032917
21
3.0190826000
31
0.0000000000
11
-3.7773750886
21
2.9773956681
31
0.0000000000
0
SPLINE
5
40E
100
AcDbEntity
8
0
100
AcDbSpline
62
0
6
CONTINUOUS
70
0
71
3
72
9
73
5
74
3
42
0.0000001000
43
0.0000001000
44
0.0000000001
12
0.0310080065
22
-0.0837727722
32
0.0000000000
13
0.0067547905
23
-0.0888554376
33
0.0000000000
40
0.0000000000
40
0.0000000000
40
0.0000000000
40
0.0000000000
40
0.5629460289
40
1.0000000000
40
1.0000000000
40
1.0000000000
40
1.0000000000
10
-3.7773750886
20
2.9773956681
30
0.0000000000
10
-3.7715564772
20
2.9616758183
30
0.0000000000
10
-3.7636834796
20
2.9329051549
30
0.0000000000
10
-3.7601097828
20
2.9034089293
30
0.0000000000
10
-3.7591257135
20
2.8904640554
30
0.0000000000
11
-3.7773750886
21
2.9773956681
31
0.0000000000
11
-3.7640548155
21
2.9290532203
31
0.0000000000
11
-3.7591257135
21
2.8904640554
31
0.0000000000
0
SPLINE
5
40F
100
AcDbEntity
8
0
100
AcDbSpline
62
0
6
CONTINUOUS
70
0
71
3
72
8
73
4
74
2
42
0.0000001000
43
0.0000001000
44
0.0000000001
12
0.0032826678
22
-0.0431816326
32
0.0000000000
13
0.0000000000
23
-0.0432267639
33
0.0000000000
40
0.0000000000
40
0.0000000000
40
0.0000000000
40
0.0000000000
40
1.0000000000
40
1.0000000000
40
1.0000000000
40
1.0000000000
10
-3.7591257135
20
2.8904640554
30
0.0000000000
10
-3.7580314909
20
2.8760701779
30
0.0000000000
10
-3.7576516977
20
2.8616102376
30
0.0000000000
10
-3.7576516977
20
2.8472013163
30
0.0000000000
11
-3.7591257135
21
2.8904640554
31
0.0000000000
11
-3.7576516977
21
2.8472013163
31
0.0000000000
0
SPLINE
5
410
100
AcDbEntity
8
0
100
AcDbSpline
62
0
6
CONTINUOUS
70
0
71
3
72
8
73
4
74
2
42
0.0000001000
43
0.0000001000
44
0.0000000001
12
0.0000000000
22
-0.0418559742
32
0.0000000000
13
-0.0030479232
23
-0.0418241032
33
0.0000000000
40
0.0000000000
40
0.0000000000
40
0.0000000000
40
0.0000000000
40
1.0000000000
40
1.0000000000
40
1.0000000000
40
1.0000000000
10
-3.7576516977
20
2.8472013163
30
0.0000000000
10
-3.7576516977
20
2.8332493249
30
0.0000000000
10
-3.7580077851
20
2.8192494989
30
0.0000000000
10
-3.7590237595
20
2.8053081312
30
0.0000000000
11
-3.7576516977
21
2.8472013163
31
0.0000000000
11
-3.7590237595
21
2.8053081312
31
0.0000000000
0
SPLINE
5
411
100
AcDbEntity
8
0
100
AcDbSpline
62
0
6
CONTINUOUS
70
0
71
3
72
9
73
5
74
3
42
0.0000001000
43
0.0000001000
44
0.0000000001
12
-0.0059828517
22
-0.0820976758
32
0.0000000000
13
-0.0264206246
23
-0.0781117798
33
0.0000000000
40
0.0000000000
40
0.0000000000
40
0.0000000000
40
0.0000000000
40
0.4898476605
40
1.0000000000
40
1.0000000000
40
1.0000000000
40
1.0000000000
10
-3.7590237595
20
2.8053081312
30
0.0000000000
10
-3.7600006548
20
2.7919030131
30
0.0000000000
10
-3.7632404253
20
2.7646474565
30
0.0000000000
10
-3.7701483352
20
2.7380109456
30
0.0000000000
10
-3.7746411831
20
2.7247279765
30
0.0000000000
11
-3.7590237595
21
2.8053081312
31
0.0000000000
11
-3.7640548155
21
2.7653494123
31
0.0000000000
11
-3.7746411831
21
2.7247279765
31
0.0000000000
0
SPLINE
5
412
100
AcDbEntity
8
0
100
AcDbSpline
62
0
6
CONTINUOUS
70
0
71
3
72
9
73
5
74
3
42
0.0000001000
43
0.0000001000
44
0.0000000001
12
-0.0266672289
22
-0.0788408580
32
0.0000000000
13
-0.0498970666
23
-0.0673006806
33
0.0000000000
40
0.0000000000
40
0.0000000000
40
0.0000000000
40
0.0000000000
40
0.6498038162
40
1.0000000000
40
1.0000000000
40
1.0000000000
40
1.0000000000
10
-3.7746411831
20
2.7247279765
30
0.0000000000
10
-3.7804173388
20
2.7076509464
30
0.0000000000
10
-3.7917705752
20
2.6821482685
30
0.0000000000
10
-3.8069869721
20
2.6585699733
30
0.0000000000
10
-3.8128115596
20
2.6507138261
30
0.0000000000
11
-3.7746411831
21
2.7247279765
31
0.0000000000
11
-3.7968032917
21
2.6753200325
31
0.0000000000
11
-3.8128115596
21
2.6507138261
31
0.0000000000
0
SPLINE
5
413
100
AcDbEntity
8
0
100
AcDbSpline
62
0
6
CONTINUOUS
70
0
71
3
72
10
73
6
74
4
42
0.0000001000
43
0.0000001000
44
0.0000000001
12
-0.1150218001
22
-0.1551402909
32
0.0000000000
13
-0.1894597934
23
-0.0260779698
33
0.0000000000
40
0.0000000000
40
0.0000000000
40
0.0000000000
40
0.0000000000
40
0.2735231337
40
0.6902231044
40
1.0000000000
40
1.0000000000
40
1.0000000000
40
1.0000000000
10
-3.8128115596
20
2.6507138261
30
0.0000000000
10
-3.8232986006
20
2.6365690066
30
0.0000000000
10
-3.8538184960
20
2.6041545494
30
0.0000000000
10
-3.9140556401
20
2.5780599373
30
0.0000000000
10
-3.9596071206
20
2.5697469834
30
0.0000000000
10
-3.9791705428
20
2.5670541992
30
0.0000000000
11
-3.8128115596
21
2.6507138261
31
0.0000000000
11
-3.8492239974
21
2.6131403581
31
0.0000000000
11
-3.9210854946
21
2.5787718159
31
0.0000000000
11
-3.9791705428
21
2.5670541992
31
0.0000000000
0
SPLINE
5
414
100
AcDbEntity
8
0
100
AcDbSpline
62
0
6
CONTINUOUS
70
0
71
3
72
8
73
4
74
2
42
0.0000001000
43
0.0000001000
44
0.0000000001
12
-0.0836539689
22
-0.0115144519
32
0.0000000000
13
-0.0837446749
23
-0.0105416873
33
0.0000000000
40
0.0000000000
40
0.0000000000
40
0.0000000000
40
0.0000000000
40
1.0000000000
40
1.0000000000
40
1.0000000000
40
1.0000000000
10
-3.9791705428
20
2.5670541992
30
0.0000000000
10
-4.0070551991
20
2.5632160486
30
0.0000000000
10
-4.0352239196
20
2.5611087128
30
0.0000000000
10
-4.0631388112
20
2.5575948170
30
0.0000000000
11
-3.9791705428
21
2.5670541992
31
0.0000000000
11
-4.0631388112
21
2.5575948170
31
0.0000000000
0
SPLINE
5
415
100
AcDbEntity
8
0
100
AcDbSpline
62
0
6
CONTINUOUS
70
0
71
3
72
8
73
4
74
2
42
0.0000001000
43
0.0000001000
44
0.0000000001
12
0.0587025517
22
0.0021755936
32
0.0000000000
13
0.0587369971
23
0.0019534323
33
0.0000000000
40
0.0000000000
40
0.0000000000
40
0.0000000000
40
0.0000000000
40
1.0000000000
40
1.0000000000
40
1.0000000000
40
1.0000000000
10
-4.1326802383
20
2.2169188170
30
0.0000000000
10
-4.1131127211
20
2.2176440149
30
0.0000000000
10
-4.0935337566
20
2.2182624080
30
0.0000000000
10
-4.0739547576
20
2.2189135521
30
0.0000000000
11
-4.1326802383
21
2.2169188170
31
0.0000000000
11
-4.0739547576
21
2.2189135521
31
0.0000000000
0
SPLINE
5
416
100
AcDbEntity
8
0
100
AcDbSpline
62
0
6
CONTINUOUS
70
0
71
3
72
8
73
4
74
2
42
0.0000001000
43
0.0000001000
44
0.0000000001
12
0.1658409780
22
0.0055154186
32
0.0000000000
13
0.1650719951
23
0.0165053719
33
0.0000000000
40
0.0000000000
40
0.0000000000
40
0.0000000000
40
0.0000000000
40
1.0000000000
40
1.0000000000
40
1.0000000000
40
1.0000000000
10
-4.0739547576
20
2.2189135521
30
0.0000000000
10
-4.0186744316
20
2.2207520250
30
0.0000000000
10
-3.9633938301
20
2.2228515844
30
0.0000000000
10
-3.9083698318
20
2.2283533750
30
0.0000000000
11
-4.0739547576
21
2.2189135521
31
0.0000000000
11
-3.9083698318
21
2.2283533750
31
0.0000000000
0
SPLINE
5
417
100
AcDbEntity
8
0
100
AcDbSpline
62
0
6
CONTINUOUS
70
0
71
3
72
8
73
4
74
2
42
0.0000001000
43
0.0000001000
44
0.0000000001
12
0.0517165343
22
0.0051710809
32
0.0000000000
13
0.0514983982
23
0.0072764733
33
0.0000000000
40
0.0000000000
40
0.0000000000
40
0.0000000000
40
0.0000000000
40
1.0000000000
40
1.0000000000
40
1.0000000000
40
1.0000000000
10
-3.9083698318
20
2.2283533750
30
0.0000000000
10
-3.8911309870
20
2.2300770686
30
0.0000000000
10
-3.8739169484
20
2.2321363608
30
0.0000000000
10
-3.8567508157
20
2.2345618519
30
0.0000000000
11
-3.9083698318
21
2.2283533750
31
0.0000000000
11
-3.8567508157
21
2.2345618519
31
0.0000000000
0
SPLINE
5
418
100
AcDbEntity
8
0
100
AcDbSpline
62
0
6
CONTINUOUS
70
0
71
3
72
9
73
5
74
3
42
0.0000001000
43
0.0000001000
44
0.0000000001
12
0.1876570665
22
0.0265150313
32
0.0000000000
13
0.1801712170
23
0.0603586284
33
0.0000000000
40
0.0000000000
40
0.0000000000
40
0.0000000000
40
0.0000000000
40
0.8037357841
40
1.0000000000
40
1.0000000000
40
1.0000000000
40
1.0000000000
10
-3.8567508157
20
2.2345618519
30
0.0000000000
10
-3.8064752492
20
2.2416655450
30
0.0000000000
10
-3.7444342669
20
2.2544115753
30
0.0000000000
10
-3.6839290684
20
2.2732042611
30
0.0000000000
10
-3.6721420142
20
2.2771530074
30
0.0000000000
11
-3.8567508157
21
2.2345618519
31
0.0000000000
11
-3.7077382369
21
2.2660605126
31
0.0000000000
11
-3.6721420142
21
2.2771530074
31
0.0000000000
0
SPLINE
5
419
100
AcDbEntity
8
0
100
AcDbSpline
62
0
6
CONTINUOUS
70
0
71
3
72
8
73
4
74
2
42
0.0000001000
43
0.0000001000
44
0.0000000001
12
0.0801610617
22
0.0268545210
32
0.0000000000
13
0.0764429166
23
0.0358451320
33
0.0000000000
40
0.0000000000
40
0.0000000000
40
0.0000000000
40
0.0000000000
40
1.0000000000
40
1.0000000000
40
1.0000000000
40
1.0000000000
10
-3.6721420142
20
2.2771530074
30
0.0000000000
10
-3.6454216603
20
2.2861045144
30
0.0000000000
10
-3.6191532822
20
2.2963942772
30
0.0000000000
10
-3.5936723100
20
2.3083426545
30
0.0000000000
11
-3.6721420142
21
2.2771530074
31
0.0000000000
11
-3.5936723100
21
2.3083426545
31
0.0000000000
0
SPLINE
5
41A
100
AcDbEntity
8
0
100
AcDbSpline
62
0
6
CONTINUOUS
70
0
71
3
72
9
73
5
74
3
42
0.0000001000
43
0.0000001000
44
0.0000000001
12
0.0720562213
22
0.0337881504
32
0.0000000000
13
0.0669961196
23
0.0433925074
33
0.0000000000
40
0.0000000000
40
0.0000000000
40
0.0000000000
40
0.0000000000
40
0.7982856733
40
1.0000000000
40
1.0000000000
40
1.0000000000
40
1.0000000000
10
-3.5936723100
20
2.3083426545
30
0.0000000000
10
-3.5744984937
20
2.3173335199
30
0.0000000000
10
-3.5510382561
20
2.3297726835
30
0.0000000000
10
-3.5285019122
20
2.3438997527
30
0.0000000000
10
-3.5239972198
20
2.3468173829
30
0.0000000000
11
-3.5936723100
21
2.3083426545
31
0.0000000000
11
-3.5376313111
21
2.3382691668
31
0.0000000000
11
-3.5239972198
21
2.3468173829
31
0.0000000000
0
SPLINE
5
41B
100
AcDbEntity
8
0
100
AcDbSpline
62
0
6
CONTINUOUS
70
0
71
3
72
10
73
6
74
4
42
0.0000001000
43
0.0000001000
44
0.0000000001
12
0.0900655880
22
0.2457090577
32
0.0000000000
13
0.0000000000
23
0.2600733183
33
0.0000000000
40
0.0000000000
40
0.0000000000
40
0.0000000000
40
0.0000000000
40
0.1173677502
40
0.5318453964
40
1.0000000000
40
1.0000000000
40
1.0000000000
40
1.0000000000
10
-3.3293904908
20
2.5912351938
30
0.0000000000
10
-3.3258668923
20
2.6008479669
30
0.0000000000
10
-3.3111078618
20
2.6448114810
30
0.0000000000
10
-3.2935453802
20
2.7299143340
30
0.0000000000
10
-3.2891440512
20
2.8066164759
30
0.0000000000
10
-3.2891440512
20
2.8472013163
30
0.0000000000
11
-3.3293904908
21
2.5912351938
31
0.0000000000
11
-3.3196167205
21
2.6203149359
31
0.0000000000
11
-3.2969357970
21
2.7256963693
31
0.0000000000
11
-3.2891440512
21
2.8472013163
31
0.0000000000
0
SPLINE
5
41C
100
AcDbEntity
8
0
100
AcDbSpline
62
0
6
CONTINUOUS
70
0
71
3
72
9
73
5
74
3
42
0.0000001000
43
0.0000001000
44
0.0000000001
12
0.0000000000
22
0.1348716125
32
0.0000000000
13
-0.0204184265
23
0.1333705911
33
0.0000000000
40
0.0000000000
40
0.0000000000
40
0.0000000000
40
0.0000000000
40
0.9027438689
40
1.0000000000
40
1.0000000000
40
1.0000000000
40
1.0000000000
10
-3.2891440512
20
2.8472013163
30
0.0000000000
10
-3.2891440512
20
2.8877861567
30
0.0000000000
10
-3.2917300528
20
2.9328525135
30
0.0000000000
10
-3.2981479031
20
2.9773708000
30
0.0000000000
10
-3.2988098421
20
2.9816945025
30
0.0000000000
11
-3.2891440512
21
2.8472013163
31
0.0000000000
11
-3.2969357970
21
2.9687062633
31
0.0000000000
11
-3.2988098421
21
2.9816945025
31
0.0000000000
0
SPLINE
5
41D
100
AcDbEntity
8
0
100
AcDbSpline
62
0
6
CONTINUOUS
70
0
71
3
72
10
73
6
74
4
42
0.0000001000
43
0.0000001000
44
0.0000000001
12
-0.0463084585
22
0.3024810206
32
0.0000000000
13
-0.2031437236
23
0.2303874033
33
0.0000000000
40
0.0000000000
40
0.0000000000
40
0.0000000000
40
0.0000000000
40
0.3095195690
40
0.9227937743
40
1.0000000000
40
1.0000000000
40
1.0000000000
40
1.0000000000
10
-3.2988098421
20
2.9816945025
30
0.0000000000
10
-3.3035876335
20
3.0129024342
30
0.0000000000
10
-3.3236975892
20
3.1050171107
30
0.0000000000
10
-3.3699434435
20
3.1989806258
30
0.0000000000
10
-3.4153015052
20
3.2532163264
30
0.0000000000
10
-3.4205294919
20
3.2591454403
30
0.0000000000
11
-3.2988098421
21
2.9816945025
31
0.0000000000
11
-3.3196167205
21
3.0740876967
31
0.0000000000
11
-3.4053259244
21
3.2409544906
31
0.0000000000
11
-3.4205294919
21
3.2591454403
31
0.0000000000
0
SPLINE
5
41E
100
AcDbEntity
8
0
100
AcDbSpline
62
0
6
CONTINUOUS
70
0
71
3
72
8
73
4
74
2
42
0.0000001000
43
0.0000001000
44
0.0000000001
12
-0.0901440685
22
0.1022333227
32
0.0000000000
13
-0.1145101920
23
0.0741808376
33
0.0000000000
40
0.0000000000
40
0.0000000000
40
0.0000000000
40
0.0000000000
40
1.0000000000
40
1.0000000000
40
1.0000000000
40
1.0000000000
10
-3.4205294919
20
3.2591454403
30
0.0000000000
10
-3.4505775147
20
3.2932232146
30
0.0000000000
10
-3.4857876089
20
3.3228326873
30
0.0000000000
10
-3.5239576729
20
3.3475596332
30
0.0000000000
11
-3.4205294919
21
3.2591454403
31
0.0000000000
11
-3.5239576729
21
3.3475596332
31
0.0000000000
0
SPLINE
5
41F
100
AcDbEntity
8
0
100
AcDbSpline
62
0
6
CONTINUOUS
70
0
71
3
72
9
73
5
74
3
42
0.0000001000
43
0.0000001000
44
0.0000000001
12
-0.0567622025
22
0.0367711175
32
0.0000000000
13
-0.0604905990
23
0.0297929555
33
0.0000000000
40
0.0000000000
40
0.0000000000
40
0.0000000000
40
0.0000000000
40
0.2387662701
40
1.0000000000
40
1.0000000000
40
1.0000000000
40
1.0000000000
10
-3.5239576729
20
3.3475596332
30
0.0000000000
10
-3.5284753060
20
3.3504862007
30
0.0000000000
10
-3.5475696964
20
3.3624567906
30
0.0000000000
10
-3.5673273528
20
3.3732156281
30
0.0000000000
10
-3.5826765142
20
3.3807754290
30
0.0000000000
11
-3.5239576729
21
3.3475596332
31
0.0000000000
11
-3.5376313111
21
3.3561334657
31
0.0000000000
11
-3.5826765142
21
3.3807754290
31
0.0000000000
0
SPLINE
5
420
100
AcDbEntity
8
0
100
AcDbSpline
62
0
6
CONTINUOUS
70
0
71
3
72
9
73
5
74
3
42
0.0000001000
43
0.0000001000
44
0.0000000001
12
-0.2251894753
22
0.1109107884
32
0.0000000000
13
-0.2471437008
23
0.0424701227
33
0.0000000000
40
0.0000000000
40
0.0000000000
40
0.0000000000
40
0.0000000000
40
0.5333030399
40
1.0000000000
40
1.0000000000
40
1.0000000000
40
1.0000000000
10
-3.5826765142
20
3.3807754290
30
0.0000000000
10
-3.6227079248
20
3.4004917825
30
0.0000000000
10
-3.7017117573
20
3.4294243913
30
0.0000000000
10
-3.7834030421
20
3.4477760203
30
0.0000000000
10
-3.8218501134
20
3.4543829127
30
0.0000000000
11
-3.5826765142
21
3.3807754290
31
0.0000000000
11
-3.7077382369
21
3.4283421200
31
0.0000000000
11
-3.8218501134
21
3.4543829127
31
0.0000000000
0
SPLINE
5
421
100
AcDbEntity
8
0
100
AcDbSpline
62
0
6
CONTINUOUS
70
0
71
3
72
9
73
5
74
3
42
0.0000001000
43
0.0000001000
44
0.0000000001
12
-0.2581236042
22
0.0443569515
32
0.0000000000
13
-0.2615754973
23
0.0086118352
33
0.0000000000
40
0.0000000000
40
0.0000000000
40
0.0000000000
40
0.0000000000
40
0.3282894820
40
1.0000000000
40
1.0000000000
40
1.0000000000
40
1.0000000000
10
-3.8218501134
20
3.4543829127
30
0.0000000000
10
-3.8500965348
20
3.4592368862
30
0.0000000000
10
-3.9366671500
20
3.4708036761
30
0.0000000000
10
-4.0238814301
20
3.4738417275
30
0.0000000000
10
-4.0824491010
20
3.4757699476
30
0.0000000000
11
-3.8218501134
21
3.4543829127
31
0.0000000000
11
-3.9070063500
21
3.4659122210
31
0.0000000000
11
-4.0824491010
21
3.4757699476
31
0.0000000000
0
SPLINE
5
422
100
AcDbEntity
8
0
100
AcDbSpline
62
0
6
CONTINUOUS
70
0
71
3
72
8
73
4
74
2
42
0.0000001000
43
0.0000001000
44
0.0000000001
12
-0.0502420184
22
0.0016541151
32
0.0000000000
13
-0.0502131925
23
0.0018609672
33
0.0000000000
40
0.0000000000
40
0.0000000000
40
0.0000000000
40
0.0000000000
40
1.0000000000
40
1.0000000000
40
1.0000000000
40
1.0000000000
10
-4.0824491010
20
3.4757699476
30
0.0000000000
10
-4.0991964405
20
3.4763213193
30
0.0000000000
10
-4.1159425471
20
3.4768634946
30
0.0000000000
10
-4.1326802779
20
3.4774838170
30
0.0000000000
11
-4.0824491010
21
3.4757699476
31
0.0000000000
11
-4.1326802779
21
3.4774838170
31
0.0000000000
0
SPLINE
5
423
100
AcDbEntity
8
0
100
AcDbSpline
62
0
6
CONTINUOUS
70
0
71
3
72
8
73
4
74
2
42
0.0000001000
43
0.0000001000
44
0.0000000001
12
0.1410266807
22
-0.0000152493
32
0.0000000000
13
0.1410266627
23
0.0000899271
33
0.0000000000
40
0.0000000000
40
0.0000000000
40
0.0000000000
40
0.0000000000
40
1.0000000000
40
1.0000000000
40
1.0000000000
40
1.0000000000
10
-4.2141889917
20
-20.3005491828
30
0.0000000000
10
-4.1671800981
20
-20.3005542659
30
0.0000000000
10
-4.1201712032
20
-20.3005383025
30
0.0000000000
10
-4.0731623156
20
-20.3005083268
30
0.0000000000
11
-4.2141889917
21
-20.3005491828
31
0.0000000000
11
-4.0731623156
21
-20.3005083268
31
0.0000000000
0
SPLINE
5
424
100
AcDbEntity
8
0
100
AcDbSpline
62
0
6
CONTINUOUS
70
0
71
3
72
9
73
5
74
3
42
0.0000001000
43
0.0000001000
44
0.0000000001
12
0.2167209644
22
0.0001381943
32
0.0000000000
13
0.2167207951
23
0.0002937839
33
0.0000000000
40
0.0000000000
40
0.0000000000
40
0.0000000000
40
0.0000000000
40
0.3301895020
40
1.0000000000
40
1.0000000000
40
1.0000000000
40
1.0000000000
10
-4.0731623156
20
-20.3005083268
30
0.0000000000
10
-4.0493093198
20
-20.3004931167
30
0.0000000000
10
-3.9770690041
20
-20.3004361256
30
0.0000000000
10
-3.9048287163
20
-20.3003544723
30
0.0000000000
10
-3.8564414284
20
-20.3002888791
30
0.0000000000
11
-4.0731623156
21
-20.3005083268
31
0.0000000000
11
-4.0016033351
21
-20.3004527922
31
0.0000000000
11
-3.8564414284
21
-20.3002888791
31
0.0000000000
0
SPLINE
5
425
100
AcDbEntity
8
0
100
AcDbSpline
62
0
6
CONTINUOUS
70
0
71
3
72
8
73
4
74
2
42
0.0000001000
43
0.0000001000
44
0.0000000001
12
0.0736976386
22
0.0000999036
32
0.0000000000
13
0.0736976139
23
0.0001166976
33
0.0000000000
40
0.0000000000
40
0.0000000000
40
0.0000000000
40
0.0000000000
40
1.0000000000
40
1.0000000000
40
1.0000000000
40
1.0000000000
10
-3.8564414284
20
-20.3002888791
30
0.0000000000
10
-3.8318755489
20
-20.3002555779
30
0.0000000000
10
-3.8073096733
20
-20.3002194670
30
0.0000000000
10
-3.7827438020
20
-20.3001805678
30
0.0000000000
11
-3.8564414284
21
-20.3002888791
31
0.0000000000
11
-3.7827438020
21
-20.3001805678
31
0.0000000000
0
SPLINE
5
426
100
AcDbEntity
8
0
100
AcDbSpline
62
0
6
CONTINUOUS
70
0
71
3
72
8
73
4
74
2
42
0.0000001000
43
0.0000001000
44
0.0000000001
12
0.1947448307
22
0.0003083718
32
0.0000000000
13
0.1947446489
23
0.0004080092
33
0.0000000000
40
0.0000000000
40
0.0000000000
40
0.0000000000
40
0.0000000000
40
1.0000000000
40
1.0000000000
40
1.0000000000
40
1.0000000000
10
-3.7827438020
20
-20.3001805678
30
0.0000000000
10
-3.7178288584
20
-20.3000777772
30
0.0000000000
10
-3.6529139448
20
-20.2999555166
30
0.0000000000
10
-3.5879990618
20
-20.2998195136
30
0.0000000000
11
-3.7827438020
21
-20.3001805678
31
0.0000000000
11
-3.5879990618
21
-20.2998195136
31
0.0000000000
0
SPLINE
5
427
100
AcDbEntity
8
0
100
AcDbSpline
62
0
6
CONTINUOUS
70
0
71
3
72
8
73
4
74
2
42
0.0000001000
43
0.0000001000
44
0.0000000001
12
0.0310279072
22
0.0000650065
32
0.0000000000
13
0.0310279026
23
0.0000670301
33
0.0000000000
40
0.0000000000
40
0.0000000000
40
0.0000000000
40
0.0000000000
40
1.0000000000
40
1.0000000000
40
1.0000000000
40
1.0000000000
10
-3.5879990618
20
-20.2998195136
30
0.0000000000
10
-3.5776564261
20
-20.2997978447
30
0.0000000000
10
-3.5673137911
20
-20.2997758270
30
0.0000000000
10
-3.5569711569
20
-20.2997534837
30
0.0000000000
11
-3.5879990618
21
-20.2998195136
31
0.0000000000
11
-3.5569711569
21
-20.2997534837
31
0.0000000000
0
SPLINE
5
428
100
AcDbEntity
8
0
100
AcDbSpline
62
0
6
CONTINUOUS
70
0
71
3
72
8
73
4
74
2
42
0.0000001000
43
0.0000001000
44
0.0000000001
12
0.2257272169
22
-0.0005059749
32
0.0000000000
13
0.2257275127
23
-0.0003544315
33
0.0000000000
40
0.0000000000
40
0.0000000000
40
0.0000000000
40
0.0000000000
40
1.0000000000
40
1.0000000000
40
1.0000000000
40
1.0000000000
10
3.4381174752
20
-20.2997534837
30
0.0000000000
10
3.5133598808
20
-20.2999221420
30
0.0000000000
10
3.5886023507
20
-20.3000625228
30
0.0000000000
10
3.6638448549
20
-20.3001806666
30
0.0000000000
11
3.4381174752
21
-20.2997534837
31
0.0000000000
11
3.6638448549
21
-20.3001806666
31
0.0000000000
0
SPLINE
5
429
100
AcDbEntity
8
0
100
AcDbSpline
62
0
6
CONTINUOUS
70
0
71
3
72
8
73
4
74
2
42
0.0000001000
43
0.0000001000
44
0.0000000001
12
0.2188505662
22
-0.0003436335
32
0.0000000000
13
0.2188507521
23
-0.0001910050
33
0.0000000000
40
0.0000000000
40
0.0000000000
40
0.0000000000
40
0.0000000000
40
1.0000000000
40
1.0000000000
40
1.0000000000
40
1.0000000000
10
3.6638448549
20
-20.3001806666
30
0.0000000000
10
3.7367950437
20
-20.3002952111
30
0.0000000000
10
3.8097452646
20
-20.3003888529
30
0.0000000000
10
3.8826955153
20
-20.3004525213
30
0.0000000000
11
3.6638448549
21
-20.3001806666
31
0.0000000000
11
3.8826955153
21
-20.3004525213
31
0.0000000000
0
SPLINE
5
42A
100
AcDbEntity
8
0
100
AcDbSpline
62
0
6
CONTINUOUS
70
0
71
3
72
8
73
4
74
2
42
0.0000001000
43
0.0000001000
44
0.0000000001
12
0.0715700188
22
-0.0000624637
32
0.0000000000
13
0.0715700343
23
-0.0000427689
33
0.0000000000
40
0.0000000000
40
0.0000000000
40
0.0000000000
40
0.0000000000
40
1.0000000000
40
1.0000000000
40
1.0000000000
40
1.0000000000
10
3.8826955153
20
-20.3004525213
30
0.0000000000
10
3.9065521883
20
-20.3004733425
30
0.0000000000
10
3.9304088644
20
-20.3004909582
30
0.0000000000
10
3.9542655425
20
-20.3005052145
30
0.0000000000
11
3.8826955153
21
-20.3004525213
31
0.0000000000
11
3.9542655425
21
-20.3005052145
31
0.0000000000
0
SPLINE
5
42B
100
AcDbEntity
8
0
100
AcDbSpline
62
0
6
CONTINUOUS
70
0
71
3
72
8
73
4
74
2
42
0.0000001000
43
0.0000001000
44
0.0000000001
12
0.1410697534
22
-0.0000843007
32
0.0000000000
13
0.1410697725
23
-0.0000024581
33
0.0000000000
40
0.0000000000
40
0.0000000000
40
0.0000000000
40
0.0000000000
40
1.0000000000
40
1.0000000000
40
1.0000000000
40
1.0000000000
10
3.9542655425
20
-20.3005052145
30
0.0000000000
10
4.0012887936
20
-20.3005333147
30
0.0000000000
10
4.0483120524
20
-20.3005483634
30
0.0000000000
10
4.0953353100
20
-20.3005491828
30
0.0000000000
11
3.9542655425
21
-20.3005052145
31
0.0000000000
11
4.0953353100
21
-20.3005491828
31
0.0000000000
0
SPLINE
5
42C
100
AcDbEntity
8
0
100
AcDbSpline
62
0
6
CONTINUOUS
70
0
71
3
72
15
73
11
74
9
42
0.0000001000
43
0.0000001000
44
0.0000000001
12
-1.2544455271
22
0.0000000000
32
0.0000000000
13
0.0000000000
23
-1.2544455271
33
0.0000000000
40
0.0000000000
40
0.0000000000
40
0.0000000000
40
0.0000000000
40
0.1249999808
40
0.2499998107
40
0.3750000467
40
0.5000001768
40
0.6250002546
40
0.7500003661
40
0.8750000750
40
1.0000000000
40
1.0000000000
40
1.0000000000
40
1.0000000000
10
-10.1595486847
20
21.6024838170
30
0.0000000000
10
-10.2118172403
20
21.6024838170
30
0.0000000000
10
-10.3166439232
20
21.5921743838
30
0.0000000000
10
-10.4676180085
20
21.5463703604
30
0.0000000000
10
-10.6068164288
20
21.4719824264
30
0.0000000000
10
-10.7288087804
20
21.3718654703
30
0.0000000000
10
-10.8289256398
20
21.2498731081
30
0.0000000000
10
-10.9033134612
20
21.1106747722
30
0.0000000000
10
-10.9491174196
20
20.9597008017
30
0.0000000000
10
-10.9594268409
20
20.8548741931
30
0.0000000000
10
-10.9594268409
20
20.8026056609
30
0.0000000000
11
-10.1595486847
21
21.6024838170
31
0.0000000000
11
-10.3155996398
21
21.5871177326
31
0.0000000000
11
-10.4656552311
21
21.5416064447
31
0.0000000000
11
-10.6039487715
21
21.4676942384
31
0.0000000000
11
-10.7251628874
21
21.3682195483
31
0.0000000000
11
-10.8246374733
21
21.2470054318
31
0.0000000000
11
-10.8985495538
21
21.1087120013
31
0.0000000000
11
-10.9440607702
21
20.9586565470
31
0.0000000000
11
-10.9594268409
21
20.8026056609
31
0.0000000000
0
SPLINE
5
42D
100
AcDbEntity
8
0
100
AcDbSpline
62
0
6
CONTINUOUS
70
0
71
3
72
15
73
11
74
9
42
0.0000001000
43
0.0000001000
44
0.0000000001
12
0.0000000000
22
-1.2544455271
32
0.0000000000
13
1.2544455271
23
0.0000000000
33
0.0000000000
40
0.0000000000
40
0.0000000000
40
0.0000000000
40
0.0000000000
40
0.1249999808
40
0.2499998107
40
0.3750000467
40
0.5000001768
40
0.6250002546
40
0.7500003661
40
0.8750000750
40
1.0000000000
40
1.0000000000
40
1.0000000000
40
1.0000000000
10
-10.9594268409
20
-20.8976380269
30
0.0000000000
10
-10.9594268409
20
-20.9499065825
30
0.0000000000
10
-10.9491174077
20
-21.0547332653
30
0.0000000000
10
-10.9033133843
20
-21.2057073506
30
0.0000000000
10
-10.8289254503
20
-21.3449057709
30
0.0000000000
10
-10.7288084941
20
-21.4668981225
30
0.0000000000
10
-10.6068161320
20
-21.5670149819
30
0.0000000000
10
-10.4676177961
20
-21.6414028033
30
0.0000000000
10
-10.3166438255
20
-21.6872067617
30
0.0000000000
10
-10.2118172170
20
-21.6975161830
30
0.0000000000
10
-10.1595486847
20
-21.6975161830
30
0.0000000000
11
-10.9594268409
21
-20.8976380269
31
0.0000000000
11
-10.9440607565
21
-21.0536889819
31
0.0000000000
11
-10.8985494685
21
-21.2037445732
31
0.0000000000
11
-10.8246372623
21
-21.3420381136
31
0.0000000000
11
-10.7251625722
21
-21.4632522295
31
0.0000000000
11
-10.6039484557
21
-21.5627268154
31
0.0000000000
11
-10.4656550251
21
-21.6366388959
31
0.0000000000
11
-10.3155995708
21
-21.6821501123
31
0.0000000000
11
-10.1595486847
21
-21.6975161830
31
0.0000000000
0
SPLINE
5
42E
100
AcDbEntity
8
0
100
AcDbSpline
62
0
6
CONTINUOUS
70
0
71
3
72
15
73
11
74
9
42
0.0000001000
43
0.0000001000
44
0.0000000001
12
0.0000000000
22
1.2544455271
32
0.0000000000
13
-1.2544455271
23
0.0000000000
33
0.0000000000
40
0.0000000000
40
0.0000000000
40
0.0000000000
40
0.0000000000
40
0.1249999808
40
0.2499998107
40
0.3750000467
40
0.5000001768
40
0.6250002546
40
0.7500003661
40
0.8750000750
40
1.0000000000
40
1.0000000000
40
1.0000000000
40
1.0000000000
10
10.8405731591
20
20.8026056609
30
0.0000000000
10
10.8405731591
20
20.8548742165
30
0.0000000000
10
10.8302637259
20
20.9597008993
30
0.0000000000
10
10.7844597025
20
21.1106749847
30
0.0000000000
10
10.7100717685
20
21.2498734049
30
0.0000000000
10
10.6099548124
20
21.3718657566
30
0.0000000000
10
10.4879624502
20
21.4719826159
30
0.0000000000
10
10.3487641143
20
21.5463704373
30
0.0000000000
10
10.1977901438
20
21.5921743957
30
0.0000000000
10
10.0929635353
20
21.6024838170
30
0.0000000000
10
10.0406950030
20
21.6024838170
30
0.0000000000
11
10.8405731591
21
20.8026056609
31
0.0000000000
11
10.8252070747
21
20.9586566160
31
0.0000000000
11
10.7796957868
21
21.1087122072
31
0.0000000000
11
10.7057835805
21
21.2470057476
31
0.0000000000
11
10.6063088904
21
21.3682198635
31
0.0000000000
11
10.4850947739
21
21.4676944494
31
0.0000000000
11
10.3468013434
21
21.5416065299
31
0.0000000000
11
10.1967458891
21
21.5871177463
31
0.0000000000
11
10.0406950030
21
21.6024838170
31
0.0000000000
0
SPLINE
5
42F
100
AcDbEntity
8
0
100
AcDbSpline
62
0
6
CONTINUOUS
70
0
71
3
72
15
73
11
74
9
42
0.0000001000
43
0.0000001000
44
0.0000000001
12
1.2544455271
22
0.0000000000
32
0.0000000000
13
0.0000000000
23
1.2544455271
33
0.0000000000
40
0.0000000000
40
0.0000000000
40
0.0000000000
40
0.0000000000
40
0.1249999808
40
0.2499998107
40
0.3750000467
40
0.5000001768
40
0.6250002546
40
0.7500003661
40
0.8750000750
40
1.0000000000
40
1.0000000000
40
1.0000000000
40
1.0000000000
10
10.0406950030
20
-21.6975161830
30
0.0000000000
10
10.0929635586
20
-21.6975161830
30
0.0000000000
10
10.1977902414
20
-21.6872067498
30
0.0000000000
10
10.3487643268
20
-21.6414027264
30
0.0000000000
10
10.4879627471
20
-21.5670147924
30
0.0000000000
10
10.6099550987
20
-21.4668978363
30
0.0000000000
10
10.7100719580
20
-21.3449054741
30
0.0000000000
10
10.7844597795
20
-21.2057071382
30
0.0000000000
10
10.8302637378
20
-21.0547331676
30
0.0000000000
10
10.8405731591
20
-20.9499065591
30
0.0000000000
10
10.8405731591
20
-20.8976380269
30
0.0000000000
11
10.0406950030
21
-21.6975161830
31
0.0000000000
11
10.1967459581
21
-21.6821500986
31
0.0000000000
11
10.3468015493
21
-21.6366388106
31
0.0000000000
11
10.4850950897
21
-21.5627266044
31
0.0000000000
11
10.6063092056
21
-21.4632519143
31
0.0000000000
11
10.7057837915
21
-21.3420377978
31
0.0000000000
11
10.7796958720
21
-21.2037443672
31
0.0000000000
11
10.8252070884
21
-21.0536889130
31
0.0000000000
11
10.8405731591
21
-20.8976380269
31
0.0000000000
0
SPLINE
5
430
100
AcDbEntity
8
0
100
AcDbSpline
62
0
6
CONTINUOUS
70
0
71
3
72
10
73
6
74
4
42
0.0000001000
43
0.0000001000
44
0.0000000001
12
-0.0005365532
22
-0.4375069623
32
0.0000000000
13
-0.4383143187
23
-0.0393041685
33
0.0000000000
40
0.0000000000
40
0.0000000000
40
0.0000000000
40
0.0000000000
40
0.3515661539
40
0.7047300360
40
1.0000000000
40
1.0000000000
40
1.0000000000
40
1.0000000000
10
-4.6817032003
20
19.6819188400
30
0.0000000000
10
-4.6817660783
20
19.6306479600
30
0.0000000000
10
-4.7101531891
20
19.5259354830
30
0.0000000000
10
-4.8184363399
20
19.4190289815
30
0.0000000000
10
-4.9125768665
20
19.3898915842
30
0.0000000000
10
-4.9557172175
20
19.3860231374
30
0.0000000000
11
-4.6817032003
21
19.6819188400
31
0.0000000000
11
-4.7220153877
21
19.5334826875
31
0.0000000000
11
-4.8318025653
21
19.4247598114
31
0.0000000000
11
-4.9557172175
21
19.3860231374
31
0.0000000000
0
SPLINE
5
431
100
AcDbEntity
8
0
100
AcDbSpline
62
0
6
CONTINUOUS
70
0
71
3
72
8
73
4
74
2
42
0.0000001000
43
0.0000001000
44
0.0000000001
12
-0.0259795242
22
-0.0023296150
32
0.0000000000
13
-0.0259316717
23
-0.0000311887
33
0.0000000000
40
0.0000000000
40
0.0000000000
40
0.0000000000
40
0.0000000000
40
1.0000000000
40
1.0000000000
40
1.0000000000
40
1.0000000000
10
-4.9557172175
20
19.3860231374
30
0.0000000000
10
-4.9643770589
20
19.3852465991
30
0.0000000000
10
-4.9730478867
20
19.3848488156
30
0.0000000000
10
-4.9816917773
20
19.3848384194
30
0.0000000000
11
-4.9557172175
21
19.3860231374
31
0.0000000000
11
-4.9816917773
21
19.3848384194
31
0.0000000000
0
SPLINE
5
432
100
AcDbEntity
8
0
100
AcDbSpline
62
0
6
CONTINUOUS
70
0
71
3
72
8
73
4
74
2
42
0.0000001000
43
0.0000001000
44
0.0000000001
12
-0.0261526328
22
-0.0023554828
32
0.0000000000
13
-0.0261020025
23
0.0000000000
33
0.0000000000
40
0.0000000000
40
0.0000000000
40
0.0000000000
40
0.0000000000
40
1.0000000000
40
1.0000000000
40
1.0000000000
40
1.0000000000
10
-4.9450725714
20
18.4536662937
30
0.0000000000
10
-4.9537901156
20
18.4528811328
30
0.0000000000
10
-4.9625188684
20
18.4524838170
30
0.0000000000
10
-4.9712195359
20
18.4524838170
30
0.0000000000
11
-4.9450725714
21
18.4536662937
31
0.0000000000
11
-4.9712195359
21
18.4524838170
31
0.0000000000
0
SPLINE
5
433
100
AcDbEntity
8
0
100
AcDbSpline
62
0
6
CONTINUOUS
70
0
71
3
72
9
73
5
74
3
42
0.0000001000
43
0.0000001000
44
0.0000000001
12
-0.3096260021
22
0.0003723951
32
0.0000000000
13
-0.1575456116
23
0.2713195887
33
0.0000000000
40
0.0000000000
40
0.0000000000
40
0.0000000000
40
0.0000000000
40
0.5009732366
40
1.0000000000
40
1.0000000000
40
1.0000000000
40
1.0000000000
10
-5.1371619045
20
19.3848384194
30
0.0000000000
10
-5.1888666846
20
19.3849006060
30
0.0000000000
10
-5.2939992428
20
19.4126924784
30
0.0000000000
10
-5.3706318018
20
19.4883507755
30
0.0000000000
10
-5.3968382940
20
19.5334826875
30
0.0000000000
11
-5.1371619045
21
19.3848384194
31
0.0000000000
11
-5.2870511165
21
19.4247598114
31
0.0000000000
11
-5.3968382940
21
19.5334826875
31
0.0000000000
0
SPLINE
5
434
100
AcDbEntity
8
0
100
AcDbSpline
62
0
6
CONTINUOUS
70
0
71
3
72
8
73
4
74
2
42
0.0000001000
43
0.0000001000
44
0.0000000001
12
-0.0520525032
22
0.0896430158
32
0.0000000000
13
-0.0184816145
23
0.1017389658
33
0.0000000000
40
0.0000000000
40
0.0000000000
40
0.0000000000
40
0.0000000000
40
1.0000000000
40
1.0000000000
40
1.0000000000
40
1.0000000000
10
-5.3968382940
20
19.5334826875
30
0.0000000000
10
-5.4141891284
20
19.5633636928
30
0.0000000000
10
-5.4262643069
20
19.5964781561
30
0.0000000000
10
-5.4324248451
20
19.6303911447
30
0.0000000000
11
-5.3968382940
21
19.5334826875
31
0.0000000000
11
-5.4324248451
21
19.6303911447
31
0.0000000000
0
SPLINE
5
435
100
AcDbEntity
8
0
100
AcDbSpline
62
0
6
CONTINUOUS
70
0
71
3
72
8
73
4
74
2
42
0.0000001000
43
0.0000001000
44
0.0000000001
12
-0.0044835478
22
0.0246813672
32
0.0000000000
13
-0.0023676361
23
0.0248590450
33
0.0000000000
40
0.0000000000
40
0.0000000000
40
0.0000000000
40
0.0000000000
40
1.0000000000
40
1.0000000000
40
1.0000000000
40
1.0000000000
10
-5.4324248451
20
19.6303911447
30
0.0000000000
10
-5.4339193610
20
19.6386182670
30
0.0000000000
10
-5.4350657865
20
19.6468923845
30
0.0000000000
10
-5.4358549985
20
19.6551787329
30
0.0000000000
11
-5.4324248451
21
19.6303911447
31
0.0000000000
11
-5.4358549985
21
19.6551787329
31
0.0000000000
0
SPLINE
5
436
100
AcDbEntity
8
0
100
AcDbSpline
62
0
6
CONTINUOUS
70
0
71
3
72
8
73
4
74
2
42
0.0000001000
43
0.0000001000
44
0.0000000001
12
-0.0025468705
22
0.0267409210
32
0.0000000000
13
-0.0000327397
23
0.0266960211
33
0.0000000000
40
0.0000000000
40
0.0000000000
40
0.0000000000
40
0.0000000000
40
1.0000000000
40
1.0000000000
40
1.0000000000
40
1.0000000000
10
-5.4358549985
20
19.6551787329
30
0.0000000000
10
-5.4367039553
20
19.6640923732
30
0.0000000000
10
-5.4371395682
20
19.6730201663
30
0.0000000000
10
-5.4371504814
20
19.6819188400
30
0.0000000000
11
-5.4358549985
21
19.6551787329
31
0.0000000000
11
-5.4371504814
21
19.6819188400
31
0.0000000000
0
SPLINE
5
437
100
AcDbEntity
8
0
100
AcDbSpline
62
0
6
CONTINUOUS
70
0
71
3
72
8
73
4
74
2
42
0.0000001000
43
0.0000001000
44
0.0000000001
12
-0.0520499026
22
0.0000000000
32
0.0000000000
13
-0.0517852511
23
0.0092540774
33
0.0000000000
40
0.0000000000
40
0.0000000000
40
0.0000000000
40
0.0000000000
40
1.0000000000
40
1.0000000000
40
1.0000000000
40
1.0000000000
10
-5.1476341458
20
18.4524838170
30
0.0000000000
10
-5.1649841134
20
18.4524838170
30
0.0000000000
10
-5.1824457598
20
18.4540637111
30
0.0000000000
10
-5.1997075102
20
18.4571484036
30
0.0000000000
11
-5.1476341458
21
18.4524838170
31
0.0000000000
11
-5.1997075102
21
18.4571484036
31
0.0000000000
0
SPLINE
5
438
100
AcDbEntity
8
0
100
AcDbSpline
62
0
6
CONTINUOUS
70
0
71
3
72
9
73
5
74
3
42
0.0000001000
43
0.0000001000
44
0.0000000001
12
-0.2057271791
22
0.0367636576
32
0.0000000000
13
-0.1343836437
23
0.1601691621
33
0.0000000000
40
0.0000000000
40
0.0000000000
40
0.0000000000
40
0.0000000000
40
0.4992587610
40
1.0000000000
40
1.0000000000
40
1.0000000000
40
1.0000000000
10
-5.1997075102
20
18.4571484036
30
0.0000000000
10
-5.2339445424
20
18.4632665963
30
0.0000000000
10
-5.3009451945
20
18.4873781588
30
0.0000000000
10
-5.3550378707
20
18.5328882478
30
0.0000000000
10
-5.3774683481
20
18.5596226827
30
0.0000000000
11
-5.1997075102
21
18.4571484036
31
0.0000000000
11
-5.2976284343
21
18.4926761959
31
0.0000000000
11
-5.3774683481
21
18.5596226827
31
0.0000000000
0
SPLINE
5
439
100
AcDbEntity
8
0
100
AcDbSpline
62
0
6
CONTINUOUS
70
0
71
3
72
9
73
5
74
3
42
0.0000001000
43
0.0000001000
44
0.0000000001
12
-0.1007234916
22
0.1200503039
32
0.0000000000
13
-0.0275529456
23
0.1541972305
33
0.0000000000
40
0.0000000000
40
0.0000000000
40
0.0000000000
40
0.0000000000
40
0.3338767931
40
1.0000000000
40
1.0000000000
40
1.0000000000
40
1.0000000000
10
-5.3774683481
20
18.5596226827
30
0.0000000000
10
-5.3886780935
20
18.5729833529
30
0.0000000000
10
-5.4187697218
20
18.6159516529
30
0.0000000000
10
-5.4368404718
20
18.6661703411
30
0.0000000000
10
-5.4429583573
20
18.7004084590
30
0.0000000000
11
-5.3774683481
21
18.5596226827
31
0.0000000000
11
-5.4074318743
21
18.6024838170
31
0.0000000000
11
-5.4429583573
21
18.7004084590
31
0.0000000000
0
SPLINE
5
43A
100
AcDbEntity
8
0
100
AcDbSpline
62
0
6
CONTINUOUS
70
0
71
3
72
8
73
4
74
2
42
0.0000001000
43
0.0000001000
44
0.0000000001
12
-0.0046138457
22
0.0258209135
32
0.0000000000
13
-0.0023414663
23
0.0260031960
33
0.0000000000
40
0.0000000000
40
0.0000000000
40
0.0000000000
40
0.0000000000
40
1.0000000000
40
1.0000000000
40
1.0000000000
40
1.0000000000
10
-5.4429583573
20
18.7004084590
30
0.0000000000
10
-5.4444963059
20
18.7090154302
30
0.0000000000
10
-5.4456601757
20
18.7176720904
30
0.0000000000
10
-5.4464406644
20
18.7263398224
30
0.0000000000
11
-5.4429583573
21
18.7004084590
31
0.0000000000
11
-5.4464406644
21
18.7263398224
31
0.0000000000
0
SPLINE
5
43B
100
AcDbEntity
8
0
100
AcDbSpline
62
0
6
CONTINUOUS
70
0
71
3
72
8
73
4
74
2
42
0.0000001000
43
0.0000001000
44
0.0000000001
12
-0.0023546563
22
0.0261496775
32
0.0000000000
13
0.0000000000
23
0.0260990382
33
0.0000000000
40
0.0000000000
40
0.0000000000
40
0.0000000000
40
0.0000000000
40
1.0000000000
40
1.0000000000
40
1.0000000000
40
1.0000000000
10
-5.4464406644
20
18.7263398224
30
0.0000000000
10
-5.4472255499
20
18.7350563815
30
0.0000000000
10
-5.4476227228
20
18.7437841376
30
0.0000000000
10
-5.4476227228
20
18.7524838170
30
0.0000000000
11
-5.4464406644
21
18.7263398224
31
0.0000000000
11
-5.4476227228
21
18.7524838170
31
0.0000000000
0
SPLINE
5
43C
100
AcDbEntity
8
0
100
AcDbSpline
62
0
6
CONTINUOUS
70
0
71
3
72
10
73
6
74
4
42
0.0000001000
43
0.0000001000
44
0.0000000001
12
-0.0005365532
22
-0.4375069623
32
0.0000000000
13
-0.4383143187
23
-0.0393041685
33
0.0000000000
40
0.0000000000
40
0.0000000000
40
0.0000000000
40
0.0000000000
40
0.3515661539
40
0.7047300360
40
1.0000000000
40
1.0000000000
40
1.0000000000
40
1.0000000000
10
5.3182967997
20
19.6819188400
30
0.0000000000
10
5.3182339217
20
19.6306479600
30
0.0000000000
10
5.2898468109
20
19.5259354830
30
0.0000000000
10
5.1815636601
20
19.4190289815
30
0.0000000000
10
5.0874231335
20
19.3898915842
30
0.0000000000
10
5.0442827825
20
19.3860231374
30
0.0000000000
11
5.3182967997
21
19.6819188400
31
0.0000000000
11
5.2779846123
21
19.5334826875
31
0.0000000000
11
5.1681974347
21
19.4247598114
31
0.0000000000
11
5.0442827825
21
19.3860231374
31
0.0000000000
0
SPLINE
5
43D
100
AcDbEntity
8
0
100
AcDbSpline
62
0
6
CONTINUOUS
70
0
71
3
72
8
73
4
74
2
42
0.0000001000
43
0.0000001000
44
0.0000000001
12
-0.0259795242
22
-0.0023296150
32
0.0000000000
13
-0.0259316717
23
-0.0000311887
33
0.0000000000
40
0.0000000000
40
0.0000000000
40
0.0000000000
40
0.0000000000
40
1.0000000000
40
1.0000000000
40
1.0000000000
40
1.0000000000
10
5.0442827825
20
19.3860231374
30
0.0000000000
10
5.0356229411
20
19.3852465991
30
0.0000000000
10
5.0269521133
20
19.3848488156
30
0.0000000000
10
5.0183082227
20
19.3848384194
30
0.0000000000
11
5.0442827825
21
19.3860231374
31
0.0000000000
11
5.0183082227
21
19.3848384194
31
0.0000000000
0
SPLINE
5
43E
100
AcDbEntity
8
0
100
AcDbSpline
62
0
6
CONTINUOUS
70
0
71
3
72
8
73
4
74
2
42
0.0000001000
43
0.0000001000
44
0.0000000001
12
-0.0261526328
22
-0.0023554828
32
0.0000000000
13
-0.0261020025
23
0.0000000000
33
0.0000000000
40
0.0000000000
40
0.0000000000
40
0.0000000000
40
0.0000000000
40
1.0000000000
40
1.0000000000
40
1.0000000000
40
1.0000000000
10
5.0549274286
20
18.4536662937
30
0.0000000000
10
5.0462098844
20
18.4528811328
30
0.0000000000
10
5.0374811316
20
18.4524838170
30
0.0000000000
10
5.0287804641
20
18.4524838170
30
0.0000000000
11
5.0549274286
21
18.4536662937
31
0.0000000000
11
5.0287804641
21
18.4524838170
31
0.0000000000
0
SPLINE
5
43F
100
AcDbEntity
8
0
100
AcDbSpline
62
0
6
CONTINUOUS
70
0
71
3
72
9
73
5
74
3
42
0.0000001000
43
0.0000001000
44
0.0000000001
12
-0.3096260021
22
0.0003723951
32
0.0000000000
13
-0.1575456116
23
0.2713195887
33
0.0000000000
40
0.0000000000
40
0.0000000000
40
0.0000000000
40
0.0000000000
40
0.5009732366
40
1.0000000000
40
1.0000000000
40
1.0000000000
40
1.0000000000
10
4.8628380955
20
19.3848384194
30
0.0000000000
10
4.8111333154
20
19.3849006060
30
0.0000000000
10
4.7060007572
20
19.4126924784
30
0.0000000000
10
4.6293681982
20
19.4883507755
30
0.0000000000
10
4.6031617060
20
19.5334826875
30
0.0000000000
11
4.8628380955
21
19.3848384194
31
0.0000000000
11
4.7129488835
21
19.4247598114
31
0.0000000000
11
4.6031617060
21
19.5334826875
31
0.0000000000
0
SPLINE
5
440
100
AcDbEntity
8
0
100
AcDbSpline
62
0
6
CONTINUOUS
70
0
71
3
72
8
73
4
74
2
42
0.0000001000
43
0.0000001000
44
0.0000000001
12
-0.0576624142
22
0.0993042100
32
0.0000000000
13
-0.0162119180
23
0.1131818109
33
0.0000000000
40
0.0000000000
40
0.0000000000
40
0.0000000000
40
0.0000000000
40
1.0000000000
40
1.0000000000
40
1.0000000000
40
1.0000000000
10
4.6031617060
20
19.5334826875
30
0.0000000000
10
4.5839409013
20
19.5665840908
30
0.0000000000
10
4.5711941885
20
19.6036534756
30
0.0000000000
10
4.5657902158
20
19.6413807459
30
0.0000000000
11
4.6031617060
21
19.5334826875
31
0.0000000000
11
4.5657902158
21
19.6413807459
31
0.0000000000
0
SPLINE
5
441
100
AcDbEntity
8
0
100
AcDbSpline
62
0
6
CONTINUOUS
70
0
71
3
72
8
73
4
74
2
42
0.0000001000
43
0.0000001000
44
0.0000000001
12
-0.0057921258
22
0.0404371211
32
0.0000000000
13
-0.0000496541
23
0.0404881109
33
0.0000000000
40
0.0000000000
40
0.0000000000
40
0.0000000000
40
0.0000000000
40
1.0000000000
40
1.0000000000
40
1.0000000000
40
1.0000000000
10
4.5657902158
20
19.6413807459
30
0.0000000000
10
4.5638595072
20
19.6548597862
30
0.0000000000
10
4.5628660700
20
19.6684228031
30
0.0000000000
10
4.5628495186
20
19.6819188400
30
0.0000000000
11
4.5657902158
21
19.6413807459
31
0.0000000000
11
4.5628495186
21
19.6819188400
31
0.0000000000
0
SPLINE
5
442
100
AcDbEntity
8
0
100
AcDbSpline
62
0
6
CONTINUOUS
70
0
71
3
72
10
73
6
74
4
42
0.0000001000
43
0.0000001000
44
0.0000000001
12
-0.0935594899
22
-0.1769971526
32
0.0000000000
13
-0.2002033221
23
0.0000001408
33
0.0000000000
40
0.0000000000
40
0.0000000000
40
0.0000000000
40
0.0000000000
40
0.1404425094
40
0.5054232647
40
1.0000000000
40
1.0000000000
40
1.0000000000
40
1.0000000000
10
9.7418911157
20
-19.7357741049
30
0.0000000000
10
9.7375112059
20
-19.7440600797
30
0.0000000000
10
9.6929927434
20
-19.7324599063
30
0.0000000000
10
9.6354877896
20
-19.7459101430
30
0.0000000000
10
9.5749268785
20
-19.7423759417
30
0.0000000000
10
9.5419215767
20
-19.7423759185
30
0.0000000000
11
9.7418911157
21
-19.7357741049
31
0.0000000000
11
9.7139636680
21
-19.7390339450
31
0.0000000000
11
9.6409331094
21
-19.7414453716
31
0.0000000000
11
9.5419215767
21
-19.7423759185
31
0.0000000000
0
SPLINE
5
443
100
AcDbEntity
8
0
100
AcDbSpline
62
0
6
CONTINUOUS
70
0
71
3
72
8
73
4
74
2
42
0.0000001000
43
0.0000001000
44
0.0000000001
12
-0.0427960460
22
0.0555357369
32
0.0000000000
13
-0.0419109352
23
0.0562135069
33
0.0000000000
40
0.0000000000
40
0.0000000000
40
0.0000000000
40
0.0000000000
40
1.0000000000
40
1.0000000000
40
1.0000000000
40
1.0000000000
10
-5.6652107026
20
-15.7940008128
30
0.0000000000
10
-5.6794760513
20
-15.7754889005
30
0.0000000000
10
-5.6935946505
20
-15.7568625489
30
0.0000000000
10
-5.7075649623
20
-15.7381247133
30
0.0000000000
11
-5.6652107026
21
-15.7940008128
31
0.0000000000
11
-5.7075649623
21
-15.7381247133
31
0.0000000000
0
SPLINE
5
444
100
AcDbEntity
8
0
100
AcDbSpline
62
0
6
CONTINUOUS
70
0
71
3
72
9
73
5
74
3
42
0.0000001000
43
0.0000001000
44
0.0000000001
12
-0.1261194862
22
0.1691591605
32
0.0000000000
13
-0.1179320673
23
0.1749782353
33
0.0000000000
40
0.0000000000
40
0.0000000000
40
0.0000000000
40
0.0000000000
40
0.6660601010
40
1.0000000000
40
1.0000000000
40
1.0000000000
40
1.0000000000
10
-5.7075649623
20
-15.7381247133
30
0.0000000000
10
-5.7355660148
20
-15.7005679908
30
0.0000000000
10
-5.7767114521
20
-15.6435091915
30
0.0000000000
10
-5.8164861649
20
-15.5854944935
30
0.0000000000
10
-5.8296135725
20
-15.5660170888
30
0.0000000000
11
-5.7075649623
21
-15.7381247133
31
0.0000000000
11
-5.7897685803
21
-15.6241347404
31
0.0000000000
11
-5.8296135725
21
-15.5660170888
31
0.0000000000
0
SPLINE
5
445
100
AcDbEntity
8
0
100
AcDbSpline
62
0
6
CONTINUOUS
70
0
71
3
72
8
73
4
74
2
42
0.0000001000
43
0.0000001000
44
0.0000000001
12
-0.0394686966
22
0.0585605174
32
0.0000000000
13
-0.0385285358
23
0.0591792562
33
0.0000000000
40
0.0000000000
40
0.0000000000
40
0.0000000000
40
0.0000000000
40
1.0000000000
40
1.0000000000
40
1.0000000000
40
1.0000000000
10
-5.8296135725
20
-15.5660170888
30
0.0000000000
10
-5.8427698047
20
-15.5464969163
30
0.0000000000
10
-5.8557703996
20
-15.5268723044
30
0.0000000000
10
-5.8686132449
20
-15.5071458856
30
0.0000000000
11
-5.8296135725
21
-15.5660170888
31
0.0000000000
11
-5.8686132449
21
-15.5071458856
31
0.0000000000
0
SPLINE
5
446
100
AcDbEntity
8
0
100
AcDbSpline
62
0
6
CONTINUOUS
70
0
71
3
72
8
73
4
74
2
42
0.0000001000
43
0.0000001000
44
0.0000000001
12
-0.0386236981
22
0.0593254241
32
0.0000000000
13
-0.0376661348
23
0.0599313289
33
0.0000000000
40
0.0000000000
40
0.0000000000
40
0.0000000000
40
0.0000000000
40
1.0000000000
40
1.0000000000
40
1.0000000000
40
1.0000000000
10
-5.8686132449
20
-15.5071458856
30
0.0000000000
10
-5.8814878109
20
-15.4873707443
30
0.0000000000
10
-5.8942038471
20
-15.4674932926
30
0.0000000000
10
-5.9067592254
20
-15.4475161830
30
0.0000000000
11
-5.8686132449
21
-15.5071458856
31
0.0000000000
11
-5.9067592254
21
-15.4475161830
31
0.0000000000
0
SPLINE
5
447
100
AcDbEntity
8
0
100
AcDbSpline
62
0
6
CONTINUOUS
70
0
71
3
72
10
73
6
74
4
42
0.0000001000
43
0.0000001000
44
0.0000000001
12
0.3602846892
22
-0.0000000000
32
0.0000000000
13
0.1272396737
23
0.3370684244
33
0.0000000000
40
0.0000000000
40
0.0000000000
40
0.0000000000
40
0.0000000000
40
0.3326568453
40
0.6656365789
40
1.0000000000
40
1.0000000000
40
1.0000000000
40
1.0000000000
10
6.4519899489
20
-15.0125954135
30
0.0000000000
10
6.4919403382
20
-15.0125954135
30
0.0000000000
10
6.5728122331
20
-14.9961559317
30
0.0000000000
10
6.6741636095
20
-14.9262432709
30
0.0000000000
10
6.7183059425
20
-14.8562306841
30
0.0000000000
10
6.7324873734
20
-14.8186629003
30
0.0000000000
11
6.4519899489
21
-15.0125954135
31
0.0000000000
11
6.5694240772
21
-14.9886469685
31
0.0000000000
11
6.6681742484
21
-14.9205249847
31
0.0000000000
11
6.7324873734
21
-14.8186629003
31
0.0000000000
0
SPLINE
5
448
100
AcDbEntity
8
0
100
AcDbSpline
62
0
6
CONTINUOUS
70
0
71
3
72
10
73
6
74
4
42
0.0000001000
43
0.0000001000
44
0.0000000001
12
-0.1272396737
22
0.3370684244
32
0.0000000000
13
-0.3602846892
23
-0.0000000000
33
0.0000000000
40
0.0000000000
40
0.0000000000
40
0.0000000000
40
0.0000000000
40
0.3326568410
40
0.6656365743
40
1.0000000000
40
1.0000000000
40
1.0000000000
40
1.0000000000
10
6.7324873734
20
-11.2763694657
30
0.0000000000
10
6.7183783241
20
-11.2389934266
30
0.0000000000
10
6.6744371185
20
-11.1691386466
30
0.0000000000
10
6.5732358537
20
-11.0990088696
30
0.0000000000
10
6.4921452898
20
-11.0824369525
30
0.0000000000
10
6.4519899489
20
-11.0824369525
30
0.0000000000
11
6.7324873734
21
-11.2763694657
31
0.0000000000
11
6.6686085990
21
-11.1749603719
31
0.0000000000
11
6.5700012748
21
-11.1066317790
31
0.0000000000
11
6.4519899489
21
-11.0824369525
31
0.0000000000
0
SPLINE
5
449
100
AcDbEntity
8
0
100
AcDbSpline
62
0
6
CONTINUOUS
70
0
71
3
72
10
73
6
74
4
42
0.0000001000
43
0.0000001000
44
0.0000000001
12
0.1272396737
22
-0.3370684244
32
0.0000000000
13
0.3602846892
23
0.0000000000
33
0.0000000000
40
0.0000000000
40
0.0000000000
40
0.0000000000
40
0.0000000000
40
0.3326568410
40
0.6656365743
40
1.0000000000
40
1.0000000000
40
1.0000000000
40
1.0000000000
10
-6.8513410551
20
-14.8186629003
30
0.0000000000
10
-6.8372320059
20
-14.8560389394
30
0.0000000000
10
-6.7932908003
20
-14.9258937194
30
0.0000000000
10
-6.6920895354
20
-14.9960234964
30
0.0000000000
10
-6.6109989716
20
-15.0125954135
30
0.0000000000
10
-6.5708436306
20
-15.0125954135
30
0.0000000000
11
-6.8513410551
21
-14.8186629003
31
0.0000000000
11
-6.7874622807
21
-14.9200719941
31
0.0000000000
11
-6.6888549565
21
-14.9884005870
31
0.0000000000
11
-6.5708436306
21
-15.0125954135
31
0.0000000000
0
SPLINE
5
44A
100
AcDbEntity
8
0
100
AcDbSpline
62
0
6
CONTINUOUS
70
0
71
3
72
10
73
6
74
4
42
0.0000001000
43
0.0000001000
44
0.0000000001
12
-0.3602846892
22
0.0000000000
32
0.0000000000
13
-0.1272396737
23
-0.3370684244
33
0.0000000000
40
0.0000000000
40
0.0000000000
40
0.0000000000
40
0.0000000000
40
0.3326568453
40
0.6656365789
40
1.0000000000
40
1.0000000000
40
1.0000000000
40
1.0000000000
10
-6.5708436306
20
-11.0824369525
30
0.0000000000
10
-6.6107940200
20
-11.0824369525
30
0.0000000000
10
-6.6916659149
20
-11.0988764342
30
0.0000000000
10
-6.7930172912
20
-11.1687890951
30
0.0000000000
10
-6.8371596243
20
-11.2388016818
30
0.0000000000
10
-6.8513410551
20
-11.2763694657
30
0.0000000000
11
-6.5708436306
21
-11.0824369525
31
0.0000000000
11
-6.6882777589
21
-11.1063853974
31
0.0000000000
11
-6.7870279302
21
-11.1745073813
31
0.0000000000
11
-6.8513410551
21
-11.2763694657
31
0.0000000000
0
SPLINE
5
44B
100
AcDbEntity
8
0
100
AcDbSpline
62
9
6
CONTINUOUS
70
0
71
3
72
8
73
4
74
2
42
0.0000001000
43
0.0000001000
44
0.0000000001
12
0.0019347555
22
0.0043185261
32
0.0000000000
13
0.0019300536
23
0.0043206219
33
0.0000000000
40
0.0000000000
40
0.0000000000
40
0.0000000000
40
0.0000000000
40
1.0000000000
40
1.0000000000
40
1.0000000000
40
1.0000000000
10
6.0103782515
20
-15.0259183231
30
0.0000000000
10
6.0110231700
20
-15.0244788144
30
0.0000000000
10
6.0116673051
20
-15.0230389558
30
0.0000000000
10
6.0123106563
20
-15.0215987485
30
0.0000000000
11
6.0103782515
21
-15.0259183231
31
0.0000000000
11
6.0123106563
21
-15.0215987485
31
0.0000000000
0
SPLINE
5
44C
100
AcDbEntity
8
0
100
AcDbSpline
62
0
6
CONTINUOUS
70
0
71
3
72
9
73
5
74
3
42
0.0000001000
43
0.0000001000
44
0.0000000001
12
-0.2426364285
22
-0.0090545155
32
0.0000000000
13
-0.2426407411
23
-0.0089382039
33
0.0000000000
40
0.0000000000
40
0.0000000000
40
0.0000000000
40
0.0000000000
40
0.5029630138
40
1.0000000000
40
1.0000000000
40
1.0000000000
40
1.0000000000
10
6.2549489869
20
-15.0125954135
30
0.0000000000
10
6.2142699371
20
-15.0141134423
30
0.0000000000
10
6.1333911012
20
-15.0171309363
30
0.0000000000
10
6.0525111306
20
-15.0201178758
30
0.0000000000
10
6.0123106563
20
-15.0215987485
30
0.0000000000
11
6.2549489869
21
-15.0125954135
31
0.0000000000
11
6.1329115240
21
-15.0171410886
31
0.0000000000
11
6.0123106563
21
-15.0215987485
31
0.0000000000
0
SPLINE
5
44D
100
AcDbEntity
8
0
100
AcDbSpline
62
9
6
CONTINUOUS
70
0
71
3
72
8
73
4
74
2
42
0.0000001000
43
0.0000001000
44
0.0000000001
12
-0.0019347555
22
0.0043185261
32
0.0000000000
13
-0.0019300536
23
0.0043206219
33
0.0000000000
40
0.0000000000
40
0.0000000000
40
0.0000000000
40
0.0000000000
40
1.0000000000
40
1.0000000000
40
1.0000000000
40
1.0000000000
10
-6.1292319332
20
-15.0259183231
30
0.0000000000
10
-6.1298768517
20
-15.0244788144
30
0.0000000000
10
-6.1305209869
20
-15.0230389558
30
0.0000000000
10
-6.1311643381
20
-15.0215987485
30
0.0000000000
11
-6.1292319332
21
-15.0259183231
31
0.0000000000
11
-6.1311643381
21
-15.0215987485
31
0.0000000000
0
SPLINE
5
44E
100
AcDbEntity
8
0
100
AcDbSpline
62
0
6
CONTINUOUS
70
0
71
3
72
8
73
4
74
2
42
0.0000001000
43
0.0000001000
44
0.0000000001
12
-0.0407511664
22
0.0015196688
32
0.0000000000
13
-0.0407511270
23
0.0015207185
33
0.0000000000
40
0.0000000000
40
0.0000000000
40
0.0000000000
40
0.0000000000
40
1.0000000000
40
1.0000000000
40
1.0000000000
40
1.0000000000
10
-6.3330515271
20
-15.0141157451
30
0.0000000000
10
-6.3466352492
20
-15.0136091888
30
0.0000000000
10
-6.3602189596
20
-15.0131023197
30
0.0000000000
10
-6.3738026687
20
-15.0125954135
30
0.0000000000
11
-6.3330515271
21
-15.0141157451
31
0.0000000000
11
-6.3738026687
21
-15.0125954135
31
0.0000000000
0
SPLINE
5
44F
100
AcDbEntity
8
0
100
AcDbSpline
62
0
6
CONTINUOUS
70
0
71
3
72
9
73
5
74
3
42
0.0000001000
43
0.0000001000
44
0.0000000001
12
0.2426364285
22
0.0090545155
32
0.0000000000
13
0.2426407411
23
0.0089382039
33
0.0000000000
40
0.0000000000
40
0.0000000000
40
0.0000000000
40
0.0000000000
40
0.5028621667
40
1.0000000000
40
1.0000000000
40
1.0000000000
40
1.0000000000
10
-6.3738026687
20
-11.0824369525
30
0.0000000000
10
-6.3331317753
20
-11.0809192280
30
0.0000000000
10
-6.2522529395
20
-11.0779017311
30
0.0000000000
10
-6.1713729688
20
-11.0749147906
30
0.0000000000
10
-6.1311643381
20
-11.0734336175
30
0.0000000000
11
-6.3738026687
21
-11.0824369525
31
0.0000000000
11
-6.2517896751
21
-11.0778921848
31
0.0000000000
11
-6.1311643381
21
-11.0734336175
31
0.0000000000
0
SPLINE
5
450
100
AcDbEntity
8
0
100
AcDbSpline
62
0
6
CONTINUOUS
70
0
71
3
72
8
73
4
74
2
42
0.0000001000
43
0.0000001000
44
0.0000000001
12
0.0408049228
22
-0.0015216687
32
0.0000000000
13
0.0408048832
23
-0.0015227246
33
0.0000000000
40
0.0000000000
40
0.0000000000
40
0.0000000000
40
0.0000000000
40
1.0000000000
40
1.0000000000
40
1.0000000000
40
1.0000000000
10
6.2141440890
20
-11.0809146176
30
0.0000000000
10
6.2277457300
20
-11.0814218405
30
0.0000000000
10
6.2413473592
20
-11.0819293776
30
0.0000000000
10
6.2549489869
20
-11.0824369525
30
0.0000000000
11
6.2141440890
21
-11.0809146176
31
0.0000000000
11
6.2549489869
21
-11.0824369525
31
0.0000000000
0
SPLINE
5
451
100
AcDbEntity
8
0
100
AcDbSpline
62
9
6
CONTINUOUS
70
0
71
3
72
10
73
6
74
4
42
0.0000001000
43
0.0000001000
44
0.0000000001
12
-0.0000945766
22
0.3105082439
32
0.0000000000
13
-0.3105082439
23
0.0000945766
33
0.0000000000
40
0.0000000000
40
0.0000000000
40
0.0000000000
40
0.0000000000
40
0.3333248773
40
0.6666751224
40
1.0000000000
40
1.0000000000
40
1.0000000000
40
1.0000000000
10
9.7436061589
20
20.0055472778
30
0.0000000000
10
9.7435956507
20
20.0400473185
30
0.0000000000
10
9.7248322765
20
20.1103673632
30
0.0000000000
10
9.6484567054
20
20.1867429344
30
0.0000000000
10
9.5781366607
20
20.2055063085
30
0.0000000000
10
9.5436366199
20
20.2055168168
30
0.0000000000
11
9.7436061589
21
20.0055472778
31
0.0000000000
11
9.7167950225
21
20.1055144687
31
0.0000000000
11
9.6436038109
21
20.1787056803
31
0.0000000000
11
9.5436366199
21
20.2055168168
31
0.0000000000
0
SPLINE
5
452
100
AcDbEntity
8
0
100
AcDbSpline
62
0
6
CONTINUOUS
70
0
71
3
72
8
73
4
74
2
42
0.0000001000
43
0.0000001000
44
0.0000000001
12
0.0067686895
22
-0.0361436906
32
0.0000000000
13
0.0000000000
23
-0.0363702067
33
0.0000000000
40
0.0000000000
40
0.0000000000
40
0.0000000000
40
0.0000000000
40
1.0000000000
40
1.0000000000
40
1.0000000000
40
1.0000000000
10
9.8371600808
20
20.1388908463
30
0.0000000000
10
9.8394163106
20
20.1268429494
30
0.0000000000
10
9.8405731591
20
20.1146376802
30
0.0000000000
10
9.8405731591
20
20.1025142780
30
0.0000000000
11
9.8371600808
21
20.1388908463
31
0.0000000000
11
9.8405731591
21
20.1025142780
31
0.0000000000
0
SPLINE
5
453
100
AcDbEntity
8
0
100
AcDbSpline
62
0
6
CONTINUOUS
70
0
71
3
72
10
73
6
74
4
42
0.0000001000
43
0.0000001000
44
0.0000000001
12
-0.0935603079
22
0.1769965796
32
0.0000000000
13
-0.2002031978
23
-0.0000001616
33
0.0000000000
40
0.0000000000
40
0.0000000000
40
0.0000000000
40
0.0000000000
40
0.1404388933
40
0.5054282272
40
1.0000000000
40
1.0000000000
40
1.0000000000
40
1.0000000000
10
9.7418911157
20
19.6407417389
30
0.0000000000
10
9.7375112803
20
19.6490274735
30
0.0000000000
10
9.6929922822
20
19.6374248464
30
0.0000000000
10
9.6354876912
20
19.6508769188
30
0.0000000000
10
9.5749265268
20
19.6473435791
30
0.0000000000
10
9.5419215767
20
19.6473435525
30
0.0000000000
11
9.7418911157
21
19.6407417389
31
0.0000000000
11
9.7139642733
21
19.6440003697
31
0.0000000000
11
9.6409320435
21
19.6464118487
31
0.0000000000
11
9.5419215767
21
19.6473435525
31
0.0000000000
0
SPLINE
5
454
100
AcDbEntity
8
0
100
AcDbSpline
62
0
6
CONTINUOUS
70
0
71
3
72
10
73
6
74
4
42
0.0000001000
43
0.0000001000
44
0.0000000001
12
0.0935603073
22
0.1769965789
32
0.0000000000
13
0.2002031969
23
-0.0000001616
33
0.0000000000
40
0.0000000000
40
0.0000000000
40
0.0000000000
40
0.0000000000
40
0.1404419789
40
0.5054229655
40
1.0000000000
40
1.0000000000
40
1.0000000000
40
1.0000000000
10
-9.8607447975
20
19.6407417389
30
0.0000000000
10
-9.8563648659
20
19.6490276555
30
0.0000000000
10
-9.8118462533
20
19.6374249865
30
0.0000000000
10
-9.7543415210
20
19.6508769386
30
0.0000000000
10
-9.6937805596
20
19.6473435791
30
0.0000000000
10
-9.6607752584
20
19.6473435525
30
0.0000000000
11
-9.8607447975
21
19.6407417389
31
0.0000000000
11
-9.8328173374
21
19.6440004047
31
0.0000000000
11
-9.7597867780
21
19.6464118286
31
0.0000000000
11
-9.6607752584
21
19.6473435525
31
0.0000000000
0
SPLINE
5
455
100
AcDbEntity
8
0
100
AcDbSpline
62
9
6
CONTINUOUS
70
0
71
3
72
10
73
6
74
4
42
0.0000001000
43
0.0000001000
44
0.0000000001
12
-0.0000945766
22
-0.3105082439
32
0.0000000000
13
-0.3105082439
23
-0.0000945766
33
0.0000000000
40
0.0000000000
40
0.0000000000
40
0.0000000000
40
0.0000000000
40
0.3333247438
40
0.6666749967
40
1.0000000000
40
1.0000000000
40
1.0000000000
40
1.0000000000
10
9.7436061589
20
-20.1005796437
30
0.0000000000
10
9.7435956507
20
-20.1350796707
30
0.0000000000
10
9.7248322885
20
-20.2053997009
30
0.0000000000
10
9.6484567337
20
-20.2817752887
30
0.0000000000
10
9.5781366737
20
-20.3005386745
30
0.0000000000
10
9.5436366199
20
-20.3005491828
30
0.0000000000
11
9.7436061589
21
-20.1005796437
31
0.0000000000
11
9.7167950439
21
-20.2005467976
31
0.0000000000
11
9.6436038459
21
-20.2737380261
31
0.0000000000
11
9.5436366199
21
-20.3005491828
31
0.0000000000
0
SPLINE
5
456
100
AcDbEntity
8
0
100
AcDbSpline
62
9
6
CONTINUOUS
70
0
71
3
72
10
73
6
74
4
42
0.0000001000
43
0.0000001000
44
0.0000000001
12
0.0000945766
22
0.3105082439
32
0.0000000000
13
0.3105082439
23
0.0000945766
33
0.0000000000
40
0.0000000000
40
0.0000000000
40
0.0000000000
40
0.0000000000
40
0.3333248798
40
0.6666751249
40
1.0000000000
40
1.0000000000
40
1.0000000000
40
1.0000000000
10
-9.8624598407
20
20.0055472778
30
0.0000000000
10
-9.8624493324
20
20.0400473188
30
0.0000000000
10
-9.8436859580
20
20.1103673638
30
0.0000000000
10
-9.7673103866
20
20.1867429346
30
0.0000000000
10
-9.6969903422
20
20.2055063086
30
0.0000000000
10
-9.6624903016
20
20.2055168168
30
0.0000000000
11
-9.8624598407
21
20.0055472778
31
0.0000000000
11
-9.8356487038
21
20.1055144694
31
0.0000000000
11
-9.7624574920
21
20.1787056807
31
0.0000000000
11
-9.6624903016
21
20.2055168168
31
0.0000000000
0
SPLINE
5
457
100
AcDbEntity
8
0
100
AcDbSpline
62
0
6
CONTINUOUS
70
0
71
3
72
10
73
6
74
4
42
0.0000001000
43
0.0000001000
44
0.0000000001
12
0.0000000000
22
0.3105397744
32
0.0000000000
13
0.3105397744
23
0.0000000000
33
0.0000000000
40
0.0000000000
40
0.0000000000
40
0.0000000000
40
0.0000000000
40
0.3333500763
40
0.6666504336
40
1.0000000000
40
1.0000000000
40
1.0000000000
40
1.0000000000
10
-9.9594268409
20
20.1025142780
30
0.0000000000
10
-9.9594268409
20
20.1370204305
30
0.0000000000
10
-9.9406847460
20
20.2073539150
30
0.0000000000
10
-9.8642968275
20
20.2837417685
30
0.0000000000
10
-9.7939634016
20
20.3024838170
30
0.0000000000
10
-9.7594573018
20
20.3024838170
30
0.0000000000
11
-9.9594268409
21
20.1025142780
31
0.0000000000
11
-9.9326366621
21
20.2025060644
31
0.0000000000
11
-9.8594489463
21
20.2756937202
31
0.0000000000
11
-9.7594573018
21
20.3024838170
31
0.0000000000
0
SPLINE
5
458
100
AcDbEntity
8
0
100
AcDbSpline
62
0
6
CONTINUOUS
70
0
71
3
72
10
73
6
74
4
42
0.0000001000
43
0.0000001000
44
0.0000000001
12
0.0000000000
22
-0.3105397744
32
0.0000000000
13
-0.3105397744
23
-0.0000000000
33
0.0000000000
40
0.0000000000
40
0.0000000000
40
0.0000000000
40
0.0000000000
40
0.3333500763
40
0.6666504336
40
1.0000000000
40
1.0000000000
40
1.0000000000
40
1.0000000000
10
9.8405731591
20
-20.1975466440
30
0.0000000000
10
9.8405731591
20
-20.2320527964
30
0.0000000000
10
9.8218310642
20
-20.3023862809
30
0.0000000000
10
9.7454431457
20
-20.3787741344
30
0.0000000000
10
9.6751097198
20
-20.3975161830
30
0.0000000000
10
9.6406036201
20
-20.3975161830
30
0.0000000000
11
9.8405731591
21
-20.1975466440
31
0.0000000000
11
9.8137829803
21
-20.2975384304
31
0.0000000000
11
9.7405952646
21
-20.3707260861
31
0.0000000000
11
9.6406036201
21
-20.3975161830
31
0.0000000000
0
SPLINE
5
459
100
AcDbEntity
8
0
100
AcDbSpline
62
0
6
CONTINUOUS
70
0
71
3
72
10
73
6
74
4
42
0.0000001000
43
0.0000001000
44
0.0000000001
12
0.0935594905
22
-0.1769971533
32
0.0000000000
13
0.2002033230
23
0.0000001408
33
0.0000000000
40
0.0000000000
40
0.0000000000
40
0.0000000000
40
0.0000000000
40
0.1404394153
40
0.5054285409
40
1.0000000000
40
1.0000000000
40
1.0000000000
40
1.0000000000
10
-9.8607447975
20
-19.7357741049
30
0.0000000000
10
-9.8563649841
20
-19.7440598971
30
0.0000000000
10
-9.8118461351
20
-19.7324597659
30
0.0000000000
10
-9.7543413228
20
-19.7459101231
30
0.0000000000
10
-9.6937802083
20
-19.7423759417
30
0.0000000000
10
-9.6607752584
20
-19.7423759185
30
0.0000000000
11
-9.8607447975
21
-19.7357741049
31
0.0000000000
11
-9.8328179692
21
-19.7390339099
31
0.0000000000
11
-9.7597857354
21
-19.7414453918
31
0.0000000000
11
-9.6607752584
21
-19.7423759185
31
0.0000000000
0
SPLINE
5
45A
100
AcDbEntity
8
0
100
AcDbSpline
62
9
6
CONTINUOUS
70
0
71
3
72
10
73
6
74
4
42
0.0000001000
43
0.0000001000
44
0.0000000001
12
0.0000945766
22
-0.3105082439
32
0.0000000000
13
0.3105082439
23
-0.0000945766
33
0.0000000000
40
0.0000000000
40
0.0000000000
40
0.0000000000
40
0.0000000000
40
0.3333248774
40
0.6666751226
40
1.0000000000
40
1.0000000000
40
1.0000000000
40
1.0000000000
10
-9.8624598407
20
-20.1005796437
30
0.0000000000
10
-9.8624493324
20
-20.1350796845
30
0.0000000000
10
-9.8436859583
20
-20.2053997292
30
0.0000000000
10
-9.7673103871
20
-20.2817753004
30
0.0000000000
10
-9.6969903424
20
-20.3005386745
30
0.0000000000
10
-9.6624903016
20
-20.3005491828
30
0.0000000000
11
-9.8624598407
21
-20.1005796437
31
0.0000000000
11
-9.8356487042
21
-20.2005468347
31
0.0000000000
11
-9.7624574926
21
-20.2737380463
31
0.0000000000
11
-9.6624903016
21
-20.3005491828
31
0.0000000000
0
SPLINE
5
45B
100
AcDbEntity
8
0
100
AcDbSpline
62
0
6
CONTINUOUS
70
0
71
3
72
8
73
4
74
2
42
0.0000001000
43
0.0000001000
44
0.0000000001
12
-0.0067686895
22
0.0361436906
32
0.0000000000
13
0.0000000000
23
0.0363702067
33
0.0000000000
40
0.0000000000
40
0.0000000000
40
0.0000000000
40
0.0000000000
40
1.0000000000
40
1.0000000000
40
1.0000000000
40
1.0000000000
10
-9.9560137626
20
-20.2339232122
30
0.0000000000
10
-9.9582699924
20
-20.2218753154
30
0.0000000000
10
-9.9594268409
20
-20.2096700462
30
0.0000000000
10
-9.9594268409
20
-20.1975466440
30
0.0000000000
11
-9.9560137626
21
-20.2339232122
31
0.0000000000
11
-9.9594268409
21
-20.1975466440
31
0.0000000000
0
SPLINE
5
45C
100
AcDbEntity
8
0
100
AcDbSpline
62
9
6
CONTINUOUS
70
0
71
3
72
8
73
4
74
2
42
0.0000001000
43
0.0000001000
44
0.0000000001
12
-0.0000000408
22
0.0497323761
32
0.0000000000
13
0.0000297558
23
0.0497358427
33
0.0000000000
40
0.0000000000
40
0.0000000000
40
0.0000000000
40
0.0000000000
40
1.0000000000
40
1.0000000000
40
1.0000000000
40
1.0000000000
10
9.5419215789
20
19.9055672095
30
0.0000000000
10
9.5419215653
20
19.9221446682
30
0.0000000000
10
9.5419358450
20
19.9387209655
30
0.0000000000
10
9.5419457636
20
19.9552995797
30
0.0000000000
11
9.5419215789
21
19.9055672095
31
0.0000000000
11
9.5419457636
21
19.9552995797
31
0.0000000000
0
SPLINE
5
45D
100
AcDbEntity
8
0
100
AcDbSpline
62
9
6
CONTINUOUS
70
0
71
3
72
12
73
8
74
6
42
0.0000001000
43
0.0000001000
44
0.0000000001
12
0.0001497160
22
0.2502455769
32
0.0000000000
13
0.0795921451
23
0.2372323963
33
0.0000000000
40
0.0000000000
40
0.0000000000
40
0.0000000000
40
0.0000000000
40
0.2139777081
40
0.4351918505
40
0.6473578696
40
0.8276287101
40
1.0000000000
40
1.0000000000
40
1.0000000000
40
1.0000000000
10
9.5419457636
20
19.9552995797
30
0.0000000000
10
9.5419564422
20
19.9731485714
30
0.0000000000
10
9.5419678796
20
20.0094556454
30
0.0000000000
10
9.5423580920
20
20.0634068458
30
0.0000000000
10
9.5417613954
20
20.1147424500
30
0.0000000000
10
9.5446600939
20
20.1613775672
30
0.0000000000
10
9.5390634863
20
20.1918861321
30
0.0000000000
10
9.5436366199
20
20.2055168168
30
0.0000000000
11
9.5419457636
21
19.9552995797
31
0.0000000000
11
9.5420283424
21
20.0088427588
31
0.0000000000
11
9.5421856860
21
20.0641965374
31
0.0000000000
11
9.5424306035
21
20.1172858797
31
0.0000000000
11
9.5427651430
21
20.1623934753
31
0.0000000000
11
9.5436366199
21
20.2055168168
31
0.0000000000
0
SPLINE
5
45E
100
AcDbEntity
8
0
100
AcDbSpline
62
9
6
CONTINUOUS
70
0
71
3
72
12
73
8
74
6
42
0.0000001000
43
0.0000001000
44
0.0000000001
12
0.0785662457
22
-0.2365730728
32
0.0000000000
13
0.0002554585
23
-0.2492768971
33
0.0000000000
40
0.0000000000
40
0.0000000000
40
0.0000000000
40
0.0000000000
40
0.2108418104
40
0.3901788047
40
0.6241870642
40
0.9012181106
40
1.0000000000
40
1.0000000000
40
1.0000000000
40
1.0000000000
10
-9.6624903039
20
20.2055168236
30
0.0000000000
10
-9.6569686207
20
20.1888903252
30
0.0000000000
10
-9.6634188394
20
20.1552421063
30
0.0000000000
10
-9.6605546037
20
20.1038357529
30
0.0000000000
10
-9.6611886827
20
20.0463150245
30
0.0000000000
10
-9.6608475081
20
19.9956847231
30
0.0000000000
10
-9.6607911518
20
19.9644605580
30
0.0000000000
10
-9.6607827402
20
19.9562525437
30
0.0000000000
11
-9.6624903039
21
20.2055168236
31
0.0000000000
11
-9.6615333715
21
20.1529673311
31
0.0000000000
11
-9.6612339830
21
20.1082635834
31
0.0000000000
11
-9.6609908033
21
20.0499310017
31
0.0000000000
11
-9.6608314109
21
19.9808734669
31
0.0000000000
11
-9.6607827402
21
19.9562525437
31
0.0000000000
0
SPLINE
5
45F
100
AcDbEntity
8
0
100
AcDbSpline
62
9
6
CONTINUOUS
70
0
71
3
72
8
73
4
74
2
42
0.0000001000
43
0.0000001000
44
0.0000000001
12
0.0000519314
22
-0.0506747817
32
0.0000000000
13
-0.0000001087
23
-0.0506749865
33
0.0000000000
40
0.0000000000
40
0.0000000000
40
0.0000000000
40
0.0000000000
40
1.0000000000
40
1.0000000000
40
1.0000000000
40
1.0000000000
10
-9.6607827402
20
19.9562525437
30
0.0000000000
10
-9.6607654297
20
19.9393609498
30
0.0000000000
10
-9.6607752309
20
19.9224660211
30
0.0000000000
10
-9.6607752672
20
19.9055743589
30
0.0000000000
11
-9.6607827402
21
19.9562525437
31
0.0000000000
11
-9.6607752672
21
19.9055743589
31
0.0000000000
0
SPLINE
5
460
100
AcDbEntity
8
0
100
AcDbSpline
62
9
6
CONTINUOUS
70
0
71
3
72
9
73
5
74
3
42
0.0000001000
43
0.0000001000
44
0.0000000001
12
0.1468705224
22
0.0201855055
32
0.0000000000
13
0.0114188618
23
0.1478107390
33
0.0000000000
40
0.0000000000
40
0.0000000000
40
0.0000000000
40
0.0000000000
40
0.4861579297
40
1.0000000000
40
1.0000000000
40
1.0000000000
40
1.0000000000
10
3.4381174890
20
-20.2996718806
30
0.0000000000
10
3.4619182454
20
-20.2964007660
30
0.0000000000
10
3.4577953810
20
-20.2208752802
30
0.0000000000
10
3.4674925673
20
-20.1809764315
30
0.0000000000
10
3.4694483978
20
-20.1556593061
30
0.0000000000
11
3.4381174890
21
-20.2996718806
31
0.0000000000
11
3.4611758815
21
-20.2313864774
31
0.0000000000
11
3.4694483978
21
-20.1556593061
31
0.0000000000
0
SPLINE
5
461
100
AcDbEntity
8
0
100
AcDbSpline
62
9
6
CONTINUOUS
70
0
71
3
72
9
73
5
74
3
42
0.0000001000
43
0.0000001000
44
0.0000000001
12
-0.1468950503
22
0.0205945447
32
0.0000000000
13
-0.0114239789
23
0.1478911214
33
0.0000000000
40
0.0000000000
40
0.0000000000
40
0.0000000000
40
0.0000000000
40
0.4862860815
40
1.0000000000
40
1.0000000000
40
1.0000000000
40
1.0000000000
10
-3.5569711569
20
-20.2997534837
30
0.0000000000
10
-3.5807821630
20
-20.2964152035
30
0.0000000000
10
-3.5766415301
20
-20.2209352224
30
0.0000000000
10
-3.5863453621
20
-20.1809814025
30
0.0000000000
10
-3.5883015811
20
-20.1556568266
30
0.0000000000
11
-3.5569711569
21
-20.2997534837
31
0.0000000000
11
-3.5800289568
21
-20.2314064939
31
0.0000000000
11
-3.5883015811
21
-20.1556568266
31
0.0000000000
0
SPLINE
5
462
100
AcDbEntity
8
0
100
AcDbSpline
62
9
6
CONTINUOUS
70
0
71
3
72
8
73
4
74
2
42
0.0000001000
43
0.0000001000
44
0.0000000001
12
-0.0000000028
22
-0.0526542886
32
0.0000000000
13
-0.0000334437
23
-0.0526581742
33
0.0000000000
40
0.0000000000
40
0.0000000000
40
0.0000000000
40
0.0000000000
40
1.0000000000
40
1.0000000000
40
1.0000000000
40
1.0000000000
10
-9.6607752583
20
-20.0005945707
30
0.0000000000
10
-9.6607752592
20
-20.0181460002
30
0.0000000000
10
-9.6607912300
20
-20.0356961276
30
0.0000000000
10
-9.6608023779
20
-20.0532488523
30
0.0000000000
11
-9.6607752583
21
-20.0005945707
31
0.0000000000
11
-9.6608023779
21
-20.0532488523
31
0.0000000000
0
SPLINE
5
463
100
AcDbEntity
8
0
100
AcDbSpline
62
9
6
CONTINUOUS
70
0
71
3
72
12
73
8
74
6
42
0.0000001000
43
0.0000001000
44
0.0000000001
12
-0.0001570813
22
-0.2473294780
32
0.0000000000
13
-0.0782815553
23
-0.2345950589
33
0.0000000000
40
0.0000000000
40
0.0000000000
40
0.0000000000
40
0.0000000000
40
0.2272139545
40
0.4557078043
40
0.6669895923
40
0.8401469048
40
1.0000000000
40
1.0000000000
40
1.0000000000
40
1.0000000000
10
-9.6608023779
20
-20.0532488523
30
0.0000000000
10
-9.6608142749
20
-20.0719810886
30
0.0000000000
10
-9.6608271194
20
-20.1095570126
30
0.0000000000
10
-9.6612416634
20
-20.1644947369
30
0.0000000000
10
-9.6606527750
20
-20.2151748436
30
0.0000000000
10
-9.6634260852
20
-20.2595923845
30
0.0000000000
10
-9.6583190515
20
-20.2880487298
30
0.0000000000
10
-9.6624902345
20
-20.3005489786
30
0.0000000000
11
-9.6608023779
21
-20.0532488523
31
0.0000000000
11
-9.6608943003
21
-20.1094413393
31
0.0000000000
11
-9.6610645145
21
-20.1659501775
31
0.0000000000
11
-9.6613193555
21
-20.2182019145
31
0.0000000000
11
-9.6616542960
21
-20.2610243523
31
0.0000000000
11
-9.6624902345
21
-20.3005489786
31
0.0000000000
0
SPLINE
5
464
100
AcDbEntity
8
0
100
AcDbSpline
62
9
6
CONTINUOUS
70
0
71
3
72
12
73
8
74
6
42
0.0000001000
43
0.0000001000
44
0.0000000001
12
-0.0779901054
22
0.2337333857
32
0.0000000000
13
-0.0002682801
23
0.2464002158
33
0.0000000000
40
0.0000000000
40
0.0000000000
40
0.0000000000
40
0.0000000000
40
0.1952319686
40
0.3697212070
40
0.6062280253
40
0.8953385632
40
1.0000000000
40
1.0000000000
40
1.0000000000
40
1.0000000000
10
9.5436366199
20
-20.3005491828
30
0.0000000000
10
9.5385612326
20
-20.2853384398
30
0.0000000000
10
9.5445250714
20
-20.2538233617
30
0.0000000000
10
9.5417136429
20
-20.2044842538
30
0.0000000000
10
9.5423680651
20
-20.1468189069
30
0.0000000000
10
9.5420010813
20
-20.0950965365
30
0.0000000000
10
9.5419390583
20
-20.0627580433
30
0.0000000000
10
9.5419296988
20
-20.0541618431
30
0.0000000000
11
9.5436366199
21
-20.3005491828
31
0.0000000000
11
9.5427186157
21
-20.2524524719
31
0.0000000000
11
9.5424140505
21
-20.2094591218
31
0.0000000000
11
9.5421574566
21
-20.1511840266
31
0.0000000000
11
9.5419838444
21
-20.0799469369
31
0.0000000000
11
9.5419296988
21
-20.0541618431
31
0.0000000000
0
SPLINE
5
465
100
AcDbEntity
8
0
100
AcDbSpline
62
9
6
CONTINUOUS
70
0
71
3
72
8
73
4
74
2
42
0.0000001000
43
0.0000001000
44
0.0000000001
12
-0.0000583193
22
0.0535630383
32
0.0000000000
13
0.0000000527
23
0.0535633408
33
0.0000000000
40
0.0000000000
40
0.0000000000
40
0.0000000000
40
0.0000000000
40
1.0000000000
40
1.0000000000
40
1.0000000000
40
1.0000000000
10
9.5419296988
20
-20.0541618431
30
0.0000000000
10
9.5419102590
20
-20.0363074970
30
0.0000000000
10
9.5419215591
20
-20.0184493212
30
0.0000000000
10
9.5419215767
20
-20.0005948742
30
0.0000000000
11
9.5419296988
21
-20.0541618431
31
0.0000000000
11
9.5419215767
21
-20.0005948742
31
0.0000000000
0
SPLINE
5
466
100
AcDbEntity
8
0
100
AcDbSpline
62
0
6
CONTINUOUS
70
0
71
3
72
8
73
4
74
2
42
0.0000001000
43
0.0000001000
44
0.0000000001
12
-0.0781997658
22
0.0000000000
32
0.0000000000
13
-0.0761850971
23
0.0203857273
33
0.0000000000
40
0.0000000000
40
0.0000000000
40
0.0000000000
40
0.0000000000
40
1.0000000000
40
1.0000000000
40
1.0000000000
40
1.0000000000
10
4.8399165382
20
18.4524838170
30
0.0000000000
10
4.8138499496
20
18.4524838170
30
0.0000000000
10
4.7875918978
20
18.4559679674
30
0.0000000000
10
4.7621968654
20
18.4627632099
30
0.0000000000
11
4.8399165382
21
18.4524838170
31
0.0000000000
11
4.7621968654
21
18.4627632099
31
0.0000000000
0
SPLINE
5
467
100
AcDbEntity
8
0
100
AcDbSpline
62
0
6
CONTINUOUS
70
0
71
3
72
9
73
5
74
3
42
0.0000001000
43
0.0000001000
44
0.0000000001
12
-0.1512752381
22
0.0404784645
32
0.0000000000
13
-0.1106101768
23
0.1102180056
33
0.0000000000
40
0.0000000000
40
0.0000000000
40
0.0000000000
40
0.0000000000
40
0.2503272562
40
1.0000000000
40
1.0000000000
40
1.0000000000
40
1.0000000000
10
4.7621968654
20
18.4627632099
30
0.0000000000
10
4.7495740937
20
18.4661408308
30
0.0000000000
10
4.7000007882
20
18.4829015995
30
0.0000000000
10
4.6558966510
20
18.5123779160
30
0.0000000000
10
4.6282561728
20
18.5399203942
30
0.0000000000
11
4.7621968654
21
18.4627632099
31
0.0000000000
11
4.7250977131
21
18.4753289890
31
0.0000000000
11
4.6282561728
21
18.5399203942
31
0.0000000000
0
SPLINE
5
468
100
AcDbEntity
8
0
100
AcDbSpline
62
0
6
CONTINUOUS
70
0
71
3
72
9
73
5
74
3
42
0.0000001000
43
0.0000001000
44
0.0000000001
12
-0.1390478725
22
0.1385548748
32
0.0000000000
13
-0.0259093627
23
0.1946549068
33
0.0000000000
40
0.0000000000
40
0.0000000000
40
0.0000000000
40
0.0000000000
40
0.5989768377
40
1.0000000000
40
1.0000000000
40
1.0000000000
40
1.0000000000
10
4.6282561728
20
18.5399203942
30
0.0000000000
10
4.6004940211
20
18.5675841145
30
0.0000000000
10
4.5632787099
20
18.6229395934
30
0.0000000000
10
4.5461521412
20
18.6869802427
30
0.0000000000
10
4.5426887230
20
18.7130006182
30
0.0000000000
11
4.6282561728
21
18.5399203942
31
0.0000000000
11
4.5631191057
21
18.6370134207
31
0.0000000000
11
4.5426887230
21
18.7130006182
31
0.0000000000
0
SPLINE
5
469
100
AcDbEntity
8
0
100
AcDbSpline
62
0
6
CONTINUOUS
70
0
71
3
72
10
73
6
74
4
42
0.0000001000
43
0.0000001000
44
0.0000000001
12
0.2000361656
22
-0.0000000018
32
0.0000000000
13
0.1415661040
23
0.1413276538
33
0.0000000000
40
0.0000000000
40
0.0000000000
40
0.0000000000
40
0.0000000000
40
0.4939061932
40
0.8585863064
40
1.0000000000
40
1.0000000000
40
1.0000000000
40
1.0000000000
10
9.5336793721
20
-10.3557563097
30
0.0000000000
10
9.5666124058
20
-10.3557563100
30
0.0000000000
10
9.6256389599
20
-10.3591297786
30
0.0000000000
10
9.6871876279
20
-10.3477943197
30
0.0000000000
10
9.7269778740
20
-10.3589880983
30
0.0000000000
10
9.7336510025
20
-10.3523262098
30
0.0000000000
11
9.5336793721
21
-10.3557563097
31
0.0000000000
11
9.6324774218
21
-10.3553005231
31
0.0000000000
11
9.7054159895
21
-10.3540544069
31
0.0000000000
11
9.7336510025
21
-10.3523262098
31
0.0000000000
0
SPLINE
5
46A
100
AcDbEntity
8
0
100
AcDbSpline
62
0
6
CONTINUOUS
70
0
71
3
72
10
73
6
74
4
42
0.0000001000
43
0.0000001000
44
0.0000000001
12
-0.1415446682
22
0.1413542943
32
0.0000000000
13
-0.2000398201
23
-0.0000000014
33
0.0000000000
40
0.0000000000
40
0.0000000000
40
0.0000000000
40
0.0000000000
40
0.1415093173
40
0.5062463800
40
1.0000000000
40
1.0000000000
40
1.0000000000
40
1.0000000000
10
9.7332941187
20
-9.7423492724
30
0.0000000000
10
9.7266174889
20
-9.7356816225
30
0.0000000000
10
9.6868116536
20
-9.7468798567
30
0.0000000000
10
9.6252635894
20
-9.7355434158
30
0.0000000000
10
9.5662424270
20
-9.7389153982
30
0.0000000000
10
9.5333189652
20
-9.7389153985
30
0.0000000000
11
9.7332941187
21
-9.7423492724
31
0.0000000000
11
9.7050395729
21
-9.7406186355
31
0.0000000000
11
9.6320882980
21
-9.7393713767
31
0.0000000000
11
9.5333189652
21
-9.7389153985
31
0.0000000000
0
SPLINE
5
46B
100
AcDbEntity
8
0
100
AcDbSpline
62
0
6
CONTINUOUS
70
0
71
3
72
10
73
6
74
4
42
0.0000001000
43
0.0000001000
44
0.0000000001
12
-0.2000398201
22
0.0000000014
32
0.0000000000
13
-0.1415446684
23
-0.1413542942
33
0.0000000000
40
0.0000000000
40
0.0000000000
40
0.0000000000
40
0.0000000000
40
0.4937536200
40
0.8584906827
40
1.0000000000
40
1.0000000000
40
1.0000000000
40
1.0000000000
10
-9.6521726469
20
-9.7389153985
30
0.0000000000
10
-9.6850961087
20
-9.7389153982
30
0.0000000000
10
-9.7441172712
20
-9.7355434158
30
0.0000000000
10
-9.8056653354
20
-9.7468798567
30
0.0000000000
10
-9.8454711707
20
-9.7356816225
30
0.0000000000
10
-9.8521478005
20
-9.7423492724
30
0.0000000000
11
-9.6521726469
21
-9.7389153985
31
0.0000000000
11
-9.7509419797
21
-9.7393713767
31
0.0000000000
11
-9.8238932546
21
-9.7406186355
31
0.0000000000
11
-9.8521478005
21
-9.7423492724
31
0.0000000000
0
SPLINE
5
46C
100
AcDbEntity
8
0
100
AcDbSpline
62
0
6
CONTINUOUS
70
0
71
3
72
10
73
6
74
4
42
0.0000001000
43
0.0000001000
44
0.0000000001
12
0.1415661042
22
-0.1413276537
32
0.0000000000
13
0.2000361656
23
0.0000000018
33
0.0000000000
40
0.0000000000
40
0.0000000000
40
0.0000000000
40
0.0000000000
40
0.1414136936
40
0.5060938068
40
1.0000000000
40
1.0000000000
40
1.0000000000
40
1.0000000000
10
-9.8525046843
20
-10.3523262098
30
0.0000000000
10
-9.8458315557
20
-10.3589880983
30
0.0000000000
10
-9.8060413096
20
-10.3477943197
30
0.0000000000
10
-9.7444926417
20
-10.3591297786
30
0.0000000000
10
-9.6854660875
20
-10.3557563100
30
0.0000000000
10
-9.6525330538
20
-10.3557563097
30
0.0000000000
11
-9.8525046843
21
-10.3523262098
31
0.0000000000
11
-9.8242696712
21
-10.3540544069
31
0.0000000000
11
-9.7513311035
21
-10.3553005231
31
0.0000000000
11
-9.6525330538
21
-10.3557563097
31
0.0000000000
0
SPLINE
5
46D
100
AcDbEntity
8
0
100
AcDbSpline
62
0
6
CONTINUOUS
70
0
71
3
72
10
73
6
74
4
42
0.0000001000
43
0.0000001000
44
0.0000000001
12
-0.1415935899
22
0.1413058574
32
0.0000000000
13
-0.2000402210
23
-0.0000000022
33
0.0000000000
40
0.0000000000
40
0.0000000000
40
0.0000000000
40
0.0000000000
40
0.1414539305
40
0.5061574823
40
1.0000000000
40
1.0000000000
40
1.0000000000
40
1.0000000000
10
9.7373950949
20
15.2535497514
30
0.0000000000
10
9.7307187716
20
15.2602125077
30
0.0000000000
10
9.6909251518
20
15.2490201800
30
0.0000000000
10
9.6293728742
20
15.2603531854
30
0.0000000000
10
9.5703489140
20
15.2569813578
30
0.0000000000
10
9.5374194585
20
15.2569813575
30
0.0000000000
11
9.7373950949
21
15.2535497514
31
0.0000000000
11
9.7091515014
21
15.2552789002
31
0.0000000000
11
9.6362067730
21
15.2565254671
31
0.0000000000
11
9.5374194585
21
15.2569813575
31
0.0000000000
0
SPLINE
5
46E
100
AcDbEntity
8
0
100
AcDbSpline
62
0
6
CONTINUOUS
70
0
71
3
72
10
73
6
74
4
42
0.0000001000
43
0.0000001000
44
0.0000000001
12
0.2000457144
22
-0.0000000019
32
0.0000000000
13
0.1415779482
23
0.1413293050
33
0.0000000000
40
0.0000000000
40
0.0000000000
40
0.0000000000
40
0.0000000000
40
0.4936112202
40
0.8584008113
40
1.0000000000
40
1.0000000000
40
1.0000000000
40
1.0000000000
10
9.5368848847
20
14.6474513264
30
0.0000000000
10
9.5697998211
20
14.6474513261
30
0.0000000000
10
9.6288150529
20
14.6440822717
30
0.0000000000
10
9.6903679059
20
14.6554152880
30
0.0000000000
10
9.7301833769
20
14.6442179005
30
0.0000000000
10
9.7368658177
20
14.6508886054
30
0.0000000000
11
9.5368848847
21
14.6474513264
31
0.0000000000
11
9.6356286401
21
14.6479075148
31
0.0000000000
11
9.7085925574
21
14.6491557935
31
0.0000000000
11
9.7368658177
21
14.6508886054
31
0.0000000000
0
SPLINE
5
46F
100
AcDbEntity
8
0
100
AcDbSpline
62
0
6
CONTINUOUS
70
0
71
3
72
8
73
4
74
2
42
0.0000001000
43
0.0000001000
44
0.0000000001
12
-0.0000570413
22
0.0994202789
32
0.0000000000
13
-0.0000573320
23
0.0994202788
33
0.0000000000
40
0.0000000000
40
0.0000000000
40
0.0000000000
40
0.0000000000
40
1.0000000000
40
1.0000000000
40
1.0000000000
40
1.0000000000
10
-4.6593696542
20
19.5479232736
30
0.0000000000
10
-4.6593886680
20
19.5810633666
30
0.0000000000
10
-4.6594077302
20
19.6142034596
30
0.0000000000
10
-4.6594268409
20
19.6473435525
30
0.0000000000
11
-4.6593696542
21
19.5479232736
31
0.0000000000
11
-4.6594268409
21
19.6473435525
31
0.0000000000
0
SPLINE
5
470
100
AcDbEntity
8
0
100
AcDbSpline
62
0
6
CONTINUOUS
70
0
71
3
72
10
73
6
74
4
42
0.0000001000
43
0.0000001000
44
0.0000000001
12
0.1415779476
22
-0.1413293056
32
0.0000000000
13
0.2000457144
23
0.0000000019
33
0.0000000000
40
0.0000000000
40
0.0000000000
40
0.0000000000
40
0.0000000000
40
0.1415991887
40
0.5063887798
40
1.0000000000
40
1.0000000000
40
1.0000000000
40
1.0000000000
10
-9.8557194995
20
14.6508886054
30
0.0000000000
10
-9.8490370586
20
14.6442179004
30
0.0000000000
10
-9.8092215876
20
14.6554152880
30
0.0000000000
10
-9.7476687346
20
14.6440822717
30
0.0000000000
10
-9.6886535028
20
14.6474513261
30
0.0000000000
10
-9.6557385664
20
14.6474513264
30
0.0000000000
11
-9.8557194995
21
14.6508886054
31
0.0000000000
11
-9.8274462391
21
14.6491557935
31
0.0000000000
11
-9.7544823219
21
14.6479075148
31
0.0000000000
11
-9.6557385664
21
14.6474513264
31
0.0000000000
0
SPLINE
5
471
100
AcDbEntity
8
0
100
AcDbSpline
62
0
6
CONTINUOUS
70
0
71
3
72
8
73
4
74
2
42
0.0000001000
43
0.0000001000
44
0.0000000001
12
-0.0000570413
22
0.0994202789
32
0.0000000000
13
-0.0000573320
23
0.0994202788
33
0.0000000000
40
0.0000000000
40
0.0000000000
40
0.0000000000
40
0.0000000000
40
1.0000000000
40
1.0000000000
40
1.0000000000
40
1.0000000000
10
5.3406303458
20
19.5479232736
30
0.0000000000
10
5.3406113320
20
19.5810633666
30
0.0000000000
10
5.3405922698
20
19.6142034596
30
0.0000000000
10
5.3405731591
20
19.6473435525
30
0.0000000000
11
5.3406303458
21
19.5479232736
31
0.0000000000
11
5.3405731591
21
19.6473435525
31
0.0000000000
0
SPLINE
5
472
100
AcDbEntity
8
0
100
AcDbSpline
62
0
6
CONTINUOUS
70
0
71
3
72
13
73
9
74
7
42
0.0000001000
43
0.0000001000
44
0.0000000001
12
-0.9465501270
22
0.0000000000
32
0.0000000000
13
0.9465501270
23
0.0000000000
33
0.0000000000
40
0.0000000000
40
0.0000000000
40
0.0000000000
40
0.0000000000
40
0.1683728946
40
0.3342930806
40
0.4999949065
40
0.6656917469
40
0.8316143386
40
1.0000000000
40
1.0000000000
40
1.0000000000
40
1.0000000000
10
8.6405731591
20
15.2569813575
30
0.0000000000
10
8.5874486975
20
15.2569813575
30
0.0000000000
10
8.4798962399
20
15.2280696881
30
0.0000000000
10
8.3640579050
20
15.1108527800
30
0.0000000000
10
8.3216903997
20
14.9522231230
30
0.0000000000
10
8.3640515488
20
14.7935915285
30
0.0000000000
10
8.4798869705
20
14.6763667612
30
0.0000000000
10
8.5874446694
20
14.6474513263
30
0.0000000000
10
8.6405731591
20
14.6474513263
30
0.0000000000
11
8.6405731591
21
15.2569813575
31
0.0000000000
11
8.4867439085
21
15.2153107753
31
0.0000000000
11
8.3761679089
21
15.1037840621
31
0.0000000000
11
8.3358055368
21
14.9522213378
31
0.0000000000
11
8.3761605096
21
14.8006615267
31
0.0000000000
11
8.4867331002
21
14.6891282271
31
0.0000000000
11
8.6405731591
21
14.6474513263
31
0.0000000000
0
SPLINE
5
473
100
AcDbEntity
8
0
100
AcDbSpline
62
0
6
CONTINUOUS
70
0
71
3
72
13
73
9
74
7
42
0.0000001000
43
0.0000001000
44
0.0000000001
12
-0.9579033827
22
0.0000000000
32
0.0000000000
13
0.9579033827
23
0.0000000000
33
0.0000000000
40
0.0000000000
40
0.0000000000
40
0.0000000000
40
0.0000000000
40
0.1684222848
40
0.3343404494
40
0.5000034041
40
0.6656696982
40
0.8315862997
40
1.0000000000
40
1.0000000000
40
1.0000000000
40
1.0000000000
10
8.6405731591
20
-9.7389153984
30
0.0000000000
10
8.5867957337
20
-9.7389153984
30
0.0000000000
10
8.4779363841
20
-9.7681876617
30
0.0000000000
10
8.3607258934
20
-9.8868310119
30
0.0000000000
10
8.3178718279
20
-10.0473404428
30
0.0000000000
10
8.3607301973
20
-10.2078485782
30
0.0000000000
10
8.4779426743
20
-10.3264866052
30
0.0000000000
10
8.5867984747
20
-10.3557563098
30
0.0000000000
10
8.6405731591
20
-10.3557563098
30
0.0000000000
11
8.6405731591
21
-9.7389153984
31
0.0000000000
11
8.4848565075
21
-9.7811105143
31
0.0000000000
11
8.3729731217
21
-9.8939909289
31
0.0000000000
11
8.3321499722
21
-10.0473392331
31
0.0000000000
11
8.3729781289
21
-10.2006895145
31
0.0000000000
11
8.4848638619
21
-10.3135654945
31
0.0000000000
11
8.6405731591
21
-10.3557563098
31
0.0000000000
0
SPLINE
5
474
100
AcDbEntity
8
0
100
AcDbSpline
62
0
6
CONTINUOUS
70
0
71
3
72
16
73
12
74
10
42
0.0000001000
43
0.0000001000
44
0.0000000001
12
12.1168517532
22
-7.4891993630
32
0.0000000000
13
-12.4930423318
23
-6.8432519173
33
0.0000000000
40
0.0000000000
40
0.0000000000
40
0.0000000000
40
0.0000000000
40
0.1096104388
40
0.2202439964
40
0.3320433021
40
0.4441924707
40
0.5569501295
40
0.6691855110
40
0.7806422211
40
0.8909604546
40
1.0000000000
40
1.0000000000
40
1.0000000000
40
1.0000000000
10
5.5042828628
20
-7.7048439584
30
0.0000000000
10
5.9469940088
20
-7.9784754346
30
0.0000000000
10
6.7748527674
20
-8.6357435885
30
0.0000000000
10
7.7575033744
20
-9.8860433451
30
0.0000000000
10
8.4314536636
20
-11.3406688344
30
0.0000000000
10
8.7558188943
20
-12.9206381352
30
0.0000000000
10
8.7104749981
20
-14.5351227940
30
0.0000000000
10
8.2985511787
20
-16.0932537685
30
0.0000000000
10
7.5469588029
20
-17.5060094071
30
0.0000000000
10
6.5024834240
20
-18.6971721382
30
0.0000000000
10
5.6446517115
20
-19.3073446206
30
0.0000000000
10
5.1905731591
20
-19.5560729800
30
0.0000000000
11
5.5042828628
21
-7.7048439584
31
0.0000000000
11
6.7273981499
21
-8.6753052335
31
0.0000000000
11
7.7020475648
21
-9.9136858834
31
0.0000000000
11
8.3720925840
21
-11.3583939870
31
0.0000000000
11
8.6938381704
21
-12.9231685946
31
0.0000000000
11
8.6488187821
21
-14.5287156954
31
0.0000000000
11
8.2398272975
21
-16.0742547415
31
0.0000000000
11
7.4935875750
21
-17.4755928598
31
0.0000000000
11
6.4566489655
21
-18.6563340130
31
0.0000000000
11
5.1905731591
21
-19.5560729800
31
0.0000000000
0
SPLINE
5
475
100
AcDbEntity
8
0
100
AcDbSpline
62
0
6
CONTINUOUS
70
0
71
3
72
9
73
5
74
3
42
0.0000001000
43
0.0000001000
44
0.0000000001
12
-2.3706446575
22
1.4652511082
32
0.0000000000
13
-2.3647184590
23
1.4747960915
33
0.0000000000
40
0.0000000000
40
0.0000000000
40
0.0000000000
40
0.0000000000
40
0.5011979925
40
1.0000000000
40
1.0000000000
40
1.0000000000
40
1.0000000000
10
5.5042848795
20
-7.7048452076
30
0.0000000000
10
5.1082307651
20
-7.4600515697
30
0.0000000000
10
4.3185043979
20
-6.9708437015
30
0.0000000000
10
3.5297656988
20
-6.4800450110
30
0.0000000000
10
3.1365902606
20
-6.2348345939
30
0.0000000000
11
5.5042848795
21
-7.7048452076
31
0.0000000000
11
4.3168603270
21
-6.9692719531
31
0.0000000000
11
3.1365902606
21
-6.2348345939
31
0.0000000000
0
SPLINE
5
476
100
AcDbEntity
8
0
100
AcDbSpline
62
0
6
CONTINUOUS
70
0
71
3
72
9
73
5
74
3
42
0.0000001000
43
0.0000001000
44
0.0000000001
12
2.3706446576
22
1.4652511080
32
0.0000000000
13
2.3647184590
23
1.4747960915
33
0.0000000000
40
0.0000000000
40
0.0000000000
40
0.0000000000
40
0.0000000000
40
0.5011979925
40
1.0000000000
40
1.0000000000
40
1.0000000000
40
1.0000000000
10
-5.6231385613
20
-7.7048452076
30
0.0000000000
10
-5.2270844468
20
-7.4600515697
30
0.0000000000
10
-4.4373580796
20
-6.9708437014
30
0.0000000000
10
-3.6486193805
20
-6.4800450110
30
0.0000000000
10
-3.2554439423
20
-6.2348345939
30
0.0000000000
11
-5.6231385613
21
-7.7048452076
31
0.0000000000
11
-4.4357140088
21
-6.9692719531
31
0.0000000000
11
-3.2554439423
21
-6.2348345939
31
0.0000000000
0
SPLINE
5
477
100
AcDbEntity
8
0
100
AcDbSpline
62
0
6
CONTINUOUS
70
0
71
3
72
16
73
12
74
10
42
0.0000001000
43
0.0000001000
44
0.0000000001
12
-12.4930422721
22
6.8432518843
32
0.0000000000
13
12.1168516956
23
7.4891993264
33
0.0000000000
40
0.0000000000
40
0.0000000000
40
0.0000000000
40
0.0000000000
40
0.1090237711
40
0.2193315054
40
0.3307834695
40
0.4430061367
40
0.5557601662
40
0.6679303030
40
0.7797247653
40
0.8903833853
40
1.0000000000
40
1.0000000000
40
1.0000000000
40
1.0000000000
10
-5.3094268409
20
-19.5560729746
30
0.0000000000
10
-5.7634397012
20
-19.3073805989
30
0.0000000000
10
-6.6211763358
20
-18.6972976935
30
0.0000000000
10
-7.6656052369
20
-17.5062951032
30
0.0000000000
10
-8.4172184361
20
-16.0937032666
30
0.0000000000
10
-8.8292354945
20
-14.5357049757
30
0.0000000000
10
-8.8747316267
20
-12.9212038732
30
0.0000000000
10
-8.5504733319
20
-11.3411448357
30
0.0000000000
10
-7.8765287318
20
-9.8863023485
30
0.0000000000
10
-6.8938452104
20
-8.6358579946
30
0.0000000000
10
-6.0658726690
20
-7.9784908733
30
0.0000000000
10
-5.6231365810
20
-7.7048439810
30
0.0000000000
11
-5.3094268409
21
-19.5560729746
31
0.0000000000
11
-6.5753346629
21
-18.6564855348
31
0.0000000000
11
-7.6122269406
21
-17.4759027465
31
0.0000000000
11
-8.3585184259
21
-16.0746687977
31
0.0000000000
11
-8.7675827225
21
-14.5293363731
31
0.0000000000
11
-8.8127511894
21
-12.9238451864
31
0.0000000000
11
-8.4910647314
21
-11.3587535034
31
0.0000000000
11
-7.8211356527
21
-9.9140676889
31
0.0000000000
11
-6.8463143654
21
-8.6753680120
31
0.0000000000
11
-5.6231365810
21
-7.7048439810
31
0.0000000000
0
SPLINE
5
478
100
AcDbEntity
8
0
100
AcDbSpline
62
0
6
CONTINUOUS
70
0
71
3
72
13
73
9
74
7
42
0.0000001000
43
0.0000001000
44
0.0000000001
12
0.9579033827
22
0.0000000000
32
0.0000000000
13
-0.9579033827
23
0.0000000000
33
0.0000000000
40
0.0000000000
40
0.0000000000
40
0.0000000000
40
0.0000000000
40
0.1684137652
40
0.3343304228
40
0.4999967029
40
0.6656596814
40
0.8315777856
40
1.0000000000
40
1.0000000000
40
1.0000000000
40
1.0000000000
10
-8.7594268409
20
-10.3557563098
30
0.0000000000
10
-8.7056521357
20
-10.3557563098
30
0.0000000000
10
-8.5967962942
20
-10.3264865823
30
0.0000000000
10
-8.4795838245
20
-10.2078484903
30
0.0000000000
10
-8.4367255087
20
-10.0473403199
30
0.0000000000
10
-8.4795796322
20
-9.8868309188
30
0.0000000000
10
-8.5967901328
20
-9.7681876369
30
0.0000000000
10
-8.7056494379
20
-9.7389153984
30
0.0000000000
10
-8.7594268409
20
-9.7389153984
30
0.0000000000
11
-8.7594268409
21
-10.3557563098
31
0.0000000000
11
-8.6037174880
21
-10.3135654620
31
0.0000000000
11
-8.4918317510
21
-10.2006894105
31
0.0000000000
11
-8.4510036539
21
-10.0473391270
31
0.0000000000
11
-8.4918268680
21
-9.8939908163
31
0.0000000000
11
-8.6037102496
21
-9.7811104790
31
0.0000000000
11
-8.7594268409
21
-9.7389153984
31
0.0000000000
0
SPLINE
5
479
100
AcDbEntity
8
0
100
AcDbSpline
62
0
6
CONTINUOUS
70
0
71
3
72
13
73
9
74
7
42
0.0000001000
43
0.0000001000
44
0.0000000001
12
0.9465501270
22
0.0000000000
32
0.0000000000
13
-0.9465501270
23
0.0000000000
33
0.0000000000
40
0.0000000000
40
0.0000000000
40
0.0000000000
40
0.0000000000
40
0.1683855649
40
0.3343080720
40
0.5000049335
40
0.6657067239
40
0.8316270007
40
1.0000000000
40
1.0000000000
40
1.0000000000
40
1.0000000000
10
-8.7594268409
20
14.6474513263
30
0.0000000000
10
-8.7062983816
20
14.6474513263
30
0.0000000000
10
-8.5987407434
20
14.6763667276
30
0.0000000000
10
-8.4829053111
20
14.7935913987
30
0.0000000000
10
-8.4405440828
20
14.9522229414
30
0.0000000000
10
-8.4829115026
20
15.1108526427
30
0.0000000000
10
-8.5987498231
20
15.2280696518
30
0.0000000000
10
-8.7063023463
20
15.2569813575
30
0.0000000000
10
-8.7594268409
20
15.2569813575
30
0.0000000000
11
-8.7594268409
21
14.6474513263
31
0.0000000000
11
-8.6055868636
21
14.6891281793
31
0.0000000000
11
-8.4950142797
21
14.8006613726
31
0.0000000000
11
-8.4546592185
21
14.9522211810
31
0.0000000000
11
-8.4950214954
21
15.1037838959
31
0.0000000000
11
-8.6055975016
21
15.2153107235
31
0.0000000000
11
-8.7594268409
21
15.2569813575
31
0.0000000000
0
SPLINE
5
47A
100
AcDbEntity
8
0
100
AcDbSpline
62
9
6
CONTINUOUS
70
0
71
3
72
9
73
5
74
3
42
0.0000001000
43
0.0000001000
44
0.0000000001
12
0.0707129781
22
-0.0707234489
32
0.0000000000
13
-0.0000001149
23
-0.1000106569
33
0.0000000000
40
0.0000000000
40
0.0000000000
40
0.0000000000
40
0.0000000000
40
0.3245603422
40
1.0000000000
40
1.0000000000
40
1.0000000000
40
1.0000000000
10
-9.8624598407
20
20.0055472778
30
0.0000000000
10
-9.8548096312
20
19.9978959355
30
0.0000000000
10
-9.8679662810
20
19.9581428801
30
0.0000000000
10
-9.8607447716
20
19.9280795629
30
0.0000000000
10
-9.8607447975
20
19.9055625082
30
0.0000000000
11
-9.8624598407
21
20.0055472778
31
0.0000000000
11
-9.8612032613
21
19.9731121163
31
0.0000000000
11
-9.8607447975
21
19.9055625082
31
0.0000000000
0
SPLINE
5
47B
100
AcDbEntity
8
0
100
AcDbSpline
62
9
6
CONTINUOUS
70
0
71
3
72
9
73
5
74
3
42
0.0000001000
43
0.0000001000
44
0.0000000001
12
-0.0039304971
22
4.3871925397
32
0.0000000000
13
-0.0050618704
23
4.3871913802
33
0.0000000000
40
0.0000000000
40
0.0000000000
40
0.0000000000
40
0.0000000000
40
0.5000409325
40
1.0000000000
40
1.0000000000
40
1.0000000000
40
1.0000000000
10
-9.8562487766
20
15.2535497514
30
0.0000000000
10
-9.8569039131
20
15.9848083676
30
0.0000000000
10
-9.8583084267
20
17.4472057978
30
0.0000000000
10
-9.8599012214
20
18.9096030351
30
0.0000000000
10
-9.8607447975
20
19.6407417389
30
0.0000000000
11
-9.8562487766
21
15.2535497514
31
0.0000000000
11
-9.8583556197
21
17.4473254686
31
0.0000000000
11
-9.8607447975
21
19.6407417389
31
0.0000000000
0
SPLINE
5
47C
100
AcDbEntity
8
0
100
AcDbSpline
62
9
6
CONTINUOUS
70
0
71
3
72
10
73
6
74
4
42
0.0000001000
43
0.0000001000
44
0.0000000001
12
0.0138367900
22
24.3932360553
32
0.0000000000
13
-0.0209910981
23
24.3932309479
33
0.0000000000
40
0.0000000000
40
0.0000000000
40
0.0000000000
40
0.0000000000
40
0.3333816775
40
0.6667805794
40
1.0000000000
40
1.0000000000
40
1.0000000000
40
1.0000000000
10
-9.8521478005
20
-9.7423492724
30
0.0000000000
10
-9.8506101564
20
-7.0315966204
30
0.0000000000
10
-9.8488258835
20
-1.6099504392
30
0.0000000000
10
-9.8500160699
20
6.5211297425
30
0.0000000000
10
-9.8533879523
20
11.9414558447
30
0.0000000000
10
-9.8557194995
20
14.6508886054
30
0.0000000000
11
-9.8521478005
21
-9.7423492724
31
0.0000000000
11
-9.8494703628
21
-1.6100904487
31
0.0000000000
11
-9.8506612513
21
6.5225888875
31
0.0000000000
11
-9.8557194995
21
14.6508886054
31
0.0000000000
0
SPLINE
5
47D
100
AcDbEntity
8
0
100
AcDbSpline
62
9
6
CONTINUOUS
70
0
71
3
72
9
73
5
74
3
42
0.0000001000
43
0.0000001000
44
0.0000000001
12
0.0108264765
22
9.3834453564
32
0.0000000000
13
0.0056579316
23
9.3834498963
33
0.0000000000
40
0.0000000000
40
0.0000000000
40
0.0000000000
40
0.0000000000
40
0.4999133897
40
1.0000000000
40
1.0000000000
40
1.0000000000
40
1.0000000000
10
-9.8607447975
20
-19.7357741049
30
0.0000000000
10
-9.8589406973
20
-18.1721374464
30
0.0000000000
10
-9.8557637905
20
-15.0443218145
30
0.0000000000
10
-9.8534478362
20
-11.9165054268
30
0.0000000000
10
-9.8525046843
20
-10.3523262098
30
0.0000000000
11
-9.8607447975
21
-19.7357741049
31
0.0000000000
11
-9.8559795044
21
-15.0448634274
31
0.0000000000
11
-9.8525046843
21
-10.3523262098
31
0.0000000000
0
SPLINE
5
47E
100
AcDbEntity
8
0
100
AcDbSpline
62
9
6
CONTINUOUS
70
0
71
3
72
9
73
5
74
3
42
0.0000001000
43
0.0000001000
44
0.0000000001
12
-0.0000000035
22
-0.1000049608
32
0.0000000000
13
-0.0708473023
23
-0.0705808185
33
0.0000000000
40
0.0000000000
40
0.0000000000
40
0.0000000000
40
0.0000000000
40
0.3630547288
40
1.0000000000
40
1.0000000000
40
1.0000000000
40
1.0000000000
10
-9.8607447975
20
-20.0005948742
30
0.0000000000
10
-9.8607447979
20
-20.0126972989
30
0.0000000000
10
-9.8648004765
20
-20.0442571888
30
0.0000000000
10
-9.8474178893
20
-20.0855942709
30
0.0000000000
10
-9.8624598407
20
-20.1005796437
30
0.0000000000
11
-9.8607447975
21
-20.0005948742
31
0.0000000000
11
-9.8608639137
21
-20.0369019527
31
0.0000000000
11
-9.8624598407
21
-20.1005796437
31
0.0000000000
0
SPLINE
5
47F
100
AcDbEntity
8
0
100
AcDbSpline
62
9
6
CONTINUOUS
70
0
71
3
72
9
73
5
74
3
42
0.0000001000
43
0.0000001000
44
0.0000000001
12
-0.0050618704
22
-4.3871913802
32
0.0000000000
13
-0.0039304971
23
-4.3871925397
33
0.0000000000
40
0.0000000000
40
0.0000000000
40
0.0000000000
40
0.0000000000
40
0.4999590675
40
1.0000000000
40
1.0000000000
40
1.0000000000
40
1.0000000000
10
9.7418911157
20
19.6407417389
30
0.0000000000
10
9.7410475397
20
18.9096030351
30
0.0000000000
10
9.7394547450
20
17.4472057978
30
0.0000000000
10
9.7380502314
20
15.9848083676
30
0.0000000000
10
9.7373950949
20
15.2535497514
30
0.0000000000
11
9.7418911157
21
19.6407417389
31
0.0000000000
11
9.7395019379
21
17.4473254686
31
0.0000000000
11
9.7373950949
21
15.2535497514
31
0.0000000000
0
SPLINE
5
480
100
AcDbEntity
8
0
100
AcDbSpline
62
9
6
CONTINUOUS
70
0
71
3
72
10
73
6
74
4
42
0.0000001000
43
0.0000001000
44
0.0000000001
12
-0.0000000545
22
0.1000118994
32
0.0000000000
13
0.0708144130
23
0.0706236429
33
0.0000000000
40
0.0000000000
40
0.0000000000
40
0.0000000000
40
0.0000000000
40
0.3444206040
40
0.7058672485
40
1.0000000000
40
1.0000000000
40
1.0000000000
40
1.0000000000
10
9.7418911157
20
19.9055625082
30
0.0000000000
10
9.7418911095
20
19.9170445612
30
0.0000000000
10
9.7409138541
20
19.9410646525
30
0.0000000000
10
9.7458398660
20
19.9722568876
30
0.0000000000
10
9.7366632129
20
19.9986230356
30
0.0000000000
10
9.7436061589
20
20.0055472778
30
0.0000000000
11
9.7418911157
21
19.9055625082
31
0.0000000000
11
9.7419979443
21
19.9400085014
31
0.0000000000
11
9.7424003281
21
19.9761552273
31
0.0000000000
11
9.7436061589
21
20.0055472778
31
0.0000000000
0
SPLINE
5
481
100
AcDbEntity
8
0
100
AcDbSpline
62
9
6
CONTINUOUS
70
0
71
3
72
9
73
5
74
3
42
0.0000001000
43
0.0000001000
44
0.0000000001
12
-0.0707816666
22
0.0706553419
32
0.0000000000
13
0.0000000782
23
0.1000111077
33
0.0000000000
40
0.0000000000
40
0.0000000000
40
0.0000000000
40
0.0000000000
40
0.3040444663
40
1.0000000000
40
1.0000000000
40
1.0000000000
40
1.0000000000
10
9.7436061589
20
-20.1005796437
30
0.0000000000
10
9.7364325676
20
-20.0934188552
30
0.0000000000
10
9.7493014589
20
-20.0537539851
30
0.0000000000
10
9.7418910976
20
-20.0237959688
30
0.0000000000
10
9.7418911157
20
-20.0005948742
30
0.0000000000
11
9.7436061589
21
-20.1005796437
31
0.0000000000
11
9.7423833222
21
-20.0701964177
31
0.0000000000
11
9.7418911157
21
-20.0005948742
31
0.0000000000
0
SPLINE
5
482
100
AcDbEntity
8
0
100
AcDbSpline
62
9
6
CONTINUOUS
70
0
71
3
72
9
73
5
74
3
42
0.0000001000
43
0.0000001000
44
0.0000000001
12
0.0056579316
22
-9.3834498964
32
0.0000000000
13
0.0108264765
23
-9.3834453564
33
0.0000000000
40
0.0000000000
40
0.0000000000
40
0.0000000000
40
0.0000000000
40
0.5000866103
40
1.0000000000
40
1.0000000000
40
1.0000000000
40
1.0000000000
10
9.7336510025
20
-10.3523262098
30
0.0000000000
10
9.7345941545
20
-11.9165054268
30
0.0000000000
10
9.7369101088
20
-15.0443218145
30
0.0000000000
10
9.7400870155
20
-18.1721374464
30
0.0000000000
10
9.7418911157
20
-19.7357741049
30
0.0000000000
11
9.7336510025
21
-10.3523262098
31
0.0000000000
11
9.7371258226
21
-15.0448634274
31
0.0000000000
11
9.7418911157
21
-19.7357741049
31
0.0000000000
0
SPLINE
5
483
100
AcDbEntity
8
0
100
AcDbSpline
62
9
6
CONTINUOUS
70
0
71
3
72
10
73
6
74
4
42
0.0000001000
43
0.0000001000
44
0.0000000001
12
-0.0209910981
22
-24.3932309479
32
0.0000000000
13
0.0138367900
23
-24.3932360553
33
0.0000000000
40
0.0000000000
40
0.0000000000
40
0.0000000000
40
0.0000000000
40
0.3332160225
40
0.6666026846
40
1.0000000000
40
1.0000000000
40
1.0000000000
40
1.0000000000
10
9.7368658177
20
14.6508886054
30
0.0000000000
10
9.7345342943
20
11.9414834746
30
0.0000000000
10
9.7311624779
20
6.5212845254
30
0.0000000000
10
9.7299721810
20
-1.6097956563
30
0.0000000000
10
9.7317564025
20
-7.0314694675
30
0.0000000000
10
9.7332941187
20
-9.7423492724
30
0.0000000000
11
9.7368658177
21
14.6508886054
31
0.0000000000
11
9.7318076014
21
6.5226717774
31
0.0000000000
11
9.7306166462
21
-1.6097089900
31
0.0000000000
11
9.7332941187
21
-9.7423492724
31
0.0000000000
0
SPLINE
5
484
100
AcDbEntity
8
0
100
AcDbSpline
62
9
6
CONTINUOUS
70
0
71
3
72
9
73
5
74
3
42
0.0000001000
43
0.0000001000
44
0.0000000001
12
1.3975420665
22
0.0030361016
32
0.0000000000
13
1.3975453644
23
0.0000012202
33
0.0000000000
40
0.0000000000
40
0.0000000000
40
0.0000000000
40
0.0000000000
40
0.4848926964
40
1.0000000000
40
1.0000000000
40
1.0000000000
40
1.0000000000
10
-3.5569711569
20
-20.2997534837
30
0.0000000000
10
-3.3310851766
20
-20.2992627558
30
0.0000000000
10
-2.8652372771
20
-20.2984864774
30
0.0000000000
10
-2.3993887823
20
-20.2982200474
30
0.0000000000
10
-2.1594268409
20
-20.2982198379
30
0.0000000000
11
-3.5569711569
21
-20.2997534837
31
0.0000000000
11
-2.8793125484
21
-20.2986298084
31
0.0000000000
11
-2.1594268409
21
-20.2982198379
31
0.0000000000
0
SPLINE
5
485
100
AcDbEntity
8
0
100
AcDbSpline
62
9
6
CONTINUOUS
70
0
71
3
72
9
73
5
74
3
42
0.0000001000
43
0.0000001000
44
0.0000000001
12
1.3975453644
22
-0.0000011460
32
0.0000000000
13
1.3975420665
23
-0.0030360823
33
0.0000000000
40
0.0000000000
40
0.0000000000
40
0.0000000000
40
0.0000000000
40
0.5151255647
40
1.0000000000
40
1.0000000000
40
1.0000000000
40
1.0000000000
10
2.0405731591
20
-20.2982198379
30
0.0000000000
10
2.2805436075
20
-20.2982200347
30
0.0000000000
10
2.7463921023
20
-20.2984864820
30
0.0000000000
10
3.2122400017
20
-20.2992627774
30
0.0000000000
10
3.4381174752
20
-20.2997534837
30
0.0000000000
11
2.0405731591
21
-20.2982198379
31
0.0000000000
11
2.7604843874
21
-20.2986298327
31
0.0000000000
11
3.4381174752
21
-20.2997534837
31
0.0000000000
0
SPLINE
5
486
100
AcDbEntity
8
0
100
AcDbSpline
62
0
6
CONTINUOUS
70
0
71
3
72
9
73
5
74
3
42
0.0000001000
43
0.0000001000
44
0.0000000001
12
0.3751325403
22
0.0010765389
32
0.0000000000
13
0.3751325440
23
0.0010752698
33
0.0000000000
40
0.0000000000
40
0.0000000000
40
0.0000000000
40
0.0000000000
40
0.7590990349
40
1.0000000000
40
1.0000000000
40
1.0000000000
40
1.0000000000
10
6.9405731591
20
-20.3975161830
30
0.0000000000
10
7.0354940756
20
-20.3972437831
30
0.0000000000
10
7.1605382560
20
-20.3968850637
30
0.0000000000
10
7.2855824372
20
-20.3965265767
30
0.0000000000
10
7.3157057011
20
-20.3964402322
30
0.0000000000
11
6.9405731591
21
-20.3975161830
31
0.0000000000
11
7.2253359094
21
-20.3966993099
31
0.0000000000
11
7.3157057011
21
-20.3964402322
31
0.0000000000
0
SPLINE
5
487
100
AcDbEntity
8
0
100
AcDbSpline
62
0
6
CONTINUOUS
70
0
71
3
72
10
73
6
74
4
42
0.0000001000
43
0.0000001000
44
0.0000000001
12
-0.2000402210
22
0.0000000022
32
0.0000000000
13
-0.1415935892
23
-0.1413058581
33
0.0000000000
40
0.0000000000
40
0.0000000000
40
0.0000000000
40
0.0000000000
40
0.4938425178
40
0.8585460695
40
1.0000000000
40
1.0000000000
40
1.0000000000
40
1.0000000000
10
-9.6562731402
20
15.2569813575
30
0.0000000000
10
-9.6892025957
20
15.2569813578
30
0.0000000000
10
-9.7482265560
20
15.2603531854
30
0.0000000000
10
-9.8097788335
20
15.2490201800
30
0.0000000000
10
-9.8495724534
20
15.2602125078
30
0.0000000000
10
-9.8562487766
20
15.2535497514
30
0.0000000000
11
-9.6562731402
21
15.2569813575
31
0.0000000000
11
-9.7550604547
21
15.2565254671
31
0.0000000000
11
-9.8280051832
21
15.2552789002
31
0.0000000000
11
-9.8562487766
21
15.2535497514
31
0.0000000000
0
SPLINE
5
488
100
AcDbEntity
8
0
100
AcDbSpline
62
0
6
CONTINUOUS
70
0
71
3
72
9
73
5
74
3
42
0.0000001000
43
0.0000001000
44
0.0000000001
12
-0.3751325403
22
-0.0010765389
32
0.0000000000
13
-0.3751325440
23
-0.0010752698
33
0.0000000000
40
0.0000000000
40
0.0000000000
40
0.0000000000
40
0.0000000000
40
0.7590990349
40
1.0000000000
40
1.0000000000
40
1.0000000000
40
1.0000000000
10
-7.0594268409
20
20.3024838170
30
0.0000000000
10
-7.1543477573
20
20.3022114171
30
0.0000000000
10
-7.2793919378
20
20.3018526977
30
0.0000000000
10
-7.4044361189
20
20.3014942107
30
0.0000000000
10
-7.4345593829
20
20.3014078662
30
0.0000000000
11
-7.0594268409
21
20.3024838170
31
0.0000000000
11
-7.3441895911
21
20.3016669439
31
0.0000000000
11
-7.4345593829
21
20.3014078662
31
0.0000000000
0
SPLINE
5
489
100
AcDbEntity
8
0
100
AcDbSpline
62
0
6
CONTINUOUS
70
0
71
3
72
10
73
6
74
4
42
0.0000001000
43
0.0000001000
44
0.0000000001
12
-0.0103476593
22
-1.0324092043
32
0.0000000000
13
-0.0105817516
23
-1.0324068315
33
0.0000000000
40
0.0000000000
40
0.0000000000
40
0.0000000000
40
0.0000000000
40
0.3263091910
40
0.6596571044
40
1.0000000000
40
1.0000000000
40
1.0000000000
40
1.0000000000
10
-4.6989538019
20
-18.8022174074
30
0.0000000000
10
-4.7000793140
20
-18.9145122781
30
0.0000000000
10
-4.7023649607
20
-19.1415241966
30
0.0000000000
10
-4.7058572730
20
-19.4856601637
30
0.0000000000
10
-4.7082263662
20
-19.7175012353
30
0.0000000000
10
-4.7094268409
20
-19.8346253454
30
0.0000000000
11
-4.6989538019
21
-18.8022174074
31
0.0000000000
11
-4.7023449968
21
-19.1391018723
31
0.0000000000
11
-4.7058368485
21
-19.4832528980
31
0.0000000000
11
-4.7094268409
21
-19.8346253454
31
0.0000000000
0
SPLINE
5
48A
100
AcDbEntity
8
0
100
AcDbSpline
62
9
6
CONTINUOUS
70
0
71
3
72
8
73
4
74
2
42
0.0000001000
43
0.0000001000
44
0.0000000001
12
0.2269377873
22
-0.0004803748
32
0.0000000000
13
0.2269379239
23
-0.0004143794
33
0.0000000000
40
0.0000000000
40
0.0000000000
40
0.0000000000
40
0.0000000000
40
1.0000000000
40
1.0000000000
40
1.0000000000
40
1.0000000000
10
-3.5883016399
20
-20.1556571207
30
0.0000000000
10
-3.5126557108
20
-20.1558172457
30
0.0000000000
10
-3.4370097577
20
-20.1559667300
30
0.0000000000
10
-3.3613637831
20
-20.1561048565
30
0.0000000000
11
-3.5883016399
21
-20.1556571207
31
0.0000000000
11
-3.3613637831
21
-20.1561048565
31
0.0000000000
0
SPLINE
5
48B
100
AcDbEntity
8
0
100
AcDbSpline
62
0
6
CONTINUOUS
70
0
71
3
72
9
73
5
74
3
42
0.0000001000
43
0.0000001000
44
0.0000000001
12
-0.3775378306
22
-0.6846978867
32
0.0000000000
13
-0.3476583876
23
-0.7003425269
33
0.0000000000
40
0.0000000000
40
0.0000000000
40
0.0000000000
40
0.0000000000
40
0.4937633281
40
1.0000000000
40
1.0000000000
40
1.0000000000
40
1.0000000000
10
-7.2743559704
20
-15.4475161830
30
0.0000000000
10
-7.3364940823
20
-15.5602090854
30
0.0000000000
10
-7.4597402888
20
-15.7898832994
30
0.0000000000
10
-7.5780090475
20
-16.0221568160
30
0.0000000000
10
-7.6366748558
20
-16.1403365060
30
0.0000000000
11
-7.2743559704
21
-15.4475161830
31
0.0000000000
11
-7.4569894837
21
-15.7876522097
31
0.0000000000
11
-7.6366748558
21
-16.1403365060
31
0.0000000000
0
SPLINE
5
48C
100
AcDbEntity
8
0
100
AcDbSpline
62
0
6
CONTINUOUS
70
0
71
3
72
10
73
6
74
4
42
0.0000001000
43
0.0000001000
44
0.0000000001
12
0.0102413620
22
-1.0919480669
32
0.0000000000
13
0.0106695413
23
-1.0919439670
33
0.0000000000
40
0.0000000000
40
0.0000000000
40
0.0000000000
40
0.0000000000
40
0.3185577142
40
0.6451521271
40
1.0000000000
40
1.0000000000
40
1.0000000000
40
1.0000000000
10
-5.3198998798
20
-18.4860080271
30
0.0000000000
10
-5.3188123915
20
-18.6019575205
30
0.0000000000
10
-5.3165917120
20
-18.8367815554
30
0.0000000000
10
-5.3130992457
20
-19.2007634988
30
0.0000000000
10
-5.3106888622
20
-19.4487958922
30
0.0000000000
10
-5.3094268409
20
-19.5779538902
30
0.0000000000
11
-5.3198998798
21
-18.4860080271
31
0.0000000000
11
-5.3166114531
21
-18.8338562628
31
0.0000000000
11
-5.3131909212
21
-19.1904796820
31
0.0000000000
11
-5.3094268409
21
-19.5779538902
31
0.0000000000
0
SPLINE
5
48D
100
AcDbEntity
8
0
100
AcDbSpline
62
9
6
CONTINUOUS
70
0
71
3
72
8
73
4
74
2
42
0.0000001000
43
0.0000001000
44
0.0000000001
12
0.0311061812
22
0.0000646738
32
0.0000000000
13
0.0311061785
23
0.0000658467
33
0.0000000000
40
0.0000000000
40
0.0000000000
40
0.0000000000
40
0.0000000000
40
1.0000000000
40
1.0000000000
40
1.0000000000
40
1.0000000000
10
3.4383417786
20
-20.1557223823
30
0.0000000000
10
3.4487105056
20
-20.1557008244
30
0.0000000000
10
3.4590792323
20
-20.1556790696
30
0.0000000000
10
3.4694479584
20
-20.1556571207
30
0.0000000000
11
3.4383417786
21
-20.1557223823
31
0.0000000000
11
3.4694479584
21
-20.1556571207
31
0.0000000000
0
SPLINE
5
48E
100
AcDbEntity
8
0
100
AcDbSpline
62
0
6
CONTINUOUS
70
0
71
3
72
10
73
6
74
4
42
0.0000001000
43
0.0000001000
44
0.0000000001
12
-0.0105817516
22
1.0324068315
32
0.0000000000
13
-0.0103476593
23
1.0324092043
33
0.0000000000
40
0.0000000000
40
0.0000000000
40
0.0000000000
40
0.0000000000
40
0.3401307407
40
0.6734806557
40
1.0000000000
40
1.0000000000
40
1.0000000000
40
1.0000000000
10
4.5905731591
20
-19.8346253454
30
0.0000000000
10
4.5893734328
20
-19.7175742453
30
0.0000000000
10
4.5870050742
20
-19.4858054951
30
0.0000000000
10
4.5835127455
20
-19.1416695281
30
0.0000000000
10
4.5812263571
20
-18.9145845995
30
0.0000000000
10
4.5801001202
20
-18.8022174074
30
0.0000000000
11
4.5905731591
21
-19.8346253454
31
0.0000000000
11
4.5869853972
21
-19.4834719283
31
0.0000000000
11
4.5834935080
21
-19.1393188364
31
0.0000000000
11
4.5801001202
21
-18.8022174074
31
0.0000000000
0
SPLINE
5
48F
100
AcDbEntity
8
0
100
AcDbSpline
62
0
6
CONTINUOUS
70
0
71
3
72
9
73
5
74
3
42
0.0000001000
43
0.0000001000
44
0.0000000001
12
-0.3476583874
22
0.7003425266
32
0.0000000000
13
-0.3775378304
23
0.6846978863
33
0.0000000000
40
0.0000000000
40
0.0000000000
40
0.0000000000
40
0.0000000000
40
0.5060194084
40
1.0000000000
40
1.0000000000
40
1.0000000000
40
1.0000000000
10
7.5178211741
20
-16.1403365060
30
0.0000000000
10
7.4591805436
20
-16.0222075357
30
0.0000000000
10
7.3409128108
20
-15.7899335265
30
0.0000000000
10
7.2176677422
20
-15.5602586720
30
0.0000000000
10
7.1555022886
20
-15.4475161830
30
0.0000000000
11
7.5178211741
21
-16.1403365060
31
0.0000000000
11
7.3382145323
21
-15.7878027505
31
0.0000000000
11
7.1555022886
21
-15.4475161830
31
0.0000000000
0
SPLINE
5
490
100
AcDbEntity
8
0
100
AcDbSpline
62
0
6
CONTINUOUS
70
0
71
3
72
10
73
6
74
4
42
0.0000001000
43
0.0000001000
44
0.0000000001
12
0.0106695405
22
1.0919438839
32
0.0000000000
13
0.0102413612
23
1.0919479837
33
0.0000000000
40
0.0000000000
40
0.0000000000
40
0.0000000000
40
0.0000000000
40
0.3546412809
40
0.6812396304
40
1.0000000000
40
1.0000000000
40
1.0000000000
40
1.0000000000
10
5.1905731591
20
-19.5779538071
30
0.0000000000
10
5.1918344456
20
-19.4488710145
30
0.0000000000
10
5.1942441204
20
-19.2009124029
30
0.0000000000
10
5.1977366160
20
-18.8369304875
30
0.0000000000
10
5.1999580181
20
-18.6020312747
30
0.0000000000
10
5.2010461981
20
-18.4860080271
30
0.0000000000
11
5.1905731591
21
-19.5779538071
31
0.0000000000
11
5.1943350619
21
-19.1907052155
31
0.0000000000
11
5.1977556639
21
-18.8340775252
31
0.0000000000
11
5.2010461981
21
-18.4860080271
31
0.0000000000
0
SPLINE
5
491
100
AcDbEntity
8
0
100
AcDbSpline
62
0
6
CONTINUOUS
70
0
71
3
72
8
73
4
74
2
42
0.0000001000
43
0.0000001000
44
0.0000000001
12
-0.0058118227
22
0.0567391165
32
0.0000000000
13
-0.0053383833
23
0.0567892660
33
0.0000000000
40
0.0000000000
40
0.0000000000
40
0.0000000000
40
0.0000000000
40
1.0000000000
40
1.0000000000
40
1.0000000000
40
1.0000000000
10
-5.6410850722
20
-16.1403365060
30
0.0000000000
10
-5.6430223464
20
-16.1214234672
30
0.0000000000
10
-5.6448916901
20
-16.1025022770
30
0.0000000000
10
-5.6466711512
20
-16.0835725217
30
0.0000000000
11
-5.6410850722
21
-16.1403365060
31
0.0000000000
11
-5.6466711512
21
-16.0835725217
31
0.0000000000
0
SPLINE
5
492
100
AcDbEntity
8
0
100
AcDbSpline
62
0
6
CONTINUOUS
70
0
71
3
72
9
73
5
74
3
42
0.0000001000
43
0.0000001000
44
0.0000000001
12
-0.0161998689
22
0.1723328231
32
0.0000000000
13
-0.0098000602
23
0.1728121288
33
0.0000000000
40
0.0000000000
40
0.0000000000
40
0.0000000000
40
0.0000000000
40
0.6647129840
40
1.0000000000
40
1.0000000000
40
1.0000000000
40
1.0000000000
10
-5.6466711512
20
-16.0835725217
30
0.0000000000
10
-5.6502605723
20
-16.0453885667
30
0.0000000000
10
-5.6551103379
20
-15.9878918631
30
0.0000000000
10
-5.6587246225
20
-15.9303085980
30
0.0000000000
10
-5.6598199001
20
-15.9109947104
30
0.0000000000
11
-5.6466711512
21
-16.0835725217
31
0.0000000000
11
-5.6561620875
21
-15.9689127093
31
0.0000000000
11
-5.6598199001
21
-15.9109947104
31
0.0000000000
0
SPLINE
5
493
100
AcDbEntity
8
0
100
AcDbSpline
62
0
6
CONTINUOUS
70
0
71
3
72
8
73
4
74
2
42
0.0000001000
43
0.0000001000
44
0.0000000001
12
-0.0033054300
22
0.0582872328
32
0.0000000000
13
-0.0026660336
23
0.0583210893
33
0.0000000000
40
0.0000000000
40
0.0000000000
40
0.0000000000
40
0.0000000000
40
1.0000000000
40
1.0000000000
40
1.0000000000
40
1.0000000000
10
-5.6598199001
20
-15.9109947104
30
0.0000000000
10
-5.6609217101
20
-15.8915656328
30
0.0000000000
10
-5.6619055807
20
-15.8721295053
30
0.0000000000
10
-5.6627942586
20
-15.8526891422
30
0.0000000000
11
-5.6598199001
21
-15.9109947104
31
0.0000000000
11
-5.6627942586
21
-15.8526891422
31
0.0000000000
0
SPLINE
5
494
100
AcDbEntity
8
0
100
AcDbSpline
62
0
6
CONTINUOUS
70
0
71
3
72
8
73
4
74
2
42
0.0000001000
43
0.0000001000
44
0.0000000001
12
-0.0026823643
22
0.0586783326
32
0.0000000000
13
-0.0021736910
23
0.0586954599
33
0.0000000000
40
0.0000000000
40
0.0000000000
40
0.0000000000
40
0.0000000000
40
1.0000000000
40
1.0000000000
40
1.0000000000
40
1.0000000000
10
-5.6627942586
20
-15.8526891422
30
0.0000000000
10
-5.6636883801
20
-15.8331296980
30
0.0000000000
10
-5.6644861390
20
-15.8135659661
30
0.0000000000
10
-5.6652107026
20
-15.7940008128
30
0.0000000000
11
-5.6627942586
21
-15.8526891422
31
0.0000000000
11
-5.6652107026
21
-15.7940008128
31
0.0000000000
0
SPLINE
5
495
100
AcDbEntity
8
0
100
AcDbSpline
62
0
6
CONTINUOUS
70
0
71
3
72
10
73
6
74
4
42
0.0000001000
43
0.0000001000
44
0.0000000001
12
0.3000887779
22
0.0000000000
32
0.0000000000
13
0.1341956046
23
-0.2684116509
33
0.0000000000
40
0.0000000000
40
0.0000000000
40
0.0000000000
40
0.0000000000
40
0.4973078836
40
0.8628897268
40
1.0000000000
40
1.0000000000
40
1.0000000000
40
1.0000000000
10
-4.9816917773
20
20.2501186222
30
0.0000000000
10
-4.9319462722
20
20.2501186222
30
0.0000000000
10
-4.8404759578
20
20.2569770599
30
0.0000000000
10
-4.7552118141
20
20.2349220654
30
0.0000000000
10
-4.6878363990
20
20.2571951310
30
0.0000000000
10
-4.6817032003
20
20.2449277994
30
0.0000000000
11
-4.9816917773
21
20.2501186222
31
0.0000000000
11
-4.8324568753
21
20.2494247459
31
0.0000000000
11
-4.7227662844
21
20.2475268526
31
0.0000000000
11
-4.6817032003
21
20.2449277994
31
0.0000000000
0
SPLINE
5
496
100
AcDbEntity
8
0
100
AcDbSpline
62
0
6
CONTINUOUS
70
0
71
3
72
9
73
5
74
3
42
0.0000001000
43
0.0000001000
44
0.0000000001
12
0.0765721154
22
0.0998516109
32
0.0000000000
13
0.0172869180
23
0.1245271175
33
0.0000000000
40
0.0000000000
40
0.0000000000
40
0.0000000000
40
0.0000000000
40
0.5173499008
40
1.0000000000
40
1.0000000000
40
1.0000000000
40
1.0000000000
10
-4.7220589787
20
19.3699370709
30
0.0000000000
10
-4.7088541200
20
19.3871564779
30
0.0000000000
10
-4.6873983949
20
19.4235548513
30
0.0000000000
10
-4.6761583767
20
19.4644985639
30
0.0000000000
10
-4.6733771992
20
19.4845329058
30
0.0000000000
11
-4.7220589787
21
19.3699370709
31
0.0000000000
11
-4.6893881288
21
19.4260344319
31
0.0000000000
11
-4.6733771992
21
19.4845329058
31
0.0000000000
0
SPLINE
5
497
100
AcDbEntity
8
0
100
AcDbSpline
62
0
6
CONTINUOUS
70
0
71
3
72
8
73
4
74
2
42
0.0000001000
43
0.0000001000
44
0.0000000001
12
0.0039752813
22
0.0286361239
32
0.0000000000
13
0.0002886394
23
0.0287527314
33
0.0000000000
40
0.0000000000
40
0.0000000000
40
0.0000000000
40
0.0000000000
40
1.0000000000
40
1.0000000000
40
1.0000000000
40
1.0000000000
10
-4.6733771992
20
19.4845329058
30
0.0000000000
10
-4.6720521054
20
19.4940782804
30
0.0000000000
10
-4.6713271721
20
19.5036855946
30
0.0000000000
10
-4.6712309590
20
19.5132698384
30
0.0000000000
11
-4.6733771992
21
19.4845329058
31
0.0000000000
11
-4.6712309590
21
19.5132698384
31
0.0000000000
0
SPLINE
5
498
100
AcDbEntity
8
0
100
AcDbSpline
62
0
6
CONTINUOUS
70
0
71
3
72
11
73
7
74
5
42
0.0000001000
43
0.0000001000
44
0.0000000001
12
0.0002576444
22
-0.4681422303
32
0.0000000000
13
-0.4681423012
23
0.0000000000
33
0.0000000000
40
0.0000000000
40
0.0000000000
40
0.0000000000
40
0.0000000000
40
0.2503539262
40
0.4991000948
40
0.7487438262
40
1.0000000000
40
1.0000000000
40
1.0000000000
40
1.0000000000
10
-4.6589225804
20
18.7524838170
30
0.0000000000
10
-4.6589010797
20
18.7134167352
30
0.0000000000
10
-4.6744631605
20
18.6346660817
30
0.0000000000
10
-4.7410082249
20
18.5351063415
30
0.0000000000
10
-4.8405305985
20
18.4682019201
30
0.0000000000
10
-4.9195623388
20
18.4524838170
30
0.0000000000
10
-4.9587702200
20
18.4524838170
30
0.0000000000
11
-4.6589225804
21
18.7524838170
31
0.0000000000
11
-4.6817586818
21
18.6375288321
31
0.0000000000
11
-4.7463765550
21
18.5406536146
31
0.0000000000
11
-4.8434295666
21
18.4755458022
31
0.0000000000
11
-4.9587702200
21
18.4524838170
31
0.0000000000
0
SPLINE
5
499
100
AcDbEntity
8
0
100
AcDbSpline
62
0
6
CONTINUOUS
70
0
71
3
72
10
73
6
74
4
42
0.0000001000
43
0.0000001000
44
0.0000000001
12
0.1341956046
22
0.2684116509
32
0.0000000000
13
0.3000887779
23
0.0000000000
33
0.0000000000
40
0.0000000000
40
0.0000000000
40
0.0000000000
40
0.0000000000
40
0.1371102732
40
0.5026921164
40
1.0000000000
40
1.0000000000
40
1.0000000000
40
1.0000000000
10
-5.4371504814
20
20.2449277994
30
0.0000000000
10
-5.4310172827
20
20.2571951310
30
0.0000000000
10
-5.3636418677
20
20.2349220654
30
0.0000000000
10
-5.2783777239
20
20.2569770599
30
0.0000000000
10
-5.1869074095
20
20.2501186222
30
0.0000000000
10
-5.1371619045
20
20.2501186222
30
0.0000000000
11
-5.4371504814
21
20.2449277994
31
0.0000000000
11
-5.3960873973
21
20.2475268526
31
0.0000000000
11
-5.2863968064
21
20.2494247459
31
0.0000000000
11
-5.1371619045
21
20.2501186222
31
0.0000000000
0
SPLINE
5
49A
100
AcDbEntity
8
0
100
AcDbSpline
62
0
6
CONTINUOUS
70
0
71
3
72
8
73
4
74
2
42
0.0000001000
43
0.0000001000
44
0.0000000001
12
0.0819298375
22
-0.0352149386
32
0.0000000000
13
0.0881482670
23
-0.0124556959
33
0.0000000000
40
0.0000000000
40
0.0000000000
40
0.0000000000
40
0.0000000000
40
1.0000000000
40
1.0000000000
40
1.0000000000
40
1.0000000000
10
-5.2787694168
20
19.2797202172
30
0.0000000000
10
-5.2514594710
20
19.2679819043
30
0.0000000000
10
-5.2224963064
20
19.2600014975
30
0.0000000000
10
-5.1931135507
20
19.2558495988
30
0.0000000000
11
-5.2787694168
21
19.2797202172
31
0.0000000000
11
-5.1931135507
21
19.2558495988
31
0.0000000000
0
SPLINE
5
49B
100
AcDbEntity
8
0
100
AcDbSpline
62
0
6
CONTINUOUS
70
0
71
3
72
8
73
4
74
2
42
0.0000001000
43
0.0000001000
44
0.0000000001
12
0.0475604216
22
-0.0067204741
32
0.0000000000
13
0.0477120147
23
0.0000000000
33
0.0000000000
40
0.0000000000
40
0.0000000000
40
0.0000000000
40
0.0000000000
40
1.0000000000
40
1.0000000000
40
1.0000000000
40
1.0000000000
10
-5.1931135507
20
19.2558495988
30
0.0000000000
10
-5.1772600768
20
19.2536094408
30
0.0000000000
10
-5.1612844540
20
19.2524838170
30
0.0000000000
10
-5.1453804491
20
19.2524838170
30
0.0000000000
11
-5.1931135507
21
19.2558495988
31
0.0000000000
11
-5.1453804491
21
19.2524838170
31
0.0000000000
0
SPLINE
5
49C
100
AcDbEntity
8
0
100
AcDbSpline
62
0
6
CONTINUOUS
70
0
71
3
72
8
73
4
74
2
42
0.0000001000
43
0.0000001000
44
0.0000000001
12
-0.0781997658
22
0.0000000000
32
0.0000000000
13
-0.0761850971
23
0.0203857273
33
0.0000000000
40
0.0000000000
40
0.0000000000
40
0.0000000000
40
0.0000000000
40
1.0000000000
40
1.0000000000
40
1.0000000000
40
1.0000000000
10
-5.1600834618
20
18.4524838170
30
0.0000000000
10
-5.1861500504
20
18.4524838170
30
0.0000000000
10
-5.2124081022
20
18.4559679674
30
0.0000000000
10
-5.2378031346
20
18.4627632099
30
0.0000000000
11
-5.1600834618
21
18.4524838170
31
0.0000000000
11
-5.2378031346
21
18.4627632099
31
0.0000000000
0
SPLINE
5
49D
100
AcDbEntity
8
0
100
AcDbSpline
62
0
6
CONTINUOUS
70
0
71
3
72
9
73
5
74
3
42
0.0000001000
43
0.0000001000
44
0.0000000001
12
-0.1512752381
22
0.0404784645
32
0.0000000000
13
-0.1106101768
23
0.1102180056
33
0.0000000000
40
0.0000000000
40
0.0000000000
40
0.0000000000
40
0.0000000000
40
0.2503272562
40
1.0000000000
40
1.0000000000
40
1.0000000000
40
1.0000000000
10
-5.2378031346
20
18.4627632099
30
0.0000000000
10
-5.2504259063
20
18.4661408308
30
0.0000000000
10
-5.2999992118
20
18.4829015995
30
0.0000000000
10
-5.3441033490
20
18.5123779160
30
0.0000000000
10
-5.3717438272
20
18.5399203942
30
0.0000000000
11
-5.2378031346
21
18.4627632099
31
0.0000000000
11
-5.2749022869
21
18.4753289890
31
0.0000000000
11
-5.3717438272
21
18.5399203942
31
0.0000000000
0
SPLINE
5
49E
100
AcDbEntity
8
0
100
AcDbSpline
62
0
6
CONTINUOUS
70
0
71
3
72
9
73
5
74
3
42
0.0000001000
43
0.0000001000
44
0.0000000001
12
-0.1390478725
22
0.1385548748
32
0.0000000000
13
-0.0259093627
23
0.1946549068
33
0.0000000000
40
0.0000000000
40
0.0000000000
40
0.0000000000
40
0.0000000000
40
0.5989768377
40
1.0000000000
40
1.0000000000
40
1.0000000000
40
1.0000000000
10
-5.3717438272
20
18.5399203942
30
0.0000000000
10
-5.3995059789
20
18.5675841145
30
0.0000000000
10
-5.4367212901
20
18.6229395934
30
0.0000000000
10
-5.4538478588
20
18.6869802427
30
0.0000000000
10
-5.4573112770
20
18.7130006182
30
0.0000000000
11
-5.3717438272
21
18.5399203942
31
0.0000000000
11
-5.4368808943
21
18.6370134207
31
0.0000000000
11
-5.4573112770
21
18.7130006182
31
0.0000000000
0
SPLINE
5
49F
100
AcDbEntity
8
0
100
AcDbSpline
62
0
6
CONTINUOUS
70
0
71
3
72
10
73
6
74
4
42
0.0000001000
43
0.0000001000
44
0.0000000001
12
0.3000887779
22
0.0000000000
32
0.0000000000
13
0.1341956046
23
-0.2684116509
33
0.0000000000
40
0.0000000000
40
0.0000000000
40
0.0000000000
40
0.0000000000
40
0.4973078836
40
0.8628897268
40
1.0000000000
40
1.0000000000
40
1.0000000000
40
1.0000000000
10
5.0183082227
20
20.2501186222
30
0.0000000000
10
5.0680537278
20
20.2501186222
30
0.0000000000
10
5.1595240422
20
20.2569770599
30
0.0000000000
10
5.2447881859
20
20.2349220654
30
0.0000000000
10
5.3121636010
20
20.2571951310
30
0.0000000000
10
5.3182967997
20
20.2449277994
30
0.0000000000
11
5.0183082227
21
20.2501186222
31
0.0000000000
11
5.1675431247
21
20.2494247459
31
0.0000000000
11
5.2772337156
21
20.2475268526
31
0.0000000000
11
5.3182967997
21
20.2449277994
31
0.0000000000
0
SPLINE
5
4A0
100
AcDbEntity
8
0
100
AcDbSpline
62
0
6
CONTINUOUS
70
0
71
3
72
9
73
5
74
3
42
0.0000001000
43
0.0000001000
44
0.0000000001
12
0.0765721154
22
0.0998516109
32
0.0000000000
13
0.0172869180
23
0.1245271175
33
0.0000000000
40
0.0000000000
40
0.0000000000
40
0.0000000000
40
0.0000000000
40
0.5173499008
40
1.0000000000
40
1.0000000000
40
1.0000000000
40
1.0000000000
10
5.2779410213
20
19.3699370709
30
0.0000000000
10
5.2911458800
20
19.3871564779
30
0.0000000000
10
5.3126016051
20
19.4235548513
30
0.0000000000
10
5.3238416233
20
19.4644985639
30
0.0000000000
10
5.3266228008
20
19.4845329058
30
0.0000000000
11
5.2779410213
21
19.3699370709
31
0.0000000000
11
5.3106118712
21
19.4260344319
31
0.0000000000
11
5.3266228008
21
19.4845329058
31
0.0000000000
0
SPLINE
5
4A1
100
AcDbEntity
8
0
100
AcDbSpline
62
0
6
CONTINUOUS
70
0
71
3
72
8
73
4
74
2
42
0.0000001000
43
0.0000001000
44
0.0000000001
12
0.0039752813
22
0.0286361239
32
0.0000000000
13
0.0002886394
23
0.0287527314
33
0.0000000000
40
0.0000000000
40
0.0000000000
40
0.0000000000
40
0.0000000000
40
1.0000000000
40
1.0000000000
40
1.0000000000
40
1.0000000000
10
5.3266228008
20
19.4845329058
30
0.0000000000
10
5.3279478946
20
19.4940782804
30
0.0000000000
10
5.3286728279
20
19.5036855946
30
0.0000000000
10
5.3287690410
20
19.5132698384
30
0.0000000000
11
5.3266228008
21
19.4845329058
31
0.0000000000
11
5.3287690410
21
19.5132698384
31
0.0000000000
0
SPLINE
5
4A2
100
AcDbEntity
8
0
100
AcDbSpline
62
0
6
CONTINUOUS
70
0
71
3
72
8
73
4
74
2
42
0.0000001000
43
0.0000001000
44
0.0000000001
12
-0.0376808778
22
-0.0599547868
32
0.0000000000
13
-0.0386390322
23
-0.0593485228
33
0.0000000000
40
0.0000000000
40
0.0000000000
40
0.0000000000
40
0.0000000000
40
1.0000000000
40
1.0000000000
40
1.0000000000
40
1.0000000000
10
5.7879055436
20
-15.4475161830
30
0.0000000000
10
5.7753452510
20
-15.4675011119
30
0.0000000000
10
5.7626242271
20
-15.4873863442
30
0.0000000000
10
5.7497445497
20
-15.5071691851
30
0.0000000000
11
5.7879055436
21
-15.4475161830
31
0.0000000000
11
5.7497445497
21
-15.5071691851
31
0.0000000000
0
SPLINE
5
4A3
100
AcDbEntity
8
0
100
AcDbSpline
62
0
6
CONTINUOUS
70
0
71
3
72
8
73
4
74
2
42
0.0000001000
43
0.0000001000
44
0.0000000001
12
-0.0769848003
22
-0.1182465996
32
0.0000000000
13
-0.0807143378
23
-0.1157438829
33
0.0000000000
40
0.0000000000
40
0.0000000000
40
0.0000000000
40
0.0000000000
40
1.0000000000
40
1.0000000000
40
1.0000000000
40
1.0000000000
10
5.7497445497
20
-15.5071691851
30
0.0000000000
10
5.7240829497
20
-15.5465847183
30
0.0000000000
10
5.6977915430
20
-15.5855937887
30
0.0000000000
10
5.6708867638
20
-15.6241750830
30
0.0000000000
11
5.7497445497
21
-15.5071691851
31
0.0000000000
11
5.6708867638
21
-15.6241750830
31
0.0000000000
0
SPLINE
5
4A4
100
AcDbEntity
8
0
100
AcDbSpline
62
0
6
CONTINUOUS
70
0
71
3
72
8
73
4
74
2
42
0.0000001000
43
0.0000001000
44
0.0000000001
12
-0.0803802815
22
-0.1152648482
32
0.0000000000
13
-0.0839909649
23
-0.1126495325
33
0.0000000000
40
0.0000000000
40
0.0000000000
40
0.0000000000
40
0.0000000000
40
1.0000000000
40
1.0000000000
40
1.0000000000
40
1.0000000000
10
5.6708867638
20
-15.6241750830
30
0.0000000000
10
5.6440933366
20
-15.6625966991
30
0.0000000000
10
5.6166916034
20
-15.7005940727
30
0.0000000000
10
5.5886946151
20
-15.7381439168
30
0.0000000000
11
5.6708867638
21
-15.6241750830
31
0.0000000000
11
5.5886946151
21
-15.7381439168
31
0.0000000000
0
SPLINE
5
4A5
100
AcDbEntity
8
0
100
AcDbSpline
62
0
6
CONTINUOUS
70
0
71
3
72
8
73
4
74
2
42
0.0000001000
43
0.0000001000
44
0.0000000001
12
-0.0418946999
22
-0.0561895957
32
0.0000000000
13
-0.0427784433
23
-0.0555128499
33
0.0000000000
40
0.0000000000
40
0.0000000000
40
0.0000000000
40
0.0000000000
40
1.0000000000
40
1.0000000000
40
1.0000000000
40
1.0000000000
10
5.5886946151
20
-15.7381439168
30
0.0000000000
10
5.5747297151
20
-15.7568737821
30
0.0000000000
10
5.5606167148
20
-15.7754923013
30
0.0000000000
10
5.5463572337
20
-15.7939965846
30
0.0000000000
11
5.5886946151
21
-15.7381439168
31
0.0000000000
11
5.5463572337
21
-15.7939965846
31
0.0000000000
0
SPLINE
5
4A6
100
AcDbEntity
8
0
100
AcDbSpline
62
0
6
CONTINUOUS
70
0
71
3
72
11
73
7
74
5
42
0.0000001000
43
0.0000001000
44
0.0000000001
12
0.0002576444
22
-0.4681422303
32
0.0000000000
13
-0.4681423012
23
0.0000000000
33
0.0000000000
40
0.0000000000
40
0.0000000000
40
0.0000000000
40
0.0000000000
40
0.2503539262
40
0.4991000948
40
0.7487438262
40
1.0000000000
40
1.0000000000
40
1.0000000000
40
1.0000000000
10
5.3410774196
20
18.7524838170
30
0.0000000000
10
5.3410989203
20
18.7134167352
30
0.0000000000
10
5.3255368395
20
18.6346660817
30
0.0000000000
10
5.2589917751
20
18.5351063415
30
0.0000000000
10
5.1594694015
20
18.4682019201
30
0.0000000000
10
5.0804376612
20
18.4524838170
30
0.0000000000
10
5.0412297800
20
18.4524838170
30
0.0000000000
11
5.3410774196
21
18.7524838170
31
0.0000000000
11
5.3182413182
21
18.6375288321
31
0.0000000000
11
5.2536234450
21
18.5406536146
31
0.0000000000
11
5.1565704334
21
18.4755458022
31
0.0000000000
11
5.0412297800
21
18.4524838170
31
0.0000000000
0
SPLINE
5
4A7
100
AcDbEntity
8
0
100
AcDbSpline
62
0
6
CONTINUOUS
70
0
71
3
72
10
73
6
74
4
42
0.0000001000
43
0.0000001000
44
0.0000000001
12
0.1341956046
22
0.2684116509
32
0.0000000000
13
0.3000887779
23
0.0000000000
33
0.0000000000
40
0.0000000000
40
0.0000000000
40
0.0000000000
40
0.0000000000
40
0.1371102732
40
0.5026921164
40
1.0000000000
40
1.0000000000
40
1.0000000000
40
1.0000000000
10
4.5628495186
20
20.2449277994
30
0.0000000000
10
4.5689827173
20
20.2571951310
30
0.0000000000
10
4.6363581323
20
20.2349220654
30
0.0000000000
10
4.7216222761
20
20.2569770599
30
0.0000000000
10
4.8130925905
20
20.2501186222
30
0.0000000000
10
4.8628380955
20
20.2501186222
30
0.0000000000
11
4.5628495186
21
20.2449277994
31
0.0000000000
11
4.6039126027
21
20.2475268526
31
0.0000000000
11
4.7136031936
21
20.2494247459
31
0.0000000000
11
4.8628380955
21
20.2501186222
31
0.0000000000
0
SPLINE
5
4A8
100
AcDbEntity
8
0
100
AcDbSpline
62
0
6
CONTINUOUS
70
0
71
3
72
8
73
4
74
2
42
0.0000001000
43
0.0000001000
44
0.0000000001
12
0.0819298375
22
-0.0352149386
32
0.0000000000
13
0.0881482670
23
-0.0124556959
33
0.0000000000
40
0.0000000000
40
0.0000000000
40
0.0000000000
40
0.0000000000
40
1.0000000000
40
1.0000000000
40
1.0000000000
40
1.0000000000
10
4.7212305832
20
19.2797202172
30
0.0000000000
10
4.7485405290
20
19.2679819043
30
0.0000000000
10
4.7775036936
20
19.2600014975
30
0.0000000000
10
4.8068864493
20
19.2558495988
30
0.0000000000
11
4.7212305832
21
19.2797202172
31
0.0000000000
11
4.8068864493
21
19.2558495988
31
0.0000000000
0
SPLINE
5
4A9
100
AcDbEntity
8
0
100
AcDbSpline
62
0
6
CONTINUOUS
70
0
71
3
72
8
73
4
74
2
42
0.0000001000
43
0.0000001000
44
0.0000000001
12
0.0475604216
22
-0.0067204741
32
0.0000000000
13
0.0477120147
23
0.0000000000
33
0.0000000000
40
0.0000000000
40
0.0000000000
40
0.0000000000
40
0.0000000000
40
1.0000000000
40
1.0000000000
40
1.0000000000
40
1.0000000000
10
4.8068864493
20
19.2558495988
30
0.0000000000
10
4.8227399232
20
19.2536094408
30
0.0000000000
10
4.8387155460
20
19.2524838170
30
0.0000000000
10
4.8546195509
20
19.2524838170
30
0.0000000000
11
4.8068864493
21
19.2558495988
31
0.0000000000
11
4.8546195509
21
19.2524838170
31
0.0000000000
0
SPLINE
5
4AA
100
AcDbEntity
8
0
100
AcDbSpline
62
0
6
CONTINUOUS
70
0
71
3
72
8
73
4
74
2
42
0.0000001000
43
0.0000001000
44
0.0000000001
12
-0.0021741975
22
-0.0586972578
32
0.0000000000
13
-0.0027093251
23
-0.0586785670
33
0.0000000000
40
0.0000000000
40
0.0000000000
40
0.0000000000
40
0.0000000000
40
1.0000000000
40
1.0000000000
40
1.0000000000
40
1.0000000000
10
5.5463572337
20
-15.7939965846
30
0.0000000000
10
5.5456325012
20
-15.8135623372
30
0.0000000000
10
5.5448279098
20
-15.8331262594
30
0.0000000000
10
5.5439248014
20
-15.8526857817
30
0.0000000000
11
5.5463572337
21
-15.7939965846
31
0.0000000000
11
5.5439248014
21
-15.8526857817
31
0.0000000000
0
SPLINE
5
4AB
100
AcDbEntity
8
0
100
AcDbSpline
62
0
6
CONTINUOUS
70
0
71
3
72
8
73
4
74
2
42
0.0000001000
43
0.0000001000
44
0.0000000001
12
-0.0026928237
22
-0.0583211782
32
0.0000000000
13
-0.0033317049
23
-0.0582875315
33
0.0000000000
40
0.0000000000
40
0.0000000000
40
0.0000000000
40
0.0000000000
40
1.0000000000
40
1.0000000000
40
1.0000000000
40
1.0000000000
10
5.5439248014
20
-15.8526857817
30
0.0000000000
10
5.5430271935
20
-15.8721261744
30
0.0000000000
10
5.5420322651
20
-15.8915622208
30
0.0000000000
10
5.5409216968
20
-15.9109913979
30
0.0000000000
11
5.5439248014
21
-15.8526857817
31
0.0000000000
11
5.5409216968
21
-15.9109913979
31
0.0000000000
0
SPLINE
5
4AC
100
AcDbEntity
8
0
100
AcDbSpline
62
0
6
CONTINUOUS
70
0
71
3
72
9
73
5
74
3
42
0.0000001000
43
0.0000001000
44
0.0000000001
12
-0.0098776952
22
-0.1728083652
32
0.0000000000
13
-0.0161214125
23
-0.1723394578
33
0.0000000000
40
0.0000000000
40
0.0000000000
40
0.0000000000
40
0.0000000000
40
0.3352902954
40
1.0000000000
40
1.0000000000
40
1.0000000000
40
1.0000000000
10
5.5409216968
20
-15.9109913979
30
0.0000000000
10
5.5398177317
20
-15.9303050539
30
0.0000000000
10
5.5361843611
20
-15.9878875979
30
0.0000000000
10
5.5313744767
20
-16.0453877208
30
0.0000000000
10
5.5278024569
20
-16.0835729575
30
0.0000000000
11
5.5409216968
21
-15.9109913979
31
0.0000000000
11
5.5372490007
21
-15.9689095245
31
0.0000000000
11
5.5278024569
21
-16.0835729575
31
0.0000000000
0
SPLINE
5
4AD
100
AcDbEntity
8
0
100
AcDbSpline
62
0
6
CONTINUOUS
70
0
71
3
72
8
73
4
74
2
42
0.0000001000
43
0.0000001000
44
0.0000000001
12
-0.0053123693
22
-0.0567897414
32
0.0000000000
13
-0.0058120996
23
-0.0567374487
33
0.0000000000
40
0.0000000000
40
0.0000000000
40
0.0000000000
40
0.0000000000
40
1.0000000000
40
1.0000000000
40
1.0000000000
40
1.0000000000
10
5.5278024569
20
-16.0835729575
30
0.0000000000
10
5.5260316671
20
-16.1025028713
30
0.0000000000
10
5.5241687570
20
-16.1214240231
30
0.0000000000
10
5.5222313904
20
-16.1403365060
30
0.0000000000
11
5.5278024569
21
-16.0835729575
31
0.0000000000
11
5.5222313904
21
-16.1403365060
31
0.0000000000
0
SPLINE
5
4AE
100
AcDbEntity
8
0
100
AcDbSpline
62
0
6
CONTINUOUS
70
0
71
3
72
10
73
6
74
4
42
0.0000001000
43
0.0000001000
44
0.0000000001
12
0.1284179132
22
0.3350210411
32
0.0000000000
13
0.3587899921
23
-0.0000000000
33
0.0000000000
40
0.0000000000
40
0.0000000000
40
0.0000000000
40
0.0000000000
40
0.3342255691
40
0.6672833410
40
1.0000000000
40
1.0000000000
40
1.0000000000
40
1.0000000000
10
-6.8748768117
20
-11.2400230095
30
0.0000000000
10
-6.8605699617
20
-11.2026988101
30
0.0000000000
10
-6.8163381213
20
-11.1331869889
30
0.0000000000
10
-6.7152593495
20
-11.0638220883
30
0.0000000000
10
-6.6347135184
20
-11.0475161830
30
0.0000000000
10
-6.5949217159
20
-11.0475161830
30
0.0000000000
11
-6.8748768117
21
-11.2400230095
31
0.0000000000
11
-6.8104362941
21
-11.1388921237
31
0.0000000000
11
-6.7119089326
21
-11.0712749504
31
0.0000000000
11
-6.5949217159
21
-11.0475161830
31
0.0000000000
0
SPLINE
5
4AF
100
AcDbEntity
8
0
100
AcDbSpline
62
0
6
CONTINUOUS
70
0
71
3
72
10
73
6
74
4
42
0.0000001000
43
0.0000001000
44
0.0000000001
12
-0.3587899764
22
-0.0000000000
32
0.0000000000
13
-0.1284179075
23
0.3350210265
33
0.0000000000
40
0.0000000000
40
0.0000000000
40
0.0000000000
40
0.0000000000
40
0.3344497805
40
0.6674466338
40
1.0000000000
40
1.0000000000
40
1.0000000000
40
1.0000000000
10
-6.5949217159
20
-15.0475161830
30
0.0000000000
10
-6.6349207922
20
-15.0475161830
30
0.0000000000
10
-6.7156803901
20
-15.0310783085
30
0.0000000000
10
-6.8166099697
20
-14.9614992191
30
0.0000000000
10
-6.8606415426
20
-14.8921468132
30
0.0000000000
10
-6.8748768117
20
-14.8550093565
30
0.0000000000
11
-6.5949217159
21
-15.0475161830
31
0.0000000000
11
-6.7124929740
21
-15.0235092213
31
0.0000000000
11
-6.8108614850
21
-14.9556996745
31
0.0000000000
11
-6.8748768117
21
-14.8550093565
31
0.0000000000
0
SPLINE
5
4B0
100
AcDbEntity
8
0
100
AcDbSpline
62
0
6
CONTINUOUS
70
0
71
3
72
9
73
5
74
3
42
0.0000001000
43
0.0000001000
44
0.0000000001
12
-0.0922443551
22
0.0033980231
32
0.0000000000
13
-0.0849125480
23
-0.0373334579
33
0.0000000000
40
0.0000000000
40
0.0000000000
40
0.0000000000
40
0.0000000000
40
0.7588680985
40
1.0000000000
40
1.0000000000
40
1.0000000000
40
1.0000000000
10
6.0123106563
20
-11.0734336175
30
0.0000000000
10
5.9889768902
20
-11.0725740671
30
0.0000000000
10
5.9577642690
20
-11.0766295083
30
0.0000000000
10
5.9287512916
20
-11.0874968835
30
0.0000000000
10
5.9219262502
20
-11.0904976461
30
0.0000000000
11
6.0123106563
21
-11.0734336175
31
0.0000000000
11
5.9428710978
21
-11.0826520190
31
0.0000000000
11
5.9219262502
21
-11.0904976461
31
0.0000000000
0
SPLINE
5
4B1
100
AcDbEntity
8
0
100
AcDbSpline
62
0
6
CONTINUOUS
70
0
71
3
72
8
73
4
74
2
42
0.0000001000
43
0.0000001000
44
0.0000000001
12
-0.0203393469
22
-0.0089425906
32
0.0000000000
13
-0.0192009275
23
-0.0111477588
33
0.0000000000
40
0.0000000000
40
0.0000000000
40
0.0000000000
40
0.0000000000
40
1.0000000000
40
1.0000000000
40
1.0000000000
40
1.0000000000
10
5.9219262502
20
-11.0904976461
30
0.0000000000
10
5.9151464679
20
-11.0934785096
30
0.0000000000
10
5.9085353394
20
-11.0968346379
30
0.0000000000
10
5.9021350302
20
-11.1005505575
30
0.0000000000
11
5.9219262502
21
-11.0904976461
31
0.0000000000
11
5.9021350302
21
-11.1005505575
31
0.0000000000
0
SPLINE
5
4B2
100
AcDbEntity
8
0
100
AcDbSpline
62
0
6
CONTINUOUS
70
0
71
3
72
9
73
5
74
3
42
0.0000001000
43
0.0000001000
44
0.0000000001
12
-0.0307707571
22
-0.0178650212
32
0.0000000000
13
-0.0270063797
23
-0.0231854203
33
0.0000000000
40
0.0000000000
40
0.0000000000
40
0.0000000000
40
0.0000000000
40
0.6064720287
40
1.0000000000
40
1.0000000000
40
1.0000000000
40
1.0000000000
10
5.9021350302
20
-11.1005505575
30
0.0000000000
10
5.8959144957
20
-11.1041621027
30
0.0000000000
10
5.8859859389
20
-11.1106775036
30
0.0000000000
10
5.8767040607
20
-11.1180783042
30
0.0000000000
10
5.8731614721
20
-11.1211196747
30
0.0000000000
11
5.9021350302
21
-11.1005505575
31
0.0000000000
11
5.8841095655
21
-11.1123905769
31
0.0000000000
11
5.8731614721
21
-11.1211196747
31
0.0000000000
0
SPLINE
5
4B3
100
AcDbEntity
8
0
100
AcDbSpline
62
0
6
CONTINUOUS
70
0
71
3
72
8
73
4
74
2
42
0.0000001000
43
0.0000001000
44
0.0000000001
12
0.0070798766
22
-0.0226100777
32
0.0000000000
13
0.0096792519
23
-0.0214974483
33
0.0000000000
40
0.0000000000
40
0.0000000000
40
0.0000000000
40
0.0000000000
40
1.0000000000
40
1.0000000000
40
1.0000000000
40
1.0000000000
10
5.8162987926
20
-11.3216263661
30
0.0000000000
10
5.8186587515
20
-11.3291630586
30
0.0000000000
10
5.8214651808
20
-11.3365464933
30
0.0000000000
10
5.8246915981
20
-11.3437123094
30
0.0000000000
11
5.8162987926
21
-11.3216263661
31
0.0000000000
11
5.8246915981
21
-11.3437123094
31
0.0000000000
0
SPLINE
5
4B4
100
AcDbEntity
8
0
100
AcDbSpline
62
0
6
CONTINUOUS
70
0
71
3
72
10
73
6
74
4
42
0.0000001000
43
0.0000001000
44
0.0000000001
12
0.0954152381
22
-0.0819189487
32
0.0000000000
13
0.1253747818
23
-0.0102416738
33
0.0000000000
40
0.0000000000
40
0.0000000000
40
0.0000000000
40
0.0000000000
40
0.1021426449
40
0.6310008180
40
1.0000000000
40
1.0000000000
40
1.0000000000
40
1.0000000000
10
5.8731594215
20
-14.9739116446
30
0.0000000000
10
5.8764080764
20
-14.9767007839
30
0.0000000000
10
5.8970493597
20
-14.9932606953
30
0.0000000000
10
5.9349026004
20
-15.0125569387
30
0.0000000000
10
5.9721979036
20
-15.0197841693
30
0.0000000000
10
5.9876189676
20
-15.0210438924
30
0.0000000000
11
5.8731594215
21
-14.9739116446
31
0.0000000000
11
5.8831756587
21
-14.9819471491
31
0.0000000000
11
5.9421016545
21
-15.0121381259
31
0.0000000000
11
5.9876189676
21
-15.0210438924
31
0.0000000000
0
SPLINE
5
4B5
100
AcDbEntity
8
0
100
AcDbSpline
62
0
6
CONTINUOUS
70
0
71
3
72
9
73
5
74
3
42
0.0000001000
43
0.0000001000
44
0.0000000001
12
0.1143399109
22
-0.0042119614
32
0.0000000000
13
0.0993608113
23
0.0576873359
33
0.0000000000
40
0.0000000000
40
0.0000000000
40
0.0000000000
40
0.0000000000
40
0.6122210332
40
1.0000000000
40
1.0000000000
40
1.0000000000
40
1.0000000000
10
-6.1311643381
20
-15.0215987485
30
0.0000000000
10
-6.1078305720
20
-15.0224582989
30
0.0000000000
10
-6.0691415018
20
-15.0174314461
30
0.0000000000
10
-6.0338320562
20
-15.0019384536
30
0.0000000000
10
-6.0209887120
20
-14.9944818085
30
0.0000000000
11
-6.1311643381
21
-15.0215987485
31
0.0000000000
11
-6.0617247795
21
-15.0123803470
31
0.0000000000
11
-6.0209887120
21
-14.9944818085
31
0.0000000000
0
SPLINE
5
4B6
100
AcDbEntity
8
0
100
AcDbSpline
62
0
6
CONTINUOUS
70
0
71
3
72
9
73
5
74
3
42
0.0000001000
43
0.0000001000
44
0.0000000001
12
0.0307707571
22
0.0178650212
32
0.0000000000
13
0.0270063797
23
0.0231854203
33
0.0000000000
40
0.0000000000
40
0.0000000000
40
0.0000000000
40
0.0000000000
40
0.6064720287
40
1.0000000000
40
1.0000000000
40
1.0000000000
40
1.0000000000
10
-6.0209887120
20
-14.9944818085
30
0.0000000000
10
-6.0147681775
20
-14.9908702633
30
0.0000000000
10
-6.0048396206
20
-14.9843548623
30
0.0000000000
10
-5.9955577425
20
-14.9769540618
30
0.0000000000
10
-5.9920151539
20
-14.9739126913
30
0.0000000000
11
-6.0209887120
21
-14.9944818085
31
0.0000000000
11
-6.0029632473
21
-14.9826417891
31
0.0000000000
11
-5.9920151539
21
-14.9739126913
31
0.0000000000
0
SPLINE
5
4B7
100
AcDbEntity
8
0
100
AcDbSpline
62
0
6
CONTINUOUS
70
0
71
3
72
8
73
4
74
2
42
0.0000001000
43
0.0000001000
44
0.0000000001
12
0.0212964606
22
0.0182833610
32
0.0000000000
13
0.0184041089
23
0.0211928790
33
0.0000000000
40
0.0000000000
40
0.0000000000
40
0.0000000000
40
0.0000000000
40
1.0000000000
40
1.0000000000
40
1.0000000000
40
1.0000000000
10
-5.9920151539
20
-14.9739126913
30
0.0000000000
10
-5.9849163337
20
-14.9678182376
30
0.0000000000
10
-5.9782595713
20
-14.9612060019
30
0.0000000000
10
-5.9721248683
20
-14.9541417089
30
0.0000000000
11
-5.9920151539
21
-14.9739126913
31
0.0000000000
11
-5.9721248683
21
-14.9541417089
31
0.0000000000
0
SPLINE
5
4B8
100
AcDbEntity
8
0
100
AcDbSpline
62
0
6
CONTINUOUS
70
0
71
3
72
8
73
4
74
2
42
0.0000001000
43
0.0000001000
44
0.0000000001
12
-0.0070798766
22
0.0226100777
32
0.0000000000
13
-0.0096792519
23
0.0214974483
33
0.0000000000
40
0.0000000000
40
0.0000000000
40
0.0000000000
40
0.0000000000
40
1.0000000000
40
1.0000000000
40
1.0000000000
40
1.0000000000
10
-5.9351524744
20
-14.7734059999
30
0.0000000000
10
-5.9375124332
20
-14.7658693073
30
0.0000000000
10
-5.9403188626
20
-14.7584858726
30
0.0000000000
10
-5.9435452799
20
-14.7513200565
30
0.0000000000
11
-5.9351524744
21
-14.7734059999
31
0.0000000000
11
-5.9435452799
21
-14.7513200565
31
0.0000000000
0
SPLINE
5
4B9
100
AcDbEntity
8
0
100
AcDbSpline
62
0
6
CONTINUOUS
70
0
71
3
72
10
73
6
74
4
42
0.0000001000
43
0.0000001000
44
0.0000000001
12
-0.0954152381
22
0.0819189487
32
0.0000000000
13
-0.1253747818
23
0.0102416738
33
0.0000000000
40
0.0000000000
40
0.0000000000
40
0.0000000000
40
0.0000000000
40
0.1021426449
40
0.6310008180
40
1.0000000000
40
1.0000000000
40
1.0000000000
40
1.0000000000
10
-5.9920131032
20
-11.1211207214
30
0.0000000000
10
-5.9952617582
20
-11.1183315820
30
0.0000000000
10
-6.0159030415
20
-11.1017716707
30
0.0000000000
10
-6.0537562821
20
-11.0824754272
30
0.0000000000
10
-6.0910515854
20
-11.0752481967
30
0.0000000000
10
-6.1064726493
20
-11.0739884736
30
0.0000000000
11
-5.9920131032
21
-11.1211207214
31
0.0000000000
11
-6.0020293405
21
-11.1130852168
31
0.0000000000
11
-6.0609553362
21
-11.0828942401
31
0.0000000000
11
-6.1064726493
21
-11.0739884736
31
0.0000000000
0
SPLINE
5
4BA
100
AcDbEntity
8
0
100
AcDbSpline
62
0
6
CONTINUOUS
70
0
71
3
72
10
73
6
74
4
42
0.0000001000
43
0.0000001000
44
0.0000000001
12
0.3587899764
22
0.0000000000
32
0.0000000000
13
0.1284179075
23
-0.3350210265
33
0.0000000000
40
0.0000000000
40
0.0000000000
40
0.0000000000
40
0.0000000000
40
0.3344497805
40
0.6674466338
40
1.0000000000
40
1.0000000000
40
1.0000000000
40
1.0000000000
10
6.4760680342
20
-11.0475161830
30
0.0000000000
10
6.5160671104
20
-11.0475161830
30
0.0000000000
10
6.5968267083
20
-11.0639540574
30
0.0000000000
10
6.6977562879
20
-11.1335331469
30
0.0000000000
10
6.7417878608
20
-11.2028855528
30
0.0000000000
10
6.7560231300
20
-11.2400230095
30
0.0000000000
11
6.4760680342
21
-11.0475161830
31
0.0000000000
11
6.5936392922
21
-11.0715231446
31
0.0000000000
11
6.6920078033
21
-11.1393326914
31
0.0000000000
11
6.7560231300
21
-11.2400230095
31
0.0000000000
0
SPLINE
5
4BB
100
AcDbEntity
8
0
100
AcDbSpline
62
0
6
CONTINUOUS
70
0
71
3
72
10
73
6
74
4
42
0.0000001000
43
0.0000001000
44
0.0000000001
12
-0.1284179132
22
-0.3350210411
32
0.0000000000
13
-0.3587899921
23
0.0000000000
33
0.0000000000
40
0.0000000000
40
0.0000000000
40
0.0000000000
40
0.0000000000
40
0.3342255691
40
0.6672833410
40
1.0000000000
40
1.0000000000
40
1.0000000000
40
1.0000000000
10
6.7560231300
20
-14.8550093565
30
0.0000000000
10
6.7417162799
20
-14.8923335559
30
0.0000000000
10
6.6974844395
20
-14.9618453771
30
0.0000000000
10
6.5964056678
20
-15.0312102776
30
0.0000000000
10
6.5158598367
20
-15.0475161830
30
0.0000000000
10
6.4760680342
20
-15.0475161830
30
0.0000000000
11
6.7560231300
21
-14.8550093565
31
0.0000000000
11
6.6915826124
21
-14.9561402423
31
0.0000000000
11
6.5930552509
21
-15.0237574156
31
0.0000000000
11
6.4760680342
21
-15.0475161830
31
0.0000000000
0
ENDSEC
0
SECTION
2
OBJECTS
0
DICTIONARY
5
C
100
AcDbDictionary
280
0
281
1
3
ACAD_GROUP
350
D
3
ACAD_MLINESTYLE
350
17
3
ACAD_LAYOUT
350
1A
3
ACAD_PLOTSETTINGS
350
19
3
ACAD_PLOTSTYLENAME
350
E
0
DICTIONARY
5
D
102
{ACAD_REACTORS
330
C
102
}
100
AcDbDictionary
280
0
281
1
0
ACDBDICTIONARYWDFLT
5
E
102
{ACAD_REACTORS
330
C
102
}
100
AcDbDictionary
281
1
3
Normal
350
F
100
AcDbDictionaryWithDefault
340
F
0
DICTIONARY
5
17
102
{ACAD_REACTORS
330
C
102
}
100
AcDbDictionary
280
0
281
1
3
Standard
350
18
0
DICTIONARY
5
19
102
{ACAD_REACTORS
330
C
102
}
100
AcDbDictionary
281
1
0
DICTIONARY
5
1A
102
{ACAD_REACTORS
330
C
102
}
100
AcDbDictionary
281
1
3
Layout1
350
1E
3
Model
350
22
0
ACDBPLACEHOLDER
5
F
102
{ACAD_REACTORS
330
E
102
}
0
MLINESTYLE
5
18
102
{ACAD_REACTORS
330
17
102
}
100
AcDbMlineStyle
2
STANDARD
70
0
3

62
256
51
90.0
52
90.0
71
2
49
0.5
62
256
6
BYLAYER
49
-0.5
62
256
6
BYLAYER
0
LAYOUT
5
1E
102
{ACAD_REACTORS
330
1A
102
}
100
AcDbPlotSettings
1

2

4

6

40
0.0
41
0.0
42
0.0
43
0.0
44
0.0
45
0.0
46
0.0
47
0.0
48
0.0
49
0.0
140
0.0
141
0.0
142
1.0
143
1.0
70
0
72
0
73
0
74
0
7

75
0
147
1.0
148
0.0
149
0.0
100
AcDbLayout
1
Layout1
70
0
71
0
10
0.0
20
0.0
11
0.0
21
0.0
12
0.0
22
0.0
32
0.0
14
0.0
24
0.0
34
0.0
15
0.0
25
0.0
35
0.0
146
0.0
13
0.0
23
0.0
33
0.0
16
0.0
26
0.0
36
0.0
17
0.0
27
0.0
37
0.0
76
0
330
1B
331
0
345
0
346
0
0
LAYOUT
5
22
102
{ACAD_REACTORS
330
1A
102
}
100
AcDbPlotSettings
1

2

4

6

40
0.0
41
0.0
42
0.0
43
0.0
44
0.0
45
0.0
46
0.0
47
0.0
48
0.0
49
0.0
140
0.0
141
0.0
142
1.0
143
1.0
70
0
72
0
73
0
74
0
7

75
0
147
1.0
148
0.0
149
0.0
100
AcDbLayout
1
Model
70
0
71
0
10
0.0
20
0.0
11
0.0
21
0.0
12
0.0
22
0.0
32
0.0
14
0.0
24
0.0
34
0.0
15
0.0
25
0.0
35
0.0
146
0.0
13
0.0
23
0.0
33
0.0
16
0.0
26
0.0
36
0.0
17
0.0
27
0.0
37
0.0
76
0
330
1F
331
0
345
0
346
0
0
ENDSEC
0
EOF
