  0
SECTION
  2
HEADER
  9
$ACADVER
  1
AC1015
  9
$DWGCODEPAGE
  3
ANSI_1252
  9
$EXTMAX
 10
297.0
 20
210.0
 30
0.0
  9
$EXTMIN
 10
0.0
 20
0.0
 30
0.0
  9
$LIMMIN
 10
0.0
 20
0.0
  9
$LIMMAX
 10
297.0
 20
210.0
  9
$VIEWCTR
 10
148.5
 20
105.0
  9
$VIEWSIZE
 40
210.0
  9
$CLAYER
  8
0
  9
$LTSCALE
 40
16.335
  9
$CELTYPE
  6
BYLAYER
  9
$DIMSCALE
 40
1.0
  9
$DIMASZ
 40
3.0
  9
$DIMEXO
 40
1.85625
  9
$DIMDLI
 40
11.286
  9
$DIMEXE
 40
5.346
  9
$DIMCEN
 40
2.673
  9
$DIMLFAC
 40
1.0
  9
$DIMBLK
  1
_FILLED
  9
$DIMTXT
 40
3.0
  9
$DIMTOL
 70
1
  9
$DIMLIM
 70
0
  9
$DIMTFAC
 40
1.0
  9
$DIMTP
 40
0.01
  9
$DIMTM
 40
0.01
  9
$PDMODE
 70
3
  9
$PDSIZE
 40
3.0
  9
$HANDSEED
  5
739
  9
$TILEMODE
 70
1
  9
$MEASUREMENT
 70
1
  9
$INSUNITS
 70
4
  0
ENDSEC
  0
SECTION
  2
CLASSES
  0
CLASS
  1
ACDBDICTIONARYWDFLT
  2
AcDbDictionaryWithDefault
  3
AutoCAD 2000
 90
0
280
0
281
0
  0
CLASS
  1
ACDBPLACEHOLDER
  2
AcDbPlaceHolder
  3
AutoCAD 2000
 90
0
280
0
281
0
  0
CLASS
  1
LAYOUT
  2
AcDbLayout
  3
AutoCAD 2000
 90
0
280
0
281
0
  0
ENDSEC
  0
SECTION
  2
TABLES
  0
TABLE
  2
VPORT
  5
8
100
AcDbSymbolTable
 70
2
  0
VPORT
  5
1F4
100
AcDbSymbolTableRecord
100
AcDbViewportTableRecord
  2
*ACTIVE
 70
0
 10
0.0
 20
0.0
 11
1.0
 21
1.0
 12
148.5
 22
105.0
 13
0.0
 23
0.0
 14
1.0
 24
1.0
 15
0.0
 25
0.0
 16
0.0
 26
0.0
 36
1.0
 17
0.0
 27
0.0
 37
0.0
 40
210.0
 41
1.4142857143
 42
50.0
 43
0.0
 44
0.0
 50
0.0
 51
0.0
 71
0
 72
100
 73
1
 74
1
 75
0
 76
0
 77
0
 78
0
  0
ENDTAB
  0
TABLE
  2
LTYPE
  5
5
100
AcDbSymbolTable
 70
6
  0
LTYPE
  5
14
100
AcDbSymbolTableRecord
100
AcDbLinetypeTableRecord
  2
BYBLOCK
 70
0
  3

 72
65
 73
0
 40
0.0
  0
LTYPE
  5
15
100
AcDbSymbolTableRecord
100
AcDbLinetypeTableRecord
  2
BYLAYER
 70
0
  3

 72
65
 73
0
 40
0.0
  0
LTYPE
  5
16
100
AcDbSymbolTableRecord
100
AcDbLinetypeTableRecord
  2
CONTINUOUS
 70
64
  3
Solid line
 72
65
 73
0
 40
0.0
  0
LTYPE
  5
1F5
100
AcDbSymbolTableRecord
100
AcDbLinetypeTableRecord
  2
CENTER
 70
64
  3
____ _ ____ _ ____ _ ____ _ ____ _ ____ _ ____
 72
65
 73
4
 40
0.6
 49
0.375
 74
0
 49
-0.075
 74
0
 49
0.075
 74
0
 49
-0.075
 74
0
  0
LTYPE
  5
1F6
100
AcDbSymbolTableRecord
100
AcDbLinetypeTableRecord
  2
HIDDEN
 70
64
  3
- - - - - - - - - - - - - - - - - - - -
 72
65
 73
2
 40
0.2
 49
0.1
 74
0
 49
-0.1
 74
0
  0
LTYPE
  5
1F7
100
AcDbSymbolTableRecord
100
AcDbLinetypeTableRecord
  2
PHANTOM
 70
64
  3
_____ _ _ _____ _ _ _____ _ _ _____
 72
65
 73
6
 40
0.8
 49
0.45
 74
0
 49
-0.05
 74
0
 49
0.1
 74
0
 49
-0.05
 74
0
 49
0.1
 74
0
 49
-0.05
 74
0
  0
LTYPE
  5
1F8
100
AcDbSymbolTableRecord
100
AcDbLinetypeTableRecord
  2
DOT
 70
64
  3
. . . . . . . . . . . . . . . . . . . .
 72
65
 73
2
 40
0.2
 49
0.1
 74
0
 49
-0.1
 74
0
  0
LTYPE
  5
1F9
100
AcDbSymbolTableRecord
100
AcDbLinetypeTableRecord
  2
DASHED
 70
64
  3
- - - - - - - - - - - - - - - - - - - -
 72
65
 73
2
 40
0.2
 49
0.1
 74
0
 49
-0.1
 74
0
  0
ENDTAB
  0
TABLE
  2
LAYER
  5
2
100
AcDbSymbolTable
 70
36
  0
LAYER
  5
10
100
AcDbSymbolTableRecord
100
AcDbLayerTableRecord
  2
0
 70
0
 62
7
  6
CONTINUOUS
370
-3
390
F
  0
LAYER
  5
1FA
100
AcDbSymbolTableRecord
100
AcDbLayerTableRecord
  2
DEFAULT_1
 70
0
 62
7
  6
CENTER
370
-3
390
F
  0
LAYER
  5
1FB
100
AcDbSymbolTableRecord
100
AcDbLayerTableRecord
  2
DEFAULT_2
 70
0
 62
7
  6
HIDDEN
370
-3
390
F
  0
LAYER
  5
1FC
100
AcDbSymbolTableRecord
100
AcDbLayerTableRecord
  2
DEFAULT_3
 70
0
 62
7
  6
PHANTOM
370
-3
390
F
  0
LAYER
  5
1FD
100
AcDbSymbolTableRecord
100
AcDbLayerTableRecord
  2
ASSI
 70
0
 62
7
  6
CONTINUOUS
370
-3
390
F
  0
LAYER
  5
1FE
100
AcDbSymbolTableRecord
100
AcDbLayerTableRecord
  2
COORDINATE
 70
0
 62
7
  6
CONTINUOUS
370
-3
390
F
  0
LAYER
  5
1FF
100
AcDbSymbolTableRecord
100
AcDbLayerTableRecord
  2
COORD_ORIGINE
 70
0
 62
7
  6
CONTINUOUS
370
-3
390
F
  0
LAYER
  5
200
100
AcDbSymbolTableRecord
100
AcDbLayerTableRecord
  2
COPY_PUBLISH
 70
0
 62
7
  6
CONTINUOUS
370
-3
390
F
  0
LAYER
  5
201
100
AcDbSymbolTableRecord
100
AcDbLayerTableRecord
  2
COSMETIC
 70
0
 62
7
  6
CONTINUOUS
370
-3
390
F
  0
LAYER
  5
202
100
AcDbSymbolTableRecord
100
AcDbLayerTableRecord
  2
CURVE
 70
0
 62
7
  6
CONTINUOUS
370
-3
390
F
  0
LAYER
  5
203
100
AcDbSymbolTableRecord
100
AcDbLayerTableRecord
  2
DRAFT
 70
0
 62
7
  6
CONTINUOUS
370
-3
390
F
  0
LAYER
  5
204
100
AcDbSymbolTableRecord
100
AcDbLayerTableRecord
  2
IMPORT
 70
0
 62
7
  6
CONTINUOUS
370
-3
390
F
  0
LAYER
  5
205
100
AcDbSymbolTableRecord
100
AcDbLayerTableRecord
  2
IMPORT_IGES
 70
0
 62
7
  6
CONTINUOUS
370
-3
390
F
  0
LAYER
  5
206
100
AcDbSymbolTableRecord
100
AcDbLayerTableRecord
  2
INTFCLR_2
 70
0
 62
7
  6
CONTINUOUS
370
-3
390
F
  0
LAYER
  5
207
100
AcDbSymbolTableRecord
100
AcDbLayerTableRecord
  2
NOTE
 70
0
 62
7
  6
CONTINUOUS
370
-3
390
F
  0
LAYER
  5
208
100
AcDbSymbolTableRecord
100
AcDbLayerTableRecord
  2
PIANI
 70
0
 62
7
  6
CONTINUOUS
370
-3
390
F
  0
LAYER
  5
209
100
AcDbSymbolTableRecord
100
AcDbLayerTableRecord
  2
PIANI_ORIGINE
 70
0
 62
7
  6
CONTINUOUS
370
-3
390
F
  0
LAYER
  5
20A
100
AcDbSymbolTableRecord
100
AcDbLayerTableRecord
  2
PUNTI
 70
0
 62
7
  6
CONTINUOUS
370
-3
390
F
  0
LAYER
  5
20B
100
AcDbSymbolTableRecord
100
AcDbLayerTableRecord
  2
RACCORDO
 70
0
 62
7
  6
CONTINUOUS
370
-3
390
F
  0
LAYER
  5
20C
100
AcDbSymbolTableRecord
100
AcDbLayerTableRecord
  2
SMUSSO
 70
0
 62
7
  6
CONTINUOUS
370
-3
390
F
  0
LAYER
  5
20D
100
AcDbSymbolTableRecord
100
AcDbLayerTableRecord
  2
SNAPLINE
 70
0
 62
7
  6
CONTINUOUS
370
-3
390
F
  0
LAYER
  5
20E
100
AcDbSymbolTableRecord
100
AcDbLayerTableRecord
  2
SUPERFICI
 70
0
 62
7
  6
CONTINUOUS
370
-3
390
F
  0
LAYER
  5
20F
100
AcDbSymbolTableRecord
100
AcDbLayerTableRecord
  2
TRASH
 70
0
 62
7
  6
CONTINUOUS
370
-3
390
F
  0
LAYER
  5
210
100
AcDbSymbolTableRecord
100
AcDbLayerTableRecord
  2
XSEC_DATUMS
 70
0
 62
7
  6
CONTINUOUS
370
-3
390
F
  0
ENDTAB
  0
TABLE
  2
STYLE
  5
3
100
AcDbSymbolTable
 70
1
  0
STYLE
  5
11
100
AcDbSymbolTableRecord
100
AcDbTextStyleTableRecord
  2
STANDARD
 70
0
 40
0.0
 41
0.8
 50
0.0
 71
0
 42
0.2
  3
txt
  4

  0
STYLE
  5
211
100
AcDbSymbolTableRecord
100
AcDbTextStyleTableRecord
  2
TEXTSTYLE_1
 70
0
 40
0.0
 41
0.8
 50
0.0
 71
0
 42
0.2
  3
gdt
  4

  0
ENDTAB
  0
TABLE
  2
VIEW
  5
6
100
AcDbSymbolTable
 70
0
  0
ENDTAB
  0
TABLE
  2
UCS
  5
7
100
AcDbSymbolTable
 70
0
  0
ENDTAB
  0
TABLE
  2
APPID
  5
9
100
AcDbSymbolTable
 70
1
  0
APPID
  5
212
100
AcDbSymbolTableRecord
100
AcDbRegAppTableRecord
  2
ACAD
 70
0
  0
ENDTAB
  0
TABLE
  2
BLOCK_RECORD
  5
1
100
AcDbSymbolTable
 70
0
  0
BLOCK_RECORD
  5
213
100
AcDbSymbolTableRecord
100
AcDbBlockTableRecord
  2
*Model_Space
  0
BLOCK_RECORD
  5
214
100
AcDbSymbolTableRecord
100
AcDbBlockTableRecord
  2
*Paper_Space
  0
ENDTAB
  0
TABLE
  2
DIMSTYLE
  5
A
100
AcDbSymbolTable
 70
1
100
AcDbDimStyleTable
 71
0
  0
DIMSTYLE
105
215
100
AcDbSymbolTableRecord
100
AcDbDimStyleTableRecord
  2
STANDARD
 70
0
  3

  4

 40
1.0
 41
3.0
 42
0.0625
 43
0.38
 44
0.18
 45
0.0
 46
0.0
 47
0.01
 48
0.01
140
3.0
141
0.09
142
0.0
143
25.4
144
1.0
145
0.0
146
1.0
147
0.09
 71
1.0
 72
0.0
 73
0
 74
0
 75
0
 76
0
 77
1
 78
8
170
0
171
2
172
0
173
0
174
0
175
0
176
0
177
0
178
0
270
2
271
2
272
2
273
2
274
2
275
0
280
0
281
0
282
0
283
1
284
8
285
0
286
0
287
3
288
0
340
11
  0
ENDTAB
  0
ENDSEC
  0
SECTION
  2
BLOCKS
  0
BLOCK
  5
20
100
AcDbEntity
  8
0
100
AcDbBlockBegin
  2
*Model_Space
 70
0
 10
0.0
 20
0.0
 30
0.0
  3
*Model_Space
  1

  0
ENDBLK
  5
21
100
AcDbEntity
  8
0
100
AcDbBlockEnd
  0
BLOCK
  5
1C
100
AcDbEntity
  8
0
100
AcDbBlockBegin
  2
*Paper_Space
 70
0
 10
0.0
 20
0.0
 30
0.0
  3
*Paper_Space
  1

  0
ENDBLK
  5
1D
100
AcDbEntity
  8
0
100
AcDbBlockEnd
  0
ENDSEC
  0
SECTION
  2
ENTITIES
  0
LINE
  5
216
100
AcDbEntity
  8
RACCORDO
100
AcDbLine
 62
7
  6
CONTINUOUS
 10
10.1001218439
 20
-21.65
 11
-10.1001218439
 21
-21.65
  0
LINE
  5
217
100
AcDbEntity
  8
ASSI
100
AcDbLine
 62
7
  6
CONTINUOUS
 10
10.1001218439
 20
-21.65
 11
-10.1001218439
 21
-21.65
  0
LINE
  5
218
100
AcDbEntity
  8
RACCORDO
100
AcDbLine
 62
7
  6
CONTINUOUS
 10
9.700030461
 20
-20.35
 11
7.0
 21
-20.35
  0
LINE
  5
219
100
AcDbEntity
  8
DRAFT
100
AcDbLine
 62
7
  6
CONTINUOUS
 10
7.0
 20
-20.35
 11
-7.0
 21
-20.35
  0
LINE
  5
21A
100
AcDbEntity
  8
RACCORDO
100
AcDbLine
 62
7
  6
CONTINUOUS
 10
-7.0
 20
-20.35
 11
-9.700030461
 21
-20.35
  0
LINE
  5
21B
100
AcDbEntity
  8
ASSI
100
AcDbLine
 62
7
  6
CONTINUOUS
 10
9.700030461
 20
-20.35
 11
-9.700030461
 21
-20.35
  0
LINE
  5
21C
100
AcDbEntity
  8
RACCORDO
100
AcDbLine
 62
253
  6
CONTINUOUS
 10
-9.5546168278
 20
-20.2530327976
 11
-8.969713327
 21
-20.2530328195
  0
LINE
  5
21D
100
AcDbEntity
  8
ASSI
100
AcDbLine
 62
253
  6
CONTINUOUS
 10
-9.6030632568
 20
-20.2530327958
 11
-8.969713327
 21
-20.2530328195
  0
LINE
  5
21E
100
AcDbEntity
  8
RACCORDO
100
AcDbLine
 62
253
  6
CONTINUOUS
 10
-6.3999999964
 20
-20.2530329157
 11
-4.1547621508
 21
-20.2530329998
  0
LINE
  5
21F
100
AcDbEntity
  8
ASSI
100
AcDbLine
 62
253
  6
CONTINUOUS
 10
-6.3999999964
 20
-20.2530329157
 11
-4.1547621508
 21
-20.2530329998
  0
LINE
  5
220
100
AcDbEntity
  8
RACCORDO
100
AcDbLine
 62
253
  6
CONTINUOUS
 10
4.1547621508
 20
-20.2530329998
 11
6.4
 21
-20.2530329998
  0
LINE
  5
221
100
AcDbEntity
  8
ASSI
100
AcDbLine
 62
253
  6
CONTINUOUS
 10
4.1547621508
 20
-20.2530329998
 11
6.4
 21
-20.2530329998
  0
LINE
  5
222
100
AcDbEntity
  8
RACCORDO
100
AcDbLine
 62
253
  6
CONTINUOUS
 10
8.9697144986
 20
-20.2530329998
 11
9.5546168312
 21
-20.2530329998
  0
LINE
  5
223
100
AcDbEntity
  8
ASSI
100
AcDbLine
 62
253
  6
CONTINUOUS
 10
8.9697144986
 20
-20.2530329998
 11
9.6030634608
 21
-20.2530329998
  0
LINE
  5
224
100
AcDbEntity
  8
RACCORDO
100
AcDbLine
 62
253
  6
CONTINUOUS
 10
-2.1
 20
-20.2507036549
 11
2.1
 21
-20.2507036549
  0
LINE
  5
225
100
AcDbEntity
  8
ASSI
100
AcDbLine
 62
253
  6
CONTINUOUS
 10
-2.1
 20
-20.2507036549
 11
2.1
 21
-20.2507036549
  0
LINE
  5
226
100
AcDbEntity
  8
RACCORDO
100
AcDbLine
 62
253
  6
CONTINUOUS
 10
-2.1
 20
-20.1097251256
 11
2.0997205921
 21
-20.1097251256
  0
LINE
  5
227
100
AcDbEntity
  8
ASSI
100
AcDbLine
 62
253
  6
CONTINUOUS
 10
-2.1
 20
-20.1097251256
 11
2.0997205921
 21
-20.1097251256
  0
LINE
  5
228
100
AcDbEntity
  8
RACCORDO
100
AcDbLine
 62
253
  6
CONTINUOUS
 10
-9.8013179566
 20
-19.9530786912
 11
-7.0200104551
 21
-19.9530785315
  0
LINE
  5
229
100
AcDbEntity
  8
ASSI
100
AcDbLine
 62
253
  6
CONTINUOUS
 10
-9.8013179566
 20
-19.9530786912
 11
-7.0000000002
 21
-19.9530785327
  0
LINE
  5
22A
100
AcDbEntity
  8
RACCORDO
100
AcDbLine
 62
253
  6
CONTINUOUS
 10
-6.4000000002
 20
-19.9530785661
 11
-4.1547621508
 21
-19.9530786912
  0
LINE
  5
22B
100
AcDbEntity
  8
ASSI
100
AcDbLine
 62
253
  6
CONTINUOUS
 10
-6.3999999779
 20
-19.9530785661
 11
-4.1547621508
 21
-19.9530786912
  0
LINE
  5
22C
100
AcDbEntity
  8
RACCORDO
100
AcDbLine
 62
253
  6
CONTINUOUS
 10
4.1547621508
 20
-19.9530786912
 11
6.4
 21
-19.9530786912
  0
LINE
  5
22D
100
AcDbEntity
  8
ASSI
100
AcDbLine
 62
253
  6
CONTINUOUS
 10
4.1547621508
 20
-19.9530786912
 11
6.4
 21
-19.9530786912
  0
LINE
  5
22E
100
AcDbEntity
  8
RACCORDO
100
AcDbLine
 62
253
  6
CONTINUOUS
 10
7.020011493
 20
-19.9530786912
 11
9.8013179566
 21
-19.9530786912
  0
LINE
  5
22F
100
AcDbEntity
  8
ASSI
100
AcDbLine
 62
253
  6
CONTINUOUS
 10
7.0
 20
-19.9530786912
 11
9.8013179566
 21
-19.9530786912
  0
LINE
  5
230
100
AcDbEntity
  8
SUPERFICI
100
AcDbLine
 62
7
  6
CONTINUOUS
 10
6.4
 20
-19.95
 11
7.0
 21
-19.95
  0
LINE
  5
231
100
AcDbEntity
  8
ASSI
100
AcDbLine
 62
7
  6
CONTINUOUS
 10
6.4
 20
-19.95
 11
7.0
 21
-19.95
  0
LINE
  5
232
100
AcDbEntity
  8
SUPERFICI
100
AcDbLine
 62
7
  6
CONTINUOUS
 10
-6.4
 20
-19.95
 11
-7.0
 21
-19.95
  0
LINE
  5
233
100
AcDbEntity
  8
ASSI
100
AcDbLine
 62
7
  6
CONTINUOUS
 10
-6.4
 20
-19.95
 11
-7.0
 21
-19.95
  0
LINE
  5
234
100
AcDbEntity
  8
DRAFT
100
AcDbLine
 62
7
  6
CONTINUOUS
 10
-7.0
 20
-19.95
 11
-9.5546168312
 21
-20.343017974
  0
LINE
  5
235
100
AcDbEntity
  8
ASSI
100
AcDbLine
 62
7
  6
CONTINUOUS
 10
-7.0
 20
-19.95
 11
-9.5546168312
 21
-20.343017974
  0
LINE
  5
236
100
AcDbEntity
  8
RACCORDO
100
AcDbLine
 62
7
  6
CONTINUOUS
 10
9.6013484175
 20
-19.6948577733
 11
5.25
 21
-19.6948597355
  0
LINE
  5
237
100
AcDbEntity
  8
ASSI
100
AcDbLine
 62
7
  6
CONTINUOUS
 10
9.6013484175
 20
-19.6948577733
 11
5.25
 21
-19.6948597355
  0
LINE
  5
238
100
AcDbEntity
  8
RACCORDO
100
AcDbLine
 62
7
  6
CONTINUOUS
 10
-5.25
 20
-19.6948597355
 11
-9.6013484175
 21
-19.6948577733
  0
LINE
  5
239
100
AcDbEntity
  8
ASSI
100
AcDbLine
 62
7
  6
CONTINUOUS
 10
-5.25
 20
-19.6948597355
 11
-9.6013484175
 21
-19.6948577733
  0
LINE
  5
23A
100
AcDbEntity
  8
0
100
AcDbLine
 62
7
  6
CONTINUOUS
 10
-2.1
 20
-19.2901338116
 11
2.1
 21
-19.2901338116
  0
LINE
  5
23B
100
AcDbEntity
  8
ASSI
100
AcDbLine
 62
7
  6
CONTINUOUS
 10
-2.1
 20
-19.2901338116
 11
2.1
 21
-19.2901338116
  0
LINE
  5
23C
100
AcDbEntity
  8
0
100
AcDbLine
 62
7
  6
CONTINUOUS
 10
-2.1
 20
-18.4912724675
 11
2.1
 21
-18.4912724675
  0
LINE
  5
23D
100
AcDbEntity
  8
ASSI
100
AcDbLine
 62
7
  6
CONTINUOUS
 10
-2.1
 20
-18.4912724675
 11
2.1
 21
-18.4912724675
  0
LINE
  5
23E
100
AcDbEntity
  8
ASSI
100
AcDbLine
 62
7
  6
CONTINUOUS
 10
2.1
 20
-18.489526961
 11
-2.1
 21
-18.489526961
  0
LINE
  5
23F
100
AcDbEntity
  8
DRAFT
100
AcDbLine
 62
7
  6
CONTINUOUS
 10
7.0
 20
-19.95
 11
9.5546168312
 21
-20.343017974
  0
LINE
  5
240
100
AcDbEntity
  8
ASSI
100
AcDbLine
 62
7
  6
CONTINUOUS
 10
7.0
 20
-19.95
 11
9.5546168312
 21
-20.343017974
  0
LINE
  5
241
100
AcDbEntity
  8
RACCORDO
100
AcDbLine
 62
7
  6
CONTINUOUS
 10
-9.7978878702
 20
15.3
 11
-9.7968219358
 21
15.3010659344
  0
LINE
  5
242
100
AcDbEntity
  8
ASSI
100
AcDbLine
 62
7
  6
CONTINUOUS
 10
-9.7978878702
 20
15.3
 11
-9.7968219358
 21
15.3010659344
  0
LINE
  5
243
100
AcDbEntity
  8
DRAFT
100
AcDbLine
 62
253
  6
CONTINUOUS
 10
-4.65
 20
-17.35
 11
-4.639526961
 21
-17.35
  0
LINE
  5
244
100
AcDbEntity
  8
DRAFT
100
AcDbLine
 62
253
  6
CONTINUOUS
 10
4.65
 20
-17.35
 11
4.639526961
 21
-17.35
  0
LINE
  5
245
100
AcDbEntity
  8
DRAFT
100
AcDbLine
 62
253
  6
CONTINUOUS
 10
-5.25
 20
-17.35
 11
-5.260473039
 21
-17.35
  0
LINE
  5
246
100
AcDbEntity
  8
DRAFT
100
AcDbLine
 62
253
  6
CONTINUOUS
 10
5.25
 20
-17.35
 11
5.260473039
 21
-17.35
  0
LINE
  5
247
100
AcDbEntity
  8
ASSI
100
AcDbLine
 62
253
  6
CONTINUOUS
 10
-5.25
 20
-17.35
 11
-5.260473039
 21
-17.35
  0
LINE
  5
248
100
AcDbEntity
  8
ASSI
100
AcDbLine
 62
253
  6
CONTINUOUS
 10
5.25
 20
-17.35
 11
5.260473039
 21
-17.35
  0
LINE
  5
249
100
AcDbEntity
  8
0
100
AcDbLine
 62
7
  6
CONTINUOUS
 10
7.577248015
 20
-16.092820323
 11
5.5816582313
 21
-16.092820323
  0
LINE
  5
24A
100
AcDbEntity
  8
ASSI
100
AcDbLine
 62
7
  6
CONTINUOUS
 10
7.577248015
 20
-16.092820323
 11
5.5816582313
 21
-16.092820323
  0
LINE
  5
24B
100
AcDbEntity
  8
0
100
AcDbLine
 62
7
  6
CONTINUOUS
 10
-5.5816582313
 20
-16.092820323
 11
-7.577248015
 21
-16.092820323
  0
LINE
  5
24C
100
AcDbEntity
  8
ASSI
100
AcDbLine
 62
7
  6
CONTINUOUS
 10
-5.5816582313
 20
-16.092820323
 11
-7.577248015
 21
-16.092820323
  0
LINE
  5
24D
100
AcDbEntity
  8
ASSI
100
AcDbLine
 62
7
  6
CONTINUOUS
 10
-5.514614508
 20
-15.5962375299
 11
-5.0823234774
 21
-15.5962375299
  0
LINE
  5
24E
100
AcDbEntity
  8
ASSI
100
AcDbLine
 62
7
  6
CONTINUOUS
 10
5.0823234774
 20
-15.5962375299
 11
5.514614508
 21
-15.5962375299
  0
LINE
  5
24F
100
AcDbEntity
  8
0
100
AcDbLine
 62
7
  6
CONTINUOUS
 10
-5.5234371335
 20
-15.5874886635
 11
-5.091896211
 21
-15.5874886635
  0
LINE
  5
250
100
AcDbEntity
  8
ASSI
100
AcDbLine
 62
7
  6
CONTINUOUS
 10
-5.5234371335
 20
-15.5874886635
 11
-5.091896211
 21
-15.5874886635
  0
LINE
  5
251
100
AcDbEntity
  8
0
100
AcDbLine
 62
7
  6
CONTINUOUS
 10
5.0918962115
 20
-15.5874886635
 11
5.5234371335
 21
-15.5874886635
  0
LINE
  5
252
100
AcDbEntity
  8
ASSI
100
AcDbLine
 62
7
  6
CONTINUOUS
 10
5.0918962115
 20
-15.5874886635
 11
5.5234371335
 21
-15.5874886635
  0
LINE
  5
253
100
AcDbEntity
  8
RACCORDO
100
AcDbLine
 62
7
  6
CONTINUOUS
 10
-5.5878387851
 20
-15.5
 11
-5.1846805438
 21
-15.5
  0
LINE
  5
254
100
AcDbEntity
  8
ASSI
100
AcDbLine
 62
7
  6
CONTINUOUS
 10
-5.5878387851
 20
-15.5
 11
-5.1846805438
 21
-15.5
  0
LINE
  5
255
100
AcDbEntity
  8
ASSI
100
AcDbLine
 62
7
  6
CONTINUOUS
 10
5.1846805438
 20
-15.5
 11
5.5878387851
 21
-15.5
  0
LINE
  5
256
100
AcDbEntity
  8
RACCORDO
100
AcDbLine
 62
7
  6
CONTINUOUS
 10
5.1846805438
 20
-15.5
 11
5.5878387851
 21
-15.5
  0
LINE
  5
257
100
AcDbEntity
  8
0
100
AcDbLine
 62
7
  6
CONTINUOUS
 10
7.2149291288
 20
-15.4
 11
5.8473323845
 21
-15.4
  0
LINE
  5
258
100
AcDbEntity
  8
ASSI
100
AcDbLine
 62
7
  6
CONTINUOUS
 10
7.2149291288
 20
-15.4
 11
5.8473323845
 21
-15.4
  0
LINE
  5
259
100
AcDbEntity
  8
0
100
AcDbLine
 62
7
  6
CONTINUOUS
 10
-5.8473323845
 20
-15.4
 11
-7.2149291288
 21
-15.4
  0
LINE
  5
25A
100
AcDbEntity
  8
ASSI
100
AcDbLine
 62
7
  6
CONTINUOUS
 10
-5.8473323845
 20
-15.4
 11
-7.2149291288
 21
-15.4
  0
LINE
  5
25B
100
AcDbEntity
  8
RACCORDO
100
AcDbLine
 62
7
  6
CONTINUOUS
 10
6.535494875
 20
-15.0
 11
6.0752358421
 21
-15.0
  0
LINE
  5
25C
100
AcDbEntity
  8
ASSI
100
AcDbLine
 62
7
  6
CONTINUOUS
 10
6.535494875
 20
-15.0
 11
6.0752358421
 21
-15.0
  0
LINE
  5
25D
100
AcDbEntity
  8
RACCORDO
100
AcDbLine
 62
7
  6
CONTINUOUS
 10
-6.5114167897
 20
-14.9650792305
 11
-6.3143758278
 21
-14.9650792305
  0
LINE
  5
25E
100
AcDbEntity
  8
ASSI
100
AcDbLine
 62
7
  6
CONTINUOUS
 10
-6.5114167897
 20
-14.9650792305
 11
-6.3143758278
 21
-14.9650792305
  0
LINE
  5
25F
100
AcDbEntity
  8
RACCORDO
100
AcDbLine
 62
7
  6
CONTINUOUS
 10
6.3143758278
 20
-14.9650792305
 11
6.5114167897
 21
-14.9650792305
  0
LINE
  5
260
100
AcDbEntity
  8
ASSI
100
AcDbLine
 62
7
  6
CONTINUOUS
 10
6.3143758278
 20
-14.9650792305
 11
6.5114167897
 21
-14.9650792305
  0
LINE
  5
261
100
AcDbEntity
  8
ASSI
100
AcDbLine
 62
253
  6
CONTINUOUS
 10
4.3103487476
 20
-18.024864642
 11
4.3211826565
 21
-18.031535313
  0
LINE
  5
262
100
AcDbEntity
  8
RACCORDO
100
AcDbLine
 62
7
  6
CONTINUOUS
 10
-9.7978878702
 20
-10.3
 11
-9.7930778434
 21
-10.3048100268
  0
LINE
  5
263
100
AcDbEntity
  8
ASSI
100
AcDbLine
 62
7
  6
CONTINUOUS
 10
-9.7978878702
 20
-10.3
 11
-9.7930778434
 21
-10.3048100268
  0
LINE
  5
264
100
AcDbEntity
  8
RACCORDO
100
AcDbLine
 62
7
  6
CONTINUOUS
 10
-10.9
 20
-20.8501218439
 11
-10.9
 21
20.8501218439
  0
LINE
  5
265
100
AcDbEntity
  8
ASSI
100
AcDbLine
 62
7
  6
CONTINUOUS
 10
-10.9
 20
-20.8501218439
 11
-10.9
 21
20.8501218439
  0
LINE
  5
266
100
AcDbEntity
  8
RACCORDO
100
AcDbLine
 62
7
  6
CONTINUOUS
 10
6.5114167897
 20
-11.0349207695
 11
6.3143758278
 21
-11.0349207695
  0
LINE
  5
267
100
AcDbEntity
  8
ASSI
100
AcDbLine
 62
7
  6
CONTINUOUS
 10
6.5114167897
 20
-11.0349207695
 11
6.3143758278
 21
-11.0349207695
  0
LINE
  5
268
100
AcDbEntity
  8
RACCORDO
100
AcDbLine
 62
7
  6
CONTINUOUS
 10
-6.3143758278
 20
-11.0349207695
 11
-6.5114167897
 21
-11.0349207695
  0
LINE
  5
269
100
AcDbEntity
  8
ASSI
100
AcDbLine
 62
7
  6
CONTINUOUS
 10
-6.3143758278
 20
-11.0349207695
 11
-6.5114167897
 21
-11.0349207695
  0
LINE
  5
26A
100
AcDbEntity
  8
SMUSSO
100
AcDbLine
 62
7
  6
CONTINUOUS
 10
6.2979161497
 20
-11.0
 11
6.535494875
 21
-11.0
  0
LINE
  5
26B
100
AcDbEntity
  8
0
100
AcDbLine
 62
7
  6
CONTINUOUS
 10
4.3
 20
-16.6945906404
 11
4.2912724675
 21
-16.6896265886
  0
LINE
  5
26C
100
AcDbEntity
  8
ASSI
100
AcDbLine
 62
253
  6
CONTINUOUS
 10
4.489526961
 20
-17.7503000374
 11
4.5
 21
-17.757129732
  0
LINE
  5
26D
100
AcDbEntity
  8
ASSI
100
AcDbLine
 62
7
  6
CONTINUOUS
 10
-5.8831180076
 20
-14.7060240739
 11
-5.884118439
 21
-14.7038038735
  0
LINE
  5
26E
100
AcDbEntity
  8
RACCORDO
100
AcDbLine
 62
253
  6
CONTINUOUS
 10
-9.592745795
 20
-9.691399274
 11
-9.5963116997
 21
14.6949676121
  0
LINE
  5
26F
100
AcDbEntity
  8
ASSI
100
AcDbLine
 62
253
  6
CONTINUOUS
 10
-9.592745795
 20
-9.691399274
 11
-9.5963116997
 21
14.6949676121
  0
LINE
  5
270
100
AcDbEntity
  8
DRAFT
100
AcDbLine
 62
7
  6
CONTINUOUS
 10
-10.6
 20
-5.9801315846
 11
-10.6
 21
5.9801315846
  0
LINE
  5
271
100
AcDbEntity
  8
ASSI
100
AcDbLine
 62
7
  6
CONTINUOUS
 10
-10.6
 20
-5.9801315846
 11
-10.6
 21
5.9801315846
  0
LINE
  5
272
100
AcDbEntity
  8
RACCORDO
100
AcDbLine
 62
7
  6
CONTINUOUS
 10
-9.9
 20
-20.150030461
 11
-9.9
 21
-7.5
  0
LINE
  5
273
100
AcDbEntity
  8
ASSI
100
AcDbLine
 62
7
  6
CONTINUOUS
 10
-9.9
 20
-20.150030461
 11
-9.9
 21
-7.5
  0
LINE
  5
274
100
AcDbEntity
  8
RACCORDO
100
AcDbLine
 62
7
  6
CONTINUOUS
 10
-9.9
 20
7.5
 11
-9.9
 21
20.150030461
  0
LINE
  5
275
100
AcDbEntity
  8
ASSI
100
AcDbLine
 62
7
  6
CONTINUOUS
 10
-9.9
 20
7.5
 11
-9.9
 21
20.150030461
  0
LINE
  5
276
100
AcDbEntity
  8
DRAFT
100
AcDbLine
 62
7
  6
CONTINUOUS
 10
-9.8875643902
 20
-7.5
 11
-9.8875643902
 21
7.5
  0
LINE
  5
277
100
AcDbEntity
  8
ASSI
100
AcDbLine
 62
7
  6
CONTINUOUS
 10
-9.8875643902
 20
-7.5
 11
-9.8875643902
 21
7.5
  0
LINE
  5
278
100
AcDbEntity
  8
RACCORDO
100
AcDbLine
 62
253
  6
CONTINUOUS
 10
-9.8013179566
 20
19.9530786912
 11
-9.8013179566
 21
19.6882579219
  0
LINE
  5
279
100
AcDbEntity
  8
ASSI
100
AcDbLine
 62
253
  6
CONTINUOUS
 10
-9.8013179566
 20
19.9530786912
 11
-9.8013179566
 21
19.6882579219
  0
LINE
  5
27A
100
AcDbEntity
  8
RACCORDO
100
AcDbLine
 62
253
  6
CONTINUOUS
 10
-9.8013179566
 20
-19.6882579219
 11
-9.8013179566
 21
-19.9530786912
  0
LINE
  5
27B
100
AcDbEntity
  8
ASSI
100
AcDbLine
 62
253
  6
CONTINUOUS
 10
-9.8013179566
 20
-19.6882579219
 11
-9.8013179566
 21
-19.9530786912
  0
LINE
  5
27C
100
AcDbEntity
  8
DRAFT
100
AcDbLine
 62
7
  6
CONTINUOUS
 10
-9.7978878702
 20
-10.3
 11
-9.7978878702
 21
-9.7
  0
LINE
  5
27D
100
AcDbEntity
  8
ASSI
100
AcDbLine
 62
7
  6
CONTINUOUS
 10
-9.7978878702
 20
-10.3
 11
-9.7978878702
 21
-9.7
  0
LINE
  5
27E
100
AcDbEntity
  8
DRAFT
100
AcDbLine
 62
7
  6
CONTINUOUS
 10
-9.7978878702
 20
14.7
 11
-9.7978878702
 21
15.3
  0
LINE
  5
27F
100
AcDbEntity
  8
ASSI
100
AcDbLine
 62
7
  6
CONTINUOUS
 10
-9.7978878702
 20
14.7
 11
-9.7978878702
 21
15.3
  0
LINE
  5
280
100
AcDbEntity
  8
RACCORDO
100
AcDbLine
 62
253
  6
CONTINUOUS
 10
-9.6013484175
 20
19.9530905419
 11
-9.5968462917
 21
15.3044976006
  0
LINE
  5
281
100
AcDbEntity
  8
ASSI
100
AcDbLine
 62
253
  6
CONTINUOUS
 10
-9.6013484175
 20
19.9530905419
 11
-9.5968462917
 21
15.3044976006
  0
LINE
  5
282
100
AcDbEntity
  8
RACCORDO
100
AcDbLine
 62
253
  6
CONTINUOUS
 10
-9.6013484175
 20
-19.9530783877
 11
-9.5931062113
 21
-10.3082401519
  0
LINE
  5
283
100
AcDbEntity
  8
ASSI
100
AcDbLine
 62
253
  6
CONTINUOUS
 10
-9.6013484175
 20
-19.9530783877
 11
-9.5931062113
 21
-10.3082401519
  0
LINE
  5
284
100
AcDbEntity
  8
RACCORDO
100
AcDbLine
 62
7
  6
CONTINUOUS
 10
-5.5878387851
 20
-10.5
 11
-5.1846805438
 21
-10.5
  0
LINE
  5
285
100
AcDbEntity
  8
ASSI
100
AcDbLine
 62
7
  6
CONTINUOUS
 10
-5.5878387851
 20
-10.5
 11
-5.1846805438
 21
-10.5
  0
LINE
  5
286
100
AcDbEntity
  8
RACCORDO
100
AcDbLine
 62
7
  6
CONTINUOUS
 10
5.1846805438
 20
-10.5
 11
5.5878387851
 21
-10.5
  0
LINE
  5
287
100
AcDbEntity
  8
ASSI
100
AcDbLine
 62
7
  6
CONTINUOUS
 10
5.1846805438
 20
-10.5
 11
5.5878387851
 21
-10.5
  0
LINE
  5
288
100
AcDbEntity
  8
RACCORDO
100
AcDbLine
 62
7
  6
CONTINUOUS
 10
6.1004106943
 20
-10.4912511336
 11
5.5837024056
 21
-10.4912511336
  0
LINE
  5
289
100
AcDbEntity
  8
ASSI
100
AcDbLine
 62
7
  6
CONTINUOUS
 10
6.1004106943
 20
-10.4912511336
 11
5.5837024056
 21
-10.4912511336
  0
LINE
  5
28A
100
AcDbEntity
  8
RACCORDO
100
AcDbLine
 62
7
  6
CONTINUOUS
 10
-5.5837024056
 20
-10.4912511336
 11
-6.1004106943
 21
-10.4912511336
  0
LINE
  5
28B
100
AcDbEntity
  8
ASSI
100
AcDbLine
 62
7
  6
CONTINUOUS
 10
-5.5837024056
 20
-10.4912511336
 11
-6.1004106943
 21
-10.4912511336
  0
LINE
  5
28C
100
AcDbEntity
  8
0
100
AcDbLine
 62
7
  6
CONTINUOUS
 10
6.0847011359
 20
-10.4125113365
 11
5.091896211
 21
-10.4125113365
  0
LINE
  5
28D
100
AcDbEntity
  8
0
100
AcDbLine
 62
7
  6
CONTINUOUS
 10
-5.0918962115
 20
-10.4125113365
 11
-6.0847011359
 21
-10.4125113365
  0
LINE
  5
28E
100
AcDbEntity
  8
ASSI
100
AcDbLine
 62
7
  6
CONTINUOUS
 10
-5.0918962115
 20
-10.4125113365
 11
-6.0847011359
 21
-10.4125113365
  0
LINE
  5
28F
100
AcDbEntity
  8
ASSI
100
AcDbLine
 62
7
  6
CONTINUOUS
 10
-6.0829556294
 20
-10.4037624701
 11
-5.0823234774
 21
-10.4037624701
  0
LINE
  5
290
100
AcDbEntity
  8
ASSI
100
AcDbLine
 62
7
  6
CONTINUOUS
 10
5.0823234774
 20
-10.4037624701
 11
6.0829556294
 21
-10.4037624701
  0
LINE
  5
291
100
AcDbEntity
  8
RACCORDO
100
AcDbLine
 62
7
  6
CONTINUOUS
 10
9.5931062129
 20
-10.3082401268
 11
8.7
 21
-10.3082401268
  0
LINE
  5
292
100
AcDbEntity
  8
ASSI
100
AcDbLine
 62
7
  6
CONTINUOUS
 10
9.5931062129
 20
-10.3082401268
 11
8.7
 21
-10.3082401268
  0
LINE
  5
293
100
AcDbEntity
  8
RACCORDO
100
AcDbLine
 62
7
  6
CONTINUOUS
 10
-8.7
 20
-10.3082401268
 11
-9.5931062129
 21
-10.3082401268
  0
LINE
  5
294
100
AcDbEntity
  8
ASSI
100
AcDbLine
 62
7
  6
CONTINUOUS
 10
-8.7
 20
-10.3082401268
 11
-9.5931062129
 21
-10.3082401268
  0
LINE
  5
295
100
AcDbEntity
  8
DRAFT
100
AcDbLine
 62
7
  6
CONTINUOUS
 10
9.7978878702
 20
-10.3
 11
8.7
 21
-10.3
  0
LINE
  5
296
100
AcDbEntity
  8
ASSI
100
AcDbLine
 62
7
  6
CONTINUOUS
 10
9.7978878702
 20
-10.3
 11
8.7
 21
-10.3
  0
LINE
  5
297
100
AcDbEntity
  8
DRAFT
100
AcDbLine
 62
7
  6
CONTINUOUS
 10
-8.7
 20
-10.3
 11
-9.7978878702
 21
-10.3
  0
LINE
  5
298
100
AcDbEntity
  8
ASSI
100
AcDbLine
 62
7
  6
CONTINUOUS
 10
-8.7
 20
-10.3
 11
-9.7978878702
 21
-10.3
  0
LINE
  5
299
100
AcDbEntity
  8
DRAFT
100
AcDbLine
 62
7
  6
CONTINUOUS
 10
-9.7978878702
 20
-9.7
 11
-8.7
 21
-9.7
  0
LINE
  5
29A
100
AcDbEntity
  8
ASSI
100
AcDbLine
 62
7
  6
CONTINUOUS
 10
-9.7978878702
 20
-9.7
 11
-8.7
 21
-9.7
  0
LINE
  5
29B
100
AcDbEntity
  8
DRAFT
100
AcDbLine
 62
7
  6
CONTINUOUS
 10
8.7
 20
-9.7
 11
9.7978878702
 21
-9.7
  0
LINE
  5
29C
100
AcDbEntity
  8
ASSI
100
AcDbLine
 62
7
  6
CONTINUOUS
 10
8.7
 20
-9.7
 11
9.7978878702
 21
-9.7
  0
LINE
  5
29D
100
AcDbEntity
  8
RACCORDO
100
AcDbLine
 62
7
  6
CONTINUOUS
 10
9.5927458061
 20
-9.6913992155
 11
8.7
 21
-9.6913992154
  0
LINE
  5
29E
100
AcDbEntity
  8
ASSI
100
AcDbLine
 62
7
  6
CONTINUOUS
 10
9.5927458061
 20
-9.6913992155
 11
8.7
 21
-9.6913992154
  0
LINE
  5
29F
100
AcDbEntity
  8
RACCORDO
100
AcDbLine
 62
7
  6
CONTINUOUS
 10
-8.7
 20
-9.6913992154
 11
-9.5927458061
 21
-9.6913992155
  0
LINE
  5
2A0
100
AcDbEntity
  8
ASSI
100
AcDbLine
 62
7
  6
CONTINUOUS
 10
-8.7
 20
-9.6913992154
 11
-9.5927458061
 21
-9.6913992155
  0
LINE
  5
2A1
100
AcDbEntity
  8
DRAFT
100
AcDbLine
 62
253
  6
CONTINUOUS
 10
-8.7
 20
14.7
 11
-8.7
 21
14.6949675093
  0
LINE
  5
2A2
100
AcDbEntity
  8
ASSI
100
AcDbLine
 62
253
  6
CONTINUOUS
 10
-8.7
 20
14.7
 11
-8.7
 21
14.6949675093
  0
LINE
  5
2A3
100
AcDbEntity
  8
DRAFT
100
AcDbLine
 62
253
  6
CONTINUOUS
 10
-8.7
 20
-10.3
 11
-8.7
 21
-10.3082401268
  0
LINE
  5
2A4
100
AcDbEntity
  8
ASSI
100
AcDbLine
 62
253
  6
CONTINUOUS
 10
-8.7
 20
-10.3
 11
-8.7
 21
-10.3082401268
  0
LINE
  5
2A5
100
AcDbEntity
  8
DRAFT
100
AcDbLine
 62
253
  6
CONTINUOUS
 10
-8.7
 20
-9.7
 11
-8.7
 21
-9.6913992154
  0
LINE
  5
2A6
100
AcDbEntity
  8
ASSI
100
AcDbLine
 62
253
  6
CONTINUOUS
 10
-8.7
 20
-9.7
 11
-8.7
 21
-9.6913992154
  0
LINE
  5
2A7
100
AcDbEntity
  8
DRAFT
100
AcDbLine
 62
253
  6
CONTINUOUS
 10
-8.7
 20
15.3
 11
-8.7
 21
15.3044975405
  0
LINE
  5
2A8
100
AcDbEntity
  8
ASSI
100
AcDbLine
 62
253
  6
CONTINUOUS
 10
-8.7
 20
15.3
 11
-8.7
 21
15.3044975405
  0
LINE
  5
2A9
100
AcDbEntity
  8
RACCORDO
100
AcDbLine
 62
253
  6
CONTINUOUS
 10
9.6030634608
 20
20.2530329998
 11
9.700030461
 21
20.35
  0
LINE
  5
2AA
100
AcDbEntity
  8
ASSI
100
AcDbLine
 62
253
  6
CONTINUOUS
 10
9.6030634608
 20
20.2530329998
 11
9.700030461
 21
20.35
  0
LINE
  5
2AB
100
AcDbEntity
  8
RACCORDO
100
AcDbLine
 62
253
  6
CONTINUOUS
 10
9.8030329998
 20
20.0530634608
 11
9.9
 21
20.150030461
  0
LINE
  5
2AC
100
AcDbEntity
  8
ASSI
100
AcDbLine
 62
253
  6
CONTINUOUS
 10
9.8030329998
 20
20.0530634608
 11
9.9
 21
20.150030461
  0
LINE
  5
2AD
100
AcDbEntity
  8
ASSI
100
AcDbLine
 62
7
  6
CONTINUOUS
 10
2.1
 20
-7.5174550649
 11
-2.1
 21
-7.5174550649
  0
LINE
  5
2AE
100
AcDbEntity
  8
0
100
AcDbLine
 62
7
  6
CONTINUOUS
 10
-2.1
 20
-7.5157095584
 11
2.1
 21
-7.5157095584
  0
LINE
  5
2AF
100
AcDbEntity
  8
ASSI
100
AcDbLine
 62
7
  6
CONTINUOUS
 10
-2.1
 20
-7.5157095584
 11
2.1
 21
-7.5157095584
  0
LINE
  5
2B0
100
AcDbEntity
  8
DRAFT
100
AcDbLine
 62
253
  6
CONTINUOUS
 10
-9.8875643902
 20
-7.5
 11
-9.9
 21
-7.5
  0
LINE
  5
2B1
100
AcDbEntity
  8
DRAFT
100
AcDbLine
 62
253
  6
CONTINUOUS
 10
9.8875643902
 20
-7.5
 11
9.9
 21
-7.5
  0
LINE
  5
2B2
100
AcDbEntity
  8
ASSI
100
AcDbLine
 62
253
  6
CONTINUOUS
 10
9.8875643902
 20
-7.5
 11
9.9
 21
-7.5
  0
LINE
  5
2B3
100
AcDbEntity
  8
RACCORDO
100
AcDbLine
 62
253
  6
CONTINUOUS
 10
9.700030461
 20
-20.35
 11
9.6030634608
 21
-20.2530329998
  0
LINE
  5
2B4
100
AcDbEntity
  8
ASSI
100
AcDbLine
 62
253
  6
CONTINUOUS
 10
9.700030461
 20
-20.35
 11
9.6030634608
 21
-20.2530329998
  0
LINE
  5
2B5
100
AcDbEntity
  8
RACCORDO
100
AcDbLine
 62
253
  6
CONTINUOUS
 10
9.9
 20
-20.150030461
 11
9.8030329998
 21
-20.0530634608
  0
LINE
  5
2B6
100
AcDbEntity
  8
ASSI
100
AcDbLine
 62
253
  6
CONTINUOUS
 10
9.9
 20
-20.150030461
 11
9.8030329998
 21
-20.0530634608
  0
LINE
  5
2B7
100
AcDbEntity
  8
0
100
AcDbLine
 62
253
  6
CONTINUOUS
 10
-5.5637117204
 20
-7.6573290246
 11
-5.1735525612
 21
-8.2591377732
  0
LINE
  5
2B8
100
AcDbEntity
  8
ASSI
100
AcDbLine
 62
253
  6
CONTINUOUS
 10
-5.5637117204
 20
-7.6573290246
 11
-5.1735525612
 21
-8.2591377732
  0
LINE
  5
2B9
100
AcDbEntity
  8
DRAFT
100
AcDbLine
 62
7
  6
CONTINUOUS
 10
-7.0
 20
20.35
 11
-7.0
 21
19.95
  0
LINE
  5
2BA
100
AcDbEntity
  8
ASSI
100
AcDbLine
 62
7
  6
CONTINUOUS
 10
-7.0
 20
20.35
 11
-7.0
 21
19.95
  0
LINE
  5
2BB
100
AcDbEntity
  8
DRAFT
100
AcDbLine
 62
7
  6
CONTINUOUS
 10
-7.0
 20
-20.35
 11
-7.0
 21
-19.95
  0
LINE
  5
2BC
100
AcDbEntity
  8
ASSI
100
AcDbLine
 62
7
  6
CONTINUOUS
 10
-7.0
 20
-20.35
 11
-7.0
 21
-19.95
  0
LINE
  5
2BD
100
AcDbEntity
  8
DRAFT
100
AcDbLine
 62
7
  6
CONTINUOUS
 10
-6.4
 20
20.35
 11
-6.4
 21
19.95
  0
LINE
  5
2BE
100
AcDbEntity
  8
ASSI
100
AcDbLine
 62
7
  6
CONTINUOUS
 10
-6.4
 20
20.35
 11
-6.4
 21
19.95
  0
LINE
  5
2BF
100
AcDbEntity
  8
DRAFT
100
AcDbLine
 62
7
  6
CONTINUOUS
 10
-6.4
 20
-20.35
 11
-6.4
 21
-19.95
  0
LINE
  5
2C0
100
AcDbEntity
  8
ASSI
100
AcDbLine
 62
7
  6
CONTINUOUS
 10
-6.4
 20
-20.35
 11
-6.4
 21
-19.95
  0
LINE
  5
2C1
100
AcDbEntity
  8
0
100
AcDbLine
 62
7
  6
CONTINUOUS
 10
-6.3842904416
 20
-10.1118234515
 11
-6.3842904416
 21
-9.6830124029
  0
LINE
  5
2C2
100
AcDbEntity
  8
ASSI
100
AcDbLine
 62
7
  6
CONTINUOUS
 10
-6.3842904416
 20
-10.1118234515
 11
-6.3842904416
 21
-9.6830124029
  0
LINE
  5
2C3
100
AcDbEntity
  8
ASSI
100
AcDbLine
 62
7
  6
CONTINUOUS
 10
-6.3825449351
 20
-9.683643942
 11
-6.3825449351
 21
-10.1030745852
  0
LINE
  5
2C4
100
AcDbEntity
  8
RACCORDO
100
AcDbLine
 62
7
  6
CONTINUOUS
 10
-5.3881958819
 20
18.8
 11
-5.3881958819
 21
19.5607860213
  0
LINE
  5
2C5
100
AcDbEntity
  8
ASSI
100
AcDbLine
 62
7
  6
CONTINUOUS
 10
-5.3881958819
 20
18.8
 11
-5.3881958819
 21
19.5607860213
  0
LINE
  5
2C6
100
AcDbEntity
  8
RACCORDO
100
AcDbLine
 62
7
  6
CONTINUOUS
 10
-5.3777236405
 20
19.729435023
 11
-5.3777236405
 21
20.2924439824
  0
LINE
  5
2C7
100
AcDbEntity
  8
ASSI
100
AcDbLine
 62
7
  6
CONTINUOUS
 10
-5.3777236405
 20
19.729435023
 11
-5.3777236405
 21
20.2924439824
  0
LINE
  5
2C8
100
AcDbEntity
  8
DRAFT
100
AcDbLine
 62
7
  6
CONTINUOUS
 10
-5.260473039
 20
-18.4384918441
 11
-5.260473039
 21
-17.35
  0
LINE
  5
2C9
100
AcDbEntity
  8
ASSI
100
AcDbLine
 62
7
  6
CONTINUOUS
 10
-5.260473039
 20
-18.4384918441
 11
-5.260473039
 21
-17.35
  0
LINE
  5
2CA
100
AcDbEntity
  8
DRAFT
100
AcDbLine
 62
7
  6
CONTINUOUS
 10
-5.25
 20
-19.6948597355
 11
-5.25
 21
-17.35
  0
LINE
  5
2CB
100
AcDbEntity
  8
ASSI
100
AcDbLine
 62
7
  6
CONTINUOUS
 10
-5.25
 20
-19.6948597355
 11
-5.25
 21
-17.35
  0
LINE
  5
2CC
100
AcDbEntity
  8
RACCORDO
100
AcDbLine
 62
253
  6
CONTINUOUS
 10
-5.3881958819
 20
19.5607860213
 11
-5.3777236405
 21
19.729435023
  0
LINE
  5
2CD
100
AcDbEntity
  8
ASSI
100
AcDbLine
 62
253
  6
CONTINUOUS
 10
-5.3881958819
 20
19.5607860213
 11
-5.3777236405
 21
19.729435023
  0
LINE
  5
2CE
100
AcDbEntity
  8
RACCORDO
100
AcDbLine
 62
253
  6
CONTINUOUS
 10
-5.0859536082
 20
19.3
 11
-5.0777350636
 21
19.4323546024
  0
LINE
  5
2CF
100
AcDbEntity
  8
ASSI
100
AcDbLine
 62
253
  6
CONTINUOUS
 10
-5.0859536082
 20
19.3
 11
-5.0777350636
 21
19.4323546024
  0
LINE
  5
2D0
100
AcDbEntity
  8
0
100
AcDbLine
 62
7
  6
CONTINUOUS
 10
-3.723194
 20
8.95005
 11
-4.275888
 21
7.228587
  0
LINE
  5
2D1
100
AcDbEntity
  8
IMPORT
100
AcDbLine
 62
7
  6
CONTINUOUS
 10
-3.723194
 20
8.95005
 11
-4.275888
 21
7.228587
  0
LINE
  5
2D2
100
AcDbEntity
  8
ASSI
100
AcDbLine
 62
7
  6
CONTINUOUS
 10
-3.723194
 20
8.95005
 11
-4.275888
 21
7.228587
  0
LINE
  5
2D3
100
AcDbEntity
  8
0
100
AcDbLine
 62
7
  6
CONTINUOUS
 10
-3.223169
 20
8.95005
 11
-4.025875
 21
6.449937
  0
LINE
  5
2D4
100
AcDbEntity
  8
ASSI
100
AcDbLine
 62
7
  6
CONTINUOUS
 10
-3.223169
 20
8.95005
 11
-4.025875
 21
6.449937
  0
LINE
  5
2D5
100
AcDbEntity
  8
IMPORT
100
AcDbLine
 62
7
  6
CONTINUOUS
 10
-4.025875
 20
6.449937
 11
-3.223169
 21
8.95005
  0
LINE
  5
2D6
100
AcDbEntity
  8
0
100
AcDbLine
 62
7
  6
CONTINUOUS
 10
3.0
 20
-6.85
 11
-3.0
 21
-6.85
  0
LINE
  5
2D7
100
AcDbEntity
  8
ASSI
100
AcDbLine
 62
7
  6
CONTINUOUS
 10
3.0
 20
-6.85
 11
-3.0
 21
-6.85
  0
LINE
  5
2D8
100
AcDbEntity
  8
0
100
AcDbLine
 62
7
  6
CONTINUOUS
 10
-3.1960171015
 20
-6.1873184109
 11
3.1960171015
 21
-6.1873184109
  0
LINE
  5
2D9
100
AcDbEntity
  8
ASSI
100
AcDbLine
 62
7
  6
CONTINUOUS
 10
-3.1960171015
 20
-6.1873184109
 11
3.1960171015
 21
-6.1873184109
  0
LINE
  5
2DA
100
AcDbEntity
  8
RACCORDO
100
AcDbLine
 62
253
  6
CONTINUOUS
 10
-4.9222649364
 20
19.4323546024
 11
-4.9140463918
 21
19.3
  0
LINE
  5
2DB
100
AcDbEntity
  8
ASSI
100
AcDbLine
 62
253
  6
CONTINUOUS
 10
-4.9222649364
 20
19.4323546024
 11
-4.9140463918
 21
19.3
  0
LINE
  5
2DC
100
AcDbEntity
  8
RACCORDO
100
AcDbLine
 62
253
  6
CONTINUOUS
 10
-5.088207305
 20
18.5
 11
-5.088207305
 21
19.3
  0
LINE
  5
2DD
100
AcDbEntity
  8
ASSI
100
AcDbLine
 62
253
  6
CONTINUOUS
 10
-5.088207305
 20
18.5
 11
-5.088207305
 21
19.3
  0
LINE
  5
2DE
100
AcDbEntity
  8
RACCORDO
100
AcDbLine
 62
253
  6
CONTINUOUS
 10
-5.0777350636
 20
19.4323546024
 11
-5.0777350636
 21
20.2976348052
  0
LINE
  5
2DF
100
AcDbEntity
  8
ASSI
100
AcDbLine
 62
253
  6
CONTINUOUS
 10
-5.0777350636
 20
19.4323546024
 11
-5.0777350636
 21
20.2976348052
  0
LINE
  5
2E0
100
AcDbEntity
  8
RACCORDO
100
AcDbLine
 62
253
  6
CONTINUOUS
 10
-4.9222649364
 20
19.4323546024
 11
-4.9222649364
 21
20.2976348052
  0
LINE
  5
2E1
100
AcDbEntity
  8
ASSI
100
AcDbLine
 62
253
  6
CONTINUOUS
 10
-4.9222649364
 20
19.4323546024
 11
-4.9222649364
 21
20.2976348052
  0
LINE
  5
2E2
100
AcDbEntity
  8
RACCORDO
100
AcDbLine
 62
253
  6
CONTINUOUS
 10
-4.911792695
 20
18.5
 11
-4.911792695
 21
19.3
  0
LINE
  5
2E3
100
AcDbEntity
  8
ASSI
100
AcDbLine
 62
253
  6
CONTINUOUS
 10
-4.911792695
 20
18.5
 11
-4.911792695
 21
19.3
  0
LINE
  5
2E4
100
AcDbEntity
  8
0
100
AcDbLine
 62
7
  6
CONTINUOUS
 10
-4.700583
 20
3.525
 11
-4.700583
 21
1.475
  0
LINE
  5
2E5
100
AcDbEntity
  8
IMPORT
100
AcDbLine
 62
7
  6
CONTINUOUS
 10
-4.700583
 20
3.525
 11
-4.700583
 21
1.475
  0
LINE
  5
2E6
100
AcDbEntity
  8
ASSI
100
AcDbLine
 62
7
  6
CONTINUOUS
 10
-4.700583
 20
3.525
 11
-4.700583
 21
1.475
  0
LINE
  5
2E7
100
AcDbEntity
  8
DRAFT
100
AcDbLine
 62
7
  6
CONTINUOUS
 10
-4.65
 20
-17.35
 11
-4.65
 21
-19.7871091624
  0
LINE
  5
2E8
100
AcDbEntity
  8
ASSI
100
AcDbLine
 62
7
  6
CONTINUOUS
 10
-4.65
 20
-17.35
 11
-4.65
 21
-19.7871091624
  0
LINE
  5
2E9
100
AcDbEntity
  8
DRAFT
100
AcDbLine
 62
7
  6
CONTINUOUS
 10
-4.639526961
 20
-18.7547012244
 11
-4.639526961
 21
-17.35
  0
LINE
  5
2EA
100
AcDbEntity
  8
ASSI
100
AcDbLine
 62
7
  6
CONTINUOUS
 10
-4.639526961
 20
-18.7547012244
 11
-4.639526961
 21
-17.35
  0
LINE
  5
2EB
100
AcDbEntity
  8
RACCORDO
100
AcDbLine
 62
7
  6
CONTINUOUS
 10
-4.6222763595
 20
20.2924439824
 11
-4.6222763595
 21
19.729435023
  0
LINE
  5
2EC
100
AcDbEntity
  8
ASSI
100
AcDbLine
 62
7
  6
CONTINUOUS
 10
-4.6222763595
 20
20.2924439824
 11
-4.6222763595
 21
19.729435023
  0
LINE
  5
2ED
100
AcDbEntity
  8
RACCORDO
100
AcDbLine
 62
7
  6
CONTINUOUS
 10
-4.6118041181
 20
19.5607860213
 11
-4.6118041181
 21
18.8
  0
LINE
  5
2EE
100
AcDbEntity
  8
ASSI
100
AcDbLine
 62
7
  6
CONTINUOUS
 10
-4.6118041181
 20
19.5607860213
 11
-4.6118041181
 21
18.8
  0
LINE
  5
2EF
100
AcDbEntity
  8
ASSI
100
AcDbLine
 62
7
  6
CONTINUOUS
 10
-4.489526961
 20
-17.7503000374
 11
-4.489526961
 21
-16.5623310419
  0
LINE
  5
2F0
100
AcDbEntity
  8
0
100
AcDbLine
 62
7
  6
CONTINUOUS
 10
-4.2912724675
 20
-16.6896265886
 11
-4.2912724675
 21
-17.8345320197
  0
LINE
  5
2F1
100
AcDbEntity
  8
ASSI
100
AcDbLine
 62
7
  6
CONTINUOUS
 10
-4.2912724675
 20
-16.6896265886
 11
-4.2912724675
 21
-17.8345320197
  0
LINE
  5
2F2
100
AcDbEntity
  8
0
100
AcDbLine
 62
7
  6
CONTINUOUS
 10
-4.260465
 20
3.184324
 11
-4.260465
 21
2.605111
  0
LINE
  5
2F3
100
AcDbEntity
  8
ASSI
100
AcDbLine
 62
7
  6
CONTINUOUS
 10
-4.260465
 20
3.184324
 11
-4.260465
 21
2.605111
  0
LINE
  5
2F4
100
AcDbEntity
  8
0
100
AcDbLine
 62
7
  6
CONTINUOUS
 10
-4.260465
 20
2.264435
 11
-4.260465
 21
1.475
  0
LINE
  5
2F5
100
AcDbEntity
  8
ASSI
100
AcDbLine
 62
7
  6
CONTINUOUS
 10
-4.260465
 20
2.264435
 11
-4.260465
 21
1.475
  0
LINE
  5
2F6
100
AcDbEntity
  8
IMPORT
100
AcDbLine
 62
7
  6
CONTINUOUS
 10
-4.260465
 20
1.475
 11
-4.260465
 21
2.264435
  0
LINE
  5
2F7
100
AcDbEntity
  8
IMPORT
100
AcDbLine
 62
7
  6
CONTINUOUS
 10
-4.260465
 20
2.605111
 11
-4.260465
 21
3.184324
  0
LINE
  5
2F8
100
AcDbEntity
  8
RACCORDO
100
AcDbLine
 62
253
  6
CONTINUOUS
 10
-4.1547621508
 20
-20.2530329998
 11
-4.1547621508
 21
-19.9530786912
  0
LINE
  5
2F9
100
AcDbEntity
  8
ASSI
100
AcDbLine
 62
253
  6
CONTINUOUS
 10
-4.1547621508
 20
-20.2530329998
 11
-4.1547621508
 21
-19.9530786912
  0
LINE
  5
2FA
100
AcDbEntity
  8
ASSI
100
AcDbLine
 62
253
  6
CONTINUOUS
 10
-6.4
 20
-10.1905632487
 11
-6.3825449351
 21
-10.1030745852
  0
LINE
  5
2FB
100
AcDbEntity
  8
0
100
AcDbLine
 62
253
  6
CONTINUOUS
 10
-6.1004106943
 20
-10.4912511336
 11
-6.0847011359
 21
-10.4125113365
  0
LINE
  5
2FC
100
AcDbEntity
  8
ASSI
100
AcDbLine
 62
253
  6
CONTINUOUS
 10
-6.1004106943
 20
-10.4912511336
 11
-6.0829556294
 21
-10.4037624701
  0
LINE
  5
2FD
100
AcDbEntity
  8
RACCORDO
100
AcDbLine
 62
7
  6
CONTINUOUS
 10
9.7978878702
 20
14.7
 11
9.7962926586
 21
14.6984047884
  0
LINE
  5
2FE
100
AcDbEntity
  8
ASSI
100
AcDbLine
 62
7
  6
CONTINUOUS
 10
9.7978878702
 20
14.7
 11
9.7962926586
 21
14.6984047884
  0
LINE
  5
2FF
100
AcDbEntity
  8
0
100
AcDbLine
 62
7
  6
CONTINUOUS
 10
5.1735525612
 20
-8.2591377732
 11
3.0
 21
-6.85
  0
LINE
  5
300
100
AcDbEntity
  8
ASSI
100
AcDbLine
 62
7
  6
CONTINUOUS
 10
5.1735525612
 20
-8.2591377732
 11
3.0
 21
-6.85
  0
LINE
  5
301
100
AcDbEntity
  8
0
100
AcDbLine
 62
7
  6
CONTINUOUS
 10
-3.1960171015
 20
-6.1873184109
 11
-3.0
 21
-6.85
  0
LINE
  5
302
100
AcDbEntity
  8
ASSI
100
AcDbLine
 62
7
  6
CONTINUOUS
 10
-3.1960171015
 20
-6.1873184109
 11
-3.0
 21
-6.85
  0
LINE
  5
303
100
AcDbEntity
  8
RACCORDO
100
AcDbLine
 62
253
  6
CONTINUOUS
 10
-4.6222763595
 20
19.729435023
 11
-4.6118041181
 21
19.5607860213
  0
LINE
  5
304
100
AcDbEntity
  8
ASSI
100
AcDbLine
 62
253
  6
CONTINUOUS
 10
-4.6222763595
 20
19.729435023
 11
-4.6118041181
 21
19.5607860213
  0
LINE
  5
305
100
AcDbEntity
  8
0
100
AcDbLine
 62
7
  6
CONTINUOUS
 10
-2.954306
 20
3.525
 11
-2.954306
 21
1.475
  0
LINE
  5
306
100
AcDbEntity
  8
ASSI
100
AcDbLine
 62
7
  6
CONTINUOUS
 10
-2.954306
 20
3.525
 11
-2.954306
 21
1.475
  0
LINE
  5
307
100
AcDbEntity
  8
IMPORT
100
AcDbLine
 62
7
  6
CONTINUOUS
 10
-2.954306
 20
1.475
 11
-2.954306
 21
3.525
  0
LINE
  5
308
100
AcDbEntity
  8
0
100
AcDbLine
 62
7
  6
CONTINUOUS
 10
-2.889825
 20
8.95005
 11
-2.889831
 21
6.449931
  0
LINE
  5
309
100
AcDbEntity
  8
IMPORT
100
AcDbLine
 62
7
  6
CONTINUOUS
 10
-2.889825
 20
8.95005
 11
-2.889831
 21
6.449931
  0
LINE
  5
30A
100
AcDbEntity
  8
ASSI
100
AcDbLine
 62
7
  6
CONTINUOUS
 10
-2.889825
 20
8.95005
 11
-2.889831
 21
6.449931
  0
LINE
  5
30B
100
AcDbEntity
  8
0
100
AcDbLine
 62
7
  6
CONTINUOUS
 10
-2.514188
 20
3.525
 11
-2.514188
 21
1.815676
  0
LINE
  5
30C
100
AcDbEntity
  8
IMPORT
100
AcDbLine
 62
7
  6
CONTINUOUS
 10
-2.514188
 20
3.525
 11
-2.514188
 21
1.815676
  0
LINE
  5
30D
100
AcDbEntity
  8
ASSI
100
AcDbLine
 62
7
  6
CONTINUOUS
 10
-2.514188
 20
3.525
 11
-2.514188
 21
1.815676
  0
LINE
  5
30E
100
AcDbEntity
  8
DRAFT
100
AcDbLine
 62
7
  6
CONTINUOUS
 10
-2.5
 20
20.35
 11
-2.5
 21
21.55
  0
LINE
  5
30F
100
AcDbEntity
  8
ASSI
100
AcDbLine
 62
7
  6
CONTINUOUS
 10
-2.5
 20
20.35
 11
-2.5
 21
21.55
  0
LINE
  5
310
100
AcDbEntity
  8
0
100
AcDbLine
 62
7
  6
CONTINUOUS
 10
-2.389806
 20
8.95005
 11
-2.389813
 21
6.449937
  0
LINE
  5
311
100
AcDbEntity
  8
ASSI
100
AcDbLine
 62
7
  6
CONTINUOUS
 10
-2.389806
 20
8.95005
 11
-2.389813
 21
6.449937
  0
LINE
  5
312
100
AcDbEntity
  8
IMPORT
100
AcDbLine
 62
7
  6
CONTINUOUS
 10
-2.389813
 20
6.449937
 11
-2.389806
 21
8.95005
  0
LINE
  5
313
100
AcDbEntity
  8
RACCORDO
100
AcDbLine
 62
253
  6
CONTINUOUS
 10
-2.1
 20
-20.2507036549
 11
-2.1
 21
-19.2901338116
  0
LINE
  5
314
100
AcDbEntity
  8
ASSI
100
AcDbLine
 62
253
  6
CONTINUOUS
 10
-2.1
 20
-20.2507036549
 11
-2.1
 21
-19.2901338116
  0
LINE
  5
315
100
AcDbEntity
  8
ASSI
100
AcDbLine
 62
253
  6
CONTINUOUS
 10
-2.1
 20
-7.5174550649
 11
-2.1
 21
-7.5
  0
LINE
  5
316
100
AcDbEntity
  8
0
100
AcDbLine
 62
7
  6
CONTINUOUS
 10
-1.889806
 20
8.95005
 11
-1.889806
 21
6.449937
  0
LINE
  5
317
100
AcDbEntity
  8
IMPORT
100
AcDbLine
 62
7
  6
CONTINUOUS
 10
-1.889806
 20
8.95005
 11
-1.889806
 21
6.449937
  0
LINE
  5
318
100
AcDbEntity
  8
ASSI
100
AcDbLine
 62
7
  6
CONTINUOUS
 10
-1.889806
 20
8.95005
 11
-1.889806
 21
6.449937
  0
LINE
  5
319
100
AcDbEntity
  8
0
100
AcDbLine
 62
7
  6
CONTINUOUS
 10
-1.755689
 20
1.815676
 11
-1.755689
 21
1.475
  0
LINE
  5
31A
100
AcDbEntity
  8
IMPORT
100
AcDbLine
 62
7
  6
CONTINUOUS
 10
-1.755689
 20
1.815676
 11
-1.755689
 21
1.475
  0
LINE
  5
31B
100
AcDbEntity
  8
ASSI
100
AcDbLine
 62
7
  6
CONTINUOUS
 10
-1.755689
 20
1.815676
 11
-1.755689
 21
1.475
  0
LINE
  5
31C
100
AcDbEntity
  8
0
100
AcDbLine
 62
7
  6
CONTINUOUS
 10
-0.200175
 20
8.95005
 11
-0.667044
 21
7.321887
  0
LINE
  5
31D
100
AcDbEntity
  8
IMPORT
100
AcDbLine
 62
7
  6
CONTINUOUS
 10
-0.200175
 20
8.95005
 11
-0.667044
 21
7.321887
  0
LINE
  5
31E
100
AcDbEntity
  8
ASSI
100
AcDbLine
 62
7
  6
CONTINUOUS
 10
-0.200175
 20
8.95005
 11
-0.667044
 21
7.321887
  0
LINE
  5
31F
100
AcDbEntity
  8
0
100
AcDbLine
 62
7
  6
CONTINUOUS
 10
0.055694
 20
8.098594
 11
-0.417044
 21
6.449944
  0
LINE
  5
320
100
AcDbEntity
  8
ASSI
100
AcDbLine
 62
7
  6
CONTINUOUS
 10
0.055694
 20
8.098594
 11
-0.417044
 21
6.449944
  0
LINE
  5
321
100
AcDbEntity
  8
IMPORT
100
AcDbLine
 62
7
  6
CONTINUOUS
 10
-0.417044
 20
6.449944
 11
0.055694
 21
8.098594
  0
LINE
  5
322
100
AcDbEntity
  8
0
100
AcDbLine
 62
7
  6
CONTINUOUS
 10
-0.793524
 20
3.525
 11
-1.534588
 21
1.475
  0
LINE
  5
323
100
AcDbEntity
  8
IMPORT
100
AcDbLine
 62
7
  6
CONTINUOUS
 10
-0.793524
 20
3.525
 11
-1.534588
 21
1.475
  0
LINE
  5
324
100
AcDbEntity
  8
ASSI
100
AcDbLine
 62
7
  6
CONTINUOUS
 10
-0.793524
 20
3.525
 11
-1.534588
 21
1.475
  0
LINE
  5
325
100
AcDbEntity
  8
IMPORT
100
AcDbLine
 62
7
  6
CONTINUOUS
 10
-5.328613
 20
8.95005
 11
-4.525913
 21
6.449931
  0
LINE
  5
326
100
AcDbEntity
  8
0
100
AcDbLine
 62
7
  6
CONTINUOUS
 10
-5.328613
 20
8.95005
 11
-4.525913
 21
6.449931
  0
LINE
  5
327
100
AcDbEntity
  8
ASSI
100
AcDbLine
 62
7
  6
CONTINUOUS
 10
-5.328613
 20
8.95005
 11
-4.525913
 21
6.449931
  0
LINE
  5
328
100
AcDbEntity
  8
0
100
AcDbLine
 62
7
  6
CONTINUOUS
 10
-4.828588
 20
8.95005
 11
-4.275888
 21
7.228587
  0
LINE
  5
329
100
AcDbEntity
  8
ASSI
100
AcDbLine
 62
7
  6
CONTINUOUS
 10
-4.828588
 20
8.95005
 11
-4.275888
 21
7.228587
  0
LINE
  5
32A
100
AcDbEntity
  8
IMPORT
100
AcDbLine
 62
7
  6
CONTINUOUS
 10
-4.275888
 20
7.228587
 11
-4.828588
 21
8.95005
  0
LINE
  5
32B
100
AcDbEntity
  8
0
100
AcDbLine
 62
7
  6
CONTINUOUS
 10
-1.389788
 20
8.098594
 11
-1.389788
 21
6.449937
  0
LINE
  5
32C
100
AcDbEntity
  8
ASSI
100
AcDbLine
 62
7
  6
CONTINUOUS
 10
-1.389788
 20
8.098594
 11
-1.389788
 21
6.449937
  0
LINE
  5
32D
100
AcDbEntity
  8
IMPORT
100
AcDbLine
 62
7
  6
CONTINUOUS
 10
-1.389788
 20
6.449937
 11
-1.389788
 21
8.098594
  0
LINE
  5
32E
100
AcDbEntity
  8
DRAFT
100
AcDbLine
 62
7
  6
CONTINUOUS
 10
0.0
 20
21.55
 11
0.0
 21
20.35
  0
LINE
  5
32F
100
AcDbEntity
  8
ASSI
100
AcDbLine
 62
7
  6
CONTINUOUS
 10
0.0
 20
21.55
 11
0.0
 21
20.35
  0
LINE
  5
330
100
AcDbEntity
  8
IMPORT
100
AcDbLine
 62
7
  6
CONTINUOUS
 10
0.055694
 20
8.098594
 11
0.0557
 21
6.449937
  0
LINE
  5
331
100
AcDbEntity
  8
0
100
AcDbLine
 62
7
  6
CONTINUOUS
 10
0.055694
 20
8.098594
 11
0.0557
 21
6.449937
  0
LINE
  5
332
100
AcDbEntity
  8
ASSI
100
AcDbLine
 62
7
  6
CONTINUOUS
 10
0.055694
 20
8.098594
 11
0.0557
 21
6.449937
  0
LINE
  5
333
100
AcDbEntity
  8
0
100
AcDbLine
 62
7
  6
CONTINUOUS
 10
1.691756
 20
8.950056
 11
0.889063
 21
6.449937
  0
LINE
  5
334
100
AcDbEntity
  8
ASSI
100
AcDbLine
 62
7
  6
CONTINUOUS
 10
1.691756
 20
8.950056
 11
0.889063
 21
6.449937
  0
LINE
  5
335
100
AcDbEntity
  8
IMPORT
100
AcDbLine
 62
7
  6
CONTINUOUS
 10
0.889063
 20
6.449937
 11
1.691756
 21
8.950056
  0
LINE
  5
336
100
AcDbEntity
  8
0
100
AcDbLine
 62
7
  6
CONTINUOUS
 10
1.546938
 20
6.941606
 11
1.389081
 21
6.449944
  0
LINE
  5
337
100
AcDbEntity
  8
IMPORT
100
AcDbLine
 62
7
  6
CONTINUOUS
 10
1.546938
 20
6.941606
 11
1.389081
 21
6.449944
  0
LINE
  5
338
100
AcDbEntity
  8
ASSI
100
AcDbLine
 62
7
  6
CONTINUOUS
 10
1.546938
 20
6.941606
 11
1.389081
 21
6.449944
  0
LINE
  5
339
100
AcDbEntity
  8
0
100
AcDbLine
 62
7
  6
CONTINUOUS
 10
1.941775
 20
8.1714
 11
1.699456
 21
7.416625
  0
LINE
  5
33A
100
AcDbEntity
  8
IMPORT
100
AcDbLine
 62
7
  6
CONTINUOUS
 10
1.941775
 20
8.1714
 11
1.699456
 21
7.416625
  0
LINE
  5
33B
100
AcDbEntity
  8
ASSI
100
AcDbLine
 62
7
  6
CONTINUOUS
 10
1.941775
 20
8.1714
 11
1.699456
 21
7.416625
  0
LINE
  5
33C
100
AcDbEntity
  8
0
100
AcDbLine
 62
7
  6
CONTINUOUS
 10
-0.54355
 20
3.133267
 11
-0.847526
 21
2.250163
  0
LINE
  5
33D
100
AcDbEntity
  8
ASSI
100
AcDbLine
 62
7
  6
CONTINUOUS
 10
-0.54355
 20
3.133267
 11
-0.847526
 21
2.250163
  0
LINE
  5
33E
100
AcDbEntity
  8
IMPORT
100
AcDbLine
 62
7
  6
CONTINUOUS
 10
-0.847526
 20
2.250163
 11
-0.54355
 21
3.133267
  0
LINE
  5
33F
100
AcDbEntity
  8
0
100
AcDbLine
 62
7
  6
CONTINUOUS
 10
-0.961085
 20
1.909486
 11
-1.114374
 21
1.475
  0
LINE
  5
340
100
AcDbEntity
  8
ASSI
100
AcDbLine
 62
7
  6
CONTINUOUS
 10
-0.961085
 20
1.909486
 11
-1.114374
 21
1.475
  0
LINE
  5
341
100
AcDbEntity
  8
IMPORT
100
AcDbLine
 62
7
  6
CONTINUOUS
 10
-1.114374
 20
1.475
 11
-0.961085
 21
1.909486
  0
LINE
  5
342
100
AcDbEntity
  8
ASSI
100
AcDbLine
 62
7
  6
CONTINUOUS
 10
-5.8831180076
 20
-11.2939759261
 11
-5.884118439
 21
-11.2961961265
  0
LINE
  5
343
100
AcDbEntity
  8
RACCORDO
100
AcDbLine
 62
7
  6
CONTINUOUS
 10
-9.7978878702
 20
-9.7
 11
-9.7927209596
 21
-9.6948330894
  0
LINE
  5
344
100
AcDbEntity
  8
ASSI
100
AcDbLine
 62
7
  6
CONTINUOUS
 10
-9.7978878702
 20
-9.7
 11
-9.7927209596
 21
-9.6948330894
  0
LINE
  5
345
100
AcDbEntity
  8
RACCORDO
100
AcDbLine
 62
7
  6
CONTINUOUS
 10
9.7978878702
 20
-9.7
 11
9.7927209596
 21
-9.6948330894
  0
LINE
  5
346
100
AcDbEntity
  8
ASSI
100
AcDbLine
 62
7
  6
CONTINUOUS
 10
9.7978878702
 20
-9.7
 11
9.7927209596
 21
-9.6948330894
  0
LINE
  5
347
100
AcDbEntity
  8
0
100
AcDbLine
 62
7
  6
CONTINUOUS
 10
0.555719
 20
8.95005
 11
0.555719
 21
6.449937
  0
LINE
  5
348
100
AcDbEntity
  8
ASSI
100
AcDbLine
 62
7
  6
CONTINUOUS
 10
0.555719
 20
8.95005
 11
0.555719
 21
6.449937
  0
LINE
  5
349
100
AcDbEntity
  8
IMPORT
100
AcDbLine
 62
7
  6
CONTINUOUS
 10
0.555719
 20
6.449937
 11
0.555719
 21
8.95005
  0
LINE
  5
34A
100
AcDbEntity
  8
0
100
AcDbLine
 62
7
  6
CONTINUOUS
 10
0.665847
 20
3.525
 11
0.665847
 21
1.475
  0
LINE
  5
34B
100
AcDbEntity
  8
ASSI
100
AcDbLine
 62
7
  6
CONTINUOUS
 10
0.665847
 20
3.525
 11
0.665847
 21
1.475
  0
LINE
  5
34C
100
AcDbEntity
  8
IMPORT
100
AcDbLine
 62
7
  6
CONTINUOUS
 10
0.665847
 20
1.475
 11
0.665847
 21
3.525
  0
LINE
  5
34D
100
AcDbEntity
  8
0
100
AcDbLine
 62
7
  6
CONTINUOUS
 10
1.077575
 20
3.190711
 11
1.077575
 21
1.475
  0
LINE
  5
34E
100
AcDbEntity
  8
IMPORT
100
AcDbLine
 62
7
  6
CONTINUOUS
 10
1.077575
 20
3.190711
 11
1.077575
 21
1.475
  0
LINE
  5
34F
100
AcDbEntity
  8
ASSI
100
AcDbLine
 62
7
  6
CONTINUOUS
 10
1.077575
 20
3.190711
 11
1.077575
 21
1.475
  0
LINE
  5
350
100
AcDbEntity
  8
0
100
AcDbLine
 62
7
  6
CONTINUOUS
 10
3.465553
 20
3.525
 11
2.724411
 21
1.475
  0
LINE
  5
351
100
AcDbEntity
  8
IMPORT
100
AcDbLine
 62
7
  6
CONTINUOUS
 10
3.465553
 20
3.525
 11
2.724411
 21
1.475
  0
LINE
  5
352
100
AcDbEntity
  8
ASSI
100
AcDbLine
 62
7
  6
CONTINUOUS
 10
3.465553
 20
3.525
 11
2.724411
 21
1.475
  0
LINE
  5
353
100
AcDbEntity
  8
IMPORT
100
AcDbLine
 62
7
  6
CONTINUOUS
 10
-4.700583
 20
1.475
 11
-4.260465
 21
1.475
  0
LINE
  5
354
100
AcDbEntity
  8
0
100
AcDbLine
 62
7
  6
CONTINUOUS
 10
4.700583
 20
1.475
 11
4.257765
 21
1.475
  0
LINE
  5
355
100
AcDbEntity
  8
ASSI
100
AcDbLine
 62
7
  6
CONTINUOUS
 10
4.700583
 20
1.475
 11
4.257765
 21
1.475
  0
LINE
  5
356
100
AcDbEntity
  8
0
100
AcDbLine
 62
7
  6
CONTINUOUS
 10
3.144625
 20
1.475
 11
2.724411
 21
1.475
  0
LINE
  5
357
100
AcDbEntity
  8
ASSI
100
AcDbLine
 62
7
  6
CONTINUOUS
 10
3.144625
 20
1.475
 11
2.724411
 21
1.475
  0
LINE
  5
358
100
AcDbEntity
  8
0
100
AcDbLine
 62
7
  6
CONTINUOUS
 10
2.51712
 20
1.475
 11
1.892468
 21
1.475
  0
LINE
  5
359
100
AcDbEntity
  8
IMPORT
100
AcDbLine
 62
7
  6
CONTINUOUS
 10
2.51712
 20
1.475
 11
1.892468
 21
1.475
  0
LINE
  5
35A
100
AcDbEntity
  8
ASSI
100
AcDbLine
 62
7
  6
CONTINUOUS
 10
2.51712
 20
1.475
 11
1.892468
 21
1.475
  0
LINE
  5
35B
100
AcDbEntity
  8
IMPORT
100
AcDbLine
 62
7
  6
CONTINUOUS
 10
-1.534588
 20
1.475
 11
-1.114374
 21
1.475
  0
LINE
  5
35C
100
AcDbEntity
  8
0
100
AcDbLine
 62
7
  6
CONTINUOUS
 10
1.077575
 20
1.475
 11
0.665847
 21
1.475
  0
LINE
  5
35D
100
AcDbEntity
  8
IMPORT
100
AcDbLine
 62
7
  6
CONTINUOUS
 10
1.077575
 20
1.475
 11
0.665847
 21
1.475
  0
LINE
  5
35E
100
AcDbEntity
  8
ASSI
100
AcDbLine
 62
7
  6
CONTINUOUS
 10
1.077575
 20
1.475
 11
0.665847
 21
1.475
  0
LINE
  5
35F
100
AcDbEntity
  8
0
100
AcDbLine
 62
7
  6
CONTINUOUS
 10
0.441584
 20
1.475
 11
-0.001389
 21
1.475
  0
LINE
  5
360
100
AcDbEntity
  8
IMPORT
100
AcDbLine
 62
7
  6
CONTINUOUS
 10
-0.001389
 20
1.475
 11
0.441584
 21
1.475
  0
LINE
  5
361
100
AcDbEntity
  8
ASSI
100
AcDbLine
 62
7
  6
CONTINUOUS
 10
0.441584
 20
1.475
 11
-0.001389
 21
1.475
  0
LINE
  5
362
100
AcDbEntity
  8
0
100
AcDbLine
 62
7
  6
CONTINUOUS
 10
-1.114374
 20
1.475
 11
-1.534588
 21
1.475
  0
LINE
  5
363
100
AcDbEntity
  8
ASSI
100
AcDbLine
 62
7
  6
CONTINUOUS
 10
-1.114374
 20
1.475
 11
-1.534588
 21
1.475
  0
LINE
  5
364
100
AcDbEntity
  8
0
100
AcDbLine
 62
7
  6
CONTINUOUS
 10
-1.755689
 20
1.475
 11
-2.954306
 21
1.475
  0
LINE
  5
365
100
AcDbEntity
  8
IMPORT
100
AcDbLine
 62
7
  6
CONTINUOUS
 10
-1.755689
 20
1.475
 11
-2.954306
 21
1.475
  0
LINE
  5
366
100
AcDbEntity
  8
IMPORT
100
AcDbLine
 62
7
  6
CONTINUOUS
 10
2.724411
 20
1.475
 11
3.144625
 21
1.475
  0
LINE
  5
367
100
AcDbEntity
  8
ASSI
100
AcDbLine
 62
7
  6
CONTINUOUS
 10
-1.755689
 20
1.475
 11
-2.954306
 21
1.475
  0
LINE
  5
368
100
AcDbEntity
  8
IMPORT
100
AcDbLine
 62
7
  6
CONTINUOUS
 10
4.257765
 20
1.475
 11
4.700583
 21
1.475
  0
LINE
  5
369
100
AcDbEntity
  8
0
100
AcDbLine
 62
7
  6
CONTINUOUS
 10
-4.260465
 20
1.475
 11
-4.700583
 21
1.475
  0
LINE
  5
36A
100
AcDbEntity
  8
ASSI
100
AcDbLine
 62
7
  6
CONTINUOUS
 10
-4.260465
 20
1.475
 11
-4.700583
 21
1.475
  0
LINE
  5
36B
100
AcDbEntity
  8
IMPORT
100
AcDbLine
 62
7
  6
CONTINUOUS
 10
-2.514188
 20
1.815676
 11
-1.755689
 21
1.815676
  0
LINE
  5
36C
100
AcDbEntity
  8
0
100
AcDbLine
 62
7
  6
CONTINUOUS
 10
-1.755689
 20
1.815676
 11
-2.514188
 21
1.815676
  0
LINE
  5
36D
100
AcDbEntity
  8
ASSI
100
AcDbLine
 62
7
  6
CONTINUOUS
 10
-1.755689
 20
1.815676
 11
-2.514188
 21
1.815676
  0
LINE
  5
36E
100
AcDbEntity
  8
0
100
AcDbLine
 62
7
  6
CONTINUOUS
 10
4.11003
 20
1.909486
 11
3.297991
 21
1.909486
  0
LINE
  5
36F
100
AcDbEntity
  8
ASSI
100
AcDbLine
 62
7
  6
CONTINUOUS
 10
4.11003
 20
1.909486
 11
3.297991
 21
1.909486
  0
LINE
  5
370
100
AcDbEntity
  8
IMPORT
100
AcDbLine
 62
7
  6
CONTINUOUS
 10
-0.961085
 20
1.909486
 11
-0.149046
 21
1.909486
  0
LINE
  5
371
100
AcDbEntity
  8
0
100
AcDbLine
 62
7
  6
CONTINUOUS
 10
-0.149046
 20
1.909486
 11
-0.961085
 21
1.909486
  0
LINE
  5
372
100
AcDbEntity
  8
ASSI
100
AcDbLine
 62
7
  6
CONTINUOUS
 10
-0.149046
 20
1.909486
 11
-0.961085
 21
1.909486
  0
LINE
  5
373
100
AcDbEntity
  8
IMPORT
100
AcDbLine
 62
7
  6
CONTINUOUS
 10
3.297991
 20
1.909486
 11
4.11003
 21
1.909486
  0
LINE
  5
374
100
AcDbEntity
  8
ASSI
100
AcDbLine
 62
7
  6
CONTINUOUS
 10
5.8831180076
 20
-11.2939759261
 11
5.884118439
 21
-11.2961961265
  0
LINE
  5
375
100
AcDbEntity
  8
0
100
AcDbLine
 62
7
  6
CONTINUOUS
 10
-0.271091
 20
3.525
 11
0.441584
 21
1.475
  0
LINE
  5
376
100
AcDbEntity
  8
ASSI
100
AcDbLine
 62
7
  6
CONTINUOUS
 10
-0.271091
 20
3.525
 11
0.441584
 21
1.475
  0
LINE
  5
377
100
AcDbEntity
  8
IMPORT
100
AcDbLine
 62
7
  6
CONTINUOUS
 10
0.441584
 20
1.475
 11
-0.271091
 21
3.525
  0
LINE
  5
378
100
AcDbEntity
  8
IMPORT
100
AcDbLine
 62
7
  6
CONTINUOUS
 10
-0.149046
 20
1.909486
 11
-0.001389
 21
1.475
  0
LINE
  5
379
100
AcDbEntity
  8
0
100
AcDbLine
 62
7
  6
CONTINUOUS
 10
-0.149046
 20
1.909486
 11
-0.001389
 21
1.475
  0
LINE
  5
37A
100
AcDbEntity
  8
ASSI
100
AcDbLine
 62
7
  6
CONTINUOUS
 10
-0.149046
 20
1.909486
 11
-0.001389
 21
1.475
  0
LINE
  5
37B
100
AcDbEntity
  8
IMPORT
100
AcDbLine
 62
7
  6
CONTINUOUS
 10
-0.54355
 20
3.133267
 11
-0.259751
 21
2.250163
  0
LINE
  5
37C
100
AcDbEntity
  8
0
100
AcDbLine
 62
7
  6
CONTINUOUS
 10
-0.54355
 20
3.133267
 11
-0.259751
 21
2.250163
  0
LINE
  5
37D
100
AcDbEntity
  8
ASSI
100
AcDbLine
 62
7
  6
CONTINUOUS
 10
-0.54355
 20
3.133267
 11
-0.259751
 21
2.250163
  0
LINE
  5
37E
100
AcDbEntity
  8
IMPORT
100
AcDbLine
 62
7
  6
CONTINUOUS
 10
-1.389788
 20
8.098594
 11
-0.91705
 21
6.449937
  0
LINE
  5
37F
100
AcDbEntity
  8
0
100
AcDbLine
 62
7
  6
CONTINUOUS
 10
-1.389788
 20
8.098594
 11
-0.91705
 21
6.449937
  0
LINE
  5
380
100
AcDbEntity
  8
ASSI
100
AcDbLine
 62
7
  6
CONTINUOUS
 10
-1.389788
 20
8.098594
 11
-0.91705
 21
6.449937
  0
LINE
  5
381
100
AcDbEntity
  8
0
100
AcDbLine
 62
7
  6
CONTINUOUS
 10
-1.133913
 20
8.95005
 11
-0.667044
 21
7.321887
  0
LINE
  5
382
100
AcDbEntity
  8
ASSI
100
AcDbLine
 62
7
  6
CONTINUOUS
 10
-1.133913
 20
8.95005
 11
-0.667044
 21
7.321887
  0
LINE
  5
383
100
AcDbEntity
  8
IMPORT
100
AcDbLine
 62
7
  6
CONTINUOUS
 10
-0.667044
 20
7.321887
 11
-1.133913
 21
8.95005
  0
LINE
  5
384
100
AcDbEntity
  8
ASSI
100
AcDbLine
 62
253
  6
CONTINUOUS
 10
2.1
 20
-7.5174550649
 11
2.1
 21
-7.5
  0
LINE
  5
385
100
AcDbEntity
  8
0
100
AcDbLine
 62
7
  6
CONTINUOUS
 10
2.105391
 20
3.525
 11
2.105391
 21
1.900472
  0
LINE
  5
386
100
AcDbEntity
  8
ASSI
100
AcDbLine
 62
7
  6
CONTINUOUS
 10
2.105391
 20
3.525
 11
2.105391
 21
1.900472
  0
LINE
  5
387
100
AcDbEntity
  8
IMPORT
100
AcDbLine
 62
7
  6
CONTINUOUS
 10
2.105391
 20
1.900472
 11
2.105391
 21
3.525
  0
LINE
  5
388
100
AcDbEntity
  8
0
100
AcDbLine
 62
7
  6
CONTINUOUS
 10
2.51712
 20
3.525
 11
2.51712
 21
1.475
  0
LINE
  5
389
100
AcDbEntity
  8
IMPORT
100
AcDbLine
 62
7
  6
CONTINUOUS
 10
2.51712
 20
3.525
 11
2.51712
 21
1.475
  0
LINE
  5
38A
100
AcDbEntity
  8
ASSI
100
AcDbLine
 62
7
  6
CONTINUOUS
 10
2.51712
 20
3.525
 11
2.51712
 21
1.475
  0
LINE
  5
38B
100
AcDbEntity
  8
0
100
AcDbLine
 62
7
  6
CONTINUOUS
 10
3.32785
 20
8.950056
 11
3.32785
 21
6.449944
  0
LINE
  5
38C
100
AcDbEntity
  8
ASSI
100
AcDbLine
 62
7
  6
CONTINUOUS
 10
3.32785
 20
8.950056
 11
3.32785
 21
6.449944
  0
LINE
  5
38D
100
AcDbEntity
  8
IMPORT
100
AcDbLine
 62
7
  6
CONTINUOUS
 10
3.32785
 20
6.449944
 11
3.32785
 21
8.950056
  0
LINE
  5
38E
100
AcDbEntity
  8
IMPORT
100
AcDbLine
 62
7
  6
CONTINUOUS
 10
3.820975
 20
8.487538
 11
3.820981
 21
7.87915
  0
LINE
  5
38F
100
AcDbEntity
  8
0
100
AcDbLine
 62
7
  6
CONTINUOUS
 10
3.820975
 20
8.487538
 11
3.820981
 21
7.87915
  0
LINE
  5
390
100
AcDbEntity
  8
ASSI
100
AcDbLine
 62
7
  6
CONTINUOUS
 10
3.820975
 20
8.487538
 11
3.820981
 21
7.87915
  0
LINE
  5
391
100
AcDbEntity
  8
0
100
AcDbLine
 62
7
  6
CONTINUOUS
 10
3.827931
 20
7.416631
 11
3.827875
 21
6.449944
  0
LINE
  5
392
100
AcDbEntity
  8
IMPORT
100
AcDbLine
 62
7
  6
CONTINUOUS
 10
3.827931
 20
7.416631
 11
3.827875
 21
6.449944
  0
LINE
  5
393
100
AcDbEntity
  8
ASSI
100
AcDbLine
 62
7
  6
CONTINUOUS
 10
3.827931
 20
7.416631
 11
3.827875
 21
6.449944
  0
LINE
  5
394
100
AcDbEntity
  8
RACCORDO
100
AcDbLine
 62
253
  6
CONTINUOUS
 10
2.1
 20
-20.2507036549
 11
2.1
 21
-19.2901338116
  0
LINE
  5
395
100
AcDbEntity
  8
ASSI
100
AcDbLine
 62
253
  6
CONTINUOUS
 10
2.1
 20
-20.2507036549
 11
2.1
 21
-19.2901338116
  0
LINE
  5
396
100
AcDbEntity
  8
RACCORDO
100
AcDbLine
 62
253
  6
CONTINUOUS
 10
4.6118041181
 20
19.5607860213
 11
4.6222763595
 21
19.729435023
  0
LINE
  5
397
100
AcDbEntity
  8
ASSI
100
AcDbLine
 62
253
  6
CONTINUOUS
 10
4.6118041181
 20
19.5607860213
 11
4.6222763595
 21
19.729435023
  0
LINE
  5
398
100
AcDbEntity
  8
RACCORDO
100
AcDbLine
 62
253
  6
CONTINUOUS
 10
4.9140463918
 20
19.3
 11
4.9222649364
 21
19.4323546024
  0
LINE
  5
399
100
AcDbEntity
  8
ASSI
100
AcDbLine
 62
253
  6
CONTINUOUS
 10
4.9140463918
 20
19.3
 11
4.9222649364
 21
19.4323546024
  0
LINE
  5
39A
100
AcDbEntity
  8
0
100
AcDbLine
 62
7
  6
CONTINUOUS
 10
3.715487
 20
3.133151
 11
3.41155
 21
2.250163
  0
LINE
  5
39B
100
AcDbEntity
  8
ASSI
100
AcDbLine
 62
7
  6
CONTINUOUS
 10
3.715487
 20
3.133151
 11
3.41155
 21
2.250163
  0
LINE
  5
39C
100
AcDbEntity
  8
IMPORT
100
AcDbLine
 62
7
  6
CONTINUOUS
 10
3.41155
 20
2.250163
 11
3.715487
 21
3.133151
  0
LINE
  5
39D
100
AcDbEntity
  8
0
100
AcDbLine
 62
7
  6
CONTINUOUS
 10
3.297991
 20
1.909486
 11
3.144625
 21
1.475
  0
LINE
  5
39E
100
AcDbEntity
  8
ASSI
100
AcDbLine
 62
7
  6
CONTINUOUS
 10
3.297991
 20
1.909486
 11
3.144625
 21
1.475
  0
LINE
  5
39F
100
AcDbEntity
  8
IMPORT
100
AcDbLine
 62
7
  6
CONTINUOUS
 10
3.144625
 20
1.475
 11
3.297991
 21
1.909486
  0
LINE
  5
3A0
100
AcDbEntity
  8
0
100
AcDbLine
 62
7
  6
CONTINUOUS
 10
3.999249
 20
2.250163
 11
3.41155
 21
2.250163
  0
LINE
  5
3A1
100
AcDbEntity
  8
IMPORT
100
AcDbLine
 62
7
  6
CONTINUOUS
 10
3.999249
 20
2.250163
 11
3.41155
 21
2.250163
  0
LINE
  5
3A2
100
AcDbEntity
  8
ASSI
100
AcDbLine
 62
7
  6
CONTINUOUS
 10
3.999249
 20
2.250163
 11
3.41155
 21
2.250163
  0
LINE
  5
3A3
100
AcDbEntity
  8
0
100
AcDbLine
 62
7
  6
CONTINUOUS
 10
-0.259751
 20
2.250163
 11
-0.847526
 21
2.250163
  0
LINE
  5
3A4
100
AcDbEntity
  8
IMPORT
100
AcDbLine
 62
7
  6
CONTINUOUS
 10
-0.259751
 20
2.250163
 11
-0.847526
 21
2.250163
  0
LINE
  5
3A5
100
AcDbEntity
  8
ASSI
100
AcDbLine
 62
7
  6
CONTINUOUS
 10
-0.259751
 20
2.250163
 11
-0.847526
 21
2.250163
  0
LINE
  5
3A6
100
AcDbEntity
  8
0
100
AcDbLine
 62
7
  6
CONTINUOUS
 10
-4.0732533974
 20
2.264435
 11
-4.260465
 21
2.264435
  0
LINE
  5
3A7
100
AcDbEntity
  8
IMPORT
100
AcDbLine
 62
7
  6
CONTINUOUS
 10
-4.073262
 20
2.264435
 11
-4.260465
 21
2.264435
  0
LINE
  5
3A8
100
AcDbEntity
  8
ASSI
100
AcDbLine
 62
7
  6
CONTINUOUS
 10
-4.0732533974
 20
2.264435
 11
-4.260465
 21
2.264435
  0
LINE
  5
3A9
100
AcDbEntity
  8
IMPORT
100
AcDbLine
 62
7
  6
CONTINUOUS
 10
-4.260465
 20
2.605111
 11
-4.003709
 21
2.605111
  0
LINE
  5
3AA
100
AcDbEntity
  8
0
100
AcDbLine
 62
7
  6
CONTINUOUS
 10
-4.0037119703
 20
2.605111
 11
-4.260465
 21
2.605111
  0
LINE
  5
3AB
100
AcDbEntity
  8
ASSI
100
AcDbLine
 62
7
  6
CONTINUOUS
 10
-4.0037119703
 20
2.605111
 11
-4.260465
 21
2.605111
  0
LINE
  5
3AC
100
AcDbEntity
  8
IMPORT
100
AcDbLine
 62
7
  6
CONTINUOUS
 10
-4.260465
 20
3.184324
 11
-4.003709
 21
3.184324
  0
LINE
  5
3AD
100
AcDbEntity
  8
0
100
AcDbLine
 62
7
  6
CONTINUOUS
 10
-4.003711982
 20
3.184324
 11
-4.260465
 21
3.184324
  0
LINE
  5
3AE
100
AcDbEntity
  8
ASSI
100
AcDbLine
 62
7
  6
CONTINUOUS
 10
-4.003711982
 20
3.184324
 11
-4.260465
 21
3.184324
  0
LINE
  5
3AF
100
AcDbEntity
  8
0
100
AcDbLine
 62
7
  6
CONTINUOUS
 10
3.987985
 20
3.525
 11
3.465553
 21
3.525
  0
LINE
  5
3B0
100
AcDbEntity
  8
IMPORT
100
AcDbLine
 62
7
  6
CONTINUOUS
 10
3.987985
 20
3.525
 11
3.465553
 21
3.525
  0
LINE
  5
3B1
100
AcDbEntity
  8
ASSI
100
AcDbLine
 62
7
  6
CONTINUOUS
 10
3.987985
 20
3.525
 11
3.465553
 21
3.525
  0
LINE
  5
3B2
100
AcDbEntity
  8
IMPORT
100
AcDbLine
 62
7
  6
CONTINUOUS
 10
-2.954306
 20
3.525
 11
-2.514188
 21
3.525
  0
LINE
  5
3B3
100
AcDbEntity
  8
0
100
AcDbLine
 62
7
  6
CONTINUOUS
 10
2.51712
 20
3.525
 11
2.105391
 21
3.525
  0
LINE
  5
3B4
100
AcDbEntity
  8
ASSI
100
AcDbLine
 62
7
  6
CONTINUOUS
 10
2.51712
 20
3.525
 11
2.105391
 21
3.525
  0
LINE
  5
3B5
100
AcDbEntity
  8
0
100
AcDbLine
 62
7
  6
CONTINUOUS
 10
1.318888
 20
3.525
 11
0.665847
 21
3.525
  0
LINE
  5
3B6
100
AcDbEntity
  8
ASSI
100
AcDbLine
 62
7
  6
CONTINUOUS
 10
1.318888
 20
3.525
 11
0.665847
 21
3.525
  0
LINE
  5
3B7
100
AcDbEntity
  8
0
100
AcDbLine
 62
7
  6
CONTINUOUS
 10
-0.271091
 20
3.525
 11
-0.793524
 21
3.525
  0
LINE
  5
3B8
100
AcDbEntity
  8
IMPORT
100
AcDbLine
 62
7
  6
CONTINUOUS
 10
0.665847
 20
3.525
 11
1.318888
 21
3.525
  0
LINE
  5
3B9
100
AcDbEntity
  8
IMPORT
100
AcDbLine
 62
7
  6
CONTINUOUS
 10
-0.271091
 20
3.525
 11
-0.793524
 21
3.525
  0
LINE
  5
3BA
100
AcDbEntity
  8
ASSI
100
AcDbLine
 62
7
  6
CONTINUOUS
 10
-0.271091
 20
3.525
 11
-0.793524
 21
3.525
  0
LINE
  5
3BB
100
AcDbEntity
  8
IMPORT
100
AcDbLine
 62
7
  6
CONTINUOUS
 10
2.105391
 20
3.525
 11
2.51712
 21
3.525
  0
LINE
  5
3BC
100
AcDbEntity
  8
0
100
AcDbLine
 62
7
  6
CONTINUOUS
 10
-2.514188
 20
3.525
 11
-2.954306
 21
3.525
  0
LINE
  5
3BD
100
AcDbEntity
  8
ASSI
100
AcDbLine
 62
7
  6
CONTINUOUS
 10
-2.514188
 20
3.525
 11
-2.954306
 21
3.525
  0
LINE
  5
3BE
100
AcDbEntity
  8
0
100
AcDbLine
 62
7
  6
CONTINUOUS
 10
-4.073253437
 20
3.525
 11
-4.700583
 21
3.525
  0
LINE
  5
3BF
100
AcDbEntity
  8
IMPORT
100
AcDbLine
 62
7
  6
CONTINUOUS
 10
-4.073262
 20
3.525
 11
-4.700583
 21
3.525
  0
LINE
  5
3C0
100
AcDbEntity
  8
ASSI
100
AcDbLine
 62
7
  6
CONTINUOUS
 10
-4.073253437
 20
3.525
 11
-4.700583
 21
3.525
  0
LINE
  5
3C1
100
AcDbEntity
  8
RACCORDO
100
AcDbLine
 62
7
  6
CONTINUOUS
 10
-9.7978878702
 20
14.7
 11
-9.7962926586
 21
14.6984047884
  0
LINE
  5
3C2
100
AcDbEntity
  8
ASSI
100
AcDbLine
 62
7
  6
CONTINUOUS
 10
-9.7978878702
 20
14.7
 11
-9.7962926586
 21
14.6984047884
  0
LINE
  5
3C3
100
AcDbEntity
  8
IMPORT
100
AcDbLine
 62
7
  6
CONTINUOUS
 10
1.318888
 20
3.525
 11
2.105391
 21
1.900472
  0
LINE
  5
3C4
100
AcDbEntity
  8
0
100
AcDbLine
 62
7
  6
CONTINUOUS
 10
1.318888
 20
3.525
 11
2.105391
 21
1.900472
  0
LINE
  5
3C5
100
AcDbEntity
  8
ASSI
100
AcDbLine
 62
7
  6
CONTINUOUS
 10
1.318888
 20
3.525
 11
2.105391
 21
1.900472
  0
LINE
  5
3C6
100
AcDbEntity
  8
0
100
AcDbLine
 62
7
  6
CONTINUOUS
 10
1.077575
 20
3.190711
 11
1.892468
 21
1.475
  0
LINE
  5
3C7
100
AcDbEntity
  8
ASSI
100
AcDbLine
 62
7
  6
CONTINUOUS
 10
1.077575
 20
3.190711
 11
1.892468
 21
1.475
  0
LINE
  5
3C8
100
AcDbEntity
  8
IMPORT
100
AcDbLine
 62
7
  6
CONTINUOUS
 10
1.892468
 20
1.475
 11
1.077575
 21
3.190711
  0
LINE
  5
3C9
100
AcDbEntity
  8
RACCORDO
100
AcDbLine
 62
253
  6
CONTINUOUS
 10
4.1547621508
 20
-20.2530329998
 11
4.1547621508
 21
-19.9530786912
  0
LINE
  5
3CA
100
AcDbEntity
  8
ASSI
100
AcDbLine
 62
253
  6
CONTINUOUS
 10
4.1547621508
 20
-20.2530329998
 11
4.1547621508
 21
-19.9530786912
  0
LINE
  5
3CB
100
AcDbEntity
  8
0
100
AcDbLine
 62
7
  6
CONTINUOUS
 10
4.2912724675
 20
-17.8345320197
 11
4.2912724675
 21
-16.6896265886
  0
LINE
  5
3CC
100
AcDbEntity
  8
ASSI
100
AcDbLine
 62
7
  6
CONTINUOUS
 10
4.2912724675
 20
-17.8345320197
 11
4.2912724675
 21
-16.6896265886
  0
LINE
  5
3CD
100
AcDbEntity
  8
ASSI
100
AcDbLine
 62
7
  6
CONTINUOUS
 10
4.489526961
 20
-16.5623310419
 11
4.489526961
 21
-17.7503000374
  0
LINE
  5
3CE
100
AcDbEntity
  8
RACCORDO
100
AcDbLine
 62
7
  6
CONTINUOUS
 10
4.6118041181
 20
18.8
 11
4.6118041181
 21
19.5607860213
  0
LINE
  5
3CF
100
AcDbEntity
  8
ASSI
100
AcDbLine
 62
7
  6
CONTINUOUS
 10
4.6118041181
 20
18.8
 11
4.6118041181
 21
19.5607860213
  0
LINE
  5
3D0
100
AcDbEntity
  8
RACCORDO
100
AcDbLine
 62
7
  6
CONTINUOUS
 10
4.6222763595
 20
19.729435023
 11
4.6222763595
 21
20.2924439824
  0
LINE
  5
3D1
100
AcDbEntity
  8
ASSI
100
AcDbLine
 62
7
  6
CONTINUOUS
 10
4.6222763595
 20
19.729435023
 11
4.6222763595
 21
20.2924439824
  0
LINE
  5
3D2
100
AcDbEntity
  8
DRAFT
100
AcDbLine
 62
7
  6
CONTINUOUS
 10
4.639526961
 20
-18.7547012244
 11
4.639526961
 21
-17.35
  0
LINE
  5
3D3
100
AcDbEntity
  8
ASSI
100
AcDbLine
 62
7
  6
CONTINUOUS
 10
4.639526961
 20
-18.7547012244
 11
4.639526961
 21
-17.35
  0
LINE
  5
3D4
100
AcDbEntity
  8
DRAFT
100
AcDbLine
 62
7
  6
CONTINUOUS
 10
4.65
 20
-19.7871091624
 11
4.65
 21
-17.35
  0
LINE
  5
3D5
100
AcDbEntity
  8
ASSI
100
AcDbLine
 62
7
  6
CONTINUOUS
 10
4.65
 20
-19.7871091624
 11
4.65
 21
-17.35
  0
LINE
  5
3D6
100
AcDbEntity
  8
RACCORDO
100
AcDbLine
 62
253
  6
CONTINUOUS
 10
4.911792695
 20
18.5
 11
4.911792695
 21
19.3
  0
LINE
  5
3D7
100
AcDbEntity
  8
ASSI
100
AcDbLine
 62
253
  6
CONTINUOUS
 10
4.911792695
 20
18.5
 11
4.911792695
 21
19.3
  0
LINE
  5
3D8
100
AcDbEntity
  8
RACCORDO
100
AcDbLine
 62
253
  6
CONTINUOUS
 10
4.9222649364
 20
19.4323546024
 11
4.9222649364
 21
20.2976348052
  0
LINE
  5
3D9
100
AcDbEntity
  8
ASSI
100
AcDbLine
 62
253
  6
CONTINUOUS
 10
4.9222649364
 20
19.4323546024
 11
4.9222649364
 21
20.2976348052
  0
LINE
  5
3DA
100
AcDbEntity
  8
RACCORDO
100
AcDbLine
 62
253
  6
CONTINUOUS
 10
5.0777350636
 20
19.4323546024
 11
5.0777350636
 21
20.2976348052
  0
LINE
  5
3DB
100
AcDbEntity
  8
ASSI
100
AcDbLine
 62
253
  6
CONTINUOUS
 10
5.0777350636
 20
19.4323546024
 11
5.0777350636
 21
20.2976348052
  0
LINE
  5
3DC
100
AcDbEntity
  8
RACCORDO
100
AcDbLine
 62
253
  6
CONTINUOUS
 10
5.088207305
 20
18.5
 11
5.088207305
 21
19.3
  0
LINE
  5
3DD
100
AcDbEntity
  8
ASSI
100
AcDbLine
 62
253
  6
CONTINUOUS
 10
5.088207305
 20
18.5
 11
5.088207305
 21
19.3
  0
LINE
  5
3DE
100
AcDbEntity
  8
DRAFT
100
AcDbLine
 62
7
  6
CONTINUOUS
 10
5.25
 20
-17.35
 11
5.25
 21
-19.6948597355
  0
LINE
  5
3DF
100
AcDbEntity
  8
ASSI
100
AcDbLine
 62
7
  6
CONTINUOUS
 10
5.25
 20
-17.35
 11
5.25
 21
-19.6948597355
  0
LINE
  5
3E0
100
AcDbEntity
  8
DRAFT
100
AcDbLine
 62
7
  6
CONTINUOUS
 10
5.260473039
 20
-18.4384918441
 11
5.260473039
 21
-17.35
  0
LINE
  5
3E1
100
AcDbEntity
  8
ASSI
100
AcDbLine
 62
7
  6
CONTINUOUS
 10
5.260473039
 20
-18.4384918441
 11
5.260473039
 21
-17.35
  0
LINE
  5
3E2
100
AcDbEntity
  8
RACCORDO
100
AcDbLine
 62
7
  6
CONTINUOUS
 10
5.3777236405
 20
20.2924439824
 11
5.3777236405
 21
19.729435023
  0
LINE
  5
3E3
100
AcDbEntity
  8
ASSI
100
AcDbLine
 62
7
  6
CONTINUOUS
 10
5.3777236405
 20
20.2924439824
 11
5.3777236405
 21
19.729435023
  0
LINE
  5
3E4
100
AcDbEntity
  8
RACCORDO
100
AcDbLine
 62
7
  6
CONTINUOUS
 10
5.3881958819
 20
19.5607860213
 11
5.3881958819
 21
18.8
  0
LINE
  5
3E5
100
AcDbEntity
  8
ASSI
100
AcDbLine
 62
7
  6
CONTINUOUS
 10
5.3881958819
 20
19.5607860213
 11
5.3881958819
 21
18.8
  0
LINE
  5
3E6
100
AcDbEntity
  8
0
100
AcDbLine
 62
7
  6
CONTINUOUS
 10
3.1960171015
 20
-6.1873184109
 11
3.0
 21
-6.85
  0
LINE
  5
3E7
100
AcDbEntity
  8
ASSI
100
AcDbLine
 62
7
  6
CONTINUOUS
 10
3.1960171015
 20
-6.1873184109
 11
3.0
 21
-6.85
  0
LINE
  5
3E8
100
AcDbEntity
  8
0
100
AcDbLine
 62
7
  6
CONTINUOUS
 10
-3.0
 20
-6.85
 11
-5.1735525612
 21
-8.2591377732
  0
LINE
  5
3E9
100
AcDbEntity
  8
ASSI
100
AcDbLine
 62
7
  6
CONTINUOUS
 10
-3.0
 20
-6.85
 11
-5.1735525612
 21
-8.2591377732
  0
LINE
  5
3EA
100
AcDbEntity
  8
0
100
AcDbLine
 62
7
  6
CONTINUOUS
 10
3.987985
 20
3.525
 11
4.700583
 21
1.475
  0
LINE
  5
3EB
100
AcDbEntity
  8
ASSI
100
AcDbLine
 62
7
  6
CONTINUOUS
 10
3.987985
 20
3.525
 11
4.700583
 21
1.475
  0
LINE
  5
3EC
100
AcDbEntity
  8
IMPORT
100
AcDbLine
 62
7
  6
CONTINUOUS
 10
4.700583
 20
1.475
 11
3.987985
 21
3.525
  0
LINE
  5
3ED
100
AcDbEntity
  8
IMPORT
100
AcDbLine
 62
7
  6
CONTINUOUS
 10
4.11003
 20
1.909486
 11
4.257765
 21
1.475
  0
LINE
  5
3EE
100
AcDbEntity
  8
0
100
AcDbLine
 62
7
  6
CONTINUOUS
 10
4.11003
 20
1.909486
 11
4.257765
 21
1.475
  0
LINE
  5
3EF
100
AcDbEntity
  8
ASSI
100
AcDbLine
 62
7
  6
CONTINUOUS
 10
4.11003
 20
1.909486
 11
4.257765
 21
1.475
  0
LINE
  5
3F0
100
AcDbEntity
  8
IMPORT
100
AcDbLine
 62
7
  6
CONTINUOUS
 10
3.715487
 20
3.133151
 11
3.999249
 21
2.250163
  0
LINE
  5
3F1
100
AcDbEntity
  8
0
100
AcDbLine
 62
7
  6
CONTINUOUS
 10
3.715487
 20
3.133151
 11
3.999249
 21
2.250163
  0
LINE
  5
3F2
100
AcDbEntity
  8
ASSI
100
AcDbLine
 62
7
  6
CONTINUOUS
 10
3.715487
 20
3.133151
 11
3.999249
 21
2.250163
  0
LINE
  5
3F3
100
AcDbEntity
  8
0
100
AcDbLine
 62
7
  6
CONTINUOUS
 10
2.336631
 20
6.941606
 11
2.494481
 21
6.449944
  0
LINE
  5
3F4
100
AcDbEntity
  8
ASSI
100
AcDbLine
 62
7
  6
CONTINUOUS
 10
2.336631
 20
6.941606
 11
2.494481
 21
6.449944
  0
LINE
  5
3F5
100
AcDbEntity
  8
IMPORT
100
AcDbLine
 62
7
  6
CONTINUOUS
 10
2.494481
 20
6.449944
 11
2.336631
 21
6.941606
  0
LINE
  5
3F6
100
AcDbEntity
  8
0
100
AcDbLine
 62
7
  6
CONTINUOUS
 10
1.941775
 20
8.1714
 11
2.184106
 21
7.416625
  0
LINE
  5
3F7
100
AcDbEntity
  8
ASSI
100
AcDbLine
 62
7
  6
CONTINUOUS
 10
1.941775
 20
8.1714
 11
2.184106
 21
7.416625
  0
LINE
  5
3F8
100
AcDbEntity
  8
IMPORT
100
AcDbLine
 62
7
  6
CONTINUOUS
 10
2.184106
 20
7.416625
 11
1.941775
 21
8.1714
  0
LINE
  5
3F9
100
AcDbEntity
  8
IMPORT
100
AcDbLine
 62
7
  6
CONTINUOUS
 10
2.1918
 20
8.950056
 11
2.994506
 21
6.449937
  0
LINE
  5
3FA
100
AcDbEntity
  8
0
100
AcDbLine
 62
7
  6
CONTINUOUS
 10
2.1918
 20
8.950056
 11
2.994506
 21
6.449937
  0
LINE
  5
3FB
100
AcDbEntity
  8
ASSI
100
AcDbLine
 62
7
  6
CONTINUOUS
 10
2.1918
 20
8.950056
 11
2.994506
 21
6.449937
  0
LINE
  5
3FC
100
AcDbEntity
  8
0
100
AcDbLine
 62
253
  6
CONTINUOUS
 10
6.0847011359
 20
-10.4125113365
 11
6.1004106943
 21
-10.4912511336
  0
LINE
  5
3FD
100
AcDbEntity
  8
ASSI
100
AcDbLine
 62
253
  6
CONTINUOUS
 10
6.0829556294
 20
-10.4037624701
 11
6.1004106943
 21
-10.4912511336
  0
LINE
  5
3FE
100
AcDbEntity
  8
ASSI
100
AcDbLine
 62
253
  6
CONTINUOUS
 10
6.3825449351
 20
-10.1030745852
 11
6.4
 21
-10.1905632487
  0
LINE
  5
3FF
100
AcDbEntity
  8
RACCORDO
100
AcDbLine
 62
253
  6
CONTINUOUS
 10
5.0777350636
 20
19.4323546024
 11
5.0859536082
 21
19.3
  0
LINE
  5
400
100
AcDbEntity
  8
ASSI
100
AcDbLine
 62
253
  6
CONTINUOUS
 10
5.0777350636
 20
19.4323546024
 11
5.0859536082
 21
19.3
  0
LINE
  5
401
100
AcDbEntity
  8
RACCORDO
100
AcDbLine
 62
253
  6
CONTINUOUS
 10
5.3777236405
 20
19.729435023
 11
5.3881958819
 21
19.5607860213
  0
LINE
  5
402
100
AcDbEntity
  8
ASSI
100
AcDbLine
 62
253
  6
CONTINUOUS
 10
5.3777236405
 20
19.729435023
 11
5.3881958819
 21
19.5607860213
  0
LINE
  5
403
100
AcDbEntity
  8
ASSI
100
AcDbLine
 62
7
  6
CONTINUOUS
 10
6.3825449351
 20
-10.1030745852
 11
6.3825449351
 21
-9.683643942
  0
LINE
  5
404
100
AcDbEntity
  8
0
100
AcDbLine
 62
7
  6
CONTINUOUS
 10
6.3842904416
 20
-9.6830124029
 11
6.3842904416
 21
-10.1118234515
  0
LINE
  5
405
100
AcDbEntity
  8
ASSI
100
AcDbLine
 62
7
  6
CONTINUOUS
 10
6.3842904416
 20
-9.6830124029
 11
6.3842904416
 21
-10.1118234515
  0
LINE
  5
406
100
AcDbEntity
  8
DRAFT
100
AcDbLine
 62
7
  6
CONTINUOUS
 10
6.4
 20
20.35
 11
6.4
 21
19.95
  0
LINE
  5
407
100
AcDbEntity
  8
ASSI
100
AcDbLine
 62
7
  6
CONTINUOUS
 10
6.4
 20
20.35
 11
6.4
 21
19.95
  0
LINE
  5
408
100
AcDbEntity
  8
DRAFT
100
AcDbLine
 62
7
  6
CONTINUOUS
 10
6.4
 20
-20.35
 11
6.4
 21
-19.95
  0
LINE
  5
409
100
AcDbEntity
  8
ASSI
100
AcDbLine
 62
7
  6
CONTINUOUS
 10
6.4
 20
-20.35
 11
6.4
 21
-19.95
  0
LINE
  5
40A
100
AcDbEntity
  8
DRAFT
100
AcDbLine
 62
7
  6
CONTINUOUS
 10
7.0
 20
20.35
 11
7.0
 21
19.95
  0
LINE
  5
40B
100
AcDbEntity
  8
ASSI
100
AcDbLine
 62
7
  6
CONTINUOUS
 10
7.0
 20
20.35
 11
7.0
 21
19.95
  0
LINE
  5
40C
100
AcDbEntity
  8
DRAFT
100
AcDbLine
 62
7
  6
CONTINUOUS
 10
7.0
 20
-20.35
 11
7.0
 21
-19.95
  0
LINE
  5
40D
100
AcDbEntity
  8
ASSI
100
AcDbLine
 62
7
  6
CONTINUOUS
 10
7.0
 20
-20.35
 11
7.0
 21
-19.95
  0
LINE
  5
40E
100
AcDbEntity
  8
RACCORDO
100
AcDbLine
 62
253
  6
CONTINUOUS
 10
-9.8030329998
 20
-20.0530634608
 11
-9.9
 21
-20.150030461
  0
LINE
  5
40F
100
AcDbEntity
  8
ASSI
100
AcDbLine
 62
253
  6
CONTINUOUS
 10
-9.8030329998
 20
-20.0530634608
 11
-9.9
 21
-20.150030461
  0
LINE
  5
410
100
AcDbEntity
  8
RACCORDO
100
AcDbLine
 62
253
  6
CONTINUOUS
 10
-9.6030632568
 20
-20.2530327958
 11
-9.700030461
 21
-20.35
  0
LINE
  5
411
100
AcDbEntity
  8
ASSI
100
AcDbLine
 62
253
  6
CONTINUOUS
 10
-9.6030632568
 20
-20.2530327958
 11
-9.700030461
 21
-20.35
  0
LINE
  5
412
100
AcDbEntity
  8
0
100
AcDbLine
 62
7
  6
CONTINUOUS
 10
5.328613
 20
6.44995
 11
4.765419
 21
6.449944
  0
LINE
  5
413
100
AcDbEntity
  8
IMPORT
100
AcDbLine
 62
7
  6
CONTINUOUS
 10
5.328613
 20
6.44995
 11
4.765419
 21
6.449944
  0
LINE
  5
414
100
AcDbEntity
  8
ASSI
100
AcDbLine
 62
7
  6
CONTINUOUS
 10
5.328613
 20
6.44995
 11
4.765419
 21
6.449944
  0
LINE
  5
415
100
AcDbEntity
  8
0
100
AcDbLine
 62
7
  6
CONTINUOUS
 10
1.389081
 20
6.449944
 11
0.889063
 21
6.449937
  0
LINE
  5
416
100
AcDbEntity
  8
IMPORT
100
AcDbLine
 62
7
  6
CONTINUOUS
 10
1.389081
 20
6.449944
 11
0.889063
 21
6.449937
  0
LINE
  5
417
100
AcDbEntity
  8
ASSI
100
AcDbLine
 62
7
  6
CONTINUOUS
 10
1.389081
 20
6.449944
 11
0.889063
 21
6.449937
  0
LINE
  5
418
100
AcDbEntity
  8
IMPORT
100
AcDbLine
 62
7
  6
CONTINUOUS
 10
-1.889806
 20
6.449937
 11
-1.389788
 21
6.449937
  0
LINE
  5
419
100
AcDbEntity
  8
0
100
AcDbLine
 62
7
  6
CONTINUOUS
 10
0.555719
 20
6.449937
 11
0.0557
 21
6.449937
  0
LINE
  5
41A
100
AcDbEntity
  8
IMPORT
100
AcDbLine
 62
7
  6
CONTINUOUS
 10
0.0557
 20
6.449937
 11
0.555719
 21
6.449937
  0
LINE
  5
41B
100
AcDbEntity
  8
ASSI
100
AcDbLine
 62
7
  6
CONTINUOUS
 10
0.555719
 20
6.449937
 11
0.0557
 21
6.449937
  0
LINE
  5
41C
100
AcDbEntity
  8
0
100
AcDbLine
 62
7
  6
CONTINUOUS
 10
-1.389788
 20
6.449937
 11
-1.889806
 21
6.449937
  0
LINE
  5
41D
100
AcDbEntity
  8
ASSI
100
AcDbLine
 62
7
  6
CONTINUOUS
 10
-1.389788
 20
6.449937
 11
-1.889806
 21
6.449937
  0
LINE
  5
41E
100
AcDbEntity
  8
0
100
AcDbLine
 62
7
  6
CONTINUOUS
 10
3.827875
 20
6.449944
 11
3.32785
 21
6.449944
  0
LINE
  5
41F
100
AcDbEntity
  8
IMPORT
100
AcDbLine
 62
7
  6
CONTINUOUS
 10
3.827875
 20
6.449944
 11
3.32785
 21
6.449944
  0
LINE
  5
420
100
AcDbEntity
  8
ASSI
100
AcDbLine
 62
7
  6
CONTINUOUS
 10
3.827875
 20
6.449944
 11
3.32785
 21
6.449944
  0
LINE
  5
421
100
AcDbEntity
  8
IMPORT
100
AcDbLine
 62
7
  6
CONTINUOUS
 10
-0.91705
 20
6.449937
 11
-0.417044
 21
6.449944
  0
LINE
  5
422
100
AcDbEntity
  8
0
100
AcDbLine
 62
7
  6
CONTINUOUS
 10
-0.417044
 20
6.449944
 11
-0.91705
 21
6.449937
  0
LINE
  5
423
100
AcDbEntity
  8
ASSI
100
AcDbLine
 62
7
  6
CONTINUOUS
 10
-0.417044
 20
6.449944
 11
-0.91705
 21
6.449937
  0
LINE
  5
424
100
AcDbEntity
  8
IMPORT
100
AcDbLine
 62
7
  6
CONTINUOUS
 10
-2.889831
 20
6.449931
 11
-2.389813
 21
6.449937
  0
LINE
  5
425
100
AcDbEntity
  8
0
100
AcDbLine
 62
7
  6
CONTINUOUS
 10
-2.389813
 20
6.449937
 11
-2.889831
 21
6.449931
  0
LINE
  5
426
100
AcDbEntity
  8
ASSI
100
AcDbLine
 62
7
  6
CONTINUOUS
 10
-2.389813
 20
6.449937
 11
-2.889831
 21
6.449931
  0
LINE
  5
427
100
AcDbEntity
  8
0
100
AcDbLine
 62
7
  6
CONTINUOUS
 10
2.994506
 20
6.449937
 11
2.494481
 21
6.449944
  0
LINE
  5
428
100
AcDbEntity
  8
IMPORT
100
AcDbLine
 62
7
  6
CONTINUOUS
 10
2.994506
 20
6.449937
 11
2.494481
 21
6.449944
  0
LINE
  5
429
100
AcDbEntity
  8
ASSI
100
AcDbLine
 62
7
  6
CONTINUOUS
 10
2.994506
 20
6.449937
 11
2.494481
 21
6.449944
  0
LINE
  5
42A
100
AcDbEntity
  8
IMPORT
100
AcDbLine
 62
7
  6
CONTINUOUS
 10
-4.525913
 20
6.449931
 11
-4.025875
 21
6.449937
  0
LINE
  5
42B
100
AcDbEntity
  8
0
100
AcDbLine
 62
7
  6
CONTINUOUS
 10
-4.025875
 20
6.449937
 11
-4.525913
 21
6.449931
  0
LINE
  5
42C
100
AcDbEntity
  8
ASSI
100
AcDbLine
 62
7
  6
CONTINUOUS
 10
-4.025875
 20
6.449937
 11
-4.525913
 21
6.449931
  0
LINE
  5
42D
100
AcDbEntity
  8
0
100
AcDbLine
 62
7
  6
CONTINUOUS
 10
2.336631
 20
6.941606
 11
1.546938
 21
6.941606
  0
LINE
  5
42E
100
AcDbEntity
  8
IMPORT
100
AcDbLine
 62
7
  6
CONTINUOUS
 10
2.336631
 20
6.941606
 11
1.546938
 21
6.941606
  0
LINE
  5
42F
100
AcDbEntity
  8
ASSI
100
AcDbLine
 62
7
  6
CONTINUOUS
 10
2.336631
 20
6.941606
 11
1.546938
 21
6.941606
  0
LINE
  5
430
100
AcDbEntity
  8
0
100
AcDbLine
 62
7
  6
CONTINUOUS
 10
2.184106
 20
7.416625
 11
1.699456
 21
7.416625
  0
LINE
  5
431
100
AcDbEntity
  8
ASSI
100
AcDbLine
 62
7
  6
CONTINUOUS
 10
2.184106
 20
7.416625
 11
1.699456
 21
7.416625
  0
LINE
  5
432
100
AcDbEntity
  8
IMPORT
100
AcDbLine
 62
7
  6
CONTINUOUS
 10
1.699456
 20
7.416625
 11
2.184106
 21
7.416625
  0
LINE
  5
433
100
AcDbEntity
  8
0
100
AcDbLine
 62
7
  6
CONTINUOUS
 10
4.264338
 20
7.416625
 11
3.827931
 21
7.416631
  0
LINE
  5
434
100
AcDbEntity
  8
IMPORT
100
AcDbLine
 62
7
  6
CONTINUOUS
 10
4.264338
 20
7.416625
 11
3.827931
 21
7.416631
  0
LINE
  5
435
100
AcDbEntity
  8
ASSI
100
AcDbLine
 62
7
  6
CONTINUOUS
 10
4.264338
 20
7.416625
 11
3.827931
 21
7.416631
  0
LINE
  5
436
100
AcDbEntity
  8
DRAFT
100
AcDbLine
 62
253
  6
CONTINUOUS
 10
-9.9
 20
7.5
 11
-9.8875643902
 21
7.5
  0
LINE
  5
437
100
AcDbEntity
  8
DRAFT
100
AcDbLine
 62
253
  6
CONTINUOUS
 10
9.9
 20
7.5
 11
9.8875643902
 21
7.5
  0
LINE
  5
438
100
AcDbEntity
  8
ASSI
100
AcDbLine
 62
253
  6
CONTINUOUS
 10
-9.9
 20
7.5
 11
-9.8875643902
 21
7.5
  0
LINE
  5
439
100
AcDbEntity
  8
ASSI
100
AcDbLine
 62
253
  6
CONTINUOUS
 10
9.9
 20
7.5
 11
9.8875643902
 21
7.5
  0
LINE
  5
43A
100
AcDbEntity
  8
RACCORDO
100
AcDbLine
 62
253
  6
CONTINUOUS
 10
-9.9
 20
20.150030461
 11
-9.8030329998
 21
20.0530634608
  0
LINE
  5
43B
100
AcDbEntity
  8
ASSI
100
AcDbLine
 62
253
  6
CONTINUOUS
 10
-9.9
 20
20.150030461
 11
-9.8030329998
 21
20.0530634608
  0
LINE
  5
43C
100
AcDbEntity
  8
RACCORDO
100
AcDbLine
 62
253
  6
CONTINUOUS
 10
-9.700030461
 20
20.35
 11
-9.6030634675
 21
20.2530330065
  0
LINE
  5
43D
100
AcDbEntity
  8
ASSI
100
AcDbLine
 62
253
  6
CONTINUOUS
 10
-9.700030461
 20
20.35
 11
-9.6030634675
 21
20.2530330065
  0
LINE
  5
43E
100
AcDbEntity
  8
0
100
AcDbLine
 62
7
  6
CONTINUOUS
 10
4.264338
 20
7.416625
 11
4.765419
 21
6.449944
  0
LINE
  5
43F
100
AcDbEntity
  8
ASSI
100
AcDbLine
 62
7
  6
CONTINUOUS
 10
4.264338
 20
7.416625
 11
4.765419
 21
6.449944
  0
LINE
  5
440
100
AcDbEntity
  8
IMPORT
100
AcDbLine
 62
7
  6
CONTINUOUS
 10
4.765419
 20
6.449944
 11
4.264338
 21
7.416625
  0
LINE
  5
441
100
AcDbEntity
  8
DRAFT
100
AcDbLine
 62
253
  6
CONTINUOUS
 10
8.7
 20
14.7
 11
8.7
 21
14.6949675093
  0
LINE
  5
442
100
AcDbEntity
  8
ASSI
100
AcDbLine
 62
253
  6
CONTINUOUS
 10
8.7
 20
14.7
 11
8.7
 21
14.6949675093
  0
LINE
  5
443
100
AcDbEntity
  8
DRAFT
100
AcDbLine
 62
253
  6
CONTINUOUS
 10
8.7
 20
-10.3
 11
8.7
 21
-10.3082401268
  0
LINE
  5
444
100
AcDbEntity
  8
ASSI
100
AcDbLine
 62
253
  6
CONTINUOUS
 10
8.7
 20
-10.3
 11
8.7
 21
-10.3082401268
  0
LINE
  5
445
100
AcDbEntity
  8
DRAFT
100
AcDbLine
 62
253
  6
CONTINUOUS
 10
8.7
 20
-9.7
 11
8.7
 21
-9.6913992154
  0
LINE
  5
446
100
AcDbEntity
  8
ASSI
100
AcDbLine
 62
253
  6
CONTINUOUS
 10
8.7
 20
-9.7
 11
8.7
 21
-9.6913992154
  0
LINE
  5
447
100
AcDbEntity
  8
DRAFT
100
AcDbLine
 62
253
  6
CONTINUOUS
 10
8.7
 20
15.3
 11
8.7
 21
15.3044975405
  0
LINE
  5
448
100
AcDbEntity
  8
ASSI
100
AcDbLine
 62
253
  6
CONTINUOUS
 10
8.7
 20
15.3
 11
8.7
 21
15.3044975405
  0
LINE
  5
449
100
AcDbEntity
  8
0
100
AcDbLine
 62
253
  6
CONTINUOUS
 10
5.5637117204
 20
-7.6573290246
 11
5.1735525612
 21
-8.2591377732
  0
LINE
  5
44A
100
AcDbEntity
  8
ASSI
100
AcDbLine
 62
253
  6
CONTINUOUS
 10
5.5637117204
 20
-7.6573290246
 11
5.1735525612
 21
-8.2591377732
  0
LINE
  5
44B
100
AcDbEntity
  8
0
100
AcDbLine
 62
7
  6
CONTINUOUS
 10
4.429323
 20
7.87915
 11
3.820981
 21
7.87915
  0
LINE
  5
44C
100
AcDbEntity
  8
ASSI
100
AcDbLine
 62
7
  6
CONTINUOUS
 10
4.429323
 20
7.87915
 11
3.820981
 21
7.87915
  0
LINE
  5
44D
100
AcDbEntity
  8
IMPORT
100
AcDbLine
 62
7
  6
CONTINUOUS
 10
3.820981
 20
7.87915
 11
4.429325
 21
7.87915
  0
LINE
  5
44E
100
AcDbEntity
  8
0
100
AcDbLine
 62
7
  6
CONTINUOUS
 10
4.429323
 20
8.487538
 11
3.820975
 21
8.487538
  0
LINE
  5
44F
100
AcDbEntity
  8
IMPORT
100
AcDbLine
 62
7
  6
CONTINUOUS
 10
4.429325
 20
8.487538
 11
3.820975
 21
8.487538
  0
LINE
  5
450
100
AcDbEntity
  8
ASSI
100
AcDbLine
 62
7
  6
CONTINUOUS
 10
4.429323
 20
8.487538
 11
3.820975
 21
8.487538
  0
LINE
  5
451
100
AcDbEntity
  8
0
100
AcDbLine
 62
7
  6
CONTINUOUS
 10
0.555719
 20
8.95005
 11
-0.200175
 21
8.95005
  0
LINE
  5
452
100
AcDbEntity
  8
IMPORT
100
AcDbLine
 62
7
  6
CONTINUOUS
 10
0.555719
 20
8.95005
 11
-0.200175
 21
8.95005
  0
LINE
  5
453
100
AcDbEntity
  8
ASSI
100
AcDbLine
 62
7
  6
CONTINUOUS
 10
0.555719
 20
8.95005
 11
-0.200175
 21
8.95005
  0
LINE
  5
454
100
AcDbEntity
  8
0
100
AcDbLine
 62
7
  6
CONTINUOUS
 10
-1.133913
 20
8.95005
 11
-1.889806
 21
8.95005
  0
LINE
  5
455
100
AcDbEntity
  8
IMPORT
100
AcDbLine
 62
7
  6
CONTINUOUS
 10
-1.133913
 20
8.95005
 11
-1.889806
 21
8.95005
  0
LINE
  5
456
100
AcDbEntity
  8
ASSI
100
AcDbLine
 62
7
  6
CONTINUOUS
 10
-1.133913
 20
8.95005
 11
-1.889806
 21
8.95005
  0
LINE
  5
457
100
AcDbEntity
  8
0
100
AcDbLine
 62
7
  6
CONTINUOUS
 10
-2.389806
 20
8.95005
 11
-2.889825
 21
8.95005
  0
LINE
  5
458
100
AcDbEntity
  8
IMPORT
100
AcDbLine
 62
7
  6
CONTINUOUS
 10
-2.389806
 20
8.95005
 11
-2.889825
 21
8.95005
  0
LINE
  5
459
100
AcDbEntity
  8
ASSI
100
AcDbLine
 62
7
  6
CONTINUOUS
 10
-2.389806
 20
8.95005
 11
-2.889825
 21
8.95005
  0
LINE
  5
45A
100
AcDbEntity
  8
0
100
AcDbLine
 62
7
  6
CONTINUOUS
 10
-3.223169
 20
8.95005
 11
-3.723194
 21
8.95005
  0
LINE
  5
45B
100
AcDbEntity
  8
IMPORT
100
AcDbLine
 62
7
  6
CONTINUOUS
 10
-3.223169
 20
8.95005
 11
-3.723194
 21
8.95005
  0
LINE
  5
45C
100
AcDbEntity
  8
ASSI
100
AcDbLine
 62
7
  6
CONTINUOUS
 10
-3.223169
 20
8.95005
 11
-3.723194
 21
8.95005
  0
LINE
  5
45D
100
AcDbEntity
  8
0
100
AcDbLine
 62
7
  6
CONTINUOUS
 10
-4.828588
 20
8.95005
 11
-5.328613
 21
8.95005
  0
LINE
  5
45E
100
AcDbEntity
  8
IMPORT
100
AcDbLine
 62
7
  6
CONTINUOUS
 10
-4.828588
 20
8.95005
 11
-5.328613
 21
8.95005
  0
LINE
  5
45F
100
AcDbEntity
  8
ASSI
100
AcDbLine
 62
7
  6
CONTINUOUS
 10
-4.828588
 20
8.95005
 11
-5.328613
 21
8.95005
  0
LINE
  5
460
100
AcDbEntity
  8
0
100
AcDbLine
 62
7
  6
CONTINUOUS
 10
4.498725
 20
8.950056
 11
3.32785
 21
8.950056
  0
LINE
  5
461
100
AcDbEntity
  8
ASSI
100
AcDbLine
 62
7
  6
CONTINUOUS
 10
4.498725
 20
8.950056
 11
3.32785
 21
8.950056
  0
LINE
  5
462
100
AcDbEntity
  8
0
100
AcDbLine
 62
7
  6
CONTINUOUS
 10
2.1918
 20
8.950056
 11
1.691756
 21
8.950056
  0
LINE
  5
463
100
AcDbEntity
  8
ASSI
100
AcDbLine
 62
7
  6
CONTINUOUS
 10
2.1918
 20
8.950056
 11
1.691756
 21
8.950056
  0
LINE
  5
464
100
AcDbEntity
  8
IMPORT
100
AcDbLine
 62
7
  6
CONTINUOUS
 10
1.691756
 20
8.950056
 11
2.1918
 21
8.950056
  0
LINE
  5
465
100
AcDbEntity
  8
IMPORT
100
AcDbLine
 62
7
  6
CONTINUOUS
 10
3.32785
 20
8.950056
 11
4.498725
 21
8.950056
  0
LINE
  5
466
100
AcDbEntity
  8
IMPORT
100
AcDbLine
 62
7
  6
CONTINUOUS
 10
4.796369
 20
7.476756
 11
5.328613
 21
6.44995
  0
LINE
  5
467
100
AcDbEntity
  8
0
100
AcDbLine
 62
7
  6
CONTINUOUS
 10
4.7963677907
 20
7.4767583331
 11
5.328613
 21
6.44995
  0
LINE
  5
468
100
AcDbEntity
  8
ASSI
100
AcDbLine
 62
7
  6
CONTINUOUS
 10
4.7963677907
 20
7.4767583331
 11
5.328613
 21
6.44995
  0
LINE
  5
469
100
AcDbEntity
  8
RACCORDO
100
AcDbLine
 62
253
  6
CONTINUOUS
 10
9.6013484175
 20
-19.9530786912
 11
9.5931062113
 21
-10.3082401519
  0
LINE
  5
46A
100
AcDbEntity
  8
ASSI
100
AcDbLine
 62
253
  6
CONTINUOUS
 10
9.6013484175
 20
-19.9530786912
 11
9.5931062113
 21
-10.3082401519
  0
LINE
  5
46B
100
AcDbEntity
  8
DRAFT
100
AcDbLine
 62
7
  6
CONTINUOUS
 10
9.7978878702
 20
-10.3
 11
9.7978878702
 21
-9.7
  0
LINE
  5
46C
100
AcDbEntity
  8
ASSI
100
AcDbLine
 62
7
  6
CONTINUOUS
 10
9.7978878702
 20
-10.3
 11
9.7978878702
 21
-9.7
  0
LINE
  5
46D
100
AcDbEntity
  8
DRAFT
100
AcDbLine
 62
7
  6
CONTINUOUS
 10
9.7978878702
 20
14.7
 11
9.7978878702
 21
15.3
  0
LINE
  5
46E
100
AcDbEntity
  8
ASSI
100
AcDbLine
 62
7
  6
CONTINUOUS
 10
9.7978878702
 20
14.7
 11
9.7978878702
 21
15.3
  0
LINE
  5
46F
100
AcDbEntity
  8
RACCORDO
100
AcDbLine
 62
253
  6
CONTINUOUS
 10
9.8013179566
 20
-19.9530786912
 11
9.8013179566
 21
-19.6882579219
  0
LINE
  5
470
100
AcDbEntity
  8
ASSI
100
AcDbLine
 62
253
  6
CONTINUOUS
 10
9.8013179566
 20
-19.9530786912
 11
9.8013179566
 21
-19.6882579219
  0
LINE
  5
471
100
AcDbEntity
  8
RACCORDO
100
AcDbLine
 62
253
  6
CONTINUOUS
 10
9.8013179566
 20
19.6882579219
 11
9.8013179566
 21
19.9530786912
  0
LINE
  5
472
100
AcDbEntity
  8
ASSI
100
AcDbLine
 62
253
  6
CONTINUOUS
 10
9.8013179566
 20
19.6882579219
 11
9.8013179566
 21
19.9530786912
  0
LINE
  5
473
100
AcDbEntity
  8
DRAFT
100
AcDbLine
 62
7
  6
CONTINUOUS
 10
9.8875643902
 20
-7.5
 11
9.8875643902
 21
7.5
  0
LINE
  5
474
100
AcDbEntity
  8
ASSI
100
AcDbLine
 62
7
  6
CONTINUOUS
 10
9.8875643902
 20
-7.5
 11
9.8875643902
 21
7.5
  0
LINE
  5
475
100
AcDbEntity
  8
RACCORDO
100
AcDbLine
 62
7
  6
CONTINUOUS
 10
9.9
 20
-20.150030461
 11
9.9
 21
-7.5
  0
LINE
  5
476
100
AcDbEntity
  8
ASSI
100
AcDbLine
 62
7
  6
CONTINUOUS
 10
9.9
 20
-20.150030461
 11
9.9
 21
-7.5
  0
LINE
  5
477
100
AcDbEntity
  8
RACCORDO
100
AcDbLine
 62
7
  6
CONTINUOUS
 10
9.9
 20
7.5
 11
9.9
 21
20.150030461
  0
LINE
  5
478
100
AcDbEntity
  8
ASSI
100
AcDbLine
 62
7
  6
CONTINUOUS
 10
9.9
 20
7.5
 11
9.9
 21
20.150030461
  0
LINE
  5
479
100
AcDbEntity
  8
DRAFT
100
AcDbLine
 62
7
  6
CONTINUOUS
 10
10.6
 20
-5.9801315846
 11
10.6
 21
5.9801315846
  0
LINE
  5
47A
100
AcDbEntity
  8
ASSI
100
AcDbLine
 62
7
  6
CONTINUOUS
 10
10.6
 20
-5.9801315846
 11
10.6
 21
5.9801315846
  0
LINE
  5
47B
100
AcDbEntity
  8
RACCORDO
100
AcDbLine
 62
7
  6
CONTINUOUS
 10
10.9
 20
-20.8501218439
 11
10.9
 21
20.8501218439
  0
LINE
  5
47C
100
AcDbEntity
  8
ASSI
100
AcDbLine
 62
7
  6
CONTINUOUS
 10
10.9
 20
-20.8501218439
 11
10.9
 21
20.8501218439
  0
LINE
  5
47D
100
AcDbEntity
  8
RACCORDO
100
AcDbLine
 62
253
  6
CONTINUOUS
 10
9.5963116997
 20
14.6949676121
 11
9.592745795
 21
-9.691399274
  0
LINE
  5
47E
100
AcDbEntity
  8
ASSI
100
AcDbLine
 62
253
  6
CONTINUOUS
 10
9.5963116997
 20
14.6949676121
 11
9.592745795
 21
-9.691399274
  0
LINE
  5
47F
100
AcDbEntity
  8
RACCORDO
100
AcDbLine
 62
253
  6
CONTINUOUS
 10
9.6013484175
 20
19.9530833924
 11
9.5968462917
 21
15.3044976006
  0
LINE
  5
480
100
AcDbEntity
  8
ASSI
100
AcDbLine
 62
253
  6
CONTINUOUS
 10
9.6013484175
 20
19.9530833924
 11
9.5968462917
 21
15.3044976006
  0
LINE
  5
481
100
AcDbEntity
  8
ASSI
100
AcDbLine
 62
253
  6
CONTINUOUS
 10
6.315058791
 20
-9.4910313368
 11
6.3130921852
 21
-9.4917022356
  0
LINE
  5
482
100
AcDbEntity
  8
ASSI
100
AcDbLine
 62
7
  6
CONTINUOUS
 10
5.8831180076
 20
-14.7060240739
 11
5.884118439
 21
-14.7038038735
  0
LINE
  5
483
100
AcDbEntity
  8
ASSI
100
AcDbLine
 62
253
  6
CONTINUOUS
 10
-4.3
 20
-17.8404856744
 11
-4.2912724675
 21
-17.8345320197
  0
LINE
  5
484
100
AcDbEntity
  8
ASSI
100
AcDbLine
 62
253
  6
CONTINUOUS
 10
-4.5
 20
-17.757129732
 11
-4.489526961
 21
-17.7503000374
  0
LINE
  5
485
100
AcDbEntity
  8
0
100
AcDbLine
 62
7
  6
CONTINUOUS
 10
-4.3
 20
-16.6945906404
 11
-4.2912724675
 21
-16.6896265886
  0
LINE
  5
486
100
AcDbEntity
  8
RACCORDO
100
AcDbLine
 62
7
  6
CONTINUOUS
 10
9.7978878702
 20
-10.3
 11
9.7930778434
 21
-10.3048100268
  0
LINE
  5
487
100
AcDbEntity
  8
ASSI
100
AcDbLine
 62
7
  6
CONTINUOUS
 10
9.7978878702
 20
-10.3
 11
9.7930778434
 21
-10.3048100268
  0
LINE
  5
488
100
AcDbEntity
  8
ASSI
100
AcDbLine
 62
253
  6
CONTINUOUS
 10
-4.3211826565
 20
-18.031535313
 11
-4.3103487476
 21
-18.024864642
  0
LINE
  5
489
100
AcDbEntity
  8
RACCORDO
100
AcDbLine
 62
7
  6
CONTINUOUS
 10
9.5963117256
 20
14.6949675094
 11
8.7
 21
14.6949675093
  0
LINE
  5
48A
100
AcDbEntity
  8
ASSI
100
AcDbLine
 62
7
  6
CONTINUOUS
 10
9.5963117256
 20
14.6949675094
 11
8.7
 21
14.6949675093
  0
LINE
  5
48B
100
AcDbEntity
  8
RACCORDO
100
AcDbLine
 62
7
  6
CONTINUOUS
 10
-8.7
 20
14.6949675093
 11
-9.5963117255
 21
14.6949675094
  0
LINE
  5
48C
100
AcDbEntity
  8
ASSI
100
AcDbLine
 62
7
  6
CONTINUOUS
 10
-8.7
 20
14.6949675093
 11
-9.5963117255
 21
14.6949675094
  0
LINE
  5
48D
100
AcDbEntity
  8
DRAFT
100
AcDbLine
 62
7
  6
CONTINUOUS
 10
9.7978878702
 20
14.7
 11
8.7
 21
14.7
  0
LINE
  5
48E
100
AcDbEntity
  8
ASSI
100
AcDbLine
 62
7
  6
CONTINUOUS
 10
9.7978878702
 20
14.7
 11
8.7
 21
14.7
  0
LINE
  5
48F
100
AcDbEntity
  8
DRAFT
100
AcDbLine
 62
7
  6
CONTINUOUS
 10
-8.7
 20
14.7
 11
-9.7978878702
 21
14.7
  0
LINE
  5
490
100
AcDbEntity
  8
ASSI
100
AcDbLine
 62
7
  6
CONTINUOUS
 10
-8.7
 20
14.7
 11
-9.7978878702
 21
14.7
  0
LINE
  5
491
100
AcDbEntity
  8
DRAFT
100
AcDbLine
 62
7
  6
CONTINUOUS
 10
-9.7978878702
 20
15.3
 11
-8.7
 21
15.3
  0
LINE
  5
492
100
AcDbEntity
  8
ASSI
100
AcDbLine
 62
7
  6
CONTINUOUS
 10
-9.7978878702
 20
15.3
 11
-8.7
 21
15.3
  0
LINE
  5
493
100
AcDbEntity
  8
DRAFT
100
AcDbLine
 62
7
  6
CONTINUOUS
 10
8.7
 20
15.3
 11
9.7978878702
 21
15.3
  0
LINE
  5
494
100
AcDbEntity
  8
ASSI
100
AcDbLine
 62
7
  6
CONTINUOUS
 10
8.7
 20
15.3
 11
9.7978878702
 21
15.3
  0
LINE
  5
495
100
AcDbEntity
  8
RACCORDO
100
AcDbLine
 62
7
  6
CONTINUOUS
 10
9.5968462994
 20
15.3044975405
 11
8.7
 21
15.3044975405
  0
LINE
  5
496
100
AcDbEntity
  8
ASSI
100
AcDbLine
 62
7
  6
CONTINUOUS
 10
9.5968462994
 20
15.3044975405
 11
8.7
 21
15.3044975405
  0
LINE
  5
497
100
AcDbEntity
  8
RACCORDO
100
AcDbLine
 62
7
  6
CONTINUOUS
 10
-8.7
 20
15.3044975405
 11
-9.5968462994
 21
15.3044975405
  0
LINE
  5
498
100
AcDbEntity
  8
ASSI
100
AcDbLine
 62
7
  6
CONTINUOUS
 10
-8.7
 20
15.3044975405
 11
-9.5968462994
 21
15.3044975405
  0
LINE
  5
499
100
AcDbEntity
  8
RACCORDO
100
AcDbLine
 62
7
  6
CONTINUOUS
 10
9.7978878702
 20
15.3
 11
9.7968219358
 21
15.3010659344
  0
LINE
  5
49A
100
AcDbEntity
  8
ASSI
100
AcDbLine
 62
7
  6
CONTINUOUS
 10
9.7978878702
 20
15.3
 11
9.7968219358
 21
15.3010659344
  0
LINE
  5
49B
100
AcDbEntity
  8
DRAFT
100
AcDbLine
 62
7
  6
CONTINUOUS
 10
7.0
 20
19.95
 11
9.5546168312
 21
20.343017974
  0
LINE
  5
49C
100
AcDbEntity
  8
ASSI
100
AcDbLine
 62
7
  6
CONTINUOUS
 10
7.0
 20
19.95
 11
9.5546168312
 21
20.343017974
  0
LINE
  5
49D
100
AcDbEntity
  8
RACCORDO
100
AcDbLine
 62
7
  6
CONTINUOUS
 10
5.088207305
 20
18.5
 11
4.911792695
 21
18.5
  0
LINE
  5
49E
100
AcDbEntity
  8
ASSI
100
AcDbLine
 62
7
  6
CONTINUOUS
 10
5.088207305
 20
18.5
 11
4.911792695
 21
18.5
  0
LINE
  5
49F
100
AcDbEntity
  8
RACCORDO
100
AcDbLine
 62
7
  6
CONTINUOUS
 10
-4.911792695
 20
18.5
 11
-5.088207305
 21
18.5
  0
LINE
  5
4A0
100
AcDbEntity
  8
ASSI
100
AcDbLine
 62
7
  6
CONTINUOUS
 10
-4.911792695
 20
18.5
 11
-5.088207305
 21
18.5
  0
LINE
  5
4A1
100
AcDbEntity
  8
RACCORDO
100
AcDbLine
 62
253
  6
CONTINUOUS
 10
5.3881958819
 20
18.8
 11
4.6118041181
 21
18.8
  0
LINE
  5
4A2
100
AcDbEntity
  8
ASSI
100
AcDbLine
 62
253
  6
CONTINUOUS
 10
5.3881958819
 20
18.8
 11
4.6118041181
 21
18.8
  0
LINE
  5
4A3
100
AcDbEntity
  8
RACCORDO
100
AcDbLine
 62
253
  6
CONTINUOUS
 10
-4.6118041181
 20
18.8
 11
-5.3881958819
 21
18.8
  0
LINE
  5
4A4
100
AcDbEntity
  8
ASSI
100
AcDbLine
 62
253
  6
CONTINUOUS
 10
-4.6118041181
 20
18.8
 11
-5.3881958819
 21
18.8
  0
LINE
  5
4A5
100
AcDbEntity
  8
RACCORDO
100
AcDbLine
 62
7
  6
CONTINUOUS
 10
5.088207305
 20
19.3
 11
4.911792695
 21
19.3
  0
LINE
  5
4A6
100
AcDbEntity
  8
ASSI
100
AcDbLine
 62
7
  6
CONTINUOUS
 10
5.088207305
 20
19.3
 11
4.911792695
 21
19.3
  0
LINE
  5
4A7
100
AcDbEntity
  8
RACCORDO
100
AcDbLine
 62
7
  6
CONTINUOUS
 10
-4.911792695
 20
19.3
 11
-5.088207305
 21
19.3
  0
LINE
  5
4A8
100
AcDbEntity
  8
ASSI
100
AcDbLine
 62
7
  6
CONTINUOUS
 10
-4.911792695
 20
19.3
 11
-5.088207305
 21
19.3
  0
LINE
  5
4A9
100
AcDbEntity
  8
RACCORDO
100
AcDbLine
 62
253
  6
CONTINUOUS
 10
5.0777350636
 20
19.4323546024
 11
4.9222649364
 21
19.4323546024
  0
LINE
  5
4AA
100
AcDbEntity
  8
ASSI
100
AcDbLine
 62
253
  6
CONTINUOUS
 10
5.0777350636
 20
19.4323546024
 11
4.9222649364
 21
19.4323546024
  0
LINE
  5
4AB
100
AcDbEntity
  8
RACCORDO
100
AcDbLine
 62
253
  6
CONTINUOUS
 10
-4.9222649364
 20
19.4323546024
 11
-5.0777350636
 21
19.4323546024
  0
LINE
  5
4AC
100
AcDbEntity
  8
ASSI
100
AcDbLine
 62
253
  6
CONTINUOUS
 10
-4.9222649364
 20
19.4323546024
 11
-5.0777350636
 21
19.4323546024
  0
LINE
  5
4AD
100
AcDbEntity
  8
DRAFT
100
AcDbLine
 62
7
  6
CONTINUOUS
 10
4.6
 20
19.6948597355
 11
-4.6
 21
19.6948597355
  0
LINE
  5
4AE
100
AcDbEntity
  8
ASSI
100
AcDbLine
 62
7
  6
CONTINUOUS
 10
4.6
 20
19.6948597355
 11
-4.6
 21
19.6948597355
  0
LINE
  5
4AF
100
AcDbEntity
  8
RACCORDO
100
AcDbLine
 62
7
  6
CONTINUOUS
 10
9.6013484175
 20
19.69485748
 11
5.4
 21
19.6948597355
  0
LINE
  5
4B0
100
AcDbEntity
  8
ASSI
100
AcDbLine
 62
7
  6
CONTINUOUS
 10
9.6013484175
 20
19.69485748
 11
5.4
 21
19.6948597355
  0
LINE
  5
4B1
100
AcDbEntity
  8
RACCORDO
100
AcDbLine
 62
7
  6
CONTINUOUS
 10
-5.4
 20
19.6948597355
 11
-9.6013484175
 21
19.69485748
  0
LINE
  5
4B2
100
AcDbEntity
  8
ASSI
100
AcDbLine
 62
7
  6
CONTINUOUS
 10
-5.4
 20
19.6948597355
 11
-9.6013484175
 21
19.69485748
  0
LINE
  5
4B3
100
AcDbEntity
  8
RACCORDO
100
AcDbLine
 62
253
  6
CONTINUOUS
 10
5.3777236405
 20
19.729435023
 11
4.6222763595
 21
19.729435023
  0
LINE
  5
4B4
100
AcDbEntity
  8
ASSI
100
AcDbLine
 62
253
  6
CONTINUOUS
 10
5.3777236405
 20
19.729435023
 11
4.6222763595
 21
19.729435023
  0
LINE
  5
4B5
100
AcDbEntity
  8
RACCORDO
100
AcDbLine
 62
253
  6
CONTINUOUS
 10
-4.6222763595
 20
19.729435023
 11
-5.3777236405
 21
19.729435023
  0
LINE
  5
4B6
100
AcDbEntity
  8
ASSI
100
AcDbLine
 62
253
  6
CONTINUOUS
 10
-4.6222763595
 20
19.729435023
 11
-5.3777236405
 21
19.729435023
  0
LINE
  5
4B7
100
AcDbEntity
  8
SUPERFICI
100
AcDbLine
 62
7
  6
CONTINUOUS
 10
6.4
 20
19.95
 11
7.0
 21
19.95
  0
LINE
  5
4B8
100
AcDbEntity
  8
ASSI
100
AcDbLine
 62
7
  6
CONTINUOUS
 10
6.4
 20
19.95
 11
7.0
 21
19.95
  0
LINE
  5
4B9
100
AcDbEntity
  8
SUPERFICI
100
AcDbLine
 62
7
  6
CONTINUOUS
 10
-6.4
 20
19.95
 11
-7.0
 21
19.95
  0
LINE
  5
4BA
100
AcDbEntity
  8
ASSI
100
AcDbLine
 62
7
  6
CONTINUOUS
 10
-6.4
 20
19.95
 11
-7.0
 21
19.95
  0
LINE
  5
4BB
100
AcDbEntity
  8
RACCORDO
100
AcDbLine
 62
253
  6
CONTINUOUS
 10
-6.3999999913
 20
19.9530815119
 11
-5.4
 21
19.9530786912
  0
LINE
  5
4BC
100
AcDbEntity
  8
ASSI
100
AcDbLine
 62
253
  6
CONTINUOUS
 10
-6.4000011196
 20
19.9530815119
 11
-5.4
 21
19.9530786912
  0
LINE
  5
4BD
100
AcDbEntity
  8
RACCORDO
100
AcDbLine
 62
253
  6
CONTINUOUS
 10
5.4
 20
19.9530786912
 11
6.3999999966
 21
19.9530798102
  0
LINE
  5
4BE
100
AcDbEntity
  8
ASSI
100
AcDbLine
 62
253
  6
CONTINUOUS
 10
5.4
 20
19.9530786912
 11
6.4000004441
 21
19.9530798102
  0
LINE
  5
4BF
100
AcDbEntity
  8
RACCORDO
100
AcDbLine
 62
253
  6
CONTINUOUS
 10
-9.8013179566
 20
19.9530786912
 11
-7.0200411956
 21
19.9530832609
  0
LINE
  5
4C0
100
AcDbEntity
  8
ASSI
100
AcDbLine
 62
253
  6
CONTINUOUS
 10
-9.8013179566
 20
19.9530786912
 11
-6.9999999913
 21
19.9530832043
  0
LINE
  5
4C1
100
AcDbEntity
  8
RACCORDO
100
AcDbLine
 62
253
  6
CONTINUOUS
 10
9.8013179566
 20
19.9530786912
 11
7.020023276
 21
19.953080504
  0
LINE
  5
4C2
100
AcDbEntity
  8
ASSI
100
AcDbLine
 62
253
  6
CONTINUOUS
 10
9.8013179566
 20
19.9530786912
 11
6.9999999966
 21
19.9530804816
  0
LINE
  5
4C3
100
AcDbEntity
  8
RACCORDO
100
AcDbLine
 62
253
  6
CONTINUOUS
 10
-4.6
 20
19.9530786912
 11
4.6
 21
19.9530786912
  0
LINE
  5
4C4
100
AcDbEntity
  8
ASSI
100
AcDbLine
 62
253
  6
CONTINUOUS
 10
-4.6
 20
19.9530786912
 11
4.6
 21
19.9530786912
  0
LINE
  5
4C5
100
AcDbEntity
  8
RACCORDO
100
AcDbLine
 62
253
  6
CONTINUOUS
 10
-9.5546168313
 20
20.2530330065
 11
-8.9697145359
 21
20.2530330055
  0
LINE
  5
4C6
100
AcDbEntity
  8
ASSI
100
AcDbLine
 62
253
  6
CONTINUOUS
 10
-9.6030634675
 20
20.2530330065
 11
-8.9697145359
 21
20.2530330055
  0
LINE
  5
4C7
100
AcDbEntity
  8
RACCORDO
100
AcDbLine
 62
253
  6
CONTINUOUS
 10
-6.4000000002
 20
20.2530330014
 11
-5.3974276311
 21
20.2530329998
  0
LINE
  5
4C8
100
AcDbEntity
  8
ASSI
100
AcDbLine
 62
253
  6
CONTINUOUS
 10
-6.4000000002
 20
20.2530330014
 11
-5.3974276311
 21
20.2530329998
  0
LINE
  5
4C9
100
AcDbEntity
  8
RACCORDO
100
AcDbLine
 62
253
  6
CONTINUOUS
 10
-4.6025723689
 20
20.2530329998
 11
4.6025723689
 21
20.2530329998
  0
LINE
  5
4CA
100
AcDbEntity
  8
ASSI
100
AcDbLine
 62
253
  6
CONTINUOUS
 10
-4.6025723689
 20
20.2530329998
 11
4.6025723689
 21
20.2530329998
  0
LINE
  5
4CB
100
AcDbEntity
  8
RACCORDO
100
AcDbLine
 62
253
  6
CONTINUOUS
 10
5.3974276311
 20
20.2530329998
 11
6.4
 21
20.2530329998
  0
LINE
  5
4CC
100
AcDbEntity
  8
ASSI
100
AcDbLine
 62
253
  6
CONTINUOUS
 10
5.3974276311
 20
20.2530329998
 11
6.4
 21
20.2530329998
  0
LINE
  5
4CD
100
AcDbEntity
  8
RACCORDO
100
AcDbLine
 62
253
  6
CONTINUOUS
 10
8.9697144986
 20
20.2530329998
 11
9.5546168312
 21
20.2530329998
  0
LINE
  5
4CE
100
AcDbEntity
  8
ASSI
100
AcDbLine
 62
253
  6
CONTINUOUS
 10
8.9697144986
 20
20.2530329998
 11
9.6030634608
 21
20.2530329998
  0
LINE
  5
4CF
100
AcDbEntity
  8
DRAFT
100
AcDbLine
 62
7
  6
CONTINUOUS
 10
-7.0
 20
19.95
 11
-9.5546168312
 21
20.343017974
  0
LINE
  5
4D0
100
AcDbEntity
  8
ASSI
100
AcDbLine
 62
7
  6
CONTINUOUS
 10
-7.0
 20
19.95
 11
-9.5546168312
 21
20.343017974
  0
LINE
  5
4D1
100
AcDbEntity
  8
RACCORDO
100
AcDbLine
 62
7
  6
CONTINUOUS
 10
5.0777350636
 20
20.2976348052
 11
4.9222649364
 21
20.2976348052
  0
LINE
  5
4D2
100
AcDbEntity
  8
ASSI
100
AcDbLine
 62
7
  6
CONTINUOUS
 10
5.0777350636
 20
20.2976348052
 11
4.9222649364
 21
20.2976348052
  0
LINE
  5
4D3
100
AcDbEntity
  8
RACCORDO
100
AcDbLine
 62
7
  6
CONTINUOUS
 10
-4.9222649364
 20
20.2976348052
 11
-5.0777350636
 21
20.2976348052
  0
LINE
  5
4D4
100
AcDbEntity
  8
ASSI
100
AcDbLine
 62
7
  6
CONTINUOUS
 10
-4.9222649364
 20
20.2976348052
 11
-5.0777350636
 21
20.2976348052
  0
LINE
  5
4D5
100
AcDbEntity
  8
DRAFT
100
AcDbLine
 62
7
  6
CONTINUOUS
 10
-2.5
 20
20.3447634805
 11
0.0
 21
20.3447634805
  0
LINE
  5
4D6
100
AcDbEntity
  8
ASSI
100
AcDbLine
 62
7
  6
CONTINUOUS
 10
-2.5
 20
20.3447634805
 11
0.0
 21
20.3447634805
  0
LINE
  5
4D7
100
AcDbEntity
  8
RACCORDO
100
AcDbLine
 62
7
  6
CONTINUOUS
 10
9.700030461
 20
20.35
 11
7.0
 21
20.35
  0
LINE
  5
4D8
100
AcDbEntity
  8
DRAFT
100
AcDbLine
 62
7
  6
CONTINUOUS
 10
0.0
 20
20.35
 11
7.0
 21
20.35
  0
LINE
  5
4D9
100
AcDbEntity
  8
ASSI
100
AcDbLine
 62
7
  6
CONTINUOUS
 10
0.0
 20
20.35
 11
9.700030461
 21
20.35
  0
LINE
  5
4DA
100
AcDbEntity
  8
DRAFT
100
AcDbLine
 62
7
  6
CONTINUOUS
 10
-2.5
 20
20.35
 11
-7.0
 21
20.35
  0
LINE
  5
4DB
100
AcDbEntity
  8
RACCORDO
100
AcDbLine
 62
7
  6
CONTINUOUS
 10
-7.0
 20
20.35
 11
-9.700030461
 21
20.35
  0
LINE
  5
4DC
100
AcDbEntity
  8
ASSI
100
AcDbLine
 62
7
  6
CONTINUOUS
 10
-2.5
 20
20.35
 11
-9.700030461
 21
20.35
  0
LINE
  5
4DD
100
AcDbEntity
  8
0
100
AcDbLine
 62
7
  6
CONTINUOUS
 10
-2.5
 20
21.55
 11
0.0
 21
21.55
  0
LINE
  5
4DE
100
AcDbEntity
  8
ASSI
100
AcDbLine
 62
7
  6
CONTINUOUS
 10
-2.5
 20
21.55
 11
0.0
 21
21.55
  0
LINE
  5
4DF
100
AcDbEntity
  8
RACCORDO
100
AcDbLine
 62
7
  6
CONTINUOUS
 10
10.1001218439
 20
21.65
 11
-10.1001218439
 21
21.65
  0
LINE
  5
4E0
100
AcDbEntity
  8
ASSI
100
AcDbLine
 62
7
  6
CONTINUOUS
 10
10.1001218439
 20
21.65
 11
-10.1001218439
 21
21.65
  0
ARC
  5
4E1
100
AcDbEntity
  8
RACCORDO
100
AcDbCircle
 62
253
  6
CONTINUOUS
 10
-48.4740276969
 20
-19.9691258476
 40
38.8726693965
100
AcDbArc
 50
359.7274037871
 51
359.9460439242
  0
ARC
  5
4E2
100
AcDbEntity
  8
RACCORDO
100
AcDbCircle
 62
253
  6
CONTINUOUS
 10
-2.0904179006
 20
-665.7437292855
 40
645.4930257017
100
AcDbArc
 50
90.0008505341
 51
90.1249006039
  0
ARC
  5
4E3
100
AcDbEntity
  8
ASSI
100
AcDbCircle
 62
253
  6
CONTINUOUS
 10
-2.0925377819
 20
-663.8119741673
 40
643.5612705557
100
AcDbArc
 50
90.0006643557
 51
90.1250867823
  0
ARC
  5
4E4
100
AcDbEntity
  8
RACCORDO
100
AcDbCircle
 62
253
  6
CONTINUOUS
 10
-7.204289493
 20
-24.4479044406
 40
16.6746685964
100
AcDbArc
 50
34.513627276
 51
34.6593767478
  0
ARC
  5
4E5
100
AcDbEntity
  8
ASSI
100
AcDbCircle
 62
253
  6
CONTINUOUS
 10
-7.204289493
 20
-24.4479044406
 40
16.6746685964
100
AcDbArc
 50
34.513627276
 51
34.6593767478
  0
ARC
  5
4E6
100
AcDbEntity
  8
RACCORDO
100
AcDbCircle
 62
7
  6
CONTINUOUS
 10
-6.5355737134
 20
-14.7002974034
 40
0.299702607
100
AcDbArc
 50
200.9574046296
 51
270.0150719585
  0
ARC
  5
4E7
100
AcDbEntity
  8
ASSI
100
AcDbCircle
 62
7
  6
CONTINUOUS
 10
-6.5355737134
 20
-14.7002974034
 40
0.299702607
100
AcDbArc
 50
200.9574046296
 51
270.0150719585
  0
ARC
  5
4E8
100
AcDbEntity
  8
RACCORDO
100
AcDbCircle
 62
7
  6
CONTINUOUS
 10
-6.5114966209
 20
-14.6653774475
 40
0.2997017937
100
AcDbArc
 50
200.6657158554
 51
270.0152617946
  0
ARC
  5
4E9
100
AcDbEntity
  8
ASSI
100
AcDbCircle
 62
7
  6
CONTINUOUS
 10
-6.5114966209
 20
-14.6653774475
 40
0.2997017937
100
AcDbArc
 50
200.6657158554
 51
270.0152617946
  0
ARC
  5
4EA
100
AcDbEntity
  8
RACCORDO
100
AcDbCircle
 62
253
  6
CONTINUOUS
 10
-9.6030519306
 20
-20.0530519306
 40
0.1999810695
100
AcDbArc
 50
180.0033034671
 51
269.9966965329
  0
ARC
  5
4EB
100
AcDbEntity
  8
ASSI
100
AcDbCircle
 62
253
  6
CONTINUOUS
 10
-9.6030519306
 20
-20.0530519306
 40
0.1999810695
100
AcDbArc
 50
180.0033034671
 51
269.9966965329
  0
ARC
  5
4EC
100
AcDbEntity
  8
RACCORDO
100
AcDbCircle
 62
7
  6
CONTINUOUS
 10
-6.0661197239
 20
-14.7848801675
 40
0.1992661278
100
AcDbArc
 50
17.2055685945
 51
19.7988832699
  0
ARC
  5
4ED
100
AcDbEntity
  8
ASSI
100
AcDbCircle
 62
7
  6
CONTINUOUS
 10
-6.0600553151
 20
-14.7775106838
 40
0.1960081794
100
AcDbArc
 50
300.1660172309
 51
310.5575627433
  0
ARC
  5
4EE
100
AcDbEntity
  8
ASSI
100
AcDbCircle
 62
7
  6
CONTINUOUS
 10
-6.0603348181
 20
-14.7829052223
 40
0.1931559878
100
AcDbArc
 50
17.1535441036
 51
24.174720828
  0
ARC
  5
4EF
100
AcDbEntity
  8
ASSI
100
AcDbCircle
 62
7
  6
CONTINUOUS
 10
-6.0560927612
 20
-14.7822124853
 40
0.189859478
100
AcDbArc
 50
310.571626775
 51
319.0541284284
  0
ARC
  5
4F0
100
AcDbEntity
  8
RACCORDO
100
AcDbCircle
 62
7
  6
CONTINUOUS
 10
-6.0568403178
 20
-14.7814690857
 40
0.1893798632
100
AcDbArc
 50
19.778816344
 51
24.2112926819
  0
ARC
  5
4F1
100
AcDbEntity
  8
RACCORDO
100
AcDbCircle
 62
253
  6
CONTINUOUS
 10
-7.2042894912
 20
-1.5520955606
 40
16.6746685942
100
AcDbArc
 50
325.3406232522
 51
325.486372724
  0
ARC
  5
4F2
100
AcDbEntity
  8
ASSI
100
AcDbCircle
 62
253
  6
CONTINUOUS
 10
-7.2042894912
 20
-1.5520955606
 40
16.6746685942
100
AcDbArc
 50
325.3406232522
 51
325.486372724
  0
ARC
  5
4F3
100
AcDbEntity
  8
DRAFT
100
AcDbCircle
 62
7
  6
CONTINUOUS
 10
-11.9
 20
-7.5
 40
2.0
100
AcDbArc
 50
0.0
 51
49.4583981265
  0
ARC
  5
4F4
100
AcDbEntity
  8
ASSI
100
AcDbCircle
 62
7
  6
CONTINUOUS
 10
-11.9
 20
-7.5
 40
2.0
100
AcDbArc
 50
0.0
 51
49.4583981265
  0
ARC
  5
4F5
100
AcDbEntity
  8
ASSI
100
AcDbCircle
 62
7
  6
CONTINUOUS
 10
-8.7000025704
 20
-9.9998196711
 40
0.3084204557
100
AcDbArc
 50
270.0004775101
 51
89.9995224899
  0
ARC
  5
4F6
100
AcDbEntity
  8
DRAFT
100
AcDbCircle
 62
7
  6
CONTINUOUS
 10
-8.6999993846
 20
-9.9998196711
 40
0.3083856944
100
AcDbArc
 50
269.9998856746
 51
90.0001143254
  0
ARC
  5
4F7
100
AcDbEntity
  8
DRAFT
100
AcDbCircle
 62
7
  6
CONTINUOUS
 10
-8.7
 20
-10.0
 40
0.3
100
AcDbArc
 50
270.0
 51
90.0
  0
ARC
  5
4F8
100
AcDbEntity
  8
ASSI
100
AcDbCircle
 62
7
  6
CONTINUOUS
 10
-8.7
 20
-10.0
 40
0.3
100
AcDbArc
 50
270.0
 51
90.0
  0
ARC
  5
4F9
100
AcDbEntity
  8
ASSI
100
AcDbCircle
 62
7
  6
CONTINUOUS
 10
-6.0843390304
 20
-9.6830113547
 40
0.2999514112
100
AcDbArc
 50
140.2221826492
 51
180.0002002243
  0
ARC
  5
4FA
100
AcDbEntity
  8
ASSI
100
AcDbCircle
 62
7
  6
CONTINUOUS
 10
-6.082593525
 20
-9.6836428932
 40
0.2999514101
100
AcDbArc
 50
140.2152017753
 51
180.0002003365
  0
ARC
  5
4FB
100
AcDbEntity
  8
0
100
AcDbCircle
 62
7
  6
CONTINUOUS
 10
-6.0843725311
 20
-9.682999235
 40
0.2999179108
100
AcDbArc
 50
140.2198673061
 51
180.0025155674
  0
ARC
  5
4FC
100
AcDbEntity
  8
RACCORDO
100
AcDbCircle
 62
7
  6
CONTINUOUS
 10
-6.535573528
 20
-11.2997028662
 40
0.2997028765
100
AcDbArc
 50
89.9849634974
 51
159.0425599145
  0
ARC
  5
4FD
100
AcDbEntity
  8
ASSI
100
AcDbCircle
 62
7
  6
CONTINUOUS
 10
-6.535573528
 20
-11.2997028662
 40
0.2997028765
100
AcDbArc
 50
89.9849634974
 51
159.0425599145
  0
ARC
  5
4FE
100
AcDbEntity
  8
RACCORDO
100
AcDbCircle
 62
7
  6
CONTINUOUS
 10
-6.5114966209
 20
-11.3346225525
 40
0.2997017937
100
AcDbArc
 50
89.9847382057
 51
159.3342841443
  0
ARC
  5
4FF
100
AcDbEntity
  8
ASSI
100
AcDbCircle
 62
7
  6
CONTINUOUS
 10
-6.5114966209
 20
-11.3346225525
 40
0.2997017937
100
AcDbArc
 50
89.9847382057
 51
159.3342841443
  0
ARC
  5
500
100
AcDbEntity
  8
RACCORDO
100
AcDbCircle
 62
7
  6
CONTINUOUS
 10
-6.0639511625
 20
-11.2360604117
 40
0.2102871795
100
AcDbArc
 50
85.3736206555
 51
92.1219844132
  0
ARC
  5
501
100
AcDbEntity
  8
ASSI
100
AcDbCircle
 62
7
  6
CONTINUOUS
 10
-3.5187657575
 20
-13.1943708835
 40
15.4687470691
100
AcDbArc
 50
91.8366028113
 51
92.0542458236
  0
ARC
  5
502
100
AcDbEntity
  8
ASSI
100
AcDbCircle
 62
7
  6
CONTINUOUS
 10
-0.8582839263
 20
-15.4321220977
 40
6.4737452173
100
AcDbArc
 50
354.1423018232
 51
354.6470832573
  0
ARC
  5
503
100
AcDbEntity
  8
ASSI
100
AcDbCircle
 62
7
  6
CONTINUOUS
 10
-0.8347772331
 20
-15.5089476461
 40
6.4449400127
100
AcDbArc
 50
357.3656412417
 51
357.8878457622
  0
ARC
  5
504
100
AcDbEntity
  8
SMUSSO
100
AcDbCircle
 62
7
  6
CONTINUOUS
 10
0.2706737833
 20
-15.5488498902
 40
5.3387694874
100
AcDbArc
 50
354.1519498754
 51
357.8785407451
  0
ARC
  5
505
100
AcDbEntity
  8
ASSI
100
AcDbCircle
 62
7
  6
CONTINUOUS
 10
0.2821878898
 20
-15.5603291375
 40
5.326793715
100
AcDbArc
 50
356.7375502892
 51
357.3655250701
  0
ARC
  5
506
100
AcDbEntity
  8
ASSI
100
AcDbCircle
 62
7
  6
CONTINUOUS
 10
-0.2869360201
 20
-15.5631963739
 40
5.3219353969
100
AcDbArc
 50
182.6060189543
 51
183.2345498433
  0
ARC
  5
507
100
AcDbEntity
  8
ASSI
100
AcDbCircle
 62
7
  6
CONTINUOUS
 10
-0.9393470479
 20
-15.5951369221
 40
4.6687641055
100
AcDbArc
 50
183.294949584
 51
185.4191371465
  0
ARC
  5
508
100
AcDbEntity
  8
0
100
AcDbCircle
 62
253
  6
CONTINUOUS
 10
-2.0424402687
 20
-13.7394947553
 40
4.5130920903
100
AcDbArc
 50
132.5078373835
 51
134.1269082908
  0
ARC
  5
509
100
AcDbEntity
  8
ASSI
100
AcDbCircle
 62
253
  6
CONTINUOUS
 10
-2.0427673577
 20
-13.7391490244
 40
4.5126161893
100
AcDbArc
 50
132.3430844651
 51
134.1269835936
  0
ARC
  5
50A
100
AcDbEntity
  8
SMUSSO
100
AcDbCircle
 62
7
  6
CONTINUOUS
 10
-2.089924325
 20
-13.0380584425
 40
4.438121946
100
AcDbArc
 50
213.979373408
 51
214.8890916252
  0
ARC
  5
50B
100
AcDbEntity
  8
ASSI
100
AcDbCircle
 62
7
  6
CONTINUOUS
 10
-2.0942836372
 20
-13.0410957665
 40
4.4328094925
100
AcDbArc
 50
213.9783100134
 51
216.7057252511
  0
ARC
  5
50C
100
AcDbEntity
  8
SMUSSO
100
AcDbCircle
 62
7
  6
CONTINUOUS
 10
-2.0961169648
 20
-13.042232012
 40
4.430654184
100
AcDbArc
 50
213.0661616494
 51
213.9793752943
  0
ARC
  5
50D
100
AcDbEntity
  8
ASSI
100
AcDbCircle
 62
7
  6
CONTINUOUS
 10
-2.0961169648
 20
-13.042232012
 40
4.430654184
100
AcDbArc
 50
213.0661616494
 51
213.9793752943
  0
ARC
  5
50E
100
AcDbEntity
  8
SMUSSO
100
AcDbCircle
 62
7
  6
CONTINUOUS
 10
-2.0969379095
 20
-13.0430346739
 40
4.4295226251
100
AcDbArc
 50
214.8881847627
 51
216.7061394234
  0
ARC
  5
50F
100
AcDbEntity
  8
SMUSSO
100
AcDbCircle
 62
7
  6
CONTINUOUS
 10
-2.1031571285
 20
-13.0468152609
 40
4.4222535843
100
AcDbArc
 50
212.1490389214
 51
213.0661644023
  0
ARC
  5
510
100
AcDbEntity
  8
ASSI
100
AcDbCircle
 62
7
  6
CONTINUOUS
 10
-2.1031571285
 20
-13.0468152609
 40
4.4222535843
100
AcDbArc
 50
212.1490389214
 51
213.0661644023
  0
ARC
  5
511
100
AcDbEntity
  8
0
100
AcDbCircle
 62
253
  6
CONTINUOUS
 10
-2.0443789414
 20
-13.840050118
 40
4.4134273231
100
AcDbArc
 50
132.3175127313
 51
133.9311681109
  0
ARC
  5
512
100
AcDbEntity
  8
ASSI
100
AcDbCircle
 62
253
  6
CONTINUOUS
 10
-2.0446865345
 20
-13.839722549
 40
4.4129780104
100
AcDbArc
 50
132.1533317116
 51
133.931242698
  0
ARC
  5
513
100
AcDbEntity
  8
SMUSSO
100
AcDbCircle
 62
7
  6
CONTINUOUS
 10
-2.1125380401
 20
-13.0545991944
 40
4.410103578
100
AcDbArc
 50
216.7068274807
 51
217.6177457781
  0
ARC
  5
514
100
AcDbEntity
  8
ASSI
100
AcDbCircle
 62
7
  6
CONTINUOUS
 10
-2.1125380401
 20
-13.0545991944
 40
4.410103578
100
AcDbArc
 50
216.7068274807
 51
217.6177457781
  0
ARC
  5
515
100
AcDbEntity
  8
DRAFT
100
AcDbCircle
 62
7
  6
CONTINUOUS
 10
-4.95
 20
-17.35
 40
0.310473039
100
AcDbArc
 50
0.0
 51
180.0
  0
ARC
  5
516
100
AcDbEntity
  8
ASSI
100
AcDbCircle
 62
7
  6
CONTINUOUS
 10
-4.95
 20
-17.35
 40
0.310473039
100
AcDbArc
 50
20.6703651392
 51
180.0
  0
ARC
  5
517
100
AcDbEntity
  8
DRAFT
100
AcDbCircle
 62
7
  6
CONTINUOUS
 10
-4.95
 20
-17.35
 40
0.3
100
AcDbArc
 50
0.0
 51
180.0
  0
ARC
  5
518
100
AcDbEntity
  8
ASSI
100
AcDbCircle
 62
7
  6
CONTINUOUS
 10
-4.95
 20
-17.35
 40
0.3
100
AcDbArc
 50
0.0
 51
180.0
  0
ARC
  5
519
100
AcDbEntity
  8
ASSI
100
AcDbCircle
 62
7
  6
CONTINUOUS
 10
-3.9913255984
 20
-17.8345370977
 40
0.2999468692
100
AcDbArc
 50
179.9990299922
 51
248.6350266867
  0
ARC
  5
51A
100
AcDbEntity
  8
ASSI
100
AcDbCircle
 62
7
  6
CONTINUOUS
 10
-4.1895815177
 20
-17.7503058228
 40
0.2999454434
100
AcDbArc
 50
179.9988948791
 51
246.2572633304
  0
ARC
  5
51B
100
AcDbEntity
  8
0
100
AcDbCircle
 62
7
  6
CONTINUOUS
 10
-3.9913277845
 20
-17.83453859
 40
0.2999446831
100
AcDbArc
 50
179.9987449393
 51
248.6353117396
  0
ARC
  5
51C
100
AcDbEntity
  8
RACCORDO
100
AcDbCircle
 62
7
  6
CONTINUOUS
 10
-2.1
 20
-13.0
 40
7.250334529
100
AcDbArc
 50
249.4081858812
 51
258.6339132327
  0
ARC
  5
51D
100
AcDbEntity
  8
ASSI
100
AcDbCircle
 62
7
  6
CONTINUOUS
 10
-2.1
 20
-13.0
 40
7.250334529
100
AcDbArc
 50
249.4081858812
 51
258.6339132327
  0
ARC
  5
51E
100
AcDbEntity
  8
DRAFT
100
AcDbCircle
 62
7
  6
CONTINUOUS
 10
-2.1
 20
-13.0
 40
6.2901338116
100
AcDbArc
 50
209.4519765641
 51
239.8378259567
  0
ARC
  5
51F
100
AcDbEntity
  8
DRAFT
100
AcDbCircle
 62
7
  6
CONTINUOUS
 10
-2.1
 20
-13.0
 40
6.2901338116
100
AcDbArc
 50
246.1883212575
 51
270.0
  0
ARC
  5
520
100
AcDbEntity
  8
ASSI
100
AcDbCircle
 62
7
  6
CONTINUOUS
 10
-2.1
 20
-13.0
 40
6.2901338116
100
AcDbArc
 50
209.4519765641
 51
239.8378259567
  0
ARC
  5
521
100
AcDbEntity
  8
ASSI
100
AcDbCircle
 62
7
  6
CONTINUOUS
 10
-2.1
 20
-13.0
 40
6.2901338116
100
AcDbArc
 50
246.1883212575
 51
270.0
  0
ARC
  5
522
100
AcDbEntity
  8
0
100
AcDbCircle
 62
7
  6
CONTINUOUS
 10
-2.1
 20
-13.0
 40
5.65
100
AcDbArc
 50
122.9557802664
 51
205.1366605176
  0
ARC
  5
523
100
AcDbEntity
  8
ASSI
100
AcDbCircle
 62
7
  6
CONTINUOUS
 10
-2.1
 20
-13.0
 40
5.65
100
AcDbArc
 50
122.9557802664
 51
205.1366605176
  0
ARC
  5
524
100
AcDbEntity
  8
0
100
AcDbCircle
 62
7
  6
CONTINUOUS
 10
-2.1
 20
-13.0
 40
5.4912724675
100
AcDbArc
 50
248.6340566799
 51
270.0
  0
ARC
  5
525
100
AcDbEntity
  8
ASSI
100
AcDbCircle
 62
7
  6
CONTINUOUS
 10
-2.1
 20
-13.0
 40
5.489526961
100
AcDbArc
 50
246.2561582095
 51
270.0
  0
ARC
  5
526
100
AcDbEntity
  8
0
100
AcDbCircle
 62
7
  6
CONTINUOUS
 10
-2.1
 20
-13.0
 40
5.4842904416
100
AcDbArc
 50
90.0
 51
140.2223828735
  0
ARC
  5
527
100
AcDbEntity
  8
ASSI
100
AcDbCircle
 62
7
  6
CONTINUOUS
 10
-2.1
 20
-13.0
 40
5.4825449351
100
AcDbArc
 50
90.0
 51
140.2154021118
  0
ARC
  5
528
100
AcDbEntity
  8
RACCORDO
100
AcDbCircle
 62
7
  6
CONTINUOUS
 10
-2.1
 20
-13.0
 40
5.0150792305
100
AcDbArc
 50
159.3190223499
 51
200.6809776501
  0
ARC
  5
529
100
AcDbEntity
  8
ASSI
100
AcDbCircle
 62
7
  6
CONTINUOUS
 10
-2.1
 20
-13.0
 40
5.0150792305
100
AcDbArc
 50
159.3190223499
 51
200.6809776501
  0
ARC
  5
52A
100
AcDbEntity
  8
SMUSSO
100
AcDbCircle
 62
7
  6
CONTINUOUS
 10
-2.1
 20
-13.0
 40
4.657221896
100
AcDbArc
 50
221.615267884
 51
238.957606377
  0
ARC
  5
52B
100
AcDbEntity
  8
ASSI
100
AcDbCircle
 62
7
  6
CONTINUOUS
 10
-2.1
 20
-13.0
 40
4.657221896
100
AcDbArc
 50
221.615267884
 51
238.957606377
  0
ARC
  5
52C
100
AcDbEntity
  8
SMUSSO
100
AcDbCircle
 62
7
  6
CONTINUOUS
 10
-2.1
 20
-13.0
 40
4.650247451
100
AcDbArc
 50
147.3228640362
 51
154.5256157391
  0
ARC
  5
52D
100
AcDbEntity
  8
ASSI
100
AcDbCircle
 62
7
  6
CONTINUOUS
 10
-2.1
 20
-13.0
 40
4.650247451
100
AcDbArc
 50
147.3228640362
 51
154.5256157391
  0
ARC
  5
52E
100
AcDbEntity
  8
SMUSSO
100
AcDbCircle
 62
7
  6
CONTINUOUS
 10
-2.1
 20
-13.0
 40
4.6501369129
100
AcDbArc
 50
155.0013008965
 51
204.9986991035
  0
ARC
  5
52F
100
AcDbEntity
  8
ASSI
100
AcDbCircle
 62
7
  6
CONTINUOUS
 10
-2.1
 20
-13.0
 40
4.6501369129
100
AcDbArc
 50
155.0013008965
 51
204.9986991035
  0
ARC
  5
530
100
AcDbEntity
  8
0
100
AcDbCircle
 62
253
  6
CONTINUOUS
 10
-2.042440945
 20
-12.260505947
 40
4.5130911154
100
AcDbArc
 50
225.8730916642
 51
227.4921629253
  0
ARC
  5
531
100
AcDbEntity
  8
ASSI
100
AcDbCircle
 62
253
  6
CONTINUOUS
 10
-2.0427668052
 20
-12.260850388
 40
4.5126169957
100
AcDbArc
 50
225.8730165658
 51
227.6569153755
  0
ARC
  5
532
100
AcDbEntity
  8
SMUSSO
100
AcDbCircle
 62
7
  6
CONTINUOUS
 10
-2.1
 20
-13.0
 40
4.4534946172
100
AcDbArc
 50
145.6949857633
 51
153.2142589725
  0
ARC
  5
533
100
AcDbEntity
  8
ASSI
100
AcDbCircle
 62
7
  6
CONTINUOUS
 10
-2.1
 20
-13.0
 40
4.4534946172
100
AcDbArc
 50
145.6949857633
 51
153.2142589725
  0
ARC
  5
534
100
AcDbEntity
  8
SMUSSO
100
AcDbCircle
 62
7
  6
CONTINUOUS
 10
-2.1
 20
-13.0
 40
4.4534875415
100
AcDbArc
 50
218.0753500692
 51
237.3746915521
  0
ARC
  5
535
100
AcDbEntity
  8
ASSI
100
AcDbCircle
 62
7
  6
CONTINUOUS
 10
-2.1
 20
-13.0
 40
4.4534875415
100
AcDbArc
 50
218.0753500692
 51
237.3746915521
  0
ARC
  5
536
100
AcDbEntity
  8
0
100
AcDbCircle
 62
7
  6
CONTINUOUS
 10
-2.1
 20
-13.0
 40
4.45
100
AcDbArc
 50
206.7076453021
 51
212.6377578227
  0
ARC
  5
537
100
AcDbEntity
  8
ASSI
100
AcDbCircle
 62
7
  6
CONTINUOUS
 10
-2.1
 20
-13.0
 40
4.45
100
AcDbArc
 50
206.7076453021
 51
212.6377578227
  0
ARC
  5
538
100
AcDbEntity
  8
0
100
AcDbCircle
 62
253
  6
CONTINUOUS
 10
-2.0443790673
 20
-12.1599500184
 40
4.4134271376
100
AcDbArc
 50
226.0688318374
 51
227.6824872884
  0
ARC
  5
539
100
AcDbEntity
  8
ASSI
100
AcDbCircle
 62
253
  6
CONTINUOUS
 10
-2.0446864199
 20
-12.1602773283
 40
4.4129781782
100
AcDbArc
 50
226.0687573358
 51
227.8466682546
  0
ARC
  5
53A
100
AcDbEntity
  8
DRAFT
100
AcDbCircle
 62
7
  6
CONTINUOUS
 10
-2.1
 20
-13.0
 40
4.2912724675
100
AcDbArc
 50
206.9633147825
 51
215.6320551568
  0
ARC
  5
53B
100
AcDbEntity
  8
DRAFT
100
AcDbCircle
 62
7
  6
CONTINUOUS
 10
-2.1
 20
-13.0
 40
4.2912724675
100
AcDbArc
 50
144.3679448432
 51
153.0370354764
  0
ARC
  5
53C
100
AcDbEntity
  8
ASSI
100
AcDbCircle
 62
7
  6
CONTINUOUS
 10
-2.1
 20
-13.0
 40
4.2912724675
100
AcDbArc
 50
217.0825726889
 51
239.2938864662
  0
ARC
  5
53D
100
AcDbEntity
  8
ASSI
100
AcDbCircle
 62
7
  6
CONTINUOUS
 10
-2.1
 20
-13.0
 40
4.2912724675
100
AcDbArc
 50
206.9633147825
 51
215.6320551568
  0
ARC
  5
53E
100
AcDbEntity
  8
ASSI
100
AcDbCircle
 62
7
  6
CONTINUOUS
 10
-2.1
 20
-13.0
 40
4.2912724675
100
AcDbArc
 50
144.3679448432
 51
153.0370354764
  0
ARC
  5
53F
100
AcDbEntity
  8
ASSI
100
AcDbCircle
 62
7
  6
CONTINUOUS
 10
-2.1
 20
-13.0
 40
4.289526961
100
AcDbArc
 50
217.2468562611
 51
236.1472305843
  0
ARC
  5
540
100
AcDbEntity
  8
RACCORDO
100
AcDbCircle
 62
7
  6
CONTINUOUS
 10
-2.1
 20
-13.0
 40
4.15
100
AcDbArc
 50
155.7602867576
 51
204.2397132424
  0
ARC
  5
541
100
AcDbEntity
  8
ASSI
100
AcDbCircle
 62
7
  6
CONTINUOUS
 10
-2.1
 20
-13.0
 40
4.15
100
AcDbArc
 50
155.7602867576
 51
204.2397132424
  0
ARC
  5
542
100
AcDbEntity
  8
RACCORDO
100
AcDbCircle
 62
7
  6
CONTINUOUS
 10
-2.1
 20
-13.0
 40
3.8087275325
100
AcDbArc
 50
204.3673439084
 51
217.8759767342
  0
ARC
  5
543
100
AcDbEntity
  8
RACCORDO
100
AcDbCircle
 62
7
  6
CONTINUOUS
 10
-2.1
 20
-13.0
 40
3.8087275325
100
AcDbArc
 50
142.1240232645
 51
155.6326560913
  0
ARC
  5
544
100
AcDbEntity
  8
ASSI
100
AcDbCircle
 62
7
  6
CONTINUOUS
 10
-2.1
 20
-13.0
 40
3.8087275325
100
AcDbArc
 50
204.4088509536
 51
217.8759767342
  0
ARC
  5
545
100
AcDbEntity
  8
ASSI
100
AcDbCircle
 62
7
  6
CONTINUOUS
 10
-2.1
 20
-13.0
 40
3.8087275325
100
AcDbArc
 50
142.1240232645
 51
155.591149045
  0
ARC
  5
546
100
AcDbEntity
  8
0
100
AcDbCircle
 62
7
  6
CONTINUOUS
 10
-2.1
 20
-13.0
 40
3.7912724675
100
AcDbArc
 50
140.2684270119
 51
219.7315730292
  0
ARC
  5
547
100
AcDbEntity
  8
ASSI
100
AcDbCircle
 62
7
  6
CONTINUOUS
 10
-2.1
 20
-13.0
 40
3.7912724675
100
AcDbArc
 50
140.2684270119
 51
219.7315730292
  0
ARC
  5
548
100
AcDbEntity
  8
ASSI
100
AcDbCircle
 62
7
  6
CONTINUOUS
 10
-2.1
 20
-13.0
 40
3.789526961
100
AcDbArc
 50
140.0792135662
 51
219.9207864311
  0
ARC
  5
549
100
AcDbEntity
  8
RACCORDO
100
AcDbCircle
 62
253
  6
CONTINUOUS
 10
-43.2658093887
 20
19.983785811
 40
33.6644416139
100
AcDbArc
 50
0.0340085018
 51
0.2927293651
  0
ARC
  5
54A
100
AcDbEntity
  8
DRAFT
100
AcDbCircle
 62
7
  6
CONTINUOUS
 10
-11.9
 20
7.5
 40
2.0
100
AcDbArc
 50
310.5416018735
 51
360.0
  0
ARC
  5
54B
100
AcDbEntity
  8
ASSI
100
AcDbCircle
 62
7
  6
CONTINUOUS
 10
-11.9
 20
7.5
 40
2.0
100
AcDbArc
 50
310.5416018735
 51
360.0
  0
ARC
  5
54C
100
AcDbEntity
  8
ASSI
100
AcDbCircle
 62
7
  6
CONTINUOUS
 10
-8.7000026068
 20
14.9997325249
 40
0.3047650156
100
AcDbArc
 50
270.000490079
 51
89.999509921
  0
ARC
  5
54D
100
AcDbEntity
  8
DRAFT
100
AcDbCircle
 62
7
  6
CONTINUOUS
 10
-8.699999253
 20
14.9997325249
 40
0.3047305603
100
AcDbArc
 50
269.9998595669
 51
90.0001404331
  0
ARC
  5
54E
100
AcDbEntity
  8
DRAFT
100
AcDbCircle
 62
7
  6
CONTINUOUS
 10
-8.7
 20
15.0
 40
0.3
100
AcDbArc
 50
270.0
 51
90.0
  0
ARC
  5
54F
100
AcDbEntity
  8
ASSI
100
AcDbCircle
 62
7
  6
CONTINUOUS
 10
-8.7
 20
15.0
 40
0.3
100
AcDbArc
 50
270.0
 51
90.0
  0
ARC
  5
550
100
AcDbEntity
  8
RACCORDO
100
AcDbCircle
 62
253
  6
CONTINUOUS
 10
-9.6030519306
 20
20.0530519306
 40
0.1999810695
100
AcDbArc
 50
90.0033034666
 51
179.9966965334
  0
ARC
  5
551
100
AcDbEntity
  8
ASSI
100
AcDbCircle
 62
253
  6
CONTINUOUS
 10
-9.6030519306
 20
20.0530519306
 40
0.1999810695
100
AcDbArc
 50
90.0033034666
 51
179.9966965334
  0
ARC
  5
552
100
AcDbEntity
  8
ASSI
100
AcDbCircle
 62
7
  6
CONTINUOUS
 10
-3.6334359948
 20
15.6784891036
 40
12.1614446828
100
AcDbArc
 50
267.9274518611
 51
268.1642420866
  0
ARC
  5
553
100
AcDbEntity
  8
ASSI
100
AcDbCircle
 62
7
  6
CONTINUOUS
 10
-3.975635557
 20
3.5469187638
 40
1.2773476778
100
AcDbArc
 50
275.6921886563
 51
278.0244218869
  0
ARC
  5
554
100
AcDbEntity
  8
ASSI
100
AcDbCircle
 62
7
  6
CONTINUOUS
 10
-3.9721428408
 20
2.272119825
 40
1.2475427897
100
AcDbArc
 50
80.774634717
 51
84.2696432518
  0
ARC
  5
555
100
AcDbEntity
  8
ASSI
100
AcDbCircle
 62
7
  6
CONTINUOUS
 10
-3.9721428408
 20
3.5173151735
 40
1.2475427896
100
AcDbArc
 50
275.7303567481
 51
279.2253652829
  0
ARC
  5
556
100
AcDbEntity
  8
ASSI
100
AcDbCircle
 62
7
  6
CONTINUOUS
 10
-4.0213160562
 20
2.9095510555
 40
0.7910324619
100
AcDbArc
 50
5.0355176945
 51
9.3121840999
  0
ARC
  5
557
100
AcDbEntity
  8
ASSI
100
AcDbCircle
 62
7
  6
CONTINUOUS
 10
-3.7964833382
 20
2.9575240872
 40
0.5608322851
100
AcDbArc
 50
17.0115701785
 51
22.7948258408
  0
ARC
  5
558
100
AcDbEntity
  8
IMPORT
100
AcDbCircle
 62
7
  6
CONTINUOUS
 10
-3.9685216338
 20
2.7742362461
 40
0.4034264212
100
AcDbArc
 50
77.6742528654
 51
79.4387609546
  0
ARC
  5
559
100
AcDbEntity
  8
IMPORT
100
AcDbCircle
 62
7
  6
CONTINUOUS
 10
-3.9557235821
 20
2.8324403936
 40
0.3438319103
100
AcDbArc
 50
75.043843141
 51
77.6872919707
  0
ARC
  5
55A
100
AcDbEntity
  8
RACCORDO
100
AcDbCircle
 62
7
  6
CONTINUOUS
 10
-5.1002531929
 20
18.801986058
 40
0.3019863274
100
AcDbArc
 50
255.0071974685
 51
269.9234576863
  0
ARC
  5
55B
100
AcDbEntity
  8
ASSI
100
AcDbCircle
 62
7
  6
CONTINUOUS
 10
-5.1002531929
 20
18.801986058
 40
0.3019863274
100
AcDbArc
 50
255.0071974685
 51
269.9234576863
  0
ARC
  5
55C
100
AcDbEntity
  8
RACCORDO
100
AcDbCircle
 62
7
  6
CONTINUOUS
 10
-4.9014369581
 20
18.8002338259
 40
0.3019413091
100
AcDbArc
 50
345.0176552639
 51
359.9556296616
  0
ARC
  5
55D
100
AcDbEntity
  8
ASSI
100
AcDbCircle
 62
7
  6
CONTINUOUS
 10
-5.0873165902
 20
18.8009028314
 40
0.3009152001
100
AcDbArc
 50
185.1568135851
 51
190.1401664508
  0
ARC
  5
55E
100
AcDbEntity
  8
RACCORDO
100
AcDbCircle
 62
7
  6
CONTINUOUS
 10
-4.8999333492
 20
18.8004450234
 40
0.3006876287
100
AcDbArc
 50
307.6364858706
 51
322.5393528221
  0
ARC
  5
55F
100
AcDbEntity
  8
RACCORDO
100
AcDbCircle
 62
7
  6
CONTINUOUS
 10
-5.1000660607
 20
18.8004441323
 40
0.3006874148
100
AcDbArc
 50
217.6415818603
 51
232.5450273895
  0
ARC
  5
560
100
AcDbEntity
  8
RACCORDO
100
AcDbCircle
 62
7
  6
CONTINUOUS
 10
-4.9118685556
 20
18.8000557448
 40
0.3000411739
100
AcDbArc
 50
272.3810550269
 51
359.9893558116
  0
ARC
  5
561
100
AcDbEntity
  8
ASSI
100
AcDbCircle
 62
7
  6
CONTINUOUS
 10
-4.8993033086
 20
18.799807628
 40
0.2998076307
100
AcDbArc
 50
269.9923421848
 51
0.0367639168
  0
ARC
  5
562
100
AcDbEntity
  8
RACCORDO
100
AcDbCircle
 62
7
  6
CONTINUOUS
 10
-5.0915450242
 20
18.8003244343
 40
0.2966510351
100
AcDbArc
 50
180.0626619111
 51
190.1739821949
  0
ARC
  5
563
100
AcDbEntity
  8
ASSI
100
AcDbCircle
 62
7
  6
CONTINUOUS
 10
-5.0878828439
 20
18.7966177635
 40
0.296617941
100
AcDbArc
 50
259.8252544914
 51
269.9373259394
  0
ARC
  5
564
100
AcDbEntity
  8
ASSI
100
AcDbCircle
 62
7
  6
CONTINUOUS
 10
-5.0822419545
 20
19.7307322081
 40
0.2955213181
100
AcDbArc
 50
185.4434392679
 51
190.2973412292
  0
ARC
  5
565
100
AcDbEntity
  8
ASSI
100
AcDbCircle
 62
7
  6
CONTINUOUS
 10
-4.9227066241
 20
19.7268571072
 40
0.2945028361
100
AcDbArc
 50
270.0859307607
 51
275.1463281943
  0
ARC
  5
566
100
AcDbEntity
  8
ASSI
100
AcDbCircle
 62
7
  6
CONTINUOUS
 10
-5.0965297257
 20
18.8000885826
 40
0.2916661696
100
AcDbArc
 50
180.0174014252
 51
185.1601808358
  0
ARC
  5
567
100
AcDbEntity
  8
ASSI
100
AcDbCircle
 62
7
  6
CONTINUOUS
 10
-4.9118813051
 20
18.7916338657
 40
0.2916338792
100
AcDbArc
 50
270.0174087533
 51
275.1613421243
  0
ARC
  5
568
100
AcDbEntity
  8
RACCORDO
100
AcDbCircle
 62
7
  6
CONTINUOUS
 10
-4.9118132998
 20
18.7886561683
 40
0.2886561691
100
AcDbArc
 50
270.0040898669
 51
272.4641020081
  0
ARC
  5
569
100
AcDbEntity
  8
IMPORT
100
AcDbCircle
 62
7
  6
CONTINUOUS
 10
-3.9872151231
 20
2.8642118802
 40
0.2871280899
100
AcDbArc
 50
337.4480607106
 51
341.4648903263
  0
ARC
  5
56A
100
AcDbEntity
  8
ASSI
100
AcDbCircle
 62
7
  6
CONTINUOUS
 10
-5.09143891
 20
19.7298808623
 40
0.2862850777
100
AcDbArc
 50
180.0892282578
 51
185.4484316476
  0
ARC
  5
56B
100
AcDbEntity
  8
IMPORT
100
AcDbCircle
 62
7
  6
CONTINUOUS
 10
-3.9832725659
 20
2.9267826399
 40
0.2828891287
100
AcDbArc
 50
20.408170147
 51
25.5020354977
  0
ARC
  5
56C
100
AcDbEntity
  8
ASSI
100
AcDbCircle
 62
7
  6
CONTINUOUS
 10
-3.9810587675
 20
2.9277023925
 40
0.2804935769
100
AcDbArc
 50
20.3897742505
 51
28.2969866016
  0
ARC
  5
56D
100
AcDbEntity
  8
IMPORT
100
AcDbCircle
 62
7
  6
CONTINUOUS
 10
-3.9810420215
 20
2.8616571977
 40
0.2804472578
100
AcDbArc
 50
333.8314391391
 51
337.4463893089
  0
ARC
  5
56E
100
AcDbEntity
  8
IMPORT
100
AcDbCircle
 62
7
  6
CONTINUOUS
 10
-3.9771599795
 20
2.9296476455
 40
0.2761385869
100
AcDbArc
 50
25.5115518175
 51
28.325078402
  0
ARC
  5
56F
100
AcDbEntity
  8
ASSI
100
AcDbCircle
 62
7
  6
CONTINUOUS
 10
-3.9751985866
 20
2.8588943717
 40
0.2739912227
100
AcDbArc
 50
328.5961631939
 51
337.5112761042
  0
ARC
  5
570
100
AcDbEntity
  8
IMPORT
100
AcDbCircle
 62
7
  6
CONTINUOUS
 10
-3.9731367169
 20
2.8576755262
 40
0.2715962864
100
AcDbArc
 50
328.5889762833
 51
333.8498361668
  0
ARC
  5
571
100
AcDbEntity
  8
IMPORT
100
AcDbCircle
 62
7
  6
CONTINUOUS
 10
-3.9724623676
 20
2.9321914677
 40
0.2707964451
100
AcDbArc
 50
28.3228870009
 51
30.8860844793
  0
ARC
  5
572
100
AcDbEntity
  8
IMPORT
100
AcDbCircle
 62
7
  6
CONTINUOUS
 10
-3.953485056
 20
2.9436869044
 40
0.2486093591
100
AcDbArc
 50
30.8576019934
 51
35.0002962031
  0
ARC
  5
573
100
AcDbEntity
  8
ASSI
100
AcDbCircle
 62
7
  6
CONTINUOUS
 10
-4.8399715556
 20
19.5631024199
 40
0.2281791954
100
AcDbArc
 50
352.0664474074
 51
359.4183425067
  0
ARC
  5
574
100
AcDbEntity
  8
RACCORDO
100
AcDbCircle
 62
7
  6
CONTINUOUS
 10
-4.1712507829
 20
264.7850920819
 40
285.0381255586
100
AcDbArc
 50
270.0033143953
 51
270.1354224914
  0
ARC
  5
575
100
AcDbEntity
  8
RACCORDO
100
AcDbCircle
 62
253
  6
CONTINUOUS
 10
-2.0515824511
 20
667.9560535159
 40
688.065780345
100
AcDbArc
 50
269.876984608
 51
269.9959682326
  0
ARC
  5
576
100
AcDbEntity
  8
ASSI
100
AcDbCircle
 62
253
  6
CONTINUOUS
 10
2.0925505362
 20
-663.8003517504
 40
643.5496481386
100
AcDbArc
 50
89.8749120942
 51
89.9993367678
  0
ARC
  5
577
100
AcDbEntity
  8
RACCORDO
100
AcDbCircle
 62
253
  6
CONTINUOUS
 10
2.097249526
 20
-659.5183678589
 40
639.2676642099
100
AcDbArc
 50
89.8744953793
 51
89.9997534827
  0
ARC
  5
578
100
AcDbEntity
  8
ASSI
100
AcDbCircle
 62
7
  6
CONTINUOUS
 10
1.2151431966
 20
-15.3953061982
 40
6.8324984892
100
AcDbArc
 50
185.3811137409
 51
185.8594028285
  0
ARC
  5
579
100
AcDbEntity
  8
ASSI
100
AcDbCircle
 62
7
  6
CONTINUOUS
 10
1.1700065069
 20
-15.496900626
 40
6.7803854828
100
AcDbArc
 50
182.1095174298
 51
182.6058754989
  0
ARC
  5
57A
100
AcDbEntity
  8
ASSI
100
AcDbCircle
 62
7
  6
CONTINUOUS
 10
0.8229677432
 20
-15.5870953248
 40
4.785368748
100
AcDbArc
 50
354.6165892568
 51
356.6890253385
  0
ARC
  5
57B
100
AcDbEntity
  8
0
100
AcDbCircle
 62
253
  6
CONTINUOUS
 10
2.042440945
 20
-13.7394940531
 40
4.5130911154
100
AcDbArc
 50
45.8730916642
 51
47.4921629252
  0
ARC
  5
57C
100
AcDbEntity
  8
ASSI
100
AcDbCircle
 62
253
  6
CONTINUOUS
 10
2.0427668052
 20
-13.7391496121
 40
4.5126169957
100
AcDbArc
 50
45.8730165658
 51
47.6569153755
  0
ARC
  5
57D
100
AcDbEntity
  8
ASSI
100
AcDbCircle
 62
7
  6
CONTINUOUS
 10
2.0941314954
 20
-13.0409245927
 40
4.4330315596
100
AcDbArc
 50
325.1095557772
 51
326.9333212641
  0
ARC
  5
57E
100
AcDbEntity
  8
SMUSSO
100
AcDbCircle
 62
7
  6
CONTINUOUS
 10
2.097430013
 20
-13.0433163709
 40
4.4289578413
100
AcDbArc
 50
323.2926465709
 51
327.8499386584
  0
ARC
  5
57F
100
AcDbEntity
  8
ASSI
100
AcDbCircle
 62
7
  6
CONTINUOUS
 10
2.097430013
 20
-13.0433163709
 40
4.4289578413
100
AcDbArc
 50
323.2926465709
 51
325.1105268983
  0
ARC
  5
580
100
AcDbEntity
  8
ASSI
100
AcDbCircle
 62
7
  6
CONTINUOUS
 10
2.102497423
 20
-13.0464031214
 40
4.4230314441
100
AcDbArc
 50
326.9336662576
 51
327.8509882801
  0
ARC
  5
581
100
AcDbEntity
  8
0
100
AcDbCircle
 62
253
  6
CONTINUOUS
 10
2.0443790673
 20
-13.8400499816
 40
4.4134271375
100
AcDbArc
 50
46.0688318373
 51
47.6824872884
  0
ARC
  5
582
100
AcDbEntity
  8
SMUSSO
100
AcDbCircle
 62
7
  6
CONTINUOUS
 10
2.1100733735
 20
-13.0526893573
 40
4.413219176
100
AcDbArc
 50
322.3821906711
 51
323.2920885982
  0
ARC
  5
583
100
AcDbEntity
  8
ASSI
100
AcDbCircle
 62
7
  6
CONTINUOUS
 10
2.1100733735
 20
-13.0526893573
 40
4.413219176
100
AcDbArc
 50
322.3821906711
 51
323.2920885982
  0
ARC
  5
584
100
AcDbEntity
  8
ASSI
100
AcDbCircle
 62
253
  6
CONTINUOUS
 10
2.04468642
 20
-13.8397226717
 40
4.4129781782
100
AcDbArc
 50
46.0687573358
 51
47.8466682546
  0
ARC
  5
585
100
AcDbEntity
  8
DRAFT
100
AcDbCircle
 62
7
  6
CONTINUOUS
 10
4.95
 20
-17.35
 40
0.310473039
100
AcDbArc
 50
0.0
 51
180.0
  0
ARC
  5
586
100
AcDbEntity
  8
ASSI
100
AcDbCircle
 62
7
  6
CONTINUOUS
 10
4.95
 20
-17.35
 40
0.310473039
100
AcDbArc
 50
0.0
 51
159.3296348608
  0
ARC
  5
587
100
AcDbEntity
  8
DRAFT
100
AcDbCircle
 62
7
  6
CONTINUOUS
 10
4.95
 20
-17.35
 40
0.3
100
AcDbArc
 50
0.0
 51
180.0
  0
ARC
  5
588
100
AcDbEntity
  8
ASSI
100
AcDbCircle
 62
7
  6
CONTINUOUS
 10
4.95
 20
-17.35
 40
0.3
100
AcDbArc
 50
0.0
 51
180.0
  0
ARC
  5
589
100
AcDbEntity
  8
ASSI
100
AcDbCircle
 62
7
  6
CONTINUOUS
 10
3.9913255984
 20
-17.8345370977
 40
0.2999468692
100
AcDbArc
 50
291.364973313
 51
0.0009700081
  0
ARC
  5
58A
100
AcDbEntity
  8
ASSI
100
AcDbCircle
 62
7
  6
CONTINUOUS
 10
4.1895815177
 20
-17.7503058228
 40
0.2999454434
100
AcDbArc
 50
293.7427366696
 51
0.0011051209
  0
ARC
  5
58B
100
AcDbEntity
  8
0
100
AcDbCircle
 62
7
  6
CONTINUOUS
 10
3.9913277852
 20
-17.8345385904
 40
0.2999446824
100
AcDbArc
 50
291.3646881658
 51
0.0012551553
  0
ARC
  5
58C
100
AcDbEntity
  8
RACCORDO
100
AcDbCircle
 62
7
  6
CONTINUOUS
 10
6.0639511625
 20
-14.7639395883
 40
0.2102871795
100
AcDbArc
 50
265.3736206555
 51
272.1219844132
  0
ARC
  5
58D
100
AcDbEntity
  8
RACCORDO
100
AcDbCircle
 62
7
  6
CONTINUOUS
 10
2.1
 20
-13.0
 40
7.250334529
100
AcDbArc
 50
281.3660867693
 51
290.5918141188
  0
ARC
  5
58E
100
AcDbEntity
  8
ASSI
100
AcDbCircle
 62
7
  6
CONTINUOUS
 10
2.1
 20
-13.0
 40
7.250334529
100
AcDbArc
 50
281.3660867693
 51
290.5918141188
  0
ARC
  5
58F
100
AcDbEntity
  8
DRAFT
100
AcDbCircle
 62
7
  6
CONTINUOUS
 10
2.1
 20
-13.0
 40
6.2901338116
100
AcDbArc
 50
300.1621740433
 51
330.5480234359
  0
ARC
  5
590
100
AcDbEntity
  8
DRAFT
100
AcDbCircle
 62
7
  6
CONTINUOUS
 10
2.1
 20
-13.0
 40
6.2901338116
100
AcDbArc
 50
270.0
 51
293.8116787425
  0
ARC
  5
591
100
AcDbEntity
  8
ASSI
100
AcDbCircle
 62
7
  6
CONTINUOUS
 10
2.1
 20
-13.0
 40
6.2901338116
100
AcDbArc
 50
300.1621740433
 51
330.5480234359
  0
ARC
  5
592
100
AcDbEntity
  8
ASSI
100
AcDbCircle
 62
7
  6
CONTINUOUS
 10
2.1
 20
-13.0
 40
6.2901338116
100
AcDbArc
 50
270.0
 51
293.8116787425
  0
ARC
  5
593
100
AcDbEntity
  8
0
100
AcDbCircle
 62
7
  6
CONTINUOUS
 10
2.1
 20
-13.0
 40
5.65
100
AcDbArc
 50
334.8633394824
 51
57.0442197336
  0
ARC
  5
594
100
AcDbEntity
  8
ASSI
100
AcDbCircle
 62
7
  6
CONTINUOUS
 10
2.1
 20
-13.0
 40
5.65
100
AcDbArc
 50
334.8633394824
 51
57.0442197336
  0
ARC
  5
595
100
AcDbEntity
  8
0
100
AcDbCircle
 62
7
  6
CONTINUOUS
 10
2.1
 20
-13.0
 40
5.4912724675
100
AcDbArc
 50
270.0
 51
291.3659433201
  0
ARC
  5
596
100
AcDbEntity
  8
ASSI
100
AcDbCircle
 62
7
  6
CONTINUOUS
 10
2.1
 20
-13.0
 40
5.489526961
100
AcDbArc
 50
270.0
 51
293.7438417905
  0
ARC
  5
597
100
AcDbEntity
  8
0
100
AcDbCircle
 62
7
  6
CONTINUOUS
 10
2.1
 20
-13.0
 40
5.4842904416
100
AcDbArc
 50
39.7776171265
 51
90.0
  0
ARC
  5
598
100
AcDbEntity
  8
ASSI
100
AcDbCircle
 62
7
  6
CONTINUOUS
 10
2.1
 20
-13.0
 40
5.4825449351
100
AcDbArc
 50
39.7845978882
 51
90.0
  0
ARC
  5
599
100
AcDbEntity
  8
RACCORDO
100
AcDbCircle
 62
7
  6
CONTINUOUS
 10
2.1
 20
-13.0
 40
5.05
100
AcDbArc
 50
339.0275234118
 51
20.9724765882
  0
ARC
  5
59A
100
AcDbEntity
  8
ASSI
100
AcDbCircle
 62
7
  6
CONTINUOUS
 10
2.1
 20
-13.0
 40
5.05
100
AcDbArc
 50
339.0275234118
 51
20.9724765882
  0
ARC
  5
59B
100
AcDbEntity
  8
RACCORDO
100
AcDbCircle
 62
7
  6
CONTINUOUS
 10
2.1
 20
-13.0
 40
5.0150792305
100
AcDbArc
 50
339.3190223499
 51
20.6809776501
  0
ARC
  5
59C
100
AcDbEntity
  8
ASSI
100
AcDbCircle
 62
7
  6
CONTINUOUS
 10
2.1
 20
-13.0
 40
5.0150792305
100
AcDbArc
 50
339.3190223499
 51
20.6809776501
  0
ARC
  5
59D
100
AcDbEntity
  8
SMUSSO
100
AcDbCircle
 62
7
  6
CONTINUOUS
 10
2.1
 20
-13.0
 40
4.6571751254
100
AcDbArc
 50
301.0302351262
 51
318.384732116
  0
ARC
  5
59E
100
AcDbEntity
  8
ASSI
100
AcDbCircle
 62
7
  6
CONTINUOUS
 10
2.1
 20
-13.0
 40
4.6571751254
100
AcDbArc
 50
301.0302351262
 51
318.384732116
  0
ARC
  5
59F
100
AcDbEntity
  8
SMUSSO
100
AcDbCircle
 62
7
  6
CONTINUOUS
 10
2.1
 20
-13.0
 40
4.6502945067
100
AcDbArc
 50
25.4743842609
 51
32.6773198706
  0
ARC
  5
5A0
100
AcDbEntity
  8
ASSI
100
AcDbCircle
 62
7
  6
CONTINUOUS
 10
2.1
 20
-13.0
 40
4.6502945067
100
AcDbArc
 50
25.4743842609
 51
32.6773198706
  0
ARC
  5
5A1
100
AcDbEntity
  8
SMUSSO
100
AcDbCircle
 62
7
  6
CONTINUOUS
 10
2.1
 20
-13.0
 40
4.6501369129
100
AcDbArc
 50
335.0013008965
 51
24.9986991035
  0
ARC
  5
5A2
100
AcDbEntity
  8
ASSI
100
AcDbCircle
 62
7
  6
CONTINUOUS
 10
2.1
 20
-13.0
 40
4.6501369129
100
AcDbArc
 50
335.0013008965
 51
24.9986991035
  0
ARC
  5
5A3
100
AcDbEntity
  8
0
100
AcDbCircle
 62
253
  6
CONTINUOUS
 10
2.0424402687
 20
-12.2605052447
 40
4.5130920903
100
AcDbArc
 50
312.5078373835
 51
314.1269082908
  0
ARC
  5
5A4
100
AcDbEntity
  8
ASSI
100
AcDbCircle
 62
253
  6
CONTINUOUS
 10
2.0427673577
 20
-12.2608509756
 40
4.5126161893
100
AcDbArc
 50
312.3430844651
 51
314.1269835936
  0
ARC
  5
5A5
100
AcDbEntity
  8
SMUSSO
100
AcDbCircle
 62
7
  6
CONTINUOUS
 10
2.1
 20
-13.0
 40
4.4534954036
100
AcDbArc
 50
26.7857585947
 51
34.3053046838
  0
ARC
  5
5A6
100
AcDbEntity
  8
ASSI
100
AcDbCircle
 62
7
  6
CONTINUOUS
 10
2.1
 20
-13.0
 40
4.4534954036
100
AcDbArc
 50
26.7857585947
 51
34.3053046838
  0
ARC
  5
5A7
100
AcDbEntity
  8
SMUSSO
100
AcDbCircle
 62
7
  6
CONTINUOUS
 10
2.1
 20
-13.0
 40
4.453488322
100
AcDbArc
 50
302.6253907263
 51
321.9246279868
  0
ARC
  5
5A8
100
AcDbEntity
  8
ASSI
100
AcDbCircle
 62
7
  6
CONTINUOUS
 10
2.1
 20
-13.0
 40
4.453488322
100
AcDbArc
 50
302.6253907263
 51
321.9246279868
  0
ARC
  5
5A9
100
AcDbEntity
  8
0
100
AcDbCircle
 62
7
  6
CONTINUOUS
 10
2.1
 20
-13.0
 40
4.45
100
AcDbArc
 50
327.3622421773
 51
333.2923546979
  0
ARC
  5
5AA
100
AcDbEntity
  8
ASSI
100
AcDbCircle
 62
7
  6
CONTINUOUS
 10
2.1
 20
-13.0
 40
4.45
100
AcDbArc
 50
327.3622421773
 51
333.2923546979
  0
ARC
  5
5AB
100
AcDbEntity
  8
0
100
AcDbCircle
 62
253
  6
CONTINUOUS
 10
2.0443789414
 20
-12.159949882
 40
4.4134273231
100
AcDbArc
 50
312.3175127313
 51
313.9311681109
  0
ARC
  5
5AC
100
AcDbEntity
  8
ASSI
100
AcDbCircle
 62
253
  6
CONTINUOUS
 10
2.0446865345
 20
-12.1602774509
 40
4.4129780104
100
AcDbArc
 50
312.1533317116
 51
313.931242698
  0
ARC
  5
5AD
100
AcDbEntity
  8
DRAFT
100
AcDbCircle
 62
7
  6
CONTINUOUS
 10
2.1
 20
-13.0
 40
4.2912724675
100
AcDbArc
 50
26.9633147825
 51
35.6320551568
  0
ARC
  5
5AE
100
AcDbEntity
  8
DRAFT
100
AcDbCircle
 62
7
  6
CONTINUOUS
 10
2.1
 20
-13.0
 40
4.2912724675
100
AcDbArc
 50
324.3679448432
 51
333.0370354764
  0
ARC
  5
5AF
100
AcDbEntity
  8
ASSI
100
AcDbCircle
 62
7
  6
CONTINUOUS
 10
2.1
 20
-13.0
 40
4.2912724675
100
AcDbArc
 50
300.7061135338
 51
322.9174273111
  0
ARC
  5
5B0
100
AcDbEntity
  8
ASSI
100
AcDbCircle
 62
7
  6
CONTINUOUS
 10
2.1
 20
-13.0
 40
4.2912724675
100
AcDbArc
 50
26.9633147825
 51
35.6320551568
  0
ARC
  5
5B1
100
AcDbEntity
  8
ASSI
100
AcDbCircle
 62
7
  6
CONTINUOUS
 10
2.1
 20
-13.0
 40
4.2912724675
100
AcDbArc
 50
324.3679448432
 51
333.0370354764
  0
ARC
  5
5B2
100
AcDbEntity
  8
ASSI
100
AcDbCircle
 62
7
  6
CONTINUOUS
 10
2.1
 20
-13.0
 40
4.289526961
100
AcDbArc
 50
303.8527694157
 51
322.7531437389
  0
ARC
  5
5B3
100
AcDbEntity
  8
RACCORDO
100
AcDbCircle
 62
7
  6
CONTINUOUS
 10
2.1
 20
-13.0
 40
4.15
100
AcDbArc
 50
335.7602867576
 51
24.2397132424
  0
ARC
  5
5B4
100
AcDbEntity
  8
ASSI
100
AcDbCircle
 62
7
  6
CONTINUOUS
 10
2.1
 20
-13.0
 40
4.15
100
AcDbArc
 50
335.7602867576
 51
24.2397132424
  0
ARC
  5
5B5
100
AcDbEntity
  8
RACCORDO
100
AcDbCircle
 62
7
  6
CONTINUOUS
 10
2.1
 20
-13.0
 40
3.8087275325
100
AcDbArc
 50
24.3673439084
 51
37.8759767342
  0
ARC
  5
5B6
100
AcDbEntity
  8
RACCORDO
100
AcDbCircle
 62
7
  6
CONTINUOUS
 10
2.1
 20
-13.0
 40
3.8087275325
100
AcDbArc
 50
322.1240232645
 51
335.6326560913
  0
ARC
  5
5B7
100
AcDbEntity
  8
ASSI
100
AcDbCircle
 62
7
  6
CONTINUOUS
 10
2.1
 20
-13.0
 40
3.8087275325
100
AcDbArc
 50
24.4088509536
 51
37.8759767342
  0
ARC
  5
5B8
100
AcDbEntity
  8
ASSI
100
AcDbCircle
 62
7
  6
CONTINUOUS
 10
2.1
 20
-13.0
 40
3.8087275325
100
AcDbArc
 50
322.1240232645
 51
335.591149045
  0
ARC
  5
5B9
100
AcDbEntity
  8
0
100
AcDbCircle
 62
7
  6
CONTINUOUS
 10
2.1
 20
-13.0
 40
3.7912724675
100
AcDbArc
 50
320.2684270119
 51
39.7315730292
  0
ARC
  5
5BA
100
AcDbEntity
  8
ASSI
100
AcDbCircle
 62
7
  6
CONTINUOUS
 10
2.1
 20
-13.0
 40
3.7912724675
100
AcDbArc
 50
320.2684270119
 51
39.7315730292
  0
ARC
  5
5BB
100
AcDbEntity
  8
ASSI
100
AcDbCircle
 62
7
  6
CONTINUOUS
 10
2.1
 20
-13.0
 40
3.789526961
100
AcDbArc
 50
320.0792135662
 51
39.9207864311
  0
ARC
  5
5BC
100
AcDbEntity
  8
ASSI
100
AcDbCircle
 62
7
  6
CONTINUOUS
 10
6.0843390304
 20
-9.6830113547
 40
0.2999514112
100
AcDbArc
 50
359.9997997757
 51
39.7778173508
  0
ARC
  5
5BD
100
AcDbEntity
  8
ASSI
100
AcDbCircle
 62
7
  6
CONTINUOUS
 10
6.082593525
 20
-9.6836428932
 40
0.2999514101
100
AcDbArc
 50
359.9997996635
 51
39.7847982247
  0
ARC
  5
5BE
100
AcDbEntity
  8
RACCORDO
100
AcDbCircle
 62
7
  6
CONTINUOUS
 10
6.0661197239
 20
-11.2151198325
 40
0.1992661278
100
AcDbArc
 50
197.2055685945
 51
199.7988832699
  0
ARC
  5
5BF
100
AcDbEntity
  8
ASSI
100
AcDbCircle
 62
7
  6
CONTINUOUS
 10
6.0600553151
 20
-11.2224893162
 40
0.1960081794
100
AcDbArc
 50
113.7027331008
 51
130.5575627433
  0
ARC
  5
5C0
100
AcDbEntity
  8
ASSI
100
AcDbCircle
 62
7
  6
CONTINUOUS
 10
6.0603348181
 20
-11.2170947777
 40
0.1931559878
100
AcDbArc
 50
197.1535441036
 51
204.174720828
  0
ARC
  5
5C1
100
AcDbEntity
  8
RACCORDO
100
AcDbCircle
 62
7
  6
CONTINUOUS
 10
6.0568403178
 20
-11.2185309143
 40
0.1893798632
100
AcDbArc
 50
199.778816344
 51
204.2112926819
  0
ARC
  5
5C2
100
AcDbEntity
  8
RACCORDO
100
AcDbCircle
 62
253
  6
CONTINUOUS
 10
7.204289493
 20
-24.4479044406
 40
16.6746685964
100
AcDbArc
 50
145.3406232522
 51
145.486372724
  0
ARC
  5
5C3
100
AcDbEntity
  8
ASSI
100
AcDbCircle
 62
253
  6
CONTINUOUS
 10
7.204289493
 20
-24.4479044406
 40
16.6746685964
100
AcDbArc
 50
145.3406232522
 51
145.486372724
  0
ARC
  5
5C4
100
AcDbEntity
  8
RACCORDO
100
AcDbCircle
 62
7
  6
CONTINUOUS
 10
6.535573528
 20
-14.7002971338
 40
0.2997028765
100
AcDbArc
 50
269.9849634974
 51
339.0425599145
  0
ARC
  5
5C5
100
AcDbEntity
  8
ASSI
100
AcDbCircle
 62
7
  6
CONTINUOUS
 10
6.535573528
 20
-14.7002971338
 40
0.2997028765
100
AcDbArc
 50
269.9849634974
 51
339.0425599145
  0
ARC
  5
5C6
100
AcDbEntity
  8
RACCORDO
100
AcDbCircle
 62
7
  6
CONTINUOUS
 10
6.5114966209
 20
-14.6653774475
 40
0.2997017937
100
AcDbArc
 50
269.9847382057
 51
339.3342841443
  0
ARC
  5
5C7
100
AcDbEntity
  8
ASSI
100
AcDbCircle
 62
7
  6
CONTINUOUS
 10
6.5114966209
 20
-14.6653774475
 40
0.2997017937
100
AcDbArc
 50
269.9847382057
 51
339.3342841443
  0
ARC
  5
5C8
100
AcDbEntity
  8
RACCORDO
100
AcDbCircle
 62
253
  6
CONTINUOUS
 10
9.6030519305
 20
-20.0530519305
 40
0.1999810696
100
AcDbArc
 50
270.0033034775
 51
359.9966965225
  0
ARC
  5
5C9
100
AcDbEntity
  8
ASSI
100
AcDbCircle
 62
253
  6
CONTINUOUS
 10
9.6030519305
 20
-20.0530519305
 40
0.1999810696
100
AcDbArc
 50
270.0033034775
 51
359.9966965225
  0
ARC
  5
5CA
100
AcDbEntity
  8
RACCORDO
100
AcDbCircle
 62
253
  6
CONTINUOUS
 10
7.2042894936
 20
-1.552095559
 40
16.6746685971
100
AcDbArc
 50
214.513627276
 51
214.6593767478
  0
ARC
  5
5CB
100
AcDbEntity
  8
ASSI
100
AcDbCircle
 62
253
  6
CONTINUOUS
 10
7.2042894936
 20
-1.552095559
 40
16.6746685971
100
AcDbArc
 50
214.513627276
 51
214.6593767478
  0
ARC
  5
5CC
100
AcDbEntity
  8
DRAFT
100
AcDbCircle
 62
7
  6
CONTINUOUS
 10
11.9
 20
-7.5
 40
2.0
100
AcDbArc
 50
130.5416018735
 51
180.0
  0
ARC
  5
5CD
100
AcDbEntity
  8
ASSI
100
AcDbCircle
 62
7
  6
CONTINUOUS
 10
11.9
 20
-7.5
 40
2.0
100
AcDbArc
 50
130.5416018735
 51
180.0
  0
ARC
  5
5CE
100
AcDbEntity
  8
ASSI
100
AcDbCircle
 62
7
  6
CONTINUOUS
 10
8.700002584
 20
-9.9998196711
 40
0.3084204557
100
AcDbArc
 50
90.0004800356
 51
269.9995199644
  0
ARC
  5
5CF
100
AcDbEntity
  8
DRAFT
100
AcDbCircle
 62
7
  6
CONTINUOUS
 10
8.6999993846
 20
-9.9998196711
 40
0.3083856944
100
AcDbArc
 50
89.9998856736
 51
270.0001143264
  0
ARC
  5
5D0
100
AcDbEntity
  8
DRAFT
100
AcDbCircle
 62
7
  6
CONTINUOUS
 10
8.7
 20
-10.0
 40
0.3
100
AcDbArc
 50
90.0
 51
270.0
  0
ARC
  5
5D1
100
AcDbEntity
  8
ASSI
100
AcDbCircle
 62
7
  6
CONTINUOUS
 10
8.7
 20
-10.0
 40
0.3
100
AcDbArc
 50
90.0
 51
270.0
  0
ARC
  5
5D2
100
AcDbEntity
  8
RACCORDO
100
AcDbCircle
 62
7
  6
CONTINUOUS
 10
6.5355737134
 20
-11.2997025966
 40
0.299702607
100
AcDbArc
 50
20.9574046296
 51
90.0150719585
  0
ARC
  5
5D3
100
AcDbEntity
  8
ASSI
100
AcDbCircle
 62
7
  6
CONTINUOUS
 10
6.5355737134
 20
-11.2997025966
 40
0.299702607
100
AcDbArc
 50
20.9574046296
 51
90.0150719585
  0
ARC
  5
5D4
100
AcDbEntity
  8
RACCORDO
100
AcDbCircle
 62
7
  6
CONTINUOUS
 10
6.5114966209
 20
-11.3346225525
 40
0.2997017937
100
AcDbArc
 50
20.6657158554
 51
90.0152617946
  0
ARC
  5
5D5
100
AcDbEntity
  8
ASSI
100
AcDbCircle
 62
7
  6
CONTINUOUS
 10
6.5114966209
 20
-11.3346225525
 40
0.2997017937
100
AcDbArc
 50
20.6657158554
 51
90.0152617946
  0
ARC
  5
5D6
100
AcDbEntity
  8
RACCORDO
100
AcDbCircle
 62
253
  6
CONTINUOUS
 10
44.9046298933
 20
-19.979974676
 40
35.3032633945
100
AcDbArc
 50
180.0432835911
 51
180.2664717761
  0
ARC
  5
5D7
100
AcDbEntity
  8
0
100
AcDbCircle
 62
7
  6
CONTINUOUS
 10
4.498725
 20
8.183343
 40
0.7667158029
100
AcDbArc
 50
292.8428457417
 51
90.0
  0
ARC
  5
5D8
100
AcDbEntity
  8
IMPORT
100
AcDbCircle
 62
7
  6
CONTINUOUS
 10
4.498725
 20
8.183343
 40
0.7667158029
100
AcDbArc
 50
292.8427816283
 51
90.0000747289
  0
ARC
  5
5D9
100
AcDbEntity
  8
ASSI
100
AcDbCircle
 62
7
  6
CONTINUOUS
 10
4.498725
 20
8.183343
 40
0.7667158029
100
AcDbArc
 50
292.8428457417
 51
89.9989363352
  0
ARC
  5
5DA
100
AcDbEntity
  8
0
100
AcDbCircle
 62
7
  6
CONTINUOUS
 10
4.429323
 20
8.183343
 40
0.304195
100
AcDbArc
 50
270.0
 51
90.0
  0
ARC
  5
5DB
100
AcDbEntity
  8
IMPORT
100
AcDbCircle
 62
7
  6
CONTINUOUS
 10
4.429323
 20
8.183343
 40
0.304195
100
AcDbArc
 50
270.0
 51
90.0
  0
ARC
  5
5DC
100
AcDbEntity
  8
ASSI
100
AcDbCircle
 62
7
  6
CONTINUOUS
 10
4.429323
 20
8.183343
 40
0.304195
100
AcDbArc
 50
270.0016550818
 51
90.0
  0
ARC
  5
5DD
100
AcDbEntity
  8
RACCORDO
100
AcDbCircle
 62
7
  6
CONTINUOUS
 10
4.8997468071
 20
18.801986058
 40
0.3019863274
100
AcDbArc
 50
255.0071974684
 51
269.9234576863
  0
ARC
  5
5DE
100
AcDbEntity
  8
ASSI
100
AcDbCircle
 62
7
  6
CONTINUOUS
 10
4.8997468071
 20
18.801986058
 40
0.3019863274
100
AcDbArc
 50
255.0071974684
 51
269.9234576863
  0
ARC
  5
5DF
100
AcDbEntity
  8
RACCORDO
100
AcDbCircle
 62
7
  6
CONTINUOUS
 10
5.0985630419
 20
18.8002338259
 40
0.3019413091
100
AcDbArc
 50
345.0176552639
 51
359.9556296616
  0
ARC
  5
5E0
100
AcDbEntity
  8
ASSI
100
AcDbCircle
 62
7
  6
CONTINUOUS
 10
4.9126834098
 20
18.8009028314
 40
0.3009152001
100
AcDbArc
 50
185.1568135851
 51
190.1401664508
  0
ARC
  5
5E1
100
AcDbEntity
  8
RACCORDO
100
AcDbCircle
 62
7
  6
CONTINUOUS
 10
5.1000666508
 20
18.8004450234
 40
0.3006876287
100
AcDbArc
 50
307.6364858706
 51
322.5393528222
  0
ARC
  5
5E2
100
AcDbEntity
  8
RACCORDO
100
AcDbCircle
 62
7
  6
CONTINUOUS
 10
4.8999339393
 20
18.8004441323
 40
0.3006874148
100
AcDbArc
 50
217.6415818603
 51
232.5450273895
  0
ARC
  5
5E3
100
AcDbEntity
  8
RACCORDO
100
AcDbCircle
 62
7
  6
CONTINUOUS
 10
5.0881314444
 20
18.8000557448
 40
0.3000411739
100
AcDbArc
 50
272.3810550328
 51
359.9893558056
  0
ARC
  5
5E4
100
AcDbEntity
  8
ASSI
100
AcDbCircle
 62
7
  6
CONTINUOUS
 10
5.1006966914
 20
18.799807628
 40
0.2998076307
100
AcDbArc
 50
269.9923421848
 51
0.0367639168
  0
ARC
  5
5E5
100
AcDbEntity
  8
RACCORDO
100
AcDbCircle
 62
7
  6
CONTINUOUS
 10
4.9084549758
 20
18.8003244343
 40
0.2966510351
100
AcDbArc
 50
180.0626619111
 51
190.1739821949
  0
ARC
  5
5E6
100
AcDbEntity
  8
ASSI
100
AcDbCircle
 62
7
  6
CONTINUOUS
 10
4.9121171561
 20
18.7966177635
 40
0.296617941
100
AcDbArc
 50
259.8252544915
 51
269.9373259394
  0
ARC
  5
5E7
100
AcDbEntity
  8
ASSI
100
AcDbCircle
 62
7
  6
CONTINUOUS
 10
4.9177580455
 20
19.7307322081
 40
0.2955213181
100
AcDbArc
 50
185.4434392679
 51
190.2973412292
  0
ARC
  5
5E8
100
AcDbEntity
  8
ASSI
100
AcDbCircle
 62
7
  6
CONTINUOUS
 10
5.0772933759
 20
19.7268571072
 40
0.2945028361
100
AcDbArc
 50
270.0859307607
 51
275.1463281943
  0
ARC
  5
5E9
100
AcDbEntity
  8
ASSI
100
AcDbCircle
 62
7
  6
CONTINUOUS
 10
4.9034702743
 20
18.8000885826
 40
0.2916661696
100
AcDbArc
 50
180.0174014252
 51
185.1601808358
  0
ARC
  5
5EA
100
AcDbEntity
  8
ASSI
100
AcDbCircle
 62
7
  6
CONTINUOUS
 10
5.0881186949
 20
18.7916338657
 40
0.2916338792
100
AcDbArc
 50
270.0174087533
 51
275.1613421243
  0
ARC
  5
5EB
100
AcDbEntity
  8
RACCORDO
100
AcDbCircle
 62
7
  6
CONTINUOUS
 10
5.0881867002
 20
18.7886561683
 40
0.2886561691
100
AcDbArc
 50
270.0040898669
 51
272.4641020081
  0
ARC
  5
5EC
100
AcDbEntity
  8
ASSI
100
AcDbCircle
 62
7
  6
CONTINUOUS
 10
4.90856109
 20
19.7298808623
 40
0.2862850777
100
AcDbArc
 50
180.0892282578
 51
185.4484316476
  0
ARC
  5
5ED
100
AcDbEntity
  8
ASSI
100
AcDbCircle
 62
7
  6
CONTINUOUS
 10
5.1600284444
 20
19.5631024199
 40
0.2281791954
100
AcDbArc
 50
352.0664474074
 51
359.4183425067
  0
ARC
  5
5EE
100
AcDbEntity
  8
RACCORDO
100
AcDbCircle
 62
7
  6
CONTINUOUS
 10
4.2129791721
 20
299.251187945
 40
319.5042262487
100
AcDbArc
 50
269.8717030053
 51
269.9895601079
  0
ARC
  5
5EF
100
AcDbEntity
  8
DRAFT
100
AcDbCircle
 62
7
  6
CONTINUOUS
 10
11.9
 20
7.5
 40
2.0
100
AcDbArc
 50
180.0
 51
229.4583981265
  0
ARC
  5
5F0
100
AcDbEntity
  8
ASSI
100
AcDbCircle
 62
7
  6
CONTINUOUS
 10
11.9
 20
7.5
 40
2.0
100
AcDbArc
 50
180.0
 51
229.4583981265
  0
ARC
  5
5F1
100
AcDbEntity
  8
ASSI
100
AcDbCircle
 62
7
  6
CONTINUOUS
 10
8.7000026202
 20
14.9997325249
 40
0.3047650156
100
AcDbArc
 50
90.0004925969
 51
269.9995074031
  0
ARC
  5
5F2
100
AcDbEntity
  8
DRAFT
100
AcDbCircle
 62
7
  6
CONTINUOUS
 10
8.699999253
 20
14.9997325249
 40
0.3047305603
100
AcDbArc
 50
89.9998595665
 51
270.0001404335
  0
ARC
  5
5F3
100
AcDbEntity
  8
DRAFT
100
AcDbCircle
 62
7
  6
CONTINUOUS
 10
8.7
 20
15.0
 40
0.3
100
AcDbArc
 50
90.0
 51
270.0
  0
ARC
  5
5F4
100
AcDbEntity
  8
ASSI
100
AcDbCircle
 62
7
  6
CONTINUOUS
 10
8.7
 20
15.0
 40
0.3
100
AcDbArc
 50
90.0
 51
270.0
  0
ARC
  5
5F5
100
AcDbEntity
  8
RACCORDO
100
AcDbCircle
 62
253
  6
CONTINUOUS
 10
9.6030519306
 20
20.0530519306
 40
0.1999810696
100
AcDbArc
 50
0.003303468
 51
89.996696532
  0
ARC
  5
5F6
100
AcDbEntity
  8
ASSI
100
AcDbCircle
 62
253
  6
CONTINUOUS
 10
9.6030519306
 20
20.0530519306
 40
0.1999810696
100
AcDbArc
 50
0.003303468
 51
89.996696532
  0
ARC
  5
5F7
100
AcDbEntity
  8
ASSI
100
AcDbCircle
 62
253
  6
CONTINUOUS
 10
2.0815265301
 20
646.3137934166
 40
666.4235044738
100
AcDbArc
 50
270.0015642355
 51
270.1217634019
  0
ARC
  5
5F8
100
AcDbEntity
  8
RACCORDO
100
AcDbCircle
 62
253
  6
CONTINUOUS
 10
2.103762958
 20
626.7363639073
 40
646.8460747287
100
AcDbArc
 50
269.9996419392
 51
270.1262324424
  0
ARC
  5
5F9
100
AcDbEntity
  8
RACCORDO
100
AcDbCircle
 62
253
  6
CONTINUOUS
 10
49.4095349605
 20
19.9672428951
 40
39.8081782502
100
AcDbArc
 50
179.7402611803
 51
179.9488000823
  0
SPLINE
  5
5FA
100
AcDbEntity
  8
RACCORDO
100
AcDbSpline
 62
7
  6
CONTINUOUS
 70
0
 71
3
 72
11
 73
7
 74
5
 42
0.0000001
 43
0.0000001
 44
0.0000000001
 12
0.2204168726
 22
0.0000000043
 32
0.0
 13
-0.1353258831
 23
0.1739842035
 33
0.0
 40
0.0
 40
0.0
 40
0.0
 40
0.0
 40
0.2500450942
 40
0.4999473533
 40
0.7498865944
 40
1.0
 40
1.0
 40
1.0
 40
1.0
 10
-5.1846805438
 20
-15.5
 30
0.0
 10
-5.1663091579
 20
-15.4999999996
 30
0.0
 10
-5.1287428814
 20
-15.4893900246
 30
0.0
 10
-5.0901905071
 20
-15.4460570727
 30
0.0
 10
-5.0803127473
 20
-15.3889501911
 30
0.0
 10
-5.095104721
 20
-15.3528898874
 30
0.0
 10
-5.1063869935
 20
-15.3383846268
 30
0.0
 11
-5.1846805438
 21
-15.5
 31
0.0
 11
-5.131699722
 21
-15.4848143851
 31
0.0
 11
-5.0949701612
 21
-15.4437651417
 31
0.0
 11
-5.085655878
 21
-15.3894674142
 31
0.0
 11
-5.1063869935
 21
-15.3383846268
 31
0.0
  0
SPLINE
  5
5FB
100
AcDbEntity
  8
RACCORDO
100
AcDbSpline
 62
7
  6
CONTINUOUS
 70
0
 71
3
 72
11
 73
7
 74
5
 42
0.0000001
 43
0.0000001
 44
0.0000000001
 12
0.1353256669
 22
0.1739839264
 32
0.0
 13
-0.2204165211
 23
0.0000000051
 33
0.0
 40
0.0
 40
0.0
 40
0.0
 40
0.0
 40
0.2500938179
 40
0.5000098728
 40
0.7499654753
 40
1.0
 40
1.0
 40
1.0
 40
1.0
 10
-5.1063869934
 20
-10.6616153731
 30
0.0
 10
-5.0951056225
 20
-10.6471112716
 30
0.0
 10
-5.0803160044
 20
-10.6110550294
 30
0.0
 10
-5.0901839587
 20
-10.5539453095
 30
0.0
 10
-5.1287428306
 20
-10.510614247
 30
0.0
 10
-5.1663099638
 20
-10.5000000004
 30
0.0
 10
-5.1846805438
 20
-10.5
 30
0.0
 11
-5.1063869934
 21
-10.6616153731
 31
0.0
 11
-5.0856567173
 21
-10.6105369995
 31
0.0
 11
-5.0949640021
 21
-10.5562433461
 31
0.0
 11
-5.1317024643
 21
-10.515186408
 31
0.0
 11
-5.1846805438
 21
-10.5
 31
0.0
  0
SPLINE
  5
5FC
100
AcDbEntity
  8
RACCORDO
100
AcDbSpline
 62
7
  6
CONTINUOUS
 70
0
 71
3
 72
11
 73
7
 74
5
 42
0.0000001
 43
0.0000001
 44
0.0000000001
 12
-0.2204168726
 22
-0.0000000043
 32
0.0
 13
0.1353258831
 23
-0.1739842035
 33
0.0
 40
0.0
 40
0.0
 40
0.0
 40
0.0
 40
0.2500450942
 40
0.4999473533
 40
0.7498865944
 40
1.0
 40
1.0
 40
1.0
 40
1.0
 10
5.1846805438
 20
-10.5
 30
0.0
 10
5.1663091579
 20
-10.5000000004
 30
0.0
 10
5.1287428814
 20
-10.5106099754
 30
0.0
 10
5.0901905071
 20
-10.5539429273
 30
0.0
 10
5.0803127473
 20
-10.6110498089
 30
0.0
 10
5.095104721
 20
-10.6471101126
 30
0.0
 10
5.1063869935
 20
-10.6616153732
 30
0.0
 11
5.1846805438
 21
-10.5
 31
0.0
 11
5.131699722
 21
-10.5151856149
 31
0.0
 11
5.0949701612
 21
-10.5562348583
 31
0.0
 11
5.085655878
 21
-10.6105325858
 31
0.0
 11
5.1063869935
 21
-10.6616153732
 31
0.0
  0
SPLINE
  5
5FD
100
AcDbEntity
  8
RACCORDO
100
AcDbSpline
 62
7
  6
CONTINUOUS
 70
0
 71
3
 72
11
 73
7
 74
5
 42
0.0000001
 43
0.0000001
 44
0.0000000001
 12
-0.1353256669
 22
-0.1739839264
 32
0.0
 13
0.2204165211
 23
-0.0000000051
 33
0.0
 40
0.0
 40
0.0
 40
0.0
 40
0.0
 40
0.2500938179
 40
0.5000098728
 40
0.7499654753
 40
1.0
 40
1.0
 40
1.0
 40
1.0
 10
5.1063869934
 20
-15.3383846269
 30
0.0
 10
5.0951056225
 20
-15.3528887284
 30
0.0
 10
5.0803160044
 20
-15.3889449706
 30
0.0
 10
5.0901839587
 20
-15.4460546905
 30
0.0
 10
5.1287428306
 20
-15.489385753
 30
0.0
 10
5.1663099638
 20
-15.4999999996
 30
0.0
 10
5.1846805438
 20
-15.5
 30
0.0
 11
5.1063869934
 21
-15.3383846269
 31
0.0
 11
5.0856567173
 21
-15.3894630005
 31
0.0
 11
5.0949640021
 21
-15.4437566539
 31
0.0
 11
5.1317024643
 21
-15.484813592
 31
0.0
 11
5.1846805438
 21
-15.5
 31
0.0
  0
SPLINE
  5
5FE
100
AcDbEntity
  8
ASSI
100
AcDbSpline
 62
7
  6
CONTINUOUS
 70
0
 71
3
 72
11
 73
7
 74
5
 42
0.0000001
 43
0.0000001
 44
0.0000000001
 12
0.2235636754
 22
0.0
 32
0.0
 13
-0.1429000479
 23
0.1719310713
 33
0.0
 40
0.0
 40
0.0
 40
0.0
 40
0.0
 40
0.2499850383
 40
0.4999322631
 40
0.7499278887
 40
1.0
 40
1.0
 40
1.0
 40
1.0
 10
-5.0918962103
 20
-15.5874886635
 30
0.0
 10
-5.073267019
 20
-15.5874886635
 30
0.0
 10
-5.0351502548
 20
-15.5765618932
 30
0.0
 10
-4.9964807356
 20
-15.5320912877
 30
0.0
 10
-4.9876940964
 20
-15.4738672774
 30
0.0
 10
-5.0037566218
 20
-15.4376816156
 30
0.0
 10
-5.0156683941
 20
-15.4233498936
 30
0.0
 11
-5.0918962103
 21
-15.5874886635
 31
0.0
 11
-5.038232363
 21
-15.5718805753
 31
0.0
 11
-5.0014628267
 21
-15.5298035355
 31
0.0
 11
-4.9931735566
 21
-15.4745317209
 31
0.0
 11
-5.0156683941
 21
-15.4233498936
 31
0.0
  0
SPLINE
  5
5FF
100
AcDbEntity
  8
ASSI
100
AcDbSpline
 62
7
  6
CONTINUOUS
 70
0
 71
3
 72
11
 73
7
 74
5
 42
0.0000001
 43
0.0000001
 44
0.0000000001
 12
0.1429000495
 22
0.1719310733
 32
0.0
 13
-0.223563678
 23
-0.0
 33
0.0
 40
0.0
 40
0.0
 40
0.0
 40
0.0
 40
0.2500721107
 40
0.5000677719
 40
0.7500149598
 40
1.0
 40
1.0
 40
1.0
 40
1.0
 10
-5.0156683956
 20
-10.5766501087
 30
0.0
 10
-5.0037566233
 20
-10.5623183866
 30
0.0
 10
-4.9876940956
 20
-10.5261327224
 30
0.0
 10
-4.9964807367
 20
-10.4679087105
 30
0.0
 10
-5.0351502571
 20
-10.4234381068
 30
0.0
 10
-5.073267019
 20
-10.4125113365
 30
0.0
 10
-5.0918962107
 20
-10.4125113365
 30
0.0
 11
-5.0156683956
 21
-10.5766501087
 31
0.0
 11
-4.9931735571
 21
-10.5254682813
 31
0.0
 11
-5.0014628299
 21
-10.4701964584
 31
0.0
 11
-5.0382323625
 21
-10.4281194255
 31
0.0
 11
-5.0918962107
 21
-10.4125113365
 31
0.0
  0
SPLINE
  5
600
100
AcDbEntity
  8
ASSI
100
AcDbSpline
 62
7
  6
CONTINUOUS
 70
0
 71
3
 72
11
 73
7
 74
5
 42
0.0000001
 43
0.0000001
 44
0.0000000001
 12
-0.2235636754
 22
0.0
 32
0.0
 13
0.1429000479
 23
-0.1719310713
 33
0.0
 40
0.0
 40
0.0
 40
0.0
 40
0.0
 40
0.2499850383
 40
0.4999322631
 40
0.7499278887
 40
1.0
 40
1.0
 40
1.0
 40
1.0
 10
5.0918962103
 20
-10.4125113365
 30
0.0
 10
5.073267019
 20
-10.4125113365
 30
0.0
 10
5.0351502548
 20
-10.4234381068
 30
0.0
 10
4.9964807356
 20
-10.4679087123
 30
0.0
 10
4.9876940964
 20
-10.5261327226
 30
0.0
 10
5.0037566218
 20
-10.5623183844
 30
0.0
 10
5.0156683941
 20
-10.5766501064
 30
0.0
 11
5.0918962103
 21
-10.4125113365
 31
0.0
 11
5.038232363
 21
-10.4281194247
 31
0.0
 11
5.0014628267
 21
-10.4701964645
 31
0.0
 11
4.9931735566
 21
-10.5254682791
 31
0.0
 11
5.0156683941
 21
-10.5766501064
 31
0.0
  0
SPLINE
  5
601
100
AcDbEntity
  8
ASSI
100
AcDbSpline
 62
7
  6
CONTINUOUS
 70
0
 71
3
 72
11
 73
7
 74
5
 42
0.0000001
 43
0.0000001
 44
0.0000000001
 12
-0.1429000495
 22
-0.1719310733
 32
0.0
 13
0.223563678
 23
0.0
 33
0.0
 40
0.0
 40
0.0
 40
0.0
 40
0.0
 40
0.2500721107
 40
0.5000677719
 40
0.7500149598
 40
1.0
 40
1.0
 40
1.0
 40
1.0
 10
5.0156683956
 20
-15.4233498913
 30
0.0
 10
5.0037566233
 20
-15.4376816134
 30
0.0
 10
4.9876940956
 20
-15.4738672776
 30
0.0
 10
4.9964807367
 20
-15.5320912895
 30
0.0
 10
5.0351502571
 20
-15.5765618932
 30
0.0
 10
5.073267019
 20
-15.5874886635
 30
0.0
 10
5.0918962107
 20
-15.5874886635
 30
0.0
 11
5.0156683956
 21
-15.4233498913
 31
0.0
 11
4.9931735571
 21
-15.4745317187
 31
0.0
 11
5.0014628299
 21
-15.5298035416
 31
0.0
 11
5.0382323625
 21
-15.5718805745
 31
0.0
 11
5.0918962107
 21
-15.5874886635
 31
0.0
  0
LINE
  5
602
100
AcDbEntity
  8
ASSI
100
AcDbLine
 62
7
  6
CONTINUOUS
 10
4.3
 20
-16.6945906404
 11
4.2912724675
 21
-16.6896265886
  0
LINE
  5
603
100
AcDbEntity
  8
ASSI
100
AcDbLine
 62
7
  6
CONTINUOUS
 10
-4.3
 20
-16.6945906404
 11
-4.2912724675
 21
-16.6896265886
  0
SPLINE
  5
604
100
AcDbEntity
  8
ASSI
100
AcDbSpline
 62
7
  6
CONTINUOUS
 70
0
 71
3
 72
11
 73
7
 74
5
 42
0.0000001
 43
0.0000001
 44
0.0000000001
 12
-0.2238750009
 22
0.0000000072
 32
0.0
 13
0.1436668335
 23
0.1716969918
 33
0.0
 40
0.0
 40
0.0
 40
0.0
 40
0.0
 40
0.2500302213
 40
0.4999885119
 40
0.7499005399
 40
1.0
 40
1.0
 40
1.0
 40
1.0
 10
5.0823234774
 20
-15.5962375299
 30
0.0
 10
5.063664972
 20
-15.5962375293
 30
0.0
 10
5.0254804729
 20
-15.5852812784
 30
0.0
 10
4.9868453122
 20
-15.5406685206
 30
0.0
 10
4.978129461
 20
-15.4823510653
 30
0.0
 10
4.9943339654
 20
-15.4461589937
 30
0.0
 10
5.0063109646
 20
-15.4318452187
 30
0.0
 11
5.0823234774
 21
-15.5962375299
 31
0.0
 11
5.0285820986
 21
-15.5805811383
 31
0.0
 11
4.9918299052
 21
-15.5383824163
 31
0.0
 11
4.9836313736
 21
-15.4830373091
 31
0.0
 11
5.0063109646
 21
-15.4318452187
 31
0.0
  0
SPLINE
  5
605
100
AcDbEntity
  8
ASSI
100
AcDbSpline
 62
7
  6
CONTINUOUS
 70
0
 71
3
 72
11
 73
7
 74
5
 42
0.0000001
 43
0.0000001
 44
0.0000000001
 12
-0.1436672374
 22
0.1716974735
 32
0.0
 13
0.2238756295
 23
0.0000000062
 33
0.0
 40
0.0
 40
0.0
 40
0.0
 40
0.0
 40
0.2501184859
 40
0.5000490486
 40
0.7499448763
 40
1.0
 40
1.0
 40
1.0
 40
1.0
 10
5.0063109646
 20
-10.5681547815
 30
0.0
 10
4.9943330207
 20
-10.5538398775
 30
0.0
 10
4.9781261384
 20
-10.517644015
 30
0.0
 10
4.9868516803
 20
-10.4593304972
 30
0.0
 10
5.0254785746
 20
-10.4147146067
 30
0.0
 10
5.0636630613
 20
-10.4037624706
 30
0.0
 10
5.0823234774
 20
-10.4037624701
 30
0.0
 11
5.0063109646
 21
-10.5681547815
 31
0.0
 11
4.9836304142
 21
-10.5169582855
 31
0.0
 11
4.9918355154
 21
-10.4616097982
 31
0.0
 11
5.0285763093
 21
-10.4194194839
 31
0.0
 11
5.0823234774
 21
-10.4037624701
 31
0.0
  0
SPLINE
  5
606
100
AcDbEntity
  8
ASSI
100
AcDbSpline
 62
7
  6
CONTINUOUS
 70
0
 71
3
 72
11
 73
7
 74
5
 42
0.0000001
 43
0.0000001
 44
0.0000000001
 12
0.2238750009
 22
-0.0000000072
 32
0.0
 13
-0.1436668335
 23
-0.1716969918
 33
0.0
 40
0.0
 40
0.0
 40
0.0
 40
0.0
 40
0.2500302213
 40
0.4999885119
 40
0.7499005399
 40
1.0
 40
1.0
 40
1.0
 40
1.0
 10
-5.0823234774
 20
-10.4037624701
 30
0.0
 10
-5.063664972
 20
-10.4037624707
 30
0.0
 10
-5.0254804729
 20
-10.4147187216
 30
0.0
 10
-4.9868453122
 20
-10.4593314794
 30
0.0
 10
-4.978129461
 20
-10.5176489347
 30
0.0
 10
-4.9943339654
 20
-10.5538410063
 30
0.0
 10
-5.0063109646
 20
-10.5681547813
 30
0.0
 11
-5.0823234774
 21
-10.4037624701
 31
0.0
 11
-5.0285820986
 21
-10.4194188617
 31
0.0
 11
-4.9918299052
 21
-10.4616175837
 31
0.0
 11
-4.9836313736
 21
-10.5169626909
 31
0.0
 11
-5.0063109646
 21
-10.5681547813
 31
0.0
  0
SPLINE
  5
607
100
AcDbEntity
  8
ASSI
100
AcDbSpline
 62
7
  6
CONTINUOUS
 70
0
 71
3
 72
11
 73
7
 74
5
 42
0.0000001
 43
0.0000001
 44
0.0000000001
 12
0.1436672374
 22
-0.1716974735
 32
0.0
 13
-0.2238756295
 23
-0.0000000062
 33
0.0
 40
0.0
 40
0.0
 40
0.0
 40
0.0
 40
0.2501184859
 40
0.5000490486
 40
0.7499448763
 40
1.0
 40
1.0
 40
1.0
 40
1.0
 10
-5.0063109646
 20
-15.4318452185
 30
0.0
 10
-4.9943330207
 20
-15.4461601225
 30
0.0
 10
-4.9781261384
 20
-15.482355985
 30
0.0
 10
-4.9868516803
 20
-15.5406695028
 30
0.0
 10
-5.0254785746
 20
-15.5852853933
 30
0.0
 10
-5.0636630613
 20
-15.5962375294
 30
0.0
 10
-5.0823234774
 20
-15.5962375299
 30
0.0
 11
-5.0063109646
 21
-15.4318452185
 31
0.0
 11
-4.9836304142
 21
-15.4830417145
 31
0.0
 11
-4.9918355154
 21
-15.5383902018
 31
0.0
 11
-5.0285763093
 21
-15.5805805161
 31
0.0
 11
-5.0823234774
 21
-15.5962375299
 31
0.0
  0
SPLINE
  5
608
100
AcDbEntity
  8
ASSI
100
AcDbSpline
 62
7
  6
CONTINUOUS
 70
0
 71
3
 72
11
 73
7
 74
5
 42
0.0000001
 43
0.0000001
 44
0.0000000001
 12
0.2204168726
 22
0.0000000043
 32
0.0
 13
-0.1353258831
 23
0.1739842035
 33
0.0
 40
0.0
 40
0.0
 40
0.0
 40
0.0
 40
0.2500450942
 40
0.4999473533
 40
0.7498865944
 40
1.0
 40
1.0
 40
1.0
 40
1.0
 10
-5.1846805438
 20
-15.5
 30
0.0
 10
-5.1663091579
 20
-15.4999999996
 30
0.0
 10
-5.1287428814
 20
-15.4893900246
 30
0.0
 10
-5.0901905071
 20
-15.4460570727
 30
0.0
 10
-5.0803127473
 20
-15.3889501911
 30
0.0
 10
-5.095104721
 20
-15.3528898874
 30
0.0
 10
-5.1063869935
 20
-15.3383846268
 30
0.0
 11
-5.1846805438
 21
-15.5
 31
0.0
 11
-5.131699722
 21
-15.4848143851
 31
0.0
 11
-5.0949701612
 21
-15.4437651417
 31
0.0
 11
-5.085655878
 21
-15.3894674142
 31
0.0
 11
-5.1063869935
 21
-15.3383846268
 31
0.0
  0
SPLINE
  5
609
100
AcDbEntity
  8
ASSI
100
AcDbSpline
 62
7
  6
CONTINUOUS
 70
0
 71
3
 72
11
 73
7
 74
5
 42
0.0000001
 43
0.0000001
 44
0.0000000001
 12
0.1353256669
 22
0.1739839264
 32
0.0
 13
-0.2204165211
 23
0.0000000051
 33
0.0
 40
0.0
 40
0.0
 40
0.0
 40
0.0
 40
0.2500938179
 40
0.5000098728
 40
0.7499654753
 40
1.0
 40
1.0
 40
1.0
 40
1.0
 10
-5.1063869934
 20
-10.6616153731
 30
0.0
 10
-5.0951056225
 20
-10.6471112716
 30
0.0
 10
-5.0803160044
 20
-10.6110550294
 30
0.0
 10
-5.0901839587
 20
-10.5539453095
 30
0.0
 10
-5.1287428306
 20
-10.510614247
 30
0.0
 10
-5.1663099638
 20
-10.5000000004
 30
0.0
 10
-5.1846805438
 20
-10.5
 30
0.0
 11
-5.1063869934
 21
-10.6616153731
 31
0.0
 11
-5.0856567173
 21
-10.6105369995
 31
0.0
 11
-5.0949640021
 21
-10.5562433461
 31
0.0
 11
-5.1317024643
 21
-10.515186408
 31
0.0
 11
-5.1846805438
 21
-10.5
 31
0.0
  0
SPLINE
  5
60A
100
AcDbEntity
  8
ASSI
100
AcDbSpline
 62
7
  6
CONTINUOUS
 70
0
 71
3
 72
11
 73
7
 74
5
 42
0.0000001
 43
0.0000001
 44
0.0000000001
 12
-0.2204168726
 22
-0.0000000043
 32
0.0
 13
0.1353258831
 23
-0.1739842035
 33
0.0
 40
0.0
 40
0.0
 40
0.0
 40
0.0
 40
0.2500450942
 40
0.4999473533
 40
0.7498865944
 40
1.0
 40
1.0
 40
1.0
 40
1.0
 10
5.1846805438
 20
-10.5
 30
0.0
 10
5.1663091579
 20
-10.5000000004
 30
0.0
 10
5.1287428814
 20
-10.5106099754
 30
0.0
 10
5.0901905071
 20
-10.5539429273
 30
0.0
 10
5.0803127473
 20
-10.6110498089
 30
0.0
 10
5.095104721
 20
-10.6471101126
 30
0.0
 10
5.1063869935
 20
-10.6616153732
 30
0.0
 11
5.1846805438
 21
-10.5
 31
0.0
 11
5.131699722
 21
-10.5151856149
 31
0.0
 11
5.0949701612
 21
-10.5562348583
 31
0.0
 11
5.085655878
 21
-10.6105325858
 31
0.0
 11
5.1063869935
 21
-10.6616153732
 31
0.0
  0
SPLINE
  5
60B
100
AcDbEntity
  8
ASSI
100
AcDbSpline
 62
7
  6
CONTINUOUS
 70
0
 71
3
 72
11
 73
7
 74
5
 42
0.0000001
 43
0.0000001
 44
0.0000000001
 12
-0.1353256669
 22
-0.1739839264
 32
0.0
 13
0.2204165211
 23
-0.0000000051
 33
0.0
 40
0.0
 40
0.0
 40
0.0
 40
0.0
 40
0.2500938179
 40
0.5000098728
 40
0.7499654753
 40
1.0
 40
1.0
 40
1.0
 40
1.0
 10
5.1063869934
 20
-15.3383846269
 30
0.0
 10
5.0951056225
 20
-15.3528887284
 30
0.0
 10
5.0803160044
 20
-15.3889449706
 30
0.0
 10
5.0901839587
 20
-15.4460546905
 30
0.0
 10
5.1287428306
 20
-15.489385753
 30
0.0
 10
5.1663099638
 20
-15.4999999996
 30
0.0
 10
5.1846805438
 20
-15.5
 30
0.0
 11
5.1063869934
 21
-15.3383846269
 31
0.0
 11
5.0856567173
 21
-15.3894630005
 31
0.0
 11
5.0949640021
 21
-15.4437566539
 31
0.0
 11
5.1317024643
 21
-15.484813592
 31
0.0
 11
5.1846805438
 21
-15.5
 31
0.0
  0
SPLINE
  5
60C
100
AcDbEntity
  8
ASSI
100
AcDbSpline
 62
7
  6
CONTINUOUS
 70
0
 71
3
 72
8
 73
4
 74
2
 42
0.0000001
 43
0.0000001
 44
0.0000000001
 12
-0.1306175459
 22
-0.1568577694
 32
0.0
 13
0.0
 23
-0.2041208052
 33
0.0
 40
0.0
 40
0.0
 40
0.0
 40
0.0
 40
1.0
 40
1.0
 40
1.0
 40
1.0
 10
-6.3130921852
 20
-9.4917022356
 30
0.0
 10
-6.3566313672
 20
-9.5439881587
 30
0.0
 10
-6.3825449351
 20
-9.6156036736
 30
0.0
 10
-6.3825449351
 20
-9.683643942
 30
0.0
 11
-6.3130921852
 21
-9.4917022356
 31
0.0
 11
-6.3825449351
 21
-9.683643942
 31
0.0
  0
LINE
  5
60D
100
AcDbEntity
  8
ASSI
100
AcDbLine
 62
253
  6
CONTINUOUS
 10
6.3844855448
 20
-9.6829418204
 11
6.3825449351
 21
-9.683643942
  0
SPLINE
  5
60E
100
AcDbEntity
  8
ASSI
100
AcDbSpline
 62
7
  6
CONTINUOUS
 70
0
 71
3
 72
8
 73
4
 74
2
 42
0.0000001
 43
0.0000001
 44
0.0000000001
 12
0.0
 22
0.2041208052
 32
0.0
 13
-0.1306175459
 23
0.1568577694
 33
0.0
 40
0.0
 40
0.0
 40
0.0
 40
0.0
 40
1.0
 40
1.0
 40
1.0
 40
1.0
 10
6.3825449351
 20
-9.683643942
 30
0.0
 10
6.3825449351
 20
-9.6156036736
 30
0.0
 10
6.3566313672
 20
-9.5439881587
 30
0.0
 10
6.3130921852
 20
-9.4917022356
 30
0.0
 11
6.3825449351
 21
-9.683643942
 31
0.0
 11
6.3130921852
 21
-9.4917022356
 31
0.0
  0
SPLINE
  5
60F
100
AcDbEntity
  8
RACCORDO
100
AcDbSpline
 62
7
  6
CONTINUOUS
 70
0
 71
3
 72
8
 73
4
 74
2
 42
0.0000001
 43
0.0000001
 44
0.0000000001
 12
-0.1041624299
 22
0.0
 32
0.0
 13
-0.0979376358
 23
0.0354687367
 33
0.0
 40
0.0
 40
0.0
 40
0.0
 40
0.0
 40
1.0
 40
1.0
 40
1.0
 40
1.0
 10
4.911792695
 20
18.5
 30
0.0
 10
4.8770718851
 20
18.5
 30
0.0
 10
4.8418813846
 20
18.5063934206
 30
0.0
 10
4.809235506
 20
18.5182163328
 30
0.0
 11
4.911792695
 21
18.5
 31
0.0
 11
4.809235506
 21
18.5182163328
 31
0.0
  0
SPLINE
  5
610
100
AcDbEntity
  8
RACCORDO
100
AcDbSpline
 62
7
  6
CONTINUOUS
 70
0
 71
3
 72
9
 73
5
 74
3
 42
0.0000001
 43
0.0000001
 44
0.0000000001
 12
-0.2919780092
 22
0.1057416902
 32
0.0
 13
-0.0546234886
 23
0.3056938622
 33
0.0
 40
0.0
 40
0.0
 40
0.0
 40
0.0
 40
0.4997405437
 40
1.0
 40
1.0
 40
1.0
 40
1.0
 10
4.809235506
 20
18.5182163328
 30
0.0
 10
4.7605977564
 20
18.5358308027
 30
0.0
 10
4.6708604666
 20
18.597850943
 30
0.0
 10
4.6255771442
 20
18.6969492323
 30
0.0
 10
4.6164685053
 20
18.7479246474
 30
0.0
 11
4.809235506
 21
18.5182163328
 31
0.0
 11
4.6820089934
 21
18.6070786796
 31
0.0
 11
4.6164685053
 21
18.7479246474
 31
0.0
  0
SPLINE
  5
611
100
AcDbEntity
  8
0
100
AcDbSpline
 62
7
  6
CONTINUOUS
 70
0
 71
3
 72
12
 73
8
 74
6
 42
0.0000001
 43
0.0000001
 44
0.0000000001
 12
0.4787328492
 22
-0.0602623698
 32
0.0
 13
-0.0
 23
-0.4825109278
 33
0.0
 40
0.0
 40
0.0
 40
0.0
 40
0.0
 40
0.2976578501
 40
0.4627467792
 40
0.6312983859
 40
0.8298443225
 40
1.0
 40
1.0
 40
1.0
 40
1.0
 10
-4.003711982
 20
3.184324
 30
0.0
 10
-3.9562124518
 20
3.1783448109
 30
0.0
 10
-3.8812258771
 20
3.17538068
 30
0.0
 10
-3.7852406113
 20
3.133800052
 30
0.0
 10
-3.7305801485
 20
3.0645464948
 30
0.0
 10
-3.7011936334
 20
2.981784483
 30
0.0
 10
-3.6982248568
 20
2.9220848239
 30
0.0
 10
-3.6982248568
 20
2.8947174993
 30
0.0
 11
-4.003711982
 21
3.184324
 31
0.0
 11
-3.8616586538
 21
3.1631469996
 31
0.0
 11
-3.7897971565
 21
3.1287784575
 31
0.0
 11
-3.7373764508
 21
3.066598783
 31
0.0
 11
-3.7046279746
 21
2.9765694032
 31
0.0
 11
-3.6982248568
 21
2.8947174993
 31
0.0
  0
SPLINE
  5
612
100
AcDbEntity
  8
0
100
AcDbSpline
 62
7
  6
CONTINUOUS
 70
0
 71
3
 72
12
 73
8
 74
6
 42
0.0000001
 43
0.0000001
 44
0.0000000001
 12
-0.0
 22
-0.4825109161
 32
0.0
 13
-0.4787328387
 23
-0.0602623616
 33
0.0
 40
0.0
 40
0.0
 40
0.0
 40
0.0
 40
0.1701556816
 40
0.3687016231
 40
0.5372532339
 40
0.702342167
 40
1.0
 40
1.0
 40
1.0
 40
1.0
 10
-3.6982248568
 20
2.8947174993
 30
0.0
 10
-3.6982248568
 20
2.8673501747
 30
0.0
 10
-3.7011936334
 20
2.8076505155
 30
0.0
 10
-3.7305801485
 20
2.7248885037
 30
0.0
 10
-3.7852406113
 20
2.6556349465
 30
0.0
 10
-3.8812258734
 20
2.6140543201
 30
0.0
 10
-3.9562124439
 20
2.611090188
 30
0.0
 10
-4.0037119703
 20
2.605111
 30
0.0
 11
-3.6982248568
 21
2.8947174993
 31
0.0
 11
-3.7046279746
 21
2.8128655953
 31
0.0
 11
-3.7373764508
 21
2.7228362155
 31
0.0
 11
-3.7897971565
 21
2.660656541
 31
0.0
 11
-3.8616586538
 21
2.6262879989
 31
0.0
 11
-4.0037119703
 21
2.605111
 31
0.0
  0
SPLINE
  5
613
100
AcDbEntity
  8
0
100
AcDbSpline
 62
7
  6
CONTINUOUS
 70
0
 71
3
 72
9
 73
5
 74
3
 42
0.0000001
 43
0.0000001
 44
0.0000000001
 12
0.4209784888
 22
0.0156020152
 32
0.0
 13
0.4066504174
 23
0.1143363319
 33
0.0
 40
0.0
 40
0.0
 40
0.0
 40
0.0
 40
0.5364059302
 40
1.0
 40
1.0
 40
1.0
 40
1.0
 10
-4.0732533974
 20
2.264435
 30
0.0
 10
-3.9979816115
 20
2.2672246712
 30
0.0
 10
-3.8573396572
 20
2.2694789549
 30
0.0
 10
-3.7183668095
 20
2.2938493606
 30
0.0
 10
-3.6555265688
 20
2.3115179091
 30
0.0
 11
-4.0732533974
 21
2.264435
 31
0.0
 11
-3.8475795091
 21
2.2760065945
 31
0.0
 11
-3.6555265688
 21
2.3115179091
 31
0.0
  0
SPLINE
  5
614
100
AcDbEntity
  8
0
100
AcDbSpline
 62
7
  6
CONTINUOUS
 70
0
 71
3
 72
13
 73
9
 74
7
 42
0.0000001
 43
0.0000001
 44
0.0000000001
 12
0.7576052006
 22
0.2130129369
 32
0.0
 13
0.0
 23
0.7848373072
 33
0.0
 40
0.0
 40
0.0
 40
0.0
 40
0.0
 40
0.0095329708
 40
0.2449937702
 40
0.4685004684
 40
0.7075201497
 40
0.8448665473
 40
1.0
 40
1.0
 40
1.0
 40
1.0
 10
-3.6555265688
 20
2.3115179091
 30
0.0
 10
-3.6531191594
 20
2.3121947912
 30
0.0
 10
-3.5913094905
 20
2.3298306919
 30
0.0
 10
-3.4761396585
 20
2.3754795513
 30
0.0
 10
-3.3334667983
 20
2.4963073926
 30
0.0
 10
-3.2622876158
 20
2.6409310845
 30
0.0
 10
-3.2341185393
 20
2.777430517
 30
0.0
 10
-3.2297172104
 20
2.8541326588
 30
0.0
 10
-3.2297172104
 20
2.8947174993
 30
0.0
 11
-3.6555265688
 21
2.3115179091
 31
0.0
 11
-3.648311396
 21
2.3135766956
 31
0.0
 11
-3.4782044702
 21
2.3857853498
 31
0.0
 11
-3.3458990835
 21
2.500964325
 31
0.0
 11
-3.2601898796
 21
2.6678311189
 31
0.0
 11
-3.2375089562
 21
2.7732125523
 31
0.0
 11
-3.2297172104
 21
2.8947174993
 31
0.0
  0
SPLINE
  5
615
100
AcDbEntity
  8
0
100
AcDbSpline
 62
7
  6
CONTINUOUS
 70
0
 71
3
 72
13
 73
9
 74
7
 42
0.0000001
 43
0.0000001
 44
0.0000000001
 12
0.0
 22
0.7821143173
 32
0.0
 13
-0.7544422258
 23
0.2144119618
 33
0.0
 40
0.0
 40
0.0
 40
0.0
 40
0.0
 40
0.1556735615
 40
0.2934981409
 40
0.5333499873
 40
0.7576348408
 40
0.9939154148
 40
1.0
 40
1.0
 40
1.0
 40
1.0
 10
-3.2297172104
 20
2.8947174993
 30
0.0
 10
-3.2297172104
 20
2.9353023397
 30
0.0
 10
-3.2341185393
 20
3.0120044815
 30
0.0
 10
-3.2622876158
 20
3.148503914
 30
0.0
 10
-3.3334667983
 20
3.2931276059
 30
0.0
 10
-3.4761396585
 20
3.4139554472
 30
0.0
 10
-3.5904565965
 20
3.4592662525
 30
0.0
 10
-3.6513688333
 20
3.4767394528
 30
0.0
 10
-3.6528989893
 20
3.4771743221
 30
0.0
 11
-3.2297172104
 21
2.8947174993
 31
0.0
 11
-3.2375089562
 21
3.0162224463
 31
0.0
 11
-3.2601898796
 21
3.1216038797
 31
0.0
 11
-3.3458990835
 21
3.2884706736
 31
0.0
 11
-3.4782044702
 21
3.4036496487
 31
0.0
 11
-3.648311396
 21
3.4758583029
 31
0.0
 11
-3.6528989893
 21
3.4771743221
 31
0.0
  0
SPLINE
  5
616
100
AcDbEntity
  8
0
100
AcDbSpline
 62
7
  6
CONTINUOUS
 70
0
 71
3
 72
9
 73
5
 74
3
 42
0.0000001
 43
0.0000001
 44
0.0000000001
 12
-0.4089892252
 22
0.1162344566
 32
0.0
 13
-0.4236996501
 23
0.0157028682
 33
0.0
 40
0.0
 40
0.0
 40
0.0
 40
0.0
 40
0.4670389809
 40
1.0
 40
1.0
 40
1.0
 40
1.0
 10
-3.6528989893
 20
3.4771743221
 30
0.0
 10
-3.716570293
 20
3.4952696629
 30
0.0
 10
-3.8564305884
 20
3.5199414747
 30
0.0
 10
-3.9979816379
 20
3.5222103278
 30
0.0
 10
-4.073253437
 20
3.525
 30
0.0
 11
-3.6528989893
 21
3.4771743221
 31
0.0
 11
-3.8475795091
 21
3.513428404
 31
0.0
 11
-4.073253437
 21
3.525
 31
0.0
  0
SPLINE
  5
617
100
AcDbEntity
  8
RACCORDO
100
AcDbSpline
 62
7
  6
CONTINUOUS
 70
0
 71
3
 72
11
 73
7
 74
5
 42
0.0000001
 43
0.0000001
 44
0.0000000001
 12
-0.4166959502
 22
0.0
 32
0.0
 13
-0.0732971492
 23
0.4101987845
 33
0.0
 40
0.0
 40
0.0
 40
0.0
 40
0.0
 40
0.2493983015
 40
0.4996585918
 40
0.7494923694
 40
1.0
 40
1.0
 40
1.0
 40
1.0
 10
-5.088207305
 20
18.5
 30
0.0
 10
-5.1228483924
 20
18.5
 30
0.0
 10
-5.1927850405
 20
18.5125089854
 30
0.0
 10
-5.2848774938
 20
18.5652681665
 30
0.0
 10
-5.3533299927
 20
18.6467329329
 30
0.0
 10
-5.3774109963
 20
18.7136720055
 30
0.0
 10
-5.3835314947
 20
18.7479246474
 30
0.0
 11
-5.088207305
 21
18.5
 31
0.0
 11
-5.1905362392
 21
18.5181337711
 31
0.0
 11
-5.2809628642
 21
18.5700746486
 31
0.0
 11
-5.3478959031
 21
18.6498102224
 31
0.0
 11
-5.3835314947
 21
18.7479246474
 31
0.0
  0
SPLINE
  5
618
100
AcDbEntity
  8
RACCORDO
100
AcDbSpline
 62
7
  6
CONTINUOUS
 70
0
 71
3
 72
8
 73
4
 74
2
 42
0.0000001
 43
0.0000001
 44
0.0000000001
 12
-0.1125712695
 22
0.0301212505
 32
0.0
 13
-0.0925455514
 23
0.0708159683
 33
0.0
 40
0.0
 40
0.0
 40
0.0
 40
0.0
 40
1.0
 40
1.0
 40
1.0
 40
1.0
 10
4.8216236376
 20
18.510279849
 30
0.0
 10
4.7840998811
 20
18.5203202658
 30
0.0
 10
4.7479230845
 20
18.5381436662
 30
0.0
 10
4.7170745674
 20
18.5617489889
 30
0.0
 11
4.8216236376
 21
18.510279849
 31
0.0
 11
4.7170745674
 21
18.5617489889
 31
0.0
  0
SPLINE
  5
619
100
AcDbEntity
  8
RACCORDO
100
AcDbSpline
 62
7
  6
CONTINUOUS
 70
0
 71
3
 72
8
 73
4
 74
2
 42
0.0000001
 43
0.0000001
 44
0.0000000001
 12
-0.0949715683
 22
0.123279771
 32
0.0
 13
-0.0205328883
 23
0.1542592014
 33
0.0
 40
0.0
 40
0.0
 40
0.0
 40
0.0
 40
1.0
 40
1.0
 40
1.0
 40
1.0
 10
4.6618356239
 20
18.6168083145
 30
0.0
 10
4.6301784345
 20
18.6579015715
 30
0.0
 10
4.6089600066
 20
18.7090932524
 30
0.0
 10
4.6021157105
 20
18.7605129862
 30
0.0
 11
4.6618356239
 21
18.6168083145
 31
0.0
 11
4.6021157105
 21
18.7605129862
 31
0.0
  0
SPLINE
  5
61A
100
AcDbEntity
  8
RACCORDO
100
AcDbSpline
 62
7
  6
CONTINUOUS
 70
0
 71
3
 72
16
 73
12
 74
10
 42
0.0000001
 43
0.0000001
 44
0.0000000001
 12
-0.093612799
 22
-0.1770980034
 32
0.0
 13
-0.2003173955
 23
0.0000001409
 33
0.0
 40
0.0
 40
0.0
 40
0.0
 40
0.0
 40
0.0071892087
 40
0.0233374986
 40
0.048483132
 40
0.0824189269
 40
0.1756467204
 40
0.2999201663
 40
0.4505021155
 40
0.6223294737
 40
1.0
 40
1.0
 40
1.0
 40
1.0
 10
9.8013179566
 20
-19.6882579219
 30
0.0
 10
9.8010936226
 20
-19.6886823201
 30
0.0
 10
9.7993024775
 20
-19.6890275816
 30
0.0
 10
9.7963488895
 20
-19.6896874848
 30
0.0
 10
9.7912364234
 20
-19.6902195673
 30
0.0
 10
9.7811723406
 20
-19.6911212815
 30
0.0
 10
9.764357427
 20
-19.6920362603
 30
0.0
 10
9.7398198786
 20
-19.6929881053
 30
0.0
 10
9.7099955077
 20
-19.6937751127
 30
0.0
 10
9.6632599332
 20
-19.6946060083
 30
0.0
 10
9.6265664096
 20
-19.6948597532
 30
0.0
 10
9.6013484175
 20
-19.6948597355
 30
0.0
 11
9.8013179566
 21
-19.6882579219
 31
0.0
 11
9.8000251415
 21
-19.6888924178
 31
0.0
 11
9.7968525615
 21
-19.6895237338
 31
0.0
 11
9.7918539211
 21
-19.6901450624
 31
0.0
 11
9.7850829247
 21
-19.6907495957
 31
0.0
 11
9.7664420921
 21
-19.6918812051
 31
0.0
 11
9.7415677544
 21
-19.6928737697
 31
0.0
 11
9.7114148128
 21
-19.6936972385
 31
0.0
 11
9.6770004879
 21
-19.6943227428
 31
0.0
 11
9.6013484175
 21
-19.6948597355
 31
0.0
  0
SPLINE
  5
61B
100
AcDbEntity
  8
RACCORDO
100
AcDbSpline
 62
7
  6
CONTINUOUS
 70
0
 71
3
 72
16
 73
12
 74
10
 42
0.0000001
 43
0.0000001
 44
0.0000000001
 12
-0.0936136072
 22
0.1770974108
 32
0.0
 13
-0.2003172493
 23
-0.0000001617
 33
0.0
 40
0.0
 40
0.0
 40
0.0
 40
0.0
 40
0.0071890535
 40
0.0233371555
 40
0.0484826285
 40
0.0824183124
 40
0.1756460892
 40
0.2999197021
 40
0.4505018411
 40
0.6223293119
 40
1.0
 40
1.0
 40
1.0
 40
1.0
 10
9.8013179566
 20
19.6882579219
 30
0.0
 10
9.8010936255
 20
19.6886823095
 30
0.0
 10
9.7993024561
 20
19.6890274665
 30
0.0
 10
9.7963488879
 20
19.6896871802
 30
0.0
 10
9.7912364166
 20
19.6902189944
 30
0.0
 10
9.7811723299
 20
19.6911202774
 30
0.0
 10
9.7643574036
 20
19.6920348564
 30
0.0
 10
9.7398198489
 20
19.692986587
 30
0.0
 10
9.7099954735
 20
19.6937737701
 30
0.0
 10
9.6632599166
 20
19.6946053883
 30
0.0
 10
9.626566402
 20
19.6948597558
 30
0.0
 10
9.6013484175
 20
19.6948597355
 30
0.0
 11
9.8013179566
 21
19.6882579219
 31
0.0
 11
9.8000251404
 21
19.6888923426
 31
0.0
 11
9.7968525627
 21
19.689523465
 31
0.0
 11
9.7918539253
 21
19.6901445277
 31
0.0
 11
9.7850829302
 21
19.6907487695
 31
0.0
 11
9.7664420856
 21
19.6918799011
 31
0.0
 11
9.7415677259
 21
19.6928722991
 31
0.0
 11
9.7114147728
 21
19.6936959327
 31
0.0
 11
9.6770004592
 21
19.6943219158
 31
0.0
 11
9.6013484175
 21
19.6948597355
 31
0.0
  0
SPLINE
  5
61C
100
AcDbEntity
  8
RACCORDO
100
AcDbSpline
 62
7
  6
CONTINUOUS
 70
0
 71
3
 72
16
 73
12
 74
10
 42
0.0000001
 43
0.0000001
 44
0.0000000001
 12
0.0936136069
 22
0.1770974107
 32
0.0
 13
0.2003172491
 23
-0.0000001617
 33
0.0
 40
0.0
 40
0.0
 40
0.0
 40
0.0
 40
0.0071890642
 40
0.0233371928
 40
0.0484826951
 40
0.0824183981
 40
0.175646137
 40
0.2999196546
 40
0.4505017343
 40
0.6223292359
 40
1.0
 40
1.0
 40
1.0
 40
1.0
 10
-9.8013179566
 20
19.6882579219
 30
0.0
 10
-9.8010936252
 20
19.6886823101
 30
0.0
 10
-9.7993024521
 20
19.689027466
 30
0.0
 10
-9.7963488803
 20
19.6896871807
 30
0.0
 10
-9.7912364035
 20
19.6902189947
 30
0.0
 10
-9.7811723163
 20
19.6911202779
 30
0.0
 10
-9.7643573977
 20
19.6920348576
 30
0.0
 10
-9.7398198559
 20
19.6929865879
 30
0.0
 10
-9.7099954888
 20
19.6937737704
 30
0.0
 10
-9.6632599287
 20
19.694605388
 30
0.0
 10
-9.626566407
 20
19.6948597558
 30
0.0
 10
-9.6013484175
 20
19.6948597355
 30
0.0
 11
-9.8013179566
 21
19.6882579219
 31
0.0
 11
-9.800025138
 21
19.6888923426
 31
0.0
 11
-9.7968525549
 21
19.6895234652
 31
0.0
 11
-9.7918539117
 21
19.6901445282
 31
0.0
 11
-9.7850829128
 21
19.6907487703
 31
0.0
 11
-9.7664420758
 21
19.6918799022
 31
0.0
 11
-9.7415677353
 21
19.6928722999
 31
0.0
 11
-9.7114147941
 21
19.6936959329
 31
0.0
 11
-9.6770004744
 21
19.6943219157
 31
0.0
 11
-9.6013484175
 21
19.6948597355
 31
0.0
  0
SPLINE
  5
61D
100
AcDbEntity
  8
RACCORDO
100
AcDbSpline
 62
7
  6
CONTINUOUS
 70
0
 71
3
 72
16
 73
12
 74
10
 42
0.0000001
 43
0.0000001
 44
0.0000000001
 12
0.0936127993
 22
-0.1770980036
 32
0.0
 13
0.2003173958
 23
0.0000001409
 33
0.0
 40
0.0
 40
0.0
 40
0.0
 40
0.0
 40
0.0071891979
 40
0.0233374611
 40
0.0484830652
 40
0.082418841
 40
0.1756466725
 40
0.299920214
 40
0.4505022227
 40
0.6223295499
 40
1.0
 40
1.0
 40
1.0
 40
1.0
 10
-9.8013179566
 20
-19.6882579219
 30
0.0
 10
-9.8010936229
 20
-19.6886823194
 30
0.0
 10
-9.7993024815
 20
-19.6890275821
 30
0.0
 10
-9.7963488972
 20
-19.6896874843
 30
0.0
 10
-9.7912364365
 20
-19.6902195671
 30
0.0
 10
-9.7811723542
 20
-19.691121281
 30
0.0
 10
-9.764357433
 20
-19.6920362591
 30
0.0
 10
-9.7398198716
 20
-19.6929881043
 30
0.0
 10
-9.7099954924
 20
-19.6937751124
 30
0.0
 10
-9.6632599211
 20
-19.6946060086
 30
0.0
 10
-9.6265664046
 20
-19.6948597532
 30
0.0
 10
-9.6013484175
 20
-19.6948597355
 30
0.0
 11
-9.8013179566
 21
-19.6882579219
 31
0.0
 11
-9.8000251439
 21
-19.6888924177
 31
0.0
 11
-9.7968525693
 21
-19.6895237336
 31
0.0
 11
-9.7918539348
 21
-19.6901450619
 31
0.0
 11
-9.7850829422
 21
-19.690749595
 31
0.0
 11
-9.7664421019
 21
-19.691881204
 31
0.0
 11
-9.741567745
 21
-19.6928737689
 31
0.0
 11
-9.7114147915
 21
-19.6936972384
 31
0.0
 11
-9.6770004728
 21
-19.6943227429
 31
0.0
 11
-9.6013484175
 21
-19.6948597355
 31
0.0
  0
LINE
  5
61E
100
AcDbEntity
  8
RACCORDO
100
AcDbLine
 62
253
  6
CONTINUOUS
 10
9.6013484198
 20
19.9530833924
 11
9.6013726044
 21
20.0028157627
  0
SPLINE
  5
61F
100
AcDbEntity
  8
RACCORDO
100
AcDbSpline
 62
253
  6
CONTINUOUS
 70
0
 71
3
 72
12
 73
8
 74
6
 42
0.0000001
 43
0.0000001
 44
0.0000000001
 12
0.0005224972
 22
0.105341015
 32
0.0
 13
0.0335071054
 23
0.0998712989
 33
0.0
 40
0.0
 40
0.0
 40
0.0
 40
0.0
 40
0.4142560632
 40
0.7275321275
 40
0.8417236223
 40
0.9257564785
 40
1.0
 40
1.0
 40
1.0
 40
1.0
 10
9.6017657544
 20
20.1477045958
 30
0.0
 10
9.6018379036
 20
20.1622506472
 30
0.0
 10
9.6019311567
 20
20.1878091177
 30
0.0
 10
9.6023579117
 20
20.2173288031
 30
0.0
 10
9.6023717436
 20
20.2353373056
 30
0.0
 10
9.6029885094
 20
20.2448102622
 30
0.0
 10
9.6022342323
 20
20.2505614008
 30
0.0
 10
9.6030634608
 20
20.2530329998
 30
0.0
 11
9.6017657544
 21
20.1477045958
 31
0.0
 11
9.6020334559
 21
20.1913424657
 31
0.0
 11
9.6023486543
 21
20.224342185
 31
0.0
 11
9.6025196874
 21
20.236370165
 31
0.0
 11
9.6026970603
 21
20.245220603
 31
0.0
 11
9.6030634608
 21
20.2530329998
 31
0.0
  0
SPLINE
  5
620
100
AcDbEntity
  8
RACCORDO
100
AcDbSpline
 62
253
  6
CONTINUOUS
 70
0
 71
3
 72
11
 73
7
 74
5
 42
0.0000001
 43
0.0000001
 44
0.0000000001
 12
0.0306561963
 22
-0.0923097507
 32
0.0
 13
0.0005183634
 23
-0.0972657378
 33
0.0
 40
0.0
 40
0.0
 40
0.0
 40
0.0
 40
0.0741149008
 40
0.2715856647
 40
0.584461755
 40
1.0
 40
1.0
 40
1.0
 40
1.0
 10
-9.603063463
 20
20.2530330065
 30
0.0
 10
-9.6023061027
 20
20.2507524972
 30
0.0
 10
-9.6032684053
 20
20.2416880275
 30
0.0
 10
-9.6019040074
 20
20.2229741963
 30
0.0
 10
-9.6022109855
 20
20.192828874
 30
0.0
 10
-9.6018789421
 20
20.169252311
 30
0.0
 10
-9.6018071421
 20
20.1557797664
 30
0.0
 11
-9.603063463
 21
20.2530330065
 31
0.0
 11
-9.6027124403
 21
20.2458326149
 31
0.0
 11
-9.6023771202
 21
20.2266281298
 31
0.0
 11
-9.6020711299
 21
20.1961971122
 31
0.0
 11
-9.6018071421
 21
20.1557797664
 31
0.0
  0
LINE
  5
621
100
AcDbEntity
  8
RACCORDO
100
AcDbLine
 62
253
  6
CONTINUOUS
 10
-9.601373705
 20
20.0037676869
 11
-9.6013484263
 21
19.9530905419
  0
SPLINE
  5
622
100
AcDbEntity
  8
RACCORDO
100
AcDbSpline
 62
253
  6
CONTINUOUS
 70
0
 71
3
 72
11
 73
7
 74
5
 42
0.0000001
 43
0.0000001
 44
0.0000000001
 12
0.1482231011
 22
0.0203714004
 32
0.0
 13
0.0115240218
 23
0.1491719766
 33
0.0
 40
0.0
 40
0.0
 40
0.0
 40
0.0
 40
0.0946308822
 40
0.2966097731
 40
0.6043686284
 40
1.0
 40
1.0
 40
1.0
 40
1.0
 10
3.4975443299
 20
-20.2521556976
 30
0.0
 10
3.5022198242
 20
-20.2515131097
 30
0.0
 10
3.5100767642
 20
-20.2352044643
 30
0.0
 10
3.5168853894
 20
-20.208220744
 30
0.0
 10
3.5241102438
 20
-20.1623964291
 30
0.0
 10
3.5273554838
 20
-20.1278154944
 30
0.0
 10
3.5288752387
 20
-20.1081431232
 30
0.0
 11
3.4975443299
 21
-20.2521556976
 31
0.0
 11
3.5067735924
 21
-20.2414188821
 31
0.0
 11
3.515430746
 21
-20.2124660986
 31
0.0
 11
3.5229557291
 21
-20.167039354
 31
0.0
 11
3.5288752387
 21
-20.1081431232
 31
0.0
  0
SPLINE
  5
623
100
AcDbEntity
  8
RACCORDO
100
AcDbSpline
 62
253
  6
CONTINUOUS
 70
0
 71
3
 72
11
 73
7
 74
5
 42
0.0000001
 43
0.0000001
 44
0.0000000001
 12
-0.1482432453
 22
0.0207835603
 32
0.0
 13
-0.0115288276
 23
0.1492484583
 33
0.0
 40
0.0
 40
0.0
 40
0.0
 40
0.0
 40
0.0947102027
 40
0.2967314806
 40
0.6044626054
 40
1.0
 40
1.0
 40
1.0
 40
1.0
 10
-3.497544316
 20
-20.2522373007
 30
0.0
 10
-3.5022243653
 20
-20.2515811623
 30
0.0
 10
-3.5100686146
 20
-20.2352617146
 30
0.0
 10
-3.5168876461
 20
-20.2082531285
 30
0.0
 10
-3.5241074246
 20
-20.1624121082
 30
0.0
 10
-3.5273547127
 20
-20.1278184258
 30
0.0
 10
-3.5288747402
 20
-20.1081406437
 30
0.0
 11
-3.497544316
 21
-20.2522373007
 31
0.0
 11
-3.5067736833
 21
-20.2414753683
 31
0.0
 11
-3.515430424
 21
-20.2124996859
 31
0.0
 11
-3.5229550332
 21
-20.1670531839
 31
0.0
 11
-3.5288747402
 21
-20.1081406437
 31
0.0
  0
LINE
  5
624
100
AcDbEntity
  8
RACCORDO
100
AcDbLine
 62
253
  6
CONTINUOUS
 10
-9.6013484174
 20
-19.9530783877
 11
-9.601375537
 21
-20.0057326693
  0
SPLINE
  5
625
100
AcDbEntity
  8
RACCORDO
100
AcDbSpline
 62
253
  6
CONTINUOUS
 70
0
 71
3
 72
11
 73
7
 74
5
 42
0.0000001
 43
0.0000001
 44
0.0000000001
 12
-0.0005195602
 22
-0.0989755906
 32
0.0
 13
-0.0313292283
 23
-0.093887789
 33
0.0
 40
0.0
 40
0.0
 40
0.0
 40
0.0
 40
0.4150726629
 40
0.7280360689
 40
0.9257785278
 40
1.0
 40
1.0
 40
1.0
 40
1.0
 10
-9.6017982551
 20
-20.1540697051
 30
0.0
 10
-9.6018701402
 20
-20.1677637258
 30
0.0
 10
-9.6022076646
 20
-20.1917419061
 30
0.0
 10
-9.6018858825
 20
-20.2224149731
 30
0.0
 10
-9.6032831913
 20
-20.241470453
 30
0.0
 10
-9.6022882931
 20
-20.2507099656
 30
0.0
 10
-9.6030633936
 20
-20.2530327956
 30
0.0
 11
-9.6017982551
 21
-20.1540697051
 31
0.0
 11
-9.6020630404
 21
-20.1951514798
 31
0.0
 11
-9.6023706439
 21
-20.2261261172
 31
0.0
 11
-9.6027088394
 21
-20.2456951413
 31
0.0
 11
-9.6030633936
 21
-20.2530327956
 31
0.0
  0
SPLINE
  5
626
100
AcDbEntity
  8
RACCORDO
100
AcDbSpline
 62
253
  6
CONTINUOUS
 70
0
 71
3
 72
12
 73
8
 74
6
 42
0.0000001
 43
0.0000001
 44
0.0000000001
 12
-0.0344635671
 22
0.1032860024
 32
0.0
 13
-0.0005231383
 23
0.1088827905
 33
0.0
 40
0.0
 40
0.0
 40
0.0
 40
0.0
 40
0.0741400353
 40
0.158187949
 40
0.2724258835
 40
0.5858402427
 40
1.0
 40
1.0
 40
1.0
 40
1.0
 10
9.6030634608
 20
-20.2530329998
 30
0.0
 10
9.6022117507
 20
-20.2504804572
 30
0.0
 10
9.6029917544
 20
-20.2445411068
 30
0.0
 10
9.6023578337
 20
-20.2347502969
 30
0.0
 10
9.6023480234
 20
-20.2161294194
 30
0.0
 10
9.6019127596
 20
-20.1856136899
 30
0.0
 10
9.6018205244
 20
-20.1591944728
 30
0.0
 10
9.6017483034
 20
-20.1441628494
 30
0.0
 11
9.6030634608
 21
-20.2530329998
 31
0.0
 11
9.6026907041
 21
-20.2449689433
 31
0.0
 11
9.6025103002
 21
-20.2358192446
 31
0.0
 11
9.6023366485
 21
-20.2233817682
 31
0.0
 11
9.6020175423
 21
-20.1892574363
 31
0.0
 11
9.6017483034
 21
-20.1441628494
 31
0.0
  0
LINE
  5
627
100
AcDbEntity
  8
RACCORDO
100
AcDbLine
 62
253
  6
CONTINUOUS
 10
9.6013765724
 20
-20.0066442123
 11
9.6013484175
 21
-19.9530786912
  0
SPLINE
  5
628
100
AcDbEntity
  8
DRAFT
100
AcDbSpline
 62
7
  6
CONTINUOUS
 70
0
 71
3
 72
18
 73
14
 74
12
 42
0.0000001
 43
0.0000001
 44
0.0000000001
 12
12.1189121756
 22
-7.4904728716
 32
0.0
 13
-12.4951696975
 23
-6.8444101565
 33
0.0
 40
0.0
 40
0.0
 40
0.0
 40
0.0
 40
0.1249753502
 40
0.2499198459
 40
0.312522215
 40
0.375113179
 40
0.4376933047
 40
0.5002644458
 40
0.6251277027
 40
0.7499789323
 40
0.8125297037
 40
0.8750971689
 40
1.0
 40
1.0
 40
1.0
 40
1.0
 10
5.5637097037
 20
-7.6573277754
 30
0.0
 10
6.0685648013
 20
-7.9693692654
 30
0.0
 10
6.9985998692
 20
-8.7327970897
 30
0.0
 10
7.8686442536
 20
-9.9570175592
 30
0.0
 10
8.3575321707
 20
-11.0427504218
 30
0.0
 10
8.6165111001
 20
-11.8987123858
 30
0.0
 10
8.7634550514
 20
-12.7806731776
 30
0.0
 10
8.8073531723
 20
-13.9698963094
 30
0.0
 10
8.5763723793
 20
-15.4523877912
 30
0.0
 10
7.9755177689
 20
-16.8272872618
 30
0.0
 10
7.2972677818
 20
-17.8053141232
 30
0.0
 10
6.4980026537
 20
-18.6866159227
 30
0.0
 10
5.770441394
 20
-19.2234426373
 30
0.0
 10
5.2502140374
 20
-19.5084047058
 30
0.0
 11
5.5637097037
 21
-7.6573277754
 31
0.0
 11
6.9401321812
 21
-8.7867958858
 31
0.0
 11
7.9731573812
 21
-10.236461647
 31
0.0
 11
8.339546355
 21
-11.0496224438
 31
0.0
 11
8.5978560655
 21
-11.903119744
 31
0.0
 11
8.7444642838
 21
-12.7825583231
 31
0.0
 11
8.7772984056
 21
-13.6734005484
 31
0.0
 11
8.5024075211
 21
-15.4309521649
 31
0.0
 11
7.7900000001
 21
-17.0608044873
 31
0.0
 11
7.2821947043
 21
-17.7931257346
 31
0.0
 11
6.6829896128
 21
-18.4530786437
 31
0.0
 11
5.2502140374
 21
-19.5084047058
 31
0.0
  0
SPLINE
  5
629
100
AcDbEntity
  8
DRAFT
100
AcDbSpline
 62
7
  6
CONTINUOUS
 70
0
 71
3
 72
18
 73
14
 74
12
 42
0.0000001
 43
0.0000001
 44
0.0000000001
 12
-12.495169667
 22
6.8444101398
 32
0.0
 13
12.1189121465
 23
7.4904728525
 33
0.0
 40
0.0
 40
0.0
 40
0.0
 40
0.0
 40
0.1249027537
 40
0.1874701824
 40
0.2500209441
 40
0.3748721402
 40
0.4997353388
 40
0.5623064894
 40
0.6248866747
 40
0.6874776688
 40
0.7500800117
 40
0.8750246091
 40
1.0
 40
1.0
 40
1.0
 40
1.0
 10
-5.2502140374
 20
-19.5084047058
 30
0.0
 10
-5.7704410704
 20
-19.2234428145
 30
0.0
 10
-6.4980018992
 20
-18.6866164818
 30
0.0
 10
-7.2972668463
 20
-17.8053153163
 30
0.0
 10
-7.9755167731
 20
-16.8272888762
 30
0.0
 10
-8.576371631
 20
-15.4523900882
 30
0.0
 10
-8.8073530817
 20
-13.969899108
 30
0.0
 10
-8.7634553074
 20
-12.7806759053
 30
0.0
 10
-8.6165114802
 20
-11.89871462
 30
0.0
 10
-8.3575328829
 20
-11.0427522514
 30
0.0
 10
-7.8686452758
 20
-9.9570186834
 30
0.0
 10
-6.9986004273
 20
-8.7327978146
 30
0.0
 10
-6.0685650011
 20
-7.9693693889
 30
0.0
 10
-5.5637097402
 20
-7.657327798
 30
0.0
 11
-5.2502140374
 21
-19.5084047058
 31
0.0
 11
-6.6829888058
 21
-18.4530794143
 31
0.0
 11
-7.2821936875
 21
-17.7931270214
 31
0.0
 11
-7.7899990483
 21
-17.060805988
 31
0.0
 11
-8.5024068882
 21
-15.4309543316
 31
0.0
 11
-8.777298384
 21
-13.673403656
 31
0.0
 11
-8.7444645432
 21
-12.7825612858
 31
0.0
 11
-8.5978564367
 21
-11.9031218302
 31
0.0
 11
-8.3395469677
 21
-11.0496240118
 31
0.0
 11
-7.9731584933
 21
-10.2364634008
 31
0.0
 11
-6.940132579
 21
-8.7867963764
 31
0.0
 11
-5.5637097402
 21
-7.657327798
 31
0.0
  0
SPLINE
  5
62A
100
AcDbEntity
  8
RACCORDO
100
AcDbSpline
 62
253
  6
CONTINUOUS
 70
0
 71
3
 72
14
 73
10
 74
8
 42
0.0000001
 43
0.0000001
 44
0.0000000001
 12
0.0707258123
 22
-0.0707362849
 32
0.0
 13
-0.0000001149
 23
-0.1000288084
 33
0.0
 40
0.0
 40
0.0
 40
0.0
 40
0.0
 40
0.0223672415
 40
0.0812627694
 40
0.174634976
 40
0.2990261817
 40
0.4497943092
 40
0.6212292021
 40
1.0
 40
1.0
 40
1.0
 40
1.0
 10
-9.8030329998
 20
20.0530634608
 30
0.0
 10
-9.802505686
 20
20.0525360689
 30
0.0
 10
-9.8029758976
 20
20.0493901608
 30
0.0
 10
-9.8020741757
 20
20.0439677139
 30
0.0
 10
-9.802135997
 20
20.0345369274
 30
0.0
 10
-9.8017524161
 20
20.0223380133
 30
0.0
 10
-9.8015977641
 20
20.0074176221
 30
0.0
 10
-9.8013670859
 20
19.9840589578
 30
0.0
 10
-9.8013179421
 20
19.9657080218
 30
0.0
 10
-9.8013179566
 20
19.9530786912
 30
0.0
 11
-9.8030329998
 21
20.0530634608
 31
0.0
 11
-9.8026971214
 21
20.0508514473
 31
0.0
 11
-9.8023749099
 21
20.0449690158
 31
0.0
 11
-9.8020784484
 21
20.0356338115
 31
0.0
 11
-9.8018189268
 21
20.0231938141
 31
0.0
 11
-9.8016061349
 21
20.0081141593
 31
0.0
 11
-9.8014481238
 21
19.9909664592
 31
0.0
 11
-9.8013179566
 21
19.9530786912
 31
0.0
  0
SPLINE
  5
62B
100
AcDbEntity
  8
RACCORDO
100
AcDbSpline
 62
253
  6
CONTINUOUS
 70
0
 71
3
 72
9
 73
5
 74
3
 42
0.0000001
 43
0.0000001
 44
0.0000000001
 12
-0.003930497
 22
4.3871925375
 32
0.0
 13
-0.0050618704
 23
4.387191378
 33
0.0
 40
0.0
 40
0.0
 40
0.0
 40
0.0
 40
0.2500791113
 40
1.0
 40
1.0
 40
1.0
 40
1.0
 10
-9.7968219358
 20
15.3010659344
 30
0.0
 10
-9.7971495808
 20
15.6667810047
 30
0.0
 10
-9.7985069554
 20
17.1291784745
 30
0.0
 10
-9.8000526225
 20
18.5915757696
 30
0.0
 10
-9.8013179566
 20
19.6882579219
 30
0.0
 11
-9.7968219358
 21
15.3010659344
 31
0.0
 11
-9.7978402586
 21
16.3982111131
 31
0.0
 11
-9.8013179566
 21
19.6882579219
 31
0.0
  0
SPLINE
  5
62C
100
AcDbEntity
  8
RACCORDO
100
AcDbSpline
 62
253
  6
CONTINUOUS
 70
0
 71
3
 72
9
 73
5
 74
3
 42
0.0000001
 43
0.0000001
 44
0.0000000001
 12
0.0138367896
 22
24.3932353797
 32
0.0
 13
-0.0209910975
 23
24.3932302723
 33
0.0
 40
0.0
 40
0.0
 40
0.0
 40
0.0
 40
0.750117269
 40
1.0
 40
1.0
 40
1.0
 40
1.0
 10
-9.7927209596
 20
-9.6948330894
 30
0.0
 10
-9.7892612213
 20
-3.5955707208
 30
0.0
 10
-9.7890017532
 20
4.5355111785
 30
0.0
 10
-9.794544221
 20
12.6665891225
 30
0.0
 10
-9.7962926586
 20
14.6984047884
 30
0.0
 11
-9.7927209596
 21
-9.6948330894
 31
0.0
 11
-9.7921365679
 21
8.6029569508
 31
0.0
 11
-9.7962926586
 21
14.6984047884
 31
0.0
  0
SPLINE
  5
62D
100
AcDbEntity
  8
RACCORDO
100
AcDbSpline
 62
253
  6
CONTINUOUS
 70
0
 71
3
 72
9
 73
5
 74
3
 42
0.0000001
 43
0.0000001
 44
0.0000000001
 12
0.0108264765
 22
9.3834453342
 32
0.0
 13
0.0056579316
 23
9.3834498741
 33
0.0
 40
0.0
 40
0.0
 40
0.0
 40
0.0
 40
0.2498428566
 40
1.0
 40
1.0
 40
1.0
 40
1.0
 10
-9.8013179566
 20
-19.6882579219
 30
0.0
 10
-9.8004163173
 20
-18.9067956596
 30
0.0
 10
-9.7970234025
 20
-15.7789803028
 30
0.0
 10
-9.7944926227
 20
-12.6511640111
 30
0.0
 10
-9.7930778434
 20
-10.3048100268
 30
0.0
 11
-9.8013179566
 21
-19.6882579219
 31
0.0
 11
-9.798774742
 21
-17.343870954
 31
0.0
 11
-9.7930778434
 21
-10.3048100268
 31
0.0
  0
SPLINE
  5
62E
100
AcDbEntity
  8
RACCORDO
100
AcDbSpline
 62
253
  6
CONTINUOUS
 70
0
 71
3
 72
14
 73
10
 74
8
 42
0.0000001
 43
0.0000001
 44
0.0000000001
 12
-0.0000000035
 22
-0.1000287672
 32
0.0
 13
-0.0708641676
 23
-0.0705976205
 33
0.0
 40
0.0
 40
0.0
 40
0.0
 40
0.0
 40
0.3783176965
 40
0.5497305004
 40
0.7005259888
 40
0.825024323
 40
0.9185295664
 40
0.9775599185
 40
1.0
 40
1.0
 40
1.0
 40
1.0
 10
-9.8013179566
 20
-19.9530786912
 30
0.0
 10
-9.801317957
 20
-19.9656929088
 30
0.0
 10
-9.8013669292
 20
-19.9840280102
 30
0.0
 10
-9.8015972682
 20
-20.0073716836
 30
0.0
 10
-9.801751529
 20
-20.0222959733
 30
0.0
 10
-9.8021358301
 20
-20.0345033008
 30
0.0
 10
-9.8020718908
 20
-20.0439479924
 30
0.0
 10
-9.8029784109
 20
-20.0493787876
 30
0.0
 10
-9.8025029339
 20
-20.0525353886
 30
0.0
 10
-9.8030329998
 20
-20.0530634608
 30
0.0
 11
-9.8013179566
 21
-19.9530786912
 31
0.0
 11
-9.8014477743
 21
-19.9909211214
 31
0.0
 11
-9.8016055539
 21
-20.0080666069
 31
0.0
 11
-9.801818158
 21
-20.0231489953
 31
0.0
 11
-9.8020776288
 21
-20.0355997068
 31
0.0
 11
-9.802374125
 21
-20.0449482204
 31
0.0
 11
-9.8026967684
 21
-20.0508441323
 31
0.0
 11
-9.8030329998
 21
-20.0530634608
 31
0.0
  0
SPLINE
  5
62F
100
AcDbEntity
  8
RACCORDO
100
AcDbSpline
 62
253
  6
CONTINUOUS
 70
0
 71
3
 72
9
 73
5
 74
3
 42
0.0000001
 43
0.0000001
 44
0.0000000001
 12
-0.0050618704
 22
-4.387191378
 32
0.0
 13
-0.003930497
 23
-4.3871925375
 33
0.0
 40
0.0
 40
0.0
 40
0.0
 40
0.0
 40
0.2499170892
 40
1.0
 40
1.0
 40
1.0
 40
1.0
 10
9.8013179566
 20
19.6882579219
 30
0.0
 10
9.8008962739
 20
19.322779889
 30
0.0
 10
9.7992562437
 20
17.8603827088
 30
0.0
 10
9.7978046687
 20
16.3979853173
 30
0.0
 10
9.7968219358
 20
15.3010659344
 30
0.0
 11
9.8013179566
 21
19.6882579219
 31
0.0
 11
9.8000883014
 21
18.5918237828
 31
0.0
 11
9.7968219358
 21
15.3010659344
 31
0.0
  0
SPLINE
  5
630
100
AcDbEntity
  8
RACCORDO
100
AcDbSpline
 62
253
  6
CONTINUOUS
 70
0
 71
3
 72
14
 73
10
 74
8
 42
0.0000001
 43
0.0000001
 44
0.0000000001
 12
-0.0000000545
 22
0.100028764
 32
0.0
 13
0.0708263541
 23
0.0706355519
 33
0.0
 40
0.0
 40
0.0
 40
0.0
 40
0.0
 40
0.3782460638
 40
0.5496449519
 40
0.7004485079
 40
0.8249663311
 40
0.9184975872
 40
0.9775519623
 40
1.0
 40
1.0
 40
1.0
 40
1.0
 10
9.8013179566
 20
19.9530786912
 30
0.0
 10
9.8013179497
 20
19.96569052
 30
0.0
 10
9.8013669247
 20
19.9840227589
 30
0.0
 10
9.8015971744
 20
20.00736387
 30
0.0
 10
9.8017514153
 20
20.0222885699
 30
0.0
 10
9.8021356347
 20
20.034497796
 30
0.0
 10
9.8020718309
 20
20.0439445671
 30
0.0
 10
9.8029782155
 20
20.0493776949
 30
0.0
 10
9.8025030289
 20
20.0525349176
 30
0.0
 10
9.8030329998
 20
20.0530634608
 30
0.0
 11
9.8013179566
 21
19.9530786912
 31
0.0
 11
9.801447726
 21
19.9909139549
 31
0.0
 11
9.801605454
 21
20.0080580483
 31
0.0
 11
9.8018180131
 21
20.023141244
 31
0.0
 11
9.802077471
 21
20.0355939052
 31
0.0
 11
9.8023739802
 21
20.0449450214
 31
0.0
 11
9.8026967235
 21
20.0508433343
 31
0.0
 11
9.8030329998
 21
20.0530634608
 31
0.0
  0
SPLINE
  5
631
100
AcDbEntity
  8
RACCORDO
100
AcDbSpline
 62
253
  6
CONTINUOUS
 70
0
 71
3
 72
14
 73
10
 74
8
 42
0.0000001
 43
0.0000001
 44
0.0000000001
 12
-0.0707941943
 22
0.0706678473
 32
0.0
 13
0.0000000782
 23
0.1000288088
 33
0.0
 40
0.0
 40
0.0
 40
0.0
 40
0.0
 40
0.022360904
 40
0.0812336773
 40
0.1745759587
 40
0.2989413284
 40
0.4497023697
 40
0.6211452005
 40
1.0
 40
1.0
 40
1.0
 40
1.0
 10
9.8030329998
 20
-20.0530634608
 30
0.0
 10
9.8025053257
 20
-20.0525367284
 30
0.0
 10
9.8029764645
 20
-20.0493908004
 30
0.0
 10
9.802074013
 20
-20.0439711867
 30
0.0
 10
9.8021362767
 20
-20.0345425435
 30
0.0
 10
9.80175247
 20
-20.0223459354
 30
0.0
 10
9.8015978779
 20
-20.0074262966
 30
0.0
 10
9.8013670788
 20
-19.9840648403
 30
0.0
 10
9.8013179467
 20
-19.9657108227
 30
0.0
 10
9.8013179566
 20
-19.9530786912
 30
0.0
 11
9.8030329998
 21
-20.0530634608
 31
0.0
 11
9.8026971855
 21
-20.0508520787
 31
0.0
 11
9.8023750348
 21
-20.0449719234
 31
0.0
 11
9.8020785969
 21
-20.0356397132
 31
0.0
 11
9.8018190604
 21
-20.0232023011
 31
0.0
 11
9.801606234
 21
-20.0081233555
 31
0.0
 11
9.8014481773
 21
-19.9909748618
 31
0.0
 11
9.8013179566
 21
-19.9530786912
 31
0.0
  0
SPLINE
  5
632
100
AcDbEntity
  8
RACCORDO
100
AcDbSpline
 62
253
  6
CONTINUOUS
 70
0
 71
3
 72
9
 73
5
 74
3
 42
0.0000001
 43
0.0000001
 44
0.0000000001
 12
0.0056579316
 22
-9.3834498741
 32
0.0
 13
0.0108264765
 23
-9.3834453342
 33
0.0
 40
0.0
 40
0.0
 40
0.0
 40
0.0
 40
0.2501397282
 40
1.0
 40
1.0
 40
1.0
 40
1.0
 10
9.7930778434
 20
-10.3048100268
 30
0.0
 10
9.7935496012
 20
-11.087201227
 30
0.0
 10
9.7956506991
 20
-14.2150177182
 30
0.0
 10
9.7986118417
 20
-17.3428336322
 30
0.0
 10
9.8013179566
 20
-19.6882579219
 30
0.0
 11
9.7930778434
 21
-10.3048100268
 31
0.0
 11
9.7946545502
 21
-12.6519835246
 31
0.0
 11
9.8013179566
 21
-19.6882579219
 31
0.0
  0
SPLINE
  5
633
100
AcDbEntity
  8
RACCORDO
100
AcDbSpline
 62
253
  6
CONTINUOUS
 70
0
 71
3
 72
9
 73
5
 74
3
 42
0.0000001
 43
0.0000001
 44
0.0000000001
 12
-0.0209910975
 22
-24.3932302723
 32
0.0
 13
0.0138367896
 23
-24.3932353797
 33
0.0
 40
0.0
 40
0.0
 40
0.0
 40
0.0
 40
0.2498827309
 40
1.0
 40
1.0
 40
1.0
 40
1.0
 10
9.7962926586
 20
14.6984047884
 30
0.0
 10
9.794544221
 20
12.6665891227
 30
0.0
 10
9.7890017532
 20
4.5355111787
 30
0.0
 10
9.7892612213
 20
-3.5955707206
 30
0.0
 10
9.7927209596
 20
-9.6948330894
 30
0.0
 11
9.7962926586
 21
14.6984047884
 31
0.0
 11
9.7921365679
 21
8.6029569514
 31
0.0
 11
9.7927209596
 21
-9.6948330894
 31
0.0
  0
LINE
  5
634
100
AcDbEntity
  8
RACCORDO
100
AcDbLine
 62
7
  6
CONTINUOUS
 10
6.3143758278
 20
-14.9650792305
 11
6.0717374972
 21
-14.9740825655
  0
LINE
  5
635
100
AcDbEntity
  8
RACCORDO
100
AcDbLine
 62
7
  6
CONTINUOUS
 10
-6.0717374972
 20
-14.9740825655
 11
-6.3143758278
 21
-14.9650792305
  0
LINE
  5
636
100
AcDbEntity
  8
RACCORDO
100
AcDbLine
 62
7
  6
CONTINUOUS
 10
-6.3143758278
 20
-11.0349207695
 11
-6.0717374972
 21
-11.0259174345
  0
LINE
  5
637
100
AcDbEntity
  8
RACCORDO
100
AcDbLine
 62
7
  6
CONTINUOUS
 10
6.0717374972
 20
-11.0259174345
 11
6.3143758278
 21
-11.0349207695
  0
SPLINE
  5
638
100
AcDbEntity
  8
RACCORDO
100
AcDbSpline
 62
253
  6
CONTINUOUS
 70
0
 71
3
 72
11
 73
7
 74
5
 42
0.0000001
 43
0.0000001
 44
0.0000000001
 12
-0.0005711228
 22
-0.465695054
 32
0.0
 13
-0.4656950674
 23
-0.0005601033
 33
0.0
 40
0.0
 40
0.0
 40
0.0
 40
0.0
 40
0.2485811025
 40
0.4984091269
 40
0.7491747814
 40
1.0
 40
1.0
 40
1.0
 40
1.0
 10
-4.6222763595
 20
19.729435023
 30
0.0
 10
-4.6223236829
 20
19.6908473597
 30
0.0
 10
-4.6382523466
 20
19.6127230008
 30
0.0
 10
-4.7048308294
 20
19.5137805744
 30
0.0
 10
-4.8047258811
 20
19.4480722039
 30
0.0
 10
-4.883328914
 20
19.4324014317
 30
0.0
 10
-4.9222649364
 20
19.4323546024
 30
0.0
 11
-4.6222763595
 21
19.729435023
 31
0.0
 11
-4.6452681851
 21
19.6159781327
 31
0.0
 11
-4.710242502
 21
19.5194679814
 31
0.0
 11
-4.8076974028
 21
19.4551235401
 31
0.0
 11
-4.9222649364
 21
19.4323546024
 31
0.0
  0
SPLINE
  5
639
100
AcDbEntity
  8
RACCORDO
100
AcDbSpline
 62
7
  6
CONTINUOUS
 70
0
 71
3
 72
11
 73
7
 74
5
 42
0.0000001
 43
0.0000001
 44
0.0000000001
 12
0.410525115
 22
0.0
 32
0.0
 13
0.0566702021
 23
0.406594833
 33
0.0
 40
0.0
 40
0.0
 40
0.0
 40
0.0
 40
0.3002327116
 40
0.5647131043
 40
0.7930913891
 40
1.0
 40
1.0
 40
1.0
 40
1.0
 10
-4.9140463918
 20
19.3
 30
0.0
 10
-4.8729620356
 20
19.3
 30
0.0
 10
-4.7949570411
 20
19.314234752
 30
0.0
 10
-4.6994190762
 20
19.3701296009
 30
0.0
 10
-4.6374631743
 20
19.4457001969
 30
0.0
 10
-4.6178848252
 20
19.5035654276
 30
0.0
 10
-4.6139763076
 20
19.531608085
 30
0.0
 11
-4.9140463918
 21
19.3
 31
0.0
 11
-4.7928388836
 21
19.3223619955
 31
0.0
 11
-4.6996011146
 21
19.3779986043
 31
0.0
 11
-4.6407816907
 21
19.4510073672
 31
0.0
 11
-4.6139763076
 21
19.531608085
 31
0.0
  0
SPLINE
  5
63A
100
AcDbEntity
  8
RACCORDO
100
AcDbSpline
 62
7
  6
CONTINUOUS
 70
0
 71
3
 72
8
 73
4
 74
2
 42
0.0000001
 43
0.0000001
 44
0.0000000001
 12
-0.030120561
 22
-0.1126437927
 32
0.0
 13
-0.0708667498
 23
-0.0925946867
 33
0.0
 40
0.0
 40
0.0
 40
0.0
 40
0.0
 40
1.0
 40
1.0
 40
1.0
 40
1.0
 10
-4.6097599827
 20
18.722175539
 30
0.0
 10
-4.6198001697
 20
18.6846276081
 30
0.0
 10
-4.6376338976
 20
18.6484267775
 30
0.0
 10
-4.6612561475
 20
18.6175618819
 30
0.0
 11
-4.6097599827
 21
18.722175539
 31
0.0
 11
-4.6612561475
 21
18.6175618819
 31
0.0
  0
SPLINE
  5
63B
100
AcDbEntity
  8
RACCORDO
100
AcDbSpline
 62
7
  6
CONTINUOUS
 70
0
 71
3
 72
8
 73
4
 74
2
 42
0.0000001
 43
0.0000001
 44
0.0000000001
 12
-0.1231987994
 22
-0.0948935717
 32
0.0
 13
-0.1541408872
 23
-0.0205747668
 33
0.0
 40
0.0
 40
0.0
 40
0.0
 40
0.0
 40
1.0
 40
1.0
 40
1.0
 40
1.0
 10
-4.7163185783
 20
18.5623302067
 30
0.0
 10
-4.7573848448
 20
18.5306990161
 30
0.0
 10
-4.8085320707
 20
18.5094929168
 30
0.0
 10
-4.8599123664
 20
18.5026346612
 30
0.0
 11
-4.7163185783
 21
18.5623302067
 31
0.0
 11
-4.8599123664
 21
18.5026346612
 31
0.0
  0
SPLINE
  5
63C
100
AcDbEntity
  8
RACCORDO
100
AcDbSpline
 62
253
  6
CONTINUOUS
 70
0
 71
3
 72
11
 73
7
 74
5
 42
0.0000001
 43
0.0000001
 44
0.0000000001
 12
-0.4656950674
 22
0.0005601033
 32
0.0
 13
-0.0005711228
 23
0.465695054
 33
0.0
 40
0.0
 40
0.0
 40
0.0
 40
0.0
 40
0.2508252186
 40
0.5015908731
 40
0.7514188975
 40
1.0
 40
1.0
 40
1.0
 40
1.0
 10
-5.0777350636
 20
19.4323546024
 30
0.0
 10
-5.116671086
 20
19.4324014317
 30
0.0
 10
-5.1952741189
 20
19.4480722039
 30
0.0
 10
-5.2951691706
 20
19.5137805744
 30
0.0
 10
-5.3617476534
 20
19.6127230008
 30
0.0
 10
-5.3776763171
 20
19.6908473597
 30
0.0
 10
-5.3777236405
 20
19.729435023
 30
0.0
 11
-5.0777350636
 21
19.4323546024
 31
0.0
 11
-5.1923025972
 21
19.4551235401
 31
0.0
 11
-5.289757498
 21
19.5194679814
 31
0.0
 11
-5.3547318149
 21
19.6159781327
 31
0.0
 11
-5.3777236405
 21
19.729435023
 31
0.0
  0
SPLINE
  5
63D
100
AcDbEntity
  8
RACCORDO
100
AcDbSpline
 62
7
  6
CONTINUOUS
 70
0
 71
3
 72
11
 73
7
 74
5
 42
0.0000001
 43
0.0000001
 44
0.0000000001
 12
0.0044089035
 22
-0.4391916694
 32
0.0
 13
0.4392137986
 23
-0.0
 33
0.0
 40
0.0
 40
0.0
 40
0.0
 40
0.0
 40
0.2066832988
 40
0.4327516373
 40
0.6960322077
 40
1.0
 40
1.0
 40
1.0
 40
1.0
 10
-5.3881958819
 20
19.5607860213
 30
0.0
 10
-5.387892133
 20
19.5305281603
 30
0.0
 10
-5.3741108969
 20
19.4666829732
 30
0.0
 10
-5.3141996306
 20
19.3811817199
 30
0.0
 10
-5.2144987708
 20
19.3164514916
 30
0.0
 10
-5.1304558911
 20
19.3
 30
0.0
 10
-5.0859536082
 20
19.3
 30
0.0
 11
-5.3881958819
 21
19.5607860213
 31
0.0
 11
-5.3693750652
 21
19.4719803312
 31
0.0
 11
-5.3132668634
 21
19.3900606314
 31
0.0
 11
-5.2168648119
 21
19.3261980036
 31
0.0
 11
-5.0859536082
 21
19.3
 31
0.0
  0
SPLINE
  5
63E
100
AcDbEntity
  8
RACCORDO
100
AcDbSpline
 62
7
  6
CONTINUOUS
 70
0
 71
3
 72
8
 73
4
 74
2
 42
0.0000001
 43
0.0000001
 44
0.0000000001
 12
-0.1125712695
 22
0.0301212505
 32
0.0
 13
-0.0925455514
 23
0.0708159683
 33
0.0
 40
0.0
 40
0.0
 40
0.0
 40
0.0
 40
1.0
 40
1.0
 40
1.0
 40
1.0
 10
-5.1783763624
 20
18.510279849
 30
0.0
 10
-5.2159001189
 20
18.5203202658
 30
0.0
 10
-5.2520769155
 20
18.5381436662
 30
0.0
 10
-5.2829254326
 20
18.5617489889
 30
0.0
 11
-5.1783763624
 21
18.510279849
 31
0.0
 11
-5.2829254326
 21
18.5617489889
 31
0.0
  0
SPLINE
  5
63F
100
AcDbEntity
  8
RACCORDO
100
AcDbSpline
 62
7
  6
CONTINUOUS
 70
0
 71
3
 72
8
 73
4
 74
2
 42
0.0000001
 43
0.0000001
 44
0.0000000001
 12
-0.0949715683
 22
0.123279771
 32
0.0
 13
-0.0205328883
 23
0.1542592014
 33
0.0
 40
0.0
 40
0.0
 40
0.0
 40
0.0
 40
1.0
 40
1.0
 40
1.0
 40
1.0
 10
-5.3381643761
 20
18.6168083145
 30
0.0
 10
-5.3698215655
 20
18.6579015715
 30
0.0
 10
-5.3910399934
 20
18.7090932524
 30
0.0
 10
-5.3978842895
 20
18.7605129862
 30
0.0
 11
-5.3381643761
 21
18.6168083145
 31
0.0
 11
-5.3978842895
 21
18.7605129862
 31
0.0
  0
SPLINE
  5
640
100
AcDbEntity
  8
RACCORDO
100
AcDbSpline
 62
253
  6
CONTINUOUS
 70
0
 71
3
 72
11
 73
7
 74
5
 42
0.0000001
 43
0.0000001
 44
0.0000000001
 12
-0.0005711228
 22
-0.465695054
 32
0.0
 13
-0.4656950674
 23
-0.0005601033
 33
0.0
 40
0.0
 40
0.0
 40
0.0
 40
0.0
 40
0.2485811025
 40
0.4984091269
 40
0.7491747814
 40
1.0
 40
1.0
 40
1.0
 40
1.0
 10
5.3777236405
 20
19.729435023
 30
0.0
 10
5.3776763171
 20
19.6908473597
 30
0.0
 10
5.3617476534
 20
19.6127230008
 30
0.0
 10
5.2951691706
 20
19.5137805744
 30
0.0
 10
5.1952741189
 20
19.4480722039
 30
0.0
 10
5.116671086
 20
19.4324014317
 30
0.0
 10
5.0777350636
 20
19.4323546024
 30
0.0
 11
5.3777236405
 21
19.729435023
 31
0.0
 11
5.3547318149
 21
19.6159781327
 31
0.0
 11
5.289757498
 21
19.5194679814
 31
0.0
 11
5.1923025972
 21
19.4551235401
 31
0.0
 11
5.0777350636
 21
19.4323546024
 31
0.0
  0
SPLINE
  5
641
100
AcDbEntity
  8
RACCORDO
100
AcDbSpline
 62
7
  6
CONTINUOUS
 70
0
 71
3
 72
11
 73
7
 74
5
 42
0.0000001
 43
0.0000001
 44
0.0000000001
 12
0.410525115
 22
0.0
 32
0.0
 13
0.0566702021
 23
0.406594833
 33
0.0
 40
0.0
 40
0.0
 40
0.0
 40
0.0
 40
0.3002327116
 40
0.5647131043
 40
0.7930913891
 40
1.0
 40
1.0
 40
1.0
 40
1.0
 10
5.0859536082
 20
19.3
 30
0.0
 10
5.1270379644
 20
19.3
 30
0.0
 10
5.2050429589
 20
19.314234752
 30
0.0
 10
5.3005809238
 20
19.3701296009
 30
0.0
 10
5.3625368257
 20
19.4457001969
 30
0.0
 10
5.3821151748
 20
19.5035654276
 30
0.0
 10
5.3860236924
 20
19.531608085
 30
0.0
 11
5.0859536082
 21
19.3
 31
0.0
 11
5.2071611164
 21
19.3223619955
 31
0.0
 11
5.3003988854
 21
19.3779986043
 31
0.0
 11
5.3592183093
 21
19.4510073672
 31
0.0
 11
5.3860236924
 21
19.531608085
 31
0.0
  0
SPLINE
  5
642
100
AcDbEntity
  8
RACCORDO
100
AcDbSpline
 62
7
  6
CONTINUOUS
 70
0
 71
3
 72
8
 73
4
 74
2
 42
0.0000001
 43
0.0000001
 44
0.0000000001
 12
-0.030120561
 22
-0.1126437927
 32
0.0
 13
-0.0708667498
 23
-0.0925946867
 33
0.0
 40
0.0
 40
0.0
 40
0.0
 40
0.0
 40
1.0
 40
1.0
 40
1.0
 40
1.0
 10
5.3902400173
 20
18.722175539
 30
0.0
 10
5.3801998303
 20
18.6846276081
 30
0.0
 10
5.3623661024
 20
18.6484267775
 30
0.0
 10
5.3387438525
 20
18.6175618819
 30
0.0
 11
5.3902400173
 21
18.722175539
 31
0.0
 11
5.3387438525
 21
18.6175618819
 31
0.0
  0
SPLINE
  5
643
100
AcDbEntity
  8
RACCORDO
100
AcDbSpline
 62
7
  6
CONTINUOUS
 70
0
 71
3
 72
8
 73
4
 74
2
 42
0.0000001
 43
0.0000001
 44
0.0000000001
 12
-0.1231987994
 22
-0.0948935717
 32
0.0
 13
-0.1541408872
 23
-0.0205747668
 33
0.0
 40
0.0
 40
0.0
 40
0.0
 40
0.0
 40
1.0
 40
1.0
 40
1.0
 40
1.0
 10
5.2836814217
 20
18.5623302067
 30
0.0
 10
5.2426151552
 20
18.5306990161
 30
0.0
 10
5.1914679293
 20
18.5094929168
 30
0.0
 10
5.1400876336
 20
18.5026346612
 30
0.0
 11
5.2836814217
 21
18.5623302067
 31
0.0
 11
5.1400876336
 21
18.5026346612
 31
0.0
  0
SPLINE
  5
644
100
AcDbEntity
  8
RACCORDO
100
AcDbSpline
 62
253
  6
CONTINUOUS
 70
0
 71
3
 72
11
 73
7
 74
5
 42
0.0000001
 43
0.0000001
 44
0.0000000001
 12
-0.4656950674
 22
0.0005601033
 32
0.0
 13
-0.0005711228
 23
0.465695054
 33
0.0
 40
0.0
 40
0.0
 40
0.0
 40
0.0
 40
0.2508252186
 40
0.5015908731
 40
0.7514188975
 40
1.0
 40
1.0
 40
1.0
 40
1.0
 10
4.9222649364
 20
19.4323546024
 30
0.0
 10
4.883328914
 20
19.4324014317
 30
0.0
 10
4.8047258811
 20
19.4480722039
 30
0.0
 10
4.7048308294
 20
19.5137805744
 30
0.0
 10
4.6382523466
 20
19.6127230008
 30
0.0
 10
4.6223236829
 20
19.6908473597
 30
0.0
 10
4.6222763595
 20
19.729435023
 30
0.0
 11
4.9222649364
 21
19.4323546024
 31
0.0
 11
4.8076974028
 21
19.4551235401
 31
0.0
 11
4.710242502
 21
19.5194679814
 31
0.0
 11
4.6452681851
 21
19.6159781327
 31
0.0
 11
4.6222763595
 21
19.729435023
 31
0.0
  0
SPLINE
  5
645
100
AcDbEntity
  8
RACCORDO
100
AcDbSpline
 62
7
  6
CONTINUOUS
 70
0
 71
3
 72
11
 73
7
 74
5
 42
0.0000001
 43
0.0000001
 44
0.0000000001
 12
0.0044089035
 22
-0.4391916694
 32
0.0
 13
0.4392137986
 23
0.0
 33
0.0
 40
0.0
 40
0.0
 40
0.0
 40
0.0
 40
0.2066832988
 40
0.4327516373
 40
0.6960322077
 40
1.0
 40
1.0
 40
1.0
 40
1.0
 10
4.6118041181
 20
19.5607860213
 30
0.0
 10
4.612107867
 20
19.5305281603
 30
0.0
 10
4.6258891031
 20
19.4666829732
 30
0.0
 10
4.6858003694
 20
19.3811817199
 30
0.0
 10
4.7855012292
 20
19.3164514916
 30
0.0
 10
4.8695441089
 20
19.3
 30
0.0
 10
4.9140463918
 20
19.3
 30
0.0
 11
4.6118041181
 21
19.5607860213
 31
0.0
 11
4.6306249348
 21
19.4719803312
 31
0.0
 11
4.6867331366
 21
19.3900606314
 31
0.0
 11
4.7831351881
 21
19.3261980036
 31
0.0
 11
4.9140463918
 21
19.3
 31
0.0
  0
SPLINE
  5
646
100
AcDbEntity
  8
RACCORDO
100
AcDbSpline
 62
7
  6
CONTINUOUS
 70
0
 71
3
 72
12
 73
8
 74
6
 42
0.0000001
 43
0.0000001
 44
0.0000000001
 12
-0.3686427176
 22
0.013579763
 32
0.0
 13
0.1091579315
 23
-0.3523725432
 33
0.0
 40
0.0
 40
0.0
 40
0.0
 40
0.0
 40
0.2270876623
 40
0.4491171226
 40
0.6921003611
 40
0.8354839482
 40
1.0
 40
1.0
 40
1.0
 40
1.0
 10
6.0717374972
 20
-11.0259174345
 30
0.0
 10
6.0438327596
 20
-11.0248895023
 30
0.0
 10
5.9875352817
 20
-11.0340918131
 30
0.0
 10
5.9141374744
 20
-11.0817869552
 30
0.0
 10
5.8743057285
 20
-11.1488627548
 30
0.0
 10
5.8637746226
 20
-11.2165758036
 30
0.0
 10
5.8697847542
 20
-11.2547392844
 30
0.0
 10
5.8757708315
 20
-11.274062931
 30
0.0
 11
6.0717374972
 21
-11.0259174345
 31
0.0
 11
5.9891173772
 21
-11.0397556071
 31
0.0
 11
5.9206616994
 21
-11.0847251395
 31
0.0
 11
5.8748681955
 21
-11.1617793051
 31
0.0
 11
5.8667584194
 21
-11.2140470634
 31
0.0
 11
5.8757708315
 21
-11.274062931
 31
0.0
  0
SPLINE
  5
647
100
AcDbEntity
  8
RACCORDO
100
AcDbSpline
 62
7
  6
CONTINUOUS
 70
0
 71
3
 72
11
 73
7
 74
5
 42
0.0000001
 43
0.0000001
 44
0.0000000001
 12
-0.1504717793
 22
-0.3341951756
 32
0.0
 13
0.3653045395
 23
-0.0296776883
 33
0.0
 40
0.0
 40
0.0
 40
0.0
 40
0.0
 40
0.3122276851
 40
0.5603500657
 40
0.780533965
 40
1.0
 40
1.0
 40
1.0
 40
1.0
 10
5.884118439
 20
-14.7038038736
 30
0.0
 10
5.8684579539
 20
-14.7385855356
 30
0.0
 10
5.8586392633
 20
-14.811567146
 30
0.0
 10
5.900024991
 20
-14.9016541523
 30
0.0
 10
5.9669351645
 20
-14.9563878892
 30
0.0
 10
6.0202658734
 20
-14.9713705388
 30
0.0
 10
6.046989853
 20
-14.9735416204
 30
0.0
 11
5.884118439
 21
-14.7038038736
 31
0.0
 11
5.8697889084
 21
-14.817337119
 31
0.0
 11
5.9073252826
 21
-14.9001676467
 31
0.0
 11
5.9696534321
 21
-14.9514273685
 31
0.0
 11
6.046989853
 21
-14.9735416204
 31
0.0
  0
SPLINE
  5
648
100
AcDbEntity
  8
RACCORDO
100
AcDbSpline
 62
7
  6
CONTINUOUS
 70
0
 71
3
 72
12
 73
8
 74
6
 42
0.0000001
 43
0.0000001
 44
0.0000000001
 12
0.3686427176
 22
-0.013579763
 32
0.0
 13
-0.1091579315
 23
0.3523725432
 33
0.0
 40
0.0
 40
0.0
 40
0.0
 40
0.0
 40
0.2270876623
 40
0.4491171226
 40
0.6921003611
 40
0.8354839482
 40
1.0
 40
1.0
 40
1.0
 40
1.0
 10
-6.0717374972
 20
-14.9740825655
 30
0.0
 10
-6.0438327596
 20
-14.9751104977
 30
0.0
 10
-5.9875352817
 20
-14.9659081869
 30
0.0
 10
-5.9141374744
 20
-14.9182130448
 30
0.0
 10
-5.8743057285
 20
-14.8511372452
 30
0.0
 10
-5.8637746226
 20
-14.7834241964
 30
0.0
 10
-5.8697847542
 20
-14.7452607156
 30
0.0
 10
-5.8757708315
 20
-14.725937069
 30
0.0
 11
-6.0717374972
 21
-14.9740825655
 31
0.0
 11
-5.9891173772
 21
-14.9602443929
 31
0.0
 11
-5.9206616994
 21
-14.9152748605
 31
0.0
 11
-5.8748681955
 21
-14.8382206949
 31
0.0
 11
-5.8667584194
 21
-14.7859529366
 31
0.0
 11
-5.8757708315
 21
-14.725937069
 31
0.0
  0
SPLINE
  5
649
100
AcDbEntity
  8
RACCORDO
100
AcDbSpline
 62
7
  6
CONTINUOUS
 70
0
 71
3
 72
11
 73
7
 74
5
 42
0.0000001
 43
0.0000001
 44
0.0000000001
 12
0.1504717793
 22
0.3341951756
 32
0.0
 13
-0.3653045395
 23
0.0296776883
 33
0.0
 40
0.0
 40
0.0
 40
0.0
 40
0.0
 40
0.3122276851
 40
0.5603500657
 40
0.780533965
 40
1.0
 40
1.0
 40
1.0
 40
1.0
 10
-5.884118439
 20
-11.2961961264
 30
0.0
 10
-5.8684579539
 20
-11.2614144644
 30
0.0
 10
-5.8586392633
 20
-11.188432854
 30
0.0
 10
-5.900024991
 20
-11.0983458477
 30
0.0
 10
-5.9669351645
 20
-11.0436121108
 30
0.0
 10
-6.0202658734
 20
-11.0286294612
 30
0.0
 10
-6.046989853
 20
-11.0264583796
 30
0.0
 11
-5.884118439
 21
-11.2961961264
 31
0.0
 11
-5.8697889084
 21
-11.182662881
 31
0.0
 11
-5.9073252826
 21
-11.0998323533
 31
0.0
 11
-5.9696534321
 21
-11.0485726315
 31
0.0
 11
-6.046989853
 21
-11.0264583796
 31
0.0
  0
SPLINE
  5
64A
100
AcDbEntity
  8
SMUSSO
100
AcDbSpline
 62
7
  6
CONTINUOUS
 70
0
 71
3
 72
9
 73
5
 74
3
 42
0.0000001
 43
0.0000001
 44
0.0000000001
 12
-0.0353819902
 22
0.34542397
 32
0.0
 13
-0.0128503394
 23
0.346993477
 33
0.0
 40
0.0
 40
0.0
 40
0.0
 40
0.0
 40
0.5001558181
 40
1.0
 40
1.0
 40
1.0
 40
1.0
 10
-5.5816582313
 20
-16.092820323
 30
0.0
 10
-5.5875570674
 20
-16.0352317203
 30
0.0
 10
-5.598086204
 20
-15.9199384509
 30
0.0
 10
-5.603642806
 20
-15.8042988534
 30
0.0
 10
-5.6057838618
 20
-15.7464846298
 30
0.0
 11
-5.5816582313
 21
-16.092820323
 31
0.0
 11
-5.5968455767
 21
-15.9198158853
 31
0.0
 11
-5.6057838618
 21
-15.7464846298
 31
0.0
  0
LINE
  5
64B
100
AcDbEntity
  8
DRAFT
100
AcDbLine
 62
7
  6
CONTINUOUS
 10
5.2502140374
 20
-19.5084047058
 11
5.260473039
 21
-18.4384918441
  0
LINE
  5
64C
100
AcDbEntity
  8
DRAFT
100
AcDbLine
 62
7
  6
CONTINUOUS
 10
4.65
 20
-19.7871091624
 11
4.639526961
 21
-18.7547012244
  0
LINE
  5
64D
100
AcDbEntity
  8
DRAFT
100
AcDbLine
 62
7
  6
CONTINUOUS
 10
-5.260473039
 20
-18.4384918441
 11
-5.2502140374
 21
-19.5084047058
  0
LINE
  5
64E
100
AcDbEntity
  8
DRAFT
100
AcDbLine
 62
7
  6
CONTINUOUS
 10
-4.639526961
 20
-18.7547012244
 11
-4.65
 21
-19.7871091624
  0
SPLINE
  5
64F
100
AcDbEntity
  8
RACCORDO
100
AcDbSpline
 62
7
  6
CONTINUOUS
 70
0
 71
3
 72
16
 73
12
 74
10
 42
0.0000001
 43
0.0000001
 44
0.0000000001
 12
-0.2000739192
 22
0.0000000022
 32
0.0
 13
-0.1416174417
 23
-0.141329662
 33
0.0
 40
0.0
 40
0.0
 40
0.0
 40
0.0
 40
0.3781118068
 40
0.5501132154
 40
0.7008335124
 40
0.8251893361
 40
0.9184160258
 40
0.9523084792
 40
0.9773602599
 40
0.9933170801
 40
1.0
 40
1.0
 40
1.0
 40
1.0
 10
-9.5968462994
 20
15.3044975405
 30
0.0
 10
-9.6220630697
 20
15.3044975407
 30
0.0
 10
-9.6587520913
 20
15.3043807386
 30
0.0
 10
-9.7054873338
 20
15.3039615495
 30
0.0
 10
-9.7353068617
 20
15.303560488
 30
0.0
 10
-9.7598480082
 20
15.3030483008
 30
0.0
 10
-9.7766491996
 20
15.3025995397
 30
0.0
 10
-9.7867362095
 20
15.302078827
 30
0.0
 10
-9.7918120713
 20
15.3018776583
 30
0.0
 10
-9.7948075745
 20
15.3013808602
 30
0.0
 10
-9.7965064631
 20
15.301380766
 30
0.0
 10
-9.7968219358
 20
15.3010659344
 30
0.0
 11
-9.5968462994
 21
15.3044975405
 31
0.0
 11
-9.6724961608
 21
15.3042367097
 31
0.0
 11
-9.7069077123
 21
15.3039214159
 31
0.0
 11
-9.737059913
 21
15.3034960746
 31
0.0
 11
-9.7619348551
 21
15.3029770184
 31
0.0
 11
-9.7805775818
 21
15.3023817083
 31
0.0
 11
-9.7873510803
 21
15.3020629202
 31
0.0
 11
-9.7923525441
 21
15.3017349149
 31
0.0
 11
-9.7955276154
 21
15.3014013629
 31
0.0
 11
-9.7968219358
 21
15.3010659344
 31
0.0
  0
SPLINE
  5
650
100
AcDbEntity
  8
RACCORDO
100
AcDbSpline
 62
7
  6
CONTINUOUS
 70
0
 71
3
 72
16
 73
12
 74
10
 42
0.0000001
 43
0.0000001
 44
0.0000000001
 12
0.1416018856
 22
-0.1413532017
 32
0.0
 13
0.2000795383
 23
0.0000000019
 33
0.0
 40
0.0
 40
0.0
 40
0.0
 40
0.0
 40
0.0066753408
 40
0.0226086389
 40
0.0476249273
 40
0.0814737223
 40
0.1746041031
 40
0.2988821173
 40
0.4495731593
 40
0.6216210131
 40
1.0
 40
1.0
 40
1.0
 40
1.0
 10
-9.7962926586
 20
14.6984047884
 30
0.0
 10
-9.7959775783
 20
14.6980902615
 30
0.0
 10
-9.794281222
 20
14.6980889821
 30
0.0
 10
-9.7912897136
 20
14.6975927255
 30
0.0
 10
-9.7862207939
 20
14.6973908254
 30
0.0
 10
-9.7761451332
 20
14.6968697886
 30
0.0
 10
-9.7593580828
 20
14.6964201187
 30
0.0
 10
-9.7348298113
 20
14.6959070413
 30
0.0
 10
-9.7050135049
 20
14.6955050083
 30
0.0
 10
-9.6582579936
 20
14.6950846607
 30
0.0
 10
-9.6215470232
 20
14.6949675092
 30
0.0
 10
-9.5963117255
 20
14.6949675094
 30
0.0
 11
-9.7962926586
 21
14.6984047884
 31
0.0
 11
-9.7949999386
 21
14.6980690802
 31
0.0
 11
-9.7918295401
 21
14.6977352371
 31
0.0
 11
-9.7868350722
 21
14.6974069193
 31
0.0
 11
-9.7800701442
 21
14.6970877869
 31
0.0
 11
-9.761446199
 21
14.696491654
 31
0.0
 11
-9.7365861496
 21
14.6959716326
 31
0.0
 11
-9.7064389697
 21
14.6955453118
 31
0.0
 11
-9.6720171664
 21
14.69522916
 31
0.0
 11
-9.5963117255
 21
14.6949675094
 31
0.0
  0
SPLINE
  5
651
100
AcDbEntity
  8
RACCORDO
100
AcDbSpline
 62
7
  6
CONTINUOUS
 70
0
 71
3
 72
16
 73
12
 74
10
 42
0.0000001
 43
0.0000001
 44
0.0000000001
 12
0.2000795383
 22
-0.0000000019
 32
0.0
 13
0.1416018863
 23
0.141353201
 33
0.0
 40
0.0
 40
0.0
 40
0.0
 40
0.0
 40
0.3783789869
 40
0.5504268406
 40
0.7011178826
 40
0.8253958968
 40
0.9185262777
 40
0.9523750727
 40
0.9773913611
 40
0.9933246591
 40
1.0
 40
1.0
 40
1.0
 40
1.0
 10
9.5963117256
 20
14.6949675094
 30
0.0
 10
9.6215470232
 20
14.6949675092
 30
0.0
 10
9.6582579936
 20
14.6950846607
 30
0.0
 10
9.7050135048
 20
14.6955050083
 30
0.0
 10
9.7348298112
 20
14.6959070413
 30
0.0
 10
9.7593580828
 20
14.6964201187
 30
0.0
 10
9.7761451332
 20
14.6968697886
 30
0.0
 10
9.7862207939
 20
14.6973908254
 30
0.0
 10
9.7912897136
 20
14.6975927255
 30
0.0
 10
9.794281222
 20
14.6980889821
 30
0.0
 10
9.7959775783
 20
14.6980902615
 30
0.0
 10
9.7962926586
 20
14.6984047884
 30
0.0
 11
9.5963117256
 21
14.6949675094
 31
0.0
 11
9.6720171664
 21
14.69522916
 31
0.0
 11
9.7064389697
 21
14.6955453118
 31
0.0
 11
9.7365861496
 21
14.6959716326
 31
0.0
 11
9.761446199
 21
14.696491654
 31
0.0
 11
9.7800701442
 21
14.6970877869
 31
0.0
 11
9.7868350722
 21
14.6974069193
 31
0.0
 11
9.7918295401
 21
14.6977352371
 31
0.0
 11
9.7949999386
 21
14.6980690802
 31
0.0
 11
9.7962926586
 21
14.6984047884
 31
0.0
  0
SPLINE
  5
652
100
AcDbEntity
  8
RACCORDO
100
AcDbSpline
 62
7
  6
CONTINUOUS
 70
0
 71
3
 72
16
 73
12
 74
10
 42
0.0000001
 43
0.0000001
 44
0.0000000001
 12
-0.1416174423
 22
0.1413296614
 32
0.0
 13
-0.2000739192
 23
-0.0000000022
 33
0.0
 40
0.0
 40
0.0
 40
0.0
 40
0.0
 40
0.00668292
 40
0.0226397401
 40
0.0476915208
 40
0.0815839742
 40
0.174810664
 40
0.2991664877
 40
0.4498867847
 40
0.6218881932
 40
1.0
 40
1.0
 40
1.0
 40
1.0
 10
9.7968219358
 20
15.3010659344
 30
0.0
 10
9.7965064631
 20
15.301380766
 30
0.0
 10
9.7948075745
 20
15.3013808602
 30
0.0
 10
9.7918120713
 20
15.3018776583
 30
0.0
 10
9.7867362095
 20
15.302078827
 30
0.0
 10
9.7766491996
 20
15.3025995397
 30
0.0
 10
9.7598480082
 20
15.3030483008
 30
0.0
 10
9.7353068617
 20
15.303560488
 30
0.0
 10
9.7054873338
 20
15.3039615495
 30
0.0
 10
9.6587520913
 20
15.3043807386
 30
0.0
 10
9.6220630697
 20
15.3044975407
 30
0.0
 10
9.5968462994
 20
15.3044975405
 30
0.0
 11
9.7968219358
 21
15.3010659344
 31
0.0
 11
9.7955276154
 21
15.3014013629
 31
0.0
 11
9.7923525441
 21
15.3017349149
 31
0.0
 11
9.7873510802
 21
15.3020629202
 31
0.0
 11
9.7805775818
 21
15.3023817083
 31
0.0
 11
9.7619348551
 21
15.3029770184
 31
0.0
 11
9.737059913
 21
15.3034960746
 31
0.0
 11
9.7069077123
 21
15.3039214159
 31
0.0
 11
9.6724961608
 21
15.3042367097
 31
0.0
 11
9.5968462994
 21
15.3044975405
 31
0.0
  0
SPLINE
  5
653
100
AcDbEntity
  8
RACCORDO
100
AcDbSpline
 62
7
  6
CONTINUOUS
 70
0
 71
3
 72
16
 73
12
 74
10
 42
0.0000001
 43
0.0000001
 44
0.0000000001
 12
0.1415899327
 22
-0.141351442
 32
0.0
 13
0.2000698358
 23
0.0000000018
 33
0.0
 40
0.0
 40
0.0
 40
0.0
 40
0.0
 40
0.0066842012
 40
0.0226464049
 40
0.0477066819
 40
0.0816097831
 40
0.1748602979
 40
0.2992356329
 40
0.4499636408
 40
0.6219541759
 40
1.0
 40
1.0
 40
1.0
 40
1.0
 10
-9.7930778434
 20
-10.3048100268
 30
0.0
 10
-9.7927623715
 20
-10.3051249673
 30
0.0
 10
-9.7910628342
 20
-10.3051246892
 30
0.0
 10
-9.7880665731
 20
-10.3056216825
 30
0.0
 10
-9.7829890651
 20
-10.3058226254
 30
0.0
 10
-9.7728994449
 20
-10.3063432728
 30
0.0
 10
-9.7560949511
 20
-10.3067917838
 30
0.0
 10
-9.7315509114
 20
-10.3073037491
 30
0.0
 10
-9.701730894
 20
-10.3077045553
 30
0.0
 10
-9.6550012157
 20
-10.3081234308
 30
0.0
 10
-9.6183180683
 20
-10.308240127
 30
0.0
 10
-9.5931062129
 20
-10.3082401268
 30
0.0
 11
-9.7930778434
 21
-10.3048100268
 31
0.0
 11
-9.7917832669
 21
-10.3051453801
 31
0.0
 11
-9.78860717
 21
-10.3054788544
 31
0.0
 11
-9.7836040997
 21
-10.3058067766
 31
0.0
 11
-9.7768286029
 21
-10.3061254739
 31
0.0
 11
-9.7581814812
 21
-10.3067205702
 31
0.0
 11
-9.7333031373
 21
-10.3072393778
 31
0.0
 11
-9.7031500057
 21
-10.307664464
 31
0.0
 11
-9.66874133
 21
-10.3079795268
 31
0.0
 11
-9.5931062129
 21
-10.3082401268
 31
0.0
  0
SPLINE
  5
654
100
AcDbEntity
  8
RACCORDO
100
AcDbSpline
 62
7
  6
CONTINUOUS
 70
0
 71
3
 72
16
 73
12
 74
10
 42
0.0000001
 43
0.0000001
 44
0.0000000001
 12
-0.2000735755
 22
0.0000000014
 32
0.0
 13
-0.1415685531
 23
-0.1413781468
 33
0.0
 40
0.0
 40
0.0
 40
0.0
 40
0.0
 40
0.3782245368
 40
0.5502464008
 40
0.7009550221
 40
0.8252783998
 40
0.9184644941
 40
0.9523383399
 40
0.977374776
 40
0.9933210881
 40
1.0
 40
1.0
 40
1.0
 40
1.0
 10
-9.5927458061
 20
-9.6913992155
 30
0.0
 10
-9.6179700512
 20
-9.6913992153
 30
0.0
 10
-9.6546678936
 20
-9.6915161388
 30
0.0
 10
-9.7014111537
 20
-9.6919357814
 30
0.0
 10
-9.7312290506
 20
-9.6923372339
 30
0.0
 10
-9.7557644904
 20
-9.692849797
 30
0.0
 10
-9.7725595352
 20
-9.6932989087
 30
0.0
 10
-9.7826415412
 20
-9.6938197808
 30
0.0
 10
-9.7877144053
 20
-9.6940211974
 30
0.0
 10
-9.7907079242
 20
-9.6945178534
 30
0.0
 10
-9.792405785
 20
-9.6945183387
 30
0.0
 10
-9.7927209596
 20
-9.6948330894
 30
0.0
 11
-9.5927458061
 21
-9.6913992155
 31
0.0
 11
-9.6684180909
 21
-9.6916603549
 31
0.0
 11
-9.702833673
 21
-9.6919759863
 31
0.0
 11
-9.73298348
 21
-9.6924017251
 31
0.0
 11
-9.7578518781
 21
-9.6929211774
 31
0.0
 11
-9.7764864358
 21
-9.6935168233
 31
0.0
 11
-9.783256189
 21
-9.6938357505
 31
0.0
 11
-9.7882545593
 21
-9.6941638812
 31
0.0
 11
-9.7914274989
 21
-9.6944975495
 31
0.0
 11
-9.7927209596
 21
-9.6948330894
 31
0.0
  0
SPLINE
  5
655
100
AcDbEntity
  8
RACCORDO
100
AcDbSpline
 62
7
  6
CONTINUOUS
 70
0
 71
3
 72
16
 73
12
 74
10
 42
0.0000001
 43
0.0000001
 44
0.0000000001
 12
-0.1415685529
 22
0.1413781469
 32
0.0
 13
-0.2000735755
 23
-0.0000000014
 33
0.0
 40
0.0
 40
0.0
 40
0.0
 40
0.0
 40
0.0066789118
 40
0.022625224
 40
0.0476616601
 40
0.0815355059
 40
0.1747216002
 40
0.2990449779
 40
0.4497535991
 40
0.6217754631
 40
1.0
 40
1.0
 40
1.0
 40
1.0
 10
9.7927209596
 20
-9.6948330894
 30
0.0
 10
9.792405785
 20
-9.6945183387
 30
0.0
 10
9.7907079242
 20
-9.6945178534
 30
0.0
 10
9.7877144053
 20
-9.6940211974
 30
0.0
 10
9.7826415412
 20
-9.6938197808
 30
0.0
 10
9.7725595352
 20
-9.6932989087
 30
0.0
 10
9.7557644904
 20
-9.692849797
 30
0.0
 10
9.7312290506
 20
-9.6923372339
 30
0.0
 10
9.7014111537
 20
-9.6919357814
 30
0.0
 10
9.6546678936
 20
-9.6915161388
 30
0.0
 10
9.6179700512
 20
-9.6913992153
 30
0.0
 10
9.5927458061
 20
-9.6913992155
 30
0.0
 11
9.7927209596
 21
-9.6948330894
 31
0.0
 11
9.7914274989
 21
-9.6944975495
 31
0.0
 11
9.7882545593
 21
-9.6941638812
 31
0.0
 11
9.783256189
 21
-9.6938357505
 31
0.0
 11
9.7764864358
 21
-9.6935168233
 31
0.0
 11
9.7578518781
 21
-9.6929211774
 31
0.0
 11
9.73298348
 21
-9.6924017251
 31
0.0
 11
9.702833673
 21
-9.6919759863
 31
0.0
 11
9.6684180909
 21
-9.6916603549
 31
0.0
 11
9.5927458061
 21
-9.6913992155
 31
0.0
  0
SPLINE
  5
656
100
AcDbEntity
  8
RACCORDO
100
AcDbSpline
 62
7
  6
CONTINUOUS
 70
0
 71
3
 72
16
 73
12
 74
10
 42
0.0000001
 43
0.0000001
 44
0.0000000001
 12
0.2000698358
 22
-0.0000000018
 32
0.0
 13
0.1415899325
 23
0.1413514422
 33
0.0
 40
0.0
 40
0.0
 40
0.0
 40
0.0
 40
0.3780458241
 40
0.5500363592
 40
0.7007643671
 40
0.8251397021
 40
0.9183902169
 40
0.9522933181
 40
0.9773535951
 40
0.9933157988
 40
1.0
 40
1.0
 40
1.0
 40
1.0
 10
9.5931062129
 20
-10.3082401268
 30
0.0
 10
9.6183180683
 20
-10.308240127
 30
0.0
 10
9.6550012157
 20
-10.3081234308
 30
0.0
 10
9.701730894
 20
-10.3077045553
 30
0.0
 10
9.7315509114
 20
-10.3073037491
 30
0.0
 10
9.7560949511
 20
-10.3067917838
 30
0.0
 10
9.7728994449
 20
-10.3063432728
 30
0.0
 10
9.7829890651
 20
-10.3058226254
 30
0.0
 10
9.7880665731
 20
-10.3056216825
 30
0.0
 10
9.7910628342
 20
-10.3051246892
 30
0.0
 10
9.7927623715
 20
-10.3051249673
 30
0.0
 10
9.7930778434
 20
-10.3048100268
 30
0.0
 11
9.5931062129
 21
-10.3082401268
 31
0.0
 11
9.66874133
 21
-10.3079795268
 31
0.0
 11
9.7031500057
 21
-10.307664464
 31
0.0
 11
9.7333031373
 21
-10.3072393778
 31
0.0
 11
9.7581814812
 21
-10.3067205702
 31
0.0
 11
9.7768286029
 21
-10.3061254739
 31
0.0
 11
9.7836040997
 21
-10.3058067766
 31
0.0
 11
9.78860717
 21
-10.3054788544
 31
0.0
 11
9.7917832669
 21
-10.3051453801
 31
0.0
 11
9.7930778434
 21
-10.3048100268
 31
0.0
  0
SPLINE
  5
657
100
AcDbEntity
  8
IMPORT
100
AcDbSpline
 62
7
  6
CONTINUOUS
 70
0
 71
3
 72
8
 73
4
 74
2
 42
0.0000001
 43
0.0000001
 44
0.0000000001
 12
0.0696522925
 22
-0.0087674661
 32
0.0
 13
0.0697773021
 23
-0.0083452571
 33
0.0
 40
0.0
 40
0.0
 40
0.0
 40
0.0
 40
1.0
 40
1.0
 40
1.0
 40
1.0
 10
-4.0037086146
 20
3.1843235761
 30
0.0
 10
-3.9804911838
 20
3.1814010874
 30
0.0
 10
-3.9570981791
 20
3.1794515144
 30
0.0
 10
-3.9338390784
 20
3.1766697621
 30
0.0
 11
-4.0037086146
 21
3.1843235761
 31
0.0
 11
-3.9338390784
 21
3.1766697621
 31
0.0
  0
SPLINE
  5
658
100
AcDbEntity
  8
IMPORT
100
AcDbSpline
 62
7
  6
CONTINUOUS
 70
0
 71
3
 72
8
 73
4
 74
2
 42
0.0000001
 43
0.0000001
 44
0.0000000001
 12
0.0394442702
 22
-0.0047174735
 32
0.0
 13
0.0390198252
 23
-0.0072912202
 33
0.0
 40
0.0
 40
0.0
 40
0.0
 40
0.0
 40
1.0
 40
1.0
 40
1.0
 40
1.0
 10
-3.9338390784
 20
3.1766697621
 30
0.0
 10
-3.9206909883
 20
3.1750972709
 30
0.0
 10
-3.9075856873
 20
3.1732588564
 30
0.0
 10
-3.8945790789
 20
3.1708284496
 30
0.0
 11
-3.9338390784
 21
3.1766697621
 31
0.0
 11
-3.8945790789
 21
3.1708284496
 31
0.0
  0
SPLINE
  5
659
100
AcDbEntity
  8
IMPORT
100
AcDbSpline
 62
7
  6
CONTINUOUS
 70
0
 71
3
 72
9
 73
5
 74
3
 42
0.0000001
 43
0.0000001
 44
0.0000000001
 12
0.0704711227
 22
-0.0188713541
 32
0.0
 13
0.0608599877
 23
-0.0396898317
 33
0.0
 40
0.0
 40
0.0
 40
0.0
 40
0.0
 40
0.075732734
 40
1.0
 40
1.0
 40
1.0
 40
1.0
 10
-3.866987499
 20
3.1646245144
 30
0.0
 10
-3.8652085088
 20
3.1641481213
 30
0.0
 10
-3.8417532438
 20
3.1576487429
 30
0.0
 10
-3.8187875097
 20
3.1482393418
 30
0.0
 10
-3.8000372116
 20
3.1360113378
 30
0.0
 11
-3.866987499
 21
3.1646245144
 31
0.0
 11
-3.8616586538
 21
3.1631469996
 31
0.0
 11
-3.8000372116
 21
3.1360113378
 31
0.0
  0
SPLINE
  5
65A
100
AcDbEntity
  8
IMPORT
100
AcDbSpline
 62
7
  6
CONTINUOUS
 70
0
 71
3
 72
9
 73
5
 74
3
 42
0.0000001
 43
0.0000001
 44
0.0000000001
 12
0.0593671118
 22
-0.0387162529
 32
0.0
 13
0.0411267275
 23
-0.0586456125
 33
0.0
 40
0.0
 40
0.0
 40
0.0
 40
0.0
 40
0.1770839765
 40
1.0
 40
1.0
 40
1.0
 40
1.0
 10
-3.8000372116
 20
3.1360113378
 30
0.0
 10
-3.7965328901
 20
3.1337259951
 30
0.0
 10
-3.7772322736
 20
3.1201240554
 30
0.0
 10
-3.7611182094
 20
3.1023712322
 30
0.0
 10
-3.7498369284
 20
3.0862844274
 30
0.0
 11
-3.8000372116
 21
3.1360113378
 31
0.0
 11
-3.7897971565
 21
3.1287784575
 31
0.0
 11
-3.7498369284
 21
3.0862844274
 31
0.0
  0
SPLINE
  5
65B
100
AcDbEntity
  8
IMPORT
100
AcDbSpline
 62
7
  6
CONTINUOUS
 70
0
 71
3
 72
9
 73
5
 74
3
 42
0.0000001
 43
0.0000001
 44
0.0000000001
 12
0.0235727696
 22
-0.0633128133
 32
0.0
 13
0.0089515974
 23
-0.066737132
 33
0.0
 40
0.0
 40
0.0
 40
0.0
 40
0.0
 40
0.7525150857
 40
1.0
 40
1.0
 40
1.0
 40
1.0
 10
-3.7181397442
 20
3.0254276905
 30
0.0
 10
-3.7122267893
 20
3.0095464081
 30
0.0
 10
-3.7062526382
 20
2.9877913566
 30
0.0
 10
-3.7027374572
 20
2.9656213224
 30
0.0
 10
-3.7019989954
 20
2.9601158446
 30
0.0
 11
-3.7181397442
 21
3.0254276905
 31
0.0
 11
-3.7046279746
 21
2.9765694032
 31
0.0
 11
-3.7019989954
 21
2.9601158446
 31
0.0
  0
SPLINE
  5
65C
100
AcDbEntity
  8
IMPORT
100
AcDbSpline
 62
7
  6
CONTINUOUS
 70
0
 71
3
 72
8
 73
4
 74
2
 42
0.0000001
 43
0.0000001
 44
0.0000000001
 12
0.0087100502
 22
-0.0649363168
 32
0.0
 13
0.0
 23
-0.0654538953
 33
0.0
 40
0.0
 40
0.0
 40
0.0
 40
0.0
 40
1.0
 40
1.0
 40
1.0
 40
1.0
 10
-3.7019989954
 20
2.9601158446
 30
0.0
 10
-3.6990956454
 20
2.9384704056
 30
0.0
 10
-3.6982248568
 20
2.9165354644
 30
0.0
 10
-3.6982248568
 20
2.8947174993
 30
0.0
 11
-3.7019989954
 21
2.9601158446
 31
0.0
 11
-3.6982248568
 21
2.8947174993
 31
0.0
  0
SPLINE
  5
65D
100
AcDbEntity
  8
IMPORT
100
AcDbSpline
 62
7
  6
CONTINUOUS
 70
0
 71
3
 72
8
 73
4
 74
2
 42
0.0000001
 43
0.0000001
 44
0.0000000001
 12
0.083979415
 22
0.0105708893
 32
0.0
 13
0.0838835224
 23
0.0115763958
 33
0.0
 40
0.0
 40
0.0
 40
0.0
 40
0.0
 40
1.0
 40
1.0
 40
1.0
 40
1.0
 10
-4.0037086146
 20
2.6051114224
 30
0.0
 10
-3.9757154763
 20
2.6086350522
 30
0.0
 10
-3.9474671061
 20
2.6107443542
 30
0.0
 10
-3.919505932
 20
2.6146031528
 30
0.0
 11
-4.0037086146
 21
2.6051114224
 31
0.0
 11
-3.919505932
 21
2.6146031528
 31
0.0
  0
SPLINE
  5
65E
100
AcDbEntity
  8
IMPORT
100
AcDbSpline
 62
7
  6
CONTINUOUS
 70
0
 71
3
 72
9
 73
5
 74
3
 42
0.0000001
 43
0.0000001
 44
0.0000000001
 12
0.0776382983
 22
0.0107145199
 32
0.0
 13
0.0743509094
 23
0.0270770423
 33
0.0
 40
0.0
 40
0.0
 40
0.0
 40
0.0
 40
0.7528384435
 40
1.0
 40
1.0
 40
1.0
 40
1.0
 10
-3.919505932
 20
2.6146031528
 30
0.0
 10
-3.9000229001
 20
2.6172919203
 30
0.0
 10
-3.8743286835
 20
2.6219916983
 30
0.0
 10
-3.8492042645
 20
2.6300786456
 30
0.0
 10
-3.8430787023
 20
2.6323094469
 30
0.0
 11
-3.919505932
 21
2.6146031528
 31
0.0
 11
-3.8616586538
 21
2.6262879989
 31
0.0
 11
-3.8430787023
 21
2.6323094469
 31
0.0
  0
SPLINE
  5
65F
100
AcDbEntity
  8
IMPORT
100
AcDbSpline
 62
7
  6
CONTINUOUS
 70
0
 71
3
 72
9
 73
5
 74
3
 42
0.0000001
 43
0.0000001
 44
0.0000000001
 12
0.066437423
 22
0.0241951164
 32
0.0
 13
0.052978731
 23
0.0457473133
 33
0.0
 40
0.0
 40
0.0
 40
0.0
 40
0.0
 40
0.8613213916
 40
1.0
 40
1.0
 40
1.0
 40
1.0
 10
-3.8430787023
 20
2.6323094469
 30
0.0
 10
-3.8240040444
 20
2.6392560374
 30
0.0
 10
-3.8028064689
 20
2.6499331149
 30
0.0
 10
-3.7847212291
 20
2.6646643997
 30
0.0
 10
-3.7822722235
 20
2.6667791242
 30
0.0
 11
-3.8430787023
 21
2.6323094469
 31
0.0
 11
-3.7897971565
 21
2.660656541
 31
0.0
 11
-3.7822722235
 21
2.6667791242
 31
0.0
  0
SPLINE
  5
660
100
AcDbEntity
  8
IMPORT
100
AcDbSpline
 62
7
  6
CONTINUOUS
 70
0
 71
3
 72
8
 73
4
 74
2
 42
0.0000001
 43
0.0000001
 44
0.0000000001
 12
0.0178427933
 22
0.0154073123
 32
0.0
 13
0.0157893005
 23
0.0176838764
 33
0.0
 40
0.0
 40
0.0
 40
0.0
 40
0.0
 40
1.0
 40
1.0
 40
1.0
 40
1.0
 10
-3.7822722235
 20
2.6667791242
 30
0.0
 10
-3.7763246258
 20
2.671914895
 30
0.0
 10
-3.7707251879
 20
2.6774742031
 30
0.0
 10
-3.7654620878
 20
2.6833688285
 30
0.0
 11
-3.7822722235
 21
2.6667791242
 31
0.0
 11
-3.7654620878
 21
2.6833688285
 31
0.0
  0
SPLINE
  5
661
100
AcDbEntity
  8
IMPORT
100
AcDbSpline
 62
7
  6
CONTINUOUS
 70
0
 71
3
 72
8
 73
4
 74
2
 42
0.0000001
 43
0.0000001
 44
0.0000000001
 12
0.0270136704
 22
0.030255071
 32
0.0
 13
0.021284271
 23
0.0348187594
 33
0.0
 40
0.0
 40
0.0
 40
0.0
 40
0.0
 40
1.0
 40
1.0
 40
1.0
 40
1.0
 10
-3.7654620878
 20
2.6833688285
 30
0.0
 10
-3.756457531
 20
2.6934538522
 30
0.0
 10
-3.7484374769
 20
2.7045203921
 30
0.0
 10
-3.7413427199
 20
2.7161266452
 30
0.0
 11
-3.7654620878
 21
2.6833688285
 31
0.0
 11
-3.7413427199
 21
2.7161266452
 31
0.0
  0
SPLINE
  5
662
100
AcDbEntity
  8
IMPORT
100
AcDbSpline
 62
7
  6
CONTINUOUS
 70
0
 71
3
 72
9
 73
5
 74
3
 42
0.0000001
 43
0.0000001
 44
0.0000000001
 12
0.0201196449
 22
0.0599806998
 32
0.0
 13
0.0074757021
 23
0.0626663004
 33
0.0
 40
0.0
 40
0.0
 40
0.0
 40
0.0
 40
0.6533204669
 40
1.0
 40
1.0
 40
1.0
 40
1.0
 10
-3.714980643
 20
2.7729379635
 30
0.0
 10
-3.7105991177
 20
2.7860001698
 30
0.0
 10
-3.705323869
 20
2.8064418029
 30
0.0
 10
-3.7022080701
 20
2.827247871
 30
0.0
 10
-3.7013441791
 20
2.8344895789
 30
0.0
 11
-3.714980643
 21
2.7729379635
 31
0.0
 11
-3.7046279746
 21
2.8128655953
 31
0.0
 11
-3.7013441791
 21
2.8344895789
 31
0.0
  0
SPLINE
  5
663
100
AcDbEntity
  8
IMPORT
100
AcDbSpline
 62
7
  6
CONTINUOUS
 70
0
 71
3
 72
8
 73
4
 74
2
 42
0.0000001
 43
0.0000001
 44
0.0000000001
 12
0.0071446564
 22
0.0598912557
 32
0.0
 13
0.0
 23
0.0602475917
 33
0.0
 40
0.0
 40
0.0
 40
0.0
 40
0.0
 40
1.0
 40
1.0
 40
1.0
 40
1.0
 10
-3.7013441791
 20
2.8344895789
 30
0.0
 10
-3.698962627
 20
2.8544533308
 30
0.0
 10
-3.6982248568
 20
2.8746349687
 30
0.0
 10
-3.6982248568
 20
2.8947174993
 30
0.0
 11
-3.7013441791
 21
2.8344895789
 31
0.0
 11
-3.6982248568
 21
2.8947174993
 31
0.0
  0
SPLINE
  5
664
100
AcDbEntity
  8
IMPORT
100
AcDbSpline
 62
7
  6
CONTINUOUS
 70
0
 71
3
 72
9
 73
5
 74
3
 42
0.0000001
 43
0.0000001
 44
0.0000000001
 12
0.4031333774
 22
0.0149412718
 32
0.0
 13
0.3911480453
 23
0.1023508279
 33
0.0
 40
0.0
 40
0.0
 40
0.0
 40
0.0
 40
0.560170822
 40
1.0
 40
1.0
 40
1.0
 40
1.0
 10
-4.073261632
 20
2.2644346948
 30
0.0
 10
-3.9979871136
 20
2.267224583
 30
0.0
 10
-3.8633068627
 20
2.2693828946
 30
0.0
 10
-3.7301572125
 20
2.2918220876
 30
0.0
 10
-3.6728111047
 20
2.3068277144
 30
0.0
 11
-4.073261632
 21
2.2644346948
 31
0.0
 11
-3.8475795091
 21
2.2760065945
 31
0.0
 11
-3.6728111047
 21
2.3068277144
 31
0.0
  0
SPLINE
  5
665
100
AcDbEntity
  8
IMPORT
100
AcDbSpline
 62
7
  6
CONTINUOUS
 70
0
 71
3
 72
13
 73
9
 74
7
 42
0.0000001
 43
0.0000001
 44
0.0000000001
 12
0.7783037576
 22
0.2036569909
 32
0.0
 13
0.0
 23
0.802702842
 33
0.0
 40
0.0
 40
0.0
 40
0.0
 40
0.0
 40
0.0315775211
 40
0.2617977347
 40
0.4803299062
 40
0.7140297927
 40
0.8483193096
 40
1.0
 40
1.0
 40
1.0
 40
1.0
 10
-3.6728111047
 20
2.3068277144
 30
0.0
 10
-3.6646188036
 20
2.3089713754
 30
0.0
 10
-3.5969053279
 20
2.3276127188
 30
0.0
 10
-3.4761396585
 20
2.3754795513
 30
0.0
 10
-3.3334667983
 20
2.4963073926
 30
0.0
 10
-3.2622876158
 20
2.6409310845
 30
0.0
 10
-3.2341185393
 20
2.777430517
 30
0.0
 10
-3.2297172104
 20
2.8541326588
 30
0.0
 10
-3.2297172104
 20
2.8947174993
 30
0.0
 11
-3.6728111047
 21
2.3068277144
 31
0.0
 11
-3.648311396
 21
2.3135766956
 31
0.0
 11
-3.4782044702
 21
2.3857853498
 31
0.0
 11
-3.3458990835
 21
2.500964325
 31
0.0
 11
-3.2601898796
 21
2.6678311189
 31
0.0
 11
-3.2375089562
 21
2.7732125523
 31
0.0
 11
-3.2297172104
 21
2.8947174993
 31
0.0
  0
SPLINE
  5
666
100
AcDbEntity
  8
IMPORT
100
AcDbSpline
 62
7
  6
CONTINUOUS
 70
0
 71
3
 72
9
 73
5
 74
3
 42
0.0000001
 43
0.0000001
 44
0.0000000001
 12
0.4031333774
 22
-0.0149412718
 32
0.0
 13
0.3911480453
 23
-0.1023508279
 33
0.0
 40
0.0
 40
0.0
 40
0.0
 40
0.0
 40
0.560170822
 40
1.0
 40
1.0
 40
1.0
 40
1.0
 10
-4.073261632
 20
3.5250003037
 30
0.0
 10
-3.9979871136
 20
3.5222104156
 30
0.0
 10
-3.8633068627
 20
3.5200521039
 30
0.0
 10
-3.7301572125
 20
3.4976129109
 30
0.0
 10
-3.6728111047
 20
3.4826072841
 30
0.0
 11
-4.073261632
 21
3.5250003037
 31
0.0
 11
-3.8475795091
 21
3.513428404
 31
0.0
 11
-3.6728111047
 21
3.4826072841
 31
0.0
  0
SPLINE
  5
667
100
AcDbEntity
  8
IMPORT
100
AcDbSpline
 62
7
  6
CONTINUOUS
 70
0
 71
3
 72
13
 73
9
 74
7
 42
0.0000001
 43
0.0000001
 44
0.0000000001
 12
0.6965619678
 22
-0.1822678009
 32
0.0
 13
0.0639150651
 23
-0.7161872209
 33
0.0
 40
0.0
 40
0.0
 40
0.0
 40
0.0
 40
0.0352831542
 40
0.2925197902
 40
0.5366967882
 40
0.7978214379
 40
0.9478698764
 40
1.0
 40
1.0
 40
1.0
 40
1.0
 10
-3.6728111047
 20
3.4826072841
 30
0.0
 10
-3.6646188036
 20
3.4804636231
 30
0.0
 10
-3.5969053279
 20
3.4618222798
 30
0.0
 10
-3.4761396585
 20
3.4139554472
 30
0.0
 10
-3.3334667983
 20
3.2931276059
 30
0.0
 10
-3.2622876158
 20
3.148503914
 30
0.0
 10
-3.2398115225
 20
3.039591079
 30
0.0
 10
-3.2344472344
 20
2.9914275357
 30
0.0
 10
-3.2333366009
 20
2.9789825596
 30
0.0
 11
-3.6728111047
 21
3.4826072841
 31
0.0
 11
-3.648311396
 21
3.4758583029
 31
0.0
 11
-3.4782044702
 21
3.4036496487
 31
0.0
 11
-3.3458990835
 21
3.2884706736
 31
0.0
 11
-3.2601898796
 21
3.1216038797
 31
0.0
 11
-3.2375089562
 21
3.0162224463
 31
0.0
 11
-3.2333366009
 21
2.9789825596
 31
0.0
  0
SPLINE
  5
668
100
AcDbEntity
  8
IMPORT
100
AcDbSpline
 62
7
  6
CONTINUOUS
 70
0
 71
3
 72
8
 73
4
 74
2
 42
0.0000001
 43
0.0000001
 44
0.0000000001
 12
0.0075004552
 22
-0.0840448201
 32
0.0
 13
0.0
 23
-0.0843043174
 33
0.0
 40
0.0
 40
0.0
 40
0.0
 40
0.0
 40
1.0
 40
1.0
 40
1.0
 40
1.0
 10
-3.2333366009
 20
2.9789825596
 30
0.0
 10
-3.2308364492
 20
2.9509676195
 30
0.0
 10
-3.2297172104
 20
2.9228189384
 30
0.0
 10
-3.2297172104
 20
2.8947174993
 30
0.0
 11
-3.2333366009
 21
2.9789825596
 31
0.0
 11
-3.2297172104
 21
2.8947174993
 31
0.0
  0
SPLINE
  5
669
100
AcDbEntity
  8
ASSI
100
AcDbSpline
 62
7
  6
CONTINUOUS
 70
0
 71
3
 72
8
 73
4
 74
2
 42
0.0000001
 43
0.0000001
 44
0.0000000001
 12
-0.201982889
 22
0.036094445
 32
0.0
 13
-0.1318806596
 23
0.1571858391
 33
0.0
 40
0.0
 40
0.0
 40
0.0
 40
0.0
 40
1.0
 40
1.0
 40
1.0
 40
1.0
 10
4.8597193253
 20
18.5046645648
 30
0.0
 10
4.7923916956
 20
18.5166960465
 30
0.0
 10
4.7259187079
 20
18.5547435801
 30
0.0
 10
4.681958488
 20
18.6071388598
 30
0.0
 11
4.8597193253
 21
18.5046645648
 31
0.0
 11
4.681958488
 21
18.6071388598
 31
0.0
  0
SPLINE
  5
66A
100
AcDbEntity
  8
ASSI
100
AcDbSpline
 62
7
  6
CONTINUOUS
 70
0
 71
3
 72
8
 73
4
 74
2
 42
0.0000001
 43
0.0000001
 44
0.0000000001
 12
-0.0998011123
 22
0.1189508882
 32
0.0
 13
-0.0273125714
 23
0.1528515596
 33
0.0
 40
0.0
 40
0.0
 40
0.0
 40
0.0
 40
1.0
 40
1.0
 40
1.0
 40
1.0
 10
4.681958488
 20
18.6071388598
 30
0.0
 10
4.6486914506
 20
18.6467891559
 30
0.0
 10
4.6255726958
 20
18.6969741275
 30
0.0
 10
4.6164685053
 20
18.7479246474
 30
0.0
 11
4.681958488
 21
18.6071388598
 31
0.0
 11
4.6164685053
 21
18.7479246474
 31
0.0
  0
SPLINE
  5
66B
100
AcDbEntity
  8
ASSI
100
AcDbSpline
 62
7
  6
CONTINUOUS
 70
0
 71
3
 72
8
 73
4
 74
2
 42
0.0000001
 43
0.0000001
 44
0.0000000001
 12
0.0922044916
 22
-0.011606601
 32
0.0
 13
0.0918969236
 23
-0.0139384319
 33
0.0
 40
0.0
 40
0.0
 40
0.0
 40
0.0
 40
1.0
 40
1.0
 40
1.0
 40
1.0
 10
-4.003711982
 20
3.184324
 30
0.0
 10
-3.9729771514
 20
3.180455133
 30
0.0
 10
-3.9419346185
 20
3.1782913592
 30
0.0
 10
-3.9113023106
 20
3.1736452153
 30
0.0
 11
-4.003711982
 21
3.184324
 31
0.0
 11
-3.9113023106
 21
3.1736452153
 31
0.0
  0
SPLINE
  5
66C
100
AcDbEntity
  8
ASSI
100
AcDbSpline
 62
7
  6
CONTINUOUS
 70
0
 71
3
 72
8
 73
4
 74
2
 42
0.0000001
 43
0.0000001
 44
0.0000000001
 12
0.0460950437
 22
-0.0069914487
 32
0.0
 13
0.0452039662
 23
-0.0123241743
 33
0.0
 40
0.0
 40
0.0
 40
0.0
 40
0.0
 40
1.0
 40
1.0
 40
1.0
 40
1.0
 10
-3.9113023106
 20
3.1736452153
 30
0.0
 10
-3.895937296
 20
3.1713147324
 30
0.0
 10
-3.8806754931
 20
3.1683596911
 30
0.0
 10
-3.8656075043
 20
3.1642516329
 30
0.0
 11
-3.9113023106
 21
3.1736452153
 31
0.0
 11
-3.8656075043
 21
3.1642516329
 31
0.0
  0
SPLINE
  5
66D
100
AcDbEntity
  8
ASSI
100
AcDbSpline
 62
7
  6
CONTINUOUS
 70
0
 71
3
 72
10
 73
6
 74
4
 42
0.0000001
 43
0.0000001
 44
0.0000000001
 12
0.092398727
 22
-0.0251911085
 32
0.0
 13
0.0714524727
 23
-0.063062513
 33
0.0
 40
0.0
 40
0.0
 40
0.0
 40
0.0
 40
0.0427858532
 40
0.8788053328
 40
1.0
 40
1.0
 40
1.0
 40
1.0
 10
-3.8656075043
 20
3.1642516329
 30
0.0
 10
-3.8642897182
 20
3.1638923586
 30
0.0
 10
-3.8372533348
 20
3.1563318613
 30
0.0
 10
-3.8072291346
 20
3.143325437
 30
0.0
 10
-3.7837727508
 20
3.1239934669
 30
0.0
 10
-3.780886198
 20
3.1214458535
 30
0.0
 11
-3.8656075043
 21
3.1642516329
 31
0.0
 11
-3.8616586538
 21
3.1631469996
 31
0.0
 11
-3.7897971565
 21
3.1287784575
 31
0.0
 11
-3.780886198
 21
3.1214458535
 31
0.0
  0
SPLINE
  5
66E
100
AcDbEntity
  8
ASSI
100
AcDbSpline
 62
7
  6
CONTINUOUS
 70
0
 71
3
 72
9
 73
5
 74
3
 42
0.0000001
 43
0.0000001
 44
0.0000000001
 12
0.0866203879
 22
-0.0764494095
 32
0.0
 13
0.0402668576
 23
-0.1087869447
 33
0.0
 40
0.0
 40
0.0
 40
0.0
 40
0.0
 40
0.6041179728
 40
1.0
 40
1.0
 40
1.0
 40
1.0
 10
-3.780886198
 20
3.1214458535
 30
0.0
 10
-3.7634432202
 20
3.1060510327
 30
0.0
 10
-3.7396050439
 20
3.0745260148
 30
0.0
 10
-3.7232618894
 20
3.0392674498
 30
0.0
 10
-3.7179482477
 20
3.0249118511
 30
0.0
 11
-3.780886198
 21
3.1214458535
 31
0.0
 11
-3.7373764508
 21
3.066598783
 31
0.0
 11
-3.7179482477
 21
3.0249118511
 31
0.0
  0
SPLINE
  5
66F
100
AcDbEntity
  8
ASSI
100
AcDbSpline
 62
7
  6
CONTINUOUS
 70
0
 71
3
 72
9
 73
5
 74
3
 42
0.0000001
 43
0.0000001
 44
0.0000000001
 12
0.0310080065
 22
-0.0837727722
 32
0.0
 13
0.0067547905
 23
-0.0888554376
 33
0.0
 40
0.0
 40
0.0
 40
0.0
 40
0.0
 40
0.5629460289
 40
1.0
 40
1.0
 40
1.0
 40
1.0
 10
-3.7179482477
 20
3.0249118511
 30
0.0
 10
-3.7121296363
 20
3.0091920013
 30
0.0
 10
-3.7042566387
 20
2.9804213379
 30
0.0
 10
-3.7006829419
 20
2.9509251123
 30
0.0
 10
-3.6996988726
 20
2.9379802384
 30
0.0
 11
-3.7179482477
 21
3.0249118511
 31
0.0
 11
-3.7046279746
 21
2.9765694032
 31
0.0
 11
-3.6996988726
 21
2.9379802384
 31
0.0
  0
SPLINE
  5
670
100
AcDbEntity
  8
ASSI
100
AcDbSpline
 62
7
  6
CONTINUOUS
 70
0
 71
3
 72
8
 73
4
 74
2
 42
0.0000001
 43
0.0000001
 44
0.0000000001
 12
0.0032826678
 22
-0.0431816326
 32
0.0
 13
-0.0
 23
-0.0432267639
 33
0.0
 40
0.0
 40
0.0
 40
0.0
 40
0.0
 40
1.0
 40
1.0
 40
1.0
 40
1.0
 10
-3.6996988726
 20
2.9379802384
 30
0.0
 10
-3.69860465
 20
2.9235863609
 30
0.0
 10
-3.6982248568
 20
2.9091264206
 30
0.0
 10
-3.6982248568
 20
2.8947174993
 30
0.0
 11
-3.6996988726
 21
2.9379802384
 31
0.0
 11
-3.6982248568
 21
2.8947174993
 31
0.0
  0
SPLINE
  5
671
100
AcDbEntity
  8
ASSI
100
AcDbSpline
 62
7
  6
CONTINUOUS
 70
0
 71
3
 72
8
 73
4
 74
2
 42
0.0000001
 43
0.0000001
 44
0.0000000001
 12
-0.0
 22
-0.0418559742
 32
0.0
 13
-0.0030479232
 23
-0.0418241032
 33
0.0
 40
0.0
 40
0.0
 40
0.0
 40
0.0
 40
1.0
 40
1.0
 40
1.0
 40
1.0
 10
-3.6982248568
 20
2.8947174993
 30
0.0
 10
-3.6982248568
 20
2.8807655079
 30
0.0
 10
-3.6985809442
 20
2.8667656819
 30
0.0
 10
-3.6995969186
 20
2.8528243142
 30
0.0
 11
-3.6982248568
 21
2.8947174993
 31
0.0
 11
-3.6995969186
 21
2.8528243142
 31
0.0
  0
SPLINE
  5
672
100
AcDbEntity
  8
ASSI
100
AcDbSpline
 62
7
  6
CONTINUOUS
 70
0
 71
3
 72
9
 73
5
 74
3
 42
0.0000001
 43
0.0000001
 44
0.0000000001
 12
-0.0059828517
 22
-0.0820976758
 32
0.0
 13
-0.0264206246
 23
-0.0781117798
 33
0.0
 40
0.0
 40
0.0
 40
0.0
 40
0.0
 40
0.4898476605
 40
1.0
 40
1.0
 40
1.0
 40
1.0
 10
-3.6995969186
 20
2.8528243142
 30
0.0
 10
-3.7005738139
 20
2.8394191961
 30
0.0
 10
-3.7038135844
 20
2.8121636395
 30
0.0
 10
-3.7107214944
 20
2.7855271286
 30
0.0
 10
-3.7152143422
 20
2.7722441595
 30
0.0
 11
-3.6995969186
 21
2.8528243142
 31
0.0
 11
-3.7046279746
 21
2.8128655953
 31
0.0
 11
-3.7152143422
 21
2.7722441595
 31
0.0
  0
SPLINE
  5
673
100
AcDbEntity
  8
ASSI
100
AcDbSpline
 62
7
  6
CONTINUOUS
 70
0
 71
3
 72
9
 73
5
 74
3
 42
0.0000001
 43
0.0000001
 44
0.0000000001
 12
-0.0266672289
 22
-0.078840858
 32
0.0
 13
-0.0498970666
 23
-0.0673006806
 33
0.0
 40
0.0
 40
0.0
 40
0.0
 40
0.0
 40
0.6498038162
 40
1.0
 40
1.0
 40
1.0
 40
1.0
 10
-3.7152143422
 20
2.7722441595
 30
0.0
 10
-3.7209904979
 20
2.7551671294
 30
0.0
 10
-3.7323437344
 20
2.7296644515
 30
0.0
 10
-3.7475601313
 20
2.7060861563
 30
0.0
 10
-3.7533847187
 20
2.6982300091
 30
0.0
 11
-3.7152143422
 21
2.7722441595
 31
0.0
 11
-3.7373764508
 21
2.7228362155
 31
0.0
 11
-3.7533847187
 21
2.6982300091
 31
0.0
  0
SPLINE
  5
674
100
AcDbEntity
  8
ASSI
100
AcDbSpline
 62
7
  6
CONTINUOUS
 70
0
 71
3
 72
10
 73
6
 74
4
 42
0.0000001
 43
0.0000001
 44
0.0000000001
 12
-0.1150218001
 22
-0.1551402909
 32
0.0
 13
-0.1894597934
 23
-0.0260779698
 33
0.0
 40
0.0
 40
0.0
 40
0.0
 40
0.0
 40
0.2735231337
 40
0.6902231044
 40
1.0
 40
1.0
 40
1.0
 40
1.0
 10
-3.7533847187
 20
2.6982300091
 30
0.0
 10
-3.7638717598
 20
2.6840851896
 30
0.0
 10
-3.7943916552
 20
2.6516707324
 30
0.0
 10
-3.8546287993
 20
2.6255761203
 30
0.0
 10
-3.9001802797
 20
2.6172631664
 30
0.0
 10
-3.9197437019
 20
2.6145703822
 30
0.0
 11
-3.7533847187
 21
2.6982300091
 31
0.0
 11
-3.7897971565
 21
2.660656541
 31
0.0
 11
-3.8616586538
 21
2.6262879989
 31
0.0
 11
-3.9197437019
 21
2.6145703822
 31
0.0
  0
SPLINE
  5
675
100
AcDbEntity
  8
ASSI
100
AcDbSpline
 62
7
  6
CONTINUOUS
 70
0
 71
3
 72
8
 73
4
 74
2
 42
0.0000001
 43
0.0000001
 44
0.0000000001
 12
-0.0836539689
 22
-0.0115144519
 32
0.0
 13
-0.0837446749
 23
-0.0105416873
 33
0.0
 40
0.0
 40
0.0
 40
0.0
 40
0.0
 40
1.0
 40
1.0
 40
1.0
 40
1.0
 10
-3.9197437019
 20
2.6145703822
 30
0.0
 10
-3.9476283582
 20
2.6107322316
 30
0.0
 10
-3.9757970787
 20
2.6086248958
 30
0.0
 10
-4.0037119703
 20
2.605111
 30
0.0
 11
-3.9197437019
 21
2.6145703822
 31
0.0
 11
-4.0037119703
 21
2.605111
 31
0.0
  0
SPLINE
  5
676
100
AcDbEntity
  8
ASSI
100
AcDbSpline
 62
7
  6
CONTINUOUS
 70
0
 71
3
 72
8
 73
4
 74
2
 42
0.0000001
 43
0.0000001
 44
0.0000000001
 12
0.165840978
 22
0.0055154186
 32
0.0
 13
0.1650719951
 23
0.0165053719
 33
0.0
 40
0.0
 40
0.0
 40
0.0
 40
0.0
 40
1.0
 40
1.0
 40
1.0
 40
1.0
 10
-4.0145279167
 20
2.2664297351
 30
0.0
 10
-3.9592475907
 20
2.268268208
 30
0.0
 10
-3.9039669892
 20
2.2703677673
 30
0.0
 10
-3.8489429909
 20
2.275869558
 30
0.0
 11
-4.0145279167
 21
2.2664297351
 31
0.0
 11
-3.8489429909
 21
2.275869558
 31
0.0
  0
SPLINE
  5
677
100
AcDbEntity
  8
ASSI
100
AcDbSpline
 62
7
  6
CONTINUOUS
 70
0
 71
3
 72
9
 73
5
 74
3
 42
0.0000001
 43
0.0000001
 44
0.0000000001
 12
0.1876570665
 22
0.0265150313
 32
0.0
 13
0.180171217
 23
0.0603586284
 33
0.0
 40
0.0
 40
0.0
 40
0.0
 40
0.0
 40
0.8037357841
 40
1.0
 40
1.0
 40
1.0
 40
1.0
 10
-3.7973239748
 20
2.2820780349
 30
0.0
 10
-3.7470484083
 20
2.289181728
 30
0.0
 10
-3.685007426
 20
2.3019277583
 30
0.0
 10
-3.6245022275
 20
2.320720444
 30
0.0
 10
-3.6127151733
 20
2.3246691903
 30
0.0
 11
-3.7973239748
 21
2.2820780349
 31
0.0
 11
-3.648311396
 21
2.3135766956
 31
0.0
 11
-3.6127151733
 21
2.3246691903
 31
0.0
  0
SPLINE
  5
678
100
AcDbEntity
  8
ASSI
100
AcDbSpline
 62
7
  6
CONTINUOUS
 70
0
 71
3
 72
8
 73
4
 74
2
 42
0.0000001
 43
0.0000001
 44
0.0000000001
 12
0.0801610617
 22
0.026854521
 32
0.0
 13
0.0764429166
 23
0.035845132
 33
0.0
 40
0.0
 40
0.0
 40
0.0
 40
0.0
 40
1.0
 40
1.0
 40
1.0
 40
1.0
 10
-3.6127151733
 20
2.3246691903
 30
0.0
 10
-3.5859948194
 20
2.3336206974
 30
0.0
 10
-3.5597264414
 20
2.3439104601
 30
0.0
 10
-3.5342454692
 20
2.3558588375
 30
0.0
 11
-3.6127151733
 21
2.3246691903
 31
0.0
 11
-3.5342454692
 21
2.3558588375
 31
0.0
  0
SPLINE
  5
679
100
AcDbEntity
  8
ASSI
100
AcDbSpline
 62
7
  6
CONTINUOUS
 70
0
 71
3
 72
9
 73
5
 74
3
 42
0.0000001
 43
0.0000001
 44
0.0000000001
 12
0.0720562213
 22
0.0337881504
 32
0.0
 13
0.0669961196
 23
0.0433925074
 33
0.0
 40
0.0
 40
0.0
 40
0.0
 40
0.0
 40
0.7982856733
 40
1.0
 40
1.0
 40
1.0
 40
1.0
 10
-3.5342454692
 20
2.3558588375
 30
0.0
 10
-3.5150716528
 20
2.3648497029
 30
0.0
 10
-3.4916114153
 20
2.3772888665
 30
0.0
 10
-3.4690750714
 20
2.3914159357
 30
0.0
 10
-3.464570379
 20
2.3943335658
 30
0.0
 11
-3.5342454692
 21
2.3558588375
 31
0.0
 11
-3.4782044702
 21
2.3857853498
 31
0.0
 11
-3.464570379
 21
2.3943335658
 31
0.0
  0
SPLINE
  5
67A
100
AcDbEntity
  8
ASSI
100
AcDbSpline
 62
7
  6
CONTINUOUS
 70
0
 71
3
 72
9
 73
5
 74
3
 42
0.0000001
 43
0.0000001
 44
0.0000000001
 12
0.2669940567
 22
0.1729285463
 32
0.0
 13
0.1095947205
 23
0.2989867284
 33
0.0
 40
0.0
 40
0.0
 40
0.0
 40
0.0
 40
0.5036827691
 40
1.0
 40
1.0
 40
1.0
 40
1.0
 10
-3.464570379
 20
2.3943335658
 30
0.0
 10
-3.4197436104
 20
2.4233672755
 30
0.0
 10
-3.3388477581
 20
2.4943786296
 30
0.0
 10
-3.2880948993
 20
2.5892872884
 30
0.0
 10
-3.2699636499
 20
2.6387513767
 30
0.0
 11
-3.464570379
 21
2.3943335658
 31
0.0
 11
-3.3458990835
 21
2.500964325
 31
0.0
 11
-3.2699636499
 21
2.6387513767
 31
0.0
  0
SPLINE
  5
67B
100
AcDbEntity
  8
ASSI
100
AcDbSpline
 62
7
  6
CONTINUOUS
 70
0
 71
3
 72
10
 73
6
 74
4
 42
0.0000001
 43
0.0000001
 44
0.0000000001
 12
0.090065588
 22
0.2457090577
 32
0.0
 13
0.0
 23
0.2600733183
 33
0.0
 40
0.0
 40
0.0
 40
0.0
 40
0.0
 40
0.1173677502
 40
0.5318453964
 40
1.0
 40
1.0
 40
1.0
 40
1.0
 10
-3.2699636499
 20
2.6387513767
 30
0.0
 10
-3.2664400514
 20
2.6483641498
 30
0.0
 10
-3.251681021
 20
2.692327664
 30
0.0
 10
-3.2341185393
 20
2.777430517
 30
0.0
 10
-3.2297172104
 20
2.8541326588
 30
0.0
 10
-3.2297172104
 20
2.8947174993
 30
0.0
 11
-3.2699636499
 21
2.6387513767
 31
0.0
 11
-3.2601898796
 21
2.6678311189
 31
0.0
 11
-3.2375089562
 21
2.7732125523
 31
0.0
 11
-3.2297172104
 21
2.8947174993
 31
0.0
  0
SPLINE
  5
67C
100
AcDbEntity
  8
ASSI
100
AcDbSpline
 62
7
  6
CONTINUOUS
 70
0
 71
3
 72
9
 73
5
 74
3
 42
0.0000001
 43
0.0000001
 44
0.0000000001
 12
0.0
 22
0.1348716125
 32
0.0
 13
-0.0204184265
 23
0.1333705911
 33
0.0
 40
0.0
 40
0.0
 40
0.0
 40
0.0
 40
0.9027438689
 40
1.0
 40
1.0
 40
1.0
 40
1.0
 10
-3.2297172104
 20
2.8947174993
 30
0.0
 10
-3.2297172104
 20
2.9353023397
 30
0.0
 10
-3.232303212
 20
2.9803686965
 30
0.0
 10
-3.2387210622
 20
3.0248869829
 30
0.0
 10
-3.2393830013
 20
3.0292106855
 30
0.0
 11
-3.2297172104
 21
2.8947174993
 31
0.0
 11
-3.2375089562
 21
3.0162224463
 31
0.0
 11
-3.2393830013
 21
3.0292106855
 31
0.0
  0
SPLINE
  5
67D
100
AcDbEntity
  8
ASSI
100
AcDbSpline
 62
7
  6
CONTINUOUS
 70
0
 71
3
 72
10
 73
6
 74
4
 42
0.0000001
 43
0.0000001
 44
0.0000000001
 12
-0.0463084585
 22
0.3024810206
 32
0.0
 13
-0.2031437236
 23
0.2303874033
 33
0.0
 40
0.0
 40
0.0
 40
0.0
 40
0.0
 40
0.309519569
 40
0.9227937743
 40
1.0
 40
1.0
 40
1.0
 40
1.0
 10
-3.2393830013
 20
3.0292106855
 30
0.0
 10
-3.2441607926
 20
3.0604186172
 30
0.0
 10
-3.2642707484
 20
3.1525332937
 30
0.0
 10
-3.3105166027
 20
3.2464968087
 30
0.0
 10
-3.3558746643
 20
3.3007325093
 30
0.0
 10
-3.361102651
 20
3.3066616233
 30
0.0
 11
-3.2393830013
 21
3.0292106855
 31
0.0
 11
-3.2601898796
 21
3.1216038797
 31
0.0
 11
-3.3458990835
 21
3.2884706736
 31
0.0
 11
-3.361102651
 21
3.3066616233
 31
0.0
  0
SPLINE
  5
67E
100
AcDbEntity
  8
ASSI
100
AcDbSpline
 62
7
  6
CONTINUOUS
 70
0
 71
3
 72
8
 73
4
 74
2
 42
0.0000001
 43
0.0000001
 44
0.0000000001
 12
-0.0901440685
 22
0.1022333227
 32
0.0
 13
-0.114510192
 23
0.0741808376
 33
0.0
 40
0.0
 40
0.0
 40
0.0
 40
0.0
 40
1.0
 40
1.0
 40
1.0
 40
1.0
 10
-3.361102651
 20
3.3066616233
 30
0.0
 10
-3.3911506738
 20
3.3407393975
 30
0.0
 10
-3.426360768
 20
3.3703488703
 30
0.0
 10
-3.464530832
 20
3.3950758162
 30
0.0
 11
-3.361102651
 21
3.3066616233
 31
0.0
 11
-3.464530832
 21
3.3950758162
 31
0.0
  0
SPLINE
  5
67F
100
AcDbEntity
  8
ASSI
100
AcDbSpline
 62
7
  6
CONTINUOUS
 70
0
 71
3
 72
9
 73
5
 74
3
 42
0.0000001
 43
0.0000001
 44
0.0000000001
 12
-0.0567622025
 22
0.0367711175
 32
0.0
 13
-0.060490599
 23
0.0297929555
 33
0.0
 40
0.0
 40
0.0
 40
0.0
 40
0.0
 40
0.2387662701
 40
1.0
 40
1.0
 40
1.0
 40
1.0
 10
-3.464530832
 20
3.3950758162
 30
0.0
 10
-3.4690484651
 20
3.3980023837
 30
0.0
 10
-3.4881428556
 20
3.4099729736
 30
0.0
 10
-3.5079005119
 20
3.4207318111
 30
0.0
 10
-3.5232496733
 20
3.428291612
 30
0.0
 11
-3.464530832
 21
3.3950758162
 31
0.0
 11
-3.4782044702
 21
3.4036496487
 31
0.0
 11
-3.5232496733
 21
3.428291612
 31
0.0
  0
SPLINE
  5
680
100
AcDbEntity
  8
ASSI
100
AcDbSpline
 62
7
  6
CONTINUOUS
 70
0
 71
3
 72
9
 73
5
 74
3
 42
0.0000001
 43
0.0000001
 44
0.0000000001
 12
-0.2251894753
 22
0.1109107884
 32
0.0
 13
-0.2471437008
 23
0.0424701227
 33
0.0
 40
0.0
 40
0.0
 40
0.0
 40
0.0
 40
0.5333030399
 40
1.0
 40
1.0
 40
1.0
 40
1.0
 10
-3.5232496733
 20
3.428291612
 30
0.0
 10
-3.5632810839
 20
3.4480079655
 30
0.0
 10
-3.6422849164
 20
3.4769405743
 30
0.0
 10
-3.7239762012
 20
3.4952922033
 30
0.0
 10
-3.7624232725
 20
3.5018990957
 30
0.0
 11
-3.5232496733
 21
3.428291612
 31
0.0
 11
-3.648311396
 21
3.4758583029
 31
0.0
 11
-3.7624232725
 21
3.5018990957
 31
0.0
  0
SPLINE
  5
681
100
AcDbEntity
  8
ASSI
100
AcDbSpline
 62
7
  6
CONTINUOUS
 70
0
 71
3
 72
9
 73
5
 74
3
 42
0.0000001
 43
0.0000001
 44
0.0000000001
 12
-0.2581236042
 22
0.0443569515
 32
0.0
 13
-0.2615754973
 23
0.0086118352
 33
0.0
 40
0.0
 40
0.0
 40
0.0
 40
0.0
 40
0.328289482
 40
1.0
 40
1.0
 40
1.0
 40
1.0
 10
-3.7624232725
 20
3.5018990957
 30
0.0
 10
-3.790669694
 20
3.5067530692
 30
0.0
 10
-3.8772403091
 20
3.5183198591
 30
0.0
 10
-3.9644545892
 20
3.5213579105
 30
0.0
 10
-4.0230222601
 20
3.5232861306
 30
0.0
 11
-3.7624232725
 21
3.5018990957
 31
0.0
 11
-3.8475795091
 21
3.513428404
 31
0.0
 11
-4.0230222601
 21
3.5232861306
 31
0.0
  0
LINE
  5
682
100
AcDbEntity
  8
ASSI
100
AcDbLine
 62
7
  6
CONTINUOUS
 10
-4.1547621508
 20
-20.2530329998
 11
-4.0137328904
 21
-20.2529921391
  0
LINE
  5
683
100
AcDbEntity
  8
ASSI
100
AcDbLine
 62
7
  6
CONTINUOUS
 10
-4.0137328904
 20
-20.2529921391
 11
-3.7970138435
 21
-20.2527726928
  0
LINE
  5
684
100
AcDbEntity
  8
ASSI
100
AcDbLine
 62
7
  6
CONTINUOUS
 10
-3.7970138435
 20
-20.2527726928
 11
-3.7233169611
 21
-20.2526643848
  0
LINE
  5
685
100
AcDbEntity
  8
ASSI
100
AcDbLine
 62
7
  6
CONTINUOUS
 10
-3.7233169611
 20
-20.2526643848
 11
-3.5285641077
 21
-20.2523033144
  0
LINE
  5
686
100
AcDbEntity
  8
ASSI
100
AcDbLine
 62
7
  6
CONTINUOUS
 10
-3.5285641077
 20
-20.2523033144
 11
-3.497544316
 21
-20.2522373007
  0
LINE
  5
687
100
AcDbEntity
  8
ASSI
100
AcDbLine
 62
7
  6
CONTINUOUS
 10
3.497544316
 20
-20.2522373007
 11
3.7232716958
 21
-20.2526644836
  0
LINE
  5
688
100
AcDbEntity
  8
ASSI
100
AcDbLine
 62
7
  6
CONTINUOUS
 10
3.7232716958
 20
-20.2526644836
 11
3.9421223562
 21
-20.2529363383
  0
LINE
  5
689
100
AcDbEntity
  8
ASSI
100
AcDbLine
 62
7
  6
CONTINUOUS
 10
3.9421223562
 20
-20.2529363383
 11
4.0136898923
 21
-20.2529890221
  0
LINE
  5
68A
100
AcDbEntity
  8
ASSI
100
AcDbLine
 62
7
  6
CONTINUOUS
 10
4.0136898923
 20
-20.2529890221
 11
4.1547621508
 21
-20.2530329998
  0
SPLINE
  5
68B
100
AcDbEntity
  8
ASSI
100
AcDbSpline
 62
7
  6
CONTINUOUS
 70
0
 71
3
 72
9
 73
5
 74
3
 42
0.0000001
 43
0.0000001
 44
0.0000000001
 12
-0.0005306502
 22
-0.4326935874
 32
0.0
 13
-0.4309595061
 23
-0.038703052
 33
0.0
 40
0.0
 40
0.0
 40
0.0
 40
0.0
 40
0.4981469225
 40
1.0
 40
1.0
 40
1.0
 40
1.0
 10
-4.6222763595
 20
19.729435023
 30
0.0
 10
-4.6223644734
 20
19.6575866967
 30
0.0
 10
-4.6798151034
 20
19.508089392
 30
0.0
 10
-4.8241970391
 20
19.4400158681
 30
0.0
 10
-4.8962898239
 20
19.4335414528
 30
0.0
 11
-4.6222763595
 21
19.729435023
 31
0.0
 11
-4.7011742169
 21
19.5288487924
 31
0.0
 11
-4.8962898239
 21
19.4335414528
 31
0.0
  0
SPLINE
  5
68C
100
AcDbEntity
  8
ASSI
100
AcDbSpline
 62
7
  6
CONTINUOUS
 70
0
 71
3
 72
9
 73
5
 74
3
 42
0.0000001
 43
0.0000001
 44
0.0000000001
 12
0.0
 22
-0.4349267556
 32
0.0
 13
-0.43317337
 23
-0.0390142829
 33
0.0
 40
0.0
 40
0.0
 40
0.0
 40
0.0
 40
0.4998091085
 40
1.0
 40
1.0
 40
1.0
 40
1.0
 10
-4.6118041181
 20
18.8
 30
0.0
 10
-4.6118041181
 20
18.727539882
 30
0.0
 10
-4.6685041088
 20
18.577047034
 30
0.0
 10
-4.8134226131
 20
18.5076873309
 30
0.0
 10
-4.8856457378
 20
18.5011824679
 30
0.0
 11
-4.6118041181
 21
18.8
 31
0.0
 11
-4.6905202531
 21
18.5973722912
 31
0.0
 11
-4.8856457378
 21
18.5011824679
 31
0.0
  0
SPLINE
  5
68D
100
AcDbEntity
  8
ASSI
100
AcDbSpline
 62
7
  6
CONTINUOUS
 70
0
 71
3
 72
9
 73
5
 74
3
 42
0.0000001
 43
0.0000001
 44
0.0000000001
 12
-0.3096260021
 22
0.0003723951
 32
0.0
 13
-0.155521531
 23
0.2677339226
 33
0.0
 40
0.0
 40
0.0
 40
0.0
 40
0.0
 40
0.5009732366
 40
1.0
 40
1.0
 40
1.0
 40
1.0
 10
-5.0777350636
 20
19.4323546024
 30
0.0
 10
-5.1294398438
 20
19.432416789
 30
0.0
 10
-5.2344034002
 20
19.4599092743
 30
0.0
 10
-5.3115416511
 20
19.5364634062
 30
0.0
 10
-5.3374114531
 20
19.5809988705
 30
0.0
 11
-5.0777350636
 21
19.4323546024
 31
0.0
 11
-5.2276242756
 21
19.4722759944
 31
0.0
 11
-5.3374114531
 21
19.5809988705
 31
0.0
  0
SPLINE
  5
68E
100
AcDbEntity
  8
ASSI
100
AcDbSpline
 62
7
  6
CONTINUOUS
 70
0
 71
3
 72
8
 73
4
 74
2
 42
0.0000001
 43
0.0000001
 44
0.0000000001
 12
-0.0518543848
 22
0.0892685261
 32
0.0
 13
-0.0184384774
 23
0.1015764222
 33
0.0
 40
0.0
 40
0.0
 40
0.0
 40
0.0
 40
1.0
 40
1.0
 40
1.0
 40
1.0
 10
-5.3374114531
 20
19.5809988705
 30
0.0
 10
-5.3546962481
 20
19.6107550459
 30
0.0
 10
-5.3668572504
 20
19.6440470269
 30
0.0
 10
-5.3730034095
 20
19.6779058343
 30
0.0
 11
-5.3374114531
 21
19.5809988705
 31
0.0
 11
-5.3730034095
 21
19.6779058343
 31
0.0
  0
SPLINE
  5
68F
100
AcDbEntity
  8
ASSI
100
AcDbSpline
 62
7
  6
CONTINUOUS
 70
0
 71
3
 72
8
 73
4
 74
2
 42
0.0000001
 43
0.0000001
 44
0.0000000001
 12
-0.201982889
 22
0.036094445
 32
0.0
 13
-0.1318806596
 23
0.1571858391
 33
0.0
 40
0.0
 40
0.0
 40
0.0
 40
0.0
 40
1.0
 40
1.0
 40
1.0
 40
1.0
 10
-5.1402806747
 20
18.5046645648
 30
0.0
 10
-5.2076083044
 20
18.5166960465
 30
0.0
 10
-5.2740812921
 20
18.5547435801
 30
0.0
 10
-5.318041512
 20
18.6071388598
 30
0.0
 11
-5.1402806747
 21
18.5046645648
 31
0.0
 11
-5.318041512
 21
18.6071388598
 31
0.0
  0
SPLINE
  5
690
100
AcDbEntity
  8
ASSI
100
AcDbSpline
 62
7
  6
CONTINUOUS
 70
0
 71
3
 72
8
 73
4
 74
2
 42
0.0000001
 43
0.0000001
 44
0.0000000001
 12
-0.0998011123
 22
0.1189508882
 32
0.0
 13
-0.0273125714
 23
0.1528515596
 33
0.0
 40
0.0
 40
0.0
 40
0.0
 40
0.0
 40
1.0
 40
1.0
 40
1.0
 40
1.0
 10
-5.318041512
 20
18.6071388598
 30
0.0
 10
-5.3513085494
 20
18.6467891559
 30
0.0
 10
-5.3744273042
 20
18.6969741275
 30
0.0
 10
-5.3835314947
 20
18.7479246474
 30
0.0
 11
-5.318041512
 21
18.6071388598
 31
0.0
 11
-5.3835314947
 21
18.7479246474
 31
0.0
  0
SPLINE
  5
691
100
AcDbEntity
  8
ASSI
100
AcDbSpline
 62
7
  6
CONTINUOUS
 70
0
 71
3
 72
9
 73
5
 74
3
 42
0.0000001
 43
0.0000001
 44
0.0000000001
 12
-0.0005306502
 22
-0.4326935874
 32
0.0
 13
-0.4309595061
 23
-0.038703052
 33
0.0
 40
0.0
 40
0.0
 40
0.0
 40
0.0
 40
0.4981469225
 40
1.0
 40
1.0
 40
1.0
 40
1.0
 10
5.3777236405
 20
19.729435023
 30
0.0
 10
5.3776355266
 20
19.6575866967
 30
0.0
 10
5.3201848966
 20
19.508089392
 30
0.0
 10
5.1758029609
 20
19.4400158681
 30
0.0
 10
5.1037101761
 20
19.4335414528
 30
0.0
 11
5.3777236405
 21
19.729435023
 31
0.0
 11
5.2988257831
 21
19.5288487924
 31
0.0
 11
5.1037101761
 21
19.4335414528
 31
0.0
  0
SPLINE
  5
692
100
AcDbEntity
  8
ASSI
100
AcDbSpline
 62
7
  6
CONTINUOUS
 70
0
 71
3
 72
9
 73
5
 74
3
 42
0.0000001
 43
0.0000001
 44
0.0000000001
 12
0.0
 22
-0.4349267556
 32
0.0
 13
-0.43317337
 23
-0.0390142829
 33
0.0
 40
0.0
 40
0.0
 40
0.0
 40
0.0
 40
0.4998091085
 40
1.0
 40
1.0
 40
1.0
 40
1.0
 10
5.3881958819
 20
18.8
 30
0.0
 10
5.3881958819
 20
18.727539882
 30
0.0
 10
5.3314958912
 20
18.577047034
 30
0.0
 10
5.1865773869
 20
18.5076873309
 30
0.0
 10
5.1143542622
 20
18.5011824679
 30
0.0
 11
5.3881958819
 21
18.8
 31
0.0
 11
5.3094797469
 21
18.5973722912
 31
0.0
 11
5.1143542622
 21
18.5011824679
 31
0.0
  0
SPLINE
  5
693
100
AcDbEntity
  8
ASSI
100
AcDbSpline
 62
7
  6
CONTINUOUS
 70
0
 71
3
 72
9
 73
5
 74
3
 42
0.0000001
 43
0.0000001
 44
0.0000000001
 12
-0.3096260021
 22
0.0003723951
 32
0.0
 13
-0.155521531
 23
0.2677339226
 33
0.0
 40
0.0
 40
0.0
 40
0.0
 40
0.0
 40
0.5009732366
 40
1.0
 40
1.0
 40
1.0
 40
1.0
 10
4.9222649364
 20
19.4323546024
 30
0.0
 10
4.8705601562
 20
19.432416789
 30
0.0
 10
4.7655965998
 20
19.4599092743
 30
0.0
 10
4.6884583489
 20
19.5364634062
 30
0.0
 10
4.6625885469
 20
19.5809988705
 30
0.0
 11
4.9222649364
 21
19.4323546024
 31
0.0
 11
4.7723757244
 21
19.4722759944
 31
0.0
 11
4.6625885469
 21
19.5809988705
 31
0.0
  0
SPLINE
  5
694
100
AcDbEntity
  8
ASSI
100
AcDbSpline
 62
7
  6
CONTINUOUS
 70
0
 71
3
 72
8
 73
4
 74
2
 42
0.0000001
 43
0.0000001
 44
0.0000000001
 12
-0.0518543848
 22
0.0892685261
 32
0.0
 13
-0.0184384774
 23
0.1015764222
 33
0.0
 40
0.0
 40
0.0
 40
0.0
 40
0.0
 40
1.0
 40
1.0
 40
1.0
 40
1.0
 10
4.6625885469
 20
19.5809988705
 30
0.0
 10
4.6453037519
 20
19.6107550459
 30
0.0
 10
4.6331427496
 20
19.6440470269
 30
0.0
 10
4.6269965905
 20
19.6779058343
 30
0.0
 11
4.6625885469
 21
19.5809988705
 31
0.0
 11
4.6269965905
 21
19.6779058343
 31
0.0
  0
SPLINE
  5
695
100
AcDbEntity
  8
ASSI
100
AcDbSpline
 62
7
  6
CONTINUOUS
 70
0
 71
3
 72
8
 73
4
 74
2
 42
0.0000001
 43
0.0000001
 44
0.0000000001
 12
-0.1493213867
 22
0.0399546608
 32
0.0
 13
-0.1094951503
 23
0.1091057446
 33
0.0
 40
0.0
 40
0.0
 40
0.0
 40
0.0
 40
1.0
 40
1.0
 40
1.0
 40
1.0
 10
4.8216236376
 20
18.510279849
 30
0.0
 10
4.771849842
 20
18.5235980693
 30
0.0
 10
4.7241813971
 20
18.5510679956
 30
0.0
 10
4.6876830137
 20
18.5874365772
 30
0.0
 11
4.8216236376
 21
18.510279849
 31
0.0
 11
4.6876830137
 21
18.5874365772
 31
0.0
  0
SPLINE
  5
696
100
AcDbEntity
  8
ASSI
100
AcDbSpline
 62
7
  6
CONTINUOUS
 70
0
 71
3
 72
8
 73
4
 74
2
 42
0.0000001
 43
0.0000001
 44
0.0000000001
 12
-0.1367662497
 22
0.1362798578
 32
0.0
 13
-0.0254745818
 23
0.1913850892
 33
0.0
 40
0.0
 40
0.0
 40
0.0
 40
0.0
 40
1.0
 40
1.0
 40
1.0
 40
1.0
 10
4.6876830137
 20
18.5874365772
 30
0.0
 10
4.6420942638
 20
18.6328631965
 30
0.0
 10
4.6106072378
 20
18.6967179564
 30
0.0
 10
4.6021157105
 20
18.7605129862
 30
0.0
 11
4.6876830137
 21
18.5874365772
 31
0.0
 11
4.6021157105
 21
18.7605129862
 31
0.0
  0
SPLINE
  5
697
100
AcDbEntity
  8
ASSI
100
AcDbSpline
 62
7
  6
CONTINUOUS
 70
0
 71
3
 72
13
 73
9
 74
7
 42
0.0000001
 43
0.0000001
 44
0.0000000001
 12
-0.093595989
 22
-0.177066202
 32
0.0
 13
-0.2002814246
 23
0.0000001409
 33
0.0
 40
0.0
 40
0.0
 40
0.0
 40
0.0
 40
0.0231740888
 40
0.0822574722
 40
0.1755020096
 40
0.2997977753
 40
0.6222616432
 40
1.0
 40
1.0
 40
1.0
 40
1.0
 10
9.8013179566
 20
-19.6882579219
 30
0.0
 10
9.800594956
 20
-19.6896257045
 30
0.0
 10
9.7936604589
 20
-19.6892483902
 30
0.0
 10
9.7832970393
 20
-19.6914172015
 30
0.0
 10
9.7641699481
 20
-19.6918728521
 30
0.0
 10
9.7285218733
 20
-19.6935662511
 30
0.0
 10
9.6732329603
 20
-19.6944578815
 30
0.0
 10
9.6265664096
 20
-19.6948597532
 30
0.0
 10
9.6013484175
 20
-19.6948597355
 30
0.0
 11
9.8013179566
 21
-19.6882579219
 31
0.0
 11
9.7968525615
 21
-19.6895237338
 31
0.0
 11
9.7850829247
 21
-19.6907495957
 31
0.0
 11
9.7664420921
 21
-19.6918812051
 31
0.0
 11
9.7415677544
 21
-19.6928737697
 31
0.0
 11
9.6770004879
 21
-19.6943227428
 31
0.0
 11
9.6013484175
 21
-19.6948597355
 31
0.0
  0
SPLINE
  5
698
100
AcDbEntity
  8
ASSI
100
AcDbSpline
 62
7
  6
CONTINUOUS
 70
0
 71
3
 72
13
 73
9
 74
7
 42
0.0000001
 43
0.0000001
 44
0.0000000001
 12
-0.093596797
 22
0.1770656094
 32
0.0
 13
-0.2002812783
 23
-0.0000001616
 33
0.0
 40
0.0
 40
0.0
 40
0.0
 40
0.0
 40
0.0231737342
 40
0.082256851
 40
0.1755013717
 40
0.2997973045
 40
0.6222614813
 40
1.0
 40
1.0
 40
1.0
 40
1.0
 10
9.8013179566
 20
19.6882579219
 30
0.0
 10
9.8005949608
 20
19.689625679
 30
0.0
 10
9.7936603901
 20
19.6892478952
 30
0.0
 10
9.7832970439
 20
19.6914162833
 30
0.0
 10
9.7641699137
 20
19.6918714292
 30
0.0
 10
9.7285218524
 20
19.6935646895
 30
0.0
 10
9.6732329451
 20
19.6944570648
 30
0.0
 10
9.626566402
 20
19.6948597558
 30
0.0
 10
9.6013484175
 20
19.6948597355
 30
0.0
 11
9.8013179566
 21
19.6882579219
 31
0.0
 11
9.7968525627
 21
19.689523465
 31
0.0
 11
9.7850829302
 21
19.6907487695
 31
0.0
 11
9.7664420856
 21
19.6918799011
 31
0.0
 11
9.7415677259
 21
19.6928722991
 31
0.0
 11
9.6770004592
 21
19.6943219158
 31
0.0
 11
9.6013484175
 21
19.6948597355
 31
0.0
  0
SPLINE
  5
699
100
AcDbEntity
  8
ASSI
100
AcDbSpline
 62
7
  6
CONTINUOUS
 70
0
 71
3
 72
13
 73
9
 74
7
 42
0.0000001
 43
0.0000001
 44
0.0000000001
 12
0.0935967967
 22
0.1770656093
 32
0.0
 13
0.2002812781
 23
-0.0000001616
 33
0.0
 40
0.0
 40
0.0
 40
0.0
 40
0.0
 40
0.0231737718
 40
0.082256937
 40
0.1755014198
 40
0.2997972572
 40
0.6222614054
 40
1.0
 40
1.0
 40
1.0
 40
1.0
 10
-9.8013179566
 20
19.6882579219
 30
0.0
 10
-9.8005949596
 20
19.6896256813
 30
0.0
 10
-9.7936603804
 20
19.689247893
 30
0.0
 10
-9.7832970322
 20
19.6914162842
 30
0.0
 10
-9.7641699079
 20
19.6918714303
 30
0.0
 10
-9.7285218573
 20
19.6935646908
 30
0.0
 10
-9.6732329532
 20
19.6944570642
 30
0.0
 10
-9.626566407
 20
19.6948597558
 30
0.0
 10
-9.6013484175
 20
19.6948597355
 30
0.0
 11
-9.8013179566
 21
19.6882579219
 31
0.0
 11
-9.7968525549
 21
19.6895234652
 31
0.0
 11
-9.7850829128
 21
19.6907487703
 31
0.0
 11
-9.7664420758
 21
19.6918799022
 31
0.0
 11
-9.7415677353
 21
19.6928722999
 31
0.0
 11
-9.6770004744
 21
19.6943219157
 31
0.0
 11
-9.6013484175
 21
19.6948597355
 31
0.0
  0
SPLINE
  5
69A
100
AcDbEntity
  8
ASSI
100
AcDbSpline
 62
7
  6
CONTINUOUS
 70
0
 71
3
 72
13
 73
9
 74
7
 42
0.0000001
 43
0.0000001
 44
0.0000000001
 12
0.0935959892
 22
-0.1770662021
 32
0.0
 13
0.2002814248
 23
0.0000001409
 33
0.0
 40
0.0
 40
0.0
 40
0.0
 40
0.0
 40
0.0231740511
 40
0.082257386
 40
0.1755019614
 40
0.2997978227
 40
0.6222617193
 40
1.0
 40
1.0
 40
1.0
 40
1.0
 10
-9.8013179566
 20
-19.6882579219
 30
0.0
 10
-9.8005949572
 20
-19.6896257023
 30
0.0
 10
-9.7936604687
 20
-19.6892483924
 30
0.0
 10
-9.7832970511
 20
-19.6914172006
 30
0.0
 10
-9.7641699539
 20
-19.691872851
 30
0.0
 10
-9.7285218684
 20
-19.6935662499
 30
0.0
 10
-9.6732329521
 20
-19.6944578822
 30
0.0
 10
-9.6265664046
 20
-19.6948597532
 30
0.0
 10
-9.6013484175
 20
-19.6948597355
 30
0.0
 11
-9.8013179566
 21
-19.6882579219
 31
0.0
 11
-9.7968525693
 21
-19.6895237336
 31
0.0
 11
-9.7850829422
 21
-19.690749595
 31
0.0
 11
-9.7664421019
 21
-19.691881204
 31
0.0
 11
-9.741567745
 21
-19.6928737689
 31
0.0
 11
-9.6770004728
 21
-19.6943227429
 31
0.0
 11
-9.6013484175
 21
-19.6948597355
 31
0.0
  0
LINE
  5
69B
100
AcDbEntity
  8
ASSI
100
AcDbLine
 62
253
  6
CONTINUOUS
 10
9.6013484198
 20
19.9530833924
 11
9.6013726044
 21
20.0028157627
  0
SPLINE
  5
69C
100
AcDbEntity
  8
ASSI
100
AcDbSpline
 62
253
  6
CONTINUOUS
 70
0
 71
3
 72
11
 73
7
 74
5
 42
0.0000001
 43
0.0000001
 44
0.0000000001
 12
0.0002449582
 22
0.2502296531
 32
0.0
 13
0.0795926662
 23
0.2372339495
 33
0.0
 40
0.0
 40
0.0
 40
0.0
 40
0.0
 40
0.3896363196
 40
0.7095178569
 40
0.9214302338
 40
1.0
 40
1.0
 40
1.0
 40
1.0
 10
9.6013726044
 20
20.0028157627
 30
0.0
 10
9.6014044193
 20
20.0353152831
 30
0.0
 10
9.6020287669
 20
20.0943959774
 30
0.0
 10
9.6006134748
 20
20.1715951522
 30
0.0
 10
9.6044567838
 20
20.2218320888
 30
0.0
 10
9.600978935
 20
20.2468198611
 30
0.0
 10
9.6030634608
 20
20.2530329998
 30
0.0
 11
9.6013726044
 21
20.0028157627
 31
0.0
 11
9.6015732079
 21
20.1003141641
 31
0.0
 11
9.6019547573
 21
20.1803571392
 31
0.0
 11
9.6024720614
 21
20.2333814019
 31
0.0
 11
9.6030634608
 21
20.2530329998
 31
0.0
  0
SPLINE
  5
69D
100
AcDbEntity
  8
ASSI
100
AcDbSpline
 62
253
  6
CONTINUOUS
 70
0
 71
3
 72
11
 73
7
 74
5
 42
0.0000001
 43
0.0000001
 44
0.0000000001
 12
0.0785662376
 22
-0.2365730484
 32
0.0
 13
0.000249671
 23
-0.2492777539
 33
0.0
 40
0.0
 40
0.0
 40
0.0
 40
0.0
 40
0.0783190985
 40
0.2898284915
 40
0.609639249
 40
1.0
 40
1.0
 40
1.0
 40
1.0
 10
-9.603063463
 20
20.2530330065
 30
0.0
 10
-9.601012384
 20
20.2468569439
 30
0.0
 10
-9.6044198477
 20
20.2220350019
 30
0.0
 10
-9.6006358017
 20
20.1720357118
 30
0.0
 10
-9.6020243579
 20
20.0951156704
 30
0.0
 10
-9.6014061922
 20
20.0362037706
 30
0.0
 10
-9.601373705
 20
20.0037676869
 30
0.0
 11
-9.603063463
 21
20.2530330065
 31
0.0
 11
-9.6024737684
 21
20.2335186956
 31
0.0
 11
-9.6019575002
 21
20.1807966104
 31
0.0
 11
-9.6015757363
 21
20.1010757772
 31
0.0
 11
-9.601373705
 21
20.0037676869
 31
0.0
  0
LINE
  5
69E
100
AcDbEntity
  8
ASSI
100
AcDbLine
 62
253
  6
CONTINUOUS
 10
-9.601373705
 20
20.0037676869
 11
-9.6013484263
 21
19.9530905419
  0
SPLINE
  5
69F
100
AcDbEntity
  8
ASSI
100
AcDbSpline
 62
253
  6
CONTINUOUS
 70
0
 71
3
 72
11
 73
7
 74
5
 42
0.0000001
 43
0.0000001
 44
0.0000000001
 12
0.1482231011
 22
0.0203714004
 32
0.0
 13
0.0115240218
 23
0.1491719766
 33
0.0
 40
0.0
 40
0.0
 40
0.0
 40
0.0
 40
0.0946308822
 40
0.2966097731
 40
0.6043686284
 40
1.0
 40
1.0
 40
1.0
 40
1.0
 10
3.4975443299
 20
-20.2521556976
 30
0.0
 10
3.5022198242
 20
-20.2515131097
 30
0.0
 10
3.5100767642
 20
-20.2352044643
 30
0.0
 10
3.5168853894
 20
-20.208220744
 30
0.0
 10
3.5241102438
 20
-20.1623964291
 30
0.0
 10
3.5273554838
 20
-20.1278154944
 30
0.0
 10
3.5288752387
 20
-20.1081431232
 30
0.0
 11
3.4975443299
 21
-20.2521556976
 31
0.0
 11
3.5067735924
 21
-20.2414188821
 31
0.0
 11
3.515430746
 21
-20.2124660986
 31
0.0
 11
3.5229557291
 21
-20.167039354
 31
0.0
 11
3.5288752387
 21
-20.1081431232
 31
0.0
  0
SPLINE
  5
6A0
100
AcDbEntity
  8
ASSI
100
AcDbSpline
 62
253
  6
CONTINUOUS
 70
0
 71
3
 72
11
 73
7
 74
5
 42
0.0000001
 43
0.0000001
 44
0.0000000001
 12
-0.1482432453
 22
0.0207835603
 32
0.0
 13
-0.0115288276
 23
0.1492484583
 33
0.0
 40
0.0
 40
0.0
 40
0.0
 40
0.0
 40
0.0947102027
 40
0.2967314806
 40
0.6044626054
 40
1.0
 40
1.0
 40
1.0
 40
1.0
 10
-3.497544316
 20
-20.2522373007
 30
0.0
 10
-3.5022243653
 20
-20.2515811623
 30
0.0
 10
-3.5100686146
 20
-20.2352617146
 30
0.0
 10
-3.5168876461
 20
-20.2082531285
 30
0.0
 10
-3.5241074246
 20
-20.1624121082
 30
0.0
 10
-3.5273547127
 20
-20.1278184258
 30
0.0
 10
-3.5288747402
 20
-20.1081406437
 30
0.0
 11
-3.497544316
 21
-20.2522373007
 31
0.0
 11
-3.5067736833
 21
-20.2414753683
 31
0.0
 11
-3.515430424
 21
-20.2124996859
 31
0.0
 11
-3.5229550332
 21
-20.1670531839
 31
0.0
 11
-3.5288747402
 21
-20.1081406437
 31
0.0
  0
LINE
  5
6A1
100
AcDbEntity
  8
ASSI
100
AcDbLine
 62
253
  6
CONTINUOUS
 10
-9.6013484174
 20
-19.9530783877
 11
-9.601375537
 21
-20.0057326693
  0
SPLINE
  5
6A2
100
AcDbEntity
  8
ASSI
100
AcDbSpline
 62
253
  6
CONTINUOUS
 70
0
 71
3
 72
11
 73
7
 74
5
 42
0.0000001
 43
0.0000001
 44
0.0000000001
 12
-0.0002567013
 22
-0.2473125662
 32
0.0
 13
-0.078282021
 23
-0.2345964545
 33
0.0
 40
0.0
 40
0.0
 40
0.0
 40
0.0
 40
0.3903099006
 40
0.7100553904
 40
0.921585373
 40
1.0
 40
1.0
 40
1.0
 40
1.0
 10
-9.601375537
 20
-20.0057326693
 30
0.0
 10
-9.6014089347
 20
-20.0379088504
 30
0.0
 10
-9.6020265656
 20
-20.0963459261
 30
0.0
 10
-9.6006450624
 20
-20.1726544788
 30
0.0
 10
-9.6044155417
 20
-20.2222580785
 30
0.0
 10
-9.6010172418
 20
-20.2469008644
 30
0.0
 10
-9.6030633936
 20
-20.2530327956
 30
0.0
 11
-9.601375537
 21
-20.0057326693
 31
0.0
 11
-9.6015797025
 21
-20.1022610485
 31
0.0
 11
-9.601961396
 21
-20.1813372475
 31
0.0
 11
-9.6024756549
 21
-20.2336487708
 31
0.0
 11
-9.6030633936
 21
-20.2530327956
 31
0.0
  0
SPLINE
  5
6A3
100
AcDbEntity
  8
ASSI
100
AcDbSpline
 62
253
  6
CONTINUOUS
 70
0
 71
3
 72
11
 73
7
 74
5
 42
0.0000001
 43
0.0000001
 44
0.0000000001
 12
-0.0779900316
 22
0.2337331644
 32
0.0
 13
-0.0002603429
 23
0.2464012366
 33
0.0
 40
0.0
 40
0.0
 40
0.0
 40
0.0
 40
0.0781585371
 40
0.2892896265
 40
0.6089513763
 40
1.0
 40
1.0
 40
1.0
 40
1.0
 10
9.6030634608
 20
-20.2530329998
 30
0.0
 10
9.6010315985
 20
-20.2469435857
 30
0.0
 10
9.604404715
 20
-20.222447429
 30
0.0
 10
9.6006526216
 20
-20.1730863933
 30
0.0
 10
9.6020279764
 20
-20.0970377745
 30
0.0
 10
9.601410508
 20
-20.0387625005
 30
0.0
 10
9.6013765724
 20
-20.0066442123
 30
0.0
 11
9.6030634608
 21
-20.2530329998
 31
0.0
 11
9.602477928
 21
-20.2337835322
 31
0.0
 11
9.6019640888
 21
-20.1817630793
 31
0.0
 11
9.601582046
 21
-20.1029989115
 31
0.0
 11
9.6013765724
 21
-20.0066442123
 31
0.0
  0
LINE
  5
6A4
100
AcDbEntity
  8
ASSI
100
AcDbLine
 62
253
  6
CONTINUOUS
 10
9.6013765724
 20
-20.0066442123
 11
9.6013484175
 21
-19.9530786912
  0
SPLINE
  5
6A5
100
AcDbEntity
  8
ASSI
100
AcDbSpline
 62
7
  6
CONTINUOUS
 70
0
 71
3
 72
15
 73
11
 74
9
 42
0.0000001
 43
0.0000001
 44
0.0000000001
 12
12.1095903971
 22
-7.4847112547
 32
0.0
 13
-12.4855555332
 23
-6.8391509106
 33
0.0
 40
0.0
 40
0.0
 40
0.0
 40
0.0
 40
0.1250738464
 40
0.250116813
 40
0.3751464752
 40
0.500138562
 40
0.6251002197
 40
0.7500498603
 40
0.8749986201
 40
1.0
 40
1.0
 40
1.0
 40
1.0
 10
5.5637097037
 20
-7.6573277754
 30
0.0
 10
6.0685740537
 20
-7.9693749841
 30
0.0
 10
6.9987406885
 20
-8.7331988636
 30
0.0
 10
8.041792335
 20
-10.1999037609
 30
0.0
 10
8.672862541
 20
-11.8856237374
 30
0.0
 10
8.8537067281
 20
-13.675472436
 30
0.0
 10
8.5760979455
 20
-15.4524293858
 30
0.0
 10
7.8562066616
 20
-17.1009371426
 30
0.0
 10
6.7383484065
 20
-18.5097846969
 30
0.0
 10
5.7702372234
 20
-19.2235890301
 30
0.0
 10
5.25
 20
-19.5085567971
 30
0.0
 11
5.5637097037
 21
-7.6573277754
 31
0.0
 11
6.9401546392
 21
-8.786819958
 31
0.0
 11
7.9731882444
 21
-10.2365197664
 31
0.0
 11
8.5978784972
 21
-11.9032158345
 31
0.0
 11
8.7772948526
 21
-13.6735320538
 31
0.0
 11
8.502361505
 21
-15.4311099234
 31
0.0
 11
7.7898986181
 21
-17.0609738164
 31
0.0
 11
6.6828233091
 21
-18.453237918
 31
0.0
 11
5.25
 21
-19.5085567971
 31
0.0
  0
SPLINE
  5
6A6
100
AcDbEntity
  8
ASSI
100
AcDbSpline
 62
7
  6
CONTINUOUS
 70
0
 71
3
 72
15
 73
11
 74
9
 42
0.0000001
 43
0.0000001
 44
0.0000000001
 12
-12.4855554963
 22
6.8391508902
 32
0.0
 13
12.1095903617
 23
7.4847112318
 33
0.0
 40
0.0
 40
0.0
 40
0.0
 40
0.0
 40
0.1250013025
 40
0.2499500162
 40
0.3748996232
 40
0.4998612226
 40
0.6248533783
 40
0.7498830445
 40
0.8749261127
 40
1.0
 40
1.0
 40
1.0
 40
1.0
 10
-5.25
 20
-19.5085567916
 30
0.0
 10
-5.7702368997
 20
-19.2235892019
 30
0.0
 10
-6.7383476529
 20
-18.5097853252
 30
0.0
 10
-7.8562056796
 20
-17.100938568
 30
0.0
 10
-8.5760971863
 20
-15.4524316798
 30
0.0
 10
-8.8537068399
 20
-13.6754749567
 30
0.0
 10
-8.6728628514
 20
-11.8856261874
 30
0.0
 10
-8.0417934739
 20
-10.1999050119
 30
0.0
 10
-6.9987412447
 20
-8.7331995821
 30
0.0
 10
-6.0685742534
 20
-7.9693751076
 30
0.0
 10
-5.5637097402
 20
-7.657327798
 30
0.0
 11
-5.25
 21
-19.5085567916
 31
0.0
 11
-6.6828225038
 21
-18.4532386861
 31
0.0
 11
-7.7898976676
 21
-17.0609753152
 31
0.0
 11
-8.5023608725
 21
-15.4311120881
 31
0.0
 11
-8.7772948309
 21
-13.6735351598
 31
0.0
 11
-8.5978788681
 21
-11.9032179197
 31
0.0
 11
-7.9731893562
 21
-10.2365215194
 31
0.0
 11
-6.9401550367
 21
-8.7868204484
 31
0.0
 11
-5.5637097402
 21
-7.657327798
 31
0.0
  0
SPLINE
  5
6A7
100
AcDbEntity
  8
ASSI
100
AcDbSpline
 62
253
  6
CONTINUOUS
 70
0
 71
3
 72
11
 73
7
 74
5
 42
0.0000001
 43
0.0000001
 44
0.0000000001
 12
0.0707202423
 22
-0.0707307141
 32
0.0
 13
-0.0000001149
 23
-0.1000209308
 33
0.0
 40
0.0
 40
0.0
 40
0.0
 40
0.0
 40
0.0811945326
 40
0.2989719343
 40
0.62119937
 40
1.0
 40
1.0
 40
1.0
 40
1.0
 10
-9.8030329998
 20
20.0530634608
 30
0.0
 10
-9.8011189674
 20
20.051149145
 30
0.0
 10
-9.8040510667
 20
20.0394330783
 30
0.0
 10
-9.8006594086
 20
20.0202604308
 30
0.0
 10
-9.8018071824
 20
19.988864941
 30
0.0
 10
-9.8013179421
 20
19.9657080218
 30
0.0
 10
-9.8013179566
 20
19.9530786912
 30
0.0
 11
-9.8030329998
 21
20.0530634608
 31
0.0
 11
-9.8023749099
 21
20.0449690158
 31
0.0
 11
-9.8018189268
 21
20.0231938141
 31
0.0
 11
-9.8014481238
 21
19.9909664592
 31
0.0
 11
-9.8013179566
 21
19.9530786912
 31
0.0
  0
SPLINE
  5
6A8
100
AcDbEntity
  8
ASSI
100
AcDbSpline
 62
253
  6
CONTINUOUS
 70
0
 71
3
 72
8
 73
4
 74
2
 42
0.0000001
 43
0.0000001
 44
0.0000000001
 12
-0.003930497
 22
4.3871925306
 32
0.0
 13
-0.0050618704
 23
4.3871913711
 33
0.0
 40
0.0
 40
0.0
 40
0.0
 40
0.0
 40
1.0
 40
1.0
 40
1.0
 40
1.0
 10
-9.7968219358
 20
15.3010659344
 30
0.0
 10
-9.7981321014
 20
16.7634634446
 30
0.0
 10
-9.7996306664
 20
18.2258607982
 30
0.0
 10
-9.8013179566
 20
19.6882579219
 30
0.0
 11
-9.7968219358
 21
15.3010659344
 31
0.0
 11
-9.8013179566
 21
19.6882579219
 31
0.0
  0
SPLINE
  5
6A9
100
AcDbEntity
  8
ASSI
100
AcDbSpline
 62
253
  6
CONTINUOUS
 70
0
 71
3
 72
9
 73
5
 74
3
 42
0.0000001
 43
0.0000001
 44
0.0000000001
 12
0.0138367896
 22
24.3932353797
 32
0.0
 13
-0.0209910975
 23
24.3932302723
 33
0.0
 40
0.0
 40
0.0
 40
0.0
 40
0.0
 40
0.750117269
 40
1.0
 40
1.0
 40
1.0
 40
1.0
 10
-9.7927209596
 20
-9.6948330894
 30
0.0
 10
-9.7892612213
 20
-3.5955707208
 30
0.0
 10
-9.7890017532
 20
4.5355111785
 30
0.0
 10
-9.794544221
 20
12.6665891225
 30
0.0
 10
-9.7962926586
 20
14.6984047884
 30
0.0
 11
-9.7927209596
 21
-9.6948330894
 31
0.0
 11
-9.7921365679
 21
8.6029569508
 31
0.0
 11
-9.7962926586
 21
14.6984047884
 31
0.0
  0
SPLINE
  5
6AA
100
AcDbEntity
  8
ASSI
100
AcDbSpline
 62
253
  6
CONTINUOUS
 70
0
 71
3
 72
9
 73
5
 74
3
 42
0.0000001
 43
0.0000001
 44
0.0000000001
 12
0.0108264765
 22
9.3834453342
 32
0.0
 13
0.0056579316
 23
9.3834498741
 33
0.0
 40
0.0
 40
0.0
 40
0.0
 40
0.0
 40
0.2498428566
 40
1.0
 40
1.0
 40
1.0
 40
1.0
 10
-9.8013179566
 20
-19.6882579219
 30
0.0
 10
-9.8004163173
 20
-18.9067956596
 30
0.0
 10
-9.7970234025
 20
-15.7789803028
 30
0.0
 10
-9.7944926227
 20
-12.6511640111
 30
0.0
 10
-9.7930778434
 20
-10.3048100268
 30
0.0
 11
-9.8013179566
 21
-19.6882579219
 31
0.0
 11
-9.798774742
 21
-17.343870954
 31
0.0
 11
-9.7930778434
 21
-10.3048100268
 31
0.0
  0
SPLINE
  5
6AB
100
AcDbEntity
  8
ASSI
100
AcDbSpline
 62
253
  6
CONTINUOUS
 70
0
 71
3
 72
11
 73
7
 74
5
 42
0.0000001
 43
0.0000001
 44
0.0000000001
 12
-0.0000000035
 22
-0.100020912
 32
0.0
 13
-0.0708586027
 23
-0.0705920765
 33
0.0
 40
0.0
 40
0.0
 40
0.0
 40
0.0
 40
0.378347408
 40
0.7005800448
 40
0.9185975894
 40
1.0
 40
1.0
 40
1.0
 40
1.0
 10
-9.8013179566
 20
-19.9530786912
 30
0.0
 10
-9.801317957
 20
-19.9656929088
 30
0.0
 10
-9.8018074056
 20
-19.98883425
 30
0.0
 10
-9.8006561089
 20
-20.0202259615
 30
0.0
 10
-9.8040580669
 20
-20.0394052509
 30
0.0
 10
-9.8011103128
 20
-20.0511480057
 30
0.0
 10
-9.8030329998
 20
-20.0530634608
 30
0.0
 11
-9.8013179566
 21
-19.9530786912
 31
0.0
 11
-9.8014477743
 21
-19.9909211214
 31
0.0
 11
-9.801818158
 21
-20.0231489953
 31
0.0
 11
-9.802374125
 21
-20.0449482204
 31
0.0
 11
-9.8030329998
 21
-20.0530634608
 31
0.0
  0
SPLINE
  5
6AC
100
AcDbEntity
  8
ASSI
100
AcDbSpline
 62
253
  6
CONTINUOUS
 70
0
 71
3
 72
8
 73
4
 74
2
 42
0.0000001
 43
0.0000001
 44
0.0000000001
 12
-0.0050618704
 22
-4.3871913711
 32
0.0
 13
-0.003930497
 23
-4.3871925306
 33
0.0
 40
0.0
 40
0.0
 40
0.0
 40
0.0
 40
1.0
 40
1.0
 40
1.0
 40
1.0
 10
9.8013179566
 20
19.6882579219
 30
0.0
 10
9.7996306664
 20
18.2258607982
 30
0.0
 10
9.7981321014
 20
16.7634634446
 30
0.0
 10
9.7968219358
 20
15.3010659344
 30
0.0
 11
9.8013179566
 21
19.6882579219
 31
0.0
 11
9.7968219358
 21
15.3010659344
 31
0.0
  0
SPLINE
  5
6AD
100
AcDbEntity
  8
ASSI
100
AcDbSpline
 62
253
  6
CONTINUOUS
 70
0
 71
3
 72
11
 73
7
 74
5
 42
0.0000001
 43
0.0000001
 44
0.0000000001
 12
-0.0000000545
 22
0.1000209106
 32
0.0
 13
0.0708207934
 23
0.0706300062
 33
0.0
 40
0.0
 40
0.0
 40
0.0
 40
0.0
 40
0.3782757629
 40
0.7005025457
 40
0.9185655928
 40
1.0
 40
1.0
 40
1.0
 40
1.0
 10
9.8013179566
 20
19.9530786912
 30
0.0
 10
9.8013179497
 20
19.96569052
 30
0.0
 10
9.801806996
 20
19.988829632
 30
0.0
 10
9.8006567586
 20
20.0202191586
 30
0.0
 10
9.8040571042
 20
20.0394027028
 30
0.0
 10
9.8011105833
 20
20.0511462232
 30
0.0
 10
9.8030329998
 20
20.0530634608
 30
0.0
 11
9.8013179566
 21
19.9530786912
 31
0.0
 11
9.801447726
 21
19.9909139549
 31
0.0
 11
9.8018180131
 21
20.023141244
 31
0.0
 11
9.8023739802
 21
20.0449450214
 31
0.0
 11
9.8030329998
 21
20.0530634608
 31
0.0
  0
SPLINE
  5
6AE
100
AcDbEntity
  8
ASSI
100
AcDbSpline
 62
253
  6
CONTINUOUS
 70
0
 71
3
 72
11
 73
7
 74
5
 42
0.0000001
 43
0.0000001
 44
0.0000000001
 12
-0.0707886202
 22
0.0706622831
 32
0.0
 13
0.0000000782
 23
0.1000209329
 33
0.0
 40
0.0
 40
0.0
 40
0.0
 40
0.0
 40
0.081165455
 40
0.2988870869
 40
0.6211153685
 40
1.0
 40
1.0
 40
1.0
 40
1.0
 10
9.8030329998
 20
-20.0530634608
 30
0.0
 10
9.8011178029
 20
-20.051151682
 30
0.0
 10
9.8040529959
 20
-20.0394347678
 30
0.0
 10
9.8006581761
 20
-20.0202683629
 30
0.0
 10
9.8018078487
 20
-19.9888699785
 30
0.0
 10
9.8013179467
 20
-19.9657108227
 30
0.0
 10
9.8013179566
 20
-19.9530786912
 30
0.0
 11
9.8030329998
 21
-20.0530634608
 31
0.0
 11
9.8023750348
 21
-20.0449719234
 31
0.0
 11
9.8018190604
 21
-20.0232023011
 31
0.0
 11
9.8014481773
 21
-19.9909748618
 31
0.0
 11
9.8013179566
 21
-19.9530786912
 31
0.0
  0
SPLINE
  5
6AF
100
AcDbEntity
  8
ASSI
100
AcDbSpline
 62
253
  6
CONTINUOUS
 70
0
 71
3
 72
9
 73
5
 74
3
 42
0.0000001
 43
0.0000001
 44
0.0000000001
 12
0.0056579316
 22
-9.3834498741
 32
0.0
 13
0.0108264765
 23
-9.3834453342
 33
0.0
 40
0.0
 40
0.0
 40
0.0
 40
0.0
 40
0.2501397282
 40
1.0
 40
1.0
 40
1.0
 40
1.0
 10
9.7930778434
 20
-10.3048100268
 30
0.0
 10
9.7935496012
 20
-11.087201227
 30
0.0
 10
9.7956506991
 20
-14.2150177182
 30
0.0
 10
9.7986118417
 20
-17.3428336322
 30
0.0
 10
9.8013179566
 20
-19.6882579219
 30
0.0
 11
9.7930778434
 21
-10.3048100268
 31
0.0
 11
9.7946545502
 21
-12.6519835246
 31
0.0
 11
9.8013179566
 21
-19.6882579219
 31
0.0
  0
SPLINE
  5
6B0
100
AcDbEntity
  8
ASSI
100
AcDbSpline
 62
253
  6
CONTINUOUS
 70
0
 71
3
 72
9
 73
5
 74
3
 42
0.0000001
 43
0.0000001
 44
0.0000000001
 12
-0.0209910975
 22
-24.3932302723
 32
0.0
 13
0.0138367896
 23
-24.3932353797
 33
0.0
 40
0.0
 40
0.0
 40
0.0
 40
0.0
 40
0.2498827309
 40
1.0
 40
1.0
 40
1.0
 40
1.0
 10
9.7962926586
 20
14.6984047884
 30
0.0
 10
9.794544221
 20
12.6665891227
 30
0.0
 10
9.7890017532
 20
4.5355111787
 30
0.0
 10
9.7892612213
 20
-3.5955707206
 30
0.0
 10
9.7927209596
 20
-9.6948330894
 30
0.0
 11
9.7962926586
 21
14.6984047884
 31
0.0
 11
9.7921365679
 21
8.6029569514
 31
0.0
 11
9.7927209596
 21
-9.6948330894
 31
0.0
  0
LINE
  5
6B1
100
AcDbEntity
  8
ASSI
100
AcDbLine
 62
7
  6
CONTINUOUS
 10
7.0
 20
-20.35
 11
7.3751325342
 21
-20.3489240492
  0
LINE
  5
6B2
100
AcDbEntity
  8
ASSI
100
AcDbLine
 62
7
  6
CONTINUOUS
 10
-7.0
 20
20.35
 11
-7.3751325342
 21
20.3489240492
  0
LINE
  5
6B3
100
AcDbEntity
  8
ASSI
100
AcDbLine
 62
253
  6
CONTINUOUS
 10
6.0698050901
 20
-14.9784021453
 11
6.0717374972
 21
-14.9740825655
  0
LINE
  5
6B4
100
AcDbEntity
  8
ASSI
100
AcDbLine
 62
7
  6
CONTINUOUS
 10
6.3143758278
 20
-14.9650792305
 11
6.0717374972
 21
-14.9740825655
  0
LINE
  5
6B5
100
AcDbEntity
  8
ASSI
100
AcDbLine
 62
253
  6
CONTINUOUS
 10
-6.0698050901
 20
-14.9784021453
 11
-6.0717374972
 21
-14.9740825655
  0
LINE
  5
6B6
100
AcDbEntity
  8
ASSI
100
AcDbLine
 62
7
  6
CONTINUOUS
 10
-6.0717374972
 20
-14.9740825655
 11
-6.2736044582
 21
-14.9666003208
  0
LINE
  5
6B7
100
AcDbEntity
  8
ASSI
100
AcDbLine
 62
7
  6
CONTINUOUS
 10
-6.2736044582
 20
-14.9666003208
 11
-6.3143758278
 21
-14.9650792305
  0
LINE
  5
6B8
100
AcDbEntity
  8
ASSI
100
AcDbLine
 62
7
  6
CONTINUOUS
 10
-6.3143758278
 20
-11.0349207695
 11
-6.0717374972
 21
-11.0259174345
  0
LINE
  5
6B9
100
AcDbEntity
  8
ASSI
100
AcDbLine
 62
7
  6
CONTINUOUS
 10
6.0717374972
 20
-11.0259174345
 11
6.2735508412
 21
-11.0333976811
  0
LINE
  5
6BA
100
AcDbEntity
  8
ASSI
100
AcDbLine
 62
7
  6
CONTINUOUS
 10
6.2735508412
 20
-11.0333976811
 11
6.3143758278
 21
-11.0349207695
  0
SPLINE
  5
6BB
100
AcDbEntity
  8
ASSI
100
AcDbSpline
 62
7
  6
CONTINUOUS
 70
0
 71
3
 72
9
 73
5
 74
3
 42
0.0000001
 43
0.0000001
 44
0.0000000001
 12
0.2846197806
 22
0.0
 32
0.0
 13
0.1734084757
 23
0.2256943067
 33
0.0
 40
0.0
 40
0.0
 40
0.0
 40
0.0
 40
0.5439953079
 40
1.0
 40
1.0
 40
1.0
 40
1.0
 10
-4.9140463918
 20
19.3
 30
0.0
 10
-4.8624357834
 20
19.3
 30
0.0
 10
-4.7659700743
 20
19.3215233607
 30
0.0
 10
-4.6890936589
 20
19.3830099961
 30
0.0
 10
-4.6627352994
 20
19.4173158837
 30
0.0
 11
-4.9140463918
 21
19.3
 31
0.0
 11
-4.7632790743
 21
19.3352435821
 31
0.0
 11
-4.6627352994
 21
19.4173158837
 31
0.0
  0
SPLINE
  5
6BC
100
AcDbEntity
  8
ASSI
100
AcDbSpline
 62
7
  6
CONTINUOUS
 70
0
 71
3
 72
9
 73
5
 74
3
 42
0.0000001
 43
0.0000001
 44
0.0000000001
 12
0.0761878707
 22
0.0991599089
 32
0.0
 13
0.0172621794
 23
0.1238519129
 33
0.0
 40
0.0
 40
0.0
 40
0.0
 40
0.0
 40
0.2631922258
 40
1.0
 40
1.0
 40
1.0
 40
1.0
 10
-4.6627352994
 20
19.4173158837
 30
0.0
 10
-4.6560512809
 20
19.4260152561
 30
0.0
 10
-4.6326986329
 20
19.4605828819
 30
0.0
 10
-4.6182159436
 20
19.5011897342
 30
0.0
 10
-4.6139763076
 20
19.531608085
 30
0.0
 11
-4.6627352994
 21
19.4173158837
 31
0.0
 11
-4.6443732335
 21
19.4446294549
 31
0.0
 11
-4.6139763076
 21
19.531608085
 31
0.0
  0
SPLINE
  5
6BD
100
AcDbEntity
  8
ASSI
100
AcDbSpline
 62
7
  6
CONTINUOUS
 70
0
 71
3
 72
9
 73
5
 74
3
 42
0.0000001
 43
0.0000001
 44
0.0000000001
 12
0.0030187276
 22
-0.3007096898
 32
0.0
 13
0.2768569841
 23
-0.1174122677
 33
0.0
 40
0.0
 40
0.0
 40
0.0
 40
0.0
 40
0.4546904677
 40
1.0
 40
1.0
 40
1.0
 40
1.0
 10
-5.3881958819
 20
19.5607860213
 30
0.0
 10
-5.387738353
 20
19.5152094115
 30
0.0
 10
-5.3543062648
 20
19.413822096
 30
0.0
 10
-5.2696668268
 20
19.3485784098
 30
0.0
 10
-5.219342576
 20
19.3272364002
 30
0.0
 11
-5.3881958819
 21
19.5607860213
 31
0.0
 11
-5.3467490666
 21
19.4304821773
 31
0.0
 11
-5.219342576
 21
19.3272364002
 31
0.0
  0
SPLINE
  5
6BE
100
AcDbEntity
  8
ASSI
100
AcDbSpline
 62
7
  6
CONTINUOUS
 70
0
 71
3
 72
8
 73
4
 74
2
 42
0.0000001
 43
0.0000001
 44
0.0000000001
 12
0.081671162
 22
-0.0346359199
 32
0.0
 13
0.0877893865
 23
-0.0127612409
 33
0.0
 40
0.0
 40
0.0
 40
0.0
 40
0.0
 40
1.0
 40
1.0
 40
1.0
 40
1.0
 10
-5.219342576
 20
19.3272364002
 30
0.0
 10
-5.1921188553
 20
19.3156910935
 30
0.0
 10
-5.1631192092
 20
19.3077860395
 30
0.0
 10
-5.1338560804
 20
19.3035322926
 30
0.0
 11
-5.219342576
 21
19.3272364002
 31
0.0
 11
-5.1338560804
 21
19.3035322926
 31
0.0
  0
SPLINE
  5
6BF
100
AcDbEntity
  8
ASSI
100
AcDbSpline
 62
7
  6
CONTINUOUS
 70
0
 71
3
 72
8
 73
4
 74
2
 42
0.0000001
 43
0.0000001
 44
0.0000000001
 12
0.0475329667
 22
-0.0069094871
 32
0.0
 13
0.0480325299
 23
0.0
 33
0.0
 40
0.0
 40
0.0
 40
0.0
 40
0.0
 40
1.0
 40
1.0
 40
1.0
 40
1.0
 10
-5.1338560804
 20
19.3035322926
 30
0.0
 10
-5.1180117582
 20
19.3012291302
 30
0.0
 10
-5.1019644515
 20
19.3
 30
0.0
 10
-5.0859536082
 20
19.3
 30
0.0
 11
-5.1338560804
 21
19.3035322926
 31
0.0
 11
-5.0859536082
 21
19.3
 31
0.0
  0
SPLINE
  5
6C0
100
AcDbEntity
  8
ASSI
100
AcDbSpline
 62
7
  6
CONTINUOUS
 70
0
 71
3
 72
8
 73
4
 74
2
 42
0.0000001
 43
0.0000001
 44
0.0000000001
 12
-0.1493213867
 22
0.0399546608
 32
0.0
 13
-0.1094951503
 23
0.1091057446
 33
0.0
 40
0.0
 40
0.0
 40
0.0
 40
0.0
 40
1.0
 40
1.0
 40
1.0
 40
1.0
 10
-5.1783763624
 20
18.510279849
 30
0.0
 10
-5.228150158
 20
18.5235980693
 30
0.0
 10
-5.2758186029
 20
18.5510679956
 30
0.0
 10
-5.3123169863
 20
18.5874365772
 30
0.0
 11
-5.1783763624
 21
18.510279849
 31
0.0
 11
-5.3123169863
 21
18.5874365772
 31
0.0
  0
SPLINE
  5
6C1
100
AcDbEntity
  8
ASSI
100
AcDbSpline
 62
7
  6
CONTINUOUS
 70
0
 71
3
 72
8
 73
4
 74
2
 42
0.0000001
 43
0.0000001
 44
0.0000000001
 12
-0.1367662497
 22
0.1362798578
 32
0.0
 13
-0.0254745818
 23
0.1913850892
 33
0.0
 40
0.0
 40
0.0
 40
0.0
 40
0.0
 40
1.0
 40
1.0
 40
1.0
 40
1.0
 10
-5.3123169863
 20
18.5874365772
 30
0.0
 10
-5.3579057362
 20
18.6328631965
 30
0.0
 10
-5.3893927622
 20
18.6967179564
 30
0.0
 10
-5.3978842895
 20
18.7605129862
 30
0.0
 11
-5.3123169863
 21
18.5874365772
 31
0.0
 11
-5.3978842895
 21
18.7605129862
 31
0.0
  0
SPLINE
  5
6C2
100
AcDbEntity
  8
ASSI
100
AcDbSpline
 62
7
  6
CONTINUOUS
 70
0
 71
3
 72
9
 73
5
 74
3
 42
0.0000001
 43
0.0000001
 44
0.0000000001
 12
0.2846197806
 22
0.0
 32
0.0
 13
0.1734084757
 23
0.2256943067
 33
0.0
 40
0.0
 40
0.0
 40
0.0
 40
0.0
 40
0.5439953079
 40
1.0
 40
1.0
 40
1.0
 40
1.0
 10
5.0859536082
 20
19.3
 30
0.0
 10
5.1375642166
 20
19.3
 30
0.0
 10
5.2340299257
 20
19.3215233607
 30
0.0
 10
5.3109063411
 20
19.3830099961
 30
0.0
 10
5.3372647006
 20
19.4173158837
 30
0.0
 11
5.0859536082
 21
19.3
 31
0.0
 11
5.2367209257
 21
19.3352435821
 31
0.0
 11
5.3372647006
 21
19.4173158837
 31
0.0
  0
SPLINE
  5
6C3
100
AcDbEntity
  8
ASSI
100
AcDbSpline
 62
7
  6
CONTINUOUS
 70
0
 71
3
 72
9
 73
5
 74
3
 42
0.0000001
 43
0.0000001
 44
0.0000000001
 12
0.0761878707
 22
0.0991599089
 32
0.0
 13
0.0172621794
 23
0.1238519129
 33
0.0
 40
0.0
 40
0.0
 40
0.0
 40
0.0
 40
0.2631922258
 40
1.0
 40
1.0
 40
1.0
 40
1.0
 10
5.3372647006
 20
19.4173158837
 30
0.0
 10
5.3439487191
 20
19.4260152561
 30
0.0
 10
5.3673013671
 20
19.4605828819
 30
0.0
 10
5.3817840564
 20
19.5011897342
 30
0.0
 10
5.3860236924
 20
19.531608085
 30
0.0
 11
5.3372647006
 21
19.4173158837
 31
0.0
 11
5.3556267665
 21
19.4446294549
 31
0.0
 11
5.3860236924
 21
19.531608085
 31
0.0
  0
SPLINE
  5
6C4
100
AcDbEntity
  8
ASSI
100
AcDbSpline
 62
7
  6
CONTINUOUS
 70
0
 71
3
 72
9
 73
5
 74
3
 42
0.0000001
 43
0.0000001
 44
0.0000000001
 12
0.0030187276
 22
-0.3007096898
 32
0.0
 13
0.2768569841
 23
-0.1174122677
 33
0.0
 40
0.0
 40
0.0
 40
0.0
 40
0.0
 40
0.4546904677
 40
1.0
 40
1.0
 40
1.0
 40
1.0
 10
4.6118041181
 20
19.5607860213
 30
0.0
 10
4.612261647
 20
19.5152094115
 30
0.0
 10
4.6456937352
 20
19.413822096
 30
0.0
 10
4.7303331732
 20
19.3485784098
 30
0.0
 10
4.780657424
 20
19.3272364002
 30
0.0
 11
4.6118041181
 21
19.5607860213
 31
0.0
 11
4.6532509334
 21
19.4304821773
 31
0.0
 11
4.780657424
 21
19.3272364002
 31
0.0
  0
SPLINE
  5
6C5
100
AcDbEntity
  8
ASSI
100
AcDbSpline
 62
7
  6
CONTINUOUS
 70
0
 71
3
 72
8
 73
4
 74
2
 42
0.0000001
 43
0.0000001
 44
0.0000000001
 12
0.081671162
 22
-0.0346359199
 32
0.0
 13
0.0877893865
 23
-0.0127612409
 33
0.0
 40
0.0
 40
0.0
 40
0.0
 40
0.0
 40
1.0
 40
1.0
 40
1.0
 40
1.0
 10
4.780657424
 20
19.3272364002
 30
0.0
 10
4.8078811447
 20
19.3156910935
 30
0.0
 10
4.8368807908
 20
19.3077860395
 30
0.0
 10
4.8661439196
 20
19.3035322926
 30
0.0
 11
4.780657424
 21
19.3272364002
 31
0.0
 11
4.8661439196
 21
19.3035322926
 31
0.0
  0
SPLINE
  5
6C6
100
AcDbEntity
  8
ASSI
100
AcDbSpline
 62
7
  6
CONTINUOUS
 70
0
 71
3
 72
8
 73
4
 74
2
 42
0.0000001
 43
0.0000001
 44
0.0000000001
 12
0.0475329667
 22
-0.0069094871
 32
0.0
 13
0.0480325299
 23
0.0
 33
0.0
 40
0.0
 40
0.0
 40
0.0
 40
0.0
 40
1.0
 40
1.0
 40
1.0
 40
1.0
 10
4.8661439196
 20
19.3035322926
 30
0.0
 10
4.8819882418
 20
19.3012291302
 30
0.0
 10
4.8980355485
 20
19.3
 30
0.0
 10
4.9140463918
 20
19.3
 30
0.0
 11
4.8661439196
 21
19.3035322926
 31
0.0
 11
4.9140463918
 21
19.3
 31
0.0
  0
SPLINE
  5
6C7
100
AcDbEntity
  8
ASSI
100
AcDbSpline
 62
7
  6
CONTINUOUS
 70
0
 71
3
 72
8
 73
4
 74
2
 42
0.0000001
 43
0.0000001
 44
0.0000000001
 12
-0.0919210274
 22
0.0033861126
 32
0.0
 13
-0.0842207972
 23
-0.0369837579
 33
0.0
 40
0.0
 40
0.0
 40
0.0
 40
0.0
 40
1.0
 40
1.0
 40
1.0
 40
1.0
 10
6.0717374972
 20
-11.0259174345
 30
0.0
 10
6.0410971548
 20
-11.0247887303
 30
0.0
 10
6.0094228038
 20
-11.0306452361
 30
0.0
 10
5.9813492047
 20
-11.0429731554
 30
0.0
 11
6.0717374972
 21
-11.0259174345
 31
0.0
 11
5.9813492047
 21
-11.0429731554
 31
0.0
  0
SPLINE
  5
6C8
100
AcDbEntity
  8
ASSI
100
AcDbSpline
 62
7
  6
CONTINUOUS
 70
0
 71
3
 72
9
 73
5
 74
3
 42
0.0000001
 43
0.0000001
 44
0.0000000001
 12
-0.165261345
 22
-0.1415477016
 32
0.0
 13
0.0643875204
 23
-0.2078492512
 33
0.0
 40
0.0
 40
0.0
 40
0.0
 40
0.0
 40
0.4421532911
 40
1.0
 40
1.0
 40
1.0
 40
1.0
 10
5.9326085095
 20
-11.0735714928
 30
0.0
 10
5.9082515603
 20
-11.0944334201
 30
0.0
 10
5.8642970701
 20
-11.1566709749
 30
0.0
 10
5.8637980427
 20
-11.2354135907
 30
0.0
 10
5.8757708315
 20
-11.274062931
 30
0.0
 11
5.9326085095
 21
-11.0735714928
 31
0.0
 11
5.877877838
 21
-11.1526972312
 31
0.0
 11
5.8757708315
 21
-11.274062931
 31
0.0
  0
SPLINE
  5
6C9
100
AcDbEntity
  8
ASSI
100
AcDbSpline
 62
7
  6
CONTINUOUS
 70
0
 71
3
 72
9
 73
5
 74
3
 42
0.0000001
 43
0.0000001
 44
0.0000000001
 12
-0.0985936957
 22
-0.2189748642
 32
0.0
 13
0.1823894728
 23
-0.1562203194
 33
0.0
 40
0.0
 40
0.0
 40
0.0
 40
0.0
 40
0.5628733468
 40
1.0
 40
1.0
 40
1.0
 40
1.0
 10
5.884118439
 20
-14.7038038736
 30
0.0
 10
5.8656198512
 20
-14.7448889118
 30
0.0
 10
5.8586725016
 20
-14.8332369735
 30
0.0
 10
5.906032444
 20
-14.9036646265
 30
0.0
 10
5.9326082106
 20
-14.926427315
 30
0.0
 11
5.884118439
 21
-14.7038038736
 31
0.0
 11
5.8750048794
 21
-14.8386687915
 31
0.0
 11
5.9326082106
 21
-14.926427315
 31
0.0
  0
SPLINE
  5
6CA
100
AcDbEntity
  8
ASSI
100
AcDbSpline
 62
7
  6
CONTINUOUS
 70
0
 71
3
 72
9
 73
5
 74
3
 42
0.0000001
 43
0.0000001
 44
0.0000000001
 12
0.1131756855
 22
-0.0969372929
 32
0.0
 13
0.1489143475
 23
0.0054855866
 33
0.0
 40
0.0
 40
0.0
 40
0.0
 40
0.0
 40
0.740111597
 40
1.0
 40
1.0
 40
1.0
 40
1.0
 10
5.9326082106
 20
-14.926427315
 30
0.0
 10
5.9605290897
 20
-14.9503421199
 30
0.0
 10
6.0091157368
 20
-14.9719907432
 30
0.0
 10
6.0588371266
 20
-14.9745577789
 30
0.0
 10
6.0717374972
 20
-14.9740825655
 30
0.0
 11
5.9326082106
 21
-14.926427315
 31
0.0
 11
6.0330697442
 21
-14.971934685
 31
0.0
 11
6.0717374972
 21
-14.9740825655
 31
0.0
  0
SPLINE
  5
6CB
100
AcDbEntity
  8
ASSI
100
AcDbSpline
 62
7
  6
CONTINUOUS
 70
0
 71
3
 72
8
 73
4
 74
2
 42
0.0000001
 43
0.0000001
 44
0.0000000001
 12
0.1133867419
 22
-0.0041768493
 32
0.0
 13
0.0980963004
 23
0.057018551
 33
0.0
 40
0.0
 40
0.0
 40
0.0
 40
0.0
 40
1.0
 40
1.0
 40
1.0
 40
1.0
 10
-6.0717374972
 20
-14.9740825655
 30
0.0
 10
-6.0339419166
 20
-14.9754748486
 30
0.0
 10
-5.9942585512
 20
-14.9659802465
 30
0.0
 10
-5.9615597844
 20
-14.9469740628
 30
0.0
 11
-6.0717374972
 21
-14.9740825655
 31
0.0
 11
-5.9615597844
 21
-14.9469740628
 31
0.0
  0
SPLINE
  5
6CC
100
AcDbEntity
  8
ASSI
100
AcDbSpline
 62
7
  6
CONTINUOUS
 70
0
 71
3
 72
9
 73
5
 74
3
 42
0.0000001
 43
0.0000001
 44
0.0000000001
 12
0.124852327
 22
0.1440038154
 32
0.0
 13
-0.0563974146
 23
0.1820564034
 33
0.0
 40
0.0
 40
0.0
 40
0.0
 40
0.0
 40
0.4456397296
 40
1.0
 40
1.0
 40
1.0
 40
1.0
 10
-5.9126863849
 20
-14.9066360869
 30
0.0
 10
-5.8941399992
 20
-14.8852448131
 30
0.0
 10
-5.8628742556
 20
-14.8270941635
 30
0.0
 10
-5.8653493362
 20
-14.7595786814
 30
0.0
 10
-5.8757708315
 20
-14.725937069
 30
0.0
 11
-5.9126863849
 21
-14.9066360869
 31
0.0
 11
-5.8729742353
 21
-14.8315565268
 31
0.0
 11
-5.8757708315
 21
-14.725937069
 31
0.0
  0
SPLINE
  5
6CD
100
AcDbEntity
  8
ASSI
100
AcDbSpline
 62
7
  6
CONTINUOUS
 70
0
 71
3
 72
9
 73
5
 74
3
 42
0.0000001
 43
0.0000001
 44
0.0000000001
 12
0.0985936957
 22
0.2189748642
 32
0.0
 13
-0.1823894728
 23
0.1562203194
 33
0.0
 40
0.0
 40
0.0
 40
0.0
 40
0.0
 40
0.5628733468
 40
1.0
 40
1.0
 40
1.0
 40
1.0
 10
-5.884118439
 20
-11.2961961264
 30
0.0
 10
-5.8656198512
 20
-11.2551110882
 30
0.0
 10
-5.8586725016
 20
-11.1667630265
 30
0.0
 10
-5.906032444
 20
-11.0963353735
 30
0.0
 10
-5.9326082106
 20
-11.073572685
 30
0.0
 11
-5.884118439
 21
-11.2961961264
 31
0.0
 11
-5.8750048794
 21
-11.1613312085
 31
0.0
 11
-5.9326082106
 21
-11.073572685
 31
0.0
  0
SPLINE
  5
6CE
100
AcDbEntity
  8
ASSI
100
AcDbSpline
 62
7
  6
CONTINUOUS
 70
0
 71
3
 72
9
 73
5
 74
3
 42
0.0000001
 43
0.0000001
 44
0.0000000001
 12
-0.1131756855
 22
0.0969372929
 32
0.0
 13
-0.1489143475
 23
-0.0054855866
 33
0.0
 40
0.0
 40
0.0
 40
0.0
 40
0.0
 40
0.740111597
 40
1.0
 40
1.0
 40
1.0
 40
1.0
 10
-5.9326082106
 20
-11.073572685
 30
0.0
 10
-5.9605290897
 20
-11.0496578801
 30
0.0
 10
-6.0091157368
 20
-11.0280092568
 30
0.0
 10
-6.0588371266
 20
-11.0254422211
 30
0.0
 10
-6.0717374972
 20
-11.0259174345
 30
0.0
 11
-5.9326082106
 21
-11.073572685
 31
0.0
 11
-6.0330697442
 21
-11.028065315
 31
0.0
 11
-6.0717374972
 21
-11.0259174345
 31
0.0
  0
LINE
  5
6CF
100
AcDbEntity
  8
ASSI
100
AcDbLine
 62
7
  6
CONTINUOUS
 10
5.25
 20
-19.5304376241
 11
5.260473039
 21
-18.4384918441
  0
LINE
  5
6D0
100
AcDbEntity
  8
ASSI
100
AcDbLine
 62
7
  6
CONTINUOUS
 10
4.65
 20
-19.7871091624
 11
4.639526961
 21
-18.7547012244
  0
LINE
  5
6D1
100
AcDbEntity
  8
ASSI
100
AcDbLine
 62
253
  6
CONTINUOUS
 10
3.4977902167
 20
-20.1082061545
 11
3.5288747993
 21
-20.1081409377
  0
LINE
  5
6D2
100
AcDbEntity
  8
ASSI
100
AcDbLine
 62
7
  6
CONTINUOUS
 10
-5.260473039
 20
-18.4384918441
 11
-5.25
 21
-19.5304377072
  0
LINE
  5
6D3
100
AcDbEntity
  8
ASSI
100
AcDbLine
 62
253
  6
CONTINUOUS
 10
-3.528874799
 20
-20.1081409378
 11
-3.3018869429
 21
-20.1085887618
  0
SPLINE
  5
6D4
100
AcDbEntity
  8
ASSI
100
AcDbSpline
 62
253
  6
CONTINUOUS
 70
0
 71
3
 72
8
 73
4
 74
2
 42
0.0000001
 43
0.0000001
 44
0.0000000001
 12
1.2018854767
 22
-0.0021945111
 32
0.0
 13
1.20188748
 23
0.0000163822
 33
0.0
 40
0.0
 40
0.0
 40
0.0
 40
0.0
 40
1.0
 40
1.0
 40
1.0
 40
1.0
 10
-3.3018869429
 20
-20.1085887618
 30
0.0
 10
-2.9012584507
 20
-20.1093202656
 30
0.0
 10
-2.50062916
 20
-20.1097305864
 30
0.0
 10
-2.1
 20
-20.1097251256
 30
0.0
 11
-3.3018869429
 21
-20.1085887618
 31
0.0
 11
-2.1
 21
-20.1097251256
 31
0.0
  0
LINE
  5
6D5
100
AcDbEntity
  8
ASSI
100
AcDbLine
 62
7
  6
CONTINUOUS
 10
-4.639526961
 20
-18.7547012244
 11
-4.65
 21
-19.7871091624
  0
SPLINE
  5
6D6
100
AcDbEntity
  8
ASSI
100
AcDbSpline
 62
7
  6
CONTINUOUS
 70
0
 71
3
 72
13
 73
9
 74
7
 42
0.0000001
 43
0.0000001
 44
0.0000000001
 12
-0.2000627913
 22
0.0000000022
 32
0.0
 13
-0.141609565
 23
-0.1413218014
 33
0.0
 40
0.0
 40
0.0
 40
0.0
 40
0.0
 40
0.3781328382
 40
0.7008715127
 40
0.8252342534
 40
0.9184661286
 40
0.9774111872
 40
1.0
 40
1.0
 40
1.0
 40
1.0
 10
-9.5968462994
 20
15.3044975405
 30
0.0
 10
-9.6220630697
 20
15.3044975407
 30
0.0
 10
-9.6687544542
 20
15.3042651409
 30
0.0
 10
-9.7239386848
 20
15.3039507975
 30
0.0
 10
-9.7597364698
 20
15.3028655762
 30
0.0
 10
-9.7785864235
 20
15.3029870121
 30
0.0
 10
-9.7894405787
 20
15.3011656516
 30
0.0
 10
-9.7957556718
 20
15.3021300316
 30
0.0
 10
-9.7968219358
 20
15.3010659344
 30
0.0
 11
-9.5968462994
 21
15.3044975405
 31
0.0
 11
-9.6724961608
 21
15.3042367097
 31
0.0
 11
-9.737059913
 21
15.3034960746
 31
0.0
 11
-9.7619348551
 21
15.3029770184
 31
0.0
 11
-9.7805775818
 21
15.3023817083
 31
0.0
 11
-9.7923525441
 21
15.3017349149
 31
0.0
 11
-9.7968219358
 21
15.3010659344
 31
0.0
  0
SPLINE
  5
6D7
100
AcDbEntity
  8
ASSI
100
AcDbSpline
 62
7
  6
CONTINUOUS
 70
0
 71
3
 72
13
 73
9
 74
7
 42
0.0000001
 43
0.0000001
 44
0.0000000001
 12
0.1415939914
 22
-0.1413453213
 32
0.0
 13
0.2000683839
 23
0.0000000019
 33
0.0
 40
0.0
 40
0.0
 40
0.0
 40
0.0
 40
0.0225575956
 40
0.0814234985
 40
0.1745590716
 40
0.2988440147
 40
0.6215999174
 40
1.0
 40
1.0
 40
1.0
 40
1.0
 10
-9.7962926586
 20
14.6984047884
 30
0.0
 10
-9.7952279853
 20
14.6973419849
 30
0.0
 10
-9.7889214293
 20
14.698302273
 30
0.0
 10
-9.7780797659
 20
14.6964832806
 30
0.0
 10
-9.7592465951
 20
14.6966025598
 30
0.0
 10
-9.7234582622
 20
14.6955162272
 30
0.0
 10
-9.6682586306
 20
14.6952003486
 30
0.0
 10
-9.6215470232
 20
14.6949675092
 30
0.0
 10
-9.5963117255
 20
14.6949675094
 30
0.0
 11
-9.7962926586
 21
14.6984047884
 31
0.0
 11
-9.7918295401
 21
14.6977352371
 31
0.0
 11
-9.7800701442
 21
14.6970877869
 31
0.0
 11
-9.761446199
 21
14.696491654
 31
0.0
 11
-9.7365861496
 21
14.6959716326
 31
0.0
 11
-9.6720171664
 21
14.69522916
 31
0.0
 11
-9.5963117255
 21
14.6949675094
 31
0.0
  0
SPLINE
  5
6D8
100
AcDbEntity
  8
ASSI
100
AcDbSpline
 62
7
  6
CONTINUOUS
 70
0
 71
3
 72
13
 73
9
 74
7
 42
0.0000001
 43
0.0000001
 44
0.0000000001
 12
0.2000683839
 22
-0.0000000019
 32
0.0
 13
0.141593992
 23
0.1413453206
 33
0.0
 40
0.0
 40
0.0
 40
0.0
 40
0.0
 40
0.3784000825
 40
0.7011559852
 40
0.8254409283
 40
0.9185765014
 40
0.9774424044
 40
1.0
 40
1.0
 40
1.0
 40
1.0
 10
9.5963117256
 20
14.6949675094
 30
0.0
 10
9.6215470232
 20
14.6949675092
 30
0.0
 10
9.6682586306
 20
14.6952003486
 30
0.0
 10
9.7234582622
 20
14.6955162272
 30
0.0
 10
9.7592465951
 20
14.6966025598
 30
0.0
 10
9.7780797659
 20
14.6964832806
 30
0.0
 10
9.7889214293
 20
14.698302273
 30
0.0
 10
9.7952279853
 20
14.6973419849
 30
0.0
 10
9.7962926586
 20
14.6984047884
 30
0.0
 11
9.5963117256
 21
14.6949675094
 31
0.0
 11
9.6720171664
 21
14.69522916
 31
0.0
 11
9.7365861496
 21
14.6959716326
 31
0.0
 11
9.761446199
 21
14.696491654
 31
0.0
 11
9.7800701442
 21
14.6970877869
 31
0.0
 11
9.7918295401
 21
14.6977352371
 31
0.0
 11
9.7962926586
 21
14.6984047884
 31
0.0
  0
SPLINE
  5
6D9
100
AcDbEntity
  8
ASSI
100
AcDbSpline
 62
7
  6
CONTINUOUS
 70
0
 71
3
 72
13
 73
9
 74
7
 42
0.0000001
 43
0.0000001
 44
0.0000000001
 12
-0.1416095657
 22
0.1413218007
 32
0.0
 13
-0.2000627913
 23
-0.0000000022
 33
0.0
 40
0.0
 40
0.0
 40
0.0
 40
0.0
 40
0.0225888128
 40
0.0815338714
 40
0.1747657467
 40
0.2991284873
 40
0.6218671618
 40
1.0
 40
1.0
 40
1.0
 40
1.0
 10
9.7968219358
 20
15.3010659344
 30
0.0
 10
9.7957556718
 20
15.3021300316
 30
0.0
 10
9.7894405787
 20
15.3011656516
 30
0.0
 10
9.7785864235
 20
15.3029870121
 30
0.0
 10
9.7597364698
 20
15.3028655762
 30
0.0
 10
9.7239386848
 20
15.3039507975
 30
0.0
 10
9.6687544542
 20
15.3042651409
 30
0.0
 10
9.6220630697
 20
15.3044975407
 30
0.0
 10
9.5968462994
 20
15.3044975405
 30
0.0
 11
9.7968219358
 21
15.3010659344
 31
0.0
 11
9.7923525441
 21
15.3017349149
 31
0.0
 11
9.7805775818
 21
15.3023817083
 31
0.0
 11
9.7619348551
 21
15.3029770184
 31
0.0
 11
9.737059913
 21
15.3034960746
 31
0.0
 11
9.6724961608
 21
15.3042367097
 31
0.0
 11
9.5968462994
 21
15.3044975405
 31
0.0
  0
SPLINE
  5
6DA
100
AcDbEntity
  8
ASSI
100
AcDbSpline
 62
7
  6
CONTINUOUS
 70
0
 71
3
 72
13
 73
9
 74
7
 42
0.0000001
 43
0.0000001
 44
0.0000000001
 12
0.1415820607
 22
-0.1413435833
 32
0.0
 13
0.2000587125
 23
0.0000000018
 33
0.0
 40
0.0
 40
0.0
 40
0.0
 40
0.0
 40
0.0225954965
 40
0.0815597009
 40
0.1748154004
 40
0.2991976507
 40
0.6219331565
 40
1.0
 40
1.0
 40
1.0
 40
1.0
 10
-9.7930778434
 20
-10.3048100268
 30
0.0
 10
-9.7920114711
 20
-10.3058746029
 30
0.0
 10
-9.7856939828
 20
-10.3049088128
 30
0.0
 10
-9.7748374113
 20
-10.3067311159
 30
0.0
 10
-9.7559833401
 20
-10.3066089336
 30
0.0
 10
-9.7201837368
 20
-10.3076939804
 30
0.0
 10
-9.6650038751
 20
-10.3080078377
 30
0.0
 10
-9.6183180683
 20
-10.308240127
 30
0.0
 10
-9.5931062129
 20
-10.3082401268
 30
0.0
 11
-9.7930778434
 21
-10.3048100268
 31
0.0
 11
-9.78860717
 21
-10.3054788544
 31
0.0
 11
-9.7768286029
 21
-10.3061254739
 31
0.0
 11
-9.7581814812
 21
-10.3067205702
 31
0.0
 11
-9.7333031373
 21
-10.3072393778
 31
0.0
 11
-9.66874133
 21
-10.3079795268
 31
0.0
 11
-9.5931062129
 21
-10.3082401268
 31
0.0
  0
SPLINE
  5
6DB
100
AcDbEntity
  8
ASSI
100
AcDbSpline
 62
7
  6
CONTINUOUS
 70
0
 71
3
 72
13
 73
9
 74
7
 42
0.0000001
 43
0.0000001
 44
0.0000000001
 12
-0.2000624338
 22
0.0000000014
 32
0.0
 13
-0.1415606694
 23
-0.1413702737
 33
0.0
 40
0.0
 40
0.0
 40
0.0
 40
0.0
 40
0.3782456006
 40
0.7009930753
 40
0.8253233767
 40
0.9185146606
 40
0.9774257656
 40
1.0
 40
1.0
 40
1.0
 40
1.0
 10
-9.5927458061
 20
-9.6913992155
 30
0.0
 10
-9.6179700512
 20
-9.6913992153
 30
0.0
 10
-9.6646693995
 20
-9.6916317996
 30
0.0
 10
-9.719859625
 20
-9.6919466457
 30
0.0
 10
-9.7556528904
 20
-9.6930324792
 30
0.0
 10
-9.7744958162
 20
-9.6929116596
 30
0.0
 10
-9.7853438358
 20
-9.6947325204
 30
0.0
 10
-9.7916557517
 20
-9.6937693142
 30
0.0
 10
-9.7927209596
 20
-9.6948330894
 30
0.0
 11
-9.5927458061
 21
-9.6913992155
 31
0.0
 11
-9.6684180909
 21
-9.6916603549
 31
0.0
 11
-9.73298348
 21
-9.6924017251
 31
0.0
 11
-9.7578518781
 21
-9.6929211774
 31
0.0
 11
-9.7764864358
 21
-9.6935168233
 31
0.0
 11
-9.7882545593
 21
-9.6941638812
 31
0.0
 11
-9.7927209596
 21
-9.6948330894
 31
0.0
  0
SPLINE
  5
6DC
100
AcDbEntity
  8
ASSI
100
AcDbSpline
 62
7
  6
CONTINUOUS
 70
0
 71
3
 72
13
 73
9
 74
7
 42
0.0000001
 43
0.0000001
 44
0.0000000001
 12
-0.1415606693
 22
0.1413702739
 32
0.0
 13
-0.2000624338
 23
-0.0000000014
 33
0.0
 40
0.0
 40
0.0
 40
0.0
 40
0.0
 40
0.0225742344
 40
0.0814853394
 40
0.1746766233
 40
0.2990069247
 40
0.6217543994
 40
1.0
 40
1.0
 40
1.0
 40
1.0
 10
9.7927209596
 20
-9.6948330894
 30
0.0
 10
9.7916557517
 20
-9.6937693142
 30
0.0
 10
9.7853438358
 20
-9.6947325204
 30
0.0
 10
9.7744958162
 20
-9.6929116596
 30
0.0
 10
9.7556528904
 20
-9.6930324792
 30
0.0
 10
9.719859625
 20
-9.6919466457
 30
0.0
 10
9.6646693995
 20
-9.6916317996
 30
0.0
 10
9.6179700512
 20
-9.6913992153
 30
0.0
 10
9.5927458061
 20
-9.6913992155
 30
0.0
 11
9.7927209596
 21
-9.6948330894
 31
0.0
 11
9.7882545593
 21
-9.6941638812
 31
0.0
 11
9.7764864358
 21
-9.6935168233
 31
0.0
 11
9.7578518781
 21
-9.6929211774
 31
0.0
 11
9.73298348
 21
-9.6924017251
 31
0.0
 11
9.6684180909
 21
-9.6916603549
 31
0.0
 11
9.5927458061
 21
-9.6913992155
 31
0.0
  0
SPLINE
  5
6DD
100
AcDbEntity
  8
ASSI
100
AcDbSpline
 62
7
  6
CONTINUOUS
 70
0
 71
3
 72
13
 73
9
 74
7
 42
0.0000001
 43
0.0000001
 44
0.0000000001
 12
0.2000587125
 22
-0.0000000018
 32
0.0
 13
0.1415820605
 23
0.1413435835
 33
0.0
 40
0.0
 40
0.0
 40
0.0
 40
0.0
 40
0.3780668435
 40
0.7008023493
 40
0.8251845996
 40
0.9184402991
 40
0.9774045035
 40
1.0
 40
1.0
 40
1.0
 40
1.0
 10
9.5931062129
 20
-10.3082401268
 30
0.0
 10
9.6183180683
 20
-10.308240127
 30
0.0
 10
9.6650038751
 20
-10.3080078377
 30
0.0
 10
9.7201837368
 20
-10.3076939804
 30
0.0
 10
9.7559833401
 20
-10.3066089336
 30
0.0
 10
9.7748374113
 20
-10.306731116
 30
0.0
 10
9.7856939828
 20
-10.3049088128
 30
0.0
 10
9.7920114711
 20
-10.3058746029
 30
0.0
 10
9.7930778434
 20
-10.3048100268
 30
0.0
 11
9.5931062129
 21
-10.3082401268
 31
0.0
 11
9.66874133
 21
-10.3079795268
 31
0.0
 11
9.7333031373
 21
-10.3072393778
 31
0.0
 11
9.7581814812
 21
-10.3067205702
 31
0.0
 11
9.7768286029
 21
-10.3061254739
 31
0.0
 11
9.78860717
 21
-10.3054788544
 31
0.0
 11
9.7930778434
 21
-10.3048100268
 31
0.0
  0
SPLINE
  5
6DE
100
AcDbEntity
  8
ASSI
100
AcDbSpline
 62
7
  6
CONTINUOUS
 70
0
 71
3
 72
8
 73
4
 74
2
 42
0.0000001
 43
0.0000001
 44
0.0000000001
 12
0.0696522925
 22
-0.0087674661
 32
0.0
 13
0.0697773021
 23
-0.0083452571
 33
0.0
 40
0.0
 40
0.0
 40
0.0
 40
0.0
 40
1.0
 40
1.0
 40
1.0
 40
1.0
 10
-4.0037086146
 20
3.1843235761
 30
0.0
 10
-3.9804911838
 20
3.1814010874
 30
0.0
 10
-3.9570981791
 20
3.1794515144
 30
0.0
 10
-3.9338390784
 20
3.1766697621
 30
0.0
 11
-4.0037086146
 21
3.1843235761
 31
0.0
 11
-3.9338390784
 21
3.1766697621
 31
0.0
  0
SPLINE
  5
6DF
100
AcDbEntity
  8
ASSI
100
AcDbSpline
 62
7
  6
CONTINUOUS
 70
0
 71
3
 72
8
 73
4
 74
2
 42
0.0000001
 43
0.0000001
 44
0.0000000001
 12
0.0394442702
 22
-0.0047174735
 32
0.0
 13
0.0390198252
 23
-0.0072912202
 33
0.0
 40
0.0
 40
0.0
 40
0.0
 40
0.0
 40
1.0
 40
1.0
 40
1.0
 40
1.0
 10
-3.9338390784
 20
3.1766697621
 30
0.0
 10
-3.9206909883
 20
3.1750972709
 30
0.0
 10
-3.9075856873
 20
3.1732588564
 30
0.0
 10
-3.8945790789
 20
3.1708284496
 30
0.0
 11
-3.9338390784
 21
3.1766697621
 31
0.0
 11
-3.8945790789
 21
3.1708284496
 31
0.0
  0
SPLINE
  5
6E0
100
AcDbEntity
  8
ASSI
100
AcDbSpline
 62
7
  6
CONTINUOUS
 70
0
 71
3
 72
8
 73
4
 74
2
 42
0.0000001
 43
0.0000001
 44
0.0000000001
 12
0.0277615863
 22
-0.0051875127
 32
0.0
 13
0.0274014401
 23
-0.0073377897
 33
0.0
 40
0.0
 40
0.0
 40
0.0
 40
0.0
 40
1.0
 40
1.0
 40
1.0
 40
1.0
 10
-3.8945790789
 20
3.1708284496
 30
0.0
 10
-3.8853252168
 20
3.1690992788
 30
0.0
 10
-3.8761213124
 20
3.1670704443
 30
0.0
 10
-3.866987499
 20
3.1646245144
 30
0.0
 11
-3.8945790789
 21
3.1708284496
 31
0.0
 11
-3.866987499
 21
3.1646245144
 31
0.0
  0
SPLINE
  5
6E1
100
AcDbEntity
  8
ASSI
100
AcDbSpline
 62
7
  6
CONTINUOUS
 70
0
 71
3
 72
9
 73
5
 74
3
 42
0.0000001
 43
0.0000001
 44
0.0000000001
 12
0.033234366
 22
-0.0216737867
 32
0.0
 13
0.0274488768
 23
-0.0288255668
 33
0.0
 40
0.0
 40
0.0
 40
0.0
 40
0.0
 40
0.3163281115
 40
1.0
 40
1.0
 40
1.0
 40
1.0
 10
-3.8000372116
 20
3.1360113378
 30
0.0
 10
-3.7965328901
 20
3.1337259951
 30
0.0
 10
-3.7857281915
 20
3.1261114788
 30
0.0
 10
-3.7759221214
 20
3.1171961236
 30
0.0
 10
-3.7696667796
 20
3.110627047
 30
0.0
 11
-3.8000372116
 21
3.1360113378
 31
0.0
 11
-3.7897971565
 21
3.1287784575
 31
0.0
 11
-3.7696667796
 21
3.110627047
 31
0.0
  0
SPLINE
  5
6E2
100
AcDbEntity
  8
ASSI
100
AcDbSpline
 62
7
  6
CONTINUOUS
 70
0
 71
3
 72
8
 73
4
 74
2
 42
0.0000001
 43
0.0000001
 44
0.0000000001
 12
0.0215835175
 22
-0.0226660322
 32
0.0
 13
0.0181035304
 23
-0.0258151498
 33
0.0
 40
0.0
 40
0.0
 40
0.0
 40
0.0
 40
1.0
 40
1.0
 40
1.0
 40
1.0
 10
-3.7696667796
 20
3.110627047
 30
0.0
 10
-3.7624722738
 20
3.103071703
 30
0.0
 10
-3.7558714385
 20
3.0948894773
 30
0.0
 10
-3.7498369284
 20
3.0862844274
 30
0.0
 11
-3.7696667796
 21
3.110627047
 31
0.0
 11
-3.7498369284
 21
3.0862844274
 31
0.0
  0
SPLINE
  5
6E3
100
AcDbEntity
  8
ASSI
100
AcDbSpline
 62
7
  6
CONTINUOUS
 70
0
 71
3
 72
9
 73
5
 74
3
 42
0.0000001
 43
0.0000001
 44
0.0000000001
 12
0.0172772718
 22
-0.0246369271
 32
0.0
 13
0.0142508598
 23
-0.0264346687
 33
0.0
 40
0.0
 40
0.0
 40
0.0
 40
0.0
 40
0.7742596707
 40
1.0
 40
1.0
 40
1.0
 40
1.0
 10
-3.7498369284
 20
3.0862844274
 30
0.0
 10
-3.7453778968
 20
3.0799259677
 30
0.0
 10
-3.7400181769
 20
3.0714154842
 30
0.0
 10
-3.735155863
 20
3.0626572245
 30
0.0
 10
-3.7340835317
 20
3.0606681009
 30
0.0
 11
-3.7498369284
 21
3.0862844274
 31
0.0
 11
-3.7373764508
 21
3.066598783
 31
0.0
 11
-3.7340835317
 21
3.0606681009
 31
0.0
  0
SPLINE
  5
6E4
100
AcDbEntity
  8
ASSI
100
AcDbSpline
 62
7
  6
CONTINUOUS
 70
0
 71
3
 72
8
 73
4
 74
2
 42
0.0000001
 43
0.0000001
 44
0.0000000001
 12
0.0087100502
 22
-0.0649363168
 32
0.0
 13
0.0
 23
-0.0654538953
 33
0.0
 40
0.0
 40
0.0
 40
0.0
 40
0.0
 40
1.0
 40
1.0
 40
1.0
 40
1.0
 10
-3.7019989954
 20
2.9601158446
 30
0.0
 10
-3.6990956454
 20
2.9384704056
 30
0.0
 10
-3.6982248568
 20
2.9165354644
 30
0.0
 10
-3.6982248568
 20
2.8947174993
 30
0.0
 11
-3.7019989954
 21
2.9601158446
 31
0.0
 11
-3.6982248568
 21
2.8947174993
 31
0.0
  0
LINE
  5
6E5
100
AcDbEntity
  8
ASSI
100
AcDbLine
 62
7
  6
CONTINUOUS
 10
-4.073261632
 20
3.5250003037
 11
-4.0230222601
 21
3.5232861306
  0
LINE
  5
6E6
100
AcDbEntity
  8
ASSI
100
AcDbLine
 62
7
  6
CONTINUOUS
 10
-3.7721390453
 20
3.5035261323
 11
-3.7624232725
 21
3.5018990957
  0
SPLINE
  5
6E7
100
AcDbEntity
  8
ASSI
100
AcDbSpline
 62
7
  6
CONTINUOUS
 70
0
 71
3
 72
8
 73
4
 74
2
 42
0.0000001
 43
0.0000001
 44
0.0000000001
 12
0.0773023005
 22
-0.0285310159
 32
0.0
 13
0.0732372914
 23
-0.0375836328
 33
0.0
 40
0.0
 40
0.0
 40
0.0
 40
0.0
 40
1.0
 40
1.0
 40
1.0
 40
1.0
 10
-3.5895847857
 20
3.4566303666
 30
0.0
 10
-3.5638173522
 20
3.447120028
 30
0.0
 10
-3.5385720034
 20
3.4362493536
 30
0.0
 10
-3.514159573
 20
3.423721476
 30
0.0
 11
-3.5895847857
 21
3.4566303666
 31
0.0
 11
-3.514159573
 21
3.423721476
 31
0.0
  0
SPLINE
  5
6E8
100
AcDbEntity
  8
ASSI
100
AcDbSpline
 62
7
  6
CONTINUOUS
 70
0
 71
3
 72
9
 73
5
 74
3
 42
0.0000001
 43
0.0000001
 44
0.0000000001
 12
0.2435549627
 22
-0.1587237482
 32
0.0
 13
0.112987742
 23
-0.2684193007
 33
0.0
 40
0.0
 40
0.0
 40
0.0
 40
0.0
 40
0.5459226929
 40
1.0
 40
1.0
 40
1.0
 40
1.0
 10
-3.4632861394
 20
3.3942670763
 30
0.0
 10
-3.4189654123
 20
3.3653834443
 30
0.0
 10
-3.3451747344
 20
3.300387564
 30
0.0
 10
-3.2965548193
 20
3.2154363534
 30
0.0
 10
-3.2794530961
 20
3.174808649
 30
0.0
 11
-3.4632861394
 21
3.3942670763
 31
0.0
 11
-3.3458990835
 21
3.2884706736
 31
0.0
 11
-3.2794530961
 21
3.174808649
 31
0.0
  0
SPLINE
  5
6E9
100
AcDbEntity
  8
ASSI
100
AcDbSpline
 62
7
  6
CONTINUOUS
 70
0
 71
3
 72
8
 73
4
 74
2
 42
0.0000001
 43
0.0000001
 44
0.0000000001
 12
0.0253683062
 22
-0.0827637013
 32
0.0
 13
0.014026446
 23
-0.0851178202
 33
0.0
 40
0.0
 40
0.0
 40
0.0
 40
0.0
 40
1.0
 40
1.0
 40
1.0
 40
1.0
 10
-3.2601898796
 20
3.1216038797
 30
0.0
 10
-3.2517337775
 20
3.0940159792
 30
0.0
 10
-3.2453838332
 20
3.0659235318
 30
0.0
 10
-3.2407083512
 20
3.0375509251
 30
0.0
 11
-3.2601898796
 21
3.1216038797
 31
0.0
 11
-3.2407083512
 21
3.0375509251
 31
0.0
  0
SPLINE
  5
6EA
100
AcDbEntity
  8
ASSI
100
AcDbSpline
 62
7
  6
CONTINUOUS
 70
0
 71
3
 72
8
 73
4
 74
2
 42
0.0000001
 43
0.0000001
 44
0.0000000001
 12
0.0075004552
 22
-0.0840448201
 32
0.0
 13
0.0
 23
-0.0843043174
 33
0.0
 40
0.0
 40
0.0
 40
0.0
 40
0.0
 40
1.0
 40
1.0
 40
1.0
 40
1.0
 10
-3.2333366009
 20
2.9789825596
 30
0.0
 10
-3.2308364492
 20
2.9509676195
 30
0.0
 10
-3.2297172104
 20
2.9228189384
 30
0.0
 10
-3.2297172104
 20
2.8947174993
 30
0.0
 11
-3.2333366009
 21
2.9789825596
 31
0.0
 11
-3.2297172104
 21
2.8947174993
 31
0.0
  0
LINE
  5
6EB
100
AcDbEntity
  8
ASSI
100
AcDbLine
 62
7
  6
CONTINUOUS
 10
-4.073261632
 20
2.2644346948
 11
-3.9764378937
 21
2.2677759998
  0
LINE
  5
6EC
100
AcDbEntity
  8
ASSI
100
AcDbLine
 62
7
  6
CONTINUOUS
 10
-3.6127151733
 20
2.3246691903
 11
-3.5895847857
 21
2.332804632
  0
LINE
  5
6ED
100
AcDbEntity
  8
ASSI
100
AcDbLine
 62
7
  6
CONTINUOUS
 10
-3.5342454692
 20
2.3558588375
 11
-3.514159573
 21
2.3657135225
  0
SPLINE
  5
6EE
100
AcDbEntity
  8
ASSI
100
AcDbSpline
 62
7
  6
CONTINUOUS
 70
0
 71
3
 72
9
 73
5
 74
3
 42
0.0000001
 43
0.0000001
 44
0.0000000001
 12
0.2435549627
 22
0.1587237482
 32
0.0
 13
0.112987742
 23
0.2684193007
 33
0.0
 40
0.0
 40
0.0
 40
0.0
 40
0.0
 40
0.5459226929
 40
1.0
 40
1.0
 40
1.0
 40
1.0
 10
-3.4632861394
 20
2.3951679222
 30
0.0
 10
-3.4189654123
 20
2.4240515542
 30
0.0
 10
-3.3451747344
 20
2.4890474345
 30
0.0
 10
-3.2965548193
 20
2.5739986452
 30
0.0
 10
-3.2794530961
 20
2.6146263496
 30
0.0
 11
-3.4632861394
 21
2.3951679222
 31
0.0
 11
-3.3458990835
 21
2.500964325
 31
0.0
 11
-3.2794530961
 21
2.6146263496
 31
0.0
  0
SPLINE
  5
6EF
100
AcDbEntity
  8
ASSI
100
AcDbSpline
 62
7
  6
CONTINUOUS
 70
0
 71
3
 72
8
 73
4
 74
2
 42
0.0000001
 43
0.0000001
 44
0.0000000001
 12
0.0100619419
 22
0.0239036498
 32
0.0
 13
0.0089185677
 23
0.024330856
 33
0.0
 40
0.0
 40
0.0
 40
0.0
 40
0.0
 40
1.0
 40
1.0
 40
1.0
 40
1.0
 10
-3.2794530961
 20
2.6146263496
 30
0.0
 10
-3.2760991154
 20
2.6225942329
 30
0.0
 10
-3.2729365058
 20
2.6306410914
 30
0.0
 10
-3.2699636499
 20
2.6387513767
 30
0.0
 11
-3.2794530961
 21
2.6146263496
 31
0.0
 11
-3.2699636499
 21
2.6387513767
 31
0.0
  0
SPLINE
  5
6F0
100
AcDbEntity
  8
ASSI
100
AcDbSpline
 62
7
  6
CONTINUOUS
 70
0
 71
3
 72
9
 73
5
 74
3
 42
0.0000001
 43
0.0000001
 44
0.0000000001
 12
0.0776382983
 22
0.0107145199
 32
0.0
 13
0.0743509094
 23
0.0270770423
 33
0.0
 40
0.0
 40
0.0
 40
0.0
 40
0.0
 40
0.7528384435
 40
1.0
 40
1.0
 40
1.0
 40
1.0
 10
-3.919505932
 20
2.6146031528
 30
0.0
 10
-3.9000229001
 20
2.6172919203
 30
0.0
 10
-3.8743286835
 20
2.6219916983
 30
0.0
 10
-3.8492042645
 20
2.6300786456
 30
0.0
 10
-3.8430787023
 20
2.6323094469
 30
0.0
 11
-3.919505932
 21
2.6146031528
 31
0.0
 11
-3.8616586538
 21
2.6262879989
 31
0.0
 11
-3.8430787023
 21
2.6323094469
 31
0.0
  0
SPLINE
  5
6F1
100
AcDbEntity
  8
ASSI
100
AcDbSpline
 62
7
  6
CONTINUOUS
 70
0
 71
3
 72
9
 73
5
 74
3
 42
0.0000001
 43
0.0000001
 44
0.0000000001
 12
0.0655333913
 22
0.0238658871
 32
0.0
 13
0.0525051933
 23
0.0448228468
 33
0.0
 40
0.0
 40
0.0
 40
0.0
 40
0.0
 40
0.873203301
 40
1.0
 40
1.0
 40
1.0
 40
1.0
 10
-3.8430787023
 20
2.6323094469
 30
0.0
 10
-3.8240040444
 20
2.6392560374
 30
0.0
 10
-3.8030949099
 20
2.6497878291
 30
0.0
 10
-3.7852139867
 20
2.6642642453
 30
0.0
 10
-3.782994825
 20
2.6661587083
 30
0.0
 11
-3.8430787023
 21
2.6323094469
 31
0.0
 11
-3.7897971565
 21
2.660656541
 31
0.0
 11
-3.782994825
 21
2.6661587083
 31
0.0
  0
SPLINE
  5
6F2
100
AcDbEntity
  8
ASSI
100
AcDbSpline
 62
7
  6
CONTINUOUS
 70
0
 71
3
 72
8
 73
4
 74
2
 42
0.0000001
 43
0.0000001
 44
0.0000000001
 12
0.0191098147
 22
0.0163137443
 32
0.0
 13
0.0167758727
 23
0.0189050227
 33
0.0
 40
0.0
 40
0.0
 40
0.0
 40
0.0
 40
1.0
 40
1.0
 40
1.0
 40
1.0
 10
-3.782994825
 20
2.6661587083
 30
0.0
 10
-3.7766248867
 20
2.6715966231
 30
0.0
 10
-3.7706510986
 20
2.6775198451
 30
0.0
 10
-3.765059141
 20
2.6838215193
 30
0.0
 11
-3.782994825
 21
2.6661587083
 31
0.0
 11
-3.765059141
 21
2.6838215193
 31
0.0
  0
SPLINE
  5
6F3
100
AcDbEntity
  8
ASSI
100
AcDbSpline
 62
7
  6
CONTINUOUS
 70
0
 71
3
 72
8
 73
4
 74
2
 42
0.0000001
 43
0.0000001
 44
0.0000000001
 12
0.0265231667
 22
0.0298894178
 32
0.0
 13
0.0209662669
 23
0.0342985393
 33
0.0
 40
0.0
 40
0.0
 40
0.0
 40
0.0
 40
1.0
 40
1.0
 40
1.0
 40
1.0
 10
-3.765059141
 20
2.6838215193
 30
0.0
 10
-3.7562180855
 20
2.6937846586
 30
0.0
 10
-3.7483314755
 20
2.7046937988
 30
0.0
 10
-3.7413427199
 20
2.7161266452
 30
0.0
 11
-3.765059141
 21
2.6838215193
 31
0.0
 11
-3.7413427199
 21
2.7161266452
 31
0.0
  0
SPLINE
  5
6F4
100
AcDbEntity
  8
ASSI
100
AcDbSpline
 62
7
  6
CONTINUOUS
 70
0
 71
3
 72
8
 73
4
 74
2
 42
0.0000001
 43
0.0000001
 44
0.0000000001
 12
0.0074484904
 22
0.0179288755
 32
0.0
 13
0.0062103519
 23
0.0183607182
 33
0.0
 40
0.0
 40
0.0
 40
0.0
 40
0.0
 40
1.0
 40
1.0
 40
1.0
 40
1.0
 10
-3.7220430733
 20
2.7540922905
 30
0.0
 10
-3.7195602432
 20
2.7600685823
 30
0.0
 10
-3.7172844595
 20
2.7661239201
 30
0.0
 10
-3.7152143422
 20
2.7722441595
 30
0.0
 11
-3.7220430733
 21
2.7540922905
 31
0.0
 11
-3.7152143422
 21
2.7722441595
 31
0.0
  0
SPLINE
  5
6F5
100
AcDbEntity
  8
ASSI
100
AcDbSpline
 62
7
  6
CONTINUOUS
 70
0
 71
3
 72
8
 73
4
 74
2
 42
0.0000001
 43
0.0000001
 44
0.0000000001
 12
0.0021810297
 22
0.0182828398
 32
0.0
 13
0.0013392649
 23
0.0183776133
 33
0.0
 40
0.0
 40
0.0
 40
0.0
 40
0.0
 40
1.0
 40
1.0
 40
1.0
 40
1.0
 10
-3.7013441791
 20
2.8344895789
 30
0.0
 10
-3.7006171692
 20
2.8405838588
 30
0.0
 10
-3.7000433403
 20
2.8466984431
 30
0.0
 10
-3.6995969186
 20
2.8528243142
 30
0.0
 11
-3.7013441791
 21
2.8344895789
 31
0.0
 11
-3.6995969186
 21
2.8528243142
 31
0.0
  0
ELLIPSE
  5
6F6
100
AcDbEntity
  8
RACCORDO
100
AcDbEllipse
 62
7
  6
CONTINUOUS
 10
-6.0999543016
 20
-10.1901051824
 30
0.0
 11
0.0589299915
 21
0.2953702104
 31
0.0
 40
0.9960441251
 41
-4.514700471
 42
-2.9454252223
  0
ELLIPSE
  5
6F7
100
AcDbEntity
  8
RACCORDO
100
AcDbEllipse
 62
7
  6
CONTINUOUS
 10
6.0999543016
 20
-10.1901051824
 30
0.0
 11
-0.0589299915
 21
0.2953702104
 31
0.0
 40
0.9960441251
 41
-3.3377600849
 42
-1.7684848362
  0
ELLIPSE
  5
6F8
100
AcDbEntity
  8
DRAFT
100
AcDbEllipse
 62
7
  6
CONTINUOUS
 10
-2.1
 20
-13.7880158593
 30
0.0
 11
0.0
 21
3.9497105654
 31
0.0
 40
0.979895321
 41
2.019108889
 42
2.0314355491
  0
ELLIPSE
  5
6F9
100
AcDbEntity
  8
DRAFT
100
AcDbEllipse
 62
7
  6
CONTINUOUS
 10
2.1
 20
-13.7880158593
 30
0.0
 11
0.0
 21
3.9497105654
 31
0.0
 40
0.979895321
 41
-2.0314355491
 42
-2.0296058438
  0
ELLIPSE
  5
6FA
100
AcDbEntity
  8
DRAFT
100
AcDbEllipse
 62
7
  6
CONTINUOUS
 10
2.1
 20
-13.7880158593
 30
0.0
 11
0.0
 21
3.9497105654
 31
0.0
 40
0.979895321
 41
4.2540284608
 42
4.2640764182
  0
ELLIPSE
  5
6FB
100
AcDbEntity
  8
0
100
AcDbEllipse
 62
7
  6
CONTINUOUS
 10
-2.1
 20
-12.0010807999
 30
0.0
 11
0.0
 21
5.0068049674
 31
0.0
 40
0.979895321
 41
-3.9263359242
 42
-3.9152795682
  0
ELLIPSE
  5
6FC
100
AcDbEntity
  8
0
100
AcDbEllipse
 62
7
  6
CONTINUOUS
 10
2.1
 20
-12.0010807999
 30
0.0
 11
0.0
 21
5.0068049674
 31
0.0
 40
0.979895321
 41
-2.3692912533
 42
-2.3568493829
  0
ELLIPSE
  5
6FD
100
AcDbEntity
  8
0
100
AcDbEllipse
 62
7
  6
CONTINUOUS
 10
6.0842447432
 20
-10.1113653852
 30
0.0
 11
-0.0589299915
 21
0.2953702104
 31
0.0
 40
0.9960441251
 41
-3.3377600849
 42
-1.7684848362
  0
ELLIPSE
  5
6FE
100
AcDbEntity
  8
0
100
AcDbEllipse
 62
7
  6
CONTINUOUS
 10
-6.0842447432
 20
-10.1113653852
 30
0.0
 11
0.0589299915
 21
0.2953702104
 31
0.0
 40
0.9960441251
 41
1.7684848362
 42
3.3377600849
  0
ELLIPSE
  5
6FF
100
AcDbEntity
  8
ASSI
100
AcDbEllipse
 62
7
  6
CONTINUOUS
 10
-6.0842447432
 20
-10.1113653852
 30
0.0
 11
0.0589299915
 21
0.2953702104
 31
0.0
 40
0.9960441251
 41
1.7684848362
 42
3.3377600849
  0
ELLIPSE
  5
700
100
AcDbEntity
  8
ASSI
100
AcDbEllipse
 62
7
  6
CONTINUOUS
 10
6.0842447432
 20
-10.1113653852
 30
0.0
 11
-0.0589299915
 21
0.2953702104
 31
0.0
 40
0.9960441251
 41
-3.3377600849
 42
-1.7684848362
  0
ELLIPSE
  5
701
100
AcDbEntity
  8
ASSI
100
AcDbEllipse
 62
7
  6
CONTINUOUS
 10
-6.0999543016
 20
-10.1901051824
 30
0.0
 11
0.0589299915
 21
0.2953702104
 31
0.0
 40
0.9960441251
 41
-4.514700471
 42
-2.9454252223
  0
ELLIPSE
  5
702
100
AcDbEntity
  8
ASSI
100
AcDbEllipse
 62
7
  6
CONTINUOUS
 10
6.0999543016
 20
-10.1901051824
 30
0.0
 11
-0.0589299915
 21
0.2953702104
 31
0.0
 40
0.9960441251
 41
-3.3377600849
 42
-1.7684848362
  0
ELLIPSE
  5
703
100
AcDbEntity
  8
ASSI
100
AcDbEllipse
 62
7
  6
CONTINUOUS
 10
-2.1
 20
-12.2119841407
 30
0.0
 11
-0.0
 21
3.9497105654
 31
0.0
 40
0.979895321
 41
7.4032096533
 42
7.4056690718
  0
ELLIPSE
  5
704
100
AcDbEntity
  8
ASSI
100
AcDbEllipse
 62
7
  6
CONTINUOUS
 10
-2.1
 20
-13.7880158593
 30
0.0
 11
0.0
 21
3.9497105654
 31
0.0
 40
0.979895321
 41
2.019108889
 42
2.0314355491
  0
ELLIPSE
  5
705
100
AcDbEntity
  8
ASSI
100
AcDbEllipse
 62
7
  6
CONTINUOUS
 10
2.1
 20
-12.2119841407
 30
0.0
 11
-0.0
 21
3.9497105654
 31
0.0
 40
0.979895321
 41
5.1607015425
 42
5.1631609611
  0
ELLIPSE
  5
706
100
AcDbEntity
  8
ASSI
100
AcDbEllipse
 62
7
  6
CONTINUOUS
 10
2.1
 20
-13.7880158593
 30
0.0
 11
0.0
 21
3.9497105654
 31
0.0
 40
0.979895321
 41
4.2517497581
 42
4.2640764182
  0
ELLIPSE
  5
707
100
AcDbEntity
  8
ASSI
100
AcDbEllipse
 62
7
  6
CONTINUOUS
 10
-6.0824992367
 20
-10.1026165189
 30
0.0
 11
-0.0589299915
 21
-0.2953702104
 31
0.0
 40
0.9960441251
 41
-1.3731078174
 42
0.1961674313
  0
ELLIPSE
  5
708
100
AcDbEntity
  8
ASSI
100
AcDbEllipse
 62
7
  6
CONTINUOUS
 10
2.1
 20
-12.0010807999
 30
0.0
 11
0.0
 21
5.0068049674
 31
0.0
 40
0.979895321
 41
-2.3717986835
 42
-2.3568493829
  0
ELLIPSE
  5
709
100
AcDbEntity
  8
ASSI
100
AcDbEllipse
 62
7
  6
CONTINUOUS
 10
-2.1
 20
-12.0010807999
 30
0.0
 11
0.0
 21
5.0068049674
 31
0.0
 40
0.979895321
 41
2.3568493829
 42
2.3717986835
  0
ELLIPSE
  5
70A
100
AcDbEntity
  8
ASSI
100
AcDbEllipse
 62
7
  6
CONTINUOUS
 10
6.0824992367
 20
-10.1026165189
 30
0.0
 11
-0.0589299915
 21
0.2953702104
 31
0.0
 40
0.9960441251
 41
2.9454252223
 42
4.514700471
  0
ELLIPSE
  5
70B
100
AcDbEntity
  8
RACCORDO
100
AcDbEllipse
 62
7
  6
CONTINUOUS
 10
-10.0998781376
 20
20.8498781376
 30
0.0
 11
0.5658577513
 21
-0.5658577513
 31
0.0
 40
0.9996954599
 41
2.3563467834
 42
3.9268385237
  0
ELLIPSE
  5
70C
100
AcDbEntity
  8
RACCORDO
100
AcDbEllipse
 62
7
  6
CONTINUOUS
 10
-10.0998781376
 20
-20.8498781376
 30
0.0
 11
-0.5658577513
 21
-0.5658577513
 31
0.0
 40
0.9996954599
 41
-0.7852458701
 42
0.7852458701
  0
ELLIPSE
  5
70D
100
AcDbEntity
  8
RACCORDO
100
AcDbEllipse
 62
7
  6
CONTINUOUS
 10
10.0998781376
 20
20.8498781376
 30
0.0
 11
0.5658577513
 21
0.5658577513
 31
0.0
 40
0.9996954599
 41
-0.7852458701
 42
0.7852458701
  0
ELLIPSE
  5
70E
100
AcDbEntity
  8
RACCORDO
100
AcDbEllipse
 62
7
  6
CONTINUOUS
 10
10.0998781376
 20
-20.8498781376
 30
0.0
 11
-0.5658577513
 21
0.5658577513
 31
0.0
 40
0.9996954599
 41
2.3563467834
 42
3.9268385237
  0
ELLIPSE
  5
70F
100
AcDbEntity
  8
RACCORDO
100
AcDbEllipse
 62
7
  6
CONTINUOUS
 10
9.6999695344
 20
-20.1499695344
 30
0.0
 11
0.1414644378
 21
-0.1414644378
 31
0.0
 40
0.9996954599
 41
-0.7852458702
 42
0.7852458701
  0
ELLIPSE
  5
710
100
AcDbEntity
  8
RACCORDO
100
AcDbEllipse
 62
7
  6
CONTINUOUS
 10
9.6999695344
 20
20.1499695344
 30
0.0
 11
0.1414644378
 21
0.1414644378
 31
0.0
 40
0.9996954599
 41
-0.7852458702
 42
0.7852458701
  0
ELLIPSE
  5
711
100
AcDbEntity
  8
RACCORDO
100
AcDbEllipse
 62
7
  6
CONTINUOUS
 10
-9.6999695344
 20
20.1499695344
 30
0.0
 11
0.1414644378
 21
-0.1414644378
 31
0.0
 40
0.9996954599
 41
2.3563467835
 42
3.9268385238
  0
ELLIPSE
  5
712
100
AcDbEntity
  8
RACCORDO
100
AcDbEllipse
 62
7
  6
CONTINUOUS
 10
-9.6999695344
 20
-20.1499695344
 30
0.0
 11
0.1414644378
 21
0.1414644378
 31
0.0
 40
0.9996954599
 41
2.3563467835
 42
3.9268385238
  0
ELLIPSE
  5
713
100
AcDbEntity
  8
DRAFT
100
AcDbEllipse
 62
7
  6
CONTINUOUS
 10
0.0475178981
 20
0.0
 30
0.0
 11
0.0
 21
298.7
 31
0.0
 40
0.0174550649
 41
-1.6367794475
 42
-1.6361538773
  0
ELLIPSE
  5
714
100
AcDbEntity
  8
0
100
AcDbEllipse
 62
7
  6
CONTINUOUS
 10
872.1903820456
 20
-0.0
 30
0.0
 11
991.4255353063
 21
-148.9708988626
 31
0.0
 40
0.2611394229
 41
-2.5987431329
 42
-2.5938204445
  0
ELLIPSE
  5
715
100
AcDbEntity
  8
0
100
AcDbEllipse
 62
7
  6
CONTINUOUS
 10
-872.1903820456
 20
0.0
 30
0.0
 11
991.4255353063
 21
148.9708988626
 31
0.0
 40
0.2611394229
 41
-0.547772209
 42
-0.5428495207
  0
ELLIPSE
  5
716
100
AcDbEntity
  8
DRAFT
100
AcDbEllipse
 62
7
  6
CONTINUOUS
 10
-0.0475178981
 20
0.0
 30
0.0
 11
0.0
 21
298.7
 31
0.0
 40
0.0174550649
 41
-4.6470314299
 42
-4.6464058597
  0
ELLIPSE
  5
717
100
AcDbEntity
  8
DRAFT
100
AcDbEllipse
 62
7
  6
CONTINUOUS
 10
-11.8654754343
 20
7.5
 30
0.0
 11
1.9779110441
 21
0.0
 31
0.0
 40
0.9998476487
 41
-0.8765530938
 42
-0.0
  0
ELLIPSE
  5
718
100
AcDbEntity
  8
DRAFT
100
AcDbEllipse
 62
7
  6
CONTINUOUS
 10
-11.8654754343
 20
-7.5
 30
0.0
 11
1.9779110441
 21
-0.0
 31
0.0
 40
0.9998476487
 41
0.0
 42
0.8765530938
  0
ELLIPSE
  5
719
100
AcDbEntity
  8
DRAFT
100
AcDbEllipse
 62
7
  6
CONTINUOUS
 10
11.8654754343
 20
-7.5
 30
0.0
 11
1.9779110441
 21
-0.0
 31
0.0
 40
0.9998476487
 41
2.2650395598
 42
3.1415926536
  0
ELLIPSE
  5
71A
100
AcDbEntity
  8
DRAFT
100
AcDbEllipse
 62
7
  6
CONTINUOUS
 10
11.8654754343
 20
7.5
 30
0.0
 11
1.9779110441
 21
0.0
 31
0.0
 40
0.9998476487
 41
3.1415926536
 42
4.0181457474
  0
ELLIPSE
  5
71B
100
AcDbEntity
  8
RACCORDO
100
AcDbEllipse
 62
7
  6
CONTINUOUS
 10
-4.9222649364
 20
20.2923982857
 30
0.0
 11
0.3
 21
0.0
 31
0.0
 40
0.0174550649
 41
0.0087266463
 42
1.5707963268
  0
ELLIPSE
  5
71C
100
AcDbEntity
  8
RACCORDO
100
AcDbEllipse
 62
7
  6
CONTINUOUS
 10
-5.0777350636
 20
20.2923982857
 30
0.0
 11
0.3
 21
-0.0
 31
0.0
 40
0.0174550649
 41
1.5707963268
 42
3.1328660073
  0
ELLIPSE
  5
71D
100
AcDbEntity
  8
RACCORDO
100
AcDbEllipse
 62
7
  6
CONTINUOUS
 10
5.0777350636
 20
20.2923982857
 30
0.0
 11
0.3
 21
0.0
 31
0.0
 40
0.0174550649
 41
0.0087266463
 42
1.5707963268
  0
ELLIPSE
  5
71E
100
AcDbEntity
  8
RACCORDO
100
AcDbEllipse
 62
7
  6
CONTINUOUS
 10
4.9222649364
 20
20.2923982857
 30
0.0
 11
0.3
 21
-0.0
 31
0.0
 40
0.0174550649
 41
1.5707963268
 42
3.1328660073
  0
ELLIPSE
  5
71F
100
AcDbEntity
  8
0
100
AcDbEllipse
 62
7
  6
CONTINUOUS
 10
2.1
 20
-34.6764784589
 30
0.0
 11
0.0
 21
23.460571111
 31
0.0
 40
0.3825046384
 41
-0.6565168596
 42
-0.6064890495
  0
ELLIPSE
  5
720
100
AcDbEntity
  8
0
100
AcDbEllipse
 62
7
  6
CONTINUOUS
 10
-2.1
 20
-34.6764784589
 30
0.0
 11
0.0
 21
23.460571111
 31
0.0
 40
0.3825046384
 41
0.6064890495
 42
0.6565168596
  0
ELLIPSE
  5
721
100
AcDbEntity
  8
ASSI
100
AcDbEllipse
 62
7
  6
CONTINUOUS
 10
-10.0998781376
 20
20.8498781376
 30
0.0
 11
0.5658577513
 21
-0.5658577513
 31
0.0
 40
0.9996954599
 41
2.3563467834
 42
3.9268385237
  0
ELLIPSE
  5
722
100
AcDbEntity
  8
ASSI
100
AcDbEllipse
 62
7
  6
CONTINUOUS
 10
-10.0998781376
 20
-20.8498781376
 30
0.0
 11
-0.5658577513
 21
-0.5658577513
 31
0.0
 40
0.9996954599
 41
-0.7852458701
 42
0.7852458701
  0
ELLIPSE
  5
723
100
AcDbEntity
  8
ASSI
100
AcDbEllipse
 62
7
  6
CONTINUOUS
 10
10.0998781376
 20
20.8498781376
 30
0.0
 11
0.5658577513
 21
0.5658577513
 31
0.0
 40
0.9996954599
 41
-0.7852458701
 42
0.7852458701
  0
ELLIPSE
  5
724
100
AcDbEntity
  8
ASSI
100
AcDbEllipse
 62
7
  6
CONTINUOUS
 10
10.0998781376
 20
-20.8498781376
 30
0.0
 11
-0.5658577513
 21
0.5658577513
 31
0.0
 40
0.9996954599
 41
2.3563467834
 42
3.9268385237
  0
ELLIPSE
  5
725
100
AcDbEntity
  8
ASSI
100
AcDbEllipse
 62
7
  6
CONTINUOUS
 10
9.6999695344
 20
-20.1499695344
 30
0.0
 11
0.1414644378
 21
-0.1414644378
 31
0.0
 40
0.9996954599
 41
-0.7852458702
 42
0.7852458701
  0
ELLIPSE
  5
726
100
AcDbEntity
  8
ASSI
100
AcDbEllipse
 62
7
  6
CONTINUOUS
 10
9.6999695344
 20
20.1499695344
 30
0.0
 11
0.1414644378
 21
0.1414644378
 31
0.0
 40
0.9996954599
 41
-0.7852458701
 42
0.7852458701
  0
ELLIPSE
  5
727
100
AcDbEntity
  8
ASSI
100
AcDbEllipse
 62
7
  6
CONTINUOUS
 10
-9.6999695344
 20
20.1499695344
 30
0.0
 11
0.1414644378
 21
-0.1414644378
 31
0.0
 40
0.9996954599
 41
2.3563467835
 42
3.9268385238
  0
ELLIPSE
  5
728
100
AcDbEntity
  8
ASSI
100
AcDbEllipse
 62
7
  6
CONTINUOUS
 10
-9.6999695344
 20
-20.1499695344
 30
0.0
 11
0.1414644378
 21
0.1414644378
 31
0.0
 40
0.9996954599
 41
-3.9268385237
 42
-2.3563467834
  0
ELLIPSE
  5
729
100
AcDbEntity
  8
ASSI
100
AcDbEllipse
 62
7
  6
CONTINUOUS
 10
-7.201042945
 20
0.0
 30
0.0
 11
0.0
 21
298.7
 31
0.0
 40
0.0087268678
 41
-1.5051467716
 42
-1.5048132061
  0
ELLIPSE
  5
72A
100
AcDbEntity
  8
ASSI
100
AcDbEllipse
 62
7
  6
CONTINUOUS
 10
2.798957055
 20
0.0
 30
0.0
 11
0.0
 21
298.7
 31
0.0
 40
0.0087268678
 41
-1.5051467716
 42
-1.5048132061
  0
ELLIPSE
  5
72B
100
AcDbEntity
  8
ASSI
100
AcDbEllipse
 62
7
  6
CONTINUOUS
 10
872.1903820456
 20
-0.0
 30
0.0
 11
991.4255353063
 21
-148.9708988626
 31
0.0
 40
0.2611394229
 41
-2.5987431329
 42
-2.5938204445
  0
ELLIPSE
  5
72C
100
AcDbEntity
  8
ASSI
100
AcDbEllipse
 62
7
  6
CONTINUOUS
 10
-872.1903820456
 20
0.0
 30
0.0
 11
991.4255353063
 21
148.9708988626
 31
0.0
 40
0.2611394229
 41
-0.547772209
 42
-0.5428495207
  0
ELLIPSE
  5
72D
100
AcDbEntity
  8
ASSI
100
AcDbEllipse
 62
7
  6
CONTINUOUS
 10
-11.8654754343
 20
7.5
 30
0.0
 11
1.9779110441
 21
0.0
 31
0.0
 40
0.9998476487
 41
-0.8765530938
 42
-0.0
  0
ELLIPSE
  5
72E
100
AcDbEntity
  8
ASSI
100
AcDbEllipse
 62
7
  6
CONTINUOUS
 10
-11.8654754343
 20
-7.5
 30
0.0
 11
1.9779110441
 21
-0.0
 31
0.0
 40
0.9998476487
 41
0.0
 42
0.8765530938
  0
ELLIPSE
  5
72F
100
AcDbEntity
  8
ASSI
100
AcDbEllipse
 62
7
  6
CONTINUOUS
 10
11.8654754343
 20
-7.5
 30
0.0
 11
1.9779110441
 21
-0.0
 31
0.0
 40
0.9998476487
 41
2.2650395598
 42
3.1415926536
  0
ELLIPSE
  5
730
100
AcDbEntity
  8
ASSI
100
AcDbEllipse
 62
7
  6
CONTINUOUS
 10
11.8654754343
 20
7.5
 30
0.0
 11
1.9779110441
 21
0.0
 31
0.0
 40
0.9998476487
 41
3.1415926536
 42
4.0181457474
  0
ELLIPSE
  5
731
100
AcDbEntity
  8
ASSI
100
AcDbEllipse
 62
7
  6
CONTINUOUS
 10
-4.9222649364
 20
20.2923982857
 30
0.0
 11
0.3
 21
0.0
 31
0.0
 40
0.0174550649
 41
0.0087266463
 42
1.5707963268
  0
ELLIPSE
  5
732
100
AcDbEntity
  8
ASSI
100
AcDbEllipse
 62
7
  6
CONTINUOUS
 10
-5.0777350636
 20
20.2923982857
 30
0.0
 11
0.3
 21
-0.0
 31
0.0
 40
0.0174550649
 41
1.5707963268
 42
3.1328660073
  0
ELLIPSE
  5
733
100
AcDbEntity
  8
ASSI
100
AcDbEllipse
 62
7
  6
CONTINUOUS
 10
5.0777350636
 20
20.2923982857
 30
0.0
 11
0.3
 21
0.0
 31
0.0
 40
0.0174550649
 41
0.0087266463
 42
1.5707963268
  0
ELLIPSE
  5
734
100
AcDbEntity
  8
ASSI
100
AcDbEllipse
 62
7
  6
CONTINUOUS
 10
4.9222649364
 20
20.2923982857
 30
0.0
 11
0.3
 21
-0.0
 31
0.0
 40
0.0174550649
 41
1.5707963268
 42
3.1328660073
  0
ELLIPSE
  5
735
100
AcDbEntity
  8
ASSI
100
AcDbEllipse
 62
7
  6
CONTINUOUS
 10
2.1
 20
-34.6764784589
 30
0.0
 11
0.0
 21
23.460571111
 31
0.0
 40
0.3825046384
 41
-0.6565168596
 42
-0.6064890495
  0
ELLIPSE
  5
736
100
AcDbEntity
  8
ASSI
100
AcDbEllipse
 62
7
  6
CONTINUOUS
 10
-2.1
 20
-34.6764784589
 30
0.0
 11
0.0
 21
23.460571111
 31
0.0
 40
0.3825046384
 41
0.6064890495
 42
0.6565168596
  0
ENDSEC
  0
SECTION
  2
OBJECTS
  0
DICTIONARY
  5
C
100
AcDbDictionary
280
0
281
1
  3
ACAD_GROUP
350
D
  3
ACAD_MLINESTYLE
350
17
  3
ACAD_LAYOUT
350
1A
  3
ACAD_PLOTSETTINGS
350
19
  3
ACAD_PLOTSTYLENAME
350
E
  0
DICTIONARY
  5
D
102
{ACAD_REACTORS
330
C
102
}
100
AcDbDictionary
280
0
281
1
  0
ACDBDICTIONARYWDFLT
  5
E
102
{ACAD_REACTORS
330
C
102
}
100
AcDbDictionary
281
1
  3
Normal
350
F
100
AcDbDictionaryWithDefault
340
F
  0
DICTIONARY
  5
17
102
{ACAD_REACTORS
330
C
102
}
100
AcDbDictionary
280
0
281
1
  3
Standard
350
18
  0
DICTIONARY
  5
19
102
{ACAD_REACTORS
330
C
102
}
100
AcDbDictionary
281
1
  0
DICTIONARY
  5
1A
102
{ACAD_REACTORS
330
C
102
}
100
AcDbDictionary
281
1
  3
Model
350
737
  3
Layout1
350
738
  0
ACDBPLACEHOLDER
  5
F
102
{ACAD_REACTORS
330
E
102
}
  0
MLINESTYLE
  5
18
102
{ACAD_REACTORS
330
17
102
}
100
AcDbMlineStyle
  2
STANDARD
 70
0
  3

 62
256
 51
90.0
 52
90.0
 71
2
 49
0.5
 62
256
  6
BYLAYER
 49
-0.5
 62
256
  6
BYLAYER
  0
LAYOUT
  5
737
102
{ACAD_REACTORS
330
1A
102
}
100
AcDbPlotSettings
  1

  2
none_device
  4
ISO_A4_(297.00_x_210.00_MM)
  6

 40
0.0
 41
0.0
 42
0.0
 43
0.0
 44
297.0
 45
210.0
 46
0.0
 47
0.0
 48
0.0
 49
0.0
140
0.0
141
0.0
142
1.0
143
1.0
 70
1024
 72
1
 73
0
 74
0
  7

 75
0
147
1.0
148
0.0
149
0.0
100
AcDbLayout
  1
Model
 70
0
 71
0
 10
0.0
 20
0.0
 11
297.0
 21
210.0
 12
0.0
 22
0.0
 32
0.0
 14
0.0
 24
0.0
 34
0.0
 15
0.0
 25
0.0
 35
0.0
146
0.0
 13
0.0
 23
0.0
 33
0.0
 16
1.0
 26
0.0
 36
0.0
 17
0.0
 27
1.0
 37
0.0
 76
0
330
213
345
0
346
0
  0
LAYOUT
  5
738
102
{ACAD_REACTORS
330
1A
102
}
100
AcDbPlotSettings
  1

  2
none_device
  4
ISO_A4_(297.00_x_210.00_MM)
  6

 40
0.0
 41
0.0
 42
0.0
 43
0.0
 44
297.0
 45
210.0
 46
0.0
 47
0.0
 48
0.0
 49
0.0
140
0.0
141
0.0
142
1.0
143
1.0
 70
0
 72
1
 73
0
 74
0
  7

 75
0
147
1.0
148
0.0
149
0.0
100
AcDbLayout
  1
Layout1
 70
0
 71
1
 10
0.0
 20
0.0
 11
297.0
 21
210.0
 12
0.0
 22
0.0
 32
0.0
 14
0.0
 24
0.0
 34
0.0
 15
0.0
 25
0.0
 35
0.0
146
0.0
 13
0.0
 23
0.0
 33
0.0
 16
1.0
 26
0.0
 36
0.0
 17
0.0
 27
1.0
 37
0.0
 76
0
330
214
345
0
346
0
  0
ENDSEC
  0
EOF
