  0
SECTION
  2
HEADER
  9
$ACADVER
  1
AC1015
  9
$DWGCODEPAGE
  3
ANSI_1252
  9
$EXTMAX
 10
297.0
 20
210.0
 30
0.0
  9
$EXTMIN
 10
0.0
 20
0.0
 30
0.0
  9
$LIMMIN
 10
0.0
 20
0.0
  9
$LIMMAX
 10
297.0
 20
210.0
  9
$VIEWCTR
 10
148.5
 20
105.0
  9
$VIEWSIZE
 40
210.0
  9
$CLAYER
  8
0
  9
$LTSCALE
 40
16.335
  9
$CELTYPE
  6
BYLAYER
  9
$DIMSCALE
 40
1.0
  9
$DIMASZ
 40
3.0
  9
$DIMEXO
 40
1.85625
  9
$DIMDLI
 40
11.286
  9
$DIMEXE
 40
5.346
  9
$DIMCEN
 40
2.673
  9
$DIMLFAC
 40
1.0
  9
$DIMBLK
  1
_FILLED
  9
$DIMTXT
 40
3.0
  9
$DIMTOL
 70
1
  9
$DIMLIM
 70
0
  9
$DIMTFAC
 40
1.0
  9
$DIMTP
 40
0.01
  9
$DIMTM
 40
0.01
  9
$PDMODE
 70
3
  9
$PDSIZE
 40
3.0
  9
$HANDSEED
  5
396
  9
$TILEMODE
 70
1
  9
$MEASUREMENT
 70
1
  9
$INSUNITS
 70
4
  0
ENDSEC
  0
SECTION
  2
CLASSES
  0
CLASS
  1
ACDBDICTIONARYWDFLT
  2
AcDbDictionaryWithDefault
  3
AutoCAD 2000
 90
0
280
0
281
0
  0
CLASS
  1
ACDBPLACEHOLDER
  2
AcDbPlaceHolder
  3
AutoCAD 2000
 90
0
280
0
281
0
  0
CLASS
  1
LAYOUT
  2
AcDbLayout
  3
AutoCAD 2000
 90
0
280
0
281
0
  0
ENDSEC
  0
SECTION
  2
TABLES
  0
TABLE
  2
VPORT
  5
8
100
AcDbSymbolTable
 70
2
  0
VPORT
  5
1F4
100
AcDbSymbolTableRecord
100
AcDbViewportTableRecord
  2
*ACTIVE
 70
0
 10
0.0
 20
0.0
 11
1.0
 21
1.0
 12
148.5
 22
105.0
 13
0.0
 23
0.0
 14
1.0
 24
1.0
 15
0.0
 25
0.0
 16
0.0
 26
0.0
 36
1.0
 17
0.0
 27
0.0
 37
0.0
 40
210.0
 41
1.4142857143
 42
50.0
 43
0.0
 44
0.0
 50
0.0
 51
0.0
 71
0
 72
100
 73
1
 74
1
 75
0
 76
0
 77
0
 78
0
  0
ENDTAB
  0
TABLE
  2
LTYPE
  5
5
100
AcDbSymbolTable
 70
6
  0
LTYPE
  5
14
100
AcDbSymbolTableRecord
100
AcDbLinetypeTableRecord
  2
BYBLOCK
 70
0
  3

 72
65
 73
0
 40
0.0
  0
LTYPE
  5
15
100
AcDbSymbolTableRecord
100
AcDbLinetypeTableRecord
  2
BYLAYER
 70
0
  3

 72
65
 73
0
 40
0.0
  0
LTYPE
  5
16
100
AcDbSymbolTableRecord
100
AcDbLinetypeTableRecord
  2
CONTINUOUS
 70
64
  3
Solid line
 72
65
 73
0
 40
0.0
  0
LTYPE
  5
1F5
100
AcDbSymbolTableRecord
100
AcDbLinetypeTableRecord
  2
CENTER
 70
64
  3
____ _ ____ _ ____ _ ____ _ ____ _ ____ _ ____
 72
65
 73
4
 40
0.6
 49
0.375
 74
0
 49
-0.075
 74
0
 49
0.075
 74
0
 49
-0.075
 74
0
  0
LTYPE
  5
1F6
100
AcDbSymbolTableRecord
100
AcDbLinetypeTableRecord
  2
HIDDEN
 70
64
  3
- - - - - - - - - - - - - - - - - - - -
 72
65
 73
2
 40
0.2
 49
0.1
 74
0
 49
-0.1
 74
0
  0
LTYPE
  5
1F7
100
AcDbSymbolTableRecord
100
AcDbLinetypeTableRecord
  2
PHANTOM
 70
64
  3
_____ _ _ _____ _ _ _____ _ _ _____
 72
65
 73
6
 40
0.8
 49
0.45
 74
0
 49
-0.05
 74
0
 49
0.1
 74
0
 49
-0.05
 74
0
 49
0.1
 74
0
 49
-0.05
 74
0
  0
LTYPE
  5
1F8
100
AcDbSymbolTableRecord
100
AcDbLinetypeTableRecord
  2
DOT
 70
64
  3
. . . . . . . . . . . . . . . . . . . .
 72
65
 73
2
 40
0.2
 49
0.1
 74
0
 49
-0.1
 74
0
  0
LTYPE
  5
1F9
100
AcDbSymbolTableRecord
100
AcDbLinetypeTableRecord
  2
DASHED
 70
64
  3
- - - - - - - - - - - - - - - - - - - -
 72
65
 73
2
 40
0.2
 49
0.1
 74
0
 49
-0.1
 74
0
  0
ENDTAB
  0
TABLE
  2
LAYER
  5
2
100
AcDbSymbolTable
 70
36
  0
LAYER
  5
10
100
AcDbSymbolTableRecord
100
AcDbLayerTableRecord
  2
0
 70
0
 62
7
  6
CONTINUOUS
370
-3
390
F
  0
LAYER
  5
1FA
100
AcDbSymbolTableRecord
100
AcDbLayerTableRecord
  2
DEFAULT_1
 70
0
 62
7
  6
CENTER
370
-3
390
F
  0
LAYER
  5
1FB
100
AcDbSymbolTableRecord
100
AcDbLayerTableRecord
  2
DEFAULT_2
 70
0
 62
7
  6
HIDDEN
370
-3
390
F
  0
LAYER
  5
1FC
100
AcDbSymbolTableRecord
100
AcDbLayerTableRecord
  2
DEFAULT_3
 70
0
 62
7
  6
PHANTOM
370
-3
390
F
  0
LAYER
  5
1FD
100
AcDbSymbolTableRecord
100
AcDbLayerTableRecord
  2
ASSI
 70
0
 62
7
  6
CONTINUOUS
370
-3
390
F
  0
LAYER
  5
1FE
100
AcDbSymbolTableRecord
100
AcDbLayerTableRecord
  2
COORDINATE
 70
0
 62
7
  6
CONTINUOUS
370
-3
390
F
  0
LAYER
  5
1FF
100
AcDbSymbolTableRecord
100
AcDbLayerTableRecord
  2
COORD_ORIGINE
 70
0
 62
7
  6
CONTINUOUS
370
-3
390
F
  0
LAYER
  5
200
100
AcDbSymbolTableRecord
100
AcDbLayerTableRecord
  2
COPY_PUBLISH
 70
0
 62
7
  6
CONTINUOUS
370
-3
390
F
  0
LAYER
  5
201
100
AcDbSymbolTableRecord
100
AcDbLayerTableRecord
  2
COSMETIC
 70
0
 62
7
  6
CONTINUOUS
370
-3
390
F
  0
LAYER
  5
202
100
AcDbSymbolTableRecord
100
AcDbLayerTableRecord
  2
CURVE
 70
0
 62
7
  6
CONTINUOUS
370
-3
390
F
  0
LAYER
  5
203
100
AcDbSymbolTableRecord
100
AcDbLayerTableRecord
  2
DRAFT
 70
0
 62
7
  6
CONTINUOUS
370
-3
390
F
  0
LAYER
  5
204
100
AcDbSymbolTableRecord
100
AcDbLayerTableRecord
  2
IMPORT_IGES
 70
0
 62
7
  6
CONTINUOUS
370
-3
390
F
  0
LAYER
  5
205
100
AcDbSymbolTableRecord
100
AcDbLayerTableRecord
  2
NOTE
 70
0
 62
7
  6
CONTINUOUS
370
-3
390
F
  0
LAYER
  5
206
100
AcDbSymbolTableRecord
100
AcDbLayerTableRecord
  2
PIANI
 70
0
 62
7
  6
CONTINUOUS
370
-3
390
F
  0
LAYER
  5
207
100
AcDbSymbolTableRecord
100
AcDbLayerTableRecord
  2
PIANI_ORIGINE
 70
0
 62
7
  6
CONTINUOUS
370
-3
390
F
  0
LAYER
  5
208
100
AcDbSymbolTableRecord
100
AcDbLayerTableRecord
  2
PUNTI
 70
0
 62
7
  6
CONTINUOUS
370
-3
390
F
  0
LAYER
  5
209
100
AcDbSymbolTableRecord
100
AcDbLayerTableRecord
  2
RACCORDO
 70
0
 62
7
  6
CONTINUOUS
370
-3
390
F
  0
LAYER
  5
20A
100
AcDbSymbolTableRecord
100
AcDbLayerTableRecord
  2
SNAPLINE
 70
0
 62
7
  6
CONTINUOUS
370
-3
390
F
  0
LAYER
  5
20B
100
AcDbSymbolTableRecord
100
AcDbLayerTableRecord
  2
SUPERFICI
 70
0
 62
7
  6
CONTINUOUS
370
-3
390
F
  0
LAYER
  5
20C
100
AcDbSymbolTableRecord
100
AcDbLayerTableRecord
  2
TRASH
 70
0
 62
7
  6
CONTINUOUS
370
-3
390
F
  0
LAYER
  5
20D
100
AcDbSymbolTableRecord
100
AcDbLayerTableRecord
  2
XSEC_DATUMS
 70
0
 62
7
  6
CONTINUOUS
370
-3
390
F
  0
ENDTAB
  0
TABLE
  2
STYLE
  5
3
100
AcDbSymbolTable
 70
1
  0
STYLE
  5
11
100
AcDbSymbolTableRecord
100
AcDbTextStyleTableRecord
  2
STANDARD
 70
0
 40
0.0
 41
0.8
 50
0.0
 71
0
 42
0.2
  3
txt
  4

  0
STYLE
  5
20E
100
AcDbSymbolTableRecord
100
AcDbTextStyleTableRecord
  2
TEXTSTYLE_1
 70
0
 40
0.0
 41
0.8
 50
0.0
 71
0
 42
0.2
  3
gdt
  4

  0
ENDTAB
  0
TABLE
  2
VIEW
  5
6
100
AcDbSymbolTable
 70
0
  0
ENDTAB
  0
TABLE
  2
UCS
  5
7
100
AcDbSymbolTable
 70
0
  0
ENDTAB
  0
TABLE
  2
APPID
  5
9
100
AcDbSymbolTable
 70
1
  0
APPID
  5
20F
100
AcDbSymbolTableRecord
100
AcDbRegAppTableRecord
  2
ACAD
 70
0
  0
ENDTAB
  0
TABLE
  2
BLOCK_RECORD
  5
1
100
AcDbSymbolTable
 70
0
  0
BLOCK_RECORD
  5
210
100
AcDbSymbolTableRecord
100
AcDbBlockTableRecord
  2
*Model_Space
  0
BLOCK_RECORD
  5
211
100
AcDbSymbolTableRecord
100
AcDbBlockTableRecord
  2
*Paper_Space
  0
ENDTAB
  0
TABLE
  2
DIMSTYLE
  5
A
100
AcDbSymbolTable
 70
1
100
AcDbDimStyleTable
 71
0
  0
DIMSTYLE
105
212
100
AcDbSymbolTableRecord
100
AcDbDimStyleTableRecord
  2
STANDARD
 70
0
  3

  4

 40
1.0
 41
3.0
 42
0.0625
 43
0.38
 44
0.18
 45
0.0
 46
0.0
 47
0.01
 48
0.01
140
3.0
141
0.09
142
0.0
143
25.4
144
1.0
145
0.0
146
1.0
147
0.09
 71
1.0
 72
0.0
 73
0
 74
0
 75
0
 76
0
 77
1
 78
8
170
0
171
2
172
0
173
0
174
0
175
0
176
0
177
0
178
0
270
2
271
2
272
2
273
2
274
2
275
0
280
0
281
0
282
0
283
1
284
8
285
0
286
0
287
3
288
0
340
11
  0
ENDTAB
  0
ENDSEC
  0
SECTION
  2
BLOCKS
  0
BLOCK
  5
20
100
AcDbEntity
  8
0
100
AcDbBlockBegin
  2
*Model_Space
 70
0
 10
0.0
 20
0.0
 30
0.0
  3
*Model_Space
  1

  0
ENDBLK
  5
21
100
AcDbEntity
  8
0
100
AcDbBlockEnd
  0
BLOCK
  5
1C
100
AcDbEntity
  8
0
100
AcDbBlockBegin
  2
*Paper_Space
 70
0
 10
0.0
 20
0.0
 30
0.0
  3
*Paper_Space
  1

  0
ENDBLK
  5
1D
100
AcDbEntity
  8
0
100
AcDbBlockEnd
  0
ENDSEC
  0
SECTION
  2
ENTITIES
  0
LINE
  5
213
100
AcDbEntity
  8
ASSI
100
AcDbLine
 62
7
  6
CONTINUOUS
 10
10.30027414
 20
-21.85
 11
-10.30027414
 21
-21.85
  0
LINE
  5
214
100
AcDbEntity
  8
RACCORDO
100
AcDbLine
 62
7
  6
CONTINUOUS
 10
10.30027414
 20
-21.85
 11
-10.30027414
 21
-21.85
  0
LINE
  5
215
100
AcDbEntity
  8
ASSI
100
AcDbLine
 62
7
  6
CONTINUOUS
 10
-0.0
 20
-21.625
 11
-2.5
 21
-21.625
  0
LINE
  5
216
100
AcDbEntity
  8
0
100
AcDbLine
 62
7
  6
CONTINUOUS
 10
-0.0
 20
-21.625
 11
-2.5
 21
-21.625
  0
LINE
  5
217
100
AcDbEntity
  8
0
100
AcDbLine
 62
7
  6
CONTINUOUS
 10
7.0
 20
-20.425
 11
-7.0
 21
-20.425
  0
LINE
  5
218
100
AcDbEntity
  8
ASSI
100
AcDbLine
 62
7
  6
CONTINUOUS
 10
9.6
 20
-20.425
 11
-9.6
 21
-20.425
  0
LINE
  5
219
100
AcDbEntity
  8
ASSI
100
AcDbLine
 62
253
  6
CONTINUOUS
 10
-9.6925868807
 20
-20.4103553391
 11
-9.5198397506
 21
-20.4103553391
  0
LINE
  5
21A
100
AcDbEntity
  8
ASSI
100
AcDbLine
 62
253
  6
CONTINUOUS
 10
-6.4
 20
-20.4103553391
 11
-5.0
 21
-20.4103553391
  0
LINE
  5
21B
100
AcDbEntity
  8
RACCORDO
100
AcDbLine
 62
253
  6
CONTINUOUS
 10
-5.5
 20
-20.4103553391
 11
-5.0
 21
-20.4103553391
  0
LINE
  5
21C
100
AcDbEntity
  8
RACCORDO
100
AcDbLine
 62
253
  6
CONTINUOUS
 10
-0.0
 20
-20.4103553391
 11
5.5
 21
-20.4103553391
  0
LINE
  5
21D
100
AcDbEntity
  8
ASSI
100
AcDbLine
 62
253
  6
CONTINUOUS
 10
-0.0
 20
-20.4103553391
 11
6.4
 21
-20.4103553391
  0
LINE
  5
21E
100
AcDbEntity
  8
ASSI
100
AcDbLine
 62
253
  6
CONTINUOUS
 10
9.5198397506
 20
-20.4103553391
 11
9.6925868807
 21
-20.4103553391
  0
LINE
  5
21F
100
AcDbEntity
  8
ASSI
100
AcDbLine
 62
253
  6
CONTINUOUS
 10
-9.7736346448
 20
-20.3696446609
 11
-9.2970023546
 21
-20.3696446609
  0
LINE
  5
220
100
AcDbEntity
  8
ASSI
100
AcDbLine
 62
253
  6
CONTINUOUS
 10
-6.4
 20
-20.3696446609
 11
-5.0
 21
-20.3696446609
  0
LINE
  5
221
100
AcDbEntity
  8
RACCORDO
100
AcDbLine
 62
253
  6
CONTINUOUS
 10
-5.5
 20
-20.3696446609
 11
-5.0
 21
-20.3696446609
  0
LINE
  5
222
100
AcDbEntity
  8
RACCORDO
100
AcDbLine
 62
253
  6
CONTINUOUS
 10
-0.0
 20
-20.3696446609
 11
5.5
 21
-20.3696446609
  0
LINE
  5
223
100
AcDbEntity
  8
ASSI
100
AcDbLine
 62
253
  6
CONTINUOUS
 10
-0.0
 20
-20.3696446609
 11
6.4
 21
-20.3696446609
  0
LINE
  5
224
100
AcDbEntity
  8
ASSI
100
AcDbLine
 62
253
  6
CONTINUOUS
 10
9.2970023546
 20
-20.3696446609
 11
9.7736346448
 21
-20.3696446609
  0
LINE
  5
225
100
AcDbEntity
  8
ASSI
100
AcDbLine
 62
7
  6
CONTINUOUS
 10
-9.7926136028
 20
-20.355
 11
-9.2168421053
 21
-20.355
  0
LINE
  5
226
100
AcDbEntity
  8
ASSI
100
AcDbLine
 62
7
  6
CONTINUOUS
 10
-6.4
 20
-20.355
 11
-5.0
 21
-20.355
  0
LINE
  5
227
100
AcDbEntity
  8
RACCORDO
100
AcDbLine
 62
7
  6
CONTINUOUS
 10
-5.5
 20
-20.355
 11
-5.0
 21
-20.355
  0
LINE
  5
228
100
AcDbEntity
  8
RACCORDO
100
AcDbLine
 62
7
  6
CONTINUOUS
 10
-0.0
 20
-20.355
 11
5.5
 21
-20.355
  0
LINE
  5
229
100
AcDbEntity
  8
ASSI
100
AcDbLine
 62
7
  6
CONTINUOUS
 10
-0.0
 20
-20.355
 11
6.4
 21
-20.355
  0
LINE
  5
22A
100
AcDbEntity
  8
ASSI
100
AcDbLine
 62
7
  6
CONTINUOUS
 10
9.2168421053
 20
-20.355
 11
9.7926136028
 21
-20.355
  0
LINE
  5
22B
100
AcDbEntity
  8
ASSI
100
AcDbLine
 62
7
  6
CONTINUOUS
 10
6.4
 20
-19.95
 11
7.0
 21
-19.95
  0
LINE
  5
22C
100
AcDbEntity
  8
SUPERFICI
100
AcDbLine
 62
7
  6
CONTINUOUS
 10
6.4
 20
-19.95
 11
7.0
 21
-19.95
  0
LINE
  5
22D
100
AcDbEntity
  8
ASSI
100
AcDbLine
 62
7
  6
CONTINUOUS
 10
-6.4
 20
-19.95
 11
-7.0
 21
-19.95
  0
LINE
  5
22E
100
AcDbEntity
  8
0
100
AcDbLine
 62
7
  6
CONTINUOUS
 10
-6.4
 20
-19.95
 11
-7.0
 21
-19.95
  0
LINE
  5
22F
100
AcDbEntity
  8
ASSI
100
AcDbLine
 62
253
  6
CONTINUOUS
 10
-9.9
 20
-19.925
 11
9.9
 21
-19.925
  0
LINE
  5
230
100
AcDbEntity
  8
RACCORDO
100
AcDbLine
 62
253
  6
CONTINUOUS
 10
-9.9
 20
-19.925
 11
9.9
 21
-19.925
  0
LINE
  5
231
100
AcDbEntity
  8
ASSI
100
AcDbLine
 62
7
  6
CONTINUOUS
 10
-7.0
 20
-19.95
 11
-9.6
 21
-20.425
  0
LINE
  5
232
100
AcDbEntity
  8
ASSI
100
AcDbLine
 62
7
  6
CONTINUOUS
 10
7.0
 20
-19.95
 11
9.6
 21
-20.425
  0
LINE
  5
233
100
AcDbEntity
  8
ASSI
100
AcDbLine
 62
7
  6
CONTINUOUS
 10
-11.1
 20
-21.05027414
 11
-11.1
 21
21.05027414
  0
LINE
  5
234
100
AcDbEntity
  8
RACCORDO
100
AcDbLine
 62
7
  6
CONTINUOUS
 10
-11.1
 20
-21.05027414
 11
-11.1
 21
21.05027414
  0
LINE
  5
235
100
AcDbEntity
  8
ASSI
100
AcDbLine
 62
7
  6
CONTINUOUS
 10
-10.6
 20
-5.9801315846
 11
-10.6
 21
5.9801315846
  0
LINE
  5
236
100
AcDbEntity
  8
0
100
AcDbLine
 62
7
  6
CONTINUOUS
 10
-10.6
 20
-5.9801315846
 11
-10.6
 21
5.9801315846
  0
LINE
  5
237
100
AcDbEntity
  8
0
100
AcDbLine
 62
7
  6
CONTINUOUS
 10
-9.9
 20
-7.5
 11
-9.9
 21
7.5
  0
LINE
  5
238
100
AcDbEntity
  8
ASSI
100
AcDbLine
 62
7
  6
CONTINUOUS
 10
-9.9
 20
-20.125
 11
-9.9
 21
20.125
  0
LINE
  5
239
100
AcDbEntity
  8
ASSI
100
AcDbLine
 62
253
  6
CONTINUOUS
 10
-9.6
 20
20.355
 11
-9.6
 21
-20.355
  0
LINE
  5
23A
100
AcDbEntity
  8
RACCORDO
100
AcDbLine
 62
253
  6
CONTINUOUS
 10
-9.6
 20
20.355
 11
-9.6
 21
-20.355
  0
LINE
  5
23B
100
AcDbEntity
  8
ASSI
100
AcDbLine
 62
7
  6
CONTINUOUS
 10
-7.0
 20
20.425
 11
-7.0
 21
19.95
  0
LINE
  5
23C
100
AcDbEntity
  8
0
100
AcDbLine
 62
7
  6
CONTINUOUS
 10
-7.0
 20
20.425
 11
-7.0
 21
19.95
  0
LINE
  5
23D
100
AcDbEntity
  8
ASSI
100
AcDbLine
 62
7
  6
CONTINUOUS
 10
-7.0
 20
-20.425
 11
-7.0
 21
-19.95
  0
LINE
  5
23E
100
AcDbEntity
  8
0
100
AcDbLine
 62
7
  6
CONTINUOUS
 10
-7.0
 20
-20.425
 11
-7.0
 21
-19.95
  0
LINE
  5
23F
100
AcDbEntity
  8
ASSI
100
AcDbLine
 62
7
  6
CONTINUOUS
 10
-6.4
 20
20.425
 11
-6.4
 21
19.95
  0
LINE
  5
240
100
AcDbEntity
  8
0
100
AcDbLine
 62
7
  6
CONTINUOUS
 10
-6.4
 20
20.425
 11
-6.4
 21
19.95
  0
LINE
  5
241
100
AcDbEntity
  8
ASSI
100
AcDbLine
 62
7
  6
CONTINUOUS
 10
-6.4
 20
-20.425
 11
-6.4
 21
-19.95
  0
LINE
  5
242
100
AcDbEntity
  8
0
100
AcDbLine
 62
7
  6
CONTINUOUS
 10
-6.4
 20
-20.425
 11
-6.4
 21
-19.95
  0
LINE
  5
243
100
AcDbEntity
  8
ASSI
100
AcDbLine
 62
7
  6
CONTINUOUS
 10
-5.3881958819
 20
19.25820568
 11
-5.3751284268
 21
19.4686490016
  0
LINE
  5
244
100
AcDbEntity
  8
RACCORDO
100
AcDbLine
 62
7
  6
CONTINUOUS
 10
-5.3881958819
 20
19.25820568
 11
-5.3751284268
 21
19.4686490016
  0
LINE
  5
245
100
AcDbEntity
  8
ASSI
100
AcDbLine
 62
7
  6
CONTINUOUS
 10
-5.5
 20
-20.4183012702
 11
-5.5
 21
-20.355
  0
LINE
  5
246
100
AcDbEntity
  8
RACCORDO
100
AcDbLine
 62
7
  6
CONTINUOUS
 10
-5.5
 20
-20.4103553391
 11
-5.5
 21
-20.355
  0
LINE
  5
247
100
AcDbEntity
  8
ASSI
100
AcDbLine
 62
7
  6
CONTINUOUS
 10
-5.5
 20
20.355
 11
-5.5
 21
20.4183012702
  0
LINE
  5
248
100
AcDbEntity
  8
RACCORDO
100
AcDbLine
 62
7
  6
CONTINUOUS
 10
-5.5
 20
20.355
 11
-5.5
 21
20.4183012702
  0
LINE
  5
249
100
AcDbEntity
  8
ASSI
100
AcDbLine
 62
7
  6
CONTINUOUS
 10
-5.4
 20
19.925
 11
-5.4
 21
18.9
  0
LINE
  5
24A
100
AcDbEntity
  8
RACCORDO
100
AcDbLine
 62
7
  6
CONTINUOUS
 10
-5.4
 20
19.925
 11
-5.4
 21
18.9
  0
LINE
  5
24B
100
AcDbEntity
  8
ASSI
100
AcDbLine
 62
7
  6
CONTINUOUS
 10
-5.3881958819
 20
18.9
 11
-5.3881958819
 21
19.25820568
  0
LINE
  5
24C
100
AcDbEntity
  8
RACCORDO
100
AcDbLine
 62
7
  6
CONTINUOUS
 10
-5.3881958819
 20
18.9
 11
-5.3881958819
 21
19.25820568
  0
LINE
  5
24D
100
AcDbEntity
  8
ASSI
100
AcDbLine
 62
7
  6
CONTINUOUS
 10
-5.3751284268
 20
19.4686490016
 11
-5.3751284268
 21
20.355
  0
LINE
  5
24E
100
AcDbEntity
  8
DRAFT
100
AcDbLine
 62
7
  6
CONTINUOUS
 10
-5.3751284268
 20
19.4686490016
 11
-5.3751284268
 21
20.355
  0
LINE
  5
24F
100
AcDbEntity
  8
ASSI
100
AcDbLine
 62
253
  6
CONTINUOUS
 10
-5.088207305
 20
18.9
 11
-5.088207305
 21
19.3
  0
LINE
  5
250
100
AcDbEntity
  8
RACCORDO
100
AcDbLine
 62
253
  6
CONTINUOUS
 10
-5.088207305
 20
18.9
 11
-5.088207305
 21
19.3
  0
LINE
  5
251
100
AcDbEntity
  8
ASSI
100
AcDbLine
 62
7
  6
CONTINUOUS
 10
-5.0
 20
-20.355
 11
-5.0
 21
-20.4183012702
  0
LINE
  5
252
100
AcDbEntity
  8
RACCORDO
100
AcDbLine
 62
7
  6
CONTINUOUS
 10
-5.0
 20
-20.355
 11
-5.0
 21
-20.4183012702
  0
LINE
  5
253
100
AcDbEntity
  8
ASSI
100
AcDbLine
 62
253
  6
CONTINUOUS
 10
-4.911792695
 20
19.3
 11
-4.911792695
 21
18.9
  0
LINE
  5
254
100
AcDbEntity
  8
RACCORDO
100
AcDbLine
 62
253
  6
CONTINUOUS
 10
-4.911792695
 20
19.3
 11
-4.911792695
 21
18.9
  0
LINE
  5
255
100
AcDbEntity
  8
ASSI
100
AcDbLine
 62
7
  6
CONTINUOUS
 10
-4.700583
 20
3.525
 11
-4.700583
 21
1.475
  0
LINE
  5
256
100
AcDbEntity
  8
ASSI
100
AcDbLine
 62
7
  6
CONTINUOUS
 10
-3.723194
 20
8.95005
 11
-4.275888
 21
7.228587
  0
LINE
  5
257
100
AcDbEntity
  8
ASSI
100
AcDbLine
 62
7
  6
CONTINUOUS
 10
-4.025875
 20
6.449937
 11
-3.223169
 21
8.95005
  0
LINE
  5
258
100
AcDbEntity
  8
ASSI
100
AcDbLine
 62
7
  6
CONTINUOUS
 10
-4.6248715732
 20
19.4686490016
 11
-4.6118041181
 21
19.25820568
  0
LINE
  5
259
100
AcDbEntity
  8
RACCORDO
100
AcDbLine
 62
7
  6
CONTINUOUS
 10
-4.6248715732
 20
19.4686490016
 11
-4.6118041181
 21
19.25820568
  0
LINE
  5
25A
100
AcDbEntity
  8
ASSI
100
AcDbLine
 62
7
  6
CONTINUOUS
 10
-4.6248715732
 20
19.4686490016
 11
-4.6248715732
 21
20.355
  0
LINE
  5
25B
100
AcDbEntity
  8
DRAFT
100
AcDbLine
 62
7
  6
CONTINUOUS
 10
-4.6248715732
 20
19.4686490016
 11
-4.6248715732
 21
20.355
  0
LINE
  5
25C
100
AcDbEntity
  8
ASSI
100
AcDbLine
 62
7
  6
CONTINUOUS
 10
-4.6118041181
 20
19.25820568
 11
-4.6118041181
 21
18.9
  0
LINE
  5
25D
100
AcDbEntity
  8
RACCORDO
100
AcDbLine
 62
7
  6
CONTINUOUS
 10
-4.6118041181
 20
19.25820568
 11
-4.6118041181
 21
18.9
  0
LINE
  5
25E
100
AcDbEntity
  8
ASSI
100
AcDbLine
 62
7
  6
CONTINUOUS
 10
-4.6
 20
19.925
 11
-4.6
 21
18.9
  0
LINE
  5
25F
100
AcDbEntity
  8
RACCORDO
100
AcDbLine
 62
7
  6
CONTINUOUS
 10
-4.6
 20
19.925
 11
-4.6
 21
18.9
  0
LINE
  5
260
100
AcDbEntity
  8
ASSI
100
AcDbLine
 62
7
  6
CONTINUOUS
 10
-4.260465
 20
1.475
 11
-4.260465
 21
2.264435
  0
LINE
  5
261
100
AcDbEntity
  8
ASSI
100
AcDbLine
 62
7
  6
CONTINUOUS
 10
-4.260465
 20
2.605111
 11
-4.260465
 21
3.184324
  0
LINE
  5
262
100
AcDbEntity
  8
ASSI
100
AcDbLine
 62
7
  6
CONTINUOUS
 10
-3.306325
 20
-0.646692
 11
-3.306325
 21
-2.480748
  0
LINE
  5
263
100
AcDbEntity
  8
ASSI
100
AcDbLine
 62
7
  6
CONTINUOUS
 10
-3.100896
 20
-2.480748
 11
-3.100896
 21
-0.380287
  0
LINE
  5
264
100
AcDbEntity
  8
ASSI
100
AcDbLine
 62
7
  6
CONTINUOUS
 10
-3.801178
 20
-0.819347
 11
-3.671846
 21
-0.980186
  0
LINE
  5
265
100
AcDbEntity
  8
ASSI
100
AcDbLine
 62
7
  6
CONTINUOUS
 10
-2.954306
 20
3.525
 11
-2.954306
 21
1.475
  0
LINE
  5
266
100
AcDbEntity
  8
ASSI
100
AcDbLine
 62
7
  6
CONTINUOUS
 10
-2.889825
 20
8.95005
 11
-2.889831
 21
6.449931
  0
LINE
  5
267
100
AcDbEntity
  8
ASSI
100
AcDbLine
 62
7
  6
CONTINUOUS
 10
-2.514188
 20
1.815676
 11
-2.514188
 21
3.525
  0
LINE
  5
268
100
AcDbEntity
  8
ASSI
100
AcDbLine
 62
7
  6
CONTINUOUS
 10
-2.5
 20
-21.625
 11
-2.5
 21
-20.425
  0
LINE
  5
269
100
AcDbEntity
  8
0
100
AcDbLine
 62
7
  6
CONTINUOUS
 10
-2.5
 20
-21.625
 11
-2.5
 21
-20.425
  0
LINE
  5
26A
100
AcDbEntity
  8
ASSI
100
AcDbLine
 62
7
  6
CONTINUOUS
 10
-2.389813
 20
6.449937
 11
-2.389806
 21
8.95005
  0
LINE
  5
26B
100
AcDbEntity
  8
ASSI
100
AcDbLine
 62
7
  6
CONTINUOUS
 10
-2.341561
 20
-1.738955
 11
-2.341561
 21
-1.982296
  0
LINE
  5
26C
100
AcDbEntity
  8
ASSI
100
AcDbLine
 62
7
  6
CONTINUOUS
 10
-1.889806
 20
8.95005
 11
-1.889806
 21
6.449937
  0
LINE
  5
26D
100
AcDbEntity
  8
ASSI
100
AcDbLine
 62
7
  6
CONTINUOUS
 10
-1.755689
 20
1.475
 11
-1.755689
 21
1.815676
  0
LINE
  5
26E
100
AcDbEntity
  8
ASSI
100
AcDbLine
 62
7
  6
CONTINUOUS
 10
-1.460816
 20
-0.5820707997
 11
-1.460816
 21
-1.788456
  0
LINE
  5
26F
100
AcDbEntity
  8
ASSI
100
AcDbLine
 62
7
  6
CONTINUOUS
 10
-1.460816
 20
-1.982296
 11
-1.460816
 21
-2.480748
  0
LINE
  5
270
100
AcDbEntity
  8
ASSI
100
AcDbLine
 62
7
  6
CONTINUOUS
 10
-0.200175
 20
8.95005
 11
-0.667044
 21
7.321887
  0
LINE
  5
271
100
AcDbEntity
  8
ASSI
100
AcDbLine
 62
7
  6
CONTINUOUS
 10
-0.417044
 20
6.449944
 11
0.055694
 21
8.098594
  0
LINE
  5
272
100
AcDbEntity
  8
ASSI
100
AcDbLine
 62
7
  6
CONTINUOUS
 10
-0.847526
 20
2.250163
 11
-0.54355
 21
3.133267
  0
LINE
  5
273
100
AcDbEntity
  8
ASSI
100
AcDbLine
 62
7
  6
CONTINUOUS
 10
-1.114374
 20
1.475
 11
-0.961085
 21
1.909486
  0
LINE
  5
274
100
AcDbEntity
  8
ASSI
100
AcDbLine
 62
7
  6
CONTINUOUS
 10
-0.793524
 20
3.525
 11
-1.534588
 21
1.475
  0
LINE
  5
275
100
AcDbEntity
  8
ASSI
100
AcDbLine
 62
7
  6
CONTINUOUS
 10
-3.671846
 20
-0.980186
 11
-3.306325
 21
-0.646692
  0
LINE
  5
276
100
AcDbEntity
  8
ASSI
100
AcDbLine
 62
7
  6
CONTINUOUS
 10
-3.282717
 20
-0.380287
 11
-3.801178
 21
-0.819347
  0
LINE
  5
277
100
AcDbEntity
  8
ASSI
100
AcDbLine
 62
7
  6
CONTINUOUS
 10
-3.306325
 20
-2.480748
 11
-3.100896
 21
-2.480748
  0
LINE
  5
278
100
AcDbEntity
  8
ASSI
100
AcDbLine
 62
7
  6
CONTINUOUS
 10
-1.460816
 20
-2.480748
 11
-1.255388
 21
-2.480748
  0
LINE
  5
279
100
AcDbEntity
  8
ASSI
100
AcDbLine
 62
7
  6
CONTINUOUS
 10
0.987307
 20
-2.480748
 11
2.279724
 21
-2.480748
  0
LINE
  5
27A
100
AcDbEntity
  8
ASSI
100
AcDbLine
 62
7
  6
CONTINUOUS
 10
3.293468
 20
-2.480748
 11
3.498897
 21
-2.480748
  0
LINE
  5
27B
100
AcDbEntity
  8
ASSI
100
AcDbLine
 62
7
  6
CONTINUOUS
 10
2.279724
 20
-2.286772
 11
1.210119
 21
-2.286772
  0
LINE
  5
27C
100
AcDbEntity
  8
ASSI
100
AcDbLine
 62
7
  6
CONTINUOUS
 10
-2.341561
 20
-1.982296
 11
-1.460816
 21
-1.982296
  0
LINE
  5
27D
100
AcDbEntity
  8
ASSI
100
AcDbLine
 62
7
  6
CONTINUOUS
 10
-1.255388
 20
-1.982296
 11
-0.961165
 21
-1.982296
  0
LINE
  5
27E
100
AcDbEntity
  8
ASSI
100
AcDbLine
 62
7
  6
CONTINUOUS
 10
-0.961165
 20
-1.788456
 11
-1.255388
 21
-1.788456
  0
LINE
  5
27F
100
AcDbEntity
  8
ASSI
100
AcDbLine
 62
7
  6
CONTINUOUS
 10
-1.460816
 20
-1.788456
 11
-2.170899
 21
-1.788456
  0
LINE
  5
280
100
AcDbEntity
  8
ASSI
100
AcDbLine
 62
7
  6
CONTINUOUS
 10
-5.328613
 20
8.95005
 11
-4.525913
 21
6.449931
  0
LINE
  5
281
100
AcDbEntity
  8
ASSI
100
AcDbLine
 62
7
  6
CONTINUOUS
 10
-4.275888
 20
7.228587
 11
-4.828588
 21
8.95005
  0
LINE
  5
282
100
AcDbEntity
  8
ASSI
100
AcDbLine
 62
7
  6
CONTINUOUS
 10
-1.389788
 20
6.449937
 11
-1.389788
 21
8.098594
  0
LINE
  5
283
100
AcDbEntity
  8
ASSI
100
AcDbLine
 62
7
  6
CONTINUOUS
 10
-1.255388
 20
-2.480748
 11
-1.255388
 21
-1.982296
  0
LINE
  5
284
100
AcDbEntity
  8
ASSI
100
AcDbLine
 62
7
  6
CONTINUOUS
 10
-1.255388
 20
-1.788456
 11
-1.255388
 21
-0.380287
  0
LINE
  5
285
100
AcDbEntity
  8
ASSI
100
AcDbLine
 62
7
  6
CONTINUOUS
 10
-0.961165
 20
-1.982296
 11
-0.961165
 21
-1.788456
  0
LINE
  5
286
100
AcDbEntity
  8
ASSI
100
AcDbLine
 62
7
  6
CONTINUOUS
 10
-0.0
 20
-20.425
 11
-0.0
 21
-21.625
  0
LINE
  5
287
100
AcDbEntity
  8
ASSI
100
AcDbLine
 62
7
  6
CONTINUOUS
 10
-0.0
 20
-20.4183012702
 11
-0.0
 21
-20.355
  0
LINE
  5
288
100
AcDbEntity
  8
0
100
AcDbLine
 62
7
  6
CONTINUOUS
 10
-0.0
 20
-20.425
 11
-0.0
 21
-21.625
  0
LINE
  5
289
100
AcDbEntity
  8
RACCORDO
100
AcDbLine
 62
7
  6
CONTINUOUS
 10
-0.0
 20
-20.4103553391
 11
-0.0
 21
-20.355
  0
LINE
  5
28A
100
AcDbEntity
  8
ASSI
100
AcDbLine
 62
7
  6
CONTINUOUS
 10
0.055694
 20
8.098594
 11
0.0557
 21
6.449937
  0
LINE
  5
28B
100
AcDbEntity
  8
ASSI
100
AcDbLine
 62
7
  6
CONTINUOUS
 10
1.691756
 20
8.950056
 11
0.889063
 21
6.449937
  0
LINE
  5
28C
100
AcDbEntity
  8
ASSI
100
AcDbLine
 62
7
  6
CONTINUOUS
 10
1.389081
 20
6.449944
 11
1.546938
 21
6.941606
  0
LINE
  5
28D
100
AcDbEntity
  8
ASSI
100
AcDbLine
 62
7
  6
CONTINUOUS
 10
1.699456
 20
7.416625
 11
1.941775
 21
8.1714
  0
LINE
  5
28E
100
AcDbEntity
  8
ASSI
100
AcDbLine
 62
7
  6
CONTINUOUS
 10
-2.170899
 20
-1.788456
 11
-1.460816
 21
-0.5820707997
  0
LINE
  5
28F
100
AcDbEntity
  8
ASSI
100
AcDbLine
 62
7
  6
CONTINUOUS
 10
-1.519213
 20
-0.380287
 11
-2.341561
 21
-1.738955
  0
LINE
  5
290
100
AcDbEntity
  8
ASSI
100
AcDbLine
 62
7
  6
CONTINUOUS
 10
3.498897
 20
-0.380287
 11
3.317076
 21
-0.380287
  0
LINE
  5
291
100
AcDbEntity
  8
ASSI
100
AcDbLine
 62
7
  6
CONTINUOUS
 10
-1.255388
 20
-0.380287
 11
-1.519213
 21
-0.380287
  0
LINE
  5
292
100
AcDbEntity
  8
ASSI
100
AcDbLine
 62
7
  6
CONTINUOUS
 10
-3.100896
 20
-0.380287
 11
-3.282717
 21
-0.380287
  0
LINE
  5
293
100
AcDbEntity
  8
ASSI
100
AcDbLine
 62
7
  6
CONTINUOUS
 10
1.0388230818
 20
-0.8457830086
 11
1.2577641542
 21
-0.8689160163
  0
LINE
  5
294
100
AcDbEntity
  8
ASSI
100
AcDbLine
 62
7
  6
CONTINUOUS
 10
0.555719
 20
6.449937
 11
0.555719
 21
8.95005
  0
LINE
  5
295
100
AcDbEntity
  8
ASSI
100
AcDbLine
 62
7
  6
CONTINUOUS
 10
0.665847
 20
3.525
 11
0.665847
 21
1.475
  0
LINE
  5
296
100
AcDbEntity
  8
ASSI
100
AcDbLine
 62
7
  6
CONTINUOUS
 10
0.987307
 20
-2.234283
 11
0.987307
 21
-2.480748
  0
LINE
  5
297
100
AcDbEntity
  8
ASSI
100
AcDbLine
 62
7
  6
CONTINUOUS
 10
1.077575
 20
1.475
 11
1.077575
 21
3.190711
  0
LINE
  5
298
100
AcDbEntity
  8
ASSI
100
AcDbLine
 62
7
  6
CONTINUOUS
 10
-4.700583
 20
1.475
 11
-4.260465
 21
1.475
  0
LINE
  5
299
100
AcDbEntity
  8
ASSI
100
AcDbLine
 62
7
  6
CONTINUOUS
 10
-2.954306
 20
1.475
 11
-1.755689
 21
1.475
  0
LINE
  5
29A
100
AcDbEntity
  8
ASSI
100
AcDbLine
 62
7
  6
CONTINUOUS
 10
-1.534588
 20
1.475
 11
-1.114374
 21
1.475
  0
LINE
  5
29B
100
AcDbEntity
  8
ASSI
100
AcDbLine
 62
7
  6
CONTINUOUS
 10
-0.001389
 20
1.475
 11
0.441584
 21
1.475
  0
LINE
  5
29C
100
AcDbEntity
  8
ASSI
100
AcDbLine
 62
7
  6
CONTINUOUS
 10
0.665847
 20
1.475
 11
1.077575
 21
1.475
  0
LINE
  5
29D
100
AcDbEntity
  8
ASSI
100
AcDbLine
 62
7
  6
CONTINUOUS
 10
1.892468
 20
1.475
 11
2.51712
 21
1.475
  0
LINE
  5
29E
100
AcDbEntity
  8
ASSI
100
AcDbLine
 62
7
  6
CONTINUOUS
 10
2.724411
 20
1.475
 11
3.144625
 21
1.475
  0
LINE
  5
29F
100
AcDbEntity
  8
ASSI
100
AcDbLine
 62
7
  6
CONTINUOUS
 10
4.257765
 20
1.475
 11
4.700583
 21
1.475
  0
LINE
  5
2A0
100
AcDbEntity
  8
ASSI
100
AcDbLine
 62
7
  6
CONTINUOUS
 10
-1.755689
 20
1.815676
 11
-2.514188
 21
1.815676
  0
LINE
  5
2A1
100
AcDbEntity
  8
ASSI
100
AcDbLine
 62
7
  6
CONTINUOUS
 10
2.798615
 20
-0.819347
 11
2.927947
 21
-0.980186
  0
LINE
  5
2A2
100
AcDbEntity
  8
ASSI
100
AcDbLine
 62
7
  6
CONTINUOUS
 10
0.441584
 20
1.475
 11
-0.271091
 21
3.525
  0
LINE
  5
2A3
100
AcDbEntity
  8
ASSI
100
AcDbLine
 62
7
  6
CONTINUOUS
 10
-0.149046
 20
1.909486
 11
-0.001389
 21
1.475
  0
LINE
  5
2A4
100
AcDbEntity
  8
ASSI
100
AcDbLine
 62
7
  6
CONTINUOUS
 10
-0.54355
 20
3.133267
 11
-0.259751
 21
2.250163
  0
LINE
  5
2A5
100
AcDbEntity
  8
ASSI
100
AcDbLine
 62
7
  6
CONTINUOUS
 10
-1.389788
 20
8.098594
 11
-0.91705
 21
6.449937
  0
LINE
  5
2A6
100
AcDbEntity
  8
ASSI
100
AcDbLine
 62
7
  6
CONTINUOUS
 10
-0.667044
 20
7.321887
 11
-1.133913
 21
8.95005
  0
LINE
  5
2A7
100
AcDbEntity
  8
ASSI
100
AcDbLine
 62
7
  6
CONTINUOUS
 10
2.105391
 20
3.525
 11
2.105391
 21
1.900472
  0
LINE
  5
2A8
100
AcDbEntity
  8
ASSI
100
AcDbLine
 62
7
  6
CONTINUOUS
 10
2.279724
 20
-2.480748
 11
2.279724
 21
-2.286772
  0
LINE
  5
2A9
100
AcDbEntity
  8
ASSI
100
AcDbLine
 62
7
  6
CONTINUOUS
 10
2.51712
 20
1.475
 11
2.51712
 21
3.525
  0
LINE
  5
2AA
100
AcDbEntity
  8
ASSI
100
AcDbLine
 62
7
  6
CONTINUOUS
 10
3.293468
 20
-0.646692
 11
3.293468
 21
-2.480748
  0
LINE
  5
2AB
100
AcDbEntity
  8
ASSI
100
AcDbLine
 62
7
  6
CONTINUOUS
 10
3.32785
 20
8.950056
 11
3.32785
 21
6.449944
  0
LINE
  5
2AC
100
AcDbEntity
  8
ASSI
100
AcDbLine
 62
7
  6
CONTINUOUS
 10
4.6118041181
 20
19.25820568
 11
4.6248715732
 21
19.4686490016
  0
LINE
  5
2AD
100
AcDbEntity
  8
RACCORDO
100
AcDbLine
 62
7
  6
CONTINUOUS
 10
4.6118041181
 20
19.25820568
 11
4.6248715732
 21
19.4686490016
  0
LINE
  5
2AE
100
AcDbEntity
  8
ASSI
100
AcDbLine
 62
7
  6
CONTINUOUS
 10
3.41155
 20
2.250163
 11
3.715487
 21
3.133151
  0
LINE
  5
2AF
100
AcDbEntity
  8
ASSI
100
AcDbLine
 62
7
  6
CONTINUOUS
 10
3.144625
 20
1.475
 11
3.297991
 21
1.909486
  0
LINE
  5
2B0
100
AcDbEntity
  8
ASSI
100
AcDbLine
 62
7
  6
CONTINUOUS
 10
3.465553
 20
3.525
 11
2.724411
 21
1.475
  0
LINE
  5
2B1
100
AcDbEntity
  8
ASSI
100
AcDbLine
 62
7
  6
CONTINUOUS
 10
1.7982447916
 20
-1.3817871941
 11
0.987307
 21
-2.234283
  0
LINE
  5
2B2
100
AcDbEntity
  8
ASSI
100
AcDbLine
 62
7
  6
CONTINUOUS
 10
1.210119
 20
-2.286772
 11
1.8509304243
 21
-1.6300268387
  0
LINE
  5
2B3
100
AcDbEntity
  8
ASSI
100
AcDbLine
 62
7
  6
CONTINUOUS
 10
2.927947
 20
-0.980186
 11
3.293468
 21
-0.646692
  0
LINE
  5
2B4
100
AcDbEntity
  8
ASSI
100
AcDbLine
 62
7
  6
CONTINUOUS
 10
3.317076
 20
-0.380287
 11
2.798615
 21
-0.819347
  0
LINE
  5
2B5
100
AcDbEntity
  8
ASSI
100
AcDbLine
 62
7
  6
CONTINUOUS
 10
-0.961085
 20
1.909486
 11
-0.149046
 21
1.909486
  0
LINE
  5
2B6
100
AcDbEntity
  8
ASSI
100
AcDbLine
 62
7
  6
CONTINUOUS
 10
3.297991
 20
1.909486
 11
4.11003
 21
1.909486
  0
LINE
  5
2B7
100
AcDbEntity
  8
ASSI
100
AcDbLine
 62
7
  6
CONTINUOUS
 10
3.999249
 20
2.250163
 11
3.41155
 21
2.250163
  0
LINE
  5
2B8
100
AcDbEntity
  8
ASSI
100
AcDbLine
 62
7
  6
CONTINUOUS
 10
-0.259751
 20
2.250163
 11
-0.847526
 21
2.250163
  0
LINE
  5
2B9
100
AcDbEntity
  8
ASSI
100
AcDbLine
 62
7
  6
CONTINUOUS
 10
-4.260465
 20
2.264435
 11
-4.0732552514
 21
2.264435
  0
LINE
  5
2BA
100
AcDbEntity
  8
ASSI
100
AcDbLine
 62
7
  6
CONTINUOUS
 10
-4.0037122164
 20
2.605111
 11
-4.260465
 21
2.605111
  0
LINE
  5
2BB
100
AcDbEntity
  8
ASSI
100
AcDbLine
 62
7
  6
CONTINUOUS
 10
-4.260465
 20
3.184324
 11
-4.0037122289
 21
3.184324
  0
LINE
  5
2BC
100
AcDbEntity
  8
ASSI
100
AcDbLine
 62
7
  6
CONTINUOUS
 10
2.105391
 20
1.900472
 11
1.318888
 21
3.525
  0
LINE
  5
2BD
100
AcDbEntity
  8
ASSI
100
AcDbLine
 62
7
  6
CONTINUOUS
 10
1.077575
 20
3.190711
 11
1.892468
 21
1.475
  0
LINE
  5
2BE
100
AcDbEntity
  8
ASSI
100
AcDbLine
 62
7
  6
CONTINUOUS
 10
3.498897
 20
-2.480748
 11
3.498897
 21
-0.380287
  0
LINE
  5
2BF
100
AcDbEntity
  8
ASSI
100
AcDbLine
 62
7
  6
CONTINUOUS
 10
3.820981
 20
7.87915
 11
3.820975
 21
8.487538
  0
LINE
  5
2C0
100
AcDbEntity
  8
ASSI
100
AcDbLine
 62
7
  6
CONTINUOUS
 10
4.6
 20
19.925
 11
4.6
 21
18.9
  0
LINE
  5
2C1
100
AcDbEntity
  8
RACCORDO
100
AcDbLine
 62
7
  6
CONTINUOUS
 10
4.6
 20
19.925
 11
4.6
 21
18.9
  0
LINE
  5
2C2
100
AcDbEntity
  8
ASSI
100
AcDbLine
 62
7
  6
CONTINUOUS
 10
4.6118041181
 20
18.9
 11
4.6118041181
 21
19.25820568
  0
LINE
  5
2C3
100
AcDbEntity
  8
RACCORDO
100
AcDbLine
 62
7
  6
CONTINUOUS
 10
4.6118041181
 20
18.9
 11
4.6118041181
 21
19.25820568
  0
LINE
  5
2C4
100
AcDbEntity
  8
ASSI
100
AcDbLine
 62
7
  6
CONTINUOUS
 10
4.6248715732
 20
19.4686490016
 11
4.6248715732
 21
20.355
  0
LINE
  5
2C5
100
AcDbEntity
  8
DRAFT
100
AcDbLine
 62
7
  6
CONTINUOUS
 10
4.6248715732
 20
19.4686490016
 11
4.6248715732
 21
20.355
  0
LINE
  5
2C6
100
AcDbEntity
  8
ASSI
100
AcDbLine
 62
253
  6
CONTINUOUS
 10
4.911792695
 20
18.9
 11
4.911792695
 21
19.3
  0
LINE
  5
2C7
100
AcDbEntity
  8
RACCORDO
100
AcDbLine
 62
253
  6
CONTINUOUS
 10
4.911792695
 20
18.9
 11
4.911792695
 21
19.3
  0
LINE
  5
2C8
100
AcDbEntity
  8
ASSI
100
AcDbLine
 62
253
  6
CONTINUOUS
 10
5.088207305
 20
19.3
 11
5.088207305
 21
18.9
  0
LINE
  5
2C9
100
AcDbEntity
  8
RACCORDO
100
AcDbLine
 62
253
  6
CONTINUOUS
 10
5.088207305
 20
19.3
 11
5.088207305
 21
18.9
  0
LINE
  5
2CA
100
AcDbEntity
  8
ASSI
100
AcDbLine
 62
7
  6
CONTINUOUS
 10
3.827875
 20
6.449944
 11
3.827931
 21
7.416631
  0
LINE
  5
2CB
100
AcDbEntity
  8
ASSI
100
AcDbLine
 62
7
  6
CONTINUOUS
 10
3.987985
 20
3.525
 11
3.465553
 21
3.525
  0
LINE
  5
2CC
100
AcDbEntity
  8
ASSI
100
AcDbLine
 62
7
  6
CONTINUOUS
 10
2.51712
 20
3.525
 11
2.105391
 21
3.525
  0
LINE
  5
2CD
100
AcDbEntity
  8
ASSI
100
AcDbLine
 62
7
  6
CONTINUOUS
 10
1.318888
 20
3.525
 11
0.665847
 21
3.525
  0
LINE
  5
2CE
100
AcDbEntity
  8
ASSI
100
AcDbLine
 62
7
  6
CONTINUOUS
 10
-0.271091
 20
3.525
 11
-0.793524
 21
3.525
  0
LINE
  5
2CF
100
AcDbEntity
  8
ASSI
100
AcDbLine
 62
7
  6
CONTINUOUS
 10
-2.514188
 20
3.525
 11
-2.954306
 21
3.525
  0
LINE
  5
2D0
100
AcDbEntity
  8
ASSI
100
AcDbLine
 62
7
  6
CONTINUOUS
 10
-4.073255282
 20
3.525
 11
-4.700583
 21
3.525
  0
LINE
  5
2D1
100
AcDbEntity
  8
ASSI
100
AcDbLine
 62
7
  6
CONTINUOUS
 10
4.700583
 20
1.475
 11
3.987985
 21
3.525
  0
LINE
  5
2D2
100
AcDbEntity
  8
ASSI
100
AcDbLine
 62
7
  6
CONTINUOUS
 10
4.11003
 20
1.909486
 11
4.257765
 21
1.475
  0
LINE
  5
2D3
100
AcDbEntity
  8
ASSI
100
AcDbLine
 62
7
  6
CONTINUOUS
 10
3.715487
 20
3.133151
 11
3.999249
 21
2.250163
  0
LINE
  5
2D4
100
AcDbEntity
  8
ASSI
100
AcDbLine
 62
7
  6
CONTINUOUS
 10
2.336631
 20
6.941606
 11
2.494481
 21
6.449944
  0
LINE
  5
2D5
100
AcDbEntity
  8
ASSI
100
AcDbLine
 62
7
  6
CONTINUOUS
 10
1.941775
 20
8.1714
 11
2.184106
 21
7.416625
  0
LINE
  5
2D6
100
AcDbEntity
  8
ASSI
100
AcDbLine
 62
7
  6
CONTINUOUS
 10
2.994506
 20
6.449937
 11
2.1918
 21
8.950056
  0
LINE
  5
2D7
100
AcDbEntity
  8
ASSI
100
AcDbLine
 62
7
  6
CONTINUOUS
 10
5.3751284268
 20
19.4686490016
 11
5.3881958819
 21
19.25820568
  0
LINE
  5
2D8
100
AcDbEntity
  8
RACCORDO
100
AcDbLine
 62
7
  6
CONTINUOUS
 10
5.3751284268
 20
19.4686490016
 11
5.3881958819
 21
19.25820568
  0
LINE
  5
2D9
100
AcDbEntity
  8
ASSI
100
AcDbLine
 62
7
  6
CONTINUOUS
 10
5.3751284268
 20
19.4686490016
 11
5.3751284268
 21
20.355
  0
LINE
  5
2DA
100
AcDbEntity
  8
DRAFT
100
AcDbLine
 62
7
  6
CONTINUOUS
 10
5.3751284268
 20
19.4686490016
 11
5.3751284268
 21
20.355
  0
LINE
  5
2DB
100
AcDbEntity
  8
ASSI
100
AcDbLine
 62
7
  6
CONTINUOUS
 10
5.3881958819
 20
19.25820568
 11
5.3881958819
 21
18.9
  0
LINE
  5
2DC
100
AcDbEntity
  8
RACCORDO
100
AcDbLine
 62
7
  6
CONTINUOUS
 10
5.3881958819
 20
19.25820568
 11
5.3881958819
 21
18.9
  0
LINE
  5
2DD
100
AcDbEntity
  8
ASSI
100
AcDbLine
 62
7
  6
CONTINUOUS
 10
5.4
 20
19.925
 11
5.4
 21
18.9
  0
LINE
  5
2DE
100
AcDbEntity
  8
RACCORDO
100
AcDbLine
 62
7
  6
CONTINUOUS
 10
5.4
 20
19.925
 11
5.4
 21
18.9
  0
LINE
  5
2DF
100
AcDbEntity
  8
ASSI
100
AcDbLine
 62
7
  6
CONTINUOUS
 10
5.5
 20
-20.355
 11
5.5
 21
-20.4183012702
  0
LINE
  5
2E0
100
AcDbEntity
  8
RACCORDO
100
AcDbLine
 62
7
  6
CONTINUOUS
 10
5.5
 20
-20.355
 11
5.5
 21
-20.4183012702
  0
LINE
  5
2E1
100
AcDbEntity
  8
ASSI
100
AcDbLine
 62
7
  6
CONTINUOUS
 10
5.5
 20
20.355
 11
5.5
 21
20.4103553391
  0
LINE
  5
2E2
100
AcDbEntity
  8
RACCORDO
100
AcDbLine
 62
7
  6
CONTINUOUS
 10
5.5
 20
20.3557701044
 11
5.5
 21
20.4103553391
  0
LINE
  5
2E3
100
AcDbEntity
  8
ASSI
100
AcDbLine
 62
7
  6
CONTINUOUS
 10
6.4
 20
20.425
 11
6.4
 21
19.95
  0
LINE
  5
2E4
100
AcDbEntity
  8
0
100
AcDbLine
 62
7
  6
CONTINUOUS
 10
6.4
 20
20.425
 11
6.4
 21
19.95
  0
LINE
  5
2E5
100
AcDbEntity
  8
ASSI
100
AcDbLine
 62
7
  6
CONTINUOUS
 10
6.4
 20
-20.425
 11
6.4
 21
-19.95
  0
LINE
  5
2E6
100
AcDbEntity
  8
0
100
AcDbLine
 62
7
  6
CONTINUOUS
 10
6.4
 20
-20.425
 11
6.4
 21
-19.95
  0
LINE
  5
2E7
100
AcDbEntity
  8
ASSI
100
AcDbLine
 62
7
  6
CONTINUOUS
 10
4.765419
 20
6.449944
 11
5.328613
 21
6.44995
  0
LINE
  5
2E8
100
AcDbEntity
  8
ASSI
100
AcDbLine
 62
7
  6
CONTINUOUS
 10
0.889063
 20
6.449937
 11
1.389081
 21
6.449944
  0
LINE
  5
2E9
100
AcDbEntity
  8
ASSI
100
AcDbLine
 62
7
  6
CONTINUOUS
 10
-1.889806
 20
6.449937
 11
-1.389788
 21
6.449937
  0
LINE
  5
2EA
100
AcDbEntity
  8
ASSI
100
AcDbLine
 62
7
  6
CONTINUOUS
 10
0.0557
 20
6.449937
 11
0.555719
 21
6.449937
  0
LINE
  5
2EB
100
AcDbEntity
  8
ASSI
100
AcDbLine
 62
7
  6
CONTINUOUS
 10
3.32785
 20
6.449944
 11
3.827875
 21
6.449944
  0
LINE
  5
2EC
100
AcDbEntity
  8
ASSI
100
AcDbLine
 62
7
  6
CONTINUOUS
 10
-0.91705
 20
6.449937
 11
-0.417044
 21
6.449944
  0
LINE
  5
2ED
100
AcDbEntity
  8
ASSI
100
AcDbLine
 62
7
  6
CONTINUOUS
 10
-2.889831
 20
6.449931
 11
-2.389813
 21
6.449937
  0
LINE
  5
2EE
100
AcDbEntity
  8
ASSI
100
AcDbLine
 62
7
  6
CONTINUOUS
 10
2.494481
 20
6.449944
 11
2.994506
 21
6.449937
  0
LINE
  5
2EF
100
AcDbEntity
  8
ASSI
100
AcDbLine
 62
7
  6
CONTINUOUS
 10
-4.525913
 20
6.449931
 11
-4.025875
 21
6.449937
  0
LINE
  5
2F0
100
AcDbEntity
  8
ASSI
100
AcDbLine
 62
7
  6
CONTINUOUS
 10
7.0
 20
20.425
 11
7.0
 21
19.95
  0
LINE
  5
2F1
100
AcDbEntity
  8
0
100
AcDbLine
 62
7
  6
CONTINUOUS
 10
7.0
 20
20.425
 11
7.0
 21
19.95
  0
LINE
  5
2F2
100
AcDbEntity
  8
ASSI
100
AcDbLine
 62
7
  6
CONTINUOUS
 10
7.0
 20
-20.425
 11
7.0
 21
-19.95
  0
LINE
  5
2F3
100
AcDbEntity
  8
0
100
AcDbLine
 62
7
  6
CONTINUOUS
 10
7.0
 20
-20.425
 11
7.0
 21
-19.95
  0
LINE
  5
2F4
100
AcDbEntity
  8
ASSI
100
AcDbLine
 62
7
  6
CONTINUOUS
 10
1.546938
 20
6.941606
 11
2.336631
 21
6.941606
  0
LINE
  5
2F5
100
AcDbEntity
  8
ASSI
100
AcDbLine
 62
7
  6
CONTINUOUS
 10
2.184106
 20
7.416625
 11
1.699456
 21
7.416625
  0
LINE
  5
2F6
100
AcDbEntity
  8
ASSI
100
AcDbLine
 62
7
  6
CONTINUOUS
 10
3.827931
 20
7.416631
 11
4.264338
 21
7.416625
  0
LINE
  5
2F7
100
AcDbEntity
  8
ASSI
100
AcDbLine
 62
7
  6
CONTINUOUS
 10
4.4293330547
 20
7.87915
 11
3.820981
 21
7.87915
  0
LINE
  5
2F8
100
AcDbEntity
  8
ASSI
100
AcDbLine
 62
7
  6
CONTINUOUS
 10
4.264338
 20
7.416625
 11
4.765419
 21
6.449944
  0
LINE
  5
2F9
100
AcDbEntity
  8
ASSI
100
AcDbLine
 62
7
  6
CONTINUOUS
 10
5.328613
 20
6.44995
 11
4.7963677306
 21
7.476758449
  0
LINE
  5
2FA
100
AcDbEntity
  8
ASSI
100
AcDbLine
 62
253
  6
CONTINUOUS
 10
9.6
 20
-20.355
 11
9.6
 21
20.355
  0
LINE
  5
2FB
100
AcDbEntity
  8
RACCORDO
100
AcDbLine
 62
253
  6
CONTINUOUS
 10
9.6
 20
-20.355
 11
9.6
 21
20.355
  0
LINE
  5
2FC
100
AcDbEntity
  8
0
100
AcDbLine
 62
7
  6
CONTINUOUS
 10
9.9
 20
-7.5
 11
9.9
 21
7.5
  0
LINE
  5
2FD
100
AcDbEntity
  8
ASSI
100
AcDbLine
 62
7
  6
CONTINUOUS
 10
9.9
 20
-20.125
 11
9.9
 21
20.125
  0
LINE
  5
2FE
100
AcDbEntity
  8
ASSI
100
AcDbLine
 62
7
  6
CONTINUOUS
 10
3.820975
 20
8.487538
 11
4.429323
 21
8.487538
  0
LINE
  5
2FF
100
AcDbEntity
  8
ASSI
100
AcDbLine
 62
7
  6
CONTINUOUS
 10
0.555719
 20
8.95005
 11
-0.200175
 21
8.95005
  0
LINE
  5
300
100
AcDbEntity
  8
ASSI
100
AcDbLine
 62
7
  6
CONTINUOUS
 10
-1.133913
 20
8.95005
 11
-1.889806
 21
8.95005
  0
LINE
  5
301
100
AcDbEntity
  8
ASSI
100
AcDbLine
 62
7
  6
CONTINUOUS
 10
-2.389806
 20
8.95005
 11
-2.889825
 21
8.95005
  0
LINE
  5
302
100
AcDbEntity
  8
ASSI
100
AcDbLine
 62
7
  6
CONTINUOUS
 10
-3.223169
 20
8.95005
 11
-3.723194
 21
8.95005
  0
LINE
  5
303
100
AcDbEntity
  8
ASSI
100
AcDbLine
 62
7
  6
CONTINUOUS
 10
-4.828588
 20
8.95005
 11
-5.328613
 21
8.95005
  0
LINE
  5
304
100
AcDbEntity
  8
ASSI
100
AcDbLine
 62
7
  6
CONTINUOUS
 10
4.4987422511
 20
8.950056
 11
3.32785
 21
8.950056
  0
LINE
  5
305
100
AcDbEntity
  8
ASSI
100
AcDbLine
 62
7
  6
CONTINUOUS
 10
2.1918
 20
8.950056
 11
1.691756
 21
8.950056
  0
LINE
  5
306
100
AcDbEntity
  8
ASSI
100
AcDbLine
 62
7
  6
CONTINUOUS
 10
10.6
 20
-5.9801315846
 11
10.6
 21
5.9801315846
  0
LINE
  5
307
100
AcDbEntity
  8
0
100
AcDbLine
 62
7
  6
CONTINUOUS
 10
10.6
 20
-5.9801315846
 11
10.6
 21
5.9801315846
  0
LINE
  5
308
100
AcDbEntity
  8
ASSI
100
AcDbLine
 62
7
  6
CONTINUOUS
 10
11.1
 20
-21.05027414
 11
11.1
 21
21.05027414
  0
LINE
  5
309
100
AcDbEntity
  8
RACCORDO
100
AcDbLine
 62
7
  6
CONTINUOUS
 10
11.1
 20
-21.05027414
 11
11.1
 21
21.05027414
  0
LINE
  5
30A
100
AcDbEntity
  8
ASSI
100
AcDbLine
 62
7
  6
CONTINUOUS
 10
7.0
 20
19.95
 11
9.6
 21
20.425
  0
LINE
  5
30B
100
AcDbEntity
  8
ASSI
100
AcDbLine
 62
253
  6
CONTINUOUS
 10
-5.4
 20
18.9
 11
-5.088207305
 21
18.9
  0
LINE
  5
30C
100
AcDbEntity
  8
RACCORDO
100
AcDbLine
 62
253
  6
CONTINUOUS
 10
-5.4
 20
18.9
 11
-5.088207305
 21
18.9
  0
LINE
  5
30D
100
AcDbEntity
  8
ASSI
100
AcDbLine
 62
253
  6
CONTINUOUS
 10
5.4
 20
18.9
 11
5.088207305
 21
18.9
  0
LINE
  5
30E
100
AcDbEntity
  8
RACCORDO
100
AcDbLine
 62
253
  6
CONTINUOUS
 10
5.4
 20
18.9
 11
5.088207305
 21
18.9
  0
LINE
  5
30F
100
AcDbEntity
  8
ASSI
100
AcDbLine
 62
253
  6
CONTINUOUS
 10
4.6
 20
18.9
 11
4.911792695
 21
18.9
  0
LINE
  5
310
100
AcDbEntity
  8
RACCORDO
100
AcDbLine
 62
253
  6
CONTINUOUS
 10
4.6
 20
18.9
 11
4.911792695
 21
18.9
  0
LINE
  5
311
100
AcDbEntity
  8
ASSI
100
AcDbLine
 62
253
  6
CONTINUOUS
 10
-4.6
 20
18.9
 11
-4.911792695
 21
18.9
  0
LINE
  5
312
100
AcDbEntity
  8
RACCORDO
100
AcDbLine
 62
253
  6
CONTINUOUS
 10
-4.6
 20
18.9
 11
-4.911792695
 21
18.9
  0
LINE
  5
313
100
AcDbEntity
  8
ASSI
100
AcDbLine
 62
7
  6
CONTINUOUS
 10
5.088207305
 20
19.3
 11
4.911792695
 21
19.3
  0
LINE
  5
314
100
AcDbEntity
  8
RACCORDO
100
AcDbLine
 62
7
  6
CONTINUOUS
 10
5.088207305
 20
19.3
 11
4.911792695
 21
19.3
  0
LINE
  5
315
100
AcDbEntity
  8
ASSI
100
AcDbLine
 62
7
  6
CONTINUOUS
 10
-4.911792695
 20
19.3
 11
-5.088207305
 21
19.3
  0
LINE
  5
316
100
AcDbEntity
  8
RACCORDO
100
AcDbLine
 62
7
  6
CONTINUOUS
 10
-4.911792695
 20
19.3
 11
-5.088207305
 21
19.3
  0
LINE
  5
317
100
AcDbEntity
  8
ASSI
100
AcDbLine
 62
7
  6
CONTINUOUS
 10
5.3751284268
 20
19.4686490016
 11
4.6248715732
 21
19.4686490016
  0
LINE
  5
318
100
AcDbEntity
  8
DRAFT
100
AcDbLine
 62
7
  6
CONTINUOUS
 10
5.3751284268
 20
19.4686490016
 11
4.6248715732
 21
19.4686490016
  0
LINE
  5
319
100
AcDbEntity
  8
ASSI
100
AcDbLine
 62
7
  6
CONTINUOUS
 10
-4.6248715732
 20
19.4686490016
 11
-5.3751284268
 21
19.4686490016
  0
LINE
  5
31A
100
AcDbEntity
  8
DRAFT
100
AcDbLine
 62
7
  6
CONTINUOUS
 10
-4.6248715732
 20
19.4686490016
 11
-5.3751284268
 21
19.4686490016
  0
LINE
  5
31B
100
AcDbEntity
  8
ASSI
100
AcDbLine
 62
7
  6
CONTINUOUS
 10
-7.0
 20
19.95
 11
-9.6
 21
20.425
  0
LINE
  5
31C
100
AcDbEntity
  8
ASSI
100
AcDbLine
 62
253
  6
CONTINUOUS
 10
-9.9
 20
19.925
 11
-5.4
 21
19.925
  0
LINE
  5
31D
100
AcDbEntity
  8
RACCORDO
100
AcDbLine
 62
253
  6
CONTINUOUS
 10
-9.9
 20
19.925
 11
-5.4
 21
19.925
  0
LINE
  5
31E
100
AcDbEntity
  8
ASSI
100
AcDbLine
 62
253
  6
CONTINUOUS
 10
-4.6
 20
19.925
 11
4.6
 21
19.925
  0
LINE
  5
31F
100
AcDbEntity
  8
RACCORDO
100
AcDbLine
 62
253
  6
CONTINUOUS
 10
-4.6
 20
19.925
 11
4.6
 21
19.925
  0
LINE
  5
320
100
AcDbEntity
  8
ASSI
100
AcDbLine
 62
253
  6
CONTINUOUS
 10
5.4
 20
19.925
 11
9.9
 21
19.925
  0
LINE
  5
321
100
AcDbEntity
  8
RACCORDO
100
AcDbLine
 62
253
  6
CONTINUOUS
 10
5.4
 20
19.925
 11
9.9
 21
19.925
  0
LINE
  5
322
100
AcDbEntity
  8
ASSI
100
AcDbLine
 62
7
  6
CONTINUOUS
 10
6.4
 20
19.95
 11
7.0
 21
19.95
  0
LINE
  5
323
100
AcDbEntity
  8
SUPERFICI
100
AcDbLine
 62
7
  6
CONTINUOUS
 10
6.4
 20
19.95
 11
7.0
 21
19.95
  0
LINE
  5
324
100
AcDbEntity
  8
ASSI
100
AcDbLine
 62
7
  6
CONTINUOUS
 10
-6.4
 20
19.95
 11
-7.0
 21
19.95
  0
LINE
  5
325
100
AcDbEntity
  8
SUPERFICI
100
AcDbLine
 62
7
  6
CONTINUOUS
 10
-6.4
 20
19.95
 11
-7.0
 21
19.95
  0
LINE
  5
326
100
AcDbEntity
  8
ASSI
100
AcDbLine
 62
7
  6
CONTINUOUS
 10
-9.7926136028
 20
20.355
 11
-9.2168421053
 21
20.355
  0
LINE
  5
327
100
AcDbEntity
  8
RACCORDO
100
AcDbLine
 62
7
  6
CONTINUOUS
 10
-5.5
 20
20.355
 11
5.5
 21
20.355
  0
LINE
  5
328
100
AcDbEntity
  8
ASSI
100
AcDbLine
 62
7
  6
CONTINUOUS
 10
-6.4
 20
20.355
 11
6.4
 21
20.355
  0
LINE
  5
329
100
AcDbEntity
  8
ASSI
100
AcDbLine
 62
7
  6
CONTINUOUS
 10
9.2168421053
 20
20.355
 11
9.7926136028
 21
20.355
  0
LINE
  5
32A
100
AcDbEntity
  8
ASSI
100
AcDbLine
 62
253
  6
CONTINUOUS
 10
-9.7736346448
 20
20.3696446609
 11
-9.2970023546
 21
20.3696446609
  0
LINE
  5
32B
100
AcDbEntity
  8
RACCORDO
100
AcDbLine
 62
253
  6
CONTINUOUS
 10
-5.5
 20
20.3696446609
 11
5.5
 21
20.3696446609
  0
LINE
  5
32C
100
AcDbEntity
  8
ASSI
100
AcDbLine
 62
253
  6
CONTINUOUS
 10
-6.4
 20
20.3696446609
 11
6.4
 21
20.3696446609
  0
LINE
  5
32D
100
AcDbEntity
  8
ASSI
100
AcDbLine
 62
253
  6
CONTINUOUS
 10
9.2970023546
 20
20.3696446609
 11
9.7736346448
 21
20.3696446609
  0
LINE
  5
32E
100
AcDbEntity
  8
ASSI
100
AcDbLine
 62
253
  6
CONTINUOUS
 10
9.6925868807
 20
20.4103553391
 11
9.5198397506
 21
20.4103553391
  0
LINE
  5
32F
100
AcDbEntity
  8
RACCORDO
100
AcDbLine
 62
253
  6
CONTINUOUS
 10
5.5
 20
20.4103553391
 11
-5.5
 21
20.4103553391
  0
LINE
  5
330
100
AcDbEntity
  8
ASSI
100
AcDbLine
 62
253
  6
CONTINUOUS
 10
6.4
 20
20.4103553391
 11
-6.4
 21
20.4103553391
  0
LINE
  5
331
100
AcDbEntity
  8
ASSI
100
AcDbLine
 62
253
  6
CONTINUOUS
 10
-9.5198397506
 20
20.4103553391
 11
-9.6925868807
 21
20.4103553391
  0
LINE
  5
332
100
AcDbEntity
  8
0
100
AcDbLine
 62
7
  6
CONTINUOUS
 10
7.0
 20
20.425
 11
-7.0
 21
20.425
  0
LINE
  5
333
100
AcDbEntity
  8
ASSI
100
AcDbLine
 62
7
  6
CONTINUOUS
 10
9.6
 20
20.425
 11
-9.6
 21
20.425
  0
LINE
  5
334
100
AcDbEntity
  8
ASSI
100
AcDbLine
 62
7
  6
CONTINUOUS
 10
10.30027414
 20
21.85
 11
-10.30027414
 21
21.85
  0
LINE
  5
335
100
AcDbEntity
  8
RACCORDO
100
AcDbLine
 62
7
  6
CONTINUOUS
 10
10.30027414
 20
21.85
 11
-10.30027414
 21
21.85
  0
ARC
  5
336
100
AcDbEntity
  8
ASSI
100
AcDbCircle
 62
253
  6
CONTINUOUS
 10
-0.0001879627
 20
-13.0
 40
4.2353092355
100
AcDbArc
 50
270.0025427944
 51
89.9974572056
  0
ARC
  5
337
100
AcDbEntity
  8
RACCORDO
100
AcDbCircle
 62
253
  6
CONTINUOUS
 10
-0.0001879627
 20
-13.0
 40
4.2353092355
100
AcDbArc
 50
270.0025427944
 51
89.9974572056
  0
ARC
  5
338
100
AcDbEntity
  8
ASSI
100
AcDbCircle
 62
253
  6
CONTINUOUS
 10
-0.0001540932
 20
-13.0000010489
 40
3.9646719033
100
AcDbArc
 50
89.9977731317
 51
270.0022268695
  0
ARC
  5
339
100
AcDbEntity
  8
RACCORDO
100
AcDbCircle
 62
253
  6
CONTINUOUS
 10
-0.0001540932
 20
-13.0000010489
 40
3.9646719033
100
AcDbArc
 50
89.9977731317
 51
270.0022268695
  0
ARC
  5
33A
100
AcDbEntity
  8
ASSI
100
AcDbCircle
 62
253
  6
CONTINUOUS
 10
-0.0000361092
 20
-12.9929419484
 40
3.7685669714
100
AcDbArc
 50
270.0005489894
 51
89.999451011
  0
ARC
  5
33B
100
AcDbEntity
  8
RACCORDO
100
AcDbCircle
 62
253
  6
CONTINUOUS
 10
-0.0000361092
 20
-12.9929419484
 40
3.7685669714
100
AcDbArc
 50
270.0005489894
 51
89.999451011
  0
ARC
  5
33C
100
AcDbEntity
  8
ASSI
100
AcDbCircle
 62
7
  6
CONTINUOUS
 10
-0.0001044628
 20
-12.9803899579
 40
3.7126740357
100
AcDbArc
 50
270.0016121667
 51
89.9983879442
  0
ARC
  5
33D
100
AcDbEntity
  8
DRAFT
100
AcDbCircle
 62
7
  6
CONTINUOUS
 10
-0.0001044628
 20
-12.9803899579
 40
3.7126740357
100
AcDbArc
 50
270.0016121667
 51
89.9983879442
  0
ARC
  5
33E
100
AcDbEntity
  8
ASSI
100
AcDbCircle
 62
7
  6
CONTINUOUS
 10
-11.9
 20
-7.5
 40
2.0
100
AcDbArc
 50
0.0
 51
49.4583981265
  0
ARC
  5
33F
100
AcDbEntity
  8
0
100
AcDbCircle
 62
7
  6
CONTINUOUS
 10
-11.9
 20
-7.5
 40
2.0
100
AcDbArc
 50
0.0
 51
49.4583981265
  0
ARC
  5
340
100
AcDbEntity
  8
ASSI
100
AcDbCircle
 62
7
  6
CONTINUOUS
 10
-9.6
 20
-20.125
 40
0.3
100
AcDbArc
 50
180.0
 51
270.0
  0
ARC
  5
341
100
AcDbEntity
  8
ASSI
100
AcDbCircle
 62
7
  6
CONTINUOUS
 10
-11.9
 20
7.5
 40
2.0
100
AcDbArc
 50
310.5416018735
 51
360.0
  0
ARC
  5
342
100
AcDbEntity
  8
0
100
AcDbCircle
 62
7
  6
CONTINUOUS
 10
-11.9
 20
7.5
 40
2.0
100
AcDbArc
 50
310.5416018735
 51
360.0
  0
ARC
  5
343
100
AcDbEntity
  8
ASSI
100
AcDbCircle
 62
7
  6
CONTINUOUS
 10
-5.0
 20
18.9
 40
0.4
100
AcDbArc
 50
180.0
 51
360.0
  0
ARC
  5
344
100
AcDbEntity
  8
RACCORDO
100
AcDbCircle
 62
7
  6
CONTINUOUS
 10
-5.0
 20
18.9
 40
0.4
100
AcDbArc
 50
180.0
 51
360.0
  0
ARC
  5
345
100
AcDbEntity
  8
ASSI
100
AcDbCircle
 62
253
  6
CONTINUOUS
 10
-5.0
 20
18.9
 40
0.38819588
100
AcDbArc
 50
180.0
 51
360.0
  0
ARC
  5
346
100
AcDbEntity
  8
RACCORDO
100
AcDbCircle
 62
253
  6
CONTINUOUS
 10
-5.0
 20
18.9
 40
0.38819588
100
AcDbArc
 50
180.0
 51
360.0
  0
ARC
  5
347
100
AcDbEntity
  8
ASSI
100
AcDbCircle
 62
7
  6
CONTINUOUS
 10
-9.6
 20
20.125
 40
0.3
100
AcDbArc
 50
90.0
 51
180.0
  0
ARC
  5
348
100
AcDbEntity
  8
ASSI
100
AcDbCircle
 62
253
  6
CONTINUOUS
 10
-5.0
 20
18.9000081891
 40
0.0882077953
100
AcDbArc
 50
180.0053193124
 51
359.9946806876
  0
ARC
  5
349
100
AcDbEntity
  8
RACCORDO
100
AcDbCircle
 62
253
  6
CONTINUOUS
 10
-5.0
 20
18.9000081891
 40
0.0882077953
100
AcDbArc
 50
180.0053193124
 51
359.9946806876
  0
CIRCLE
  5
34A
100
AcDbEntity
  8
ASSI
100
AcDbCircle
 62
253
  6
CONTINUOUS
 10
0.0000095989
 20
-12.9929407168
 40
4.4314189977
  0
CIRCLE
  5
34B
100
AcDbEntity
  8
RACCORDO
100
AcDbCircle
 62
253
  6
CONTINUOUS
 10
0.0000095989
 20
-12.9929407168
 40
4.4314189977
  0
ARC
  5
34C
100
AcDbEntity
  8
ASSI
100
AcDbCircle
 62
253
  6
CONTINUOUS
 10
0.0001879627
 20
-13.0
 40
4.2353092355
100
AcDbArc
 50
90.0025427936
 51
269.9974572064
  0
ARC
  5
34D
100
AcDbEntity
  8
RACCORDO
100
AcDbCircle
 62
253
  6
CONTINUOUS
 10
0.0001879627
 20
-13.0
 40
4.2353092355
100
AcDbArc
 50
90.0025427936
 51
269.9974572064
  0
ARC
  5
34E
100
AcDbEntity
  8
ASSI
100
AcDbCircle
 62
253
  6
CONTINUOUS
 10
0.0001538414
 20
-13.0
 40
3.964672805
100
AcDbArc
 50
269.9977767698
 51
90.0022232302
  0
ARC
  5
34F
100
AcDbEntity
  8
RACCORDO
100
AcDbCircle
 62
253
  6
CONTINUOUS
 10
0.0001538414
 20
-13.0
 40
3.964672805
100
AcDbArc
 50
269.9977767698
 51
90.0022232302
  0
ARC
  5
350
100
AcDbEntity
  8
ASSI
100
AcDbCircle
 62
253
  6
CONTINUOUS
 10
0.0000423632
 20
-12.9929407168
 40
3.7685717818
100
AcDbArc
 50
90.0006440724
 51
269.9993559276
  0
ARC
  5
351
100
AcDbEntity
  8
RACCORDO
100
AcDbCircle
 62
253
  6
CONTINUOUS
 10
0.0000423632
 20
-12.9929407168
 40
3.7685717818
100
AcDbArc
 50
90.0006440724
 51
269.9993559276
  0
ARC
  5
352
100
AcDbEntity
  8
ASSI
100
AcDbCircle
 62
7
  6
CONTINUOUS
 10
0.0001042976
 20
-12.9803899579
 40
3.7126738085
100
AcDbArc
 50
90.0016096176
 51
269.9983904934
  0
ARC
  5
353
100
AcDbEntity
  8
DRAFT
100
AcDbCircle
 62
7
  6
CONTINUOUS
 10
0.0001042976
 20
-12.9803899579
 40
3.7126738085
100
AcDbArc
 50
90.0016096176
 51
269.9983904934
  0
ARC
  5
354
100
AcDbEntity
  8
ASSI
100
AcDbCircle
 62
7
  6
CONTINUOUS
 10
11.9
 20
-7.5
 40
2.0
100
AcDbArc
 50
130.5416018735
 51
180.0
  0
ARC
  5
355
100
AcDbEntity
  8
0
100
AcDbCircle
 62
7
  6
CONTINUOUS
 10
11.9
 20
-7.5
 40
2.0
100
AcDbArc
 50
130.5416018735
 51
180.0
  0
ARC
  5
356
100
AcDbEntity
  8
ASSI
100
AcDbCircle
 62
7
  6
CONTINUOUS
 10
0.1749111918
 20
-1.0470235275
 40
0.6114298277
100
AcDbArc
 50
157.5718668353
 51
159.895895345
  0
ARC
  5
357
100
AcDbEntity
  8
ASSI
100
AcDbCircle
 62
7
  6
CONTINUOUS
 10
9.6
 20
-20.125
 40
0.3
100
AcDbArc
 50
270.0
 51
360.0
  0
ARC
  5
358
100
AcDbEntity
  8
ASSI
100
AcDbCircle
 62
7
  6
CONTINUOUS
 10
11.9
 20
7.5
 40
2.0
100
AcDbArc
 50
180.0
 51
229.4583981265
  0
ARC
  5
359
100
AcDbEntity
  8
0
100
AcDbCircle
 62
7
  6
CONTINUOUS
 10
11.9
 20
7.5
 40
2.0
100
AcDbArc
 50
180.0
 51
229.4583981265
  0
ARC
  5
35A
100
AcDbEntity
  8
ASSI
100
AcDbCircle
 62
7
  6
CONTINUOUS
 10
4.498725
 20
8.183343
 40
0.7667158029
100
AcDbArc
 50
292.8428449664
 51
89.9987108403
  0
ARC
  5
35B
100
AcDbEntity
  8
ASSI
100
AcDbCircle
 62
7
  6
CONTINUOUS
 10
5.0
 20
18.9
 40
0.4
100
AcDbArc
 50
180.0
 51
360.0
  0
ARC
  5
35C
100
AcDbEntity
  8
RACCORDO
100
AcDbCircle
 62
7
  6
CONTINUOUS
 10
5.0
 20
18.9
 40
0.4
100
AcDbArc
 50
180.0
 51
360.0
  0
ARC
  5
35D
100
AcDbEntity
  8
ASSI
100
AcDbCircle
 62
253
  6
CONTINUOUS
 10
5.0
 20
18.9
 40
0.38819588
100
AcDbArc
 50
180.0
 51
360.0
  0
ARC
  5
35E
100
AcDbEntity
  8
RACCORDO
100
AcDbCircle
 62
253
  6
CONTINUOUS
 10
5.0
 20
18.9
 40
0.38819588
100
AcDbArc
 50
180.0
 51
360.0
  0
ARC
  5
35F
100
AcDbEntity
  8
ASSI
100
AcDbCircle
 62
7
  6
CONTINUOUS
 10
4.429323
 20
8.183343
 40
0.304195
100
AcDbArc
 50
270.0018938328
 51
90.0
  0
ARC
  5
360
100
AcDbEntity
  8
ASSI
100
AcDbCircle
 62
7
  6
CONTINUOUS
 10
9.6
 20
20.125
 40
0.3
100
AcDbArc
 50
0.0
 51
90.0
  0
ARC
  5
361
100
AcDbEntity
  8
ASSI
100
AcDbCircle
 62
253
  6
CONTINUOUS
 10
5.0
 20
18.9000081891
 40
0.0882077953
100
AcDbArc
 50
180.0053193124
 51
359.9946806876
  0
ARC
  5
362
100
AcDbEntity
  8
RACCORDO
100
AcDbCircle
 62
253
  6
CONTINUOUS
 10
5.0
 20
18.9000081891
 40
0.0882077953
100
AcDbArc
 50
180.0053193124
 51
359.9946806876
  0
SPLINE
  5
363
100
AcDbEntity
  8
ASSI
100
AcDbSpline
 62
7
  6
CONTINUOUS
 70
0
 71
3
 72
132
 73
128
 74
126
 42
0.0000001
 43
0.0000001
 44
0.0000000001
 12
-0.7481420107
 22
-2.2002889765
 32
0.0
 13
0.8867884352
 23
2.1482888978
 33
0.0
 40
0.0
 40
0.0
 40
0.0
 40
0.0
 40
0.0340279917
 40
0.0505196669
 40
0.0667594679
 40
0.0828288568
 40
0.090827183
 40
0.0988145747
 40
0.1028076826
 40
0.1068020726
 40
0.1107990825
 40
0.1127990081
 40
0.1148000892
 40
0.1168091994
 40
0.1178403394
 40
0.1188705153
 40
0.1209275041
 40
0.1229826999
 40
0.1311773178
 40
0.1393588938
 40
0.1475576355
 40
0.1641188913
 40
0.1811011981
 40
0.1987204599
 40
0.2078331302
 40
0.2171755057
 40
0.2267678962
 40
0.2316640458
 40
0.2366296065
 40
0.2391391121
 40
0.2416516491
 40
0.2441079855
 40
0.2465474305
 40
0.2513766423
 40
0.2561415327
 40
0.2654869274
 40
0.274603449
 40
0.2835118609
 40
0.2922344131
 40
0.3092116742
 40
0.3257463314
 40
0.3339202286
 40
0.3420677041
 40
0.3502178201
 40
0.3543034017
 40
0.3584005084
 40
0.3604545572
 40
0.362512824
 40
0.3635436838
 40
0.3645602637
 40
0.36657711
 40
0.3706051779
 40
0.3746269701
 40
0.382656996
 40
0.3906788254
 40
0.4067403486
 40
0.4229045497
 40
0.4392599121
 40
0.447537417
 40
0.4558944096
 40
0.4643409051
 40
0.4728866043
 40
0.4771997382
 40
0.4815620265
 40
0.4837861719
 40
0.4860115453
 40
0.4904661024
 40
0.4949259752
 40
0.4993914318
 40
0.5083400974
 40
0.5263155899
 40
0.5444099462
 40
0.5626396044
 40
0.58102064
 40
0.590273081
 40
0.5949155958
 40
0.5995692707
 40
0.6042343417
 40
0.6065712277
 40
0.6089110504
 40
0.610078299
 40
0.6112148558
 40
0.6134833348
 40
0.618001773
 40
0.626964719
 40
0.6358294075
 40
0.6445962111
 40
0.6532655151
 40
0.6703131265
 40
0.6869756937
 40
0.7032568087
 40
0.7112555776
 40
0.719160451
 40
0.7269719546
 40
0.7308457009
 40
0.7347359323
 40
0.7426000696
 40
0.7505762381
 40
0.7668665739
 40
0.783610915
 40
0.800812802
 40
0.8184755002
 40
0.8274806495
 40
0.8366021129
 40
0.84120708
 40
0.8458402443
 40
0.8481680437
 40
0.8505031597
 40
0.855144276
 40
0.8597681735
 40
0.8643790602
 40
0.8735627057
 40
0.8917840969
 40
0.9098249779
 40
0.9277018174
 40
0.9454315416
 40
0.9630315006
 40
0.9717886284
 40
0.9739755945
 40
0.9761574432
 40
0.97833952
 40
0.9805490919
 40
0.9827563876
 40
0.9849545059
 40
0.9893319028
 40
0.9980070081
 40
1.0
 40
1.0
 40
1.0
 40
1.0
 10
0.4071908398
 20
-2.0020100925
 30
0.0
 10
0.3987049164
 20
-2.0269672309
 30
0.0
 10
0.3838534318
 20
-2.0633325236
 30
0.0
 10
0.3594883248
 20
-2.108984937
 30
0.0
 10
0.3393842541
 20
-2.1410393734
 30
0.0
 10
0.3209189793
 20
-2.1662559129
 30
0.0
 10
0.3051699244
 20
-2.185460644
 30
0.0
 10
0.2949219983
 20
-2.1970639896
 30
0.0
 10
0.2864777951
 20
-2.2061113885
 30
0.0
 10
0.2800193784
 20
-2.2127815766
 30
0.0
 10
0.2745348889
 20
-2.2182437009
 30
0.0
 10
0.2700838731
 20
-2.2225538077
 30
0.0
 10
0.2667137373
 20
-2.2257662847
 30
0.0
 10
0.2638495519
 20
-2.2284213053
 30
0.0
 10
0.2615695834
 20
-2.2305995896
 30
0.0
 10
0.2592364677
 20
-2.2327755938
 30
0.0
 10
0.2562947169
 20
-2.2354619606
 30
0.0
 10
0.2491614013
 20
-2.2417873132
 30
0.0
 10
0.2381172199
 20
-2.2508524076
 30
0.0
 10
0.222687189
 20
-2.2620231337
 30
0.0
 10
0.2011342931
 20
-2.275711034
 30
0.0
 10
0.1723002959
 20
-2.290532873
 30
0.0
 10
0.1351037597
 20
-2.3044514719
 30
0.0
 10
0.1022160353
 20
-2.3128014429
 30
0.0
 10
0.0746849089
 20
-2.3176449115
 30
0.0
 10
0.0531223834
 20
-2.3203836982
 30
0.0
 10
0.0347154131
 20
-2.3218762703
 30
0.0
 10
0.0196620702
 20
-2.32261243
 30
0.0
 10
0.0100814525
 20
-2.322880301
 30
0.0
 10
0.0023449099
 20
-2.322978757
 30
0.0
 10
-0.0034484256
 20
-2.3229952051
 30
0.0
 10
-0.0091873615
 20
-2.322953193
 30
0.0
 10
-0.0167199217
 20
-2.3228198937
 30
0.0
 10
-0.0260375424
 20
-2.3225089353
 30
0.0
 10
-0.0406881191
 20
-2.321703656
 30
0.0
 10
-0.0586184297
 20
-2.3201238253
 30
0.0
 10
-0.0796376256
 20
-2.3172804275
 30
0.0
 10
-0.1000198044
 20
-2.3135010164
 30
0.0
 10
-0.1261056669
 20
-2.3072714434
 30
0.0
 10
-0.1572941224
 20
-2.2971583768
 30
0.0
 10
-0.186751556
 20
-2.2837357519
 30
0.0
 10
-0.2088923136
 20
-2.2711550615
 30
0.0
 10
-0.22479651
 20
-2.2608173182
 30
0.0
 10
-0.2375052039
 20
-2.2514289691
 30
0.0
 10
-0.2473369016
 20
-2.2434628014
 30
0.0
 10
-0.253349865
 20
-2.2382905495
 30
0.0
 10
-0.258075936
 20
-2.2340349933
 30
0.0
 10
-0.2610036708
 20
-2.2313323053
 30
0.0
 10
-0.2633027603
 20
-2.2291344311
 30
0.0
 10
-0.2656139044
 20
-2.226996238
 30
0.0
 10
-0.2696293289
 20
-2.2232813147
 30
0.0
 10
-0.2752660291
 20
-2.2178913377
 30
0.0
 10
-0.2841148955
 20
-2.2091234921
 30
0.0
 10
-0.2948498661
 20
-2.1978670472
 30
0.0
 10
-0.3113352286
 20
-2.1792300698
 30
0.0
 10
-0.33066085
 20
-2.1547223002
 30
0.0
 10
-0.3517091529
 20
-2.1234848199
 30
0.0
 10
-0.3674141979
 20
-2.0960242908
 30
0.0
 10
-0.3789050214
 20
-2.0731924449
 30
0.0
 10
-0.3870290899
 20
-2.0555384896
 30
0.0
 10
-0.3946242421
 20
-2.0374255867
 30
0.0
 10
-0.4004917163
 20
-2.0219958141
 30
0.0
 10
-0.4049327783
 20
-2.0094154571
 30
0.0
 10
-0.4076017531
 20
-2.0014045706
 30
0.0
 10
-0.4097363498
 20
-1.9949207022
 30
0.0
 10
-0.4118652106
 20
-1.9883597157
 30
0.0
 10
-0.4144815519
 20
-1.9801361505
 30
0.0
 10
-0.4175468651
 20
-1.9702347104
 30
0.0
 10
-0.421539357
 20
-1.9569762597
 30
0.0
 10
-0.4282805411
 20
-1.9336119427
 30
0.0
 10
-0.4371738875
 20
-1.8998844805
 30
0.0
 10
-0.4466606243
 20
-1.8588977301
 30
0.0
 10
-0.4549780113
 20
-1.8173374615
 30
0.0
 10
-0.4609214718
 20
-1.7823039062
 30
0.0
 10
-0.4645685323
 20
-1.7575673993
 30
0.0
 10
-0.4665115082
 20
-1.7433302298
 30
0.0
 10
-0.4678975436
 20
-1.732603982
 30
0.0
 10
-0.468990681
 20
-1.7236410809
 30
0.0
 10
-0.4698295554
 20
-1.7164530712
 30
0.0
 10
-0.4703366056
 20
-1.7119544392
 30
0.0
 10
-0.4707343471
 20
-1.7083791966
 30
0.0
 10
-0.4710911032
 20
-1.704855182
 30
0.0
 10
-0.4717168791
 20
-1.6987491198
 30
0.0
 10
-0.4729222615
 20
-1.6866078649
 30
0.0
 10
-0.4745570001
 20
-1.6693743397
 30
0.0
 10
-0.4763687399
 20
-1.6488521615
 30
0.0
 10
-0.4780280175
 20
-1.6285453096
 30
0.0
 10
-0.4800248375
 20
-1.6019064674
 30
0.0
 10
-0.4821442874
 20
-1.5691437693
 30
0.0
 10
-0.4840900236
 20
-1.5304647281
 30
0.0
 10
-0.4852078496
 20
-1.4987662616
 30
0.0
 10
-0.4857907686
 20
-1.4738403657
 30
0.0
 10
-0.486072295
 20
-1.4554709634
 30
0.0
 10
-0.4861797335
 20
-1.4402953203
 30
0.0
 10
-0.4861883404
 20
-1.4282294715
 30
0.0
 10
-0.4861454153
 20
-1.4161229236
 30
0.0
 10
-0.4859951792
 20
-1.4008388597
 30
0.0
 10
-0.4855483856
 20
-1.3759520846
 30
0.0
 10
-0.4845995314
 20
-1.3441951056
 30
0.0
 10
-0.4828567485
 20
-1.3053161847
 30
0.0
 10
-0.4805020361
 20
-1.2654045755
 30
0.0
 10
-0.4780457059
 20
-1.2315079628
 30
0.0
 10
-0.47578051
 20
-1.2038756947
 30
0.0
 10
-0.4742314306
 20
-1.1863344201
 30
0.0
 10
-0.4729198286
 20
-1.1721724364
 30
0.0
 10
-0.4720649057
 20
-1.1632535313
 30
0.0
 10
-0.4713585857
 20
-1.1560869089
 30
0.0
 10
-0.470661185
 20
-1.1489130826
 30
0.0
 10
-0.4696272671
 20
-1.1399860589
 30
0.0
 10
-0.4683447999
 20
-1.1293136921
 30
0.0
 10
-0.4665297539
 20
-1.1151612615
 30
0.0
 10
-0.4631127113
 20
-1.0905953732
 30
0.0
 10
-0.4574956886
 20
-1.0558351903
 30
0.0
 10
-0.4495689452
 20
-1.014644966
 30
0.0
 10
-0.4404731778
 20
-0.9740867433
 30
0.0
 10
-0.4302053062
 20
-0.9341621818
 30
0.0
 10
-0.4206667017
 20
-0.9013619045
 30
0.0
 10
-0.4139684973
 20
-0.8802878622
 30
0.0
 10
-0.4108070598
 20
-0.8706235505
 30
0.0
 10
-0.4092024245
 20
-0.8658091331
 30
0.0
 10
-0.4075550193
 20
-0.8609905729
 30
0.0
 10
-0.4059833523
 20
-0.8561260521
 30
0.0
 10
-0.4043567
 20
-0.8512665844
 30
0.0
 10
-0.4021397815
 20
-0.8448340677
 30
0.0
 10
-0.3981687376
 20
-0.833706859
 30
0.0
 10
-0.393982625
 20
-0.822826863
 30
0.0
 10
-0.3908584771
 20
-0.815175366
 30
0.0
 10
-0.3902693564
 20
-0.8137481919
 30
0.0
 11
0.4071908398
 21
-2.0020100925
 31
0.0
 11
0.3770710263
 21
-2.0751307031
 31
0.0
 11
0.3590059219
 21
-2.1089328867
 31
0.0
 11
0.3389373524
 21
-2.1408963226
 31
0.0
 11
0.3168653178
 21
-2.1710210107
 31
0.0
 11
0.3050780012
 21
-2.1853938244
 31
0.0
 11
0.2927898182
 21
-2.1993069511
 31
0.0
 11
0.2864579019
 21
-2.2060911318
 31
0.0
 11
0.280000769
 21
-2.2127603908
 31
0.0
 11
0.2734184195
 21
-2.2193147281
 31
0.0
 11
0.2700802886
 21
-2.2225488011
 31
0.0
 11
0.2667108535
 21
-2.2257541437
 31
0.0
 11
0.2633045628
 21
-2.228947637
 31
0.0
 11
0.2615657457
 21
-2.2305966108
 31
0.0
 11
0.259816277
 21
-2.2322309991
 31
0.0
 11
0.2562859109
 21
-2.2354542259
 31
0.0
 11
0.2527118873
 21
-2.2386226969
 31
0.0
 11
0.2379918347
 21
-2.2507059878
 31
0.0
 11
0.2225900845
 21
-2.2618558055
 31
0.0
 11
0.2065066369
 21
-2.2720721502
 31
0.0
 11
0.1722946493
 21
-2.2897044201
 31
0.0
 11
0.1353558717
 21
-2.3036027976
 31
0.0
 11
0.0956903042
 21
-2.3137672826
 31
0.0
 11
0.0748349742
 21
-2.3174493155
 31
0.0
 11
0.0532979468
 21
-2.3201978752
 31
0.0
 11
0.0310792218
 21
-2.3220129618
 31
0.0
 11
0.0197142228
 21
-2.3225704527
 31
0.0
 11
0.0081787994
 21
-2.3228945753
 31
0.0
 11
0.0023471786
 21
-2.3229691235
 31
0.0
 11
-0.0034919415
 21
-2.3229853296
 31
0.0
 11
-0.0092003181
 21
-2.3229431937
 31
0.0
 11
-0.0148687043
 21
-2.3228427157
 31
0.0
 11
-0.0260855054
 21
-2.3224667334
 31
0.0
 11
-0.0371423449
 21
-2.3218573829
 31
0.0
 11
-0.058776139
 21
-2.3199385771
 31
0.0
 11
-0.0797700866
 21
-2.3170862981
 31
0.0
 11
-0.1001241877
 21
-2.3133005461
 31
0.0
 11
-0.1198384422
 21
-2.3085813209
 31
0.0
 11
-0.1573474118
 21
-2.2963424512
 31
0.0
 11
-0.1922969952
 21
-2.280369689
 31
0.0
 11
-0.2088120171
 21
-2.2709830982
 31
0.0
 11
-0.2246871925
 21
-2.2606630343
 31
0.0
 11
-0.2399225214
 21
-2.2494094974
 31
0.0
 11
-0.2473002434
 21
-2.2434326764
 31
0.0
 11
-0.2545180037
 21
-2.2372224872
 31
0.0
 11
-0.2580668983
 21
-2.2340298795
 31
0.0
 11
-0.2615758025
 21
-2.2307789298
 31
0.0
 11
-0.2633152581
 21
-2.2291315766
 31
0.0
 11
-0.2650451024
 21
-2.2275224751
 31
0.0
 11
-0.2684798189
 21
-2.2243330939
 31
0.0
 11
-0.2752501362
 21
-2.2178681402
 31
0.0
 11
-0.2818882991
 21
-2.2112882648
 31
0.0
 11
-0.2947681616
 21
-2.1977837487
 31
0.0
 11
-0.3071194066
 21
-2.1838195457
 31
0.0
 11
-0.3302360439
 21
-2.1545120788
 31
0.0
 11
-0.351238211
 21
-2.1233658641
 31
0.0
 11
-0.3701259078
 21
-2.0903809017
 31
0.0
 11
-0.3787768299
 21
-2.0731988901
 31
0.0
 11
-0.3868991344
 21
-2.0555571915
 31
0.0
 11
-0.3944928214
 21
-2.037455806
 31
0.0
 11
-0.4015578908
 21
-2.0188947336
 31
0.0
 11
-0.4048921939
 21
-2.0094418147
 31
0.0
 11
-0.4081177298
 21
-1.9998306577
 31
0.0
 11
-0.4097325453
 21
-1.9949204539
 31
0.0
 11
-0.4113291071
 21
-1.9900012841
 31
0.0
 11
-0.4144674694
 21
-1.9801360465
 31
0.0
 11
-0.4175328167
 21
-1.9702349449
 31
0.0
 11
-0.4205251489
 21
-1.9602979792
 31
0.0
 11
-0.4262907682
 21
-1.9403164558
 31
0.0
 11
-0.4369458262
 21
-1.8999230407
 31
0.0
 11
-0.4464326435
 21
-1.858955801
 31
0.0
 11
-0.4547512201
 21
-1.8174147369
 31
0.0
 11
-0.4619015559
 21
-1.7752998482
 31
0.0
 11
-0.4650386336
 21
-1.7540272197
 31
0.0
 11
-0.4664976499
 21
-1.7433371094
 31
0.0
 11
-0.4678836511
 21
-1.7326111351
 31
0.0
 11
-0.4691966373
 21
-1.7218492968
 31
0.0
 11
-0.4698257497
 21
-1.7164549286
 31
0.0
 11
-0.4704366084
 21
-1.7110515944
 31
0.0
 11
-0.4707324651
 21
-1.7083550874
 31
0.0
 11
-0.4710031451
 21
-1.7057276325
 31
0.0
 11
-0.4715373295
 21
-1.7004828146
 31
0.0
 11
-0.4725769958
 21
-1.6900335468
 31
0.0
 11
-0.4745415187
 21
-1.6692964836
 31
0.0
 11
-0.4763529619
 21
-1.6487747168
 31
0.0
 11
-0.4780113254
 21
-1.6284682465
 31
0.0
 11
-0.4795166091
 21
-1.6083770725
 31
0.0
 11
-0.4820679375
 21
-1.5688406138
 31
0.0
 11
-0.4840069471
 21
-1.5301653408
 31
0.0
 11
-0.4853336379
 21
-1.4923512534
 31
0.0
 11
-0.4857673637
 21
-1.4737671544
 31
0.0
 11
-0.4860480099
 21
-1.4553983517
 31
0.0
 11
-0.4861755763
 21
-1.4372448455
 31
0.0
 11
-0.4861819546
 21
-1.4282422512
 31
0.0
 11
-0.486150063
 21
-1.4192013995
 31
0.0
 11
-0.48597147
 21
-1.4009259967
 31
0.0
 11
-0.4856397973
 21
-1.3823923279
 31
0.0
 11
-0.4845172128
 21
-1.3445501924
 31
0.0
 11
-0.4827823095
 21
-1.3056749932
 31
0.0
 11
-0.4804350873
 21
-1.26576673
 31
0.0
 11
-0.4774755464
 21
-1.2248254031
 31
0.0
 11
-0.4757661564
 21
-1.2039673407
 31
0.0
 11
-0.4739036866
 21
-1.1828510124
 31
0.0
 11
-0.4729161554
 21
-1.1721947169
 31
0.0
 11
-0.4718881372
 21
-1.1614764181
 31
0.0
 11
-0.4713603311
 21
-1.1560924154
 31
0.0
 11
-0.4708229575
 21
-1.1506922712
 31
0.0
 11
-0.4696180738
 21
-1.139973814
 31
0.0
 11
-0.4683294259
 21
-1.129305411
 31
0.0
 11
-0.4669677631
 21
-1.1186765648
 31
0.0
 11
-0.4640253922
 21
-1.0975375428
 31
0.0
 11
-0.4572644699
 21
-1.0557341805
 31
0.0
 11
-0.4493353069
 21
-1.014563727
 31
0.0
 11
-0.4402379031
 21
-0.9740261822
 31
0.0
 11
-0.4299722587
 21
-0.9341215463
 31
0.0
 11
-0.4185383735
 21
-0.8948498192
 31
0.0
 11
-0.4123833407
 21
-0.8754512965
 31
0.0
 11
-0.4108013442
 21
-0.8706212607
 31
0.0
 11
-0.4091963017
 21
-0.8658113703
 31
0.0
 11
-0.4075754015
 21
-0.861006241
 31
0.0
 11
-0.4059742606
 21
-0.8561271944
 31
0.0
 11
-0.4043472419
 21
-0.851262294
 31
0.0
 11
-0.402684009
 21
-0.846432207
 31
0.0
 11
-0.3992616029
 21
-0.8368520854
 31
0.0
 11
-0.3920203277
 21
-0.8180364395
 31
0.0
 11
-0.3902693564
 21
-0.8137481919
 31
0.0
  0
SPLINE
  5
364
100
AcDbEntity
  8
ASSI
100
AcDbSpline
 62
7
  6
CONTINUOUS
 70
0
 71
3
 72
12
 73
8
 74
6
 42
0.0000001
 43
0.0000001
 44
0.0000000001
 12
0.0862960581
 22
0.2090564741
 32
0.0
 13
0.1644611395
 23
0.1552383199
 33
0.0
 40
0.0
 40
0.0
 40
0.0
 40
0.0
 40
0.0676577505
 40
0.1548856372
 40
0.3269934433
 40
0.664700823
 40
1.0
 40
1.0
 40
1.0
 40
1.0
 10
-0.3902693564
 20
-0.8137481919
 30
0.0
 10
-0.3883231573
 20
-0.8090334283
 30
0.0
 10
-0.3837310594
 20
-0.7982966792
 30
0.0
 10
-0.3733630496
 20
-0.7759276858
 30
0.0
 10
-0.3523483357
 20
-0.7360899634
 30
0.0
 10
-0.316666652
 20
-0.6830289216
 30
0.0
 10
-0.2822740832
 20
-0.6454372404
 30
0.0
 10
-0.263892855
 20
-0.6280868134
 30
0.0
 11
-0.3902693564
 21
-0.8137481919
 31
0.0
 11
-0.3842504348
 21
-0.7996802567
 31
0.0
 11
-0.3759519245
 21
-0.7817835371
 31
0.0
 11
-0.357769051
 21
-0.7473684873
 31
0.0
 11
-0.3150598935
 21
-0.6840519453
 31
0.0
 11
-0.263892855
 21
-0.6280868134
 31
0.0
  0
SPLINE
  5
365
100
AcDbEntity
  8
ASSI
100
AcDbSpline
 62
7
  6
CONTINUOUS
 70
0
 71
3
 72
25
 73
21
 74
19
 42
0.0000001
 43
0.0000001
 44
0.0000000001
 12
-14.5603451243
 22
0.0
 32
0.0
 13
14.5603451243
 23
0.0
 33
0.0
 40
0.0
 40
0.0
 40
0.0
 40
0.0
 40
0.062491574
 40
0.1249796028
 40
0.1874720071
 40
0.2499612237
 40
0.2812443314
 40
0.3125284361
 40
0.3750179919
 40
0.4375099369
 40
0.5000002627
 40
0.5624913621
 40
0.6249827036
 40
0.6874726143
 40
0.7187565856
 40
0.7500397214
 40
0.8125287507
 40
0.8750212855
 40
0.9375087968
 40
1.0
 40
1.0
 40
1.0
 40
1.0
 10
0.0000000055
 20
-17.5533505824
 30
0.0
 10
-0.3032996227
 20
-17.5533505824
 30
0.0
 10
-0.9115150217
 20
-17.4930283403
 30
0.0
 10
-1.7875165476
 20
-17.2268793875
 30
0.0
 10
-2.5944073148
 20
-16.793936574
 30
0.0
 10
-3.1842408694
 20
-16.3088088419
 30
0.0
 10
-3.5915652042
 20
-15.8576799572
 30
0.0
 10
-3.9530290147
 20
-15.3690604632
 30
0.0
 10
-4.3124191625
 20
-14.6951729565
 30
0.0
 10
-4.5772917173
 20
-13.8187298802
 30
0.0
 10
-4.6669692542
 20
-12.9073831917
 30
0.0
 10
-4.5772963412
 20
-11.9960399311
 30
0.0
 10
-4.3124316433
 20
-11.1195895304
 30
0.0
 10
-3.9530219915
 20
-10.445716175
 30
0.0
 10
-3.5915800654
 20
-9.9570800733
 30
0.0
 10
-3.1842493736
 20
-9.5059543475
 30
0.0
 10
-2.594373547
 20
-9.0208925084
 30
0.0
 10
-1.7875365746
 20
-8.5878394187
 30
0.0
 10
-0.9114892193
 20
-8.3218627701
 30
0.0
 10
-0.3032978362
 20
-8.261414754
 30
0.0
 10
-0.0000000074
 20
-8.261414754
 30
0.0
 11
0.0000000055
 21
-17.5533505824
 31
0.0
 11
-0.9054763084
 21
-17.4637479858
 31
0.0
 11
-1.7759802231
 21
-17.1990878629
 31
0.0
 11
-2.5778746501
 21
-16.7690840143
 31
0.0
 11
-3.2804827513
 21
-16.190987679
 31
0.0
 11
-3.5858258761
 21
-15.8529946201
 31
0.0
 11
-3.8566696084
 21
-15.4867561332
 31
0.0
 11
-4.2847000379
 21
-14.683853614
 31
0.0
 11
-4.5480937097
 21
-13.8129060925
 31
0.0
 11
-4.6370776609
 21
-12.907387035
 31
0.0
 11
-4.5480977021
 21
-12.0018562661
 31
0.0
 11
-4.2847088446
 21
-11.1309164698
 31
0.0
 11
-3.8566701294
 21
-10.3280125099
 31
0.0
 11
-3.5858375016
 21
-9.9617682275
 31
0.0
 11
-3.2804901392
 21
-9.6237784465
 31
0.0
 11
-2.5778592013
 21
-9.0457141589
 31
0.0
 11
-1.7759805949
 21
-8.6156767881
 31
0.0
 11
-0.9054644008
 21
-8.351082968
 31
0.0
 11
-0.0000000074
 21
-8.261414754
 31
0.0
  0
SPLINE
  5
366
100
AcDbEntity
  8
ASSI
100
AcDbSpline
 62
7
  6
CONTINUOUS
 70
0
 71
3
 72
25
 73
21
 74
19
 42
0.0000001
 43
0.0000001
 44
0.0000000001
 12
14.560345176
 22
0.0
 32
0.0
 13
-14.560345176
 23
0.0
 33
0.0
 40
0.0
 40
0.0
 40
0.0
 40
0.0
 40
0.0624913169
 40
0.124978794
 40
0.1874711862
 40
0.2499600711
 40
0.2812431293
 40
0.3125270185
 40
0.3750168254
 40
0.4375080475
 40
0.4999991435
 40
0.5624894837
 40
0.6249815491
 40
0.6874712137
 40
0.7187553937
 40
0.7500385718
 40
0.8125279189
 40
0.8750204454
 40
0.9375085157
 40
1.0
 40
1.0
 40
1.0
 40
1.0
 10
-0.0000000074
 20
-8.261414754
 30
0.0
 10
0.303298374
 20
-8.261414754
 30
0.0
 10
0.9114901183
 20
-8.3218631186
 30
0.0
 10
1.7875372166
 20
-8.5878394459
 30
0.0
 10
2.5943727775
 20
-9.0208920376
 30
0.0
 10
3.1842468205
 20
-9.505953015
 30
0.0
 10
3.5915778235
 20
-9.9570764688
 30
0.0
 10
3.9530190456
 20
-10.445711555
 30
0.0
 10
4.3124283604
 20
-11.1195832887
 30
0.0
 10
4.5772948573
 20
-11.9960319256
 30
0.0
 10
4.6669695496
 20
-12.9073745911
 30
0.0
 10
4.5772928202
 20
-13.8187219142
 30
0.0
 10
4.3124226929
 20
-14.6951670151
 30
0.0
 10
3.9530317045
 20
-15.3690558894
 30
0.0
 10
3.5915675438
 20
-15.8576766031
 30
0.0
 10
3.1842433314
 20
-16.3088074342
 30
0.0
 10
2.5944082152
 20
-16.7939359055
 30
0.0
 10
1.7875162804
 20
-17.2268794618
 30
0.0
 10
0.9115143722
 20
-17.4930285447
 30
0.0
 10
0.3032991998
 20
-17.5533505824
 30
0.0
 10
0.0000000055
 20
-17.5533505824
 30
0.0
 11
-0.0000000074
 21
-8.261414754
 31
0.0
 11
0.9054660135
 21
-8.3510833595
 31
0.0
 11
1.7759817291
 21
-8.6156770575
 31
0.0
 11
2.5778584004
 21
-9.0457136494
 31
0.0
 11
3.280487843
 21
-9.6237764499
 31
0.0
 11
3.5858351326
 21
-9.9617647768
 31
0.0
 11
3.8566672718
 21
-10.3280079362
 31
0.0
 11
4.2847059203
 21
-11.1309102216
 31
0.0
 11
4.5480960893
 21
-12.0018478077
 31
0.0
 11
4.6370777936
 21
-12.907378358
 31
0.0
 11
4.5480951981
 21
-13.8128977638
 31
0.0
 11
4.2847030064
 21
-14.6838475663
 31
0.0
 11
3.8566723212
 21
-15.4867517501
 31
0.0
 11
3.585828267
 21
-15.852991364
 31
0.0
 11
3.2804850332
 21
-16.1909857081
 31
0.0
 11
2.5778755682
 21
-16.7690833814
 31
0.0
 11
1.7759795563
 21
-17.1990880448
 31
0.0
 11
0.9054750398
 21
-17.4637482768
 31
0.0
 11
0.0000000055
 21
-17.5533505824
 31
0.0
  0
SPLINE
  5
367
100
AcDbEntity
  8
ASSI
100
AcDbSpline
 62
7
  6
CONTINUOUS
 70
0
 71
3
 72
130
 73
126
 74
124
 42
0.0000001
 43
0.0000001
 44
0.0000000001
 12
-2.8939439327
 22
-0.0395457295
 32
0.0
 13
2.8939433551
 23
-0.0395879814
 33
0.0
 40
0.0
 40
0.0
 40
0.0
 40
0.0
 40
0.0351420869
 40
0.067714852
 40
0.083249155
 40
0.0983983501
 40
0.105861731
 40
0.1132675191
 40
0.1169532758
 40
0.120629762
 40
0.124298717
 40
0.1261309444
 40
0.127046588
 40
0.1279619528
 40
0.1288843526
 40
0.1298060496
 40
0.1316473914
 40
0.135322274
 40
0.138987605
 40
0.1426443628
 40
0.1499358571
 40
0.157204954
 40
0.1717060833
 40
0.1862143914
 40
0.2007944252
 40
0.2155097877
 40
0.2304223506
 40
0.2379721691
 40
0.2417735048
 40
0.2455935572
 40
0.2475231147
 40
0.2494534385
 40
0.2533165119
 40
0.2610532714
 40
0.2688060614
 40
0.2765770183
 40
0.2921813777
 40
0.307883648
 40
0.3396434067
 40
0.3476710477
 40
0.35573716
 40
0.3638436408
 40
0.3679126334
 40
0.3699511653
 40
0.3719924235
 40
0.3740626552
 40
0.3761307522
 40
0.3802605783
 40
0.3843819821
 40
0.3884950423
 40
0.3966964278
 40
0.4048653918
 40
0.421108479
 40
0.437229715
 40
0.4532344708
 40
0.4691282351
 40
0.4770353315
 40
0.4849167914
 40
0.4888481433
 40
0.4927733559
 40
0.4966925203
 40
0.4986498643
 40
0.4996279815
 40
0.5006057308
 40
0.501552259
 40
0.5024992775
 40
0.5043947909
 40
0.5081917625
 40
0.5119967426
 40
0.5158098245
 40
0.5234606401
 40
0.5311449659
 40
0.5388635256
 40
0.5466170333
 40
0.5622315291
 40
0.5779941516
 40
0.5939102675
 40
0.6019276002
 40
0.6099852481
 40
0.6180838388
 40
0.6221486909
 40
0.6241850384
 40
0.6262240121
 40
0.6282959246
 40
0.6303646076
 40
0.6344923923
 40
0.6386076045
 40
0.6427104776
 40
0.6508800899
 40
0.6590031958
 40
0.6751171871
 40
0.6910688437
 40
0.7068745667
 40
0.7225512155
 40
0.730346796
 40
0.7381166206
 40
0.7458629071
 40
0.7497279575
 40
0.7535879642
 40
0.7574074052
 40
0.7612080897
 40
0.768756481
 40
0.7836656568
 40
0.7983768527
 40
0.8129518687
 40
0.8274542457
 40
0.8419484799
 40
0.8492137551
 40
0.8565011735
 40
0.8638186842
 40
0.8674913035
 40
0.8693314895
 40
0.8711744104
 40
0.8730493889
 40
0.8749241678
 40
0.8786740148
 40
0.8824259047
 40
0.8861817285
 40
0.8937122417
 40
0.9012809886
 40
0.9165882631
 40
0.9322211593
 40
0.9482866448
 40
0.964883325
 40
1.0
 40
1.0
 40
1.0
 40
1.0
 10
-0.0022179826
 20
-0.3455205158
 30
0.0
 10
-0.0361177256
 20
-0.3459837556
 30
0.0
 10
-0.1014745732
 20
-0.3503765252
 30
0.0
 10
-0.1804898597
 20
-0.3663251451
 30
0.0
 10
-0.2385698664
 20
-0.385235473
 30
0.0
 10
-0.2725808558
 20
-0.3994143377
 30
0.0
 10
-0.2985601887
 20
-0.4122265081
 30
0.0
 10
-0.3142685882
 20
-0.4208232405
 30
0.0
 10
-0.3265387811
 20
-0.4280656234
 30
0.0
 10
-0.3355854536
 20
-0.4336722438
 30
0.0
 10
-0.3430065444
 20
-0.4385026273
 30
0.0
 10
-0.3481427285
 20
-0.441958905
 30
0.0
 10
-0.3510522934
 20
-0.4439646393
 30
0.0
 10
-0.3532484733
 20
-0.4454598454
 30
0.0
 10
-0.3553736964
 20
-0.4470640102
 30
0.0
 10
-0.3582278718
 20
-0.4491839388
 30
0.0
 10
-0.3631798125
 20
-0.4529330855
 30
0.0
 10
-0.3701828785
 20
-0.4583573865
 30
0.0
 10
-0.378461047
 20
-0.4649935332
 30
0.0
 10
-0.3893165636
 20
-0.4739897876
 30
0.0
 10
-0.4025704363
 20
-0.4855372279
 30
0.0
 10
-0.4230908546
 20
-0.504647738
 30
0.0
 10
-0.4474995223
 20
-0.5297706887
 30
0.0
 10
-0.4747385994
 20
-0.5618488559
 30
0.0
 10
-0.4999057497
 20
-0.5958353692
 30
0.0
 10
-0.5229995018
 20
-0.6317259909
 30
0.0
 10
-0.5404439015
 20
-0.6630941034
 30
0.0
 10
-0.5517213061
 20
-0.6857875992
 30
0.0
 10
-0.557929078
 20
-0.6990426139
 30
0.0
 10
-0.5617222627
 20
-0.7074403488
 30
0.0
 10
-0.5646691777
 20
-0.7142382744
 30
0.0
 10
-0.5676147147
 20
-0.7210819358
 30
0.0
 10
-0.5726948042
 20
-0.7331060409
 30
0.0
 10
-0.5797478326
 20
-0.7503937613
 30
0.0
 10
-0.5878770481
 20
-0.7713110066
 30
0.0
 10
-0.5982910395
 20
-0.7994791065
 30
0.0
 10
-0.6104869059
 20
-0.8351598805
 30
0.0
 10
-0.6282811791
 20
-0.893350125
 30
0.0
 10
-0.6414491924
 20
-0.9452849122
 30
0.0
 10
-0.6510566636
 20
-0.9904405807
 30
0.0
 10
-0.655563951
 20
-1.0133494082
 30
0.0
 10
-0.6590383205
 20
-1.0325663847
 30
0.0
 10
-0.6613304993
 20
-1.0460864314
 30
0.0
 10
-0.6625925717
 20
-1.0538458531
 30
0.0
 10
-0.6635467806
 20
-1.0597019723
 30
0.0
 10
-0.664391964
 20
-1.0656036287
 30
0.0
 10
-0.6655413643
 20
-1.0734969311
 30
0.0
 10
-0.6669316681
 20
-1.0833548972
 30
0.0
 10
-0.6685512494
 20
-1.0951727576
 30
0.0
 10
-0.6706336315
 20
-1.1108917615
 30
0.0
 10
-0.6731005442
 20
-1.1304985915
 30
0.0
 10
-0.6767515161
 20
-1.1617497993
 30
0.0
 10
-0.6807702804
 20
-1.200649051
 30
0.0
 10
-0.6847240955
 20
-1.2471472958
 30
0.0
 10
-0.6877999195
 20
-1.2933741583
 30
0.0
 10
-0.6896344812
 20
-1.3317347804
 30
0.0
 10
-0.6906607968
 20
-1.3622830531
 30
0.0
 10
-0.6911186537
 20
-1.3813024182
 30
0.0
 10
-0.6913749374
 20
-1.3964833722
 30
0.0
 10
-0.6915121364
 20
-1.4078430826
 30
0.0
 10
-0.6915807726
 20
-1.4172989658
 30
0.0
 10
-0.6916047991
 20
-1.423911846
 30
0.0
 10
-0.6916116514
 20
-1.4276870636
 30
0.0
 10
-0.6916133714
 20
-1.4304871144
 30
0.0
 10
-0.6916116625
 20
-1.4332571631
 30
0.0
 10
-0.6916048056
 20
-1.436912608
 30
0.0
 10
-0.6915808197
 20
-1.4433179505
 30
0.0
 10
-0.6915122664
 20
-1.4524803003
 30
0.0
 10
-0.6913752748
 20
-1.4634920114
 30
0.0
 10
-0.6911193107
 20
-1.4782203038
 30
0.0
 10
-0.6906619625
 20
-1.4966879845
 30
0.0
 10
-0.6898946265
 20
-1.5189158622
 30
0.0
 10
-0.6889081811
 20
-1.541234289
 30
0.0
 10
-0.6872970741
 20
-1.5711817476
 30
0.0
 10
-0.6847313547
 20
-1.6088477196
 30
0.0
 10
-0.6807829878
 20
-1.6543046069
 30
0.0
 10
-0.6767722415
 20
-1.6923926202
 30
0.0
 10
-0.6731287466
 20
-1.7230401549
 30
0.0
 10
-0.6701707796
 20
-1.7461732959
 30
0.0
 10
-0.6675249496
 20
-1.7655013401
 30
0.0
 10
-0.6655819329
 20
-1.7790619854
 30
0.0
 10
-0.6644377621
 20
-1.7868313043
 30
0.0
 10
-0.6635756225
 20
-1.7926988417
 30
0.0
 10
-0.662639779
 20
-1.7985866752
 30
0.0
 10
-0.6613751039
 20
-1.8064625901
 30
0.0
 10
-0.6597372589
 20
-1.8162750321
 30
0.0
 10
-0.6576906395
 20
-1.8280085138
 30
0.0
 10
-0.6548556154
 20
-1.8435622077
 30
0.0
 10
-0.6511073577
 20
-1.8628791903
 30
0.0
 10
-0.6446805922
 20
-1.8934764836
 30
0.0
 10
-0.6358290648
 20
-1.9312313057
 30
0.0
 10
-0.6238626587
 20
-1.9758454914
 30
0.0
 10
-0.6105805637
 20
-2.0196453027
 30
0.0
 10
-0.5983927281
 20
-2.0555327225
 30
0.0
 10
-0.5879860715
 20
-2.0838208415
 30
0.0
 10
-0.5798652972
 20
-2.1047942869
 30
0.0
 10
-0.5728231404
 20
-2.1221163442
 30
0.0
 10
-0.5670164655
 20
-2.1358663678
 30
0.0
 10
-0.5626203885
 20
-2.1460998147
 30
0.0
 10
-0.558070375
 20
-2.1561979439
 30
0.0
 10
-0.5518666967
 20
-2.169452065
 30
0.0
 10
-0.5406014259
 20
-2.192145627
 30
0.0
 10
-0.5231734671
 20
-2.2235129991
 30
0.0
 10
-0.5001023483
 20
-2.2594036782
 30
0.0
 10
-0.4749597041
 20
-2.2933901544
 30
0.0
 10
-0.4477473219
 20
-2.3254684009
 30
0.0
 10
-0.4233622014
 20
-2.3505916886
 30
0.0
 10
-0.4028616252
 20
-2.369702805
 30
0.0
 10
-0.3869568434
 20
-2.3835726081
 30
0.0
 10
-0.3732916148
 20
-2.3947219365
 30
0.0
 10
-0.3635097609
 20
-2.4023073056
 30
0.0
 10
-0.3578533571
 20
-2.4065927587
 30
0.0
 10
-0.3535422409
 20
-2.4097812829
 30
0.0
 10
-0.34922115
 20
-2.4130124093
 30
0.0
 10
-0.3433598633
 20
-2.4172545727
 30
0.0
 10
-0.3359490863
 20
-2.4224431617
 30
0.0
 10
-0.3269112227
 20
-2.4284673768
 30
0.0
 10
-0.3146618624
 20
-2.4362430598
 30
0.0
 10
-0.298979359
 20
-2.4454730815
 30
0.0
 10
-0.2730563964
 20
-2.4592193274
 30
0.0
 10
-0.2391092342
 20
-2.4744373059
 30
0.0
 10
-0.1962576664
 20
-2.4894282216
 30
0.0
 10
-0.151132122
 20
-2.5012266428
 30
0.0
 10
-0.0867501712
 20
-2.5129232092
 30
0.0
 10
-0.0367948566
 20
-2.5164991476
 30
0.0
 10
-0.0029196338
 20
-2.516962547
 30
0.0
 11
-0.0022179826
 21
-0.3455205158
 31
0.0
 11
-0.1036619781
 21
-0.3528540216
 31
0.0
 11
-0.1959787029
 21
-0.3719573517
 31
0.0
 11
-0.2387143388
 21
-0.3859227008
 31
0.0
 11
-0.279168157
 21
-0.402830506
 31
0.0
 11
-0.2985393845
 21
-0.4123878296
 31
0.0
 11
-0.3173401576
 21
-0.4226807673
 31
0.0
 11
-0.3265266237
 21
-0.4281030913
 31
0.0
 11
-0.3355704762
 21
-0.4337093189
 31
0.0
 11
-0.3444717151
 21
-0.43949945
 31
0.0
 11
-0.3488688545
 21
-0.4424634793
 31
0.0
 11
-0.3510540541
 21
-0.4439627349
 31
0.0
 11
-0.3532303404
 21
-0.4454734845
 31
0.0
 11
-0.3553762161
 21
-0.4470615974
 31
0.0
 11
-0.3575140377
 21
-0.4486571371
 31
0.0
 11
-0.3617655186
 21
-0.4518704972
 31
0.0
 11
-0.3701718318
 21
-0.4583863398
 31
0.0
 11
-0.3784492799
 21
-0.4650210123
 31
0.0
 11
-0.3865978629
 21
-0.4717745148
 31
0.0
 11
-0.4025084338
 21
-0.4856380097
 31
0.0
 11
-0.4179035445
 21
-0.4999768244
 31
0.0
 11
-0.4471473851
 21
-0.5300804132
 31
0.0
 11
-0.4743293849
 21
-0.5620852814
 31
0.0
 11
-0.4994495439
 21
-0.5959914289
 31
0.0
 11
-0.5225078619
 21
-0.6317988556
 31
0.0
 11
-0.543504339
 21
-0.6695075617
 31
0.0
 11
-0.5532293872
 21
-0.6890748944
 31
0.0
 11
-0.5578986138
 21
-0.6990368058
 31
0.0
 11
-0.5624389752
 21
-0.709117547
 31
0.0
 11
-0.5646666497
 21
-0.7142385523
 31
0.0
 11
-0.5668737456
 21
-0.7193708747
 31
0.0
 11
-0.5712262015
 21
-0.7296694709
 31
0.0
 11
-0.5796841698
 21
-0.7504024689
 31
0.0
 11
-0.5878128803
 21
-0.7713165412
 31
0.0
 11
-0.595612333
 21
-0.7924116877
 31
0.0
 11
-0.6102234648
 21
-0.8351452033
 31
0.0
 11
-0.6235175652
 21
-0.8786030158
 31
0.0
 11
-0.6461546719
 21
-0.9676915314
 31
0.0
 11
-0.650990804
 21
-0.9904163459
 31
0.0
 11
-0.6554976782
 21
-1.0133222345
 31
0.0
 11
-0.6596752945
 21
-1.0364091974
 31
0.0
 11
-0.661640631
 21
-1.0480205817
 31
0.0
 11
-0.6625924313
 21
-1.0538432496
 31
0.0
 11
-0.663523653
 21
-1.0596772345
 31
0.0
 11
-0.6643945812
 21
-1.0656052932
 31
0.0
 11
-0.6652517939
 21
-1.071529108
 31
0.0
 11
-0.6669250731
 21
-1.0833640058
 31
0.0
 11
-0.6685434908
 21
-1.0951819278
 31
0.0
 11
-0.6701070468
 21
-1.1069828742
 31
0.0
 11
-0.673069574
 21
-1.1305338398
 31
0.0
 11
-0.6758126548
 21
-1.1540169025
 31
0.0
 11
-0.6806404769
 21
-1.2007793195
 31
0.0
 11
-0.6845905131
 21
-1.2472701252
 31
0.0
 11
-0.6876627636
 21
-1.2934893195
 31
0.0
 11
-0.6898572282
 21
-1.3394369025
 31
0.0
 11
-0.6906252908
 21
-1.3623088398
 31
0.0
 11
-0.6911739069
 21
-1.3851128742
 31
0.0
 11
-0.6913659226
 21
-1.3964894278
 31
0.0
 11
-0.6915030766
 21
-1.4078490058
 31
0.0
 11
-0.691585369
 21
-1.419191608
 31
0.0
 11
-0.6916059421
 21
-1.4248565432
 31
0.0
 11
-0.6916110854
 21
-1.4276874194
 31
0.0
 11
-0.6916127998
 21
-1.4305172345
 31
0.0
 11
-0.6916110882
 21
-1.4332566894
 31
0.0
 11
-0.6916059532
 21
-1.4359975589
 31
0.0
 11
-0.6915854132
 21
-1.4414835419
 31
0.0
 11
-0.6915032534
 21
-1.4524724836
 31
0.0
 11
-0.6913663204
 21
-1.4634840595
 31
0.0
 11
-0.6911746143
 21
-1.4745182697
 31
0.0
 11
-0.6906268823
 21
-1.4966545929
 31
0.0
 11
-0.6898600575
 21
-1.5188814533
 31
0.0
 11
-0.6888741399
 21
-1.5411988507
 31
0.0
 11
-0.6876691296
 21
-1.5636067853
 31
0.0
 11
-0.6846018304
 21
-1.6086942658
 31
0.0
 11
-0.6806581602
 21
-1.6541438947
 31
0.0
 11
-0.6758381187
 21
-1.699955672
 31
0.0
 11
-0.6730994588
 21
-1.7229973664
 31
0.0
 11
-0.6701417061
 21
-1.7461295978
 31
0.0
 11
-0.6669648606
 21
-1.7693523664
 31
0.0
 11
-0.665294278
 21
-1.7809977021
 31
0.0
 11
-0.6644384468
 21
-1.7868288578
 31
0.0
 11
-0.6635689223
 21
-1.792665672
 31
0.0
 11
-0.6626377227
 21
-1.7985894868
 31
0.0
 11
-0.6616859887
 21
-1.8045005698
 31
0.0
 11
-0.6597209174
 21
-1.8162845404
 31
0.0
 11
-0.6576737086
 21
-1.828017584
 31
0.0
 11
-0.6555443621
 21
-1.8396997004
 31
0.0
 11
-0.6510392562
 21
-1.8629111518
 31
0.0
 11
-0.6462055998
 21
-1.8859188947
 31
0.0
 11
-0.6355526355
 21
-1.931323255
 31
0.0
 11
-0.6235854691
 21
-1.9759127814
 31
0.0
 11
-0.6103041007
 21
-2.0196874738
 31
0.0
 11
-0.5957085302
 21
-2.0626473322
 31
0.0
 11
-0.5879179191
 21
-2.0838216986
 31
0.0
 11
-0.5797987576
 21
-2.1047923566
 31
0.0
 11
-0.5713510455
 21
-2.1255593061
 31
0.0
 11
-0.5670039831
 21
-2.1358663901
 31
0.0
 11
-0.562574783
 21
-2.146122547
 31
0.0
 11
-0.5580387318
 21
-2.1562032883
 31
0.0
 11
-0.5533739482
 21
-2.1661651996
 31
0.0
 11
-0.5436581837
 21
-2.1857325324
 31
0.0
 11
-0.5226818655
 21
-2.2234412384
 31
0.0
 11
-0.4996458285
 21
-2.2592486652
 31
0.0
 11
-0.4745500725
 21
-2.2931548127
 31
0.0
 11
-0.4473945977
 21
-2.3251596808
 31
0.0
 11
-0.4181794039
 21
-2.3552632697
 31
0.0
 11
-0.4027994125
 21
-2.3696020844
 31
0.0
 11
-0.3869044913
 21
-2.3834655793
 31
0.0
 11
-0.3704946404
 21
-2.3968537543
 31
0.0
 11
-0.3620966163
 21
-2.4033695969
 31
0.0
 11
-0.3578493296
 21
-2.406582957
 31
0.0
 11
-0.3535698598
 21
-2.4097666095
 31
0.0
 11
-0.3492126399
 21
-2.4130011892
 31
0.0
 11
-0.3448198108
 21
-2.4161862564
 31
0.0
 11
-0.3359273251
 21
-2.4224078534
 31
0.0
 11
-0.3268924025
 21
-2.4284314005
 31
0.0
 11
-0.3177150432
 21
-2.4342568976
 31
0.0
 11
-0.298933014
 21
-2.4453137421
 31
0.0
 11
-0.2795812375
 21
-2.4555783869
 31
0.0
 11
-0.2391684428
 21
-2.4737310773
 31
0.0
 11
-0.1964766591
 21
-2.4887149689
 31
0.0
 11
-0.1515058863
 21
-2.5005300617
 31
0.0
 11
-0.1042561245
 21
-2.5091763556
 31
0.0
 11
-0.0029196338
 21
-2.516962547
 31
0.0
  0
SPLINE
  5
368
100
AcDbEntity
  8
ASSI
100
AcDbSpline
 62
7
  6
CONTINUOUS
 70
0
 71
3
 72
137
 73
133
 74
131
 42
0.0000001
 43
0.0000001
 44
0.0000000001
 12
2.9044694087
 22
0.0384578548
 32
0.0
 13
-2.9044688812
 23
0.0384976684
 33
0.0
 40
0.0
 40
0.0
 40
0.0
 40
0.0
 40
0.0360133103
 40
0.0529213477
 40
0.069206304
 40
0.0849679626
 40
0.1003163165
 40
0.1078743551
 40
0.1153743689
 40
0.1191078445
 40
0.1228328231
 40
0.1265513408
 40
0.1284088481
 40
0.1302655082
 40
0.1321138012
 40
0.1339591081
 40
0.1376412195
 40
0.1449747411
 40
0.1522742689
 40
0.1595478365
 40
0.1885250942
 40
0.2030788731
 40
0.217757296
 40
0.2326235492
 40
0.2401471485
 40
0.2439346818
 40
0.2477404968
 40
0.2515863503
 40
0.2554368663
 40
0.2631529936
 40
0.2708913036
 40
0.2786541265
 40
0.2942619532
 40
0.3099952275
 40
0.3258716928
 40
0.3419086169
 40
0.3499927635
 40
0.358123262
 40
0.3622065533
 40
0.3663021831
 40
0.3704103969
 40
0.3724693027
 40
0.3734999681
 40
0.3745314465
 40
0.3755444824
 40
0.3765569092
 40
0.3785799393
 40
0.3826187281
 40
0.3866478702
 40
0.3906674214
 40
0.3986779627
 40
0.4066508208
 40
0.4224852214
 40
0.4381745066
 40
0.4537225509
 40
0.4614449111
 40
0.4691334631
 40
0.4767887214
 40
0.4844112071
 40
0.4882103333
 40
0.4920014649
 40
0.4957846689
 40
0.4976733202
 40
0.4986169117
 40
0.4995600152
 40
0.5005342267
 40
0.5015088045
 40
0.5034590627
 40
0.5073640178
 40
0.511274948
 40
0.5151919185
 40
0.5230442226
 40
0.5309214606
 40
0.5467526464
 40
0.5626896205
 40
0.5787363204
 40
0.5868020855
 40
0.5948967215
 40
0.6030206981
 40
0.6111744797
 40
0.6152626982
 40
0.6193585398
 40
0.6234620611
 40
0.6255167202
 40
0.6265447773
 40
0.6275733205
 40
0.6285894288
 40
0.6296048483
 40
0.6316336353
 40
0.6356831021
 40
0.6397219715
 40
0.6437504872
 40
0.651777381
 40
0.6597658332
 40
0.6756349968
 40
0.6913749477
 40
0.7070025635
 40
0.7225350878
 40
0.7302714454
 40
0.7379906398
 40
0.7456949071
 40
0.7495421807
 40
0.7514647215
 40
0.7533865757
 40
0.7571915854
 40
0.760978273
 40
0.7685000567
 40
0.7833621587
 40
0.7980356925
 40
0.8125838012
 40
0.8270712681
 40
0.8415636898
 40
0.848833279
 40
0.8561286161
 40
0.859788579
 40
0.8634579825
 40
0.8671378133
 40
0.8689819601
 40
0.8699051427
 40
0.8708290837
 40
0.8717338914
 40
0.8726392338
 40
0.8744516344
 40
0.8780841015
 40
0.8817284443
 40
0.8853865365
 40
0.8927509023
 40
0.9001921932
 40
0.9153580515
 40
0.9309940914
 40
0.9640348731
 40
1.0
 40
1.0
 40
1.0
 40
1.0
 10
-0.0029196338
 20
-2.516962547
 30
0.0
 10
0.0319468856
 20
-2.5165008822
 30
0.0
 10
0.0832553107
 20
-2.5129616299
 30
0.0
 10
0.149281039
 20
-2.5012521626
 30
0.0
 10
0.1952443386
 20
-2.4894640091
 30
0.0
 10
0.2386743761
 20
-2.4744832069
 30
0.0
 10
0.2729348012
 20
-2.4592514236
 30
0.0
 10
0.2989692505
 20
-2.4454871713
 30
0.0
 10
0.3146543783
 20
-2.4362517243
 30
0.0
 10
0.3268714288
 20
-2.4284708587
 30
0.0
 10
0.3358635613
 20
-2.422447442
 30
0.0
 10
0.3432223014
 20
-2.417254854
 30
0.0
 10
0.3490388378
 20
-2.4130165117
 30
0.0
 10
0.3533257496
 20
-2.4097557726
 30
0.0
 10
0.357673006
 20
-2.40659609
 30
0.0
 10
0.363382479
 20
-2.4023060295
 30
0.0
 10
0.3732620126
 20
-2.3947252027
 30
0.0
 10
0.3870566337
 20
-2.38357589
 30
0.0
 10
0.403110355
 20
-2.3697061204
 30
0.0
 10
0.4340838687
 20
-2.3410896045
 30
0.0
 10
0.4674120798
 20
-2.3046561939
 30
0.0
 10
0.5010792193
 20
-2.2594183461
 30
0.0
 10
0.5242643281
 20
-2.223524733
 30
0.0
 10
0.5417502346
 20
-2.1921517677
 30
0.0
 10
0.553037045
 20
-2.1694534175
 30
0.0
 10
0.5592465747
 20
-2.1561984847
 30
0.0
 10
0.5637979782
 20
-2.1461003195
 30
0.0
 10
0.5681926988
 20
-2.1358668516
 30
0.0
 10
0.5739936433
 20
-2.1221174175
 30
0.0
 10
0.5810218463
 20
-2.104795991
 30
0.0
 10
0.5891152839
 20
-2.0838223849
 30
0.0
 10
0.5994701104
 20
-2.0555358598
 30
0.0
 10
0.6115660221
 20
-2.0196495127
 30
0.0
 10
0.6246948898
 20
-1.975848376
 30
0.0
 10
0.6364640657
 20
-1.9312328668
 30
0.0
 10
0.6451152238
 20
-1.89347672
 30
0.0
 10
0.6513596886
 20
-1.8628790886
 30
0.0
 10
0.654984958
 20
-1.8435620913
 30
0.0
 10
0.6577155451
 20
-1.8280083931
 30
0.0
 10
0.6596825915
 20
-1.8162750757
 30
0.0
 10
0.6612467758
 20
-1.8064620893
 30
0.0
 10
0.6623102515
 20
-1.7995744275
 30
0.0
 10
0.6628983837
 20
-1.7956279246
 30
0.0
 10
0.6633581098
 20
-1.7926857861
 30
0.0
 10
0.6637098761
 20
-1.7897465915
 30
0.0
 10
0.6642073566
 20
-1.7858584453
 30
0.0
 10
0.665050878
 20
-1.7790609438
 30
0.0
 10
0.6662357861
 20
-1.7693625885
 30
0.0
 10
0.6676083233
 20
-1.7577397057
 30
0.0
 10
0.6693754805
 20
-1.7422912129
 30
0.0
 10
0.6714680541
 20
-1.7230366914
 30
0.0
 10
0.6745648799
 20
-1.692385198
 30
0.0
 10
0.6779737297
 20
-1.654293572
 30
0.0
 10
0.6813290475
 20
-1.6088386664
 30
0.0
 10
0.6835092136
 20
-1.5711775608
 30
0.0
 10
0.6848783183
 20
-1.541232831
 30
0.0
 10
0.685716656
 20
-1.5189146888
 30
0.0
 10
0.686368782
 20
-1.4966870929
 30
0.0
 10
0.6867574565
 20
-1.4782199346
 30
0.0
 10
0.6869749906
 20
-1.4634918984
 30
0.0
 10
0.6870914161
 20
-1.4524802248
 30
0.0
 10
0.6871496777
 20
-1.4433179258
 30
0.0
 10
0.6871700625
 20
-1.4369126049
 30
0.0
 10
0.6871758904
 20
-1.4332571625
 30
0.0
 10
0.687177342
 20
-1.4304871144
 30
0.0
 10
0.6871758831
 20
-1.4276870642
 30
0.0
 10
0.6871700747
 20
-1.423911849
 30
0.0
 10
0.6871497072
 20
-1.4172989901
 30
0.0
 10
0.6870915246
 20
-1.407843157
 30
0.0
 10
0.6869752213
 20
-1.3964834839
 30
0.0
 10
0.6867579729
 20
-1.3813027827
 30
0.0
 10
0.6863698617
 20
-1.3622839394
 30
0.0
 10
0.6854999173
 20
-1.3317376605
 30
0.0
 10
0.6839449902
 20
-1.2933810603
 30
0.0
 10
0.6813378579
 20
-1.24715639
 30
0.0
 10
0.6785499479
 20
-1.2084775079
 30
0.0
 10
0.6759496584
 20
-1.1774016174
 30
0.0
 10
0.673809994
 20
-1.1539857923
 30
0.0
 10
0.6714842371
 20
-1.1305021055
 30
0.0
 10
0.6693932063
 20
-1.110893897
 30
0.0
 10
0.6676272189
 20
-1.0951737854
 30
0.0
 10
0.6662561843
 20
-1.0833556537
 30
0.0
 10
0.6650716677
 20
-1.073498229
 30
0.0
 10
0.6642298375
 20
-1.0665912414
 30
0.0
 10
0.6637311121
 20
-1.0626420264
 30
0.0
 10
0.66338835
 20
-1.0596862487
 30
0.0
 10
0.6629205758
 20
-1.0567600602
 30
0.0
 10
0.6623341069
 20
-1.0528728027
 30
0.0
 10
0.6612705569
 20
-1.0460871461
 30
0.0
 10
0.6597078926
 20
-1.0364167376
 30
0.0
 10
0.6577423242
 20
-1.0248503727
 30
0.0
 10
0.6550134301
 20
-1.0095079138
 30
0.0
 10
0.6513902545
 20
-0.9904408833
 30
0.0
 10
0.64514809
 20
-0.9602056022
 30
0.0
 10
0.6364993374
 20
-0.9228464247
 30
0.0
 10
0.624739403
 20
-0.8786392662
 30
0.0
 10
0.6116211682
 20
-0.8351561729
 30
0.0
 10
0.5995413581
 20
-0.7994766505
 30
0.0
 10
0.5892005257
 20
-0.7713097422
 30
0.0
 10
0.5811158099
 20
-0.7503923671
 30
0.0
 10
0.5740918727
 20
-0.7331051542
 30
0.0
 10
0.5690279504
 20
-0.7210817044
 30
0.0
 10
0.5660903116
 20
-0.7142381704
 30
0.0
 10
0.5631503191
 20
-0.7074401384
 30
0.0
 10
0.5593642691
 20
-0.6990421842
 30
0.0
 10
0.5531643242
 20
-0.6857865203
 30
0.0
 10
0.5418904087
 20
-0.6630891446
 30
0.0
 10
0.5244254642
 20
-0.6317159621
 30
0.0
 10
0.5012687084
 20
-0.5958239158
 30
0.0
 10
0.4759979617
 20
-0.5618363656
 30
0.0
 10
0.4486148388
 20
-0.5297576379
 30
0.0
 10
0.4240580504
 20
-0.5046401938
 30
0.0
 10
0.4034004382
 20
-0.4855339799
 30
0.0
 10
0.3900510779
 20
-0.4739879751
 30
0.0
 10
0.3791143881
 20
-0.4649926937
 30
0.0
 10
0.3707715669
 20
-0.4583568246
 30
0.0
 10
0.3637137347
 20
-0.4529320183
 30
0.0
 10
0.35872105
 20
-0.4491846998
 30
0.0
 10
0.3558454163
 20
-0.4470624337
 30
0.0
 10
0.3537068243
 20
-0.4454726444
 30
0.0
 10
0.3515320431
 20
-0.4439628217
 30
0.0
 10
0.3486531403
 20
-0.4419593132
 30
0.0
 10
0.3435698639
 20
-0.4384999394
 30
0.0
 10
0.3362129022
 20
-0.4336690067
 30
0.0
 10
0.3272306321
 20
-0.4280621235
 30
0.0
 10
0.3150167839
 20
-0.4208152272
 30
0.0
 10
0.2993372599
 20
-0.4122133388
 30
0.0
 10
0.2732987928
 20
-0.3993846893
 30
0.0
 10
0.2390446969
 20
-0.3851933971
 30
0.0
 10
0.180144401
 20
-0.3662462988
 30
0.0
 10
0.099446803
 20
-0.3503227971
 30
0.0
 10
0.0326018813
 20
-0.3459820403
 30
0.0
 10
-0.0022179826
 20
-0.3455205158
 30
0.0
 11
-0.0029196338
 21
-2.516962547
 31
0.0
 11
0.1013989215
 21
-2.5091763556
 31
0.0
 11
0.1497450306
 21
-2.5005300617
 31
0.0
 11
0.1955490273
 21
-2.4887149689
 31
0.0
 11
0.2388109116
 21
-2.4737310773
 31
0.0
 11
0.2795306835
 21
-2.4555783869
 31
0.0
 11
0.2989372773
 21
-2.4453137421
 31
0.0
 11
0.3177083431
 21
-2.4342568976
 31
0.0
 11
0.3268555529
 21
-2.4284314005
 31
0.0
 11
0.3358438807
 21
-2.4224078534
 31
0.0
 11
0.3446733265
 21
-2.4161862564
 31
0.0
 11
0.3490284686
 21
-2.4130011892
 31
0.0
 11
0.3533438902
 21
-2.4097666095
 31
0.0
 11
0.3576668713
 21
-2.406582957
 31
0.0
 11
0.3619569841
 21
-2.4033695969
 31
0.0
 11
0.3704386047
 21
-2.3968537543
 31
0.0
 11
0.3870074259
 21
-2.3834655793
 31
0.0
 11
0.403050354
 21
-2.3696020844
 31
0.0
 11
0.4185673889
 21
-2.3552632697
 31
0.0
 11
0.4753765964
 21
-2.2931548127
 31
0.0
 11
0.5006258409
 21
-2.2592486652
 31
0.0
 11
0.5237715127
 21
-2.2234412384
 31
0.0
 11
0.5448136117
 21
-2.1857325324
 31
0.0
 11
0.5545458214
 21
-2.1661651996
 31
0.0
 11
0.5592147163
 21
-2.1562032883
 31
0.0
 11
0.5637521379
 21
-2.146122547
 31
0.0
 11
0.5681799676
 21
-2.1358663901
 31
0.0
 11
0.5725229188
 21
-2.1255593061
 31
0.0
 11
0.5809541856
 21
-2.1047923566
 31
0.0
 11
0.5890459385
 21
-2.0838216986
 31
0.0
 11
0.5967981773
 21
-2.0626473322
 31
0.0
 11
0.6112841131
 21
-2.0196874738
 31
0.0
 11
0.6244119929
 21
-1.9759127814
 31
0.0
 11
0.6361818168
 21
-1.931323255
 31
0.0
 11
0.6465935847
 21
-1.8859188947
 31
0.0
 11
0.6512901977
 21
-1.8629111518
 31
0.0
 11
0.6556472967
 21
-1.8396997004
 31
0.0
 11
0.6576985285
 21
-1.828017584
 31
0.0
 11
0.6596648817
 21
-1.8162845404
 31
0.0
 11
0.6615463565
 21
-1.8045005698
 31
0.0
 11
0.6624552644
 21
-1.7985894868
 31
0.0
 11
0.662901761
 21
-1.7956291709
 31
0.0
 11
0.6633429527
 21
-1.792665672
 31
0.0
 11
0.6637139028
 21
-1.7897465576
 31
0.0
 11
0.6640819434
 21
-1.7868288578
 31
0.0
 11
0.6648092964
 21
-1.7809977021
 31
0.0
 11
0.6662290895
 21
-1.7693523664
 31
0.0
 11
0.6676023321
 21
-1.757729665
 31
0.0
 11
0.668929024
 21
-1.7461295978
 31
0.0
 11
0.6714427561
 21
-1.7229973664
 31
0.0
 11
0.6737702858
 21
-1.699955672
 31
0.0
 11
0.677866738
 21
-1.6541438947
 31
0.0
 11
0.6812183808
 21
-1.6086942658
 31
0.0
 11
0.683825214
 21
-1.5636067853
 31
0.0
 11
0.6848493271
 21
-1.5411988507
 31
0.0
 11
0.6856872378
 21
-1.5188814533
 31
0.0
 11
0.6863389461
 21
-1.4966545929
 31
0.0
 11
0.686804452
 21
-1.4745182697
 31
0.0
 11
0.6869673791
 21
-1.4634840595
 31
0.0
 11
0.6870837556
 21
-1.4524724836
 31
0.0
 11
0.6871535815
 21
-1.4414835419
 31
0.0
 11
0.687171038
 21
-1.4359975589
 31
0.0
 11
0.6871754021
 21
-1.4332566894
 31
0.0
 11
0.6871768568
 21
-1.4305172345
 31
0.0
 11
0.6871754035
 21
-1.4276874194
 31
0.0
 11
0.6871710435
 21
-1.4248565432
 31
0.0
 11
0.6871536036
 21
-1.419191608
 31
0.0
 11
0.687083844
 21
-1.4078490058
 31
0.0
 11
0.6869675781
 21
-1.3964894278
 31
0.0
 11
0.6868048057
 21
-1.3851128742
 31
0.0
 11
0.6863397418
 21
-1.3623088398
 31
0.0
 11
0.6856886524
 21
-1.3394369025
 31
0.0
 11
0.683828397
 21
-1.2934893195
 31
0.0
 11
0.6812240394
 21
-1.2472701252
 31
0.0
 11
0.6778755797
 21
-1.2007793195
 31
0.0
 11
0.6759223115
 21
-1.1774320624
 31
0.0
 11
0.6737830177
 21
-1.1540169025
 31
0.0
 11
0.6714576985
 21
-1.1305338398
 31
0.0
 11
0.6689463536
 21
-1.1069828742
 31
0.0
 11
0.6676209216
 21
-1.0951819278
 31
0.0
 11
0.6662489833
 21
-1.0833640058
 31
0.0
 11
0.6648305385
 21
-1.071529108
 31
0.0
 11
0.6641038762
 21
-1.0656052932
 31
0.0
 11
0.6637361851
 21
-1.0626417944
 31
0.0
 11
0.6633655874
 21
-1.0596772345
 31
0.0
 11
0.6629247521
 21
-1.0567588274
 31
0.0
 11
0.6624786174
 21
-1.0538432496
 31
0.0
 11
0.66157045
 21
-1.0480205817
 31
0.0
 11
0.6596905225
 21
-1.0364091974
 31
0.0
 11
0.6577258049
 21
-1.0248430817
 31
0.0
 11
0.6556762973
 21
-1.0133222345
 31
0.0
 11
0.6513229118
 21
-0.9904163459
 31
0.0
 11
0.646630366
 21
-0.9676915314
 31
0.0
 11
0.6362277934
 21
-0.9227851252
 31
0.0
 11
0.6244685795
 21
-0.8786030158
 31
0.0
 11
0.6113527243
 21
-0.8351452033
 31
0.0
 11
0.5968802278
 21
-0.7924116877
 31
0.0
 11
0.5891352391
 21
-0.7713165412
 31
0.0
 11
0.5810510901
 21
-0.7504024689
 31
0.0
 11
0.5726277807
 21
-0.7296694709
 31
0.0
 11
0.5682889409
 21
-0.7193708747
 31
0.0
 11
0.5660877248
 21
-0.7142385523
 31
0.0
 11
0.5638653111
 21
-0.709117547
 31
0.0
 11
0.5593335923
 21
-0.6990368058
 31
0.0
 11
0.5546704887
 21
-0.6890748944
 31
0.0
 11
0.5449501268
 21
-0.6695075617
 31
0.0
 11
0.5239327844
 21
-0.6317988556
 31
0.0
 11
0.5008132839
 21
-0.5959914289
 31
0.0
 11
0.4755916253
 21
-0.5620852814
 31
0.0
 11
0.4482678085
 21
-0.5300804132
 31
0.0
 11
0.4188418337
 21
-0.4999768244
 31
0.0
 11
0.4033405369
 21
-0.4856380097
 31
0.0
 11
0.3873137007
 21
-0.4717745148
 31
0.0
 11
0.3791032052
 21
-0.4650210123
 31
0.0
 11
0.3707613249
 21
-0.4583863398
 31
0.0
 11
0.3622880597
 21
-0.4518704972
 31
0.0
 11
0.3580021577
 21
-0.4486571371
 31
0.0
 11
0.3558468894
 21
-0.4470615974
 31
0.0
 11
0.3536834096
 21
-0.4454734845
 31
0.0
 11
0.3515327913
 21
-0.4439627349
 31
0.0
 11
0.349372254
 21
-0.4424634793
 31
0.0
 11
0.3450214222
 21
-0.43949945
 31
0.0
 11
0.3362007296
 21
-0.4337093189
 31
0.0
 11
0.3272213317
 21
-0.4281030913
 31
0.0
 11
0.3180832287
 21
-0.4226807673
 31
0.0
 11
0.2993309068
 21
-0.4123878296
 31
0.0
 11
0.279943764
 21
-0.402830506
 31
0.0
 11
0.2392650156
 21
-0.3859227008
 31
0.0
 11
0.1960469835
 21
-0.3719573517
 31
0.0
 11
0.1019930679
 21
-0.3528540216
 31
0.0
 11
-0.0022179826
 21
-0.3455205158
 31
0.0
  0
SPLINE
  5
369
100
AcDbEntity
  8
ASSI
100
AcDbSpline
 62
7
  6
CONTINUOUS
 70
0
 71
3
 72
8
 73
4
 74
2
 42
0.0000001
 43
0.0000001
 44
0.0000000001
 12
0.1972668924
 22
-0.1888960497
 32
0.0
 13
0.0862805955
 23
-0.2591362639
 33
0.0
 40
0.0
 40
0.0
 40
0.0
 40
0.0
 40
1.0
 40
1.0
 40
1.0
 40
1.0
 10
0.2636895201
 20
-0.6280868134
 30
0.0
 10
0.3294451509
 20
-0.6910521633
 30
0.0
 10
0.3784306413
 20
-0.7740941936
 30
0.0
 10
0.4071908398
 20
-0.8604729482
 30
0.0
 11
0.2636895201
 21
-0.6280868134
 31
0.0
 11
0.4071908398
 21
-0.8604729482
 31
0.0
  0
SPLINE
  5
36A
100
AcDbEntity
  8
ASSI
100
AcDbSpline
 62
7
  6
CONTINUOUS
 70
0
 71
3
 72
8
 73
4
 74
2
 42
0.0000001
 43
0.0000001
 44
0.0000000001
 12
0.1056056914
 22
-0.2770369597
 32
0.0
 13
0.027253109
 23
-0.2952275515
 33
0.0
 40
0.0
 40
0.0
 40
0.0
 40
0.0
 40
1.0
 40
1.0
 40
1.0
 40
1.0
 10
0.4071908398
 20
-0.8604729482
 30
0.0
 10
0.442392737
 20
-0.9528186015
 30
0.0
 10
0.4642211863
 20
-1.0510808632
 30
0.0
 10
0.473305556
 20
-1.149490047
 30
0.0
 11
0.4071908398
 21
-0.8604729482
 31
0.0
 11
0.473305556
 21
-1.149490047
 31
0.0
  0
SPLINE
  5
36B
100
AcDbEntity
  8
ASSI
100
AcDbSpline
 62
7
  6
CONTINUOUS
 70
0
 71
3
 72
21
 73
17
 74
15
 42
0.0000001
 43
0.0000001
 44
0.0000000001
 12
0.0306386154
 22
-0.5586415431
 32
0.0
 13
-0.0315259159
 23
-0.5585921724
 33
0.0
 40
0.0
 40
0.0
 40
0.0
 40
0.0
 40
0.1348139371
 40
0.2637166635
 40
0.3565277591
 40
0.401694344
 40
0.44603669
 40
0.4895562784
 40
0.5110289496
 40
0.5325891193
 40
0.5762235004
 40
0.6205446251
 40
0.7112526249
 40
0.8047245785
 40
0.900970612
 40
1.0
 40
1.0
 40
1.0
 40
1.0
 10
0.473305556
 20
-1.149490047
 30
0.0
 10
0.4746823935
 20
-1.174594269
 30
0.0
 10
0.4771036444
 20
-1.2237174529
 30
0.0
 10
0.4795558653
 20
-1.290164255
 30
0.0
 10
0.4807981566
 20
-1.3399212526
 30
0.0
 10
0.4813656881
 20
-1.3739182089
 30
0.0
 10
0.4816390758
 20
-1.398725821
 30
0.0
 10
0.4817438553
 20
-1.4191159001
 30
0.0
 10
0.4817522796
 20
-1.4352574036
 30
0.0
 10
0.4817106082
 20
-1.4514202624
 30
0.0
 10
0.4815648232
 20
-1.4718438626
 30
0.0
 10
0.4811312369
 20
-1.5051608143
 30
0.0
 10
0.4802101996
 20
-1.5477658293
 30
0.0
 10
0.4785201491
 20
-1.6000371121
 30
0.0
 10
0.4762368857
 20
-1.6538390864
 30
0.0
 10
0.4743462201
 20
-1.6902082209
 30
0.0
 10
0.473305556
 20
-1.7086472345
 30
0.0
 11
0.473305556
 21
-1.149490047
 31
0.0
 11
0.4769991855
 21
-1.2248254031
 31
0.0
 11
0.4796374922
 21
-1.2968957674
 31
0.0
 11
0.4809236668
 21
-1.3488058897
 31
0.0
 11
0.4813441469
 21
-1.3740722416
 31
0.0
 11
0.4816162223
 21
-1.398879454
 31
0.0
 11
0.4817398929
 21
-1.423227527
 31
0.0
 11
0.4817460765
 21
-1.4352410791
 31
0.0
 11
0.4817151588
 21
-1.4473035469
 31
0.0
 11
0.4815420199
 21
-1.4717155444
 31
0.0
 11
0.4812204763
 21
-1.496510291
 31
0.0
 11
0.4801321748
 21
-1.5472480318
 31
0.0
 11
0.4784502542
 21
-1.5995167693
 31
0.0
 11
0.4761747146
 21
-1.6533165036
 31
0.0
 11
0.473305556
 21
-1.7086472345
 31
0.0
  0
SPLINE
  5
36C
100
AcDbEntity
  8
ASSI
100
AcDbSpline
 62
7
  6
CONTINUOUS
 70
0
 71
3
 72
8
 73
4
 74
2
 42
0.0000001
 43
0.0000001
 44
0.0000000001
 12
-0.0273887362
 22
-0.299470832
 32
0.0
 13
-0.1051488627
 23
-0.2817386001
 33
0.0
 40
0.0
 40
0.0
 40
0.0
 40
0.0
 40
1.0
 40
1.0
 40
1.0
 40
1.0
 10
0.473305556
 20
-1.7086472345
 30
0.0
 10
0.4641759773
 20
-1.8084708452
 30
0.0
 10
0.4422404607
 20
-1.9080972258
 30
0.0
 10
0.4071908398
 20
-2.0020100925
 30
0.0
 11
0.473305556
 21
-1.7086472345
 31
0.0
 11
0.4071908398
 21
-2.0020100925
 31
0.0
  0
SPLINE
  5
36D
100
AcDbEntity
  8
ASSI
100
AcDbSpline
 62
7
  6
CONTINUOUS
 70
0
 71
3
 72
16
 73
12
 74
10
 42
0.0000001
 43
0.0000001
 44
0.0000000001
 12
0.0259848879
 22
0.0934221347
 32
0.0
 13
0.0333399606
 23
0.0910535759
 33
0.0
 40
0.0
 40
0.0
 40
0.0
 40
0.0
 40
0.3697082685
 40
0.5795975397
 40
0.6320143537
 40
0.6843085117
 40
0.736608139
 40
0.7895667643
 40
0.8424708316
 40
0.8951549383
 40
1.0
 40
1.0
 40
1.0
 40
1.0
 10
-0.428627239
 20
-0.9292493708
 30
0.0
 10
-0.4254249631
 20
-0.9177363922
 30
0.0
 10
-0.4201563668
 20
-0.8997562772
 30
0.0
 10
-0.4139684973
 20
-0.8802878622
 30
0.0
 10
-0.4108070598
 20
-0.8706235505
 30
0.0
 10
-0.4092024245
 20
-0.8658091331
 30
0.0
 10
-0.4075550193
 20
-0.8609905729
 30
0.0
 10
-0.4059833523
 20
-0.8561260521
 30
0.0
 10
-0.4043567
 20
-0.8512665844
 30
0.0
 10
-0.4021405356
 20
-0.8448362558
 30
0.0
 10
-0.400429167
 20
-0.8400407779
 30
0.0
 10
-0.3992639903
 20
-0.8368586053
 30
0.0
 11
-0.428627239
 21
-0.9292493708
 31
0.0
 11
-0.4185383735
 21
-0.8948498192
 31
0.0
 11
-0.4123833407
 21
-0.8754512965
 31
0.0
 11
-0.4108013442
 21
-0.8706212607
 31
0.0
 11
-0.4091963017
 21
-0.8658113703
 31
0.0
 11
-0.4075754015
 21
-0.861006241
 31
0.0
 11
-0.4059742606
 21
-0.8561271944
 31
0.0
 11
-0.4043472419
 21
-0.851262294
 31
0.0
 11
-0.402684009
 21
-0.846432207
 31
0.0
 11
-0.3992639903
 21
-0.8368586053
 31
0.0
  0
SPLINE
  5
36E
100
AcDbEntity
  8
ASSI
100
AcDbSpline
 62
7
  6
CONTINUOUS
 70
0
 71
3
 72
9
 73
5
 74
3
 42
0.0000001
 43
0.0000001
 44
0.0000000001
 12
0.2107597076
 22
0.1833914231
 32
0.0
 13
0.2793339869
 23
0.0049590502
 33
0.0
 40
0.0
 40
0.0
 40
0.0
 40
0.0
 40
0.7214010269
 40
1.0
 40
1.0
 40
1.0
 40
1.0
 10
-0.263892855
 20
-0.6280868134
 30
0.0
 10
-0.2132120985
 20
-0.5839872264
 30
0.0
 10
-0.1208239646
 20
-0.5467865264
 30
0.0
 10
-0.0281587032
 20
-0.5399567993
 30
0.0
 10
-0.0022179826
 20
-0.5394962706
 30
0.0
 11
-0.263892855
 21
-0.6280868134
 31
0.0
 11
-0.0797700866
 21
-0.5461196248
 31
0.0
 11
-0.0022179826
 21
-0.5394962706
 31
0.0
  0
SPLINE
  5
36F
100
AcDbEntity
  8
ASSI
100
AcDbSpline
 62
7
  6
CONTINUOUS
 70
0
 71
3
 72
9
 73
5
 74
3
 42
0.0000001
 43
0.0000001
 44
0.0000000001
 12
0.2833581583
 22
-0.0049033178
 32
0.0
 13
0.2137942954
 23
-0.1860319533
 33
0.0
 40
0.0
 40
0.0
 40
0.0
 40
0.0
 40
0.2811555278
 40
1.0
 40
1.0
 40
1.0
 40
1.0
 10
-0.0022179826
 20
-0.5394962706
 30
0.0
 10
0.0243379216
 20
-0.5399558022
 30
0.0
 10
0.1182908882
 20
-0.5466870562
 30
0.0
 10
0.2124612376
 20
-0.5835107997
 30
0.0
 10
0.2636895201
 20
-0.6280868134
 30
0.0
 11
-0.0022179826
 21
-0.5394962706
 31
0.0
 11
0.0771858972
 21
-0.5461196248
 31
0.0
 11
0.2636895201
 21
-0.6280868134
 31
0.0
  0
SPLINE
  5
370
100
AcDbEntity
  8
ASSI
100
AcDbSpline
 62
7
  6
CONTINUOUS
 70
0
 71
3
 72
59
 73
55
 74
53
 42
0.0000001
 43
0.0000001
 44
0.0000000001
 12
0.2009904903
 22
0.8468304763
 32
0.0
 13
0.6666606612
 23
-0.5595379214
 33
0.0
 40
0.0
 40
0.0
 40
0.0
 40
0.0
 40
0.1296604752
 40
0.1911215047
 40
0.2214044919
 40
0.2515448328
 40
0.2816693814
 40
0.2967674475
 40
0.3119091211
 40
0.3195014492
 40
0.3271105314
 40
0.330921988
 40
0.3328073664
 40
0.3346480046
 40
0.3383252903
 40
0.3419974735
 40
0.3566395675
 40
0.371220198
 40
0.3857557344
 40
0.4002626992
 40
0.4292532689
 40
0.4583292193
 40
0.4876225527
 40
0.5172623674
 40
0.5473733052
 40
0.5626446374
 40
0.5780777785
 40
0.5936865349
 40
0.6094842523
 40
0.6254838037
 40
0.6335633466
 40
0.6376235808
 40
0.6416979996
 40
0.6457864364
 40
0.649889189
 40
0.6509171368
 40
0.6519459934
 40
0.6530102896
 40
0.6541432093
 40
0.6564057405
 40
0.6586638823
 40
0.6631670901
 40
0.6676530382
 40
0.6765739118
 40
0.6854281927
 40
0.6942175578
 40
0.7116079924
 40
0.7456839888
 40
0.778926259
 40
0.8114645325
 40
0.8434371096
 40
0.87498973
 40
0.9374062532
 40
1.0
 40
1.0
 40
1.0
 40
1.0
 10
1.2577642321
 20
-0.8689160348
 30
0.0
 10
1.2664510729
 20
-0.8323158875
 30
0.0
 10
1.2846364007
 20
-0.7792761772
 30
0.0
 10
1.3164737907
 20
-0.7233146799
 30
0.0
 10
1.3368478292
 20
-0.6943840414
 30
0.0
 10
1.3533434177
 20
-0.6739158758
 30
0.0
 10
1.3681536386
 20
-0.6578088852
 30
0.0
 10
1.3806213881
 20
-0.6455069119
 30
0.0
 10
1.388680597
 20
-0.6380527667
 30
0.0
 10
1.3952844816
 20
-0.6322313946
 30
0.0
 10
1.3994814441
 20
-0.628651667
 30
0.0
 10
1.4024455684
 20
-0.6261786158
 30
0.0
 10
1.4041368711
 20
-0.6247923656
 30
0.0
 10
1.4058195506
 20
-0.6234574639
 30
0.0
 10
1.4079132409
 20
-0.6218066323
 30
0.0
 10
1.412960044
 20
-0.6179031792
 30
0.0
 10
1.4206276529
 20
-0.6122179204
 30
0.0
 10
1.4310749485
 20
-0.6050014605
 30
0.0
 10
1.4417260439
 20
-0.5981611714
 30
0.0
 10
1.4561943736
 20
-0.5895459128
 30
0.0
 10
1.4748250565
 20
-0.5796995514
 30
0.0
 10
1.4980011757
 20
-0.569395445
 30
0.0
 10
1.5219932006
 20
-0.56060374
 30
0.0
 10
1.5467983982
 20
-0.5533248402
 30
0.0
 10
1.5680475357
 20
-0.5485415838
 30
0.0
 10
1.5854228908
 20
-0.5454637583
 30
0.0
 10
1.5987201528
 20
-0.543520896
 30
0.0
 10
1.6122205654
 20
-0.5419546942
 30
0.0
 10
1.6259242341
 20
-0.5407650649
 30
0.0
 10
1.6374751231
 20
-0.5400897358
 30
0.0
 10
1.6456332316
 20
-0.53978068
 30
0.0
 10
1.6503354979
 20
-0.5396502912
 30
0.0
 10
1.6538808893
 20
-0.5395758623
 30
0.0
 10
1.6574390311
 20
-0.539524946
 30
0.0
 10
1.6601136176
 20
-0.5395044245
 30
0.0
 10
1.6619006085
 20
-0.5394980669
 30
0.0
 10
1.6628060966
 20
-0.539496329
 30
0.0
 10
1.6637420406
 20
-0.5394961177
 30
0.0
 10
1.6650358954
 20
-0.5394978861
 30
0.0
 10
1.666676099
 20
-0.5395041678
 30
0.0
 10
1.6692940316
 20
-0.5395228328
 30
0.0
 10
1.6725568707
 20
-0.5395622926
 30
0.0
 10
1.6777520183
 20
-0.5396598118
 30
0.0
 10
1.6842079071
 20
-0.5398460546
 30
0.0
 10
1.6919080483
 20
-0.5401735058
 30
0.0
 10
1.7020562664
 20
-0.540746105
 30
0.0
 10
1.7194872484
 20
-0.5420977337
 30
0.0
 10
1.7438999994
 20
-0.5450541174
 30
0.0
 10
1.7724123234
 20
-0.5502887085
 30
0.0
 10
1.7999411744
 20
-0.5571869139
 30
0.0
 10
1.8264858533
 20
-0.5657510138
 30
0.0
 10
1.8604314096
 20
-0.5793348066
 30
0.0
 10
1.9007382595
 20
-0.6006191555
 30
0.0
 10
1.9301713085
 20
-0.6220482432
 30
0.0
 10
1.9440809047
 20
-0.6337227682
 30
0.0
 11
1.2577642321
 21
-0.8689160348
 31
0.0
 11
1.2954047925
 21
-0.762527704
 31
0.0
 11
1.3219189904
 21
-0.7160681076
 31
0.0
 11
1.3370995837
 21
-0.6945218886
 31
0.0
 11
1.3535625066
 21
-0.6740980556
 31
0.0
 11
1.3713077591
 21
-0.6547966088
 31
0.0
 11
1.380661259
 21
-0.6455667802
 31
0.0
 11
1.3903353413
 21
-0.636617548
 31
0.0
 11
1.3952926008
 21
-0.6322481557
 31
0.0
 11
1.4003300059
 21
-0.6279489125
 31
0.0
 11
1.4028787631
 21
-0.6258255968
 31
0.0
 11
1.4041496785
 21
-0.6247875743
 31
0.0
 11
1.4054024301
 21
-0.6237890505
 31
0.0
 11
1.4079174726
 21
-0.6218096414
 31
0.0
 11
1.4104452345
 21
-0.6198537499
 31
0.0
 11
1.4206834757
 21
-0.6122653615
 31
0.0
 11
1.4311252265
 21
-0.6050532569
 31
0.0
 11
1.441770487
 21
-0.5982174359
 31
0.0
 11
1.4526192571
 21
-0.5917578987
 31
0.0
 11
1.4749273264
 21
-0.5799676754
 31
0.0
 11
1.4980494342
 21
-0.5696825869
 31
0.0
 11
1.5219855807
 21
-0.5609026334
 31
0.0
 11
1.5467357658
 21
-0.5536278148
 31
0.0
 11
1.5722999896
 21
-0.547858131
 31
0.0
 11
1.5853873659
 21
-0.5455377148
 31
0.0
 11
1.5986782519
 21
-0.5435935822
 31
0.0
 11
1.6121726476
 21
-0.5420257334
 31
0.0
 11
1.6258705529
 21
-0.5408341682
 31
0.0
 11
1.6397719679
 21
-0.5400188868
 31
0.0
 11
1.6467989915
 21
-0.5397523525
 31
0.0
 11
1.6503314808
 21
-0.5396543621
 31
0.0
 11
1.6538768925
 21
-0.5395798892
 31
0.0
 11
1.6574349221
 21
-0.5395289341
 31
0.0
 11
1.661005671
 21
-0.5395014967
 31
0.0
 11
1.6619003456
 21
-0.539498312
 31
0.0
 11
1.6627958152
 21
-0.5394965972
 31
0.0
 11
1.6637221315
 21
-0.5394963604
 31
0.0
 11
1.6647081738
 21
-0.5394977083
 31
0.0
 11
1.6666773663
 21
-0.5395052567
 31
0.0
 11
1.668642703
 21
-0.5395192751
 31
0.0
 11
1.6725618086
 21
-0.5395667219
 31
0.0
 11
1.6764654906
 21
-0.5396400488
 31
0.0
 11
1.6842265839
 21
-0.5398643428
 31
0.0
 11
1.6919259827
 21
-0.5401921572
 31
0.0
 11
1.6995636871
 21
-0.5406234918
 31
0.0
 11
1.7146540128
 21
-0.5417967222
 31
0.0
 11
1.7440943314
 21
-0.5453854267
 31
0.0
 11
1.7725475395
 21
-0.5506304563
 31
0.0
 11
1.8000136372
 21
-0.5575318111
 31
0.0
 11
1.8264926245
 21
-0.5660894911
 31
0.0
 11
1.8519845014
 21
-0.5763034962
 31
0.0
 11
1.9000069239
 21
-0.6017004819
 31
0.0
 11
1.9440809047
 21
-0.6337227682
 31
0.0
  0
SPLINE
  5
371
100
AcDbEntity
  8
ASSI
100
AcDbSpline
 62
7
  6
CONTINUOUS
 70
0
 71
3
 72
9
 73
5
 74
3
 42
0.0000001
 43
0.0000001
 44
0.0000000001
 12
0.2236492813
 22
-0.2014091684
 32
0.0
 13
0.0048149468
 23
-0.3009343291
 33
0.0
 40
0.0
 40
0.0
 40
0.0
 40
0.0
 40
0.7232361125
 40
1.0
 40
1.0
 40
1.0
 40
1.0
 10
1.9440809047
 20
-0.6337227682
 30
0.0
 10
1.9979979836
 20
-0.6822782295
 30
0.0
 10
2.0479589457
 20
-0.7800508685
 30
0.0
 10
2.0559253428
 20
-0.8799707261
 30
0.0
 10
2.0563695439
 20
-0.907733311
 30
0.0
 11
1.9440809047
 21
-0.6337227682
 31
0.0
 11
2.0482990106
 21
-0.8248267828
 31
0.0
 11
2.0563695439
 21
-0.907733311
 31
0.0
  0
SPLINE
  5
372
100
AcDbEntity
  8
ASSI
100
AcDbSpline
 62
7
  6
CONTINUOUS
 70
0
 71
3
 72
30
 73
26
 74
24
 42
0.0000001
 43
0.0000001
 44
0.0000000001
 12
-0.0109493033
 22
-0.5542646108
 32
0.0
 13
-0.3969213036
 23
-0.3870177841
 33
0.0
 40
0.0
 40
0.0
 40
0.0
 40
0.0
 40
0.1256757777
 40
0.1872027376
 40
0.2482453177
 40
0.3091245536
 40
0.3701640585
 40
0.400849431
 40
0.4316947285
 40
0.4627388681
 40
0.4783480524
 40
0.486176409
 40
0.494021336
 40
0.5020506603
 40
0.5100743083
 40
0.5261048927
 40
0.5421137896
 40
0.5581016808
 40
0.5900170151
 40
0.6218565745
 40
0.6853291941
 40
0.7485657294
 40
0.8116114913
 40
0.8745122034
 40
1.0
 40
1.0
 40
1.0
 40
1.0
 10
2.0563695439
 20
-0.907733311
 30
0.0
 10
2.0559108565
 20
-0.930952523
 30
0.0
 10
2.0529749823
 20
-0.9655654612
 30
0.0
 10
2.0442274702
 20
-1.0106264414
 30
0.0
 10
2.0353765297
 20
-1.0433834699
 30
0.0
 10
2.0241895155
 20
-1.0753192864
 30
0.0
 10
2.0129387819
 20
-1.1012071683
 30
0.0
 10
2.0028001622
 20
-1.1214655854
 30
0.0
 10
1.9946004089
 20
-1.1364835555
 30
0.0
 10
1.9872970454
 20
-1.1488060534
 30
0.0
 10
1.9819379794
 20
-1.1573294123
 30
0.0
 10
1.9788005337
 20
-1.1621847415
 30
0.0
 10
1.9763843162
 20
-1.1658380746
 30
0.0
 10
1.9739453937
 20
-1.1695196081
 30
0.0
 10
1.9706518568
 20
-1.1744494023
 30
0.0
 10
1.9665102958
 20
-1.1805859416
 30
0.0
 10
1.9614971143
 20
-1.1879095495
 30
0.0
 10
1.954762481
 20
-1.1976116788
 30
0.0
 10
1.9462409303
 20
-1.2096341418
 30
0.0
 10
1.9323937714
 20
-1.2286347842
 30
0.0
 10
1.9146697494
 20
-1.2519687761
 30
0.0
 10
1.8927200348
 20
-1.279319146
 30
0.0
 10
1.8701114536
 20
-1.305989905
 30
0.0
 10
1.8391190206
 20
-1.340610796
 30
0.0
 10
1.8148489064
 20
-1.3655997431
 30
0.0
 10
1.7982459798
 20
-1.3817884127
 30
0.0
 11
2.0563695439
 21
-0.907733311
 31
0.0
 11
2.0503191203
 21
-0.9771413234
 31
0.0
 11
2.0438085841
 21
-1.0106230786
 31
0.0
 11
2.0349744983
 21
-1.0432899998
 31
0.0
 11
2.023816863
 21
-1.075142087
 31
0.0
 11
2.0103356781
 21
-1.1061793402
 31
0.0
 11
2.0027237546
 21
-1.1213924041
 31
0.0
 11
1.9945309437
 21
-1.1364017595
 31
0.0
 11
1.9857572454
 21
-1.1512074064
 31
0.0
 11
1.9811525634
 21
-1.1585338391
 31
0.0
 11
1.9787957643
 21
-1.1621779578
 31
0.0
 11
1.9764026597
 21
-1.1658093448
 31
0.0
 11
1.9739424086
 21
-1.1695188851
 31
0.0
 11
1.9714718793
 21
-1.1732178047
 31
0.0
 11
1.9664999859
 21
-1.1805837811
 31
0.0
 11
1.9614869795
 21
-1.187907274
 31
0.0
 11
1.95643286
 21
-1.1951882834
 31
0.0
 11
1.9462012821
 21
-1.2096228519
 31
0.0
 11
1.935805252
 21
-1.2238874865
 31
0.0
 11
1.9145198357
 21
-1.2519069538
 31
0.0
 11
1.8925766109
 21
-1.2792466855
 31
0.0
 11
1.8699755778
 21
-1.3059066816
 31
0.0
 11
1.8467167364
 21
-1.331886942
 31
0.0
 11
1.7982459798
 21
-1.3817884127
 31
0.0
  0
SPLINE
  5
373
100
AcDbEntity
  8
ASSI
100
AcDbSpline
 62
7
  6
CONTINUOUS
 70
0
 71
3
 72
27
 73
23
 74
21
 42
0.0000001
 43
0.0000001
 44
0.0000000001
 12
0.627963475
 22
0.6035947566
 32
0.0
 13
0.0156113426
 23
0.8708737761
 33
0.0
 40
0.0
 40
0.0
 40
0.0
 40
0.0
 40
0.126536778
 40
0.1892835189
 40
0.2517325021
 40
0.3139196819
 40
0.3758814682
 40
0.4067899068
 40
0.4376558305
 40
0.4684838924
 40
0.4838852571
 40
0.4992789092
 40
0.5146468529
 40
0.5299757161
 40
0.5605377228
 40
0.5910126396
 40
0.621447146
 40
0.682370671
 40
0.7436934945
 40
0.8057819045
 40
0.8689888807
 40
1.0
 40
1.0
 40
1.0
 40
1.0
 10
1.8509298889
 20
-1.6300262816
 30
0.0
 10
1.8774167138
 20
-1.6045673031
 30
0.0
 10
1.916171014
 20
-1.565564645
 30
0.0
 10
1.9658122636
 20
-1.5119156126
 30
0.0
 10
2.0018009167
 20
-1.4711079006
 30
0.0
 10
2.0366485297
 20
-1.4296195988
 30
0.0
 10
2.0647600861
 20
-1.3944500844
 30
0.0
 10
2.0866726322
 20
-1.3659804344
 30
0.0
 10
2.1028083506
 20
-1.344473897
 30
0.0
 10
2.116023805
 20
-1.3264070515
 30
0.0
 10
2.1264462998
 20
-1.3118646871
 30
0.0
 10
2.1342045601
 20
-1.3009354647
 30
0.0
 10
2.1418149634
 20
-1.2899275192
 30
0.0
 10
2.151619578
 20
-1.2750870112
 30
0.0
 10
2.1633110101
 20
-1.2562412527
 30
0.0
 10
2.1764184769
 20
-1.2331354886
 30
0.0
 10
2.1926570174
 20
-1.2017019624
 30
0.0
 10
2.2106647283
 20
-1.1611407789
 30
0.0
 10
2.2285125688
 20
-1.1106304225
 30
0.0
 10
2.2426117069
 20
-1.0582578075
 30
0.0
 10
2.2565791784
 20
-0.9851136433
 30
0.0
 10
2.2611165099
 20
-0.9286758189
 30
0.0
 10
2.261798263
 20
-0.8906444361
 30
0.0
 11
1.8509298889
 21
-1.6300262816
 31
0.0
 11
1.9285933976
 21
-1.5518228076
 31
0.0
 11
1.9657093702
 21
-1.5117056724
 31
0.0
 11
2.0016851409
 21
-1.4709080943
 31
0.0
 11
2.0365207098
 21
-1.4294300733
 31
0.0
 11
2.0702160768
 21
-1.3872716092
 31
0.0
 11
2.0866361846
 21
-1.365937211
 31
0.0
 11
2.102771242
 21
-1.3444327021
 31
0.0
 11
2.1186212489
 21
-1.3227580825
 31
0.0
 11
2.1264393584
 21
-1.3118569811
 31
0.0
 11
2.1341862053
 21
-1.3009133521
 31
0.0
 11
2.1417824357
 21
-1.2898918293
 31
0.0
 11
2.1491458691
 21
-1.2787542175
 31
0.0
 11
2.1631743448
 21
-1.2561307265
 31
0.0
 11
2.1762716325
 21
-1.2330428792
 31
0.0
 11
2.1884377322
 21
-1.2094906755
 31
0.0
 11
2.2099763675
 21
-1.1609931992
 31
0.0
 11
2.2277902508
 21
-1.1106382974
 31
0.0
 11
2.241879382
 21
-1.0584259702
 31
0.0
 11
2.2522437611
 21
-1.0043562176
 31
0.0
 11
2.261798263
 21
-0.8906444361
 31
0.0
  0
SPLINE
  5
374
100
AcDbEntity
  8
ASSI
100
AcDbSpline
 62
7
  6
CONTINUOUS
 70
0
 71
3
 72
79
 73
75
 74
73
 42
0.0000001
 43
0.0000001
 44
0.0000000001
 12
-0.045770919
 22
1.7837280613
 32
0.0
 13
-0.3413776588
 23
-1.7513543806
 33
0.0
 40
0.0
 40
0.0
 40
0.0
 40
0.0
 40
0.0720432973
 40
0.1053580877
 40
0.137317437
 40
0.168337473
 40
0.1836436356
 40
0.1988876852
 40
0.2141295959
 40
0.2294293675
 40
0.237120448
 40
0.2448481374
 40
0.2526196348
 40
0.2565241376
 40
0.2584814464
 40
0.2604422621
 40
0.2623749332
 40
0.2643063602
 40
0.2681657098
 40
0.2758720397
 40
0.2912484724
 40
0.3219631514
 40
0.3528484371
 40
0.3841533512
 40
0.4000420222
 40
0.4161241429
 40
0.4324273191
 40
0.4489780509
 40
0.4658016682
 40
0.4743237566
 40
0.4829230053
 40
0.4916022364
 40
0.5003641949
 40
0.5047770745
 40
0.5092116298
 40
0.5114371414
 40
0.5136681922
 40
0.5159048215
 40
0.517025241
 40
0.517585979
 40
0.5181470699
 40
0.5186621911
 40
0.519177008
 40
0.5202057313
 40
0.5222595517
 40
0.5243085702
 40
0.5263528246
 40
0.5304271849
 40
0.5344829508
 40
0.5425398763
 40
0.5505262347
 40
0.5584446499
 40
0.5662978142
 40
0.5818187815
 40
0.5971126949
 40
0.6122034637
 40
0.6418694631
 40
0.6710323071
 40
0.6999123688
 40
0.7287365078
 40
0.7432025407
 40
0.7504609955
 40
0.7577407837
 40
0.7614027404
 40
0.7650581801
 40
0.7723514127
 40
0.7868811238
 40
0.8013641485
 40
0.8158338945
 40
0.8448591039
 40
0.8742303173
 40
0.9042035429
 40
0.9350197891
 40
1.0
 40
1.0
 40
1.0
 40
1.0
 10
2.261798263
 20
-0.8906444361
 30
0.0
 10
2.2606991004
 20
-0.8478092191
 30
0.0
 10
2.2543715826
 20
-0.7850025974
 30
0.0
 10
2.2337824941
 20
-0.7058353593
 30
0.0
 10
2.2133180315
 20
-0.6522081905
 30
0.0
 10
2.191623606
 20
-0.6108675057
 30
0.0
 10
2.1716434646
 20
-0.580154059
 30
0.0
 10
2.1553810975
 20
-0.5582829081
 30
0.0
 10
2.1377785974
 20
-0.5374818665
 30
0.0
 10
2.1220192094
 20
-0.52106635
 30
0.0
 10
2.1087671119
 20
-0.5084854015
 30
0.0
 10
2.0984753536
 20
-0.499299316
 30
0.0
 10
2.0896359421
 20
-0.4918764545
 30
0.0
 10
2.0833078473
 20
-0.4868059749
 30
0.0
 10
2.0796488688
 20
-0.4839319503
 30
0.0
 10
2.0768845931
 20
-0.4818179712
 30
0.0
 10
2.0741614892
 20
-0.4796760471
 30
0.0
 10
2.0705209301
 20
-0.4768744903
 30
0.0
 10
2.064124289
 20
-0.4720238364
 30
0.0
 10
2.0511886722
 20
-0.4625635056
 30
0.0
 10
2.0247318365
 20
-0.4445506105
 30
0.0
 10
1.9851569288
 20
-0.421392919
 30
0.0
 10
1.9350643591
 20
-0.3978978765
 30
0.0
 10
1.8913709061
 20
-0.3819764997
 30
0.0
 10
1.8552487687
 20
-0.3713829695
 30
0.0
 10
1.8273740003
 20
-0.3644637235
 30
0.0
 10
1.7988546916
 20
-0.358611486
 30
0.0
 10
1.7696905476
 20
-0.3538256755
 30
0.0
 10
1.7449570877
 20
-0.3507394864
 30
0.0
 10
1.7248603098
 20
-0.3487973275
 30
0.0
 10
1.7095606998
 20
-0.3476006084
 30
0.0
 10
1.6940997718
 20
-0.3466701461
 30
0.0
 10
1.681112601
 20
-0.3461179561
 30
0.0
 10
1.6706435075
 20
-0.3458083882
 30
0.0
 10
1.6640589932
 20
-0.3456700336
 30
0.0
 10
1.6587713639
 20
-0.3455925774
 30
0.0
 10
1.6547906464
 20
-0.3455508395
 30
0.0
 10
1.6514670606
 20
-0.3455306045
 30
0.0
 10
1.6491368755
 20
-0.3455223889
 30
0.0
 10
1.6478032607
 20
-0.3455218308
 30
0.0
 10
1.6468296197
 20
-0.3455167788
 30
0.0
 10
1.645883422
 20
-0.345532965
 30
0.0
 10
1.6446590992
 20
-0.3455487159
 30
0.0
 10
1.642519751
 20
-0.3455826795
 30
0.0
 10
1.6394681643
 20
-0.3456393242
 30
0.0
 10
1.6358130029
 20
-0.3457235434
 30
0.0
 10
1.6309569251
 20
-0.3458561553
 30
0.0
 10
1.6249088605
 20
-0.3460606977
 30
0.0
 10
1.6152898768
 20
-0.3464702111
 30
0.0
 10
1.6033534174
 20
-0.3471364534
 30
0.0
 10
1.5891396438
 20
-0.3481862964
 30
0.0
 10
1.5750680223
 20
-0.3494847155
 30
0.0
 10
1.5565689565
 20
-0.3515391995
 30
0.0
 10
1.5337856576
 20
-0.3547230171
 30
0.0
 10
1.5069056219
 20
-0.3595544515
 30
0.0
 10
1.4720264101
 20
-0.3672784606
 30
0.0
 10
1.429711488
 20
-0.3794161144
 30
0.0
 10
1.3809251204
 20
-0.3980732355
 30
0.0
 10
1.334422903
 20
-0.4207413274
 30
0.0
 10
1.2976163622
 20
-0.4429481708
 30
0.0
 10
1.2729617573
 20
-0.4601687063
 30
0.0
 10
1.2591443928
 20
-0.4704996761
 30
0.0
 10
1.2506343505
 20
-0.4771910372
 30
0.0
 10
1.2438599082
 20
-0.4826210756
 30
0.0
 10
1.2371513594
 20
-0.4881451724
 30
0.0
 10
1.2256207605
 20
-0.4979797909
 30
0.0
 10
1.209695908
 20
-0.5125767651
 30
0.0
 10
1.1914829015
 20
-0.5309524084
 30
0.0
 10
1.1684072613
 20
-0.556592264
 30
0.0
 10
1.1417764843
 20
-0.590875814
 30
0.0
 10
1.1135830906
 20
-0.6353220937
 30
0.0
 10
1.0891076922
 20
-0.6831213773
 30
0.0
 10
1.0609411489
 20
-0.7524977852
 30
0.0
 10
1.0462173063
 20
-0.8078485419
 30
0.0
 10
1.0388230422
 20
-0.8457830009
 30
0.0
 11
2.261798263
 21
-0.8906444361
 31
0.0
 11
2.2476178805
 21
-0.7628810121
 31
0.0
 11
2.2325151561
 21
-0.7053874713
 31
0.0
 11
2.2120707429
 21
-0.6521527113
 31
0.0
 11
2.186284641
 21
-0.6031767321
 31
0.0
 11
2.1713884568
 21
-0.5802857853
 31
0.0
 11
2.1551568503
 21
-0.5584595337
 31
0.0
 11
2.1375898217
 21
-0.5376979773
 31
0.0
 11
2.1186873709
 21
-0.5180011161
 31
0.0
 11
2.1087353621
 21
-0.5085519462
 31
0.0
 11
2.0984494978
 21
-0.4993689501
 31
0.0
 11
2.087829778
 21
-0.4904521278
 31
0.0
 11
2.0823947223
 21
-0.4860935318
 31
0.0
 11
2.0796458954
 21
-0.4839391876
 31
0.0
 11
2.0768762026
 21
-0.4818014793
 31
0.0
 11
2.0741571648
 21
-0.4796804072
 31
0.0
 11
2.0714280338
 21
-0.4775759709
 31
0.0
 11
2.0659394924
 21
-0.473417006
 31
0.0
 11
2.0548412918
 21
-0.4652987064
 31
0.0
 11
2.0321604199
 21
-0.4498606285
 31
0.0
 11
1.9848607929
 21
-0.4221785578
 31
0.0
 11
1.9349773217
 21
-0.3987552672
 31
0.0
 11
1.8825100062
 21
-0.3795907567
 31
0.0
 11
1.8553074068
 21
-0.371605544
 31
0.0
 11
1.8274588463
 21
-0.3646850263
 31
0.0
 11
1.7989643248
 21
-0.3588292036
 31
0.0
 11
1.7698238423
 21
-0.354038076
 31
0.0
 11
1.7400373986
 21
-0.3503116434
 31
0.0
 11
1.7249019414
 21
-0.3488476877
 31
0.0
 11
1.7096049939
 21
-0.3476499058
 31
0.0
 11
1.6941465561
 21
-0.3467182977
 31
0.0
 11
1.6785266281
 21
-0.3460528633
 31
0.0
 11
1.6706561052
 21
-0.3458199613
 31
0.0
 11
1.6627452098
 21
-0.3456536027
 31
0.0
 11
1.6587746224
 21
-0.3455953772
 31
0.0
 11
1.6547939418
 21
-0.3455537875
 31
0.0
 11
1.6508031681
 21
-0.3455288337
 31
0.0
 11
1.6488039963
 21
-0.3455225953
 31
0.0
 11
1.6478034642
 21
-0.3455210357
 31
0.0
 11
1.6468023012
 21
-0.3455205158
 31
0.0
 11
1.6458832385
 21
-0.3455323183
 31
0.0
 11
1.6449647317
 21
-0.3455450914
 31
0.0
 11
1.6431293857
 21
-0.3455735497
 31
0.0
 11
1.6394653641
 21
-0.3456421142
 31
0.0
 11
1.6358102366
 21
-0.3457262095
 31
0.0
 11
1.6321640031
 21
-0.3458258354
 31
0.0
 11
1.624898218
 21
-0.3460716792
 31
0.0
 11
1.617668009
 21
-0.3463796457
 31
0.0
 11
1.6033143191
 21
-0.3471819469
 31
0.0
 11
1.5891029334
 21
-0.3482327387
 31
0.0
 11
1.5750338518
 21
-0.3495320214
 31
0.0
 11
1.5611070744
 21
-0.3510797948
 31
0.0
 11
1.5336804319
 21
-0.3549208139
 31
0.0
 11
1.506823006
 21
-0.359755796
 31
0.0
 11
1.4805347968
 21
-0.3655847411
 31
0.0
 11
1.429666028
 21
-0.3802245206
 31
0.0
 11
1.3810741255
 21
-0.3988401522
 31
0.0
 11
1.3347590894
 21
-0.4214316359
 31
0.0
 11
1.2907209197
 21
-0.4479989719
 31
0.0
 11
1.2695556597
 21
-0.4627735844
 31
0.0
 11
1.2591864859
 21
-0.4705336268
 31
0.0
 11
1.2489596163
 21
-0.4785421599
 31
0.0
 11
1.2438659312
 21
-0.4826346704
 31
0.0
 11
1.238829716
 21
-0.4867794231
 31
0.0
 11
1.2289296951
 21
-0.4952256554
 31
0.0
 11
1.2098192914
 21
-0.5127450276
 31
0.0
 11
1.1916284053
 21
-0.5311002766
 31
0.0
 11
1.1743570368
 21
-0.5502914024
 31
0.0
 11
1.1425728524
 21
-0.5911812842
 31
0.0
 11
1.1144667383
 21
-0.6354146731
 31
0.0
 11
1.0900386944
 21
-0.682991569
 31
0.0
 11
1.0692887207
 21
-0.733911972
 31
0.0
 11
1.0388230422
 21
-0.8457830009
 31
0.0
  0
SPLINE
  5
375
100
AcDbEntity
  8
ASSI
100
AcDbSpline
 62
7
  6
CONTINUOUS
 70
0
 71
3
 72
12
 73
8
 74
6
 42
0.0000001
 43
0.0000001
 44
0.0000000001
 12
0.0
 22
-0.4825111602
 32
0.0
 13
-0.4787330557
 23
-0.0602625316
 33
0.0
 40
0.0
 40
0.0
 40
0.0
 40
0.0
 40
0.1701555955
 40
0.3687014366
 40
0.5372529621
 40
0.7023418116
 40
1.0
 40
1.0
 40
1.0
 40
1.0
 10
-3.6982248568
 20
2.8947174993
 30
0.0
 10
-3.6982248568
 20
2.8673501747
 30
0.0
 10
-3.7011936334
 20
2.8076505155
 30
0.0
 10
-3.7305801485
 20
2.7248885037
 30
0.0
 10
-3.7852406113
 20
2.6556349465
 30
0.0
 10
-3.8812259504
 20
2.6140542868
 30
0.0
 10
-3.9562126078
 20
2.6110901815
 30
0.0
 10
-4.0037122125
 20
2.6051109695
 30
0.0
 11
-3.6982248568
 21
2.8947174993
 31
0.0
 11
-3.7046279746
 21
2.8128655953
 31
0.0
 11
-3.7373764508
 21
2.7228362155
 31
0.0
 11
-3.7897971565
 21
2.660656541
 31
0.0
 11
-3.8616586538
 21
2.6262879989
 31
0.0
 11
-4.0037122125
 21
2.6051109695
 31
0.0
  0
SPLINE
  5
376
100
AcDbEntity
  8
ASSI
100
AcDbSpline
 62
7
  6
CONTINUOUS
 70
0
 71
3
 72
12
 73
8
 74
6
 42
0.0000001
 43
0.0000001
 44
0.0000000001
 12
0.4787330669
 22
-0.0602625404
 32
0.0
 13
-0.0
 23
-0.4825111728
 33
0.0
 40
0.0
 40
0.0
 40
0.0
 40
0.0
 40
0.2976582067
 40
0.4627470519
 40
0.631298573
 40
0.8298444089
 40
1.0
 40
1.0
 40
1.0
 40
1.0
 10
-4.003712225
 20
3.1843240306
 30
0.0
 10
-3.9562126163
 20
3.1783448174
 30
0.0
 10
-3.8812259543
 20
3.1753807134
 30
0.0
 10
-3.7852406113
 20
3.133800052
 30
0.0
 10
-3.7305801485
 20
3.0645464948
 30
0.0
 10
-3.7011936334
 20
2.981784483
 30
0.0
 10
-3.6982248568
 20
2.9220848239
 30
0.0
 10
-3.6982248568
 20
2.8947174993
 30
0.0
 11
-4.003712225
 21
3.1843240306
 31
0.0
 11
-3.8616586538
 21
3.1631469996
 31
0.0
 11
-3.7897971565
 21
3.1287784575
 31
0.0
 11
-3.7373764508
 21
3.066598783
 31
0.0
 11
-3.7046279746
 21
2.9765694032
 31
0.0
 11
-3.6982248568
 21
2.8947174993
 31
0.0
  0
SPLINE
  5
377
100
AcDbEntity
  8
ASSI
100
AcDbSpline
 62
7
  6
CONTINUOUS
 70
0
 71
3
 72
14
 73
10
 74
8
 42
0.0000001
 43
0.0000001
 44
0.0000000001
 12
1.2052792386
 22
0.0446696468
 32
0.0
 13
0.0
 23
1.2061066198
 33
0.0
 40
0.0
 40
0.0
 40
0.0
 40
0.0
 40
0.18735675
 40
0.3554836171
 40
0.5087025918
 40
0.6541427977
 40
0.809677607
 40
0.8990516101
 40
1.0
 40
1.0
 40
1.0
 40
1.0
 10
-4.0732552488
 20
2.2644349314
 30
0.0
 10
-3.9979828485
 20
2.2672246513
 30
0.0
 10
-3.8548424268
 20
2.2695188827
 30
0.0
 10
-3.6524803879
 20
2.3055849181
 30
0.0
 10
-3.4761396585
 20
2.3754795513
 30
0.0
 10
-3.3334667983
 20
2.4963073926
 30
0.0
 10
-3.2622876158
 20
2.6409310845
 30
0.0
 10
-3.2341185393
 20
2.777430517
 30
0.0
 10
-3.2297172104
 20
2.8541326588
 30
0.0
 10
-3.2297172104
 20
2.8947174993
 30
0.0
 11
-4.0732552488
 21
2.2644349314
 31
0.0
 11
-3.8475795091
 21
2.2760065945
 31
0.0
 11
-3.648311396
 21
2.3135766956
 31
0.0
 11
-3.4782044702
 21
2.3857853498
 31
0.0
 11
-3.3458990835
 21
2.500964325
 31
0.0
 11
-3.2601898796
 21
2.6678311189
 31
0.0
 11
-3.2375089562
 21
2.7732125523
 31
0.0
 11
-3.2297172104
 21
2.8947174993
 31
0.0
  0
SPLINE
  5
378
100
AcDbEntity
  8
ASSI
100
AcDbSpline
 62
7
  6
CONTINUOUS
 70
0
 71
3
 72
14
 73
10
 74
8
 42
0.0000001
 43
0.0000001
 44
0.0000000001
 12
0.0
 22
1.2061066505
 32
0.0
 13
-1.2052792685
 23
0.0446696548
 33
0.0
 40
0.0
 40
0.0
 40
0.0
 40
0.0
 40
0.1009483873
 40
0.1903223882
 40
0.3458571935
 40
0.4912973956
 40
0.6445163665
 40
0.8126432293
 40
1.0
 40
1.0
 40
1.0
 40
1.0
 10
-3.2297172104
 20
2.8947174993
 30
0.0
 10
-3.2297172104
 20
2.9353023397
 30
0.0
 10
-3.2341185393
 20
3.0120044815
 30
0.0
 10
-3.2622876158
 20
3.148503914
 30
0.0
 10
-3.3334667983
 20
3.2931276059
 30
0.0
 10
-3.4761396585
 20
3.4139554472
 30
0.0
 10
-3.6524803879
 20
3.4838500804
 30
0.0
 10
-3.8548424369
 20
3.5199161176
 30
0.0
 10
-3.997982869
 20
3.5222103475
 30
0.0
 10
-4.0732552795
 20
3.5250000683
 30
0.0
 11
-3.2297172104
 21
2.8947174993
 31
0.0
 11
-3.2375089562
 21
3.0162224463
 31
0.0
 11
-3.2601898796
 21
3.1216038797
 31
0.0
 11
-3.3458990835
 21
3.2884706736
 31
0.0
 11
-3.4782044702
 21
3.4036496487
 31
0.0
 11
-3.648311396
 21
3.4758583029
 31
0.0
 11
-3.8475795091
 21
3.513428404
 31
0.0
 11
-4.0732552795
 21
3.5250000683
 31
0.0
  0
SPLINE
  5
379
100
AcDbEntity
  8
ASSI
100
AcDbSpline
 62
7
  6
CONTINUOUS
 70
0
 71
3
 72
11
 73
7
 74
5
 42
0.0000001
 43
0.0000001
 44
0.0000000001
 12
0.0320715474
 22
0.0776949118
 32
0.0
 13
0.0432548011
 23
0.0721251543
 33
0.0
 40
0.0
 40
0.0
 40
0.0
 40
0.0
 40
0.1820491256
 40
0.4167563159
 40
0.8798529367
 40
1.0
 40
1.0
 40
1.0
 40
1.0
 10
-0.3902693564
 20
-0.8137481919
 30
0.0
 10
-0.3883231573
 20
-0.8090334283
 30
0.0
 10
-0.3837310594
 20
-0.7982966792
 30
0.0
 10
-0.3733630496
 20
-0.7759276858
 30
0.0
 10
-0.3626632906
 20
-0.7556440869
 30
0.0
 10
-0.3543865205
 20
-0.7415438299
 30
0.0
 10
-0.352654208
 20
-0.7386552881
 30
0.0
 11
-0.3902693564
 21
-0.8137481919
 31
0.0
 11
-0.3842504348
 21
-0.7996802567
 31
0.0
 11
-0.3759519245
 21
-0.7817835371
 31
0.0
 11
-0.357769051
 21
-0.7473684873
 31
0.0
 11
-0.352654208
 21
-0.7386552881
 31
0.0
  0
SPLINE
  5
37A
100
AcDbEntity
  8
DRAFT
100
AcDbSpline
 62
7
  6
CONTINUOUS
 70
0
 71
3
 72
25
 73
21
 74
19
 42
0.0000001
 43
0.0000001
 44
0.0000000001
 12
-14.5603451243
 22
0.0
 32
0.0
 13
14.5603451243
 23
0.0
 33
0.0
 40
0.0
 40
0.0
 40
0.0
 40
0.0
 40
0.062491574
 40
0.1249796028
 40
0.1874720071
 40
0.2499612237
 40
0.2812443314
 40
0.3125284361
 40
0.3750179919
 40
0.4375099369
 40
0.5000002627
 40
0.5624913621
 40
0.6249827036
 40
0.6874726143
 40
0.7187565856
 40
0.7500397214
 40
0.8125287507
 40
0.8750212855
 40
0.9375087968
 40
1.0
 40
1.0
 40
1.0
 40
1.0
 10
0.0000000055
 20
-17.5533505824
 30
0.0
 10
-0.3032996227
 20
-17.5533505824
 30
0.0
 10
-0.9115150217
 20
-17.4930283403
 30
0.0
 10
-1.7875165476
 20
-17.2268793875
 30
0.0
 10
-2.5944073148
 20
-16.793936574
 30
0.0
 10
-3.1842408694
 20
-16.3088088419
 30
0.0
 10
-3.5915652042
 20
-15.8576799572
 30
0.0
 10
-3.9530290147
 20
-15.3690604632
 30
0.0
 10
-4.3124191625
 20
-14.6951729565
 30
0.0
 10
-4.5772917173
 20
-13.8187298802
 30
0.0
 10
-4.6669692542
 20
-12.9073831917
 30
0.0
 10
-4.5772963412
 20
-11.9960399311
 30
0.0
 10
-4.3124316433
 20
-11.1195895304
 30
0.0
 10
-3.9530219915
 20
-10.445716175
 30
0.0
 10
-3.5915800654
 20
-9.9570800733
 30
0.0
 10
-3.1842493736
 20
-9.5059543475
 30
0.0
 10
-2.594373547
 20
-9.0208925084
 30
0.0
 10
-1.7875365746
 20
-8.5878394187
 30
0.0
 10
-0.9114892193
 20
-8.3218627701
 30
0.0
 10
-0.3032978362
 20
-8.261414754
 30
0.0
 10
-0.0000000074
 20
-8.261414754
 30
0.0
 11
0.0000000055
 21
-17.5533505824
 31
0.0
 11
-0.9054763084
 21
-17.4637479858
 31
0.0
 11
-1.7759802231
 21
-17.1990878629
 31
0.0
 11
-2.5778746501
 21
-16.7690840143
 31
0.0
 11
-3.2804827513
 21
-16.190987679
 31
0.0
 11
-3.5858258761
 21
-15.8529946201
 31
0.0
 11
-3.8566696084
 21
-15.4867561332
 31
0.0
 11
-4.2847000379
 21
-14.683853614
 31
0.0
 11
-4.5480937097
 21
-13.8129060925
 31
0.0
 11
-4.6370776609
 21
-12.907387035
 31
0.0
 11
-4.5480977021
 21
-12.0018562661
 31
0.0
 11
-4.2847088446
 21
-11.1309164698
 31
0.0
 11
-3.8566701294
 21
-10.3280125099
 31
0.0
 11
-3.5858375016
 21
-9.9617682275
 31
0.0
 11
-3.2804901392
 21
-9.6237784465
 31
0.0
 11
-2.5778592013
 21
-9.0457141589
 31
0.0
 11
-1.7759805949
 21
-8.6156767881
 31
0.0
 11
-0.9054644008
 21
-8.351082968
 31
0.0
 11
-0.0000000074
 21
-8.261414754
 31
0.0
  0
SPLINE
  5
37B
100
AcDbEntity
  8
DRAFT
100
AcDbSpline
 62
7
  6
CONTINUOUS
 70
0
 71
3
 72
25
 73
21
 74
19
 42
0.0000001
 43
0.0000001
 44
0.0000000001
 12
14.560345176
 22
0.0
 32
0.0
 13
-14.560345176
 23
0.0
 33
0.0
 40
0.0
 40
0.0
 40
0.0
 40
0.0
 40
0.0624913169
 40
0.124978794
 40
0.1874711862
 40
0.2499600711
 40
0.2812431293
 40
0.3125270185
 40
0.3750168254
 40
0.4375080475
 40
0.4999991435
 40
0.5624894837
 40
0.6249815491
 40
0.6874712137
 40
0.7187553937
 40
0.7500385718
 40
0.8125279189
 40
0.8750204454
 40
0.9375085157
 40
1.0
 40
1.0
 40
1.0
 40
1.0
 10
-0.0000000074
 20
-8.261414754
 30
0.0
 10
0.303298374
 20
-8.261414754
 30
0.0
 10
0.9114901183
 20
-8.3218631186
 30
0.0
 10
1.7875372166
 20
-8.5878394459
 30
0.0
 10
2.5943727775
 20
-9.0208920376
 30
0.0
 10
3.1842468205
 20
-9.505953015
 30
0.0
 10
3.5915778235
 20
-9.9570764688
 30
0.0
 10
3.9530190456
 20
-10.445711555
 30
0.0
 10
4.3124283604
 20
-11.1195832887
 30
0.0
 10
4.5772948573
 20
-11.9960319256
 30
0.0
 10
4.6669695496
 20
-12.9073745911
 30
0.0
 10
4.5772928202
 20
-13.8187219142
 30
0.0
 10
4.3124226929
 20
-14.6951670151
 30
0.0
 10
3.9530317045
 20
-15.3690558894
 30
0.0
 10
3.5915675438
 20
-15.8576766031
 30
0.0
 10
3.1842433314
 20
-16.3088074342
 30
0.0
 10
2.5944082152
 20
-16.7939359055
 30
0.0
 10
1.7875162804
 20
-17.2268794618
 30
0.0
 10
0.9115143722
 20
-17.4930285447
 30
0.0
 10
0.3032991998
 20
-17.5533505824
 30
0.0
 10
0.0000000055
 20
-17.5533505824
 30
0.0
 11
-0.0000000074
 21
-8.261414754
 31
0.0
 11
0.9054660135
 21
-8.3510833595
 31
0.0
 11
1.7759817291
 21
-8.6156770575
 31
0.0
 11
2.5778584004
 21
-9.0457136494
 31
0.0
 11
3.280487843
 21
-9.6237764499
 31
0.0
 11
3.5858351326
 21
-9.9617647768
 31
0.0
 11
3.8566672718
 21
-10.3280079362
 31
0.0
 11
4.2847059203
 21
-11.1309102216
 31
0.0
 11
4.5480960893
 21
-12.0018478077
 31
0.0
 11
4.6370777936
 21
-12.907378358
 31
0.0
 11
4.5480951981
 21
-13.8128977638
 31
0.0
 11
4.2847030064
 21
-14.6838475663
 31
0.0
 11
3.8566723212
 21
-15.4867517501
 31
0.0
 11
3.585828267
 21
-15.852991364
 31
0.0
 11
3.2804850332
 21
-16.1909857081
 31
0.0
 11
2.5778755682
 21
-16.7690833814
 31
0.0
 11
1.7759795563
 21
-17.1990880448
 31
0.0
 11
0.9054750398
 21
-17.4637482768
 31
0.0
 11
0.0000000055
 21
-17.5533505824
 31
0.0
  0
ELLIPSE
  5
37C
100
AcDbEntity
  8
ASSI
100
AcDbEllipse
 62
7
  6
CONTINUOUS
 10
10.299725766
 20
-21.049725766
 30
0.0
 11
-0.566073184
 21
0.566073184
 31
0.0
 40
0.999315002
 41
2.3565371065
 42
3.9266482006
  0
ELLIPSE
  5
37D
100
AcDbEntity
  8
ASSI
100
AcDbEllipse
 62
7
  6
CONTINUOUS
 10
10.299725766
 20
21.049725766
 30
0.0
 11
0.566073184
 21
0.566073184
 31
0.0
 40
0.999315002
 41
-0.7850555471
 42
0.7850555471
  0
ELLIPSE
  5
37E
100
AcDbEntity
  8
ASSI
100
AcDbEllipse
 62
7
  6
CONTINUOUS
 10
-10.299725766
 20
-21.049725766
 30
0.0
 11
-0.566073184
 21
-0.566073184
 31
0.0
 40
0.999315002
 41
-0.7850555471
 42
0.7850555471
  0
ELLIPSE
  5
37F
100
AcDbEntity
  8
ASSI
100
AcDbEllipse
 62
7
  6
CONTINUOUS
 10
-10.299725766
 20
21.049725766
 30
0.0
 11
0.566073184
 21
-0.566073184
 31
0.0
 40
0.999315002
 41
2.3565371065
 42
3.9266482006
  0
ELLIPSE
  5
380
100
AcDbEntity
  8
ASSI
100
AcDbEllipse
 62
7
  6
CONTINUOUS
 10
4.6043634339
 20
19.925
 30
0.0
 11
-0.0
 21
0.5
 31
0.0
 40
0.0087268678
 41
0.628329107
 42
1.5707963268
  0
ELLIPSE
  5
381
100
AcDbEntity
  8
ASSI
100
AcDbEllipse
 62
7
  6
CONTINUOUS
 10
-4.6043634339
 20
19.925
 30
0.0
 11
-0.0
 21
0.5
 31
0.0
 40
0.0087268678
 41
-1.5707963268
 42
-0.5344278497
  0
ELLIPSE
  5
382
100
AcDbEntity
  8
ASSI
100
AcDbEllipse
 62
7
  6
CONTINUOUS
 10
5.088207305
 20
19.2578377496
 30
0.0
 11
0.3
 21
0.0
 31
0.0
 40
0.1405408347
 41
0.0087266463
 42
1.5707963268
  0
ELLIPSE
  5
383
100
AcDbEntity
  8
ASSI
100
AcDbEllipse
 62
7
  6
CONTINUOUS
 10
4.911792695
 20
19.2578377496
 30
0.0
 11
0.3
 21
-0.0
 31
0.0
 40
0.1405408347
 41
1.5707963268
 42
3.1328660073
  0
ELLIPSE
  5
384
100
AcDbEntity
  8
ASSI
100
AcDbEllipse
 62
7
  6
CONTINUOUS
 10
-4.911792695
 20
19.2578377496
 30
0.0
 11
0.3
 21
0.0
 31
0.0
 40
0.1405408347
 41
0.0087266463
 42
1.5707963268
  0
ELLIPSE
  5
385
100
AcDbEntity
  8
ASSI
100
AcDbEllipse
 62
7
  6
CONTINUOUS
 10
-5.088207305
 20
19.2578377496
 30
0.0
 11
0.3
 21
0.0
 31
0.0
 40
0.1405408347
 41
1.5707963268
 42
3.1328660073
  0
ELLIPSE
  5
386
100
AcDbEntity
  8
ASSI
100
AcDbEllipse
 62
7
  6
CONTINUOUS
 10
-5.3956365661
 20
19.925
 30
0.0
 11
-0.0
 21
0.5
 31
0.0
 40
0.0087268678
 41
0.628329107
 42
1.5707963268
  0
ELLIPSE
  5
387
100
AcDbEntity
  8
ASSI
100
AcDbEllipse
 62
7
  6
CONTINUOUS
 10
5.3956365661
 20
19.925
 30
0.0
 11
-0.0
 21
0.5
 31
0.0
 40
0.0087268678
 41
-1.5707963268
 42
-0.5344278497
  0
ELLIPSE
  5
388
100
AcDbEntity
  8
RACCORDO
100
AcDbEllipse
 62
7
  6
CONTINUOUS
 10
10.299725766
 20
-21.049725766
 30
0.0
 11
-0.566073184
 21
0.566073184
 31
0.0
 40
0.999315002
 41
2.3565371065
 42
3.9266482006
  0
ELLIPSE
  5
389
100
AcDbEntity
  8
RACCORDO
100
AcDbEllipse
 62
7
  6
CONTINUOUS
 10
10.299725766
 20
21.049725766
 30
0.0
 11
0.566073184
 21
0.566073184
 31
0.0
 40
0.999315002
 41
-0.7850555471
 42
0.7850555471
  0
ELLIPSE
  5
38A
100
AcDbEntity
  8
RACCORDO
100
AcDbEllipse
 62
7
  6
CONTINUOUS
 10
-10.299725766
 20
-21.049725766
 30
0.0
 11
-0.566073184
 21
-0.566073184
 31
0.0
 40
0.999315002
 41
-0.7850555471
 42
0.7850555471
  0
ELLIPSE
  5
38B
100
AcDbEntity
  8
RACCORDO
100
AcDbEllipse
 62
7
  6
CONTINUOUS
 10
-10.299725766
 20
21.049725766
 30
0.0
 11
0.566073184
 21
-0.566073184
 31
0.0
 40
0.999315002
 41
2.3565371065
 42
3.9266482006
  0
ELLIPSE
  5
38C
100
AcDbEntity
  8
RACCORDO
100
AcDbEllipse
 62
7
  6
CONTINUOUS
 10
5.088207305
 20
19.2578377496
 30
0.0
 11
0.3
 21
0.0
 31
0.0
 40
0.1405408347
 41
0.0087266463
 42
1.5707963268
  0
ELLIPSE
  5
38D
100
AcDbEntity
  8
RACCORDO
100
AcDbEllipse
 62
7
  6
CONTINUOUS
 10
4.911792695
 20
19.2578377496
 30
0.0
 11
0.3
 21
-0.0
 31
0.0
 40
0.1405408347
 41
1.5707963268
 42
3.1328660073
  0
ELLIPSE
  5
38E
100
AcDbEntity
  8
RACCORDO
100
AcDbEllipse
 62
7
  6
CONTINUOUS
 10
-4.911792695
 20
19.2578377496
 30
0.0
 11
0.3
 21
0.0
 31
0.0
 40
0.1405408347
 41
0.0087266463
 42
1.5707963268
  0
ELLIPSE
  5
38F
100
AcDbEntity
  8
RACCORDO
100
AcDbEllipse
 62
7
  6
CONTINUOUS
 10
-5.088207305
 20
19.2578377496
 30
0.0
 11
0.3
 21
0.0
 31
0.0
 40
0.1405408347
 41
1.5707963268
 42
3.1328660073
  0
ELLIPSE
  5
390
100
AcDbEntity
  8
RACCORDO
100
AcDbEllipse
 62
7
  6
CONTINUOUS
 10
-4.6043634339
 20
19.925
 30
0.0
 11
-0.0
 21
0.5
 31
0.0
 40
0.0087268678
 41
-1.5707963268
 42
-0.5344278497
  0
ELLIPSE
  5
391
100
AcDbEntity
  8
RACCORDO
100
AcDbEllipse
 62
7
  6
CONTINUOUS
 10
4.6043634339
 20
19.925
 30
0.0
 11
-0.0
 21
0.5
 31
0.0
 40
0.0087268678
 41
0.628329107
 42
1.5707963268
  0
ELLIPSE
  5
392
100
AcDbEntity
  8
RACCORDO
100
AcDbEllipse
 62
7
  6
CONTINUOUS
 10
-5.3956365661
 20
19.925
 30
0.0
 11
-0.0
 21
0.5
 31
0.0
 40
0.0087268678
 41
0.628329107
 42
1.5707963268
  0
ELLIPSE
  5
393
100
AcDbEntity
  8
RACCORDO
100
AcDbEllipse
 62
7
  6
CONTINUOUS
 10
5.3956365661
 20
19.925
 30
0.0
 11
-0.0
 21
0.5
 31
0.0
 40
0.0087268678
 41
-1.5707963268
 42
-0.5344278497
  0
ENDSEC
  0
SECTION
  2
OBJECTS
  0
DICTIONARY
  5
C
100
AcDbDictionary
280
0
281
1
  3
ACAD_GROUP
350
D
  3
ACAD_MLINESTYLE
350
17
  3
ACAD_LAYOUT
350
1A
  3
ACAD_PLOTSETTINGS
350
19
  3
ACAD_PLOTSTYLENAME
350
E
  0
DICTIONARY
  5
D
102
{ACAD_REACTORS
330
C
102
}
100
AcDbDictionary
280
0
281
1
  0
ACDBDICTIONARYWDFLT
  5
E
102
{ACAD_REACTORS
330
C
102
}
100
AcDbDictionary
281
1
  3
Normal
350
F
100
AcDbDictionaryWithDefault
340
F
  0
DICTIONARY
  5
17
102
{ACAD_REACTORS
330
C
102
}
100
AcDbDictionary
280
0
281
1
  3
Standard
350
18
  0
DICTIONARY
  5
19
102
{ACAD_REACTORS
330
C
102
}
100
AcDbDictionary
281
1
  0
DICTIONARY
  5
1A
102
{ACAD_REACTORS
330
C
102
}
100
AcDbDictionary
281
1
  3
Model
350
394
  3
Layout1
350
395
  0
ACDBPLACEHOLDER
  5
F
102
{ACAD_REACTORS
330
E
102
}
  0
MLINESTYLE
  5
18
102
{ACAD_REACTORS
330
17
102
}
100
AcDbMlineStyle
  2
STANDARD
 70
0
  3

 62
256
 51
90.0
 52
90.0
 71
2
 49
0.5
 62
256
  6
BYLAYER
 49
-0.5
 62
256
  6
BYLAYER
  0
LAYOUT
  5
394
102
{ACAD_REACTORS
330
1A
102
}
100
AcDbPlotSettings
  1

  2
none_device
  4
ISO_A4_(297.00_x_210.00_MM)
  6

 40
0.0
 41
0.0
 42
0.0
 43
0.0
 44
297.0
 45
210.0
 46
0.0
 47
0.0
 48
0.0
 49
0.0
140
0.0
141
0.0
142
1.0
143
1.0
 70
1024
 72
1
 73
0
 74
0
  7

 75
0
147
1.0
148
0.0
149
0.0
100
AcDbLayout
  1
Model
 70
0
 71
0
 10
0.0
 20
0.0
 11
297.0
 21
210.0
 12
0.0
 22
0.0
 32
0.0
 14
0.0
 24
0.0
 34
0.0
 15
0.0
 25
0.0
 35
0.0
146
0.0
 13
0.0
 23
0.0
 33
0.0
 16
1.0
 26
0.0
 36
0.0
 17
0.0
 27
1.0
 37
0.0
 76
0
330
210
345
0
346
0
  0
LAYOUT
  5
395
102
{ACAD_REACTORS
330
1A
102
}
100
AcDbPlotSettings
  1

  2
none_device
  4
ISO_A4_(297.00_x_210.00_MM)
  6

 40
0.0
 41
0.0
 42
0.0
 43
0.0
 44
297.0
 45
210.0
 46
0.0
 47
0.0
 48
0.0
 49
0.0
140
0.0
141
0.0
142
1.0
143
1.0
 70
0
 72
1
 73
0
 74
0
  7

 75
0
147
1.0
148
0.0
149
0.0
100
AcDbLayout
  1
Layout1
 70
0
 71
1
 10
0.0
 20
0.0
 11
297.0
 21
210.0
 12
0.0
 22
0.0
 32
0.0
 14
0.0
 24
0.0
 34
0.0
 15
0.0
 25
0.0
 35
0.0
146
0.0
 13
0.0
 23
0.0
 33
0.0
 16
1.0
 26
0.0
 36
0.0
 17
0.0
 27
1.0
 37
0.0
 76
0
330
211
345
0
346
0
  0
ENDSEC
  0
EOF
