  0
SECTION
  2
HEADER
  9
$ACADVER
  1
AC1015
  9
$DWGCODEPAGE
  3
ANSI_1252
  9
$EXTMAX
 10
297.0
 20
210.0
 30
0.0
  9
$EXTMIN
 10
0.0
 20
0.0
 30
0.0
  9
$LIMMIN
 10
0.0
 20
0.0
  9
$LIMMAX
 10
297.0
 20
210.0
  9
$VIEWCTR
 10
148.5
 20
105.0
  9
$VIEWSIZE
 40
210.0
  9
$CLAYER
  8
0
  9
$LTSCALE
 40
16.335
  9
$CELTYPE
  6
BYLAYER
  9
$DIMSCALE
 40
1.0
  9
$DIMASZ
 40
3.0
  9
$DIMEXO
 40
1.85625
  9
$DIMDLI
 40
11.286
  9
$DIMEXE
 40
5.346
  9
$DIMCEN
 40
2.673
  9
$DIMLFAC
 40
1.0
  9
$DIMBLK
  1
_FILLED
  9
$DIMTXT
 40
3.0
  9
$DIMTOL
 70
1
  9
$DIMLIM
 70
0
  9
$DIMTFAC
 40
1.0
  9
$DIMTP
 40
0.01
  9
$DIMTM
 40
0.01
  9
$PDMODE
 70
3
  9
$PDSIZE
 40
3.0
  9
$HANDSEED
  5
799
  9
$TILEMODE
 70
1
  9
$MEASUREMENT
 70
1
  9
$INSUNITS
 70
4
  0
ENDSEC
  0
SECTION
  2
CLASSES
  0
CLASS
  1
ACDBDICTIONARYWDFLT
  2
AcDbDictionaryWithDefault
  3
AutoCAD 2000
 90
0
280
0
281
0
  0
CLASS
  1
ACDBPLACEHOLDER
  2
AcDbPlaceHolder
  3
AutoCAD 2000
 90
0
280
0
281
0
  0
CLASS
  1
LAYOUT
  2
AcDbLayout
  3
AutoCAD 2000
 90
0
280
0
281
0
  0
ENDSEC
  0
SECTION
  2
TABLES
  0
TABLE
  2
VPORT
  5
8
100
AcDbSymbolTable
 70
2
  0
VPORT
  5
1F4
100
AcDbSymbolTableRecord
100
AcDbViewportTableRecord
  2
*ACTIVE
 70
0
 10
0.0
 20
0.0
 11
1.0
 21
1.0
 12
148.5
 22
105.0
 13
0.0
 23
0.0
 14
1.0
 24
1.0
 15
0.0
 25
0.0
 16
0.0
 26
0.0
 36
1.0
 17
0.0
 27
0.0
 37
0.0
 40
210.0
 41
1.4142857143
 42
50.0
 43
0.0
 44
0.0
 50
0.0
 51
0.0
 71
0
 72
100
 73
1
 74
1
 75
0
 76
0
 77
0
 78
0
  0
ENDTAB
  0
TABLE
  2
LTYPE
  5
5
100
AcDbSymbolTable
 70
6
  0
LTYPE
  5
14
100
AcDbSymbolTableRecord
100
AcDbLinetypeTableRecord
  2
BYBLOCK
 70
0
  3

 72
65
 73
0
 40
0.0
  0
LTYPE
  5
15
100
AcDbSymbolTableRecord
100
AcDbLinetypeTableRecord
  2
BYLAYER
 70
0
  3

 72
65
 73
0
 40
0.0
  0
LTYPE
  5
16
100
AcDbSymbolTableRecord
100
AcDbLinetypeTableRecord
  2
CONTINUOUS
 70
64
  3
Solid line
 72
65
 73
0
 40
0.0
  0
LTYPE
  5
1F5
100
AcDbSymbolTableRecord
100
AcDbLinetypeTableRecord
  2
CENTER
 70
64
  3
____ _ ____ _ ____ _ ____ _ ____ _ ____ _ ____
 72
65
 73
4
 40
0.6
 49
0.375
 74
0
 49
-0.075
 74
0
 49
0.075
 74
0
 49
-0.075
 74
0
  0
LTYPE
  5
1F6
100
AcDbSymbolTableRecord
100
AcDbLinetypeTableRecord
  2
HIDDEN
 70
64
  3
- - - - - - - - - - - - - - - - - - - -
 72
65
 73
2
 40
0.2
 49
0.1
 74
0
 49
-0.1
 74
0
  0
LTYPE
  5
1F7
100
AcDbSymbolTableRecord
100
AcDbLinetypeTableRecord
  2
PHANTOM
 70
64
  3
_____ _ _ _____ _ _ _____ _ _ _____
 72
65
 73
6
 40
0.8
 49
0.45
 74
0
 49
-0.05
 74
0
 49
0.1
 74
0
 49
-0.05
 74
0
 49
0.1
 74
0
 49
-0.05
 74
0
  0
LTYPE
  5
1F8
100
AcDbSymbolTableRecord
100
AcDbLinetypeTableRecord
  2
DOT
 70
64
  3
. . . . . . . . . . . . . . . . . . . .
 72
65
 73
2
 40
0.2
 49
0.1
 74
0
 49
-0.1
 74
0
  0
LTYPE
  5
1F9
100
AcDbSymbolTableRecord
100
AcDbLinetypeTableRecord
  2
DASHED
 70
64
  3
- - - - - - - - - - - - - - - - - - - -
 72
65
 73
2
 40
0.2
 49
0.1
 74
0
 49
-0.1
 74
0
  0
ENDTAB
  0
TABLE
  2
LAYER
  5
2
100
AcDbSymbolTable
 70
36
  0
LAYER
  5
10
100
AcDbSymbolTableRecord
100
AcDbLayerTableRecord
  2
0
 70
0
 62
7
  6
CONTINUOUS
370
-3
390
F
  0
LAYER
  5
1FA
100
AcDbSymbolTableRecord
100
AcDbLayerTableRecord
  2
DEFAULT_1
 70
0
 62
7
  6
CENTER
370
-3
390
F
  0
LAYER
  5
1FB
100
AcDbSymbolTableRecord
100
AcDbLayerTableRecord
  2
DEFAULT_2
 70
0
 62
7
  6
HIDDEN
370
-3
390
F
  0
LAYER
  5
1FC
100
AcDbSymbolTableRecord
100
AcDbLayerTableRecord
  2
DEFAULT_3
 70
0
 62
7
  6
PHANTOM
370
-3
390
F
  0
LAYER
  5
1FD
100
AcDbSymbolTableRecord
100
AcDbLayerTableRecord
  2
ASSI
 70
0
 62
7
  6
CONTINUOUS
370
-3
390
F
  0
LAYER
  5
1FE
100
AcDbSymbolTableRecord
100
AcDbLayerTableRecord
  2
COLORE_TOP
 70
0
 62
7
  6
CONTINUOUS
370
-3
390
F
  0
LAYER
  5
1FF
100
AcDbSymbolTableRecord
100
AcDbLayerTableRecord
  2
COORDINATE
 70
0
 62
7
  6
CONTINUOUS
370
-3
390
F
  0
LAYER
  5
200
100
AcDbSymbolTableRecord
100
AcDbLayerTableRecord
  2
COORD_ORIGINE
 70
0
 62
7
  6
CONTINUOUS
370
-3
390
F
  0
LAYER
  5
201
100
AcDbSymbolTableRecord
100
AcDbLayerTableRecord
  2
COPY_PUBLISH
 70
0
 62
7
  6
CONTINUOUS
370
-3
390
F
  0
LAYER
  5
202
100
AcDbSymbolTableRecord
100
AcDbLayerTableRecord
  2
COSMETIC
 70
0
 62
7
  6
CONTINUOUS
370
-3
390
F
  0
LAYER
  5
203
100
AcDbSymbolTableRecord
100
AcDbLayerTableRecord
  2
COSMETICHE
 70
0
 62
7
  6
CONTINUOUS
370
-3
390
F
  0
LAYER
  5
204
100
AcDbSymbolTableRecord
100
AcDbLayerTableRecord
  2
CURVE
 70
0
 62
7
  6
CONTINUOUS
370
-3
390
F
  0
LAYER
  5
205
100
AcDbSymbolTableRecord
100
AcDbLayerTableRecord
  2
DRAFT
 70
0
 62
7
  6
CONTINUOUS
370
-3
390
F
  0
LAYER
  5
206
100
AcDbSymbolTableRecord
100
AcDbLayerTableRecord
  2
IMPORT
 70
0
 62
7
  6
CONTINUOUS
370
-3
390
F
  0
LAYER
  5
207
100
AcDbSymbolTableRecord
100
AcDbLayerTableRecord
  2
IMPORTED
 70
0
 62
7
  6
CONTINUOUS
370
-3
390
F
  0
LAYER
  5
208
100
AcDbSymbolTableRecord
100
AcDbLayerTableRecord
  2
IMPORT_IGES
 70
0
 62
7
  6
CONTINUOUS
370
-3
390
F
  0
LAYER
  5
209
100
AcDbSymbolTableRecord
100
AcDbLayerTableRecord
  2
NOTE
 70
0
 62
7
  6
CONTINUOUS
370
-3
390
F
  0
LAYER
  5
20A
100
AcDbSymbolTableRecord
100
AcDbLayerTableRecord
  2
PIANI
 70
0
 62
7
  6
CONTINUOUS
370
-3
390
F
  0
LAYER
  5
20B
100
AcDbSymbolTableRecord
100
AcDbLayerTableRecord
  2
PIANI_DI_RIFERIMENTO
 70
0
 62
7
  6
CONTINUOUS
370
-3
390
F
  0
LAYER
  5
20C
100
AcDbSymbolTableRecord
100
AcDbLayerTableRecord
  2
PIANI_ORIGINE
 70
0
 62
7
  6
CONTINUOUS
370
-3
390
F
  0
LAYER
  5
20D
100
AcDbSymbolTableRecord
100
AcDbLayerTableRecord
  2
PIANI_RIFERIMENTO
 70
0
 62
7
  6
CONTINUOUS
370
-3
390
F
  0
LAYER
  5
20E
100
AcDbSymbolTableRecord
100
AcDbLayerTableRecord
  2
PIANI_SFORMO
 70
0
 62
7
  6
CONTINUOUS
370
-3
390
F
  0
LAYER
  5
20F
100
AcDbSymbolTableRecord
100
AcDbLayerTableRecord
  2
PUNTI
 70
0
 62
7
  6
CONTINUOUS
370
-3
390
F
  0
LAYER
  5
210
100
AcDbSymbolTableRecord
100
AcDbLayerTableRecord
  2
RACCORDO
 70
0
 62
7
  6
CONTINUOUS
370
-3
390
F
  0
LAYER
  5
211
100
AcDbSymbolTableRecord
100
AcDbLayerTableRecord
  2
SCRITTE
 70
0
 62
7
  6
CONTINUOUS
370
-3
390
F
  0
LAYER
  5
212
100
AcDbSymbolTableRecord
100
AcDbLayerTableRecord
  2
SMUSSO
 70
0
 62
7
  6
CONTINUOUS
370
-3
390
F
  0
LAYER
  5
213
100
AcDbSymbolTableRecord
100
AcDbLayerTableRecord
  2
SNAPLINE
 70
0
 62
7
  6
CONTINUOUS
370
-3
390
F
  0
LAYER
  5
214
100
AcDbSymbolTableRecord
100
AcDbLayerTableRecord
  2
SUPERFICI
 70
0
 62
7
  6
CONTINUOUS
370
-3
390
F
  0
LAYER
  5
215
100
AcDbSymbolTableRecord
100
AcDbLayerTableRecord
  2
TRASH
 70
0
 62
7
  6
CONTINUOUS
370
-3
390
F
  0
LAYER
  5
216
100
AcDbSymbolTableRecord
100
AcDbLayerTableRecord
  2
XSEC_DATUMS
 70
0
 62
7
  6
CONTINUOUS
370
-3
390
F
  0
ENDTAB
  0
TABLE
  2
STYLE
  5
3
100
AcDbSymbolTable
 70
1
  0
STYLE
  5
11
100
AcDbSymbolTableRecord
100
AcDbTextStyleTableRecord
  2
STANDARD
 70
0
 40
0.0
 41
0.8
 50
0.0
 71
0
 42
0.2
  3
txt
  4

  0
STYLE
  5
217
100
AcDbSymbolTableRecord
100
AcDbTextStyleTableRecord
  2
TEXTSTYLE_1
 70
0
 40
0.0
 41
0.8
 50
0.0
 71
0
 42
0.2
  3
gdt
  4

  0
ENDTAB
  0
TABLE
  2
VIEW
  5
6
100
AcDbSymbolTable
 70
0
  0
ENDTAB
  0
TABLE
  2
UCS
  5
7
100
AcDbSymbolTable
 70
0
  0
ENDTAB
  0
TABLE
  2
APPID
  5
9
100
AcDbSymbolTable
 70
1
  0
APPID
  5
218
100
AcDbSymbolTableRecord
100
AcDbRegAppTableRecord
  2
ACAD
 70
0
  0
ENDTAB
  0
TABLE
  2
BLOCK_RECORD
  5
1
100
AcDbSymbolTable
 70
0
  0
BLOCK_RECORD
  5
219
100
AcDbSymbolTableRecord
100
AcDbBlockTableRecord
  2
*Model_Space
  0
BLOCK_RECORD
  5
21A
100
AcDbSymbolTableRecord
100
AcDbBlockTableRecord
  2
*Paper_Space
  0
ENDTAB
  0
TABLE
  2
DIMSTYLE
  5
A
100
AcDbSymbolTable
 70
1
100
AcDbDimStyleTable
 71
0
  0
DIMSTYLE
105
21B
100
AcDbSymbolTableRecord
100
AcDbDimStyleTableRecord
  2
STANDARD
 70
0
  3

  4

 40
1.0
 41
3.0
 42
0.0625
 43
0.38
 44
0.18
 45
0.0
 46
0.0
 47
0.01
 48
0.01
140
3.0
141
0.09
142
0.0
143
25.4
144
1.0
145
0.0
146
1.0
147
0.09
 71
1.0
 72
0.0
 73
0
 74
0
 75
0
 76
0
 77
1
 78
8
170
0
171
2
172
0
173
0
174
0
175
0
176
0
177
0
178
0
270
2
271
2
272
2
273
2
274
2
275
0
280
0
281
0
282
0
283
1
284
8
285
0
286
0
287
3
288
0
340
11
  0
ENDTAB
  0
ENDSEC
  0
SECTION
  2
BLOCKS
  0
BLOCK
  5
20
100
AcDbEntity
  8
0
100
AcDbBlockBegin
  2
*Model_Space
 70
0
 10
0.0
 20
0.0
 30
0.0
  3
*Model_Space
  1

  0
ENDBLK
  5
21
100
AcDbEntity
  8
0
100
AcDbBlockEnd
  0
BLOCK
  5
1C
100
AcDbEntity
  8
0
100
AcDbBlockBegin
  2
*Paper_Space
 70
0
 10
0.0
 20
0.0
 30
0.0
  3
*Paper_Space
  1

  0
ENDBLK
  5
1D
100
AcDbEntity
  8
0
100
AcDbBlockEnd
  0
ENDSEC
  0
SECTION
  2
ENTITIES
  0
LINE
  5
21C
100
AcDbEntity
  8
RACCORDO
100
AcDbLine
 62
7
  6
CONTINUOUS
 10
-8.1028346725
 20
26.2689601931
 11
-8.1072065065
 21
26.2645883591
  0
LINE
  5
21D
100
AcDbEntity
  8
DRAFT
100
AcDbLine
 62
7
  6
CONTINUOUS
 10
-10.4028346725
 20
-22.5310398069
 11
-8.1028346725
 21
-22.5310398069
  0
LINE
  5
21E
100
AcDbEntity
  8
DRAFT
100
AcDbLine
 62
7
  6
CONTINUOUS
 10
8.4971653275
 20
-22.5310398069
 11
10.7971653275
 21
-22.5310398069
  0
LINE
  5
21F
100
AcDbEntity
  8
RACCORDO
100
AcDbLine
 62
253
  6
CONTINUOUS
 10
-10.3984628385
 20
-22.5266679729
 11
-8.1072065065
 21
-22.5266679729
  0
LINE
  5
220
100
AcDbEntity
  8
RACCORDO
100
AcDbLine
 62
253
  6
CONTINUOUS
 10
8.5015371615
 20
-22.5266679729
 11
10.7927934935
 21
-22.5266679729
  0
LINE
  5
221
100
AcDbEntity
  8
RACCORDO
100
AcDbLine
 62
253
  6
CONTINUOUS
 10
-10.3970168427
 20
-22.2766722037
 11
-8.1086525023
 21
-22.2766722037
  0
LINE
  5
222
100
AcDbEntity
  8
RACCORDO
100
AcDbLine
 62
253
  6
CONTINUOUS
 10
8.5029831573
 20
-22.2766722037
 11
10.7913474977
 21
-22.2766722037
  0
LINE
  5
223
100
AcDbEntity
  8
RACCORDO
100
AcDbLine
 62
253
  6
CONTINUOUS
 10
10.7913474977
 20
-21.9753773742
 11
8.5029831573
 21
-21.9753773742
  0
LINE
  5
224
100
AcDbEntity
  8
RACCORDO
100
AcDbLine
 62
253
  6
CONTINUOUS
 10
-8.1086525023
 20
-21.9753773742
 11
-10.3970168427
 21
-21.9753773742
  0
LINE
  5
225
100
AcDbEntity
  8
DRAFT
100
AcDbLine
 62
7
  6
CONTINUOUS
 10
-4.2028346725
 20
-21.9310398069
 11
4.5971653275
 21
-21.9310398069
  0
LINE
  5
226
100
AcDbEntity
  8
DRAFT
100
AcDbLine
 62
7
  6
CONTINUOUS
 10
-3.3028346725
 20
-21.9252219771
 11
3.6971653275
 21
-21.9252219771
  0
LINE
  5
227
100
AcDbEntity
  8
RACCORDO
100
AcDbLine
 62
7
  6
CONTINUOUS
 10
-3.8580323059
 20
-21.8844971684
 11
-3.6028346725
 21
-21.8844971684
  0
LINE
  5
228
100
AcDbEntity
  8
RACCORDO
100
AcDbLine
 62
7
  6
CONTINUOUS
 10
3.9971653275
 20
-21.8844971684
 11
4.2523629609
 21
-21.8844971684
  0
LINE
  5
229
100
AcDbEntity
  8
RACCORDO
100
AcDbLine
 62
253
  6
CONTINUOUS
 10
10.7920747264
 20
-21.7588710233
 11
8.5022559286
 21
-21.7588710233
  0
LINE
  5
22A
100
AcDbEntity
  8
RACCORDO
100
AcDbLine
 62
253
  6
CONTINUOUS
 10
-8.1079252736
 20
-21.7588710233
 11
-10.3977440714
 21
-21.7588710233
  0
LINE
  5
22B
100
AcDbEntity
  8
RACCORDO
100
AcDbLine
 62
253
  6
CONTINUOUS
 10
10.7964380988
 20
-21.3258583214
 11
8.4978925562
 21
-21.3258583214
  0
LINE
  5
22C
100
AcDbEntity
  8
RACCORDO
100
AcDbLine
 62
253
  6
CONTINUOUS
 10
-8.1035619012
 20
-21.3258583214
 11
-10.4021074438
 21
-21.3258583214
  0
LINE
  5
22D
100
AcDbEntity
  8
RACCORDO
100
AcDbLine
 62
7
  6
CONTINUOUS
 10
-8.1028346725
 20
-22.5310398069
 11
-8.1072065065
 21
-22.5266679729
  0
LINE
  5
22E
100
AcDbEntity
  8
RACCORDO
100
AcDbLine
 62
253
  6
CONTINUOUS
 10
10.7971653275
 20
-21.1093519704
 11
8.4971653275
 21
-21.1093519704
  0
LINE
  5
22F
100
AcDbEntity
  8
RACCORDO
100
AcDbLine
 62
253
  6
CONTINUOUS
 10
-8.1028346725
 20
-21.1093519704
 11
-10.4028346725
 21
-21.1093519704
  0
LINE
  5
230
100
AcDbEntity
  8
RACCORDO
100
AcDbLine
 62
7
  6
CONTINUOUS
 10
-10.6028346725
 20
-20.5310398069
 11
-10.4028346725
 21
-20.5310398069
  0
LINE
  5
231
100
AcDbEntity
  8
DRAFT
100
AcDbLine
 62
7
  6
CONTINUOUS
 10
-10.4028346725
 20
-20.5310398069
 11
-4.2028346725
 21
-20.5310398069
  0
LINE
  5
232
100
AcDbEntity
  8
DRAFT
100
AcDbLine
 62
7
  6
CONTINUOUS
 10
4.5971653275
 20
-20.5310398069
 11
10.7971653275
 21
-20.5310398069
  0
LINE
  5
233
100
AcDbEntity
  8
RACCORDO
100
AcDbLine
 62
7
  6
CONTINUOUS
 10
10.7971653275
 20
-20.5310398069
 11
10.9971653275
 21
-20.5310398069
  0
LINE
  5
234
100
AcDbEntity
  8
RACCORDO
100
AcDbLine
 62
7
  6
CONTINUOUS
 10
10.9971653275
 20
-20.5223129391
 11
7.3316167035
 21
-20.5223129391
  0
LINE
  5
235
100
AcDbEntity
  8
RACCORDO
100
AcDbLine
 62
7
  6
CONTINUOUS
 10
-6.9372860485
 20
-20.5223129391
 11
-10.6028346725
 21
-20.5223129391
  0
LINE
  5
236
100
AcDbEntity
  8
DRAFT
100
AcDbLine
 62
7
  6
CONTINUOUS
 10
-3.3028346725
 20
-20.4690790456
 11
-2.8028346725
 21
-20.4690790456
  0
LINE
  5
237
100
AcDbEntity
  8
DRAFT
100
AcDbLine
 62
7
  6
CONTINUOUS
 10
3.1971653275
 20
-20.4690790456
 11
3.6971653275
 21
-20.4690790456
  0
LINE
  5
238
100
AcDbEntity
  8
RACCORDO
100
AcDbLine
 62
7
  6
CONTINUOUS
 10
-3.8580323059
 20
-20.4612248646
 11
-3.6028346725
 21
-20.4612248646
  0
LINE
  5
239
100
AcDbEntity
  8
RACCORDO
100
AcDbLine
 62
7
  6
CONTINUOUS
 10
3.9971653275
 20
-20.4612248646
 11
4.2523629609
 21
-20.4612248646
  0
LINE
  5
23A
100
AcDbEntity
  8
RACCORDO
100
AcDbLine
 62
253
  6
CONTINUOUS
 10
-7.015904014
 20
-20.4436949737
 11
-2.8028346725
 21
-20.4436949737
  0
LINE
  5
23B
100
AcDbEntity
  8
RACCORDO
100
AcDbLine
 62
253
  6
CONTINUOUS
 10
3.1971653275
 20
-20.4436949737
 11
7.4102346689
 21
-20.4436949737
  0
LINE
  5
23C
100
AcDbEntity
  8
0
100
AcDbLine
 62
7
  6
CONTINUOUS
 10
3.1971653275
 20
-19.8310398069
 11
-2.8028346725
 21
-19.8310398069
  0
LINE
  5
23D
100
AcDbEntity
  8
RACCORDO
100
AcDbLine
 62
253
  6
CONTINUOUS
 10
-7.5834748443
 20
-19.4437330506
 11
-2.8028346725
 21
-19.4437330506
  0
LINE
  5
23E
100
AcDbEntity
  8
RACCORDO
100
AcDbLine
 62
253
  6
CONTINUOUS
 10
3.1971653275
 20
-19.4437330506
 11
7.9778054993
 21
-19.4437330506
  0
LINE
  5
23F
100
AcDbEntity
  8
RACCORDO
100
AcDbLine
 62
7
  6
CONTINUOUS
 10
-8.6028346725
 20
22.7189601931
 11
-10.367137453
 21
20.9546574126
  0
LINE
  5
240
100
AcDbEntity
  8
RACCORDO
100
AcDbLine
 62
7
  6
CONTINUOUS
 10
-7.9649210085
 20
23.3568738571
 11
-7.1494409295
 21
24.1723539361
  0
LINE
  5
241
100
AcDbEntity
  8
RACCORDO
100
AcDbLine
 62
253
  6
CONTINUOUS
 10
-6.9372860485
 20
24.2602333253
 11
-7.015904014
 21
24.1816153598
  0
LINE
  5
242
100
AcDbEntity
  8
RACCORDO
100
AcDbLine
 62
253
  6
CONTINUOUS
 10
-8.0528346725
 20
23.1446504329
 11
-7.8834291528
 21
23.3140559526
  0
LINE
  5
243
100
AcDbEntity
  8
RACCORDO
100
AcDbLine
 62
7
  6
CONTINUOUS
 10
-9.8878522179
 20
21.1870907522
 11
-8.5305334263
 21
22.5444095438
  0
LINE
  5
244
100
AcDbEntity
  8
RACCORDO
100
AcDbLine
 62
253
  6
CONTINUOUS
 10
-10.1695905864
 20
20.8728308212
 11
-9.8783268728
 21
21.1640945349
  0
LINE
  5
245
100
AcDbEntity
  8
DRAFT
100
AcDbLine
 62
7
  6
CONTINUOUS
 10
-7.2028346725
 20
22.6334303749
 11
-7.2918555037
 21
22.5444095438
  0
LINE
  5
246
100
AcDbEntity
  8
RACCORDO
100
AcDbLine
 62
253
  6
CONTINUOUS
 10
-9.462591501
 20
20.1658317358
 11
-9.1713277874
 21
20.4570954495
  0
LINE
  5
247
100
AcDbEntity
  8
RACCORDO
100
AcDbLine
 62
253
  6
CONTINUOUS
 10
-8.0528346725
 20
-19.3310398069
 11
-7.8834291528
 21
-19.3310398069
  0
LINE
  5
248
100
AcDbEntity
  8
RACCORDO
100
AcDbLine
 62
253
  6
CONTINUOUS
 10
8.4471653275
 20
-19.3310398069
 11
8.2777598078
 21
-19.3310398069
  0
LINE
  5
249
100
AcDbEntity
  8
0
100
AcDbLine
 62
7
  6
CONTINUOUS
 10
-2.8028346725
 20
-19.1310398069
 11
3.1971653275
 21
-19.1310398069
  0
LINE
  5
24A
100
AcDbEntity
  8
RACCORDO
100
AcDbLine
 62
7
  6
CONTINUOUS
 10
-7.7527889741
 20
-19.0310398069
 11
-7.5834748443
 21
-19.0310398069
  0
LINE
  5
24B
100
AcDbEntity
  8
RACCORDO
100
AcDbLine
 62
7
  6
CONTINUOUS
 10
8.1471196291
 20
-19.0310398069
 11
7.9778054993
 21
-19.0310398069
  0
LINE
  5
24C
100
AcDbEntity
  8
RACCORDO
100
AcDbLine
 62
7
  6
CONTINUOUS
 10
7.9725689798
 20
-19.0310398069
 11
7.1125032864
 21
-19.0310398069
  0
LINE
  5
24D
100
AcDbEntity
  8
RACCORDO
100
AcDbLine
 62
7
  6
CONTINUOUS
 10
-6.7181726314
 20
-19.0310398069
 11
-7.5782383248
 21
-19.0310398069
  0
LINE
  5
24E
100
AcDbEntity
  8
DRAFT
100
AcDbLine
 62
7
  6
CONTINUOUS
 10
-8.6028346725
 20
-18.9810398069
 11
-7.2883644907
 21
-18.9810398069
  0
LINE
  5
24F
100
AcDbEntity
  8
DRAFT
100
AcDbLine
 62
7
  6
CONTINUOUS
 10
7.6826951456
 20
-18.9810398069
 11
8.9971653275
 21
-18.9810398069
  0
LINE
  5
250
100
AcDbEntity
  8
0
100
AcDbLine
 62
7
  6
CONTINUOUS
 10
9.0971653275
 20
-18.8810398069
 11
9.9471653275
 21
-18.8810398069
  0
LINE
  5
251
100
AcDbEntity
  8
0
100
AcDbLine
 62
7
  6
CONTINUOUS
 10
-8.7028346725
 20
-18.8810398069
 11
-9.5528346725
 21
-18.8810398069
  0
LINE
  5
252
100
AcDbEntity
  8
DRAFT
100
AcDbLine
 62
7
  6
CONTINUOUS
 10
-8.5305334263
 20
-18.8064891576
 11
-7.2918555037
 21
-18.8064891576
  0
LINE
  5
253
100
AcDbEntity
  8
DRAFT
100
AcDbLine
 62
7
  6
CONTINUOUS
 10
7.6861861586
 20
-18.8064891576
 11
8.9248640812
 21
-18.8064891576
  0
LINE
  5
254
100
AcDbEntity
  8
RACCORDO
100
AcDbLine
 62
7
  6
CONTINUOUS
 10
6.5471653275
 20
-18.2183084848
 11
-6.1528346725
 21
-18.2183084848
  0
LINE
  5
255
100
AcDbEntity
  8
DRAFT
100
AcDbLine
 62
7
  6
CONTINUOUS
 10
-3.3028346725
 20
-18.1842737005
 11
-2.2441457957
 21
-18.1842737005
  0
LINE
  5
256
100
AcDbEntity
  8
DRAFT
100
AcDbLine
 62
7
  6
CONTINUOUS
 10
2.6384764506
 20
-18.1842737005
 11
3.6971653275
 21
-18.1842737005
  0
LINE
  5
257
100
AcDbEntity
  8
RACCORDO
100
AcDbLine
 62
7
  6
CONTINUOUS
 10
-5.8528346725
 20
-18.1310398069
 11
-3.3028346725
 21
-18.1310398069
  0
LINE
  5
258
100
AcDbEntity
  8
RACCORDO
100
AcDbLine
 62
7
  6
CONTINUOUS
 10
3.6971653275
 20
-18.1310398069
 11
6.2471653275
 21
-18.1310398069
  0
LINE
  5
259
100
AcDbEntity
  8
RACCORDO
100
AcDbLine
 62
253
  6
CONTINUOUS
 10
-5.8528346725
 20
-18.1310398069
 11
-7.1028346725
 21
-18.1310398069
  0
LINE
  5
25A
100
AcDbEntity
  8
RACCORDO
100
AcDbLine
 62
253
  6
CONTINUOUS
 10
6.2471653275
 20
-18.1310398069
 11
7.4971653275
 21
-18.1310398069
  0
LINE
  5
25B
100
AcDbEntity
  8
RACCORDO
100
AcDbLine
 62
7
  6
CONTINUOUS
 10
-5.5528346725
 20
-18.0310398069
 11
-3.2028346725
 21
-18.0310398069
  0
LINE
  5
25C
100
AcDbEntity
  8
RACCORDO
100
AcDbLine
 62
7
  6
CONTINUOUS
 10
3.5971653275
 20
-18.0310398069
 11
5.9471653275
 21
-18.0310398069
  0
LINE
  5
25D
100
AcDbEntity
  8
RACCORDO
100
AcDbLine
 62
7
  6
CONTINUOUS
 10
-2.2043589074
 20
-18.0155264866
 11
2.5986895623
 21
-18.0155264866
  0
LINE
  5
25E
100
AcDbEntity
  8
DRAFT
100
AcDbLine
 62
7
  6
CONTINUOUS
 10
-5.4638138414
 20
-17.9420189758
 11
5.8581444963
 21
-17.9420189758
  0
LINE
  5
25F
100
AcDbEntity
  8
DRAFT
100
AcDbLine
 62
7
  6
CONTINUOUS
 10
-7.2028346725
 20
-17.8310398069
 11
-6.7600615968
 21
-17.8310398069
  0
LINE
  5
260
100
AcDbEntity
  8
DRAFT
100
AcDbLine
 62
7
  6
CONTINUOUS
 10
-6.1528346725
 20
-17.8310398069
 11
-5.5528346725
 21
-17.8310398069
  0
LINE
  5
261
100
AcDbEntity
  8
DRAFT
100
AcDbLine
 62
7
  6
CONTINUOUS
 10
5.9471653275
 20
-17.8310398069
 11
6.5471653275
 21
-17.8310398069
  0
LINE
  5
262
100
AcDbEntity
  8
RACCORDO
100
AcDbLine
 62
7
  6
CONTINUOUS
 10
-6.1528346725
 20
-17.8310398069
 11
-6.7600615968
 21
-17.8310398069
  0
LINE
  5
263
100
AcDbEntity
  8
RACCORDO
100
AcDbLine
 62
7
  6
CONTINUOUS
 10
6.5471653275
 20
-17.8310398069
 11
7.1543922518
 21
-17.8310398069
  0
LINE
  5
264
100
AcDbEntity
  8
DRAFT
100
AcDbLine
 62
7
  6
CONTINUOUS
 10
7.1543922518
 20
-17.8310398069
 11
7.5971653275
 21
-17.8310398069
  0
LINE
  5
265
100
AcDbEntity
  8
RACCORDO
100
AcDbLine
 62
7
  6
CONTINUOUS
 10
9.5751837874
 20
-17.7420189758
 11
7.6861861586
 21
-17.7420189758
  0
LINE
  5
266
100
AcDbEntity
  8
DRAFT
100
AcDbLine
 62
7
  6
CONTINUOUS
 10
-5.4638138414
 20
-17.7420189758
 11
5.8581444963
 21
-17.7420189758
  0
LINE
  5
267
100
AcDbEntity
  8
RACCORDO
100
AcDbLine
 62
7
  6
CONTINUOUS
 10
-7.2918555037
 20
-17.7420189758
 11
-9.1808531325
 21
-17.7420189758
  0
LINE
  5
268
100
AcDbEntity
  8
DRAFT
100
AcDbLine
 62
7
  6
CONTINUOUS
 10
-7.8553005948
 20
-16.1728948452
 11
-7.8027299609
 21
-16.2079414402
  0
LINE
  5
269
100
AcDbEntity
  8
RACCORDO
100
AcDbLine
 62
7
  6
CONTINUOUS
 10
-10.367137453
 20
-17.2167370264
 11
-8.6028346725
 21
-18.9810398069
  0
LINE
  5
26A
100
AcDbEntity
  8
RACCORDO
100
AcDbLine
 62
7
  6
CONTINUOUS
 10
-7.1494409295
 20
-20.43443355
 11
-7.9649210085
 21
-19.618953471
  0
LINE
  5
26B
100
AcDbEntity
  8
RACCORDO
100
AcDbLine
 62
253
  6
CONTINUOUS
 10
-6.9372860485
 20
-20.5223129391
 11
-7.015904014
 21
-20.4436949737
  0
LINE
  5
26C
100
AcDbEntity
  8
RACCORDO
100
AcDbLine
 62
253
  6
CONTINUOUS
 10
-8.0528346725
 20
-19.4067300468
 11
-7.8834291528
 21
-19.5761355664
  0
LINE
  5
26D
100
AcDbEntity
  8
RACCORDO
100
AcDbLine
 62
7
  6
CONTINUOUS
 10
-8.5305334263
 20
-18.8064891576
 11
-9.8878522179
 21
-17.449170366
  0
LINE
  5
26E
100
AcDbEntity
  8
RACCORDO
100
AcDbLine
 62
253
  6
CONTINUOUS
 10
-9.8081946639
 20
-17.2568600189
 11
-10.0002764566
 21
-17.0647782262
  0
LINE
  5
26F
100
AcDbEntity
  8
DRAFT
100
AcDbLine
 62
7
  6
CONTINUOUS
 10
-7.2028346725
 20
-18.8955099888
 11
-7.2918555037
 21
-18.8064891576
  0
LINE
  5
270
100
AcDbEntity
  8
RACCORDO
100
AcDbLine
 62
253
  6
CONTINUOUS
 10
-9.1011955785
 20
-16.5498609335
 11
-9.2932773712
 21
-16.3577791408
  0
LINE
  5
271
100
AcDbEntity
  8
DRAFT
100
AcDbLine
 62
7
  6
CONTINUOUS
 10
-7.2028346725
 20
21.5689601931
 11
-7.2918555037
 21
21.4799393619
  0
LINE
  5
272
100
AcDbEntity
  8
RACCORDO
100
AcDbLine
 62
253
  6
CONTINUOUS
 10
2.1517286927
 20
-17.5497086287
 11
-1.7573980378
 21
-17.5497086287
  0
LINE
  5
273
100
AcDbEntity
  8
RACCORDO
100
AcDbLine
 62
253
  6
CONTINUOUS
 10
8.7426019622
 20
-17.5497086287
 11
9.4955262335
 21
-17.5497086287
  0
LINE
  5
274
100
AcDbEntity
  8
RACCORDO
100
AcDbLine
 62
253
  6
CONTINUOUS
 10
-8.3482713073
 20
-17.5497086287
 11
-9.1011955785
 21
-17.5497086287
  0
LINE
  5
275
100
AcDbEntity
  8
RACCORDO
100
AcDbLine
 62
7
  6
CONTINUOUS
 10
-7.8552251835
 20
-16.6810398069
 11
-7.8027299609
 21
-16.6810398069
  0
LINE
  5
276
100
AcDbEntity
  8
0
100
AcDbLine
 62
7
  6
CONTINUOUS
 10
-7.8027299609
 20
-16.6810398069
 11
-2.3029393841
 21
-16.6810398069
  0
LINE
  5
277
100
AcDbEntity
  8
RACCORDO
100
AcDbLine
 62
7
  6
CONTINUOUS
 10
-2.3029393841
 20
-16.6810398069
 11
-2.2504441616
 21
-16.6810398069
  0
LINE
  5
278
100
AcDbEntity
  8
RACCORDO
100
AcDbLine
 62
7
  6
CONTINUOUS
 10
2.6447748165
 20
-16.6810398069
 11
2.6972700391
 21
-16.6810398069
  0
LINE
  5
279
100
AcDbEntity
  8
0
100
AcDbLine
 62
7
  6
CONTINUOUS
 10
2.6972700391
 20
-16.6810398069
 11
8.1970606159
 21
-16.6810398069
  0
LINE
  5
27A
100
AcDbEntity
  8
RACCORDO
100
AcDbLine
 62
7
  6
CONTINUOUS
 10
8.1970606159
 20
-16.6810398069
 11
8.2495558384
 21
-16.6810398069
  0
LINE
  5
27B
100
AcDbEntity
  8
RACCORDO
100
AcDbLine
 62
253
  6
CONTINUOUS
 10
2.6446994052
 20
-16.5498609335
 11
-2.2503687502
 21
-16.5498609335
  0
LINE
  5
27C
100
AcDbEntity
  8
RACCORDO
100
AcDbLine
 62
253
  6
CONTINUOUS
 10
8.2496312498
 20
-16.5498609335
 11
9.4955262335
 21
-16.5498609335
  0
LINE
  5
27D
100
AcDbEntity
  8
RACCORDO
100
AcDbLine
 62
253
  6
CONTINUOUS
 10
-7.8553005948
 20
-16.5498609335
 11
-9.1011955785
 21
-16.5498609335
  0
LINE
  5
27E
100
AcDbEntity
  8
DRAFT
100
AcDbLine
 62
7
  6
CONTINUOUS
 10
8.2496312498
 20
-16.1728948452
 11
2.6446994052
 21
-16.1728948452
  0
LINE
  5
27F
100
AcDbEntity
  8
DRAFT
100
AcDbLine
 62
7
  6
CONTINUOUS
 10
-2.2503687502
 20
-16.1728948452
 11
-7.8553005948
 21
-16.1728948452
  0
LINE
  5
280
100
AcDbEntity
  8
DRAFT
100
AcDbLine
 62
7
  6
CONTINUOUS
 10
-7.2028346725
 20
-17.8310398069
 11
-7.2918555037
 21
-17.7420189758
  0
LINE
  5
281
100
AcDbEntity
  8
RACCORDO
100
AcDbLine
 62
7
  6
CONTINUOUS
 10
-3.2028346725
 20
21.7689601931
 11
-3.2020009758
 21
21.7697938898
  0
LINE
  5
282
100
AcDbEntity
  8
RACCORDO
100
AcDbLine
 62
253
  6
CONTINUOUS
 10
10.9803043311
 20
-15.6507800554
 11
9.9804566359
 21
-15.6508056312
  0
LINE
  5
283
100
AcDbEntity
  8
RACCORDO
100
AcDbLine
 62
253
  6
CONTINUOUS
 10
-10.5859736761
 20
-15.6507800554
 11
-9.586125981
 21
-15.6507800554
  0
LINE
  5
284
100
AcDbEntity
  8
RACCORDO
100
AcDbLine
 62
7
  6
CONTINUOUS
 10
-3.2028346725
 20
-18.0310398069
 11
-3.2020009758
 21
-18.0318735037
  0
LINE
  5
285
100
AcDbEntity
  8
0
100
AcDbLine
 62
7
  6
CONTINUOUS
 10
7.7873790932
 20
-11.9592673619
 11
8.5019617146
 21
-11.7784501607
  0
LINE
  5
286
100
AcDbEntity
  8
0
100
AcDbLine
 62
7
  6
CONTINUOUS
 10
-7.3930484382
 20
-11.9592673619
 11
-8.1076310597
 21
-11.7784501607
  0
LINE
  5
287
100
AcDbEntity
  8
RACCORDO
100
AcDbLine
 62
253
  6
CONTINUOUS
 10
-10.200869102
 20
-8.6789116418
 11
-10.4431061654
 21
-8.5038758341
  0
LINE
  5
288
100
AcDbEntity
  8
RACCORDO
100
AcDbLine
 62
253
  6
CONTINUOUS
 10
-5.9386275856
 20
-11.8289391269
 11
-5.7002052974
 21
-12.0091366141
  0
LINE
  5
289
100
AcDbEntity
  8
RACCORDO
100
AcDbLine
 62
253
  6
CONTINUOUS
 10
-5.6860789139
 20
-12.1958540613
 11
-5.4561323835
 21
-12.3867492236
  0
LINE
  5
28A
100
AcDbEntity
  8
RACCORDO
100
AcDbLine
 62
7
  6
CONTINUOUS
 10
4.5971653275
 20
25.6689601931
 11
4.552357884
 21
25.6241527496
  0
LINE
  5
28B
100
AcDbEntity
  8
RACCORDO
100
AcDbLine
 62
7
  6
CONTINUOUS
 10
4.2971653275
 20
20.0689601931
 11
4.3861793789
 21
20.1277086253
  0
LINE
  5
28C
100
AcDbEntity
  8
RACCORDO
100
AcDbLine
 62
253
  6
CONTINUOUS
 10
10.761468108
 20
20.9546574126
 11
10.5639212414
 21
20.8728308212
  0
LINE
  5
28D
100
AcDbEntity
  8
0
100
AcDbLine
 62
7
  6
CONTINUOUS
 10
-1.9980382854
 20
-11.7784501607
 11
-2.752982847
 21
-11.9694805028
  0
LINE
  5
28E
100
AcDbEntity
  8
0
100
AcDbLine
 62
7
  6
CONTINUOUS
 10
9.5233503474
 20
-11.7356736505
 11
8.8453920549
 21
-11.7356736505
  0
LINE
  5
28F
100
AcDbEntity
  8
0
100
AcDbLine
 62
7
  6
CONTINUOUS
 10
8.7231345295
 20
-11.7356736505
 11
7.3709803076
 21
-11.7356736505
  0
LINE
  5
290
100
AcDbEntity
  8
0
100
AcDbLine
 62
7
  6
CONTINUOUS
 10
3.6971653275
 20
-11.7356736505
 11
2.1711961255
 21
-11.7356736505
  0
LINE
  5
291
100
AcDbEntity
  8
0
100
AcDbLine
 62
7
  6
CONTINUOUS
 10
-1.7768654705
 20
-11.7356736505
 11
-3.3028346725
 21
-11.7356736505
  0
LINE
  5
292
100
AcDbEntity
  8
0
100
AcDbLine
 62
7
  6
CONTINUOUS
 10
-6.9766496526
 20
-11.7356736505
 11
-8.3288038745
 21
-11.7356736505
  0
LINE
  5
293
100
AcDbEntity
  8
0
100
AcDbLine
 62
7
  6
CONTINUOUS
 10
-8.4510613999
 20
-11.7356736505
 11
-9.1290196924
 21
-11.7356736505
  0
LINE
  5
294
100
AcDbEntity
  8
RACCORDO
100
AcDbLine
 62
253
  6
CONTINUOUS
 10
-10.2391039353
 20
-11.6647311861
 11
-10.5390582439
 21
-11.6647311861
  0
LINE
  5
295
100
AcDbEntity
  8
RACCORDO
100
AcDbLine
 62
253
  6
CONTINUOUS
 10
10.6334345903
 20
-11.6647311996
 11
10.9333888988
 21
-11.6647311996
  0
LINE
  5
296
100
AcDbEntity
  8
0
100
AcDbLine
 62
253
  6
CONTINUOUS
 10
8.0971653275
 20
-11.6356736505
 11
7.2434021774
 21
-11.6356736505
  0
LINE
  5
297
100
AcDbEntity
  8
0
100
AcDbLine
 62
253
  6
CONTINUOUS
 10
3.6971653275
 20
-11.6356736505
 11
2.7971653275
 21
-11.6356736505
  0
LINE
  5
298
100
AcDbEntity
  8
0
100
AcDbLine
 62
253
  6
CONTINUOUS
 10
-2.4028346725
 20
-11.6356736505
 11
-3.3028346725
 21
-11.6356736505
  0
LINE
  5
299
100
AcDbEntity
  8
0
100
AcDbLine
 62
253
  6
CONTINUOUS
 10
-6.8490715224
 20
-11.6356736505
 11
-7.7028346725
 21
-11.6356736505
  0
LINE
  5
29A
100
AcDbEntity
  8
0
100
AcDbLine
 62
253
  6
CONTINUOUS
 10
8.0971653275
 20
-11.2356736505
 11
7.1971653275
 21
-11.2356736505
  0
LINE
  5
29B
100
AcDbEntity
  8
0
100
AcDbLine
 62
253
  6
CONTINUOUS
 10
3.6971653275
 20
-11.2356736505
 11
2.7971653275
 21
-11.2356736505
  0
LINE
  5
29C
100
AcDbEntity
  8
0
100
AcDbLine
 62
253
  6
CONTINUOUS
 10
-2.4028346725
 20
-11.2356736505
 11
-3.3028346725
 21
-11.2356736505
  0
LINE
  5
29D
100
AcDbEntity
  8
0
100
AcDbLine
 62
253
  6
CONTINUOUS
 10
-6.8028346725
 20
-11.2356736505
 11
-7.7028346725
 21
-11.2356736505
  0
LINE
  5
29E
100
AcDbEntity
  8
0
100
AcDbLine
 62
253
  6
CONTINUOUS
 10
8.0971653275
 20
-11.1856736505
 11
7.1971653275
 21
-11.1856736505
  0
LINE
  5
29F
100
AcDbEntity
  8
0
100
AcDbLine
 62
253
  6
CONTINUOUS
 10
3.6971653275
 20
-11.1856736505
 11
2.7971653275
 21
-11.1856736505
  0
LINE
  5
2A0
100
AcDbEntity
  8
0
100
AcDbLine
 62
253
  6
CONTINUOUS
 10
-2.4028346725
 20
-11.1856736505
 11
-3.3028346725
 21
-11.1856736505
  0
LINE
  5
2A1
100
AcDbEntity
  8
0
100
AcDbLine
 62
253
  6
CONTINUOUS
 10
-6.8028346725
 20
-11.1856736505
 11
-7.7028346725
 21
-11.1856736505
  0
LINE
  5
2A2
100
AcDbEntity
  8
0
100
AcDbLine
 62
7
  6
CONTINUOUS
 10
9.4471653275
 20
-10.7356736505
 11
8.0971653275
 21
-10.7356736505
  0
LINE
  5
2A3
100
AcDbEntity
  8
0
100
AcDbLine
 62
7
  6
CONTINUOUS
 10
2.7971653275
 20
-10.7356736505
 11
1.4471653275
 21
-10.7356736505
  0
LINE
  5
2A4
100
AcDbEntity
  8
0
100
AcDbLine
 62
7
  6
CONTINUOUS
 10
-1.0528346725
 20
-10.7356736505
 11
-2.4028346725
 21
-10.7356736505
  0
LINE
  5
2A5
100
AcDbEntity
  8
0
100
AcDbLine
 62
7
  6
CONTINUOUS
 10
-7.7028346725
 20
-10.7356736505
 11
-9.0528346725
 21
-10.7356736505
  0
LINE
  5
2A6
100
AcDbEntity
  8
0
100
AcDbLine
 62
7
  6
CONTINUOUS
 10
2.3923689403
 20
-11.7784501607
 11
3.147313502
 21
-11.9694805028
  0
LINE
  5
2A7
100
AcDbEntity
  8
RACCORDO
100
AcDbLine
 62
253
  6
CONTINUOUS
 10
10.3946071116
 20
-17.0647782262
 11
10.761468108
 21
-17.2167370264
  0
LINE
  5
2A8
100
AcDbEntity
  8
DRAFT
100
AcDbLine
 62
7
  6
CONTINUOUS
 10
2.6446994052
 20
-16.1728948452
 11
2.6972700391
 21
-16.2079414402
  0
LINE
  5
2A9
100
AcDbEntity
  8
RACCORDO
100
AcDbLine
 62
7
  6
CONTINUOUS
 10
4.5971653275
 20
-21.9310398069
 11
4.552357884
 21
-21.8862323634
  0
LINE
  5
2AA
100
AcDbEntity
  8
RACCORDO
100
AcDbLine
 62
253
  6
CONTINUOUS
 10
-9.4503480055
 20
-7.4907871971
 11
-9.586125981
 21
-7.2245529201
  0
LINE
  5
2AB
100
AcDbEntity
  8
RACCORDO
100
AcDbLine
 62
7
  6
CONTINUOUS
 10
-10.3977440714
 20
-21.7588710233
 11
-10.4021074438
 21
-21.3258583214
  0
LINE
  5
2AC
100
AcDbEntity
  8
RACCORDO
100
AcDbLine
 62
7
  6
CONTINUOUS
 10
-10.9528346725
 20
23.9102199978
 11
-10.9528346725
 21
-20.1722996117
  0
LINE
  5
2AD
100
AcDbEntity
  8
RACCORDO
100
AcDbLine
 62
253
  6
CONTINUOUS
 10
-10.7552878059
 20
10.0215656313
 11
-10.7552878059
 21
19.4588326504
  0
LINE
  5
2AE
100
AcDbEntity
  8
RACCORDO
100
AcDbLine
 62
253
  6
CONTINUOUS
 10
-10.6028346725
 20
-20.5310398069
 11
-10.6028346725
 21
-20.5223129391
  0
LINE
  5
2AF
100
AcDbEntity
  8
RACCORDO
100
AcDbLine
 62
253
  6
CONTINUOUS
 10
-10.6028346725
 20
24.2602333253
 11
-10.6028346725
 21
24.2689601931
  0
LINE
  5
2B0
100
AcDbEntity
  8
RACCORDO
100
AcDbLine
 62
253
  6
CONTINUOUS
 10
-10.5859736761
 20
-15.6507800554
 11
-10.5859736761
 21
-11.9843993343
  0
LINE
  5
2B1
100
AcDbEntity
  8
RACCORDO
100
AcDbLine
 62
253
  6
CONTINUOUS
 10
-10.5859736761
 20
-8.4776803417
 11
-10.5859736761
 21
1.5156005562
  0
LINE
  5
2B2
100
AcDbEntity
  8
RACCORDO
100
AcDbLine
 62
253
  6
CONTINUOUS
 10
-10.5859736761
 20
5.0223196459
 11
-10.5859736761
 21
9.8522515015
  0
LINE
  5
2B3
100
AcDbEntity
  8
RACCORDO
100
AcDbLine
 62
253
  6
CONTINUOUS
 10
-10.5390582439
 20
4.7026515319
 11
-10.5390582439
 21
4.5567631606
  0
LINE
  5
2B4
100
AcDbEntity
  8
RACCORDO
100
AcDbLine
 62
253
  6
CONTINUOUS
 10
-10.5390582439
 20
1.9811572255
 11
-10.5390582439
 21
1.8352686974
  0
LINE
  5
2B5
100
AcDbEntity
  8
RACCORDO
100
AcDbLine
 62
253
  6
CONTINUOUS
 10
-10.5390582439
 20
-8.7973484463
 11
-10.5390582439
 21
-8.9432368394
  0
LINE
  5
2B6
100
AcDbEntity
  8
RACCORDO
100
AcDbLine
 62
253
  6
CONTINUOUS
 10
-10.5390582439
 20
-11.5188427745
 11
-10.5390582439
 21
-11.6647311861
  0
LINE
  5
2B7
100
AcDbEntity
  8
RACCORDO
100
AcDbLine
 62
7
  6
CONTINUOUS
 10
-10.4028346725
 20
-20.5310398069
 11
-10.4028346725
 21
-22.5310398069
  0
LINE
  5
2B8
100
AcDbEntity
  8
RACCORDO
100
AcDbLine
 62
7
  6
CONTINUOUS
 10
-10.4028346725
 20
24.2689601931
 11
-10.4028346725
 21
26.2689601931
  0
LINE
  5
2B9
100
AcDbEntity
  8
RACCORDO
100
AcDbLine
 62
7
  6
CONTINUOUS
 10
-10.3970168427
 20
26.0145925899
 11
-10.3970168427
 21
25.7132977604
  0
LINE
  5
2BA
100
AcDbEntity
  8
RACCORDO
100
AcDbLine
 62
7
  6
CONTINUOUS
 10
-10.3970168427
 20
-21.9753773742
 11
-10.3970168427
 21
-22.2766722037
  0
LINE
  5
2BB
100
AcDbEntity
  8
RACCORDO
100
AcDbLine
 62
7
  6
CONTINUOUS
 10
-10.4021074438
 20
25.0637787075
 11
-10.3977440714
 21
25.4967914094
  0
LINE
  5
2BC
100
AcDbEntity
  8
DRAFT
100
AcDbLine
 62
7
  6
CONTINUOUS
 10
-7.8553005948
 20
9.8108152313
 11
-7.8027299609
 21
9.8458618263
  0
LINE
  5
2BD
100
AcDbEntity
  8
RACCORDO
100
AcDbLine
 62
253
  6
CONTINUOUS
 10
11.3471653275
 20
19.5406592418
 11
11.1496184609
 21
19.4588326504
  0
LINE
  5
2BE
100
AcDbEntity
  8
RACCORDO
100
AcDbLine
 62
253
  6
CONTINUOUS
 10
-9.0528346725
 20
-8.9534468752
 11
-9.3370450421
 21
-8.9534468752
  0
LINE
  5
2BF
100
AcDbEntity
  8
RACCORDO
100
AcDbLine
 62
253
  6
CONTINUOUS
 10
9.4471653275
 20
-8.9534468739
 11
9.7313756971
 21
-8.9534468752
  0
LINE
  5
2C0
100
AcDbEntity
  8
RACCORDO
100
AcDbLine
 62
253
  6
CONTINUOUS
 10
10.6334345903
 20
-8.7973484754
 11
10.9333888988
 21
-8.7973484754
  0
LINE
  5
2C1
100
AcDbEntity
  8
RACCORDO
100
AcDbLine
 62
253
  6
CONTINUOUS
 10
-10.2391039353
 20
-8.7973484463
 11
-10.5390582439
 21
-8.7973484463
  0
LINE
  5
2C2
100
AcDbEntity
  8
RACCORDO
100
AcDbLine
 62
253
  6
CONTINUOUS
 10
10.9803043311
 20
-15.6507800554
 11
11.3471653275
 21
-15.8027388556
  0
LINE
  5
2C3
100
AcDbEntity
  8
RACCORDO
100
AcDbLine
 62
253
  6
CONTINUOUS
 10
-0.4386275928
 20
-11.8289391524
 11
-0.200205314
 21
-12.0091366336
  0
LINE
  5
2C4
100
AcDbEntity
  8
RACCORDO
100
AcDbLine
 62
253
  6
CONTINUOUS
 10
-4.6670417522
 20
-8.6331404615
 11
-4.905464031
 21
-8.4529429803
  0
LINE
  5
2C5
100
AcDbEntity
  8
RACCORDO
100
AcDbLine
 62
253
  6
CONTINUOUS
 10
-0.1860789017
 20
-12.1958540474
 11
0.0438676244
 21
-12.3867492031
  0
LINE
  5
2C6
100
AcDbEntity
  8
RACCORDO
100
AcDbLine
 62
253
  6
CONTINUOUS
 10
-4.9195904433
 20
-8.2662255665
 11
-5.1495369694
 21
-8.0753304108
  0
LINE
  5
2C7
100
AcDbEntity
  8
0
100
AcDbLine
 62
253
  6
CONTINUOUS
 10
-1.7505795047
 20
-17.6377916123
 11
-2.3029393841
 21
-16.6810398069
  0
LINE
  5
2C8
100
AcDbEntity
  8
RACCORDO
100
AcDbLine
 62
253
  6
CONTINUOUS
 10
-8.3434790546
 20
-11.7281507601
 11
-8.4128798148
 21
-10.7356736505
  0
LINE
  5
2C9
100
AcDbEntity
  8
RACCORDO
100
AcDbLine
 62
253
  6
CONTINUOUS
 10
-8.0422662365
 20
-11.7356736505
 11
-8.1121930484
 21
-10.7356736505
  0
LINE
  5
2CA
100
AcDbEntity
  8
RACCORDO
100
AcDbLine
 62
7
  6
CONTINUOUS
 10
-7.9213766317
 20
-10.7356736505
 11
-7.8514498197
 21
-11.7356736505
  0
LINE
  5
2CB
100
AcDbEntity
  8
RACCORDO
100
AcDbLine
 62
253
  6
CONTINUOUS
 10
-9.7468674835
 20
10.9955432092
 11
-9.7554401108
 21
11.4953909392
  0
LINE
  5
2CC
100
AcDbEntity
  8
DRAFT
100
AcDbLine
 62
7
  6
CONTINUOUS
 10
-9.5297843808
 20
3.2446154011
 11
-9.5267155295
 21
2.8675110062
  0
LINE
  5
2CD
100
AcDbEntity
  8
RACCORDO
100
AcDbLine
 62
7
  6
CONTINUOUS
 10
-9.3370450421
 20
-8.9534468752
 11
-9.3314415818
 21
-11.5679614544
  0
LINE
  5
2CE
100
AcDbEntity
  8
RACCORDO
100
AcDbLine
 62
253
  6
CONTINUOUS
 10
-10.2391039353
 20
4.7026515319
 11
-10.2391039353
 21
4.5479175145
  0
LINE
  5
2CF
100
AcDbEntity
  8
RACCORDO
100
AcDbLine
 62
253
  6
CONTINUOUS
 10
-10.2391039353
 20
1.9900028716
 11
-10.2391039353
 21
1.8352686974
  0
LINE
  5
2D0
100
AcDbEntity
  8
RACCORDO
100
AcDbLine
 62
253
  6
CONTINUOUS
 10
-10.2391039353
 20
-8.7973484463
 11
-10.2391039353
 21
-8.9520824855
  0
LINE
  5
2D1
100
AcDbEntity
  8
RACCORDO
100
AcDbLine
 62
253
  6
CONTINUOUS
 10
-10.2391039353
 20
-11.5099971284
 11
-10.2391039353
 21
-11.6647311861
  0
LINE
  5
2D2
100
AcDbEntity
  8
RACCORDO
100
AcDbLine
 62
253
  6
CONTINUOUS
 10
-9.7554401108
 20
11.4953909392
 11
-9.7554401108
 21
19.4588326504
  0
LINE
  5
2D3
100
AcDbEntity
  8
RACCORDO
100
AcDbLine
 62
253
  6
CONTINUOUS
 10
-9.7297144627
 20
10.9956876784
 11
-9.7297144627
 21
11.495611526
  0
LINE
  5
2D4
100
AcDbEntity
  8
RACCORDO
100
AcDbLine
 62
253
  6
CONTINUOUS
 10
-9.5861233896
 20
-7.224551697
 11
-9.586123391
 21
0.2624720839
  0
LINE
  5
2D5
100
AcDbEntity
  8
RACCORDO
100
AcDbLine
 62
253
  6
CONTINUOUS
 10
-9.5861233896
 20
6.275448303
 11
-9.586125981
 21
10.8520991967
  0
LINE
  5
2D6
100
AcDbEntity
  8
RACCORDO
100
AcDbLine
 62
253
  6
CONTINUOUS
 10
-9.586125981
 20
-15.6507800554
 11
-9.586123391
 21
-13.2375279161
  0
LINE
  5
2D7
100
AcDbEntity
  8
0
100
AcDbLine
 62
7
  6
CONTINUOUS
 10
-9.5528346725
 20
2.8675110062
 11
-9.5528346725
 21
2.186339675
  0
LINE
  5
2D8
100
AcDbEntity
  8
ASSI
100
AcDbLine
 62
7
  6
CONTINUOUS
 10
-9.5528346725
 20
-18.8810398069
 11
-9.5528346725
 21
-18.0310398069
  0
LINE
  5
2D9
100
AcDbEntity
  8
DRAFT
100
AcDbLine
 62
7
  6
CONTINUOUS
 10
-9.5528346725
 20
2.8675110062
 11
-9.5528346725
 21
3.2771824598
  0
LINE
  5
2DA
100
AcDbEntity
  8
ASSI
100
AcDbLine
 62
7
  6
CONTINUOUS
 10
-9.5528346725
 20
21.7689601931
 11
-9.5528346725
 21
22.6189601931
  0
LINE
  5
2DB
100
AcDbEntity
  8
0
100
AcDbLine
 62
7
  6
CONTINUOUS
 10
-9.2028346725
 20
2.8675110062
 11
-9.2028346725
 21
3.0376752418
  0
LINE
  5
2DC
100
AcDbEntity
  8
RACCORDO
100
AcDbLine
 62
253
  6
CONTINUOUS
 10
-9.1713277874
 20
21.4569431446
 11
-9.1713277874
 21
20.4570954495
  0
LINE
  5
2DD
100
AcDbEntity
  8
RACCORDO
100
AcDbLine
 62
253
  6
CONTINUOUS
 10
-9.1229561139
 20
-8.9534468752
 11
-9.1229561139
 21
-11.7356736505
  0
LINE
  5
2DE
100
AcDbEntity
  8
RACCORDO
100
AcDbLine
 62
253
  6
CONTINUOUS
 10
-9.1011955785
 20
-17.5497086287
 11
-9.1011955785
 21
-16.5498609335
  0
LINE
  5
2DF
100
AcDbEntity
  8
0
100
AcDbLine
 62
7
  6
CONTINUOUS
 10
-9.0528346725
 20
-8.6747494214
 11
-9.0528346725
 21
-10.7356736505
  0
LINE
  5
2E0
100
AcDbEntity
  8
RACCORDO
100
AcDbLine
 62
253
  6
CONTINUOUS
 10
-8.8230018053
 20
-10.7356736505
 11
-8.8230018053
 21
-11.7356736505
  0
LINE
  5
2E1
100
AcDbEntity
  8
0
100
AcDbLine
 62
253
  6
CONTINUOUS
 10
-8.8196660452
 20
3.1689601931
 11
-8.8196660452
 21
4.9524203127
  0
LINE
  5
2E2
100
AcDbEntity
  8
RACCORDO
100
AcDbLine
 62
7
  6
CONTINUOUS
 10
4.5971653275
 20
24.2689601931
 11
4.552357884
 21
24.2017480799
  0
LINE
  5
2E3
100
AcDbEntity
  8
DRAFT
100
AcDbLine
 62
7
  6
CONTINUOUS
 10
5.9471653275
 20
21.7689601931
 11
5.8581444963
 21
21.6799393619
  0
LINE
  5
2E4
100
AcDbEntity
  8
DRAFT
100
AcDbLine
 62
7
  6
CONTINUOUS
 10
5.9471653275
 20
21.5689601931
 11
5.8581444963
 21
21.4799393619
  0
LINE
  5
2E5
100
AcDbEntity
  8
RACCORDO
100
AcDbLine
 62
7
  6
CONTINUOUS
 10
4.3834679626
 20
19.9752835612
 11
4.3521447755
 21
19.943960374
  0
LINE
  5
2E6
100
AcDbEntity
  8
RACCORDO
100
AcDbLine
 62
7
  6
CONTINUOUS
 10
0.6913463672
 20
16.2831619657
 11
0.7221651466
 21
16.3139807451
  0
LINE
  5
2E7
100
AcDbEntity
  8
RACCORDO
100
AcDbLine
 62
253
  6
CONTINUOUS
 10
4.3519699974
 20
19.9237572476
 11
4.2971653275
 21
19.8689525777
  0
LINE
  5
2E8
100
AcDbEntity
  8
RACCORDO
100
AcDbLine
 62
253
  6
CONTINUOUS
 10
0.742368273
 20
16.3141555232
 11
0.7971729429
 21
16.3689601931
  0
LINE
  5
2E9
100
AcDbEntity
  8
RACCORDO
100
AcDbLine
 62
7
  6
CONTINUOUS
 10
10.7971653275
 20
26.2689601931
 11
10.7927934935
 21
26.2645883591
  0
LINE
  5
2EA
100
AcDbEntity
  8
RACCORDO
100
AcDbLine
 62
253
  6
CONTINUOUS
 10
4.5502171414
 20
19.7220196223
 11
4.4971577121
 21
19.6689601931
  0
LINE
  5
2EB
100
AcDbEntity
  8
RACCORDO
100
AcDbLine
 62
253
  6
CONTINUOUS
 10
0.9441058982
 20
16.1159083792
 11
0.9971653275
 21
16.1689678085
  0
LINE
  5
2EC
100
AcDbEntity
  8
DRAFT
100
AcDbLine
 62
7
  6
CONTINUOUS
 10
7.6826951456
 20
22.7189601931
 11
7.5971653275
 21
22.6334303749
  0
LINE
  5
2ED
100
AcDbEntity
  8
DRAFT
100
AcDbLine
 62
7
  6
CONTINUOUS
 10
5.8581444963
 20
-17.9420189758
 11
5.9471653275
 21
-18.0310398069
  0
LINE
  5
2EE
100
AcDbEntity
  8
DRAFT
100
AcDbLine
 62
7
  6
CONTINUOUS
 10
5.9471653275
 20
-17.8310398069
 11
5.8581444963
 21
-17.7420189758
  0
LINE
  5
2EF
100
AcDbEntity
  8
RACCORDO
100
AcDbLine
 62
7
  6
CONTINUOUS
 10
10.7971653275
 20
-22.5310398069
 11
10.7927934935
 21
-22.5266679729
  0
LINE
  5
2F0
100
AcDbEntity
  8
DRAFT
100
AcDbLine
 62
7
  6
CONTINUOUS
 10
7.6826951456
 20
-18.9810398069
 11
7.5971653275
 21
-18.8955099888
  0
LINE
  5
2F1
100
AcDbEntity
  8
RACCORDO
100
AcDbLine
 62
7
  6
CONTINUOUS
 10
4.5971653275
 20
-20.5310398069
 11
4.552357884
 21
-20.4638276938
  0
LINE
  5
2F2
100
AcDbEntity
  8
RACCORDO
100
AcDbLine
 62
7
  6
CONTINUOUS
 10
-9.6365638803
 20
3.4618534119
 11
-9.7856861609
 21
3.9166592063
  0
LINE
  5
2F3
100
AcDbEntity
  8
RACCORDO
100
AcDbLine
 62
7
  6
CONTINUOUS
 10
-8.1545457
 20
10.8520991967
 11
-8.1613619486
 21
10.9401526701
  0
LINE
  5
2F4
100
AcDbEntity
  8
RACCORDO
100
AcDbLine
 62
7
  6
CONTINUOUS
 10
-8.1035619012
 20
25.0637787075
 11
-8.1079252736
 21
25.4967914094
  0
LINE
  5
2F5
100
AcDbEntity
  8
0
100
AcDbLine
 62
7
  6
CONTINUOUS
 10
-8.4510613999
 20
-11.7356736505
 11
-8.4510613999
 21
-12.037558158
  0
LINE
  5
2F6
100
AcDbEntity
  8
RACCORDO
100
AcDbLine
 62
7
  6
CONTINUOUS
 10
-8.4028346725
 20
3.1689601931
 11
-8.4028346725
 21
2.8675110062
  0
LINE
  5
2F7
100
AcDbEntity
  8
0
100
AcDbLine
 62
7
  6
CONTINUOUS
 10
-8.4028346725
 20
5.0489601931
 11
-8.4028346725
 21
5.0854746883
  0
LINE
  5
2F8
100
AcDbEntity
  8
0
100
AcDbLine
 62
7
  6
CONTINUOUS
 10
-8.2628346725
 20
1.4309685941
 11
-8.2628346725
 21
3.1689601931
  0
LINE
  5
2F9
100
AcDbEntity
  8
0
100
AcDbLine
 62
7
  6
CONTINUOUS
 10
-8.2528346725
 20
5.0489601931
 11
-8.2528346725
 21
5.1080028344
  0
LINE
  5
2FA
100
AcDbEntity
  8
0
100
AcDbLine
 62
253
  6
CONTINUOUS
 10
-8.2528346725
 20
3.1689601931
 11
-8.2528346725
 21
5.0489601931
  0
LINE
  5
2FB
100
AcDbEntity
  8
RACCORDO
100
AcDbLine
 62
7
  6
CONTINUOUS
 10
-8.1086525023
 20
-22.2766722037
 11
-8.1086525023
 21
-21.9753773742
  0
LINE
  5
2FC
100
AcDbEntity
  8
RACCORDO
100
AcDbLine
 62
7
  6
CONTINUOUS
 10
-8.1086525023
 20
25.7132977604
 11
-8.1086525023
 21
26.0145925899
  0
LINE
  5
2FD
100
AcDbEntity
  8
RACCORDO
100
AcDbLine
 62
7
  6
CONTINUOUS
 10
-8.1028346725
 20
-20.5310398069
 11
-8.1028346725
 21
-22.5310398069
  0
LINE
  5
2FE
100
AcDbEntity
  8
RACCORDO
100
AcDbLine
 62
7
  6
CONTINUOUS
 10
-8.1028346725
 20
24.2689601931
 11
-8.1028346725
 21
26.2689601931
  0
LINE
  5
2FF
100
AcDbEntity
  8
RACCORDO
100
AcDbLine
 62
7
  6
CONTINUOUS
 10
-8.0528346725
 20
-19.4067300468
 11
-8.0528346725
 21
-19.3310398069
  0
LINE
  5
300
100
AcDbEntity
  8
RACCORDO
100
AcDbLine
 62
7
  6
CONTINUOUS
 10
-8.0528346725
 20
23.0689601931
 11
-8.0528346725
 21
23.1446504329
  0
LINE
  5
301
100
AcDbEntity
  8
RACCORDO
100
AcDbLine
 62
253
  6
CONTINUOUS
 10
-7.8834291528
 20
23.3140559526
 11
-7.8834291528
 21
23.0689601931
  0
LINE
  5
302
100
AcDbEntity
  8
RACCORDO
100
AcDbLine
 62
253
  6
CONTINUOUS
 10
-7.8834291528
 20
-19.3310398069
 11
-7.8834291528
 21
-19.5761355664
  0
LINE
  5
303
100
AcDbEntity
  8
RACCORDO
100
AcDbLine
 62
7
  6
CONTINUOUS
 10
-7.8553005948
 20
9.8522515015
 11
-7.8553005948
 21
9.8108152313
  0
LINE
  5
304
100
AcDbEntity
  8
RACCORDO
100
AcDbLine
 62
7
  6
CONTINUOUS
 10
-7.8553005948
 20
-16.5498609335
 11
-7.8553005948
 21
-16.1728948452
  0
LINE
  5
305
100
AcDbEntity
  8
0
100
AcDbLine
 62
253
  6
CONTINUOUS
 10
-7.8027299609
 20
-16.2079414402
 11
-7.8027299609
 21
-16.6810398069
  0
LINE
  5
306
100
AcDbEntity
  8
0
100
AcDbLine
 62
253
  6
CONTINUOUS
 10
-7.8027299609
 20
9.8458618263
 11
-7.8027299609
 21
10.3189601931
  0
LINE
  5
307
100
AcDbEntity
  8
0
100
AcDbLine
 62
7
  6
CONTINUOUS
 10
-7.7028346725
 20
-8.4145251512
 11
-7.7028346725
 21
-10.7356736505
  0
LINE
  5
308
100
AcDbEntity
  8
0
100
AcDbLine
 62
7
  6
CONTINUOUS
 10
-7.7028346725
 20
-11.7356736505
 11
-7.7028346725
 21
-11.1856736505
  0
LINE
  5
309
100
AcDbEntity
  8
ASSI
100
AcDbLine
 62
7
  6
CONTINUOUS
 10
-7.7028346725
 20
-11.1856736505
 11
-7.7028346725
 21
-10.7356736505
  0
LINE
  5
30A
100
AcDbEntity
  8
RACCORDO
100
AcDbLine
 62
253
  6
CONTINUOUS
 10
-7.5834748443
 20
23.1816534368
 11
-7.5834748443
 21
22.7690058845
  0
LINE
  5
30B
100
AcDbEntity
  8
RACCORDO
100
AcDbLine
 62
253
  6
CONTINUOUS
 10
-7.5834748443
 20
-19.0310854984
 11
-7.5834748443
 21
-19.4437330506
  0
LINE
  5
30C
100
AcDbEntity
  8
DRAFT
100
AcDbLine
 62
7
  6
CONTINUOUS
 10
-7.5028346725
 20
9.8529872506
 11
-7.5028346725
 21
9.8328236795
  0
LINE
  5
30D
100
AcDbEntity
  8
DRAFT
100
AcDbLine
 62
7
  6
CONTINUOUS
 10
-7.2918555037
 20
-18.8064891576
 11
-7.2918555037
 21
-17.7420189758
  0
LINE
  5
30E
100
AcDbEntity
  8
DRAFT
100
AcDbLine
 62
7
  6
CONTINUOUS
 10
-7.2918555037
 20
21.4799393619
 11
-7.2918555037
 21
22.5444095438
  0
LINE
  5
30F
100
AcDbEntity
  8
0
100
AcDbLine
 62
7
  6
CONTINUOUS
 10
-7.2528346725
 20
2.1576353277
 11
-7.2528346725
 21
1.600973011
  0
LINE
  5
310
100
AcDbEntity
  8
DRAFT
100
AcDbLine
 62
7
  6
CONTINUOUS
 10
-7.2028346725
 20
-18.8955099888
 11
-7.2028346725
 21
-17.8310398069
  0
LINE
  5
311
100
AcDbEntity
  8
RACCORDO
100
AcDbLine
 62
7
  6
CONTINUOUS
 10
-7.2028346725
 20
9.8301429071
 11
-7.2028346725
 21
9.8556965837
  0
LINE
  5
312
100
AcDbEntity
  8
DRAFT
100
AcDbLine
 62
7
  6
CONTINUOUS
 10
-7.2028346725
 20
21.5689601931
 11
-7.2028346725
 21
22.6334303749
  0
LINE
  5
313
100
AcDbEntity
  8
RACCORDO
100
AcDbLine
 62
7
  6
CONTINUOUS
 10
-7.1592003336
 20
9.8298344643
 11
-7.1592003336
 21
9.8560065819
  0
LINE
  5
314
100
AcDbEntity
  8
RACCORDO
100
AcDbLine
 62
7
  6
CONTINUOUS
 10
-7.1028346725
 20
-19.0310398069
 11
-7.1028346725
 21
-18.1310398069
  0
LINE
  5
315
100
AcDbEntity
  8
RACCORDO
100
AcDbLine
 62
7
  6
CONTINUOUS
 10
-7.1028346725
 20
21.8689601931
 11
-7.1028346725
 21
22.7689601931
  0
LINE
  5
316
100
AcDbEntity
  8
RACCORDO
100
AcDbLine
 62
253
  6
CONTINUOUS
 10
-7.0181612084
 20
-19.0310398069
 11
-7.0181612084
 21
-18.1310398069
  0
LINE
  5
317
100
AcDbEntity
  8
RACCORDO
100
AcDbLine
 62
253
  6
CONTINUOUS
 10
-7.0181612084
 20
21.8689601931
 11
-7.0181612084
 21
22.7689601931
  0
LINE
  5
318
100
AcDbEntity
  8
RACCORDO
100
AcDbLine
 62
7
  6
CONTINUOUS
 10
-7.0028346725
 20
9.8570021621
 11
-7.0028346725
 21
9.8288458669
  0
LINE
  5
319
100
AcDbEntity
  8
0
100
AcDbLine
 62
7
  6
CONTINUOUS
 10
-6.8028346725
 20
4.6327059573
 11
-6.8028346725
 21
1.9052144288
  0
LINE
  5
31A
100
AcDbEntity
  8
0
100
AcDbLine
 62
7
  6
CONTINUOUS
 10
-6.8028346725
 20
-11.5947865734
 11
-6.8028346725
 21
-8.8672930404
  0
LINE
  5
31B
100
AcDbEntity
  8
RACCORDO
100
AcDbLine
 62
253
  6
CONTINUOUS
 10
-6.7181726314
 20
-19.0310398069
 11
-6.7181726314
 21
-17.8310398069
  0
LINE
  5
31C
100
AcDbEntity
  8
RACCORDO
100
AcDbLine
 62
253
  6
CONTINUOUS
 10
-6.7181726314
 20
21.5689601931
 11
-6.7181726314
 21
22.7689601931
  0
LINE
  5
31D
100
AcDbEntity
  8
RACCORDO
100
AcDbLine
 62
7
  6
CONTINUOUS
 10
-8.1079252736
 20
-21.7588710233
 11
-8.1035619012
 21
-21.3258583214
  0
LINE
  5
31E
100
AcDbEntity
  8
RACCORDO
100
AcDbLine
 62
7
  6
CONTINUOUS
 10
-8.3482713073
 20
-17.5497086287
 11
-8.3550898403
 21
-17.6377916123
  0
LINE
  5
31F
100
AcDbEntity
  8
RACCORDO
100
AcDbLine
 62
253
  6
CONTINUOUS
 10
-9.4503480055
 20
0.5287075832
 11
-9.586125981
 21
0.2624733062
  0
LINE
  5
320
100
AcDbEntity
  8
RACCORDO
100
AcDbLine
 62
7
  6
CONTINUOUS
 10
0.4971653275
 20
16.3689601931
 11
0.4384168952
 21
16.2799461416
  0
LINE
  5
321
100
AcDbEntity
  8
RACCORDO
100
AcDbLine
 62
253
  6
CONTINUOUS
 10
0.4610137084
 20
12.1328002808
 11
0.4366790483
 21
12.1084679219
  0
LINE
  5
322
100
AcDbEntity
  8
RACCORDO
100
AcDbLine
 62
253
  6
CONTINUOUS
 10
5.0613724072
 20
-11.8289391524
 11
5.299794686
 21
-12.0091366336
  0
LINE
  5
323
100
AcDbEntity
  8
RACCORDO
100
AcDbLine
 62
253
  6
CONTINUOUS
 10
0.8329582478
 20
-8.6331404615
 11
0.594535969
 21
-8.4529429803
  0
LINE
  5
324
100
AcDbEntity
  8
RACCORDO
100
AcDbLine
 62
253
  6
CONTINUOUS
 10
5.3139210983
 20
-12.1958540474
 11
5.5438676244
 21
-12.3867492031
  0
LINE
  5
325
100
AcDbEntity
  8
RACCORDO
100
AcDbLine
 62
253
  6
CONTINUOUS
 10
0.5804095567
 20
-8.2662255665
 11
0.3504630306
 21
-8.0753304108
  0
LINE
  5
326
100
AcDbEntity
  8
0
100
AcDbLine
 62
7
  6
CONTINUOUS
 10
-8.5260505607
 20
5.0573602291
 11
-8.5241220393
 21
5.0489601931
  0
LINE
  5
327
100
AcDbEntity
  8
0
100
AcDbLine
 62
7
  6
CONTINUOUS
 10
-6.4347736725
 20
4.1656392774
 11
-6.4347736725
 21
2.3722811088
  0
LINE
  5
328
100
AcDbEntity
  8
0
100
AcDbLine
 62
7
  6
CONTINUOUS
 10
-6.4347736725
 20
-11.1277176079
 11
-6.4347736725
 21
-9.334362006
  0
LINE
  5
329
100
AcDbEntity
  8
RACCORDO
100
AcDbLine
 62
253
  6
CONTINUOUS
 10
-6.1528346725
 20
-18.2183084848
 11
-6.1528346725
 21
-17.8310398069
  0
LINE
  5
32A
100
AcDbEntity
  8
RACCORDO
100
AcDbLine
 62
253
  6
CONTINUOUS
 10
-6.1528346725
 20
21.5689601931
 11
-6.1528346725
 21
21.956228871
  0
LINE
  5
32B
100
AcDbEntity
  8
RACCORDO
100
AcDbLine
 62
7
  6
CONTINUOUS
 10
-5.8528346725
 20
-18.2156904245
 11
-5.8528346725
 21
-18.1310398069
  0
LINE
  5
32C
100
AcDbEntity
  8
RACCORDO
100
AcDbLine
 62
7
  6
CONTINUOUS
 10
-5.8528346725
 20
21.8689601931
 11
-5.8528346725
 21
21.9536108106
  0
LINE
  5
32D
100
AcDbEntity
  8
DRAFT
100
AcDbLine
 62
7
  6
CONTINUOUS
 10
-5.5528346725
 20
21.7689601931
 11
-5.5528346725
 21
21.5689601931
  0
LINE
  5
32E
100
AcDbEntity
  8
DRAFT
100
AcDbLine
 62
7
  6
CONTINUOUS
 10
-5.5528346725
 20
-17.8310398069
 11
-5.5528346725
 21
-18.0310398069
  0
LINE
  5
32F
100
AcDbEntity
  8
DRAFT
100
AcDbLine
 62
7
  6
CONTINUOUS
 10
-5.4638138414
 20
21.6799393619
 11
-5.4638138414
 21
21.4799393619
  0
LINE
  5
330
100
AcDbEntity
  8
DRAFT
100
AcDbLine
 62
7
  6
CONTINUOUS
 10
-5.4638138414
 20
-17.7420189758
 11
-5.4638138414
 21
-17.9420189758
  0
LINE
  5
331
100
AcDbEntity
  8
RACCORDO
100
AcDbLine
 62
7
  6
CONTINUOUS
 10
-5.0028346725
 20
9.8617177703
 11
-5.0028346725
 21
9.8241508655
  0
LINE
  5
332
100
AcDbEntity
  8
0
100
AcDbLine
 62
253
  6
CONTINUOUS
 10
-2.3029393841
 20
10.3189601931
 11
-1.9443073964
 21
10.9401526701
  0
LINE
  5
333
100
AcDbEntity
  8
SMUSSO
100
AcDbLine
 62
7
  6
CONTINUOUS
 10
0.4971653275
 20
12.3818048646
 11
0.4621466059
 21
12.3323279251
  0
LINE
  5
334
100
AcDbEntity
  8
RACCORDO
100
AcDbLine
 62
253
  6
CONTINUOUS
 10
0.4224799573
 20
11.495611526
 11
0.6152974801
 21
11.7254277932
  0
LINE
  5
335
100
AcDbEntity
  8
RACCORDO
100
AcDbLine
 62
253
  6
CONTINUOUS
 10
10.2726575278
 20
21.1640945349
 11
9.5656584424
 21
20.4570954495
  0
LINE
  5
336
100
AcDbEntity
  8
RACCORDO
100
AcDbLine
 62
253
  6
CONTINUOUS
 10
0.9608712379
 20
11.6326743967
 11
0.9365442921
 21
11.6083459038
  0
LINE
  5
337
100
AcDbEntity
  8
RACCORDO
100
AcDbLine
 62
253
  6
CONTINUOUS
 10
9.5671736207
 20
20.0689601931
 11
9.6276556769
 21
20.1294440457
  0
LINE
  5
338
100
AcDbEntity
  8
RACCORDO
100
AcDbLine
 62
253
  6
CONTINUOUS
 10
10.5639212414
 20
20.8728308212
 11
10.0874883587
 21
20.3963979385
  0
LINE
  5
339
100
AcDbEntity
  8
RACCORDO
100
AcDbLine
 62
253
  6
CONTINUOUS
 10
10.0671653275
 20
19.5689684863
 11
10.1272924437
 21
19.6290933556
  0
LINE
  5
33A
100
AcDbEntity
  8
RACCORDO
100
AcDbLine
 62
253
  6
CONTINUOUS
 10
-5.686078902
 20
5.2337744338
 11
-5.4561323754
 21
5.4246695901
  0
LINE
  5
33B
100
AcDbEntity
  8
RACCORDO
100
AcDbLine
 62
253
  6
CONTINUOUS
 10
-5.9386275922
 20
4.866859541
 11
-5.7002053148
 21
5.047057024
  0
LINE
  5
33C
100
AcDbEntity
  8
RACCORDO
100
AcDbLine
 62
253
  6
CONTINUOUS
 10
-10.2008690632
 20
1.7168319028
 11
-10.4431060854
 21
1.5417961061
  0
LINE
  5
33D
100
AcDbEntity
  8
DRAFT
100
AcDbLine
 62
7
  6
CONTINUOUS
 10
2.6446994052
 20
9.8108152313
 11
2.6972700391
 21
9.8458618263
  0
LINE
  5
33E
100
AcDbEntity
  8
RACCORDO
100
AcDbLine
 62
253
  6
CONTINUOUS
 10
9.4955262335
 20
-16.5498609335
 11
10.2025253189
 21
-17.2568600189
  0
LINE
  5
33F
100
AcDbEntity
  8
RACCORDO
100
AcDbLine
 62
253
  6
CONTINUOUS
 10
9.6876080262
 20
-16.3577791408
 11
10.3946071116
 21
-17.0647782262
  0
LINE
  5
340
100
AcDbEntity
  8
RACCORDO
100
AcDbLine
 62
253
  6
CONTINUOUS
 10
-9.4503480055
 20
6.0092128029
 11
-9.586125981
 21
6.2754470799
  0
LINE
  5
341
100
AcDbEntity
  8
0
100
AcDbLine
 62
253
  6
CONTINUOUS
 10
-2.3011661499
 20
-11.8551533024
 11
-2.2749567985
 21
-11.9587316505
  0
LINE
  5
342
100
AcDbEntity
  8
0
100
AcDbLine
 62
7
  6
CONTINUOUS
 10
-2.0734725187
 20
-11.9139896871
 11
-2.1011661499
 21
-11.8045455222
  0
LINE
  5
343
100
AcDbEntity
  8
0
100
AcDbLine
 62
7
  6
CONTINUOUS
 10
-1.9980382854
 20
-11.7784501607
 11
-1.9719082898
 21
-11.8817148978
  0
LINE
  5
344
100
AcDbEntity
  8
RACCORDO
100
AcDbLine
 62
7
  6
CONTINUOUS
 10
-1.7573980378
 20
-17.5497086287
 11
-1.7505795047
 21
-17.6377916123
  0
LINE
  5
345
100
AcDbEntity
  8
DRAFT
100
AcDbLine
 62
7
  6
CONTINUOUS
 10
-4.5028346725
 20
9.8244700092
 11
-4.5028346725
 21
9.8613978931
  0
LINE
  5
346
100
AcDbEntity
  8
DRAFT
100
AcDbLine
 62
7
  6
CONTINUOUS
 10
-4.2028346725
 20
25.6689601931
 11
-4.2028346725
 21
24.2689601931
  0
LINE
  5
347
100
AcDbEntity
  8
DRAFT
100
AcDbLine
 62
7
  6
CONTINUOUS
 10
-4.2028346725
 20
-20.5310398069
 11
-4.2028346725
 21
-21.9310398069
  0
LINE
  5
348
100
AcDbEntity
  8
RACCORDO
100
AcDbLine
 62
253
  6
CONTINUOUS
 10
-4.158027229
 20
25.6241527496
 11
-4.158027229
 21
24.2017480799
  0
LINE
  5
349
100
AcDbEntity
  8
RACCORDO
100
AcDbLine
 62
253
  6
CONTINUOUS
 10
-4.158027229
 20
-20.4638276938
 11
-4.158027229
 21
-21.8862323634
  0
LINE
  5
34A
100
AcDbEntity
  8
RACCORDO
100
AcDbLine
 62
253
  6
CONTINUOUS
 10
-3.8580323059
 20
25.6224175546
 11
-3.8580323059
 21
24.1991452507
  0
LINE
  5
34B
100
AcDbEntity
  8
RACCORDO
100
AcDbLine
 62
253
  6
CONTINUOUS
 10
-3.8580323059
 20
-20.4612248646
 11
-3.8580323059
 21
-21.8844971684
  0
LINE
  5
34C
100
AcDbEntity
  8
0
100
AcDbLine
 62
7
  6
CONTINUOUS
 10
-3.6708956725
 20
4.6151584324
 11
-3.6708956725
 21
1.9227619537
  0
LINE
  5
34D
100
AcDbEntity
  8
0
100
AcDbLine
 62
7
  6
CONTINUOUS
 10
-3.6708956725
 20
-11.5772380463
 11
-3.6708956725
 21
-8.8848415676
  0
LINE
  5
34E
100
AcDbEntity
  8
RACCORDO
100
AcDbLine
 62
253
  6
CONTINUOUS
 10
-3.6028346725
 20
-21.8844971684
 11
-3.6028346725
 21
-20.4612248646
  0
LINE
  5
34F
100
AcDbEntity
  8
RACCORDO
100
AcDbLine
 62
253
  6
CONTINUOUS
 10
-3.6028346725
 20
24.1991452507
 11
-3.6028346725
 21
25.6224175546
  0
LINE
  5
350
100
AcDbEntity
  8
0
100
AcDbLine
 62
7
  6
CONTINUOUS
 10
-3.3028346725
 20
4.8499687493
 11
-3.3028346725
 21
1.6879516368
  0
LINE
  5
351
100
AcDbEntity
  8
DRAFT
100
AcDbLine
 62
7
  6
CONTINUOUS
 10
-3.3028346725
 20
-18.1310398069
 11
-3.3028346725
 21
-18.1842737005
  0
LINE
  5
352
100
AcDbEntity
  8
RACCORDO
100
AcDbLine
 62
7
  6
CONTINUOUS
 10
-3.3028346725
 20
-20.4638429249
 11
-3.3028346725
 21
-21.9252219771
  0
LINE
  5
353
100
AcDbEntity
  8
0
100
AcDbLine
 62
7
  6
CONTINUOUS
 10
-3.3028346725
 20
-11.8120483632
 11
-3.3028346725
 21
-8.6500312507
  0
LINE
  5
354
100
AcDbEntity
  8
DRAFT
100
AcDbLine
 62
7
  6
CONTINUOUS
 10
-3.3028346725
 20
21.8689601931
 11
-3.3028346725
 21
21.9221940866
  0
LINE
  5
355
100
AcDbEntity
  8
RACCORDO
100
AcDbLine
 62
7
  6
CONTINUOUS
 10
-3.3028346725
 20
24.2017633111
 11
-3.3028346725
 21
25.6631423633
  0
LINE
  5
356
100
AcDbEntity
  8
0
100
AcDbLine
 62
7
  6
CONTINUOUS
 10
-8.1076310597
 20
-11.7784501607
 11
-8.1830339311
 21
-12.0764394072
  0
LINE
  5
357
100
AcDbEntity
  8
0
100
AcDbLine
 62
7
  6
CONTINUOUS
 10
-8.0045031952
 20
-11.8045455222
 11
-8.0731652641
 21
-12.0758953764
  0
LINE
  5
358
100
AcDbEntity
  8
0
100
AcDbLine
 62
253
  6
CONTINUOUS
 10
-7.8045031952
 20
-11.8551533024
 11
-7.8590540011
 21
-12.0707359884
  0
LINE
  5
359
100
AcDbEntity
  8
RACCORDO
100
AcDbLine
 62
253
  6
CONTINUOUS
 10
8.6502247568
 20
15.622012007
 11
8.5971653275
 21
15.5689525777
  0
LINE
  5
35A
100
AcDbEntity
  8
RACCORDO
100
AcDbLine
 62
253
  6
CONTINUOUS
 10
8.851962382
 20
15.423764863
 11
8.7971577121
 21
15.3689601931
  0
LINE
  5
35B
100
AcDbEntity
  8
RACCORDO
100
AcDbLine
 62
253
  6
CONTINUOUS
 10
10.5951997479
 20
-11.7831680009
 11
10.8374368018
 21
-11.9582038055
  0
LINE
  5
35C
100
AcDbEntity
  8
RACCORDO
100
AcDbLine
 62
253
  6
CONTINUOUS
 10
-10.2008691081
 20
4.8210883391
 11
-10.4431061778
 21
4.9961241474
  0
LINE
  5
35D
100
AcDbEntity
  8
RACCORDO
100
AcDbLine
 62
253
  6
CONTINUOUS
 10
6.3329582406
 20
-8.633140487
 11
6.0945359524
 21
-8.4529429997
  0
LINE
  5
35E
100
AcDbEntity
  8
RACCORDO
100
AcDbLine
 62
253
  6
CONTINUOUS
 10
-5.9386275856
 20
1.6710608731
 11
-5.7002052974
 21
1.4908633859
  0
LINE
  5
35F
100
AcDbEntity
  8
RACCORDO
100
AcDbLine
 62
253
  6
CONTINUOUS
 10
-5.6860789139
 20
1.3041459387
 11
-5.4561323835
 21
1.1132507764
  0
LINE
  5
360
100
AcDbEntity
  8
RACCORDO
100
AcDbLine
 62
253
  6
CONTINUOUS
 10
6.0804095688
 20
-8.2662255526
 11
5.8504630385
 21
-8.0753303903
  0
LINE
  5
361
100
AcDbEntity
  8
RACCORDO
100
AcDbLine
 62
253
  6
CONTINUOUS
 10
-2.2038397059
 20
-18.1842189627
 11
-2.2043589074
 21
-18.0155264866
  0
LINE
  5
362
100
AcDbEntity
  8
0
100
AcDbLine
 62
7
  6
CONTINUOUS
 10
-2.8528346725
 20
2.1576353277
 11
-2.8528346725
 21
1.5802850585
  0
LINE
  5
363
100
AcDbEntity
  8
RACCORDO
100
AcDbLine
 62
7
  6
CONTINUOUS
 10
-2.8028346725
 20
-20.4690790456
 11
-2.8028346725
 21
-19.1310398069
  0
LINE
  5
364
100
AcDbEntity
  8
RACCORDO
100
AcDbLine
 62
7
  6
CONTINUOUS
 10
-2.8028346725
 20
22.8689601931
 11
-2.8028346725
 21
24.2069994318
  0
LINE
  5
365
100
AcDbEntity
  8
0
100
AcDbLine
 62
7
  6
CONTINUOUS
 10
-2.4028346725
 20
-8.4875996163
 11
-2.4028346725
 21
-10.7356736505
  0
LINE
  5
366
100
AcDbEntity
  8
0
100
AcDbLine
 62
7
  6
CONTINUOUS
 10
-2.4028346725
 20
-11.7356736505
 11
-2.4028346725
 21
-11.1856736505
  0
LINE
  5
367
100
AcDbEntity
  8
ASSI
100
AcDbLine
 62
7
  6
CONTINUOUS
 10
-2.4028346725
 20
-11.1856736505
 11
-2.4028346725
 21
-10.7356736505
  0
LINE
  5
368
100
AcDbEntity
  8
0
100
AcDbLine
 62
253
  6
CONTINUOUS
 10
-2.3029393841
 20
-16.2079414402
 11
-2.3029393841
 21
-16.6810398069
  0
LINE
  5
369
100
AcDbEntity
  8
0
100
AcDbLine
 62
253
  6
CONTINUOUS
 10
-2.3029393841
 20
9.8458618263
 11
-2.3029393841
 21
10.3189601931
  0
LINE
  5
36A
100
AcDbEntity
  8
RACCORDO
100
AcDbLine
 62
7
  6
CONTINUOUS
 10
-2.3028346725
 20
-16.2079414402
 11
-2.3028346725
 21
-16.2010349681
  0
LINE
  5
36B
100
AcDbEntity
  8
RACCORDO
100
AcDbLine
 62
7
  6
CONTINUOUS
 10
-2.2503687502
 20
9.8522515015
 11
-2.2503687502
 21
9.8108152313
  0
LINE
  5
36C
100
AcDbEntity
  8
RACCORDO
100
AcDbLine
 62
7
  6
CONTINUOUS
 10
-2.2503687502
 20
-16.5498609335
 11
-2.2503687502
 21
-16.1728948452
  0
LINE
  5
36D
100
AcDbEntity
  8
0
100
AcDbLine
 62
253
  6
CONTINUOUS
 10
-1.8528346725
 20
3.1689601931
 11
-1.8528346725
 21
4.8727487891
  0
LINE
  5
36E
100
AcDbEntity
  8
0
100
AcDbLine
 62
7
  6
CONTINUOUS
 10
-1.8428346725
 20
1.6695950685
 11
-1.8428346725
 21
3.1689601931
  0
LINE
  5
36F
100
AcDbEntity
  8
RACCORDO
100
AcDbLine
 62
7
  6
CONTINUOUS
 10
-1.7977304373
 20
2.9493090474
 11
-1.7977304373
 21
3.1689601931
  0
LINE
  5
370
100
AcDbEntity
  8
RACCORDO
100
AcDbLine
 62
253
  6
CONTINUOUS
 10
-2.2043589074
 20
21.7534468727
 11
-2.2038397059
 21
21.9221393489
  0
LINE
  5
371
100
AcDbEntity
  8
RACCORDO
100
AcDbLine
 62
7
  6
CONTINUOUS
 10
-1.9511236451
 20
10.8520991967
 11
-1.9443073964
 21
10.9401526701
  0
LINE
  5
372
100
AcDbEntity
  8
RACCORDO
100
AcDbLine
 62
253
  6
CONTINUOUS
 10
-9.8081946639
 20
-17.2568600189
 11
-9.8878522179
 21
-17.449170366
  0
LINE
  5
373
100
AcDbEntity
  8
RACCORDO
100
AcDbLine
 62
253
  6
CONTINUOUS
 10
-9.4503480055
 20
-12.9712924168
 11
-9.586125981
 21
-13.2375266938
  0
LINE
  5
374
100
AcDbEntity
  8
RACCORDO
100
AcDbLine
 62
253
  6
CONTINUOUS
 10
-4.9195904308
 20
1.3041459383
 11
-5.1495369618
 21
1.1132507754
  0
LINE
  5
375
100
AcDbEntity
  8
RACCORDO
100
AcDbLine
 62
253
  6
CONTINUOUS
 10
-0.186078902
 20
5.2337744338
 11
0.0438676246
 21
5.4246695901
  0
LINE
  5
376
100
AcDbEntity
  8
RACCORDO
100
AcDbLine
 62
253
  6
CONTINUOUS
 10
-4.6670417599
 20
1.6710608711
 11
-4.9054640469
 21
1.490863383
  0
LINE
  5
377
100
AcDbEntity
  8
RACCORDO
100
AcDbLine
 62
253
  6
CONTINUOUS
 10
-0.4386275922
 20
4.866859541
 11
-0.2002053148
 21
5.047057024
  0
LINE
  5
378
100
AcDbEntity
  8
RACCORDO
100
AcDbLine
 62
253
  6
CONTINUOUS
 10
-10.7552878059
 20
10.0215656313
 11
-10.5859736761
 21
9.8522515015
  0
LINE
  5
379
100
AcDbEntity
  8
0
100
AcDbLine
 62
253
  6
CONTINUOUS
 10
-7.8027299609
 20
10.3189601931
 11
-8.1613619486
 21
10.9401526701
  0
LINE
  5
37A
100
AcDbEntity
  8
0
100
AcDbLine
 62
253
  6
CONTINUOUS
 10
8.7494204953
 20
-17.6377916123
 11
8.1970606159
 21
-16.6810398069
  0
LINE
  5
37B
100
AcDbEntity
  8
RACCORDO
100
AcDbLine
 62
253
  6
CONTINUOUS
 10
-9.8878522179
 20
21.1870907522
 11
-9.8783268728
 21
21.1640945349
  0
LINE
  5
37C
100
AcDbEntity
  8
0
100
AcDbLine
 62
253
  6
CONTINUOUS
 10
-1.2860032999
 20
3.1689601931
 11
-1.2860032999
 21
4.4762765708
  0
LINE
  5
37D
100
AcDbEntity
  8
RACCORDO
100
AcDbLine
 62
253
  6
CONTINUOUS
 10
-1.2826675397
 20
-11.4347733276
 11
-1.2826675397
 21
-10.7356736505
  0
LINE
  5
37E
100
AcDbEntity
  8
0
100
AcDbLine
 62
7
  6
CONTINUOUS
 10
-1.0528346725
 20
-9.3298407948
 11
-1.0528346725
 21
-10.7356736505
  0
LINE
  5
37F
100
AcDbEntity
  8
RACCORDO
100
AcDbLine
 62
253
  6
CONTINUOUS
 10
-0.9827132311
 20
-11.0036462576
 11
-0.9827132311
 21
-9.4584333562
  0
LINE
  5
380
100
AcDbEntity
  8
RACCORDO
100
AcDbLine
 62
253
  6
CONTINUOUS
 10
0.1366840242
 20
12.1084656207
 11
0.1366840242
 21
19.6294547655
  0
LINE
  5
381
100
AcDbEntity
  8
RACCORDO
100
AcDbLine
 62
253
  6
CONTINUOUS
 10
0.4366790483
 20
12.1084679219
 11
0.4366790483
 21
19.6294524761
  0
LINE
  5
382
100
AcDbEntity
  8
RACCORDO
100
AcDbLine
 62
7
  6
CONTINUOUS
 10
0.4610137084
 20
12.1328002808
 11
0.4621466059
 21
12.3323279251
  0
LINE
  5
383
100
AcDbEntity
  8
RACCORDO
100
AcDbLine
 62
7
  6
CONTINUOUS
 10
-2.2542195253
 20
-11.7356736505
 11
-2.1842927134
 21
-10.7356736505
  0
LINE
  5
384
100
AcDbEntity
  8
RACCORDO
100
AcDbLine
 62
253
  6
CONTINUOUS
 10
-1.9934762966
 20
-10.7356736505
 11
-2.0634031085
 21
-11.7356736505
  0
LINE
  5
385
100
AcDbEntity
  8
RACCORDO
100
AcDbLine
 62
253
  6
CONTINUOUS
 10
-1.6927895302
 20
-10.7356736505
 11
-1.7621902904
 21
-11.7281507601
  0
LINE
  5
386
100
AcDbEntity
  8
RACCORDO
100
AcDbLine
 62
253
  6
CONTINUOUS
 10
-9.1011955785
 20
-17.5497086287
 11
-9.1808531325
 21
-17.7420189758
  0
LINE
  5
387
100
AcDbEntity
  8
DRAFT
100
AcDbLine
 62
7
  6
CONTINUOUS
 10
-8.6028346725
 20
-18.9810398069
 11
-8.5305334263
 21
-18.8064891576
  0
LINE
  5
388
100
AcDbEntity
  8
DRAFT
100
AcDbLine
 62
7
  6
CONTINUOUS
 10
8.9971653275
 20
22.7189601931
 11
8.9248640812
 21
22.5444095438
  0
LINE
  5
389
100
AcDbEntity
  8
0
100
AcDbLine
 62
7
  6
CONTINUOUS
 10
9.5128518442
 20
3.0036313195
 11
9.5971653275
 21
3.0139065483
  0
LINE
  5
38A
100
AcDbEntity
  8
0
100
AcDbLine
 62
7
  6
CONTINUOUS
 10
8.6571653275
 20
1.5802850585
 11
7.691689105
 21
1.5802850585
  0
LINE
  5
38B
100
AcDbEntity
  8
0
100
AcDbLine
 62
7
  6
CONTINUOUS
 10
3.2471653275
 20
1.5802850585
 11
2.4881981261
 21
1.5802850585
  0
LINE
  5
38C
100
AcDbEntity
  8
0
100
AcDbLine
 62
7
  6
CONTINUOUS
 10
-2.0938674712
 20
1.5802850585
 11
-2.8528346725
 21
1.5802850585
  0
LINE
  5
38D
100
AcDbEntity
  8
0
100
AcDbLine
 62
7
  6
CONTINUOUS
 10
-7.2973584501
 20
1.5802850585
 11
-8.2628346725
 21
1.5802850585
  0
LINE
  5
38E
100
AcDbEntity
  8
0
100
AcDbLine
 62
253
  6
CONTINUOUS
 10
-8.2628346725
 20
1.6957551123
 11
-7.2528346725
 21
1.6957551123
  0
LINE
  5
38F
100
AcDbEntity
  8
0
100
AcDbLine
 62
253
  6
CONTINUOUS
 10
8.6571653275
 20
1.6957551123
 11
7.6471653275
 21
1.6957551123
  0
LINE
  5
390
100
AcDbEntity
  8
0
100
AcDbLine
 62
253
  6
CONTINUOUS
 10
2.2371653275
 20
1.6957551123
 11
3.2471653275
 21
1.6957551123
  0
LINE
  5
391
100
AcDbEntity
  8
0
100
AcDbLine
 62
253
  6
CONTINUOUS
 10
-1.8428346725
 20
1.6957551123
 11
-2.8528346725
 21
1.6957551123
  0
LINE
  5
392
100
AcDbEntity
  8
RACCORDO
100
AcDbLine
 62
253
  6
CONTINUOUS
 10
-10.2391039353
 20
1.8352686974
 11
-10.5390582439
 21
1.8352686974
  0
LINE
  5
393
100
AcDbEntity
  8
RACCORDO
100
AcDbLine
 62
253
  6
CONTINUOUS
 10
10.6334345903
 20
1.8352688324
 11
10.9333888988
 21
1.8352688324
  0
LINE
  5
394
100
AcDbEntity
  8
0
100
AcDbLine
 62
253
  6
CONTINUOUS
 10
-8.2628346725
 20
2.0421652738
 11
-7.2528346725
 21
2.0421652738
  0
LINE
  5
395
100
AcDbEntity
  8
0
100
AcDbLine
 62
253
  6
CONTINUOUS
 10
8.6571653275
 20
2.0421652738
 11
7.6471653275
 21
2.0421652738
  0
LINE
  5
396
100
AcDbEntity
  8
0
100
AcDbLine
 62
253
  6
CONTINUOUS
 10
2.2371653275
 20
2.0421652738
 11
3.2471653275
 21
2.0421652738
  0
LINE
  5
397
100
AcDbEntity
  8
0
100
AcDbLine
 62
253
  6
CONTINUOUS
 10
-1.8428346725
 20
2.0421652738
 11
-2.8528346725
 21
2.0421652738
  0
LINE
  5
398
100
AcDbEntity
  8
0
100
AcDbLine
 62
7
  6
CONTINUOUS
 10
-9.1185211892
 20
3.0036313195
 11
-9.2028346725
 21
3.0139065483
  0
LINE
  5
399
100
AcDbEntity
  8
RACCORDO
100
AcDbLine
 62
253
  6
CONTINUOUS
 10
-0.4386275928
 20
1.6710608476
 11
-0.200205314
 21
1.4908633664
  0
LINE
  5
39A
100
AcDbEntity
  8
RACCORDO
100
AcDbLine
 62
253
  6
CONTINUOUS
 10
-4.6670417522
 20
4.8668595385
 11
-4.905464031
 21
5.0470570197
  0
LINE
  5
39B
100
AcDbEntity
  8
RACCORDO
100
AcDbLine
 62
253
  6
CONTINUOUS
 10
-4.9195904433
 20
5.2337744335
 11
-5.1495369694
 21
5.4246695892
  0
LINE
  5
39C
100
AcDbEntity
  8
RACCORDO
100
AcDbLine
 62
253
  6
CONTINUOUS
 10
-0.1860789017
 20
1.3041459526
 11
0.0438676244
 21
1.1132507969
  0
LINE
  5
39D
100
AcDbEntity
  8
RACCORDO
100
AcDbLine
 62
253
  6
CONTINUOUS
 10
-9.7297144627
 20
10.9956876784
 11
-9.586125981
 21
10.8520991967
  0
LINE
  5
39E
100
AcDbEntity
  8
RACCORDO
100
AcDbLine
 62
253
  6
CONTINUOUS
 10
-9.1808531325
 20
21.4799393619
 11
-9.1713277874
 21
21.4569431446
  0
LINE
  5
39F
100
AcDbEntity
  8
DRAFT
100
AcDbLine
 62
7
  6
CONTINUOUS
 10
-8.6028346725
 20
22.7189601931
 11
-8.5305334263
 21
22.5444095438
  0
LINE
  5
3A0
100
AcDbEntity
  8
DRAFT
100
AcDbLine
 62
7
  6
CONTINUOUS
 10
8.9971653275
 20
-18.9810398069
 11
8.9248640812
 21
-18.8064891576
  0
LINE
  5
3A1
100
AcDbEntity
  8
RACCORDO
100
AcDbLine
 62
253
  6
CONTINUOUS
 10
2.1565209454
 20
-11.7281507601
 11
2.0871201852
 21
-10.7356736505
  0
LINE
  5
3A2
100
AcDbEntity
  8
RACCORDO
100
AcDbLine
 62
253
  6
CONTINUOUS
 10
2.4577337635
 20
-11.7356736505
 11
2.3878069516
 21
-10.7356736505
  0
LINE
  5
3A3
100
AcDbEntity
  8
RACCORDO
100
AcDbLine
 62
7
  6
CONTINUOUS
 10
2.5786233683
 20
-10.7356736505
 11
2.6485501803
 21
-11.7356736505
  0
LINE
  5
3A4
100
AcDbEntity
  8
RACCORDO
100
AcDbLine
 62
7
  6
CONTINUOUS
 10
0.4384168952
 20
15.4579742445
 11
0.4384168952
 21
16.2799461416
  0
LINE
  5
3A5
100
AcDbEntity
  8
DRAFT
100
AcDbLine
 62
7
  6
CONTINUOUS
 10
0.4971653275
 20
12.3818048646
 11
0.4971653275
 21
15.3689601931
  0
LINE
  5
3A6
100
AcDbEntity
  8
RACCORDO
100
AcDbLine
 62
7
  6
CONTINUOUS
 10
0.4971653275
 20
16.3689601931
 11
0.4971653275
 21
19.5689684863
  0
LINE
  5
3A7
100
AcDbEntity
  8
RACCORDO
100
AcDbLine
 62
253
  6
CONTINUOUS
 10
0.6913463672
 20
15.4547584205
 11
0.6913463672
 21
16.2831619657
  0
LINE
  5
3A8
100
AcDbEntity
  8
SMUSSO
100
AcDbLine
 62
7
  6
CONTINUOUS
 10
0.7221653291
 20
15.4239394586
 11
0.7221653291
 21
16.3139809276
  0
LINE
  5
3A9
100
AcDbEntity
  8
RACCORDO
100
AcDbLine
 62
253
  6
CONTINUOUS
 10
0.936542745
 20
11.3785736221
 11
0.936542745
 21
11.6083459038
  0
LINE
  5
3AA
100
AcDbEntity
  8
RACCORDO
100
AcDbLine
 62
253
  6
CONTINUOUS
 10
0.9366707551
 20
20.4294414964
 11
0.9366707551
 21
20.1294464723
  0
LINE
  5
3AB
100
AcDbEntity
  8
RACCORDO
100
AcDbLine
 62
7
  6
CONTINUOUS
 10
0.9441058982
 20
15.622012007
 11
0.9441058982
 21
16.1159083792
  0
LINE
  5
3AC
100
AcDbEntity
  8
RACCORDO
100
AcDbLine
 62
7
  6
CONTINUOUS
 10
0.9971653275
 20
15.5689525777
 11
0.9971653275
 21
16.1689678085
  0
LINE
  5
3AD
100
AcDbEntity
  8
RACCORDO
100
AcDbLine
 62
253
  6
CONTINUOUS
 10
1.3770438861
 20
-9.4584333562
 11
1.3770438861
 21
-11.0036462576
  0
LINE
  5
3AE
100
AcDbEntity
  8
0
100
AcDbLine
 62
7
  6
CONTINUOUS
 10
1.4471653275
 20
-9.3298407948
 11
1.4471653275
 21
-10.7356736505
  0
LINE
  5
3AF
100
AcDbEntity
  8
RACCORDO
100
AcDbLine
 62
253
  6
CONTINUOUS
 10
1.6769981947
 20
-10.7356736505
 11
1.6769981947
 21
-11.4347733276
  0
LINE
  5
3B0
100
AcDbEntity
  8
0
100
AcDbLine
 62
253
  6
CONTINUOUS
 10
1.6803339548
 20
3.1689601931
 11
1.6803339548
 21
4.4762765708
  0
LINE
  5
3B1
100
AcDbEntity
  8
RACCORDO
100
AcDbLine
 62
7
  6
CONTINUOUS
 10
2.1920610922
 20
3.1689601931
 11
2.1920610922
 21
2.9493090474
  0
LINE
  5
3B2
100
AcDbEntity
  8
SMUSSO
100
AcDbLine
 62
253
  6
CONTINUOUS
 10
3.1035324918
 20
11.8139045206
 11
3.1281743157
 21
12.0344520097
  0
LINE
  5
3B3
100
AcDbEntity
  8
RACCORDO
100
AcDbLine
 62
253
  6
CONTINUOUS
 10
9.5656584424
 20
21.4569431446
 11
9.5751837874
 21
21.4799393619
  0
LINE
  5
3B4
100
AcDbEntity
  8
RACCORDO
100
AcDbLine
 62
253
  6
CONTINUOUS
 10
10.2726575278
 20
21.1640945349
 11
10.2821828728
 21
21.1870907522
  0
LINE
  5
3B5
100
AcDbEntity
  8
RACCORDO
100
AcDbLine
 62
7
  6
CONTINUOUS
 10
10.0671653275
 20
15.3689601931
 11
10.1236300044
 21
15.4545139595
  0
LINE
  5
3B6
100
AcDbEntity
  8
RACCORDO
100
AcDbLine
 62
253
  6
CONTINUOUS
 10
9.9804566359
 20
10.8520991967
 11
10.1240451177
 21
10.9956876784
  0
LINE
  5
3B7
100
AcDbEntity
  8
RACCORDO
100
AcDbLine
 62
253
  6
CONTINUOUS
 10
10.9803043311
 20
9.8522515015
 11
11.1496184609
 21
10.0215656313
  0
LINE
  5
3B8
100
AcDbEntity
  8
RACCORDO
100
AcDbLine
 62
253
  6
CONTINUOUS
 10
0.580409557
 20
1.3041459523
 11
0.3504630304
 21
1.1132507961
  0
LINE
  5
3B9
100
AcDbEntity
  8
RACCORDO
100
AcDbLine
 62
253
  6
CONTINUOUS
 10
5.3139210857
 20
5.2337744478
 11
5.5438676168
 21
5.4246696108
  0
LINE
  5
3BA
100
AcDbEntity
  8
RACCORDO
100
AcDbLine
 62
253
  6
CONTINUOUS
 10
5.0613724149
 20
4.8668595151
 11
5.2997947019
 21
5.0470570031
  0
LINE
  5
3BB
100
AcDbEntity
  8
RACCORDO
100
AcDbLine
 62
253
  6
CONTINUOUS
 10
0.8329582471
 20
1.6710608451
 11
0.5945359698
 21
1.4908633622
  0
LINE
  5
3BC
100
AcDbEntity
  8
0
100
AcDbLine
 62
7
  6
CONTINUOUS
 10
-8.2628346725
 20
2.1576353277
 11
-7.2528346725
 21
2.1576353277
  0
LINE
  5
3BD
100
AcDbEntity
  8
0
100
AcDbLine
 62
7
  6
CONTINUOUS
 10
-2.8528346725
 20
2.1576353277
 11
-1.8428346725
 21
2.1576353277
  0
LINE
  5
3BE
100
AcDbEntity
  8
0
100
AcDbLine
 62
7
  6
CONTINUOUS
 10
2.2371653275
 20
2.1576353277
 11
3.2471653275
 21
2.1576353277
  0
LINE
  5
3BF
100
AcDbEntity
  8
0
100
AcDbLine
 62
7
  6
CONTINUOUS
 10
7.6471653275
 20
2.1576353277
 11
8.6571653275
 21
2.1576353277
  0
LINE
  5
3C0
100
AcDbEntity
  8
0
100
AcDbLine
 62
253
  6
CONTINUOUS
 10
-9.5528346725
 20
2.4689601931
 11
-8.2628346725
 21
2.4689601931
  0
LINE
  5
3C1
100
AcDbEntity
  8
0
100
AcDbLine
 62
253
  6
CONTINUOUS
 10
-1.8428346725
 20
2.4689601931
 11
-0.996425553
 21
2.4689601931
  0
LINE
  5
3C2
100
AcDbEntity
  8
0
100
AcDbLine
 62
253
  6
CONTINUOUS
 10
1.390756208
 20
2.4689601931
 11
2.2371653275
 21
2.4689601931
  0
LINE
  5
3C3
100
AcDbEntity
  8
0
100
AcDbLine
 62
253
  6
CONTINUOUS
 10
8.6571653275
 20
2.4689601931
 11
9.9471653275
 21
2.4689601931
  0
LINE
  5
3C4
100
AcDbEntity
  8
0
100
AcDbLine
 62
7
  6
CONTINUOUS
 10
-9.5528346725
 20
2.8675110062
 11
-8.8506974075
 21
2.8675110062
  0
LINE
  5
3C5
100
AcDbEntity
  8
0
100
AcDbLine
 62
7
  6
CONTINUOUS
 10
9.9471653275
 20
2.8675110062
 11
9.2450280625
 21
2.8675110062
  0
LINE
  5
3C6
100
AcDbEntity
  8
0
100
AcDbLine
 62
7
  6
CONTINUOUS
 10
1.2439352276
 20
2.8675110062
 11
1.6493025925
 21
2.8675110062
  0
LINE
  5
3C7
100
AcDbEntity
  8
0
100
AcDbLine
 62
7
  6
CONTINUOUS
 10
-0.8496045727
 20
2.8675110062
 11
-1.2549719375
 21
2.8675110062
  0
LINE
  5
3C8
100
AcDbEntity
  8
0
100
AcDbLine
 62
7
  6
CONTINUOUS
 10
-9.1185211892
 20
3.0036313195
 11
-8.4028346725
 21
3.0036313195
  0
LINE
  5
3C9
100
AcDbEntity
  8
0
100
AcDbLine
 62
7
  6
CONTINUOUS
 10
9.5128518442
 20
3.0036313195
 11
8.7971653275
 21
3.0036313195
  0
LINE
  5
3CA
100
AcDbEntity
  8
0
100
AcDbLine
 62
7
  6
CONTINUOUS
 10
-9.2028346725
 20
3.0376752418
 11
-8.4028346725
 21
3.0376752418
  0
LINE
  5
3CB
100
AcDbEntity
  8
0
100
AcDbLine
 62
7
  6
CONTINUOUS
 10
9.5971653275
 20
3.0376752418
 11
8.7971653275
 21
3.0376752418
  0
LINE
  5
3CC
100
AcDbEntity
  8
RACCORDO
100
AcDbLine
 62
7
  6
CONTINUOUS
 10
9.7990474981
 20
3.1689601931
 11
9.2139967001
 21
3.1689601931
  0
LINE
  5
3CD
100
AcDbEntity
  8
0
100
AcDbLine
 62
7
  6
CONTINUOUS
 10
9.2139967001
 20
3.1689601931
 11
8.6471653275
 21
3.1689601931
  0
LINE
  5
3CE
100
AcDbEntity
  8
0
100
AcDbLine
 62
7
  6
CONTINUOUS
 10
2.2471653275
 20
3.1689601931
 11
1.6803339548
 21
3.1689601931
  0
LINE
  5
3CF
100
AcDbEntity
  8
RACCORDO
100
AcDbLine
 62
7
  6
CONTINUOUS
 10
1.6803339548
 20
3.1689601931
 11
1.200144698
 21
3.1689601931
  0
LINE
  5
3D0
100
AcDbEntity
  8
RACCORDO
100
AcDbLine
 62
7
  6
CONTINUOUS
 10
-0.805814043
 20
3.1689601931
 11
-1.2860032999
 21
3.1689601931
  0
LINE
  5
3D1
100
AcDbEntity
  8
0
100
AcDbLine
 62
7
  6
CONTINUOUS
 10
-1.2860032999
 20
3.1689601931
 11
-1.8528346725
 21
3.1689601931
  0
LINE
  5
3D2
100
AcDbEntity
  8
0
100
AcDbLine
 62
7
  6
CONTINUOUS
 10
-8.2528346725
 20
3.1689601931
 11
-8.8196660452
 21
3.1689601931
  0
LINE
  5
3D3
100
AcDbEntity
  8
RACCORDO
100
AcDbLine
 62
7
  6
CONTINUOUS
 10
-8.8196660452
 20
3.1689601931
 11
-9.4047168432
 21
3.1689601931
  0
LINE
  5
3D4
100
AcDbEntity
  8
RACCORDO
100
AcDbLine
 62
253
  6
CONTINUOUS
 10
9.8446786604
 20
-12.9712924168
 11
9.9804566359
 21
-13.2375266938
  0
LINE
  5
3D5
100
AcDbEntity
  8
RACCORDO
100
AcDbLine
 62
253
  6
CONTINUOUS
 10
9.5751837874
 20
-17.7420189758
 11
9.4955262335
 21
-17.5497086287
  0
LINE
  5
3D6
100
AcDbEntity
  8
RACCORDO
100
AcDbLine
 62
253
  6
CONTINUOUS
 10
10.2821828728
 20
-17.449170366
 11
10.2025253189
 21
-17.2568600189
  0
LINE
  5
3D7
100
AcDbEntity
  8
RACCORDO
100
AcDbLine
 62
7
  6
CONTINUOUS
 10
2.3454543
 20
10.8520991967
 11
2.3386380514
 21
10.9401526701
  0
LINE
  5
3D8
100
AcDbEntity
  8
RACCORDO
100
AcDbLine
 62
253
  6
CONTINUOUS
 10
2.5981703608
 20
21.9221393489
 11
2.5986895623
 21
21.7534468727
  0
LINE
  5
3D9
100
AcDbEntity
  8
0
100
AcDbLine
 62
7
  6
CONTINUOUS
 10
2.2371653275
 20
1.6695950685
 11
2.2371653275
 21
3.1689601931
  0
LINE
  5
3DA
100
AcDbEntity
  8
0
100
AcDbLine
 62
253
  6
CONTINUOUS
 10
2.2471653275
 20
3.1689601931
 11
2.2471653275
 21
4.8727487891
  0
LINE
  5
3DB
100
AcDbEntity
  8
RACCORDO
100
AcDbLine
 62
7
  6
CONTINUOUS
 10
2.6446994052
 20
9.8522515015
 11
2.6446994052
 21
9.8108152313
  0
LINE
  5
3DC
100
AcDbEntity
  8
RACCORDO
100
AcDbLine
 62
7
  6
CONTINUOUS
 10
2.6446994052
 20
-16.5498609335
 11
2.6446994052
 21
-16.1728948452
  0
LINE
  5
3DD
100
AcDbEntity
  8
RACCORDO
100
AcDbLine
 62
7
  6
CONTINUOUS
 10
2.6971653275
 20
-16.2010349681
 11
2.6971653275
 21
-16.2079414402
  0
LINE
  5
3DE
100
AcDbEntity
  8
0
100
AcDbLine
 62
253
  6
CONTINUOUS
 10
2.6972700391
 20
-16.2079414402
 11
2.6972700391
 21
-16.6810398069
  0
LINE
  5
3DF
100
AcDbEntity
  8
0
100
AcDbLine
 62
253
  6
CONTINUOUS
 10
2.6972700391
 20
9.8458618263
 11
2.6972700391
 21
10.3189601931
  0
LINE
  5
3E0
100
AcDbEntity
  8
0
100
AcDbLine
 62
7
  6
CONTINUOUS
 10
2.7971653275
 20
-8.4875996163
 11
2.7971653275
 21
-10.7356736505
  0
LINE
  5
3E1
100
AcDbEntity
  8
0
100
AcDbLine
 62
7
  6
CONTINUOUS
 10
2.7971653275
 20
-11.7356736505
 11
2.7971653275
 21
-11.1856736505
  0
LINE
  5
3E2
100
AcDbEntity
  8
ASSI
100
AcDbLine
 62
7
  6
CONTINUOUS
 10
2.7971653275
 20
-11.1856736505
 11
2.7971653275
 21
-10.7356736505
  0
LINE
  5
3E3
100
AcDbEntity
  8
RACCORDO
100
AcDbLine
 62
7
  6
CONTINUOUS
 10
3.1971653275
 20
-20.4690790456
 11
3.1971653275
 21
-19.1310398069
  0
LINE
  5
3E4
100
AcDbEntity
  8
RACCORDO
100
AcDbLine
 62
7
  6
CONTINUOUS
 10
3.1971653275
 20
22.8689601931
 11
3.1971653275
 21
24.2069994318
  0
LINE
  5
3E5
100
AcDbEntity
  8
0
100
AcDbLine
 62
7
  6
CONTINUOUS
 10
3.2471653275
 20
2.1576353277
 11
3.2471653275
 21
1.5802850585
  0
LINE
  5
3E6
100
AcDbEntity
  8
SMUSSO
100
AcDbLine
 62
253
  6
CONTINUOUS
 10
3.461279537
 20
11.793980926
 11
3.461279537
 21
12.0159007638
  0
LINE
  5
3E7
100
AcDbEntity
  8
0
100
AcDbLine
 62
7
  6
CONTINUOUS
 10
3.6971653275
 20
4.8499687493
 11
3.6971653275
 21
1.6879516368
  0
LINE
  5
3E8
100
AcDbEntity
  8
0
100
AcDbLine
 62
7
  6
CONTINUOUS
 10
3.6971653275
 20
-8.6500312507
 11
3.6971653275
 21
-11.8120483632
  0
LINE
  5
3E9
100
AcDbEntity
  8
DRAFT
100
AcDbLine
 62
7
  6
CONTINUOUS
 10
3.6971653275
 20
-18.1310398069
 11
3.6971653275
 21
-18.1842737005
  0
LINE
  5
3EA
100
AcDbEntity
  8
RACCORDO
100
AcDbLine
 62
7
  6
CONTINUOUS
 10
3.6971653275
 20
-20.4638429249
 11
3.6971653275
 21
-21.9252219771
  0
LINE
  5
3EB
100
AcDbEntity
  8
DRAFT
100
AcDbLine
 62
7
  6
CONTINUOUS
 10
3.6971653275
 20
21.8689601931
 11
3.6971653275
 21
21.9221940866
  0
LINE
  5
3EC
100
AcDbEntity
  8
RACCORDO
100
AcDbLine
 62
7
  6
CONTINUOUS
 10
3.6971653275
 20
24.2017633111
 11
3.6971653275
 21
25.6631423633
  0
LINE
  5
3ED
100
AcDbEntity
  8
RACCORDO
100
AcDbLine
 62
253
  6
CONTINUOUS
 10
3.9971653275
 20
25.6224175546
 11
3.9971653275
 21
24.1991452507
  0
LINE
  5
3EE
100
AcDbEntity
  8
RACCORDO
100
AcDbLine
 62
253
  6
CONTINUOUS
 10
3.9971653275
 20
-20.4612248646
 11
3.9971653275
 21
-21.8844971684
  0
LINE
  5
3EF
100
AcDbEntity
  8
RACCORDO
100
AcDbLine
 62
253
  6
CONTINUOUS
 10
2.5986895623
 20
-18.0155264866
 11
2.5981703608
 21
-18.1842189627
  0
LINE
  5
3F0
100
AcDbEntity
  8
SMUSSO
100
AcDbLine
 62
253
  6
CONTINUOUS
 10
3.1281743157
 20
12.0344520097
 11
3.1311292934
 21
12.087511439
  0
LINE
  5
3F1
100
AcDbEntity
  8
SMUSSO
100
AcDbLine
 62
253
  6
CONTINUOUS
 10
3.461279537
 20
12.0159007638
 11
3.4642345147
 21
12.0689601931
  0
LINE
  5
3F2
100
AcDbEntity
  8
RACCORDO
100
AcDbLine
 62
7
  6
CONTINUOUS
 10
2.1517286927
 20
-17.5497086287
 11
2.1449101597
 21
-17.6377916123
  0
LINE
  5
3F3
100
AcDbEntity
  8
0
100
AcDbLine
 62
253
  6
CONTINUOUS
 10
-8.3550898403
 20
-17.6377916123
 11
-7.8027299609
 21
-16.6810398069
  0
LINE
  5
3F4
100
AcDbEntity
  8
0
100
AcDbLine
 62
253
  6
CONTINUOUS
 10
8.1970606159
 20
10.3189601931
 11
8.5556926036
 21
10.9401526701
  0
LINE
  5
3F5
100
AcDbEntity
  8
RACCORDO
100
AcDbLine
 62
253
  6
CONTINUOUS
 10
10.5951997496
 20
4.821088372
 11
10.8374368105
 21
4.9961242047
  0
LINE
  5
3F6
100
AcDbEntity
  8
RACCORDO
100
AcDbLine
 62
253
  6
CONTINUOUS
 10
10.6334345903
 20
4.7026515903
 11
10.9333888988
 21
4.7026515903
  0
LINE
  5
3F7
100
AcDbEntity
  8
RACCORDO
100
AcDbLine
 62
253
  6
CONTINUOUS
 10
-10.2391039353
 20
4.7026515319
 11
-10.5390582439
 21
4.7026515319
  0
LINE
  5
3F8
100
AcDbEntity
  8
0
100
AcDbLine
 62
7
  6
CONTINUOUS
 10
8.9510185572
 20
5.0489601931
 11
8.6471653275
 21
5.0489601931
  0
LINE
  5
3F9
100
AcDbEntity
  8
0
100
AcDbLine
 62
253
  6
CONTINUOUS
 10
8.6471653275
 20
5.0489601931
 11
7.9433120978
 21
5.0489601931
  0
LINE
  5
3FA
100
AcDbEntity
  8
0
100
AcDbLine
 62
253
  6
CONTINUOUS
 10
-7.5489814428
 20
5.0489601931
 11
-8.2528346725
 21
5.0489601931
  0
LINE
  5
3FB
100
AcDbEntity
  8
0
100
AcDbLine
 62
7
  6
CONTINUOUS
 10
-8.2528346725
 20
5.0489601931
 11
-8.5566879022
 21
5.0489601931
  0
LINE
  5
3FC
100
AcDbEntity
  8
RACCORDO
100
AcDbLine
 62
253
  6
CONTINUOUS
 10
5.0613724072
 20
1.6710608476
 11
5.299794686
 21
1.4908633664
  0
LINE
  5
3FD
100
AcDbEntity
  8
RACCORDO
100
AcDbLine
 62
253
  6
CONTINUOUS
 10
0.8329582478
 20
4.8668595385
 11
0.594535969
 21
5.0470570197
  0
LINE
  5
3FE
100
AcDbEntity
  8
RACCORDO
100
AcDbLine
 62
253
  6
CONTINUOUS
 10
5.3139210983
 20
1.3041459526
 11
5.5438676244
 21
1.1132507969
  0
LINE
  5
3FF
100
AcDbEntity
  8
RACCORDO
100
AcDbLine
 62
253
  6
CONTINUOUS
 10
0.5804095567
 20
5.2337744335
 11
0.3504630306
 21
5.4246695892
  0
LINE
  5
400
100
AcDbEntity
  8
RACCORDO
100
AcDbLine
 62
7
  6
CONTINUOUS
 10
5.2421858795
 20
19.943960374
 11
5.2423606576
 21
19.9237572476
  0
LINE
  5
401
100
AcDbEntity
  8
0
100
AcDbLine
 62
7
  6
CONTINUOUS
 10
4.0652263275
 20
4.6151584324
 11
4.0652263275
 21
1.9227619537
  0
LINE
  5
402
100
AcDbEntity
  8
0
100
AcDbLine
 62
7
  6
CONTINUOUS
 10
4.0652263275
 20
-11.5772380463
 11
4.0652263275
 21
-8.8848415676
  0
LINE
  5
403
100
AcDbEntity
  8
RACCORDO
100
AcDbLine
 62
7
  6
CONTINUOUS
 10
4.1971653275
 20
9.8599720751
 11
4.1971653275
 21
9.8258907783
  0
LINE
  5
404
100
AcDbEntity
  8
RACCORDO
100
AcDbLine
 62
253
  6
CONTINUOUS
 10
4.2523629609
 20
-21.8844971684
 11
4.2523629609
 21
-20.4612248646
  0
LINE
  5
405
100
AcDbEntity
  8
RACCORDO
100
AcDbLine
 62
253
  6
CONTINUOUS
 10
4.2523629609
 20
24.1991452507
 11
4.2523629609
 21
25.6224175546
  0
LINE
  5
406
100
AcDbEntity
  8
RACCORDO
100
AcDbLine
 62
7
  6
CONTINUOUS
 10
4.2971653275
 20
20.0689601931
 11
4.2971653275
 21
19.8689525777
  0
LINE
  5
407
100
AcDbEntity
  8
RACCORDO
100
AcDbLine
 62
7
  6
CONTINUOUS
 10
4.2971653275
 20
11.6102117608
 11
4.2971653275
 21
11.7939601931
  0
LINE
  5
408
100
AcDbEntity
  8
RACCORDO
100
AcDbLine
 62
253
  6
CONTINUOUS
 10
4.552357884
 20
-21.8862323634
 11
4.552357884
 21
-20.4638276938
  0
LINE
  5
409
100
AcDbEntity
  8
RACCORDO
100
AcDbLine
 62
253
  6
CONTINUOUS
 10
4.552357884
 20
24.2017480799
 11
4.552357884
 21
25.6241527496
  0
LINE
  5
40A
100
AcDbEntity
  8
DRAFT
100
AcDbLine
 62
7
  6
CONTINUOUS
 10
4.5971653275
 20
-21.9310398069
 11
4.5971653275
 21
-20.5310398069
  0
LINE
  5
40B
100
AcDbEntity
  8
DRAFT
100
AcDbLine
 62
7
  6
CONTINUOUS
 10
4.5971653275
 20
24.2689601931
 11
4.5971653275
 21
25.6689601931
  0
LINE
  5
40C
100
AcDbEntity
  8
DRAFT
100
AcDbLine
 62
7
  6
CONTINUOUS
 10
4.8971653275
 20
9.8613978931
 11
4.8971653275
 21
9.8244700092
  0
LINE
  5
40D
100
AcDbEntity
  8
DRAFT
100
AcDbLine
 62
7
  6
CONTINUOUS
 10
5.1971653275
 20
17.8992825324
 11
5.1971653275
 21
13.1482563782
  0
LINE
  5
40E
100
AcDbEntity
  8
RACCORDO
100
AcDbLine
 62
7
  6
CONTINUOUS
 10
5.2971653275
 20
20.0689601931
 11
5.2971653275
 21
19.8689525777
  0
LINE
  5
40F
100
AcDbEntity
  8
RACCORDO
100
AcDbLine
 62
7
  6
CONTINUOUS
 10
5.2971653275
 20
11.7939601931
 11
5.2971653275
 21
11.6102117608
  0
LINE
  5
410
100
AcDbEntity
  8
RACCORDO
100
AcDbLine
 62
7
  6
CONTINUOUS
 10
5.3971653275
 20
9.8617177703
 11
5.3971653275
 21
9.8241508655
  0
LINE
  5
411
100
AcDbEntity
  8
RACCORDO
100
AcDbLine
 62
7
  6
CONTINUOUS
 10
4.3519699974
 20
19.9237572476
 11
4.3521447755
 21
19.943960374
  0
LINE
  5
412
100
AcDbEntity
  8
0
100
AcDbLine
 62
7
  6
CONTINUOUS
 10
2.3923689403
 20
-11.7784501607
 11
2.3662389447
 21
-11.8817148978
  0
LINE
  5
413
100
AcDbEntity
  8
0
100
AcDbLine
 62
7
  6
CONTINUOUS
 10
2.4954968048
 20
-11.8045455222
 11
2.4678031736
 21
-11.9139896871
  0
LINE
  5
414
100
AcDbEntity
  8
RACCORDO
100
AcDbLine
 62
253
  6
CONTINUOUS
 10
-5.686078902
 20
-8.2662255662
 11
-5.4561323754
 21
-8.0753304099
  0
LINE
  5
415
100
AcDbEntity
  8
RACCORDO
100
AcDbLine
 62
253
  6
CONTINUOUS
 10
6.080409557
 20
1.3041459523
 11
5.8504630304
 21
1.1132507961
  0
LINE
  5
416
100
AcDbEntity
  8
RACCORDO
100
AcDbLine
 62
253
  6
CONTINUOUS
 10
6.3329582471
 20
1.6710608451
 11
6.0945359698
 21
1.4908633622
  0
LINE
  5
417
100
AcDbEntity
  8
RACCORDO
100
AcDbLine
 62
253
  6
CONTINUOUS
 10
-5.9386275922
 20
-8.633140459
 11
-5.7002053148
 21
-8.452942976
  0
LINE
  5
418
100
AcDbEntity
  8
RACCORDO
100
AcDbLine
 62
253
  6
CONTINUOUS
 10
-10.2008690997
 20
-11.7831679699
 11
-10.4431061659
 21
-11.9582038038
  0
LINE
  5
419
100
AcDbEntity
  8
DRAFT
100
AcDbLine
 62
7
  6
CONTINUOUS
 10
-2.2503687502
 20
9.8108152313
 11
-2.3029393841
 21
9.8458618263
  0
LINE
  5
41A
100
AcDbEntity
  8
0
100
AcDbLine
 62
253
  6
CONTINUOUS
 10
8.1988338501
 20
-11.8551533024
 11
8.2533846561
 21
-12.0707359884
  0
LINE
  5
41B
100
AcDbEntity
  8
0
100
AcDbLine
 62
7
  6
CONTINUOUS
 10
8.467495919
 20
-12.0758953764
 11
8.3988338501
 21
-11.8045455222
  0
LINE
  5
41C
100
AcDbEntity
  8
0
100
AcDbLine
 62
7
  6
CONTINUOUS
 10
8.5019617146
 20
-11.7784501607
 11
8.577364586
 21
-12.0764394071
  0
LINE
  5
41D
100
AcDbEntity
  8
SMUSSO
100
AcDbLine
 62
253
  6
CONTINUOUS
 10
6.4493029716
 20
11.806240869
 11
6.4299613833
 21
12.0273162348
  0
LINE
  5
41E
100
AcDbEntity
  8
RACCORDO
100
AcDbLine
 62
7
  6
CONTINUOUS
 10
8.7426019622
 20
-17.5497086287
 11
8.7494204953
 21
-17.6377916123
  0
LINE
  5
41F
100
AcDbEntity
  8
SMUSSO
100
AcDbLine
 62
253
  6
CONTINUOUS
 10
6.1661874862
 20
12.0689601931
 11
6.1685041109
 21
12.0159007638
  0
LINE
  5
420
100
AcDbEntity
  8
SMUSSO
100
AcDbLine
 62
253
  6
CONTINUOUS
 10
6.4276447586
 20
12.0803756641
 11
6.4299613833
 21
12.0273162348
  0
LINE
  5
421
100
AcDbEntity
  8
DRAFT
100
AcDbLine
 62
7
  6
CONTINUOUS
 10
5.8581444963
 20
21.6799393619
 11
5.8581444963
 21
21.4799393619
  0
LINE
  5
422
100
AcDbEntity
  8
DRAFT
100
AcDbLine
 62
7
  6
CONTINUOUS
 10
5.8581444963
 20
-17.7420189758
 11
5.8581444963
 21
-17.9420189758
  0
LINE
  5
423
100
AcDbEntity
  8
DRAFT
100
AcDbLine
 62
7
  6
CONTINUOUS
 10
5.9471653275
 20
21.7689601931
 11
5.9471653275
 21
21.5689601931
  0
LINE
  5
424
100
AcDbEntity
  8
DRAFT
100
AcDbLine
 62
7
  6
CONTINUOUS
 10
5.9471653275
 20
-17.8310398069
 11
5.9471653275
 21
-18.0310398069
  0
LINE
  5
425
100
AcDbEntity
  8
SMUSSO
100
AcDbLine
 62
253
  6
CONTINUOUS
 10
6.1685041109
 20
11.793980926
 11
6.1685041109
 21
12.0159007638
  0
LINE
  5
426
100
AcDbEntity
  8
RACCORDO
100
AcDbLine
 62
7
  6
CONTINUOUS
 10
6.2471653275
 20
21.9536108106
 11
6.2471653275
 21
21.8689601931
  0
LINE
  5
427
100
AcDbEntity
  8
RACCORDO
100
AcDbLine
 62
7
  6
CONTINUOUS
 10
6.2471653275
 20
-18.1310398069
 11
6.2471653275
 21
-18.2156904245
  0
LINE
  5
428
100
AcDbEntity
  8
RACCORDO
100
AcDbLine
 62
253
  6
CONTINUOUS
 10
6.5471653275
 20
21.956228871
 11
6.5471653275
 21
21.5689601931
  0
LINE
  5
429
100
AcDbEntity
  8
RACCORDO
100
AcDbLine
 62
253
  6
CONTINUOUS
 10
6.5471653275
 20
-18.2183084848
 11
6.5471653275
 21
-17.8310398069
  0
LINE
  5
42A
100
AcDbEntity
  8
0
100
AcDbLine
 62
7
  6
CONTINUOUS
 10
6.8291043275
 20
4.1656392774
 11
6.8291043275
 21
2.3722811088
  0
LINE
  5
42B
100
AcDbEntity
  8
0
100
AcDbLine
 62
7
  6
CONTINUOUS
 10
6.8291043275
 20
-11.1277176079
 11
6.8291043275
 21
-9.334362006
  0
LINE
  5
42C
100
AcDbEntity
  8
RACCORDO
100
AcDbLine
 62
253
  6
CONTINUOUS
 10
7.0548619078
 20
17.8992825324
 11
7.0548609489
 21
17.99311078
  0
LINE
  5
42D
100
AcDbEntity
  8
DRAFT
100
AcDbLine
 62
7
  6
CONTINUOUS
 10
7.0811700783
 20
13.7731535144
 11
7.0811700783
 21
17.8992054851
  0
LINE
  5
42E
100
AcDbEntity
  8
RACCORDO
100
AcDbLine
 62
253
  6
CONTINUOUS
 10
7.1125032864
 20
22.7689601931
 11
7.1125032864
 21
21.5689601931
  0
LINE
  5
42F
100
AcDbEntity
  8
RACCORDO
100
AcDbLine
 62
253
  6
CONTINUOUS
 10
7.1125032864
 20
-19.0310398069
 11
7.1125032864
 21
-17.8310398069
  0
LINE
  5
430
100
AcDbEntity
  8
0
100
AcDbLine
 62
7
  6
CONTINUOUS
 10
7.1971653275
 20
4.6327059573
 11
7.1971653275
 21
1.9052144288
  0
LINE
  5
431
100
AcDbEntity
  8
0
100
AcDbLine
 62
7
  6
CONTINUOUS
 10
7.1971653275
 20
-8.8672930404
 11
7.1971653275
 21
-11.5947865734
  0
LINE
  5
432
100
AcDbEntity
  8
SMUSSO
100
AcDbLine
 62
7
  6
CONTINUOUS
 10
7.1971653275
 20
13.9069317667
 11
7.1971653275
 21
17.8309886194
  0
LINE
  5
433
100
AcDbEntity
  8
RACCORDO
100
AcDbLine
 62
7
  6
CONTINUOUS
 10
7.3971653275
 20
9.8570021621
 11
7.3971653275
 21
9.8288458669
  0
LINE
  5
434
100
AcDbEntity
  8
RACCORDO
100
AcDbLine
 62
253
  6
CONTINUOUS
 10
7.4124918633
 20
22.7689601931
 11
7.4124918633
 21
21.8689601931
  0
LINE
  5
435
100
AcDbEntity
  8
RACCORDO
100
AcDbLine
 62
253
  6
CONTINUOUS
 10
7.4124918633
 20
-18.1310398069
 11
7.4124918633
 21
-19.0310398069
  0
LINE
  5
436
100
AcDbEntity
  8
RACCORDO
100
AcDbLine
 62
7
  6
CONTINUOUS
 10
7.4971653275
 20
22.7689601931
 11
7.4971653275
 21
21.8689601931
  0
LINE
  5
437
100
AcDbEntity
  8
RACCORDO
100
AcDbLine
 62
7
  6
CONTINUOUS
 10
7.4971653275
 20
-18.1310398069
 11
7.4971653275
 21
-19.0310398069
  0
LINE
  5
438
100
AcDbEntity
  8
RACCORDO
100
AcDbLine
 62
7
  6
CONTINUOUS
 10
7.5535309885
 20
9.8560065819
 11
7.5535309885
 21
9.8298344643
  0
LINE
  5
439
100
AcDbEntity
  8
0
100
AcDbLine
 62
253
  6
CONTINUOUS
 10
2.6954968048
 20
-11.8551533024
 11
2.6692874535
 21
-11.9587316505
  0
LINE
  5
43A
100
AcDbEntity
  8
RACCORDO
100
AcDbLine
 62
253
  6
CONTINUOUS
 10
9.8446786604
 20
6.0092128029
 11
9.9804566359
 21
6.2754470799
  0
LINE
  5
43B
100
AcDbEntity
  8
RACCORDO
100
AcDbLine
 62
253
  6
CONTINUOUS
 10
-10.0002764566
 20
-17.0647782262
 11
-9.2932773712
 21
-16.3577791408
  0
LINE
  5
43C
100
AcDbEntity
  8
RACCORDO
100
AcDbLine
 62
253
  6
CONTINUOUS
 10
-9.8081946639
 20
-17.2568600189
 11
-9.1011955785
 21
-16.5498609335
  0
LINE
  5
43D
100
AcDbEntity
  8
RACCORDO
100
AcDbLine
 62
253
  6
CONTINUOUS
 10
10.5951997569
 20
1.7168320279
 11
10.8374368204
 21
1.5417962203
  0
LINE
  5
43E
100
AcDbEntity
  8
RACCORDO
100
AcDbLine
 62
253
  6
CONTINUOUS
 10
6.3329582406
 20
4.866859513
 11
6.0945359524
 21
5.0470570003
  0
LINE
  5
43F
100
AcDbEntity
  8
RACCORDO
100
AcDbLine
 62
253
  6
CONTINUOUS
 10
6.0804095688
 20
5.2337744474
 11
5.8504630385
 21
5.4246696097
  0
LINE
  5
440
100
AcDbEntity
  8
RACCORDO
100
AcDbLine
 62
253
  6
CONTINUOUS
 10
-10.1695905864
 20
20.8728308212
 11
-9.462591501
 21
20.1658317358
  0
LINE
  5
441
100
AcDbEntity
  8
RACCORDO
100
AcDbLine
 62
253
  6
CONTINUOUS
 10
-9.8783268728
 20
21.1640945349
 11
-9.1713277874
 21
20.4570954495
  0
LINE
  5
442
100
AcDbEntity
  8
0
100
AcDbLine
 62
253
  6
CONTINUOUS
 10
2.6972700391
 20
10.3189601931
 11
2.3386380514
 21
10.9401526701
  0
LINE
  5
443
100
AcDbEntity
  8
RACCORDO
100
AcDbLine
 62
7
  6
CONTINUOUS
 10
8.5022559286
 20
-21.7588710233
 11
8.4978925562
 21
-21.3258583214
  0
LINE
  5
444
100
AcDbEntity
  8
DRAFT
100
AcDbLine
 62
7
  6
CONTINUOUS
 10
7.5971653275
 20
22.6334303749
 11
7.5971653275
 21
21.5689601931
  0
LINE
  5
445
100
AcDbEntity
  8
RACCORDO
100
AcDbLine
 62
7
  6
CONTINUOUS
 10
7.5971653275
 20
9.8556965837
 11
7.5971653275
 21
9.8301429071
  0
LINE
  5
446
100
AcDbEntity
  8
DRAFT
100
AcDbLine
 62
7
  6
CONTINUOUS
 10
7.5971653275
 20
-17.8310398069
 11
7.5971653275
 21
-18.8955099888
  0
LINE
  5
447
100
AcDbEntity
  8
0
100
AcDbLine
 62
7
  6
CONTINUOUS
 10
7.6471653275
 20
2.1576353277
 11
7.6471653275
 21
1.600973011
  0
LINE
  5
448
100
AcDbEntity
  8
DRAFT
100
AcDbLine
 62
7
  6
CONTINUOUS
 10
7.6861861586
 20
22.5444095438
 11
7.6861861586
 21
21.4799393619
  0
LINE
  5
449
100
AcDbEntity
  8
DRAFT
100
AcDbLine
 62
7
  6
CONTINUOUS
 10
7.6861861586
 20
-17.7420189758
 11
7.6861861586
 21
-18.8064891576
  0
LINE
  5
44A
100
AcDbEntity
  8
RACCORDO
100
AcDbLine
 62
253
  6
CONTINUOUS
 10
7.7507187181
 20
16.8099732704
 11
7.7507187181
 21
14.9279471157
  0
LINE
  5
44B
100
AcDbEntity
  8
DRAFT
100
AcDbLine
 62
7
  6
CONTINUOUS
 10
7.8971653275
 20
9.8328236795
 11
7.8971653275
 21
9.8529872506
  0
LINE
  5
44C
100
AcDbEntity
  8
RACCORDO
100
AcDbLine
 62
253
  6
CONTINUOUS
 10
7.9778054993
 20
-19.4437330506
 11
7.9778054993
 21
-19.0310854984
  0
LINE
  5
44D
100
AcDbEntity
  8
RACCORDO
100
AcDbLine
 62
253
  6
CONTINUOUS
 10
7.9778054993
 20
22.7690058845
 11
7.9778054993
 21
23.1816534368
  0
LINE
  5
44E
100
AcDbEntity
  8
0
100
AcDbLine
 62
7
  6
CONTINUOUS
 10
8.0971653275
 20
-8.4145251512
 11
8.0971653275
 21
-10.7356736505
  0
LINE
  5
44F
100
AcDbEntity
  8
0
100
AcDbLine
 62
7
  6
CONTINUOUS
 10
8.0971653275
 20
-11.7356736505
 11
8.0971653275
 21
-11.1856736505
  0
LINE
  5
450
100
AcDbEntity
  8
ASSI
100
AcDbLine
 62
7
  6
CONTINUOUS
 10
8.0971653275
 20
-11.1856736505
 11
8.0971653275
 21
-10.7356736505
  0
LINE
  5
451
100
AcDbEntity
  8
0
100
AcDbLine
 62
253
  6
CONTINUOUS
 10
8.1970606159
 20
-16.2079414402
 11
8.1970606159
 21
-16.6810398069
  0
LINE
  5
452
100
AcDbEntity
  8
0
100
AcDbLine
 62
253
  6
CONTINUOUS
 10
8.1970606159
 20
9.8458618263
 11
8.1970606159
 21
10.3189601931
  0
LINE
  5
453
100
AcDbEntity
  8
RACCORDO
100
AcDbLine
 62
7
  6
CONTINUOUS
 10
8.2496312498
 20
9.8522515015
 11
8.2496312498
 21
9.8108152313
  0
LINE
  5
454
100
AcDbEntity
  8
RACCORDO
100
AcDbLine
 62
7
  6
CONTINUOUS
 10
8.2496312498
 20
-16.5498609335
 11
8.2496312498
 21
-16.1728948452
  0
LINE
  5
455
100
AcDbEntity
  8
RACCORDO
100
AcDbLine
 62
253
  6
CONTINUOUS
 10
8.2777598078
 20
-19.5761355664
 11
8.2777598078
 21
-19.3310398069
  0
LINE
  5
456
100
AcDbEntity
  8
RACCORDO
100
AcDbLine
 62
253
  6
CONTINUOUS
 10
8.2777598078
 20
23.0689601931
 11
8.2777598078
 21
23.3140559526
  0
LINE
  5
457
100
AcDbEntity
  8
RACCORDO
100
AcDbLine
 62
7
  6
CONTINUOUS
 10
8.4471653275
 20
23.1446504329
 11
8.4471653275
 21
23.0689601931
  0
LINE
  5
458
100
AcDbEntity
  8
RACCORDO
100
AcDbLine
 62
7
  6
CONTINUOUS
 10
8.4471653275
 20
-19.3310398069
 11
8.4471653275
 21
-19.4067300468
  0
LINE
  5
459
100
AcDbEntity
  8
RACCORDO
100
AcDbLine
 62
7
  6
CONTINUOUS
 10
8.4971653275
 20
-20.5310398069
 11
8.4971653275
 21
-22.5310398069
  0
LINE
  5
45A
100
AcDbEntity
  8
RACCORDO
100
AcDbLine
 62
7
  6
CONTINUOUS
 10
8.4971653275
 20
24.2689601931
 11
8.4971653275
 21
26.2689601931
  0
LINE
  5
45B
100
AcDbEntity
  8
RACCORDO
100
AcDbLine
 62
7
  6
CONTINUOUS
 10
8.5029831573
 20
26.0145925899
 11
8.5029831573
 21
25.7132977604
  0
LINE
  5
45C
100
AcDbEntity
  8
RACCORDO
100
AcDbLine
 62
7
  6
CONTINUOUS
 10
8.5029831573
 20
-21.9753773742
 11
8.5029831573
 21
-22.2766722037
  0
LINE
  5
45D
100
AcDbEntity
  8
RACCORDO
100
AcDbLine
 62
7
  6
CONTINUOUS
 10
8.5971653275
 20
16.1689678085
 11
8.5971653275
 21
15.5689525777
  0
LINE
  5
45E
100
AcDbEntity
  8
0
100
AcDbLine
 62
7
  6
CONTINUOUS
 10
8.6471653275
 20
5.0489601931
 11
8.6471653275
 21
5.1080028344
  0
LINE
  5
45F
100
AcDbEntity
  8
0
100
AcDbLine
 62
253
  6
CONTINUOUS
 10
8.6471653275
 20
3.1689601931
 11
8.6471653275
 21
5.0489601931
  0
LINE
  5
460
100
AcDbEntity
  8
RACCORDO
100
AcDbLine
 62
7
  6
CONTINUOUS
 10
8.6502247568
 20
16.1159083792
 11
8.6502247568
 21
15.622012007
  0
LINE
  5
461
100
AcDbEntity
  8
0
100
AcDbLine
 62
7
  6
CONTINUOUS
 10
8.6571653275
 20
1.4309685941
 11
8.6571653275
 21
3.1689601931
  0
LINE
  5
462
100
AcDbEntity
  8
RACCORDO
100
AcDbLine
 62
7
  6
CONTINUOUS
 10
8.7971653275
 20
2.8675110062
 11
8.7971653275
 21
3.1689601931
  0
LINE
  5
463
100
AcDbEntity
  8
0
100
AcDbLine
 62
7
  6
CONTINUOUS
 10
8.7971653275
 20
5.0489601931
 11
8.7971653275
 21
5.0854746883
  0
LINE
  5
464
100
AcDbEntity
  8
0
100
AcDbLine
 62
7
  6
CONTINUOUS
 10
8.8453920549
 20
-11.7356736505
 11
8.8453920549
 21
-12.037558158
  0
LINE
  5
465
100
AcDbEntity
  8
0
100
AcDbLine
 62
253
  6
CONTINUOUS
 10
9.2139967001
 20
3.1689601931
 11
9.2139967001
 21
4.9524203127
  0
LINE
  5
466
100
AcDbEntity
  8
RACCORDO
100
AcDbLine
 62
253
  6
CONTINUOUS
 10
9.2173324603
 20
-11.7356736505
 11
9.2173324603
 21
-10.7356736505
  0
LINE
  5
467
100
AcDbEntity
  8
RACCORDO
100
AcDbLine
 62
253
  6
CONTINUOUS
 10
9.3171860604
 20
15.4277895325
 11
9.3171860604
 21
15.8544987288
  0
LINE
  5
468
100
AcDbEntity
  8
RACCORDO
100
AcDbLine
 62
253
  6
CONTINUOUS
 10
9.3171860604
 20
15.8834216574
 11
9.3171860604
 21
16.2834064266
  0
LINE
  5
469
100
AcDbEntity
  8
RACCORDO
100
AcDbLine
 62
253
  6
CONTINUOUS
 10
9.3171860604
 20
16.3101308536
 11
9.317189077
 21
16.2834064266
  0
LINE
  5
46A
100
AcDbEntity
  8
RACCORDO
100
AcDbLine
 62
7
  6
CONTINUOUS
 10
8.4978925562
 20
25.0637787075
 11
8.5022559286
 21
25.4967914094
  0
LINE
  5
46B
100
AcDbEntity
  8
RACCORDO
100
AcDbLine
 62
7
  6
CONTINUOUS
 10
8.2457804747
 20
-11.7356736505
 11
8.3157072866
 21
-10.7356736505
  0
LINE
  5
46C
100
AcDbEntity
  8
RACCORDO
100
AcDbLine
 62
253
  6
CONTINUOUS
 10
8.5065237034
 20
-10.7356736505
 11
8.4365968915
 21
-11.7356736505
  0
LINE
  5
46D
100
AcDbEntity
  8
RACCORDO
100
AcDbLine
 62
7
  6
CONTINUOUS
 10
8.5488763549
 20
10.8520991967
 11
8.5556926036
 21
10.9401526701
  0
LINE
  5
46E
100
AcDbEntity
  8
0
100
AcDbLine
 62
7
  6
CONTINUOUS
 10
8.8560627443
 20
5.0489601931
 11
8.8623123099
 21
5.07167556
  0
LINE
  5
46F
100
AcDbEntity
  8
RACCORDO
100
AcDbLine
 62
7
  6
CONTINUOUS
 10
10.1800168159
 20
3.9166592063
 11
10.0308945352
 21
3.4618534119
  0
LINE
  5
470
100
AcDbEntity
  8
RACCORDO
100
AcDbLine
 62
7
  6
CONTINUOUS
 10
-4.2028346725
 20
-20.5310398069
 11
-4.158027229
 21
-20.4638276938
  0
LINE
  5
471
100
AcDbEntity
  8
RACCORDO
100
AcDbLine
 62
253
  6
CONTINUOUS
 10
-4.9195904308
 20
-12.1958540617
 11
-5.1495369618
 21
-12.3867492246
  0
LINE
  5
472
100
AcDbEntity
  8
RACCORDO
100
AcDbLine
 62
253
  6
CONTINUOUS
 10
-0.186078902
 20
-8.2662255662
 11
0.0438676246
 21
-8.0753304099
  0
LINE
  5
473
100
AcDbEntity
  8
RACCORDO
100
AcDbLine
 62
253
  6
CONTINUOUS
 10
-0.4386275922
 20
-8.633140459
 11
-0.2002053148
 21
-8.452942976
  0
LINE
  5
474
100
AcDbEntity
  8
RACCORDO
100
AcDbLine
 62
253
  6
CONTINUOUS
 10
-4.6670417599
 20
-11.8289391289
 11
-4.9054640469
 21
-12.009136617
  0
LINE
  5
475
100
AcDbEntity
  8
DRAFT
100
AcDbLine
 62
7
  6
CONTINUOUS
 10
8.2496312498
 20
9.8108152313
 11
2.6446994052
 21
9.8108152313
  0
LINE
  5
476
100
AcDbEntity
  8
DRAFT
100
AcDbLine
 62
7
  6
CONTINUOUS
 10
-2.2503687502
 20
9.8108152313
 11
-7.8553005948
 21
9.8108152313
  0
LINE
  5
477
100
AcDbEntity
  8
RACCORDO
100
AcDbLine
 62
253
  6
CONTINUOUS
 10
10.9803043311
 20
9.8522515015
 11
8.2496312498
 21
9.8522515015
  0
LINE
  5
478
100
AcDbEntity
  8
RACCORDO
100
AcDbLine
 62
253
  6
CONTINUOUS
 10
2.6446994052
 20
9.8522515015
 11
-2.2503687502
 21
9.8522515015
  0
LINE
  5
479
100
AcDbEntity
  8
RACCORDO
100
AcDbLine
 62
253
  6
CONTINUOUS
 10
-7.8553005948
 20
9.8522515015
 11
-10.5859736761
 21
9.8522515015
  0
LINE
  5
47A
100
AcDbEntity
  8
RACCORDO
100
AcDbLine
 62
7
  6
CONTINUOUS
 10
-7.8542918658
 20
10.3189601931
 11
-7.8027299609
 21
10.3189601931
  0
LINE
  5
47B
100
AcDbEntity
  8
0
100
AcDbLine
 62
7
  6
CONTINUOUS
 10
-7.8027299609
 20
10.3189601931
 11
-2.3029393841
 21
10.3189601931
  0
LINE
  5
47C
100
AcDbEntity
  8
RACCORDO
100
AcDbLine
 62
7
  6
CONTINUOUS
 10
-2.3029393841
 20
10.3189601931
 11
-2.2513774792
 21
10.3189601931
  0
LINE
  5
47D
100
AcDbEntity
  8
RACCORDO
100
AcDbLine
 62
7
  6
CONTINUOUS
 10
2.6457081342
 20
10.3189601931
 11
2.6972700391
 21
10.3189601931
  0
LINE
  5
47E
100
AcDbEntity
  8
0
100
AcDbLine
 62
7
  6
CONTINUOUS
 10
2.6972700391
 20
10.3189601931
 11
8.1970606159
 21
10.3189601931
  0
LINE
  5
47F
100
AcDbEntity
  8
RACCORDO
100
AcDbLine
 62
7
  6
CONTINUOUS
 10
8.1970606159
 20
10.3189601931
 11
8.2486225208
 21
10.3189601931
  0
LINE
  5
480
100
AcDbEntity
  8
RACCORDO
100
AcDbLine
 62
253
  6
CONTINUOUS
 10
9.9804566359
 20
10.8520991967
 11
8.5488763549
 21
10.8520991967
  0
LINE
  5
481
100
AcDbEntity
  8
RACCORDO
100
AcDbLine
 62
253
  6
CONTINUOUS
 10
2.3454543
 20
10.8520991967
 11
-1.9511236451
 21
10.8520991967
  0
LINE
  5
482
100
AcDbEntity
  8
RACCORDO
100
AcDbLine
 62
253
  6
CONTINUOUS
 10
-8.1545457
 20
10.8520991967
 11
-9.586125981
 21
10.8520991967
  0
LINE
  5
483
100
AcDbEntity
  8
RACCORDO
100
AcDbLine
 62
253
  6
CONTINUOUS
 10
-9.7297144627
 20
10.9956876784
 11
10.1240451177
 21
10.9956876784
  0
LINE
  5
484
100
AcDbEntity
  8
RACCORDO
100
AcDbLine
 62
7
  6
CONTINUOUS
 10
-4.2028346725
 20
24.2689601931
 11
-4.158027229
 21
24.2017480799
  0
LINE
  5
485
100
AcDbEntity
  8
RACCORDO
100
AcDbLine
 62
7
  6
CONTINUOUS
 10
0.4971653275
 20
15.3689601931
 11
0.4384168952
 21
15.4579742445
  0
LINE
  5
486
100
AcDbEntity
  8
RACCORDO
100
AcDbLine
 62
253
  6
CONTINUOUS
 10
9.8446786604
 20
0.5287075832
 11
9.9804566359
 21
0.2624733062
  0
LINE
  5
487
100
AcDbEntity
  8
RACCORDO
100
AcDbLine
 62
7
  6
CONTINUOUS
 10
10.7964380988
 20
25.0637787075
 11
10.7920747264
 21
25.4967914094
  0
LINE
  5
488
100
AcDbEntity
  8
RACCORDO
100
AcDbLine
 62
7
  6
CONTINUOUS
 10
10.1021840491
 20
12.348594088
 11
10.1034126137
 21
12.1327046137
  0
LINE
  5
489
100
AcDbEntity
  8
RACCORDO
100
AcDbLine
 62
253
  6
CONTINUOUS
 10
10.1497642334
 20
11.5023390966
 11
10.1497707657
 21
11.4953909392
  0
LINE
  5
48A
100
AcDbEntity
  8
0
100
AcDbLine
 62
7
  6
CONTINUOUS
 10
9.4471653275
 20
-8.6747494211
 11
9.4471653275
 21
-10.7356736505
  0
LINE
  5
48B
100
AcDbEntity
  8
RACCORDO
100
AcDbLine
 62
253
  6
CONTINUOUS
 10
9.4955262335
 20
-16.5498609335
 11
9.4955262335
 21
-17.5497086287
  0
LINE
  5
48C
100
AcDbEntity
  8
RACCORDO
100
AcDbLine
 62
253
  6
CONTINUOUS
 10
9.5172867689
 20
-11.7356736505
 11
9.5172867689
 21
-8.9534468752
  0
LINE
  5
48D
100
AcDbEntity
  8
RACCORDO
100
AcDbLine
 62
253
  6
CONTINUOUS
 10
9.5656584424
 20
21.4569431446
 11
9.5656584424
 21
20.4570954495
  0
LINE
  5
48E
100
AcDbEntity
  8
RACCORDO
100
AcDbLine
 62
253
  6
CONTINUOUS
 10
9.5933123955
 20
20.4294414964
 11
9.5933123955
 21
20.1294464723
  0
LINE
  5
48F
100
AcDbEntity
  8
0
100
AcDbLine
 62
7
  6
CONTINUOUS
 10
9.5971653275
 20
2.8675110062
 11
9.5971653275
 21
3.0376752418
  0
LINE
  5
490
100
AcDbEntity
  8
RACCORDO
100
AcDbLine
 62
253
  6
CONTINUOUS
 10
9.62778791
 20
11.3785736221
 11
9.62778791
 21
11.6083459038
  0
LINE
  5
491
100
AcDbEntity
  8
0
100
AcDbLine
 62
7
  6
CONTINUOUS
 10
9.9471653275
 20
22.6189601931
 11
9.9471653275
 21
21.7689601931
  0
LINE
  5
492
100
AcDbEntity
  8
DRAFT
100
AcDbLine
 62
7
  6
CONTINUOUS
 10
9.9471653275
 20
3.2771824598
 11
9.9471653275
 21
2.8675110062
  0
LINE
  5
493
100
AcDbEntity
  8
0
100
AcDbLine
 62
7
  6
CONTINUOUS
 10
9.9471653275
 20
2.8675110062
 11
9.9471653275
 21
2.186339675
  0
LINE
  5
494
100
AcDbEntity
  8
ASSI
100
AcDbLine
 62
7
  6
CONTINUOUS
 10
9.9471653275
 20
-18.0310398069
 11
9.9471653275
 21
-18.8810398069
  0
LINE
  5
495
100
AcDbEntity
  8
RACCORDO
100
AcDbLine
 62
253
  6
CONTINUOUS
 10
9.9804540445
 20
-13.2375279168
 11
9.9804566359
 21
-15.6508056312
  0
LINE
  5
496
100
AcDbEntity
  8
RACCORDO
100
AcDbLine
 62
253
  6
CONTINUOUS
 10
9.9804540445
 20
0.2624720832
 11
9.980454046
 21
-7.2245516977
  0
LINE
  5
497
100
AcDbEntity
  8
RACCORDO
100
AcDbLine
 62
253
  6
CONTINUOUS
 10
9.980454046
 20
6.2754483023
 11
9.9804566359
 21
10.8520991967
  0
LINE
  5
498
100
AcDbEntity
  8
RACCORDO
100
AcDbLine
 62
7
  6
CONTINUOUS
 10
10.0671653275
 20
19.5689684863
 11
10.0671653275
 21
16.3689601931
  0
LINE
  5
499
100
AcDbEntity
  8
DRAFT
100
AcDbLine
 62
7
  6
CONTINUOUS
 10
10.0671653275
 20
15.3689601931
 11
10.0671653275
 21
12.3987924546
  0
LINE
  5
49A
100
AcDbEntity
  8
RACCORDO
100
AcDbLine
 62
253
  6
CONTINUOUS
 10
10.1240451177
 20
10.9956876784
 11
10.1240451177
 21
11.4865427962
  0
LINE
  5
49B
100
AcDbEntity
  8
RACCORDO
100
AcDbLine
 62
7
  6
CONTINUOUS
 10
10.1259137597
 20
15.8834216574
 11
10.1259137597
 21
15.8544987288
  0
LINE
  5
49C
100
AcDbEntity
  8
RACCORDO
100
AcDbLine
 62
253
  6
CONTINUOUS
 10
10.1273211542
 20
19.4588324585
 11
10.1273211542
 21
12.1087973666
  0
LINE
  5
49D
100
AcDbEntity
  8
RACCORDO
100
AcDbLine
 62
253
  6
CONTINUOUS
 10
10.5462642153
 20
19.4588326504
 11
10.5462642122
 21
12.1087960732
  0
LINE
  5
49E
100
AcDbEntity
  8
RACCORDO
100
AcDbLine
 62
253
  6
CONTINUOUS
 10
10.6334345903
 20
-11.6647311996
 11
10.6334345903
 21
-11.5099971284
  0
LINE
  5
49F
100
AcDbEntity
  8
RACCORDO
100
AcDbLine
 62
253
  6
CONTINUOUS
 10
10.6334345903
 20
-8.9520824855
 11
10.6334345903
 21
-8.7973484754
  0
LINE
  5
4A0
100
AcDbEntity
  8
RACCORDO
100
AcDbLine
 62
253
  6
CONTINUOUS
 10
10.6334345903
 20
1.8352688324
 11
10.6334345903
 21
1.9900028716
  0
LINE
  5
4A1
100
AcDbEntity
  8
RACCORDO
100
AcDbLine
 62
253
  6
CONTINUOUS
 10
10.6334345903
 20
4.5479175145
 11
10.6334345903
 21
4.7026515903
  0
LINE
  5
4A2
100
AcDbEntity
  8
RACCORDO
100
AcDbLine
 62
7
  6
CONTINUOUS
 10
10.7913474977
 20
-22.2766722037
 11
10.7913474977
 21
-21.9753773742
  0
LINE
  5
4A3
100
AcDbEntity
  8
RACCORDO
100
AcDbLine
 62
7
  6
CONTINUOUS
 10
10.7913474977
 20
25.7132977604
 11
10.7913474977
 21
26.0145925899
  0
LINE
  5
4A4
100
AcDbEntity
  8
RACCORDO
100
AcDbLine
 62
7
  6
CONTINUOUS
 10
10.7971653275
 20
-20.5310398069
 11
10.7971653275
 21
-22.5310398069
  0
LINE
  5
4A5
100
AcDbEntity
  8
RACCORDO
100
AcDbLine
 62
7
  6
CONTINUOUS
 10
10.7971653275
 20
24.2689601931
 11
10.7971653275
 21
26.2689601931
  0
LINE
  5
4A6
100
AcDbEntity
  8
RACCORDO
100
AcDbLine
 62
253
  6
CONTINUOUS
 10
10.9333888988
 20
-11.6647311996
 11
10.9333888988
 21
-11.5188427745
  0
LINE
  5
4A7
100
AcDbEntity
  8
RACCORDO
100
AcDbLine
 62
253
  6
CONTINUOUS
 10
10.9333888988
 20
-8.9432368394
 11
10.9333888988
 21
-8.7973484754
  0
LINE
  5
4A8
100
AcDbEntity
  8
RACCORDO
100
AcDbLine
 62
253
  6
CONTINUOUS
 10
10.9333888988
 20
1.8352688324
 11
10.9333888988
 21
1.9811572255
  0
LINE
  5
4A9
100
AcDbEntity
  8
RACCORDO
100
AcDbLine
 62
253
  6
CONTINUOUS
 10
10.9333888988
 20
4.5567631606
 11
10.9333888988
 21
4.7026515903
  0
LINE
  5
4AA
100
AcDbEntity
  8
RACCORDO
100
AcDbLine
 62
253
  6
CONTINUOUS
 10
10.9803043311
 20
9.8522515015
 11
10.9803043311
 21
5.0223197086
  0
LINE
  5
4AB
100
AcDbEntity
  8
RACCORDO
100
AcDbLine
 62
253
  6
CONTINUOUS
 10
10.9803043311
 20
1.5156007279
 11
10.9803043311
 21
-8.4776799675
  0
LINE
  5
4AC
100
AcDbEntity
  8
RACCORDO
100
AcDbLine
 62
253
  6
CONTINUOUS
 10
10.9803043311
 20
-11.9843992484
 11
10.9803043311
 21
-15.6507800554
  0
LINE
  5
4AD
100
AcDbEntity
  8
RACCORDO
100
AcDbLine
 62
253
  6
CONTINUOUS
 10
10.9971653275
 20
24.2689601931
 11
10.9971653275
 21
24.2602333253
  0
LINE
  5
4AE
100
AcDbEntity
  8
RACCORDO
100
AcDbLine
 62
253
  6
CONTINUOUS
 10
10.9971653275
 20
-20.5223129391
 11
10.9971653275
 21
-20.5310398069
  0
LINE
  5
4AF
100
AcDbEntity
  8
RACCORDO
100
AcDbLine
 62
253
  6
CONTINUOUS
 10
11.1496184609
 20
19.4588326504
 11
11.1496184609
 21
10.0215656313
  0
LINE
  5
4B0
100
AcDbEntity
  8
RACCORDO
100
AcDbLine
 62
7
  6
CONTINUOUS
 10
9.7257722368
 20
-11.5679614546
 11
9.7313756971
 21
-8.9534468752
  0
LINE
  5
4B1
100
AcDbEntity
  8
DRAFT
100
AcDbLine
 62
7
  6
CONTINUOUS
 10
9.9241150358
 20
3.2446154011
 11
9.9210461844
 21
2.8675110062
  0
LINE
  5
4B2
100
AcDbEntity
  8
RACCORDO
100
AcDbLine
 62
7
  6
CONTINUOUS
 10
10.7920747264
 20
-21.7588710233
 11
10.7964380988
 21
-21.3258583214
  0
LINE
  5
4B3
100
AcDbEntity
  8
RACCORDO
100
AcDbLine
 62
253
  6
CONTINUOUS
 10
10.1411981365
 20
10.9955430971
 11
10.1497707657
 21
11.4953909392
  0
LINE
  5
4B4
100
AcDbEntity
  8
RACCORDO
100
AcDbLine
 62
253
  6
CONTINUOUS
 10
8.8072104698
 20
-10.7356736505
 11
8.7377854474
 21
-11.728497725
  0
LINE
  5
4B5
100
AcDbEntity
  8
DRAFT
100
AcDbLine
 62
7
  6
CONTINUOUS
 10
-7.2883644907
 20
-18.9810398069
 11
-7.2028346725
 21
-18.8955099888
  0
LINE
  5
4B6
100
AcDbEntity
  8
RACCORDO
100
AcDbLine
 62
7
  6
CONTINUOUS
 10
-10.4028346725
 20
-22.5310398069
 11
-10.3984628385
 21
-22.5266679729
  0
LINE
  5
4B7
100
AcDbEntity
  8
DRAFT
100
AcDbLine
 62
7
  6
CONTINUOUS
 10
-5.5528346725
 20
-17.8310398069
 11
-5.4638138414
 21
-17.7420189758
  0
LINE
  5
4B8
100
AcDbEntity
  8
DRAFT
100
AcDbLine
 62
7
  6
CONTINUOUS
 10
-5.4638138414
 20
-17.9420189758
 11
-5.5528346725
 21
-18.0310398069
  0
LINE
  5
4B9
100
AcDbEntity
  8
RACCORDO
100
AcDbLine
 62
7
  6
CONTINUOUS
 10
10.1034057938
 20
12.1259334413
 11
6.4493029716
 21
11.806240869
  0
LINE
  5
4BA
100
AcDbEntity
  8
SMUSSO
100
AcDbLine
 62
7
  6
CONTINUOUS
 10
10.1021840491
 20
12.348594088
 11
6.4299613833
 21
12.0273162348
  0
LINE
  5
4BB
100
AcDbEntity
  8
RACCORDO
100
AcDbLine
 62
7
  6
CONTINUOUS
 10
10.0671653275
 20
12.3987924546
 11
6.4276447586
 21
12.0803756641
  0
LINE
  5
4BC
100
AcDbEntity
  8
RACCORDO
100
AcDbLine
 62
253
  6
CONTINUOUS
 10
9.62778791
 20
11.3785736221
 11
0.936542745
 21
11.3785736221
  0
LINE
  5
4BD
100
AcDbEntity
  8
RACCORDO
100
AcDbLine
 62
253
  6
CONTINUOUS
 10
-9.7297144627
 20
11.495611526
 11
0.4224803602
 21
11.4956111599
  0
LINE
  5
4BE
100
AcDbEntity
  8
RACCORDO
100
AcDbLine
 62
253
  6
CONTINUOUS
 10
9.6277865561
 20
11.6083459038
 11
0.9365442921
 21
11.6083459038
  0
LINE
  5
4BF
100
AcDbEntity
  8
RACCORDO
100
AcDbLine
 62
7
  6
CONTINUOUS
 10
5.2971653275
 20
11.6102117608
 11
4.2971653275
 21
11.6102117608
  0
LINE
  5
4C0
100
AcDbEntity
  8
RACCORDO
100
AcDbLine
 62
7
  6
CONTINUOUS
 10
0.9608712379
 20
11.6326743967
 11
4.2971653275
 21
11.6326743967
  0
LINE
  5
4C1
100
AcDbEntity
  8
RACCORDO
100
AcDbLine
 62
7
  6
CONTINUOUS
 10
5.2971653275
 20
11.6326743967
 11
9.6034594171
 21
11.6326743967
  0
LINE
  5
4C2
100
AcDbEntity
  8
RACCORDO
100
AcDbLine
 62
253
  6
CONTINUOUS
 10
5.2971653275
 20
11.762636825
 11
4.2971653275
 21
11.762636825
  0
LINE
  5
4C3
100
AcDbEntity
  8
SMUSSO
100
AcDbLine
 62
7
  6
CONTINUOUS
 10
6.1685041109
 20
11.793980926
 11
3.461279537
 21
11.793980926
  0
LINE
  5
4C4
100
AcDbEntity
  8
SMUSSO
100
AcDbLine
 62
7
  6
CONTINUOUS
 10
6.1685041109
 20
12.0159007638
 11
3.461279537
 21
12.0159007638
  0
LINE
  5
4C5
100
AcDbEntity
  8
RACCORDO
100
AcDbLine
 62
7
  6
CONTINUOUS
 10
6.1661874862
 20
12.0689601931
 11
3.4642345147
 21
12.0689601931
  0
LINE
  5
4C6
100
AcDbEntity
  8
RACCORDO
100
AcDbLine
 62
253
  6
CONTINUOUS
 10
0.1366840242
 20
12.1084656207
 11
0.4366790483
 21
12.1084656207
  0
LINE
  5
4C7
100
AcDbEntity
  8
RACCORDO
100
AcDbLine
 62
253
  6
CONTINUOUS
 10
10.5462642122
 20
12.1087960732
 11
10.1273211542
 21
12.1087960732
  0
LINE
  5
4C8
100
AcDbEntity
  8
RACCORDO
100
AcDbLine
 62
7
  6
CONTINUOUS
 10
3.1035324918
 20
11.8139045206
 11
0.4614348757
 21
12.109106721
  0
LINE
  5
4C9
100
AcDbEntity
  8
SMUSSO
100
AcDbLine
 62
7
  6
CONTINUOUS
 10
3.1281743157
 20
12.0344520097
 11
0.4621466059
 21
12.3323279251
  0
LINE
  5
4CA
100
AcDbEntity
  8
RACCORDO
100
AcDbLine
 62
7
  6
CONTINUOUS
 10
0.4971653275
 20
12.3818048646
 11
3.1311292934
 21
12.087511439
  0
LINE
  5
4CB
100
AcDbEntity
  8
DRAFT
100
AcDbLine
 62
7
  6
CONTINUOUS
 10
-7.2883644907
 20
22.7189601931
 11
-7.2028346725
 21
22.6334303749
  0
LINE
  5
4CC
100
AcDbEntity
  8
RACCORDO
100
AcDbLine
 62
7
  6
CONTINUOUS
 10
-10.4028346725
 20
26.2689601931
 11
-10.3984628385
 21
26.2645883591
  0
LINE
  5
4CD
100
AcDbEntity
  8
DRAFT
100
AcDbLine
 62
7
  6
CONTINUOUS
 10
-5.5528346725
 20
21.5689601931
 11
-5.4638138414
 21
21.4799393619
  0
LINE
  5
4CE
100
AcDbEntity
  8
RACCORDO
100
AcDbLine
 62
7
  6
CONTINUOUS
 10
0.6913463672
 20
15.4547584205
 11
0.7221651466
 21
15.4239396411
  0
LINE
  5
4CF
100
AcDbEntity
  8
RACCORDO
100
AcDbLine
 62
253
  6
CONTINUOUS
 10
0.742368273
 20
15.423764863
 11
0.7971729429
 21
15.3689601931
  0
LINE
  5
4D0
100
AcDbEntity
  8
DRAFT
100
AcDbLine
 62
7
  6
CONTINUOUS
 10
-5.5528346725
 20
21.7689601931
 11
-5.4638138414
 21
21.6799393619
  0
LINE
  5
4D1
100
AcDbEntity
  8
RACCORDO
100
AcDbLine
 62
253
  6
CONTINUOUS
 10
0.9441058982
 20
15.622012007
 11
0.9971653275
 21
15.5689525777
  0
LINE
  5
4D2
100
AcDbEntity
  8
RACCORDO
100
AcDbLine
 62
7
  6
CONTINUOUS
 10
11.3471653275
 20
23.9102199978
 11
11.3471653275
 21
-20.1722996117
  0
LINE
  5
4D3
100
AcDbEntity
  8
0
100
AcDbLine
 62
253
  6
CONTINUOUS
 10
2.1449101597
 20
-17.6377916123
 11
2.6972700391
 21
-16.6810398069
  0
LINE
  5
4D4
100
AcDbEntity
  8
RACCORDO
100
AcDbLine
 62
253
  6
CONTINUOUS
 10
0.580409557
 20
-12.1958540477
 11
0.3504630304
 21
-12.3867492039
  0
LINE
  5
4D5
100
AcDbEntity
  8
RACCORDO
100
AcDbLine
 62
253
  6
CONTINUOUS
 10
5.3139210857
 20
-8.2662255522
 11
5.5438676168
 21
-8.0753303892
  0
LINE
  5
4D6
100
AcDbEntity
  8
RACCORDO
100
AcDbLine
 62
253
  6
CONTINUOUS
 10
0.8329582471
 20
-11.8289391549
 11
0.5945359698
 21
-12.0091366378
  0
LINE
  5
4D7
100
AcDbEntity
  8
RACCORDO
100
AcDbLine
 62
253
  6
CONTINUOUS
 10
5.0613724149
 20
-8.6331404849
 11
5.2997947019
 21
-8.4529429969
  0
LINE
  5
4D8
100
AcDbEntity
  8
RACCORDO
100
AcDbLine
 62
253
  6
CONTINUOUS
 10
-10.9528346725
 20
-15.8027388556
 11
-10.5859736761
 21
-15.6507800554
  0
LINE
  5
4D9
100
AcDbEntity
  8
RACCORDO
100
AcDbLine
 62
7
  6
CONTINUOUS
 10
6.8754621201
 20
13.5689601931
 11
6.3971653275
 21
13.5689601931
  0
LINE
  5
4DA
100
AcDbEntity
  8
RACCORDO
100
AcDbLine
 62
253
  6
CONTINUOUS
 10
-10.7552878059
 20
19.4588326504
 11
-10.9528346725
 21
19.5406592418
  0
LINE
  5
4DB
100
AcDbEntity
  8
DRAFT
100
AcDbLine
 62
7
  6
CONTINUOUS
 10
8.2496312498
 20
9.8108152313
 11
8.1970606159
 21
9.8458618263
  0
LINE
  5
4DC
100
AcDbEntity
  8
RACCORDO
100
AcDbLine
 62
253
  6
CONTINUOUS
 10
0.4971653275
 20
19.5689684863
 11
0.4366790483
 21
19.6294524761
  0
LINE
  5
4DD
100
AcDbEntity
  8
RACCORDO
100
AcDbLine
 62
253
  6
CONTINUOUS
 10
9.8446786604
 20
-7.4907871971
 11
9.9804566359
 21
-7.2245529201
  0
LINE
  5
4DE
100
AcDbEntity
  8
RACCORDO
100
AcDbLine
 62
7
  6
CONTINUOUS
 10
-4.2028346725
 20
-21.9310398069
 11
-4.158027229
 21
-21.8862323634
  0
LINE
  5
4DF
100
AcDbEntity
  8
DRAFT
100
AcDbLine
 62
7
  6
CONTINUOUS
 10
-2.3029393841
 20
-16.2079414402
 11
-2.2503687502
 21
-16.1728948452
  0
LINE
  5
4E0
100
AcDbEntity
  8
RACCORDO
100
AcDbLine
 62
253
  6
CONTINUOUS
 10
-10.367137453
 20
-17.2167370264
 11
-10.0002764566
 21
-17.0647782262
  0
LINE
  5
4E1
100
AcDbEntity
  8
RACCORDO
100
AcDbLine
 62
7
  6
CONTINUOUS
 10
9.3171860604
 20
15.4277895325
 11
8.851962382
 21
15.423764863
  0
LINE
  5
4E2
100
AcDbEntity
  8
RACCORDO
100
AcDbLine
 62
7
  6
CONTINUOUS
 10
0.7221651466
 20
16.3139807451
 11
0.742368273
 21
16.3141555232
  0
LINE
  5
4E3
100
AcDbEntity
  8
RACCORDO
100
AcDbLine
 62
7
  6
CONTINUOUS
 10
10.0671653275
 20
15.3689601931
 11
8.7971577121
 21
15.3689601931
  0
LINE
  5
4E4
100
AcDbEntity
  8
RACCORDO
100
AcDbLine
 62
7
  6
CONTINUOUS
 10
0.4971653275
 20
15.3689601931
 11
0.7971729429
 21
15.3689601931
  0
LINE
  5
4E5
100
AcDbEntity
  8
RACCORDO
100
AcDbLine
 62
253
  6
CONTINUOUS
 10
9.3171860604
 20
15.4545139595
 11
10.1236300044
 21
15.4545139595
  0
LINE
  5
4E6
100
AcDbEntity
  8
RACCORDO
100
AcDbLine
 62
253
  6
CONTINUOUS
 10
9.3171860604
 20
15.8544987288
 11
10.1259137597
 21
15.8544987288
  0
LINE
  5
4E7
100
AcDbEntity
  8
RACCORDO
100
AcDbLine
 62
253
  6
CONTINUOUS
 10
10.1259137597
 20
15.8834216574
 11
9.3171860604
 21
15.8834216574
  0
LINE
  5
4E8
100
AcDbEntity
  8
RACCORDO
100
AcDbLine
 62
253
  6
CONTINUOUS
 10
10.1236300044
 20
16.2834064266
 11
9.317189077
 21
16.2834064266
  0
LINE
  5
4E9
100
AcDbEntity
  8
RACCORDO
100
AcDbLine
 62
7
  6
CONTINUOUS
 10
10.0671653275
 20
16.3689601931
 11
8.7971577121
 21
16.3689601931
  0
LINE
  5
4EA
100
AcDbEntity
  8
RACCORDO
100
AcDbLine
 62
7
  6
CONTINUOUS
 10
0.4971653275
 20
16.3689601931
 11
0.7971729429
 21
16.3689601931
  0
LINE
  5
4EB
100
AcDbEntity
  8
RACCORDO
100
AcDbLine
 62
7
  6
CONTINUOUS
 10
0.742368273
 20
15.423764863
 11
0.7221651466
 21
15.4239396411
  0
LINE
  5
4EC
100
AcDbEntity
  8
RACCORDO
100
AcDbLine
 62
7
  6
CONTINUOUS
 10
8.851962382
 20
16.3141555232
 11
9.3171860604
 21
16.3101308536
  0
LINE
  5
4ED
100
AcDbEntity
  8
RACCORDO
100
AcDbLine
 62
253
  6
CONTINUOUS
 10
-10.1695905864
 20
20.8728308212
 11
-10.367137453
 21
20.9546574126
  0
LINE
  5
4EE
100
AcDbEntity
  8
RACCORDO
100
AcDbLine
 62
253
  6
CONTINUOUS
 10
0.9971570343
 20
20.0689601931
 11
0.9366732708
 21
20.1294464723
  0
LINE
  5
4EF
100
AcDbEntity
  8
RACCORDO
100
AcDbLine
 62
253
  6
CONTINUOUS
 10
9.6034594171
 20
11.6326743967
 11
9.6277865561
 21
11.6083459038
  0
LINE
  5
4F0
100
AcDbEntity
  8
RACCORDO
100
AcDbLine
 62
7
  6
CONTINUOUS
 10
-4.2028346725
 20
25.6689601931
 11
-4.158027229
 21
25.6241527496
  0
LINE
  5
4F1
100
AcDbEntity
  8
RACCORDO
100
AcDbLine
 62
253
  6
CONTINUOUS
 10
10.1034126137
 20
12.1327046137
 11
10.1273211542
 21
12.1087973666
  0
LINE
  5
4F2
100
AcDbEntity
  8
RACCORDO
100
AcDbLine
 62
253
  6
CONTINUOUS
 10
10.1497707657
 20
11.502344686
 11
9.9539832742
 21
11.7296359534
  0
LINE
  5
4F3
100
AcDbEntity
  8
RACCORDO
100
AcDbLine
 62
253
  6
CONTINUOUS
 10
10.1417264794
 20
11.4955073277
 11
9.9489555804
 21
11.7253626194
  0
LINE
  5
4F4
100
AcDbEntity
  8
SMUSSO
100
AcDbLine
 62
7
  6
CONTINUOUS
 10
10.0671653275
 20
12.3987924546
 11
10.1021840491
 21
12.348594088
  0
LINE
  5
4F5
100
AcDbEntity
  8
RACCORDO
100
AcDbLine
 62
253
  6
CONTINUOUS
 10
6.080409557
 20
-12.1958540477
 11
5.8504630304
 21
-12.3867492039
  0
LINE
  5
4F6
100
AcDbEntity
  8
RACCORDO
100
AcDbLine
 62
253
  6
CONTINUOUS
 10
6.3329582471
 20
-11.8289391549
 11
6.0945359698
 21
-12.0091366378
  0
LINE
  5
4F7
100
AcDbEntity
  8
RACCORDO
100
AcDbLine
 62
253
  6
CONTINUOUS
 10
10.5951997648
 20
-8.6789116647
 11
10.8374368361
 21
-8.503875853
  0
LINE
  5
4F8
100
AcDbEntity
  8
RACCORDO
100
AcDbLine
 62
7
  6
CONTINUOUS
 10
2.4547363613
 20
17.8992825324
 11
7.066388232
 21
17.8992706404
  0
LINE
  5
4F9
100
AcDbEntity
  8
RACCORDO
100
AcDbLine
 62
7
  6
CONTINUOUS
 10
7.066388232
 20
17.8992706404
 11
7.1057172154
 21
17.8990522985
  0
LINE
  5
4FA
100
AcDbEntity
  8
RACCORDO
100
AcDbLine
 62
253
  6
CONTINUOUS
 10
5.0441135136
 20
19.7220196223
 11
5.0971729429
 21
19.6689601931
  0
LINE
  5
4FB
100
AcDbEntity
  8
RACCORDO
100
AcDbLine
 62
253
  6
CONTINUOUS
 10
8.5971653275
 20
16.1689678085
 11
8.6502247568
 21
16.1159083792
  0
LINE
  5
4FC
100
AcDbEntity
  8
RACCORDO
100
AcDbLine
 62
253
  6
CONTINUOUS
 10
5.2423606576
 20
19.9237572476
 11
5.2971653275
 21
19.8689525777
  0
LINE
  5
4FD
100
AcDbEntity
  8
RACCORDO
100
AcDbLine
 62
253
  6
CONTINUOUS
 10
8.7971577121
 20
16.3689601931
 11
8.851962382
 21
16.3141555232
  0
LINE
  5
4FE
100
AcDbEntity
  8
RACCORDO
100
AcDbLine
 62
7
  6
CONTINUOUS
 10
10.0671653275
 20
16.3689601931
 11
10.1236300044
 21
16.2834064266
  0
LINE
  5
4FF
100
AcDbEntity
  8
RACCORDO
100
AcDbLine
 62
7
  6
CONTINUOUS
 10
3.5971653275
 20
-18.0310398069
 11
3.5963316307
 21
-18.0318735037
  0
LINE
  5
500
100
AcDbEntity
  8
RACCORDO
100
AcDbLine
 62
253
  6
CONTINUOUS
 10
2.8876731645
 20
18.3108762812
 11
6.7066574904
 21
18.3108762812
  0
LINE
  5
501
100
AcDbEntity
  8
RACCORDO
100
AcDbLine
 62
253
  6
CONTINUOUS
 10
-10.7552878059
 20
19.4588326504
 11
-9.7554401108
 21
19.4588326504
  0
LINE
  5
502
100
AcDbEntity
  8
RACCORDO
100
AcDbLine
 62
253
  6
CONTINUOUS
 10
11.1496184609
 20
19.4588326504
 11
10.1273211542
 21
19.4588324585
  0
LINE
  5
503
100
AcDbEntity
  8
RACCORDO
100
AcDbLine
 62
253
  6
CONTINUOUS
 10
0.1366840242
 20
19.6294547655
 11
0.4366790483
 21
19.6294547655
  0
LINE
  5
504
100
AcDbEntity
  8
RACCORDO
100
AcDbLine
 62
7
  6
CONTINUOUS
 10
4.4971577121
 20
19.6689601931
 11
5.0971729429
 21
19.6689601931
  0
LINE
  5
505
100
AcDbEntity
  8
RACCORDO
100
AcDbLine
 62
7
  6
CONTINUOUS
 10
4.5502171414
 20
19.7220196223
 11
5.0441135136
 21
19.7220196223
  0
LINE
  5
506
100
AcDbEntity
  8
SMUSSO
100
AcDbLine
 62
7
  6
CONTINUOUS
 10
4.352144593
 20
19.9439601915
 11
5.242186062
 21
19.9439601915
  0
LINE
  5
507
100
AcDbEntity
  8
RACCORDO
100
AcDbLine
 62
253
  6
CONTINUOUS
 10
4.3834679626
 20
19.9752835612
 11
5.2108626923
 21
19.9752835612
  0
LINE
  5
508
100
AcDbEntity
  8
RACCORDO
100
AcDbLine
 62
7
  6
CONTINUOUS
 10
5.208151276
 20
20.1277086253
 11
5.2971653275
 21
20.0689601931
  0
LINE
  5
509
100
AcDbEntity
  8
RACCORDO
100
AcDbLine
 62
7
  6
CONTINUOUS
 10
5.2108626923
 20
19.9752835612
 11
5.2421858795
 21
19.943960374
  0
LINE
  5
50A
100
AcDbEntity
  8
RACCORDO
100
AcDbLine
 62
7
  6
CONTINUOUS
 10
3.5971653275
 20
21.7689601931
 11
3.5963316307
 21
21.7697938898
  0
LINE
  5
50B
100
AcDbEntity
  8
DRAFT
100
AcDbLine
 62
7
  6
CONTINUOUS
 10
7.5971653275
 20
-17.8310398069
 11
7.6861861586
 21
-17.7420189758
  0
LINE
  5
50C
100
AcDbEntity
  8
RACCORDO
100
AcDbLine
 62
253
  6
CONTINUOUS
 10
9.4955262335
 20
-16.5498609335
 11
9.6876080262
 21
-16.3577791408
  0
LINE
  5
50D
100
AcDbEntity
  8
DRAFT
100
AcDbLine
 62
7
  6
CONTINUOUS
 10
8.1970606159
 20
-16.2079414402
 11
8.2496312498
 21
-16.1728948452
  0
LINE
  5
50E
100
AcDbEntity
  8
RACCORDO
100
AcDbLine
 62
7
  6
CONTINUOUS
 10
0.9971570343
 20
20.0689601931
 11
4.2971653275
 21
20.0689601931
  0
LINE
  5
50F
100
AcDbEntity
  8
RACCORDO
100
AcDbLine
 62
7
  6
CONTINUOUS
 10
5.2971653275
 20
20.0689601931
 11
9.5671736207
 21
20.0689601931
  0
LINE
  5
510
100
AcDbEntity
  8
RACCORDO
100
AcDbLine
 62
7
  6
CONTINUOUS
 10
4.3861793789
 20
20.1277086253
 11
5.208151276
 21
20.1277086253
  0
LINE
  5
511
100
AcDbEntity
  8
RACCORDO
100
AcDbLine
 62
253
  6
CONTINUOUS
 10
0.9366732708
 20
20.1294464723
 11
9.5933123955
 21
20.1294464723
  0
LINE
  5
512
100
AcDbEntity
  8
RACCORDO
100
AcDbLine
 62
253
  6
CONTINUOUS
 10
0.9366707551
 20
20.4294414964
 11
9.5933123973
 21
20.4294414964
  0
LINE
  5
513
100
AcDbEntity
  8
RACCORDO
100
AcDbLine
 62
253
  6
CONTINUOUS
 10
-9.1713277874
 20
20.4570954495
 11
9.5656584424
 21
20.4570954495
  0
LINE
  5
514
100
AcDbEntity
  8
RACCORDO
100
AcDbLine
 62
253
  6
CONTINUOUS
 10
-9.1713277874
 20
21.4569431446
 11
9.5656584424
 21
21.4569431446
  0
LINE
  5
515
100
AcDbEntity
  8
RACCORDO
100
AcDbLine
 62
7
  6
CONTINUOUS
 10
9.5751837874
 20
21.4799393619
 11
7.6861861586
 21
21.4799393619
  0
LINE
  5
516
100
AcDbEntity
  8
DRAFT
100
AcDbLine
 62
7
  6
CONTINUOUS
 10
-5.4638138414
 20
21.4799393619
 11
5.8581444963
 21
21.4799393619
  0
LINE
  5
517
100
AcDbEntity
  8
RACCORDO
100
AcDbLine
 62
7
  6
CONTINUOUS
 10
-7.2918555037
 20
21.4799393619
 11
-9.1808531325
 21
21.4799393619
  0
LINE
  5
518
100
AcDbEntity
  8
DRAFT
100
AcDbLine
 62
7
  6
CONTINUOUS
 10
7.5971653275
 20
21.5689601931
 11
7.1543922518
 21
21.5689601931
  0
LINE
  5
519
100
AcDbEntity
  8
DRAFT
100
AcDbLine
 62
7
  6
CONTINUOUS
 10
6.5471653275
 20
21.5689601931
 11
5.9471653275
 21
21.5689601931
  0
LINE
  5
51A
100
AcDbEntity
  8
DRAFT
100
AcDbLine
 62
7
  6
CONTINUOUS
 10
-5.5528346725
 20
21.5689601931
 11
-6.1528346725
 21
21.5689601931
  0
LINE
  5
51B
100
AcDbEntity
  8
RACCORDO
100
AcDbLine
 62
7
  6
CONTINUOUS
 10
-6.1528346725
 20
21.5689601931
 11
-6.7600615968
 21
21.5689601931
  0
LINE
  5
51C
100
AcDbEntity
  8
RACCORDO
100
AcDbLine
 62
7
  6
CONTINUOUS
 10
6.5471653275
 20
21.5689601931
 11
7.1543922518
 21
21.5689601931
  0
LINE
  5
51D
100
AcDbEntity
  8
DRAFT
100
AcDbLine
 62
7
  6
CONTINUOUS
 10
-6.7600615968
 20
21.5689601931
 11
-7.2028346725
 21
21.5689601931
  0
LINE
  5
51E
100
AcDbEntity
  8
DRAFT
100
AcDbLine
 62
7
  6
CONTINUOUS
 10
-5.4638138414
 20
21.6799393619
 11
5.8581444963
 21
21.6799393619
  0
LINE
  5
51F
100
AcDbEntity
  8
RACCORDO
100
AcDbLine
 62
7
  6
CONTINUOUS
 10
-2.2043589074
 20
21.7534468727
 11
2.5986895623
 21
21.7534468727
  0
LINE
  5
520
100
AcDbEntity
  8
RACCORDO
100
AcDbLine
 62
7
  6
CONTINUOUS
 10
-5.5528346725
 20
21.7689601931
 11
-3.2028346725
 21
21.7689601931
  0
LINE
  5
521
100
AcDbEntity
  8
RACCORDO
100
AcDbLine
 62
7
  6
CONTINUOUS
 10
3.5971653275
 20
21.7689601931
 11
5.9471653275
 21
21.7689601931
  0
LINE
  5
522
100
AcDbEntity
  8
DRAFT
100
AcDbLine
 62
7
  6
CONTINUOUS
 10
7.5971653275
 20
21.5689601931
 11
7.6861861586
 21
21.4799393619
  0
LINE
  5
523
100
AcDbEntity
  8
RACCORDO
100
AcDbLine
 62
253
  6
CONTINUOUS
 10
9.5656584424
 20
20.4570954495
 11
9.5933123973
 21
20.4294414964
  0
LINE
  5
524
100
AcDbEntity
  8
DRAFT
100
AcDbLine
 62
7
  6
CONTINUOUS
 10
7.5971653275
 20
-18.8955099888
 11
7.6861861586
 21
-18.8064891576
  0
LINE
  5
525
100
AcDbEntity
  8
RACCORDO
100
AcDbLine
 62
253
  6
CONTINUOUS
 10
10.2025253189
 20
-17.2568600189
 11
10.3946071116
 21
-17.0647782262
  0
LINE
  5
526
100
AcDbEntity
  8
RACCORDO
100
AcDbLine
 62
7
  6
CONTINUOUS
 10
10.2821828728
 20
-17.449170366
 11
8.9248640812
 21
-18.8064891576
  0
LINE
  5
527
100
AcDbEntity
  8
RACCORDO
100
AcDbLine
 62
253
  6
CONTINUOUS
 10
8.4471653275
 20
-19.4067300468
 11
8.2777598078
 21
-19.5761355664
  0
LINE
  5
528
100
AcDbEntity
  8
RACCORDO
100
AcDbLine
 62
253
  6
CONTINUOUS
 10
7.3316167035
 20
-20.5223129391
 11
7.4102346689
 21
-20.4436949737
  0
LINE
  5
529
100
AcDbEntity
  8
RACCORDO
100
AcDbLine
 62
7
  6
CONTINUOUS
 10
7.5437715844
 20
-20.43443355
 11
8.3592516634
 21
-19.618953471
  0
LINE
  5
52A
100
AcDbEntity
  8
RACCORDO
100
AcDbLine
 62
7
  6
CONTINUOUS
 10
8.9971653275
 20
-18.9810398069
 11
10.761468108
 21
-17.2167370264
  0
LINE
  5
52B
100
AcDbEntity
  8
RACCORDO
100
AcDbLine
 62
7
  6
CONTINUOUS
 10
6.2471653275
 20
21.8689601931
 11
3.6971653275
 21
21.8689601931
  0
LINE
  5
52C
100
AcDbEntity
  8
RACCORDO
100
AcDbLine
 62
7
  6
CONTINUOUS
 10
-3.3028346725
 20
21.8689601931
 11
-5.8528346725
 21
21.8689601931
  0
LINE
  5
52D
100
AcDbEntity
  8
RACCORDO
100
AcDbLine
 62
253
  6
CONTINUOUS
 10
-5.8528346725
 20
21.8689601931
 11
-7.1028346725
 21
21.8689601931
  0
LINE
  5
52E
100
AcDbEntity
  8
RACCORDO
100
AcDbLine
 62
253
  6
CONTINUOUS
 10
6.2471653275
 20
21.8689601931
 11
7.4971653275
 21
21.8689601931
  0
LINE
  5
52F
100
AcDbEntity
  8
DRAFT
100
AcDbLine
 62
7
  6
CONTINUOUS
 10
-3.3028346725
 20
21.9221940866
 11
-2.2441457957
 21
21.9221940866
  0
LINE
  5
530
100
AcDbEntity
  8
DRAFT
100
AcDbLine
 62
7
  6
CONTINUOUS
 10
2.6384764506
 20
21.9221940866
 11
3.6971653275
 21
21.9221940866
  0
LINE
  5
531
100
AcDbEntity
  8
RACCORDO
100
AcDbLine
 62
7
  6
CONTINUOUS
 10
-6.1528346725
 20
21.956228871
 11
6.5471653275
 21
21.956228871
  0
LINE
  5
532
100
AcDbEntity
  8
DRAFT
100
AcDbLine
 62
7
  6
CONTINUOUS
 10
8.9248640812
 20
22.5444095438
 11
7.6861861586
 21
22.5444095438
  0
LINE
  5
533
100
AcDbEntity
  8
DRAFT
100
AcDbLine
 62
7
  6
CONTINUOUS
 10
-7.2918555037
 20
22.5444095438
 11
-8.5305334263
 21
22.5444095438
  0
LINE
  5
534
100
AcDbEntity
  8
0
100
AcDbLine
 62
7
  6
CONTINUOUS
 10
9.0971653275
 20
22.6189601931
 11
9.9471653275
 21
22.6189601931
  0
LINE
  5
535
100
AcDbEntity
  8
0
100
AcDbLine
 62
7
  6
CONTINUOUS
 10
-8.7028346725
 20
22.6189601931
 11
-9.5528346725
 21
22.6189601931
  0
LINE
  5
536
100
AcDbEntity
  8
DRAFT
100
AcDbLine
 62
7
  6
CONTINUOUS
 10
8.9971653275
 20
22.7189601931
 11
7.6826951456
 21
22.7189601931
  0
LINE
  5
537
100
AcDbEntity
  8
DRAFT
100
AcDbLine
 62
7
  6
CONTINUOUS
 10
-7.2883644907
 20
22.7189601931
 11
-8.6028346725
 21
22.7189601931
  0
LINE
  5
538
100
AcDbEntity
  8
RACCORDO
100
AcDbLine
 62
7
  6
CONTINUOUS
 10
8.1471196291
 20
22.7689601931
 11
7.9778054993
 21
22.7689601931
  0
LINE
  5
539
100
AcDbEntity
  8
RACCORDO
100
AcDbLine
 62
7
  6
CONTINUOUS
 10
-7.7527889741
 20
22.7689601931
 11
-7.5834748443
 21
22.7689601931
  0
LINE
  5
53A
100
AcDbEntity
  8
RACCORDO
100
AcDbLine
 62
7
  6
CONTINUOUS
 10
-7.5782383248
 20
22.7689601931
 11
-6.7181726314
 21
22.7689601931
  0
LINE
  5
53B
100
AcDbEntity
  8
RACCORDO
100
AcDbLine
 62
7
  6
CONTINUOUS
 10
7.1125032864
 20
22.7689601931
 11
7.9725689798
 21
22.7689601931
  0
LINE
  5
53C
100
AcDbEntity
  8
0
100
AcDbLine
 62
7
  6
CONTINUOUS
 10
-2.8028346725
 20
22.8689601931
 11
3.1971653275
 21
22.8689601931
  0
LINE
  5
53D
100
AcDbEntity
  8
RACCORDO
100
AcDbLine
 62
253
  6
CONTINUOUS
 10
-8.0528346725
 20
23.0689601931
 11
-7.8834291528
 21
23.0689601931
  0
LINE
  5
53E
100
AcDbEntity
  8
RACCORDO
100
AcDbLine
 62
253
  6
CONTINUOUS
 10
8.4471653275
 20
23.0689601931
 11
8.2777598078
 21
23.0689601931
  0
LINE
  5
53F
100
AcDbEntity
  8
RACCORDO
100
AcDbLine
 62
253
  6
CONTINUOUS
 10
7.9778054993
 20
23.1816534368
 11
3.1971653275
 21
23.1816534368
  0
LINE
  5
540
100
AcDbEntity
  8
RACCORDO
100
AcDbLine
 62
253
  6
CONTINUOUS
 10
-2.8028346725
 20
23.1816534368
 11
-7.5834748443
 21
23.1816534368
  0
LINE
  5
541
100
AcDbEntity
  8
0
100
AcDbLine
 62
7
  6
CONTINUOUS
 10
-2.8028346725
 20
23.5689601931
 11
3.1971653275
 21
23.5689601931
  0
LINE
  5
542
100
AcDbEntity
  8
DRAFT
100
AcDbLine
 62
7
  6
CONTINUOUS
 10
7.5971653275
 20
22.6334303749
 11
7.6861861586
 21
22.5444095438
  0
LINE
  5
543
100
AcDbEntity
  8
RACCORDO
100
AcDbLine
 62
253
  6
CONTINUOUS
 10
10.2726575278
 20
21.1640945349
 11
10.5639212414
 21
20.8728308212
  0
LINE
  5
544
100
AcDbEntity
  8
RACCORDO
100
AcDbLine
 62
7
  6
CONTINUOUS
 10
8.9248640812
 20
22.5444095438
 11
10.2821828728
 21
21.1870907522
  0
LINE
  5
545
100
AcDbEntity
  8
RACCORDO
100
AcDbLine
 62
253
  6
CONTINUOUS
 10
8.4471653275
 20
23.1446504329
 11
8.2777598078
 21
23.3140559526
  0
LINE
  5
546
100
AcDbEntity
  8
RACCORDO
100
AcDbLine
 62
253
  6
CONTINUOUS
 10
7.3316167035
 20
24.2602333253
 11
7.4102346689
 21
24.1816153598
  0
LINE
  5
547
100
AcDbEntity
  8
RACCORDO
100
AcDbLine
 62
7
  6
CONTINUOUS
 10
10.761468108
 20
20.9546574126
 11
8.9971653275
 21
22.7189601931
  0
LINE
  5
548
100
AcDbEntity
  8
RACCORDO
100
AcDbLine
 62
7
  6
CONTINUOUS
 10
8.3592516634
 20
23.3568738571
 11
7.5437715844
 21
24.1723539361
  0
LINE
  5
549
100
AcDbEntity
  8
RACCORDO
100
AcDbLine
 62
7
  6
CONTINUOUS
 10
8.4971653275
 20
-22.5310398069
 11
8.5015371615
 21
-22.5266679729
  0
LINE
  5
54A
100
AcDbEntity
  8
RACCORDO
100
AcDbLine
 62
253
  6
CONTINUOUS
 10
7.4102346689
 20
24.1816153598
 11
3.1971653275
 21
24.1816153598
  0
LINE
  5
54B
100
AcDbEntity
  8
RACCORDO
100
AcDbLine
 62
253
  6
CONTINUOUS
 10
-2.8028346725
 20
24.1816153598
 11
-7.015904014
 21
24.1816153598
  0
LINE
  5
54C
100
AcDbEntity
  8
RACCORDO
100
AcDbLine
 62
7
  6
CONTINUOUS
 10
-3.8580323059
 20
24.1991452507
 11
-3.6028346725
 21
24.1991452507
  0
LINE
  5
54D
100
AcDbEntity
  8
RACCORDO
100
AcDbLine
 62
7
  6
CONTINUOUS
 10
3.9971653275
 20
24.1991452507
 11
4.2523629609
 21
24.1991452507
  0
LINE
  5
54E
100
AcDbEntity
  8
DRAFT
100
AcDbLine
 62
7
  6
CONTINUOUS
 10
-3.3028346725
 20
24.2069994318
 11
-2.8028346725
 21
24.2069994318
  0
LINE
  5
54F
100
AcDbEntity
  8
DRAFT
100
AcDbLine
 62
7
  6
CONTINUOUS
 10
3.1971653275
 20
24.2069994318
 11
3.6971653275
 21
24.2069994318
  0
LINE
  5
550
100
AcDbEntity
  8
RACCORDO
100
AcDbLine
 62
7
  6
CONTINUOUS
 10
-10.6028346725
 20
24.2602333253
 11
-6.9372860485
 21
24.2602333253
  0
LINE
  5
551
100
AcDbEntity
  8
RACCORDO
100
AcDbLine
 62
7
  6
CONTINUOUS
 10
7.3316167035
 20
24.2602333253
 11
10.9971653275
 21
24.2602333253
  0
LINE
  5
552
100
AcDbEntity
  8
RACCORDO
100
AcDbLine
 62
7
  6
CONTINUOUS
 10
-10.6028346725
 20
24.2689601931
 11
-10.4028346725
 21
24.2689601931
  0
LINE
  5
553
100
AcDbEntity
  8
DRAFT
100
AcDbLine
 62
7
  6
CONTINUOUS
 10
-10.4028346725
 20
24.2689601931
 11
-4.2028346725
 21
24.2689601931
  0
LINE
  5
554
100
AcDbEntity
  8
DRAFT
100
AcDbLine
 62
7
  6
CONTINUOUS
 10
4.5971653275
 20
24.2689601931
 11
10.7971653275
 21
24.2689601931
  0
LINE
  5
555
100
AcDbEntity
  8
RACCORDO
100
AcDbLine
 62
7
  6
CONTINUOUS
 10
10.7971653275
 20
24.2689601931
 11
10.9971653275
 21
24.2689601931
  0
LINE
  5
556
100
AcDbEntity
  8
RACCORDO
100
AcDbLine
 62
253
  6
CONTINUOUS
 10
10.7971653275
 20
24.8472723566
 11
8.4971653275
 21
24.8472723566
  0
LINE
  5
557
100
AcDbEntity
  8
RACCORDO
100
AcDbLine
 62
253
  6
CONTINUOUS
 10
-8.1028346725
 20
24.8472723566
 11
-10.4028346725
 21
24.8472723566
  0
LINE
  5
558
100
AcDbEntity
  8
RACCORDO
100
AcDbLine
 62
253
  6
CONTINUOUS
 10
10.7964380988
 20
25.0637787075
 11
8.4978925562
 21
25.0637787075
  0
LINE
  5
559
100
AcDbEntity
  8
RACCORDO
100
AcDbLine
 62
253
  6
CONTINUOUS
 10
-8.1035619012
 20
25.0637787075
 11
-10.4021074438
 21
25.0637787075
  0
LINE
  5
55A
100
AcDbEntity
  8
RACCORDO
100
AcDbLine
 62
7
  6
CONTINUOUS
 10
8.4971653275
 20
26.2689601931
 11
8.5015371615
 21
26.2645883591
  0
LINE
  5
55B
100
AcDbEntity
  8
RACCORDO
100
AcDbLine
 62
253
  6
CONTINUOUS
 10
-10.3977440714
 20
25.4967914094
 11
-8.1079252736
 21
25.4967914094
  0
LINE
  5
55C
100
AcDbEntity
  8
RACCORDO
100
AcDbLine
 62
253
  6
CONTINUOUS
 10
8.5022559286
 20
25.4967914094
 11
10.7920747264
 21
25.4967914094
  0
LINE
  5
55D
100
AcDbEntity
  8
RACCORDO
100
AcDbLine
 62
7
  6
CONTINUOUS
 10
4.2523629609
 20
25.6224175546
 11
3.9971653275
 21
25.6224175546
  0
LINE
  5
55E
100
AcDbEntity
  8
RACCORDO
100
AcDbLine
 62
7
  6
CONTINUOUS
 10
-3.6028346725
 20
25.6224175546
 11
-3.8580323059
 21
25.6224175546
  0
LINE
  5
55F
100
AcDbEntity
  8
DRAFT
100
AcDbLine
 62
7
  6
CONTINUOUS
 10
-3.3028346725
 20
25.6631423633
 11
3.6971653275
 21
25.6631423633
  0
LINE
  5
560
100
AcDbEntity
  8
DRAFT
100
AcDbLine
 62
7
  6
CONTINUOUS
 10
4.5971653275
 20
25.6689601931
 11
-4.2028346725
 21
25.6689601931
  0
LINE
  5
561
100
AcDbEntity
  8
RACCORDO
100
AcDbLine
 62
253
  6
CONTINUOUS
 10
-10.3970168427
 20
25.7132977604
 11
-8.1086525023
 21
25.7132977604
  0
LINE
  5
562
100
AcDbEntity
  8
RACCORDO
100
AcDbLine
 62
253
  6
CONTINUOUS
 10
8.5029831573
 20
25.7132977604
 11
10.7913474977
 21
25.7132977604
  0
LINE
  5
563
100
AcDbEntity
  8
RACCORDO
100
AcDbLine
 62
253
  6
CONTINUOUS
 10
10.7913474977
 20
26.0145925899
 11
8.5029831573
 21
26.0145925899
  0
LINE
  5
564
100
AcDbEntity
  8
RACCORDO
100
AcDbLine
 62
253
  6
CONTINUOUS
 10
-8.1086525023
 20
26.0145925899
 11
-10.3970168427
 21
26.0145925899
  0
LINE
  5
565
100
AcDbEntity
  8
RACCORDO
100
AcDbLine
 62
253
  6
CONTINUOUS
 10
10.7927934935
 20
26.2645883591
 11
8.5015371615
 21
26.2645883591
  0
LINE
  5
566
100
AcDbEntity
  8
RACCORDO
100
AcDbLine
 62
253
  6
CONTINUOUS
 10
-8.1072065065
 20
26.2645883591
 11
-10.3984628385
 21
26.2645883591
  0
LINE
  5
567
100
AcDbEntity
  8
DRAFT
100
AcDbLine
 62
7
  6
CONTINUOUS
 10
10.7971653275
 20
26.2689601931
 11
8.4971653275
 21
26.2689601931
  0
LINE
  5
568
100
AcDbEntity
  8
DRAFT
100
AcDbLine
 62
7
  6
CONTINUOUS
 10
-8.1028346725
 20
26.2689601931
 11
-10.4028346725
 21
26.2689601931
  0
ARC
  5
569
100
AcDbEntity
  8
RACCORDO
100
AcDbCircle
 62
253
  6
CONTINUOUS
 10
-86.6420237881
 20
-19.062153669
 40
92.2119399412
100
AcDbArc
 50
4.270319544
 51
4.386663328
  0
ARC
  5
56A
100
AcDbEntity
  8
RACCORDO
100
AcDbCircle
 62
253
  6
CONTINUOUS
 10
-87.695281927
 20
-5.6409622821
 40
93.2681423265
100
AcDbArc
 50
4.2704190373
 51
4.3854465731
  0
ARC
  5
56B
100
AcDbEntity
  8
RACCORDO
100
AcDbCircle
 62
253
  6
CONTINUOUS
 10
-93.1606459673
 20
-5.6383706934
 40
93.2334095465
100
AcDbArc
 50
4.2704158014
 51
4.3854861477
  0
ARC
  5
56C
100
AcDbEntity
  8
RACCORDO
100
AcDbCircle
 62
7
  6
CONTINUOUS
 10
-15.6758986442
 20
-30.0488265632
 40
21.7217183227
100
AcDbArc
 50
75.5499392532
 51
76.320880105
  0
ARC
  5
56D
100
AcDbEntity
  8
RACCORDO
100
AcDbCircle
 62
7
  6
CONTINUOUS
 10
-10.6028270515
 20
-20.1810337143
 40
0.350006664
100
AcDbArc
 50
179.99881568
 51
269.9987524488
  0
ARC
  5
56E
100
AcDbEntity
  8
RACCORDO
100
AcDbCircle
 62
7
  6
CONTINUOUS
 10
-7.5700409468
 20
-19.5705668635
 40
0.3134405926
100
AcDbArc
 50
181.0180013055
 51
224.9572914863
  0
ARC
  5
56F
100
AcDbEntity
  8
RACCORDO
100
AcDbCircle
 62
7
  6
CONTINUOUS
 10
-7.0107466551
 20
-20.1313887446
 40
0.3123543042
100
AcDbArc
 50
224.9965910816
 51
269.0539156391
  0
ARC
  5
570
100
AcDbEntity
  8
RACCORDO
100
AcDbCircle
 62
7
  6
CONTINUOUS
 10
-6.1528346725
 20
-18.1310398069
 40
0.3
100
AcDbArc
 50
0.0
 51
90.0
  0
ARC
  5
571
100
AcDbEntity
  8
RACCORDO
100
AcDbCircle
 62
253
  6
CONTINUOUS
 10
-6.7181660614
 20
-18.1310335822
 40
0.2999942886
100
AcDbArc
 50
90.0012548148
 51
180.001188862
  0
ARC
  5
572
100
AcDbEntity
  8
RACCORDO
100
AcDbCircle
 62
7
  6
CONTINUOUS
 10
-7.5782219299
 20
-19.3307264524
 40
0.2996869941
100
AcDbArc
 50
91.004331998
 51
93.7842073811
  0
ARC
  5
573
100
AcDbEntity
  8
RACCORDO
100
AcDbCircle
 62
253
  6
CONTINUOUS
 10
-34.2721871515
 20
-12.1172155514
 40
23.9642009119
100
AcDbArc
 50
7.9630493618
 51
8.7355339586
  0
ARC
  5
574
100
AcDbEntity
  8
RACCORDO
100
AcDbCircle
 62
253
  6
CONTINUOUS
 10
-33.0460075807
 20
-8.5248222773
 40
22.7249157624
100
AcDbArc
 50
351.243403349
 51
352.058015577
  0
ARC
  5
575
100
AcDbEntity
  8
RACCORDO
100
AcDbCircle
 62
253
  6
CONTINUOUS
 10
-27.4340107355
 20
-9.3019734611
 40
17.0096366592
100
AcDbArc
 50
2.6893162561
 51
3.6159041634
  0
ARC
  5
576
100
AcDbEntity
  8
RACCORDO
100
AcDbCircle
 62
253
  6
CONTINUOUS
 10
-27.3861807691
 20
-11.1627632318
 40
16.9617346679
100
AcDbArc
 50
356.3828628262
 51
357.3120686713
  0
ARC
  5
577
100
AcDbEntity
  8
RACCORDO
100
AcDbCircle
 62
7
  6
CONTINUOUS
 10
-15.6758986441
 20
-16.5488265629
 40
21.7217183223
100
AcDbArc
 50
75.5499392532
 51
76.320880105
  0
ARC
  5
578
100
AcDbEntity
  8
0
100
AcDbCircle
 62
7
  6
CONTINUOUS
 10
-1.5521400661
 20
-15.130202795
 40
3.3977231123
100
AcDbArc
 50
96.5688356917
 51
97.7536375415
  0
ARC
  5
579
100
AcDbEntity
  8
0
100
AcDbCircle
 62
7
  6
CONTINUOUS
 10
-1.7020228259
 20
-14.045254582
 40
2.3024739526
100
AcDbArc
 50
97.700436954
 51
99.246209559
  0
ARC
  5
57A
100
AcDbEntity
  8
RACCORDO
100
AcDbCircle
 62
253
  6
CONTINUOUS
 10
-8.5859737095
 20
-15.6506538958
 40
1.9999999706
100
AcDbArc
 50
180.0036142072
 51
224.9963857928
  0
ARC
  5
57B
100
AcDbEntity
  8
0
100
AcDbCircle
 62
7
  6
CONTINUOUS
 10
-1.8135036989
 20
-13.3695017896
 40
1.6175894288
100
AcDbArc
 50
99.1946979835
 51
101.1316841445
  0
ARC
  5
57C
100
AcDbEntity
  8
0
100
AcDbCircle
 62
7
  6
CONTINUOUS
 10
-8.4510613999
 20
-13.1356736505
 40
1.4
100
AcDbArc
 50
75.8
 51
90.0
  0
ARC
  5
57D
100
AcDbEntity
  8
0
100
AcDbCircle
 62
7
  6
CONTINUOUS
 10
-1.6546079451
 20
-13.1356736505
 40
1.4
100
AcDbArc
 50
90.0
 51
104.2
  0
ARC
  5
57E
100
AcDbEntity
  8
RACCORDO
100
AcDbCircle
 62
253
  6
CONTINUOUS
 10
-9.1010633514
 20
-16.5495417091
 40
1.0001669283
100
AcDbArc
 50
225.0075747888
 51
269.9924252112
  0
ARC
  5
57F
100
AcDbEntity
  8
RACCORDO
100
AcDbCircle
 62
253
  6
CONTINUOUS
 10
-8.5862908311
 20
-15.6507852519
 40
0.9998351499
100
AcDbArc
 50
179.9997022169
 51
225.0002977831
  0
ARC
  5
580
100
AcDbEntity
  8
RACCORDO
100
AcDbCircle
 62
253
  6
CONTINUOUS
 10
-5.3028346742
 20
-12.5178821201
 40
0.5005875506
100
AcDbArc
 50
40.0389719257
 51
139.9607255149
  0
ARC
  5
581
100
AcDbEntity
  8
RACCORDO
100
AcDbCircle
 62
253
  6
CONTINUOUS
 10
-8.0528346725
 20
-10.2310398069
 40
3.3748993522
100
AcDbArc
 50
39.6985058816
 51
117.0212758043
  0
ARC
  5
582
100
AcDbEntity
  8
RACCORDO
100
AcDbCircle
 62
253
  6
CONTINUOUS
 10
-8.0528346725
 20
-10.2310398069
 40
3.3748993522
100
AcDbArc
 50
242.9787241689
 51
320.3014937738
  0
ARC
  5
583
100
AcDbEntity
  8
RACCORDO
100
AcDbCircle
 62
253
  6
CONTINUOUS
 10
-8.0528346725
 20
-10.2310398069
 40
3.0760409428
100
AcDbArc
 50
39.6985557411
 51
117.0213244295
  0
ARC
  5
584
100
AcDbEntity
  8
RACCORDO
100
AcDbCircle
 62
253
  6
CONTINUOUS
 10
-8.0528346725
 20
-10.2310398069
 40
3.0760409428
100
AcDbArc
 50
242.9786755705
 51
320.3014932824
  0
ARC
  5
585
100
AcDbEntity
  8
RACCORDO
100
AcDbCircle
 62
253
  6
CONTINUOUS
 10
-8.0528346725
 20
-10.2310398069
 40
2.9489817302
100
AcDbArc
 50
37.0817161531
 51
144.1489057819
  0
ARC
  5
586
100
AcDbEntity
  8
RACCORDO
100
AcDbCircle
 62
253
  6
CONTINUOUS
 10
-8.0528346725
 20
-10.2310398069
 40
2.9489817302
100
AcDbArc
 50
215.8510933171
 51
322.9183228184
  0
ARC
  5
587
100
AcDbEntity
  8
RACCORDO
100
AcDbCircle
 62
7
  6
CONTINUOUS
 10
-8.0528346725
 20
-10.2310398069
 40
2.8
100
AcDbArc
 50
152.6192098778
 51
207.3807901222
  0
ARC
  5
588
100
AcDbEntity
  8
RACCORDO
100
AcDbCircle
 62
253
  6
CONTINUOUS
 10
-8.0528346725
 20
-10.2310398069
 40
2.6501233207
100
AcDbArc
 50
37.0816714185
 51
144.1488519115
  0
ARC
  5
589
100
AcDbEntity
  8
RACCORDO
100
AcDbCircle
 62
253
  6
CONTINUOUS
 10
-8.0528346725
 20
-10.2310398069
 40
2.6501233207
100
AcDbArc
 50
215.851148078
 51
322.9183291502
  0
ARC
  5
58A
100
AcDbEntity
  8
RACCORDO
100
AcDbCircle
 62
253
  6
CONTINUOUS
 10
-8.0528346725
 20
-10.2310398069
 40
2.5328850864
100
AcDbArc
 50
210.3274350156
 51
149.672564984
  0
ARC
  5
58B
100
AcDbEntity
  8
RACCORDO
100
AcDbCircle
 62
7
  6
CONTINUOUS
 10
-8.0528346725
 20
-10.2310398069
 40
2.5164425432
100
AcDbArc
 50
151.0837798564
 51
208.9162201436
  0
CIRCLE
  5
58C
100
AcDbEntity
  8
RACCORDO
100
AcDbCircle
 62
253
  6
CONTINUOUS
 10
-8.0528346725
 20
-10.2310398069
 40
2.2351212409
  0
CIRCLE
  5
58D
100
AcDbEntity
  8
DRAFT
100
AcDbCircle
 62
7
  6
CONTINUOUS
 10
-8.0528346725
 20
-10.2310398069
 40
1.85
  0
ARC
  5
58E
100
AcDbEntity
  8
RACCORDO
100
AcDbCircle
 62
253
  6
CONTINUOUS
 10
-10.0401365336
 20
-11.6640241858
 40
0.4989235615
100
AcDbArc
 50
180.0811913168
 51
216.1302153743
  0
ARC
  5
58F
100
AcDbEntity
  8
RACCORDO
100
AcDbCircle
 62
253
  6
CONTINUOUS
 10
-10.0368753221
 20
-11.6648359628
 40
0.2022286404
100
AcDbArc
 50
179.970314477
 51
215.8128601642
  0
ARC
  5
590
100
AcDbEntity
  8
RACCORDO
100
AcDbCircle
 62
253
  6
CONTINUOUS
 10
-10.0401364617
 20
-8.7980554809
 40
0.4989236347
100
AcDbArc
 50
143.8697807874
 51
179.9188047608
  0
ARC
  5
591
100
AcDbEntity
  8
RACCORDO
100
AcDbCircle
 62
253
  6
CONTINUOUS
 10
-8.6804276042
 20
-8.9534468752
 40
0.4425285096
100
AcDbArc
 50
147.3260538686
 51
180.0
  0
ARC
  5
592
100
AcDbEntity
  8
RACCORDO
100
AcDbCircle
 62
253
  6
CONTINUOUS
 10
-10.0368752738
 20
-8.7972436613
 40
0.2022286886
100
AcDbArc
 50
144.1871453477
 51
180.0296878608
  0
ARC
  5
593
100
AcDbEntity
  8
RACCORDO
100
AcDbCircle
 62
7
  6
CONTINUOUS
 10
-5.1981050046
 20
-10.143761822
 40
5.2228604225
100
AcDbArc
 50
194.4586922593
 51
195.1642908596
  0
ARC
  5
594
100
AcDbEntity
  8
RACCORDO
100
AcDbCircle
 62
7
  6
CONTINUOUS
 10
-5.1981059607
 20
-10.318317539
 40
5.2228594335
100
AcDbArc
 50
164.8357090736
 51
165.5413078074
  0
ARC
  5
595
100
AcDbEntity
  8
RACCORDO
100
AcDbCircle
 62
253
  6
CONTINUOUS
 10
-2.5528346725
 20
-10.2310398069
 40
3.3748993522
100
AcDbArc
 50
39.6985058816
 51
140.3014941269
  0
ARC
  5
596
100
AcDbEntity
  8
RACCORDO
100
AcDbCircle
 62
253
  6
CONTINUOUS
 10
-2.5528346725
 20
-10.2310398069
 40
3.3748993522
100
AcDbArc
 50
219.6985062371
 51
320.3014941269
  0
ARC
  5
597
100
AcDbEntity
  8
RACCORDO
100
AcDbCircle
 62
253
  6
CONTINUOUS
 10
-2.5528346725
 20
-10.2310398069
 40
3.0760409428
100
AcDbArc
 50
219.6985561996
 51
320.301493744
  0
ARC
  5
598
100
AcDbEntity
  8
RACCORDO
100
AcDbCircle
 62
253
  6
CONTINUOUS
 10
-2.5528346725
 20
-10.2310398069
 40
3.0760409428
100
AcDbArc
 50
39.6985557411
 51
140.301493744
  0
ARC
  5
599
100
AcDbEntity
  8
RACCORDO
100
AcDbCircle
 62
253
  6
CONTINUOUS
 10
-2.5528346725
 20
-10.2310398069
 40
2.9489817302
100
AcDbArc
 50
217.0817151279
 51
322.9183375207
  0
ARC
  5
59A
100
AcDbEntity
  8
RACCORDO
100
AcDbCircle
 62
253
  6
CONTINUOUS
 10
-2.5528346725
 20
-10.2310398069
 40
2.9489817302
100
AcDbArc
 50
37.0817161531
 51
142.9181625793
  0
ARC
  5
59B
100
AcDbEntity
  8
RACCORDO
100
AcDbCircle
 62
253
  6
CONTINUOUS
 10
-2.5528346725
 20
-10.2310398069
 40
2.6501233207
100
AcDbArc
 50
37.0816714185
 51
142.9183286164
  0
ARC
  5
59C
100
AcDbEntity
  8
RACCORDO
100
AcDbCircle
 62
253
  6
CONTINUOUS
 10
-2.5528346725
 20
-10.2310398069
 40
2.6501233207
100
AcDbArc
 50
217.0816708788
 51
322.9183286164
  0
CIRCLE
  5
59D
100
AcDbEntity
  8
RACCORDO
100
AcDbCircle
 62
253
  6
CONTINUOUS
 10
-2.5528346725
 20
-10.2310398069
 40
2.4328850864
  0
CIRCLE
  5
59E
100
AcDbEntity
  8
RACCORDO
100
AcDbCircle
 62
253
  6
CONTINUOUS
 10
-2.5528346725
 20
-10.2310398069
 40
2.1351212409
  0
CIRCLE
  5
59F
100
AcDbEntity
  8
DRAFT
100
AcDbCircle
 62
7
  6
CONTINUOUS
 10
-2.5528346725
 20
-10.2310398069
 40
1.75
  0
ARC
  5
5A0
100
AcDbEntity
  8
RACCORDO
100
AcDbCircle
 62
253
  6
CONTINUOUS
 10
-5.302834671
 20
-7.9441975677
 40
0.5005875493
100
AcDbArc
 50
220.0389682052
 51
319.9607292499
  0
ARC
  5
5A1
100
AcDbEntity
  8
RACCORDO
100
AcDbCircle
 62
253
  6
CONTINUOUS
 10
-87.1894650558
 20
-1.3618142614
 40
92.7606974817
100
AcDbArc
 50
355.6157249706
 51
355.7313850517
  0
ARC
  5
5A2
100
AcDbEntity
  8
RACCORDO
100
AcDbCircle
 62
253
  6
CONTINUOUS
 10
-98.0050877792
 20
-1.3757369806
 40
92.5757953724
100
AcDbArc
 50
355.6155932833
 51
355.731484338
  0
ARC
  5
5A3
100
AcDbEntity
  8
RACCORDO
100
AcDbCircle
 62
253
  6
CONTINUOUS
 10
-92.5050877702
 20
-1.3757369812
 40
92.5757953635
100
AcDbArc
 50
355.6155932833
 51
355.731484338
  0
ARC
  5
5A4
100
AcDbEntity
  8
RACCORDO
100
AcDbCircle
 62
253
  6
CONTINUOUS
 10
-87.1894650577
 20
12.1381857388
 40
92.7606974836
100
AcDbArc
 50
355.6157249706
 51
355.7313850517
  0
ARC
  5
5A5
100
AcDbEntity
  8
RACCORDO
100
AcDbCircle
 62
253
  6
CONTINUOUS
 10
-92.5050877734
 20
12.124263019
 40
92.5757953666
100
AcDbArc
 50
355.6155932833
 51
355.731484338
  0
ARC
  5
5A6
100
AcDbEntity
  8
RACCORDO
100
AcDbCircle
 62
253
  6
CONTINUOUS
 10
-98.0050877724
 20
12.1242630189
 40
92.5757953656
100
AcDbArc
 50
355.6155932833
 51
355.731484338
  0
ARC
  5
5A7
100
AcDbEntity
  8
RACCORDO
100
AcDbCircle
 62
253
  6
CONTINUOUS
 10
-34.2727079957
 20
1.3827080934
 40
23.9647273087
100
AcDbArc
 50
7.9630575922
 51
8.7355252429
  0
ARC
  5
5A8
100
AcDbEntity
  8
RACCORDO
100
AcDbCircle
 62
253
  6
CONTINUOUS
 10
-33.0490401603
 20
4.9756227514
 40
22.7279807608
100
AcDbArc
 50
351.2434581079
 51
352.0579604616
  0
ARC
  5
5A9
100
AcDbEntity
  8
RACCORDO
100
AcDbCircle
 62
253
  6
CONTINUOUS
 10
-27.4291030048
 20
4.1982872873
 40
17.0047220834
100
AcDbArc
 50
2.6892144655
 51
3.6160697446
  0
ARC
  5
5AA
100
AcDbEntity
  8
RACCORDO
100
AcDbCircle
 62
253
  6
CONTINUOUS
 10
-27.4002256058
 20
2.3380171973
 40
16.9758008092
100
AcDbArc
 50
356.3832245938
 51
357.3116599376
  0
ARC
  5
5AB
100
AcDbEntity
  8
RACCORDO
100
AcDbCircle
 62
253
  6
CONTINUOUS
 10
-10.040136443
 20
1.8359757393
 40
0.4989236536
100
AcDbArc
 50
180.0811960668
 51
216.1302276275
  0
ARC
  5
5AC
100
AcDbEntity
  8
RACCORDO
100
AcDbCircle
 62
253
  6
CONTINUOUS
 10
-10.0368756907
 20
1.8351638413
 40
0.2022282718
100
AcDbArc
 50
179.9702919386
 51
215.8129115984
  0
ARC
  5
5AD
100
AcDbEntity
  8
RACCORDO
100
AcDbCircle
 62
253
  6
CONTINUOUS
 10
-8.0528346725
 20
3.2689601931
 40
3.3748993522
100
AcDbArc
 50
39.6985058816
 51
117.0212758043
  0
ARC
  5
5AE
100
AcDbEntity
  8
RACCORDO
100
AcDbCircle
 62
253
  6
CONTINUOUS
 10
-8.0528346725
 20
3.2689601931
 40
3.3748993522
100
AcDbArc
 50
242.9787241689
 51
320.3014937738
  0
ARC
  5
5AF
100
AcDbEntity
  8
RACCORDO
100
AcDbCircle
 62
253
  6
CONTINUOUS
 10
-8.0528346725
 20
3.2689601931
 40
3.0760409428
100
AcDbArc
 50
242.9786755705
 51
320.3014932824
  0
ARC
  5
5B0
100
AcDbEntity
  8
RACCORDO
100
AcDbCircle
 62
253
  6
CONTINUOUS
 10
-8.0528346725
 20
3.2689601931
 40
3.0760409428
100
AcDbArc
 50
39.6985557411
 51
117.0213244295
  0
ARC
  5
5B1
100
AcDbEntity
  8
RACCORDO
100
AcDbCircle
 62
253
  6
CONTINUOUS
 10
-8.0528346725
 20
3.2689601931
 40
2.9489817302
100
AcDbArc
 50
215.8510979303
 51
322.9183228184
  0
ARC
  5
5B2
100
AcDbEntity
  8
RACCORDO
100
AcDbCircle
 62
253
  6
CONTINUOUS
 10
-8.0528346725
 20
3.2689601931
 40
2.9489817302
100
AcDbArc
 50
37.0817161531
 51
144.1489062879
  0
ARC
  5
5B3
100
AcDbEntity
  8
RACCORDO
100
AcDbCircle
 62
7
  6
CONTINUOUS
 10
-8.0528346725
 20
3.2689601931
 40
2.8
100
AcDbArc
 50
152.6192098778
 51
207.3807901222
  0
ARC
  5
5B4
100
AcDbEntity
  8
RACCORDO
100
AcDbCircle
 62
253
  6
CONTINUOUS
 10
-8.0528346725
 20
3.2689601931
 40
2.6501233207
100
AcDbArc
 50
37.0816714185
 51
144.1488523241
  0
ARC
  5
5B5
100
AcDbEntity
  8
RACCORDO
100
AcDbCircle
 62
253
  6
CONTINUOUS
 10
-8.0528346725
 20
3.2689601931
 40
2.6501233207
100
AcDbArc
 50
215.8511507721
 51
322.9183291502
  0
ARC
  5
5B6
100
AcDbEntity
  8
RACCORDO
100
AcDbCircle
 62
253
  6
CONTINUOUS
 10
-8.0528346725
 20
3.2689601931
 40
2.5328850864
100
AcDbArc
 50
210.3274350156
 51
149.672564984
  0
ARC
  5
5B7
100
AcDbEntity
  8
RACCORDO
100
AcDbCircle
 62
7
  6
CONTINUOUS
 10
-8.0528346725
 20
3.2689601931
 40
2.5164425432
100
AcDbArc
 50
151.0837798565
 51
208.9162201436
  0
CIRCLE
  5
5B8
100
AcDbEntity
  8
RACCORDO
100
AcDbCircle
 62
253
  6
CONTINUOUS
 10
-8.0528346725
 20
3.2689601931
 40
2.2351212409
  0
CIRCLE
  5
5B9
100
AcDbEntity
  8
DRAFT
100
AcDbCircle
 62
7
  6
CONTINUOUS
 10
-8.0528346725
 20
3.2689601931
 40
1.85
  0
ARC
  5
5BA
100
AcDbEntity
  8
RACCORDO
100
AcDbCircle
 62
253
  6
CONTINUOUS
 10
-10.0401364615
 20
4.7019444964
 40
0.4989236349
100
AcDbArc
 50
143.8697817241
 51
179.9188046554
  0
ARC
  5
5BB
100
AcDbEntity
  8
RACCORDO
100
AcDbCircle
 62
253
  6
CONTINUOUS
 10
-10.0368752065
 20
4.7027563064
 40
0.2022287559
100
AcDbArc
 50
144.1871544777
 51
180.0296848739
  0
ARC
  5
5BC
100
AcDbEntity
  8
RACCORDO
100
AcDbCircle
 62
7
  6
CONTINUOUS
 10
-5.1981059607
 20
3.1816824609
 40
5.2228594335
100
AcDbArc
 50
164.8357090736
 51
165.5413078074
  0
ARC
  5
5BD
100
AcDbEntity
  8
RACCORDO
100
AcDbCircle
 62
253
  6
CONTINUOUS
 10
-5.3028346742
 20
0.9821178799
 40
0.5005875506
100
AcDbArc
 50
40.0389719257
 51
139.9607255149
  0
ARC
  5
5BE
100
AcDbEntity
  8
0
100
AcDbCircle
 62
7
  6
CONTINUOUS
 10
-1.5049739525
 20
3.1917301122
 40
0.3820294204
100
AcDbArc
 50
293.0830055596
 51
295.9850545356
  0
ARC
  5
5BF
100
AcDbEntity
  8
RACCORDO
100
AcDbCircle
 62
7
  6
CONTINUOUS
 10
-5.1981050039
 20
3.3562381782
 40
5.2228604232
100
AcDbArc
 50
194.4586922594
 51
195.1642908596
  0
ARC
  5
5C0
100
AcDbEntity
  8
RACCORDO
100
AcDbCircle
 62
253
  6
CONTINUOUS
 10
-2.5528346725
 20
3.2689601931
 40
3.3748993522
100
AcDbArc
 50
39.6985058816
 51
140.3014941269
  0
ARC
  5
5C1
100
AcDbEntity
  8
RACCORDO
100
AcDbCircle
 62
253
  6
CONTINUOUS
 10
-2.5528346725
 20
3.2689601931
 40
3.3748993522
100
AcDbArc
 50
219.6985062371
 51
320.3014941269
  0
ARC
  5
5C2
100
AcDbEntity
  8
RACCORDO
100
AcDbCircle
 62
253
  6
CONTINUOUS
 10
-2.5528346725
 20
3.2689601931
 40
3.0760409428
100
AcDbArc
 50
219.6985561996
 51
320.301493744
  0
ARC
  5
5C3
100
AcDbEntity
  8
RACCORDO
100
AcDbCircle
 62
253
  6
CONTINUOUS
 10
-2.5528346725
 20
3.2689601931
 40
3.0760409428
100
AcDbArc
 50
39.6985557411
 51
140.301493744
  0
ARC
  5
5C4
100
AcDbEntity
  8
RACCORDO
100
AcDbCircle
 62
253
  6
CONTINUOUS
 10
-2.5528346725
 20
3.2689601931
 40
2.9489817302
100
AcDbArc
 50
217.0817151279
 51
322.9181950646
  0
ARC
  5
5C5
100
AcDbEntity
  8
RACCORDO
100
AcDbCircle
 62
253
  6
CONTINUOUS
 10
-2.5528346725
 20
3.2689601931
 40
2.9489817302
100
AcDbArc
 50
37.0817161531
 51
142.9181987637
  0
ARC
  5
5C6
100
AcDbEntity
  8
RACCORDO
100
AcDbCircle
 62
253
  6
CONTINUOUS
 10
-2.5528346725
 20
3.2689601931
 40
2.6501233207
100
AcDbArc
 50
37.0816714185
 51
142.9183286164
  0
ARC
  5
5C7
100
AcDbEntity
  8
RACCORDO
100
AcDbCircle
 62
253
  6
CONTINUOUS
 10
-2.5528346725
 20
3.2689601931
 40
2.6501233207
100
AcDbArc
 50
217.0816708788
 51
322.9183286164
  0
CIRCLE
  5
5C8
100
AcDbEntity
  8
RACCORDO
100
AcDbCircle
 62
253
  6
CONTINUOUS
 10
-2.5528346725
 20
3.2689601931
 40
2.4328850864
  0
CIRCLE
  5
5C9
100
AcDbEntity
  8
RACCORDO
100
AcDbCircle
 62
253
  6
CONTINUOUS
 10
-2.5528346725
 20
3.2689601931
 40
2.1351212409
  0
CIRCLE
  5
5CA
100
AcDbEntity
  8
DRAFT
100
AcDbCircle
 62
7
  6
CONTINUOUS
 10
-2.5528346725
 20
3.2689601931
 40
1.75
  0
ARC
  5
5CB
100
AcDbEntity
  8
RACCORDO
100
AcDbCircle
 62
253
  6
CONTINUOUS
 10
-5.302834671
 20
5.5558024323
 40
0.5005875493
100
AcDbArc
 50
220.0389682052
 51
319.9607292499
  0
ARC
  5
5CC
100
AcDbEntity
  8
RACCORDO
100
AcDbCircle
 62
7
  6
CONTINUOUS
 10
-15.8283986194
 20
10.195466755
 40
22.3492362275
100
AcDbArc
 50
283.689943222
 51
284.4392374199
  0
ARC
  5
5CD
100
AcDbEntity
  8
RACCORDO
100
AcDbCircle
 62
253
  6
CONTINUOUS
 10
-9.7297142686
 20
9.9953683747
 40
1.5002431513
100
AcDbArc
 50
90.000007412
 51
90.9825436789
  0
ARC
  5
5CE
100
AcDbEntity
  8
RACCORDO
100
AcDbCircle
 62
253
  6
CONTINUOUS
 10
-9.7298666232
 20
9.9953807569
 40
1.0003069331
100
AcDbArc
 50
89.9912845194
 51
90.9738255401
  0
ARC
  5
5CF
100
AcDbEntity
  8
RACCORDO
100
AcDbCircle
 62
253
  6
CONTINUOUS
 10
-9.585760318
 20
9.8518858385
 40
1.0002157485
100
AcDbArc
 50
90.0209464775
 51
179.9790535225
  0
ARC
  5
5D0
100
AcDbEntity
  8
RACCORDO
100
AcDbCircle
 62
7
  6
CONTINUOUS
 10
-15.8283986191
 20
23.6954667537
 40
22.3492362262
100
AcDbArc
 50
283.689943222
 51
284.4392374199
  0
ARC
  5
5D1
100
AcDbEntity
  8
RACCORDO
100
AcDbCircle
 62
253
  6
CONTINUOUS
 10
-8.7552878393
 20
19.4587064908
 40
1.9999999706
100
AcDbArc
 50
135.0036142072
 51
179.9963857928
  0
ARC
  5
5D2
100
AcDbEntity
  8
RACCORDO
100
AcDbCircle
 62
253
  6
CONTINUOUS
 10
-9.1711955603
 20
20.4567762251
 40
1.0001669283
100
AcDbArc
 50
90.0075747888
 51
134.9924252112
  0
ARC
  5
5D3
100
AcDbEntity
  8
RACCORDO
100
AcDbCircle
 62
253
  6
CONTINUOUS
 10
-8.7556049609
 20
19.4588378469
 40
0.9998351499
100
AcDbArc
 50
134.9997022169
 51
180.0002977831
  0
ARC
  5
5D4
100
AcDbEntity
  8
RACCORDO
100
AcDbCircle
 62
7
  6
CONTINUOUS
 10
-10.6028270089
 20
23.9189541275
 40
0.350006664
100
AcDbArc
 50
90.001254533
 51
180.0011887604
  0
ARC
  5
5D5
100
AcDbEntity
  8
RACCORDO
100
AcDbCircle
 62
7
  6
CONTINUOUS
 10
-7.570040948
 20
23.3084872468
 40
0.3134405926
100
AcDbArc
 50
135.042708
 51
178.981998181
  0
ARC
  5
5D6
100
AcDbEntity
  8
RACCORDO
100
AcDbCircle
 62
7
  6
CONTINUOUS
 10
-7.0107466547
 20
23.8693091298
 40
0.3123543042
100
AcDbArc
 50
90.9460844322
 51
135.0034088472
  0
ARC
  5
5D7
100
AcDbEntity
  8
RACCORDO
100
AcDbCircle
 62
7
  6
CONTINUOUS
 10
-6.1528346725
 20
21.8689601931
 40
0.3
100
AcDbArc
 50
270.0
 51
360.0
  0
ARC
  5
5D8
100
AcDbEntity
  8
RACCORDO
100
AcDbCircle
 62
253
  6
CONTINUOUS
 10
-6.7181660996
 20
21.8689539928
 40
0.2999942886
100
AcDbArc
 50
179.9988158112
 51
269.9987524864
  0
ARC
  5
5D9
100
AcDbEntity
  8
RACCORDO
100
AcDbCircle
 62
7
  6
CONTINUOUS
 10
-7.5782219299
 20
23.0686468385
 40
0.2996869941
100
AcDbArc
 50
266.2157926189
 51
268.9956680021
  0
ARC
  5
5DA
100
AcDbEntity
  8
RACCORDO
100
AcDbCircle
 62
7
  6
CONTINUOUS
 10
16.2227292744
 20
-30.6575463688
 40
22.3492362275
100
AcDbArc
 50
103.689943222
 51
104.4392374199
  0
ARC
  5
5DB
100
AcDbEntity
  8
RACCORDO
100
AcDbCircle
 62
7
  6
CONTINUOUS
 10
10.997157734
 20
-20.1810337417
 40
0.350006664
100
AcDbArc
 50
270.0012430565
 51
0.0011888146
  0
ARC
  5
5DC
100
AcDbEntity
  8
RACCORDO
100
AcDbCircle
 62
7
  6
CONTINUOUS
 10
7.9643716056
 20
-19.5705668656
 40
0.3134405926
100
AcDbArc
 50
315.0427082899
 51
358.9819990691
  0
ARC
  5
5DD
100
AcDbEntity
  8
RACCORDO
100
AcDbCircle
 62
7
  6
CONTINUOUS
 10
7.405077318
 20
-20.1313887413
 40
0.3123543042
100
AcDbArc
 50
270.9460828933
 51
315.0034074575
  0
ARC
  5
5DE
100
AcDbEntity
  8
RACCORDO
100
AcDbCircle
 62
7
  6
CONTINUOUS
 10
6.5471653275
 20
-18.1310398069
 40
0.3
100
AcDbArc
 50
90.0
 51
180.0
  0
ARC
  5
5DF
100
AcDbEntity
  8
RACCORDO
100
AcDbCircle
 62
253
  6
CONTINUOUS
 10
7.112496778
 20
-18.131033583
 40
0.2999942886
100
AcDbArc
 50
359.9988112921
 51
89.998756955
  0
ARC
  5
5E0
100
AcDbEntity
  8
RACCORDO
100
AcDbCircle
 62
7
  6
CONTINUOUS
 10
7.9725525849
 20
-19.3307264524
 40
0.2996869941
100
AcDbArc
 50
86.2157926189
 51
88.995668002
  0
ARC
  5
5E1
100
AcDbEntity
  8
RACCORDO
100
AcDbCircle
 62
7
  6
CONTINUOUS
 10
16.2227292743
 20
-17.1575463687
 40
22.3492362273
100
AcDbArc
 50
103.689943222
 51
104.4392374199
  0
ARC
  5
5E2
100
AcDbEntity
  8
0
100
AcDbCircle
 62
7
  6
CONTINUOUS
 10
8.9478599339
 20
-15.130202795
 40
3.3977231123
100
AcDbArc
 50
96.5688356917
 51
97.7536375415
  0
ARC
  5
5E3
100
AcDbEntity
  8
0
100
AcDbCircle
 62
7
  6
CONTINUOUS
 10
8.7979771741
 20
-14.045254582
 40
2.3024739526
100
AcDbArc
 50
97.700436954
 51
99.246209559
  0
ARC
  5
5E4
100
AcDbEntity
  8
RACCORDO
100
AcDbCircle
 62
253
  6
CONTINUOUS
 10
8.9803043645
 20
-15.6506538958
 40
1.9999999706
100
AcDbArc
 50
315.0036142072
 51
359.9963857928
  0
ARC
  5
5E5
100
AcDbEntity
  8
0
100
AcDbCircle
 62
7
  6
CONTINUOUS
 10
8.6864963011
 20
-13.3695017896
 40
1.6175894288
100
AcDbArc
 50
99.1946979835
 51
101.1316841445
  0
ARC
  5
5E6
100
AcDbEntity
  8
0
100
AcDbCircle
 62
7
  6
CONTINUOUS
 10
2.0489386001
 20
-13.1356736505
 40
1.4
100
AcDbArc
 50
75.8
 51
90.0
  0
ARC
  5
5E7
100
AcDbEntity
  8
0
100
AcDbCircle
 62
7
  6
CONTINUOUS
 10
8.8453920549
 20
-13.1356736505
 40
1.4
100
AcDbArc
 50
90.0
 51
104.2
  0
ARC
  5
5E8
100
AcDbEntity
  8
RACCORDO
100
AcDbCircle
 62
253
  6
CONTINUOUS
 10
9.4953940064
 20
-16.5495417091
 40
1.0001669283
100
AcDbArc
 50
270.0075747888
 51
314.9924252112
  0
ARC
  5
5E9
100
AcDbEntity
  8
RACCORDO
100
AcDbCircle
 62
253
  6
CONTINUOUS
 10
8.9806214836
 20
-15.6507852506
 40
0.9998351525
100
AcDbArc
 50
314.999702265
 51
359.9988320832
  0
ARC
  5
5EA
100
AcDbEntity
  8
RACCORDO
100
AcDbCircle
 62
253
  6
CONTINUOUS
 10
0.197165326
 20
-12.5178820977
 40
0.5005875493
100
AcDbArc
 50
40.0389727188
 51
139.9607247363
  0
ARC
  5
5EB
100
AcDbEntity
  8
RACCORDO
100
AcDbCircle
 62
253
  6
CONTINUOUS
 10
2.9471653275
 20
-10.2310398069
 40
3.3748993522
100
AcDbArc
 50
39.6985062371
 51
140.3014941269
  0
ARC
  5
5EC
100
AcDbEntity
  8
RACCORDO
100
AcDbCircle
 62
253
  6
CONTINUOUS
 10
2.9471653275
 20
-10.2310398069
 40
3.3748993522
100
AcDbArc
 50
219.6985058816
 51
320.3014941269
  0
ARC
  5
5ED
100
AcDbEntity
  8
RACCORDO
100
AcDbCircle
 62
253
  6
CONTINUOUS
 10
2.9471653275
 20
-10.2310398069
 40
3.0760409428
100
AcDbArc
 50
219.6985557411
 51
320.301493744
  0
ARC
  5
5EE
100
AcDbEntity
  8
RACCORDO
100
AcDbCircle
 62
253
  6
CONTINUOUS
 10
2.9471653275
 20
-10.2310398069
 40
3.0760409428
100
AcDbArc
 50
39.6985561996
 51
140.301493744
  0
ARC
  5
5EF
100
AcDbEntity
  8
RACCORDO
100
AcDbCircle
 62
253
  6
CONTINUOUS
 10
2.9471653275
 20
-10.2310398069
 40
2.9489817302
100
AcDbArc
 50
217.0817161531
 51
322.9181431834
  0
ARC
  5
5F0
100
AcDbEntity
  8
RACCORDO
100
AcDbCircle
 62
253
  6
CONTINUOUS
 10
2.9471653275
 20
-10.2310398069
 40
2.9489817302
100
AcDbArc
 50
37.0817151279
 51
142.9182111098
  0
ARC
  5
5F1
100
AcDbEntity
  8
RACCORDO
100
AcDbCircle
 62
253
  6
CONTINUOUS
 10
2.9471653275
 20
-10.2310398069
 40
2.6501233207
100
AcDbArc
 50
37.0816708788
 51
142.9183286164
  0
ARC
  5
5F2
100
AcDbEntity
  8
RACCORDO
100
AcDbCircle
 62
253
  6
CONTINUOUS
 10
2.9471653275
 20
-10.2310398069
 40
2.6501233207
100
AcDbArc
 50
217.0816714185
 51
322.9183286164
  0
CIRCLE
  5
5F3
100
AcDbEntity
  8
RACCORDO
100
AcDbCircle
 62
253
  6
CONTINUOUS
 10
2.9471653275
 20
-10.2310398069
 40
2.4328850864
  0
CIRCLE
  5
5F4
100
AcDbEntity
  8
RACCORDO
100
AcDbCircle
 62
253
  6
CONTINUOUS
 10
2.9471653275
 20
-10.2310398069
 40
2.1351212409
  0
CIRCLE
  5
5F5
100
AcDbEntity
  8
DRAFT
100
AcDbCircle
 62
7
  6
CONTINUOUS
 10
2.9471653275
 20
-10.2310398069
 40
1.75
  0
ARC
  5
5F6
100
AcDbEntity
  8
RACCORDO
100
AcDbCircle
 62
253
  6
CONTINUOUS
 10
0.197165329
 20
-7.9441975677
 40
0.5005875493
100
AcDbArc
 50
220.0389682052
 51
319.9607292499
  0
ARC
  5
5F7
100
AcDbEntity
  8
RACCORDO
100
AcDbCircle
 62
7
  6
CONTINUOUS
 10
5.5924356595
 20
-10.3183177919
 40
5.2228604225
100
AcDbArc
 50
14.4586922593
 51
15.1642908596
  0
ARC
  5
5F8
100
AcDbEntity
  8
RACCORDO
100
AcDbCircle
 62
253
  6
CONTINUOUS
 10
5.697165326
 20
-12.5178820977
 40
0.5005875493
100
AcDbArc
 50
40.0389727188
 51
139.9607247363
  0
ARC
  5
5F9
100
AcDbEntity
  8
RACCORDO
100
AcDbCircle
 62
253
  6
CONTINUOUS
 10
10.4344671149
 20
-11.6640241648
 40
0.4989236365
100
AcDbArc
 50
323.8697790844
 51
359.918804741
  0
ARC
  5
5FA
100
AcDbEntity
  8
RACCORDO
100
AcDbCircle
 62
253
  6
CONTINUOUS
 10
10.4312060273
 20
-11.6648360006
 40
0.2022285901
100
AcDbArc
 50
324.1871319337
 51
0.0296924333
  0
ARC
  5
5FB
100
AcDbEntity
  8
RACCORDO
100
AcDbCircle
 62
7
  6
CONTINUOUS
 10
5.5924366157
 20
-10.1437620748
 40
5.2228594334
100
AcDbArc
 50
344.8357090736
 51
345.5413078074
  0
ARC
  5
5FC
100
AcDbEntity
  8
RACCORDO
100
AcDbCircle
 62
253
  6
CONTINUOUS
 10
8.4471653275
 20
-10.2310398069
 40
3.3748993522
100
AcDbArc
 50
62.9787241689
 51
140.3014937738
  0
ARC
  5
5FD
100
AcDbEntity
  8
RACCORDO
100
AcDbCircle
 62
253
  6
CONTINUOUS
 10
8.4471653275
 20
-10.2310398069
 40
3.3748993522
100
AcDbArc
 50
219.6985058816
 51
297.0212758043
  0
ARC
  5
5FE
100
AcDbEntity
  8
RACCORDO
100
AcDbCircle
 62
253
  6
CONTINUOUS
 10
8.4471653275
 20
-10.2310398069
 40
3.0760409428
100
AcDbArc
 50
62.9786755705
 51
140.3014932824
  0
ARC
  5
5FF
100
AcDbEntity
  8
RACCORDO
100
AcDbCircle
 62
253
  6
CONTINUOUS
 10
8.4471653275
 20
-10.2310398069
 40
3.0760409428
100
AcDbArc
 50
219.6985557411
 51
297.0213244295
  0
ARC
  5
600
100
AcDbEntity
  8
RACCORDO
100
AcDbCircle
 62
253
  6
CONTINUOUS
 10
8.4471653275
 20
-10.2310398069
 40
2.9489817302
100
AcDbArc
 50
35.8510937649
 51
142.9183228184
  0
ARC
  5
601
100
AcDbEntity
  8
RACCORDO
100
AcDbCircle
 62
253
  6
CONTINUOUS
 10
8.4471653275
 20
-10.2310398069
 40
2.9489817302
100
AcDbArc
 50
217.0817161531
 51
324.148904971
  0
ARC
  5
602
100
AcDbEntity
  8
RACCORDO
100
AcDbCircle
 62
7
  6
CONTINUOUS
 10
8.4471653275
 20
-10.2310398069
 40
2.8
100
AcDbArc
 50
332.6192098778
 51
27.3807901222
  0
ARC
  5
603
100
AcDbEntity
  8
RACCORDO
100
AcDbCircle
 62
253
  6
CONTINUOUS
 10
8.4471653275
 20
-10.2310398069
 40
2.6501233207
100
AcDbArc
 50
35.8511475871
 51
142.9183291502
  0
ARC
  5
604
100
AcDbEntity
  8
RACCORDO
100
AcDbCircle
 62
253
  6
CONTINUOUS
 10
8.4471653275
 20
-10.2310398069
 40
2.6501233207
100
AcDbArc
 50
217.0816714185
 51
324.1488512921
  0
ARC
  5
605
100
AcDbEntity
  8
RACCORDO
100
AcDbCircle
 62
253
  6
CONTINUOUS
 10
8.4471653275
 20
-10.2310398069
 40
2.5328850864
100
AcDbArc
 50
30.3274350156
 51
329.672564984
  0
ARC
  5
606
100
AcDbEntity
  8
RACCORDO
100
AcDbCircle
 62
7
  6
CONTINUOUS
 10
8.4471653275
 20
-10.2310398069
 40
2.5164425432
100
AcDbArc
 50
331.0837798565
 51
28.9162201436
  0
CIRCLE
  5
607
100
AcDbEntity
  8
RACCORDO
100
AcDbCircle
 62
253
  6
CONTINUOUS
 10
8.4471653275
 20
-10.2310398069
 40
2.2351212409
  0
CIRCLE
  5
608
100
AcDbEntity
  8
DRAFT
100
AcDbCircle
 62
7
  6
CONTINUOUS
 10
8.4471653275
 20
-10.2310398069
 40
1.85
  0
ARC
  5
609
100
AcDbEntity
  8
RACCORDO
100
AcDbCircle
 62
253
  6
CONTINUOUS
 10
5.6971653292
 20
-7.9441975453
 40
0.5005875506
100
AcDbArc
 50
220.0389674122
 51
319.9607300285
  0
ARC
  5
60A
100
AcDbEntity
  8
RACCORDO
100
AcDbCircle
 62
253
  6
CONTINUOUS
 10
10.4344671094
 20
-8.798055516
 40
0.4989236422
100
AcDbArc
 50
0.0811959275
 51
36.1302189806
  0
ARC
  5
60B
100
AcDbEntity
  8
RACCORDO
100
AcDbCircle
 62
253
  6
CONTINUOUS
 10
9.0747582592
 20
-8.9534468752
 40
0.4425285096
100
AcDbArc
 50
0.0
 51
32.6739449738
  0
ARC
  5
60C
100
AcDbEntity
  8
RACCORDO
100
AcDbCircle
 62
253
  6
CONTINUOUS
 10
10.4312058394
 20
-8.7972437021
 40
0.202228778
100
AcDbArc
 50
359.9703154856
 51
35.8128426486
  0
ARC
  5
60D
100
AcDbEntity
  8
RACCORDO
100
AcDbCircle
 62
253
  6
CONTINUOUS
 10
34.6665331903
 20
-8.3448612025
 40
23.964216548
100
AcDbArc
 50
187.9630511139
 51
188.7355350748
  0
ARC
  5
60E
100
AcDbEntity
  8
RACCORDO
100
AcDbCircle
 62
253
  6
CONTINUOUS
 10
33.4429878297
 20
-11.937642353
 40
22.7275931341
100
AcDbArc
 50
171.2434601456
 51
172.0579773057
  0
ARC
  5
60F
100
AcDbEntity
  8
RACCORDO
100
AcDbCircle
 62
253
  6
CONTINUOUS
 10
27.8256337256
 20
-11.1602484603
 40
17.0069253252
100
AcDbArc
 50
182.6892654721
 51
183.6160007526
  0
ARC
  5
610
100
AcDbEntity
  8
RACCORDO
100
AcDbCircle
 62
253
  6
CONTINUOUS
 10
27.7887417645
 20
-9.2997489748
 40
16.9699762645
100
AcDbArc
 50
176.383157315
 51
177.3119128331
  0
ARC
  5
611
100
AcDbEntity
  8
RACCORDO
100
AcDbCircle
 62
253
  6
CONTINUOUS
 10
87.5837957151
 20
-19.1002653528
 40
92.760697486
100
AcDbArc
 50
175.6157249706
 51
175.7313850517
  0
ARC
  5
612
100
AcDbEntity
  8
RACCORDO
100
AcDbCircle
 62
253
  6
CONTINUOUS
 10
92.8994184364
 20
-19.0863426335
 40
92.5757953747
100
AcDbArc
 50
175.6155932833
 51
175.731484338
  0
ARC
  5
613
100
AcDbEntity
  8
RACCORDO
100
AcDbCircle
 62
253
  6
CONTINUOUS
 10
98.3994184342
 20
-19.0863426333
 40
92.5757953725
100
AcDbArc
 50
175.6155932833
 51
175.731484338
  0
ARC
  5
614
100
AcDbEntity
  8
RACCORDO
100
AcDbCircle
 62
253
  6
CONTINUOUS
 10
87.583795714
 20
-5.6002653527
 40
92.7606974849
100
AcDbArc
 50
175.6157249706
 51
175.7313850517
  0
ARC
  5
615
100
AcDbEntity
  8
RACCORDO
100
AcDbCircle
 62
253
  6
CONTINUOUS
 10
92.8994184343
 20
-5.5863426333
 40
92.5757953726
100
AcDbArc
 50
175.6155932833
 51
175.731484338
  0
ARC
  5
616
100
AcDbEntity
  8
RACCORDO
100
AcDbCircle
 62
253
  6
CONTINUOUS
 10
98.3994184334
 20
-5.5863426333
 40
92.5757953717
100
AcDbArc
 50
175.6155932833
 51
175.731484338
  0
ARC
  5
617
100
AcDbEntity
  8
RACCORDO
100
AcDbCircle
 62
253
  6
CONTINUOUS
 10
0.197165326
 20
0.9821179023
 40
0.5005875493
100
AcDbArc
 50
40.0389727188
 51
139.9607247363
  0
ARC
  5
618
100
AcDbEntity
  8
RACCORDO
100
AcDbCircle
 62
253
  6
CONTINUOUS
 10
2.9471653275
 20
3.2689601931
 40
3.3748993522
100
AcDbArc
 50
39.6985062371
 51
140.3014941269
  0
ARC
  5
619
100
AcDbEntity
  8
RACCORDO
100
AcDbCircle
 62
253
  6
CONTINUOUS
 10
2.9471653275
 20
3.2689601931
 40
3.3748993522
100
AcDbArc
 50
219.6985058816
 51
320.3014941269
  0
ARC
  5
61A
100
AcDbEntity
  8
RACCORDO
100
AcDbCircle
 62
253
  6
CONTINUOUS
 10
2.9471653275
 20
3.2689601931
 40
3.0760409428
100
AcDbArc
 50
219.6985557411
 51
320.301493744
  0
ARC
  5
61B
100
AcDbEntity
  8
RACCORDO
100
AcDbCircle
 62
253
  6
CONTINUOUS
 10
2.9471653275
 20
3.2689601931
 40
3.0760409428
100
AcDbArc
 50
39.6985561996
 51
140.301493744
  0
ARC
  5
61C
100
AcDbEntity
  8
RACCORDO
100
AcDbCircle
 62
253
  6
CONTINUOUS
 10
2.9471653275
 20
3.2689601931
 40
2.9489817302
100
AcDbArc
 50
217.0817161531
 51
322.9181968088
  0
ARC
  5
61D
100
AcDbEntity
  8
RACCORDO
100
AcDbCircle
 62
253
  6
CONTINUOUS
 10
2.9471653275
 20
3.2689601931
 40
2.9489817302
100
AcDbArc
 50
37.0817151279
 51
142.9181737877
  0
ARC
  5
61E
100
AcDbEntity
  8
RACCORDO
100
AcDbCircle
 62
253
  6
CONTINUOUS
 10
2.9471653275
 20
3.2689601931
 40
2.6501233207
100
AcDbArc
 50
37.0816708788
 51
142.9183286164
  0
ARC
  5
61F
100
AcDbEntity
  8
RACCORDO
100
AcDbCircle
 62
253
  6
CONTINUOUS
 10
2.9471653275
 20
3.2689601931
 40
2.6501233207
100
AcDbArc
 50
217.0816714185
 51
322.9183286164
  0
CIRCLE
  5
620
100
AcDbEntity
  8
RACCORDO
100
AcDbCircle
 62
253
  6
CONTINUOUS
 10
2.9471653275
 20
3.2689601931
 40
2.4328850864
  0
CIRCLE
  5
621
100
AcDbEntity
  8
RACCORDO
100
AcDbCircle
 62
253
  6
CONTINUOUS
 10
2.9471653275
 20
3.2689601931
 40
2.1351212409
  0
CIRCLE
  5
622
100
AcDbEntity
  8
DRAFT
100
AcDbCircle
 62
7
  6
CONTINUOUS
 10
2.9471653275
 20
3.2689601931
 40
1.75
  0
ARC
  5
623
100
AcDbEntity
  8
RACCORDO
100
AcDbCircle
 62
253
  6
CONTINUOUS
 10
5.697165326
 20
0.9821179023
 40
0.5005875493
100
AcDbArc
 50
40.0389727188
 51
139.9607247363
  0
ARC
  5
624
100
AcDbEntity
  8
RACCORDO
100
AcDbCircle
 62
253
  6
CONTINUOUS
 10
10.4344671167
 20
1.8359758671
 40
0.4989236347
100
AcDbArc
 50
323.8697807892
 51
359.9188047608
  0
ARC
  5
625
100
AcDbEntity
  8
RACCORDO
100
AcDbCircle
 62
253
  6
CONTINUOUS
 10
10.4312059287
 20
1.8351640475
 40
0.2022286888
100
AcDbArc
 50
324.1871453633
 51
0.0296878555
  0
ARC
  5
626
100
AcDbEntity
  8
RACCORDO
100
AcDbCircle
 62
7
  6
CONTINUOUS
 10
5.5924356572
 20
3.1816822075
 40
5.2228604249
100
AcDbArc
 50
14.4586922595
 51
15.1642908594
  0
ARC
  5
627
100
AcDbEntity
  8
RACCORDO
100
AcDbCircle
 62
7
  6
CONTINUOUS
 10
5.5924366178
 20
3.3562379246
 40
5.2228594313
100
AcDbArc
 50
344.8357090734
 51
345.5413078076
  0
ARC
  5
628
100
AcDbEntity
  8
RACCORDO
100
AcDbCircle
 62
253
  6
CONTINUOUS
 10
8.4471653275
 20
3.2689601931
 40
3.3748993522
100
AcDbArc
 50
62.9787241689
 51
140.3014937738
  0
ARC
  5
629
100
AcDbEntity
  8
RACCORDO
100
AcDbCircle
 62
253
  6
CONTINUOUS
 10
8.4471653275
 20
3.2689601931
 40
3.3748993522
100
AcDbArc
 50
219.6985058816
 51
297.0212758043
  0
ARC
  5
62A
100
AcDbEntity
  8
RACCORDO
100
AcDbCircle
 62
253
  6
CONTINUOUS
 10
8.4471653275
 20
3.2689601931
 40
3.0760409428
100
AcDbArc
 50
219.6985557411
 51
297.0213244295
  0
ARC
  5
62B
100
AcDbEntity
  8
RACCORDO
100
AcDbCircle
 62
253
  6
CONTINUOUS
 10
8.4471653275
 20
3.2689601931
 40
3.0760409428
100
AcDbArc
 50
62.9786755705
 51
140.3014932824
  0
ARC
  5
62C
100
AcDbEntity
  8
RACCORDO
100
AcDbCircle
 62
253
  6
CONTINUOUS
 10
8.4471653275
 20
3.2689601931
 40
2.9489817302
100
AcDbArc
 50
217.0817161531
 51
324.1489057828
  0
ARC
  5
62D
100
AcDbEntity
  8
RACCORDO
100
AcDbCircle
 62
253
  6
CONTINUOUS
 10
8.4471653275
 20
3.2689601931
 40
2.9489817302
100
AcDbArc
 50
35.8510937483
 51
142.9183228184
  0
ARC
  5
62E
100
AcDbEntity
  8
RACCORDO
100
AcDbCircle
 62
7
  6
CONTINUOUS
 10
8.4471653275
 20
3.2689601931
 40
2.8
100
AcDbArc
 50
332.6192098778
 51
27.3807901222
  0
ARC
  5
62F
100
AcDbEntity
  8
RACCORDO
100
AcDbCircle
 62
253
  6
CONTINUOUS
 10
8.4471653275
 20
3.2689601931
 40
2.6501233207
100
AcDbArc
 50
35.8511484224
 51
142.9183291502
  0
ARC
  5
630
100
AcDbEntity
  8
RACCORDO
100
AcDbCircle
 62
253
  6
CONTINUOUS
 10
8.4471653275
 20
3.2689601931
 40
2.6501233207
100
AcDbArc
 50
217.0816714185
 51
324.1488519122
  0
ARC
  5
631
100
AcDbEntity
  8
RACCORDO
100
AcDbCircle
 62
253
  6
CONTINUOUS
 10
8.4471653275
 20
3.2689601931
 40
2.5328850864
100
AcDbArc
 50
30.3274350156
 51
329.672564984
  0
ARC
  5
632
100
AcDbEntity
  8
RACCORDO
100
AcDbCircle
 62
7
  6
CONTINUOUS
 10
8.4471653275
 20
3.2689601931
 40
2.5164425432
100
AcDbArc
 50
331.0837798564
 51
28.9162201436
  0
CIRCLE
  5
633
100
AcDbEntity
  8
RACCORDO
100
AcDbCircle
 62
253
  6
CONTINUOUS
 10
8.4471653275
 20
3.2689601931
 40
2.2351212409
  0
CIRCLE
  5
634
100
AcDbEntity
  8
DRAFT
100
AcDbCircle
 62
7
  6
CONTINUOUS
 10
8.4471653275
 20
3.2689601931
 40
1.85
  0
ARC
  5
635
100
AcDbEntity
  8
RACCORDO
100
AcDbCircle
 62
253
  6
CONTINUOUS
 10
10.4344671884
 20
4.7019445905
 40
0.4989235617
100
AcDbArc
 50
0.0811912596
 51
36.1302162084
  0
ARC
  5
636
100
AcDbEntity
  8
0
100
AcDbCircle
 62
7
  6
CONTINUOUS
 10
8.9950260475
 20
3.1917301122
 40
0.3820294204
100
AcDbArc
 50
293.0830055596
 51
295.9850545356
  0
ARC
  5
637
100
AcDbEntity
  8
RACCORDO
100
AcDbCircle
 62
253
  6
CONTINUOUS
 10
10.4312060327
 20
4.7027563759
 40
0.2022285847
100
AcDbArc
 50
359.9703119715
 51
35.8128677306
  0
ARC
  5
638
100
AcDbEntity
  8
RACCORDO
100
AcDbCircle
 62
7
  6
CONTINUOUS
 10
16.0702292997
 20
9.5867469516
 40
21.721718325
100
AcDbArc
 50
255.5499392532
 51
256.3208801049
  0
ARC
  5
639
100
AcDbEntity
  8
RACCORDO
100
AcDbCircle
 62
253
  6
CONTINUOUS
 10
10.1240452711
 20
9.9954043384
 40
1.500207187
100
AcDbArc
 50
89.0174460358
 51
89.324705222
  0
ARC
  5
63A
100
AcDbEntity
  8
RACCORDO
100
AcDbCircle
 62
253
  6
CONTINUOUS
 10
10.1241972855
 20
9.9953816202
 40
1.0003060698
100
AcDbArc
 50
89.0261740359
 51
90.0087159046
  0
ARC
  5
63B
100
AcDbEntity
  8
RACCORDO
100
AcDbCircle
 62
253
  6
CONTINUOUS
 10
9.9800909729
 20
9.8518858385
 40
1.0002157485
100
AcDbArc
 50
0.0209464775
 51
89.9790535225
  0
ARC
  5
63C
100
AcDbEntity
  8
RACCORDO
100
AcDbCircle
 62
253
  6
CONTINUOUS
 10
5.6971653292
 20
5.5558024547
 40
0.5005875506
100
AcDbArc
 50
220.0389674122
 51
319.9607300285
  0
ARC
  5
63D
100
AcDbEntity
  8
RACCORDO
100
AcDbCircle
 62
253
  6
CONTINUOUS
 10
0.197165329
 20
5.5558024323
 40
0.5005875493
100
AcDbArc
 50
220.0389682052
 51
319.9607292499
  0
ARC
  5
63E
100
AcDbEntity
  8
RACCORDO
100
AcDbCircle
 62
253
  6
CONTINUOUS
 10
34.6665179141
 20
5.1551359533
 40
23.9642010206
100
AcDbArc
 50
187.9630493633
 51
188.7355339565
  0
ARC
  5
63F
100
AcDbEntity
  8
RACCORDO
100
AcDbCircle
 62
253
  6
CONTINUOUS
 10
33.4403542014
 20
1.5627400148
 40
22.7249319434
100
AcDbArc
 50
171.2434029065
 51
172.0580144799
  0
ARC
  5
640
100
AcDbEntity
  8
RACCORDO
100
AcDbCircle
 62
253
  6
CONTINUOUS
 10
27.8283386789
 20
2.3398937016
 40
17.0096339437
100
AcDbArc
 50
182.6893161944
 51
183.6159042495
  0
ARC
  5
641
100
AcDbEntity
  8
RACCORDO
100
AcDbCircle
 62
253
  6
CONTINUOUS
 10
27.7808060778
 20
4.2006644738
 40
16.9620299089
100
AcDbArc
 50
176.3828611781
 51
177.3120506926
  0
ARC
  5
642
100
AcDbEntity
  8
RACCORDO
100
AcDbCircle
 62
7
  6
CONTINUOUS
 10
16.0702292994
 20
23.0867469504
 40
21.7217183237
100
AcDbArc
 50
255.5499392532
 51
256.3208801049
  0
ARC
  5
643
100
AcDbEntity
  8
DRAFT
100
AcDbCircle
 62
7
  6
CONTINUOUS
 10
0.2661678501
 20
14.8335057009
 40
4.9310058515
100
AcDbArc
 50
336.5334326922
 51
359.9940610901
  0
ARC
  5
644
100
AcDbEntity
  8
0
100
AcDbCircle
 62
7
  6
CONTINUOUS
 10
0.272215634
 20
15.1498202502
 40
4.9249488557
100
AcDbArc
 50
356.3183233296
 51
358.1858528673
  0
ARC
  5
645
100
AcDbEntity
  8
RACCORDO
100
AcDbCircle
 62
253
  6
CONTINUOUS
 10
15.3562274367
 20
19.4564132678
 40
4.8099638328
100
AcDbArc
 50
177.7476404043
 51
179.9711805689
  0
ARC
  5
646
100
AcDbEntity
  8
SMUSSO
100
AcDbCircle
 62
7
  6
CONTINUOUS
 10
3.4612813477
 20
15.0158117969
 40
3.2218307403
100
AcDbArc
 50
263.6247876654
 51
269.9999677983
  0
ARC
  5
647
100
AcDbEntity
  8
SMUSSO
100
AcDbCircle
 62
7
  6
CONTINUOUS
 10
6.1685053205
 20
15.0157534267
 40
3.221772437
100
AcDbArc
 50
269.9999784887
 51
275.0000298843
  0
CIRCLE
  5
648
100
AcDbEntity
  8
0
100
AcDbCircle
 62
7
  6
CONTINUOUS
 10
4.7971653275
 20
15.8689601931
 40
3.1
  0
ARC
  5
649
100
AcDbEntity
  8
SMUSSO
100
AcDbCircle
 62
7
  6
CONTINUOUS
 10
3.4612802807
 20
15.0157931373
 40
2.9998922519
100
AcDbArc
 50
263.6247696688
 51
269.9999857949
  0
ARC
  5
64A
100
AcDbEntity
  8
SMUSSO
100
AcDbCircle
 62
7
  6
CONTINUOUS
 10
6.1685059755
 20
15.0157387956
 40
2.9998379724
100
AcDbArc
 50
269.9999643859
 51
275.0000439872
  0
ARC
  5
64B
100
AcDbEntity
  8
DRAFT
100
AcDbCircle
 62
7
  6
CONTINUOUS
 10
4.7971653275
 20
15.8689601931
 40
2.75
100
AcDbArc
 50
275.9835833773
 51
303.1626682835
  0
ARC
  5
64C
100
AcDbEntity
  8
DRAFT
100
AcDbCircle
 62
7
  6
CONTINUOUS
 10
6.3971653275
 20
11.3689601931
 40
2.2
100
AcDbArc
 50
126.6530786358
 51
140.4192907667
  0
ARC
  5
64D
100
AcDbEntity
  8
DRAFT
100
AcDbCircle
 62
7
  6
CONTINUOUS
 10
6.3971653275
 20
11.3689601931
 40
2.2
100
AcDbArc
 50
90.0
 51
92.493173025
  0
ARC
  5
64E
100
AcDbEntity
  8
RACCORDO
100
AcDbCircle
 62
253
  6
CONTINUOUS
 10
9.1496184943
 20
19.4587064908
 40
1.9999999706
100
AcDbArc
 50
0.0036142072
 51
44.9963857928
  0
ARC
  5
64F
100
AcDbEntity
  8
RACCORDO
100
AcDbCircle
 62
253
  6
CONTINUOUS
 10
9.5655262153
 20
20.4567762251
 40
1.0001669283
100
AcDbArc
 50
45.0075747888
 51
89.9924252112
  0
ARC
  5
650
100
AcDbEntity
  8
RACCORDO
100
AcDbCircle
 62
253
  6
CONTINUOUS
 10
9.7436770718
 20
12.2586880951
 40
0.8607486361
100
AcDbArc
 50
296.2254107837
 51
297.5450296433
  0
ARC
  5
651
100
AcDbEntity
  8
RACCORDO
100
AcDbCircle
 62
253
  6
CONTINUOUS
 10
0.9366695716
 20
12.1084621458
 40
0.7999855474
100
AcDbArc
 50
179.9997511283
 51
230.0029530954
  0
ARC
  5
652
100
AcDbEntity
  8
RACCORDO
100
AcDbCircle
 62
253
  6
CONTINUOUS
 10
0.9366655021
 20
19.6294600184
 40
0.799981478
100
AcDbArc
 50
89.9996237764
 51
180.0003762236
  0
ARC
  5
653
100
AcDbEntity
  8
RACCORDO
100
AcDbCircle
 62
253
  6
CONTINUOUS
 10
9.6280874368
 20
12.1079612297
 40
0.7993277477
100
AcDbArc
 50
309.9851303385
 51
310.7412780277
  0
ARC
  5
654
100
AcDbEntity
  8
RACCORDO
100
AcDbCircle
 62
253
  6
CONTINUOUS
 10
9.6260214416
 20
12.110423049
 40
0.5025514824
100
AcDbArc
 50
308.3599745053
 51
309.9851592861
  0
ARC
  5
655
100
AcDbEntity
  8
RACCORDO
100
AcDbCircle
 62
253
  6
CONTINUOUS
 10
9.6263365427
 20
19.628758228
 40
0.5009565836
100
AcDbArc
 50
0.0383295553
 51
60.6674112612
  0
ARC
  5
656
100
AcDbEntity
  8
RACCORDO
100
AcDbCircle
 62
253
  6
CONTINUOUS
 10
0.9366584625
 20
12.1084505975
 40
0.4999794145
100
AcDbArc
 50
179.9980146755
 51
230.0029242653
  0
ARC
  5
657
100
AcDbEntity
  8
RACCORDO
100
AcDbCircle
 62
253
  6
CONTINUOUS
 10
0.9366533956
 20
19.6294721249
 40
0.4999743477
100
AcDbArc
 50
89.9977223449
 51
180.002251708
  0
ARC
  5
658
100
AcDbEntity
  8
RACCORDO
100
AcDbCircle
 62
253
  6
CONTINUOUS
 10
9.6276817665
 20
12.1084442886
 40
0.4999684278
100
AcDbArc
 50
309.9850872001
 51
310.7412631582
  0
ARC
  5
659
100
AcDbEntity
  8
RACCORDO
100
AcDbCircle
 62
253
  6
CONTINUOUS
 10
0.9367051498
 20
12.1079877631
 40
0.4996473243
100
AcDbArc
 50
229.9647100102
 51
269.9815538349
  0
ARC
  5
65A
100
AcDbEntity
  8
RACCORDO
100
AcDbCircle
 62
253
  6
CONTINUOUS
 10
9.6276505047
 20
12.1078867906
 40
0.4995453986
100
AcDbArc
 50
270.0156046794
 51
308.3939939704
  0
ARC
  5
65B
100
AcDbEntity
  8
RACCORDO
100
AcDbCircle
 62
253
  6
CONTINUOUS
 10
9.6274055476
 20
19.6307622992
 40
0.4986818097
100
AcDbArc
 50
60.6616892251
 51
89.9712614733
  0
ARC
  5
65C
100
AcDbEntity
  8
RACCORDO
100
AcDbCircle
 62
7
  6
CONTINUOUS
 10
9.3133525513
 20
15.8689601931
 40
0.4411849108
100
AcDbArc
 50
89.5021464904
 51
270.4978535096
  0
ARC
  5
65D
100
AcDbEntity
  8
RACCORDO
100
AcDbCircle
 62
253
  6
CONTINUOUS
 10
9.3171860604
 20
15.8689601931
 40
0.4144462335
100
AcDbArc
 50
89.999582971
 51
270.0
  0
ARC
  5
65E
100
AcDbEntity
  8
RACCORDO
100
AcDbCircle
 62
7
  6
CONTINUOUS
 10
10.9971577338
 20
23.918954128
 40
0.350006664
100
AcDbArc
 50
359.9988111601
 51
89.9987569182
  0
ARC
  5
65F
100
AcDbEntity
  8
RACCORDO
100
AcDbCircle
 62
7
  6
CONTINUOUS
 10
7.9643716068
 20
23.3084872489
 40
0.3134405926
100
AcDbArc
 50
1.0180014444
 51
44.9572922237
  0
ARC
  5
660
100
AcDbEntity
  8
RACCORDO
100
AcDbCircle
 62
7
  6
CONTINUOUS
 10
7.4049404166
 20
23.8690842061
 40
0.3126125459
100
AcDbArc
 50
45.0080026098
 51
65.3798661871
  0
ARC
  5
661
100
AcDbEntity
  8
RACCORDO
100
AcDbCircle
 62
7
  6
CONTINUOUS
 10
7.4052253845
 20
23.8699373845
 40
0.3117182273
100
AcDbArc
 50
65.3621522379
 51
89.0792222522
  0
ARC
  5
662
100
AcDbEntity
  8
RACCORDO
100
AcDbCircle
 62
7
  6
CONTINUOUS
 10
6.5471653275
 20
21.8689601931
 40
0.3
100
AcDbArc
 50
180.0
 51
270.0
  0
ARC
  5
663
100
AcDbEntity
  8
RACCORDO
100
AcDbCircle
 62
253
  6
CONTINUOUS
 10
7.1124967771
 20
21.8689539682
 40
0.2999942886
100
AcDbArc
 50
270.0012432073
 51
0.0011888741
  0
ARC
  5
664
100
AcDbEntity
  8
RACCORDO
100
AcDbCircle
 62
7
  6
CONTINUOUS
 10
7.9725525849
 20
23.0686468385
 40
0.2996869941
100
AcDbArc
 50
271.0043319979
 51
273.7842073811
  0
ARC
  5
665
100
AcDbEntity
  8
RACCORDO
100
AcDbCircle
 62
253
  6
CONTINUOUS
 10
9.3171860645
 20
15.8689601931
 40
0.0144614643
100
AcDbArc
 50
90.0000161421
 51
269.9999838579
  0
ARC
  5
666
100
AcDbEntity
  8
RACCORDO
100
AcDbCircle
 62
253
  6
CONTINUOUS
 10
93.8745769238
 20
-1.2997952617
 40
93.5539032492
100
AcDbArc
 50
184.2704455692
 51
184.3851220907
  0
ARC
  5
667
100
AcDbEntity
  8
RACCORDO
100
AcDbCircle
 62
253
  6
CONTINUOUS
 10
87.4145501664
 20
-1.3716279618
 40
92.5911928616
100
AcDbArc
 50
184.2703555308
 51
184.3862232345
  0
ARC
  5
668
100
AcDbEntity
  8
RACCORDO
100
AcDbCircle
 62
253
  6
CONTINUOUS
 10
88.1284647258
 20
12.1817897272
 40
93.3071030765
100
AcDbArc
 50
184.2704226643
 51
184.3854022162
  0
ARC
  5
669
100
AcDbEntity
  8
RACCORDO
100
AcDbCircle
 62
253
  6
CONTINUOUS
 10
93.1345197083
 20
12.1448309611
 40
92.8117772998
100
AcDbArc
 50
184.2703763263
 51
184.3859689159
  0
SPLINE
  5
66A
100
AcDbEntity
  8
RACCORDO
100
AcDbSpline
 62
7
  6
CONTINUOUS
 70
0
 71
3
 72
14
 73
10
 74
8
 42
0.0000001
 43
0.0000001
 44
0.0000000001
 12
0.1227651272
 22
-0.3744195096
 32
0.0
 13
0.3940320363
 23
0.0
 33
0.0
 40
0.0
 40
0.0
 40
0.0
 40
0.0
 40
0.3398714761
 40
0.4858361384
 40
0.6153877559
 40
0.729173026
 40
0.8288759444
 40
0.9175684251
 40
1.0
 40
1.0
 40
1.0
 40
1.0
 10
-9.6365638803
 20
3.4618534119
 30
0.0
 10
-9.6226557586
 20
3.4194352414
 30
0.0
 10
-9.5996588522
 20
3.3596029166
 30
0.0
 10
-9.5612063706
 20
3.2883932903
 30
0.0
 10
-9.532317865
 20
3.2460609091
 30
0.0
 10
-9.502105986
 20
3.2124106961
 30
0.0
 10
-9.4706821161
 20
3.1877344608
 30
0.0
 10
-9.438134671
 20
3.1724931527
 30
0.0
 10
-9.4155437369
 20
3.1689601931
 30
0.0
 10
-9.4047168432
 20
3.1689601931
 30
0.0
 11
-9.6365638803
 21
3.4618534119
 31
0.0
 11
-9.5868781977
 21
3.3374911738
 31
0.0
 11
-9.5592744151
 21
3.2870334885
 31
0.0
 11
-9.5301915951
 21
3.2450807106
 31
0.0
 11
-9.4999003065
 21
3.2120259257
 31
0.0
 11
-9.4686829957
 21
3.1881747075
 31
0.0
 11
-9.4368381183
 21
3.1737787346
 31
0.0
 11
-9.4047168432
 21
3.1689601931
 31
0.0
  0
SPLINE
  5
66B
100
AcDbEntity
  8
RACCORDO
100
AcDbSpline
 62
7
  6
CONTINUOUS
 70
0
 71
3
 72
14
 73
10
 74
8
 42
0.0000001
 43
0.0000001
 44
0.0000000001
 12
0.3940320363
 22
0.0
 32
0.0
 13
0.1227651272
 23
0.3744195096
 33
0.0
 40
0.0
 40
0.0
 40
0.0
 40
0.0
 40
0.0824315749
 40
0.1711240556
 40
0.270826974
 40
0.3846122441
 40
0.5141638616
 40
0.6601285239
 40
1.0
 40
1.0
 40
1.0
 40
1.0
 10
9.7990474981
 20
3.1689601931
 30
0.0
 10
9.8098743919
 20
3.1689601931
 30
0.0
 10
9.832465326
 20
3.1724931527
 30
0.0
 10
9.865012771
 20
3.1877344608
 30
0.0
 10
9.896436641
 20
3.2124106961
 30
0.0
 10
9.92664852
 20
3.2460609091
 30
0.0
 10
9.9555370256
 20
3.2883932903
 30
0.0
 10
9.9939895072
 20
3.3596029166
 30
0.0
 10
10.0169864136
 20
3.4194352414
 30
0.0
 10
10.0308945352
 20
3.4618534119
 30
0.0
 11
9.7990474981
 21
3.1689601931
 31
0.0
 11
9.8311687733
 21
3.1737787346
 31
0.0
 11
9.8630136507
 21
3.1881747075
 31
0.0
 11
9.8942309615
 21
3.2120259257
 31
0.0
 11
9.92452225
 21
3.2450807106
 31
0.0
 11
9.95360507
 21
3.2870334885
 31
0.0
 11
9.9812088526
 21
3.3374911738
 31
0.0
 11
10.0308945352
 21
3.4618534119
 31
0.0
  0
SPLINE
  5
66C
100
AcDbEntity
  8
0
100
AcDbSpline
 62
7
  6
CONTINUOUS
 70
0
 71
3
 72
11
 73
7
 74
5
 42
0.0000001
 43
0.0000001
 44
0.0000000001
 12
1.038687409
 22
1.8927611698
 32
0.0
 13
0.1386374368
 23
2.1545756057
 33
0.0
 40
0.0
 40
0.0
 40
0.0
 40
0.0
 40
0.2501794343
 40
0.5002152819
 40
0.7501421964
 40
1.0
 40
1.0
 40
1.0
 40
1.0
 10
4.5880826685
 20
12.7760634091
 30
0.0
 10
4.6747020779
 20
12.9339067153
 30
0.0
 10
4.8307901275
 20
13.2592382923
 30
0.0
 10
5.0101373007
 20
13.7695394089
 30
0.0
 10
5.1326481125
 20
14.2961460596
 30
0.0
 10
5.1754538556
 20
14.6541278336
 30
0.0
 10
5.1870004041
 20
14.8335736764
 30
0.0
 11
4.5880826685
 21
12.7760634091
 31
0.0
 11
4.8217060785
 21
13.2630716072
 31
0.0
 11
5.0006977516
 21
13.7723692226
 31
0.0
 11
5.1229435923
 21
14.2979395433
 31
0.0
 11
5.1870004041
 21
14.8335736764
 31
0.0
  0
SPLINE
  5
66D
100
AcDbEntity
  8
DRAFT
100
AcDbSpline
 62
7
  6
CONTINUOUS
 70
0
 71
3
 72
11
 73
7
 74
5
 42
0.0000001
 43
0.0000001
 44
0.0000000001
 12
2.0516168098
 22
-2.5911555695
 32
0.0
 13
0.0000001678
 23
-3.3050293069
 33
0.0
 40
0.0
 40
0.0
 40
0.0
 40
0.0
 40
0.2503173806
 40
0.5003739748
 40
0.7502381822
 40
1.0
 40
1.0
 40
1.0
 40
1.0
 10
4.1284463514
 20
17.8994693187
 30
0.0
 10
4.2996314666
 20
17.6832655605
 30
0.0
 10
4.606362888
 20
17.2215992308
 30
0.0
 10
4.9441988299
 20
16.4631881581
 30
0.0
 10
5.150829121
 20
15.659683389
 30
0.0
 10
5.1971653135
 20
15.1081520456
 30
0.0
 10
5.1971653275
 20
14.8329953363
 30
0.0
 11
4.1284463514
 21
17.8994693187
 31
0.0
 11
4.5861488906
 21
17.2103074622
 31
0.0
 11
4.9224369618
 21
16.4553765819
 31
0.0
 11
5.1280048342
 21
15.6555631194
 31
0.0
 11
5.1971653275
 21
14.8329953363
 31
0.0
  0
SPLINE
  5
66E
100
AcDbEntity
  8
RACCORDO
100
AcDbSpline
 62
7
  6
CONTINUOUS
 70
0
 71
3
 72
9
 73
5
 74
3
 42
0.0000001
 43
0.0000001
 44
0.0000000001
 12
0.0279141465
 22
-0.0002645154
 32
0.0
 13
0.024685914
 23
0.0130336179
 33
0.0
 40
0.0
 40
0.0
 40
0.0
 40
0.0
 40
0.426119949
 40
1.0
 40
1.0
 40
1.0
 40
1.0
 10
7.1057184945
 20
17.8990539065
 30
0.0
 10
7.1096834194
 20
17.8990163347
 30
0.0
 10
7.1189058452
 20
17.9013859702
 30
0.0
 10
7.1273168579
 20
17.9053250137
 30
0.0
 10
7.132039109
 20
17.9078182582
 30
0.0
 11
7.1057184945
 21
17.8990539065
 31
0.0
 11
7.1173958037
 21
17.9013208029
 31
0.0
 11
7.132039109
 21
17.9078182582
 31
0.0
  0
LINE
  5
66F
100
AcDbEntity
  8
RACCORDO
100
AcDbLine
 62
253
  6
CONTINUOUS
 10
7.0947247701
 20
17.9058780442
 11
7.0947073301
 21
17.8991439007
  0
LINE
  5
670
100
AcDbEntity
  8
RACCORDO
100
AcDbLine
 62
253
  6
CONTINUOUS
 10
7.0947073301
 20
17.8991439007
 11
7.0945810213
 21
17.8321597039
  0
LINE
  5
671
100
AcDbEntity
  8
RACCORDO
100
AcDbLine
 62
253
  6
CONTINUOUS
 10
7.0945810213
 20
17.8321597039
 11
7.0894430011
 21
13.7822284784
  0
SPLINE
  5
672
100
AcDbEntity
  8
RACCORDO
100
AcDbSpline
 62
253
  6
CONTINUOUS
 70
0
 71
3
 72
14
 73
10
 74
8
 42
0.0000001
 43
0.0000001
 44
0.0000000001
 12
0.0039549047
 22
-0.1190082207
 32
0.0
 13
0.1173261304
 23
-0.0203267556
 33
0.0
 40
0.0
 40
0.0
 40
0.0
 40
0.0
 40
0.0631895786
 40
0.1381278062
 40
0.2311077382
 40
0.3447563058
 40
0.4795434537
 40
0.6347609864
 40
1.0
 40
1.0
 40
1.0
 40
1.0
 10
7.0945810213
 20
17.8321597039
 30
0.0
 10
7.0946643242
 20
17.8296530108
 30
0.0
 10
7.0962742696
 20
17.8241931644
 30
0.0
 10
7.102098004
 20
17.8169320765
 30
0.0
 10
7.1110055519
 20
17.8100763845
 30
0.0
 10
7.1229455224
 20
17.8035877821
 30
0.0
 10
7.1377937553
 20
17.7975090519
 30
0.0
 10
7.1626024119
 20
17.789639238
 30
0.0
 10
7.1828608975
 20
17.7853312245
 30
0.0
 10
7.1971449242
 20
17.7828565164
 30
0.0
 11
7.0945810213
 21
17.8321597039
 31
0.0
 11
7.0965288486
 21
17.8248919658
 31
0.0
 11
7.1018586228
 21
17.8177353747
 31
0.0
 11
7.1104912755
 21
17.8108031974
 31
0.0
 11
7.1223005048
 21
17.8041946552
 31
0.0
 11
7.1371097071
 21
17.7980077117
 31
0.0
 11
7.1546998311
 21
17.7923345151
 31
0.0
 11
7.1971449242
 21
17.7828565164
 31
0.0
  0
SPLINE
  5
673
100
AcDbEntity
  8
RACCORDO
100
AcDbSpline
 62
7
  6
CONTINUOUS
 70
0
 71
3
 72
9
 73
5
 74
3
 42
0.0000001
 43
0.0000001
 44
0.0000000001
 12
-0.1981005821
 22
0.3616805249
 32
0.0
 13
-0.1763505813
 23
0.3727695202
 33
0.0
 40
0.0
 40
0.0
 40
0.0
 40
0.0
 40
0.5071625321
 40
1.0
 40
1.0
 40
1.0
 40
1.0
 10
-7.5834748443
 20
23.1816534368
 30
0.0
 10
-7.6169645752
 20
23.2427970404
 30
0.0
 10
-7.6829979543
 20
23.3633471184
 30
0.0
 10
-7.7459925163
 20
23.4855933625
 30
0.0
 10
-7.7749632409
 20
23.5468316246
 30
0.0
 11
-7.5834748443
 21
23.1816534368
 31
0.0
 11
-7.6831622609
 21
23.3655102834
 31
0.0
 11
-7.7749632409
 21
23.5468316246
 31
0.0
  0
SPLINE
  5
674
100
AcDbEntity
  8
RACCORDO
100
AcDbSpline
 62
7
  6
CONTINUOUS
 70
0
 71
3
 72
13
 73
9
 74
7
 42
0.0000001
 43
0.0000001
 44
0.0000000001
 12
-0.4516920964
 22
0.0298440407
 32
0.0
 13
-0.0078990991
 23
0.4526080213
 33
0.0
 40
0.0
 40
0.0
 40
0.0
 40
0.0
 40
0.1503961829
 40
0.2932715444
 40
0.426780211
 40
0.5517680595
 40
0.782436921
 40
1.0
 40
1.0
 40
1.0
 40
1.0
 10
-7.5980009331
 20
22.7696132527
 30
0.0
 10
-7.6206451888
 20
22.771109396
 30
0.0
 10
-7.6646329258
 20
22.7790621773
 30
0.0
 10
-7.7244206265
 20
22.8041912152
 30
0.0
 10
-7.7746724259
 20
22.838723987
 30
0.0
 10
-7.8267692107
 20
22.891513464
 30
0.0
 10
-7.8704172108
 20
22.9682442416
 30
0.0
 10
-7.8828563021
 20
23.0361365948
 30
0.0
 10
-7.8834291528
 20
23.0689601931
 30
0.0
 11
-7.5980009331
 21
22.7696132527
 31
0.0
 11
-7.664997447
 21
22.781715896
 31
0.0
 11
-7.7246330488
 21
22.8067484631
 31
0.0
 11
-7.774449867
 21
22.8409658624
 31
0.0
 11
-7.8141806697
 21
22.8812481147
 31
0.0
 11
-7.8656704815
 21
22.9720887296
 31
0.0
 11
-7.8834291528
 21
23.0689601931
 31
0.0
  0
SPLINE
  5
675
100
AcDbEntity
  8
RACCORDO
100
AcDbSpline
 62
7
  6
CONTINUOUS
 70
0
 71
3
 72
9
 73
5
 74
3
 42
0.0000001
 43
0.0000001
 44
0.0000000001
 12
-0.1763505813
 22
-0.3727695202
 32
0.0
 13
-0.1981005821
 23
-0.3616805249
 33
0.0
 40
0.0
 40
0.0
 40
0.0
 40
0.0
 40
0.4928374652
 40
1.0
 40
1.0
 40
1.0
 40
1.0
 10
8.1692938959
 20
23.5468316246
 30
0.0
 10
8.1403231714
 20
23.4855933628
 30
0.0
 10
8.0773286094
 20
23.3633471187
 30
0.0
 10
8.0112952304
 20
23.2427970407
 30
0.0
 10
7.9778054993
 20
23.1816534368
 30
0.0
 11
8.1692938959
 21
23.5468316246
 31
0.0
 11
8.0774929164
 21
23.3655102843
 31
0.0
 11
7.9778054993
 21
23.1816534368
 31
0.0
  0
SPLINE
  5
676
100
AcDbEntity
  8
RACCORDO
100
AcDbSpline
 62
7
  6
CONTINUOUS
 70
0
 71
3
 72
13
 73
9
 74
7
 42
0.0000001
 43
0.0000001
 44
0.0000000001
 12
0.4516920964
 22
0.0298440407
 32
0.0
 13
0.0078990991
 23
0.4526080213
 33
0.0
 40
0.0
 40
0.0
 40
0.0
 40
0.0
 40
0.1503961829
 40
0.2932715444
 40
0.426780211
 40
0.5517680595
 40
0.782436921
 40
1.0
 40
1.0
 40
1.0
 40
1.0
 10
7.9923315881
 20
22.7696132527
 30
0.0
 10
8.0149758438
 20
22.771109396
 30
0.0
 10
8.0589635807
 20
22.7790621773
 30
0.0
 10
8.1187512815
 20
22.8041912152
 30
0.0
 10
8.1690030808
 20
22.838723987
 30
0.0
 10
8.2210998656
 20
22.891513464
 30
0.0
 10
8.2647478658
 20
22.9682442416
 30
0.0
 10
8.277186957
 20
23.0361365948
 30
0.0
 10
8.2777598078
 20
23.0689601931
 30
0.0
 11
7.9923315881
 21
22.7696132527
 31
0.0
 11
8.059328102
 21
22.781715896
 31
0.0
 11
8.1189637038
 21
22.8067484631
 31
0.0
 11
8.168780522
 21
22.8409658624
 31
0.0
 11
8.2085113246
 21
22.8812481147
 31
0.0
 11
8.2600011364
 21
22.9720887296
 31
0.0
 11
8.2777598078
 21
23.0689601931
 31
0.0
  0
SPLINE
  5
677
100
AcDbEntity
  8
RACCORDO
100
AcDbSpline
 62
7
  6
CONTINUOUS
 70
0
 71
3
 72
13
 73
9
 74
7
 42
0.0000001
 43
0.0000001
 44
0.0000000001
 12
-0.4516920964
 22
-0.0298440407
 32
0.0
 13
-0.0078990991
 23
-0.4526080213
 33
0.0
 40
0.0
 40
0.0
 40
0.0
 40
0.0
 40
0.1503961829
 40
0.2932715444
 40
0.426780211
 40
0.5517680595
 40
0.782436921
 40
1.0
 40
1.0
 40
1.0
 40
1.0
 10
-7.5980009331
 20
-19.0316928666
 30
0.0
 10
-7.6206451888
 20
-19.0331890098
 30
0.0
 10
-7.6646329258
 20
-19.0411417912
 30
0.0
 10
-7.7244206265
 20
-19.066270829
 30
0.0
 10
-7.7746724259
 20
-19.1008036009
 30
0.0
 10
-7.8267692107
 20
-19.1535930779
 30
0.0
 10
-7.8704172108
 20
-19.2303238555
 30
0.0
 10
-7.8828563021
 20
-19.2982162087
 30
0.0
 10
-7.8834291528
 20
-19.3310398069
 30
0.0
 11
-7.5980009331
 21
-19.0316928666
 31
0.0
 11
-7.664997447
 21
-19.0437955099
 31
0.0
 11
-7.7246330488
 21
-19.068828077
 31
0.0
 11
-7.774449867
 21
-19.1030454763
 31
0.0
 11
-7.8141806697
 21
-19.1433277286
 31
0.0
 11
-7.8656704815
 21
-19.2341683435
 31
0.0
 11
-7.8834291528
 21
-19.3310398069
 31
0.0
  0
SPLINE
  5
678
100
AcDbEntity
  8
RACCORDO
100
AcDbSpline
 62
7
  6
CONTINUOUS
 70
0
 71
3
 72
9
 73
5
 74
3
 42
0.0000001
 43
0.0000001
 44
0.0000000001
 12
0.1763505813
 22
0.3727695202
 32
0.0
 13
0.1981005821
 23
0.3616805249
 33
0.0
 40
0.0
 40
0.0
 40
0.0
 40
0.0
 40
0.4928374652
 40
1.0
 40
1.0
 40
1.0
 40
1.0
 10
-7.7749632409
 20
-19.8089112385
 30
0.0
 10
-7.7459925165
 20
-19.7476729767
 30
0.0
 10
-7.6829979545
 20
-19.6254267325
 30
0.0
 10
-7.6169645754
 20
-19.5048766546
 30
0.0
 10
-7.5834748443
 20
-19.4437330506
 30
0.0
 11
-7.7749632409
 21
-19.8089112385
 31
0.0
 11
-7.6831622614
 21
-19.6275898982
 31
0.0
 11
-7.5834748443
 21
-19.4437330506
 31
0.0
  0
SPLINE
  5
679
100
AcDbEntity
  8
RACCORDO
100
AcDbSpline
 62
7
  6
CONTINUOUS
 70
0
 71
3
 72
9
 73
5
 74
3
 42
0.0000001
 43
0.0000001
 44
0.0000000001
 12
0.1981005821
 22
-0.3616805249
 32
0.0
 13
0.1763505813
 23
-0.3727695202
 33
0.0
 40
0.0
 40
0.0
 40
0.0
 40
0.0
 40
0.5071625321
 40
1.0
 40
1.0
 40
1.0
 40
1.0
 10
7.9778054993
 20
-19.4437330506
 30
0.0
 10
8.0112952302
 20
-19.5048766542
 30
0.0
 10
8.0773286092
 20
-19.6254267322
 30
0.0
 10
8.1403231713
 20
-19.7476729764
 30
0.0
 10
8.1692938959
 20
-19.8089112385
 30
0.0
 11
7.9778054993
 21
-19.4437330506
 31
0.0
 11
8.0774929159
 21
-19.6275898972
 31
0.0
 11
8.1692938959
 21
-19.8089112385
 31
0.0
  0
SPLINE
  5
67A
100
AcDbEntity
  8
RACCORDO
100
AcDbSpline
 62
7
  6
CONTINUOUS
 70
0
 71
3
 72
13
 73
9
 74
7
 42
0.0000001
 43
0.0000001
 44
0.0000000001
 12
0.4516920964
 22
-0.0298440407
 32
0.0
 13
0.0078990991
 23
-0.4526080213
 33
0.0
 40
0.0
 40
0.0
 40
0.0
 40
0.0
 40
0.1503961829
 40
0.2932715444
 40
0.426780211
 40
0.5517680595
 40
0.782436921
 40
1.0
 40
1.0
 40
1.0
 40
1.0
 10
7.9923315881
 20
-19.0316928666
 30
0.0
 10
8.0149758438
 20
-19.0331890098
 30
0.0
 10
8.0589635807
 20
-19.0411417912
 30
0.0
 10
8.1187512815
 20
-19.066270829
 30
0.0
 10
8.1690030808
 20
-19.1008036009
 30
0.0
 10
8.2210998656
 20
-19.1535930779
 30
0.0
 10
8.2647478658
 20
-19.2303238555
 30
0.0
 10
8.277186957
 20
-19.2982162087
 30
0.0
 10
8.2777598078
 20
-19.3310398069
 30
0.0
 11
7.9923315881
 21
-19.0316928666
 31
0.0
 11
8.059328102
 21
-19.0437955099
 31
0.0
 11
8.1189637038
 21
-19.068828077
 31
0.0
 11
8.168780522
 21
-19.1030454763
 31
0.0
 11
8.2085113246
 21
-19.1433277286
 31
0.0
 11
8.2600011364
 21
-19.2341683435
 31
0.0
 11
8.2777598078
 21
-19.3310398069
 31
0.0
  0
LINE
  5
67B
100
AcDbEntity
  8
RACCORDO
100
AcDbLine
 62
7
  6
CONTINUOUS
 10
-10.5390582439
 20
-11.5188427745
 11
-10.5391496337
 21
-11.5187656759
  0
LINE
  5
67C
100
AcDbEntity
  8
RACCORDO
100
AcDbLine
 62
7
  6
CONTINUOUS
 10
10.9333888988
 20
-8.9432368394
 11
10.9334802887
 21
-8.9433139379
  0
LINE
  5
67D
100
AcDbEntity
  8
RACCORDO
100
AcDbLine
 62
7
  6
CONTINUOUS
 10
10.9333888988
 20
4.5567631606
 11
10.9334802887
 21
4.5566860621
  0
SPLINE
  5
67E
100
AcDbEntity
  8
RACCORDO
100
AcDbSpline
 62
253
  6
CONTINUOUS
 70
0
 71
3
 72
21
 73
17
 74
15
 42
0.0000001
 43
0.0000001
 44
0.0000000001
 12
-0.4243796043
 22
0.0111871517
 32
0.0
 13
-0.0407724234
 23
-0.4225645636
 33
0.0
 40
0.0
 40
0.0
 40
0.0
 40
0.0
 40
0.1673682674
 40
0.3421735161
 40
0.5137318491
 40
0.5949929352
 40
0.6715638688
 40
0.7422731973
 40
0.8060417465
 40
0.8619006379
 40
0.9090090962
 40
0.9466742188
 40
0.9743812552
 40
0.991879434
 40
0.996930182
 40
1.0
 40
1.0
 40
1.0
 40
1.0
 10
10.5499797109
 20
19.6454494986
 30
0.0
 10
10.5263038179
 20
19.6460736233
 30
0.0
 10
10.4778878846
 20
19.6469113433
 30
0.0
 10
10.405188232
 20
19.6470919582
 30
0.0
 10
10.3446771672
 20
19.64636643
 30
0.0
 10
10.2980787054
 20
19.6452339982
 30
0.0
 10
10.2657555513
 20
19.6441567157
 30
0.0
 10
10.2359178042
 20
19.64285466
 30
0.0
 10
10.2090253844
 20
19.6413497214
 30
0.0
 10
10.1854873751
 20
19.6396686031
 30
0.0
 10
10.1656747525
 20
19.6378436197
 30
0.0
 10
10.1498550076
 20
19.6359155919
 30
0.0
 10
10.138326989
 20
19.6339432399
 30
0.0
 10
10.1313645665
 20
19.6321205798
 30
0.0
 10
10.1281452677
 20
19.6305122487
 30
0.0
 10
10.1273341644
 20
19.6295280006
 30
0.0
 10
10.1272924431
 20
19.6290956019
 30
0.0
 11
10.5499797109
 21
19.6454494986
 31
0.0
 11
10.4789387437
 21
19.6467214924
 31
0.0
 11
10.4047294359
 21
19.6469124016
 31
0.0
 11
10.3319038704
 21
19.6460105102
 31
0.0
 11
10.297416718
 21
19.6451644982
 31
0.0
 11
10.2649286798
 21
19.6440711346
 31
0.0
 11
10.2349398664
 21
19.6427472488
 31
0.0
 11
10.2079118918
 21
19.641213221
 31
0.0
 11
10.1842607828
 21
19.6394926663
 31
0.0
 11
10.1643505866
 21
19.6376120682
 31
0.0
 11
10.148487774
 21
19.6356003811
 31
0.0
 11
10.1369165217
 21
19.6334885471
 31
0.0
 11
10.1298149678
 21
19.6313091433
 31
0.0
 11
10.1279773236
 21
19.6302043502
 31
0.0
 11
10.1272924431
 21
19.6290956019
 31
0.0
  0
SPLINE
  5
67F
100
AcDbEntity
  8
RACCORDO
100
AcDbSpline
 62
253
  6
CONTINUOUS
 70
0
 71
3
 72
20
 73
16
 74
14
 42
0.0000001
 43
0.0000001
 44
0.0000000001
 12
-0.1839878406
 22
-0.3529881224
 32
0.0
 13
-0.3623615897
 23
0.1647610949
 33
0.0
 40
0.0
 40
0.0
 40
0.0
 40
0.0
 40
0.1733547353
 40
0.3501641201
 40
0.5207707956
 40
0.6758702581
 40
0.807045604
 40
0.8614076173
 40
0.9073035047
 40
0.9441782058
 40
0.9591157323
 40
0.9716903948
 40
0.9819181188
 40
0.9898779826
 40
1.0
 40
1.0
 40
1.0
 40
1.0
 10
10.0874883822
 20
20.3963978609
 30
0.0
 10
10.0768566611
 20
20.3760004734
 30
0.0
 10
10.0548755674
 20
20.335061371
 30
0.0
 10
10.020883448
 20
20.2748955867
 30
0.0
 10
9.986823128
 20
20.2175666355
 30
0.0
 10
9.9545748369
 20
20.1662267116
 30
0.0
 10
9.9293595842
 20
20.1286994322
 30
0.0
 10
9.9112806462
 20
20.1038722472
 30
0.0
 10
9.9000839706
 20
20.0895239505
 30
0.0
 10
9.8916424925
 20
20.0796751226
 30
0.0
 10
9.8856798182
 20
20.0735449636
 30
0.0
 10
9.8820076421
 20
20.070153554
 30
0.0
 10
9.8787569343
 20
20.0676170904
 30
0.0
 10
9.875641643
 20
20.0656983384
 30
0.0
 10
9.8729650094
 20
20.0649281882
 30
0.0
 10
9.8717423993
 20
20.0654840931
 30
0.0
 11
10.0874883822
 21
20.3963978609
 31
0.0
 11
10.0548779573
 21
20.3355838626
 31
0.0
 11
10.0202529991
 21
20.274309291
 31
0.0
 11
9.985521489
 21
20.2159506477
 31
0.0
 11
9.9525970931
 21
20.1637234135
 31
0.0
 11
9.9232939349
 21
20.1205052881
 31
0.0
 11
9.9105152075
 21
20.1030420008
 31
0.0
 11
9.8992266146
 21
20.0886775862
 31
0.0
 11
9.8895842049
 21
20.0776105986
 31
0.0
 11
9.8854229213
 21
20.0733633528
 31
0.0
 11
9.8817212399
 21
20.0699940285
 31
0.0
 11
9.8784921415
 21
20.0675145081
 31
0.0
 11
9.8757464741
 21
20.0659331327
 31
0.0
 11
9.8717423993
 21
20.0654840931
 31
0.0
  0
SPLINE
  5
680
100
AcDbEntity
  8
RACCORDO
100
AcDbSpline
 62
253
  6
CONTINUOUS
 70
0
 71
3
 72
11
 73
7
 74
5
 42
0.0000001
 43
0.0000001
 44
0.0000000001
 12
0.0000080157
 22
-0.4291848367
 32
0.0
 13
-0.3251765326
 23
-0.2801068488
 33
0.0
 40
0.0
 40
0.0
 40
0.0
 40
0.0
 40
0.2518387076
 40
0.5005355719
 40
0.7486031474
 40
1.0
 40
1.0
 40
1.0
 40
1.0
 10
10.127321154
 20
12.1087973668
 30
0.0
 10
10.1273218269
 20
12.0727689152
 30
0.0
 10
10.1195588656
 20
12.0009231266
 30
0.0
 10
10.0854051492
 20
11.8985926447
 30
0.0
 10
10.0304389157
 20
11.8058383662
 30
0.0
 10
9.9812327265
 20
11.7531086135
 30
0.0
 10
9.9539832742
 20
11.7296359534
 30
0.0
 11
10.127321154
 21
12.1087973668
 31
0.0
 11
10.1156944068
 21
12.0013391766
 31
0.0
 11
10.0819095499
 21
11.9000902053
 31
0.0
 11
10.027597241
 21
11.8085185856
 31
0.0
 11
9.9539832742
 21
11.7296359534
 31
0.0
  0
SPLINE
  5
681
100
AcDbEntity
  8
RACCORDO
100
AcDbSpline
 62
253
  6
CONTINUOUS
 70
0
 71
3
 72
24
 73
20
 74
18
 42
0.0000001
 43
0.0000001
 44
0.0000000001
 12
0.0001416357
 22
-0.3077122817
 32
0.0
 13
-0.2995722554
 23
-0.070308834
 33
0.0
 40
0.0
 40
0.0
 40
0.0
 40
0.0
 40
0.1928585915
 40
0.3790708749
 40
0.551318186
 40
0.6300597183
 40
0.7028285585
 40
0.7689083225
 40
0.8276492039
 40
0.8784746059
 40
0.9208874405
 40
0.9388076616
 40
0.9544770619
 40
0.9678603969
 40
0.9789273094
 40
0.9876571361
 40
0.9940419009
 40
0.9981012166
 40
1.0
 40
1.0
 40
1.0
 40
1.0
 10
9.6350166089
 20
20.4367982054
 30
0.0
 10
9.6350257141
 20
20.417016553
 30
0.0
 10
9.6349501372
 20
20.3781348482
 30
0.0
 10
9.6345607076
 20
20.3215868394
 30
0.0
 10
9.6340065908
 20
20.2767458851
 30
0.0
 10
9.6334233797
 20
20.2435428653
 30
0.0
 10
9.6329436191
 20
20.2212295617
 30
0.0
 10
9.6324136213
 20
20.2009695132
 30
0.0
 10
9.6318394229
 20
20.1829623476
 30
0.0
 10
9.631227273
 20
20.1673857013
 30
0.0
 10
9.6306662089
 20
20.1559973255
 30
0.0
 10
9.6301894412
 20
20.148216564
 30
0.0
 10
9.6298467142
 20
20.1434097301
 30
0.0
 10
9.6295008679
 20
20.1393116581
 30
0.0
 10
9.6291510847
 20
20.135918694
 30
0.0
 10
9.6288069657
 20
20.1332743862
 30
0.0
 10
9.6284566456
 20
20.1312919357
 30
0.0
 10
9.6281468001
 20
20.1301520094
 30
0.0
 10
9.6278470807
 20
20.1294884581
 30
0.0
 10
9.6276574731
 20
20.1294439577
 30
0.0
 11
9.6350166089
 21
20.4367982054
 31
0.0
 11
9.6348990665
 21
20.3774533583
 31
0.0
 11
9.6344965703
 21
20.3201549593
 31
0.0
 11
9.6338249606
 21
20.2671565958
 31
0.0
 11
9.6333961082
 21
20.2429306522
 31
0.0
 11
9.6329106624
 21
20.2205440467
 31
0.0
 11
9.6323734102
 21
20.2002175885
 31
0.0
 11
9.6317896507
 21
20.1821517249
 31
0.0
 11
9.6311651406
 21
20.1665245966
 31
0.0
 11
9.6305060417
 21
20.1534902986
 31
0.0
 11
9.6301655393
 21
20.1479865488
 31
0.0
 11
9.6298188442
 21
20.1431773619
 31
0.0
 11
9.6294668226
 21
20.1390742177
 31
0.0
 11
9.6291103517
 21
20.1356875011
 31
0.0
 11
9.6287502918
 21
20.1330254659
 31
0.0
 11
9.6283874894
 21
20.1310945838
 31
0.0
 11
9.6280228657
 21
20.1298998856
 31
0.0
 11
9.6276574731
 21
20.1294439577
 31
0.0
  0
SPLINE
  5
682
100
AcDbEntity
  8
RACCORDO
100
AcDbSpline
 62
253
  6
CONTINUOUS
 70
0
 71
3
 72
15
 73
11
 74
9
 42
0.0000001
 43
0.0000001
 44
0.0000000001
 12
0.2231528227
 22
-0.2687952698
 32
0.0
 13
0.2231498024
 23
0.2687977771
 33
0.0
 40
0.0
 40
0.0
 40
0.0
 40
0.0
 40
0.1250030475
 40
0.2500039381
 40
0.3750025444
 40
0.4999999835
 40
0.6249974215
 40
0.7499960264
 40
0.8749969247
 40
1.0
 40
1.0
 40
1.0
 40
1.0
 10
5.5438676168
 20
5.4246696108
 30
0.0
 10
5.5531658777
 20
5.4134695348
 30
0.0
 10
5.5742730332
 20
5.3930239202
 30
0.0
 10
5.6117731549
 20
5.369998745
 30
0.0
 10
5.6534092641
 20
5.3556870709
 30
0.0
 10
5.6971653201
 20
5.3508360608
 30
0.0
 10
5.7409213697
 20
5.3556870781
 30
0.0
 10
5.7825574955
 20
5.3699987426
 30
0.0
 10
5.8200575605
 20
5.3930239583
 30
0.0
 10
5.8411649013
 20
5.4134694268
 30
0.0
 10
5.8504630385
 20
5.4246696097
 30
0.0
 11
5.5438676168
 21
5.4246696108
 31
0.0
 11
5.5752465195
 21
5.3942976058
 31
0.0
 11
5.6124628249
 21
5.371450833
 31
0.0
 11
5.6537627859
 21
5.3572637989
 31
0.0
 11
5.6971653192
 21
5.3524530603
 31
0.0
 11
5.7405678516
 21
5.3572638033
 31
0.0
 11
5.7818678118
 21
5.3714508382
 31
0.0
 11
5.8190841277
 21
5.394297599
 31
0.0
 11
5.8504630385
 21
5.4246696097
 31
0.0
  0
SPLINE
  5
683
100
AcDbEntity
  8
RACCORDO
100
AcDbSpline
 62
253
  6
CONTINUOUS
 70
0
 71
3
 72
15
 73
11
 74
9
 42
0.0000001
 43
0.0000001
 44
0.0000000001
 12
0.223152816
 22
-0.2687952681
 32
0.0
 13
0.2231497958
 23
0.2687977754
 33
0.0
 40
0.0
 40
0.0
 40
0.0
 40
0.0
 40
0.1250030466
 40
0.2500039374
 40
0.375002544
 40
0.4999999834
 40
0.6249974218
 40
0.7499960271
 40
0.8749969256
 40
1.0
 40
1.0
 40
1.0
 40
1.0
 10
0.0438676246
 20
5.4246695901
 30
0.0
 10
0.0531658852
 20
5.4134695143
 30
0.0
 10
0.0742730331
 20
5.3930238926
 30
0.0
 10
0.1117731566
 20
5.36999872
 30
0.0
 10
0.1534092645
 20
5.3556870452
 30
0.0
 10
0.1971653201
 20
5.3508360353
 30
0.0
 10
0.2409213692
 20
5.3556870526
 30
0.0
 10
0.2825574937
 20
5.3699987179
 30
0.0
 10
0.3200575603
 20
5.3930239311
 30
0.0
 10
0.3411648937
 20
5.4134694064
 30
0.0
 10
0.3504630306
 20
5.4246695892
 30
0.0
 11
0.0438676246
 21
5.4246695901
 31
0.0
 11
0.0752465215
 21
5.3942975805
 31
0.0
 11
0.1124628261
 21
5.3714508075
 31
0.0
 11
0.1537627864
 21
5.3572637733
 31
0.0
 11
0.1971653191
 21
5.3524530348
 31
0.0
 11
0.240567851
 21
5.3572637779
 31
0.0
 11
0.2818678105
 21
5.371450813
 31
0.0
 11
0.3190841255
 21
5.3942975741
 31
0.0
 11
0.3504630306
 21
5.4246695892
 31
0.0
  0
SPLINE
  5
684
100
AcDbEntity
  8
RACCORDO
100
AcDbSpline
 62
253
  6
CONTINUOUS
 70
0
 71
3
 72
15
 73
11
 74
9
 42
0.0000001
 43
0.0000001
 44
0.0000000001
 12
0.223152816
 22
-0.2687952681
 32
0.0
 13
0.2231497958
 23
0.2687977754
 33
0.0
 40
0.0
 40
0.0
 40
0.0
 40
0.0
 40
0.1250030466
 40
0.2500039374
 40
0.375002544
 40
0.4999999834
 40
0.6249974218
 40
0.7499960271
 40
0.8749969256
 40
1.0
 40
1.0
 40
1.0
 40
1.0
 10
-5.4561323754
 20
5.4246695901
 30
0.0
 10
-5.4468341148
 20
5.4134695143
 30
0.0
 10
-5.4257269669
 20
5.3930238926
 30
0.0
 10
-5.3882268434
 20
5.36999872
 30
0.0
 10
-5.3465907355
 20
5.3556870452
 30
0.0
 10
-5.3028346799
 20
5.3508360353
 30
0.0
 10
-5.2590786308
 20
5.3556870526
 30
0.0
 10
-5.2174425063
 20
5.3699987179
 30
0.0
 10
-5.1799424397
 20
5.3930239311
 30
0.0
 10
-5.1588351063
 20
5.4134694064
 30
0.0
 10
-5.1495369694
 20
5.4246695892
 30
0.0
 11
-5.4561323754
 21
5.4246695901
 31
0.0
 11
-5.4247534785
 21
5.3942975805
 31
0.0
 11
-5.3875371739
 21
5.3714508075
 31
0.0
 11
-5.3462372136
 21
5.3572637733
 31
0.0
 11
-5.3028346809
 21
5.3524530348
 31
0.0
 11
-5.259432149
 21
5.3572637779
 31
0.0
 11
-5.2181321895
 21
5.371450813
 31
0.0
 11
-5.1809158745
 21
5.3942975741
 31
0.0
 11
-5.1495369694
 21
5.4246695892
 31
0.0
  0
SPLINE
  5
685
100
AcDbEntity
  8
RACCORDO
100
AcDbSpline
 62
253
  6
CONTINUOUS
 70
0
 71
3
 72
15
 73
11
 74
9
 42
0.0000001
 43
0.0000001
 44
0.0000000001
 12
-0.2231528227
 22
0.2687952698
 32
0.0
 13
-0.2231498024
 23
-0.2687977771
 33
0.0
 40
0.0
 40
0.0
 40
0.0
 40
0.0
 40
0.1250030475
 40
0.2500039381
 40
0.3750025444
 40
0.4999999835
 40
0.6249974215
 40
0.7499960264
 40
0.8749969247
 40
1.0
 40
1.0
 40
1.0
 40
1.0
 10
-5.1495369618
 20
1.1132507754
 30
0.0
 10
-5.1588352228
 20
1.1244508513
 30
0.0
 10
-5.1799423782
 20
1.144896466
 30
0.0
 10
-5.2174425
 20
1.1679216412
 30
0.0
 10
-5.2590786091
 20
1.1822333153
 30
0.0
 10
-5.3028346652
 20
1.1870843254
 30
0.0
 10
-5.3465907147
 20
1.182233308
 30
0.0
 10
-5.3882268405
 20
1.1679216435
 30
0.0
 10
-5.4257269055
 20
1.1448964278
 30
0.0
 10
-5.4468342463
 20
1.1244509594
 30
0.0
 10
-5.4561323835
 20
1.1132507764
 30
0.0
 11
-5.1495369618
 21
1.1132507754
 31
0.0
 11
-5.1809158646
 21
1.1436227803
 31
0.0
 11
-5.21813217
 21
1.1664695532
 31
0.0
 11
-5.2594321309
 21
1.1806565873
 31
0.0
 11
-5.3028346642
 21
1.1854673258
 31
0.0
 11
-5.3462371966
 21
1.1806565828
 31
0.0
 11
-5.3875371568
 21
1.1664695479
 31
0.0
 11
-5.4247534728
 21
1.1436227871
 31
0.0
 11
-5.4561323835
 21
1.1132507764
 31
0.0
  0
SPLINE
  5
686
100
AcDbEntity
  8
RACCORDO
100
AcDbSpline
 62
253
  6
CONTINUOUS
 70
0
 71
3
 72
15
 73
11
 74
9
 42
0.0000001
 43
0.0000001
 44
0.0000000001
 12
-0.223152816
 22
0.2687952681
 32
0.0
 13
-0.2231497958
 23
-0.2687977754
 33
0.0
 40
0.0
 40
0.0
 40
0.0
 40
0.0
 40
0.1250030466
 40
0.2500039374
 40
0.375002544
 40
0.4999999834
 40
0.6249974218
 40
0.7499960271
 40
0.8749969256
 40
1.0
 40
1.0
 40
1.0
 40
1.0
 10
0.3504630304
 20
1.1132507961
 30
0.0
 10
0.3411647697
 20
1.1244508719
 30
0.0
 10
0.3200576219
 20
1.1448964936
 30
0.0
 10
0.2825574983
 20
1.1679216661
 30
0.0
 10
0.2409213905
 20
1.182233341
 30
0.0
 10
0.1971653349
 20
1.1870843508
 30
0.0
 10
0.1534092858
 20
1.1822333335
 30
0.0
 10
0.1117731613
 20
1.1679216682
 30
0.0
 10
0.0742730947
 20
1.144896455
 30
0.0
 10
0.0531657612
 20
1.1244509797
 30
0.0
 10
0.0438676244
 20
1.1132507969
 30
0.0
 11
0.3504630304
 21
1.1132507961
 31
0.0
 11
0.3190841334
 21
1.1436228056
 31
0.0
 11
0.2818678289
 21
1.1664695787
 31
0.0
 11
0.2405678685
 21
1.1806566128
 31
0.0
 11
0.1971653358
 21
1.1854673513
 31
0.0
 11
0.153762804
 21
1.1806566082
 31
0.0
 11
0.1124628444
 21
1.1664695731
 31
0.0
 11
0.0752465294
 21
1.1436228121
 31
0.0
 11
0.0438676244
 21
1.1132507969
 31
0.0
  0
SPLINE
  5
687
100
AcDbEntity
  8
RACCORDO
100
AcDbSpline
 62
253
  6
CONTINUOUS
 70
0
 71
3
 72
15
 73
11
 74
9
 42
0.0000001
 43
0.0000001
 44
0.0000000001
 12
-0.223152816
 22
0.2687952681
 32
0.0
 13
-0.2231497958
 23
-0.2687977754
 33
0.0
 40
0.0
 40
0.0
 40
0.0
 40
0.0
 40
0.1250030466
 40
0.2500039374
 40
0.375002544
 40
0.4999999834
 40
0.6249974218
 40
0.7499960271
 40
0.8749969256
 40
1.0
 40
1.0
 40
1.0
 40
1.0
 10
5.8504630304
 20
1.1132507961
 30
0.0
 10
5.8411647697
 20
1.1244508719
 30
0.0
 10
5.8200576219
 20
1.1448964936
 30
0.0
 10
5.7825574983
 20
1.1679216661
 30
0.0
 10
5.7409213905
 20
1.182233341
 30
0.0
 10
5.6971653349
 20
1.1870843508
 30
0.0
 10
5.6534092858
 20
1.1822333335
 30
0.0
 10
5.6117731613
 20
1.1679216682
 30
0.0
 10
5.5742730947
 20
1.144896455
 30
0.0
 10
5.5531657612
 20
1.1244509797
 30
0.0
 10
5.5438676244
 20
1.1132507969
 30
0.0
 11
5.8504630304
 21
1.1132507961
 31
0.0
 11
5.8190841334
 21
1.1436228056
 31
0.0
 11
5.7818678289
 21
1.1664695787
 31
0.0
 11
5.7405678685
 21
1.1806566128
 31
0.0
 11
5.6971653358
 21
1.1854673513
 31
0.0
 11
5.653762804
 21
1.1806566082
 31
0.0
 11
5.6124628444
 21
1.1664695731
 31
0.0
 11
5.5752465294
 21
1.1436228121
 31
0.0
 11
5.5438676244
 21
1.1132507969
 31
0.0
  0
SPLINE
  5
688
100
AcDbEntity
  8
RACCORDO
100
AcDbSpline
 62
253
  6
CONTINUOUS
 70
0
 71
3
 72
15
 73
11
 74
9
 42
0.0000001
 43
0.0000001
 44
0.0000000001
 12
0.2231528227
 22
-0.2687952698
 32
0.0
 13
0.2231498024
 23
0.2687977771
 33
0.0
 40
0.0
 40
0.0
 40
0.0
 40
0.0
 40
0.1250030475
 40
0.2500039381
 40
0.3750025444
 40
0.4999999835
 40
0.6249974215
 40
0.7499960264
 40
0.8749969247
 40
1.0
 40
1.0
 40
1.0
 40
1.0
 10
5.5438676168
 20
-8.0753303892
 30
0.0
 10
5.5531658777
 20
-8.0865304652
 30
0.0
 10
5.5742730332
 20
-8.1069760798
 30
0.0
 10
5.6117731549
 20
-8.130001255
 30
0.0
 10
5.6534092641
 20
-8.1443129291
 30
0.0
 10
5.6971653201
 20
-8.1491639392
 30
0.0
 10
5.7409213697
 20
-8.1443129219
 30
0.0
 10
5.7825574955
 20
-8.1300012574
 30
0.0
 10
5.8200575605
 20
-8.1069760417
 30
0.0
 10
5.8411649013
 20
-8.0865305732
 30
0.0
 10
5.8504630385
 20
-8.0753303903
 30
0.0
 11
5.5438676168
 21
-8.0753303892
 31
0.0
 11
5.5752465195
 21
-8.1057023942
 31
0.0
 11
5.6124628249
 21
-8.128549167
 31
0.0
 11
5.6537627859
 21
-8.1427362011
 31
0.0
 11
5.6971653192
 21
-8.1475469397
 31
0.0
 11
5.7405678516
 21
-8.1427361967
 31
0.0
 11
5.7818678118
 21
-8.1285491618
 31
0.0
 11
5.8190841277
 21
-8.105702401
 31
0.0
 11
5.8504630385
 21
-8.0753303903
 31
0.0
  0
SPLINE
  5
689
100
AcDbEntity
  8
RACCORDO
100
AcDbSpline
 62
253
  6
CONTINUOUS
 70
0
 71
3
 72
15
 73
11
 74
9
 42
0.0000001
 43
0.0000001
 44
0.0000000001
 12
0.223152816
 22
-0.2687952681
 32
0.0
 13
0.2231497958
 23
0.2687977754
 33
0.0
 40
0.0
 40
0.0
 40
0.0
 40
0.0
 40
0.1250030466
 40
0.2500039374
 40
0.375002544
 40
0.4999999834
 40
0.6249974218
 40
0.7499960271
 40
0.8749969256
 40
1.0
 40
1.0
 40
1.0
 40
1.0
 10
0.0438676246
 20
-8.0753304099
 30
0.0
 10
0.0531658852
 20
-8.0865304857
 30
0.0
 10
0.0742730331
 20
-8.1069761074
 30
0.0
 10
0.1117731566
 20
-8.13000128
 30
0.0
 10
0.1534092645
 20
-8.1443129548
 30
0.0
 10
0.1971653201
 20
-8.1491639647
 30
0.0
 10
0.2409213692
 20
-8.1443129474
 30
0.0
 10
0.2825574937
 20
-8.1300012821
 30
0.0
 10
0.3200575603
 20
-8.1069760689
 30
0.0
 10
0.3411648937
 20
-8.0865305936
 30
0.0
 10
0.3504630306
 20
-8.0753304108
 30
0.0
 11
0.0438676246
 21
-8.0753304099
 31
0.0
 11
0.0752465215
 21
-8.1057024195
 31
0.0
 11
0.1124628261
 21
-8.1285491925
 31
0.0
 11
0.1537627864
 21
-8.1427362267
 31
0.0
 11
0.1971653191
 21
-8.1475469652
 31
0.0
 11
0.240567851
 21
-8.1427362221
 31
0.0
 11
0.2818678105
 21
-8.128549187
 31
0.0
 11
0.3190841255
 21
-8.1057024259
 31
0.0
 11
0.3504630306
 21
-8.0753304108
 31
0.0
  0
SPLINE
  5
68A
100
AcDbEntity
  8
RACCORDO
100
AcDbSpline
 62
253
  6
CONTINUOUS
 70
0
 71
3
 72
15
 73
11
 74
9
 42
0.0000001
 43
0.0000001
 44
0.0000000001
 12
0.223152816
 22
-0.2687952681
 32
0.0
 13
0.2231497958
 23
0.2687977754
 33
0.0
 40
0.0
 40
0.0
 40
0.0
 40
0.0
 40
0.1250030466
 40
0.2500039374
 40
0.375002544
 40
0.4999999834
 40
0.6249974218
 40
0.7499960271
 40
0.8749969256
 40
1.0
 40
1.0
 40
1.0
 40
1.0
 10
-5.4561323754
 20
-8.0753304099
 30
0.0
 10
-5.4468341148
 20
-8.0865304857
 30
0.0
 10
-5.4257269669
 20
-8.1069761074
 30
0.0
 10
-5.3882268434
 20
-8.13000128
 30
0.0
 10
-5.3465907355
 20
-8.1443129548
 30
0.0
 10
-5.3028346799
 20
-8.1491639647
 30
0.0
 10
-5.2590786308
 20
-8.1443129474
 30
0.0
 10
-5.2174425063
 20
-8.1300012821
 30
0.0
 10
-5.1799424397
 20
-8.1069760689
 30
0.0
 10
-5.1588351063
 20
-8.0865305936
 30
0.0
 10
-5.1495369694
 20
-8.0753304108
 30
0.0
 11
-5.4561323754
 21
-8.0753304099
 31
0.0
 11
-5.4247534785
 21
-8.1057024195
 31
0.0
 11
-5.3875371739
 21
-8.1285491925
 31
0.0
 11
-5.3462372136
 21
-8.1427362267
 31
0.0
 11
-5.3028346809
 21
-8.1475469652
 31
0.0
 11
-5.259432149
 21
-8.1427362221
 31
0.0
 11
-5.2181321895
 21
-8.128549187
 31
0.0
 11
-5.1809158745
 21
-8.1057024259
 31
0.0
 11
-5.1495369694
 21
-8.0753304108
 31
0.0
  0
SPLINE
  5
68B
100
AcDbEntity
  8
RACCORDO
100
AcDbSpline
 62
253
  6
CONTINUOUS
 70
0
 71
3
 72
15
 73
11
 74
9
 42
0.0000001
 43
0.0000001
 44
0.0000000001
 12
-0.2231528227
 22
0.2687952698
 32
0.0
 13
-0.2231498024
 23
-0.2687977771
 33
0.0
 40
0.0
 40
0.0
 40
0.0
 40
0.0
 40
0.1250030475
 40
0.2500039381
 40
0.3750025444
 40
0.4999999835
 40
0.6249974215
 40
0.7499960264
 40
0.8749969247
 40
1.0
 40
1.0
 40
1.0
 40
1.0
 10
-5.1495369618
 20
-12.3867492246
 30
0.0
 10
-5.1588352228
 20
-12.3755491487
 30
0.0
 10
-5.1799423782
 20
-12.355103534
 30
0.0
 10
-5.2174425
 20
-12.3320783588
 30
0.0
 10
-5.2590786091
 20
-12.3177666847
 30
0.0
 10
-5.3028346652
 20
-12.3129156746
 30
0.0
 10
-5.3465907147
 20
-12.317766692
 30
0.0
 10
-5.3882268405
 20
-12.3320783565
 30
0.0
 10
-5.4257269055
 20
-12.3551035722
 30
0.0
 10
-5.4468342463
 20
-12.3755490406
 30
0.0
 10
-5.4561323835
 20
-12.3867492236
 30
0.0
 11
-5.1495369618
 21
-12.3867492246
 31
0.0
 11
-5.1809158646
 21
-12.3563772197
 31
0.0
 11
-5.21813217
 21
-12.3335304468
 31
0.0
 11
-5.2594321309
 21
-12.3193434127
 31
0.0
 11
-5.3028346642
 21
-12.3145326742
 31
0.0
 11
-5.3462371966
 21
-12.3193434172
 31
0.0
 11
-5.3875371568
 21
-12.3335304521
 31
0.0
 11
-5.4247534728
 21
-12.3563772129
 31
0.0
 11
-5.4561323835
 21
-12.3867492236
 31
0.0
  0
SPLINE
  5
68C
100
AcDbEntity
  8
RACCORDO
100
AcDbSpline
 62
253
  6
CONTINUOUS
 70
0
 71
3
 72
15
 73
11
 74
9
 42
0.0000001
 43
0.0000001
 44
0.0000000001
 12
-0.223152816
 22
0.2687952681
 32
0.0
 13
-0.2231497958
 23
-0.2687977754
 33
0.0
 40
0.0
 40
0.0
 40
0.0
 40
0.0
 40
0.1250030466
 40
0.2500039374
 40
0.375002544
 40
0.4999999834
 40
0.6249974218
 40
0.7499960271
 40
0.8749969256
 40
1.0
 40
1.0
 40
1.0
 40
1.0
 10
0.3504630304
 20
-12.3867492039
 30
0.0
 10
0.3411647697
 20
-12.3755491281
 30
0.0
 10
0.3200576219
 20
-12.3551035064
 30
0.0
 10
0.2825574983
 20
-12.3320783339
 30
0.0
 10
0.2409213905
 20
-12.317766659
 30
0.0
 10
0.1971653349
 20
-12.3129156492
 30
0.0
 10
0.1534092858
 20
-12.3177666665
 30
0.0
 10
0.1117731613
 20
-12.3320783318
 30
0.0
 10
0.0742730947
 20
-12.355103545
 30
0.0
 10
0.0531657612
 20
-12.3755490203
 30
0.0
 10
0.0438676244
 20
-12.3867492031
 30
0.0
 11
0.3504630304
 21
-12.3867492039
 31
0.0
 11
0.3190841334
 21
-12.3563771944
 31
0.0
 11
0.2818678289
 21
-12.3335304213
 31
0.0
 11
0.2405678685
 21
-12.3193433872
 31
0.0
 11
0.1971653358
 21
-12.3145326487
 31
0.0
 11
0.153762804
 21
-12.3193433918
 31
0.0
 11
0.1124628444
 21
-12.3335304269
 31
0.0
 11
0.0752465294
 21
-12.3563771879
 31
0.0
 11
0.0438676244
 21
-12.3867492031
 31
0.0
  0
SPLINE
  5
68D
100
AcDbEntity
  8
RACCORDO
100
AcDbSpline
 62
253
  6
CONTINUOUS
 70
0
 71
3
 72
15
 73
11
 74
9
 42
0.0000001
 43
0.0000001
 44
0.0000000001
 12
-0.223152816
 22
0.2687952681
 32
0.0
 13
-0.2231497958
 23
-0.2687977754
 33
0.0
 40
0.0
 40
0.0
 40
0.0
 40
0.0
 40
0.1250030466
 40
0.2500039374
 40
0.375002544
 40
0.4999999834
 40
0.6249974218
 40
0.7499960271
 40
0.8749969256
 40
1.0
 40
1.0
 40
1.0
 40
1.0
 10
5.8504630304
 20
-12.3867492039
 30
0.0
 10
5.8411647697
 20
-12.3755491281
 30
0.0
 10
5.8200576219
 20
-12.3551035064
 30
0.0
 10
5.7825574983
 20
-12.3320783339
 30
0.0
 10
5.7409213905
 20
-12.317766659
 30
0.0
 10
5.6971653349
 20
-12.3129156492
 30
0.0
 10
5.6534092858
 20
-12.3177666665
 30
0.0
 10
5.6117731613
 20
-12.3320783318
 30
0.0
 10
5.5742730947
 20
-12.355103545
 30
0.0
 10
5.5531657612
 20
-12.3755490203
 30
0.0
 10
5.5438676244
 20
-12.3867492031
 30
0.0
 11
5.8504630304
 21
-12.3867492039
 31
0.0
 11
5.8190841334
 21
-12.3563771944
 31
0.0
 11
5.7818678289
 21
-12.3335304213
 31
0.0
 11
5.7405678685
 21
-12.3193433872
 31
0.0
 11
5.6971653358
 21
-12.3145326487
 31
0.0
 11
5.653762804
 21
-12.3193433918
 31
0.0
 11
5.6124628444
 21
-12.3335304269
 31
0.0
 11
5.5752465294
 21
-12.3563771879
 31
0.0
 11
5.5438676244
 21
-12.3867492031
 31
0.0
  0
LINE
  5
68E
100
AcDbEntity
  8
RACCORDO
100
AcDbLine
 62
7
  6
CONTINUOUS
 10
-10.5391496337
 20
4.5566860621
 11
-10.5390582439
 21
4.5567631606
  0
SPLINE
  5
68F
100
AcDbEntity
  8
RACCORDO
100
AcDbSpline
 62
253
  6
CONTINUOUS
 70
0
 71
3
 72
11
 73
7
 74
5
 42
0.0000001
 43
0.0000001
 44
0.0000000001
 12
-0.115259124
 22
-0.1620089561
 32
0.0
 13
0.0530601063
 23
-0.1916146984
 33
0.0
 40
0.0
 40
0.0
 40
0.0
 40
0.0
 40
0.2315642374
 40
0.4734478533
 40
0.729250277
 40
1.0
 40
1.0
 40
1.0
 40
1.0
 10
10.8525653376
 20
-12.2328627455
 30
0.0
 10
10.8436687072
 20
-12.2453679056
 30
0.0
 10
10.8288703457
 20
-12.2735028894
 30
0.0
 10
10.8174914987
 20
-12.3209141659
 30
0.0
 10
10.8167955995
 20
-12.3722034029
 30
0.0
 10
10.8232251301
 20
-12.406743431
 30
0.0
 10
10.8280137998
 20
-12.4240366398
 30
0.0
 11
10.8525653376
 21
-12.2328627455
 31
0.0
 11
10.8309657404
 21
-12.2735225408
 31
0.0
 11
10.8194365552
 21
-12.3202127789
 31
0.0
 11
10.8184390958
 21
-12.3710630341
 31
0.0
 11
10.8280137998
 21
-12.4240366398
 31
0.0
  0
SPLINE
  5
690
100
AcDbEntity
  8
RACCORDO
100
AcDbSpline
 62
253
  6
CONTINUOUS
 70
0
 71
3
 72
11
 73
7
 74
5
 42
0.0000001
 43
0.0000001
 44
0.0000000001
 12
0.1152596969
 22
-0.1620081968
 32
0.0
 13
-0.0530596819
 23
-0.1916145186
 33
0.0
 40
0.0
 40
0.0
 40
0.0
 40
0.0
 40
0.2315642597
 40
0.4734478452
 40
0.729250246
 40
1.0
 40
1.0
 40
1.0
 40
1.0
 10
-10.4582351067
 20
-12.2328633158
 30
0.0
 10
-10.4493384312
 20
-12.2453684185
 30
0.0
 10
-10.4345399658
 20
-12.273503297
 30
0.0
 10
-10.4231609579
 20
-12.3209144636
 30
0.0
 10
-10.4224649107
 20
-12.372203626
 30
0.0
 10
-10.4288943591
 20
-12.4067436203
 30
0.0
 10
-10.4336829911
 20
-12.4240368149
 30
0.0
 11
-10.4582351067
 21
-12.2328633158
 31
0.0
 11
-10.4366353613
 21
-12.2735229623
 31
0.0
 11
-10.4251060206
 21
-12.3202130844
 31
0.0
 11
-10.4241084141
 21
-12.3710632588
 31
0.0
 11
-10.4336829911
 21
-12.4240368149
 31
0.0
  0
SPLINE
  5
691
100
AcDbEntity
  8
RACCORDO
100
AcDbSpline
 62
253
  6
CONTINUOUS
 70
0
 71
3
 72
11
 73
7
 74
5
 42
0.0000001
 43
0.0000001
 44
0.0000000001
 12
0.1152591314
 22
0.1620089561
 32
0.0
 13
-0.0530601143
 23
0.1916147007
 33
0.0
 40
0.0
 40
0.0
 40
0.0
 40
0.0
 40
0.2315642334
 40
0.4734478476
 40
0.7292502727
 40
1.0
 40
1.0
 40
1.0
 40
1.0
 10
-10.4582346773
 20
-8.2292168648
 30
0.0
 10
-10.4493380465
 20
-8.2167117049
 30
0.0
 10
-10.4345396844
 20
-8.188576721
 30
0.0
 10
-10.4231608375
 20
-8.1411654436
 30
0.0
 10
-10.4224649394
 20
-8.0898762051
 30
0.0
 10
-10.4288944713
 20
-8.0553361761
 30
0.0
 10
-10.4336831418
 20
-8.0380429668
 30
0.0
 11
-10.4582346773
 21
-8.2292168648
 31
0.0
 11
-10.4366350793
 21
-8.1885570697
 31
0.0
 11
-10.4251058941
 21
-8.1418668308
 31
0.0
 11
-10.4241084358
 21
-8.0910165742
 31
0.0
 11
-10.4336831418
 21
-8.0380429668
 31
0.0
  0
SPLINE
  5
692
100
AcDbEntity
  8
RACCORDO
100
AcDbSpline
 62
253
  6
CONTINUOUS
 70
0
 71
3
 72
11
 73
7
 74
5
 42
0.0000001
 43
0.0000001
 44
0.0000000001
 12
-0.1152597771
 22
0.1620082086
 32
0.0
 13
0.0530598032
 23
0.1916145432
 33
0.0
 40
0.0
 40
0.0
 40
0.0
 40
0.0
 40
0.231564255
 40
0.473447826
 40
0.7292502241
 40
1.0
 40
1.0
 40
1.0
 40
1.0
 10
10.8525657703
 20
-8.2292164856
 30
0.0
 10
10.8436690889
 20
-8.2167113822
 30
0.0
 10
10.8288706147
 20
-8.1885764987
 30
0.0
 10
10.8174916091
 20
-8.1411653178
 30
0.0
 10
10.8167955797
 20
-8.0898761397
 30
0.0
 10
10.823225048
 20
-8.0553361374
 30
0.0
 10
10.8280136913
 20
-8.0380429392
 30
0.0
 11
10.8525657703
 21
-8.2292164856
 31
0.0
 11
10.8309660126
 21
-8.188556832
 31
0.0
 11
10.8194366743
 21
-8.1418666983
 31
0.0
 11
10.8184390844
 21
-8.0910165098
 31
0.0
 11
10.8280136913
 21
-8.0380429392
 31
0.0
  0
SPLINE
  5
693
100
AcDbEntity
  8
RACCORDO
100
AcDbSpline
 62
253
  6
CONTINUOUS
 70
0
 71
3
 72
11
 73
7
 74
5
 42
0.0000001
 43
0.0000001
 44
0.0000000001
 12
-0.1152591314
 22
-0.1620089561
 32
0.0
 13
0.0530601143
 23
-0.1916147007
 33
0.0
 40
0.0
 40
0.0
 40
0.0
 40
0.0
 40
0.2315642334
 40
0.4734478476
 40
0.7292502727
 40
1.0
 40
1.0
 40
1.0
 40
1.0
 10
10.8525653323
 20
1.267137251
 30
0.0
 10
10.8436687015
 20
1.2546320911
 30
0.0
 10
10.8288703394
 20
1.2264971072
 30
0.0
 10
10.8174914925
 20
1.1790858297
 30
0.0
 10
10.8167955944
 20
1.1277965913
 30
0.0
 10
10.8232251263
 20
1.0932565623
 30
0.0
 10
10.8280137968
 20
1.0759633529
 30
0.0
 11
10.8525653323
 21
1.267137251
 31
0.0
 11
10.8309657342
 21
1.2264774558
 31
0.0
 11
10.8194365491
 21
1.179787217
 31
0.0
 11
10.8184390908
 21
1.1289369604
 31
0.0
 11
10.8280137968
 21
1.0759633529
 31
0.0
  0
SPLINE
  5
694
100
AcDbEntity
  8
RACCORDO
100
AcDbSpline
 62
253
  6
CONTINUOUS
 70
0
 71
3
 72
11
 73
7
 74
5
 42
0.0000001
 43
0.0000001
 44
0.0000000001
 12
0.1152597096
 22
-0.1620082704
 32
0.0
 13
-0.0530598199
 23
-0.1916145502
 33
0.0
 40
0.0
 40
0.0
 40
0.0
 40
0.0
 40
0.2315642607
 40
0.4734478394
 40
0.7292502377
 40
1.0
 40
1.0
 40
1.0
 40
1.0
 10
-10.4582351383
 20
1.267137075
 30
0.0
 10
-10.4493384618
 20
1.2546319666
 30
0.0
 10
-10.4345399978
 20
1.2264970751
 30
0.0
 10
-10.4231610043
 20
1.179085888
 30
0.0
 10
-10.4224649834
 20
1.1277967076
 30
0.0
 10
-10.4288944551
 20
1.0932567049
 30
0.0
 10
-10.4336830996
 20
1.075963507
 30
0.0
 11
-10.4582351383
 21
1.267137075
 31
0.0
 11
-10.436635395
 21
1.2264774096
 31
0.0
 11
-10.4251060685
 21
1.1797872686
 31
0.0
 11
-10.4241084875
 21
1.1289370769
 31
0.0
 11
-10.4336830996
 21
1.075963507
 31
0.0
  0
SPLINE
  5
695
100
AcDbEntity
  8
RACCORDO
100
AcDbSpline
 62
253
  6
CONTINUOUS
 70
0
 71
3
 72
11
 73
7
 74
5
 42
0.0000001
 43
0.0000001
 44
0.0000000001
 12
0.1152591218
 22
0.1620089415
 32
0.0
 13
-0.0530600846
 23
0.1916146908
 33
0.0
 40
0.0
 40
0.0
 40
0.0
 40
0.0
 40
0.2315642429
 40
0.4734478607
 40
0.7292502824
 40
1.0
 40
1.0
 40
1.0
 40
1.0
 10
-10.4582347116
 20
5.2707831021
 30
0.0
 10
-10.4493380811
 20
5.2832882614
 30
0.0
 10
-10.434539719
 20
5.3114232429
 30
0.0
 10
-10.4231608692
 20
5.3588345158
 30
0.0
 10
-10.4224649655
 20
5.4101237489
 30
0.0
 10
-10.4288944923
 20
5.4446637748
 30
0.0
 10
-10.43368316
 20
5.4619569826
 30
0.0
 11
-10.4582347116
 21
5.2707831021
 31
0.0
 11
-10.4366351133
 21
5.3114428946
 31
0.0
 11
-10.4251059254
 21
5.3581331292
 31
0.0
 11
-10.4241084617
 21
5.4089833805
 31
0.0
 11
-10.43368316
 21
5.4619569826
 31
0.0
  0
SPLINE
  5
696
100
AcDbEntity
  8
RACCORDO
100
AcDbSpline
 62
253
  6
CONTINUOUS
 70
0
 71
3
 72
11
 73
7
 74
5
 42
0.0000001
 43
0.0000001
 44
0.0000000001
 12
-0.1152596896
 22
0.1620082004
 32
0.0
 13
0.0530596785
 23
0.1916145182
 33
0.0
 40
0.0
 40
0.0
 40
0.0
 40
0.0
 40
0.2315642602
 40
0.4734478468
 40
0.7292502477
 40
1.0
 40
1.0
 40
1.0
 40
1.0
 10
10.8525657628
 20
5.2707836955
 30
0.0
 10
10.8436690879
 20
5.2832887985
 30
0.0
 10
10.8288706235
 20
5.3114236773
 30
0.0
 10
10.8174916162
 20
5.3588348438
 30
0.0
 10
10.8167955689
 20
5.4101240059
 30
0.0
 10
10.8232250169
 20
5.4446639999
 30
0.0
 10
10.8280136485
 20
5.4619571943
 30
0.0
 11
10.8525657628
 21
5.2707836955
 31
0.0
 11
10.8309660188
 21
5.3114433425
 31
0.0
 11
10.8194366789
 21
5.3581334646
 31
0.0
 11
10.8184390723
 21
5.4089836387
 31
0.0
 11
10.8280136485
 21
5.4619571943
 31
0.0
  0
SPLINE
  5
697
100
AcDbEntity
  8
RACCORDO
100
AcDbSpline
 62
253
  6
CONTINUOUS
 70
0
 71
3
 72
11
 73
7
 74
5
 42
0.0000001
 43
0.0000001
 44
0.0000000001
 12
0.2166741649
 22
-0.1878774798
 32
0.0
 13
0.0126158352
 23
-0.2865073853
 33
0.0
 40
0.0
 40
0.0
 40
0.0
 40
0.0
 40
0.2781625123
 40
0.5323635472
 40
0.7705925926
 40
1.0
 40
1.0
 40
1.0
 40
1.0
 10
10.8525664024
 20
5.2707831491
 30
0.0
 10
10.8726566124
 20
5.2533629918
 30
0.0
 10
10.9081525686
 20
5.2163615673
 30
0.0
 10
10.9479156294
 20
5.1537812315
 30
0.0
 10
10.9725311097
 20
5.0888099539
 30
0.0
 10
10.9793396091
 20
5.0442286807
 30
0.0
 10
10.9803043311
 20
5.0223197086
 30
0.0
 11
10.8525664024
 21
5.2707831491
 31
0.0
 11
10.9075591313
 21
5.2129946941
 31
0.0
 11
10.9464434583
 21
5.1513296991
 31
0.0
 11
10.9704603204
 21
5.0873696832
 31
0.0
 11
10.9803043311
 21
5.0223197086
 31
0.0
  0
SPLINE
  5
698
100
AcDbEntity
  8
RACCORDO
100
AcDbSpline
 62
253
  6
CONTINUOUS
 70
0
 71
3
 72
11
 73
7
 74
5
 42
0.0000001
 43
0.0000001
 44
0.0000000001
 12
-0.0126156878
 22
-0.2865070627
 32
0.0
 13
-0.2166739903
 23
-0.1878771792
 33
0.0
 40
0.0
 40
0.0
 40
0.0
 40
0.0
 40
0.2294076406
 40
0.4676367328
 40
0.7218376269
 40
1.0
 40
1.0
 40
1.0
 40
1.0
 10
10.9803043311
 20
1.5156007279
 30
0.0
 10
10.9793396194
 20
1.4936917581
 30
0.0
 10
10.9725311289
 20
1.4491105088
 30
0.0
 10
10.9479157036
 20
1.3841392798
 30
0.0
 10
10.9081526752
 20
1.3215590489
 30
0.0
 10
10.8726567796
 20
1.2845576856
 30
0.0
 10
10.8525665958
 20
1.267137565
 30
0.0
 11
10.9803043311
 21
1.5156007279
 31
0.0
 11
10.9704603397
 21
1.450550759
 31
0.0
 11
10.9464435171
 21
1.3865907977
 31
0.0
 11
10.9075592447
 21
1.3249259147
 31
0.0
 11
10.8525665958
 21
1.267137565
 31
0.0
  0
SPLINE
  5
699
100
AcDbEntity
  8
RACCORDO
100
AcDbSpline
 62
253
  6
CONTINUOUS
 70
0
 71
3
 72
11
 73
7
 74
5
 42
0.0000001
 43
0.0000001
 44
0.0000000001
 12
0.2166740425
 22
-0.1878777932
 32
0.0
 13
0.0126158408
 23
-0.2865074981
 33
0.0
 40
0.0
 40
0.0
 40
0.0
 40
0.0
 40
0.2781631451
 40
0.5323638731
 40
0.7705924872
 40
1.0
 40
1.0
 40
1.0
 40
1.0
 10
10.8525659496
 20
-8.2292166361
 30
0.0
 10
10.872656194
 20
-8.246636862
 30
0.0
 10
10.9081521845
 20
-8.2836383085
 30
0.0
 10
10.9479154507
 20
-8.3462185255
 30
0.0
 10
10.9725311146
 20
-8.4111897091
 30
0.0
 10
10.9793396082
 20
-8.4557709767
 30
0.0
 10
10.9803043311
 20
-8.4776799675
 30
0.0
 11
10.8525659496
 21
-8.2292166361
 31
0.0
 11
10.9075588381
 21
-8.287005233
 31
0.0
 11
10.9464432939
 21
-8.3486700767
 31
0.0
 11
10.9704602817
 21
-8.412629942
 31
0.0
 11
10.9803043311
 21
-8.4776799675
 31
0.0
  0
SPLINE
  5
69A
100
AcDbEntity
  8
RACCORDO
100
AcDbSpline
 62
253
  6
CONTINUOUS
 70
0
 71
3
 72
11
 73
7
 74
5
 42
0.0000001
 43
0.0000001
 44
0.0000000001
 12
-0.012615672
 22
-0.2865069979
 32
0.0
 13
-0.2166739804
 23
-0.1878770908
 33
0.0
 40
0.0
 40
0.0
 40
0.0
 40
0.0
 40
0.2294078313
 40
0.4676369594
 40
0.7218377767
 40
1.0
 40
1.0
 40
1.0
 40
1.0
 10
10.9803043311
 20
-11.9843992484
 30
0.0
 10
10.9793396198
 20
-12.0063082314
 30
0.0
 10
10.9725311441
 20
-12.0508894937
 30
0.0
 10
10.947915737
 20
-12.1158607299
 30
0.0
 10
10.9081527222
 20
-12.1784409288
 30
0.0
 10
10.8726568446
 20
-12.2154422632
 30
0.0
 10
10.8525666726
 20
-12.2328623663
 30
0.0
 11
10.9803043311
 21
-11.9843992484
 31
0.0
 11
10.970460349
 21
-12.0494492588
 31
0.0
 11
10.9464435422
 21
-12.1134092205
 31
0.0
 11
10.9075592882
 21
-12.1750740693
 31
0.0
 11
10.8525666726
 21
-12.2328623663
 31
0.0
  0
SPLINE
  5
69B
100
AcDbEntity
  8
RACCORDO
100
AcDbSpline
 62
253
  6
CONTINUOUS
 70
0
 71
3
 72
11
 73
7
 74
5
 42
0.0000001
 43
0.0000001
 44
0.0000000001
 12
-0.2166741743
 22
0.187877511
 32
0.0
 13
-0.0126158368
 23
0.2865074128
 33
0.0
 40
0.0
 40
0.0
 40
0.0
 40
0.0
 40
0.2781625497
 40
0.5323636
 40
0.7705926239
 40
1.0
 40
1.0
 40
1.0
 40
1.0
 10
-10.458235719
 20
-12.2328627928
 30
0.0
 10
-10.4783259326
 20
-12.2154426303
 30
0.0
 10
-10.5138218954
 20
-12.1784411984
 30
0.0
 10
-10.5535849623
 20
-12.115860855
 30
0.0
 10
-10.578200452
 20
-12.050889578
 30
0.0
 10
-10.5850089541
 20
-12.0063083055
 30
0.0
 10
-10.5859736761
 20
-11.9843993343
 30
0.0
 11
-10.458235719
 21
-12.2328627928
 31
0.0
 11
-10.5132284593
 21
-12.1750743234
 31
0.0
 11
-10.552112794
 21
-12.1134093197
 31
0.0
 11
-10.5761296624
 21
-12.0494493058
 31
0.0
 11
-10.5859736761
 21
-11.9843993343
 31
0.0
  0
SPLINE
  5
69C
100
AcDbEntity
  8
RACCORDO
100
AcDbSpline
 62
253
  6
CONTINUOUS
 70
0
 71
3
 72
11
 73
7
 74
5
 42
0.0000001
 43
0.0000001
 44
0.0000000001
 12
0.0126156878
 22
0.2865070628
 32
0.0
 13
0.2166739903
 23
0.1878771793
 33
0.0
 40
0.0
 40
0.0
 40
0.0
 40
0.0
 40
0.2294076405
 40
0.4676367326
 40
0.7218376268
 40
1.0
 40
1.0
 40
1.0
 40
1.0
 10
-10.5859736761
 20
-8.4776803417
 30
0.0
 10
-10.5850089644
 20
-8.455771372
 30
0.0
 10
-10.5782004739
 20
-8.4111901227
 30
0.0
 10
-10.5535850486
 20
-8.3462188936
 30
0.0
 10
-10.5138220202
 20
-8.2836386628
 30
0.0
 10
-10.4783261246
 20
-8.2466372994
 30
0.0
 10
-10.4582359408
 20
-8.2292171787
 30
0.0
 11
-10.5859736761
 21
-8.4776803417
 31
0.0
 11
-10.5761296847
 21
-8.4126303729
 31
0.0
 11
-10.5521128621
 21
-8.3486704115
 31
0.0
 11
-10.5132285897
 21
-8.2870055285
 31
0.0
 11
-10.4582359408
 21
-8.2292171787
 31
0.0
  0
SPLINE
  5
69D
100
AcDbEntity
  8
RACCORDO
100
AcDbSpline
 62
253
  6
CONTINUOUS
 70
0
 71
3
 72
11
 73
7
 74
5
 42
0.0000001
 43
0.0000001
 44
0.0000000001
 12
-0.2166740095
 22
0.1878775539
 32
0.0
 13
-0.0126158001
 23
0.286507318
 33
0.0
 40
0.0
 40
0.0
 40
0.0
 40
0.0
 40
0.2781625074
 40
0.532363125
 40
0.7705920214
 40
1.0
 40
1.0
 40
1.0
 40
1.0
 10
-10.4582354927
 20
1.2671373761
 30
0.0
 10
-10.4783256879
 20
1.28455754
 30
0.0
 10
-10.5138216673
 20
1.3215588492
 30
0.0
 10
-10.553584913
 20
1.3841389845
 30
0.0
 10
-10.5782004871
 20
1.4491102238
 30
0.0
 10
-10.5850089544
 20
1.4936915346
 30
0.0
 10
-10.5859736761
 20
1.5156005562
 30
0.0
 11
-10.4582354927
 21
1.2671373761
 31
0.0
 11
-10.5132282845
 21
1.3249257428
 31
0.0
 11
-10.5521127179
 21
1.3865905087
 31
0.0
 11
-10.5761296539
 21
1.4505504336
 31
0.0
 11
-10.5859736761
 21
1.5156005562
 31
0.0
  0
SPLINE
  5
69E
100
AcDbEntity
  8
RACCORDO
100
AcDbSpline
 62
253
  6
CONTINUOUS
 70
0
 71
3
 72
11
 73
7
 74
5
 42
0.0000001
 43
0.0000001
 44
0.0000000001
 12
0.0126156514
 22
0.2865068867
 32
0.0
 13
0.2166739228
 23
0.1878769862
 33
0.0
 40
0.0
 40
0.0
 40
0.0
 40
0.0
 40
0.2294079932
 40
0.4676371229
 40
0.7218378625
 40
1.0
 40
1.0
 40
1.0
 40
1.0
 10
-10.5859736761
 20
5.0223196459
 30
0.0
 10
-10.5850089657
 20
5.0442286358
 30
0.0
 10
-10.5782005029
 20
5.0888098979
 30
0.0
 10
-10.5535851049
 20
5.1537811195
 30
0.0
 10
-10.5138220951
 20
5.2163612694
 30
0.0
 10
-10.4783262363
 20
5.2533625713
 30
0.0
 10
-10.4582360758
 20
5.2707826593
 30
0.0
 11
-10.5859736761
 21
5.0223196459
 31
0.0
 11
-10.576129701
 21
5.0873696783
 31
0.0
 11
-10.5521129044
 21
5.1513296157
 31
0.0
 11
-10.5132286637
 21
5.212994413
 31
0.0
 11
-10.4582360758
 21
5.2707826593
 31
0.0
  0
SPLINE
  5
69F
100
AcDbEntity
  8
RACCORDO
100
AcDbSpline
 62
253
  6
CONTINUOUS
 70
0
 71
3
 72
17
 73
13
 74
11
 42
0.0000001
 43
0.0000001
 44
0.0000000001
 12
1.9479431087
 22
-0.050149029
 32
0.0
 13
0.0230954246
 23
-1.9484516625
 33
0.0
 40
0.0
 40
0.0
 40
0.0
 40
0.0
 40
0.0705699339
 40
0.1400286942
 40
0.2078029508
 40
0.2738383563
 40
0.4013644715
 40
0.5247880206
 40
0.645546376
 40
0.7645929299
 40
0.8825798744
 40
1.0
 40
1.0
 40
1.0
 40
1.0
 10
10.1497707657
 20
11.4953909392
 30
0.0
 10
10.1955928379
 20
11.494211268
 30
0.0
 10
10.2865254943
 20
11.4825469778
 30
0.0
 10
10.4153013669
 20
11.4398066151
 30
0.0
 10
10.5322324093
 20
11.3772808129
 30
0.0
 10
10.6690068277
 20
11.2759536815
 30
0.0
 10
10.810322991
 20
11.1237393854
 30
0.0
 10
10.9393275724
 20
10.9184712955
 30
0.0
 10
11.0340844638
 20
10.7015964079
 30
0.0
 10
11.0995633061
 20
10.4780431277
 30
0.0
 10
11.138870449
 20
10.2507493338
 30
0.0
 10
11.148714505
 20
10.09782816
 30
0.0
 10
11.1496184609
 20
10.0215656804
 30
0.0
 11
10.1497707657
 21
11.4953909392
 31
0.0
 11
10.2861913632
 21
11.4781020459
 31
0.0
 11
10.4147826749
 21
11.4358769163
 31
0.0
 11
10.5314515151
 21
11.3739954278
 31
0.0
 11
10.6350774748
 21
11.2977122004
 31
0.0
 11
10.8057521448
 21
11.1171010651
 31
0.0
 11
10.9348758813
 21
10.9142017438
 31
0.0
 11
11.0297959896
 21
10.6988875755
 31
0.0
 11
11.0954456225
 21
10.4763982891
 31
0.0
 11
11.1348483514
 21
10.2498919608
 31
0.0
 11
11.1496184609
 21
10.0215656804
 31
0.0
  0
SPLINE
  5
6A0
100
AcDbEntity
  8
RACCORDO
100
AcDbSpline
 62
253
  6
CONTINUOUS
 70
0
 71
3
 72
17
 73
13
 74
11
 42
0.0000001
 43
0.0000001
 44
0.0000000001
 12
1.544475773
 22
-0.0262630437
 32
0.0
 13
0.0413021087
 23
-1.544146786
 33
0.0
 40
0.0
 40
0.0
 40
0.0
 40
0.0
 40
0.0886893984
 40
0.1740290627
 40
0.2542828216
 40
0.3291430523
 40
0.4645289849
 40
0.5855694491
 40
0.6967517768
 40
0.8013382305
 40
0.901762852
 40
1.0
 40
1.0
 40
1.0
 40
1.0
 10
10.1411981384
 20
10.9955432093
 30
0.0
 10
10.1868576808
 20
10.9947667914
 30
0.0
 10
10.2764652657
 20
10.987252906
 30
0.0
 10
10.4047472942
 20
10.95945102
 30
0.0
 10
10.5219143309
 20
10.918499947
 30
0.0
 10
10.6567664622
 20
10.8531954135
 30
0.0
 10
10.7979258361
 20
10.7551731004
 30
0.0
 10
10.9306018094
 20
10.6187447352
 30
0.0
 10
11.0282654048
 20
10.4744124614
 30
0.0
 10
11.0960989693
 20
10.3256035147
 30
0.0
 10
11.137331041
 20
10.1743458449
 30
0.0
 10
11.1482659929
 20
10.0721298226
 30
0.0
 10
11.1496184601
 20
10.0215656305
 30
0.0
 11
10.1411981384
 21
10.9955432093
 31
0.0
 11
10.2777193274
 21
10.9841180308
 31
0.0
 11
10.4065561276
 21
10.9562133385
 31
0.0
 11
10.5235846369
 21
10.9153187234
 31
0.0
 11
10.6276541163
 21
10.86490692
 31
0.0
 11
10.7993794304
 21
10.7455503466
 31
0.0
 11
10.9296836301
 21
10.6114645377
 31
0.0
 11
11.0258562674
 21
10.4691741198
 31
0.0
 11
11.0928000575
 21
10.3221420947
 31
0.0
 11
11.1335202939
 21
10.1724561513
 31
0.0
 11
11.1496184601
 21
10.0215656305
 31
0.0
  0
SPLINE
  5
6A1
100
AcDbEntity
  8
RACCORDO
100
AcDbSpline
 62
253
  6
CONTINUOUS
 70
0
 71
3
 72
11
 73
7
 74
5
 42
0.0000001
 43
0.0000001
 44
0.0000000001
 12
-0.5318765953
 22
0.0000013036
 32
0.0
 13
-0.4710473278
 23
0.2469962097
 33
0.0
 40
0.0
 40
0.0
 40
0.0
 40
0.0
 40
0.2501112604
 40
0.5001060462
 40
0.7500193864
 40
1.0
 40
1.0
 40
1.0
 40
1.0
 10
0.936542745
 20
11.3785736221
 30
0.0
 10
0.8921999698
 20
11.3785737307
 30
0.0
 10
0.8034655683
 20
11.3831751506
 30
0.0
 10
0.6718957429
 20
11.4041670561
 30
0.0
 10
0.5435759525
 20
11.4400712115
 30
0.0
 10
0.4617316167
 20
11.4750297385
 30
0.0
 10
0.4224807167
 20
11.4956111599
 30
0.0
 11
0.936542745
 21
11.3785736221
 31
0.0
 11
0.8036962314
 21
11.3855262641
 31
0.0
 11
0.6724194645
 21
11.4066560421
 31
0.0
 11
0.5445113998
 21
11.4428232362
 31
0.0
 11
0.4224807167
 21
11.4956111599
 31
0.0
  0
SPLINE
  5
6A2
100
AcDbEntity
  8
RACCORDO
100
AcDbSpline
 62
253
  6
CONTINUOUS
 70
0
 71
3
 72
11
 73
7
 74
5
 42
0.0000001
 43
0.0000001
 44
0.0000000001
 12
-0.4588797981
 22
-0.2269577915
 32
0.0
 13
-0.5119379925
 23
-0.0000011086
 33
0.0
 40
0.0
 40
0.0
 40
0.0
 40
0.0
 40
0.2499730689
 40
0.4998875363
 40
0.7498886212
 40
1.0
 40
1.0
 40
1.0
 40
1.0
 10
10.1240451177
 20
11.4865427962
 30
0.0
 10
10.0858092539
 20
11.4676316843
 30
0.0
 10
10.0064737902
 20
11.4354414244
 30
0.0
 10
9.8826115838
 20
11.4022691199
 30
0.0
 10
9.7558725444
 20
11.3828376638
 30
0.0
 10
9.6704684157
 20
11.3785737145
 30
0.0
 10
9.62778791
 20
11.3785736221
 30
0.0
 11
10.1240451177
 21
11.4865427962
 31
0.0
 11
10.0056560429
 21
11.4379575116
 31
0.0
 11
9.8821504883
 21
11.4045628497
 31
0.0
 11
9.7556674141
 21
11.3850127636
 31
0.0
 11
9.62778791
 21
11.3785736221
 31
0.0
  0
SPLINE
  5
6A3
100
AcDbEntity
  8
RACCORDO
100
AcDbSpline
 62
253
  6
CONTINUOUS
 70
0
 71
3
 72
17
 73
13
 74
11
 42
0.0000001
 43
0.0000001
 44
0.0000000001
 12
0.0230950847
 22
1.948451667
 32
0.0
 13
1.9479431102
 23
0.0501489882
 33
0.0
 40
0.0
 40
0.0
 40
0.0
 40
0.0
 40
0.1174201267
 40
0.2354070702
 40
0.354453624
 40
0.4752119794
 40
0.5986355285
 40
0.7261616437
 40
0.7921970492
 40
0.8599713058
 40
0.9294300661
 40
1.0
 40
1.0
 40
1.0
 40
1.0
 10
-10.7552878059
 20
10.0215656798
 30
0.0
 10
-10.7543838634
 20
10.0978281603
 30
0.0
 10
-10.7445397854
 20
10.2507493337
 30
0.0
 10
-10.7052326536
 20
10.4780431282
 30
0.0
 10
-10.6397538082
 20
10.7015964076
 30
0.0
 10
-10.5449969177
 20
10.9184712952
 30
0.0
 10
-10.4159923361
 20
11.1237393852
 30
0.0
 10
-10.2746761728
 20
11.2759536814
 30
0.0
 10
-10.1379017544
 20
11.3772808129
 30
0.0
 10
-10.020970712
 20
11.4398066152
 30
0.0
 10
-9.8921948394
 20
11.4825469773
 30
0.0
 10
-9.8012621829
 20
11.494211269
 30
0.0
 10
-9.7554401108
 20
11.4953909392
 30
0.0
 11
-10.7552878059
 21
10.0215656798
 31
0.0
 11
-10.740517695
 21
10.2498919622
 31
0.0
 11
-10.7011149678
 21
10.476398289
 31
0.0
 11
-10.6354653347
 21
10.6988875751
 31
0.0
 11
-10.5405452264
 21
10.9142017436
 31
0.0
 11
-10.4114214899
 21
11.1171010649
 31
0.0
 11
-10.2407468199
 21
11.2977122003
 31
0.0
 11
-10.1371208602
 21
11.3739954278
 31
0.0
 11
-10.02045202
 21
11.4358769163
 31
0.0
 11
-9.8918607083
 21
11.4781020458
 31
0.0
 11
-9.7554401108
 21
11.4953909392
 31
0.0
  0
SPLINE
  5
6A4
100
AcDbEntity
  8
RACCORDO
100
AcDbSpline
 62
253
  6
CONTINUOUS
 70
0
 71
3
 72
17
 73
13
 74
11
 42
0.0000001
 43
0.0000001
 44
0.0000000001
 12
0.0413016098
 22
1.5441467991
 32
0.0
 13
1.5444757728
 23
0.0262630394
 33
0.0
 40
0.0
 40
0.0
 40
0.0
 40
0.0
 40
0.0982371462
 40
0.198661769
 40
0.303248223
 40
0.4144305507
 40
0.5354710149
 40
0.6708569476
 40
0.7457171783
 40
0.8259709372
 40
0.9113106015
 40
1.0
 40
1.0
 40
1.0
 40
1.0
 10
-10.7552878051
 20
10.0215656305
 30
0.0
 10
-10.7539353543
 20
10.0721298221
 30
0.0
 10
-10.7430003747
 20
10.1743458429
 30
0.0
 10
-10.7017683181
 20
10.3256035141
 30
0.0
 10
-10.6339347491
 20
10.4744124611
 30
0.0
 10
-10.5362711548
 20
10.6187447352
 30
0.0
 10
-10.4035951811
 20
10.7551731003
 30
0.0
 10
-10.2624358073
 20
10.8531954134
 30
0.0
 10
-10.127583676
 20
10.918499947
 30
0.0
 10
-10.0104166393
 20
10.95945102
 30
0.0
 10
-9.8821346107
 20
10.9872529059
 30
0.0
 10
-9.7925270259
 20
10.9947667916
 30
0.0
 10
-9.7468674835
 20
10.9955432093
 30
0.0
 11
-10.7552878051
 21
10.0215656305
 31
0.0
 11
-10.7391896374
 21
10.1724561483
 31
0.0
 11
-10.6984694028
 21
10.3221420942
 31
0.0
 11
-10.6315256125
 21
10.4691741198
 31
0.0
 11
-10.5353529752
 21
10.6114645376
 31
0.0
 11
-10.4050487755
 21
10.7455503465
 31
0.0
 11
-10.2333234614
 21
10.8649069199
 31
0.0
 11
-10.1292539821
 21
10.9153187234
 31
0.0
 11
-10.0122254727
 21
10.9562133385
 31
0.0
 11
-9.8833886725
 21
10.9841180308
 31
0.0
 11
-9.7468674835
 21
10.9955432093
 31
0.0
  0
SPLINE
  5
6A5
100
AcDbEntity
  8
RACCORDO
100
AcDbSpline
 62
253
  6
CONTINUOUS
 70
0
 71
3
 72
15
 73
11
 74
9
 42
0.0000001
 43
0.0000001
 44
0.0000000001
 12
-0.5512979977
 22
-0.7384860391
 32
0.0
 13
-0.55130148
 23
0.7384834394
 33
0.0
 40
0.0
 40
0.0
 40
0.0
 40
0.0
 40
0.124883436
 40
0.2498576849
 40
0.3749073022
 40
0.5000000439
 40
0.6250927885
 40
0.7501423978
 40
0.8751166603
 40
1.0
 40
1.0
 40
1.0
 40
1.0
 10
6.0945360815
 20
5.0470573156
 30
0.0
 10
6.0715867521
 20
5.0163157575
 30
0.0
 10
6.0185054642
 20
4.9597961725
 30
0.0
 10
5.9217891272
 20
4.8954691653
 30
0.0
 10
5.8126970954
 20
4.8551489621
 30
0.0
 10
5.6971642955
 20
4.841420624
 30
0.0
 10
5.5816315407
 20
4.8551494325
 30
0.0
 10
5.4725397154
 20
4.8954701209
 30
0.0
 10
5.3758235216
 20
4.9597974088
 30
0.0
 10
5.3227428563
 20
5.0163174655
 30
0.0
 10
5.2997933996
 20
5.0470588915
 30
0.0
 11
6.0945360815
 21
5.0470573156
 31
0.0
 11
6.0156829492
 21
4.9632264173
 31
0.0
 11
5.9197566338
 21
4.8994859384
 31
0.0
 11
5.8116423485
 21
4.8595859143
 31
0.0
 11
5.6971643035
 21
4.8459973411
 31
0.0
 11
5.582686312
 21
4.8595863877
 31
0.0
 11
5.4745722
 21
4.8994868598
 31
0.0
 11
5.3786461412
 21
4.9632277476
 31
0.0
 11
5.2997933996
 21
5.0470588915
 31
0.0
  0
LINE
  5
6A6
100
AcDbEntity
  8
RACCORDO
100
AcDbLine
 62
253
  6
CONTINUOUS
 10
6.0804095865
 20
5.2337744686
 11
6.0945361496
 21
5.0470572633
  0
SPLINE
  5
6A7
100
AcDbEntity
  8
RACCORDO
100
AcDbSpline
 62
253
  6
CONTINUOUS
 70
0
 71
3
 72
15
 73
11
 74
9
 42
0.0000001
 43
0.0000001
 44
0.0000000001
 12
-0.5512970569
 22
-0.7384963268
 32
0.0
 13
-0.5513060437
 23
0.738489618
 33
0.0
 40
0.0
 40
0.0
 40
0.0
 40
0.0
 40
0.1248834384
 40
0.2498576824
 40
0.3749072976
 40
0.500000039
 40
0.6250927849
 40
0.7501423961
 40
0.8751166602
 40
1.0
 40
1.0
 40
1.0
 40
1.0
 10
0.5945406871
 20
5.0470635078
 30
0.0
 10
0.5715913965
 20
5.0163215209
 30
0.0
 10
0.5185108004
 20
4.9598004509
 30
0.0
 10
0.4217943207
 20
4.8954717828
 30
0.0
 10
0.3127018354
 20
4.8551500383
 30
0.0
 10
0.1971681671
 20
4.8414205682
 30
0.0
 10
0.0816343384
 20
4.8551486996
 30
0.0
 10
-0.0274586098
 20
4.895469206
 30
0.0
 10
-0.1241758065
 20
4.9597967672
 30
0.0
 10
-0.1772569704
 20
5.0163172608
 30
0.0
 10
-0.200206617
 20
5.0470589441
 30
0.0
 11
0.5945406871
 21
5.0470635078
 31
0.0
 11
0.5156880869
 21
4.9632307892
 31
0.0
 11
0.4197617762
 21
4.8994885766
 31
0.0
 11
0.3116470204
 21
4.8595870591
 31
0.0
 11
0.1971681415
 21
4.8459973611
 31
0.0
 11
0.0826891016
 21
4.8595857372
 31
0.0
 11
-0.0254261056
 21
4.8994860209
 31
0.0
 11
-0.121353145
 21
4.9632271702
 31
0.0
 11
-0.200206617
 21
5.0470589441
 31
0.0
  0
SPLINE
  5
6A8
100
AcDbEntity
  8
RACCORDO
100
AcDbSpline
 62
253
  6
CONTINUOUS
 70
0
 71
3
 72
15
 73
11
 74
9
 42
0.0000001
 43
0.0000001
 44
0.0000000001
 12
-0.5512972173
 22
-0.7384946036
 32
0.0
 13
-0.551305275
 23
0.7384885883
 33
0.0
 40
0.0
 40
0.0
 40
0.0
 40
0.0
 40
0.1248834378
 40
0.2498576827
 40
0.3749072983
 40
0.5000000399
 40
0.6250927856
 40
0.7501423965
 40
0.8751166603
 40
1.0
 40
1.0
 40
1.0
 40
1.0
 10
-4.9054600872
 20
5.0470624716
 30
0.0
 10
-4.9284093844
 20
5.0163205566
 30
0.0
 10
-4.9814900968
 20
4.9597997356
 30
0.0
 10
-5.0782065531
 20
4.8954713461
 30
0.0
 10
-5.187298963
 20
4.8551498604
 30
0.0
 10
-5.3028324862
 20
4.8414205809
 30
0.0
 10
-5.4183661352
 20
4.855148827
 30
0.0
 10
-5.527458895
 20
4.8954693655
 30
0.0
 10
-5.6241759231
 20
4.9597968822
 30
0.0
 10
-5.6772570024
 20
5.0163173037
 30
0.0
 10
-5.700206617
 20
5.0470589441
 30
0.0
 11
-4.9054600872
 21
5.0470624716
 31
0.0
 11
-4.9843127771
 21
4.9632300583
 31
0.0
 11
-5.080239089
 21
4.8994881365
 31
0.0
 11
-5.1883537666
 21
4.8595868698
 31
0.0
 11
-5.3028325061
 21
4.8459973611
 31
0.0
 11
-5.4173113705
 21
4.8595858508
 31
0.0
 11
-5.5254263941
 21
4.8994861676
 31
0.0
 11
-5.6213532685
 21
4.9632272745
 31
0.0
 11
-5.700206617
 21
5.0470589441
 31
0.0
  0
SPLINE
  5
6A9
100
AcDbEntity
  8
RACCORDO
100
AcDbSpline
 62
253
  6
CONTINUOUS
 70
0
 71
3
 72
15
 73
11
 74
9
 42
0.0000001
 43
0.0000001
 44
0.0000000001
 12
-0.5512969849
 22
-0.7384971001
 32
0.0
 13
-0.5513063886
 23
0.7384900801
 33
0.0
 40
0.0
 40
0.0
 40
0.0
 40
0.0
 40
0.1248834386
 40
0.2498576823
 40
0.3749072973
 40
0.5000000387
 40
0.6250927846
 40
0.7501423959
 40
0.8751166601
 40
1.0
 40
1.0
 40
1.0
 40
1.0
 10
-4.9054589654
 20
-8.4529360273
 30
0.0
 10
-4.9284082531
 20
-8.4836780463
 30
0.0
 10
-4.9814887969
 20
-8.5401992282
 30
0.0
 10
-5.0782052871
 20
-8.6045280212
 30
0.0
 10
-5.1872978063
 20
-8.6448498818
 30
0.0
 10
-5.3028315397
 20
-8.6585794375
 30
0.0
 10
-5.4183654491
 20
-8.6448513575
 30
0.0
 10
-5.5274584818
 20
-8.6045308655
 30
0.0
 10
-5.6241757542
 20
-8.5402032845
 30
0.0
 10
-5.677256956
 20
-8.4836827584
 30
0.0
 10
-5.700206617
 20
-8.4529410559
 30
0.0
 11
-4.9054589654
 21
-8.4529360273
 31
0.0
 11
-4.9843115255
 21
-8.5367688828
 31
0.0
 11
-5.0802378355
 21
-8.6005112259
 31
0.0
 11
-5.1883526265
 21
-8.6404128559
 31
0.0
 11
-5.3028315679
 21
-8.6540026389
 31
0.0
 11
-5.4173106865
 21
-8.6404143138
 31
0.0
 11
-5.5254259762
 21
-8.6005140449
 31
0.0
 11
-5.6213530896
 21
-8.5367728767
 31
0.0
 11
-5.700206617
 21
-8.4529410559
 31
0.0
  0
SPLINE
  5
6AA
100
AcDbEntity
  8
RACCORDO
100
AcDbSpline
 62
253
  6
CONTINUOUS
 70
0
 71
3
 72
15
 73
11
 74
9
 42
0.0000001
 43
0.0000001
 44
0.0000000001
 12
-0.5512972966
 22
-0.7384937518
 32
0.0
 13
-0.551304895
 23
0.7384880793
 33
0.0
 40
0.0
 40
0.0
 40
0.0
 40
0.0
 40
0.1248834376
 40
0.2498576829
 40
0.3749072986
 40
0.5000000403
 40
0.6250927859
 40
0.7501423967
 40
0.8751166604
 40
1.0
 40
1.0
 40
1.0
 40
1.0
 10
0.5945395301
 20
-8.4529380406
 30
0.0
 10
0.5715902296
 20
-8.48367992
 30
0.0
 10
0.5185094597
 20
-8.5402006179
 30
0.0
 10
0.421793015
 20
-8.6045288697
 30
0.0
 10
0.3127006424
 20
-8.6448502275
 30
0.0
 10
0.1971671908
 20
-8.6585794129
 30
0.0
 10
0.0816336307
 20
-8.64485111
 30
0.0
 10
-0.0274590359
 20
-8.6045305557
 30
0.0
 10
-0.1241759807
 20
-8.5402030609
 30
0.0
 10
-0.1772570182
 20
-8.4836826751
 30
0.0
 10
-0.200206617
 20
-8.4529410559
 30
0.0
 11
0.5945395301
 21
-8.4529380406
 31
0.0
 11
0.5156867959
 21
-8.536770303
 31
0.0
 11
0.4197604833
 21
-8.6005120811
 31
0.0
 11
0.3116458445
 21
-8.6404132238
 31
0.0
 11
0.1971671737
 21
-8.6540026389
 31
0.0
 11
0.0826883961
 21
-8.640414093
 31
0.0
 11
-0.0254265366
 21
-8.6005137599
 31
0.0
 11
-0.1213533295
 21
-8.5367726739
 31
0.0
 11
-0.200206617
 21
-8.4529410559
 31
0.0
  0
LINE
  5
6AB
100
AcDbEntity
  8
RACCORDO
100
AcDbLine
 62
253
  6
CONTINUOUS
 10
6.0804095865
 20
-8.2662255314
 11
6.0945361496
 21
-8.4529427367
  0
SPLINE
  5
6AC
100
AcDbEntity
  8
RACCORDO
100
AcDbSpline
 62
253
  6
CONTINUOUS
 70
0
 71
3
 72
15
 73
11
 74
9
 42
0.0000001
 43
0.0000001
 44
0.0000000001
 12
-0.5512979977
 22
-0.7384860391
 32
0.0
 13
-0.55130148
 23
0.7384834394
 33
0.0
 40
0.0
 40
0.0
 40
0.0
 40
0.0
 40
0.124883436
 40
0.2498576849
 40
0.3749073022
 40
0.5000000439
 40
0.6250927885
 40
0.7501423978
 40
0.8751166603
 40
1.0
 40
1.0
 40
1.0
 40
1.0
 10
6.0945360815
 20
-8.4529426844
 30
0.0
 10
6.0715867521
 20
-8.4836842425
 30
0.0
 10
6.0185054642
 20
-8.5402038275
 30
0.0
 10
5.9217891272
 20
-8.6045308347
 30
0.0
 10
5.8126970954
 20
-8.6448510379
 30
0.0
 10
5.6971642955
 20
-8.658579376
 30
0.0
 10
5.5816315407
 20
-8.6448505675
 30
0.0
 10
5.4725397154
 20
-8.6045298791
 30
0.0
 10
5.3758235216
 20
-8.5402025912
 30
0.0
 10
5.3227428563
 20
-8.4836825345
 30
0.0
 10
5.2997933996
 20
-8.4529411085
 30
0.0
 11
6.0945360815
 21
-8.4529426844
 31
0.0
 11
6.0156829492
 21
-8.5367735827
 31
0.0
 11
5.9197566338
 21
-8.6005140616
 31
0.0
 11
5.8116423485
 21
-8.6404140857
 31
0.0
 11
5.6971643035
 21
-8.6540026589
 31
0.0
 11
5.582686312
 21
-8.6404136123
 31
0.0
 11
5.4745722
 21
-8.6005131402
 31
0.0
 11
5.3786461412
 21
-8.5367722524
 31
0.0
 11
5.2997933996
 21
-8.4529411085
 31
0.0
  0
SPLINE
  5
6AD
100
AcDbEntity
  8
RACCORDO
100
AcDbSpline
 62
253
  6
CONTINUOUS
 70
0
 71
3
 72
15
 73
11
 74
9
 42
0.0000001
 43
0.0000001
 44
0.0000000001
 12
0.5512979977
 22
0.7384860391
 32
0.0
 13
0.55130148
 23
-0.7384834394
 33
0.0
 40
0.0
 40
0.0
 40
0.0
 40
0.0
 40
0.124883436
 40
0.2498576849
 40
0.3749073022
 40
0.5000000439
 40
0.6250927885
 40
0.7501423978
 40
0.8751166603
 40
1.0
 40
1.0
 40
1.0
 40
1.0
 10
-5.7002054266
 20
1.4908630706
 30
0.0
 10
-5.6772560971
 20
1.5216046286
 30
0.0
 10
-5.6241748093
 20
1.5781242136
 30
0.0
 10
-5.5274584722
 20
1.6424512209
 30
0.0
 10
-5.4183664404
 20
1.682771424
 30
0.0
 10
-5.3028336406
 20
1.6964997621
 30
0.0
 10
-5.1873008857
 20
1.6827709537
 30
0.0
 10
-5.0782090605
 20
1.6424502652
 30
0.0
 10
-4.9814928666
 20
1.5781229774
 30
0.0
 10
-4.9284122013
 20
1.5216029207
 30
0.0
 10
-4.9054627446
 20
1.4908614946
 30
0.0
 11
-5.7002054266
 21
1.4908630706
 31
0.0
 11
-5.6213522942
 21
1.5746939689
 31
0.0
 11
-5.5254259788
 21
1.6384344477
 31
0.0
 11
-5.4173116935
 21
1.6783344719
 31
0.0
 11
-5.3028336486
 21
1.691923045
 31
0.0
 11
-5.1883556571
 21
1.6783339985
 31
0.0
 11
-5.0802415451
 21
1.6384335263
 31
0.0
 11
-4.9843154863
 21
1.5746926385
 31
0.0
 11
-4.9054627446
 21
1.4908614946
 31
0.0
  0
LINE
  5
6AE
100
AcDbEntity
  8
RACCORDO
100
AcDbLine
 62
253
  6
CONTINUOUS
 10
-5.6860789315
 20
1.3041459175
 11
-5.7002054947
 21
1.4908631229
  0
SPLINE
  5
6AF
100
AcDbEntity
  8
RACCORDO
100
AcDbSpline
 62
253
  6
CONTINUOUS
 70
0
 71
3
 72
15
 73
11
 74
9
 42
0.0000001
 43
0.0000001
 44
0.0000000001
 12
0.5512971935
 22
0.7384948588
 32
0.0
 13
0.5513053888
 23
-0.7384887408
 33
0.0
 40
0.0
 40
0.0
 40
0.0
 40
0.0
 40
0.1248834379
 40
0.2498576827
 40
0.3749072982
 40
0.5000000397
 40
0.6250927855
 40
0.7501423964
 40
0.8751166603
 40
1.0
 40
1.0
 40
1.0
 40
1.0
 10
-0.2002093726
 20
1.4908577611
 30
0.0
 10
-0.1772600763
 20
1.5215996867
 30
0.0
 10
-0.1241793811
 20
1.5781205446
 30
0.0
 10
-0.0274629214
 20
1.6424489753
 30
0.0
 10
0.0816294997
 20
1.6827704994
 30
0.0
 10
0.1971630444
 20
1.6964998071
 30
0.0
 10
0.31269672
 20
1.682771578
 30
0.0
 10
0.4217895077
 20
1.6424510443
 30
0.0
 10
0.5185065608
 20
1.578123521
 30
0.0
 10
0.5715876526
 20
1.5216030888
 30
0.0
 10
0.594537272
 20
1.490861442
 30
0.0
 11
-0.2002093726
 21
1.4908577611
 31
0.0
 11
-0.1213566959
 21
1.5746902196
 31
0.0
 11
-0.0254303842
 21
1.6384321845
 31
0.0
 11
0.082684305
 21
1.6783334883
 31
0.0
 11
0.1971630652
 21
1.691923025
 31
0.0
 11
0.3116419556
 21
1.6783345521
 31
0.0
 11
0.4197570063
 21
1.6384342402
 31
0.0
 11
0.5156839051
 21
1.5746931271
 31
0.0
 11
0.594537272
 21
1.490861442
 31
0.0
  0
SPLINE
  5
6B0
100
AcDbEntity
  8
RACCORDO
100
AcDbSpline
 62
253
  6
CONTINUOUS
 70
0
 71
3
 72
15
 73
11
 74
9
 42
0.0000001
 43
0.0000001
 44
0.0000000001
 12
0.5512972047
 22
0.7384947385
 32
0.0
 13
0.5513053352
 23
-0.7384886689
 33
0.0
 40
0.0
 40
0.0
 40
0.0
 40
0.0
 40
0.1248834379
 40
0.2498576827
 40
0.3749072982
 40
0.5000000398
 40
0.6250927856
 40
0.7501423965
 40
0.8751166603
 40
1.0
 40
1.0
 40
1.0
 40
1.0
 10
5.2997906815
 20
1.4908578334
 30
0.0
 10
5.3227399783
 20
1.521599754
 30
0.0
 10
5.3758206816
 20
1.5781205945
 30
0.0
 10
5.4725371396
 20
1.6424490058
 30
0.0
 10
5.5816295555
 20
1.6827705118
 30
0.0
 10
5.6971630901
 20
1.6964998063
 30
0.0
 10
5.8126967531
 20
1.6827715691
 30
0.0
 10
5.9217895276
 20
1.6424510331
 30
0.0
 10
6.0185065689
 20
1.5781235129
 30
0.0
 10
6.0715876548
 20
1.5216030858
 30
0.0
 10
6.094537272
 20
1.490861442
 30
0.0
 11
5.2997906815
 21
1.4908578334
 31
0.0
 11
5.3786433644
 21
1.5746902706
 31
0.0
 11
5.4745696763
 21
1.6384322152
 31
0.0
 11
5.5826843599
 21
1.6783335015
 31
0.0
 11
5.6971631104
 21
1.691923025
 31
0.0
 11
5.8116419886
 21
1.6783345442
 31
0.0
 11
5.9197570264
 21
1.63843423
 31
0.0
 11
6.0156839138
 21
1.5746931198
 31
0.0
 11
6.094537272
 21
1.490861442
 31
0.0
  0
SPLINE
  5
6B1
100
AcDbEntity
  8
RACCORDO
100
AcDbSpline
 62
253
  6
CONTINUOUS
 70
0
 71
3
 72
15
 73
11
 74
9
 42
0.0000001
 43
0.0000001
 44
0.0000000001
 12
0.5512968604
 22
0.7384984383
 32
0.0
 13
0.5513069856
 23
-0.7384908797
 33
0.0
 40
0.0
 40
0.0
 40
0.0
 40
0.0
 40
0.124883439
 40
0.2498576821
 40
0.3749072967
 40
0.500000038
 40
0.6250927841
 40
0.7501423956
 40
0.87511666
 40
1.0
 40
1.0
 40
1.0
 40
1.0
 10
5.299789019
 20
-12.0091443912
 30
0.0
 10
5.3227383016
 20
-11.9784023164
 30
0.0
 10
5.3758187551
 20
-11.9218809412
 30
0.0
 10
5.4725352635
 20
-11.8575519318
 30
0.0
 10
5.5816278413
 20
-11.8172298702
 30
0.0
 10
5.6971616874
 20
-11.8035001666
 30
0.0
 10
5.8126957363
 20
-11.8172281574
 30
0.0
 10
5.9217889153
 20
-11.8575486245
 30
0.0
 10
6.0185063187
 20
-11.92187624
 30
0.0
 10
6.0715875861
 20
-11.9783968221
 30
0.0
 10
6.094537272
 20
-12.009138558
 30
0.0
 11
5.299789019
 21
-12.0091443912
 31
0.0
 11
5.3786415095
 21
-11.9253112987
 31
0.0
 11
5.4745678185
 21
-11.8615687297
 31
0.0
 11
5.5826826703
 21
-11.821666905
 31
0.0
 11
5.6971617199
 21
-11.808076975
 31
0.0
 11
5.8116409748
 21
-11.8216652119
 31
0.0
 11
5.9197564072
 21
-11.861565455
 31
0.0
 11
6.0156836487
 21
-11.9253066561
 31
0.0
 11
6.094537272
 21
-12.009138558
 31
0.0
  0
LINE
  5
6B2
100
AcDbEntity
  8
RACCORDO
100
AcDbLine
 62
253
  6
CONTINUOUS
 10
-0.1860789153
 20
-12.1958540637
 11
-0.200205039
 21
-12.009136273
  0
SPLINE
  5
6B3
100
AcDbEntity
  8
RACCORDO
100
AcDbSpline
 62
253
  6
CONTINUOUS
 70
0
 71
3
 72
15
 73
11
 74
9
 42
0.0000001
 43
0.0000001
 44
0.0000000001
 12
0.5512981082
 22
0.7384850302
 32
0.0
 13
0.5513010046
 23
-0.738482868
 33
0.0
 40
0.0
 40
0.0
 40
0.0
 40
0.0
 40
0.1248834349
 40
0.2498576843
 40
0.3749073022
 40
0.5000000444
 40
0.6250927894
 40
0.7501423988
 40
0.8751166612
 40
1.0
 40
1.0
 40
1.0
 40
1.0
 10
-0.2002049561
 20
-12.0091363291
 30
0.0
 10
-0.1772556223
 20
-11.9783948134
 30
0.0
 10
-0.1241742634
 20
-11.9218753759
 30
0.0
 10
-0.0274579374
 20
-11.8575485339
 30
0.0
 10
0.0816340534
 20
-11.8172284858
 30
0.0
 10
0.1971667707
 20
-11.803500265
 30
0.0
 10
0.3126994212
 20
-11.8172291485
 30
0.0
 10
0.4217911342
 20
-11.8575498652
 30
0.0
 10
0.5185072255
 20
-11.9218771353
 30
0.0
 10
0.5715878353
 20
-11.9783971559
 30
0.0
 10
0.594537272
 20
-12.009138558
 30
0.0
 11
-0.2002049561
 21
-12.0091363291
 31
0.0
 11
-0.1213517684
 21
-11.9253056116
 31
0.0
 11
-0.0254254491
 21
-11.8615653053
 31
0.0
 11
0.0826887934
 21
-11.8216654316
 31
0.0
 11
0.1971667591
 21
-11.808076975
 31
0.0
 11
0.3116446486
 21
-11.8216660959
 31
0.0
 11
0.4197586513
 21
-11.8615665965
 31
0.0
 11
0.5156846093
 21
-11.9253074683
 31
0.0
 11
0.594537272
 21
-12.009138558
 31
0.0
  0
LINE
  5
6B4
100
AcDbEntity
  8
RACCORDO
100
AcDbLine
 62
253
  6
CONTINUOUS
 10
-5.6860789315
 20
-12.1958540825
 11
-5.7002054947
 21
-12.0091368771
  0
SPLINE
  5
6B5
100
AcDbEntity
  8
RACCORDO
100
AcDbSpline
 62
253
  6
CONTINUOUS
 70
0
 71
3
 72
15
 73
11
 74
9
 42
0.0000001
 43
0.0000001
 44
0.0000000001
 12
0.5512979977
 22
0.7384860391
 32
0.0
 13
0.55130148
 23
-0.7384834394
 33
0.0
 40
0.0
 40
0.0
 40
0.0
 40
0.0
 40
0.124883436
 40
0.2498576849
 40
0.3749073022
 40
0.5000000439
 40
0.6250927885
 40
0.7501423978
 40
0.8751166603
 40
1.0
 40
1.0
 40
1.0
 40
1.0
 10
-5.7002054266
 20
-12.0091369294
 30
0.0
 10
-5.6772560971
 20
-11.9783953714
 30
0.0
 10
-5.6241748093
 20
-11.9218757864
 30
0.0
 10
-5.5274584722
 20
-11.8575487791
 30
0.0
 10
-5.4183664404
 20
-11.817228576
 30
0.0
 10
-5.3028336406
 20
-11.8035002379
 30
0.0
 10
-5.1873008857
 20
-11.8172290463
 30
0.0
 10
-5.0782090605
 20
-11.8575497348
 30
0.0
 10
-4.9814928666
 20
-11.9218770226
 30
0.0
 10
-4.9284122013
 20
-11.9783970793
 30
0.0
 10
-4.9054627446
 20
-12.0091385054
 30
0.0
 11
-5.7002054266
 21
-12.0091369294
 31
0.0
 11
-5.6213522942
 21
-11.9253060311
 31
0.0
 11
-5.5254259788
 21
-11.8615655523
 31
0.0
 11
-5.4173116935
 21
-11.8216655281
 31
0.0
 11
-5.3028336486
 21
-11.808076955
 31
0.0
 11
-5.1883556571
 21
-11.8216660015
 31
0.0
 11
-5.0802415451
 21
-11.8615664737
 31
0.0
 11
-4.9843154863
 21
-11.9253073615
 31
0.0
 11
-4.9054627446
 21
-12.0091385054
 31
0.0
  0
SPLINE
  5
6B6
100
AcDbEntity
  8
RACCORDO
100
AcDbSpline
 62
253
  6
CONTINUOUS
 70
0
 71
3
 72
11
 73
7
 74
5
 42
0.0000001
 43
0.0000001
 44
0.0000000001
 12
0.0093970949
 22
0.4727064535
 32
0.0
 13
0.291343012
 23
0.3723693676
 33
0.0
 40
0.0
 40
0.0
 40
0.0
 40
0.0
 40
0.2441426435
 40
0.4907270402
 40
0.7418138531
 40
1.0
 40
1.0
 40
1.0
 40
1.0
 10
-10.5859736761
 20
5.0223196459
 30
0.0
 10
-10.5852089323
 20
5.0607889136
 30
0.0
 10
-10.5778845659
 20
5.1381195835
 30
0.0
 10
-10.5493632335
 20
5.2519560725
 30
0.0
 10
-10.5024847235
 20
5.362005799
 30
0.0
 10
-10.4587566303
 20
5.4299101119
 30
0.0
 10
-10.4336830538
 20
5.4619569826
 30
0.0
 11
-10.5859736761
 21
5.0223196459
 31
0.0
 11
-10.5750638683
 21
5.1372335293
 31
0.0
 11
-10.5466563657
 21
5.2503047072
 31
0.0
 11
-10.4999733666
 21
5.3594544465
 31
0.0
 11
-10.4336830538
 21
5.4619569826
 31
0.0
  0
SPLINE
  5
6B7
100
AcDbEntity
  8
RACCORDO
100
AcDbSpline
 62
253
  6
CONTINUOUS
 70
0
 71
3
 72
12
 73
8
 74
6
 42
0.0000001
 43
0.0000001
 44
0.0000000001
 12
0.7270715642
 22
0.929276175
 32
0.0
 13
0.9834061189
 23
0.6519966828
 33
0.0
 40
0.0
 40
0.0
 40
0.0
 40
0.0
 40
0.1041389656
 40
0.2177208231
 40
0.4637434832
 40
0.7269052435
 40
1.0
 40
1.0
 40
1.0
 40
1.0
 10
-10.4336830538
 20
5.4619569826
 30
0.0
 10
-10.4084442269
 20
5.4942149359
 30
0.0
 10
-10.3553221487
 20
5.5613836029
 30
0.0
 10
-10.2387317641
 20
5.7016658219
 30
0.0
 10
-10.0726808219
 20
5.8820773955
 30
0.0
 10
-9.845216744
 20
6.0898886514
 30
0.0
 10
-9.6756444078
 20
6.216096557
 30
0.0
 10
-9.5861233896
 20
6.2754488488
 30
0.0
 11
-10.4336830538
 21
5.4619569826
 31
0.0
 11
-10.3572565548
 21
5.558171096
 31
0.0
 11
-10.2714827588
 21
5.6611431253
 31
0.0
 11
-10.0743815687
 21
5.8742540061
 31
0.0
 11
-9.8448190415
 21
6.0833370979
 31
0.0
 11
-9.5861233896
 21
6.2754488488
 31
0.0
  0
SPLINE
  5
6B8
100
AcDbEntity
  8
RACCORDO
100
AcDbSpline
 62
253
  6
CONTINUOUS
 70
0
 71
3
 72
11
 73
7
 74
5
 42
0.0000001
 43
0.0000001
 44
0.0000000001
 12
0.0093971101
 22
0.4727064829
 32
0.0
 13
0.2913429456
 23
0.3723694573
 33
0.0
 40
0.0
 40
0.0
 40
0.0
 40
0.0
 40
0.2441424909
 40
0.490726902
 40
0.7418138043
 40
1.0
 40
1.0
 40
1.0
 40
1.0
 10
-10.5859736761
 20
-8.4776803417
 30
0.0
 10
-10.5852089315
 20
-8.4392110957
 30
0.0
 10
-10.5778845475
 20
-8.3618804436
 30
0.0
 10
-10.5493632012
 20
-8.2480439611
 30
0.0
 10
-10.502484712
 20
-8.1379941919
 30
0.0
 10
-10.4587566113
 20
-8.0700898513
 30
0.0
 10
-10.4336830357
 20
-8.0380429668
 30
0.0
 11
-10.5859736761
 21
-8.4776803417
 31
0.0
 11
-10.5750638575
 21
-8.3627665244
 31
0.0
 11
-10.5466563441
 21
-8.2496953347
 31
0.0
 11
-10.4999733471
 21
-8.1405455404
 31
0.0
 11
-10.4336830357
 21
-8.0380429668
 31
0.0
  0
SPLINE
  5
6B9
100
AcDbEntity
  8
RACCORDO
100
AcDbSpline
 62
253
  6
CONTINUOUS
 70
0
 71
3
 72
12
 73
8
 74
6
 42
0.0000001
 43
0.0000001
 44
0.0000000001
 12
0.7270715292
 22
0.9292761378
 32
0.0
 13
0.9834060765
 23
0.6519966547
 33
0.0
 40
0.0
 40
0.0
 40
0.0
 40
0.0
 40
0.1041389605
 40
0.2177208203
 40
0.4637434825
 40
0.7269052436
 40
1.0
 40
1.0
 40
1.0
 40
1.0
 10
-10.4336830357
 20
-8.0380429668
 30
0.0
 10
-10.4084442112
 20
-8.0057850164
 30
0.0
 10
-10.3553221149
 20
-7.93861637
 30
0.0
 10
-10.2387317459
 20
-7.7983341489
 30
0.0
 10
-10.0726808018
 20
-7.6179225879
 30
0.0
 10
-9.8452167338
 20
-7.4101113399
 30
0.0
 10
-9.6756444039
 20
-7.2839034404
 30
0.0
 10
-9.5861233896
 20
-7.2245511512
 30
0.0
 11
-10.4336830357
 21
-8.0380429668
 31
0.0
 11
-10.3572565296
 21
-7.9418288735
 31
0.0
 11
-10.2714827349
 21
-7.8388568471
 31
0.0
 11
-10.0743815499
 21
-7.6257459752
 31
0.0
 11
-9.8448190307
 21
-7.4166628932
 31
0.0
 11
-9.5861233896
 21
-7.2245511512
 31
0.0
  0
SPLINE
  5
6BA
100
AcDbEntity
  8
RACCORDO
100
AcDbSpline
 62
253
  6
CONTINUOUS
 70
0
 71
3
 72
12
 73
8
 74
6
 42
0.0000001
 43
0.0000001
 44
0.0000000001
 12
-0.9834062378
 22
0.6519966826
 32
0.0
 13
-0.7270716531
 23
0.9292762312
 33
0.0
 40
0.0
 40
0.0
 40
0.0
 40
0.0
 40
0.2730947561
 40
0.536256514
 40
0.7822791682
 40
0.8958610212
 40
1.0
 40
1.0
 40
1.0
 40
1.0
 10
-9.586123391
 20
0.2624715383
 30
0.0
 10
-9.6756444199
 20
0.32182383
 30
0.0
 10
-9.8452167628
 20
0.4480317547
 30
0.0
 10
-10.0726808617
 20
0.6558430216
 30
0.0
 10
-10.2387317968
 20
0.8362546214
 30
0.0
 10
-10.3553222166
 20
0.9765368334
 30
0.0
 10
-10.4084442523
 20
1.0437055477
 30
0.0
 10
-10.4336830855
 20
1.075963507
 30
0.0
 11
-9.586123391
 21
0.2624715383
 31
0.0
 11
-9.8448190633
 21
0.4545833063
 31
0.0
 11
-10.0743816051
 21
0.6636664165
 31
0.0
 11
-10.2714828039
 21
0.876777313
 31
0.0
 11
-10.3572566025
 21
0.9797493478
 31
0.0
 11
-10.4336830855
 21
1.075963507
 31
0.0
  0
SPLINE
  5
6BB
100
AcDbEntity
  8
RACCORDO
100
AcDbSpline
 62
253
  6
CONTINUOUS
 70
0
 71
3
 72
11
 73
7
 74
5
 42
0.0000001
 43
0.0000001
 44
0.0000000001
 12
-0.2913422983
 22
0.3723695288
 32
0.0
 13
-0.0093971841
 23
0.4727061388
 33
0.0
 40
0.0
 40
0.0
 40
0.0
 40
0.0
 40
0.2581864108
 40
0.509273174
 40
0.7558574077
 40
1.0
 40
1.0
 40
1.0
 40
1.0
 10
-10.4336830855
 20
1.075963507
 30
0.0
 10
-10.4587566263
 20
1.1080104243
 30
0.0
 10
-10.5024846306
 20
1.1759147605
 30
0.0
 10
-10.5493632116
 20
1.2859643723
 30
0.0
 10
-10.5778845788
 20
1.399800736
 30
0.0
 10
-10.5852089252
 20
1.4771313222
 30
0.0
 10
-10.5859736761
 20
1.5156005562
 30
0.0
 11
-10.4336830855
 21
1.075963507
 31
0.0
 11
-10.4999733334
 21
1.1784661375
 31
0.0
 11
-10.5466563474
 21
1.2876157594
 31
0.0
 11
-10.5750638678
 21
1.4006867738
 31
0.0
 11
-10.5859736761
 21
1.5156005562
 31
0.0
  0
SPLINE
  5
6BC
100
AcDbEntity
  8
RACCORDO
100
AcDbSpline
 62
253
  6
CONTINUOUS
 70
0
 71
3
 72
27
 73
23
 74
21
 42
0.0000001
 43
0.0000001
 44
0.0000000001
 12
-0.1836004916
 22
0.231927584
 32
0.0
 13
-0.2954873843
 23
-0.0136656666
 33
0.0
 40
0.0
 40
0.0
 40
0.0
 40
0.0
 40
0.1947953064
 40
0.3817750856
 40
0.4701348207
 40
0.5539605502
 40
0.6324675515
 40
0.7049213272
 40
0.7706439662
 40
0.8290207936
 40
0.8795060942
 40
0.9216283072
 40
0.9394277298
 40
0.9549948804
 40
0.9682949481
 40
0.9792967474
 40
0.9879761881
 40
0.9943160971
 40
0.9966056598
 40
0.998309502
 40
0.9994328184
 40
1.0
 40
1.0
 40
1.0
 40
1.0
 10
10.1240451167
 20
11.4865427959
 30
0.0
 10
10.112123612
 20
11.5016022642
 30
0.0
 10
10.0887272554
 20
11.5310919416
 30
0.0
 10
10.0598349577
 20
11.5673424521
 30
0.0
 10
10.0377087686
 20
11.5949936617
 30
0.0
 10
10.0222379131
 20
11.6142721371
 30
0.0
 10
10.0077202681
 20
11.6323046163
 30
0.0
 10
9.9942918174
 20
11.6489223728
 30
0.0
 10
9.9820783639
 20
11.663969983
 30
0.0
 10
9.9711945072
 20
11.6773068849
 30
0.0
 10
9.9617422759
 20
11.6888084196
 30
0.0
 10
9.9547914749
 20
11.6971868775
 30
0.0
 10
9.9500071425
 20
11.7028888467
 30
0.0
 10
9.9470332078
 20
11.7064001327
 30
0.0
 10
9.9444742305
 20
11.7093841486
 30
0.0
 10
9.9423364256
 20
11.711835396
 30
0.0
 10
9.9406253661
 20
11.7137457709
 30
0.0
 10
9.9394609298
 20
11.7149971974
 30
0.0
 10
9.9387413065
 20
11.7157141597
 30
0.0
 10
9.9383688552
 20
11.7160629213
 30
0.0
 10
9.9381125676
 20
11.7162616565
 30
0.0
 10
9.9379608099
 20
11.7163613867
 30
0.0
 10
9.9379049449
 20
11.716358803
 30
0.0
 11
10.1240451167
 21
11.4865427959
 31
0.0
 11
10.0882311749
 21
11.5316820283
 31
0.0
 11
10.053755292
 21
11.5749315761
 31
0.0
 11
10.0374245563
 21
11.5953387994
 31
0.0
 11
10.0219044479
 21
11.614676946
 31
0.0
 11
10.0073402899
 21
11.6327649408
 31
0.0
 11
9.9938683844
 21
11.6494335029
 31
0.0
 11
9.9816148345
 21
11.6645266061
 31
0.0
 11
9.970694316
 21
11.6779030011
 31
0.0
 11
9.9612090208
 21
11.6894375147
 31
0.0
 11
9.9532477133
 21
11.6990222081
 31
0.0
 11
9.9498623502
 21
11.7030546855
 31
0.0
 11
9.9468848931
 21
11.7065673845
 31
0.0
 11
9.9443221017
 21
11.7095523555
 31
0.0
 11
9.9421801258
 21
11.7120024267
 31
0.0
 11
9.9404639163
 21
11.7139119295
 31
0.0
 11
9.9391774212
 21
11.7152764536
 31
0.0
 11
9.9386963814
 21
11.7157531944
 31
0.0
 11
9.9383238119
 21
11.7160926204
 31
0.0
 11
9.9380599279
 21
11.7162945502
 31
0.0
 11
9.9379049449
 21
11.716358803
 31
0.0
  0
SPLINE
  5
6BD
100
AcDbEntity
  8
RACCORDO
100
AcDbSpline
 62
253
  6
CONTINUOUS
 70
0
 71
3
 72
12
 73
8
 74
6
 42
0.0000001
 43
0.0000001
 44
0.0000000001
 12
-0.9834059715
 22
0.6519965061
 32
0.0
 13
-0.7270714302
 23
0.9292759999
 33
0.0
 40
0.0
 40
0.0
 40
0.0
 40
0.0
 40
0.2730947568
 40
0.5362565202
 40
0.7822791893
 40
0.8958610568
 40
1.0
 40
1.0
 40
1.0
 40
1.0
 10
-9.586123391
 20
-13.2375284617
 30
0.0
 10
-9.6756443959
 20
-13.1781761859
 30
0.0
 10
-9.8452166999
 20
-13.0519682993
 30
0.0
 10
-10.0726807368
 20
-12.8441570804
 30
0.0
 10
-10.2387316865
 20
-12.6637455605
 30
0.0
 10
-10.3553220031
 20
-12.5234633329
 30
0.0
 10
-10.4084441601
 20
-12.4562947551
 30
0.0
 10
-10.4336829769
 20
-12.4240368149
 30
0.0
 11
-9.586123391
 21
-13.2375284617
 31
0.0
 11
-9.8448189966
 21
-13.0454167488
 31
0.0
 11
-10.074381489
 21
-12.8363336996
 31
0.0
 11
-10.2714826564
 21
-12.6232228572
 31
0.0
 11
-10.3572564468
 21
-12.5202508404
 31
0.0
 11
-10.4336829769
 21
-12.4240368149
 31
0.0
  0
SPLINE
  5
6BE
100
AcDbEntity
  8
RACCORDO
100
AcDbSpline
 62
253
  6
CONTINUOUS
 70
0
 71
3
 72
11
 73
7
 74
5
 42
0.0000001
 43
0.0000001
 44
0.0000000001
 12
-0.2913429594
 22
0.3723695946
 32
0.0
 13
-0.0093972072
 23
0.4727065977
 33
0.0
 40
0.0
 40
0.0
 40
0.0
 40
0.0
 40
0.2581861972
 40
0.5092731998
 40
0.7558576241
 40
1.0
 40
1.0
 40
1.0
 40
1.0
 10
-10.4336829769
 20
-12.4240368149
 30
0.0
 10
-10.4587565539
 20
-12.3919899184
 30
0.0
 10
-10.5024847052
 20
-12.3240855662
 30
0.0
 10
-10.5493631581
 20
-12.2140357278
 30
0.0
 10
-10.5778845377
 20
-12.1001992272
 30
0.0
 10
-10.585208924
 20
-12.0228685716
 30
0.0
 10
-10.5859736761
 20
-11.9843993343
 30
0.0
 11
-10.4336829769
 21
-12.4240368149
 31
0.0
 11
-10.4999733148
 21
-12.3215342216
 31
0.0
 11
-10.5466563174
 21
-12.2123843463
 31
0.0
 11
-10.5750638472
 21
-12.0993131246
 31
0.0
 11
-10.5859736761
 21
-11.9843993343
 31
0.0
  0
LINE
  5
6BF
100
AcDbEntity
  8
RACCORDO
100
AcDbLine
 62
253
  6
CONTINUOUS
 10
9.593312397
 20
20.4294414966
 11
9.6350166125
 21
20.436798209
  0
SPLINE
  5
6C0
100
AcDbEntity
  8
RACCORDO
100
AcDbSpline
 62
253
  6
CONTINUOUS
 70
0
 71
3
 72
11
 73
7
 74
5
 42
0.0000001
 43
0.0000001
 44
0.0000000001
 12
0.4532355263
 22
0.0799097041
 32
0.0
 13
0.4232975936
 23
-0.1806298712
 33
0.0
 40
0.0
 40
0.0
 40
0.0
 40
0.0
 40
0.2513997016
 40
0.5015513579
 40
0.7507412989
 40
1.0
 40
1.0
 40
1.0
 40
1.0
 10
9.6350166125
 20
20.436798209
 30
0.0
 10
9.6729977045
 20
20.4434946343
 30
0.0
 10
9.7495948225
 20
20.4526843606
 30
0.0
 10
9.8651001905
 20
20.4520166264
 30
0.0
 10
9.9790941632
 20
20.4349879258
 30
0.0
 10
10.0523181559
 20
20.4114057942
 30
0.0
 10
10.0874883587
 20
20.3963979385
 30
0.0
 11
9.6350166125
 21
20.436798209
 31
0.0
 11
9.7499284109
 21
20.4502862687
 31
0.0
 11
9.8650502883
 21
20.449276604
 31
0.0
 11
9.9784144153
 21
20.4319294025
 31
0.0
 11
10.0874883587
 21
20.3963979385
 31
0.0
  0
SPLINE
  5
6C1
100
AcDbEntity
  8
RACCORDO
100
AcDbSpline
 62
253
  6
CONTINUOUS
 70
0
 71
3
 72
15
 73
11
 74
9
 42
0.0000001
 43
0.0000001
 44
0.0000000001
 12
0.8498045126
 22
-0.3888367266
 32
0.0
 13
-0.0364817396
 23
-0.9338258897
 33
0.0
 40
0.0
 40
0.0
 40
0.0
 40
0.0
 40
0.1244807786
 40
0.2491246966
 40
0.373996728
 40
0.4990977497
 40
0.6243643872
 40
0.7496851183
 40
0.8749319527
 40
1.0
 40
1.0
 40
1.0
 40
1.0
 10
10.0874883166
 20
20.3963978964
 30
0.0
 10
10.122749759
 20
20.3802636635
 30
0.0
 10
10.1910622365
 20
20.3427537978
 30
0.0
 10
10.2842112395
 20
20.2721148082
 30
0.0
 10
10.366163135
 20
20.1884346686
 30
0.0
 10
10.4350293153
 20
20.0934566307
 30
0.0
 10
10.4892065074
 20
19.9892376274
 30
0.0
 10
10.5274123921
 20
19.8781097258
 30
0.0
 10
10.5487763386
 20
19.7626453408
 30
0.0
 10
10.5515005926
 20
19.6843800897
 30
0.0
 10
10.5499796926
 20
19.6454494962
 30
0.0
 11
10.0874883166
 21
20.3963978964
 31
0.0
 11
10.1894534119
 21
20.3403955351
 31
0.0
 11
10.2822676805
 21
20.2700097987
 31
0.0
 11
10.3639150611
 21
20.1866308112
 31
0.0
 11
10.4325411831
 21
20.0919798834
 31
0.0
 11
10.4865341361
 21
19.9881082435
 31
0.0
 11
10.524613014
 21
19.8773544888
 31
0.0
 11
10.5459043478
 21
19.762259298
 31
0.0
 11
10.5499796926
 21
19.6454494962
 31
0.0
  0
SPLINE
  5
6C2
100
AcDbEntity
  8
RACCORDO
100
AcDbSpline
 62
253
  6
CONTINUOUS
 70
0
 71
3
 72
14
 73
10
 74
8
 42
0.0000001
 43
0.0000001
 44
0.0000000001
 12
-0.0000029869
 22
-0.7571372369
 32
0.0
 13
-0.6483982458
 23
-0.3909431037
 33
0.0
 40
0.0
 40
0.0
 40
0.0
 40
0.0
 40
0.1257617181
 40
0.2509983274
 40
0.3755844317
 40
0.4998159908
 40
0.6241528752
 40
0.7489671323
 40
1.0
 40
1.0
 40
1.0
 40
1.0
 10
10.5462642122
 20
12.1087960732
 30
0.0
 10
10.546264087
 20
12.0770564466
 30
0.0
 10
10.5408458869
 20
12.0135815723
 30
0.0
 10
10.5171565965
 20
11.9213943448
 30
0.0
 10
10.4796466825
 20
11.8343767064
 30
0.0
 10
10.4303850719
 20
11.7537840644
 30
0.0
 10
10.3712754036
 20
11.6800890777
 30
0.0
 10
10.2814494079
 20
11.5911141771
 30
0.0
 10
10.2040206558
 20
11.5350536537
 30
0.0
 10
10.1497642322
 20
11.5023404643
 30
0.0
 11
10.5462642122
 21
12.1087960732
 31
0.0
 11
10.5382203844
 21
12.0139175619
 31
0.0
 11
10.5147797119
 21
11.9220393063
 31
0.0
 11
10.4776314653
 21
11.8353333303
 31
0.0
 11
10.4287663606
 21
11.7549620109
 31
0.0
 11
10.3700307295
 21
11.6813924433
 31
0.0
 11
10.3030211768
 21
11.6147571864
 31
0.0
 11
10.1497642322
 21
11.5023404643
 31
0.0
  0
SPLINE
  5
6C3
100
AcDbEntity
  8
RACCORDO
100
AcDbSpline
 62
253
  6
CONTINUOUS
 70
0
 71
3
 72
15
 73
11
 74
9
 42
0.0000001
 43
0.0000001
 44
0.0000000001
 12
-0.8864204563
 22
-1.1728345995
 32
0.0
 13
-0.8864304614
 23
1.1728270377
 33
0.0
 40
0.0
 40
0.0
 40
0.0
 40
0.0
 40
0.125004536
 40
0.2500057648
 40
0.3750037549
 40
0.5000000383
 40
0.6249963254
 40
0.7499943114
 40
0.8749955628
 40
1.0
 40
1.0
 40
1.0
 40
1.0
 10
-4.6670417522
 20
-8.6331404615
 30
0.0
 10
-4.7039772782
 20
-8.6820103431
 30
0.0
 10
-4.7893450888
 20
-8.7716418408
 30
0.0
 10
-4.9443909623
 20
-8.8731689757
 30
0.0
 10
-5.1186643582
 20
-8.936533643
 30
0.0
 10
-5.3028347562
 20
-8.9580546967
 30
0.0
 10
-5.4870051824
 20
-8.936533681
 30
0.0
 10
-5.6612785134
 20
-8.8731689498
 30
0.0
 10
-5.816324617
 20
-8.7716420213
 30
0.0
 10
-5.9016916785
 20
-8.6820099869
 30
0.0
 10
-5.9386275922
 20
-8.633140459
 30
0.0
 11
-4.6670417522
 21
-8.6331404615
 31
0.0
 11
-4.7938457005
 21
-8.7661564168
 31
0.0
 11
-4.9475975686
 21
-8.8668095925
 31
0.0
 11
-5.1203150608
 21
-8.9295600239
 31
0.0
 11
-5.3028347594
 21
-8.950881051
 31
0.0
 11
-5.4853544661
 21
-8.9295600448
 31
0.0
 11
-5.6580719516
 21
-8.8668096128
 31
0.0
 11
-5.8118238278
 21
-8.766156389
 31
0.0
 11
-5.9386275922
 21
-8.633140459
 31
0.0
  0
SPLINE
  5
6C4
100
AcDbEntity
  8
RACCORDO
100
AcDbSpline
 62
253
  6
CONTINUOUS
 70
0
 71
3
 72
15
 73
11
 74
9
 42
0.0000001
 43
0.0000001
 44
0.0000000001
 12
-0.8864204563
 22
-1.1728345995
 32
0.0
 13
-0.8864304614
 23
1.1728270377
 33
0.0
 40
0.0
 40
0.0
 40
0.0
 40
0.0
 40
0.125004536
 40
0.2500057648
 40
0.3750037549
 40
0.5000000383
 40
0.6249963254
 40
0.7499943114
 40
0.8749955628
 40
1.0
 40
1.0
 40
1.0
 40
1.0
 10
0.8329582478
 20
-8.6331404615
 30
0.0
 10
0.7960227218
 20
-8.6820103431
 30
0.0
 10
0.7106549112
 20
-8.7716418408
 30
0.0
 10
0.5556090377
 20
-8.8731689757
 30
0.0
 10
0.3813356418
 20
-8.936533643
 30
0.0
 10
0.1971652438
 20
-8.9580546967
 30
0.0
 10
0.0129948176
 20
-8.936533681
 30
0.0
 10
-0.1612785134
 20
-8.8731689498
 30
0.0
 10
-0.316324617
 20
-8.7716420213
 30
0.0
 10
-0.4016916785
 20
-8.6820099869
 30
0.0
 10
-0.4386275922
 20
-8.633140459
 30
0.0
 11
0.8329582478
 21
-8.6331404615
 31
0.0
 11
0.7061542995
 21
-8.7661564168
 31
0.0
 11
0.5524024314
 21
-8.8668095925
 31
0.0
 11
0.3796849392
 21
-8.9295600239
 31
0.0
 11
0.1971652406
 21
-8.950881051
 31
0.0
 11
0.0146455339
 21
-8.9295600448
 31
0.0
 11
-0.1580719516
 21
-8.8668096128
 31
0.0
 11
-0.3118238278
 21
-8.766156389
 31
0.0
 11
-0.4386275922
 21
-8.633140459
 31
0.0
  0
SPLINE
  5
6C5
100
AcDbEntity
  8
RACCORDO
100
AcDbSpline
 62
253
  6
CONTINUOUS
 70
0
 71
3
 72
15
 73
11
 74
9
 42
0.0000001
 43
0.0000001
 44
0.0000000001
 12
-0.8864204539
 22
-1.1728345955
 32
0.0
 13
-0.8864304593
 23
1.1728270335
 33
0.0
 40
0.0
 40
0.0
 40
0.0
 40
0.0
 40
0.1250045357
 40
0.2500057646
 40
0.3750037548
 40
0.5000000383
 40
0.6249963256
 40
0.7499943117
 40
0.8749955632
 40
1.0
 40
1.0
 40
1.0
 40
1.0
 10
6.3329582406
 20
-8.633140487
 30
0.0
 10
6.2960227148
 20
-8.6820103683
 30
0.0
 10
6.2106549141
 20
-8.7716418748
 30
0.0
 10
6.0556090364
 20
-8.8731690045
 30
0.0
 10
5.8813356415
 20
-8.9365336714
 30
0.0
 10
5.6971652437
 20
-8.9580547243
 30
0.0
 10
5.5129948177
 20
-8.9365337097
 30
0.0
 10
5.3387214877
 20
-8.873168979
 30
0.0
 10
5.1836753797
 20
-8.7716420559
 30
0.0
 10
5.0983083283
 20
-8.6820100125
 30
0.0
 10
5.0613724149
 20
-8.6331404849
 30
0.0
 11
6.3329582406
 21
-8.633140487
 31
0.0
 11
6.2061542994
 21
-8.7661564476
 31
0.0
 11
6.0524024311
 21
-8.866809622
 31
0.0
 11
5.8796849389
 21
-8.9295600523
 31
0.0
 11
5.6971652405
 21
-8.950881079
 31
0.0
 11
5.5146455342
 21
-8.9295600733
 31
0.0
 11
5.3419280486
 21
-8.8668096427
 31
0.0
 11
5.1881761719
 21
-8.7661564203
 31
0.0
 11
5.0613724149
 21
-8.6331404849
 31
0.0
  0
SPLINE
  5
6C6
100
AcDbEntity
  8
RACCORDO
100
AcDbSpline
 62
253
  6
CONTINUOUS
 70
0
 71
3
 72
15
 73
11
 74
9
 42
0.0000001
 43
0.0000001
 44
0.0000000001
 12
0.8864204563
 22
1.1728345995
 32
0.0
 13
0.8864304614
 23
-1.1728270377
 33
0.0
 40
0.0
 40
0.0
 40
0.0
 40
0.0
 40
0.125004536
 40
0.2500057648
 40
0.3750037549
 40
0.5000000383
 40
0.6249963254
 40
0.7499943114
 40
0.8749955628
 40
1.0
 40
1.0
 40
1.0
 40
1.0
 10
5.0613724072
 20
-11.8289391524
 30
0.0
 10
5.0983079332
 20
-11.7800692708
 30
0.0
 10
5.1836757438
 20
-11.6904377731
 30
0.0
 10
5.3387216173
 20
-11.5889106381
 30
0.0
 10
5.5129950132
 20
-11.5255459709
 30
0.0
 10
5.6971654112
 20
-11.5040249172
 30
0.0
 10
5.8813358374
 20
-11.5255459328
 30
0.0
 10
6.0556091684
 20
-11.5889106641
 30
0.0
 10
6.2106552719
 20
-11.6904375926
 30
0.0
 10
6.2960223335
 20
-11.780069627
 30
0.0
 10
6.3329582471
 20
-11.8289391549
 30
0.0
 11
5.0613724072
 21
-11.8289391524
 31
0.0
 11
5.1881763555
 21
-11.695923197
 31
0.0
 11
5.3419282235
 21
-11.5952700214
 31
0.0
 11
5.5146457157
 21
-11.5325195899
 31
0.0
 11
5.6971654144
 21
-11.5111985628
 31
0.0
 11
5.879685121
 21
-11.5325195691
 31
0.0
 11
6.0524026065
 21
-11.5952700011
 31
0.0
 11
6.2061544828
 21
-11.6959232249
 31
0.0
 11
6.3329582471
 21
-11.8289391549
 31
0.0
  0
SPLINE
  5
6C7
100
AcDbEntity
  8
RACCORDO
100
AcDbSpline
 62
253
  6
CONTINUOUS
 70
0
 71
3
 72
15
 73
11
 74
9
 42
0.0000001
 43
0.0000001
 44
0.0000000001
 12
0.8864204563
 22
1.1728345995
 32
0.0
 13
0.8864304614
 23
-1.1728270377
 33
0.0
 40
0.0
 40
0.0
 40
0.0
 40
0.0
 40
0.125004536
 40
0.2500057648
 40
0.3750037549
 40
0.5000000383
 40
0.6249963254
 40
0.7499943114
 40
0.8749955628
 40
1.0
 40
1.0
 40
1.0
 40
1.0
 10
-0.4386275928
 20
-11.8289391524
 30
0.0
 10
-0.4016920668
 20
-11.7800692708
 30
0.0
 10
-0.3163242562
 20
-11.6904377731
 30
0.0
 10
-0.1612783827
 20
-11.5889106381
 30
0.0
 10
0.0129950132
 20
-11.5255459709
 30
0.0
 10
0.1971654112
 20
-11.5040249172
 30
0.0
 10
0.3813358374
 20
-11.5255459328
 30
0.0
 10
0.5556091684
 20
-11.5889106641
 30
0.0
 10
0.7106552719
 20
-11.6904375926
 30
0.0
 10
0.7960223335
 20
-11.780069627
 30
0.0
 10
0.8329582471
 20
-11.8289391549
 30
0.0
 11
-0.4386275928
 21
-11.8289391524
 31
0.0
 11
-0.3118236445
 21
-11.695923197
 31
0.0
 11
-0.1580717765
 21
-11.5952700214
 31
0.0
 11
0.0146457157
 21
-11.5325195899
 31
0.0
 11
0.1971654144
 21
-11.5111985628
 31
0.0
 11
0.379685121
 21
-11.5325195691
 31
0.0
 11
0.5524026065
 21
-11.5952700011
 31
0.0
 11
0.7061544828
 21
-11.6959232249
 31
0.0
 11
0.8329582471
 21
-11.8289391549
 31
0.0
  0
SPLINE
  5
6C8
100
AcDbEntity
  8
RACCORDO
100
AcDbSpline
 62
253
  6
CONTINUOUS
 70
0
 71
3
 72
15
 73
11
 74
9
 42
0.0000001
 43
0.0000001
 44
0.0000000001
 12
0.8864204539
 22
1.1728345955
 32
0.0
 13
0.8864304593
 23
-1.1728270335
 33
0.0
 40
0.0
 40
0.0
 40
0.0
 40
0.0
 40
0.1250045357
 40
0.2500057646
 40
0.3750037548
 40
0.5000000383
 40
0.6249963256
 40
0.7499943117
 40
0.8749955632
 40
1.0
 40
1.0
 40
1.0
 40
1.0
 10
-5.9386275856
 20
-11.8289391269
 30
0.0
 10
-5.9016920599
 20
-11.7800692455
 30
0.0
 10
-5.8163242591
 20
-11.6904377391
 30
0.0
 10
-5.6612783815
 20
-11.5889106094
 30
0.0
 10
-5.4870049866
 20
-11.5255459425
 30
0.0
 10
-5.3028345888
 20
-11.5040248895
 30
0.0
 10
-5.1186641627
 20
-11.5255459042
 30
0.0
 10
-4.9443908327
 20
-11.5889106349
 30
0.0
 10
-4.7893447248
 20
-11.6904375579
 30
0.0
 10
-4.7039776733
 20
-11.7800696013
 30
0.0
 10
-4.6670417599
 20
-11.8289391289
 30
0.0
 11
-5.9386275856
 21
-11.8289391269
 31
0.0
 11
-5.8118236444
 21
-11.6959231663
 31
0.0
 11
-5.6580717761
 21
-11.5952699918
 31
0.0
 11
-5.4853542839
 21
-11.5325195616
 31
0.0
 11
-5.3028345856
 21
-11.5111985349
 31
0.0
 11
-5.1203148792
 21
-11.5325195405
 31
0.0
 11
-4.9475973936
 21
-11.5952699711
 31
0.0
 11
-4.793845517
 21
-11.6959231935
 31
0.0
 11
-4.6670417599
 21
-11.8289391289
 31
0.0
  0
SPLINE
  5
6C9
100
AcDbEntity
  8
RACCORDO
100
AcDbSpline
 62
253
  6
CONTINUOUS
 70
0
 71
3
 72
15
 73
11
 74
9
 42
0.0000001
 43
0.0000001
 44
0.0000000001
 12
-0.8864204563
 22
-1.1728345995
 32
0.0
 13
-0.8864304614
 23
1.1728270377
 33
0.0
 40
0.0
 40
0.0
 40
0.0
 40
0.0
 40
0.125004536
 40
0.2500057648
 40
0.3750037549
 40
0.5000000383
 40
0.6249963254
 40
0.7499943114
 40
0.8749955628
 40
1.0
 40
1.0
 40
1.0
 40
1.0
 10
-4.6670417522
 20
4.8668595385
 30
0.0
 10
-4.7039772782
 20
4.8179896569
 30
0.0
 10
-4.7893450888
 20
4.7283581592
 30
0.0
 10
-4.9443909623
 20
4.6268310243
 30
0.0
 10
-5.1186643582
 20
4.563466357
 30
0.0
 10
-5.3028347562
 20
4.5419453033
 30
0.0
 10
-5.4870051824
 20
4.563466319
 30
0.0
 10
-5.6612785134
 20
4.6268310502
 30
0.0
 10
-5.816324617
 20
4.7283579787
 30
0.0
 10
-5.9016916785
 20
4.8179900131
 30
0.0
 10
-5.9386275922
 20
4.866859541
 30
0.0
 11
-4.6670417522
 21
4.8668595385
 31
0.0
 11
-4.7938457005
 21
4.7338435832
 31
0.0
 11
-4.9475975686
 21
4.6331904075
 31
0.0
 11
-5.1203150608
 21
4.5704399761
 31
0.0
 11
-5.3028347594
 21
4.549118949
 31
0.0
 11
-5.4853544661
 21
4.5704399552
 31
0.0
 11
-5.6580719516
 21
4.6331903872
 31
0.0
 11
-5.8118238278
 21
4.733843611
 31
0.0
 11
-5.9386275922
 21
4.866859541
 31
0.0
  0
SPLINE
  5
6CA
100
AcDbEntity
  8
RACCORDO
100
AcDbSpline
 62
253
  6
CONTINUOUS
 70
0
 71
3
 72
15
 73
11
 74
9
 42
0.0000001
 43
0.0000001
 44
0.0000000001
 12
-0.8864204563
 22
-1.1728345995
 32
0.0
 13
-0.8864304614
 23
1.1728270377
 33
0.0
 40
0.0
 40
0.0
 40
0.0
 40
0.0
 40
0.125004536
 40
0.2500057648
 40
0.3750037549
 40
0.5000000383
 40
0.6249963254
 40
0.7499943114
 40
0.8749955628
 40
1.0
 40
1.0
 40
1.0
 40
1.0
 10
0.8329582478
 20
4.8668595385
 30
0.0
 10
0.7960227218
 20
4.8179896569
 30
0.0
 10
0.7106549112
 20
4.7283581592
 30
0.0
 10
0.5556090377
 20
4.6268310243
 30
0.0
 10
0.3813356418
 20
4.563466357
 30
0.0
 10
0.1971652438
 20
4.5419453033
 30
0.0
 10
0.0129948176
 20
4.563466319
 30
0.0
 10
-0.1612785134
 20
4.6268310502
 30
0.0
 10
-0.316324617
 20
4.7283579787
 30
0.0
 10
-0.4016916785
 20
4.8179900131
 30
0.0
 10
-0.4386275922
 20
4.866859541
 30
0.0
 11
0.8329582478
 21
4.8668595385
 31
0.0
 11
0.7061542995
 21
4.7338435832
 31
0.0
 11
0.5524024314
 21
4.6331904075
 31
0.0
 11
0.3796849392
 21
4.5704399761
 31
0.0
 11
0.1971652406
 21
4.549118949
 31
0.0
 11
0.0146455339
 21
4.5704399552
 31
0.0
 11
-0.1580719516
 21
4.6331903872
 31
0.0
 11
-0.3118238278
 21
4.733843611
 31
0.0
 11
-0.4386275922
 21
4.866859541
 31
0.0
  0
SPLINE
  5
6CB
100
AcDbEntity
  8
RACCORDO
100
AcDbSpline
 62
253
  6
CONTINUOUS
 70
0
 71
3
 72
15
 73
11
 74
9
 42
0.0000001
 43
0.0000001
 44
0.0000000001
 12
-0.8864204539
 22
-1.1728345955
 32
0.0
 13
-0.8864304593
 23
1.1728270335
 33
0.0
 40
0.0
 40
0.0
 40
0.0
 40
0.0
 40
0.1250045357
 40
0.2500057646
 40
0.3750037548
 40
0.5000000383
 40
0.6249963256
 40
0.7499943117
 40
0.8749955632
 40
1.0
 40
1.0
 40
1.0
 40
1.0
 10
6.3329582406
 20
4.866859513
 30
0.0
 10
6.2960227148
 20
4.8179896317
 30
0.0
 10
6.2106549141
 20
4.7283581252
 30
0.0
 10
6.0556090364
 20
4.6268309955
 30
0.0
 10
5.8813356415
 20
4.5634663286
 30
0.0
 10
5.6971652437
 20
4.5419452757
 30
0.0
 10
5.5129948177
 20
4.5634662903
 30
0.0
 10
5.3387214877
 20
4.626831021
 30
0.0
 10
5.1836753797
 20
4.7283579441
 30
0.0
 10
5.0983083283
 20
4.8179899875
 30
0.0
 10
5.0613724149
 20
4.8668595151
 30
0.0
 11
6.3329582406
 21
4.866859513
 31
0.0
 11
6.2061542994
 21
4.7338435524
 31
0.0
 11
6.0524024311
 21
4.633190378
 31
0.0
 11
5.8796849389
 21
4.5704399477
 31
0.0
 11
5.6971652405
 21
4.549118921
 31
0.0
 11
5.5146455342
 21
4.5704399267
 31
0.0
 11
5.3419280486
 21
4.6331903573
 31
0.0
 11
5.1881761719
 21
4.7338435797
 31
0.0
 11
5.0613724149
 21
4.8668595151
 31
0.0
  0
SPLINE
  5
6CC
100
AcDbEntity
  8
RACCORDO
100
AcDbSpline
 62
253
  6
CONTINUOUS
 70
0
 71
3
 72
15
 73
11
 74
9
 42
0.0000001
 43
0.0000001
 44
0.0000000001
 12
0.8864204563
 22
1.1728345995
 32
0.0
 13
0.8864304614
 23
-1.1728270377
 33
0.0
 40
0.0
 40
0.0
 40
0.0
 40
0.0
 40
0.125004536
 40
0.2500057648
 40
0.3750037549
 40
0.5000000383
 40
0.6249963254
 40
0.7499943114
 40
0.8749955628
 40
1.0
 40
1.0
 40
1.0
 40
1.0
 10
5.0613724072
 20
1.6710608476
 30
0.0
 10
5.0983079332
 20
1.7199307292
 30
0.0
 10
5.1836757438
 20
1.8095622269
 30
0.0
 10
5.3387216173
 20
1.9110893619
 30
0.0
 10
5.5129950132
 20
1.9744540291
 30
0.0
 10
5.6971654112
 20
1.9959750828
 30
0.0
 10
5.8813358374
 20
1.9744540672
 30
0.0
 10
6.0556091684
 20
1.9110893359
 30
0.0
 10
6.2106552719
 20
1.8095624074
 30
0.0
 10
6.2960223335
 20
1.719930373
 30
0.0
 10
6.3329582471
 20
1.6710608451
 30
0.0
 11
5.0613724072
 21
1.6710608476
 31
0.0
 11
5.1881763555
 21
1.804076803
 31
0.0
 11
5.3419282235
 21
1.9047299786
 31
0.0
 11
5.5146457157
 21
1.9674804101
 31
0.0
 11
5.6971654144
 21
1.9888014372
 31
0.0
 11
5.879685121
 21
1.9674804309
 31
0.0
 11
6.0524026065
 21
1.9047299989
 31
0.0
 11
6.2061544828
 21
1.8040767751
 31
0.0
 11
6.3329582471
 21
1.6710608451
 31
0.0
  0
SPLINE
  5
6CD
100
AcDbEntity
  8
RACCORDO
100
AcDbSpline
 62
253
  6
CONTINUOUS
 70
0
 71
3
 72
15
 73
11
 74
9
 42
0.0000001
 43
0.0000001
 44
0.0000000001
 12
0.8864204563
 22
1.1728345995
 32
0.0
 13
0.8864304614
 23
-1.1728270377
 33
0.0
 40
0.0
 40
0.0
 40
0.0
 40
0.0
 40
0.125004536
 40
0.2500057648
 40
0.3750037549
 40
0.5000000383
 40
0.6249963254
 40
0.7499943114
 40
0.8749955628
 40
1.0
 40
1.0
 40
1.0
 40
1.0
 10
-0.4386275928
 20
1.6710608476
 30
0.0
 10
-0.4016920668
 20
1.7199307292
 30
0.0
 10
-0.3163242562
 20
1.8095622269
 30
0.0
 10
-0.1612783827
 20
1.9110893619
 30
0.0
 10
0.0129950132
 20
1.9744540291
 30
0.0
 10
0.1971654112
 20
1.9959750828
 30
0.0
 10
0.3813358374
 20
1.9744540672
 30
0.0
 10
0.5556091684
 20
1.9110893359
 30
0.0
 10
0.7106552719
 20
1.8095624074
 30
0.0
 10
0.7960223335
 20
1.719930373
 30
0.0
 10
0.8329582471
 20
1.6710608451
 30
0.0
 11
-0.4386275928
 21
1.6710608476
 31
0.0
 11
-0.3118236445
 21
1.804076803
 31
0.0
 11
-0.1580717765
 21
1.9047299786
 31
0.0
 11
0.0146457157
 21
1.9674804101
 31
0.0
 11
0.1971654144
 21
1.9888014372
 31
0.0
 11
0.379685121
 21
1.9674804309
 31
0.0
 11
0.5524026065
 21
1.9047299989
 31
0.0
 11
0.7061544828
 21
1.8040767751
 31
0.0
 11
0.8329582471
 21
1.6710608451
 31
0.0
  0
SPLINE
  5
6CE
100
AcDbEntity
  8
RACCORDO
100
AcDbSpline
 62
253
  6
CONTINUOUS
 70
0
 71
3
 72
15
 73
11
 74
9
 42
0.0000001
 43
0.0000001
 44
0.0000000001
 12
0.8864204539
 22
1.1728345955
 32
0.0
 13
0.8864304593
 23
-1.1728270335
 33
0.0
 40
0.0
 40
0.0
 40
0.0
 40
0.0
 40
0.1250045357
 40
0.2500057646
 40
0.3750037548
 40
0.5000000383
 40
0.6249963256
 40
0.7499943117
 40
0.8749955632
 40
1.0
 40
1.0
 40
1.0
 40
1.0
 10
-5.9386275856
 20
1.6710608731
 30
0.0
 10
-5.9016920599
 20
1.7199307545
 30
0.0
 10
-5.8163242591
 20
1.8095622609
 30
0.0
 10
-5.6612783815
 20
1.9110893906
 30
0.0
 10
-5.4870049866
 20
1.9744540575
 30
0.0
 10
-5.3028345888
 20
1.9959751105
 30
0.0
 10
-5.1186641627
 20
1.9744540958
 30
0.0
 10
-4.9443908327
 20
1.9110893651
 30
0.0
 10
-4.7893447248
 20
1.8095624421
 30
0.0
 10
-4.7039776733
 20
1.7199303987
 30
0.0
 10
-4.6670417599
 20
1.6710608711
 30
0.0
 11
-5.9386275856
 21
1.6710608731
 31
0.0
 11
-5.8118236444
 21
1.8040768337
 31
0.0
 11
-5.6580717761
 21
1.9047300082
 31
0.0
 11
-5.4853542839
 21
1.9674804384
 31
0.0
 11
-5.3028345856
 21
1.9888014651
 31
0.0
 11
-5.1203148792
 21
1.9674804595
 31
0.0
 11
-4.9475973936
 21
1.9047300289
 31
0.0
 11
-4.793845517
 21
1.8040768065
 31
0.0
 11
-4.6670417599
 21
1.6710608711
 31
0.0
  0
SPLINE
  5
6CF
100
AcDbEntity
  8
RACCORDO
100
AcDbSpline
 62
253
  6
CONTINUOUS
 70
0
 71
3
 72
11
 73
7
 74
5
 42
0.0000001
 43
0.0000001
 44
0.0000000001
 12
-0.0093971039
 22
-0.4727065065
 32
0.0
 13
-0.2913430208
 23
-0.3723694283
 33
0.0
 40
0.0
 40
0.0
 40
0.0
 40
0.0
 40
0.2441425772
 40
0.4907269908
 40
0.7418138484
 40
1.0
 40
1.0
 40
1.0
 40
1.0
 10
10.9803043311
 20
-11.9843992484
 30
0.0
 10
10.9795395867
 20
-12.02286851
 30
0.0
 10
10.9722152119
 20
-12.1001991804
 30
0.0
 10
10.9436938736
 20
-12.2140356791
 30
0.0
 10
10.8968153777
 20
-12.324085438
 30
0.0
 10
10.8530872714
 20
-12.3919897633
 30
0.0
 10
10.8280136936
 20
-12.4240366398
 30
0.0
 11
10.9803043311
 21
-11.9843992484
 31
0.0
 11
10.969394518
 21
-12.0993131129
 31
0.0
 11
10.9409870107
 21
-12.2123843114
 31
0.0
 11
10.8943040122
 21
-12.3215340884
 31
0.0
 11
10.8280136936
 21
-12.4240366398
 31
0.0
  0
SPLINE
  5
6D0
100
AcDbEntity
  8
RACCORDO
100
AcDbSpline
 62
253
  6
CONTINUOUS
 70
0
 71
3
 72
12
 73
8
 74
6
 42
0.0000001
 43
0.0000001
 44
0.0000000001
 12
-0.7270715343
 22
-0.9292761435
 32
0.0
 13
-0.9834060828
 23
-0.6519966589
 33
0.0
 40
0.0
 40
0.0
 40
0.0
 40
0.0
 40
0.1041389611
 40
0.2177208205
 40
0.4637434825
 40
0.7269052435
 40
1.0
 40
1.0
 40
1.0
 40
1.0
 10
10.8280136936
 20
-12.4240366398
 30
0.0
 10
10.8027748689
 20
-12.4562945905
 30
0.0
 10
10.7496527748
 20
-12.5234632396
 30
0.0
 10
10.6330624038
 20
-12.6637454605
 30
0.0
 10
10.4670114598
 20
-12.8441570234
 30
0.0
 10
10.2395473903
 20
-13.0519682726
 30
0.0
 10
10.0699750594
 20
-13.178176173
 30
0.0
 10
9.9804540445
 20
-13.2375284626
 30
0.0
 11
10.8280136936
 21
-12.4240366398
 31
0.0
 11
10.7515871885
 21
-12.5202507357
 31
0.0
 11
10.6658133935
 21
-12.6232227625
 31
0.0
 11
10.4687122078
 21
-12.8363336358
 31
0.0
 11
10.2391496873
 21
-13.0454167193
 31
0.0
 11
9.9804540445
 21
-13.2375284626
 31
0.0
  0
SPLINE
  5
6D1
100
AcDbEntity
  8
RACCORDO
100
AcDbSpline
 62
253
  6
CONTINUOUS
 70
0
 71
3
 72
12
 73
8
 74
6
 42
0.0000001
 43
0.0000001
 44
0.0000000001
 12
0.9834060864
 22
-0.6519965823
 32
0.0
 13
0.7270715273
 23
-0.9292760991
 33
0.0
 40
0.0
 40
0.0
 40
0.0
 40
0.0
 40
0.2730947562
 40
0.5362565168
 40
0.7822791792
 40
0.8958610403
 40
1.0
 40
1.0
 40
1.0
 40
1.0
 10
9.980454046
 20
-7.2245511522
 30
0.0
 10
10.0699750611
 20
-7.2839034348
 30
0.0
 10
10.2395473816
 20
-7.4101113377
 30
0.0
 10
10.4670114453
 20
-7.6179225768
 30
0.0
 10
10.6330623878
 20
-7.7983341315
 30
0.0
 10
10.7496527506
 20
-7.9386163515
 30
0.0
 10
10.802774853
 20
-8.0057849904
 30
0.0
 10
10.8280136771
 20
-8.0380429392
 30
0.0
 11
9.980454046
 21
-7.2245511522
 31
0.0
 11
10.23914968
 21
-7.4166628886
 31
0.0
 11
10.4687121935
 21
-7.6257459638
 31
0.0
 11
10.6658133743
 21
-7.8388568292
 31
0.0
 11
10.7515871682
 21
-7.9418288537
 31
0.0
 11
10.8280136771
 21
-8.0380429392
 31
0.0
  0
SPLINE
  5
6D2
100
AcDbEntity
  8
RACCORDO
100
AcDbSpline
 62
253
  6
CONTINUOUS
 70
0
 71
3
 72
11
 73
7
 74
5
 42
0.0000001
 43
0.0000001
 44
0.0000000001
 12
0.2913422243
 22
-0.3723695633
 32
0.0
 13
0.0093971999
 23
-0.4727061201
 33
0.0
 40
0.0
 40
0.0
 40
0.0
 40
0.0
 40
0.2581865194
 40
0.5092734695
 40
0.7558576244
 40
1.0
 40
1.0
 40
1.0
 40
1.0
 10
10.8280136771
 20
-8.0380429392
 30
0.0
 10
10.8530872221
 20
-8.070089873
 30
0.0
 10
10.8968152473
 20
-8.1379942504
 30
0.0
 10
10.9436937792
 20
-8.2480439122
 30
0.0
 10
10.9722152184
 20
-8.361880231
 30
0.0
 10
10.9795395795
 20
-8.4392107691
 30
0.0
 10
10.9803043311
 20
-8.4776799675
 30
0.0
 11
10.8280136771
 21
-8.0380429392
 31
0.0
 11
10.8943039328
 21
-8.1405456202
 31
0.0
 11
10.9409869508
 21
-8.2496953315
 31
0.0
 11
10.9693945052
 21
-8.3627662942
 31
0.0
 11
10.9803043311
 21
-8.4776799675
 31
0.0
  0
SPLINE
  5
6D3
100
AcDbEntity
  8
RACCORDO
100
AcDbSpline
 62
253
  6
CONTINUOUS
 70
0
 71
3
 72
11
 73
7
 74
5
 42
0.0000001
 43
0.0000001
 44
0.0000000001
 12
-0.0093971101
 22
-0.4727064829
 32
0.0
 13
-0.2913429457
 23
-0.3723694573
 33
0.0
 40
0.0
 40
0.0
 40
0.0
 40
0.0
 40
0.244142491
 40
0.4907269021
 40
0.7418138044
 40
1.0
 40
1.0
 40
1.0
 40
1.0
 10
10.9803043311
 20
1.5156007279
 30
0.0
 10
10.9795395865
 20
1.4771314818
 30
0.0
 10
10.9722152025
 20
1.3998008298
 30
0.0
 10
10.9436938562
 20
1.2859643473
 30
0.0
 10
10.896815367
 20
1.1759145781
 30
0.0
 10
10.8530872662
 20
1.1080102374
 30
0.0
 10
10.8280136906
 20
1.0759633529
 30
0.0
 11
10.9803043311
 21
1.5156007279
 31
0.0
 11
10.9693945124
 21
1.4006869106
 31
0.0
 11
10.9409869991
 21
1.2876157209
 31
0.0
 11
10.8943040021
 21
1.1784659266
 31
0.0
 11
10.8280136906
 21
1.0759633529
 31
0.0
  0
SPLINE
  5
6D4
100
AcDbEntity
  8
RACCORDO
100
AcDbSpline
 62
253
  6
CONTINUOUS
 70
0
 71
3
 72
12
 73
8
 74
6
 42
0.0000001
 43
0.0000001
 44
0.0000000001
 12
-0.7270715293
 22
-0.9292761379
 32
0.0
 13
-0.9834060765
 23
-0.6519966547
 33
0.0
 40
0.0
 40
0.0
 40
0.0
 40
0.0
 40
0.1041389605
 40
0.2177208203
 40
0.4637434825
 40
0.7269052436
 40
1.0
 40
1.0
 40
1.0
 40
1.0
 10
10.8280136906
 20
1.0759633529
 30
0.0
 10
10.8027748662
 20
1.0437054026
 30
0.0
 10
10.7496527699
 20
0.9765367561
 30
0.0
 10
10.6330624009
 20
0.8362545351
 30
0.0
 10
10.4670114568
 20
0.655842974
 30
0.0
 10
10.2395473887
 20
0.448031726
 30
0.0
 10
10.0699750588
 20
0.3218238266
 30
0.0
 10
9.9804540445
 20
0.2624715374
 30
0.0
 11
10.8280136906
 21
1.0759633529
 31
0.0
 11
10.7515871846
 21
0.9797492596
 31
0.0
 11
10.6658133899
 21
0.8767772333
 31
0.0
 11
10.4687122049
 21
0.6636663613
 31
0.0
 11
10.2391496857
 21
0.4545832793
 31
0.0
 11
9.9804540445
 21
0.2624715374
 31
0.0
  0
SPLINE
  5
6D5
100
AcDbEntity
  8
RACCORDO
100
AcDbSpline
 62
253
  6
CONTINUOUS
 70
0
 71
3
 72
13
 73
9
 74
7
 42
0.0000001
 43
0.0000001
 44
0.0000000001
 12
0.9026293685
 22
0.8708093285
 32
0.0
 13
1.1172984745
 23
0.5698182012
 33
0.0
 40
0.0
 40
0.0
 40
0.0
 40
0.0
 40
0.0966108677
 40
0.2048649821
 40
0.3224305081
 40
0.4476851078
 40
0.7162343435
 40
1.0
 40
1.0
 40
1.0
 40
1.0
 10
-10.4582358305
 20
-8.2292173612
 30
0.0
 10
-10.429167895
 20
-8.2011741462
 30
0.0
 10
-10.3672982864
 20
-8.1419430886
 30
0.0
 10
-10.2678689545
 20
-8.0508998608
 30
0.0
 10
-10.1565772845
 20
-7.9551621873
 30
0.0
 10
-9.9894318054
 20
-7.8217932206
 30
0.0
 10
-9.7569747451
 20
-7.6592493653
 30
0.0
 10
-9.5560316505
 20
-7.5446854757
 30
0.0
 10
-9.4503480055
 20
-7.4907871971
 30
0.0
 11
-10.4582358305
 21
-8.2292173612
 31
0.0
 11
-10.3705242337
 21
-8.1456172608
 31
0.0
 11
-10.2702925636
 21
-8.0540307108
 31
0.0
 11
-10.1584537644
 21
-7.9579358848
 31
0.0
 11
-10.0356228533
 21
-7.8599987669
 31
0.0
 11
-9.7594863396
 21
-7.6671391344
 31
0.0
 11
-9.4503480055
 21
-7.4907871971
 31
0.0
  0
SPLINE
  5
6D6
100
AcDbEntity
  8
RACCORDO
100
AcDbSpline
 62
253
  6
CONTINUOUS
 70
0
 71
3
 72
13
 73
9
 74
7
 42
0.0000001
 43
0.0000001
 44
0.0000000001
 12
-1.1172980865
 22
0.5698179978
 32
0.0
 13
-0.9026290902
 23
0.8708089861
 33
0.0
 40
0.0
 40
0.0
 40
0.0
 40
0.0
 40
0.2837656318
 40
0.5523148554
 40
0.6775694567
 40
0.7951349916
 40
0.9033891266
 40
1.0
 40
1.0
 40
1.0
 40
1.0
 10
-9.4503480055
 20
-12.9712924168
 30
0.0
 10
-9.5560316046
 20
-12.9173941621
 30
0.0
 10
-9.7569746174
 20
-12.8028303238
 30
0.0
 10
-9.989431594
 20
-12.6402865479
 30
0.0
 10
-10.1565770244
 20
-12.506917641
 30
0.0
 10
-10.2678686743
 20
-12.4111800028
 30
0.0
 10
-10.3672979865
 20
-12.3201368015
 30
0.0
 10
-10.4291675914
 20
-12.2609057673
 30
0.0
 10
-10.4582355196
 20
-12.2328625617
 30
0.0
 11
-9.4503480055
 21
-12.9712924168
 31
0.0
 11
-9.7594862083
 21
-12.7949405627
 31
0.0
 11
-10.0356226243
 21
-12.6020810222
 31
0.0
 11
-10.1584535017
 21
-12.5041439469
 31
0.0
 11
-10.2702922784
 21
-12.4080491564
 31
0.0
 11
-10.3705239393
 21
-12.3164626285
 31
0.0
 11
-10.4582355196
 21
-12.2328625617
 31
0.0
  0
SPLINE
  5
6D7
100
AcDbEntity
  8
RACCORDO
100
AcDbSpline
 62
253
  6
CONTINUOUS
 70
0
 71
3
 72
13
 73
9
 74
7
 42
0.0000001
 43
0.0000001
 44
0.0000000001
 12
1.1172976749
 22
-0.5698177879
 32
0.0
 13
0.9026288087
 23
-0.8708086124
 33
0.0
 40
0.0
 40
0.0
 40
0.0
 40
0.0
 40
0.283765575
 40
0.5523147605
 40
0.6775693537
 40
0.79513489
 40
0.9033890392
 40
1.0
 40
1.0
 40
1.0
 40
1.0
 10
9.8446786604
 20
-7.4907871971
 30
0.0
 10
9.9503621995
 20
-7.5446854211
 30
0.0
 10
10.1513051064
 20
-7.6592491919
 30
0.0
 10
10.3837619738
 20
-7.8217928656
 30
0.0
 10
10.5509073424
 20
-7.9551616937
 30
0.0
 10
10.6621989623
 20
-8.0508992883
 30
0.0
 10
10.7616282857
 20
-8.141942468
 30
0.0
 10
10.8234978885
 20
-8.2011735202
 30
0.0
 10
10.852565834
 20
-8.2292167391
 30
0.0
 11
9.8446786604
 21
-7.4907871971
 31
0.0
 11
10.1538166923
 21
-7.6671389426
 31
0.0
 11
10.4299529819
 21
-7.859998364
 31
0.0
 11
10.5527838159
 21
-7.9579353843
 31
0.0
 11
10.6646225633
 21
-8.0540301283
 31
0.0
 11
10.7648542098
 21
-8.1456166242
 31
0.0
 11
10.852565834
 21
-8.2292167391
 31
0.0
  0
SPLINE
  5
6D8
100
AcDbEntity
  8
RACCORDO
100
AcDbSpline
 62
253
  6
CONTINUOUS
 70
0
 71
3
 72
13
 73
9
 74
7
 42
0.0000001
 43
0.0000001
 44
0.0000000001
 12
-0.9026294352
 22
-0.8708094182
 32
0.0
 13
-1.1172985727
 23
-0.5698182513
 33
0.0
 40
0.0
 40
0.0
 40
0.0
 40
0.0
 40
0.0966108573
 40
0.2048649675
 40
0.322430492
 40
0.4476850924
 40
0.7162343338
 40
1.0
 40
1.0
 40
1.0
 40
1.0
 10
10.8525665651
 20
-12.2328621763
 30
0.0
 10
10.8234986306
 20
-12.2609053911
 30
0.0
 10
10.7616290211
 20
-12.3201364499
 30
0.0
 10
10.6621996878
 20
-12.4111796837
 30
0.0
 10
10.5509080118
 20
-12.5069173668
 30
0.0
 10
10.3837625193
 20
-12.6402863502
 30
0.0
 10
10.1513054357
 20
-12.8028302275
 30
0.0
 10
9.9503623184
 20
-12.9173941316
 30
0.0
 10
9.8446786604
 20
-12.9712924168
 30
0.0
 11
10.8525665651
 21
-12.2328621763
 31
0.0
 11
10.7648549708
 21
-12.316462276
 31
0.0
 11
10.6646232979
 21
-12.4080488326
 31
0.0
 11
10.5527844924
 21
-12.5041436684
 31
0.0
 11
10.4299535721
 21
-12.6020807981
 31
0.0
 11
10.1538170312
 21
-12.7949404562
 31
0.0
 11
9.8446786604
 21
-12.9712924168
 31
0.0
  0
SPLINE
  5
6D9
100
AcDbEntity
  8
RACCORDO
100
AcDbSpline
 62
253
  6
CONTINUOUS
 70
0
 71
3
 72
13
 73
9
 74
7
 42
0.0000001
 43
0.0000001
 44
0.0000000001
 12
-1.1172980464
 22
0.5698179774
 32
0.0
 13
-0.9026290634
 23
0.8708089491
 33
0.0
 40
0.0
 40
0.0
 40
0.0
 40
0.0
 40
0.2837655969
 40
0.5523147918
 40
0.6775693823
 40
0.795134909
 40
0.9033890384
 40
1.0
 40
1.0
 40
1.0
 40
1.0
 10
-9.4503480055
 20
0.5287075832
 30
0.0
 10
-9.5560315878
 20
0.5826058293
 30
0.0
 10
-9.7569745711
 20
0.6971696486
 30
0.0
 10
-9.9894315166
 20
0.8597133964
 30
0.0
 10
-10.1565769304
 20
0.9930822801
 30
0.0
 10
-10.2678685687
 20
1.0888199076
 30
0.0
 10
-10.3672979129
 20
1.1798631133
 30
0.0
 10
-10.4291675202
 20
1.2390941905
 30
0.0
 10
-10.4582354742
 20
1.2671374205
 30
0.0
 11
-9.4503480055
 21
0.5287075832
 31
0.0
 11
-9.7594861605
 21
0.7050594069
 31
0.0
 11
-10.0356225411
 21
0.8979189141
 31
0.0
 11
-10.1584534063
 21
0.9958559739
 31
0.0
 11
-10.2702921743
 21
1.0919507507
 31
0.0
 11
-10.3705238294
 21
1.1835372673
 31
0.0
 11
-10.4582354742
 21
1.2671374205
 31
0.0
  0
SPLINE
  5
6DA
100
AcDbEntity
  8
RACCORDO
100
AcDbSpline
 62
253
  6
CONTINUOUS
 70
0
 71
3
 72
13
 73
9
 74
7
 42
0.0000001
 43
0.0000001
 44
0.0000000001
 12
0.9026295046
 22
0.8708095108
 32
0.0
 13
1.1172986745
 23
0.5698183032
 33
0.0
 40
0.0
 40
0.0
 40
0.0
 40
0.0
 40
0.0966108558
 40
0.2048649607
 40
0.3224304828
 40
0.4476850826
 40
0.7162343272
 40
1.0
 40
1.0
 40
1.0
 40
1.0
 10
-10.4582359913
 20
5.2707824818
 30
0.0
 10
-10.429168055
 20
5.2988256992
 30
0.0
 10
-10.3672984443
 20
5.3580567639
 30
0.0
 10
-10.2678691059
 20
5.4491000047
 30
0.0
 10
-10.1565774247
 20
5.5448376969
 30
0.0
 10
-9.9894319196
 20
5.6782066959
 30
0.0
 10
-9.7569748142
 20
5.8407505939
 30
0.0
 10
-9.5560316755
 20
5.9553145115
 30
0.0
 10
-9.4503480055
 20
6.0092128029
 30
0.0
 11
-10.4582359913
 21
5.2707824818
 31
0.0
 11
-10.3705243927
 21
5.3543825902
 31
0.0
 11
-10.2702927173
 21
5.4459691527
 31
0.0
 11
-10.158453906
 21
5.5420639977
 31
0.0
 11
-10.035622977
 21
5.6400011384
 31
0.0
 11
-9.7594864107
 21
5.8328608205
 31
0.0
 11
-9.4503480055
 21
6.0092128029
 31
0.0
  0
SPLINE
  5
6DB
100
AcDbEntity
  8
RACCORDO
100
AcDbSpline
 62
253
  6
CONTINUOUS
 70
0
 71
3
 72
13
 73
9
 74
7
 42
0.0000001
 43
0.0000001
 44
0.0000000001
 12
-0.9026293686
 22
-0.8708093286
 32
0.0
 13
-1.1172984746
 23
-0.5698182012
 33
0.0
 40
0.0
 40
0.0
 40
0.0
 40
0.0
 40
0.0966108677
 40
0.2048649821
 40
0.3224305081
 40
0.4476851078
 40
0.7162343435
 40
1.0
 40
1.0
 40
1.0
 40
1.0
 10
10.8525664855
 20
1.2671377474
 30
0.0
 10
10.82349855
 20
1.2390945324
 30
0.0
 10
10.7616289414
 20
1.1798634748
 30
0.0
 10
10.6621996095
 20
1.088820247
 30
0.0
 10
10.5509079395
 20
0.9930825735
 30
0.0
 10
10.3837624604
 20
0.8597136068
 30
0.0
 10
10.1513054001
 20
0.6971697514
 30
0.0
 10
9.9503623055
 20
0.5826058619
 30
0.0
 10
9.8446786604
 20
0.5287075832
 30
0.0
 11
10.8525664855
 21
1.2671377474
 31
0.0
 11
10.7648548887
 21
1.183537647
 31
0.0
 11
10.6646232187
 21
1.091951097
 31
0.0
 11
10.5527844194
 21
0.995856271
 31
0.0
 11
10.4299535083
 21
0.8979191531
 31
0.0
 11
10.1538169946
 21
0.7050595206
 31
0.0
 11
9.8446786604
 21
0.5287075832
 31
0.0
  0
SPLINE
  5
6DC
100
AcDbEntity
  8
RACCORDO
100
AcDbSpline
 62
253
  6
CONTINUOUS
 70
0
 71
3
 72
13
 73
9
 74
7
 42
0.0000001
 43
0.0000001
 44
0.0000000001
 12
1.1172981258
 22
-0.5698180179
 32
0.0
 13
0.9026291172
 23
-0.8708090217
 33
0.0
 40
0.0
 40
0.0
 40
0.0
 40
0.0
 40
0.2837656353
 40
0.5523148609
 40
0.6775694623
 40
0.7951349966
 40
0.9033891298
 40
1.0
 40
1.0
 40
1.0
 40
1.0
 10
9.8446786604
 20
6.0092128029
 30
0.0
 10
9.9503622646
 20
5.9553145457
 30
0.0
 10
10.1513052862
 20
5.8407507017
 30
0.0
 10
10.3837622719
 20
5.6782069172
 30
0.0
 10
10.5509077076
 20
5.5448380039
 30
0.0
 10
10.6621993597
 20
5.4491003619
 30
0.0
 10
10.7616286729
 20
5.3580571581
 30
0.0
 10
10.8234982781
 20
5.298826123
 30
0.0
 10
10.8525662063
 20
5.2707829172
 30
0.0
 11
9.8446786604
 21
6.0092128029
 31
0.0
 11
10.1538168776
 21
5.8328609398
 31
0.0
 11
10.4299533042
 21
5.6400013893
 31
0.0
 11
10.5527841851
 21
5.5420643094
 31
0.0
 11
10.6646229643
 21
5.4459695151
 31
0.0
 11
10.7648546263
 21
5.3543829847
 31
0.0
 11
10.8525662063
 21
5.2707829172
 31
0.0
  0
SPLINE
  5
6DD
100
AcDbEntity
  8
RACCORDO
100
AcDbSpline
 62
253
  6
CONTINUOUS
 70
0
 71
3
 72
12
 73
8
 74
6
 42
0.0000001
 43
0.0000001
 44
0.0000000001
 12
0.9834059772
 22
-0.6519965098
 32
0.0
 13
0.7270714349
 23
-0.9292760049
 33
0.0
 40
0.0
 40
0.0
 40
0.0
 40
0.0
 40
0.2730947569
 40
0.5362565201
 40
0.7822791889
 40
0.8958610561
 40
1.0
 40
1.0
 40
1.0
 40
1.0
 10
9.980454046
 20
6.2754488478
 30
0.0
 10
10.0699750514
 20
6.2160965717
 30
0.0
 10
10.2395473563
 20
6.0898886842
 30
0.0
 10
10.4670113944
 20
5.8820774643
 30
0.0
 10
10.6330623439
 20
5.7016659428
 30
0.0
 10
10.7496526625
 20
5.5613837153
 30
0.0
 10
10.8027748173
 20
5.4942151349
 30
0.0
 10
10.8280136344
 20
5.4619571943
 30
0.0
 11
9.980454046
 21
6.2754488478
 31
0.0
 11
10.2391496531
 21
6.0833371338
 31
0.0
 11
10.4687121465
 21
5.8742540832
 31
0.0
 11
10.6658133145
 21
5.6611432396
 31
0.0
 11
10.7515871051
 21
5.5581712224
 31
0.0
 11
10.8280136344
 21
5.4619571943
 31
0.0
  0
SPLINE
  5
6DE
100
AcDbEntity
  8
RACCORDO
100
AcDbSpline
 62
253
  6
CONTINUOUS
 70
0
 71
3
 72
11
 73
7
 74
5
 42
0.0000001
 43
0.0000001
 44
0.0000000001
 12
0.2913429832
 22
-0.3723695835
 32
0.0
 13
0.0093972073
 23
-0.4727066036
 33
0.0
 40
0.0
 40
0.0
 40
0.0
 40
0.0
 40
0.258186186
 40
0.5092731782
 40
0.7558576084
 40
1.0
 40
1.0
 40
1.0
 40
1.0
 10
10.8280136344
 20
5.4619571943
 30
0.0
 10
10.8530872123
 20
5.4299103001
 30
0.0
 10
10.8968153635
 20
5.3620059506
 30
0.0
 10
10.9436938184
 20
5.251956114
 30
0.0
 10
10.9722151939
 20
5.1381196088
 30
0.0
 10
10.9795395789
 20
5.0607889488
 30
0.0
 10
10.9803043311
 20
5.0223197086
 30
0.0
 11
10.8280136344
 21
5.4619571943
 31
0.0
 11
10.8943039732
 21
5.3594546061
 31
0.0
 11
10.9409869756
 21
5.2503047345
 31
0.0
 11
10.9693945033
 21
5.1372335079
 31
0.0
 11
10.9803043311
 21
5.0223197086
 31
0.0
  0
LINE
  5
6DF
100
AcDbEntity
  8
RACCORDO
100
AcDbLine
 62
253
  6
CONTINUOUS
 10
9.5933123955
 20
20.1294464723
 11
9.6276556769
 21
20.1294440457
  0
LINE
  5
6E0
100
AcDbEntity
  8
RACCORDO
100
AcDbLine
 62
253
  6
CONTINUOUS
 10
10.1272924437
 20
19.6290933556
 11
10.1273211542
 21
19.4588324585
  0
LINE
  5
6E1
100
AcDbEntity
  8
RACCORDO
100
AcDbLine
 62
7
  6
CONTINUOUS
 10
10.9334802887
 20
-11.5187656759
 11
10.9333888988
 21
-11.5188427745
  0
LINE
  5
6E2
100
AcDbEntity
  8
RACCORDO
100
AcDbLine
 62
7
  6
CONTINUOUS
 10
10.9334802887
 20
1.9812343241
 11
10.9333888988
 21
1.9811572255
  0
LINE
  5
6E3
100
AcDbEntity
  8
RACCORDO
100
AcDbLine
 62
7
  6
CONTINUOUS
 10
-10.5391496337
 20
-8.9433139379
 11
-10.5390582439
 21
-8.9432368394
  0
LINE
  5
6E4
100
AcDbEntity
  8
RACCORDO
100
AcDbLine
 62
7
  6
CONTINUOUS
 10
-10.5390582439
 20
1.9811572255
 11
-10.5391496337
 21
1.9812343241
  0
LINE
  5
6E5
100
AcDbEntity
  8
0
100
AcDbLine
 62
7
  6
CONTINUOUS
 10
8.2476702287
 20
-11.8247334538
 11
8.2471038098
 21
-11.8237573745
  0
SPLINE
  5
6E6
100
AcDbEntity
  8
0
100
AcDbSpline
 62
7
  6
CONTINUOUS
 70
0
 71
3
 72
9
 73
5
 74
3
 42
0.0000001
 43
0.0000001
 44
0.0000000001
 12
0.1307978605
 22
-0.0151647496
 32
0.0
 13
0.1299714313
 23
-0.0211063257
 33
0.0
 40
0.0
 40
0.0
 40
0.0
 40
0.0
 40
0.2724052491
 40
1.0
 40
1.0
 40
1.0
 40
1.0
 10
2.3343967206
 20
-11.7546975292
 30
0.0
 10
2.3462733952
 20
-11.756074515
 30
0.0
 10
2.3898499344
 20
-11.7613157474
 30
0.0
 10
2.4333389795
 20
-11.7673419933
 30
0.0
 10
2.4648611566
 20
-11.7724609439
 30
0.0
 11
2.3343967206
 21
-11.7546975292
 31
0.0
 11
2.3700078588
 21
-11.7589882451
 31
0.0
 11
2.4648611566
 21
-11.7724609439
 31
0.0
  0
SPLINE
  5
6E7
100
AcDbEntity
  8
0
100
AcDbSpline
 62
7
  6
CONTINUOUS
 70
0
 71
3
 72
9
 73
5
 74
3
 42
0.0000001
 43
0.0000001
 44
0.0000000001
 12
0.05399261
 22
-0.00876797
 32
0.0
 13
0.0536786583
 23
-0.0105204977
 33
0.0
 40
0.0
 40
0.0
 40
0.0
 40
0.0
 40
0.263193907
 40
1.0
 40
1.0
 40
1.0
 40
1.0
 10
2.4648611566
 20
-11.7724609439
 30
0.0
 10
2.4695979986
 20
-11.7732301694
 30
0.0
 10
2.4875847385
 20
-11.7762184117
 30
0.0
 10
2.5055280807
 20
-11.779471749
 30
0.0
 10
2.5187116682
 20
-11.7820556046
 30
0.0
 11
2.4648611566
 21
-11.7724609439
 31
0.0
 11
2.4790629931
 21
-11.7748215071
 31
0.0
 11
2.5187116682
 21
-11.7820556046
 31
0.0
  0
SPLINE
  5
6E8
100
AcDbEntity
  8
0
100
AcDbSpline
 62
7
  6
CONTINUOUS
 70
0
 71
3
 72
9
 73
5
 74
3
 42
0.0000001
 43
0.0000001
 44
0.0000000001
 12
0.0458187642
 22
-0.0089800345
 32
0.0
 13
0.0454023365
 23
-0.010891649
 33
0.0
 40
0.0
 40
0.0
 40
0.0
 40
0.0
 40
0.2666858966
 40
1.0
 40
1.0
 40
1.0
 40
1.0
 10
2.5187116682
 20
-11.7820556046
 30
0.0
 10
2.5227847409
 20
-11.7828538875
 30
0.0
 10
2.5380440196
 20
-11.7859155547
 30
0.0
 10
2.553248913
 20
-11.7892547312
 30
0.0
 10
2.5643469709
 20
-11.7919170645
 30
0.0
 11
2.5187116682
 21
-11.7820556046
 31
0.0
 11
2.5309197418
 21
-11.7845066313
 31
0.0
 11
2.5643469709
 21
-11.7919170645
 31
0.0
  0
SPLINE
  5
6E9
100
AcDbEntity
  8
0
100
AcDbSpline
 62
7
  6
CONTINUOUS
 70
0
 71
3
 72
9
 73
5
 74
3
 42
0.0000001
 43
0.0000001
 44
0.0000000001
 12
0.0819412033
 22
-0.0196570241
 32
0.0
 13
0.0679762132
 23
-0.0497995364
 33
0.0
 40
0.0
 40
0.0
 40
0.0
 40
0.0
 40
0.6355827558
 40
1.0
 40
1.0
 40
1.0
 40
1.0
 10
2.5643469709
 20
-11.7919170645
 30
0.0
 10
2.5817071095
 20
-11.7960816197
 30
0.0
 10
2.6084558622
 20
-11.8038271926
 30
0.0
 10
2.6355608758
 20
-11.8132365697
 30
0.0
 10
2.6438181106
 20
-11.8192858397
 30
0.0
 11
2.5643469709
 21
-11.7919170645
 31
0.0
 11
2.6158531185
 21
-11.8065996442
 31
0.0
 11
2.6438181106
 21
-11.8192858397
 31
0.0
  0
SPLINE
  5
6EA
100
AcDbEntity
  8
0
100
AcDbSpline
 62
7
  6
CONTINUOUS
 70
0
 71
3
 72
9
 73
5
 74
3
 42
0.0000001
 43
0.0000001
 44
0.0000000001
 12
0.0046256594
 22
-0.0033887691
 32
0.0
 13
-0.0010956296
 23
-0.0056285057
 33
0.0
 40
0.0
 40
0.0
 40
0.0
 40
0.0
 40
0.356236234
 40
1.0
 40
1.0
 40
1.0
 40
1.0
 10
2.6438181106
 20
-11.8192858397
 30
0.0
 10
2.6443673864
 20
-11.8196882405
 30
0.0
 10
2.6457812508
 20
-11.8208152353
 30
0.0
 10
2.6474151544
 20
-11.8226025447
 30
0.0
 10
2.6471800455
 20
-11.8238103541
 30
0.0
 11
2.6438181106
 21
-11.8192858397
 31
0.0
 11
2.6454026498
 21
-11.82057499
 31
0.0
 11
2.6471800455
 21
-11.8238103541
 31
0.0
  0
SPLINE
  5
6EB
100
AcDbEntity
  8
0
100
AcDbSpline
 62
7
  6
CONTINUOUS
 70
0
 71
3
 72
11
 73
7
 74
5
 42
0.0000001
 43
0.0000001
 44
0.0000000001
 12
-0.0097023139
 22
0.050430621
 32
0.0
 13
0.0491170941
 23
0.0149964495
 33
0.0
 40
0.0
 40
0.0
 40
0.0
 40
0.0
 40
0.092922586
 40
0.2922488172
 40
0.5977105026
 40
1.0
 40
1.0
 40
1.0
 40
1.0
 10
8.2471038098
 20
-11.8237573745
 30
0.0
 10
8.2468032885
 20
-11.8221953266
 30
0.0
 10
8.2515368201
 20
-11.8180820402
 30
0.0
 10
8.2598600193
 20
-11.8137979419
 30
0.0
 10
8.2746433705
 20
-11.8076862064
 30
0.0
 10
8.2860409834
 20
-11.803978443
 30
0.0
 10
8.2926274138
 20
-11.8019674716
 30
0.0
 11
8.2471038098
 21
-11.8237573745
 31
0.0
 11
8.2497462876
 21
-11.8197837021
 31
0.0
 11
8.2585688157
 21
-11.8145924887
 31
0.0
 11
8.273039742
 21
-11.8085362425
 31
0.0
 11
8.2926274138
 21
-11.8019674716
 31
0.0
  0
SPLINE
  5
6EC
100
AcDbEntity
  8
0
100
AcDbSpline
 62
7
  6
CONTINUOUS
 70
0
 71
3
 72
9
 73
5
 74
3
 42
0.0000001
 43
0.0000001
 44
0.0000000001
 12
0.0357373306
 22
0.0109113351
 32
0.0
 13
0.0363224278
 23
0.0087689947
 33
0.0
 40
0.0
 40
0.0
 40
0.0
 40
0.0
 40
0.2276871949
 40
1.0
 40
1.0
 40
1.0
 40
1.0
 10
8.2926274138
 20
-11.8019674716
 30
0.0
 10
8.2953397246
 20
-11.8011393479
 30
0.0
 10
8.3072870402
 20
-11.7976164902
 30
0.0
 10
8.319351359
 20
-11.7944990866
 30
0.0
 10
8.3287021177
 20
-11.7922416176
 30
0.0
 11
8.2926274138
 21
-11.8019674716
 31
0.0
 11
8.3007862918
 21
-11.799556148
 31
0.0
 11
8.3287021177
 21
-11.7922416176
 31
0.0
  0
SPLINE
  5
6ED
100
AcDbEntity
  8
0
100
AcDbSpline
 62
7
  6
CONTINUOUS
 70
0
 71
3
 72
9
 73
5
 74
3
 42
0.0000001
 43
0.0000001
 44
0.0000000001
 12
0.0452604657
 22
0.0109268242
 32
0.0
 13
0.0456801514
 23
0.0090127134
 33
0.0
 40
0.0
 40
0.0
 40
0.0
 40
0.0
 40
0.2327178682
 40
1.0
 40
1.0
 40
1.0
 40
1.0
 10
8.3287021177
 20
-11.7922416176
 30
0.0
 10
8.3322130907
 20
-11.7913939952
 30
0.0
 10
8.3473228109
 20
-11.7878466809
 30
0.0
 10
8.3625138819
 20
-11.7846507043
 30
0.0
 10
8.3741970698
 20
-11.7823456063
 30
0.0
 11
8.3287021177
 21
-11.7922416176
 31
0.0
 11
8.3392501002
 21
-11.789761976
 31
0.0
 11
8.3741970698
 21
-11.7823456063
 31
0.0
  0
LINE
  5
6EE
100
AcDbEntity
  8
0
100
AcDbLine
 62
7
  6
CONTINUOUS
 10
-2.2523297713
 20
-11.8247334538
 11
-2.2528961902
 21
-11.8237573745
  0
SPLINE
  5
6EF
100
AcDbEntity
  8
0
100
AcDbSpline
 62
7
  6
CONTINUOUS
 70
0
 71
3
 72
11
 73
7
 74
5
 42
0.0000001
 43
0.0000001
 44
0.0000000001
 12
-0.0097023139
 22
0.050430621
 32
0.0
 13
0.0491170941
 23
0.0149964495
 33
0.0
 40
0.0
 40
0.0
 40
0.0
 40
0.0
 40
0.092922586
 40
0.2922488172
 40
0.5977105026
 40
1.0
 40
1.0
 40
1.0
 40
1.0
 10
-2.2528961902
 20
-11.8237573745
 30
0.0
 10
-2.2531967115
 20
-11.8221953266
 30
0.0
 10
-2.2484631799
 20
-11.8180820402
 30
0.0
 10
-2.2401399807
 20
-11.8137979419
 30
0.0
 10
-2.2253566295
 20
-11.8076862064
 30
0.0
 10
-2.2139590166
 20
-11.803978443
 30
0.0
 10
-2.2073725862
 20
-11.8019674716
 30
0.0
 11
-2.2528961902
 21
-11.8237573745
 31
0.0
 11
-2.2502537124
 21
-11.8197837021
 31
0.0
 11
-2.2414311843
 21
-11.8145924887
 31
0.0
 11
-2.226960258
 21
-11.8085362425
 31
0.0
 11
-2.2073725862
 21
-11.8019674716
 31
0.0
  0
SPLINE
  5
6F0
100
AcDbEntity
  8
0
100
AcDbSpline
 62
7
  6
CONTINUOUS
 70
0
 71
3
 72
9
 73
5
 74
3
 42
0.0000001
 43
0.0000001
 44
0.0000000001
 12
0.0357373306
 22
0.0109113351
 32
0.0
 13
0.0363224278
 23
0.0087689947
 33
0.0
 40
0.0
 40
0.0
 40
0.0
 40
0.0
 40
0.2276871949
 40
1.0
 40
1.0
 40
1.0
 40
1.0
 10
-2.2073725862
 20
-11.8019674716
 30
0.0
 10
-2.2046602754
 20
-11.8011393479
 30
0.0
 10
-2.1927129598
 20
-11.7976164902
 30
0.0
 10
-2.180648641
 20
-11.7944990866
 30
0.0
 10
-2.1712978823
 20
-11.7922416176
 30
0.0
 11
-2.2073725862
 21
-11.8019674716
 31
0.0
 11
-2.1992137082
 21
-11.799556148
 31
0.0
 11
-2.1712978823
 21
-11.7922416176
 31
0.0
  0
SPLINE
  5
6F1
100
AcDbEntity
  8
0
100
AcDbSpline
 62
7
  6
CONTINUOUS
 70
0
 71
3
 72
9
 73
5
 74
3
 42
0.0000001
 43
0.0000001
 44
0.0000000001
 12
0.0452604657
 22
0.0109268242
 32
0.0
 13
0.0456801514
 23
0.0090127134
 33
0.0
 40
0.0
 40
0.0
 40
0.0
 40
0.0
 40
0.2327178682
 40
1.0
 40
1.0
 40
1.0
 40
1.0
 10
-2.1712978823
 20
-11.7922416176
 30
0.0
 10
-2.1677869093
 20
-11.7913939952
 30
0.0
 10
-2.1526771891
 20
-11.7878466809
 30
0.0
 10
-2.1374861181
 20
-11.7846507043
 30
0.0
 10
-2.1258029302
 20
-11.7823456063
 30
0.0
 11
-2.1712978823
 21
-11.7922416176
 31
0.0
 11
-2.1607498998
 21
-11.789761976
 31
0.0
 11
-2.1258029302
 21
-11.7823456063
 31
0.0
  0
SPLINE
  5
6F2
100
AcDbEntity
  8
0
100
AcDbSpline
 62
7
  6
CONTINUOUS
 70
0
 71
3
 72
9
 73
5
 74
3
 42
0.0000001
 43
0.0000001
 44
0.0000000001
 12
0.1307978605
 22
-0.0151647496
 32
0.0
 13
0.1299714313
 23
-0.0211063257
 33
0.0
 40
0.0
 40
0.0
 40
0.0
 40
0.0
 40
0.2724052491
 40
1.0
 40
1.0
 40
1.0
 40
1.0
 10
-8.1656032794
 20
-11.7546975292
 30
0.0
 10
-8.1537266048
 20
-11.756074515
 30
0.0
 10
-8.1101500656
 20
-11.7613157474
 30
0.0
 10
-8.0666610205
 20
-11.7673419933
 30
0.0
 10
-8.0351388434
 20
-11.7724609439
 30
0.0
 11
-8.1656032794
 21
-11.7546975292
 31
0.0
 11
-8.1299921412
 21
-11.7589882451
 31
0.0
 11
-8.0351388434
 21
-11.7724609439
 31
0.0
  0
SPLINE
  5
6F3
100
AcDbEntity
  8
0
100
AcDbSpline
 62
7
  6
CONTINUOUS
 70
0
 71
3
 72
9
 73
5
 74
3
 42
0.0000001
 43
0.0000001
 44
0.0000000001
 12
0.05399261
 22
-0.00876797
 32
0.0
 13
0.0536786583
 23
-0.0105204977
 33
0.0
 40
0.0
 40
0.0
 40
0.0
 40
0.0
 40
0.263193907
 40
1.0
 40
1.0
 40
1.0
 40
1.0
 10
-8.0351388434
 20
-11.7724609439
 30
0.0
 10
-8.0304020014
 20
-11.7732301694
 30
0.0
 10
-8.0124152615
 20
-11.7762184117
 30
0.0
 10
-7.9944719193
 20
-11.779471749
 30
0.0
 10
-7.9812883318
 20
-11.7820556046
 30
0.0
 11
-8.0351388434
 21
-11.7724609439
 31
0.0
 11
-8.0209370069
 21
-11.7748215071
 31
0.0
 11
-7.9812883318
 21
-11.7820556046
 31
0.0
  0
SPLINE
  5
6F4
100
AcDbEntity
  8
0
100
AcDbSpline
 62
7
  6
CONTINUOUS
 70
0
 71
3
 72
9
 73
5
 74
3
 42
0.0000001
 43
0.0000001
 44
0.0000000001
 12
0.0458187642
 22
-0.0089800345
 32
0.0
 13
0.0454023365
 23
-0.010891649
 33
0.0
 40
0.0
 40
0.0
 40
0.0
 40
0.0
 40
0.2666858966
 40
1.0
 40
1.0
 40
1.0
 40
1.0
 10
-7.9812883318
 20
-11.7820556046
 30
0.0
 10
-7.9772152591
 20
-11.7828538875
 30
0.0
 10
-7.9619559804
 20
-11.7859155547
 30
0.0
 10
-7.946751087
 20
-11.7892547312
 30
0.0
 10
-7.9356530291
 20
-11.7919170645
 30
0.0
 11
-7.9812883318
 21
-11.7820556046
 31
0.0
 11
-7.9690802582
 21
-11.7845066313
 31
0.0
 11
-7.9356530291
 21
-11.7919170645
 31
0.0
  0
SPLINE
  5
6F5
100
AcDbEntity
  8
0
100
AcDbSpline
 62
7
  6
CONTINUOUS
 70
0
 71
3
 72
9
 73
5
 74
3
 42
0.0000001
 43
0.0000001
 44
0.0000000001
 12
0.0819412033
 22
-0.0196570241
 32
0.0
 13
0.0679762132
 23
-0.0497995364
 33
0.0
 40
0.0
 40
0.0
 40
0.0
 40
0.0
 40
0.6355827558
 40
1.0
 40
1.0
 40
1.0
 40
1.0
 10
-7.9356530291
 20
-11.7919170645
 30
0.0
 10
-7.9182928905
 20
-11.7960816197
 30
0.0
 10
-7.8915441378
 20
-11.8038271926
 30
0.0
 10
-7.8644391242
 20
-11.8132365697
 30
0.0
 10
-7.8561818894
 20
-11.8192858397
 30
0.0
 11
-7.9356530291
 21
-11.7919170645
 31
0.0
 11
-7.8841468815
 21
-11.8065996442
 31
0.0
 11
-7.8561818894
 21
-11.8192858397
 31
0.0
  0
SPLINE
  5
6F6
100
AcDbEntity
  8
0
100
AcDbSpline
 62
7
  6
CONTINUOUS
 70
0
 71
3
 72
9
 73
5
 74
3
 42
0.0000001
 43
0.0000001
 44
0.0000000001
 12
0.0046256594
 22
-0.0033887691
 32
0.0
 13
-0.0010956296
 23
-0.0056285057
 33
0.0
 40
0.0
 40
0.0
 40
0.0
 40
0.0
 40
0.356236234
 40
1.0
 40
1.0
 40
1.0
 40
1.0
 10
-7.8561818894
 20
-11.8192858397
 30
0.0
 10
-7.8556326136
 20
-11.8196882405
 30
0.0
 10
-7.8542187492
 20
-11.8208152353
 30
0.0
 10
-7.8525848456
 20
-11.8226025447
 30
0.0
 10
-7.8528199545
 20
-11.8238103541
 30
0.0
 11
-7.8561818894
 21
-11.8192858397
 31
0.0
 11
-7.8545973502
 21
-11.82057499
 31
0.0
 11
-7.8528199545
 21
-11.8238103541
 31
0.0
  0
SPLINE
  5
6F7
100
AcDbEntity
  8
0
100
AcDbSpline
 62
7
  6
CONTINUOUS
 70
0
 71
3
 72
9
 73
5
 74
3
 42
0.0000001
 43
0.0000001
 44
0.0000000001
 12
-0.1739935653
 22
0.1078958666
 32
0.0
 13
-0.1018478288
 23
0.1776015162
 33
0.0
 40
0.0
 40
0.0
 40
0.0
 40
0.0
 40
0.2479238924
 40
1.0
 40
1.0
 40
1.0
 40
1.0
 10
8.7971653275
 20
2.8675110062
 30
0.0
 10
8.7827862735
 20
2.8764276606
 30
0.0
 10
8.727165293
 20
2.9161343937
 30
0.0
 10
8.6818515878
 20
2.9699487337
 30
0.0
 10
8.6563191482
 20
3.0144720193
 30
0.0
 11
8.7971653275
 21
2.8675110062
 31
0.0
 11
8.7558402832
 21
2.8969832981
 31
0.0
 11
8.6563191482
 21
3.0144720193
 31
0.0
  0
SPLINE
  5
6F8
100
AcDbEntity
  8
0
100
AcDbSpline
 62
7
  6
CONTINUOUS
 70
0
 71
3
 72
9
 73
5
 74
3
 42
0.0000001
 43
0.0000001
 44
0.0000000001
 12
-0.2096264633
 22
0.0
 32
0.0
 13
-0.1781529897
 23
0.1104751844
 33
0.0
 40
0.0
 40
0.0
 40
0.0
 40
0.0
 40
0.746714815
 40
1.0
 40
1.0
 40
1.0
 40
1.0
 10
8.9971653275
 20
2.8099175318
 30
0.0
 10
8.9449882656
 20
2.8099175318
 30
0.0
 10
8.874013941
 20
2.8254228274
 30
0.0
 10
8.8122064985
 20
2.8581837637
 30
0.0
 10
8.7971653275
 20
2.8675110062
 30
0.0
 11
8.9971653275
 21
2.8099175318
 31
0.0
 11
8.844104404
 21
2.8426950518
 31
0.0
 11
8.7971653275
 21
2.8675110062
 31
0.0
  0
SPLINE
  5
6F9
100
AcDbEntity
  8
0
100
AcDbSpline
 62
7
  6
CONTINUOUS
 70
0
 71
3
 72
8
 73
4
 74
2
 42
0.0000001
 43
0.0000001
 44
0.0000000001
 12
-0.1386640489
 22
-0.0590963755
 32
0.0
 13
-0.1507318814
 23
0.0
 33
0.0
 40
0.0
 40
0.0
 40
0.0
 40
0.0
 40
1.0
 40
1.0
 40
1.0
 40
1.0
 10
9.1448061341
 20
2.8402867972
 30
0.0
 10
9.0985847845
 20
2.8205880054
 30
0.0
 10
9.0474092879
 20
2.8099175318
 30
0.0
 10
8.9971653275
 20
2.8099175318
 30
0.0
 11
9.1448061341
 21
2.8402867972
 31
0.0
 11
8.9971653275
 21
2.8099175318
 31
0.0
  0
SPLINE
  5
6FA
100
AcDbEntity
  8
0
100
AcDbSpline
 62
7
  6
CONTINUOUS
 70
0
 71
3
 72
8
 73
4
 74
2
 42
0.0000001
 43
0.0000001
 44
0.0000000001
 12
0.0762454352
 22
0.0371633908
 32
0.0
 13
0.0848203042
 23
0.0
 33
0.0
 40
0.0
 40
0.0
 40
0.0
 40
0.0
 40
1.0
 40
1.0
 40
1.0
 40
1.0
 10
9.1624071508
 20
2.848320671
 30
0.0
 10
9.1878222959
 20
2.860708468
 30
0.0
 10
9.2167546277
 20
2.8675110062
 30
0.0
 10
9.2450280625
 20
2.8675110062
 30
0.0
 11
9.1624071508
 21
2.848320671
 31
0.0
 11
9.2450280625
 21
2.8675110062
 31
0.0
  0
SPLINE
  5
6FB
100
AcDbEntity
  8
0
100
AcDbSpline
 62
7
  6
CONTINUOUS
 70
0
 71
3
 72
8
 73
4
 74
2
 42
0.0000001
 43
0.0000001
 44
0.0000000001
 12
0.0848203042
 22
0.0
 32
0.0
 13
0.0762454352
 23
-0.0371633908
 33
0.0
 40
0.0
 40
0.0
 40
0.0
 40
0.0
 40
1.0
 40
1.0
 40
1.0
 40
1.0
 10
1.6493025925
 20
2.8675110062
 30
0.0
 10
1.6775760272
 20
2.8675110062
 30
0.0
 10
1.7065083591
 20
2.860708468
 30
0.0
 10
1.7319235042
 20
2.848320671
 30
0.0
 11
1.6493025925
 21
2.8675110062
 31
0.0
 11
1.7319235042
 21
2.848320671
 31
0.0
  0
SPLINE
  5
6FC
100
AcDbEntity
  8
0
100
AcDbSpline
 62
7
  6
CONTINUOUS
 70
0
 71
3
 72
9
 73
5
 74
3
 42
0.0000001
 43
0.0000001
 44
0.0000000001
 12
-0.1704622828
 22
0.0
 32
0.0
 13
-0.153229478
 23
0.0746867922
 33
0.0
 40
0.0
 40
0.0
 40
0.0
 40
0.0
 40
0.7477625691
 40
1.0
 40
1.0
 40
1.0
 40
1.0
 10
1.8971653275
 20
2.8099175318
 30
0.0
 10
1.8546768893
 20
2.8099175318
 30
0.0
 10
1.7972302421
 20
2.8200115343
 30
0.0
 10
1.7448069075
 20
2.8420410695
 30
0.0
 10
1.7319235042
 20
2.848320671
 30
0.0
 11
1.8971653275
 21
2.8099175318
 31
0.0
 11
1.7715727638
 21
2.8316871058
 31
0.0
 11
1.7319235042
 21
2.848320671
 31
0.0
  0
SPLINE
  5
6FD
100
AcDbEntity
  8
0
100
AcDbSpline
 62
7
  6
CONTINUOUS
 70
0
 71
3
 72
9
 73
5
 74
3
 42
0.0000001
 43
0.0000001
 44
0.0000000001
 12
-0.1781529897
 22
-0.1104751844
 32
0.0
 13
-0.2096264633
 23
0.0
 33
0.0
 40
0.0
 40
0.0
 40
0.0
 40
0.0
 40
0.253285185
 40
1.0
 40
1.0
 40
1.0
 40
1.0
 10
2.0971653275
 20
2.8675110062
 30
0.0
 10
2.0821241565
 20
2.8581837637
 30
0.0
 10
2.020316714
 20
2.8254228274
 30
0.0
 10
1.9493423894
 20
2.8099175318
 30
0.0
 10
1.8971653275
 20
2.8099175318
 30
0.0
 11
2.0971653275
 21
2.8675110062
 31
0.0
 11
2.050226251
 21
2.8426950518
 31
0.0
 11
1.8971653275
 21
2.8099175318
 31
0.0
  0
SPLINE
  5
6FE
100
AcDbEntity
  8
0
100
AcDbSpline
 62
7
  6
CONTINUOUS
 70
0
 71
3
 72
9
 73
5
 74
3
 42
0.0000001
 43
0.0000001
 44
0.0000000001
 12
-0.1018381922
 22
-0.177584712
 32
0.0
 13
-0.1739771025
 23
-0.1078856578
 33
0.0
 40
0.0
 40
0.0
 40
0.0
 40
0.0
 40
0.2538408492
 40
1.0
 40
1.0
 40
1.0
 40
1.0
 10
2.2380115068
 20
3.0144720193
 30
0.0
 10
2.229394609
 20
2.9994459346
 30
0.0
 10
2.1919260298
 20
2.9423578985
 30
0.0
 10
2.1404368632
 20
2.8943442965
 30
0.0
 10
2.0971653275
 20
2.8675110062
 30
0.0
 11
2.2380115068
 21
3.0144720193
 31
0.0
 11
2.2094690781
 21
2.9710480962
 31
0.0
 11
2.0971653275
 21
2.8675110062
 31
0.0
  0
SPLINE
  5
6FF
100
AcDbEntity
  8
0
100
AcDbSpline
 62
7
  6
CONTINUOUS
 70
0
 71
3
 72
9
 73
5
 74
3
 42
0.0000001
 43
0.0000001
 44
0.0000000001
 12
-0.1739935653
 22
0.1078958666
 32
0.0
 13
-0.1018478288
 23
0.1776015162
 33
0.0
 40
0.0
 40
0.0
 40
0.0
 40
0.0
 40
0.2479238924
 40
1.0
 40
1.0
 40
1.0
 40
1.0
 10
-1.7028346725
 20
2.8675110062
 30
0.0
 10
-1.7172137265
 20
2.8764276606
 30
0.0
 10
-1.772834707
 20
2.9161343937
 30
0.0
 10
-1.8181484122
 20
2.9699487337
 30
0.0
 10
-1.8436808518
 20
3.0144720193
 30
0.0
 11
-1.7028346725
 21
2.8675110062
 31
0.0
 11
-1.7441597168
 21
2.8969832981
 31
0.0
 11
-1.8436808518
 21
3.0144720193
 31
0.0
  0
SPLINE
  5
700
100
AcDbEntity
  8
0
100
AcDbSpline
 62
7
  6
CONTINUOUS
 70
0
 71
3
 72
9
 73
5
 74
3
 42
0.0000001
 43
0.0000001
 44
0.0000000001
 12
-0.2096264633
 22
0.0
 32
0.0
 13
-0.1781529897
 23
0.1104751844
 33
0.0
 40
0.0
 40
0.0
 40
0.0
 40
0.0
 40
0.746714815
 40
1.0
 40
1.0
 40
1.0
 40
1.0
 10
-1.5028346725
 20
2.8099175318
 30
0.0
 10
-1.5550117344
 20
2.8099175318
 30
0.0
 10
-1.625986059
 20
2.8254228274
 30
0.0
 10
-1.6877935015
 20
2.8581837637
 30
0.0
 10
-1.7028346725
 20
2.8675110062
 30
0.0
 11
-1.5028346725
 21
2.8099175318
 31
0.0
 11
-1.655895596
 21
2.8426950518
 31
0.0
 11
-1.7028346725
 21
2.8675110062
 31
0.0
  0
SPLINE
  5
701
100
AcDbEntity
  8
0
100
AcDbSpline
 62
7
  6
CONTINUOUS
 70
0
 71
3
 72
8
 73
4
 74
2
 42
0.0000001
 43
0.0000001
 44
0.0000000001
 12
-0.1386640489
 22
-0.0590963755
 32
0.0
 13
-0.1507318814
 23
0.0
 33
0.0
 40
0.0
 40
0.0
 40
0.0
 40
0.0
 40
1.0
 40
1.0
 40
1.0
 40
1.0
 10
-1.3551938659
 20
2.8402867972
 30
0.0
 10
-1.4014152155
 20
2.8205880054
 30
0.0
 10
-1.4525907121
 20
2.8099175318
 30
0.0
 10
-1.5028346725
 20
2.8099175318
 30
0.0
 11
-1.3551938659
 21
2.8402867972
 31
0.0
 11
-1.5028346725
 21
2.8099175318
 31
0.0
  0
SPLINE
  5
702
100
AcDbEntity
  8
0
100
AcDbSpline
 62
7
  6
CONTINUOUS
 70
0
 71
3
 72
8
 73
4
 74
2
 42
0.0000001
 43
0.0000001
 44
0.0000000001
 12
0.0762454352
 22
0.0371633908
 32
0.0
 13
0.0848203042
 23
0.0
 33
0.0
 40
0.0
 40
0.0
 40
0.0
 40
0.0
 40
1.0
 40
1.0
 40
1.0
 40
1.0
 10
-1.3375928492
 20
2.848320671
 30
0.0
 10
-1.3121777041
 20
2.860708468
 30
0.0
 10
-1.2832453723
 20
2.8675110062
 30
0.0
 10
-1.2549719375
 20
2.8675110062
 30
0.0
 11
-1.3375928492
 21
2.848320671
 31
0.0
 11
-1.2549719375
 21
2.8675110062
 31
0.0
  0
SPLINE
  5
703
100
AcDbEntity
  8
0
100
AcDbSpline
 62
7
  6
CONTINUOUS
 70
0
 71
3
 72
8
 73
4
 74
2
 42
0.0000001
 43
0.0000001
 44
0.0000000001
 12
0.0848203042
 22
0.0
 32
0.0
 13
0.0762454352
 23
-0.0371633908
 33
0.0
 40
0.0
 40
0.0
 40
0.0
 40
0.0
 40
1.0
 40
1.0
 40
1.0
 40
1.0
 10
-8.8506974075
 20
2.8675110062
 30
0.0
 10
-8.8224239728
 20
2.8675110062
 30
0.0
 10
-8.7934916409
 20
2.860708468
 30
0.0
 10
-8.7680764958
 20
2.848320671
 30
0.0
 11
-8.8506974075
 21
2.8675110062
 31
0.0
 11
-8.7680764958
 21
2.848320671
 31
0.0
  0
SPLINE
  5
704
100
AcDbEntity
  8
0
100
AcDbSpline
 62
7
  6
CONTINUOUS
 70
0
 71
3
 72
9
 73
5
 74
3
 42
0.0000001
 43
0.0000001
 44
0.0000000001
 12
-0.1704622828
 22
0.0
 32
0.0
 13
-0.153229478
 23
0.0746867922
 33
0.0
 40
0.0
 40
0.0
 40
0.0
 40
0.0
 40
0.7477625691
 40
1.0
 40
1.0
 40
1.0
 40
1.0
 10
-8.6028346725
 20
2.8099175318
 30
0.0
 10
-8.6453231107
 20
2.8099175318
 30
0.0
 10
-8.7027697579
 20
2.8200115343
 30
0.0
 10
-8.7551930925
 20
2.8420410695
 30
0.0
 10
-8.7680764958
 20
2.848320671
 30
0.0
 11
-8.6028346725
 21
2.8099175318
 31
0.0
 11
-8.7284272362
 21
2.8316871058
 31
0.0
 11
-8.7680764958
 21
2.848320671
 31
0.0
  0
SPLINE
  5
705
100
AcDbEntity
  8
0
100
AcDbSpline
 62
7
  6
CONTINUOUS
 70
0
 71
3
 72
9
 73
5
 74
3
 42
0.0000001
 43
0.0000001
 44
0.0000000001
 12
-0.1781529897
 22
-0.1104751844
 32
0.0
 13
-0.2096264633
 23
0.0
 33
0.0
 40
0.0
 40
0.0
 40
0.0
 40
0.0
 40
0.253285185
 40
1.0
 40
1.0
 40
1.0
 40
1.0
 10
-8.4028346725
 20
2.8675110062
 30
0.0
 10
-8.4178758435
 20
2.8581837637
 30
0.0
 10
-8.479683286
 20
2.8254228274
 30
0.0
 10
-8.5506576106
 20
2.8099175318
 30
0.0
 10
-8.6028346725
 20
2.8099175318
 30
0.0
 11
-8.4028346725
 21
2.8675110062
 31
0.0
 11
-8.449773749
 21
2.8426950518
 31
0.0
 11
-8.6028346725
 21
2.8099175318
 31
0.0
  0
SPLINE
  5
706
100
AcDbEntity
  8
0
100
AcDbSpline
 62
7
  6
CONTINUOUS
 70
0
 71
3
 72
9
 73
5
 74
3
 42
0.0000001
 43
0.0000001
 44
0.0000000001
 12
-0.1018381922
 22
-0.177584712
 32
0.0
 13
-0.1739771025
 23
-0.1078856578
 33
0.0
 40
0.0
 40
0.0
 40
0.0
 40
0.0
 40
0.2538408492
 40
1.0
 40
1.0
 40
1.0
 40
1.0
 10
-8.2619884932
 20
3.0144720193
 30
0.0
 10
-8.270605391
 20
2.9994459346
 30
0.0
 10
-8.3080739702
 20
2.9423578985
 30
0.0
 10
-8.3595631368
 20
2.8943442965
 30
0.0
 10
-8.4028346725
 20
2.8675110062
 30
0.0
 11
-8.2619884932
 21
3.0144720193
 31
0.0
 11
-8.2905309219
 21
2.9710480962
 31
0.0
 11
-8.4028346725
 21
2.8675110062
 31
0.0
  0
ELLIPSE
  5
707
100
AcDbEntity
  8
0
100
AcDbEllipse
 62
7
  6
CONTINUOUS
 10
-11.1028346725
 20
1.9055209961
 30
0.0
 11
1.7974937299
 21
-1.7974937299
 31
0.0
 40
0.8847252646
 41
1.2589744718
 42
1.3217180562
  0
ELLIPSE
  5
708
100
AcDbEntity
  8
0
100
AcDbEllipse
 62
7
  6
CONTINUOUS
 10
11.4971653275
 20
1.9055209961
 30
0.0
 11
1.7974937299
 21
1.7974937299
 31
0.0
 40
0.8847252646
 41
1.8198745974
 42
1.8826181818
  0
ELLIPSE
  5
709
100
AcDbEntity
  8
DRAFT
100
AcDbEllipse
 62
7
  6
CONTINUOUS
 10
0.1971653275
 20
-18.3134313438
 30
0.0
 11
15.0
 21
-0.0
 31
0.0
 40
0.0087268678
 41
1.4073150204
 42
1.7342776332
  0
ELLIPSE
  5
70A
100
AcDbEntity
  8
DRAFT
100
AcDbEllipse
 62
7
  6
CONTINUOUS
 10
0.1971653275
 20
22.0513517299
 30
0.0
 11
15.0
 21
-0.0
 31
0.0
 40
0.0087268678
 41
-1.7342776332
 42
-1.4073150204
  0
ELLIPSE
  5
70B
100
AcDbEntity
  8
RACCORDO
100
AcDbEllipse
 62
7
  6
CONTINUOUS
 10
-7.5782383248
 20
-19.3310398069
 30
0.0
 11
0.3000456984
 21
-0.0
 31
0.0
 40
0.9998476952
 41
1.5707963268
 42
1.5882496193
  0
ELLIPSE
  5
70C
100
AcDbEntity
  8
RACCORDO
100
AcDbEllipse
 62
7
  6
CONTINUOUS
 10
10.9971653275
 20
-20.1722996117
 30
0.0
 11
-0.0
 21
-0.3500133274
 31
0.0
 40
0.9999619231
 41
6.2831853072
 42
7.853981634
  0
ELLIPSE
  5
70D
100
AcDbEntity
  8
RACCORDO
100
AcDbEllipse
 62
7
  6
CONTINUOUS
 10
10.9971653275
 20
23.9102199978
 30
0.0
 11
-0.0
 21
-0.3500133274
 31
0.0
 40
0.9999619231
 41
7.853981634
 42
9.4247779608
  0
ELLIPSE
  5
70E
100
AcDbEntity
  8
RACCORDO
100
AcDbEllipse
 62
7
  6
CONTINUOUS
 10
-10.6028346725
 20
23.9102199978
 30
0.0
 11
0.0
 21
0.3500133274
 31
0.0
 40
0.9999619231
 41
-0.0
 42
1.5707963268
  0
ELLIPSE
  5
70F
100
AcDbEntity
  8
RACCORDO
100
AcDbEllipse
 62
7
  6
CONTINUOUS
 10
10.7928019551
 20
26.0145925899
 30
0.0
 11
-0.0
 21
0.25
 31
0.0
 40
0.0058178298
 41
0.0058177642
 42
1.5707963268
  0
ELLIPSE
  5
710
100
AcDbEntity
  8
RACCORDO
100
AcDbEllipse
 62
7
  6
CONTINUOUS
 10
8.5015286998
 20
26.0145925899
 30
0.0
 11
-0.0
 21
0.25
 31
0.0
 40
0.0058178298
 41
-1.5707963268
 42
-0.0058177642
  0
ELLIPSE
  5
711
100
AcDbEntity
  8
RACCORDO
100
AcDbEllipse
 62
7
  6
CONTINUOUS
 10
8.5015286998
 20
25.7132977604
 30
0.0
 11
0.0
 21
0.25
 31
0.0
 40
0.0058178298
 41
-2.617993878
 42
-1.5707963268
  0
ELLIPSE
  5
712
100
AcDbEntity
  8
RACCORDO
100
AcDbEllipse
 62
7
  6
CONTINUOUS
 10
10.7928019551
 20
25.7132977604
 30
0.0
 11
-0.0
 21
0.25
 31
0.0
 40
0.0058178298
 41
-4.7123889804
 42
-3.6651914292
  0
ELLIPSE
  5
713
100
AcDbEntity
  8
RACCORDO
100
AcDbEllipse
 62
7
  6
CONTINUOUS
 10
-8.1071980449
 20
26.0145925899
 30
0.0
 11
-0.0
 21
0.25
 31
0.0
 40
0.0058178298
 41
0.0058177642
 42
1.5707963268
  0
ELLIPSE
  5
714
100
AcDbEntity
  8
RACCORDO
100
AcDbEllipse
 62
7
  6
CONTINUOUS
 10
-10.3984713002
 20
26.0145925899
 30
0.0
 11
0.0
 21
0.25
 31
0.0
 40
0.0058178298
 41
-1.5707963268
 42
-0.0058177642
  0
ELLIPSE
  5
715
100
AcDbEntity
  8
RACCORDO
100
AcDbEllipse
 62
7
  6
CONTINUOUS
 10
-10.3984713002
 20
25.7132977604
 30
0.0
 11
0.0
 21
0.25
 31
0.0
 40
0.0058178298
 41
-2.617993878
 42
-1.5707963268
  0
ELLIPSE
  5
716
100
AcDbEntity
  8
RACCORDO
100
AcDbEllipse
 62
7
  6
CONTINUOUS
 10
-8.1071980449
 20
25.7132977604
 30
0.0
 11
-0.0
 21
0.25
 31
0.0
 40
0.0058178298
 41
-4.7123889804
 42
-3.6651914292
  0
ELLIPSE
  5
717
100
AcDbEntity
  8
RACCORDO
100
AcDbEllipse
 62
7
  6
CONTINUOUS
 10
-10.3984713002
 20
-22.2766722037
 30
0.0
 11
0.0
 21
0.25
 31
0.0
 40
0.0058178298
 41
-3.1357748894
 42
-1.5707963268
  0
ELLIPSE
  5
718
100
AcDbEntity
  8
RACCORDO
100
AcDbEllipse
 62
7
  6
CONTINUOUS
 10
-8.1071980449
 20
-22.2766722037
 30
0.0
 11
-0.0
 21
0.25
 31
0.0
 40
0.0058178298
 41
1.5707963268
 42
3.1357748894
  0
ELLIPSE
  5
719
100
AcDbEntity
  8
RACCORDO
100
AcDbEllipse
 62
7
  6
CONTINUOUS
 10
-8.1071980449
 20
-21.9753773742
 30
0.0
 11
-0.0
 21
0.25
 31
0.0
 40
0.0058178298
 41
0.5235987756
 42
1.5707963268
  0
ELLIPSE
  5
71A
100
AcDbEntity
  8
RACCORDO
100
AcDbEllipse
 62
7
  6
CONTINUOUS
 10
-10.3984713002
 20
-21.9753773742
 30
0.0
 11
-0.0
 21
0.25
 31
0.0
 40
0.0058178298
 41
-1.5707963268
 42
-0.5235987756
  0
ELLIPSE
  5
71B
100
AcDbEntity
  8
RACCORDO
100
AcDbEllipse
 62
7
  6
CONTINUOUS
 10
8.5015286998
 20
-22.2766722037
 30
0.0
 11
0.0
 21
0.25
 31
0.0
 40
0.0058178298
 41
-3.1357748894
 42
-1.5707963268
  0
ELLIPSE
  5
71C
100
AcDbEntity
  8
RACCORDO
100
AcDbEllipse
 62
7
  6
CONTINUOUS
 10
10.7928019551
 20
-22.2766722037
 30
0.0
 11
-0.0
 21
0.25
 31
0.0
 40
0.0058178298
 41
1.5707963268
 42
3.1357748894
  0
ELLIPSE
  5
71D
100
AcDbEntity
  8
RACCORDO
100
AcDbEllipse
 62
7
  6
CONTINUOUS
 10
10.7928019551
 20
-21.9753773742
 30
0.0
 11
0.0
 21
0.25
 31
0.0
 40
0.0058178298
 41
0.5235987756
 42
1.5707963268
  0
ELLIPSE
  5
71E
100
AcDbEntity
  8
RACCORDO
100
AcDbEllipse
 62
7
  6
CONTINUOUS
 10
8.5015286998
 20
-21.9753773742
 30
0.0
 11
0.0
 21
0.25
 31
0.0
 40
0.0058178298
 41
-1.5707963268
 42
-0.5235987756
  0
ELLIPSE
  5
71F
100
AcDbEntity
  8
RACCORDO
100
AcDbEllipse
 62
7
  6
CONTINUOUS
 10
8.4986197849
 20
24.8472723566
 30
0.0
 11
0.0
 21
0.25
 31
0.0
 40
0.0058178298
 41
0.5235987756
 42
1.5707884454
  0
ELLIPSE
  5
720
100
AcDbEntity
  8
RACCORDO
100
AcDbEllipse
 62
7
  6
CONTINUOUS
 10
10.79571087
 20
24.8472723566
 30
0.0
 11
-0.0
 21
0.25
 31
0.0
 40
0.0058178298
 41
-1.5707884454
 42
-0.5235987756
  0
ELLIPSE
  5
721
100
AcDbEntity
  8
RACCORDO
100
AcDbEllipse
 62
7
  6
CONTINUOUS
 10
-10.4013802151
 20
24.8472723566
 30
0.0
 11
-0.0
 21
0.25
 31
0.0
 40
0.0058178298
 41
0.5235987756
 42
1.5707884454
  0
ELLIPSE
  5
722
100
AcDbEntity
  8
RACCORDO
100
AcDbEllipse
 62
7
  6
CONTINUOUS
 10
-8.10428913
 20
24.8472723566
 30
0.0
 11
-0.0
 21
0.25
 31
0.0
 40
0.0058178298
 41
-1.5707884454
 42
-0.5235987756
  0
ELLIPSE
  5
723
100
AcDbEntity
  8
RACCORDO
100
AcDbEllipse
 62
7
  6
CONTINUOUS
 10
-10.4013802151
 20
-21.1093519704
 30
0.0
 11
0.0
 21
0.25
 31
0.0
 40
0.0058178298
 41
-4.712381099
 42
-3.6651914292
  0
ELLIPSE
  5
724
100
AcDbEntity
  8
RACCORDO
100
AcDbEllipse
 62
7
  6
CONTINUOUS
 10
-8.10428913
 20
-21.1093519704
 30
0.0
 11
-0.0
 21
0.25
 31
0.0
 40
0.0058178298
 41
-2.617993878
 42
-1.5708042081
  0
ELLIPSE
  5
725
100
AcDbEntity
  8
DRAFT
100
AcDbEllipse
 62
7
  6
CONTINUOUS
 10
-8.6804276042
 20
-8.9520395981
 30
0.0
 11
0.0
 21
0.656620454
 31
0.0
 40
0.9999977033
 41
1.4871948636
 42
1.572939541
  0
ELLIPSE
  5
726
100
AcDbEntity
  8
DRAFT
100
AcDbEllipse
 62
7
  6
CONTINUOUS
 10
9.0747582592
 20
-8.9520395981
 30
0.0
 11
-0.0000000001
 21
0.656620454
 31
0.0
 40
0.9999977033
 41
-1.572939541
 42
-1.4871948642
  0
ELLIPSE
  5
727
100
AcDbEntity
  8
RACCORDO
100
AcDbEllipse
 62
7
  6
CONTINUOUS
 10
8.4986197849
 20
-21.1093519704
 30
0.0
 11
-0.0
 21
0.25
 31
0.0
 40
0.0058178298
 41
-4.712381099
 42
-3.6651914292
  0
ELLIPSE
  5
728
100
AcDbEntity
  8
RACCORDO
100
AcDbEllipse
 62
7
  6
CONTINUOUS
 10
10.79571087
 20
-21.1093519704
 30
0.0
 11
0.0
 21
0.25
 31
0.0
 40
0.0058178298
 41
-2.617993878
 42
-1.5708042081
  0
ELLIPSE
  5
729
100
AcDbEntity
  8
RACCORDO
100
AcDbEllipse
 62
7
  6
CONTINUOUS
 10
-6.9373088951
 20
23.9602219018
 30
0.0
 11
0.2121481893
 21
0.2121481894
 31
0.0
 40
0.9999238505
 41
0.7853600871
 42
1.5707963267
  0
ELLIPSE
  5
72A
100
AcDbEntity
  8
RACCORDO
100
AcDbEllipse
 62
7
  6
CONTINUOUS
 10
-7.7527889741
 20
23.0689601931
 30
0.0
 11
0.3000456984
 21
0.0
 31
0.0
 40
0.9998476952
 41
3.1415926536
 42
4.7123889804
  0
ELLIPSE
  5
72B
100
AcDbEntity
  8
RACCORDO
100
AcDbEllipse
 62
7
  6
CONTINUOUS
 10
-7.5782383248
 20
23.0689601931
 30
0.0
 11
-0.3000456984
 21
0.0
 31
0.0
 40
0.9998476952
 41
1.5533430343
 42
1.5707963268
  0
ELLIPSE
  5
72C
100
AcDbEntity
  8
RACCORDO
100
AcDbEllipse
 62
7
  6
CONTINUOUS
 10
-7.7527889741
 20
23.1447418228
 30
0.0
 11
0.2121966567
 21
0.2121966568
 31
0.0
 40
0.9996954599
 41
1.5707963268
 42
2.3563467834
  0
ELLIPSE
  5
72D
100
AcDbEntity
  8
RACCORDO
100
AcDbEllipse
 62
7
  6
CONTINUOUS
 10
7.3316395501
 20
23.9602219018
 30
0.0
 11
0.2121481893
 21
-0.2121481893
 31
0.0
 40
0.9999238505
 41
1.5707963268
 42
2.3562325664
  0
ELLIPSE
  5
72E
100
AcDbEntity
  8
RACCORDO
100
AcDbEllipse
 62
7
  6
CONTINUOUS
 10
8.1471196291
 20
23.0689601931
 30
0.0
 11
0.3000456984
 21
0.0
 31
0.0
 40
0.9998476952
 41
-1.5707963268
 42
-0.0
  0
ELLIPSE
  5
72F
100
AcDbEntity
  8
RACCORDO
100
AcDbEllipse
 62
7
  6
CONTINUOUS
 10
7.9725689798
 20
23.0689601931
 30
0.0
 11
0.3000456984
 21
-0.0
 31
0.0
 40
0.9998476952
 41
-1.5707963268
 42
-1.5533430343
  0
ELLIPSE
  5
730
100
AcDbEntity
  8
RACCORDO
100
AcDbEllipse
 62
7
  6
CONTINUOUS
 10
8.1471196291
 20
23.1447418228
 30
0.0
 11
-0.2121966567
 21
0.2121966568
 31
0.0
 40
0.9996954599
 41
-2.3563467834
 42
-1.5707963268
  0
ELLIPSE
  5
731
100
AcDbEntity
  8
RACCORDO
100
AcDbEllipse
 62
7
  6
CONTINUOUS
 10
-6.9373088951
 20
-20.2223015156
 30
0.0
 11
0.2121481893
 21
-0.2121481893
 31
0.0
 40
0.9999238505
 41
-1.5707963268
 42
-0.7853600872
  0
ELLIPSE
  5
732
100
AcDbEntity
  8
RACCORDO
100
AcDbEllipse
 62
7
  6
CONTINUOUS
 10
-10.6028346725
 20
-20.1722996117
 30
0.0
 11
0.0
 21
0.3500133274
 31
0.0
 40
0.9999619231
 41
1.5707963268
 42
3.1415926536
  0
ELLIPSE
  5
733
100
AcDbEntity
  8
RACCORDO
100
AcDbEllipse
 62
7
  6
CONTINUOUS
 10
-7.7527889741
 20
-19.3310398069
 30
0.0
 11
0.3000456984
 21
-0.0
 31
0.0
 40
0.9998476952
 41
1.5707963268
 42
3.1415926536
  0
ELLIPSE
  5
734
100
AcDbEntity
  8
RACCORDO
100
AcDbEllipse
 62
7
  6
CONTINUOUS
 10
-7.7527889741
 20
-19.4068214366
 30
0.0
 11
0.2121966568
 21
-0.2121966568
 31
0.0
 40
0.9996954599
 41
-2.3563467834
 42
-1.5707963268
  0
ELLIPSE
  5
735
100
AcDbEntity
  8
RACCORDO
100
AcDbEllipse
 62
7
  6
CONTINUOUS
 10
4.2523629609
 20
-20.4638429249
 30
0.0
 11
0.3
 21
-0.0
 31
0.0
 40
0.0087268678
 41
0.0058177642
 42
1.5707963268
  0
ELLIPSE
  5
736
100
AcDbEntity
  8
RACCORDO
100
AcDbEllipse
 62
7
  6
CONTINUOUS
 10
4.2523629609
 20
-21.8862425174
 30
0.0
 11
0.3
 21
-0.0
 31
0.0
 40
0.0058178298
 41
0.0058177642
 42
1.5707963268
  0
ELLIPSE
  5
737
100
AcDbEntity
  8
RACCORDO
100
AcDbEllipse
 62
7
  6
CONTINUOUS
 10
-3.6028346725
 20
-20.4638429249
 30
0.0
 11
0.3
 21
-0.0
 31
0.0
 40
0.0087268678
 41
0.0
 42
1.5707963268
  0
ELLIPSE
  5
738
100
AcDbEntity
  8
RACCORDO
100
AcDbEllipse
 62
7
  6
CONTINUOUS
 10
-3.6028346725
 20
-21.8862425174
 30
0.0
 11
0.3
 21
0.0
 31
0.0
 40
0.0058178298
 41
-0.0
 42
1.5707963268
  0
ELLIPSE
  5
739
100
AcDbEntity
  8
RACCORDO
100
AcDbEllipse
 62
7
  6
CONTINUOUS
 10
-3.8580323059
 20
-21.8862425174
 30
0.0
 11
0.3
 21
-0.0
 31
0.0
 40
0.0058178298
 41
1.5707963268
 42
3.1357748894
  0
ELLIPSE
  5
73A
100
AcDbEntity
  8
RACCORDO
100
AcDbEllipse
 62
7
  6
CONTINUOUS
 10
-3.8580323059
 20
-20.4638429249
 30
0.0
 11
0.3
 21
-0.0
 31
0.0
 40
0.0087268678
 41
1.5707963268
 42
3.1357748894
  0
ELLIPSE
  5
73B
100
AcDbEntity
  8
RACCORDO
100
AcDbEllipse
 62
7
  6
CONTINUOUS
 10
3.9971653275
 20
-21.8862425174
 30
0.0
 11
0.3
 21
0.0
 31
0.0
 40
0.0058178298
 41
1.5707963268
 42
3.1415926536
  0
ELLIPSE
  5
73C
100
AcDbEntity
  8
RACCORDO
100
AcDbEllipse
 62
7
  6
CONTINUOUS
 10
3.9971653275
 20
-20.4638429249
 30
0.0
 11
0.3
 21
-0.0
 31
0.0
 40
0.0087268678
 41
1.5707963268
 42
3.1415926536
  0
ELLIPSE
  5
73D
100
AcDbEntity
  8
RACCORDO
100
AcDbEllipse
 62
7
  6
CONTINUOUS
 10
4.2523629609
 20
25.6241629035
 30
0.0
 11
0.3
 21
0.0
 31
0.0
 40
0.0058178298
 41
-1.5707963268
 42
-0.0058177642
  0
ELLIPSE
  5
73E
100
AcDbEntity
  8
RACCORDO
100
AcDbEllipse
 62
7
  6
CONTINUOUS
 10
4.2523629609
 20
24.2017633111
 30
0.0
 11
0.3
 21
0.0
 31
0.0
 40
0.0087268678
 41
-1.5707963268
 42
-0.0058177642
  0
ELLIPSE
  5
73F
100
AcDbEntity
  8
RACCORDO
100
AcDbEllipse
 62
7
  6
CONTINUOUS
 10
3.9971653275
 20
24.2017633111
 30
0.0
 11
0.3
 21
0.0
 31
0.0
 40
0.0087268678
 41
3.1415926536
 42
4.7123889804
  0
ELLIPSE
  5
740
100
AcDbEntity
  8
RACCORDO
100
AcDbEllipse
 62
7
  6
CONTINUOUS
 10
3.9971653275
 20
25.6241629035
 30
0.0
 11
0.3
 21
-0.0
 31
0.0
 40
0.0058178298
 41
3.1415926536
 42
4.7123889804
  0
ELLIPSE
  5
741
100
AcDbEntity
  8
RACCORDO
100
AcDbEllipse
 62
7
  6
CONTINUOUS
 10
-3.6028346725
 20
25.6241629035
 30
0.0
 11
0.3
 21
-0.0
 31
0.0
 40
0.0058178298
 41
-1.5707963268
 42
-0.0
  0
ELLIPSE
  5
742
100
AcDbEntity
  8
RACCORDO
100
AcDbEllipse
 62
7
  6
CONTINUOUS
 10
-3.6028346725
 20
24.2017633111
 30
0.0
 11
0.3
 21
0.0
 31
0.0
 40
0.0087268678
 41
-1.5707963268
 42
-0.0
  0
ELLIPSE
  5
743
100
AcDbEntity
  8
RACCORDO
100
AcDbEllipse
 62
7
  6
CONTINUOUS
 10
-3.8580323059
 20
24.2017633111
 30
0.0
 11
0.3
 21
-0.0
 31
0.0
 40
0.0087268678
 41
-3.1357748894
 42
-1.5707963268
  0
ELLIPSE
  5
744
100
AcDbEntity
  8
RACCORDO
100
AcDbEllipse
 62
7
  6
CONTINUOUS
 10
-3.8580323059
 20
25.6241629035
 30
0.0
 11
0.3
 21
-0.0
 31
0.0
 40
0.0058178298
 41
-3.1357748894
 42
-1.5707963268
  0
ELLIPSE
  5
745
100
AcDbEntity
  8
RACCORDO
100
AcDbEllipse
 62
7
  6
CONTINUOUS
 10
7.3316395501
 20
-20.2223015156
 30
0.0
 11
0.2121481893
 21
0.2121481893
 31
0.0
 40
0.9999238505
 41
-2.3562325664
 42
-1.5707963268
  0
ELLIPSE
  5
746
100
AcDbEntity
  8
RACCORDO
100
AcDbEllipse
 62
7
  6
CONTINUOUS
 10
7.197153904
 20
-18.1310398069
 30
0.0
 11
0.3000114235
 21
0.0
 31
0.0
 40
0.9999619231
 41
-0.0
 42
1.5707963268
  0
ELLIPSE
  5
747
100
AcDbEntity
  8
RACCORDO
100
AcDbEllipse
 62
7
  6
CONTINUOUS
 10
6.5471653275
 20
-18.2156904245
 30
0.0
 11
0.3
 21
0.0
 31
0.0
 40
0.0087268678
 41
3.1415926536
 42
4.7123889804
  0
ELLIPSE
  5
748
100
AcDbEntity
  8
RACCORDO
100
AcDbEllipse
 62
7
  6
CONTINUOUS
 10
8.1471196291
 20
-19.4068214366
 30
0.0
 11
0.2121966568
 21
0.2121966568
 31
0.0
 40
0.9996954599
 41
-1.5707963268
 42
-0.7852458701
  0
ELLIPSE
  5
749
100
AcDbEntity
  8
RACCORDO
100
AcDbEllipse
 62
7
  6
CONTINUOUS
 10
-6.1528346725
 20
-18.2156904245
 30
0.0
 11
0.3
 21
-0.0
 31
0.0
 40
0.0087268678
 41
-1.5707963268
 42
-0.0
  0
ELLIPSE
  5
74A
100
AcDbEntity
  8
RACCORDO
100
AcDbEllipse
 62
7
  6
CONTINUOUS
 10
8.1471196291
 20
-19.3310398069
 30
0.0
 11
0.3000456984
 21
0.0
 31
0.0
 40
0.9998476952
 41
-0.0
 42
1.5707963268
  0
ELLIPSE
  5
74B
100
AcDbEntity
  8
RACCORDO
100
AcDbEllipse
 62
7
  6
CONTINUOUS
 10
-6.802823249
 20
-18.1310398069
 30
0.0
 11
0.3000114235
 21
0.0
 31
0.0
 40
0.9999619231
 41
1.5707963268
 42
3.1415926536
  0
ELLIPSE
  5
74C
100
AcDbEntity
  8
RACCORDO
100
AcDbEllipse
 62
7
  6
CONTINUOUS
 10
7.9725689798
 20
-19.3310398069
 30
0.0
 11
0.3000456984
 21
-0.0
 31
0.0
 40
0.9998476952
 41
1.5533430343
 42
1.5707963268
  0
ELLIPSE
  5
74D
100
AcDbEntity
  8
RACCORDO
100
AcDbEllipse
 62
7
  6
CONTINUOUS
 10
6.5471653275
 20
21.9536108106
 30
0.0
 11
0.3
 21
-0.0
 31
0.0
 40
0.0087268678
 41
1.5707963268
 42
3.1415926536
  0
ELLIPSE
  5
74E
100
AcDbEntity
  8
RACCORDO
100
AcDbEllipse
 62
7
  6
CONTINUOUS
 10
7.197153904
 20
21.8689601931
 30
0.0
 11
0.3000114235
 21
-0.0
 31
0.0
 40
0.9999619231
 41
-1.5707963268
 42
0.0
  0
ELLIPSE
  5
74F
100
AcDbEntity
  8
RACCORDO
100
AcDbEllipse
 62
7
  6
CONTINUOUS
 10
-6.802823249
 20
21.8689601931
 30
0.0
 11
0.3000114235
 21
-0.0
 31
0.0
 40
0.9999619231
 41
-3.1415926536
 42
-1.5707963268
  0
ELLIPSE
  5
750
100
AcDbEntity
  8
RACCORDO
100
AcDbEllipse
 62
7
  6
CONTINUOUS
 10
-6.1528346725
 20
21.9536108106
 30
0.0
 11
0.3
 21
-0.0
 31
0.0
 40
0.0087268678
 41
-0.0
 42
1.5707963268
  0
ELLIPSE
  5
751
100
AcDbEntity
  8
RACCORDO
100
AcDbEllipse
 62
7
  6
CONTINUOUS
 10
3.0970891635
 20
143.7446026291
 30
0.0
 11
-0.4997620717
 21
162.4815824859
 31
0.0
 40
0.000109066
 41
-3.0590873329
 42
-3.0483969569
  0
ELLIPSE
  5
752
100
AcDbEntity
  8
RACCORDO
100
AcDbEllipse
 62
7
  6
CONTINUOUS
 10
3.0970891635
 20
-140.006682243
 30
0.0
 11
0.4997620717
 21
162.4815824859
 31
0.0
 40
0.000109066
 41
-0.0931956966
 42
-0.0825053207
  0
ELLIPSE
  5
753
100
AcDbEntity
  8
RACCORDO
100
AcDbEllipse
 62
7
  6
CONTINUOUS
 10
-2.7027585085
 20
143.7446026291
 30
0.0
 11
0.4997620717
 21
162.4815824859
 31
0.0
 40
0.000109066
 41
-3.2347883502
 42
-3.2240979743
  0
ELLIPSE
  5
754
100
AcDbEntity
  8
RACCORDO
100
AcDbEllipse
 62
7
  6
CONTINUOUS
 10
-2.7027585085
 20
-140.006682243
 30
0.0
 11
-0.4997620717
 21
162.4815824859
 31
0.0
 40
0.000109066
 41
0.0825053207
 42
0.0931956966
  0
ELLIPSE
  5
755
100
AcDbEntity
  8
RACCORDO
100
AcDbEllipse
 62
7
  6
CONTINUOUS
 10
-8.9525300164
 20
19.5404068756
 30
0.0
 11
1.8480888181
 21
-0.7655034529
 31
0.0
 40
0.9998215708
 41
2.7489566578
 42
3.5342286494
  0
ELLIPSE
  5
756
100
AcDbEntity
  8
RACCORDO
100
AcDbEllipse
 62
7
  6
CONTINUOUS
 10
-8.9525300164
 20
-15.8024864895
 30
0.0
 11
1.8480888181
 21
0.7655034529
 31
0.0
 40
0.9998215708
 41
2.7489566578
 42
3.5342286494
  0
ELLIPSE
  5
757
100
AcDbEntity
  8
RACCORDO
100
AcDbEllipse
 62
7
  6
CONTINUOUS
 10
9.3468606714
 20
-15.8024864895
 30
0.0
 11
1.8480888181
 21
-0.7655034529
 31
0.0
 40
0.9998215708
 41
-0.3926359958
 42
0.3926359958
  0
ELLIPSE
  5
758
100
AcDbEntity
  8
RACCORDO
100
AcDbEllipse
 62
7
  6
CONTINUOUS
 10
9.3468606714
 20
19.5404068756
 30
0.0
 11
1.8480888181
 21
0.7655034529
 31
0.0
 40
0.9998215708
 41
-0.3926359958
 42
0.3926359958
  0
ELLIPSE
  5
759
100
AcDbEntity
  8
DRAFT
100
AcDbEllipse
 62
7
  6
CONTINUOUS
 10
5.4471653275
 20
9.8401952719
 30
0.0
 11
2.75839524
 21
-0.0
 31
0.0
 40
0.0058178298
 41
-3.1415926536
 42
-0.0
  0
ELLIPSE
  5
75A
100
AcDbEntity
  8
DRAFT
100
AcDbEllipse
 62
7
  6
CONTINUOUS
 10
-5.0528346725
 20
9.8401952719
 30
0.0
 11
2.75839524
 21
-0.0
 31
0.0
 40
0.0058178298
 41
-3.1415926536
 42
-0.0
  0
ELLIPSE
  5
75B
100
AcDbEntity
  8
DRAFT
100
AcDbEllipse
 62
7
  6
CONTINUOUS
 10
-5.0528346725
 20
-16.2022748857
 30
0.0
 11
2.75839524
 21
0.0
 31
0.0
 40
0.0058178298
 41
-0.0
 42
3.1415926536
  0
ELLIPSE
  5
75C
100
AcDbEntity
  8
DRAFT
100
AcDbEllipse
 62
7
  6
CONTINUOUS
 10
5.4471653275
 20
-16.2022748857
 30
0.0
 11
2.75839524
 21
-0.0
 31
0.0
 40
0.0058178298
 41
-0.0
 42
3.1415926536
  0
ELLIPSE
  5
75D
100
AcDbEntity
  8
DRAFT
100
AcDbEllipse
 62
7
  6
CONTINUOUS
 10
-5.0528346725
 20
9.8457222102
 30
0.0
 11
2.75
 21
-0.0
 31
0.0
 40
0.0058178298
 41
0.0087266463
 42
3.1328660073
  0
ELLIPSE
  5
75E
100
AcDbEntity
  8
DRAFT
100
AcDbEllipse
 62
7
  6
CONTINUOUS
 10
5.4471653275
 20
9.8457222102
 30
0.0
 11
2.75
 21
-0.0
 31
0.0
 40
0.0058178298
 41
0.0087266463
 42
3.1328660073
  0
ELLIPSE
  5
75F
100
AcDbEntity
  8
DRAFT
100
AcDbEllipse
 62
7
  6
CONTINUOUS
 10
5.4471653275
 20
-16.2078018241
 30
0.0
 11
2.75
 21
-0.0
 31
0.0
 40
0.0058178298
 41
-3.1328660073
 42
-0.0087266463
  0
ELLIPSE
  5
760
100
AcDbEntity
  8
DRAFT
100
AcDbEllipse
 62
7
  6
CONTINUOUS
 10
-5.0528346725
 20
-16.2078018241
 30
0.0
 11
2.75
 21
-0.0
 31
0.0
 40
0.0058178298
 41
-3.1328660073
 42
-0.0087266463
  0
ELLIPSE
  5
761
100
AcDbEntity
  8
RACCORDO
100
AcDbEllipse
 62
7
  6
CONTINUOUS
 10
0.7971577118
 20
16.1689525774
 30
0.0
 11
0.1414321262
 21
0.1414321263
 31
0.0
 40
0.9999238505
 41
-0.7853600874
 42
0.785360087
  0
ELLIPSE
  5
762
100
AcDbEntity
  8
RACCORDO
100
AcDbEllipse
 62
7
  6
CONTINUOUS
 10
0.7971577118
 20
15.5689678087
 30
0.0
 11
0.1414321262
 21
-0.1414321262
 31
0.0
 40
0.9999238505
 41
-0.7853600871
 42
0.7853600873
  0
ELLIPSE
  5
763
100
AcDbEntity
  8
0
100
AcDbEllipse
 62
7
  6
CONTINUOUS
 10
-5.0528346725
 20
-17.637869505
 30
0.0
 11
3.3022581827
 21
-0.0
 31
0.0
 40
0.0174559514
 41
3.1402413834
 42
6.2845365774
  0
ELLIPSE
  5
764
100
AcDbEntity
  8
0
100
AcDbEllipse
 62
7
  6
CONTINUOUS
 10
5.4471653275
 20
-17.637869505
 30
0.0
 11
3.3022581827
 21
-0.0
 31
0.0
 40
0.0174559514
 41
3.1402413834
 42
6.2845365774
  0
ELLIPSE
  5
765
100
AcDbEntity
  8
RACCORDO
100
AcDbEllipse
 62
7
  6
CONTINUOUS
 10
5.0971577118
 20
19.8689678087
 30
0.0
 11
-0.1414321262
 21
0.1414321262
 31
0.0
 40
0.9999238505
 41
-3.9269527408
 42
-2.3562325665
  0
ELLIPSE
  5
766
100
AcDbEntity
  8
RACCORDO
100
AcDbEllipse
 62
7
  6
CONTINUOUS
 10
4.4971729432
 20
19.8689678087
 30
0.0
 11
0.1414321262
 21
0.1414321262
 31
0.0
 40
0.9999238505
 41
2.3562325663
 42
3.9269527406
  0
ELLIPSE
  5
767
100
AcDbEntity
  8
RACCORDO
100
AcDbEllipse
 62
7
  6
CONTINUOUS
 10
8.7971729432
 20
16.1689525774
 30
0.0
 11
0.1414321262
 21
-0.1414321262
 31
0.0
 40
0.9999238505
 41
2.3562325663
 42
3.9269527407
  0
ELLIPSE
  5
768
100
AcDbEntity
  8
RACCORDO
100
AcDbEllipse
 62
7
  6
CONTINUOUS
 10
8.7971729432
 20
15.5689678087
 30
0.0
 11
0.1414321262
 21
0.1414321262
 31
0.0
 40
0.9999238505
 41
2.3562325664
 42
3.9269527408
  0
ELLIPSE
  5
769
100
AcDbEntity
  8
RACCORDO
100
AcDbEllipse
 62
7
  6
CONTINUOUS
 10
2.599169632
 20
-18.0331964394
 30
0.0
 11
1.0000047088
 21
-0.0000084854
 31
0.0
 40
0.0176698676
 41
0.0754195703
 42
1.5712765441
  0
ELLIPSE
  5
76A
100
AcDbEntity
  8
RACCORDO
100
AcDbEllipse
 62
7
  6
CONTINUOUS
 10
-2.204838977
 20
-18.0331964394
 30
0.0
 11
1.0000047088
 21
0.0000084854
 31
0.0
 40
0.0176698676
 41
1.5703161095
 42
3.0661730833
  0
ELLIPSE
  5
76B
100
AcDbEntity
  8
RACCORDO
100
AcDbEllipse
 62
7
  6
CONTINUOUS
 10
2.599169632
 20
21.7711168256
 30
0.0
 11
1.0000047088
 21
0.0000084854
 31
0.0
 40
0.0176698676
 41
-1.5712765441
 42
-0.0754195703
  0
ELLIPSE
  5
76C
100
AcDbEntity
  8
RACCORDO
100
AcDbEllipse
 62
7
  6
CONTINUOUS
 10
-2.204838977
 20
21.7711168256
 30
0.0
 11
1.0000047088
 21
-0.0000084854
 31
0.0
 40
0.0176698676
 41
-3.0661730833
 42
-1.5703161095
  0
ELLIPSE
  5
76D
100
AcDbEntity
  8
RACCORDO
100
AcDbEllipse
 62
7
  6
CONTINUOUS
 10
-9.1807269494
 20
20.4797870339
 30
0.0
 11
-0.3827517265
 21
0.924044409
 31
0.0
 40
0.9998215708
 41
-0.3926359958
 42
0.3926359958
  0
ELLIPSE
  5
76E
100
AcDbEntity
  8
RACCORDO
100
AcDbEllipse
 62
7
  6
CONTINUOUS
 10
9.5750576044
 20
20.4797870339
 30
0.0
 11
0.3827517265
 21
0.924044409
 31
0.0
 40
0.9998215708
 41
-0.3926359958
 42
0.3926359958
  0
ELLIPSE
  5
76F
100
AcDbEntity
  8
RACCORDO
100
AcDbEllipse
 62
7
  6
CONTINUOUS
 10
9.5750576044
 20
-16.7418666478
 30
0.0
 11
-0.3827517265
 21
0.924044409
 31
0.0
 40
0.9998215708
 41
-3.5342286494
 42
-2.7489566578
  0
ELLIPSE
  5
770
100
AcDbEntity
  8
RACCORDO
100
AcDbEllipse
 62
7
  6
CONTINUOUS
 10
-9.1807269494
 20
-16.7418666478
 30
0.0
 11
0.3827517265
 21
0.924044409
 31
0.0
 40
0.9998215708
 41
-3.5342286494
 42
-2.7489566578
  0
ELLIPSE
  5
771
100
AcDbEntity
  8
RACCORDO
100
AcDbEllipse
 62
7
  6
CONTINUOUS
 10
2.653426273
 20
9.8522515015
 30
0.0
 11
0.0
 21
1.0
 31
0.0
 40
0.0087268678
 41
1.0852306877
 42
1.5707963268
  0
ELLIPSE
  5
772
100
AcDbEntity
  8
RACCORDO
100
AcDbEllipse
 62
7
  6
CONTINUOUS
 10
2.922890922
 20
9.8522515015
 30
0.0
 11
-0.5774011102
 21
0.9999928594
 31
0.0
 40
0.0065449328
 41
0.0136742321
 42
1.0814516273
  0
ELLIPSE
  5
773
100
AcDbEntity
  8
RACCORDO
100
AcDbEllipse
 62
7
  6
CONTINUOUS
 10
-2.5285602671
 20
9.8522515015
 30
0.0
 11
0.5774011102
 21
0.9999928594
 31
0.0
 40
0.0065449328
 41
-1.0814516273
 42
-0.0136742321
  0
ELLIPSE
  5
774
100
AcDbEntity
  8
RACCORDO
100
AcDbEllipse
 62
7
  6
CONTINUOUS
 10
-2.259095618
 20
9.8522515015
 30
0.0
 11
-0.0
 21
1.0
 31
0.0
 40
0.0087268678
 41
-1.5707963268
 42
-1.0852306877
  0
ELLIPSE
  5
775
100
AcDbEntity
  8
RACCORDO
100
AcDbEllipse
 62
7
  6
CONTINUOUS
 10
-7.846573727
 20
9.8522515015
 30
0.0
 11
-0.0
 21
1.0
 31
0.0
 40
0.0087268678
 41
1.0852306877
 42
1.5707963268
  0
ELLIPSE
  5
776
100
AcDbEntity
  8
RACCORDO
100
AcDbEllipse
 62
7
  6
CONTINUOUS
 10
-7.577109078
 20
9.8522515015
 30
0.0
 11
-0.5774011102
 21
0.9999928594
 31
0.0
 40
0.0065449328
 41
0.0136742321
 42
1.0814516273
  0
ELLIPSE
  5
777
100
AcDbEntity
  8
RACCORDO
100
AcDbEllipse
 62
7
  6
CONTINUOUS
 10
-7.7708346853
 20
-16.5498609335
 30
0.0
 11
0.5774011102
 21
0.9999928594
 31
0.0
 40
0.0065449328
 41
-4.5770518843
 42
-3.1552668857
  0
ELLIPSE
  5
778
100
AcDbEntity
  8
RACCORDO
100
AcDbEllipse
 62
7
  6
CONTINUOUS
 10
-7.846573727
 20
-16.5498609335
 30
0.0
 11
-0.0
 21
1.0
 31
0.0
 40
0.0087268678
 41
1.5707963268
 42
1.7023543624
  0
ELLIPSE
  5
779
100
AcDbEntity
  8
RACCORDO
100
AcDbEllipse
 62
7
  6
CONTINUOUS
 10
2.7291653147
 20
-16.5498609335
 30
0.0
 11
0.5774011102
 21
0.9999928594
 31
0.0
 40
0.0065449328
 41
-4.5770518843
 42
-3.1552668857
  0
ELLIPSE
  5
77A
100
AcDbEntity
  8
RACCORDO
100
AcDbEllipse
 62
7
  6
CONTINUOUS
 10
2.653426273
 20
-16.5498609335
 30
0.0
 11
0.0
 21
1.0
 31
0.0
 40
0.0087268678
 41
1.5707963268
 42
1.7023543624
  0
ELLIPSE
  5
77B
100
AcDbEntity
  8
RACCORDO
100
AcDbEllipse
 62
7
  6
CONTINUOUS
 10
-2.259095618
 20
-16.5498609335
 30
0.0
 11
-0.0
 21
1.0
 31
0.0
 40
0.0087268678
 41
-1.7023543624
 42
-1.5707963268
  0
ELLIPSE
  5
77C
100
AcDbEntity
  8
RACCORDO
100
AcDbEllipse
 62
7
  6
CONTINUOUS
 10
-2.3348346598
 20
-16.5498609335
 30
0.0
 11
-0.5774011102
 21
0.9999928594
 31
0.0
 40
0.0065449328
 41
-3.1279184215
 42
-1.7061334228
  0
ELLIPSE
  5
77D
100
AcDbEntity
  8
RACCORDO
100
AcDbEllipse
 62
7
  6
CONTINUOUS
 10
8.240904382
 20
-16.5498609335
 30
0.0
 11
0.0
 21
1.0
 31
0.0
 40
0.0087268678
 41
-1.7023543624
 42
-1.5707963268
  0
ELLIPSE
  5
77E
100
AcDbEntity
  8
RACCORDO
100
AcDbEllipse
 62
7
  6
CONTINUOUS
 10
8.1651653402
 20
-16.5498609335
 30
0.0
 11
-0.5774011102
 21
0.9999928594
 31
0.0
 40
0.0065449328
 41
-3.1279184215
 42
-1.7061334228
  0
ELLIPSE
  5
77F
100
AcDbEntity
  8
RACCORDO
100
AcDbEllipse
 62
7
  6
CONTINUOUS
 10
6.1661775111
 20
15.0690744282
 30
0.0
 11
-0.1308631545
 21
2.9972590087
 31
0.0
 40
0.9999618505
 41
3.0979610848
 42
3.1852242224
  0
ELLIPSE
  5
780
100
AcDbEntity
  8
RACCORDO
100
AcDbEllipse
 62
7
  6
CONTINUOUS
 10
3.4642472384
 20
15.0690744282
 30
0.0
 11
-0.1668234227
 21
-2.9954728334
 31
0.0
 40
0.999961805
 41
-0.0556322584
 42
0.0556322584
  0
ELLIPSE
  5
781
100
AcDbEntity
  8
RACCORDO
100
AcDbEllipse
 62
7
  6
CONTINUOUS
 10
0.9971736208
 20
19.5689518997
 30
0.0
 11
0.353565119
 21
-0.353565119
 31
0.0
 40
0.9999668281
 41
2.3562110764
 42
3.9269742308
  0
ELLIPSE
  5
782
100
AcDbEntity
  8
RACCORDO
100
AcDbEllipse
 62
7
  6
CONTINUOUS
 10
9.5671570342
 20
19.5689518997
 30
0.0
 11
-0.353565119
 21
-0.353565119
 31
0.0
 40
0.9999668281
 41
2.3562110764
 42
3.9269742308
  0
ELLIPSE
  5
783
100
AcDbEntity
  8
0
100
AcDbEllipse
 62
7
  6
CONTINUOUS
 10
5.4471653275
 20
10.9402259932
 30
0.0
 11
3.1085301141
 21
0.0
 31
0.0
 40
0.0174559514
 41
-0.0013512702
 42
3.1429439238
  0
ELLIPSE
  5
784
100
AcDbEntity
  8
0
100
AcDbEllipse
 62
7
  6
CONTINUOUS
 10
-5.0528346725
 20
10.9402259932
 30
0.0
 11
3.1085301141
 21
-0.0
 31
0.0
 40
0.0174559514
 41
-0.0013512702
 42
3.1429439238
  0
ELLIPSE
  5
785
100
AcDbEntity
  8
RACCORDO
100
AcDbEllipse
 62
7
  6
CONTINUOUS
 10
7.9714397329
 20
9.8522515015
 30
0.0
 11
0.5774011102
 21
0.9999928594
 31
0.0
 40
0.0065449328
 41
-1.0814516273
 42
-0.0136742321
  0
ELLIPSE
  5
786
100
AcDbEntity
  8
RACCORDO
100
AcDbEllipse
 62
7
  6
CONTINUOUS
 10
8.240904382
 20
9.8522515015
 30
0.0
 11
-0.0
 21
1.0
 31
0.0
 40
0.0087268678
 41
-1.5707963268
 42
-1.0852306877
  0
ELLIPSE
  5
787
100
AcDbEntity
  8
RACCORDO
100
AcDbEllipse
 62
7
  6
CONTINUOUS
 10
10.1236098996
 20
15.8834216574
 30
0.0
 11
0.0
 21
0.4
 31
0.0
 40
0.0057596502
 41
-1.5707963268
 42
-0.0087266463
  0
ELLIPSE
  5
788
100
AcDbEntity
  8
RACCORDO
100
AcDbEllipse
 62
7
  6
CONTINUOUS
 10
10.1236098996
 20
15.8544987288
 30
0.0
 11
0.0
 21
0.4
 31
0.0
 40
0.0057596502
 41
-3.1328660073
 42
-1.5707963268
  0
ELLIPSE
  5
789
100
AcDbEntity
  8
RACCORDO
100
AcDbEllipse
 62
7
  6
CONTINUOUS
 10
9.6034428305
 20
12.13268269
 30
0.0
 11
0.353565119
 21
-0.353565119
 31
0.0
 40
0.9999668281
 41
-0.7853815772
 42
0.7719160662
  0
ELLIPSE
  5
78A
100
AcDbEntity
  8
RACCORDO
100
AcDbEllipse
 62
7
  6
CONTINUOUS
 10
0.9608878244
 20
12.13268269
 30
0.0
 11
-0.353565119
 21
-0.353565119
 31
0.0
 40
0.9999668281
 41
-0.7382461048
 42
0.7853815772
  0
ELLIPSE
  5
78B
100
AcDbEntity
  8
RACCORDO
100
AcDbEllipse
 62
7
  6
CONTINUOUS
 10
8.851977746
 20
16.1141477746
 30
0.0
 11
0.1863969272
 21
-0.0781626821
 31
0.0
 40
0.9877345005
 41
1.9635525228
 42
3.5342726972
  0
ELLIPSE
  5
78C
100
AcDbEntity
  8
RACCORDO
100
AcDbEllipse
 62
7
  6
CONTINUOUS
 10
8.851977746
 20
15.6237726116
 30
0.0
 11
0.1863969272
 21
0.0781626821
 31
0.0
 40
0.9877345005
 41
2.74891261
 42
4.3196327844
  0
ELLIPSE
  5
78D
100
AcDbEntity
  8
RACCORDO
100
AcDbEllipse
 62
7
  6
CONTINUOUS
 10
9.6031538602
 20
12.1329716604
 30
0.0
 11
-0.2140261914
 21
0.4558612013
 31
0.0
 40
0.9919078658
 41
-2.0206254146
 42
-2.0071599036
  0
ELLIPSE
  5
78E
100
AcDbEntity
  8
RACCORDO
100
AcDbEllipse
 62
7
  6
CONTINUOUS
 10
0.9613411094
 20
12.133135975
 30
0.0
 11
0.2194608921
 21
0.4533047048
 31
0.0
 40
0.9919068676
 41
-4.2640248374
 42
-4.216889365
  0
ELLIPSE
  5
78F
100
AcDbEntity
  8
RACCORDO
100
AcDbEllipse
 62
7
  6
CONTINUOUS
 10
0.742352909
 20
16.1141477746
 30
0.0
 11
0.1863969272
 21
0.0781626821
 31
0.0
 40
0.9877345005
 41
-0.3926800436
 42
1.1780401308
  0
ELLIPSE
  5
790
100
AcDbEntity
  8
RACCORDO
100
AcDbEllipse
 62
7
  6
CONTINUOUS
 10
0.742352909
 20
15.6237726116
 30
0.0
 11
0.1863969272
 21
-0.0781626821
 31
0.0
 40
0.9877345005
 41
-1.1780401308
 42
0.3926800436
  0
ELLIPSE
  5
791
100
AcDbEntity
  8
RACCORDO
100
AcDbEllipse
 62
7
  6
CONTINUOUS
 10
5.042352909
 20
19.9237726116
 30
0.0
 11
-0.0781626821
 21
0.1863969272
 31
0.0
 40
0.9877345005
 41
-3.5342726972
 42
-1.9635525228
  0
ELLIPSE
  5
792
100
AcDbEntity
  8
RACCORDO
100
AcDbEllipse
 62
7
  6
CONTINUOUS
 10
4.551977746
 20
19.9237726116
 30
0.0
 11
0.0781626821
 21
0.1863969272
 31
0.0
 40
0.9877345005
 41
-4.3196327844
 42
-2.74891261
  0
ELLIPSE
  5
793
100
AcDbEntity
  8
RACCORDO
100
AcDbEllipse
 62
7
  6
CONTINUOUS
 10
0.2913615979
 20
15.4547279583
 30
0.0
 11
0.4
 21
0.0
 31
0.0
 40
0.0087268678
 41
0.0087266462
 42
1.1943281933
  0
ELLIPSE
  5
794
100
AcDbEntity
  8
RACCORDO
100
AcDbEllipse
 62
7
  6
CONTINUOUS
 10
0.2913615979
 20
16.2831924278
 30
0.0
 11
0.4
 21
0.0
 31
0.0
 40
0.0087268678
 41
-1.1943281933
 42
-0.0087266462
  0
ELLIPSE
  5
795
100
AcDbEntity
  8
RACCORDO
100
AcDbEllipse
 62
7
  6
CONTINUOUS
 10
4.3834375005
 20
20.3752683304
 30
0.0
 11
-0.0
 21
0.4
 31
0.0
 40
0.0087268678
 41
-3.1328660074
 42
-2.2381368816
  0
ELLIPSE
  5
796
100
AcDbEntity
  8
RACCORDO
100
AcDbEllipse
 62
7
  6
CONTINUOUS
 10
5.2108931544
 20
20.3752683304
 30
0.0
 11
0.0
 21
0.4
 31
0.0
 40
0.0087268678
 41
-4.0450484256
 42
-3.1503192998
  0
ENDSEC
  0
SECTION
  2
OBJECTS
  0
DICTIONARY
  5
C
100
AcDbDictionary
280
0
281
1
  3
ACAD_GROUP
350
D
  3
ACAD_MLINESTYLE
350
17
  3
ACAD_LAYOUT
350
1A
  3
ACAD_PLOTSETTINGS
350
19
  3
ACAD_PLOTSTYLENAME
350
E
  0
DICTIONARY
  5
D
102
{ACAD_REACTORS
330
C
102
}
100
AcDbDictionary
280
0
281
1
  0
ACDBDICTIONARYWDFLT
  5
E
102
{ACAD_REACTORS
330
C
102
}
100
AcDbDictionary
281
1
  3
Normal
350
F
100
AcDbDictionaryWithDefault
340
F
  0
DICTIONARY
  5
17
102
{ACAD_REACTORS
330
C
102
}
100
AcDbDictionary
280
0
281
1
  3
Standard
350
18
  0
DICTIONARY
  5
19
102
{ACAD_REACTORS
330
C
102
}
100
AcDbDictionary
281
1
  0
DICTIONARY
  5
1A
102
{ACAD_REACTORS
330
C
102
}
100
AcDbDictionary
281
1
  3
Model
350
797
  3
Layout1
350
798
  0
ACDBPLACEHOLDER
  5
F
102
{ACAD_REACTORS
330
E
102
}
  0
MLINESTYLE
  5
18
102
{ACAD_REACTORS
330
17
102
}
100
AcDbMlineStyle
  2
STANDARD
 70
0
  3

 62
256
 51
90.0
 52
90.0
 71
2
 49
0.5
 62
256
  6
BYLAYER
 49
-0.5
 62
256
  6
BYLAYER
  0
LAYOUT
  5
797
102
{ACAD_REACTORS
330
1A
102
}
100
AcDbPlotSettings
  1

  2
none_device
  4
ISO_A4_(297.00_x_210.00_MM)
  6

 40
0.0
 41
0.0
 42
0.0
 43
0.0
 44
297.0
 45
210.0
 46
0.0
 47
0.0
 48
0.0
 49
0.0
140
0.0
141
0.0
142
1.0
143
1.0
 70
1024
 72
1
 73
0
 74
0
  7

 75
0
147
1.0
148
0.0
149
0.0
100
AcDbLayout
  1
Model
 70
0
 71
0
 10
0.0
 20
0.0
 11
297.0
 21
210.0
 12
0.0
 22
0.0
 32
0.0
 14
0.0
 24
0.0
 34
0.0
 15
0.0
 25
0.0
 35
0.0
146
0.0
 13
0.0
 23
0.0
 33
0.0
 16
1.0
 26
0.0
 36
0.0
 17
0.0
 27
1.0
 37
0.0
 76
0
330
219
345
0
346
0
  0
LAYOUT
  5
798
102
{ACAD_REACTORS
330
1A
102
}
100
AcDbPlotSettings
  1

  2
none_device
  4
ISO_A4_(297.00_x_210.00_MM)
  6

 40
0.0
 41
0.0
 42
0.0
 43
0.0
 44
297.0
 45
210.0
 46
0.0
 47
0.0
 48
0.0
 49
0.0
140
0.0
141
0.0
142
1.0
143
1.0
 70
0
 72
1
 73
0
 74
0
  7

 75
0
147
1.0
148
0.0
149
0.0
100
AcDbLayout
  1
Layout1
 70
0
 71
1
 10
0.0
 20
0.0
 11
297.0
 21
210.0
 12
0.0
 22
0.0
 32
0.0
 14
0.0
 24
0.0
 34
0.0
 15
0.0
 25
0.0
 35
0.0
146
0.0
 13
0.0
 23
0.0
 33
0.0
 16
1.0
 26
0.0
 36
0.0
 17
0.0
 27
1.0
 37
0.0
 76
0
330
21A
345
0
346
0
  0
ENDSEC
  0
EOF
