  0
SECTION
  2
HEADER
  9
$ACADVER
  1
AC1015
  9
$DWGCODEPAGE
  3
ANSI_1252
  9
$EXTMAX
 10
297.0
 20
210.0
 30
0.0
  9
$EXTMIN
 10
0.0
 20
0.0
 30
0.0
  9
$LIMMIN
 10
0.0
 20
0.0
  9
$LIMMAX
 10
297.0
 20
210.0
  9
$VIEWCTR
 10
148.5
 20
105.0
  9
$VIEWSIZE
 40
210.0
  9
$CLAYER
  8
0
  9
$LTSCALE
 40
16.335
  9
$CELTYPE
  6
BYLAYER
  9
$DIMSCALE
 40
1.0
  9
$DIMASZ
 40
3.0
  9
$DIMEXO
 40
1.85625
  9
$DIMDLI
 40
11.286
  9
$DIMEXE
 40
5.346
  9
$DIMCEN
 40
2.673
  9
$DIMLFAC
 40
1.0
  9
$DIMBLK
  1
_FILLED
  9
$DIMTXT
 40
3.0
  9
$DIMTOL
 70
1
  9
$DIMLIM
 70
0
  9
$DIMTFAC
 40
1.0
  9
$DIMTP
 40
0.01
  9
$DIMTM
 40
0.01
  9
$PDMODE
 70
3
  9
$PDSIZE
 40
3.0
  9
$HANDSEED
  5
71C
  9
$TILEMODE
 70
1
  9
$MEASUREMENT
 70
1
  9
$INSUNITS
 70
4
  0
ENDSEC
  0
SECTION
  2
CLASSES
  0
CLASS
  1
ACDBDICTIONARYWDFLT
  2
AcDbDictionaryWithDefault
  3
AutoCAD 2000
 90
0
280
0
281
0
  0
CLASS
  1
ACDBPLACEHOLDER
  2
AcDbPlaceHolder
  3
AutoCAD 2000
 90
0
280
0
281
0
  0
CLASS
  1
LAYOUT
  2
AcDbLayout
  3
AutoCAD 2000
 90
0
280
0
281
0
  0
ENDSEC
  0
SECTION
  2
TABLES
  0
TABLE
  2
VPORT
  5
8
100
AcDbSymbolTable
 70
2
  0
VPORT
  5
1F4
100
AcDbSymbolTableRecord
100
AcDbViewportTableRecord
  2
*ACTIVE
 70
0
 10
0.0
 20
0.0
 11
1.0
 21
1.0
 12
148.5
 22
105.0
 13
0.0
 23
0.0
 14
1.0
 24
1.0
 15
0.0
 25
0.0
 16
0.0
 26
0.0
 36
1.0
 17
0.0
 27
0.0
 37
0.0
 40
210.0
 41
1.4142857143
 42
50.0
 43
0.0
 44
0.0
 50
0.0
 51
0.0
 71
0
 72
100
 73
1
 74
1
 75
0
 76
0
 77
0
 78
0
  0
ENDTAB
  0
TABLE
  2
LTYPE
  5
5
100
AcDbSymbolTable
 70
6
  0
LTYPE
  5
14
100
AcDbSymbolTableRecord
100
AcDbLinetypeTableRecord
  2
BYBLOCK
 70
0
  3

 72
65
 73
0
 40
0.0
  0
LTYPE
  5
15
100
AcDbSymbolTableRecord
100
AcDbLinetypeTableRecord
  2
BYLAYER
 70
0
  3

 72
65
 73
0
 40
0.0
  0
LTYPE
  5
16
100
AcDbSymbolTableRecord
100
AcDbLinetypeTableRecord
  2
CONTINUOUS
 70
64
  3
Solid line
 72
65
 73
0
 40
0.0
  0
LTYPE
  5
1F5
100
AcDbSymbolTableRecord
100
AcDbLinetypeTableRecord
  2
CENTER
 70
64
  3
____ _ ____ _ ____ _ ____ _ ____ _ ____ _ ____
 72
65
 73
4
 40
0.6
 49
0.375
 74
0
 49
-0.075
 74
0
 49
0.075
 74
0
 49
-0.075
 74
0
  0
LTYPE
  5
1F6
100
AcDbSymbolTableRecord
100
AcDbLinetypeTableRecord
  2
HIDDEN
 70
64
  3
- - - - - - - - - - - - - - - - - - - -
 72
65
 73
2
 40
0.2
 49
0.1
 74
0
 49
-0.1
 74
0
  0
LTYPE
  5
1F7
100
AcDbSymbolTableRecord
100
AcDbLinetypeTableRecord
  2
PHANTOM
 70
64
  3
_____ _ _ _____ _ _ _____ _ _ _____
 72
65
 73
6
 40
0.8
 49
0.45
 74
0
 49
-0.05
 74
0
 49
0.1
 74
0
 49
-0.05
 74
0
 49
0.1
 74
0
 49
-0.05
 74
0
  0
LTYPE
  5
1F8
100
AcDbSymbolTableRecord
100
AcDbLinetypeTableRecord
  2
DOT
 70
64
  3
. . . . . . . . . . . . . . . . . . . .
 72
65
 73
2
 40
0.2
 49
0.1
 74
0
 49
-0.1
 74
0
  0
LTYPE
  5
1F9
100
AcDbSymbolTableRecord
100
AcDbLinetypeTableRecord
  2
DASHED
 70
64
  3
- - - - - - - - - - - - - - - - - - - -
 72
65
 73
2
 40
0.2
 49
0.1
 74
0
 49
-0.1
 74
0
  0
ENDTAB
  0
TABLE
  2
LAYER
  5
2
100
AcDbSymbolTable
 70
36
  0
LAYER
  5
10
100
AcDbSymbolTableRecord
100
AcDbLayerTableRecord
  2
0
 70
0
 62
7
  6
CONTINUOUS
370
-3
390
F
  0
LAYER
  5
1FA
100
AcDbSymbolTableRecord
100
AcDbLayerTableRecord
  2
DEFAULT_1
 70
0
 62
7
  6
CENTER
370
-3
390
F
  0
LAYER
  5
1FB
100
AcDbSymbolTableRecord
100
AcDbLayerTableRecord
  2
DEFAULT_2
 70
0
 62
7
  6
HIDDEN
370
-3
390
F
  0
LAYER
  5
1FC
100
AcDbSymbolTableRecord
100
AcDbLayerTableRecord
  2
DEFAULT_3
 70
0
 62
7
  6
PHANTOM
370
-3
390
F
  0
LAYER
  5
1FD
100
AcDbSymbolTableRecord
100
AcDbLayerTableRecord
  2
ASSI
 70
0
 62
7
  6
CONTINUOUS
370
-3
390
F
  0
LAYER
  5
1FE
100
AcDbSymbolTableRecord
100
AcDbLayerTableRecord
  2
COLORE_TOP
 70
0
 62
7
  6
CONTINUOUS
370
-3
390
F
  0
LAYER
  5
1FF
100
AcDbSymbolTableRecord
100
AcDbLayerTableRecord
  2
COORDINATE
 70
0
 62
7
  6
CONTINUOUS
370
-3
390
F
  0
LAYER
  5
200
100
AcDbSymbolTableRecord
100
AcDbLayerTableRecord
  2
COORD_ORIGINE
 70
0
 62
7
  6
CONTINUOUS
370
-3
390
F
  0
LAYER
  5
201
100
AcDbSymbolTableRecord
100
AcDbLayerTableRecord
  2
COPY_PUBLISH
 70
0
 62
7
  6
CONTINUOUS
370
-3
390
F
  0
LAYER
  5
202
100
AcDbSymbolTableRecord
100
AcDbLayerTableRecord
  2
COSMETIC
 70
0
 62
7
  6
CONTINUOUS
370
-3
390
F
  0
LAYER
  5
203
100
AcDbSymbolTableRecord
100
AcDbLayerTableRecord
  2
COSMETICHE
 70
0
 62
7
  6
CONTINUOUS
370
-3
390
F
  0
LAYER
  5
204
100
AcDbSymbolTableRecord
100
AcDbLayerTableRecord
  2
CURVE
 70
0
 62
7
  6
CONTINUOUS
370
-3
390
F
  0
LAYER
  5
205
100
AcDbSymbolTableRecord
100
AcDbLayerTableRecord
  2
DRAFT
 70
0
 62
7
  6
CONTINUOUS
370
-3
390
F
  0
LAYER
  5
206
100
AcDbSymbolTableRecord
100
AcDbLayerTableRecord
  2
IMPORT
 70
0
 62
7
  6
CONTINUOUS
370
-3
390
F
  0
LAYER
  5
207
100
AcDbSymbolTableRecord
100
AcDbLayerTableRecord
  2
IMPORTED
 70
0
 62
7
  6
CONTINUOUS
370
-3
390
F
  0
LAYER
  5
208
100
AcDbSymbolTableRecord
100
AcDbLayerTableRecord
  2
IMPORT_IGES
 70
0
 62
7
  6
CONTINUOUS
370
-3
390
F
  0
LAYER
  5
209
100
AcDbSymbolTableRecord
100
AcDbLayerTableRecord
  2
INCISIONI_LASER
 70
0
 62
7
  6
CONTINUOUS
370
-3
390
F
  0
LAYER
  5
20A
100
AcDbSymbolTableRecord
100
AcDbLayerTableRecord
  2
NOTE
 70
0
 62
7
  6
CONTINUOUS
370
-3
390
F
  0
LAYER
  5
20B
100
AcDbSymbolTableRecord
100
AcDbLayerTableRecord
  2
PIANI
 70
0
 62
7
  6
CONTINUOUS
370
-3
390
F
  0
LAYER
  5
20C
100
AcDbSymbolTableRecord
100
AcDbLayerTableRecord
  2
PIANI_DI_RIFERIMENTO
 70
0
 62
7
  6
CONTINUOUS
370
-3
390
F
  0
LAYER
  5
20D
100
AcDbSymbolTableRecord
100
AcDbLayerTableRecord
  2
PIANI_ORIGINE
 70
0
 62
7
  6
CONTINUOUS
370
-3
390
F
  0
LAYER
  5
20E
100
AcDbSymbolTableRecord
100
AcDbLayerTableRecord
  2
PIANI_RIFERIMENTO
 70
0
 62
7
  6
CONTINUOUS
370
-3
390
F
  0
LAYER
  5
20F
100
AcDbSymbolTableRecord
100
AcDbLayerTableRecord
  2
PIANI_SFORMO
 70
0
 62
7
  6
CONTINUOUS
370
-3
390
F
  0
LAYER
  5
210
100
AcDbSymbolTableRecord
100
AcDbLayerTableRecord
  2
PUNTI
 70
0
 62
7
  6
CONTINUOUS
370
-3
390
F
  0
LAYER
  5
211
100
AcDbSymbolTableRecord
100
AcDbLayerTableRecord
  2
RACCORDO
 70
0
 62
7
  6
CONTINUOUS
370
-3
390
F
  0
LAYER
  5
212
100
AcDbSymbolTableRecord
100
AcDbLayerTableRecord
  2
SMUSSO
 70
0
 62
7
  6
CONTINUOUS
370
-3
390
F
  0
LAYER
  5
213
100
AcDbSymbolTableRecord
100
AcDbLayerTableRecord
  2
SNAPLINE
 70
0
 62
7
  6
CONTINUOUS
370
-3
390
F
  0
LAYER
  5
214
100
AcDbSymbolTableRecord
100
AcDbLayerTableRecord
  2
SUPERFICI
 70
0
 62
7
  6
CONTINUOUS
370
-3
390
F
  0
LAYER
  5
215
100
AcDbSymbolTableRecord
100
AcDbLayerTableRecord
  2
TRASH
 70
0
 62
7
  6
CONTINUOUS
370
-3
390
F
  0
LAYER
  5
216
100
AcDbSymbolTableRecord
100
AcDbLayerTableRecord
  2
XSEC_DATUMS
 70
0
 62
7
  6
CONTINUOUS
370
-3
390
F
  0
ENDTAB
  0
TABLE
  2
STYLE
  5
3
100
AcDbSymbolTable
 70
1
  0
STYLE
  5
11
100
AcDbSymbolTableRecord
100
AcDbTextStyleTableRecord
  2
STANDARD
 70
0
 40
0.0
 41
0.8
 50
0.0
 71
0
 42
0.2
  3
txt
  4

  0
STYLE
  5
217
100
AcDbSymbolTableRecord
100
AcDbTextStyleTableRecord
  2
TEXTSTYLE_1
 70
0
 40
0.0
 41
0.8
 50
0.0
 71
0
 42
0.2
  3
gdt
  4

  0
ENDTAB
  0
TABLE
  2
VIEW
  5
6
100
AcDbSymbolTable
 70
0
  0
ENDTAB
  0
TABLE
  2
UCS
  5
7
100
AcDbSymbolTable
 70
0
  0
ENDTAB
  0
TABLE
  2
APPID
  5
9
100
AcDbSymbolTable
 70
1
  0
APPID
  5
218
100
AcDbSymbolTableRecord
100
AcDbRegAppTableRecord
  2
ACAD
 70
0
  0
ENDTAB
  0
TABLE
  2
BLOCK_RECORD
  5
1
100
AcDbSymbolTable
 70
0
  0
BLOCK_RECORD
  5
219
100
AcDbSymbolTableRecord
100
AcDbBlockTableRecord
  2
*Model_Space
  0
BLOCK_RECORD
  5
21A
100
AcDbSymbolTableRecord
100
AcDbBlockTableRecord
  2
*Paper_Space
  0
ENDTAB
  0
TABLE
  2
DIMSTYLE
  5
A
100
AcDbSymbolTable
 70
1
100
AcDbDimStyleTable
 71
0
  0
DIMSTYLE
105
21B
100
AcDbSymbolTableRecord
100
AcDbDimStyleTableRecord
  2
STANDARD
 70
0
  3

  4

 40
1.0
 41
3.0
 42
0.0625
 43
0.38
 44
0.18
 45
0.0
 46
0.0
 47
0.01
 48
0.01
140
3.0
141
0.09
142
0.0
143
25.4
144
1.0
145
0.0
146
1.0
147
0.09
 71
1.0
 72
0.0
 73
0
 74
0
 75
0
 76
0
 77
1
 78
8
170
0
171
2
172
0
173
0
174
0
175
0
176
0
177
0
178
0
270
2
271
2
272
2
273
2
274
2
275
0
280
0
281
0
282
0
283
1
284
8
285
0
286
0
287
3
288
0
340
11
  0
ENDTAB
  0
ENDSEC
  0
SECTION
  2
BLOCKS
  0
BLOCK
  5
20
100
AcDbEntity
  8
0
100
AcDbBlockBegin
  2
*Model_Space
 70
0
 10
0.0
 20
0.0
 30
0.0
  3
*Model_Space
  1

  0
ENDBLK
  5
21
100
AcDbEntity
  8
0
100
AcDbBlockEnd
  0
BLOCK
  5
1C
100
AcDbEntity
  8
0
100
AcDbBlockBegin
  2
*Paper_Space
 70
0
 10
0.0
 20
0.0
 30
0.0
  3
*Paper_Space
  1

  0
ENDBLK
  5
1D
100
AcDbEntity
  8
0
100
AcDbBlockEnd
  0
ENDSEC
  0
SECTION
  2
ENTITIES
  0
LINE
  5
21C
100
AcDbEntity
  8
RACCORDO
100
AcDbLine
 62
7
  6
CONTINUOUS
 10
-8.763653692
 20
25.1613271893
 11
-8.768025526
 21
25.1569553553
  0
LINE
  5
21D
100
AcDbEntity
  8
DRAFT
100
AcDbLine
 62
7
  6
CONTINUOUS
 10
-11.063653692
 20
-23.6386728107
 11
-8.763653692
 21
-23.6386728107
  0
LINE
  5
21E
100
AcDbEntity
  8
DRAFT
100
AcDbLine
 62
7
  6
CONTINUOUS
 10
7.836346308
 20
-23.6386728107
 11
10.136346308
 21
-23.6386728107
  0
LINE
  5
21F
100
AcDbEntity
  8
RACCORDO
100
AcDbLine
 62
253
  6
CONTINUOUS
 10
-11.059281858
 20
-23.6343009767
 11
-8.768025526
 21
-23.6343009767
  0
LINE
  5
220
100
AcDbEntity
  8
RACCORDO
100
AcDbLine
 62
253
  6
CONTINUOUS
 10
7.840718142
 20
-23.6343009767
 11
10.131974474
 21
-23.6343009767
  0
LINE
  5
221
100
AcDbEntity
  8
RACCORDO
100
AcDbLine
 62
253
  6
CONTINUOUS
 10
-11.0578358622
 20
-23.3843052075
 11
-8.7694715218
 21
-23.3843052075
  0
LINE
  5
222
100
AcDbEntity
  8
RACCORDO
100
AcDbLine
 62
253
  6
CONTINUOUS
 10
7.8421641378
 20
-23.3843052075
 11
10.1305284782
 21
-23.3843052075
  0
LINE
  5
223
100
AcDbEntity
  8
RACCORDO
100
AcDbLine
 62
253
  6
CONTINUOUS
 10
10.1305284782
 20
-23.083010378
 11
7.8421641378
 21
-23.083010378
  0
LINE
  5
224
100
AcDbEntity
  8
RACCORDO
100
AcDbLine
 62
253
  6
CONTINUOUS
 10
-8.7694715218
 20
-23.083010378
 11
-11.0578358622
 21
-23.083010378
  0
LINE
  5
225
100
AcDbEntity
  8
DRAFT
100
AcDbLine
 62
7
  6
CONTINUOUS
 10
-4.863653692
 20
-23.0386728107
 11
3.936346308
 21
-23.0386728107
  0
LINE
  5
226
100
AcDbEntity
  8
DRAFT
100
AcDbLine
 62
7
  6
CONTINUOUS
 10
-3.963653692
 20
-23.0328549809
 11
3.036346308
 21
-23.0328549809
  0
LINE
  5
227
100
AcDbEntity
  8
RACCORDO
100
AcDbLine
 62
7
  6
CONTINUOUS
 10
-4.5188513254
 20
-22.9921301722
 11
-4.263653692
 21
-22.9921301722
  0
LINE
  5
228
100
AcDbEntity
  8
RACCORDO
100
AcDbLine
 62
7
  6
CONTINUOUS
 10
3.336346308
 20
-22.9921301722
 11
3.5915439415
 21
-22.9921301722
  0
LINE
  5
229
100
AcDbEntity
  8
RACCORDO
100
AcDbLine
 62
253
  6
CONTINUOUS
 10
10.1312557069
 20
-22.8665040271
 11
7.8414369091
 21
-22.8665040271
  0
LINE
  5
22A
100
AcDbEntity
  8
RACCORDO
100
AcDbLine
 62
253
  6
CONTINUOUS
 10
-8.7687442931
 20
-22.8665040271
 11
-11.0585630909
 21
-22.8665040271
  0
LINE
  5
22B
100
AcDbEntity
  8
RACCORDO
100
AcDbLine
 62
253
  6
CONTINUOUS
 10
10.1356190793
 20
-22.4334913252
 11
7.8370735368
 21
-22.4334913252
  0
LINE
  5
22C
100
AcDbEntity
  8
RACCORDO
100
AcDbLine
 62
253
  6
CONTINUOUS
 10
-8.7643809207
 20
-22.4334913252
 11
-11.0629264632
 21
-22.4334913252
  0
LINE
  5
22D
100
AcDbEntity
  8
RACCORDO
100
AcDbLine
 62
7
  6
CONTINUOUS
 10
-8.763653692
 20
-23.6386728107
 11
-8.768025526
 21
-23.6343009767
  0
LINE
  5
22E
100
AcDbEntity
  8
RACCORDO
100
AcDbLine
 62
253
  6
CONTINUOUS
 10
10.136346308
 20
-22.2169849742
 11
7.836346308
 21
-22.2169849742
  0
LINE
  5
22F
100
AcDbEntity
  8
RACCORDO
100
AcDbLine
 62
253
  6
CONTINUOUS
 10
-8.763653692
 20
-22.2169849742
 11
-11.063653692
 21
-22.2169849742
  0
LINE
  5
230
100
AcDbEntity
  8
RACCORDO
100
AcDbLine
 62
7
  6
CONTINUOUS
 10
-11.263653692
 20
-21.6386728107
 11
-11.063653692
 21
-21.6386728107
  0
LINE
  5
231
100
AcDbEntity
  8
DRAFT
100
AcDbLine
 62
7
  6
CONTINUOUS
 10
-11.063653692
 20
-21.6386728107
 11
-4.863653692
 21
-21.6386728107
  0
LINE
  5
232
100
AcDbEntity
  8
DRAFT
100
AcDbLine
 62
7
  6
CONTINUOUS
 10
3.936346308
 20
-21.6386728107
 11
10.136346308
 21
-21.6386728107
  0
LINE
  5
233
100
AcDbEntity
  8
RACCORDO
100
AcDbLine
 62
7
  6
CONTINUOUS
 10
10.136346308
 20
-21.6386728107
 11
10.336346308
 21
-21.6386728107
  0
LINE
  5
234
100
AcDbEntity
  8
RACCORDO
100
AcDbLine
 62
7
  6
CONTINUOUS
 10
10.336346308
 20
-21.6299459429
 11
6.670797684
 21
-21.6299459429
  0
LINE
  5
235
100
AcDbEntity
  8
RACCORDO
100
AcDbLine
 62
7
  6
CONTINUOUS
 10
-7.598105068
 20
-21.6299459429
 11
-11.263653692
 21
-21.6299459429
  0
LINE
  5
236
100
AcDbEntity
  8
DRAFT
100
AcDbLine
 62
7
  6
CONTINUOUS
 10
-3.963653692
 20
-21.5767120494
 11
-3.463653692
 21
-21.5767120494
  0
LINE
  5
237
100
AcDbEntity
  8
DRAFT
100
AcDbLine
 62
7
  6
CONTINUOUS
 10
2.536346308
 20
-21.5767120494
 11
3.036346308
 21
-21.5767120494
  0
LINE
  5
238
100
AcDbEntity
  8
RACCORDO
100
AcDbLine
 62
7
  6
CONTINUOUS
 10
-4.5188513254
 20
-21.5688578684
 11
-4.263653692
 21
-21.5688578684
  0
LINE
  5
239
100
AcDbEntity
  8
RACCORDO
100
AcDbLine
 62
7
  6
CONTINUOUS
 10
3.336346308
 20
-21.5688578684
 11
3.5915439415
 21
-21.5688578684
  0
LINE
  5
23A
100
AcDbEntity
  8
RACCORDO
100
AcDbLine
 62
253
  6
CONTINUOUS
 10
-7.6767230334
 20
-21.5513279775
 11
-3.463653692
 21
-21.5513279775
  0
LINE
  5
23B
100
AcDbEntity
  8
RACCORDO
100
AcDbLine
 62
253
  6
CONTINUOUS
 10
2.536346308
 20
-21.5513279775
 11
6.7494156495
 21
-21.5513279775
  0
LINE
  5
23C
100
AcDbEntity
  8
0
100
AcDbLine
 62
7
  6
CONTINUOUS
 10
2.536346308
 20
-20.9386728107
 11
-3.463653692
 21
-20.9386728107
  0
LINE
  5
23D
100
AcDbEntity
  8
RACCORDO
100
AcDbLine
 62
253
  6
CONTINUOUS
 10
-8.2442938638
 20
-20.5513660544
 11
-3.463653692
 21
-20.5513660544
  0
LINE
  5
23E
100
AcDbEntity
  8
RACCORDO
100
AcDbLine
 62
253
  6
CONTINUOUS
 10
2.536346308
 20
-20.5513660544
 11
7.3169864798
 21
-20.5513660544
  0
LINE
  5
23F
100
AcDbEntity
  8
RACCORDO
100
AcDbLine
 62
7
  6
CONTINUOUS
 10
-9.263653692
 20
21.6113271893
 11
-11.0279564725
 21
19.8470244088
  0
LINE
  5
240
100
AcDbEntity
  8
RACCORDO
100
AcDbLine
 62
7
  6
CONTINUOUS
 10
-8.6257400279
 20
22.2492408533
 11
-7.8102599489
 21
23.0647209323
  0
LINE
  5
241
100
AcDbEntity
  8
RACCORDO
100
AcDbLine
 62
253
  6
CONTINUOUS
 10
-7.598105068
 20
23.1526003215
 11
-7.6767230334
 21
23.073982356
  0
LINE
  5
242
100
AcDbEntity
  8
RACCORDO
100
AcDbLine
 62
253
  6
CONTINUOUS
 10
-8.713653692
 20
22.0370174291
 11
-8.5442481723
 21
22.2064229488
  0
LINE
  5
243
100
AcDbEntity
  8
DRAFT
100
AcDbLine
 62
7
  6
CONTINUOUS
 10
-10.2558226276
 20
20.3723063581
 11
-9.1913524457
 21
21.43677654
  0
LINE
  5
244
100
AcDbEntity
  8
RACCORDO
100
AcDbLine
 62
253
  6
CONTINUOUS
 10
-10.1761650736
 20
20.179996011
 11
-10.6610954761
 21
19.6950656086
  0
LINE
  5
245
100
AcDbEntity
  8
DRAFT
100
AcDbLine
 62
7
  6
CONTINUOUS
 10
-7.863653692
 20
21.5257973711
 11
-7.9526745231
 21
21.43677654
  0
LINE
  5
246
100
AcDbEntity
  8
RACCORDO
100
AcDbLine
 62
253
  6
CONTINUOUS
 10
-9.762014598
 20
19.1801483159
 11
-9.9540963907
 21
18.9880665232
  0
LINE
  5
247
100
AcDbEntity
  8
DRAFT
100
AcDbLine
 62
7
  6
CONTINUOUS
 10
-8.5161196143
 20
18.8031822275
 11
-8.4720489319
 21
18.8325622681
  0
LINE
  5
248
100
AcDbEntity
  8
RACCORDO
100
AcDbLine
 62
253
  6
CONTINUOUS
 10
-8.713653692
 20
-20.4386728107
 11
-8.5442481723
 21
-20.4386728107
  0
LINE
  5
249
100
AcDbEntity
  8
RACCORDO
100
AcDbLine
 62
253
  6
CONTINUOUS
 10
7.786346308
 20
-20.4386728107
 11
7.6169407884
 21
-20.4386728107
  0
LINE
  5
24A
100
AcDbEntity
  8
0
100
AcDbLine
 62
7
  6
CONTINUOUS
 10
-3.463653692
 20
-20.2386728107
 11
2.536346308
 21
-20.2386728107
  0
LINE
  5
24B
100
AcDbEntity
  8
RACCORDO
100
AcDbLine
 62
7
  6
CONTINUOUS
 10
-8.4136079936
 20
-20.1386728107
 11
-8.2442938638
 21
-20.1386728107
  0
LINE
  5
24C
100
AcDbEntity
  8
RACCORDO
100
AcDbLine
 62
7
  6
CONTINUOUS
 10
7.4863006096
 20
-20.1386728107
 11
7.3169864798
 21
-20.1386728107
  0
LINE
  5
24D
100
AcDbEntity
  8
RACCORDO
100
AcDbLine
 62
7
  6
CONTINUOUS
 10
7.3117499603
 20
-20.1386728107
 11
6.4516842669
 21
-20.1386728107
  0
LINE
  5
24E
100
AcDbEntity
  8
RACCORDO
100
AcDbLine
 62
7
  6
CONTINUOUS
 10
-7.3789916509
 20
-20.1386728107
 11
-8.2390573443
 21
-20.1386728107
  0
LINE
  5
24F
100
AcDbEntity
  8
DRAFT
100
AcDbLine
 62
7
  6
CONTINUOUS
 10
-9.263653692
 20
-20.0886728107
 11
-7.9491835101
 21
-20.0886728107
  0
LINE
  5
250
100
AcDbEntity
  8
DRAFT
100
AcDbLine
 62
7
  6
CONTINUOUS
 10
7.0218761262
 20
-20.0886728107
 11
8.336346308
 21
-20.0886728107
  0
LINE
  5
251
100
AcDbEntity
  8
0
100
AcDbLine
 62
7
  6
CONTINUOUS
 10
8.436346308
 20
-19.9886728107
 11
9.286346308
 21
-19.9886728107
  0
LINE
  5
252
100
AcDbEntity
  8
0
100
AcDbLine
 62
7
  6
CONTINUOUS
 10
-9.363653692
 20
-19.9886728107
 11
-10.213653692
 21
-19.9886728107
  0
LINE
  5
253
100
AcDbEntity
  8
DRAFT
100
AcDbLine
 62
7
  6
CONTINUOUS
 10
-9.1913524457
 20
-19.9141221614
 11
-7.9526745231
 21
-19.9141221614
  0
LINE
  5
254
100
AcDbEntity
  8
DRAFT
100
AcDbLine
 62
7
  6
CONTINUOUS
 10
7.0253671392
 20
-19.9141221614
 11
8.2640450618
 21
-19.9141221614
  0
LINE
  5
255
100
AcDbEntity
  8
RACCORDO
100
AcDbLine
 62
7
  6
CONTINUOUS
 10
5.886346308
 20
-19.3259414886
 11
-6.813653692
 21
-19.3259414886
  0
LINE
  5
256
100
AcDbEntity
  8
DRAFT
100
AcDbLine
 62
7
  6
CONTINUOUS
 10
-3.963653692
 20
-19.2919067043
 11
-2.9049648151
 21
-19.2919067043
  0
LINE
  5
257
100
AcDbEntity
  8
DRAFT
100
AcDbLine
 62
7
  6
CONTINUOUS
 10
1.9776574312
 20
-19.2919067043
 11
3.036346308
 21
-19.2919067043
  0
LINE
  5
258
100
AcDbEntity
  8
RACCORDO
100
AcDbLine
 62
7
  6
CONTINUOUS
 10
-6.513653692
 20
-19.2386728107
 11
-3.963653692
 21
-19.2386728107
  0
LINE
  5
259
100
AcDbEntity
  8
RACCORDO
100
AcDbLine
 62
7
  6
CONTINUOUS
 10
3.036346308
 20
-19.2386728107
 11
5.586346308
 21
-19.2386728107
  0
LINE
  5
25A
100
AcDbEntity
  8
RACCORDO
100
AcDbLine
 62
253
  6
CONTINUOUS
 10
5.586346308
 20
-19.2386728107
 11
6.836346308
 21
-19.2386728107
  0
LINE
  5
25B
100
AcDbEntity
  8
RACCORDO
100
AcDbLine
 62
253
  6
CONTINUOUS
 10
-6.513653692
 20
-19.2386728107
 11
-7.763653692
 21
-19.2386728107
  0
LINE
  5
25C
100
AcDbEntity
  8
RACCORDO
100
AcDbLine
 62
7
  6
CONTINUOUS
 10
-6.213653692
 20
-19.1386728107
 11
-3.8568553025
 21
-19.1386728107
  0
LINE
  5
25D
100
AcDbEntity
  8
RACCORDO
100
AcDbLine
 62
7
  6
CONTINUOUS
 10
2.9295479186
 20
-19.1386728107
 11
5.286346308
 21
-19.1386728107
  0
LINE
  5
25E
100
AcDbEntity
  8
RACCORDO
100
AcDbLine
 62
7
  6
CONTINUOUS
 10
-2.863653692
 20
-19.1230597619
 11
1.936346308
 21
-19.1230597619
  0
LINE
  5
25F
100
AcDbEntity
  8
DRAFT
100
AcDbLine
 62
7
  6
CONTINUOUS
 10
-6.1246328608
 20
-19.0496519796
 11
5.1973254769
 21
-19.0496519796
  0
LINE
  5
260
100
AcDbEntity
  8
DRAFT
100
AcDbLine
 62
7
  6
CONTINUOUS
 10
6.936346308
 20
-18.9386728107
 11
6.4935732323
 21
-18.9386728107
  0
LINE
  5
261
100
AcDbEntity
  8
DRAFT
100
AcDbLine
 62
7
  6
CONTINUOUS
 10
5.886346308
 20
-18.9386728107
 11
5.286346308
 21
-18.9386728107
  0
LINE
  5
262
100
AcDbEntity
  8
RACCORDO
100
AcDbLine
 62
7
  6
CONTINUOUS
 10
5.886346308
 20
-18.9386728107
 11
6.4935732323
 21
-18.9386728107
  0
LINE
  5
263
100
AcDbEntity
  8
DRAFT
100
AcDbLine
 62
7
  6
CONTINUOUS
 10
-6.213653692
 20
-18.9386728107
 11
-6.813653692
 21
-18.9386728107
  0
LINE
  5
264
100
AcDbEntity
  8
RACCORDO
100
AcDbLine
 62
7
  6
CONTINUOUS
 10
-6.813653692
 20
-18.9386728107
 11
-7.4208806163
 21
-18.9386728107
  0
LINE
  5
265
100
AcDbEntity
  8
DRAFT
100
AcDbLine
 62
7
  6
CONTINUOUS
 10
-7.4208806163
 20
-18.9386728107
 11
-7.863653692
 21
-18.9386728107
  0
LINE
  5
266
100
AcDbEntity
  8
DRAFT
100
AcDbLine
 62
7
  6
CONTINUOUS
 10
9.3285152436
 20
-18.8496519796
 11
7.0253671392
 21
-18.8496519796
  0
LINE
  5
267
100
AcDbEntity
  8
DRAFT
100
AcDbLine
 62
7
  6
CONTINUOUS
 10
5.1973254769
 20
-18.8496519796
 11
-6.1246328608
 21
-18.8496519796
  0
LINE
  5
268
100
AcDbEntity
  8
DRAFT
100
AcDbLine
 62
7
  6
CONTINUOUS
 10
-7.9526745231
 20
-18.8496519796
 11
-10.2558226276
 21
-18.8496519796
  0
LINE
  5
269
100
AcDbEntity
  8
RACCORDO
100
AcDbLine
 62
253
  6
CONTINUOUS
 10
-1.6243164533
 20
-18.8266557623
 11
-10.2462972825
 21
-18.8266557623
  0
LINE
  5
26A
100
AcDbEntity
  8
RACCORDO
100
AcDbLine
 62
7
  6
CONTINUOUS
 10
-11.0279564725
 20
-18.3243700302
 11
-9.263653692
 21
-20.0886728107
  0
LINE
  5
26B
100
AcDbEntity
  8
RACCORDO
100
AcDbLine
 62
7
  6
CONTINUOUS
 10
-7.8102599489
 20
-21.5420665538
 11
-8.6257400279
 21
-20.7265864748
  0
LINE
  5
26C
100
AcDbEntity
  8
RACCORDO
100
AcDbLine
 62
253
  6
CONTINUOUS
 10
-7.598105068
 20
-21.6299459429
 11
-7.6767230334
 21
-21.5513279775
  0
LINE
  5
26D
100
AcDbEntity
  8
RACCORDO
100
AcDbLine
 62
253
  6
CONTINUOUS
 10
-8.713653692
 20
-20.5143630506
 11
-8.5442481723
 21
-20.6837685702
  0
LINE
  5
26E
100
AcDbEntity
  8
DRAFT
100
AcDbLine
 62
7
  6
CONTINUOUS
 10
-10.2558226276
 20
-18.8496519796
 11
-9.1913524457
 21
-19.9141221614
  0
LINE
  5
26F
100
AcDbEntity
  8
RACCORDO
100
AcDbLine
 62
253
  6
CONTINUOUS
 10
-10.2462972825
 20
-18.8266557623
 11
-10.8304096059
 21
-18.2425434389
  0
LINE
  5
270
100
AcDbEntity
  8
DRAFT
100
AcDbLine
 62
7
  6
CONTINUOUS
 10
-7.863653692
 20
-20.0031429926
 11
-7.9526745231
 21
-19.9141221614
  0
LINE
  5
271
100
AcDbEntity
  8
RACCORDO
100
AcDbLine
 62
253
  6
CONTINUOUS
 10
-9.8321468068
 20
-17.8268080671
 11
-10.1234105205
 21
-17.5355443535
  0
LINE
  5
272
100
AcDbEntity
  8
DRAFT
100
AcDbLine
 62
7
  6
CONTINUOUS
 10
-7.863653692
 20
20.4613271893
 11
-7.9526745231
 21
20.3723063581
  0
LINE
  5
273
100
AcDbEntity
  8
DRAFT
100
AcDbLine
 62
7
  6
CONTINUOUS
 10
-8.4720489319
 20
18.8431802567
 11
-8.4635489804
 21
18.8516802082
  0
LINE
  5
274
100
AcDbEntity
  8
0
100
AcDbLine
 62
253
  6
CONTINUOUS
 10
9.2488576897
 20
-18.6573416325
 11
8.0817829428
 21
-18.6573416325
  0
LINE
  5
275
100
AcDbEntity
  8
RACCORDO
100
AcDbLine
 62
253
  6
CONTINUOUS
 10
1.4909096733
 20
-18.6573416325
 11
0.0190435711
 21
-18.6573416325
  0
LINE
  5
276
100
AcDbEntity
  8
RACCORDO
100
AcDbLine
 62
253
  6
CONTINUOUS
 10
-1.6243164533
 20
-17.8268080671
 11
-9.8321468068
 21
-17.8268080671
  0
LINE
  5
277
100
AcDbEntity
  8
0
100
AcDbLine
 62
7
  6
CONTINUOUS
 10
7.588736819
 20
-17.7886728107
 11
1.9839557971
 21
-17.7886728107
  0
LINE
  5
278
100
AcDbEntity
  8
ASSI
100
AcDbLine
 62
253
  6
CONTINUOUS
 10
8.834707214
 20
-17.6574939373
 11
7.5888122303
 21
-17.6574939373
  0
LINE
  5
279
100
AcDbEntity
  8
RACCORDO
100
AcDbLine
 62
253
  6
CONTINUOUS
 10
1.9838803857
 20
-17.6574939373
 11
-0.980804124
 21
-17.6574939373
  0
LINE
  5
27A
100
AcDbEntity
  8
DRAFT
100
AcDbLine
 62
7
  6
CONTINUOUS
 10
1.9838803857
 20
-17.280527849
 11
7.5888122303
 21
-17.280527849
  0
LINE
  5
27B
100
AcDbEntity
  8
DRAFT
100
AcDbLine
 62
7
  6
CONTINUOUS
 10
-7.863653692
 20
-18.9386728107
 11
-7.9526745231
 21
-18.8496519796
  0
LINE
  5
27C
100
AcDbEntity
  8
RACCORDO
100
AcDbLine
 62
253
  6
CONTINUOUS
 10
-11.4161068254
 20
-16.8285452681
 11
-10.4162591302
 21
-16.8285452681
  0
LINE
  5
27D
100
AcDbEntity
  8
RACCORDO
100
AcDbLine
 62
253
  6
CONTINUOUS
 10
10.3194853116
 20
-16.7584130592
 11
9.3196376165
 21
-16.7584130592
  0
LINE
  5
27E
100
AcDbEntity
  8
RACCORDO
100
AcDbLine
 62
253
  6
CONTINUOUS
 10
-10.8598893285
 20
11.2556581411
 11
-11.0995193069
 21
11.0763831235
  0
LINE
  5
27F
100
AcDbEntity
  8
RACCORDO
100
AcDbLine
 62
253
  6
CONTINUOUS
 10
-5.963653731
 20
14.826076823
 11
-6.2071597068
 21
14.6521029001
  0
LINE
  5
280
100
AcDbEntity
  8
RACCORDO
100
AcDbLine
 62
253
  6
CONTINUOUS
 10
-6.4656408208
 20
14.3211007552
 11
-6.214647323
 21
14.4840863296
  0
LINE
  5
281
100
AcDbEntity
  8
RACCORDO
100
AcDbLine
 62
253
  6
CONTINUOUS
 10
8.5484915797
 20
19.0613271893
 11
8.9062985009
 21
19.1793927892
  0
LINE
  5
282
100
AcDbEntity
  8
0
100
AcDbLine
 62
7
  6
CONTINUOUS
 10
7.8411426952
 20
-12.9314493209
 11
7.7579234295
 21
-12.9525070324
  0
LINE
  5
283
100
AcDbEntity
  8
0
100
AcDbLine
 62
7
  6
CONTINUOUS
 10
7.2007840191
 20
-13.0934849765
 11
7.7268276022
 21
-12.9603754864
  0
LINE
  5
284
100
AcDbEntity
  8
RACCORDO
100
AcDbLine
 62
253
  6
CONTINUOUS
 10
-10.1111757063
 20
10.1160909573
 11
-10.2469450004
 21
9.8493911975
  0
LINE
  5
285
100
AcDbEntity
  8
RACCORDO
100
AcDbLine
 62
7
  6
CONTINUOUS
 10
3.936346308
 20
24.5613271893
 11
3.8915388645
 21
24.5165197458
  0
LINE
  5
286
100
AcDbEntity
  8
DRAFT
100
AcDbLine
 62
7
  6
CONTINUOUS
 10
3.636346308
 20
19.0613271893
 11
3.7253603595
 21
19.1200756215
  0
LINE
  5
287
100
AcDbEntity
  8
RACCORDO
100
AcDbLine
 62
253
  6
CONTINUOUS
 10
10.1006490885
 20
19.8470244088
 11
9.7337880921
 21
19.6950656086
  0
LINE
  5
288
100
AcDbEntity
  8
RACCORDO
100
AcDbLine
 62
253
  6
CONTINUOUS
 10
-0.312794084
 20
13.9616358666
 11
-0.333401818
 21
13.9538192648
  0
LINE
  5
289
100
AcDbEntity
  8
RACCORDO
100
AcDbLine
 62
253
  6
CONTINUOUS
 10
9.048517477
 20
18.5613691558
 11
9.4061292653
 21
18.6793703677
  0
LINE
  5
28A
100
AcDbEntity
  8
0
100
AcDbLine
 62
7
  6
CONTINUOUS
 10
8.7961569306
 20
-12.8886728107
 11
8.1845730354
 21
-12.8886728107
  0
LINE
  5
28B
100
AcDbEntity
  8
0
100
AcDbLine
 62
7
  6
CONTINUOUS
 10
1.7277697862
 20
-12.8886728107
 11
3.036346308
 21
-12.8886728107
  0
LINE
  5
28C
100
AcDbEntity
  8
0
100
AcDbLine
 62
7
  6
CONTINUOUS
 10
6.7765356853
 20
-12.8886728107
 11
7.8449175554
 21
-12.8886728107
  0
LINE
  5
28D
100
AcDbEntity
  8
RACCORDO
100
AcDbLine
 62
253
  6
CONTINUOUS
 10
9.9726155708
 20
-12.8070878468
 11
10.2725698794
 21
-12.8070878468
  0
LINE
  5
28E
100
AcDbEntity
  8
0
100
AcDbLine
 62
253
  6
CONTINUOUS
 10
1.3065778178
 20
-12.7886728107
 11
3.036346308
 21
-12.7886728107
  0
LINE
  5
28F
100
AcDbEntity
  8
0
100
AcDbLine
 62
253
  6
CONTINUOUS
 10
6.637569636
 20
-12.7886728107
 11
8.786346308
 21
-12.7886728107
  0
LINE
  5
290
100
AcDbEntity
  8
0
100
AcDbLine
 62
253
  6
CONTINUOUS
 10
0.9673297989
 20
-12.4886728107
 11
3.036346308
 21
-12.4886728107
  0
LINE
  5
291
100
AcDbEntity
  8
0
100
AcDbLine
 62
253
  6
CONTINUOUS
 10
6.536346308
 20
-12.4886728107
 11
8.786346308
 21
-12.4886728107
  0
LINE
  5
292
100
AcDbEntity
  8
0
100
AcDbLine
 62
7
  6
CONTINUOUS
 10
1.8147628141
 20
-12.9525054199
 11
1.7315499209
 21
-12.9314493209
  0
LINE
  5
293
100
AcDbEntity
  8
0
100
AcDbLine
 62
7
  6
CONTINUOUS
 10
1.8458674849
 20
-12.9603761116
 11
2.3480924727
 21
-13.0874585706
  0
LINE
  5
294
100
AcDbEntity
  8
RACCORDO
100
AcDbLine
 62
253
  6
CONTINUOUS
 10
9.7337880921
 20
-18.17241123
 11
10.1006490885
 21
-18.3243700302
  0
LINE
  5
295
100
AcDbEntity
  8
DRAFT
100
AcDbLine
 62
7
  6
CONTINUOUS
 10
2.0279510681
 20
-17.3099078895
 11
1.9838803857
 21
-17.280527849
  0
LINE
  5
296
100
AcDbEntity
  8
RACCORDO
100
AcDbLine
 62
7
  6
CONTINUOUS
 10
3.936346308
 20
-23.0386728107
 11
3.8915388645
 21
-22.9938653672
  0
LINE
  5
297
100
AcDbEntity
  8
RACCORDO
100
AcDbLine
 62
7
  6
CONTINUOUS
 10
-11.0585630909
 20
-22.8665040271
 11
-11.0629264632
 21
-22.4334913252
  0
LINE
  5
298
100
AcDbEntity
  8
RACCORDO
100
AcDbLine
 62
7
  6
CONTINUOUS
 10
-11.613653692
 20
22.802586994
 11
-11.613653692
 21
-21.2799326155
  0
LINE
  5
299
100
AcDbEntity
  8
RACCORDO
100
AcDbLine
 62
253
  6
CONTINUOUS
 10
-11.4161068254
 20
-16.8285452681
 11
-11.4161068254
 21
-9.2493355721
  0
LINE
  5
29A
100
AcDbEntity
  8
RACCORDO
100
AcDbLine
 62
253
  6
CONTINUOUS
 10
-11.263653692
 20
-21.6386728107
 11
-11.263653692
 21
-21.6299459429
  0
LINE
  5
29B
100
AcDbEntity
  8
RACCORDO
100
AcDbLine
 62
253
  6
CONTINUOUS
 10
-11.263653692
 20
23.1526003215
 11
-11.263653692
 21
23.1613271893
  0
LINE
  5
29C
100
AcDbEntity
  8
RACCORDO
100
AcDbLine
 62
253
  6
CONTINUOUS
 10
-11.2467926956
 20
-7.6059755476
 11
-11.2467926956
 21
-2.3663220238
  0
LINE
  5
29D
100
AcDbEntity
  8
RACCORDO
100
AcDbLine
 62
253
  6
CONTINUOUS
 10
-11.2467926956
 20
1.0889760666
 11
-11.2467926956
 21
11.1336780193
  0
LINE
  5
29E
100
AcDbEntity
  8
RACCORDO
100
AcDbLine
 62
253
  6
CONTINUOUS
 10
-11.2467926956
 20
14.5889760794
 11
-11.2467926956
 21
18.2810674378
  0
LINE
  5
29F
100
AcDbEntity
  8
RACCORDO
100
AcDbLine
 62
253
  6
CONTINUOUS
 10
-11.1998772633
 20
14.3465024603
 11
-11.1998772633
 21
14.1491301568
  0
LINE
  5
2A0
100
AcDbEntity
  8
RACCORDO
100
AcDbLine
 62
253
  6
CONTINUOUS
 10
-11.1998772633
 20
11.5735242217
 11
-11.1998772633
 21
11.3761520116
  0
LINE
  5
2A1
100
AcDbEntity
  8
RACCORDO
100
AcDbLine
 62
253
  6
CONTINUOUS
 10
-11.1998772633
 20
0.8465024616
 11
-11.1998772633
 21
0.6491301568
  0
LINE
  5
2A2
100
AcDbEntity
  8
RACCORDO
100
AcDbLine
 62
253
  6
CONTINUOUS
 10
-11.1998772633
 20
-1.9264757783
 11
-11.1998772633
 21
-2.1238480085
  0
LINE
  5
2A3
100
AcDbEntity
  8
RACCORDO
100
AcDbLine
 62
7
  6
CONTINUOUS
 10
-11.063653692
 20
-21.6386728107
 11
-11.063653692
 21
-23.6386728107
  0
LINE
  5
2A4
100
AcDbEntity
  8
RACCORDO
100
AcDbLine
 62
7
  6
CONTINUOUS
 10
-11.063653692
 20
23.1613271893
 11
-11.063653692
 21
25.1613271893
  0
LINE
  5
2A5
100
AcDbEntity
  8
RACCORDO
100
AcDbLine
 62
7
  6
CONTINUOUS
 10
-11.0578358622
 20
24.9069595861
 11
-11.0578358622
 21
24.6056647566
  0
LINE
  5
2A6
100
AcDbEntity
  8
RACCORDO
100
AcDbLine
 62
7
  6
CONTINUOUS
 10
-11.0578358622
 20
-23.083010378
 11
-11.0578358622
 21
-23.3843052075
  0
LINE
  5
2A7
100
AcDbEntity
  8
RACCORDO
100
AcDbLine
 62
7
  6
CONTINUOUS
 10
-11.0629264632
 20
23.9561457037
 11
-11.0585630909
 21
24.3891584056
  0
LINE
  5
2A8
100
AcDbEntity
  8
0
100
AcDbLine
 62
253
  6
CONTINUOUS
 10
-2.9637584035
 20
19.3113271893
 11
-2.4113985241
 21
20.2680789946
  0
LINE
  5
2A9
100
AcDbEntity
  8
RACCORDO
100
AcDbLine
 62
253
  6
CONTINUOUS
 10
-5.7201477378
 20
11.0705514364
 11
-5.9636536829
 21
10.8965775556
  0
LINE
  5
2AA
100
AcDbEntity
  8
RACCORDO
100
AcDbLine
 62
253
  6
CONTINUOUS
 10
-5.4616665631
 20
11.4015536231
 11
-5.7126600609
 21
11.2385680487
  0
LINE
  5
2AB
100
AcDbEntity
  8
RACCORDO
100
AcDbLine
 62
253
  6
CONTINUOUS
 10
10.686346308
 20
18.433026238
 11
10.3194853116
 21
18.2810674378
  0
LINE
  5
2AC
100
AcDbEntity
  8
RACCORDO
100
AcDbLine
 62
253
  6
CONTINUOUS
 10
8.786346308
 20
-10.0610798777
 11
9.0705566776
 21
-10.061079879
  0
LINE
  5
2AD
100
AcDbEntity
  8
RACCORDO
100
AcDbLine
 62
253
  6
CONTINUOUS
 10
9.9726155708
 20
-9.8702575797
 11
10.2725698794
 21
-9.8702575798
  0
LINE
  5
2AE
100
AcDbEntity
  8
RACCORDO
100
AcDbLine
 62
253
  6
CONTINUOUS
 10
10.3194853116
 20
-16.7584130592
 11
10.686346308
 21
-16.9103718594
  0
LINE
  5
2AF
100
AcDbEntity
  8
DRAFT
100
AcDbLine
 62
7
  6
CONTINUOUS
 10
-8.5161196143
 20
-7.180527849
 11
-8.4720489319
 21
-7.2099078895
  0
LINE
  5
2B0
100
AcDbEntity
  8
DRAFT
100
AcDbLine
 62
7
  6
CONTINUOUS
 10
-8.4720489319
 20
-7.2205258782
 11
-8.4635489804
 21
-7.2290258297
  0
LINE
  5
2B1
100
AcDbEntity
  8
DRAFT
100
AcDbLine
 62
7
  6
CONTINUOUS
 10
2.0279510681
 20
-17.3205258782
 11
2.0364510196
 21
-17.3290258297
  0
LINE
  5
2B2
100
AcDbEntity
  8
RACCORDO
100
AcDbLine
 62
253
  6
CONTINUOUS
 10
-10.8999229548
 20
14.3465024603
 11
-10.8999229548
 21
14.0738562448
  0
LINE
  5
2B3
100
AcDbEntity
  8
RACCORDO
100
AcDbLine
 62
253
  6
CONTINUOUS
 10
-10.8999229548
 20
11.6487981337
 11
-10.8999229548
 21
11.3761520116
  0
LINE
  5
2B4
100
AcDbEntity
  8
RACCORDO
100
AcDbLine
 62
253
  6
CONTINUOUS
 10
-10.8999229548
 20
0.8465024616
 11
-10.8999229548
 21
0.5738562448
  0
LINE
  5
2B5
100
AcDbEntity
  8
RACCORDO
100
AcDbLine
 62
253
  6
CONTINUOUS
 10
-10.8999229548
 20
-1.8512018663
 11
-10.8999229548
 21
-2.1238480085
  0
LINE
  5
2B6
100
AcDbEntity
  8
RACCORDO
100
AcDbLine
 62
253
  6
CONTINUOUS
 10
-10.4162591302
 20
-16.8285452681
 11
-10.4162591302
 21
-9.2493355721
  0
LINE
  5
2B7
100
AcDbEntity
  8
RACCORDO
100
AcDbLine
 62
253
  6
CONTINUOUS
 10
-10.2469427211
 20
2.3732642577
 11
-10.2469424073
 21
9.8493899727
  0
LINE
  5
2B8
100
AcDbEntity
  8
RACCORDO
100
AcDbLine
 62
253
  6
CONTINUOUS
 10
-10.2469450004
 20
-8.6058232428
 11
-10.2469424073
 21
-3.6506100273
  0
LINE
  5
2B9
100
AcDbEntity
  8
RACCORDO
100
AcDbLine
 62
253
  6
CONTINUOUS
 10
-10.2469427211
 20
15.8732642577
 11
-10.2469450004
 21
18.2811895177
  0
LINE
  5
2BA
100
AcDbEntity
  8
0
100
AcDbLine
 62
7
  6
CONTINUOUS
 10
-10.213653692
 20
0.4439461772
 11
-10.213653692
 21
-0.2278253968
  0
LINE
  5
2BB
100
AcDbEntity
  8
0
100
AcDbLine
 62
7
  6
CONTINUOUS
 10
-10.213653692
 20
-0.2278253968
 11
-10.213653692
 21
-0.2663549714
  0
LINE
  5
2BC
100
AcDbEntity
  8
ASSI
100
AcDbLine
 62
7
  6
CONTINUOUS
 10
-10.213653692
 20
-19.9886728107
 11
-10.213653692
 21
-19.1386728107
  0
LINE
  5
2BD
100
AcDbEntity
  8
DRAFT
100
AcDbLine
 62
7
  6
CONTINUOUS
 10
-10.213653692
 20
-0.6468950774
 11
-10.213653692
 21
-0.2663549714
  0
LINE
  5
2BE
100
AcDbEntity
  8
ASSI
100
AcDbLine
 62
7
  6
CONTINUOUS
 10
-10.213653692
 20
20.6613271893
 11
-10.213653692
 21
21.5113271893
  0
LINE
  5
2BF
100
AcDbEntity
  8
0
100
AcDbLine
 62
7
  6
CONTINUOUS
 10
-9.963653692
 20
0.6194498865
 11
-9.963653692
 21
0.7250739556
  0
LINE
  5
2C0
100
AcDbEntity
  8
0
100
AcDbLine
 62
7
  6
CONTINUOUS
 10
-9.863653692
 20
-0.2663549714
 11
-9.863653692
 21
-0.5386728107
  0
LINE
  5
2C1
100
AcDbEntity
  8
RACCORDO
100
AcDbLine
 62
7
  6
CONTINUOUS
 10
-9.7786300037
 20
14.3739069097
 11
-9.7786300037
 21
11.6113271893
  0
LINE
  5
2C2
100
AcDbEntity
  8
0
100
AcDbLine
 62
7
  6
CONTINUOUS
 10
-9.713653692
 20
11.3050368033
 11
-9.713653692
 21
13.4159610329
  0
LINE
  5
2C3
100
AcDbEntity
  8
0
100
AcDbLine
 62
253
  6
CONTINUOUS
 10
-9.511516427
 20
-0.2663549714
 11
-9.511516427
 21
-0.2278253968
  0
LINE
  5
2C4
100
AcDbEntity
  8
0
100
AcDbLine
 62
253
  6
CONTINUOUS
 10
-9.4804850646
 20
-0.5386728107
 11
-9.4804850646
 21
-2.3221331834
  0
LINE
  5
2C5
100
AcDbEntity
  8
0
100
AcDbLine
 62
253
  6
CONTINUOUS
 10
-9.4288955153
 20
-0.2498110351
 11
-9.4288955153
 21
-0.20859866
  0
LINE
  5
2C6
100
AcDbEntity
  8
0
100
AcDbLine
 62
253
  6
CONTINUOUS
 10
-9.263653692
 20
-0.170163366
 11
-9.263653692
 21
-0.2167388054
  0
LINE
  5
2C7
100
AcDbEntity
  8
RACCORDO
100
AcDbLine
 62
7
  6
CONTINUOUS
 10
-9.9922606013
 20
14.1982488372
 11
-9.9978049241
 21
11.6113271893
  0
LINE
  5
2C8
100
AcDbEntity
  8
DRAFT
100
AcDbLine
 62
7
  6
CONTINUOUS
 10
-10.187771618
 20
-0.2663549714
 11
-10.1906034003
 21
-0.6143280188
  0
LINE
  5
2C9
100
AcDbEntity
  8
DRAFT
100
AcDbLine
 62
7
  6
CONTINUOUS
 10
-8.721349664
 20
13.4159610329
 11
-8.6514228521
 21
14.4159610329
  0
LINE
  5
2CA
100
AcDbEntity
  8
DRAFT
100
AcDbLine
 62
7
  6
CONTINUOUS
 10
-8.5358741668
 20
13.4159610329
 11
-8.4659473549
 21
14.4159610329
  0
LINE
  5
2CB
100
AcDbEntity
  8
RACCORDO
100
AcDbLine
 62
7
  6
CONTINUOUS
 10
-10.4465046809
 20
-1.2863703005
 11
-10.2973828997
 21
-0.8315660295
  0
LINE
  5
2CC
100
AcDbEntity
  8
RACCORDO
100
AcDbLine
 62
7
  6
CONTINUOUS
 10
3.936346308
 20
23.1613271893
 11
3.8915388645
 21
23.0941150761
  0
LINE
  5
2CD
100
AcDbEntity
  8
DRAFT
100
AcDbLine
 62
7
  6
CONTINUOUS
 10
5.286346308
 20
20.6613271893
 11
5.1973254769
 21
20.5723063581
  0
LINE
  5
2CE
100
AcDbEntity
  8
DRAFT
100
AcDbLine
 62
7
  6
CONTINUOUS
 10
5.286346308
 20
20.4613271893
 11
5.1973254769
 21
20.3723063581
  0
LINE
  5
2CF
100
AcDbEntity
  8
RACCORDO
100
AcDbLine
 62
253
  6
CONTINUOUS
 10
3.7244222706
 20
18.8993936326
 11
3.636346308
 21
18.81131767
  0
LINE
  5
2D0
100
AcDbEntity
  8
RACCORDO
100
AcDbLine
 62
253
  6
CONTINUOUS
 10
-0.0017201353
 20
15.1732512267
 11
0.0863558273
 21
15.2613271893
  0
LINE
  5
2D1
100
AcDbEntity
  8
RACCORDO
100
AcDbLine
 62
7
  6
CONTINUOUS
 10
3.7252600225
 20
18.8684588169
 11
3.6931283948
 21
18.8363271893
  0
LINE
  5
2D2
100
AcDbEntity
  8
RACCORDO
100
AcDbLine
 62
7
  6
CONTINUOUS
 10
0.061346308
 20
15.2045451025
 11
0.0292146804
 21
15.1724134748
  0
LINE
  5
2D3
100
AcDbEntity
  8
RACCORDO
100
AcDbLine
 62
7
  6
CONTINUOUS
 10
10.136346308
 20
25.1613271893
 11
10.131974474
 21
25.1569553553
  0
LINE
  5
2D4
100
AcDbEntity
  8
RACCORDO
100
AcDbLine
 62
253
  6
CONTINUOUS
 10
3.9394834834
 20
18.6144738839
 11
3.8863367888
 21
18.5613271893
  0
LINE
  5
2D5
100
AcDbEntity
  8
RACCORDO
100
AcDbLine
 62
253
  6
CONTINUOUS
 10
0.2831996134
 20
14.9581900139
 11
0.336346308
 21
15.0113367085
  0
LINE
  5
2D6
100
AcDbEntity
  8
DRAFT
100
AcDbLine
 62
7
  6
CONTINUOUS
 10
7.0218761262
 20
21.6113271893
 11
6.936346308
 21
21.5257973711
  0
LINE
  5
2D7
100
AcDbEntity
  8
RACCORDO
100
AcDbLine
 62
253
  6
CONTINUOUS
 10
-1.1243926058
 20
-9.2493355721
 11
-11.4161068254
 21
-9.2493355721
  0
LINE
  5
2D8
100
AcDbEntity
  8
RACCORDO
100
AcDbLine
 62
253
  6
CONTINUOUS
 10
-0.1800888349
 20
-9.1057470904
 11
-0.980804124
 21
-9.1057470904
  0
LINE
  5
2D9
100
AcDbEntity
  8
RACCORDO
100
AcDbLine
 62
253
  6
CONTINUOUS
 10
-10.3905334822
 20
-8.7494117245
 11
-6.4425513677
 21
-8.7494117245
  0
LINE
  5
2DA
100
AcDbEntity
  8
RACCORDO
100
AcDbLine
 62
253
  6
CONTINUOUS
 10
-4.9847560163
 20
-8.7494117245
 11
-1.6243164533
 21
-8.7494117245
  0
LINE
  5
2DB
100
AcDbEntity
  8
RACCORDO
100
AcDbLine
 62
253
  6
CONTINUOUS
 10
-10.2469450004
 20
-8.6058232428
 11
-8.9748743319
 21
-8.6058232428
  0
LINE
  5
2DC
100
AcDbEntity
  8
RACCORDO
100
AcDbLine
 62
253
  6
CONTINUOUS
 10
-2.452433052
 20
-8.6058232428
 11
-1.4807279716
 21
-8.6058232428
  0
LINE
  5
2DD
100
AcDbEntity
  8
DRAFT
100
AcDbLine
 62
7
  6
CONTINUOUS
 10
5.1973254769
 20
-19.0496519796
 11
5.286346308
 21
-19.1386728107
  0
LINE
  5
2DE
100
AcDbEntity
  8
DRAFT
100
AcDbLine
 62
7
  6
CONTINUOUS
 10
5.286346308
 20
-18.9386728107
 11
5.1973254769
 21
-18.8496519796
  0
LINE
  5
2DF
100
AcDbEntity
  8
RACCORDO
100
AcDbLine
 62
7
  6
CONTINUOUS
 10
10.136346308
 20
-23.6386728107
 11
10.131974474
 21
-23.6343009767
  0
LINE
  5
2E0
100
AcDbEntity
  8
DRAFT
100
AcDbLine
 62
7
  6
CONTINUOUS
 10
7.0218761262
 20
-20.0886728107
 11
6.936346308
 21
-20.0031429926
  0
LINE
  5
2E1
100
AcDbEntity
  8
RACCORDO
100
AcDbLine
 62
7
  6
CONTINUOUS
 10
3.936346308
 20
-21.6386728107
 11
3.8915388645
 21
-21.5714606976
  0
LINE
  5
2E2
100
AcDbEntity
  8
0
100
AcDbLine
 62
7
  6
CONTINUOUS
 10
-9.0090903267
 20
20.179996011
 11
-9.0159088598
 21
20.2680789946
  0
LINE
  5
2E3
100
AcDbEntity
  8
RACCORDO
100
AcDbLine
 62
7
  6
CONTINUOUS
 10
-8.7643809207
 20
23.9561457037
 11
-8.7687442931
 21
24.3891584056
  0
LINE
  5
2E4
100
AcDbEntity
  8
0
100
AcDbLine
 62
7
  6
CONTINUOUS
 10
-9.1118804193
 20
14.4159610329
 11
-9.1118804193
 21
14.6678455404
  0
LINE
  5
2E5
100
AcDbEntity
  8
0
100
AcDbLine
 62
253
  6
CONTINUOUS
 10
-9.063653692
 20
-0.2278253968
 11
-9.063653692
 21
-0.2663549714
  0
LINE
  5
2E6
100
AcDbEntity
  8
RACCORDO
100
AcDbLine
 62
7
  6
CONTINUOUS
 10
-9.063653692
 20
-0.2663549714
 11
-9.063653692
 21
-0.5386728107
  0
LINE
  5
2E7
100
AcDbEntity
  8
0
100
AcDbLine
 62
7
  6
CONTINUOUS
 10
-9.063653692
 20
-2.4551874666
 11
-9.063653692
 21
-2.4186728107
  0
LINE
  5
2E8
100
AcDbEntity
  8
0
100
AcDbLine
 62
7
  6
CONTINUOUS
 10
-8.923653692
 20
-0.5386728107
 11
-8.923653692
 21
0.8876212949
  0
LINE
  5
2E9
100
AcDbEntity
  8
0
100
AcDbLine
 62
253
  6
CONTINUOUS
 10
-8.913653692
 20
-0.5386728107
 11
-8.913653692
 21
-2.4186728107
  0
LINE
  5
2EA
100
AcDbEntity
  8
0
100
AcDbLine
 62
7
  6
CONTINUOUS
 10
-8.913653692
 20
-2.4186728107
 11
-8.913653692
 21
-2.4777153045
  0
LINE
  5
2EB
100
AcDbEntity
  8
RACCORDO
100
AcDbLine
 62
7
  6
CONTINUOUS
 10
-8.7694715218
 20
-23.3843052075
 11
-8.7694715218
 21
-23.083010378
  0
LINE
  5
2EC
100
AcDbEntity
  8
RACCORDO
100
AcDbLine
 62
7
  6
CONTINUOUS
 10
-8.7694715218
 20
24.6056647566
 11
-8.7694715218
 21
24.9069595861
  0
LINE
  5
2ED
100
AcDbEntity
  8
RACCORDO
100
AcDbLine
 62
7
  6
CONTINUOUS
 10
-8.763653692
 20
-21.6386728107
 11
-8.763653692
 21
-23.6386728107
  0
LINE
  5
2EE
100
AcDbEntity
  8
RACCORDO
100
AcDbLine
 62
7
  6
CONTINUOUS
 10
-8.763653692
 20
23.1613271893
 11
-8.763653692
 21
25.1613271893
  0
LINE
  5
2EF
100
AcDbEntity
  8
RACCORDO
100
AcDbLine
 62
7
  6
CONTINUOUS
 10
-8.713653692
 20
-20.5143630506
 11
-8.713653692
 21
-20.4386728107
  0
LINE
  5
2F0
100
AcDbEntity
  8
RACCORDO
100
AcDbLine
 62
7
  6
CONTINUOUS
 10
-8.713653692
 20
21.9613271893
 11
-8.713653692
 21
22.0370174291
  0
LINE
  5
2F1
100
AcDbEntity
  8
RACCORDO
100
AcDbLine
 62
253
  6
CONTINUOUS
 10
-8.5442481723
 20
22.2064229488
 11
-8.5442481723
 21
21.9613271893
  0
LINE
  5
2F2
100
AcDbEntity
  8
RACCORDO
100
AcDbLine
 62
253
  6
CONTINUOUS
 10
-8.5442481723
 20
-20.4386728107
 11
-8.5442481723
 21
-20.6837685702
  0
LINE
  5
2F3
100
AcDbEntity
  8
DRAFT
100
AcDbLine
 62
7
  6
CONTINUOUS
 10
-8.5161196143
 20
19.1801483159
 11
-8.5161196143
 21
18.8031822275
  0
LINE
  5
2F4
100
AcDbEntity
  8
RACCORDO
100
AcDbLine
 62
7
  6
CONTINUOUS
 10
-8.5161196143
 20
-7.180527849
 11
-8.5161196143
 21
-7.6059755476
  0
LINE
  5
2F5
100
AcDbEntity
  8
DRAFT
100
AcDbLine
 62
7
  6
CONTINUOUS
 10
-8.4720489319
 20
-7.2205258782
 11
-8.4720489319
 21
-7.2099078895
  0
LINE
  5
2F6
100
AcDbEntity
  8
DRAFT
100
AcDbLine
 62
7
  6
CONTINUOUS
 10
-8.4720489319
 20
18.8325622681
 11
-8.4720489319
 21
18.8431802567
  0
LINE
  5
2F7
100
AcDbEntity
  8
0
100
AcDbLine
 62
253
  6
CONTINUOUS
 10
-8.4635489804
 20
19.3113271893
 11
-8.4635489804
 21
18.8516802082
  0
LINE
  5
2F8
100
AcDbEntity
  8
0
100
AcDbLine
 62
253
  6
CONTINUOUS
 10
-8.4635489804
 20
-7.6886728107
 11
-8.4635489804
 21
-7.2290258297
  0
LINE
  5
2F9
100
AcDbEntity
  8
ASSI
100
AcDbLine
 62
7
  6
CONTINUOUS
 10
-8.363653692
 20
13.8659610329
 11
-8.363653692
 21
13.4159610329
  0
LINE
  5
2FA
100
AcDbEntity
  8
0
100
AcDbLine
 62
7
  6
CONTINUOUS
 10
-8.363653692
 20
11.0448125335
 11
-8.363653692
 21
13.4159610329
  0
LINE
  5
2FB
100
AcDbEntity
  8
0
100
AcDbLine
 62
7
  6
CONTINUOUS
 10
-8.363653692
 20
13.8659610329
 11
-8.363653692
 21
14.4159610329
  0
LINE
  5
2FC
100
AcDbEntity
  8
RACCORDO
100
AcDbLine
 62
253
  6
CONTINUOUS
 10
-8.2442938638
 20
22.074020433
 11
-8.2442938638
 21
21.6613728807
  0
LINE
  5
2FD
100
AcDbEntity
  8
RACCORDO
100
AcDbLine
 62
253
  6
CONTINUOUS
 10
-8.2442938638
 20
-20.1387185022
 11
-8.2442938638
 21
-20.5513660544
  0
LINE
  5
2FE
100
AcDbEntity
  8
DRAFT
100
AcDbLine
 62
7
  6
CONTINUOUS
 10
-7.9526745231
 20
-19.9141221614
 11
-7.9526745231
 21
-18.8496519796
  0
LINE
  5
2FF
100
AcDbEntity
  8
DRAFT
100
AcDbLine
 62
7
  6
CONTINUOUS
 10
-7.9526745231
 20
20.3723063581
 11
-7.9526745231
 21
21.43677654
  0
LINE
  5
300
100
AcDbEntity
  8
0
100
AcDbLine
 62
7
  6
CONTINUOUS
 10
-7.913653692
 20
0.4726520547
 11
-7.913653692
 21
1.0293149596
  0
LINE
  5
301
100
AcDbEntity
  8
DRAFT
100
AcDbLine
 62
7
  6
CONTINUOUS
 10
-7.863653692
 20
21.5257973711
 11
-7.863653692
 21
20.4613271893
  0
LINE
  5
302
100
AcDbEntity
  8
DRAFT
100
AcDbLine
 62
7
  6
CONTINUOUS
 10
-7.863653692
 20
-18.9386728107
 11
-7.863653692
 21
-20.0031429926
  0
LINE
  5
303
100
AcDbEntity
  8
RACCORDO
100
AcDbLine
 62
7
  6
CONTINUOUS
 10
-7.763653692
 20
-20.1386728107
 11
-7.763653692
 21
-19.2386728107
  0
LINE
  5
304
100
AcDbEntity
  8
RACCORDO
100
AcDbLine
 62
7
  6
CONTINUOUS
 10
-7.763653692
 20
20.7613271893
 11
-7.763653692
 21
21.6613271893
  0
LINE
  5
305
100
AcDbEntity
  8
RACCORDO
100
AcDbLine
 62
253
  6
CONTINUOUS
 10
-7.6789802278
 20
-20.1386728107
 11
-7.6789802278
 21
-19.2386728107
  0
LINE
  5
306
100
AcDbEntity
  8
RACCORDO
100
AcDbLine
 62
253
  6
CONTINUOUS
 10
-7.6789802278
 20
20.7613271893
 11
-7.6789802278
 21
21.6613271893
  0
LINE
  5
307
100
AcDbEntity
  8
0
100
AcDbLine
 62
7
  6
CONTINUOUS
 10
-7.463653692
 20
14.2250739558
 11
-7.463653692
 21
11.4975804228
  0
LINE
  5
308
100
AcDbEntity
  8
0
100
AcDbLine
 62
7
  6
CONTINUOUS
 10
-7.463653692
 20
0.7250739558
 11
-7.463653692
 21
-2.0024195772
  0
LINE
  5
309
100
AcDbEntity
  8
RACCORDO
100
AcDbLine
 62
253
  6
CONTINUOUS
 10
-7.3789916509
 20
-20.1386728107
 11
-7.3789916509
 21
-18.9386728107
  0
LINE
  5
30A
100
AcDbEntity
  8
RACCORDO
100
AcDbLine
 62
253
  6
CONTINUOUS
 10
-7.3789916509
 20
20.4613271893
 11
-7.3789916509
 21
21.6613271893
  0
LINE
  5
30B
100
AcDbEntity
  8
RACCORDO
100
AcDbLine
 62
7
  6
CONTINUOUS
 10
-8.9748743319
 20
-8.6058232428
 11
-8.9757183664
 21
-8.6939001042
  0
LINE
  5
30C
100
AcDbEntity
  8
RACCORDO
100
AcDbLine
 62
7
  6
CONTINUOUS
 10
-8.7687442931
 20
-22.8665040271
 11
-8.7643809207
 21
-22.4334913252
  0
LINE
  5
30D
100
AcDbEntity
  8
0
100
AcDbLine
 62
7
  6
CONTINUOUS
 10
-9.1225511088
 20
-2.4186728107
 11
-9.1288006212
 21
-2.4413879842
  0
LINE
  5
30E
100
AcDbEntity
  8
DRAFT
100
AcDbLine
 62
7
  6
CONTINUOUS
 10
-0.193653692
 20
15.2613271893
 11
-0.2412233153
 21
15.1892509698
  0
LINE
  5
30F
100
AcDbEntity
  8
RACCORDO
100
AcDbLine
 62
253
  6
CONTINUOUS
 10
-0.2495388848
 20
10.8454337033
 11
-0.193653692
 21
10.9013188961
  0
LINE
  5
310
100
AcDbEntity
  8
RACCORDO
100
AcDbLine
 62
7
  6
CONTINUOUS
 10
9.048517477
 20
14.2613271893
 11
9.2196380422
 21
14.3468809557
  0
LINE
  5
311
100
AcDbEntity
  8
0
100
AcDbLine
 62
7
  6
CONTINUOUS
 10
-8.4635489804
 20
-7.6886728107
 11
-2.9637584035
 21
-7.6886728107
  0
LINE
  5
312
100
AcDbEntity
  8
RACCORDO
100
AcDbLine
 62
7
  6
CONTINUOUS
 10
-8.5160897223
 20
-7.6886728107
 11
-8.4635489804
 21
-7.6886728107
  0
LINE
  5
313
100
AcDbEntity
  8
RACCORDO
100
AcDbLine
 62
7
  6
CONTINUOUS
 10
-2.9637584035
 20
-7.6886728107
 11
-2.9112176617
 21
-7.6886728107
  0
LINE
  5
314
100
AcDbEntity
  8
RACCORDO
100
AcDbLine
 62
253
  6
CONTINUOUS
 10
-11.2467926956
 20
-7.6059755476
 11
-8.5161196143
 21
-7.6059755476
  0
LINE
  5
315
100
AcDbEntity
  8
RACCORDO
100
AcDbLine
 62
253
  6
CONTINUOUS
 10
-2.9111877697
 20
-7.6059755476
 11
-1.4807279716
 21
-7.6059755476
  0
LINE
  5
316
100
AcDbEntity
  8
DRAFT
100
AcDbLine
 62
7
  6
CONTINUOUS
 10
-2.9111877697
 20
-7.180527849
 11
-8.5161196143
 21
-7.180527849
  0
LINE
  5
317
100
AcDbEntity
  8
DRAFT
100
AcDbLine
 62
7
  6
CONTINUOUS
 10
6.386346308
 20
-6.2386728107
 11
8.086346308
 21
-6.2386728107
  0
LINE
  5
318
100
AcDbEntity
  8
DRAFT
100
AcDbLine
 62
7
  6
CONTINUOUS
 10
6.3985639229
 20
-6.2264551958
 11
8.0741286931
 21
-6.2264551958
  0
LINE
  5
319
100
AcDbEntity
  8
RACCORDO
100
AcDbLine
 62
253
  6
CONTINUOUS
 10
4.532823511
 20
-12.7823948547
 11
4.7845847727
 21
-12.9441918449
  0
LINE
  5
31A
100
AcDbEntity
  8
RACCORDO
100
AcDbLine
 62
253
  6
CONTINUOUS
 10
4.7921177124
 20
-13.1132121126
 11
5.0363462943
 21
-13.28617011
  0
LINE
  5
31B
100
AcDbEntity
  8
RACCORDO
100
AcDbLine
 62
253
  6
CONTINUOUS
 10
-10.2469450004
 20
2.373263181
 11
-10.1111757063
 21
2.1065634212
  0
LINE
  5
31C
100
AcDbEntity
  8
0
100
AcDbLine
 62
7
  6
CONTINUOUS
 10
-7.095592692
 20
13.7580049902
 11
-7.095592692
 21
11.9646493883
  0
LINE
  5
31D
100
AcDbEntity
  8
0
100
AcDbLine
 62
7
  6
CONTINUOUS
 10
-7.095592692
 20
-1.5353506117
 11
-7.095592692
 21
0.2580049902
  0
LINE
  5
31E
100
AcDbEntity
  8
RACCORDO
100
AcDbLine
 62
253
  6
CONTINUOUS
 10
-6.813653692
 20
-19.3259414886
 11
-6.813653692
 21
-18.9386728107
  0
LINE
  5
31F
100
AcDbEntity
  8
RACCORDO
100
AcDbLine
 62
253
  6
CONTINUOUS
 10
-6.813653692
 20
20.4613271893
 11
-6.813653692
 21
20.8485958672
  0
LINE
  5
320
100
AcDbEntity
  8
RACCORDO
100
AcDbLine
 62
7
  6
CONTINUOUS
 10
-6.513653692
 20
-19.3233234283
 11
-6.513653692
 21
-19.2386728107
  0
LINE
  5
321
100
AcDbEntity
  8
RACCORDO
100
AcDbLine
 62
7
  6
CONTINUOUS
 10
-6.513653692
 20
20.7613271893
 11
-6.513653692
 21
20.8459778068
  0
LINE
  5
322
100
AcDbEntity
  8
DRAFT
100
AcDbLine
 62
7
  6
CONTINUOUS
 10
-6.213653692
 20
-18.9386728107
 11
-6.213653692
 21
-19.1386728107
  0
LINE
  5
323
100
AcDbEntity
  8
DRAFT
100
AcDbLine
 62
7
  6
CONTINUOUS
 10
-6.213653692
 20
20.4613271893
 11
-6.213653692
 21
20.6613271893
  0
LINE
  5
324
100
AcDbEntity
  8
DRAFT
100
AcDbLine
 62
7
  6
CONTINUOUS
 10
-6.1246328608
 20
20.5723063581
 11
-6.1246328608
 21
20.3723063581
  0
LINE
  5
325
100
AcDbEntity
  8
DRAFT
100
AcDbLine
 62
7
  6
CONTINUOUS
 10
-6.1246328608
 20
-18.8496519796
 11
-6.1246328608
 21
-19.0496519796
  0
LINE
  5
326
100
AcDbEntity
  8
0
100
AcDbLine
 62
253
  6
CONTINUOUS
 10
-2.9619851693
 20
14.5354406847
 11
-2.9479474284
 21
14.5909172966
  0
LINE
  5
327
100
AcDbEntity
  8
0
100
AcDbLine
 62
7
  6
CONTINUOUS
 10
-2.7619851693
 20
14.4848329045
 11
-2.7461043829
 21
14.5475931616
  0
LINE
  5
328
100
AcDbEntity
  8
0
100
AcDbLine
 62
7
  6
CONTINUOUS
 10
-2.6588573048
 20
14.458737543
 11
-2.6443432796
 21
14.5160964122
  0
LINE
  5
329
100
AcDbEntity
  8
RACCORDO
100
AcDbLine
 62
253
  6
CONTINUOUS
 10
-10.1111757063
 20
-3.3839090427
 11
-10.2469450004
 21
-3.6506088025
  0
LINE
  5
32A
100
AcDbEntity
  8
RACCORDO
100
AcDbLine
 62
253
  6
CONTINUOUS
 10
0.2504528212
 20
10.3454419956
 11
0.3063380148
 21
10.4013271893
  0
LINE
  5
32B
100
AcDbEntity
  8
RACCORDO
100
AcDbLine
 62
253
  6
CONTINUOUS
 10
9.7337880921
 20
19.6950656086
 11
9.1528729497
 21
19.1141504661
  0
LINE
  5
32C
100
AcDbEntity
  8
DRAFT
100
AcDbLine
 62
7
  6
CONTINUOUS
 10
-1.463653692
 20
7.1113271893
 11
-1.4514360771
 21
7.1235448042
  0
LINE
  5
32D
100
AcDbEntity
  8
RACCORDO
100
AcDbLine
 62
7
  6
CONTINUOUS
 10
4.636346308
 20
10.4013271893
 11
4.551670559
 21
10.3454419956
  0
LINE
  5
32E
100
AcDbEntity
  8
0
100
AcDbLine
 62
7
  6
CONTINUOUS
 10
6.3985639229
 20
-5.8886728107
 11
8.0741286931
 21
-5.8886728107
  0
LINE
  5
32F
100
AcDbEntity
  8
RACCORDO
100
AcDbLine
 62
253
  6
CONTINUOUS
 10
6.736346308
 20
-5.7744327492
 11
6.3985639229
 21
-5.7744327492
  0
LINE
  5
330
100
AcDbEntity
  8
ASSI
100
AcDbLine
 62
7
  6
CONTINUOUS
 10
6.736346308
 20
-5.6386728107
 11
7.536346308
 21
-5.6386728107
  0
LINE
  5
331
100
AcDbEntity
  8
DRAFT
100
AcDbLine
 62
7
  6
CONTINUOUS
 10
7.7287489806
 20
-5.4810754833
 11
6.8439436354
 21
-5.4810754833
  0
LINE
  5
332
100
AcDbEntity
  8
DRAFT
100
AcDbLine
 62
7
  6
CONTINUOUS
 10
8.0165313657
 20
-5.3810754833
 11
7.7287489806
 21
-5.3810754833
  0
LINE
  5
333
100
AcDbEntity
  8
DRAFT
100
AcDbLine
 62
7
  6
CONTINUOUS
 10
6.8439436354
 20
-5.3810754833
 11
6.4561612504
 21
-5.3810754833
  0
LINE
  5
334
100
AcDbEntity
  8
RACCORDO
100
AcDbLine
 62
7
  6
CONTINUOUS
 10
6.386346308
 20
-4.6386728107
 11
0.188231512
 21
-4.6386728107
  0
LINE
  5
335
100
AcDbEntity
  8
RACCORDO
100
AcDbLine
 62
7
  6
CONTINUOUS
 10
8.086346308
 20
-4.6386728107
 11
8.9064224604
 21
-4.6386728107
  0
LINE
  5
336
100
AcDbEntity
  8
DRAFT
100
AcDbLine
 62
7
  6
CONTINUOUS
 10
8.0165313657
 20
-4.4990322913
 11
6.4561612504
 21
-4.4990322913
  0
LINE
  5
337
100
AcDbEntity
  8
RACCORDO
100
AcDbLine
 62
7
  6
CONTINUOUS
 10
0.2475559092
 20
-4.458885642
 11
8.7266352917
 21
-4.458885642
  0
LINE
  5
338
100
AcDbEntity
  8
RACCORDO
100
AcDbLine
 62
253
  6
CONTINUOUS
 10
5.5398691008
 20
-9.8949507847
 11
5.2881078329
 21
-9.7331537912
  0
LINE
  5
339
100
AcDbEntity
  8
RACCORDO
100
AcDbLine
 62
253
  6
CONTINUOUS
 10
-6.4656408209
 20
-2.0984463751
 11
-6.2146473224
 21
-2.2614319484
  0
LINE
  5
33A
100
AcDbEntity
  8
RACCORDO
100
AcDbLine
 62
253
  6
CONTINUOUS
 10
-6.2071597066
 20
-2.4294485214
 11
-5.9636537311
 21
-2.6034224439
  0
LINE
  5
33B
100
AcDbEntity
  8
RACCORDO
100
AcDbLine
 62
253
  6
CONTINUOUS
 10
-10.8598893016
 20
0.9669963216
 11
-11.0995192509
 21
1.1462713251
  0
LINE
  5
33C
100
AcDbEntity
  8
RACCORDO
100
AcDbLine
 62
253
  6
CONTINUOUS
 10
9.7337880921
 20
-18.17241123
 11
9.0267890067
 21
-17.4654121446
  0
LINE
  5
33D
100
AcDbEntity
  8
RACCORDO
100
AcDbLine
 62
253
  6
CONTINUOUS
 10
0.2025045072
 20
-9.0835711646
 11
-0.000600118
 21
-8.8637743391
  0
LINE
  5
33E
100
AcDbEntity
  8
0
100
AcDbLine
 62
253
  6
CONTINUOUS
 10
-2.9637584035
 20
-7.6886728107
 11
-2.4515890176
 21
-8.6939001042
  0
LINE
  5
33F
100
AcDbEntity
  8
DRAFT
100
AcDbLine
 62
7
  6
CONTINUOUS
 10
-4.863653692
 20
24.5613271893
 11
-4.863653692
 21
23.1613271893
  0
LINE
  5
340
100
AcDbEntity
  8
DRAFT
100
AcDbLine
 62
7
  6
CONTINUOUS
 10
-4.863653692
 20
-21.6386728107
 11
-4.863653692
 21
-23.0386728107
  0
LINE
  5
341
100
AcDbEntity
  8
RACCORDO
100
AcDbLine
 62
253
  6
CONTINUOUS
 10
-4.8188462485
 20
24.5165197458
 11
-4.8188462485
 21
23.0941150761
  0
LINE
  5
342
100
AcDbEntity
  8
RACCORDO
100
AcDbLine
 62
253
  6
CONTINUOUS
 10
-4.8188462485
 20
-21.5714606976
 11
-4.8188462485
 21
-22.9938653672
  0
LINE
  5
343
100
AcDbEntity
  8
RACCORDO
100
AcDbLine
 62
253
  6
CONTINUOUS
 10
-4.5188513254
 20
24.5147845508
 11
-4.5188513254
 21
23.0915122469
  0
LINE
  5
344
100
AcDbEntity
  8
RACCORDO
100
AcDbLine
 62
253
  6
CONTINUOUS
 10
-4.5188513254
 20
-21.5688578684
 11
-4.5188513254
 21
-22.9921301722
  0
LINE
  5
345
100
AcDbEntity
  8
0
100
AcDbLine
 62
7
  6
CONTINUOUS
 10
-4.331714692
 20
14.2075254286
 11
-4.331714692
 21
11.5151289499
  0
LINE
  5
346
100
AcDbEntity
  8
0
100
AcDbLine
 62
7
  6
CONTINUOUS
 10
-4.331714692
 20
-1.9848710501
 11
-4.331714692
 21
0.7075254286
  0
LINE
  5
347
100
AcDbEntity
  8
RACCORDO
100
AcDbLine
 62
253
  6
CONTINUOUS
 10
-4.263653692
 20
-22.9921301722
 11
-4.263653692
 21
-21.5688578684
  0
LINE
  5
348
100
AcDbEntity
  8
RACCORDO
100
AcDbLine
 62
253
  6
CONTINUOUS
 10
-4.263653692
 20
23.0915122469
 11
-4.263653692
 21
24.5147845508
  0
LINE
  5
349
100
AcDbEntity
  8
0
100
AcDbLine
 62
7
  6
CONTINUOUS
 10
-3.963653692
 20
14.4423357455
 11
-3.963653692
 21
11.280318633
  0
LINE
  5
34A
100
AcDbEntity
  8
0
100
AcDbLine
 62
7
  6
CONTINUOUS
 10
-3.963653692
 20
0.9423357455
 11
-3.963653692
 21
-2.219681367
  0
LINE
  5
34B
100
AcDbEntity
  8
DRAFT
100
AcDbLine
 62
7
  6
CONTINUOUS
 10
-3.963653692
 20
-19.2386728107
 11
-3.963653692
 21
-19.2919067043
  0
LINE
  5
34C
100
AcDbEntity
  8
RACCORDO
100
AcDbLine
 62
7
  6
CONTINUOUS
 10
-3.963653692
 20
-21.5714759287
 11
-3.963653692
 21
-23.0328549809
  0
LINE
  5
34D
100
AcDbEntity
  8
DRAFT
100
AcDbLine
 62
7
  6
CONTINUOUS
 10
-3.963653692
 20
20.7613271893
 11
-3.963653692
 21
20.8145610828
  0
LINE
  5
34E
100
AcDbEntity
  8
RACCORDO
100
AcDbLine
 62
7
  6
CONTINUOUS
 10
-3.963653692
 20
23.0941303073
 11
-3.963653692
 21
24.5555093595
  0
LINE
  5
34F
100
AcDbEntity
  8
RACCORDO
100
AcDbLine
 62
7
  6
CONTINUOUS
 10
-3.863653692
 20
20.8145610828
 11
-3.863653692
 21
20.6613271893
  0
LINE
  5
350
100
AcDbEntity
  8
RACCORDO
100
AcDbLine
 62
7
  6
CONTINUOUS
 10
-3.863653692
 20
-19.1386728107
 11
-3.863653692
 21
-19.2919067043
  0
LINE
  5
351
100
AcDbEntity
  8
0
100
AcDbLine
 62
7
  6
CONTINUOUS
 10
-2.4113985241
 20
20.2680789946
 11
-2.4182170572
 21
20.179996011
  0
LINE
  5
352
100
AcDbEntity
  8
DRAFT
100
AcDbLine
 62
7
  6
CONTINUOUS
 10
-0.2656493197
 20
7.1811421316
 11
-0.3117265215
 21
7.1113271893
  0
LINE
  5
353
100
AcDbEntity
  8
DRAFT
100
AcDbLine
 62
7
  6
CONTINUOUS
 10
-1.063653692
 20
7.1235448042
 11
-1.0060563646
 21
7.1811421316
  0
LINE
  5
354
100
AcDbEntity
  8
RACCORDO
100
AcDbLine
 62
253
  6
CONTINUOUS
 10
7.9894057373
 20
14.5643770993
 11
7.936346308
 21
14.51131767
  0
LINE
  5
355
100
AcDbEntity
  8
RACCORDO
100
AcDbLine
 62
253
  6
CONTINUOUS
 10
4.3332091326
 20
10.9081804946
 11
4.3863558273
 21
10.9613271893
  0
LINE
  5
356
100
AcDbEntity
  8
RACCORDO
100
AcDbLine
 62
7
  6
CONTINUOUS
 10
4.5497777384
 20
10.6572491621
 11
4.5794871665
 21
10.6869585903
  0
LINE
  5
357
100
AcDbEntity
  8
RACCORDO
100
AcDbLine
 62
253
  6
CONTINUOUS
 10
8.2415777689
 20
14.3165681693
 11
8.1863367888
 21
14.2613271893
  0
LINE
  5
358
100
AcDbEntity
  8
RACCORDO
100
AcDbLine
 62
253
  6
CONTINUOUS
 10
4.5501569605
 20
10.625147361
 11
4.636346308
 21
10.7113367085
  0
LINE
  5
359
100
AcDbEntity
  8
RACCORDO
100
AcDbLine
 62
253
  6
CONTINUOUS
 10
-10.8598893241
 20
-2.2443418685
 11
-11.0995193003
 21
-2.4236168939
  0
LINE
  5
35A
100
AcDbEntity
  8
RACCORDO
100
AcDbLine
 62
253
  6
CONTINUOUS
 10
-5.963653731
 20
1.326076823
 11
-6.2071597068
 21
1.1521029001
  0
LINE
  5
35B
100
AcDbEntity
  8
RACCORDO
100
AcDbLine
 62
253
  6
CONTINUOUS
 10
5.2805749106
 20
-9.5641334982
 11
5.0363463262
 21
-9.3911754981
  0
LINE
  5
35C
100
AcDbEntity
  8
RACCORDO
100
AcDbLine
 62
253
  6
CONTINUOUS
 10
9.9332284543
 20
-12.9267187516
 11
10.1738282121
 21
-13.1046900734
  0
LINE
  5
35D
100
AcDbEntity
  8
0
100
AcDbLine
 62
7
  6
CONTINUOUS
 10
-8.7684500791
 20
14.458737543
 11
-8.8313914683
 21
14.7074794913
  0
LINE
  5
35E
100
AcDbEntity
  8
0
100
AcDbLine
 62
7
  6
CONTINUOUS
 10
-8.7220936783
 20
14.7091915444
 11
-8.6653222146
 21
14.4848329045
  0
LINE
  5
35F
100
AcDbEntity
  8
0
100
AcDbLine
 62
253
  6
CONTINUOUS
 10
-8.4653222146
 20
14.5354406847
 11
-8.5068753924
 21
14.6996572444
  0
LINE
  5
360
100
AcDbEntity
  8
RACCORDO
100
AcDbLine
 62
7
  6
CONTINUOUS
 10
-2.452433052
 20
-8.6058232428
 11
-2.4515890176
 21
-8.6939001042
  0
LINE
  5
361
100
AcDbEntity
  8
0
100
AcDbLine
 62
7
  6
CONTINUOUS
 10
-3.513653692
 20
0.4726520547
 11
-3.513653692
 21
1.0500023239
  0
LINE
  5
362
100
AcDbEntity
  8
RACCORDO
100
AcDbLine
 62
7
  6
CONTINUOUS
 10
-3.463653692
 20
-20.2386728107
 11
-3.463653692
 21
-21.5767120494
  0
LINE
  5
363
100
AcDbEntity
  8
RACCORDO
100
AcDbLine
 62
7
  6
CONTINUOUS
 10
-3.463653692
 20
21.7613271893
 11
-3.463653692
 21
23.099366428
  0
LINE
  5
364
100
AcDbEntity
  8
ASSI
100
AcDbLine
 62
7
  6
CONTINUOUS
 10
-3.063653692
 20
13.8659610329
 11
-3.063653692
 21
13.4159610329
  0
LINE
  5
365
100
AcDbEntity
  8
0
100
AcDbLine
 62
7
  6
CONTINUOUS
 10
-3.063653692
 20
11.1178869987
 11
-3.063653692
 21
13.4159610329
  0
LINE
  5
366
100
AcDbEntity
  8
0
100
AcDbLine
 62
7
  6
CONTINUOUS
 10
-3.063653692
 20
13.8659610329
 11
-3.063653692
 21
14.4159610329
  0
LINE
  5
367
100
AcDbEntity
  8
0
100
AcDbLine
 62
253
  6
CONTINUOUS
 10
-2.9637584035
 20
19.3113271893
 11
-2.9637584035
 21
18.8516802082
  0
LINE
  5
368
100
AcDbEntity
  8
0
100
AcDbLine
 62
253
  6
CONTINUOUS
 10
-2.9637584035
 20
-7.6886728107
 11
-2.9637584035
 21
-7.2290258297
  0
LINE
  5
369
100
AcDbEntity
  8
DRAFT
100
AcDbLine
 62
7
  6
CONTINUOUS
 10
-2.955258452
 20
-7.2205258782
 11
-2.955258452
 21
-7.2099078895
  0
LINE
  5
36A
100
AcDbEntity
  8
DRAFT
100
AcDbLine
 62
7
  6
CONTINUOUS
 10
-2.955258452
 20
18.8325622681
 11
-2.955258452
 21
18.8431802567
  0
LINE
  5
36B
100
AcDbEntity
  8
DRAFT
100
AcDbLine
 62
7
  6
CONTINUOUS
 10
-2.9111877697
 20
19.1801483159
 11
-2.9111877697
 21
18.8031822275
  0
LINE
  5
36C
100
AcDbEntity
  8
RACCORDO
100
AcDbLine
 62
7
  6
CONTINUOUS
 10
-2.9111877697
 20
-7.180527849
 11
-2.9111877697
 21
-7.6059755476
  0
LINE
  5
36D
100
AcDbEntity
  8
RACCORDO
100
AcDbLine
 62
253
  6
CONTINUOUS
 10
-2.863653692
 20
20.8145049802
 11
-2.863653692
 21
20.6457141404
  0
LINE
  5
36E
100
AcDbEntity
  8
RACCORDO
100
AcDbLine
 62
253
  6
CONTINUOUS
 10
-2.863653692
 20
-19.1230597619
 11
-2.863653692
 21
-19.2918506016
  0
LINE
  5
36F
100
AcDbEntity
  8
0
100
AcDbLine
 62
253
  6
CONTINUOUS
 10
-2.513653692
 20
-0.5386728107
 11
-2.513653692
 21
-2.2424614067
  0
LINE
  5
370
100
AcDbEntity
  8
0
100
AcDbLine
 62
7
  6
CONTINUOUS
 10
-2.503653692
 20
-0.5386728107
 11
-2.503653692
 21
0.8868563354
  0
LINE
  5
371
100
AcDbEntity
  8
RACCORDO
100
AcDbLine
 62
7
  6
CONTINUOUS
 10
-2.4585494567
 20
-0.5386728107
 11
-2.4585494567
 21
-0.3396934318
  0
LINE
  5
372
100
AcDbEntity
  8
0
100
AcDbLine
 62
253
  6
CONTINUOUS
 10
-2.363653692
 20
-0.2278253968
 11
-2.363653692
 21
-0.2663549714
  0
LINE
  5
373
100
AcDbEntity
  8
0
100
AcDbLine
 62
253
  6
CONTINUOUS
 10
-2.163653692
 20
-0.170163366
 11
-2.163653692
 21
-0.2167388054
  0
LINE
  5
374
100
AcDbEntity
  8
0
100
AcDbLine
 62
253
  6
CONTINUOUS
 10
-8.4635489804
 20
-7.6886728107
 11
-8.9757183664
 21
-8.6939001042
  0
LINE
  5
375
100
AcDbEntity
  8
DRAFT
100
AcDbLine
 62
7
  6
CONTINUOUS
 10
-0.2656493197
 20
4.0811421316
 11
-0.3117265215
 21
4.0113271893
  0
LINE
  5
376
100
AcDbEntity
  8
DRAFT
100
AcDbLine
 62
7
  6
CONTINUOUS
 10
-0.463653692
 20
4.0113271893
 11
-0.3938387496
 21
4.0811421316
  0
LINE
  5
377
100
AcDbEntity
  8
RACCORDO
100
AcDbLine
 62
253
  6
CONTINUOUS
 10
-11.3903811773
 20
-7.7495640294
 11
-11.2467926956
 21
-7.6059755476
  0
LINE
  5
378
100
AcDbEntity
  8
RACCORDO
100
AcDbLine
 62
253
  6
CONTINUOUS
 10
-6.4656408208
 20
0.8211007552
 11
-6.214647323
 21
0.9840863296
  0
LINE
  5
379
100
AcDbEntity
  8
0
100
AcDbLine
 62
7
  6
CONTINUOUS
 10
-9.2175064781
 20
-2.4186728107
 11
-8.913653692
 21
-2.4186728107
  0
LINE
  5
37A
100
AcDbEntity
  8
0
100
AcDbLine
 62
253
  6
CONTINUOUS
 10
-8.913653692
 20
-2.4186728107
 11
-8.2098009053
 21
-2.4186728107
  0
LINE
  5
37B
100
AcDbEntity
  8
RACCORDO
100
AcDbLine
 62
253
  6
CONTINUOUS
 10
-10.8999229548
 20
-2.1238480085
 11
-11.1998772633
 21
-2.1238480085
  0
LINE
  5
37C
100
AcDbEntity
  8
RACCORDO
100
AcDbLine
 62
253
  6
CONTINUOUS
 10
-0.3215278788
 20
-1.3208446682
 11
-0.6215229028
 21
-1.3208446682
  0
LINE
  5
37D
100
AcDbEntity
  8
RACCORDO
100
AcDbLine
 62
253
  6
CONTINUOUS
 10
-0.6215229028
 20
-1.3208446682
 11
-0.3321081493
 21
-1.3970100379
  0
LINE
  5
37E
100
AcDbEntity
  8
RACCORDO
100
AcDbLine
 62
253
  6
CONTINUOUS
 10
-0.3334018021
 20
-1.7311648079
 11
-0.3127940844
 21
-1.7389814057
  0
LINE
  5
37F
100
AcDbEntity
  8
RACCORDO
100
AcDbLine
 62
253
  6
CONTINUOUS
 10
-5.4616665631
 20
0.8211007535
 11
-5.7126600617
 21
0.9840863268
  0
LINE
  5
380
100
AcDbEntity
  8
RACCORDO
100
AcDbLine
 62
253
  6
CONTINUOUS
 10
-5.9636537078
 20
1.3260768397
 11
-5.7201477374
 21
1.1521029406
  0
LINE
  5
381
100
AcDbEntity
  8
0
100
AcDbLine
 62
253
  6
CONTINUOUS
 10
7.5362415965
 20
-17.7886728107
 11
8.0886014759
 21
-18.7454246161
  0
LINE
  5
382
100
AcDbEntity
  8
RACCORDO
100
AcDbLine
 62
253
  6
CONTINUOUS
 10
-10.2469450004
 20
15.873263181
 11
-10.1111757063
 21
15.6065634212
  0
LINE
  5
383
100
AcDbEntity
  8
0
100
AcDbLine
 62
253
  6
CONTINUOUS
 10
-1.9984118687
 20
-0.2498110351
 11
-1.9984118687
 21
-0.20859866
  0
LINE
  5
384
100
AcDbEntity
  8
0
100
AcDbLine
 62
253
  6
CONTINUOUS
 10
-1.9468223193
 20
-0.5386728107
 11
-1.9468223193
 21
-1.8459891884
  0
LINE
  5
385
100
AcDbEntity
  8
0
100
AcDbLine
 62
253
  6
CONTINUOUS
 10
-1.915790957
 20
-0.2663549714
 11
-1.915790957
 21
-0.2278253968
  0
LINE
  5
386
100
AcDbEntity
  8
0
100
AcDbLine
 62
7
  6
CONTINUOUS
 10
-1.713653692
 20
11.9601281771
 11
-1.713653692
 21
13.4159610329
  0
LINE
  5
387
100
AcDbEntity
  8
RACCORDO
100
AcDbLine
 62
253
  6
CONTINUOUS
 10
-1.6243164533
 20
-18.8266557623
 11
-1.6243164533
 21
-8.7494117245
  0
LINE
  5
388
100
AcDbEntity
  8
RACCORDO
100
AcDbLine
 62
253
  6
CONTINUOUS
 10
-1.4807279716
 20
-7.6059755476
 11
-1.4807279716
 21
-8.6058232428
  0
LINE
  5
389
100
AcDbEntity
  8
DRAFT
100
AcDbLine
 62
7
  6
CONTINUOUS
 10
-1.463653692
 20
8.8113271893
 11
-1.463653692
 21
7.1113271893
  0
LINE
  5
38A
100
AcDbEntity
  8
DRAFT
100
AcDbLine
 62
7
  6
CONTINUOUS
 10
-1.4514360771
 20
8.7991095744
 11
-1.4514360771
 21
7.1235448042
  0
LINE
  5
38B
100
AcDbEntity
  8
0
100
AcDbLine
 62
7
  6
CONTINUOUS
 10
-1.213653692
 20
8.2159610329
 11
-1.213653692
 21
7.4159610329
  0
LINE
  5
38C
100
AcDbEntity
  8
0
100
AcDbLine
 62
7
  6
CONTINUOUS
 10
-1.213653692
 20
7.4145757504
 11
-1.213653692
 21
7.2159610329
  0
LINE
  5
38D
100
AcDbEntity
  8
RACCORDO
100
AcDbLine
 62
253
  6
CONTINUOUS
 10
-1.1243926058
 20
-9.2493355721
 11
-1.1243926058
 21
-17.8010824191
  0
LINE
  5
38E
100
AcDbEntity
  8
DRAFT
100
AcDbLine
 62
7
  6
CONTINUOUS
 10
-1.0060563646
 20
8.7415122469
 11
-1.0060563646
 21
7.1811421316
  0
LINE
  5
38F
100
AcDbEntity
  8
RACCORDO
100
AcDbLine
 62
253
  6
CONTINUOUS
 10
-0.980804124
 20
-17.6574939373
 11
-0.980804124
 21
-9.1057470904
  0
LINE
  5
390
100
AcDbEntity
  8
RACCORDO
100
AcDbLine
 62
253
  6
CONTINUOUS
 10
-0.6215229028
 20
-1.3208420147
 11
-0.6215229028
 21
0.043496397
  0
LINE
  5
391
100
AcDbEntity
  8
RACCORDO
100
AcDbLine
 62
253
  6
CONTINUOUS
 10
-0.6215229028
 20
12.1791579854
 11
-0.6215229028
 21
13.543496397
  0
LINE
  5
392
100
AcDbEntity
  8
DRAFT
100
AcDbLine
 62
7
  6
CONTINUOUS
 10
-0.463653692
 20
5.7113271893
 11
-0.463653692
 21
4.0113271893
  0
LINE
  5
393
100
AcDbEntity
  8
DRAFT
100
AcDbLine
 62
7
  6
CONTINUOUS
 10
-0.3938387496
 20
5.6415122469
 11
-0.3938387496
 21
4.0811421316
  0
LINE
  5
394
100
AcDbEntity
  8
RACCORDO
100
AcDbLine
 62
253
  6
CONTINUOUS
 10
-0.3215278788
 20
-1.3208412317
 11
-0.3215278788
 21
0.0434981524
  0
LINE
  5
395
100
AcDbEntity
  8
RACCORDO
100
AcDbLine
 62
253
  6
CONTINUOUS
 10
-0.3215278788
 20
12.17915036
 11
-0.3215278788
 21
13.5435009406
  0
LINE
  5
396
100
AcDbEntity
  8
RACCORDO
100
AcDbLine
 62
7
  6
CONTINUOUS
 10
-0.3117265215
 20
18.679408312
 11
-0.3117265215
 21
14.5938280845
  0
LINE
  5
397
100
AcDbEntity
  8
RACCORDO
100
AcDbLine
 62
7
  6
CONTINUOUS
 10
-0.3117265215
 20
11.128826294
 11
-0.3117265215
 21
8.8113271893
  0
LINE
  5
398
100
AcDbEntity
  8
DRAFT
100
AcDbLine
 62
7
  6
CONTINUOUS
 10
-0.3117265215
 20
7.1113271893
 11
-0.3117265215
 21
5.7113271893
  0
LINE
  5
399
100
AcDbEntity
  8
RACCORDO
100
AcDbLine
 62
7
  6
CONTINUOUS
 10
-0.3117265215
 20
4.0113271893
 11
-0.3117265215
 21
1.0938280845
  0
LINE
  5
39A
100
AcDbEntity
  8
RACCORDO
100
AcDbLine
 62
7
  6
CONTINUOUS
 10
-0.3117265215
 20
-2.371173706
 11
-0.3117265215
 21
-4.1386469134
  0
LINE
  5
39B
100
AcDbEntity
  8
DRAFT
100
AcDbLine
 62
7
  6
CONTINUOUS
 10
-0.2656493197
 20
8.7415122469
 11
-0.2656493197
 21
7.1811421316
  0
LINE
  5
39C
100
AcDbEntity
  8
DRAFT
100
AcDbLine
 62
7
  6
CONTINUOUS
 10
-0.2656493197
 20
5.6415122469
 11
-0.2656493197
 21
4.0811421316
  0
LINE
  5
39D
100
AcDbEntity
  8
RACCORDO
100
AcDbLine
 62
7
  6
CONTINUOUS
 10
-0.2524021241
 20
9.9810794899
 11
-0.2524021242
 21
-3.9588597446
  0
LINE
  5
39E
100
AcDbEntity
  8
DRAFT
100
AcDbLine
 62
7
  6
CONTINUOUS
 10
-0.2412233153
 20
14.3334034088
 11
-0.2412233153
 21
15.1892509698
  0
LINE
  5
39F
100
AcDbEntity
  8
RACCORDO
100
AcDbLine
 62
7
  6
CONTINUOUS
 10
-10.2462972825
 20
-18.8266557623
 11
-10.2558226276
 21
-18.8496519796
  0
LINE
  5
3A0
100
AcDbEntity
  8
DRAFT
100
AcDbLine
 62
7
  6
CONTINUOUS
 10
-9.263653692
 20
-20.0886728107
 11
-9.1913524457
 21
-19.9141221614
  0
LINE
  5
3A1
100
AcDbEntity
  8
DRAFT
100
AcDbLine
 62
7
  6
CONTINUOUS
 10
8.336346308
 20
21.6113271893
 11
8.2640450618
 21
21.43677654
  0
LINE
  5
3A2
100
AcDbEntity
  8
RACCORDO
100
AcDbLine
 62
253
  6
CONTINUOUS
 10
-10.3905334822
 20
-8.7494117245
 11
-10.2469450004
 21
-8.6058232428
  0
LINE
  5
3A3
100
AcDbEntity
  8
RACCORDO
100
AcDbLine
 62
253
  6
CONTINUOUS
 10
-5.7201477378
 20
-2.4294485636
 11
-5.9636536829
 21
-2.6034224444
  0
LINE
  5
3A4
100
AcDbEntity
  8
RACCORDO
100
AcDbLine
 62
253
  6
CONTINUOUS
 10
-5.4616665631
 20
-2.0984463769
 11
-5.7126600609
 21
-2.2614319513
  0
LINE
  5
3A5
100
AcDbEntity
  8
RACCORDO
100
AcDbLine
 62
253
  6
CONTINUOUS
 10
-0.3321081493
 20
0.1196644164
 11
-0.6215229028
 21
0.0434990467
  0
LINE
  5
3A6
100
AcDbEntity
  8
RACCORDO
100
AcDbLine
 62
7
  6
CONTINUOUS
 10
-10.0655358626
 20
-0.5386728107
 11
-9.4804850646
 21
-0.5386728107
  0
LINE
  5
3A7
100
AcDbEntity
  8
0
100
AcDbLine
 62
7
  6
CONTINUOUS
 10
-9.4804850646
 20
-0.5386728107
 11
-8.913653692
 21
-0.5386728107
  0
LINE
  5
3A8
100
AcDbEntity
  8
0
100
AcDbLine
 62
7
  6
CONTINUOUS
 10
-2.513653692
 20
-0.5386728107
 11
-1.9468223193
 21
-0.5386728107
  0
LINE
  5
3A9
100
AcDbEntity
  8
RACCORDO
100
AcDbLine
 62
7
  6
CONTINUOUS
 10
-1.9468223193
 20
-0.5386728107
 11
-1.4666330625
 21
-0.5386728107
  0
LINE
  5
3AA
100
AcDbEntity
  8
0
100
AcDbLine
 62
7
  6
CONTINUOUS
 10
-10.213653692
 20
-0.2663549714
 11
-9.511516427
 21
-0.2663549714
  0
LINE
  5
3AB
100
AcDbEntity
  8
0
100
AcDbLine
 62
7
  6
CONTINUOUS
 10
-1.5037221014
 20
-0.2663549714
 11
-1.915790957
 21
-0.2663549714
  0
LINE
  5
3AC
100
AcDbEntity
  8
0
100
AcDbLine
 62
7
  6
CONTINUOUS
 10
-10.213653692
 20
-0.2278253968
 11
-9.511516427
 21
-0.2278253968
  0
LINE
  5
3AD
100
AcDbEntity
  8
0
100
AcDbLine
 62
7
  6
CONTINUOUS
 10
-1.5125855976
 20
-0.2278253968
 11
-1.915790957
 21
-0.2278253968
  0
LINE
  5
3AE
100
AcDbEntity
  8
RACCORDO
100
AcDbLine
 62
253
  6
CONTINUOUS
 10
-0.6215229028
 20
0.0434990467
 11
-0.3215278788
 21
0.0434990467
  0
LINE
  5
3AF
100
AcDbEntity
  8
0
100
AcDbLine
 62
253
  6
CONTINUOUS
 10
-10.213653692
 20
0.1687141849
 11
-8.923653692
 21
0.1687141849
  0
LINE
  5
3B0
100
AcDbEntity
  8
0
100
AcDbLine
 62
253
  6
CONTINUOUS
 10
-2.503653692
 20
0.1687141849
 11
-1.6611069292
 21
0.1687141849
  0
LINE
  5
3B1
100
AcDbEntity
  8
0
100
AcDbLine
 62
7
  6
CONTINUOUS
 10
-2.503653692
 20
0.4726520547
 11
-3.513653692
 21
0.4726520547
  0
LINE
  5
3B2
100
AcDbEntity
  8
0
100
AcDbLine
 62
7
  6
CONTINUOUS
 10
-7.913653692
 20
0.4726520547
 11
-8.923653692
 21
0.4726520547
  0
LINE
  5
3B3
100
AcDbEntity
  8
0
100
AcDbLine
 62
253
  6
CONTINUOUS
 10
-8.923653692
 20
0.5881221085
 11
-7.913653692
 21
0.5881221085
  0
LINE
  5
3B4
100
AcDbEntity
  8
0
100
AcDbLine
 62
253
  6
CONTINUOUS
 10
-2.503653692
 20
0.5881221085
 11
-3.513653692
 21
0.5881221085
  0
LINE
  5
3B5
100
AcDbEntity
  8
RACCORDO
100
AcDbLine
 62
253
  6
CONTINUOUS
 10
-10.8999229548
 20
0.8465024616
 11
-11.1998772633
 21
0.8465024616
  0
LINE
  5
3B6
100
AcDbEntity
  8
0
100
AcDbLine
 62
253
  6
CONTINUOUS
 10
-8.7978761453
 20
0.93453227
 11
-7.913653692
 21
0.93453227
  0
LINE
  5
3B7
100
AcDbEntity
  8
0
100
AcDbLine
 62
253
  6
CONTINUOUS
 10
-2.6319365301
 20
0.93453227
 11
-3.513653692
 21
0.93453227
  0
LINE
  5
3B8
100
AcDbEntity
  8
RACCORDO
100
AcDbLine
 62
7
  6
CONTINUOUS
 10
-10.1761650736
 20
20.179996011
 11
-10.2558226276
 21
20.3723063581
  0
LINE
  5
3B9
100
AcDbEntity
  8
DRAFT
100
AcDbLine
 62
7
  6
CONTINUOUS
 10
-9.263653692
 20
21.6113271893
 11
-9.1913524457
 21
21.43677654
  0
LINE
  5
3BA
100
AcDbEntity
  8
DRAFT
100
AcDbLine
 62
7
  6
CONTINUOUS
 10
8.336346308
 20
-20.0886728107
 11
8.2640450618
 21
-19.9141221614
  0
LINE
  5
3BB
100
AcDbEntity
  8
RACCORDO
100
AcDbLine
 62
7
  6
CONTINUOUS
 10
-0.193653692
 20
18.5613354825
 11
-0.193653692
 21
15.2613271893
  0
LINE
  5
3BC
100
AcDbEntity
  8
RACCORDO
100
AcDbLine
 62
7
  6
CONTINUOUS
 10
-0.193653692
 20
14.2613271893
 11
-0.193653692
 21
10.9013188961
  0
LINE
  5
3BD
100
AcDbEntity
  8
RACCORDO
100
AcDbLine
 62
253
  6
CONTINUOUS
 10
-0.1907769427
 20
14.3503412407
 11
-0.1907769427
 21
15.1723131378
  0
LINE
  5
3BE
100
AcDbEntity
  8
RACCORDO
100
AcDbLine
 62
253
  6
CONTINUOUS
 10
0.0190452553
 20
-13.8315809617
 11
0.0190435711
 21
-18.6573416325
  0
LINE
  5
3BF
100
AcDbEntity
  8
RACCORDO
100
AcDbLine
 62
253
  6
CONTINUOUS
 10
0.0292146804
 20
14.3502409037
 11
0.0292146804
 21
15.1724134748
  0
LINE
  5
3C0
100
AcDbEntity
  8
RACCORDO
100
AcDbLine
 62
7
  6
CONTINUOUS
 10
0.061346308
 20
14.3181092761
 11
0.061346308
 21
15.2045451025
  0
LINE
  5
3C1
100
AcDbEntity
  8
RACCORDO
100
AcDbLine
 62
7
  6
CONTINUOUS
 10
0.0713670409
 20
14.3195255756
 11
0.0713670409
 21
15.203128803
  0
LINE
  5
3C2
100
AcDbEntity
  8
RACCORDO
100
AcDbLine
 62
253
  6
CONTINUOUS
 10
0.2504528212
 20
9.8454502888
 11
0.2504528212
 21
10.3454419956
  0
LINE
  5
3C3
100
AcDbEntity
  8
RACCORDO
100
AcDbLine
 62
7
  6
CONTINUOUS
 10
0.2831996134
 20
14.5644643647
 11
0.2831996134
 21
14.9581900139
  0
LINE
  5
3C4
100
AcDbEntity
  8
RACCORDO
100
AcDbLine
 62
7
  6
CONTINUOUS
 10
0.336346308
 20
14.51131767
 11
0.336346308
 21
15.0113367085
  0
LINE
  5
3C5
100
AcDbEntity
  8
RACCORDO
100
AcDbLine
 62
253
  6
CONTINUOUS
 10
-0.3117265215
 20
-4.1386469134
 11
-0.2524021242
 21
-3.9588597446
  0
LINE
  5
3C6
100
AcDbEntity
  8
RACCORDO
100
AcDbLine
 62
7
  6
CONTINUOUS
 10
9.2488576897
 20
20.179996011
 11
9.3285152436
 21
20.3723063581
  0
LINE
  5
3C7
100
AcDbEntity
  8
RACCORDO
100
AcDbLine
 62
253
  6
CONTINUOUS
 10
-0.3127940837
 20
0.461635919
 11
-0.3334018491
 21
0.4538193014
  0
LINE
  5
3C8
100
AcDbEntity
  8
0
100
AcDbLine
 62
7
  6
CONTINUOUS
 10
-8.4130952949
 20
1.0500023239
 11
-7.9581770873
 21
1.0500023239
  0
LINE
  5
3C9
100
AcDbEntity
  8
0
100
AcDbLine
 62
7
  6
CONTINUOUS
 10
-3.513653692
 20
1.0500023239
 11
-3.0171323012
 21
1.0500023239
  0
LINE
  5
3CA
100
AcDbEntity
  8
DRAFT
100
AcDbLine
 62
7
  6
CONTINUOUS
 10
8.086346308
 20
-6.2386728107
 11
8.0741286931
 21
-6.2264551958
  0
LINE
  5
3CB
100
AcDbEntity
  8
DRAFT
100
AcDbLine
 62
7
  6
CONTINUOUS
 10
8.0741286931
 20
-5.4386728107
 11
8.0165313657
 21
-5.3810754833
  0
LINE
  5
3CC
100
AcDbEntity
  8
RACCORDO
100
AcDbLine
 62
253
  6
CONTINUOUS
 10
9.1834654167
 20
-14.0728890128
 11
9.3196376165
 21
-14.3393832812
  0
LINE
  5
3CD
100
AcDbEntity
  8
RACCORDO
100
AcDbLine
 62
7
  6
CONTINUOUS
 10
9.2488576897
 20
-18.6573416325
 11
9.3285152436
 21
-18.8496519796
  0
LINE
  5
3CE
100
AcDbEntity
  8
RACCORDO
100
AcDbLine
 62
253
  6
CONTINUOUS
 10
1.936346308
 20
20.8145049802
 11
1.936346308
 21
20.6457141404
  0
LINE
  5
3CF
100
AcDbEntity
  8
RACCORDO
100
AcDbLine
 62
253
  6
CONTINUOUS
 10
1.936346308
 20
-19.1230597619
 11
1.936346308
 21
-19.2918506016
  0
LINE
  5
3D0
100
AcDbEntity
  8
DRAFT
100
AcDbLine
 62
7
  6
CONTINUOUS
 10
1.9838803857
 20
-17.6574939373
 11
1.9838803857
 21
-17.280527849
  0
LINE
  5
3D1
100
AcDbEntity
  8
DRAFT
100
AcDbLine
 62
7
  6
CONTINUOUS
 10
2.0279510681
 20
-17.3205258782
 11
2.0279510681
 21
-17.3099078895
  0
LINE
  5
3D2
100
AcDbEntity
  8
RACCORDO
100
AcDbLine
 62
7
  6
CONTINUOUS
 10
2.036346308
 20
-17.3086679719
 11
2.036346308
 21
-17.3290258297
  0
LINE
  5
3D3
100
AcDbEntity
  8
0
100
AcDbLine
 62
253
  6
CONTINUOUS
 10
2.0364510196
 20
-17.3290258297
 11
2.0364510196
 21
-17.7886728107
  0
LINE
  5
3D4
100
AcDbEntity
  8
RACCORDO
100
AcDbLine
 62
7
  6
CONTINUOUS
 10
2.536346308
 20
-20.2386728107
 11
2.536346308
 21
-21.5767120494
  0
LINE
  5
3D5
100
AcDbEntity
  8
RACCORDO
100
AcDbLine
 62
7
  6
CONTINUOUS
 10
2.536346308
 20
21.7613271893
 11
2.536346308
 21
23.099366428
  0
LINE
  5
3D6
100
AcDbEntity
  8
RACCORDO
100
AcDbLine
 62
7
  6
CONTINUOUS
 10
2.936346308
 20
20.8145610828
 11
2.936346308
 21
20.6613271893
  0
LINE
  5
3D7
100
AcDbEntity
  8
RACCORDO
100
AcDbLine
 62
7
  6
CONTINUOUS
 10
2.936346308
 20
-19.1386728107
 11
2.936346308
 21
-19.2919067043
  0
LINE
  5
3D8
100
AcDbEntity
  8
0
100
AcDbLine
 62
7
  6
CONTINUOUS
 10
3.036346308
 20
-9.7576642545
 11
3.036346308
 21
-12.919681367
  0
LINE
  5
3D9
100
AcDbEntity
  8
DRAFT
100
AcDbLine
 62
7
  6
CONTINUOUS
 10
3.036346308
 20
-19.2386728107
 11
3.036346308
 21
-19.2919067043
  0
LINE
  5
3DA
100
AcDbEntity
  8
RACCORDO
100
AcDbLine
 62
7
  6
CONTINUOUS
 10
3.036346308
 20
-21.5714759287
 11
3.036346308
 21
-23.0328549809
  0
LINE
  5
3DB
100
AcDbEntity
  8
DRAFT
100
AcDbLine
 62
7
  6
CONTINUOUS
 10
3.036346308
 20
20.7613271893
 11
3.036346308
 21
20.8145610828
  0
LINE
  5
3DC
100
AcDbEntity
  8
RACCORDO
100
AcDbLine
 62
7
  6
CONTINUOUS
 10
3.036346308
 20
23.0941303073
 11
3.036346308
 21
24.5555093595
  0
LINE
  5
3DD
100
AcDbEntity
  8
RACCORDO
100
AcDbLine
 62
253
  6
CONTINUOUS
 10
3.336346308
 20
24.5147845508
 11
3.336346308
 21
23.0915122469
  0
LINE
  5
3DE
100
AcDbEntity
  8
RACCORDO
100
AcDbLine
 62
253
  6
CONTINUOUS
 10
3.336346308
 20
-21.5688578684
 11
3.336346308
 21
-22.9921301722
  0
LINE
  5
3DF
100
AcDbEntity
  8
0
100
AcDbLine
 62
7
  6
CONTINUOUS
 10
1.4909096733
 20
-18.6573416325
 11
1.4840911402
 21
-18.7454246161
  0
LINE
  5
3E0
100
AcDbEntity
  8
RACCORDO
100
AcDbLine
 62
253
  6
CONTINUOUS
 10
0.188231512
 20
-4.6386728107
 11
0.2475559092
 21
-4.458885642
  0
LINE
  5
3E1
100
AcDbEntity
  8
DRAFT
100
AcDbLine
 62
7
  6
CONTINUOUS
 10
-0.463653692
 20
4.0113271893
 11
-0.3117265215
 21
4.0113271893
  0
LINE
  5
3E2
100
AcDbEntity
  8
DRAFT
100
AcDbLine
 62
7
  6
CONTINUOUS
 10
-0.3938387496
 20
4.0811421316
 11
-0.2656493197
 21
4.0811421316
  0
LINE
  5
3E3
100
AcDbEntity
  8
RACCORDO
100
AcDbLine
 62
253
  6
CONTINUOUS
 10
8.9064224604
 20
-4.6386728107
 11
8.7266352917
 21
-4.458885642
  0
LINE
  5
3E4
100
AcDbEntity
  8
DRAFT
100
AcDbLine
 62
7
  6
CONTINUOUS
 10
-0.463653692
 20
5.7113271893
 11
-0.3938387496
 21
5.6415122469
  0
LINE
  5
3E5
100
AcDbEntity
  8
RACCORDO
100
AcDbLine
 62
253
  6
CONTINUOUS
 10
9.4062806669
 20
-4.138683322
 11
9.2265591393
 21
-3.9589617944
  0
LINE
  5
3E6
100
AcDbEntity
  8
DRAFT
100
AcDbLine
 62
7
  6
CONTINUOUS
 10
-0.2656493197
 20
5.6415122469
 11
-0.3117265215
 21
5.7113271893
  0
LINE
  5
3E7
100
AcDbEntity
  8
0
100
AcDbLine
 62
253
  6
CONTINUOUS
 10
-8.4635489804
 20
19.3113271893
 11
-9.0159088598
 21
20.2680789946
  0
LINE
  5
3E8
100
AcDbEntity
  8
0
100
AcDbLine
 62
7
  6
CONTINUOUS
 10
3.404407308
 20
-12.6848710501
 11
3.404407308
 21
-9.9924745714
  0
LINE
  5
3E9
100
AcDbEntity
  8
RACCORDO
100
AcDbLine
 62
253
  6
CONTINUOUS
 10
3.5915439415
 20
-22.9921301722
 11
3.5915439415
 21
-21.5688578684
  0
LINE
  5
3EA
100
AcDbEntity
  8
RACCORDO
100
AcDbLine
 62
253
  6
CONTINUOUS
 10
3.5915439415
 20
23.0915122469
 11
3.5915439415
 21
24.5147845508
  0
LINE
  5
3EB
100
AcDbEntity
  8
RACCORDO
100
AcDbLine
 62
7
  6
CONTINUOUS
 10
3.636346308
 20
19.0613271893
 11
3.636346308
 21
18.81131767
  0
LINE
  5
3EC
100
AcDbEntity
  8
RACCORDO
100
AcDbLine
 62
7
  6
CONTINUOUS
 10
3.636346308
 20
10.4013271893
 11
3.636346308
 21
10.7113367085
  0
LINE
  5
3ED
100
AcDbEntity
  8
RACCORDO
100
AcDbLine
 62
7
  6
CONTINUOUS
 10
3.7253603595
 20
19.1200756215
 11
3.7253603595
 21
19.08845044
  0
LINE
  5
3EE
100
AcDbEntity
  8
RACCORDO
100
AcDbLine
 62
7
  6
CONTINUOUS
 10
3.7253603595
 20
10.1572682006
 11
3.7253603595
 21
9.8454502888
  0
LINE
  5
3EF
100
AcDbEntity
  8
RACCORDO
100
AcDbLine
 62
253
  6
CONTINUOUS
 10
3.8915388645
 20
-22.9938653672
 11
3.8915388645
 21
-21.5714606976
  0
LINE
  5
3F0
100
AcDbEntity
  8
RACCORDO
100
AcDbLine
 62
253
  6
CONTINUOUS
 10
3.8915388645
 20
23.0941150761
 11
3.8915388645
 21
24.5165197458
  0
LINE
  5
3F1
100
AcDbEntity
  8
DRAFT
100
AcDbLine
 62
7
  6
CONTINUOUS
 10
3.936346308
 20
-23.0386728107
 11
3.936346308
 21
-21.6386728107
  0
LINE
  5
3F2
100
AcDbEntity
  8
DRAFT
100
AcDbLine
 62
7
  6
CONTINUOUS
 10
3.936346308
 20
23.1613271893
 11
3.936346308
 21
24.5613271893
  0
LINE
  5
3F3
100
AcDbEntity
  8
DRAFT
100
AcDbLine
 62
7
  6
CONTINUOUS
 10
4.536346308
 20
16.7916495286
 11
4.536346308
 21
12.0406233744
  0
LINE
  5
3F4
100
AcDbEntity
  8
RACCORDO
100
AcDbLine
 62
7
  6
CONTINUOUS
 10
4.5473322566
 20
9.8454502888
 11
4.5473322566
 21
10.1572682006
  0
LINE
  5
3F5
100
AcDbEntity
  8
RACCORDO
100
AcDbLine
 62
7
  6
CONTINUOUS
 10
4.5473322566
 20
19.08845044
 11
4.5473322566
 21
19.1200756215
  0
LINE
  5
3F6
100
AcDbEntity
  8
RACCORDO
100
AcDbLine
 62
7
  6
CONTINUOUS
 10
4.636346308
 20
19.0613271893
 11
4.636346308
 21
18.81131767
  0
LINE
  5
3F7
100
AcDbEntity
  8
RACCORDO
100
AcDbLine
 62
7
  6
CONTINUOUS
 10
4.636346308
 20
10.4013271893
 11
4.636346308
 21
10.7113367085
  0
LINE
  5
3F8
100
AcDbEntity
  8
0
100
AcDbLine
 62
7
  6
CONTINUOUS
 10
1.7315499209
 20
-12.9314493209
 11
1.7159544331
 21
-12.9930820883
  0
LINE
  5
3F9
100
AcDbEntity
  8
0
100
AcDbLine
 62
7
  6
CONTINUOUS
 10
1.8456712081
 20
-12.960326446
 11
1.8286237509
 21
-13.0276973408
  0
LINE
  5
3FA
100
AcDbEntity
  8
DRAFT
100
AcDbLine
 62
7
  6
CONTINUOUS
 10
-2.955258452
 20
-7.2205258782
 11
-2.9637584035
 21
-7.2290258297
  0
LINE
  5
3FB
100
AcDbEntity
  8
DRAFT
100
AcDbLine
 62
7
  6
CONTINUOUS
 10
-2.955258452
 20
-7.2099078895
 11
-2.9111877697
 21
-7.180527849
  0
LINE
  5
3FC
100
AcDbEntity
  8
DRAFT
100
AcDbLine
 62
7
  6
CONTINUOUS
 10
-0.2656493197
 20
5.6415122469
 11
-0.3938387496
 21
5.6415122469
  0
LINE
  5
3FD
100
AcDbEntity
  8
DRAFT
100
AcDbLine
 62
7
  6
CONTINUOUS
 10
-0.3117265215
 20
5.7113271893
 11
-0.463653692
 21
5.7113271893
  0
LINE
  5
3FE
100
AcDbEntity
  8
RACCORDO
100
AcDbLine
 62
253
  6
CONTINUOUS
 10
-6.2071597066
 20
11.0705514786
 11
-5.9636537311
 21
10.8965775561
  0
LINE
  5
3FF
100
AcDbEntity
  8
RACCORDO
100
AcDbLine
 62
253
  6
CONTINUOUS
 10
-10.859889302
 20
14.4669963202
 11
-11.0995192519
 21
14.6462713244
  0
LINE
  5
400
100
AcDbEntity
  8
DRAFT
100
AcDbLine
 62
7
  6
CONTINUOUS
 10
-1.463653692
 20
8.8113271893
 11
-1.4514360771
 21
8.7991095744
  0
LINE
  5
401
100
AcDbEntity
  8
DRAFT
100
AcDbLine
 62
7
  6
CONTINUOUS
 10
-1.063653692
 20
8.7991095744
 11
-1.0060563646
 21
8.7415122469
  0
LINE
  5
402
100
AcDbEntity
  8
DRAFT
100
AcDbLine
 62
7
  6
CONTINUOUS
 10
-0.2656493197
 20
8.7415122469
 11
-0.3117265215
 21
8.8113271893
  0
LINE
  5
403
100
AcDbEntity
  8
DRAFT
100
AcDbLine
 62
7
  6
CONTINUOUS
 10
8.086346308
 20
-4.6386728107
 11
8.0165313657
 21
-4.4990322913
  0
LINE
  5
404
100
AcDbEntity
  8
0
100
AcDbLine
 62
253
  6
CONTINUOUS
 10
7.5139530957
 20
-13.0142410175
 11
7.5543653136
 21
-13.1739485479
  0
LINE
  5
405
100
AcDbEntity
  8
0
100
AcDbLine
 62
7
  6
CONTINUOUS
 10
7.7848948558
 20
-13.1890400846
 11
7.727021408
 21
-12.960326446
  0
LINE
  5
406
100
AcDbEntity
  8
0
100
AcDbLine
 62
7
  6
CONTINUOUS
 10
7.8411426952
 20
-12.9314493209
 11
7.9052395983
 21
-13.1847578156
  0
LINE
  5
407
100
AcDbEntity
  8
0
100
AcDbLine
 62
7
  6
CONTINUOUS
 10
8.0817829428
 20
-18.6573416325
 11
8.0886014759
 21
-18.7454246161
  0
LINE
  5
408
100
AcDbEntity
  8
DRAFT
100
AcDbLine
 62
7
  6
CONTINUOUS
 10
5.1973254769
 20
20.5723063581
 11
5.1973254769
 21
20.3723063581
  0
LINE
  5
409
100
AcDbEntity
  8
DRAFT
100
AcDbLine
 62
7
  6
CONTINUOUS
 10
5.1973254769
 20
-19.0496519796
 11
5.1973254769
 21
-18.8496519796
  0
LINE
  5
40A
100
AcDbEntity
  8
DRAFT
100
AcDbLine
 62
7
  6
CONTINUOUS
 10
5.286346308
 20
-18.9386728107
 11
5.286346308
 21
-19.1386728107
  0
LINE
  5
40B
100
AcDbEntity
  8
DRAFT
100
AcDbLine
 62
7
  6
CONTINUOUS
 10
5.286346308
 20
20.4613271893
 11
5.286346308
 21
20.6613271893
  0
LINE
  5
40C
100
AcDbEntity
  8
RACCORDO
100
AcDbLine
 62
7
  6
CONTINUOUS
 10
5.586346308
 20
20.8459778068
 11
5.586346308
 21
20.7613271893
  0
LINE
  5
40D
100
AcDbEntity
  8
RACCORDO
100
AcDbLine
 62
7
  6
CONTINUOUS
 10
5.586346308
 20
-19.2386728107
 11
5.586346308
 21
-19.3233234283
  0
LINE
  5
40E
100
AcDbEntity
  8
RACCORDO
100
AcDbLine
 62
253
  6
CONTINUOUS
 10
5.886346308
 20
20.8485958672
 11
5.886346308
 21
20.4613271893
  0
LINE
  5
40F
100
AcDbEntity
  8
RACCORDO
100
AcDbLine
 62
253
  6
CONTINUOUS
 10
5.886346308
 20
-19.3259414886
 11
5.886346308
 21
-18.9386728107
  0
LINE
  5
410
100
AcDbEntity
  8
0
100
AcDbLine
 62
7
  6
CONTINUOUS
 10
6.168285308
 20
-12.2353506117
 11
6.168285308
 21
-10.4419950098
  0
LINE
  5
411
100
AcDbEntity
  8
DRAFT
100
AcDbLine
 62
7
  6
CONTINUOUS
 10
6.386346308
 20
-6.2386728107
 11
6.386346308
 21
-4.6386728107
  0
LINE
  5
412
100
AcDbEntity
  8
RACCORDO
100
AcDbLine
 62
253
  6
CONTINUOUS
 10
6.3940428883
 20
16.7916495286
 11
6.3940419295
 21
16.8854777762
  0
LINE
  5
413
100
AcDbEntity
  8
DRAFT
100
AcDbLine
 62
7
  6
CONTINUOUS
 10
6.3985639229
 20
-6.2264551958
 11
6.3985639229
 21
-5.4386728107
  0
LINE
  5
414
100
AcDbEntity
  8
DRAFT
100
AcDbLine
 62
7
  6
CONTINUOUS
 10
6.4203510589
 20
12.6655205106
 11
6.4203510589
 21
16.7915724813
  0
LINE
  5
415
100
AcDbEntity
  8
RACCORDO
100
AcDbLine
 62
253
  6
CONTINUOUS
 10
6.4516842669
 20
21.6613271893
 11
6.4516842669
 21
20.4613271893
  0
LINE
  5
416
100
AcDbEntity
  8
RACCORDO
100
AcDbLine
 62
253
  6
CONTINUOUS
 10
6.4516842669
 20
-20.1386728107
 11
6.4516842669
 21
-18.9386728107
  0
LINE
  5
417
100
AcDbEntity
  8
DRAFT
100
AcDbLine
 62
7
  6
CONTINUOUS
 10
6.4561612504
 20
-4.4990322913
 11
6.4561612504
 21
-5.3810754833
  0
LINE
  5
418
100
AcDbEntity
  8
0
100
AcDbLine
 62
7
  6
CONTINUOUS
 10
6.536346308
 20
-9.9749260442
 11
6.536346308
 21
-12.7024195772
  0
LINE
  5
419
100
AcDbEntity
  8
SMUSSO
100
AcDbLine
 62
7
  6
CONTINUOUS
 10
6.536346308
 20
12.7992987629
 11
6.536346308
 21
16.7233556156
  0
LINE
  5
41A
100
AcDbEntity
  8
RACCORDO
100
AcDbLine
 62
7
  6
CONTINUOUS
 10
6.736346308
 20
-5.6386728107
 11
6.736346308
 21
-5.8886728107
  0
LINE
  5
41B
100
AcDbEntity
  8
RACCORDO
100
AcDbLine
 62
253
  6
CONTINUOUS
 10
6.7516728439
 20
21.6613271893
 11
6.7516728439
 21
20.7613271893
  0
LINE
  5
41C
100
AcDbEntity
  8
RACCORDO
100
AcDbLine
 62
253
  6
CONTINUOUS
 10
6.7516728439
 20
-19.2386728107
 11
6.7516728439
 21
-20.1386728107
  0
LINE
  5
41D
100
AcDbEntity
  8
RACCORDO
100
AcDbLine
 62
7
  6
CONTINUOUS
 10
6.836346308
 20
21.6613271893
 11
6.836346308
 21
20.7613271893
  0
LINE
  5
41E
100
AcDbEntity
  8
RACCORDO
100
AcDbLine
 62
7
  6
CONTINUOUS
 10
6.836346308
 20
-19.2386728107
 11
6.836346308
 21
-20.1386728107
  0
LINE
  5
41F
100
AcDbEntity
  8
DRAFT
100
AcDbLine
 62
7
  6
CONTINUOUS
 10
6.8439436354
 20
-5.4810754833
 11
6.8439436354
 21
-5.3810754833
  0
LINE
  5
420
100
AcDbEntity
  8
0
100
AcDbLine
 62
253
  6
CONTINUOUS
 10
2.0587395204
 20
-13.0142410175
 11
2.0441832374
 21
-13.0717668877
  0
LINE
  5
421
100
AcDbEntity
  8
RACCORDO
100
AcDbLine
 62
253
  6
CONTINUOUS
 10
-1.4807279716
 20
-8.6058232428
 11
-1.6243164533
 21
-8.7494117245
  0
LINE
  5
422
100
AcDbEntity
  8
RACCORDO
100
AcDbLine
 62
253
  6
CONTINUOUS
 10
-10.8304096059
 20
-18.2425434389
 11
-10.1234105205
 21
-17.5355443535
  0
LINE
  5
423
100
AcDbEntity
  8
RACCORDO
100
AcDbLine
 62
253
  6
CONTINUOUS
 10
-0.980804124
 20
-9.1057470904
 11
-1.1243926058
 21
-9.2493355721
  0
LINE
  5
424
100
AcDbEntity
  8
DRAFT
100
AcDbLine
 62
7
  6
CONTINUOUS
 10
-1.463653692
 20
7.1113271893
 11
-0.3117265215
 21
7.1113271893
  0
LINE
  5
425
100
AcDbEntity
  8
DRAFT
100
AcDbLine
 62
7
  6
CONTINUOUS
 10
-1.4514360771
 20
7.1235448042
 11
-1.063653692
 21
7.1235448042
  0
LINE
  5
426
100
AcDbEntity
  8
DRAFT
100
AcDbLine
 62
7
  6
CONTINUOUS
 10
-1.0060563646
 20
7.1811421316
 11
-0.2656493197
 21
7.1811421316
  0
LINE
  5
427
100
AcDbEntity
  8
0
100
AcDbLine
 62
7
  6
CONTINUOUS
 10
-1.213653692
 20
7.2159610329
 11
-1.4514360771
 21
7.2159610329
  0
LINE
  5
428
100
AcDbEntity
  8
0
100
AcDbLine
 62
7
  6
CONTINUOUS
 10
-1.4514360771
 20
7.4159610329
 11
-1.213653692
 21
7.4159610329
  0
LINE
  5
429
100
AcDbEntity
  8
RACCORDO
100
AcDbLine
 62
253
  6
CONTINUOUS
 10
-6.4656408209
 20
11.4015536249
 11
-6.2146473224
 21
11.2385680516
  0
LINE
  5
42A
100
AcDbEntity
  8
RACCORDO
100
AcDbLine
 62
253
  6
CONTINUOUS
 10
-9.9540963907
 20
18.9880665232
 11
-10.6610954761
 21
19.6950656086
  0
LINE
  5
42B
100
AcDbEntity
  8
RACCORDO
100
AcDbLine
 62
7
  6
CONTINUOUS
 10
7.8414369091
 20
-22.8665040271
 11
7.8370735368
 21
-22.4334913252
  0
LINE
  5
42C
100
AcDbEntity
  8
DRAFT
100
AcDbLine
 62
7
  6
CONTINUOUS
 10
6.936346308
 20
-20.0031429926
 11
6.936346308
 21
-18.9386728107
  0
LINE
  5
42D
100
AcDbEntity
  8
DRAFT
100
AcDbLine
 62
7
  6
CONTINUOUS
 10
6.936346308
 20
20.4613271893
 11
6.936346308
 21
21.5257973711
  0
LINE
  5
42E
100
AcDbEntity
  8
DRAFT
100
AcDbLine
 62
7
  6
CONTINUOUS
 10
7.0253671392
 20
21.43677654
 11
7.0253671392
 21
20.3723063581
  0
LINE
  5
42F
100
AcDbEntity
  8
DRAFT
100
AcDbLine
 62
7
  6
CONTINUOUS
 10
7.0253671392
 20
-18.8496519796
 11
7.0253671392
 21
-19.9141221614
  0
LINE
  5
430
100
AcDbEntity
  8
RACCORDO
100
AcDbLine
 62
253
  6
CONTINUOUS
 10
7.0898996986
 20
15.7023402666
 11
7.0898996986
 21
13.8203141119
  0
LINE
  5
431
100
AcDbEntity
  8
DRAFT
100
AcDbLine
 62
7
  6
CONTINUOUS
 10
7.236346308
 20
-5.8886728107
 11
7.236346308
 21
-5.6386728107
  0
LINE
  5
432
100
AcDbEntity
  8
RACCORDO
100
AcDbLine
 62
253
  6
CONTINUOUS
 10
7.3169864798
 20
-20.5513660544
 11
7.3169864798
 21
-20.1387185022
  0
LINE
  5
433
100
AcDbEntity
  8
RACCORDO
100
AcDbLine
 62
253
  6
CONTINUOUS
 10
7.3169864798
 20
21.6613728807
 11
7.3169864798
 21
22.074020433
  0
LINE
  5
434
100
AcDbEntity
  8
0
100
AcDbLine
 62
253
  6
CONTINUOUS
 10
7.5362415965
 20
-17.3290258297
 11
7.5362415965
 21
-17.7886728107
  0
LINE
  5
435
100
AcDbEntity
  8
DRAFT
100
AcDbLine
 62
7
  6
CONTINUOUS
 10
7.536346308
 20
-5.8886728107
 11
7.536346308
 21
-5.6386728107
  0
LINE
  5
436
100
AcDbEntity
  8
DRAFT
100
AcDbLine
 62
7
  6
CONTINUOUS
 10
7.544741548
 20
-17.3205258782
 11
7.544741548
 21
-17.3099078895
  0
LINE
  5
437
100
AcDbEntity
  8
DRAFT
100
AcDbLine
 62
7
  6
CONTINUOUS
 10
7.5888122303
 20
-17.6574939373
 11
7.5888122303
 21
-17.280527849
  0
LINE
  5
438
100
AcDbEntity
  8
RACCORDO
100
AcDbLine
 62
253
  6
CONTINUOUS
 10
7.6169407884
 20
-20.6837685702
 11
7.6169407884
 21
-20.4386728107
  0
LINE
  5
439
100
AcDbEntity
  8
RACCORDO
100
AcDbLine
 62
253
  6
CONTINUOUS
 10
7.6169407884
 20
21.9613271893
 11
7.6169407884
 21
22.2064229488
  0
LINE
  5
43A
100
AcDbEntity
  8
DRAFT
100
AcDbLine
 62
7
  6
CONTINUOUS
 10
7.7287489806
 20
-5.3810754833
 11
7.7287489806
 21
-5.4810754833
  0
LINE
  5
43B
100
AcDbEntity
  8
RACCORDO
100
AcDbLine
 62
7
  6
CONTINUOUS
 10
7.786346308
 20
22.0370174291
 11
7.786346308
 21
21.9613271893
  0
LINE
  5
43C
100
AcDbEntity
  8
RACCORDO
100
AcDbLine
 62
7
  6
CONTINUOUS
 10
7.786346308
 20
-20.4386728107
 11
7.786346308
 21
-20.5143630506
  0
LINE
  5
43D
100
AcDbEntity
  8
RACCORDO
100
AcDbLine
 62
7
  6
CONTINUOUS
 10
7.836346308
 20
-21.6386728107
 11
7.836346308
 21
-23.6386728107
  0
LINE
  5
43E
100
AcDbEntity
  8
RACCORDO
100
AcDbLine
 62
7
  6
CONTINUOUS
 10
7.836346308
 20
23.1613271893
 11
7.836346308
 21
25.1613271893
  0
LINE
  5
43F
100
AcDbEntity
  8
RACCORDO
100
AcDbLine
 62
7
  6
CONTINUOUS
 10
7.8421641378
 20
24.9069595861
 11
7.8421641378
 21
24.6056647566
  0
LINE
  5
440
100
AcDbEntity
  8
RACCORDO
100
AcDbLine
 62
7
  6
CONTINUOUS
 10
7.8421641378
 20
-23.083010378
 11
7.8421641378
 21
-23.3843052075
  0
LINE
  5
441
100
AcDbEntity
  8
RACCORDO
100
AcDbLine
 62
7
  6
CONTINUOUS
 10
7.936346308
 20
15.0113367085
 11
7.936346308
 21
14.51131767
  0
LINE
  5
442
100
AcDbEntity
  8
RACCORDO
100
AcDbLine
 62
7
  6
CONTINUOUS
 10
7.9894057373
 20
14.9582772792
 11
7.9894057373
 21
14.5643770993
  0
LINE
  5
443
100
AcDbEntity
  8
DRAFT
100
AcDbLine
 62
7
  6
CONTINUOUS
 10
8.0165313657
 20
-4.4990322913
 11
8.0165313657
 21
-5.3810754833
  0
LINE
  5
444
100
AcDbEntity
  8
DRAFT
100
AcDbLine
 62
7
  6
CONTINUOUS
 10
8.0741286931
 20
-6.2264551958
 11
8.0741286931
 21
-5.4386728107
  0
LINE
  5
445
100
AcDbEntity
  8
DRAFT
100
AcDbLine
 62
7
  6
CONTINUOUS
 10
8.086346308
 20
-6.2386728107
 11
8.086346308
 21
-4.6386728107
  0
LINE
  5
446
100
AcDbEntity
  8
0
100
AcDbLine
 62
7
  6
CONTINUOUS
 10
8.1845730354
 20
-12.8886728107
 11
8.1845730354
 21
-13.1451911619
  0
LINE
  5
447
100
AcDbEntity
  8
RACCORDO
100
AcDbLine
 62
253
  6
CONTINUOUS
 10
8.6563670409
 20
14.7757886536
 11
8.6563670409
 21
15.2024978498
  0
LINE
  5
448
100
AcDbEntity
  8
RACCORDO
100
AcDbLine
 62
253
  6
CONTINUOUS
 10
8.7178559762
 20
10.3454419956
 11
8.7178559762
 21
9.8454502888
  0
LINE
  5
449
100
AcDbEntity
  8
RACCORDO
100
AcDbLine
 62
253
  6
CONTINUOUS
 10
8.6563670409
 20
14.746865725
 11
8.6563670409
 21
14.3201565287
  0
LINE
  5
44A
100
AcDbEntity
  8
RACCORDO
100
AcDbLine
 62
7
  6
CONTINUOUS
 10
7.8370735368
 20
23.9561457037
 11
7.8414369091
 21
24.3891584056
  0
LINE
  5
44B
100
AcDbEntity
  8
DRAFT
100
AcDbLine
 62
7
  6
CONTINUOUS
 10
6.386346308
 20
-4.6386728107
 11
6.4561612504
 21
-4.4990322913
  0
LINE
  5
44C
100
AcDbEntity
  8
RACCORDO
100
AcDbLine
 62
7
  6
CONTINUOUS
 10
-4.863653692
 20
-21.6386728107
 11
-4.8188462485
 21
-21.5714606976
  0
LINE
  5
44D
100
AcDbEntity
  8
0
100
AcDbLine
 62
7
  6
CONTINUOUS
 10
-1.4514360771
 20
8.2159610329
 11
-1.213653692
 21
8.2159610329
  0
LINE
  5
44E
100
AcDbEntity
  8
DRAFT
100
AcDbLine
 62
7
  6
CONTINUOUS
 10
-0.2656493197
 20
8.7415122469
 11
-1.0060563646
 21
8.7415122469
  0
LINE
  5
44F
100
AcDbEntity
  8
DRAFT
100
AcDbLine
 62
7
  6
CONTINUOUS
 10
-1.063653692
 20
8.7991095744
 11
-1.4514360771
 21
8.7991095744
  0
LINE
  5
450
100
AcDbEntity
  8
DRAFT
100
AcDbLine
 62
7
  6
CONTINUOUS
 10
-0.3117265215
 20
8.8113271893
 11
-1.463653692
 21
8.8113271893
  0
LINE
  5
451
100
AcDbEntity
  8
RACCORDO
100
AcDbLine
 62
253
  6
CONTINUOUS
 10
8.7178559762
 20
9.8454502888
 11
4.5473322566
 21
9.8454502888
  0
LINE
  5
452
100
AcDbEntity
  8
RACCORDO
100
AcDbLine
 62
253
  6
CONTINUOUS
 10
3.7253603595
 20
9.8454502888
 11
0.2504528212
 21
9.8454502888
  0
LINE
  5
453
100
AcDbEntity
  8
RACCORDO
100
AcDbLine
 62
253
  6
CONTINUOUS
 10
-5.4616665631
 20
14.3211007535
 11
-5.7126600617
 21
14.4840863268
  0
LINE
  5
454
100
AcDbEntity
  8
RACCORDO
100
AcDbLine
 62
253
  6
CONTINUOUS
 10
-5.9636537078
 20
14.8260768397
 11
-5.7201477374
 21
14.6521029406
  0
LINE
  5
455
100
AcDbEntity
  8
RACCORDO
100
AcDbLine
 62
7
  6
CONTINUOUS
 10
-4.863653692
 20
23.1613271893
 11
-4.8188462485
 21
23.0941150761
  0
LINE
  5
456
100
AcDbEntity
  8
DRAFT
100
AcDbLine
 62
7
  6
CONTINUOUS
 10
-0.193653692
 20
14.2613271893
 11
-0.2412233153
 21
14.3334034088
  0
LINE
  5
457
100
AcDbEntity
  8
RACCORDO
100
AcDbLine
 62
7
  6
CONTINUOUS
 10
10.1356190793
 20
23.9561457037
 11
10.1312557069
 21
24.3891584056
  0
LINE
  5
458
100
AcDbEntity
  8
0
100
AcDbLine
 62
7
  6
CONTINUOUS
 10
8.786346308
 20
-12.8886728107
 11
8.786346308
 21
-9.7823824248
  0
LINE
  5
459
100
AcDbEntity
  8
RACCORDO
100
AcDbLine
 62
253
  6
CONTINUOUS
 10
8.8564677494
 20
-12.8476051379
 11
8.8564677494
 21
-10.061079879
  0
LINE
  5
45A
100
AcDbEntity
  8
RACCORDO
100
AcDbLine
 62
7
  6
CONTINUOUS
 10
9.048517477
 20
10.9012852227
 11
9.048517477
 21
14.2613271893
  0
LINE
  5
45B
100
AcDbEntity
  8
RACCORDO
100
AcDbLine
 62
7
  6
CONTINUOUS
 10
9.048517477
 20
15.2613271893
 11
9.048517477
 21
18.5613691558
  0
LINE
  5
45C
100
AcDbEntity
  8
RACCORDO
100
AcDbLine
 62
7
  6
CONTINUOUS
 10
9.2265591393
 20
14.7757886536
 11
9.2265591393
 21
14.746865725
  0
LINE
  5
45D
100
AcDbEntity
  8
RACCORDO
100
AcDbLine
 62
7
  6
CONTINUOUS
 10
9.2265591393
 20
-3.9589617944
 11
9.2265591389
 21
9.9844730974
  0
LINE
  5
45E
100
AcDbEntity
  8
0
100
AcDbLine
 62
7
  6
CONTINUOUS
 10
9.286346308
 20
21.5113271893
 11
9.286346308
 21
20.6613271893
  0
LINE
  5
45F
100
AcDbEntity
  8
ASSI
100
AcDbLine
 62
7
  6
CONTINUOUS
 10
9.286346308
 20
-19.1386728107
 11
9.286346308
 21
-19.9886728107
  0
LINE
  5
460
100
AcDbEntity
  8
RACCORDO
100
AcDbLine
 62
253
  6
CONTINUOUS
 10
9.3196350085
 20
-14.3393845176
 11
9.3196376165
 21
-16.7584130592
  0
LINE
  5
461
100
AcDbEntity
  8
RACCORDO
100
AcDbLine
 62
253
  6
CONTINUOUS
 10
9.3196350108
 20
-8.337961105
 11
9.3196376165
 21
-4.4201537081
  0
LINE
  5
462
100
AcDbEntity
  8
RACCORDO
100
AcDbLine
 62
7
  6
CONTINUOUS
 10
9.4062806668
 20
18.2810674378
 11
9.4062806669
 21
-4.138683322
  0
LINE
  5
463
100
AcDbEntity
  8
RACCORDO
100
AcDbLine
 62
253
  6
CONTINUOUS
 10
9.9726155708
 20
-12.8070878468
 11
9.9726155708
 21
-12.5512018663
  0
LINE
  5
464
100
AcDbEntity
  8
RACCORDO
100
AcDbLine
 62
253
  6
CONTINUOUS
 10
9.9726155708
 20
-10.1261437552
 11
9.9726155708
 21
-9.8702575797
  0
LINE
  5
465
100
AcDbEntity
  8
RACCORDO
100
AcDbLine
 62
7
  6
CONTINUOUS
 10
10.1305284782
 20
-23.3843052075
 11
10.1305284782
 21
-23.083010378
  0
LINE
  5
466
100
AcDbEntity
  8
RACCORDO
100
AcDbLine
 62
7
  6
CONTINUOUS
 10
10.1305284782
 20
24.6056647566
 11
10.1305284782
 21
24.9069595861
  0
LINE
  5
467
100
AcDbEntity
  8
RACCORDO
100
AcDbLine
 62
7
  6
CONTINUOUS
 10
10.136346308
 20
-21.6386728107
 11
10.136346308
 21
-23.6386728107
  0
LINE
  5
468
100
AcDbEntity
  8
RACCORDO
100
AcDbLine
 62
7
  6
CONTINUOUS
 10
10.136346308
 20
23.1613271893
 11
10.136346308
 21
25.1613271893
  0
LINE
  5
469
100
AcDbEntity
  8
RACCORDO
100
AcDbLine
 62
253
  6
CONTINUOUS
 10
10.2725698794
 20
-12.8070878468
 11
10.2725698794
 21
-12.6264757783
  0
LINE
  5
46A
100
AcDbEntity
  8
RACCORDO
100
AcDbLine
 62
253
  6
CONTINUOUS
 10
10.2725698794
 20
-10.0508698432
 11
10.2725698794
 21
-9.8702575798
  0
LINE
  5
46B
100
AcDbEntity
  8
RACCORDO
100
AcDbLine
 62
253
  6
CONTINUOUS
 10
10.3194853116
 20
18.2810674378
 11
10.3194853116
 21
-9.626507797
  0
LINE
  5
46C
100
AcDbEntity
  8
RACCORDO
100
AcDbLine
 62
253
  6
CONTINUOUS
 10
10.3194853116
 20
-13.0508377583
 11
10.3194853116
 21
-16.7584130592
  0
LINE
  5
46D
100
AcDbEntity
  8
RACCORDO
100
AcDbLine
 62
253
  6
CONTINUOUS
 10
10.336346308
 20
23.1613271893
 11
10.336346308
 21
23.1526003215
  0
LINE
  5
46E
100
AcDbEntity
  8
RACCORDO
100
AcDbLine
 62
253
  6
CONTINUOUS
 10
10.336346308
 20
-21.6299459429
 11
10.336346308
 21
-21.6386728107
  0
LINE
  5
46F
100
AcDbEntity
  8
RACCORDO
100
AcDbLine
 62
7
  6
CONTINUOUS
 10
9.0649532173
 20
-12.6755944587
 11
9.0705566776
 21
-10.061079879
  0
LINE
  5
470
100
AcDbEntity
  8
RACCORDO
100
AcDbLine
 62
7
  6
CONTINUOUS
 10
10.1312557069
 20
-22.8665040271
 11
10.1356190793
 21
-22.4334913252
  0
LINE
  5
471
100
AcDbEntity
  8
RACCORDO
100
AcDbLine
 62
253
  6
CONTINUOUS
 10
0.2204036124
 20
-13.6101835023
 11
0.0190435711
 21
-13.8315795205
  0
LINE
  5
472
100
AcDbEntity
  8
DRAFT
100
AcDbLine
 62
7
  6
CONTINUOUS
 10
6.3985639229
 20
-5.4386728107
 11
6.4561612504
 21
-5.3810754833
  0
LINE
  5
473
100
AcDbEntity
  8
DRAFT
100
AcDbLine
 62
7
  6
CONTINUOUS
 10
-7.9491835101
 20
-20.0886728107
 11
-7.863653692
 21
-20.0031429926
  0
LINE
  5
474
100
AcDbEntity
  8
RACCORDO
100
AcDbLine
 62
7
  6
CONTINUOUS
 10
-11.063653692
 20
-23.6386728107
 11
-11.059281858
 21
-23.6343009767
  0
LINE
  5
475
100
AcDbEntity
  8
DRAFT
100
AcDbLine
 62
7
  6
CONTINUOUS
 10
6.3985639229
 20
-6.2264551958
 11
6.386346308
 21
-6.2386728107
  0
LINE
  5
476
100
AcDbEntity
  8
DRAFT
100
AcDbLine
 62
7
  6
CONTINUOUS
 10
-6.213653692
 20
-18.9386728107
 11
-6.1246328608
 21
-18.8496519796
  0
LINE
  5
477
100
AcDbEntity
  8
DRAFT
100
AcDbLine
 62
7
  6
CONTINUOUS
 10
-6.213653692
 20
-19.1386728107
 11
-6.1246328608
 21
-19.0496519796
  0
LINE
  5
478
100
AcDbEntity
  8
RACCORDO
100
AcDbLine
 62
253
  6
CONTINUOUS
 10
4.5473322566
 20
10.1572682006
 11
3.7253603595
 21
10.1572682006
  0
LINE
  5
479
100
AcDbEntity
  8
RACCORDO
100
AcDbLine
 62
253
  6
CONTINUOUS
 10
8.7178559762
 20
10.3454419956
 11
4.551670559
 21
10.3454419956
  0
LINE
  5
47A
100
AcDbEntity
  8
RACCORDO
100
AcDbLine
 62
253
  6
CONTINUOUS
 10
3.721022057
 20
10.3454419956
 11
0.2504528212
 21
10.3454419956
  0
LINE
  5
47B
100
AcDbEntity
  8
RACCORDO
100
AcDbLine
 62
7
  6
CONTINUOUS
 10
0.3063380148
 20
10.4013271893
 11
3.636346308
 21
10.4013271893
  0
LINE
  5
47C
100
AcDbEntity
  8
RACCORDO
100
AcDbLine
 62
7
  6
CONTINUOUS
 10
4.636346308
 20
10.4013271893
 11
8.5484915797
 21
10.4013271893
  0
LINE
  5
47D
100
AcDbEntity
  8
RACCORDO
100
AcDbLine
 62
253
  6
CONTINUOUS
 10
4.5497777384
 20
10.6572491621
 11
3.7229148777
 21
10.6572491621
  0
LINE
  5
47E
100
AcDbEntity
  8
RACCORDO
100
AcDbLine
 62
7
  6
CONTINUOUS
 10
4.5794871665
 20
10.6869585903
 11
3.6932054495
 21
10.6869585903
  0
LINE
  5
47F
100
AcDbEntity
  8
RACCORDO
100
AcDbLine
 62
7
  6
CONTINUOUS
 10
4.5781479217
 20
10.6963479222
 11
3.6945446943
 21
10.6963479222
  0
LINE
  5
480
100
AcDbEntity
  8
RACCORDO
100
AcDbLine
 62
7
  6
CONTINUOUS
 10
4.3332091326
 20
10.9081804946
 11
3.9394834834
 21
10.9081804946
  0
LINE
  5
481
100
AcDbEntity
  8
RACCORDO
100
AcDbLine
 62
7
  6
CONTINUOUS
 10
4.3863558273
 20
10.9613271893
 11
3.8863367888
 21
10.9613271893
  0
LINE
  5
482
100
AcDbEntity
  8
RACCORDO
100
AcDbLine
 62
253
  6
CONTINUOUS
 10
-10.8999229548
 20
11.3761520116
 11
-11.1998772633
 21
11.3761520116
  0
LINE
  5
483
100
AcDbEntity
  8
DRAFT
100
AcDbLine
 62
253
  6
CONTINUOUS
 10
-9.7786300037
 20
11.6113271893
 11
-9.9978049241
 21
11.6113271893
  0
LINE
  5
484
100
AcDbEntity
  8
RACCORDO
100
AcDbLine
 62
253
  6
CONTINUOUS
 10
-0.3334018662
 20
11.7688349773
 11
-0.3127940832
 21
11.7610183565
  0
LINE
  5
485
100
AcDbEntity
  8
RACCORDO
100
AcDbLine
 62
7
  6
CONTINUOUS
 10
3.721022057
 20
10.3454419956
 11
3.636346308
 21
10.4013271893
  0
LINE
  5
486
100
AcDbEntity
  8
DRAFT
100
AcDbLine
 62
7
  6
CONTINUOUS
 10
-7.9491835101
 20
21.6113271893
 11
-7.863653692
 21
21.5257973711
  0
LINE
  5
487
100
AcDbEntity
  8
RACCORDO
100
AcDbLine
 62
7
  6
CONTINUOUS
 10
-11.063653692
 20
25.1613271893
 11
-11.059281858
 21
25.1569553553
  0
LINE
  5
488
100
AcDbEntity
  8
DRAFT
100
AcDbLine
 62
7
  6
CONTINUOUS
 10
-6.213653692
 20
20.4613271893
 11
-6.1246328608
 21
20.3723063581
  0
LINE
  5
489
100
AcDbEntity
  8
RACCORDO
100
AcDbLine
 62
253
  6
CONTINUOUS
 10
-0.0017201353
 20
14.3494031518
 11
0.0863558273
 21
14.2613271893
  0
LINE
  5
48A
100
AcDbEntity
  8
RACCORDO
100
AcDbLine
 62
253
  6
CONTINUOUS
 10
3.7225356556
 20
10.625147361
 11
3.636346308
 21
10.7113367085
  0
LINE
  5
48B
100
AcDbEntity
  8
RACCORDO
100
AcDbLine
 62
7
  6
CONTINUOUS
 10
0.0292146804
 20
14.3502409037
 11
0.061346308
 21
14.3181092761
  0
LINE
  5
48C
100
AcDbEntity
  8
RACCORDO
100
AcDbLine
 62
7
  6
CONTINUOUS
 10
3.6932054495
 20
10.6869585903
 11
3.7229148777
 21
10.6572491621
  0
LINE
  5
48D
100
AcDbEntity
  8
DRAFT
100
AcDbLine
 62
7
  6
CONTINUOUS
 10
-6.1246328608
 20
20.5723063581
 11
-6.213653692
 21
20.6613271893
  0
LINE
  5
48E
100
AcDbEntity
  8
RACCORDO
100
AcDbLine
 62
253
  6
CONTINUOUS
 10
0.2831996134
 20
14.5644643647
 11
0.336346308
 21
14.51131767
  0
LINE
  5
48F
100
AcDbEntity
  8
RACCORDO
100
AcDbLine
 62
253
  6
CONTINUOUS
 10
3.9394834834
 20
10.9081804946
 11
3.8863367888
 21
10.9613271893
  0
LINE
  5
490
100
AcDbEntity
  8
RACCORDO
100
AcDbLine
 62
7
  6
CONTINUOUS
 10
10.686346308
 20
22.802586994
 11
10.686346308
 21
-21.2799326155
  0
LINE
  5
491
100
AcDbEntity
  8
0
100
AcDbLine
 62
253
  6
CONTINUOUS
 10
2.0364510196
 20
-17.7886728107
 11
1.4840911402
 21
-18.7454246161
  0
LINE
  5
492
100
AcDbEntity
  8
RACCORDO
100
AcDbLine
 62
253
  6
CONTINUOUS
 10
-0.980804124
 20
-17.6574939373
 11
-1.1243926058
 21
-17.8010824191
  0
LINE
  5
493
100
AcDbEntity
  8
RACCORDO
100
AcDbLine
 62
253
  6
CONTINUOUS
 10
4.7921177343
 20
-9.564133471
 11
5.0363463048
 21
-9.3911754974
  0
LINE
  5
494
100
AcDbEntity
  8
RACCORDO
100
AcDbLine
 62
253
  6
CONTINUOUS
 10
4.5328235154
 20
-9.8949507813
 11
4.784584782
 21
-9.7331537825
  0
LINE
  5
495
100
AcDbEntity
  8
RACCORDO
100
AcDbLine
 62
253
  6
CONTINUOUS
 10
-11.613653692
 20
-16.9103718594
 11
-11.4161068254
 21
-16.8285452681
  0
LINE
  5
496
100
AcDbEntity
  8
RACCORDO
100
AcDbLine
 62
253
  6
CONTINUOUS
 10
-0.3321081493
 20
13.6196644164
 11
-0.6215229028
 21
13.5434990467
  0
LINE
  5
497
100
AcDbEntity
  8
RACCORDO
100
AcDbLine
 62
253
  6
CONTINUOUS
 10
-0.3215278788
 20
12.1791553318
 11
-0.6215229028
 21
12.1791553318
  0
LINE
  5
498
100
AcDbEntity
  8
RACCORDO
100
AcDbLine
 62
7
  6
CONTINUOUS
 10
6.2146431007
 20
12.4613271893
 11
5.736346308
 21
12.4613271893
  0
LINE
  5
499
100
AcDbEntity
  8
0
100
AcDbLine
 62
7
  6
CONTINUOUS
 10
-9.713653692
 20
13.4159610329
 11
-8.363653692
 21
13.4159610329
  0
LINE
  5
49A
100
AcDbEntity
  8
0
100
AcDbLine
 62
7
  6
CONTINUOUS
 10
-3.063653692
 20
13.4159610329
 11
-1.713653692
 21
13.4159610329
  0
LINE
  5
49B
100
AcDbEntity
  8
0
100
AcDbLine
 62
7
  6
CONTINUOUS
 10
-2.6588573048
 20
14.458737543
 11
-3.2593520912
 21
14.6106860838
  0
LINE
  5
49C
100
AcDbEntity
  8
RACCORDO
100
AcDbLine
 62
253
  6
CONTINUOUS
 10
-0.6215229028
 20
12.1791553318
 11
-0.3321081493
 21
12.1029899621
  0
LINE
  5
49D
100
AcDbEntity
  8
RACCORDO
100
AcDbLine
 62
253
  6
CONTINUOUS
 10
8.7178559762
 20
10.3454419956
 11
8.5484915797
 21
10.4013271893
  0
LINE
  5
49E
100
AcDbEntity
  8
RACCORDO
100
AcDbLine
 62
253
  6
CONTINUOUS
 10
9.2179839038
 20
10.8453663621
 11
9.048517477
 21
10.9012852227
  0
LINE
  5
49F
100
AcDbEntity
  8
RACCORDO
100
AcDbLine
 62
253
  6
CONTINUOUS
 10
-11.2467926956
 20
18.2810674378
 11
-11.613653692
 21
18.433026238
  0
LINE
  5
4A0
100
AcDbEntity
  8
DRAFT
100
AcDbLine
 62
7
  6
CONTINUOUS
 10
-2.955258452
 20
18.8431802567
 11
-2.9637584035
 21
18.8516802082
  0
LINE
  5
4A1
100
AcDbEntity
  8
RACCORDO
100
AcDbLine
 62
253
  6
CONTINUOUS
 10
9.1834654167
 20
-8.6044566087
 11
9.3196376165
 21
-8.3379623402
  0
LINE
  5
4A2
100
AcDbEntity
  8
RACCORDO
100
AcDbLine
 62
7
  6
CONTINUOUS
 10
-4.863653692
 20
-23.0386728107
 11
-4.8188462485
 21
-22.9938653672
  0
LINE
  5
4A3
100
AcDbEntity
  8
RACCORDO
100
AcDbLine
 62
253
  6
CONTINUOUS
 10
0.0190435711
 20
-18.6573416325
 11
-0.1245449106
 21
-18.8009301142
  0
LINE
  5
4A4
100
AcDbEntity
  8
RACCORDO
100
AcDbLine
 62
253
  6
CONTINUOUS
 10
-11.0279564725
 20
-18.3243700302
 11
-10.8304096059
 21
-18.2425434389
  0
LINE
  5
4A5
100
AcDbEntity
  8
RACCORDO
100
AcDbLine
 62
7
  6
CONTINUOUS
 10
8.6563670409
 20
14.3201565287
 11
8.2415777689
 21
14.3165681693
  0
LINE
  5
4A6
100
AcDbEntity
  8
RACCORDO
100
AcDbLine
 62
253
  6
CONTINUOUS
 10
-0.6215229028
 20
13.5434990467
 11
-0.3215278788
 21
13.5434990467
  0
LINE
  5
4A7
100
AcDbEntity
  8
0
100
AcDbLine
 62
253
  6
CONTINUOUS
 10
-8.363653692
 20
13.8659610329
 11
-7.463653692
 21
13.8659610329
  0
LINE
  5
4A8
100
AcDbEntity
  8
0
100
AcDbLine
 62
253
  6
CONTINUOUS
 10
-3.963653692
 20
13.8659610329
 11
-3.063653692
 21
13.8659610329
  0
LINE
  5
4A9
100
AcDbEntity
  8
0
100
AcDbLine
 62
253
  6
CONTINUOUS
 10
-8.363653692
 20
13.9159610329
 11
-7.463653692
 21
13.9159610329
  0
LINE
  5
4AA
100
AcDbEntity
  8
0
100
AcDbLine
 62
253
  6
CONTINUOUS
 10
-3.963653692
 20
13.9159610329
 11
-3.063653692
 21
13.9159610329
  0
LINE
  5
4AB
100
AcDbEntity
  8
RACCORDO
100
AcDbLine
 62
7
  6
CONTINUOUS
 10
9.048517477
 20
14.2613271893
 11
8.1863367888
 21
14.2613271893
  0
LINE
  5
4AC
100
AcDbEntity
  8
RACCORDO
100
AcDbLine
 62
7
  6
CONTINUOUS
 10
-0.193653692
 20
14.2613271893
 11
0.0863558273
 21
14.2613271893
  0
LINE
  5
4AD
100
AcDbEntity
  8
0
100
AcDbLine
 62
253
  6
CONTINUOUS
 10
-8.363653692
 20
14.3159610329
 11
-7.5708080431
 21
14.3159610329
  0
LINE
  5
4AE
100
AcDbEntity
  8
0
100
AcDbLine
 62
253
  6
CONTINUOUS
 10
-3.963653692
 20
14.3159610329
 11
-3.063653692
 21
14.3159610329
  0
LINE
  5
4AF
100
AcDbEntity
  8
RACCORDO
100
AcDbLine
 62
253
  6
CONTINUOUS
 10
-10.8999229548
 20
14.3465024603
 11
-11.1998772633
 21
14.3465024603
  0
LINE
  5
4B0
100
AcDbEntity
  8
RACCORDO
100
AcDbLine
 62
253
  6
CONTINUOUS
 10
8.6563700618
 20
14.3468809557
 11
9.2196380422
 21
14.3468809557
  0
LINE
  5
4B1
100
AcDbEntity
  8
RACCORDO
100
AcDbLine
 62
7
  6
CONTINUOUS
 10
-0.2412233153
 20
14.3503412407
 11
-0.1907769427
 21
14.3503412407
  0
LINE
  5
4B2
100
AcDbEntity
  8
0
100
AcDbLine
 62
7
  6
CONTINUOUS
 10
-9.7162372706
 20
14.4159610329
 11
-9.1118804193
 21
14.4159610329
  0
LINE
  5
4B3
100
AcDbEntity
  8
0
100
AcDbLine
 62
7
  6
CONTINUOUS
 10
-8.989622894
 20
14.4159610329
 11
-7.7110701127
 21
14.4159610329
  0
LINE
  5
4B4
100
AcDbEntity
  8
0
100
AcDbLine
 62
7
  6
CONTINUOUS
 10
-3.963653692
 20
14.4159610329
 11
-2.43768449
 21
14.4159610329
  0
LINE
  5
4B5
100
AcDbEntity
  8
RACCORDO
100
AcDbLine
 62
253
  6
CONTINUOUS
 10
8.6563670409
 20
14.746865725
 11
9.2265591393
 21
14.746865725
  0
LINE
  5
4B6
100
AcDbEntity
  8
RACCORDO
100
AcDbLine
 62
253
  6
CONTINUOUS
 10
9.2265591393
 20
14.7757886536
 11
8.6563670409
 21
14.7757886536
  0
LINE
  5
4B7
100
AcDbEntity
  8
RACCORDO
100
AcDbLine
 62
7
  6
CONTINUOUS
 10
-0.1907769427
 20
15.1723131378
 11
-0.2412233153
 21
15.1723131378
  0
LINE
  5
4B8
100
AcDbEntity
  8
RACCORDO
100
AcDbLine
 62
253
  6
CONTINUOUS
 10
9.2196380422
 20
15.1757734228
 11
8.6563670409
 21
15.1757734228
  0
LINE
  5
4B9
100
AcDbEntity
  8
RACCORDO
100
AcDbLine
 62
7
  6
CONTINUOUS
 10
-0.193653692
 20
15.2613271893
 11
0.0863558273
 21
15.2613271893
  0
LINE
  5
4BA
100
AcDbEntity
  8
RACCORDO
100
AcDbLine
 62
7
  6
CONTINUOUS
 10
8.1863367888
 20
15.2613271893
 11
9.048517477
 21
15.2613271893
  0
LINE
  5
4BB
100
AcDbEntity
  8
RACCORDO
100
AcDbLine
 62
7
  6
CONTINUOUS
 10
8.2415777689
 20
15.2060862092
 11
8.6563670409
 21
15.2024978498
  0
LINE
  5
4BC
100
AcDbEntity
  8
RACCORDO
100
AcDbLine
 62
253
  6
CONTINUOUS
 10
-10.6610954761
 20
19.6950656086
 11
-11.0279564725
 21
19.8470244088
  0
LINE
  5
4BD
100
AcDbEntity
  8
DRAFT
100
AcDbLine
 62
7
  6
CONTINUOUS
 10
-2.955258452
 20
18.8325622681
 11
-2.9111877697
 21
18.8031822275
  0
LINE
  5
4BE
100
AcDbEntity
  8
RACCORDO
100
AcDbLine
 62
253
  6
CONTINUOUS
 10
-0.193653692
 20
18.5613354825
 11
-0.3117265215
 21
18.679408312
  0
LINE
  5
4BF
100
AcDbEntity
  8
RACCORDO
100
AcDbLine
 62
253
  6
CONTINUOUS
 10
0.3063380148
 20
19.0613271893
 11
0.1882651853
 21
19.1794000188
  0
LINE
  5
4C0
100
AcDbEntity
  8
RACCORDO
100
AcDbLine
 62
7
  6
CONTINUOUS
 10
-4.863653692
 20
24.5613271893
 11
-4.8188462485
 21
24.5165197458
  0
LINE
  5
4C1
100
AcDbEntity
  8
RACCORDO
100
AcDbLine
 62
253
  6
CONTINUOUS
 10
9.9332283997
 20
-9.7506266989
 11
10.1738281005
 21
-9.5726553914
  0
LINE
  5
4C2
100
AcDbEntity
  8
RACCORDO
100
AcDbLine
 62
253
  6
CONTINUOUS
 10
5.2805748816
 20
-13.1132121343
 11
5.0363463104
 21
-13.2861701106
  0
LINE
  5
4C3
100
AcDbEntity
  8
RACCORDO
100
AcDbLine
 62
253
  6
CONTINUOUS
 10
5.539869105
 20
-12.7823948583
 11
5.2881078446
 21
-12.9441918545
  0
LINE
  5
4C4
100
AcDbEntity
  8
0
100
AcDbLine
 62
7
  6
CONTINUOUS
 10
-8.7684500791
 20
14.458737543
 11
-8.1361090055
 21
14.6187444333
  0
LINE
  5
4C5
100
AcDbEntity
  8
RACCORDO
100
AcDbLine
 62
7
  6
CONTINUOUS
 10
1.7939173418
 20
16.7916495286
 11
6.4055692126
 21
16.7916376366
  0
LINE
  5
4C6
100
AcDbEntity
  8
RACCORDO
100
AcDbLine
 62
7
  6
CONTINUOUS
 10
6.4055692126
 20
16.7916376366
 11
6.4448981959
 21
16.7914192947
  0
LINE
  5
4C7
100
AcDbEntity
  8
RACCORDO
100
AcDbLine
 62
253
  6
CONTINUOUS
 10
4.3332091326
 20
18.6144738839
 11
4.3863558273
 21
18.5613271893
  0
LINE
  5
4C8
100
AcDbEntity
  8
RACCORDO
100
AcDbLine
 62
253
  6
CONTINUOUS
 10
7.9894057373
 20
14.9582772792
 11
7.936346308
 21
15.0113367085
  0
LINE
  5
4C9
100
AcDbEntity
  8
RACCORDO
100
AcDbLine
 62
253
  6
CONTINUOUS
 10
2.2268541451
 20
17.2032432774
 11
6.045838471
 21
17.2032432774
  0
LINE
  5
4CA
100
AcDbEntity
  8
DRAFT
100
AcDbLine
 62
253
  6
CONTINUOUS
 10
10.3194853116
 20
18.2810674378
 11
9.4062806669
 21
18.2810674378
  0
LINE
  5
4CB
100
AcDbEntity
  8
RACCORDO
100
AcDbLine
 62
7
  6
CONTINUOUS
 10
3.8863367888
 20
18.5613271893
 11
4.3863558273
 21
18.5613271893
  0
LINE
  5
4CC
100
AcDbEntity
  8
RACCORDO
100
AcDbLine
 62
7
  6
CONTINUOUS
 10
3.9394834834
 20
18.6144738839
 11
4.3332091326
 21
18.6144738839
  0
LINE
  5
4CD
100
AcDbEntity
  8
DRAFT
100
AcDbLine
 62
7
  6
CONTINUOUS
 10
-8.5161196143
 20
18.8031822275
 11
-2.9111877697
 21
18.8031822275
  0
LINE
  5
4CE
100
AcDbEntity
  8
RACCORDO
100
AcDbLine
 62
7
  6
CONTINUOUS
 10
3.6945446943
 20
18.8263064563
 11
4.5781479217
 21
18.8263064563
  0
LINE
  5
4CF
100
AcDbEntity
  8
RACCORDO
100
AcDbLine
 62
7
  6
CONTINUOUS
 10
3.6931283948
 20
18.8363271893
 11
4.5795642212
 21
18.8363271893
  0
LINE
  5
4D0
100
AcDbEntity
  8
RACCORDO
100
AcDbLine
 62
253
  6
CONTINUOUS
 10
3.7252600225
 20
18.8684588169
 11
4.5474325936
 21
18.8684588169
  0
LINE
  5
4D1
100
AcDbEntity
  8
RACCORDO
100
AcDbLine
 62
7
  6
CONTINUOUS
 10
9.048517477
 20
15.2613271893
 11
9.2196380422
 21
15.1757734228
  0
LINE
  5
4D2
100
AcDbEntity
  8
DRAFT
100
AcDbLine
 62
7
  6
CONTINUOUS
 10
4.5473322566
 20
19.1200756215
 11
4.636346308
 21
19.0613271893
  0
LINE
  5
4D3
100
AcDbEntity
  8
RACCORDO
100
AcDbLine
 62
7
  6
CONTINUOUS
 10
4.5795642212
 20
18.8363271893
 11
4.5474325936
 21
18.8684588169
  0
LINE
  5
4D4
100
AcDbEntity
  8
RACCORDO
100
AcDbLine
 62
253
  6
CONTINUOUS
 10
4.5482703455
 20
18.8993936326
 11
4.636346308
 21
18.81131767
  0
LINE
  5
4D5
100
AcDbEntity
  8
RACCORDO
100
AcDbLine
 62
253
  6
CONTINUOUS
 10
8.2415777689
 20
15.2060862092
 11
8.1863367888
 21
15.2613271893
  0
LINE
  5
4D6
100
AcDbEntity
  8
DRAFT
100
AcDbLine
 62
7
  6
CONTINUOUS
 10
7.544741548
 20
-17.3205258782
 11
7.5362415965
 21
-17.3290258297
  0
LINE
  5
4D7
100
AcDbEntity
  8
DRAFT
100
AcDbLine
 62
7
  6
CONTINUOUS
 10
6.936346308
 20
-18.9386728107
 11
7.0253671392
 21
-18.8496519796
  0
LINE
  5
4D8
100
AcDbEntity
  8
RACCORDO
100
AcDbLine
 62
253
  6
CONTINUOUS
 10
9.0267890067
 20
-17.4654121446
 11
8.834707214
 21
-17.6574939373
  0
LINE
  5
4D9
100
AcDbEntity
  8
DRAFT
100
AcDbLine
 62
7
  6
CONTINUOUS
 10
7.5888122303
 20
-17.280527849
 11
7.544741548
 21
-17.3099078895
  0
LINE
  5
4DA
100
AcDbEntity
  8
RACCORDO
100
AcDbLine
 62
7
  6
CONTINUOUS
 10
0.3063380148
 20
19.0613271893
 11
3.636346308
 21
19.0613271893
  0
LINE
  5
4DB
100
AcDbEntity
  8
RACCORDO
100
AcDbLine
 62
7
  6
CONTINUOUS
 10
4.636346308
 20
19.0613271893
 11
8.5484915797
 21
19.0613271893
  0
LINE
  5
4DC
100
AcDbEntity
  8
RACCORDO
100
AcDbLine
 62
253
  6
CONTINUOUS
 10
3.7253603595
 20
19.08845044
 11
4.5473322566
 21
19.08845044
  0
LINE
  5
4DD
100
AcDbEntity
  8
DRAFT
100
AcDbLine
 62
7
  6
CONTINUOUS
 10
3.7253603595
 20
19.1200756215
 11
4.5473322566
 21
19.1200756215
  0
LINE
  5
4DE
100
AcDbEntity
  8
RACCORDO
100
AcDbLine
 62
7
  6
CONTINUOUS
 10
8.8354555111
 20
19.1794000188
 11
0.1882651853
 21
19.1794000188
  0
LINE
  5
4DF
100
AcDbEntity
  8
RACCORDO
100
AcDbLine
 62
253
  6
CONTINUOUS
 10
-9.762014598
 20
19.1801483159
 11
-8.5161196143
 21
19.1801483159
  0
LINE
  5
4E0
100
AcDbEntity
  8
ASSI
100
AcDbLine
 62
253
  6
CONTINUOUS
 10
-2.9111877697
 20
19.1801483159
 11
8.834707214
 21
19.1801483159
  0
LINE
  5
4E1
100
AcDbEntity
  8
0
100
AcDbLine
 62
7
  6
CONTINUOUS
 10
-8.5160442029
 20
19.3113271893
 11
-2.911263181
 21
19.3113271893
  0
LINE
  5
4E2
100
AcDbEntity
  8
RACCORDO
100
AcDbLine
 62
253
  6
CONTINUOUS
 10
-10.1761650736
 20
20.179996011
 11
-9.0090903267
 21
20.179996011
  0
LINE
  5
4E3
100
AcDbEntity
  8
0
100
AcDbLine
 62
253
  6
CONTINUOUS
 10
-2.4182170572
 20
20.179996011
 11
9.2488576897
 21
20.179996011
  0
LINE
  5
4E4
100
AcDbEntity
  8
DRAFT
100
AcDbLine
 62
7
  6
CONTINUOUS
 10
9.3285152436
 20
20.3723063581
 11
7.0253671392
 21
20.3723063581
  0
LINE
  5
4E5
100
AcDbEntity
  8
DRAFT
100
AcDbLine
 62
7
  6
CONTINUOUS
 10
5.1973254769
 20
20.3723063581
 11
-6.1246328608
 21
20.3723063581
  0
LINE
  5
4E6
100
AcDbEntity
  8
DRAFT
100
AcDbLine
 62
7
  6
CONTINUOUS
 10
-7.9526745231
 20
20.3723063581
 11
-10.2558226276
 21
20.3723063581
  0
LINE
  5
4E7
100
AcDbEntity
  8
DRAFT
100
AcDbLine
 62
7
  6
CONTINUOUS
 10
-7.863653692
 20
20.4613271893
 11
-7.4208806163
 21
20.4613271893
  0
LINE
  5
4E8
100
AcDbEntity
  8
DRAFT
100
AcDbLine
 62
7
  6
CONTINUOUS
 10
-6.813653692
 20
20.4613271893
 11
-6.213653692
 21
20.4613271893
  0
LINE
  5
4E9
100
AcDbEntity
  8
DRAFT
100
AcDbLine
 62
7
  6
CONTINUOUS
 10
5.286346308
 20
20.4613271893
 11
5.886346308
 21
20.4613271893
  0
LINE
  5
4EA
100
AcDbEntity
  8
RACCORDO
100
AcDbLine
 62
7
  6
CONTINUOUS
 10
5.886346308
 20
20.4613271893
 11
6.4935732323
 21
20.4613271893
  0
LINE
  5
4EB
100
AcDbEntity
  8
DRAFT
100
AcDbLine
 62
7
  6
CONTINUOUS
 10
6.4935732323
 20
20.4613271893
 11
6.936346308
 21
20.4613271893
  0
LINE
  5
4EC
100
AcDbEntity
  8
RACCORDO
100
AcDbLine
 62
7
  6
CONTINUOUS
 10
-6.813653692
 20
20.4613271893
 11
-7.4208806163
 21
20.4613271893
  0
LINE
  5
4ED
100
AcDbEntity
  8
DRAFT
100
AcDbLine
 62
7
  6
CONTINUOUS
 10
5.1973254769
 20
20.5723063581
 11
-6.1246328608
 21
20.5723063581
  0
LINE
  5
4EE
100
AcDbEntity
  8
RACCORDO
100
AcDbLine
 62
7
  6
CONTINUOUS
 10
-2.863653692
 20
20.6457141404
 11
1.936346308
 21
20.6457141404
  0
LINE
  5
4EF
100
AcDbEntity
  8
RACCORDO
100
AcDbLine
 62
7
  6
CONTINUOUS
 10
-6.213653692
 20
20.6613271893
 11
-3.8568553025
 21
20.6613271893
  0
LINE
  5
4F0
100
AcDbEntity
  8
RACCORDO
100
AcDbLine
 62
7
  6
CONTINUOUS
 10
2.9295479186
 20
20.6613271893
 11
5.286346308
 21
20.6613271893
  0
LINE
  5
4F1
100
AcDbEntity
  8
DRAFT
100
AcDbLine
 62
7
  6
CONTINUOUS
 10
6.936346308
 20
20.4613271893
 11
7.0253671392
 21
20.3723063581
  0
LINE
  5
4F2
100
AcDbEntity
  8
DRAFT
100
AcDbLine
 62
253
  6
CONTINUOUS
 10
8.834707214
 20
19.1801483159
 11
8.8354555111
 21
19.1794000188
  0
LINE
  5
4F3
100
AcDbEntity
  8
DRAFT
100
AcDbLine
 62
7
  6
CONTINUOUS
 10
6.936346308
 20
-20.0031429926
 11
7.0253671392
 21
-19.9141221614
  0
LINE
  5
4F4
100
AcDbEntity
  8
RACCORDO
100
AcDbLine
 62
253
  6
CONTINUOUS
 10
9.7337880921
 20
-18.17241123
 11
9.2488576897
 21
-18.6573416325
  0
LINE
  5
4F5
100
AcDbEntity
  8
DRAFT
100
AcDbLine
 62
7
  6
CONTINUOUS
 10
9.3285152436
 20
-18.8496519796
 11
8.2640450618
 21
-19.9141221614
  0
LINE
  5
4F6
100
AcDbEntity
  8
RACCORDO
100
AcDbLine
 62
253
  6
CONTINUOUS
 10
7.786346308
 20
-20.5143630506
 11
7.6169407884
 21
-20.6837685702
  0
LINE
  5
4F7
100
AcDbEntity
  8
RACCORDO
100
AcDbLine
 62
253
  6
CONTINUOUS
 10
6.670797684
 20
-21.6299459429
 11
6.7494156495
 21
-21.5513279775
  0
LINE
  5
4F8
100
AcDbEntity
  8
RACCORDO
100
AcDbLine
 62
7
  6
CONTINUOUS
 10
6.882952565
 20
-21.5420665538
 11
7.698432644
 21
-20.7265864748
  0
LINE
  5
4F9
100
AcDbEntity
  8
RACCORDO
100
AcDbLine
 62
7
  6
CONTINUOUS
 10
8.336346308
 20
-20.0886728107
 11
10.1006490885
 21
-18.3243700302
  0
LINE
  5
4FA
100
AcDbEntity
  8
RACCORDO
100
AcDbLine
 62
7
  6
CONTINUOUS
 10
5.586346308
 20
20.7613271893
 11
3.036346308
 21
20.7613271893
  0
LINE
  5
4FB
100
AcDbEntity
  8
RACCORDO
100
AcDbLine
 62
7
  6
CONTINUOUS
 10
-3.963653692
 20
20.7613271893
 11
-6.513653692
 21
20.7613271893
  0
LINE
  5
4FC
100
AcDbEntity
  8
RACCORDO
100
AcDbLine
 62
253
  6
CONTINUOUS
 10
5.586346308
 20
20.7613271893
 11
6.836346308
 21
20.7613271893
  0
LINE
  5
4FD
100
AcDbEntity
  8
RACCORDO
100
AcDbLine
 62
253
  6
CONTINUOUS
 10
-6.513653692
 20
20.7613271893
 11
-7.763653692
 21
20.7613271893
  0
LINE
  5
4FE
100
AcDbEntity
  8
DRAFT
100
AcDbLine
 62
7
  6
CONTINUOUS
 10
-3.963653692
 20
20.8145610828
 11
-2.9049648151
 21
20.8145610828
  0
LINE
  5
4FF
100
AcDbEntity
  8
DRAFT
100
AcDbLine
 62
7
  6
CONTINUOUS
 10
1.9776574312
 20
20.8145610828
 11
3.036346308
 21
20.8145610828
  0
LINE
  5
500
100
AcDbEntity
  8
RACCORDO
100
AcDbLine
 62
7
  6
CONTINUOUS
 10
-6.813653692
 20
20.8485958672
 11
5.886346308
 21
20.8485958672
  0
LINE
  5
501
100
AcDbEntity
  8
DRAFT
100
AcDbLine
 62
7
  6
CONTINUOUS
 10
8.2640450618
 20
21.43677654
 11
7.0253671392
 21
21.43677654
  0
LINE
  5
502
100
AcDbEntity
  8
DRAFT
100
AcDbLine
 62
7
  6
CONTINUOUS
 10
-7.9526745231
 20
21.43677654
 11
-9.1913524457
 21
21.43677654
  0
LINE
  5
503
100
AcDbEntity
  8
0
100
AcDbLine
 62
7
  6
CONTINUOUS
 10
8.436346308
 20
21.5113271893
 11
9.286346308
 21
21.5113271893
  0
LINE
  5
504
100
AcDbEntity
  8
0
100
AcDbLine
 62
7
  6
CONTINUOUS
 10
-9.363653692
 20
21.5113271893
 11
-10.213653692
 21
21.5113271893
  0
LINE
  5
505
100
AcDbEntity
  8
DRAFT
100
AcDbLine
 62
7
  6
CONTINUOUS
 10
8.336346308
 20
21.6113271893
 11
7.0218761262
 21
21.6113271893
  0
LINE
  5
506
100
AcDbEntity
  8
DRAFT
100
AcDbLine
 62
7
  6
CONTINUOUS
 10
-7.9491835101
 20
21.6113271893
 11
-9.263653692
 21
21.6113271893
  0
LINE
  5
507
100
AcDbEntity
  8
RACCORDO
100
AcDbLine
 62
7
  6
CONTINUOUS
 10
-8.4136079936
 20
21.6613271893
 11
-8.2442938638
 21
21.6613271893
  0
LINE
  5
508
100
AcDbEntity
  8
RACCORDO
100
AcDbLine
 62
7
  6
CONTINUOUS
 10
-8.2390573443
 20
21.6613271893
 11
-7.3789916509
 21
21.6613271893
  0
LINE
  5
509
100
AcDbEntity
  8
RACCORDO
100
AcDbLine
 62
7
  6
CONTINUOUS
 10
7.4863006096
 20
21.6613271893
 11
7.3169864798
 21
21.6613271893
  0
LINE
  5
50A
100
AcDbEntity
  8
RACCORDO
100
AcDbLine
 62
7
  6
CONTINUOUS
 10
6.4516842669
 20
21.6613271893
 11
7.3117499603
 21
21.6613271893
  0
LINE
  5
50B
100
AcDbEntity
  8
0
100
AcDbLine
 62
7
  6
CONTINUOUS
 10
-3.463653692
 20
21.7613271893
 11
2.536346308
 21
21.7613271893
  0
LINE
  5
50C
100
AcDbEntity
  8
RACCORDO
100
AcDbLine
 62
253
  6
CONTINUOUS
 10
-8.713653692
 20
21.9613271893
 11
-8.5442481723
 21
21.9613271893
  0
LINE
  5
50D
100
AcDbEntity
  8
RACCORDO
100
AcDbLine
 62
253
  6
CONTINUOUS
 10
7.786346308
 20
21.9613271893
 11
7.6169407884
 21
21.9613271893
  0
LINE
  5
50E
100
AcDbEntity
  8
RACCORDO
100
AcDbLine
 62
253
  6
CONTINUOUS
 10
7.3169864798
 20
22.074020433
 11
2.536346308
 21
22.074020433
  0
LINE
  5
50F
100
AcDbEntity
  8
RACCORDO
100
AcDbLine
 62
253
  6
CONTINUOUS
 10
-3.463653692
 20
22.074020433
 11
-8.2442938638
 21
22.074020433
  0
LINE
  5
510
100
AcDbEntity
  8
0
100
AcDbLine
 62
7
  6
CONTINUOUS
 10
-3.463653692
 20
22.4613271893
 11
2.536346308
 21
22.4613271893
  0
LINE
  5
511
100
AcDbEntity
  8
DRAFT
100
AcDbLine
 62
7
  6
CONTINUOUS
 10
6.936346308
 20
21.5257973711
 11
7.0253671392
 21
21.43677654
  0
LINE
  5
512
100
AcDbEntity
  8
RACCORDO
100
AcDbLine
 62
253
  6
CONTINUOUS
 10
9.2488576897
 20
20.179996011
 11
9.7337880921
 21
19.6950656086
  0
LINE
  5
513
100
AcDbEntity
  8
DRAFT
100
AcDbLine
 62
7
  6
CONTINUOUS
 10
9.3285152436
 20
20.3723063581
 11
8.2640450618
 21
21.43677654
  0
LINE
  5
514
100
AcDbEntity
  8
RACCORDO
100
AcDbLine
 62
253
  6
CONTINUOUS
 10
7.786346308
 20
22.0370174291
 11
7.6169407884
 21
22.2064229488
  0
LINE
  5
515
100
AcDbEntity
  8
RACCORDO
100
AcDbLine
 62
253
  6
CONTINUOUS
 10
6.670797684
 20
23.1526003215
 11
6.7494156495
 21
23.073982356
  0
LINE
  5
516
100
AcDbEntity
  8
RACCORDO
100
AcDbLine
 62
7
  6
CONTINUOUS
 10
10.1006490885
 20
19.8470244088
 11
8.336346308
 21
21.6113271893
  0
LINE
  5
517
100
AcDbEntity
  8
RACCORDO
100
AcDbLine
 62
7
  6
CONTINUOUS
 10
7.698432644
 20
22.2492408533
 11
6.882952565
 21
23.0647209323
  0
LINE
  5
518
100
AcDbEntity
  8
RACCORDO
100
AcDbLine
 62
7
  6
CONTINUOUS
 10
7.836346308
 20
-23.6386728107
 11
7.840718142
 21
-23.6343009767
  0
LINE
  5
519
100
AcDbEntity
  8
RACCORDO
100
AcDbLine
 62
253
  6
CONTINUOUS
 10
6.7494156495
 20
23.073982356
 11
2.536346308
 21
23.073982356
  0
LINE
  5
51A
100
AcDbEntity
  8
RACCORDO
100
AcDbLine
 62
253
  6
CONTINUOUS
 10
-3.463653692
 20
23.073982356
 11
-7.6767230334
 21
23.073982356
  0
LINE
  5
51B
100
AcDbEntity
  8
RACCORDO
100
AcDbLine
 62
7
  6
CONTINUOUS
 10
-4.5188513254
 20
23.0915122469
 11
-4.263653692
 21
23.0915122469
  0
LINE
  5
51C
100
AcDbEntity
  8
RACCORDO
100
AcDbLine
 62
7
  6
CONTINUOUS
 10
3.336346308
 20
23.0915122469
 11
3.5915439415
 21
23.0915122469
  0
LINE
  5
51D
100
AcDbEntity
  8
DRAFT
100
AcDbLine
 62
7
  6
CONTINUOUS
 10
-3.963653692
 20
23.099366428
 11
-3.463653692
 21
23.099366428
  0
LINE
  5
51E
100
AcDbEntity
  8
DRAFT
100
AcDbLine
 62
7
  6
CONTINUOUS
 10
2.536346308
 20
23.099366428
 11
3.036346308
 21
23.099366428
  0
LINE
  5
51F
100
AcDbEntity
  8
RACCORDO
100
AcDbLine
 62
7
  6
CONTINUOUS
 10
-11.263653692
 20
23.1526003215
 11
-7.598105068
 21
23.1526003215
  0
LINE
  5
520
100
AcDbEntity
  8
RACCORDO
100
AcDbLine
 62
7
  6
CONTINUOUS
 10
6.670797684
 20
23.1526003215
 11
10.336346308
 21
23.1526003215
  0
LINE
  5
521
100
AcDbEntity
  8
RACCORDO
100
AcDbLine
 62
7
  6
CONTINUOUS
 10
-11.263653692
 20
23.1613271893
 11
-11.063653692
 21
23.1613271893
  0
LINE
  5
522
100
AcDbEntity
  8
DRAFT
100
AcDbLine
 62
7
  6
CONTINUOUS
 10
-11.063653692
 20
23.1613271893
 11
-4.863653692
 21
23.1613271893
  0
LINE
  5
523
100
AcDbEntity
  8
DRAFT
100
AcDbLine
 62
7
  6
CONTINUOUS
 10
3.936346308
 20
23.1613271893
 11
10.136346308
 21
23.1613271893
  0
LINE
  5
524
100
AcDbEntity
  8
RACCORDO
100
AcDbLine
 62
7
  6
CONTINUOUS
 10
10.136346308
 20
23.1613271893
 11
10.336346308
 21
23.1613271893
  0
LINE
  5
525
100
AcDbEntity
  8
RACCORDO
100
AcDbLine
 62
253
  6
CONTINUOUS
 10
10.136346308
 20
23.7396393528
 11
7.836346308
 21
23.7396393528
  0
LINE
  5
526
100
AcDbEntity
  8
RACCORDO
100
AcDbLine
 62
253
  6
CONTINUOUS
 10
-8.763653692
 20
23.7396393528
 11
-11.063653692
 21
23.7396393528
  0
LINE
  5
527
100
AcDbEntity
  8
RACCORDO
100
AcDbLine
 62
253
  6
CONTINUOUS
 10
10.1356190793
 20
23.9561457037
 11
7.8370735368
 21
23.9561457037
  0
LINE
  5
528
100
AcDbEntity
  8
RACCORDO
100
AcDbLine
 62
253
  6
CONTINUOUS
 10
-8.7643809207
 20
23.9561457037
 11
-11.0629264632
 21
23.9561457037
  0
LINE
  5
529
100
AcDbEntity
  8
RACCORDO
100
AcDbLine
 62
7
  6
CONTINUOUS
 10
7.836346308
 20
25.1613271893
 11
7.840718142
 21
25.1569553553
  0
LINE
  5
52A
100
AcDbEntity
  8
RACCORDO
100
AcDbLine
 62
253
  6
CONTINUOUS
 10
-11.0585630909
 20
24.3891584056
 11
-8.7687442931
 21
24.3891584056
  0
LINE
  5
52B
100
AcDbEntity
  8
RACCORDO
100
AcDbLine
 62
253
  6
CONTINUOUS
 10
7.8414369091
 20
24.3891584056
 11
10.1312557069
 21
24.3891584056
  0
LINE
  5
52C
100
AcDbEntity
  8
RACCORDO
100
AcDbLine
 62
7
  6
CONTINUOUS
 10
3.5915439415
 20
24.5147845508
 11
3.336346308
 21
24.5147845508
  0
LINE
  5
52D
100
AcDbEntity
  8
RACCORDO
100
AcDbLine
 62
7
  6
CONTINUOUS
 10
-4.263653692
 20
24.5147845508
 11
-4.5188513254
 21
24.5147845508
  0
LINE
  5
52E
100
AcDbEntity
  8
DRAFT
100
AcDbLine
 62
7
  6
CONTINUOUS
 10
-3.963653692
 20
24.5555093595
 11
3.036346308
 21
24.5555093595
  0
LINE
  5
52F
100
AcDbEntity
  8
DRAFT
100
AcDbLine
 62
7
  6
CONTINUOUS
 10
3.936346308
 20
24.5613271893
 11
-4.863653692
 21
24.5613271893
  0
LINE
  5
530
100
AcDbEntity
  8
RACCORDO
100
AcDbLine
 62
253
  6
CONTINUOUS
 10
-11.0578358622
 20
24.6056647566
 11
-8.7694715218
 21
24.6056647566
  0
LINE
  5
531
100
AcDbEntity
  8
RACCORDO
100
AcDbLine
 62
253
  6
CONTINUOUS
 10
7.8421641378
 20
24.6056647566
 11
10.1305284782
 21
24.6056647566
  0
LINE
  5
532
100
AcDbEntity
  8
RACCORDO
100
AcDbLine
 62
253
  6
CONTINUOUS
 10
10.1305284782
 20
24.9069595861
 11
7.8421641378
 21
24.9069595861
  0
LINE
  5
533
100
AcDbEntity
  8
RACCORDO
100
AcDbLine
 62
253
  6
CONTINUOUS
 10
-8.7694715218
 20
24.9069595861
 11
-11.0578358622
 21
24.9069595861
  0
LINE
  5
534
100
AcDbEntity
  8
RACCORDO
100
AcDbLine
 62
253
  6
CONTINUOUS
 10
10.131974474
 20
25.1569553553
 11
7.840718142
 21
25.1569553553
  0
LINE
  5
535
100
AcDbEntity
  8
RACCORDO
100
AcDbLine
 62
253
  6
CONTINUOUS
 10
-8.768025526
 20
25.1569553553
 11
-11.059281858
 21
25.1569553553
  0
LINE
  5
536
100
AcDbEntity
  8
DRAFT
100
AcDbLine
 62
7
  6
CONTINUOUS
 10
10.136346308
 20
25.1613271893
 11
7.836346308
 21
25.1613271893
  0
LINE
  5
537
100
AcDbEntity
  8
DRAFT
100
AcDbLine
 62
7
  6
CONTINUOUS
 10
-8.763653692
 20
25.1613271893
 11
-11.063653692
 21
25.1613271893
  0
ARC
  5
538
100
AcDbEntity
  8
RACCORDO
100
AcDbCircle
 62
7
  6
CONTINUOUS
 10
-16.3084792636
 20
-20.3430902951
 40
21.604886806
100
AcDbArc
 50
75.5023977401
 51
76.3225439616
  0
ARC
  5
539
100
AcDbEntity
  8
0
100
AcDbCircle
 62
7
  6
CONTINUOUS
 10
1.3502055157
 20
-16.5254976351
 40
3.6367864649
100
AcDbArc
 50
84.0941030778
 51
85.2704951259
  0
ARC
  5
53A
100
AcDbEntity
  8
RACCORDO
100
AcDbCircle
 62
253
  6
CONTINUOUS
 10
-9.4161068588
 20
-16.8284191085
 40
1.9999999706
100
AcDbArc
 50
180.0036142072
 51
224.9963857928
  0
ARC
  5
53B
100
AcDbEntity
  8
RACCORDO
100
AcDbCircle
 62
253
  6
CONTINUOUS
 10
0.0194091557
 20
-17.6571283528
 40
1.0002157485
100
AcDbArc
 50
180.0209419829
 51
269.9790580171
  0
ARC
  5
53C
100
AcDbEntity
  8
RACCORDO
100
AcDbCircle
 62
253
  6
CONTINUOUS
 10
-0.1241793261
 20
-17.8007168346
 40
1.0002157485
100
AcDbArc
 50
180.0209419829
 51
269.9790580171
  0
ARC
  5
53D
100
AcDbEntity
  8
RACCORDO
100
AcDbCircle
 62
253
  6
CONTINUOUS
 10
-9.4164239804
 20
-16.8285504645
 40
0.9998351499
100
AcDbArc
 50
179.9997022169
 51
225.0002977831
  0
ARC
  5
53E
100
AcDbEntity
  8
RACCORDO
100
AcDbCircle
 62
7
  6
CONTINUOUS
 10
-11.263646071
 20
-21.2886667181
 40
0.350006664
100
AcDbArc
 50
179.99881568
 51
269.9987524488
  0
ARC
  5
53F
100
AcDbEntity
  8
RACCORDO
100
AcDbCircle
 62
7
  6
CONTINUOUS
 10
-8.2308599663
 20
-20.6781998673
 40
0.3134405926
100
AcDbArc
 50
181.0180013055
 51
224.9572914863
  0
ARC
  5
540
100
AcDbEntity
  8
RACCORDO
100
AcDbCircle
 62
7
  6
CONTINUOUS
 10
-7.6715656746
 20
-21.2390217484
 40
0.3123543042
100
AcDbArc
 50
224.9965910816
 51
269.0539156391
  0
ARC
  5
541
100
AcDbEntity
  8
RACCORDO
100
AcDbCircle
 62
7
  6
CONTINUOUS
 10
-6.813653692
 20
-19.2386728107
 40
0.3
100
AcDbArc
 50
0.0
 51
90.0
  0
ARC
  5
542
100
AcDbEntity
  8
RACCORDO
100
AcDbCircle
 62
253
  6
CONTINUOUS
 10
-7.3789850808
 20
-19.238666586
 40
0.2999942886
100
AcDbArc
 50
90.0012548145
 51
180.0011888612
  0
ARC
  5
543
100
AcDbEntity
  8
RACCORDO
100
AcDbCircle
 62
7
  6
CONTINUOUS
 10
-8.2390409494
 20
-20.4383594562
 40
0.2996869941
100
AcDbArc
 50
91.004331998
 51
93.7842073811
  0
ARC
  5
544
100
AcDbEntity
  8
RACCORDO
100
AcDbCircle
 62
7
  6
CONTINUOUS
 10
-16.3084792636
 20
-6.843090295
 40
21.6048868059
100
AcDbArc
 50
75.5023977401
 51
76.3225439616
  0
ARC
  5
545
100
AcDbEntity
  8
RACCORDO
100
AcDbCircle
 62
253
  6
CONTINUOUS
 10
-31.3852412522
 20
-2.9333226616
 40
20.5362118544
100
AcDbArc
 50
10.6061345103
 51
11.2951837788
  0
ARC
  5
546
100
AcDbEntity
  8
RACCORDO
100
AcDbCircle
 62
253
  6
CONTINUOUS
 10
-24.9603954287
 20
-0.1517763365
 40
13.9215235115
100
AcDbArc
 50
5.350049612
 51
6.2017303598
  0
ARC
  5
547
100
AcDbEntity
  8
RACCORDO
100
AcDbCircle
 62
253
  6
CONTINUOUS
 10
-24.8459855327
 20
-1.1371578252
 40
13.8065314535
100
AcDbArc
 50
353.7947877551
 51
354.6535629629
  0
ARC
  5
548
100
AcDbEntity
  8
RACCORDO
100
AcDbCircle
 62
253
  6
CONTINUOUS
 10
-1.4806309232
 20
-9.105648827
 40
1.4996683395
100
AcDbArc
 50
9.2816333905
 51
90.0037077821
  0
ARC
  5
549
100
AcDbEntity
  8
0
100
AcDbCircle
 62
7
  6
CONTINUOUS
 10
1.3881195807
 20
-14.2886728107
 40
1.4
100
AcDbArc
 50
75.8
 51
86.207915294
  0
ARC
  5
54A
100
AcDbEntity
  8
RACCORDO
100
AcDbCircle
 62
253
  6
CONTINUOUS
 10
-10.3901678977
 20
-7.7491984448
 40
1.0002157485
100
AcDbArc
 50
180.0209419829
 51
269.9790580171
  0
ARC
  5
54B
100
AcDbEntity
  8
RACCORDO
100
AcDbCircle
 62
253
  6
CONTINUOUS
 10
-10.2465794159
 20
-7.6056099631
 40
1.0002157485
100
AcDbArc
 50
180.0209419833
 51
269.9790580167
  0
ARC
  5
54C
100
AcDbEntity
  8
RACCORDO
100
AcDbCircle
 62
253
  6
CONTINUOUS
 10
-1.6244991391
 20
-9.2495182578
 40
0.5001077272
100
AcDbArc
 50
0.0209297839
 51
89.9790702161
  0
ARC
  5
54D
100
AcDbEntity
  8
RACCORDO
100
AcDbCircle
 62
253
  6
CONTINUOUS
 10
-1.4802722606
 20
-9.1052913794
 40
0.4994624521
100
AcDbArc
 50
359.9477237752
 51
90.0522762249
  0
ARC
  5
54E
100
AcDbEntity
  8
RACCORDO
100
AcDbCircle
 62
253
  6
CONTINUOUS
 10
-10.7004388768
 20
-2.1233242862
 40
0.4994395546
100
AcDbArc
 50
180.0600816133
 51
216.9600483939
  0
ARC
  5
54F
100
AcDbEntity
  8
RACCORDO
100
AcDbCircle
 62
253
  6
CONTINUOUS
 10
-10.6987805503
 20
-2.1239166444
 40
0.2011424161
100
AcDbArc
 50
179.980448925
 51
216.7772965556
  0
ARC
  5
550
100
AcDbEntity
  8
RACCORDO
100
AcDbCircle
 62
253
  6
CONTINUOUS
 10
-8.713653692
 20
-0.6386728107
 40
3.3797545258
100
AcDbArc
 50
243.0206929646
 51
324.4559231778
  0
ARC
  5
551
100
AcDbEntity
  8
RACCORDO
100
AcDbCircle
 62
253
  6
CONTINUOUS
 10
-8.713653692
 20
-0.6386728107
 40
3.3797545258
100
AcDbArc
 50
35.5440768123
 51
116.9793129153
  0
ARC
  5
552
100
AcDbEntity
  8
RACCORDO
100
AcDbCircle
 62
253
  6
CONTINUOUS
 10
-8.713653692
 20
-0.6386728107
 40
3.0804853108
100
AcDbArc
 50
35.5440783369
 51
116.9793556318
  0
ARC
  5
553
100
AcDbEntity
  8
RACCORDO
100
AcDbCircle
 62
253
  6
CONTINUOUS
 10
-8.713653692
 20
-0.6386728107
 40
3.0804853108
100
AcDbArc
 50
243.0206443682
 51
324.4559216247
  0
ARC
  5
554
100
AcDbEntity
  8
RACCORDO
100
AcDbCircle
 62
253
  6
CONTINUOUS
 10
-8.713653692
 20
-0.6386728107
 40
2.9796610653
100
AcDbArc
 50
32.9981784532
 51
143.1986340811
  0
ARC
  5
555
100
AcDbEntity
  8
RACCORDO
100
AcDbCircle
 62
253
  6
CONTINUOUS
 10
-8.713653692
 20
-0.6386728107
 40
2.9796610653
100
AcDbArc
 50
216.8013636893
 51
327.0018646969
  0
ARC
  5
556
100
AcDbEntity
  8
RACCORDO
100
AcDbCircle
 62
7
  6
CONTINUOUS
 10
-8.713653692
 20
-0.6386728107
 40
2.8
100
AcDbArc
 50
152.6192098778
 51
207.3807901222
  0
ARC
  5
557
100
AcDbEntity
  8
RACCORDO
100
AcDbCircle
 62
253
  6
CONTINUOUS
 10
-8.713653692
 20
-0.6386728107
 40
2.6803918503
100
AcDbArc
 50
32.9981523689
 51
143.1986347748
  0
ARC
  5
558
100
AcDbEntity
  8
RACCORDO
100
AcDbCircle
 62
253
  6
CONTINUOUS
 10
-8.713653692
 20
-0.6386728107
 40
2.6803918503
100
AcDbArc
 50
216.8013636601
 51
327.0018476567
  0
ARC
  5
559
100
AcDbEntity
  8
RACCORDO
100
AcDbCircle
 62
253
  6
CONTINUOUS
 10
-8.713653692
 20
-0.6386728107
 40
2.5
100
AcDbArc
 50
150.9867661318
 51
209.0132338682
  0
CIRCLE
  5
55A
100
AcDbEntity
  8
RACCORDO
100
AcDbCircle
 62
253
  6
CONTINUOUS
 10
-8.713653692
 20
-0.6386728107
 40
2.4886488208
  0
CIRCLE
  5
55B
100
AcDbEntity
  8
RACCORDO
100
AcDbCircle
 62
253
  6
CONTINUOUS
 10
-8.713653692
 20
-0.6386728107
 40
2.2405122853
  0
CIRCLE
  5
55C
100
AcDbEntity
  8
DRAFT
100
AcDbCircle
 62
7
  6
CONTINUOUS
 10
-8.713653692
 20
-0.6386728107
 40
1.85
  0
ARC
  5
55D
100
AcDbEntity
  8
0
100
AcDbCircle
 62
7
  6
CONTINUOUS
 10
-9.2688462893
 20
-0.6309002975
 40
0.41333374
100
AcDbArc
 50
110.191868917
 51
112.7813495381
  0
ARC
  5
55E
100
AcDbEntity
  8
RACCORDO
100
AcDbCircle
 62
253
  6
CONTINUOUS
 10
-0.6412854217
 20
-1.6185254574
 40
0.3278413479
100
AcDbArc
 50
339.9049009423
 51
0.0887509205
  0
ARC
  5
55F
100
AcDbEntity
  8
RACCORDO
100
AcDbCircle
 62
253
  6
CONTINUOUS
 10
-0.6043911032
 20
-1.3203691684
 40
0.2828636241
100
AcDbArc
 50
344.2794114231
 51
359.9036845294
  0
ARC
  5
560
100
AcDbEntity
  8
RACCORDO
100
AcDbCircle
 62
253
  6
CONTINUOUS
 10
-3.213653692
 20
-0.6386728107
 40
3.3797545258
100
AcDbArc
 50
215.5440768148
 51
329.1620652596
  0
ARC
  5
561
100
AcDbEntity
  8
RACCORDO
100
AcDbCircle
 62
253
  6
CONTINUOUS
 10
-3.213653692
 20
-0.6386728107
 40
3.3797545258
100
AcDbArc
 50
30.8379347404
 51
144.4559231811
  0
ARC
  5
562
100
AcDbEntity
  8
RACCORDO
100
AcDbCircle
 62
253
  6
CONTINUOUS
 10
-3.213653692
 20
-0.6386728107
 40
3.0804853108
100
AcDbArc
 50
20.7719381232
 51
144.4559216689
  0
ARC
  5
563
100
AcDbEntity
  8
RACCORDO
100
AcDbCircle
 62
253
  6
CONTINUOUS
 10
-3.213653692
 20
-0.6386728107
 40
3.0804853108
100
AcDbArc
 50
215.5440783494
 51
339.2280433041
  0
ARC
  5
564
100
AcDbEntity
  8
RACCORDO
100
AcDbCircle
 62
253
  6
CONTINUOUS
 10
-3.213653692
 20
-0.6386728107
 40
2.9796610653
100
AcDbArc
 50
14.7441320642
 51
147.0018647007
  0
ARC
  5
565
100
AcDbEntity
  8
RACCORDO
100
AcDbCircle
 62
253
  6
CONTINUOUS
 10
-3.213653692
 20
-0.6386728107
 40
2.9796610653
100
AcDbArc
 50
212.9981784571
 51
345.255583013
  0
ARC
  5
566
100
AcDbEntity
  8
RACCORDO
100
AcDbCircle
 62
253
  6
CONTINUOUS
 10
-3.213653692
 20
-0.6386728107
 40
2.6803918503
100
AcDbArc
 50
14.7441732088
 51
147.001847661
  0
ARC
  5
567
100
AcDbEntity
  8
RACCORDO
100
AcDbCircle
 62
253
  6
CONTINUOUS
 10
-3.213653692
 20
-0.6386728107
 40
2.6803918503
100
AcDbArc
 50
212.9981523733
 51
345.2558268703
  0
CIRCLE
  5
568
100
AcDbEntity
  8
RACCORDO
100
AcDbCircle
 62
253
  6
CONTINUOUS
 10
-3.213653692
 20
-0.6386728107
 40
2.3886488206
  0
CIRCLE
  5
569
100
AcDbEntity
  8
RACCORDO
100
AcDbCircle
 62
253
  6
CONTINUOUS
 10
-3.213653692
 20
-0.6386728107
 40
2.1405122853
  0
CIRCLE
  5
56A
100
AcDbEntity
  8
DRAFT
100
AcDbCircle
 62
7
  6
CONTINUOUS
 10
-3.213653692
 20
-0.6386728107
 40
1.75
  0
ARC
  5
56B
100
AcDbEntity
  8
RACCORDO
100
AcDbCircle
 62
253
  6
CONTINUOUS
 10
-0.6412849442
 20
0.3411800329
 40
0.3278408708
100
AcDbArc
 50
359.9111640809
 51
20.094913275
  0
ARC
  5
56C
100
AcDbEntity
  8
RACCORDO
100
AcDbCircle
 62
253
  6
CONTINUOUS
 10
-0.6044293118
 20
0.0430182393
 40
0.2829018416
100
AcDbArc
 50
0.0973774079
 51
15.7195266399
  0
ARC
  5
56D
100
AcDbEntity
  8
RACCORDO
100
AcDbCircle
 62
7
  6
CONTINUOUS
 10
15.5433501712
 20
-31.6893444358
 40
22.2711631394
100
AcDbArc
 50
103.6897242107
 51
104.4853340876
  0
ARC
  5
56E
100
AcDbEntity
  8
0
100
AcDbCircle
 62
7
  6
CONTINUOUS
 10
8.1962412297
 20
-16.2435297749
 40
3.3536109337
100
AcDbArc
 50
94.7125376574
 51
96.0079992824
  0
ARC
  5
56F
100
AcDbEntity
  8
RACCORDO
100
AcDbCircle
 62
253
  6
CONTINUOUS
 10
8.319485345
 20
-16.7582868996
 40
1.9999999706
100
AcDbArc
 50
315.0036142072
 51
359.9963857928
  0
ARC
  5
570
100
AcDbEntity
  8
RACCORDO
100
AcDbCircle
 62
253
  6
CONTINUOUS
 10
8.3198024666
 20
-16.7584182557
 40
0.9998351499
100
AcDbArc
 50
314.9997022169
 51
0.0002977831
  0
ARC
  5
571
100
AcDbEntity
  8
RACCORDO
100
AcDbCircle
 62
7
  6
CONTINUOUS
 10
10.3363387145
 20
-21.2886667455
 40
0.350006664
100
AcDbArc
 50
270.0012430565
 51
0.0011888146
  0
ARC
  5
572
100
AcDbEntity
  8
RACCORDO
100
AcDbCircle
 62
7
  6
CONTINUOUS
 10
7.3035525862
 20
-20.6781998694
 40
0.3134405926
100
AcDbArc
 50
315.0427082899
 51
358.9819990691
  0
ARC
  5
573
100
AcDbEntity
  8
RACCORDO
100
AcDbCircle
 62
7
  6
CONTINUOUS
 10
6.7442582986
 20
-21.2390217451
 40
0.3123543042
100
AcDbArc
 50
270.9460828933
 51
315.0034074575
  0
ARC
  5
574
100
AcDbEntity
  8
RACCORDO
100
AcDbCircle
 62
7
  6
CONTINUOUS
 10
5.886346308
 20
-19.2386728107
 40
0.3
100
AcDbArc
 50
90.0
 51
180.0
  0
ARC
  5
575
100
AcDbEntity
  8
RACCORDO
100
AcDbCircle
 62
253
  6
CONTINUOUS
 10
6.4516777585
 20
-19.2386665868
 40
0.2999942886
100
AcDbArc
 50
359.9988112921
 51
89.998756955
  0
ARC
  5
576
100
AcDbEntity
  8
RACCORDO
100
AcDbCircle
 62
7
  6
CONTINUOUS
 10
7.3117335654
 20
-20.4383594562
 40
0.2996869941
100
AcDbArc
 50
86.2157926189
 51
88.995668002
  0
ARC
  5
577
100
AcDbEntity
  8
RACCORDO
100
AcDbCircle
 62
253
  6
CONTINUOUS
 10
2.5101516788
 20
-11.585544758
 40
3.403690252
100
AcDbArc
 50
132.6862976006
 51
137.9073939934
  0
ARC
  5
578
100
AcDbEntity
  8
RACCORDO
100
AcDbCircle
 62
253
  6
CONTINUOUS
 10
2.286346308
 20
-11.3386728107
 40
3.3697545258
100
AcDbArc
 50
35.305394642
 51
132.7395977584
  0
ARC
  5
579
100
AcDbEntity
  8
RACCORDO
100
AcDbCircle
 62
253
  6
CONTINUOUS
 10
2.286346308
 20
-11.3386728107
 40
3.3697545258
100
AcDbArc
 50
227.7134666856
 51
324.694605462
  0
ARC
  5
57A
100
AcDbEntity
  8
RACCORDO
100
AcDbCircle
 62
253
  6
CONTINUOUS
 10
2.286346308
 20
-11.3386728107
 40
3.0704853108
100
AcDbArc
 50
35.3053953152
 51
132.7396858107
  0
ARC
  5
57B
100
AcDbEntity
  8
RACCORDO
100
AcDbCircle
 62
253
  6
CONTINUOUS
 10
2.286346308
 20
-11.3386728107
 40
3.0704853108
100
AcDbArc
 50
227.713429014
 51
324.6946049597
  0
ARC
  5
57C
100
AcDbEntity
  8
RACCORDO
100
AcDbCircle
 62
253
  6
CONTINUOUS
 10
2.286346308
 20
-11.3386728107
 40
2.9696610653
100
AcDbArc
 50
32.7272771892
 51
327.2727664739
  0
ARC
  5
57D
100
AcDbEntity
  8
RACCORDO
100
AcDbCircle
 62
253
  6
CONTINUOUS
 10
2.286346308
 20
-11.3386728107
 40
2.6703918503
100
AcDbArc
 50
32.7272509266
 51
327.2727487611
  0
CIRCLE
  5
57E
100
AcDbEntity
  8
RACCORDO
100
AcDbCircle
 62
253
  6
CONTINUOUS
 10
2.286346308
 20
-11.3386728107
 40
2.3886487525
  0
CIRCLE
  5
57F
100
AcDbEntity
  8
RACCORDO
100
AcDbCircle
 62
253
  6
CONTINUOUS
 10
2.286346308
 20
-11.3386728107
 40
2.1405122843
  0
CIRCLE
  5
580
100
AcDbEntity
  8
DRAFT
100
AcDbCircle
 62
7
  6
CONTINUOUS
 10
2.286346308
 20
-11.3386728107
 40
1.75
  0
ARC
  5
581
100
AcDbEntity
  8
0
100
AcDbCircle
 62
7
  6
CONTINUOUS
 10
8.1845730354
 20
-14.2886728107
 40
1.4
100
AcDbArc
 50
90.0
 51
104.2
  0
ARC
  5
582
100
AcDbEntity
  8
RACCORDO
100
AcDbCircle
 62
253
  6
CONTINUOUS
 10
9.7731413318
 20
-12.8065610069
 40
0.499429724
100
AcDbArc
 50
323.3490880097
 51
359.9395595337
  0
ARC
  5
583
100
AcDbEntity
  8
RACCORDO
100
AcDbCircle
 62
253
  6
CONTINUOUS
 10
9.7714501716
 20
-12.8071557569
 40
0.2011654106
100
AcDbArc
 50
323.5335731647
 51
0.019342105
  0
ARC
  5
584
100
AcDbEntity
  8
RACCORDO
100
AcDbCircle
 62
253
  6
CONTINUOUS
 10
7.786346308
 20
-11.3386728107
 40
3.3697545258
100
AcDbArc
 50
62.9341028144
 51
144.6946053555
  0
ARC
  5
585
100
AcDbEntity
  8
RACCORDO
100
AcDbCircle
 62
253
  6
CONTINUOUS
 10
7.786346308
 20
-11.3386728107
 40
3.3697545258
100
AcDbArc
 50
215.3053945365
 51
297.0658971429
  0
ARC
  5
586
100
AcDbEntity
  8
RACCORDO
100
AcDbCircle
 62
253
  6
CONTINUOUS
 10
7.786346308
 20
-11.3386728107
 40
3.0704853108
100
AcDbArc
 50
62.9340538051
 51
144.6946046864
  0
ARC
  5
587
100
AcDbEntity
  8
RACCORDO
100
AcDbCircle
 62
253
  6
CONTINUOUS
 10
7.786346308
 20
-11.3386728107
 40
3.0704853108
100
AcDbArc
 50
215.3053950431
 51
297.0659461949
  0
ARC
  5
588
100
AcDbEntity
  8
RACCORDO
100
AcDbCircle
 62
253
  6
CONTINUOUS
 10
7.786346308
 20
-11.3386728107
 40
2.9696610653
100
AcDbArc
 50
36.4902902657
 51
147.2727667903
  0
ARC
  5
589
100
AcDbEntity
  8
RACCORDO
100
AcDbCircle
 62
253
  6
CONTINUOUS
 10
7.786346308
 20
-11.3386728107
 40
2.9696610653
100
AcDbArc
 50
212.7272775082
 51
323.5097143501
  0
ARC
  5
58A
100
AcDbEntity
  8
RACCORDO
100
AcDbCircle
 62
7
  6
CONTINUOUS
 10
7.786346308
 20
-11.3386728107
 40
2.8
100
AcDbArc
 50
332.6192098778
 51
27.3807901222
  0
ARC
  5
58B
100
AcDbEntity
  8
RACCORDO
100
AcDbCircle
 62
253
  6
CONTINUOUS
 10
7.786346308
 20
-11.3386728107
 40
2.6703918503
100
AcDbArc
 50
212.7272513029
 51
323.5097151762
  0
ARC
  5
58C
100
AcDbEntity
  8
RACCORDO
100
AcDbCircle
 62
253
  6
CONTINUOUS
 10
7.786346308
 20
-11.3386728107
 40
2.6703918503
100
AcDbArc
 50
36.4902884676
 51
147.2727491338
  0
ARC
  5
58D
100
AcDbEntity
  8
RACCORDO
100
AcDbCircle
 62
253
  6
CONTINUOUS
 10
7.786346308
 20
-11.3386728107
 40
2.5
100
AcDbArc
 50
330.9867661318
 51
29.0132338682
  0
CIRCLE
  5
58E
100
AcDbEntity
  8
RACCORDO
100
AcDbCircle
 62
253
  6
CONTINUOUS
 10
7.786346308
 20
-11.3386728107
 40
2.4886488201
  0
CIRCLE
  5
58F
100
AcDbEntity
  8
RACCORDO
100
AcDbCircle
 62
253
  6
CONTINUOUS
 10
7.786346308
 20
-11.3386728107
 40
2.2405122853
  0
CIRCLE
  5
590
100
AcDbEntity
  8
DRAFT
100
AcDbCircle
 62
7
  6
CONTINUOUS
 10
7.786346308
 20
-11.3386728107
 40
1.85
  0
ARC
  5
591
100
AcDbEntity
  8
RACCORDO
100
AcDbCircle
 62
253
  6
CONTINUOUS
 10
9.7731414206
 20
-9.8707845855
 40
0.4994297209
100
AcDbArc
 50
0.0604594931
 51
36.6509428655
  0
ARC
  5
592
100
AcDbEntity
  8
RACCORDO
100
AcDbCircle
 62
253
  6
CONTINUOUS
 10
8.4139392397
 20
-10.061079879
 40
0.4425285096
100
AcDbArc
 50
0.0
 51
32.6739449738
  0
ARC
  5
593
100
AcDbEntity
  8
RACCORDO
100
AcDbCircle
 62
253
  6
CONTINUOUS
 10
9.7714507578
 20
-9.8701895744
 40
0.2011648245
100
AcDbArc
 50
359.9806307216
 51
36.466507995
  0
ARC
  5
594
100
AcDbEntity
  8
DRAFT
100
AcDbCircle
 62
7
  6
CONTINUOUS
 10
7.5344226264
 20
-5.0775172086
 40
0.7917429433
100
AcDbArc
 50
225.1360868082
 51
247.8823261189
  0
ARC
  5
595
100
AcDbEntity
  8
RACCORDO
100
AcDbCircle
 62
7
  6
CONTINUOUS
 10
8.9060861827
 20
-4.1387948546
 40
0.500191615
100
AcDbArc
 50
325.770669218
 51
0.0127757268
  0
ARC
  5
596
100
AcDbEntity
  8
RACCORDO
100
AcDbCircle
 62
253
  6
CONTINUOUS
 10
30.0887977141
 20
-9.1193763264
 40
20.1564407041
100
AcDbArc
 50
190.5418985663
 51
191.2474928109
  0
ARC
  5
597
100
AcDbEntity
  8
RACCORDO
100
AcDbCircle
 62
253
  6
CONTINUOUS
 10
29.2395557575
 20
-13.3945144
 40
19.2916287399
100
AcDbArc
 50
168.7366862359
 51
169.4739111609
  0
ARC
  5
598
100
AcDbEntity
  8
RACCORDO
100
AcDbCircle
 62
253
  6
CONTINUOUS
 10
24.0007800484
 20
-11.8300542566
 40
13.8855786483
100
AcDbArc
 50
185.2669185348
 51
186.1280809428
  0
ARC
  5
599
100
AcDbEntity
  8
RACCORDO
100
AcDbCircle
 62
253
  6
CONTINUOUS
 10
23.8975399687
 20
-10.8370120459
 40
13.7818310447
100
AcDbArc
 50
173.8685918501
 51
174.7362358396
  0
ARC
  5
59A
100
AcDbEntity
  8
RACCORDO
100
AcDbCircle
 62
253
  6
CONTINUOUS
 10
34.2977931801
 20
-0.7494845105
 40
34.6284018124
100
AcDbArc
 50
178.1959420672
 51
178.6878247522
  0
ARC
  5
59B
100
AcDbEntity
  8
RACCORDO
100
AcDbCircle
 62
253
  6
CONTINUOUS
 10
33.6357532817
 20
-0.5458768724
 40
33.9661230282
100
AcDbArc
 50
181.307362641
 51
181.8088411295
  0
ARC
  5
59C
100
AcDbEntity
  8
RACCORDO
100
AcDbCircle
 62
253
  6
CONTINUOUS
 10
-30.5241444565
 20
1.4893597606
 40
19.6591600262
100
AcDbArc
 50
348.6894632823
 51
349.4092545958
  0
ARC
  5
59D
100
AcDbEntity
  8
RACCORDO
100
AcDbCircle
 62
253
  6
CONTINUOUS
 10
-31.3852739757
 20
10.5666712383
 40
20.5362451413
100
AcDbArc
 50
10.6061344312
 51
11.2951826213
  0
ARC
  5
59E
100
AcDbEntity
  8
RACCORDO
100
AcDbCircle
 62
253
  6
CONTINUOUS
 10
-30.524440217
 20
14.989417372
 40
19.6594613333
100
AcDbArc
 50
348.6894678177
 51
349.4092480335
  0
ARC
  5
59F
100
AcDbEntity
  8
RACCORDO
100
AcDbCircle
 62
253
  6
CONTINUOUS
 10
-24.9617441751
 20
13.3480899773
 40
13.9228788456
100
AcDbArc
 50
5.3500798372
 51
6.2016778129
  0
ARC
  5
5A0
100
AcDbEntity
  8
RACCORDO
100
AcDbCircle
 62
253
  6
CONTINUOUS
 10
-24.8443482999
 20
12.3626954317
 40
13.8048876716
100
AcDbArc
 50
353.7946597032
 51
354.6535362239
  0
ARC
  5
5A1
100
AcDbEntity
  8
RACCORDO
100
AcDbCircle
 62
253
  6
CONTINUOUS
 10
-10.7004388381
 20
0.8459787225
 40
0.4994395931
100
AcDbArc
 50
143.0399469719
 51
179.9399164558
  0
ARC
  5
5A2
100
AcDbEntity
  8
RACCORDO
100
AcDbCircle
 62
253
  6
CONTINUOUS
 10
-10.6987807732
 20
0.8465711415
 40
0.2011421932
100
AcDbArc
 50
143.2226716226
 51
180.0195636209
  0
ARC
  5
5A3
100
AcDbEntity
  8
RACCORDO
100
AcDbCircle
 62
253
  6
CONTINUOUS
 10
-8.713653692
 20
12.8613271893
 40
3.3797545258
100
AcDbArc
 50
243.0206929646
 51
324.4559231778
  0
ARC
  5
5A4
100
AcDbEntity
  8
RACCORDO
100
AcDbCircle
 62
253
  6
CONTINUOUS
 10
-8.713653692
 20
12.8613271893
 40
3.3797545258
100
AcDbArc
 50
35.5440768123
 51
116.9793129153
  0
ARC
  5
5A5
100
AcDbEntity
  8
RACCORDO
100
AcDbCircle
 62
253
  6
CONTINUOUS
 10
-8.713653692
 20
12.8613271893
 40
3.0804853108
100
AcDbArc
 50
35.5440783369
 51
116.9793556318
  0
ARC
  5
5A6
100
AcDbEntity
  8
RACCORDO
100
AcDbCircle
 62
253
  6
CONTINUOUS
 10
-8.713653692
 20
12.8613271893
 40
3.0804853108
100
AcDbArc
 50
243.0206443682
 51
324.4559216247
  0
ARC
  5
5A7
100
AcDbEntity
  8
RACCORDO
100
AcDbCircle
 62
253
  6
CONTINUOUS
 10
-8.713653692
 20
12.8613271893
 40
2.9796610653
100
AcDbArc
 50
32.9981784532
 51
143.1986341249
  0
ARC
  5
5A8
100
AcDbEntity
  8
RACCORDO
100
AcDbCircle
 62
253
  6
CONTINUOUS
 10
-8.713653692
 20
12.8613271893
 40
2.9796610653
100
AcDbArc
 50
216.8013636184
 51
327.0018646969
  0
ARC
  5
5A9
100
AcDbEntity
  8
RACCORDO
100
AcDbCircle
 62
7
  6
CONTINUOUS
 10
-8.713653692
 20
12.8613271893
 40
2.8
100
AcDbArc
 50
152.6192098778
 51
207.3807901222
  0
ARC
  5
5AA
100
AcDbEntity
  8
RACCORDO
100
AcDbCircle
 62
253
  6
CONTINUOUS
 10
-8.713653692
 20
12.8613271893
 40
2.6803918503
100
AcDbArc
 50
32.9981523689
 51
143.1986348034
  0
ARC
  5
5AB
100
AcDbEntity
  8
RACCORDO
100
AcDbCircle
 62
253
  6
CONTINUOUS
 10
-8.713653692
 20
12.8613271893
 40
2.6803918503
100
AcDbArc
 50
216.8013634404
 51
327.0018476567
  0
ARC
  5
5AC
100
AcDbEntity
  8
RACCORDO
100
AcDbCircle
 62
253
  6
CONTINUOUS
 10
-8.713653692
 20
12.8613271893
 40
2.5
100
AcDbArc
 50
150.9867661318
 51
209.0132338682
  0
CIRCLE
  5
5AD
100
AcDbEntity
  8
RACCORDO
100
AcDbCircle
 62
253
  6
CONTINUOUS
 10
-8.713653692
 20
12.8613271893
 40
2.4886488208
  0
CIRCLE
  5
5AE
100
AcDbEntity
  8
RACCORDO
100
AcDbCircle
 62
253
  6
CONTINUOUS
 10
-8.713653692
 20
12.8613271893
 40
2.2405122853
  0
ARC
  5
5AF
100
AcDbEntity
  8
DRAFT
100
AcDbCircle
 62
7
  6
CONTINUOUS
 10
-8.713653692
 20
12.8613271893
 40
1.85
100
AcDbArc
 50
245.9996245786
 51
237.9832191128
  0
ARC
  5
5B0
100
AcDbEntity
  8
RACCORDO
100
AcDbCircle
 62
253
  6
CONTINUOUS
 10
-10.7004388449
 20
11.3766757507
 40
0.4994395868
100
AcDbArc
 50
180.0600835437
 51
216.9600485226
  0
ARC
  5
5B1
100
AcDbEntity
  8
DRAFT
100
AcDbCircle
 62
7
  6
CONTINUOUS
 10
-9.313653692
 20
11.6113271893
 40
0.4649763118
100
AcDbArc
 50
180.0
 51
210.649699712
  0
ARC
  5
5B2
100
AcDbEntity
  8
RACCORDO
100
AcDbCircle
 62
253
  6
CONTINUOUS
 10
-10.6987804947
 20
11.3760833778
 40
0.2011424718
100
AcDbArc
 50
179.9804495407
 51
216.777289203
  0
ARC
  5
5B3
100
AcDbEntity
  8
0
100
AcDbCircle
 62
7
  6
CONTINUOUS
 10
-9.0644655386
 20
16.7255419643
 40
2.3024739526
100
AcDbArc
 50
277.700436954
 51
279.246209559
  0
ARC
  5
5B4
100
AcDbEntity
  8
0
100
AcDbCircle
 62
7
  6
CONTINUOUS
 10
-8.9529846656
 20
16.049789172
 40
1.6175894288
100
AcDbArc
 50
279.1946979835
 51
281.1316841445
  0
ARC
  5
5B5
100
AcDbEntity
  8
0
100
AcDbCircle
 62
7
  6
CONTINUOUS
 10
-9.1118804193
 20
15.8159610329
 40
1.4
100
AcDbArc
 50
270.0
 51
284.2
  0
ARC
  5
5B6
100
AcDbEntity
  8
RACCORDO
100
AcDbCircle
 62
253
  6
CONTINUOUS
 10
-10.7004388391
 20
14.3459787218
 40
0.4994395921
100
AcDbArc
 50
143.0399470761
 51
179.9399165186
  0
ARC
  5
5B7
100
AcDbEntity
  8
RACCORDO
100
AcDbCircle
 62
253
  6
CONTINUOUS
 10
-10.6987807694
 20
14.3465711394
 40
0.2011421971
100
AcDbArc
 50
143.2226721719
 51
180.0195633799
  0
ARC
  5
5B8
100
AcDbEntity
  8
RACCORDO
100
AcDbCircle
 62
253
  6
CONTINUOUS
 10
-0.463653692
 20
13.4613271893
 40
4.9999999991
100
AcDbArc
 50
258.605009164
 51
263.7720892233
  0
ARC
  5
5B9
100
AcDbEntity
  8
DRAFT
100
AcDbCircle
 62
7
  6
CONTINUOUS
 10
-0.3946511694
 20
13.7258726971
 40
4.9310058515
100
AcDbArc
 50
336.5334326922
 51
359.9940610901
  0
ARC
  5
5BA
100
AcDbEntity
  8
RACCORDO
100
AcDbCircle
 62
253
  6
CONTINUOUS
 10
-3.213653692
 20
12.8613271893
 40
3.3797545258
100
AcDbArc
 50
215.5440768148
 51
329.1620652596
  0
ARC
  5
5BB
100
AcDbEntity
  8
RACCORDO
100
AcDbCircle
 62
253
  6
CONTINUOUS
 10
-3.213653692
 20
12.8613271893
 40
3.3797545258
100
AcDbArc
 50
30.8379347404
 51
144.4559231811
  0
ARC
  5
5BC
100
AcDbEntity
  8
RACCORDO
100
AcDbCircle
 62
253
  6
CONTINUOUS
 10
-3.213653692
 20
12.8613271893
 40
3.0804853108
100
AcDbArc
 50
20.771939809
 51
144.4559216689
  0
ARC
  5
5BD
100
AcDbEntity
  8
RACCORDO
100
AcDbCircle
 62
253
  6
CONTINUOUS
 10
-3.213653692
 20
12.8613271893
 40
3.0804853108
100
AcDbArc
 50
215.5440783494
 51
339.2280361172
  0
ARC
  5
5BE
100
AcDbEntity
  8
RACCORDO
100
AcDbCircle
 62
253
  6
CONTINUOUS
 10
-3.213653692
 20
12.8613271893
 40
2.9796610653
100
AcDbArc
 50
14.7441267197
 51
147.0018647007
  0
ARC
  5
5BF
100
AcDbEntity
  8
RACCORDO
100
AcDbCircle
 62
253
  6
CONTINUOUS
 10
-3.213653692
 20
12.8613271893
 40
2.9796610653
100
AcDbArc
 50
212.9981784571
 51
345.2556050185
  0
ARC
  5
5C0
100
AcDbEntity
  8
RACCORDO
100
AcDbCircle
 62
253
  6
CONTINUOUS
 10
-3.213653692
 20
12.8613271893
 40
2.6803918503
100
AcDbArc
 50
14.7441732085
 51
147.001847661
  0
ARC
  5
5C1
100
AcDbEntity
  8
RACCORDO
100
AcDbCircle
 62
253
  6
CONTINUOUS
 10
-3.213653692
 20
12.8613271893
 40
2.6803918503
100
AcDbArc
 50
212.9981523733
 51
345.2558268706
  0
CIRCLE
  5
5C2
100
AcDbEntity
  8
RACCORDO
100
AcDbCircle
 62
253
  6
CONTINUOUS
 10
-3.213653692
 20
12.8613271893
 40
2.3886488206
  0
CIRCLE
  5
5C3
100
AcDbEntity
  8
RACCORDO
100
AcDbCircle
 62
253
  6
CONTINUOUS
 10
-3.213653692
 20
12.8613271893
 40
2.1405122853
  0
CIRCLE
  5
5C4
100
AcDbEntity
  8
DRAFT
100
AcDbCircle
 62
7
  6
CONTINUOUS
 10
-3.213653692
 20
12.8613271893
 40
1.75
  0
ARC
  5
5C5
100
AcDbEntity
  8
RACCORDO
100
AcDbCircle
 62
253
  6
CONTINUOUS
 10
0.2504511398
 20
10.8454439596
 40
0.9999936708
100
AcDbArc
 50
239.8108383868
 51
270.0000963352
  0
ARC
  5
5C6
100
AcDbEntity
  8
RACCORDO
100
AcDbCircle
 62
253
  6
CONTINUOUS
 10
0.2504263794
 20
10.8454072605
 40
0.4999648488
100
AcDbArc
 50
179.9969870216
 51
270.0036011361
  0
ARC
  5
5C7
100
AcDbEntity
  8
RACCORDO
100
AcDbCircle
 62
253
  6
CONTINUOUS
 10
-0.6412870655
 20
11.8814745941
 40
0.3278429919
100
AcDbArc
 50
339.9049147228
 51
0.0887645173
  0
ARC
  5
5C8
100
AcDbEntity
  8
RACCORDO
100
AcDbCircle
 62
253
  6
CONTINUOUS
 10
-0.604429313
 20
13.5430182391
 40
0.2829018428
100
AcDbArc
 50
0.0973774406
 51
15.7195266073
  0
ARC
  5
5C9
100
AcDbEntity
  8
RACCORDO
100
AcDbCircle
 62
253
  6
CONTINUOUS
 10
-0.604391101
 20
12.1796308313
 40
0.2828636219
100
AcDbArc
 50
344.2794113627
 51
359.9036845897
  0
ARC
  5
5CA
100
AcDbEntity
  8
0
100
AcDbCircle
 62
7
  6
CONTINUOUS
 10
-0.3886033854
 20
14.0421872464
 40
4.9249488557
100
AcDbArc
 50
356.3183233296
 51
358.1858528673
  0
ARC
  5
5CB
100
AcDbEntity
  8
0
100
AcDbCircle
 62
7
  6
CONTINUOUS
 10
-2.3154269646
 20
15.8159610329
 40
1.4
100
AcDbArc
 50
255.8
 51
265.8089754708
  0
ARC
  5
5CC
100
AcDbEntity
  8
RACCORDO
100
AcDbCircle
 62
253
  6
CONTINUOUS
 10
-0.6412866172
 20
13.8411797221
 40
0.3278425437
100
AcDbArc
 50
359.9111667504
 51
20.0948882523
  0
ARC
  5
5CD
100
AcDbEntity
  8
RACCORDO
100
AcDbCircle
 62
7
  6
CONTINUOUS
 10
-16.4706575553
 20
19.7119988147
 40
22.2711631398
100
AcDbArc
 50
283.6897242107
 51
284.4853340875
  0
ARC
  5
5CE
100
AcDbEntity
  8
RACCORDO
100
AcDbCircle
 62
7
  6
CONTINUOUS
 10
-16.4706575552
 20
33.2119988143
 40
22.2711631394
100
AcDbArc
 50
283.6897242107
 51
284.4853340876
  0
ARC
  5
5CF
100
AcDbEntity
  8
0
100
AcDbCircle
 62
7
  6
CONTINUOUS
 10
-9.2143482984
 20
17.8104901772
 40
3.3977231122
100
AcDbArc
 50
276.5688356916
 51
277.7536375415
  0
ARC
  5
5D0
100
AcDbEntity
  8
RACCORDO
100
AcDbCircle
 62
253
  6
CONTINUOUS
 10
-9.246792729
 20
18.2809412781
 40
1.9999999706
100
AcDbArc
 50
135.0036142072
 51
179.9963857928
  0
ARC
  5
5D1
100
AcDbEntity
  8
RACCORDO
100
AcDbCircle
 62
253
  6
CONTINUOUS
 10
-9.2471098114
 20
18.2810726083
 40
0.9998351959
100
AcDbArc
 50
134.9997027574
 51
179.9933004798
  0
ARC
  5
5D2
100
AcDbEntity
  8
RACCORDO
100
AcDbCircle
 62
7
  6
CONTINUOUS
 10
-11.2636460283
 20
22.8113211237
 40
0.350006664
100
AcDbArc
 50
90.001254533
 51
180.0011887604
  0
ARC
  5
5D3
100
AcDbEntity
  8
RACCORDO
100
AcDbCircle
 62
7
  6
CONTINUOUS
 10
-8.2308599674
 20
22.200854243
 40
0.3134405926
100
AcDbArc
 50
135.0427080004
 51
178.9819981814
  0
ARC
  5
5D4
100
AcDbEntity
  8
RACCORDO
100
AcDbCircle
 62
7
  6
CONTINUOUS
 10
-7.6715656742
 20
22.761676126
 40
0.3123543042
100
AcDbArc
 50
90.9460844322
 51
135.0034088472
  0
ARC
  5
5D5
100
AcDbEntity
  8
RACCORDO
100
AcDbCircle
 62
7
  6
CONTINUOUS
 10
-6.813653692
 20
20.7613271893
 40
0.3
100
AcDbArc
 50
270.0
 51
360.0
  0
ARC
  5
5D6
100
AcDbEntity
  8
RACCORDO
100
AcDbCircle
 62
253
  6
CONTINUOUS
 10
-7.3789851191
 20
20.761320989
 40
0.2999942886
100
AcDbArc
 50
179.9988158112
 51
269.9987524864
  0
ARC
  5
5D7
100
AcDbEntity
  8
RACCORDO
100
AcDbCircle
 62
7
  6
CONTINUOUS
 10
-8.2390409494
 20
21.9610138347
 40
0.2996869941
100
AcDbArc
 50
266.2157926189
 51
268.995668002
  0
ARC
  5
5D8
100
AcDbEntity
  8
RACCORDO
100
AcDbCircle
 62
253
  6
CONTINUOUS
 10
34.2982576532
 20
12.7504943216
 40
34.6288667123
100
AcDbArc
 50
178.1959317407
 51
178.6878027241
  0
ARC
  5
5D9
100
AcDbEntity
  8
RACCORDO
100
AcDbCircle
 62
253
  6
CONTINUOUS
 10
33.6521461576
 20
12.9545914416
 40
33.9825225138
100
AcDbArc
 50
181.3075355972
 51
181.8087576839
  0
ARC
  5
5DA
100
AcDbEntity
  8
RACCORDO
100
AcDbCircle
 62
7
  6
CONTINUOUS
 10
15.3811718796
 20
8.3657446736
 40
21.604886806
100
AcDbArc
 50
255.5023977401
 51
256.3225439616
  0
CIRCLE
  5
5DB
100
AcDbEntity
  8
0
100
AcDbCircle
 62
7
  6
CONTINUOUS
 10
4.136346308
 20
14.7613271893
 40
3.1
  0
ARC
  5
5DC
100
AcDbEntity
  8
DRAFT
100
AcDbCircle
 62
7
  6
CONTINUOUS
 10
4.136346308
 20
14.7613271893
 40
2.75
100
AcDbArc
 50
275.9835833773
 51
303.1626682835
  0
ARC
  5
5DD
100
AcDbEntity
  8
DRAFT
100
AcDbCircle
 62
7
  6
CONTINUOUS
 10
5.736346308
 20
10.2613271893
 40
2.2
100
AcDbArc
 50
126.6530786358
 51
140.4192907667
  0
ARC
  5
5DE
100
AcDbEntity
  8
DRAFT
100
AcDbCircle
 62
7
  6
CONTINUOUS
 10
5.736346308
 20
10.2613271893
 40
2.2
100
AcDbArc
 50
90.0
 51
92.493173025
  0
ARC
  5
5DF
100
AcDbEntity
  8
RACCORDO
100
AcDbCircle
 62
253
  6
CONTINUOUS
 10
8.7178658005
 20
10.845632405
 40
1.0001821162
100
AcDbArc
 50
269.9994372099
 51
300.5706688728
  0
ARC
  5
5E0
100
AcDbEntity
  8
RACCORDO
100
AcDbCircle
 62
253
  6
CONTINUOUS
 10
8.718049656
 20
10.8453995828
 40
0.4999447616
100
AcDbArc
 50
269.9772662117
 51
359.9960632188
  0
ARC
  5
5E1
100
AcDbEntity
  8
RACCORDO
100
AcDbCircle
 62
7
  6
CONTINUOUS
 10
8.6525335319
 20
14.7613271893
 40
0.4411849109
100
AcDbArc
 50
89.5021464955
 51
270.4978535045
  0
ARC
  5
5E2
100
AcDbEntity
  8
RACCORDO
100
AcDbCircle
 62
253
  6
CONTINUOUS
 10
8.6563670409
 20
14.7613271893
 40
0.4144462335
100
AcDbArc
 50
90.0
 51
270.0004176259
  0
ARC
  5
5E3
100
AcDbEntity
  8
RACCORDO
100
AcDbCircle
 62
253
  6
CONTINUOUS
 10
8.656367045
 20
14.7613271893
 40
0.0144614643
100
AcDbArc
 50
90.0000161446
 51
269.9999838554
  0
ARC
  5
5E4
100
AcDbEntity
  8
RACCORDO
100
AcDbCircle
 62
253
  6
CONTINUOUS
 10
8.319485345
 20
18.2809412781
 40
1.9999999706
100
AcDbArc
 50
0.0036142072
 51
44.9963857928
  0
ARC
  5
5E5
100
AcDbEntity
  8
RACCORDO
100
AcDbCircle
 62
7
  6
CONTINUOUS
 10
8.9052904714
 20
18.6787853823
 40
0.5008413645
100
AcDbArc
 50
0.0669220891
 51
60.374069353
  0
ARC
  5
5E6
100
AcDbEntity
  8
RACCORDO
100
AcDbCircle
 62
7
  6
CONTINUOUS
 10
8.9061539435
 20
18.6802780677
 40
0.4991147424
100
AcDbArc
 50
60.3755277441
 51
89.9834055614
  0
ARC
  5
5E7
100
AcDbEntity
  8
RACCORDO
100
AcDbCircle
 62
7
  6
CONTINUOUS
 10
10.3363387143
 20
22.8113211242
 40
0.350006664
100
AcDbArc
 50
359.9988111601
 51
89.9987569182
  0
ARC
  5
5E8
100
AcDbEntity
  8
RACCORDO
100
AcDbCircle
 62
7
  6
CONTINUOUS
 10
7.3035525874
 20
22.2008542451
 40
0.3134405926
100
AcDbArc
 50
1.0180014441
 51
44.9572922234
  0
ARC
  5
5E9
100
AcDbEntity
  8
RACCORDO
100
AcDbCircle
 62
7
  6
CONTINUOUS
 10
6.7441213971
 20
22.7614512023
 40
0.3126125459
100
AcDbArc
 50
45.0080026098
 51
65.3798661871
  0
ARC
  5
5EA
100
AcDbEntity
  8
RACCORDO
100
AcDbCircle
 62
7
  6
CONTINUOUS
 10
6.7444063651
 20
22.7623043807
 40
0.3117182273
100
AcDbArc
 50
65.3621522379
 51
89.0792222522
  0
ARC
  5
5EB
100
AcDbEntity
  8
RACCORDO
100
AcDbCircle
 62
7
  6
CONTINUOUS
 10
5.886346308
 20
20.7613271893
 40
0.3
100
AcDbArc
 50
180.0
 51
270.0
  0
ARC
  5
5EC
100
AcDbEntity
  8
RACCORDO
100
AcDbCircle
 62
253
  6
CONTINUOUS
 10
6.4516777577
 20
20.7613209644
 40
0.2999942886
100
AcDbArc
 50
270.0012432073
 51
0.0011888741
  0
ARC
  5
5ED
100
AcDbEntity
  8
RACCORDO
100
AcDbCircle
 62
7
  6
CONTINUOUS
 10
7.3117335654
 20
21.9610138347
 40
0.2996869941
100
AcDbArc
 50
271.004331998
 51
273.7842073811
  0
ARC
  5
5EE
100
AcDbEntity
  8
RACCORDO
100
AcDbCircle
 62
7
  6
CONTINUOUS
 10
139.2602513627
 20
9.951115
 40
139.5126567048
100
AcDbArc
 50
179.6327140534
 51
179.9876940282
  0
SPLINE
  5
5EF
100
AcDbEntity
  8
0
100
AcDbSpline
 62
7
  6
CONTINUOUS
 70
0
 71
3
 72
9
 73
5
 74
3
 42
0.0000001
 43
0.0000001
 44
0.0000000001
 12
0.2449079386
 22
-0.0820038826
 32
0.0
 13
0.2191858311
 23
-0.136609321
 33
0.0
 40
0.0
 40
0.0
 40
0.0
 40
0.0
 40
0.4872157861
 40
1.0
 40
1.0
 40
1.0
 40
1.0
 10
-9.6944561158
 20
11.2928303379
 30
0.0
 10
-9.6546817779
 20
11.2795124759
 30
0.0
 10
-9.5757167883
 20
11.2442837586
 30
0.0
 10
-9.5011187033
 20
11.2011887034
 30
0.0
 10
-9.463653692
 20
11.1778383356
 30
0.0
 11
-9.6944561158
 21
11.2928303379
 31
0.0
 11
-9.5787724114
 21
11.2433171963
 31
0.0
 11
-9.463653692
 21
11.1778383356
 31
0.0
  0
SPLINE
  5
5F0
100
AcDbEntity
  8
RACCORDO
100
AcDbSpline
 62
7
  6
CONTINUOUS
 70
0
 71
3
 72
14
 73
10
 74
8
 42
0.0000001
 43
0.0000001
 44
0.0000000001
 12
-0.3940320363
 22
0.0
 32
0.0
 13
-0.1227651272
 23
-0.3744195096
 33
0.0
 40
0.0
 40
0.0
 40
0.0
 40
0.0
 40
0.0824315749
 40
0.1711240556
 40
0.270826974
 40
0.3846122441
 40
0.5141638616
 40
0.6601285239
 40
1.0
 40
1.0
 40
1.0
 40
1.0
 10
-10.0655358626
 20
-0.5386728107
 30
0.0
 10
-10.0763627564
 20
-0.5386728107
 30
0.0
 10
-10.0989536905
 20
-0.5422057703
 30
0.0
 10
-10.1315011355
 20
-0.5574470784
 30
0.0
 10
-10.1629250055
 20
-0.5821233137
 30
0.0
 10
-10.1931368845
 20
-0.6157735268
 30
0.0
 10
-10.2220253901
 20
-0.658105908
 30
0.0
 10
-10.2604778717
 20
-0.7293155342
 30
0.0
 10
-10.2834747781
 20
-0.7891478591
 30
0.0
 10
-10.2973828997
 20
-0.8315660295
 30
0.0
 11
-10.0655358626
 21
-0.5386728107
 31
0.0
 11
-10.0976571377
 21
-0.5434913523
 31
0.0
 11
-10.1295020152
 21
-0.5578873251
 31
0.0
 11
-10.160719326
 21
-0.5817385434
 31
0.0
 11
-10.1910106145
 21
-0.6147933282
 31
0.0
 11
-10.2200934345
 21
-0.6567461062
 31
0.0
 11
-10.2476972171
 21
-0.7072037915
 31
0.0
 11
-10.2973828997
 21
-0.8315660295
 31
0.0
  0
SPLINE
  5
5F1
100
AcDbEntity
  8
0
100
AcDbSpline
 62
7
  6
CONTINUOUS
 70
0
 71
3
 72
9
 73
5
 74
3
 42
0.0000001
 43
0.0000001
 44
0.0000000001
 12
0.1053985682
 22
0.1594494029
 32
0.0
 13
0.1685475456
 23
0.0901370907
 33
0.0
 40
0.0
 40
0.0
 40
0.0
 40
0.0
 40
0.2520465147
 40
1.0
 40
1.0
 40
1.0
 40
1.0
 10
-2.5040405093
 20
-0.394454861
 30
0.0
 10
-2.4951853954
 20
-0.3810586389
 30
0.0
 10
-2.4567479064
 20
-0.330167712
 30
0.0
 10
-2.4056756
 20
-0.2888277551
 30
0.0
 10
-2.363653692
 20
-0.2663549714
 30
0.0
 11
-2.5040405093
 21
-0.394454861
 31
0.0
 11
-2.4750066675
 21
-0.3560116262
 31
0.0
 11
-2.363653692
 21
-0.2663549714
 31
0.0
  0
SPLINE
  5
5F2
100
AcDbEntity
  8
0
100
AcDbSpline
 62
7
  6
CONTINUOUS
 70
0
 71
3
 72
9
 73
5
 74
3
 42
0.0000001
 43
0.0000001
 44
0.0000000001
 12
0.1685475456
 22
-0.0901370907
 32
0.0
 13
0.1053985682
 23
-0.1594494029
 33
0.0
 40
0.0
 40
0.0
 40
0.0
 40
0.0
 40
0.7479534853
 40
1.0
 40
1.0
 40
1.0
 40
1.0
 10
-9.063653692
 20
-0.2663549714
 30
0.0
 10
-9.0216317839
 20
-0.2888277551
 30
0.0
 10
-8.9705594775
 20
-0.330167712
 30
0.0
 10
-8.9321219885
 20
-0.3810586389
 30
0.0
 10
-8.9232668746
 20
-0.394454861
 30
0.0
 11
-9.063653692
 21
-0.2663549714
 31
0.0
 11
-8.9523007165
 21
-0.3560116262
 31
0.0
 11
-8.9232668746
 21
-0.394454861
 31
0.0
  0
SPLINE
  5
5F3
100
AcDbEntity
  8
0
100
AcDbSpline
 62
7
  6
CONTINUOUS
 70
0
 71
3
 72
9
 73
5
 74
3
 42
0.0000001
 43
0.0000001
 44
0.0000000001
 12
0.2072137289
 22
0.0
 32
0.0
 13
0.1827252089
 23
-0.0977191253
 33
0.0
 40
0.0
 40
0.0
 40
0.0
 40
0.0
 40
0.2523895772
 40
1.0
 40
1.0
 40
1.0
 40
1.0
 10
-9.263653692
 20
-0.2167388054
 30
0.0
 10
-9.2462208302
 20
-0.2167388054
 30
0.0
 10
-9.1772226198
 20
-0.2209688382
 30
0.0
 10
-9.1091894489
 20
-0.2420030259
 30
0.0
 10
-9.063653692
 20
-0.2663549714
 30
0.0
 11
-9.263653692
 21
-0.2167388054
 31
0.0
 11
-9.2114534454
 21
-0.2199444708
 31
0.0
 11
-9.063653692
 21
-0.2663549714
 31
0.0
  0
SPLINE
  5
5F4
100
AcDbEntity
  8
0
100
AcDbSpline
 62
7
  6
CONTINUOUS
 70
0
 71
3
 72
8
 73
4
 74
2
 42
0.0000001
 43
0.0000001
 44
0.0000000001
 12
0.1409374155
 22
0.0518414647
 32
0.0
 13
0.150169546
 23
0.0
 33
0.0
 40
0.0
 40
0.0
 40
0.0
 40
0.0
 40
1.0
 40
1.0
 40
1.0
 40
1.0
 10
-9.4115146338
 20
-0.2429692158
 30
0.0
 10
-9.3645354953
 20
-0.2256887276
 30
0.0
 10
-9.3137102073
 20
-0.2167388054
 30
0.0
 10
-9.263653692
 20
-0.2167388054
 30
0.0
 11
-9.4115146338
 21
-0.2429692158
 31
0.0
 11
-9.263653692
 21
-0.2167388054
 31
0.0
  0
SPLINE
  5
5F5
100
AcDbEntity
  8
0
100
AcDbSpline
 62
7
  6
CONTINUOUS
 70
0
 71
3
 72
8
 73
4
 74
2
 42
0.0000001
 43
0.0000001
 44
0.0000000001
 12
0.0842610045
 22
0.0
 32
0.0
 13
0.0776856549
 23
0.0326321297
 33
0.0
 40
0.0
 40
0.0
 40
0.0
 40
0.0
 40
1.0
 40
1.0
 40
1.0
 40
1.0
 10
-9.511516427
 20
-0.2663549714
 30
0.0
 10
-9.4834294255
 20
-0.2663549714
 30
0.0
 10
-9.4547907336
 20
-0.2606884117
 30
0.0
 10
-9.4288955153
 20
-0.2498110351
 30
0.0
 11
-9.511516427
 21
-0.2663549714
 31
0.0
 11
-9.4288955153
 21
-0.2498110351
 31
0.0
  0
SPLINE
  5
5F6
100
AcDbEntity
  8
0
100
AcDbSpline
 62
7
  6
CONTINUOUS
 70
0
 71
3
 72
8
 73
4
 74
2
 42
0.0000001
 43
0.0000001
 44
0.0000000001
 12
0.0776856549
 22
-0.0326321297
 32
0.0
 13
0.0842610045
 23
0.0
 33
0.0
 40
0.0
 40
0.0
 40
0.0
 40
0.0
 40
1.0
 40
1.0
 40
1.0
 40
1.0
 10
-1.9984118687
 20
-0.2498110351
 30
0.0
 10
-1.9725166503
 20
-0.2606884117
 30
0.0
 10
-1.9438779585
 20
-0.2663549714
 30
0.0
 10
-1.915790957
 20
-0.2663549714
 30
0.0
 11
-1.9984118687
 21
-0.2498110351
 31
0.0
 11
-1.915790957
 21
-0.2663549714
 31
0.0
  0
SPLINE
  5
5F7
100
AcDbEntity
  8
0
100
AcDbSpline
 62
7
  6
CONTINUOUS
 70
0
 71
3
 72
8
 73
4
 74
2
 42
0.0000001
 43
0.0000001
 44
0.0000000001
 12
0.1685189383
 22
0.0
 32
0.0
 13
0.1553684788
 23
-0.0652630703
 33
0.0
 40
0.0
 40
0.0
 40
0.0
 40
0.0
 40
1.0
 40
1.0
 40
1.0
 40
1.0
 10
-2.163653692
 20
-0.2167388054
 30
0.0
 10
-2.1074807125
 20
-0.2167388054
 30
0.0
 10
-2.0502013616
 20
-0.2280566783
 30
0.0
 10
-1.9984118687
 20
-0.2498110351
 30
0.0
 11
-2.163653692
 21
-0.2167388054
 31
0.0
 11
-1.9984118687
 21
-0.2498110351
 31
0.0
  0
SPLINE
  5
5F8
100
AcDbEntity
  8
0
100
AcDbSpline
 62
7
  6
CONTINUOUS
 70
0
 71
3
 72
9
 73
5
 74
3
 42
0.0000001
 43
0.0000001
 44
0.0000000001
 12
0.1827252089
 22
0.0977191253
 32
0.0
 13
0.2072137289
 23
0.0
 33
0.0
 40
0.0
 40
0.0
 40
0.0
 40
0.0
 40
0.7476104228
 40
1.0
 40
1.0
 40
1.0
 40
1.0
 10
-2.363653692
 20
-0.2663549714
 30
0.0
 10
-2.3181179351
 20
-0.2420030259
 30
0.0
 10
-2.2500847642
 20
-0.2209688382
 30
0.0
 10
-2.1810865538
 20
-0.2167388054
 30
0.0
 10
-2.163653692
 20
-0.2167388054
 30
0.0
 11
-2.363653692
 21
-0.2663549714
 31
0.0
 11
-2.2158539386
 21
-0.2199444708
 31
0.0
 11
-2.163653692
 21
-0.2167388054
 31
0.0
  0
SPLINE
  5
5F9
100
AcDbEntity
  8
0
100
AcDbSpline
 62
7
  6
CONTINUOUS
 70
0
 71
3
 72
9
 73
5
 74
3
 42
0.0000001
 43
0.0000001
 44
0.0000000001
 12
-0.0060923503
 22
-0.0349240865
 32
0.0
 13
-0.035384841
 23
0.0021729186
 33
0.0
 40
0.0
 40
0.0
 40
0.0
 40
0.0
 40
0.2952654954
 40
1.0
 40
1.0
 40
1.0
 40
1.0
 10
1.9863984494
 20
-12.9704824586
 30
0.0
 10
1.9857988291
 20
-12.9739197512
 30
0.0
 10
1.9700188621
 20
-12.9763644776
 30
0.0
 10
1.9603433214
 20
-12.9759763305
 30
0.0
 10
1.9520310152
 20
-12.9754658869
 30
0.0
 11
1.9863984494
 21
-12.9704824586
 31
0.0
 11
1.9770124639
 21
-12.9751164631
 31
0.0
 11
1.9520310152
 21
-12.9754658869
 31
0.0
  0
SPLINE
  5
5FA
100
AcDbEntity
  8
0
100
AcDbSpline
 62
7
  6
CONTINUOUS
 70
0
 71
3
 72
9
 73
5
 74
3
 42
0.0000001
 43
0.0000001
 44
0.0000000001
 12
-0.0109386747
 22
0.0015690127
 32
0.0
 13
-0.0018934343
 23
0.0108872087
 33
0.0
 40
0.0
 40
0.0
 40
0.0
 40
0.0
 40
0.3706957604
 40
1.0
 40
1.0
 40
1.0
 40
1.0
 10
7.5960241328
 20
-12.9751795226
 30
0.0
 10
7.5946724927
 20
-12.9749856471
 30
0.0
 10
7.591308965
 20
-12.974374052
 30
0.0
 10
7.5866778155
 20
-12.9727239884
 30
0.0
 10
7.5862806334
 20
-12.9704401996
 30
0.0
 11
7.5960241328
 21
-12.9751795226
 31
0.0
 11
7.5920046111
 21
-12.9743895142
 31
0.0
 11
7.5862806334
 21
-12.9704401996
 31
0.0
  0
SPLINE
  5
5FB
100
AcDbEntity
  8
0
100
AcDbSpline
 62
7
  6
CONTINUOUS
 70
0
 71
3
 72
9
 73
5
 74
3
 42
0.0000001
 43
0.0000001
 44
0.0000000001
 12
0.0654670523
 22
-0.0068467064
 32
0.0
 13
0.0652448119
 23
-0.008713601
 33
0.0
 40
0.0
 40
0.0
 40
0.0
 40
0.0
 40
0.2620884677
 40
1.0
 40
1.0
 40
1.0
 40
1.0
 10
1.7244123381
 20
-12.9080143877
 30
0.0
 10
1.7301317246
 20
-12.9086125353
 30
0.0
 10
1.7519470062
 20
-12.9109609468
 30
0.0
 10
1.7737332297
 20
-12.9135861972
 30
0.0
 10
1.7897815294
 20
-12.9157294861
 30
0.0
 11
1.7244123381
 21
-12.9080143877
 31
0.0
 11
1.741564796
 21
-12.9098625346
 31
0.0
 11
1.7897815294
 21
-12.9157294861
 31
0.0
  0
SPLINE
  5
5FC
100
AcDbEntity
  8
0
100
AcDbSpline
 62
7
  6
CONTINUOUS
 70
0
 71
3
 72
9
 73
5
 74
3
 42
0.0000001
 43
0.0000001
 44
0.0000000001
 12
0.0572105852
 22
-0.0076406108
 32
0.0
 13
0.0568855251
 23
-0.0097707226
 33
0.0
 40
0.0
 40
0.0
 40
0.0
 40
0.0
 40
0.2635584767
 40
1.0
 40
1.0
 40
1.0
 40
1.0
 10
1.7897815294
 20
-12.9157294861
 30
0.0
 10
1.7948076409
 20
-12.9164007353
 30
0.0
 10
1.8138672157
 20
-12.9190255171
 30
0.0
 10
1.8328839823
 20
-12.9219685253
 30
0.0
 10
1.8468482699
 20
-12.9243670472
 30
0.0
 11
1.7897815294
 21
-12.9157294861
 31
0.0
 11
1.8048512923
 21
-12.9178064073
 31
0.0
 11
1.8468482699
 21
-12.9243670472
 31
0.0
  0
SPLINE
  5
5FD
100
AcDbEntity
  8
0
100
AcDbSpline
 62
7
  6
CONTINUOUS
 70
0
 71
3
 72
9
 73
5
 74
3
 42
0.0000001
 43
0.0000001
 44
0.0000000001
 12
0.1189115903
 22
-0.0204243902
 32
0.0
 13
0.1111056288
 23
-0.0470389335
 33
0.0
 40
0.0
 40
0.0
 40
0.0
 40
0.0
 40
0.3124140615
 40
1.0
 40
1.0
 40
1.0
 40
1.0
 10
1.8468482699
 20
-12.9243670472
 30
0.0
 10
1.8592314875
 20
-12.9264940028
 30
0.0
 10
1.8986834579
 20
-12.9339927032
 30
0.0
 10
1.9381751296
 20
-12.9434242301
 30
0.0
 10
1.9636400189
 20
-12.9542053332
 30
0.0
 11
1.8468482699
 21
-12.9243670472
 31
0.0
 11
1.883886063
 21
-12.9313680505
 31
0.0
 11
1.9636400189
 21
-12.9542053332
 31
0.0
  0
SPLINE
  5
5FE
100
AcDbEntity
  8
0
100
AcDbSpline
 62
7
  6
CONTINUOUS
 70
0
 71
3
 72
9
 73
5
 74
3
 42
0.0000001
 43
0.0000001
 44
0.0000000001
 12
0.0188959755
 22
-0.0080000135
 32
0.0
 13
0.0163619815
 23
-0.0123832011
 33
0.0
 40
0.0
 40
0.0
 40
0.0
 40
0.0
 40
0.3040343161
 40
1.0
 40
1.0
 40
1.0
 40
1.0
 10
1.9636400189
 20
-12.9542053332
 30
0.0
 10
1.9655550273
 20
-12.9550160928
 30
0.0
 10
1.9717902692
 20
-12.9578021282
 30
0.0
 10
1.9779379327
 20
-12.9609646802
 30
0.0
 10
1.9817337252
 20
-12.9638374412
 30
0.0
 11
1.9636400189
 21
-12.9542053332
 31
0.0
 11
1.9693383868
 21
-12.9567449975
 31
0.0
 11
1.9817337252
 21
-12.9638374412
 31
0.0
  0
SPLINE
  5
5FF
100
AcDbEntity
  8
0
100
AcDbSpline
 62
7
  6
CONTINUOUS
 70
0
 71
3
 72
9
 73
5
 74
3
 42
0.0000001
 43
0.0000001
 44
0.0000000001
 12
0.0065883582
 22
-0.0049862521
 32
0.0
 13
-0.0014199159
 23
-0.0081395953
 33
0.0
 40
0.0
 40
0.0
 40
0.0
 40
0.0
 40
0.3471155823
 40
1.0
 40
1.0
 40
1.0
 40
1.0
 10
1.9817337252
 20
-12.9638374412
 30
0.0
 10
1.9824960325
 20
-12.9644143765
 30
0.0
 10
1.9845271481
 20
-12.9660842348
 30
0.0
 10
1.9867074631
 20
-12.9687110536
 30
0.0
 10
1.9863984494
 20
-12.9704824586
 30
0.0
 11
1.9817337252
 21
-12.9638374412
 31
0.0
 11
1.9839240731
 21
-12.9656889476
 31
0.0
 11
1.9863984494
 21
-12.9704824586
 31
0.0
  0
SPLINE
  5
600
100
AcDbEntity
  8
0
100
AcDbSpline
 62
7
  6
CONTINUOUS
 70
0
 71
3
 72
9
 73
5
 74
3
 42
0.0000001
 43
0.0000001
 44
0.0000000001
 12
-0.0047286267
 22
0.0271895073
 32
0.0
 13
0.0253676671
 23
0.0108678739
 33
0.0
 40
0.0
 40
0.0
 40
0.0
 40
0.0
 40
0.3174848174
 40
1.0
 40
1.0
 40
1.0
 40
1.0
 10
7.5862806334
 20
-12.9704401996
 30
0.0
 10
7.585780211
 20
-12.967562781
 30
0.0
 10
7.5950616793
 20
-12.9603653925
 30
0.0
 10
7.6023406386
 20
-12.9570284829
 30
0.0
 10
7.6081119112
 20
-12.9545559866
 30
0.0
 11
7.5862806334
 21
-12.9704401996
 31
0.0
 11
7.5914718154
 21
-12.963381781
 31
0.0
 11
7.6081119112
 21
-12.9545559866
 31
0.0
  0
SPLINE
  5
601
100
AcDbEntity
  8
0
100
AcDbSpline
 62
7
  6
CONTINUOUS
 70
0
 71
3
 72
9
 73
5
 74
3
 42
0.0000001
 43
0.0000001
 44
0.0000000001
 12
0.0280291593
 22
0.0120080955
 32
0.0
 13
0.0291815316
 23
0.0088468266
 33
0.0
 40
0.0
 40
0.0
 40
0.0
 40
0.0
 40
0.2189756633
 40
1.0
 40
1.0
 40
1.0
 40
1.0
 10
7.6081119112
 20
-12.9545559866
 30
0.0
 10
7.6101578125
 20
-12.953679493
 30
0.0
 10
7.619577227
 20
-12.9498552629
 30
0.0
 10
7.6292332633
 20
-12.9466347344
 30
0.0
 10
7.6368304254
 20
-12.9443315388
 30
0.0
 11
7.6081119112
 21
-12.9545559866
 31
0.0
 11
7.6142944036
 21
-12.9520336141
 31
0.0
 11
7.6368304254
 21
-12.9443315388
 31
0.0
  0
SPLINE
  5
602
100
AcDbEntity
  8
0
100
AcDbSpline
 62
7
  6
CONTINUOUS
 70
0
 71
3
 72
9
 73
5
 74
3
 42
0.0000001
 43
0.0000001
 44
0.0000000001
 12
0.0842394258
 22
0.0255384674
 32
0.0
 13
0.0867135942
 23
0.0151408968
 33
0.0
 40
0.0
 40
0.0
 40
0.0
 40
0.0
 40
0.2118613656
 40
1.0
 40
1.0
 40
1.0
 40
1.0
 10
7.6368304254
 20
-12.9443315388
 30
0.0
 10
7.642779452
 20
-12.9425280006
 30
0.0
 10
7.67105798
 20
-12.9346711451
 30
0.0
 10
7.699877579
 20
-12.9289031439
 30
0.0
 10
7.722658357
 20
-12.9249254353
 30
0.0
 11
7.6368304254
 21
-12.9443315388
 31
0.0
 11
7.6547859932
 21
-12.939292631
 31
0.0
 11
7.722658357
 21
-12.9249254353
 31
0.0
  0
SPLINE
  5
603
100
AcDbEntity
  8
0
100
AcDbSpline
 62
7
  6
CONTINUOUS
 70
0
 71
3
 72
9
 73
5
 74
3
 42
0.0000001
 43
0.0000001
 44
0.0000000001
 12
0.0566228584
 22
0.0098868103
 32
0.0
 13
0.0569594355
 23
0.0077149085
 33
0.0
 40
0.0
 40
0.0
 40
0.0
 40
0.0
 40
0.2355105786
 40
1.0
 40
1.0
 40
1.0
 40
1.0
 10
7.722658357
 20
-12.9249254353
 30
0.0
 10
7.727103451
 20
-12.9241492858
 30
0.0
 10
7.7459958808
 20
-12.9209577999
 30
0.0
 10
7.7649538349
 20
-12.9181598435
 30
0.0
 10
7.7794687969
 20
-12.9161938548
 30
0.0
 11
7.722658357
 21
-12.9249254353
 31
0.0
 11
7.7360058195
 21
-12.9226678556
 31
0.0
 11
7.7794687969
 21
-12.9161938548
 31
0.0
  0
SPLINE
  5
604
100
AcDbEntity
  8
0
100
AcDbSpline
 62
7
  6
CONTINUOUS
 70
0
 71
3
 72
9
 73
5
 74
3
 42
0.0000001
 43
0.0000001
 44
0.0000000001
 12
0.0656285514
 22
0.0088891027
 32
0.0
 13
0.0658612047
 23
0.0069587803
 33
0.0
 40
0.0
 40
0.0
 40
0.0
 40
0.0
 40
0.2372107769
 40
1.0
 40
1.0
 40
1.0
 40
1.0
 10
7.7794687969
 20
-12.9161938548
 30
0.0
 10
7.7846580635
 20
-12.9154909911
 30
0.0
 10
7.8065470683
 20
-12.912622722
 30
0.0
 10
7.828481718
 20
-12.9101086075
 30
0.0
 10
7.8452277903
 20
-12.9083392466
 30
0.0
 11
7.7794687969
 21
-12.9161938548
 31
0.0
 11
7.7950452475
 21
-12.9141501504
 31
0.0
 11
7.8452277903
 21
-12.9083392466
 31
0.0
  0
SPLINE
  5
605
100
AcDbEntity
  8
0
100
AcDbSpline
 62
7
  6
CONTINUOUS
 70
0
 71
3
 72
11
 73
7
 74
5
 42
0.0000001
 43
0.0000001
 44
0.0000000001
 12
1.038687409
 22
1.8927611698
 32
0.0
 13
0.1386374368
 23
2.1545756057
 33
0.0
 40
0.0
 40
0.0
 40
0.0
 40
0.0
 40
0.2501794343
 40
0.5002152819
 40
0.7501421964
 40
1.0
 40
1.0
 40
1.0
 40
1.0
 10
3.927263649
 20
11.6684304053
 30
0.0
 10
4.0138830584
 20
11.8262737115
 30
0.0
 10
4.1699711081
 20
12.1516052885
 30
0.0
 10
4.3493182812
 20
12.6619064051
 30
0.0
 10
4.4718290931
 20
13.1885130558
 30
0.0
 10
4.5146348361
 20
13.5464948298
 30
0.0
 10
4.5261813846
 20
13.7259406726
 30
0.0
 11
3.927263649
 21
11.6684304053
 31
0.0
 11
4.1608870591
 21
12.1554386034
 31
0.0
 11
4.3398787321
 21
12.6647362188
 31
0.0
 11
4.4621245729
 21
13.1903065395
 31
0.0
 11
4.5261813846
 21
13.7259406726
 31
0.0
  0
SPLINE
  5
606
100
AcDbEntity
  8
DRAFT
100
AcDbSpline
 62
7
  6
CONTINUOUS
 70
0
 71
3
 72
11
 73
7
 74
5
 42
0.0000001
 43
0.0000001
 44
0.0000000001
 12
2.0516168098
 22
-2.5911555695
 32
0.0
 13
0.0000001678
 23
-3.3050293069
 33
0.0
 40
0.0
 40
0.0
 40
0.0
 40
0.0
 40
0.2503173806
 40
0.5003739748
 40
0.7502381822
 40
1.0
 40
1.0
 40
1.0
 40
1.0
 10
3.4676273319
 20
16.7918363149
 30
0.0
 10
3.6388124472
 20
16.5756325567
 30
0.0
 10
3.9455438685
 20
16.113966227
 30
0.0
 10
4.2833798104
 20
15.3555551543
 30
0.0
 10
4.4900101016
 20
14.5520503852
 30
0.0
 10
4.5363462941
 20
14.0005190418
 30
0.0
 10
4.536346308
 20
13.7253623325
 30
0.0
 11
3.4676273319
 21
16.7918363149
 31
0.0
 11
3.9253298711
 21
16.1026744584
 31
0.0
 11
4.2616179423
 21
15.3477435781
 31
0.0
 11
4.4671858147
 21
14.5479301156
 31
0.0
 11
4.536346308
 21
13.7253623325
 31
0.0
  0
SPLINE
  5
607
100
AcDbEntity
  8
RACCORDO
100
AcDbSpline
 62
7
  6
CONTINUOUS
 70
0
 71
3
 72
9
 73
5
 74
3
 42
0.0000001
 43
0.0000001
 44
0.0000000001
 12
0.0279141465
 22
-0.0002645154
 32
0.0
 13
0.024685914
 23
0.0130336179
 33
0.0
 40
0.0
 40
0.0
 40
0.0
 40
0.0
 40
0.426119949
 40
1.0
 40
1.0
 40
1.0
 40
1.0
 10
6.444899475
 20
16.7914209027
 30
0.0
 10
6.4488643999
 20
16.7913833309
 30
0.0
 10
6.4580868258
 20
16.7937529664
 30
0.0
 10
6.4664978384
 20
16.7976920099
 30
0.0
 10
6.4712200896
 20
16.8001852544
 30
0.0
 11
6.444899475
 21
16.7914209027
 31
0.0
 11
6.4565767842
 21
16.7936877991
 31
0.0
 11
6.4712200896
 21
16.8001852544
 31
0.0
  0
LINE
  5
608
100
AcDbEntity
  8
RACCORDO
100
AcDbLine
 62
253
  6
CONTINUOUS
 10
6.4339057506
 20
16.7982450404
 11
6.4338883107
 21
16.7915108969
  0
LINE
  5
609
100
AcDbEntity
  8
RACCORDO
100
AcDbLine
 62
253
  6
CONTINUOUS
 10
6.4338883107
 20
16.7915108969
 11
6.4337620018
 21
16.7245267001
  0
LINE
  5
60A
100
AcDbEntity
  8
RACCORDO
100
AcDbLine
 62
253
  6
CONTINUOUS
 10
6.4337620018
 20
16.7245267001
 11
6.4286239816
 21
12.6745954746
  0
SPLINE
  5
60B
100
AcDbEntity
  8
RACCORDO
100
AcDbSpline
 62
253
  6
CONTINUOUS
 70
0
 71
3
 72
14
 73
10
 74
8
 42
0.0000001
 43
0.0000001
 44
0.0000000001
 12
0.0039549047
 22
-0.1190082207
 32
0.0
 13
0.1173261304
 23
-0.0203267556
 33
0.0
 40
0.0
 40
0.0
 40
0.0
 40
0.0
 40
0.0631895786
 40
0.1381278062
 40
0.2311077382
 40
0.3447563058
 40
0.4795434537
 40
0.6347609864
 40
1.0
 40
1.0
 40
1.0
 40
1.0
 10
6.4337620018
 20
16.7245267001
 30
0.0
 10
6.4338453048
 20
16.722020007
 30
0.0
 10
6.4354552501
 20
16.7165601606
 30
0.0
 10
6.4412789845
 20
16.7092990727
 30
0.0
 10
6.4501865325
 20
16.7024433807
 30
0.0
 10
6.462126503
 20
16.6959547783
 30
0.0
 10
6.4769747358
 20
16.6898760481
 30
0.0
 10
6.5017833925
 20
16.6820062342
 30
0.0
 10
6.522041878
 20
16.6776982207
 30
0.0
 10
6.5363259048
 20
16.6752235126
 30
0.0
 11
6.4337620018
 21
16.7245267001
 31
0.0
 11
6.4357098291
 21
16.717258962
 31
0.0
 11
6.4410396034
 21
16.7101023709
 31
0.0
 11
6.449672256
 21
16.7031701936
 31
0.0
 11
6.4614814853
 21
16.6965616514
 31
0.0
 11
6.4762906877
 21
16.6903747079
 31
0.0
 11
6.4938808116
 21
16.6847015113
 31
0.0
 11
6.5363259048
 21
16.6752235126
 31
0.0
  0
SPLINE
  5
60C
100
AcDbEntity
  8
RACCORDO
100
AcDbSpline
 62
7
  6
CONTINUOUS
 70
0
 71
3
 72
9
 73
5
 74
3
 42
0.0000001
 43
0.0000001
 44
0.0000000001
 12
-0.1981005821
 22
0.3616805249
 32
0.0
 13
-0.1763505813
 23
0.3727695202
 33
0.0
 40
0.0
 40
0.0
 40
0.0
 40
0.0
 40
0.5071625321
 40
1.0
 40
1.0
 40
1.0
 40
1.0
 10
-8.2442938638
 20
22.074020433
 30
0.0
 10
-8.2777835947
 20
22.1351640366
 30
0.0
 10
-8.3438169737
 20
22.2557141146
 30
0.0
 10
-8.4068115358
 20
22.3779603587
 30
0.0
 10
-8.4357822604
 20
22.4391986208
 30
0.0
 11
-8.2442938638
 21
22.074020433
 31
0.0
 11
-8.3439812804
 21
22.2578772796
 31
0.0
 11
-8.4357822604
 21
22.4391986208
 31
0.0
  0
SPLINE
  5
60D
100
AcDbEntity
  8
RACCORDO
100
AcDbSpline
 62
7
  6
CONTINUOUS
 70
0
 71
3
 72
13
 73
9
 74
7
 42
0.0000001
 43
0.0000001
 44
0.0000000001
 12
-0.4516920964
 22
0.0298440407
 32
0.0
 13
-0.0078990991
 23
0.4526080213
 33
0.0
 40
0.0
 40
0.0
 40
0.0
 40
0.0
 40
0.1503961829
 40
0.2932715444
 40
0.426780211
 40
0.5517680595
 40
0.782436921
 40
1.0
 40
1.0
 40
1.0
 40
1.0
 10
-8.2588199525
 20
21.6619802489
 30
0.0
 10
-8.2814642083
 20
21.6634763922
 30
0.0
 10
-8.3254519452
 20
21.6714291735
 30
0.0
 10
-8.385239646
 20
21.6965582114
 30
0.0
 10
-8.4354914453
 20
21.7310909832
 30
0.0
 10
-8.4875882301
 20
21.7838804602
 30
0.0
 10
-8.5312362303
 20
21.8606112378
 30
0.0
 10
-8.5436753215
 20
21.928503591
 30
0.0
 10
-8.5442481723
 20
21.9613271893
 30
0.0
 11
-8.2588199525
 21
21.6619802489
 31
0.0
 11
-8.3258164665
 21
21.6740828922
 31
0.0
 11
-8.3854520683
 21
21.6991154593
 31
0.0
 11
-8.4352688865
 21
21.7333328586
 31
0.0
 11
-8.4749996891
 21
21.7736151109
 31
0.0
 11
-8.5264895009
 21
21.8644557258
 31
0.0
 11
-8.5442481723
 21
21.9613271893
 31
0.0
  0
SPLINE
  5
60E
100
AcDbEntity
  8
RACCORDO
100
AcDbSpline
 62
7
  6
CONTINUOUS
 70
0
 71
3
 72
9
 73
5
 74
3
 42
0.0000001
 43
0.0000001
 44
0.0000000001
 12
-0.1763505813
 22
-0.3727695202
 32
0.0
 13
-0.1981005821
 23
-0.3616805249
 33
0.0
 40
0.0
 40
0.0
 40
0.0
 40
0.0
 40
0.4928374652
 40
1.0
 40
1.0
 40
1.0
 40
1.0
 10
7.5084748765
 20
22.4391986208
 30
0.0
 10
7.479504152
 20
22.377960359
 30
0.0
 10
7.41650959
 20
22.2557141149
 30
0.0
 10
7.3504762109
 20
22.1351640369
 30
0.0
 10
7.3169864798
 20
22.074020433
 30
0.0
 11
7.5084748765
 21
22.4391986208
 31
0.0
 11
7.4166738969
 21
22.2578772805
 31
0.0
 11
7.3169864798
 21
22.074020433
 31
0.0
  0
SPLINE
  5
60F
100
AcDbEntity
  8
RACCORDO
100
AcDbSpline
 62
7
  6
CONTINUOUS
 70
0
 71
3
 72
13
 73
9
 74
7
 42
0.0000001
 43
0.0000001
 44
0.0000000001
 12
0.4516920964
 22
0.0298440407
 32
0.0
 13
0.0078990991
 23
0.4526080213
 33
0.0
 40
0.0
 40
0.0
 40
0.0
 40
0.0
 40
0.1503961829
 40
0.2932715444
 40
0.426780211
 40
0.5517680595
 40
0.782436921
 40
1.0
 40
1.0
 40
1.0
 40
1.0
 10
7.3315125686
 20
21.6619802489
 30
0.0
 10
7.3541568243
 20
21.6634763922
 30
0.0
 10
7.3981445613
 20
21.6714291735
 30
0.0
 10
7.4579322621
 20
21.6965582114
 30
0.0
 10
7.5081840614
 20
21.7310909832
 30
0.0
 10
7.5602808462
 20
21.7838804602
 30
0.0
 10
7.6039288464
 20
21.8606112378
 30
0.0
 10
7.6163679376
 20
21.928503591
 30
0.0
 10
7.6169407884
 20
21.9613271893
 30
0.0
 11
7.3315125686
 21
21.6619802489
 31
0.0
 11
7.3985090825
 21
21.6740828922
 31
0.0
 11
7.4581446843
 21
21.6991154593
 31
0.0
 11
7.5079615026
 21
21.7333328586
 31
0.0
 11
7.5476923052
 21
21.7736151109
 31
0.0
 11
7.599182117
 21
21.8644557258
 31
0.0
 11
7.6169407884
 21
21.9613271893
 31
0.0
  0
SPLINE
  5
610
100
AcDbEntity
  8
RACCORDO
100
AcDbSpline
 62
7
  6
CONTINUOUS
 70
0
 71
3
 72
13
 73
9
 74
7
 42
0.0000001
 43
0.0000001
 44
0.0000000001
 12
-0.4516920964
 22
-0.0298440407
 32
0.0
 13
-0.0078990991
 23
-0.4526080213
 33
0.0
 40
0.0
 40
0.0
 40
0.0
 40
0.0
 40
0.1503961829
 40
0.2932715444
 40
0.426780211
 40
0.5517680595
 40
0.782436921
 40
1.0
 40
1.0
 40
1.0
 40
1.0
 10
-8.2588199525
 20
-20.1393258704
 30
0.0
 10
-8.2814642083
 20
-20.1408220136
 30
0.0
 10
-8.3254519452
 20
-20.148774795
 30
0.0
 10
-8.385239646
 20
-20.1739038328
 30
0.0
 10
-8.4354914453
 20
-20.2084366047
 30
0.0
 10
-8.4875882301
 20
-20.2612260817
 30
0.0
 10
-8.5312362303
 20
-20.3379568593
 30
0.0
 10
-8.5436753215
 20
-20.4058492125
 30
0.0
 10
-8.5442481723
 20
-20.4386728107
 30
0.0
 11
-8.2588199525
 21
-20.1393258704
 31
0.0
 11
-8.3258164665
 21
-20.1514285137
 31
0.0
 11
-8.3854520683
 21
-20.1764610808
 31
0.0
 11
-8.4352688865
 21
-20.2106784801
 31
0.0
 11
-8.4749996891
 21
-20.2509607324
 31
0.0
 11
-8.5264895009
 21
-20.3418013473
 31
0.0
 11
-8.5442481723
 21
-20.4386728107
 31
0.0
  0
SPLINE
  5
611
100
AcDbEntity
  8
RACCORDO
100
AcDbSpline
 62
7
  6
CONTINUOUS
 70
0
 71
3
 72
9
 73
5
 74
3
 42
0.0000001
 43
0.0000001
 44
0.0000000001
 12
0.1763505813
 22
0.3727695202
 32
0.0
 13
0.1981005821
 23
0.3616805249
 33
0.0
 40
0.0
 40
0.0
 40
0.0
 40
0.0
 40
0.4928374652
 40
1.0
 40
1.0
 40
1.0
 40
1.0
 10
-8.4357822604
 20
-20.9165442423
 30
0.0
 10
-8.4068115359
 20
-20.8553059805
 30
0.0
 10
-8.3438169739
 20
-20.7330597363
 30
0.0
 10
-8.2777835949
 20
-20.6125096584
 30
0.0
 10
-8.2442938638
 20
-20.5513660544
 30
0.0
 11
-8.4357822604
 21
-20.9165442423
 31
0.0
 11
-8.3439812809
 21
-20.735222902
 31
0.0
 11
-8.2442938638
 21
-20.5513660544
 31
0.0
  0
SPLINE
  5
612
100
AcDbEntity
  8
RACCORDO
100
AcDbSpline
 62
7
  6
CONTINUOUS
 70
0
 71
3
 72
9
 73
5
 74
3
 42
0.0000001
 43
0.0000001
 44
0.0000000001
 12
0.1981005821
 22
-0.3616805249
 32
0.0
 13
0.1763505813
 23
-0.3727695202
 33
0.0
 40
0.0
 40
0.0
 40
0.0
 40
0.0
 40
0.5071625321
 40
1.0
 40
1.0
 40
1.0
 40
1.0
 10
7.3169864798
 20
-20.5513660544
 30
0.0
 10
7.3504762108
 20
-20.612509658
 30
0.0
 10
7.4165095898
 20
-20.733059736
 30
0.0
 10
7.4795041518
 20
-20.8553059802
 30
0.0
 10
7.5084748765
 20
-20.9165442423
 30
0.0
 11
7.3169864798
 21
-20.5513660544
 31
0.0
 11
7.4166738964
 21
-20.735222901
 31
0.0
 11
7.5084748765
 21
-20.9165442423
 31
0.0
  0
SPLINE
  5
613
100
AcDbEntity
  8
RACCORDO
100
AcDbSpline
 62
7
  6
CONTINUOUS
 70
0
 71
3
 72
13
 73
9
 74
7
 42
0.0000001
 43
0.0000001
 44
0.0000000001
 12
0.4516920964
 22
-0.0298440407
 32
0.0
 13
0.0078990991
 23
-0.4526080213
 33
0.0
 40
0.0
 40
0.0
 40
0.0
 40
0.0
 40
0.1503961829
 40
0.2932715444
 40
0.426780211
 40
0.5517680595
 40
0.782436921
 40
1.0
 40
1.0
 40
1.0
 40
1.0
 10
7.3315125686
 20
-20.1393258704
 30
0.0
 10
7.3541568243
 20
-20.1408220136
 30
0.0
 10
7.3981445613
 20
-20.148774795
 30
0.0
 10
7.4579322621
 20
-20.1739038328
 30
0.0
 10
7.5081840614
 20
-20.2084366047
 30
0.0
 10
7.5602808462
 20
-20.2612260817
 30
0.0
 10
7.6039288464
 20
-20.3379568593
 30
0.0
 10
7.6163679376
 20
-20.4058492125
 30
0.0
 10
7.6169407884
 20
-20.4386728107
 30
0.0
 11
7.3315125686
 21
-20.1393258704
 31
0.0
 11
7.3985090825
 21
-20.1514285137
 31
0.0
 11
7.4581446843
 21
-20.1764610808
 31
0.0
 11
7.5079615026
 21
-20.2106784801
 31
0.0
 11
7.5476923052
 21
-20.2509607324
 31
0.0
 11
7.599182117
 21
-20.3418013473
 31
0.0
 11
7.6169407884
 21
-20.4386728107
 31
0.0
  0
LINE
  5
614
100
AcDbEntity
  8
RACCORDO
100
AcDbLine
 62
7
  6
CONTINUOUS
 10
10.2725698794
 20
-10.0508698432
 11
10.2726612692
 21
-10.0509469417
  0
SPLINE
  5
615
100
AcDbEntity
  8
RACCORDO
100
AcDbSpline
 62
253
  6
CONTINUOUS
 70
0
 71
3
 72
11
 73
7
 74
5
 42
0.0000001
 43
0.0000001
 44
0.0000000001
 12
0.054952874
 22
-0.1909039708
 32
0.0
 13
-0.1169073951
 23
-0.1606138394
 33
0.0
 40
0.0
 40
0.0
 40
0.0
 40
0.0
 40
0.2713731261
 40
0.5271298768
 40
0.7686358602
 40
1.0
 40
1.0
 40
1.0
 40
1.0
 10
-11.0961735674
 20
15.0429107651
 30
0.0
 10
-11.0912026563
 20
15.0256420293
 30
0.0
 10
-11.0844615845
 20
14.9911439419
 30
0.0
 10
-11.084914949
 20
14.939864718
 30
0.0
 10
-11.096328993
 20
14.8925227808
 30
0.0
 10
-11.1113278594
 20
14.8645450726
 30
0.0
 10
-11.120343919
 20
14.8521583117
 30
0.0
 11
-11.0961735674
 21
15.0429107651
 31
0.0
 11
-11.0861308814
 21
14.989944576
 31
0.0
 11
-11.0869064089
 21
14.9391429219
 31
0.0
 11
-11.0984679683
 21
14.8925802535
 31
0.0
 11
-11.120343919
 21
14.8521583117
 31
0.0
  0
LINE
  5
616
100
AcDbEntity
  8
RACCORDO
100
AcDbLine
 62
7
  6
CONTINUOUS
 10
-0.3127940837
 20
0.461635919
 11
-0.3134444837
 21
0.3406711951
  0
SPLINE
  5
617
100
AcDbEntity
  8
RACCORDO
100
AcDbSpline
 62
7
  6
CONTINUOUS
 70
0
 71
3
 72
10
 73
6
 74
4
 42
0.0000001
 43
0.0000001
 44
0.0000000001
 12
0.0
 22
-0.6321934357
 32
0.0
 13
-0.0031637631
 23
-0.6321855192
 33
0.0
 40
0.0
 40
0.0
 40
0.0
 40
0.0
 40
0.5236245099
 40
0.7736050296
 40
1.0
 40
1.0
 40
1.0
 40
1.0
 10
-0.3117265215
 20
1.0938280845
 30
0.0
 10
-0.3117265215
 20
0.9834840919
 30
0.0
 10
-0.3118488546
 20
0.8204613489
 30
0.0
 10
-0.3122642697
 20
0.6097306594
 30
0.0
 10
-0.3125553304
 20
0.5093437929
 30
0.0
 10
-0.3127940837
 20
0.461635919
 30
0.0
 11
-0.3117265215
 21
1.0938280845
 31
0.0
 11
-0.3119833131
 21
0.7627962062
 31
0.0
 11
-0.3122997227
 21
0.6047604793
 31
0.0
 11
-0.3127940837
 21
0.461635919
 31
0.0
  0
SPLINE
  5
618
100
AcDbEntity
  8
RACCORDO
100
AcDbSpline
 62
253
  6
CONTINUOUS
 70
0
 71
3
 72
11
 73
7
 74
5
 42
0.0000001
 43
0.0000001
 44
0.0000000001
 12
0.0549528671
 22
-0.19090397
 32
0.0
 13
-0.1169073872
 23
-0.1606138418
 33
0.0
 40
0.0
 40
0.0
 40
0.0
 40
0.0
 40
0.2713731241
 40
0.5271298751
 40
0.7686358598
 40
1.0
 40
1.0
 40
1.0
 40
1.0
 10
-11.0961735672
 20
1.5429107661
 30
0.0
 10
-11.0912026568
 20
1.5256420305
 30
0.0
 10
-11.084461586
 20
1.4911439435
 30
0.0
 10
-11.0849149513
 20
1.4398647204
 30
0.0
 10
-11.096328995
 20
1.3925227837
 30
0.0
 10
-11.1113278603
 20
1.3645450754
 30
0.0
 10
-11.1203439194
 20
1.3521583143
 30
0.0
 11
-11.0961735672
 21
1.5429107661
 31
0.0
 11
-11.0861308829
 21
1.4899445778
 31
0.0
 11
-11.0869064111
 21
1.4391429244
 31
0.0
 11
-11.0984679701
 21
1.3925802562
 31
0.0
 11
-11.1203439194
 21
1.3521583143
 31
0.0
  0
SPLINE
  5
619
100
AcDbEntity
  8
RACCORDO
100
AcDbSpline
 62
253
  6
CONTINUOUS
 70
0
 71
3
 72
11
 73
7
 74
5
 42
0.0000001
 43
0.0000001
 44
0.0000000001
 12
-0.1155120707
 22
-0.1601569871
 32
0.0
 13
0.0544924635
 23
-0.1897995532
 33
0.0
 40
0.0
 40
0.0
 40
0.0
 40
0.0
 40
0.2316064351
 40
0.4732126457
 40
0.7288819187
 40
1.0
 40
1.0
 40
1.0
 40
1.0
 10
10.1945461417
 20
-13.3123593856
 30
0.0
 10
10.1856283621
 20
-13.3247238485
 30
0.0
 10
10.170802242
 20
-13.352597177
 30
0.0
 10
10.1595239814
 20
-13.399683952
 30
0.0
 10
10.1590889932
 20
-13.4506370076
 30
0.0
 10
10.1657693291
 20
-13.4849079244
 30
0.0
 10
10.1706939598
 20
-13.5020606213
 30
0.0
 11
10.1945461417
 21
-13.3123593856
 31
0.0
 11
10.1729130765
 21
-13.3526541883
 31
0.0
 11
10.1614915007
 21
-13.3989761628
 31
0.0
 11
10.1607415488
 21
-13.4494568904
 31
0.0
 11
10.1706939598
 21
-13.5020606213
 31
0.0
  0
SPLINE
  5
61A
100
AcDbEntity
  8
RACCORDO
100
AcDbSpline
 62
7
  6
CONTINUOUS
 70
0
 71
3
 72
18
 73
14
 74
12
 42
0.0000001
 43
0.0000001
 44
0.0000000001
 12
-0.0218937457
 22
-0.0218937457
 32
0.0
 13
-0.0309591032
 23
-0.0004540093
 33
0.0
 40
0.0
 40
0.0
 40
0.0
 40
0.0
 40
0.0061230804
 40
0.0197886283
 40
0.0411558385
 40
0.0702391084
 40
0.1070103274
 40
0.1514243738
 40
0.262966748
 40
0.4042993245
 40
0.5747622367
 40
0.7736343141
 40
1.0
 40
1.0
 40
1.0
 40
1.0
 10
0.0292146804
 20
15.1724134748
 30
0.0
 10
0.0291699947
 20
15.1723687891
 30
0.0
 10
0.0289407158
 20
15.172363747
 30
0.0
 10
0.0285368781
 20
15.1723330028
 30
0.0
 10
0.0278642606
 20
15.1723536743
 30
0.0
 10
0.0269693428
 20
15.1723851737
 30
0.0
 10
0.0258310056
 20
15.1724446805
 30
0.0
 10
0.0238458682
 20
15.1725559903
 30
0.0
 10
0.0207824146
 20
15.1727373472
 30
0.0
 10
0.0164192382
 20
15.1729633452
 30
0.0
 10
0.0111524158
 20
15.1731682805
 30
0.0
 10
0.0050052276
 20
15.1732946126
 30
0.0
 10
0.0006158909
 20
15.1732854841
 30
0.0
 10
-0.0017201353
 20
15.1732512267
 30
0.0
 11
0.0292146804
 21
15.1724134748
 31
0.0
 11
0.0290314669
 21
15.1723647362
 31
0.0
 11
0.0286088345
 21
15.1723444569
 31
0.0
 11
0.0279472916
 21
15.1723515371
 31
0.0
 11
0.0270474133
 21
15.1723846901
 31
0.0
 11
0.0259102896
 21
15.1724411872
 31
0.0
 11
0.0245372491
 21
15.1725176313
 31
0.0
 11
0.0210892945
 21
15.1727154256
 31
0.0
 11
0.0167190248
 21
15.172939303
 31
0.0
 11
0.0114449718
 21
15.1731419915
 31
0.0
 11
0.005288679
 21
15.1732670611
 31
0.0
 11
-0.0017201353
 21
15.1732512267
 31
0.0
  0
SPLINE
  5
61B
100
AcDbEntity
  8
RACCORDO
100
AcDbSpline
 62
7
  6
CONTINUOUS
 70
0
 71
3
 72
18
 73
14
 74
12
 42
0.0000001
 43
0.0000001
 44
0.0000000001
 12
0.0309591033
 22
-0.0004540093
 32
0.0
 13
0.0218937457
 23
-0.0218937457
 33
0.0
 40
0.0
 40
0.0
 40
0.0
 40
0.0
 40
0.226365674
 40
0.4252377396
 40
0.5957006744
 40
0.7370332524
 40
0.8485756137
 40
0.8929896623
 40
0.9297608876
 40
0.9588441629
 40
0.9802113739
 40
0.9938769205
 40
1.0
 40
1.0
 40
1.0
 40
1.0
 10
-0.0017201353
 20
14.3494031518
 30
0.0
 10
0.0006158908
 20
14.3493688945
 30
0.0
 10
0.0050052272
 20
14.3493597661
 30
0.0
 10
0.0111524155
 20
14.3494860979
 30
0.0
 10
0.016419238
 20
14.3496910332
 30
0.0
 10
0.0207824145
 20
14.3499170316
 30
0.0
 10
0.023845868
 20
14.3500983881
 30
0.0
 10
0.0258310053
 20
14.3502096979
 30
0.0
 10
0.0269693427
 20
14.3502692047
 30
0.0
 10
0.0278642606
 20
14.3503007042
 30
0.0
 10
0.0285368781
 20
14.3503213757
 30
0.0
 10
0.0289407158
 20
14.3502906316
 30
0.0
 10
0.0291699947
 20
14.3502855894
 30
0.0
 10
0.0292146804
 20
14.3502409037
 30
0.0
 11
-0.0017201353
 21
14.3494031518
 31
0.0
 11
0.0052886786
 21
14.3493873175
 31
0.0
 11
0.0114449711
 21
14.3495123869
 31
0.0
 11
0.0167190248
 21
14.3497150755
 31
0.0
 11
0.0210892946
 21
14.3499389531
 31
0.0
 11
0.0245372487
 21
14.3501367472
 31
0.0
 11
0.0259102893
 21
14.3502131912
 31
0.0
 11
0.0270474132
 21
14.3502696884
 31
0.0
 11
0.0279472917
 21
14.3503028414
 31
0.0
 11
0.0286088346
 21
14.3503099217
 31
0.0
 11
0.0290314669
 21
14.3502896423
 31
0.0
 11
0.0292146804
 21
14.3502409037
 31
0.0
  0
SPLINE
  5
61C
100
AcDbEntity
  8
RACCORDO
100
AcDbSpline
 62
253
  6
CONTINUOUS
 70
0
 71
3
 72
17
 73
13
 74
11
 42
0.0000001
 43
0.0000001
 44
0.0000000001
 12
0.0646961796
 22
0.252334794
 32
0.0
 13
-0.1899748474
 23
0.1782358024
 33
0.0
 40
0.0
 40
0.0
 40
0.0
 40
0.0
 40
0.0170104535
 40
0.0400003301
 40
0.0698281713
 40
0.1067452377
 40
0.201573614
 40
0.3228124814
 40
0.4674456208
 40
0.631602963
 40
0.810776546
 40
1.0
 40
1.0
 40
1.0
 40
1.0
 10
-0.0155987061
 20
-9.3039461493
 30
0.0
 10
-0.015231869
 20
-9.3025153729
 30
0.0
 10
-0.0152956208
 20
-9.2989442777
 30
0.0
 10
-0.0169360465
 20
-9.2930922088
 30
0.0
 10
-0.0200806311
 20
-9.2859388044
 30
0.0
 10
-0.0269044819
 20
-9.2736688616
 30
0.0
 10
-0.039429402
 20
-9.2555713838
 30
0.0
 10
-0.0589183353
 20
-9.2310437683
 30
0.0
 10
-0.0834934479
 20
-9.2029136179
 30
0.0
 10
-0.1124621836
 20
-9.1719845726
 30
0.0
 10
-0.1450245989
 20
-9.1391426009
 30
0.0
 10
-0.1681059419
 20
-9.1169896797
 30
0.0
 10
-0.1800885075
 20
-9.1057475484
 30
0.0
 11
-0.0155987061
 21
-9.3039461493
 31
0.0
 11
-0.0154445012
 21
-9.2995176692
 31
0.0
 11
-0.0168909927
 21
-9.293706199
 31
0.0
 11
-0.0199280535
 21
-9.2865542813
 31
0.0
 11
-0.0245339251
 21
-9.2781122335
 31
0.0
 11
-0.038310058
 21
-9.2576078472
 31
0.0
 11
-0.057826633
 21
-9.2327775177
 31
0.0
 11
-0.0825280131
 21
-9.204328347
 31
0.0
 11
-0.1117102193
 21
-9.1730709754
 31
0.0
 11
-0.1445416632
 21
-9.139896171
 31
0.0
 11
-0.1800885075
 21
-9.1057475484
 31
0.0
  0
SPLINE
  5
61D
100
AcDbEntity
  8
RACCORDO
100
AcDbSpline
 62
7
  6
CONTINUOUS
 70
0
 71
3
 72
18
 73
14
 74
12
 42
0.0000001
 43
0.0000001
 44
0.0000000001
 12
-0.0218937457
 22
0.0218937457
 32
0.0
 13
-0.0004540093
 23
0.0309591032
 33
0.0
 40
0.0
 40
0.0
 40
0.0
 40
0.0
 40
0.0061230804
 40
0.0197886283
 40
0.0411558385
 40
0.0702391084
 40
0.1070103274
 40
0.1514243738
 40
0.262966748
 40
0.4042993245
 40
0.5747622367
 40
0.7736343141
 40
1.0
 40
1.0
 40
1.0
 40
1.0
 10
4.5474325936
 20
18.8684588169
 30
0.0
 10
4.5473879079
 20
18.8685035026
 30
0.0
 10
4.5473828658
 20
18.8687327815
 30
0.0
 10
4.5473521216
 20
18.8691366192
 30
0.0
 10
4.5473727931
 20
18.8698092367
 30
0.0
 10
4.5474042925
 20
18.8707041545
 30
0.0
 10
4.5474637992
 20
18.8718424917
 30
0.0
 10
4.5475751091
 20
18.8738276291
 30
0.0
 10
4.5477564659
 20
18.8768910827
 30
0.0
 10
4.547982464
 20
18.8812542591
 30
0.0
 10
4.5481873992
 20
18.8865210815
 30
0.0
 10
4.5483137314
 20
18.8926682697
 30
0.0
 10
4.5483046028
 20
18.8970576064
 30
0.0
 10
4.5482703455
 20
18.8993936326
 30
0.0
 11
4.5474325936
 21
18.8684588169
 31
0.0
 11
4.547383855
 21
18.8686420304
 31
0.0
 11
4.5473635756
 21
18.8690646628
 31
0.0
 11
4.5473706559
 21
18.8697262057
 31
0.0
 11
4.5474038088
 21
18.870626084
 31
0.0
 11
4.5474603059
 21
18.8717632077
 31
0.0
 11
4.54753675
 21
18.8731362482
 31
0.0
 11
4.5477345443
 21
18.8765842027
 31
0.0
 11
4.5479584218
 21
18.8809544725
 31
0.0
 11
4.5481611102
 21
18.8862285255
 31
0.0
 11
4.5482861799
 21
18.8923848183
 31
0.0
 11
4.5482703455
 21
18.8993936326
 31
0.0
  0
SPLINE
  5
61E
100
AcDbEntity
  8
RACCORDO
100
AcDbSpline
 62
7
  6
CONTINUOUS
 70
0
 71
3
 72
18
 73
14
 74
12
 42
0.0000001
 43
0.0000001
 44
0.0000000001
 12
-0.0004540093
 22
-0.0309591033
 32
0.0
 13
-0.0218937457
 23
-0.0218937457
 33
0.0
 40
0.0
 40
0.0
 40
0.0
 40
0.0
 40
0.226365674
 40
0.4252377396
 40
0.5957006744
 40
0.7370332524
 40
0.8485756137
 40
0.8929896623
 40
0.9297608876
 40
0.9588441629
 40
0.9802113739
 40
0.9938769205
 40
1.0
 40
1.0
 40
1.0
 40
1.0
 10
3.7244222706
 20
18.8993936326
 30
0.0
 10
3.7243880132
 20
18.8970576065
 30
0.0
 10
3.7243788848
 20
18.89266827
 30
0.0
 10
3.7245052166
 20
18.8865210818
 30
0.0
 10
3.7247101519
 20
18.8812542593
 30
0.0
 10
3.7249361504
 20
18.8768910828
 30
0.0
 10
3.7251175069
 20
18.8738276293
 30
0.0
 10
3.7252288166
 20
18.871842492
 30
0.0
 10
3.7252883235
 20
18.8707041546
 30
0.0
 10
3.725319823
 20
18.8698092367
 30
0.0
 10
3.7253404945
 20
18.8691366192
 30
0.0
 10
3.7253097503
 20
18.8687327815
 30
0.0
 10
3.7253047082
 20
18.8685035026
 30
0.0
 10
3.7252600225
 20
18.8684588169
 30
0.0
 11
3.7244222706
 21
18.8993936326
 31
0.0
 11
3.7244064363
 21
18.8923848187
 31
0.0
 11
3.7245315057
 21
18.8862285262
 31
0.0
 11
3.7247341942
 21
18.8809544725
 31
0.0
 11
3.7249580718
 21
18.8765842027
 31
0.0
 11
3.7251558659
 21
18.8731362486
 31
0.0
 11
3.72523231
 21
18.871763208
 31
0.0
 11
3.7252888071
 21
18.8706260841
 31
0.0
 11
3.7253219602
 21
18.8697262056
 31
0.0
 11
3.7253290405
 21
18.8690646627
 31
0.0
 11
3.7253087611
 21
18.8686420304
 31
0.0
 11
3.7252600225
 21
18.8684588169
 31
0.0
  0
SPLINE
  5
61F
100
AcDbEntity
  8
RACCORDO
100
AcDbSpline
 62
253
  6
CONTINUOUS
 70
0
 71
3
 72
11
 73
7
 74
5
 42
0.0000001
 43
0.0000001
 44
0.0000000001
 12
-0.1155126165
 22
0.1601562031
 32
0.0
 13
0.0544919657
 23
0.1897993667
 33
0.0
 40
0.0
 40
0.0
 40
0.0
 40
0.0
 40
0.2316064789
 40
0.4732126703
 40
0.7288819139
 40
1.0
 40
1.0
 40
1.0
 40
1.0
 10
10.1945466141
 20
-9.3649856865
 30
0.0
 10
10.1856287906
 20
-9.3526212818
 30
0.0
 10
10.1708025665
 20
-9.324748063
 30
0.0
 10
10.1595241353
 20
-9.2776614063
 30
0.0
 10
10.1590889829
 20
-9.2267084339
 30
0.0
 10
10.1657692233
 20
-9.1924375554
 30
0.0
 10
10.1706938092
 20
-9.175284875
 30
0.0
 11
10.1945466141
 21
-9.3649856865
 31
0.0
 11
10.1729134
 21
-9.3246910372
 31
0.0
 11
10.16149166
 21
-9.2783691858
 31
0.0
 11
10.1607415456
 21
-9.2278885474
 31
0.0
 11
10.1706938092
 21
-9.175284875
 31
0.0
  0
LINE
  5
620
100
AcDbEntity
  8
RACCORDO
100
AcDbLine
 62
7
  6
CONTINUOUS
 10
-0.3127940832
 20
11.7610183565
 11
-0.3134444808
 21
11.8819829468
  0
SPLINE
  5
621
100
AcDbEntity
  8
RACCORDO
100
AcDbSpline
 62
7
  6
CONTINUOUS
 70
0
 71
3
 72
10
 73
6
 74
4
 42
0.0000001
 43
0.0000001
 44
0.0000000001
 12
0.0031637599
 22
-0.6321854161
 32
0.0
 13
-0.0
 23
-0.6321933326
 33
0.0
 40
0.0
 40
0.0
 40
0.0
 40
0.0
 40
0.2263950786
 40
0.4763756231
 40
1.0
 40
1.0
 40
1.0
 40
1.0
 10
-0.3127940832
 20
11.7610183565
 30
0.0
 10
-0.31255533
 20
11.7133104675
 30
0.0
 10
-0.3122642694
 20
11.6129235893
 30
0.0
 10
-0.3118488545
 20
11.4021929342
 30
0.0
 10
-0.3117265215
 20
11.2391702406
 30
0.0
 10
-0.3117265215
 20
11.128826294
 30
0.0
 11
-0.3127940832
 21
11.7610183565
 31
0.0
 11
-0.3122997223
 21
11.617893751
 31
0.0
 11
-0.3119833129
 21
11.4598580343
 31
0.0
 11
-0.3117265215
 21
11.128826294
 31
0.0
  0
SPLINE
  5
622
100
AcDbEntity
  8
RACCORDO
100
AcDbSpline
 62
253
  6
CONTINUOUS
 70
0
 71
3
 72
11
 73
7
 74
5
 42
0.0000001
 43
0.0000001
 44
0.0000000001
 12
0.1169073886
 22
-0.1606138779
 32
0.0
 13
-0.0549529328
 23
-0.1909039823
 33
0.0
 40
0.0
 40
0.0
 40
0.0
 40
0.0
 40
0.2313641417
 40
0.4728701232
 40
0.7286268725
 40
1.0
 40
1.0
 40
1.0
 40
1.0
 10
-11.120343936
 20
10.8704962596
 30
0.0
 10
-11.1113278768
 20
10.8581094956
 30
0.0
 10
-11.0963290127
 20
10.8301317811
 30
0.0
 10
-11.0849149769
 20
10.7827898349
 30
0.0
 10
-11.0844616248
 20
10.7315106039
 30
0.0
 10
-11.0912027068
 20
10.6970125134
 30
0.0
 10
-11.0961736232
 20
10.6797437765
 30
0.0
 11
-11.120343936
 21
10.8704962596
 31
0.0
 11
-11.0984679886
 21
10.8300743084
 31
0.0
 11
-11.0869064373
 21
10.7835116315
 31
0.0
 11
-11.0861309219
 21
10.7327099706
 31
0.0
 11
-11.0961736232
 21
10.6797437765
 31
0.0
  0
LINE
  5
623
100
AcDbEntity
  8
RACCORDO
100
AcDbLine
 62
7
  6
CONTINUOUS
 10
-0.3127940844
 20
-1.7389814057
 11
-0.3134444808
 21
-1.6180171851
  0
SPLINE
  5
624
100
AcDbEntity
  8
RACCORDO
100
AcDbSpline
 62
7
  6
CONTINUOUS
 70
0
 71
3
 72
10
 73
6
 74
4
 42
0.0000001
 43
0.0000001
 44
0.0000000001
 12
0.0031637672
 22
-0.632185654
 32
0.0
 13
0.0
 23
-0.6321935704
 33
0.0
 40
0.0
 40
0.0
 40
0.0
 40
0.0
 40
0.2263950278
 40
0.4763755795
 40
1.0
 40
1.0
 40
1.0
 40
1.0
 10
-0.3127940844
 20
-1.7389814057
 30
0.0
 10
-0.3125553307
 20
-1.7866893019
 30
0.0
 10
-0.3122642699
 20
-1.8870762086
 30
0.0
 10
-0.3118488546
 20
-2.097806943
 30
0.0
 10
-0.3117265215
 20
-2.2608297087
 30
0.0
 10
-0.3117265215
 20
-2.371173706
 30
0.0
 11
-0.3127940844
 21
-1.7389814057
 31
0.0
 11
-0.3122997229
 21
-1.8821060328
 31
0.0
 11
-0.3119833131
 21
-2.0401418136
 31
0.0
 11
-0.3117265215
 21
-2.371173706
 31
0.0
  0
SPLINE
  5
625
100
AcDbEntity
  8
RACCORDO
100
AcDbSpline
 62
253
  6
CONTINUOUS
 70
0
 71
3
 72
11
 73
7
 74
5
 42
0.0000001
 43
0.0000001
 44
0.0000000001
 12
0.1169074452
 22
-0.1606138387
 32
0.0
 13
-0.0549529444
 23
-0.1909039807
 33
0.0
 40
0.0
 40
0.0
 40
0.0
 40
0.0
 40
0.2313641382
 40
0.4728701121
 40
0.7286268603
 40
1.0
 40
1.0
 40
1.0
 40
1.0
 10
-11.1203439236
 20
-2.6295038379
 30
0.0
 10
-11.1113278601
 20
-2.6418905987
 30
0.0
 10
-11.096328988
 20
-2.6698683088
 30
0.0
 10
-11.0849149449
 20
-2.7172102533
 30
0.0
 10
-11.0844615907
 20
-2.7684894853
 30
0.0
 10
-11.0912026742
 20
-2.8029875766
 30
0.0
 10
-11.0961735919
 20
-2.8202563142
 30
0.0
 11
-11.1203439236
 21
-2.6295038379
 31
0.0
 11
-11.0984679648
 21
-2.6699257826
 31
0.0
 11
-11.0869064063
 21
-2.7164884565
 31
0.0
 11
-11.0861308884
 21
-2.7672901176
 31
0.0
 11
-11.0961735919
 21
-2.8202563142
 31
0.0
  0
LINE
  5
626
100
AcDbEntity
  8
RACCORDO
100
AcDbLine
 62
7
  6
CONTINUOUS
 10
-11.1999686532
 20
0.6490530583
 11
-11.1998772633
 21
0.6491301568
  0
LINE
  5
627
100
AcDbEntity
  8
RACCORDO
100
AcDbLine
 62
7
  6
CONTINUOUS
 10
-11.1999686532
 20
14.1490530583
 11
-11.1998772633
 21
14.1491301568
  0
LINE
  5
628
100
AcDbEntity
  8
RACCORDO
100
AcDbLine
 62
7
  6
CONTINUOUS
 10
10.2726612692
 20
-12.6263986797
 11
10.2725698794
 21
-12.6264757783
  0
SPLINE
  5
629
100
AcDbEntity
  8
RACCORDO
100
AcDbSpline
 62
7
  6
CONTINUOUS
 70
0
 71
3
 72
17
 73
13
 74
11
 42
0.0000001
 43
0.0000001
 44
0.0000000001
 12
0.0227191893
 22
-0.0227191893
 32
0.0
 13
0.0007438399
 23
-0.0321211742
 33
0.0
 40
0.0
 40
0.0
 40
0.0
 40
0.0
 40
0.0071965274
 40
0.0215438192
 40
0.0433194385
 40
0.0725797704
 40
0.1535702685
 40
0.2643742891
 40
0.4047436472
 40
0.5743686079
 40
0.772925085
 40
1.0
 40
1.0
 40
1.0
 40
1.0
 10
3.7229148777
 20
10.6572491621
 30
0.0
 10
3.7229693774
 20
10.6571946624
 30
0.0
 10
3.72301161
 20
10.6569478488
 30
0.0
 10
3.7230606014
 20
10.656500516
 30
0.0
 10
3.7230744981
 20
10.6557927446
 30
0.0
 10
3.7230668571
 20
10.6543829246
 30
0.0
 10
3.7229812591
 20
10.6520136129
 30
0.0
 10
3.7228337612
 20
10.6484608005
 30
0.0
 10
3.7226554261
 20
10.6439569776
 30
0.0
 10
3.7225033671
 20
10.638512583
 30
0.0
 10
3.7224300339
 20
10.6321374166
 30
0.0
 10
3.7224793531
 20
10.6275786653
 30
0.0
 10
3.7225356556
 20
10.625147361
 30
0.0
 11
3.7229148777
 21
10.6572491621
 31
0.0
 11
3.7229955985
 21
10.6570324869
 31
0.0
 11
3.723046967
 21
10.6565743825
 31
0.0
 11
3.7230703948
 21
10.6558751289
 31
0.0
 11
3.7230672934
 21
10.6549350058
 31
0.0
 11
3.7229908602
 21
10.6523339212
 31
0.0
 11
3.7228478795
 21
10.6487766841
 31
0.0
 11
3.7226757569
 21
10.6442699324
 31
0.0
 11
3.7225257568
 21
10.6388219834
 31
0.0
 11
3.7224556913
 21
10.6324427911
 31
0.0
 11
3.7225356556
 21
10.625147361
 31
0.0
  0
SPLINE
  5
62A
100
AcDbEntity
  8
RACCORDO
100
AcDbSpline
 62
7
  6
CONTINUOUS
 70
0
 71
3
 72
17
 73
13
 74
11
 42
0.0000001
 43
0.0000001
 44
0.0000000001
 12
0.0007438415
 22
0.0321212393
 32
0.0
 13
0.0227192354
 23
0.0227192354
 33
0.0
 40
0.0
 40
0.0
 40
0.0
 40
0.0
 40
0.2270911668
 40
0.4256331189
 40
0.5952516089
 40
0.7356225284
 40
0.8464329267
 40
0.9274178789
 40
0.9566793852
 40
0.9784550101
 40
0.9928022467
 40
1.0
 40
1.0
 40
1.0
 40
1.0
 10
4.5501569605
 20
10.625147361
 30
0.0
 10
4.5502132671
 20
10.6275788442
 30
0.0
 10
4.5502620107
 20
10.6321376211
 30
0.0
 10
4.5501898351
 20
10.6385127698
 30
0.0
 10
4.5500361826
 20
10.6439569216
 30
0.0
 10
4.5498597042
 20
10.6484608325
 30
0.0
 10
4.549710265
 20
10.6520136173
 30
0.0
 10
4.5496263291
 20
10.6543829864
 30
0.0
 10
4.5496177792
 20
10.6557927629
 30
0.0
 10
4.5496316277
 20
10.6565005376
 30
0.0
 10
4.549680788
 20
10.6569479107
 30
0.0
 10
4.5497232292
 20
10.657194653
 30
0.0
 10
4.5497777384
 20
10.6572491621
 30
0.0
 11
4.5501569605
 21
10.625147361
 31
0.0
 11
4.5502367136
 21
10.6324433304
 31
0.0
 11
4.5501669594
 21
10.6388220723
 31
0.0
 11
4.5500164644
 21
10.6442698108
 31
0.0
 11
4.5498449139
 21
10.6487766436
 31
0.0
 11
4.5497013404
 21
10.6523340692
 31
0.0
 11
4.5496254255
 21
10.6549349959
 31
0.0
 11
4.5496219342
 21
10.6558751573
 31
0.0
 11
4.5496453171
 21
10.656574414
 31
0.0
 11
4.5496968797
 21
10.6570324957
 31
0.0
 11
4.5497777384
 21
10.6572491621
 31
0.0
  0
SPLINE
  5
62B
100
AcDbEntity
  8
RACCORDO
100
AcDbSpline
 62
253
  6
CONTINUOUS
 70
0
 71
3
 72
11
 73
7
 74
5
 42
0.0000001
 43
0.0000001
 44
0.0000000001
 12
0.2157430467
 22
-0.2037499223
 32
0.0
 13
0.0124082515
 23
-0.2964879902
 33
0.0
 40
0.0
 40
0.0
 40
0.0
 40
0.0
 40
0.2746264757
 40
0.5282488583
 40
0.7679687271
 40
1.0
 40
1.0
 40
1.0
 40
1.0
 10
10.1945474639
 20
-9.3649864868
 30
0.0
 10
10.2142970481
 20
-9.3836381945
 30
0.0
 10
10.2491271995
 20
-9.4230876267
 30
0.0
 10
10.2878848008
 20
-9.4889433317
 30
0.0
 10
10.3118772551
 20
-9.5570269689
 30
0.0
 10
10.3185256109
 20
-9.6035763017
 30
0.0
 10
10.3194853116
 20
-9.626507797
 30
0.0
 11
10.1945474639
 21
-9.3649864868
 31
0.0
 11
10.2483037736
 21
-9.4262371982
 31
0.0
 11
10.286318818
 21
-9.4911925448
 31
0.0
 11
10.3098191707
 21
-9.5583349562
 31
0.0
 11
10.3194853116
 21
-9.626507797
 31
0.0
  0
SPLINE
  5
62C
100
AcDbEntity
  8
RACCORDO
100
AcDbSpline
 62
253
  6
CONTINUOUS
 70
0
 71
3
 72
11
 73
7
 74
5
 42
0.0000001
 43
0.0000001
 44
0.0000000001
 12
-0.012408171
 22
-0.2964881768
 32
0.0
 13
-0.2157430592
 23
-0.2037501757
 33
0.0
 40
0.0
 40
0.0
 40
0.0
 40
0.0
 40
0.2320308673
 40
0.4717506048
 40
0.7253731083
 40
1.0
 40
1.0
 40
1.0
 40
1.0
 10
10.3194853116
 20
-13.0508377583
 30
0.0
 10
10.3185256187
 20
-13.0737692279
 30
0.0
 10
10.3118772183
 20
-13.1203185332
 30
0.0
 10
10.287884717
 20
-13.188402153
 30
0.0
 10
10.2491270613
 20
-13.2542579253
 30
0.0
 10
10.2142968666
 20
-13.2937074314
 30
0.0
 10
10.1945472513
 20
-13.3123591905
 30
0.0
 11
10.3194853116
 21
-13.0508377583
 31
0.0
 11
10.3098191467
 21
-13.119010517
 31
0.0
 11
10.2863187505
 21
-13.1861529184
 31
0.0
 11
10.248303655
 21
-13.2511083304
 31
0.0
 11
10.1945472513
 21
-13.3123591905
 31
0.0
  0
SPLINE
  5
62D
100
AcDbEntity
  8
RACCORDO
100
AcDbSpline
 62
253
  6
CONTINUOUS
 70
0
 71
3
 72
11
 73
7
 74
5
 42
0.0000001
 43
0.0000001
 44
0.0000000001
 12
-0.2182353257
 22
0.2044218497
 32
0.0
 13
-0.0124944275
 23
0.2987621785
 33
0.0
 40
0.0
 40
0.0
 40
0.0
 40
0.0
 40
0.2748694542
 40
0.5285177108
 40
0.7681351479
 40
1.0
 40
1.0
 40
1.0
 40
1.0
 10
-11.1203449493
 20
10.8704972046
 30
0.0
 10
-11.1403403575
 20
10.8892269787
 30
0.0
 10
-11.1756005795
 20
10.9288764818
 30
0.0
 10
-11.2148337834
 20
10.9951569004
 30
0.0
 10
-11.2391077692
 20
11.0637072299
 30
0.0
 10
-11.2458270227
 20
11.1105872032
 30
0.0
 10
-11.2467926956
 20
11.1336780193
 30
0.0
 11
-11.1203449493
 21
10.8704972046
 31
0.0
 11
-11.174780659
 21
10.9320791874
 31
0.0
 11
-11.2132547482
 21
10.9974433463
 31
0.0
 11
-11.2370262159
 21
11.065036336
 31
0.0
 11
-11.2467926956
 21
11.1336780193
 31
0.0
  0
SPLINE
  5
62E
100
AcDbEntity
  8
RACCORDO
100
AcDbSpline
 62
253
  6
CONTINUOUS
 70
0
 71
3
 72
11
 73
7
 74
5
 42
0.0000001
 43
0.0000001
 44
0.0000000001
 12
-0.2182357773
 22
-0.2044220794
 32
0.0
 13
-0.0124944412
 23
-0.298762665
 33
0.0
 40
0.0
 40
0.0
 40
0.0
 40
0.0
 40
0.2748694171
 40
0.5285178441
 40
0.7681353593
 40
1.0
 40
1.0
 40
1.0
 40
1.0
 10
-11.1203448895
 20
14.8521574074
 30
0.0
 10
-11.1403403365
 20
14.8334276148
 30
0.0
 10
-11.1756006064
 20
14.7937780116
 30
0.0
 10
-11.2148337782
 20
14.7274974036
 30
0.0
 10
-11.2391077479
 20
14.6589469453
 30
0.0
 10
-11.2458270226
 20
14.612066912
 30
0.0
 10
-11.2467926956
 20
14.5889760794
 30
0.0
 11
-11.1203448895
 21
14.8521574074
 31
0.0
 11
-11.1747806563
 21
14.7905753113
 31
0.0
 11
-11.2132547492
 21
14.7252109522
 31
0.0
 11
-11.2370262108
 21
14.6576178121
 31
0.0
 11
-11.2467926956
 21
14.5889760794
 31
0.0
  0
SPLINE
  5
62F
100
AcDbEntity
  8
RACCORDO
100
AcDbSpline
 62
253
  6
CONTINUOUS
 70
0
 71
3
 72
11
 73
7
 74
5
 42
0.0000001
 43
0.0000001
 44
0.0000000001
 12
-0.2182354472
 22
0.2044221452
 32
0.0
 13
-0.0124944574
 23
0.2987624682
 33
0.0
 40
0.0
 40
0.0
 40
0.0
 40
0.0
 40
0.2748697639
 40
0.5285180581
 40
0.768135381
 40
1.0
 40
1.0
 40
1.0
 40
1.0
 10
-11.1203447414
 20
-2.6295030749
 30
0.0
 10
-11.1403401833
 20
-2.6107732526
 30
0.0
 10
-11.17560044
 20
-2.571123666
 30
0.0
 10
-11.2148337019
 20
-2.5048431723
 30
0.0
 10
-11.239107748
 20
-2.4362928228
 30
0.0
 10
-11.2458270214
 20
-2.3894128391
 30
0.0
 10
-11.2467926956
 20
-2.3663220238
 30
0.0
 11
-11.1203447414
 21
-2.6295030749
 31
0.0
 11
-11.17478054
 21
-2.5679209404
 31
0.0
 11
-11.2132546792
 21
-2.5025567123
 31
0.0
 11
-11.2370261945
 21
-2.4349637018
 31
0.0
 11
-11.2467926956
 21
-2.3663220238
 31
0.0
  0
SPLINE
  5
630
100
AcDbEntity
  8
RACCORDO
100
AcDbSpline
 62
253
  6
CONTINUOUS
 70
0
 71
3
 72
11
 73
7
 74
5
 42
0.0000001
 43
0.0000001
 44
0.0000000001
 12
-0.218235772
 22
-0.2044220413
 32
0.0
 13
-0.0124944406
 23
-0.2987626351
 33
0.0
 40
0.0
 40
0.0
 40
0.0
 40
0.0
 40
0.2748693615
 40
0.5285177679
 40
0.7681353076
 40
1.0
 40
1.0
 40
1.0
 40
1.0
 10
-11.1203449259
 20
1.3521573765
 30
0.0
 10
-11.1403403683
 20
1.3334275912
 30
0.0
 10
-11.1756006302
 20
1.2937779977
 30
0.0
 10
-11.2148337934
 20
1.2274973992
 30
0.0
 10
-11.2391077525
 20
1.1589469385
 30
0.0
 10
-11.2458270224
 20
1.1120669021
 30
0.0
 10
-11.2467926956
 20
1.0889760666
 30
0.0
 11
-11.1203449259
 21
1.3521573765
 31
0.0
 11
-11.1747806779
 21
1.2905753004
 31
0.0
 11
-11.2132547612
 21
1.2252109516
 31
0.0
 11
-11.2370262148
 21
1.1576178085
 31
0.0
 11
-11.2467926956
 21
1.0889760666
 31
0.0
  0
LINE
  5
631
100
AcDbEntity
  8
RACCORDO
100
AcDbLine
 62
253
  6
CONTINUOUS
 10
-6.2071597207
 20
14.6521029196
 11
-6.2146480626
 21
14.4840874686
  0
SPLINE
  5
632
100
AcDbEntity
  8
RACCORDO
100
AcDbSpline
 62
253
  6
CONTINUOUS
 70
0
 71
3
 72
15
 73
11
 74
9
 42
0.0000001
 43
0.0000001
 44
0.0000000001
 12
-0.3214892324
 22
-0.5031374491
 32
0.0
 13
-0.3214921235
 23
0.5031356018
 33
0.0
 40
0.0
 40
0.0
 40
0.0
 40
0.0
 40
0.1247104312
 40
0.249641424
 40
0.3747644403
 40
0.5000000733
 40
0.6252357095
 40
0.7503587073
 40
0.8752897011
 40
1.0
 40
1.0
 40
1.0
 40
1.0
 10
-5.7126606229
 20
14.4840856259
 30
0.0
 10
-5.7260249765
 20
14.4631701299
 30
0.0
 10
-5.7580002157
 20
14.4243815781
 30
0.0
 10
-5.8186731867
 20
14.3797339541
 30
0.0
 10
-5.8887009399
 20
14.3515017041
 30
0.0
 10
-5.9636548793
 20
14.3418454252
 30
0.0
 10
-6.0386087553
 20
14.3515022854
 30
0.0
 10
-6.1086362341
 20
14.3797351321
 30
0.0
 10
-6.1693089737
 20
14.424383129
 30
0.0
 10
-6.2012835208
 20
14.463172139
 30
0.0
 10
-6.2146479805
 20
14.4840875361
 30
0.0
 11
-5.7126606229
 21
14.4840856259
 31
0.0
 11
-5.7600784331
 21
14.4266737231
 31
0.0
 11
-5.8201838284
 21
14.3824974141
 31
0.0
 11
-5.8894906313
 21
14.3546067384
 31
0.0
 11
-5.9636548687
 21
14.3450652469
 31
0.0
 11
-6.0378190327
 21
14.3546073235
 31
0.0
 11
-6.1071255997
 21
14.3824985559
 31
0.0
 11
-6.1672306421
 21
14.426675346
 31
0.0
 11
-6.2146479805
 21
14.4840875361
 31
0.0
  0
LINE
  5
633
100
AcDbEntity
  8
RACCORDO
100
AcDbLine
 62
253
  6
CONTINUOUS
 10
-5.7201476634
 20
14.6521029194
 11
-5.7126605436
 21
14.4840855864
  0
SPLINE
  5
634
100
AcDbEntity
  8
RACCORDO
100
AcDbSpline
 62
253
  6
CONTINUOUS
 70
0
 71
3
 72
15
 73
11
 74
9
 42
0.0000001
 43
0.0000001
 44
0.0000000001
 12
-0.3320980392
 22
-0.4581977875
 32
0.0
 13
-0.3320980303
 23
0.458197794
 33
0.0
 40
0.0
 40
0.0
 40
0.0
 40
0.0
 40
0.1247349824
 40
0.2496780774
 40
0.3747912712
 40
0.4999999999
 40
0.6252087289
 40
0.7503219226
 40
0.8752650176
 40
1.0
 40
1.0
 40
1.0
 40
1.0
 10
-5.7201477374
 20
14.6521029406
 30
0.0
 10
-5.7339558184
 20
14.633051843
 30
0.0
 10
-5.766265783
 20
14.5980708457
 30
0.0
 10
-5.8256043074
 20
14.5584926681
 30
0.0
 10
-5.8926556788
 20
14.5338086869
 30
0.0
 10
-5.9636536883
 20
14.5254306751
 30
0.0
 10
-6.0346516975
 20
14.5338086896
 30
0.0
 10
-6.1017030679
 20
14.5584926736
 30
0.0
 10
-6.161041591
 20
14.5980708533
 30
0.0
 10
-6.1933515535
 20
14.6330518523
 30
0.0
 10
-6.2071596342
 20
14.6521029502
 30
0.0
 11
-5.7201477374
 21
14.6521029406
 31
0.0
 11
-5.7680408728
 21
14.6002501259
 31
0.0
 11
-5.8268480072
 21
14.5609967503
 31
0.0
 11
-5.8932878929
 21
14.5365331226
 31
0.0
 11
-5.9636536882
 21
14.5282240566
 31
0.0
 11
-6.0340194833
 21
14.5365331253
 31
0.0
 11
-6.100459368
 21
14.5609967557
 31
0.0
 11
-6.1592665009
 21
14.6002501336
 31
0.0
 11
-6.2071596342
 21
14.6521029502
 31
0.0
  0
LINE
  5
635
100
AcDbEntity
  8
RACCORDO
100
AcDbLine
 62
253
  6
CONTINUOUS
 10
-6.2071597207
 20
1.1521029196
 11
-6.2146480626
 21
0.9840874686
  0
SPLINE
  5
636
100
AcDbEntity
  8
RACCORDO
100
AcDbSpline
 62
253
  6
CONTINUOUS
 70
0
 71
3
 72
15
 73
11
 74
9
 42
0.0000001
 43
0.0000001
 44
0.0000000001
 12
-0.3214892324
 22
-0.5031374491
 32
0.0
 13
-0.3214921235
 23
0.5031356018
 33
0.0
 40
0.0
 40
0.0
 40
0.0
 40
0.0
 40
0.1247104312
 40
0.249641424
 40
0.3747644403
 40
0.5000000733
 40
0.6252357095
 40
0.7503587073
 40
0.8752897011
 40
1.0
 40
1.0
 40
1.0
 40
1.0
 10
-5.7126606229
 20
0.9840856259
 30
0.0
 10
-5.7260249765
 20
0.9631701299
 30
0.0
 10
-5.7580002157
 20
0.9243815781
 30
0.0
 10
-5.8186731867
 20
0.8797339541
 30
0.0
 10
-5.8887009399
 20
0.8515017041
 30
0.0
 10
-5.9636548793
 20
0.8418454252
 30
0.0
 10
-6.0386087553
 20
0.8515022854
 30
0.0
 10
-6.1086362341
 20
0.8797351321
 30
0.0
 10
-6.1693089737
 20
0.924383129
 30
0.0
 10
-6.2012835208
 20
0.963172139
 30
0.0
 10
-6.2146479805
 20
0.9840875361
 30
0.0
 11
-5.7126606229
 21
0.9840856259
 31
0.0
 11
-5.7600784331
 21
0.9266737231
 31
0.0
 11
-5.8201838284
 21
0.8824974141
 31
0.0
 11
-5.8894906313
 21
0.8546067384
 31
0.0
 11
-5.9636548687
 21
0.8450652469
 31
0.0
 11
-6.0378190327
 21
0.8546073235
 31
0.0
 11
-6.1071255997
 21
0.8824985559
 31
0.0
 11
-6.1672306421
 21
0.926675346
 31
0.0
 11
-6.2146479805
 21
0.9840875361
 31
0.0
  0
LINE
  5
637
100
AcDbEntity
  8
RACCORDO
100
AcDbLine
 62
253
  6
CONTINUOUS
 10
-5.7201476634
 20
1.1521029194
 11
-5.7126605436
 21
0.9840855864
  0
SPLINE
  5
638
100
AcDbEntity
  8
RACCORDO
100
AcDbSpline
 62
253
  6
CONTINUOUS
 70
0
 71
3
 72
15
 73
11
 74
9
 42
0.0000001
 43
0.0000001
 44
0.0000000001
 12
-0.3320980392
 22
-0.4581977875
 32
0.0
 13
-0.3320980303
 23
0.458197794
 33
0.0
 40
0.0
 40
0.0
 40
0.0
 40
0.0
 40
0.1247349824
 40
0.2496780774
 40
0.3747912712
 40
0.4999999999
 40
0.6252087289
 40
0.7503219226
 40
0.8752650176
 40
1.0
 40
1.0
 40
1.0
 40
1.0
 10
-5.7201477374
 20
1.1521029406
 30
0.0
 10
-5.7339558184
 20
1.133051843
 30
0.0
 10
-5.766265783
 20
1.0980708457
 30
0.0
 10
-5.8256043074
 20
1.0584926681
 30
0.0
 10
-5.8926556788
 20
1.0338086869
 30
0.0
 10
-5.9636536883
 20
1.0254306751
 30
0.0
 10
-6.0346516975
 20
1.0338086896
 30
0.0
 10
-6.1017030679
 20
1.0584926736
 30
0.0
 10
-6.161041591
 20
1.0980708533
 30
0.0
 10
-6.1933515535
 20
1.1330518523
 30
0.0
 10
-6.2071596342
 20
1.1521029502
 30
0.0
 11
-5.7201477374
 21
1.1521029406
 31
0.0
 11
-5.7680408728
 21
1.1002501259
 31
0.0
 11
-5.8268480072
 21
1.0609967503
 31
0.0
 11
-5.8932878929
 21
1.0365331226
 31
0.0
 11
-5.9636536882
 21
1.0282240566
 31
0.0
 11
-6.0340194833
 21
1.0365331253
 31
0.0
 11
-6.100459368
 21
1.0609967557
 31
0.0
 11
-6.1592665009
 21
1.1002501336
 31
0.0
 11
-6.2071596342
 21
1.1521029502
 31
0.0
  0
LINE
  5
639
100
AcDbEntity
  8
RACCORDO
100
AcDbLine
 62
253
  6
CONTINUOUS
 10
4.792117703
 20
-9.5641334947
 11
4.7845840427
 21
-9.7331526321
  0
SPLINE
  5
63A
100
AcDbEntity
  8
RACCORDO
100
AcDbSpline
 62
253
  6
CONTINUOUS
 70
0
 71
3
 72
15
 73
11
 74
9
 42
0.0000001
 43
0.0000001
 44
0.0000000001
 12
-0.3206190159
 22
-0.5071260386
 32
0.0
 13
-0.3206219847
 23
0.5071241616
 33
0.0
 40
0.0
 40
0.0
 40
0.0
 40
0.0
 40
0.1247047806
 40
0.2496340568
 40
0.3747594443
 40
0.5000000749
 40
0.6252407089
 40
0.7503660776
 40
0.8752953544
 40
1.0
 40
1.0
 40
1.0
 40
1.0
 10
5.2881071857
 20
-9.7331544673
 30
0.0
 10
5.274779611
 20
-9.7542348145
 30
0.0
 10
5.2428151323
 20
-9.7933524912
 30
0.0
 10
5.1819872082
 20
-9.8384161885
 30
0.0
 10
5.1116676024
 20
-9.8669298002
 30
0.0
 10
5.0363451017
 20
-9.8766856168
 30
0.0
 10
4.9610226662
 20
-9.866929206
 30
0.0
 10
4.8907033423
 20
-9.838414985
 30
0.0
 10
4.8298756558
 20
-9.7933509073
 30
0.0
 10
4.797911886
 20
-9.7542327662
 30
0.0
 10
4.7845842023
 20
-9.7331525199
 30
0.0
 11
5.2881071857
 21
-9.7331544673
 31
0.0
 11
5.2407091966
 21
-9.7910464198
 31
0.0
 11
5.1804549354
 21
-9.8356294331
 31
0.0
 11
5.1108659879
 21
-9.8637941634
 31
0.0
 11
5.0363451126
 21
-9.8734325811
 31
0.0
 11
4.9618243127
 21
-9.8637935654
 31
0.0
 11
4.8922356075
 21
-9.8356282666
 31
0.0
 11
4.8319817086
 21
-9.7910447631
 31
0.0
 11
4.7845842023
 21
-9.7331525199
 31
0.0
  0
LINE
  5
63B
100
AcDbEntity
  8
RACCORDO
100
AcDbLine
 62
253
  6
CONTINUOUS
 10
5.280574913
 20
-9.5641334948
 11
5.2881073409
 21
-9.7331545497
  0
SPLINE
  5
63C
100
AcDbEntity
  8
RACCORDO
100
AcDbSpline
 62
253
  6
CONTINUOUS
 70
0
 71
3
 72
15
 73
11
 74
9
 42
0.0000001
 43
0.0000001
 44
0.0000000001
 12
0.3316383484
 22
-0.4615392896
 32
0.0
 13
0.3316383443
 23
0.4615392926
 33
0.0
 40
0.0
 40
0.0
 40
0.0
 40
0.0
 40
0.1247302224
 40
0.249672102
 40
0.3747873226
 40
0.5000000001
 40
0.6252126774
 40
0.7503278979
 40
0.8752697775
 40
1.0
 40
1.0
 40
1.0
 40
1.0
 10
4.7921177343
 20
-9.564133471
 30
0.0
 10
4.8059061759
 20
-9.5833227704
 30
0.0
 10
4.838231976
 20
-9.618573095
 30
0.0
 10
4.8977295668
 20
-9.6584754488
 30
0.0
 10
4.9650388175
 20
-9.6833700501
 30
0.0
 10
5.0363463062
 20
-9.6918208765
 30
0.0
 10
5.1076537948
 20
-9.6833700491
 30
0.0
 10
5.174963045
 20
-9.6584754469
 30
0.0
 10
5.2344606353
 20
-9.6185730923
 30
0.0
 10
5.2667864346
 20
-9.5833227669
 30
0.0
 10
5.2805748761
 20
-9.5641334674
 30
0.0
 11
4.7921177343
 21
-9.564133471
 31
0.0
 11
4.8400289038
 21
-9.6163797421
 31
0.0
 11
4.8989888088
 21
-9.6559518491
 31
0.0
 11
4.9656790175
 21
-9.6806224534
 31
0.0
 11
5.0363463062
 21
-9.6890032032
 31
0.0
 11
5.1070135947
 21
-9.6806224525
 31
0.0
 11
5.173703803
 21
-9.6559518472
 31
0.0
 11
5.2326637074
 21
-9.6163797394
 31
0.0
 11
5.2805748761
 21
-9.5641334674
 31
0.0
  0
LINE
  5
63D
100
AcDbEntity
  8
RACCORDO
100
AcDbLine
 62
253
  6
CONTINUOUS
 10
-5.7201476628
 20
11.0705514584
 11
-5.7126593212
 21
11.2385669097
  0
SPLINE
  5
63E
100
AcDbEntity
  8
RACCORDO
100
AcDbSpline
 62
253
  6
CONTINUOUS
 70
0
 71
3
 72
15
 73
11
 74
9
 42
0.0000001
 43
0.0000001
 44
0.0000000001
 12
0.3214892324
 22
0.5031374492
 32
0.0
 13
0.3214921235
 23
-0.5031356019
 33
0.0
 40
0.0
 40
0.0
 40
0.0
 40
0.0
 40
0.1247104312
 40
0.249641424
 40
0.3747644403
 40
0.5000000733
 40
0.6252357095
 40
0.7503587073
 40
0.8752897011
 40
1.0
 40
1.0
 40
1.0
 40
1.0
 10
-6.214646761
 20
11.2385687524
 30
0.0
 10
-6.2012824074
 20
11.2594842484
 30
0.0
 10
-6.1693071682
 20
11.2982728002
 30
0.0
 10
-6.1086341972
 20
11.3429204242
 30
0.0
 10
-6.038606444
 20
11.3711526743
 30
0.0
 10
-5.9636525047
 20
11.3808089531
 30
0.0
 10
-5.8886986286
 20
11.3711520929
 30
0.0
 10
-5.8186711499
 20
11.3429192462
 30
0.0
 10
-5.7579984102
 20
11.2982712493
 30
0.0
 10
-5.7260238631
 20
11.2594822393
 30
0.0
 10
-5.7126594035
 20
11.2385668422
 30
0.0
 11
-6.214646761
 21
11.2385687524
 31
0.0
 11
-6.1672289509
 21
11.2959806552
 31
0.0
 11
-6.1071235556
 21
11.3401569642
 31
0.0
 11
-6.0378167527
 21
11.36804764
 31
0.0
 11
-5.9636525153
 21
11.3775891314
 31
0.0
 11
-5.8894883512
 21
11.3680470548
 31
0.0
 11
-5.8201817842
 21
11.3401558224
 31
0.0
 11
-5.7600767418
 21
11.2959790323
 31
0.0
 11
-5.7126594035
 21
11.2385668422
 31
0.0
  0
LINE
  5
63F
100
AcDbEntity
  8
RACCORDO
100
AcDbLine
 62
253
  6
CONTINUOUS
 10
-6.2071597219
 20
11.0705514572
 11
-6.2146468405
 21
11.2385687919
  0
SPLINE
  5
640
100
AcDbEntity
  8
RACCORDO
100
AcDbSpline
 62
253
  6
CONTINUOUS
 70
0
 71
3
 72
15
 73
11
 74
9
 42
0.0000001
 43
0.0000001
 44
0.0000000001
 12
-0.3320980382
 22
0.4581977871
 32
0.0
 13
-0.3320980294
 23
-0.4581977935
 33
0.0
 40
0.0
 40
0.0
 40
0.0
 40
0.0
 40
0.1247349824
 40
0.2496780774
 40
0.3747912712
 40
0.5000000002
 40
0.6252087289
 40
0.7503219227
 40
0.8752650177
 40
1.0
 40
1.0
 40
1.0
 40
1.0
 10
-5.7201477378
 20
11.0705514364
 30
0.0
 10
-5.7339558188
 20
11.089602534
 30
0.0
 10
-5.7662657832
 20
11.1245835313
 30
0.0
 10
-5.8256043074
 20
11.164161709
 30
0.0
 10
-5.8926556787
 20
11.1888456905
 30
0.0
 10
-5.963653688
 20
11.1972237024
 30
0.0
 10
-6.0346516972
 20
11.1888456881
 30
0.0
 10
-6.1017030676
 20
11.1641617045
 30
0.0
 10
-6.1610415906
 20
11.1245835251
 30
0.0
 10
-6.1933515535
 20
11.0896025265
 30
0.0
 10
-6.2071596341
 20
11.0705514286
 30
0.0
 11
-5.7201477378
 21
11.0705514364
 31
0.0
 11
-5.768040873
 21
11.1224042511
 31
0.0
 11
-5.8268480072
 21
11.1616576268
 31
0.0
 11
-5.8932878927
 21
11.1861212547
 31
0.0
 11
-5.963653688
 21
11.1944303209
 31
0.0
 11
-6.034019483
 21
11.1861212524
 31
0.0
 11
-6.1004593677
 21
11.1616576224
 31
0.0
 11
-6.1592665007
 21
11.1224042449
 31
0.0
 11
-6.2071596341
 21
11.0705514286
 31
0.0
  0
LINE
  5
641
100
AcDbEntity
  8
RACCORDO
100
AcDbLine
 62
253
  6
CONTINUOUS
 10
-5.7201476628
 20
-2.4294485416
 11
-5.7126593212
 21
-2.2614330903
  0
SPLINE
  5
642
100
AcDbEntity
  8
RACCORDO
100
AcDbSpline
 62
253
  6
CONTINUOUS
 70
0
 71
3
 72
15
 73
11
 74
9
 42
0.0000001
 43
0.0000001
 44
0.0000000001
 12
0.3214892324
 22
0.5031374492
 32
0.0
 13
0.3214921235
 23
-0.5031356019
 33
0.0
 40
0.0
 40
0.0
 40
0.0
 40
0.0
 40
0.1247104312
 40
0.249641424
 40
0.3747644403
 40
0.5000000733
 40
0.6252357095
 40
0.7503587073
 40
0.8752897011
 40
1.0
 40
1.0
 40
1.0
 40
1.0
 10
-6.214646761
 20
-2.2614312476
 30
0.0
 10
-6.2012824074
 20
-2.2405157516
 30
0.0
 10
-6.1693071682
 20
-2.2017271998
 30
0.0
 10
-6.1086341972
 20
-2.1570795758
 30
0.0
 10
-6.038606444
 20
-2.1288473257
 30
0.0
 10
-5.9636525047
 20
-2.1191910469
 30
0.0
 10
-5.8886986286
 20
-2.1288479071
 30
0.0
 10
-5.8186711499
 20
-2.1570807538
 30
0.0
 10
-5.7579984102
 20
-2.2017287507
 30
0.0
 10
-5.7260238631
 20
-2.2405177607
 30
0.0
 10
-5.7126594035
 20
-2.2614331578
 30
0.0
 11
-6.214646761
 21
-2.2614312476
 31
0.0
 11
-6.1672289509
 21
-2.2040193448
 31
0.0
 11
-6.1071235556
 21
-2.1598430358
 31
0.0
 11
-6.0378167527
 21
-2.13195236
 31
0.0
 11
-5.9636525153
 21
-2.1224108686
 31
0.0
 11
-5.8894883512
 21
-2.1319529452
 31
0.0
 11
-5.8201817842
 21
-2.1598441776
 31
0.0
 11
-5.7600767418
 21
-2.2040209677
 31
0.0
 11
-5.7126594035
 21
-2.2614331578
 31
0.0
  0
LINE
  5
643
100
AcDbEntity
  8
RACCORDO
100
AcDbLine
 62
253
  6
CONTINUOUS
 10
-6.2071597219
 20
-2.4294485428
 11
-6.2146468405
 21
-2.2614312081
  0
SPLINE
  5
644
100
AcDbEntity
  8
RACCORDO
100
AcDbSpline
 62
253
  6
CONTINUOUS
 70
0
 71
3
 72
15
 73
11
 74
9
 42
0.0000001
 43
0.0000001
 44
0.0000000001
 12
-0.3320980382
 22
0.4581977871
 32
0.0
 13
-0.3320980294
 23
-0.4581977935
 33
0.0
 40
0.0
 40
0.0
 40
0.0
 40
0.0
 40
0.1247349824
 40
0.2496780774
 40
0.3747912712
 40
0.5000000002
 40
0.6252087289
 40
0.7503219227
 40
0.8752650177
 40
1.0
 40
1.0
 40
1.0
 40
1.0
 10
-5.7201477378
 20
-2.4294485636
 30
0.0
 10
-5.7339558188
 20
-2.410397466
 30
0.0
 10
-5.7662657832
 20
-2.3754164687
 30
0.0
 10
-5.8256043074
 20
-2.335838291
 30
0.0
 10
-5.8926556787
 20
-2.3111543095
 30
0.0
 10
-5.963653688
 20
-2.3027762976
 30
0.0
 10
-6.0346516972
 20
-2.3111543119
 30
0.0
 10
-6.1017030676
 20
-2.3358382955
 30
0.0
 10
-6.1610415906
 20
-2.3754164749
 30
0.0
 10
-6.1933515535
 20
-2.4103974735
 30
0.0
 10
-6.2071596341
 20
-2.4294485714
 30
0.0
 11
-5.7201477378
 21
-2.4294485636
 31
0.0
 11
-5.768040873
 21
-2.3775957489
 31
0.0
 11
-5.8268480072
 21
-2.3383423732
 31
0.0
 11
-5.8932878927
 21
-2.3138787453
 31
0.0
 11
-5.963653688
 21
-2.3055696791
 31
0.0
 11
-6.034019483
 21
-2.3138787476
 31
0.0
 11
-6.1004593677
 21
-2.3383423776
 31
0.0
 11
-6.1592665007
 21
-2.3775957551
 31
0.0
 11
-6.2071596341
 21
-2.4294485714
 31
0.0
  0
LINE
  5
645
100
AcDbEntity
  8
RACCORDO
100
AcDbLine
 62
253
  6
CONTINUOUS
 10
5.280574905
 20
-13.1132121146
 11
5.2881085827
 21
-12.944193003
  0
SPLINE
  5
646
100
AcDbEntity
  8
RACCORDO
100
AcDbSpline
 62
253
  6
CONTINUOUS
 70
0
 71
3
 72
15
 73
11
 74
9
 42
0.0000001
 43
0.0000001
 44
0.0000000001
 12
0.3206190124
 22
0.5071260462
 32
0.0
 13
0.3206219805
 23
-0.5071241697
 33
0.0
 40
0.0
 40
0.0
 40
0.0
 40
0.0
 40
0.1247047792
 40
0.2496340554
 40
0.3747594436
 40
0.5000000749
 40
0.6252407097
 40
0.7503660789
 40
0.8752953559
 40
1.0
 40
1.0
 40
1.0
 40
1.0
 10
4.7845854312
 20
-12.9441911733
 30
0.0
 10
4.7979130055
 20
-12.9231108261
 30
0.0
 10
4.8298774831
 20
-12.8839931484
 30
0.0
 10
4.8907054066
 20
-12.8389294494
 30
0.0
 10
4.9610250127
 20
-12.8104158359
 30
0.0
 10
5.0363475143
 20
-12.8006600185
 30
0.0
 10
5.1116699509
 20
-12.8104164301
 30
0.0
 10
5.181989275
 20
-12.8389306531
 30
0.0
 10
5.2428169608
 20
-12.8839947325
 30
0.0
 10
5.2747807295
 20
-12.9231128746
 30
0.0
 10
5.2881084128
 20
-12.9441931209
 30
0.0
 11
4.7845854312
 21
-12.9441911733
 31
0.0
 11
4.8319834188
 21
-12.8862992199
 31
0.0
 11
4.8922376794
 21
-12.8417162048
 31
0.0
 11
4.9618266272
 21
-12.8135514728
 31
0.0
 11
5.0363475034
 21
-12.8039130546
 31
0.0
 11
5.1108683043
 21
-12.8135520709
 31
0.0
 11
5.1804570097
 21
-12.8417173715
 31
0.0
 11
5.2407109081
 21
-12.8863008769
 31
0.0
 11
5.2881084128
 21
-12.9441931209
 31
0.0
  0
LINE
  5
647
100
AcDbEntity
  8
RACCORDO
100
AcDbLine
 62
253
  6
CONTINUOUS
 10
4.7921177111
 20
-13.1132121145
 11
4.7845852659
 21
-12.9441910854
  0
SPLINE
  5
648
100
AcDbEntity
  8
RACCORDO
100
AcDbSpline
 62
253
  6
CONTINUOUS
 70
0
 71
3
 72
15
 73
11
 74
9
 42
0.0000001
 43
0.0000001
 44
0.0000000001
 12
-0.3316383468
 22
0.4615392968
 32
0.0
 13
-0.3316383437
 23
-0.461539299
 33
0.0
 40
0.0
 40
0.0
 40
0.0
 40
0.0
 40
0.1247302237
 40
0.2496721031
 40
0.3747873233
 40
0.5000000001
 40
0.6252126767
 40
0.7503278968
 40
0.8752697762
 40
1.0
 40
1.0
 40
1.0
 40
1.0
 10
5.2805748816
 20
-13.1132121343
 30
0.0
 10
5.2667864399
 20
-13.0940228343
 30
0.0
 10
5.2344606404
 20
-13.0587725083
 30
0.0
 10
5.1749630492
 20
-13.0188701536
 30
0.0
 10
5.1076537984
 20
-12.9939755517
 30
0.0
 10
5.0363463094
 20
-12.9855247249
 30
0.0
 10
4.9650388205
 20
-12.9939755524
 30
0.0
 10
4.8977295701
 20
-13.0188701551
 30
0.0
 10
4.8382319792
 20
-13.0587725103
 30
0.0
 10
4.8059061803
 20
-13.094022837
 30
0.0
 10
4.7921177387
 20
-13.113212137
 30
0.0
 11
5.2805748816
 21
-13.1132121343
 31
0.0
 11
5.2326637122
 21
-13.0609658612
 31
0.0
 11
5.1737038071
 21
-13.0213937534
 31
0.0
 11
5.1070135984
 21
-12.9967231484
 31
0.0
 11
5.0363463094
 21
-12.9883423983
 31
0.0
 11
4.9656790206
 21
-12.9967231491
 31
0.0
 11
4.8989888122
 21
-13.0213937548
 31
0.0
 11
4.8400289076
 21
-13.0609658633
 31
0.0
 11
4.7921177387
 21
-13.113212137
 31
0.0
  0
LINE
  5
649
100
AcDbEntity
  8
RACCORDO
100
AcDbLine
 62
7
  6
CONTINUOUS
 10
-10.1761650736
 20
20.179996011
 11
-9.762014598
 21
19.1801483159
  0
SPLINE
  5
64A
100
AcDbEntity
  8
RACCORDO
100
AcDbSpline
 62
253
  6
CONTINUOUS
 70
0
 71
3
 72
13
 73
9
 74
7
 42
0.0000001
 43
0.0000001
 44
0.0000000001
 12
-0.9954050691
 22
-0.6587530571
 32
0.0
 13
-0.7131643042
 23
-0.9571747579
 33
0.0
 40
0.0
 40
0.0
 40
0.0
 40
0.0
 40
0.2726468871
 40
0.535364985
 40
0.6609037866
 40
0.7813169229
 40
0.8951655473
 40
1.0
 40
1.0
 40
1.0
 40
1.0
 10
-10.2469427211
 20
15.8732647357
 30
0.0
 10
-10.3374074189
 20
15.8133957456
 30
0.0
 10
-10.5084481173
 20
15.6855664397
 30
0.0
 10
-10.7016882943
 20
15.5065922478
 30
0.0
 10
-10.8403367014
 20
15.3590824162
 30
0.0
 10
-10.9340416077
 20
15.2508029191
 30
0.0
 10
-11.0186481624
 20
15.1456773273
 30
0.0
 10
-11.071252154
 20
15.0763590624
 30
0.0
 10
-11.0961735505
 20
15.0429107651
 30
0.0
 11
-10.2469427211
 21
15.8732647357
 31
0.0
 11
-10.5078578116
 21
15.6787480698
 31
0.0
 11
-10.7382748947
 21
15.4660325461
 31
0.0
 11
-10.8409562422
 21
15.3568942474
 31
0.0
 11
-10.935074765
 21
15.2482657574
 31
0.0
 11
-11.020366361
 21
15.1424700508
 31
0.0
 11
-11.0961735505
 21
15.0429107651
 31
0.0
  0
LINE
  5
64B
100
AcDbEntity
  8
RACCORDO
100
AcDbLine
 62
253
  6
CONTINUOUS
 10
-11.2467926956
 20
18.2810674378
 11
-10.2469450004
 21
18.2811895177
  0
SPLINE
  5
64C
100
AcDbEntity
  8
RACCORDO
100
AcDbSpline
 62
253
  6
CONTINUOUS
 70
0
 71
3
 72
11
 73
7
 74
5
 42
0.0000001
 43
0.0000001
 44
0.0000000001
 12
-0.2900407821
 22
-0.3892813761
 32
0.0
 13
-0.0093147396
 23
-0.485362628
 33
0.0
 40
0.0
 40
0.0
 40
0.0
 40
0.0
 40
0.2573020621
 40
0.5082787691
 40
0.7552410902
 40
1.0
 40
1.0
 40
1.0
 40
1.0
 10
-11.0961735505
 20
15.0429107651
 30
0.0
 10
-11.121049581
 20
15.0095231315
 30
0.0
 10
-11.1643446947
 20
14.9390194616
 30
0.0
 10
-11.2106373236
 20
14.8254063855
 30
0.0
 10
-11.2387966625
 20
14.7081358056
 30
0.0
 10
-11.2460327404
 20
14.6285750219
 30
0.0
 10
-11.2467926956
 20
14.5889760794
 30
0.0
 11
-11.0961735505
 21
15.0429107651
 31
0.0
 11
-11.1617724576
 21
14.9366152237
 31
0.0
 11
-11.2079257848
 21
14.8238581389
 31
0.0
 11
-11.2360027145
 21
14.707303846
 31
0.0
 11
-11.2467926956
 21
14.5889760794
 31
0.0
  0
SPLINE
  5
64D
100
AcDbEntity
  8
RACCORDO
100
AcDbSpline
 62
253
  6
CONTINUOUS
 70
0
 71
3
 72
13
 73
9
 74
7
 42
0.0000001
 43
0.0000001
 44
0.0000000001
 12
-0.9954050683
 22
-0.6587530566
 32
0.0
 13
-0.7131643035
 23
-0.9571747572
 33
0.0
 40
0.0
 40
0.0
 40
0.0
 40
0.0
 40
0.2726468871
 40
0.5353649851
 40
0.6609037867
 40
0.781316923
 40
0.8951655475
 40
1.0
 40
1.0
 40
1.0
 40
1.0
 10
-10.2469427211
 20
2.3732647357
 30
0.0
 10
-10.3374074188
 20
2.3133957456
 30
0.0
 10
-10.5084481171
 20
2.1855664398
 30
0.0
 10
-10.701688294
 20
2.006592248
 30
0.0
 10
-10.840336701
 20
1.8590824166
 30
0.0
 10
-10.9340416074
 20
1.7508029196
 30
0.0
 10
-11.0186481618
 20
1.6456773277
 30
0.0
 10
-11.0712521539
 20
1.5763590633
 30
0.0
 10
-11.0961735504
 20
1.5429107661
 30
0.0
 11
-10.2469427211
 21
2.3732647357
 31
0.0
 11
-10.5078578115
 21
2.17874807
 31
0.0
 11
-10.7382748944
 21
1.9660325464
 31
0.0
 11
-10.8409562419
 21
1.8568942478
 31
0.0
 11
-10.9350747647
 21
1.7482657578
 31
0.0
 11
-11.0203663606
 21
1.6424700513
 31
0.0
 11
-11.0961735504
 21
1.5429107661
 31
0.0
  0
SPLINE
  5
64E
100
AcDbEntity
  8
RACCORDO
100
AcDbSpline
 62
253
  6
CONTINUOUS
 70
0
 71
3
 72
13
 73
9
 74
7
 42
0.0000001
 43
0.0000001
 44
0.0000000001
 12
-0.9954032305
 22
0.6587568199
 32
0.0
 13
-0.7131645764
 23
0.9571752327
 33
0.0
 40
0.0
 40
0.0
 40
0.0
 40
0.0
 40
0.2726468758
 40
0.5353650217
 40
0.6609037804
 40
0.7813169866
 40
0.8951656045
 40
1.0
 40
1.0
 40
1.0
 40
1.0
 10
-10.2469424073
 20
9.8493894288
 30
0.0
 10
-10.3374069343
 20
9.9092587585
 30
0.0
 10
-10.5084480406
 20
10.0370876518
 30
0.0
 10
-10.7016882111
 20
10.2160620696
 30
0.0
 10
-10.8403367322
 20
10.3635719548
 30
0.0
 10
-10.9340416623
 20
10.4718515292
 30
0.0
 10
-11.0186482856
 20
10.5769771486
 30
0.0
 10
-11.0712522125
 20
10.6462954809
 30
0.0
 10
-11.0961736049
 20
10.6797437765
 30
0.0
 11
-10.2469424073
 21
9.8493894288
 31
0.0
 11
-10.5078576202
 21
10.0439061561
 31
0.0
 11
-10.7382748699
 21
10.2566217942
 31
0.0
 11
-10.8409562354
 21
10.3657600993
 31
0.0
 11
-10.9350748483
 21
10.4743887082
 31
0.0
 11
-11.0203664734
 21
10.5801844608
 31
0.0
 11
-11.0961736049
 21
10.6797437765
 31
0.0
  0
SPLINE
  5
64F
100
AcDbEntity
  8
RACCORDO
100
AcDbSpline
 62
253
  6
CONTINUOUS
 70
0
 71
3
 72
11
 73
7
 74
5
 42
0.0000001
 43
0.0000001
 44
0.0000000001
 12
-0.2900405081
 22
0.3892810218
 32
0.0
 13
-0.0093147361
 23
0.4853621802
 33
0.0
 40
0.0
 40
0.0
 40
0.0
 40
0.0
 40
0.2573022098
 40
0.5082788332
 40
0.7552410578
 40
1.0
 40
1.0
 40
1.0
 40
1.0
 10
-11.0961736049
 20
10.6797437765
 30
0.0
 10
-11.1210496261
 20
10.7131313989
 30
0.0
 10
-11.1643446465
 20
10.7836350452
 30
0.0
 10
-11.2106373421
 20
10.8972479598
 30
0.0
 10
-11.2387966785
 20
11.0145184078
 30
0.0
 10
-11.2460327406
 20
11.094079108
 30
0.0
 10
-11.2467926956
 20
11.1336780193
 30
0.0
 11
-11.0961736049
 21
10.6797437765
 31
0.0
 11
-11.1617724618
 21
10.7860392976
 31
0.0
 11
-11.2079257944
 21
10.898796215
 31
0.0
 11
-11.2360027233
 21
11.0153503461
 31
0.0
 11
-11.2467926956
 21
11.1336780193
 31
0.0
  0
SPLINE
  5
650
100
AcDbEntity
  8
RACCORDO
100
AcDbSpline
 62
253
  6
CONTINUOUS
 70
0
 71
3
 72
11
 73
7
 74
5
 42
0.0000001
 43
0.0000001
 44
0.0000000001
 12
-0.2900408228
 22
-0.3892813663
 32
0.0
 13
-0.009314741
 23
-0.4853626445
 33
0.0
 40
0.0
 40
0.0
 40
0.0
 40
0.0
 40
0.2573020424
 40
0.5082787365
 40
0.7552410647
 40
1.0
 40
1.0
 40
1.0
 40
1.0
 10
-11.0961735504
 20
1.5429107661
 30
0.0
 10
-11.1210495824
 20
1.5095231358
 30
0.0
 10
-11.1643447002
 20
1.4390194711
 30
0.0
 10
-11.2106373299
 20
1.3254063949
 30
0.0
 10
-11.2387966648
 20
1.2081358064
 30
0.0
 10
-11.2460327402
 20
1.1285750147
 30
0.0
 10
-11.2467926956
 20
1.0889760666
 30
0.0
 11
-11.0961735504
 21
1.5429107661
 31
0.0
 11
-11.1617724615
 21
1.4366152335
 31
0.0
 11
-11.207925789
 21
1.3238581511
 31
0.0
 11
-11.2360027162
 21
1.2073038499
 31
0.0
 11
-11.2467926956
 21
1.0889760666
 31
0.0
  0
SPLINE
  5
651
100
AcDbEntity
  8
RACCORDO
100
AcDbSpline
 62
253
  6
CONTINUOUS
 70
0
 71
3
 72
15
 73
11
 74
9
 42
0.0000001
 43
0.0000001
 44
0.0000000001
 12
-0.6474941417
 22
-0.9971360268
 32
0.0
 13
-0.6475077548
 23
0.997127187
 33
0.0
 40
0.0
 40
0.0
 40
0.0
 40
0.0
 40
0.1250045598
 40
0.2500059306
 40
0.3750038814
 40
0.5000000667
 40
0.6249962573
 40
0.7499942062
 40
0.8749956066
 40
1.0
 40
1.0
 40
1.0
 40
1.0
 10
-5.4616665631
 20
0.8211007535
 30
0.0
 10
-5.4886464698
 20
0.7795519034
 30
0.0
 10
-5.5531458825
 20
0.7027795644
 30
0.0
 10
-5.674935661
 20
0.6150741198
 30
0.0
 10
-5.814659909
 20
0.5600167865
 30
0.0
 10
-5.9636537994
 20
0.541266522
 30
0.0
 10
-6.1126477288
 20
0.5600167399
 30
0.0
 10
-6.2523718884
 20
0.6150741676
 30
0.0
 10
-6.3741619194
 20
0.7027794317
 30
0.0
 10
-6.4386603828
 20
0.7795523288
 30
0.0
 10
-6.4656408208
 20
0.8211007552
 30
0.0
 11
-5.4616665631
 21
0.8211007535
 31
0.0
 11
-5.5573205264
 21
0.7073540171
 31
0.0
 11
-5.6779264128
 21
0.6205145447
 31
0.0
 11
-5.8162058543
 21
0.5660676783
 31
0.0
 11
-5.9636538039
 21
0.547516573
 31
0.0
 11
-6.1111017627
 21
0.5660676552
 31
0.0
 11
-6.2493811917
 21
0.6205145475
 31
0.0
 11
-6.3699870568
 21
0.7073541096
 31
0.0
 11
-6.4656408208
 21
0.8211007552
 31
0.0
  0
SPLINE
  5
652
100
AcDbEntity
  8
RACCORDO
100
AcDbSpline
 62
253
  6
CONTINUOUS
 70
0
 71
3
 72
15
 73
11
 74
9
 42
0.0000001
 43
0.0000001
 44
0.0000000001
 12
0.6474941418
 22
0.9971360268
 32
0.0
 13
0.6475077548
 23
-0.997127187
 33
0.0
 40
0.0
 40
0.0
 40
0.0
 40
0.0
 40
0.1250045598
 40
0.2500059306
 40
0.3750038814
 40
0.5000000667
 40
0.6249962573
 40
0.7499942062
 40
0.8749956066
 40
1.0
 40
1.0
 40
1.0
 40
1.0
 10
-6.4656408209
 20
-2.0984463751
 30
0.0
 10
-6.4386609142
 20
-2.0568975251
 30
0.0
 10
-6.3741615014
 20
-1.9801251862
 30
0.0
 10
-6.252371723
 20
-1.8924197415
 30
0.0
 10
-6.112647475
 20
-1.8373624082
 30
0.0
 10
-5.9636535845
 20
-1.8186121437
 30
0.0
 10
-5.8146596552
 20
-1.8373623616
 30
0.0
 10
-5.6749354956
 20
-1.8924197893
 30
0.0
 10
-5.5531454645
 20
-1.9801250535
 30
0.0
 10
-5.4886470011
 20
-2.0568979505
 30
0.0
 10
-5.4616665631
 20
-2.0984463769
 30
0.0
 11
-6.4656408209
 21
-2.0984463751
 31
0.0
 11
-6.3699868576
 21
-1.9846996388
 31
0.0
 11
-6.2493809712
 21
-1.8978601664
 31
0.0
 11
-6.1111015296
 21
-1.8434133
 31
0.0
 11
-5.96365358
 21
-1.8248621947
 31
0.0
 11
-5.8162056212
 21
-1.8434132769
 31
0.0
 11
-5.6779261923
 21
-1.8978601692
 31
0.0
 11
-5.5573203271
 21
-1.9846997313
 31
0.0
 11
-5.4616665631
 21
-2.0984463769
 31
0.0
  0
SPLINE
  5
653
100
AcDbEntity
  8
RACCORDO
100
AcDbSpline
 62
253
  6
CONTINUOUS
 70
0
 71
3
 72
15
 73
11
 74
9
 42
0.0000001
 43
0.0000001
 44
0.0000000001
 12
-0.6474941417
 22
-0.9971360268
 32
0.0
 13
-0.6475077548
 23
0.997127187
 33
0.0
 40
0.0
 40
0.0
 40
0.0
 40
0.0
 40
0.1250045598
 40
0.2500059306
 40
0.3750038814
 40
0.5000000667
 40
0.6249962573
 40
0.7499942062
 40
0.8749956066
 40
1.0
 40
1.0
 40
1.0
 40
1.0
 10
-5.4616665631
 20
14.3211007535
 30
0.0
 10
-5.4886464698
 20
14.2795519034
 30
0.0
 10
-5.5531458825
 20
14.2027795644
 30
0.0
 10
-5.674935661
 20
14.1150741198
 30
0.0
 10
-5.814659909
 20
14.0600167865
 30
0.0
 10
-5.9636537994
 20
14.041266522
 30
0.0
 10
-6.1126477288
 20
14.0600167399
 30
0.0
 10
-6.2523718884
 20
14.1150741676
 30
0.0
 10
-6.3741619194
 20
14.2027794317
 30
0.0
 10
-6.4386603828
 20
14.2795523288
 30
0.0
 10
-6.4656408208
 20
14.3211007552
 30
0.0
 11
-5.4616665631
 21
14.3211007535
 31
0.0
 11
-5.5573205264
 21
14.2073540171
 31
0.0
 11
-5.6779264128
 21
14.1205145447
 31
0.0
 11
-5.8162058543
 21
14.0660676783
 31
0.0
 11
-5.9636538039
 21
14.047516573
 31
0.0
 11
-6.1111017627
 21
14.0660676552
 31
0.0
 11
-6.2493811917
 21
14.1205145475
 31
0.0
 11
-6.3699870568
 21
14.2073541096
 31
0.0
 11
-6.4656408208
 21
14.3211007552
 31
0.0
  0
SPLINE
  5
654
100
AcDbEntity
  8
RACCORDO
100
AcDbSpline
 62
253
  6
CONTINUOUS
 70
0
 71
3
 72
15
 73
11
 74
9
 42
0.0000001
 43
0.0000001
 44
0.0000000001
 12
0.6474941418
 22
0.9971360268
 32
0.0
 13
0.6475077548
 23
-0.997127187
 33
0.0
 40
0.0
 40
0.0
 40
0.0
 40
0.0
 40
0.1250045598
 40
0.2500059306
 40
0.3750038814
 40
0.5000000667
 40
0.6249962573
 40
0.7499942062
 40
0.8749956066
 40
1.0
 40
1.0
 40
1.0
 40
1.0
 10
-6.4656408209
 20
11.4015536249
 30
0.0
 10
-6.4386609142
 20
11.4431024749
 30
0.0
 10
-6.3741615014
 20
11.5198748138
 30
0.0
 10
-6.252371723
 20
11.6075802585
 30
0.0
 10
-6.112647475
 20
11.6626375918
 30
0.0
 10
-5.9636535845
 20
11.6813878563
 30
0.0
 10
-5.8146596552
 20
11.6626376384
 30
0.0
 10
-5.6749354956
 20
11.6075802107
 30
0.0
 10
-5.5531454645
 20
11.5198749465
 30
0.0
 10
-5.4886470011
 20
11.4431020495
 30
0.0
 10
-5.4616665631
 20
11.4015536231
 30
0.0
 11
-6.4656408209
 21
11.4015536249
 31
0.0
 11
-6.3699868576
 21
11.5153003612
 31
0.0
 11
-6.2493809712
 21
11.6021398336
 31
0.0
 11
-6.1111015296
 21
11.6565867
 31
0.0
 11
-5.96365358
 21
11.6751378053
 31
0.0
 11
-5.8162056212
 21
11.6565867231
 31
0.0
 11
-5.6779261923
 21
11.6021398308
 31
0.0
 11
-5.5573203271
 21
11.5153002687
 31
0.0
 11
-5.4616665631
 21
11.4015536231
 31
0.0
  0
SPLINE
  5
655
100
AcDbEntity
  8
RACCORDO
100
AcDbSpline
 62
253
  6
CONTINUOUS
 70
0
 71
3
 72
15
 73
11
 74
9
 42
0.0000001
 43
0.0000001
 44
0.0000000001
 12
0.6458296101
 22
1.0049438117
 32
0.0
 13
0.6458435425
 23
-1.0049348579
 33
0.0
 40
0.0
 40
0.0
 40
0.0
 40
0.0
 40
0.1250047062
 40
0.2500061206
 40
0.3750040077
 40
0.5000000681
 40
0.6249961338
 40
0.749994019
 40
0.8749954636
 40
1.0
 40
1.0
 40
1.0
 40
1.0
 10
4.532823511
 20
-12.7823948547
 30
0.0
 10
4.5597340912
 20
-12.7405206193
 30
0.0
 10
4.6242249764
 20
-12.663104856
 30
0.0
 10
4.7463388829
 20
-12.5746049542
 30
0.0
 10
4.8866402025
 20
-12.5190227448
 30
0.0
 10
5.0363464184
 20
-12.5000893889
 30
0.0
 10
5.186052674
 20
-12.519022699
 30
0.0
 10
5.3263539027
 20
-12.5746050054
 30
0.0
 10
5.4484680667
 20
-12.6631047255
 30
0.0
 10
5.5129579808
 20
-12.7405210529
 30
0.0
 10
5.539869105
 20
-12.7823948583
 30
0.0
 11
4.532823511
 21
-12.7823948547
 31
0.0
 11
4.6284558142
 21
-12.6677077116
 31
0.0
 11
4.7493718508
 21
-12.5800902711
 31
0.0
 11
4.8882087289
 21
-12.5251305882
 31
0.0
 11
5.036346423
 21
-12.5064004692
 31
0.0
 11
5.1844841264
 21
-12.5251305662
 31
0.0
 11
5.3233209911
 21
-12.5800902767
 31
0.0
 11
5.4442370053
 21
-12.6677078097
 31
0.0
 11
5.539869105
 21
-12.7823948583
 31
0.0
  0
SPLINE
  5
656
100
AcDbEntity
  8
RACCORDO
100
AcDbSpline
 62
253
  6
CONTINUOUS
 70
0
 71
3
 72
15
 73
11
 74
9
 42
0.0000001
 43
0.0000001
 44
0.0000000001
 12
-0.6458296093
 22
-1.0049438096
 32
0.0
 13
-0.6458435418
 23
1.0049348557
 33
0.0
 40
0.0
 40
0.0
 40
0.0
 40
0.0
 40
0.1250047059
 40
0.2500061203
 40
0.3750040076
 40
0.5000000681
 40
0.6249961339
 40
0.7499940193
 40
0.8749954639
 40
1.0
 40
1.0
 40
1.0
 40
1.0
 10
5.5398691008
 20
-9.8949507847
 30
0.0
 10
5.5129585206
 20
-9.9368250198
 30
0.0
 10
5.4484676419
 20
-10.0142407883
 30
0.0
 10
5.3263537325
 20
-10.102740687
 30
0.0
 10
5.1860524136
 20
-10.1583228961
 30
0.0
 10
5.0363461976
 20
-10.1772562516
 30
0.0
 10
4.8866399421
 20
-10.1583229421
 30
0.0
 10
4.7463387139
 20
-10.1027406359
 30
0.0
 10
4.624224547
 20
-10.0142409191
 30
0.0
 10
4.5597346395
 20
-9.9368245864
 30
0.0
 10
4.5328235154
 20
-9.8949507813
 30
0.0
 11
5.5398691008
 21
-9.8949507847
 31
0.0
 11
5.4442368022
 21
-10.0096379307
 31
0.0
 11
5.3233207652
 21
-10.0972553705
 31
0.0
 11
5.1844838871
 21
-10.1522150527
 31
0.0
 11
5.036346193
 21
-10.1709451714
 31
0.0
 11
4.8882084898
 21
-10.1522150749
 31
0.0
 11
4.749371625
 21
-10.0972553651
 31
0.0
 11
4.6284556104
 21
-10.0096378329
 31
0.0
 11
4.5328235154
 21
-9.8949507813
 31
0.0
  0
LINE
  5
657
100
AcDbEntity
  8
RACCORDO
100
AcDbLine
 62
7
  6
CONTINUOUS
 10
9.2488576897
 20
-18.6573416325
 11
8.834707214
 21
-17.6574939373
  0
SPLINE
  5
658
100
AcDbEntity
  8
RACCORDO
100
AcDbSpline
 62
253
  6
CONTINUOUS
 70
0
 71
3
 72
13
 73
9
 74
7
 42
0.0000001
 43
0.0000001
 44
0.0000000001
 12
-0.7129688422
 22
-0.9651650076
 32
0.0
 13
-0.9995166286
 23
-0.6639537417
 33
0.0
 40
0.0
 40
0.0
 40
0.0
 40
0.0
 40
0.1047883449
 40
0.2186326035
 40
0.3390503279
 40
0.4645936258
 40
0.7273221541
 40
1.0
 40
1.0
 40
1.0
 40
1.0
 10
10.1706938317
 20
-13.5020606213
 30
0.0
 10
10.1457902234
 20
-13.5357733025
 30
0.0
 10
10.0932079667
 20
-13.6056584712
 30
0.0
 10
10.0085840405
 20
-13.7116598922
 30
0.0
 10
9.9147879044
 20
-13.8208619026
 30
0.0
 10
9.7759120198
 20
-13.9696344665
 30
0.0
 10
9.5821669851
 20
-14.1501438747
 30
0.0
 10
9.4104836889
 20
-14.279036575
 30
0.0
 10
9.3196350085
 20
-14.339385067
 30
0.0
 11
10.1706938317
 21
-13.5020606213
 31
0.0
 11
10.0949296279
 21
-13.6024119874
 31
0.0
 11
10.0096109015
 21
-13.7090991321
 31
0.0
 11
9.9153976751
 21
-13.8186553809
 31
0.0
 11
9.8125476691
 21
-13.9287272168
 31
0.0
 11
9.5815343811
 21
-14.1432536631
 31
0.0
 11
9.3196350085
 21
-14.339385067
 31
0.0
  0
SPLINE
  5
659
100
AcDbEntity
  8
RACCORDO
100
AcDbSpline
 62
253
  6
CONTINUOUS
 70
0
 71
3
 72
11
 73
7
 74
5
 42
0.0000001
 43
0.0000001
 44
0.0000000001
 12
-0.0092561062
 22
-0.482073414
 32
0.0
 13
-0.2864836871
 23
-0.3878241212
 33
0.0
 40
0.0
 40
0.0
 40
0.0
 40
0.0
 40
0.24481442
 40
0.4918115712
 40
0.7427809783
 40
1.0
 40
1.0
 40
1.0
 40
1.0
 10
10.3194853116
 20
-13.0508377583
 30
0.0
 10
10.3187299689
 20
-13.090177266
 30
0.0
 10
10.3115722563
 20
-13.1692126792
 30
0.0
 10
10.2837425351
 20
-13.285730447
 30
0.0
 10
10.2380121801
 20
-13.3986583312
 30
0.0
 10
10.1952568496
 20
-13.4688087076
 30
0.0
 10
10.1706938317
 20
-13.5020606213
 30
0.0
 11
10.3194853116
 21
-13.0508377583
 31
0.0
 11
10.3088117354
 21
-13.1683944743
 31
0.0
 11
10.2810627493
 21
-13.2842092682
 31
0.0
 11
10.2354683695
 21
-13.3962988902
 31
0.0
 11
10.1706938317
 21
-13.5020606213
 31
0.0
  0
SPLINE
  5
65A
100
AcDbEntity
  8
RACCORDO
100
AcDbSpline
 62
253
  6
CONTINUOUS
 70
0
 71
3
 72
11
 73
7
 74
5
 42
0.0000001
 43
0.0000001
 44
0.0000000001
 12
0.2864840282
 22
-0.3878239941
 32
0.0
 13
0.0092561811
 23
-0.4820735129
 33
0.0
 40
0.0
 40
0.0
 40
0.0
 40
0.0
 40
0.257218851
 40
0.5081881889
 40
0.7551853863
 40
1.0
 40
1.0
 40
1.0
 40
1.0
 10
10.1706937908
 20
-9.175284875
 30
0.0
 10
10.1952568216
 20
-9.2085367557
 30
0.0
 10
10.2380122196
 20
-9.2786870684
 30
0.0
 10
10.2837425649
 20
-9.3916149556
 30
0.0
 10
10.3115722782
 20
-9.5081327801
 30
0.0
 10
10.3187299622
 20
-9.58716825
 30
0.0
 10
10.3194853116
 20
-9.626507797
 30
0.0
 11
10.1706937908
 21
-9.175284875
 31
0.0
 11
10.2354683821
 21
-9.2810465071
 31
0.0
 11
10.2810627709
 21
-9.3931361166
 31
0.0
 11
10.3088117463
 21
-9.5089509615
 31
0.0
 11
10.3194853116
 21
-9.626507797
 31
0.0
  0
SPLINE
  5
65B
100
AcDbEntity
  8
RACCORDO
100
AcDbSpline
 62
253
  6
CONTINUOUS
 70
0
 71
3
 72
13
 73
9
 74
7
 42
0.0000001
 43
0.0000001
 44
0.0000000001
 12
0.9995165649
 22
-0.6639536076
 32
0.0
 13
0.7129687808
 23
-0.9651648948
 33
0.0
 40
0.0
 40
0.0
 40
0.0
 40
0.0
 40
0.2726778463
 40
0.5354063769
 40
0.6609496774
 40
0.7813674055
 40
0.895211668
 40
1.0
 40
1.0
 40
1.0
 40
1.0
 10
9.3196350108
 20
-8.337960556
 30
0.0
 10
9.4104836855
 20
-8.3983090359
 30
0.0
 10
9.582166959
 20
-8.5272017311
 30
0.0
 10
9.7759119806
 20
-8.7077111146
 30
0.0
 10
9.9147878531
 20
-8.8564836646
 30
0.0
 10
10.0085839908
 20
-8.9656856597
 30
0.0
 10
10.0932078853
 20
-9.0716870839
 30
0.0
 10
10.1457901877
 20
-9.1415722019
 30
0.0
 10
10.1706937908
 20
-9.175284875
 30
0.0
 11
9.3196350108
 21
-8.337960556
 31
0.0
 11
9.581534357
 21
-8.5340919381
 31
0.0
 11
9.8125476256
 21
-8.7486183602
 31
0.0
 11
9.915397625
 21
-8.8586901847
 31
0.0
 11
10.0096108464
 21
-8.9682464234
 31
0.0
 11
10.0949295682
 21
-9.0749335592
 31
0.0
 11
10.1706937908
 21
-9.175284875
 31
0.0
  0
LINE
  5
65C
100
AcDbEntity
  8
RACCORDO
100
AcDbLine
 62
7
  6
CONTINUOUS
 10
9.2488576897
 20
20.179996011
 11
8.834707214
 21
19.1801483159
  0
SPLINE
  5
65D
100
AcDbEntity
  8
RACCORDO
100
AcDbSpline
 62
253
  6
CONTINUOUS
 70
0
 71
3
 72
9
 73
5
 74
3
 42
0.0000001
 43
0.0000001
 44
0.0000000001
 12
0.1662397193
 22
0.2514175294
 32
0.0
 13
0.1939461893
 23
0.2307190804
 33
0.0
 40
0.0
 40
0.0
 40
0.0
 40
0.0
 40
0.4991141572
 40
1.0
 40
1.0
 40
1.0
 40
1.0
 10
-0.1800881858
 20
-9.1057470904
 30
0.0
 10
-0.1524306533
 20
-9.0639184076
 30
0.0
 10
-0.0950904119
 20
-8.9813597624
 30
0.0
 10
-0.0329781432
 20
-8.9022908775
 30
0.0
 10
-0.0005965097
 20
-8.8637695705
 30
0.0
 11
-0.1800881858
 21
-9.1057470904
 31
0.0
 11
-0.0940032175
 21
-8.9823753818
 31
0.0
 11
-0.0005965097
 21
-8.8637695705
 31
0.0
  0
SPLINE
  5
65E
100
AcDbEntity
  8
RACCORDO
100
AcDbSpline
 62
253
  6
CONTINUOUS
 70
0
 71
3
 72
22
 73
18
 74
16
 42
0.0000001
 43
0.0000001
 44
0.0000000001
 12
-3.2726680344
 22
3.8694765156
 32
0.0
 13
2.8868356725
 23
4.1652592198
 33
0.0
 40
0.0
 40
0.0
 40
0.0
 40
0.0
 40
0.0638753908
 40
0.127107627
 40
0.1895630102
 40
0.2513867871
 40
0.3743663583
 40
0.4365925189
 40
0.4999093897
 40
0.5638737857
 40
0.6272035214
 40
0.6894406034
 40
0.7510251573
 40
0.8125123455
 40
0.8743301165
 40
0.9367769566
 40
1.0
 40
1.0
 40
1.0
 40
1.0
 10
0.0190452553
 20
-13.8315815852
 30
0.0
 10
-0.050635728
 20
-13.749193477
 30
0.0
 10
-0.1813921583
 20
-13.5783897905
 30
0.0
 10
-0.352079822
 20
-13.3069814443
 30
0.0
 10
-0.4971681563
 20
-13.024957105
 30
0.0
 10
-0.6575232077
 20
-12.6389094935
 30
0.0
 10
-0.7722740411
 20
-12.2356684521
 30
0.0
 10
-0.8405847123
 20
-11.8211245164
 30
0.0
 10
-0.8674755626
 20
-11.5017432641
 30
0.0
 10
-0.867634387
 20
-11.1793674359
 30
0.0
 10
-0.8410487542
 20
-10.8599407998
 30
0.0
 10
-0.7898781775
 20
-10.5476381126
 30
0.0
 10
-0.7157616227
 20
-10.2431903369
 30
0.0
 10
-0.6189407555
 20
-9.9459249677
 30
0.0
 10
-0.4987082974
 20
-9.6557225988
 30
0.0
 10
-0.3539410861
 20
-9.373633471
 30
0.0
 10
-0.2409270139
 20
-9.1935272118
 30
0.0
 10
-0.1800888349
 20
-9.1057470904
 30
0.0
 11
0.0190452553
 21
-13.8315815852
 31
0.0
 11
-0.1779360986
 21
-13.5747012543
 31
0.0
 11
-0.3487497662
 21
-13.3035698271
 31
0.0
 11
-0.4937264729
 21
-13.0222095853
 31
0.0
 11
-0.6140560122
 21
-12.7329231919
 31
0.0
 11
-0.7850080196
 21
-12.1335839285
 31
0.0
 11
-0.8361837988
 21
-11.8224105853
 31
0.0
 11
-0.8629404887
 21
-11.5026470514
 31
0.0
 11
-0.8630996092
 21
-11.1784844891
 31
0.0
 11
-0.8366426969
 21
-10.8586305923
 31
0.0
 11
-0.7857411402
 21
-10.547356191
 31
0.0
 11
-0.711910464
 21
-10.244112685
 31
0.0
 11
-0.6153239666
 21
-9.9478511787
 31
0.0
 11
-0.4952754906
 21
-9.6584809888
 31
0.0
 11
-0.3505948713
 21
-9.3770170578
 31
0.0
 11
-0.1800888349
 21
-9.1057470904
 31
0.0
  0
SPLINE
  5
65F
100
AcDbEntity
  8
RACCORDO
100
AcDbSpline
 62
253
  6
CONTINUOUS
 70
0
 71
3
 72
30
 73
26
 74
24
 42
0.0000001
 43
0.0000001
 44
0.0000000001
 12
-1.0612613281
 22
-1.0608965236
 32
0.0
 13
-1.5005922299
 23
-0.000005731
 33
0.0
 40
0.0
 40
0.0
 40
0.0
 40
0.0
 40
0.0008331678
 40
0.0022057903
 40
0.004145585
 40
0.0066608469
 40
0.0097540412
 40
0.0134255684
 40
0.0224993115
 40
0.0338668215
 40
0.0475041049
 40
0.063380782
 40
0.0814604861
 40
0.1017012485
 40
0.1240560177
 40
0.1748935375
 40
0.2334967288
 40
0.2993152905
 40
0.3717307047
 40
0.4500617386
 40
0.5335713774
 40
0.6214736815
 40
0.7129410596
 40
0.8071122228
 40
1.0
 40
1.0
 40
1.0
 40
1.0
 10
-0.1245449106
 20
-18.8009301142
 30
0.0
 10
-0.1248396469
 20
-18.8012247492
 30
0.0
 10
-0.1258721936
 20
-18.8017061398
 30
0.0
 10
-0.1278419245
 20
-18.8023041731
 30
0.0
 10
-0.1307032702
 20
-18.8029123682
 30
0.0
 10
-0.13442542
 20
-18.8035294841
 30
0.0
 10
-0.139027461
 20
-18.8041490781
 30
0.0
 10
-0.1468993444
 20
-18.8050404877
 30
0.0
 10
-0.1589148002
 20
-18.8061094298
 30
0.0
 10
-0.1759179545
 20
-18.8073203498
 30
0.0
 10
-0.1963319582
 20
-18.8085212452
 30
0.0
 10
-0.2201087415
 20
-18.8097086287
 30
0.0
 10
-0.247192986
 20
-18.8108772758
 30
0.0
 10
-0.2775210259
 20
-18.8120238819
 30
0.0
 10
-0.3242299918
 20
-18.8135862494
 30
0.0
 10
-0.3901286012
 20
-18.8154242517
 30
0.0
 10
-0.4777704121
 20
-18.8174181822
 30
0.0
 10
-0.5762108441
 20
-18.81926035
 30
0.0
 10
-0.6845233583
 20
-18.8209320664
 30
0.0
 10
-0.8016883805
 20
-18.8224159047
 30
0.0
 10
-0.9266027078
 20
-18.8236970534
 30
0.0
 10
-1.0580900352
 20
-18.8247627769
 30
0.0
 10
-1.1949119671
 20
-18.8256026983
 30
0.0
 10
-1.3842481731
 20
-18.8264167204
 30
0.0
 10
-1.5278344868
 20
-18.8266553938
 30
0.0
 10
-1.6243164533
 20
-18.8266557623
 30
0.0
 11
-0.1245449106
 21
-18.8009301142
 31
0.0
 11
-0.1256218839
 21
-18.8015651272
 31
0.0
 11
-0.1275814557
 21
-18.8021996621
 31
0.0
 11
-0.1304225124
 21
-18.8028332164
 31
0.0
 11
-0.1341435876
 21
-18.8034653259
 31
0.0
 11
-0.1387422156
 21
-18.8040956344
 31
0.0
 11
-0.1442157527
 21
-18.8047238045
 31
0.0
 11
-0.1577743799
 21
-18.8059723098
 31
0.0
 11
-0.1747875705
 21
-18.8072078732
 31
0.0
 11
-0.1952151915
 21
-18.808427569
 31
0.0
 11
-0.2190093207
 21
-18.8096285354
 31
0.0
 11
-0.2461139366
 21
-18.8108079406
 31
0.0
 11
-0.2764650962
 21
-18.811963007
 31
0.0
 11
-0.3099915186
 21
-18.8130910138
 31
0.0
 11
-0.3862471989
 21
-18.8152552894
 31
0.0
 11
-0.474163372
 21
-18.8172803858
 31
0.0
 11
-0.5729125497
 21
-18.8191472279
 31
0.0
 11
-0.6815653996
 21
-18.8208382233
 31
0.0
 11
-0.799098779
 21
-18.822337441
 31
0.0
 11
-0.9244060202
 21
-18.8236307497
 31
0.0
 11
-1.0563071524
 21
-18.8247059576
 31
0.0
 11
-1.1935597759
 21
-18.8255529318
 31
0.0
 11
-1.3348709719
 21
-18.8261636798
 31
0.0
 11
-1.6243164533
 21
-18.8266557623
 31
0.0
  0
SPLINE
  5
660
100
AcDbEntity
  8
RACCORDO
100
AcDbSpline
 62
253
  6
CONTINUOUS
 70
0
 71
3
 72
22
 73
18
 74
16
 42
0.0000001
 43
0.0000001
 44
0.0000000001
 12
-0.1587571066
 22
-0.4763705981
 32
0.0
 13
-0.5021282362
 23
-0.0000002162
 33
0.0
 40
0.0
 40
0.0
 40
0.0
 40
0.0
 40
0.0032312476
 40
0.008259023
 40
0.0153920945
 40
0.0247200331
 40
0.0500247474
 40
0.0841114913
 40
0.126722999
 40
0.1774919993
 40
0.2359616505
 40
0.301596142
 40
0.3737884464
 40
0.4518667066
 40
0.622712426
 40
0.8077402542
 40
1.0
 40
1.0
 40
1.0
 40
1.0
 10
-1.1243926058
 20
-17.8010824191
 30
0.0
 10
-1.1245636003
 20
-17.8015955095
 30
0.0
 10
-1.1256012895
 20
-17.8026431678
 30
0.0
 10
-1.1278790628
 20
-17.8038162855
 30
0.0
 10
-1.1312788546
 20
-17.8050419753
 30
0.0
 10
-1.1380325417
 20
-17.8068424374
 30
0.0
 10
-1.1493608947
 20
-17.8089257001
 30
0.0
 10
-1.1662775472
 20
-17.8112244033
 30
0.0
 10
-1.1875003494
 20
-17.8134468817
 30
0.0
 10
-1.2128282697
 20
-17.8155701188
 30
0.0
 10
-1.2420309692
 20
-17.8175638463
 30
0.0
 10
-1.2748351285
 20
-17.8194069086
 30
0.0
 10
-1.3109342543
 20
-17.8210795401
 30
0.0
 10
-1.3646431552
 20
-17.8231205533
 30
0.0
 10
-1.4372522265
 20
-17.8250788851
 30
0.0
 10
-1.5289873211
 20
-17.8264919887
 30
0.0
 10
-1.592136771
 20
-17.8268080533
 30
0.0
 10
-1.6243164533
 20
-17.8268080671
 30
0.0
 11
-1.1243926058
 21
-17.8010824191
 31
0.0
 11
-1.1254038105
 21
-17.8023512664
 31
0.0
 11
-1.1275887771
 21
-17.8036159662
 31
0.0
 11
-1.1309423922
 21
-17.8048737258
 31
0.0
 11
-1.1354569346
 21
-17.8061215597
 31
0.0
 11
-1.1479239129
 21
-17.8085755901
 31
0.0
 11
-1.1648736283
 21
-17.8109550325
 31
0.0
 11
-1.1861479796
 21
-17.8132375037
 31
0.0
 11
-1.2115485111
 21
-17.8154015353
 31
0.0
 11
-1.2408378412
 21
-17.8174267405
 31
0.0
 11
-1.2737418323
 21
-17.8192940107
 31
0.0
 11
-1.309952132
 21
-17.8209856955
 31
0.0
 11
-1.3491287221
 21
-17.8224857832
 31
0.0
 11
-1.4348824265
 21
-17.8248561982
 31
0.0
 11
-1.5277786633
 21
-17.8263154287
 31
0.0
 11
-1.6243164533
 21
-17.8268080671
 31
0.0
  0
LINE
  5
661
100
AcDbEntity
  8
RACCORDO
100
AcDbLine
 62
7
  6
CONTINUOUS
 10
-10.2462972825
 20
-18.8266557623
 11
-9.8321468068
 21
-17.8268080671
  0
SPLINE
  5
662
100
AcDbEntity
  8
RACCORDO
100
AcDbSpline
 62
253
  6
CONTINUOUS
 70
0
 71
3
 72
22
 73
18
 74
16
 42
0.0000001
 43
0.0000001
 44
0.0000000001
 12
0.0000002162
 22
0.5021282362
 32
0.0
 13
0.4763706216
 23
0.158757036
 33
0.0
 40
0.0
 40
0.0
 40
0.0
 40
0.0
 40
0.1922597458
 40
0.377287574
 40
0.5481332934
 40
0.6262115536
 40
0.698403858
 40
0.7640383495
 40
0.8225080007
 40
0.873277001
 40
0.9158885087
 40
0.9499752525
 40
0.9752799669
 40
0.9846079055
 40
0.991740977
 40
0.9967687524
 40
1.0
 40
1.0
 40
1.0
 40
1.0
 10
-10.4162591302
 20
-9.2493355721
 30
0.0
 10
-10.4162591164
 20
-9.2171558897
 30
0.0
 10
-10.4159430518
 20
-9.1540064398
 30
0.0
 10
-10.4145299482
 20
-9.0622713452
 30
0.0
 10
-10.4125716164
 20
-8.9896622739
 30
0.0
 10
-10.4105306032
 20
-8.9359533731
 30
0.0
 10
-10.4088579717
 20
-8.8998542473
 30
0.0
 10
-10.4070149094
 20
-8.8670500879
 30
0.0
 10
-10.4050211819
 20
-8.8378473885
 30
0.0
 10
-10.4028979448
 20
-8.8125194681
 30
0.0
 10
-10.4006754664
 20
-8.791296666
 30
0.0
 10
-10.3983767632
 20
-8.7743800134
 30
0.0
 10
-10.3962935004
 20
-8.7630516605
 30
0.0
 10
-10.3944930385
 20
-8.7562979733
 30
0.0
 10
-10.3932673485
 20
-8.7528981816
 30
0.0
 10
-10.3920942309
 20
-8.7506204083
 30
0.0
 10
-10.3910465727
 20
-8.7495827189
 30
0.0
 10
-10.3905334822
 20
-8.7494117245
 30
0.0
 11
-10.4162591302
 21
-9.2493355721
 31
0.0
 11
-10.4157664918
 21
-9.152797782
 31
0.0
 11
-10.4143072613
 21
-9.0599015452
 31
0.0
 11
-10.4119368463
 21
-8.9741478409
 31
0.0
 11
-10.4104367586
 21
-8.9349712508
 31
0.0
 11
-10.4087450738
 21
-8.8987609511
 31
0.0
 11
-10.4068778036
 21
-8.86585696
 31
0.0
 11
-10.4048525984
 21
-8.8365676299
 31
0.0
 11
-10.4026885668
 21
-8.8111670983
 31
0.0
 11
-10.4004060956
 21
-8.7898927471
 31
0.0
 11
-10.3980266532
 21
-8.7729430316
 31
0.0
 11
-10.3955726228
 21
-8.7604760533
 31
0.0
 11
-10.394324789
 21
-8.7559615109
 31
0.0
 11
-10.3930670292
 21
-8.7526078958
 31
0.0
 11
-10.3918023295
 21
-8.7504229292
 31
0.0
 11
-10.3905334822
 21
-8.7494117245
 31
0.0
  0
SPLINE
  5
663
100
AcDbEntity
  8
RACCORDO
100
AcDbSpline
 62
253
  6
CONTINUOUS
 70
0
 71
3
 72
30
 73
26
 74
24
 42
0.0000001
 43
0.0000001
 44
0.0000000001
 12
0.0000057343
 22
1.5005922299
 32
0.0
 13
1.0608966513
 23
1.0612612005
 33
0.0
 40
0.0
 40
0.0
 40
0.0
 40
0.0
 40
0.1928877772
 40
0.2870589404
 40
0.3785263185
 40
0.4664286226
 40
0.5499382614
 40
0.6282692953
 40
0.7006847094
 40
0.7665032712
 40
0.8251064625
 40
0.8759439823
 40
0.8982987515
 40
0.9185395138
 40
0.936619218
 40
0.9524958951
 40
0.9661331785
 40
0.9775006885
 40
0.9865744316
 40
0.9902459588
 40
0.9933391531
 40
0.995854415
 40
0.9977942097
 40
0.9991668322
 40
1.0
 40
1.0
 40
1.0
 40
1.0
 10
-11.4161068254
 20
-9.2493355721
 30
0.0
 10
-11.4161064567
 20
-9.1528536055
 30
0.0
 10
-11.4158677835
 20
-9.0092672918
 30
0.0
 10
-11.4150537613
 20
-8.8199310859
 30
0.0
 10
-11.41421384
 20
-8.6831091539
 30
0.0
 10
-11.4131481164
 20
-8.5516218266
 30
0.0
 10
-11.4118669678
 20
-8.4267074993
 30
0.0
 10
-11.4103831295
 20
-8.309542477
 30
0.0
 10
-11.4087114131
 20
-8.2012299628
 30
0.0
 10
-11.4068692453
 20
-8.1027895309
 30
0.0
 10
-11.4048753148
 20
-8.0151477199
 30
0.0
 10
-11.4030373125
 20
-7.9492491105
 30
0.0
 10
-11.401474945
 20
-7.9025401447
 30
0.0
 10
-11.4003283389
 20
-7.8722121047
 30
0.0
 10
-11.3991596917
 20
-7.8451278603
 30
0.0
 10
-11.3979723083
 20
-7.821351077
 30
0.0
 10
-11.3967714129
 20
-7.8009370732
 30
0.0
 10
-11.3955604929
 20
-7.7839339189
 30
0.0
 10
-11.3944915509
 20
-7.7719184632
 30
0.0
 10
-11.3936001411
 20
-7.7640465797
 30
0.0
 10
-11.3929805471
 20
-7.7594445388
 30
0.0
 10
-11.3923634312
 20
-7.7557223891
 30
0.0
 10
-11.3917552362
 20
-7.7528610433
 30
0.0
 10
-11.3911572029
 20
-7.7508913124
 30
0.0
 10
-11.3906758123
 20
-7.7498587656
 30
0.0
 10
-11.3903811773
 20
-7.7495640294
 30
0.0
 11
-11.4161068254
 21
-9.2493355721
 31
0.0
 11
-11.4156147429
 21
-8.9598900906
 31
0.0
 11
-11.4150039949
 21
-8.8185788947
 31
0.0
 11
-11.4141570207
 21
-8.6813262712
 31
0.0
 11
-11.4130818128
 21
-8.5494251389
 31
0.0
 11
-11.4117885041
 21
-8.4241178978
 31
0.0
 11
-11.4102892864
 21
-8.3065845184
 31
0.0
 11
-11.408598291
 21
-8.1979316685
 31
0.0
 11
-11.4067314489
 21
-8.0991824908
 31
0.0
 11
-11.4047063525
 21
-8.0112663177
 31
0.0
 11
-11.4025420769
 21
-7.9350106373
 31
0.0
 11
-11.4014140701
 21
-7.901484215
 31
0.0
 11
-11.4002590037
 21
-7.8711330554
 31
0.0
 11
-11.3990795985
 21
-7.8440284395
 31
0.0
 11
-11.3978786321
 21
-7.8202343102
 31
0.0
 11
-11.3966589363
 21
-7.7998066893
 31
0.0
 11
-11.3954233728
 21
-7.7827934987
 31
0.0
 11
-11.3941748676
 21
-7.7692348714
 31
0.0
 11
-11.3935466975
 21
-7.7637613343
 31
0.0
 11
-11.392916389
 21
-7.7591627064
 31
0.0
 11
-11.3922842795
 21
-7.7554416313
 31
0.0
 11
-11.3916507252
 21
-7.7526005745
 31
0.0
 11
-11.3910161904
 21
-7.7506410027
 31
0.0
 11
-11.3903811773
 21
-7.7495640294
 31
0.0
  0
SPLINE
  5
664
100
AcDbEntity
  8
RACCORDO
100
AcDbSpline
 62
253
  6
CONTINUOUS
 70
0
 71
3
 72
13
 73
9
 74
7
 42
0.0000001
 43
0.0000001
 44
0.0000000001
 12
1.1316943657
 22
-0.578271183
 32
0.0
 13
0.88712837
 23
-0.9100181062
 33
0.0
 40
0.0
 40
0.0
 40
0.0
 40
0.0
 40
0.2834908057
 40
0.5516832151
 40
0.6768275295
 40
0.7944104489
 40
0.9028868891
 40
1.0
 40
1.0
 40
1.0
 40
1.0
 10
9.1834654167
 20
-8.6044566087
 30
0.0
 10
9.2904070659
 20
-8.6591014632
 30
0.0
 10
9.4933948761
 20
-8.7758433561
 30
0.0
 10
9.7271625449
 20
-8.9426105882
 30
0.0
 10
9.8944667751
 20
-9.0800093781
 30
0.0
 10
10.0055685658
 20
-9.1790185719
 30
0.0
 10
10.1045415298
 20
-9.2736400816
 30
0.0
 10
10.1658300256
 20
-9.3355284715
 30
0.0
 10
10.1945472909
 20
-9.3649867012
 30
0.0
 11
9.1834654167
 21
-8.6044566087
 31
0.0
 11
9.4957380356
 21
-8.7841480097
 31
0.0
 11
9.7732907357
 21
-8.981976735
 31
0.0
 11
9.8962258918
 21
-9.0828809182
 31
0.0
 11
10.0078321717
 21
-9.1822509656
 31
0.0
 11
10.107555504
 21
-9.2774387336
 31
0.0
 11
10.1945472909
 21
-9.3649867012
 31
0.0
  0
SPLINE
  5
665
100
AcDbEntity
  8
RACCORDO
100
AcDbSpline
 62
253
  6
CONTINUOUS
 70
0
 71
3
 72
13
 73
9
 74
7
 42
0.0000001
 43
0.0000001
 44
0.0000000001
 12
-0.8871282599
 22
-0.9100179387
 32
0.0
 13
-1.1316941878
 23
-0.5782710988
 33
0.0
 40
0.0
 40
0.0
 40
0.0
 40
0.0
 40
0.0971131604
 40
0.2055896065
 40
0.3231725248
 40
0.4483168336
 40
0.7165092227
 40
1.0
 40
1.0
 40
1.0
 40
1.0
 10
10.1945471489
 20
-13.3123590569
 30
0.0
 10
10.1658298726
 20
-13.3418172962
 30
0.0
 10
10.1045413748
 20
-13.4037056984
 30
0.0
 10
10.0055684008
 20
-13.4983272002
 30
0.0
 10
9.8944666232
 20
-13.5973363734
 30
0.0
 10
9.7271624204
 20
-13.734735126
 30
0.0
 10
9.4933948009
 20
-13.9015023107
 30
0.0
 10
9.2904070384
 20
-14.0182441717
 30
0.0
 10
9.1834654167
 20
-14.0728890128
 30
0.0
 11
10.1945471489
 21
-13.3123590569
 31
0.0
 11
10.1075553326
 21
-13.399907057
 31
0.0
 11
10.0078320051
 21
-13.49509481
 31
0.0
 11
9.8962257381
 21
-13.594464835
 31
0.0
 11
9.7732906016
 21
-13.6953689919
 31
0.0
 11
9.4957379582
 21
-13.8931976616
 31
0.0
 11
9.1834654167
 21
-14.0728890128
 31
0.0
  0
SPLINE
  5
666
100
AcDbEntity
  8
RACCORDO
100
AcDbSpline
 62
253
  6
CONTINUOUS
 70
0
 71
3
 72
22
 73
18
 74
16
 42
0.0000001
 43
0.0000001
 44
0.0000000001
 12
-3.5626617196
 22
3.2402622963
 32
0.0
 13
3.2268864647
 23
3.5747813949
 33
0.0
 40
0.0
 40
0.0
 40
0.0
 40
0.0
 40
0.0651156404
 40
0.1291880356
 40
0.1918900371
 40
0.25336867
 40
0.3745703724
 40
0.4361905583
 40
0.4998953358
 40
0.5650718234
 40
0.6289283593
 40
0.6906581497
 40
0.7513236279
 40
0.811993561
 40
0.8734034618
 40
0.9360155423
 40
1.0
 40
1.0
 40
1.0
 40
1.0
 10
0.2204036124
 20
-13.6101835023
 30
0.0
 10
0.1430752793
 20
-13.5398529175
 30
0.0
 10
-0.0040779215
 20
-13.3932303422
 30
0.0
 10
-0.2014885549
 20
-13.1562300435
 30
0.0
 10
-0.3728435617
 20
-12.9067445503
 30
0.0
 10
-0.56520586
 20
-12.5625508418
 30
0.0
 10
-0.7085950564
 20
-12.1945582342
 30
0.0
 10
-0.7971221052
 20
-11.8082993764
 30
0.0
 10
-0.8336887511
 20
-11.5040234972
 30
0.0
 10
-0.8349080696
 20
-11.1939091051
 30
0.0
 10
-0.8005652991
 20
-10.888968578
 30
0.0
 10
-0.7356150852
 20
-10.5966017818
 30
0.0
 10
-0.64390257
 20
-10.3169413807
 30
0.0
 10
-0.5265422475
 20
-10.04762733
 30
0.0
 10
-0.3833030224
 20
-9.7875606175
 30
0.0
 10
-0.2137402544
 20
-9.5374033891
 30
0.0
 10
-0.0844222454
 20
-9.3801896213
 30
0.0
 10
-0.0155987186
 20
-9.3039461383
 30
0.0
 11
0.2204036124
 21
-13.6101835023
 31
0.0
 11
-0.0016463593
 21
-13.3887599933
 31
0.0
 11
-0.1990600161
 21
-13.1516171445
 31
0.0
 11
-0.3699581983
 21
-12.9026722654
 31
0.0
 11
-0.5143115116
 21
-12.6441793531
 31
0.0
 11
-0.7252585719
 21
-12.0999493294
 31
0.0
 11
-0.791309354
 21
-11.8106434752
 31
0.0
 11
-0.8275612331
 21
-11.50600387
 31
0.0
 11
-0.8287813155
 21
-11.1921297954
 31
0.0
 11
-0.7947051069
 21
-10.8865037832
 31
0.0
 11
-0.7305035754
 21
-10.5962413267
 31
0.0
 11
-0.6396212412
 21
-10.3185843383
 31
0.0
 11
-0.5229967927
 21
-10.0506957874
 31
0.0
 11
-0.3803936883
 21
-9.7916109904
 31
0.0
 11
-0.2112744339
 21
-9.5419770888
 31
0.0
 11
-0.0155987186
 21
-9.3039461383
 31
0.0
  0
SPLINE
  5
667
100
AcDbEntity
  8
RACCORDO
100
AcDbSpline
 62
253
  6
CONTINUOUS
 70
0
 71
3
 72
13
 73
9
 74
7
 42
0.0000001
 43
0.0000001
 44
0.0000000001
 12
-0.9954031545
 22
0.6587567697
 32
0.0
 13
-0.7131645188
 23
0.957175162
 33
0.0
 40
0.0
 40
0.0
 40
0.0
 40
0.0
 40
0.2726468758
 40
0.5353650231
 40
0.6609037832
 40
0.7813169918
 40
0.8951656138
 40
1.0
 40
1.0
 40
1.0
 40
1.0
 10
-10.2469424073
 20
-3.6506105712
 30
0.0
 10
-10.3374069274
 20
-3.5907412461
 30
0.0
 10
-10.5084480213
 20
-3.4629123629
 30
0.0
 10
-10.7016881807
 20
-3.2839379609
 30
0.0
 10
-10.8403366934
 20
-3.1364280863
 30
0.0
 10
-10.9340416246
 20
-3.0281485227
 30
0.0
 10
-11.0186482257
 20
-2.9230229008
 30
0.0
 10
-11.0712521853
 20
-2.8537046044
 30
0.0
 10
-11.0961735735
 20
-2.8202563142
 30
0.0
 11
-10.2469424073
 21
-3.6506105712
 31
0.0
 11
-10.507857601
 21
-3.4560938599
 31
0.0
 11
-10.7382748367
 21
-3.2433782395
 31
0.0
 11
-10.8409561972
 21
-3.134239943
 31
0.0
 11
-10.9350748064
 21
-3.0256113415
 31
0.0
 11
-11.0203664292
 21
-2.9198155942
 31
0.0
 11
-11.0961735735
 21
-2.8202563142
 31
0.0
  0
SPLINE
  5
668
100
AcDbEntity
  8
RACCORDO
100
AcDbSpline
 62
253
  6
CONTINUOUS
 70
0
 71
3
 72
11
 73
7
 74
5
 42
0.0000001
 43
0.0000001
 44
0.0000000001
 12
-0.2900404128
 22
0.3892811473
 32
0.0
 13
-0.0093147462
 23
0.4853622237
 33
0.0
 40
0.0
 40
0.0
 40
0.0
 40
0.0
 40
0.257302277
 40
0.5082789728
 40
0.7552411633
 40
1.0
 40
1.0
 40
1.0
 40
1.0
 10
-11.0961735735
 20
-2.8202563142
 30
0.0
 10
-11.1210495931
 20
-2.7868686723
 30
0.0
 10
-11.1643446175
 20
-2.7163649934
 30
0.0
 10
-11.2106373029
 20
-2.6027520458
 30
0.0
 10
-11.2387966695
 20
-2.4854816066
 30
0.0
 10
-11.2460327401
 20
-2.4059209216
 30
0.0
 10
-11.2467926956
 20
-2.3663220238
 30
0.0
 11
-11.0961735735
 21
-2.8202563142
 31
0.0
 11
-11.1617724306
 21
-2.7139607416
 31
0.0
 11
-11.2079257686
 21
-2.6012037766
 31
0.0
 11
-11.2360027142
 21
-2.4846496555
 31
0.0
 11
-11.2467926956
 21
-2.3663220238
 31
0.0
  0
SPLINE
  5
669
100
AcDbEntity
  8
RACCORDO
100
AcDbSpline
 62
7
  6
CONTINUOUS
 70
0
 71
3
 72
15
 73
11
 74
9
 42
0.0000001
 43
0.0000001
 44
0.0000000001
 12
1.4579109107
 22
-0.0058339871
 32
0.0
 13
1.4579109107
 23
0.0058339871
 33
0.0
 40
0.0
 40
0.0
 40
0.0
 40
0.0
 40
0.1235922403
 40
0.2483330106
 40
0.3739340343
 40
0.5
 40
0.6260659657
 40
0.7516669894
 40
0.8764077597
 40
1.0
 40
1.0
 40
1.0
 40
1.0
 10
-6.4425513677
 20
-8.7494117245
 30
0.0
 10
-6.3824892092
 20
-8.7496520697
 30
0.0
 10
-6.2618121033
 20
-8.751218589
 30
0.0
 10
-6.0801250515
 20
-8.7547460421
 30
0.0
 10
-5.8972229599
 20
-8.7577018507
 30
0.0
 10
-5.713653692
 20
-8.7588393611
 30
0.0
 10
-5.530084424
 20
-8.7577018507
 30
0.0
 10
-5.3471823324
 20
-8.7547460421
 30
0.0
 10
-5.1654952806
 20
-8.751218589
 30
0.0
 10
-5.0448181748
 20
-8.7496520697
 30
0.0
 10
-4.9847560163
 20
-8.7494117245
 30
0.0
 11
-6.4425513677
 21
-8.7494117245
 31
0.0
 11
-6.2623744591
 21
-8.751403577
 31
0.0
 11
-6.0805408672
 21
-8.7546396782
 31
0.0
 11
-5.8974450247
 21
-8.7573947276
 31
0.0
 11
-5.713653692
 21
-8.7584597243
 31
0.0
 11
-5.5298623593
 21
-8.7573947276
 31
0.0
 11
-5.3467665168
 21
-8.7546396782
 31
0.0
 11
-5.1649329249
 21
-8.751403577
 31
0.0
 11
-4.9847560163
 21
-8.7494117245
 31
0.0
  0
LINE
  5
66A
100
AcDbEntity
  8
RACCORDO
100
AcDbLine
 62
7
  6
CONTINUOUS
 10
-0.312794084
 20
13.9616358666
 11
-0.3134444835
 21
13.840670901
  0
LINE
  5
66B
100
AcDbEntity
  8
RACCORDO
100
AcDbLine
 62
7
  6
CONTINUOUS
 10
-11.1998772633
 20
-1.9264757783
 11
-11.1999686532
 21
-1.9263986797
  0
SPLINE
  5
66C
100
AcDbEntity
  8
RACCORDO
100
AcDbSpline
 62
7
  6
CONTINUOUS
 70
0
 71
3
 72
10
 73
6
 74
4
 42
0.0000001
 43
0.0000001
 44
0.0000000001
 12
0.0
 22
-0.6321934881
 32
0.0
 13
-0.0031637647
 23
-0.6321855716
 33
0.0
 40
0.0
 40
0.0
 40
0.0
 40
0.0
 40
0.5236245195
 40
0.7736050409
 40
1.0
 40
1.0
 40
1.0
 40
1.0
 10
-0.3117265215
 20
14.5938280845
 30
0.0
 10
-0.3117265215
 20
14.4834840807
 30
0.0
 10
-0.3118488546
 20
14.3204613218
 30
0.0
 10
-0.3122642698
 20
14.1097306149
 30
0.0
 10
-0.3125553305
 20
14.0093437421
 30
0.0
 10
-0.312794084
 20
13.9616358666
 30
0.0
 11
-0.3117265215
 21
14.5938280845
 31
0.0
 11
-0.3119833131
 21
14.2627961727
 31
0.0
 11
-0.3122997228
 21
14.1047604317
 31
0.0
 11
-0.312794084
 21
13.9616358666
 31
0.0
  0
LINE
  5
66D
100
AcDbEntity
  8
RACCORDO
100
AcDbLine
 62
7
  6
CONTINUOUS
 10
-11.1998772633
 20
11.5735242217
 11
-11.1999686532
 21
11.5736013203
  0
SPLINE
  5
66E
100
AcDbEntity
  8
RACCORDO
100
AcDbSpline
 62
253
  6
CONTINUOUS
 70
0
 71
3
 72
13
 73
9
 74
7
 42
0.0000001
 43
0.0000001
 44
0.0000000001
 12
-1.1278218463
 22
-0.5741442446
 32
0.0
 13
-0.8872483073
 23
-0.9024489857
 33
0.0
 40
0.0
 40
0.0
 40
0.0
 40
0.0
 40
0.283378056
 40
0.5515235569
 40
0.6766667852
 40
0.7942647557
 40
0.9027839692
 40
1.0
 40
1.0
 40
1.0
 40
1.0
 10
-10.1111757063
 20
15.6065634212
 30
0.0
 10
-10.2177090271
 20
15.5523301279
 30
0.0
 10
-10.4200057794
 20
15.4365066319
 30
0.0
 10
-10.6531946047
 20
15.2711314839
 30
0.0
 10
-10.8202484527
 20
15.134882389
 30
0.0
 10
-10.9312699564
 20
15.0366868406
 30
0.0
 10
-11.0302568728
 20
14.942814145
 30
0.0
 10
-11.0915932015
 20
14.8814014149
 30
0.0
 10
-11.1203447877
 20
14.8521572455
 30
0.0
 11
-10.1111757063
 21
15.6065634212
 31
0.0
 11
-10.4223632359
 21
15.4283003901
 31
0.0
 11
-10.6992527726
 21
15.2321062277
 31
0.0
 11
-10.822011014
 21
15.132040413
 31
0.0
 11
-10.9335326851
 21
15.0334897956
 31
0.0
 11
-11.0332586257
 21
14.939064534
 31
0.0
 11
-11.1203447877
 21
14.8521572455
 31
0.0
  0
SPLINE
  5
66F
100
AcDbEntity
  8
RACCORDO
100
AcDbSpline
 62
253
  6
CONTINUOUS
 70
0
 71
3
 72
13
 73
9
 74
7
 42
0.0000001
 43
0.0000001
 44
0.0000000001
 12
-1.1278219249
 22
0.5741445728
 32
0.0
 13
-0.8872479675
 23
0.9024496268
 33
0.0
 40
0.0
 40
0.0
 40
0.0
 40
0.0
 40
0.2833780394
 40
0.55152359
 40
0.6766667607
 40
0.7942648271
 40
0.9027840159
 40
1.0
 40
1.0
 40
1.0
 40
1.0
 10
-10.1111757063
 20
10.1160909573
 30
0.0
 10
-10.2177090282
 20
10.1703242784
 30
0.0
 10
-10.4200058423
 20
10.2861477725
 30
0.0
 10
-10.6531946918
 20
10.4515229575
 30
0.0
 10
-10.8202485941
 20
10.5877721033
 30
0.0
 10
-10.931270111
 20
10.6859676843
 30
0.0
 10
-11.0302570494
 20
10.7798404055
 30
0.0
 10
-11.091593374
 20
10.8412531187
 30
0.0
 10
-11.1203449355
 20
10.8704972949
 30
0.0
 11
-10.1111757063
 21
10.1160909573
 31
0.0
 11
-10.4223632703
 21
10.2943540109
 31
0.0
 11
-10.6992529026
 21
10.4905482488
 31
0.0
 11
-10.8220111047
 21
10.5906140397
 31
0.0
 11
-10.9335328784
 21
10.6891647631
 31
0.0
 11
-11.0332588117
 21
10.7835900214
 31
0.0
 11
-11.1203449355
 21
10.8704972949
 31
0.0
  0
LINE
  5
670
100
AcDbEntity
  8
RACCORDO
100
AcDbLine
 62
253
  6
CONTINUOUS
 10
-0.3334015362
 20
13.9538185217
 11
-0.3321068091
 21
13.6196593236
  0
LINE
  5
671
100
AcDbEntity
  8
RACCORDO
100
AcDbLine
 62
253
  6
CONTINUOUS
 10
-0.3321103597
 20
12.1029815633
 11
-0.3334019921
 21
11.7688346454
  0
LINE
  5
672
100
AcDbEntity
  8
RACCORDO
100
AcDbLine
 62
253
  6
CONTINUOUS
 10
-0.333401519
 20
0.4538184313
 11
-0.3321068798
 21
0.1196595924
  0
LINE
  5
673
100
AcDbEntity
  8
RACCORDO
100
AcDbLine
 62
253
  6
CONTINUOUS
 10
-0.3321106509
 20
-1.3970195434
 11
-0.3334018703
 21
-1.7311649875
  0
SPLINE
  5
674
100
AcDbEntity
  8
RACCORDO
100
AcDbSpline
 62
253
  6
CONTINUOUS
 70
0
 71
3
 72
13
 73
9
 74
7
 42
0.0000001
 43
0.0000001
 44
0.0000000001
 12
-1.1278218908
 22
-0.5741442672
 32
0.0
 13
-0.8872483361
 23
-0.9024490274
 33
0.0
 40
0.0
 40
0.0
 40
0.0
 40
0.0
 40
0.2833780605
 40
0.5515235641
 40
0.6766667929
 40
0.7942647628
 40
0.9027839746
 40
1.0
 40
1.0
 40
1.0
 40
1.0
 10
-10.1111757063
 20
2.1065634212
 30
0.0
 10
-10.217709033
 20
2.0523301249
 30
0.0
 10
-10.4200057957
 20
1.9365066223
 30
0.0
 10
-10.6531946316
 20
1.771131464
 30
0.0
 10
-10.8202484855
 20
1.6348823612
 30
0.0
 10
-10.931269992
 20
1.5366868082
 30
0.0
 10
-11.0302569086
 20
1.4428141098
 30
0.0
 10
-11.0915932374
 20
1.3814013792
 30
0.0
 10
-11.120344823
 20
1.35215721
 30
0.0
 11
-10.1111757063
 21
2.1065634212
 31
0.0
 11
-10.4223632526
 21
1.9283003794
 31
0.0
 11
-10.6992528016
 21
1.7321062051
 31
0.0
 11
-10.8220110472
 21
1.6320403848
 31
0.0
 11
-10.933532721
 21
1.5334897627
 31
0.0
 11
-11.0332586628
 21
1.4390644977
 31
0.0
 11
-11.120344823
 21
1.35215721
 31
0.0
  0
SPLINE
  5
675
100
AcDbEntity
  8
RACCORDO
100
AcDbSpline
 62
253
  6
CONTINUOUS
 70
0
 71
3
 72
13
 73
9
 74
7
 42
0.0000001
 43
0.0000001
 44
0.0000000001
 12
-1.1278216012
 22
0.574144408
 32
0.0
 13
-0.8872477608
 23
0.9024493206
 33
0.0
 40
0.0
 40
0.0
 40
0.0
 40
0.0
 40
0.2833780153
 40
0.5515235532
 40
0.6766667241
 40
0.7942647969
 40
0.9027840008
 40
1.0
 40
1.0
 40
1.0
 40
1.0
 10
-10.1111757063
 20
-3.3839090427
 30
0.0
 10
-10.2177089886
 20
-3.3296757418
 30
0.0
 10
-10.4200057329
 20
-3.2138522925
 30
0.0
 10
-10.6531945114
 20
-3.0484771764
 30
0.0
 10
-10.8202483735
 20
-2.9122280834
 30
0.0
 10
-10.9312698734
 20
-2.8140325334
 30
0.0
 10
-11.0302568008
 20
-2.7201598353
 30
0.0
 10
-11.091593123
 20
-2.6587471367
 30
0.0
 10
-11.1203446822
 20
-2.6295029659
 30
0.0
 11
-10.1111757063
 21
-3.3839090427
 31
0.0
 11
-10.4223631578
 21
-3.2056460612
 31
0.0
 11
-10.6992527078
 21
-3.0094519033
 31
0.0
 11
-10.822010882
 21
-2.9093861498
 31
0.0
 11
-10.9335326374
 21
-2.8108354579
 31
0.0
 11
-11.033258563
 21
-2.7164102211
 31
0.0
 11
-11.1203446822
 21
-2.6295029659
 31
0.0
  0
LINE
  5
676
100
AcDbEntity
  8
RACCORDO
100
AcDbLine
 62
7
  6
CONTINUOUS
 10
9.4061292653
 20
18.6793703677
 11
9.4062806668
 21
18.2810674378
  0
SPLINE
  5
677
100
AcDbEntity
  8
RACCORDO
100
AcDbSpline
 62
7
  6
CONTINUOUS
 70
0
 71
3
 72
11
 73
7
 74
5
 42
0.0000001
 43
0.0000001
 44
0.0000000001
 12
0.0000000333
 22
0.8609476775
 32
0.0
 13
-0.0150209521
 23
0.8608166323
 33
0.0
 40
0.0
 40
0.0
 40
0.0
 40
0.0
 40
0.2900478582
 40
0.5538545411
 40
0.786807753
 40
1.0
 40
1.0
 40
1.0
 40
1.0
 10
9.2265591393
 20
9.9844730977
 30
0.0
 10
9.2265591425
 20
10.0677117743
 30
0.0
 10
9.2260570554
 20
10.2266587362
 30
0.0
 10
9.2240816207
 20
10.4524512221
 30
0.0
 10
9.2212646734
 20
10.6561763074
 30
0.0
 10
9.219051354
 20
10.7841932181
 30
0.0
 10
9.2179839038
 20
10.8453663621
 30
0.0
 11
9.2265591393
 21
9.9844730977
 31
0.0
 11
9.2257896025
 21
10.2341879419
 31
0.0
 11
9.223800023
 21
10.4613029784
 31
0.0
 11
9.2210654594
 21
10.661844862
 31
0.0
 11
9.2179839038
 21
10.8453663621
 31
0.0
  0
LINE
  5
678
100
AcDbEntity
  8
0
100
AcDbLine
 62
7
  6
CONTINUOUS
 10
-8.5141585932
 20
14.5050208361
 11
-8.5135921743
 21
14.5040447568
  0
SPLINE
  5
679
100
AcDbEntity
  8
0
100
AcDbSpline
 62
7
  6
CONTINUOUS
 70
0
 71
3
 72
11
 73
7
 74
5
 42
0.0000001
 43
0.0000001
 44
0.0000000001
 12
0.0097023139
 22
-0.050430621
 32
0.0
 13
-0.0491170941
 23
-0.0149964495
 33
0.0
 40
0.0
 40
0.0
 40
0.0
 40
0.0
 40
0.092922586
 40
0.2922488172
 40
0.5977105026
 40
1.0
 40
1.0
 40
1.0
 40
1.0
 10
-8.5135921743
 20
14.5040447568
 30
0.0
 10
-8.513291653
 20
14.5024827089
 30
0.0
 10
-8.5180251846
 20
14.4983694226
 30
0.0
 10
-8.5263483838
 20
14.4940853243
 30
0.0
 10
-8.5411317349
 20
14.4879735887
 30
0.0
 10
-8.5525293479
 20
14.4842658253
 30
0.0
 10
-8.5591157783
 20
14.482254854
 30
0.0
 11
-8.5135921743
 21
14.5040447568
 31
0.0
 11
-8.516234652
 21
14.5000710845
 31
0.0
 11
-8.5250571802
 21
14.4948798711
 31
0.0
 11
-8.5395281064
 21
14.4888236248
 31
0.0
 11
-8.5591157783
 21
14.482254854
 31
0.0
  0
SPLINE
  5
67A
100
AcDbEntity
  8
0
100
AcDbSpline
 62
7
  6
CONTINUOUS
 70
0
 71
3
 72
9
 73
5
 74
3
 42
0.0000001
 43
0.0000001
 44
0.0000000001
 12
-0.0357373306
 22
-0.0109113351
 32
0.0
 13
-0.0363224278
 23
-0.0087689947
 33
0.0
 40
0.0
 40
0.0
 40
0.0
 40
0.0
 40
0.2276871949
 40
1.0
 40
1.0
 40
1.0
 40
1.0
 10
-8.5591157783
 20
14.482254854
 30
0.0
 10
-8.5618280891
 20
14.4814267302
 30
0.0
 10
-8.5737754047
 20
14.4779038726
 30
0.0
 10
-8.5858397235
 20
14.4747864689
 30
0.0
 10
-8.5951904822
 20
14.472529
 30
0.0
 11
-8.5591157783
 21
14.482254854
 31
0.0
 11
-8.5672746563
 21
14.4798435304
 31
0.0
 11
-8.5951904822
 21
14.472529
 31
0.0
  0
SPLINE
  5
67B
100
AcDbEntity
  8
0
100
AcDbSpline
 62
7
  6
CONTINUOUS
 70
0
 71
3
 72
9
 73
5
 74
3
 42
0.0000001
 43
0.0000001
 44
0.0000000001
 12
-0.0452604657
 22
-0.0109268242
 32
0.0
 13
-0.0456801514
 23
-0.0090127134
 33
0.0
 40
0.0
 40
0.0
 40
0.0
 40
0.0
 40
0.2327178682
 40
1.0
 40
1.0
 40
1.0
 40
1.0
 10
-8.5951904822
 20
14.472529
 30
0.0
 10
-8.5987014552
 20
14.4716813776
 30
0.0
 10
-8.6138111754
 20
14.4681340632
 30
0.0
 10
-8.6290022463
 20
14.4649380866
 30
0.0
 10
-8.6406854343
 20
14.4626329887
 30
0.0
 11
-8.5951904822
 21
14.472529
 31
0.0
 11
-8.6057384647
 21
14.4700493583
 31
0.0
 11
-8.6406854343
 21
14.4626329887
 31
0.0
  0
SPLINE
  5
67C
100
AcDbEntity
  8
0
100
AcDbSpline
 62
7
  6
CONTINUOUS
 70
0
 71
3
 72
9
 73
5
 74
3
 42
0.0000001
 43
0.0000001
 44
0.0000000001
 12
-0.1307978605
 22
0.0151647496
 32
0.0
 13
-0.1299714313
 23
0.0211063257
 33
0.0
 40
0.0
 40
0.0
 40
0.0
 40
0.0
 40
0.2724052491
 40
1.0
 40
1.0
 40
1.0
 40
1.0
 10
-2.6008850851
 20
14.4349849116
 30
0.0
 10
-2.6127617597
 20
14.4363618974
 30
0.0
 10
-2.6563382989
 20
14.4416031297
 30
0.0
 10
-2.699827344
 20
14.4476293757
 30
0.0
 10
-2.7313495211
 20
14.4527483263
 30
0.0
 11
-2.6008850851
 21
14.4349849116
 31
0.0
 11
-2.6364962233
 21
14.4392756274
 31
0.0
 11
-2.7313495211
 21
14.4527483263
 31
0.0
  0
SPLINE
  5
67D
100
AcDbEntity
  8
0
100
AcDbSpline
 62
7
  6
CONTINUOUS
 70
0
 71
3
 72
9
 73
5
 74
3
 42
0.0000001
 43
0.0000001
 44
0.0000000001
 12
-0.05399261
 22
0.00876797
 32
0.0
 13
-0.0536786583
 23
0.0105204977
 33
0.0
 40
0.0
 40
0.0
 40
0.0
 40
0.0
 40
0.263193907
 40
1.0
 40
1.0
 40
1.0
 40
1.0
 10
-2.7313495211
 20
14.4527483263
 30
0.0
 10
-2.7360863631
 20
14.4535175517
 30
0.0
 10
-2.754073103
 20
14.456505794
 30
0.0
 10
-2.7720164452
 20
14.4597591314
 30
0.0
 10
-2.7852000327
 20
14.462342987
 30
0.0
 11
-2.7313495211
 21
14.4527483263
 31
0.0
 11
-2.7455513576
 21
14.4551088895
 31
0.0
 11
-2.7852000327
 21
14.462342987
 31
0.0
  0
SPLINE
  5
67E
100
AcDbEntity
  8
0
100
AcDbSpline
 62
7
  6
CONTINUOUS
 70
0
 71
3
 72
9
 73
5
 74
3
 42
0.0000001
 43
0.0000001
 44
0.0000000001
 12
-0.0458187642
 22
0.0089800345
 32
0.0
 13
-0.0454023365
 23
0.010891649
 33
0.0
 40
0.0
 40
0.0
 40
0.0
 40
0.0
 40
0.2666858966
 40
1.0
 40
1.0
 40
1.0
 40
1.0
 10
-2.7852000327
 20
14.462342987
 30
0.0
 10
-2.7892731054
 20
14.4631412698
 30
0.0
 10
-2.8045323841
 20
14.466202937
 30
0.0
 10
-2.8197372775
 20
14.4695421135
 30
0.0
 10
-2.8308353354
 20
14.4722044468
 30
0.0
 11
-2.7852000327
 21
14.462342987
 31
0.0
 11
-2.7974081063
 21
14.4647940136
 31
0.0
 11
-2.8308353354
 21
14.4722044468
 31
0.0
  0
SPLINE
  5
67F
100
AcDbEntity
  8
0
100
AcDbSpline
 62
7
  6
CONTINUOUS
 70
0
 71
3
 72
9
 73
5
 74
3
 42
0.0000001
 43
0.0000001
 44
0.0000000001
 12
-0.0819412033
 22
0.0196570241
 32
0.0
 13
-0.0679762132
 23
0.0497995364
 33
0.0
 40
0.0
 40
0.0
 40
0.0
 40
0.0
 40
0.6355827558
 40
1.0
 40
1.0
 40
1.0
 40
1.0
 10
-2.8308353354
 20
14.4722044468
 30
0.0
 10
-2.848195474
 20
14.476369002
 30
0.0
 10
-2.8749442267
 20
14.4841145749
 30
0.0
 10
-2.9020492403
 20
14.4935239521
 30
0.0
 10
-2.9103064751
 20
14.499573222
 30
0.0
 11
-2.8308353354
 21
14.4722044468
 31
0.0
 11
-2.882341483
 21
14.4868870266
 31
0.0
 11
-2.9103064751
 21
14.499573222
 31
0.0
  0
SPLINE
  5
680
100
AcDbEntity
  8
0
100
AcDbSpline
 62
7
  6
CONTINUOUS
 70
0
 71
3
 72
9
 73
5
 74
3
 42
0.0000001
 43
0.0000001
 44
0.0000000001
 12
-0.0046256594
 22
0.0033887691
 32
0.0
 13
0.0010956296
 23
0.0056285057
 33
0.0
 40
0.0
 40
0.0
 40
0.0
 40
0.0
 40
0.356236234
 40
1.0
 40
1.0
 40
1.0
 40
1.0
 10
-2.9103064751
 20
14.499573222
 30
0.0
 10
-2.9108557509
 20
14.4999756228
 30
0.0
 10
-2.9122696153
 20
14.5011026176
 30
0.0
 10
-2.9139035189
 20
14.5028899271
 30
0.0
 10
-2.91366841
 20
14.5040977364
 30
0.0
 11
-2.9103064751
 21
14.499573222
 31
0.0
 11
-2.9118910143
 21
14.5008623723
 31
0.0
 11
-2.91366841
 21
14.5040977364
 31
0.0
  0
SPLINE
  5
681
100
AcDbEntity
  8
0
100
AcDbSpline
 62
7
  6
CONTINUOUS
 70
0
 71
3
 72
9
 73
5
 74
3
 42
0.0000001
 43
0.0000001
 44
0.0000000001
 12
0.1755932725
 22
-0.1091329031
 32
0.0
 13
0.1020255396
 23
-0.1798159535
 33
0.0
 40
0.0
 40
0.0
 40
0.0
 40
0.0
 40
0.7478765386
 40
1.0
 40
1.0
 40
1.0
 40
1.0
 10
-9.063653692
 20
-0.2278253968
 30
0.0
 10
-9.0198796624
 20
-0.2550313761
 30
0.0
 10
-8.9686606134
 20
-0.3045156991
 30
0.0
 10
-8.9313322046
 20
-0.3624463871
 30
0.0
 10
-8.9227578605
 20
-0.3775583273
 30
0.0
 11
-9.063653692
 21
-0.2278253968
 31
0.0
 11
-8.9510379156
 21
-0.3337719196
 31
0.0
 11
-8.9227578605
 21
-0.3775583273
 31
0.0
  0
SPLINE
  5
682
100
AcDbEntity
  8
0
100
AcDbSpline
 62
7
  6
CONTINUOUS
 70
0
 71
3
 72
9
 73
5
 74
3
 42
0.0000001
 43
0.0000001
 44
0.0000000001
 12
0.2096527825
 22
0.0
 32
0.0
 13
0.1780639752
 23
-0.1106684685
 33
0.0
 40
0.0
 40
0.0
 40
0.0
 40
0.0
 40
0.7466433059
 40
1.0
 40
1.0
 40
1.0
 40
1.0
 10
-9.263653692
 20
-0.170163366
 30
0.0
 10
-9.2114750764
 20
-0.170163366
 30
0.0
 10
-9.1404831465
 20
-0.1856651206
 30
0.0
 10
-9.078691592
 20
-0.2184791977
 30
0.0
 10
-9.063653692
 20
-0.2278253968
 30
0.0
 11
-9.263653692
 21
-0.170163366
 31
0.0
 11
-9.1105927685
 21
-0.2029631368
 31
0.0
 11
-9.063653692
 21
-0.2278253968
 31
0.0
  0
SPLINE
  5
683
100
AcDbEntity
  8
0
100
AcDbSpline
 62
7
  6
CONTINUOUS
 70
0
 71
3
 72
9
 73
5
 74
3
 42
0.0000001
 43
0.0000001
 44
0.0000000001
 12
0.1531931612
 22
0.0747843455
 32
0.0
 13
0.1704724112
 23
0.0
 33
0.0
 40
0.0
 40
0.0
 40
0.0
 40
0.0
 40
0.2522711178
 40
1.0
 40
1.0
 40
1.0
 40
1.0
 10
-9.4288955153
 20
-0.20859866
 30
0.0
 10
-9.4160134453
 20
-0.2023100166
 30
0.0
 10
-9.3635962869
 20
-0.180254922
 30
0.0
 10
-9.3061427405
 20
-0.170163366
 30
0.0
 10
-9.263653692
 20
-0.170163366
 30
0.0
 11
-9.4288955153
 21
-0.20859866
 31
0.0
 11
-9.3892462557
 21
-0.191943658
 31
0.0
 11
-9.263653692
 21
-0.170163366
 31
0.0
  0
SPLINE
  5
684
100
AcDbEntity
  8
0
100
AcDbSpline
 62
7
  6
CONTINUOUS
 70
0
 71
3
 72
8
 73
4
 74
2
 42
0.0000001
 43
0.0000001
 44
0.0000000001
 12
-0.076230243
 22
-0.0372133377
 32
0.0
 13
-0.0848285474
 23
0.0
 33
0.0
 40
0.0
 40
0.0
 40
0.0
 40
0.0
 40
1.0
 40
1.0
 40
1.0
 40
1.0
 10
-9.4288955153
 20
-0.20859866
 30
0.0
 10
-9.4543055963
 20
-0.2210031059
 30
0.0
 10
-9.4832402445
 20
-0.2278253968
 30
0.0
 10
-9.511516427
 20
-0.2278253968
 30
0.0
 11
-9.4288955153
 21
-0.20859866
 31
0.0
 11
-9.511516427
 21
-0.2278253968
 31
0.0
  0
SPLINE
  5
685
100
AcDbEntity
  8
0
100
AcDbSpline
 62
7
  6
CONTINUOUS
 70
0
 71
3
 72
9
 73
5
 74
3
 42
0.0000001
 43
0.0000001
 44
0.0000000001
 12
0.1020255396
 22
0.1798159535
 32
0.0
 13
0.1755932725
 23
0.1091329031
 33
0.0
 40
0.0
 40
0.0
 40
0.0
 40
0.0
 40
0.2521234614
 40
1.0
 40
1.0
 40
1.0
 40
1.0
 10
-2.5045495235
 20
-0.3775583273
 30
0.0
 10
-2.4959751794
 20
-0.3624463871
 30
0.0
 10
-2.4586467706
 20
-0.3045156991
 30
0.0
 10
-2.4074277216
 20
-0.2550313761
 30
0.0
 10
-2.363653692
 20
-0.2278253968
 30
0.0
 11
-2.5045495235
 21
-0.3775583273
 31
0.0
 11
-2.4762694683
 21
-0.3337719196
 31
0.0
 11
-2.363653692
 21
-0.2278253968
 31
0.0
  0
SPLINE
  5
686
100
AcDbEntity
  8
0
100
AcDbSpline
 62
7
  6
CONTINUOUS
 70
0
 71
3
 72
8
 73
4
 74
2
 42
0.0000001
 43
0.0000001
 44
0.0000000001
 12
-0.0848285474
 22
0.0
 32
0.0
 13
-0.076230243
 23
0.0372133377
 33
0.0
 40
0.0
 40
0.0
 40
0.0
 40
0.0
 40
1.0
 40
1.0
 40
1.0
 40
1.0
 10
-1.915790957
 20
-0.2278253968
 30
0.0
 10
-1.9440671395
 20
-0.2278253968
 30
0.0
 10
-1.9730017876
 20
-0.2210031059
 30
0.0
 10
-1.9984118687
 20
-0.20859866
 30
0.0
 11
-1.915790957
 21
-0.2278253968
 31
0.0
 11
-1.9984118687
 21
-0.20859866
 31
0.0
  0
SPLINE
  5
687
100
AcDbEntity
  8
0
100
AcDbSpline
 62
7
  6
CONTINUOUS
 70
0
 71
3
 72
9
 73
5
 74
3
 42
0.0000001
 43
0.0000001
 44
0.0000000001
 12
0.1704724112
 22
0.0
 32
0.0
 13
0.1531931612
 23
-0.0747843455
 33
0.0
 40
0.0
 40
0.0
 40
0.0
 40
0.0
 40
0.7477288822
 40
1.0
 40
1.0
 40
1.0
 40
1.0
 10
-2.163653692
 20
-0.170163366
 30
0.0
 10
-2.1211646435
 20
-0.170163366
 30
0.0
 10
-2.063711097
 20
-0.180254922
 30
0.0
 10
-2.0112939387
 20
-0.2023100166
 30
0.0
 10
-1.9984118687
 20
-0.20859866
 30
0.0
 11
-2.163653692
 21
-0.170163366
 31
0.0
 11
-2.0380611283
 21
-0.191943658
 31
0.0
 11
-1.9984118687
 21
-0.20859866
 31
0.0
  0
SPLINE
  5
688
100
AcDbEntity
  8
0
100
AcDbSpline
 62
7
  6
CONTINUOUS
 70
0
 71
3
 72
9
 73
5
 74
3
 42
0.0000001
 43
0.0000001
 44
0.0000000001
 12
0.1780639752
 22
0.1106684685
 32
0.0
 13
0.2096527825
 23
0.0
 33
0.0
 40
0.0
 40
0.0
 40
0.0
 40
0.0
 40
0.2533566941
 40
1.0
 40
1.0
 40
1.0
 40
1.0
 10
-2.363653692
 20
-0.2278253968
 30
0.0
 10
-2.3486157919
 20
-0.2184791977
 30
0.0
 10
-2.2868242375
 20
-0.1856651206
 30
0.0
 10
-2.2158323075
 20
-0.170163366
 30
0.0
 10
-2.163653692
 20
-0.170163366
 30
0.0
 11
-2.363653692
 21
-0.2278253968
 31
0.0
 11
-2.3167146155
 21
-0.2029631368
 31
0.0
 11
-2.163653692
 21
-0.170163366
 31
0.0
  0
ELLIPSE
  5
689
100
AcDbEntity
  8
0
100
AcDbEllipse
 62
7
  6
CONTINUOUS
 10
-11.763653692
 20
0.7978879923
 30
0.0
 11
1.7974937299
 21
-1.7974937299
 31
0.0
 40
0.8847252646
 41
6.5389251374
 42
6.6703845203
  0
ELLIPSE
  5
68A
100
AcDbEntity
  8
DRAFT
100
AcDbEllipse
 62
7
  6
CONTINUOUS
 10
-0.463653692
 20
-19.4210643476
 30
0.0
 11
15.0
 21
-0.0
 31
0.0
 40
0.0087268678
 41
1.4073150204
 42
1.7342776332
  0
ELLIPSE
  5
68B
100
AcDbEntity
  8
DRAFT
100
AcDbEllipse
 62
7
  6
CONTINUOUS
 10
-0.463653692
 20
20.9437187261
 30
0.0
 11
15.0
 21
-0.0
 31
0.0
 40
0.0087268678
 41
-1.7342776332
 42
-1.4073150204
  0
ELLIPSE
  5
68C
100
AcDbEntity
  8
RACCORDO
100
AcDbEllipse
 62
7
  6
CONTINUOUS
 10
-8.2390573443
 20
-20.4386728107
 30
0.0
 11
0.3000456984
 21
0.0
 31
0.0
 40
0.9998476952
 41
1.5707963268
 42
1.5882496193
  0
ELLIPSE
  5
68D
100
AcDbEntity
  8
RACCORDO
100
AcDbEllipse
 62
7
  6
CONTINUOUS
 10
10.336346308
 20
-21.2799326155
 30
0.0
 11
-0.0
 21
-0.3500133274
 31
0.0
 40
0.9999619231
 41
6.2831853072
 42
7.853981634
  0
ELLIPSE
  5
68E
100
AcDbEntity
  8
RACCORDO
100
AcDbEllipse
 62
7
  6
CONTINUOUS
 10
10.336346308
 20
22.802586994
 30
0.0
 11
-0.0
 21
-0.3500133274
 31
0.0
 40
0.9999619231
 41
7.853981634
 42
9.4247779608
  0
ELLIPSE
  5
68F
100
AcDbEntity
  8
RACCORDO
100
AcDbEllipse
 62
7
  6
CONTINUOUS
 10
-11.263653692
 20
22.802586994
 30
0.0
 11
0.0
 21
0.3500133274
 31
0.0
 40
0.9999619231
 41
-0.0
 42
1.5707963268
  0
ELLIPSE
  5
690
100
AcDbEntity
  8
RACCORDO
100
AcDbEllipse
 62
7
  6
CONTINUOUS
 10
10.1319829357
 20
24.9069595861
 30
0.0
 11
-0.0
 21
0.25
 31
0.0
 40
0.0058178298
 41
0.0058177642
 42
1.5707963268
  0
ELLIPSE
  5
691
100
AcDbEntity
  8
RACCORDO
100
AcDbEllipse
 62
7
  6
CONTINUOUS
 10
7.8407096804
 20
24.9069595861
 30
0.0
 11
-0.0
 21
0.25
 31
0.0
 40
0.0058178298
 41
-1.5707963268
 42
-0.0058177642
  0
ELLIPSE
  5
692
100
AcDbEntity
  8
RACCORDO
100
AcDbEllipse
 62
7
  6
CONTINUOUS
 10
7.8407096804
 20
24.6056647566
 30
0.0
 11
0.0
 21
0.25
 31
0.0
 40
0.0058178298
 41
-2.617993878
 42
-1.5707963268
  0
ELLIPSE
  5
693
100
AcDbEntity
  8
RACCORDO
100
AcDbEllipse
 62
7
  6
CONTINUOUS
 10
10.1319829357
 20
24.6056647566
 30
0.0
 11
-0.0
 21
0.25
 31
0.0
 40
0.0058178298
 41
-4.7123889804
 42
-3.6651914292
  0
ELLIPSE
  5
694
100
AcDbEntity
  8
RACCORDO
100
AcDbEllipse
 62
7
  6
CONTINUOUS
 10
-8.7680170643
 20
24.9069595861
 30
0.0
 11
-0.0
 21
0.25
 31
0.0
 40
0.0058178298
 41
0.0058177642
 42
1.5707963268
  0
ELLIPSE
  5
695
100
AcDbEntity
  8
RACCORDO
100
AcDbEllipse
 62
7
  6
CONTINUOUS
 10
-11.0592903196
 20
24.9069595861
 30
0.0
 11
0.0
 21
0.25
 31
0.0
 40
0.0058178298
 41
-1.5707963268
 42
-0.0058177642
  0
ELLIPSE
  5
696
100
AcDbEntity
  8
RACCORDO
100
AcDbEllipse
 62
7
  6
CONTINUOUS
 10
-11.0592903196
 20
24.6056647566
 30
0.0
 11
0.0
 21
0.25
 31
0.0
 40
0.0058178298
 41
-2.617993878
 42
-1.5707963268
  0
ELLIPSE
  5
697
100
AcDbEntity
  8
RACCORDO
100
AcDbEllipse
 62
7
  6
CONTINUOUS
 10
-8.7680170643
 20
24.6056647566
 30
0.0
 11
-0.0
 21
0.25
 31
0.0
 40
0.0058178298
 41
-4.7123889804
 42
-3.6651914292
  0
ELLIPSE
  5
698
100
AcDbEntity
  8
RACCORDO
100
AcDbEllipse
 62
7
  6
CONTINUOUS
 10
-11.0592903196
 20
-23.3843052075
 30
0.0
 11
-0.0
 21
0.25
 31
0.0
 40
0.0058178298
 41
-3.1357748894
 42
-1.5707963268
  0
ELLIPSE
  5
699
100
AcDbEntity
  8
RACCORDO
100
AcDbEllipse
 62
7
  6
CONTINUOUS
 10
-8.7680170643
 20
-23.3843052075
 30
0.0
 11
0.0
 21
0.25
 31
0.0
 40
0.0058178298
 41
1.5707963268
 42
3.1357748894
  0
ELLIPSE
  5
69A
100
AcDbEntity
  8
RACCORDO
100
AcDbEllipse
 62
7
  6
CONTINUOUS
 10
-8.7680170643
 20
-23.083010378
 30
0.0
 11
-0.0
 21
0.25
 31
0.0
 40
0.0058178298
 41
0.5235987756
 42
1.5707963268
  0
ELLIPSE
  5
69B
100
AcDbEntity
  8
RACCORDO
100
AcDbEllipse
 62
7
  6
CONTINUOUS
 10
-11.0592903196
 20
-23.083010378
 30
0.0
 11
0.0
 21
0.25
 31
0.0
 40
0.0058178298
 41
-1.5707963268
 42
-0.5235987756
  0
ELLIPSE
  5
69C
100
AcDbEntity
  8
RACCORDO
100
AcDbEllipse
 62
7
  6
CONTINUOUS
 10
7.8407096804
 20
-23.3843052075
 30
0.0
 11
-0.0
 21
0.25
 31
0.0
 40
0.0058178298
 41
-3.1357748894
 42
-1.5707963268
  0
ELLIPSE
  5
69D
100
AcDbEntity
  8
RACCORDO
100
AcDbEllipse
 62
7
  6
CONTINUOUS
 10
10.1319829357
 20
-23.3843052075
 30
0.0
 11
-0.0
 21
0.25
 31
0.0
 40
0.0058178298
 41
1.5707963268
 42
3.1357748894
  0
ELLIPSE
  5
69E
100
AcDbEntity
  8
RACCORDO
100
AcDbEllipse
 62
7
  6
CONTINUOUS
 10
10.1319829357
 20
-23.083010378
 30
0.0
 11
-0.0
 21
0.25
 31
0.0
 40
0.0058178298
 41
0.5235987756
 42
1.5707963268
  0
ELLIPSE
  5
69F
100
AcDbEntity
  8
RACCORDO
100
AcDbEllipse
 62
7
  6
CONTINUOUS
 10
7.8407096804
 20
-23.083010378
 30
0.0
 11
0.0
 21
0.25
 31
0.0
 40
0.0058178298
 41
-1.5707963268
 42
-0.5235987756
  0
ELLIPSE
  5
6A0
100
AcDbEntity
  8
RACCORDO
100
AcDbEllipse
 62
7
  6
CONTINUOUS
 10
7.8378007655
 20
23.7396393528
 30
0.0
 11
-0.0
 21
0.25
 31
0.0
 40
0.0058178298
 41
0.5235987756
 42
1.5707884454
  0
ELLIPSE
  5
6A1
100
AcDbEntity
  8
RACCORDO
100
AcDbEllipse
 62
7
  6
CONTINUOUS
 10
10.1348918506
 20
23.7396393528
 30
0.0
 11
0.0
 21
0.25
 31
0.0
 40
0.0058178298
 41
-1.5707884454
 42
-0.5235987756
  0
ELLIPSE
  5
6A2
100
AcDbEntity
  8
RACCORDO
100
AcDbEllipse
 62
7
  6
CONTINUOUS
 10
-11.0621992345
 20
23.7396393528
 30
0.0
 11
-0.0
 21
0.25
 31
0.0
 40
0.0058178298
 41
0.5235987756
 42
1.5707884454
  0
ELLIPSE
  5
6A3
100
AcDbEntity
  8
RACCORDO
100
AcDbEllipse
 62
7
  6
CONTINUOUS
 10
-8.7651081494
 20
23.7396393528
 30
0.0
 11
-0.0
 21
0.25
 31
0.0
 40
0.0058178298
 41
-1.5707884454
 42
-0.5235987756
  0
ELLIPSE
  5
6A4
100
AcDbEntity
  8
RACCORDO
100
AcDbEllipse
 62
7
  6
CONTINUOUS
 10
-11.0621992345
 20
-22.2169849742
 30
0.0
 11
0.0
 21
0.25
 31
0.0
 40
0.0058178298
 41
-4.712381099
 42
-3.6651914292
  0
ELLIPSE
  5
6A5
100
AcDbEntity
  8
RACCORDO
100
AcDbEllipse
 62
7
  6
CONTINUOUS
 10
-8.7651081494
 20
-22.2169849742
 30
0.0
 11
-0.0
 21
0.25
 31
0.0
 40
0.0058178298
 41
-2.617993878
 42
-1.5708042081
  0
ELLIPSE
  5
6A6
100
AcDbEntity
  8
DRAFT
100
AcDbEllipse
 62
7
  6
CONTINUOUS
 10
8.4139392397
 20
-10.0596726019
 30
0.0
 11
0.0
 21
0.656620454
 31
0.0
 40
0.9999977033
 41
-1.5729395409
 42
-1.4871948644
  0
ELLIPSE
  5
6A7
100
AcDbEntity
  8
RACCORDO
100
AcDbEllipse
 62
7
  6
CONTINUOUS
 10
7.8378007655
 20
-22.2169849742
 30
0.0
 11
0.0
 21
0.25
 31
0.0
 40
0.0058178298
 41
-4.712381099
 42
-3.6651914292
  0
ELLIPSE
  5
6A8
100
AcDbEntity
  8
RACCORDO
100
AcDbEllipse
 62
7
  6
CONTINUOUS
 10
10.1348918506
 20
-22.2169849742
 30
0.0
 11
0.0
 21
0.25
 31
0.0
 40
0.0058178298
 41
-2.617993878
 42
-1.5708042081
  0
ELLIPSE
  5
6A9
100
AcDbEntity
  8
RACCORDO
100
AcDbEllipse
 62
7
  6
CONTINUOUS
 10
-7.5981279146
 20
22.852588898
 30
0.0
 11
0.2121481893
 21
0.2121481893
 31
0.0
 40
0.9999238505
 41
0.7853600871
 42
1.5707963268
  0
ELLIPSE
  5
6AA
100
AcDbEntity
  8
RACCORDO
100
AcDbEllipse
 62
7
  6
CONTINUOUS
 10
-8.4136079936
 20
21.9613271893
 30
0.0
 11
0.3000456984
 21
0.0
 31
0.0
 40
0.9998476952
 41
3.1415926536
 42
4.7123889804
  0
ELLIPSE
  5
6AB
100
AcDbEntity
  8
DRAFT
100
AcDbEllipse
 62
7
  6
CONTINUOUS
 10
-9.313653692
 20
11.6098609011
 30
0.0
 11
-0.0
 21
0.6841543747
 31
0.0
 40
0.9999977033
 41
1.5686531127
 42
1.6958937066
  0
ELLIPSE
  5
6AC
100
AcDbEntity
  8
RACCORDO
100
AcDbEllipse
 62
7
  6
CONTINUOUS
 10
-8.2390573443
 20
21.9613271893
 30
0.0
 11
-0.3000456984
 21
0.0
 31
0.0
 40
0.9998476952
 41
1.5533430343
 42
1.5707963268
  0
ELLIPSE
  5
6AD
100
AcDbEntity
  8
RACCORDO
100
AcDbEllipse
 62
7
  6
CONTINUOUS
 10
-8.4136079936
 20
22.037108819
 30
0.0
 11
0.2121966568
 21
0.2121966568
 31
0.0
 40
0.9996954599
 41
1.5707963268
 42
2.3563467834
  0
ELLIPSE
  5
6AE
100
AcDbEntity
  8
RACCORDO
100
AcDbEllipse
 62
7
  6
CONTINUOUS
 10
6.6708205306
 20
22.852588898
 30
0.0
 11
0.2121481894
 21
-0.2121481893
 31
0.0
 40
0.9999238505
 41
1.5707963267
 42
2.3562325664
  0
ELLIPSE
  5
6AF
100
AcDbEntity
  8
RACCORDO
100
AcDbEllipse
 62
7
  6
CONTINUOUS
 10
7.4863006096
 20
21.9613271893
 30
0.0
 11
0.3000456984
 21
0.0
 31
0.0
 40
0.9998476952
 41
-1.5707963268
 42
-0.0
  0
ELLIPSE
  5
6B0
100
AcDbEntity
  8
RACCORDO
100
AcDbEllipse
 62
7
  6
CONTINUOUS
 10
7.3117499603
 20
21.9613271893
 30
0.0
 11
0.3000456984
 21
-0.0
 31
0.0
 40
0.9998476952
 41
-1.5707963268
 42
-1.5533430343
  0
ELLIPSE
  5
6B1
100
AcDbEntity
  8
RACCORDO
100
AcDbEllipse
 62
7
  6
CONTINUOUS
 10
7.4863006096
 20
22.037108819
 30
0.0
 11
-0.2121966567
 21
0.2121966568
 31
0.0
 40
0.9996954599
 41
-2.3563467834
 42
-1.5707963268
  0
ELLIPSE
  5
6B2
100
AcDbEntity
  8
RACCORDO
100
AcDbEllipse
 62
7
  6
CONTINUOUS
 10
-7.5981279146
 20
-21.3299345194
 30
0.0
 11
0.2121481893
 21
-0.2121481893
 31
0.0
 40
0.9999238505
 41
-1.5707963268
 42
-0.7853600872
  0
ELLIPSE
  5
6B3
100
AcDbEntity
  8
RACCORDO
100
AcDbEllipse
 62
7
  6
CONTINUOUS
 10
-11.263653692
 20
-21.2799326155
 30
0.0
 11
0.0
 21
0.3500133274
 31
0.0
 40
0.9999619231
 41
1.5707963268
 42
3.1415926536
  0
ELLIPSE
  5
6B4
100
AcDbEntity
  8
RACCORDO
100
AcDbEllipse
 62
7
  6
CONTINUOUS
 10
-8.4136079936
 20
-20.4386728107
 30
0.0
 11
0.3000456984
 21
0.0
 31
0.0
 40
0.9998476952
 41
1.5707963268
 42
3.1415926536
  0
ELLIPSE
  5
6B5
100
AcDbEntity
  8
RACCORDO
100
AcDbEllipse
 62
7
  6
CONTINUOUS
 10
-8.4136079936
 20
-20.5144544404
 30
0.0
 11
0.2121966568
 21
-0.2121966568
 31
0.0
 40
0.9996954599
 41
-2.3563467834
 42
-1.5707963268
  0
ELLIPSE
  5
6B6
100
AcDbEntity
  8
RACCORDO
100
AcDbEllipse
 62
7
  6
CONTINUOUS
 10
3.5915439415
 20
-21.5714759287
 30
0.0
 11
0.3
 21
0.0
 31
0.0
 40
0.0087268678
 41
0.0058177642
 42
1.5707963268
  0
ELLIPSE
  5
6B7
100
AcDbEntity
  8
RACCORDO
100
AcDbEllipse
 62
7
  6
CONTINUOUS
 10
3.5915439415
 20
-22.9938755212
 30
0.0
 11
0.3
 21
-0.0
 31
0.0
 40
0.0058178298
 41
0.0058177642
 42
1.5707963268
  0
ELLIPSE
  5
6B8
100
AcDbEntity
  8
RACCORDO
100
AcDbEllipse
 62
7
  6
CONTINUOUS
 10
-4.263653692
 20
-21.5714759287
 30
0.0
 11
0.3
 21
-0.0
 31
0.0
 40
0.0087268678
 41
-0.0
 42
1.5707963268
  0
ELLIPSE
  5
6B9
100
AcDbEntity
  8
RACCORDO
100
AcDbEllipse
 62
7
  6
CONTINUOUS
 10
-4.263653692
 20
-22.9938755212
 30
0.0
 11
0.3
 21
0.0
 31
0.0
 40
0.0058178298
 41
0.0
 42
1.5707963268
  0
ELLIPSE
  5
6BA
100
AcDbEntity
  8
RACCORDO
100
AcDbEllipse
 62
7
  6
CONTINUOUS
 10
-4.5188513254
 20
-22.9938755212
 30
0.0
 11
0.3
 21
0.0
 31
0.0
 40
0.0058178298
 41
1.5707963268
 42
3.1357748894
  0
ELLIPSE
  5
6BB
100
AcDbEntity
  8
RACCORDO
100
AcDbEllipse
 62
7
  6
CONTINUOUS
 10
-4.5188513254
 20
-21.5714759287
 30
0.0
 11
0.3
 21
-0.0
 31
0.0
 40
0.0087268678
 41
1.5707963268
 42
3.1357748894
  0
ELLIPSE
  5
6BC
100
AcDbEntity
  8
RACCORDO
100
AcDbEllipse
 62
7
  6
CONTINUOUS
 10
3.336346308
 20
-22.9938755212
 30
0.0
 11
0.3
 21
-0.0
 31
0.0
 40
0.0058178298
 41
1.5707963268
 42
3.1415926536
  0
ELLIPSE
  5
6BD
100
AcDbEntity
  8
RACCORDO
100
AcDbEllipse
 62
7
  6
CONTINUOUS
 10
3.336346308
 20
-21.5714759287
 30
0.0
 11
0.3
 21
-0.0
 31
0.0
 40
0.0087268678
 41
1.5707963268
 42
3.1415926536
  0
ELLIPSE
  5
6BE
100
AcDbEntity
  8
RACCORDO
100
AcDbEllipse
 62
7
  6
CONTINUOUS
 10
3.5915439415
 20
24.5165298997
 30
0.0
 11
0.3
 21
-0.0
 31
0.0
 40
0.0058178298
 41
-1.5707963268
 42
-0.0058177642
  0
ELLIPSE
  5
6BF
100
AcDbEntity
  8
RACCORDO
100
AcDbEllipse
 62
7
  6
CONTINUOUS
 10
3.5915439415
 20
23.0941303073
 30
0.0
 11
0.3
 21
0.0
 31
0.0
 40
0.0087268678
 41
-1.5707963268
 42
-0.0058177642
  0
ELLIPSE
  5
6C0
100
AcDbEntity
  8
RACCORDO
100
AcDbEllipse
 62
7
  6
CONTINUOUS
 10
3.336346308
 20
23.0941303073
 30
0.0
 11
0.3
 21
-0.0
 31
0.0
 40
0.0087268678
 41
3.1415926536
 42
4.7123889804
  0
ELLIPSE
  5
6C1
100
AcDbEntity
  8
RACCORDO
100
AcDbEllipse
 62
7
  6
CONTINUOUS
 10
3.336346308
 20
24.5165298997
 30
0.0
 11
0.3
 21
0.0
 31
0.0
 40
0.0058178298
 41
3.1415926536
 42
4.7123889804
  0
ELLIPSE
  5
6C2
100
AcDbEntity
  8
RACCORDO
100
AcDbEllipse
 62
7
  6
CONTINUOUS
 10
-4.263653692
 20
24.5165298997
 30
0.0
 11
0.3
 21
-0.0
 31
0.0
 40
0.0058178298
 41
-1.5707963268
 42
-0.0
  0
ELLIPSE
  5
6C3
100
AcDbEntity
  8
RACCORDO
100
AcDbEllipse
 62
7
  6
CONTINUOUS
 10
-4.263653692
 20
23.0941303073
 30
0.0
 11
0.3
 21
0.0
 31
0.0
 40
0.0087268678
 41
-1.5707963268
 42
-0.0
  0
ELLIPSE
  5
6C4
100
AcDbEntity
  8
RACCORDO
100
AcDbEllipse
 62
7
  6
CONTINUOUS
 10
-4.5188513254
 20
23.0941303073
 30
0.0
 11
0.3
 21
0.0
 31
0.0
 40
0.0087268678
 41
-3.1357748894
 42
-1.5707963268
  0
ELLIPSE
  5
6C5
100
AcDbEntity
  8
RACCORDO
100
AcDbEllipse
 62
7
  6
CONTINUOUS
 10
-4.5188513254
 20
24.5165298997
 30
0.0
 11
0.3
 21
-0.0
 31
0.0
 40
0.0058178298
 41
-3.1357748894
 42
-1.5707963268
  0
ELLIPSE
  5
6C6
100
AcDbEntity
  8
RACCORDO
100
AcDbEllipse
 62
7
  6
CONTINUOUS
 10
6.6708205306
 20
-21.3299345194
 30
0.0
 11
0.2121481893
 21
0.2121481893
 31
0.0
 40
0.9999238505
 41
-2.3562325664
 42
-1.5707963268
  0
ELLIPSE
  5
6C7
100
AcDbEntity
  8
RACCORDO
100
AcDbEllipse
 62
7
  6
CONTINUOUS
 10
6.5363348845
 20
-19.2386728107
 30
0.0
 11
0.3000114235
 21
0.0
 31
0.0
 40
0.9999619231
 41
-0.0
 42
1.5707963268
  0
ELLIPSE
  5
6C8
100
AcDbEntity
  8
RACCORDO
100
AcDbEllipse
 62
7
  6
CONTINUOUS
 10
5.886346308
 20
-19.3233234283
 30
0.0
 11
0.3
 21
-0.0
 31
0.0
 40
0.0087268678
 41
-3.1415926536
 42
-1.5707963268
  0
ELLIPSE
  5
6C9
100
AcDbEntity
  8
RACCORDO
100
AcDbEllipse
 62
7
  6
CONTINUOUS
 10
7.4863006096
 20
-20.5144544404
 30
0.0
 11
0.2121966568
 21
0.2121966568
 31
0.0
 40
0.9996954599
 41
-1.5707963268
 42
-0.7852458701
  0
ELLIPSE
  5
6CA
100
AcDbEntity
  8
RACCORDO
100
AcDbEllipse
 62
7
  6
CONTINUOUS
 10
-6.813653692
 20
-19.3233234283
 30
0.0
 11
0.3
 21
-0.0
 31
0.0
 40
0.0087268678
 41
-1.5707963268
 42
0.0
  0
ELLIPSE
  5
6CB
100
AcDbEntity
  8
RACCORDO
100
AcDbEllipse
 62
7
  6
CONTINUOUS
 10
7.4863006096
 20
-20.4386728107
 30
0.0
 11
0.3000456984
 21
0.0
 31
0.0
 40
0.9998476952
 41
-0.0
 42
1.5707963268
  0
ELLIPSE
  5
6CC
100
AcDbEntity
  8
RACCORDO
100
AcDbEllipse
 62
7
  6
CONTINUOUS
 10
-7.4636422685
 20
-19.2386728107
 30
0.0
 11
0.3000114235
 21
-0.0
 31
0.0
 40
0.9999619231
 41
1.5707963268
 42
3.1415926536
  0
ELLIPSE
  5
6CD
100
AcDbEntity
  8
RACCORDO
100
AcDbEllipse
 62
7
  6
CONTINUOUS
 10
7.3117499603
 20
-20.4386728107
 30
0.0
 11
0.3000456984
 21
-0.0
 31
0.0
 40
0.9998476952
 41
1.5533430343
 42
1.5707963268
  0
ELLIPSE
  5
6CE
100
AcDbEntity
  8
RACCORDO
100
AcDbEllipse
 62
7
  6
CONTINUOUS
 10
5.886346308
 20
20.8459778068
 30
0.0
 11
0.3
 21
-0.0
 31
0.0
 40
0.0087268678
 41
1.5707963268
 42
3.1415926536
  0
ELLIPSE
  5
6CF
100
AcDbEntity
  8
RACCORDO
100
AcDbEllipse
 62
7
  6
CONTINUOUS
 10
6.5363348845
 20
20.7613271893
 30
0.0
 11
0.3000114235
 21
-0.0
 31
0.0
 40
0.9999619231
 41
-1.5707963268
 42
0.0
  0
ELLIPSE
  5
6D0
100
AcDbEntity
  8
RACCORDO
100
AcDbEllipse
 62
7
  6
CONTINUOUS
 10
-7.4636422685
 20
20.7613271893
 30
0.0
 11
0.3000114235
 21
-0.0
 31
0.0
 40
0.9999619231
 41
-3.1415926536
 42
-1.5707963268
  0
ELLIPSE
  5
6D1
100
AcDbEntity
  8
RACCORDO
100
AcDbEllipse
 62
7
  6
CONTINUOUS
 10
-6.813653692
 20
20.8459778068
 30
0.0
 11
0.3
 21
-0.0
 31
0.0
 40
0.0087268678
 41
-0.0
 42
1.5707963268
  0
ELLIPSE
  5
6D2
100
AcDbEntity
  8
DRAFT
100
AcDbEllipse
 62
7
  6
CONTINUOUS
 10
-5.713653692
 20
18.8325622681
 30
0.0
 11
2.75839524
 21
-0.0
 31
0.0
 40
0.0058178298
 41
3.1415926536
 42
6.2831853072
  0
ELLIPSE
  5
6D3
100
AcDbEntity
  8
DRAFT
100
AcDbEllipse
 62
7
  6
CONTINUOUS
 10
-5.713653692
 20
-7.2099078895
 30
0.0
 11
2.75839524
 21
-0.0
 31
0.0
 40
0.0058178298
 41
0.0
 42
3.1415926536
  0
ELLIPSE
  5
6D4
100
AcDbEntity
  8
DRAFT
100
AcDbEllipse
 62
7
  6
CONTINUOUS
 10
4.786346308
 20
-17.3099078895
 30
0.0
 11
2.75839524
 21
0.0
 31
0.0
 40
0.0058178298
 41
0.0
 42
3.1415926536
  0
ELLIPSE
  5
6D5
100
AcDbEntity
  8
RACCORDO
100
AcDbEllipse
 62
7
  6
CONTINUOUS
 10
8.6860416519
 20
-16.9101194933
 30
0.0
 11
1.8480888181
 21
-0.7655034529
 31
0.0
 40
0.9998215708
 41
-0.3926359958
 42
0.3926359958
  0
ELLIPSE
  5
6D6
100
AcDbEntity
  8
RACCORDO
100
AcDbEllipse
 62
7
  6
CONTINUOUS
 10
8.6860416519
 20
18.4327738718
 30
0.0
 11
1.8480888181
 21
0.7655034529
 31
0.0
 40
0.9998215708
 41
-0.3926359958
 42
0.3926359958
  0
ELLIPSE
  5
6D7
100
AcDbEntity
  8
RACCORDO
100
AcDbEllipse
 62
7
  6
CONTINUOUS
 10
-9.6133490359
 20
18.4327738718
 30
0.0
 11
1.8480888181
 21
-0.7655034529
 31
0.0
 40
0.9998215708
 41
2.7489566578
 42
3.5342286494
  0
ELLIPSE
  5
6D8
100
AcDbEntity
  8
RACCORDO
100
AcDbEllipse
 62
7
  6
CONTINUOUS
 10
-9.6133490359
 20
-16.9101194933
 30
0.0
 11
1.8480888181
 21
0.7655034529
 31
0.0
 40
0.9998215708
 41
2.7489566578
 42
3.5342286494
  0
ELLIPSE
  5
6D9
100
AcDbEntity
  8
DRAFT
100
AcDbEllipse
 62
7
  6
CONTINUOUS
 10
-5.713653692
 20
18.8514707811
 30
0.0
 11
2.75
 21
-0.0
 31
0.0
 40
0.0087268678
 41
0.0087266463
 42
3.1328660073
  0
ELLIPSE
  5
6DA
100
AcDbEntity
  8
DRAFT
100
AcDbEllipse
 62
7
  6
CONTINUOUS
 10
-5.713653692
 20
-7.2288164026
 30
0.0
 11
2.75
 21
0.0
 31
0.0
 40
0.0087268678
 41
-3.1328660073
 42
-0.0087266463
  0
ELLIPSE
  5
6DB
100
AcDbEntity
  8
DRAFT
100
AcDbEllipse
 62
7
  6
CONTINUOUS
 10
4.786346308
 20
-17.3288164026
 30
0.0
 11
2.75
 21
0.0
 31
0.0
 40
0.0087268678
 41
-3.1328660073
 42
-0.0087266463
  0
ELLIPSE
  5
6DC
100
AcDbEntity
  8
RACCORDO
100
AcDbEllipse
 62
7
  6
CONTINUOUS
 10
8.1863558276
 20
14.5113367089
 30
0.0
 11
0.1767901578
 21
0.1767901578
 31
0.0
 40
0.9999238505
 41
2.3562325664
 42
3.9269527408
  0
ELLIPSE
  5
6DD
100
AcDbEntity
  8
RACCORDO
100
AcDbEllipse
 62
7
  6
CONTINUOUS
 10
9.2195771133
 20
14.7757886536
 30
0.0
 11
0.0
 21
0.4
 31
0.0
 40
0.0174550649
 41
-1.5707963268
 42
-0.0087266463
  0
ELLIPSE
  5
6DE
100
AcDbEntity
  8
RACCORDO
100
AcDbEllipse
 62
7
  6
CONTINUOUS
 10
9.2195771133
 20
14.746865725
 30
0.0
 11
0.0
 21
0.4
 31
0.0
 40
0.0174550649
 41
-3.1328660073
 42
-1.5707963268
  0
ELLIPSE
  5
6DF
100
AcDbEntity
  8
RACCORDO
100
AcDbEllipse
 62
7
  6
CONTINUOUS
 10
1.936346308
 20
-19.1407297147
 30
0.0
 11
1.0
 21
0.0
 31
0.0
 40
0.0176699529
 41
0.1166713885
 42
1.5707963268
  0
ELLIPSE
  5
6E0
100
AcDbEntity
  8
RACCORDO
100
AcDbEllipse
 62
7
  6
CONTINUOUS
 10
-2.863653692
 20
-19.1407297147
 30
0.0
 11
1.0
 21
-0.0
 31
0.0
 40
0.0176699529
 41
1.5707963268
 42
3.0249212651
  0
ELLIPSE
  5
6E1
100
AcDbEntity
  8
RACCORDO
100
AcDbEllipse
 62
7
  6
CONTINUOUS
 10
1.936346308
 20
20.6633840933
 30
0.0
 11
1.0
 21
-0.0
 31
0.0
 40
0.0176699529
 41
-1.5707963268
 42
-0.1166713885
  0
ELLIPSE
  5
6E2
100
AcDbEntity
  8
RACCORDO
100
AcDbEllipse
 62
7
  6
CONTINUOUS
 10
-2.863653692
 20
20.6633840933
 30
0.0
 11
1.0
 21
-0.0
 31
0.0
 40
0.0176699529
 41
-3.0249212651
 42
-1.5707963268
  0
ELLIPSE
  5
6E3
100
AcDbEntity
  8
RACCORDO
100
AcDbEllipse
 62
7
  6
CONTINUOUS
 10
0.0863367884
 20
15.0113176697
 30
0.0
 11
0.1767901578
 21
0.1767901578
 31
0.0
 40
0.9999238505
 41
-0.7853600871
 42
0.7853600872
  0
ELLIPSE
  5
6E4
100
AcDbEntity
  8
RACCORDO
100
AcDbEllipse
 62
7
  6
CONTINUOUS
 10
3.7209969256
 20
9.8454502888
 30
0.0
 11
0.0
 21
0.5
 31
0.0
 40
0.0087268678
 41
-1.5707963268
 42
-0.0057595865
  0
ELLIPSE
  5
6E5
100
AcDbEntity
  8
RACCORDO
100
AcDbEllipse
 62
7
  6
CONTINUOUS
 10
0.0863367884
 20
14.5113367089
 30
0.0
 11
-0.1767901578
 21
0.1767901578
 31
0.0
 40
0.9999238505
 41
-3.9269527408
 42
-2.3562325664
  0
ELLIPSE
  5
6E6
100
AcDbEntity
  8
RACCORDO
100
AcDbEllipse
 62
7
  6
CONTINUOUS
 10
3.8863558276
 20
10.7113176697
 30
0.0
 11
0.1767901578
 21
-0.1767901578
 31
0.0
 40
0.9999238505
 41
2.3562325664
 42
3.9269527407
  0
ELLIPSE
  5
6E7
100
AcDbEntity
  8
RACCORDO
100
AcDbEllipse
 62
7
  6
CONTINUOUS
 10
4.5516956905
 20
9.8454502888
 30
0.0
 11
-0.0
 21
0.5
 31
0.0
 40
0.0087268678
 41
0.0057595865
 42
1.5707963268
  0
ELLIPSE
  5
6E8
100
AcDbEntity
  8
0
100
AcDbEllipse
 62
7
  6
CONTINUOUS
 10
-5.713653692
 20
20.2681568873
 30
0.0
 11
3.3022581827
 21
-0.0
 31
0.0
 40
0.0174559514
 41
-0.0013512702
 42
3.1429439238
  0
ELLIPSE
  5
6E9
100
AcDbEntity
  8
0
100
AcDbEllipse
 62
7
  6
CONTINUOUS
 10
4.786346308
 20
-18.7455025088
 30
0.0
 11
3.3022581827
 21
-0.0
 31
0.0
 40
0.0174559514
 41
3.1402413834
 42
6.2845365774
  0
ELLIPSE
  5
6EA
100
AcDbEntity
  8
RACCORDO
100
AcDbEllipse
 62
7
  6
CONTINUOUS
 10
-2.9199146375
 20
-7.6059755476
 30
0.0
 11
-0.0
 21
1.0
 31
0.0
 40
0.0087268678
 41
-1.65358814
 42
-1.5707963268
  0
ELLIPSE
  5
6EB
100
AcDbEntity
  8
RACCORDO
100
AcDbEllipse
 62
7
  6
CONTINUOUS
 10
-2.9620526021
 20
-7.6059755476
 30
0.0
 11
-0.5095724847
 21
0.9999937684
 31
0.0
 40
0.0069280009
 41
-3.127669687
 42
-1.657118466
  0
ELLIPSE
  5
6EC
100
AcDbEntity
  8
RACCORDO
100
AcDbEllipse
 62
7
  6
CONTINUOUS
 10
-5.713653692
 20
-8.6939096293
 30
0.0
 11
3.26206472
 21
-0.0
 31
0.0
 40
0.0174557553
 41
3.1414253763
 42
4.4870398034
  0
ELLIPSE
  5
6ED
100
AcDbEntity
  8
RACCORDO
100
AcDbEllipse
 62
7
  6
CONTINUOUS
 10
-5.713653692
 20
-8.6939096293
 30
0.0
 11
3.26206472
 21
0.0
 31
0.0
 40
0.0174557553
 41
-1.3454471498
 42
0.0001672773
  0
ELLIPSE
  5
6EE
100
AcDbEntity
  8
RACCORDO
100
AcDbEllipse
 62
7
  6
CONTINUOUS
 10
8.8412151614
 20
19.1736403686
 30
0.0
 11
1.414225291
 21
-0.0000234575
 31
0.0
 40
0.0040726202
 41
1.5247596454
 42
1.5748690596
  0
ELLIPSE
  5
6EF
100
AcDbEntity
  8
RACCORDO
100
AcDbEllipse
 62
7
  6
CONTINUOUS
 10
8.548441313
 20
10.9013354826
 30
0.0
 11
-0.4748987463
 21
0.1567024058
 31
0.0
 40
0.9998311164
 41
1.8895672219
 42
3.4602630306
  0
ELLIPSE
  5
6F0
100
AcDbEntity
  8
RACCORDO
100
AcDbEllipse
 62
7
  6
CONTINUOUS
 10
0.3063546013
 20
10.9013354826
 30
0.0
 11
0.353565119
 21
0.353565119
 31
0.0
 40
0.9999668281
 41
2.3562110764
 42
3.9269742308
  0
ELLIPSE
  5
6F1
100
AcDbEntity
  8
RACCORDO
100
AcDbEllipse
 62
7
  6
CONTINUOUS
 10
-8.4652547818
 20
-7.6059755476
 30
0.0
 11
0.5095724847
 21
0.9999937684
 31
0.0
 40
0.0069280009
 41
-4.6260668412
 42
-3.1555156201
  0
ELLIPSE
  5
6F2
100
AcDbEntity
  8
RACCORDO
100
AcDbEllipse
 62
7
  6
CONTINUOUS
 10
-8.5073927465
 20
-7.6059755476
 30
0.0
 11
0.0
 21
1.0
 31
0.0
 40
0.0087268678
 41
1.5707963268
 42
1.65358814
  0
ELLIPSE
  5
6F3
100
AcDbEntity
  8
RACCORDO
100
AcDbEllipse
 62
7
  6
CONTINUOUS
 10
8.548441313
 20
18.5613188959
 30
0.0
 11
0.4748987463
 21
0.1567024058
 31
0.0
 40
0.9998311164
 41
-0.318670377
 42
1.2520254317
  0
ELLIPSE
  5
6F4
100
AcDbEntity
  8
RACCORDO
100
AcDbEllipse
 62
7
  6
CONTINUOUS
 10
0.1882817718
 20
18.6793917254
 30
0.0
 11
-0.353565119
 21
0.3535651191
 31
0.0
 40
0.9999668281
 41
-0.785381577
 42
0.7853815773
  0
ELLIPSE
  5
6F5
100
AcDbEntity
  8
RACCORDO
100
AcDbEllipse
 62
7
  6
CONTINUOUS
 10
0.3063546013
 20
18.5613188959
 30
0.0
 11
-0.353565119
 21
0.353565119
 31
0.0
 40
0.9999668281
 41
-0.7853815772
 42
0.7853815772
  0
ELLIPSE
  5
6F6
100
AcDbEntity
  8
RACCORDO
100
AcDbEllipse
 62
7
  6
CONTINUOUS
 10
0.2476061691
 20
-3.9588094779
 30
0.0
 11
0.1567024058
 21
0.4748987463
 31
0.0
 40
0.9998311164
 41
1.8895672219
 42
3.4602630306
  0
ELLIPSE
  5
6F7
100
AcDbEntity
  8
RACCORDO
100
AcDbEllipse
 62
7
  6
CONTINUOUS
 10
0.1882817718
 20
-4.1385966467
 30
0.0
 11
0.1567024058
 21
0.4748987463
 31
0.0
 40
0.9998311164
 41
-4.3936180852
 42
-2.8229222765
  0
ELLIPSE
  5
6F8
100
AcDbEntity
  8
RACCORDO
100
AcDbEllipse
 62
7
  6
CONTINUOUS
 10
8.7264829752
 20
-3.9588094779
 30
0.0
 11
-0.3536610946
 21
0.3536610946
 31
0.0
 40
0.9996954599
 41
2.3563467834
 42
3.9268385237
  0
ELLIPSE
  5
6F9
100
AcDbEntity
  8
RACCORDO
100
AcDbEllipse
 62
7
  6
CONTINUOUS
 10
8.906270144
 20
-4.1385966467
 30
0.0
 11
0.3536610946
 21
-0.3536610946
 31
0.0
 40
0.9996954599
 41
-0.7852458701
 42
0.1875048594
  0
ELLIPSE
  5
6FA
100
AcDbEntity
  8
RACCORDO
100
AcDbEllipse
 62
7
  6
CONTINUOUS
 10
0.0313575213
 20
14.9563384026
 30
0.0
 11
0.1767901578
 21
0.1767901578
 31
0.0
 40
0.9999238505
 41
0.6247131845
 42
0.6651961376
  0
ELLIPSE
  5
6FB
100
AcDbEntity
  8
RACCORDO
100
AcDbEllipse
 62
7
  6
CONTINUOUS
 10
0.0313575213
 20
14.5663159759
 30
0.0
 11
0.1767901578
 21
-0.1767901578
 31
0.0
 40
0.9999238505
 41
-0.6651961376
 42
-0.6247131845
  0
ELLIPSE
  5
6FC
100
AcDbEntity
  8
RACCORDO
100
AcDbEllipse
 62
7
  6
CONTINUOUS
 10
3.9413350947
 20
10.6563384026
 30
0.0
 11
-0.1767901578
 21
0.1767901578
 31
0.0
 40
0.9999238505
 41
0.6247131845
 42
0.6626518687
  0
ELLIPSE
  5
6FD
100
AcDbEntity
  8
RACCORDO
100
AcDbEllipse
 62
7
  6
CONTINUOUS
 10
4.3313575213
 20
10.6563384026
 30
0.0
 11
0.1767901578
 21
0.1767901578
 31
0.0
 40
0.9999238505
 41
-0.6626518687
 42
-0.6247131845
  0
ELLIPSE
  5
6FE
100
AcDbEntity
  8
RACCORDO
100
AcDbEllipse
 62
7
  6
CONTINUOUS
 10
4.3313575213
 20
18.8663159759
 30
0.0
 11
0.1767901578
 21
-0.1767901578
 31
0.0
 40
0.9999238505
 41
0.6247131845
 42
0.6651961376
  0
ELLIPSE
  5
6FF
100
AcDbEntity
  8
RACCORDO
100
AcDbEllipse
 62
7
  6
CONTINUOUS
 10
3.9413350947
 20
18.8663159759
 30
0.0
 11
-0.1767901578
 21
-0.1767901578
 31
0.0
 40
0.9999238505
 41
-0.6651961376
 42
-0.6247131845
  0
ELLIPSE
  5
700
100
AcDbEntity
  8
RACCORDO
100
AcDbEllipse
 62
7
  6
CONTINUOUS
 10
8.2415969738
 20
14.9560765235
 30
0.0
 11
0.232996159
 21
-0.0977033526
 31
0.0
 40
0.9877345005
 41
1.9635525228
 42
3.5342726972
  0
ELLIPSE
  5
701
100
AcDbEntity
  8
RACCORDO
100
AcDbEllipse
 62
7
  6
CONTINUOUS
 10
8.2415969738
 20
14.5665778551
 30
0.0
 11
0.232996159
 21
0.0977033526
 31
0.0
 40
0.9877345005
 41
2.74891261
 42
4.3196327844
  0
ELLIPSE
  5
702
100
AcDbEntity
  8
RACCORDO
100
AcDbEllipse
 62
7
  6
CONTINUOUS
 10
0.0310083769
 20
14.9559892581
 30
0.0
 11
0.232996159
 21
0.0977033526
 31
0.0
 40
0.9877345005
 41
-0.3926800436
 42
1.0173932281
  0
ELLIPSE
  5
703
100
AcDbEntity
  8
RACCORDO
100
AcDbEllipse
 62
7
  6
CONTINUOUS
 10
0.0310083769
 20
14.5666651204
 30
0.0
 11
0.232996159
 21
-0.0977033526
 31
0.0
 40
0.9877345005
 41
-1.0173932281
 42
0.3926800436
  0
ELLIPSE
  5
704
100
AcDbEntity
  8
RACCORDO
100
AcDbEllipse
 62
7
  6
CONTINUOUS
 10
3.9416842392
 20
10.6559892581
 30
0.0
 11
-0.0977033526
 21
0.232996159
 31
0.0
 40
0.9877345005
 41
-0.3926800436
 42
1.0173932281
  0
ELLIPSE
  5
705
100
AcDbEntity
  8
RACCORDO
100
AcDbEllipse
 62
7
  6
CONTINUOUS
 10
4.3310083769
 20
10.6559892581
 30
0.0
 11
0.0977033526
 21
0.232996159
 31
0.0
 40
0.9877345005
 41
-1.0173932281
 42
0.3926800436
  0
ELLIPSE
  5
706
100
AcDbEntity
  8
RACCORDO
100
AcDbEllipse
 62
7
  6
CONTINUOUS
 10
4.3310083769
 20
18.8666651204
 30
0.0
 11
-0.0977033526
 21
0.232996159
 31
0.0
 40
0.9877345005
 41
-3.5342726972
 42
-2.1241994255
  0
ELLIPSE
  5
707
100
AcDbEntity
  8
RACCORDO
100
AcDbEllipse
 62
7
  6
CONTINUOUS
 10
4.3863367884
 20
10.7113176697
 30
0.0
 11
0.1767901578
 21
0.1767901578
 31
0.0
 40
0.9999238505
 41
-0.7853600872
 42
0.7853600872
  0
ELLIPSE
  5
708
100
AcDbEntity
  8
RACCORDO
100
AcDbEllipse
 62
7
  6
CONTINUOUS
 10
3.9416842392
 20
18.8666651204
 30
0.0
 11
0.0977033526
 21
0.232996159
 31
0.0
 40
0.9877345005
 41
-4.1589858817
 42
-2.74891261
  0
ELLIPSE
  5
709
100
AcDbEntity
  8
0
100
AcDbEllipse
 62
7
  6
CONTINUOUS
 10
-2.9956536792
 20
19.1801483159
 30
0.0
 11
0.5774011102
 21
0.9999928594
 31
0.0
 40
0.0065449328
 41
-1.4354592308
 42
-0.0136742321
  0
ELLIPSE
  5
70A
100
AcDbEntity
  8
0
100
AcDbEllipse
 62
7
  6
CONTINUOUS
 10
-8.4316537047
 20
19.1801483159
 30
0.0
 11
-0.5774011102
 21
0.9999928594
 31
0.0
 40
0.0065449328
 41
0.0136742321
 42
1.4354592308
  0
ELLIPSE
  5
70B
100
AcDbEntity
  8
0
100
AcDbEllipse
 62
7
  6
CONTINUOUS
 10
2.0683462953
 20
-17.6574939373
 30
0.0
 11
0.5774011102
 21
0.9999928594
 31
0.0
 40
0.0065449328
 41
-4.5770518843
 42
-3.1552668857
  0
ELLIPSE
  5
70C
100
AcDbEntity
  8
0
100
AcDbEllipse
 62
7
  6
CONTINUOUS
 10
7.5043463208
 20
-17.6574939373
 30
0.0
 11
-0.5774011102
 21
0.9999928594
 31
0.0
 40
0.0065449328
 41
-3.1279184215
 42
-1.7061334228
  0
ELLIPSE
  5
70D
100
AcDbEntity
  8
RACCORDO
100
AcDbEllipse
 62
7
  6
CONTINUOUS
 10
4.3863367884
 20
18.8113367089
 30
0.0
 11
0.1767901578
 21
-0.1767901578
 31
0.0
 40
0.9999238505
 41
-0.7853600871
 42
0.7853600873
  0
ELLIPSE
  5
70E
100
AcDbEntity
  8
0
100
AcDbEllipse
 62
7
  6
CONTINUOUS
 10
-8.5073927465
 20
19.1801483159
 30
0.0
 11
0.0
 21
1.0
 31
0.0
 40
0.0087268678
 41
1.4392382912
 42
1.5707963268
  0
ELLIPSE
  5
70F
100
AcDbEntity
  8
0
100
AcDbEllipse
 62
7
  6
CONTINUOUS
 10
-2.9199146375
 20
19.1801483159
 30
0.0
 11
0.0
 21
1.0
 31
0.0
 40
0.0087268678
 41
-1.5707963268
 42
-1.4392382912
  0
ELLIPSE
  5
710
100
AcDbEntity
  8
0
100
AcDbEllipse
 62
7
  6
CONTINUOUS
 10
7.5800853625
 20
-17.6574939373
 30
0.0
 11
-0.0
 21
1.0
 31
0.0
 40
0.0087268678
 41
-1.7023543624
 42
-1.5707963268
  0
ELLIPSE
  5
711
100
AcDbEntity
  8
0
100
AcDbEllipse
 62
7
  6
CONTINUOUS
 10
1.9926072535
 20
-17.6574939373
 30
0.0
 11
0.0
 21
1.0
 31
0.0
 40
0.0087268678
 41
1.5707963268
 42
1.7023543624
  0
ELLIPSE
  5
712
100
AcDbEntity
  8
RACCORDO
100
AcDbEllipse
 62
7
  6
CONTINUOUS
 10
3.8863558276
 20
18.8113367089
 30
0.0
 11
0.1767901578
 21
0.1767901578
 31
0.0
 40
0.9999238505
 41
-3.9269527408
 42
-2.3562325664
  0
ELLIPSE
  5
713
100
AcDbEntity
  8
RACCORDO
100
AcDbEllipse
 62
7
  6
CONTINUOUS
 10
8.1863558276
 20
15.0113176697
 30
0.0
 11
-0.1767901578
 21
0.1767901578
 31
0.0
 40
0.9999238505
 41
-0.7853600872
 42
0.7853600872
  0
ELLIPSE
  5
714
100
AcDbEntity
  8
RACCORDO
100
AcDbEllipse
 62
7
  6
CONTINUOUS
 10
-0.1907769427
 20
15.1742330487
 30
0.0
 11
0.22
 21
-0.0
 31
0.0
 40
0.0087268678
 41
-1.5707963268
 42
-0.536800778
  0
ELLIPSE
  5
715
100
AcDbEntity
  8
RACCORDO
100
AcDbEllipse
 62
7
  6
CONTINUOUS
 10
-0.1907769427
 20
14.3484213298
 30
0.0
 11
0.22
 21
0.0
 31
0.0
 40
0.0087268678
 41
0.536800778
 42
1.5707963268
  0
ELLIPSE
  5
716
100
AcDbEntity
  8
RACCORDO
100
AcDbEllipse
 62
7
  6
CONTINUOUS
 10
3.7234404486
 20
19.08845044
 30
0.0
 11
0.0
 21
0.22
 31
0.0
 40
0.0087268678
 41
-2.6047918756
 42
-1.5707963268
  0
ELLIPSE
  5
717
100
AcDbEntity
  8
RACCORDO
100
AcDbEllipse
 62
7
  6
CONTINUOUS
 10
4.5492521675
 20
19.08845044
 30
0.0
 11
0.0
 21
0.22
 31
0.0
 40
0.0087268678
 41
1.5707963268
 42
2.6047918756
  0
ELLIPSE
  5
718
100
AcDbEntity
  8
RACCORDO
100
AcDbEllipse
 62
7
  6
CONTINUOUS
 10
3.7209969256
 20
10.1572682006
 30
0.0
 11
0.0
 21
0.5
 31
0.0
 40
0.0087268678
 41
-1.5707963268
 42
-0.3603929629
  0
ELLIPSE
  5
719
100
AcDbEntity
  8
RACCORDO
100
AcDbEllipse
 62
7
  6
CONTINUOUS
 10
4.5516956905
 20
10.1572682006
 30
0.0
 11
0.0
 21
0.5
 31
0.0
 40
0.0087268678
 41
0.3603929629
 42
1.5707963268
  0
ENDSEC
  0
SECTION
  2
OBJECTS
  0
DICTIONARY
  5
C
100
AcDbDictionary
280
0
281
1
  3
ACAD_GROUP
350
D
  3
ACAD_MLINESTYLE
350
17
  3
ACAD_LAYOUT
350
1A
  3
ACAD_PLOTSETTINGS
350
19
  3
ACAD_PLOTSTYLENAME
350
E
  0
DICTIONARY
  5
D
102
{ACAD_REACTORS
330
C
102
}
100
AcDbDictionary
280
0
281
1
  0
ACDBDICTIONARYWDFLT
  5
E
102
{ACAD_REACTORS
330
C
102
}
100
AcDbDictionary
281
1
  3
Normal
350
F
100
AcDbDictionaryWithDefault
340
F
  0
DICTIONARY
  5
17
102
{ACAD_REACTORS
330
C
102
}
100
AcDbDictionary
280
0
281
1
  3
Standard
350
18
  0
DICTIONARY
  5
19
102
{ACAD_REACTORS
330
C
102
}
100
AcDbDictionary
281
1
  0
DICTIONARY
  5
1A
102
{ACAD_REACTORS
330
C
102
}
100
AcDbDictionary
281
1
  3
Model
350
71A
  3
Layout1
350
71B
  0
ACDBPLACEHOLDER
  5
F
102
{ACAD_REACTORS
330
E
102
}
  0
MLINESTYLE
  5
18
102
{ACAD_REACTORS
330
17
102
}
100
AcDbMlineStyle
  2
STANDARD
 70
0
  3

 62
256
 51
90.0
 52
90.0
 71
2
 49
0.5
 62
256
  6
BYLAYER
 49
-0.5
 62
256
  6
BYLAYER
  0
LAYOUT
  5
71A
102
{ACAD_REACTORS
330
1A
102
}
100
AcDbPlotSettings
  1

  2
none_device
  4
ISO_A4_(297.00_x_210.00_MM)
  6

 40
0.0
 41
0.0
 42
0.0
 43
0.0
 44
297.0
 45
210.0
 46
0.0
 47
0.0
 48
0.0
 49
0.0
140
0.0
141
0.0
142
1.0
143
1.0
 70
1024
 72
1
 73
0
 74
0
  7

 75
0
147
1.0
148
0.0
149
0.0
100
AcDbLayout
  1
Model
 70
0
 71
0
 10
0.0
 20
0.0
 11
297.0
 21
210.0
 12
0.0
 22
0.0
 32
0.0
 14
0.0
 24
0.0
 34
0.0
 15
0.0
 25
0.0
 35
0.0
146
0.0
 13
0.0
 23
0.0
 33
0.0
 16
1.0
 26
0.0
 36
0.0
 17
0.0
 27
1.0
 37
0.0
 76
0
330
219
345
0
346
0
  0
LAYOUT
  5
71B
102
{ACAD_REACTORS
330
1A
102
}
100
AcDbPlotSettings
  1

  2
none_device
  4
ISO_A4_(297.00_x_210.00_MM)
  6

 40
0.0
 41
0.0
 42
0.0
 43
0.0
 44
297.0
 45
210.0
 46
0.0
 47
0.0
 48
0.0
 49
0.0
140
0.0
141
0.0
142
1.0
143
1.0
 70
0
 72
1
 73
0
 74
0
  7

 75
0
147
1.0
148
0.0
149
0.0
100
AcDbLayout
  1
Layout1
 70
0
 71
1
 10
0.0
 20
0.0
 11
297.0
 21
210.0
 12
0.0
 22
0.0
 32
0.0
 14
0.0
 24
0.0
 34
0.0
 15
0.0
 25
0.0
 35
0.0
146
0.0
 13
0.0
 23
0.0
 33
0.0
 16
1.0
 26
0.0
 36
0.0
 17
0.0
 27
1.0
 37
0.0
 76
0
330
21A
345
0
346
0
  0
ENDSEC
  0
EOF
