  0
SECTION
  2
HEADER
  9
$ACADVER
  1
AC1015
  9
$DWGCODEPAGE
  3
ANSI_1252
  9
$EXTMAX
 10
297.0
 20
210.0
 30
0.0
  9
$EXTMIN
 10
0.0
 20
0.0
 30
0.0
  9
$LIMMIN
 10
0.0
 20
0.0
  9
$LIMMAX
 10
297.0
 20
210.0
  9
$VIEWCTR
 10
148.5
 20
105.0
  9
$VIEWSIZE
 40
210.0
  9
$CLAYER
  8
0
  9
$LTSCALE
 40
16.335
  9
$CELTYPE
  6
BYLAYER
  9
$DIMSCALE
 40
1.0
  9
$DIMASZ
 40
3.0
  9
$DIMEXO
 40
1.85625
  9
$DIMDLI
 40
11.286
  9
$DIMEXE
 40
5.346
  9
$DIMCEN
 40
2.673
  9
$DIMLFAC
 40
1.0
  9
$DIMBLK
  1
_FILLED
  9
$DIMTXT
 40
3.0
  9
$DIMTOL
 70
1
  9
$DIMLIM
 70
0
  9
$DIMTFAC
 40
1.0
  9
$DIMTP
 40
0.01
  9
$DIMTM
 40
0.01
  9
$PDMODE
 70
3
  9
$PDSIZE
 40
3.0
  9
$HANDSEED
  5
3B9
  9
$TILEMODE
 70
1
  9
$MEASUREMENT
 70
1
  9
$INSUNITS
 70
4
  0
ENDSEC
  0
SECTION
  2
CLASSES
  0
CLASS
  1
ACDBDICTIONARYWDFLT
  2
AcDbDictionaryWithDefault
  3
AutoCAD 2000
 90
0
280
0
281
0
  0
CLASS
  1
ACDBPLACEHOLDER
  2
AcDbPlaceHolder
  3
AutoCAD 2000
 90
0
280
0
281
0
  0
CLASS
  1
LAYOUT
  2
AcDbLayout
  3
AutoCAD 2000
 90
0
280
0
281
0
  0
ENDSEC
  0
SECTION
  2
TABLES
  0
TABLE
  2
VPORT
  5
8
100
AcDbSymbolTable
 70
2
  0
VPORT
  5
1F4
100
AcDbSymbolTableRecord
100
AcDbViewportTableRecord
  2
*ACTIVE
 70
0
 10
0.0
 20
0.0
 11
1.0
 21
1.0
 12
148.5
 22
105.0
 13
0.0
 23
0.0
 14
1.0
 24
1.0
 15
0.0
 25
0.0
 16
0.0
 26
0.0
 36
1.0
 17
0.0
 27
0.0
 37
0.0
 40
210.0
 41
1.4142857143
 42
50.0
 43
0.0
 44
0.0
 50
0.0
 51
0.0
 71
0
 72
100
 73
1
 74
1
 75
0
 76
0
 77
0
 78
0
  0
ENDTAB
  0
TABLE
  2
LTYPE
  5
5
100
AcDbSymbolTable
 70
6
  0
LTYPE
  5
14
100
AcDbSymbolTableRecord
100
AcDbLinetypeTableRecord
  2
BYBLOCK
 70
0
  3

 72
65
 73
0
 40
0.0
  0
LTYPE
  5
15
100
AcDbSymbolTableRecord
100
AcDbLinetypeTableRecord
  2
BYLAYER
 70
0
  3

 72
65
 73
0
 40
0.0
  0
LTYPE
  5
16
100
AcDbSymbolTableRecord
100
AcDbLinetypeTableRecord
  2
CONTINUOUS
 70
64
  3
Solid line
 72
65
 73
0
 40
0.0
  0
LTYPE
  5
1F5
100
AcDbSymbolTableRecord
100
AcDbLinetypeTableRecord
  2
CENTER
 70
64
  3
____ _ ____ _ ____ _ ____ _ ____ _ ____ _ ____
 72
65
 73
4
 40
0.6
 49
0.375
 74
0
 49
-0.075
 74
0
 49
0.075
 74
0
 49
-0.075
 74
0
  0
LTYPE
  5
1F6
100
AcDbSymbolTableRecord
100
AcDbLinetypeTableRecord
  2
HIDDEN
 70
64
  3
- - - - - - - - - - - - - - - - - - - -
 72
65
 73
2
 40
0.2
 49
0.1
 74
0
 49
-0.1
 74
0
  0
LTYPE
  5
1F7
100
AcDbSymbolTableRecord
100
AcDbLinetypeTableRecord
  2
PHANTOM
 70
64
  3
_____ _ _ _____ _ _ _____ _ _ _____
 72
65
 73
6
 40
0.8
 49
0.45
 74
0
 49
-0.05
 74
0
 49
0.1
 74
0
 49
-0.05
 74
0
 49
0.1
 74
0
 49
-0.05
 74
0
  0
LTYPE
  5
1F8
100
AcDbSymbolTableRecord
100
AcDbLinetypeTableRecord
  2
DOT
 70
64
  3
. . . . . . . . . . . . . . . . . . . .
 72
65
 73
2
 40
0.2
 49
0.1
 74
0
 49
-0.1
 74
0
  0
LTYPE
  5
1F9
100
AcDbSymbolTableRecord
100
AcDbLinetypeTableRecord
  2
DASHED
 70
64
  3
- - - - - - - - - - - - - - - - - - - -
 72
65
 73
2
 40
0.2
 49
0.1
 74
0
 49
-0.1
 74
0
  0
ENDTAB
  0
TABLE
  2
LAYER
  5
2
100
AcDbSymbolTable
 70
36
  0
LAYER
  5
10
100
AcDbSymbolTableRecord
100
AcDbLayerTableRecord
  2
0
 70
0
 62
7
  6
CONTINUOUS
370
-3
390
F
  0
LAYER
  5
1FA
100
AcDbSymbolTableRecord
100
AcDbLayerTableRecord
  2
DEFAULT_1
 70
0
 62
7
  6
CENTER
370
-3
390
F
  0
LAYER
  5
1FB
100
AcDbSymbolTableRecord
100
AcDbLayerTableRecord
  2
DEFAULT_2
 70
0
 62
7
  6
HIDDEN
370
-3
390
F
  0
LAYER
  5
1FC
100
AcDbSymbolTableRecord
100
AcDbLayerTableRecord
  2
DEFAULT_3
 70
0
 62
7
  6
PHANTOM
370
-3
390
F
  0
LAYER
  5
1FD
100
AcDbSymbolTableRecord
100
AcDbLayerTableRecord
  2
ASSI
 70
0
 62
7
  6
CONTINUOUS
370
-3
390
F
  0
LAYER
  5
1FE
100
AcDbSymbolTableRecord
100
AcDbLayerTableRecord
  2
COLOR5
 70
0
 62
7
  6
CONTINUOUS
370
-3
390
F
  0
LAYER
  5
1FF
100
AcDbSymbolTableRecord
100
AcDbLayerTableRecord
  2
COORDINATE
 70
0
 62
7
  6
CONTINUOUS
370
-3
390
F
  0
LAYER
  5
200
100
AcDbSymbolTableRecord
100
AcDbLayerTableRecord
  2
COORD_ORIGINE
 70
0
 62
7
  6
CONTINUOUS
370
-3
390
F
  0
LAYER
  5
201
100
AcDbSymbolTableRecord
100
AcDbLayerTableRecord
  2
COPY_PUBLISH
 70
0
 62
7
  6
CONTINUOUS
370
-3
390
F
  0
LAYER
  5
202
100
AcDbSymbolTableRecord
100
AcDbLayerTableRecord
  2
COSMETIC
 70
0
 62
7
  6
CONTINUOUS
370
-3
390
F
  0
LAYER
  5
203
100
AcDbSymbolTableRecord
100
AcDbLayerTableRecord
  2
CURVE
 70
0
 62
7
  6
CONTINUOUS
370
-3
390
F
  0
LAYER
  5
204
100
AcDbSymbolTableRecord
100
AcDbLayerTableRecord
  2
DRAFT
 70
0
 62
7
  6
CONTINUOUS
370
-3
390
F
  0
LAYER
  5
205
100
AcDbSymbolTableRecord
100
AcDbLayerTableRecord
  2
IMPORT_IGES
 70
0
 62
7
  6
CONTINUOUS
370
-3
390
F
  0
LAYER
  5
206
100
AcDbSymbolTableRecord
100
AcDbLayerTableRecord
  2
INTF_1
 70
0
 62
7
  6
CONTINUOUS
370
-3
390
F
  0
LAYER
  5
207
100
AcDbSymbolTableRecord
100
AcDbLayerTableRecord
  2
INTF_2
 70
0
 62
7
  6
CONTINUOUS
370
-3
390
F
  0
LAYER
  5
208
100
AcDbSymbolTableRecord
100
AcDbLayerTableRecord
  2
NOTE
 70
0
 62
7
  6
CONTINUOUS
370
-3
390
F
  0
LAYER
  5
209
100
AcDbSymbolTableRecord
100
AcDbLayerTableRecord
  2
PIANI
 70
0
 62
7
  6
CONTINUOUS
370
-3
390
F
  0
LAYER
  5
20A
100
AcDbSymbolTableRecord
100
AcDbLayerTableRecord
  2
PIANI_ORIGINE
 70
0
 62
7
  6
CONTINUOUS
370
-3
390
F
  0
LAYER
  5
20B
100
AcDbSymbolTableRecord
100
AcDbLayerTableRecord
  2
PUNTI
 70
0
 62
7
  6
CONTINUOUS
370
-3
390
F
  0
LAYER
  5
20C
100
AcDbSymbolTableRecord
100
AcDbLayerTableRecord
  2
PUNZONI
 70
0
 62
7
  6
CONTINUOUS
370
-3
390
F
  0
LAYER
  5
20D
100
AcDbSymbolTableRecord
100
AcDbLayerTableRecord
  2
RACCORDO
 70
0
 62
7
  6
CONTINUOUS
370
-3
390
F
  0
LAYER
  5
20E
100
AcDbSymbolTableRecord
100
AcDbLayerTableRecord
  2
RGB__0__0__0__
 70
0
 62
7
  6
CONTINUOUS
370
-3
390
F
  0
LAYER
  5
20F
100
AcDbSymbolTableRecord
100
AcDbLayerTableRecord
  2
RGB__255__255__255__
 70
0
 62
7
  6
CONTINUOUS
370
-3
390
F
  0
LAYER
  5
210
100
AcDbSymbolTableRecord
100
AcDbLayerTableRecord
  2
RGB____0____0____0__
 70
0
 62
7
  6
CONTINUOUS
370
-3
390
F
  0
LAYER
  5
211
100
AcDbSymbolTableRecord
100
AcDbLayerTableRecord
  2
SMUSSO
 70
0
 62
7
  6
CONTINUOUS
370
-3
390
F
  0
LAYER
  5
212
100
AcDbSymbolTableRecord
100
AcDbLayerTableRecord
  2
SNAPLINE
 70
0
 62
7
  6
CONTINUOUS
370
-3
390
F
  0
LAYER
  5
213
100
AcDbSymbolTableRecord
100
AcDbLayerTableRecord
  2
SUPERFICI
 70
0
 62
7
  6
CONTINUOUS
370
-3
390
F
  0
LAYER
  5
214
100
AcDbSymbolTableRecord
100
AcDbLayerTableRecord
  2
TRASH
 70
0
 62
7
  6
CONTINUOUS
370
-3
390
F
  0
LAYER
  5
215
100
AcDbSymbolTableRecord
100
AcDbLayerTableRecord
  2
XSEC_DATUMS
 70
0
 62
7
  6
CONTINUOUS
370
-3
390
F
  0
ENDTAB
  0
TABLE
  2
STYLE
  5
3
100
AcDbSymbolTable
 70
1
  0
STYLE
  5
11
100
AcDbSymbolTableRecord
100
AcDbTextStyleTableRecord
  2
STANDARD
 70
0
 40
0.0
 41
0.8
 50
0.0
 71
0
 42
0.2
  3
txt
  4

  0
STYLE
  5
216
100
AcDbSymbolTableRecord
100
AcDbTextStyleTableRecord
  2
TEXTSTYLE_1
 70
0
 40
0.0
 41
0.8
 50
0.0
 71
0
 42
0.2
  3
gdt
  4

  0
ENDTAB
  0
TABLE
  2
VIEW
  5
6
100
AcDbSymbolTable
 70
0
  0
ENDTAB
  0
TABLE
  2
UCS
  5
7
100
AcDbSymbolTable
 70
0
  0
ENDTAB
  0
TABLE
  2
APPID
  5
9
100
AcDbSymbolTable
 70
1
  0
APPID
  5
217
100
AcDbSymbolTableRecord
100
AcDbRegAppTableRecord
  2
ACAD
 70
0
  0
ENDTAB
  0
TABLE
  2
BLOCK_RECORD
  5
1
100
AcDbSymbolTable
 70
0
  0
BLOCK_RECORD
  5
218
100
AcDbSymbolTableRecord
100
AcDbBlockTableRecord
  2
*Model_Space
  0
BLOCK_RECORD
  5
219
100
AcDbSymbolTableRecord
100
AcDbBlockTableRecord
  2
*Paper_Space
  0
ENDTAB
  0
TABLE
  2
DIMSTYLE
  5
A
100
AcDbSymbolTable
 70
1
100
AcDbDimStyleTable
 71
0
  0
DIMSTYLE
105
21A
100
AcDbSymbolTableRecord
100
AcDbDimStyleTableRecord
  2
STANDARD
 70
0
  3

  4

 40
1.0
 41
3.0
 42
0.0625
 43
0.38
 44
0.18
 45
0.0
 46
0.0
 47
0.01
 48
0.01
140
3.0
141
0.09
142
0.0
143
25.4
144
1.0
145
0.0
146
1.0
147
0.09
 71
1.0
 72
0.0
 73
0
 74
0
 75
0
 76
0
 77
1
 78
8
170
0
171
2
172
0
173
0
174
0
175
0
176
0
177
0
178
0
270
2
271
2
272
2
273
2
274
2
275
0
280
0
281
0
282
0
283
1
284
8
285
0
286
0
287
3
288
0
340
11
  0
ENDTAB
  0
ENDSEC
  0
SECTION
  2
BLOCKS
  0
BLOCK
  5
20
100
AcDbEntity
  8
0
100
AcDbBlockBegin
  2
*Model_Space
 70
0
 10
0.0
 20
0.0
 30
0.0
  3
*Model_Space
  1

  0
ENDBLK
  5
21
100
AcDbEntity
  8
0
100
AcDbBlockEnd
  0
BLOCK
  5
1C
100
AcDbEntity
  8
0
100
AcDbBlockBegin
  2
*Paper_Space
 70
0
 10
0.0
 20
0.0
 30
0.0
  3
*Paper_Space
  1

  0
ENDBLK
  5
1D
100
AcDbEntity
  8
0
100
AcDbBlockEnd
  0
ENDSEC
  0
SECTION
  2
ENTITIES
  0
LINE
  5
21B
100
AcDbEntity
  8
0
100
AcDbLine
 62
7
  6
CONTINUOUS
 10
22.25
 20
-44.3998295816
 11
26.05
 21
-43.3998295816
  0
LINE
  5
21C
100
AcDbEntity
  8
RACCORDO
100
AcDbLine
 62
7
  6
CONTINUOUS
 10
-32.5000571154
 20
-46.4998295816
 11
32.5000571154
 21
-46.4998295816
  0
LINE
  5
21D
100
AcDbEntity
  8
DRAFT
100
AcDbLine
 62
7
  6
CONTINUOUS
 10
20.0
 20
-46.2031160767
 11
15.0
 21
-46.2031160767
  0
LINE
  5
21E
100
AcDbEntity
  8
RACCORDO
100
AcDbLine
 62
253
  6
CONTINUOUS
 10
-32.1596257422
 20
-46.1594055824
 11
15.0
 21
-46.1594055824
  0
LINE
  5
21F
100
AcDbEntity
  8
RACCORDO
100
AcDbLine
 62
253
  6
CONTINUOUS
 10
20.0
 20
-46.1594055824
 11
32.1596268489
 21
-46.1594055824
  0
LINE
  5
220
100
AcDbEntity
  8
0
100
AcDbLine
 62
7
  6
CONTINUOUS
 10
-26.05
 20
-43.3998295816
 11
-22.25
 21
-44.3998295816
  0
LINE
  5
221
100
AcDbEntity
  8
RACCORDO
100
AcDbLine
 62
7
  6
CONTINUOUS
 10
15.0
 20
-45.2498295816
 11
20.0
 21
-45.2498295816
  0
LINE
  5
222
100
AcDbEntity
  8
RACCORDO
100
AcDbLine
 62
253
  6
CONTINUOUS
 10
-32.1596331162
 20
-45.1594436594
 11
15.0
 21
-45.1594436594
  0
LINE
  5
223
100
AcDbEntity
  8
RACCORDO
100
AcDbLine
 62
253
  6
CONTINUOUS
 10
20.0
 20
-45.1594436594
 11
32.1596331162
 21
-45.1594436594
  0
LINE
  5
224
100
AcDbEntity
  8
0
100
AcDbLine
 62
7
  6
CONTINUOUS
 10
-26.75
 20
-44.9998295816
 11
-26.25
 21
-44.9998295816
  0
LINE
  5
225
100
AcDbEntity
  8
0
100
AcDbLine
 62
7
  6
CONTINUOUS
 10
26.25
 20
-44.9998295816
 11
26.75
 21
-44.9998295816
  0
LINE
  5
226
100
AcDbEntity
  8
RACCORDO
100
AcDbLine
 62
253
  6
CONTINUOUS
 10
32.6596140778
 20
-44.6594626978
 11
33.6595760008
 21
-44.6594626978
  0
LINE
  5
227
100
AcDbEntity
  8
RACCORDO
100
AcDbLine
 62
253
  6
CONTINUOUS
 10
-32.6596140778
 20
-44.6594626978
 11
-33.6595760008
 21
-44.6594626978
  0
LINE
  5
228
100
AcDbEntity
  8
RACCORDO
100
AcDbLine
 62
253
  6
CONTINUOUS
 10
15.0
 20
-44.2498295816
 11
20.0
 21
-44.2498295816
  0
LINE
  5
229
100
AcDbEntity
  8
0
100
AcDbLine
 62
7
  6
CONTINUOUS
 10
22.25
 20
-43.5498295816
 11
-22.25
 21
-43.5498295816
  0
LINE
  5
22A
100
AcDbEntity
  8
0
100
AcDbLine
 62
7
  6
CONTINUOUS
 10
22.25
 20
-43.3498295816
 11
-22.25
 21
-43.3498295816
  0
LINE
  5
22B
100
AcDbEntity
  8
0
100
AcDbLine
 62
7
  6
CONTINUOUS
 10
22.25
 20
-43.2498295816
 11
-22.25
 21
-43.2498295816
  0
LINE
  5
22C
100
AcDbEntity
  8
0
100
AcDbLine
 62
7
  6
CONTINUOUS
 10
22.25
 20
-43.0498295816
 11
-22.25
 21
-43.0498295816
  0
LINE
  5
22D
100
AcDbEntity
  8
0
100
AcDbLine
 62
7
  6
CONTINUOUS
 10
-25.0
 20
-41.2498295816
 11
-28.0
 21
-41.2498295816
  0
LINE
  5
22E
100
AcDbEntity
  8
SMUSSO
100
AcDbLine
 62
7
  6
CONTINUOUS
 10
-28.0
 20
-40.4998295816
 11
-25.0
 21
-40.4998295816
  0
LINE
  5
22F
100
AcDbEntity
  8
SMUSSO
100
AcDbLine
 62
7
  6
CONTINUOUS
 10
-28.0
 20
-40.1998295816
 11
-25.0
 21
-40.1998295816
  0
LINE
  5
230
100
AcDbEntity
  8
0
100
AcDbLine
 62
7
  6
CONTINUOUS
 10
1.1717239618
 20
-39.7681054803
 11
1.3020689487
 21
-39.7681054803
  0
LINE
  5
231
100
AcDbEntity
  8
0
100
AcDbLine
 62
7
  6
CONTINUOUS
 10
1.3289654255
 20
-39.4929330977
 11
1.1717239618
 21
-39.4929330977
  0
LINE
  5
232
100
AcDbEntity
  8
0
100
AcDbLine
 62
7
  6
CONTINUOUS
 10
-30.2360679775
 20
-39.2498295816
 11
-32.5
 21
-39.2498295816
  0
LINE
  5
233
100
AcDbEntity
  8
0
100
AcDbLine
 62
7
  6
CONTINUOUS
 10
-32.5
 20
-39.0498295816
 11
-30.2494443758
 21
-39.0498295816
  0
LINE
  5
234
100
AcDbEntity
  8
0
100
AcDbLine
 62
7
  6
CONTINUOUS
 10
-32.5
 20
-38.9498295816
 11
-30.2494443758
 21
-38.9498295816
  0
LINE
  5
235
100
AcDbEntity
  8
0
100
AcDbLine
 62
7
  6
CONTINUOUS
 10
-30.2360679775
 20
-38.7498295816
 11
-32.5
 21
-38.7498295816
  0
LINE
  5
236
100
AcDbEntity
  8
0
100
AcDbLine
 62
7
  6
CONTINUOUS
 10
-31.1
 20
-38.5498295816
 11
-30.9
 21
-38.5498295816
  0
LINE
  5
237
100
AcDbEntity
  8
0
100
AcDbLine
 62
7
  6
CONTINUOUS
 10
-1.286206916
 20
-38.4770709308
 11
-0.0944827199
 21
-38.4770709308
  0
LINE
  5
238
100
AcDbEntity
  8
0
100
AcDbLine
 62
7
  6
CONTINUOUS
 10
-0.0944827199
 20
-38.1998295816
 11
-1.5737930983
 21
-38.1998295816
  0
LINE
  5
239
100
AcDbEntity
  8
0
100
AcDbLine
 62
7
  6
CONTINUOUS
 10
-32.1
 20
-34.7499242203
 11
-31.1
 21
-38.5498295816
  0
LINE
  5
23A
100
AcDbEntity
  8
0
100
AcDbLine
 62
7
  6
CONTINUOUS
 10
-31.1
 20
28.5501704184
 11
-32.1
 21
24.7502650571
  0
LINE
  5
23B
100
AcDbEntity
  8
0
100
AcDbLine
 62
7
  6
CONTINUOUS
 10
-22.25
 20
-42.1998295816
 11
-26.05
 21
-43.1998295816
  0
LINE
  5
23C
100
AcDbEntity
  8
SMUSSO
100
AcDbLine
 62
7
  6
CONTINUOUS
 10
-25.0
 20
-37.7998295816
 11
-28.0
 21
-37.7998295816
  0
LINE
  5
23D
100
AcDbEntity
  8
SMUSSO
100
AcDbLine
 62
7
  6
CONTINUOUS
 10
-25.0
 20
-37.4998295816
 11
-28.0
 21
-37.4998295816
  0
LINE
  5
23E
100
AcDbEntity
  8
ASSI
100
AcDbLine
 62
7
  6
CONTINUOUS
 10
-25.0
 20
-36.7498295816
 11
-28.0
 21
-36.7498295816
  0
LINE
  5
23F
100
AcDbEntity
  8
0
100
AcDbLine
 62
7
  6
CONTINUOUS
 10
-29.9
 20
-34.7499242203
 11
-30.95
 21
-34.7499242203
  0
LINE
  5
240
100
AcDbEntity
  8
0
100
AcDbLine
 62
7
  6
CONTINUOUS
 10
-31.05
 20
-34.7499242203
 11
-32.1
 21
-34.7499242203
  0
LINE
  5
241
100
AcDbEntity
  8
0
100
AcDbLine
 62
7
  6
CONTINUOUS
 10
26.05
 20
-43.1998295816
 11
22.25
 21
-42.1998295816
  0
LINE
  5
242
100
AcDbEntity
  8
0
100
AcDbLine
 62
7
  6
CONTINUOUS
 10
0.6089655757
 20
-38.6239674719
 11
0.8717240691
 21
-38.7584502133
  0
LINE
  5
243
100
AcDbEntity
  8
RACCORDO
100
AcDbLine
 62
7
  6
CONTINUOUS
 10
-34.0
 20
-44.9998295816
 11
-34.0
 21
35.0001704184
  0
LINE
  5
244
100
AcDbEntity
  8
RACCORDO
100
AcDbLine
 62
253
  6
CONTINUOUS
 10
-33.6595760008
 20
34.6597961606
 11
-33.6595760008
 21
-44.6594564305
  0
LINE
  5
245
100
AcDbEntity
  8
RACCORDO
100
AcDbLine
 62
253
  6
CONTINUOUS
 10
-32.6596140778
 20
34.6598035346
 11
-32.6596140778
 21
-44.6594626978
  0
LINE
  5
246
100
AcDbEntity
  8
0
100
AcDbLine
 62
7
  6
CONTINUOUS
 10
-32.5
 20
29.2501704184
 11
-32.5
 21
28.7501704184
  0
LINE
  5
247
100
AcDbEntity
  8
0
100
AcDbLine
 62
7
  6
CONTINUOUS
 10
-32.5
 20
-38.7498295816
 11
-32.5
 21
-39.2498295816
  0
LINE
  5
248
100
AcDbEntity
  8
RACCORDO
100
AcDbLine
 62
253
  6
CONTINUOUS
 10
-32.1596331162
 20
-45.1594436594
 11
-32.1596331162
 21
-46.1594055824
  0
LINE
  5
249
100
AcDbEntity
  8
RACCORDO
100
AcDbLine
 62
253
  6
CONTINUOUS
 10
-32.1596331162
 20
35.1597844962
 11
-32.1596331162
 21
36.1597464192
  0
LINE
  5
24A
100
AcDbEntity
  8
0
100
AcDbLine
 62
7
  6
CONTINUOUS
 10
-31.25
 20
-34.7499242203
 11
-31.25
 21
24.7502650571
  0
LINE
  5
24B
100
AcDbEntity
  8
0
100
AcDbLine
 62
7
  6
CONTINUOUS
 10
-31.05
 20
-34.7499242203
 11
-31.05
 21
24.7502650571
  0
LINE
  5
24C
100
AcDbEntity
  8
0
100
AcDbLine
 62
7
  6
CONTINUOUS
 10
-30.95
 20
-34.7499242203
 11
-30.95
 21
24.7502650571
  0
LINE
  5
24D
100
AcDbEntity
  8
0
100
AcDbLine
 62
7
  6
CONTINUOUS
 10
-30.75
 20
-34.7499242203
 11
-30.75
 21
24.7502650571
  0
LINE
  5
24E
100
AcDbEntity
  8
SMUSSO
100
AcDbLine
 62
253
  6
CONTINUOUS
 10
-28.0
 20
-37.7998295816
 11
-28.0
 21
-37.4998295816
  0
LINE
  5
24F
100
AcDbEntity
  8
SMUSSO
100
AcDbLine
 62
253
  6
CONTINUOUS
 10
-28.0
 20
-40.1998295816
 11
-28.0
 21
-40.4998295816
  0
LINE
  5
250
100
AcDbEntity
  8
0
100
AcDbLine
 62
7
  6
CONTINUOUS
 10
-26.75
 20
-44.9998295816
 11
-26.75
 21
-41.2498295816
  0
LINE
  5
251
100
AcDbEntity
  8
0
100
AcDbLine
 62
7
  6
CONTINUOUS
 10
-26.55
 20
-44.9998295816
 11
-26.55
 21
-41.2498295816
  0
LINE
  5
252
100
AcDbEntity
  8
0
100
AcDbLine
 62
7
  6
CONTINUOUS
 10
-26.45
 20
-44.9998295816
 11
-26.45
 21
-41.2498295816
  0
LINE
  5
253
100
AcDbEntity
  8
0
100
AcDbLine
 62
7
  6
CONTINUOUS
 10
-26.25
 20
-44.9998295816
 11
-26.25
 21
-41.2498295816
  0
LINE
  5
254
100
AcDbEntity
  8
0
100
AcDbLine
 62
7
  6
CONTINUOUS
 10
-26.05
 20
-43.1998295816
 11
-26.05
 21
-43.3998295816
  0
LINE
  5
255
100
AcDbEntity
  8
0
100
AcDbLine
 62
7
  6
CONTINUOUS
 10
-26.0
 20
-3.0784503134
 11
-26.0
 21
-2.7287951323
  0
LINE
  5
256
100
AcDbEntity
  8
SMUSSO
100
AcDbLine
 62
253
  6
CONTINUOUS
 10
-25.0
 20
-37.7998295816
 11
-25.0
 21
-37.4998295816
  0
LINE
  5
257
100
AcDbEntity
  8
SMUSSO
100
AcDbLine
 62
253
  6
CONTINUOUS
 10
-25.0
 20
-40.1998295816
 11
-25.0
 21
-40.4998295816
  0
LINE
  5
258
100
AcDbEntity
  8
0
100
AcDbLine
 62
7
  6
CONTINUOUS
 10
-29.9
 20
24.7502650571
 11
-30.9
 21
28.5501704184
  0
LINE
  5
259
100
AcDbEntity
  8
0
100
AcDbLine
 62
7
  6
CONTINUOUS
 10
-22.25
 20
-42.1998295816
 11
-22.25
 21
-43.2498295816
  0
LINE
  5
25A
100
AcDbEntity
  8
0
100
AcDbLine
 62
7
  6
CONTINUOUS
 10
-22.25
 20
-43.3498295816
 11
-22.25
 21
-44.3998295816
  0
LINE
  5
25B
100
AcDbEntity
  8
RACCORDO
100
AcDbLine
 62
7
  6
CONTINUOUS
 10
-20.0
 20
34.2501704184
 11
-20.0
 21
36.2034569135
  0
LINE
  5
25C
100
AcDbEntity
  8
0
100
AcDbLine
 62
7
  6
CONTINUOUS
 10
-30.9
 20
-38.5498295816
 11
-29.9
 21
-34.7499242203
  0
LINE
  5
25D
100
AcDbEntity
  8
RACCORDO
100
AcDbLine
 62
7
  6
CONTINUOUS
 10
-15.0
 20
34.2501704184
 11
-15.0
 21
36.2034569135
  0
LINE
  5
25E
100
AcDbEntity
  8
0
100
AcDbLine
 62
7
  6
CONTINUOUS
 10
-26.0
 20
-2.7287951323
 11
-27.3179311156
 21
-1.9467261495
  0
LINE
  5
25F
100
AcDbEntity
  8
0
100
AcDbLine
 62
7
  6
CONTINUOUS
 10
-27.2910344601
 20
-2.2839674862
 11
-26.0
 21
-3.0784503134
  0
LINE
  5
260
100
AcDbEntity
  8
0
100
AcDbLine
 62
7
  6
CONTINUOUS
 10
-14.00348916
 20
37.7140508582
 11
-14.00348916
 21
36.2914973964
  0
LINE
  5
261
100
AcDbEntity
  8
0
100
AcDbLine
 62
7
  6
CONTINUOUS
 10
-11.85348916
 20
40.1180755263
 11
-11.85348916
 21
39.6913679348
  0
LINE
  5
262
100
AcDbEntity
  8
0
100
AcDbLine
 62
7
  6
CONTINUOUS
 10
-11.35348916
 20
39.661708806
 11
-11.35348916
 21
39.1913869733
  0
LINE
  5
263
100
AcDbEntity
  8
0
100
AcDbLine
 62
7
  6
CONTINUOUS
 10
-10.10348916
 20
41.9581978369
 11
-10.10348916
 21
41.4912993963
  0
LINE
  5
264
100
AcDbEntity
  8
0
100
AcDbLine
 62
7
  6
CONTINUOUS
 10
-9.45348916
 20
41.4602280079
 11
-9.45348916
 21
40.9913184348
  0
LINE
  5
265
100
AcDbEntity
  8
0
100
AcDbLine
 62
7
  6
CONTINUOUS
 10
-8.35348916
 20
43.7313353985
 11
-8.35348916
 21
43.2912308578
  0
LINE
  5
266
100
AcDbEntity
  8
0
100
AcDbLine
 62
7
  6
CONTINUOUS
 10
-7.85348916
 20
43.2664504505
 11
-7.85348916
 21
42.7912498963
  0
LINE
  5
267
100
AcDbEntity
  8
RACCORDO
100
AcDbLine
 62
253
  6
CONTINUOUS
 10
32.5000571154
 20
-46.4998295816
 11
32.1596268489
 21
-46.1594055824
  0
LINE
  5
268
100
AcDbEntity
  8
RACCORDO
100
AcDbLine
 62
253
  6
CONTINUOUS
 10
34.0
 20
-44.999886697
 11
33.6595760008
 21
-44.6594553238
  0
LINE
  5
269
100
AcDbEntity
  8
0
100
AcDbLine
 62
7
  6
CONTINUOUS
 10
-4.10348916
 20
45.430308783
 11
-4.10348916
 21
45.0911623193
  0
LINE
  5
26A
100
AcDbEntity
  8
0
100
AcDbLine
 62
7
  6
CONTINUOUS
 10
-3.60348916
 20
45.0740687282
 11
-3.60348916
 21
44.5911813578
  0
LINE
  5
26B
100
AcDbEntity
  8
0
100
AcDbLine
 62
7
  6
CONTINUOUS
 10
-11.4755174175
 20
-5.7498295816
 11
-10.8198921711
 21
-5.7498295816
  0
LINE
  5
26C
100
AcDbEntity
  8
0
100
AcDbLine
 62
7
  6
CONTINUOUS
 10
10.8198921711
 20
-5.7498295816
 11
11.4755174175
 21
-5.7498295816
  0
LINE
  5
26D
100
AcDbEntity
  8
0
100
AcDbLine
 62
7
  6
CONTINUOUS
 10
11.4755174175
 20
-4.2498295816
 11
10.8198921711
 21
-4.2498295816
  0
LINE
  5
26E
100
AcDbEntity
  8
0
100
AcDbLine
 62
7
  6
CONTINUOUS
 10
-10.8198921711
 20
-4.2498295816
 11
-11.4755174175
 21
-4.2498295816
  0
LINE
  5
26F
100
AcDbEntity
  8
0
100
AcDbLine
 62
7
  6
CONTINUOUS
 10
-0.75
 20
6.4756878359
 11
-0.75
 21
5.8200625895
  0
LINE
  5
270
100
AcDbEntity
  8
0
100
AcDbLine
 62
7
  6
CONTINUOUS
 10
-0.75
 20
-15.8197217527
 11
-0.75
 21
-16.4753469991
  0
LINE
  5
271
100
AcDbEntity
  8
0
100
AcDbLine
 62
7
  6
CONTINUOUS
 10
-0.0944827199
 20
-38.4770709308
 11
-0.0944827199
 21
-38.1998295816
  0
LINE
  5
272
100
AcDbEntity
  8
0
100
AcDbLine
 62
7
  6
CONTINUOUS
 10
-1.3006896377
 20
-39.3853468331
 11
-1.286206916
 21
-38.4770709308
  0
LINE
  5
273
100
AcDbEntity
  8
0
100
AcDbLine
 62
7
  6
CONTINUOUS
 10
-1.5737930983
 20
-38.1998295816
 11
-1.6027586311
 21
-39.7577606472
  0
LINE
  5
274
100
AcDbEntity
  8
RACCORDO
100
AcDbLine
 62
253
  6
CONTINUOUS
 10
32.5000571154
 20
36.5001704184
 11
32.1596257422
 21
36.1597464192
  0
LINE
  5
275
100
AcDbEntity
  8
RACCORDO
100
AcDbLine
 62
253
  6
CONTINUOUS
 10
34.0
 20
35.0002275338
 11
33.6595760008
 21
34.6597972673
  0
LINE
  5
276
100
AcDbEntity
  8
0
100
AcDbLine
 62
7
  6
CONTINUOUS
 10
0.75
 20
-16.4753469991
 11
0.75
 21
-15.8197217527
  0
LINE
  5
277
100
AcDbEntity
  8
0
100
AcDbLine
 62
7
  6
CONTINUOUS
 10
0.75
 20
5.8200625895
 11
0.75
 21
6.4756878359
  0
LINE
  5
278
100
AcDbEntity
  8
0
100
AcDbLine
 62
7
  6
CONTINUOUS
 10
1.1717239618
 20
-39.4929330977
 11
1.1717239618
 21
-39.7681054803
  0
LINE
  5
279
100
AcDbEntity
  8
0
100
AcDbLine
 62
7
  6
CONTINUOUS
 10
3.59651084
 20
45.0740691298
 11
3.59651084
 21
44.5911813578
  0
LINE
  5
27A
100
AcDbEntity
  8
0
100
AcDbLine
 62
7
  6
CONTINUOUS
 10
4.09651084
 20
45.430308783
 11
4.09651084
 21
45.0911623193
  0
LINE
  5
27B
100
AcDbEntity
  8
RACCORDO
100
AcDbLine
 62
253
  6
CONTINUOUS
 10
-34.0
 20
35.0002275338
 11
-33.6595760008
 21
34.6597961606
  0
LINE
  5
27C
100
AcDbEntity
  8
RACCORDO
100
AcDbLine
 62
253
  6
CONTINUOUS
 10
-32.5000571154
 20
36.5001704184
 11
-32.1596268489
 21
36.1597464192
  0
LINE
  5
27D
100
AcDbEntity
  8
0
100
AcDbLine
 62
7
  6
CONTINUOUS
 10
7.84651084
 20
43.2664321475
 11
7.84651084
 21
42.7912498963
  0
LINE
  5
27E
100
AcDbEntity
  8
RACCORDO
100
AcDbLine
 62
253
  6
CONTINUOUS
 10
8.3465011235
 20
43.731224233
 11
8.34651084
 21
43.7313353951
  0
LINE
  5
27F
100
AcDbEntity
  8
RACCORDO
100
AcDbLine
 62
253
  6
CONTINUOUS
 10
-34.0
 20
-44.999886697
 11
-33.6595760008
 21
-44.6594564305
  0
LINE
  5
280
100
AcDbEntity
  8
0
100
AcDbLine
 62
7
  6
CONTINUOUS
 10
8.34651084
 20
43.7313353985
 11
8.34651084
 21
43.2912308578
  0
LINE
  5
281
100
AcDbEntity
  8
0
100
AcDbLine
 62
7
  6
CONTINUOUS
 10
9.44651084
 20
41.460244596
 11
9.44651084
 21
40.9913184348
  0
LINE
  5
282
100
AcDbEntity
  8
0
100
AcDbLine
 62
7
  6
CONTINUOUS
 10
10.09651084
 20
41.9581978369
 11
10.09651084
 21
41.4912993963
  0
LINE
  5
283
100
AcDbEntity
  8
0
100
AcDbLine
 62
7
  6
CONTINUOUS
 10
11.34651084
 20
39.6616842212
 11
11.34651084
 21
39.1913869733
  0
LINE
  5
284
100
AcDbEntity
  8
0
100
AcDbLine
 62
7
  6
CONTINUOUS
 10
11.84651084
 20
40.1180755263
 11
11.84651084
 21
39.6913679348
  0
LINE
  5
285
100
AcDbEntity
  8
RACCORDO
100
AcDbLine
 62
253
  6
CONTINUOUS
 10
10.0965091213
 20
41.9581464179
 11
10.09651084
 21
41.9581978362
  0
LINE
  5
286
100
AcDbEntity
  8
RACCORDO
100
AcDbLine
 62
253
  6
CONTINUOUS
 10
11.8465027473
 20
40.1179546701
 11
11.84651084
 21
40.1180755247
  0
LINE
  5
287
100
AcDbEntity
  8
RACCORDO
100
AcDbLine
 62
253
  6
CONTINUOUS
 10
-32.5000571154
 20
-46.4998295816
 11
-32.1596257422
 21
-46.1594055824
  0
LINE
  5
288
100
AcDbEntity
  8
0
100
AcDbLine
 62
7
  6
CONTINUOUS
 10
13.99651084
 20
37.7140508582
 11
13.99651084
 21
36.2914973964
  0
LINE
  5
289
100
AcDbEntity
  8
RACCORDO
100
AcDbLine
 62
7
  6
CONTINUOUS
 10
15.0
 20
-46.2031160767
 11
15.0
 21
-44.2498295816
  0
LINE
  5
28A
100
AcDbEntity
  8
RACCORDO
100
AcDbLine
 62
7
  6
CONTINUOUS
 10
20.0
 20
-44.2498295816
 11
20.0
 21
-46.2031160767
  0
LINE
  5
28B
100
AcDbEntity
  8
0
100
AcDbLine
 62
7
  6
CONTINUOUS
 10
22.25
 20
-42.1998295816
 11
22.25
 21
-43.2498295816
  0
LINE
  5
28C
100
AcDbEntity
  8
0
100
AcDbLine
 62
7
  6
CONTINUOUS
 10
22.25
 20
-43.3498295816
 11
22.25
 21
-44.3998295816
  0
LINE
  5
28D
100
AcDbEntity
  8
0
100
AcDbLine
 62
7
  6
CONTINUOUS
 10
24.25
 20
30.5001704184
 11
24.25
 21
27.5001704184
  0
LINE
  5
28E
100
AcDbEntity
  8
SMUSSO
100
AcDbLine
 62
7
  6
CONTINUOUS
 10
25.0
 20
30.5001704184
 11
25.0
 21
27.5001704184
  0
LINE
  5
28F
100
AcDbEntity
  8
SMUSSO
100
AcDbLine
 62
7
  6
CONTINUOUS
 10
25.3
 20
30.5001704184
 11
25.3
 21
27.5001704184
  0
LINE
  5
290
100
AcDbEntity
  8
0
100
AcDbLine
 62
7
  6
CONTINUOUS
 10
26.05
 20
-43.3998295816
 11
26.05
 21
-43.1998295816
  0
LINE
  5
291
100
AcDbEntity
  8
0
100
AcDbLine
 62
7
  6
CONTINUOUS
 10
26.25
 20
-44.9998295816
 11
26.25
 21
-34.9810762327
  0
LINE
  5
292
100
AcDbEntity
  8
0
100
AcDbLine
 62
7
  6
CONTINUOUS
 10
26.25
 20
-29.0185829304
 11
26.25
 21
25.2641024409
  0
LINE
  5
293
100
AcDbEntity
  8
0
100
AcDbLine
 62
7
  6
CONTINUOUS
 10
26.45
 20
-34.1972359799
 11
26.45
 21
-44.9998295816
  0
LINE
  5
294
100
AcDbEntity
  8
0
100
AcDbLine
 62
7
  6
CONTINUOUS
 10
26.45
 20
-29.8024231833
 11
26.45
 21
25.2507260426
  0
LINE
  5
295
100
AcDbEntity
  8
0
100
AcDbLine
 62
7
  6
CONTINUOUS
 10
26.55
 20
-34.1278791297
 11
26.55
 21
-44.9998295816
  0
LINE
  5
296
100
AcDbEntity
  8
0
100
AcDbLine
 62
7
  6
CONTINUOUS
 10
26.55
 20
-29.8717800335
 11
26.55
 21
25.2507260426
  0
LINE
  5
297
100
AcDbEntity
  8
0
100
AcDbLine
 62
7
  6
CONTINUOUS
 10
26.75
 20
-44.9998295816
 11
26.75
 21
-34.7178861658
  0
LINE
  5
298
100
AcDbEntity
  8
0
100
AcDbLine
 62
7
  6
CONTINUOUS
 10
26.75
 20
-29.2817729974
 11
26.75
 21
25.2641024409
  0
LINE
  5
299
100
AcDbEntity
  8
0
100
AcDbLine
 62
7
  6
CONTINUOUS
 10
-29.9
 20
24.7502650571
 11
-30.95
 21
24.7502650571
  0
LINE
  5
29A
100
AcDbEntity
  8
0
100
AcDbLine
 62
7
  6
CONTINUOUS
 10
-31.05
 20
24.7502650571
 11
-32.1
 21
24.7502650571
  0
LINE
  5
29B
100
AcDbEntity
  8
SMUSSO
100
AcDbLine
 62
7
  6
CONTINUOUS
 10
27.7
 20
27.5001704184
 11
27.7
 21
30.5001704184
  0
LINE
  5
29C
100
AcDbEntity
  8
SMUSSO
100
AcDbLine
 62
7
  6
CONTINUOUS
 10
28.0
 20
27.5001704184
 11
28.0
 21
30.5001704184
  0
LINE
  5
29D
100
AcDbEntity
  8
ASSI
100
AcDbLine
 62
7
  6
CONTINUOUS
 10
28.75
 20
27.5001704184
 11
28.75
 21
30.5001704184
  0
LINE
  5
29E
100
AcDbEntity
  8
SMUSSO
100
AcDbLine
 62
253
  6
CONTINUOUS
 10
25.3
 20
27.5001704184
 11
25.0
 21
27.5001704184
  0
LINE
  5
29F
100
AcDbEntity
  8
SMUSSO
100
AcDbLine
 62
253
  6
CONTINUOUS
 10
27.7
 20
27.5001704184
 11
28.0
 21
27.5001704184
  0
LINE
  5
2A0
100
AcDbEntity
  8
0
100
AcDbLine
 62
7
  6
CONTINUOUS
 10
-30.9
 20
28.5501704184
 11
-31.1
 21
28.5501704184
  0
LINE
  5
2A1
100
AcDbEntity
  8
0
100
AcDbLine
 62
7
  6
CONTINUOUS
 10
24.25
 20
28.7501704184
 11
-32.5
 21
28.7501704184
  0
LINE
  5
2A2
100
AcDbEntity
  8
0
100
AcDbLine
 62
7
  6
CONTINUOUS
 10
-32.5
 20
28.9501704184
 11
24.25
 21
28.9501704184
  0
LINE
  5
2A3
100
AcDbEntity
  8
0
100
AcDbLine
 62
7
  6
CONTINUOUS
 10
-32.5
 20
29.0501704184
 11
24.25
 21
29.0501704184
  0
LINE
  5
2A4
100
AcDbEntity
  8
0
100
AcDbLine
 62
7
  6
CONTINUOUS
 10
24.25
 20
29.2501704184
 11
-32.5
 21
29.2501704184
  0
LINE
  5
2A5
100
AcDbEntity
  8
SMUSSO
100
AcDbLine
 62
253
  6
CONTINUOUS
 10
25.3
 20
30.5001704184
 11
25.0
 21
30.5001704184
  0
LINE
  5
2A6
100
AcDbEntity
  8
SMUSSO
100
AcDbLine
 62
253
  6
CONTINUOUS
 10
27.7
 20
30.5001704184
 11
28.0
 21
30.5001704184
  0
LINE
  5
2A7
100
AcDbEntity
  8
RACCORDO
100
AcDbLine
 62
253
  6
CONTINUOUS
 10
32.1596331162
 20
-45.1594436594
 11
32.1596331162
 21
-46.1594055824
  0
LINE
  5
2A8
100
AcDbEntity
  8
RACCORDO
100
AcDbLine
 62
253
  6
CONTINUOUS
 10
32.1596331162
 20
35.1597844962
 11
32.1596331162
 21
36.1597464192
  0
LINE
  5
2A9
100
AcDbEntity
  8
RACCORDO
100
AcDbLine
 62
253
  6
CONTINUOUS
 10
32.6596140778
 20
-44.6594626978
 11
32.6596140778
 21
34.6598035346
  0
LINE
  5
2AA
100
AcDbEntity
  8
RACCORDO
100
AcDbLine
 62
253
  6
CONTINUOUS
 10
33.6595760008
 20
-44.6594553238
 11
33.6595760008
 21
34.6597972673
  0
LINE
  5
2AB
100
AcDbEntity
  8
RACCORDO
100
AcDbLine
 62
7
  6
CONTINUOUS
 10
34.0
 20
35.0001704184
 11
34.0
 21
-44.9998295816
  0
LINE
  5
2AC
100
AcDbEntity
  8
RACCORDO
100
AcDbLine
 62
253
  6
CONTINUOUS
 10
-15.0
 20
34.2501704184
 11
-20.0
 21
34.2501704184
  0
LINE
  5
2AD
100
AcDbEntity
  8
RACCORDO
100
AcDbLine
 62
253
  6
CONTINUOUS
 10
32.6596140778
 20
34.6598035346
 11
33.6595760008
 21
34.6598035346
  0
LINE
  5
2AE
100
AcDbEntity
  8
RACCORDO
100
AcDbLine
 62
253
  6
CONTINUOUS
 10
-32.6596140778
 20
34.6598035346
 11
-33.6595760008
 21
34.6598035346
  0
LINE
  5
2AF
100
AcDbEntity
  8
0
100
AcDbLine
 62
7
  6
CONTINUOUS
 10
-1.5117241442
 20
-40.5894847395
 11
-1.8034482822
 21
-40.7218985589
  0
LINE
  5
2B0
100
AcDbEntity
  8
RACCORDO
100
AcDbLine
 62
253
  6
CONTINUOUS
 10
32.1596331162
 20
35.1597844962
 11
-15.0
 21
35.1597844962
  0
LINE
  5
2B1
100
AcDbEntity
  8
RACCORDO
100
AcDbLine
 62
253
  6
CONTINUOUS
 10
-20.0
 20
35.1597844962
 11
-32.1596331162
 21
35.1597844962
  0
LINE
  5
2B2
100
AcDbEntity
  8
RACCORDO
100
AcDbLine
 62
7
  6
CONTINUOUS
 10
-15.0
 20
35.2501704184
 11
-20.0
 21
35.2501704184
  0
LINE
  5
2B3
100
AcDbEntity
  8
RACCORDO
100
AcDbLine
 62
253
  6
CONTINUOUS
 10
32.1596257422
 20
36.1597464192
 11
-15.0
 21
36.1597464192
  0
LINE
  5
2B4
100
AcDbEntity
  8
RACCORDO
100
AcDbLine
 62
253
  6
CONTINUOUS
 10
-20.0
 20
36.1597464192
 11
-32.1596268489
 21
36.1597464192
  0
LINE
  5
2B5
100
AcDbEntity
  8
DRAFT
100
AcDbLine
 62
7
  6
CONTINUOUS
 10
-15.0
 20
36.2034569135
 11
-20.0
 21
36.2034569135
  0
LINE
  5
2B6
100
AcDbEntity
  8
RACCORDO
100
AcDbLine
 62
7
  6
CONTINUOUS
 10
-32.5
 20
36.5001704184
 11
-14.00348916
 21
36.5001704184
  0
LINE
  5
2B7
100
AcDbEntity
  8
RACCORDO
100
AcDbLine
 62
7
  6
CONTINUOUS
 10
13.99651084
 20
36.5001704184
 11
32.5
 21
36.5001704184
  0
LINE
  5
2B8
100
AcDbEntity
  8
0
100
AcDbLine
 62
7
  6
CONTINUOUS
 10
0.8055173159
 20
-40.5522433849
 11
0.4910345674
 21
-40.6494847717
  0
LINE
  5
2B9
100
AcDbEntity
  8
0
100
AcDbLine
 62
7
  6
CONTINUOUS
 10
-11.3538922991
 20
39.192892365
 11
-13.2552746509
 21
38.6837081714
  0
LINE
  5
2BA
100
AcDbEntity
  8
0
100
AcDbLine
 62
7
  6
CONTINUOUS
 10
-9.4538248133
 20
40.9925718226
 11
-11.624966407
 21
40.4111469553
  0
LINE
  5
2BB
100
AcDbEntity
  8
0
100
AcDbLine
 62
7
  6
CONTINUOUS
 10
11.3469139792
 20
39.192892365
 11
13.2482968889
 21
38.683708022
  0
LINE
  5
2BC
100
AcDbEntity
  8
0
100
AcDbLine
 62
7
  6
CONTINUOUS
 10
9.4468464933
 20
40.9925718226
 11
11.617988146
 21
40.4111469395
  0
LINE
  5
2BD
100
AcDbEntity
  8
RACCORDO
100
AcDbLine
 62
253
  6
CONTINUOUS
 10
11.6181913127
 20
40.4110920765
 11
11.6179882199
 21
40.4111469197
  0
LINE
  5
2BE
100
AcDbEntity
  8
0
100
AcDbLine
 62
7
  6
CONTINUOUS
 10
-7.8493246226
 20
42.7934809882
 11
-9.875894753
 21
42.2507719026
  0
LINE
  5
2BF
100
AcDbEntity
  8
0
100
AcDbLine
 62
7
  6
CONTINUOUS
 10
-6.0003060741
 20
44.592886651
 11
-8.1268232028
 21
44.0234120746
  0
LINE
  5
2C0
100
AcDbEntity
  8
0
100
AcDbLine
 62
7
  6
CONTINUOUS
 10
-1.0029586456
 20
46.4913932272
 11
-3.8790783984
 21
45.7211774336
  0
LINE
  5
2C1
100
AcDbEntity
  8
0
100
AcDbLine
 62
7
  6
CONTINUOUS
 10
-1.0028816319
 20
46.4913871518
 11
-0.9999756001
 21
46.4918398961
  0
LINE
  5
2C2
100
AcDbEntity
  8
0
100
AcDbLine
 62
7
  6
CONTINUOUS
 10
-6.0002547093
 20
44.5928757666
 11
-5.9824078008
 21
44.5955666645
  0
LINE
  5
2C3
100
AcDbEntity
  8
0
100
AcDbLine
 62
7
  6
CONTINUOUS
 10
7.8423463027
 20
42.7934809882
 11
9.8689163395
 21
42.2507719276
  0
LINE
  5
2C4
100
AcDbEntity
  8
0
100
AcDbLine
 62
7
  6
CONTINUOUS
 10
5.9933277541
 20
44.592886651
 11
8.1198450754
 21
44.0234120231
  0
LINE
  5
2C5
100
AcDbEntity
  8
0
100
AcDbLine
 62
7
  6
CONTINUOUS
 10
0.9959803257
 20
46.4913932272
 11
3.8721009316
 21
45.7211772052
  0
LINE
  5
2C6
100
AcDbEntity
  8
RACCORDO
100
AcDbLine
 62
253
  6
CONTINUOUS
 10
9.8692278115
 20
42.2506872381
 11
9.8689163927
 21
42.2507719134
  0
ARC
  5
2C7
100
AcDbEntity
  8
0
100
AcDbCircle
 62
7
  6
CONTINUOUS
 10
-28.0
 20
-38.9998295816
 40
2.25
100
AcDbArc
 50
90.0
 51
270.0
  0
ARC
  5
2C8
100
AcDbEntity
  8
ASSI
100
AcDbCircle
 62
7
  6
CONTINUOUS
 10
-25.0
 20
-38.9998295816
 40
2.25
100
AcDbArc
 50
270.0
 51
90.0
  0
CIRCLE
  5
2C9
100
AcDbEntity
  8
ASSI
100
AcDbCircle
 62
7
  6
CONTINUOUS
 10
-20.0
 20
-4.9998295816
 40
2.25
  0
ARC
  5
2CA
100
AcDbEntity
  8
RACCORDO
100
AcDbCircle
 62
253
  6
CONTINUOUS
 10
-32.1595490805
 20
-44.6593786621
 40
1.5000269226
100
AcDbArc
 50
180.0029704915
 51
269.9970717791
  0
ARC
  5
2CB
100
AcDbEntity
  8
RACCORDO
100
AcDbCircle
 62
7
  6
CONTINUOUS
 10
-32.5
 20
-44.9998295816
 40
1.5
100
AcDbArc
 50
180.0
 51
270.0
  0
ARC
  5
2CC
100
AcDbEntity
  8
SMUSSO
100
AcDbCircle
 62
7
  6
CONTINUOUS
 10
-25.0
 20
-38.9998295816
 40
1.4999997289
100
AcDbArc
 50
270.0
 51
90.0
  0
CIRCLE
  5
2CD
100
AcDbEntity
  8
SMUSSO
100
AcDbCircle
 62
7
  6
CONTINUOUS
 10
-20.0
 20
-4.9998295816
 40
1.4999997289
  0
ARC
  5
2CE
100
AcDbEntity
  8
SMUSSO
100
AcDbCircle
 62
7
  6
CONTINUOUS
 10
-28.0
 20
-38.9998295816
 40
1.4999997289
100
AcDbArc
 50
90.0
 51
270.0
  0
ARC
  5
2CF
100
AcDbEntity
  8
SMUSSO
100
AcDbCircle
 62
7
  6
CONTINUOUS
 10
-25.0
 20
-38.9998295816
 40
1.1999998741
100
AcDbArc
 50
270.0
 51
90.0
  0
ARC
  5
2D0
100
AcDbEntity
  8
SMUSSO
100
AcDbCircle
 62
7
  6
CONTINUOUS
 10
-28.0
 20
-38.9998295816
 40
1.1999998741
100
AcDbArc
 50
90.0
 51
270.0
  0
CIRCLE
  5
2D1
100
AcDbEntity
  8
SMUSSO
100
AcDbCircle
 62
7
  6
CONTINUOUS
 10
-20.0
 20
-4.9998295816
 40
1.1999998741
  0
ARC
  5
2D2
100
AcDbEntity
  8
RACCORDO
100
AcDbCircle
 62
253
  6
CONTINUOUS
 10
-32.1596406806
 20
-44.6594702621
 40
0.4999730782
100
AcDbArc
 50
179.9991331474
 51
270.0008668527
  0
ARC
  5
2D3
100
AcDbEntity
  8
0
100
AcDbCircle
 62
7
  6
CONTINUOUS
 10
-9.3517987779
 20
45.9417293305
 40
4.4868717983
100
AcDbArc
 50
268.3281798905
 51
268.6912906595
  0
CIRCLE
  5
2D4
100
AcDbEntity
  8
RACCORDO
100
AcDbCircle
 62
253
  6
CONTINUOUS
 10
-25.0
 20
22.0001704184
 40
3.2326972483
  0
CIRCLE
  5
2D5
100
AcDbEntity
  8
RACCORDO
100
AcDbCircle
 62
253
  6
CONTINUOUS
 10
-25.0
 20
22.0001704184
 40
2.232849568
  0
CIRCLE
  5
2D6
100
AcDbEntity
  8
DRAFT
100
AcDbCircle
 62
7
  6
CONTINUOUS
 10
-25.0
 20
22.0001704184
 40
1.9008987014
  0
ARC
  5
2D7
100
AcDbEntity
  8
RACCORDO
100
AcDbCircle
 62
253
  6
CONTINUOUS
 10
-32.1595490805
 20
34.6597194989
 40
1.5000269226
100
AcDbArc
 50
90.0029704915
 51
179.9970717791
  0
ARC
  5
2D8
100
AcDbEntity
  8
RACCORDO
100
AcDbCircle
 62
7
  6
CONTINUOUS
 10
-32.5
 20
35.0001704184
 40
1.5
100
AcDbArc
 50
90.0
 51
180.0
  0
ARC
  5
2D9
100
AcDbEntity
  8
RACCORDO
100
AcDbCircle
 62
253
  6
CONTINUOUS
 10
-32.1596406806
 20
34.659811099
 40
0.4999730782
100
AcDbArc
 50
89.9991331474
 51
180.0008668527
  0
CIRCLE
  5
2DA
100
AcDbEntity
  8
ASSI
100
AcDbCircle
 62
7
  6
CONTINUOUS
 10
0.0
 20
-31.9998295816
 40
2.25
  0
CIRCLE
  5
2DB
100
AcDbEntity
  8
SMUSSO
100
AcDbCircle
 62
7
  6
CONTINUOUS
 10
0.0
 20
-31.9998295816
 40
1.4999997289
  0
CIRCLE
  5
2DC
100
AcDbEntity
  8
SMUSSO
100
AcDbCircle
 62
7
  6
CONTINUOUS
 10
0.0
 20
-31.9998295816
 40
1.1999998741
  0
CIRCLE
  5
2DD
100
AcDbEntity
  8
0
100
AcDbCircle
 62
7
  6
CONTINUOUS
 10
-0.0
 20
-4.9998295816
 40
11.5
  0
ARC
  5
2DE
100
AcDbEntity
  8
0
100
AcDbCircle
 62
7
  6
CONTINUOUS
 10
-0.0
 20
-4.9998295816
 40
11.25
100
AcDbArc
 50
3.8225537293
 51
86.1774462707
  0
ARC
  5
2DF
100
AcDbEntity
  8
0
100
AcDbCircle
 62
7
  6
CONTINUOUS
 10
-0.0
 20
-4.9998295816
 40
11.25
100
AcDbArc
 50
273.8225537293
 51
356.1774462707
  0
ARC
  5
2E0
100
AcDbEntity
  8
0
100
AcDbCircle
 62
7
  6
CONTINUOUS
 10
-0.0
 20
-4.9998295816
 40
11.25
100
AcDbArc
 50
183.8225537293
 51
266.1774462707
  0
ARC
  5
2E1
100
AcDbEntity
  8
0
100
AcDbCircle
 62
7
  6
CONTINUOUS
 10
-0.0
 20
-4.9998295816
 40
11.25
100
AcDbArc
 50
93.8225537293
 51
176.1774462707
  0
ARC
  5
2E2
100
AcDbEntity
  8
0
100
AcDbCircle
 62
7
  6
CONTINUOUS
 10
-0.0
 20
-4.9998295816
 40
10.8458548116
100
AcDbArc
 50
273.9652158992
 51
356.0347841008
  0
ARC
  5
2E3
100
AcDbEntity
  8
0
100
AcDbCircle
 62
7
  6
CONTINUOUS
 10
-0.0
 20
-4.9998295816
 40
10.8458548116
100
AcDbArc
 50
183.9652158992
 51
266.0347841008
  0
ARC
  5
2E4
100
AcDbEntity
  8
0
100
AcDbCircle
 62
7
  6
CONTINUOUS
 10
-0.0
 20
-4.9998295816
 40
10.8458548116
100
AcDbArc
 50
3.9652158992
 51
86.0347841008
  0
ARC
  5
2E5
100
AcDbEntity
  8
0
100
AcDbCircle
 62
7
  6
CONTINUOUS
 10
-0.0
 20
-4.9998295816
 40
10.8458548116
100
AcDbArc
 50
93.9652158992
 51
176.0347841008
  0
CIRCLE
  5
2E6
100
AcDbEntity
  8
0
100
AcDbCircle
 62
7
  6
CONTINUOUS
 10
-0.0
 20
-4.9998295816
 40
3.8405728739
  0
ARC
  5
2E7
100
AcDbEntity
  8
0
100
AcDbCircle
 62
253
  6
CONTINUOUS
 10
25.0
 20
-31.9998295816
 40
3.2326972631
100
AcDbArc
 50
270.0
 51
292.7477039707
  0
ARC
  5
2E8
100
AcDbEntity
  8
0
100
AcDbCircle
 62
253
  6
CONTINUOUS
 10
25.0
 20
-31.9998295816
 40
3.2326972631
100
AcDbArc
 50
67.2522960293
 51
90.0
  0
ARC
  5
2E9
100
AcDbEntity
  8
0
100
AcDbCircle
 62
253
  6
CONTINUOUS
 10
25.0
 20
-31.9998295816
 40
3.2326972631
100
AcDbArc
 50
302.7751509834
 51
57.2248490166
  0
ARC
  5
2EA
100
AcDbEntity
  8
RACCORDO
100
AcDbCircle
 62
253
  6
CONTINUOUS
 10
25.0
 20
-31.9998295816
 40
3.2326972483
100
AcDbArc
 50
90.0
 51
270.0
  0
ARC
  5
2EB
100
AcDbEntity
  8
0
100
AcDbCircle
 62
7
  6
CONTINUOUS
 10
25.0
 20
-31.9998295816
 40
2.6326972631
100
AcDbArc
 50
53.9316593308
 51
56.5804240191
  0
ARC
  5
2EC
100
AcDbEntity
  8
0
100
AcDbCircle
 62
7
  6
CONTINUOUS
 10
25.0
 20
-31.9998295816
 40
2.6326972631
100
AcDbArc
 50
303.4195759809
 51
306.0683406692
  0
CIRCLE
  5
2ED
100
AcDbEntity
  8
RACCORDO
100
AcDbCircle
 62
253
  6
CONTINUOUS
 10
25.0
 20
-31.9998295816
 40
2.232849568
  0
CIRCLE
  5
2EE
100
AcDbEntity
  8
DRAFT
100
AcDbCircle
 62
7
  6
CONTINUOUS
 10
25.0
 20
-31.9998295816
 40
1.9008987014
  0
ARC
  5
2EF
100
AcDbEntity
  8
RACCORDO
100
AcDbCircle
 62
253
  6
CONTINUOUS
 10
32.1595490805
 20
-44.6593786621
 40
1.5000269226
100
AcDbArc
 50
270.0029704915
 51
359.9970717791
  0
ARC
  5
2F0
100
AcDbEntity
  8
RACCORDO
100
AcDbCircle
 62
7
  6
CONTINUOUS
 10
32.5
 20
-44.9998295816
 40
1.5
100
AcDbArc
 50
270.0
 51
360.0
  0
ARC
  5
2F1
100
AcDbEntity
  8
RACCORDO
100
AcDbCircle
 62
253
  6
CONTINUOUS
 10
32.1596406755
 20
-44.6594702571
 40
0.4999730782
100
AcDbArc
 50
269.9991337245
 51
0.0008662756
  0
CIRCLE
  5
2F2
100
AcDbEntity
  8
ASSI
100
AcDbCircle
 62
7
  6
CONTINUOUS
 10
20.0
 20
-4.9998295816
 40
2.25
  0
CIRCLE
  5
2F3
100
AcDbEntity
  8
SMUSSO
100
AcDbCircle
 62
7
  6
CONTINUOUS
 10
20.0
 20
-4.9998295816
 40
1.4999997289
  0
CIRCLE
  5
2F4
100
AcDbEntity
  8
SMUSSO
100
AcDbCircle
 62
7
  6
CONTINUOUS
 10
20.0
 20
-4.9998295816
 40
1.1999998741
  0
ARC
  5
2F5
100
AcDbEntity
  8
ASSI
100
AcDbCircle
 62
7
  6
CONTINUOUS
 10
26.5
 20
30.5001704184
 40
2.25
100
AcDbArc
 50
0.0
 51
180.0
  0
ARC
  5
2F6
100
AcDbEntity
  8
0
100
AcDbCircle
 62
7
  6
CONTINUOUS
 10
26.5
 20
27.5001704184
 40
2.25
100
AcDbArc
 50
180.0
 51
360.0
  0
CIRCLE
  5
2F7
100
AcDbEntity
  8
ASSI
100
AcDbCircle
 62
7
  6
CONTINUOUS
 10
-0.0
 20
22.0001704184
 40
2.25
  0
ARC
  5
2F8
100
AcDbEntity
  8
RACCORDO
100
AcDbCircle
 62
253
  6
CONTINUOUS
 10
11.6348887986
 20
41.7546662365
 40
1.6540098191
100
AcDbArc
 50
274.4982616109
 51
275.8988330826
  0
ARC
  5
2F9
100
AcDbEntity
  8
RACCORDO
100
AcDbCircle
 62
253
  6
CONTINUOUS
 10
11.41650183
 20
42.0137579337
 40
1.6230081355
100
AcDbArc
 50
274.4983025836
 51
275.8988348875
  0
ARC
  5
2FA
100
AcDbEntity
  8
RACCORDO
100
AcDbCircle
 62
253
  6
CONTINUOUS
 10
32.1595490805
 20
34.6597194989
 40
1.5000269226
100
AcDbArc
 50
0.0029704915
 51
89.9970717791
  0
ARC
  5
2FB
100
AcDbEntity
  8
RACCORDO
100
AcDbCircle
 62
7
  6
CONTINUOUS
 10
32.5
 20
35.0001704184
 40
1.5
100
AcDbArc
 50
0.0
 51
90.0
  0
CIRCLE
  5
2FC
100
AcDbEntity
  8
SMUSSO
100
AcDbCircle
 62
7
  6
CONTINUOUS
 10
-0.0
 20
22.0001704184
 40
1.4999997289
  0
ARC
  5
2FD
100
AcDbEntity
  8
SMUSSO
100
AcDbCircle
 62
7
  6
CONTINUOUS
 10
26.5
 20
30.5001704184
 40
1.4999997289
100
AcDbArc
 50
0.0
 51
180.0
  0
ARC
  5
2FE
100
AcDbEntity
  8
SMUSSO
100
AcDbCircle
 62
7
  6
CONTINUOUS
 10
26.5
 20
27.5001704184
 40
1.4999997289
100
AcDbArc
 50
180.0
 51
360.0
  0
ARC
  5
2FF
100
AcDbEntity
  8
RACCORDO
100
AcDbCircle
 62
253
  6
CONTINUOUS
 10
9.9265059635
 20
43.2524650571
 40
1.3085815167
100
AcDbArc
 50
274.5755423824
 51
275.9002424607
  0
ARC
  5
300
100
AcDbEntity
  8
RACCORDO
100
AcDbCircle
 62
253
  6
CONTINUOUS
 10
8.1901661849
 20
44.9547181076
 40
1.236028096
100
AcDbArc
 50
274.4399149174
 51
275.8977615759
  0
ARC
  5
301
100
AcDbEntity
  8
SMUSSO
100
AcDbCircle
 62
7
  6
CONTINUOUS
 10
26.5
 20
30.5001704184
 40
1.1999998741
100
AcDbArc
 50
0.0
 51
180.0
  0
ARC
  5
302
100
AcDbEntity
  8
SMUSSO
100
AcDbCircle
 62
7
  6
CONTINUOUS
 10
26.5
 20
27.5001704184
 40
1.1999998741
100
AcDbArc
 50
180.0
 51
360.0
  0
CIRCLE
  5
303
100
AcDbEntity
  8
SMUSSO
100
AcDbCircle
 62
7
  6
CONTINUOUS
 10
-0.0
 20
22.0001704184
 40
1.1999998741
  0
ARC
  5
304
100
AcDbEntity
  8
RACCORDO
100
AcDbCircle
 62
7
  6
CONTINUOUS
 10
12.977246662
 20
37.6714909801
 40
1.0478795567
100
AcDbArc
 50
73.4011659497
 51
75.0091675882
  0
ARC
  5
305
100
AcDbEntity
  8
0
100
AcDbCircle
 62
7
  6
CONTINUOUS
 10
3.9983436149
 20
45.9001871779
 40
0.816330143
100
AcDbArc
 50
274.1029759714
 51
275.8893442533
  0
ARC
  5
306
100
AcDbEntity
  8
0
100
AcDbCircle
 62
7
  6
CONTINUOUS
 10
3.5065864163
 20
45.3377596396
 40
0.7531841364
100
AcDbArc
 50
274.0675192243
 51
275.8888269047
  0
ARC
  5
307
100
AcDbEntity
  8
RACCORDO
100
AcDbCircle
 62
253
  6
CONTINUOUS
 10
32.1596406755
 20
34.6598110939
 40
0.4999730782
100
AcDbArc
 50
359.9991337245
 51
90.0008662756
  0
ARC
  5
308
100
AcDbEntity
  8
RACCORDO
100
AcDbCircle
 62
7
  6
CONTINUOUS
 10
8.0349656343
 20
43.7063933748
 40
0.3281849218
100
AcDbArc
 50
72.9637295024
 51
75.011099048
  0
ARC
  5
309
100
AcDbEntity
  8
RACCORDO
100
AcDbCircle
 62
7
  6
CONTINUOUS
 10
9.7872967491
 20
41.9429422348
 40
0.3184512218
100
AcDbArc
 50
66.9004496063
 51
73.4955010537
  0
ARC
  5
30A
100
AcDbEntity
  8
RACCORDO
100
AcDbCircle
 62
7
  6
CONTINUOUS
 10
8.0382645362
 20
43.7167957712
 40
0.3172725033
100
AcDbArc
 50
67.6348553237
 51
72.9829587968
  0
ARC
  5
30B
100
AcDbEntity
  8
RACCORDO
100
AcDbCircle
 62
7
  6
CONTINUOUS
 10
3.7916353831
 20
45.4205578489
 40
0.3112020276
100
AcDbArc
 50
69.7938464491
 51
75.015436454
  0
ARC
  5
30C
100
AcDbEntity
  8
RACCORDO
100
AcDbCircle
 62
7
  6
CONTINUOUS
 10
3.7935582153
 20
45.4258471749
 40
0.3055740848
100
AcDbArc
 50
66.5120840719
 51
69.789639917
  0
ARC
  5
30D
100
AcDbEntity
  8
RACCORDO
100
AcDbCircle
 62
7
  6
CONTINUOUS
 10
3.7958363221
 20
45.4301795245
 40
0.3006811206
100
AcDbArc
 50
0.0246367466
 51
66.5811893047
  0
SPLINE
  5
30E
100
AcDbEntity
  8
0
100
AcDbSpline
 62
7
  6
CONTINUOUS
 70
0
 71
3
 72
12
 73
8
 74
6
 42
0.0000001
 43
0.0000001
 44
0.0000000001
 12
-2.027776352
 22
-0.2105360381
 32
0.0
 13
-2.0384585039
 23
-0.0289367922
 33
0.0
 40
0.0
 40
0.0
 40
0.0
 40
0.0
 40
0.1076308857
 40
0.2998707048
 40
0.5743606933
 40
0.9276668772
 40
1.0
 40
1.0
 40
1.0
 40
1.0
 10
13.947321002
 20
36.2812650141
 30
0.0
 10
13.8745705471
 20
36.2737116207
 30
0.0
 10
13.6708019952
 20
36.2650021621
 30
0.0
 10
13.2808186513
 20
36.2518737809
 30
0.0
 10
12.7236168938
 20
36.2401470351
 30
0.0
 10
12.2479182312
 20
36.2322128326
 30
0.0
 10
11.9587044811
 20
36.2280099649
 30
0.0
 10
11.9095551247
 20
36.2273122687
 30
0.0
 11
13.947321002
 21
36.2812650141
 31
0.0
 11
13.7283162236
 21
36.267698547
 31
0.0
 11
13.3366260252
 21
36.2544313643
 31
0.0
 11
12.7771761381
 21
36.2416303085
 31
0.0
 11
12.0570019695
 21
36.2294563602
 31
0.0
 11
11.9095551247
 21
36.2273122687
 31
0.0
  0
LINE
  5
30F
100
AcDbEntity
  8
0
100
AcDbLine
 62
7
  6
CONTINUOUS
 10
11.9095551247
 20
36.2273122687
 11
11.4974214253
 21
36.2218193197
  0
LINE
  5
310
100
AcDbEntity
  8
0
100
AcDbLine
 62
7
  6
CONTINUOUS
 10
11.4974214253
 20
36.2218193197
 11
11.4918140733
 21
36.2217490907
  0
SPLINE
  5
311
100
AcDbEntity
  8
0
100
AcDbSpline
 62
7
  6
CONTINUOUS
 70
0
 71
3
 72
25
 73
21
 74
19
 42
0.0000001
 43
0.0000001
 44
0.0000000001
 12
-22.9953383111
 22
-0.2877791913
 32
0.0
 13
-23.054195367
 23
0.2831483534
 33
0.0
 40
0.0
 40
0.0
 40
0.0
 40
0.0
 40
0.0133353977
 40
0.0573671679
 40
0.1069629246
 40
0.1614991454
 40
0.2202901351
 40
0.2825966662
 40
0.3476352844
 40
0.4145881671
 40
0.4826134128
 40
0.5508556306
 40
0.6184567009
 40
0.6845665684
 40
0.7483539356
 40
0.8090167198
 40
0.865792145
 40
0.9179663421
 40
0.9648833386
 40
1.0
 40
1.0
 40
1.0
 40
1.0
 10
11.4918140733
 20
36.2217490907
 30
0.0
 10
11.3895967464
 20
36.2204698741
 30
0.0
 10
10.9498672588
 20
36.2152015015
 30
0.0
 10
10.1299686796
 20
36.2068304169
 30
0.0
 10
8.9942296876
 20
36.1975709433
 30
0.0
 10
7.7453414479
 20
36.1894413706
 30
0.0
 10
6.3990073401
 20
36.1825648879
 30
0.0
 10
4.9721586188
 20
36.1770302447
 30
0.0
 10
3.4827384359
 20
36.1729118432
 30
0.0
 10
1.9494770877
 20
36.1702635208
 30
0.0
 10
0.3916560653
 20
36.1691200097
 30
0.0
 10
-1.171133893
 20
36.169496243
 30
0.0
 10
-2.7192409304
 20
36.1713872067
 30
0.0
 10
-4.2331928586
 20
36.1747685969
 30
0.0
 10
-5.6939648497
 20
36.1795946391
 30
0.0
 10
-7.0831384144
 20
36.1858066976
 30
0.0
 10
-8.383409572
 20
36.1933048396
 30
0.0
 10
-9.5778768938
 20
36.2020444494
 30
0.0
 10
-10.6076156125
 20
36.2113090319
 30
0.0
 10
-11.2344996454
 20
36.2185751167
 30
0.0
 10
-11.5043617697
 20
36.221889525
 30
0.0
 11
11.4918140733
 21
36.2217490907
 31
0.0
 11
11.1851601272
 21
36.2180626139
 31
0.0
 11
10.1726145284
 21
36.2075923526
 31
0.0
 11
9.0320985213
 21
36.1981772459
 31
0.0
 11
7.7779547566
 21
36.1899356943
 31
0.0
 11
6.4259548197
 21
36.18297134
 31
0.0
 11
4.9931008944
 21
36.1773717638
 31
0.0
 11
3.49741195
 21
36.1732073837
 31
0.0
 11
1.9576971429
 21
36.1705305691
 31
0.0
 11
0.3933192801
 21
36.1693749826
 31
0.0
 11
-1.176048679
 21
36.1697551563
 31
0.0
 11
-2.7306710219
 21
36.1716663092
 31
0.0
 11
-4.2509974705
 21
36.1750844077
 31
0.0
 11
-5.7179090376
 21
36.179966467
 31
0.0
 11
-7.1129584592
 21
36.1862510924
 31
0.0
 11
-8.4186021793
 21
36.1938592512
 31
0.0
 11
-9.6184209707
 21
36.2026952663
 31
0.0
 11
-10.6973264158
 21
36.2126480197
 31
0.0
 11
-11.5043617697
 21
36.221889525
 31
0.0
  0
LINE
  5
312
100
AcDbEntity
  8
0
100
AcDbLine
 62
7
  6
CONTINUOUS
 10
-11.5043617697
 20
36.221889525
 11
-11.9089380007
 21
36.227035862
  0
SPLINE
  5
313
100
AcDbEntity
  8
0
100
AcDbSpline
 62
7
  6
CONTINUOUS
 70
0
 71
3
 72
12
 73
8
 74
6
 42
0.0000001
 43
0.0000001
 44
0.0000000001
 12
-2.0990579778
 22
0.0282499202
 32
0.0
 13
0.7824141378
 23
0.6579143825
 33
0.0
 40
0.0
 40
0.0
 40
0.0
 40
0.0
 40
0.255001383
 40
0.5623711166
 40
0.7910027153
 40
0.9380503489
 40
1.0
 40
1.0
 40
1.0
 40
1.0
 10
-11.9089380007
 20
36.227035862
 30
0.0
 10
-12.0873588965
 20
36.2294371183
 30
0.0
 10
-12.4796173943
 20
36.2353125028
 30
0.0
 10
-13.008957653
 20
36.247853765
 30
0.0
 10
-13.5429391898
 20
36.2540034403
 30
0.0
 10
-13.7340266191
 20
36.2774712291
 30
0.0
 10
-14.0156917736
 20
36.2732220316
 30
0.0
 10
-13.9995350127
 20
36.286807887
 30
0.0
 11
-11.9089380007
 21
36.227035862
 31
0.0
 11
-12.4398169987
 21
36.2353906253
 31
0.0
 11
-13.0814893064
 21
36.2478944759
 31
0.0
 11
-13.5586981741
 21
36.2609466586
 31
0.0
 11
-13.8654424237
 21
36.2743830345
 31
0.0
 11
-13.9995350127
 21
36.286807887
 31
0.0
  0
SPLINE
  5
314
100
AcDbEntity
  8
0
100
AcDbSpline
 62
7
  6
CONTINUOUS
 70
0
 71
3
 72
9
 73
5
 74
3
 42
0.0000001
 43
0.0000001
 44
0.0000000001
 12
-0.4354249899
 22
-0.045208463
 32
0.0
 13
-0.4374944466
 23
-0.013568089
 33
0.0
 40
0.0
 40
0.0
 40
0.0
 40
0.0
 40
0.4707959686
 40
1.0
 40
1.0
 40
1.0
 40
1.0
 10
11.8048751557
 20
39.6827069541
 30
0.0
 10
11.7365430457
 20
39.6756123
 30
0.0
 10
11.5905995491
 20
39.6698340105
 30
0.0
 10
11.4447637212
 20
39.6648576973
 30
0.0
 10
11.3675891129
 20
39.6624642682
 30
0.0
 11
11.8048751557
 21
39.6827069541
 31
0.0
 11
11.5991476907
 21
39.6703492663
 31
0.0
 11
11.3675891129
 21
39.6624642682
 31
0.0
  0
LINE
  5
315
100
AcDbEntity
  8
0
100
AcDbLine
 62
7
  6
CONTINUOUS
 10
11.3675891129
 20
39.6624642682
 11
11.3473280849
 21
39.6618414341
  0
SPLINE
  5
316
100
AcDbEntity
  8
0
100
AcDbSpline
 62
7
  6
CONTINUOUS
 70
0
 71
3
 72
12
 73
8
 74
6
 42
0.0000001
 43
0.0000001
 44
0.0000000001
 12
-2.2412362981
 22
-0.0682843938
 32
0.0
 13
-2.2425175378
 23
-0.0234505875
 33
0.0
 40
0.0
 40
0.0
 40
0.0
 40
0.0
 40
0.0549233155
 40
0.2951633163
 40
0.6048897035
 40
0.979592499
 40
1.0
 40
1.0
 40
1.0
 40
1.0
 10
11.3473280849
 20
39.6618414341
 30
0.0
 10
11.3062960422
 20
39.660591299
 30
0.0
 10
11.0857855867
 20
39.6542396892
 30
0.0
 10
10.633634825
 20
39.6453996157
 30
0.0
 10
9.9425112349
 20
39.634652941
 30
0.0
 10
9.415644515
 20
39.6284877548
 30
0.0
 10
9.1202973387
 20
39.6253814052
 30
0.0
 10
9.1050426125
 20
39.6252218826
 30
0.0
 11
11.3473280849
 21
39.6618414341
 31
0.0
 11
11.2242276535
 21
39.6582980781
 31
0.0
 11
10.6855822226
 21
39.6467291228
 31
0.0
 11
9.9910660612
 21
39.635811102
 31
0.0
 11
9.150806779
 21
39.6257032248
 31
0.0
 11
9.1050426125
 21
39.6252218826
 31
0.0
  0
SPLINE
  5
317
100
AcDbEntity
  8
0
100
AcDbSpline
 62
7
  6
CONTINUOUS
 70
0
 71
3
 72
22
 73
18
 74
16
 42
0.0000001
 43
0.0000001
 44
0.0000000001
 12
-18.2171259666
 22
-0.1905012107
 32
0.0
 13
-18.2116685641
 23
0.1920083766
 33
0.0
 40
0.0
 40
0.0
 40
0.0
 40
0.0
 40
0.0509399294
 40
0.1109392271
 40
0.1766110156
 40
0.2469978028
 40
0.3210733132
 40
0.3977574634
 40
0.4759321201
 40
0.5544574095
 40
0.6321883438
 40
0.7079915212
 40
0.7807616582
 40
0.8494377127
 40
0.9130183647
 40
0.9705766316
 40
1.0
 40
1.0
 40
1.0
 40
1.0
 10
9.1050426125
 20
39.6252218826
 30
0.0
 10
8.7957162425
 20
39.6219871765
 30
0.0
 10
8.1220479076
 20
39.615766999
 30
0.0
 10
7.0495721286
 20
39.6079633833
 30
0.0
 10
5.8589939584
 20
39.6012134549
 30
0.0
 10
4.5829276498
 20
39.5957480344
 30
0.0
 10
3.2399815067
 20
39.5916482842
 30
0.0
 10
1.8497383521
 20
39.5889783859
 30
0.0
 10
0.4324712769
 20
39.5877788471
 30
0.0
 10
-0.991153835
 20
39.5880678678
 30
0.0
 10
-2.4003737815
 20
39.5898416086
 30
0.0
 10
-3.7746521094
 20
39.5930709273
 30
0.0
 10
-5.0939025963
 20
39.5977138558
 30
0.0
 10
-6.3390474687
 20
39.6036728953
 30
0.0
 10
-7.4913930962
 20
39.6109415418
 30
0.0
 10
-8.4065762212
 20
39.6181079296
 30
0.0
 10
-8.933412534
 20
39.6234653106
 30
0.0
 10
-9.1120287452
 20
39.6253484883
 30
0.0
 11
9.1050426125
 21
39.6252218826
 31
0.0
 11
8.1770572483
 21
39.616552887
 31
0.0
 11
7.0840169299
 21
39.6084935211
 31
0.0
 11
5.8876248131
 21
39.6016426507
 31
0.0
 11
4.6053269889
 21
39.596100177
 31
0.0
 11
3.2558222471
 21
39.5919469218
 31
0.0
 11
1.8587894057
 21
39.5892434488
 31
0.0
 11
0.4346003493
 21
39.5880291807
 31
0.0
 11
-0.9959770386
 21
39.5883218244
 31
0.0
 11
-2.4120817184
 21
39.5901171124
 31
0.0
 11
-3.793063695
 21
39.5933888655
 31
0.0
 11
-5.1187851415
 21
39.5980893739
 31
0.0
 11
-6.3699140539
 21
39.6041500939
 31
0.0
 11
-7.5282061555
 21
39.6114826463
 31
0.0
 11
-8.576770939
 21
39.6199801062
 31
0.0
 11
-9.1120287452
 21
39.6253484883
 31
0.0
  0
SPLINE
  5
318
100
AcDbEntity
  8
0
100
AcDbSpline
 62
7
  6
CONTINUOUS
 70
0
 71
3
 72
11
 73
7
 74
5
 42
0.0000001
 43
0.0000001
 44
0.0000000001
 12
-2.2335997391
 22
0.0235491799
 32
0.0
 13
-1.959054677
 23
0.1088717659
 33
0.0
 40
0.0
 40
0.0
 40
0.0
 40
0.0
 40
0.1734528689
 40
0.5248391968
 40
0.8091358473
 40
1.0
 40
1.0
 40
1.0
 40
1.0
 10
-9.1120287452
 20
39.6253484883
 30
0.0
 10
-9.2411701728
 20
39.6267100459
 30
0.0
 10
-9.6325674367
 20
39.6309420842
 30
0.0
 10
-10.2422434704
 20
39.637625239
 30
0.0
 10
-10.8334849
 20
39.6520248484
 30
0.0
 10
-11.229773983
 20
39.6533090835
 30
0.0
 10
-11.3544117534
 20
39.6602356559
 30
0.0
 11
-9.1120287452
 21
39.6253484883
 31
0.0
 11
-9.5003179689
 21
39.6295185613
 31
0.0
 11
-10.2853798497
 21
39.6399589196
 31
0.0
 11
-10.9205086115
 21
39.6511489371
 31
0.0
 11
-11.3544117534
 21
39.6602356559
 31
0.0
  0
SPLINE
  5
319
100
AcDbEntity
  8
0
100
AcDbSpline
 62
7
  6
CONTINUOUS
 70
0
 71
3
 72
10
 73
6
 74
4
 42
0.0000001
 43
0.0000001
 44
0.0000000001
 12
-0.4332342452
 22
0.0240763966
 32
0.0
 13
0.1924810723
 23
0.1825707544
 33
0.0
 40
0.0
 40
0.0
 40
0.0
 40
0.0
 40
0.1004131337
 40
0.7278680655
 40
1.0
 40
1.0
 40
1.0
 40
1.0
 10
-11.3544117534
 20
39.6602356559
 30
0.0
 10
-11.3689125561
 20
39.6610415181
 30
0.0
 10
-11.4706355479
 20
39.6675120022
 30
0.0
 10
-11.5716733323
 20
39.6835228823
 30
0.0
 10
-11.8653781131
 20
39.6689530881
 30
0.0
 10
-11.8479180309
 20
39.685514199
 30
0.0
 11
-11.3544117534
 21
39.6602356559
 31
0.0
 11
-11.3964426467
 21
39.6629254381
 31
0.0
 11
-11.7062417654
 21
39.6751166948
 31
0.0
 11
-11.8479180309
 21
39.685514199
 31
0.0
  0
SPLINE
  5
31A
100
AcDbEntity
  8
0
100
AcDbSpline
 62
7
  6
CONTINUOUS
 70
0
 71
3
 72
10
 73
6
 74
4
 42
0.0000001
 43
0.0000001
 44
0.0000000001
 12
-0.6110441195
 22
-0.0634423061
 32
0.0
 13
-0.6140763512
 23
-0.0148657956
 33
0.0
 40
0.0
 40
0.0
 40
0.0
 40
0.0
 40
0.3204280554
 40
0.9154349175
 40
1.0
 40
1.0
 40
1.0
 40
1.0
 10
10.0610238854
 20
41.4839174634
 30
0.0
 10
9.9957586591
 20
41.4771412318
 30
0.0
 10
9.8082311112
 20
41.470364889
 30
0.0
 10
9.603624124
 20
41.4640263267
 30
0.0
 10
9.4645268785
 20
41.4605621336
 30
0.0
 10
9.4472170727
 20
41.4601430912
 30
0.0
 11
10.0610238854
 21
41.4839174634
 31
0.0
 11
9.8645061336
 21
41.4725167193
 31
0.0
 11
9.4991442465
 21
41.4614373521
 31
0.0
 11
9.4472170727
 21
41.4601430912
 31
0.0
  0
SPLINE
  5
31B
100
AcDbEntity
  8
0
100
AcDbSpline
 62
7
  6
CONTINUOUS
 70
0
 71
3
 72
10
 73
6
 74
4
 42
0.0000001
 43
0.0000001
 44
0.0000000001
 12
-1.8438243975
 22
-0.0446360076
 32
0.0
 13
-1.8445039885
 23
-0.0183161495
 33
0.0
 40
0.0
 40
0.0
 40
0.0
 40
0.0
 40
0.2581124071
 40
0.627619031
 40
1.0
 40
1.0
 40
1.0
 40
1.0
 10
9.4472170727
 20
41.4601430912
 30
0.0
 10
9.2885790882
 20
41.4563027221
 30
0.0
 10
8.9026925724
 20
41.44942298
 30
0.0
 10
8.287918967
 20
41.4405799048
 30
0.0
 10
7.8317849637
 20
41.4355792686
 30
0.0
 10
7.6028322362
 20
41.4333057401
 30
0.0
 11
9.4472170727
 21
41.4601430912
 31
0.0
 11
8.9711896671
 21
41.4508689326
 31
0.0
 11
8.2896758447
 21
41.4409922897
 31
0.0
 11
7.6028322362
 21
41.4333057401
 31
0.0
  0
SPLINE
  5
31C
100
AcDbEntity
  8
0
100
AcDbSpline
 62
7
  6
CONTINUOUS
 70
0
 71
3
 72
21
 73
17
 74
15
 42
0.0000001
 43
0.0000001
 44
0.0000000001
 12
-15.2125782679
 22
-0.1510627574
 32
0.0
 13
-15.2580559059
 23
0.140838638
 33
0.0
 40
0.0
 40
0.0
 40
0.0
 40
0.0
 40
0.008977333
 40
0.0715055219
 40
0.1413643262
 40
0.2173586628
 40
0.2981884178
 40
0.3824707133
 40
0.46876358
 40
0.5555906391
 40
0.6414663692
 40
0.7249215303
 40
0.8045283096
 40
0.8789247611
 40
0.9468381229
 40
1.0
 40
1.0
 40
1.0
 40
1.0
 10
7.6028322362
 20
41.4333057401
 30
0.0
 10
7.5573094425
 20
41.4328536932
 30
0.0
 10
7.1947143283
 20
41.4293275501
 30
0.0
 10
6.47787205
 20
41.4233747128
 30
0.0
 10
5.4211744343
 20
41.4166613131
 30
0.0
 10
4.2716615652
 20
41.411171755
 30
0.0
 10
3.0489996063
 20
41.4070221656
 30
0.0
 10
1.7741092753
 20
41.4042841419
 30
0.0
 10
0.4688031519
 20
41.4030082398
 30
0.0
 10
-0.8445814163
 20
41.4032178775
 30
0.0
 10
-2.1435841674
 20
41.4049064331
 30
0.0
 10
-3.4059355786
 20
41.4080540863
 30
0.0
 10
-4.610188709
 20
41.4125664446
 30
0.0
 10
-5.7352199633
 20
41.4184880852
 30
0.0
 10
-6.7274190889
 20
41.4250495879
 30
0.0
 10
-7.3394190166
 20
41.430924085
 30
0.0
 10
-7.6098013144
 20
41.4334198338
 30
0.0
 11
7.6028322362
 21
41.4333057401
 31
0.0
 11
7.4662636698
 21
41.4319764153
 31
0.0
 11
6.515041953
 21
41.4239755735
 31
0.0
 11
5.4522863615
 21
41.417126661
 31
0.0
 11
4.2961809383
 21
41.4115468646
 31
0.0
 11
3.0665069675
 21
41.4073316561
 31
0.0
 11
1.7843045119
 21
41.4045531589
 31
0.0
 11
0.4715124109
 21
41.4032589139
 31
0.0
 11
-0.8494070987
 21
41.4034710659
 31
0.0
 11
-2.1558527179
 21
41.4051859851
 31
0.0
 11
-3.4254707998
 21
41.4083743286
 31
0.0
 11
-4.6365378271
 21
41.4129815429
 31
0.0
 11
-5.7683321071
 21
41.4189287975
 31
0.0
 11
-6.8014883261
 21
41.4261143331
 31
0.0
 11
-7.6098013144
 21
41.4334198338
 31
0.0
  0
SPLINE
  5
31D
100
AcDbEntity
  8
0
100
AcDbSpline
 62
7
  6
CONTINUOUS
 70
0
 71
3
 72
11
 73
7
 74
5
 42
0.0000001
 43
0.0000001
 44
0.0000000001
 12
-1.8340976207
 22
0.0169295363
 32
0.0
 13
-1.8281624308
 23
0.0419415129
 33
0.0
 40
0.0
 40
0.0
 40
0.0
 40
0.0
 40
0.0591207265
 40
0.4883265069
 40
0.8380187783
 40
1.0
 40
1.0
 40
1.0
 40
1.0
 10
-7.6098013144
 20
41.4334198338
 30
0.0
 10
-7.645945709
 20
41.4337534626
 30
0.0
 10
-7.9447375641
 20
41.4364968318
 30
0.0
 10
-8.4615819739
 20
41.4409087517
 30
0.0
 10
-9.0122072219
 20
41.4552586835
 30
0.0
 10
-9.3555664648
 20
41.4537633574
 30
0.0
 10
-9.4542757928
 20
41.4560279365
 30
0.0
 11
-7.6098013144
 21
41.4334198338
 31
0.0
 11
-7.7183288945
 21
41.4344152032
 31
0.0
 11
-8.5031664162
 21
41.4436893775
 31
0.0
 11
-9.1425721034
 21
41.4537781726
 31
0.0
 11
-9.4542757928
 21
41.4560279365
 31
0.0
  0
SPLINE
  5
31E
100
AcDbEntity
  8
0
100
AcDbSpline
 62
7
  6
CONTINUOUS
 70
0
 71
3
 72
10
 73
6
 74
4
 42
0.0000001
 43
0.0000001
 44
0.0000000001
 12
-0.6064146038
 22
0.0177600952
 32
0.0
 13
0.2549729346
 23
0.2905058201
 33
0.0
 40
0.0
 40
0.0
 40
0.0
 40
0.0
 40
0.2553339676
 40
0.7695191559
 40
1.0
 40
1.0
 40
1.0
 40
1.0
 10
-9.4827015806
 20
41.4567674588
 30
0.0
 10
-9.5343143295
 20
41.458279044
 30
0.0
 10
-9.6800768052
 20
41.465494415
 30
0.0
 10
-9.8052918787
 20
41.4918871933
 30
0.0
 10
-10.1149588975
 20
41.4618809954
 30
0.0
 10
-10.0953701051
 20
41.4841996709
 30
0.0
 11
-9.4827015806
 21
41.4567674588
 31
0.0
 11
-9.6256055476
 21
41.4645089661
 31
0.0
 11
-9.9440019127
 21
41.4756981514
 31
0.0
 11
-10.0953701051
 21
41.4841996709
 31
0.0
  0
SPLINE
  5
31F
100
AcDbEntity
  8
0
100
AcDbSpline
 62
7
  6
CONTINUOUS
 70
0
 71
3
 72
9
 73
5
 74
3
 42
0.0000001
 43
0.0000001
 44
0.0000000001
 12
-0.4949932315
 22
-0.0513931991
 32
0.0
 13
-0.497409845
 23
-0.0124032724
 33
0.0
 40
0.0
 40
0.0
 40
0.0
 40
0.0
 40
0.3476440517
 40
1.0
 40
1.0
 40
1.0
 40
1.0
 10
8.3171726152
 20
43.2851279727
 30
0.0
 10
8.259812131
 20
43.2791724594
 30
0.0
 10
8.0938484024
 20
43.2734837276
 30
0.0
 10
7.9281008305
 20
43.2684613084
 30
0.0
 10
7.8199380735
 20
43.2657641922
 30
0.0
 11
8.3171726152
 21
43.2851279727
 31
0.0
 11
8.1444456488
 21
43.27529768
 31
0.0
 11
7.8199380735
 21
43.2657641922
 31
0.0
  0
SPLINE
  5
320
100
AcDbEntity
  8
0
100
AcDbSpline
 62
7
  6
CONTINUOUS
 70
0
 71
3
 72
25
 73
21
 74
19
 42
0.0000001
 43
0.0000001
 44
0.0000000001
 12
-15.657470312
 22
-0.3904302895
 32
0.0
 13
-14.172878777
 23
0.8339060401
 33
0.0
 40
0.0
 40
0.0
 40
0.0
 40
0.0
 40
0.0300239861
 40
0.0687901104
 40
0.1155769528
 40
0.1695133636
 40
0.2295948679
 40
0.2947024467
 40
0.3636234144
 40
0.4350740258
 40
0.5077234009
 40
0.5802183233
 40
0.6512084547
 40
0.7193714949
 40
0.7834378218
 40
0.8422141537
 40
0.8946057972
 40
0.9396370778
 40
0.9764695988
 40
1.0
 40
1.0
 40
1.0
 40
1.0
 10
7.8199380735
 20
43.2657641922
 30
0.0
 10
7.6632381831
 20
43.2618567677
 30
0.0
 10
7.3040370473
 20
43.2556898892
 30
0.0
 10
6.7006085994
 20
43.2473704505
 30
0.0
 10
5.9722606621
 20
43.2400404798
 30
0.0
 10
5.1326115251
 20
43.2334916865
 30
0.0
 10
4.1972831259
 20
43.2280008065
 30
0.0
 10
3.1837042587
 20
43.2236388705
 30
0.0
 10
2.1107540741
 20
43.220507518
 30
0.0
 10
0.9984192967
 20
43.2186648651
 30
0.0
 10
-0.1325769572
 20
43.2181492612
 30
0.0
 10
-1.2611765181
 20
43.2189674022
 30
0.0
 10
-2.3663189391
 20
43.2211146724
 30
0.0
 10
-3.4275484365
 20
43.2245081993
 30
0.0
 10
-4.4246464512
 20
43.2292192732
 30
0.0
 10
-5.3405357157
 20
43.234689904
 30
0.0
 10
-6.1533719336
 20
43.2422825805
 30
0.0
 10
-6.8625829469
 20
43.2473297054
 30
0.0
 10
-7.3911544351
 20
43.2619431832
 30
0.0
 10
-7.7431087971
 20
43.2566968023
 30
0.0
 10
-7.8542733048
 20
43.2632375168
 30
0.0
 11
7.8199380735
 21
43.2657641922
 31
0.0
 11
7.3496948513
 21
43.2567051002
 31
0.0
 11
6.7424757237
 21
43.2482891578
 31
0.0
 11
6.0095920342
 21
43.240673138
 31
0.0
 11
5.1646960192
 21
43.2339989128
 31
0.0
 11
4.2235264929
 21
43.2283908105
 31
0.0
 11
3.2036156629
 21
43.2239532994
 31
0.0
 11
2.123962538
 21
43.2207690419
 31
0.0
 11
1.0046790133
 21
43.2188973547
 31
0.0
 11
-0.1333847769
 21
43.2183731038
 31
0.0
 11
-1.2690288576
 21
43.219206055
 31
0.0
 11
-2.3810983281
 21
43.2213806921
 31
0.0
 11
-3.4488774385
 21
43.2248565055
 31
0.0
 11
-4.4524754842
 21
43.2295687475
 31
0.0
 11
-5.3731973325
 21
43.235429638
 31
0.0
 11
-6.1938916774
 21
43.2423299997
 31
0.0
 11
-6.8992705361
 21
43.2501412918
 31
0.0
 11
-7.476194035
 21
43.2587180047
 31
0.0
 11
-7.8542733048
 21
43.2632375168
 31
0.0
  0
SPLINE
  5
321
100
AcDbEntity
  8
0
100
AcDbSpline
 62
7
  6
CONTINUOUS
 70
0
 71
3
 72
10
 73
6
 74
4
 42
0.0000001
 43
0.0000001
 44
0.0000000001
 12
-0.4456446391
 22
0.0262209084
 32
0.0
 13
0.2085404771
 23
0.2721903163
 33
0.0
 40
0.0
 40
0.0
 40
0.0
 40
0.0
 40
0.1405087914
 40
0.7303250887
 40
1.0
 40
1.0
 40
1.0
 40
1.0
 10
-7.8542733048
 20
43.2632375168
 30
0.0
 10
-7.8751456347
 20
43.2644656062
 30
0.0
 10
-7.9788638587
 20
43.2724221443
 30
0.0
 10
-8.0787244703
 20
43.2971226375
 30
0.0
 10
-8.3632824748
 20
43.2599291421
 30
0.0
 10
-8.3445364299
 20
43.2843967752
 30
0.0
 11
-7.8542733048
 21
43.2632375168
 31
0.0
 11
-7.9139151811
 21
43.2679003706
 31
0.0
 11
-8.2042800574
 21
43.2775173394
 31
0.0
 11
-8.3445364299
 21
43.2843967752
 31
0.0
  0
SPLINE
  5
322
100
AcDbEntity
  8
RACCORDO
100
AcDbSpline
 62
7
  6
CONTINUOUS
 70
0
 71
3
 72
12
 73
8
 74
6
 42
0.0000001
 43
0.0000001
 44
0.0000000001
 12
0.0
 22
0.3937476244
 32
0.0
 13
0.3803455656
 23
0.101855395
 33
0.0
 40
0.0
 40
0.0
 40
0.0
 40
0.0
 40
0.2695218601
 40
0.5088181562
 40
0.7148600232
 40
0.8832964785
 40
1.0
 40
1.0
 40
1.0
 40
1.0
 10
-4.10348916
 20
45.4303088123
 30
0.0
 10
-4.10348916
 20
45.465683343
 30
0.0
 10
-4.0914186157
 20
45.5330953158
 30
0.0
 10
-4.044596738
 20
45.6161022291
 30
0.0
 10
-3.9857708459
 20
45.6726008043
 30
0.0
 10
-3.9293639742
 20
45.7048732895
 30
0.0
 10
-3.8938736153
 20
45.7172153192
 30
0.0
 10
-3.8790777264
 20
45.7211776136
 30
0.0
 11
-4.10348916
 21
45.4303088123
 31
0.0
 11
-4.0847374887
 21
45.5347625898
 31
0.0
 11
-4.0385168214
 21
45.6168692327
 31
0.0
 11
-3.9800131001
 21
45.6730755259
 31
0.0
 11
-3.9224651089
 21
45.7060416295
 31
0.0
 11
-3.8790777264
 21
45.7211776136
 31
0.0
  0
SPLINE
  5
323
100
AcDbEntity
  8
0
100
AcDbSpline
 62
7
  6
CONTINUOUS
 70
0
 71
3
 72
10
 73
6
 74
4
 42
0.0000001
 43
0.0000001
 44
0.0000000001
 12
-0.4588125971
 22
-0.0332205705
 32
0.0
 13
-0.4600802146
 23
-0.0072432562
 33
0.0
 40
0.0
 40
0.0
 40
0.0
 40
0.0
 40
0.1889443024
 40
0.66859188
 40
1.0
 40
1.0
 40
1.0
 40
1.0
 10
4.0567514259
 20
45.0859492336
 30
0.0
 10
4.0278547505
 20
45.0838569544
 30
0.0
 10
3.9252259376
 20
45.0811931615
 30
0.0
 10
3.7719816933
 20
45.0769632946
 30
0.0
 10
3.647612819
 20
45.0747199806
 30
0.0
 10
3.596788046
 20
45.0739198226
 30
0.0
 11
4.0567514259
 21
45.0859492336
 31
0.0
 11
3.9698625257
 21
45.0823382583
 31
0.0
 11
3.7492371305
 21
45.0767515209
 31
0.0
 11
3.596788046
 21
45.0739198226
 31
0.0
  0
SPLINE
  5
324
100
AcDbEntity
  8
0
100
AcDbSpline
 62
7
  6
CONTINUOUS
 70
0
 71
3
 72
21
 73
17
 74
15
 42
0.0000001
 43
0.0000001
 44
0.0000000001
 12
-7.1960755114
 22
-0.1132911539
 32
0.0
 13
-7.2884570897
 23
-0.0635106829
 33
0.0
 40
0.0
 40
0.0
 40
0.0
 40
0.0
 40
0.0236974308
 40
0.0815807882
 40
0.1508835131
 40
0.2297157122
 40
0.3159273872
 40
0.4071671655
 40
0.5009464801
 40
0.5947074746
 40
0.6858927923
 40
0.7720153521
 40
0.8507262132
 40
0.9198786886
 40
0.9775869869
 40
1.0
 40
1.0
 40
1.0
 40
1.0
 10
3.596788046
 20
45.0739198226
 30
0.0
 10
3.5399452123
 20
45.0730249195
 30
0.0
 10
3.3442322017
 20
45.0704457464
 30
0.0
 10
2.9823186092
 20
45.0663625123
 30
0.0
 10
2.4881059808
 20
45.0625658996
 30
0.0
 10
1.9259414895
 20
45.0594067398
 30
0.0
 10
1.3111444496
 20
45.0571057468
 30
0.0
 10
0.6604873811
 20
45.0556908241
 30
0.0
 10
-0.0082750248
 20
45.0552310313
 30
0.0
 10
-0.676930838
 20
45.0556780264
 30
0.0
 10
-1.3271305856
 20
45.0572322432
 30
0.0
 10
-1.9415230937
 20
45.0591072609
 30
0.0
 10
-2.5020726228
 20
45.0637035941
 30
0.0
 10
-2.9975094235
 20
45.0631415975
 30
0.0
 10
-3.3498946779
 20
45.0779824531
 30
0.0
 10
-3.5492470823
 20
45.0669360652
 30
0.0
 10
-3.6036991771
 20
45.0664615766
 30
0.0
 11
3.596788046
 21
45.0739198226
 31
0.0
 11
3.4262471448
 21
45.0715578726
 31
0.0
 11
3.0097028933
 21
45.0668989824
 31
0.0
 11
2.5109666175
 21
45.0629019328
 31
0.0
 11
1.9436425427
 21
45.0596757529
 31
0.0
 11
1.3232057908
 21
45.0573084444
 31
0.0
 11
0.6665802592
 21
45.0558645814
 31
0.0
 11
-0.0083230195
 21
45.0553835487
 31
0.0
 11
-0.6830944431
 21
45.0558784675
 31
0.0
 11
-1.3393280062
 21
45.0573358379
 31
0.0
 11
-1.9591233678
 21
45.0597159065
 31
0.0
 11
-2.5255741261
 21
45.0629537513
 31
0.0
 11
-3.0232289812
 21
45.0669610522
 31
0.0
 11
-3.4385132059
 21
45.0716285007
 31
0.0
 11
-3.6036991771
 21
45.0664615766
 31
0.0
  0
SPLINE
  5
325
100
AcDbEntity
  8
0
100
AcDbSpline
 62
7
  6
CONTINUOUS
 70
0
 71
3
 72
11
 73
7
 74
5
 42
0.0000001
 43
0.0000001
 44
0.0000000001
 12
-0.4991993936
 22
-0.0043499597
 32
0.0
 13
-0.0244396931
 23
0.589195444
 33
0.0
 40
0.0
 40
0.0
 40
0.0
 40
0.0
 40
0.3252634215
 40
0.7699364762
 40
0.9947642317
 40
1.0
 40
1.0
 40
1.0
 40
1.0
 10
-3.6036991771
 20
45.0664615766
 30
0.0
 10
-3.6578229447
 20
45.065989949
 30
0.0
 10
-3.7828661899
 20
45.0709905686
 30
0.0
 10
-3.9199952535
 20
45.1253312845
 30
0.0
 10
-4.0790619548
 20
45.0367200304
 30
0.0
 10
-4.090421149
 20
45.0906613707
 30
0.0
 10
-4.0904638025
 20
45.0916896677
 30
0.0
 11
-3.6036991771
 21
45.0664615766
 31
0.0
 11
-3.760098929
 21
45.0768287808
 31
0.0
 11
-3.9792141303
 21
45.0824200425
 31
0.0
 11
-4.0898819184
 21
45.0882497706
 31
0.0
 11
-4.0904638025
 21
45.0916896677
 31
0.0
  0
SPLINE
  5
326
100
AcDbEntity
  8
RACCORDO
100
AcDbSpline
 62
7
  6
CONTINUOUS
 70
0
 71
3
 72
12
 73
8
 74
6
 42
0.0000001
 43
0.0000001
 44
0.0000000001
 12
0.0
 22
0.3962797675
 32
0.0
 13
0.3827914691
 23
0.1025103989
 33
0.0
 40
0.0
 40
0.0
 40
0.0
 40
0.0
 40
0.2720919087
 40
0.5342615814
 40
0.7460684535
 40
0.8969999806
 40
1.0
 40
1.0
 40
1.0
 40
1.0
 10
-8.35348916
 20
43.7313354007
 30
0.0
 10
-8.35348916
 20
43.7672769068
 30
0.0
 10
-8.3405561628
 20
43.83850719
 30
0.0
 10
-8.2893155572
 20
43.924957808
 30
0.0
 10
-8.2266131253
 20
43.9803129052
 30
0.0
 10
-8.1718664831
 20
44.0092093989
 30
0.0
 10
-8.1399655639
 20
44.01989259
 30
0.0
 10
-8.1268230543
 20
44.0234121144
 30
0.0
 11
-8.35348916
 21
43.7313354007
 31
0.0
 11
-8.3341531515
 21
43.8374120029
 31
0.0
 11
-8.2812657917
 21
43.9268356374
 31
0.0
 11
-8.2183765802
 21
43.9824233522
 31
0.0
 11
-8.165507369
 21
44.010391467
 31
0.0
 11
-8.1268230543
 21
44.0234121144
 31
0.0
  0
SPLINE
  5
327
100
AcDbEntity
  8
RACCORDO
100
AcDbSpline
 62
7
  6
CONTINUOUS
 70
0
 71
3
 72
11
 73
7
 74
5
 42
0.0000001
 43
0.0000001
 44
0.0000000001
 12
0.328583962
 22
-0.1353562883
 32
0.0
 13
-0.0
 23
-0.3549726615
 33
0.0
 40
0.0
 40
0.0
 40
0.0
 40
0.0
 40
0.1695055152
 40
0.4046880996
 40
0.6938655684
 40
1.0
 40
1.0
 40
1.0
 40
1.0
 10
8.1589892198
 20
44.0102023017
 30
0.0
 10
8.1775548178
 20
44.0025544225
 30
0.0
 10
8.2201201866
 20
43.9799666378
 30
0.0
 10
8.2823594435
 20
43.9247837553
 30
0.0
 10
8.3334908369
 20
43.8386719751
 30
0.0
 10
8.34651084
 20
43.7675585187
 30
0.0
 10
8.34651084
 20
43.7313354007
 30
0.0
 11
8.1589892198
 21
44.0102023017
 31
0.0
 11
8.2121130783
 21
43.9819487467
 31
0.0
 11
8.2745487156
 21
43.9265297314
 31
0.0
 11
8.3268706614
 21
43.8382152018
 31
0.0
 11
8.34651084
 21
43.7313354007
 31
0.0
  0
SPLINE
  5
328
100
AcDbEntity
  8
RACCORDO
100
AcDbSpline
 62
7
  6
CONTINUOUS
 70
0
 71
3
 72
12
 73
8
 74
6
 42
0.0000001
 43
0.0000001
 44
0.0000000001
 12
0.0
 22
0.3973331911
 32
0.0
 13
0.3838090165
 23
0.1027828735
 33
0.0
 40
0.0
 40
0.0
 40
0.0
 40
0.0
 40
0.2763083294
 40
0.5421495523
 40
0.7514615345
 40
0.9005482995
 40
1.0
 40
1.0
 40
1.0
 40
1.0
 10
-10.10348916
 20
41.9581978382
 30
0.0
 10
-10.10348916
 20
41.9947933283
 30
0.0
 10
-10.0900875556
 20
42.0672908288
 30
0.0
 10
-10.0374852567
 20
42.1541698626
 30
0.0
 10
-9.9741211463
 20
42.2089235761
 30
0.0
 10
-9.9199492734
 20
42.2369857486
 30
0.0
 10
-9.888618139
 20
42.2473646189
 30
0.0
 10
-9.8758946526
 20
42.2507719295
 30
0.0
 11
-10.10348916
 21
41.9581978382
 31
0.0
 11
-10.0834523345
 21
42.0661403909
 31
0.0
 11
-10.0288421856
 21
42.156555595
 31
0.0
 11
-9.9659528082
 21
42.2109762639
 31
0.0
 11
-9.9133840409
 21
42.2382812288
 31
0.0
 11
-9.8758946526
 21
42.2507719295
 31
0.0
  0
SPLINE
  5
329
100
AcDbEntity
  8
RACCORDO
100
AcDbSpline
 62
7
  6
CONTINUOUS
 70
0
 71
3
 72
12
 73
8
 74
6
 42
0.0000001
 43
0.0000001
 44
0.0000000001
 12
0.32398267
 22
-0.1383150842
 32
0.0
 13
0.0
 23
-0.3519819806
 33
0.0
 40
0.0
 40
0.0
 40
0.0
 40
0.0
 40
0.0913159072
 40
0.262164853
 40
0.4834490979
 40
0.7359638037
 40
1.0
 40
1.0
 40
1.0
 40
1.0
 10
9.9122346847
 20
42.2358614949
 30
0.0
 10
9.9220962752
 20
42.2316513724
 30
0.0
 10
9.9497914735
 20
42.218106531
 30
0.0
 10
9.9967221983
 20
42.1855996052
 30
0.0
 10
10.0480975121
 20
42.1289123475
 30
0.0
 10
10.0869920442
 20
42.0502051897
 30
0.0
 10
10.09651084
 20
41.9891764993
 30
0.0
 10
10.09651084
 20
41.9581978382
 30
0.0
 11
9.9122346847
 21
42.2358614949
 31
0.0
 11
9.9411171288
 21
42.221720269
 31
0.0
 11
9.9905325066
 21
42.1874503272
 31
0.0
 11
10.042820157
 21
42.1297220623
 31
0.0
 11
10.0821522926
 21
42.0500179292
 31
0.0
 11
10.09651084
 21
41.9581978382
 31
0.0
  0
SPLINE
  5
32A
100
AcDbEntity
  8
RACCORDO
100
AcDbSpline
 62
7
  6
CONTINUOUS
 70
0
 71
3
 72
12
 73
8
 74
6
 42
0.0000001
 43
0.0000001
 44
0.0000000001
 12
0.0
 22
0.3983933261
 32
0.0
 13
0.3848330703
 23
0.1030571464
 33
0.0
 40
0.0
 40
0.0
 40
0.0
 40
0.0
 40
0.281405596
 40
0.5480474767
 40
0.7548966712
 40
0.9031005583
 40
1.0
 40
1.0
 40
1.0
 40
1.0
 10
-11.85348916
 20
40.1180755282
 30
0.0
 10
-11.85348916
 20
40.1554455654
 30
0.0
 10
-11.8396073373
 20
40.2289614057
 30
0.0
 10
-11.7858558641
 20
40.3160212792
 30
0.0
 10
-11.7221677965
 20
40.3701738447
 30
0.0
 10
-11.6683961956
 20
40.39763745
 30
0.0
 10
-11.6373963087
 20
40.4078182648
 30
0.0
 10
-11.6249662721
 20
40.4111469914
 30
0.0
 11
-11.85348916
 21
40.1180755282
 31
0.0
 11
-11.8326048776
 21
40.2282232646
 31
0.0
 11
-11.7769076709
 21
40.3186792352
 31
0.0
 11
-11.7141675946
 21
40.3721081812
 31
0.0
 11
-11.6616200378
 21
40.3990318144
 31
0.0
 11
-11.6249662721
 21
40.4111469914
 31
0.0
  0
SPLINE
  5
32B
100
AcDbEntity
  8
RACCORDO
100
AcDbSpline
 62
7
  6
CONTINUOUS
 70
0
 71
3
 72
9
 73
5
 74
3
 42
0.0000001
 43
0.0000001
 44
0.0000000001
 12
0.0432892394
 22
-0.0115927271
 32
0.0
 13
0.0413373781
 23
-0.0173988608
 33
0.0
 40
0.0
 40
0.0
 40
0.0
 40
0.0
 40
0.6987087279
 40
1.0
 40
1.0
 40
1.0
 40
1.0
 10
11.6179879452
 20
40.4111469933
 30
0.0
 10
11.628070135
 20
40.4084470134
 30
0.0
 10
11.6423342376
 20
40.4039305377
 30
0.0
 10
11.6562365846
 20
40.3984262904
 30
0.0
 10
11.660388115
 20
40.3966789155
 30
0.0
 11
11.6179879452
 21
40.4111469933
 31
0.0
 11
11.6478264341
 21
40.4016533874
 31
0.0
 11
11.660388115
 21
40.3966789155
 31
0.0
  0
SPLINE
  5
32C
100
AcDbEntity
  8
RACCORDO
100
AcDbSpline
 62
7
  6
CONTINUOUS
 70
0
 71
3
 72
12
 73
8
 74
6
 42
0.0000001
 43
0.0000001
 44
0.0000000001
 12
0.3265931264
 22
-0.1374627181
 32
0.0
 13
0.0
 23
-0.3540656042
 33
0.0
 40
0.0
 40
0.0
 40
0.0
 40
0.0
 40
0.0897665173
 40
0.2597663237
 40
0.4777248829
 40
0.7318453846
 40
1.0
 40
1.0
 40
1.0
 40
1.0
 10
11.660388115
 20
40.3966789155
 30
0.0
 10
11.6701604908
 20
40.3925657323
 30
0.0
 10
11.6978445066
 20
40.3792360511
 30
0.0
 10
11.7447279422
 20
40.3472631738
 30
0.0
 10
11.7966824724
 20
40.2909377983
 30
0.0
 10
11.8366173284
 20
40.2118135411
 30
0.0
 10
11.84651084
 20
40.1497236369
 30
0.0
 10
11.84651084
 20
40.1180755282
 30
0.0
 11
11.660388115
 21
40.3966789155
 31
0.0
 11
11.6890322047
 21
40.382868824
 31
0.0
 11
11.7387383468
 21
40.3489237796
 31
0.0
 11
11.7910426504
 21
40.2921812017
 31
0.0
 11
11.8315318649
 21
40.2118308231
 31
0.0
 11
11.84651084
 21
40.1180755282
 31
0.0
  0
SPLINE
  5
32D
100
AcDbEntity
  8
RACCORDO
100
AcDbSpline
 62
7
  6
CONTINUOUS
 70
0
 71
3
 72
14
 73
10
 74
8
 42
0.0000001
 43
0.0000001
 44
0.0000000001
 12
0.0
 22
1.3148850204
 32
0.0
 13
1.2701297773
 23
0.3401367546
 33
0.0
 40
0.0
 40
0.0
 40
0.0
 40
0.0
 40
0.1872667316
 40
0.3761372101
 40
0.5492855898
 40
0.6994615885
 40
0.8264924216
 40
0.9256862475
 40
1.0
 40
1.0
 40
1.0
 40
1.0
 10
-14.00348916
 20
37.7140508799
 30
0.0
 10
-14.00348916
 20
37.7961289533
 30
0.0
 10
-13.9830111172
 20
37.9616989597
 30
0.0
 10
-13.8948134615
 20
38.1883013438
 30
0.0
 10
-13.7652158349
 20
38.3740252548
 30
0.0
 10
-13.6197191031
 20
38.5092961593
 30
0.0
 10
-13.479937205
 20
38.5983577437
 30
0.0
 10
-13.3593246163
 20
38.6521875298
 30
0.0
 10
-13.286736916
 20
38.6752826759
 30
0.0
 10
-13.2552742127
 20
38.6837082887
 30
0.0
 11
-14.00348916
 21
37.7140508799
 31
0.0
 11
-13.9732039638
 21
37.9584155625
 31
0.0
 11
-13.8831786967
 21
38.1898668069
 31
0.0
 11
-13.7529081396
 21
38.3765839909
 31
0.0
 11
-13.608312528
 21
38.5110615281
 31
0.0
 11
-13.4674626574
 21
38.6008426438
 31
0.0
 11
-13.3483737848
 21
38.6540350092
 31
0.0
 11
-13.2552742127
 21
38.6837082887
 31
0.0
  0
SPLINE
  5
32E
100
AcDbEntity
  8
RACCORDO
100
AcDbSpline
 62
7
  6
CONTINUOUS
 70
0
 71
3
 72
14
 73
10
 74
8
 42
0.0000001
 43
0.0000001
 44
0.0000000001
 12
1.2322693986
 22
-0.3673531197
 32
0.0
 13
-0.0
 23
-1.2854867846
 33
0.0
 40
0.0
 40
0.0
 40
0.0
 40
0.0
 40
0.0537779262
 40
0.1548530856
 40
0.2846323854
 40
0.4389104537
 40
0.6175335003
 40
0.8068807314
 40
1.0
 40
1.0
 40
1.0
 40
1.0
 10
13.2765932265
 20
38.6757037064
 30
0.0
 10
13.2986828574
 20
38.6691185434
 30
0.0
 10
13.3616788401
 20
38.6480442712
 30
0.0
 10
13.4733227183
 20
38.5981412241
 30
0.0
 10
13.6131284679
 20
38.5090207382
 30
0.0
 10
13.7591984841
 20
38.3730710596
 30
0.0
 10
13.8880454828
 20
38.1876391054
 30
0.0
 10
13.9759755374
 20
37.9614187588
 30
0.0
 10
13.99651084
 20
37.7968016358
 30
0.0
 10
13.99651084
 20
37.7140508799
 30
0.0
 11
13.2765932265
 21
38.6757037064
 31
0.0
 11
13.3421656343
 21
38.6537483342
 31
0.0
 11
13.4607702128
 21
38.6006921192
 31
0.0
 11
13.6014305042
 21
38.5109882203
 31
0.0
 11
13.746580187
 21
38.3758462539
 31
0.0
 11
13.8775956285
 21
38.1872748334
 31
0.0
 11
13.9657272045
 21
37.9603871464
 31
0.0
 11
13.99651084
 21
37.7140508799
 31
0.0
  0
SPLINE
  5
32F
100
AcDbEntity
  8
0
100
AcDbSpline
 62
7
  6
CONTINUOUS
 70
0
 71
3
 72
9
 73
5
 74
3
 42
0.0000001
 43
0.0000001
 44
0.0000000001
 12
0.0491746644
 22
0.0051056119
 32
0.0
 13
0.0185255771
 23
0.0155777395
 33
0.0
 40
0.0
 40
0.0
 40
0.0
 40
0.0
 40
0.9237067576
 40
1.0
 40
1.0
 40
1.0
 40
1.0
 10
13.947321002
 20
36.2812650141
 30
0.0
 10
13.9624619919
 20
36.2828370435
 30
0.0
 10
13.9847998226
 20
36.290432716
 30
0.0
 10
13.9920855673
 20
36.295790747
 30
0.0
 10
13.9925566928
 20
36.2961869057
 30
0.0
 11
13.947321002
 21
36.2812650141
 31
0.0
 11
13.9908862481
 21
36.2949601593
 31
0.0
 11
13.9925566928
 21
36.2961869057
 31
0.0
  0
SPLINE
  5
330
100
AcDbEntity
  8
0
100
AcDbSpline
 62
7
  6
CONTINUOUS
 70
0
 71
3
 72
9
 73
5
 74
3
 42
0.0000001
 43
0.0000001
 44
0.0000000001
 12
0.0407982905
 22
0.0042359259
 32
0.0
 13
0.0159780815
 23
0.0151554143
 33
0.0
 40
0.0
 40
0.0
 40
0.0
 40
0.0
 40
0.8723876741
 40
1.0
 40
1.0
 40
1.0
 40
1.0
 10
11.8048751557
 20
39.6827069541
 30
0.0
 10
11.8167391309
 20
39.6839387439
 30
0.0
 10
11.8336716872
 20
39.6912762067
 30
0.0
 10
11.8402600443
 20
39.6965769981
 30
0.0
 10
11.840939711
 20
39.6972216706
 30
0.0
 11
11.8048751557
 21
39.6827069541
 31
0.0
 11
11.8384100788
 21
39.6951909384
 31
0.0
 11
11.840939711
 21
39.6972216706
 31
0.0
  0
SPLINE
  5
331
100
AcDbEntity
  8
0
100
AcDbSpline
 62
7
  6
CONTINUOUS
 70
0
 71
3
 72
9
 73
5
 74
3
 42
0.0000001
 43
0.0000001
 44
0.0000000001
 12
0.0326754433
 22
0.0033925627
 32
0.0
 13
0.0135184629
 23
0.0154023883
 33
0.0
 40
0.0
 40
0.0
 40
0.0
 40
0.0
 40
0.8190131733
 40
1.0
 40
1.0
 40
1.0
 40
1.0
 10
10.0610238854
 20
41.4839174634
 30
0.0
 10
10.0699444249
 20
41.4848436479
 30
0.0
 10
10.0819645332
 20
41.4920330832
 30
0.0
 10
10.0875762306
 20
41.4974699119
 30
0.0
 10
10.0883917852
 20
41.4983991217
 30
0.0
 11
10.0610238854
 21
41.4839174634
 31
0.0
 11
10.0853350286
 21
41.4954445144
 31
0.0
 11
10.0883917852
 21
41.4983991217
 31
0.0
  0
SPLINE
  5
332
100
AcDbEntity
  8
0
100
AcDbSpline
 62
7
  6
CONTINUOUS
 70
0
 71
3
 72
9
 73
5
 74
3
 42
0.0000001
 43
0.0000001
 44
0.0000000001
 12
0.0253114536
 22
0.0026279886
 32
0.0
 13
0.0107738359
 23
0.0140621803
 33
0.0
 40
0.0
 40
0.0
 40
0.0
 40
0.0
 40
0.7987865974
 40
1.0
 40
1.0
 40
1.0
 40
1.0
 10
8.3171726152
 20
43.2851279727
 30
0.0
 10
8.3239120985
 20
43.2858277067
 30
0.0
 10
8.3324464488
 20
43.2921675141
 30
0.0
 10
8.3368354966
 20
43.297121774
 30
0.0
 10
8.33755811
 20
43.2980649404
 30
0.0
 11
8.3171726152
 21
43.2851279727
 31
0.0
 11
8.334901396
 21
43.2950719506
 31
0.0
 11
8.33755811
 21
43.2980649404
 31
0.0
  0
SPLINE
  5
333
100
AcDbEntity
  8
0
100
AcDbSpline
 62
7
  6
CONTINUOUS
 70
0
 71
3
 72
8
 73
4
 74
2
 42
0.0000001
 43
0.0000001
 44
0.0000000001
 12
0.0033639838
 22
0.0003492692
 32
0.0
 13
-0.0001676891
 23
0.0040426721
 33
0.0
 40
0.0
 40
0.0
 40
0.0
 40
0.0
 40
1.0
 40
1.0
 40
1.0
 40
1.0
 10
4.0821052446
 20
45.0881656931
 30
0.0
 10
4.0832265725
 20
45.0882821162
 30
0.0
 10
4.083541379
 20
45.0892874136
 30
0.0
 10
4.0834854826
 20
45.090634971
 30
0.0
 11
4.0821052446
 21
45.0881656931
 31
0.0
 11
4.0834854826
 21
45.090634971
 31
0.0
  0
SPLINE
  5
334
100
AcDbEntity
  8
0
100
AcDbSpline
 62
7
  6
CONTINUOUS
 70
0
 71
3
 72
20
 73
16
 74
14
 42
0.0000001
 43
0.0000001
 44
0.0000000001
 12
-0.1304713812
 22
0.3523357215
 32
0.0
 13
-1.9809257138
 23
-0.2056717207
 33
0.0
 40
0.0
 40
0.0
 40
0.0
 40
0.0
 40
0.0037069687
 40
0.0370160156
 40
0.0972001731
 40
0.1807671839
 40
0.2828622079
 40
0.3975527823
 40
0.5181741517
 40
0.6377167901
 40
0.7492338793
 40
0.8462451545
 40
0.9231137662
 40
0.975374723
 40
1.0
 40
1.0
 40
1.0
 40
1.0
 10
0.9937855045
 20
46.4906296803
 30
0.0
 10
0.9936242867
 20
46.4910650462
 30
0.0
 10
0.9440465297
 20
46.4986600894
 30
0.0
 10
0.9161158281
 20
46.4908936516
 30
0.0
 10
0.7748180777
 20
46.4985598162
 30
0.0
 10
0.6220741381
 20
46.4973101664
 30
0.0
 10
0.4188760928
 20
46.4993451745
 30
0.0
 10
0.1961112712
 20
46.4996718848
 30
0.0
 10
-0.039819213
 20
46.4999345064
 30
0.0
 10
-0.2731887897
 20
46.4995810477
 30
0.0
 10
-0.4910084938
 20
46.4988587251
 30
0.0
 10
-0.6804477241
 20
46.4975315652
 30
0.0
 10
-0.8306073871
 20
46.4964157016
 30
0.0
 10
-0.9325825695
 20
46.4939872795
 30
0.0
 10
-0.9837153186
 20
46.4935281371
 30
0.0
 10
-0.9999756001
 20
46.4918398961
 30
0.0
 11
0.9937855045
 21
46.4906296803
 31
0.0
 11
0.9840848996
 21
46.4924804243
 31
0.0
 11
0.9177783043
 21
46.4945030199
 31
0.0
 11
0.7979309927
 21
46.496328368
 31
0.0
 11
0.6315080549
 21
46.4978503862
 31
0.0
 11
0.428181387
 21
46.4989806201
 31
0.0
 11
0.199767596
 21
46.4996533848
 31
0.0
 11
-0.0404587388
 21
46.4998295816
 31
0.0
 11
-0.2785365361
 21
46.4994989705
 31
0.0
 11
-0.5006295796
 21
46.4986807656
 31
0.0
 11
-0.693830629
 21
46.4974225178
 31
0.0
 11
-0.8469115415
 21
46.495797352
 31
0.0
 11
-0.9509758109
 21
46.4938997168
 31
0.0
 11
-0.9999756001
 21
46.4918398961
 31
0.0
  0
SPLINE
  5
335
100
AcDbEntity
  8
0
100
AcDbSpline
 62
7
  6
CONTINUOUS
 70
0
 71
3
 72
13
 73
9
 74
7
 42
0.0000001
 43
0.0000001
 44
0.0000000001
 12
0.9171831762
 22
2.0837384962
 32
0.0
 13
-2.3809565787
 23
0.017652691
 33
0.0
 40
0.0
 40
0.0
 40
0.0
 40
0.0
 40
0.0517940363
 40
0.1594262276
 40
0.3195435722
 40
0.5285785997
 40
0.781865759
 40
1.0
 40
1.0
 40
1.0
 40
1.0
 10
5.9845560434
 20
44.59673595
 30
0.0
 10
6.0003909163
 20
44.6327110258
 30
0.0
 10
5.7544567101
 20
44.5714213637
 30
0.0
 10
5.5906436147
 20
44.6286431346
 30
0.0
 10
5.1679026599
 20
44.6107014042
 30
0.0
 10
4.6906956471
 20
44.6267778228
 30
0.0
 10
4.1441699514
 20
44.6286576678
 30
0.0
 10
3.769900437
 20
44.6316388467
 30
0.0
 10
3.5967777182
 20
44.6329223988
 30
0.0
 11
5.9845560434
 21
44.59673595
 31
0.0
 11
5.857924895
 21
44.6023698017
 31
0.0
 11
5.6013680456
 21
44.6098683237
 31
0.0
 11
5.219607948
 21
44.6169494099
 31
0.0
 11
4.7211724919
 21
44.6234548803
 31
0.0
 11
4.1171959018
 21
44.6292394136
 31
0.0
 11
3.5967777182
 21
44.6329223988
 31
0.0
  0
SPLINE
  5
336
100
AcDbEntity
  8
0
100
AcDbSpline
 62
7
  6
CONTINUOUS
 70
0
 71
3
 72
13
 73
9
 74
7
 42
0.0000001
 43
0.0000001
 44
0.0000000001
 12
-2.37902984
 22
-0.0156030758
 32
0.0
 13
-2.3663645733
 23
-0.2456903205
 33
0.0
 40
0.0
 40
0.0
 40
0.0
 40
0.0
 40
0.1852721318
 40
0.4441551267
 40
0.6593179106
 40
0.8259577402
 40
0.9403603897
 40
1.0
 40
1.0
 40
1.0
 40
1.0
 10
-3.603775249
 20
44.6330633273
 30
0.0
 10
-3.7506978924
 20
44.6320997223
 30
0.0
 10
-4.1029163801
 20
44.6295709153
 30
0.0
 10
-4.6257616631
 20
44.624914257
 30
0.0
 10
-5.1337800156
 20
44.618533761
 30
0.0
 10
-5.5273002858
 20
44.6124456515
 30
0.0
 10
-5.7972461188
 20
44.6046316338
 30
0.0
 10
-5.9353647805
 20
44.6004509561
 30
0.0
 10
-5.9824078008
 20
44.5955666645
 30
0.0
 11
-3.603775249
 21
44.6330633273
 31
0.0
 11
-4.0445425104
 21
44.6298841948
 31
0.0
 11
-4.660420871
 21
44.6241960307
 31
0.0
 11
-5.1722710726
 21
44.6177703733
 31
0.0
 11
-5.5686592273
 21
44.6107507613
 31
0.0
 11
-5.840730679
 21
44.6032940011
 31
0.0
 11
-5.9824078008
 21
44.5955666645
 31
0.0
  0
SPLINE
  5
337
100
AcDbEntity
  8
RACCORDO
100
AcDbSpline
 62
253
  6
CONTINUOUS
 70
0
 71
3
 72
9
 73
5
 74
3
 42
0.0000001
 43
0.0000001
 44
0.0000000001
 12
0.05469123
 22
0.0056783752
 32
0.0
 13
-0.0383332782
 23
0.0091130098
 33
0.0
 40
0.0
 40
0.0
 40
0.0
 40
0.0
 40
0.6380818544
 40
1.0
 40
1.0
 40
1.0
 40
1.0
 10
9.8394508541
 20
42.2407451346
 30
0.0
 10
9.8510833479
 20
42.2419528907
 30
0.0
 10
9.8792212326
 20
42.2482109178
 30
0.0
 10
9.8744059252
 20
42.2519165772
 30
0.0
 10
9.8697814222
 20
42.2530159651
 30
0.0
 11
9.8394508541
 21
42.2407451346
 31
0.0
 11
9.873575054
 21
42.2488999652
 31
0.0
 11
9.8697814222
 21
42.2530159651
 31
0.0
  0
SPLINE
  5
338
100
AcDbEntity
  8
0
100
AcDbSpline
 62
7
  6
CONTINUOUS
 70
0
 71
3
 72
9
 73
5
 74
3
 42
0.0000001
 43
0.0000001
 44
0.0000000001
 12
0.0213158519
 22
0.002213141
 32
0.0
 13
0.0091310741
 23
0.0145538175
 33
0.0
 40
0.0
 40
0.0
 40
0.0
 40
0.0
 40
0.7946789327
 40
1.0
 40
1.0
 40
1.0
 40
1.0
 10
7.8189293951
 20
42.7855124534
 30
0.0
 10
7.8245758146
 20
42.7860986989
 30
0.0
 10
7.8308795939
 20
42.7923399344
 30
0.0
 10
7.8344621984
 20
42.7974210691
 30
0.0
 10
7.8350871324
 20
42.7984171375
 30
0.0
 11
7.8189293951
 21
42.7855124534
 31
0.0
 11
7.8328763142
 21
42.795285635
 31
0.0
 11
7.8350871324
 21
42.7984171375
 31
0.0
  0
SPLINE
  5
339
100
AcDbEntity
  8
RACCORDO
100
AcDbSpline
 62
253
  6
CONTINUOUS
 70
0
 71
3
 72
9
 73
5
 74
3
 42
0.0000001
 43
0.0000001
 44
0.0000000001
 12
0.0293180068
 22
0.0030439733
 32
0.0
 13
0.013577675
 23
0.0101946771
 33
0.0
 40
0.0
 40
0.0
 40
0.0
 40
0.0
 40
0.8984294044
 40
1.0
 40
1.0
 40
1.0
 40
1.0
 10
8.3171726152
 20
43.7252325156
 30
0.0
 10
8.3259526683
 20
43.726144114
 30
0.0
 10
8.3381949423
 20
43.7308649516
 30
0.0
 10
8.3434115004
 20
43.7343817124
 30
0.0
 10
8.3438711979
 20
43.7347268722
 30
0.0
 11
8.3171726152
 21
43.7252325156
 31
0.0
 11
8.3422793212
 21
43.7336548914
 31
0.0
 11
8.3438711979
 21
43.7347268722
 31
0.0
  0
SPLINE
  5
33A
100
AcDbEntity
  8
RACCORDO
100
AcDbSpline
 62
253
  6
CONTINUOUS
 70
0
 71
3
 72
8
 73
4
 74
2
 42
0.0000001
 43
0.0000001
 44
0.0000000001
 12
0.0254579146
 22
0.0026431951
 32
0.0
 13
0.0156794605
 23
0.0095187656
 33
0.0
 40
0.0
 40
0.0
 40
0.0
 40
0.0
 40
1.0
 40
1.0
 40
1.0
 40
1.0
 10
8.0955995838
 20
44.0151617449
 30
0.0
 10
8.1040855553
 20
44.01604281
 30
0.0
 10
8.1147008524
 20
44.0201192327
 30
0.0
 10
8.1199273392
 20
44.0232921545
 30
0.0
 11
8.0955995838
 21
44.0151617449
 31
0.0
 11
8.1199273392
 21
44.0232921545
 31
0.0
  0
SPLINE
  5
33B
100
AcDbEntity
  8
0
100
AcDbSpline
 62
7
  6
CONTINUOUS
 70
0
 71
3
 72
8
 73
4
 74
2
 42
0.0000001
 43
0.0000001
 44
0.0000000001
 12
0.0019040284
 22
0.0001976878
 32
0.0
 13
-0.0002242887
 23
0.0015281637
 33
0.0
 40
0.0
 40
0.0
 40
0.0
 40
0.0
 40
1.0
 40
1.0
 40
1.0
 40
1.0
 10
3.5838620245
 20
44.5885501738
 30
0.0
 10
3.5844967007
 20
44.5886160697
 30
0.0
 10
3.5847075411
 20
44.5889511892
 30
0.0
 10
3.5846327782
 20
44.5894605771
 30
0.0
 11
3.5838620245
 21
44.5885501738
 31
0.0
 11
3.5846327782
 21
44.5894605771
 31
0.0
  0
SPLINE
  5
33C
100
AcDbEntity
  8
RACCORDO
100
AcDbSpline
 62
253
  6
CONTINUOUS
 70
0
 71
3
 72
8
 73
4
 74
2
 42
0.0000001
 43
0.0000001
 44
0.0000000001
 12
0.0022029825
 22
0.000228727
 32
0.0
 13
-0.000191347
 23
0.0011194822
 33
0.0
 40
0.0
 40
0.0
 40
0.0
 40
0.0
 40
1.0
 40
1.0
 40
1.0
 40
1.0
 10
4.0821052446
 20
45.427312186
 30
0.0
 10
4.0828395721
 20
45.4273884284
 30
0.0
 10
4.0831191512
 20
45.4276356977
 30
0.0
 10
4.0830553688
 20
45.4280088585
 30
0.0
 11
4.0821052446
 21
45.427312186
 31
0.0
 11
4.0830553688
 21
45.4280088585
 31
0.0
  0
SPLINE
  5
33D
100
AcDbEntity
  8
RACCORDO
100
AcDbSpline
 62
253
  6
CONTINUOUS
 70
0
 71
3
 72
28
 73
24
 74
22
 42
0.0000001
 43
0.0000001
 44
0.0000000001
 12
-11.9493455764
 22
-6.2880250232
 32
0.0
 13
16.1348087392
 23
0.8487515927
 33
0.0
 40
0.0
 40
0.0
 40
0.0
 40
0.0
 40
0.0001839033
 40
0.0066097684
 40
0.0240109303
 40
0.0531977099
 40
0.0938978783
 40
0.1449836012
 40
0.2047652998
 40
0.2721322097
 40
0.345003832
 40
0.422023724
 40
0.5008117663
 40
0.579902368
 40
0.6568510308
 40
0.7302259719
 40
0.7977600765
 40
0.8581990803
 40
0.9095158097
 40
0.9501282414
 40
0.9792093934
 40
0.9963963788
 40
1.0
 40
1.0
 40
1.0
 40
1.0
 10
-8.1250152972
 20
44.0199758024
 30
0.0
 10
-8.1257478052
 20
44.0195903396
 30
0.0
 10
-8.1498628817
 20
44.0059574569
 30
0.0
 10
-7.89345327
 20
44.0153923287
 30
0.0
 10
-7.7242611523
 20
43.9911112876
 30
0.0
 10
-7.188687588
 20
43.9904763797
 30
0.0
 10
-6.5661963386
 20
43.97762476
 30
0.0
 10
-5.7392923721
 20
43.9708472239
 30
0.0
 10
-4.7833653276
 20
43.9632576122
 30
0.0
 10
-3.7052270446
 20
43.9576745625
 30
0.0
 10
-2.5358158107
 20
43.9533915859
 30
0.0
 10
-1.3044393206
 20
43.9508007574
 30
0.0
 10
-0.0397101176
 20
43.9498865856
 30
0.0
 10
1.2246728363
 20
43.9506983183
 30
0.0
 10
2.4598980709
 20
43.9532087647
 30
0.0
 10
3.6328973567
 20
43.9573508332
 30
0.0
 10
4.7169976077
 20
43.9630072827
 30
0.0
 10
5.6823152322
 20
43.9700428199
 30
0.0
 10
6.5026792542
 20
43.9780861216
 30
0.0
 10
7.1541461996
 20
43.9871037985
 30
0.0
 10
7.6219168475
 20
43.9956494189
 30
0.0
 10
7.8902286556
 20
44.0041209074
 30
0.0
 10
8.0021545928
 20
44.0085819661
 30
0.0
 10
8.0215358389
 20
44.0096014925
 30
0.0
 11
-8.1250152972
 21
44.0199758024
 31
0.0
 11
-8.1270164017
 21
44.0188442895
 31
0.0
 11
-8.023632546
 21
44.0096050019
 31
0.0
 11
-7.7427384976
 21
43.999438864
 31
0.0
 11
-7.271397382
 21
43.9893538538
 31
0.0
 11
-6.6140434775
 21
43.979838348
 31
0.0
 11
-5.7889089593
 21
43.9712863097
 31
0.0
 11
-4.8232930795
 21
43.9639929408
 31
0.0
 11
-3.7351430434
 21
43.9580935324
 31
0.0
 11
-2.558068288
 21
43.9537703956
 31
0.0
 11
-1.3139821693
 21
43.9511039663
 31
0.0
 11
-0.0413329045
 21
43.9501766951
 31
0.0
 11
1.2362036184
 21
43.9510058275
 31
0.0
 11
2.4791394058
 21
43.9535657355
 31
0.0
 11
3.6643445265
 21
43.9578088205
 31
0.0
 11
4.755195828
 21
43.9636039188
 31
0.0
 11
5.7314297442
 21
43.9708436036
 31
0.0
 11
6.5602971186
 21
43.9792737024
 31
0.0
 11
7.216237425
 21
43.9885273214
 31
0.0
 11
7.68588215
 21
43.9981263399
 31
0.0
 11
7.9633566608
 21
44.0070634254
 31
0.0
 11
8.0215358389
 21
44.0096014925
 31
0.0
  0
SPLINE
  5
33E
100
AcDbEntity
  8
RACCORDO
100
AcDbSpline
 62
253
  6
CONTINUOUS
 70
0
 71
3
 72
8
 73
4
 74
2
 42
0.0000001
 43
0.0000001
 44
0.0000000001
 12
0.0741991259
 22
0.0039031529
 32
0.0
 13
0.0738848193
 23
0.00767117
 33
0.0
 40
0.0
 40
0.0
 40
0.0
 40
0.0
 40
1.0
 40
1.0
 40
1.0
 40
1.0
 10
8.0215358389
 20
44.0096014925
 30
0.0
 10
8.0462688809
 20
44.0109025435
 30
0.0
 10
8.0709713107
 20
44.0126046883
 30
0.0
 10
8.0955995838
 20
44.0151617449
 30
0.0
 11
8.0215358389
 21
44.0096014925
 31
0.0
 11
8.0955995838
 21
44.0151617449
 31
0.0
  0
SPLINE
  5
33F
100
AcDbEntity
  8
RACCORDO
100
AcDbSpline
 62
253
  6
CONTINUOUS
 70
0
 71
3
 72
8
 73
4
 74
2
 42
0.0000001
 43
0.0000001
 44
0.0000000001
 12
0.0022474203
 22
0.0002333408
 32
0.0
 13
-0.0003587986
 23
0.0012021829
 33
0.0
 40
0.0
 40
0.0
 40
0.0
 40
0.0
 40
1.0
 40
1.0
 40
1.0
 40
1.0
 10
3.8605322132
 20
45.7172414154
 30
0.0
 10
3.8612813533
 20
45.7173191956
 30
0.0
 10
3.8615299887
 20
45.7175852541
 30
0.0
 10
3.8614103892
 20
45.7179859817
 30
0.0
 11
3.8605322132
 21
45.7172414154
 31
0.0
 11
3.8614103892
 21
45.7179859817
 31
0.0
  0
SPLINE
  5
340
100
AcDbEntity
  8
RACCORDO
100
AcDbSpline
 62
253
  6
CONTINUOUS
 70
0
 71
3
 72
27
 73
23
 74
21
 42
0.0000001
 43
0.0000001
 44
0.0000000001
 12
-7.5831434088
 22
-5.7394403134
 32
0.0
 13
16.5806068805
 23
1.2961198109
 33
0.0
 40
0.0
 40
0.0
 40
0.0
 40
0.0
 40
0.0062247304
 40
0.0235854664
 40
0.0527042976
 40
0.0933097552
 40
0.1442765876
 40
0.2039191483
 40
0.2711292711
 40
0.3438312884
 40
0.4206719216
 40
0.4992765884
 40
0.5781831106
 40
0.6549526791
 40
0.7281568466
 40
0.7955337696
 40
0.8558321107
 40
0.9070294159
 40
0.9475473117
 40
0.9765608407
 40
0.9937077313
 40
1.0
 40
1.0
 40
1.0
 40
1.0
 10
-8.3508958354
 20
43.7279090066
 30
0.0
 10
-8.3666301764
 20
43.7160001837
 30
0.0
 10
-8.1086938672
 20
43.7253804786
 30
0.0
 10
-7.9354851991
 20
43.7005247515
 30
0.0
 10
-7.3852589666
 20
43.6998712493
 30
0.0
 10
-6.7457377579
 20
43.6866686789
 30
0.0
 10
-5.8962113653
 20
43.6797055519
 30
0.0
 10
-4.9141322011
 20
43.6719083436
 30
0.0
 10
-3.8064984096
 20
43.6661726129
 30
0.0
 10
-2.6050946453
 20
43.6617724314
 30
0.0
 10
-1.3400304274
 20
43.6591107639
 30
0.0
 10
-0.0407010412
 20
43.6581715732
 30
0.0
 10
1.2582726159
 20
43.6590055028
 30
0.0
 10
2.5272908811
 20
43.6615846474
 30
0.0
 10
3.7323808378
 20
43.6658399878
 30
0.0
 10
4.8461397153
 20
43.6716511802
 30
0.0
 10
5.8378663909
 20
43.678879252
 30
0.0
 10
6.6806737915
 20
43.687142271
 30
0.0
 10
7.3499637538
 20
43.6964072893
 30
0.0
 10
7.8305313573
 20
43.7051855701
 30
0.0
 10
8.1211252529
 20
43.7143616535
 30
0.0
 10
8.2510750288
 20
43.7196807411
 30
0.0
 10
8.2858515733
 20
43.7223992525
 30
0.0
 11
-8.3508958354
 21
43.7279090066
 31
0.0
 11
-8.2430473539
 21
43.7195233598
 31
0.0
 11
-7.9544674189
 21
43.7090794142
 31
0.0
 11
-7.4702317519
 21
43.6987184124
 31
0.0
 11
-6.7948938267
 21
43.6889426543
 31
0.0
 11
-5.9471853141
 21
43.6801566914
 31
0.0
 11
-4.9551523135
 21
43.6726637898
 31
0.0
 11
-3.8372328103
 21
43.6666030288
 31
0.0
 11
-2.6279559073
 21
43.6621616165
 31
0.0
 11
-1.3498343392
 21
43.6594222594
 31
0.0
 11
-0.042368225
 21
43.6584696192
 31
0.0
 11
1.2701188554
 21
43.6593214295
 31
0.0
 11
2.5470585988
 21
43.661951373
 31
0.0
 11
3.7646883449
 21
43.6663105105
 31
0.0
 11
4.8853829233
 21
43.6722641508
 31
0.0
 11
5.8883245304
 21
43.6797018649
 31
0.0
 11
6.7398680895
 21
43.6883625318
 31
0.0
 11
7.413753254
 21
43.6978693805
 31
0.0
 11
7.8962474518
 21
43.7077307327
 31
0.0
 11
8.1813114867
 21
43.7169127333
 31
0.0
 11
8.2858515733
 21
43.7223992525
 31
0.0
  0
SPLINE
  5
341
100
AcDbEntity
  8
0
100
AcDbSpline
 62
7
  6
CONTINUOUS
 70
0
 71
3
 72
29
 73
25
 74
23
 42
0.0000001
 43
0.0000001
 44
0.0000000001
 12
-18.7486957478
 22
-1.9466032916
 32
0.0
 13
7.9672110414
 23
10.4117259994
 33
0.0
 40
0.0
 40
0.0
 40
0.0
 40
0.0
 40
0.0103874354
 40
0.0298795142
 40
0.0581185005
 40
0.0945798833
 40
0.1385851329
 40
0.1893148914
 40
0.2458244025
 40
0.3070611757
 40
0.3718846223
 40
0.4390873191
 40
0.5074175102
 40
0.5756024312
 40
0.6423720247
 40
0.7064826045
 40
0.7667400307
 40
0.8220219651
 40
0.8712987966
 40
0.9136528568
 40
0.9482955939
 40
0.9745824742
 40
0.9920257535
 40
1.0
 40
1.0
 40
1.0
 40
1.0
 10
9.4133076993
 20
40.9844115767
 30
0.0
 10
9.3483907442
 20
40.9776715048
 30
0.0
 10
9.1605635304
 20
40.9712333592
 30
0.0
 10
8.7956975465
 20
40.9601773304
 30
0.0
 10
8.2667051704
 20
40.9510954224
 30
0.0
 10
7.5837831545
 20
40.9416800097
 30
0.0
 10
6.7594851895
 20
40.9333844142
 30
0.0
 10
5.8092235914
 20
40.9259729055
 30
0.0
 10
4.7506782773
 20
40.9197586761
 30
0.0
 10
3.6035740504
 20
40.9148221137
 30
0.0
 10
2.3892771348
 20
40.9112782478
 30
0.0
 10
1.1304072371
 20
40.9091928502
 30
0.0
 10
-0.1495825353
 20
40.9086093224
 30
0.0
 10
-1.4268598827
 20
40.9095352425
 30
0.0
 10
-2.6775899279
 20
40.9119653866
 30
0.0
 10
-3.8786221136
 20
40.915805965
 30
0.0
 10
-5.0070743579
 20
40.9211376594
 30
0.0
 10
-6.0436196931
 20
40.927328972
 30
0.0
 10
-6.9635361313
 20
40.9359218814
 30
0.0
 10
-7.7661761404
 20
40.941633897
 30
0.0
 10
-8.3894562738
 20
40.9588657958
 30
0.0
 10
-8.9449377499
 20
40.9491125049
 30
0.0
 10
-9.1425235558
 20
40.9979852965
 30
0.0
 10
-9.4645436454
 20
40.9558969258
 30
0.0
 10
-9.4433661438
 20
40.9835721489
 30
0.0
 11
9.4133076993
 21
40.9844115767
 31
0.0
 11
9.2178262823
 21
40.9732862754
 31
0.0
 11
8.850569206
 21
40.9624968791
 31
0.0
 11
8.3183777749
 21
40.9522443738
 31
0.0
 11
7.6311657084
 21
40.9427197443
 31
0.0
 11
6.8017344669
 21
40.9341004165
 31
0.0
 11
5.8455347853
 21
40.9265469521
 31
0.0
 11
4.7803788544
 21
40.9202000579
 31
0.0
 11
3.6261085138
 21
40.9151779644
 31
0.0
 11
2.4042256359
 21
40.9115742239
 31
0.0
 11
1.137491587
 21
40.9094559672
 31
0.0
 11
-0.1504967744
 21
40.9088626533
 31
0.0
 11
-1.435746662
 21
40.9098053346
 31
0.0
 11
-2.6943163024
 21
40.9122664508
 31
0.0
 11
-3.9027609243
 21
40.9162001558
 31
0.0
 11
-5.038569491
 21
40.9215331722
 31
0.0
 11
-6.0805840378
 21
40.9281661561
 31
0.0
 11
-7.0093938054
 21
40.9359755474
 31
0.0
 11
-7.8076968251
 21
40.944815872
 31
0.0
 11
-8.4606222222
 21
40.9545224513
 31
0.0
 11
-8.9560072318
 21
40.9649144702
 31
0.0
 11
-9.2846237685
 21
40.9757983451
 31
0.0
 11
-9.4433661438
 21
40.9835721489
 31
0.0
  0
LINE
  5
342
100
AcDbEntity
  8
0
100
AcDbLine
 62
7
  6
CONTINUOUS
 10
0.9929972802
 20
46.4903781272
 11
0.9937855045
 21
46.4906296803
  0
SPLINE
  5
343
100
AcDbEntity
  8
0
100
AcDbSpline
 62
7
  6
CONTINUOUS
 70
0
 71
3
 72
20
 73
16
 74
14
 42
0.0000001
 43
0.0000001
 44
0.0000000001
 12
-1.9810148352
 22
-0.2056809738
 32
0.0
 13
-0.0354895735
 23
0.3459109269
 33
0.0
 40
0.0
 40
0.0
 40
0.0
 40
0.0
 40
0.0246241692
 40
0.0768827748
 40
0.1537479284
 40
0.2507548393
 40
0.3622669116
 40
0.4818041721
 40
0.6024201149
 40
0.7171055297
 40
0.8191959606
 40
0.902759212
 40
0.9629406619
 40
0.9962482103
 40
1.0
 40
1.0
 40
1.0
 40
1.0
 10
0.9929972802
 20
46.4903781272
 30
0.0
 10
0.9767369987
 20
46.4886898861
 30
0.0
 10
0.9256042496
 20
46.4882307438
 30
0.0
 10
0.8236290672
 20
46.4858023217
 30
0.0
 10
0.6734694041
 20
46.484686458
 30
0.0
 10
0.4840301739
 20
46.4833592982
 30
0.0
 10
0.2662104698
 20
46.4826369756
 30
0.0
 10
0.0328408931
 20
46.4822835169
 30
0.0
 10
-0.2030895911
 20
46.4825461384
 30
0.0
 10
-0.4258544128
 20
46.4828728488
 30
0.0
 10
-0.629052458
 20
46.4849078568
 30
0.0
 10
-0.7817963976
 20
46.4836582071
 30
0.0
 10
-0.923094148
 20
46.4913243717
 30
0.0
 10
-0.9510377776
 20
46.4835543391
 30
0.0
 10
-1.0007231792
 20
46.4911714549
 30
0.0
 10
-1.0007675623
 20
46.4916040499
 30
0.0
 11
0.9929972802
 21
46.4903781272
 31
0.0
 11
0.943997491
 21
46.4883183064
 31
0.0
 11
0.8399332216
 21
46.4864206713
 31
0.0
 11
0.6868523091
 21
46.4847955055
 31
0.0
 11
0.4936512597
 21
46.4835372577
 31
0.0
 11
0.2715582162
 21
46.4827190527
 31
0.0
 11
0.0334804189
 21
46.4823884417
 31
0.0
 11
-0.2067459159
 21
46.4825646384
 31
0.0
 11
-0.4351597069
 21
46.4832374031
 31
0.0
 11
-0.6384863748
 21
46.4843676371
 31
0.0
 11
-0.8049093126
 21
46.4858896552
 31
0.0
 11
-0.9247566242
 21
46.4877150034
 31
0.0
 11
-0.9910632195
 21
46.489737599
 31
0.0
 11
-1.0007675623
 21
46.4916040499
 31
0.0
  0
SPLINE
  5
344
100
AcDbEntity
  8
0
100
AcDbSpline
 62
7
  6
CONTINUOUS
 70
0
 71
3
 72
31
 73
27
 74
25
 42
0.0000001
 43
0.0000001
 44
0.0000000001
 12
-22.5252050514
 22
-2.3387033897
 32
0.0
 13
9.0333723644
 23
9.3049061843
 33
0.0
 40
0.0
 40
0.0
 40
0.0
 40
0.0
 40
0.0092151909
 40
0.0261537651
 40
0.0505534827
 40
0.0820309771
 40
0.1200904666
 40
0.1641320832
 40
0.2134614896
 40
0.2673008908
 40
0.3248013293
 40
0.3850560885
 40
0.4471150017
 40
0.5099994418
 40
0.5727177597
 40
0.6342809269
 40
0.6937181365
 40
0.7500921186
 40
0.8025139277
 40
0.850156973
 40
0.8922700721
 40
0.9281893349
 40
0.9573487152
 40
0.9792891628
 40
0.9936666884
 40
1.0
 40
1.0
 40
1.0
 40
1.0
 10
11.3066319356
 20
39.1830914348
 30
0.0
 10
11.2374405809
 20
39.1759075687
 30
0.0
 10
11.0399617685
 20
39.1684221149
 30
0.0
 10
10.6586615927
 20
39.1563519803
 30
0.0
 10
10.1090182268
 20
39.1460314347
 30
0.0
 10
9.4000173573
 20
39.1354165346
 30
0.0
 10
8.5426816464
 20
39.1258424308
 30
0.0
 10
7.5505849051
 20
39.1171153921
 30
0.0
 10
6.4393524924
 20
39.1095354498
 30
0.0
 10
5.2265149324
 20
39.103192163
 30
0.0
 10
3.9311971164
 20
39.0982081613
 30
0.0
 10
2.573827322
 20
39.0946630947
 30
0.0
 10
1.1758120292
 20
39.0926172659
 30
0.0
 10
-0.2408022237
 20
39.0921040005
 30
0.0
 10
-1.6536711092
 20
39.0931325812
 30
0.0
 10
-3.040525983
 20
39.0956833929
 30
0.0
 10
-4.3794487824
 20
39.0997234192
 30
0.0
 10
-5.6494863424
 20
39.105152955
 30
0.0
 10
-6.8300604133
 20
39.1119892823
 30
0.0
 10
-7.9043532464
 20
39.1197566343
 30
0.0
 10
-8.8497414766
 20
39.1294439194
 30
0.0
 10
-9.668425335
 20
39.1374671469
 30
0.0
 10
-10.2991094911
 20
39.1532496535
 30
0.0
 10
-10.8569103262
 20
39.1515462293
 30
0.0
 10
-11.0528589389
 20
39.1871754499
 30
0.0
 10
-11.3656258948
 20
39.1650120337
 30
0.0
 10
-11.3465555075
 20
39.1846556572
 30
0.0
 11
11.3066319356
 21
39.1830914348
 31
0.0
 11
11.0983051331
 21
39.1707866864
 31
0.0
 11
10.7148964026
 21
39.1588068168
 31
0.0
 11
10.162452329
 21
39.1473407558
 31
0.0
 11
9.4496852853
 21
39.1365693299
 31
0.0
 11
8.5878360335
 21
39.126662411
 31
0.0
 11
7.5904964512
 21
39.1177762371
 31
0.0
 11
6.4733951794
 21
39.1100509485
 31
0.0
 11
5.2541495725
 21
39.1036083776
 31
0.0
 11
3.951987862
 21
39.0985501276
 31
0.0
 11
2.5874459159
 21
39.0949559701
 31
0.0
 11
1.182043376
 21
39.0928825871
 31
0.0
 11
-0.2420557202
 21
39.0923626772
 31
0.0
 11
-1.6623924793
 21
39.0934044395
 31
0.0
 11
-3.056567342
 21
39.0959914449
 31
0.0
 11
-4.402593338
 21
39.1000828948
 31
0.0
 11
-5.6792428332
 21
39.1056142646
 31
0.0
 11
-6.8663823024
 21
39.1124983212
 31
0.0
 11
-7.9452898471
 21
39.120626499
 31
0.0
 11
-8.8989504508
 21
39.1298706117
 31
0.0
 11
-9.712324316
 21
39.1400848742
 31
0.0
 11
-10.372584051
 21
39.1511082015
 31
0.0
 11
-10.8693169654
 21
39.162766749
 31
0.0
 11
-11.1946892843
 21
39.1748766546
 31
0.0
 11
-11.3465555075
 21
39.1846556572
 31
0.0
  0
SPLINE
  5
345
100
AcDbEntity
  8
RACCORDO
100
AcDbSpline
 62
253
  6
CONTINUOUS
 70
0
 71
3
 72
30
 73
26
 74
24
 42
0.0000001
 43
0.0000001
 44
0.0000000001
 12
-16.3982421298
 22
-5.4319628498
 32
0.0
 13
19.6316813603
 23
1.1410504437
 33
0.0
 40
0.0
 40
0.0
 40
0.0
 40
0.0
 40
0.0004194967
 40
0.003859667
 40
0.0145501718
 40
0.034506758
 40
0.0650675471
 40
0.1067408531
 40
0.1574521386
 40
0.2157748086
 40
0.280725678
 40
0.3504602751
 40
0.4238451051
 40
0.4987660558
 40
0.5740220664
 40
0.647442923
 40
0.7178392877
 40
0.7832060844
 40
0.8424487955
 40
0.8938703849
 40
0.934633461
 40
0.9647811955
 40
0.9851516923
 40
0.9973449046
 40
1.0
 40
1.0
 40
1.0
 40
1.0
 10
-9.8753857499
 20
42.2492347964
 30
0.0
 10
-9.8776787528
 20
42.2484752329
 30
0.0
 10
-9.8943136991
 20
42.2415579866
 30
0.0
 10
-9.7204270245
 20
42.2338083676
 30
0.0
 10
-9.5760942182
 20
42.2249204632
 30
0.0
 10
-9.1245199392
 20
42.2145246427
 30
0.0
 10
-8.5454955117
 20
42.2040083534
 30
0.0
 10
-7.7293521383
 20
42.1937814059
 30
0.0
 10
-6.745547897
 20
42.1845342837
 30
0.0
 10
-5.6041033077
 20
42.1765786899
 30
0.0
 10
-4.3396437601
 20
42.1701629528
 30
0.0
 10
-2.9759485257
 20
42.1654283502
 30
0.0
 10
-1.5470636426
 20
42.1625030025
 30
0.0
 10
-0.0819475275
 20
42.1614505004
 30
0.0
 10
1.3833926117
 20
42.1622985199
 30
0.0
 10
2.8190819001
 20
42.1650288246
 30
0.0
 10
4.1899568963
 20
42.1695688068
 30
0.0
 10
5.4679079283
 20
42.1758202849
 30
0.0
 10
6.621498724
 20
42.1836016244
 30
0.0
 10
7.6138313837
 20
42.192633328
 30
0.0
 10
8.4154839525
 20
42.2023446016
 30
0.0
 10
9.0135957864
 20
42.2123153552
 30
0.0
 10
9.4245106569
 20
42.2215023826
 30
0.0
 10
9.655124212
 20
42.2296984485
 30
0.0
 10
9.752372916
 20
42.2342811939
 30
0.0
 10
9.769747578
 20
42.2352910598
 30
0.0
 11
-9.8753857499
 21
42.2492347964
 31
0.0
 11
-9.8805533739
 21
42.2470290284
 31
0.0
 11
-9.8135374107
 21
42.2378976949
 31
0.0
 11
-9.6036062948
 21
42.2276754592
 31
0.0
 11
-9.2114030836
 21
42.2167654105
 31
0.0
 11
-8.6106674028
 21
42.2056753439
 31
0.0
 11
-7.7914228713
 21
42.1949434756
 31
0.0
 11
-6.7944635162
 21
42.1853700039
 31
0.0
 11
-5.6478440775
 21
42.1772262738
 31
0.0
 11
-4.3708994477
 21
42.1706504079
 31
0.0
 11
-2.9998962547
 21
42.1658287068
 31
0.0
 11
-1.5571225556
 21
42.162839844
 31
0.0
 11
-0.0841453675
 21
42.1617697998
 31
0.0
 11
1.3954193763
 21
42.1626357555
 31
0.0
 11
2.8389017966
 21
42.1654128685
 31
0.0
 11
4.2229163107
 21
42.1700559303
 31
0.0
 11
5.5080393564
 21
42.1764331079
 31
0.0
 11
6.6727486105
 21
42.1844370114
 31
0.0
 11
7.6836751197
 21
42.1938352695
 31
0.0
 11
8.485031402
 21
42.2038866815
 31
0.0
 11
9.077661406
 21
42.2140537908
 31
0.0
 11
9.478035403
 21
42.2237990452
 31
0.0
 11
9.7175946167
 21
42.2326783137
 31
0.0
 11
9.769747578
 21
42.2352910598
 31
0.0
  0
SPLINE
  5
346
100
AcDbEntity
  8
RACCORDO
100
AcDbSpline
 62
253
  6
CONTINUOUS
 70
0
 71
3
 72
8
 73
4
 74
2
 42
0.0000001
 43
0.0000001
 44
0.0000000001
 12
0.0698204377
 22
0.004058167
 32
0.0
 13
0.0695487996
 23
0.0072209781
 33
0.0
 40
0.0
 40
0.0
 40
0.0
 40
0.0
 40
1.0
 40
1.0
 40
1.0
 40
1.0
 10
9.769747578
 20
42.2352910598
 30
0.0
 10
9.7930210573
 20
42.2366437821
 30
0.0
 10
9.8162679209
 20
42.2383381419
 30
0.0
 10
9.8394508541
 20
42.2407451346
 30
0.0
 11
9.769747578
 21
42.2352910598
 31
0.0
 11
9.8394508541
 21
42.2407451346
 31
0.0
  0
SPLINE
  5
347
100
AcDbEntity
  8
RACCORDO
100
AcDbSpline
 62
253
  6
CONTINUOUS
 70
0
 71
3
 72
29
 73
25
 74
23
 42
0.0000001
 43
0.0000001
 44
0.0000000001
 12
-7.8681352508
 22
-5.0902995746
 32
0.0
 13
20.0691585433
 23
1.6157477364
 33
0.0
 40
0.0
 40
0.0
 40
0.0
 40
0.0
 40
0.0034366716
 40
0.0141097521
 40
0.0340337766
 40
0.0645447076
 40
0.1061500461
 40
0.1567786035
 40
0.2150061286
 40
0.2798510416
 40
0.3494718745
 40
0.4227369863
 40
0.4975357118
 40
0.5726689509
 40
0.6459700295
 40
0.7162515525
 40
0.781511712
 40
0.8406577764
 40
0.8919954916
 40
0.9326920666
 40
0.9627906158
 40
0.9831278946
 40
0.9953011758
 40
1.0
 40
1.0
 40
1.0
 40
1.0
 10
-10.1028774384
 20
41.9572522911
 30
0.0
 10
-10.1118908375
 20
41.9514210617
 30
0.0
 10
-9.9391734906
 20
41.9437228332
 30
0.0
 10
-9.7915822094
 20
41.934635363
 30
0.0
 10
-9.3298427098
 20
41.9240047813
 30
0.0
 10
-8.7377837856
 20
41.9132520657
 30
0.0
 10
-7.9032682321
 20
41.9027949392
 30
0.0
 10
-6.8973175567
 20
41.8933396476
 30
0.0
 10
-5.730178024
 20
41.8852049695
 30
0.0
 10
-4.4372543658
 20
41.8786448614
 30
0.0
 10
-3.04286115
 20
41.8738036506
 30
0.0
 10
-1.581810835
 20
41.8708124834
 30
0.0
 10
-0.0837136914
 20
41.8697362817
 30
0.0
 10
1.4146125136
 20
41.8706033793
 30
0.0
 10
2.8826204157
 20
41.8733951614
 30
0.0
 10
4.2843550087
 20
41.8780373069
 30
0.0
 10
5.5910738472
 20
41.8844294978
 30
0.0
 10
6.7706330762
 20
41.8923860415
 30
0.0
 10
7.7853040966
 20
41.9016209259
 30
0.0
 10
8.6050026297
 20
41.9115507644
 30
0.0
 10
9.2165785393
 20
41.921746212
 30
0.0
 10
9.6367432862
 20
41.9311395913
 30
0.0
 10
9.8862830014
 20
41.9400088422
 30
0.0
 10
9.9994621782
 20
41.9455232563
 30
0.0
 10
10.0308959944
 20
41.9480539612
 30
0.0
 11
-10.1028774384
 21
41.9572522911
 31
0.0
 11
-10.0343707462
 21
41.9479041818
 31
0.0
 11
-9.8197135731
 21
41.9374519163
 31
0.0
 11
-9.4186816293
 21
41.926296241
 31
0.0
 11
-8.8044229037
 21
41.9149565083
 31
0.0
 11
-7.9667361136
 21
41.903983157
 31
0.0
 11
-6.9473343138
 21
41.8941941826
 31
0.0
 11
-5.7749034466
 21
41.8858671381
 31
0.0
 11
-4.4692136217
 21
41.8791432753
 31
0.0
 11
-3.0673479682
 21
41.8742130298
 31
0.0
 11
-1.5920961767
 21
41.8711569007
 31
0.0
 11
-0.0859610079
 21
41.870062768
 31
0.0
 11
1.4269100118
 21
41.870948211
 31
0.0
 11
2.9028864616
 21
41.8737878415
 31
0.0
 11
4.318056372
 21
41.8785353988
 31
0.0
 11
5.6321086694
 21
41.8850561254
 31
0.0
 11
6.8230365535
 21
41.8932402003
 31
0.0
 11
7.8567201767
 21
41.9028499304
 31
0.0
 11
8.6761156629
 21
41.9131276251
 31
0.0
 11
9.2820862229
 21
41.9235236277
 31
0.0
 11
9.6914732711
 21
41.933488183
 31
0.0
 11
9.9364243674
 21
41.9425675447
 31
0.0
 11
10.0308959944
 21
41.9480539612
 31
0.0
  0
SPLINE
  5
348
100
AcDbEntity
  8
RACCORDO
100
AcDbSpline
 62
253
  6
CONTINUOUS
 70
0
 71
3
 72
30
 73
26
 74
24
 42
0.0000001
 43
0.0000001
 44
0.0000000001
 12
-18.227227188
 22
-7.6562350372
 32
0.0
 13
23.1061337418
 23
1.8294790588
 33
0.0
 40
0.0
 40
0.0
 40
0.0
 40
0.0
 40
0.0003012346
 40
0.0053113747
 40
0.0194936059
 40
0.04343856
 40
0.0769216862
 40
0.1191937557
 40
0.1691174907
 40
0.225934422
 40
0.2882024685
 40
0.3549742014
 40
0.4245541488
 40
0.4958841359
 40
0.5671524655
 40
0.637275447
 40
0.704472025
 40
0.7677202132
 40
0.8254138269
 40
0.8766769541
 40
0.9201085601
 40
0.9546178291
 40
0.9795555757
 40
0.9944425905
 40
1.0
 40
1.0
 40
1.0
 40
1.0
 10
-11.6235592731
 20
40.407796303
 30
0.0
 10
-11.6253894968
 20
40.4070275288
 30
0.0
 10
-11.6531453315
 20
40.3937066433
 30
0.0
 10
-11.3627038921
 20
40.3944417732
 30
0.0
 10
-11.159655905
 20
40.3730040292
 30
0.0
 10
-10.5320562332
 20
40.3662590109
 30
0.0
 10
-9.7945541969
 20
40.3516848721
 30
0.0
 10
-8.8110230405
 20
40.3413639443
 30
0.0
 10
-7.6639520605
 20
40.330971402
 30
0.0
 10
-6.3566419529
 20
40.3224824511
 30
0.0
 10
-4.9209712048
 20
40.3155121009
 30
0.0
 10
-3.3861097069
 20
40.3104092084
 30
0.0
 10
-1.7813869587
 20
40.3072217493
 30
0.0
 10
-0.1418689187
 20
40.3060405002
 30
0.0
 10
1.5018323277
 20
40.3068842064
 30
0.0
 10
3.1135957706
 20
40.3097348048
 30
0.0
 10
4.6633817203
 20
40.3145341314
 30
0.0
 10
6.1171176847
 20
40.3211729516
 30
0.0
 10
7.4477262021
 20
40.329501494
 30
0.0
 10
8.6251916488
 20
40.3393495047
 30
0.0
 10
9.6235069534
 20
40.3503081516
 30
0.0
 10
10.4183379084
 20
40.3623076179
 30
0.0
 10
10.9926705202
 20
40.3737611444
 30
0.0
 10
11.3430596885
 20
40.3853680906
 30
0.0
 10
11.5009902309
 20
40.392360164
 30
0.0
 10
11.5437936464
 20
40.3957492188
 30
0.0
 11
-11.6235592731
 21
40.407796303
 31
0.0
 11
-11.6281940138
 21
40.4055600331
 31
0.0
 11
-11.5126922063
 21
40.3933965836
 31
0.0
 11
-11.1842064934
 21
40.3799805529
 31
0.0
 11
-10.6292967507
 21
40.3666383588
 31
0.0
 11
-9.8532256591
 21
40.3539176521
 31
0.0
 11
-8.8733827177
 21
40.3422322329
 31
0.0
 11
-7.7161422148
 21
40.3319078185
 31
0.0
 11
-6.3990932997
 21
40.3231011721
 31
0.0
 11
-4.9556694463
 21
40.3160359302
 31
0.0
 11
-3.4078367341
 21
40.310819586
 31
0.0
 11
-1.7949010048
 21
40.3075846481
 31
0.0
 11
-0.1413946439
 21
40.3063803162
 31
0.0
 11
1.5106826465
 21
40.3072371977
 31
0.0
 11
3.1362071456
 21
40.3101422853
 31
0.0
 11
4.6938893751
 21
40.3150217781
 31
0.0
 11
6.1600355992
 21
40.3218015046
 31
0.0
 11
7.4974093471
 21
40.3303092398
 31
0.0
 11
8.685701497
 21
40.3404159731
 31
0.0
 11
9.6924286728
 21
40.3518350254
 31
0.0
 11
10.4922959509
 21
40.3641741356
 31
0.0
 11
11.0702400454
 21
40.3768975551
 31
0.0
 11
11.415135754
 21
40.3886891384
 31
0.0
 11
11.5437936464
 21
40.3957492188
 31
0.0
  0
SPLINE
  5
349
100
AcDbEntity
  8
RACCORDO
100
AcDbSpline
 62
253
  6
CONTINUOUS
 70
0
 71
3
 72
29
 73
25
 74
23
 42
0.0000001
 43
0.0000001
 44
0.0000000001
 12
-10.4365586371
 22
-6.9646624497
 32
0.0
 13
23.5387954397
 23
1.8637198125
 33
0.0
 40
0.0
 40
0.0
 40
0.0
 40
0.0
 40
0.0049227608
 40
0.0191105741
 40
0.043064871
 40
0.0765610854
 40
0.118849672
 40
0.1687929101
 40
0.2256320403
 40
0.287924412
 40
0.3547222306
 40
0.4243293597
 40
0.4956872123
 40
0.5669833833
 40
0.6371337591
 40
0.7043565876
 40
0.7676294861
 40
0.8253456383
 40
0.8766287943
 40
0.9200773737
 40
0.9546001148
 40
0.9795476399
 40
0.9944404183
 40
1.0
 40
1.0
 40
1.0
 40
1.0
 10
-11.8515144754
 20
40.1151164565
 30
0.0
 10
-11.8686400359
 20
40.1036880009
 30
0.0
 10
-11.5794970202
 20
40.1043726311
 30
0.0
 10
-11.3729947188
 20
40.0825717308
 30
0.0
 10
-10.7333931411
 20
40.0756966526
 30
0.0
 10
-9.9817879605
 20
40.0608443627
 30
0.0
 10
-8.9794487363
 20
40.0503258959
 30
0.0
 10
-7.8104423874
 20
40.0397346621
 30
0.0
 10
-6.4781326952
 20
40.0310834087
 30
0.0
 10
-5.0150077307
 20
40.023979742
 30
0.0
 10
-3.450795225
 20
40.0187792992
 30
0.0
 10
-1.8153855183
 20
40.015530874
 30
0.0
 10
-0.1445151414
 20
40.0143270415
 30
0.0
 10
1.5306184407
 20
40.0151868875
 30
0.0
 10
3.1732034752
 20
40.0180919753
 30
0.0
 10
4.752625843
 20
40.0229830992
 30
0.0
 10
6.23416147
 20
40.0297488376
 30
0.0
 10
7.5902151176
 20
40.0382366392
 30
0.0
 10
8.7901971898
 20
40.0482730342
 30
0.0
 10
9.8076031841
 20
40.0594409698
 30
0.0
 10
10.6176338634
 20
40.0716704455
 30
0.0
 10
11.2029492123
 20
40.0833420529
 30
0.0
 10
11.560038689
 20
40.095171844
 30
0.0
 10
11.7209889318
 20
40.1022974069
 30
0.0
 10
11.7646108843
 20
40.1057512411
 30
0.0
 11
-11.8515144754
 21
40.1151164565
 31
0.0
 11
-11.7327826167
 21
40.1033533444
 31
0.0
 11
-11.3980143062
 21
40.0896810182
 31
0.0
 11
-10.8324933532
 21
40.0760836042
 31
0.0
 11
-10.0415813458
 21
40.0631196895
 31
0.0
 11
-9.0430008903
 21
40.0512108312
 31
0.0
 11
-7.8636305893
 21
40.0406889811
 31
0.0
 11
-6.5213958108
 21
40.0317139519
 31
0.0
 11
-5.0503695119
 21
40.0245135976
 31
0.0
 11
-3.4729377274
 21
40.0191975167
 31
0.0
 11
-1.8291579929
 21
40.0159007157
 31
0.0
 11
-0.1440317964
 21
40.0146733558
 31
0.0
 11
1.5396379997
 21
40.0155466242
 31
0.0
 11
3.1962472487
 21
40.0185072551
 31
0.0
 11
4.7837168768
 21
40.0234800615
 31
0.0
 11
6.2779001131
 21
40.0303894143
 31
0.0
 11
7.6408483293
 21
40.0390598446
 31
0.0
 11
8.8518641313
 21
40.0493598298
 31
0.0
 11
9.8778430069
 21
40.0609972029
 31
0.0
 11
10.6930058486
 21
40.0735723419
 31
0.0
 11
11.282002775
 21
40.0865388368
 31
0.0
 11
11.6334926447
 21
40.0985562452
 31
0.0
 11
11.7646108843
 21
40.1057512411
 31
0.0
  0
SPLINE
  5
34A
100
AcDbEntity
  8
0
100
AcDbSpline
 62
7
  6
CONTINUOUS
 70
0
 71
3
 72
28
 73
24
 74
22
 42
0.0000001
 43
0.0000001
 44
0.0000000001
 12
-15.5720066556
 22
-1.6167801654
 32
0.0
 13
6.6705824074
 23
10.6320940832
 33
0.0
 40
0.0
 40
0.0
 40
0.0
 40
0.0
 40
0.0110795203
 40
0.0320966226
 40
0.0626290858
 40
0.1020569376
 40
0.1495782397
 40
0.204225986
 40
0.2648879598
 40
0.3303294427
 40
0.3992183809
 40
0.4701525195
 40
0.5416879582
 40
0.6123685534
 40
0.6807555677
 40
0.7454569664
 40
0.8051557672
 40
0.8586368681
 40
0.9048118195
 40
0.9427410594
 40
0.9716532477
 40
0.9909617044
 40
1.0
 40
1.0
 40
1.0
 40
1.0
 10
7.8189293951
 20
42.7855124534
 30
0.0
 10
7.761419274
 20
42.7795414038
 30
0.0
 10
7.5938215364
 20
42.7741239952
 30
0.0
 10
7.2672578841
 20
42.7644499963
 30
0.0
 10
6.7924774758
 20
42.7566961193
 30
0.0
 10
6.1794710907
 20
42.7486173184
 30
0.0
 10
5.4405597498
 20
42.7416031745
 30
0.0
 10
4.5908398385
 20
42.7354166822
 30
0.0
 10
3.6475888427
 20
42.7303502888
 30
0.0
 10
2.6300146045
 20
42.7264722423
 30
0.0
 10
1.5588291962
 20
42.7238824223
 30
0.0
 10
0.455841743
 20
42.7226339667
 30
0.0
 10
-0.6565037986
 20
42.7227513112
 30
0.0
 10
-1.7555285179
 20
42.7242456175
 30
0.0
 10
-2.8189845853
 20
42.7270342514
 30
0.0
 10
-3.8247887856
 20
42.7312314053
 30
0.0
 10
-4.7539236501
 20
42.7361567048
 30
0.0
 10
-5.5827804959
 20
42.7435890189
 30
0.0
 10
-6.3088814028
 20
42.74755114
 30
0.0
 10
-6.8760433952
 20
42.7646028371
 30
0.0
 10
-7.3815771769
 20
42.750413376
 30
0.0
 10
-7.5663041704
 20
42.8046650288
 30
0.0
 10
-7.8621623509
 20
42.7520506519
 30
0.0
 10
-7.8420654523
 20
42.7840826551
 30
0.0
 11
7.8189293951
 21
42.7855124534
 31
0.0
 11
7.6457405922
 21
42.7758560695
 31
0.0
 11
7.3168355302
 21
42.7665130596
 31
0.0
 11
6.8389097675
 21
42.7576736203
 31
0.0
 11
6.2216924944
 21
42.7495176972
 31
0.0
 11
5.4777484749
 21
42.7422113213
 31
0.0
 11
4.6222222637
 21
42.7359032293
 31
0.0
 11
3.6725299073
 21
42.7307218359
 31
0.0
 11
2.6480044035
 21
42.7267726193
 31
0.0
 11
1.5695021371
 21
42.7241359741
 31
0.0
 11
0.4589783039
 21
42.7228655748
 31
0.0
 11
-0.6609600332
 21
42.7229872831
 31
0.0
 11
-1.7675141592
 21
42.7244986213
 31
0.0
 11
-2.8381578234
 21
42.727368823
 31
0.0
 11
-3.851095808
 21
42.7315394592
 31
0.0
 11
-4.7857076169
 21
42.7369256276
 31
0.0
 11
-5.6229672487
 21
42.7434176815
 31
0.0
 11
-6.345830512
 21
42.7508834613
 31
0.0
 11
-6.939581995
 21
42.7591709854
 31
0.0
 11
-7.3921346301
 21
42.7681115436
 31
0.0
 11
-7.6942757504
 21
42.7775231319
 31
0.0
 11
-7.8420654523
 21
42.7840826551
 31
0.0
  0
SPLINE
  5
34B
100
AcDbEntity
  8
RACCORDO
100
AcDbSpline
 62
253
  6
CONTINUOUS
 70
0
 71
3
 72
29
 73
25
 74
23
 42
0.0000001
 43
0.0000001
 44
0.0000000001
 12
-15.6984932373
 22
-15.9497819654
 32
0.0
 13
26.3127647365
 23
2.7319508054
 33
0.0
 40
0.0
 40
0.0
 40
0.0
 40
0.0
 40
0.0081879741
 40
0.0255817355
 40
0.0518551957
 40
0.0864466344
 40
0.1288285323
 40
0.1780468769
 40
0.2333958426
 40
0.2935864335
 40
0.3577932039
 40
0.4244903805
 40
0.4927846602
 40
0.5610419487
 40
0.6283484715
 40
0.6931038599
 40
0.7544211939
 40
0.8108708865
 40
0.8616447268
 40
0.9055980557
 40
0.9420609878
 40
0.9702511708
 40
0.9896542917
 40
1.0
 40
1.0
 40
1.0
 40
1.0
 10
-13.2447006785
 20
38.6733003375
 30
0.0
 10
-13.287546964
 20
38.6297682035
 30
0.0
 10
-12.8293255839
 20
38.6891278306
 30
0.0
 10
-12.5514708159
 20
38.6210295739
 30
0.0
 10
-11.7727748666
 20
38.6343574824
 30
0.0
 10
-10.8984181238
 20
38.6103053659
 30
0.0
 10
-9.772643511
 20
38.6022394555
 30
0.0
 10
-8.4812805812
 20
38.5901852485
 30
0.0
 10
-7.027055392
 20
38.5814891484
 30
0.0
 10
-5.4424858301
 20
38.5739997531
 30
0.0
 10
-3.7572823759
 20
38.5686080981
 30
0.0
 10
-2.0007775838
 20
38.5651939532
 30
0.0
 10
-0.2085060432
 20
38.5638945481
 30
0.0
 10
1.5891263089
 20
38.5647150893
 30
0.0
 10
3.3555536128
 20
38.5676433689
 30
0.0
 10
5.0607784173
 20
38.5726236181
 30
0.0
 10
6.6702589496
 20
38.5795547156
 30
0.0
 10
8.1564407275
 20
38.5882865296
 30
0.0
 10
9.4894840442
 20
38.5986919263
 30
0.0
 10
10.6462853424
 20
38.6103468697
 30
0.0
 10
11.6038543313
 20
38.6235631813
 30
0.0
 10
12.3450643019
 20
38.636314785
 30
0.0
 10
12.8555524422
 20
38.6518012112
 30
0.0
 10
13.1180028344
 20
38.66082794
 30
0.0
 10
13.2087442307
 20
38.6702492621
 30
0.0
 11
-13.2447006785
 21
38.6733003375
 31
0.0
 11
-13.027120215
 21
38.6582440288
 31
0.0
 11
-12.5672356268
 21
38.6429692948
 31
0.0
 11
-11.872345436
 21
38.6283673005
 31
0.0
 11
-10.9573576614
 21
38.6147479698
 31
0.0
 11
-9.8362469699
 21
38.602321265
 31
0.0
 11
-8.5342607133
 21
38.5913657275
 31
0.0
 11
-7.0700773426
 21
38.5820393962
 31
0.0
 11
-5.4778004782
 21
38.5745588611
 31
0.0
 11
-3.7792701983
 21
38.5690271499
 31
0.0
 11
-2.0148525648
 21
38.5655754592
 31
0.0
 11
-0.2081819406
 21
38.564250161
 31
0.0
 11
1.597510404
 21
38.5650829767
 31
0.0
 11
3.3780486935
 21
38.5680626544
 31
0.0
 11
5.0910937718
 21
38.5731186114
 31
0.0
 11
6.7131799324
 21
38.5801812325
 31
0.0
 11
8.2064853125
 21
38.5890864317
 31
0.0
 11
9.5496250857
 21
38.5997059681
 31
0.0
 11
10.7123126952
 21
38.6118014913
 31
0.0
 11
11.6768178215
 21
38.6251870939
 31
0.0
 11
12.4224279366
 21
38.6395777873
 31
0.0
 11
12.9354999353
 21
38.6546795539
 31
0.0
 11
13.2087442307
 21
38.6702492621
 31
0.0
  0
SPLINE
  5
34C
100
AcDbEntity
  8
RACCORDO
100
AcDbSpline
 62
253
  6
CONTINUOUS
 70
0
 71
3
 72
29
 73
25
 74
23
 42
0.0000001
 43
0.0000001
 44
0.0000000001
 12
-11.7887413246
 22
-15.2584325512
 32
0.0
 13
27.7761028625
 23
2.8838834438
 33
0.0
 40
0.0
 40
0.0
 40
0.0
 40
0.0
 40
0.0079176003
 40
0.0253161329
 40
0.0515967473
 40
0.0861976174
 40
0.1285910689
 40
0.1778228293
 40
0.233186883
 40
0.2933938803
 40
0.3576181525
 40
0.4243335093
 40
0.4926464046
 40
0.5609222985
 40
0.6282471678
 40
0.6930202069
 40
0.7543542556
 40
0.810819335
 40
0.8616070162
 40
0.9055723279
 40
0.9420451927
 40
0.9702430865
 40
0.9896514315
 40
1.0
 40
1.0
 40
1.0
 40
1.0
 10
-13.9887563767
 20
37.7026682244
 30
0.0
 10
-14.0198692239
 20
37.6623981678
 30
0.0
 10
-13.5447605882
 20
37.723374816
 30
0.0
 10
-13.2529156193
 20
37.6518472985
 30
0.0
 10
-12.4306894723
 20
37.6659203096
 30
0.0
 10
-11.5074553995
 20
37.6405236582
 30
0.0
 10
-10.3187488384
 20
37.6320068717
 30
0.0
 10
-8.9551974412
 20
37.619278807
 30
0.0
 10
-7.4196796327
 20
37.6100966117
 30
0.0
 10
-5.74653107
 20
37.6021885351
 30
0.0
 10
-3.9671230924
 20
37.5964954979
 30
0.0
 10
-2.1124279606
 20
37.5928904913
 30
0.0
 10
-0.2199666879
 20
37.5915184508
 30
0.0
 10
1.6781550729
 20
37.5923848645
 30
0.0
 10
3.5433273917
 20
37.5954768268
 30
0.0
 10
5.3438759386
 20
37.600735488
 30
0.0
 10
7.0433280123
 20
37.6080540258
 30
0.0
 10
8.6125888213
 20
37.6172739497
 30
0.0
 10
10.0201505896
 20
37.6282610688
 30
0.0
 10
11.2416181879
 20
37.6405673379
 30
0.0
 10
12.2527164167
 20
37.6545229467
 30
0.0
 10
13.0353603701
 20
37.6679863537
 30
0.0
 10
13.5743852638
 20
37.684339905
 30
0.0
 10
13.851506701
 20
37.6938704759
 30
0.0
 10
13.947321002
 20
37.7038184976
 30
0.0
 11
-13.9887563767
 21
37.7026682244
 31
0.0
 11
-13.7551547098
 21
37.6911419743
 31
0.0
 11
-13.2695612748
 21
37.6750135713
 31
0.0
 11
-12.5358262499
 21
37.6595952576
 31
0.0
 11
-11.5696896937
 21
37.6452146097
 31
0.0
 11
-10.3859077828
 21
37.6320932488
 31
0.0
 11
-9.0111392256
 21
37.6205252826
 31
0.0
 11
-7.4651065403
 21
37.6106776115
 31
0.0
 11
-5.783819847
 21
37.6027789034
 31
0.0
 11
-3.9903400514
 21
37.5969379708
 31
0.0
 11
-2.1272897474
 21
37.5932933256
 31
0.0
 11
-0.2196244672
 21
37.591893943
 31
0.0
 11
1.6870078455
 21
37.5927733147
 31
0.0
 11
3.5670799719
 21
37.5959195545
 31
0.0
 11
5.3758859433
 21
37.6012581475
 31
0.0
 11
7.088648328
 21
37.6087155665
 31
0.0
 11
8.665430937
 21
37.618118578
 31
0.0
 11
10.0836535653
 21
37.6293317489
 31
0.0
 11
11.311336608
 21
37.6421034083
 31
0.0
 11
12.3297583397
 21
37.6562373289
 31
0.0
 11
13.1170495407
 21
37.6714322856
 31
0.0
 11
13.6588009438
 21
37.687378709
 31
0.0
 11
13.947321002
 21
37.7038184976
 31
0.0
  0
SPLINE
  5
34D
100
AcDbEntity
  8
RACCORDO
100
AcDbSpline
 62
253
  6
CONTINUOUS
 70
0
 71
3
 72
24
 73
20
 74
18
 42
0.0000001
 43
0.0000001
 44
0.0000000001
 12
0.394049998
 22
-3.7776098851
 32
0.0
 13
7.6628578931
 23
0.3079769909
 33
0.0
 40
0.0
 40
0.0
 40
0.0
 40
0.0
 40
0.0008760529
 40
0.0188248158
 40
0.0533031276
 40
0.1031984011
 40
0.1668422241
 40
0.2419830401
 40
0.3265482921
 40
0.4169104393
 40
0.5106039426
 40
0.6037350365
 40
0.6937529664
 40
0.7769676029
 40
0.8510181013
 40
0.9129762241
 40
0.9609759592
 40
0.993187621
 40
1.0
 40
1.0
 40
1.0
 40
1.0
 10
-3.8684145174
 20
45.7222896742
 30
0.0
 10
-3.8682994478
 20
45.7211865455
 30
0.0
 10
-3.7932273603
 20
45.6708201019
 30
0.0
 10
-3.7033650078
 20
45.7463526109
 30
0.0
 10
-3.4095208735
 20
45.685032146
 30
0.0
 10
-3.0464177679
 20
45.7062439129
 30
0.0
 10
-2.5584432377
 20
45.6917464232
 30
0.0
 10
-1.9897307745
 20
45.6916512452
 30
0.0
 10
-1.3500696611
 20
45.6878809656
 30
0.0
 10
-0.663835652
 20
45.6866125995
 30
0.0
 10
0.0445369719
 20
45.686028257
 30
0.0
 10
0.7519601433
 20
45.6866983713
 30
0.0
 10
1.4326236079
 20
45.6884312709
 30
0.0
 10
2.0645160052
 20
45.6912494608
 30
0.0
 10
2.6247139171
 20
45.6948782152
 30
0.0
 10
3.0948748169
 20
45.69960542
 30
0.0
 10
3.458215085
 20
45.7040131441
 30
0.0
 10
3.6804050882
 20
45.7098729155
 30
0.0
 10
3.7801998014
 20
45.7122706841
 30
0.0
 10
3.7976005655
 20
45.7129700361
 30
0.0
 11
-3.8684145174
 21
45.7222896742
 31
0.0
 11
-3.8614060214
 21
45.716665576
 31
0.0
 11
-3.7239446809
 21
45.7105395564
 31
0.0
 11
-3.4596927929
 21
45.7047338534
 31
0.0
 11
-3.0772250512
 21
45.699446669
 31
0.0
 11
-2.5893439853
 21
45.6948599038
 31
0.0
 11
-2.0133157995
 21
45.6911373043
 31
0.0
 11
-1.3650323272
 21
45.6883917022
 31
0.0
 11
-0.6723051751
 21
45.6867442796
 31
0.0
 11
0.0459624104
 21
45.686239864
 31
0.0
 11
0.7599183573
 21
45.6868993702
 31
0.0
 11
1.4500062895
 21
45.6887043088
 31
0.0
 11
2.0879350785
 21
45.6915809365
 31
0.0
 11
2.6556036
 21
45.6954467706
 31
0.0
 11
3.1305601265
 21
45.7001495035
 31
0.0
 11
3.498493367
 21
45.7055462187
 31
0.0
 11
3.7453625386
 21
45.7114265262
 31
0.0
 11
3.7976005655
 21
45.7129700361
 31
0.0
  0
SPLINE
  5
34E
100
AcDbEntity
  8
RACCORDO
100
AcDbSpline
 62
253
  6
CONTINUOUS
 70
0
 71
3
 72
8
 73
4
 74
2
 42
0.0000001
 43
0.0000001
 44
0.0000000001
 12
0.0630646748
 22
0.0025346247
 32
0.0
 13
0.0627543734
 23
0.0065155396
 33
0.0
 40
0.0
 40
0.0
 40
0.0
 40
0.0
 40
1.0
 40
1.0
 40
1.0
 40
1.0
 10
3.7976005655
 20
45.7129700361
 30
0.0
 10
3.8186221237
 20
45.713814911
 30
0.0
 10
3.8396140888
 20
45.7150695688
 30
0.0
 10
3.8605322132
 20
45.7172414154
 30
0.0
 11
3.7976005655
 21
45.7129700361
 31
0.0
 11
3.8605322132
 21
45.7172414154
 31
0.0
  0
SPLINE
  5
34F
100
AcDbEntity
  8
RACCORDO
100
AcDbSpline
 62
253
  6
CONTINUOUS
 70
0
 71
3
 72
24
 73
20
 74
18
 42
0.0000001
 43
0.0000001
 44
0.0000000001
 12
0.7003265093
 22
-4.0970690404
 32
0.0
 13
8.1021825439
 23
0.3256051867
 33
0.0
 40
0.0
 40
0.0
 40
0.0
 40
0.0
 40
0.0008660022
 40
0.018814259
 40
0.0532932609
 40
0.1031890134
 40
0.1668335678
 40
0.241975181
 40
0.3265413448
 40
0.416904443
 40
0.5105989318
 40
0.6037310026
 40
0.6937498814
 40
0.7769653938
 40
0.8510167007
 40
0.9129754584
 40
0.9609758572
 40
0.993187561
 40
1.0
 40
1.0
 40
1.0
 40
1.0
 10
-4.0900337013
 20
45.4326087409
 30
0.0
 10
-4.0898315399
 20
45.4314260507
 30
0.0
 10
-4.0105109533
 20
45.3782591009
 30
0.0
 10
-3.9155369664
 20
45.4580796696
 30
0.0
 10
-3.6048275236
 20
45.3932622898
 30
0.0
 10
-3.2209099638
 20
45.4156811282
 30
0.0
 10
-2.7049506305
 20
45.400356135
 30
0.0
 10
-2.1036274897
 20
45.4002541474
 30
0.0
 10
-1.4272861141
 20
45.3962682335
 30
0.0
 10
-0.7017016807
 20
45.3949269604
 30
0.0
 10
0.047290914
 20
45.394309201
 30
0.0
 10
0.7952795802
 20
45.3950177373
 30
0.0
 10
1.5149740797
 20
45.3968499366
 30
0.0
 10
2.1831009327
 20
45.3998298538
 30
0.0
 10
2.7754221081
 20
45.4036663112
 30
0.0
 10
3.2725437188
 20
45.4086652876
 30
0.0
 10
3.6567184896
 20
45.413324288
 30
0.0
 10
3.8916489995
 20
45.4195216862
 30
0.0
 10
3.9971653876
 20
45.4220565721
 30
0.0
 10
4.0155639292
 20
45.4227959606
 30
0.0
 11
-4.0900337013
 21
45.4326087409
 31
0.0
 11
-4.0826264576
 21
45.4267039501
 31
0.0
 11
-3.9372884219
 21
45.4202252602
 31
0.0
 11
-3.6578809678
 21
45.4140872868
 31
0.0
 11
-3.2534818935
 21
45.4084967965
 31
0.0
 11
-2.7376239413
 21
45.4036471489
 31
0.0
 11
-2.1285647284
 21
45.3997110865
 31
0.0
 11
-1.4431067974
 21
45.3968081249
 31
0.0
 11
-0.7106568447
 21
45.3950662371
 31
0.0
 11
0.048798092
 21
45.3945329262
 31
0.0
 11
0.8036941281
 21
45.3952302503
 31
0.0
 11
1.5333535331
 21
45.3971386651
 31
0.0
 11
2.2078628405
 21
45.400180243
 31
0.0
 11
2.8080832076
 21
45.4042676717
 31
0.0
 11
3.3102748538
 21
45.4092401251
 31
0.0
 11
3.699307646
 21
45.4149459665
 31
0.0
 11
3.9603305223
 21
45.4211641011
 31
0.0
 11
4.0155639292
 21
45.4227959606
 31
0.0
  0
SPLINE
  5
350
100
AcDbEntity
  8
RACCORDO
100
AcDbSpline
 62
253
  6
CONTINUOUS
 70
0
 71
3
 72
8
 73
4
 74
2
 42
0.0000001
 43
0.0000001
 44
0.0000000001
 12
0.0666819769
 22
0.0026797715
 32
0.0
 13
0.0663538651
 23
0.0068892607
 33
0.0
 40
0.0
 40
0.0
 40
0.0
 40
0.0
 40
1.0
 40
1.0
 40
1.0
 40
1.0
 10
4.0155639292
 20
45.4227959606
 30
0.0
 10
4.0377912548
 20
45.4236892178
 30
0.0
 10
4.0599872896
 20
45.4250157658
 30
0.0
 10
4.0821052446
 20
45.427312186
 30
0.0
 11
4.0155639292
 21
45.4227959606
 31
0.0
 11
4.0821052446
 21
45.427312186
 31
0.0
  0
SPLINE
  5
351
100
AcDbEntity
  8
RACCORDO
100
AcDbSpline
 62
253
  6
CONTINUOUS
 70
0
 71
3
 72
9
 73
5
 74
3
 42
0.0000001
 43
0.0000001
 44
0.0000000001
 12
0.0426798133
 22
0.004431277
 32
0.0
 13
0.0181142702
 23
0.02344553
 33
0.0
 40
0.0
 40
0.0
 40
0.0
 40
0.0
 40
0.7990734655
 40
1.0
 40
1.0
 40
1.0
 40
1.0
 10
13.947321002
 20
37.7038184976
 30
0.0
 10
13.9586891041
 20
37.7049988029
 30
0.0
 10
13.9731668454
 20
37.715598916
 30
0.0
 10
13.9805648373
 20
37.7238631495
 30
0.0
 10
13.9817780498
 20
37.7254334259
 30
0.0
 11
13.947321002
 21
37.7038184976
 31
0.0
 11
13.9773061116
 21
37.720447839
 31
0.0
 11
13.9817780498
 21
37.7254334259
 31
0.0
  0
SPLINE
  5
352
100
AcDbEntity
  8
0
100
AcDbSpline
 62
7
  6
CONTINUOUS
 70
0
 71
3
 72
9
 73
5
 74
3
 42
0.0000001
 43
0.0000001
 44
0.0000000001
 12
0.0135526387
 22
0.0014071171
 32
0.0
 13
0.0052406044
 23
0.0119060722
 33
0.0
 40
0.0
 40
0.0
 40
0.0
 40
0.0
 40
0.8275286579
 40
1.0
 40
1.0
 40
1.0
 40
1.0
 10
5.9754294809
 20
44.5867960511
 30
0.0
 10
5.9791678798
 20
44.5871841944
 30
0.0
 10
5.9823069482
 20
44.5919654688
 30
0.0
 10
5.9842547587
 20
44.5960514646
 30
0.0
 10
5.9845560434
 20
44.59673595
 30
0.0
 11
5.9754294809
 21
44.5867960511
 31
0.0
 11
5.9835474401
 21
44.5946213482
 31
0.0
 11
5.9845560434
 21
44.59673595
 31
0.0
  0
SPLINE
  5
353
100
AcDbEntity
  8
RACCORDO
100
AcDbSpline
 62
253
  6
CONTINUOUS
 70
0
 71
3
 72
9
 73
5
 74
3
 42
0.0000001
 43
0.0000001
 44
0.0000000001
 12
0.0389525814
 22
0.0040442932
 32
0.0
 13
0.0178850404
 23
0.0218434688
 33
0.0
 40
0.0
 40
0.0
 40
0.0
 40
0.0
 40
0.8292044247
 40
1.0
 40
1.0
 40
1.0
 40
1.0
 10
13.2087442307
 20
38.6702492621
 30
0.0
 10
13.2195107817
 20
38.6713671107
 30
0.0
 10
13.2327244865
 20
38.6810410534
 30
0.0
 10
13.2397113417
 20
38.6886606599
 30
0.0
 10
13.2407295702
 20
38.6899042491
 30
0.0
 11
13.2087442307
 21
38.6702492621
 31
0.0
 11
13.2371430495
 21
38.6859979424
 31
0.0
 11
13.2407295702
 21
38.6899042491
 31
0.0
  0
SPLINE
  5
354
100
AcDbEntity
  8
0
100
AcDbSpline
 62
7
  6
CONTINUOUS
 70
0
 71
3
 72
9
 73
5
 74
3
 42
0.0000001
 43
0.0000001
 44
0.0000000001
 12
0.0381999002
 22
0.0039661453
 32
0.0
 13
0.0153194576
 23
0.0157799446
 33
0.0
 40
0.0
 40
0.0
 40
0.0
 40
0.0
 40
0.8446192432
 40
1.0
 40
1.0
 40
1.0
 40
1.0
 10
11.3066319356
 20
39.1830914348
 30
0.0
 10
11.3173867259
 20
39.1842080623
 30
0.0
 10
11.3323992331
 20
39.1917466513
 30
0.0
 10
11.3387837379
 20
39.1973009894
 30
0.0
 10
11.3395771876
 20
39.1981182893
 30
0.0
 11
11.3066319356
 21
39.1830914348
 31
0.0
 11
11.3365913721
 21
39.1955270088
 31
0.0
 11
11.3395771876
 21
39.1981182893
 31
0.0
  0
SPLINE
  5
355
100
AcDbEntity
  8
RACCORDO
100
AcDbSpline
 62
253
  6
CONTINUOUS
 70
0
 71
3
 72
9
 73
5
 74
3
 42
0.0000001
 43
0.0000001
 44
0.0000000001
 12
0.0419406199
 22
0.0043545295
 32
0.0
 13
0.0188274343
 23
0.012460136
 33
0.0
 40
0.0
 40
0.0
 40
0.0
 40
0.0
 40
0.9526595413
 40
1.0
 40
1.0
 40
1.0
 40
1.0
 10
11.8048751557
 20
40.1094145475
 30
0.0
 10
11.8181935329
 20
40.1107973422
 30
0.0
 10
11.8373422568
 20
40.1165791374
 30
0.0
 10
11.8441892399
 20
40.1208048664
 30
0.0
 10
11.8444863397
 20
40.1210014893
 30
0.0
 11
11.8048751557
 21
40.1094145475
 31
0.0
 11
11.8435133916
 21
40.1204012832
 31
0.0
 11
11.8444863397
 21
40.1210014893
 31
0.0
  0
SPLINE
  5
356
100
AcDbEntity
  8
0
100
AcDbSpline
 62
7
  6
CONTINUOUS
 70
0
 71
3
 72
13
 73
9
 74
7
 42
0.0000001
 43
0.0000001
 44
0.0000000001
 12
-2.3663645733
 22
-0.2456903205
 32
0.0
 13
-2.37902984
 23
-0.0156030758
 33
0.0
 40
0.0
 40
0.0
 40
0.0
 40
0.0
 40
0.0596396103
 40
0.1740422598
 40
0.3406820894
 40
0.5558448733
 40
0.8147278682
 40
1.0
 40
1.0
 40
1.0
 40
1.0
 10
5.9754294809
 20
44.5867960511
 30
0.0
 10
5.9283864606
 20
44.5819117595
 30
0.0
 10
5.7902677989
 20
44.5777310818
 30
0.0
 10
5.5203219658
 20
44.5699170641
 30
0.0
 10
5.1268016957
 20
44.5638289546
 30
0.0
 10
4.6187833432
 20
44.5574484586
 30
0.0
 10
4.0959380602
 20
44.5527918003
 30
0.0
 10
3.7437195725
 20
44.5502629933
 30
0.0
 10
3.5967969291
 20
44.5492993883
 30
0.0
 11
5.9754294809
 21
44.5867960511
 31
0.0
 11
5.833752359
 21
44.5790687145
 31
0.0
 11
5.5616809074
 21
44.5716119543
 31
0.0
 11
5.1652927527
 21
44.5645923423
 31
0.0
 11
4.6534425511
 21
44.5581666849
 31
0.0
 11
4.0375641905
 21
44.5524785208
 31
0.0
 11
3.5967969291
 21
44.5492993883
 31
0.0
  0
LINE
  5
357
100
AcDbEntity
  8
0
100
AcDbLine
 62
7
  6
CONTINUOUS
 10
3.5967969291
 20
44.5492993883
 11
3.5756598882
 21
44.5491613871
  0
SPLINE
  5
358
100
AcDbEntity
  8
0
100
AcDbSpline
 62
7
  6
CONTINUOUS
 70
0
 71
3
 72
17
 73
13
 74
11
 42
0.0000001
 43
0.0000001
 44
0.0000000001
 12
-7.1795493425
 22
-0.0466616823
 32
0.0
 13
-7.1685570893
 23
0.0531485222
 33
0.0
 40
0.0
 40
0.0
 40
0.0
 40
0.0
 40
0.0340194108
 40
0.1427500108
 40
0.2594270407
 40
0.3814443914
 40
0.5060766266
 40
0.6305398829
 40
0.7520540731
 40
0.8679050031
 40
0.9755050234
 40
1.0
 40
1.0
 40
1.0
 40
1.0
 10
3.5756598882
 20
44.5491613871
 30
0.0
 10
3.4942452086
 20
44.5486322528
 30
0.0
 10
3.1526177532
 20
44.5465286017
 30
0.0
 10
2.531753438
 20
44.5435158337
 30
0.0
 10
1.7002870345
 20
44.5407761362
 30
0.0
 10
0.8307623225
 20
44.5391367787
 30
0.0
 10
-0.0574033377
 20
44.5386295403
 30
0.0
 10
-0.9443446573
 20
44.5392818041
 30
0.0
 10
-1.810341301
 20
44.5410258812
 30
0.0
 10
-2.6357234836
 20
44.5440023835
 30
0.0
 10
-3.2296169374
 20
44.5467252483
 30
0.0
 10
-3.5452248254
 20
44.5490063595
 30
0.0
 10
-3.6037560382
 20
44.5494403168
 30
0.0
 11
3.5756598882
 21
44.5491613871
 31
0.0
 11
3.3314153757
 21
44.5476549141
 31
0.0
 11
2.5507703043
 21
44.5438036162
 31
0.0
 11
1.7130672973
 21
44.5410106588
 31
0.0
 11
0.8370192555
 21
44.5393384318
 31
0.0
 11
-0.0578043553
 21
44.5388242902
 31
0.0
 11
-0.9514146545
 21
44.539479719
 31
0.0
 11
-1.8238498645
 21
44.5412900769
 31
0.0
 11
-2.6556212244
 21
44.5442149236
 31
0.0
 11
-3.4281483365
 21
44.5481889229
 31
0.0
 11
-3.6037560382
 21
44.5494403168
 31
0.0
  0
SPLINE
  5
359
100
AcDbEntity
  8
0
100
AcDbSpline
 62
7
  6
CONTINUOUS
 70
0
 71
3
 72
13
 73
9
 74
7
 42
0.0000001
 43
0.0000001
 44
0.0000000001
 12
-2.3834078742
 22
0.0176708652
 32
0.0
 13
1.1414024996
 23
2.2159778437
 33
0.0
 40
0.0
 40
0.0
 40
0.0
 40
0.0
 40
0.2179098935
 40
0.4709365512
 40
0.6797565896
 40
0.8397092562
 40
0.9472307495
 40
1.0
 40
1.0
 40
1.0
 40
1.0
 10
-3.6037560382
 20
44.5494403168
 30
0.0
 10
-3.7768787569
 20
44.5507238689
 30
0.0
 10
-4.1511482666
 20
44.5537049672
 30
0.0
 10
-4.6976739848
 20
44.555585199
 30
0.0
 10
-5.1748809316
 20
44.5716604853
 30
0.0
 10
-5.5976220509
 20
44.5537215735
 30
0.0
 10
-5.7619625989
 20
44.6111218936
 30
0.0
 10
-6.0105527025
 20
44.5488603219
 30
0.0
 10
-5.9904757177
 20
44.5878388185
 30
0.0
 11
-3.6037560382
 21
44.5494403168
 31
0.0
 11
-4.1241742217
 21
44.5531233021
 31
0.0
 11
-4.7281508118
 21
44.5589078353
 31
0.0
 11
-5.2265862679
 21
44.5654133058
 31
0.0
 11
-5.6083463656
 21
44.5724943919
 31
0.0
 11
-5.8649032149
 21
44.579992914
 31
0.0
 11
-5.9904757177
 21
44.5878388185
 31
0.0
  0
SPLINE
  5
35A
100
AcDbEntity
  8
RACCORDO
100
AcDbSpline
 62
253
  6
CONTINUOUS
 70
0
 71
3
 72
8
 73
4
 74
2
 42
0.0000001
 43
0.0000001
 44
0.0000000001
 12
0.0358134768
 22
0.0037183723
 32
0.0
 13
0.0239034106
 23
0.0115593641
 33
0.0
 40
0.0
 40
0.0
 40
0.0
 40
0.0
 40
1.0
 40
1.0
 40
1.0
 40
1.0
 10
11.5833021243
 20
40.3993437769
 30
0.0
 10
11.5952399499
 20
40.4005832343
 30
0.0
 10
11.6112093609
 20
40.4052003291
 30
0.0
 10
11.6191771645
 20
40.4090534505
 30
0.0
 11
11.5833021243
 21
40.3993437769
 31
0.0
 11
11.6191771645
 21
40.4090534505
 31
0.0
  0
SPLINE
  5
35B
100
AcDbEntity
  8
0
100
AcDbSpline
 62
7
  6
CONTINUOUS
 70
0
 71
3
 72
9
 73
5
 74
3
 42
0.0000001
 43
0.0000001
 44
0.0000000001
 12
0.0286673296
 22
0.002976416
 32
0.0
 13
0.0121821095
 23
0.0159198477
 33
0.0
 40
0.0
 40
0.0
 40
0.0
 40
0.0
 40
0.7981893864
 40
1.0
 40
1.0
 40
1.0
 40
1.0
 10
9.4133076993
 20
40.9844115767
 30
0.0
 10
9.4209350188
 20
40.9852034913
 30
0.0
 10
9.4306008814
 20
40.9923838513
 30
0.0
 10
9.4355683309
 20
40.9979937892
 30
0.0
 10
9.4363878239
 20
40.9990647206
 30
0.0
 11
9.4133076993
 21
40.9844115767
 31
0.0
 11
9.4333720081
 21
40.9956655398
 31
0.0
 11
9.4363878239
 21
40.9990647206
 31
0.0
  0
SPLINE
  5
35C
100
AcDbEntity
  8
RACCORDO
100
AcDbSpline
 62
253
  6
CONTINUOUS
 70
0
 71
3
 72
8
 73
4
 74
2
 42
0.0000001
 43
0.0000001
 44
0.0000000001
 12
0.0355858349
 22
0.0036947372
 32
0.0
 13
0.0141034268
 23
0.0090539019
 33
0.0
 40
0.0
 40
0.0
 40
0.0
 40
0.0
 40
1.0
 40
1.0
 40
1.0
 40
1.0
 10
10.0610238854
 20
41.9508159053
 30
0.0
 10
10.0728858304
 20
41.9520474843
 30
0.0
 10
10.0911767463
 20
41.9561117334
 30
0.0
 10
10.0958778885
 20
41.9591297007
 30
0.0
 11
10.0610238854
 21
41.9508159053
 31
0.0
 11
10.0958778885
 21
41.9591297007
 31
0.0
  0
SPLINE
  5
35D
100
AcDbEntity
  8
0
100
AcDbSpline
 62
7
  6
CONTINUOUS
 70
0
 71
3
 72
25
 73
21
 74
19
 42
0.0000001
 43
0.0000001
 44
0.0000000001
 12
-7.1329557811
 22
-0.5120941701
 32
0.0
 13
-0.8381116426
 23
5.7103717382
 33
0.0
 40
0.0
 40
0.0
 40
0.0
 40
0.0
 40
0.0116098153
 40
0.0413412651
 40
0.084950099
 40
0.1411131241
 40
0.2081246713
 40
0.2839490982
 40
0.3662828379
 40
0.4526244699
 40
0.5403507623
 40
0.6267964005
 40
0.7093349917
 40
0.785458889
 40
0.8528554226
 40
0.9094772441
 40
0.9536047234
 40
0.983898839
 40
0.9994455657
 40
1.0
 40
1.0
 40
1.0
 40
1.0
 10
3.5600112639
 20
44.5864726579
 30
0.0
 10
3.5324071641
 20
44.5844908849
 30
0.0
 10
3.4337409248
 20
44.5821553498
 30
0.0
 10
3.2313609306
 20
44.5767035254
 30
0.0
 10
2.9225434464
 20
44.5727733387
 30
0.0
 10
2.5249133246
 20
44.5685498225
 30
0.0
 10
2.0504277295
 20
44.565209601
 30
0.0
 10
1.5135473214
 20
44.5625144972
 30
0.0
 10
0.9305694368
 20
44.5606796734
 30
0.0
 10
0.3192116116
 20
44.559741066
 30
0.0
 10
-0.3019501322
 20
44.5596923596
 30
0.0
 10
-0.9140485035
 20
44.5607138941
 30
0.0
 10
-1.4984618956
 20
44.5621285954
 30
0.0
 10
-2.0375128294
 20
44.5660575394
 30
0.0
 10
-2.5145700392
 20
44.5654548997
 30
0.0
 10
-2.9158917482
 20
44.5808746768
 30
0.0
 10
-3.2272481329
 20
44.5560518068
 30
0.0
 10
-3.443996132
 20
44.6228268164
 30
0.0
 10
-3.5513572359
 20
44.5394761605
 30
0.0
 10
-3.5914562055
 20
44.5918467965
 30
0.0
 10
-3.5916110981
 20
44.5929021385
 30
0.0
 11
3.5600112639
 21
44.5864726579
 31
0.0
 11
3.4770045161
 21
44.5831540656
 31
0.0
 11
3.2643939685
 21
44.5780018626
 31
0.0
 11
2.9524904457
 21
44.5732501119
 31
0.0
 11
2.5507709783
 21
44.569043193
 31
0.0
 11
2.0714416092
 21
44.5655089311
 31
0.0
 11
1.5290665186
 21
44.5627547128
 31
0.0
 11
0.9401254992
 21
44.5608642238
 31
0.0
 11
0.322513226
 21
44.5598949056
 31
0.0
 11
-0.3050044649
 21
44.5598762103
 31
0.0
 11
-0.9233607657
 21
44.5608087062
 31
0.0
 11
-1.5137672333
 21
44.5626640597
 31
0.0
 11
-2.0582846659
 21
44.5653858968
 31
0.0
 11
-2.5403681768
 21
44.568891516
 31
0.0
 11
-2.9453699025
 21
44.5730744008
 31
0.0
 11
-3.2609840705
 21
44.5778074563
 31
0.0
 11
-3.477620904
 21
44.582946871
 31
0.0
 11
-3.5886980025
 21
44.5883364864
 31
0.0
 11
-3.5916110981
 21
44.5929021385
 31
0.0
  0
SPLINE
  5
35E
100
AcDbEntity
  8
0
100
AcDbSpline
 62
7
  6
CONTINUOUS
 70
0
 71
3
 72
8
 73
4
 74
2
 42
0.0000001
 43
0.0000001
 44
0.0000000001
 12
0.5400005579
 22
-0.0062066317
 32
0.0
 13
0.3738719972
 23
0.2648258634
 33
0.0
 40
0.0
 40
0.0
 40
0.0
 40
0.0
 40
1.0
 40
1.0
 40
1.0
 40
1.0
 10
1.3289654255
 20
-39.4929330977
 30
0.0
 10
1.5089656115
 20
-39.4950019749
 30
0.0
 10
1.6641378403
 20
-39.4515537652
 30
0.0
 10
1.7887618393
 20
-39.3632784774
 30
0.0
 11
1.3289654255
 21
-39.4929330977
 31
0.0
 11
1.7887618393
 21
-39.3632784774
 31
0.0
  0
SPLINE
  5
35F
100
AcDbEntity
  8
0
100
AcDbSpline
 62
7
  6
CONTINUOUS
 70
0
 71
3
 72
8
 73
4
 74
2
 42
0.0000001
 43
0.0000001
 44
0.0000000001
 12
0.0
 22
-0.8440452122
 32
0.0
 13
0.5119653664
 23
-0.5245290804
 33
0.0
 40
0.0
 40
0.0
 40
0.0
 40
0.0
 40
1.0
 40
1.0
 40
1.0
 40
1.0
 10
-29.0475862045
 20
-2.6398604457
 30
0.0
 10
-29.0475862045
 20
-2.9212088498
 30
0.0
 10
-28.9627586203
 20
-3.1467261227
 30
0.0
 10
-28.7921034981
 20
-3.3215691495
 30
0.0
 11
-29.0475862045
 21
-2.6398604457
 31
0.0
 11
-28.7921034981
 21
-3.3215691495
 31
0.0
  0
SPLINE
  5
360
100
AcDbEntity
  8
0
100
AcDbSpline
 62
7
  6
CONTINUOUS
 70
0
 71
3
 72
8
 73
4
 74
2
 42
0.0000001
 43
0.0000001
 44
0.0000000001
 12
0.4997587694
 22
-0.5120229316
 32
0.0
 13
0.8379540719
 23
0.0
 33
0.0
 40
0.0
 40
0.0
 40
0.0
 40
0.0
 40
1.0
 40
1.0
 40
1.0
 40
1.0
 10
-28.7921034981
 20
-3.3215691495
 30
0.0
 10
-28.6255172417
 20
-3.49224346
 30
0.0
 10
-28.4041379243
 20
-3.5791398796
 30
0.0
 10
-28.1248199004
 20
-3.5791398796
 30
0.0
 11
-28.7921034981
 21
-3.3215691495
 31
0.0
 11
-28.1248199004
 21
-3.5791398796
 31
0.0
  0
SPLINE
  5
361
100
AcDbEntity
  8
0
100
AcDbSpline
 62
7
  6
CONTINUOUS
 70
0
 71
3
 72
8
 73
4
 74
2
 42
0.0000001
 43
0.0000001
 44
0.0000000001
 12
0.8317010575
 22
0.0
 32
0.0
 13
0.5090034544
 23
0.496512832
 33
0.0
 40
0.0
 40
0.0
 40
0.0
 40
0.0
 40
1.0
 40
1.0
 40
1.0
 40
1.0
 10
-28.1248199004
 20
-3.5791398796
 30
0.0
 10
-27.8475862145
 20
-3.5791398796
 30
0.0
 10
-27.6262068748
 20
-3.4963813933
 30
0.0
 10
-27.4565390567
 20
-3.330877116
 30
0.0
 11
-28.1248199004
 21
-3.5791398796
 31
0.0
 11
-27.4565390567
 21
-3.330877116
 31
0.0
  0
SPLINE
  5
362
100
AcDbEntity
  8
0
100
AcDbSpline
 62
7
  6
CONTINUOUS
 70
0
 71
3
 72
8
 73
4
 74
2
 42
0.0000001
 43
0.0000001
 44
0.0000000001
 12
0.5027204216
 22
0.4903839809
 32
0.0
 13
0.0049189449
 23
0.782078012
 33
0.0
 40
0.0
 40
0.0
 40
0.0
 40
0.0
 40
1.0
 40
1.0
 40
1.0
 40
1.0
 10
-27.4565390567
 20
-3.330877116
 30
0.0
 10
-27.2889655828
 20
-3.167415789
 30
0.0
 10
-27.2020689845
 20
-2.9563812824
 30
0.0
 10
-27.2004293362
 20
-2.6956886118
 30
0.0
 11
-27.4565390567
 21
-3.330877116
 31
0.0
 11
-27.2004293362
 21
-2.6956886118
 31
0.0
  0
SPLINE
  5
363
100
AcDbEntity
  8
0
100
AcDbSpline
 62
7
  6
CONTINUOUS
 70
0
 71
3
 72
8
 73
4
 74
2
 42
0.0000001
 43
0.0000001
 44
0.0000000001
 12
0.0012882232
 22
0.2048185327
 32
0.0
 13
-0.0451849467
 23
0.2168869893
 33
0.0
 40
0.0
 40
0.0
 40
0.0
 40
0.0
 40
1.0
 40
1.0
 40
1.0
 40
1.0
 10
-27.2004293362
 20
-2.6956886118
 30
0.0
 10
-27.1999999285
 20
-2.6274157675
 30
0.0
 10
-27.208275795
 20
-2.5591399582
 30
0.0
 10
-27.2233374439
 20
-2.4868442951
 30
0.0
 11
-27.2004293362
 21
-2.6956886118
 31
0.0
 11
-27.2233374439
 21
-2.4868442951
 31
0.0
  0
SPLINE
  5
364
100
AcDbEntity
  8
0
100
AcDbSpline
 62
7
  6
CONTINUOUS
 70
0
 71
3
 72
8
 73
4
 74
2
 42
0.0000001
 43
0.0000001
 44
0.0000000001
 12
-0.0479188197
 22
0.230009534
 32
0.0
 13
-0.0744827986
 23
0.1800000966
 33
0.0
 40
0.0
 40
0.0
 40
0.0
 40
0.0
 40
1.0
 40
1.0
 40
1.0
 40
1.0
 10
-27.2233374439
 20
-2.4868442951
 30
0.0
 10
-27.2393103838
 20
-2.4101744505
 30
0.0
 10
-27.2662068605
 20
-2.3439675184
 30
0.0
 10
-27.2910344601
 20
-2.2839674862
 30
0.0
 11
-27.2233374439
 21
-2.4868442951
 31
0.0
 11
-27.2910344601
 21
-2.2839674862
 31
0.0
  0
SPLINE
  5
365
100
AcDbEntity
  8
0
100
AcDbSpline
 62
7
  6
CONTINUOUS
 70
0
 71
3
 72
8
 73
4
 74
2
 42
0.0000001
 43
0.0000001
 44
0.0000000001
 12
0.3793768588
 22
-0.1407365756
 32
0.0
 13
0.352498945
 23
-0.2091751899
 33
0.0
 40
0.0
 40
0.0
 40
0.0
 40
0.0
 40
1.0
 40
1.0
 40
1.0
 40
1.0
 10
-27.6823210519
 20
-1.7694691049
 30
0.0
 10
-27.5558620989
 20
-1.8163812967
 30
0.0
 10
-27.435430764
 20
-1.8770010862
 30
0.0
 10
-27.3179311156
 20
-1.9467261495
 30
0.0
 11
-27.6823210519
 21
-1.7694691049
 31
0.0
 11
-27.3179311156
 21
-1.9467261495
 31
0.0
  0
SPLINE
  5
366
100
AcDbEntity
  8
0
100
AcDbSpline
 62
7
  6
CONTINUOUS
 70
0
 71
3
 72
8
 73
4
 74
2
 42
0.0000001
 43
0.0000001
 44
0.0000000001
 12
0.4903395186
 22
0.0022806501
 32
0.0
 13
0.3902781901
 23
-0.1447806178
 33
0.0
 40
0.0
 40
0.0
 40
0.0
 40
0.0
 40
1.0
 40
1.0
 40
1.0
 40
1.0
 10
-28.1227568292
 20
-1.6971415161
 30
0.0
 10
-27.959310323
 20
-1.6963812994
 30
0.0
 10
-27.8124137819
 20
-1.7212088989
 30
0.0
 10
-27.6823210519
 20
-1.7694691049
 30
0.0
 11
-28.1227568292
 21
-1.6971415161
 31
0.0
 11
-27.6823210519
 21
-1.7694691049
 31
0.0
  0
SPLINE
  5
367
100
AcDbEntity
  8
0
100
AcDbSpline
 62
7
  6
CONTINUOUS
 70
0
 71
3
 72
8
 73
4
 74
2
 42
0.0000001
 43
0.0000001
 44
0.0000000001
 12
0.5016448378
 22
0.5231878502
 32
0.0
 13
0.8441432853
 23
0.0039262498
 33
0.0
 40
0.0
 40
0.0
 40
0.0
 40
0.0
 40
1.0
 40
1.0
 40
1.0
 40
1.0
 10
-28.7927321876
 20
-1.9618117364
 30
0.0
 10
-28.6255172417
 20
-1.7874157863
 30
0.0
 10
-28.4041379243
 20
-1.698450266
 30
0.0
 10
-28.1227568292
 20
-1.6971415161
 30
0.0
 11
-28.7927321876
 21
-1.9618117364
 31
0.0
 11
-28.1227568292
 21
-1.6971415161
 31
0.0
  0
SPLINE
  5
368
100
AcDbEntity
  8
0
100
AcDbSpline
 62
7
  6
CONTINUOUS
 70
0
 71
3
 72
8
 73
4
 74
2
 42
0.0000001
 43
0.0000001
 44
0.0000000001
 12
0.0
 22
0.8318166829
 32
0.0
 13
0.510079298
 23
0.5319845261
 33
0.0
 40
0.0
 40
0.0
 40
0.0
 40
0.0
 40
1.0
 40
1.0
 40
1.0
 40
1.0
 10
-29.0475862045
 20
-2.6398604457
 30
0.0
 10
-29.0475862045
 20
-2.3625882181
 30
0.0
 10
-28.9627586203
 20
-2.1391399117
 30
0.0
 10
-28.7927321876
 20
-1.9618117364
 30
0.0
 11
-29.0475862045
 21
-2.6398604457
 31
0.0
 11
-28.7927321876
 21
-1.9618117364
 31
0.0
  0
SPLINE
  5
369
100
AcDbEntity
  8
0
100
AcDbSpline
 62
7
  6
CONTINUOUS
 70
0
 71
3
 72
8
 73
4
 74
2
 42
0.0000001
 43
0.0000001
 44
0.0000000001
 12
1.2478098739
 22
-0.0076552794
 32
0.0
 13
0.3289656937
 23
-1.0551724434
 33
0.0
 40
0.0
 40
0.0
 40
0.0
 40
0.0
 40
1.0
 40
1.0
 40
1.0
 40
1.0
 10
-28.2014538404
 20
-4.0793467419
 30
0.0
 10
-27.7855172157
 20
-4.0818985017
 30
0.0
 10
-27.5227586329
 20
-4.2639675649
 30
0.0
 10
-27.4131034017
 20
-4.6156917127
 30
0.0
 11
-28.2014538404
 21
-4.0793467419
 31
0.0
 11
-27.4131034017
 21
-4.6156917127
 31
0.0
  0
SPLINE
  5
36A
100
AcDbEntity
  8
0
100
AcDbSpline
 62
7
  6
CONTINUOUS
 70
0
 71
3
 72
8
 73
4
 74
2
 42
0.0000001
 43
0.0000001
 44
0.0000000001
 12
0.4639170974
 22
0.5485507818
 32
0.0
 13
0.7756384145
 23
-0.0047585204
 33
0.0
 40
0.0
 40
0.0
 40
0.0
 40
0.0
 40
1.0
 40
1.0
 40
1.0
 40
1.0
 10
-28.8215355843
 20
-4.3537142379
 30
0.0
 10
-28.6668965518
 20
-4.1708639773
 30
0.0
 10
-28.4599999785
 20
-4.0777605685
 30
0.0
 10
-28.2014538404
 20
-4.0793467419
 30
0.0
 11
-28.8215355843
 21
-4.3537142379
 31
0.0
 11
-28.2014538404
 21
-4.0793467419
 31
0.0
  0
SPLINE
  5
36B
100
AcDbEntity
  8
0
100
AcDbSpline
 62
7
  6
CONTINUOUS
 70
0
 71
3
 72
8
 73
4
 74
2
 42
0.0000001
 43
0.0000001
 44
0.0000000001
 12
0.0
 22
0.7511372038
 32
0.0
 13
0.4547035905
 23
0.5376564292
 33
0.0
 40
0.0
 40
0.0
 40
0.0
 40
0.0
 40
1.0
 40
1.0
 40
1.0
 40
1.0
 10
-29.0475862045
 20
-4.9964154099
 30
0.0
 10
-29.0475862045
 20
-4.746036342
 30
0.0
 10
-28.9731034478
 20
-4.5329330476
 30
0.0
 10
-28.8215355843
 20
-4.3537142379
 30
0.0
 11
-29.0475862045
 21
-4.9964154099
 31
0.0
 11
-28.8215355843
 21
-4.3537142379
 31
0.0
  0
SPLINE
  5
36C
100
AcDbEntity
  8
0
100
AcDbSpline
 62
7
  6
CONTINUOUS
 70
0
 71
3
 72
8
 73
4
 74
2
 42
0.0000001
 43
0.0000001
 44
0.0000000001
 12
-0.456249386
 22
0.5302355206
 32
0.0
 13
0.0
 23
0.7695529989
 33
0.0
 40
0.0
 40
0.0
 40
0.0
 40
0.0
 40
1.0
 40
1.0
 40
1.0
 40
1.0
 10
-28.8189513553
 20
-5.644850779
 30
0.0
 10
-28.971034484
 20
-5.4681056055
 30
0.0
 10
-29.0475862045
 20
-5.2529330762
 30
0.0
 10
-29.0475862045
 20
-4.9964154099
 30
0.0
 11
-28.8189513553
 21
-5.644850779
 31
0.0
 11
-29.0475862045
 21
-4.9964154099
 31
0.0
  0
SPLINE
  5
36D
100
AcDbEntity
  8
0
100
AcDbSpline
 62
7
  6
CONTINUOUS
 70
0
 71
3
 72
8
 73
4
 74
2
 42
0.0000001
 43
0.0000001
 44
0.0000000001
 12
-0.7822573757
 22
-0.007198795
 32
0.0
 13
-0.4623713103
 23
0.5373501861
 33
0.0
 40
0.0
 40
0.0
 40
0.0
 40
0.0
 40
1.0
 40
1.0
 40
1.0
 40
1.0
 10
-28.19924752
 20
-5.9126024409
 30
0.0
 10
-28.4599999785
 20
-5.9150020393
 30
0.0
 10
-28.6648275852
 20
-5.8239675077
 30
0.0
 10
-28.8189513553
 20
-5.644850779
 30
0.0
 11
-28.19924752
 21
-5.9126024409
 31
0.0
 11
-28.8189513553
 21
-5.644850779
 31
0.0
  0
SPLINE
  5
36E
100
AcDbEntity
  8
0
100
AcDbSpline
 62
7
  6
CONTINUOUS
 70
0
 71
3
 72
8
 73
4
 74
2
 42
0.0000001
 43
0.0000001
 44
0.0000000001
 12
-0.3599999249
 22
-1.0551724434
 32
0.0
 13
-1.2411909128
 23
-0.0114221728
 33
0.0
 40
0.0
 40
0.0
 40
0.0
 40
0.0
 40
1.0
 40
1.0
 40
1.0
 40
1.0
 10
-27.4027586579
 20
-5.3770710739
 30
0.0
 10
-27.5227586329
 20
-5.7287952217
 30
0.0
 10
-27.7855172157
 20
-5.90879505
 30
0.0
 10
-28.19924752
 20
-5.9126024409
 30
0.0
 11
-27.4027586579
 21
-5.3770710739
 31
0.0
 11
-28.19924752
 21
-5.9126024409
 31
0.0
  0
SPLINE
  5
36F
100
AcDbEntity
  8
0
100
AcDbSpline
 62
7
  6
CONTINUOUS
 70
0
 71
3
 72
8
 73
4
 74
2
 42
0.0000001
 43
0.0000001
 44
0.0000000001
 12
-0.1328299568
 22
0.1644564755
 32
0.0
 13
-0.0744827986
 23
0.1924130917
 33
0.0
 40
0.0
 40
0.0
 40
0.0
 40
0.0
 40
1.0
 40
1.0
 40
1.0
 40
1.0
 10
-27.2984818841
 20
-5.556027539
 30
0.0
 10
-27.3427585363
 20
-5.5012087139
 30
0.0
 10
-27.3779310584
 20
-5.4412087711
 30
0.0
 10
-27.4027586579
 20
-5.3770710739
 30
0.0
 11
-27.2984818841
 21
-5.556027539
 31
0.0
 11
-27.4027586579
 21
-5.3770710739
 31
0.0
  0
SPLINE
  5
370
100
AcDbEntity
  8
0
100
AcDbSpline
 62
7
  6
CONTINUOUS
 70
0
 71
3
 72
8
 73
4
 74
2
 42
0.0000001
 43
0.0000001
 44
0.0000000001
 12
-0.1767015138
 22
0.1109520472
 32
0.0
 13
-0.1278593017
 23
0.1583023184
 33
0.0
 40
0.0
 40
0.0
 40
0.0
 40
0.0
 40
1.0
 40
1.0
 40
1.0
 40
1.0
 10
-27.1452373571
 20
-5.6912964388
 30
0.0
 10
-27.2041378617
 20
-5.6543124231
 30
0.0
 10
-27.2558621168
 20
-5.6087949785
 30
0.0
 10
-27.2984818841
 20
-5.556027539
 30
0.0
 11
-27.1452373571
 21
-5.6912964388
 31
0.0
 11
-27.2984818841
 21
-5.556027539
 31
0.0
  0
SPLINE
  5
371
100
AcDbEntity
  8
0
100
AcDbSpline
 62
7
  6
CONTINUOUS
 70
0
 71
3
 72
8
 73
4
 74
2
 42
0.0000001
 43
0.0000001
 44
0.0000000001
 12
-0.4717646842
 22
0.0
 32
0.0
 13
-0.3570913395
 23
0.2242200099
 33
0.0
 40
0.0
 40
0.0
 40
0.0
 40
0.0
 40
1.0
 40
1.0
 40
1.0
 40
1.0
 10
-26.7324002185
 20
-5.8053468975
 30
0.0
 10
-26.8896551132
 20
-5.8053468975
 30
0.0
 10
-27.0262069106
 20
-5.7660364421
 30
0.0
 10
-27.1452373571
 20
-5.6912964388
 30
0.0
 11
-26.7324002185
 21
-5.8053468975
 31
0.0
 11
-27.1452373571
 21
-5.6912964388
 31
0.0
  0
SPLINE
  5
372
100
AcDbEntity
  8
0
100
AcDbSpline
 62
7
  6
CONTINUOUS
 70
0
 71
3
 72
8
 73
4
 74
2
 42
0.0000001
 43
0.0000001
 44
0.0000000001
 12
-0.4171821091
 22
-0.476779166
 32
0.0
 13
-0.7261661883
 23
0.0
 33
0.0
 40
0.0
 40
0.0
 40
0.0
 40
0.0
 40
1.0
 40
1.0
 40
1.0
 40
1.0
 10
-26.1609393685
 20
-5.5657307209
 30
0.0
 10
-26.3000000715
 20
-5.7246571096
 30
0.0
 10
-26.4903448224
 20
-5.8053468975
 30
0.0
 10
-26.7324002185
 20
-5.8053468975
 30
0.0
 11
-26.1609393685
 21
-5.5657307209
 31
0.0
 11
-26.7324002185
 21
-5.8053468975
 31
0.0
  0
SPLINE
  5
373
100
AcDbEntity
  8
0
100
AcDbSpline
 62
7
  6
CONTINUOUS
 70
0
 71
3
 72
8
 73
4
 74
2
 42
0.0000001
 43
0.0000001
 44
0.0000000001
 12
0.0
 22
-0.6704601299
 32
0.0
 13
-0.4083353069
 23
-0.4666685431
 33
0.0
 40
0.0
 40
0.0
 40
0.0
 40
0.0
 40
1.0
 40
1.0
 40
1.0
 40
1.0
 10
-25.954482913
 20
-4.9963429003
 30
0.0
 10
-25.954482913
 20
-5.2198296102
 30
0.0
 10
-26.0248275995
 20
-5.4101745399
 30
0.0
 10
-26.1609393685
 20
-5.5657307209
 30
0.0
 11
-25.954482913
 21
-4.9963429003
 31
0.0
 11
-26.1609393685
 21
-5.5657307209
 31
0.0
  0
SPLINE
  5
374
100
AcDbEntity
  8
0
100
AcDbSpline
 62
7
  6
CONTINUOUS
 70
0
 71
3
 72
8
 73
4
 74
2
 42
0.0000001
 43
0.0000001
 44
0.0000000001
 12
0.4065029761
 22
-0.4615184344
 32
0.0
 13
0.0
 23
-0.6764368762
 33
0.0
 40
0.0
 40
0.0
 40
0.0
 40
0.0
 40
1.0
 40
1.0
 40
1.0
 40
1.0
 10
-26.1603285916
 20
-4.4287487685
 30
0.0
 10
-26.0248275995
 20
-4.5825882467
 30
0.0
 10
-25.954482913
 20
-4.7708639415
 30
0.0
 10
-25.954482913
 20
-4.9963429003
 30
0.0
 11
-26.1603285916
 21
-4.4287487685
 31
0.0
 11
-25.954482913
 21
-4.9963429003
 31
0.0
  0
SPLINE
  5
375
100
AcDbEntity
  8
0
100
AcDbSpline
 62
7
  6
CONTINUOUS
 70
0
 71
3
 72
8
 73
4
 74
2
 42
0.0000001
 43
0.0000001
 44
0.0000000001
 12
0.7324301166
 22
-0.0037948133
 32
0.0
 13
0.4190144399
 23
-0.4757231795
 33
0.0
 40
0.0
 40
0.0
 40
0.0
 40
0.0
 40
1.0
 40
1.0
 40
1.0
 40
1.0
 10
-26.7344881946
 20
-4.1861507726
 30
0.0
 10
-26.4903448224
 20
-4.1874157103
 30
0.0
 10
-26.3000000715
 20
-4.2701743754
 30
0.0
 10
-26.1603285916
 20
-4.4287487685
 30
0.0
 11
-26.7344881946
 21
-4.1861507726
 31
0.0
 11
-26.1603285916
 21
-4.4287487685
 31
0.0
  0
SPLINE
  5
376
100
AcDbEntity
  8
0
100
AcDbSpline
 62
7
  6
CONTINUOUS
 70
0
 71
3
 72
8
 73
4
 74
2
 42
0.0000001
 43
0.0000001
 44
0.0000000001
 12
0.3557378017
 22
0.2392030046
 32
0.0
 13
0.4655007558
 23
-0.0024118184
 33
0.0
 40
0.0
 40
0.0
 40
0.0
 40
0.0
 40
1.0
 40
1.0
 40
1.0
 40
1.0
 10
-27.146855055
 20
-4.3043914444
 30
0.0
 10
-27.0282757878
 20
-4.2246571096
 30
0.0
 10
-26.8896551132
 20
-4.1853468331
 30
0.0
 10
-26.7344881946
 20
-4.1861507726
 30
0.0
 11
-27.146855055
 21
-4.3043914444
 31
0.0
 11
-26.7344881946
 21
-4.1861507726
 31
0.0
  0
SPLINE
  5
377
100
AcDbEntity
  8
0
100
AcDbSpline
 62
7
  6
CONTINUOUS
 70
0
 71
3
 72
8
 73
4
 74
2
 42
0.0000001
 43
0.0000001
 44
0.0000000001
 12
0.1799998283
 22
0.3786206245
 32
0.0
 13
0.3642625846
 23
0.2449351862
 33
0.0
 40
0.0
 40
0.0
 40
0.0
 40
0.0
 40
1.0
 40
1.0
 40
1.0
 40
1.0
 10
-27.4131034017
 20
-4.6156917127
 30
0.0
 10
-27.3531034589
 20
-4.4894848379
 30
0.0
 10
-27.2682759166
 20
-4.3860365065
 30
0.0
 10
-27.146855055
 20
-4.3043914444
 30
0.0
 11
-27.4131034017
 21
-4.6156917127
 31
0.0
 11
-27.146855055
 21
-4.3043914444
 31
0.0
  0
SPLINE
  5
378
100
AcDbEntity
  8
0
100
AcDbSpline
 62
7
  6
CONTINUOUS
 70
0
 71
3
 72
8
 73
4
 74
2
 42
0.0000001
 43
0.0000001
 44
0.0000000001
 12
0.2899413358
 22
-0.2749960286
 32
0.0
 13
0.4655172229
 23
-0.0124132633
 33
0.0
 40
0.0
 40
0.0
 40
0.0
 40
0.0
 40
1.0
 40
1.0
 40
1.0
 40
1.0
 10
-27.1373366995
 20
-5.3723021505
 30
0.0
 10
-27.0406895876
 20
-5.4639674934
 30
0.0
 10
-26.9144827127
 20
-5.5115538152
 30
0.0
 10
-26.7593103051
 20
-5.5156915697
 30
0.0
 11
-27.1373366995
 21
-5.3723021505
 31
0.0
 11
-26.7593103051
 21
-5.5156915697
 31
0.0
  0
SPLINE
  5
379
100
AcDbEntity
  8
0
100
AcDbSpline
 62
7
  6
CONTINUOUS
 70
0
 71
3
 72
8
 73
4
 74
2
 42
0.0000001
 43
0.0000001
 44
0.0000000001
 12
0.0
 22
-0.4531034231
 32
0.0
 13
0.3121276845
 23
-0.2960387605
 33
0.0
 40
0.0
 40
0.0
 40
0.0
 40
0.0
 40
1.0
 40
1.0
 40
1.0
 40
1.0
 10
-27.2931035161
 20
-4.9963812145
 30
0.0
 10
-27.2931035161
 20
-5.1474156888
 30
0.0
 10
-27.241379261
 20
-5.2736225637
 30
0.0
 10
-27.1373366995
 20
-5.3723021505
 30
0.0
 11
-27.2931035161
 21
-4.9963812145
 31
0.0
 11
-27.1373366995
 21
-5.3723021505
 31
0.0
  0
SPLINE
  5
37A
100
AcDbEntity
  8
0
100
AcDbSpline
 62
7
  6
CONTINUOUS
 70
0
 71
3
 72
8
 73
4
 74
2
 42
0.0000001
 43
0.0000001
 44
0.0000000001
 12
-0.3042006243
 22
-0.3042006243
 32
0.0
 13
0.0
 23
-0.4344824553
 33
0.0
 40
0.0
 40
0.0
 40
0.0
 40
0.0
 40
1.0
 40
1.0
 40
1.0
 40
1.0
 10
-27.1399790529
 20
-4.6280844009
 30
0.0
 10
-27.241379261
 20
-4.729484609
 30
0.0
 10
-27.2931035161
 20
-4.8515537294
 30
0.0
 10
-27.2931035161
 20
-4.9963812145
 30
0.0
 11
-27.1399790529
 21
-4.6280844009
 31
0.0
 11
-27.2931035161
 21
-4.9963812145
 31
0.0
  0
SPLINE
  5
37B
100
AcDbEntity
  8
0
100
AcDbSpline
 62
7
  6
CONTINUOUS
 70
0
 71
3
 72
8
 73
4
 74
2
 42
0.0000001
 43
0.0000001
 44
0.0000000001
 12
-0.4655172229
 22
0.0
 32
0.0
 13
-0.297868396
 23
-0.297868396
 33
0.0
 40
0.0
 40
0.0
 40
0.0
 40
0.0
 40
1.0
 40
1.0
 40
1.0
 40
1.0
 10
-26.7593103051
 20
-4.4770710381
 30
0.0
 10
-26.9144827127
 20
-4.4770710381
 30
0.0
 10
-27.0406895876
 20
-4.5287949356
 30
0.0
 10
-27.1399790529
 20
-4.6280844009
 30
0.0
 11
-26.7593103051
 21
-4.4770710381
 31
0.0
 11
-27.1399790529
 21
-4.6280844009
 31
0.0
  0
SPLINE
  5
37C
100
AcDbEntity
  8
0
100
AcDbSpline
 62
7
  6
CONTINUOUS
 70
0
 71
3
 72
8
 73
4
 74
2
 42
0.0000001
 43
0.0000001
 44
0.0000000001
 12
-0.2916578902
 22
0.3042023214
 32
0.0
 13
-0.4717238545
 23
0.0
 33
0.0
 40
0.0
 40
0.0
 40
0.0
 40
0.0
 40
1.0
 40
1.0
 40
1.0
 40
1.0
 10
-26.3765737927
 20
-4.6301957094
 30
0.0
 10
-26.4737930894
 20
-4.5287949356
 30
0.0
 10
-26.6020690203
 20
-4.4770710381
 30
0.0
 10
-26.7593103051
 20
-4.4770710381
 30
0.0
 11
-26.3765737927
 21
-4.6301957094
 31
0.0
 11
-26.7593103051
 21
-4.4770710381
 31
0.0
  0
SPLINE
  5
37D
100
AcDbEntity
  8
0
100
AcDbSpline
 62
7
  6
CONTINUOUS
 70
0
 71
3
 72
8
 73
4
 74
2
 42
0.0000001
 43
0.0000001
 44
0.0000000001
 12
0.0
 22
0.4346597593
 32
0.0
 13
-0.2855835306
 23
0.2978666989
 33
0.0
 40
0.0
 40
0.0
 40
0.0
 40
0.0
 40
1.0
 40
1.0
 40
1.0
 40
1.0
 10
-26.2317240834
 20
-4.9964403158
 30
0.0
 10
-26.2317240834
 20
-4.8515537294
 30
0.0
 10
-26.2813792825
 20
-4.729484609
 30
0.0
 10
-26.3765737927
 20
-4.6301957094
 30
0.0
 11
-26.2317240834
 21
-4.9964403158
 31
0.0
 11
-26.3765737927
 21
-4.6301957094
 31
0.0
  0
SPLINE
  5
37E
100
AcDbEntity
  8
0
100
AcDbSpline
 62
7
  6
CONTINUOUS
 70
0
 71
3
 72
8
 73
4
 74
2
 42
0.0000001
 43
0.0000001
 44
0.0000000001
 12
0.2933632096
 22
0.2902089013
 32
0.0
 13
0.0
 23
0.4529261191
 33
0.0
 40
0.0
 40
0.0
 40
0.0
 40
0.0
 40
1.0
 40
1.0
 40
1.0
 40
1.0
 10
-26.379167019
 20
-5.3703588641
 30
0.0
 10
-26.2813792825
 20
-5.2736225637
 30
0.0
 10
-26.2317240834
 20
-5.1474156888
 30
0.0
 10
-26.2317240834
 20
-4.9964403158
 30
0.0
 11
-26.379167019
 21
-5.3703588641
 31
0.0
 11
-26.2317240834
 21
-4.9964403158
 31
0.0
  0
SPLINE
  5
37F
100
AcDbEntity
  8
0
100
AcDbSpline
 62
7
  6
CONTINUOUS
 70
0
 71
3
 72
8
 73
4
 74
2
 42
0.0000001
 43
0.0000001
 44
0.0000000001
 12
0.4717238545
 22
0.0124132633
 32
0.0
 13
0.2838782112
 23
0.2808258878
 33
0.0
 40
0.0
 40
0.0
 40
0.0
 40
0.0
 40
1.0
 40
1.0
 40
1.0
 40
1.0
 10
-26.7593103051
 20
-5.5156915697
 30
0.0
 10
-26.6020690203
 20
-5.5115538152
 30
0.0
 10
-26.4737930894
 20
-5.4639674934
 30
0.0
 10
-26.379167019
 20
-5.3703588641
 30
0.0
 11
-26.7593103051
 21
-5.5156915697
 31
0.0
 11
-26.379167019
 21
-5.3703588641
 31
0.0
  0
SPLINE
  5
380
100
AcDbEntity
  8
0
100
AcDbSpline
 62
7
  6
CONTINUOUS
 70
0
 71
3
 72
8
 73
4
 74
2
 42
0.0000001
 43
0.0000001
 44
0.0000000001
 12
-0.3553061136
 22
0.3647390944
 32
0.0
 13
-0.5834483206
 23
0.0124137998
 33
0.0
 40
0.0
 40
0.0
 40
0.0
 40
0.0
 40
1.0
 40
1.0
 40
1.0
 40
1.0
 10
-27.6546680448
 20
-2.1738230562
 30
0.0
 10
-27.773103416
 20
-2.0522433581
 30
0.0
 10
-27.9303447902
 20
-1.9922433706
 30
0.0
 10
-28.1248275638
 20
-1.9881054374
 30
0.0
 11
-27.6546680448
 21
-2.1738230562
 31
0.0
 11
-28.1248275638
 21
-1.9881054374
 31
0.0
  0
SPLINE
  5
381
100
AcDbEntity
  8
0
100
AcDbSpline
 62
7
  6
CONTINUOUS
 70
0
 71
3
 72
8
 73
4
 74
2
 42
0.0000001
 43
0.0000001
 44
0.0000000001
 12
0.0
 22
0.5773748871
 32
0.0
 13
-0.3460730366
 23
0.3552608895
 33
0.0
 40
0.0
 40
0.0
 40
0.0
 40
0.0
 40
1.0
 40
1.0
 40
1.0
 40
1.0
 10
-27.4793103337
 20
-2.6378050894
 30
0.0
 10
-27.4793103337
 20
-2.4453467937
 30
0.0
 10
-27.5393103659
 20
-2.2922433527
 30
0.0
 10
-27.6546680448
 20
-2.1738230562
 30
0.0
 11
-27.4793103337
 21
-2.6378050894
 31
0.0
 11
-27.6546680448
 21
-2.1738230562
 31
0.0
  0
SPLINE
  5
382
100
AcDbEntity
  8
0
100
AcDbSpline
 62
7
  6
CONTINUOUS
 70
0
 71
3
 72
8
 73
4
 74
2
 42
0.0000001
 43
0.0000001
 44
0.0000000001
 12
0.3507034422
 22
0.3507034422
 32
0.0
 13
0.0
 23
0.595728654
 33
0.0
 40
0.0
 40
0.0
 40
0.0
 40
0.0
 40
1.0
 40
1.0
 40
1.0
 40
1.0
 10
-27.6562115133
 20
-3.1105238291
 30
0.0
 10
-27.5393103659
 20
-2.9936226817
 30
0.0
 10
-27.4793103337
 20
-2.8363813075
 30
0.0
 10
-27.4793103337
 20
-2.6378050894
 30
0.0
 11
-27.6562115133
 21
-3.1105238291
 31
0.0
 11
-27.4793103337
 21
-2.6378050894
 31
0.0
  0
SPLINE
  5
383
100
AcDbEntity
  8
0
100
AcDbSpline
 62
7
  6
CONTINUOUS
 70
0
 71
3
 72
8
 73
4
 74
2
 42
0.0000001
 43
0.0000001
 44
0.0000000001
 12
0.5835803674
 22
0.0
 32
0.0
 13
0.350675708
 23
0.350675708
 33
0.0
 40
0.0
 40
0.0
 40
0.0
 40
0.0
 40
1.0
 40
1.0
 40
1.0
 40
1.0
 10
-28.1248715794
 20
-3.2853467973
 30
0.0
 10
-27.9303447902
 20
-3.2853467973
 30
0.0
 10
-27.773103416
 20
-3.2274157318
 30
0.0
 10
-27.6562115133
 20
-3.1105238291
 30
0.0
 11
-28.1248715794
 21
-3.2853467973
 31
0.0
 11
-27.6562115133
 21
-3.1105238291
 31
0.0
  0
SPLINE
  5
384
100
AcDbEntity
  8
0
100
AcDbSpline
 62
7
  6
CONTINUOUS
 70
0
 71
3
 72
8
 73
4
 74
2
 42
0.0000001
 43
0.0000001
 44
0.0000000001
 12
0.3552671746
 22
-0.3460791269
 32
0.0
 13
0.5771093739
 23
0.0
 33
0.0
 40
0.0
 40
0.0
 40
0.0
 40
0.0
 40
1.0
 40
1.0
 40
1.0
 40
1.0
 10
-28.5929051365
 20
-3.1120560228
 30
0.0
 10
-28.4744827449
 20
-3.2274157318
 30
0.0
 10
-28.3172413707
 20
-3.2853467973
 30
0.0
 10
-28.1248715794
 20
-3.2853467973
 30
0.0
 11
-28.5929051365
 21
-3.1120560228
 31
0.0
 11
-28.1248715794
 21
-3.2853467973
 31
0.0
  0
SPLINE
  5
385
100
AcDbEntity
  8
0
100
AcDbSpline
 62
7
  6
CONTINUOUS
 70
0
 71
3
 72
8
 73
4
 74
2
 42
0.0000001
 43
0.0000001
 44
0.0000000001
 12
0.0
 22
-0.5958621204
 32
0.0
 13
0.3647328764
 23
-0.3553000233
 33
0.0
 40
0.0
 40
0.0
 40
0.0
 40
0.0
 40
1.0
 40
1.0
 40
1.0
 40
1.0
 10
-28.776551716
 20
-2.6377606007
 30
0.0
 10
-28.776551716
 20
-2.8363813075
 30
0.0
 10
-28.7144827619
 20
-2.9936226817
 30
0.0
 10
-28.5929051365
 20
-3.1120560228
 30
0.0
 11
-28.776551716
 21
-2.6377606007
 31
0.0
 11
-28.5929051365
 21
-3.1120560228
 31
0.0
  0
SPLINE
  5
386
100
AcDbEntity
  8
0
100
AcDbSpline
 62
7
  6
CONTINUOUS
 70
0
 71
3
 72
8
 73
4
 74
2
 42
0.0000001
 43
0.0000001
 44
0.0000000001
 12
-0.3600534796
 22
-0.3600534461
 32
0.0
 13
0.0
 23
-0.5772414207
 33
0.0
 40
0.0
 40
0.0
 40
0.0
 40
0.0
 40
1.0
 40
1.0
 40
1.0
 40
1.0
 10
-28.5944649354
 20
-2.1722255374
 30
0.0
 10
-28.7144827619
 20
-2.2922433527
 30
0.0
 10
-28.776551716
 20
-2.4453467937
 30
0.0
 10
-28.776551716
 20
-2.6377606007
 30
0.0
 11
-28.5944649354
 21
-2.1722255374
 31
0.0
 11
-28.776551716
 21
-2.6377606007
 31
0.0
  0
SPLINE
  5
387
100
AcDbEntity
  8
0
100
AcDbSpline
 62
7
  6
CONTINUOUS
 70
0
 71
3
 72
8
 73
4
 74
2
 42
0.0000001
 43
0.0000001
 44
0.0000000001
 12
-0.5772414207
 22
-0.0124137998
 32
0.0
 13
-0.3599465714
 23
-0.3599465379
 33
0.0
 40
0.0
 40
0.0
 40
0.0
 40
0.0
 40
1.0
 40
1.0
 40
1.0
 40
1.0
 10
-28.1248275638
 20
-1.9881054374
 30
0.0
 10
-28.3172413707
 20
-1.9922433706
 30
0.0
 10
-28.4744827449
 20
-2.0522433581
 30
0.0
 10
-28.5944649354
 20
-2.1722255374
 30
0.0
 11
-28.1248275638
 21
-1.9881054374
 31
0.0
 11
-28.5944649354
 21
-2.1722255374
 31
0.0
  0
SPLINE
  5
388
100
AcDbEntity
  8
0
100
AcDbSpline
 62
7
  6
CONTINUOUS
 70
0
 71
3
 72
8
 73
4
 74
2
 42
0.0000001
 43
0.0000001
 44
0.0000000001
 12
0.3397903543
 22
-0.3306064629
 32
0.0
 13
0.5400000215
 23
-0.0124143362
 33
0.0
 40
0.0
 40
0.0
 40
0.0
 40
0.0
 40
1.0
 40
1.0
 40
1.0
 40
1.0
 10
-28.5960220629
 20
-5.4572134916
 30
0.0
 10
-28.4827586114
 20
-5.5674156459
 30
0.0
 10
-28.3379310369
 20
-5.6232778343
 30
0.0
 10
-28.1579310298
 20
-5.6274159463
 30
0.0
 11
-28.5960220629
 21
-5.4572134916
 31
0.0
 11
-28.1579310298
 21
-5.6274159463
 31
0.0
  0
SPLINE
  5
389
100
AcDbEntity
  8
0
100
AcDbSpline
 62
7
  6
CONTINUOUS
 70
0
 71
3
 72
8
 73
4
 74
2
 42
0.0000001
 43
0.0000001
 44
0.0000000001
 12
0.0
 22
-0.5835800993
 32
0.0
 13
0.3491751973
 23
-0.3397376514
 33
0.0
 40
0.0
 40
0.0
 40
0.0
 40
0.0
 40
1.0
 40
1.0
 40
1.0
 40
1.0
 10
-28.7724137828
 20
-4.9963371988
 30
0.0
 10
-28.7724137828
 20
-5.1908638986
 30
0.0
 10
-28.7124137953
 20
-5.3439676078
 30
0.0
 10
-28.5960220629
 20
-5.4572134916
 30
0.0
 11
-28.7724137828
 21
-4.9963371988
 31
0.0
 11
-28.5960220629
 21
-5.4572134916
 31
0.0
  0
SPLINE
  5
38A
100
AcDbEntity
  8
0
100
AcDbSpline
 62
7
  6
CONTINUOUS
 70
0
 71
3
 72
8
 73
4
 74
2
 42
0.0000001
 43
0.0000001
 44
0.0000000001
 12
-0.3429770464
 22
-0.3398870615
 32
0.0
 13
0.0
 23
-0.5771093739
 33
0.0
 40
0.0
 40
0.0
 40
0.0
 40
0.0
 40
1.0
 40
1.0
 40
1.0
 40
1.0
 10
-28.5980881132
 20
-4.539637246
 30
0.0
 10
-28.7124137953
 20
-4.6529329332
 30
0.0
 10
-28.7724137828
 20
-4.8039674076
 30
0.0
 10
-28.7724137828
 20
-4.9963371988
 30
0.0
 11
-28.5980881132
 21
-4.539637246
 31
0.0
 11
-28.7724137828
 21
-4.9963371988
 31
0.0
  0
SPLINE
  5
38B
100
AcDbEntity
  8
0
100
AcDbSpline
 62
7
  6
CONTINUOUS
 70
0
 71
3
 72
8
 73
4
 74
2
 42
0.0000001
 43
0.0000001
 44
0.0000000001
 12
-0.5400000215
 22
0.0
 32
0.0
 13
-0.3459885052
 23
-0.3428713891
 33
0.0
 40
0.0
 40
0.0
 40
0.0
 40
0.0
 40
1.0
 40
1.0
 40
1.0
 40
1.0
 10
-28.1579310298
 20
-4.3674157175
 30
0.0
 10
-28.3379310369
 20
-4.3674157175
 30
0.0
 10
-28.4827586114
 20
-4.425346783
 30
0.0
 10
-28.5980881132
 20
-4.539637246
 30
0.0
 11
-28.1579310298
 21
-4.3674157175
 31
0.0
 11
-28.5980881132
 21
-4.539637246
 31
0.0
  0
SPLINE
  5
38C
100
AcDbEntity
  8
0
100
AcDbSpline
 62
7
  6
CONTINUOUS
 70
0
 71
3
 72
8
 73
4
 74
2
 42
0.0000001
 43
0.0000001
 44
0.0000000001
 12
-0.3398732396
 22
0.3429912092
 32
0.0
 13
-0.5400000215
 23
0.0
 33
0.0
 40
0.0
 40
0.0
 40
0.0
 40
0.0
 40
1.0
 40
1.0
 40
1.0
 40
1.0
 10
-27.7177434017
 20
-4.5396771861
 30
0.0
 10
-27.8310344815
 20
-4.425346783
 30
0.0
 10
-27.9779310226
 20
-4.3674157175
 30
0.0
 10
-28.1579310298
 20
-4.3674157175
 30
0.0
 11
-27.7177434017
 21
-4.5396771861
 31
0.0
 11
-28.1579310298
 21
-4.3674157175
 31
0.0
  0
SPLINE
  5
38D
100
AcDbEntity
  8
0
100
AcDbSpline
 62
7
  6
CONTINUOUS
 70
0
 71
3
 72
8
 73
4
 74
2
 42
0.0000001
 43
0.0000001
 44
0.0000000001
 12
0.0
 22
0.5773748871
 32
0.0
 13
-0.3366785793
 23
0.3397672413
 33
0.0
 40
0.0
 40
0.0
 40
0.0
 40
0.0
 40
1.0
 40
1.0
 40
1.0
 40
1.0
 10
-27.5475862324
 20
-4.9964257033
 30
0.0
 10
-27.5475862324
 20
-4.8039674076
 30
0.0
 10
-27.6055172086
 20
-4.6529329332
 30
0.0
 10
-27.7177434017
 20
-4.5396771861
 30
0.0
 11
-27.5475862324
 21
-4.9964257033
 31
0.0
 11
-27.7177434017
 21
-4.5396771861
 31
0.0
  0
SPLINE
  5
38E
100
AcDbEntity
  8
0
100
AcDbSpline
 62
7
  6
CONTINUOUS
 70
0
 71
3
 72
8
 73
4
 74
2
 42
0.0000001
 43
0.0000001
 44
0.0000000001
 12
0.3429488298
 22
0.3398021011
 32
0.0
 13
0.0
 23
0.5833145861
 33
0.0
 40
0.0
 40
0.0
 40
0.0
 40
0.0
 40
1.0
 40
1.0
 40
1.0
 40
1.0
 10
-27.7198334852
 20
-5.4572349749
 30
0.0
 10
-27.6055172086
 20
-5.3439676078
 30
0.0
 10
-27.5475862324
 20
-5.1908638986
 30
0.0
 10
-27.5475862324
 20
-4.9964257033
 30
0.0
 11
-27.7198334852
 21
-5.4572349749
 31
0.0
 11
-27.5475862324
 21
-4.9964257033
 31
0.0
  0
SPLINE
  5
38F
100
AcDbEntity
  8
0
100
AcDbSpline
 62
7
  6
CONTINUOUS
 70
0
 71
3
 72
8
 73
4
 74
2
 42
0.0000001
 43
0.0000001
 44
0.0000000001
 12
0.5400000215
 22
0.0124143362
 32
0.0
 13
0.3336029891
 23
0.3305420132
 33
0.0
 40
0.0
 40
0.0
 40
0.0
 40
0.0
 40
1.0
 40
1.0
 40
1.0
 40
1.0
 10
-28.1579310298
 20
-5.6274159463
 30
0.0
 10
-27.9779310226
 20
-5.6232778343
 30
0.0
 10
-27.8310344815
 20
-5.5674156459
 30
0.0
 10
-27.7198334852
 20
-5.4572349749
 30
0.0
 11
-28.1579310298
 21
-5.6274159463
 31
0.0
 11
-27.7198334852
 21
-5.4572349749
 31
0.0
  0
SPLINE
  5
390
100
AcDbEntity
  8
0
100
AcDbSpline
 62
7
  6
CONTINUOUS
 70
0
 71
3
 72
8
 73
4
 74
2
 42
0.0000001
 43
0.0000001
 44
0.0000000001
 12
0.5383932125
 22
0.5292160179
 32
0.0
 13
-0.0
 23
0.8751943588
 33
0.0
 40
0.0
 40
0.0
 40
0.0
 40
0.0
 40
1.0
 40
1.0
 40
1.0
 40
1.0
 10
-0.2656712576
 20
-40.9769245854
 30
0.0
 10
-0.0862068534
 20
-40.8005192461
 30
0.0
 10
0.0048274994
 20
-40.5667261513
 30
0.0
 10
0.0048274994
 20
-40.2749946984
 30
0.0
 11
-0.2656712576
 21
-40.9769245854
 31
0.0
 11
0.0048274994
 21
-40.2749946984
 31
0.0
  0
SPLINE
  5
391
100
AcDbEntity
  8
0
100
AcDbSpline
 62
7
  6
CONTINUOUS
 70
0
 71
3
 72
8
 73
4
 74
2
 42
0.0000001
 43
0.0000001
 44
0.0000000001
 12
-0.0
 22
0.8441161037
 32
0.0
 13
-0.4952235455
 23
0.5292703164
 33
0.0
 40
0.0
 40
0.0
 40
0.0
 40
0.0
 40
1.0
 40
1.0
 40
1.0
 40
1.0
 10
0.0048274994
 20
-40.2749946984
 30
0.0
 10
0.0048274994
 20
-39.9936226638
 30
0.0
 10
-0.0779309869
 20
-39.7618985804
 30
0.0
 10
-0.2430055021
 20
-39.5854751416
 30
0.0
 11
0.0048274994
 21
-40.2749946984
 31
0.0
 11
-0.2430055021
 21
-39.5854751416
 31
0.0
  0
SPLINE
  5
392
100
AcDbEntity
  8
0
100
AcDbSpline
 62
7
  6
CONTINUOUS
 70
0
 71
3
 72
8
 73
4
 74
2
 42
0.0000001
 43
0.0000001
 44
0.0000000001
 12
-0.4978798991
 22
0.5321092951
 32
0.0
 13
-0.8379438348
 23
0.0041690567
 33
0.0
 40
0.0
 40
0.0
 40
0.0
 40
0.0
 40
1.0
 40
1.0
 40
1.0
 40
1.0
 10
-0.2430055021
 20
-39.5854751416
 30
0.0
 10
-0.4089654684
 20
-39.4081053766
 30
0.0
 10
-0.6303448081
 20
-39.3170710238
 30
0.0
 10
-0.9096594197
 20
-39.3156813382
 30
0.0
 11
-0.2430055021
 21
-39.5854751416
 31
0.0
 11
-0.9096594197
 21
-39.3156813382
 31
0.0
  0
SPLINE
  5
393
100
AcDbEntity
  8
0
100
AcDbSpline
 62
7
  6
CONTINUOUS
 70
0
 71
3
 72
8
 73
4
 74
2
 42
0.0000001
 43
0.0000001
 44
0.0000000001
 12
-0.4096425049
 22
0.0020381114
 32
0.0
 13
-0.3724137247
 23
-0.1427584291
 33
0.0
 40
0.0
 40
0.0
 40
0.0
 40
0.0
 40
1.0
 40
1.0
 40
1.0
 40
1.0
 10
-0.9096594197
 20
-39.3156813382
 30
0.0
 10
-1.0462069213
 20
-39.3150019678
 30
0.0
 10
-1.1765517294
 20
-39.3377606901
 30
0.0
 10
-1.3006896377
 20
-39.3853468331
 30
0.0
 11
-0.9096594197
 21
-39.3156813382
 31
0.0
 11
-1.3006896377
 21
-39.3853468331
 31
0.0
  0
SPLINE
  5
394
100
AcDbEntity
  8
0
100
AcDbSpline
 62
7
  6
CONTINUOUS
 70
0
 71
3
 72
8
 73
4
 74
2
 42
0.0000001
 43
0.0000001
 44
0.0000000001
 12
-0.6394309306
 22
0.0
 32
0.0
 13
-0.564827621
 23
-0.3289654255
 33
0.0
 40
0.0
 40
0.0
 40
0.0
 40
0.0
 40
1.0
 40
1.0
 40
1.0
 40
1.0
 10
-0.9985805186
 20
-39.594312373
 30
0.0
 10
-1.2117241621
 20
-39.594312373
 30
0.0
 10
-1.4144827574
 20
-39.6481055053
 30
0.0
 10
-1.6027586311
 20
-39.7577606472
 30
0.0
 11
-0.9985805186
 21
-39.594312373
 31
0.0
 11
-1.6027586311
 21
-39.7577606472
 31
0.0
  0
SPLINE
  5
395
100
AcDbEntity
  8
0
100
AcDbSpline
 62
7
  6
CONTINUOUS
 70
0
 71
3
 72
8
 73
4
 74
2
 42
0.0000001
 43
0.0000001
 44
0.0000000001
 12
-0.3926384655
 22
0.3895224198
 32
0.0
 13
-0.6391899085
 23
0.0
 33
0.0
 40
0.0
 40
0.0
 40
0.0
 40
0.0
 40
1.0
 40
1.0
 40
1.0
 40
1.0
 10
-0.4829135866
 20
-39.7882910556
 30
0.0
 10
-0.6137930751
 20
-39.6584502491
 30
0.0
 10
-0.7855172157
 20
-39.594312373
 30
0.0
 10
-0.9985805186
 20
-39.594312373
 30
0.0
 11
-0.4829135866
 21
-39.7882910556
 31
0.0
 11
-0.9985805186
 21
-39.594312373
 31
0.0
  0
SPLINE
  5
396
100
AcDbEntity
  8
0
100
AcDbSpline
 62
7
  6
CONTINUOUS
 70
0
 71
3
 72
8
 73
4
 74
2
 42
0.0000001
 43
0.0000001
 44
0.0000000001
 12
-0.0
 22
0.6518421671
 32
0.0
 13
-0.3894303831
 23
0.3863397972
 33
0.0
 40
0.0
 40
0.0
 40
0.0
 40
0.0
 40
1.0
 40
1.0
 40
1.0
 40
1.0
 10
-0.2889655828
 20
-40.3060758511
 30
0.0
 10
-0.2889655828
 20
-40.0887951287
 30
0.0
 10
-0.3531034589
 20
-39.917070988
 30
0.0
 10
-0.4829135866
 20
-39.7882910556
 30
0.0
 11
-0.2889655828
 21
-40.3060758511
 31
0.0
 11
-0.4829135866
 21
-39.7882910556
 31
0.0
  0
SPLINE
  5
397
100
AcDbEntity
  8
0
100
AcDbSpline
 62
7
  6
CONTINUOUS
 70
0
 71
3
 72
8
 73
4
 74
2
 42
0.0000001
 43
0.0000001
 44
0.0000000001
 12
0.3631694989
 22
0.3753767825
 32
0.0
 13
-0.0
 23
0.5647094049
 33
0.0
 40
0.0
 40
0.0
 40
0.0
 40
0.0
 40
1.0
 40
1.0
 40
1.0
 40
1.0
 10
-0.4720909025
 20
-40.7766793325
 30
0.0
 10
-0.3510344028
 20
-40.6515537383
 30
0.0
 10
-0.2889655828
 20
-40.4943123194
 30
0.0
 10
-0.2889655828
 20
-40.3060758511
 30
0.0
 11
-0.4720909025
 21
-40.7766793325
 31
0.0
 11
-0.2889655828
 21
-40.3060758511
 31
0.0
  0
SPLINE
  5
398
100
AcDbEntity
  8
0
100
AcDbSpline
 62
7
  6
CONTINUOUS
 70
0
 71
3
 72
8
 73
4
 74
2
 42
0.0000001
 43
0.0000001
 44
0.0000000001
 12
0.5711634833
 22
-0.0026080253
 32
0.0
 13
0.3754513188
 23
0.3880714335
 33
0.0
 40
0.0
 40
0.0
 40
0.0
 40
0.0
 40
1.0
 40
1.0
 40
1.0
 40
1.0
 10
-0.9428015775
 20
-40.9713740226
 30
0.0
 10
-0.7524137497
 20
-40.9722433644
 30
0.0
 10
-0.5972413421
 20
-40.906036477
 30
0.0
 10
-0.4720909025
 20
-40.7766793325
 30
0.0
 11
-0.9428015775
 21
-40.9713740226
 31
0.0
 11
-0.4720909025
 21
-40.7766793325
 31
0.0
  0
SPLINE
  5
399
100
AcDbEntity
  8
0
100
AcDbSpline
 62
7
  6
CONTINUOUS
 70
0
 71
3
 72
8
 73
4
 74
2
 42
0.0000001
 43
0.0000001
 44
0.0000000001
 12
0.3537931591
 22
-0.7572414503
 32
0.0
 13
0.7881470543
 23
-0.0035988075
 33
0.0
 40
0.0
 40
0.0
 40
0.0
 40
0.0
 40
1.0
 40
1.0
 40
1.0
 40
1.0
 10
-1.5117241442
 20
-40.5894847395
 30
0.0
 10
-1.3937930912
 20
-40.8418985563
 30
0.0
 10
-1.2055172622
 20
-40.9701744201
 30
0.0
 10
-0.9428015775
 20
-40.9713740226
 30
0.0
 11
-1.5117241442
 21
-40.5894847395
 31
0.0
 11
-0.9428015775
 21
-40.9713740226
 31
0.0
  0
SPLINE
  5
39A
100
AcDbEntity
  8
0
100
AcDbSpline
 62
7
  6
CONTINUOUS
 70
0
 71
3
 72
8
 73
4
 74
2
 42
0.0000001
 43
0.0000001
 44
0.0000000001
 12
-1.1483430413
 22
0.0
 32
0.0
 13
-0.5213793218
 23
1.0551723763
 33
0.0
 40
0.0
 40
0.0
 40
0.0
 40
0.0
 40
1.0
 40
1.0
 40
1.0
 40
1.0
 10
-0.9675638229
 20
-41.2474157861
 30
0.0
 10
-1.3503448367
 20
-41.2474157861
 30
0.0
 10
-1.6296551749
 20
-41.0736226844
 30
0.0
 10
-1.8034482822
 20
-40.7218985589
 30
0.0
 11
-0.9675638229
 21
-41.2474157861
 31
0.0
 11
-1.8034482822
 21
-40.7218985589
 31
0.0
  0
SPLINE
  5
39B
100
AcDbEntity
  8
0
100
AcDbSpline
 62
7
  6
CONTINUOUS
 70
0
 71
3
 72
8
 73
4
 74
2
 42
0.0000001
 43
0.0000001
 44
0.0000000001
 12
-0.5540206302
 22
-0.544577058
 32
0.0
 13
-0.8564845475
 23
0.0
 33
0.0
 40
0.0
 40
0.0
 40
0.0
 40
0.0
 40
1.0
 40
1.0
 40
1.0
 40
1.0
 10
-0.2656712576
 20
-40.9769245854
 30
0.0
 10
-0.4503448009
 20
-41.1584502714
 30
0.0
 10
-0.6820689738
 20
-41.2474157861
 30
0.0
 10
-0.9675638229
 20
-41.2474157861
 30
0.0
 11
-0.2656712576
 21
-40.9769245854
 31
0.0
 11
-0.9675638229
 21
-41.2474157861
 31
0.0
  0
SPLINE
  5
39C
100
AcDbEntity
  8
0
100
AcDbSpline
 62
7
  6
CONTINUOUS
 70
0
 71
3
 72
8
 73
4
 74
2
 42
0.0000001
 43
0.0000001
 44
0.0000000001
 12
-0.4441581203
 22
0.2714298291
 32
0.0
 13
-0.6144822836
 23
0.0
 33
0.0
 40
0.0
 40
0.0
 40
0.0
 40
0.0
 40
1.0
 40
1.0
 40
1.0
 40
1.0
 10
1.8308111573
 20
-39.9020302998
 30
0.0
 10
1.6827584505
 20
-39.8115536901
 30
0.0
 10
1.5068963766
 20
-39.7681054803
 30
0.0
 10
1.3020689487
 20
-39.7681054803
 30
0.0
 11
1.8308111573
 21
-39.9020302998
 31
0.0
 11
1.3020689487
 21
-39.7681054803
 31
0.0
  0
SPLINE
  5
39D
100
AcDbEntity
  8
0
100
AcDbSpline
 62
7
  6
CONTINUOUS
 70
0
 71
3
 72
8
 73
4
 74
2
 42
0.0000001
 43
0.0000001
 44
0.0000000001
 12
0.0
 22
0.6828715524
 32
0.0
 13
-0.4496354626
 23
0.2747770922
 33
0.0
 40
0.0
 40
0.0
 40
0.0
 40
0.0
 40
1.0
 40
1.0
 40
1.0
 40
1.0
 10
2.0551724434
 20
-40.3826258221
 30
0.0
 10
2.0551724434
 20
-40.1550019713
 30
0.0
 10
1.9806896448
 20
-39.9936226638
 30
0.0
 10
1.8308111573
 20
-39.9020302998
 30
0.0
 11
2.0551724434
 21
-40.3826258221
 31
0.0
 11
1.8308111573
 21
-39.9020302998
 31
0.0
  0
SPLINE
  5
39E
100
AcDbEntity
  8
0
100
AcDbSpline
 62
7
  6
CONTINUOUS
 70
0
 71
3
 72
8
 73
4
 74
2
 42
0.0000001
 43
0.0000001
 44
0.0000000001
 12
0.3429767105
 22
0.3215405007
 32
0.0
 13
0.0
 23
0.5336802879
 33
0.0
 40
0.0
 40
0.0
 40
0.0
 40
0.0
 40
1.0
 40
1.0
 40
1.0
 40
1.0
 10
1.8808469304
 20
-40.8083890596
 30
0.0
 10
1.9951725006
 20
-40.7012088927
 30
0.0
 10
2.0551724434
 20
-40.5605192514
 30
0.0
 10
2.0551724434
 20
-40.3826258221
 30
0.0
 11
1.8808469304
 21
-40.8083890596
 31
0.0
 11
2.0551724434
 21
-40.3826258221
 31
0.0
  0
SPLINE
  5
39F
100
AcDbEntity
  8
0
100
AcDbSpline
 62
7
  6
CONTINUOUS
 70
0
 71
3
 72
8
 73
4
 74
2
 42
0.0000001
 43
0.0000001
 44
0.0000000001
 12
0.5275862217
 22
0.0
 32
0.0
 13
0.3521960762
 23
0.3301836516
 33
0.0
 40
0.0
 40
0.0
 40
0.0
 40
0.0
 40
1.0
 40
1.0
 40
1.0
 40
1.0
 10
1.4427586794
 20
-40.9763812976
 30
0.0
 10
1.6186207533
 20
-40.9763812976
 30
0.0
 10
1.7634482384
 20
-40.9184502768
 30
0.0
 10
1.8808469304
 20
-40.8083890596
 30
0.0
 11
1.4427586794
 21
-40.9763812976
 31
0.0
 11
1.8808469304
 21
-40.8083890596
 31
0.0
  0
SPLINE
  5
3A0
100
AcDbEntity
  8
0
100
AcDbSpline
 62
7
  6
CONTINUOUS
 70
0
 71
3
 72
8
 73
4
 74
2
 42
0.0000001
 43
0.0000001
 44
0.0000000001
 12
0.2606892586
 22
-0.8441379145
 32
0.0
 13
1.011723876
 23
0.0
 33
0.0
 40
0.0
 40
0.0
 40
0.0
 40
0.0
 40
1.0
 40
1.0
 40
1.0
 40
1.0
 10
0.8055173159
 20
-40.5522433849
 30
0.0
 10
0.8924137354
 20
-40.8336226898
 30
0.0
 10
1.1055173874
 20
-40.9763812976
 30
0.0
 10
1.4427586794
 20
-40.9763812976
 30
0.0
 11
0.8055173159
 21
-40.5522433849
 31
0.0
 11
1.4427586794
 21
-40.9763812976
 31
0.0
  0
SPLINE
  5
3A1
100
AcDbEntity
  8
0
100
AcDbSpline
 62
7
  6
CONTINUOUS
 70
0
 71
3
 72
8
 73
4
 74
2
 42
0.0000001
 43
0.0000001
 44
0.0000000001
 12
-1.3220320416
 22
-0.0115967811
 32
0.0
 13
-0.5213790536
 23
1.2165516727
 33
0.0
 40
0.0
 40
0.0
 40
0.0
 40
0.0
 40
1.0
 40
1.0
 40
1.0
 40
1.0
 10
1.4137808705
 20
-41.2497570923
 30
0.0
 10
0.9731035233
 20
-41.253622686
 30
0.0
 10
0.6648275852
 20
-41.0550019959
 30
0.0
 10
0.4910345674
 20
-40.6494847717
 30
0.0
 11
1.4137808705
 21
-41.2497570923
 31
0.0
 11
0.4910345674
 21
-40.6494847717
 31
0.0
  0
SPLINE
  5
3A2
100
AcDbEntity
  8
0
100
AcDbSpline
 62
7
  6
CONTINUOUS
 70
0
 71
3
 72
8
 73
4
 74
2
 42
0.0000001
 43
0.0000001
 44
0.0000000001
 12
-0.5347683119
 22
-0.4446040863
 32
0.0
 13
-0.8007261085
 23
-0.0070239186
 33
0.0
 40
0.0
 40
0.0
 40
0.0
 40
0.0
 40
1.0
 40
1.0
 40
1.0
 40
1.0
 10
2.0803251958
 20
-41.0247316673
 30
0.0
 10
1.9020690918
 20
-41.1729330294
 30
0.0
 10
1.6806895733
 20
-41.2474157861
 30
0.0
 10
1.4137808705
 20
-41.2497570923
 30
0.0
 11
2.0803251958
 21
-41.0247316673
 31
0.0
 11
1.4137808705
 21
-41.2497570923
 31
0.0
  0
SPLINE
  5
3A3
100
AcDbEntity
  8
0
100
AcDbSpline
 62
7
  6
CONTINUOUS
 70
0
 71
3
 72
8
 73
4
 74
2
 42
0.0000001
 43
0.0000001
 44
0.0000000001
 12
-0.0036478234
 22
-0.8317392062
 32
0.0
 13
-0.5328173948
 23
-0.4429821022
 33
0.0
 40
0.0
 40
0.0
 40
0.0
 40
0.0
 40
1.0
 40
1.0
 40
1.0
 40
1.0
 10
2.3501814668
 20
-40.3867210913
 30
0.0
 10
2.3489655256
 20
-40.6639674934
 30
0.0
 10
2.257930994
 20
-40.8770709666
 30
0.0
 10
2.0803251958
 20
-41.0247316673
 30
0.0
 11
2.3501814668
 21
-40.3867210913
 31
0.0
 11
2.0803251958
 21
-41.0247316673
 31
0.0
  0
SPLINE
  5
3A4
100
AcDbEntity
  8
0
100
AcDbSpline
 62
7
  6
CONTINUOUS
 70
0
 71
3
 72
8
 73
4
 74
2
 42
0.0000001
 43
0.0000001
 44
0.0000000001
 12
0.3148348485
 22
-0.4187300764
 32
0.0
 13
-0.0025588083
 23
-0.5834331621
 33
0.0
 40
0.0
 40
0.0
 40
0.0
 40
0.0
 40
1.0
 40
1.0
 40
1.0
 40
1.0
 10
2.1943653771
 20
-39.8871494377
 30
0.0
 10
2.2993103266
 20
-40.0267261299
 30
0.0
 10
2.3510344028
 20
-40.1922433706
 30
0.0
 10
2.3501814668
 20
-40.3867210913
 30
0.0
 11
2.1943653771
 21
-39.8871494377
 31
0.0
 11
2.3501814668
 21
-40.3867210913
 31
0.0
  0
SPLINE
  5
3A5
100
AcDbEntity
  8
0
100
AcDbSpline
 62
7
  6
CONTINUOUS
 70
0
 71
3
 72
8
 73
4
 74
2
 42
0.0000001
 43
0.0000001
 44
0.0000000001
 12
0.5648281574
 22
-0.1489655972
 32
0.0
 13
0.3058551396
 23
-0.4067870714
 33
0.0
 40
0.0
 40
0.0
 40
0.0
 40
0.0
 40
1.0
 40
1.0
 40
1.0
 40
1.0
 10
1.7634482384
 20
-39.6150020393
 30
0.0
 10
1.9517242908
 20
-39.6646572383
 30
0.0
 10
2.0924136639
 20
-39.7515537473
 30
0.0
 10
2.1943653771
 20
-39.8871494377
 30
0.0
 11
1.7634482384
 21
-39.6150020393
 31
0.0
 11
2.1943653771
 21
-39.8871494377
 31
0.0
  0
SPLINE
  5
3A6
100
AcDbEntity
  8
0
100
AcDbSpline
 62
7
  6
CONTINUOUS
 70
0
 71
3
 72
8
 73
4
 74
2
 42
0.0000001
 43
0.0000001
 44
0.0000000001
 12
-0.2885361409
 22
-0.3700796587
 32
0.0
 13
-0.4344824553
 23
-0.1427589655
 33
0.0
 40
0.0
 40
0.0
 40
0.0
 40
0.0
 40
1.0
 40
1.0
 40
1.0
 40
1.0
 10
2.1244546803
 20
-39.3571594117
 30
0.0
 10
2.0282759666
 20
-39.4805192979
 30
0.0
 10
1.9082757235
 20
-39.5674157175
 30
0.0
 10
1.7634482384
 20
-39.6150020393
 30
0.0
 11
2.1244546803
 21
-39.3571594117
 31
0.0
 11
1.7634482384
 21
-39.6150020393
 31
0.0
  0
SPLINE
  5
3A7
100
AcDbEntity
  8
0
100
AcDbSpline
 62
7
  6
CONTINUOUS
 70
0
 71
3
 72
8
 73
4
 74
2
 42
0.0000001
 43
0.0000001
 44
0.0000000001
 12
0.0
 22
-0.4965902558
 32
0.0
 13
-0.2824975753
 23
-0.3623345273
 33
0.0
 40
0.0
 40
0.0
 40
0.0
 40
0.0
 40
1.0
 40
1.0
 40
1.0
 40
1.0
 10
2.2682757378
 20
-38.9280925428
 30
0.0
 10
2.2682757378
 20
-39.0936226281
 30
0.0
 10
2.2186205387
 20
-39.2363812359
 30
0.0
 10
2.1244546803
 20
-39.3571594117
 30
0.0
 11
2.2682757378
 21
-38.9280925428
 31
0.0
 11
2.1244546803
 21
-39.3571594117
 31
0.0
  0
SPLINE
  5
3A8
100
AcDbEntity
  8
0
100
AcDbSpline
 62
7
  6
CONTINUOUS
 70
0
 71
3
 72
8
 73
4
 74
2
 42
0.0000001
 43
0.0000001
 44
0.0000000001
 12
0.4884765399
 22
-0.4044713081
 32
0.0
 13
0.0
 23
-0.7509958157
 33
0.0
 40
0.0
 40
0.0
 40
0.0
 40
0.0
 40
1.0
 40
1.0
 40
1.0
 40
1.0
 10
2.0226915594
 20
-38.350523028
 30
0.0
 10
2.1855170727
 20
-38.4853467973
 30
0.0
 10
2.2682757378
 20
-38.6777606042
 30
0.0
 10
2.2682757378
 20
-38.9280925428
 30
0.0
 11
2.0226915594
 21
-38.350523028
 31
0.0
 11
2.2682757378
 21
-38.9280925428
 31
0.0
  0
SPLINE
  5
3A9
100
AcDbEntity
  8
0
100
AcDbSpline
 62
7
  6
CONTINUOUS
 70
0
 71
3
 72
8
 73
4
 74
2
 42
0.0000001
 43
0.0000001
 44
0.0000000001
 12
0.7137937546
 22
0.0
 32
0.0
 13
0.4860054003
 23
-0.4024251401
 33
0.0
 40
0.0
 40
0.0
 40
0.0
 40
0.0
 40
1.0
 40
1.0
 40
1.0
 40
1.0
 10
1.4220688343
 20
-38.1501743825
 30
0.0
 10
1.6600000858
 20
-38.1501743825
 30
0.0
 10
1.8606897593
 20
-38.2163813146
 30
0.0
 10
2.0226915594
 20
-38.350523028
 30
0.0
 11
1.4220688343
 21
-38.1501743825
 31
0.0
 11
2.0226915594
 21
-38.350523028
 31
0.0
  0
SPLINE
  5
3AA
100
AcDbEntity
  8
0
100
AcDbSpline
 62
7
  6
CONTINUOUS
 70
0
 71
3
 72
8
 73
4
 74
2
 42
0.0000001
 43
0.0000001
 44
0.0000000001
 12
0.5400000215
 22
0.9434482455
 32
0.0
 13
1.0862066746
 23
0.0
 33
0.0
 40
0.0
 40
0.0
 40
0.0
 40
0.0
 40
1.0
 40
1.0
 40
1.0
 40
1.0
 10
0.6089655757
 20
-38.6239674719
 30
0.0
 10
0.7889655828
 20
-38.3094847234
 30
0.0
 10
1.0599999428
 20
-38.1501743825
 30
0.0
 10
1.4220688343
 20
-38.1501743825
 30
0.0
 11
0.6089655757
 21
-38.6239674719
 31
0.0
 11
1.4220688343
 21
-38.1501743825
 31
0.0
  0
SPLINE
  5
3AB
100
AcDbEntity
  8
0
100
AcDbSpline
 62
7
  6
CONTINUOUS
 70
0
 71
3
 72
8
 73
4
 74
2
 42
0.0000001
 43
0.0000001
 44
0.0000000001
 12
-0.7511328584
 22
0.0025549863
 32
0.0
 13
-0.3724139929
 23
-0.6517242193
 33
0.0
 40
0.0
 40
0.0
 40
0.0
 40
0.0
 40
1.0
 40
1.0
 40
1.0
 40
1.0
 10
1.4324466827
 20
-38.4324053271
 30
0.0
 10
1.1820690632
 20
-38.431553665
 30
0.0
 10
0.9958620667
 20
-38.5412088068
 30
0.0
 10
0.8717240691
 20
-38.7584502133
 30
0.0
 11
1.4324466827
 21
-38.4324053271
 31
0.0
 11
0.8717240691
 21
-38.7584502133
 31
0.0
  0
SPLINE
  5
3AC
100
AcDbEntity
  8
0
100
AcDbSpline
 62
7
  6
CONTINUOUS
 70
0
 71
3
 72
8
 73
4
 74
2
 42
0.0000001
 43
0.0000001
 44
0.0000000001
 12
-0.0038884727
 22
0.999380156
 32
0.0
 13
-1.0736940973
 23
0.0036521818
 33
0.0
 40
0.0
 40
0.0
 40
0.0
 40
0.0
 40
1.0
 40
1.0
 40
1.0
 40
1.0
 10
1.9737099359
 20
-38.9364045243
 30
0.0
 10
1.9724137783
 20
-38.6032778057
 30
0.0
 10
1.7903447151
 20
-38.4336227211
 30
0.0
 10
1.4324466827
 20
-38.4324053271
 30
0.0
 11
1.9737099359
 21
-38.9364045243
 31
0.0
 11
1.4324466827
 21
-38.4324053271
 31
0.0
  0
SPLINE
  5
3AD
100
AcDbEntity
  8
0
100
AcDbSpline
 62
7
  6
CONTINUOUS
 70
0
 71
3
 72
8
 73
4
 74
2
 42
0.0000001
 43
0.0000001
 44
0.0000000001
 12
0.3709559885
 22
0.2627603583
 32
0.0
 13
-0.002318159
 23
0.5957923089
 33
0.0
 40
0.0
 40
0.0
 40
0.0
 40
0.0
 40
1.0
 40
1.0
 40
1.0
 40
1.0
 10
1.7887618393
 20
-39.3632784774
 30
0.0
 10
1.9124138355
 20
-39.2756916913
 30
0.0
 10
1.9744826555
 20
-39.1350019606
 30
0.0
 10
1.9737099359
 20
-38.9364045243
 30
0.0
 11
1.7887618393
 21
-39.3632784774
 31
0.0
 11
1.9737099359
 21
-38.9364045243
 31
0.0
  0
SPLINE
  5
3AE
100
AcDbEntity
  8
0
100
AcDbSpline
 62
7
  6
CONTINUOUS
 70
0
 71
3
 72
17
 73
13
 74
11
 42
0.0000001
 43
0.0000001
 44
0.0000000001
 12
0.4707703667
 22
0.4336523745
 32
0.0
 13
-0.0
 23
0.6400618096
 33
0.0
 40
0.0
 40
0.0
 40
0.0
 40
0.0
 40
0.0778694419
 40
0.1572376304
 40
0.2394670139
 40
0.3261622383
 40
0.4184253671
 40
0.517872266
 40
0.6251551075
 40
0.7405004217
 40
0.8652934327
 40
1.0
 40
1.0
 40
1.0
 40
1.0
 10
26.55
 20
-29.8717800335
 30
0.0
 10
26.5622195419
 20
-29.860523944
 30
0.0
 10
26.5856241239
 20
-29.8363783937
 30
0.0
 10
26.6171460047
 20
-29.7960638672
 30
0.0
 10
26.645548669
 20
-29.7512516878
 30
0.0
 10
26.6709773955
 20
-29.7015853943
 30
0.0
 10
26.6934686142
 20
-29.6465369342
 30
0.0
 10
26.71283091
 20
-29.585688393
 30
0.0
 10
26.7287157495
 20
-29.5187714346
 30
0.0
 10
26.7407103559
 20
-29.4455650772
 30
0.0
 10
26.7483160888
 20
-29.3658973577
 30
0.0
 10
26.75
 20
-29.3105131738
 30
0.0
 10
26.75
 20
-29.2817729974
 30
0.0
 11
26.55
 21
-29.8717800335
 31
0.0
 11
26.5847371661
 21
-29.8360381801
 31
0.0
 11
26.6160972697
 21
-29.7960727024
 31
0.0
 11
26.6443559897
 21
-29.7516704459
 31
0.0
 11
26.6697393028
 21
-29.7023261346
 31
0.0
 11
26.6921765985
 21
-29.6477005445
 31
0.0
 11
26.7115849289
 21
-29.5870794718
 31
0.0
 11
26.7275531902
 21
-29.5202942883
 31
0.0
 11
26.7395955428
 21
-29.4474549129
 31
0.0
 11
26.7472866861
 21
-29.3679508228
 31
0.0
 11
26.75
 21
-29.2817729974
 31
0.0
  0
SPLINE
  5
3AF
100
AcDbEntity
  8
0
100
AcDbSpline
 62
7
  6
CONTINUOUS
 70
0
 71
3
 72
14
 73
10
 74
8
 42
0.0000001
 43
0.0000001
 44
0.0000000001
 12
0.0
 22
-0.8147180591
 32
0.0
 13
0.3299908577
 23
-0.7448970061
 33
0.0
 40
0.0
 40
0.0
 40
0.0
 40
0.0
 40
0.106378714
 40
0.2229890352
 40
0.3506774718
 40
0.4910440135
 40
0.645020378
 40
0.8142108618
 40
1.0
 40
1.0
 40
1.0
 40
1.0
 10
26.25
 20
-29.0185829304
 30
0.0
 10
26.25
 20
-29.0474724836
 30
0.0
 10
26.2522320442
 20
-29.1080475965
 30
0.0
 10
26.2623363409
 20
-29.2028155031
 30
0.0
 10
26.2803899205
 20
-29.3057863301
 30
0.0
 10
26.3074169111
 20
-29.4172424506
 30
0.0
 10
26.3443907435
 20
-29.5376457297
 30
0.0
 10
26.3920924503
 20
-29.6674335178
 30
0.0
 10
26.429563761
 20
-29.7562919257
 30
0.0
 10
26.45
 20
-29.8024231833
 30
0.0
 11
26.25
 21
-29.0185829304
 31
0.0
 11
26.2530839095
 21
-29.1051967054
 31
0.0
 11
26.2630256973
 21
-29.1996796269
 31
0.0
 11
26.2808354244
 21
-29.3021738715
 31
0.0
 11
26.3075979338
 21
-29.4133574348
 31
0.0
 11
26.3442013014
 21
-29.5333458709
 31
0.0
 11
26.3914910713
 21
-29.6628226804
 31
0.0
 11
26.45
 21
-29.8024231833
 31
0.0
  0
SPLINE
  5
3B0
100
AcDbEntity
  8
0
100
AcDbSpline
 62
7
  6
CONTINUOUS
 70
0
 71
3
 72
14
 73
10
 74
8
 42
0.0000001
 43
0.0000001
 44
0.0000000001
 12
-0.3299909042
 22
-0.7448971113
 32
0.0
 13
0.0
 23
-0.8147181741
 33
0.0
 40
0.0
 40
0.0
 40
0.0
 40
0.0
 40
0.1869212002
 40
0.3567127798
 40
0.5108522072
 40
0.6510251115
 40
0.7782622516
 40
0.8942630257
 40
1.0
 40
1.0
 40
1.0
 40
1.0
 10
26.45
 20
-34.1972359799
 30
0.0
 10
26.4294392347
 20
-34.2436483339
 30
0.0
 10
26.391794468
 20
-34.3329451376
 30
0.0
 10
26.3439691952
 20
-34.4632371042
 30
0.0
 10
26.3070305817
 20
-34.5838138704
 30
0.0
 10
26.2801236631
 20
-34.6951644722
 30
0.0
 10
26.2622079422
 20
-34.7978130221
 30
0.0
 10
26.2522061286
 20
-34.892125929
 30
0.0
 10
26.25
 20
-34.9523609545
 30
0.0
 10
26.25
 20
-34.9810762327
 30
0.0
 11
26.45
 21
-34.1972359799
 31
0.0
 11
26.3911536803
 21
-34.3376951402
 31
0.0
 11
26.3437522674
 21
-34.4676525461
 31
0.0
 11
26.30719144
 21
-34.5877928422
 31
0.0
 11
26.2805545476
 21
-34.6988443555
 31
0.0
 11
26.2628853687
 21
-34.8009898177
 31
0.0
 11
26.2530474588
 21
-34.8949843178
 31
0.0
 11
26.25
 21
-34.9810762327
 31
0.0
  0
SPLINE
  5
3B1
100
AcDbEntity
  8
0
100
AcDbSpline
 62
7
  6
CONTINUOUS
 70
0
 71
3
 72
17
 73
13
 74
11
 42
0.0000001
 43
0.0000001
 44
0.0000000001
 12
0.0
 22
0.6400618096
 32
0.0
 13
-0.4707703667
 23
0.4336523745
 33
0.0
 40
0.0
 40
0.0
 40
0.0
 40
0.0
 40
0.1347065673
 40
0.2594995783
 40
0.3748448925
 40
0.482127734
 40
0.5815746329
 40
0.6738377617
 40
0.7605329861
 40
0.8427623696
 40
0.9221305581
 40
1.0
 40
1.0
 40
1.0
 40
1.0
 10
26.75
 20
-34.7178861658
 30
0.0
 10
26.75
 20
-34.6891459894
 30
0.0
 10
26.7483160888
 20
-34.6337618055
 30
0.0
 10
26.7407103559
 20
-34.554094086
 30
0.0
 10
26.7287157495
 20
-34.4808877286
 30
0.0
 10
26.71283091
 20
-34.4139707702
 30
0.0
 10
26.6934686142
 20
-34.353122229
 30
0.0
 10
26.6709773955
 20
-34.2980737689
 30
0.0
 10
26.645548669
 20
-34.2484074754
 30
0.0
 10
26.6171460047
 20
-34.2035952959
 30
0.0
 10
26.5856241239
 20
-34.1632807695
 30
0.0
 10
26.5622195419
 20
-34.1391352192
 30
0.0
 10
26.55
 20
-34.1278791297
 30
0.0
 11
26.75
 21
-34.7178861658
 31
0.0
 11
26.7472866861
 21
-34.6317083404
 31
0.0
 11
26.7395955428
 21
-34.5522042503
 31
0.0
 11
26.7275531902
 21
-34.4793648749
 31
0.0
 11
26.7115849289
 21
-34.4125796914
 31
0.0
 11
26.6921765985
 21
-34.3519586187
 31
0.0
 11
26.6697393028
 21
-34.2973330286
 31
0.0
 11
26.6443559897
 21
-34.2479887173
 31
0.0
 11
26.6160972697
 21
-34.2035864608
 31
0.0
 11
26.5847371661
 21
-34.1636209831
 31
0.0
 11
26.55
 21
-34.1278791297
 31
0.0
  0
ELLIPSE
  5
3B2
100
AcDbEntity
  8
RACCORDO
100
AcDbEllipse
 62
7
  6
CONTINUOUS
 10
32.4999428824
 20
-44.999772464
 30
0.0
 11
1.0607409467
 21
-1.0607409467
 31
0.0
 40
0.9999238505
 41
-0.7853600872
 42
0.7853600872
  0
ELLIPSE
  5
3B3
100
AcDbEntity
  8
RACCORDO
100
AcDbEllipse
 62
7
  6
CONTINUOUS
 10
32.4999428824
 20
35.0001133008
 30
0.0
 11
1.0607409467
 21
1.0607409467
 31
0.0
 40
0.9999238505
 41
-0.7853600872
 42
0.7853600872
  0
ELLIPSE
  5
3B4
100
AcDbEntity
  8
RACCORDO
100
AcDbEllipse
 62
7
  6
CONTINUOUS
 10
-32.4999428824
 20
35.0001133008
 30
0.0
 11
1.0607409467
 21
-1.0607409467
 31
0.0
 40
0.9999238505
 41
2.3562325664
 42
3.9269527408
  0
ELLIPSE
  5
3B5
100
AcDbEntity
  8
RACCORDO
100
AcDbEllipse
 62
7
  6
CONTINUOUS
 10
-32.4999428824
 20
-44.999772464
 30
0.0
 11
1.0607409467
 21
1.0607409467
 31
0.0
 40
0.9999238505
 41
-3.9269527408
 42
-2.3562325664
  0
ELLIPSE
  5
3B6
100
AcDbEntity
  8
DRAFT
100
AcDbEllipse
 62
7
  6
CONTINUOUS
 10
0.0
 20
-46.2903847546
 30
0.0
 11
11.5
 21
0.0
 31
0.0
 40
0.0087268678
 41
0.0
 42
6.2831853072
  0
ENDSEC
  0
SECTION
  2
OBJECTS
  0
DICTIONARY
  5
C
100
AcDbDictionary
280
0
281
1
  3
ACAD_GROUP
350
D
  3
ACAD_MLINESTYLE
350
17
  3
ACAD_LAYOUT
350
1A
  3
ACAD_PLOTSETTINGS
350
19
  3
ACAD_PLOTSTYLENAME
350
E
  0
DICTIONARY
  5
D
102
{ACAD_REACTORS
330
C
102
}
100
AcDbDictionary
280
0
281
1
  0
ACDBDICTIONARYWDFLT
  5
E
102
{ACAD_REACTORS
330
C
102
}
100
AcDbDictionary
281
1
  3
Normal
350
F
100
AcDbDictionaryWithDefault
340
F
  0
DICTIONARY
  5
17
102
{ACAD_REACTORS
330
C
102
}
100
AcDbDictionary
280
0
281
1
  3
Standard
350
18
  0
DICTIONARY
  5
19
102
{ACAD_REACTORS
330
C
102
}
100
AcDbDictionary
281
1
  0
DICTIONARY
  5
1A
102
{ACAD_REACTORS
330
C
102
}
100
AcDbDictionary
281
1
  3
Model
350
3B7
  3
Layout1
350
3B8
  0
ACDBPLACEHOLDER
  5
F
102
{ACAD_REACTORS
330
E
102
}
  0
MLINESTYLE
  5
18
102
{ACAD_REACTORS
330
17
102
}
100
AcDbMlineStyle
  2
STANDARD
 70
0
  3

 62
256
 51
90.0
 52
90.0
 71
2
 49
0.5
 62
256
  6
BYLAYER
 49
-0.5
 62
256
  6
BYLAYER
  0
LAYOUT
  5
3B7
102
{ACAD_REACTORS
330
1A
102
}
100
AcDbPlotSettings
  1

  2
none_device
  4
ISO_A4_(297.00_x_210.00_MM)
  6

 40
0.0
 41
0.0
 42
0.0
 43
0.0
 44
297.0
 45
210.0
 46
0.0
 47
0.0
 48
0.0
 49
0.0
140
0.0
141
0.0
142
1.0
143
1.0
 70
1024
 72
1
 73
0
 74
0
  7

 75
0
147
1.0
148
0.0
149
0.0
100
AcDbLayout
  1
Model
 70
0
 71
0
 10
0.0
 20
0.0
 11
297.0
 21
210.0
 12
0.0
 22
0.0
 32
0.0
 14
0.0
 24
0.0
 34
0.0
 15
0.0
 25
0.0
 35
0.0
146
0.0
 13
0.0
 23
0.0
 33
0.0
 16
1.0
 26
0.0
 36
0.0
 17
0.0
 27
1.0
 37
0.0
 76
0
330
218
345
0
346
0
  0
LAYOUT
  5
3B8
102
{ACAD_REACTORS
330
1A
102
}
100
AcDbPlotSettings
  1

  2
none_device
  4
ISO_A4_(297.00_x_210.00_MM)
  6

 40
0.0
 41
0.0
 42
0.0
 43
0.0
 44
297.0
 45
210.0
 46
0.0
 47
0.0
 48
0.0
 49
0.0
140
0.0
141
0.0
142
1.0
143
1.0
 70
0
 72
1
 73
0
 74
0
  7

 75
0
147
1.0
148
0.0
149
0.0
100
AcDbLayout
  1
Layout1
 70
0
 71
1
 10
0.0
 20
0.0
 11
297.0
 21
210.0
 12
0.0
 22
0.0
 32
0.0
 14
0.0
 24
0.0
 34
0.0
 15
0.0
 25
0.0
 35
0.0
146
0.0
 13
0.0
 23
0.0
 33
0.0
 16
1.0
 26
0.0
 36
0.0
 17
0.0
 27
1.0
 37
0.0
 76
0
330
219
345
0
346
0
  0
ENDSEC
  0
EOF
