  0
SECTION
  2
HEADER
  9
$ACADVER
  1
AC1015
  9
$DWGCODEPAGE
  3
ANSI_1252
  9
$EXTMAX
 10
297.0
 20
210.0
 30
0.0
  9
$EXTMIN
 10
0.0
 20
0.0
 30
0.0
  9
$LIMMIN
 10
0.0
 20
0.0
  9
$LIMMAX
 10
297.0
 20
210.0
  9
$VIEWCTR
 10
148.5
 20
105.0
  9
$VIEWSIZE
 40
210.0
  9
$CLAYER
  8
0
  9
$LTSCALE
 40
16.335
  9
$CELTYPE
  6
BYLAYER
  9
$DIMSCALE
 40
1.0
  9
$DIMASZ
 40
3.0
  9
$DIMEXO
 40
1.85625
  9
$DIMDLI
 40
11.286
  9
$DIMEXE
 40
5.346
  9
$DIMCEN
 40
2.673
  9
$DIMLFAC
 40
1.0
  9
$DIMBLK
  1
_FILLED
  9
$DIMTXT
 40
3.0
  9
$DIMTOL
 70
1
  9
$DIMLIM
 70
0
  9
$DIMTFAC
 40
1.0
  9
$DIMTP
 40
0.01
  9
$DIMTM
 40
0.01
  9
$PDMODE
 70
3
  9
$PDSIZE
 40
3.0
  9
$HANDSEED
  5
519
  9
$TILEMODE
 70
1
  9
$MEASUREMENT
 70
1
  9
$INSUNITS
 70
4
  0
ENDSEC
  0
SECTION
  2
CLASSES
  0
CLASS
  1
ACDBDICTIONARYWDFLT
  2
AcDbDictionaryWithDefault
  3
AutoCAD 2000
 90
0
280
0
281
0
  0
CLASS
  1
ACDBPLACEHOLDER
  2
AcDbPlaceHolder
  3
AutoCAD 2000
 90
0
280
0
281
0
  0
CLASS
  1
LAYOUT
  2
AcDbLayout
  3
AutoCAD 2000
 90
0
280
0
281
0
  0
ENDSEC
  0
SECTION
  2
TABLES
  0
TABLE
  2
VPORT
  5
8
100
AcDbSymbolTable
 70
2
  0
VPORT
  5
1F4
100
AcDbSymbolTableRecord
100
AcDbViewportTableRecord
  2
*ACTIVE
 70
0
 10
0.0
 20
0.0
 11
1.0
 21
1.0
 12
148.5
 22
105.0
 13
0.0
 23
0.0
 14
1.0
 24
1.0
 15
0.0
 25
0.0
 16
0.0
 26
0.0
 36
1.0
 17
0.0
 27
0.0
 37
0.0
 40
210.0
 41
1.4142857143
 42
50.0
 43
0.0
 44
0.0
 50
0.0
 51
0.0
 71
0
 72
100
 73
1
 74
1
 75
0
 76
0
 77
0
 78
0
  0
ENDTAB
  0
TABLE
  2
LTYPE
  5
5
100
AcDbSymbolTable
 70
6
  0
LTYPE
  5
14
100
AcDbSymbolTableRecord
100
AcDbLinetypeTableRecord
  2
BYBLOCK
 70
0
  3

 72
65
 73
0
 40
0.0
  0
LTYPE
  5
15
100
AcDbSymbolTableRecord
100
AcDbLinetypeTableRecord
  2
BYLAYER
 70
0
  3

 72
65
 73
0
 40
0.0
  0
LTYPE
  5
16
100
AcDbSymbolTableRecord
100
AcDbLinetypeTableRecord
  2
CONTINUOUS
 70
64
  3
Solid line
 72
65
 73
0
 40
0.0
  0
LTYPE
  5
1F5
100
AcDbSymbolTableRecord
100
AcDbLinetypeTableRecord
  2
CENTER
 70
64
  3
____ _ ____ _ ____ _ ____ _ ____ _ ____ _ ____
 72
65
 73
4
 40
0.6
 49
0.375
 74
0
 49
-0.075
 74
0
 49
0.075
 74
0
 49
-0.075
 74
0
  0
LTYPE
  5
1F6
100
AcDbSymbolTableRecord
100
AcDbLinetypeTableRecord
  2
HIDDEN
 70
64
  3
- - - - - - - - - - - - - - - - - - - -
 72
65
 73
2
 40
0.2
 49
0.1
 74
0
 49
-0.1
 74
0
  0
LTYPE
  5
1F7
100
AcDbSymbolTableRecord
100
AcDbLinetypeTableRecord
  2
PHANTOM
 70
64
  3
_____ _ _ _____ _ _ _____ _ _ _____
 72
65
 73
6
 40
0.8
 49
0.45
 74
0
 49
-0.05
 74
0
 49
0.1
 74
0
 49
-0.05
 74
0
 49
0.1
 74
0
 49
-0.05
 74
0
  0
LTYPE
  5
1F8
100
AcDbSymbolTableRecord
100
AcDbLinetypeTableRecord
  2
DOT
 70
64
  3
. . . . . . . . . . . . . . . . . . . .
 72
65
 73
2
 40
0.2
 49
0.1
 74
0
 49
-0.1
 74
0
  0
LTYPE
  5
1F9
100
AcDbSymbolTableRecord
100
AcDbLinetypeTableRecord
  2
DASHED
 70
64
  3
- - - - - - - - - - - - - - - - - - - -
 72
65
 73
2
 40
0.2
 49
0.1
 74
0
 49
-0.1
 74
0
  0
ENDTAB
  0
TABLE
  2
LAYER
  5
2
100
AcDbSymbolTable
 70
36
  0
LAYER
  5
10
100
AcDbSymbolTableRecord
100
AcDbLayerTableRecord
  2
0
 70
0
 62
7
  6
CONTINUOUS
370
-3
390
F
  0
LAYER
  5
1FA
100
AcDbSymbolTableRecord
100
AcDbLayerTableRecord
  2
DEFAULT_1
 70
0
 62
7
  6
CENTER
370
-3
390
F
  0
LAYER
  5
1FB
100
AcDbSymbolTableRecord
100
AcDbLayerTableRecord
  2
DEFAULT_2
 70
0
 62
7
  6
HIDDEN
370
-3
390
F
  0
LAYER
  5
1FC
100
AcDbSymbolTableRecord
100
AcDbLayerTableRecord
  2
DEFAULT_3
 70
0
 62
7
  6
PHANTOM
370
-3
390
F
  0
LAYER
  5
1FD
100
AcDbSymbolTableRecord
100
AcDbLayerTableRecord
  2
ASSI
 70
0
 62
7
  6
CONTINUOUS
370
-3
390
F
  0
LAYER
  5
1FE
100
AcDbSymbolTableRecord
100
AcDbLayerTableRecord
  2
COORDINATE
 70
0
 62
7
  6
CONTINUOUS
370
-3
390
F
  0
LAYER
  5
1FF
100
AcDbSymbolTableRecord
100
AcDbLayerTableRecord
  2
COORD_ORIGINE
 70
0
 62
7
  6
CONTINUOUS
370
-3
390
F
  0
LAYER
  5
200
100
AcDbSymbolTableRecord
100
AcDbLayerTableRecord
  2
COSMETICI
 70
0
 62
7
  6
CONTINUOUS
370
-3
390
F
  0
LAYER
  5
201
100
AcDbSymbolTableRecord
100
AcDbLayerTableRecord
  2
DRAFT
 70
0
 62
7
  6
CONTINUOUS
370
-3
390
F
  0
LAYER
  5
202
100
AcDbSymbolTableRecord
100
AcDbLayerTableRecord
  2
IGES
 70
0
 62
7
  6
CONTINUOUS
370
-3
390
F
  0
LAYER
  5
203
100
AcDbSymbolTableRecord
100
AcDbLayerTableRecord
  2
NOTE
 70
0
 62
7
  6
CONTINUOUS
370
-3
390
F
  0
LAYER
  5
204
100
AcDbSymbolTableRecord
100
AcDbLayerTableRecord
  2
PIANI
 70
0
 62
7
  6
CONTINUOUS
370
-3
390
F
  0
LAYER
  5
205
100
AcDbSymbolTableRecord
100
AcDbLayerTableRecord
  2
PIANI_ORIGINE
 70
0
 62
7
  6
CONTINUOUS
370
-3
390
F
  0
LAYER
  5
206
100
AcDbSymbolTableRecord
100
AcDbLayerTableRecord
  2
PUNTI
 70
0
 62
7
  6
CONTINUOUS
370
-3
390
F
  0
LAYER
  5
207
100
AcDbSymbolTableRecord
100
AcDbLayerTableRecord
  2
RACCORDO
 70
0
 62
7
  6
CONTINUOUS
370
-3
390
F
  0
LAYER
  5
208
100
AcDbSymbolTableRecord
100
AcDbLayerTableRecord
  2
SMUSSO
 70
0
 62
7
  6
CONTINUOUS
370
-3
390
F
  0
LAYER
  5
209
100
AcDbSymbolTableRecord
100
AcDbLayerTableRecord
  2
SNAPLINE
 70
0
 62
7
  6
CONTINUOUS
370
-3
390
F
  0
LAYER
  5
20A
100
AcDbSymbolTableRecord
100
AcDbLayerTableRecord
  2
SUPERFICI
 70
0
 62
7
  6
CONTINUOUS
370
-3
390
F
  0
LAYER
  5
20B
100
AcDbSymbolTableRecord
100
AcDbLayerTableRecord
  2
TRASH
 70
0
 62
7
  6
CONTINUOUS
370
-3
390
F
  0
LAYER
  5
20C
100
AcDbSymbolTableRecord
100
AcDbLayerTableRecord
  2
XSEC_DATUMS
 70
0
 62
7
  6
CONTINUOUS
370
-3
390
F
  0
ENDTAB
  0
TABLE
  2
STYLE
  5
3
100
AcDbSymbolTable
 70
1
  0
STYLE
  5
11
100
AcDbSymbolTableRecord
100
AcDbTextStyleTableRecord
  2
STANDARD
 70
0
 40
0.0
 41
0.8
 50
0.0
 71
0
 42
0.2
  3
txt
  4

  0
STYLE
  5
20D
100
AcDbSymbolTableRecord
100
AcDbTextStyleTableRecord
  2
TEXTSTYLE_1
 70
0
 40
0.0
 41
0.8
 50
0.0
 71
0
 42
0.2
  3
gdt
  4

  0
ENDTAB
  0
TABLE
  2
VIEW
  5
6
100
AcDbSymbolTable
 70
0
  0
ENDTAB
  0
TABLE
  2
UCS
  5
7
100
AcDbSymbolTable
 70
0
  0
ENDTAB
  0
TABLE
  2
APPID
  5
9
100
AcDbSymbolTable
 70
1
  0
APPID
  5
20E
100
AcDbSymbolTableRecord
100
AcDbRegAppTableRecord
  2
ACAD
 70
0
  0
ENDTAB
  0
TABLE
  2
BLOCK_RECORD
  5
1
100
AcDbSymbolTable
 70
0
  0
BLOCK_RECORD
  5
20F
100
AcDbSymbolTableRecord
100
AcDbBlockTableRecord
  2
*Model_Space
  0
BLOCK_RECORD
  5
210
100
AcDbSymbolTableRecord
100
AcDbBlockTableRecord
  2
*Paper_Space
  0
ENDTAB
  0
TABLE
  2
DIMSTYLE
  5
A
100
AcDbSymbolTable
 70
1
100
AcDbDimStyleTable
 71
0
  0
DIMSTYLE
105
211
100
AcDbSymbolTableRecord
100
AcDbDimStyleTableRecord
  2
STANDARD
 70
0
  3

  4

 40
1.0
 41
3.0
 42
0.0625
 43
0.38
 44
0.18
 45
0.0
 46
0.0
 47
0.01
 48
0.01
140
3.0
141
0.09
142
0.0
143
25.4
144
1.0
145
0.0
146
1.0
147
0.09
 71
1.0
 72
0.0
 73
0
 74
0
 75
0
 76
0
 77
1
 78
8
170
0
171
2
172
0
173
0
174
0
175
0
176
0
177
0
178
0
270
2
271
2
272
2
273
2
274
2
275
0
280
0
281
0
282
0
283
1
284
8
285
0
286
0
287
3
288
0
340
11
  0
ENDTAB
  0
ENDSEC
  0
SECTION
  2
BLOCKS
  0
BLOCK
  5
20
100
AcDbEntity
  8
0
100
AcDbBlockBegin
  2
*Model_Space
 70
0
 10
0.0
 20
0.0
 30
0.0
  3
*Model_Space
  1

  0
ENDBLK
  5
21
100
AcDbEntity
  8
0
100
AcDbBlockEnd
  0
BLOCK
  5
1C
100
AcDbEntity
  8
0
100
AcDbBlockBegin
  2
*Paper_Space
 70
0
 10
0.0
 20
0.0
 30
0.0
  3
*Paper_Space
  1

  0
ENDBLK
  5
1D
100
AcDbEntity
  8
0
100
AcDbBlockEnd
  0
ENDSEC
  0
SECTION
  2
ENTITIES
  0
LINE
  5
212
100
AcDbEntity
  8
RACCORDO
100
AcDbLine
 62
7
  6
CONTINUOUS
 10
-46.6165146599
 20
51.7948424516
 11
-46.2061683119
 21
52.0
  0
LINE
  5
213
100
AcDbEntity
  8
RACCORDO
100
AcDbLine
 62
7
  6
CONTINUOUS
 10
-46.2061683119
 20
-52.0
 11
-46.6165146599
 21
-51.7948424516
  0
LINE
  5
214
100
AcDbEntity
  8
RACCORDO
100
AcDbLine
 62
7
  6
CONTINUOUS
 10
-38.5
 20
54.7061683119
 11
-38.2948424516
 21
55.1165146599
  0
LINE
  5
215
100
AcDbEntity
  8
RACCORDO
100
AcDbLine
 62
7
  6
CONTINUOUS
 10
45.35
 20
-61.35
 11
-45.35
 21
-61.35
  0
LINE
  5
216
100
AcDbEntity
  8
RACCORDO
100
AcDbLine
 62
253
  6
CONTINUOUS
 10
45.35
 20
-60.35
 11
-45.35
 21
-60.35
  0
LINE
  5
217
100
AcDbEntity
  8
0
100
AcDbLine
 62
7
  6
CONTINUOUS
 10
-41.1
 20
-59.85
 11
-39.9
 21
-59.85
  0
LINE
  5
218
100
AcDbEntity
  8
0
100
AcDbLine
 62
7
  6
CONTINUOUS
 10
-29.1
 20
-59.85
 11
-27.9
 21
-59.85
  0
LINE
  5
219
100
AcDbEntity
  8
0
100
AcDbLine
 62
7
  6
CONTINUOUS
 10
-15.6
 20
-59.85
 11
-14.4
 21
-59.85
  0
LINE
  5
21A
100
AcDbEntity
  8
0
100
AcDbLine
 62
7
  6
CONTINUOUS
 10
-0.6
 20
-59.85
 11
0.6
 21
-59.85
  0
LINE
  5
21B
100
AcDbEntity
  8
0
100
AcDbLine
 62
7
  6
CONTINUOUS
 10
14.4
 20
-59.85
 11
15.6
 21
-59.85
  0
LINE
  5
21C
100
AcDbEntity
  8
0
100
AcDbLine
 62
7
  6
CONTINUOUS
 10
27.9
 20
-59.85
 11
29.1
 21
-59.85
  0
LINE
  5
21D
100
AcDbEntity
  8
0
100
AcDbLine
 62
7
  6
CONTINUOUS
 10
39.9
 20
-59.85
 11
41.1
 21
-59.85
  0
LINE
  5
21E
100
AcDbEntity
  8
RACCORDO
100
AcDbLine
 62
7
  6
CONTINUOUS
 10
-38.5
 20
-54.7061683119
 11
-38.2948424516
 21
-55.1165146599
  0
LINE
  5
21F
100
AcDbEntity
  8
DRAFT
100
AcDbLine
 62
7
  6
CONTINUOUS
 10
-46.66
 20
33.0461683119
 11
-46.2061683119
 21
33.5
  0
LINE
  5
220
100
AcDbEntity
  8
RACCORDO
100
AcDbLine
 62
7
  6
CONTINUOUS
 10
45.3504569145
 20
-56.85
 11
41.1
 21
-56.85
  0
LINE
  5
221
100
AcDbEntity
  8
DRAFT
100
AcDbLine
 62
7
  6
CONTINUOUS
 10
39.9
 20
-56.85
 11
29.1
 21
-56.85
  0
LINE
  5
222
100
AcDbEntity
  8
DRAFT
100
AcDbLine
 62
7
  6
CONTINUOUS
 10
27.9
 20
-56.85
 11
15.6
 21
-56.85
  0
LINE
  5
223
100
AcDbEntity
  8
DRAFT
100
AcDbLine
 62
7
  6
CONTINUOUS
 10
14.4
 20
-56.85
 11
0.6
 21
-56.85
  0
LINE
  5
224
100
AcDbEntity
  8
DRAFT
100
AcDbLine
 62
7
  6
CONTINUOUS
 10
-0.6
 20
-56.85
 11
-14.4
 21
-56.85
  0
LINE
  5
225
100
AcDbEntity
  8
DRAFT
100
AcDbLine
 62
7
  6
CONTINUOUS
 10
-15.6
 20
-56.85
 11
-27.9
 21
-56.85
  0
LINE
  5
226
100
AcDbEntity
  8
DRAFT
100
AcDbLine
 62
7
  6
CONTINUOUS
 10
-29.1
 20
-56.85
 11
-39.9
 21
-56.85
  0
LINE
  5
227
100
AcDbEntity
  8
RACCORDO
100
AcDbLine
 62
7
  6
CONTINUOUS
 10
-41.1
 20
-56.85
 11
-45.3504569145
 21
-56.85
  0
LINE
  5
228
100
AcDbEntity
  8
DRAFT
100
AcDbLine
 62
7
  6
CONTINUOUS
 10
-41.1
 20
-56.7564732214
 11
-39.9
 21
-56.7564732214
  0
LINE
  5
229
100
AcDbEntity
  8
DRAFT
100
AcDbLine
 62
7
  6
CONTINUOUS
 10
-29.1
 20
-56.7564732214
 11
-27.9
 21
-56.7564732214
  0
LINE
  5
22A
100
AcDbEntity
  8
DRAFT
100
AcDbLine
 62
7
  6
CONTINUOUS
 10
-15.6
 20
-56.7564732214
 11
-14.4
 21
-56.7564732214
  0
LINE
  5
22B
100
AcDbEntity
  8
DRAFT
100
AcDbLine
 62
7
  6
CONTINUOUS
 10
-0.6
 20
-56.7564732214
 11
0.6
 21
-56.7564732214
  0
LINE
  5
22C
100
AcDbEntity
  8
DRAFT
100
AcDbLine
 62
7
  6
CONTINUOUS
 10
14.4
 20
-56.7564732214
 11
15.6
 21
-56.7564732214
  0
LINE
  5
22D
100
AcDbEntity
  8
DRAFT
100
AcDbLine
 62
7
  6
CONTINUOUS
 10
27.9
 20
-56.7564732214
 11
29.1
 21
-56.7564732214
  0
LINE
  5
22E
100
AcDbEntity
  8
DRAFT
100
AcDbLine
 62
7
  6
CONTINUOUS
 10
39.9
 20
-56.7564732214
 11
41.1
 21
-56.7564732214
  0
LINE
  5
22F
100
AcDbEntity
  8
RACCORDO
100
AcDbLine
 62
253
  6
CONTINUOUS
 10
-45.2454218921
 20
-56.7449649775
 11
45.2454218921
 21
-56.7449649775
  0
LINE
  5
230
100
AcDbEntity
  8
RACCORDO
100
AcDbLine
 62
253
  6
CONTINUOUS
 10
-45.2454218921
 20
-55.7451172824
 11
45.2454218921
 21
-55.7451172824
  0
LINE
  5
231
100
AcDbEntity
  8
DRAFT
100
AcDbLine
 62
7
  6
CONTINUOUS
 10
45.1602284573
 20
-55.16
 11
40.4538316881
 21
-55.16
  0
LINE
  5
232
100
AcDbEntity
  8
0
100
AcDbLine
 62
7
  6
CONTINUOUS
 10
30.0
 20
-55.16
 11
27.0
 21
-55.16
  0
LINE
  5
233
100
AcDbEntity
  8
DRAFT
100
AcDbLine
 62
7
  6
CONTINUOUS
 10
16.5461683119
 20
-55.16
 11
13.4538316881
 21
-55.16
  0
LINE
  5
234
100
AcDbEntity
  8
0
100
AcDbLine
 62
7
  6
CONTINUOUS
 10
1.5
 20
-55.16
 11
-1.5
 21
-55.16
  0
LINE
  5
235
100
AcDbEntity
  8
DRAFT
100
AcDbLine
 62
7
  6
CONTINUOUS
 10
-13.4538316881
 20
-55.16
 11
-16.5461683119
 21
-55.16
  0
LINE
  5
236
100
AcDbEntity
  8
0
100
AcDbLine
 62
7
  6
CONTINUOUS
 10
-27.0
 20
-55.16
 11
-30.0
 21
-55.16
  0
LINE
  5
237
100
AcDbEntity
  8
DRAFT
100
AcDbLine
 62
7
  6
CONTINUOUS
 10
-40.4538316881
 20
-55.16
 11
-45.1602284573
 21
-55.16
  0
LINE
  5
238
100
AcDbEntity
  8
DRAFT
100
AcDbLine
 62
7
  6
CONTINUOUS
 10
40.453457922
 20
-55.1596262339
 11
30.0
 21
-55.1596262339
  0
LINE
  5
239
100
AcDbEntity
  8
DRAFT
100
AcDbLine
 62
7
  6
CONTINUOUS
 10
27.0
 20
-55.1596262339
 11
16.546542078
 21
-55.1596262339
  0
LINE
  5
23A
100
AcDbEntity
  8
DRAFT
100
AcDbLine
 62
7
  6
CONTINUOUS
 10
13.453457922
 20
-55.1596262339
 11
1.5
 21
-55.1596262339
  0
LINE
  5
23B
100
AcDbEntity
  8
DRAFT
100
AcDbLine
 62
7
  6
CONTINUOUS
 10
-1.5
 20
-55.1596262339
 11
-13.453457922
 21
-55.1596262339
  0
LINE
  5
23C
100
AcDbEntity
  8
DRAFT
100
AcDbLine
 62
7
  6
CONTINUOUS
 10
-16.546542078
 20
-55.1596262339
 11
-27.0
 21
-55.1596262339
  0
LINE
  5
23D
100
AcDbEntity
  8
DRAFT
100
AcDbLine
 62
7
  6
CONTINUOUS
 10
-30.0
 20
-55.1596262339
 11
-40.453457922
 21
-55.1596262339
  0
LINE
  5
23E
100
AcDbEntity
  8
RACCORDO
100
AcDbLine
 62
7
  6
CONTINUOUS
 10
-37.2948805285
 20
-55.1338174026
 11
-30.0
 21
-55.1338174026
  0
LINE
  5
23F
100
AcDbEntity
  8
RACCORDO
100
AcDbLine
 62
7
  6
CONTINUOUS
 10
-27.0
 20
-55.1338174026
 11
-19.7051194715
 21
-55.1338174026
  0
LINE
  5
240
100
AcDbEntity
  8
RACCORDO
100
AcDbLine
 62
7
  6
CONTINUOUS
 10
-10.2948805285
 20
-55.1338174026
 11
-1.5
 21
-55.1338174026
  0
LINE
  5
241
100
AcDbEntity
  8
RACCORDO
100
AcDbLine
 62
7
  6
CONTINUOUS
 10
1.5
 20
-55.1338174026
 11
10.2948805285
 21
-55.1338174026
  0
LINE
  5
242
100
AcDbEntity
  8
RACCORDO
100
AcDbLine
 62
7
  6
CONTINUOUS
 10
19.7051194715
 20
-55.1338174026
 11
27.0
 21
-55.1338174026
  0
LINE
  5
243
100
AcDbEntity
  8
RACCORDO
100
AcDbLine
 62
7
  6
CONTINUOUS
 10
30.0
 20
-55.1338174026
 11
37.2948805285
 21
-55.1338174026
  0
LINE
  5
244
100
AcDbEntity
  8
DRAFT
100
AcDbLine
 62
7
  6
CONTINUOUS
 10
-40.0
 20
-54.7061683119
 11
-38.5
 21
-54.7061683119
  0
LINE
  5
245
100
AcDbEntity
  8
DRAFT
100
AcDbLine
 62
7
  6
CONTINUOUS
 10
-18.5
 20
-54.7061683119
 11
-17.0
 21
-54.7061683119
  0
LINE
  5
246
100
AcDbEntity
  8
DRAFT
100
AcDbLine
 62
7
  6
CONTINUOUS
 10
-13.0
 20
-54.7061683119
 11
-11.5
 21
-54.7061683119
  0
LINE
  5
247
100
AcDbEntity
  8
DRAFT
100
AcDbLine
 62
7
  6
CONTINUOUS
 10
11.5
 20
-54.7061683119
 11
13.0
 21
-54.7061683119
  0
LINE
  5
248
100
AcDbEntity
  8
DRAFT
100
AcDbLine
 62
7
  6
CONTINUOUS
 10
17.0
 20
-54.7061683119
 11
18.5
 21
-54.7061683119
  0
LINE
  5
249
100
AcDbEntity
  8
DRAFT
100
AcDbLine
 62
7
  6
CONTINUOUS
 10
38.5
 20
-54.7061683119
 11
40.0
 21
-54.7061683119
  0
LINE
  5
24A
100
AcDbEntity
  8
RACCORDO
100
AcDbLine
 62
253
  6
CONTINUOUS
 10
-44.7056351869
 20
-54.7054067296
 11
44.7056351869
 21
-54.7054067296
  0
LINE
  5
24B
100
AcDbEntity
  8
RACCORDO
100
AcDbLine
 62
7
  6
CONTINUOUS
 10
46.6284526247
 20
-53.9738174026
 11
46.62685745
 21
-53.9738174026
  0
LINE
  5
24C
100
AcDbEntity
  8
RACCORDO
100
AcDbLine
 62
7
  6
CONTINUOUS
 10
-46.62685745
 20
-53.9738174026
 11
-46.6284526247
 21
-53.9738174026
  0
LINE
  5
24D
100
AcDbEntity
  8
RACCORDO
100
AcDbLine
 62
253
  6
CONTINUOUS
 10
-52.85
 20
-53.85
 11
-51.85
 21
-53.85
  0
LINE
  5
24E
100
AcDbEntity
  8
RACCORDO
100
AcDbLine
 62
253
  6
CONTINUOUS
 10
52.85
 20
-53.85
 11
51.85
 21
-53.85
  0
LINE
  5
24F
100
AcDbEntity
  8
RACCORDO
100
AcDbLine
 62
253
  6
CONTINUOUS
 10
47.2451172824
 20
-53.7454218921
 11
48.2449649775
 21
-53.7454218921
  0
LINE
  5
250
100
AcDbEntity
  8
RACCORDO
100
AcDbLine
 62
253
  6
CONTINUOUS
 10
-47.2451172824
 20
-53.7454218921
 11
-48.2449649775
 21
-53.7454218921
  0
LINE
  5
251
100
AcDbEntity
  8
DRAFT
100
AcDbLine
 62
7
  6
CONTINUOUS
 10
-46.66
 20
-33.0461683119
 11
-46.2061683119
 21
-33.5
  0
LINE
  5
252
100
AcDbEntity
  8
RACCORDO
100
AcDbLine
 62
7
  6
CONTINUOUS
 10
-52.85
 20
-53.85
 11
-52.85
 21
53.85
  0
LINE
  5
253
100
AcDbEntity
  8
RACCORDO
100
AcDbLine
 62
253
  6
CONTINUOUS
 10
-51.85
 20
-53.85
 11
-51.85
 21
53.85
  0
LINE
  5
254
100
AcDbEntity
  8
0
100
AcDbLine
 62
7
  6
CONTINUOUS
 10
-51.35
 20
-48.95
 11
-51.35
 21
-47.75
  0
LINE
  5
255
100
AcDbEntity
  8
0
100
AcDbLine
 62
7
  6
CONTINUOUS
 10
-51.35
 20
-38.95
 11
-51.35
 21
-37.75
  0
LINE
  5
256
100
AcDbEntity
  8
RACCORDO
100
AcDbLine
 62
7
  6
CONTINUOUS
 10
-51.35
 20
-29.0
 11
-51.35
 21
-17.0
  0
LINE
  5
257
100
AcDbEntity
  8
0
100
AcDbLine
 62
7
  6
CONTINUOUS
 10
-51.35
 20
-15.6
 11
-51.35
 21
-14.4
  0
LINE
  5
258
100
AcDbEntity
  8
0
100
AcDbLine
 62
7
  6
CONTINUOUS
 10
-51.35
 20
-0.6
 11
-51.35
 21
0.6
  0
LINE
  5
259
100
AcDbEntity
  8
0
100
AcDbLine
 62
7
  6
CONTINUOUS
 10
-51.35
 20
14.4
 11
-51.35
 21
15.6
  0
LINE
  5
25A
100
AcDbEntity
  8
RACCORDO
100
AcDbLine
 62
7
  6
CONTINUOUS
 10
-51.35
 20
17.0
 11
-51.35
 21
29.0
  0
LINE
  5
25B
100
AcDbEntity
  8
0
100
AcDbLine
 62
7
  6
CONTINUOUS
 10
-51.35
 20
37.75
 11
-51.35
 21
38.95
  0
LINE
  5
25C
100
AcDbEntity
  8
0
100
AcDbLine
 62
7
  6
CONTINUOUS
 10
-51.35
 20
47.75
 11
-51.35
 21
48.95
  0
LINE
  5
25D
100
AcDbEntity
  8
DRAFT
100
AcDbLine
 62
7
  6
CONTINUOUS
 10
-49.85
 20
-27.75
 11
-49.85
 21
-25.75
  0
LINE
  5
25E
100
AcDbEntity
  8
DRAFT
100
AcDbLine
 62
7
  6
CONTINUOUS
 10
-49.85
 20
-20.25
 11
-49.85
 21
-18.25
  0
LINE
  5
25F
100
AcDbEntity
  8
DRAFT
100
AcDbLine
 62
7
  6
CONTINUOUS
 10
-49.85
 20
18.25
 11
-49.85
 21
20.25
  0
LINE
  5
260
100
AcDbEntity
  8
DRAFT
100
AcDbLine
 62
7
  6
CONTINUOUS
 10
-49.85
 20
25.75
 11
-49.85
 21
27.75
  0
LINE
  5
261
100
AcDbEntity
  8
0
100
AcDbLine
 62
7
  6
CONTINUOUS
 10
-49.6
 20
-21.25
 11
-49.6
 21
-24.75
  0
LINE
  5
262
100
AcDbEntity
  8
0
100
AcDbLine
 62
7
  6
CONTINUOUS
 10
-49.6
 20
21.25
 11
-49.6
 21
24.75
  0
LINE
  5
263
100
AcDbEntity
  8
RACCORDO
100
AcDbLine
 62
7
  6
CONTINUOUS
 10
-49.3623272758
 20
-27.5
 11
-49.3623272758
 21
-18.5
  0
LINE
  5
264
100
AcDbEntity
  8
RACCORDO
100
AcDbLine
 62
7
  6
CONTINUOUS
 10
-49.3623272758
 20
18.5
 11
-49.3623272758
 21
27.5
  0
LINE
  5
265
100
AcDbEntity
  8
DRAFT
100
AcDbLine
 62
7
  6
CONTINUOUS
 10
-48.4492925085
 20
27.75
 11
-48.4492925085
 21
27.5
  0
LINE
  5
266
100
AcDbEntity
  8
DRAFT
100
AcDbLine
 62
7
  6
CONTINUOUS
 10
-48.4492925085
 20
18.5
 11
-48.4492925085
 21
18.25
  0
LINE
  5
267
100
AcDbEntity
  8
DRAFT
100
AcDbLine
 62
7
  6
CONTINUOUS
 10
-48.4492925085
 20
-18.25
 11
-48.4492925085
 21
-18.5
  0
LINE
  5
268
100
AcDbEntity
  8
DRAFT
100
AcDbLine
 62
7
  6
CONTINUOUS
 10
-48.4492925085
 20
-27.5
 11
-48.4492925085
 21
-27.75
  0
LINE
  5
269
100
AcDbEntity
  8
DRAFT
100
AcDbLine
 62
7
  6
CONTINUOUS
 10
-48.3936376623
 20
28.0
 11
-48.3936376623
 21
27.5
  0
LINE
  5
26A
100
AcDbEntity
  8
DRAFT
100
AcDbLine
 62
7
  6
CONTINUOUS
 10
-48.3936376623
 20
18.5
 11
-48.3936376623
 21
18.0
  0
LINE
  5
26B
100
AcDbEntity
  8
DRAFT
100
AcDbLine
 62
7
  6
CONTINUOUS
 10
-48.3936376623
 20
-18.0
 11
-48.3936376623
 21
-18.5
  0
LINE
  5
26C
100
AcDbEntity
  8
DRAFT
100
AcDbLine
 62
7
  6
CONTINUOUS
 10
-48.3936376623
 20
-27.5
 11
-48.3936376623
 21
-28.0
  0
LINE
  5
26D
100
AcDbEntity
  8
RACCORDO
100
AcDbLine
 62
7
  6
CONTINUOUS
 10
-48.3623272758
 20
27.5
 11
-48.3623272758
 21
18.5
  0
LINE
  5
26E
100
AcDbEntity
  8
RACCORDO
100
AcDbLine
 62
7
  6
CONTINUOUS
 10
-48.3623272758
 20
-18.5
 11
-48.3623272758
 21
-27.5
  0
LINE
  5
26F
100
AcDbEntity
  8
RACCORDO
100
AcDbLine
 62
7
  6
CONTINUOUS
 10
-48.35
 20
-53.8504569145
 11
-48.35
 21
-48.95
  0
LINE
  5
270
100
AcDbEntity
  8
DRAFT
100
AcDbLine
 62
7
  6
CONTINUOUS
 10
-48.35
 20
-47.75
 11
-48.35
 21
-38.95
  0
LINE
  5
271
100
AcDbEntity
  8
RACCORDO
100
AcDbLine
 62
7
  6
CONTINUOUS
 10
-48.35
 20
-37.75
 11
-48.35
 21
-29.0
  0
LINE
  5
272
100
AcDbEntity
  8
RACCORDO
100
AcDbLine
 62
7
  6
CONTINUOUS
 10
-48.35
 20
-17.0
 11
-48.35
 21
-15.6
  0
LINE
  5
273
100
AcDbEntity
  8
DRAFT
100
AcDbLine
 62
7
  6
CONTINUOUS
 10
-48.35
 20
-14.4
 11
-48.35
 21
-0.6
  0
LINE
  5
274
100
AcDbEntity
  8
DRAFT
100
AcDbLine
 62
7
  6
CONTINUOUS
 10
-48.35
 20
0.6
 11
-48.35
 21
14.4
  0
LINE
  5
275
100
AcDbEntity
  8
RACCORDO
100
AcDbLine
 62
7
  6
CONTINUOUS
 10
-48.35
 20
15.6
 11
-48.35
 21
17.0
  0
LINE
  5
276
100
AcDbEntity
  8
RACCORDO
100
AcDbLine
 62
7
  6
CONTINUOUS
 10
-48.35
 20
29.0
 11
-48.35
 21
37.75
  0
LINE
  5
277
100
AcDbEntity
  8
DRAFT
100
AcDbLine
 62
7
  6
CONTINUOUS
 10
-48.35
 20
38.95
 11
-48.35
 21
47.75
  0
LINE
  5
278
100
AcDbEntity
  8
RACCORDO
100
AcDbLine
 62
7
  6
CONTINUOUS
 10
-48.35
 20
48.95
 11
-48.35
 21
53.8504569145
  0
LINE
  5
279
100
AcDbEntity
  8
DRAFT
100
AcDbLine
 62
7
  6
CONTINUOUS
 10
-48.2929301708
 20
-20.4
 11
-48.2929301708
 21
-25.6
  0
LINE
  5
27A
100
AcDbEntity
  8
DRAFT
100
AcDbLine
 62
7
  6
CONTINUOUS
 10
-48.2929301708
 20
20.4
 11
-48.2929301708
 21
25.6
  0
LINE
  5
27B
100
AcDbEntity
  8
DRAFT
100
AcDbLine
 62
7
  6
CONTINUOUS
 10
-48.2564732214
 20
-48.95
 11
-48.2564732214
 21
-47.75
  0
LINE
  5
27C
100
AcDbEntity
  8
DRAFT
100
AcDbLine
 62
7
  6
CONTINUOUS
 10
-48.2564732214
 20
-38.95
 11
-48.2564732214
 21
-37.75
  0
LINE
  5
27D
100
AcDbEntity
  8
DRAFT
100
AcDbLine
 62
7
  6
CONTINUOUS
 10
-48.2564732214
 20
-15.6
 11
-48.2564732214
 21
-14.4
  0
LINE
  5
27E
100
AcDbEntity
  8
DRAFT
100
AcDbLine
 62
7
  6
CONTINUOUS
 10
-48.2564732214
 20
-0.6
 11
-48.2564732214
 21
0.6
  0
LINE
  5
27F
100
AcDbEntity
  8
DRAFT
100
AcDbLine
 62
7
  6
CONTINUOUS
 10
-48.2564732214
 20
14.4
 11
-48.2564732214
 21
15.6
  0
LINE
  5
280
100
AcDbEntity
  8
DRAFT
100
AcDbLine
 62
7
  6
CONTINUOUS
 10
-48.2564732214
 20
37.75
 11
-48.2564732214
 21
38.95
  0
LINE
  5
281
100
AcDbEntity
  8
DRAFT
100
AcDbLine
 62
7
  6
CONTINUOUS
 10
-48.2564732214
 20
47.75
 11
-48.2564732214
 21
48.95
  0
LINE
  5
282
100
AcDbEntity
  8
RACCORDO
100
AcDbLine
 62
253
  6
CONTINUOUS
 10
-48.2449649775
 20
53.7454218921
 11
-48.2449649775
 21
-53.7454218921
  0
LINE
  5
283
100
AcDbEntity
  8
DRAFT
100
AcDbLine
 62
7
  6
CONTINUOUS
 10
-48.2929301708
 20
20.4
 11
-48.3623272758
 21
20.2958911264
  0
LINE
  5
284
100
AcDbEntity
  8
DRAFT
100
AcDbLine
 62
7
  6
CONTINUOUS
 10
-49.3623272758
 20
24.9876727242
 11
-49.6
 21
24.75
  0
LINE
  5
285
100
AcDbEntity
  8
DRAFT
100
AcDbLine
 62
7
  6
CONTINUOUS
 10
-16.5461683119
 20
55.16
 11
-17.0
 21
54.7061683119
  0
LINE
  5
286
100
AcDbEntity
  8
RACCORDO
100
AcDbLine
 62
253
  6
CONTINUOUS
 10
-43.7057874918
 20
-52.2057874918
 11
43.7057874918
 21
-52.2057874918
  0
LINE
  5
287
100
AcDbEntity
  8
DRAFT
100
AcDbLine
 62
7
  6
CONTINUOUS
 10
51.35
 20
-48.95
 11
48.2564732214
 21
-48.95
  0
LINE
  5
288
100
AcDbEntity
  8
DRAFT
100
AcDbLine
 62
7
  6
CONTINUOUS
 10
-48.2564732214
 20
-48.95
 11
-51.35
 21
-48.95
  0
LINE
  5
289
100
AcDbEntity
  8
DRAFT
100
AcDbLine
 62
7
  6
CONTINUOUS
 10
-49.6
 20
-24.75
 11
-49.3623272758
 21
-24.9876727242
  0
LINE
  5
28A
100
AcDbEntity
  8
DRAFT
100
AcDbLine
 62
7
  6
CONTINUOUS
 10
-16.5461683119
 20
-55.16
 11
-17.0
 21
-54.7061683119
  0
LINE
  5
28B
100
AcDbEntity
  8
DRAFT
100
AcDbLine
 62
7
  6
CONTINUOUS
 10
-48.3623272758
 20
-20.2958911264
 11
-48.2929301708
 21
-20.4
  0
LINE
  5
28C
100
AcDbEntity
  8
RACCORDO
100
AcDbLine
 62
253
  6
CONTINUOUS
 10
-47.2451172824
 20
53.7454218921
 11
-47.2451172824
 21
-53.7454218921
  0
LINE
  5
28D
100
AcDbEntity
  8
0
100
AcDbLine
 62
7
  6
CONTINUOUS
 10
-46.66
 20
-45.0
 11
-46.66
 21
-42.0
  0
LINE
  5
28E
100
AcDbEntity
  8
DRAFT
100
AcDbLine
 62
7
  6
CONTINUOUS
 10
-46.66
 20
-33.0461683119
 11
-46.66
 21
-13.4538316881
  0
LINE
  5
28F
100
AcDbEntity
  8
0
100
AcDbLine
 62
7
  6
CONTINUOUS
 10
-46.66
 20
-1.5
 11
-46.66
 21
1.5
  0
LINE
  5
290
100
AcDbEntity
  8
DRAFT
100
AcDbLine
 62
7
  6
CONTINUOUS
 10
-46.66
 20
13.4538316881
 11
-46.66
 21
33.0461683119
  0
LINE
  5
291
100
AcDbEntity
  8
0
100
AcDbLine
 62
7
  6
CONTINUOUS
 10
-46.66
 20
42.0
 11
-46.66
 21
45.0
  0
LINE
  5
292
100
AcDbEntity
  8
RACCORDO
100
AcDbLine
 62
7
  6
CONTINUOUS
 10
-46.6596262339
 20
-53.670700802
 11
-46.6596262339
 21
-45.0
  0
LINE
  5
293
100
AcDbEntity
  8
DRAFT
100
AcDbLine
 62
7
  6
CONTINUOUS
 10
-46.6596262339
 20
-42.0
 11
-46.6596262339
 21
-33.046542078
  0
LINE
  5
294
100
AcDbEntity
  8
DRAFT
100
AcDbLine
 62
7
  6
CONTINUOUS
 10
-46.6596262339
 20
-13.453457922
 11
-46.6596262339
 21
-1.5
  0
LINE
  5
295
100
AcDbEntity
  8
DRAFT
100
AcDbLine
 62
7
  6
CONTINUOUS
 10
-46.6596262339
 20
1.5
 11
-46.6596262339
 21
13.453457922
  0
LINE
  5
296
100
AcDbEntity
  8
DRAFT
100
AcDbLine
 62
7
  6
CONTINUOUS
 10
-46.6596262339
 20
33.046542078
 11
-46.6596262339
 21
42.0
  0
LINE
  5
297
100
AcDbEntity
  8
RACCORDO
100
AcDbLine
 62
7
  6
CONTINUOUS
 10
-46.6596262339
 20
45.0
 11
-46.6596262339
 21
53.670700802
  0
LINE
  5
298
100
AcDbEntity
  8
RACCORDO
100
AcDbLine
 62
7
  6
CONTINUOUS
 10
-46.6338174026
 20
-50.7948805285
 11
-46.6338174026
 21
-45.0
  0
LINE
  5
299
100
AcDbEntity
  8
RACCORDO
100
AcDbLine
 62
7
  6
CONTINUOUS
 10
-46.6338174026
 20
-42.0
 11
-46.6338174026
 21
-36.2051194715
  0
LINE
  5
29A
100
AcDbEntity
  8
RACCORDO
100
AcDbLine
 62
7
  6
CONTINUOUS
 10
-46.6338174026
 20
-10.2948805285
 11
-46.6338174026
 21
-1.5
  0
LINE
  5
29B
100
AcDbEntity
  8
RACCORDO
100
AcDbLine
 62
7
  6
CONTINUOUS
 10
-46.6338174026
 20
1.5
 11
-46.6338174026
 21
10.2948805285
  0
LINE
  5
29C
100
AcDbEntity
  8
RACCORDO
100
AcDbLine
 62
7
  6
CONTINUOUS
 10
-46.6338174026
 20
36.2051194715
 11
-46.6338174026
 21
42.0
  0
LINE
  5
29D
100
AcDbEntity
  8
RACCORDO
100
AcDbLine
 62
7
  6
CONTINUOUS
 10
-46.6338174026
 20
45.0
 11
-46.6338174026
 21
50.7948805285
  0
LINE
  5
29E
100
AcDbEntity
  8
DRAFT
100
AcDbLine
 62
7
  6
CONTINUOUS
 10
-46.2061683119
 20
-53.2063967691
 11
-46.2061683119
 21
-52.0
  0
LINE
  5
29F
100
AcDbEntity
  8
DRAFT
100
AcDbLine
 62
7
  6
CONTINUOUS
 10
-46.2061683119
 20
-35.0
 11
-46.2061683119
 21
-33.5
  0
LINE
  5
2A0
100
AcDbEntity
  8
DRAFT
100
AcDbLine
 62
7
  6
CONTINUOUS
 10
-46.2061683119
 20
-13.0
 11
-46.2061683119
 21
-11.5
  0
LINE
  5
2A1
100
AcDbEntity
  8
DRAFT
100
AcDbLine
 62
7
  6
CONTINUOUS
 10
-46.2061683119
 20
11.5
 11
-46.2061683119
 21
13.0
  0
LINE
  5
2A2
100
AcDbEntity
  8
DRAFT
100
AcDbLine
 62
7
  6
CONTINUOUS
 10
-46.2061683119
 20
33.5
 11
-46.2061683119
 21
35.0
  0
LINE
  5
2A3
100
AcDbEntity
  8
DRAFT
100
AcDbLine
 62
7
  6
CONTINUOUS
 10
-46.2061683119
 20
52.0
 11
-46.2061683119
 21
53.2063967691
  0
LINE
  5
2A4
100
AcDbEntity
  8
RACCORDO
100
AcDbLine
 62
253
  6
CONTINUOUS
 10
-46.2054067296
 20
53.2056351869
 11
-46.2054067296
 21
-53.2056351869
  0
LINE
  5
2A5
100
AcDbEntity
  8
RACCORDO
100
AcDbLine
 62
253
  6
CONTINUOUS
 10
-45.35
 20
61.35
 11
-45.35
 21
60.35
  0
LINE
  5
2A6
100
AcDbEntity
  8
RACCORDO
100
AcDbLine
 62
253
  6
CONTINUOUS
 10
-45.35
 20
-61.35
 11
-45.35
 21
-60.35
  0
LINE
  5
2A7
100
AcDbEntity
  8
RACCORDO
100
AcDbLine
 62
253
  6
CONTINUOUS
 10
-45.2454218921
 20
-55.7451172824
 11
-45.2454218921
 21
-56.7449649775
  0
LINE
  5
2A8
100
AcDbEntity
  8
RACCORDO
100
AcDbLine
 62
253
  6
CONTINUOUS
 10
-45.2454218921
 20
55.7451172824
 11
-45.2454218921
 21
56.7449649775
  0
LINE
  5
2A9
100
AcDbEntity
  8
RACCORDO
100
AcDbLine
 62
253
  6
CONTINUOUS
 10
-43.7057874918
 20
52.2057874918
 11
-43.7057874918
 21
-52.2057874918
  0
LINE
  5
2AA
100
AcDbEntity
  8
DRAFT
100
AcDbLine
 62
7
  6
CONTINUOUS
 10
51.35
 20
-47.75
 11
48.2564732214
 21
-47.75
  0
LINE
  5
2AB
100
AcDbEntity
  8
DRAFT
100
AcDbLine
 62
7
  6
CONTINUOUS
 10
-48.2564732214
 20
-47.75
 11
-51.35
 21
-47.75
  0
LINE
  5
2AC
100
AcDbEntity
  8
0
100
AcDbLine
 62
7
  6
CONTINUOUS
 10
-46.66
 20
-45.0
 11
-46.6338174026
 21
-45.0
  0
LINE
  5
2AD
100
AcDbEntity
  8
0
100
AcDbLine
 62
7
  6
CONTINUOUS
 10
46.66
 20
-45.0
 11
46.6338174026
 21
-45.0
  0
LINE
  5
2AE
100
AcDbEntity
  8
DRAFT
100
AcDbLine
 62
7
  6
CONTINUOUS
 10
-41.1
 20
59.85
 11
-41.1
 21
56.7564732214
  0
LINE
  5
2AF
100
AcDbEntity
  8
DRAFT
100
AcDbLine
 62
7
  6
CONTINUOUS
 10
-41.1
 20
-56.7564732214
 11
-41.1
 21
-59.85
  0
LINE
  5
2B0
100
AcDbEntity
  8
DRAFT
100
AcDbLine
 62
7
  6
CONTINUOUS
 10
-39.9
 20
59.85
 11
-39.9
 21
56.7564732214
  0
LINE
  5
2B1
100
AcDbEntity
  8
DRAFT
100
AcDbLine
 62
7
  6
CONTINUOUS
 10
-39.9
 20
-56.7564732214
 11
-39.9
 21
-59.85
  0
LINE
  5
2B2
100
AcDbEntity
  8
0
100
AcDbLine
 62
7
  6
CONTINUOUS
 10
-46.66
 20
-42.0
 11
-46.6338174026
 21
-42.0
  0
LINE
  5
2B3
100
AcDbEntity
  8
0
100
AcDbLine
 62
7
  6
CONTINUOUS
 10
46.66
 20
-42.0
 11
46.6338174026
 21
-42.0
  0
LINE
  5
2B4
100
AcDbEntity
  8
DRAFT
100
AcDbLine
 62
7
  6
CONTINUOUS
 10
51.35
 20
-38.95
 11
48.2564732214
 21
-38.95
  0
LINE
  5
2B5
100
AcDbEntity
  8
DRAFT
100
AcDbLine
 62
7
  6
CONTINUOUS
 10
-48.2564732214
 20
-38.95
 11
-51.35
 21
-38.95
  0
LINE
  5
2B6
100
AcDbEntity
  8
DRAFT
100
AcDbLine
 62
7
  6
CONTINUOUS
 10
51.35
 20
-37.75
 11
48.2564732214
 21
-37.75
  0
LINE
  5
2B7
100
AcDbEntity
  8
DRAFT
100
AcDbLine
 62
7
  6
CONTINUOUS
 10
-48.2564732214
 20
-37.75
 11
-51.35
 21
-37.75
  0
LINE
  5
2B8
100
AcDbEntity
  8
DRAFT
100
AcDbLine
 62
7
  6
CONTINUOUS
 10
-35.4696343564
 20
26.2505035115
 11
-35.4696052494
 21
26.25
  0
LINE
  5
2B9
100
AcDbEntity
  8
DRAFT
100
AcDbLine
 62
7
  6
CONTINUOUS
 10
-35.4696343564
 20
-26.2505035115
 11
-35.4696052494
 21
-26.25
  0
LINE
  5
2BA
100
AcDbEntity
  8
RACCORDO
100
AcDbLine
 62
7
  6
CONTINUOUS
 10
-11.5
 20
54.7061683119
 11
-11.2948424516
 21
55.1165146599
  0
LINE
  5
2BB
100
AcDbEntity
  8
RACCORDO
100
AcDbLine
 62
7
  6
CONTINUOUS
 10
-11.5
 20
-54.7061683119
 11
-11.2948424516
 21
-55.1165146599
  0
LINE
  5
2BC
100
AcDbEntity
  8
0
100
AcDbLine
 62
7
  6
CONTINUOUS
 10
-30.0
 20
55.16
 11
-30.0
 21
55.1338174026
  0
LINE
  5
2BD
100
AcDbEntity
  8
0
100
AcDbLine
 62
7
  6
CONTINUOUS
 10
-30.0
 20
-55.16
 11
-30.0
 21
-55.1338174026
  0
LINE
  5
2BE
100
AcDbEntity
  8
DRAFT
100
AcDbLine
 62
7
  6
CONTINUOUS
 10
-29.1
 20
59.85
 11
-29.1
 21
56.7564732214
  0
LINE
  5
2BF
100
AcDbEntity
  8
DRAFT
100
AcDbLine
 62
7
  6
CONTINUOUS
 10
-29.1
 20
-56.7564732214
 11
-29.1
 21
-59.85
  0
LINE
  5
2C0
100
AcDbEntity
  8
DRAFT
100
AcDbLine
 62
7
  6
CONTINUOUS
 10
-27.9
 20
59.85
 11
-27.9
 21
56.7564732214
  0
LINE
  5
2C1
100
AcDbEntity
  8
DRAFT
100
AcDbLine
 62
7
  6
CONTINUOUS
 10
-27.9
 20
-56.7564732214
 11
-27.9
 21
-59.85
  0
LINE
  5
2C2
100
AcDbEntity
  8
0
100
AcDbLine
 62
7
  6
CONTINUOUS
 10
-27.0
 20
55.16
 11
-27.0
 21
55.1338174026
  0
LINE
  5
2C3
100
AcDbEntity
  8
0
100
AcDbLine
 62
7
  6
CONTINUOUS
 10
-27.0
 20
-55.16
 11
-27.0
 21
-55.1338174026
  0
LINE
  5
2C4
100
AcDbEntity
  8
DRAFT
100
AcDbLine
 62
7
  6
CONTINUOUS
 10
13.4538316881
 20
55.16
 11
13.0
 21
54.7061683119
  0
LINE
  5
2C5
100
AcDbEntity
  8
RACCORDO
100
AcDbLine
 62
7
  6
CONTINUOUS
 10
-46.6165146599
 20
11.2948424516
 11
-46.2061683119
 21
11.5
  0
LINE
  5
2C6
100
AcDbEntity
  8
RACCORDO
100
AcDbLine
 62
253
  6
CONTINUOUS
 10
51.35
 20
-29.0
 11
48.35
 21
-29.0
  0
LINE
  5
2C7
100
AcDbEntity
  8
RACCORDO
100
AcDbLine
 62
253
  6
CONTINUOUS
 10
-48.35
 20
-29.0
 11
-51.35
 21
-29.0
  0
LINE
  5
2C8
100
AcDbEntity
  8
RACCORDO
100
AcDbLine
 62
7
  6
CONTINUOUS
 10
51.35
 20
-28.0
 11
48.3674550649
 21
-28.0
  0
LINE
  5
2C9
100
AcDbEntity
  8
RACCORDO
100
AcDbLine
 62
7
  6
CONTINUOUS
 10
-48.3674550649
 20
-28.0
 11
-51.35
 21
-28.0
  0
LINE
  5
2CA
100
AcDbEntity
  8
DRAFT
100
AcDbLine
 62
7
  6
CONTINUOUS
 10
49.85
 20
-27.75
 11
48.4492925085
 21
-27.75
  0
LINE
  5
2CB
100
AcDbEntity
  8
DRAFT
100
AcDbLine
 62
7
  6
CONTINUOUS
 10
-35.4696052494
 20
-27.75
 11
-33.7875461646
 21
-27.75
  0
LINE
  5
2CC
100
AcDbEntity
  8
DRAFT
100
AcDbLine
 62
7
  6
CONTINUOUS
 10
-11.2124538354
 20
-27.75
 11
-9.5303947506
 21
-27.75
  0
LINE
  5
2CD
100
AcDbEntity
  8
DRAFT
100
AcDbLine
 62
7
  6
CONTINUOUS
 10
9.5303947506
 20
-27.75
 11
11.2124538354
 21
-27.75
  0
LINE
  5
2CE
100
AcDbEntity
  8
DRAFT
100
AcDbLine
 62
7
  6
CONTINUOUS
 10
33.7875461646
 20
-27.75
 11
35.4696052494
 21
-27.75
  0
LINE
  5
2CF
100
AcDbEntity
  8
DRAFT
100
AcDbLine
 62
7
  6
CONTINUOUS
 10
-48.4492925085
 20
-27.75
 11
-49.85
 21
-27.75
  0
LINE
  5
2D0
100
AcDbEntity
  8
DRAFT
100
AcDbLine
 62
7
  6
CONTINUOUS
 10
-31.1731641174
 20
-27.5
 11
-29.2940619905
 21
-27.5
  0
LINE
  5
2D1
100
AcDbEntity
  8
DRAFT
100
AcDbLine
 62
7
  6
CONTINUOUS
 10
-15.7059380095
 20
-27.5
 11
-13.8268358826
 21
-27.5
  0
LINE
  5
2D2
100
AcDbEntity
  8
DRAFT
100
AcDbLine
 62
7
  6
CONTINUOUS
 10
13.8268358826
 20
-27.5
 11
15.7059380095
 21
-27.5
  0
LINE
  5
2D3
100
AcDbEntity
  8
DRAFT
100
AcDbLine
 62
7
  6
CONTINUOUS
 10
29.2940619905
 20
-27.5
 11
31.1731641174
 21
-27.5
  0
LINE
  5
2D4
100
AcDbEntity
  8
RACCORDO
100
AcDbLine
 62
7
  6
CONTINUOUS
 10
48.3623272758
 20
-27.5
 11
49.3623272758
 21
-27.5
  0
LINE
  5
2D5
100
AcDbEntity
  8
RACCORDO
100
AcDbLine
 62
7
  6
CONTINUOUS
 10
-48.3623272758
 20
-27.5
 11
-49.3623272758
 21
-27.5
  0
LINE
  5
2D6
100
AcDbEntity
  8
DRAFT
100
AcDbLine
 62
7
  6
CONTINUOUS
 10
31.1731641174
 20
-26.5
 11
29.2940619905
 21
-26.5
  0
LINE
  5
2D7
100
AcDbEntity
  8
DRAFT
100
AcDbLine
 62
7
  6
CONTINUOUS
 10
15.7059380095
 20
-26.5
 11
13.8268358826
 21
-26.5
  0
LINE
  5
2D8
100
AcDbEntity
  8
DRAFT
100
AcDbLine
 62
7
  6
CONTINUOUS
 10
-13.8268358826
 20
-26.5
 11
-15.7059380095
 21
-26.5
  0
LINE
  5
2D9
100
AcDbEntity
  8
DRAFT
100
AcDbLine
 62
7
  6
CONTINUOUS
 10
-29.2940619905
 20
-26.5
 11
-31.1731641174
 21
-26.5
  0
LINE
  5
2DA
100
AcDbEntity
  8
RACCORDO
100
AcDbLine
 62
7
  6
CONTINUOUS
 10
-46.2061683119
 20
-11.5
 11
-46.6165146599
 21
-11.2948424516
  0
LINE
  5
2DB
100
AcDbEntity
  8
DRAFT
100
AcDbLine
 62
7
  6
CONTINUOUS
 10
13.4538316881
 20
-55.16
 11
13.0
 21
-54.7061683119
  0
LINE
  5
2DC
100
AcDbEntity
  8
DRAFT
100
AcDbLine
 62
7
  6
CONTINUOUS
 10
-23.25
 20
39.9696052494
 11
-23.25
 21
38.2875461646
  0
LINE
  5
2DD
100
AcDbEntity
  8
DRAFT
100
AcDbLine
 62
7
  6
CONTINUOUS
 10
-23.25
 20
15.7124538354
 11
-23.25
 21
14.0303947506
  0
LINE
  5
2DE
100
AcDbEntity
  8
DRAFT
100
AcDbLine
 62
7
  6
CONTINUOUS
 10
-23.25
 20
-14.0303947506
 11
-23.25
 21
-15.7124538354
  0
LINE
  5
2DF
100
AcDbEntity
  8
DRAFT
100
AcDbLine
 62
7
  6
CONTINUOUS
 10
-23.25
 20
-38.2875461646
 11
-23.25
 21
-39.9696052494
  0
LINE
  5
2E0
100
AcDbEntity
  8
DRAFT
100
AcDbLine
 62
7
  6
CONTINUOUS
 10
-23.0
 20
35.6731641174
 11
-23.0
 21
33.7940619905
  0
LINE
  5
2E1
100
AcDbEntity
  8
DRAFT
100
AcDbLine
 62
7
  6
CONTINUOUS
 10
-23.0
 20
20.2059380095
 11
-23.0
 21
18.3268358826
  0
LINE
  5
2E2
100
AcDbEntity
  8
DRAFT
100
AcDbLine
 62
7
  6
CONTINUOUS
 10
-23.0
 20
-18.3268358826
 11
-23.0
 21
-20.2059380095
  0
LINE
  5
2E3
100
AcDbEntity
  8
DRAFT
100
AcDbLine
 62
7
  6
CONTINUOUS
 10
-23.0
 20
-33.7940619905
 11
-23.0
 21
-35.6731641174
  0
LINE
  5
2E4
100
AcDbEntity
  8
DRAFT
100
AcDbLine
 62
7
  6
CONTINUOUS
 10
-22.0
 20
-35.6731641174
 11
-22.0
 21
-33.7940619905
  0
LINE
  5
2E5
100
AcDbEntity
  8
DRAFT
100
AcDbLine
 62
7
  6
CONTINUOUS
 10
-22.0
 20
-20.2059380095
 11
-22.0
 21
-18.3268358826
  0
LINE
  5
2E6
100
AcDbEntity
  8
DRAFT
100
AcDbLine
 62
7
  6
CONTINUOUS
 10
-22.0
 20
18.3268358826
 11
-22.0
 21
20.2059380095
  0
LINE
  5
2E7
100
AcDbEntity
  8
DRAFT
100
AcDbLine
 62
7
  6
CONTINUOUS
 10
-22.0
 20
33.7940619905
 11
-22.0
 21
35.6731641174
  0
LINE
  5
2E8
100
AcDbEntity
  8
DRAFT
100
AcDbLine
 62
7
  6
CONTINUOUS
 10
-21.75
 20
-39.9696052494
 11
-21.75
 21
-38.2875461646
  0
LINE
  5
2E9
100
AcDbEntity
  8
DRAFT
100
AcDbLine
 62
7
  6
CONTINUOUS
 10
-21.75
 20
-15.7124538354
 11
-21.75
 21
-14.0303947506
  0
LINE
  5
2EA
100
AcDbEntity
  8
DRAFT
100
AcDbLine
 62
7
  6
CONTINUOUS
 10
-21.75
 20
14.0303947506
 11
-21.75
 21
15.7124538354
  0
LINE
  5
2EB
100
AcDbEntity
  8
DRAFT
100
AcDbLine
 62
7
  6
CONTINUOUS
 10
-21.75
 20
38.2875461646
 11
-21.75
 21
39.9696052494
  0
LINE
  5
2EC
100
AcDbEntity
  8
DRAFT
100
AcDbLine
 62
7
  6
CONTINUOUS
 10
-48.2929301708
 20
-25.6
 11
-48.3623272758
 21
-25.7041088736
  0
LINE
  5
2ED
100
AcDbEntity
  8
DRAFT
100
AcDbLine
 62
7
  6
CONTINUOUS
 10
-46.66
 20
-13.4538316881
 11
-46.2061683119
 21
-13.0
  0
LINE
  5
2EE
100
AcDbEntity
  8
DRAFT
100
AcDbLine
 62
7
  6
CONTINUOUS
 10
48.2929301708
 20
-25.6
 11
48.3623272758
 21
-25.5996795738
  0
LINE
  5
2EF
100
AcDbEntity
  8
DRAFT
100
AcDbLine
 62
7
  6
CONTINUOUS
 10
35.4696052494
 20
-26.25
 11
33.7875461646
 21
-26.25
  0
LINE
  5
2F0
100
AcDbEntity
  8
DRAFT
100
AcDbLine
 62
7
  6
CONTINUOUS
 10
11.2124538354
 20
-26.25
 11
9.5303947506
 21
-26.25
  0
LINE
  5
2F1
100
AcDbEntity
  8
DRAFT
100
AcDbLine
 62
7
  6
CONTINUOUS
 10
-9.5303947506
 20
-26.25
 11
-11.2124538354
 21
-26.25
  0
LINE
  5
2F2
100
AcDbEntity
  8
DRAFT
100
AcDbLine
 62
7
  6
CONTINUOUS
 10
-33.7875461646
 20
-26.25
 11
-35.4696052494
 21
-26.25
  0
LINE
  5
2F3
100
AcDbEntity
  8
RACCORDO
100
AcDbLine
 62
253
  6
CONTINUOUS
 10
48.3623272758
 20
-26.0
 11
49.3623272758
 21
-26.0
  0
LINE
  5
2F4
100
AcDbEntity
  8
RACCORDO
100
AcDbLine
 62
253
  6
CONTINUOUS
 10
-48.3623272758
 20
-26.0
 11
-49.3623272758
 21
-26.0
  0
LINE
  5
2F5
100
AcDbEntity
  8
DRAFT
100
AcDbLine
 62
7
  6
CONTINUOUS
 10
51.35
 20
-25.75
 11
49.85
 21
-25.75
  0
LINE
  5
2F6
100
AcDbEntity
  8
DRAFT
100
AcDbLine
 62
7
  6
CONTINUOUS
 10
-49.85
 20
-25.75
 11
-51.35
 21
-25.75
  0
LINE
  5
2F7
100
AcDbEntity
  8
DRAFT
100
AcDbLine
 62
7
  6
CONTINUOUS
 10
-48.3623272758
 20
-25.5996795738
 11
-48.2929301708
 21
-25.6
  0
LINE
  5
2F8
100
AcDbEntity
  8
DRAFT
100
AcDbLine
 62
7
  6
CONTINUOUS
 10
-46.66
 20
13.4538316881
 11
-46.2061683119
 21
13.0
  0
LINE
  5
2F9
100
AcDbEntity
  8
DRAFT
100
AcDbLine
 62
7
  6
CONTINUOUS
 10
-48.3623272758
 20
25.7041088736
 11
-48.2929301708
 21
25.6
  0
LINE
  5
2FA
100
AcDbEntity
  8
DRAFT
100
AcDbLine
 62
7
  6
CONTINUOUS
 10
-15.6
 20
59.85
 11
-15.6
 21
56.7564732214
  0
LINE
  5
2FB
100
AcDbEntity
  8
DRAFT
100
AcDbLine
 62
7
  6
CONTINUOUS
 10
-15.6
 20
-56.7564732214
 11
-15.6
 21
-59.85
  0
LINE
  5
2FC
100
AcDbEntity
  8
DRAFT
100
AcDbLine
 62
7
  6
CONTINUOUS
 10
-49.3623272758
 20
-21.0123272758
 11
-49.6
 21
-21.25
  0
LINE
  5
2FD
100
AcDbEntity
  8
DRAFT
100
AcDbLine
 62
7
  6
CONTINUOUS
 10
-48.3623272758
 20
-20.4003204262
 11
-48.2929301708
 21
-20.4
  0
LINE
  5
2FE
100
AcDbEntity
  8
DRAFT
100
AcDbLine
 62
7
  6
CONTINUOUS
 10
-51.35
 20
-20.25
 11
-49.85
 21
-20.25
  0
LINE
  5
2FF
100
AcDbEntity
  8
DRAFT
100
AcDbLine
 62
7
  6
CONTINUOUS
 10
49.85
 20
-20.25
 11
51.35
 21
-20.25
  0
LINE
  5
300
100
AcDbEntity
  8
RACCORDO
100
AcDbLine
 62
253
  6
CONTINUOUS
 10
48.3623272758
 20
-20.0
 11
49.3623272758
 21
-20.0
  0
LINE
  5
301
100
AcDbEntity
  8
RACCORDO
100
AcDbLine
 62
253
  6
CONTINUOUS
 10
-48.3623272758
 20
-20.0
 11
-49.3623272758
 21
-20.0
  0
LINE
  5
302
100
AcDbEntity
  8
RACCORDO
100
AcDbLine
 62
7
  6
CONTINUOUS
 10
48.3623272758
 20
-18.5
 11
49.3623272758
 21
-18.5
  0
LINE
  5
303
100
AcDbEntity
  8
RACCORDO
100
AcDbLine
 62
7
  6
CONTINUOUS
 10
-48.3623272758
 20
-18.5
 11
-49.3623272758
 21
-18.5
  0
LINE
  5
304
100
AcDbEntity
  8
DRAFT
100
AcDbLine
 62
7
  6
CONTINUOUS
 10
-49.85
 20
-18.25
 11
-48.4492925085
 21
-18.25
  0
LINE
  5
305
100
AcDbEntity
  8
DRAFT
100
AcDbLine
 62
7
  6
CONTINUOUS
 10
48.4492925085
 20
-18.25
 11
49.85
 21
-18.25
  0
LINE
  5
306
100
AcDbEntity
  8
RACCORDO
100
AcDbLine
 62
7
  6
CONTINUOUS
 10
-51.35
 20
-18.0
 11
-48.3674550649
 21
-18.0
  0
LINE
  5
307
100
AcDbEntity
  8
RACCORDO
100
AcDbLine
 62
7
  6
CONTINUOUS
 10
48.3674550649
 20
-18.0
 11
51.35
 21
-18.0
  0
LINE
  5
308
100
AcDbEntity
  8
RACCORDO
100
AcDbLine
 62
253
  6
CONTINUOUS
 10
-51.35
 20
-17.0
 11
-48.35
 21
-17.0
  0
LINE
  5
309
100
AcDbEntity
  8
RACCORDO
100
AcDbLine
 62
253
  6
CONTINUOUS
 10
48.35
 20
-17.0
 11
51.35
 21
-17.0
  0
LINE
  5
30A
100
AcDbEntity
  8
DRAFT
100
AcDbLine
 62
7
  6
CONTINUOUS
 10
51.35
 20
-15.6
 11
48.2564732214
 21
-15.6
  0
LINE
  5
30B
100
AcDbEntity
  8
DRAFT
100
AcDbLine
 62
7
  6
CONTINUOUS
 10
-48.2564732214
 20
-15.6
 11
-51.35
 21
-15.6
  0
LINE
  5
30C
100
AcDbEntity
  8
DRAFT
100
AcDbLine
 62
7
  6
CONTINUOUS
 10
48.2929301708
 20
-20.4
 11
48.3623272758
 21
-20.4003204262
  0
LINE
  5
30D
100
AcDbEntity
  8
DRAFT
100
AcDbLine
 62
7
  6
CONTINUOUS
 10
-49.6
 20
21.25
 11
-49.3623272758
 21
21.0123272758
  0
LINE
  5
30E
100
AcDbEntity
  8
DRAFT
100
AcDbLine
 62
7
  6
CONTINUOUS
 10
-14.4
 20
59.85
 11
-14.4
 21
56.7564732214
  0
LINE
  5
30F
100
AcDbEntity
  8
DRAFT
100
AcDbLine
 62
7
  6
CONTINUOUS
 10
-14.4
 20
-56.7564732214
 11
-14.4
 21
-59.85
  0
LINE
  5
310
100
AcDbEntity
  8
DRAFT
100
AcDbLine
 62
7
  6
CONTINUOUS
 10
40.4538316881
 20
55.16
 11
40.0
 21
54.7061683119
  0
LINE
  5
311
100
AcDbEntity
  8
RACCORDO
100
AcDbLine
 62
7
  6
CONTINUOUS
 10
46.2061683119
 20
35.0
 11
46.6165146599
 21
35.2051575484
  0
LINE
  5
312
100
AcDbEntity
  8
DRAFT
100
AcDbLine
 62
7
  6
CONTINUOUS
 10
-23.2494964885
 20
-14.0303656436
 11
-23.25
 21
-14.0303947506
  0
LINE
  5
313
100
AcDbEntity
  8
DRAFT
100
AcDbLine
 62
7
  6
CONTINUOUS
 10
51.35
 20
-14.4
 11
48.2564732214
 21
-14.4
  0
LINE
  5
314
100
AcDbEntity
  8
DRAFT
100
AcDbLine
 62
7
  6
CONTINUOUS
 10
-48.2564732214
 20
-14.4
 11
-51.35
 21
-14.4
  0
LINE
  5
315
100
AcDbEntity
  8
DRAFT
100
AcDbLine
 62
7
  6
CONTINUOUS
 10
23.2494964885
 20
-14.0303656436
 11
23.25
 21
-14.0303947506
  0
LINE
  5
316
100
AcDbEntity
  8
RACCORDO
100
AcDbLine
 62
7
  6
CONTINUOUS
 10
46.6165146599
 20
-35.2051575484
 11
46.2061683119
 21
-35.0
  0
LINE
  5
317
100
AcDbEntity
  8
DRAFT
100
AcDbLine
 62
7
  6
CONTINUOUS
 10
40.4538316881
 20
-55.16
 11
40.0
 21
-54.7061683119
  0
LINE
  5
318
100
AcDbEntity
  8
RACCORDO
100
AcDbLine
 62
7
  6
CONTINUOUS
 10
18.5
 20
54.7061683119
 11
18.7051575484
 21
55.1165146599
  0
LINE
  5
319
100
AcDbEntity
  8
RACCORDO
100
AcDbLine
 62
253
  6
CONTINUOUS
 10
45.3504569145
 20
56.85
 11
45.2454218921
 21
56.7449649775
  0
LINE
  5
31A
100
AcDbEntity
  8
RACCORDO
100
AcDbLine
 62
253
  6
CONTINUOUS
 10
45.1602284573
 20
55.16
 11
44.7056351869
 21
54.7054067296
  0
LINE
  5
31B
100
AcDbEntity
  8
DRAFT
100
AcDbLine
 62
7
  6
CONTINUOUS
 10
46.1730257618
 20
53.5199857145
 11
46.62685745
 21
53.9738174026
  0
LINE
  5
31C
100
AcDbEntity
  8
0
100
AcDbLine
 62
253
  6
CONTINUOUS
 10
46.2061683119
 20
53.2063967691
 11
46.2054067296
 21
53.2056351869
  0
LINE
  5
31D
100
AcDbEntity
  8
RACCORDO
100
AcDbLine
 62
253
  6
CONTINUOUS
 10
45.3504569145
 20
-56.85
 11
45.2454218921
 21
-56.7449649775
  0
LINE
  5
31E
100
AcDbEntity
  8
RACCORDO
100
AcDbLine
 62
253
  6
CONTINUOUS
 10
45.1602284573
 20
-55.16
 11
44.7056351869
 21
-54.7054067296
  0
LINE
  5
31F
100
AcDbEntity
  8
DRAFT
100
AcDbLine
 62
7
  6
CONTINUOUS
 10
46.62685745
 20
-53.9738174026
 11
46.1730257618
 21
-53.5199857145
  0
LINE
  5
320
100
AcDbEntity
  8
0
100
AcDbLine
 62
253
  6
CONTINUOUS
 10
46.2061683119
 20
-53.2063967691
 11
46.2054067296
 21
-53.2056351869
  0
LINE
  5
321
100
AcDbEntity
  8
RACCORDO
100
AcDbLine
 62
7
  6
CONTINUOUS
 10
18.5
 20
-54.7061683119
 11
18.7051575484
 21
-55.1165146599
  0
LINE
  5
322
100
AcDbEntity
  8
0
100
AcDbLine
 62
7
  6
CONTINUOUS
 10
-1.5
 20
55.16
 11
-1.5
 21
55.1338174026
  0
LINE
  5
323
100
AcDbEntity
  8
0
100
AcDbLine
 62
7
  6
CONTINUOUS
 10
-1.5
 20
-55.16
 11
-1.5
 21
-55.1338174026
  0
LINE
  5
324
100
AcDbEntity
  8
DRAFT
100
AcDbLine
 62
7
  6
CONTINUOUS
 10
-0.6
 20
59.85
 11
-0.6
 21
56.7564732214
  0
LINE
  5
325
100
AcDbEntity
  8
DRAFT
100
AcDbLine
 62
7
  6
CONTINUOUS
 10
-0.6
 20
-56.7564732214
 11
-0.6
 21
-59.85
  0
LINE
  5
326
100
AcDbEntity
  8
DRAFT
100
AcDbLine
 62
7
  6
CONTINUOUS
 10
0.6
 20
59.85
 11
0.6
 21
56.7564732214
  0
LINE
  5
327
100
AcDbEntity
  8
DRAFT
100
AcDbLine
 62
7
  6
CONTINUOUS
 10
0.6
 20
-56.7564732214
 11
0.6
 21
-59.85
  0
LINE
  5
328
100
AcDbEntity
  8
RACCORDO
100
AcDbLine
 62
253
  6
CONTINUOUS
 10
48.35
 20
53.8504569145
 11
48.2449649775
 21
53.7454218921
  0
LINE
  5
329
100
AcDbEntity
  8
0
100
AcDbLine
 62
7
  6
CONTINUOUS
 10
-46.66
 20
-1.5
 11
-46.6338174026
 21
-1.5
  0
LINE
  5
32A
100
AcDbEntity
  8
0
100
AcDbLine
 62
7
  6
CONTINUOUS
 10
46.66
 20
-1.5
 11
46.6338174026
 21
-1.5
  0
LINE
  5
32B
100
AcDbEntity
  8
DRAFT
100
AcDbLine
 62
7
  6
CONTINUOUS
 10
51.35
 20
-0.6
 11
48.2564732214
 21
-0.6
  0
LINE
  5
32C
100
AcDbEntity
  8
DRAFT
100
AcDbLine
 62
7
  6
CONTINUOUS
 10
-48.2564732214
 20
-0.6
 11
-51.35
 21
-0.6
  0
LINE
  5
32D
100
AcDbEntity
  8
DRAFT
100
AcDbLine
 62
7
  6
CONTINUOUS
 10
51.35
 20
0.6
 11
48.2564732214
 21
0.6
  0
LINE
  5
32E
100
AcDbEntity
  8
DRAFT
100
AcDbLine
 62
7
  6
CONTINUOUS
 10
-48.2564732214
 20
0.6
 11
-51.35
 21
0.6
  0
LINE
  5
32F
100
AcDbEntity
  8
RACCORDO
100
AcDbLine
 62
253
  6
CONTINUOUS
 10
48.35
 20
-53.8504569145
 11
48.2449649775
 21
-53.7454218921
  0
LINE
  5
330
100
AcDbEntity
  8
0
100
AcDbLine
 62
7
  6
CONTINUOUS
 10
1.5
 20
55.16
 11
1.5
 21
55.1338174026
  0
LINE
  5
331
100
AcDbEntity
  8
0
100
AcDbLine
 62
7
  6
CONTINUOUS
 10
1.5
 20
-55.16
 11
1.5
 21
-55.1338174026
  0
LINE
  5
332
100
AcDbEntity
  8
RACCORDO
100
AcDbLine
 62
253
  6
CONTINUOUS
 10
-48.35
 20
-53.8504569145
 11
-48.2449649775
 21
-53.7454218921
  0
LINE
  5
333
100
AcDbEntity
  8
0
100
AcDbLine
 62
253
  6
CONTINUOUS
 10
-46.2061683119
 20
-53.2063967691
 11
-46.2054067296
 21
-53.2056351869
  0
LINE
  5
334
100
AcDbEntity
  8
DRAFT
100
AcDbLine
 62
7
  6
CONTINUOUS
 10
-46.1730257618
 20
-53.5199857145
 11
-46.62685745
 21
-53.9738174026
  0
LINE
  5
335
100
AcDbEntity
  8
0
100
AcDbLine
 62
7
  6
CONTINUOUS
 10
-46.66
 20
1.5
 11
-46.6338174026
 21
1.5
  0
LINE
  5
336
100
AcDbEntity
  8
0
100
AcDbLine
 62
7
  6
CONTINUOUS
 10
46.66
 20
1.5
 11
46.6338174026
 21
1.5
  0
LINE
  5
337
100
AcDbEntity
  8
RACCORDO
100
AcDbLine
 62
253
  6
CONTINUOUS
 10
-48.35
 20
53.8504569145
 11
-48.2449649775
 21
53.7454218921
  0
LINE
  5
338
100
AcDbEntity
  8
0
100
AcDbLine
 62
253
  6
CONTINUOUS
 10
-46.2061683119
 20
53.2063967691
 11
-46.2054067296
 21
53.2056351869
  0
LINE
  5
339
100
AcDbEntity
  8
DRAFT
100
AcDbLine
 62
7
  6
CONTINUOUS
 10
-46.62685745
 20
53.9738174026
 11
-46.1730257618
 21
53.5199857145
  0
LINE
  5
33A
100
AcDbEntity
  8
RACCORDO
100
AcDbLine
 62
7
  6
CONTINUOUS
 10
-18.7051575484
 20
-55.1165146599
 11
-18.5
 21
-54.7061683119
  0
LINE
  5
33B
100
AcDbEntity
  8
RACCORDO
100
AcDbLine
 62
253
  6
CONTINUOUS
 10
-45.1602284573
 20
-55.16
 11
-44.7056351869
 21
-54.7054067296
  0
LINE
  5
33C
100
AcDbEntity
  8
RACCORDO
100
AcDbLine
 62
253
  6
CONTINUOUS
 10
-45.3504569145
 20
-56.85
 11
-45.2454218921
 21
-56.7449649775
  0
LINE
  5
33D
100
AcDbEntity
  8
DRAFT
100
AcDbLine
 62
7
  6
CONTINUOUS
 10
-40.4538316881
 20
-55.16
 11
-40.0
 21
-54.7061683119
  0
LINE
  5
33E
100
AcDbEntity
  8
RACCORDO
100
AcDbLine
 62
7
  6
CONTINUOUS
 10
-46.6165146599
 20
-35.2051575484
 11
-46.2061683119
 21
-35.0
  0
LINE
  5
33F
100
AcDbEntity
  8
RACCORDO
100
AcDbLine
 62
7
  6
CONTINUOUS
 10
-46.2061683119
 20
35.0
 11
-46.6165146599
 21
35.2051575484
  0
LINE
  5
340
100
AcDbEntity
  8
RACCORDO
100
AcDbLine
 62
253
  6
CONTINUOUS
 10
-45.1602284573
 20
55.16
 11
-44.7056351869
 21
54.7054067296
  0
LINE
  5
341
100
AcDbEntity
  8
RACCORDO
100
AcDbLine
 62
253
  6
CONTINUOUS
 10
-45.3504569145
 20
56.85
 11
-45.2454218921
 21
56.7449649775
  0
LINE
  5
342
100
AcDbEntity
  8
DRAFT
100
AcDbLine
 62
7
  6
CONTINUOUS
 10
-40.4538316881
 20
55.16
 11
-40.0
 21
54.7061683119
  0
LINE
  5
343
100
AcDbEntity
  8
RACCORDO
100
AcDbLine
 62
7
  6
CONTINUOUS
 10
-18.7051575484
 20
55.1165146599
 11
-18.5
 21
54.7061683119
  0
LINE
  5
344
100
AcDbEntity
  8
DRAFT
100
AcDbLine
 62
7
  6
CONTINUOUS
 10
14.4
 20
59.85
 11
14.4
 21
56.7564732214
  0
LINE
  5
345
100
AcDbEntity
  8
DRAFT
100
AcDbLine
 62
7
  6
CONTINUOUS
 10
14.4
 20
-56.7564732214
 11
14.4
 21
-59.85
  0
LINE
  5
346
100
AcDbEntity
  8
DRAFT
100
AcDbLine
 62
7
  6
CONTINUOUS
 10
15.6
 20
59.85
 11
15.6
 21
56.7564732214
  0
LINE
  5
347
100
AcDbEntity
  8
DRAFT
100
AcDbLine
 62
7
  6
CONTINUOUS
 10
15.6
 20
-56.7564732214
 11
15.6
 21
-59.85
  0
LINE
  5
348
100
AcDbEntity
  8
DRAFT
100
AcDbLine
 62
7
  6
CONTINUOUS
 10
23.2494964885
 20
14.0303656436
 11
23.25
 21
14.0303947506
  0
LINE
  5
349
100
AcDbEntity
  8
DRAFT
100
AcDbLine
 62
7
  6
CONTINUOUS
 10
51.35
 20
14.4
 11
48.2564732214
 21
14.4
  0
LINE
  5
34A
100
AcDbEntity
  8
DRAFT
100
AcDbLine
 62
7
  6
CONTINUOUS
 10
-48.2564732214
 20
14.4
 11
-51.35
 21
14.4
  0
LINE
  5
34B
100
AcDbEntity
  8
DRAFT
100
AcDbLine
 62
7
  6
CONTINUOUS
 10
51.35
 20
15.6
 11
48.2564732214
 21
15.6
  0
LINE
  5
34C
100
AcDbEntity
  8
DRAFT
100
AcDbLine
 62
7
  6
CONTINUOUS
 10
-48.2564732214
 20
15.6
 11
-51.35
 21
15.6
  0
LINE
  5
34D
100
AcDbEntity
  8
DRAFT
100
AcDbLine
 62
7
  6
CONTINUOUS
 10
-23.2494964885
 20
14.0303656436
 11
-23.25
 21
14.0303947506
  0
LINE
  5
34E
100
AcDbEntity
  8
DRAFT
100
AcDbLine
 62
7
  6
CONTINUOUS
 10
21.75
 20
39.9696052494
 11
21.75
 21
38.2875461646
  0
LINE
  5
34F
100
AcDbEntity
  8
DRAFT
100
AcDbLine
 62
7
  6
CONTINUOUS
 10
21.75
 20
15.7124538354
 11
21.75
 21
14.0303947506
  0
LINE
  5
350
100
AcDbEntity
  8
DRAFT
100
AcDbLine
 62
7
  6
CONTINUOUS
 10
21.75
 20
-14.0303947506
 11
21.75
 21
-15.7124538354
  0
LINE
  5
351
100
AcDbEntity
  8
DRAFT
100
AcDbLine
 62
7
  6
CONTINUOUS
 10
21.75
 20
-38.2875461646
 11
21.75
 21
-39.9696052494
  0
LINE
  5
352
100
AcDbEntity
  8
DRAFT
100
AcDbLine
 62
7
  6
CONTINUOUS
 10
22.0
 20
35.6731641174
 11
22.0
 21
33.7940619905
  0
LINE
  5
353
100
AcDbEntity
  8
DRAFT
100
AcDbLine
 62
7
  6
CONTINUOUS
 10
22.0
 20
20.2059380095
 11
22.0
 21
18.3268358826
  0
LINE
  5
354
100
AcDbEntity
  8
DRAFT
100
AcDbLine
 62
7
  6
CONTINUOUS
 10
22.0
 20
-18.3268358826
 11
22.0
 21
-20.2059380095
  0
LINE
  5
355
100
AcDbEntity
  8
DRAFT
100
AcDbLine
 62
7
  6
CONTINUOUS
 10
22.0
 20
-33.7940619905
 11
22.0
 21
-35.6731641174
  0
LINE
  5
356
100
AcDbEntity
  8
DRAFT
100
AcDbLine
 62
7
  6
CONTINUOUS
 10
49.3623272758
 20
21.0123272758
 11
49.6
 21
21.25
  0
LINE
  5
357
100
AcDbEntity
  8
DRAFT
100
AcDbLine
 62
7
  6
CONTINUOUS
 10
48.2929301708
 20
20.4
 11
48.3623272758
 21
20.4003204262
  0
LINE
  5
358
100
AcDbEntity
  8
RACCORDO
100
AcDbLine
 62
253
  6
CONTINUOUS
 10
51.35
 20
17.0
 11
48.35
 21
17.0
  0
LINE
  5
359
100
AcDbEntity
  8
RACCORDO
100
AcDbLine
 62
253
  6
CONTINUOUS
 10
-48.35
 20
17.0
 11
-51.35
 21
17.0
  0
LINE
  5
35A
100
AcDbEntity
  8
RACCORDO
100
AcDbLine
 62
7
  6
CONTINUOUS
 10
51.35
 20
18.0
 11
48.3674550649
 21
18.0
  0
LINE
  5
35B
100
AcDbEntity
  8
RACCORDO
100
AcDbLine
 62
7
  6
CONTINUOUS
 10
-48.3674550649
 20
18.0
 11
-51.35
 21
18.0
  0
LINE
  5
35C
100
AcDbEntity
  8
DRAFT
100
AcDbLine
 62
7
  6
CONTINUOUS
 10
49.85
 20
18.25
 11
48.4492925085
 21
18.25
  0
LINE
  5
35D
100
AcDbEntity
  8
DRAFT
100
AcDbLine
 62
7
  6
CONTINUOUS
 10
-48.4492925085
 20
18.25
 11
-49.85
 21
18.25
  0
LINE
  5
35E
100
AcDbEntity
  8
RACCORDO
100
AcDbLine
 62
7
  6
CONTINUOUS
 10
48.3623272758
 20
18.5
 11
49.3623272758
 21
18.5
  0
LINE
  5
35F
100
AcDbEntity
  8
RACCORDO
100
AcDbLine
 62
7
  6
CONTINUOUS
 10
-48.3623272758
 20
18.5
 11
-49.3623272758
 21
18.5
  0
LINE
  5
360
100
AcDbEntity
  8
RACCORDO
100
AcDbLine
 62
253
  6
CONTINUOUS
 10
48.3623272758
 20
20.0
 11
49.3623272758
 21
20.0
  0
LINE
  5
361
100
AcDbEntity
  8
RACCORDO
100
AcDbLine
 62
253
  6
CONTINUOUS
 10
-48.3623272758
 20
20.0
 11
-49.3623272758
 21
20.0
  0
LINE
  5
362
100
AcDbEntity
  8
DRAFT
100
AcDbLine
 62
7
  6
CONTINUOUS
 10
51.35
 20
20.25
 11
49.85
 21
20.25
  0
LINE
  5
363
100
AcDbEntity
  8
DRAFT
100
AcDbLine
 62
7
  6
CONTINUOUS
 10
-49.85
 20
20.25
 11
-51.35
 21
20.25
  0
LINE
  5
364
100
AcDbEntity
  8
DRAFT
100
AcDbLine
 62
7
  6
CONTINUOUS
 10
-48.3623272758
 20
20.4003204262
 11
-48.2929301708
 21
20.4
  0
LINE
  5
365
100
AcDbEntity
  8
DRAFT
100
AcDbLine
 62
7
  6
CONTINUOUS
 10
49.6
 20
-21.25
 11
49.3623272758
 21
-21.0123272758
  0
LINE
  5
366
100
AcDbEntity
  8
DRAFT
100
AcDbLine
 62
7
  6
CONTINUOUS
 10
23.0
 20
-35.6731641174
 11
23.0
 21
-33.7940619905
  0
LINE
  5
367
100
AcDbEntity
  8
DRAFT
100
AcDbLine
 62
7
  6
CONTINUOUS
 10
23.0
 20
-20.2059380095
 11
23.0
 21
-18.3268358826
  0
LINE
  5
368
100
AcDbEntity
  8
DRAFT
100
AcDbLine
 62
7
  6
CONTINUOUS
 10
23.0
 20
18.3268358826
 11
23.0
 21
20.2059380095
  0
LINE
  5
369
100
AcDbEntity
  8
DRAFT
100
AcDbLine
 62
7
  6
CONTINUOUS
 10
23.0
 20
33.7940619905
 11
23.0
 21
35.6731641174
  0
LINE
  5
36A
100
AcDbEntity
  8
DRAFT
100
AcDbLine
 62
7
  6
CONTINUOUS
 10
23.25
 20
-39.9696052494
 11
23.25
 21
-38.2875461646
  0
LINE
  5
36B
100
AcDbEntity
  8
DRAFT
100
AcDbLine
 62
7
  6
CONTINUOUS
 10
23.25
 20
-15.7124538354
 11
23.25
 21
-14.0303947506
  0
LINE
  5
36C
100
AcDbEntity
  8
DRAFT
100
AcDbLine
 62
7
  6
CONTINUOUS
 10
23.25
 20
14.0303947506
 11
23.25
 21
15.7124538354
  0
LINE
  5
36D
100
AcDbEntity
  8
DRAFT
100
AcDbLine
 62
7
  6
CONTINUOUS
 10
23.25
 20
38.2875461646
 11
23.25
 21
39.9696052494
  0
LINE
  5
36E
100
AcDbEntity
  8
0
100
AcDbLine
 62
7
  6
CONTINUOUS
 10
27.0
 20
55.16
 11
27.0
 21
55.1338174026
  0
LINE
  5
36F
100
AcDbEntity
  8
0
100
AcDbLine
 62
7
  6
CONTINUOUS
 10
27.0
 20
-55.16
 11
27.0
 21
-55.1338174026
  0
LINE
  5
370
100
AcDbEntity
  8
DRAFT
100
AcDbLine
 62
7
  6
CONTINUOUS
 10
48.2929301708
 20
25.6
 11
48.3623272758
 21
25.7041088736
  0
LINE
  5
371
100
AcDbEntity
  8
DRAFT
100
AcDbLine
 62
7
  6
CONTINUOUS
 10
46.66
 20
13.4538316881
 11
46.2061683119
 21
13.0
  0
LINE
  5
372
100
AcDbEntity
  8
DRAFT
100
AcDbLine
 62
7
  6
CONTINUOUS
 10
-48.3623272758
 20
25.5996795738
 11
-48.2929301708
 21
25.6
  0
LINE
  5
373
100
AcDbEntity
  8
DRAFT
100
AcDbLine
 62
7
  6
CONTINUOUS
 10
-51.35
 20
25.75
 11
-49.85
 21
25.75
  0
LINE
  5
374
100
AcDbEntity
  8
DRAFT
100
AcDbLine
 62
7
  6
CONTINUOUS
 10
49.85
 20
25.75
 11
51.35
 21
25.75
  0
LINE
  5
375
100
AcDbEntity
  8
RACCORDO
100
AcDbLine
 62
253
  6
CONTINUOUS
 10
48.3623272758
 20
26.0
 11
49.3623272758
 21
26.0
  0
LINE
  5
376
100
AcDbEntity
  8
RACCORDO
100
AcDbLine
 62
253
  6
CONTINUOUS
 10
-48.3623272758
 20
26.0
 11
-49.3623272758
 21
26.0
  0
LINE
  5
377
100
AcDbEntity
  8
DRAFT
100
AcDbLine
 62
7
  6
CONTINUOUS
 10
-35.4696052494
 20
26.25
 11
-33.7875461646
 21
26.25
  0
LINE
  5
378
100
AcDbEntity
  8
DRAFT
100
AcDbLine
 62
7
  6
CONTINUOUS
 10
-11.2124538354
 20
26.25
 11
-9.5303947506
 21
26.25
  0
LINE
  5
379
100
AcDbEntity
  8
DRAFT
100
AcDbLine
 62
7
  6
CONTINUOUS
 10
9.5303947506
 20
26.25
 11
11.2124538354
 21
26.25
  0
LINE
  5
37A
100
AcDbEntity
  8
DRAFT
100
AcDbLine
 62
7
  6
CONTINUOUS
 10
33.7875461646
 20
26.25
 11
35.4696052494
 21
26.25
  0
LINE
  5
37B
100
AcDbEntity
  8
DRAFT
100
AcDbLine
 62
7
  6
CONTINUOUS
 10
-31.1731641174
 20
26.5
 11
-29.2940619905
 21
26.5
  0
LINE
  5
37C
100
AcDbEntity
  8
DRAFT
100
AcDbLine
 62
7
  6
CONTINUOUS
 10
-15.7059380095
 20
26.5
 11
-13.8268358826
 21
26.5
  0
LINE
  5
37D
100
AcDbEntity
  8
DRAFT
100
AcDbLine
 62
7
  6
CONTINUOUS
 10
13.8268358826
 20
26.5
 11
15.7059380095
 21
26.5
  0
LINE
  5
37E
100
AcDbEntity
  8
DRAFT
100
AcDbLine
 62
7
  6
CONTINUOUS
 10
29.2940619905
 20
26.5
 11
31.1731641174
 21
26.5
  0
LINE
  5
37F
100
AcDbEntity
  8
DRAFT
100
AcDbLine
 62
7
  6
CONTINUOUS
 10
31.1731641174
 20
27.5
 11
29.2940619905
 21
27.5
  0
LINE
  5
380
100
AcDbEntity
  8
DRAFT
100
AcDbLine
 62
7
  6
CONTINUOUS
 10
15.7059380095
 20
27.5
 11
13.8268358826
 21
27.5
  0
LINE
  5
381
100
AcDbEntity
  8
DRAFT
100
AcDbLine
 62
7
  6
CONTINUOUS
 10
-13.8268358826
 20
27.5
 11
-15.7059380095
 21
27.5
  0
LINE
  5
382
100
AcDbEntity
  8
DRAFT
100
AcDbLine
 62
7
  6
CONTINUOUS
 10
-29.2940619905
 20
27.5
 11
-31.1731641174
 21
27.5
  0
LINE
  5
383
100
AcDbEntity
  8
RACCORDO
100
AcDbLine
 62
7
  6
CONTINUOUS
 10
48.3623272758
 20
27.5
 11
49.3623272758
 21
27.5
  0
LINE
  5
384
100
AcDbEntity
  8
RACCORDO
100
AcDbLine
 62
7
  6
CONTINUOUS
 10
-48.3623272758
 20
27.5
 11
-49.3623272758
 21
27.5
  0
LINE
  5
385
100
AcDbEntity
  8
DRAFT
100
AcDbLine
 62
7
  6
CONTINUOUS
 10
48.2929301708
 20
25.6
 11
48.3623272758
 21
25.5996795738
  0
LINE
  5
386
100
AcDbEntity
  8
DRAFT
100
AcDbLine
 62
7
  6
CONTINUOUS
 10
46.66
 20
-13.4538316881
 11
46.2061683119
 21
-13.0
  0
LINE
  5
387
100
AcDbEntity
  8
DRAFT
100
AcDbLine
 62
7
  6
CONTINUOUS
 10
48.3623272758
 20
-25.7041088736
 11
48.2929301708
 21
-25.6
  0
LINE
  5
388
100
AcDbEntity
  8
DRAFT
100
AcDbLine
 62
7
  6
CONTINUOUS
 10
27.9
 20
59.85
 11
27.9
 21
56.7564732214
  0
LINE
  5
389
100
AcDbEntity
  8
DRAFT
100
AcDbLine
 62
7
  6
CONTINUOUS
 10
27.9
 20
-56.7564732214
 11
27.9
 21
-59.85
  0
LINE
  5
38A
100
AcDbEntity
  8
DRAFT
100
AcDbLine
 62
7
  6
CONTINUOUS
 10
29.1
 20
59.85
 11
29.1
 21
56.7564732214
  0
LINE
  5
38B
100
AcDbEntity
  8
DRAFT
100
AcDbLine
 62
7
  6
CONTINUOUS
 10
29.1
 20
-56.7564732214
 11
29.1
 21
-59.85
  0
LINE
  5
38C
100
AcDbEntity
  8
0
100
AcDbLine
 62
7
  6
CONTINUOUS
 10
30.0
 20
55.16
 11
30.0
 21
55.1338174026
  0
LINE
  5
38D
100
AcDbEntity
  8
0
100
AcDbLine
 62
7
  6
CONTINUOUS
 10
30.0
 20
-55.16
 11
30.0
 21
-55.1338174026
  0
LINE
  5
38E
100
AcDbEntity
  8
DRAFT
100
AcDbLine
 62
7
  6
CONTINUOUS
 10
-13.4538316881
 20
-55.16
 11
-13.0
 21
-54.7061683119
  0
LINE
  5
38F
100
AcDbEntity
  8
RACCORDO
100
AcDbLine
 62
7
  6
CONTINUOUS
 10
46.2061683119
 20
-11.5
 11
46.6165146599
 21
-11.2948424516
  0
LINE
  5
390
100
AcDbEntity
  8
DRAFT
100
AcDbLine
 62
7
  6
CONTINUOUS
 10
-49.85
 20
27.75
 11
-48.4492925085
 21
27.75
  0
LINE
  5
391
100
AcDbEntity
  8
DRAFT
100
AcDbLine
 62
7
  6
CONTINUOUS
 10
35.4696052494
 20
27.75
 11
33.7875461646
 21
27.75
  0
LINE
  5
392
100
AcDbEntity
  8
DRAFT
100
AcDbLine
 62
7
  6
CONTINUOUS
 10
11.2124538354
 20
27.75
 11
9.5303947506
 21
27.75
  0
LINE
  5
393
100
AcDbEntity
  8
DRAFT
100
AcDbLine
 62
7
  6
CONTINUOUS
 10
-9.5303947506
 20
27.75
 11
-11.2124538354
 21
27.75
  0
LINE
  5
394
100
AcDbEntity
  8
DRAFT
100
AcDbLine
 62
7
  6
CONTINUOUS
 10
-33.7875461646
 20
27.75
 11
-35.4696052494
 21
27.75
  0
LINE
  5
395
100
AcDbEntity
  8
DRAFT
100
AcDbLine
 62
7
  6
CONTINUOUS
 10
48.4492925085
 20
27.75
 11
49.85
 21
27.75
  0
LINE
  5
396
100
AcDbEntity
  8
RACCORDO
100
AcDbLine
 62
7
  6
CONTINUOUS
 10
-51.35
 20
28.0
 11
-48.3674550649
 21
28.0
  0
LINE
  5
397
100
AcDbEntity
  8
RACCORDO
100
AcDbLine
 62
7
  6
CONTINUOUS
 10
48.3674550649
 20
28.0
 11
51.35
 21
28.0
  0
LINE
  5
398
100
AcDbEntity
  8
RACCORDO
100
AcDbLine
 62
253
  6
CONTINUOUS
 10
-51.35
 20
29.0
 11
-48.35
 21
29.0
  0
LINE
  5
399
100
AcDbEntity
  8
RACCORDO
100
AcDbLine
 62
253
  6
CONTINUOUS
 10
48.35
 20
29.0
 11
51.35
 21
29.0
  0
LINE
  5
39A
100
AcDbEntity
  8
RACCORDO
100
AcDbLine
 62
7
  6
CONTINUOUS
 10
46.6165146599
 20
11.2948424516
 11
46.2061683119
 21
11.5
  0
LINE
  5
39B
100
AcDbEntity
  8
DRAFT
100
AcDbLine
 62
7
  6
CONTINUOUS
 10
-13.4538316881
 20
55.16
 11
-13.0
 21
54.7061683119
  0
LINE
  5
39C
100
AcDbEntity
  8
DRAFT
100
AcDbLine
 62
7
  6
CONTINUOUS
 10
35.4696343564
 20
-26.2505035115
 11
35.4696052494
 21
-26.25
  0
LINE
  5
39D
100
AcDbEntity
  8
DRAFT
100
AcDbLine
 62
7
  6
CONTINUOUS
 10
35.4696343564
 20
26.2505035115
 11
35.4696052494
 21
26.25
  0
LINE
  5
39E
100
AcDbEntity
  8
RACCORDO
100
AcDbLine
 62
7
  6
CONTINUOUS
 10
11.2948424516
 20
-55.1165146599
 11
11.5
 21
-54.7061683119
  0
LINE
  5
39F
100
AcDbEntity
  8
DRAFT
100
AcDbLine
 62
7
  6
CONTINUOUS
 10
51.35
 20
37.75
 11
48.2564732214
 21
37.75
  0
LINE
  5
3A0
100
AcDbEntity
  8
DRAFT
100
AcDbLine
 62
7
  6
CONTINUOUS
 10
-48.2564732214
 20
37.75
 11
-51.35
 21
37.75
  0
LINE
  5
3A1
100
AcDbEntity
  8
RACCORDO
100
AcDbLine
 62
7
  6
CONTINUOUS
 10
11.2948424516
 20
55.1165146599
 11
11.5
 21
54.7061683119
  0
LINE
  5
3A2
100
AcDbEntity
  8
DRAFT
100
AcDbLine
 62
7
  6
CONTINUOUS
 10
39.9
 20
59.85
 11
39.9
 21
56.7564732214
  0
LINE
  5
3A3
100
AcDbEntity
  8
DRAFT
100
AcDbLine
 62
7
  6
CONTINUOUS
 10
39.9
 20
-56.7564732214
 11
39.9
 21
-59.85
  0
LINE
  5
3A4
100
AcDbEntity
  8
DRAFT
100
AcDbLine
 62
7
  6
CONTINUOUS
 10
41.1
 20
59.85
 11
41.1
 21
56.7564732214
  0
LINE
  5
3A5
100
AcDbEntity
  8
DRAFT
100
AcDbLine
 62
7
  6
CONTINUOUS
 10
41.1
 20
-56.7564732214
 11
41.1
 21
-59.85
  0
LINE
  5
3A6
100
AcDbEntity
  8
RACCORDO
100
AcDbLine
 62
253
  6
CONTINUOUS
 10
43.7057874918
 20
-52.2057874918
 11
43.7057874918
 21
52.2057874918
  0
LINE
  5
3A7
100
AcDbEntity
  8
DRAFT
100
AcDbLine
 62
7
  6
CONTINUOUS
 10
51.35
 20
38.95
 11
48.2564732214
 21
38.95
  0
LINE
  5
3A8
100
AcDbEntity
  8
DRAFT
100
AcDbLine
 62
7
  6
CONTINUOUS
 10
-48.2564732214
 20
38.95
 11
-51.35
 21
38.95
  0
LINE
  5
3A9
100
AcDbEntity
  8
0
100
AcDbLine
 62
7
  6
CONTINUOUS
 10
-46.66
 20
42.0
 11
-46.6338174026
 21
42.0
  0
LINE
  5
3AA
100
AcDbEntity
  8
0
100
AcDbLine
 62
7
  6
CONTINUOUS
 10
46.66
 20
42.0
 11
46.6338174026
 21
42.0
  0
LINE
  5
3AB
100
AcDbEntity
  8
RACCORDO
100
AcDbLine
 62
253
  6
CONTINUOUS
 10
45.2454218921
 20
-55.7451172824
 11
45.2454218921
 21
-56.7449649775
  0
LINE
  5
3AC
100
AcDbEntity
  8
RACCORDO
100
AcDbLine
 62
253
  6
CONTINUOUS
 10
45.2454218921
 20
55.7451172824
 11
45.2454218921
 21
56.7449649775
  0
LINE
  5
3AD
100
AcDbEntity
  8
RACCORDO
100
AcDbLine
 62
253
  6
CONTINUOUS
 10
45.35
 20
61.35
 11
45.35
 21
60.35
  0
LINE
  5
3AE
100
AcDbEntity
  8
RACCORDO
100
AcDbLine
 62
253
  6
CONTINUOUS
 10
45.35
 20
-61.35
 11
45.35
 21
-60.35
  0
LINE
  5
3AF
100
AcDbEntity
  8
RACCORDO
100
AcDbLine
 62
253
  6
CONTINUOUS
 10
46.2054067296
 20
-53.2056351869
 11
46.2054067296
 21
53.2056351869
  0
LINE
  5
3B0
100
AcDbEntity
  8
DRAFT
100
AcDbLine
 62
7
  6
CONTINUOUS
 10
46.2061683119
 20
-53.2063967691
 11
46.2061683119
 21
-52.0
  0
LINE
  5
3B1
100
AcDbEntity
  8
DRAFT
100
AcDbLine
 62
7
  6
CONTINUOUS
 10
46.2061683119
 20
-35.0
 11
46.2061683119
 21
-33.5
  0
LINE
  5
3B2
100
AcDbEntity
  8
DRAFT
100
AcDbLine
 62
7
  6
CONTINUOUS
 10
46.2061683119
 20
-13.0
 11
46.2061683119
 21
-11.5
  0
LINE
  5
3B3
100
AcDbEntity
  8
DRAFT
100
AcDbLine
 62
7
  6
CONTINUOUS
 10
46.2061683119
 20
11.5
 11
46.2061683119
 21
13.0
  0
LINE
  5
3B4
100
AcDbEntity
  8
DRAFT
100
AcDbLine
 62
7
  6
CONTINUOUS
 10
46.2061683119
 20
33.5
 11
46.2061683119
 21
35.0
  0
LINE
  5
3B5
100
AcDbEntity
  8
DRAFT
100
AcDbLine
 62
7
  6
CONTINUOUS
 10
46.2061683119
 20
52.0
 11
46.2061683119
 21
53.2063967691
  0
LINE
  5
3B6
100
AcDbEntity
  8
RACCORDO
100
AcDbLine
 62
7
  6
CONTINUOUS
 10
46.6338174026
 20
-50.7948805285
 11
46.6338174026
 21
-45.0
  0
LINE
  5
3B7
100
AcDbEntity
  8
RACCORDO
100
AcDbLine
 62
7
  6
CONTINUOUS
 10
46.6338174026
 20
-42.0
 11
46.6338174026
 21
-36.2051194715
  0
LINE
  5
3B8
100
AcDbEntity
  8
RACCORDO
100
AcDbLine
 62
7
  6
CONTINUOUS
 10
46.6338174026
 20
-10.2948805285
 11
46.6338174026
 21
-1.5
  0
LINE
  5
3B9
100
AcDbEntity
  8
RACCORDO
100
AcDbLine
 62
7
  6
CONTINUOUS
 10
46.6338174026
 20
1.5
 11
46.6338174026
 21
10.2948805285
  0
LINE
  5
3BA
100
AcDbEntity
  8
RACCORDO
100
AcDbLine
 62
7
  6
CONTINUOUS
 10
46.6338174026
 20
36.2051194715
 11
46.6338174026
 21
42.0
  0
LINE
  5
3BB
100
AcDbEntity
  8
RACCORDO
100
AcDbLine
 62
7
  6
CONTINUOUS
 10
46.6338174026
 20
45.0
 11
46.6338174026
 21
50.7948805285
  0
LINE
  5
3BC
100
AcDbEntity
  8
RACCORDO
100
AcDbLine
 62
7
  6
CONTINUOUS
 10
46.6596262339
 20
53.670700802
 11
46.6596262339
 21
45.0
  0
LINE
  5
3BD
100
AcDbEntity
  8
DRAFT
100
AcDbLine
 62
7
  6
CONTINUOUS
 10
46.6596262339
 20
42.0
 11
46.6596262339
 21
33.046542078
  0
LINE
  5
3BE
100
AcDbEntity
  8
DRAFT
100
AcDbLine
 62
7
  6
CONTINUOUS
 10
46.6596262339
 20
13.453457922
 11
46.6596262339
 21
1.5
  0
LINE
  5
3BF
100
AcDbEntity
  8
DRAFT
100
AcDbLine
 62
7
  6
CONTINUOUS
 10
46.6596262339
 20
-1.5
 11
46.6596262339
 21
-13.453457922
  0
LINE
  5
3C0
100
AcDbEntity
  8
DRAFT
100
AcDbLine
 62
7
  6
CONTINUOUS
 10
46.6596262339
 20
-33.046542078
 11
46.6596262339
 21
-42.0
  0
LINE
  5
3C1
100
AcDbEntity
  8
RACCORDO
100
AcDbLine
 62
7
  6
CONTINUOUS
 10
46.6596262339
 20
-45.0
 11
46.6596262339
 21
-53.670700802
  0
LINE
  5
3C2
100
AcDbEntity
  8
0
100
AcDbLine
 62
7
  6
CONTINUOUS
 10
46.66
 20
45.0
 11
46.66
 21
42.0
  0
LINE
  5
3C3
100
AcDbEntity
  8
DRAFT
100
AcDbLine
 62
7
  6
CONTINUOUS
 10
46.66
 20
33.0461683119
 11
46.66
 21
13.4538316881
  0
LINE
  5
3C4
100
AcDbEntity
  8
0
100
AcDbLine
 62
7
  6
CONTINUOUS
 10
46.66
 20
1.5
 11
46.66
 21
-1.5
  0
LINE
  5
3C5
100
AcDbEntity
  8
DRAFT
100
AcDbLine
 62
7
  6
CONTINUOUS
 10
46.66
 20
-13.4538316881
 11
46.66
 21
-33.0461683119
  0
LINE
  5
3C6
100
AcDbEntity
  8
0
100
AcDbLine
 62
7
  6
CONTINUOUS
 10
46.66
 20
-42.0
 11
46.66
 21
-45.0
  0
LINE
  5
3C7
100
AcDbEntity
  8
RACCORDO
100
AcDbLine
 62
253
  6
CONTINUOUS
 10
47.2451172824
 20
-53.7454218921
 11
47.2451172824
 21
53.7454218921
  0
LINE
  5
3C8
100
AcDbEntity
  8
RACCORDO
100
AcDbLine
 62
253
  6
CONTINUOUS
 10
48.2449649775
 20
-53.7454218921
 11
48.2449649775
 21
53.7454218921
  0
LINE
  5
3C9
100
AcDbEntity
  8
DRAFT
100
AcDbLine
 62
7
  6
CONTINUOUS
 10
48.2564732214
 20
48.95
 11
48.2564732214
 21
47.75
  0
LINE
  5
3CA
100
AcDbEntity
  8
DRAFT
100
AcDbLine
 62
7
  6
CONTINUOUS
 10
48.2564732214
 20
38.95
 11
48.2564732214
 21
37.75
  0
LINE
  5
3CB
100
AcDbEntity
  8
DRAFT
100
AcDbLine
 62
7
  6
CONTINUOUS
 10
48.2564732214
 20
15.6
 11
48.2564732214
 21
14.4
  0
LINE
  5
3CC
100
AcDbEntity
  8
DRAFT
100
AcDbLine
 62
7
  6
CONTINUOUS
 10
48.2564732214
 20
0.6
 11
48.2564732214
 21
-0.6
  0
LINE
  5
3CD
100
AcDbEntity
  8
DRAFT
100
AcDbLine
 62
7
  6
CONTINUOUS
 10
48.2564732214
 20
-14.4
 11
48.2564732214
 21
-15.6
  0
LINE
  5
3CE
100
AcDbEntity
  8
DRAFT
100
AcDbLine
 62
7
  6
CONTINUOUS
 10
48.2564732214
 20
-37.75
 11
48.2564732214
 21
-38.95
  0
LINE
  5
3CF
100
AcDbEntity
  8
DRAFT
100
AcDbLine
 62
7
  6
CONTINUOUS
 10
48.2564732214
 20
-47.75
 11
48.2564732214
 21
-48.95
  0
LINE
  5
3D0
100
AcDbEntity
  8
DRAFT
100
AcDbLine
 62
7
  6
CONTINUOUS
 10
48.2929301708
 20
-20.4
 11
48.2929301708
 21
-25.6
  0
LINE
  5
3D1
100
AcDbEntity
  8
DRAFT
100
AcDbLine
 62
7
  6
CONTINUOUS
 10
48.2929301708
 20
20.4
 11
48.2929301708
 21
25.6
  0
LINE
  5
3D2
100
AcDbEntity
  8
RACCORDO
100
AcDbLine
 62
7
  6
CONTINUOUS
 10
48.35
 20
53.8504569145
 11
48.35
 21
48.95
  0
LINE
  5
3D3
100
AcDbEntity
  8
DRAFT
100
AcDbLine
 62
7
  6
CONTINUOUS
 10
48.35
 20
47.75
 11
48.35
 21
38.95
  0
LINE
  5
3D4
100
AcDbEntity
  8
RACCORDO
100
AcDbLine
 62
7
  6
CONTINUOUS
 10
48.35
 20
37.75
 11
48.35
 21
29.0
  0
LINE
  5
3D5
100
AcDbEntity
  8
RACCORDO
100
AcDbLine
 62
7
  6
CONTINUOUS
 10
48.35
 20
17.0
 11
48.35
 21
15.6
  0
LINE
  5
3D6
100
AcDbEntity
  8
DRAFT
100
AcDbLine
 62
7
  6
CONTINUOUS
 10
48.35
 20
14.4
 11
48.35
 21
0.6
  0
LINE
  5
3D7
100
AcDbEntity
  8
DRAFT
100
AcDbLine
 62
7
  6
CONTINUOUS
 10
48.35
 20
-0.6
 11
48.35
 21
-14.4
  0
LINE
  5
3D8
100
AcDbEntity
  8
RACCORDO
100
AcDbLine
 62
7
  6
CONTINUOUS
 10
48.35
 20
-15.6
 11
48.35
 21
-17.0
  0
LINE
  5
3D9
100
AcDbEntity
  8
RACCORDO
100
AcDbLine
 62
7
  6
CONTINUOUS
 10
48.35
 20
-29.0
 11
48.35
 21
-37.75
  0
LINE
  5
3DA
100
AcDbEntity
  8
DRAFT
100
AcDbLine
 62
7
  6
CONTINUOUS
 10
48.35
 20
-38.95
 11
48.35
 21
-47.75
  0
LINE
  5
3DB
100
AcDbEntity
  8
RACCORDO
100
AcDbLine
 62
7
  6
CONTINUOUS
 10
48.35
 20
-48.95
 11
48.35
 21
-53.8504569145
  0
LINE
  5
3DC
100
AcDbEntity
  8
RACCORDO
100
AcDbLine
 62
7
  6
CONTINUOUS
 10
48.3623272758
 20
-27.5
 11
48.3623272758
 21
-18.5
  0
LINE
  5
3DD
100
AcDbEntity
  8
RACCORDO
100
AcDbLine
 62
7
  6
CONTINUOUS
 10
48.3623272758
 20
18.5
 11
48.3623272758
 21
27.5
  0
LINE
  5
3DE
100
AcDbEntity
  8
DRAFT
100
AcDbLine
 62
7
  6
CONTINUOUS
 10
48.3936376623
 20
-28.0
 11
48.3936376623
 21
-27.5
  0
LINE
  5
3DF
100
AcDbEntity
  8
DRAFT
100
AcDbLine
 62
7
  6
CONTINUOUS
 10
48.3936376623
 20
-18.5
 11
48.3936376623
 21
-18.0
  0
LINE
  5
3E0
100
AcDbEntity
  8
DRAFT
100
AcDbLine
 62
7
  6
CONTINUOUS
 10
48.3936376623
 20
18.0
 11
48.3936376623
 21
18.5
  0
LINE
  5
3E1
100
AcDbEntity
  8
DRAFT
100
AcDbLine
 62
7
  6
CONTINUOUS
 10
48.3936376623
 20
27.5
 11
48.3936376623
 21
28.0
  0
LINE
  5
3E2
100
AcDbEntity
  8
DRAFT
100
AcDbLine
 62
7
  6
CONTINUOUS
 10
48.4492925085
 20
-27.75
 11
48.4492925085
 21
-27.5
  0
LINE
  5
3E3
100
AcDbEntity
  8
DRAFT
100
AcDbLine
 62
7
  6
CONTINUOUS
 10
48.4492925085
 20
-18.5
 11
48.4492925085
 21
-18.25
  0
LINE
  5
3E4
100
AcDbEntity
  8
DRAFT
100
AcDbLine
 62
7
  6
CONTINUOUS
 10
48.4492925085
 20
18.25
 11
48.4492925085
 21
18.5
  0
LINE
  5
3E5
100
AcDbEntity
  8
DRAFT
100
AcDbLine
 62
7
  6
CONTINUOUS
 10
48.4492925085
 20
27.5
 11
48.4492925085
 21
27.75
  0
LINE
  5
3E6
100
AcDbEntity
  8
0
100
AcDbLine
 62
7
  6
CONTINUOUS
 10
-46.66
 20
45.0
 11
-46.6338174026
 21
45.0
  0
LINE
  5
3E7
100
AcDbEntity
  8
0
100
AcDbLine
 62
7
  6
CONTINUOUS
 10
46.66
 20
45.0
 11
46.6338174026
 21
45.0
  0
LINE
  5
3E8
100
AcDbEntity
  8
DRAFT
100
AcDbLine
 62
7
  6
CONTINUOUS
 10
51.35
 20
47.75
 11
48.2564732214
 21
47.75
  0
LINE
  5
3E9
100
AcDbEntity
  8
DRAFT
100
AcDbLine
 62
7
  6
CONTINUOUS
 10
-48.2564732214
 20
47.75
 11
-51.35
 21
47.75
  0
LINE
  5
3EA
100
AcDbEntity
  8
DRAFT
100
AcDbLine
 62
7
  6
CONTINUOUS
 10
51.35
 20
48.95
 11
48.2564732214
 21
48.95
  0
LINE
  5
3EB
100
AcDbEntity
  8
DRAFT
100
AcDbLine
 62
7
  6
CONTINUOUS
 10
-48.2564732214
 20
48.95
 11
-51.35
 21
48.95
  0
LINE
  5
3EC
100
AcDbEntity
  8
RACCORDO
100
AcDbLine
 62
7
  6
CONTINUOUS
 10
49.3623272758
 20
-18.5
 11
49.3623272758
 21
-27.5
  0
LINE
  5
3ED
100
AcDbEntity
  8
RACCORDO
100
AcDbLine
 62
7
  6
CONTINUOUS
 10
49.3623272758
 20
18.5
 11
49.3623272758
 21
27.5
  0
LINE
  5
3EE
100
AcDbEntity
  8
0
100
AcDbLine
 62
7
  6
CONTINUOUS
 10
49.6
 20
-21.25
 11
49.6
 21
-24.75
  0
LINE
  5
3EF
100
AcDbEntity
  8
0
100
AcDbLine
 62
7
  6
CONTINUOUS
 10
49.6
 20
21.25
 11
49.6
 21
24.75
  0
LINE
  5
3F0
100
AcDbEntity
  8
DRAFT
100
AcDbLine
 62
7
  6
CONTINUOUS
 10
49.85
 20
27.75
 11
49.85
 21
25.75
  0
LINE
  5
3F1
100
AcDbEntity
  8
DRAFT
100
AcDbLine
 62
7
  6
CONTINUOUS
 10
49.85
 20
20.25
 11
49.85
 21
18.25
  0
LINE
  5
3F2
100
AcDbEntity
  8
DRAFT
100
AcDbLine
 62
7
  6
CONTINUOUS
 10
49.85
 20
-18.25
 11
49.85
 21
-20.25
  0
LINE
  5
3F3
100
AcDbEntity
  8
DRAFT
100
AcDbLine
 62
7
  6
CONTINUOUS
 10
49.85
 20
-25.75
 11
49.85
 21
-27.75
  0
LINE
  5
3F4
100
AcDbEntity
  8
RACCORDO
100
AcDbLine
 62
7
  6
CONTINUOUS
 10
51.35
 20
29.0
 11
51.35
 21
17.0
  0
LINE
  5
3F5
100
AcDbEntity
  8
0
100
AcDbLine
 62
7
  6
CONTINUOUS
 10
51.35
 20
-48.95
 11
51.35
 21
-47.75
  0
LINE
  5
3F6
100
AcDbEntity
  8
0
100
AcDbLine
 62
7
  6
CONTINUOUS
 10
51.35
 20
-38.95
 11
51.35
 21
-37.75
  0
LINE
  5
3F7
100
AcDbEntity
  8
RACCORDO
100
AcDbLine
 62
7
  6
CONTINUOUS
 10
51.35
 20
-17.0
 11
51.35
 21
-29.0
  0
LINE
  5
3F8
100
AcDbEntity
  8
0
100
AcDbLine
 62
7
  6
CONTINUOUS
 10
51.35
 20
-15.6
 11
51.35
 21
-14.4
  0
LINE
  5
3F9
100
AcDbEntity
  8
0
100
AcDbLine
 62
7
  6
CONTINUOUS
 10
51.35
 20
-0.6
 11
51.35
 21
0.6
  0
LINE
  5
3FA
100
AcDbEntity
  8
0
100
AcDbLine
 62
7
  6
CONTINUOUS
 10
51.35
 20
14.4
 11
51.35
 21
15.6
  0
LINE
  5
3FB
100
AcDbEntity
  8
0
100
AcDbLine
 62
7
  6
CONTINUOUS
 10
51.35
 20
37.75
 11
51.35
 21
38.95
  0
LINE
  5
3FC
100
AcDbEntity
  8
0
100
AcDbLine
 62
7
  6
CONTINUOUS
 10
51.35
 20
47.75
 11
51.35
 21
48.95
  0
LINE
  5
3FD
100
AcDbEntity
  8
RACCORDO
100
AcDbLine
 62
253
  6
CONTINUOUS
 10
51.85
 20
53.85
 11
51.85
 21
-53.85
  0
LINE
  5
3FE
100
AcDbEntity
  8
RACCORDO
100
AcDbLine
 62
7
  6
CONTINUOUS
 10
52.85
 20
53.85
 11
52.85
 21
-53.85
  0
LINE
  5
3FF
100
AcDbEntity
  8
DRAFT
100
AcDbLine
 62
7
  6
CONTINUOUS
 10
48.2929301708
 20
-20.4
 11
48.3623272758
 21
-20.2958911264
  0
LINE
  5
400
100
AcDbEntity
  8
DRAFT
100
AcDbLine
 62
7
  6
CONTINUOUS
 10
16.5461683119
 20
-55.16
 11
17.0
 21
-54.7061683119
  0
LINE
  5
401
100
AcDbEntity
  8
DRAFT
100
AcDbLine
 62
7
  6
CONTINUOUS
 10
49.3623272758
 20
-24.9876727242
 11
49.6
 21
-24.75
  0
LINE
  5
402
100
AcDbEntity
  8
RACCORDO
100
AcDbLine
 62
253
  6
CONTINUOUS
 10
43.7057874918
 20
52.2057874918
 11
-43.7057874918
 21
52.2057874918
  0
LINE
  5
403
100
AcDbEntity
  8
RACCORDO
100
AcDbLine
 62
253
  6
CONTINUOUS
 10
47.2451172824
 20
53.7454218921
 11
48.2449649775
 21
53.7454218921
  0
LINE
  5
404
100
AcDbEntity
  8
RACCORDO
100
AcDbLine
 62
253
  6
CONTINUOUS
 10
-47.2451172824
 20
53.7454218921
 11
-48.2449649775
 21
53.7454218921
  0
LINE
  5
405
100
AcDbEntity
  8
RACCORDO
100
AcDbLine
 62
253
  6
CONTINUOUS
 10
-52.85
 20
53.85
 11
-51.85
 21
53.85
  0
LINE
  5
406
100
AcDbEntity
  8
RACCORDO
100
AcDbLine
 62
253
  6
CONTINUOUS
 10
52.85
 20
53.85
 11
51.85
 21
53.85
  0
LINE
  5
407
100
AcDbEntity
  8
RACCORDO
100
AcDbLine
 62
7
  6
CONTINUOUS
 10
-46.6284526247
 20
53.9738174026
 11
-46.62685745
 21
53.9738174026
  0
LINE
  5
408
100
AcDbEntity
  8
RACCORDO
100
AcDbLine
 62
7
  6
CONTINUOUS
 10
46.62685745
 20
53.9738174026
 11
46.6284526247
 21
53.9738174026
  0
LINE
  5
409
100
AcDbEntity
  8
RACCORDO
100
AcDbLine
 62
253
  6
CONTINUOUS
 10
44.7056351869
 20
54.7054067296
 11
-44.7056351869
 21
54.7054067296
  0
LINE
  5
40A
100
AcDbEntity
  8
DRAFT
100
AcDbLine
 62
7
  6
CONTINUOUS
 10
-40.0
 20
54.7061683119
 11
-38.5
 21
54.7061683119
  0
LINE
  5
40B
100
AcDbEntity
  8
DRAFT
100
AcDbLine
 62
7
  6
CONTINUOUS
 10
-18.5
 20
54.7061683119
 11
-17.0
 21
54.7061683119
  0
LINE
  5
40C
100
AcDbEntity
  8
DRAFT
100
AcDbLine
 62
7
  6
CONTINUOUS
 10
-13.0
 20
54.7061683119
 11
-11.5
 21
54.7061683119
  0
LINE
  5
40D
100
AcDbEntity
  8
DRAFT
100
AcDbLine
 62
7
  6
CONTINUOUS
 10
11.5
 20
54.7061683119
 11
13.0
 21
54.7061683119
  0
LINE
  5
40E
100
AcDbEntity
  8
DRAFT
100
AcDbLine
 62
7
  6
CONTINUOUS
 10
17.0
 20
54.7061683119
 11
18.5
 21
54.7061683119
  0
LINE
  5
40F
100
AcDbEntity
  8
DRAFT
100
AcDbLine
 62
7
  6
CONTINUOUS
 10
38.5
 20
54.7061683119
 11
40.0
 21
54.7061683119
  0
LINE
  5
410
100
AcDbEntity
  8
DRAFT
100
AcDbLine
 62
7
  6
CONTINUOUS
 10
16.5461683119
 20
55.16
 11
17.0
 21
54.7061683119
  0
LINE
  5
411
100
AcDbEntity
  8
DRAFT
100
AcDbLine
 62
7
  6
CONTINUOUS
 10
49.6
 20
24.75
 11
49.3623272758
 21
24.9876727242
  0
LINE
  5
412
100
AcDbEntity
  8
DRAFT
100
AcDbLine
 62
7
  6
CONTINUOUS
 10
48.3623272758
 20
20.2958911264
 11
48.2929301708
 21
20.4
  0
LINE
  5
413
100
AcDbEntity
  8
RACCORDO
100
AcDbLine
 62
7
  6
CONTINUOUS
 10
38.2948424516
 20
-55.1165146599
 11
38.5
 21
-54.7061683119
  0
LINE
  5
414
100
AcDbEntity
  8
DRAFT
100
AcDbLine
 62
7
  6
CONTINUOUS
 10
46.66
 20
-33.0461683119
 11
46.2061683119
 21
-33.5
  0
LINE
  5
415
100
AcDbEntity
  8
RACCORDO
100
AcDbLine
 62
7
  6
CONTINUOUS
 10
-37.2948805285
 20
55.1338174026
 11
-30.0
 21
55.1338174026
  0
LINE
  5
416
100
AcDbEntity
  8
RACCORDO
100
AcDbLine
 62
7
  6
CONTINUOUS
 10
-27.0
 20
55.1338174026
 11
-19.7051194715
 21
55.1338174026
  0
LINE
  5
417
100
AcDbEntity
  8
RACCORDO
100
AcDbLine
 62
7
  6
CONTINUOUS
 10
-10.2948805285
 20
55.1338174026
 11
-1.5
 21
55.1338174026
  0
LINE
  5
418
100
AcDbEntity
  8
RACCORDO
100
AcDbLine
 62
7
  6
CONTINUOUS
 10
1.5
 20
55.1338174026
 11
10.2948805285
 21
55.1338174026
  0
LINE
  5
419
100
AcDbEntity
  8
RACCORDO
100
AcDbLine
 62
7
  6
CONTINUOUS
 10
19.7051194715
 20
55.1338174026
 11
27.0
 21
55.1338174026
  0
LINE
  5
41A
100
AcDbEntity
  8
RACCORDO
100
AcDbLine
 62
7
  6
CONTINUOUS
 10
30.0
 20
55.1338174026
 11
37.2948805285
 21
55.1338174026
  0
LINE
  5
41B
100
AcDbEntity
  8
DRAFT
100
AcDbLine
 62
7
  6
CONTINUOUS
 10
-40.453457922
 20
55.1596262339
 11
-30.0
 21
55.1596262339
  0
LINE
  5
41C
100
AcDbEntity
  8
DRAFT
100
AcDbLine
 62
7
  6
CONTINUOUS
 10
-27.0
 20
55.1596262339
 11
-16.546542078
 21
55.1596262339
  0
LINE
  5
41D
100
AcDbEntity
  8
DRAFT
100
AcDbLine
 62
7
  6
CONTINUOUS
 10
-13.453457922
 20
55.1596262339
 11
-1.5
 21
55.1596262339
  0
LINE
  5
41E
100
AcDbEntity
  8
DRAFT
100
AcDbLine
 62
7
  6
CONTINUOUS
 10
1.5
 20
55.1596262339
 11
13.453457922
 21
55.1596262339
  0
LINE
  5
41F
100
AcDbEntity
  8
DRAFT
100
AcDbLine
 62
7
  6
CONTINUOUS
 10
16.546542078
 20
55.1596262339
 11
27.0
 21
55.1596262339
  0
LINE
  5
420
100
AcDbEntity
  8
DRAFT
100
AcDbLine
 62
7
  6
CONTINUOUS
 10
30.0
 20
55.1596262339
 11
40.453457922
 21
55.1596262339
  0
LINE
  5
421
100
AcDbEntity
  8
DRAFT
100
AcDbLine
 62
7
  6
CONTINUOUS
 10
-45.1602284573
 20
55.16
 11
-40.4538316881
 21
55.16
  0
LINE
  5
422
100
AcDbEntity
  8
0
100
AcDbLine
 62
7
  6
CONTINUOUS
 10
-30.0
 20
55.16
 11
-27.0
 21
55.16
  0
LINE
  5
423
100
AcDbEntity
  8
DRAFT
100
AcDbLine
 62
7
  6
CONTINUOUS
 10
-16.5461683119
 20
55.16
 11
-13.4538316881
 21
55.16
  0
LINE
  5
424
100
AcDbEntity
  8
0
100
AcDbLine
 62
7
  6
CONTINUOUS
 10
-1.5
 20
55.16
 11
1.5
 21
55.16
  0
LINE
  5
425
100
AcDbEntity
  8
DRAFT
100
AcDbLine
 62
7
  6
CONTINUOUS
 10
13.4538316881
 20
55.16
 11
16.5461683119
 21
55.16
  0
LINE
  5
426
100
AcDbEntity
  8
0
100
AcDbLine
 62
7
  6
CONTINUOUS
 10
27.0
 20
55.16
 11
30.0
 21
55.16
  0
LINE
  5
427
100
AcDbEntity
  8
DRAFT
100
AcDbLine
 62
7
  6
CONTINUOUS
 10
40.4538316881
 20
55.16
 11
45.1602284573
 21
55.16
  0
LINE
  5
428
100
AcDbEntity
  8
RACCORDO
100
AcDbLine
 62
253
  6
CONTINUOUS
 10
45.2454218921
 20
55.7451172824
 11
-45.2454218921
 21
55.7451172824
  0
LINE
  5
429
100
AcDbEntity
  8
RACCORDO
100
AcDbLine
 62
253
  6
CONTINUOUS
 10
45.2454218921
 20
56.7449649775
 11
-45.2454218921
 21
56.7449649775
  0
LINE
  5
42A
100
AcDbEntity
  8
DRAFT
100
AcDbLine
 62
7
  6
CONTINUOUS
 10
-41.1
 20
56.7564732214
 11
-39.9
 21
56.7564732214
  0
LINE
  5
42B
100
AcDbEntity
  8
DRAFT
100
AcDbLine
 62
7
  6
CONTINUOUS
 10
-29.1
 20
56.7564732214
 11
-27.9
 21
56.7564732214
  0
LINE
  5
42C
100
AcDbEntity
  8
DRAFT
100
AcDbLine
 62
7
  6
CONTINUOUS
 10
-15.6
 20
56.7564732214
 11
-14.4
 21
56.7564732214
  0
LINE
  5
42D
100
AcDbEntity
  8
DRAFT
100
AcDbLine
 62
7
  6
CONTINUOUS
 10
-0.6
 20
56.7564732214
 11
0.6
 21
56.7564732214
  0
LINE
  5
42E
100
AcDbEntity
  8
DRAFT
100
AcDbLine
 62
7
  6
CONTINUOUS
 10
14.4
 20
56.7564732214
 11
15.6
 21
56.7564732214
  0
LINE
  5
42F
100
AcDbEntity
  8
DRAFT
100
AcDbLine
 62
7
  6
CONTINUOUS
 10
27.9
 20
56.7564732214
 11
29.1
 21
56.7564732214
  0
LINE
  5
430
100
AcDbEntity
  8
DRAFT
100
AcDbLine
 62
7
  6
CONTINUOUS
 10
39.9
 20
56.7564732214
 11
41.1
 21
56.7564732214
  0
LINE
  5
431
100
AcDbEntity
  8
RACCORDO
100
AcDbLine
 62
7
  6
CONTINUOUS
 10
-45.3504569145
 20
56.85
 11
-41.1
 21
56.85
  0
LINE
  5
432
100
AcDbEntity
  8
DRAFT
100
AcDbLine
 62
7
  6
CONTINUOUS
 10
-39.9
 20
56.85
 11
-29.1
 21
56.85
  0
LINE
  5
433
100
AcDbEntity
  8
DRAFT
100
AcDbLine
 62
7
  6
CONTINUOUS
 10
-27.9
 20
56.85
 11
-15.6
 21
56.85
  0
LINE
  5
434
100
AcDbEntity
  8
DRAFT
100
AcDbLine
 62
7
  6
CONTINUOUS
 10
-14.4
 20
56.85
 11
-0.6
 21
56.85
  0
LINE
  5
435
100
AcDbEntity
  8
DRAFT
100
AcDbLine
 62
7
  6
CONTINUOUS
 10
0.6
 20
56.85
 11
14.4
 21
56.85
  0
LINE
  5
436
100
AcDbEntity
  8
DRAFT
100
AcDbLine
 62
7
  6
CONTINUOUS
 10
15.6
 20
56.85
 11
27.9
 21
56.85
  0
LINE
  5
437
100
AcDbEntity
  8
DRAFT
100
AcDbLine
 62
7
  6
CONTINUOUS
 10
29.1
 20
56.85
 11
39.9
 21
56.85
  0
LINE
  5
438
100
AcDbEntity
  8
RACCORDO
100
AcDbLine
 62
7
  6
CONTINUOUS
 10
41.1
 20
56.85
 11
45.3504569145
 21
56.85
  0
LINE
  5
439
100
AcDbEntity
  8
0
100
AcDbLine
 62
7
  6
CONTINUOUS
 10
-41.1
 20
59.85
 11
-39.9
 21
59.85
  0
LINE
  5
43A
100
AcDbEntity
  8
0
100
AcDbLine
 62
7
  6
CONTINUOUS
 10
-29.1
 20
59.85
 11
-27.9
 21
59.85
  0
LINE
  5
43B
100
AcDbEntity
  8
0
100
AcDbLine
 62
7
  6
CONTINUOUS
 10
-15.6
 20
59.85
 11
-14.4
 21
59.85
  0
LINE
  5
43C
100
AcDbEntity
  8
0
100
AcDbLine
 62
7
  6
CONTINUOUS
 10
-0.6
 20
59.85
 11
0.6
 21
59.85
  0
LINE
  5
43D
100
AcDbEntity
  8
0
100
AcDbLine
 62
7
  6
CONTINUOUS
 10
14.4
 20
59.85
 11
15.6
 21
59.85
  0
LINE
  5
43E
100
AcDbEntity
  8
0
100
AcDbLine
 62
7
  6
CONTINUOUS
 10
27.9
 20
59.85
 11
29.1
 21
59.85
  0
LINE
  5
43F
100
AcDbEntity
  8
0
100
AcDbLine
 62
7
  6
CONTINUOUS
 10
39.9
 20
59.85
 11
41.1
 21
59.85
  0
LINE
  5
440
100
AcDbEntity
  8
DRAFT
100
AcDbLine
 62
7
  6
CONTINUOUS
 10
46.66
 20
33.0461683119
 11
46.2061683119
 21
33.5
  0
LINE
  5
441
100
AcDbEntity
  8
RACCORDO
100
AcDbLine
 62
7
  6
CONTINUOUS
 10
38.2948424516
 20
55.1165146599
 11
38.5
 21
54.7061683119
  0
LINE
  5
442
100
AcDbEntity
  8
RACCORDO
100
AcDbLine
 62
253
  6
CONTINUOUS
 10
-45.35
 20
60.35
 11
45.35
 21
60.35
  0
LINE
  5
443
100
AcDbEntity
  8
RACCORDO
100
AcDbLine
 62
7
  6
CONTINUOUS
 10
-45.35
 20
61.35
 11
45.35
 21
61.35
  0
LINE
  5
444
100
AcDbEntity
  8
RACCORDO
100
AcDbLine
 62
7
  6
CONTINUOUS
 10
46.2061683119
 20
-52.0
 11
46.6165146599
 21
-51.7948424516
  0
LINE
  5
445
100
AcDbEntity
  8
RACCORDO
100
AcDbLine
 62
7
  6
CONTINUOUS
 10
46.6165146599
 20
51.7948424516
 11
46.2061683119
 21
52.0
  0
ARC
  5
446
100
AcDbEntity
  8
RACCORDO
100
AcDbCircle
 62
7
  6
CONTINUOUS
 10
-45.35
 20
-53.85
 40
7.5
100
AcDbArc
 50
180.0
 51
270.0
  0
ARC
  5
447
100
AcDbEntity
  8
RACCORDO
100
AcDbCircle
 62
253
  6
CONTINUOUS
 10
-45.35
 20
-53.85
 40
6.5
100
AcDbArc
 50
180.0
 51
270.0
  0
ARC
  5
448
100
AcDbEntity
  8
RACCORDO
100
AcDbCircle
 62
253
  6
CONTINUOUS
 10
-45.2451778559
 20
-53.7451778559
 40
2.99978452
100
AcDbArc
 50
180.0046610791
 51
269.9953389209
  0
ARC
  5
449
100
AcDbEntity
  8
RACCORDO
100
AcDbCircle
 62
253
  6
CONTINUOUS
 10
-45.2455613608
 20
-53.7455613608
 40
1.9995454853
100
AcDbArc
 50
179.9960036274
 51
270.0039963726
  0
ARC
  5
44A
100
AcDbEntity
  8
RACCORDO
100
AcDbCircle
 62
253
  6
CONTINUOUS
 10
-44.7050852174
 20
-53.2050852174
 40
1.500323188
100
AcDbArc
 50
180.0210027845
 51
269.9789972155
  0
CIRCLE
  5
44B
100
AcDbEntity
  8
DRAFT
100
AcDbCircle
 62
7
  6
CONTINUOUS
 10
-22.5
 20
-27.0
 40
13.0
  0
ARC
  5
44C
100
AcDbEntity
  8
DRAFT
100
AcDbCircle
 62
7
  6
CONTINUOUS
 10
-22.5
 20
-27.0
 40
12.9912724675
100
AcDbArc
 50
356.6904134619
 51
3.3095865381
  0
ARC
  5
44D
100
AcDbEntity
  8
DRAFT
100
AcDbCircle
 62
7
  6
CONTINUOUS
 10
-22.5
 20
-27.0
 40
12.9912724675
100
AcDbArc
 50
176.6926378203
 51
183.3095865381
  0
ARC
  5
44E
100
AcDbEntity
  8
DRAFT
100
AcDbCircle
 62
7
  6
CONTINUOUS
 10
-22.5
 20
-27.0
 40
12.9912724675
100
AcDbArc
 50
86.6904134619
 51
93.3073621797
  0
ARC
  5
44F
100
AcDbEntity
  8
DRAFT
100
AcDbCircle
 62
7
  6
CONTINUOUS
 10
-22.5
 20
-27.0
 40
12.9912724675
100
AcDbArc
 50
266.6904134619
 51
273.3095865381
  0
ARC
  5
450
100
AcDbEntity
  8
DRAFT
100
AcDbCircle
 62
7
  6
CONTINUOUS
 10
-22.5
 20
-27.0
 40
12.9790539221
100
AcDbArc
 50
183.312705674
 51
266.687294326
  0
ARC
  5
451
100
AcDbEntity
  8
DRAFT
100
AcDbCircle
 62
7
  6
CONTINUOUS
 10
-22.5
 20
-27.0
 40
12.9790539221
100
AcDbArc
 50
93.312705674
 51
176.687294326
  0
ARC
  5
452
100
AcDbEntity
  8
DRAFT
100
AcDbCircle
 62
7
  6
CONTINUOUS
 10
-22.5
 20
-27.0
 40
12.9790539221
100
AcDbArc
 50
273.312705674
 51
356.687294326
  0
ARC
  5
453
100
AcDbEntity
  8
DRAFT
100
AcDbCircle
 62
7
  6
CONTINUOUS
 10
-22.5
 20
-27.0
 40
12.9790539221
100
AcDbArc
 50
3.312705674
 51
86.687294326
  0
ARC
  5
454
100
AcDbEntity
  8
DRAFT
100
AcDbCircle
 62
7
  6
CONTINUOUS
 10
-22.5
 20
-27.0
 40
11.5
100
AcDbArc
 50
183.7393352315
 51
266.2606647685
  0
ARC
  5
455
100
AcDbEntity
  8
DRAFT
100
AcDbCircle
 62
7
  6
CONTINUOUS
 10
-22.5
 20
-27.0
 40
11.5
100
AcDbArc
 50
93.7393352315
 51
176.2606647685
  0
ARC
  5
456
100
AcDbEntity
  8
DRAFT
100
AcDbCircle
 62
7
  6
CONTINUOUS
 10
-22.5
 20
-27.0
 40
11.5
100
AcDbArc
 50
273.7393352315
 51
356.2606647685
  0
ARC
  5
457
100
AcDbEntity
  8
DRAFT
100
AcDbCircle
 62
7
  6
CONTINUOUS
 10
-22.5
 20
-27.0
 40
11.5
100
AcDbArc
 50
3.7393352315
 51
86.2606647685
  0
ARC
  5
458
100
AcDbEntity
  8
DRAFT
100
AcDbCircle
 62
7
  6
CONTINUOUS
 10
-22.5
 20
-27.0
 40
11.3124355653
100
AcDbArc
 50
3.8014252027
 51
86.1985747973
  0
ARC
  5
459
100
AcDbEntity
  8
DRAFT
100
AcDbCircle
 62
7
  6
CONTINUOUS
 10
-22.5
 20
-27.0
 40
11.3124355653
100
AcDbArc
 50
273.8014252027
 51
356.1985747973
  0
ARC
  5
45A
100
AcDbEntity
  8
DRAFT
100
AcDbCircle
 62
7
  6
CONTINUOUS
 10
-22.5
 20
-27.0
 40
11.3124355653
100
AcDbArc
 50
93.8014252027
 51
176.1985747973
  0
ARC
  5
45B
100
AcDbEntity
  8
DRAFT
100
AcDbCircle
 62
7
  6
CONTINUOUS
 10
-22.5
 20
-27.0
 40
11.3124355653
100
AcDbArc
 50
183.8014252027
 51
266.1985747973
  0
ARC
  5
45C
100
AcDbEntity
  8
DRAFT
100
AcDbCircle
 62
7
  6
CONTINUOUS
 10
-22.5
 20
-27.0
 40
8.6875644347
100
AcDbArc
 50
3.2993975677
 51
86.7006024323
  0
ARC
  5
45D
100
AcDbEntity
  8
DRAFT
100
AcDbCircle
 62
7
  6
CONTINUOUS
 10
-22.5
 20
-27.0
 40
8.6875644347
100
AcDbArc
 50
273.2993975677
 51
356.7006024323
  0
ARC
  5
45E
100
AcDbEntity
  8
DRAFT
100
AcDbCircle
 62
7
  6
CONTINUOUS
 10
-22.5
 20
-27.0
 40
8.6875644347
100
AcDbArc
 50
93.2993975677
 51
176.7006024323
  0
ARC
  5
45F
100
AcDbEntity
  8
DRAFT
100
AcDbCircle
 62
7
  6
CONTINUOUS
 10
-22.5
 20
-27.0
 40
8.6875644347
100
AcDbArc
 50
183.2993975677
 51
266.7006024323
  0
ARC
  5
460
100
AcDbEntity
  8
DRAFT
100
AcDbCircle
 62
7
  6
CONTINUOUS
 10
-22.5
 20
-27.0
 40
8.5
100
AcDbArc
 50
183.3722866834
 51
266.6277133166
  0
ARC
  5
461
100
AcDbEntity
  8
DRAFT
100
AcDbCircle
 62
7
  6
CONTINUOUS
 10
-22.5
 20
-27.0
 40
8.5
100
AcDbArc
 50
93.3722866834
 51
176.6277133166
  0
ARC
  5
462
100
AcDbEntity
  8
DRAFT
100
AcDbCircle
 62
7
  6
CONTINUOUS
 10
-22.5
 20
-27.0
 40
8.5
100
AcDbArc
 50
273.3722866834
 51
356.6277133166
  0
ARC
  5
463
100
AcDbEntity
  8
DRAFT
100
AcDbCircle
 62
7
  6
CONTINUOUS
 10
-22.5
 20
-27.0
 40
8.5
100
AcDbArc
 50
3.3722866834
 51
86.6277133166
  0
ARC
  5
464
100
AcDbEntity
  8
DRAFT
100
AcDbCircle
 62
7
  6
CONTINUOUS
 10
-22.5
 20
-27.0
 40
7.0
100
AcDbArc
 50
184.0960437582
 51
265.9039562418
  0
ARC
  5
465
100
AcDbEntity
  8
DRAFT
100
AcDbCircle
 62
7
  6
CONTINUOUS
 10
-22.5
 20
-27.0
 40
7.0
100
AcDbArc
 50
94.0960437582
 51
175.9039562418
  0
ARC
  5
466
100
AcDbEntity
  8
DRAFT
100
AcDbCircle
 62
7
  6
CONTINUOUS
 10
-22.5
 20
-27.0
 40
7.0
100
AcDbArc
 50
274.0960437582
 51
355.9039562418
  0
ARC
  5
467
100
AcDbEntity
  8
DRAFT
100
AcDbCircle
 62
7
  6
CONTINUOUS
 10
-22.5
 20
-27.0
 40
7.0
100
AcDbArc
 50
4.0960437582
 51
85.9039562418
  0
ARC
  5
468
100
AcDbEntity
  8
DRAFT
100
AcDbCircle
 62
7
  6
CONTINUOUS
 10
-22.5
 20
-27.0
 40
6.8124355653
100
AcDbArc
 50
4.20901928
 51
85.79098072
  0
ARC
  5
469
100
AcDbEntity
  8
DRAFT
100
AcDbCircle
 62
7
  6
CONTINUOUS
 10
-22.5
 20
-27.0
 40
6.8124355653
100
AcDbArc
 50
274.20901928
 51
355.79098072
  0
ARC
  5
46A
100
AcDbEntity
  8
DRAFT
100
AcDbCircle
 62
7
  6
CONTINUOUS
 10
-22.5
 20
-27.0
 40
6.8124355653
100
AcDbArc
 50
94.20901928
 51
175.79098072
  0
ARC
  5
46B
100
AcDbEntity
  8
DRAFT
100
AcDbCircle
 62
7
  6
CONTINUOUS
 10
-22.5
 20
-27.0
 40
6.8124355653
100
AcDbArc
 50
184.20901928
 51
265.79098072
  0
ARC
  5
46C
100
AcDbEntity
  8
RACCORDO
100
AcDbCircle
 62
7
  6
CONTINUOUS
 10
-45.35
 20
53.85
 40
7.5
100
AcDbArc
 50
90.0
 51
180.0
  0
ARC
  5
46D
100
AcDbEntity
  8
RACCORDO
100
AcDbCircle
 62
253
  6
CONTINUOUS
 10
-45.35
 20
53.85
 40
6.5
100
AcDbArc
 50
90.0
 51
180.0
  0
ARC
  5
46E
100
AcDbEntity
  8
RACCORDO
100
AcDbCircle
 62
253
  6
CONTINUOUS
 10
-45.2451778559
 20
53.7451778559
 40
2.99978452
100
AcDbArc
 50
90.0046610791
 51
179.9953389209
  0
ARC
  5
46F
100
AcDbEntity
  8
RACCORDO
100
AcDbCircle
 62
253
  6
CONTINUOUS
 10
-45.2455613608
 20
53.7455613608
 40
1.9995454854
100
AcDbArc
 50
89.9960036286
 51
180.0039963713
  0
ARC
  5
470
100
AcDbEntity
  8
RACCORDO
100
AcDbCircle
 62
253
  6
CONTINUOUS
 10
-44.7050852014
 20
53.2050852014
 40
1.500323188
100
AcDbArc
 50
90.0210033961
 51
179.9789966039
  0
CIRCLE
  5
471
100
AcDbEntity
  8
DRAFT
100
AcDbCircle
 62
7
  6
CONTINUOUS
 10
-22.5
 20
27.0
 40
13.0
  0
ARC
  5
472
100
AcDbEntity
  8
DRAFT
100
AcDbCircle
 62
7
  6
CONTINUOUS
 10
-22.5
 20
27.0
 40
12.9912724675
100
AcDbArc
 50
176.6904134619
 51
183.3073621797
  0
ARC
  5
473
100
AcDbEntity
  8
DRAFT
100
AcDbCircle
 62
7
  6
CONTINUOUS
 10
-22.5
 20
27.0
 40
12.9912724675
100
AcDbArc
 50
356.6904134619
 51
3.3095865381
  0
ARC
  5
474
100
AcDbEntity
  8
DRAFT
100
AcDbCircle
 62
7
  6
CONTINUOUS
 10
-22.5
 20
27.0
 40
12.9912724675
100
AcDbArc
 50
266.6926378203
 51
273.3095865381
  0
ARC
  5
475
100
AcDbEntity
  8
DRAFT
100
AcDbCircle
 62
7
  6
CONTINUOUS
 10
-22.5
 20
27.0
 40
12.9912724675
100
AcDbArc
 50
86.6904134619
 51
93.3095865381
  0
ARC
  5
476
100
AcDbEntity
  8
DRAFT
100
AcDbCircle
 62
7
  6
CONTINUOUS
 10
-22.5
 20
27.0
 40
12.9790539221
100
AcDbArc
 50
93.312705674
 51
176.687294326
  0
ARC
  5
477
100
AcDbEntity
  8
DRAFT
100
AcDbCircle
 62
7
  6
CONTINUOUS
 10
-22.5
 20
27.0
 40
12.9790539221
100
AcDbArc
 50
183.312705674
 51
266.687294326
  0
ARC
  5
478
100
AcDbEntity
  8
DRAFT
100
AcDbCircle
 62
7
  6
CONTINUOUS
 10
-22.5
 20
27.0
 40
12.9790539221
100
AcDbArc
 50
3.312705674
 51
86.687294326
  0
ARC
  5
479
100
AcDbEntity
  8
DRAFT
100
AcDbCircle
 62
7
  6
CONTINUOUS
 10
-22.5
 20
27.0
 40
12.9790539221
100
AcDbArc
 50
273.312705674
 51
356.687294326
  0
ARC
  5
47A
100
AcDbEntity
  8
DRAFT
100
AcDbCircle
 62
7
  6
CONTINUOUS
 10
-22.5
 20
27.0
 40
11.5
100
AcDbArc
 50
93.7393352315
 51
176.2606647685
  0
ARC
  5
47B
100
AcDbEntity
  8
DRAFT
100
AcDbCircle
 62
7
  6
CONTINUOUS
 10
-22.5
 20
27.0
 40
11.5
100
AcDbArc
 50
183.7393352315
 51
266.2606647685
  0
ARC
  5
47C
100
AcDbEntity
  8
DRAFT
100
AcDbCircle
 62
7
  6
CONTINUOUS
 10
-22.5
 20
27.0
 40
11.5
100
AcDbArc
 50
3.7393352315
 51
86.2606647685
  0
ARC
  5
47D
100
AcDbEntity
  8
DRAFT
100
AcDbCircle
 62
7
  6
CONTINUOUS
 10
-22.5
 20
27.0
 40
11.5
100
AcDbArc
 50
273.7393352315
 51
356.2606647685
  0
ARC
  5
47E
100
AcDbEntity
  8
DRAFT
100
AcDbCircle
 62
7
  6
CONTINUOUS
 10
-22.5
 20
27.0
 40
11.3124355653
100
AcDbArc
 50
273.8014252027
 51
356.1985747973
  0
ARC
  5
47F
100
AcDbEntity
  8
DRAFT
100
AcDbCircle
 62
7
  6
CONTINUOUS
 10
-22.5
 20
27.0
 40
11.3124355653
100
AcDbArc
 50
3.8014252027
 51
86.1985747973
  0
ARC
  5
480
100
AcDbEntity
  8
DRAFT
100
AcDbCircle
 62
7
  6
CONTINUOUS
 10
-22.5
 20
27.0
 40
11.3124355653
100
AcDbArc
 50
183.8014252027
 51
266.1985747973
  0
ARC
  5
481
100
AcDbEntity
  8
DRAFT
100
AcDbCircle
 62
7
  6
CONTINUOUS
 10
-22.5
 20
27.0
 40
11.3124355653
100
AcDbArc
 50
93.8014252027
 51
176.1985747973
  0
ARC
  5
482
100
AcDbEntity
  8
DRAFT
100
AcDbCircle
 62
7
  6
CONTINUOUS
 10
-22.5
 20
27.0
 40
8.6875644347
100
AcDbArc
 50
273.2993975677
 51
356.7006024323
  0
ARC
  5
483
100
AcDbEntity
  8
DRAFT
100
AcDbCircle
 62
7
  6
CONTINUOUS
 10
-22.5
 20
27.0
 40
8.6875644347
100
AcDbArc
 50
3.2993975677
 51
86.7006024323
  0
ARC
  5
484
100
AcDbEntity
  8
DRAFT
100
AcDbCircle
 62
7
  6
CONTINUOUS
 10
-22.5
 20
27.0
 40
8.6875644347
100
AcDbArc
 50
183.2993975677
 51
266.7006024323
  0
ARC
  5
485
100
AcDbEntity
  8
DRAFT
100
AcDbCircle
 62
7
  6
CONTINUOUS
 10
-22.5
 20
27.0
 40
8.6875644347
100
AcDbArc
 50
93.2993975677
 51
176.7006024323
  0
ARC
  5
486
100
AcDbEntity
  8
DRAFT
100
AcDbCircle
 62
7
  6
CONTINUOUS
 10
-22.5
 20
27.0
 40
8.5
100
AcDbArc
 50
93.3722866834
 51
176.6277133166
  0
ARC
  5
487
100
AcDbEntity
  8
DRAFT
100
AcDbCircle
 62
7
  6
CONTINUOUS
 10
-22.5
 20
27.0
 40
8.5
100
AcDbArc
 50
183.3722866834
 51
266.6277133166
  0
ARC
  5
488
100
AcDbEntity
  8
DRAFT
100
AcDbCircle
 62
7
  6
CONTINUOUS
 10
-22.5
 20
27.0
 40
8.5
100
AcDbArc
 50
3.3722866834
 51
86.6277133166
  0
ARC
  5
489
100
AcDbEntity
  8
DRAFT
100
AcDbCircle
 62
7
  6
CONTINUOUS
 10
-22.5
 20
27.0
 40
8.5
100
AcDbArc
 50
273.3722866834
 51
356.6277133166
  0
ARC
  5
48A
100
AcDbEntity
  8
DRAFT
100
AcDbCircle
 62
7
  6
CONTINUOUS
 10
-22.5
 20
27.0
 40
7.0
100
AcDbArc
 50
94.0960437582
 51
175.9039562418
  0
ARC
  5
48B
100
AcDbEntity
  8
DRAFT
100
AcDbCircle
 62
7
  6
CONTINUOUS
 10
-22.5
 20
27.0
 40
7.0
100
AcDbArc
 50
184.0960437582
 51
265.9039562418
  0
ARC
  5
48C
100
AcDbEntity
  8
DRAFT
100
AcDbCircle
 62
7
  6
CONTINUOUS
 10
-22.5
 20
27.0
 40
7.0
100
AcDbArc
 50
4.0960437582
 51
85.9039562418
  0
ARC
  5
48D
100
AcDbEntity
  8
DRAFT
100
AcDbCircle
 62
7
  6
CONTINUOUS
 10
-22.5
 20
27.0
 40
7.0
100
AcDbArc
 50
274.0960437582
 51
355.9039562418
  0
ARC
  5
48E
100
AcDbEntity
  8
DRAFT
100
AcDbCircle
 62
7
  6
CONTINUOUS
 10
-22.5
 20
27.0
 40
6.8124355653
100
AcDbArc
 50
274.20901928
 51
355.79098072
  0
ARC
  5
48F
100
AcDbEntity
  8
DRAFT
100
AcDbCircle
 62
7
  6
CONTINUOUS
 10
-22.5
 20
27.0
 40
6.8124355653
100
AcDbArc
 50
4.20901928
 51
85.79098072
  0
ARC
  5
490
100
AcDbEntity
  8
DRAFT
100
AcDbCircle
 62
7
  6
CONTINUOUS
 10
-22.5
 20
27.0
 40
6.8124355653
100
AcDbArc
 50
184.20901928
 51
265.79098072
  0
ARC
  5
491
100
AcDbEntity
  8
DRAFT
100
AcDbCircle
 62
7
  6
CONTINUOUS
 10
-22.5
 20
27.0
 40
6.8124355653
100
AcDbArc
 50
94.20901928
 51
175.79098072
  0
CIRCLE
  5
492
100
AcDbEntity
  8
DRAFT
100
AcDbCircle
 62
7
  6
CONTINUOUS
 10
22.5
 20
-27.0
 40
13.0
  0
ARC
  5
493
100
AcDbEntity
  8
DRAFT
100
AcDbCircle
 62
7
  6
CONTINUOUS
 10
22.5
 20
-27.0
 40
12.9912724675
100
AcDbArc
 50
356.6904134619
 51
3.3073621797
  0
ARC
  5
494
100
AcDbEntity
  8
DRAFT
100
AcDbCircle
 62
7
  6
CONTINUOUS
 10
22.5
 20
-27.0
 40
12.9912724675
100
AcDbArc
 50
176.6904134619
 51
183.3095865381
  0
ARC
  5
495
100
AcDbEntity
  8
DRAFT
100
AcDbCircle
 62
7
  6
CONTINUOUS
 10
22.5
 20
-27.0
 40
12.9912724675
100
AcDbArc
 50
266.6904134619
 51
273.3095865381
  0
ARC
  5
496
100
AcDbEntity
  8
DRAFT
100
AcDbCircle
 62
7
  6
CONTINUOUS
 10
22.5
 20
-27.0
 40
12.9912724675
100
AcDbArc
 50
86.6926378203
 51
93.3095865381
  0
ARC
  5
497
100
AcDbEntity
  8
DRAFT
100
AcDbCircle
 62
7
  6
CONTINUOUS
 10
22.5
 20
-27.0
 40
12.9790539221
100
AcDbArc
 50
273.312705674
 51
356.687294326
  0
ARC
  5
498
100
AcDbEntity
  8
DRAFT
100
AcDbCircle
 62
7
  6
CONTINUOUS
 10
22.5
 20
-27.0
 40
12.9790539221
100
AcDbArc
 50
3.312705674
 51
86.687294326
  0
ARC
  5
499
100
AcDbEntity
  8
DRAFT
100
AcDbCircle
 62
7
  6
CONTINUOUS
 10
22.5
 20
-27.0
 40
12.9790539221
100
AcDbArc
 50
183.312705674
 51
266.687294326
  0
ARC
  5
49A
100
AcDbEntity
  8
DRAFT
100
AcDbCircle
 62
7
  6
CONTINUOUS
 10
22.5
 20
-27.0
 40
12.9790539221
100
AcDbArc
 50
93.312705674
 51
176.687294326
  0
ARC
  5
49B
100
AcDbEntity
  8
DRAFT
100
AcDbCircle
 62
7
  6
CONTINUOUS
 10
22.5
 20
-27.0
 40
11.5
100
AcDbArc
 50
273.7393352315
 51
356.2606647685
  0
ARC
  5
49C
100
AcDbEntity
  8
DRAFT
100
AcDbCircle
 62
7
  6
CONTINUOUS
 10
22.5
 20
-27.0
 40
11.5
100
AcDbArc
 50
3.7393352315
 51
86.2606647685
  0
ARC
  5
49D
100
AcDbEntity
  8
DRAFT
100
AcDbCircle
 62
7
  6
CONTINUOUS
 10
22.5
 20
-27.0
 40
11.5
100
AcDbArc
 50
183.7393352315
 51
266.2606647685
  0
ARC
  5
49E
100
AcDbEntity
  8
DRAFT
100
AcDbCircle
 62
7
  6
CONTINUOUS
 10
22.5
 20
-27.0
 40
11.5
100
AcDbArc
 50
93.7393352315
 51
176.2606647685
  0
ARC
  5
49F
100
AcDbEntity
  8
DRAFT
100
AcDbCircle
 62
7
  6
CONTINUOUS
 10
22.5
 20
-27.0
 40
11.3124355653
100
AcDbArc
 50
93.8014252027
 51
176.1985747973
  0
ARC
  5
4A0
100
AcDbEntity
  8
DRAFT
100
AcDbCircle
 62
7
  6
CONTINUOUS
 10
22.5
 20
-27.0
 40
11.3124355653
100
AcDbArc
 50
183.8014252027
 51
266.1985747973
  0
ARC
  5
4A1
100
AcDbEntity
  8
DRAFT
100
AcDbCircle
 62
7
  6
CONTINUOUS
 10
22.5
 20
-27.0
 40
11.3124355653
100
AcDbArc
 50
3.8014252027
 51
86.1985747973
  0
ARC
  5
4A2
100
AcDbEntity
  8
DRAFT
100
AcDbCircle
 62
7
  6
CONTINUOUS
 10
22.5
 20
-27.0
 40
11.3124355653
100
AcDbArc
 50
273.8014252027
 51
356.1985747973
  0
ARC
  5
4A3
100
AcDbEntity
  8
DRAFT
100
AcDbCircle
 62
7
  6
CONTINUOUS
 10
22.5
 20
-27.0
 40
8.6875644347
100
AcDbArc
 50
93.2993975677
 51
176.7006024323
  0
ARC
  5
4A4
100
AcDbEntity
  8
DRAFT
100
AcDbCircle
 62
7
  6
CONTINUOUS
 10
22.5
 20
-27.0
 40
8.6875644347
100
AcDbArc
 50
183.2993975677
 51
266.7006024323
  0
ARC
  5
4A5
100
AcDbEntity
  8
DRAFT
100
AcDbCircle
 62
7
  6
CONTINUOUS
 10
22.5
 20
-27.0
 40
8.6875644347
100
AcDbArc
 50
3.2993975677
 51
86.7006024323
  0
ARC
  5
4A6
100
AcDbEntity
  8
DRAFT
100
AcDbCircle
 62
7
  6
CONTINUOUS
 10
22.5
 20
-27.0
 40
8.6875644347
100
AcDbArc
 50
273.2993975677
 51
356.7006024323
  0
ARC
  5
4A7
100
AcDbEntity
  8
DRAFT
100
AcDbCircle
 62
7
  6
CONTINUOUS
 10
22.5
 20
-27.0
 40
8.5
100
AcDbArc
 50
273.3722866834
 51
356.6277133166
  0
ARC
  5
4A8
100
AcDbEntity
  8
DRAFT
100
AcDbCircle
 62
7
  6
CONTINUOUS
 10
22.5
 20
-27.0
 40
8.5
100
AcDbArc
 50
3.3722866834
 51
86.6277133166
  0
ARC
  5
4A9
100
AcDbEntity
  8
DRAFT
100
AcDbCircle
 62
7
  6
CONTINUOUS
 10
22.5
 20
-27.0
 40
8.5
100
AcDbArc
 50
183.3722866834
 51
266.6277133166
  0
ARC
  5
4AA
100
AcDbEntity
  8
DRAFT
100
AcDbCircle
 62
7
  6
CONTINUOUS
 10
22.5
 20
-27.0
 40
8.5
100
AcDbArc
 50
93.3722866834
 51
176.6277133166
  0
ARC
  5
4AB
100
AcDbEntity
  8
DRAFT
100
AcDbCircle
 62
7
  6
CONTINUOUS
 10
22.5
 20
-27.0
 40
7.0
100
AcDbArc
 50
274.0960437582
 51
355.9039562418
  0
ARC
  5
4AC
100
AcDbEntity
  8
DRAFT
100
AcDbCircle
 62
7
  6
CONTINUOUS
 10
22.5
 20
-27.0
 40
7.0
100
AcDbArc
 50
4.0960437582
 51
85.9039562418
  0
ARC
  5
4AD
100
AcDbEntity
  8
DRAFT
100
AcDbCircle
 62
7
  6
CONTINUOUS
 10
22.5
 20
-27.0
 40
7.0
100
AcDbArc
 50
184.0960437582
 51
265.9039562418
  0
ARC
  5
4AE
100
AcDbEntity
  8
DRAFT
100
AcDbCircle
 62
7
  6
CONTINUOUS
 10
22.5
 20
-27.0
 40
7.0
100
AcDbArc
 50
94.0960437582
 51
175.9039562418
  0
ARC
  5
4AF
100
AcDbEntity
  8
DRAFT
100
AcDbCircle
 62
7
  6
CONTINUOUS
 10
22.5
 20
-27.0
 40
6.8124355653
100
AcDbArc
 50
94.20901928
 51
175.79098072
  0
ARC
  5
4B0
100
AcDbEntity
  8
DRAFT
100
AcDbCircle
 62
7
  6
CONTINUOUS
 10
22.5
 20
-27.0
 40
6.8124355653
100
AcDbArc
 50
184.20901928
 51
265.79098072
  0
ARC
  5
4B1
100
AcDbEntity
  8
DRAFT
100
AcDbCircle
 62
7
  6
CONTINUOUS
 10
22.5
 20
-27.0
 40
6.8124355653
100
AcDbArc
 50
4.20901928
 51
85.79098072
  0
ARC
  5
4B2
100
AcDbEntity
  8
DRAFT
100
AcDbCircle
 62
7
  6
CONTINUOUS
 10
22.5
 20
-27.0
 40
6.8124355653
100
AcDbArc
 50
274.20901928
 51
355.79098072
  0
ARC
  5
4B3
100
AcDbEntity
  8
RACCORDO
100
AcDbCircle
 62
7
  6
CONTINUOUS
 10
45.35
 20
-53.85
 40
7.5
100
AcDbArc
 50
270.0
 51
360.0
  0
ARC
  5
4B4
100
AcDbEntity
  8
RACCORDO
100
AcDbCircle
 62
253
  6
CONTINUOUS
 10
45.35
 20
-53.85
 40
6.5
100
AcDbArc
 50
270.0
 51
360.0
  0
ARC
  5
4B5
100
AcDbEntity
  8
RACCORDO
100
AcDbCircle
 62
253
  6
CONTINUOUS
 10
45.2451778531
 20
-53.7451778531
 40
2.99978452
100
AcDbArc
 50
270.0046611326
 51
359.9953388674
  0
ARC
  5
4B6
100
AcDbEntity
  8
RACCORDO
100
AcDbCircle
 62
253
  6
CONTINUOUS
 10
45.2455613608
 20
-53.7455613608
 40
1.9995454853
100
AcDbArc
 50
269.9960036274
 51
0.0039963725
  0
ARC
  5
4B7
100
AcDbEntity
  8
RACCORDO
100
AcDbCircle
 62
253
  6
CONTINUOUS
 10
44.7050852174
 20
-53.2050852174
 40
1.500323188
100
AcDbArc
 50
270.0210027845
 51
359.9789972155
  0
CIRCLE
  5
4B8
100
AcDbEntity
  8
0
100
AcDbCircle
 62
7
  6
CONTINUOUS
 10
-0.0
 20
0.0
 40
5.8163562477
  0
CIRCLE
  5
4B9
100
AcDbEntity
  8
DRAFT
100
AcDbCircle
 62
7
  6
CONTINUOUS
 10
22.5
 20
27.0
 40
13.0
  0
ARC
  5
4BA
100
AcDbEntity
  8
DRAFT
100
AcDbCircle
 62
7
  6
CONTINUOUS
 10
22.5
 20
27.0
 40
12.9912724675
100
AcDbArc
 50
176.6904134619
 51
183.3095865381
  0
ARC
  5
4BB
100
AcDbEntity
  8
DRAFT
100
AcDbCircle
 62
7
  6
CONTINUOUS
 10
22.5
 20
27.0
 40
12.9912724675
100
AcDbArc
 50
356.6926378203
 51
3.3095865381
  0
ARC
  5
4BC
100
AcDbEntity
  8
DRAFT
100
AcDbCircle
 62
7
  6
CONTINUOUS
 10
22.5
 20
27.0
 40
12.9912724675
100
AcDbArc
 50
266.6904134619
 51
273.3073621797
  0
ARC
  5
4BD
100
AcDbEntity
  8
DRAFT
100
AcDbCircle
 62
7
  6
CONTINUOUS
 10
22.5
 20
27.0
 40
12.9912724675
100
AcDbArc
 50
86.6904134619
 51
93.3095865381
  0
ARC
  5
4BE
100
AcDbEntity
  8
DRAFT
100
AcDbCircle
 62
7
  6
CONTINUOUS
 10
22.5
 20
27.0
 40
12.9790539221
100
AcDbArc
 50
3.312705674
 51
86.687294326
  0
ARC
  5
4BF
100
AcDbEntity
  8
DRAFT
100
AcDbCircle
 62
7
  6
CONTINUOUS
 10
22.5
 20
27.0
 40
12.9790539221
100
AcDbArc
 50
273.312705674
 51
356.687294326
  0
ARC
  5
4C0
100
AcDbEntity
  8
DRAFT
100
AcDbCircle
 62
7
  6
CONTINUOUS
 10
22.5
 20
27.0
 40
12.9790539221
100
AcDbArc
 50
93.312705674
 51
176.687294326
  0
ARC
  5
4C1
100
AcDbEntity
  8
DRAFT
100
AcDbCircle
 62
7
  6
CONTINUOUS
 10
22.5
 20
27.0
 40
12.9790539221
100
AcDbArc
 50
183.312705674
 51
266.687294326
  0
ARC
  5
4C2
100
AcDbEntity
  8
DRAFT
100
AcDbCircle
 62
7
  6
CONTINUOUS
 10
22.5
 20
27.0
 40
11.5
100
AcDbArc
 50
3.7393352315
 51
86.2606647685
  0
ARC
  5
4C3
100
AcDbEntity
  8
DRAFT
100
AcDbCircle
 62
7
  6
CONTINUOUS
 10
22.5
 20
27.0
 40
11.5
100
AcDbArc
 50
273.7393352315
 51
356.2606647685
  0
ARC
  5
4C4
100
AcDbEntity
  8
DRAFT
100
AcDbCircle
 62
7
  6
CONTINUOUS
 10
22.5
 20
27.0
 40
11.5
100
AcDbArc
 50
93.7393352315
 51
176.2606647685
  0
ARC
  5
4C5
100
AcDbEntity
  8
DRAFT
100
AcDbCircle
 62
7
  6
CONTINUOUS
 10
22.5
 20
27.0
 40
11.5
100
AcDbArc
 50
183.7393352315
 51
266.2606647685
  0
ARC
  5
4C6
100
AcDbEntity
  8
DRAFT
100
AcDbCircle
 62
7
  6
CONTINUOUS
 10
22.5
 20
27.0
 40
11.3124355653
100
AcDbArc
 50
183.8014252027
 51
266.1985747973
  0
ARC
  5
4C7
100
AcDbEntity
  8
DRAFT
100
AcDbCircle
 62
7
  6
CONTINUOUS
 10
22.5
 20
27.0
 40
11.3124355653
100
AcDbArc
 50
93.8014252027
 51
176.1985747973
  0
ARC
  5
4C8
100
AcDbEntity
  8
DRAFT
100
AcDbCircle
 62
7
  6
CONTINUOUS
 10
22.5
 20
27.0
 40
11.3124355653
100
AcDbArc
 50
273.8014252027
 51
356.1985747973
  0
ARC
  5
4C9
100
AcDbEntity
  8
DRAFT
100
AcDbCircle
 62
7
  6
CONTINUOUS
 10
22.5
 20
27.0
 40
11.3124355653
100
AcDbArc
 50
3.8014252027
 51
86.1985747973
  0
ARC
  5
4CA
100
AcDbEntity
  8
DRAFT
100
AcDbCircle
 62
7
  6
CONTINUOUS
 10
22.5
 20
27.0
 40
8.6875644347
100
AcDbArc
 50
183.2993975677
 51
266.7006024323
  0
ARC
  5
4CB
100
AcDbEntity
  8
DRAFT
100
AcDbCircle
 62
7
  6
CONTINUOUS
 10
22.5
 20
27.0
 40
8.6875644347
100
AcDbArc
 50
93.2993975677
 51
176.7006024323
  0
ARC
  5
4CC
100
AcDbEntity
  8
DRAFT
100
AcDbCircle
 62
7
  6
CONTINUOUS
 10
22.5
 20
27.0
 40
8.6875644347
100
AcDbArc
 50
273.2993975677
 51
356.7006024323
  0
ARC
  5
4CD
100
AcDbEntity
  8
DRAFT
100
AcDbCircle
 62
7
  6
CONTINUOUS
 10
22.5
 20
27.0
 40
8.6875644347
100
AcDbArc
 50
3.2993975677
 51
86.7006024323
  0
ARC
  5
4CE
100
AcDbEntity
  8
DRAFT
100
AcDbCircle
 62
7
  6
CONTINUOUS
 10
22.5
 20
27.0
 40
8.5
100
AcDbArc
 50
3.3722866834
 51
86.6277133166
  0
ARC
  5
4CF
100
AcDbEntity
  8
DRAFT
100
AcDbCircle
 62
7
  6
CONTINUOUS
 10
22.5
 20
27.0
 40
8.5
100
AcDbArc
 50
273.3722866834
 51
356.6277133166
  0
ARC
  5
4D0
100
AcDbEntity
  8
DRAFT
100
AcDbCircle
 62
7
  6
CONTINUOUS
 10
22.5
 20
27.0
 40
8.5
100
AcDbArc
 50
93.3722866834
 51
176.6277133166
  0
ARC
  5
4D1
100
AcDbEntity
  8
DRAFT
100
AcDbCircle
 62
7
  6
CONTINUOUS
 10
22.5
 20
27.0
 40
8.5
100
AcDbArc
 50
183.3722866834
 51
266.6277133166
  0
ARC
  5
4D2
100
AcDbEntity
  8
DRAFT
100
AcDbCircle
 62
7
  6
CONTINUOUS
 10
22.5
 20
27.0
 40
7.0
100
AcDbArc
 50
4.0960437582
 51
85.9039562418
  0
ARC
  5
4D3
100
AcDbEntity
  8
DRAFT
100
AcDbCircle
 62
7
  6
CONTINUOUS
 10
22.5
 20
27.0
 40
7.0
100
AcDbArc
 50
274.0960437582
 51
355.9039562418
  0
ARC
  5
4D4
100
AcDbEntity
  8
DRAFT
100
AcDbCircle
 62
7
  6
CONTINUOUS
 10
22.5
 20
27.0
 40
7.0
100
AcDbArc
 50
94.0960437582
 51
175.9039562418
  0
ARC
  5
4D5
100
AcDbEntity
  8
DRAFT
100
AcDbCircle
 62
7
  6
CONTINUOUS
 10
22.5
 20
27.0
 40
7.0
100
AcDbArc
 50
184.0960437582
 51
265.9039562418
  0
ARC
  5
4D6
100
AcDbEntity
  8
DRAFT
100
AcDbCircle
 62
7
  6
CONTINUOUS
 10
22.5
 20
27.0
 40
6.8124355653
100
AcDbArc
 50
184.20901928
 51
265.79098072
  0
ARC
  5
4D7
100
AcDbEntity
  8
DRAFT
100
AcDbCircle
 62
7
  6
CONTINUOUS
 10
22.5
 20
27.0
 40
6.8124355653
100
AcDbArc
 50
94.20901928
 51
175.79098072
  0
ARC
  5
4D8
100
AcDbEntity
  8
DRAFT
100
AcDbCircle
 62
7
  6
CONTINUOUS
 10
22.5
 20
27.0
 40
6.8124355653
100
AcDbArc
 50
274.20901928
 51
355.79098072
  0
ARC
  5
4D9
100
AcDbEntity
  8
DRAFT
100
AcDbCircle
 62
7
  6
CONTINUOUS
 10
22.5
 20
27.0
 40
6.8124355653
100
AcDbArc
 50
4.20901928
 51
85.79098072
  0
ARC
  5
4DA
100
AcDbEntity
  8
RACCORDO
100
AcDbCircle
 62
7
  6
CONTINUOUS
 10
45.35
 20
53.85
 40
7.5
100
AcDbArc
 50
0.0
 51
90.0
  0
ARC
  5
4DB
100
AcDbEntity
  8
RACCORDO
100
AcDbCircle
 62
253
  6
CONTINUOUS
 10
45.35
 20
53.85
 40
6.5
100
AcDbArc
 50
0.0
 51
90.0
  0
ARC
  5
4DC
100
AcDbEntity
  8
RACCORDO
100
AcDbCircle
 62
253
  6
CONTINUOUS
 10
45.2451778531
 20
53.7451778531
 40
2.99978452
100
AcDbArc
 50
0.0046611326
 51
89.9953388674
  0
ARC
  5
4DD
100
AcDbEntity
  8
RACCORDO
100
AcDbCircle
 62
253
  6
CONTINUOUS
 10
45.2455613608
 20
53.7455613608
 40
1.9995454854
100
AcDbArc
 50
359.9960036293
 51
90.0039963706
  0
ARC
  5
4DE
100
AcDbEntity
  8
RACCORDO
100
AcDbCircle
 62
253
  6
CONTINUOUS
 10
44.7050852014
 20
53.2050852014
 40
1.500323188
100
AcDbArc
 50
0.0210033961
 51
89.9789966039
  0
SPLINE
  5
4DF
100
AcDbEntity
  8
RACCORDO
100
AcDbSpline
 62
253
  6
CONTINUOUS
 70
0
 71
3
 72
55
 73
51
 74
49
 42
0.0000001
 43
0.0000001
 44
0.0000000001
 12
-0.6752802473
 22
-2.6145720165
 32
0.0
 13
-1.1912244721
 23
-2.4234220637
 33
0.0
 40
0.0
 40
0.0
 40
0.0
 40
0.0
 40
0.0305598528
 40
0.0617028768
 40
0.0930952685
 40
0.1246826839
 40
0.1563730665
 40
0.1880926324
 40
0.2197896592
 40
0.2514232392
 40
0.2829372169
 40
0.3142730945
 40
0.3453682002
 40
0.3761679816
 40
0.4066303929
 40
0.4367084248
 40
0.4663511931
 40
0.4955143546
 40
0.5241455827
 40
0.5522110693
 40
0.5796842022
 40
0.6065204744
 40
0.6326804325
 40
0.6581268266
 40
0.6828188673
 40
0.7067392488
 40
0.7298647103
 40
0.7521564739
 40
0.7735897341
 40
0.7941365292
 40
0.8137728535
 40
0.8324885677
 40
0.8502646265
 40
0.8670784203
 40
0.8829182271
 40
0.8977709445
 40
0.9116247432
 40
0.9244703469
 40
0.9362953566
 40
0.9470936997
 40
0.9568676489
 40
0.9656177529
 40
0.9733474703
 40
0.9800771954
 40
0.9858166294
 40
0.9905685993
 40
0.9943468363
 40
0.997167124
 40
0.9990451611
 40
1.0
 40
1.0
 40
1.0
 40
1.0
 10
-43.7057874918
 20
-52.2057874918
 30
0.0
 10
-43.7126663134
 20
-52.2324211371
 30
0.0
 10
-43.7268268174
 20
-52.2861269653
 30
0.0
 10
-43.7490097842
 20
-52.366935965
 30
0.0
 10
-43.7721913917
 20
-52.4484260972
 30
0.0
 10
-43.7962202865
 20
-52.530183952
 30
0.0
 10
-43.8210037154
 20
-52.612023898
 30
0.0
 10
-43.8464544983
 20
-52.6937620398
 30
0.0
 10
-43.8725045081
 20
-52.775257455
 30
0.0
 10
-43.8990905134
 20
-52.8563848174
 30
0.0
 10
-43.9261386805
 20
-52.9370163808
 30
0.0
 10
-43.9535644571
 20
-53.0170080115
 30
0.0
 10
-43.9812908541
 20
-53.0962150968
 30
0.0
 10
-44.0092415676
 20
-53.1745089278
 30
0.0
 10
-44.0373497606
 20
-53.2517728588
 30
0.0
 10
-44.06555799
 20
-53.3278906096
 30
0.0
 10
-44.0938052434
 20
-53.4027451704
 30
0.0
 10
-44.1220283465
 20
-53.476215418
 30
0.0
 10
-44.1501686532
 20
-53.5481951157
 30
0.0
 10
-44.1781723942
 20
-53.6185934166
 30
0.0
 10
-44.205988861
 20
-53.6873259767
 30
0.0
 10
-44.2335651548
 20
-53.7543039721
 30
0.0
 10
-44.2608437888
 20
-53.8194302189
 30
0.0
 10
-44.2877677489
 20
-53.8826110631
 30
0.0
 10
-44.3142869893
 20
-53.9437716431
 30
0.0
 10
-44.3403557167
 20
-54.0028490526
 30
0.0
 10
-44.3659242758
 20
-54.0597841751
 30
0.0
 10
-44.3909400023
 20
-54.1145120105
 30
0.0
 10
-44.4153478596
 20
-54.1669641302
 30
0.0
 10
-44.4390976207
 20
-54.2170846679
 30
0.0
 10
-44.4621448235
 20
-54.2648297506
 30
0.0
 10
-44.4844457408
 20
-54.3101641511
 30
0.0
 10
-44.505949166
 20
-54.3530579395
 30
0.0
 10
-44.5266043311
 20
-54.3934797194
 30
0.0
 10
-44.5463627501
 20
-54.431403221
 30
0.0
 10
-44.5651801472
 20
-54.4668112052
 30
0.0
 10
-44.5830144991
 20
-54.4996879812
 30
0.0
 10
-44.5998192611
 20
-54.5300212138
 30
0.0
 10
-44.6155333847
 20
-54.557813079
 30
0.0
 10
-44.6301041582
 20
-54.5830739059
 30
0.0
 10
-44.6434855223
 20
-54.6058244254
 30
0.0
 10
-44.6556372565
 20
-54.6260926742
 30
0.0
 10
-44.6665283831
 20
-54.6439208923
 30
0.0
 10
-44.6761359732
 20
-54.6593568583
 30
0.0
 10
-44.6844278317
 20
-54.6724538074
 30
0.0
 10
-44.6913752518
 20
-54.6832577678
 30
0.0
 10
-44.6969379109
 20
-54.6918261883
 30
0.0
 10
-44.7011286476
 20
-54.6982056012
 30
0.0
 10
-44.7038654277
 20
-54.7024890189
 30
0.0
 10
-44.7052560444
 20
-54.7046354038
 30
0.0
 10
-44.7056351869
 20
-54.7054067296
 30
0.0
 11
-43.7057874918
 21
-52.2057874918
 31
0.0
 11
-43.7268259842
 21
-52.2855835134
 31
0.0
 11
-43.7490745727
 21
-52.3666847695
 31
0.0
 11
-43.7722611212
 21
-52.4482231714
 31
0.0
 11
-43.7963056083
 21
-52.5300617559
 31
0.0
 11
-43.8211024725
 21
-52.6119660784
 31
0.0
 11
-43.8465630877
 21
-52.6937490442
 31
0.0
 11
-43.8726209758
 21
-52.7752797749
 31
0.0
 11
-43.899218532
 21
-52.856455778
 31
0.0
 11
-43.9262791086
 21
-52.9371380264
 31
0.0
 11
-43.9537206369
 21
-53.0171832586
 31
0.0
 11
-43.9814605619
 21
-53.0964370456
 31
0.0
 11
-44.0094225466
 21
-53.1747664962
 31
0.0
 11
-44.037545564
 21
-53.2520695377
 31
0.0
 11
-44.0657700477
 21
-53.3282295969
 31
0.0
 11
-44.0940321097
 21
-53.4031207302
 31
0.0
 11
-44.1222731132
 21
-53.476634065
 31
0.0
 11
-44.150425762
 21
-53.5486411279
 31
0.0
 11
-44.1784400483
 21
-53.6190605352
 31
0.0
 11
-44.2062735679
 21
-53.6878289348
 31
0.0
 11
-44.2338656799
 21
-53.7548383448
 31
0.0
 11
-44.2611598873
 21
-53.819993941
 31
0.0
 11
-44.2881011809
 21
-53.883206825
 31
0.0
 11
-44.3146298439
 21
-53.9443798068
 31
0.0
 11
-44.3407098443
 21
-54.003474633
 31
0.0
 11
-44.366295874
 21
-54.0604396786
 31
0.0
 11
-44.3913243974
 21
-54.1151857167
 31
0.0
 11
-44.4157467219
 21
-54.1676583612
 31
0.0
 11
-44.4395100811
 21
-54.2177958523
 31
0.0
 11
-44.4625655867
 21
-54.2655465319
 31
0.0
 11
-44.4848774225
 21
-54.3108941387
 31
0.0
 11
-44.5063938395
 21
-54.3538036616
 31
0.0
 11
-44.5270580436
 21
-54.3942321544
 31
0.0
 11
-44.5468265227
 21
-54.4321631942
 31
0.0
 11
-44.565654226
 21
-54.467577232
 31
0.0
 11
-44.5834975857
 21
-54.5004580731
 31
0.0
 11
-44.6003101247
 21
-54.5307992406
 31
0.0
 11
-44.6160297352
 21
-54.5585938277
 31
0.0
 11
-44.630602293
 21
-54.5838508535
 31
0.0
 11
-44.6439862973
 21
-54.6065988833
 31
0.0
 11
-44.6561392615
 21
-54.62686244
 31
0.0
 11
-44.6670240677
 21
-54.6446727375
 31
0.0
 11
-44.6766282293
 21
-54.6601002612
 31
0.0
 11
-44.6849201621
 21
-54.6731941549
 31
0.0
 11
-44.6918578373
 21
-54.6839890925
 31
0.0
 11
-44.6974167083
 21
-54.6925443636
 31
0.0
 11
-44.7015770907
 21
-54.698923382
 31
0.0
 11
-44.7043207909
 21
-54.7031884878
 31
0.0
 11
-44.7056351869
 21
-54.7054067296
 31
0.0
  0
SPLINE
  5
4E0
100
AcDbEntity
  8
RACCORDO
100
AcDbSpline
 62
253
  6
CONTINUOUS
 70
0
 71
3
 72
55
 73
51
 74
49
 42
0.0000001
 43
0.0000001
 44
0.0000000001
 12
0.6752802702
 22
-2.6145720106
 32
0.0
 13
1.1912213758
 23
-2.4234235857
 33
0.0
 40
0.0
 40
0.0
 40
0.0
 40
0.0
 40
0.0305599017
 40
0.0617029143
 40
0.0930952949
 40
0.1246826896
 40
0.1563730449
 40
0.1880926258
 40
0.2197896747
 40
0.2514232572
 40
0.2829372373
 40
0.3142731168
 40
0.3453682162
 40
0.3761679838
 40
0.4066303892
 40
0.4367084228
 40
0.4663511929
 40
0.4955143604
 40
0.5241455964
 40
0.5522110864
 40
0.5796842208
 40
0.6065204941
 40
0.6326804533
 40
0.6581268482
 40
0.6828188926
 40
0.7067392773
 40
0.7298647388
 40
0.7521565024
 40
0.7735897624
 40
0.7941365543
 40
0.8137728741
 40
0.8324885869
 40
0.8502646457
 40
0.86707844
 40
0.8829182474
 40
0.8977709669
 40
0.9116247674
 40
0.9244703708
 40
0.9362953794
 40
0.9470937208
 40
0.9568676656
 40
0.9656177634
 40
0.9733474762
 40
0.9800772004
 40
0.985816635
 40
0.9905686044
 40
0.9943468408
 40
0.9971671277
 40
0.999045163
 40
1.0
 40
1.0
 40
1.0
 40
1.0
 10
43.7057874918
 20
-52.2057874918
 30
0.0
 10
43.7126663246
 20
-52.2324211796
 30
0.0
 10
43.7268268366
 20
-52.2861270407
 30
0.0
 10
43.7490098114
 20
-52.3669360629
 30
0.0
 10
43.7721914101
 20
-52.4484261571
 30
0.0
 10
43.7962202919
 20
-52.5301839602
 30
0.0
 10
43.8210037138
 20
-52.6120238773
 30
0.0
 10
43.8464545003
 20
-52.6937620271
 30
0.0
 10
43.8725045217
 20
-52.7752574762
 30
0.0
 10
43.8990905349
 20
-52.8563848615
 30
0.0
 10
43.9261387037
 20
-52.9370164308
 30
0.0
 10
43.9535644789
 20
-53.0170080601
 30
0.0
 10
43.9812908694
 20
-53.0962151304
 30
0.0
 10
44.0092415737
 20
-53.1745089399
 30
0.0
 10
44.0373497601
 20
-53.251772856
 30
0.0
 10
44.065557988
 20
-53.3278906049
 30
0.0
 10
44.0938052439
 20
-53.4027451739
 30
0.0
 10
44.1220283519
 20
-53.4762154349
 30
0.0
 10
44.1501686643
 20
-53.5481951471
 30
0.0
 10
44.1781724098
 20
-53.6185934586
 30
0.0
 10
44.2059888791
 20
-53.6873260236
 30
0.0
 10
44.2335651746
 20
-53.7543040217
 30
0.0
 10
44.2608438101
 20
-53.8194302709
 30
0.0
 10
44.2877677726
 20
-53.8826111195
 30
0.0
 10
44.3142870162
 20
-53.9437717056
 30
0.0
 10
44.3403557463
 20
-54.0028491208
 30
0.0
 10
44.3659243067
 20
-54.0597842459
 30
0.0
 10
44.390940033
 20
-54.1145120811
 30
0.0
 10
44.4153478888
 20
-54.1669641982
 30
0.0
 10
44.4390976465
 20
-54.2170847296
 30
0.0
 10
44.4621448453
 20
-54.2648298051
 30
0.0
 10
44.4844457598
 20
-54.3101642012
 30
0.0
 10
44.5059491841
 20
-54.3530579891
 30
0.0
 10
44.5266043495
 20
-54.39347977
 30
0.0
 10
44.5463627702
 20
-54.4314032738
 30
0.0
 10
44.5651801703
 20
-54.466811261
 30
0.0
 10
44.5830145259
 20
-54.4996880387
 30
0.0
 10
44.5998192905
 20
-54.5300212702
 30
0.0
 10
44.6155334151
 20
-54.5578131317
 30
0.0
 10
44.6301041873
 20
-54.5830739519
 30
0.0
 10
44.6434855472
 20
-54.6058244611
 30
0.0
 10
44.6556372749
 20
-54.6260926978
 30
0.0
 10
44.6665283959
 20
-54.6439209071
 30
0.0
 10
44.6761359825
 20
-54.65935687
 30
0.0
 10
44.6844278393
 20
-54.6724538193
 30
0.0
 10
44.6913752585
 20
-54.6832577798
 30
0.0
 10
44.6969379162
 20
-54.6918261991
 30
0.0
 10
44.7011286522
 20
-54.698205609
 30
0.0
 10
44.7038654297
 20
-54.7024890234
 30
0.0
 10
44.7052560462
 20
-54.7046354048
 30
0.0
 10
44.7056351869
 20
-54.7054067296
 30
0.0
 11
43.7057874918
 21
-52.2057874918
 31
0.0
 11
43.726826018
 21
-52.2855836411
 31
0.0
 11
43.7490745998
 21
-52.3666848671
 31
0.0
 11
43.772261142
 21
-52.4482232397
 31
0.0
 11
43.7963056152
 21
-52.5300617697
 31
0.0
 11
43.8211024596
 21
-52.6119660213
 31
0.0
 11
43.8465630878
 21
-52.6937490255
 31
0.0
 11
43.8726209948
 21
-52.7752798127
 31
0.0
 11
43.8992185534
 21
-52.8564558223
 31
0.0
 11
43.9262791319
 21
-52.9371380769
 31
0.0
 11
43.9537206611
 21
-53.0171833143
 31
0.0
 11
43.9814605794
 21
-53.0964370856
 31
0.0
 11
44.0094225503
 21
-53.1747665015
 31
0.0
 11
44.0375455612
 21
-53.2520695286
 31
0.0
 11
44.0657700458
 21
-53.3282295922
 31
0.0
 11
44.0940321089
 21
-53.40312073
 31
0.0
 11
44.1222731181
 21
-53.4766340804
 31
0.0
 11
44.1504257746
 21
-53.5486411631
 31
0.0
 11
44.1784400647
 21
-53.6190605789
 31
0.0
 11
44.2062735861
 21
-53.6878289818
 31
0.0
 11
44.2338656998
 21
-53.7548383945
 31
0.0
 11
44.2611599087
 21
-53.8199939931
 31
0.0
 11
44.2881012036
 21
-53.883206879
 31
0.0
 11
44.314629871
 21
-53.9443798698
 31
0.0
 11
44.340709875
 21
-54.0034747038
 31
0.0
 11
44.3662959049
 21
-54.0604397495
 31
0.0
 11
44.3913244281
 21
-54.1151857875
 31
0.0
 11
44.4157467522
 21
-54.1676584316
 31
0.0
 11
44.4395101074
 21
-54.2177959151
 31
0.0
 11
44.4625656073
 21
-54.2655465841
 31
0.0
 11
44.4848774409
 21
-54.3108941875
 31
0.0
 11
44.5063938575
 21
-54.3538037109
 31
0.0
 11
44.527058062
 21
-54.3942322046
 31
0.0
 11
44.5468265423
 21
-54.4321632457
 31
0.0
 11
44.5656542495
 21
-54.4675772879
 31
0.0
 11
44.5834976136
 21
-54.5004581322
 31
0.0
 11
44.6003101545
 21
-54.5307992977
 31
0.0
 11
44.6160297658
 21
-54.5585938808
 31
0.0
 11
44.6306023233
 21
-54.5838509016
 31
0.0
 11
44.6439863229
 21
-54.6065989203
 31
0.0
 11
44.6561392791
 21
-54.6268624626
 31
0.0
 11
44.6670240785
 21
-54.6446727495
 31
0.0
 11
44.6766282379
 21
-54.6601002719
 31
0.0
 11
44.6849201703
 21
-54.6731941676
 31
0.0
 11
44.691857844
 21
-54.6839891046
 31
0.0
 11
44.697416714
 21
-54.6925443744
 31
0.0
 11
44.7015770955
 21
-54.6989233905
 31
0.0
 11
44.7043207936
 21
-54.7031884921
 31
0.0
 11
44.7056351869
 21
-54.7054067296
 31
0.0
  0
SPLINE
  5
4E1
100
AcDbEntity
  8
RACCORDO
100
AcDbSpline
 62
253
  6
CONTINUOUS
 70
0
 71
3
 72
55
 73
51
 74
49
 42
0.0000001
 43
0.0000001
 44
0.0000000001
 12
-2.6145720106
 22
-0.6752802702
 32
0.0
 13
-2.4234235857
 23
-1.1912213758
 33
0.0
 40
0.0
 40
0.0
 40
0.0
 40
0.0
 40
0.0305599017
 40
0.0617029143
 40
0.0930952949
 40
0.1246826896
 40
0.1563730449
 40
0.1880926258
 40
0.2197896747
 40
0.2514232572
 40
0.2829372373
 40
0.3142731168
 40
0.3453682162
 40
0.3761679838
 40
0.4066303892
 40
0.4367084228
 40
0.4663511929
 40
0.4955143604
 40
0.5241455964
 40
0.5522110864
 40
0.5796842208
 40
0.6065204941
 40
0.6326804533
 40
0.6581268482
 40
0.6828188926
 40
0.7067392773
 40
0.7298647388
 40
0.7521565024
 40
0.7735897624
 40
0.7941365543
 40
0.8137728741
 40
0.8324885869
 40
0.8502646457
 40
0.86707844
 40
0.8829182474
 40
0.8977709669
 40
0.9116247674
 40
0.9244703708
 40
0.9362953794
 40
0.9470937208
 40
0.9568676656
 40
0.9656177634
 40
0.9733474762
 40
0.9800772004
 40
0.985816635
 40
0.9905686044
 40
0.9943468408
 40
0.9971671277
 40
0.999045163
 40
1.0
 40
1.0
 40
1.0
 40
1.0
 10
-43.7057874918
 20
-52.2057874918
 30
0.0
 10
-43.7324211796
 20
-52.2126663246
 30
0.0
 10
-43.7861270407
 20
-52.2268268366
 30
0.0
 10
-43.8669360629
 20
-52.2490098114
 30
0.0
 10
-43.9484261571
 20
-52.2721914101
 30
0.0
 10
-44.0301839602
 20
-52.2962202919
 30
0.0
 10
-44.1120238773
 20
-52.3210037138
 30
0.0
 10
-44.1937620271
 20
-52.3464545003
 30
0.0
 10
-44.2752574762
 20
-52.3725045217
 30
0.0
 10
-44.3563848615
 20
-52.3990905349
 30
0.0
 10
-44.4370164308
 20
-52.4261387037
 30
0.0
 10
-44.5170080601
 20
-52.4535644789
 30
0.0
 10
-44.5962151304
 20
-52.4812908694
 30
0.0
 10
-44.6745089399
 20
-52.5092415737
 30
0.0
 10
-44.751772856
 20
-52.5373497601
 30
0.0
 10
-44.8278906049
 20
-52.565557988
 30
0.0
 10
-44.9027451739
 20
-52.5938052439
 30
0.0
 10
-44.9762154349
 20
-52.6220283519
 30
0.0
 10
-45.0481951471
 20
-52.6501686643
 30
0.0
 10
-45.1185934586
 20
-52.6781724098
 30
0.0
 10
-45.1873260236
 20
-52.7059888791
 30
0.0
 10
-45.2543040217
 20
-52.7335651746
 30
0.0
 10
-45.3194302709
 20
-52.7608438101
 30
0.0
 10
-45.3826111195
 20
-52.7877677726
 30
0.0
 10
-45.4437717057
 20
-52.8142870162
 30
0.0
 10
-45.5028491208
 20
-52.8403557463
 30
0.0
 10
-45.5597842459
 20
-52.8659243067
 30
0.0
 10
-45.6145120811
 20
-52.890940033
 30
0.0
 10
-45.6669641982
 20
-52.9153478888
 30
0.0
 10
-45.7170847296
 20
-52.9390976465
 30
0.0
 10
-45.7648298051
 20
-52.9621448453
 30
0.0
 10
-45.8101642012
 20
-52.9844457598
 30
0.0
 10
-45.8530579891
 20
-53.0059491841
 30
0.0
 10
-45.89347977
 20
-53.0266043495
 30
0.0
 10
-45.9314032738
 20
-53.0463627702
 30
0.0
 10
-45.966811261
 20
-53.0651801703
 30
0.0
 10
-45.9996880387
 20
-53.0830145259
 30
0.0
 10
-46.0300212702
 20
-53.0998192905
 30
0.0
 10
-46.0578131317
 20
-53.1155334151
 30
0.0
 10
-46.0830739519
 20
-53.1301041873
 30
0.0
 10
-46.1058244611
 20
-53.1434855472
 30
0.0
 10
-46.1260926978
 20
-53.1556372749
 30
0.0
 10
-46.1439209071
 20
-53.1665283959
 30
0.0
 10
-46.15935687
 20
-53.1761359825
 30
0.0
 10
-46.1724538193
 20
-53.1844278393
 30
0.0
 10
-46.1832577798
 20
-53.1913752585
 30
0.0
 10
-46.1918261991
 20
-53.1969379162
 30
0.0
 10
-46.198205609
 20
-53.2011286522
 30
0.0
 10
-46.2024890234
 20
-53.2038654297
 30
0.0
 10
-46.2046354048
 20
-53.2052560462
 30
0.0
 10
-46.2054067296
 20
-53.2056351869
 30
0.0
 11
-43.7057874918
 21
-52.2057874918
 31
0.0
 11
-43.7855836411
 21
-52.226826018
 31
0.0
 11
-43.8666848671
 21
-52.2490745998
 31
0.0
 11
-43.9482232397
 21
-52.272261142
 31
0.0
 11
-44.0300617697
 21
-52.2963056152
 31
0.0
 11
-44.1119660213
 21
-52.3211024596
 31
0.0
 11
-44.1937490255
 21
-52.3465630878
 31
0.0
 11
-44.2752798127
 21
-52.3726209948
 31
0.0
 11
-44.3564558223
 21
-52.3992185534
 31
0.0
 11
-44.4371380769
 21
-52.4262791319
 31
0.0
 11
-44.5171833143
 21
-52.4537206611
 31
0.0
 11
-44.5964370856
 21
-52.4814605794
 31
0.0
 11
-44.6747665015
 21
-52.5094225503
 31
0.0
 11
-44.7520695286
 21
-52.5375455612
 31
0.0
 11
-44.8282295922
 21
-52.5657700458
 31
0.0
 11
-44.90312073
 21
-52.5940321089
 31
0.0
 11
-44.9766340804
 21
-52.6222731181
 31
0.0
 11
-45.0486411631
 21
-52.6504257746
 31
0.0
 11
-45.1190605789
 21
-52.6784400647
 31
0.0
 11
-45.1878289818
 21
-52.7062735861
 31
0.0
 11
-45.2548383945
 21
-52.7338656998
 31
0.0
 11
-45.3199939932
 21
-52.7611599087
 31
0.0
 11
-45.383206879
 21
-52.7881012036
 31
0.0
 11
-45.4443798698
 21
-52.814629871
 31
0.0
 11
-45.5034747038
 21
-52.840709875
 31
0.0
 11
-45.5604397495
 21
-52.8662959049
 31
0.0
 11
-45.6151857875
 21
-52.8913244281
 31
0.0
 11
-45.6676584316
 21
-52.9157467522
 31
0.0
 11
-45.7177959151
 21
-52.9395101074
 31
0.0
 11
-45.7655465841
 21
-52.9625656073
 31
0.0
 11
-45.8108941875
 21
-52.9848774409
 31
0.0
 11
-45.8538037109
 21
-53.0063938575
 31
0.0
 11
-45.8942322046
 21
-53.027058062
 31
0.0
 11
-45.9321632457
 21
-53.0468265423
 31
0.0
 11
-45.9675772879
 21
-53.0656542495
 31
0.0
 11
-46.0004581322
 21
-53.0834976136
 31
0.0
 11
-46.0307992977
 21
-53.1003101545
 31
0.0
 11
-46.0585938808
 21
-53.1160297658
 31
0.0
 11
-46.0838509016
 21
-53.1306023233
 31
0.0
 11
-46.1065989203
 21
-53.1439863229
 31
0.0
 11
-46.1268624626
 21
-53.1561392791
 31
0.0
 11
-46.1446727495
 21
-53.1670240785
 31
0.0
 11
-46.1601002719
 21
-53.1766282379
 31
0.0
 11
-46.1731941676
 21
-53.1849201703
 31
0.0
 11
-46.1839891046
 21
-53.191857844
 31
0.0
 11
-46.1925443744
 21
-53.197416714
 31
0.0
 11
-46.1989233905
 21
-53.2015770955
 31
0.0
 11
-46.2031884921
 21
-53.2043207936
 31
0.0
 11
-46.2054067296
 21
-53.2056351869
 31
0.0
  0
SPLINE
  5
4E2
100
AcDbEntity
  8
RACCORDO
100
AcDbSpline
 62
253
  6
CONTINUOUS
 70
0
 71
3
 72
55
 73
51
 74
49
 42
0.0000001
 43
0.0000001
 44
0.0000000001
 12
-2.6145720165
 22
0.6752802473
 32
0.0
 13
-2.4234220637
 23
1.1912244721
 33
0.0
 40
0.0
 40
0.0
 40
0.0
 40
0.0
 40
0.0305598528
 40
0.0617028768
 40
0.0930952685
 40
0.1246826839
 40
0.1563730665
 40
0.1880926324
 40
0.2197896592
 40
0.2514232392
 40
0.2829372169
 40
0.3142730945
 40
0.3453682002
 40
0.3761679816
 40
0.4066303929
 40
0.4367084248
 40
0.4663511931
 40
0.4955143546
 40
0.5241455827
 40
0.5522110693
 40
0.5796842022
 40
0.6065204744
 40
0.6326804325
 40
0.6581268266
 40
0.6828188673
 40
0.7067392488
 40
0.7298647103
 40
0.7521564739
 40
0.7735897341
 40
0.7941365292
 40
0.8137728535
 40
0.8324885677
 40
0.8502646265
 40
0.8670784203
 40
0.8829182271
 40
0.8977709445
 40
0.9116247432
 40
0.9244703469
 40
0.9362953566
 40
0.9470936997
 40
0.9568676489
 40
0.9656177529
 40
0.9733474703
 40
0.9800771954
 40
0.9858166294
 40
0.9905685993
 40
0.9943468363
 40
0.997167124
 40
0.9990451611
 40
1.0
 40
1.0
 40
1.0
 40
1.0
 10
-43.7057874918
 20
52.2057874918
 30
0.0
 10
-43.7324211371
 20
52.2126663134
 30
0.0
 10
-43.7861269653
 20
52.2268268174
 30
0.0
 10
-43.866935965
 20
52.2490097842
 30
0.0
 10
-43.9484260972
 20
52.2721913917
 30
0.0
 10
-44.030183952
 20
52.2962202865
 30
0.0
 10
-44.112023898
 20
52.3210037154
 30
0.0
 10
-44.1937620398
 20
52.3464544983
 30
0.0
 10
-44.275257455
 20
52.3725045081
 30
0.0
 10
-44.3563848174
 20
52.3990905134
 30
0.0
 10
-44.4370163808
 20
52.4261386805
 30
0.0
 10
-44.5170080115
 20
52.4535644571
 30
0.0
 10
-44.5962150968
 20
52.4812908541
 30
0.0
 10
-44.6745089278
 20
52.5092415676
 30
0.0
 10
-44.7517728588
 20
52.5373497606
 30
0.0
 10
-44.8278906096
 20
52.56555799
 30
0.0
 10
-44.9027451704
 20
52.5938052434
 30
0.0
 10
-44.976215418
 20
52.6220283465
 30
0.0
 10
-45.0481951157
 20
52.6501686532
 30
0.0
 10
-45.1185934166
 20
52.6781723942
 30
0.0
 10
-45.1873259767
 20
52.705988861
 30
0.0
 10
-45.2543039721
 20
52.7335651548
 30
0.0
 10
-45.3194302189
 20
52.7608437888
 30
0.0
 10
-45.3826110631
 20
52.7877677489
 30
0.0
 10
-45.4437716431
 20
52.8142869893
 30
0.0
 10
-45.5028490526
 20
52.8403557167
 30
0.0
 10
-45.5597841751
 20
52.8659242758
 30
0.0
 10
-45.6145120105
 20
52.8909400023
 30
0.0
 10
-45.6669641302
 20
52.9153478596
 30
0.0
 10
-45.7170846679
 20
52.9390976207
 30
0.0
 10
-45.7648297506
 20
52.9621448235
 30
0.0
 10
-45.8101641511
 20
52.9844457408
 30
0.0
 10
-45.8530579395
 20
53.005949166
 30
0.0
 10
-45.8934797194
 20
53.0266043311
 30
0.0
 10
-45.931403221
 20
53.0463627501
 30
0.0
 10
-45.9668112052
 20
53.0651801472
 30
0.0
 10
-45.9996879812
 20
53.0830144991
 30
0.0
 10
-46.0300212138
 20
53.0998192611
 30
0.0
 10
-46.057813079
 20
53.1155333847
 30
0.0
 10
-46.0830739059
 20
53.1301041582
 30
0.0
 10
-46.1058244254
 20
53.1434855223
 30
0.0
 10
-46.1260926742
 20
53.1556372565
 30
0.0
 10
-46.1439208923
 20
53.1665283831
 30
0.0
 10
-46.1593568583
 20
53.1761359732
 30
0.0
 10
-46.1724538074
 20
53.1844278317
 30
0.0
 10
-46.1832577678
 20
53.1913752518
 30
0.0
 10
-46.1918261883
 20
53.1969379109
 30
0.0
 10
-46.1982056012
 20
53.2011286476
 30
0.0
 10
-46.2024890189
 20
53.2038654277
 30
0.0
 10
-46.2046354038
 20
53.2052560444
 30
0.0
 10
-46.2054067296
 20
53.2056351869
 30
0.0
 11
-43.7057874918
 21
52.2057874918
 31
0.0
 11
-43.7855835134
 21
52.2268259842
 31
0.0
 11
-43.8666847695
 21
52.2490745727
 31
0.0
 11
-43.9482231714
 21
52.2722611212
 31
0.0
 11
-44.0300617559
 21
52.2963056083
 31
0.0
 11
-44.1119660784
 21
52.3211024725
 31
0.0
 11
-44.1937490442
 21
52.3465630877
 31
0.0
 11
-44.2752797749
 21
52.3726209758
 31
0.0
 11
-44.356455778
 21
52.399218532
 31
0.0
 11
-44.4371380264
 21
52.4262791086
 31
0.0
 11
-44.5171832586
 21
52.4537206369
 31
0.0
 11
-44.5964370456
 21
52.4814605619
 31
0.0
 11
-44.6747664962
 21
52.5094225466
 31
0.0
 11
-44.7520695377
 21
52.537545564
 31
0.0
 11
-44.8282295969
 21
52.5657700477
 31
0.0
 11
-44.9031207302
 21
52.5940321097
 31
0.0
 11
-44.976634065
 21
52.6222731132
 31
0.0
 11
-45.0486411279
 21
52.650425762
 31
0.0
 11
-45.1190605352
 21
52.6784400483
 31
0.0
 11
-45.1878289348
 21
52.7062735679
 31
0.0
 11
-45.2548383448
 21
52.7338656799
 31
0.0
 11
-45.319993941
 21
52.7611598873
 31
0.0
 11
-45.383206825
 21
52.7881011809
 31
0.0
 11
-45.4443798068
 21
52.8146298439
 31
0.0
 11
-45.503474633
 21
52.8407098443
 31
0.0
 11
-45.5604396786
 21
52.866295874
 31
0.0
 11
-45.6151857167
 21
52.8913243974
 31
0.0
 11
-45.6676583612
 21
52.9157467219
 31
0.0
 11
-45.7177958523
 21
52.9395100811
 31
0.0
 11
-45.7655465319
 21
52.9625655867
 31
0.0
 11
-45.8108941387
 21
52.9848774225
 31
0.0
 11
-45.8538036616
 21
53.0063938395
 31
0.0
 11
-45.8942321544
 21
53.0270580436
 31
0.0
 11
-45.9321631942
 21
53.0468265227
 31
0.0
 11
-45.967577232
 21
53.065654226
 31
0.0
 11
-46.0004580731
 21
53.0834975857
 31
0.0
 11
-46.0307992406
 21
53.1003101247
 31
0.0
 11
-46.0585938277
 21
53.1160297352
 31
0.0
 11
-46.0838508535
 21
53.130602293
 31
0.0
 11
-46.1065988833
 21
53.1439862973
 31
0.0
 11
-46.12686244
 21
53.1561392615
 31
0.0
 11
-46.1446727375
 21
53.1670240677
 31
0.0
 11
-46.1601002612
 21
53.1766282293
 31
0.0
 11
-46.1731941549
 21
53.1849201621
 31
0.0
 11
-46.1839890925
 21
53.1918578373
 31
0.0
 11
-46.1925443636
 21
53.1974167083
 31
0.0
 11
-46.198923382
 21
53.2015770907
 31
0.0
 11
-46.2031884878
 21
53.2043207909
 31
0.0
 11
-46.2054067296
 21
53.2056351869
 31
0.0
  0
SPLINE
  5
4E3
100
AcDbEntity
  8
RACCORDO
100
AcDbSpline
 62
253
  6
CONTINUOUS
 70
0
 71
3
 72
55
 73
51
 74
49
 42
0.0000001
 43
0.0000001
 44
0.0000000001
 12
0.6752802473
 22
2.6145720165
 32
0.0
 13
1.1912244721
 23
2.4234220637
 33
0.0
 40
0.0
 40
0.0
 40
0.0
 40
0.0
 40
0.0305598528
 40
0.0617028768
 40
0.0930952685
 40
0.1246826839
 40
0.1563730665
 40
0.1880926324
 40
0.2197896592
 40
0.2514232392
 40
0.2829372169
 40
0.3142730945
 40
0.3453682002
 40
0.3761679816
 40
0.4066303929
 40
0.4367084248
 40
0.4663511931
 40
0.4955143546
 40
0.5241455827
 40
0.5522110693
 40
0.5796842022
 40
0.6065204744
 40
0.6326804325
 40
0.6581268266
 40
0.6828188673
 40
0.7067392488
 40
0.7298647103
 40
0.7521564739
 40
0.7735897341
 40
0.7941365292
 40
0.8137728535
 40
0.8324885677
 40
0.8502646265
 40
0.8670784203
 40
0.8829182271
 40
0.8977709445
 40
0.9116247432
 40
0.9244703469
 40
0.9362953566
 40
0.9470936997
 40
0.9568676489
 40
0.9656177529
 40
0.9733474703
 40
0.9800771954
 40
0.9858166294
 40
0.9905685993
 40
0.9943468363
 40
0.997167124
 40
0.9990451611
 40
1.0
 40
1.0
 40
1.0
 40
1.0
 10
43.7057874918
 20
52.2057874918
 30
0.0
 10
43.7126663134
 20
52.2324211371
 30
0.0
 10
43.7268268174
 20
52.2861269653
 30
0.0
 10
43.7490097842
 20
52.366935965
 30
0.0
 10
43.7721913917
 20
52.4484260972
 30
0.0
 10
43.7962202865
 20
52.530183952
 30
0.0
 10
43.8210037154
 20
52.612023898
 30
0.0
 10
43.8464544983
 20
52.6937620398
 30
0.0
 10
43.8725045081
 20
52.775257455
 30
0.0
 10
43.8990905134
 20
52.8563848174
 30
0.0
 10
43.9261386805
 20
52.9370163808
 30
0.0
 10
43.9535644571
 20
53.0170080115
 30
0.0
 10
43.9812908541
 20
53.0962150968
 30
0.0
 10
44.0092415676
 20
53.1745089278
 30
0.0
 10
44.0373497606
 20
53.2517728588
 30
0.0
 10
44.06555799
 20
53.3278906096
 30
0.0
 10
44.0938052434
 20
53.4027451704
 30
0.0
 10
44.1220283465
 20
53.476215418
 30
0.0
 10
44.1501686532
 20
53.5481951157
 30
0.0
 10
44.1781723942
 20
53.6185934166
 30
0.0
 10
44.205988861
 20
53.6873259767
 30
0.0
 10
44.2335651548
 20
53.7543039721
 30
0.0
 10
44.2608437888
 20
53.8194302189
 30
0.0
 10
44.2877677489
 20
53.8826110631
 30
0.0
 10
44.3142869893
 20
53.9437716431
 30
0.0
 10
44.3403557167
 20
54.0028490526
 30
0.0
 10
44.3659242758
 20
54.0597841751
 30
0.0
 10
44.3909400023
 20
54.1145120105
 30
0.0
 10
44.4153478596
 20
54.1669641302
 30
0.0
 10
44.4390976207
 20
54.2170846679
 30
0.0
 10
44.4621448235
 20
54.2648297506
 30
0.0
 10
44.4844457408
 20
54.3101641511
 30
0.0
 10
44.505949166
 20
54.3530579395
 30
0.0
 10
44.5266043311
 20
54.3934797194
 30
0.0
 10
44.5463627501
 20
54.431403221
 30
0.0
 10
44.5651801472
 20
54.4668112052
 30
0.0
 10
44.5830144991
 20
54.4996879812
 30
0.0
 10
44.5998192611
 20
54.5300212138
 30
0.0
 10
44.6155333847
 20
54.557813079
 30
0.0
 10
44.6301041582
 20
54.5830739059
 30
0.0
 10
44.6434855223
 20
54.6058244254
 30
0.0
 10
44.6556372565
 20
54.6260926742
 30
0.0
 10
44.6665283831
 20
54.6439208923
 30
0.0
 10
44.6761359732
 20
54.6593568583
 30
0.0
 10
44.6844278317
 20
54.6724538074
 30
0.0
 10
44.6913752518
 20
54.6832577678
 30
0.0
 10
44.6969379109
 20
54.6918261883
 30
0.0
 10
44.7011286476
 20
54.6982056012
 30
0.0
 10
44.7038654277
 20
54.7024890189
 30
0.0
 10
44.7052560444
 20
54.7046354038
 30
0.0
 10
44.7056351869
 20
54.7054067296
 30
0.0
 11
43.7057874918
 21
52.2057874918
 31
0.0
 11
43.7268259842
 21
52.2855835134
 31
0.0
 11
43.7490745727
 21
52.3666847695
 31
0.0
 11
43.7722611212
 21
52.4482231714
 31
0.0
 11
43.7963056083
 21
52.5300617559
 31
0.0
 11
43.8211024725
 21
52.6119660784
 31
0.0
 11
43.8465630877
 21
52.6937490442
 31
0.0
 11
43.8726209758
 21
52.7752797749
 31
0.0
 11
43.899218532
 21
52.856455778
 31
0.0
 11
43.9262791086
 21
52.9371380264
 31
0.0
 11
43.9537206369
 21
53.0171832586
 31
0.0
 11
43.9814605619
 21
53.0964370456
 31
0.0
 11
44.0094225466
 21
53.1747664962
 31
0.0
 11
44.037545564
 21
53.2520695377
 31
0.0
 11
44.0657700477
 21
53.3282295969
 31
0.0
 11
44.0940321097
 21
53.4031207302
 31
0.0
 11
44.1222731132
 21
53.476634065
 31
0.0
 11
44.150425762
 21
53.5486411279
 31
0.0
 11
44.1784400483
 21
53.6190605352
 31
0.0
 11
44.2062735679
 21
53.6878289348
 31
0.0
 11
44.2338656799
 21
53.7548383448
 31
0.0
 11
44.2611598873
 21
53.819993941
 31
0.0
 11
44.2881011809
 21
53.883206825
 31
0.0
 11
44.3146298439
 21
53.9443798068
 31
0.0
 11
44.3407098443
 21
54.003474633
 31
0.0
 11
44.366295874
 21
54.0604396786
 31
0.0
 11
44.3913243974
 21
54.1151857167
 31
0.0
 11
44.4157467219
 21
54.1676583612
 31
0.0
 11
44.4395100811
 21
54.2177958523
 31
0.0
 11
44.4625655867
 21
54.2655465319
 31
0.0
 11
44.4848774225
 21
54.3108941387
 31
0.0
 11
44.5063938395
 21
54.3538036616
 31
0.0
 11
44.5270580436
 21
54.3942321544
 31
0.0
 11
44.5468265227
 21
54.4321631942
 31
0.0
 11
44.565654226
 21
54.467577232
 31
0.0
 11
44.5834975857
 21
54.5004580731
 31
0.0
 11
44.6003101247
 21
54.5307992406
 31
0.0
 11
44.6160297352
 21
54.5585938277
 31
0.0
 11
44.630602293
 21
54.5838508535
 31
0.0
 11
44.6439862973
 21
54.6065988833
 31
0.0
 11
44.6561392615
 21
54.62686244
 31
0.0
 11
44.6670240677
 21
54.6446727375
 31
0.0
 11
44.6766282293
 21
54.6601002612
 31
0.0
 11
44.6849201621
 21
54.6731941549
 31
0.0
 11
44.6918578373
 21
54.6839890925
 31
0.0
 11
44.6974167083
 21
54.6925443636
 31
0.0
 11
44.7015770907
 21
54.698923382
 31
0.0
 11
44.7043207909
 21
54.7031884878
 31
0.0
 11
44.7056351869
 21
54.7054067296
 31
0.0
  0
SPLINE
  5
4E4
100
AcDbEntity
  8
RACCORDO
100
AcDbSpline
 62
253
  6
CONTINUOUS
 70
0
 71
3
 72
55
 73
51
 74
49
 42
0.0000001
 43
0.0000001
 44
0.0000000001
 12
-0.6752802702
 22
2.6145720106
 32
0.0
 13
-1.1912213758
 23
2.4234235858
 33
0.0
 40
0.0
 40
0.0
 40
0.0
 40
0.0
 40
0.0305599017
 40
0.0617029143
 40
0.0930952949
 40
0.1246826896
 40
0.1563730449
 40
0.1880926258
 40
0.2197896747
 40
0.2514232572
 40
0.2829372373
 40
0.3142731168
 40
0.3453682162
 40
0.3761679838
 40
0.4066303892
 40
0.4367084228
 40
0.4663511929
 40
0.4955143604
 40
0.5241455964
 40
0.5522110864
 40
0.5796842208
 40
0.6065204941
 40
0.6326804533
 40
0.6581268482
 40
0.6828188926
 40
0.7067392773
 40
0.7298647388
 40
0.7521565024
 40
0.7735897624
 40
0.7941365543
 40
0.8137728741
 40
0.8324885869
 40
0.8502646457
 40
0.86707844
 40
0.8829182474
 40
0.8977709669
 40
0.9116247674
 40
0.9244703708
 40
0.9362953794
 40
0.9470937208
 40
0.9568676656
 40
0.9656177634
 40
0.9733474762
 40
0.9800772004
 40
0.985816635
 40
0.9905686044
 40
0.9943468408
 40
0.9971671277
 40
0.999045163
 40
1.0
 40
1.0
 40
1.0
 40
1.0
 10
-43.7057874918
 20
52.2057874918
 30
0.0
 10
-43.7126663246
 20
52.2324211796
 30
0.0
 10
-43.7268268366
 20
52.2861270407
 30
0.0
 10
-43.7490098114
 20
52.3669360629
 30
0.0
 10
-43.7721914101
 20
52.4484261571
 30
0.0
 10
-43.7962202919
 20
52.5301839602
 30
0.0
 10
-43.8210037138
 20
52.6120238773
 30
0.0
 10
-43.8464545003
 20
52.6937620271
 30
0.0
 10
-43.8725045217
 20
52.7752574762
 30
0.0
 10
-43.8990905349
 20
52.8563848615
 30
0.0
 10
-43.9261387037
 20
52.9370164308
 30
0.0
 10
-43.9535644789
 20
53.0170080601
 30
0.0
 10
-43.9812908694
 20
53.0962151304
 30
0.0
 10
-44.0092415737
 20
53.1745089399
 30
0.0
 10
-44.0373497601
 20
53.251772856
 30
0.0
 10
-44.065557988
 20
53.3278906049
 30
0.0
 10
-44.0938052439
 20
53.4027451739
 30
0.0
 10
-44.1220283519
 20
53.4762154349
 30
0.0
 10
-44.1501686643
 20
53.5481951471
 30
0.0
 10
-44.1781724098
 20
53.6185934586
 30
0.0
 10
-44.2059888791
 20
53.6873260236
 30
0.0
 10
-44.2335651746
 20
53.7543040217
 30
0.0
 10
-44.2608438101
 20
53.8194302709
 30
0.0
 10
-44.2877677726
 20
53.8826111195
 30
0.0
 10
-44.3142870162
 20
53.9437717056
 30
0.0
 10
-44.3403557463
 20
54.0028491208
 30
0.0
 10
-44.3659243067
 20
54.0597842459
 30
0.0
 10
-44.390940033
 20
54.1145120811
 30
0.0
 10
-44.4153478888
 20
54.1669641982
 30
0.0
 10
-44.4390976465
 20
54.2170847296
 30
0.0
 10
-44.4621448453
 20
54.2648298051
 30
0.0
 10
-44.4844457598
 20
54.3101642012
 30
0.0
 10
-44.5059491841
 20
54.3530579891
 30
0.0
 10
-44.5266043495
 20
54.39347977
 30
0.0
 10
-44.5463627702
 20
54.4314032738
 30
0.0
 10
-44.5651801703
 20
54.466811261
 30
0.0
 10
-44.5830145259
 20
54.4996880387
 30
0.0
 10
-44.5998192905
 20
54.5300212702
 30
0.0
 10
-44.6155334151
 20
54.5578131317
 30
0.0
 10
-44.6301041873
 20
54.5830739519
 30
0.0
 10
-44.6434855472
 20
54.6058244611
 30
0.0
 10
-44.6556372749
 20
54.6260926978
 30
0.0
 10
-44.6665283959
 20
54.6439209071
 30
0.0
 10
-44.6761359825
 20
54.65935687
 30
0.0
 10
-44.6844278393
 20
54.6724538193
 30
0.0
 10
-44.6913752585
 20
54.6832577798
 30
0.0
 10
-44.6969379162
 20
54.6918261991
 30
0.0
 10
-44.7011286522
 20
54.698205609
 30
0.0
 10
-44.7038654297
 20
54.7024890234
 30
0.0
 10
-44.7052560462
 20
54.7046354048
 30
0.0
 10
-44.7056351869
 20
54.7054067296
 30
0.0
 11
-43.7057874918
 21
52.2057874918
 31
0.0
 11
-43.726826018
 21
52.2855836411
 31
0.0
 11
-43.7490745998
 21
52.3666848671
 31
0.0
 11
-43.772261142
 21
52.4482232397
 31
0.0
 11
-43.7963056152
 21
52.5300617697
 31
0.0
 11
-43.8211024596
 21
52.6119660213
 31
0.0
 11
-43.8465630878
 21
52.6937490255
 31
0.0
 11
-43.8726209948
 21
52.7752798127
 31
0.0
 11
-43.8992185534
 21
52.8564558223
 31
0.0
 11
-43.9262791319
 21
52.9371380769
 31
0.0
 11
-43.9537206611
 21
53.0171833143
 31
0.0
 11
-43.9814605794
 21
53.0964370856
 31
0.0
 11
-44.0094225503
 21
53.1747665015
 31
0.0
 11
-44.0375455612
 21
53.2520695286
 31
0.0
 11
-44.0657700458
 21
53.3282295922
 31
0.0
 11
-44.0940321089
 21
53.40312073
 31
0.0
 11
-44.1222731181
 21
53.4766340804
 31
0.0
 11
-44.1504257746
 21
53.5486411631
 31
0.0
 11
-44.1784400647
 21
53.6190605789
 31
0.0
 11
-44.2062735861
 21
53.6878289818
 31
0.0
 11
-44.2338656998
 21
53.7548383945
 31
0.0
 11
-44.2611599087
 21
53.8199939931
 31
0.0
 11
-44.2881012036
 21
53.883206879
 31
0.0
 11
-44.314629871
 21
53.9443798698
 31
0.0
 11
-44.340709875
 21
54.0034747038
 31
0.0
 11
-44.3662959049
 21
54.0604397495
 31
0.0
 11
-44.3913244281
 21
54.1151857875
 31
0.0
 11
-44.4157467522
 21
54.1676584316
 31
0.0
 11
-44.4395101074
 21
54.2177959151
 31
0.0
 11
-44.4625656073
 21
54.2655465841
 31
0.0
 11
-44.4848774409
 21
54.3108941875
 31
0.0
 11
-44.5063938575
 21
54.3538037109
 31
0.0
 11
-44.527058062
 21
54.3942322046
 31
0.0
 11
-44.5468265423
 21
54.4321632457
 31
0.0
 11
-44.5656542495
 21
54.4675772879
 31
0.0
 11
-44.5834976136
 21
54.5004581322
 31
0.0
 11
-44.6003101545
 21
54.5307992977
 31
0.0
 11
-44.6160297658
 21
54.5585938808
 31
0.0
 11
-44.6306023233
 21
54.5838509016
 31
0.0
 11
-44.6439863229
 21
54.6065989203
 31
0.0
 11
-44.6561392791
 21
54.6268624626
 31
0.0
 11
-44.6670240785
 21
54.6446727495
 31
0.0
 11
-44.6766282379
 21
54.6601002719
 31
0.0
 11
-44.6849201703
 21
54.6731941676
 31
0.0
 11
-44.691857844
 21
54.6839891046
 31
0.0
 11
-44.697416714
 21
54.6925443744
 31
0.0
 11
-44.7015770955
 21
54.6989233905
 31
0.0
 11
-44.7043207936
 21
54.7031884921
 31
0.0
 11
-44.7056351869
 21
54.7054067296
 31
0.0
  0
SPLINE
  5
4E5
100
AcDbEntity
  8
RACCORDO
100
AcDbSpline
 62
253
  6
CONTINUOUS
 70
0
 71
3
 72
55
 73
51
 74
49
 42
0.0000001
 43
0.0000001
 44
0.0000000001
 12
2.6145720165
 22
-0.6752802473
 32
0.0
 13
2.4234220637
 23
-1.1912244721
 33
0.0
 40
0.0
 40
0.0
 40
0.0
 40
0.0
 40
0.0305598528
 40
0.0617028768
 40
0.0930952685
 40
0.1246826839
 40
0.1563730665
 40
0.1880926324
 40
0.2197896592
 40
0.2514232392
 40
0.2829372169
 40
0.3142730945
 40
0.3453682002
 40
0.3761679816
 40
0.4066303929
 40
0.4367084248
 40
0.4663511931
 40
0.4955143546
 40
0.5241455827
 40
0.5522110693
 40
0.5796842022
 40
0.6065204744
 40
0.6326804325
 40
0.6581268266
 40
0.6828188673
 40
0.7067392488
 40
0.7298647103
 40
0.7521564739
 40
0.7735897341
 40
0.7941365292
 40
0.8137728535
 40
0.8324885677
 40
0.8502646265
 40
0.8670784203
 40
0.8829182271
 40
0.8977709445
 40
0.9116247432
 40
0.9244703469
 40
0.9362953566
 40
0.9470936997
 40
0.9568676489
 40
0.9656177529
 40
0.9733474703
 40
0.9800771954
 40
0.9858166294
 40
0.9905685993
 40
0.9943468363
 40
0.997167124
 40
0.9990451611
 40
1.0
 40
1.0
 40
1.0
 40
1.0
 10
43.7057874918
 20
-52.2057874918
 30
0.0
 10
43.7324211371
 20
-52.2126663134
 30
0.0
 10
43.7861269653
 20
-52.2268268174
 30
0.0
 10
43.866935965
 20
-52.2490097842
 30
0.0
 10
43.9484260972
 20
-52.2721913917
 30
0.0
 10
44.030183952
 20
-52.2962202865
 30
0.0
 10
44.112023898
 20
-52.3210037154
 30
0.0
 10
44.1937620398
 20
-52.3464544983
 30
0.0
 10
44.275257455
 20
-52.3725045081
 30
0.0
 10
44.3563848174
 20
-52.3990905134
 30
0.0
 10
44.4370163808
 20
-52.4261386805
 30
0.0
 10
44.5170080115
 20
-52.4535644571
 30
0.0
 10
44.5962150968
 20
-52.4812908541
 30
0.0
 10
44.6745089278
 20
-52.5092415676
 30
0.0
 10
44.7517728588
 20
-52.5373497606
 30
0.0
 10
44.8278906096
 20
-52.56555799
 30
0.0
 10
44.9027451704
 20
-52.5938052434
 30
0.0
 10
44.976215418
 20
-52.6220283465
 30
0.0
 10
45.0481951157
 20
-52.6501686532
 30
0.0
 10
45.1185934166
 20
-52.6781723942
 30
0.0
 10
45.1873259767
 20
-52.705988861
 30
0.0
 10
45.2543039721
 20
-52.7335651548
 30
0.0
 10
45.3194302189
 20
-52.7608437888
 30
0.0
 10
45.3826110631
 20
-52.7877677489
 30
0.0
 10
45.4437716431
 20
-52.8142869893
 30
0.0
 10
45.5028490526
 20
-52.8403557167
 30
0.0
 10
45.5597841751
 20
-52.8659242758
 30
0.0
 10
45.6145120105
 20
-52.8909400023
 30
0.0
 10
45.6669641302
 20
-52.9153478596
 30
0.0
 10
45.7170846679
 20
-52.9390976207
 30
0.0
 10
45.7648297506
 20
-52.9621448235
 30
0.0
 10
45.8101641511
 20
-52.9844457408
 30
0.0
 10
45.8530579395
 20
-53.005949166
 30
0.0
 10
45.8934797194
 20
-53.0266043311
 30
0.0
 10
45.931403221
 20
-53.0463627501
 30
0.0
 10
45.9668112052
 20
-53.0651801472
 30
0.0
 10
45.9996879812
 20
-53.0830144991
 30
0.0
 10
46.0300212138
 20
-53.0998192611
 30
0.0
 10
46.057813079
 20
-53.1155333847
 30
0.0
 10
46.0830739059
 20
-53.1301041582
 30
0.0
 10
46.1058244254
 20
-53.1434855223
 30
0.0
 10
46.1260926742
 20
-53.1556372565
 30
0.0
 10
46.1439208923
 20
-53.1665283831
 30
0.0
 10
46.1593568583
 20
-53.1761359732
 30
0.0
 10
46.1724538074
 20
-53.1844278317
 30
0.0
 10
46.1832577678
 20
-53.1913752518
 30
0.0
 10
46.1918261883
 20
-53.1969379109
 30
0.0
 10
46.1982056012
 20
-53.2011286476
 30
0.0
 10
46.2024890189
 20
-53.2038654277
 30
0.0
 10
46.2046354038
 20
-53.2052560444
 30
0.0
 10
46.2054067296
 20
-53.2056351869
 30
0.0
 11
43.7057874918
 21
-52.2057874918
 31
0.0
 11
43.7855835134
 21
-52.2268259842
 31
0.0
 11
43.8666847695
 21
-52.2490745727
 31
0.0
 11
43.9482231714
 21
-52.2722611212
 31
0.0
 11
44.0300617559
 21
-52.2963056083
 31
0.0
 11
44.1119660784
 21
-52.3211024725
 31
0.0
 11
44.1937490442
 21
-52.3465630877
 31
0.0
 11
44.2752797749
 21
-52.3726209758
 31
0.0
 11
44.356455778
 21
-52.399218532
 31
0.0
 11
44.4371380264
 21
-52.4262791086
 31
0.0
 11
44.5171832586
 21
-52.4537206369
 31
0.0
 11
44.5964370456
 21
-52.4814605619
 31
0.0
 11
44.6747664962
 21
-52.5094225466
 31
0.0
 11
44.7520695377
 21
-52.537545564
 31
0.0
 11
44.8282295969
 21
-52.5657700477
 31
0.0
 11
44.9031207302
 21
-52.5940321097
 31
0.0
 11
44.976634065
 21
-52.6222731132
 31
0.0
 11
45.0486411279
 21
-52.650425762
 31
0.0
 11
45.1190605352
 21
-52.6784400483
 31
0.0
 11
45.1878289348
 21
-52.7062735679
 31
0.0
 11
45.2548383448
 21
-52.7338656799
 31
0.0
 11
45.319993941
 21
-52.7611598873
 31
0.0
 11
45.383206825
 21
-52.7881011809
 31
0.0
 11
45.4443798068
 21
-52.8146298439
 31
0.0
 11
45.503474633
 21
-52.8407098443
 31
0.0
 11
45.5604396786
 21
-52.866295874
 31
0.0
 11
45.6151857167
 21
-52.8913243974
 31
0.0
 11
45.6676583612
 21
-52.9157467219
 31
0.0
 11
45.7177958523
 21
-52.9395100811
 31
0.0
 11
45.7655465319
 21
-52.9625655867
 31
0.0
 11
45.8108941387
 21
-52.9848774225
 31
0.0
 11
45.8538036616
 21
-53.0063938395
 31
0.0
 11
45.8942321544
 21
-53.0270580436
 31
0.0
 11
45.9321631942
 21
-53.0468265227
 31
0.0
 11
45.967577232
 21
-53.065654226
 31
0.0
 11
46.0004580731
 21
-53.0834975857
 31
0.0
 11
46.0307992406
 21
-53.1003101247
 31
0.0
 11
46.0585938277
 21
-53.1160297352
 31
0.0
 11
46.0838508535
 21
-53.130602293
 31
0.0
 11
46.1065988833
 21
-53.1439862973
 31
0.0
 11
46.12686244
 21
-53.1561392615
 31
0.0
 11
46.1446727375
 21
-53.1670240677
 31
0.0
 11
46.1601002612
 21
-53.1766282293
 31
0.0
 11
46.1731941549
 21
-53.1849201621
 31
0.0
 11
46.1839890925
 21
-53.1918578373
 31
0.0
 11
46.1925443636
 21
-53.1974167083
 31
0.0
 11
46.198923382
 21
-53.2015770907
 31
0.0
 11
46.2031884878
 21
-53.2043207909
 31
0.0
 11
46.2054067296
 21
-53.2056351869
 31
0.0
  0
SPLINE
  5
4E6
100
AcDbEntity
  8
RACCORDO
100
AcDbSpline
 62
253
  6
CONTINUOUS
 70
0
 71
3
 72
55
 73
51
 74
49
 42
0.0000001
 43
0.0000001
 44
0.0000000001
 12
2.6145720106
 22
0.6752802702
 32
0.0
 13
2.4234235857
 23
1.1912213758
 33
0.0
 40
0.0
 40
0.0
 40
0.0
 40
0.0
 40
0.0305599017
 40
0.0617029143
 40
0.0930952949
 40
0.1246826896
 40
0.1563730449
 40
0.1880926258
 40
0.2197896747
 40
0.2514232572
 40
0.2829372373
 40
0.3142731168
 40
0.3453682162
 40
0.3761679838
 40
0.4066303892
 40
0.4367084228
 40
0.4663511929
 40
0.4955143604
 40
0.5241455964
 40
0.5522110864
 40
0.5796842208
 40
0.6065204941
 40
0.6326804533
 40
0.6581268482
 40
0.6828188926
 40
0.7067392773
 40
0.7298647388
 40
0.7521565024
 40
0.7735897624
 40
0.7941365543
 40
0.8137728741
 40
0.8324885869
 40
0.8502646457
 40
0.86707844
 40
0.8829182474
 40
0.8977709669
 40
0.9116247674
 40
0.9244703708
 40
0.9362953794
 40
0.9470937208
 40
0.9568676656
 40
0.9656177634
 40
0.9733474762
 40
0.9800772004
 40
0.985816635
 40
0.9905686044
 40
0.9943468408
 40
0.9971671277
 40
0.999045163
 40
1.0
 40
1.0
 40
1.0
 40
1.0
 10
43.7057874918
 20
52.2057874918
 30
0.0
 10
43.7324211796
 20
52.2126663246
 30
0.0
 10
43.7861270407
 20
52.2268268366
 30
0.0
 10
43.8669360629
 20
52.2490098114
 30
0.0
 10
43.9484261571
 20
52.2721914101
 30
0.0
 10
44.0301839602
 20
52.2962202919
 30
0.0
 10
44.1120238773
 20
52.3210037138
 30
0.0
 10
44.1937620271
 20
52.3464545003
 30
0.0
 10
44.2752574762
 20
52.3725045217
 30
0.0
 10
44.3563848615
 20
52.3990905349
 30
0.0
 10
44.4370164308
 20
52.4261387037
 30
0.0
 10
44.5170080601
 20
52.4535644789
 30
0.0
 10
44.5962151304
 20
52.4812908694
 30
0.0
 10
44.6745089399
 20
52.5092415737
 30
0.0
 10
44.751772856
 20
52.5373497601
 30
0.0
 10
44.8278906049
 20
52.565557988
 30
0.0
 10
44.9027451739
 20
52.5938052439
 30
0.0
 10
44.9762154349
 20
52.6220283519
 30
0.0
 10
45.0481951471
 20
52.6501686643
 30
0.0
 10
45.1185934586
 20
52.6781724098
 30
0.0
 10
45.1873260236
 20
52.7059888791
 30
0.0
 10
45.2543040217
 20
52.7335651746
 30
0.0
 10
45.3194302709
 20
52.7608438101
 30
0.0
 10
45.3826111195
 20
52.7877677726
 30
0.0
 10
45.4437717057
 20
52.8142870162
 30
0.0
 10
45.5028491208
 20
52.8403557463
 30
0.0
 10
45.5597842459
 20
52.8659243067
 30
0.0
 10
45.6145120811
 20
52.890940033
 30
0.0
 10
45.6669641982
 20
52.9153478888
 30
0.0
 10
45.7170847296
 20
52.9390976465
 30
0.0
 10
45.7648298051
 20
52.9621448453
 30
0.0
 10
45.8101642012
 20
52.9844457598
 30
0.0
 10
45.8530579891
 20
53.0059491841
 30
0.0
 10
45.89347977
 20
53.0266043495
 30
0.0
 10
45.9314032738
 20
53.0463627702
 30
0.0
 10
45.966811261
 20
53.0651801703
 30
0.0
 10
45.9996880387
 20
53.0830145259
 30
0.0
 10
46.0300212702
 20
53.0998192905
 30
0.0
 10
46.0578131317
 20
53.1155334151
 30
0.0
 10
46.0830739519
 20
53.1301041873
 30
0.0
 10
46.1058244611
 20
53.1434855472
 30
0.0
 10
46.1260926978
 20
53.1556372749
 30
0.0
 10
46.1439209071
 20
53.1665283959
 30
0.0
 10
46.15935687
 20
53.1761359825
 30
0.0
 10
46.1724538193
 20
53.1844278393
 30
0.0
 10
46.1832577798
 20
53.1913752585
 30
0.0
 10
46.1918261991
 20
53.1969379162
 30
0.0
 10
46.198205609
 20
53.2011286522
 30
0.0
 10
46.2024890234
 20
53.2038654297
 30
0.0
 10
46.2046354048
 20
53.2052560462
 30
0.0
 10
46.2054067296
 20
53.2056351869
 30
0.0
 11
43.7057874918
 21
52.2057874918
 31
0.0
 11
43.7855836411
 21
52.226826018
 31
0.0
 11
43.8666848671
 21
52.2490745998
 31
0.0
 11
43.9482232397
 21
52.272261142
 31
0.0
 11
44.0300617697
 21
52.2963056152
 31
0.0
 11
44.1119660213
 21
52.3211024596
 31
0.0
 11
44.1937490255
 21
52.3465630878
 31
0.0
 11
44.2752798127
 21
52.3726209948
 31
0.0
 11
44.3564558223
 21
52.3992185534
 31
0.0
 11
44.4371380769
 21
52.4262791319
 31
0.0
 11
44.5171833143
 21
52.4537206611
 31
0.0
 11
44.5964370856
 21
52.4814605794
 31
0.0
 11
44.6747665015
 21
52.5094225503
 31
0.0
 11
44.7520695286
 21
52.5375455612
 31
0.0
 11
44.8282295922
 21
52.5657700458
 31
0.0
 11
44.90312073
 21
52.5940321089
 31
0.0
 11
44.9766340804
 21
52.6222731181
 31
0.0
 11
45.0486411631
 21
52.6504257746
 31
0.0
 11
45.1190605789
 21
52.6784400647
 31
0.0
 11
45.1878289818
 21
52.7062735861
 31
0.0
 11
45.2548383945
 21
52.7338656998
 31
0.0
 11
45.3199939932
 21
52.7611599087
 31
0.0
 11
45.383206879
 21
52.7881012036
 31
0.0
 11
45.4443798698
 21
52.814629871
 31
0.0
 11
45.5034747038
 21
52.840709875
 31
0.0
 11
45.5604397495
 21
52.8662959049
 31
0.0
 11
45.6151857875
 21
52.8913244281
 31
0.0
 11
45.6676584316
 21
52.9157467522
 31
0.0
 11
45.7177959151
 21
52.9395101074
 31
0.0
 11
45.7655465841
 21
52.9625656073
 31
0.0
 11
45.8108941875
 21
52.9848774409
 31
0.0
 11
45.8538037109
 21
53.0063938575
 31
0.0
 11
45.8942322046
 21
53.027058062
 31
0.0
 11
45.9321632457
 21
53.0468265423
 31
0.0
 11
45.9675772879
 21
53.0656542495
 31
0.0
 11
46.0004581322
 21
53.0834976136
 31
0.0
 11
46.0307992977
 21
53.1003101545
 31
0.0
 11
46.0585938808
 21
53.1160297658
 31
0.0
 11
46.0838509016
 21
53.1306023233
 31
0.0
 11
46.1065989203
 21
53.1439863229
 31
0.0
 11
46.1268624626
 21
53.1561392791
 31
0.0
 11
46.1446727495
 21
53.1670240785
 31
0.0
 11
46.1601002719
 21
53.1766282379
 31
0.0
 11
46.1731941676
 21
53.1849201703
 31
0.0
 11
46.1839891046
 21
53.191857844
 31
0.0
 11
46.1925443744
 21
53.197416714
 31
0.0
 11
46.1989233905
 21
53.2015770955
 31
0.0
 11
46.2031884921
 21
53.2043207936
 31
0.0
 11
46.2054067296
 21
53.2056351869
 31
0.0
  0
ELLIPSE
  5
4E7
100
AcDbEntity
  8
RACCORDO
100
AcDbEllipse
 62
7
  6
CONTINUOUS
 10
46.6163623377
 20
50.7948805285
 30
0.0
 11
0.0
 21
1.0
 31
0.0
 40
0.0174550649
 41
-1.5707963268
 42
-0.0087266463
  0
ELLIPSE
  5
4E8
100
AcDbEntity
  8
RACCORDO
100
AcDbEllipse
 62
7
  6
CONTINUOUS
 10
46.6163623377
 20
36.2051194715
 30
0.0
 11
0.0
 21
1.0
 31
0.0
 40
0.0174550649
 41
-3.1328660073
 42
-1.5707963268
  0
ELLIPSE
  5
4E9
100
AcDbEntity
  8
RACCORDO
100
AcDbEllipse
 62
7
  6
CONTINUOUS
 10
46.6163623377
 20
10.2948805285
 30
0.0
 11
-0.0
 21
1.0
 31
0.0
 40
0.0174550649
 41
-1.5707963268
 42
-0.0087266463
  0
ELLIPSE
  5
4EA
100
AcDbEntity
  8
RACCORDO
100
AcDbEllipse
 62
7
  6
CONTINUOUS
 10
46.6163623377
 20
-10.2948805285
 30
0.0
 11
-0.0
 21
1.0
 31
0.0
 40
0.0174550649
 41
-3.1328660073
 42
-1.5707963268
  0
ELLIPSE
  5
4EB
100
AcDbEntity
  8
RACCORDO
100
AcDbEllipse
 62
7
  6
CONTINUOUS
 10
46.6163623377
 20
-36.2051194715
 30
0.0
 11
0.0
 21
1.0
 31
0.0
 40
0.0174550649
 41
-1.5707963268
 42
-0.0087266463
  0
ELLIPSE
  5
4EC
100
AcDbEntity
  8
RACCORDO
100
AcDbEllipse
 62
7
  6
CONTINUOUS
 10
46.6163623377
 20
-50.7948805285
 30
0.0
 11
-0.0
 21
1.0
 31
0.0
 40
0.0174550649
 41
-3.1328660073
 42
-1.5707963268
  0
ELLIPSE
  5
4ED
100
AcDbEntity
  8
RACCORDO
100
AcDbEllipse
 62
7
  6
CONTINUOUS
 10
37.2948805285
 20
-55.1163623377
 30
0.0
 11
1.0
 21
0.0
 31
0.0
 40
0.0174550649
 41
-1.5707963268
 42
-0.0087266463
  0
ELLIPSE
  5
4EE
100
AcDbEntity
  8
RACCORDO
100
AcDbEllipse
 62
7
  6
CONTINUOUS
 10
19.7051194715
 20
-55.1163623377
 30
0.0
 11
1.0
 21
-0.0
 31
0.0
 40
0.0174550649
 41
-3.1328660073
 42
-1.5707963268
  0
ELLIPSE
  5
4EF
100
AcDbEntity
  8
RACCORDO
100
AcDbEllipse
 62
7
  6
CONTINUOUS
 10
10.2948805285
 20
-55.1163623377
 30
0.0
 11
1.0
 21
0.0
 31
0.0
 40
0.0174550649
 41
-1.5707963268
 42
-0.0087266463
  0
ELLIPSE
  5
4F0
100
AcDbEntity
  8
RACCORDO
100
AcDbEllipse
 62
7
  6
CONTINUOUS
 10
-10.2948805285
 20
-55.1163623377
 30
0.0
 11
1.0
 21
-0.0
 31
0.0
 40
0.0174550649
 41
-3.1328660073
 42
-1.5707963268
  0
ELLIPSE
  5
4F1
100
AcDbEntity
  8
RACCORDO
100
AcDbEllipse
 62
7
  6
CONTINUOUS
 10
-19.7051194715
 20
-55.1163623377
 30
0.0
 11
1.0
 21
-0.0
 31
0.0
 40
0.0174550649
 41
-1.5707963268
 42
-0.0087266463
  0
ELLIPSE
  5
4F2
100
AcDbEntity
  8
RACCORDO
100
AcDbEllipse
 62
7
  6
CONTINUOUS
 10
-37.2948805285
 20
-55.1163623377
 30
0.0
 11
1.0
 21
0.0
 31
0.0
 40
0.0174550649
 41
-3.1328660073
 42
-1.5707963268
  0
ELLIPSE
  5
4F3
100
AcDbEntity
  8
RACCORDO
100
AcDbEllipse
 62
7
  6
CONTINUOUS
 10
-46.6163623377
 20
-50.7948805285
 30
0.0
 11
-0.0
 21
1.0
 31
0.0
 40
0.0174550649
 41
1.5707963268
 42
3.1328660073
  0
ELLIPSE
  5
4F4
100
AcDbEntity
  8
RACCORDO
100
AcDbEllipse
 62
7
  6
CONTINUOUS
 10
-46.6163623377
 20
-36.2051194715
 30
0.0
 11
-0.0
 21
1.0
 31
0.0
 40
0.0174550649
 41
0.0087266463
 42
1.5707963268
  0
ELLIPSE
  5
4F5
100
AcDbEntity
  8
RACCORDO
100
AcDbEllipse
 62
7
  6
CONTINUOUS
 10
-46.6163623377
 20
-10.2948805285
 30
0.0
 11
-0.0
 21
1.0
 31
0.0
 40
0.0174550649
 41
-4.7123889804
 42
-3.1503192999
  0
ELLIPSE
  5
4F6
100
AcDbEntity
  8
RACCORDO
100
AcDbEllipse
 62
7
  6
CONTINUOUS
 10
-46.6163623377
 20
10.2948805285
 30
0.0
 11
-0.0
 21
1.0
 31
0.0
 40
0.0174550649
 41
0.0087266463
 42
1.5707963268
  0
ELLIPSE
  5
4F7
100
AcDbEntity
  8
RACCORDO
100
AcDbEllipse
 62
7
  6
CONTINUOUS
 10
-46.6163623377
 20
36.2051194715
 30
0.0
 11
0.0
 21
1.0
 31
0.0
 40
0.0174550649
 41
1.5707963268
 42
3.1328660073
  0
ELLIPSE
  5
4F8
100
AcDbEntity
  8
RACCORDO
100
AcDbEllipse
 62
7
  6
CONTINUOUS
 10
-46.6163623377
 20
50.7948805285
 30
0.0
 11
0.0
 21
1.0
 31
0.0
 40
0.0174550649
 41
0.0087266463
 42
1.5707963268
  0
ELLIPSE
  5
4F9
100
AcDbEntity
  8
RACCORDO
100
AcDbEllipse
 62
7
  6
CONTINUOUS
 10
-37.2948805285
 20
55.1163623377
 30
0.0
 11
1.0
 21
0.0
 31
0.0
 40
0.0174550649
 41
1.5707963268
 42
3.1328660073
  0
ELLIPSE
  5
4FA
100
AcDbEntity
  8
RACCORDO
100
AcDbEllipse
 62
7
  6
CONTINUOUS
 10
-19.7051194715
 20
55.1163623377
 30
0.0
 11
1.0
 21
0.0
 31
0.0
 40
0.0174550649
 41
0.0087266463
 42
1.5707963268
  0
ELLIPSE
  5
4FB
100
AcDbEntity
  8
RACCORDO
100
AcDbEllipse
 62
7
  6
CONTINUOUS
 10
-10.2948805285
 20
55.1163623377
 30
0.0
 11
1.0
 21
-0.0
 31
0.0
 40
0.0174550649
 41
1.5707963268
 42
3.1328660073
  0
ELLIPSE
  5
4FC
100
AcDbEntity
  8
RACCORDO
100
AcDbEllipse
 62
7
  6
CONTINUOUS
 10
10.2948805285
 20
55.1163623377
 30
0.0
 11
1.0
 21
0.0
 31
0.0
 40
0.0174550649
 41
0.0087266463
 42
1.5707963268
  0
ELLIPSE
  5
4FD
100
AcDbEntity
  8
RACCORDO
100
AcDbEllipse
 62
7
  6
CONTINUOUS
 10
19.7051194715
 20
55.1163623377
 30
0.0
 11
1.0
 21
0.0
 31
0.0
 40
0.0174550649
 41
1.5707963268
 42
3.1328660073
  0
ELLIPSE
  5
4FE
100
AcDbEntity
  8
RACCORDO
100
AcDbEllipse
 62
7
  6
CONTINUOUS
 10
37.2948805285
 20
55.1163623377
 30
0.0
 11
1.0
 21
-0.0
 31
0.0
 40
0.0174550649
 41
0.0087266463
 42
1.5707963268
  0
ELLIPSE
  5
4FF
100
AcDbEntity
  8
RACCORDO
100
AcDbEllipse
 62
7
  6
CONTINUOUS
 10
-45.1702755783
 20
-53.6702755783
 30
0.0
 11
1.0532802767
 21
1.0532802767
 31
0.0
 40
0.9997145314
 41
2.356337245
 42
2.5612979013
  0
ELLIPSE
  5
500
100
AcDbEntity
  8
RACCORDO
100
AcDbEllipse
 62
7
  6
CONTINUOUS
 10
45.1702755783
 20
-53.6702755783
 30
0.0
 11
1.0532802767
 21
-1.0532802767
 31
0.0
 40
0.9997145314
 41
0.5802947523
 42
0.7852554086
  0
ELLIPSE
  5
501
100
AcDbEntity
  8
RACCORDO
100
AcDbEllipse
 62
7
  6
CONTINUOUS
 10
45.1702755783
 20
53.6702755783
 30
0.0
 11
1.0532802767
 21
1.0532802767
 31
0.0
 40
0.9997145314
 41
-0.7852554086
 42
-0.5802947523
  0
ELLIPSE
  5
502
100
AcDbEntity
  8
RACCORDO
100
AcDbEllipse
 62
7
  6
CONTINUOUS
 10
-45.1702755783
 20
53.6702755783
 30
0.0
 11
1.0532802767
 21
-1.0532802767
 31
0.0
 40
0.9997145314
 41
-2.5612979013
 42
-2.356337245
  0
ELLIPSE
  5
503
100
AcDbEntity
  8
DRAFT
100
AcDbEllipse
 62
7
  6
CONTINUOUS
 10
44.7059398198
 20
-53.2059398198
 30
0.0
 11
1.0609832838
 21
-1.0609832838
 31
0.0
 40
0.9996954599
 41
0.5746586384
 42
0.7852458701
  0
ELLIPSE
  5
504
100
AcDbEntity
  8
DRAFT
100
AcDbEllipse
 62
7
  6
CONTINUOUS
 10
44.7059398198
 20
53.2059398198
 30
0.0
 11
1.0609832838
 21
1.0609832838
 31
0.0
 40
0.9996954599
 41
-0.7852458701
 42
-0.5746586384
  0
ELLIPSE
  5
505
100
AcDbEntity
  8
DRAFT
100
AcDbEllipse
 62
7
  6
CONTINUOUS
 10
-44.7059398198
 20
53.2059398198
 30
0.0
 11
-1.0609832838
 21
1.0609832838
 31
0.0
 40
0.9996954599
 41
0.5746586384
 42
0.7852458701
  0
ELLIPSE
  5
506
100
AcDbEntity
  8
DRAFT
100
AcDbEllipse
 62
7
  6
CONTINUOUS
 10
-44.7059398198
 20
-53.2059398198
 30
0.0
 11
-1.0609832838
 21
-1.0609832838
 31
0.0
 40
0.9996954599
 41
-0.7852458701
 42
-0.5746586384
  0
ELLIPSE
  5
507
100
AcDbEntity
  8
RACCORDO
100
AcDbEllipse
 62
7
  6
CONTINUOUS
 10
48.3674550649
 20
-29.0
 30
0.0
 11
0.0
 21
1.0
 31
0.0
 40
0.0174550649
 41
0.0
 42
1.5707963268
  0
ELLIPSE
  5
508
100
AcDbEntity
  8
RACCORDO
100
AcDbEllipse
 62
7
  6
CONTINUOUS
 10
48.3674550649
 20
-17.0
 30
0.0
 11
0.0
 21
1.0
 31
0.0
 40
0.0174550649
 41
-4.7123889804
 42
-3.1415926536
  0
ELLIPSE
  5
509
100
AcDbEntity
  8
RACCORDO
100
AcDbEllipse
 62
7
  6
CONTINUOUS
 10
48.3674550649
 20
17.0
 30
0.0
 11
0.0
 21
1.0
 31
0.0
 40
0.0174550649
 41
0.0
 42
1.5707963268
  0
ELLIPSE
  5
50A
100
AcDbEntity
  8
RACCORDO
100
AcDbEllipse
 62
7
  6
CONTINUOUS
 10
-45.3495430159
 20
-53.8495430159
 30
0.0
 11
2.1219665675
 21
2.1219665675
 31
0.0
 40
0.9996954599
 41
-3.9268385237
 42
-2.3563467834
  0
ELLIPSE
  5
50B
100
AcDbEntity
  8
RACCORDO
100
AcDbEllipse
 62
7
  6
CONTINUOUS
 10
45.3495430159
 20
-53.8495430159
 30
0.0
 11
2.1219665675
 21
-2.1219665675
 31
0.0
 40
0.9996954599
 41
-0.7852458701
 42
0.7852458702
  0
ELLIPSE
  5
50C
100
AcDbEntity
  8
RACCORDO
100
AcDbEllipse
 62
7
  6
CONTINUOUS
 10
45.3495430159
 20
53.8495430159
 30
0.0
 11
2.1219665675
 21
2.1219665675
 31
0.0
 40
0.9996954599
 41
-0.7852458701
 42
0.7852458702
  0
ELLIPSE
  5
50D
100
AcDbEntity
  8
RACCORDO
100
AcDbEllipse
 62
7
  6
CONTINUOUS
 10
-45.3495430159
 20
53.8495430159
 30
0.0
 11
2.1219665675
 21
-2.1219665675
 31
0.0
 40
0.9996954599
 41
2.3563467834
 42
3.9268385237
  0
ELLIPSE
  5
50E
100
AcDbEntity
  8
RACCORDO
100
AcDbEllipse
 62
7
  6
CONTINUOUS
 10
48.3674550649
 20
29.0
 30
0.0
 11
-0.0
 21
1.0
 31
0.0
 40
0.0174550649
 41
-4.7123889804
 42
-3.1415926536
  0
ELLIPSE
  5
50F
100
AcDbEntity
  8
RACCORDO
100
AcDbEllipse
 62
7
  6
CONTINUOUS
 10
-48.3674550649
 20
-17.0
 30
0.0
 11
-0.0
 21
1.0
 31
0.0
 40
0.0174550649
 41
-3.1415926536
 42
-1.5707963268
  0
ELLIPSE
  5
510
100
AcDbEntity
  8
RACCORDO
100
AcDbEllipse
 62
7
  6
CONTINUOUS
 10
-48.3674550649
 20
-29.0
 30
0.0
 11
-0.0
 21
1.0
 31
0.0
 40
0.0174550649
 41
-1.5707963268
 42
0.0
  0
ELLIPSE
  5
511
100
AcDbEntity
  8
RACCORDO
100
AcDbEllipse
 62
7
  6
CONTINUOUS
 10
-48.3674550649
 20
17.0
 30
0.0
 11
-0.0
 21
1.0
 31
0.0
 40
0.0174550649
 41
-1.5707963268
 42
0.0
  0
ELLIPSE
  5
512
100
AcDbEntity
  8
RACCORDO
100
AcDbEllipse
 62
7
  6
CONTINUOUS
 10
-48.3674550649
 20
29.0
 30
0.0
 11
0.0
 21
1.0
 31
0.0
 40
0.0174550649
 41
-3.1415926536
 42
-1.5707963268
  0
ELLIPSE
  5
513
100
AcDbEntity
  8
DRAFT
100
AcDbEllipse
 62
7
  6
CONTINUOUS
 10
45.1597715079
 20
-53.6597715079
 30
0.0
 11
1.0609832838
 21
-1.0609832838
 31
0.0
 40
0.9996954599
 41
-0.7852458702
 42
0.5746586384
  0
ELLIPSE
  5
514
100
AcDbEntity
  8
DRAFT
100
AcDbEllipse
 62
7
  6
CONTINUOUS
 10
45.1597715079
 20
53.6597715079
 30
0.0
 11
1.0609832838
 21
1.0609832837
 31
0.0
 40
0.9996954599
 41
-0.5746586384
 42
0.7852458702
  0
ELLIPSE
  5
515
100
AcDbEntity
  8
DRAFT
100
AcDbEllipse
 62
7
  6
CONTINUOUS
 10
-45.1597715079
 20
53.6597715079
 30
0.0
 11
1.0609832838
 21
-1.0609832838
 31
0.0
 40
0.9996954599
 41
2.3563467834
 42
3.716251292
  0
ELLIPSE
  5
516
100
AcDbEntity
  8
DRAFT
100
AcDbEllipse
 62
7
  6
CONTINUOUS
 10
-45.1597715079
 20
-53.6597715079
 30
0.0
 11
1.0609832838
 21
1.0609832838
 31
0.0
 40
0.9996954599
 41
-3.716251292
 42
-2.3563467834
  0
ENDSEC
  0
SECTION
  2
OBJECTS
  0
DICTIONARY
  5
C
100
AcDbDictionary
280
0
281
1
  3
ACAD_GROUP
350
D
  3
ACAD_MLINESTYLE
350
17
  3
ACAD_LAYOUT
350
1A
  3
ACAD_PLOTSETTINGS
350
19
  3
ACAD_PLOTSTYLENAME
350
E
  0
DICTIONARY
  5
D
102
{ACAD_REACTORS
330
C
102
}
100
AcDbDictionary
280
0
281
1
  0
ACDBDICTIONARYWDFLT
  5
E
102
{ACAD_REACTORS
330
C
102
}
100
AcDbDictionary
281
1
  3
Normal
350
F
100
AcDbDictionaryWithDefault
340
F
  0
DICTIONARY
  5
17
102
{ACAD_REACTORS
330
C
102
}
100
AcDbDictionary
280
0
281
1
  3
Standard
350
18
  0
DICTIONARY
  5
19
102
{ACAD_REACTORS
330
C
102
}
100
AcDbDictionary
281
1
  0
DICTIONARY
  5
1A
102
{ACAD_REACTORS
330
C
102
}
100
AcDbDictionary
281
1
  3
Model
350
517
  3
Layout1
350
518
  0
ACDBPLACEHOLDER
  5
F
102
{ACAD_REACTORS
330
E
102
}
  0
MLINESTYLE
  5
18
102
{ACAD_REACTORS
330
17
102
}
100
AcDbMlineStyle
  2
STANDARD
 70
0
  3

 62
256
 51
90.0
 52
90.0
 71
2
 49
0.5
 62
256
  6
BYLAYER
 49
-0.5
 62
256
  6
BYLAYER
  0
LAYOUT
  5
517
102
{ACAD_REACTORS
330
1A
102
}
100
AcDbPlotSettings
  1

  2
none_device
  4
ISO_A4_(297.00_x_210.00_MM)
  6

 40
0.0
 41
0.0
 42
0.0
 43
0.0
 44
297.0
 45
210.0
 46
0.0
 47
0.0
 48
0.0
 49
0.0
140
0.0
141
0.0
142
1.0
143
1.0
 70
1024
 72
1
 73
0
 74
0
  7

 75
0
147
1.0
148
0.0
149
0.0
100
AcDbLayout
  1
Model
 70
0
 71
0
 10
0.0
 20
0.0
 11
297.0
 21
210.0
 12
0.0
 22
0.0
 32
0.0
 14
0.0
 24
0.0
 34
0.0
 15
0.0
 25
0.0
 35
0.0
146
0.0
 13
0.0
 23
0.0
 33
0.0
 16
1.0
 26
0.0
 36
0.0
 17
0.0
 27
1.0
 37
0.0
 76
0
330
20F
345
0
346
0
  0
LAYOUT
  5
518
102
{ACAD_REACTORS
330
1A
102
}
100
AcDbPlotSettings
  1

  2
none_device
  4
ISO_A4_(297.00_x_210.00_MM)
  6

 40
0.0
 41
0.0
 42
0.0
 43
0.0
 44
297.0
 45
210.0
 46
0.0
 47
0.0
 48
0.0
 49
0.0
140
0.0
141
0.0
142
1.0
143
1.0
 70
0
 72
1
 73
0
 74
0
  7

 75
0
147
1.0
148
0.0
149
0.0
100
AcDbLayout
  1
Layout1
 70
0
 71
1
 10
0.0
 20
0.0
 11
297.0
 21
210.0
 12
0.0
 22
0.0
 32
0.0
 14
0.0
 24
0.0
 34
0.0
 15
0.0
 25
0.0
 35
0.0
146
0.0
 13
0.0
 23
0.0
 33
0.0
 16
1.0
 26
0.0
 36
0.0
 17
0.0
 27
1.0
 37
0.0
 76
0
330
210
345
0
346
0
  0
ENDSEC
  0
EOF
