0
SECTION
2
HEADER
9
$ACADVER
1
AC1014
9
$HANDSEED
5
       350
9
$EXTMAX
10
297.0000000000
20
210.0000000000
9
$EXTMIN
10
0.0000000000
20
0.0000000000
9
$LIMMIN
10
0.0000000000
20
0.0000000000
9
$LIMMAX
10
297.0000000000
20
210.0000000000
9
$VIEWCTR
10
148.5000000000
20
105.0000000000
9
$VIEWSIZE
40
210.0000000000
9
$CLAYER
8
0
9
$LTSCALE
40
16.3350000000
9
$CELTYPE
6
BYLAYER
9
$DIMSCALE
40
1
9
$DIMASZ
40
3.0000000000
9
$DIMEXO
40
1.8562500000
9
$DIMDLI
40
11.2860000000
9
$DIMEXE
40
5.3460000000
9
$DIMCEN
40
2.6730000000
9
$DIMLFAC
40
1.0000000000
9
$DIMTXT
40
3.0000000000
9
$DIMTOL
70
1
9
$DIMLIM
70
0
9
$DIMTFAC
40
1.0000000000
9
$DIMTP
40
0.0100000000
9
$DIMTM
40
0.0100000000
9
$MEASUREMENT
70
1
0
ENDSEC
0
SECTION
2
CLASSES
0
ENDSEC
0
SECTION
2
TABLES
0
TABLE
2
VPORT
5
8
100
AcDbSymbolTable
70
2
0
VPORT
5
1F4
100
AcDbSymbolTableRecord
100
AcDbViewportTableRecord
2
*ACTIVE
70
0
10
0.0
20
0.0
11
1.0
21
1.0
12
148.5000000000
22
105.0000000000
13
0.0
23
0.0
14
1.0
24
1.0
15
0.0
25
0.0
16
0.0
26
0.0
36
1.0
17
0.0
27
0.0
37
0.0
40
210.0000000000
41
1.4142857143
42
50.0
43
0.0
44
0.0
50
0.0
51
0.0
71
0
72
100
73
1
74
1
75
0
76
0
77
0
78
0
0
ENDTAB
0
TABLE
2
LTYPE
5
5
100
AcDbSymbolTable
70
6
0
LTYPE
5
14
100
AcDbSymbolTableRecord
100
AcDbLinetypeTableRecord
2
BYBLOCK
70
0
3

72
65
73
0
40
0.0
0
LTYPE
5
15
100
AcDbSymbolTableRecord
100
AcDbLinetypeTableRecord
2
BYLAYER
70
0
3

72
65
73
0
40
0.0
0
LTYPE
5
16
100
AcDbSymbolTableRecord
100
AcDbLinetypeTableRecord
2
CONTINUOUS
70
64
3
Solid line
72
65
73
0
40
0
0
LTYPE
5
1F5
100
AcDbSymbolTableRecord
100
AcDbLinetypeTableRecord
2
CENTER
70
64
3
____ _ ____ _ ____ _ ____ _ ____ _ ____ _ ____
72
65
73
4
40
0.6
49
0.375
74
0
49
-0.075
74
0
49
0.075
74
0
49
-0.075
74
0
0
LTYPE
5
1F6
100
AcDbSymbolTableRecord
100
AcDbLinetypeTableRecord
2
HIDDEN
70
64
3
- - - - - - - - - - - - - - - - - - - -
72
65
73
2
40
0.2
49
0.1
74
0
49
-0.1
74
0
0
LTYPE
5
1F7
100
AcDbSymbolTableRecord
100
AcDbLinetypeTableRecord
2
PHANTOM
70
64
3
_____ _ _ _____ _ _ _____ _ _ _____
72
65
73
6
40
0.8
49
0.45
74
0
49
-0.05
74
0
49
0.1
74
0
49
-0.05
74
0
49
0.1
74
0
49
-0.05
74
0
0
LTYPE
5
1F8
100
AcDbSymbolTableRecord
100
AcDbLinetypeTableRecord
2
DOT
70
64
3
. . . . . . . . . . . . . . . . . . . .
72
65
73
2
40
0.2
49
0.1
74
0
49
-0.1
74
0
0
LTYPE
5
1F9
100
AcDbSymbolTableRecord
100
AcDbLinetypeTableRecord
2
DASHED
70
64
3
- - - - - - - - - - - - - - - - - - - -
72
65
73
2
40
0.2
49
0.1
74
0
49
-0.1
74
0
0
ENDTAB
0
TABLE
2
LAYER
5
2
100
AcDbSymbolTable
70
36
0
LAYER
5
10
100
AcDbSymbolTableRecord
100
AcDbLayerTableRecord
2
0
70
0
62
7
6
CONTINUOUS
0
LAYER
5
1FA
100
AcDbSymbolTableRecord
100
AcDbLayerTableRecord
2
DEFAULT_1
70
0
62
7
6
CENTER
0
LAYER
5
1FB
100
AcDbSymbolTableRecord
100
AcDbLayerTableRecord
2
DEFAULT_2
70
0
62
8
6
HIDDEN
0
LAYER
5
1FC
100
AcDbSymbolTableRecord
100
AcDbLayerTableRecord
2
DEFAULT_3
70
0
62
7
6
PHANTOM
0
LAYER
5
1FD
100
AcDbSymbolTableRecord
100
AcDbLayerTableRecord
2
ASSI
70
0
62
7
6
CONTINUOUS
0
LAYER
5
1FE
100
AcDbSymbolTableRecord
100
AcDbLayerTableRecord
2
COLOR5
70
0
62
7
6
CONTINUOUS
0
LAYER
5
1FF
100
AcDbSymbolTableRecord
100
AcDbLayerTableRecord
2
COORDINATE
70
0
62
7
6
CONTINUOUS
0
LAYER
5
200
100
AcDbSymbolTableRecord
100
AcDbLayerTableRecord
2
COORD_ORIGINE
70
0
62
7
6
CONTINUOUS
0
LAYER
5
201
100
AcDbSymbolTableRecord
100
AcDbLayerTableRecord
2
CURVE
70
0
62
7
6
CONTINUOUS
0
LAYER
5
202
100
AcDbSymbolTableRecord
100
AcDbLayerTableRecord
2
DRAFT
70
0
62
7
6
CONTINUOUS
0
LAYER
5
203
100
AcDbSymbolTableRecord
100
AcDbLayerTableRecord
2
NOTE
70
0
62
7
6
CONTINUOUS
0
LAYER
5
204
100
AcDbSymbolTableRecord
100
AcDbLayerTableRecord
2
PIANI
70
0
62
7
6
CONTINUOUS
0
LAYER
5
205
100
AcDbSymbolTableRecord
100
AcDbLayerTableRecord
2
PIANI_ORIGINE
70
0
62
7
6
CONTINUOUS
0
LAYER
5
206
100
AcDbSymbolTableRecord
100
AcDbLayerTableRecord
2
PIANI_RIFERIMENTO
70
0
62
7
6
CONTINUOUS
0
LAYER
5
207
100
AcDbSymbolTableRecord
100
AcDbLayerTableRecord
2
PUNTI
70
0
62
7
6
CONTINUOUS
0
LAYER
5
208
100
AcDbSymbolTableRecord
100
AcDbLayerTableRecord
2
RACCORDO
70
0
62
7
6
CONTINUOUS
0
LAYER
5
209
100
AcDbSymbolTableRecord
100
AcDbLayerTableRecord
2
SMUSSO
70
0
62
7
6
CONTINUOUS
0
LAYER
5
20A
100
AcDbSymbolTableRecord
100
AcDbLayerTableRecord
2
SUPERFICI
70
0
62
7
6
CONTINUOUS
0
LAYER
5
20B
100
AcDbSymbolTableRecord
100
AcDbLayerTableRecord
2
TRASH
70
0
62
7
6
CONTINUOUS
0
LAYER
5
20C
100
AcDbSymbolTableRecord
100
AcDbLayerTableRecord
2
XSEC_DATUMS
70
0
62
7
6
CONTINUOUS
0
ENDTAB
0
TABLE
2
STYLE
5
3
100
AcDbSymbolTable
70
1
0
STYLE
5
11
100
AcDbSymbolTableRecord
100
AcDbTextStyleTableRecord
2
STANDARD
70
0
40
0.0
41
0.8000000000
50
0.0
71
0
42
0.2
3
txt
4

0
ENDTAB
0
TABLE
2
VIEW
5
6
100
AcDbSymbolTable
70
0
0
ENDTAB
0
TABLE
2
UCS
5
7
100
AcDbSymbolTable
70
0
0
ENDTAB
0
TABLE
2
APPID
5
9
100
AcDbSymbolTable
70
1
0
APPID
5
20D
100
AcDbSymbolTableRecord
100
AcDbRegAppTableRecord
2
ACAD
70
0
0
ENDTAB
0
TABLE
2
DIMSTYLE
5
A
100
AcDbSymbolTable
70
1
0
DIMSTYLE
105
20E
100
AcDbSymbolTableRecord
100
AcDbDimStyleTableRecord
2
STANDARD
70
0
3

4

5

6

7

40
1.0
41
3.0000000000
42
0.0625
43
0.38
44
0.18
45
0.0
46
0.0
47
0.0100000000
48
0.0100000000
140
3.0000000000
141
0.09
142
0.0
143
25.4
144
1.0000000000
145
0.0
146
1.0000000000
147
0.09
71
1
72
0
73
0
74
0
75
0
76
0
77
1
78
8
170
0
171
2
172
0
173
0
174
0
175
0
176
0
177
0
178
0
270
2
271
2
272
2
273
2
274
2
340
11
275
0
280
0
281
0
282
0
283
1
284
8
285
0
286
0
287
3
288
0
0
ENDTAB
0
TABLE
2
BLOCK_RECORD
5
1
100
AcDbSymbolTable
70
0
0
BLOCK_RECORD
5
1B
100
AcDbSymbolTableRecord
100
AcDbBlockTableRecord
2
*MODEL_SPACE
0
BLOCK_RECORD
5
1C
100
AcDbSymbolTableRecord
100
AcDbBlockTableRecord
2
*PAPER_SPACE
0
ENDTAB
0
ENDSEC
0
SECTION
2
BLOCKS
0
BLOCK
5
1E
100
AcDbEntity
8
0
100
AcDbBlockBegin
2
*MODEL_SPACE
70
0
10
0.0
20
0.0
30
0.0
3
*MODEL_SPACE
1

0
ENDBLK
5
1F
100
AcDbEntity
8
0
100
AcDbBlockEnd
0
BLOCK
5
20
100
AcDbEntity
8
0
100
AcDbBlockBegin
2
*PAPER_SPACE
70
0
10
0.0
20
0.0
30
0.0
3
*PAPER_SPACE
1

0
ENDBLK
5
21
100
AcDbEntity
8
0
100
AcDbBlockEnd
0
ENDSEC
0
SECTION
2
ENTITIES
0
LINE
5
20F
100
AcDbEntity
8
0
100
AcDbLine
62
7
6
CONTINUOUS
10
-61.0459011625
20
-41.0405368075
11
-61.0459011625
21
41.0659783655
0
LINE
5
210
100
AcDbEntity
8
0
100
AcDbLine
62
9
6
CONTINUOUS
10
-60.2508780513
20
40.2709552543
11
-60.2508780513
21
-40.2455136963
0
LINE
5
211
100
AcDbEntity
8
0
100
AcDbLine
62
9
6
CONTINUOUS
10
-59.2546833532
20
40.2709552543
11
-59.2546833532
21
-40.2455136963
0
LINE
5
212
100
AcDbEntity
8
0
100
AcDbLine
62
9
6
CONTINUOUS
10
-57.7603913061
20
-41.7398057435
11
-57.7603913061
21
-42.7360004416
0
LINE
5
213
100
AcDbEntity
8
0
100
AcDbLine
62
9
6
CONTINUOUS
10
-57.7603913061
20
41.7652473015
11
-57.7603913061
21
42.7614419996
0
LINE
5
214
100
AcDbEntity
8
0
100
AcDbLine
62
7
6
CONTINUOUS
10
-54.5021568307
20
-27.9872792210
11
-54.5021568307
21
-31.9872792210
0
LINE
5
215
100
AcDbEntity
8
0
100
AcDbLine
62
7
6
CONTINUOUS
10
-52.5021568307
20
-31.9872792210
11
-52.5021568307
21
-27.9872792210
0
LINE
5
216
100
AcDbEntity
8
0
100
AcDbLine
62
9
6
CONTINUOUS
10
-50.0021568307
20
32.0127207790
11
-50.0021568307
21
31.9429058367
0
LINE
5
217
100
AcDbEntity
8
0
100
AcDbLine
62
7
6
CONTINUOUS
10
-50.0021568307
20
-27.9872792210
11
-50.0021568307
21
-31.9872792210
0
LINE
5
218
100
AcDbEntity
8
0
100
AcDbLine
62
9
6
CONTINUOUS
10
-50.0021568307
20
28.0127207790
11
-50.0021568307
21
28.0825357213
0
LINE
5
219
100
AcDbEntity
8
0
100
AcDbLine
62
7
6
CONTINUOUS
10
-49.9323418884
20
-27.9872792210
11
-49.9323418884
21
-31.9872792210
0
LINE
5
21A
100
AcDbEntity
8
0
100
AcDbLine
62
7
6
CONTINUOUS
10
-47.4950860477
20
-15.9657385500
11
-47.1969503491
21
-16.5410303343
0
LINE
5
21B
100
AcDbEntity
8
0
100
AcDbLine
62
7
6
CONTINUOUS
10
-48.5092276137
20
-14.0088198920
11
-48.8073633123
21
-13.4335281077
0
LINE
5
21C
100
AcDbEntity
8
0
100
AcDbLine
62
7
6
CONTINUOUS
10
-46.0719717730
20
-31.9872792210
11
-46.0719717730
21
-27.9872792210
0
LINE
5
21D
100
AcDbEntity
8
0
100
AcDbLine
62
9
6
CONTINUOUS
10
-46.0021568307
20
32.0127207790
11
-46.0021568307
21
31.9429058367
0
LINE
5
21E
100
AcDbEntity
8
0
100
AcDbLine
62
7
6
CONTINUOUS
10
-46.0021568307
20
-31.9872792210
11
-46.0021568307
21
-27.9872792210
0
LINE
5
21F
100
AcDbEntity
8
0
100
AcDbLine
62
9
6
CONTINUOUS
10
-46.0021568307
20
28.0127207790
11
-46.0021568307
21
28.0825357213
0
LINE
5
220
100
AcDbEntity
8
0
100
AcDbLine
62
7
6
CONTINUOUS
10
-43.5021568307
20
-27.9872792210
11
-43.5021568307
21
-31.9872792210
0
LINE
5
221
100
AcDbEntity
8
0
100
AcDbLine
62
7
6
CONTINUOUS
10
-41.5021568307
20
-31.9872792210
11
-41.5021568307
21
-27.9872792210
0
LINE
5
222
100
AcDbEntity
8
0
100
AcDbLine
62
7
6
CONTINUOUS
10
58.5511007558
20
-43.5310235528
11
-58.5554144172
21
-43.5310235528
0
LINE
5
223
100
AcDbEntity
8
0
100
AcDbLine
62
9
6
CONTINUOUS
10
-57.7603913061
20
-42.7360004416
11
57.7560776446
21
-42.7360004416
0
LINE
5
224
100
AcDbEntity
8
0
100
AcDbLine
62
9
6
CONTINUOUS
10
-57.7603913061
20
-41.7398057435
11
57.7560776446
21
-41.7398057435
0
LINE
5
225
100
AcDbEntity
8
0
100
AcDbLine
62
7
6
CONTINUOUS
10
-37.5021568307
20
-16.4872792210
11
-37.5021568307
21
-15.9872792210
0
LINE
5
226
100
AcDbEntity
8
0
100
AcDbLine
62
7
6
CONTINUOUS
10
-37.5021568307
20
-13.9872792210
11
-37.5021568307
21
-5.9872792210
0
LINE
5
227
100
AcDbEntity
8
0
100
AcDbLine
62
7
6
CONTINUOUS
10
-37.5021568307
20
-3.9872792210
11
-37.5021568307
21
4.0127207790
0
LINE
5
228
100
AcDbEntity
8
0
100
AcDbLine
62
7
6
CONTINUOUS
10
-37.5021568307
20
6.0127207790
11
-37.5021568307
21
14.0127207790
0
LINE
5
229
100
AcDbEntity
8
0
100
AcDbLine
62
7
6
CONTINUOUS
10
-37.5021568307
20
16.0127207790
11
-37.5021568307
21
16.5127207790
0
LINE
5
22A
100
AcDbEntity
8
0
100
AcDbLine
62
7
6
CONTINUOUS
10
-36.5021568307
20
16.5127207790
11
-36.5021568307
21
16.0127207790
0
LINE
5
22B
100
AcDbEntity
8
0
100
AcDbLine
62
7
6
CONTINUOUS
10
-36.5021568307
20
14.0127207790
11
-36.5021568307
21
6.0127207790
0
LINE
5
22C
100
AcDbEntity
8
0
100
AcDbLine
62
7
6
CONTINUOUS
10
-36.5021568307
20
4.0127207790
11
-36.5021568307
21
-3.9872792210
0
LINE
5
22D
100
AcDbEntity
8
0
100
AcDbLine
62
7
6
CONTINUOUS
10
-36.5021568307
20
-5.9872792210
11
-36.5021568307
21
-13.9872792210
0
LINE
5
22E
100
AcDbEntity
8
0
100
AcDbLine
62
7
6
CONTINUOUS
10
-36.5021568307
20
-15.9872792210
11
-36.5021568307
21
-16.4872792210
0
LINE
5
22F
100
AcDbEntity
8
0
100
AcDbLine
62
9
6
CONTINUOUS
10
59.2503696918
20
-40.2455136963
11
60.2465643899
21
-40.2455136963
0
LINE
5
230
100
AcDbEntity
8
0
100
AcDbLine
62
9
6
CONTINUOUS
10
-59.2546833532
20
-40.2455136963
11
-60.2508780513
21
-40.2455136963
0
LINE
5
231
100
AcDbEntity
8
0
100
AcDbLine
62
7
6
CONTINUOUS
10
-31.0021568307
20
22.5127207790
11
-31.0021568307
21
21.5127207790
0
LINE
5
232
100
AcDbEntity
8
0
100
AcDbLine
62
7
6
CONTINUOUS
10
-31.0021568307
20
-21.4872792210
11
-31.0021568307
21
-22.4872792210
0
LINE
5
233
100
AcDbEntity
8
0
100
AcDbLine
62
9
6
CONTINUOUS
10
-50.0021568307
20
-31.9872792210
11
-49.9323418884
21
-31.9872792210
0
LINE
5
234
100
AcDbEntity
8
0
100
AcDbLine
62
9
6
CONTINUOUS
10
49.9978431693
20
-31.9872792210
11
49.9280282270
21
-31.9872792210
0
LINE
5
235
100
AcDbEntity
8
0
100
AcDbLine
62
9
6
CONTINUOUS
10
45.9978431693
20
-31.9872792210
11
46.0676581116
21
-31.9872792210
0
LINE
5
236
100
AcDbEntity
8
0
100
AcDbLine
62
9
6
CONTINUOUS
10
-46.0021568307
20
-31.9872792210
11
-46.0719717730
21
-31.9872792210
0
LINE
5
237
100
AcDbEntity
8
0
100
AcDbLine
62
7
6
CONTINUOUS
10
-29.0021568307
20
-22.4872792210
11
-29.0021568307
21
-21.4872792210
0
LINE
5
238
100
AcDbEntity
8
0
100
AcDbLine
62
7
6
CONTINUOUS
10
-29.0021568307
20
21.5127207790
11
-29.0021568307
21
22.5127207790
0
LINE
5
239
100
AcDbEntity
8
0
100
AcDbLine
62
9
6
CONTINUOUS
10
-50.0021568307
20
-27.9872792210
11
-49.9323418884
21
-27.9872792210
0
LINE
5
23A
100
AcDbEntity
8
0
100
AcDbLine
62
9
6
CONTINUOUS
10
49.9978431693
20
-27.9872792210
11
49.9280282270
21
-27.9872792210
0
LINE
5
23B
100
AcDbEntity
8
0
100
AcDbLine
62
9
6
CONTINUOUS
10
45.9978431693
20
-27.9872792210
11
46.0676581116
21
-27.9872792210
0
LINE
5
23C
100
AcDbEntity
8
0
100
AcDbLine
62
9
6
CONTINUOUS
10
-46.0021568307
20
-27.9872792210
11
-46.0719717730
21
-27.9872792210
0
LINE
5
23D
100
AcDbEntity
8
0
100
AcDbLine
62
7
6
CONTINUOUS
10
-23.5021568307
20
22.5127207790
11
-23.5021568307
21
21.5127207790
0
LINE
5
23E
100
AcDbEntity
8
0
100
AcDbLine
62
7
6
CONTINUOUS
10
-23.5021568307
20
-21.4872792210
11
-23.5021568307
21
-22.4872792210
0
LINE
5
23F
100
AcDbEntity
8
0
100
AcDbLine
62
7
6
CONTINUOUS
10
-21.5021568307
20
-22.4872792210
11
-21.5021568307
21
-21.4872792210
0
LINE
5
240
100
AcDbEntity
8
0
100
AcDbLine
62
7
6
CONTINUOUS
10
-21.5021568307
20
21.5127207790
11
-21.5021568307
21
22.5127207790
0
LINE
5
241
100
AcDbEntity
8
0
100
AcDbLine
62
7
6
CONTINUOUS
10
31.4978431693
20
-22.4872792210
11
30.9978431693
21
-22.4872792210
0
LINE
5
242
100
AcDbEntity
8
0
100
AcDbLine
62
7
6
CONTINUOUS
10
28.9978431693
20
-22.4872792210
11
23.4978431693
21
-22.4872792210
0
LINE
5
243
100
AcDbEntity
8
0
100
AcDbLine
62
7
6
CONTINUOUS
10
21.4978431693
20
-22.4872792210
11
15.9978431693
21
-22.4872792210
0
LINE
5
244
100
AcDbEntity
8
0
100
AcDbLine
62
7
6
CONTINUOUS
10
13.9978431693
20
-22.4872792210
11
13.4978431693
21
-22.4872792210
0
LINE
5
245
100
AcDbEntity
8
0
100
AcDbLine
62
7
6
CONTINUOUS
10
-13.5021568307
20
-22.4872792210
11
-14.0021568307
21
-22.4872792210
0
LINE
5
246
100
AcDbEntity
8
0
100
AcDbLine
62
7
6
CONTINUOUS
10
-16.0021568307
20
-22.4872792210
11
-21.5021568307
21
-22.4872792210
0
LINE
5
247
100
AcDbEntity
8
0
100
AcDbLine
62
7
6
CONTINUOUS
10
-23.5021568307
20
-22.4872792210
11
-29.0021568307
21
-22.4872792210
0
LINE
5
248
100
AcDbEntity
8
0
100
AcDbLine
62
7
6
CONTINUOUS
10
-31.0021568307
20
-22.4872792210
11
-31.5021568307
21
-22.4872792210
0
LINE
5
249
100
AcDbEntity
8
0
100
AcDbLine
62
7
6
CONTINUOUS
10
-31.5021568307
20
-21.4872792210
11
-31.0021568307
21
-21.4872792210
0
LINE
5
24A
100
AcDbEntity
8
0
100
AcDbLine
62
7
6
CONTINUOUS
10
-29.0021568307
20
-21.4872792210
11
-23.5021568307
21
-21.4872792210
0
LINE
5
24B
100
AcDbEntity
8
0
100
AcDbLine
62
7
6
CONTINUOUS
10
-21.5021568307
20
-21.4872792210
11
-16.0021568307
21
-21.4872792210
0
LINE
5
24C
100
AcDbEntity
8
0
100
AcDbLine
62
7
6
CONTINUOUS
10
-14.0021568307
20
-21.4872792210
11
-13.5021568307
21
-21.4872792210
0
LINE
5
24D
100
AcDbEntity
8
0
100
AcDbLine
62
7
6
CONTINUOUS
10
13.4978431693
20
-21.4872792210
11
13.9978431693
21
-21.4872792210
0
LINE
5
24E
100
AcDbEntity
8
0
100
AcDbLine
62
7
6
CONTINUOUS
10
15.9978431693
20
-21.4872792210
11
21.4978431693
21
-21.4872792210
0
LINE
5
24F
100
AcDbEntity
8
0
100
AcDbLine
62
7
6
CONTINUOUS
10
23.4978431693
20
-21.4872792210
11
28.9978431693
21
-21.4872792210
0
LINE
5
250
100
AcDbEntity
8
0
100
AcDbLine
62
7
6
CONTINUOUS
10
30.9978431693
20
-21.4872792210
11
31.4978431693
21
-21.4872792210
0
LINE
5
251
100
AcDbEntity
8
0
100
AcDbLine
62
7
6
CONTINUOUS
10
-16.0021568307
20
22.5127207790
11
-16.0021568307
21
21.5127207790
0
LINE
5
252
100
AcDbEntity
8
0
100
AcDbLine
62
7
6
CONTINUOUS
10
-16.0021568307
20
-21.4872792210
11
-16.0021568307
21
-22.4872792210
0
LINE
5
253
100
AcDbEntity
8
0
100
AcDbLine
62
7
6
CONTINUOUS
10
-37.5021568307
20
-15.9872792210
11
-36.5021568307
21
-15.9872792210
0
LINE
5
254
100
AcDbEntity
8
0
100
AcDbLine
62
7
6
CONTINUOUS
10
-8.5021568307
20
-15.9872792210
11
-7.5021568307
21
-15.9872792210
0
LINE
5
255
100
AcDbEntity
8
0
100
AcDbLine
62
7
6
CONTINUOUS
10
7.4978431693
20
-15.9872792210
11
8.4978431693
21
-15.9872792210
0
LINE
5
256
100
AcDbEntity
8
0
100
AcDbLine
62
7
6
CONTINUOUS
10
36.4978431693
20
-15.9872792210
11
37.4978431693
21
-15.9872792210
0
LINE
5
257
100
AcDbEntity
8
0
100
AcDbLine
62
7
6
CONTINUOUS
10
-14.0021568307
20
-22.4872792210
11
-14.0021568307
21
-21.4872792210
0
LINE
5
258
100
AcDbEntity
8
0
100
AcDbLine
62
7
6
CONTINUOUS
10
-14.0021568307
20
21.5127207790
11
-14.0021568307
21
22.5127207790
0
LINE
5
259
100
AcDbEntity
8
0
100
AcDbLine
62
9
6
CONTINUOUS
10
-61.0459011625
20
-41.0405368075
11
-60.2508780513
21
-40.2455136963
0
LINE
5
25A
100
AcDbEntity
8
0
100
AcDbLine
62
9
6
CONTINUOUS
10
-58.5554144172
20
-43.5310235528
11
-57.7603913061
21
-42.7360004416
0
LINE
5
25B
100
AcDbEntity
8
0
100
AcDbLine
62
7
6
CONTINUOUS
10
37.4978431693
20
-13.9872792210
11
36.4978431693
21
-13.9872792210
0
LINE
5
25C
100
AcDbEntity
8
0
100
AcDbLine
62
7
6
CONTINUOUS
10
8.4978431693
20
-13.9872792210
11
7.4978431693
21
-13.9872792210
0
LINE
5
25D
100
AcDbEntity
8
0
100
AcDbLine
62
7
6
CONTINUOUS
10
-7.5021568307
20
-13.9872792210
11
-8.5021568307
21
-13.9872792210
0
LINE
5
25E
100
AcDbEntity
8
0
100
AcDbLine
62
7
6
CONTINUOUS
10
-36.5021568307
20
-13.9872792210
11
-37.5021568307
21
-13.9872792210
0
LINE
5
25F
100
AcDbEntity
8
0
100
AcDbLine
62
9
6
CONTINUOUS
10
-61.0459011625
20
41.0659783655
11
-60.2508780513
21
40.2709552543
0
LINE
5
260
100
AcDbEntity
8
0
100
AcDbLine
62
9
6
CONTINUOUS
10
-58.5554144172
20
43.5564651108
11
-57.7603913061
21
42.7614419996
0
LINE
5
261
100
AcDbEntity
8
0
100
AcDbLine
62
7
6
CONTINUOUS
10
-8.5021568307
20
-16.4872792210
11
-8.5021568307
21
-15.9872792210
0
LINE
5
262
100
AcDbEntity
8
0
100
AcDbLine
62
7
6
CONTINUOUS
10
-8.5021568307
20
-13.9872792210
11
-8.5021568307
21
-5.9872792210
0
LINE
5
263
100
AcDbEntity
8
0
100
AcDbLine
62
7
6
CONTINUOUS
10
-8.5021568307
20
-3.9872792210
11
-8.5021568307
21
4.0127207790
0
LINE
5
264
100
AcDbEntity
8
0
100
AcDbLine
62
7
6
CONTINUOUS
10
-8.5021568307
20
6.0127207790
11
-8.5021568307
21
14.0127207790
0
LINE
5
265
100
AcDbEntity
8
0
100
AcDbLine
62
7
6
CONTINUOUS
10
-8.5021568307
20
16.0127207790
11
-8.5021568307
21
16.5127207790
0
LINE
5
266
100
AcDbEntity
8
0
100
AcDbLine
62
7
6
CONTINUOUS
10
-7.5021568307
20
16.5127207790
11
-7.5021568307
21
16.0127207790
0
LINE
5
267
100
AcDbEntity
8
0
100
AcDbLine
62
7
6
CONTINUOUS
10
-7.5021568307
20
14.0127207790
11
-7.5021568307
21
6.0127207790
0
LINE
5
268
100
AcDbEntity
8
0
100
AcDbLine
62
7
6
CONTINUOUS
10
-7.5021568307
20
4.0127207790
11
-7.5021568307
21
-3.9872792210
0
LINE
5
269
100
AcDbEntity
8
0
100
AcDbLine
62
7
6
CONTINUOUS
10
-7.5021568307
20
-5.9872792210
11
-7.5021568307
21
-13.9872792210
0
LINE
5
26A
100
AcDbEntity
8
0
100
AcDbLine
62
7
6
CONTINUOUS
10
-7.5021568307
20
-15.9872792210
11
-7.5021568307
21
-16.4872792210
0
LINE
5
26B
100
AcDbEntity
8
0
100
AcDbLine
62
7
6
CONTINUOUS
10
-37.5021568307
20
-5.9872792210
11
-36.5021568307
21
-5.9872792210
0
LINE
5
26C
100
AcDbEntity
8
0
100
AcDbLine
62
7
6
CONTINUOUS
10
-8.5021568307
20
-5.9872792210
11
-7.5021568307
21
-5.9872792210
0
LINE
5
26D
100
AcDbEntity
8
0
100
AcDbLine
62
7
6
CONTINUOUS
10
7.4978431693
20
-5.9872792210
11
8.4978431693
21
-5.9872792210
0
LINE
5
26E
100
AcDbEntity
8
0
100
AcDbLine
62
7
6
CONTINUOUS
10
36.4978431693
20
-5.9872792210
11
37.4978431693
21
-5.9872792210
0
LINE
5
26F
100
AcDbEntity
8
0
100
AcDbLine
62
7
6
CONTINUOUS
10
37.4978431693
20
-3.9872792210
11
36.4978431693
21
-3.9872792210
0
LINE
5
270
100
AcDbEntity
8
0
100
AcDbLine
62
7
6
CONTINUOUS
10
8.4978431693
20
-3.9872792210
11
7.4978431693
21
-3.9872792210
0
LINE
5
271
100
AcDbEntity
8
0
100
AcDbLine
62
7
6
CONTINUOUS
10
-7.5021568307
20
-3.9872792210
11
-8.5021568307
21
-3.9872792210
0
LINE
5
272
100
AcDbEntity
8
0
100
AcDbLine
62
7
6
CONTINUOUS
10
-36.5021568307
20
-3.9872792210
11
-37.5021568307
21
-3.9872792210
0
LINE
5
273
100
AcDbEntity
8
0
100
AcDbLine
62
7
6
CONTINUOUS
10
-37.5021568307
20
4.0127207790
11
-36.5021568307
21
4.0127207790
0
LINE
5
274
100
AcDbEntity
8
0
100
AcDbLine
62
7
6
CONTINUOUS
10
-8.5021568307
20
4.0127207790
11
-7.5021568307
21
4.0127207790
0
LINE
5
275
100
AcDbEntity
8
0
100
AcDbLine
62
7
6
CONTINUOUS
10
7.4978431693
20
4.0127207790
11
8.4978431693
21
4.0127207790
0
LINE
5
276
100
AcDbEntity
8
0
100
AcDbLine
62
7
6
CONTINUOUS
10
36.4978431693
20
4.0127207790
11
37.4978431693
21
4.0127207790
0
LINE
5
277
100
AcDbEntity
8
0
100
AcDbLine
62
7
6
CONTINUOUS
10
7.4978431693
20
-16.4872792210
11
7.4978431693
21
-15.9872792210
0
LINE
5
278
100
AcDbEntity
8
0
100
AcDbLine
62
7
6
CONTINUOUS
10
7.4978431693
20
-13.9872792210
11
7.4978431693
21
-5.9872792210
0
LINE
5
279
100
AcDbEntity
8
0
100
AcDbLine
62
7
6
CONTINUOUS
10
7.4978431693
20
-3.9872792210
11
7.4978431693
21
4.0127207790
0
LINE
5
27A
100
AcDbEntity
8
0
100
AcDbLine
62
7
6
CONTINUOUS
10
7.4978431693
20
6.0127207790
11
7.4978431693
21
14.0127207790
0
LINE
5
27B
100
AcDbEntity
8
0
100
AcDbLine
62
7
6
CONTINUOUS
10
7.4978431693
20
16.0127207790
11
7.4978431693
21
16.5127207790
0
LINE
5
27C
100
AcDbEntity
8
0
100
AcDbLine
62
7
6
CONTINUOUS
10
8.4978431693
20
16.5127207790
11
8.4978431693
21
16.0127207790
0
LINE
5
27D
100
AcDbEntity
8
0
100
AcDbLine
62
7
6
CONTINUOUS
10
8.4978431693
20
14.0127207790
11
8.4978431693
21
6.0127207790
0
LINE
5
27E
100
AcDbEntity
8
0
100
AcDbLine
62
7
6
CONTINUOUS
10
8.4978431693
20
4.0127207790
11
8.4978431693
21
-3.9872792210
0
LINE
5
27F
100
AcDbEntity
8
0
100
AcDbLine
62
7
6
CONTINUOUS
10
8.4978431693
20
-5.9872792210
11
8.4978431693
21
-13.9872792210
0
LINE
5
280
100
AcDbEntity
8
0
100
AcDbLine
62
7
6
CONTINUOUS
10
8.4978431693
20
-15.9872792210
11
8.4978431693
21
-16.4872792210
0
LINE
5
281
100
AcDbEntity
8
0
100
AcDbLine
62
9
6
CONTINUOUS
10
58.5511007558
20
43.5564651108
11
57.7560776446
21
42.7614419996
0
LINE
5
282
100
AcDbEntity
8
0
100
AcDbLine
62
7
6
CONTINUOUS
10
37.4978431693
20
6.0127207790
11
36.4978431693
21
6.0127207790
0
LINE
5
283
100
AcDbEntity
8
0
100
AcDbLine
62
7
6
CONTINUOUS
10
8.4978431693
20
6.0127207790
11
7.4978431693
21
6.0127207790
0
LINE
5
284
100
AcDbEntity
8
0
100
AcDbLine
62
7
6
CONTINUOUS
10
-7.5021568307
20
6.0127207790
11
-8.5021568307
21
6.0127207790
0
LINE
5
285
100
AcDbEntity
8
0
100
AcDbLine
62
7
6
CONTINUOUS
10
-36.5021568307
20
6.0127207790
11
-37.5021568307
21
6.0127207790
0
LINE
5
286
100
AcDbEntity
8
0
100
AcDbLine
62
9
6
CONTINUOUS
10
58.5511007558
20
-43.5310235528
11
57.7560776446
21
-42.7360004416
0
LINE
5
287
100
AcDbEntity
8
0
100
AcDbLine
62
7
6
CONTINUOUS
10
13.9978431693
20
-22.4872792210
11
13.9978431693
21
-21.4872792210
0
LINE
5
288
100
AcDbEntity
8
0
100
AcDbLine
62
7
6
CONTINUOUS
10
13.9978431693
20
21.5127207790
11
13.9978431693
21
22.5127207790
0
LINE
5
289
100
AcDbEntity
8
0
100
AcDbLine
62
7
6
CONTINUOUS
10
15.9978431693
20
22.5127207790
11
15.9978431693
21
21.5127207790
0
LINE
5
28A
100
AcDbEntity
8
0
100
AcDbLine
62
7
6
CONTINUOUS
10
15.9978431693
20
-21.4872792210
11
15.9978431693
21
-22.4872792210
0
LINE
5
28B
100
AcDbEntity
8
0
100
AcDbLine
62
9
6
CONTINUOUS
10
61.0415875011
20
41.0659783655
11
60.2465643899
21
40.2709552543
0
LINE
5
28C
100
AcDbEntity
8
0
100
AcDbLine
62
7
6
CONTINUOUS
10
-37.5021568307
20
14.0127207790
11
-36.5021568307
21
14.0127207790
0
LINE
5
28D
100
AcDbEntity
8
0
100
AcDbLine
62
7
6
CONTINUOUS
10
-8.5021568307
20
14.0127207790
11
-7.5021568307
21
14.0127207790
0
LINE
5
28E
100
AcDbEntity
8
0
100
AcDbLine
62
7
6
CONTINUOUS
10
7.4978431693
20
14.0127207790
11
8.4978431693
21
14.0127207790
0
LINE
5
28F
100
AcDbEntity
8
0
100
AcDbLine
62
7
6
CONTINUOUS
10
36.4978431693
20
14.0127207790
11
37.4978431693
21
14.0127207790
0
LINE
5
290
100
AcDbEntity
8
0
100
AcDbLine
62
7
6
CONTINUOUS
10
37.4978431693
20
16.0127207790
11
36.4978431693
21
16.0127207790
0
LINE
5
291
100
AcDbEntity
8
0
100
AcDbLine
62
7
6
CONTINUOUS
10
8.4978431693
20
16.0127207790
11
7.4978431693
21
16.0127207790
0
LINE
5
292
100
AcDbEntity
8
0
100
AcDbLine
62
7
6
CONTINUOUS
10
-7.5021568307
20
16.0127207790
11
-8.5021568307
21
16.0127207790
0
LINE
5
293
100
AcDbEntity
8
0
100
AcDbLine
62
7
6
CONTINUOUS
10
-36.5021568307
20
16.0127207790
11
-37.5021568307
21
16.0127207790
0
LINE
5
294
100
AcDbEntity
8
0
100
AcDbLine
62
9
6
CONTINUOUS
10
61.0415875011
20
-41.0405368075
11
60.2465643899
21
-40.2455136963
0
LINE
5
295
100
AcDbEntity
8
0
100
AcDbLine
62
7
6
CONTINUOUS
10
21.4978431693
20
-22.4872792210
11
21.4978431693
21
-21.4872792210
0
LINE
5
296
100
AcDbEntity
8
0
100
AcDbLine
62
7
6
CONTINUOUS
10
21.4978431693
20
21.5127207790
11
21.4978431693
21
22.5127207790
0
LINE
5
297
100
AcDbEntity
8
0
100
AcDbLine
62
7
6
CONTINUOUS
10
31.4978431693
20
21.5127207790
11
30.9978431693
21
21.5127207790
0
LINE
5
298
100
AcDbEntity
8
0
100
AcDbLine
62
7
6
CONTINUOUS
10
28.9978431693
20
21.5127207790
11
23.4978431693
21
21.5127207790
0
LINE
5
299
100
AcDbEntity
8
0
100
AcDbLine
62
7
6
CONTINUOUS
10
21.4978431693
20
21.5127207790
11
15.9978431693
21
21.5127207790
0
LINE
5
29A
100
AcDbEntity
8
0
100
AcDbLine
62
7
6
CONTINUOUS
10
13.9978431693
20
21.5127207790
11
13.4978431693
21
21.5127207790
0
LINE
5
29B
100
AcDbEntity
8
0
100
AcDbLine
62
7
6
CONTINUOUS
10
-13.5021568307
20
21.5127207790
11
-14.0021568307
21
21.5127207790
0
LINE
5
29C
100
AcDbEntity
8
0
100
AcDbLine
62
7
6
CONTINUOUS
10
-16.0021568307
20
21.5127207790
11
-21.5021568307
21
21.5127207790
0
LINE
5
29D
100
AcDbEntity
8
0
100
AcDbLine
62
7
6
CONTINUOUS
10
-23.5021568307
20
21.5127207790
11
-29.0021568307
21
21.5127207790
0
LINE
5
29E
100
AcDbEntity
8
0
100
AcDbLine
62
7
6
CONTINUOUS
10
-31.0021568307
20
21.5127207790
11
-31.5021568307
21
21.5127207790
0
LINE
5
29F
100
AcDbEntity
8
0
100
AcDbLine
62
7
6
CONTINUOUS
10
23.4978431693
20
22.5127207790
11
23.4978431693
21
21.5127207790
0
LINE
5
2A0
100
AcDbEntity
8
0
100
AcDbLine
62
7
6
CONTINUOUS
10
23.4978431693
20
-21.4872792210
11
23.4978431693
21
-22.4872792210
0
LINE
5
2A1
100
AcDbEntity
8
0
100
AcDbLine
62
7
6
CONTINUOUS
10
-31.5021568307
20
22.5127207790
11
-31.0021568307
21
22.5127207790
0
LINE
5
2A2
100
AcDbEntity
8
0
100
AcDbLine
62
7
6
CONTINUOUS
10
-29.0021568307
20
22.5127207790
11
-23.5021568307
21
22.5127207790
0
LINE
5
2A3
100
AcDbEntity
8
0
100
AcDbLine
62
7
6
CONTINUOUS
10
-21.5021568307
20
22.5127207790
11
-16.0021568307
21
22.5127207790
0
LINE
5
2A4
100
AcDbEntity
8
0
100
AcDbLine
62
7
6
CONTINUOUS
10
-14.0021568307
20
22.5127207790
11
-13.5021568307
21
22.5127207790
0
LINE
5
2A5
100
AcDbEntity
8
0
100
AcDbLine
62
7
6
CONTINUOUS
10
13.4978431693
20
22.5127207790
11
13.9978431693
21
22.5127207790
0
LINE
5
2A6
100
AcDbEntity
8
0
100
AcDbLine
62
7
6
CONTINUOUS
10
15.9978431693
20
22.5127207790
11
21.4978431693
21
22.5127207790
0
LINE
5
2A7
100
AcDbEntity
8
0
100
AcDbLine
62
7
6
CONTINUOUS
10
23.4978431693
20
22.5127207790
11
28.9978431693
21
22.5127207790
0
LINE
5
2A8
100
AcDbEntity
8
0
100
AcDbLine
62
7
6
CONTINUOUS
10
30.9978431693
20
22.5127207790
11
31.4978431693
21
22.5127207790
0
LINE
5
2A9
100
AcDbEntity
8
0
100
AcDbLine
62
7
6
CONTINUOUS
10
-50.0021568307
20
23.5127207790
11
-46.0021568307
21
23.5127207790
0
LINE
5
2AA
100
AcDbEntity
8
0
100
AcDbLine
62
7
6
CONTINUOUS
10
45.9978431693
20
23.5127207790
11
49.9978431693
21
23.5127207790
0
LINE
5
2AB
100
AcDbEntity
8
0
100
AcDbLine
62
7
6
CONTINUOUS
10
49.9978431693
20
25.5127207790
11
45.9978431693
21
25.5127207790
0
LINE
5
2AC
100
AcDbEntity
8
0
100
AcDbLine
62
7
6
CONTINUOUS
10
-46.0021568307
20
25.5127207790
11
-50.0021568307
21
25.5127207790
0
LINE
5
2AD
100
AcDbEntity
8
0
100
AcDbLine
62
7
6
CONTINUOUS
10
28.9978431693
20
-22.4872792210
11
28.9978431693
21
-21.4872792210
0
LINE
5
2AE
100
AcDbEntity
8
0
100
AcDbLine
62
7
6
CONTINUOUS
10
28.9978431693
20
21.5127207790
11
28.9978431693
21
22.5127207790
0
LINE
5
2AF
100
AcDbEntity
8
0
100
AcDbLine
62
7
6
CONTINUOUS
10
30.9978431693
20
22.5127207790
11
30.9978431693
21
21.5127207790
0
LINE
5
2B0
100
AcDbEntity
8
0
100
AcDbLine
62
7
6
CONTINUOUS
10
30.9978431693
20
-21.4872792210
11
30.9978431693
21
-22.4872792210
0
LINE
5
2B1
100
AcDbEntity
8
0
100
AcDbLine
62
7
6
CONTINUOUS
10
-50.0021568307
20
28.0127207790
11
-46.0021568307
21
28.0127207790
0
LINE
5
2B2
100
AcDbEntity
8
0
100
AcDbLine
62
7
6
CONTINUOUS
10
45.9978431693
20
28.0127207790
11
49.9978431693
21
28.0127207790
0
LINE
5
2B3
100
AcDbEntity
8
0
100
AcDbLine
62
7
6
CONTINUOUS
10
-50.0021568307
20
28.0825357213
11
-46.0021568307
21
28.0825357213
0
LINE
5
2B4
100
AcDbEntity
8
0
100
AcDbLine
62
7
6
CONTINUOUS
10
45.9978431693
20
28.0825357213
11
49.9978431693
21
28.0825357213
0
LINE
5
2B5
100
AcDbEntity
8
0
100
AcDbLine
62
7
6
CONTINUOUS
10
49.9978431693
20
31.9429058367
11
45.9978431693
21
31.9429058367
0
LINE
5
2B6
100
AcDbEntity
8
0
100
AcDbLine
62
7
6
CONTINUOUS
10
-46.0021568307
20
31.9429058367
11
-50.0021568307
21
31.9429058367
0
LINE
5
2B7
100
AcDbEntity
8
0
100
AcDbLine
62
7
6
CONTINUOUS
10
49.9978431693
20
32.0127207790
11
45.9978431693
21
32.0127207790
0
LINE
5
2B8
100
AcDbEntity
8
0
100
AcDbLine
62
7
6
CONTINUOUS
10
-46.0021568307
20
32.0127207790
11
-50.0021568307
21
32.0127207790
0
LINE
5
2B9
100
AcDbEntity
8
0
100
AcDbLine
62
7
6
CONTINUOUS
10
36.4978431693
20
-16.4872792210
11
36.4978431693
21
-15.9872792210
0
LINE
5
2BA
100
AcDbEntity
8
0
100
AcDbLine
62
7
6
CONTINUOUS
10
36.4978431693
20
-13.9872792210
11
36.4978431693
21
-5.9872792210
0
LINE
5
2BB
100
AcDbEntity
8
0
100
AcDbLine
62
7
6
CONTINUOUS
10
36.4978431693
20
-3.9872792210
11
36.4978431693
21
4.0127207790
0
LINE
5
2BC
100
AcDbEntity
8
0
100
AcDbLine
62
7
6
CONTINUOUS
10
36.4978431693
20
6.0127207790
11
36.4978431693
21
14.0127207790
0
LINE
5
2BD
100
AcDbEntity
8
0
100
AcDbLine
62
7
6
CONTINUOUS
10
36.4978431693
20
16.0127207790
11
36.4978431693
21
16.5127207790
0
LINE
5
2BE
100
AcDbEntity
8
0
100
AcDbLine
62
7
6
CONTINUOUS
10
-50.0021568307
20
34.5127207790
11
-46.0021568307
21
34.5127207790
0
LINE
5
2BF
100
AcDbEntity
8
0
100
AcDbLine
62
7
6
CONTINUOUS
10
45.9978431693
20
34.5127207790
11
49.9978431693
21
34.5127207790
0
LINE
5
2C0
100
AcDbEntity
8
0
100
AcDbLine
62
7
6
CONTINUOUS
10
49.9978431693
20
36.5127207790
11
45.9978431693
21
36.5127207790
0
LINE
5
2C1
100
AcDbEntity
8
0
100
AcDbLine
62
7
6
CONTINUOUS
10
-46.0021568307
20
36.5127207790
11
-50.0021568307
21
36.5127207790
0
LINE
5
2C2
100
AcDbEntity
8
0
100
AcDbLine
62
7
6
CONTINUOUS
10
37.4978431693
20
16.5127207790
11
37.4978431693
21
16.0127207790
0
LINE
5
2C3
100
AcDbEntity
8
0
100
AcDbLine
62
7
6
CONTINUOUS
10
37.4978431693
20
14.0127207790
11
37.4978431693
21
6.0127207790
0
LINE
5
2C4
100
AcDbEntity
8
0
100
AcDbLine
62
7
6
CONTINUOUS
10
37.4978431693
20
4.0127207790
11
37.4978431693
21
-3.9872792210
0
LINE
5
2C5
100
AcDbEntity
8
0
100
AcDbLine
62
7
6
CONTINUOUS
10
37.4978431693
20
-5.9872792210
11
37.4978431693
21
-13.9872792210
0
LINE
5
2C6
100
AcDbEntity
8
0
100
AcDbLine
62
7
6
CONTINUOUS
10
37.4978431693
20
-15.9872792210
11
37.4978431693
21
-16.4872792210
0
LINE
5
2C7
100
AcDbEntity
8
0
100
AcDbLine
62
7
6
CONTINUOUS
10
41.4978431693
20
-27.9872792210
11
41.4978431693
21
-31.9872792210
0
LINE
5
2C8
100
AcDbEntity
8
0
100
AcDbLine
62
9
6
CONTINUOUS
10
59.2503696918
20
40.2709552543
11
60.2465643899
21
40.2709552543
0
LINE
5
2C9
100
AcDbEntity
8
0
100
AcDbLine
62
9
6
CONTINUOUS
10
-59.2546833532
20
40.2709552543
11
-60.2508780513
21
40.2709552543
0
LINE
5
2CA
100
AcDbEntity
8
0
100
AcDbLine
62
9
6
CONTINUOUS
10
57.7560776446
20
41.7652473015
11
-57.7603913061
21
41.7652473015
0
LINE
5
2CB
100
AcDbEntity
8
0
100
AcDbLine
62
7
6
CONTINUOUS
10
43.4978431693
20
-31.9872792210
11
43.4978431693
21
-27.9872792210
0
LINE
5
2CC
100
AcDbEntity
8
0
100
AcDbLine
62
9
6
CONTINUOUS
10
45.9978431693
20
32.0127207790
11
45.9978431693
21
31.9429058367
0
LINE
5
2CD
100
AcDbEntity
8
0
100
AcDbLine
62
7
6
CONTINUOUS
10
45.9978431693
20
-27.9872792210
11
45.9978431693
21
-31.9872792210
0
LINE
5
2CE
100
AcDbEntity
8
0
100
AcDbLine
62
9
6
CONTINUOUS
10
45.9978431693
20
28.0127207790
11
45.9978431693
21
28.0825357213
0
LINE
5
2CF
100
AcDbEntity
8
0
100
AcDbLine
62
7
6
CONTINUOUS
10
46.0676581116
20
-27.9872792210
11
46.0676581116
21
-31.9872792210
0
LINE
5
2D0
100
AcDbEntity
8
0
100
AcDbLine
62
9
6
CONTINUOUS
10
57.7560776446
20
42.7614419996
11
-57.7603913061
21
42.7614419996
0
LINE
5
2D1
100
AcDbEntity
8
0
100
AcDbLine
62
7
6
CONTINUOUS
10
-58.5554144172
20
43.5564651108
11
58.5511007558
21
43.5564651108
0
LINE
5
2D2
100
AcDbEntity
8
0
100
AcDbLine
62
7
6
CONTINUOUS
10
49.9280282270
20
-31.9872792210
11
49.9280282270
21
-27.9872792210
0
LINE
5
2D3
100
AcDbEntity
8
0
100
AcDbLine
62
9
6
CONTINUOUS
10
49.9978431693
20
32.0127207790
11
49.9978431693
21
31.9429058367
0
LINE
5
2D4
100
AcDbEntity
8
0
100
AcDbLine
62
7
6
CONTINUOUS
10
49.9978431693
20
-31.9872792210
11
49.9978431693
21
-27.9872792210
0
LINE
5
2D5
100
AcDbEntity
8
0
100
AcDbLine
62
9
6
CONTINUOUS
10
49.9978431693
20
28.0127207790
11
49.9978431693
21
28.0825357213
0
LINE
5
2D6
100
AcDbEntity
8
0
100
AcDbLine
62
7
6
CONTINUOUS
10
52.4978431693
20
-27.9872792210
11
52.4978431693
21
-31.9872792210
0
LINE
5
2D7
100
AcDbEntity
8
0
100
AcDbLine
62
7
6
CONTINUOUS
10
48.5049139523
20
14.0342614500
11
48.8030496509
21
13.4589696657
0
LINE
5
2D8
100
AcDbEntity
8
0
100
AcDbLine
62
7
6
CONTINUOUS
10
47.4907723863
20
15.9911801080
11
47.1926366877
21
16.5664718923
0
LINE
5
2D9
100
AcDbEntity
8
0
100
AcDbLine
62
7
6
CONTINUOUS
10
54.4978431693
20
-31.9872792210
11
54.4978431693
21
-27.9872792210
0
LINE
5
2DA
100
AcDbEntity
8
0
100
AcDbLine
62
9
6
CONTINUOUS
10
57.7560776446
20
-41.7398057435
11
57.7560776446
21
-42.7360004416
0
LINE
5
2DB
100
AcDbEntity
8
0
100
AcDbLine
62
9
6
CONTINUOUS
10
57.7560776446
20
41.7652473015
11
57.7560776446
21
42.7614419996
0
LINE
5
2DC
100
AcDbEntity
8
0
100
AcDbLine
62
9
6
CONTINUOUS
10
59.2503696918
20
-40.2455136963
11
59.2503696918
21
40.2709552543
0
LINE
5
2DD
100
AcDbEntity
8
0
100
AcDbLine
62
9
6
CONTINUOUS
10
60.2465643899
20
-40.2455136963
11
60.2465643899
21
40.2709552543
0
LINE
5
2DE
100
AcDbEntity
8
0
100
AcDbLine
62
7
6
CONTINUOUS
10
61.0415875011
20
41.0659783655
11
61.0415875011
21
-41.0405368075
0
ARC
5
2DF
100
AcDbEntity
8
0
100
AcDbCircle
62
7
6
CONTINUOUS
10
47.9978431693
20
15.0127207790
40
1.1500000000
100
AcDbArc
50
344.7058737163
51
57.1759743229
0
ARC
5
2E0
100
AcDbEntity
8
0
100
AcDbCircle
62
7
6
CONTINUOUS
10
47.9978431693
20
15.0127207790
40
1.1500000000
100
AcDbArc
50
164.7058737163
51
237.1759743229
0
CIRCLE
5
2E1
100
AcDbEntity
8
0
100
AcDbCircle
62
7
6
CONTINUOUS
10
47.9978431693
20
15.0127207790
40
1.0000000000
0
ARC
5
2E2
100
AcDbEntity
8
0
100
AcDbCircle
62
7
6
CONTINUOUS
10
-48.0021568307
20
-14.9872792210
40
1.1500000000
100
AcDbArc
50
344.7058737163
51
57.1759743229
0
ARC
5
2E3
100
AcDbEntity
8
0
100
AcDbCircle
62
7
6
CONTINUOUS
10
-48.0021568307
20
-14.9872792210
40
1.1500000000
100
AcDbArc
50
164.7058737163
51
237.1759743229
0
CIRCLE
5
2E4
100
AcDbEntity
8
0
100
AcDbCircle
62
7
6
CONTINUOUS
10
-48.0021568307
20
-14.9872792210
40
1.0000000000
0
ARC
5
2E5
100
AcDbEntity
8
0
100
AcDbCircle
62
7
6
CONTINUOUS
10
-48.0021568307
20
-31.9872792210
40
1.9301850577
100
AcDbArc
50
180.0000000000
51
360.0000000000
0
ARC
5
2E6
100
AcDbEntity
8
0
100
AcDbCircle
62
7
6
CONTINUOUS
10
-48.0021568307
20
-27.9872792210
40
1.9301850577
100
AcDbArc
50
0.0000000000
51
180.0000000000
0
ARC
5
2E7
100
AcDbEntity
8
0
100
AcDbCircle
62
7
6
CONTINUOUS
10
47.9978431693
20
-31.9872792210
40
1.9301850577
100
AcDbArc
50
180.0000000000
51
360.0000000000
0
ARC
5
2E8
100
AcDbEntity
8
0
100
AcDbCircle
62
7
6
CONTINUOUS
10
47.9978431693
20
-27.9872792210
40
1.9301850577
100
AcDbArc
50
0.0000000000
51
180.0000000000
0
ARC
5
2E9
100
AcDbEntity
8
0
100
AcDbCircle
62
7
6
CONTINUOUS
10
-50.0021568307
20
30.0127207790
40
1.9301850577
100
AcDbArc
50
90.0000000000
51
270.0000000000
0
ARC
5
2EA
100
AcDbEntity
8
0
100
AcDbCircle
62
7
6
CONTINUOUS
10
-46.0021568307
20
30.0127207790
40
1.9301850577
100
AcDbArc
50
270.0000000000
51
90.0000000000
0
ARC
5
2EB
100
AcDbEntity
8
0
100
AcDbCircle
62
7
6
CONTINUOUS
10
49.9978431693
20
30.0127207790
40
1.9301850577
100
AcDbArc
50
270.0000000000
51
90.0000000000
0
ARC
5
2EC
100
AcDbEntity
8
0
100
AcDbCircle
62
7
6
CONTINUOUS
10
45.9978431693
20
30.0127207790
40
1.9301850577
100
AcDbArc
50
90.0000000000
51
270.0000000000
0
ARC
5
2ED
100
AcDbEntity
8
0
100
AcDbCircle
62
7
6
CONTINUOUS
10
13.4978431693
20
-16.4872792210
40
6.0000000000
100
AcDbArc
50
180.0000000000
51
270.0000000000
0
ARC
5
2EE
100
AcDbEntity
8
0
100
AcDbCircle
62
7
6
CONTINUOUS
10
13.4978431693
20
-16.4872792210
40
5.0000000000
100
AcDbArc
50
180.0000000000
51
270.0000000000
0
ARC
5
2EF
100
AcDbEntity
8
0
100
AcDbCircle
62
7
6
CONTINUOUS
10
31.4978431693
20
16.5127207790
40
6.0000000000
100
AcDbArc
50
0.0000000000
51
90.0000000000
0
ARC
5
2F0
100
AcDbEntity
8
0
100
AcDbCircle
62
7
6
CONTINUOUS
10
31.4978431693
20
16.5127207790
40
5.0000000000
100
AcDbArc
50
0.0000000000
51
90.0000000000
0
ARC
5
2F1
100
AcDbEntity
8
0
100
AcDbCircle
62
7
6
CONTINUOUS
10
-13.5021568307
20
16.5127207790
40
6.0000000000
100
AcDbArc
50
0.0000000000
51
90.0000000000
0
ARC
5
2F2
100
AcDbEntity
8
0
100
AcDbCircle
62
7
6
CONTINUOUS
10
-13.5021568307
20
16.5127207790
40
5.0000000000
100
AcDbArc
50
0.0000000000
51
90.0000000000
0
ARC
5
2F3
100
AcDbEntity
8
0
100
AcDbCircle
62
7
6
CONTINUOUS
10
-31.5021568307
20
-16.4872792210
40
6.0000000000
100
AcDbArc
50
180.0000000000
51
270.0000000000
0
ARC
5
2F4
100
AcDbEntity
8
0
100
AcDbCircle
62
7
6
CONTINUOUS
10
-31.5021568307
20
-16.4872792210
40
5.0000000000
100
AcDbArc
50
180.0000000000
51
270.0000000000
0
ARC
5
2F5
100
AcDbEntity
8
0
100
AcDbCircle
62
7
6
CONTINUOUS
10
-48.0021568307
20
-27.9872792210
40
2.0000000000
100
AcDbArc
50
0.0000000000
51
180.0000000000
0
ARC
5
2F6
100
AcDbEntity
8
0
100
AcDbCircle
62
7
6
CONTINUOUS
10
-48.0021568307
20
-31.9872792210
40
2.0000000000
100
AcDbArc
50
180.0000000000
51
360.0000000000
0
ARC
5
2F7
100
AcDbEntity
8
0
100
AcDbCircle
62
7
6
CONTINUOUS
10
-46.0021568307
20
30.0127207790
40
2.0000000000
100
AcDbArc
50
270.0000000000
51
90.0000000000
0
ARC
5
2F8
100
AcDbEntity
8
0
100
AcDbCircle
62
7
6
CONTINUOUS
10
-50.0021568307
20
30.0127207790
40
2.0000000000
100
AcDbArc
50
90.0000000000
51
270.0000000000
0
ARC
5
2F9
100
AcDbEntity
8
0
100
AcDbCircle
62
7
6
CONTINUOUS
10
45.9978431693
20
30.0127207790
40
2.0000000000
100
AcDbArc
50
90.0000000000
51
270.0000000000
0
ARC
5
2FA
100
AcDbEntity
8
0
100
AcDbCircle
62
7
6
CONTINUOUS
10
49.9978431693
20
30.0127207790
40
2.0000000000
100
AcDbArc
50
270.0000000000
51
90.0000000000
0
ARC
5
2FB
100
AcDbEntity
8
0
100
AcDbCircle
62
7
6
CONTINUOUS
10
47.9978431693
20
-27.9872792210
40
2.0000000000
100
AcDbArc
50
0.0000000000
51
180.0000000000
0
ARC
5
2FC
100
AcDbEntity
8
0
100
AcDbCircle
62
7
6
CONTINUOUS
10
47.9978431693
20
-31.9872792210
40
2.0000000000
100
AcDbArc
50
180.0000000000
51
360.0000000000
0
ARC
5
2FD
100
AcDbEntity
8
0
100
AcDbCircle
62
7
6
CONTINUOUS
10
-31.5021568307
20
16.5127207790
40
5.0000000000
100
AcDbArc
50
90.0000000000
51
180.0000000000
0
ARC
5
2FE
100
AcDbEntity
8
0
100
AcDbCircle
62
7
6
CONTINUOUS
10
-31.5021568307
20
16.5127207790
40
6.0000000000
100
AcDbArc
50
90.0000000000
51
180.0000000000
0
ARC
5
2FF
100
AcDbEntity
8
0
100
AcDbCircle
62
7
6
CONTINUOUS
10
-13.5021568307
20
-16.4872792210
40
5.0000000000
100
AcDbArc
50
270.0000000000
51
360.0000000000
0
ARC
5
300
100
AcDbEntity
8
0
100
AcDbCircle
62
7
6
CONTINUOUS
10
-13.5021568307
20
-16.4872792210
40
6.0000000000
100
AcDbArc
50
270.0000000000
51
360.0000000000
0
ARC
5
301
100
AcDbEntity
8
0
100
AcDbCircle
62
7
6
CONTINUOUS
10
31.4978431693
20
-16.4872792210
40
5.0000000000
100
AcDbArc
50
270.0000000000
51
360.0000000000
0
ARC
5
302
100
AcDbEntity
8
0
100
AcDbCircle
62
7
6
CONTINUOUS
10
31.4978431693
20
-16.4872792210
40
6.0000000000
100
AcDbArc
50
270.0000000000
51
360.0000000000
0
ARC
5
303
100
AcDbEntity
8
0
100
AcDbCircle
62
7
6
CONTINUOUS
10
13.4978431693
20
16.5127207790
40
5.0000000000
100
AcDbArc
50
90.0000000000
51
180.0000000000
0
ARC
5
304
100
AcDbEntity
8
0
100
AcDbCircle
62
7
6
CONTINUOUS
10
13.4978431693
20
16.5127207790
40
6.0000000000
100
AcDbArc
50
90.0000000000
51
180.0000000000
0
ARC
5
305
100
AcDbEntity
8
0
100
AcDbCircle
62
7
6
CONTINUOUS
10
-46.0021568307
20
30.0127207790
40
6.5000000000
100
AcDbArc
50
270.0000000000
51
90.0000000000
0
ARC
5
306
100
AcDbEntity
8
0
100
AcDbCircle
62
7
6
CONTINUOUS
10
-50.0021568307
20
30.0127207790
40
6.5000000000
100
AcDbArc
50
90.0000000000
51
270.0000000000
0
ARC
5
307
100
AcDbEntity
8
0
100
AcDbCircle
62
7
6
CONTINUOUS
10
-46.0021568307
20
30.0127207790
40
4.5000000000
100
AcDbArc
50
270.0000000000
51
90.0000000000
0
ARC
5
308
100
AcDbEntity
8
0
100
AcDbCircle
62
7
6
CONTINUOUS
10
-50.0021568307
20
30.0127207790
40
4.5000000000
100
AcDbArc
50
90.0000000000
51
270.0000000000
0
ARC
5
309
100
AcDbEntity
8
0
100
AcDbCircle
62
7
6
CONTINUOUS
10
-48.0021568307
20
-27.9872792210
40
6.5000000000
100
AcDbArc
50
0.0000000000
51
180.0000000000
0
ARC
5
30A
100
AcDbEntity
8
0
100
AcDbCircle
62
7
6
CONTINUOUS
10
-48.0021568307
20
-31.9872792210
40
6.5000000000
100
AcDbArc
50
180.0000000000
51
360.0000000000
0
ARC
5
30B
100
AcDbEntity
8
0
100
AcDbCircle
62
7
6
CONTINUOUS
10
-48.0021568307
20
-27.9872792210
40
4.5000000000
100
AcDbArc
50
0.0000000000
51
180.0000000000
0
ARC
5
30C
100
AcDbEntity
8
0
100
AcDbCircle
62
7
6
CONTINUOUS
10
-48.0021568307
20
-31.9872792210
40
4.5000000000
100
AcDbArc
50
180.0000000000
51
360.0000000000
0
ARC
5
30D
100
AcDbEntity
8
0
100
AcDbCircle
62
7
6
CONTINUOUS
10
49.9978431693
20
30.0127207790
40
6.5000000000
100
AcDbArc
50
270.0000000000
51
90.0000000000
0
ARC
5
30E
100
AcDbEntity
8
0
100
AcDbCircle
62
7
6
CONTINUOUS
10
45.9978431693
20
30.0127207790
40
6.5000000000
100
AcDbArc
50
90.0000000000
51
270.0000000000
0
ARC
5
30F
100
AcDbEntity
8
0
100
AcDbCircle
62
7
6
CONTINUOUS
10
49.9978431693
20
30.0127207790
40
4.5000000000
100
AcDbArc
50
270.0000000000
51
90.0000000000
0
ARC
5
310
100
AcDbEntity
8
0
100
AcDbCircle
62
7
6
CONTINUOUS
10
45.9978431693
20
30.0127207790
40
4.5000000000
100
AcDbArc
50
90.0000000000
51
270.0000000000
0
ARC
5
311
100
AcDbEntity
8
0
100
AcDbCircle
62
7
6
CONTINUOUS
10
47.9978431693
20
-27.9872792210
40
6.5000000000
100
AcDbArc
50
0.0000000000
51
180.0000000000
0
ARC
5
312
100
AcDbEntity
8
0
100
AcDbCircle
62
7
6
CONTINUOUS
10
47.9978431693
20
-31.9872792210
40
6.5000000000
100
AcDbArc
50
180.0000000000
51
360.0000000000
0
ARC
5
313
100
AcDbEntity
8
0
100
AcDbCircle
62
7
6
CONTINUOUS
10
47.9978431693
20
-27.9872792210
40
4.5000000000
100
AcDbArc
50
0.0000000000
51
180.0000000000
0
ARC
5
314
100
AcDbEntity
8
0
100
AcDbCircle
62
7
6
CONTINUOUS
10
47.9978431693
20
-31.9872792210
40
4.5000000000
100
AcDbArc
50
180.0000000000
51
360.0000000000
0
ARC
5
315
100
AcDbEntity
8
0
100
AcDbCircle
62
7
6
CONTINUOUS
10
-48.0021568307
20
-14.9872792210
40
1.4976387933
100
AcDbArc
50
317.2394913135
51
360.0000000000
0
ARC
5
316
100
AcDbEntity
8
0
100
AcDbCircle
62
7
6
CONTINUOUS
10
-48.0021568307
20
-14.9872792210
40
1.4976387933
100
AcDbArc
50
137.2394913135
51
180.0000000000
0
ARC
5
317
100
AcDbEntity
8
0
100
AcDbCircle
62
7
6
CONTINUOUS
10
47.9978431693
20
15.0127207790
40
1.4976387933
100
AcDbArc
50
317.2394913135
51
360.0000000000
0
ARC
5
318
100
AcDbEntity
8
0
100
AcDbCircle
62
7
6
CONTINUOUS
10
47.9978431693
20
15.0127207790
40
1.4976387933
100
AcDbArc
50
137.2394913135
51
180.0000000000
0
CIRCLE
5
319
100
AcDbEntity
8
0
100
AcDbCircle
62
9
6
CONTINUOUS
10
-48.0021568307
20
-14.9872792210
40
3.7296709218
0
CIRCLE
5
31A
100
AcDbEntity
8
0
100
AcDbCircle
62
9
6
CONTINUOUS
10
47.9978431693
20
15.0127207790
40
3.7296709218
0
CIRCLE
5
31B
100
AcDbEntity
8
0
100
AcDbCircle
62
7
6
CONTINUOUS
10
-0.0021568307
20
0.0127207790
40
5.5641710973
0
CIRCLE
5
31C
100
AcDbEntity
8
0
100
AcDbCircle
62
9
6
CONTINUOUS
10
47.9978431693
20
15.0127207790
40
3.2299755146
0
CIRCLE
5
31D
100
AcDbEntity
8
0
100
AcDbCircle
62
9
6
CONTINUOUS
10
-48.0021568307
20
-14.9872792210
40
3.2299755146
0
CIRCLE
5
31E
100
AcDbEntity
8
0
100
AcDbCircle
62
7
6
CONTINUOUS
10
47.9978431693
20
15.0127207790
40
2.9500000000
0
CIRCLE
5
31F
100
AcDbEntity
8
0
100
AcDbCircle
62
7
6
CONTINUOUS
10
-48.0021568307
20
-14.9872792210
40
2.9500000000
0
SPLINE
5
320
100
AcDbEntity
8
0
100
AcDbSpline
62
7
6
CONTINUOUS
70
0
71
3
72
13
73
9
74
7
42
0.0000001000
43
0.0000001000
44
0.0000000001
12
-0.9040151022
22
-1.0759850579
32
0.0000000000
13
0.4972882950
23
-1.3165395783
33
0.0000000000
40
0.0000000000
40
0.0000000000
40
0.0000000000
40
0.0000000000
40
0.2023355031
40
0.3933951963
40
0.5733181122
40
0.7422707792
40
0.9004543761
40
1.0000000000
40
1.0000000000
40
1.0000000000
40
1.0000000000
10
47.1926366877
20
16.5664718923
30
0.0000000000
10
47.1316652375
20
16.4939018996
30
0.0000000000
10
47.0250127579
20
16.3421981269
30
0.0000000000
10
46.9117542892
20
16.0971240504
30
0.0000000000
10
46.8487757777
20
15.8506611473
30
0.0000000000
10
46.8336061373
20
15.6121826788
30
0.0000000000
10
46.8591260645
20
15.4127453863
30
0.0000000000
10
46.8941703145
20
15.2965801237
30
0.0000000000
10
46.9106712723
20
15.2528948725
30
0.0000000000
11
47.1926366877
21
16.5664718923
31
0.0000000000
11
47.0296108634
21
16.3334957674
31
0.0000000000
11
46.9175154066
21
16.0895097902
31
0.0000000000
11
46.8555433363
21
15.8443685014
31
0.0000000000
11
46.8411132981
21
15.6073710554
31
0.0000000000
11
46.8700276129
21
15.3869573755
31
0.0000000000
11
46.9106712723
21
15.2528948725
31
0.0000000000
0
SPLINE
5
321
100
AcDbEntity
8
0
100
AcDbSpline
62
7
6
CONTINUOUS
70
0
71
3
72
8
73
4
74
2
42
0.0000001000
43
0.0000001000
44
0.0000000001
12
0.0239265814
22
-0.0633441240
32
0.0000000000
13
0.0280957456
23
-0.0615033286
33
0.0000000000
40
0.0000000000
40
0.0000000000
40
0.0000000000
40
0.0000000000
40
1.0000000000
40
1.0000000000
40
1.0000000000
40
1.0000000000
10
46.9106712723
20
15.2528948725
30
0.0000000000
10
46.9186467995
20
15.2317801645
30
0.0000000000
10
46.9273150946
20
15.2109417178
30
0.0000000000
10
46.9366803431
20
15.1904406083
30
0.0000000000
11
46.9106712723
21
15.2528948725
31
0.0000000000
11
46.9366803431
21
15.1904406083
31
0.0000000000
0
SPLINE
5
322
100
AcDbEntity
8
0
100
AcDbSpline
62
7
6
CONTINUOUS
70
0
71
3
72
13
73
9
74
7
42
0.0000001000
43
0.0000001000
44
0.0000000001
12
0.9040151022
22
1.0759850579
32
0.0000000000
13
-0.4972882950
23
1.3165395783
33
0.0000000000
40
0.0000000000
40
0.0000000000
40
0.0000000000
40
0.0000000000
40
0.2023355031
40
0.3933951963
40
0.5733181122
40
0.7422707792
40
0.9004543761
40
1.0000000000
40
1.0000000000
40
1.0000000000
40
1.0000000000
10
48.8030496509
20
13.4589696657
30
0.0000000000
10
48.8640211010
20
13.5315396584
30
0.0000000000
10
48.9706735807
20
13.6832434311
30
0.0000000000
10
49.0839320494
20
13.9283175076
30
0.0000000000
10
49.1469105609
20
14.1747804107
30
0.0000000000
10
49.1620802013
20
14.4132588792
30
0.0000000000
10
49.1365602740
20
14.6126961717
30
0.0000000000
10
49.1015160241
20
14.7288614343
30
0.0000000000
10
49.0850150662
20
14.7725466855
30
0.0000000000
11
48.8030496509
21
13.4589696657
31
0.0000000000
11
48.9660754752
21
13.6919457906
31
0.0000000000
11
49.0781709320
21
13.9359317678
31
0.0000000000
11
49.1401430023
21
14.1810730566
31
0.0000000000
11
49.1545730405
21
14.4180705026
31
0.0000000000
11
49.1256587257
21
14.6384841825
31
0.0000000000
11
49.0850150662
21
14.7725466855
31
0.0000000000
0
SPLINE
5
323
100
AcDbEntity
8
0
100
AcDbSpline
62
7
6
CONTINUOUS
70
0
71
3
72
8
73
4
74
2
42
0.0000001000
43
0.0000001000
44
0.0000000001
12
-0.0239265814
22
0.0633441240
32
0.0000000000
13
-0.0280957456
23
0.0615033286
33
0.0000000000
40
0.0000000000
40
0.0000000000
40
0.0000000000
40
0.0000000000
40
1.0000000000
40
1.0000000000
40
1.0000000000
40
1.0000000000
10
49.0850150662
20
14.7725466855
30
0.0000000000
10
49.0770395391
20
14.7936613935
30
0.0000000000
10
49.0683712440
20
14.8144998402
30
0.0000000000
10
49.0590059955
20
14.8350009497
30
0.0000000000
11
49.0850150662
21
14.7725466855
31
0.0000000000
11
49.0590059955
21
14.8350009497
31
0.0000000000
0
SPLINE
5
324
100
AcDbEntity
8
0
100
AcDbSpline
62
7
6
CONTINUOUS
70
0
71
3
72
9
73
5
74
3
42
0.0000001000
43
0.0000001000
44
0.0000000001
12
-0.7441205282
22
-0.0388956218
32
0.0000000000
13
-0.6604147117
23
-0.3422492833
33
0.0000000000
40
0.0000000000
40
0.0000000000
40
0.0000000000
40
0.0000000000
40
0.4999999830
40
1.0000000000
40
1.0000000000
40
1.0000000000
40
1.0000000000
10
47.9063970603
20
16.7603298904
30
0.0000000000
10
47.7823769765
20
16.7538472870
30
0.0000000000
10
47.5357754578
20
16.7143984179
30
0.0000000000
10
47.3027058101
20
16.6235134414
30
0.0000000000
10
47.1926366877
20
16.5664718923
30
0.0000000000
11
47.9063970603
21
16.7603298904
31
0.0000000000
11
47.5391584337
21
16.7015393933
31
0.0000000000
11
47.1926366877
21
16.5664718923
31
0.0000000000
0
SPLINE
5
325
100
AcDbEntity
8
0
100
AcDbSpline
62
7
6
CONTINUOUS
70
0
71
3
72
9
73
5
74
3
42
0.0000001000
43
0.0000001000
44
0.0000000001
12
0.7441205282
22
0.0388956218
32
0.0000000000
13
0.6604147117
23
0.3422492833
33
0.0000000000
40
0.0000000000
40
0.0000000000
40
0.0000000000
40
0.0000000000
40
0.4999999830
40
1.0000000000
40
1.0000000000
40
1.0000000000
40
1.0000000000
10
48.0892892783
20
13.2651116675
30
0.0000000000
10
48.2133093621
20
13.2715942710
30
0.0000000000
10
48.4599108808
20
13.3110431401
30
0.0000000000
10
48.6929805285
20
13.4019281166
30
0.0000000000
10
48.8030496509
20
13.4589696657
30
0.0000000000
11
48.0892892783
21
13.2651116675
31
0.0000000000
11
48.4565279049
21
13.3239021647
31
0.0000000000
11
48.8030496509
21
13.4589696657
31
0.0000000000
0
SPLINE
5
326
100
AcDbEntity
8
0
100
AcDbSpline
62
7
6
CONTINUOUS
70
0
71
3
72
8
73
4
74
2
42
0.0000001000
43
0.0000001000
44
0.0000000001
12
0.2031617598
22
0.1161896428
32
0.0000000000
13
0.2235794994
23
0.0710274881
33
0.0000000000
40
0.0000000000
40
0.0000000000
40
0.0000000000
40
0.0000000000
40
1.0000000000
40
1.0000000000
40
1.0000000000
40
1.0000000000
10
47.4907723863
20
15.9911801080
30
0.0000000000
10
47.5584929729
20
16.0299099889
30
0.0000000000
10
47.6305757889
20
16.0615118669
30
0.0000000000
10
47.7051022887
20
16.0851876963
30
0.0000000000
11
47.4907723863
21
15.9911801080
31
0.0000000000
11
47.7051022887
21
16.0851876963
31
0.0000000000
0
SPLINE
5
327
100
AcDbEntity
8
0
100
AcDbSpline
62
7
6
CONTINUOUS
70
0
71
3
72
8
73
4
74
2
42
0.0000001000
43
0.0000001000
44
0.0000000001
12
0.0129885522
22
0.0041262470
32
0.0000000000
13
0.0130370741
23
0.0039656113
33
0.0000000000
40
0.0000000000
40
0.0000000000
40
0.0000000000
40
0.0000000000
40
1.0000000000
40
1.0000000000
40
1.0000000000
40
1.0000000000
10
47.7051022887
20
16.0851876963
30
0.0000000000
10
47.7094318061
20
16.0865631119
30
0.0000000000
10
47.7137695706
20
16.0879117782
30
0.0000000000
10
47.7181152620
20
16.0892336486
30
0.0000000000
11
47.7051022887
21
16.0851876963
31
0.0000000000
11
47.7181152620
21
16.0892336486
31
0.0000000000
0
SPLINE
5
328
100
AcDbEntity
8
0
100
AcDbSpline
62
7
6
CONTINUOUS
70
0
71
3
72
11
73
7
74
5
42
0.0000001000
43
0.0000001000
44
0.0000000001
12
0.8961779724
22
0.2725990088
32
0.0000000000
13
0.8048615584
23
-0.4750833805
33
0.0000000000
40
0.0000000000
40
0.0000000000
40
0.0000000000
40
0.0000000000
40
0.2378989900
40
0.4901337008
40
0.7451836110
40
1.0000000000
40
1.0000000000
40
1.0000000000
40
1.0000000000
10
47.7181152620
20
16.0892336486
30
0.0000000000
10
47.7891818735
20
16.1108506582
30
0.0000000000
10
47.9399650810
20
16.1406233648
30
0.0000000000
10
48.1738524301
20
16.1383331707
30
0.0000000000
10
48.4071986593
20
16.0861836448
30
0.0000000000
10
48.5528489276
20
16.0194640726
30
0.0000000000
10
48.6212128996
20
15.9791110621
30
0.0000000000
11
47.7181152620
21
16.0892336486
31
0.0000000000
11
47.9362740924
21
16.1323835373
31
0.0000000000
11
48.1720059644
21
16.1301451271
31
0.0000000000
11
48.4046515876
21
16.0782028441
31
0.0000000000
11
48.6212128996
21
15.9791110621
31
0.0000000000
0
SPLINE
5
329
100
AcDbEntity
8
0
100
AcDbSpline
62
7
6
CONTINUOUS
70
0
71
3
72
8
73
4
74
2
42
0.0000001000
43
0.0000001000
44
0.0000000001
12
0.0093063425
22
0.0661522007
32
0.0000000000
13
0.0134179385
23
0.0655319870
33
0.0000000000
40
0.0000000000
40
0.0000000000
40
0.0000000000
40
0.0000000000
40
1.0000000000
40
1.0000000000
40
1.0000000000
40
1.0000000000
10
46.9366803431
20
15.1904406083
30
0.0000000000
10
46.9397824573
20
15.2124913418
30
0.0000000000
10
46.9435759150
20
15.2344633789
30
0.0000000000
10
46.9480485612
20
15.2563073746
30
0.0000000000
11
46.9366803431
21
15.1904406083
31
0.0000000000
11
46.9480485612
21
15.2563073746
31
0.0000000000
0
SPLINE
5
32A
100
AcDbEntity
8
0
100
AcDbSpline
62
7
6
CONTINUOUS
70
0
71
3
72
12
73
8
74
6
42
0.0000001000
43
0.0000001000
44
0.0000000001
12
0.1890647033
22
0.9233747543
32
0.0000000000
13
0.8243948896
23
0.4543176013
33
0.0000000000
40
0.0000000000
40
0.0000000000
40
0.0000000000
40
0.0000000000
40
0.1419663716
40
0.3554432710
40
0.5693924309
40
0.7842007599
40
1.0000000000
40
1.0000000000
40
1.0000000000
40
1.0000000000
10
46.9480485612
20
15.2563073746
30
0.0000000000
10
46.9569955045
20
15.3000034291
30
0.0000000000
10
46.9862005836
20
15.4081230871
30
0.0000000000
10
47.0592989662
20
15.5722111206
30
0.0000000000
10
47.1745024773
20
15.7389820594
30
0.0000000000
10
47.3188930638
20
15.8821543902
30
0.0000000000
10
47.4314711227
20
15.9584996436
30
0.0000000000
10
47.4907723863
20
15.9911801080
30
0.0000000000
11
46.9480485612
21
15.2563073746
31
0.0000000000
11
46.9829453663
21
15.3854634968
31
0.0000000000
11
47.0646759427
21
15.5690354966
31
0.0000000000
11
47.1791137195
21
15.7347503501
31
0.0000000000
11
47.3226814045
21
15.8771305777
31
0.0000000000
11
47.4907723863
21
15.9911801080
31
0.0000000000
0
SPLINE
5
32B
100
AcDbEntity
8
0
100
AcDbSpline
62
7
6
CONTINUOUS
70
0
71
3
72
8
73
4
74
2
42
0.0000001000
43
0.0000001000
44
0.0000000001
12
-0.2031617598
22
-0.1161896428
32
0.0000000000
13
-0.2235794994
23
-0.0710274881
33
0.0000000000
40
0.0000000000
40
0.0000000000
40
0.0000000000
40
0.0000000000
40
1.0000000000
40
1.0000000000
40
1.0000000000
40
1.0000000000
10
48.5049139523
20
14.0342614500
30
0.0000000000
10
48.4371933657
20
13.9955315691
30
0.0000000000
10
48.3651105497
20
13.9639296911
30
0.0000000000
10
48.2905840499
20
13.9402538617
30
0.0000000000
11
48.5049139523
21
14.0342614500
31
0.0000000000
11
48.2905840499
21
13.9402538617
31
0.0000000000
0
SPLINE
5
32C
100
AcDbEntity
8
0
100
AcDbSpline
62
7
6
CONTINUOUS
70
0
71
3
72
8
73
4
74
2
42
0.0000001000
43
0.0000001000
44
0.0000000001
12
-0.0129885522
22
-0.0041262470
32
0.0000000000
13
-0.0130370741
23
-0.0039656113
33
0.0000000000
40
0.0000000000
40
0.0000000000
40
0.0000000000
40
0.0000000000
40
1.0000000000
40
1.0000000000
40
1.0000000000
40
1.0000000000
10
48.2905840499
20
13.9402538617
30
0.0000000000
10
48.2862545325
20
13.9388784461
30
0.0000000000
10
48.2819167680
20
13.9375297798
30
0.0000000000
10
48.2775710766
20
13.9362079094
30
0.0000000000
11
48.2905840499
21
13.9402538617
31
0.0000000000
11
48.2775710766
21
13.9362079094
31
0.0000000000
0
SPLINE
5
32D
100
AcDbEntity
8
0
100
AcDbSpline
62
7
6
CONTINUOUS
70
0
71
3
72
11
73
7
74
5
42
0.0000001000
43
0.0000001000
44
0.0000000001
12
-0.8961779724
22
-0.2725990088
32
0.0000000000
13
-0.8048615584
23
0.4750833805
33
0.0000000000
40
0.0000000000
40
0.0000000000
40
0.0000000000
40
0.0000000000
40
0.2378989900
40
0.4901337008
40
0.7451836110
40
1.0000000000
40
1.0000000000
40
1.0000000000
40
1.0000000000
10
48.2775710766
20
13.9362079094
30
0.0000000000
10
48.2065044651
20
13.9145908998
30
0.0000000000
10
48.0557212575
20
13.8848181932
30
0.0000000000
10
47.8218339084
20
13.8871083873
30
0.0000000000
10
47.5884876793
20
13.9392579132
30
0.0000000000
10
47.4428374110
20
14.0059774854
30
0.0000000000
10
47.3744734390
20
14.0463304959
30
0.0000000000
11
48.2775710766
21
13.9362079094
31
0.0000000000
11
48.0594122461
21
13.8930580207
31
0.0000000000
11
47.8236803742
21
13.8952964309
31
0.0000000000
11
47.5910347510
21
13.9472387139
31
0.0000000000
11
47.3744734390
21
14.0463304959
31
0.0000000000
0
SPLINE
5
32E
100
AcDbEntity
8
0
100
AcDbSpline
62
7
6
CONTINUOUS
70
0
71
3
72
8
73
4
74
2
42
0.0000001000
43
0.0000001000
44
0.0000000001
12
-0.0093063425
22
-0.0661522007
32
0.0000000000
13
-0.0134179385
23
-0.0655319870
33
0.0000000000
40
0.0000000000
40
0.0000000000
40
0.0000000000
40
0.0000000000
40
1.0000000000
40
1.0000000000
40
1.0000000000
40
1.0000000000
10
49.0590059955
20
14.8350009497
30
0.0000000000
10
49.0559038813
20
14.8129502162
30
0.0000000000
10
49.0521104236
20
14.7909781791
30
0.0000000000
10
49.0476377774
20
14.7691341834
30
0.0000000000
11
49.0590059955
21
14.8350009497
31
0.0000000000
11
49.0476377774
21
14.7691341834
31
0.0000000000
0
SPLINE
5
32F
100
AcDbEntity
8
0
100
AcDbSpline
62
7
6
CONTINUOUS
70
0
71
3
72
12
73
8
74
6
42
0.0000001000
43
0.0000001000
44
0.0000000001
12
-0.1890647033
22
-0.9233747543
32
0.0000000000
13
-0.8243948896
23
-0.4543176013
33
0.0000000000
40
0.0000000000
40
0.0000000000
40
0.0000000000
40
0.0000000000
40
0.1419663716
40
0.3554432710
40
0.5693924309
40
0.7842007599
40
1.0000000000
40
1.0000000000
40
1.0000000000
40
1.0000000000
10
49.0476377774
20
14.7691341834
30
0.0000000000
10
49.0386908341
20
14.7254381289
30
0.0000000000
10
49.0094857550
20
14.6173184709
30
0.0000000000
10
48.9363873724
20
14.4532304374
30
0.0000000000
10
48.8211838613
20
14.2864594986
30
0.0000000000
10
48.6767932747
20
14.1432871678
30
0.0000000000
10
48.5642152159
20
14.0669419144
30
0.0000000000
10
48.5049139523
20
14.0342614500
30
0.0000000000
11
49.0476377774
21
14.7691341834
31
0.0000000000
11
49.0127409723
21
14.6399780612
31
0.0000000000
11
48.9310103959
21
14.4564060614
31
0.0000000000
11
48.8165726190
21
14.2906912079
31
0.0000000000
11
48.6730049341
21
14.1483109803
31
0.0000000000
11
48.5049139523
21
14.0342614500
31
0.0000000000
0
SPLINE
5
330
100
AcDbEntity
8
0
100
AcDbSpline
62
7
6
CONTINUOUS
70
0
71
3
72
13
73
9
74
7
42
0.0000001000
43
0.0000001000
44
0.0000000001
12
-0.9040151022
22
-1.0759850579
32
0.0000000000
13
0.4972882950
23
-1.3165395783
33
0.0000000000
40
0.0000000000
40
0.0000000000
40
0.0000000000
40
0.0000000000
40
0.2023355031
40
0.3933951963
40
0.5733181122
40
0.7422707792
40
0.9004543761
40
1.0000000000
40
1.0000000000
40
1.0000000000
40
1.0000000000
10
-48.8073633123
20
-13.4335281077
30
0.0000000000
10
-48.8683347625
20
-13.5060981004
30
0.0000000000
10
-48.9749872421
20
-13.6578018731
30
0.0000000000
10
-49.0882457108
20
-13.9028759496
30
0.0000000000
10
-49.1512242223
20
-14.1493388527
30
0.0000000000
10
-49.1663938627
20
-14.3878173212
30
0.0000000000
10
-49.1408739355
20
-14.5872546137
30
0.0000000000
10
-49.1058296855
20
-14.7034198763
30
0.0000000000
10
-49.0893287277
20
-14.7471051275
30
0.0000000000
11
-48.8073633123
21
-13.4335281077
31
0.0000000000
11
-48.9703891366
21
-13.6665042326
31
0.0000000000
11
-49.0824845934
21
-13.9104902098
31
0.0000000000
11
-49.1444566637
21
-14.1556314986
31
0.0000000000
11
-49.1588867019
21
-14.3926289446
31
0.0000000000
11
-49.1299723871
21
-14.6130426245
31
0.0000000000
11
-49.0893287277
21
-14.7471051275
31
0.0000000000
0
SPLINE
5
331
100
AcDbEntity
8
0
100
AcDbSpline
62
7
6
CONTINUOUS
70
0
71
3
72
8
73
4
74
2
42
0.0000001000
43
0.0000001000
44
0.0000000001
12
0.0239265814
22
-0.0633441240
32
0.0000000000
13
0.0280957456
23
-0.0615033286
33
0.0000000000
40
0.0000000000
40
0.0000000000
40
0.0000000000
40
0.0000000000
40
1.0000000000
40
1.0000000000
40
1.0000000000
40
1.0000000000
10
-49.0893287277
20
-14.7471051275
30
0.0000000000
10
-49.0813532005
20
-14.7682198355
30
0.0000000000
10
-49.0726849054
20
-14.7890582822
30
0.0000000000
10
-49.0633196569
20
-14.8095593917
30
0.0000000000
11
-49.0893287277
21
-14.7471051275
31
0.0000000000
11
-49.0633196569
21
-14.8095593917
31
0.0000000000
0
SPLINE
5
332
100
AcDbEntity
8
0
100
AcDbSpline
62
7
6
CONTINUOUS
70
0
71
3
72
13
73
9
74
7
42
0.0000001000
43
0.0000001000
44
0.0000000001
12
0.9040151022
22
1.0759850579
32
0.0000000000
13
-0.4972882950
23
1.3165395783
33
0.0000000000
40
0.0000000000
40
0.0000000000
40
0.0000000000
40
0.0000000000
40
0.2023355031
40
0.3933951963
40
0.5733181122
40
0.7422707792
40
0.9004543761
40
1.0000000000
40
1.0000000000
40
1.0000000000
40
1.0000000000
10
-47.1969503491
20
-16.5410303343
30
0.0000000000
10
-47.1359788990
20
-16.4684603416
30
0.0000000000
10
-47.0293264193
20
-16.3167565689
30
0.0000000000
10
-46.9160679506
20
-16.0716824924
30
0.0000000000
10
-46.8530894391
20
-15.8252195893
30
0.0000000000
10
-46.8379197987
20
-15.5867411208
30
0.0000000000
10
-46.8634397260
20
-15.3873038283
30
0.0000000000
10
-46.8984839759
20
-15.2711385657
30
0.0000000000
10
-46.9149849338
20
-15.2274533145
30
0.0000000000
11
-47.1969503491
21
-16.5410303343
31
0.0000000000
11
-47.0339245248
21
-16.3080542094
31
0.0000000000
11
-46.9218290680
21
-16.0640682322
31
0.0000000000
11
-46.8598569977
21
-15.8189269434
31
0.0000000000
11
-46.8454269595
21
-15.5819294974
31
0.0000000000
11
-46.8743412743
21
-15.3615158175
31
0.0000000000
11
-46.9149849338
21
-15.2274533145
31
0.0000000000
0
SPLINE
5
333
100
AcDbEntity
8
0
100
AcDbSpline
62
7
6
CONTINUOUS
70
0
71
3
72
8
73
4
74
2
42
0.0000001000
43
0.0000001000
44
0.0000000001
12
-0.0239265814
22
0.0633441240
32
0.0000000000
13
-0.0280957456
23
0.0615033286
33
0.0000000000
40
0.0000000000
40
0.0000000000
40
0.0000000000
40
0.0000000000
40
1.0000000000
40
1.0000000000
40
1.0000000000
40
1.0000000000
10
-46.9149849338
20
-15.2274533145
30
0.0000000000
10
-46.9229604609
20
-15.2063386065
30
0.0000000000
10
-46.9316287560
20
-15.1855001598
30
0.0000000000
10
-46.9409940045
20
-15.1649990503
30
0.0000000000
11
-46.9149849338
21
-15.2274533145
31
0.0000000000
11
-46.9409940045
21
-15.1649990503
31
0.0000000000
0
SPLINE
5
334
100
AcDbEntity
8
0
100
AcDbSpline
62
7
6
CONTINUOUS
70
0
71
3
72
9
73
5
74
3
42
0.0000001000
43
0.0000001000
44
0.0000000001
12
-0.7441205282
22
-0.0388956218
32
0.0000000000
13
-0.6604147117
23
-0.3422492833
33
0.0000000000
40
0.0000000000
40
0.0000000000
40
0.0000000000
40
0.0000000000
40
0.4999999830
40
1.0000000000
40
1.0000000000
40
1.0000000000
40
1.0000000000
10
-48.0936029397
20
-13.2396701096
30
0.0000000000
10
-48.2176230235
20
-13.2461527130
30
0.0000000000
10
-48.4642245422
20
-13.2856015821
30
0.0000000000
10
-48.6972941899
20
-13.3764865586
30
0.0000000000
10
-48.8073633123
20
-13.4335281077
30
0.0000000000
11
-48.0936029397
21
-13.2396701096
31
0.0000000000
11
-48.4608415663
21
-13.2984606067
31
0.0000000000
11
-48.8073633123
21
-13.4335281077
31
0.0000000000
0
SPLINE
5
335
100
AcDbEntity
8
0
100
AcDbSpline
62
7
6
CONTINUOUS
70
0
71
3
72
9
73
5
74
3
42
0.0000001000
43
0.0000001000
44
0.0000000001
12
0.7441205282
22
0.0388956218
32
0.0000000000
13
0.6604147117
23
0.3422492833
33
0.0000000000
40
0.0000000000
40
0.0000000000
40
0.0000000000
40
0.0000000000
40
0.4999999830
40
1.0000000000
40
1.0000000000
40
1.0000000000
40
1.0000000000
10
-47.9107107217
20
-16.7348883325
30
0.0000000000
10
-47.7866906379
20
-16.7284057290
30
0.0000000000
10
-47.5400891192
20
-16.6889568599
30
0.0000000000
10
-47.3070194715
20
-16.5980718834
30
0.0000000000
10
-47.1969503491
20
-16.5410303343
30
0.0000000000
11
-47.9107107217
21
-16.7348883325
31
0.0000000000
11
-47.5434720951
21
-16.6760978353
31
0.0000000000
11
-47.1969503491
21
-16.5410303343
31
0.0000000000
0
SPLINE
5
336
100
AcDbEntity
8
0
100
AcDbSpline
62
7
6
CONTINUOUS
70
0
71
3
72
8
73
4
74
2
42
0.0000001000
43
0.0000001000
44
0.0000000001
12
0.2031617598
22
0.1161896428
32
0.0000000000
13
0.2235794994
23
0.0710274881
33
0.0000000000
40
0.0000000000
40
0.0000000000
40
0.0000000000
40
0.0000000000
40
1.0000000000
40
1.0000000000
40
1.0000000000
40
1.0000000000
10
-48.5092276137
20
-14.0088198920
30
0.0000000000
10
-48.4415070271
20
-13.9700900111
30
0.0000000000
10
-48.3694242111
20
-13.9384881331
30
0.0000000000
10
-48.2948977113
20
-13.9148123037
30
0.0000000000
11
-48.5092276137
21
-14.0088198920
31
0.0000000000
11
-48.2948977113
21
-13.9148123037
31
0.0000000000
0
SPLINE
5
337
100
AcDbEntity
8
0
100
AcDbSpline
62
7
6
CONTINUOUS
70
0
71
3
72
8
73
4
74
2
42
0.0000001000
43
0.0000001000
44
0.0000000001
12
0.0129885522
22
0.0041262470
32
0.0000000000
13
0.0130370741
23
0.0039656113
33
0.0000000000
40
0.0000000000
40
0.0000000000
40
0.0000000000
40
0.0000000000
40
1.0000000000
40
1.0000000000
40
1.0000000000
40
1.0000000000
10
-48.2948977113
20
-13.9148123037
30
0.0000000000
10
-48.2905681939
20
-13.9134368881
30
0.0000000000
10
-48.2862304294
20
-13.9120882218
30
0.0000000000
10
-48.2818847380
20
-13.9107663514
30
0.0000000000
11
-48.2948977113
21
-13.9148123037
31
0.0000000000
11
-48.2818847380
21
-13.9107663514
31
0.0000000000
0
SPLINE
5
338
100
AcDbEntity
8
0
100
AcDbSpline
62
7
6
CONTINUOUS
70
0
71
3
72
11
73
7
74
5
42
0.0000001000
43
0.0000001000
44
0.0000000001
12
0.8961779724
22
0.2725990088
32
0.0000000000
13
0.8048615584
23
-0.4750833805
33
0.0000000000
40
0.0000000000
40
0.0000000000
40
0.0000000000
40
0.0000000000
40
0.2378989900
40
0.4901337008
40
0.7451836110
40
1.0000000000
40
1.0000000000
40
1.0000000000
40
1.0000000000
10
-48.2818847380
20
-13.9107663514
30
0.0000000000
10
-48.2108181265
20
-13.8891493418
30
0.0000000000
10
-48.0600349190
20
-13.8593766352
30
0.0000000000
10
-47.8261475699
20
-13.8616668293
30
0.0000000000
10
-47.5928013407
20
-13.9138163552
30
0.0000000000
10
-47.4471510724
20
-13.9805359274
30
0.0000000000
10
-47.3787871004
20
-14.0208889379
30
0.0000000000
11
-48.2818847380
21
-13.9107663514
31
0.0000000000
11
-48.0637259076
21
-13.8676164627
31
0.0000000000
11
-47.8279940356
21
-13.8698548729
31
0.0000000000
11
-47.5953484124
21
-13.9217971559
31
0.0000000000
11
-47.3787871004
21
-14.0208889379
31
0.0000000000
0
SPLINE
5
339
100
AcDbEntity
8
0
100
AcDbSpline
62
7
6
CONTINUOUS
70
0
71
3
72
8
73
4
74
2
42
0.0000001000
43
0.0000001000
44
0.0000000001
12
0.0093063425
22
0.0661522007
32
0.0000000000
13
0.0134179385
23
0.0655319870
33
0.0000000000
40
0.0000000000
40
0.0000000000
40
0.0000000000
40
0.0000000000
40
1.0000000000
40
1.0000000000
40
1.0000000000
40
1.0000000000
10
-49.0633196569
20
-14.8095593917
30
0.0000000000
10
-49.0602175427
20
-14.7875086582
30
0.0000000000
10
-49.0564240850
20
-14.7655366211
30
0.0000000000
10
-49.0519514388
20
-14.7436926254
30
0.0000000000
11
-49.0633196569
21
-14.8095593917
31
0.0000000000
11
-49.0519514388
21
-14.7436926254
31
0.0000000000
0
SPLINE
5
33A
100
AcDbEntity
8
0
100
AcDbSpline
62
7
6
CONTINUOUS
70
0
71
3
72
12
73
8
74
6
42
0.0000001000
43
0.0000001000
44
0.0000000001
12
0.1890647033
22
0.9233747543
32
0.0000000000
13
0.8243948896
23
0.4543176013
33
0.0000000000
40
0.0000000000
40
0.0000000000
40
0.0000000000
40
0.0000000000
40
0.1419663716
40
0.3554432710
40
0.5693924309
40
0.7842007599
40
1.0000000000
40
1.0000000000
40
1.0000000000
40
1.0000000000
10
-49.0519514388
20
-14.7436926254
30
0.0000000000
10
-49.0430044955
20
-14.6999965709
30
0.0000000000
10
-49.0137994164
20
-14.5918769129
30
0.0000000000
10
-48.9407010338
20
-14.4277888794
30
0.0000000000
10
-48.8254975227
20
-14.2610179406
30
0.0000000000
10
-48.6811069362
20
-14.1178456098
30
0.0000000000
10
-48.5685288773
20
-14.0415003564
30
0.0000000000
10
-48.5092276137
20
-14.0088198920
30
0.0000000000
11
-49.0519514388
21
-14.7436926254
31
0.0000000000
11
-49.0170546337
21
-14.6145365032
31
0.0000000000
11
-48.9353240573
21
-14.4309645034
31
0.0000000000
11
-48.8208862805
21
-14.2652496499
31
0.0000000000
11
-48.6773185955
21
-14.1228694223
31
0.0000000000
11
-48.5092276137
21
-14.0088198920
31
0.0000000000
0
SPLINE
5
33B
100
AcDbEntity
8
0
100
AcDbSpline
62
7
6
CONTINUOUS
70
0
71
3
72
8
73
4
74
2
42
0.0000001000
43
0.0000001000
44
0.0000000001
12
-0.2031617598
22
-0.1161896428
32
0.0000000000
13
-0.2235794994
23
-0.0710274881
33
0.0000000000
40
0.0000000000
40
0.0000000000
40
0.0000000000
40
0.0000000000
40
1.0000000000
40
1.0000000000
40
1.0000000000
40
1.0000000000
10
-47.4950860477
20
-15.9657385500
30
0.0000000000
10
-47.5628066343
20
-16.0044684309
30
0.0000000000
10
-47.6348894503
20
-16.0360703089
30
0.0000000000
10
-47.7094159501
20
-16.0597461383
30
0.0000000000
11
-47.4950860477
21
-15.9657385500
31
0.0000000000
11
-47.7094159501
21
-16.0597461383
31
0.0000000000
0
SPLINE
5
33C
100
AcDbEntity
8
0
100
AcDbSpline
62
7
6
CONTINUOUS
70
0
71
3
72
8
73
4
74
2
42
0.0000001000
43
0.0000001000
44
0.0000000001
12
-0.0129885522
22
-0.0041262470
32
0.0000000000
13
-0.0130370741
23
-0.0039656113
33
0.0000000000
40
0.0000000000
40
0.0000000000
40
0.0000000000
40
0.0000000000
40
1.0000000000
40
1.0000000000
40
1.0000000000
40
1.0000000000
10
-47.7094159501
20
-16.0597461383
30
0.0000000000
10
-47.7137454675
20
-16.0611215539
30
0.0000000000
10
-47.7180832320
20
-16.0624702202
30
0.0000000000
10
-47.7224289234
20
-16.0637920906
30
0.0000000000
11
-47.7094159501
21
-16.0597461383
31
0.0000000000
11
-47.7224289234
21
-16.0637920906
31
0.0000000000
0
SPLINE
5
33D
100
AcDbEntity
8
0
100
AcDbSpline
62
7
6
CONTINUOUS
70
0
71
3
72
11
73
7
74
5
42
0.0000001000
43
0.0000001000
44
0.0000000001
12
-0.8961779724
22
-0.2725990088
32
0.0000000000
13
-0.8048615584
23
0.4750833805
33
0.0000000000
40
0.0000000000
40
0.0000000000
40
0.0000000000
40
0.0000000000
40
0.2378989900
40
0.4901337008
40
0.7451836110
40
1.0000000000
40
1.0000000000
40
1.0000000000
40
1.0000000000
10
-47.7224289234
20
-16.0637920906
30
0.0000000000
10
-47.7934955349
20
-16.0854091002
30
0.0000000000
10
-47.9442787425
20
-16.1151818068
30
0.0000000000
10
-48.1781660916
20
-16.1128916127
30
0.0000000000
10
-48.4115123207
20
-16.0607420868
30
0.0000000000
10
-48.5571625890
20
-15.9940225146
30
0.0000000000
10
-48.6255265610
20
-15.9536695041
30
0.0000000000
11
-47.7224289234
21
-16.0637920906
31
0.0000000000
11
-47.9405877539
21
-16.1069419793
31
0.0000000000
11
-48.1763196258
21
-16.1047035691
31
0.0000000000
11
-48.4089652490
21
-16.0527612861
31
0.0000000000
11
-48.6255265610
21
-15.9536695041
31
0.0000000000
0
SPLINE
5
33E
100
AcDbEntity
8
0
100
AcDbSpline
62
7
6
CONTINUOUS
70
0
71
3
72
8
73
4
74
2
42
0.0000001000
43
0.0000001000
44
0.0000000001
12
-0.0093063425
22
-0.0661522007
32
0.0000000000
13
-0.0134179385
23
-0.0655319870
33
0.0000000000
40
0.0000000000
40
0.0000000000
40
0.0000000000
40
0.0000000000
40
1.0000000000
40
1.0000000000
40
1.0000000000
40
1.0000000000
10
-46.9409940045
20
-15.1649990503
30
0.0000000000
10
-46.9440961187
20
-15.1870497838
30
0.0000000000
10
-46.9478895764
20
-15.2090218209
30
0.0000000000
10
-46.9523622226
20
-15.2308658166
30
0.0000000000
11
-46.9409940045
21
-15.1649990503
31
0.0000000000
11
-46.9523622226
21
-15.2308658166
31
0.0000000000
0
SPLINE
5
33F
100
AcDbEntity
8
0
100
AcDbSpline
62
7
6
CONTINUOUS
70
0
71
3
72
12
73
8
74
6
42
0.0000001000
43
0.0000001000
44
0.0000000001
12
-0.1890647033
22
-0.9233747543
32
0.0000000000
13
-0.8243948896
23
-0.4543176013
33
0.0000000000
40
0.0000000000
40
0.0000000000
40
0.0000000000
40
0.0000000000
40
0.1419663716
40
0.3554432710
40
0.5693924309
40
0.7842007599
40
1.0000000000
40
1.0000000000
40
1.0000000000
40
1.0000000000
10
-46.9523622226
20
-15.2308658166
30
0.0000000000
10
-46.9613091659
20
-15.2745618711
30
0.0000000000
10
-46.9905142450
20
-15.3826815291
30
0.0000000000
10
-47.0636126276
20
-15.5467695626
30
0.0000000000
10
-47.1788161387
20
-15.7135405014
30
0.0000000000
10
-47.3232067253
20
-15.8567128322
30
0.0000000000
10
-47.4357847841
20
-15.9330580856
30
0.0000000000
10
-47.4950860477
20
-15.9657385500
30
0.0000000000
11
-46.9523622226
21
-15.2308658166
31
0.0000000000
11
-46.9872590277
21
-15.3600219388
31
0.0000000000
11
-47.0689896041
21
-15.5435939386
31
0.0000000000
11
-47.1834273810
21
-15.7093087921
31
0.0000000000
11
-47.3269950659
21
-15.8516890197
31
0.0000000000
11
-47.4950860477
21
-15.9657385500
31
0.0000000000
0
SPLINE
5
340
100
AcDbEntity
8
0
100
AcDbSpline
62
7
6
CONTINUOUS
70
0
71
3
72
28
73
24
74
22
42
0.0000001000
43
0.0000001000
44
0.0000000001
12
0.0000000000
22
-3.9124705933
32
0.0000000000
13
3.9124705933
23
0.0000000000
33
0.0000000000
40
0.0000000000
40
0.0000000000
40
0.0000000000
40
0.0000000000
40
0.0478468683
40
0.0956336593
40
0.1433625301
40
0.1910368493
40
0.2386612370
40
0.2862413680
40
0.3337839143
40
0.3812963426
40
0.4287867822
40
0.4762638346
40
0.5237363888
40
0.5712134353
40
0.6187038628
40
0.6662162737
40
0.7137587976
40
0.7613389019
40
0.8089632575
40
0.8566375407
40
0.9043663772
40
0.9521531426
40
1.0000000000
40
1.0000000000
40
1.0000000000
40
1.0000000000
10
-61.0459011625
20
-41.0405368075
30
0.0000000000
10
-61.0459011625
20
-41.1029366292
30
0.0000000000
10
-61.0412447815
20
-41.2277082366
30
0.0000000000
10
-61.0203279062
20
-41.4136683539
30
0.0000000000
10
-60.9856270544
20
-41.5973374425
30
0.0000000000
10
-60.9373600639
20
-41.7776942256
30
0.0000000000
10
-60.8758162991
20
-41.9537581239
30
0.0000000000
10
-60.8013540029
20
-42.1245718577
30
0.0000000000
10
-60.7143975798
20
-42.2892113252
30
0.0000000000
10
-60.6154347469
20
-42.4467878751
30
0.0000000000
10
-60.5050136901
20
-42.5964522122
30
0.0000000000
10
-60.3837401640
20
-42.7373976214
30
0.0000000000
10
-60.2522745948
20
-42.8688631442
30
0.0000000000
10
-60.1113291612
20
-42.9901366060
30
0.0000000000
10
-59.9616648246
20
-43.1005575854
30
0.0000000000
10
-59.8040883014
20
-43.1995203333
30
0.0000000000
10
-59.6394488866
20
-43.2864766700
30
0.0000000000
10
-59.4686352324
20
-43.3609388829
30
0.0000000000
10
-59.2925714393
20
-43.4224825727
30
0.0000000000
10
-59.1122147788
20
-43.4707495034
30
0.0000000000
10
-58.9285458106
20
-43.5054503166
30
0.0000000000
10
-58.7425857845
20
-43.5263671746
30
0.0000000000
10
-58.6178142247
20
-43.5310235528
30
0.0000000000
10
-58.5554144172
20
-43.5310235528
30
0.0000000000
11
-61.0459011625
21
-41.0405368075
31
0.0000000000
11
-61.0389147458
21
-41.2276058581
31
0.0000000000
11
-61.0180137942
21
-41.4133983301
31
0.0000000000
11
-60.9833424323
21
-41.5968892122
31
0.0000000000
11
-60.9351186468
21
-41.7770719190
31
0.0000000000
11
-60.8736317709
21
-41.9529635516
31
0.0000000000
11
-60.7992399375
21
-42.1236089755
31
0.0000000000
11
-60.7123672402
21
-42.2880851545
31
0.0000000000
11
-60.6135009830
21
-42.4455047184
31
0.0000000000
11
-60.5031887660
21
-42.5950195790
31
0.0000000000
11
-60.3820356254
21
-42.7358241755
31
0.0000000000
11
-60.2507011440
21
-42.8671586106
31
0.0000000000
11
-60.1098965231
21
-42.9883116870
31
0.0000000000
11
-59.9603816634
21
-43.0986238263
31
0.0000000000
11
-59.8029621267
21
-43.1974899983
31
0.0000000000
11
-59.6384860010
21
-43.2843626090
31
0.0000000000
11
-59.4678406550
21
-43.3587543598
31
0.0000000000
11
-59.2919491292
21
-43.4202411602
31
0.0000000000
11
-59.1117665519
21
-43.4684648841
31
0.0000000000
11
-58.9282757985
21
-43.5031362057
31
0.0000000000
11
-58.7424834253
21
-43.5240371392
31
0.0000000000
11
-58.5554144172
21
-43.5310235528
31
0.0000000000
0
SPLINE
5
341
100
AcDbEntity
8
0
100
AcDbSpline
62
7
6
CONTINUOUS
70
0
71
3
72
28
73
24
74
22
42
0.0000001000
43
0.0000001000
44
0.0000000001
12
-3.9124705933
22
0.0000000000
32
0.0000000000
13
0.0000000000
23
-3.9124705933
33
0.0000000000
40
0.0000000000
40
0.0000000000
40
0.0000000000
40
0.0000000000
40
0.0478468683
40
0.0956336593
40
0.1433625301
40
0.1910368493
40
0.2386612370
40
0.2862413680
40
0.3337839143
40
0.3812963426
40
0.4287867822
40
0.4762638346
40
0.5237363888
40
0.5712134353
40
0.6187038628
40
0.6662162737
40
0.7137587976
40
0.7613389019
40
0.8089632575
40
0.8566375407
40
0.9043663772
40
0.9521531426
40
1.0000000000
40
1.0000000000
40
1.0000000000
40
1.0000000000
10
-58.5554144172
20
43.5564651108
30
0.0000000000
10
-58.6178142389
20
43.5564651108
30
0.0000000000
10
-58.7425858463
20
43.5518087298
30
0.0000000000
10
-58.9285459636
20
43.5308918545
30
0.0000000000
10
-59.1122150522
20
43.4961910027
30
0.0000000000
10
-59.2925718353
20
43.4479240122
30
0.0000000000
10
-59.4686357336
20
43.3863802474
30
0.0000000000
10
-59.6394494674
20
43.3119179512
30
0.0000000000
10
-59.8040889349
20
43.2249615281
30
0.0000000000
10
-59.9616654848
20
43.1259986952
30
0.0000000000
10
-60.1113298219
20
43.0155776384
30
0.0000000000
10
-60.2522752311
20
42.8943041123
30
0.0000000000
10
-60.3837407539
20
42.7628385431
30
0.0000000000
10
-60.5050142157
20
42.6218931095
30
0.0000000000
10
-60.6154351951
20
42.4722287728
30
0.0000000000
10
-60.7143979430
20
42.3146522497
30
0.0000000000
10
-60.8013542797
20
42.1500128349
30
0.0000000000
10
-60.8758164926
20
41.9791991806
30
0.0000000000
10
-60.9373601824
20
41.8031353876
30
0.0000000000
10
-60.9856271131
20
41.6227787271
30
0.0000000000
10
-61.0203279263
20
41.4391097589
30
0.0000000000
10
-61.0412447843
20
41.2531497328
30
0.0000000000
10
-61.0459011625
20
41.1283781730
30
0.0000000000
10
-61.0459011625
20
41.0659783655
30
0.0000000000
11
-58.5554144172
21
43.5564651108
31
0.0000000000
11
-58.7424834678
21
43.5494786941
31
0.0000000000
11
-58.9282759398
21
43.5285777425
31
0.0000000000
11
-59.1117668219
21
43.4939063806
31
0.0000000000
11
-59.2919495287
21
43.4456825951
31
0.0000000000
11
-59.4678411614
21
43.3841957192
31
0.0000000000
11
-59.6384865852
21
43.3098038858
31
0.0000000000
11
-59.8029627642
21
43.2229311885
31
0.0000000000
11
-59.9603823281
21
43.1240649313
31
0.0000000000
11
-60.1098971887
21
43.0137527143
31
0.0000000000
11
-60.2507017852
21
42.8925995737
31
0.0000000000
11
-60.3820362203
21
42.7612650923
31
0.0000000000
11
-60.5031892967
21
42.6204604714
31
0.0000000000
11
-60.6135014360
21
42.4709456117
31
0.0000000000
11
-60.7123676080
21
42.3135260750
31
0.0000000000
11
-60.7992402187
21
42.1490499493
31
0.0000000000
11
-60.8736319695
21
41.9784046033
31
0.0000000000
11
-60.9351187699
21
41.8025130775
31
0.0000000000
11
-60.9833424938
21
41.6223305001
31
0.0000000000
11
-61.0180138154
21
41.4388397468
31
0.0000000000
11
-61.0389147489
21
41.2530473736
31
0.0000000000
11
-61.0459011625
21
41.0659783655
31
0.0000000000
0
SPLINE
5
342
100
AcDbEntity
8
0
100
AcDbSpline
62
7
6
CONTINUOUS
70
0
71
3
72
28
73
24
74
22
42
0.0000001000
43
0.0000001000
44
0.0000000001
12
0.0000000000
22
3.9124705933
32
0.0000000000
13
-3.9124705933
23
0.0000000000
33
0.0000000000
40
0.0000000000
40
0.0000000000
40
0.0000000000
40
0.0000000000
40
0.0478468683
40
0.0956336593
40
0.1433625301
40
0.1910368493
40
0.2386612370
40
0.2862413680
40
0.3337839143
40
0.3812963426
40
0.4287867822
40
0.4762638346
40
0.5237363888
40
0.5712134353
40
0.6187038628
40
0.6662162737
40
0.7137587976
40
0.7613389019
40
0.8089632575
40
0.8566375407
40
0.9043663772
40
0.9521531426
40
1.0000000000
40
1.0000000000
40
1.0000000000
40
1.0000000000
10
61.0415875011
20
41.0659783655
30
0.0000000000
10
61.0415875011
20
41.1283781872
30
0.0000000000
10
61.0369311200
20
41.2531497946
30
0.0000000000
10
61.0160142448
20
41.4391099119
30
0.0000000000
10
60.9813133930
20
41.6227790005
30
0.0000000000
10
60.9330464025
20
41.8031357836
30
0.0000000000
10
60.8715026377
20
41.9791996819
30
0.0000000000
10
60.7970403415
20
42.1500134157
30
0.0000000000
10
60.7100839184
20
42.3146528832
30
0.0000000000
10
60.6111210855
20
42.4722294331
30
0.0000000000
10
60.5007000287
20
42.6218937702
30
0.0000000000
10
60.3794265026
20
42.7628391794
30
0.0000000000
10
60.2479609334
20
42.8943047022
30
0.0000000000
10
60.1070154998
20
43.0155781640
30
0.0000000000
10
59.9573511631
20
43.1259991434
30
0.0000000000
10
59.7997746400
20
43.2249618913
30
0.0000000000
10
59.6351352252
20
43.3119182280
30
0.0000000000
10
59.4643215709
20
43.3863804409
30
0.0000000000
10
59.2882577779
20
43.4479241307
30
0.0000000000
10
59.1079011174
20
43.4961910614
30
0.0000000000
10
58.9242321492
20
43.5308918746
30
0.0000000000
10
58.7382721231
20
43.5518087326
30
0.0000000000
10
58.6135005633
20
43.5564651108
30
0.0000000000
10
58.5511007558
20
43.5564651108
30
0.0000000000
11
61.0415875011
21
41.0659783655
31
0.0000000000
11
61.0346010843
21
41.2530474161
31
0.0000000000
11
61.0137001327
21
41.4388398881
31
0.0000000000
11
60.9790287708
21
41.6223307702
31
0.0000000000
11
60.9308049854
21
41.8025134770
31
0.0000000000
11
60.8693181095
21
41.9784051096
31
0.0000000000
11
60.7949262761
21
42.1490505335
31
0.0000000000
11
60.7080535788
21
42.3135267125
31
0.0000000000
11
60.6091873216
21
42.4709462764
31
0.0000000000
11
60.4988751046
21
42.6204611370
31
0.0000000000
11
60.3777219640
21
42.7612657335
31
0.0000000000
11
60.2463874826
21
42.8926001686
31
0.0000000000
11
60.1055828617
21
43.0137532450
31
0.0000000000
11
59.9560680020
21
43.1240653843
31
0.0000000000
11
59.7986484653
21
43.2229315563
31
0.0000000000
11
59.6341723395
21
43.3098041670
31
0.0000000000
11
59.4635269936
21
43.3841959178
31
0.0000000000
11
59.2876354678
21
43.4456827182
31
0.0000000000
11
59.1074528904
21
43.4939064421
31
0.0000000000
11
58.9239621371
21
43.5285777637
31
0.0000000000
11
58.7381697639
21
43.5494786972
31
0.0000000000
11
58.5511007558
21
43.5564651108
31
0.0000000000
0
SPLINE
5
343
100
AcDbEntity
8
0
100
AcDbSpline
62
7
6
CONTINUOUS
70
0
71
3
72
28
73
24
74
22
42
0.0000001000
43
0.0000001000
44
0.0000000001
12
3.9124705933
22
0.0000000000
32
0.0000000000
13
0.0000000000
23
3.9124705933
33
0.0000000000
40
0.0000000000
40
0.0000000000
40
0.0000000000
40
0.0000000000
40
0.0478468683
40
0.0956336593
40
0.1433625301
40
0.1910368493
40
0.2386612370
40
0.2862413680
40
0.3337839143
40
0.3812963426
40
0.4287867822
40
0.4762638346
40
0.5237363888
40
0.5712134353
40
0.6187038628
40
0.6662162737
40
0.7137587976
40
0.7613389019
40
0.8089632575
40
0.8566375407
40
0.9043663772
40
0.9521531426
40
1.0000000000
40
1.0000000000
40
1.0000000000
40
1.0000000000
10
58.5511007558
20
-43.5310235528
30
0.0000000000
10
58.6135005775
20
-43.5310235528
30
0.0000000000
10
58.7382721849
20
-43.5263671718
30
0.0000000000
10
58.9242323022
20
-43.5054502965
30
0.0000000000
10
59.1079013908
20
-43.4707494447
30
0.0000000000
10
59.2882581739
20
-43.4224824542
30
0.0000000000
10
59.4643220722
20
-43.3609386894
30
0.0000000000
10
59.6351358060
20
-43.2864763932
30
0.0000000000
10
59.7997752735
20
-43.1995199701
30
0.0000000000
10
59.9573518233
20
-43.1005571372
30
0.0000000000
10
60.1070161604
20
-42.9901360804
30
0.0000000000
10
60.2479615697
20
-42.8688625543
30
0.0000000000
10
60.3794270925
20
-42.7373969851
30
0.0000000000
10
60.5007005543
20
-42.5964515515
30
0.0000000000
10
60.6111215337
20
-42.4467872148
30
0.0000000000
10
60.7100842816
20
-42.2892106917
30
0.0000000000
10
60.7970406183
20
-42.1245712769
30
0.0000000000
10
60.8715028312
20
-41.9537576226
30
0.0000000000
10
60.9330465210
20
-41.7776938296
30
0.0000000000
10
60.9813134517
20
-41.5973371691
30
0.0000000000
10
61.0160142649
20
-41.4136682009
30
0.0000000000
10
61.0369311229
20
-41.2277081748
30
0.0000000000
10
61.0415875011
20
-41.1029366150
30
0.0000000000
10
61.0415875011
20
-41.0405368075
30
0.0000000000
11
58.5511007558
21
-43.5310235528
31
0.0000000000
11
58.7381698064
21
-43.5240371361
31
0.0000000000
11
58.9239622784
21
-43.5031361845
31
0.0000000000
11
59.1074531605
21
-43.4684648226
31
0.0000000000
11
59.2876358673
21
-43.4202410371
31
0.0000000000
11
59.4635274999
21
-43.3587541612
31
0.0000000000
11
59.6341729238
21
-43.2843623278
31
0.0000000000
11
59.7986491028
21
-43.1974896305
31
0.0000000000
11
59.9560686667
21
-43.0986233733
31
0.0000000000
11
60.1055835273
21
-42.9883111563
31
0.0000000000
11
60.2463881238
21
-42.8671580157
31
0.0000000000
11
60.3777225589
21
-42.7358235343
31
0.0000000000
11
60.4988756353
21
-42.5950189134
31
0.0000000000
11
60.6091877746
21
-42.4455040537
31
0.0000000000
11
60.7080539466
21
-42.2880845170
31
0.0000000000
11
60.7949265573
21
-42.1236083913
31
0.0000000000
11
60.8693183081
21
-41.9529630453
31
0.0000000000
11
60.9308051085
21
-41.7770715195
31
0.0000000000
11
60.9790288324
21
-41.5968889421
31
0.0000000000
11
61.0137001540
21
-41.4133981888
31
0.0000000000
11
61.0346010875
21
-41.2276058156
31
0.0000000000
11
61.0415875011
21
-41.0405368075
31
0.0000000000
0
SPLINE
5
344
100
AcDbEntity
8
0
100
AcDbSpline
62
9
6
CONTINUOUS
70
0
71
3
72
28
73
24
74
22
42
0.0000001000
43
0.0000001000
44
0.0000000001
12
0.0000139366
22
-2.3474823507
32
0.0000000000
13
2.3474823507
23
-0.0000157046
33
0.0000000000
40
0.0000000000
40
0.0000000000
40
0.0000000000
40
0.0000000000
40
0.0477568575
40
0.0954841739
40
0.1431750522
40
0.1908308688
40
0.2384543915
40
0.2860496285
40
0.3336206807
40
0.3811724121
40
0.4287099024
40
0.4762388589
40
0.5237648176
40
0.5712937292
40
0.6188311404
40
0.6663827902
40
0.7139537656
40
0.7615489286
40
0.8091723773
40
0.8568281143
40
0.9045189293
40
0.9522461904
40
1.0000000000
40
1.0000000000
40
1.0000000000
40
1.0000000000
10
-59.2546833532
20
-40.2455136963
30
0.0000000000
10
-59.2546831313
20
-40.2828831564
30
0.0000000000
10
-59.2518993055
20
-40.3576289819
30
0.0000000000
10
-59.2393862621
20
-40.4690612414
30
0.0000000000
10
-59.2186118038
20
-40.5791787686
30
0.0000000000
10
-59.1896966052
20
-40.6873582887
30
0.0000000000
10
-59.1528057275
20
-40.7930054456
30
0.0000000000
10
-59.1081470900
20
-40.8955384449
30
0.0000000000
10
-59.0559704840
20
-40.9943942500
30
0.0000000000
10
-58.9965662662
20
-41.0890299576
30
0.0000000000
10
-58.9302634571
20
-41.1789263664
30
0.0000000000
10
-58.8574281645
20
-41.2635900953
30
0.0000000000
10
-58.7784613944
20
-41.3425564065
30
0.0000000000
10
-58.6937973187
20
-41.4153911467
30
0.0000000000
10
-58.6039006635
20
-41.4816933499
30
0.0000000000
10
-58.5092647847
20
-41.5410969442
30
0.0000000000
10
-58.4104088580
20
-41.5932729291
30
0.0000000000
10
-58.3078757850
20
-41.6379309561
30
0.0000000000
10
-58.2022286047
20
-41.6748212235
30
0.0000000000
10
-58.0940491061
20
-41.7037358472
30
0.0000000000
10
-57.9839316257
20
-41.7245097043
30
0.0000000000
10
-57.8725017737
20
-41.7370219921
30
0.0000000000
10
-57.7977583811
20
-41.7398054935
30
0.0000000000
10
-57.7603913061
20
-41.7398057435
30
0.0000000000
11
-59.2546833532
21
-40.2455136963
31
0.0000000000
11
-59.2505072872
21
-40.3575442698
31
0.0000000000
11
-59.2380031367
21
-40.4688833513
31
0.0000000000
11
-59.2172459370
21
-40.5788957312
31
0.0000000000
11
-59.1883562520
21
-40.6869723194
31
0.0000000000
11
-59.1514990295
21
-40.7925173424
31
0.0000000000
11
-59.1068818734
21
-40.8949510971
31
0.0000000000
11
-59.0547546065
21
-40.9937105500
31
0.0000000000
11
-58.9954071777
21
-41.0882538541
31
0.0000000000
11
-58.9291684941
21
-41.1780621394
31
0.0000000000
11
-58.8564039360
21
-41.2626431043
31
0.0000000000
11
-58.7775143846
21
-41.3415321973
31
0.0000000000
11
-58.6929330793
21
-41.4142961984
31
0.0000000000
11
-58.6031245678
21
-41.4805342620
31
0.0000000000
11
-58.5085810967
21
-41.5398810651
31
0.0000000000
11
-58.4098215213
21
-41.5920077130
31
0.0000000000
11
-58.3073876899
21
-41.6366242584
31
0.0000000000
11
-58.2018426401
21
-41.6734808773
31
0.0000000000
11
-58.0937660877
21
-41.7023699729
31
0.0000000000
11
-57.9837537503
21
-41.7231265954
31
0.0000000000
11
-57.8724147395
21
-41.7356302148
31
0.0000000000
11
-57.7603913061
21
-41.7398057435
31
0.0000000000
0
SPLINE
5
345
100
AcDbEntity
8
0
100
AcDbSpline
62
9
6
CONTINUOUS
70
0
71
3
72
28
73
24
74
22
42
0.0000001000
43
0.0000001000
44
0.0000000001
12
0.0118324253
22
-3.9081686827
32
0.0000000000
13
3.9081686791
23
-0.0118336178
33
0.0000000000
40
0.0000000000
40
0.0000000000
40
0.0000000000
40
0.0000000000
40
0.0476843435
40
0.0953510684
40
0.1430018912
40
0.1906369946
40
0.2382575280
40
0.2858654876
40
0.3334626155
40
0.3810511213
40
0.4286331969
40
0.4762115208
40
0.5237884716
40
0.5713667963
40
0.6189488734
40
0.6665373789
40
0.7141345091
40
0.7617424721
40
0.8093630070
40
0.8569981047
40
0.9046489362
40
0.9523156765
40
1.0000000000
40
1.0000000000
40
1.0000000000
40
1.0000000000
10
-60.2508780513
20
-40.2455136963
30
0.0000000000
10
-60.2506899775
20
-40.3076331823
30
0.0000000000
10
-60.2456838546
20
-40.4318849810
30
0.0000000000
10
-60.2243257579
20
-40.6171144728
30
0.0000000000
10
-60.1892488688
20
-40.8001875676
30
0.0000000000
10
-60.1406561409
20
-40.9800803016
30
0.0000000000
10
-60.0788248047
20
-41.1558044597
30
0.0000000000
10
-60.0041034616
20
-41.3263925474
30
0.0000000000
10
-59.9169100470
20
-41.4909080381
30
0.0000000000
10
-59.8177297704
20
-41.6484476771
30
0.0000000000
10
-59.7071118711
20
-41.7981474334
30
0.0000000000
10
-59.5856670069
20
-41.9391859825
30
0.0000000000
10
-59.4540636139
20
-42.0707893767
30
0.0000000000
10
-59.3130250636
20
-42.1922342441
30
0.0000000000
10
-59.1633253060
20
-42.3028521460
30
0.0000000000
10
-59.0057856639
20
-42.4020324260
30
0.0000000000
10
-58.8412701675
20
-42.4892258449
30
0.0000000000
10
-58.6706820712
20
-42.5639471921
30
0.0000000000
10
-58.4949579141
20
-42.6257785277
30
0.0000000000
10
-58.3150651743
20
-42.6743712576
30
0.0000000000
10
-58.1319920562
20
-42.7094481501
30
0.0000000000
10
-57.9467625583
20
-42.7308062518
30
0.0000000000
10
-57.8225107659
20
-42.7358123489
30
0.0000000000
10
-57.7603913061
20
-42.7360004416
30
0.0000000000
11
-60.2508780513
21
-40.2455136963
31
0.0000000000
11
-60.2433733091
21
-40.4317218380
31
0.0000000000
11
-60.2220345494
21
-40.6167861272
31
0.0000000000
11
-60.1869893850
21
-40.7996872444
31
0.0000000000
11
-60.1384413398
21
-40.9794125676
31
0.0000000000
11
-60.0766674630
21
-41.1549713732
31
0.0000000000
11
-60.0020156452
21
-41.3253994329
31
0.0000000000
11
-59.9149038247
21
-41.4897600031
31
0.0000000000
11
-59.8158165047
21
-41.6471513440
31
0.0000000000
11
-59.7053027938
21
-41.7967097064
31
0.0000000000
11
-59.5839721779
21
-41.9376153934
31
0.0000000000
11
-59.4524930256
21
-42.0690945468
31
0.0000000000
11
-59.3115873371
21
-42.1904251662
31
0.0000000000
11
-59.1620289711
21
-42.3009388815
31
0.0000000000
11
-59.0046376318
21
-42.4000262019
31
0.0000000000
11
-58.8402770541
21
-42.4871380277
31
0.0000000000
11
-58.6698489824
21
-42.5617898511
31
0.0000000000
11
-58.4942901710
21
-42.6235637297
31
0.0000000000
11
-58.3145648697
21
-42.6721117692
31
0.0000000000
11
-58.1316637188
21
-42.7071569406
31
0.0000000000
11
-57.9465993695
21
-42.7284957029
31
0.0000000000
11
-57.7603913061
21
-42.7360004416
31
0.0000000000
0
SPLINE
5
346
100
AcDbEntity
8
0
100
AcDbSpline
62
9
6
CONTINUOUS
70
0
71
3
72
28
73
24
74
22
42
0.0000001000
43
0.0000001000
44
0.0000000001
12
-3.9081686827
22
-0.0118324253
32
0.0000000000
13
-0.0118336178
23
-3.9081686791
33
0.0000000000
40
0.0000000000
40
0.0000000000
40
0.0000000000
40
0.0000000000
40
0.0476843435
40
0.0953510684
40
0.1430018912
40
0.1906369946
40
0.2382575280
40
0.2858654876
40
0.3334626155
40
0.3810511213
40
0.4286331969
40
0.4762115208
40
0.5237884716
40
0.5713667963
40
0.6189488734
40
0.6665373789
40
0.7141345091
40
0.7617424721
40
0.8093630070
40
0.8569981047
40
0.9046489362
40
0.9523156765
40
1.0000000000
40
1.0000000000
40
1.0000000000
40
1.0000000000
10
-57.7603913061
20
42.7614419996
30
0.0000000000
10
-57.8225107920
20
42.7612539258
30
0.0000000000
10
-57.9467625907
20
42.7562478029
30
0.0000000000
10
-58.1319920825
20
42.7348897062
30
0.0000000000
10
-58.3150651773
20
42.6998128171
30
0.0000000000
10
-58.4949579113
20
42.6512200892
30
0.0000000000
10
-58.6706820694
20
42.5893887530
30
0.0000000000
10
-58.8412701571
20
42.5146674099
30
0.0000000000
10
-59.0057856478
20
42.4274739953
30
0.0000000000
10
-59.1633252868
20
42.3282937187
30
0.0000000000
10
-59.3130250431
20
42.2176758194
30
0.0000000000
10
-59.4540635922
20
42.0962309552
30
0.0000000000
10
-59.5856669864
20
41.9646275622
30
0.0000000000
10
-59.7071118538
20
41.8235890118
30
0.0000000000
10
-59.8177297557
20
41.6738892543
30
0.0000000000
10
-59.9169100357
20
41.5163496122
30
0.0000000000
10
-60.0041034546
20
41.3518341157
30
0.0000000000
10
-60.0788248018
20
41.1812460195
30
0.0000000000
10
-60.1406561374
20
41.0055218624
30
0.0000000000
10
-60.1892488673
20
40.8256291226
30
0.0000000000
10
-60.2243257598
20
40.6425560045
30
0.0000000000
10
-60.2456838615
20
40.4573265066
30
0.0000000000
10
-60.2506899586
20
40.3330747142
30
0.0000000000
10
-60.2508780513
20
40.2709552543
30
0.0000000000
11
-57.7603913061
21
42.7614419996
31
0.0000000000
11
-57.9465994477
21
42.7539372574
31
0.0000000000
11
-58.1316637369
21
42.7325984977
31
0.0000000000
11
-58.3145648541
21
42.6975533332
31
0.0000000000
11
-58.4942901773
21
42.6490052881
31
0.0000000000
11
-58.6698489829
21
42.5872314113
31
0.0000000000
11
-58.8402770426
21
42.5125795935
31
0.0000000000
11
-59.0046376128
21
42.4254677729
31
0.0000000000
11
-59.1620289538
21
42.3263804530
31
0.0000000000
11
-59.3115873161
21
42.2158667421
31
0.0000000000
11
-59.4524930031
21
42.0945361261
31
0.0000000000
11
-59.5839721565
21
41.9630569739
31
0.0000000000
11
-59.7053027759
21
41.8221512854
31
0.0000000000
11
-59.8158164912
21
41.6725929194
31
0.0000000000
11
-59.9149038116
21
41.5152015801
31
0.0000000000
11
-60.0020156374
21
41.3508410024
31
0.0000000000
11
-60.0766674608
21
41.1804129307
31
0.0000000000
11
-60.1384413394
21
41.0048541193
31
0.0000000000
11
-60.1869893789
21
40.8251288180
31
0.0000000000
11
-60.2220345503
21
40.6422276671
31
0.0000000000
11
-60.2433733126
21
40.4571633178
31
0.0000000000
11
-60.2508780513
21
40.2709552543
31
0.0000000000
0
SPLINE
5
347
100
AcDbEntity
8
0
100
AcDbSpline
62
9
6
CONTINUOUS
70
0
71
3
72
28
73
24
74
22
42
0.0000001000
43
0.0000001000
44
0.0000000001
12
-2.3474823507
22
-0.0000139366
32
0.0000000000
13
-0.0000157046
23
-2.3474823507
33
0.0000000000
40
0.0000000000
40
0.0000000000
40
0.0000000000
40
0.0000000000
40
0.0477568575
40
0.0954841739
40
0.1431750522
40
0.1908308688
40
0.2384543915
40
0.2860496285
40
0.3336206807
40
0.3811724121
40
0.4287099024
40
0.4762388589
40
0.5237648176
40
0.5712937292
40
0.6188311404
40
0.6663827902
40
0.7139537656
40
0.7615489286
40
0.8091723773
40
0.8568281143
40
0.9045189293
40
0.9522461904
40
1.0000000000
40
1.0000000000
40
1.0000000000
40
1.0000000000
10
-57.7603913061
20
41.7652473015
30
0.0000000000
10
-57.7977607661
20
41.7652470796
30
0.0000000000
10
-57.8725065916
20
41.7624632538
30
0.0000000000
10
-57.9839388512
20
41.7499502104
30
0.0000000000
10
-58.0940563783
20
41.7291757521
30
0.0000000000
10
-58.2022358984
20
41.7002605535
30
0.0000000000
10
-58.3078830553
20
41.6633696758
30
0.0000000000
10
-58.4104160546
20
41.6187110382
30
0.0000000000
10
-58.5092718597
20
41.5665344323
30
0.0000000000
10
-58.6039075673
20
41.5071302145
30
0.0000000000
10
-58.6938039761
20
41.4408274054
30
0.0000000000
10
-58.7784677050
20
41.3679921128
30
0.0000000000
10
-58.8574340162
20
41.2890253427
30
0.0000000000
10
-58.9302687564
20
41.2043612670
30
0.0000000000
10
-58.9965709596
20
41.1144646118
30
0.0000000000
10
-59.0559745539
20
41.0198287329
30
0.0000000000
10
-59.1081505388
20
40.9209728063
30
0.0000000000
10
-59.1528085658
20
40.8184397333
30
0.0000000000
10
-59.1896988332
20
40.7127925530
30
0.0000000000
10
-59.2186134569
20
40.6046130544
30
0.0000000000
10
-59.2393873140
20
40.4944955740
30
0.0000000000
10
-59.2518996018
20
40.3830657220
30
0.0000000000
10
-59.2546831032
20
40.3083223294
30
0.0000000000
10
-59.2546833532
20
40.2709552543
30
0.0000000000
11
-57.7603913061
21
41.7652473015
31
0.0000000000
11
-57.8724218795
21
41.7610712355
31
0.0000000000
11
-57.9837609610
21
41.7485670850
31
0.0000000000
11
-58.0937733410
21
41.7278098853
31
0.0000000000
11
-58.2018499291
21
41.6989202003
31
0.0000000000
11
-58.3073949521
21
41.6620629778
31
0.0000000000
11
-58.4098287068
21
41.6174458217
31
0.0000000000
11
-58.5085881597
21
41.5653185548
31
0.0000000000
11
-58.6031314638
21
41.5059711260
31
0.0000000000
11
-58.6929397491
21
41.4397324424
31
0.0000000000
11
-58.7775207140
21
41.3669678842
31
0.0000000000
11
-58.8564098070
21
41.2880783329
31
0.0000000000
11
-58.9291738081
21
41.2034970276
31
0.0000000000
11
-58.9954118717
21
41.1136885161
31
0.0000000000
11
-59.0547586748
21
41.0191450450
31
0.0000000000
11
-59.1068853227
21
40.9203854696
31
0.0000000000
11
-59.1515018681
21
40.8179516382
31
0.0000000000
11
-59.1883584871
21
40.7124065884
31
0.0000000000
11
-59.2172475826
21
40.6043300360
31
0.0000000000
11
-59.2380042051
21
40.4943176986
31
0.0000000000
11
-59.2505078245
21
40.3829786878
31
0.0000000000
11
-59.2546833532
21
40.2709552543
31
0.0000000000
0
SPLINE
5
348
100
AcDbEntity
8
0
100
AcDbSpline
62
9
6
CONTINUOUS
70
0
71
3
72
28
73
24
74
22
42
0.0000001000
43
0.0000001000
44
0.0000000001
12
-0.0000139366
22
2.3474823507
32
0.0000000000
13
-2.3474823507
23
0.0000157046
33
0.0000000000
40
0.0000000000
40
0.0000000000
40
0.0000000000
40
0.0000000000
40
0.0477568575
40
0.0954841739
40
0.1431750522
40
0.1908308688
40
0.2384543915
40
0.2860496285
40
0.3336206807
40
0.3811724121
40
0.4287099024
40
0.4762388589
40
0.5237648176
40
0.5712937292
40
0.6188311404
40
0.6663827902
40
0.7139537656
40
0.7615489286
40
0.8091723773
40
0.8568281143
40
0.9045189293
40
0.9522461904
40
1.0000000000
40
1.0000000000
40
1.0000000000
40
1.0000000000
10
59.2503696918
20
40.2709552543
30
0.0000000000
10
59.2503694699
20
40.3083247144
30
0.0000000000
10
59.2475856441
20
40.3830705399
30
0.0000000000
10
59.2350726007
20
40.4945027994
30
0.0000000000
10
59.2142981424
20
40.6046203266
30
0.0000000000
10
59.1853829438
20
40.7127998467
30
0.0000000000
10
59.1484920661
20
40.8184470036
30
0.0000000000
10
59.1038334285
20
40.9209800029
30
0.0000000000
10
59.0516568226
20
41.0198358080
30
0.0000000000
10
58.9922526048
20
41.1144715156
30
0.0000000000
10
58.9259497957
20
41.2043679244
30
0.0000000000
10
58.8531145031
20
41.2890316533
30
0.0000000000
10
58.7741477330
20
41.3679979645
30
0.0000000000
10
58.6894836573
20
41.4408327047
30
0.0000000000
10
58.5995870021
20
41.5071349079
30
0.0000000000
10
58.5049511232
20
41.5665385022
30
0.0000000000
10
58.4060951966
20
41.6187144871
30
0.0000000000
10
58.3035621236
20
41.6633725141
30
0.0000000000
10
58.1979149433
20
41.7002627815
30
0.0000000000
10
58.0897354447
20
41.7291774052
30
0.0000000000
10
57.9796179643
20
41.7499512623
30
0.0000000000
10
57.8681881123
20
41.7624635501
30
0.0000000000
10
57.7934447197
20
41.7652470515
30
0.0000000000
10
57.7560776446
20
41.7652473015
30
0.0000000000
11
59.2503696918
21
40.2709552543
31
0.0000000000
11
59.2461936257
21
40.3829858278
31
0.0000000000
11
59.2336894752
21
40.4943249093
31
0.0000000000
11
59.2129322756
21
40.6043372892
31
0.0000000000
11
59.1840425906
21
40.7124138774
31
0.0000000000
11
59.1471853681
21
40.8179589004
31
0.0000000000
11
59.1025682120
21
40.9203926551
31
0.0000000000
11
59.0504409451
21
41.0191521080
31
0.0000000000
11
58.9910935163
21
41.1136954121
31
0.0000000000
11
58.9248548327
21
41.2035036974
31
0.0000000000
11
58.8520902745
21
41.2880846623
31
0.0000000000
11
58.7732007232
21
41.3669737553
31
0.0000000000
11
58.6886194179
21
41.4397377564
31
0.0000000000
11
58.5988109064
21
41.5059758200
31
0.0000000000
11
58.5042674353
21
41.5653226231
31
0.0000000000
11
58.4055078599
21
41.6174492710
31
0.0000000000
11
58.3030740285
21
41.6620658164
31
0.0000000000
11
58.1975289787
21
41.6989224353
31
0.0000000000
11
58.0894524263
21
41.7278115309
31
0.0000000000
11
57.9794400889
21
41.7485681534
31
0.0000000000
11
57.8681010781
21
41.7610717728
31
0.0000000000
11
57.7560776446
21
41.7652473015
31
0.0000000000
0
SPLINE
5
349
100
AcDbEntity
8
0
100
AcDbSpline
62
9
6
CONTINUOUS
70
0
71
3
72
28
73
24
74
22
42
0.0000001000
43
0.0000001000
44
0.0000000001
12
-0.0118324253
22
3.9081686827
32
0.0000000000
13
-3.9081686791
23
0.0118336178
33
0.0000000000
40
0.0000000000
40
0.0000000000
40
0.0000000000
40
0.0000000000
40
0.0476843435
40
0.0953510684
40
0.1430018912
40
0.1906369946
40
0.2382575280
40
0.2858654876
40
0.3334626155
40
0.3810511213
40
0.4286331969
40
0.4762115208
40
0.5237884716
40
0.5713667963
40
0.6189488734
40
0.6665373789
40
0.7141345091
40
0.7617424721
40
0.8093630070
40
0.8569981047
40
0.9046489362
40
0.9523156765
40
1.0000000000
40
1.0000000000
40
1.0000000000
40
1.0000000000
10
60.2465643899
20
40.2709552543
30
0.0000000000
10
60.2463763161
20
40.3330747403
30
0.0000000000
10
60.2413701932
20
40.4573265390
30
0.0000000000
10
60.2200120965
20
40.6425560308
30
0.0000000000
10
60.1849352074
20
40.8256291256
30
0.0000000000
10
60.1363424795
20
41.0055218596
30
0.0000000000
10
60.0745111433
20
41.1812460177
30
0.0000000000
10
59.9997898002
20
41.3518341054
30
0.0000000000
10
59.9125963856
20
41.5163495961
30
0.0000000000
10
59.8134161090
20
41.6738892351
30
0.0000000000
10
59.7027982097
20
41.8235889914
30
0.0000000000
10
59.5813533455
20
41.9646275405
30
0.0000000000
10
59.4497499525
20
42.0962309347
30
0.0000000000
10
59.3087114021
20
42.2176758021
30
0.0000000000
10
59.1590116446
20
42.3282937040
30
0.0000000000
10
59.0014720025
20
42.4274739840
30
0.0000000000
10
58.8369565060
20
42.5146674029
30
0.0000000000
10
58.6663684098
20
42.5893887501
30
0.0000000000
10
58.4906442527
20
42.6512200857
30
0.0000000000
10
58.3107515129
20
42.6998128156
30
0.0000000000
10
58.1276783948
20
42.7348897081
30
0.0000000000
10
57.9424488969
20
42.7562478098
30
0.0000000000
10
57.8181971045
20
42.7612539069
30
0.0000000000
10
57.7560776446
20
42.7614419996
30
0.0000000000
11
60.2465643899
21
40.2709552543
31
0.0000000000
11
60.2390596477
21
40.4571633960
31
0.0000000000
11
60.2177208880
21
40.6422276852
31
0.0000000000
11
60.1826757235
21
40.8251288024
31
0.0000000000
11
60.1341276784
21
41.0048541256
31
0.0000000000
11
60.0723538016
21
41.1804129312
31
0.0000000000
11
59.9977019838
21
41.3508409909
31
0.0000000000
11
59.9105901632
21
41.5152015611
31
0.0000000000
11
59.8115028433
21
41.6725929020
31
0.0000000000
11
59.7009891324
21
41.8221512644
31
0.0000000000
11
59.5796585164
21
41.9630569514
31
0.0000000000
11
59.4481793642
21
42.0945361048
31
0.0000000000
11
59.3072736757
21
42.2158667242
31
0.0000000000
11
59.1577153096
21
42.3263804395
31
0.0000000000
11
59.0003239704
21
42.4254677599
31
0.0000000000
11
58.8359633927
21
42.5125795857
31
0.0000000000
11
58.6655353210
21
42.5872314091
31
0.0000000000
11
58.4899765096
21
42.6490052877
31
0.0000000000
11
58.3102512083
21
42.6975533272
31
0.0000000000
11
58.1273500574
21
42.7325984986
31
0.0000000000
11
57.9422857081
21
42.7539372609
31
0.0000000000
11
57.7560776446
21
42.7614419996
31
0.0000000000
0
SPLINE
5
34A
100
AcDbEntity
8
0
100
AcDbSpline
62
9
6
CONTINUOUS
70
0
71
3
72
28
73
24
74
22
42
0.0000001000
43
0.0000001000
44
0.0000000001
12
2.3474823507
22
0.0000139366
32
0.0000000000
13
0.0000157046
23
2.3474823507
33
0.0000000000
40
0.0000000000
40
0.0000000000
40
0.0000000000
40
0.0000000000
40
0.0477568575
40
0.0954841739
40
0.1431750522
40
0.1908308688
40
0.2384543915
40
0.2860496285
40
0.3336206807
40
0.3811724121
40
0.4287099024
40
0.4762388589
40
0.5237648176
40
0.5712937292
40
0.6188311404
40
0.6663827902
40
0.7139537656
40
0.7615489286
40
0.8091723773
40
0.8568281143
40
0.9045189293
40
0.9522461904
40
1.0000000000
40
1.0000000000
40
1.0000000000
40
1.0000000000
10
57.7560776446
20
-41.7398057435
30
0.0000000000
10
57.7934471047
20
-41.7398055216
30
0.0000000000
10
57.8681929302
20
-41.7370216958
30
0.0000000000
10
57.9796251897
20
-41.7245086524
30
0.0000000000
10
58.0897427169
20
-41.7037341941
30
0.0000000000
10
58.1979222370
20
-41.6748189955
30
0.0000000000
10
58.3035693939
20
-41.6379281178
30
0.0000000000
10
58.4061023932
20
-41.5932694802
30
0.0000000000
10
58.5049581983
20
-41.5410928743
30
0.0000000000
10
58.5995939059
20
-41.4816886565
30
0.0000000000
10
58.6894903147
20
-41.4153858474
30
0.0000000000
10
58.7741540436
20
-41.3425505548
30
0.0000000000
10
58.8531203547
20
-41.2635837847
30
0.0000000000
10
58.9259550950
20
-41.1789197090
30
0.0000000000
10
58.9922572982
20
-41.0890230538
30
0.0000000000
10
59.0516608925
20
-40.9943871749
30
0.0000000000
10
59.1038368774
20
-40.8955312483
30
0.0000000000
10
59.1484949044
20
-40.7929981753
30
0.0000000000
10
59.1853851718
20
-40.6873509950
30
0.0000000000
10
59.2142997955
20
-40.5791714964
30
0.0000000000
10
59.2350736526
20
-40.4690540160
30
0.0000000000
10
59.2475859404
20
-40.3576241640
30
0.0000000000
10
59.2503694418
20
-40.2828807714
30
0.0000000000
10
59.2503696918
20
-40.2455136963
30
0.0000000000
11
57.7560776446
21
-41.7398057435
31
0.0000000000
11
57.8681082181
21
-41.7356296775
31
0.0000000000
11
57.9794472996
21
-41.7231255270
31
0.0000000000
11
58.0894596795
21
-41.7023683273
31
0.0000000000
11
58.1975362677
21
-41.6734786423
31
0.0000000000
11
58.3030812907
21
-41.6366214198
31
0.0000000000
11
58.4055150454
21
-41.5920042637
31
0.0000000000
11
58.5042744983
21
-41.5398769968
31
0.0000000000
11
58.5988178024
21
-41.4805295680
31
0.0000000000
11
58.6886260877
21
-41.4142908844
31
0.0000000000
11
58.7732070526
21
-41.3415263262
31
0.0000000000
11
58.8520961456
21
-41.2626367749
31
0.0000000000
11
58.9248601467
21
-41.1780554696
31
0.0000000000
11
58.9910982103
21
-41.0882469581
31
0.0000000000
11
59.0504450134
21
-40.9937034870
31
0.0000000000
11
59.1025716613
21
-40.8949439116
31
0.0000000000
11
59.1471882067
21
-40.7925100802
31
0.0000000000
11
59.1840448256
21
-40.6869650304
31
0.0000000000
11
59.2129339212
21
-40.5788884780
31
0.0000000000
11
59.2336905437
21
-40.4688761406
31
0.0000000000
11
59.2461941631
21
-40.3575371298
31
0.0000000000
11
59.2503696918
21
-40.2455136963
31
0.0000000000
0
SPLINE
5
34B
100
AcDbEntity
8
0
100
AcDbSpline
62
9
6
CONTINUOUS
70
0
71
3
72
28
73
24
74
22
42
0.0000001000
43
0.0000001000
44
0.0000000001
12
3.9081686827
22
0.0118324253
32
0.0000000000
13
0.0118336178
23
3.9081686791
33
0.0000000000
40
0.0000000000
40
0.0000000000
40
0.0000000000
40
0.0000000000
40
0.0476843435
40
0.0953510684
40
0.1430018912
40
0.1906369946
40
0.2382575280
40
0.2858654876
40
0.3334626155
40
0.3810511213
40
0.4286331969
40
0.4762115208
40
0.5237884716
40
0.5713667963
40
0.6189488734
40
0.6665373789
40
0.7141345091
40
0.7617424721
40
0.8093630070
40
0.8569981047
40
0.9046489362
40
0.9523156765
40
1.0000000000
40
1.0000000000
40
1.0000000000
40
1.0000000000
10
57.7560776446
20
-42.7360004416
30
0.0000000000
10
57.8181971306
20
-42.7358123678
30
0.0000000000
10
57.9424489293
20
-42.7308062449
30
0.0000000000
10
58.1276784211
20
-42.7094481482
30
0.0000000000
10
58.3107515159
20
-42.6743712591
30
0.0000000000
10
58.4906442499
20
-42.6257785312
30
0.0000000000
10
58.6663684080
20
-42.5639471950
30
0.0000000000
10
58.8369564957
20
-42.4892258519
30
0.0000000000
10
59.0014719864
20
-42.4020324373
30
0.0000000000
10
59.1590116254
20
-42.3028521607
30
0.0000000000
10
59.3087113817
20
-42.1922342614
30
0.0000000000
10
59.4497499308
20
-42.0707893972
30
0.0000000000
10
59.5813533250
20
-41.9391860042
30
0.0000000000
10
59.7027981923
20
-41.7981474538
30
0.0000000000
10
59.8134160943
20
-41.6484476963
30
0.0000000000
10
59.9125963743
20
-41.4909080542
30
0.0000000000
10
59.9997897932
20
-41.3263925578
30
0.0000000000
10
60.0745111404
20
-41.1558044615
30
0.0000000000
10
60.1363424760
20
-40.9800803044
30
0.0000000000
10
60.1849352059
20
-40.8001875646
30
0.0000000000
10
60.2200120984
20
-40.6171144465
30
0.0000000000
10
60.2413702001
20
-40.4318849486
30
0.0000000000
10
60.2463762972
20
-40.3076331562
30
0.0000000000
10
60.2465643899
20
-40.2455136963
30
0.0000000000
11
57.7560776446
21
-42.7360004416
31
0.0000000000
11
57.9422857863
21
-42.7284956994
31
0.0000000000
11
58.1273500755
21
-42.7071569397
31
0.0000000000
11
58.3102511927
21
-42.6721117752
31
0.0000000000
11
58.4899765159
21
-42.6235637301
31
0.0000000000
11
58.6655353215
21
-42.5617898533
31
0.0000000000
11
58.8359633812
21
-42.4871380355
31
0.0000000000
11
59.0003239514
21
-42.4000262149
31
0.0000000000
11
59.1577152923
21
-42.3009388950
31
0.0000000000
11
59.3072736547
21
-42.1904251841
31
0.0000000000
11
59.4481793417
21
-42.0690945681
31
0.0000000000
11
59.5796584951
21
-41.9376154159
31
0.0000000000
11
59.7009891145
21
-41.7967097274
31
0.0000000000
11
59.8115028298
21
-41.6471513614
31
0.0000000000
11
59.9105901502
21
-41.4897600221
31
0.0000000000
11
59.9977019760
21
-41.3253994444
31
0.0000000000
11
60.0723537994
21
-41.1549713727
31
0.0000000000
11
60.1341276780
21
-40.9794125613
31
0.0000000000
11
60.1826757175
21
-40.7996872600
31
0.0000000000
11
60.2177208889
21
-40.6167861091
31
0.0000000000
11
60.2390596512
21
-40.4317217598
31
0.0000000000
11
60.2465643899
21
-40.2455136963
31
0.0000000000
0
ENDSEC
0
SECTION
2
OBJECTS
0
DICTIONARY
5
34C
100
AcDbDictionary
3
ACAD_GROUP
350
34D
3
ACAD_MLINESTYLE
350
34E
0
DICTIONARY
5
34D
102
{ACAD_REACTORS
330
34C
102
}
100
AcDbDictionary
0
DICTIONARY
5
34E
102
{ACAD_REACTORS
330
34C
102
}
100
AcDbDictionary
3
STANDARD
350
34F
0
MLINESTYLE
5
34F
102
{ACAD_REACTORS
330
34E
102
}
100
AcDbMlineStyle
2
STANDARD
70
0
3

62
256
51
90.0
52
90.0
71
2
49
0.5
62
256
6
BYLAYER
49
-0.5
62
256
6
BYLAYER
0
ENDSEC
0
EOF
