  0
SECTION
  2
HEADER
  9
$ACADVER
  1
AC1024
  9
$DWGCODEPAGE
  3
ANSI_1252
  9
$EXTMAX
 10
297.0
 20
210.0
 30
0.0
  9
$EXTMIN
 10
0.0
 20
0.0
 30
0.0
  9
$LIMMIN
 10
0.0
 20
0.0
  9
$LIMMAX
 10
297.0
 20
210.0
  9
$VIEWCTR
 10
148.5
 20
105.0
  9
$VIEWSIZE
 40
210.0
  9
$CLAYER
  8
0
  9
$LTSCALE
 40
16.335
  9
$CELTYPE
  6
BYLAYER
  9
$DIMSCALE
 40
1.0
  9
$DIMASZ
 40
3.0
  9
$DIMEXO
 40
0.5
  9
$DIMDLI
 40
11.286
  9
$DIMEXE
 40
1.5
  9
$DIMCEN
 40
2.673
  9
$DIMLFAC
 40
1.0
  9
$DIMBLK
  1
_FILLED
  9
$DIMALT
 70
0
  9
$DIMALTF
 40
0.0393700787
  9
$DIMTXT
 40
3.0
  9
$DIMTOL
 70
1
  9
$DIMLIM
 70
0
  9
$DIMTFAC
 40
1.0
  9
$DIMTP
 40
0.01
  9
$DIMTM
 40
0.01
  9
$DIMGAP
 40
0.625
  9
$DIMDSEP
 70
44
  9
$AUNITS
 70
0
  9
$PDMODE
 70
3
  9
$PDSIZE
 40
3.0
  9
$HANDSEED
  5
419
  9
$TILEMODE
 70
1
  9
$MEASUREMENT
 70
1
  9
$INSUNITS
 70
4
  0
ENDSEC
  0
SECTION
  2
CLASSES
  0
CLASS
  1
ACDBDICTIONARYWDFLT
  2
AcDbDictionaryWithDefault
  3
AutoCAD 2000
 90
0
 91
1
280
0
281
0
  0
CLASS
  1
ACDBPLACEHOLDER
  2
AcDbPlaceHolder
  3
AutoCAD 2000
 90
0
 91
1
280
0
281
0
  0
CLASS
  1
LAYOUT
  2
AcDbLayout
  3
AutoCAD 2000
 90
0
 91
0
280
0
281
0
  0
ENDSEC
  0
SECTION
  2
TABLES
  0
TABLE
  2
VPORT
  5
8
100
AcDbSymbolTable
 70
2
  0
VPORT
  5
1F4
100
AcDbSymbolTableRecord
100
AcDbViewportTableRecord
  2
*ACTIVE
 70
0
 10
0.0
 20
0.0
 11
1.0
 21
1.0
 12
148.5
 22
105.0
 13
0.0
 23
0.0
 14
1.0
 24
1.0
 15
0.0
 25
0.0
 16
0.0
 26
0.0
 36
1.0
 17
0.0
 27
0.0
 37
0.0
 40
210.0
 41
1.4142857143
 42
50.0
 43
0.0
 44
0.0
 50
0.0
 51
0.0
 71
0
 72
100
 73
1
 74
1
 75
0
 76
0
 77
0
 78
0
  0
ENDTAB
  0
TABLE
  2
LTYPE
  5
5
100
AcDbSymbolTable
 70
6
  0
LTYPE
  5
14
100
AcDbSymbolTableRecord
100
AcDbLinetypeTableRecord
  2
BYBLOCK
 70
0
  3

 72
65
 73
0
 40
0.0
  0
LTYPE
  5
15
100
AcDbSymbolTableRecord
100
AcDbLinetypeTableRecord
  2
BYLAYER
 70
0
  3

 72
65
 73
0
 40
0.0
  0
LTYPE
  5
16
100
AcDbSymbolTableRecord
100
AcDbLinetypeTableRecord
  2
CONTINUOUS
 70
64
  3
Solid line
 72
65
 73
0
 40
0.0
  0
LTYPE
  5
1F5
100
AcDbSymbolTableRecord
100
AcDbLinetypeTableRecord
  2
CENTER
 70
64
  3
____ _ ____ _ ____ _ ____ _ ____ _ ____ _ ____
 72
65
 73
4
 40
0.6
 49
0.375
 74
0
 49
-0.075
 74
0
 49
0.075
 74
0
 49
-0.075
 74
0
  0
LTYPE
  5
1F6
100
AcDbSymbolTableRecord
100
AcDbLinetypeTableRecord
  2
HIDDEN
 70
64
  3
- - - - - - - - - - - - - - - - - - - -
 72
65
 73
2
 40
0.2
 49
0.1
 74
0
 49
-0.1
 74
0
  0
LTYPE
  5
1F7
100
AcDbSymbolTableRecord
100
AcDbLinetypeTableRecord
  2
PHANTOM
 70
64
  3
_____ _ _ _____ _ _ _____ _ _ _____
 72
65
 73
6
 40
0.8
 49
0.45
 74
0
 49
-0.05
 74
0
 49
0.1
 74
0
 49
-0.05
 74
0
 49
0.1
 74
0
 49
-0.05
 74
0
  0
LTYPE
  5
1F8
100
AcDbSymbolTableRecord
100
AcDbLinetypeTableRecord
  2
DOT
 70
64
  3
. . . . . . . . . . . . . . . . . . . .
 72
65
 73
2
 40
0.2
 49
0.1
 74
0
 49
-0.1
 74
0
  0
LTYPE
  5
1F9
100
AcDbSymbolTableRecord
100
AcDbLinetypeTableRecord
  2
DASHED
 70
64
  3
- - - - - - - - - - - - - - - - - - - -
 72
65
 73
2
 40
0.2
 49
0.1
 74
0
 49
-0.1
 74
0
  0
ENDTAB
  0
TABLE
  2
LAYER
  5
2
100
AcDbSymbolTable
 70
36
  0
LAYER
  5
10
100
AcDbSymbolTableRecord
100
AcDbLayerTableRecord
  2
0
 70
0
 62
7
  6
CONTINUOUS
370
-3
390
F
  0
LAYER
  5
1FA
100
AcDbSymbolTableRecord
100
AcDbLayerTableRecord
  2
DEFAULT_1
 70
0
 62
7
  6
CENTER
370
-3
390
F
  0
LAYER
  5
1FB
100
AcDbSymbolTableRecord
100
AcDbLayerTableRecord
  2
DEFAULT_2
 70
0
 62
7
  6
HIDDEN
370
-3
390
F
  0
LAYER
  5
1FC
100
AcDbSymbolTableRecord
100
AcDbLayerTableRecord
  2
DEFAULT_3
 70
0
 62
7
  6
PHANTOM
370
-3
390
F
  0
LAYER
  5
1FD
100
AcDbSymbolTableRecord
100
AcDbLayerTableRecord
  2
ASSI
 70
0
 62
7
  6
CONTINUOUS
370
-3
390
F
  0
LAYER
  5
1FE
100
AcDbSymbolTableRecord
100
AcDbLayerTableRecord
  2
COLOR5
 70
0
 62
7
  6
CONTINUOUS
370
-3
390
F
  0
LAYER
  5
1FF
100
AcDbSymbolTableRecord
100
AcDbLayerTableRecord
  2
COORDINATE
 70
0
 62
7
  6
CONTINUOUS
370
-3
390
F
  0
LAYER
  5
200
100
AcDbSymbolTableRecord
100
AcDbLayerTableRecord
  2
COORD_ORIGINE
 70
0
 62
7
  6
CONTINUOUS
370
-3
390
F
  0
LAYER
  5
201
100
AcDbSymbolTableRecord
100
AcDbLayerTableRecord
  2
COPY_PUBLISH
 70
0
 62
7
  6
CONTINUOUS
370
-3
390
F
  0
LAYER
  5
202
100
AcDbSymbolTableRecord
100
AcDbLayerTableRecord
  2
COSMETICI
 70
0
 62
7
  6
CONTINUOUS
370
-3
390
F
  0
LAYER
  5
203
100
AcDbSymbolTableRecord
100
AcDbLayerTableRecord
  2
CURVE
 70
0
 62
7
  6
CONTINUOUS
370
-3
390
F
  0
LAYER
  5
204
100
AcDbSymbolTableRecord
100
AcDbLayerTableRecord
  2
DRAFT
 70
0
 62
7
  6
CONTINUOUS
370
-3
390
F
  0
LAYER
  5
205
100
AcDbSymbolTableRecord
100
AcDbLayerTableRecord
  2
IMPORT_IGES
 70
0
 62
7
  6
CONTINUOUS
370
-3
390
F
  0
LAYER
  5
206
100
AcDbSymbolTableRecord
100
AcDbLayerTableRecord
  2
INTF_1
 70
0
 62
7
  6
CONTINUOUS
370
-3
390
F
  0
LAYER
  5
207
100
AcDbSymbolTableRecord
100
AcDbLayerTableRecord
  2
INTF_11
 70
0
 62
7
  6
CONTINUOUS
370
-3
390
F
  0
LAYER
  5
208
100
AcDbSymbolTableRecord
100
AcDbLayerTableRecord
  2
INTF_2
 70
0
 62
7
  6
CONTINUOUS
370
-3
390
F
  0
LAYER
  5
209
100
AcDbSymbolTableRecord
100
AcDbLayerTableRecord
  2
INTF_7
 70
0
 62
7
  6
CONTINUOUS
370
-3
390
F
  0
LAYER
  5
20A
100
AcDbSymbolTableRecord
100
AcDbLayerTableRecord
  2
INTF_8
 70
0
 62
7
  6
CONTINUOUS
370
-3
390
F
  0
LAYER
  5
20B
100
AcDbSymbolTableRecord
100
AcDbLayerTableRecord
  2
MARCHI
 70
0
 62
7
  6
CONTINUOUS
370
-3
390
F
  0
LAYER
  5
20C
100
AcDbSymbolTableRecord
100
AcDbLayerTableRecord
  2
NOTE
 70
0
 62
7
  6
CONTINUOUS
370
-3
390
F
  0
LAYER
  5
20D
100
AcDbSymbolTableRecord
100
AcDbLayerTableRecord
  2
PIANI
 70
0
 62
7
  6
CONTINUOUS
370
-3
390
F
  0
LAYER
  5
20E
100
AcDbSymbolTableRecord
100
AcDbLayerTableRecord
  2
PIANI_ORIGINE
 70
0
 62
7
  6
CONTINUOUS
370
-3
390
F
  0
LAYER
  5
20F
100
AcDbSymbolTableRecord
100
AcDbLayerTableRecord
  2
PUNTI
 70
0
 62
7
  6
CONTINUOUS
370
-3
390
F
  0
LAYER
  5
210
100
AcDbSymbolTableRecord
100
AcDbLayerTableRecord
  2
RACCORDO
 70
0
 62
7
  6
CONTINUOUS
370
-3
390
F
  0
LAYER
  5
211
100
AcDbSymbolTableRecord
100
AcDbLayerTableRecord
  2
RGB__255__255__255__
 70
0
 62
7
  6
CONTINUOUS
370
-3
390
F
  0
LAYER
  5
212
100
AcDbSymbolTableRecord
100
AcDbLayerTableRecord
  2
RGB____0____0____0__
 70
0
 62
7
  6
CONTINUOUS
370
-3
390
F
  0
LAYER
  5
213
100
AcDbSymbolTableRecord
100
AcDbLayerTableRecord
  2
SIMBOLI
 70
0
 62
7
  6
CONTINUOUS
370
-3
390
F
  0
LAYER
  5
214
100
AcDbSymbolTableRecord
100
AcDbLayerTableRecord
  2
SMUSSO
 70
0
 62
7
  6
CONTINUOUS
370
-3
390
F
  0
LAYER
  5
215
100
AcDbSymbolTableRecord
100
AcDbLayerTableRecord
  2
SNAPLINE
 70
0
 62
7
  6
CONTINUOUS
370
-3
390
F
  0
LAYER
  5
216
100
AcDbSymbolTableRecord
100
AcDbLayerTableRecord
  2
SUPERFICI
 70
0
 62
7
  6
CONTINUOUS
370
-3
390
F
  0
LAYER
  5
217
100
AcDbSymbolTableRecord
100
AcDbLayerTableRecord
  2
TESTO
 70
0
 62
7
  6
CONTINUOUS
370
-3
390
F
  0
LAYER
  5
218
100
AcDbSymbolTableRecord
100
AcDbLayerTableRecord
  2
TRASH
 70
0
 62
7
  6
CONTINUOUS
370
-3
390
F
  0
LAYER
  5
219
100
AcDbSymbolTableRecord
100
AcDbLayerTableRecord
  2
XSEC_DATUMS
 70
0
 62
7
  6
CONTINUOUS
370
-3
390
F
  0
ENDTAB
  0
TABLE
  2
STYLE
  5
3
100
AcDbSymbolTable
 70
1
  0
STYLE
  5
11
100
AcDbSymbolTableRecord
100
AcDbTextStyleTableRecord
  2
STANDARD
 70
0
 40
0.0
 41
0.8
 50
0.0
 71
0
 42
0.2
  3
txt
  4

  0
STYLE
  5
21A
100
AcDbSymbolTableRecord
100
AcDbTextStyleTableRecord
  2
TEXTSTYLE_1
 70
0
 40
0.0
 41
0.8
 50
0.0
 71
0
 42
0.2
  3
gdt
  4

  0
ENDTAB
  0
TABLE
  2
VIEW
  5
6
100
AcDbSymbolTable
 70
0
  0
ENDTAB
  0
TABLE
  2
UCS
  5
7
100
AcDbSymbolTable
 70
0
  0
ENDTAB
  0
TABLE
  2
APPID
  5
9
100
AcDbSymbolTable
 70
1
  0
APPID
  5
21B
100
AcDbSymbolTableRecord
100
AcDbRegAppTableRecord
  2
ACAD
 70
0
  0
ENDTAB
  0
TABLE
  2
BLOCK_RECORD
  5
1
100
AcDbSymbolTable
 70
0
  0
BLOCK_RECORD
  5
21C
100
AcDbSymbolTableRecord
100
AcDbBlockTableRecord
  2
*Model_Space
  0
BLOCK_RECORD
  5
21D
100
AcDbSymbolTableRecord
100
AcDbBlockTableRecord
  2
*Paper_Space
  0
BLOCK_RECORD
  5
21E
100
AcDbSymbolTableRecord
100
AcDbBlockTableRecord
  2
_FILLED
  0
ENDTAB
  0
TABLE
  2
DIMSTYLE
  5
A
100
AcDbSymbolTable
 70
1
100
AcDbDimStyleTable
 71
0
  0
DIMSTYLE
105
21F
100
AcDbSymbolTableRecord
100
AcDbDimStyleTableRecord
  2
STANDARD
 70
0
  3

  4

 40
1.0
 41
3.0
 42
0.5
 43
0.38
 44
1.5
 45
0.0
 46
0.0
 47
0.01
 48
0.01
140
3.0
141
0.09
142
0.0
143
25.4
144
1.0
145
0.0
146
1.0
147
0.625
 71
1
 72
0
 73
0
 74
0
 75
0
 76
0
 77
1
 78
8
 79
2
170
0
171
1
172
0
173
0
174
0
175
0
176
0
177
0
178
0
270
2
179
2
271
2
272
2
273
2
274
2
275
0
280
0
281
0
282
0
283
1
284
8
285
0
286
0
287
3
288
0
340
11
278
44
341
21E
342
21E
343
21E
344
21E
  0
ENDTAB
  0
ENDSEC
  0
SECTION
  2
BLOCKS
  0
BLOCK
  5
20
100
AcDbEntity
  8
0
100
AcDbBlockBegin
  2
*Model_Space
 70
0
 10
0.0
 20
0.0
 30
0.0
  3
*Model_Space
  1

  0
ENDBLK
  5
21
100
AcDbEntity
  8
0
100
AcDbBlockEnd
  0
BLOCK
  5
1C
100
AcDbEntity
  8
0
100
AcDbBlockBegin
  2
*Paper_Space
 70
0
 10
0.0
 20
0.0
 30
0.0
  3
*Paper_Space
  1

  0
ENDBLK
  5
1D
100
AcDbEntity
  8
0
100
AcDbBlockEnd
  0
BLOCK
  5
220
100
AcDbEntity
  8
0
100
AcDbBlockBegin
  2
_FILLED
 70
64
 10
0.0
 20
0.0
  3
_FILLED
  1

  0
SOLID
  5
221
100
AcDbEntity
  8
0
  6
BYBLOCK
 62
0
100
AcDbTrace
 10
0.0
 20
0.0
 11
-1.0
 21
0.3166666667
 12
-1.0
 22
-0.3166666667
 13
-1.0
 23
-0.3166666667
  0
ENDBLK
  5
222
100
AcDbEntity
  8
0
  6
BYBLOCK
 62
0
100
AcDbBlockEnd
  0
ENDSEC
  0
SECTION
  2
ENTITIES
  0
LINE
  5
223
100
AcDbEntity
  8
DRAFT
100
AcDbLine
 62
7
  6
CONTINUOUS
 10
-60.5
 20
39.5000000002
 11
-60.2242099741
 21
39.7757900261
  0
LINE
  5
224
100
AcDbEntity
  8
DRAFT
100
AcDbLine
 62
7
  6
CONTINUOUS
 10
-66.0
 20
34.0000000002
 11
-66.2757899725
 21
33.7242100278
  0
LINE
  5
225
100
AcDbEntity
  8
DRAFT
100
AcDbLine
 62
7
  6
CONTINUOUS
 10
-60.5
 20
-39.4999999998
 11
-60.2242099741
 21
-39.7757900256
  0
LINE
  5
226
100
AcDbEntity
  8
DRAFT
100
AcDbLine
 62
7
  6
CONTINUOUS
 10
-66.0
 20
-33.9999999998
 11
-66.2757899725
 21
-33.7242100273
  0
LWPOLYLINE
  5
227
100
AcDbEntity
  8
RACCORDO
100
AcDbPolyline
 62
250
  6
CONTINUOUS
 90
8
 70
0
 10
-67.4499522117
 20
-30.0538573306
 10
-67.4511767787
 20
-30.0518624748
 10
-67.4523907711
 20
-30.0446324729
 10
-67.453594189
 20
-30.0321673247
 10
-67.454795331
 20
-30.0144052433
 10
-67.4559858985
 20
-29.9914080156
 10
-67.4571409954
 20
-29.9633610035
 10
-67.4582600379
 20
-29.9301043321
  0
LWPOLYLINE
  5
228
100
AcDbEntity
  8
RACCORDO
100
AcDbPolyline
 62
250
  6
CONTINUOUS
 90
7
 70
0
 10
-67.4499522038
 20
-22.9461426689
 10
-67.4436915739
 20
-23.0396398781
 10
-67.425000109
 20
-23.1314614912
 10
-67.3942127855
 20
-23.2199619411
 10
-67.3518813537
 20
-23.3035551802
 10
-67.2987644501
 20
-23.3807431049
 10
-67.2899672626
 20
-23.3916280794
  0
LWPOLYLINE
  5
229
100
AcDbEntity
  8
RACCORDO
100
AcDbPolyline
 62
250
  6
CONTINUOUS
 90
10
 70
0
 10
-67.3730240424
 20
-22.9810015614
 10
-67.3679580882
 20
-23.0651853809
 10
-67.3528052358
 20
-23.1481471695
 10
-67.3277854631
 20
-23.2286825494
 10
-67.2932619887
 20
-23.3056223675
 10
-67.2497359989
 20
-23.3778496684
 10
-67.1978393718
 20
-23.4443159095
 10
-67.1383255042
 20
-23.504056183
 10
-67.0720583745
 20
-23.5562032238
 10
-67.0
 20
-23.5999999998
  0
LINE
  5
22A
100
AcDbEntity
  8
RACCORDO
100
AcDbLine
 62
250
  6
CONTINUOUS
 10
-67.4582600379
 20
-29.9301043321
 11
-67.460368567
 21
-29.8491066222
  0
LINE
  5
22B
100
AcDbEntity
  8
RACCORDO
100
AcDbLine
 62
250
  6
CONTINUOUS
 10
-67.460368567
 20
-29.8491066222
 11
-67.4622389107
 21
-29.7503453893
  0
LWPOLYLINE
  5
22C
100
AcDbEntity
  8
0
100
AcDbPolyline
 62
7
  6
CONTINUOUS
 90
17
 70
0
 10
-67.7897880096
 20
-5.7507759943
 10
-67.7828667461
 20
-6.3890576795
 10
-67.7752237955
 20
-6.9997090235
 10
-67.7668682854
 20
-7.5830794893
 10
-67.7579067934
 20
-8.1317279834
 10
-67.7483315569
 20
-8.6452097237
 10
-67.7381503384
 20
-9.1239694922
 10
-67.727493003
 20
-9.5619005412
 10
-67.7163534516
 20
-9.9584798625
 10
-67.7047377832
 20
-10.3142304643
 10
-67.6927941598
 20
-10.6246146236
 10
-67.6805183802
 20
-10.8890512049
 10
-67.6679146456
 20
-11.1081213439
 10
-67.6551437209
 20
-11.2790307244
 10
-67.6422034645
 20
-11.4011624162
 10
-67.629096018
 20
-11.4751333497
 10
-67.6159885716
 20
-11.4999999998
  0
LINE
  5
22D
100
AcDbEntity
  8
RACCORDO
100
AcDbLine
 62
250
  6
CONTINUOUS
 10
-67.4622389107
 20
-29.7503453893
 11
-67.464495586
 21
-29.5751129188
  0
LWPOLYLINE
  5
22E
100
AcDbEntity
  8
0
100
AcDbPolyline
 62
7
  6
CONTINUOUS
 90
17
 70
0
 10
-67.4421891335
 20
5.7507759948
 10
-67.449110397
 20
6.38905768
 10
-67.4567533477
 20
6.999709024
 10
-67.4651088577
 20
7.5830794898
 10
-67.4740703498
 20
8.1317279839
 10
-67.4836455863
 20
8.6452097242
 10
-67.4938268048
 20
9.1239694927
 10
-67.5044841402
 20
9.5619005417
 10
-67.5156236916
 20
9.958479863
 10
-67.52723936
 20
10.3142304648
 10
-67.5391829834
 20
10.6246146241
 10
-67.551458763
 20
10.8890512054
 10
-67.5640624976
 20
11.1081213444
 10
-67.5768334223
 20
11.2790307249
 10
-67.5897736787
 20
11.4011624167
 10
-67.6028811251
 20
11.4751333502
 10
-67.6159885716
 20
11.5000000002
  0
LINE
  5
22F
100
AcDbEntity
  8
0
100
AcDbLine
 62
7
  6
CONTINUOUS
 10
-67.8014136642
 20
-4.4008594719
 11
-67.7897880096
 21
-5.7507759943
  0
LINE
  5
230
100
AcDbEntity
  8
0
100
AcDbLine
 62
7
  6
CONTINUOUS
 10
-67.4305634789
 20
4.4008594724
 11
-67.4421891335
 21
5.7507759948
  0
LINE
  5
231
100
AcDbEntity
  8
RACCORDO
100
AcDbLine
 62
250
  6
CONTINUOUS
 10
-67.464495586
 20
-29.5751129188
 11
-67.4659890144
 21
-29.3771893504
  0
LINE
  5
232
100
AcDbEntity
  8
0
100
AcDbLine
 62
7
  6
CONTINUOUS
 10
-67.80985202
 20
-2.9752959382
 11
-67.8014136642
 21
-4.4008594719
  0
LINE
  5
233
100
AcDbEntity
  8
0
100
AcDbLine
 62
7
  6
CONTINUOUS
 10
-67.4221251231
 20
2.9752959387
 11
-67.4305634789
 21
4.4008594724
  0
LINE
  5
234
100
AcDbEntity
  8
0
100
AcDbLine
 62
7
  6
CONTINUOUS
 10
-67.814960803
 20
-1.505272239
 11
-67.80985202
 21
-2.9752959382
  0
LINE
  5
235
100
AcDbEntity
  8
0
100
AcDbLine
 62
7
  6
CONTINUOUS
 10
-67.4170163402
 20
1.5052722395
 11
-67.4221251231
 21
2.9752959387
  0
LINE
  5
236
100
AcDbEntity
  8
0
100
AcDbLine
 62
7
  6
CONTINUOUS
 10
-67.8166912456
 20
0.0000000002
 11
-67.814960803
 21
-1.505272239
  0
LINE
  5
237
100
AcDbEntity
  8
RACCORDO
100
AcDbLine
 62
250
  6
CONTINUOUS
 10
-67.4659890144
 20
-29.3771893504
 11
-67.4667094077
 21
-29.0999999998
  0
LINE
  5
238
100
AcDbEntity
  8
0
100
AcDbLine
 62
7
  6
CONTINUOUS
 10
-67.4152858976
 20
0.0000000002
 11
-67.4170163402
 21
1.5052722395
  0
LINE
  5
239
100
AcDbEntity
  8
DRAFT
100
AcDbLine
 62
7
  6
CONTINUOUS
 10
-68.0
 20
35.5000000002
 11
-68.0
 21
-35.4999999998
  0
LINE
  5
23A
100
AcDbEntity
  8
ASSI
100
AcDbLine
 62
7
  6
CONTINUOUS
 10
-68.0
 20
-35.4999999998
 11
-68.0
 21
35.5000000002
  0
LINE
  5
23B
100
AcDbEntity
  8
RACCORDO
100
AcDbLine
 62
250
  6
CONTINUOUS
 10
-67.3730280729
 20
35.5000000002
 11
-67.3730280729
 21
-22.9810015614
  0
LINE
  5
23C
100
AcDbEntity
  8
RACCORDO
100
AcDbLine
 62
250
  6
CONTINUOUS
 10
-67.3730280729
 20
-30.0189984381
 11
-67.3730280729
 21
-35.4999999998
  0
LINE
  5
23D
100
AcDbEntity
  8
RACCORDO
100
AcDbLine
 62
7
  6
CONTINUOUS
 10
-67.0
 20
-23.5999999998
 11
-67.0
 21
-29.3999999998
  0
LINE
  5
23E
100
AcDbEntity
  8
RACCORDO
100
AcDbLine
 62
250
  6
CONTINUOUS
 10
-66.3469076856
 20
-23.5999999998
 11
-66.3469076856
 21
-29.3999999998
  0
LINE
  5
23F
100
AcDbEntity
  8
RACCORDO
100
AcDbLine
 62
7
  6
CONTINUOUS
 10
-66.2757899725
 20
35.5000000002
 11
-66.2757899725
 21
33.7242100278
  0
LINE
  5
240
100
AcDbEntity
  8
RACCORDO
100
AcDbLine
 62
7
  6
CONTINUOUS
 10
-66.2757899725
 20
-33.7242100273
 11
-66.2757899725
 21
-35.4999999998
  0
LINE
  5
241
100
AcDbEntity
  8
RACCORDO
100
AcDbLine
 62
250
  6
CONTINUOUS
 10
-66.2731956082
 20
33.7242099744
 11
-66.2731956082
 21
-33.7242099739
  0
LINE
  5
242
100
AcDbEntity
  8
DRAFT
100
AcDbLine
 62
7
  6
CONTINUOUS
 10
-66.0
 20
-33.9999999998
 11
-66.0
 21
-35.4999999998
  0
LINE
  5
243
100
AcDbEntity
  8
DRAFT
100
AcDbLine
 62
7
  6
CONTINUOUS
 10
-66.0
 20
34.0000000002
 11
-66.0
 21
35.5000000002
  0
LINE
  5
244
100
AcDbEntity
  8
0
100
AcDbLine
 62
7
  6
CONTINUOUS
 10
-67.814960803
 20
1.5052722395
 11
-67.8166912456
 21
0.0000000002
  0
LINE
  5
245
100
AcDbEntity
  8
0
100
AcDbLine
 62
7
  6
CONTINUOUS
 10
-67.4170163402
 20
-1.505272239
 11
-67.4152858976
 21
0.0000000002
  0
LINE
  5
246
100
AcDbEntity
  8
RACCORDO
100
AcDbLine
 62
250
  6
CONTINUOUS
 10
-67.4667094077
 20
-29.0999999998
 11
-67.4663067072
 21
-23.6914775111
  0
LINE
  5
247
100
AcDbEntity
  8
0
100
AcDbLine
 62
7
  6
CONTINUOUS
 10
-67.80985202
 20
2.9752959387
 11
-67.814960803
 21
1.5052722395
  0
LINE
  5
248
100
AcDbEntity
  8
0
100
AcDbLine
 62
7
  6
CONTINUOUS
 10
-67.4221251231
 20
-2.9752959382
 11
-67.4170163402
 21
-1.505272239
  0
LINE
  5
249
100
AcDbEntity
  8
0
100
AcDbLine
 62
7
  6
CONTINUOUS
 10
-67.8014136642
 20
4.4008594724
 11
-67.80985202
 21
2.9752959387
  0
LINE
  5
24A
100
AcDbEntity
  8
0
100
AcDbLine
 62
7
  6
CONTINUOUS
 10
-67.4305634789
 20
-4.4008594719
 11
-67.4221251231
 21
-2.9752959382
  0
LINE
  5
24B
100
AcDbEntity
  8
RACCORDO
100
AcDbLine
 62
250
  6
CONTINUOUS
 10
-67.4663067072
 20
-23.6914775111
 11
-67.4650825363
 21
-23.4887082353
  0
LINE
  5
24C
100
AcDbEntity
  8
RACCORDO
100
AcDbLine
 62
250
  6
CONTINUOUS
 10
-67.4650825363
 20
-23.4887082353
 11
-67.4630672752
 21
-23.3045155417
  0
LINE
  5
24D
100
AcDbEntity
  8
RACCORDO
100
AcDbLine
 62
250
  6
CONTINUOUS
 10
-67.4630672752
 20
-23.3045155417
 11
-67.461331411
 21
-23.1979958967
  0
LWPOLYLINE
  5
24E
100
AcDbEntity
  8
RACCORDO
100
AcDbPolyline
 62
250
  6
CONTINUOUS
 90
10
 70
0
 10
-67.461331411
 20
-23.1979958967
 10
-67.4593420053
 20
-23.1081393172
 10
-67.4582585942
 20
-23.069848409
 10
-67.4571397571
 20
-23.0366056961
 10
-67.455984927
 20
-23.008570001
 10
-67.4547946709
 20
-22.9855825011
 10
-67.4535937911
 20
-22.9678275797
 10
-67.452390555
 20
-22.9553666977
 10
-67.4511766952
 20
-22.9481383941
 10
-67.4499522117
 20
-22.9461426689
  0
LWPOLYLINE
  5
24F
100
AcDbEntity
  8
RACCORDO
100
AcDbPolyline
 62
250
  6
CONTINUOUS
 90
10
 70
0
 10
-66.3469076856
 20
-29.3999999998
 10
-66.3483948349
 20
-29.4257173705
 10
-66.3524952706
 20
-29.4516711111
 10
-66.359206838
 20
-29.4778612214
 10
-66.368282547
 20
-29.504405995
 10
-66.3799596886
 20
-29.5311871384
 10
-66.3949566281
 20
-29.5578497709
 10
-66.4134980151
 20
-29.5842755988
 10
-66.4353150788
 20
-29.6105829157
 10
-66.4603710907
 20
-29.6367717217
  0
LWPOLYLINE
  5
250
100
AcDbEntity
  8
RACCORDO
100
AcDbPolyline
 62
250
  6
CONTINUOUS
 90
10
 70
0
 10
-67.3730276287
 20
-30.0189984381
 10
-67.3679610327
 20
-29.9348144949
 10
-67.3528075961
 20
-29.8518526484
 10
-67.3277873022
 20
-29.7713172612
 10
-67.2932633724
 20
-29.694377471
 10
-67.2497369928
 20
-29.6221502178
 10
-67.1978400389
 20
-29.5556840296
 10
-67.1383259022
 20
-29.4959438004
 10
-67.0720585534
 20
-29.4437967832
 10
-67.0
 20
-29.3999999998
  0
LWPOLYLINE
  5
251
100
AcDbEntity
  8
RACCORDO
100
AcDbPolyline
 62
250
  6
CONTINUOUS
 90
6
 70
0
 10
-67.4499650636
 20
-30.0538573301
 10
-67.4437018431
 20
-29.9603599826
 10
-67.4250079818
 20
-29.868538542
 10
-67.3942184886
 20
-29.7800385225
 10
-67.3518851359
 20
-29.6964459157
 10
-67.3015368335
 20
-29.6227804433
  0
LWPOLYLINE
  5
252
100
AcDbEntity
  8
RACCORDO
100
AcDbPolyline
 62
250
  6
CONTINUOUS
 90
10
 70
0
 10
-54.636771722
 20
39.960371091
 10
-54.5993467844
 20
40.0600203289
 10
-54.56283851
 20
40.1543113724
 10
-54.52814111
 20
40.2409347151
 10
-54.496104441
 20
40.3177686584
 10
-54.4675131894
 20
40.3829312792
 10
-54.4430676515
 20
40.4348265246
 10
-54.4233665813
 20
40.4721833046
 10
-54.4088925246
 20
40.4940866253
 10
-54.4
 20
40.5000000002
  0
LWPOLYLINE
  5
253
100
AcDbEntity
  8
0
100
AcDbPolyline
 62
7
  6
CONTINUOUS
 90
18
 70
0
 10
-67.6159885716
 20
11.5000000002
 10
-67.629096018
 20
11.4751333502
 10
-67.6422034645
 20
11.4011624167
 10
-67.6551437209
 20
11.2790307249
 10
-67.6679146456
 20
11.1081213444
 10
-67.6805183802
 20
10.8890512054
 10
-67.6927941598
 20
10.6246146241
 10
-67.7047377832
 20
10.3142304648
 10
-67.7163534516
 20
9.958479863
 10
-67.727493003
 20
9.5619005417
 10
-67.7381503384
 20
9.1239694927
 10
-67.7483315569
 20
8.6452097242
 10
-67.7579067934
 20
8.1317279839
 10
-67.7668682854
 20
7.5830794898
 10
-67.7752237955
 20
6.999709024
 10
-67.7828667461
 20
6.38905768
 10
-67.7897880096
 20
5.7507759948
 10
-67.8014136642
 20
4.4008594724
  0
LWPOLYLINE
  5
254
100
AcDbEntity
  8
RACCORDO
100
AcDbPolyline
 62
7
  6
CONTINUOUS
 90
5
 70
0
 10
-67.2899672626
 20
-23.3916280794
 10
-67.2358140012
 20
-23.4501424035
 10
-67.1641581639
 20
-23.5105093469
 10
-67.0850811077
 20
-23.5607620779
 10
-67.0
 20
-23.5999999998
  0
LWPOLYLINE
  5
255
100
AcDbEntity
  8
RACCORDO
100
AcDbPolyline
 62
250
  6
CONTINUOUS
 90
7
 70
0
 10
-66.3772865459
 20
-23.4761308409
 10
-66.3678971518
 20
-23.4970980285
 10
-66.3602346821
 20
-23.517936285
 10
-66.3543025528
 20
-23.5386456103
 10
-66.3501031164
 20
-23.5592260046
 10
-66.3476378846
 20
-23.5796774677
 10
-66.3469076856
 20
-23.5999999998
  0
LINE
  5
256
100
AcDbEntity
  8
DRAFT
100
AcDbLine
 62
250
  6
CONTINUOUS
 10
-62.0
 20
34.0000000002
 11
-62.0
 21
33.7242099744
  0
LINE
  5
257
100
AcDbEntity
  8
DRAFT
100
AcDbLine
 62
250
  6
CONTINUOUS
 10
-62.0
 20
-33.9999999998
 11
-62.0
 21
-33.7242099739
  0
LINE
  5
258
100
AcDbEntity
  8
RACCORDO
100
AcDbLine
 62
250
  6
CONTINUOUS
 10
-62.0
 20
-39.4999999998
 11
-62.0
 21
-41.4999999998
  0
LINE
  5
259
100
AcDbEntity
  8
RACCORDO
100
AcDbLine
 62
250
  6
CONTINUOUS
 10
-62.0
 20
39.5000000002
 11
-62.0
 21
41.5000000002
  0
LINE
  5
25A
100
AcDbEntity
  8
DRAFT
100
AcDbLine
 62
7
  6
CONTINUOUS
 10
-60.5
 20
39.5000000002
 11
-60.5
 21
35.5000000002
  0
LINE
  5
25B
100
AcDbEntity
  8
DRAFT
100
AcDbLine
 62
7
  6
CONTINUOUS
 10
-60.5
 20
-39.4999999998
 11
-60.5
 21
-35.4999999998
  0
LINE
  5
25C
100
AcDbEntity
  8
DRAFT
100
AcDbLine
 62
7
  6
CONTINUOUS
 10
-60.2242099741
 20
39.7731956085
 11
-60.2242099741
 21
35.5000000002
  0
LINE
  5
25D
100
AcDbEntity
  8
DRAFT
100
AcDbLine
 62
7
  6
CONTINUOUS
 10
-60.2242099741
 20
-39.773195608
 11
-60.2242099741
 21
-35.4999999998
  0
LWPOLYLINE
  5
25E
100
AcDbEntity
  8
RACCORDO
100
AcDbPolyline
 62
250
  6
CONTINUOUS
 90
10
 70
0
 10
-47.9461426692
 20
40.949952212
 10
-47.9495020425
 20
40.9413294492
 10
-47.9529886555
 20
40.9327255949
 10
-47.956602508
 20
40.9241406491
 10
-47.9603419739
 20
40.9155746108
 10
-47.9642086794
 20
40.9070274811
 10
-47.9682075031
 20
40.8984992622
 10
-47.9723400711
 20
40.889989955
 10
-47.9766047573
 20
40.8814995586
 10
-47.9810015616
 20
40.8730280731
  0
LWPOLYLINE
  5
25F
100
AcDbEntity
  8
RACCORDO
100
AcDbPolyline
 62
7
  6
CONTINUOUS
 90
5
 70
0
 10
-48.3916280796
 20
40.7899672628
 10
-48.4501424038
 20
40.7358140014
 10
-48.5105093471
 20
40.6641581642
 10
-48.5607620781
 20
40.5850811079
 10
-48.6
 20
40.5000000002
  0
LWPOLYLINE
  5
260
100
AcDbEntity
  8
RACCORDO
100
AcDbPolyline
 62
250
  6
CONTINUOUS
 90
9
 70
0
 10
-55.0538573308
 20
40.949952212
 10
-55.0518624751
 20
40.951176779
 10
-55.0446324731
 20
40.9523907714
 10
-55.032167325
 20
40.9535941893
 10
-55.0144052435
 20
40.9547953313
 10
-54.9914080159
 20
40.9559858987
 10
-54.9633610038
 20
40.9571409957
 10
-54.9301043323
 20
40.9582600381
 10
-54.8917978765
 20
40.9593436101
  0
LWPOLYLINE
  5
261
100
AcDbEntity
  8
0
100
AcDbPolyline
 62
7
  6
CONTINUOUS
 90
10
 70
0
 10
-53.4160718604
 20
1.1325310002
 10
-53.4185632507
 20
1.2163120512
 10
-53.4169379316
 20
1.2975800153
 10
-53.4111959031
 20
1.3763348926
 10
-53.4014754669
 20
1.4529242039
 10
-53.3876383213
 20
1.5270004285
 10
-53.3692695615
 20
1.5975210035
 10
-53.3462308859
 20
1.6641384081
 10
-53.3186605962
 20
1.7272001632
 10
-53.2865586922
 20
1.7867062687
  0
LINE
  5
262
100
AcDbEntity
  8
0
100
AcDbLine
 62
7
  6
CONTINUOUS
 10
-54.965387
 20
-0.1150889998
 11
-54.965387
 21
-1.5761209998
  0
LINE
  5
263
100
AcDbEntity
  8
0
100
AcDbLine
 62
7
  6
CONTINUOUS
 10
-54.693534
 20
-1.2930109998
 11
-54.693534
 21
-0.1150889998
  0
LINE
  5
264
100
AcDbEntity
  8
RACCORDO
100
AcDbLine
 62
250
  6
CONTINUOUS
 10
-54.4
 20
39.8469076858
 11
-54.4000000001
 21
40.5000000002
  0
LINE
  5
265
100
AcDbEntity
  8
RACCORDO
100
AcDbLine
 62
250
  6
CONTINUOUS
 10
-54.1
 20
40.966709408
 11
-54.1
 21
40.5000000002
  0
LWPOLYLINE
  5
266
100
AcDbEntity
  8
0
100
AcDbPolyline
 62
7
  6
CONTINUOUS
 90
16
 70
0
 10
-54.7437946685
 20
1.3929966687
 10
-54.7408732631
 20
1.4568501584
 10
-54.7338874611
 20
1.5172489677
 10
-54.7228372624
 20
1.5741930967
 10
-54.7079305654
 20
1.6279925504
 10
-54.6889594717
 20
1.6783373238
 10
-54.665300286
 20
1.7242974018
 10
-54.6368671109
 20
1.7656132778
 10
-54.6037458437
 20
1.8025444585
 10
-54.5655704821
 20
1.8349394484
 10
-54.5218959774
 20
1.8627933567
 10
-54.4731673783
 20
1.8861110744
 10
-54.4203538275
 20
1.9047557793
 10
-54.3637783727
 20
1.9186818642
 10
-54.3031179663
 20
1.9279349363
 10
-54.2383726082
 20
1.9325149957
  0
LWPOLYLINE
  5
267
100
AcDbEntity
  8
RACCORDO
100
AcDbPolyline
 62
250
  6
CONTINUOUS
 90
3
 70
0
 10
-47.9810015616
 20
40.8730280731
 10
-47.981739946
 20
40.8686260667
 10
-47.9837500403
 20
40.8582979128
  0
LWPOLYLINE
  5
268
100
AcDbEntity
  8
RACCORDO
100
AcDbPolyline
 62
250
  6
CONTINUOUS
 90
25
 70
0
 10
-47.9837500403
 20
40.8582979128
 10
-47.9915069388
 20
40.820209885
 10
-47.997253743
 20
40.7927014948
 10
-48.0045075175
 20
40.7599813777
 10
-48.0133147299
 20
40.7222154246
 10
-48.0236289126
 20
40.6798078008
 10
-48.0355459233
 20
40.6338196911
 10
-48.0491401887
 20
40.5847980708
 10
-48.0643372822
 20
40.5332341821
 10
-48.0810097808
 20
40.4804486015
 10
-48.0991637446
 20
40.4272145773
 10
-48.1187931136
 20
40.3738952093
 10
-48.1397522849
 20
40.3213107553
 10
-48.1620365754
 20
40.2700344503
 10
-48.1856506683
 20
40.2203428298
 10
-48.2104630101
 20
40.1725616298
 10
-48.2364962515
 20
40.1268392412
 10
-48.2637277419
 20
40.0835430355
 10
-48.2919579763
 20
40.0432725924
 10
-48.3213346437
 20
40.0061843817
 10
-48.351710055
 20
39.9724226442
 10
-48.3824416377
 20
39.9425375029
 10
-48.4133152008
 20
39.9167594624
 10
-48.4445449353
 20
39.8949962062
 10
-48.4761308412
 20
39.8772865461
  0
LWPOLYLINE
  5
269
100
AcDbEntity
  8
0
100
AcDbPolyline
 62
7
  6
CONTINUOUS
 90
18
 70
0
 10
-67.6159885716
 20
-11.4999999998
 10
-67.6028811251
 20
-11.4751333497
 10
-67.5897736787
 20
-11.4011624162
 10
-67.5768334223
 20
-11.2790307244
 10
-67.5640624976
 20
-11.1081213439
 10
-67.551458763
 20
-10.8890512049
 10
-67.5391829834
 20
-10.6246146236
 10
-67.52723936
 20
-10.3142304643
 10
-67.5156236916
 20
-9.9584798625
 10
-67.5044841402
 20
-9.5619005412
 10
-67.4938268048
 20
-9.1239694922
 10
-67.4836455863
 20
-8.6452097237
 10
-67.4740703498
 20
-8.1317279834
 10
-67.4651088577
 20
-7.5830794893
 10
-67.4567533477
 20
-6.9997090235
 10
-67.449110397
 20
-6.3890576795
 10
-67.4421891335
 20
-5.7507759943
 10
-67.4305634789
 20
-4.4008594719
  0
LWPOLYLINE
  5
26A
100
AcDbEntity
  8
RACCORDO
100
AcDbPolyline
 62
250
  6
CONTINUOUS
 90
7
 70
0
 10
-48.4761308412
 20
39.8772865461
 10
-48.4970980287
 20
39.867897152
 10
-48.5179362852
 20
39.8602346824
 10
-48.5386456106
 20
39.854302553
 10
-48.5592260048
 20
39.8501031166
 10
-48.579677468
 20
39.8476378849
 10
-48.6
 20
39.8469076858
  0
LINE
  5
26B
100
AcDbEntity
  8
0
100
AcDbLine
 62
7
  6
CONTINUOUS
 10
-51.6
 20
16.5000000002
 11
-51.6
 21
-16.4999999998
  0
LINE
  5
26C
100
AcDbEntity
  8
0
100
AcDbLine
 62
7
  6
CONTINUOUS
 10
-51.4
 20
-16.4999999998
 11
-51.4
 21
16.5000000002
  0
LINE
  5
26D
100
AcDbEntity
  8
RACCORDO
100
AcDbLine
 62
250
  6
CONTINUOUS
 10
-48.9
 20
40.966709408
 11
-48.9000000084
 21
40.5000000003
  0
LINE
  5
26E
100
AcDbEntity
  8
RACCORDO
100
AcDbLine
 62
250
  6
CONTINUOUS
 10
-48.6
 20
39.8469076858
 11
-48.6
 21
40.5000000002
  0
LWPOLYLINE
  5
26F
100
AcDbEntity
  8
0
100
AcDbPolyline
 62
7
  6
CONTINUOUS
 90
10
 70
0
 10
-52.2215925954
 20
-0.9526382208
 10
-52.2300171828
 20
-1.0347283216
 10
-52.2475830212
 20
-1.1129242593
 10
-52.2742901107
 20
-1.187226034
 10
-52.3109821609
 20
-1.2589815613
 10
-52.3568154623
 20
-1.3268429255
 10
-52.4092588858
 20
-1.3867663794
 10
-52.4674687219
 20
-1.4374040072
 10
-52.5322886802
 20
-1.4801037248
 10
-52.6037187606
 20
-1.5148655321
  0
LINE
  5
270
100
AcDbEntity
  8
0
100
AcDbLine
 62
7
  6
CONTINUOUS
 10
-54.5483798359
 20
0.5757353217
 11
-54.415790899
 21
0.835416198
  0
LWPOLYLINE
  5
271
100
AcDbEntity
  8
RACCORDO
100
AcDbPolyline
 62
250
  6
CONTINUOUS
 90
10
 70
0
 10
-66.4603710907
 20
-29.6367717217
 10
-66.5600203286
 20
-29.5993467841
 10
-66.6543113722
 20
-29.5628385097
 10
-66.7409347149
 20
-29.5281411097
 10
-66.8177686582
 20
-29.4961044408
 10
-66.882931279
 20
-29.4675131891
 10
-66.9348265244
 20
-29.4430676513
 10
-66.9721833044
 20
-29.4233665811
 10
-66.994086625
 20
-29.4088925244
 10
-67.0
 20
-29.3999999998
  0
LWPOLYLINE
  5
272
100
AcDbEntity
  8
0
100
AcDbPolyline
 62
7
  6
CONTINUOUS
 90
13
 70
0
 10
-53.427590219
 20
-1.6038029958
 10
-53.481978179
 20
-1.493749657
 10
-53.5254971763
 20
-1.3855897245
 10
-53.558147211
 20
-1.2793231985
 10
-53.579596331
 20
-1.1740608627
 10
-53.5901764883
 20
-1.0706919332
 10
-53.5908835394
 20
-0.9718840585
 10
-53.581713218
 20
-0.877892147
 10
-53.5626697905
 20
-0.7884612902
 10
-53.5347619113
 20
-0.7054944111
 10
-53.4983257988
 20
-0.6296258172
 10
-53.4530252348
 20
-0.5602212009
 10
-53.3988602192
 20
-0.4972805623
  0
LINE
  5
273
100
AcDbEntity
  8
0
100
AcDbLine
 62
7
  6
CONTINUOUS
 10
-52.6037187606
 20
-1.5148655321
 11
-52.4737469146
 21
-1.8039301898
  0
LWPOLYLINE
  5
274
100
AcDbEntity
  8
0
100
AcDbPolyline
 62
7
  6
CONTINUOUS
 90
13
 70
0
 10
-53.5660222086
 20
1.7159121372
 10
-53.5957974136
 20
1.7901536783
 10
-53.6316561222
 20
1.8593422922
 10
-53.6735983345
 20
1.9234779788
 10
-53.7226903123
 20
1.9832054104
 10
-53.7778657937
 20
2.0378799148
 10
-53.8359259934
 20
2.0855674755
 10
-53.8955028046
 20
2.1256080276
 10
-53.9579643341
 20
2.1586616361
 10
-54.0242161168
 20
2.1847744793
 10
-54.0945599976
 20
2.20396195
 10
-54.1686941316
 20
2.2162086555
 10
-54.2466185187
 20
2.2215145957
  0
LINE
  5
275
100
AcDbEntity
  8
0
100
AcDbLine
 62
7
  6
CONTINUOUS
 10
-52.6410220488
 20
0.7708881597
 11
-52.545473839
 21
0.4588524744
  0
LWPOLYLINE
  5
276
100
AcDbEntity
  8
0
100
AcDbPolyline
 62
7
  6
CONTINUOUS
 90
7
 70
0
 10
-53.7200744367
 20
1.5463050604
 10
-53.7054461467
 20
1.4843235272
 10
-53.6952614862
 20
1.4186747888
 10
-53.6884816787
 20
1.350551865
 10
-53.6847604652
 20
1.2803524289
 10
-53.6844441047
 20
1.2076788073
 10
-53.6875325972
 20
1.1325310002
  0
LINE
  5
277
100
AcDbEntity
  8
0
100
AcDbLine
 62
7
  6
CONTINUOUS
 10
-41.5
 20
26.6000000002
 11
-41.5
 21
26.4000000002
  0
LWPOLYLINE
  5
278
100
AcDbEntity
  8
0
100
AcDbPolyline
 62
7
  6
CONTINUOUS
 90
10
 70
0
 10
-53.2865586922
 20
1.7867062687
 10
-53.2555669013
 20
1.8295050873
 10
-53.2184791803
 20
1.8684616154
 10
-53.1752955292
 20
1.9035758531
 10
-53.1252224088
 20
1.9356142194
 10
-53.0690533584
 20
1.9638102952
 10
-53.0091689956
 20
1.9858648238
 10
-52.9463628595
 20
2.001011386
 10
-52.8798414111
 20
2.010016401
 10
-52.8096046502
 20
2.0128798687
  0
LWPOLYLINE
  5
279
100
AcDbEntity
  8
RACCORDO
100
AcDbPolyline
 62
250
  6
CONTINUOUS
 90
7
 70
0
 10
47.9461426692
 20
-40.9499522036
 10
48.0396398783
 20
-40.9436915736
 10
48.1314614915
 20
-40.9250001088
 10
48.2199619413
 20
-40.8942127853
 10
48.3035551805
 20
-40.8518813535
 10
48.3807431052
 20
-40.7987644499
 10
48.3916280796
 20
-40.7899672623
  0
LWPOLYLINE
  5
27A
100
AcDbEntity
  8
RACCORDO
100
AcDbPolyline
 62
250
  6
CONTINUOUS
 90
10
 70
0
 10
47.9810015617
 20
-40.8730240422
 10
48.0651853811
 20
-40.8679580879
 10
48.1481471697
 20
-40.8528052355
 10
48.2286825497
 20
-40.8277854629
 10
48.3056223678
 20
-40.7932619885
 10
48.3778496687
 20
-40.7497359987
 10
48.4443159097
 20
-40.6978393715
 10
48.5040561833
 20
-40.6383255039
 10
48.5562032241
 20
-40.5720583743
 10
48.6
 20
-40.4999999998
  0
LINE
  5
27B
100
AcDbEntity
  8
RACCORDO
100
AcDbLine
 62
250
  6
CONTINUOUS
 10
54.9301043323
 20
-40.9582600376
 11
54.8491066224
 21
-40.9603685668
  0
LINE
  5
27C
100
AcDbEntity
  8
RACCORDO
100
AcDbLine
 62
250
  6
CONTINUOUS
 10
54.8491066224
 20
-40.9603685668
 11
54.7503453895
 21
-40.9622389104
  0
LINE
  5
27D
100
AcDbEntity
  8
RACCORDO
100
AcDbLine
 62
250
  6
CONTINUOUS
 10
54.7503453895
 20
-40.9622389104
 11
54.5751129191
 21
-40.9644955857
  0
LINE
  5
27E
100
AcDbEntity
  8
ASSI
100
AcDbLine
 62
7
  6
CONTINUOUS
 10
39.7507759946
 20
-41.2897880094
 11
38.4008594722
 21
-41.301413664
  0
LINE
  5
27F
100
AcDbEntity
  8
ASSI
100
AcDbLine
 62
7
  6
CONTINUOUS
 10
5.7507759946
 20
-41.2897880094
 11
4.4008594722
 21
-41.301413664
  0
LINE
  5
280
100
AcDbEntity
  8
ASSI
100
AcDbLine
 62
7
  6
CONTINUOUS
 10
28.2492240054
 20
-40.9421891333
 11
29.5991405278
 21
-40.9305634787
  0
LINE
  5
281
100
AcDbEntity
  8
ASSI
100
AcDbLine
 62
7
  6
CONTINUOUS
 10
-28.2492240054
 20
-41.2897880094
 11
-29.5991405278
 21
-41.301413664
  0
LINE
  5
282
100
AcDbEntity
  8
ASSI
100
AcDbLine
 62
7
  6
CONTINUOUS
 10
-5.7507759946
 20
-40.9421891333
 11
-4.4008594722
 21
-40.9305634787
  0
LINE
  5
283
100
AcDbEntity
  8
RACCORDO
100
AcDbLine
 62
250
  6
CONTINUOUS
 10
54.5751129191
 20
-40.9644955857
 11
54.3771893507
 21
-40.9659890141
  0
LINE
  5
284
100
AcDbEntity
  8
ASSI
100
AcDbLine
 62
7
  6
CONTINUOUS
 10
38.4008594722
 20
-41.301413664
 11
36.9752959384
 21
-41.3098520198
  0
LINE
  5
285
100
AcDbEntity
  8
ASSI
100
AcDbLine
 62
7
  6
CONTINUOUS
 10
4.4008594722
 20
-41.301413664
 11
2.9752959384
 21
-41.3098520198
  0
LINE
  5
286
100
AcDbEntity
  8
ASSI
100
AcDbLine
 62
7
  6
CONTINUOUS
 10
-29.5991405278
 20
-41.301413664
 11
-31.0247040616
 21
-41.3098520198
  0
LINE
  5
287
100
AcDbEntity
  8
ASSI
100
AcDbLine
 62
7
  6
CONTINUOUS
 10
29.5991405278
 20
-40.9305634787
 11
31.0247040616
 21
-40.9221251229
  0
LINE
  5
288
100
AcDbEntity
  8
ASSI
100
AcDbLine
 62
7
  6
CONTINUOUS
 10
-4.4008594722
 20
-40.9305634787
 11
-2.9752959384
 21
-40.9221251229
  0
LINE
  5
289
100
AcDbEntity
  8
ASSI
100
AcDbLine
 62
7
  6
CONTINUOUS
 10
-37.6974734032
 20
-40.925948424
 11
-36.2435387032
 21
-40.9191423429
  0
LINE
  5
28A
100
AcDbEntity
  8
ASSI
100
AcDbLine
 62
7
  6
CONTINUOUS
 10
36.9752959384
 20
-41.3098520198
 11
35.5052722393
 21
-41.3149608028
  0
LINE
  5
28B
100
AcDbEntity
  8
ASSI
100
AcDbLine
 62
7
  6
CONTINUOUS
 10
2.9752959384
 20
-41.3098520198
 11
1.5052722393
 21
-41.3149608028
  0
LINE
  5
28C
100
AcDbEntity
  8
ASSI
100
AcDbLine
 62
7
  6
CONTINUOUS
 10
-31.0247040616
 20
-41.3098520198
 11
-32.4947277607
 21
-41.3149608028
  0
LINE
  5
28D
100
AcDbEntity
  8
ASSI
100
AcDbLine
 62
7
  6
CONTINUOUS
 10
31.0247040616
 20
-40.9221251229
 11
32.4947277607
 21
-40.9170163399
  0
LINE
  5
28E
100
AcDbEntity
  8
ASSI
100
AcDbLine
 62
7
  6
CONTINUOUS
 10
-2.9752959384
 20
-40.9221251229
 11
-1.5052722393
 21
-40.9170163399
  0
LINE
  5
28F
100
AcDbEntity
  8
ASSI
100
AcDbLine
 62
7
  6
CONTINUOUS
 10
-36.2435387032
 20
-40.9191423429
 11
-34.7574260049
 21
-40.915730858
  0
LINE
  5
290
100
AcDbEntity
  8
ASSI
100
AcDbLine
 62
7
  6
CONTINUOUS
 10
35.5052722393
 20
-41.3149608028
 11
34.0
 21
-41.3166912454
  0
LINE
  5
291
100
AcDbEntity
  8
ASSI
100
AcDbLine
 62
7
  6
CONTINUOUS
 10
1.5052722393
 20
-41.3149608028
 11
0.0
 21
-41.3166912454
  0
LINE
  5
292
100
AcDbEntity
  8
ASSI
100
AcDbLine
 62
7
  6
CONTINUOUS
 10
-32.4947277607
 20
-41.3149608028
 11
-34.0
 21
-41.3166912454
  0
LINE
  5
293
100
AcDbEntity
  8
RACCORDO
100
AcDbLine
 62
250
  6
CONTINUOUS
 10
54.3771893507
 20
-40.9659890141
 11
54.1
 21
-40.9667094075
  0
LINE
  5
294
100
AcDbEntity
  8
ASSI
100
AcDbLine
 62
7
  6
CONTINUOUS
 10
32.4947277607
 20
-40.9170163399
 11
34.0
 21
-40.9152858973
  0
LINE
  5
295
100
AcDbEntity
  8
ASSI
100
AcDbLine
 62
7
  6
CONTINUOUS
 10
-1.5052722393
 20
-40.9170163399
 11
0.0
 21
-40.9152858973
  0
LINE
  5
296
100
AcDbEntity
  8
DRAFT
100
AcDbLine
 62
7
  6
CONTINUOUS
 10
-62.0
 20
-41.4999999998
 11
62.0
 21
-41.4999999998
  0
LINE
  5
297
100
AcDbEntity
  8
ASSI
100
AcDbLine
 62
7
  6
CONTINUOUS
 10
62.0
 20
-41.4999999998
 11
-62.0
 21
-41.4999999998
  0
LINE
  5
298
100
AcDbEntity
  8
RACCORDO
100
AcDbLine
 62
250
  6
CONTINUOUS
 10
-62.0
 20
-40.8730280727
 11
47.9810015616
 21
-40.8730280727
  0
LINE
  5
299
100
AcDbEntity
  8
RACCORDO
100
AcDbLine
 62
250
  6
CONTINUOUS
 10
55.0189984384
 20
-40.8730280727
 11
62.0
 21
-40.8730280727
  0
LINE
  5
29A
100
AcDbEntity
  8
ASSI
100
AcDbLine
 62
7
  6
CONTINUOUS
 10
-34.7574260049
 20
-40.915730858
 11
-33.2425739951
 21
-40.915730858
  0
LINE
  5
29B
100
AcDbEntity
  8
ASSI
100
AcDbLine
 62
7
  6
CONTINUOUS
 10
-34.0
 20
-41.3166912454
 11
-35.5052722393
 21
-41.3149608028
  0
LINE
  5
29C
100
AcDbEntity
  8
ASSI
100
AcDbLine
 62
7
  6
CONTINUOUS
 10
0.0
 20
-41.3166912454
 11
-1.5052722393
 21
-41.3149608028
  0
LINE
  5
29D
100
AcDbEntity
  8
ASSI
100
AcDbLine
 62
7
  6
CONTINUOUS
 10
34.0
 20
-41.3166912454
 11
32.4947277607
 21
-41.3149608028
  0
LINE
  5
29E
100
AcDbEntity
  8
ASSI
100
AcDbLine
 62
7
  6
CONTINUOUS
 10
0.0
 20
-40.9152858973
 11
1.5052722393
 21
-40.9170163399
  0
LINE
  5
29F
100
AcDbEntity
  8
ASSI
100
AcDbLine
 62
7
  6
CONTINUOUS
 10
34.0
 20
-40.9152858973
 11
35.5052722393
 21
-40.9170163399
  0
LINE
  5
2A0
100
AcDbEntity
  8
ASSI
100
AcDbLine
 62
7
  6
CONTINUOUS
 10
-33.2425739951
 20
-40.915730858
 11
-31.7564612968
 21
-40.9191423429
  0
LWPOLYLINE
  5
2A1
100
AcDbEntity
  8
RACCORDO
100
AcDbPolyline
 62
250
  6
CONTINUOUS
 90
3
 70
0
 10
54.1
 20
-40.9667094075
 10
48.6914775114
 20
-40.966306707
 10
48.6227735673
 20
-40.9659887993
  0
LINE
  5
2A2
100
AcDbEntity
  8
ASSI
100
AcDbLine
 62
7
  6
CONTINUOUS
 10
-35.5052722393
 20
-41.3149608028
 11
-36.9752959384
 21
-41.3098520198
  0
LINE
  5
2A3
100
AcDbEntity
  8
ASSI
100
AcDbLine
 62
7
  6
CONTINUOUS
 10
-1.5052722393
 20
-41.3149608028
 11
-2.9752959384
 21
-41.3098520198
  0
LINE
  5
2A4
100
AcDbEntity
  8
ASSI
100
AcDbLine
 62
7
  6
CONTINUOUS
 10
32.4947277607
 20
-41.3149608028
 11
31.0247040616
 21
-41.3098520198
  0
LINE
  5
2A5
100
AcDbEntity
  8
ASSI
100
AcDbLine
 62
7
  6
CONTINUOUS
 10
1.5052722393
 20
-40.9170163399
 11
2.9752959384
 21
-40.9221251229
  0
LWPOLYLINE
  5
2A6
100
AcDbEntity
  8
ASSI
100
AcDbPolyline
 62
7
  6
CONTINUOUS
 90
3
 70
0
 10
35.5052722393
 20
-40.9170163399
 10
36.9752959384
 20
-40.9221251229
 10
37.6974734032
 20
-40.925948424
  0
LINE
  5
2A7
100
AcDbEntity
  8
ASSI
100
AcDbLine
 62
7
  6
CONTINUOUS
 10
-31.7564612968
 20
-40.9191423429
 11
-30.3025265968
 21
-40.925948424
  0
LINE
  5
2A8
100
AcDbEntity
  8
ASSI
100
AcDbLine
 62
7
  6
CONTINUOUS
 10
-36.9752959384
 20
-41.3098520198
 11
-38.4008594722
 21
-41.301413664
  0
LINE
  5
2A9
100
AcDbEntity
  8
ASSI
100
AcDbLine
 62
7
  6
CONTINUOUS
 10
-2.9752959384
 20
-41.3098520198
 11
-4.4008594722
 21
-41.301413664
  0
LINE
  5
2AA
100
AcDbEntity
  8
ASSI
100
AcDbLine
 62
7
  6
CONTINUOUS
 10
31.0247040616
 20
-41.3098520198
 11
29.5991405278
 21
-41.301413664
  0
LINE
  5
2AB
100
AcDbEntity
  8
ASSI
100
AcDbLine
 62
7
  6
CONTINUOUS
 10
2.9752959384
 20
-40.9221251229
 11
4.4008594722
 21
-40.9305634787
  0
LWPOLYLINE
  5
2AC
100
AcDbEntity
  8
ASSI
100
AcDbPolyline
 62
7
  6
CONTINUOUS
 90
19
 70
0
 10
-30.3025265968
 20
-40.925948424
 10
-28.9147865688
 20
-40.9359804292
 10
-28.2492240054
 20
-40.9421891333
 10
-27.6109423203
 20
-40.9491103968
 10
-27.0002909763
 20
-40.9567533474
 10
-26.4169205104
 20
-40.9651088575
 10
-25.8682720164
 20
-40.9740703495
 10
-25.3547902761
 20
-40.983645586
 10
-24.8760305075
 20
-40.9938268045
 10
-24.4380994585
 20
-41.00448414
 10
-24.0415201373
 20
-41.0156236913
 10
-23.6857695355
 20
-41.0272393597
 10
-23.3753853761
 20
-41.0391829831
 10
-23.1109487948
 20
-41.0514587627
 10
-22.8918786559
 20
-41.0640624973
 10
-22.7209692754
 20
-41.076833422
 10
-22.5988375835
 20
-41.0897736784
 10
-22.5248666501
 20
-41.1028811249
 10
-22.5
 20
-41.1159885713
  0
LWPOLYLINE
  5
2AD
100
AcDbEntity
  8
ASSI
100
AcDbPolyline
 62
7
  6
CONTINUOUS
 90
18
 70
0
 10
-38.4008594722
 20
-41.301413664
 10
-39.7507759946
 20
-41.2897880094
 10
-40.3890576797
 20
-41.2828667459
 10
-40.9997090237
 20
-41.2752237952
 10
-41.5830794896
 20
-41.2668682852
 10
-42.1317279836
 20
-41.2579067931
 10
-42.6452097239
 20
-41.2483315566
 10
-43.1239694925
 20
-41.2381503382
 10
-43.5619005415
 20
-41.2274930027
 10
-43.9584798627
 20
-41.2163534513
 10
-44.3142304645
 20
-41.204737783
 10
-44.6246146239
 20
-41.1927941595
 10
-44.8890512052
 20
-41.18051838
 10
-45.1081213441
 20
-41.1679146453
 10
-45.2790307246
 20
-41.1551437206
 10
-45.4011624165
 20
-41.1422034642
 10
-45.4751333499
 20
-41.1290960178
 10
-45.5
 20
-41.1159885713
  0
LWPOLYLINE
  5
2AE
100
AcDbEntity
  8
ASSI
100
AcDbPolyline
 62
7
  6
CONTINUOUS
 90
18
 70
0
 10
-4.4008594722
 20
-41.301413664
 10
-5.7507759946
 20
-41.2897880094
 10
-6.3890576797
 20
-41.2828667459
 10
-6.9997090237
 20
-41.2752237952
 10
-7.5830794896
 20
-41.2668682852
 10
-8.1317279836
 20
-41.2579067931
 10
-8.6452097239
 20
-41.2483315566
 10
-9.1239694925
 20
-41.2381503382
 10
-9.5619005415
 20
-41.2274930027
 10
-9.9584798627
 20
-41.2163534513
 10
-10.3142304645
 20
-41.204737783
 10
-10.6246146239
 20
-41.1927941595
 10
-10.8890512052
 20
-41.18051838
 10
-11.1081213441
 20
-41.1679146453
 10
-11.2790307246
 20
-41.1551437206
 10
-11.4011624165
 20
-41.1422034642
 10
-11.4751333499
 20
-41.1290960178
 10
-11.5
 20
-41.1159885713
  0
LWPOLYLINE
  5
2AF
100
AcDbEntity
  8
ASSI
100
AcDbPolyline
 62
7
  6
CONTINUOUS
 90
18
 70
0
 10
29.5991405278
 20
-41.301413664
 10
28.2492240054
 20
-41.2897880094
 10
27.6109423203
 20
-41.2828667459
 10
27.0002909763
 20
-41.2752237952
 10
26.4169205104
 20
-41.2668682852
 10
25.8682720164
 20
-41.2579067931
 10
25.3547902761
 20
-41.2483315566
 10
24.8760305075
 20
-41.2381503382
 10
24.4380994585
 20
-41.2274930027
 10
24.0415201373
 20
-41.2163534513
 10
23.6857695355
 20
-41.204737783
 10
23.3753853761
 20
-41.1927941595
 10
23.1109487948
 20
-41.18051838
 10
22.8918786559
 20
-41.1679146453
 10
22.7209692754
 20
-41.1551437206
 10
22.5988375835
 20
-41.1422034642
 10
22.5248666501
 20
-41.1290960178
 10
22.5
 20
-41.1159885713
  0
LWPOLYLINE
  5
2B0
100
AcDbEntity
  8
ASSI
100
AcDbPolyline
 62
7
  6
CONTINUOUS
 90
18
 70
0
 10
4.4008594722
 20
-40.9305634787
 10
5.7507759946
 20
-40.9421891333
 10
6.3890576797
 20
-40.9491103968
 10
6.9997090237
 20
-40.9567533474
 10
7.5830794896
 20
-40.9651088575
 10
8.1317279836
 20
-40.9740703495
 10
8.6452097239
 20
-40.983645586
 10
9.1239694925
 20
-40.9938268045
 10
9.5619005415
 20
-41.00448414
 10
9.9584798627
 20
-41.0156236913
 10
10.3142304645
 20
-41.0272393597
 10
10.6246146239
 20
-41.0391829831
 10
10.8890512052
 20
-41.0514587627
 10
11.1081213441
 20
-41.0640624973
 10
11.2790307246
 20
-41.076833422
 10
11.4011624165
 20
-41.0897736784
 10
11.4751333499
 20
-41.1028811249
 10
11.5
 20
-41.1159885713
  0
LWPOLYLINE
  5
2B1
100
AcDbEntity
  8
RACCORDO
100
AcDbPolyline
 62
250
  6
CONTINUOUS
 90
10
 70
0
 10
-67.4499522117
 20
-22.9461426689
 10
-67.441329449
 20
-22.9495020423
 10
-67.4327255947
 20
-22.9529886552
 10
-67.4241406488
 20
-22.9566025078
 10
-67.4155746106
 20
-22.9603419737
 10
-67.4070274808
 20
-22.9642086792
 10
-67.3984992619
 20
-22.9682075029
 10
-67.3899899547
 20
-22.9723400709
 10
-67.3814995584
 20
-22.9766047571
 10
-67.3730280729
 20
-22.9810015614
  0
LWPOLYLINE
  5
2B2
100
AcDbEntity
  8
RACCORDO
100
AcDbPolyline
 62
250
  6
CONTINUOUS
 90
4
 70
0
 10
-55.0088843892
 20
40.8221202824
 10
-55.016345127
 20
40.8588118525
 10
-55.018281175
 20
40.8687690498
 10
-55.0189984384
 20
40.8730280731
  0
LWPOLYLINE
  5
2B3
100
AcDbEntity
  8
0
100
AcDbPolyline
 62
7
  6
CONTINUOUS
 90
10
 70
0
 10
-53.3988602192
 20
-0.4972805623
 10
-53.3581645922
 20
-0.4608765346
 10
-53.3130242845
 20
-0.4279034701
 10
-53.2634392961
 20
-0.398361369
 10
-53.2089429191
 20
-0.3718744408
 10
-53.1500018614
 20
-0.3488184759
 10
-53.0880162467
 20
-0.3303208454
 10
-53.0234527829
 20
-0.3167573396
 10
-52.9558447622
 20
-0.3077521682
 10
-52.8851921845
 20
-0.3033053313
  0
LWPOLYLINE
  5
2B4
100
AcDbEntity
  8
ASSI
100
AcDbPolyline
 62
7
  6
CONTINUOUS
 90
3
 70
0
 10
-39.7507759946
 20
-40.9421891333
 10
-38.4008594722
 20
-40.9305634787
 10
-37.6974734032
 20
-40.925948424
  0
LINE
  5
2B5
100
AcDbEntity
  8
RACCORDO
100
AcDbLine
 62
7
  6
CONTINUOUS
 10
48.6
 20
-40.4999999998
 11
54.4
 21
-40.4999999998
  0
LINE
  5
2B6
100
AcDbEntity
  8
RACCORDO
100
AcDbLine
 62
250
  6
CONTINUOUS
 10
48.6
 20
-39.8469076854
 11
54.4
 21
-39.8469076854
  0
LINE
  5
2B7
100
AcDbEntity
  8
RACCORDO
100
AcDbLine
 62
7
  6
CONTINUOUS
 10
-62.0
 20
-39.7757899722
 11
-60.2242100275
 21
-39.7757899722
  0
LINE
  5
2B8
100
AcDbEntity
  8
RACCORDO
100
AcDbLine
 62
7
  6
CONTINUOUS
 10
60.2242100275
 20
-39.7757899722
 11
62.0
 21
-39.7757899722
  0
LINE
  5
2B9
100
AcDbEntity
  8
RACCORDO
100
AcDbLine
 62
250
  6
CONTINUOUS
 10
-60.2242099741
 20
-39.773195608
 11
60.2242099741
 21
-39.773195608
  0
LINE
  5
2BA
100
AcDbEntity
  8
DRAFT
100
AcDbLine
 62
7
  6
CONTINUOUS
 10
-62.0
 20
-39.4999999998
 11
-60.5
 21
-39.4999999998
  0
LINE
  5
2BB
100
AcDbEntity
  8
DRAFT
100
AcDbLine
 62
7
  6
CONTINUOUS
 10
62.0
 20
-39.4999999998
 11
60.5
 21
-39.4999999998
  0
LINE
  5
2BC
100
AcDbEntity
  8
DRAFT
100
AcDbLine
 62
250
  6
CONTINUOUS
 10
-60.5
 20
-35.4999999998
 11
-60.2242099741
 21
-35.4999999998
  0
LINE
  5
2BD
100
AcDbEntity
  8
DRAFT
100
AcDbLine
 62
250
  6
CONTINUOUS
 10
60.5
 20
-35.4999999998
 11
60.2242099741
 21
-35.4999999998
  0
LINE
  5
2BE
100
AcDbEntity
  8
RACCORDO
100
AcDbLine
 62
250
  6
CONTINUOUS
 10
66.0
 20
-35.4999999998
 11
68.0
 21
-35.4999999998
  0
LINE
  5
2BF
100
AcDbEntity
  8
RACCORDO
100
AcDbLine
 62
250
  6
CONTINUOUS
 10
-66.0
 20
-35.4999999998
 11
-68.0
 21
-35.4999999998
  0
LWPOLYLINE
  5
2C0
100
AcDbEntity
  8
ASSI
100
AcDbPolyline
 62
7
  6
CONTINUOUS
 90
19
 70
0
 10
37.6974734032
 20
-40.925948424
 10
39.0852134312
 20
-40.9359804292
 10
39.7507759946
 20
-40.9421891333
 10
40.3890576797
 20
-40.9491103968
 10
40.9997090237
 20
-40.9567533474
 10
41.5830794896
 20
-40.9651088575
 10
42.1317279836
 20
-40.9740703495
 10
42.6452097239
 20
-40.983645586
 10
43.1239694925
 20
-40.9938268045
 10
43.5619005415
 20
-41.00448414
 10
43.9584798627
 20
-41.0156236913
 10
44.3142304645
 20
-41.0272393597
 10
44.6246146239
 20
-41.0391829831
 10
44.8890512052
 20
-41.0514587627
 10
45.1081213441
 20
-41.0640624973
 10
45.2790307246
 20
-41.076833422
 10
45.4011624165
 20
-41.0897736784
 10
45.4751333499
 20
-41.1028811249
 10
45.5
 20
-41.1159885713
  0
LINE
  5
2C1
100
AcDbEntity
  8
RACCORDO
100
AcDbLine
 62
250
  6
CONTINUOUS
 10
48.6227735673
 20
-40.9659887993
 11
48.4248051938
 21
-40.9644947566
  0
LINE
  5
2C2
100
AcDbEntity
  8
RACCORDO
100
AcDbLine
 62
250
  6
CONTINUOUS
 10
48.4248051938
 20
-40.9644947566
 11
48.2495615682
 21
-40.9622374053
  0
LINE
  5
2C3
100
AcDbEntity
  8
RACCORDO
100
AcDbLine
 62
250
  6
CONTINUOUS
 10
48.2495615682
 20
-40.9622374053
 11
48.1508175699
 21
-40.9603668888
  0
LWPOLYLINE
  5
2C4
100
AcDbEntity
  8
RACCORDO
100
AcDbPolyline
 62
250
  6
CONTINUOUS
 90
9
 70
0
 10
48.1508175699
 20
-40.9603668888
 10
48.0698484093
 20
-40.958258594
 10
48.0366056964
 20
-40.9571397569
 10
48.0085700012
 20
-40.9559849268
 10
47.9855825014
 20
-40.9547946707
 10
47.9678275799
 20
-40.9535937908
 10
47.9553666979
 20
-40.9523905548
 10
47.9481383943
 20
-40.951176695
 10
47.9461426692
 20
-40.9499522115
  0
LWPOLYLINE
  5
2C5
100
AcDbEntity
  8
RACCORDO
100
AcDbPolyline
 62
250
  6
CONTINUOUS
 90
10
 70
0
 10
54.4
 20
-39.8469076854
 10
54.4257173708
 20
-39.8483948346
 10
54.4516711113
 20
-39.8524952704
 10
54.4778612216
 20
-39.8592068378
 10
54.5044059953
 20
-39.8682825467
 10
54.5311871387
 20
-39.8799596883
 10
54.5578497711
 20
-39.8949566279
 10
54.584275599
 20
-39.9134980148
 10
54.610582916
 20
-39.9353150786
 10
54.636771722
 20
-39.9603710905
  0
LWPOLYLINE
  5
2C6
100
AcDbEntity
  8
RACCORDO
100
AcDbPolyline
 62
250
  6
CONTINUOUS
 90
10
 70
0
 10
55.0189984384
 20
-40.8730276284
 10
54.9348144952
 20
-40.8679610325
 10
54.8518526486
 20
-40.8528075958
 10
54.7713172614
 20
-40.8277873019
 10
54.6943774712
 20
-40.7932633721
 10
54.622150218
 20
-40.7497369926
 10
54.5556840298
 20
-40.6978400386
 10
54.4959438007
 20
-40.6383259019
 10
54.4437967835
 20
-40.5720585531
 10
54.4
 20
-40.4999999998
  0
LWPOLYLINE
  5
2C7
100
AcDbEntity
  8
RACCORDO
100
AcDbPolyline
 62
250
  6
CONTINUOUS
 90
6
 70
0
 10
55.0538573304
 20
-40.9499650633
 10
54.9603599828
 20
-40.9437018429
 10
54.8685385422
 20
-40.9250079815
 10
54.7800385228
 20
-40.8942184883
 10
54.696445916
 20
-40.8518851357
 10
54.6227804435
 20
-40.8015368333
  0
LWPOLYLINE
  5
2C8
100
AcDbEntity
  8
RACCORDO
100
AcDbPolyline
 62
250
  6
CONTINUOUS
 90
25
 70
0
 10
-67.3582979126
 20
-22.9837500401
 10
-67.3202098848
 20
-22.9915069385
 10
-67.2927014945
 20
-22.9972537427
 10
-67.2599813774
 20
-23.0045075172
 10
-67.2222154244
 20
-23.0133147296
 10
-67.1798078006
 20
-23.0236289123
 10
-67.1338196908
 20
-23.035545923
 10
-67.0847980705
 20
-23.0491401885
 10
-67.0332341819
 20
-23.0643372819
 10
-66.9804486012
 20
-23.0810097806
 10
-66.9272145771
 20
-23.0991637444
 10
-66.8738952091
 20
-23.1187931133
 10
-66.821310755
 20
-23.1397522847
 10
-66.77003445
 20
-23.1620365752
 10
-66.7203428295
 20
-23.185650668
 10
-66.6725616296
 20
-23.2104630099
 10
-66.626839241
 20
-23.2364962513
 10
-66.5835430353
 20
-23.2637277417
 10
-66.5432725922
 20
-23.291957976
 10
-66.5061843815
 20
-23.3213346434
 10
-66.4724226439
 20
-23.3517100547
 10
-66.4425375026
 20
-23.3824416374
 10
-66.4167594621
 20
-23.4133152006
 10
-66.394996206
 20
-23.4445449351
 10
-66.3772865459
 20
-23.4761308409
  0
LWPOLYLINE
  5
2C9
100
AcDbEntity
  8
0
100
AcDbPolyline
 62
7
  6
CONTINUOUS
 90
19
 70
0
 10
-52.3881469242
 20
1.8357236824
 10
-52.3407977437
 20
1.7806844285
 10
-52.301338082
 20
1.7211837865
 10
-52.2697679389
 20
1.6572217566
 10
-52.2462681801
 20
1.5879343059
 10
-52.2306579399
 20
1.5141854673
 10
-52.2223946221
 20
1.4385673391
 10
-52.2216067129
 20
1.3598619163
 10
-52.2281657259
 20
1.2792872039
 10
-52.2411436059
 20
1.2030893162
 10
-52.260326068
 20
1.1328224164
 10
-52.285927397
 20
1.0669323411
 10
-52.3176623918
 20
1.0070027149
 10
-52.3552614258
 20
0.9537419115
 10
-52.3989941256
 20
0.9064415572
 10
-52.4493841699
 20
0.8645601546
 10
-52.5066061183
 20
0.8279172046
 10
-52.5704854113
 20
0.7966932063
 10
-52.6410220488
 20
0.7708881597
  0
LWPOLYLINE
  5
2CA
100
AcDbEntity
  8
RACCORDO
100
AcDbPolyline
 62
250
  6
CONTINUOUS
 90
3
 70
0
 10
-48.5874618069
 20
40.454282789
 10
-48.5984278311
 20
40.4948597421
 10
-48.6000000227
 20
40.4999999982
  0
LINE
  5
2CB
100
AcDbEntity
  8
RACCORDO
100
AcDbLine
 62
250
  6
CONTINUOUS
 10
-48.5349565713
 20
40.1936694728
 11
-48.5599052429
 21
40.3217940699
  0
LWPOLYLINE
  5
2CC
100
AcDbEntity
  8
RACCORDO
100
AcDbPolyline
 62
250
  6
CONTINUOUS
 90
4
 70
0
 10
-48.5599052429
 20
40.3217940699
 10
-48.5699577252
 20
40.3748498239
 10
-48.5789409221
 20
40.4192988239
 10
-48.5874618069
 20
40.454282789
  0
LINE
  5
2CD
100
AcDbEntity
  8
RACCORDO
100
AcDbLine
 62
250
  6
CONTINUOUS
 10
-48.5064586257
 20
40.0424591871
 11
-48.5349565713
 21
40.1936694728
  0
LINE
  5
2CE
100
AcDbEntity
  8
RACCORDO
100
AcDbLine
 62
250
  6
CONTINUOUS
 10
-48.4761308412
 20
39.8772865461
 11
-48.5064586257
 21
40.0424591871
  0
LWPOLYLINE
  5
2CF
100
AcDbEntity
  8
RACCORDO
100
AcDbPolyline
 62
7
  6
CONTINUOUS
 90
5
 70
0
 10
-67.3015368335
 20
-29.6227804433
 10
-67.2358147229
 20
-29.5498603361
 10
-67.1641577375
 20
-29.4894942948
 10
-67.0850797662
 20
-29.4392424524
 10
-66.99999795
 20
-29.4000053624
  0
LINE
  5
2D0
100
AcDbEntity
  8
DRAFT
100
AcDbLine
 62
7
  6
CONTINUOUS
 10
62.0
 20
-33.9999999998
 11
66.0
 21
-33.9999999998
  0
LINE
  5
2D1
100
AcDbEntity
  8
DRAFT
100
AcDbLine
 62
7
  6
CONTINUOUS
 10
-62.0
 20
-33.9999999998
 11
-66.0
 21
-33.9999999998
  0
LINE
  5
2D2
100
AcDbEntity
  8
DRAFT
100
AcDbLine
 62
7
  6
CONTINUOUS
 10
62.0
 20
-33.7242099739
 11
66.2731956082
 21
-33.7242099739
  0
LINE
  5
2D3
100
AcDbEntity
  8
DRAFT
100
AcDbLine
 62
7
  6
CONTINUOUS
 10
-62.0
 20
-33.7242099739
 11
-66.2731956082
 21
-33.7242099739
  0
LINE
  5
2D4
100
AcDbEntity
  8
RACCORDO
100
AcDbLine
 62
250
  6
CONTINUOUS
 10
-66.3469076856
 20
-29.3999999998
 11
-67.0
 21
-29.3999999999
  0
LINE
  5
2D5
100
AcDbEntity
  8
RACCORDO
100
AcDbLine
 62
250
  6
CONTINUOUS
 10
-67.4667094077
 20
-29.0999999998
 11
-67.0
 21
-29.0999999998
  0
LWPOLYLINE
  5
2D6
100
AcDbEntity
  8
RACCORDO
100
AcDbPolyline
 62
250
  6
CONTINUOUS
 90
3
 70
0
 10
-67.3730280729
 20
-22.9810015614
 10
-67.3686260664
 20
-22.9817399457
 10
-67.3582979126
 20
-22.9837500401
  0
LWPOLYLINE
  5
2D7
100
AcDbEntity
  8
0
100
AcDbPolyline
 62
7
  6
CONTINUOUS
 90
10
 70
0
 10
-54.415790899
 20
0.835416198
 10
-54.4756754569
 20
0.8752133503
 10
-54.5306319227
 20
0.9221464494
 10
-54.5806602962
 20
0.9762154954
 10
-54.6270030195
 20
1.039549673
 10
-54.6684176507
 20
1.1100197975
 10
-54.7011768637
 20
1.1812383148
 10
-54.7240382167
 20
1.25107604
 10
-54.7382441516
 20
1.321662158
 10
-54.7437946685
 20
1.3929966687
  0
LWPOLYLINE
  5
2D8
100
AcDbEntity
  8
RACCORDO
100
AcDbPolyline
 62
250
  6
CONTINUOUS
 90
10
 70
0
 10
-55.0189984384
 20
40.8730280731
 10
-55.0233952427
 20
40.8814995586
 10
-55.0276599289
 20
40.8899899549
 10
-55.0317924969
 20
40.8984992621
 10
-55.0357913205
 20
40.907027481
 10
-55.039658026
 20
40.9155746108
 10
-55.0433974919
 20
40.924140649
 10
-55.0470113445
 20
40.9327255949
 10
-55.0504979574
 20
40.9413294492
 10
-55.0538573308
 20
40.949952212
  0
LWPOLYLINE
  5
2D9
100
AcDbEntity
  8
RACCORDO
100
AcDbPolyline
 62
250
  6
CONTINUOUS
 90
21
 70
0
 10
-66.4603710907
 20
-29.6367717217
 10
-66.4920211352
 20
-29.6664350322
 10
-66.5267189496
 20
-29.6951624484
 10
-66.5643587401
 20
-29.7229539701
 10
-66.6048831897
 20
-29.7498892365
 10
-66.6480446428
 20
-29.7758886085
 10
-66.6934109821
 20
-29.8007131692
 10
-66.7406785836
 20
-29.8243121698
 10
-66.7896368204
 20
-29.846736359
 10
-66.8399391621
 20
-29.8678990662
 10
-66.891312135
 20
-29.8878222253
 10
-66.9432133751
 20
-29.9064839022
 10
-66.9948546377
 20
-29.9237316241
 10
-67.0458731512
 20
-29.9395444507
 10
-67.0955731176
 20
-29.9539433223
 10
-67.1427730176
 20
-29.966838587
 10
-67.1870159225
 20
-29.9781731324
 10
-67.2277843531
 20
-29.988004071
 10
-67.2641093286
 20
-29.9964130878
 10
-67.2956172244
 20
-30.0033596992
 10
-67.3221202821
 20
-30.008884389
  0
LINE
  5
2DA
100
AcDbEntity
  8
0
100
AcDbLine
 62
7
  6
CONTINUOUS
 10
-2.905948
 20
29.5737030002
 11
-2.400816
 21
30.0341840002
  0
LINE
  5
2DB
100
AcDbEntity
  8
0
100
AcDbLine
 62
7
  6
CONTINUOUS
 10
-2.368336
 20
30.4028000002
 11
-3.084683
 21
29.7960000002
  0
LWPOLYLINE
  5
2DC
100
AcDbEntity
  8
0
100
AcDbPolyline
 62
7
  6
CONTINUOUS
 90
10
 70
0
 10
-0.4790686992
 20
30.063268762
 10
-0.4488956245
 20
30.0870728335
 10
-0.4159806657
 20
30.1084318796
 10
-0.3803238226
 20
30.1273459004
 10
-0.3416029914
 20
30.1439482331
 10
-0.3001402761
 20
30.1581055405
 10
-0.2569019881
 20
30.1694178102
 10
-0.2122102314
 20
30.1777517048
 10
-0.165742902
 20
30.1832405618
 10
-0.1175
 20
30.1858843811
  0
LWPOLYLINE
  5
2DD
100
AcDbEntity
  8
0
100
AcDbPolyline
 62
7
  6
CONTINUOUS
 90
10
 70
0
 10
2.5351606504
 20
29.0842683543
 10
2.6107438968
 20
29.1332341805
 10
2.6781192003
 20
29.1871578314
 10
2.7372865608
 20
29.246039307
 10
2.7885388763
 20
29.3100356773
 10
2.831583249
 20
29.3789898723
 10
2.8655409851
 20
29.4524306818
 10
2.8901191871
 20
29.5302010358
 10
2.9056107526
 20
29.6124580042
 10
2.9120156817
 20
29.6992015872
  0
LWPOLYLINE
  5
2DE
100
AcDbEntity
  8
0
100
AcDbPolyline
 62
7
  6
CONTINUOUS
 90
13
 70
0
 10
-53.4205409602
 20
-0.1350795837
 10
-53.5065522944
 20
-0.1869998488
 10
-53.5828623266
 20
-0.2474947496
 10
-53.6509130635
 20
-0.3172257379
 10
-53.7121192427
 20
-0.3965572465
 10
-53.7650661266
 20
-0.4851248427
 10
-53.80695151
 20
-0.5824966792
 10
-53.8378199826
 20
-0.6900832534
 10
-53.8576269547
 20
-0.8064740681
 10
-53.8634364514
 20
-0.9270057837
 10
-53.8542698147
 20
-1.050123954
 10
-53.8311057027
 20
-1.1773830253
 10
-53.7939441155
 20
-1.3087829977
  0
LWPOLYLINE
  5
2DF
100
AcDbEntity
  8
0
100
AcDbPolyline
 62
7
  6
CONTINUOUS
 90
28
 70
0
 10
-52.4737469146
 20
-1.8039301898
 10
-52.366323181
 20
-1.7430734702
 10
-52.2714575714
 20
-1.6757282136
 10
-52.1891500859
 20
-1.6018944199
 10
-52.1197203862
 20
-1.5220419088
 10
-52.0628488105
 20
-1.4357008606
 10
-52.0175763738
 20
-1.3414618166
 10
-51.9830724056
 20
-1.2374216073
 10
-51.9601675764
 20
-1.1254834021
 10
-51.9503949118
 20
-1.0099472508
 10
-51.9545109111
 20
-0.8884971003
 10
-51.971759075
 20
-0.7634490037
 10
-52.001402931
 20
-0.6460511691
 10
-52.044330479
 20
-0.5394327118
 10
-52.0996537191
 20
-0.4404645165
 10
-52.1639721794
 20
-0.3510074466
 10
-52.2362664036
 20
-0.2712206132
 10
-52.3175558478
 20
-0.2009449053
 10
-52.4074984091
 20
-0.1415638522
 10
-52.5069181231
 20
-0.093047045
 10
-52.6149909542
 20
-0.0554248926
 10
-52.7289026923
 20
-0.0301721514
 10
-52.851745667
 20
-0.0180131205
 10
-52.9804275487
 20
-0.0182235007
 10
-53.1028571387
 20
-0.0301051512
 10
-53.2161537076
 20
-0.0544575699
 10
-53.3231979849
 20
-0.0904812589
 10
-53.4205409602
 20
-0.1350795837
  0
LWPOLYLINE
  5
2E0
100
AcDbEntity
  8
0
100
AcDbPolyline
 62
7
  6
CONTINUOUS
 90
8
 70
0
 10
-53.1518717544
 20
2.2324638919
 10
-53.2392511055
 20
2.1879691442
 10
-53.3166810731
 20
2.1338036075
 10
-53.3854387577
 20
2.0695705766
 10
-53.4448219359
 20
1.9956290175
 10
-53.4945965332
 20
1.9120985855
 10
-53.5349966241
 20
1.8188596255
 10
-53.5660222086
 20
1.7159121372
  0
LWPOLYLINE
  5
2E1
100
AcDbEntity
  8
0
100
AcDbPolyline
 62
7
  6
CONTINUOUS
 90
30
 70
0
 10
-52.545473839
 20
0.4588524744
 10
-52.4309371361
 20
0.5154689983
 10
-52.3289209194
 20
0.5792403513
 10
-52.2394251889
 20
0.6501665334
 10
-52.162794282
 20
0.7279463029
 10
-52.0986838613
 20
0.8128809014
 10
-52.0460609146
 20
0.9058740541
 10
-52.0047760473
 20
1.0102101206
 10
-51.974978654
 20
1.1226047413
 10
-51.9560839063
 20
1.2341085628
 10
-51.9488538004
 20
1.3433013053
 10
-51.95252634
 20
1.4516032485
 10
-51.9642307079
 20
1.554325879
 10
-51.9836914123
 20
1.6503112334
 10
-52.011183945
 20
1.740717275
 10
-52.0446639631
 20
1.8243293803
 10
-52.0834628639
 20
1.9002722714
 10
-52.1282492501
 20
1.9694212262
 10
-52.1789845877
 20
2.0331874557
 10
-52.2346741059
 20
2.0927333899
 10
-52.2963125755
 20
2.1468965987
 10
-52.3668457741
 20
2.1936010032
 10
-52.4482591869
 20
2.233018968
 10
-52.5385673286
 20
2.2649781284
 10
-52.6347595214
 20
2.2868853114
 10
-52.7391731423
 20
2.2983976588
 10
-52.8494708142
 20
2.2998580288
 10
-52.9556297275
 20
2.2897018222
 10
-53.0558201203
 20
2.2668911453
 10
-53.1518717544
 20
2.2324638919
  0
LINE
  5
2E2
100
AcDbEntity
  8
0
100
AcDbLine
 62
7
  6
CONTINUOUS
 10
1.492006329
 20
28.127492101
 11
1.1865562096
 21
28.0339610644
  0
LINE
  5
2E3
100
AcDbEntity
  8
RACCORDO
100
AcDbLine
 62
250
  6
CONTINUOUS
 10
-67.4667094077
 20
-23.8999999998
 11
-67.0000000001
 21
-23.9000000081
  0
LINE
  5
2E4
100
AcDbEntity
  8
RACCORDO
100
AcDbLine
 62
250
  6
CONTINUOUS
 10
-66.3469076856
 20
-23.5999999998
 11
-67.0
 21
-23.5999999998
  0
LWPOLYLINE
  5
2E5
100
AcDbEntity
  8
0
100
AcDbPolyline
 62
7
  6
CONTINUOUS
 90
19
 70
0
 10
2.5343672374
 20
27.8799547298
 10
2.4804484467
 20
27.8335773869
 10
2.4221625713
 20
27.7949333097
 10
2.3595096112
 20
27.7640224983
 10
2.291628015
 20
27.7410269884
 10
2.219379334
 20
27.7257647442
 10
2.1453482229
 20
27.7176896583
 10
2.068378447
 20
27.7169259834
 10
1.9896262408
 20
27.7233494669
 10
1.9151449627
 20
27.7360412436
 10
1.8464427654
 20
27.7547780539
 10
1.7820114961
 20
27.7797831574
 10
1.7233800544
 20
27.8108074679
 10
1.6712224901
 20
27.8475963419
 10
1.6248647533
 20
27.8904044228
 10
1.5838135938
 20
27.9397465548
 10
1.5479045949
 20
27.9957943525
 10
1.5173021733
 20
28.0583762012
 10
1.492006329
 20
28.127492101
  0
LWPOLYLINE
  5
2E6
100
AcDbEntity
  8
0
100
AcDbPolyline
 62
7
  6
CONTINUOUS
 90
4
 70
0
 10
-0.6492828854
 20
29.8167029947
 10
-0.6010135144
 20
29.9080694934
 10
-0.5442754523
 20
29.9902580825
 10
-0.4790686992
 20
30.063268762
  0
LWPOLYLINE
  5
2E7
100
AcDbEntity
  8
0
100
AcDbPolyline
 62
7
  6
CONTINUOUS
 90
10
 70
0
 10
1.5551718518
 20
29.8648030759
 10
1.5941423533
 20
29.9234337052
 10
1.6400913428
 20
29.9772356871
 10
1.6930188202
 20
30.0262090216
 10
1.7550043243
 20
30.0715671552
 10
1.8239683162
 20
30.1120966415
 10
1.8936721795
 20
30.1441571412
 10
1.9620363753
 20
30.1665352078
 10
2.0311404424
 20
30.1804442878
 10
2.1009843809
 20
30.1858843811
  0
LWPOLYLINE
  5
2E8
100
AcDbEntity
  8
RACCORDO
100
AcDbPolyline
 62
250
  6
CONTINUOUS
 90
4
 70
0
 10
-67.3221202821
 20
-30.008884389
 10
-67.3588118522
 20
-30.0163451267
 10
-67.3687690495
 20
-30.0182811748
 10
-67.3730280729
 20
-30.0189984381
  0
LWPOLYLINE
  5
2E9
100
AcDbEntity
  8
RACCORDO
100
AcDbPolyline
 62
250
  6
CONTINUOUS
 90
4
 70
0
 10
-66.3772865459
 20
-23.4761308409
 10
-66.4610081607
 20
-23.4914104084
 10
-66.5424591869
 20
-23.5064586255
 10
-66.6936694725
 20
-23.534956571
  0
LINE
  5
2EA
100
AcDbEntity
  8
0
100
AcDbLine
 62
7
  6
CONTINUOUS
 10
-51.6
 20
-16.4999999998
 11
-51.4
 21
-16.4999999998
  0
LWPOLYLINE
  5
2EB
100
AcDbEntity
  8
RACCORDO
100
AcDbPolyline
 62
250
  6
CONTINUOUS
 90
21
 70
0
 10
-54.636771722
 20
39.960371091
 10
-54.6664350325
 20
39.9920211354
 10
-54.6951624486
 20
40.0267189498
 10
-54.7229539704
 20
40.0643587404
 10
-54.7498892368
 20
40.10488319
 10
-54.7758886088
 20
40.1480446431
 10
-54.8007131694
 20
40.1934109823
 10
-54.82431217
 20
40.2406785839
 10
-54.8467363593
 20
40.2896368207
 10
-54.8678990664
 20
40.3399391623
 10
-54.8878222255
 20
40.3913121352
 10
-54.9064839024
 20
40.4432133753
 10
-54.9237316244
 20
40.494854638
 10
-54.939544451
 20
40.5458731514
 10
-54.9539433226
 20
40.5955731179
 10
-54.9668385873
 20
40.6427730178
 10
-54.9781731327
 20
40.6870159228
 10
-54.9880040712
 20
40.7277843533
 10
-54.9964130881
 20
40.7641093288
 10
-55.0033596995
 20
40.7956172247
 10
-55.0088843892
 20
40.8221202824
  0
LWPOLYLINE
  5
2EC
100
AcDbEntity
  8
0
100
AcDbPolyline
 62
7
  6
CONTINUOUS
 90
37
 70
0
 10
0.4481719356
 20
28.1612531428
 10
0.4170533205
 20
28.0845281853
 10
0.3815636307
 20
28.0146393885
 10
0.3417028662
 20
27.9515867526
 10
0.2979984114
 20
27.8950389729
 10
0.2499228819
 20
27.845327354
 10
0.1958941243
 20
27.8034458098
 10
0.1347894205
 20
27.7693827509
 10
0.0677314886
 20
27.7431497666
 10
-0.0034936709
 20
27.7257755394
 10
-0.0812292042
 20
27.7175611144
 10
-0.1631319651
 20
27.7182054464
 10
-0.2403865139
 20
27.7278340823
 10
-0.310229545
 20
27.7466964331
 10
-0.3754243639
 20
27.7745430879
 10
-0.4354454477
 20
27.8107513602
 10
-0.4900449761
 20
27.8554287449
 10
-0.5394707692
 20
27.9084677471
 10
-0.5839407651
 20
27.9689231962
 10
-0.6233784304
 20
28.0372141627
 10
-0.6578602984
 20
28.112921576
 10
-0.6878339073
 20
28.1938430536
 10
-0.7131770292
 20
28.2796299483
 10
-0.7340118921
 20
28.3706309073
 10
-0.751152718
 20
28.4656894894
 10
-0.7647269434
 20
28.5645208834
 10
-0.7746071318
 20
28.6674099006
 10
-0.7812251963
 20
28.7740545339
 10
-0.7850959953
 20
28.8845263445
 10
-0.7857046704
 20
28.9987537712
 10
-0.7819385598
 20
29.1162201232
 10
-0.7740180054
 20
29.2393938851
 10
-0.7617226653
 20
29.3658065723
 10
-0.743278852
 20
29.4875360412
 10
-0.7188687423
 20
29.6034398078
 10
-0.6883101594
 20
29.7146603561
 10
-0.6492828854
 20
29.8167029947
  0
LWPOLYLINE
  5
2ED
100
AcDbEntity
  8
RACCORDO
100
AcDbPolyline
 62
250
  6
CONTINUOUS
 90
3
 70
0
 10
-66.9542827887
 20
-23.5874618066
 10
-66.9948597419
 20
-23.5984278309
 10
-66.999999998
 20
-23.6000000224
  0
LINE
  5
2EE
100
AcDbEntity
  8
RACCORDO
100
AcDbLine
 62
250
  6
CONTINUOUS
 10
-66.6936694725
 20
-23.534956571
 11
-66.8217940697
 21
-23.5599052426
  0
LWPOLYLINE
  5
2EF
100
AcDbEntity
  8
RACCORDO
100
AcDbPolyline
 62
250
  6
CONTINUOUS
 90
4
 70
0
 10
-66.8217940697
 20
-23.5599052426
 10
-66.8748498237
 20
-23.5699577249
 10
-66.9192988236
 20
-23.5789409219
 10
-66.9542827887
 20
-23.5874618066
  0
LWPOLYLINE
  5
2F0
100
AcDbEntity
  8
RACCORDO
100
AcDbPolyline
 62
7
  6
CONTINUOUS
 90
5
 70
0
 10
-54.6227804435
 20
40.8015368338
 10
-54.5498603364
 20
40.7358147231
 10
-54.4894942951
 20
40.6641577377
 10
-54.4392424527
 20
40.5850797665
 10
-54.4000053627
 20
40.4999979502
  0
LINE
  5
2F1
100
AcDbEntity
  8
0
100
AcDbLine
 62
7
  6
CONTINUOUS
 10
-2.400816
 20
30.0341840002
 11
-2.400816
 21
27.5000000002
  0
LINE
  5
2F2
100
AcDbEntity
  8
0
100
AcDbLine
 62
7
  6
CONTINUOUS
 10
-2.118684
 20
27.5000000002
 11
-2.118684
 21
30.4028000002
  0
LINE
  5
2F3
100
AcDbEntity
  8
0
100
AcDbLine
 62
7
  6
CONTINUOUS
 10
-1.1
 20
-11.1960930683
 11
-1.1
 21
-10.0700680663
  0
LINE
  5
2F4
100
AcDbEntity
  8
0
100
AcDbLine
 62
7
  6
CONTINUOUS
 10
-1.1
 20
10.0700680668
 11
-1.1
 21
11.1960930688
  0
LWPOLYLINE
  5
2F5
100
AcDbEntity
  8
0
100
AcDbPolyline
 62
7
  6
CONTINUOUS
 90
10
 70
0
 10
2.7077843809
 20
28.2925172063
 10
2.7035460475
 20
28.2354821596
 10
2.6952365266
 20
28.1808725864
 10
2.6828558183
 20
28.1286884868
 10
2.665985752
 20
28.0784322349
 10
2.6450444982
 20
28.0306014566
 10
2.6212865687
 20
27.9866890292
 10
2.595130134
 20
27.9471925785
 10
2.5661570235
 20
27.9116144787
 10
2.5343672374
 20
27.8799547298
  0
LWPOLYLINE
  5
2F6
100
AcDbEntity
  8
0
100
AcDbPolyline
 62
7
  6
CONTINUOUS
 90
10
 70
0
 10
0.5395250156
 20
28.5674093968
 10
0.5344336296
 20
28.5196561564
 10
0.5280425854
 20
28.4724789559
 10
0.5203518832
 20
28.4258777951
 10
0.5113149641
 20
28.3797458046
 10
0.5009783869
 20
28.3341898539
 10
0.4894818278
 20
28.2895305515
 10
0.4768718456
 20
28.2458747669
 10
0.4631018816
 20
28.2031156307
 10
0.4481719356
 20
28.1612531428
  0
LWPOLYLINE
  5
2F7
100
AcDbEntity
  8
RACCORDO
100
AcDbPolyline
 62
250
  6
CONTINUOUS
 90
10
 70
0
 10
-67.3730280729
 20
-30.0189984381
 10
-67.3814995584
 20
-30.0233952424
 10
-67.3899899547
 20
-30.0276599286
 10
-67.3984992619
 20
-30.0317924966
 10
-67.4070274808
 20
-30.0357913203
 10
-67.4155746105
 20
-30.0396580257
 10
-67.4241406487
 20
-30.0433974917
 10
-67.4327255946
 20
-30.0470113442
 10
-67.4413294489
 20
-30.0504979572
 10
-67.4499522117
 20
-30.0538573306
  0
LINE
  5
2F8
100
AcDbEntity
  8
0
100
AcDbLine
 62
7
  6
CONTINUOUS
 10
11.1960930686
 20
-1.0999999998
 11
10.0700680665
 21
-1.0999999998
  0
LINE
  5
2F9
100
AcDbEntity
  8
0
100
AcDbLine
 62
7
  6
CONTINUOUS
 10
-10.0700680665
 20
-1.0999999998
 11
-11.1960930686
 21
-1.0999999998
  0
LINE
  5
2FA
100
AcDbEntity
  8
0
100
AcDbLine
 62
7
  6
CONTINUOUS
 10
-54.693534
 20
-0.1150889998
 11
-54.965387
 21
-0.1150889998
  0
LINE
  5
2FB
100
AcDbEntity
  8
0
100
AcDbLine
 62
7
  6
CONTINUOUS
 10
-53.7939441155
 20
-1.3087829977
 11
-54.693534
 21
-1.2930109998
  0
LINE
  5
2FC
100
AcDbEntity
  8
0
100
AcDbLine
 62
7
  6
CONTINUOUS
 10
-54.965387
 20
-1.5761209998
 11
-53.427590219
 21
-1.6038029958
  0
LWPOLYLINE
  5
2FD
100
AcDbEntity
  8
0
100
AcDbPolyline
 62
7
  6
CONTINUOUS
 90
13
 70
0
 10
-54.2383726082
 20
1.9325149957
 10
-54.1711566034
 20
1.9293654848
 10
-54.1081020331
 20
1.9207160017
 10
-54.0492088971
 20
1.9065665465
 10
-53.9941653565
 20
1.8868103411
 10
-53.9432832504
 20
1.8615541635
 10
-53.8974980959
 20
1.8311183481
 10
-53.8575520933
 20
1.79538992
 10
-53.8227030424
 20
1.754481854
 10
-53.7916598597
 20
1.7090534092
 10
-53.7637795968
 20
1.6590399472
 10
-53.739705202
 20
1.6045061064
 10
-53.7200744367
 20
1.5463050604
  0
LWPOLYLINE
  5
2FE
100
AcDbEntity
  8
0
100
AcDbPolyline
 62
7
  6
CONTINUOUS
 90
10
 70
0
 10
-52.8096046502
 20
2.0128798687
 10
-52.7513409588
 20
2.0085516611
 10
-52.6955523219
 20
2.0000625066
 10
-52.6422387395
 20
1.9874124053
 10
-52.5908885991
 20
1.9701720323
 10
-52.5420135132
 20
1.9487707125
 10
-52.4971483191
 20
1.9244964201
 10
-52.4568046291
 20
1.8977784801
 10
-52.4204708308
 20
1.8681875675
 10
-52.3881469242
 20
1.8357236824
  0
LWPOLYLINE
  5
2FF
100
AcDbEntity
  8
0
100
AcDbPolyline
 62
7
  6
CONTINUOUS
 90
13
 70
0
 10
-52.8851921845
 20
-0.3033053313
 10
-52.7912883019
 20
-0.3103238237
 10
-52.7034407093
 20
-0.3273394474
 10
-52.6216494066
 20
-0.3543522023
 10
-52.5453968362
 20
-0.3923964976
 10
-52.4752005558
 20
-0.4404379241
 10
-52.4126132381
 20
-0.4953732545
 10
-52.3573520814
 20
-0.556572248
 10
-52.3096998874
 20
-0.6246651454
 10
-52.272057734
 20
-0.6984394418
 10
-52.2452259805
 20
-0.7774909691
 10
-52.2284042677
 20
-0.8622238954
 10
-52.2215925954
 20
-0.9526382208
  0
LWPOLYLINE
  5
300
100
AcDbEntity
  8
0
100
AcDbPolyline
 62
7
  6
CONTINUOUS
 90
10
 70
0
 10
0.5395250156
 20
29.3414765715
 10
0.5440376691
 20
29.2544339621
 10
0.5474319478
 20
29.1679145095
 10
0.5497078519
 20
29.0819182138
 10
0.5508784329
 20
28.9967975689
 10
0.5509306392
 20
28.9122000809
 10
0.5498253161
 20
28.8270682679
 10
0.547549412
 20
28.7410496359
 10
0.5441159785
 20
28.6544966788
 10
0.5395250156
 20
28.5674093968
  0
LWPOLYLINE
  5
301
100
AcDbEntity
  8
0
100
AcDbPolyline
 62
7
  6
CONTINUOUS
 90
31
 70
0
 10
2.9120156817
 20
29.6992015872
 10
2.9083706859
 20
29.7754622976
 10
2.8995970252
 20
29.8476014825
 10
2.8856946996
 20
29.9156191421
 10
2.8662097522
 20
29.9798090769
 10
2.8415961399
 20
30.0398774863
 10
2.8132157331
 20
30.094942968
 10
2.7811082803
 20
30.1444208829
 10
2.7452340329
 20
30.1888958702
 10
2.7068356161
 20
30.2292404446
 10
2.6667109703
 20
30.2651832738
 10
2.624062155
 20
30.2969956901
 10
2.5777379735
 20
30.326364206
 10
2.5273503098
 20
30.3542189419
 10
2.4732872799
 20
30.3796297774
 10
2.4155620352
 20
30.4014928636
 10
2.3540016552
 20
30.4197237642
 10
2.2887790603
 20
30.4344069155
 10
2.2204261642
 20
30.4446917782
 10
2.1488806378
 20
30.4509135449
 10
2.0742048101
 20
30.4527370231
 10
1.9971175817
 20
30.4483060958
 10
1.9170768532
 20
30.4383474666
 10
1.8346247241
 20
30.4221344318
 10
1.7521063931
 20
30.3956307641
 10
1.6687970928
 20
30.3581517599
 10
1.5854215906
 20
30.3103821226
 10
1.5064993882
 20
30.2503397355
 10
1.4335369861
 20
30.1773638931
 10
1.3650278838
 20
30.0921153008
 10
1.3009720812
 20
29.9945939588
  0
LINE
  5
302
100
AcDbEntity
  8
0
100
AcDbLine
 62
7
  6
CONTINUOUS
 10
1.1
 20
11.1960930688
 11
1.1
 21
10.0700680668
  0
LINE
  5
303
100
AcDbEntity
  8
0
100
AcDbLine
 62
7
  6
CONTINUOUS
 10
1.1
 20
-10.0700680663
 11
1.1
 21
-11.1960930683
  0
LINE
  5
304
100
AcDbEntity
  8
0
100
AcDbLine
 62
7
  6
CONTINUOUS
 10
1.846016
 20
29.1519156866
 11
1.846016
 21
28.8861843748
  0
LWPOLYLINE
  5
305
100
AcDbEntity
  8
0
100
AcDbPolyline
 62
7
  6
CONTINUOUS
 90
16
 70
0
 10
2.6291156817
 20
29.6911297141
 10
2.6246523061
 20
29.6119949652
 10
2.612545184
 20
29.5391864147
 10
2.5927943156
 20
29.4727040626
 10
2.5652093527
 20
29.4125148709
 10
2.5299806435
 20
29.3586518776
 10
2.487679232
 20
29.3112141965
 10
2.438004032
 20
29.2704617908
 10
2.3812561297
 20
29.2361346973
 10
2.3189098281
 20
29.2075521401
 10
2.250871311
 20
29.1846136688
 10
2.1772343945
 20
29.1674197339
 10
2.09975483
 20
29.1555909106
 10
2.019017868
 20
29.1490007242
 10
1.934438258
 20
29.1477756495
 10
1.846016
 20
29.1519156866
  0
LWPOLYLINE
  5
306
100
AcDbEntity
  8
RACCORDO
100
AcDbPolyline
 62
250
  6
CONTINUOUS
 90
10
 70
0
 10
67.3730280729
 20
30.0189984386
 10
67.3814995584
 20
30.0233952429
 10
67.3899899547
 20
30.0276599291
 10
67.3984992619
 20
30.0317924971
 10
67.4070274808
 20
30.0357913208
 10
67.4155746105
 20
30.0396580262
 10
67.4241406487
 20
30.0433974922
 10
67.4327255946
 20
30.0470113447
 10
67.4413294489
 20
30.0504979577
 10
67.4499522117
 20
30.0538573311
  0
LWPOLYLINE
  5
307
100
AcDbEntity
  8
RACCORDO
100
AcDbPolyline
 62
250
  6
CONTINUOUS
 90
3
 70
0
 10
66.9542827887
 20
23.5874618071
 10
66.9948597419
 20
23.5984278314
 10
66.999999998
 20
23.6000000229
  0
LWPOLYLINE
  5
308
100
AcDbEntity
  8
0
100
AcDbPolyline
 62
7
  6
CONTINUOUS
 90
31
 70
0
 10
-54.2466185187
 20
2.2215145957
 10
-54.3245409219
 20
2.2177846034
 10
-54.3982423624
 20
2.2088200455
 10
-54.46772284
 20
2.1946209219
 10
-54.5332799744
 20
2.1747215721
 10
-54.594616146
 20
2.1495876565
 10
-54.6508384963
 20
2.1206161573
 10
-54.7013506411
 20
2.0878491741
 10
-54.7467489646
 20
2.0512446073
 10
-54.7879297619
 20
2.0120731396
 10
-54.8246142364
 20
1.9711539272
 10
-54.8570811848
 20
1.9276678139
 10
-54.887063291
 20
1.880428014
 10
-54.9155141233
 20
1.8290373453
 10
-54.9414801135
 20
1.77389299
 10
-54.9638332419
 20
1.7149997089
 10
-54.9824893832
 20
1.6521798915
 10
-54.9975326626
 20
1.5856111484
 10
-55.008087436
 20
1.515831072
 10
-55.0144938358
 20
1.4427758048
 10
-55.0164117296
 20
1.3665092044
 10
-55.0119450751
 20
1.2877604364
 10
-55.0018426647
 20
1.2059760859
 10
-54.9853557061
 20
1.1217095679
 10
-54.9583417808
 20
1.0373502927
 10
-54.9201062771
 20
0.9521499246
 10
-54.8713438066
 20
0.8668567994
 10
-54.8099957856
 20
0.7861053347
 10
-54.7353760195
 20
0.7114403365
 10
-54.648170703
 20
0.6413169988
 10
-54.5483798359
 20
0.5757353217
  0
LINE
  5
309
100
AcDbEntity
  8
0
100
AcDbLine
 62
7
  6
CONTINUOUS
 10
-11.1960930686
 20
1.1000000002
 11
-10.0700680665
 21
1.1000000002
  0
LINE
  5
30A
100
AcDbEntity
  8
0
100
AcDbLine
 62
7
  6
CONTINUOUS
 10
10.0700680665
 20
1.1000000002
 11
11.1960930686
 21
1.1000000002
  0
LINE
  5
30B
100
AcDbEntity
  8
0
100
AcDbLine
 62
7
  6
CONTINUOUS
 10
-53.6875325972
 20
1.1325310002
 11
-53.4160718604
 21
1.1325310002
  0
LWPOLYLINE
  5
30C
100
AcDbEntity
  8
RACCORDO
100
AcDbPolyline
 62
7
  6
CONTINUOUS
 90
5
 70
0
 10
54.6227804435
 20
-40.8015368333
 10
54.5498603364
 20
-40.7358147226
 10
54.4894942951
 20
-40.6641577372
 10
54.4392424527
 20
-40.585079766
 10
54.4000053627
 20
-40.4999979497
  0
LINE
  5
30D
100
AcDbEntity
  8
RACCORDO
100
AcDbLine
 62
250
  6
CONTINUOUS
 10
66.6936694725
 20
23.5349565715
 11
66.8217940697
 21
23.5599052431
  0
LWPOLYLINE
  5
30E
100
AcDbEntity
  8
RACCORDO
100
AcDbPolyline
 62
250
  6
CONTINUOUS
 90
4
 70
0
 10
66.8217940697
 20
23.5599052431
 10
66.8748498237
 20
23.5699577254
 10
66.9192988236
 20
23.5789409224
 10
66.9542827887
 20
23.5874618071
  0
LINE
  5
30F
100
AcDbEntity
  8
RACCORDO
100
AcDbLine
 62
250
  6
CONTINUOUS
 10
66.5424591869
 20
23.506458626
 11
66.6936694725
 21
23.5349565715
  0
LINE
  5
310
100
AcDbEntity
  8
RACCORDO
100
AcDbLine
 62
250
  6
CONTINUOUS
 10
66.3772865459
 20
23.4761308414
 11
66.5424591869
 21
23.506458626
  0
LWPOLYLINE
  5
311
100
AcDbEntity
  8
RACCORDO
100
AcDbPolyline
 62
250
  6
CONTINUOUS
 90
21
 70
0
 10
54.636771722
 20
-39.9603710905
 10
54.6664350325
 20
-39.9920211349
 10
54.6951624486
 20
-40.0267189493
 10
54.7229539704
 20
-40.0643587399
 10
54.7498892368
 20
-40.1048831895
 10
54.7758886088
 20
-40.1480446426
 10
54.8007131694
 20
-40.1934109818
 10
54.82431217
 20
-40.2406785834
 10
54.8467363593
 20
-40.2896368202
 10
54.8678990664
 20
-40.3399391618
 10
54.8878222255
 20
-40.3913121347
 10
54.9064839024
 20
-40.4432133748
 10
54.9237316244
 20
-40.4948546375
 10
54.939544451
 20
-40.5458731509
 10
54.9539433226
 20
-40.5955731174
 10
54.9668385873
 20
-40.6427730173
 10
54.9781731327
 20
-40.6870159223
 10
54.9880040712
 20
-40.7277843528
 10
54.9964130881
 20
-40.7641093283
 10
55.0033596995
 20
-40.7956172242
 10
55.0088843892
 20
-40.8221202819
  0
LWPOLYLINE
  5
312
100
AcDbEntity
  8
0
100
AcDbPolyline
 62
7
  6
CONTINUOUS
 90
10
 70
0
 10
0.4323912027
 20
29.784621798
 10
0.4630454536
 20
29.7007069329
 10
0.4767731155
 20
29.6589047667
 10
0.4893549212
 20
29.6161404217
 10
0.5008374545
 20
29.572335084
 10
0.5111741318
 20
29.5275675673
 10
0.5202252016
 20
29.4820743136
 10
0.5279440803
 20
29.4359341367
 10
0.5343773517
 20
29.3890682227
 10
0.5395250156
 20
29.3414765715
  0
LWPOLYLINE
  5
313
100
AcDbEntity
  8
ASSI
100
AcDbPolyline
 62
7
  6
CONTINUOUS
 90
17
 70
0
 10
-45.5
 20
-41.1159885713
 10
-45.4751333499
 20
-41.1028811249
 10
-45.4011624165
 20
-41.0897736784
 10
-45.2790307246
 20
-41.076833422
 10
-45.1081213441
 20
-41.0640624973
 10
-44.8890512052
 20
-41.0514587627
 10
-44.6246146239
 20
-41.0391829831
 10
-44.3142304645
 20
-41.0272393597
 10
-43.9584798627
 20
-41.0156236913
 10
-43.5619005415
 20
-41.00448414
 10
-43.1239694925
 20
-40.9938268045
 10
-42.6452097239
 20
-40.983645586
 10
-42.1317279836
 20
-40.9740703495
 10
-41.5830794896
 20
-40.9651088575
 10
-40.9997090237
 20
-40.9567533474
 10
-40.3890576797
 20
-40.9491103968
 10
-39.7507759946
 20
-40.9421891333
  0
LWPOLYLINE
  5
314
100
AcDbEntity
  8
RACCORDO
100
AcDbPolyline
 62
250
  6
CONTINUOUS
 90
4
 70
0
 10
67.3221202821
 20
30.0088843895
 10
67.3588118522
 20
30.0163451272
 10
67.3687690495
 20
30.0182811753
 10
67.3730280729
 20
30.0189984386
  0
LINE
  5
315
100
AcDbEntity
  8
0
100
AcDbLine
 62
7
  6
CONTINUOUS
 10
-51.4
 20
16.5000000002
 11
-51.6
 21
16.5000000002
  0
LWPOLYLINE
  5
316
100
AcDbEntity
  8
0
100
AcDbPolyline
 62
7
  6
CONTINUOUS
 90
18
 70
0
 10
-45.5
 20
41.1159885718
 10
-45.4751333499
 20
41.1028811254
 10
-45.4011624165
 20
41.0897736789
 10
-45.2790307246
 20
41.0768334225
 10
-45.1081213441
 20
41.0640624978
 10
-44.8890512052
 20
41.0514587632
 10
-44.6246146239
 20
41.0391829836
 10
-44.3142304645
 20
41.0272393602
 10
-43.9584798627
 20
41.0156236918
 10
-43.5619005415
 20
41.0044841405
 10
-43.1239694925
 20
40.993826805
 10
-42.6452097239
 20
40.9836455865
 10
-42.1317279836
 20
40.97407035
 10
-41.5830794896
 20
40.965108858
 10
-40.9997090237
 20
40.9567533479
 10
-40.3890576797
 20
40.9491103973
 10
-39.7507759946
 20
40.9421891338
 10
-38.4008594722
 20
40.9305634792
  0
LINE
  5
317
100
AcDbEntity
  8
0
100
AcDbLine
 62
7
  6
CONTINUOUS
 10
-3.084683
 20
29.7960000002
 11
-2.905948
 21
29.5737030002
  0
LWPOLYLINE
  5
318
100
AcDbEntity
  8
0
100
AcDbPolyline
 62
7
  6
CONTINUOUS
 90
7
 70
0
 10
2.9274617309
 20
28.6181781781
 10
2.8848093649
 20
28.7034788095
 10
2.8315910254
 20
28.7810480329
 10
2.7703465043
 20
28.8490275437
 10
2.7019223989
 20
28.906797907
 10
2.625472112
 20
28.9549785578
 10
2.5409956434
 20
28.9935694959
  0
LWPOLYLINE
  5
319
100
AcDbEntity
  8
0
100
AcDbPolyline
 62
7
  6
CONTINUOUS
 90
28
 70
0
 10
1.1865562096
 20
28.0339610644
 10
1.241666268
 20
27.9223742368
 10
1.3037234268
 20
27.8229195621
 10
1.3727276861
 20
27.7355970402
 10
1.4482714456
 20
27.6607489757
 10
1.5307623055
 20
27.5980330642
 10
1.6214230667
 20
27.5464223922
 10
1.7219412421
 20
27.5053816353
 10
1.8306293187
 20
27.4754461181
 10
1.9436475582
 20
27.4571949011
 10
2.0634422779
 20
27.4511010384
 10
2.1875671605
 20
27.4566914759
 10
2.3048435161
 20
27.473126112
 10
2.4123707504
 20
27.5012791714
 10
2.5130494577
 20
27.5402764294
 10
2.604402731
 20
27.5866551101
 10
2.6856894221
 20
27.639441929
 10
2.757650679
 20
27.6996101706
 10
2.8200330388
 20
27.7666169127
 10
2.8728698001
 20
27.840037992
 10
2.9161276642
 20
27.9202975717
 10
2.9494532718
 20
28.0081252197
 10
2.9731977655
 20
28.1066271435
 10
2.9870100028
 20
28.2126971356
 10
2.9894831967
 20
28.3177461407
 10
2.9798907282
 20
28.4211479472
 10
2.9589592163
 20
28.5235287666
 10
2.9274617309
 20
28.6181781781
  0
LWPOLYLINE
  5
31A
100
AcDbEntity
  8
RACCORDO
100
AcDbPolyline
 62
250
  6
CONTINUOUS
 90
21
 70
0
 10
66.4603710907
 20
29.6367717222
 10
66.4920211352
 20
29.6664350327
 10
66.5267189496
 20
29.6951624489
 10
66.5643587401
 20
29.7229539706
 10
66.6048831897
 20
29.749889237
 10
66.6480446428
 20
29.775888609
 10
66.6934109821
 20
29.8007131697
 10
66.7406785836
 20
29.8243121703
 10
66.7896368204
 20
29.8467363595
 10
66.8399391621
 20
29.8678990667
 10
66.891312135
 20
29.8878222257
 10
66.9432133751
 20
29.9064839027
 10
66.9948546377
 20
29.9237316246
 10
67.0458731512
 20
29.9395444512
 10
67.0955731176
 20
29.9539433228
 10
67.1427730176
 20
29.9668385875
 10
67.1870159225
 20
29.9781731329
 10
67.2277843531
 20
29.9880040714
 10
67.2641093286
 20
29.9964130883
 10
67.2956172244
 20
30.0033596997
 10
67.3221202821
 20
30.0088843895
  0
LINE
  5
31B
100
AcDbEntity
  8
RACCORDO
100
AcDbLine
 62
250
  6
CONTINUOUS
 10
66.3469076856
 20
23.6000000002
 11
67.0
 21
23.6000000002
  0
LINE
  5
31C
100
AcDbEntity
  8
RACCORDO
100
AcDbLine
 62
250
  6
CONTINUOUS
 10
67.4667094077
 20
23.9000000002
 11
67.0000000001
 21
23.9000000086
  0
LWPOLYLINE
  5
31D
100
AcDbEntity
  8
0
100
AcDbPolyline
 62
7
  6
CONTINUOUS
 90
9
 70
0
 10
0.2498984756
 20
30.063268762
 10
0.2773330089
 20
30.035469718
 10
0.3035221928
 20
30.0056062396
 10
0.3284660273
 20
29.9736783267
 10
0.3523054296
 20
29.9395826759
 10
0.3748994825
 20
29.9034225908
 10
0.3958254347
 20
29.8655079815
 10
0.4149423691
 20
29.8259421518
 10
0.4323912027
 20
29.784621798
  0
LWPOLYLINE
  5
31E
100
AcDbEntity
  8
RACCORDO
100
AcDbPolyline
 62
7
  6
CONTINUOUS
 90
5
 70
0
 10
67.3015368335
 20
29.6227804438
 10
67.2358147229
 20
29.5498603366
 10
67.1641577375
 20
29.4894942953
 10
67.0850797662
 20
29.4392424529
 10
66.99999795
 20
29.4000053629
  0
LWPOLYLINE
  5
31F
100
AcDbEntity
  8
ASSI
100
AcDbPolyline
 62
7
  6
CONTINUOUS
 90
17
 70
0
 10
-22.5
 20
-41.1159885713
 10
-22.5248666501
 20
-41.1290960178
 10
-22.5988375835
 20
-41.1422034642
 10
-22.7209692754
 20
-41.1551437206
 10
-22.8918786559
 20
-41.1679146453
 10
-23.1109487948
 20
-41.18051838
 10
-23.3753853761
 20
-41.1927941595
 10
-23.6857695355
 20
-41.204737783
 10
-24.0415201373
 20
-41.2163534513
 10
-24.4380994585
 20
-41.2274930027
 10
-24.8760305075
 20
-41.2381503382
 10
-25.3547902761
 20
-41.2483315566
 10
-25.8682720164
 20
-41.2579067931
 10
-26.4169205104
 20
-41.2668682852
 10
-27.0002909763
 20
-41.2752237952
 10
-27.6109423203
 20
-41.2828667459
 10
-28.2492240054
 20
-41.2897880094
  0
LWPOLYLINE
  5
320
100
AcDbEntity
  8
0
100
AcDbPolyline
 62
7
  6
CONTINUOUS
 90
37
 70
0
 10
-0.1175
 20
30.4520000002
 10
-0.230435915
 20
30.4451256777
 10
-0.3351424725
 20
30.4279654091
 10
-0.4316196727
 20
30.4005191945
 10
-0.5191681102
 20
30.3628375841
 10
-0.5984871902
 20
30.3148700276
 10
-0.6716751288
 20
30.2564648748
 10
-0.7396902524
 20
30.1871453349
 10
-0.8015742345
 20
30.1073881987
 10
-0.8565503111
 20
30.0184721878
 10
-0.904049055
 20
29.9199239865
 10
-0.9446398934
 20
29.8122169104
 10
-0.9792543438
 20
29.6980496285
 10
-1.0080269059
 20
29.577227307
 10
-1.0308230801
 20
29.4499447796
 10
-1.0481708854
 20
29.3194852172
 10
-1.0600901695
 20
29.1841891247
 10
-1.0665610847
 20
29.0457159971
 10
-1.0680521074
 20
28.9123274898
 10
-1.0644714984
 20
28.7874009933
 10
-1.055910997
 20
28.6675591171
 10
-1.0431142975
 20
28.5509313456
 10
-1.0272171251
 20
28.4377854954
 10
-1.0070837547
 20
28.32785375
 10
-0.9800507055
 20
28.2184621444
 10
-0.9453416752
 20
28.1056983686
 10
-0.9037329661
 20
27.9934747327
 10
-0.8548900044
 20
27.8908542014
 10
-0.7980607636
 20
27.8005311786
 10
-0.7339972702
 20
27.7198112604
 10
-0.664621029
 20
27.6496742001
 10
-0.591393949
 20
27.5905299658
 10
-0.5128541213
 20
27.5419685894
 10
-0.4265373237
 20
27.5037399197
 10
-0.3316221489
 20
27.4757605731
 10
-0.2289300042
 20
27.4581139333
 10
-0.1184608896
 20
27.4508000002
  0
LWPOLYLINE
  5
321
100
AcDbEntity
  8
0
100
AcDbPolyline
 62
7
  6
CONTINUOUS
 90
49
 70
0
 10
-0.1184608896
 20
27.4508000002
 10
-0.0099847828
 20
27.4573419717
 10
0.0908025736
 20
27.4734421167
 10
0.1839011795
 20
27.4991004353
 10
0.2688890491
 20
27.535142182
 10
0.3461881681
 20
27.5807421023
 10
0.4170644946
 20
27.6334244328
 10
0.4824832897
 20
27.6942506351
 10
0.5414792921
 20
27.7621592477
 10
0.5924226763
 20
27.8314901221
 10
0.6335699591
 20
27.9012901531
 10
0.6666646237
 20
27.972512446
 10
0.6953072934
 20
28.0423561683
 10
0.7201384764
 20
28.1100338669
 10
0.7405176646
 20
28.1763329949
 10
0.7581239573
 20
28.240815079
 10
0.7732275964
 20
28.3029209166
 10
0.7855583401
 20
28.3632097104
 10
0.7959845626
 20
28.4229205951
 10
0.8044424019
 20
28.4816802182
 10
0.8109957201
 20
28.5398619322
 10
0.8167044766
 20
28.5998249304
 10
0.8220097265
 20
28.6622823321
 10
0.8264704148
 20
28.7265210179
 10
0.8298233365
 20
28.7927608222
 10
0.8320904402
 20
28.8610281717
 10
0.8332497773
 20
28.9312966397
 10
0.832972297
 20
29.0037067806
 10
0.8312611119
 20
29.0782657944
 10
0.8281131093
 20
29.1549664811
 10
0.823189901
 20
29.233927795
 10
0.8171465699
 20
29.3151883858
 10
0.809328033
 20
29.3987096039
 10
0.7974306528
 20
29.4844944545
 10
0.7813862418
 20
29.5727395286
 10
0.7612629876
 20
29.6632482352
 10
0.734961815
 20
29.7554338059
 10
0.7023965555
 20
29.8517274392
 10
0.6636533777
 20
29.9496979367
 10
0.6168917122
 20
30.0414649347
 10
0.5606250955
 20
30.1258924086
 10
0.4963399911
 20
30.204116383
 10
0.4266552209
 20
30.271664568
 10
0.3531063649
 20
30.3267431451
 10
0.274157843
 20
30.3711459328
 10
0.1878217374
 20
30.4057820957
 10
0.0934354087
 20
30.4309546886
 10
-0.0083385037
 20
30.4463606568
 10
-0.1175
 20
30.4520000002
  0
LWPOLYLINE
  5
322
100
AcDbEntity
  8
0
100
AcDbPolyline
 62
7
  6
CONTINUOUS
 90
10
 70
0
 10
1.846016
 20
28.8861843748
 10
1.9279885643
 20
28.8886248521
 10
2.0075121756
 20
28.8870363687
 10
2.0845868339
 20
28.8814189248
 10
2.1595541095
 20
28.8719096087
 10
2.232072432
 20
28.8583713321
 10
2.3011170915
 20
28.8403928293
 10
2.3663465177
 20
28.8178370118
 10
2.4281022809
 20
28.7908409682
 10
2.4863843809
 20
28.7594046985
  0
LINE
  5
323
100
AcDbEntity
  8
0
100
AcDbLine
 62
7
  6
CONTINUOUS
 10
-41.5
 20
26.4000000002
 11
41.5
 21
26.4000000002
  0
LINE
  5
324
100
AcDbEntity
  8
0
100
AcDbLine
 62
7
  6
CONTINUOUS
 10
41.5
 20
26.6000000002
 11
-41.5
 21
26.6000000002
  0
LINE
  5
325
100
AcDbEntity
  8
0
100
AcDbLine
 62
7
  6
CONTINUOUS
 10
-2.400816
 20
27.5000000002
 11
-2.118684
 21
27.5000000002
  0
LINE
  5
326
100
AcDbEntity
  8
RACCORDO
100
AcDbLine
 62
250
  6
CONTINUOUS
 10
67.4667094077
 20
29.1000000002
 11
67.0
 21
29.1000000002
  0
LINE
  5
327
100
AcDbEntity
  8
RACCORDO
100
AcDbLine
 62
250
  6
CONTINUOUS
 10
66.3469076856
 20
29.4000000002
 11
67.0
 21
29.4000000004
  0
LINE
  5
328
100
AcDbEntity
  8
0
100
AcDbLine
 62
7
  6
CONTINUOUS
 10
-2.118684
 20
30.4028000002
 11
-2.368336
 21
30.4028000002
  0
LWPOLYLINE
  5
329
100
AcDbEntity
  8
0
100
AcDbPolyline
 62
7
  6
CONTINUOUS
 90
16
 70
0
 10
2.1009843809
 20
30.1858843811
 10
2.1634595222
 20
30.1830308415
 10
2.2225636058
 20
30.1761971168
 10
2.2782966317
 20
30.165383207
 10
2.3309653355
 20
30.1507936772
 10
2.3802629815
 20
30.1322239623
 10
2.4252693631
 20
30.1090603665
 10
2.465729158
 20
30.0812159819
 10
2.5018976886
 20
30.0487777163
 10
2.5336207155
 20
30.0113925972
 10
2.5608904972
 20
29.9686230522
 10
2.5837147752
 20
29.9209066538
 10
2.6019625342
 20
29.8692031463
 10
2.6155901024
 20
29.8138324446
 10
2.6246411516
 20
29.7544746339
 10
2.6291156817
 20
29.6911297141
  0
LWPOLYLINE
  5
32A
100
AcDbEntity
  8
0
100
AcDbPolyline
 62
7
  6
CONTINUOUS
 90
10
 70
0
 10
-0.1175
 20
30.1858843811
 10
-0.0684762885
 20
30.1833494394
 10
-0.0212492024
 20
30.1779586992
 10
0.0241812582
 20
30.1697121604
 10
0.0681534792
 20
30.1584984304
 10
0.1103290748
 20
30.1444289019
 10
0.1496928879
 20
30.1278377529
 10
0.1859065329
 20
30.1088363763
 10
0.2193083955
 20
30.0873133793
 10
0.2498984756
 20
30.063268762
  0
LINE
  5
32B
100
AcDbEntity
  8
0
100
AcDbLine
 62
7
  6
CONTINUOUS
 10
1.3009720812
 20
29.9945939588
 11
1.5551718518
 21
29.8648030759
  0
LWPOLYLINE
  5
32C
100
AcDbEntity
  8
0
100
AcDbPolyline
 62
7
  6
CONTINUOUS
 90
18
 70
0
 10
-22.5
 20
41.1159885718
 10
-22.5248666501
 20
41.1290960183
 10
-22.5988375835
 20
41.1422034647
 10
-22.7209692754
 20
41.1551437211
 10
-22.8918786559
 20
41.1679146458
 10
-23.1109487948
 20
41.1805183805
 10
-23.3753853761
 20
41.19279416
 10
-23.6857695355
 20
41.2047377835
 10
-24.0415201373
 20
41.2163534518
 10
-24.4380994585
 20
41.2274930032
 10
-24.8760305075
 20
41.2381503387
 10
-25.3547902761
 20
41.2483315571
 10
-25.8682720164
 20
41.2579067936
 10
-26.4169205104
 20
41.2668682857
 10
-27.0002909763
 20
41.2752237957
 10
-27.6109423203
 20
41.2828667464
 10
-28.2492240054
 20
41.2897880099
 10
-29.5991405278
 20
41.3014136645
  0
LWPOLYLINE
  5
32D
100
AcDbEntity
  8
0
100
AcDbPolyline
 62
7
  6
CONTINUOUS
 90
10
 70
0
 10
2.4863843809
 20
28.7594046985
 10
2.5283732118
 20
28.7289771936
 10
2.5665753686
 20
28.6925793979
 10
2.6009908515
 20
28.6502113113
 10
2.6323670385
 20
28.6010621737
 10
2.6599565516
 20
28.5459427453
 10
2.6815172558
 20
28.4872853064
 10
2.696301773
 20
28.4259006169
 10
2.7050574813
 20
28.3609779169
 10
2.7077843809
 20
28.2925172063
  0
LWPOLYLINE
  5
32E
100
AcDbEntity
  8
RACCORDO
100
AcDbPolyline
 62
250
  6
CONTINUOUS
 90
10
 70
0
 10
55.0189984384
 20
-40.8730280727
 10
55.0233952427
 20
-40.8814995581
 10
55.0276599289
 20
-40.8899899544
 10
55.0317924969
 20
-40.8984992616
 10
55.0357913205
 20
-40.9070274805
 10
55.039658026
 20
-40.9155746103
 10
55.0433974919
 20
-40.9241406485
 10
55.0470113445
 20
-40.9327255944
 10
55.0504979574
 20
-40.9413294487
 10
55.0538573308
 20
-40.9499522115
  0
LWPOLYLINE
  5
32F
100
AcDbEntity
  8
ASSI
100
AcDbPolyline
 62
7
  6
CONTINUOUS
 90
17
 70
0
 10
-11.5
 20
-41.1159885713
 10
-11.4751333499
 20
-41.1028811249
 10
-11.4011624165
 20
-41.0897736784
 10
-11.2790307246
 20
-41.076833422
 10
-11.1081213441
 20
-41.0640624973
 10
-10.8890512052
 20
-41.0514587627
 10
-10.6246146239
 20
-41.0391829831
 10
-10.3142304645
 20
-41.0272393597
 10
-9.9584798627
 20
-41.0156236913
 10
-9.5619005415
 20
-41.00448414
 10
-9.1239694925
 20
-40.9938268045
 10
-8.6452097239
 20
-40.983645586
 10
-8.1317279836
 20
-40.9740703495
 10
-7.5830794896
 20
-40.9651088575
 10
-6.9997090237
 20
-40.9567533474
 10
-6.3890576797
 20
-40.9491103968
 10
-5.7507759946
 20
-40.9421891333
  0
LINE
  5
330
100
AcDbEntity
  8
DRAFT
100
AcDbLine
 62
7
  6
CONTINUOUS
 10
62.0
 20
33.7242099744
 11
66.2731956082
 21
33.7242099744
  0
LINE
  5
331
100
AcDbEntity
  8
DRAFT
100
AcDbLine
 62
7
  6
CONTINUOUS
 10
-62.0
 20
33.7242099744
 11
-66.2731956082
 21
33.7242099744
  0
LINE
  5
332
100
AcDbEntity
  8
DRAFT
100
AcDbLine
 62
7
  6
CONTINUOUS
 10
62.0
 20
34.0000000002
 11
66.0
 21
34.0000000002
  0
LINE
  5
333
100
AcDbEntity
  8
DRAFT
100
AcDbLine
 62
7
  6
CONTINUOUS
 10
-62.0
 20
34.0000000002
 11
-66.0
 21
34.0000000002
  0
LINE
  5
334
100
AcDbEntity
  8
DRAFT
100
AcDbLine
 62
250
  6
CONTINUOUS
 10
-60.5
 20
35.5000000002
 11
-60.2242099741
 21
35.5000000002
  0
LINE
  5
335
100
AcDbEntity
  8
DRAFT
100
AcDbLine
 62
250
  6
CONTINUOUS
 10
60.5
 20
35.5000000002
 11
60.2242099741
 21
35.5000000002
  0
LINE
  5
336
100
AcDbEntity
  8
RACCORDO
100
AcDbLine
 62
250
  6
CONTINUOUS
 10
66.0
 20
35.5000000002
 11
68.0
 21
35.5000000002
  0
LINE
  5
337
100
AcDbEntity
  8
RACCORDO
100
AcDbLine
 62
250
  6
CONTINUOUS
 10
-66.0
 20
35.5000000002
 11
-68.0
 21
35.5000000002
  0
LWPOLYLINE
  5
338
100
AcDbEntity
  8
RACCORDO
100
AcDbPolyline
 62
250
  6
CONTINUOUS
 90
3
 70
0
 10
67.3730280729
 20
22.9810015619
 10
67.3686260664
 20
22.9817399462
 10
67.3582979126
 20
22.9837500406
  0
LWPOLYLINE
  5
339
100
AcDbEntity
  8
RACCORDO
100
AcDbPolyline
 62
250
  6
CONTINUOUS
 90
25
 70
0
 10
67.3582979126
 20
22.9837500406
 10
67.3202098848
 20
22.991506939
 10
67.2927014945
 20
22.9972537432
 10
67.2599813774
 20
23.0045075177
 10
67.2222154244
 20
23.0133147301
 10
67.1798078006
 20
23.0236289128
 10
67.1338196908
 20
23.0355459235
 10
67.0847980705
 20
23.049140189
 10
67.0332341819
 20
23.0643372824
 10
66.9804486012
 20
23.0810097811
 10
66.9272145771
 20
23.0991637449
 10
66.8738952091
 20
23.1187931138
 10
66.821310755
 20
23.1397522852
 10
66.77003445
 20
23.1620365757
 10
66.7203428295
 20
23.1856506685
 10
66.6725616296
 20
23.2104630104
 10
66.626839241
 20
23.2364962518
 10
66.5835430353
 20
23.2637277422
 10
66.5432725922
 20
23.2919579765
 10
66.5061843815
 20
23.3213346439
 10
66.4724226439
 20
23.3517100552
 10
66.4425375026
 20
23.3824416379
 10
66.4167594621
 20
23.4133152011
 10
66.394996206
 20
23.4445449356
 10
66.3772865459
 20
23.4761308414
  0
LWPOLYLINE
  5
33A
100
AcDbEntity
  8
0
100
AcDbPolyline
 62
7
  6
CONTINUOUS
 90
18
 70
0
 10
-11.5
 20
41.1159885718
 10
-11.4751333499
 20
41.1028811254
 10
-11.4011624165
 20
41.0897736789
 10
-11.2790307246
 20
41.0768334225
 10
-11.1081213441
 20
41.0640624978
 10
-10.8890512052
 20
41.0514587632
 10
-10.6246146239
 20
41.0391829836
 10
-10.3142304645
 20
41.0272393602
 10
-9.9584798627
 20
41.0156236918
 10
-9.5619005415
 20
41.0044841405
 10
-9.1239694925
 20
40.993826805
 10
-8.6452097239
 20
40.9836455865
 10
-8.1317279836
 20
40.97407035
 10
-7.5830794896
 20
40.965108858
 10
-6.9997090237
 20
40.9567533479
 10
-6.3890576797
 20
40.9491103973
 10
-5.7507759946
 20
40.9421891338
 10
-4.4008594722
 20
40.9305634792
  0
LINE
  5
33B
100
AcDbEntity
  8
0
100
AcDbLine
 62
7
  6
CONTINUOUS
 10
41.5
 20
26.4000000002
 11
41.5
 21
26.6000000002
  0
LWPOLYLINE
  5
33C
100
AcDbEntity
  8
ASSI
100
AcDbPolyline
 62
7
  6
CONTINUOUS
 90
17
 70
0
 10
11.5
 20
-41.1159885713
 10
11.4751333499
 20
-41.1290960178
 10
11.4011624165
 20
-41.1422034642
 10
11.2790307246
 20
-41.1551437206
 10
11.1081213441
 20
-41.1679146453
 10
10.8890512052
 20
-41.18051838
 10
10.6246146239
 20
-41.1927941595
 10
10.3142304645
 20
-41.204737783
 10
9.9584798627
 20
-41.2163534513
 10
9.5619005415
 20
-41.2274930027
 10
9.1239694925
 20
-41.2381503382
 10
8.6452097239
 20
-41.2483315566
 10
8.1317279836
 20
-41.2579067931
 10
7.5830794896
 20
-41.2668682852
 10
6.9997090237
 20
-41.2752237952
 10
6.3890576797
 20
-41.2828667459
 10
5.7507759946
 20
-41.2897880094
  0
LINE
  5
33D
100
AcDbEntity
  8
RACCORDO
100
AcDbLine
 62
250
  6
CONTINUOUS
 10
-54.8917978765
 20
40.9593436101
 11
-54.8019184051
 21
40.9613330465
  0
LINE
  5
33E
100
AcDbEntity
  8
RACCORDO
100
AcDbLine
 62
250
  6
CONTINUOUS
 10
-54.8019184051
 20
40.9613330465
 11
-54.6953890577
 21
40.963068606
  0
LWPOLYLINE
  5
33F
100
AcDbEntity
  8
0
100
AcDbPolyline
 62
7
  6
CONTINUOUS
 90
17
 70
0
 10
39.7507759946
 20
40.9421891338
 10
40.3890576797
 20
40.9491103973
 10
40.9997090237
 20
40.9567533479
 10
41.5830794896
 20
40.965108858
 10
42.1317279836
 20
40.97407035
 10
42.6452097239
 20
40.9836455865
 10
43.1239694925
 20
40.993826805
 10
43.5619005415
 20
41.0044841405
 10
43.9584798627
 20
41.0156236918
 10
44.3142304645
 20
41.0272393602
 10
44.6246146239
 20
41.0391829836
 10
44.8890512052
 20
41.0514587632
 10
45.1081213441
 20
41.0640624978
 10
45.2790307246
 20
41.0768334225
 10
45.4011624165
 20
41.0897736789
 10
45.4751333499
 20
41.1028811254
 10
45.5
 20
41.1159885718
  0
LWPOLYLINE
  5
340
100
AcDbEntity
  8
0
100
AcDbPolyline
 62
7
  6
CONTINUOUS
 90
17
 70
0
 10
5.7507759946
 20
40.9421891338
 10
6.3890576797
 20
40.9491103973
 10
6.9997090237
 20
40.9567533479
 10
7.5830794896
 20
40.965108858
 10
8.1317279836
 20
40.97407035
 10
8.6452097239
 20
40.9836455865
 10
9.1239694925
 20
40.993826805
 10
9.5619005415
 20
41.0044841405
 10
9.9584798627
 20
41.0156236918
 10
10.3142304645
 20
41.0272393602
 10
10.6246146239
 20
41.0391829836
 10
10.8890512052
 20
41.0514587632
 10
11.1081213441
 20
41.0640624978
 10
11.2790307246
 20
41.0768334225
 10
11.4011624165
 20
41.0897736789
 10
11.4751333499
 20
41.1028811254
 10
11.5
 20
41.1159885718
  0
LWPOLYLINE
  5
341
100
AcDbEntity
  8
0
100
AcDbPolyline
 62
7
  6
CONTINUOUS
 90
17
 70
0
 10
28.2492240054
 20
41.2897880099
 10
27.6109423203
 20
41.2828667464
 10
27.0002909763
 20
41.2752237957
 10
26.4169205104
 20
41.2668682857
 10
25.8682720164
 20
41.2579067936
 10
25.3547902761
 20
41.2483315571
 10
24.8760305075
 20
41.2381503387
 10
24.4380994585
 20
41.2274930032
 10
24.0415201373
 20
41.2163534518
 10
23.6857695355
 20
41.2047377835
 10
23.3753853761
 20
41.19279416
 10
23.1109487948
 20
41.1805183805
 10
22.8918786559
 20
41.1679146458
 10
22.7209692754
 20
41.1551437211
 10
22.5988375835
 20
41.1422034647
 10
22.5248666501
 20
41.1290960183
 10
22.5
 20
41.1159885718
  0
LWPOLYLINE
  5
342
100
AcDbEntity
  8
0
100
AcDbPolyline
 62
7
  6
CONTINUOUS
 90
17
 70
0
 10
-28.2492240054
 20
40.9421891338
 10
-27.6109423203
 20
40.9491103973
 10
-27.0002909763
 20
40.9567533479
 10
-26.4169205104
 20
40.965108858
 10
-25.8682720164
 20
40.97407035
 10
-25.3547902761
 20
40.9836455865
 10
-24.8760305075
 20
40.993826805
 10
-24.4380994585
 20
41.0044841405
 10
-24.0415201373
 20
41.0156236918
 10
-23.6857695355
 20
41.0272393602
 10
-23.3753853761
 20
41.0391829836
 10
-23.1109487948
 20
41.0514587632
 10
-22.8918786559
 20
41.0640624978
 10
-22.7209692754
 20
41.0768334225
 10
-22.5988375835
 20
41.0897736789
 10
-22.5248666501
 20
41.1028811254
 10
-22.5
 20
41.1159885718
  0
LWPOLYLINE
  5
343
100
AcDbEntity
  8
0
100
AcDbPolyline
 62
7
  6
CONTINUOUS
 90
17
 70
0
 10
-5.7507759946
 20
41.2897880099
 10
-6.3890576797
 20
41.2828667464
 10
-6.9997090237
 20
41.2752237957
 10
-7.5830794896
 20
41.2668682857
 10
-8.1317279836
 20
41.2579067936
 10
-8.6452097239
 20
41.2483315571
 10
-9.1239694925
 20
41.2381503387
 10
-9.5619005415
 20
41.2274930032
 10
-9.9584798627
 20
41.2163534518
 10
-10.3142304645
 20
41.2047377835
 10
-10.6246146239
 20
41.19279416
 10
-10.8890512052
 20
41.1805183805
 10
-11.1081213441
 20
41.1679146458
 10
-11.2790307246
 20
41.1551437211
 10
-11.4011624165
 20
41.1422034647
 10
-11.4751333499
 20
41.1290960183
 10
-11.5
 20
41.1159885718
  0
LWPOLYLINE
  5
344
100
AcDbEntity
  8
0
100
AcDbPolyline
 62
7
  6
CONTINUOUS
 90
17
 70
0
 10
-39.7507759946
 20
41.2897880099
 10
-40.3890576797
 20
41.2828667464
 10
-40.9997090237
 20
41.2752237957
 10
-41.5830794896
 20
41.2668682857
 10
-42.1317279836
 20
41.2579067936
 10
-42.6452097239
 20
41.2483315571
 10
-43.1239694925
 20
41.2381503387
 10
-43.5619005415
 20
41.2274930032
 10
-43.9584798627
 20
41.2163534518
 10
-44.3142304645
 20
41.2047377835
 10
-44.6246146239
 20
41.19279416
 10
-44.8890512052
 20
41.1805183805
 10
-45.1081213441
 20
41.1679146458
 10
-45.2790307246
 20
41.1551437211
 10
-45.4011624165
 20
41.1422034647
 10
-45.4751333499
 20
41.1290960183
 10
-45.5
 20
41.1159885718
  0
LINE
  5
345
100
AcDbEntity
  8
RACCORDO
100
AcDbLine
 62
250
  6
CONTINUOUS
 10
-54.6953890577
 20
40.963068606
 11
-54.5112216456
 21
40.9650831207
  0
LINE
  5
346
100
AcDbEntity
  8
0
100
AcDbLine
 62
7
  6
CONTINUOUS
 10
38.4008594722
 20
40.9305634792
 11
39.7507759946
 21
40.9421891338
  0
LINE
  5
347
100
AcDbEntity
  8
0
100
AcDbLine
 62
7
  6
CONTINUOUS
 10
4.4008594722
 20
40.9305634792
 11
5.7507759946
 21
40.9421891338
  0
LINE
  5
348
100
AcDbEntity
  8
0
100
AcDbLine
 62
7
  6
CONTINUOUS
 10
29.5991405278
 20
41.3014136645
 11
28.2492240054
 21
41.2897880099
  0
LINE
  5
349
100
AcDbEntity
  8
0
100
AcDbLine
 62
7
  6
CONTINUOUS
 10
-29.5991405278
 20
40.9305634792
 11
-28.2492240054
 21
40.9421891338
  0
LINE
  5
34A
100
AcDbEntity
  8
0
100
AcDbLine
 62
7
  6
CONTINUOUS
 10
-4.4008594722
 20
41.3014136645
 11
-5.7507759946
 21
41.2897880099
  0
LINE
  5
34B
100
AcDbEntity
  8
0
100
AcDbLine
 62
7
  6
CONTINUOUS
 10
-38.4008594722
 20
41.3014136645
 11
-39.7507759946
 21
41.2897880099
  0
LINE
  5
34C
100
AcDbEntity
  8
0
100
AcDbLine
 62
7
  6
CONTINUOUS
 10
36.9752959384
 20
40.9221251234
 11
38.4008594722
 21
40.9305634792
  0
LINE
  5
34D
100
AcDbEntity
  8
0
100
AcDbLine
 62
7
  6
CONTINUOUS
 10
2.9752959384
 20
40.9221251234
 11
4.4008594722
 21
40.9305634792
  0
LINE
  5
34E
100
AcDbEntity
  8
0
100
AcDbLine
 62
7
  6
CONTINUOUS
 10
-31.0247040616
 20
40.9221251234
 11
-29.5991405278
 21
40.9305634792
  0
LINE
  5
34F
100
AcDbEntity
  8
0
100
AcDbLine
 62
7
  6
CONTINUOUS
 10
31.0247040616
 20
41.3098520203
 11
29.5991405278
 21
41.3014136645
  0
LINE
  5
350
100
AcDbEntity
  8
0
100
AcDbLine
 62
7
  6
CONTINUOUS
 10
-2.9752959384
 20
41.3098520203
 11
-4.4008594722
 21
41.3014136645
  0
LINE
  5
351
100
AcDbEntity
  8
0
100
AcDbLine
 62
7
  6
CONTINUOUS
 10
-36.9752959384
 20
41.3098520203
 11
-38.4008594722
 21
41.3014136645
  0
LINE
  5
352
100
AcDbEntity
  8
RACCORDO
100
AcDbLine
 62
250
  6
CONTINUOUS
 10
-54.5112216456
 20
40.9650831207
 11
-54.2396423236
 21
40.9665322299
  0
LINE
  5
353
100
AcDbEntity
  8
0
100
AcDbLine
 62
7
  6
CONTINUOUS
 10
35.5052722393
 20
40.9170163404
 11
36.9752959384
 21
40.9221251234
  0
LINE
  5
354
100
AcDbEntity
  8
0
100
AcDbLine
 62
7
  6
CONTINUOUS
 10
1.5052722393
 20
40.9170163404
 11
2.9752959384
 21
40.9221251234
  0
LINE
  5
355
100
AcDbEntity
  8
0
100
AcDbLine
 62
7
  6
CONTINUOUS
 10
-32.4947277607
 20
40.9170163404
 11
-31.0247040616
 21
40.9221251234
  0
LINE
  5
356
100
AcDbEntity
  8
0
100
AcDbLine
 62
7
  6
CONTINUOUS
 10
32.4947277607
 20
41.3149608033
 11
31.0247040616
 21
41.3098520203
  0
LINE
  5
357
100
AcDbEntity
  8
0
100
AcDbLine
 62
7
  6
CONTINUOUS
 10
-1.5052722393
 20
41.3149608033
 11
-2.9752959384
 21
41.3098520203
  0
LINE
  5
358
100
AcDbEntity
  8
0
100
AcDbLine
 62
7
  6
CONTINUOUS
 10
-35.5052722393
 20
41.3149608033
 11
-36.9752959384
 21
41.3098520203
  0
LINE
  5
359
100
AcDbEntity
  8
0
100
AcDbLine
 62
7
  6
CONTINUOUS
 10
34.0
 20
40.9152858978
 11
35.5052722393
 21
40.9170163404
  0
LINE
  5
35A
100
AcDbEntity
  8
0
100
AcDbLine
 62
7
  6
CONTINUOUS
 10
-0.0
 20
40.9152858978
 11
1.5052722393
 21
40.9170163404
  0
LINE
  5
35B
100
AcDbEntity
  8
0
100
AcDbLine
 62
7
  6
CONTINUOUS
 10
-34.0
 20
40.9152858978
 11
-32.4947277607
 21
40.9170163404
  0
LINE
  5
35C
100
AcDbEntity
  8
0
100
AcDbLine
 62
7
  6
CONTINUOUS
 10
34.0
 20
41.3166912459
 11
32.4947277607
 21
41.3149608033
  0
LINE
  5
35D
100
AcDbEntity
  8
0
100
AcDbLine
 62
7
  6
CONTINUOUS
 10
-0.0
 20
41.3166912459
 11
-1.5052722393
 21
41.3149608033
  0
LINE
  5
35E
100
AcDbEntity
  8
0
100
AcDbLine
 62
7
  6
CONTINUOUS
 10
-34.0
 20
41.3166912459
 11
-35.5052722393
 21
41.3149608033
  0
LINE
  5
35F
100
AcDbEntity
  8
DRAFT
100
AcDbLine
 62
7
  6
CONTINUOUS
 10
-62.0
 20
39.5000000002
 11
-60.5
 21
39.5000000002
  0
LINE
  5
360
100
AcDbEntity
  8
DRAFT
100
AcDbLine
 62
7
  6
CONTINUOUS
 10
62.0
 20
39.5000000002
 11
60.5
 21
39.5000000002
  0
LINE
  5
361
100
AcDbEntity
  8
RACCORDO
100
AcDbLine
 62
250
  6
CONTINUOUS
 10
60.2242099741
 20
39.7731956085
 11
-60.2242099741
 21
39.7731956085
  0
LINE
  5
362
100
AcDbEntity
  8
RACCORDO
100
AcDbLine
 62
7
  6
CONTINUOUS
 10
62.0
 20
39.7757899727
 11
60.2242100275
 21
39.7757899727
  0
LINE
  5
363
100
AcDbEntity
  8
RACCORDO
100
AcDbLine
 62
7
  6
CONTINUOUS
 10
-60.2242100275
 20
39.7757899727
 11
-62.0
 21
39.7757899727
  0
LINE
  5
364
100
AcDbEntity
  8
RACCORDO
100
AcDbLine
 62
250
  6
CONTINUOUS
 10
-48.6
 20
39.8469076858
 11
-54.4
 21
39.8469076858
  0
LINE
  5
365
100
AcDbEntity
  8
RACCORDO
100
AcDbLine
 62
7
  6
CONTINUOUS
 10
-48.6
 20
40.5000000002
 11
-54.4
 21
40.5000000002
  0
LINE
  5
366
100
AcDbEntity
  8
RACCORDO
100
AcDbLine
 62
250
  6
CONTINUOUS
 10
62.0
 20
40.8730280731
 11
-47.9810015616
 21
40.8730280731
  0
LINE
  5
367
100
AcDbEntity
  8
RACCORDO
100
AcDbLine
 62
250
  6
CONTINUOUS
 10
-55.0189984384
 20
40.8730280731
 11
-62.0
 21
40.8730280731
  0
LINE
  5
368
100
AcDbEntity
  8
RACCORDO
100
AcDbLine
 62
250
  6
CONTINUOUS
 10
-54.2396423236
 20
40.9665322299
 11
-48.9
 21
40.966709408
  0
LINE
  5
369
100
AcDbEntity
  8
ASSI
100
AcDbLine
 62
7
  6
CONTINUOUS
 10
-62.0
 20
41.5000000002
 11
62.0
 21
41.5000000002
  0
LINE
  5
36A
100
AcDbEntity
  8
DRAFT
100
AcDbLine
 62
7
  6
CONTINUOUS
 10
62.0
 20
41.5000000002
 11
-62.0
 21
41.5000000002
  0
LINE
  5
36B
100
AcDbEntity
  8
0
100
AcDbLine
 62
7
  6
CONTINUOUS
 10
-35.5052722393
 20
40.9170163404
 11
-34.0
 21
40.9152858978
  0
LINE
  5
36C
100
AcDbEntity
  8
0
100
AcDbLine
 62
7
  6
CONTINUOUS
 10
-1.5052722393
 20
40.9170163404
 11
-0.0
 21
40.9152858978
  0
LINE
  5
36D
100
AcDbEntity
  8
0
100
AcDbLine
 62
7
  6
CONTINUOUS
 10
32.4947277607
 20
40.9170163404
 11
34.0
 21
40.9152858978
  0
LINE
  5
36E
100
AcDbEntity
  8
0
100
AcDbLine
 62
7
  6
CONTINUOUS
 10
-32.4947277607
 20
41.3149608033
 11
-34.0
 21
41.3166912459
  0
LINE
  5
36F
100
AcDbEntity
  8
0
100
AcDbLine
 62
7
  6
CONTINUOUS
 10
1.5052722393
 20
41.3149608033
 11
-0.0
 21
41.3166912459
  0
LINE
  5
370
100
AcDbEntity
  8
0
100
AcDbLine
 62
7
  6
CONTINUOUS
 10
35.5052722393
 20
41.3149608033
 11
34.0
 21
41.3166912459
  0
LINE
  5
371
100
AcDbEntity
  8
0
100
AcDbLine
 62
7
  6
CONTINUOUS
 10
-36.9752959384
 20
40.9221251234
 11
-35.5052722393
 21
40.9170163404
  0
LINE
  5
372
100
AcDbEntity
  8
0
100
AcDbLine
 62
7
  6
CONTINUOUS
 10
-2.9752959384
 20
40.9221251234
 11
-1.5052722393
 21
40.9170163404
  0
LINE
  5
373
100
AcDbEntity
  8
0
100
AcDbLine
 62
7
  6
CONTINUOUS
 10
31.0247040616
 20
40.9221251234
 11
32.4947277607
 21
40.9170163404
  0
LINE
  5
374
100
AcDbEntity
  8
0
100
AcDbLine
 62
7
  6
CONTINUOUS
 10
-31.0247040616
 20
41.3098520203
 11
-32.4947277607
 21
41.3149608033
  0
LINE
  5
375
100
AcDbEntity
  8
0
100
AcDbLine
 62
7
  6
CONTINUOUS
 10
2.9752959384
 20
41.3098520203
 11
1.5052722393
 21
41.3149608033
  0
LINE
  5
376
100
AcDbEntity
  8
0
100
AcDbLine
 62
7
  6
CONTINUOUS
 10
36.9752959384
 20
41.3098520203
 11
35.5052722393
 21
41.3149608033
  0
LINE
  5
377
100
AcDbEntity
  8
RACCORDO
100
AcDbLine
 62
250
  6
CONTINUOUS
 10
-48.9
 20
40.966709408
 11
-48.6227735673
 21
40.9659887998
  0
LINE
  5
378
100
AcDbEntity
  8
0
100
AcDbLine
 62
7
  6
CONTINUOUS
 10
-38.4008594722
 20
40.9305634792
 11
-36.9752959384
 21
40.9221251234
  0
LINE
  5
379
100
AcDbEntity
  8
0
100
AcDbLine
 62
7
  6
CONTINUOUS
 10
-4.4008594722
 20
40.9305634792
 11
-2.9752959384
 21
40.9221251234
  0
LINE
  5
37A
100
AcDbEntity
  8
0
100
AcDbLine
 62
7
  6
CONTINUOUS
 10
-29.5991405278
 20
41.3014136645
 11
-31.0247040616
 21
41.3098520203
  0
LINE
  5
37B
100
AcDbEntity
  8
0
100
AcDbLine
 62
7
  6
CONTINUOUS
 10
29.5991405278
 20
40.9305634792
 11
31.0247040616
 21
40.9221251234
  0
LINE
  5
37C
100
AcDbEntity
  8
0
100
AcDbLine
 62
7
  6
CONTINUOUS
 10
4.4008594722
 20
41.3014136645
 11
2.9752959384
 21
41.3098520203
  0
LINE
  5
37D
100
AcDbEntity
  8
0
100
AcDbLine
 62
7
  6
CONTINUOUS
 10
38.4008594722
 20
41.3014136645
 11
36.9752959384
 21
41.3098520203
  0
LINE
  5
37E
100
AcDbEntity
  8
RACCORDO
100
AcDbLine
 62
250
  6
CONTINUOUS
 10
-48.6227735673
 20
40.9659887998
 11
-48.4248051938
 21
40.9644947571
  0
LINE
  5
37F
100
AcDbEntity
  8
RACCORDO
100
AcDbLine
 62
250
  6
CONTINUOUS
 10
-48.4248051938
 20
40.9644947571
 11
-48.2495615682
 21
40.9622374058
  0
LINE
  5
380
100
AcDbEntity
  8
RACCORDO
100
AcDbLine
 62
250
  6
CONTINUOUS
 10
-48.2495615682
 20
40.9622374058
 11
-48.1508175699
 21
40.9603668893
  0
LWPOLYLINE
  5
381
100
AcDbEntity
  8
RACCORDO
100
AcDbPolyline
 62
250
  6
CONTINUOUS
 90
9
 70
0
 10
-48.1508175699
 20
40.9603668893
 10
-48.0698484093
 20
40.9582585945
 10
-48.0366056964
 20
40.9571397574
 10
-48.0085700012
 20
40.9559849273
 10
-47.9855825014
 20
40.9547946712
 10
-47.9678275799
 20
40.9535937913
 10
-47.9553666979
 20
40.9523905552
 10
-47.9481383943
 20
40.9511766955
 10
-47.9461426692
 20
40.949952212
  0
LWPOLYLINE
  5
382
100
AcDbEntity
  8
RACCORDO
100
AcDbPolyline
 62
250
  6
CONTINUOUS
 90
10
 70
0
 10
-54.4
 20
39.8469076858
 10
-54.4257173708
 20
39.8483948351
 10
-54.4516711113
 20
39.8524952709
 10
-54.4778612216
 20
39.8592068383
 10
-54.5044059953
 20
39.8682825472
 10
-54.5311871387
 20
39.8799596888
 10
-54.5578497711
 20
39.8949566284
 10
-54.584275599
 20
39.9134980153
 10
-54.610582916
 20
39.9353150791
 10
-54.636771722
 20
39.960371091
  0
LWPOLYLINE
  5
383
100
AcDbEntity
  8
RACCORDO
100
AcDbPolyline
 62
250
  6
CONTINUOUS
 90
10
 70
0
 10
-55.0189984384
 20
40.8730276289
 10
-54.9348144952
 20
40.8679610329
 10
-54.8518526486
 20
40.8528075963
 10
-54.7713172614
 20
40.8277873024
 10
-54.6943774712
 20
40.7932633726
 10
-54.622150218
 20
40.7497369931
 10
-54.5556840298
 20
40.6978400391
 10
-54.4959438007
 20
40.6383259024
 10
-54.4437967835
 20
40.5720585536
 10
-54.4
 20
40.5000000002
  0
LWPOLYLINE
  5
384
100
AcDbEntity
  8
RACCORDO
100
AcDbPolyline
 62
250
  6
CONTINUOUS
 90
6
 70
0
 10
-55.0538573304
 20
40.9499650638
 10
-54.9603599828
 20
40.9437018434
 10
-54.8685385422
 20
40.925007982
 10
-54.7800385228
 20
40.8942184888
 10
-54.696445916
 20
40.8518851362
 10
-54.6227804435
 20
40.8015368338
  0
LWPOLYLINE
  5
385
100
AcDbEntity
  8
0
100
AcDbPolyline
 62
7
  6
CONTINUOUS
 90
18
 70
0
 10
11.5
 20
41.1159885718
 10
11.4751333499
 20
41.1290960183
 10
11.4011624165
 20
41.1422034647
 10
11.2790307246
 20
41.1551437211
 10
11.1081213441
 20
41.1679146458
 10
10.8890512052
 20
41.1805183805
 10
10.6246146239
 20
41.19279416
 10
10.3142304645
 20
41.2047377835
 10
9.9584798627
 20
41.2163534518
 10
9.5619005415
 20
41.2274930032
 10
9.1239694925
 20
41.2381503387
 10
8.6452097239
 20
41.2483315571
 10
8.1317279836
 20
41.2579067936
 10
7.5830794896
 20
41.2668682857
 10
6.9997090237
 20
41.2752237957
 10
6.3890576797
 20
41.2828667464
 10
5.7507759946
 20
41.2897880099
 10
4.4008594722
 20
41.3014136645
  0
LINE
  5
386
100
AcDbEntity
  8
RACCORDO
100
AcDbLine
 62
250
  6
CONTINUOUS
 10
48.5349565713
 20
-40.1936694723
 11
48.5599052429
 21
-40.3217940694
  0
LWPOLYLINE
  5
387
100
AcDbEntity
  8
RACCORDO
100
AcDbPolyline
 62
250
  6
CONTINUOUS
 90
7
 70
0
 10
48.5599052429
 20
-40.3217940694
 10
48.5699577252
 20
-40.3748498234
 10
48.5789409221
 20
-40.4192988234
 10
48.5874618069
 20
-40.4542827885
 10
48.5943075832
 20
-40.4795232781
 10
48.5984278311
 20
-40.4948597416
 10
48.6000000227
 20
-40.4999999977
  0
LINE
  5
388
100
AcDbEntity
  8
RACCORDO
100
AcDbLine
 62
250
  6
CONTINUOUS
 10
48.5064586257
 20
-40.0424591866
 11
48.5349565713
 21
-40.1936694723
  0
LINE
  5
389
100
AcDbEntity
  8
RACCORDO
100
AcDbLine
 62
250
  6
CONTINUOUS
 10
48.4761308412
 20
-39.8772865456
 11
48.5064586257
 21
-40.0424591866
  0
LWPOLYLINE
  5
38A
100
AcDbEntity
  8
ASSI
100
AcDbPolyline
 62
7
  6
CONTINUOUS
 90
17
 70
0
 10
22.5
 20
-41.1159885713
 10
22.5248666501
 20
-41.1028811249
 10
22.5988375835
 20
-41.0897736784
 10
22.7209692754
 20
-41.076833422
 10
22.8918786559
 20
-41.0640624973
 10
23.1109487948
 20
-41.0514587627
 10
23.3753853761
 20
-41.0391829831
 10
23.6857695355
 20
-41.0272393597
 10
24.0415201373
 20
-41.0156236913
 10
24.4380994585
 20
-41.00448414
 10
24.8760305075
 20
-40.9938268045
 10
25.3547902761
 20
-40.983645586
 10
25.8682720164
 20
-40.9740703495
 10
26.4169205104
 20
-40.9651088575
 10
27.0002909763
 20
-40.9567533474
 10
27.6109423203
 20
-40.9491103968
 10
28.2492240054
 20
-40.9421891333
  0
LWPOLYLINE
  5
38B
100
AcDbEntity
  8
RACCORDO
100
AcDbPolyline
 62
250
  6
CONTINUOUS
 90
7
 70
0
 10
-47.9461426692
 20
40.9499522041
 10
-48.0396398783
 20
40.9436915741
 10
-48.1314614915
 20
40.9250001093
 10
-48.2199619413
 20
40.8942127858
 10
-48.3035551805
 20
40.851881354
 10
-48.3807431052
 20
40.7987644503
 10
-48.3916280796
 20
40.7899672628
  0
LWPOLYLINE
  5
38C
100
AcDbEntity
  8
RACCORDO
100
AcDbPolyline
 62
250
  6
CONTINUOUS
 90
10
 70
0
 10
-47.9810015617
 20
40.8730240427
 10
-48.0651853811
 20
40.8679580884
 10
-48.1481471697
 20
40.852805236
 10
-48.2286825497
 20
40.8277854634
 10
-48.3056223678
 20
40.793261989
 10
-48.3778496687
 20
40.7497359992
 10
-48.4443159097
 20
40.697839372
 10
-48.5040561833
 20
40.6383255044
 10
-48.5562032241
 20
40.5720583748
 10
-48.6
 20
40.5000000002
  0
LWPOLYLINE
  5
38D
100
AcDbEntity
  8
RACCORDO
100
AcDbPolyline
 62
250
  6
CONTINUOUS
 90
10
 70
0
 10
67.4499522117
 20
22.9461426694
 10
67.441329449
 20
22.9495020428
 10
67.4327255947
 20
22.9529886557
 10
67.4241406488
 20
22.9566025083
 10
67.4155746106
 20
22.9603419742
 10
67.4070274808
 20
22.9642086797
 10
67.3984992619
 20
22.9682075034
 10
67.3899899547
 20
22.9723400714
 10
67.3814995584
 20
22.9766047576
 10
67.3730280729
 20
22.9810015619
  0
LWPOLYLINE
  5
38E
100
AcDbEntity
  8
0
100
AcDbPolyline
 62
7
  6
CONTINUOUS
 90
18
 70
0
 10
22.5
 20
41.1159885718
 10
22.5248666501
 20
41.1028811254
 10
22.5988375835
 20
41.0897736789
 10
22.7209692754
 20
41.0768334225
 10
22.8918786559
 20
41.0640624978
 10
23.1109487948
 20
41.0514587632
 10
23.3753853761
 20
41.0391829836
 10
23.6857695355
 20
41.0272393602
 10
24.0415201373
 20
41.0156236918
 10
24.4380994585
 20
41.0044841405
 10
24.8760305075
 20
40.993826805
 10
25.3547902761
 20
40.9836455865
 10
25.8682720164
 20
40.97407035
 10
26.4169205104
 20
40.965108858
 10
27.0002909763
 20
40.9567533479
 10
27.6109423203
 20
40.9491103973
 10
28.2492240054
 20
40.9421891338
 10
29.5991405278
 20
40.9305634792
  0
LWPOLYLINE
  5
38F
100
AcDbEntity
  8
RACCORDO
100
AcDbPolyline
 62
250
  6
CONTINUOUS
 90
4
 70
0
 10
55.0088843892
 20
-40.8221202819
 10
55.016345127
 20
-40.858811852
 10
55.018281175
 20
-40.8687690493
 10
55.0189984384
 20
-40.8730280727
  0
LINE
  5
390
100
AcDbEntity
  8
RACCORDO
100
AcDbLine
 62
250
  6
CONTINUOUS
 10
48.6
 20
-39.8469076854
 11
48.6
 21
-40.4999999998
  0
LINE
  5
391
100
AcDbEntity
  8
RACCORDO
100
AcDbLine
 62
250
  6
CONTINUOUS
 10
48.9
 20
-40.9667094075
 11
48.9000000084
 21
-40.4999999998
  0
LINE
  5
392
100
AcDbEntity
  8
RACCORDO
100
AcDbLine
 62
250
  6
CONTINUOUS
 10
54.1
 20
-40.9667094075
 11
54.1
 21
-40.4999999998
  0
LWPOLYLINE
  5
393
100
AcDbEntity
  8
RACCORDO
100
AcDbPolyline
 62
250
  6
CONTINUOUS
 90
3
 70
0
 10
47.9810015616
 20
-40.8730280727
 10
47.981739946
 20
-40.8686260662
 10
47.9837500403
 20
-40.8582979123
  0
LWPOLYLINE
  5
394
100
AcDbEntity
  8
RACCORDO
100
AcDbPolyline
 62
250
  6
CONTINUOUS
 90
10
 70
0
 10
66.4603710907
 20
29.6367717222
 10
66.5600203286
 20
29.5993467846
 10
66.6543113722
 20
29.5628385102
 10
66.7409347149
 20
29.5281411102
 10
66.8177686582
 20
29.4961044412
 10
66.882931279
 20
29.4675131896
 10
66.9348265244
 20
29.4430676518
 10
66.9721833044
 20
29.4233665816
 10
66.994086625
 20
29.4088925249
 10
67.0
 20
29.4000000002
  0
LINE
  5
395
100
AcDbEntity
  8
RACCORDO
100
AcDbLine
 62
250
  6
CONTINUOUS
 10
54.4
 20
-39.8469076854
 11
54.4000000001
 21
-40.4999999998
  0
LWPOLYLINE
  5
396
100
AcDbEntity
  8
RACCORDO
100
AcDbPolyline
 62
250
  6
CONTINUOUS
 90
25
 70
0
 10
47.9837500403
 20
-40.8582979123
 10
47.9915069388
 20
-40.8202098845
 10
47.997253743
 20
-40.7927014943
 10
48.0045075175
 20
-40.7599813772
 10
48.0133147299
 20
-40.7222154241
 10
48.0236289126
 20
-40.6798078003
 10
48.0355459233
 20
-40.6338196906
 10
48.0491401887
 20
-40.5847980703
 10
48.0643372822
 20
-40.5332341816
 10
48.0810097808
 20
-40.480448601
 10
48.0991637446
 20
-40.4272145768
 10
48.1187931136
 20
-40.3738952088
 10
48.1397522849
 20
-40.3213107548
 10
48.1620365754
 20
-40.2700344498
 10
48.1856506683
 20
-40.2203428293
 10
48.2104630101
 20
-40.1725616293
 10
48.2364962515
 20
-40.1268392408
 10
48.2637277419
 20
-40.083543035
 10
48.2919579763
 20
-40.0432725919
 10
48.3213346437
 20
-40.0061843812
 10
48.351710055
 20
-39.9724226437
 10
48.3824416377
 20
-39.9425375024
 10
48.4133152008
 20
-39.9167594619
 10
48.4445449353
 20
-39.8949962057
 10
48.4761308412
 20
-39.8772865456
  0
LWPOLYLINE
  5
397
100
AcDbEntity
  8
RACCORDO
100
AcDbPolyline
 62
250
  6
CONTINUOUS
 90
10
 70
0
 10
47.9461426692
 20
-40.9499522115
 10
47.9495020425
 20
-40.9413294487
 10
47.9529886555
 20
-40.9327255944
 10
47.956602508
 20
-40.9241406486
 10
47.9603419739
 20
-40.9155746103
 10
47.9642086794
 20
-40.9070274806
 10
47.9682075031
 20
-40.8984992617
 10
47.9723400711
 20
-40.8899899545
 10
47.9766047573
 20
-40.8814995581
 10
47.9810015616
 20
-40.8730280727
  0
LWPOLYLINE
  5
398
100
AcDbEntity
  8
ASSI
100
AcDbPolyline
 62
7
  6
CONTINUOUS
 90
17
 70
0
 10
45.5
 20
-41.1159885713
 10
45.4751333499
 20
-41.1290960178
 10
45.4011624165
 20
-41.1422034642
 10
45.2790307246
 20
-41.1551437206
 10
45.1081213441
 20
-41.1679146453
 10
44.8890512052
 20
-41.18051838
 10
44.6246146239
 20
-41.1927941595
 10
44.3142304645
 20
-41.204737783
 10
43.9584798627
 20
-41.2163534513
 10
43.5619005415
 20
-41.2274930027
 10
43.1239694925
 20
-41.2381503382
 10
42.6452097239
 20
-41.2483315566
 10
42.1317279836
 20
-41.2579067931
 10
41.5830794896
 20
-41.2668682852
 10
40.9997090237
 20
-41.2752237952
 10
40.3890576797
 20
-41.2828667459
 10
39.7507759946
 20
-41.2897880094
  0
LWPOLYLINE
  5
399
100
AcDbEntity
  8
RACCORDO
100
AcDbPolyline
 62
250
  6
CONTINUOUS
 90
7
 70
0
 10
48.4761308412
 20
-39.8772865456
 10
48.4970980287
 20
-39.8678971515
 10
48.5179362852
 20
-39.8602346819
 10
48.5386456106
 20
-39.8543025525
 10
48.5592260048
 20
-39.8501031161
 10
48.579677468
 20
-39.8476378844
 10
48.6
 20
-39.8469076854
  0
LWPOLYLINE
  5
39A
100
AcDbEntity
  8
0
100
AcDbPolyline
 62
7
  6
CONTINUOUS
 90
18
 70
0
 10
45.5
 20
41.1159885718
 10
45.4751333499
 20
41.1290960183
 10
45.4011624165
 20
41.1422034647
 10
45.2790307246
 20
41.1551437211
 10
45.1081213441
 20
41.1679146458
 10
44.8890512052
 20
41.1805183805
 10
44.6246146239
 20
41.19279416
 10
44.3142304645
 20
41.2047377835
 10
43.9584798627
 20
41.2163534518
 10
43.5619005415
 20
41.2274930032
 10
43.1239694925
 20
41.2381503387
 10
42.6452097239
 20
41.2483315571
 10
42.1317279836
 20
41.2579067936
 10
41.5830794896
 20
41.2668682857
 10
40.9997090237
 20
41.2752237957
 10
40.3890576797
 20
41.2828667464
 10
39.7507759946
 20
41.2897880099
 10
38.4008594722
 20
41.3014136645
  0
LWPOLYLINE
  5
39B
100
AcDbEntity
  8
ASSI
100
AcDbPolyline
 62
7
  6
CONTINUOUS
 90
17
 70
0
 10
67.6159885716
 20
-11.4999999998
 10
67.6028811251
 20
-11.4751333497
 10
67.5897736787
 20
-11.4011624162
 10
67.5768334223
 20
-11.2790307244
 10
67.5640624976
 20
-11.1081213439
 10
67.551458763
 20
-10.8890512049
 10
67.5391829834
 20
-10.6246146236
 10
67.52723936
 20
-10.3142304643
 10
67.5156236916
 20
-9.9584798625
 10
67.5044841402
 20
-9.5619005412
 10
67.4938268048
 20
-9.1239694922
 10
67.4836455863
 20
-8.6452097237
 10
67.4740703498
 20
-8.1317279834
 10
67.4651088577
 20
-7.5830794893
 10
67.4567533477
 20
-6.9997090235
 10
67.449110397
 20
-6.3890576795
 10
67.4421891335
 20
-5.7507759943
  0
LINE
  5
39C
100
AcDbEntity
  8
DRAFT
100
AcDbLine
 62
7
  6
CONTINUOUS
 10
60.2242099741
 20
39.7731956085
 11
60.2242099741
 21
35.5000000002
  0
LINE
  5
39D
100
AcDbEntity
  8
DRAFT
100
AcDbLine
 62
7
  6
CONTINUOUS
 10
60.2242099741
 20
-39.773195608
 11
60.2242099741
 21
-35.4999999998
  0
LINE
  5
39E
100
AcDbEntity
  8
DRAFT
100
AcDbLine
 62
7
  6
CONTINUOUS
 10
60.5
 20
39.5000000002
 11
60.5
 21
35.5000000002
  0
LINE
  5
39F
100
AcDbEntity
  8
DRAFT
100
AcDbLine
 62
7
  6
CONTINUOUS
 10
60.5
 20
-39.4999999998
 11
60.5
 21
-35.4999999998
  0
LINE
  5
3A0
100
AcDbEntity
  8
DRAFT
100
AcDbLine
 62
250
  6
CONTINUOUS
 10
62.0
 20
34.0000000002
 11
62.0
 21
33.7242099744
  0
LINE
  5
3A1
100
AcDbEntity
  8
DRAFT
100
AcDbLine
 62
250
  6
CONTINUOUS
 10
62.0
 20
-33.9999999998
 11
62.0
 21
-33.7242099739
  0
LINE
  5
3A2
100
AcDbEntity
  8
RACCORDO
100
AcDbLine
 62
250
  6
CONTINUOUS
 10
62.0
 20
-39.4999999998
 11
62.0
 21
-41.4999999998
  0
LINE
  5
3A3
100
AcDbEntity
  8
RACCORDO
100
AcDbLine
 62
250
  6
CONTINUOUS
 10
62.0
 20
39.5000000002
 11
62.0
 21
41.5000000002
  0
LINE
  5
3A4
100
AcDbEntity
  8
DRAFT
100
AcDbLine
 62
7
  6
CONTINUOUS
 10
66.0
 20
-33.9999999998
 11
66.0
 21
-35.4999999998
  0
LINE
  5
3A5
100
AcDbEntity
  8
DRAFT
100
AcDbLine
 62
7
  6
CONTINUOUS
 10
66.0
 20
34.0000000002
 11
66.0
 21
35.5000000002
  0
LWPOLYLINE
  5
3A6
100
AcDbEntity
  8
RACCORDO
100
AcDbPolyline
 62
250
  6
CONTINUOUS
 90
10
 70
0
 10
66.3469076856
 20
29.4000000002
 10
66.3483948349
 20
29.425717371
 10
66.3524952706
 20
29.4516711116
 10
66.359206838
 20
29.4778612219
 10
66.368282547
 20
29.5044059955
 10
66.3799596886
 20
29.5311871389
 10
66.3949566281
 20
29.5578497713
 10
66.4134980151
 20
29.5842755993
 10
66.4353150788
 20
29.6105829162
 10
66.4603710907
 20
29.6367717222
  0
LWPOLYLINE
  5
3A7
100
AcDbEntity
  8
RACCORDO
100
AcDbPolyline
 62
250
  6
CONTINUOUS
 90
10
 70
0
 10
67.3730276287
 20
30.0189984386
 10
67.3679610327
 20
29.9348144954
 10
67.3528075961
 20
29.8518526489
 10
67.3277873022
 20
29.7713172617
 10
67.2932633724
 20
29.6943774714
 10
67.2497369928
 20
29.6221502183
 10
67.1978400389
 20
29.5556840301
 10
67.1383259022
 20
29.4959438009
 10
67.0720585534
 20
29.4437967837
 10
67.0
 20
29.4000000002
  0
LWPOLYLINE
  5
3A8
100
AcDbEntity
  8
RACCORDO
100
AcDbPolyline
 62
250
  6
CONTINUOUS
 90
6
 70
0
 10
67.4499650636
 20
30.0538573306
 10
67.4437018431
 20
29.9603599831
 10
67.4250079818
 20
29.8685385425
 10
67.3942184886
 20
29.780038523
 10
67.3518851359
 20
29.6964459162
 10
67.3015368335
 20
29.6227804438
  0
LWPOLYLINE
  5
3A9
100
AcDbEntity
  8
RACCORDO
100
AcDbPolyline
 62
250
  6
CONTINUOUS
 90
10
 70
0
 10
54.636771722
 20
-39.9603710905
 10
54.5993467844
 20
-40.0600203284
 10
54.56283851
 20
-40.1543113719
 10
54.52814111
 20
-40.2409347146
 10
54.496104441
 20
-40.3177686579
 10
54.4675131894
 20
-40.3829312787
 10
54.4430676515
 20
-40.4348265241
 10
54.4233665813
 20
-40.4721833041
 10
54.4088925246
 20
-40.4940866248
 10
54.4
 20
-40.4999999998
  0
LWPOLYLINE
  5
3AA
100
AcDbEntity
  8
RACCORDO
100
AcDbPolyline
 62
7
  6
CONTINUOUS
 90
5
 70
0
 10
48.3916280796
 20
-40.7899672623
 10
48.4501424038
 20
-40.7358140009
 10
48.5105093471
 20
-40.6641581637
 10
48.5607620781
 20
-40.5850811074
 10
48.6
 20
-40.4999999998
  0
LWPOLYLINE
  5
3AB
100
AcDbEntity
  8
RACCORDO
100
AcDbPolyline
 62
250
  6
CONTINUOUS
 90
8
 70
0
 10
55.0538573308
 20
-40.9499522115
 10
55.0518624751
 20
-40.9511767785
 10
55.0446324731
 20
-40.9523907709
 10
55.032167325
 20
-40.9535941888
 10
55.0144052435
 20
-40.9547953308
 10
54.9914080159
 20
-40.9559858982
 10
54.9633610038
 20
-40.9571409952
 10
54.9301043323
 20
-40.9582600376
  0
LWPOLYLINE
  5
3AC
100
AcDbEntity
  8
RACCORDO
100
AcDbPolyline
 62
7
  6
CONTINUOUS
 90
5
 70
0
 10
67.2899672626
 20
23.3916280799
 10
67.2358140012
 20
23.450142404
 10
67.1641581639
 20
23.5105093473
 10
67.0850811077
 20
23.5607620783
 10
67.0
 20
23.6000000002
  0
LWPOLYLINE
  5
3AD
100
AcDbEntity
  8
ASSI
100
AcDbPolyline
 62
7
  6
CONTINUOUS
 90
17
 70
0
 10
67.6159885716
 20
11.5000000002
 10
67.629096018
 20
11.4751333502
 10
67.6422034645
 20
11.4011624167
 10
67.6551437209
 20
11.2790307249
 10
67.6679146456
 20
11.1081213444
 10
67.6805183802
 20
10.8890512054
 10
67.6927941598
 20
10.6246146241
 10
67.7047377832
 20
10.3142304648
 10
67.7163534516
 20
9.958479863
 10
67.727493003
 20
9.5619005417
 10
67.7381503384
 20
9.1239694927
 10
67.7483315569
 20
8.6452097242
 10
67.7579067934
 20
8.1317279839
 10
67.7668682854
 20
7.5830794898
 10
67.7752237955
 20
6.999709024
 10
67.7828667461
 20
6.38905768
 10
67.7897880096
 20
5.7507759948
  0
LWPOLYLINE
  5
3AE
100
AcDbEntity
  8
RACCORDO
100
AcDbPolyline
 62
250
  6
CONTINUOUS
 90
7
 70
0
 10
67.4499522038
 20
22.9461426694
 10
67.4436915739
 20
23.0396398786
 10
67.425000109
 20
23.1314614917
 10
67.3942127855
 20
23.2199619416
 10
67.3518813537
 20
23.3035551807
 10
67.2987644501
 20
23.3807431054
 10
67.2899672626
 20
23.3916280799
  0
LWPOLYLINE
  5
3AF
100
AcDbEntity
  8
RACCORDO
100
AcDbPolyline
 62
250
  6
CONTINUOUS
 90
10
 70
0
 10
67.3730240424
 20
22.9810015619
 10
67.3679580882
 20
23.0651853814
 10
67.3528052358
 20
23.14814717
 10
67.3277854631
 20
23.2286825499
 10
67.2932619887
 20
23.305622368
 10
67.2497359989
 20
23.3778496689
 10
67.1978393718
 20
23.44431591
 10
67.1383255042
 20
23.5040561835
 10
67.0720583745
 20
23.5562032243
 10
67.0
 20
23.6000000002
  0
LINE
  5
3B0
100
AcDbEntity
  8
RACCORDO
100
AcDbLine
 62
250
  6
CONTINUOUS
 10
67.4582600379
 20
29.9301043326
 11
67.460368567
 21
29.8491066227
  0
LINE
  5
3B1
100
AcDbEntity
  8
RACCORDO
100
AcDbLine
 62
250
  6
CONTINUOUS
 10
67.460368567
 20
29.8491066227
 11
67.4622389107
 21
29.7503453898
  0
LINE
  5
3B2
100
AcDbEntity
  8
RACCORDO
100
AcDbLine
 62
250
  6
CONTINUOUS
 10
67.4622389107
 20
29.7503453898
 11
67.464495586
 21
29.5751129193
  0
LINE
  5
3B3
100
AcDbEntity
  8
ASSI
100
AcDbLine
 62
7
  6
CONTINUOUS
 10
67.4421891335
 20
-5.7507759943
 11
67.4305634789
 21
-4.4008594719
  0
LINE
  5
3B4
100
AcDbEntity
  8
ASSI
100
AcDbLine
 62
7
  6
CONTINUOUS
 10
67.7897880096
 20
5.7507759948
 11
67.8014136642
 21
4.4008594724
  0
LINE
  5
3B5
100
AcDbEntity
  8
RACCORDO
100
AcDbLine
 62
250
  6
CONTINUOUS
 10
67.464495586
 20
29.5751129193
 11
67.4659890144
 21
29.3771893509
  0
LINE
  5
3B6
100
AcDbEntity
  8
ASSI
100
AcDbLine
 62
7
  6
CONTINUOUS
 10
67.4305634789
 20
-4.4008594719
 11
67.4221251231
 21
-2.9752959382
  0
LINE
  5
3B7
100
AcDbEntity
  8
ASSI
100
AcDbLine
 62
7
  6
CONTINUOUS
 10
67.8014136642
 20
4.4008594724
 11
67.80985202
 21
2.9752959387
  0
LINE
  5
3B8
100
AcDbEntity
  8
ASSI
100
AcDbLine
 62
7
  6
CONTINUOUS
 10
67.4221251231
 20
-2.9752959382
 11
67.4170163402
 21
-1.505272239
  0
LINE
  5
3B9
100
AcDbEntity
  8
ASSI
100
AcDbLine
 62
7
  6
CONTINUOUS
 10
67.80985202
 20
2.9752959387
 11
67.814960803
 21
1.5052722395
  0
LINE
  5
3BA
100
AcDbEntity
  8
ASSI
100
AcDbLine
 62
7
  6
CONTINUOUS
 10
67.4170163402
 20
-1.505272239
 11
67.4152858976
 21
0.0000000002
  0
LINE
  5
3BB
100
AcDbEntity
  8
RACCORDO
100
AcDbLine
 62
250
  6
CONTINUOUS
 10
67.4659890144
 20
29.3771893509
 11
67.4667094077
 21
29.1000000002
  0
LINE
  5
3BC
100
AcDbEntity
  8
ASSI
100
AcDbLine
 62
7
  6
CONTINUOUS
 10
67.814960803
 20
1.5052722395
 11
67.8166912456
 21
0.0000000002
  0
LINE
  5
3BD
100
AcDbEntity
  8
RACCORDO
100
AcDbLine
 62
250
  6
CONTINUOUS
 10
66.2731956082
 20
-33.7242099739
 11
66.2731956082
 21
33.7242099744
  0
LINE
  5
3BE
100
AcDbEntity
  8
RACCORDO
100
AcDbLine
 62
7
  6
CONTINUOUS
 10
66.2757899725
 20
-35.4999999998
 11
66.2757899725
 21
-33.7242100273
  0
LINE
  5
3BF
100
AcDbEntity
  8
RACCORDO
100
AcDbLine
 62
7
  6
CONTINUOUS
 10
66.2757899725
 20
33.7242100278
 11
66.2757899725
 21
35.5000000002
  0
LINE
  5
3C0
100
AcDbEntity
  8
RACCORDO
100
AcDbLine
 62
250
  6
CONTINUOUS
 10
66.3469076856
 20
23.6000000002
 11
66.3469076856
 21
29.4000000002
  0
LINE
  5
3C1
100
AcDbEntity
  8
RACCORDO
100
AcDbLine
 62
7
  6
CONTINUOUS
 10
67.0
 20
23.6000000002
 11
67.0
 21
29.4000000002
  0
LINE
  5
3C2
100
AcDbEntity
  8
RACCORDO
100
AcDbLine
 62
250
  6
CONTINUOUS
 10
67.3730280729
 20
-35.4999999998
 11
67.3730280729
 21
22.9810015619
  0
LINE
  5
3C3
100
AcDbEntity
  8
RACCORDO
100
AcDbLine
 62
250
  6
CONTINUOUS
 10
67.3730280729
 20
30.0189984386
 11
67.3730280729
 21
35.5000000002
  0
LINE
  5
3C4
100
AcDbEntity
  8
ASSI
100
AcDbLine
 62
7
  6
CONTINUOUS
 10
68.0
 20
35.5000000002
 11
68.0
 21
-35.4999999998
  0
LINE
  5
3C5
100
AcDbEntity
  8
DRAFT
100
AcDbLine
 62
7
  6
CONTINUOUS
 10
68.0
 20
-35.4999999998
 11
68.0
 21
35.5000000002
  0
LINE
  5
3C6
100
AcDbEntity
  8
ASSI
100
AcDbLine
 62
7
  6
CONTINUOUS
 10
67.4152858976
 20
0.0000000002
 11
67.4170163402
 21
1.5052722395
  0
LINE
  5
3C7
100
AcDbEntity
  8
ASSI
100
AcDbLine
 62
7
  6
CONTINUOUS
 10
67.8166912456
 20
0.0000000002
 11
67.814960803
 21
-1.505272239
  0
LINE
  5
3C8
100
AcDbEntity
  8
RACCORDO
100
AcDbLine
 62
250
  6
CONTINUOUS
 10
67.4667094077
 20
29.1000000002
 11
67.4663067072
 21
23.6914775116
  0
LINE
  5
3C9
100
AcDbEntity
  8
ASSI
100
AcDbLine
 62
7
  6
CONTINUOUS
 10
67.4170163402
 20
1.5052722395
 11
67.4221251231
 21
2.9752959387
  0
LINE
  5
3CA
100
AcDbEntity
  8
ASSI
100
AcDbLine
 62
7
  6
CONTINUOUS
 10
67.814960803
 20
-1.505272239
 11
67.80985202
 21
-2.9752959382
  0
LINE
  5
3CB
100
AcDbEntity
  8
ASSI
100
AcDbLine
 62
7
  6
CONTINUOUS
 10
67.4221251231
 20
2.9752959387
 11
67.4305634789
 21
4.4008594724
  0
LINE
  5
3CC
100
AcDbEntity
  8
ASSI
100
AcDbLine
 62
7
  6
CONTINUOUS
 10
67.80985202
 20
-2.9752959382
 11
67.8014136642
 21
-4.4008594719
  0
LINE
  5
3CD
100
AcDbEntity
  8
RACCORDO
100
AcDbLine
 62
250
  6
CONTINUOUS
 10
67.4663067072
 20
23.6914775116
 11
67.4650825363
 21
23.4887082358
  0
LWPOLYLINE
  5
3CE
100
AcDbEntity
  8
ASSI
100
AcDbPolyline
 62
7
  6
CONTINUOUS
 90
18
 70
0
 10
67.4305634789
 20
4.4008594724
 10
67.4421891335
 20
5.7507759948
 10
67.449110397
 20
6.38905768
 10
67.4567533477
 20
6.999709024
 10
67.4651088577
 20
7.5830794898
 10
67.4740703498
 20
8.1317279839
 10
67.4836455863
 20
8.6452097242
 10
67.4938268048
 20
9.1239694927
 10
67.5044841402
 20
9.5619005417
 10
67.5156236916
 20
9.958479863
 10
67.52723936
 20
10.3142304648
 10
67.5391829834
 20
10.6246146241
 10
67.551458763
 20
10.8890512054
 10
67.5640624976
 20
11.1081213444
 10
67.5768334223
 20
11.2790307249
 10
67.5897736787
 20
11.4011624167
 10
67.6028811251
 20
11.4751333502
 10
67.6159885716
 20
11.5000000002
  0
LWPOLYLINE
  5
3CF
100
AcDbEntity
  8
ASSI
100
AcDbPolyline
 62
7
  6
CONTINUOUS
 90
18
 70
0
 10
67.8014136642
 20
-4.4008594719
 10
67.7897880096
 20
-5.7507759943
 10
67.7828667461
 20
-6.3890576795
 10
67.7752237955
 20
-6.9997090235
 10
67.7668682854
 20
-7.5830794893
 10
67.7579067934
 20
-8.1317279834
 10
67.7483315569
 20
-8.6452097237
 10
67.7381503384
 20
-9.1239694922
 10
67.727493003
 20
-9.5619005412
 10
67.7163534516
 20
-9.9584798625
 10
67.7047377832
 20
-10.3142304643
 10
67.6927941598
 20
-10.6246146236
 10
67.6805183802
 20
-10.8890512049
 10
67.6679146456
 20
-11.1081213439
 10
67.6551437209
 20
-11.2790307244
 10
67.6422034645
 20
-11.4011624162
 10
67.629096018
 20
-11.4751333497
 10
67.6159885716
 20
-11.4999999998
  0
LINE
  5
3D0
100
AcDbEntity
  8
RACCORDO
100
AcDbLine
 62
250
  6
CONTINUOUS
 10
67.4650825363
 20
23.4887082358
 11
67.4630672752
 21
23.3045155422
  0
LINE
  5
3D1
100
AcDbEntity
  8
RACCORDO
100
AcDbLine
 62
250
  6
CONTINUOUS
 10
67.4630672752
 20
23.3045155422
 11
67.461331411
 21
23.1979958972
  0
LWPOLYLINE
  5
3D2
100
AcDbEntity
  8
RACCORDO
100
AcDbPolyline
 62
250
  6
CONTINUOUS
 90
10
 70
0
 10
67.461331411
 20
23.1979958972
 10
67.4593420053
 20
23.1081393177
 10
67.4582585942
 20
23.0698484095
 10
67.4571397571
 20
23.0366056966
 10
67.455984927
 20
23.0085700015
 10
67.4547946709
 20
22.9855825016
 10
67.4535937911
 20
22.9678275802
 10
67.452390555
 20
22.9553666982
 10
67.4511766952
 20
22.9481383946
 10
67.4499522117
 20
22.9461426694
  0
LINE
  5
3D3
100
AcDbEntity
  8
DRAFT
100
AcDbLine
 62
7
  6
CONTINUOUS
 10
60.5
 20
-39.4999999998
 11
60.2242099741
 21
-39.7757900256
  0
LINE
  5
3D4
100
AcDbEntity
  8
DRAFT
100
AcDbLine
 62
7
  6
CONTINUOUS
 10
66.0
 20
-33.9999999998
 11
66.2757899725
 21
-33.7242100273
  0
LINE
  5
3D5
100
AcDbEntity
  8
DRAFT
100
AcDbLine
 62
7
  6
CONTINUOUS
 10
60.5
 20
39.5000000002
 11
60.2242099741
 21
39.7757900261
  0
LINE
  5
3D6
100
AcDbEntity
  8
DRAFT
100
AcDbLine
 62
7
  6
CONTINUOUS
 10
66.0
 20
34.0000000002
 11
66.2757899725
 21
33.7242100278
  0
LWPOLYLINE
  5
3D7
100
AcDbEntity
  8
RACCORDO
100
AcDbPolyline
 62
250
  6
CONTINUOUS
 90
7
 70
0
 10
66.3772865459
 20
23.4761308414
 10
66.3678971518
 20
23.497098029
 10
66.3602346821
 20
23.5179362855
 10
66.3543025528
 20
23.5386456108
 10
66.3501031164
 20
23.5592260051
 10
66.3476378846
 20
23.5796774682
 10
66.3469076856
 20
23.6000000002
  0
LWPOLYLINE
  5
3D8
100
AcDbEntity
  8
RACCORDO
100
AcDbPolyline
 62
250
  6
CONTINUOUS
 90
8
 70
0
 10
67.4499522117
 20
30.0538573311
 10
67.4511767787
 20
30.0518624753
 10
67.4523907711
 20
30.0446324733
 10
67.453594189
 20
30.0321673252
 10
67.454795331
 20
30.0144052438
 10
67.4559858985
 20
29.9914080161
 10
67.4571409954
 20
29.963361004
 10
67.4582600379
 20
29.9301043326
  0
CIRCLE
  5
3D9
100
AcDbEntity
  8
RACCORDO
100
AcDbCircle
 62
7
  6
CONTINUOUS
 10
-51.5
 20
-26.4999999998
 40
9.5
  0
CIRCLE
  5
3DA
100
AcDbEntity
  8
RACCORDO
100
AcDbCircle
 62
250
  6
CONTINUOUS
 10
-51.5
 20
-26.4999999998
 40
8.9999972578
  0
ARC
  5
3DB
100
AcDbEntity
  8
ASSI
100
AcDbCircle
 62
7
  6
CONTINUOUS
 10
-62.0
 20
-35.4999999998
 40
6.0
100
AcDbArc
 50
180.0
 51
270.0
  0
ARC
  5
3DC
100
AcDbEntity
  8
DRAFT
100
AcDbCircle
 62
7
  6
CONTINUOUS
 10
-62.0
 20
-35.4999999998
 40
6.0
100
AcDbArc
 50
180.0
 51
270.0
  0
ARC
  5
3DD
100
AcDbEntity
  8
RACCORDO
100
AcDbCircle
 62
250
  6
CONTINUOUS
 10
-62.0
 20
-35.4999999998
 40
5.3730280702
100
AcDbArc
 50
180.0
 51
270.0
  0
ARC
  5
3DE
100
AcDbEntity
  8
RACCORDO
100
AcDbCircle
 62
7
  6
CONTINUOUS
 10
-62.0
 20
-35.4999999998
 40
4.2757899725
100
AcDbArc
 50
180.0
 51
270.0
  0
ARC
  5
3DF
100
AcDbEntity
  8
DRAFT
100
AcDbCircle
 62
7
  6
CONTINUOUS
 10
-62.0
 20
-35.4999999998
 40
4.0
100
AcDbArc
 50
180.0
 51
270.0
  0
CIRCLE
  5
3E0
100
AcDbEntity
  8
0
100
AcDbCircle
 62
7
  6
CONTINUOUS
 10
-51.5
 20
-26.4999999998
 40
2.25
  0
CIRCLE
  5
3E1
100
AcDbEntity
  8
0
100
AcDbCircle
 62
7
  6
CONTINUOUS
 10
-51.5
 20
-26.4999999998
 40
1.8
  0
ARC
  5
3E2
100
AcDbEntity
  8
DRAFT
100
AcDbCircle
 62
7
  6
CONTINUOUS
 10
-62.0
 20
-35.4999999998
 40
1.7757900259
100
AcDbArc
 50
0.0
 51
90.0
  0
ARC
  5
3E3
100
AcDbEntity
  8
DRAFT
100
AcDbCircle
 62
7
  6
CONTINUOUS
 10
-62.0
 20
-35.4999999998
 40
1.5
100
AcDbArc
 50
0.0
 51
90.0
  0
CIRCLE
  5
3E4
100
AcDbEntity
  8
0
100
AcDbCircle
 62
7
  6
CONTINUOUS
 10
-51.5
 20
-26.4999999998
 40
1.5
  0
CIRCLE
  5
3E5
100
AcDbEntity
  8
RACCORDO
100
AcDbCircle
 62
7
  6
CONTINUOUS
 10
-51.5
 20
26.5000000002
 40
9.5
  0
CIRCLE
  5
3E6
100
AcDbEntity
  8
RACCORDO
100
AcDbCircle
 62
250
  6
CONTINUOUS
 10
-51.5
 20
26.5000000002
 40
8.9999972577
  0
ARC
  5
3E7
100
AcDbEntity
  8
ASSI
100
AcDbCircle
 62
7
  6
CONTINUOUS
 10
-62.0
 20
35.5000000002
 40
6.0
100
AcDbArc
 50
90.0
 51
180.0
  0
ARC
  5
3E8
100
AcDbEntity
  8
DRAFT
100
AcDbCircle
 62
7
  6
CONTINUOUS
 10
-62.0
 20
35.5000000002
 40
6.0
100
AcDbArc
 50
90.0
 51
180.0
  0
ARC
  5
3E9
100
AcDbEntity
  8
RACCORDO
100
AcDbCircle
 62
250
  6
CONTINUOUS
 10
-62.0
 20
35.5000000002
 40
5.3730280702
100
AcDbArc
 50
90.0
 51
180.0
  0
CIRCLE
  5
3EA
100
AcDbEntity
  8
RACCORDO
100
AcDbCircle
 62
7
  6
CONTINUOUS
 10
-45.3
 20
0.0000000002
 40
4.8
  0
CIRCLE
  5
3EB
100
AcDbEntity
  8
RACCORDO
100
AcDbCircle
 62
250
  6
CONTINUOUS
 10
-45.3
 20
0.0000000002
 40
4.2999929909
  0
ARC
  5
3EC
100
AcDbEntity
  8
RACCORDO
100
AcDbCircle
 62
7
  6
CONTINUOUS
 10
-62.0
 20
35.5000000002
 40
4.2757899725
100
AcDbArc
 50
90.0
 51
180.0
  0
ARC
  5
3ED
100
AcDbEntity
  8
DRAFT
100
AcDbCircle
 62
7
  6
CONTINUOUS
 10
-62.0
 20
35.5000000002
 40
4.0
100
AcDbArc
 50
90.0
 51
180.0
  0
CIRCLE
  5
3EE
100
AcDbEntity
  8
0
100
AcDbCircle
 62
7
  6
CONTINUOUS
 10
-51.5
 20
26.5000000002
 40
2.25
  0
CIRCLE
  5
3EF
100
AcDbEntity
  8
0
100
AcDbCircle
 62
7
  6
CONTINUOUS
 10
-51.5
 20
26.5000000002
 40
1.8
  0
ARC
  5
3F0
100
AcDbEntity
  8
DRAFT
100
AcDbCircle
 62
7
  6
CONTINUOUS
 10
-62.0
 20
35.5000000002
 40
1.7757900259
100
AcDbArc
 50
270.0
 51
360.0
  0
ARC
  5
3F1
100
AcDbEntity
  8
DRAFT
100
AcDbCircle
 62
7
  6
CONTINUOUS
 10
-62.0
 20
35.5000000002
 40
1.5
100
AcDbArc
 50
270.0
 51
360.0
  0
CIRCLE
  5
3F2
100
AcDbEntity
  8
0
100
AcDbCircle
 62
7
  6
CONTINUOUS
 10
-51.5
 20
26.5000000002
 40
1.5
  0
CIRCLE
  5
3F3
100
AcDbEntity
  8
RACCORDO
100
AcDbCircle
 62
7
  6
CONTINUOUS
 10
51.5
 20
-26.4999999998
 40
9.5
  0
CIRCLE
  5
3F4
100
AcDbEntity
  8
RACCORDO
100
AcDbCircle
 62
250
  6
CONTINUOUS
 10
51.5
 20
-26.4999999998
 40
8.9999972577
  0
ARC
  5
3F5
100
AcDbEntity
  8
ASSI
100
AcDbCircle
 62
7
  6
CONTINUOUS
 10
62.0
 20
-35.4999999998
 40
6.0
100
AcDbArc
 50
270.0
 51
360.0
  0
ARC
  5
3F6
100
AcDbEntity
  8
DRAFT
100
AcDbCircle
 62
7
  6
CONTINUOUS
 10
62.0
 20
-35.4999999998
 40
6.0
100
AcDbArc
 50
270.0
 51
360.0
  0
ARC
  5
3F7
100
AcDbEntity
  8
RACCORDO
100
AcDbCircle
 62
250
  6
CONTINUOUS
 10
62.0
 20
-35.4999999998
 40
5.3730280702
100
AcDbArc
 50
270.0
 51
360.0
  0
ARC
  5
3F8
100
AcDbEntity
  8
RACCORDO
100
AcDbCircle
 62
7
  6
CONTINUOUS
 10
62.0
 20
-35.4999999998
 40
4.2757899725
100
AcDbArc
 50
270.0
 51
360.0
  0
ARC
  5
3F9
100
AcDbEntity
  8
DRAFT
100
AcDbCircle
 62
7
  6
CONTINUOUS
 10
62.0
 20
-35.4999999998
 40
4.0
100
AcDbArc
 50
270.0
 51
360.0
  0
CIRCLE
  5
3FA
100
AcDbEntity
  8
0
100
AcDbCircle
 62
7
  6
CONTINUOUS
 10
51.5
 20
-26.4999999998
 40
2.25
  0
CIRCLE
  5
3FB
100
AcDbEntity
  8
0
100
AcDbCircle
 62
7
  6
CONTINUOUS
 10
51.5
 20
-26.4999999998
 40
1.8
  0
ARC
  5
3FC
100
AcDbEntity
  8
DRAFT
100
AcDbCircle
 62
7
  6
CONTINUOUS
 10
62.0
 20
-35.4999999998
 40
1.7757900259
100
AcDbArc
 50
90.0
 51
180.0
  0
ARC
  5
3FD
100
AcDbEntity
  8
DRAFT
100
AcDbCircle
 62
7
  6
CONTINUOUS
 10
62.0
 20
-35.4999999998
 40
1.5
100
AcDbArc
 50
90.0
 51
180.0
  0
CIRCLE
  5
3FE
100
AcDbEntity
  8
0
100
AcDbCircle
 62
7
  6
CONTINUOUS
 10
51.5
 20
-26.4999999998
 40
1.5
  0
CIRCLE
  5
3FF
100
AcDbEntity
  8
0
100
AcDbCircle
 62
7
  6
CONTINUOUS
 10
-0.0
 20
0.0000000002
 40
11.25
  0
ARC
  5
400
100
AcDbEntity
  8
0
100
AcDbCircle
 62
7
  6
CONTINUOUS
 10
-0.0
 20
0.0000000002
 40
11.0
100
AcDbArc
 50
5.7391704773
 51
84.2608295227
  0
ARC
  5
401
100
AcDbEntity
  8
0
100
AcDbCircle
 62
7
  6
CONTINUOUS
 10
-0.0
 20
0.0000000002
 40
11.0
100
AcDbArc
 50
95.7391704773
 51
174.2608295227
  0
ARC
  5
402
100
AcDbEntity
  8
0
100
AcDbCircle
 62
7
  6
CONTINUOUS
 10
-0.0
 20
0.0000000002
 40
11.0
100
AcDbArc
 50
275.7391704773
 51
354.2608295227
  0
ARC
  5
403
100
AcDbEntity
  8
0
100
AcDbCircle
 62
7
  6
CONTINUOUS
 10
-0.0
 20
0.0000000002
 40
11.0
100
AcDbArc
 50
185.7391704773
 51
264.2608295227
  0
ARC
  5
404
100
AcDbEntity
  8
0
100
AcDbCircle
 62
7
  6
CONTINUOUS
 10
-0.0
 20
0.0000000002
 40
10.1299689469
100
AcDbArc
 50
276.233965798
 51
353.766034202
  0
ARC
  5
405
100
AcDbEntity
  8
0
100
AcDbCircle
 62
7
  6
CONTINUOUS
 10
-0.0
 20
0.0000000002
 40
10.1299689469
100
AcDbArc
 50
186.233965798
 51
263.766034202
  0
ARC
  5
406
100
AcDbEntity
  8
0
100
AcDbCircle
 62
7
  6
CONTINUOUS
 10
-0.0
 20
0.0000000002
 40
10.1299689469
100
AcDbArc
 50
96.233965798
 51
173.766034202
  0
ARC
  5
407
100
AcDbEntity
  8
0
100
AcDbCircle
 62
7
  6
CONTINUOUS
 10
-0.0
 20
0.0000000002
 40
10.1299689469
100
AcDbArc
 50
6.233965798
 51
83.766034202
  0
ARC
  5
408
100
AcDbEntity
  8
0
100
AcDbCircle
 62
7
  6
CONTINUOUS
 10
2.558889799
 20
29.0402578157
 40
0.05
100
AcDbArc
 50
118.332200809
 51
249.0297526306
  0
CIRCLE
  5
409
100
AcDbEntity
  8
RACCORDO
100
AcDbCircle
 62
7
  6
CONTINUOUS
 10
45.3
 20
0.0000000002
 40
4.8
  0
CIRCLE
  5
40A
100
AcDbEntity
  8
RACCORDO
100
AcDbCircle
 62
250
  6
CONTINUOUS
 10
45.3
 20
0.0000000002
 40
4.299992991
  0
CIRCLE
  5
40B
100
AcDbEntity
  8
RACCORDO
100
AcDbCircle
 62
7
  6
CONTINUOUS
 10
51.5
 20
26.5000000002
 40
9.5
  0
CIRCLE
  5
40C
100
AcDbEntity
  8
RACCORDO
100
AcDbCircle
 62
250
  6
CONTINUOUS
 10
51.5
 20
26.5000000002
 40
8.9999972578
  0
ARC
  5
40D
100
AcDbEntity
  8
ASSI
100
AcDbCircle
 62
7
  6
CONTINUOUS
 10
62.0
 20
35.5000000002
 40
6.0
100
AcDbArc
 50
0.0
 51
90.0
  0
ARC
  5
40E
100
AcDbEntity
  8
DRAFT
100
AcDbCircle
 62
7
  6
CONTINUOUS
 10
62.0
 20
35.5000000002
 40
6.0
100
AcDbArc
 50
0.0
 51
90.0
  0
ARC
  5
40F
100
AcDbEntity
  8
RACCORDO
100
AcDbCircle
 62
250
  6
CONTINUOUS
 10
62.0
 20
35.5000000002
 40
5.3730280702
100
AcDbArc
 50
0.0
 51
90.0
  0
ARC
  5
410
100
AcDbEntity
  8
RACCORDO
100
AcDbCircle
 62
7
  6
CONTINUOUS
 10
62.0
 20
35.5000000002
 40
4.2757899725
100
AcDbArc
 50
0.0
 51
90.0
  0
ARC
  5
411
100
AcDbEntity
  8
DRAFT
100
AcDbCircle
 62
7
  6
CONTINUOUS
 10
62.0
 20
35.5000000002
 40
4.0
100
AcDbArc
 50
0.0
 51
90.0
  0
CIRCLE
  5
412
100
AcDbEntity
  8
0
100
AcDbCircle
 62
7
  6
CONTINUOUS
 10
51.5
 20
26.5000000002
 40
2.25
  0
CIRCLE
  5
413
100
AcDbEntity
  8
0
100
AcDbCircle
 62
7
  6
CONTINUOUS
 10
51.5
 20
26.5000000002
 40
1.8
  0
ARC
  5
414
100
AcDbEntity
  8
DRAFT
100
AcDbCircle
 62
7
  6
CONTINUOUS
 10
62.0
 20
35.5000000002
 40
1.7757900259
100
AcDbArc
 50
180.0
 51
270.0
  0
ARC
  5
415
100
AcDbEntity
  8
DRAFT
100
AcDbCircle
 62
7
  6
CONTINUOUS
 10
62.0
 20
35.5000000002
 40
1.5
100
AcDbArc
 50
180.0
 51
270.0
  0
CIRCLE
  5
416
100
AcDbEntity
  8
0
100
AcDbCircle
 62
7
  6
CONTINUOUS
 10
51.5
 20
26.5000000002
 40
1.5
  0
ENDSEC
  0
SECTION
  2
OBJECTS
  0
DICTIONARY
  5
C
100
AcDbDictionary
280
0
281
1
  3
ACAD_GROUP
350
D
  3
ACAD_MLINESTYLE
350
17
  3
ACAD_LAYOUT
350
1A
  3
ACAD_PLOTSETTINGS
350
19
  3
ACAD_PLOTSTYLENAME
350
E
  0
DICTIONARY
  5
D
102
{ACAD_REACTORS
330
C
102
}
100
AcDbDictionary
280
0
281
1
  0
ACDBDICTIONARYWDFLT
  5
E
102
{ACAD_REACTORS
330
C
102
}
100
AcDbDictionary
281
1
  3
Normal
350
F
100
AcDbDictionaryWithDefault
340
F
  0
DICTIONARY
  5
17
102
{ACAD_REACTORS
330
C
102
}
100
AcDbDictionary
280
0
281
1
  3
Standard
350
18
  0
DICTIONARY
  5
19
102
{ACAD_REACTORS
330
C
102
}
100
AcDbDictionary
281
1
  0
DICTIONARY
  5
1A
102
{ACAD_REACTORS
330
C
102
}
100
AcDbDictionary
281
1
  3
Model
350
417
  3
Layout1
350
418
  0
ACDBPLACEHOLDER
  5
F
102
{ACAD_REACTORS
330
E
102
}
  0
MLINESTYLE
  5
18
102
{ACAD_REACTORS
330
17
102
}
100
AcDbMlineStyle
  2
STANDARD
 70
0
  3

 62
256
 51
90.0
 52
90.0
 71
2
 49
0.5
 62
256
  6
BYLAYER
 49
-0.5
 62
256
  6
BYLAYER
  0
LAYOUT
  5
417
102
{ACAD_REACTORS
330
1A
102
}
100
AcDbPlotSettings
  1

  2
none_device
  4
ISO_A4_(297.00_x_210.00_MM)
  6

 40
0.0
 41
0.0
 42
0.0
 43
0.0
 44
297.0
 45
210.0
 46
0.0
 47
0.0
 48
0.0
 49
0.0
140
0.0
141
0.0
142
1.0
143
1.0
 70
1024
 72
1
 73
0
 74
0
  7

 75
0
147
1.0
148
0.0
149
0.0
100
AcDbLayout
  1
Model
 70
0
 71
0
 10
0.0
 20
0.0
 11
297.0
 21
210.0
 12
0.0
 22
0.0
 32
0.0
 14
0.0
 24
0.0
 34
0.0
 15
0.0
 25
0.0
 35
0.0
146
0.0
 13
0.0
 23
0.0
 33
0.0
 16
1.0
 26
0.0
 36
0.0
 17
0.0
 27
1.0
 37
0.0
 76
0
330
21C
345
0
346
0
  0
LAYOUT
  5
418
102
{ACAD_REACTORS
330
1A
102
}
100
AcDbPlotSettings
  1

  2
none_device
  4
ISO_A4_(297.00_x_210.00_MM)
  6

 40
0.0
 41
0.0
 42
0.0
 43
0.0
 44
297.0
 45
210.0
 46
0.0
 47
0.0
 48
0.0
 49
0.0
140
0.0
141
0.0
142
1.0
143
1.0
 70
0
 72
1
 73
0
 74
0
  7

 75
0
147
1.0
148
0.0
149
0.0
100
AcDbLayout
  1
Layout1
 70
0
 71
1
 10
0.0
 20
0.0
 11
297.0
 21
210.0
 12
0.0
 22
0.0
 32
0.0
 14
0.0
 24
0.0
 34
0.0
 15
0.0
 25
0.0
 35
0.0
146
0.0
 13
0.0
 23
0.0
 33
0.0
 16
1.0
 26
0.0
 36
0.0
 17
0.0
 27
1.0
 37
0.0
 76
0
330
21D
345
0
346
0
  0
ENDSEC
  0
EOF
