  0
SECTION
  2
HEADER
  9
$ACADVER
  1
AC1024
  9
$DWGCODEPAGE
  3
ANSI_1252
  9
$EXTMAX
 10
297.0
 20
210.0
 30
0.0
  9
$EXTMIN
 10
0.0
 20
0.0
 30
0.0
  9
$LIMMIN
 10
0.0
 20
0.0
  9
$LIMMAX
 10
297.0
 20
210.0
  9
$VIEWCTR
 10
148.5
 20
105.0
  9
$VIEWSIZE
 40
210.0
  9
$CLAYER
  8
0
  9
$LTSCALE
 40
16.335
  9
$CELTYPE
  6
BYLAYER
  9
$DIMSCALE
 40
1.0
  9
$DIMASZ
 40
3.0
  9
$DIMEXO
 40
0.5
  9
$DIMDLI
 40
11.286
  9
$DIMEXE
 40
1.5
  9
$DIMCEN
 40
2.673
  9
$DIMLFAC
 40
1.0
  9
$DIMBLK
  1
_FILLED
  9
$DIMALT
 70
0
  9
$DIMALTF
 40
0.0393700787
  9
$DIMTXT
 40
3.0
  9
$DIMTOL
 70
1
  9
$DIMLIM
 70
0
  9
$DIMTFAC
 40
1.0
  9
$DIMTP
 40
0.01
  9
$DIMTM
 40
0.01
  9
$DIMGAP
 40
0.625
  9
$DIMDSEP
 70
44
  9
$AUNITS
 70
0
  9
$PDMODE
 70
3
  9
$PDSIZE
 40
3.0
  9
$HANDSEED
  5
54C
  9
$TILEMODE
 70
1
  9
$MEASUREMENT
 70
1
  9
$INSUNITS
 70
4
  0
ENDSEC
  0
SECTION
  2
CLASSES
  0
CLASS
  1
ACDBDICTIONARYWDFLT
  2
AcDbDictionaryWithDefault
  3
AutoCAD 2000
 90
0
 91
1
280
0
281
0
  0
CLASS
  1
ACDBPLACEHOLDER
  2
AcDbPlaceHolder
  3
AutoCAD 2000
 90
0
 91
1
280
0
281
0
  0
CLASS
  1
LAYOUT
  2
AcDbLayout
  3
AutoCAD 2000
 90
0
 91
0
280
0
281
0
  0
ENDSEC
  0
SECTION
  2
TABLES
  0
TABLE
  2
VPORT
  5
8
100
AcDbSymbolTable
 70
2
  0
VPORT
  5
1F4
100
AcDbSymbolTableRecord
100
AcDbViewportTableRecord
  2
*ACTIVE
 70
0
 10
0.0
 20
0.0
 11
1.0
 21
1.0
 12
148.5
 22
105.0
 13
0.0
 23
0.0
 14
1.0
 24
1.0
 15
0.0
 25
0.0
 16
0.0
 26
0.0
 36
1.0
 17
0.0
 27
0.0
 37
0.0
 40
210.0
 41
1.4142857143
 42
50.0
 43
0.0
 44
0.0
 50
0.0
 51
0.0
 71
0
 72
100
 73
1
 74
1
 75
0
 76
0
 77
0
 78
0
  0
ENDTAB
  0
TABLE
  2
LTYPE
  5
5
100
AcDbSymbolTable
 70
6
  0
LTYPE
  5
14
100
AcDbSymbolTableRecord
100
AcDbLinetypeTableRecord
  2
BYBLOCK
 70
0
  3

 72
65
 73
0
 40
0.0
  0
LTYPE
  5
15
100
AcDbSymbolTableRecord
100
AcDbLinetypeTableRecord
  2
BYLAYER
 70
0
  3

 72
65
 73
0
 40
0.0
  0
LTYPE
  5
16
100
AcDbSymbolTableRecord
100
AcDbLinetypeTableRecord
  2
CONTINUOUS
 70
64
  3
Solid line
 72
65
 73
0
 40
0.0
  0
LTYPE
  5
1F5
100
AcDbSymbolTableRecord
100
AcDbLinetypeTableRecord
  2
CENTER
 70
64
  3
____ _ ____ _ ____ _ ____ _ ____ _ ____ _ ____
 72
65
 73
4
 40
0.6
 49
0.375
 74
0
 49
-0.075
 74
0
 49
0.075
 74
0
 49
-0.075
 74
0
  0
LTYPE
  5
1F6
100
AcDbSymbolTableRecord
100
AcDbLinetypeTableRecord
  2
HIDDEN
 70
64
  3
- - - - - - - - - - - - - - - - - - - -
 72
65
 73
2
 40
0.2
 49
0.1
 74
0
 49
-0.1
 74
0
  0
LTYPE
  5
1F7
100
AcDbSymbolTableRecord
100
AcDbLinetypeTableRecord
  2
PHANTOM
 70
64
  3
_____ _ _ _____ _ _ _____ _ _ _____
 72
65
 73
6
 40
0.8
 49
0.45
 74
0
 49
-0.05
 74
0
 49
0.1
 74
0
 49
-0.05
 74
0
 49
0.1
 74
0
 49
-0.05
 74
0
  0
LTYPE
  5
1F8
100
AcDbSymbolTableRecord
100
AcDbLinetypeTableRecord
  2
DOT
 70
64
  3
. . . . . . . . . . . . . . . . . . . .
 72
65
 73
2
 40
0.2
 49
0.1
 74
0
 49
-0.1
 74
0
  0
LTYPE
  5
1F9
100
AcDbSymbolTableRecord
100
AcDbLinetypeTableRecord
  2
DASHED
 70
64
  3
- - - - - - - - - - - - - - - - - - - -
 72
65
 73
2
 40
0.2
 49
0.1
 74
0
 49
-0.1
 74
0
  0
ENDTAB
  0
TABLE
  2
LAYER
  5
2
100
AcDbSymbolTable
 70
36
  0
LAYER
  5
10
100
AcDbSymbolTableRecord
100
AcDbLayerTableRecord
  2
0
 70
0
 62
7
  6
CONTINUOUS
370
-3
390
F
  0
LAYER
  5
1FA
100
AcDbSymbolTableRecord
100
AcDbLayerTableRecord
  2
DEFAULT_1
 70
0
 62
7
  6
CENTER
370
-3
390
F
  0
LAYER
  5
1FB
100
AcDbSymbolTableRecord
100
AcDbLayerTableRecord
  2
DEFAULT_2
 70
0
 62
7
  6
HIDDEN
370
-3
390
F
  0
LAYER
  5
1FC
100
AcDbSymbolTableRecord
100
AcDbLayerTableRecord
  2
DEFAULT_3
 70
0
 62
7
  6
PHANTOM
370
-3
390
F
  0
LAYER
  5
1FD
100
AcDbSymbolTableRecord
100
AcDbLayerTableRecord
  2
ASSI
 70
0
 62
7
  6
CONTINUOUS
370
-3
390
F
  0
LAYER
  5
1FE
100
AcDbSymbolTableRecord
100
AcDbLayerTableRecord
  2
COLOR5
 70
0
 62
7
  6
CONTINUOUS
370
-3
390
F
  0
LAYER
  5
1FF
100
AcDbSymbolTableRecord
100
AcDbLayerTableRecord
  2
COORDINATE
 70
0
 62
7
  6
CONTINUOUS
370
-3
390
F
  0
LAYER
  5
200
100
AcDbSymbolTableRecord
100
AcDbLayerTableRecord
  2
COORD_ORIGINE
 70
0
 62
7
  6
CONTINUOUS
370
-3
390
F
  0
LAYER
  5
201
100
AcDbSymbolTableRecord
100
AcDbLayerTableRecord
  2
COPY_PUBLISH
 70
0
 62
7
  6
CONTINUOUS
370
-3
390
F
  0
LAYER
  5
202
100
AcDbSymbolTableRecord
100
AcDbLayerTableRecord
  2
COSMETICI
 70
0
 62
7
  6
CONTINUOUS
370
-3
390
F
  0
LAYER
  5
203
100
AcDbSymbolTableRecord
100
AcDbLayerTableRecord
  2
CURVE
 70
0
 62
7
  6
CONTINUOUS
370
-3
390
F
  0
LAYER
  5
204
100
AcDbSymbolTableRecord
100
AcDbLayerTableRecord
  2
DRAFT
 70
0
 62
7
  6
CONTINUOUS
370
-3
390
F
  0
LAYER
  5
205
100
AcDbSymbolTableRecord
100
AcDbLayerTableRecord
  2
IMPORT_IGES
 70
0
 62
7
  6
CONTINUOUS
370
-3
390
F
  0
LAYER
  5
206
100
AcDbSymbolTableRecord
100
AcDbLayerTableRecord
  2
INTF_1
 70
0
 62
7
  6
CONTINUOUS
370
-3
390
F
  0
LAYER
  5
207
100
AcDbSymbolTableRecord
100
AcDbLayerTableRecord
  2
INTF_2
 70
0
 62
7
  6
CONTINUOUS
370
-3
390
F
  0
LAYER
  5
208
100
AcDbSymbolTableRecord
100
AcDbLayerTableRecord
  2
INTF_7
 70
0
 62
7
  6
CONTINUOUS
370
-3
390
F
  0
LAYER
  5
209
100
AcDbSymbolTableRecord
100
AcDbLayerTableRecord
  2
INTF_8
 70
0
 62
7
  6
CONTINUOUS
370
-3
390
F
  0
LAYER
  5
20A
100
AcDbSymbolTableRecord
100
AcDbLayerTableRecord
  2
NOTE
 70
0
 62
7
  6
CONTINUOUS
370
-3
390
F
  0
LAYER
  5
20B
100
AcDbSymbolTableRecord
100
AcDbLayerTableRecord
  2
PIANI
 70
0
 62
7
  6
CONTINUOUS
370
-3
390
F
  0
LAYER
  5
20C
100
AcDbSymbolTableRecord
100
AcDbLayerTableRecord
  2
PIANI_ORIGINE
 70
0
 62
7
  6
CONTINUOUS
370
-3
390
F
  0
LAYER
  5
20D
100
AcDbSymbolTableRecord
100
AcDbLayerTableRecord
  2
PUNTI
 70
0
 62
7
  6
CONTINUOUS
370
-3
390
F
  0
LAYER
  5
20E
100
AcDbSymbolTableRecord
100
AcDbLayerTableRecord
  2
RACCORDO
 70
0
 62
7
  6
CONTINUOUS
370
-3
390
F
  0
LAYER
  5
20F
100
AcDbSymbolTableRecord
100
AcDbLayerTableRecord
  2
RGB__255__255__255__
 70
0
 62
7
  6
CONTINUOUS
370
-3
390
F
  0
LAYER
  5
210
100
AcDbSymbolTableRecord
100
AcDbLayerTableRecord
  2
RGB____0____0____0__
 70
0
 62
7
  6
CONTINUOUS
370
-3
390
F
  0
LAYER
  5
211
100
AcDbSymbolTableRecord
100
AcDbLayerTableRecord
  2
SIMBOLI
 70
0
 62
7
  6
CONTINUOUS
370
-3
390
F
  0
LAYER
  5
212
100
AcDbSymbolTableRecord
100
AcDbLayerTableRecord
  2
SMUSSO
 70
0
 62
7
  6
CONTINUOUS
370
-3
390
F
  0
LAYER
  5
213
100
AcDbSymbolTableRecord
100
AcDbLayerTableRecord
  2
SNAPLINE
 70
0
 62
7
  6
CONTINUOUS
370
-3
390
F
  0
LAYER
  5
214
100
AcDbSymbolTableRecord
100
AcDbLayerTableRecord
  2
SUPERFICI
 70
0
 62
7
  6
CONTINUOUS
370
-3
390
F
  0
LAYER
  5
215
100
AcDbSymbolTableRecord
100
AcDbLayerTableRecord
  2
TRASH
 70
0
 62
7
  6
CONTINUOUS
370
-3
390
F
  0
LAYER
  5
216
100
AcDbSymbolTableRecord
100
AcDbLayerTableRecord
  2
XSEC_DATUMS
 70
0
 62
7
  6
CONTINUOUS
370
-3
390
F
  0
ENDTAB
  0
TABLE
  2
STYLE
  5
3
100
AcDbSymbolTable
 70
1
  0
STYLE
  5
11
100
AcDbSymbolTableRecord
100
AcDbTextStyleTableRecord
  2
STANDARD
 70
0
 40
0.0
 41
0.8
 50
0.0
 71
0
 42
0.2
  3
txt
  4

  0
STYLE
  5
217
100
AcDbSymbolTableRecord
100
AcDbTextStyleTableRecord
  2
TEXTSTYLE_1
 70
0
 40
0.0
 41
0.8
 50
0.0
 71
0
 42
0.2
  3
gdt
  4

  0
ENDTAB
  0
TABLE
  2
VIEW
  5
6
100
AcDbSymbolTable
 70
0
  0
ENDTAB
  0
TABLE
  2
UCS
  5
7
100
AcDbSymbolTable
 70
0
  0
ENDTAB
  0
TABLE
  2
APPID
  5
9
100
AcDbSymbolTable
 70
1
  0
APPID
  5
218
100
AcDbSymbolTableRecord
100
AcDbRegAppTableRecord
  2
ACAD
 70
0
  0
ENDTAB
  0
TABLE
  2
BLOCK_RECORD
  5
1
100
AcDbSymbolTable
 70
0
  0
BLOCK_RECORD
  5
219
100
AcDbSymbolTableRecord
100
AcDbBlockTableRecord
  2
*Model_Space
  0
BLOCK_RECORD
  5
21A
100
AcDbSymbolTableRecord
100
AcDbBlockTableRecord
  2
*Paper_Space
  0
BLOCK_RECORD
  5
21B
100
AcDbSymbolTableRecord
100
AcDbBlockTableRecord
  2
_FILLED
  0
ENDTAB
  0
TABLE
  2
DIMSTYLE
  5
A
100
AcDbSymbolTable
 70
1
100
AcDbDimStyleTable
 71
0
  0
DIMSTYLE
105
21C
100
AcDbSymbolTableRecord
100
AcDbDimStyleTableRecord
  2
STANDARD
 70
0
  3

  4

 40
1.0
 41
3.0
 42
0.5
 43
0.38
 44
1.5
 45
0.0
 46
0.0
 47
0.01
 48
0.01
140
3.0
141
0.09
142
0.0
143
25.4
144
1.0
145
0.0
146
1.0
147
0.625
 71
1
 72
0
 73
0
 74
0
 75
0
 76
0
 77
1
 78
8
 79
2
170
0
171
1
172
0
173
0
174
0
175
0
176
0
177
0
178
0
270
2
179
2
271
2
272
2
273
2
274
2
275
0
280
0
281
0
282
0
283
1
284
8
285
0
286
0
287
3
288
0
340
11
278
44
341
21B
342
21B
343
21B
344
21B
  0
ENDTAB
  0
ENDSEC
  0
SECTION
  2
BLOCKS
  0
BLOCK
  5
20
100
AcDbEntity
  8
0
100
AcDbBlockBegin
  2
*Model_Space
 70
0
 10
0.0
 20
0.0
 30
0.0
  3
*Model_Space
  1

  0
ENDBLK
  5
21
100
AcDbEntity
  8
0
100
AcDbBlockEnd
  0
BLOCK
  5
1C
100
AcDbEntity
  8
0
100
AcDbBlockBegin
  2
*Paper_Space
 70
0
 10
0.0
 20
0.0
 30
0.0
  3
*Paper_Space
  1

  0
ENDBLK
  5
1D
100
AcDbEntity
  8
0
100
AcDbBlockEnd
  0
BLOCK
  5
21D
100
AcDbEntity
  8
0
100
AcDbBlockBegin
  2
_FILLED
 70
64
 10
0.0
 20
0.0
  3
_FILLED
  1

  0
SOLID
  5
21E
100
AcDbEntity
  8
0
  6
BYBLOCK
 62
0
100
AcDbTrace
 10
0.0
 20
0.0
 11
-1.0
 21
0.3166666667
 12
-1.0
 22
-0.3166666667
 13
-1.0
 23
-0.3166666667
  0
ENDBLK
  5
21F
100
AcDbEntity
  8
0
  6
BYBLOCK
 62
0
100
AcDbBlockEnd
  0
ENDSEC
  0
SECTION
  2
ENTITIES
  0
LINE
  5
220
100
AcDbEntity
  8
DRAFT
100
AcDbLine
 62
7
  6
CONTINUOUS
 10
-43.5
 20
-44.4159437343
 11
-43.2242099741
 21
-44.6917337602
  0
LINE
  5
221
100
AcDbEntity
  8
DRAFT
100
AcDbLine
 62
7
  6
CONTINUOUS
 10
-49.0
 20
-38.9159437343
 11
-49.2757899725
 21
-38.6401537618
  0
LWPOLYLINE
  5
222
100
AcDbEntity
  8
0
100
AcDbPolyline
 62
250
  6
CONTINUOUS
 90
8
 70
0
 10
-50.4499217485
 20
-35.0353396703
 10
-50.4512321701
 20
-35.0333355306
 10
-50.4525312777
 20
-35.0257263289
 10
-50.4538190714
 20
-35.0125120651
 10
-50.4551043842
 20
-34.9936275826
 10
-50.456378383
 20
-34.9691380379
 10
-50.4576145688
 20
-34.9392389013
 10
-50.4588123654
 20
-34.9037601435
  0
LINE
  5
223
100
AcDbEntity
  8
DRAFT
100
AcDbLine
 62
7
  6
CONTINUOUS
 10
-49.0
 20
29.0840562657
 11
-49.2757899725
 21
28.8082662932
  0
LINE
  5
224
100
AcDbEntity
  8
DRAFT
100
AcDbLine
 62
7
  6
CONTINUOUS
 10
-43.5
 20
34.5840562657
 11
-43.2242099741
 21
34.8598462916
  0
LWPOLYLINE
  5
225
100
AcDbEntity
  8
0
100
AcDbPolyline
 62
7
  6
CONTINUOUS
 90
5
 70
0
 10
-50.2501264901
 20
-28.3255702099
 10
-50.2378825585
 20
-28.3391465223
 10
-50.1661341085
 20
-28.4078055126
 10
-50.086430392
 20
-28.4670422847
 10
-50.0
 20
-28.5159437343
  0
LWPOLYLINE
  5
226
100
AcDbEntity
  8
0
100
AcDbPolyline
 62
250
  6
CONTINUOUS
 90
7
 70
0
 10
-50.4499217156
 20
-27.7965477984
 10
-50.443771556
 20
-27.8956767042
 10
-50.4253864941
 20
-27.9932775905
 10
-50.3950499258
 20
-28.0878459907
 10
-50.3532294733
 20
-28.1779241821
 10
-50.300569777
 20
-28.2621236564
 10
-50.2501264901
 20
-28.3255702099
  0
LWPOLYLINE
  5
227
100
AcDbEntity
  8
0
100
AcDbPolyline
 62
7
  6
CONTINUOUS
 90
16
 70
0
 10
-50.3730280729
 20
-27.8393352756
 10
-50.3704969741
 20
-27.8896025087
 10
-50.3649046485
 20
-27.9395040454
 10
-50.3562345166
 20
-27.9890398858
 10
-50.3444938128
 20
-28.0383507805
 10
-50.3296757168
 20
-28.0872959788
 10
-50.3117255478
 20
-28.1354532289
 10
-50.2906597744
 20
-28.182809694
 10
-50.2664595982
 20
-28.2293782109
 10
-50.2389422007
 20
-28.2747750383
 10
-50.208070657
 20
-28.3190885331
 10
-50.17382556
 20
-28.3622303385
 10
-50.1359556849
 20
-28.4035516425
 10
-50.094331806
 20
-28.4428361745
 10
-50.0490113624
 20
-28.4803002051
 10
-50.0
 20
-28.5159437343
  0
LINE
  5
228
100
AcDbEntity
  8
0
100
AcDbLine
 62
250
  6
CONTINUOUS
 10
-50.4588123654
 20
-34.9037601435
 11
-50.46106975
 21
-34.8172794093
  0
LINE
  5
229
100
AcDbEntity
  8
0
100
AcDbLine
 62
250
  6
CONTINUOUS
 10
-50.46106975
 20
-34.8172794093
 11
-50.4630728921
 21
-34.7117396373
  0
LWPOLYLINE
  5
22A
100
AcDbEntity
  8
0
100
AcDbPolyline
 62
7
  6
CONTINUOUS
 90
17
 70
0
 10
-50.7897880096
 20
-10.6667197289
 10
-50.7828667461
 20
-11.305001414
 10
-50.7752237955
 20
-11.9156527581
 10
-50.7668682854
 20
-12.4990232239
 10
-50.7579067934
 20
-13.047671718
 10
-50.7483315569
 20
-13.5611534583
 10
-50.7381503384
 20
-14.0399132268
 10
-50.727493003
 20
-14.4778442758
 10
-50.7163534516
 20
-14.874423597
 10
-50.7047377832
 20
-15.2301741988
 10
-50.6927941598
 20
-15.5405583582
 10
-50.6805183802
 20
-15.8049949395
 10
-50.6679146456
 20
-16.0240650784
 10
-50.6551437209
 20
-16.1949744589
 10
-50.6422034645
 20
-16.3171061508
 10
-50.629096018
 20
-16.3910770843
 10
-50.6159885716
 20
-16.4159437343
  0
LINE
  5
22B
100
AcDbEntity
  8
0
100
AcDbLine
 62
250
  6
CONTINUOUS
 10
-50.4630728921
 20
-34.7117396373
 11
-50.4654906561
 21
-34.5243348023
  0
LWPOLYLINE
  5
22C
100
AcDbEntity
  8
0
100
AcDbPolyline
 62
7
  6
CONTINUOUS
 90
17
 70
0
 10
-50.4421891335
 20
0.8348322603
 10
-50.449110397
 20
1.4731139454
 10
-50.4567533477
 20
2.0837652894
 10
-50.4651088577
 20
2.6671357553
 10
-50.4740703498
 20
3.2157842493
 10
-50.4836455863
 20
3.7292659896
 10
-50.4938268048
 20
4.2080257582
 10
-50.5044841402
 20
4.6459568072
 10
-50.5156236916
 20
5.0425361284
 10
-50.52723936
 20
5.3982867302
 10
-50.5391829834
 20
5.7086708896
 10
-50.551458763
 20
5.9731074709
 10
-50.5640624976
 20
6.1921776098
 10
-50.5768334223
 20
6.3630869903
 10
-50.5897736787
 20
6.4852186822
 10
-50.6028811251
 20
6.5591896156
 10
-50.6159885716
 20
6.5840562657
  0
LINE
  5
22D
100
AcDbEntity
  8
0
100
AcDbLine
 62
7
  6
CONTINUOUS
 10
-50.8014136642
 20
-9.3168032065
 11
-50.7897880096
 21
-10.6667197289
  0
LINE
  5
22E
100
AcDbEntity
  8
0
100
AcDbLine
 62
7
  6
CONTINUOUS
 10
-50.4305634789
 20
-0.5150842621
 11
-50.4421891335
 21
0.8348322603
  0
LINE
  5
22F
100
AcDbEntity
  8
0
100
AcDbLine
 62
250
  6
CONTINUOUS
 10
-50.4654906561
 20
-34.5243348023
 11
-50.4670909979
 21
-34.3125662826
  0
LINE
  5
230
100
AcDbEntity
  8
0
100
AcDbLine
 62
7
  6
CONTINUOUS
 10
-50.80985202
 20
-7.8912396727
 11
-50.8014136642
 21
-9.3168032065
  0
LINE
  5
231
100
AcDbEntity
  8
0
100
AcDbLine
 62
7
  6
CONTINUOUS
 10
-50.4221251231
 20
-1.9406477959
 11
-50.4305634789
 21
-0.5150842621
  0
LINE
  5
232
100
AcDbEntity
  8
0
100
AcDbLine
 62
7
  6
CONTINUOUS
 10
-50.814960803
 20
-6.4212159736
 11
-50.80985202
 21
-7.8912396727
  0
LINE
  5
233
100
AcDbEntity
  8
0
100
AcDbLine
 62
7
  6
CONTINUOUS
 10
-50.4170163402
 20
-3.4106714951
 11
-50.4221251231
 21
-1.9406477959
  0
LINE
  5
234
100
AcDbEntity
  8
0
100
AcDbLine
 62
7
  6
CONTINUOUS
 10
-50.8166912456
 20
-4.9159437343
 11
-50.814960803
 21
-6.4212159736
  0
LINE
  5
235
100
AcDbEntity
  8
0
100
AcDbLine
 62
250
  6
CONTINUOUS
 10
-50.4670909979
 20
-34.3125662826
 11
-50.4678629402
 21
-34.0159437343
  0
LINE
  5
236
100
AcDbEntity
  8
0
100
AcDbLine
 62
7
  6
CONTINUOUS
 10
-50.4152858976
 20
-4.9159437343
 11
-50.4170163402
 21
-3.4106714951
  0
LINE
  5
237
100
AcDbEntity
  8
DRAFT
100
AcDbLine
 62
7
  6
CONTINUOUS
 10
-51.0
 20
30.5840562657
 11
-51.0
 21
-40.4159437343
  0
LINE
  5
238
100
AcDbEntity
  8
0
100
AcDbLine
 62
250
  6
CONTINUOUS
 10
-50.3730280729
 20
30.5840562657
 11
-50.3730280729
 21
-27.8393415928
  0
LINE
  5
239
100
AcDbEntity
  8
0
100
AcDbLine
 62
250
  6
CONTINUOUS
 10
-50.3730280729
 20
-34.9925458714
 11
-50.3730280729
 21
-40.4159437343
  0
LINE
  5
23A
100
AcDbEntity
  8
0
100
AcDbLine
 62
7
  6
CONTINUOUS
 10
-50.0
 20
-28.5159437343
 11
-50.0
 21
-34.3159437343
  0
LINE
  5
23B
100
AcDbEntity
  8
0
100
AcDbLine
 62
7
  6
CONTINUOUS
 10
-50.814960803
 20
-3.4106714951
 11
-50.8166912456
 21
-4.9159437343
  0
LINE
  5
23C
100
AcDbEntity
  8
0
100
AcDbLine
 62
7
  6
CONTINUOUS
 10
-50.4170163402
 20
-6.4212159736
 11
-50.4152858976
 21
-4.9159437343
  0
LINE
  5
23D
100
AcDbEntity
  8
0
100
AcDbLine
 62
250
  6
CONTINUOUS
 10
-50.4678629402
 20
-34.0159437343
 11
-50.4674317524
 21
-28.592880189
  0
LINE
  5
23E
100
AcDbEntity
  8
0
100
AcDbLine
 62
7
  6
CONTINUOUS
 10
-50.80985202
 20
-1.9406477959
 11
-50.814960803
 21
-3.4106714951
  0
LINE
  5
23F
100
AcDbEntity
  8
0
100
AcDbLine
 62
7
  6
CONTINUOUS
 10
-50.4221251231
 20
-7.8912396727
 11
-50.4170163402
 21
-6.4212159736
  0
LINE
  5
240
100
AcDbEntity
  8
0
100
AcDbLine
 62
7
  6
CONTINUOUS
 10
-50.8014136642
 20
-0.5150842621
 11
-50.80985202
 21
-1.9406477959
  0
LINE
  5
241
100
AcDbEntity
  8
0
100
AcDbLine
 62
7
  6
CONTINUOUS
 10
-50.4305634789
 20
-9.3168032065
 11
-50.4221251231
 21
-7.8912396727
  0
LINE
  5
242
100
AcDbEntity
  8
0
100
AcDbLine
 62
250
  6
CONTINUOUS
 10
-50.4674317524
 20
-28.592880189
 11
-50.4661216497
 21
-28.3760738065
  0
LINE
  5
243
100
AcDbEntity
  8
0
100
AcDbLine
 62
250
  6
CONTINUOUS
 10
-50.4661216497
 20
-28.3760738065
 11
-50.4639648879
 21
-28.1791331506
  0
LINE
  5
244
100
AcDbEntity
  8
0
100
AcDbLine
 62
250
  6
CONTINUOUS
 10
-50.4639648879
 20
-28.1791331506
 11
-50.4621065531
 21
-28.0652320152
  0
LWPOLYLINE
  5
245
100
AcDbEntity
  8
0
100
AcDbPolyline
 62
250
  6
CONTINUOUS
 90
8
 70
0
 10
-38.119395936
 20
36.0339780141
 10
-38.1173922733
 20
36.0352885532
 10
-38.1097812694
 20
36.0365878093
 10
-38.0965629243
 20
36.0378757824
 10
-38.0776717726
 20
36.0391613291
 10
-38.0531732796
 20
36.0404355929
 10
-38.0232638417
 20
36.0416720045
 10
-37.9877724809
 20
36.0428699774
  0
LINE
  5
246
100
AcDbEntity
  8
RACCORDO
100
AcDbLine
 62
7
  6
CONTINUOUS
 10
-49.2757899725
 20
-38.6401537618
 11
-49.2757899725
 21
-40.4159437343
  0
LINE
  5
247
100
AcDbEntity
  8
RACCORDO
100
AcDbLine
 62
7
  6
CONTINUOUS
 10
-49.2757899725
 20
28.8082662932
 11
-49.2757899725
 21
30.5840562657
  0
LINE
  5
248
100
AcDbEntity
  8
RACCORDO
100
AcDbLine
 62
250
  6
CONTINUOUS
 10
-49.2731956082
 20
28.8082662398
 11
-49.2731956082
 21
-38.6401537084
  0
LINE
  5
249
100
AcDbEntity
  8
DRAFT
100
AcDbLine
 62
7
  6
CONTINUOUS
 10
-49.0
 20
-38.9159437343
 11
-49.0
 21
-40.4159437343
  0
LINE
  5
24A
100
AcDbEntity
  8
DRAFT
100
AcDbLine
 62
7
  6
CONTINUOUS
 10
-49.0
 20
29.0840562657
 11
-49.0
 21
30.5840562657
  0
LWPOLYLINE
  5
24B
100
AcDbEntity
  8
0
100
AcDbPolyline
 62
250
  6
CONTINUOUS
 90
10
 70
0
 10
-50.4621065531
 20
-28.0652320152
 10
-50.4599762061
 20
-27.9691664581
 10
-50.4588158229
 20
-27.9282404803
 10
-50.4576175308
 20
-27.8927280602
 10
-50.4563807264
 20
-27.8628019106
 10
-50.4551060132
 20
-27.8382893187
 10
-50.4538200891
 20
-27.8193878545
 10
-50.4525318532
 20
-27.8061633747
 10
-50.4512324063
 20
-27.7985500226
 10
-50.4499217485
 20
-27.7965477983
  0
LWPOLYLINE
  5
24C
100
AcDbEntity
  8
0
100
AcDbPolyline
 62
250
  6
CONTINUOUS
 90
7
 70
0
 10
-50.4499333541
 20
-35.0353396699
 10
-50.4437810948
 20
-34.9362106087
 10
-50.4253940369
 20
-34.8386098005
 10
-50.3950556036
 20
-34.7440416787
 10
-50.3532334382
 20
-34.6539639305
 10
-50.3005721962
 20
-34.5697650282
 10
-50.2616130488
 20
-34.5196427391
  0
LWPOLYLINE
  5
24D
100
AcDbEntity
  8
0
100
AcDbPolyline
 62
7
  6
CONTINUOUS
 90
18
 70
0
 10
-50.6159885716
 20
6.5840562657
 10
-50.629096018
 20
6.5591896156
 10
-50.6422034645
 20
6.4852186822
 10
-50.6551437209
 20
6.3630869903
 10
-50.6679146456
 20
6.1921776098
 10
-50.6805183802
 20
5.9731074709
 10
-50.6927941598
 20
5.7086708896
 10
-50.7047377832
 20
5.3982867302
 10
-50.7163534516
 20
5.0425361284
 10
-50.727493003
 20
4.6459568072
 10
-50.7381503384
 20
4.2080257582
 10
-50.7483315569
 20
3.7292659896
 10
-50.7579067934
 20
3.2157842493
 10
-50.7668682854
 20
2.6671357553
 10
-50.7752237955
 20
2.0837652894
 10
-50.7828667461
 20
1.4731139454
 10
-50.7897880096
 20
0.8348322603
 10
-50.8014136642
 20
-0.5150842621
  0
LWPOLYLINE
  5
24E
100
AcDbEntity
  8
0
100
AcDbPolyline
 62
7
  6
CONTINUOUS
 90
5
 70
0
 10
-31.408874807
 20
35.834844399
 10
-31.423202788
 20
35.8219388242
 10
-31.4918617783
 20
35.7501903742
 10
-31.5510985504
 20
35.6704866577
 10
-31.6
 20
35.5840562657
  0
LWPOLYLINE
  5
24F
100
AcDbEntity
  8
0
100
AcDbPolyline
 62
250
  6
CONTINUOUS
 90
7
 70
0
 10
30.8806040641
 20
-45.8658654499
 10
30.9797329699
 20
-45.8597152904
 10
31.0773338562
 20
-45.8413302284
 10
31.1719022564
 20
-45.8109936601
 10
31.2619804478
 20
-45.7691732076
 10
31.346179922
 20
-45.7165135113
 10
31.408874807
 20
-45.6667318676
  0
LWPOLYLINE
  5
250
100
AcDbEntity
  8
0
100
AcDbPolyline
 62
7
  6
CONTINUOUS
 90
16
 70
0
 10
30.9233915413
 20
-45.7889718072
 10
30.973658803
 20
-45.7864407061
 10
31.0235603626
 20
-45.7808483754
 10
31.0730962199
 20
-45.7721782369
 10
31.1224071251
 20
-45.7604375258
 10
31.1713523282
 20
-45.7456194228
 10
31.219509579
 20
-45.7276692477
 10
31.2668660403
 20
-45.7066034699
 10
31.3134345495
 20
-45.6824032915
 10
31.3588313681
 20
-45.6548858934
 10
31.4031448541
 20
-45.6240143501
 10
31.4462866496
 20
-45.5897692553
 10
31.4876079431
 20
-45.551899385
 10
31.5268924641
 20
-45.5102755142
 10
31.5643564831
 20
-45.4649550818
 10
31.6
 20
-45.4159437343
  0
LINE
  5
251
100
AcDbEntity
  8
0
100
AcDbLine
 62
250
  6
CONTINUOUS
 10
37.9877724809
 20
-45.874757446
 11
37.9012662548
 21
-45.8770150252
  0
LINE
  5
252
100
AcDbEntity
  8
0
100
AcDbLine
 62
250
  6
CONTINUOUS
 10
37.9012662548
 20
-45.8770150252
 11
37.7957117065
 21
-45.8790179908
  0
LINE
  5
253
100
AcDbEntity
  8
0
100
AcDbLine
 62
250
  6
CONTINUOUS
 10
37.7957117065
 20
-45.8790179908
 11
37.6083194091
 21
-45.8814351198
  0
LINE
  5
254
100
AcDbEntity
  8
0
100
AcDbLine
 62
7
  6
CONTINUOUS
 10
5.7507759946
 20
-46.2057317439
 11
4.4008594722
 21
-46.2173573985
  0
LINE
  5
255
100
AcDbEntity
  8
0
100
AcDbLine
 62
7
  6
CONTINUOUS
 10
-5.7507759946
 20
-45.8581328678
 11
-4.4008594722
 21
-45.8465072132
  0
LINE
  5
256
100
AcDbEntity
  8
0
100
AcDbLine
 62
250
  6
CONTINUOUS
 10
37.6083194091
 20
-45.8814351198
 11
37.3965924537
 21
-45.8830349089
  0
LINE
  5
257
100
AcDbEntity
  8
0
100
AcDbLine
 62
7
  6
CONTINUOUS
 10
4.4008594722
 20
-46.2173573985
 11
2.9752959384
 21
-46.2257957543
  0
LINE
  5
258
100
AcDbEntity
  8
0
100
AcDbLine
 62
7
  6
CONTINUOUS
 10
-4.4008594722
 20
-45.8465072132
 11
-2.9752959384
 21
-45.8380688574
  0
LINE
  5
259
100
AcDbEntity
  8
0
100
AcDbLine
 62
7
  6
CONTINUOUS
 10
2.9752959384
 20
-46.2257957543
 11
1.5052722393
 21
-46.2309045373
  0
LINE
  5
25A
100
AcDbEntity
  8
0
100
AcDbLine
 62
7
  6
CONTINUOUS
 10
-2.9752959384
 20
-45.8380688574
 11
-1.5052722393
 21
-45.8329600745
  0
LINE
  5
25B
100
AcDbEntity
  8
0
100
AcDbLine
 62
7
  6
CONTINUOUS
 10
1.5052722393
 20
-46.2309045373
 11
-0.0
 21
-46.2326349799
  0
LINE
  5
25C
100
AcDbEntity
  8
0
100
AcDbLine
 62
250
  6
CONTINUOUS
 10
37.3965924537
 20
-45.8830349089
 11
37.1
 21
-45.8838066745
  0
LINE
  5
25D
100
AcDbEntity
  8
0
100
AcDbLine
 62
7
  6
CONTINUOUS
 10
-1.5052722393
 20
-45.8329600745
 11
-0.0
 21
-45.8312296319
  0
LINE
  5
25E
100
AcDbEntity
  8
DRAFT
100
AcDbLine
 62
7
  6
CONTINUOUS
 10
-45.0
 20
-46.4159437343
 11
45.0
 21
-46.4159437343
  0
LINE
  5
25F
100
AcDbEntity
  8
0
100
AcDbLine
 62
250
  6
CONTINUOUS
 10
-45.0
 20
-45.7889718072
 11
30.9233978585
 21
-45.7889718072
  0
LINE
  5
260
100
AcDbEntity
  8
0
100
AcDbLine
 62
250
  6
CONTINUOUS
 10
38.0766021371
 20
-45.7889718072
 11
45.0
 21
-45.7889718072
  0
LINE
  5
261
100
AcDbEntity
  8
0
100
AcDbLine
 62
7
  6
CONTINUOUS
 10
31.6
 20
-45.4159437343
 11
37.4
 21
-45.4159437343
  0
LINE
  5
262
100
AcDbEntity
  8
0
100
AcDbLine
 62
7
  6
CONTINUOUS
 10
-0.0
 20
-46.2326349799
 11
-1.5052722393
 21
-46.2309045373
  0
LINE
  5
263
100
AcDbEntity
  8
0
100
AcDbLine
 62
7
  6
CONTINUOUS
 10
-0.0
 20
-45.8312296319
 11
1.5052722393
 21
-45.8329600745
  0
LINE
  5
264
100
AcDbEntity
  8
0
100
AcDbLine
 62
250
  6
CONTINUOUS
 10
37.1
 20
-45.8838066745
 11
31.6768993984
 21
-45.8833753433
  0
LINE
  5
265
100
AcDbEntity
  8
0
100
AcDbLine
 62
7
  6
CONTINUOUS
 10
-1.5052722393
 20
-46.2309045373
 11
-2.9752959384
 21
-46.2257957543
  0
LINE
  5
266
100
AcDbEntity
  8
0
100
AcDbLine
 62
7
  6
CONTINUOUS
 10
1.5052722393
 20
-45.8329600745
 11
2.9752959384
 21
-45.8380688574
  0
LINE
  5
267
100
AcDbEntity
  8
0
100
AcDbLine
 62
7
  6
CONTINUOUS
 10
-2.9752959384
 20
-46.2257957543
 11
-4.4008594722
 21
-46.2173573985
  0
LINE
  5
268
100
AcDbEntity
  8
0
100
AcDbLine
 62
7
  6
CONTINUOUS
 10
2.9752959384
 20
-45.8380688574
 11
4.4008594722
 21
-45.8465072132
  0
LINE
  5
269
100
AcDbEntity
  8
0
100
AcDbLine
 62
250
  6
CONTINUOUS
 10
31.6768993984
 20
-45.8833753433
 11
31.4600264328
 21
-45.8820645196
  0
LWPOLYLINE
  5
26A
100
AcDbEntity
  8
0
100
AcDbPolyline
 62
7
  6
CONTINUOUS
 90
18
 70
0
 10
-4.4008594722
 20
-46.2173573985
 10
-5.7507759946
 20
-46.2057317439
 10
-6.3890576797
 20
-46.1988104804
 10
-6.9997090237
 20
-46.1911675298
 10
-7.5830794896
 20
-46.1828120197
 10
-8.1317279836
 20
-46.1738505277
 10
-8.6452097239
 20
-46.1642752912
 10
-9.1239694925
 20
-46.1540940727
 10
-9.5619005415
 20
-46.1434367373
 10
-9.9584798627
 20
-46.1322971859
 10
-10.3142304645
 20
-46.1206815175
 10
-10.6246146239
 20
-46.1087378941
 10
-10.8890512052
 20
-46.0964621145
 10
-11.1081213441
 20
-46.0838583799
 10
-11.2790307246
 20
-46.0710874552
 10
-11.4011624165
 20
-46.0581471988
 10
-11.4751333499
 20
-46.0450397523
 10
-11.5
 20
-46.0319323059
  0
LWPOLYLINE
  5
26B
100
AcDbEntity
  8
0
100
AcDbPolyline
 62
7
  6
CONTINUOUS
 90
18
 70
0
 10
4.4008594722
 20
-45.8465072132
 10
5.7507759946
 20
-45.8581328678
 10
6.3890576797
 20
-45.8650541313
 10
6.9997090237
 20
-45.872697082
 10
7.5830794896
 20
-45.881052592
 10
8.1317279836
 20
-45.8900140841
 10
8.6452097239
 20
-45.8995893206
 10
9.1239694925
 20
-45.9097705391
 10
9.5619005415
 20
-45.9204278745
 10
9.9584798627
 20
-45.9315674259
 10
10.3142304645
 20
-45.9431830943
 10
10.6246146239
 20
-45.9551267177
 10
10.8890512052
 20
-45.9674024973
 10
11.1081213441
 20
-45.9800062319
 10
11.2790307246
 20
-45.9927771566
 10
11.4011624165
 20
-46.005717413
 10
11.4751333499
 20
-46.0188248594
 10
11.5
 20
-46.0319323059
  0
LWPOLYLINE
  5
26C
100
AcDbEntity
  8
0
100
AcDbPolyline
 62
250
  6
CONTINUOUS
 90
3
 70
0
 10
31.4600264328
 20
-45.8820645196
 10
31.2630502004
 20
-45.8799066786
 10
31.2042925094
 20
-45.8790180589
  0
LWPOLYLINE
  5
26D
100
AcDbEntity
  8
0
100
AcDbPolyline
 62
250
  6
CONTINUOUS
 90
10
 70
0
 10
-50.4499217485
 20
-27.7965477983
 10
-50.441295107
 20
-27.8008062852
 10
-50.432689154
 20
-27.8051872898
 10
-50.4241038895
 20
-27.8096908121
 10
-50.4155392647
 20
-27.8143147495
 10
-50.4069953283
 20
-27.8190612045
 10
-50.3984722264
 20
-27.8239364856
 10
-50.3899700075
 20
-27.8289426953
 10
-50.381488623
 20
-27.8340777311
 10
-50.3730280729
 20
-27.8393415928
  0
LINE
  5
26E
100
AcDbEntity
  8
DRAFT
100
AcDbLine
 62
250
  6
CONTINUOUS
 10
-45.0
 20
29.0840562657
 11
-45.0
 21
28.8082662398
  0
LINE
  5
26F
100
AcDbEntity
  8
DRAFT
100
AcDbLine
 62
250
  6
CONTINUOUS
 10
-45.0
 20
-38.9159437343
 11
-45.0
 21
-38.6401537084
  0
LINE
  5
270
100
AcDbEntity
  8
RACCORDO
100
AcDbLine
 62
250
  6
CONTINUOUS
 10
-45.0
 20
-44.4159437343
 11
-45.0
 21
-46.4159437343
  0
LINE
  5
271
100
AcDbEntity
  8
RACCORDO
100
AcDbLine
 62
250
  6
CONTINUOUS
 10
-45.0
 20
34.5840562657
 11
-45.0
 21
36.5840562657
  0
LINE
  5
272
100
AcDbEntity
  8
DRAFT
100
AcDbLine
 62
7
  6
CONTINUOUS
 10
-43.5
 20
34.5840562657
 11
-43.5
 21
30.5840562657
  0
LINE
  5
273
100
AcDbEntity
  8
DRAFT
100
AcDbLine
 62
7
  6
CONTINUOUS
 10
-43.5
 20
-44.4159437343
 11
-43.5
 21
-40.4159437343
  0
LINE
  5
274
100
AcDbEntity
  8
DRAFT
100
AcDbLine
 62
7
  6
CONTINUOUS
 10
-43.2242099741
 20
34.8572518739
 11
-43.2242099741
 21
30.5840562657
  0
LINE
  5
275
100
AcDbEntity
  8
DRAFT
100
AcDbLine
 62
7
  6
CONTINUOUS
 10
-43.2242099741
 20
-44.6891393425
 11
-43.2242099741
 21
-40.4159437343
  0
LWPOLYLINE
  5
276
100
AcDbEntity
  8
0
100
AcDbPolyline
 62
250
  6
CONTINUOUS
 90
10
 70
0
 10
-30.880604064
 20
36.0339780141
 10
-30.8848625509
 20
36.0253513727
 10
-30.8892435555
 20
36.0167454197
 10
-30.8937470778
 20
36.0081601552
 10
-30.8983710152
 20
35.9995955304
 10
-30.9031174702
 20
35.991051594
 10
-30.9079927513
 20
35.9825284921
 10
-30.912998961
 20
35.9740262732
 10
-30.9181339968
 20
35.9655448887
 10
-30.9233978585
 20
35.9570843386
  0
LWPOLYLINE
  5
277
100
AcDbEntity
  8
RACCORDO
100
AcDbPolyline
 62
250
  6
CONTINUOUS
 90
14
 70
0
 10
-13.2306563413
 20
38.6032885533
 10
-13.2553630748
 20
38.5934975141
 10
-13.255369705
 20
38.5829366166
 10
-13.2278026906
 20
38.5723960789
 10
-13.1728741175
 20
38.561910158
 10
-13.0907544712
 20
38.5514879734
 10
-12.9814686333
 20
38.541132625
 10
-12.844996965
 20
38.5308538704
 10
-12.6816642906
 20
38.5206855077
 10
-12.492091023
 20
38.5106662365
 10
-12.2769960466
 20
38.5008275443
 10
-12.0366908881
 20
38.4911779676
 10
-11.771274175
 20
38.4817214024
 10
-11.1664154588
 20
38.4634482051
  0
LWPOLYLINE
  5
278
100
AcDbEntity
  8
RACCORDO
100
AcDbPolyline
 62
250
  6
CONTINUOUS
 90
14
 70
0
 10
-11.6029478427
 20
40.3291389699
 10
-11.6245070891
 20
40.3206341873
 10
-11.6241849012
 20
40.310968696
 10
-11.5975265094
 20
40.301322702
 10
-11.5447355019
 20
40.2917289731
 10
-11.4659827773
 20
40.2821979814
 10
-11.3613102828
 20
40.272734812
 10
-11.2307234976
 20
40.2633503547
 10
-11.0745575014
 20
40.2540770455
 10
-10.8934338171
 20
40.2449517919
 10
-10.6880761014
 20
40.2360050324
 10
-10.4588172465
 20
40.2272459823
 10
-10.2057797442
 20
40.2186793283
 10
-9.6297565967
 20
40.2021839713
  0
LWPOLYLINE
  5
279
100
AcDbEntity
  8
RACCORDO
100
AcDbPolyline
 62
250
  6
CONTINUOUS
 90
12
 70
0
 10
-9.8566649333
 20
42.1670615042
 10
-9.8747660933
 20
42.1599938724
 10
-9.874373019
 20
42.1513943182
 10
-9.8493671663
 20
42.1427964672
 10
-9.7996413733
 20
42.134209503
 10
-9.7252584537
 20
42.1256675142
 10
-9.6265642215
 20
42.1172102835
 10
-9.5040751963
 20
42.1088705301
 10
-9.3580505421
 20
42.1006566412
 10
-9.1885465643
 20
42.0925717265
 10
-8.9956319706
 20
42.084625573
 10
-8.5424391979
 20
42.0692799533
  0
LWPOLYLINE
  5
27A
100
AcDbEntity
  8
0
100
AcDbPolyline
 62
7
  6
CONTINUOUS
 90
13
 70
0
 10
-5.9872670073
 20
44.5055990785
 10
-5.9980733731
 20
44.5013956213
 10
-5.9980733731
 20
44.4961657929
 10
-5.9832227831
 20
44.4909553873
 10
-5.9534110239
 20
44.485764549
 10
-5.9087486747
 20
44.4805931335
 10
-5.8495674731
 20
44.4754795524
 10
-5.7757593101
 20
44.4704242363
 10
-5.6874322948
 20
44.4654267545
 10
-5.5852424919
 20
44.4605242268
 10
-5.4690866775
 20
44.4557173602
 10
-5.3390680756
 20
44.4510054477
 10
-5.0402436859
 20
44.4419724481
  0
LWPOLYLINE
  5
27B
100
AcDbEntity
  8
RACCORDO
100
AcDbPolyline
 62
250
  6
CONTINUOUS
 90
12
 70
0
 10
-8.1103821128
 20
43.9380069191
 10
-8.1249731585
 20
43.9324038986
 10
-8.1247383769
 20
43.9249728945
 10
-8.1021705227
 20
43.9175445711
 10
-8.0571841342
 20
43.9101291779
 10
-7.989849716
 20
43.9027576665
 10
-7.9004930747
 20
43.895465709
 10
-7.7895984668
 20
43.8882830995
 10
-7.6574296715
 20
43.881219123
 10
-7.504074804
 20
43.8742784937
 10
-7.3296350103
 20
43.8674714338
 10
-6.9202926879
 20
43.8543772393
  0
LWPOLYLINE
  5
27C
100
AcDbEntity
  8
RACCORDO
100
AcDbPolyline
 62
250
  6
CONTINUOUS
 90
11
 70
0
 10
-3.8694092543
 20
45.6319544506
 10
-3.8761810479
 20
45.6294057611
 10
-3.8753250683
 20
45.6252049839
 10
-3.8595653656
 20
45.6210183567
 10
-3.8290780315
 20
45.6168685528
 10
-3.7840204692
 20
45.6127645873
 10
-3.7244592314
 20
45.6087123557
 10
-3.6504477333
 20
45.6047214908
 10
-3.5623023411
 20
45.6008138971
 10
-3.4605577042
 20
45.597013329
 10
-3.2184400229
 20
45.5897995705
  0
LWPOLYLINE
  5
27D
100
AcDbEntity
  8
0
100
AcDbPolyline
 62
7
  6
CONTINUOUS
 90
11
 70
0
 10
-0.9978905893
 20
46.3996243066
 10
-0.9991191665
 20
46.3991970743
 10
-0.9991191665
 20
46.3977855815
 10
-0.9927088741
 20
46.3963876727
 10
-0.9797641084
 20
46.3950036112
 10
-0.9604090503
 20
46.3936331338
 10
-0.9350162427
 20
46.3923026193
 10
-0.9034687216
 20
46.3910128416
 10
-0.865883451
 20
46.3897630268
 10
-0.8229838659
 20
46.388577231
 10
-0.7210358529
 20
46.3864001769
  0
LINE
  5
27E
100
AcDbEntity
  8
RACCORDO
100
AcDbLine
 62
7
  6
CONTINUOUS
 10
-45.0
 20
-44.6917337068
 11
-43.2242100275
 21
-44.6917337068
  0
LINE
  5
27F
100
AcDbEntity
  8
RACCORDO
100
AcDbLine
 62
7
  6
CONTINUOUS
 10
45.0
 20
-44.6917337068
 11
43.2242100275
 21
-44.6917337068
  0
LINE
  5
280
100
AcDbEntity
  8
RACCORDO
100
AcDbLine
 62
250
  6
CONTINUOUS
 10
-43.2242099741
 20
-44.6891393425
 11
43.2242099741
 21
-44.6891393425
  0
LINE
  5
281
100
AcDbEntity
  8
DRAFT
100
AcDbLine
 62
7
  6
CONTINUOUS
 10
-45.0
 20
-44.4159437343
 11
-43.5
 21
-44.4159437343
  0
LINE
  5
282
100
AcDbEntity
  8
DRAFT
100
AcDbLine
 62
7
  6
CONTINUOUS
 10
45.0
 20
-44.4159437343
 11
43.5
 21
-44.4159437343
  0
LINE
  5
283
100
AcDbEntity
  8
0
100
AcDbLine
 62
250
  6
CONTINUOUS
 10
31.2042925094
 20
-45.8790180589
 11
31.0987371009
 21
-45.8770151
  0
LWPOLYLINE
  5
284
100
AcDbEntity
  8
0
100
AcDbPolyline
 62
250
  6
CONTINUOUS
 90
9
 70
0
 10
31.0987371009
 20
-45.8770151
 10
31.0122294961
 20
-45.8747575042
 10
30.9767374976
 20
-45.873559522
 10
30.9468276152
 20
-45.8723231057
 10
30.922328787
 20
-45.8710488384
 10
30.9034373809
 20
-45.8697632859
 10
30.8902188531
 20
-45.8684753034
 10
30.8826077474
 20
-45.8671760357
 10
30.880604064
 20
-45.8658654828
  0
LWPOLYLINE
  5
285
100
AcDbEntity
  8
0
100
AcDbPolyline
 62
250
  6
CONTINUOUS
 90
7
 70
0
 10
38.1193959356
 20
-45.8658769108
 10
38.0202668465
 20
-45.8597245857
 10
37.9226660227
 20
-45.8413374899
 10
37.8280978962
 20
-45.8109990444
 10
37.7380201527
 20
-45.7691768902
 10
37.6538212623
 20
-45.7165156792
 10
37.6044767013
 20
-45.6782113512
  0
LWPOLYLINE
  5
286
100
AcDbEntity
  8
0
100
AcDbPolyline
 62
7
  6
CONTINUOUS
 90
10
 70
0
 10
-36.4160718603
 20
-3.7834127343
 10
-36.41854856
 20
-3.6992784048
 10
-36.4169008989
 20
-3.6177543581
 10
-36.4111288771
 20
-3.538840594
 10
-36.4013556975
 20
-3.4622014269
 10
-36.3874581572
 20
-3.3881725424
 10
-36.3690666474
 20
-3.3177609983
 10
-36.3460579652
 20
-3.2513024805
 10
-36.3185553135
 20
-3.188461303
 10
-36.2865586922
 20
-3.1292374658
  0
LINE
  5
287
100
AcDbEntity
  8
0
100
AcDbLine
 62
7
  6
CONTINUOUS
 10
-37.965387
 20
-5.0310327343
 11
-37.965387
 21
-6.4920647343
  0
LINE
  5
288
100
AcDbEntity
  8
0
100
AcDbLine
 62
7
  6
CONTINUOUS
 10
-37.693534
 20
-6.2089547343
 11
-37.693534
 21
-5.0310327343
  0
LINE
  5
289
100
AcDbEntity
  8
0
100
AcDbLine
 62
250
  6
CONTINUOUS
 10
-37.1
 20
36.0519192059
 11
-37.1
 21
35.5840562657
  0
LWPOLYLINE
  5
28A
100
AcDbEntity
  8
0
100
AcDbPolyline
 62
7
  6
CONTINUOUS
 90
16
 70
0
 10
-37.7437946685
 20
-3.5229470658
 10
-37.7409760009
 20
-3.4585150429
 10
-37.7338167285
 20
-3.3973752134
 10
-37.7223168514
 20
-3.3395275774
 10
-37.7065718705
 20
-3.2844102209
 10
-37.6864862849
 20
-3.2325850577
 10
-37.6617735917
 20
-3.1857378299
 10
-37.6323693602
 20
-3.144541096
 10
-37.5983380211
 20
-3.1083222973
 10
-37.5595863641
 20
-3.0767495001
 10
-37.5156903822
 20
-3.0497411761
 10
-37.4670740822
 20
-3.0273788534
 10
-37.4149162739
 20
-3.0095751833
 10
-37.3596098937
 20
-2.9963010493
 10
-37.3007620052
 20
-2.9875855679
 10
-37.2383726082
 20
-2.9834287389
  0
LWPOLYLINE
  5
28B
100
AcDbEntity
  8
0
100
AcDbPolyline
 62
7
  6
CONTINUOUS
 90
18
 70
0
 10
-50.6159885716
 20
-16.4159437343
 10
-50.6028811251
 20
-16.3910770843
 10
-50.5897736787
 20
-16.3171061508
 10
-50.5768334223
 20
-16.1949744589
 10
-50.5640624976
 20
-16.0240650784
 10
-50.551458763
 20
-15.8049949395
 10
-50.5391829834
 20
-15.5405583582
 10
-50.52723936
 20
-15.2301741988
 10
-50.5156236916
 20
-14.874423597
 10
-50.5044841402
 20
-14.4778442758
 10
-50.4938268048
 20
-14.0399132268
 10
-50.4836455863
 20
-13.5611534583
 10
-50.4740703498
 20
-13.047671718
 10
-50.4651088577
 20
-12.4990232239
 10
-50.4567533477
 20
-11.9156527581
 10
-50.449110397
 20
-11.305001414
 10
-50.4421891335
 20
-10.6667197289
 10
-50.4305634789
 20
-9.3168032065
  0
LWPOLYLINE
  5
28C
100
AcDbEntity
  8
0
100
AcDbPolyline
 62
7
  6
CONTINUOUS
 90
9
 70
0
 10
3.6
 20
44.4987807071
 10
3.5938615534
 20
44.4951317351
 10
3.5755693092
 20
44.4914827631
 10
3.5453079108
 20
44.4878706242
 10
3.5029561329
 20
44.4842956914
 10
3.4486352008
 20
44.4807575916
 10
3.3828934348
 20
44.4772920387
 10
3.3056151629
 20
44.4738997675
 10
3.216916057
 20
44.4705800432
  0
LINE
  5
28D
100
AcDbEntity
  8
DRAFT
100
AcDbLine
 62
250
  6
CONTINUOUS
 10
-43.5
 20
-40.4159437343
 11
-43.2242099741
 21
-40.4159437343
  0
LINE
  5
28E
100
AcDbEntity
  8
DRAFT
100
AcDbLine
 62
250
  6
CONTINUOUS
 10
43.5
 20
-40.4159437343
 11
43.2242099741
 21
-40.4159437343
  0
LINE
  5
28F
100
AcDbEntity
  8
RACCORDO
100
AcDbLine
 62
250
  6
CONTINUOUS
 10
49.0
 20
-40.4159437343
 11
51.0
 21
-40.4159437343
  0
LINE
  5
290
100
AcDbEntity
  8
RACCORDO
100
AcDbLine
 62
250
  6
CONTINUOUS
 10
-49.0
 20
-40.4159437343
 11
-51.0
 21
-40.4159437343
  0
LINE
  5
291
100
AcDbEntity
  8
DRAFT
100
AcDbLine
 62
7
  6
CONTINUOUS
 10
45.0
 20
-38.9159437343
 11
49.0
 21
-38.9159437343
  0
LINE
  5
292
100
AcDbEntity
  8
DRAFT
100
AcDbLine
 62
7
  6
CONTINUOUS
 10
-45.0
 20
-38.9159437343
 11
-49.0
 21
-38.9159437343
  0
LINE
  5
293
100
AcDbEntity
  8
DRAFT
100
AcDbLine
 62
7
  6
CONTINUOUS
 10
45.0
 20
-38.6401537084
 11
49.2731956082
 21
-38.6401537084
  0
LINE
  5
294
100
AcDbEntity
  8
DRAFT
100
AcDbLine
 62
7
  6
CONTINUOUS
 10
-45.0
 20
-38.6401537084
 11
-49.2731956082
 21
-38.6401537084
  0
LINE
  5
295
100
AcDbEntity
  8
0
100
AcDbLine
 62
7
  6
CONTINUOUS
 10
-34.6
 20
11.5840562657
 11
-34.6
 21
-21.4159437343
  0
LINE
  5
296
100
AcDbEntity
  8
0
100
AcDbLine
 62
7
  6
CONTINUOUS
 10
-34.4
 20
-21.4159437343
 11
-34.4
 21
11.5840562657
  0
LINE
  5
297
100
AcDbEntity
  8
0
100
AcDbLine
 62
250
  6
CONTINUOUS
 10
-31.9
 20
36.0519192059
 11
-31.9000000066
 21
35.5840562657
  0
LWPOLYLINE
  5
298
100
AcDbEntity
  8
0
100
AcDbPolyline
 62
7
  6
CONTINUOUS
 90
10
 70
0
 10
-35.2215925954
 20
-5.8685819553
 10
-35.2300452796
 20
-5.9511689751
 10
-35.2478221965
 20
-6.0298522846
 10
-35.2749233461
 20
-6.1046318837
 10
-35.3124457793
 20
-6.1770085982
 10
-35.3592924453
 20
-6.2454816023
 10
-35.4121721917
 20
-6.3055484188
 10
-35.4699879677
 20
-6.3557082221
 10
-35.5338368241
 20
-6.3974618379
 10
-35.6037187609
 20
-6.4308092661
  0
LINE
  5
299
100
AcDbEntity
  8
0
100
AcDbLine
 62
250
  6
CONTINUOUS
 10
-50.4678629402
 20
-34.0159437343
 11
-50.0
 21
-34.0159437343
  0
LWPOLYLINE
  5
29A
100
AcDbEntity
  8
0
100
AcDbPolyline
 62
7
  6
CONTINUOUS
 90
13
 70
0
 10
-36.4275902185
 20
-6.5197467304
 10
-36.4822919071
 20
-6.408745946
 10
-36.5259904898
 20
-6.2998424848
 10
-36.5586859665
 20
-6.1930363465
 10
-36.5799929568
 20
-6.0874451247
 10
-36.5902968411
 20
-5.9839512258
 10
-36.5907537613
 20
-5.8852018701
 10
-36.5813846941
 20
-5.7915021044
 10
-36.5621686627
 20
-5.7025468817
 10
-36.5341988784
 20
-5.6200682817
 10
-36.4978397449
 20
-5.5446436641
 10
-36.4527268585
 20
-5.4756956692
 10
-36.3988602192
 20
-5.4132242969
  0
LINE
  5
29B
100
AcDbEntity
  8
0
100
AcDbLine
 62
7
  6
CONTINUOUS
 10
-35.6037187609
 20
-6.4308092661
 11
-35.4737469122
 21
-6.7198739297
  0
LWPOLYLINE
  5
29C
100
AcDbEntity
  8
0
100
AcDbPolyline
 62
7
  6
CONTINUOUS
 90
13
 70
0
 10
-36.5658681522
 20
-3.2003299692
 10
-36.5956499529
 20
-3.1260428735
 10
-36.6315196285
 20
-3.0568094826
 10
-36.6734771789
 20
-2.9926297963
 10
-36.7225996534
 20
-2.9328532086
 10
-36.7778100028
 20
-2.8781303257
 10
-36.8358770798
 20
-2.8304129658
 10
-36.8953975397
 20
-2.7903776349
 10
-36.9577747273
 20
-2.757347827
 10
-37.0239875302
 20
-2.7312458434
 10
-37.0943622444
 20
-2.7120457843
 10
-37.1685725739
 20
-2.6997735495
 10
-37.2466185187
 20
-2.6944291389
  0
LINE
  5
29D
100
AcDbEntity
  8
0
100
AcDbLine
 62
7
  6
CONTINUOUS
 10
-35.6410220488
 20
-4.1450555749
 11
-35.5454738397
 21
-4.4570912577
  0
LINE
  5
29E
100
AcDbEntity
  8
0
100
AcDbLine
 62
7
  6
CONTINUOUS
 10
-37.5483798357
 20
-4.3402084126
 11
-37.415790899
 21
-4.0805275366
  0
LWPOLYLINE
  5
29F
100
AcDbEntity
  8
0
100
AcDbPolyline
 62
7
  6
CONTINUOUS
 90
10
 70
0
 10
-36.2865586922
 20
-3.1292374658
 10
-36.2558399848
 20
-3.0866789856
 10
-36.2189727776
 20
-3.0478839804
 10
-36.1759570704
 20
-3.0128524503
 10
-36.1260202591
 20
-2.9807930017
 10
-36.0699349478
 20
-2.9524970282
 10
-36.01001895
 20
-2.9303387098
 10
-35.94704487
 20
-2.91510944
 10
-35.8802401034
 20
-2.9060178253
 10
-35.8096046502
 20
-2.9030638658
  0
LWPOLYLINE
  5
2A0
100
AcDbEntity
  8
0
100
AcDbPolyline
 62
7
  6
CONTINUOUS
 90
10
 70
0
 10
7.85
 20
42.6990548558
 10
7.8411086126
 20
42.6925360672
 10
7.8144545922
 20
42.6860320457
 10
7.7700983188
 20
42.6795575251
 10
7.7081402735
 20
42.6731271722
 10
7.6287208113
 20
42.6667555538
 10
7.5320198429
 20
42.6604571037
 10
7.4182564269
 20
42.65424609
 10
7.2876882742
 20
42.6481365826
 10
7.1406111635
 20
42.6421424214
  0
LINE
  5
2A1
100
AcDbEntity
  8
0
100
AcDbLine
 62
250
  6
CONTINUOUS
 10
-50.4678629402
 20
-28.8159437343
 11
-50.0
 21
-28.8159437404
  0
LWPOLYLINE
  5
2A2
100
AcDbEntity
  8
0
100
AcDbPolyline
 62
7
  6
CONTINUOUS
 90
19
 70
0
 10
-35.3881469242
 20
-3.0802200521
 10
-35.3409013454
 20
-3.1350835113
 10
-35.3015060276
 20
-3.1944312534
 10
-35.2699609709
 20
-3.2582632785
 10
-35.2464266649
 20
-3.3274035892
 10
-35.2307426198
 20
-3.4010281828
 10
-35.2224273674
 20
-3.4766650515
 10
-35.2216321391
 20
-3.5556558975
 10
-35.2282057034
 20
-3.6366590186
 10
-35.2412128968
 20
-3.7131772997
 10
-35.2604581069
 20
-3.7835542037
 10
-35.2861369461
 20
-3.8494462678
 10
-35.3179010883
 20
-3.9093259888
 10
-35.3554328916
 20
-3.9624706633
 10
-35.3990499979
 20
-4.0096029948
 10
-35.4493570068
 20
-4.0513635909
 10
-35.5065554516
 20
-4.0879659876
 10
-35.5704437989
 20
-4.1191966489
 10
-35.6410220488
 20
-4.1450555749
  0
LINE
  5
2A3
100
AcDbEntity
  8
0
100
AcDbLine
 62
7
  6
CONTINUOUS
 10
-24.5
 20
21.6840562657
 11
-24.5
 21
21.4840562657
  0
LWPOLYLINE
  5
2A4
100
AcDbEntity
  8
0
100
AcDbPolyline
 62
7
  6
CONTINUOUS
 90
10
 70
0
 10
4.1
 20
44.9987045546
 10
4.098380347
 20
44.9967289336
 10
4.0859964213
 20
44.9927956006
 10
4.0611159696
 20
44.9888803394
 10
4.0238515922
 20
44.9849829872
 10
3.9745410904
 20
44.9811388734
 10
3.9130749351
 20
44.9773484822
 10
3.8395626554
 20
44.9736113293
 10
3.7546706393
 20
44.9699612922
 10
3.658295417
 20
44.9663991629
  0
LWPOLYLINE
  5
2A5
100
AcDbEntity
  8
0
100
AcDbPolyline
 62
7
  6
CONTINUOUS
 90
9
 70
0
 10
10.1
 20
41.3992528521
 10
10.0903444761
 20
41.391569018
 10
10.0614874188
 20
41.3838851839
 10
10.0135930999
 20
41.3762450909
 10
9.9465529418
 20
41.3686489883
 10
9.8604755222
 20
41.3610966268
 10
9.7558508455
 20
41.3536309989
 10
9.632573129
 20
41.3462525993
 10
9.4907481555
 20
41.3389609332
  0
LWPOLYLINE
  5
2A6
100
AcDbEntity
  8
0
100
AcDbPolyline
 62
7
  6
CONTINUOUS
 90
10
 70
0
 10
-37.415790899
 20
-4.0805275366
 10
-37.4755894959
 20
-4.0408455023
 10
-37.5304995829
 20
-3.9939679517
 10
-37.58052116
 20
-3.9398948847
 10
-37.6269207919
 20
-3.8764560634
 10
-37.668431914
 20
-3.8058217258
 10
-37.7012548321
 20
-3.7345025858
 10
-37.7241229815
 20
-3.6646688815
 10
-37.738302927
 20
-3.5941503748
 10
-37.7437946685
 20
-3.5229470658
  0
LWPOLYLINE
  5
2A7
100
AcDbEntity
  8
0
100
AcDbPolyline
 62
7
  6
CONTINUOUS
 90
10
 70
0
 10
-36.3988602192
 20
-5.4132242969
 10
-36.3584182012
 20
-5.3769810675
 10
-36.3134787476
 20
-5.3441170293
 10
-36.2640418583
 20
-5.3146321825
 10
-36.2096550218
 20
-5.2881353065
 10
-36.1507707495
 20
-5.2650176218
 10
-36.0887465762
 20
-5.2464527893
 10
-36.0240350134
 20
-5.2328320293
 10
-35.9561835495
 20
-5.2237641214
 10
-35.8851921845
 20
-5.2192490658
  0
LWPOLYLINE
  5
2A8
100
AcDbEntity
  8
0
100
AcDbPolyline
 62
7
  6
CONTINUOUS
 90
8
 70
0
 10
11.85
 20
39.5995270008
 10
11.8403533544
 20
39.5912040997
 10
11.811506744
 20
39.5828811985
 10
11.7636001581
 20
39.5745986875
 10
11.6965409508
 20
39.5663567628
 10
11.6104217681
 20
39.5581552283
 10
11.5056605365
 20
39.5500338851
 10
11.3821666418
 20
39.5419931228
  0
LINE
  5
2A9
100
AcDbEntity
  8
0
100
AcDbLine
 62
7
  6
CONTINUOUS
 10
-34.6
 20
-21.4159437343
 11
-34.4
 21
-21.4159437343
  0
LINE
  5
2AA
100
AcDbEntity
  8
0
100
AcDbLine
 62
7
  6
CONTINUOUS
 10
-14.0
 20
37.6224358193
 11
-14.0
 21
36.2000448373
  0
LWPOLYLINE
  5
2AB
100
AcDbEntity
  8
RACCORDO
100
AcDbPolyline
 62
7
  6
CONTINUOUS
 90
22
 70
0
 10
-14.0
 20
37.6224358193
 10
-13.9965050021
 20
37.7061345768
 10
-13.9860246986
 20
37.7893691341
 10
-13.9686026373
 20
37.8715574488
 10
-13.9441910494
 20
37.95252403
 10
-13.9130042037
 20
38.0312694254
 10
-13.8758502065
 20
38.1061081121
 10
-13.8329293378
 20
38.1771282325
 10
-13.7850024674
 20
38.2434875915
 10
-13.734617981
 20
38.3027406578
 10
-13.6832237356
 20
38.3547541902
 10
-13.631344367
 20
38.4003605759
 10
-13.5807201164
 20
38.4393003652
 10
-13.5329097152
 20
38.4717308431
 10
-13.4878437359
 20
38.4988792441
 10
-13.4446340587
 20
38.522092105
 10
-13.4032076049
 20
38.5419716843
 10
-13.3641570212
 20
38.5587378846
 10
-13.3273292663
 20
38.5729118197
 10
-13.2927153045
 20
38.5848749355
 10
-13.260483344
 20
38.5949034776
 10
-13.2306563462
 20
38.603288552
  0
LWPOLYLINE
  5
2AC
100
AcDbEntity
  8
RACCORDO
100
AcDbPolyline
 62
7
  6
CONTINUOUS
 90
19
 70
0
 10
-11.85
 20
40.0261858505
 10
-11.8478693272
 20
40.062086751
 10
-11.8417297006
 20
40.096561726
 10
-11.8319848211
 20
40.129216473
 10
-11.8189247747
 20
40.1600161672
 10
-11.8030627015
 20
40.1884191208
 10
-11.7854060287
 20
40.2135348142
 10
-11.7666918968
 20
40.2353290408
 10
-11.747378118
 20
40.2541034553
 10
-11.7282722857
 20
40.2698205717
 10
-11.7099733048
 20
40.2827135802
 10
-11.6926705384
 20
40.2932612149
 10
-11.6764828863
 20
40.3018706337
 10
-11.6617754096
 20
40.3087567978
 10
-11.6484959529
 20
40.3142863621
 10
-11.6360201657
 20
40.3189433135
 10
-11.6241442312
 20
40.3229380757
 10
-11.6131181859
 20
40.3263016251
 10
-11.6029478526
 20
40.3291389673
  0
LWPOLYLINE
  5
2AD
100
AcDbEntity
  8
0
100
AcDbPolyline
 62
7
  6
CONTINUOUS
 90
11
 70
0
 10
9.45
 20
40.8993290045
 10
9.4475513618
 20
40.8955747786
 10
9.4279698689
 20
40.888074108
 10
9.3888474687
 20
40.880596765
 10
9.3302652484
 20
40.8731582473
 10
9.2523446286
 20
40.8657739726
 10
9.1552471117
 20
40.8584592457
 10
9.039173947
 20
40.8512292277
 10
8.904365714
 20
40.8440989038
 10
8.7511018233
 20
40.8370830528
 10
8.5796999378
 20
40.8301962159
  0
LWPOLYLINE
  5
2AE
100
AcDbEntity
  8
0
100
AcDbPolyline
 62
7
  6
CONTINUOUS
 90
9
 70
0
 10
8.35
 20
43.1989787034
 10
8.3477766773
 20
43.1956569079
 10
8.3305342227
 20
43.1890339007
 10
8.295942249
 20
43.1824316049
 10
8.2441078207
 20
43.1758498928
 10
8.1753521321
 20
43.1693295482
 10
8.0895701131
 20
43.1628709521
 10
7.9868668338
 20
43.1564737236
 10
7.8678786997
 20
43.1501775033
  0
LWPOLYLINE
  5
2AF
100
AcDbEntity
  8
0
100
AcDbPolyline
 62
7
  6
CONTINUOUS
 90
5
 70
0
 10
-50.2616130488
 20
-34.5196427391
 10
-50.2378836086
 20
-34.4927428268
 10
-50.1661339693
 20
-34.4240845593
 10
-50.0864292411
 20
-34.3648485355
 10
-49.9999980075
 20
-34.3159478301
  0
LWPOLYLINE
  5
2B0
100
AcDbEntity
  8
0
100
AcDbPolyline
 62
7
  6
CONTINUOUS
 90
11
 70
0
 10
14.0
 20
36.2000448373
 10
13.9901779926
 20
36.1909131977
 10
13.9607939714
 20
36.1817815581
 10
13.9119709385
 20
36.1726881437
 10
13.8436274081
 20
36.1636331146
 10
13.7558448659
 20
36.1546163107
 10
13.6489907705
 20
36.1456754764
 10
13.5229851768
 20
36.1368109301
 10
13.3779080298
 20
36.1280223533
 10
13.2143666243
 20
36.1193465353
 10
13.0322835606
 20
36.1107839486
  0
LWPOLYLINE
  5
2B1
100
AcDbEntity
  8
0
100
AcDbPolyline
 62
7
  6
CONTINUOUS
 90
8
 70
0
 10
-36.2032076419
 20
-2.7076028405
 10
-36.2788421548
 20
-2.7536295883
 10
-36.3460489669
 20
-2.8070773872
 10
-36.4055325656
 20
-2.8686378417
 10
-36.4572596169
 20
-2.9387040202
 10
-36.5012190094
 20
-3.0174069458
 10
-36.5374218545
 20
-3.1046155954
 10
-36.5658681522
 20
-3.2003299692
  0
LWPOLYLINE
  5
2B2
100
AcDbEntity
  8
0
100
AcDbPolyline
 62
7
  6
CONTINUOUS
 90
14
 70
0
 10
-36.4140707444
 20
-5.0480653884
 10
-36.4961592038
 20
-5.0972321415
 10
-36.5692132656
 20
-5.1518021588
 10
-36.6338956878
 20
-5.213134822
 10
-36.6913561374
 20
-5.2827733993
 10
-36.7428575687
 20
-5.3615250218
 10
-36.7871370272
 20
-5.4485825585
 10
-36.8215553165
 20
-5.543067884
 10
-36.8460385559
 20
-5.6461505279
 10
-36.8606606259
 20
-5.7566609606
 10
-36.8630039725
 20
-5.8702124688
 10
-36.8522627441
 20
-5.9853428146
 10
-36.8292427923
 20
-6.1035142357
 10
-36.7939441169
 20
-6.2247267323
  0
LWPOLYLINE
  5
2B3
100
AcDbEntity
  8
0
100
AcDbPolyline
 62
250
  6
CONTINUOUS
 90
10
 70
0
 10
-38.0766021371
 20
35.9570843386
 10
-38.0818660007
 20
35.9655448868
 10
-38.0870010375
 20
35.9740262698
 10
-38.0920072474
 20
35.9825284875
 10
-38.096882527
 20
35.9910515884
 10
-38.1016289797
 20
35.999595524
 10
-38.1062529159
 20
36.0081601489
 10
-38.1107564391
 20
36.0167454147
 10
-38.1151374458
 20
36.0253513698
 10
-38.119395936
 20
36.0339780141
  0
LINE
  5
2B4
100
AcDbEntity
  8
0
100
AcDbLine
 62
7
  6
CONTINUOUS
 10
-11.85
 20
40.0261858505
 11
-11.85
 21
39.5995270008
  0
LINE
  5
2B5
100
AcDbEntity
  8
0
100
AcDbLine
 62
7
  6
CONTINUOUS
 10
-11.35
 20
39.540191574
 11
-11.35
 21
39.0996031532
  0
LINE
  5
2B6
100
AcDbEntity
  8
0
100
AcDbLine
 62
7
  6
CONTINUOUS
 10
-10.1
 20
41.8660979591
 11
-10.1
 21
41.3992528521
  0
LINE
  5
2B7
100
AcDbEntity
  8
0
100
AcDbLine
 62
7
  6
CONTINUOUS
 10
-9.45
 20
41.3371316064
 11
-9.45
 21
40.8993290045
  0
LWPOLYLINE
  5
2B8
100
AcDbEntity
  8
RACCORDO
100
AcDbPolyline
 62
7
  6
CONTINUOUS
 90
19
 70
0
 10
-8.35
 20
43.6390329722
 10
-8.3481548083
 20
43.6723911341
 10
-8.3427596077
 20
43.7048185325
 10
-8.334050278
 20
43.7359650612
 10
-8.3221246187
 20
43.7658864983
 10
-8.3073602175
 20
43.7939262957
 10
-8.2907705733
 20
43.8189086046
 10
-8.2731551789
 20
43.8406328129
 10
-8.2548529672
 20
43.8595057262
 10
-8.2364552897
 20
43.8755853205
 10
-8.2183771842
 20
43.8891128032
 10
-8.2009220808
 20
43.9003796653
 10
-8.1844488859
 20
43.9096118471
 10
-8.1693354281
 20
43.9170208347
 10
-8.1555542536
 20
43.9229788275
 10
-8.1427692086
 20
43.9278868418
 10
-8.1308888786
 20
43.9319595195
 10
-8.1200877699
 20
43.9352898617
 10
-8.1103821083
 20
43.9380069203
  0
LWPOLYLINE
  5
2B9
100
AcDbEntity
  8
RACCORDO
100
AcDbPolyline
 62
7
  6
CONTINUOUS
 90
19
 70
0
 10
-10.1
 20
41.8660979591
 10
-10.0980070969
 20
41.9007920662
 10
-10.0922281186
 20
41.9342867952
 10
-10.0829879742
 20
41.9662098185
 10
-10.0704880559
 20
41.9965659052
 10
-10.0551778453
 20
42.0247643467
 10
-10.0380622784
 20
42.0497918378
 10
-10.0199139172
 20
42.0715277086
 10
-10.0011269299
 20
42.090329989
 10
-9.9823700798
 20
42.1062302989
 10
-9.9641100067
 20
42.1194816728
 10
-9.9466210521
 20
42.1304379931
 10
-9.9302179977
 20
42.1393746147
 10
-9.9153193684
 20
42.1464949355
 10
-9.9018479142
 20
42.1521979758
 10
-9.8892764217
 20
42.1569485688
 10
-9.877440047
 20
42.1609628863
 10
-9.8665663843
 20
42.1642951435
 10
-9.8566649279
 20
42.1670615056
  0
LWPOLYLINE
  5
2BA
100
AcDbEntity
  8
0
100
AcDbPolyline
 62
7
  6
CONTINUOUS
 90
11
 70
0
 10
11.35
 20
39.0996031532
 10
11.3475107574
 20
39.0954547779
 10
11.3276033677
 20
39.0871653049
 10
11.2878235124
 20
39.0788976521
 10
11.2282409791
 20
39.0706663238
 10
11.1489602958
 20
39.0624857606
 10
11.0501205476
 20
39.0543703138
 10
10.9318951332
 20
39.0463342208
 10
10.7944914599
 20
39.0383915797
 10
10.6381505807
 20
39.0305563244
 10
10.4631467705
 20
39.0228422007
  0
LWPOLYLINE
  5
2BB
100
AcDbEntity
  8
0
100
AcDbPolyline
 62
7
  6
CONTINUOUS
 90
30
 70
0
 10
-35.4737469122
 20
-6.7198739297
 10
-35.3733504842
 20
-6.6634366148
 10
-35.2839237113
 20
-6.601511831
 10
-35.2054665934
 20
-6.5340995781
 10
-35.1383282175
 20
-6.4616013063
 10
-35.0821594965
 20
-6.3836155655
 10
-35.03591317
 20
-6.2989380057
 10
-34.9988721063
 20
-6.206685432
 10
-34.9717534369
 20
-6.1077410393
 10
-34.9556612957
 20
-6.0035500613
 10
-34.9509541729
 20
-5.8911099486
 10
-34.9572735782
 20
-5.7734232506
 10
-34.9746481747
 20
-5.6609428493
 10
-35.0037580447
 20
-5.5563778983
 10
-35.0439231059
 20
-5.457019244
 10
-35.0931317734
 20
-5.3651923079
 10
-35.1514249338
 20
-5.2812018287
 10
-35.2187617007
 20
-5.2047430679
 10
-35.2930078295
 20
-5.1372272314
 10
-35.3731568753
 20
-5.0787988355
 10
-35.4602152831
 20
-5.029313364
 10
-35.5550681437
 20
-4.9897484745
 10
-35.6603816536
 20
-4.9600630892
 10
-35.7734896164
 20
-4.940298286
 10
-35.8872785337
 20
-4.931554956
 10
-36.002115235
 20
-4.9347747132
 10
-36.1176328909
 20
-4.9490159436
 10
-36.2256175143
 20
-4.9725546967
 10
-36.3236106456
 20
-5.0056612813
 10
-36.4140707444
 20
-5.0480653884
  0
LWPOLYLINE
  5
2BC
100
AcDbEntity
  8
0
100
AcDbPolyline
 62
7
  6
CONTINUOUS
 90
33
 70
0
 10
-35.5454738397
 20
-4.4570912577
 10
-35.4391872356
 20
-4.4050445216
 10
-35.3436876315
 20
-4.3469939531
 10
-35.2589750274
 20
-4.2829395524
 10
-35.1854124542
 20
-4.2132023571
 10
-35.122636881
 20
-4.1374613296
 10
-35.069559215
 20
-4.0547533562
 10
-35.0257814992
 20
-3.9631094801
 10
-34.9917016906
 20
-3.8644986581
 10
-34.9674245672
 20
-3.7638646465
 10
-34.9537714251
 20
-3.6606543535
 10
-34.9499209684
 20
-3.5554208708
 10
-34.9535140875
 20
-3.4547672307
 10
-34.9642708691
 20
-3.3605347839
 10
-34.9824712266
 20
-3.2708821795
 10
-35.0065957906
 20
-3.1868883969
 10
-35.0367576146
 20
-3.1089657275
 10
-35.072843645
 20
-3.0367018798
 10
-35.1129953514
 20
-2.9699389587
 10
-35.1556015625
 20
-2.9089360378
 10
-35.2022734496
 20
-2.8534340436
 10
-35.2559859955
 20
-2.8024978599
 10
-35.3177035807
 20
-2.7548244641
 10
-35.3864618248
 20
-2.7117168788
 10
-35.462342569
 20
-2.6761490566
 10
-35.5467229991
 20
-2.6485736478
 10
-35.6382259294
 20
-2.6285380021
 10
-35.7328016436
 20
-2.6176581199
 10
-35.8319833029
 20
-2.6162597895
 10
-35.9342377462
 20
-2.6240172227
 10
-36.030915773
 20
-2.6415690555
 10
-36.1198499156
 20
-2.6696887482
 10
-36.2032076419
 20
-2.7076028405
  0
LWPOLYLINE
  5
2BD
100
AcDbEntity
  8
0
100
AcDbPolyline
 62
7
  6
CONTINUOUS
 90
5
 70
0
 10
37.6044767013
 20
-45.6782113512
 10
37.5767990778
 20
-45.6538271383
 10
37.5081408292
 20
-45.582077557
 10
37.448904824
 20
-45.5023728926
 10
37.4000041336
 20
-45.4159417234
  0
LWPOLYLINE
  5
2BE
100
AcDbEntity
  8
0
100
AcDbPolyline
 62
7
  6
CONTINUOUS
 90
16
 70
0
 10
-37.4
 20
35.5840562657
 10
-37.4356605337
 20
35.6330885798
 10
-37.4731423989
 20
35.6784264192
 10
-37.5124455956
 20
35.7200642017
 10
-37.5537877144
 20
35.7579452589
 10
-37.5969511646
 20
35.7921981993
 10
-37.6412831748
 20
35.8230727451
 10
-37.6866952603
 20
35.850588885
 10
-37.7332759057
 20
35.8747843836
 10
-37.7806377933
 20
35.8958418463
 10
-37.828793747
 20
35.9137813039
 10
-37.8777309429
 20
35.9285874039
 10
-37.927023591
 20
35.9403154107
 10
-37.9765297614
 20
35.9489737704
 10
-38.026391384
 20
35.9545572987
 10
-38.0766084587
 20
35.9570843386
  0
LINE
  5
2BF
100
AcDbEntity
  8
0
100
AcDbLine
 62
7
  6
CONTINUOUS
 10
-8.35
 20
43.6390329722
 11
-8.35
 21
43.1989787034
  0
LINE
  5
2C0
100
AcDbEntity
  8
0
100
AcDbLine
 62
7
  6
CONTINUOUS
 10
-7.85
 20
43.1493593917
 11
-7.85
 21
42.6990548558
  0
LINE
  5
2C1
100
AcDbEntity
  8
0
100
AcDbLine
 62
7
  6
CONTINUOUS
 10
-4.1
 20
45.3378123061
 11
-4.1
 21
44.9987045546
  0
LWPOLYLINE
  5
2C2
100
AcDbEntity
  8
0
100
AcDbPolyline
 62
7
  6
CONTINUOUS
 90
28
 70
0
 10
-2.9301
 20
23.5354484561
 10
-2.9258352853
 20
23.6201553298
 10
-2.9139281649
 20
23.6994163306
 10
-2.8943786389
 20
23.7732314584
 10
-2.8669054405
 20
23.8416347209
 10
-2.8317898365
 20
23.9045921106
 10
-2.7898756269
 20
23.9620016041
 10
-2.7402958324
 20
24.0147315064
 10
-2.6839174324
 20
24.0619135126
 10
-2.624185165
 20
24.1008406852
 10
-2.5619029409
 20
24.1305690732
 10
-2.4962668494
 20
24.1520426277
 10
-2.4283098967
 20
24.1653862641
 10
-2.3562979469
 20
24.1705193149
 10
-2.281965136
 20
24.1675224476
 10
-2.2115468772
 20
24.1567625804
 10
-2.1470943619
 20
24.1383126098
 10
-2.0865563988
 20
24.1120996393
 10
-2.0300148266
 20
24.0782718976
 10
-1.9766689102
 20
24.0364085074
 10
-1.9273193846
 20
23.9869303459
 10
-1.8844502936
 20
23.9312482745
 10
-1.8486610864
 20
23.8694994241
 10
-1.8193523138
 20
23.8015466637
 10
-1.797209672
 20
23.7283894609
 10
-1.7824617262
 20
23.6503609715
 10
-1.7748799113
 20
23.5671280397
 10
-1.7744642271
 20
23.4786906655
  0
LWPOLYLINE
  5
2C3
100
AcDbEntity
  8
RACCORDO
100
AcDbPolyline
 62
7
  6
CONTINUOUS
 90
16
 70
0
 10
-4.1
 20
45.3378123061
 10
-4.0978397369
 20
45.3738190855
 10
-4.0914748844
 20
45.4089628406
 10
-4.0811192876
 20
45.4427747428
 10
-4.0667690726
 20
45.4753475812
 10
-4.0488748812
 20
45.505716216
 10
-4.0289142172
 20
45.5322041865
 10
-4.0079453076
 20
45.5546500295
 10
-3.9864304239
 20
45.5735787091
 10
-3.9654430166
 20
45.5889396954
 10
-3.9458453364
 20
45.6010062632
 10
-3.9277515241
 20
45.6104665981
 10
-3.9109780656
 20
45.6179574514
 10
-3.895524904
 20
45.6238730173
 10
-3.8816498909
 20
45.6284482713
 10
-3.8694093559
 20
45.6319544234
  0
LINE
  5
2C4
100
AcDbEntity
  8
0
100
AcDbLine
 62
7
  6
CONTINUOUS
 10
11.1960930686
 20
-6.0159437343
 11
10.0700680665
 21
-6.0159437343
  0
LINE
  5
2C5
100
AcDbEntity
  8
0
100
AcDbLine
 62
7
  6
CONTINUOUS
 10
-10.0700680665
 20
-6.0159437343
 11
-11.1960930686
 21
-6.0159437343
  0
LINE
  5
2C6
100
AcDbEntity
  8
0
100
AcDbLine
 62
7
  6
CONTINUOUS
 10
-37.693534
 20
-5.0310327343
 11
-37.965387
 21
-5.0310327343
  0
LINE
  5
2C7
100
AcDbEntity
  8
0
100
AcDbLine
 62
7
  6
CONTINUOUS
 10
-36.7939441169
 20
-6.2247267323
 11
-37.693534
 21
-6.2089547343
  0
LINE
  5
2C8
100
AcDbEntity
  8
0
100
AcDbLine
 62
7
  6
CONTINUOUS
 10
-37.965387
 20
-6.4920647343
 11
-36.4275902185
 21
-6.5197467304
  0
LWPOLYLINE
  5
2C9
100
AcDbEntity
  8
0
100
AcDbPolyline
 62
7
  6
CONTINUOUS
 90
19
 70
0
 10
-37.2383726082
 20
-2.9834287389
 10
-37.1709903474
 20
-2.9866411789
 10
-37.1078539628
 20
-2.9953145291
 10
-37.0489634545
 20
-3.0094487897
 10
-36.9940399423
 20
-3.0291592065
 10
-36.9433623063
 20
-3.0543305336
 10
-36.8977671876
 20
-3.0846170331
 10
-36.857979384
 20
-3.1200916822
 10
-36.8232740976
 20
-3.1606815037
 10
-36.7923135761
 20
-3.2058218278
 10
-36.7644285836
 20
-3.2555851823
 10
-36.7402883559
 20
-3.3098990395
 10
-36.7205628476
 20
-3.3679811462
 10
-36.7057985698
 20
-3.4299644472
 10
-36.6954490114
 20
-3.4957159978
 10
-36.6885445929
 20
-3.5640547106
 10
-36.6847621211
 20
-3.6345868897
 10
-36.6844247893
 20
-3.7077062309
 10
-36.6875325973
 20
-3.7834127343
  0
LWPOLYLINE
  5
2CA
100
AcDbEntity
  8
0
100
AcDbPolyline
 62
7
  6
CONTINUOUS
 90
10
 70
0
 10
-35.8096046502
 20
-2.9030638658
 10
-35.7513505837
 20
-2.9073790815
 10
-35.6955482582
 20
-2.9158722073
 10
-35.6421976738
 20
-2.9285432432
 10
-35.5907593418
 20
-2.9458398008
 10
-35.5417727509
 20
-2.9673142685
 10
-35.4968563671
 20
-2.991623811
 10
-35.456549679
 20
-3.0183208166
 10
-35.4203131981
 20
-3.047852897
 10
-35.3881469242
 20
-3.0802200521
  0
LWPOLYLINE
  5
2CB
100
AcDbEntity
  8
0
100
AcDbPolyline
 62
7
  6
CONTINUOUS
 90
13
 70
0
 10
-35.8851921845
 20
-5.2192490658
 10
-35.7910713219
 20
-5.2263491009
 10
-35.7030850698
 20
-5.2434218571
 10
-35.6212334279
 20
-5.2704673342
 10
-35.5450295624
 20
-5.3085178437
 10
-35.4749603073
 20
-5.3565410743
 10
-35.4124861644
 20
-5.4114400918
 10
-35.357296452
 20
-5.4725696182
 10
-35.3097018519
 20
-5.5405749316
 10
-35.2720949115
 20
-5.614294932
 10
-35.2452731465
 20
-5.6933425861
 10
-35.2284390411
 20
-5.7781049272
 10
-35.2215925954
 20
-5.8685819553
  0
LWPOLYLINE
  5
2CC
100
AcDbEntity
  8
0
100
AcDbPolyline
 62
7
  6
CONTINUOUS
 90
31
 70
0
 10
0.518
 20
23.9667812813
 10
0.5182634261
 20
23.8557995651
 10
0.5133271006
 20
23.7490755801
 10
0.5031910234
 20
23.6466093262
 10
0.4875067509
 20
23.5482264852
 10
0.4666227268
 20
23.4541013753
 10
0.4415842817
 20
23.3647569521
 10
0.4131436743
 20
23.2795051649
 10
0.380548646
 20
23.1990340645
 10
0.3425877514
 20
23.1259307583
 10
0.2981983385
 20
23.0607129596
 10
0.2484430592
 20
23.0028629553
 10
0.1952984239
 20
22.953414713
 10
0.1393625501
 20
22.912887399
 10
0.0800373202
 20
22.8807618471
 10
0.0175048913
 20
22.8565145266
 10
-0.0501287155
 20
22.8401881055
 10
-0.1209695212
 20
22.8317399159
 10
-0.1891534322
 20
22.8305184228
 10
-0.2536191405
 20
22.8366868014
 10
-0.315427954
 20
22.8500818766
 10
-0.3718997027
 20
22.8695625877
 10
-0.4219848058
 20
22.8949041735
 10
-0.4667328441
 20
22.9263313953
 10
-0.5066123892
 20
22.9633774758
 10
-0.5415606849
 20
23.0062334956
 10
-0.5716404874
 20
23.0547083741
 10
-0.5975086362
 20
23.1077620923
 10
-0.6193840779
 20
23.1650479771
 10
-0.6370478658
 20
23.2269127016
 10
-0.6505
 20
23.2933562657
  0
LINE
  5
2CD
100
AcDbEntity
  8
0
100
AcDbLine
 62
7
  6
CONTINUOUS
 10
-3.6
 20
44.964519181
 11
-3.6
 21
44.4987807071
  0
LINE
  5
2CE
100
AcDbEntity
  8
0
100
AcDbLine
 62
7
  6
CONTINUOUS
 10
-1.1
 20
-16.1120368029
 11
-1.1
 21
-14.9860118008
  0
LINE
  5
2CF
100
AcDbEntity
  8
0
100
AcDbLine
 62
7
  6
CONTINUOUS
 10
-1.1
 20
5.1541243322
 11
-1.1
 21
6.2801493343
  0
LWPOLYLINE
  5
2D0
100
AcDbEntity
  8
0
100
AcDbPolyline
 62
7
  6
CONTINUOUS
 90
31
 70
0
 10
-2.9875
 20
24.1001594396
 10
-2.9856291367
 20
24.2143616771
 10
-2.9791298355
 20
24.3241571139
 10
-2.9680020964
 20
24.4295457499
 10
-2.9526886913
 20
24.5310784184
 10
-2.9327468482
 20
24.6282042861
 10
-2.9068482513
 20
24.7192708533
 10
-2.8740459546
 20
24.8041005873
 10
-2.835286904
 20
24.8828710209
 10
-2.7920836216
 20
24.9544622526
 10
-2.7444875893
 20
25.0189726043
 10
-2.6924473252
 20
25.0763037543
 10
-2.6373209053
 20
25.125040836
 10
-2.5794082483
 20
25.1647395985
 10
-2.5184094356
 20
25.1958442929
 10
-2.454782787
 20
25.2182728058
 10
-2.3866562674
 20
25.2316626623
 10
-2.3159019119
 20
25.2363763375
 10
-2.2485941464
 20
25.2334191429
 10
-2.186120461
 20
25.2222287024
 10
-2.1270933657
 20
25.2033673922
 10
-2.0734248157
 20
25.1795276528
 10
-2.025895324
 20
25.1513368275
 10
-1.9837243777
 20
25.1181675731
 10
-1.9464823933
 20
25.0808302996
 10
-1.9145772697
 20
25.0395004329
 10
-1.887601108
 20
24.9940025472
 10
-1.8639006282
 20
24.9446207744
 10
-1.8429247369
 20
24.8914498252
 10
-1.8252245275
 20
24.834394989
 10
-1.8108
 20
24.7734562657
  0
LWPOLYLINE
  5
2D1
100
AcDbEntity
  8
0
100
AcDbPolyline
 62
7
  6
CONTINUOUS
 90
28
 70
0
 10
0.477
 20
24.559423503
 10
0.4738158441
 20
24.4726922671
 10
0.4636656909
 20
24.3913628942
 10
0.4465495403
 20
24.3154353843
 10
0.4222168783
 20
24.2446236911
 10
0.390918219
 20
24.1792138609
 10
0.3534051042
 20
24.1200640325
 10
0.3092209869
 20
24.0670346346
 10
0.2588224141
 20
24.0202652385
 10
0.2043305687
 20
23.981032697
 10
0.1463304914
 20
23.949676501
 10
0.0842371416
 20
23.9258571597
 10
0.0184165811
 20
23.9098330523
 10
-0.0532283334
 20
23.9016131287
 10
-0.1286004586
 20
23.9011884391
 10
-0.2010423028
 20
23.9087905141
 10
-0.2686011948
 20
23.924476306
 10
-0.3332298059
 20
23.9481888624
 10
-0.3941286582
 20
23.9799888562
 10
-0.4520851621
 20
24.0207317886
 10
-0.5063119074
 20
24.0695621583
 10
-0.5536471853
 20
24.123974134
 10
-0.593328495
 20
24.1832040305
 10
-0.6261183374
 20
24.2480155331
 10
-0.6511425069
 20
24.318193866
 10
-0.6681096015
 20
24.3936674373
 10
-0.6773110231
 20
24.474507839
 10
-0.6787467717
 20
24.5607150709
  0
LWPOLYLINE
  5
2D2
100
AcDbEntity
  8
0
100
AcDbPolyline
 62
7
  6
CONTINUOUS
 90
25
 70
0
 10
-1.7744642271
 20
23.4786906655
 10
-1.782347704
 20
23.379551414
 10
-1.799050511
 20
23.2878933188
 10
-1.8245726481
 20
23.2037163798
 10
-1.8599726841
 20
23.1265460355
 10
-1.9041920501
 20
23.0568568475
 10
-1.9540550396
 20
22.9960724999
 10
-2.0092397551
 20
22.9443331344
 10
-2.0700680942
 20
22.9014986093
 10
-2.1343300431
 20
22.8685721842
 10
-2.2020460253
 20
22.8457764739
 10
-2.2731956173
 20
22.8328888637
 10
-2.3455075344
 20
22.8302447686
 10
-2.419967045
 20
22.8381859977
 10
-2.4955888806
 20
22.8563707419
 10
-2.567145952
 20
22.8841089882
 10
-2.6337055467
 20
22.9213180864
 10
-2.696200377
 20
22.9680806868
 10
-2.7522014902
 20
23.0239547269
 10
-2.8015245021
 20
23.0893190235
 10
-2.8443537969
 20
23.1637947598
 10
-2.8788135741
 20
23.2458034226
 10
-2.9042785669
 20
23.3348188407
 10
-2.9213740422
 20
23.4313671852
 10
-2.9301
 20
23.5354484561
  0
LWPOLYLINE
  5
2D3
100
AcDbEntity
  8
0
100
AcDbPolyline
 62
7
  6
CONTINUOUS
 90
25
 70
0
 10
-0.6787467717
 20
24.5607150709
 10
-0.6698046677
 20
24.6624806403
 10
-0.65129674
 20
24.7567677334
 10
-0.6232229887
 20
24.8435763504
 10
-0.5842041101
 20
24.9234796585
 10
-0.5356194079
 20
24.9959044903
 10
-0.4816067924
 20
25.0591313438
 10
-0.4227712513
 20
25.1129332931
 10
-0.3585077968
 20
25.1575372641
 10
-0.2911393762
 20
25.1919045314
 10
-0.220106985
 20
25.2155568991
 10
-0.1459696276
 20
25.2289725632
 10
-0.0727272645
 20
25.2325473868
 10
-0.0008311866
 20
25.2264300238
 10
0.0701698971
 20
25.2104718203
 10
0.1376298993
 20
25.1846226775
 10
0.2016348123
 20
25.1483554531
 10
0.2620986438
 20
25.1021972894
 10
0.31611733
 20
25.0476795143
 10
0.3635403783
 20
24.9848925771
 10
0.4045182814
 20
24.9137460285
 10
0.4365984536
 20
24.8354998488
 10
0.4589633665
 20
24.7505740314
 10
0.4724305487
 20
24.6585485828
 10
0.477
 20
24.559423503
  0
LWPOLYLINE
  5
2D4
100
AcDbEntity
  8
0
100
AcDbPolyline
 62
7
  6
CONTINUOUS
 90
16
 70
0
 10
-50.0
 20
-34.3159437343
 10
-50.0490323284
 20
-34.3516042798
 10
-50.0943701787
 20
-34.3890861562
 10
-50.1360079689
 20
-34.4283893635
 10
-50.1738890307
 20
-34.4697314925
 10
-50.2081419733
 20
-34.5128949523
 10
-50.2390165195
 20
-34.557226971
 10
-50.2665326588
 20
-34.6026390649
 10
-50.2907281553
 20
-34.6492197177
 10
-50.3117856137
 20
-34.6965816088
 10
-50.3297250654
 20
-34.7447375619
 10
-50.3445311587
 20
-34.7936747532
 10
-50.3562591585
 20
-34.8429673912
 10
-50.3649175117
 20
-34.8924735452
 10
-50.3705010353
 20
-34.9423351458
 10
-50.3730280729
 20
-34.9925521931
  0
LWPOLYLINE
  5
2D5
100
AcDbEntity
  8
0
100
AcDbPolyline
 62
7
  6
CONTINUOUS
 90
31
 70
0
 10
-37.2466185187
 20
-2.6944291389
 10
-37.3247673102
 20
-2.6982212146
 10
-37.3985956223
 20
-2.7072177559
 10
-37.4681034552
 20
-2.7214187628
 10
-37.5335672695
 20
-2.741307989
 10
-37.5947106046
 20
-2.7664016807
 10
-37.6507040777
 20
-2.7952485772
 10
-37.7009555467
 20
-2.8277910338
 10
-37.7460571537
 20
-2.864086695
 10
-37.786955943
 20
-2.902857234
 10
-37.8233642601
 20
-2.9432502853
 10
-37.8555697595
 20
-2.9861182143
 10
-37.8853824485
 20
-3.0327397897
 10
-37.9137840977
 20
-3.0835196197
 10
-37.9397929365
 20
-3.1380530961
 10
-37.9622736605
 20
-3.1964051624
 10
-37.981159022
 20
-3.2587609029
 10
-37.9965162687
 20
-3.3249352335
 10
-38.0074118391
 20
-3.3944378444
 10
-38.0141738049
 20
-3.46733521
 10
-38.0164740945
 20
-3.543560856
 10
-38.0123949313
 20
-3.6224250506
 10
-38.0027260219
 20
-3.7044973253
 10
-37.9866776597
 20
-3.7892081486
 10
-37.9599629483
 20
-3.8741591944
 10
-37.9218465416
 20
-3.9601771347
 10
-37.8730637858
 20
-4.0464352976
 10
-37.8115338231
 20
-4.128055341
 10
-37.7365630342
 20
-4.203411151
 10
-37.6488450384
 20
-4.2741288415
 10
-37.5483798357
 20
-4.3402084126
  0
LINE
  5
2D6
100
AcDbEntity
  8
0
100
AcDbLine
 62
7
  6
CONTINUOUS
 10
-11.1960930686
 20
-3.8159437343
 11
-10.0700680665
 21
-3.8159437343
  0
LINE
  5
2D7
100
AcDbEntity
  8
0
100
AcDbLine
 62
7
  6
CONTINUOUS
 10
10.0700680665
 20
-3.8159437343
 11
11.1960930686
 21
-3.8159437343
  0
LINE
  5
2D8
100
AcDbEntity
  8
0
100
AcDbLine
 62
7
  6
CONTINUOUS
 10
-36.6875325973
 20
-3.7834127343
 11
-36.4160718603
 21
-3.7834127343
  0
LINE
  5
2D9
100
AcDbEntity
  8
0
100
AcDbLine
 62
7
  6
CONTINUOUS
 10
1.1
 20
6.2801493343
 11
1.1
 21
5.1541243322
  0
LINE
  5
2DA
100
AcDbEntity
  8
0
100
AcDbLine
 62
7
  6
CONTINUOUS
 10
1.1
 20
-14.9860118008
 11
1.1
 21
-16.1120368029
  0
LINE
  5
2DB
100
AcDbEntity
  8
0
100
AcDbLine
 62
7
  6
CONTINUOUS
 10
3.6
 20
44.964519181
 11
3.6
 21
44.4987807071
  0
LINE
  5
2DC
100
AcDbEntity
  8
0
100
AcDbLine
 62
7
  6
CONTINUOUS
 10
4.1
 20
45.3378123061
 11
4.1
 21
44.9987045546
  0
LWPOLYLINE
  5
2DD
100
AcDbEntity
  8
0
100
AcDbPolyline
 62
250
  6
CONTINUOUS
 90
10
 70
0
 10
-50.3730280729
 20
-34.9925458714
 10
-50.3814886211
 20
-34.997809735
 10
-50.3899700041
 20
-35.0029447718
 10
-50.3984722218
 20
-35.0079509817
 10
-50.4069953227
 20
-35.0128262613
 10
-50.4155392583
 20
-35.017572714
 10
-50.4241038832
 20
-35.0221966502
 10
-50.432689149
 20
-35.0267001734
 10
-50.4412951041
 20
-35.0310811801
 10
-50.4499217485
 20
-35.0353396703
  0
LWPOLYLINE
  5
2DE
100
AcDbEntity
  8
0
100
AcDbPolyline
 62
7
  6
CONTINUOUS
 90
5
 70
0
 10
-37.6044767013
 20
35.8463238825
 10
-37.5767990778
 20
35.8219396697
 10
-37.5081408292
 20
35.7501900884
 10
-37.448904824
 20
35.670485424
 10
-37.4000041336
 20
35.5840542548
  0
LWPOLYLINE
  5
2DF
100
AcDbEntity
  8
0
100
AcDbPolyline
 62
7
  6
CONTINUOUS
 90
16
 70
0
 10
37.4
 20
-45.4159437343
 10
37.4356605298
 20
-45.4649760437
 10
37.4731423913
 20
-45.5103138796
 10
37.5124455845
 20
-45.5519516595
 10
37.5537877
 20
-45.5898327151
 10
37.5969511471
 20
-45.6240856548
 10
37.6412831545
 20
-45.6549602005
 10
37.6866952372
 20
-45.6824763406
 10
37.7332758802
 20
-45.7066718399
 10
37.7806377666
 20
-45.727729304
 10
37.8287937205
 20
-45.7456687635
 10
37.8777309179
 20
-45.7604748657
 10
37.9270235694
 20
-45.7722028748
 10
37.9765297451
 20
-45.7808612366
 10
38.0263913749
 20
-45.7864447666
 10
38.0766084587
 20
-45.7889718072
  0
LWPOLYLINE
  5
2E0
100
AcDbEntity
  8
0
100
AcDbPolyline
 62
7
  6
CONTINUOUS
 90
21
 70
0
 10
-1.0309299326
 20
24.329967289
 10
-1.0051890394
 20
24.215046779
 10
-0.968812113
 20
24.1085988885
 10
-0.9213285765
 20
24.0120478863
 10
-0.8632090068
 20
23.9239695036
 10
-0.7967075278
 20
23.8448002758
 10
-0.7213358967
 20
23.773730543
 10
-0.6375823563
 20
23.7115699651
 10
-0.5491657589
 20
23.6611840586
 10
-0.4562858543
 20
23.6235511681
 10
-0.3587428926
 20
23.5976929489
 10
-0.2596564765
 20
23.5835398825
 10
-0.1583610789
 20
23.5809514343
 10
-0.0555222268
 20
23.590068139
 10
0.0437438962
 20
23.6112420816
 10
0.139068227
 20
23.6455317581
 10
0.2308198286
 20
23.6918786726
 10
0.3149897062
 20
23.7474594224
 10
0.3902415282
 20
23.8113328734
 10
0.4579116261
 20
23.8844401597
 10
0.518
 20
23.9667812813
  0
LWPOLYLINE
  5
2E1
100
AcDbEntity
  8
0
100
AcDbPolyline
 62
7
  6
CONTINUOUS
 90
30
 70
0
 10
-3.3033617255
 20
23.4434512066
 10
-3.2774297953
 20
23.3229771208
 10
-3.244867135
 20
23.2088059511
 10
-3.2046347337
 20
23.1032336626
 10
-3.1570119155
 20
23.00750921
 10
-3.1017193563
 20
22.9203836386
 10
-3.0368800731
 20
22.8404060506
 10
-2.9610521161
 20
22.7657690316
 10
-2.8756774351
 20
22.698279996
 10
-2.7832048962
 20
22.641910288
 10
-2.6832483289
 20
22.5975758493
 10
-2.5761939038
 20
22.5643607383
 10
-2.465648998
 20
22.5434884745
 10
-2.3494906785
 20
22.535466357
 10
-2.2298418784
 20
22.5397870867
 10
-2.1166787746
 20
22.5561522859
 10
-2.0129885709
 20
22.5849611577
 10
-1.9157840636
 20
22.6258144991
 10
-1.8260798185
 20
22.6772163232
 10
-1.744079008
 20
22.7384589492
 10
-1.6695784596
 20
22.8102500579
 10
-1.602983222
 20
22.8932167051
 10
-1.5430993698
 20
22.9887047182
 10
-1.4911208283
 20
23.0953682698
 10
-1.451034422
 20
23.2097969331
 10
-1.4238632168
 20
23.3349529435
 10
-1.4085841468
 20
23.4678740656
 10
-1.4061148396
 20
23.596263167
 10
-1.4172833292
 20
23.7172460866
 10
-1.4412615816
 20
23.8336969855
  0
LWPOLYLINE
  5
2E2
100
AcDbEntity
  8
0
100
AcDbPolyline
 62
7
  6
CONTINUOUS
 90
34
 70
0
 10
-1.4541
 20
24.8021562657
 10
-1.4745600344
 20
24.9130939889
 10
-1.5042655582
 20
25.0151204451
 10
-1.5432165715
 20
25.1082356342
 10
-1.5917882098
 20
25.1924597634
 10
-1.6496053375
 20
25.2677726254
 10
-1.7155425479
 20
25.3341135992
 10
-1.7893521248
 20
25.3918972327
 10
-1.8712817843
 20
25.4407089779
 10
-1.9609492678
 20
25.479244569
 10
-2.0598135403
 20
25.5074238799
 10
-2.1664156368
 20
25.5253270367
 10
-2.2759964027
 20
25.5318901523
 10
-2.3903393865
 20
25.5267876572
 10
-2.5076610397
 20
25.5103451208
 10
-2.6178515629
 20
25.4824753645
 10
-2.7172986312
 20
25.4433002819
 10
-2.8096145694
 20
25.3926979795
 10
-2.8955265526
 20
25.3302155981
 10
-2.9759662887
 20
25.2552770707
 10
-3.0500020698
 20
25.1684584644
 10
-3.1155659476
 20
25.0710351212
 10
-3.1718080329
 20
24.9627630606
 10
-3.2195782148
 20
24.8438862632
 10
-3.2593582122
 20
24.7164120123
 10
-3.2908936207
 20
24.578588645
 10
-3.3144388446
 20
24.4321678243
 10
-3.3312388159
 20
24.2844118217
 10
-3.3413202332
 20
24.1355528881
 10
-3.3446563979
 20
23.9853587726
 10
-3.3424121459
 20
23.8403949948
 10
-3.3353258603
 20
23.7024925349
 10
-3.322659158
 20
23.5698204127
 10
-3.3033617255
 20
23.4434512066
  0
LWPOLYLINE
  5
2E3
100
AcDbEntity
  8
0
100
AcDbPolyline
 62
7
  6
CONTINUOUS
 90
34
 70
0
 10
-0.9949
 20
23.2646562657
 10
-0.9755547202
 20
23.1556499759
 10
-0.9474818134
 20
23.0552599086
 10
-0.9106812795
 20
22.9634860638
 10
-0.8649115478
 20
22.8803394474
 10
-0.810414189
 20
22.8058090536
 10
-0.7479139159
 20
22.7398618648
 10
-0.6775156128
 20
22.6820749224
 10
-0.5991143954
 20
22.632871185
 10
-0.513120323
 20
22.5934865118
 10
-0.4184378114
 20
22.5639127811
 10
-0.3161624448
 20
22.5441581146
 10
-0.2099910352
 20
22.5354827365
 10
-0.0979544848
 20
22.5380773315
 10
0.0179781086
 20
22.5517512149
 10
0.1282026399
 20
22.5771925571
 10
0.229924597
 20
22.6147828578
 10
0.325938492
 20
22.6641406172
 10
0.4150237557
 20
22.7248095062
 10
0.4971249836
 20
22.7965855215
 10
0.5722975802
 20
22.8796726663
 10
0.6394871904
 20
22.974226621
 10
0.6986318891
 20
23.0811155598
 10
0.7497936013
 20
23.1994713086
 10
0.7921037478
 20
23.3268450257
 10
0.8245583274
 20
23.4646537436
 10
0.8481613411
 20
23.6114804298
 10
0.8650562123
 20
23.7606251455
 10
0.8754831473
 20
23.9123369933
 10
0.8792019397
 20
24.0663668705
 10
0.8776353941
 20
24.2152675299
 10
0.8720127652
 20
24.3569955821
 10
0.8611047982
 20
24.4935944164
 10
0.8426465335
 20
24.623746954
  0
LINE
  5
2E4
100
AcDbEntity
  8
0
100
AcDbLine
 62
7
  6
CONTINUOUS
 10
7.85
 20
43.1493593917
 11
7.85
 21
42.6990548558
  0
LINE
  5
2E5
100
AcDbEntity
  8
0
100
AcDbLine
 62
7
  6
CONTINUOUS
 10
8.35
 20
43.6390329722
 11
8.35
 21
43.1989787034
  0
LINE
  5
2E6
100
AcDbEntity
  8
0
100
AcDbLine
 62
7
  6
CONTINUOUS
 10
9.45
 20
41.3371316064
 11
9.45
 21
40.8993290045
  0
LWPOLYLINE
  5
2E7
100
AcDbEntity
  8
0
100
AcDbPolyline
 62
7
  6
CONTINUOUS
 90
16
 70
0
 10
50.0
 20
24.4840562657
 10
50.0490323284
 20
24.5197168112
 10
50.0943701787
 20
24.5571986876
 10
50.1360079689
 20
24.5965018949
 10
50.1738890307
 20
24.6378440238
 10
50.2081419733
 20
24.6810074837
 10
50.2390165195
 20
24.7253395024
 10
50.2665326588
 20
24.7707515963
 10
50.2907281553
 20
24.8173322491
 10
50.3117856137
 20
24.8646941402
 10
50.3297250654
 20
24.9128500933
 10
50.3445311587
 20
24.9617872846
 10
50.3562591585
 20
25.0110799226
 10
50.3649175117
 20
25.0605860766
 10
50.3705010353
 20
25.1104476772
 10
50.3730280729
 20
25.1606647244
  0
LWPOLYLINE
  5
2E8
100
AcDbEntity
  8
0
100
AcDbPolyline
 62
250
  6
CONTINUOUS
 90
10
 70
0
 10
50.3730280729
 20
25.1606584028
 10
50.3814886211
 20
25.1659222664
 10
50.3899700041
 20
25.1710573032
 10
50.3984722218
 20
25.1760635131
 10
50.4069953227
 20
25.1809387927
 10
50.4155392583
 20
25.1856852454
 10
50.4241038832
 20
25.1903091816
 10
50.432689149
 20
25.1948127048
 10
50.4412951041
 20
25.1991937115
 10
50.4499217485
 20
25.2034522017
  0
LWPOLYLINE
  5
2E9
100
AcDbEntity
  8
RACCORDO
100
AcDbPolyline
 62
250
  6
CONTINUOUS
 90
14
 70
0
 10
-14.0
 20
37.6224358193
 10
-13.996357841
 20
37.6168628644
 10
-13.9672498017
 20
37.6057331007
 10
-13.9092506655
 20
37.5946610071
 10
-13.8225404487
 20
37.5836562126
 10
-13.7071454262
 20
37.57272199
 10
-13.5630448641
 20
37.5618686415
 10
-13.3905817419
 20
37.5511318553
 10
-13.1904111479
 20
37.5405524958
 10
-12.9632921481
 20
37.530163812
 10
-12.7095536892
 20
37.5199748163
 10
-12.4292999207
 20
37.5099896202
 10
-12.1227039327
 20
37.5002190595
 10
-11.43428343
 20
37.4814519564
  0
LWPOLYLINE
  5
2EA
100
AcDbEntity
  8
0
100
AcDbPolyline
 62
250
  6
CONTINUOUS
 90
10
 70
0
 10
38.0766021371
 20
-45.7889718072
 10
38.0818660007
 20
-45.7974323554
 10
38.0870010375
 20
-45.8059137384
 10
38.0920072474
 20
-45.8144159561
 10
38.096882527
 20
-45.822939057
 10
38.1016289797
 20
-45.8314829926
 10
38.1062529159
 20
-45.8400476175
 10
38.1107564391
 20
-45.8486328833
 10
38.1151374458
 20
-45.8572388384
 10
38.119395936
 20
-45.8658654828
  0
LWPOLYLINE
  5
2EB
100
AcDbEntity
  8
0
100
AcDbPolyline
 62
7
  6
CONTINUOUS
 90
20
 70
0
 10
-1.4412615816
 20
23.8336969855
 10
-1.4764831216
 20
23.9419412135
 10
-1.5232405987
 20
24.0409900896
 10
-1.5812413636
 20
24.1318322949
 10
-1.6480409931
 20
24.2137592225
 10
-1.7242936704
 20
24.2876413506
 10
-1.8093452124
 20
24.3526082011
 10
-1.8987886473
 20
24.405339732
 10
-1.9916864537
 20
24.4447003222
 10
-2.088976153
 20
24.4718255928
 10
-2.1890633374
 20
24.486802365
 10
-2.2940679746
 20
24.4893616695
 10
-2.401870097
 20
24.4797724755
 10
-2.504515394
 20
24.4589285114
 10
-2.5996741037
 20
24.4270959301
 10
-2.689675988
 20
24.3840085787
 10
-2.7735560223
 20
24.3297617269
 10
-2.8509925316
 20
24.2643871315
 10
-2.9223071908
 20
24.1878530357
 10
-2.9875
 20
24.1001594396
  0
LWPOLYLINE
  5
2EC
100
AcDbEntity
  8
0
100
AcDbPolyline
 62
7
  6
CONTINUOUS
 90
29
 70
0
 10
0.8426465335
 20
24.623746954
 10
0.8168226994
 20
24.7473229545
 10
0.7834485677
 20
24.8644526581
 10
0.7397049945
 20
24.9742097069
 10
0.683976684
 20
25.0773850444
 10
0.617878932
 20
25.1731877269
 10
0.5434384817
 20
25.2583185653
 10
0.4604473051
 20
25.3320201014
 10
0.3691134302
 20
25.3950497933
 10
0.2720876844
 20
25.4463808263
 10
0.1689376341
 20
25.4859817097
 10
0.0600957128
 20
25.5138839342
 10
-0.0504899511
 20
25.5291551568
 10
-0.1643030673
 20
25.531120486
 10
-0.2798599261
 20
25.5204548133
 10
-0.3887612706
 20
25.4982504701
 10
-0.4880351567
 20
25.4647376307
 10
-0.5806535284
 20
25.4196861207
 10
-0.6671329605
 20
25.3634977481
 10
-0.7491218712
 20
25.2952221621
 10
-0.8249718423
 20
25.2158097135
 10
-0.8902541941
 20
25.1285132631
 10
-0.9437141275
 20
25.0343069188
 10
-0.9866064415
 20
24.9322165728
 10
-1.0182668539
 20
24.8225727618
 10
-1.0385561123
 20
24.7017134174
 10
-1.047613469
 20
24.5733006082
 10
-1.0451924
 20
24.4486510764
 10
-1.0309299326
 20
24.329967289
  0
LINE
  5
2ED
100
AcDbEntity
  8
0
100
AcDbLine
 62
7
  6
CONTINUOUS
 10
10.1
 20
41.8660979591
 11
10.1
 21
41.3992528521
  0
LINE
  5
2EE
100
AcDbEntity
  8
0
100
AcDbLine
 62
7
  6
CONTINUOUS
 10
11.35
 20
39.540191574
 11
11.35
 21
39.0996031532
  0
LINE
  5
2EF
100
AcDbEntity
  8
0
100
AcDbLine
 62
7
  6
CONTINUOUS
 10
11.85
 20
40.0261858505
 11
11.85
 21
39.5995270008
  0
LINE
  5
2F0
100
AcDbEntity
  8
0
100
AcDbLine
 62
7
  6
CONTINUOUS
 10
14.0
 20
37.6224358193
 11
14.0
 21
36.2000448373
  0
LINE
  5
2F1
100
AcDbEntity
  8
0
100
AcDbLine
 62
7
  6
CONTINUOUS
 10
-34.4
 20
11.5840562657
 11
-34.6
 21
11.5840562657
  0
LWPOLYLINE
  5
2F2
100
AcDbEntity
  8
RACCORDO
100
AcDbPolyline
 62
250
  6
CONTINUOUS
 90
12
 70
0
 10
-11.85
 20
40.0261858505
 10
-11.8464730111
 20
40.0211404085
 10
-11.8193048304
 20
40.011309956
 10
-11.7655043028
 20
40.001532768
 10
-11.6852455955
 20
39.9918195167
 10
-11.5785714618
 20
39.9821753835
 10
-11.4454874903
 20
39.9726114651
 10
-11.2863351633
 20
39.963160819
 10
-11.101747879
 20
39.9538610614
 10
-10.8924631242
 20
39.9447432149
 10
-10.658820166
 20
39.935816669
 10
-10.1190187678
 20
39.9185624214
  0
LWPOLYLINE
  5
2F3
100
AcDbEntity
  8
0
100
AcDbPolyline
 62
7
  6
CONTINUOUS
 90
12
 70
0
 10
-11.35
 20
39.0996031532
 10
-11.3475107574
 20
39.0954547779
 10
-11.3276033677
 20
39.0871653049
 10
-11.2878235124
 20
39.0788976521
 10
-11.2282409791
 20
39.0706663238
 10
-11.1489602958
 20
39.0624857606
 10
-11.0501205476
 20
39.0543703138
 10
-10.9318951332
 20
39.0463342208
 10
-10.79449146
 20
39.0383915797
 10
-10.6381505807
 20
39.0305563244
 10
-10.4631467705
 20
39.0228422007
 10
-10.0584106243
 20
39.0078312447
  0
LINE
  5
2F4
100
AcDbEntity
  8
0
100
AcDbLine
 62
250
  6
CONTINUOUS
 10
50.4678629402
 20
18.9840562657
 11
50.0
 21
18.9840562723
  0
LWPOLYLINE
  5
2F5
100
AcDbEntity
  8
0
100
AcDbPolyline
 62
7
  6
CONTINUOUS
 90
13
 70
0
 10
-14.0
 20
36.2000448373
 10
-13.9901779926
 20
36.1909131977
 10
-13.9607939714
 20
36.1817815581
 10
-13.9119709385
 20
36.1726881437
 10
-13.8436274081
 20
36.1636331146
 10
-13.7558448659
 20
36.1546163107
 10
-13.6489907705
 20
36.1456754764
 10
-13.5229851768
 20
36.1368109301
 10
-13.3779080298
 20
36.1280223533
 10
-13.2143666243
 20
36.1193465353
 10
-13.0322835606
 20
36.1107839486
 10
-12.8317362383
 20
36.1023341205
 10
-12.3776934171
 20
36.0858794746
  0
LWPOLYLINE
  5
2F6
100
AcDbEntity
  8
RACCORDO
100
AcDbPolyline
 62
250
  6
CONTINUOUS
 90
12
 70
0
 10
-10.1
 20
41.8660979591
 10
-10.0966536286
 20
41.8615608199
 10
-10.0710848777
 20
41.8527694227
 10
-10.0202397219
 20
41.8439891565
 10
-9.9441823884
 20
41.8352548778
 10
-9.8432664702
 20
41.826607266
 10
-9.7180201074
 20
41.8180797787
 10
-9.5687083051
 20
41.8096809901
 10
-9.3953886501
 20
41.8014140761
 10
-9.1981314063
 20
41.7932890413
 10
-8.9775814778
 20
41.7853383176
 10
-8.4706347243
 20
41.7700964828
  0
LWPOLYLINE
  5
2F7
100
AcDbEntity
  8
0
100
AcDbPolyline
 62
7
  6
CONTINUOUS
 90
9
 70
0
 10
-8.35
 20
43.1989787034
 10
-8.3477766773
 20
43.1956569079
 10
-8.3305342227
 20
43.1890339007
 10
-8.295942249
 20
43.1824316049
 10
-8.2441078207
 20
43.1758498928
 10
-8.1753521321
 20
43.1693295482
 10
-8.0895701131
 20
43.1628709521
 10
-7.9868668338
 20
43.1564737236
 10
-7.8678786997
 20
43.1501775033
  0
LWPOLYLINE
  5
2F8
100
AcDbEntity
  8
0
100
AcDbPolyline
 62
7
  6
CONTINUOUS
 90
12
 70
0
 10
-9.45
 20
40.8993290045
 10
-9.4475513618
 20
40.8955747786
 10
-9.4279698689
 20
40.888074108
 10
-9.3888474687
 20
40.880596765
 10
-9.3302652484
 20
40.8731582473
 10
-9.2523446286
 20
40.8657739726
 10
-9.1552471117
 20
40.8584592457
 10
-9.039173947
 20
40.8512292277
 10
-8.904365714
 20
40.8440989038
 10
-8.7511018233
 20
40.8370830528
 10
-8.5796999378
 20
40.8301962159
 10
-8.1839400658
 20
40.8168663841
  0
LWPOLYLINE
  5
2F9
100
AcDbEntity
  8
0
100
AcDbPolyline
 62
7
  6
CONTINUOUS
 90
5
 70
0
 10
50.2622676169
 20
24.688532967
 10
50.237883404
 20
24.6608553434
 10
50.1661338227
 20
24.5921970949
 10
50.0864291583
 20
24.5329610897
 10
49.9999979891
 20
24.4840603993
  0
LINE
  5
2FA
100
AcDbEntity
  8
0
100
AcDbLine
 62
7
  6
CONTINUOUS
 10
-0.6505
 20
23.2933562657
 11
-0.9949
 21
23.2646562657
  0
LINE
  5
2FB
100
AcDbEntity
  8
0
100
AcDbLine
 62
7
  6
CONTINUOUS
 10
-24.5
 20
21.4840562657
 11
24.5
 21
21.4840562657
  0
LINE
  5
2FC
100
AcDbEntity
  8
0
100
AcDbLine
 62
7
  6
CONTINUOUS
 10
24.5
 20
21.6840562657
 11
-24.5
 21
21.6840562657
  0
LWPOLYLINE
  5
2FD
100
AcDbEntity
  8
0
100
AcDbPolyline
 62
7
  6
CONTINUOUS
 90
8
 70
0
 10
-11.85
 20
39.5995270008
 10
-11.8403533544
 20
39.5912040997
 10
-11.811506744
 20
39.5828811985
 10
-11.7636001581
 20
39.5745986875
 10
-11.6965409508
 20
39.5663567628
 10
-11.6104217681
 20
39.5581552283
 10
-11.5056605365
 20
39.5500338851
 10
-11.3821666418
 20
39.5419931228
  0
LWPOLYLINE
  5
2FE
100
AcDbEntity
  8
RACCORDO
100
AcDbPolyline
 62
250
  6
CONTINUOUS
 90
11
 70
0
 10
-8.35
 20
43.6390329722
 10
-8.3470131209
 20
43.6351354953
 10
-8.3238278659
 20
43.6275039482
 10
-8.2776107565
 20
43.6198856846
 10
-8.2084342269
 20
43.612312503
 10
-8.116632992
 20
43.6048210524
 10
-8.0027045495
 20
43.5974419439
 10
-7.8669199024
 20
43.5901847148
 10
-7.7093695919
 20
43.583054204
 10
-7.5301575434
 20
43.5760609096
 10
-7.1096165921
 20
43.5626084665
  0
LINE
  5
2FF
100
AcDbEntity
  8
0
100
AcDbLine
 62
7
  6
CONTINUOUS
 10
24.5
 20
21.4840562657
 11
24.5
 21
21.6840562657
  0
LINE
  5
300
100
AcDbEntity
  8
0
100
AcDbLine
 62
7
  6
CONTINUOUS
 10
-1.8108
 20
24.7734562657
 11
-1.4541
 21
24.8021562657
  0
LINE
  5
301
100
AcDbEntity
  8
0
100
AcDbLine
 62
250
  6
CONTINUOUS
 10
50.4678629402
 20
24.1840562657
 11
50.0
 21
24.1840562657
  0
LWPOLYLINE
  5
302
100
AcDbEntity
  8
0
100
AcDbPolyline
 62
7
  6
CONTINUOUS
 90
9
 70
0
 10
-10.1
 20
41.3992528521
 10
-10.0903444761
 20
41.391569018
 10
-10.0614874188
 20
41.3838851839
 10
-10.0135930999
 20
41.3762450909
 10
-9.9465529418
 20
41.3686489883
 10
-9.8604755222
 20
41.3610966268
 10
-9.7558508455
 20
41.3536309989
 10
-9.632573129
 20
41.3462525993
 10
-9.4907481555
 20
41.3389609332
  0
LWPOLYLINE
  5
303
100
AcDbEntity
  8
0
100
AcDbPolyline
 62
7
  6
CONTINUOUS
 90
10
 70
0
 10
-4.1
 20
44.9987045546
 10
-4.098380347
 20
44.9967289336
 10
-4.0859964213
 20
44.9927956006
 10
-4.0611159696
 20
44.9888803394
 10
-4.0238515922
 20
44.9849829872
 10
-3.9745410904
 20
44.9811388734
 10
-3.9130749351
 20
44.9773484822
 10
-3.8395626554
 20
44.9736113293
 10
-3.7546706393
 20
44.9699612922
 10
-3.658295417
 20
44.9663991629
  0
LINE
  5
304
100
AcDbEntity
  8
0
100
AcDbLine
 62
250
  6
CONTINUOUS
 10
31.9
 20
-45.8838066745
 11
31.9000000066
 21
-45.4159437343
  0
LINE
  5
305
100
AcDbEntity
  8
DRAFT
100
AcDbLine
 62
7
  6
CONTINUOUS
 10
45.0
 20
28.8082662398
 11
49.2731956082
 21
28.8082662398
  0
LINE
  5
306
100
AcDbEntity
  8
DRAFT
100
AcDbLine
 62
7
  6
CONTINUOUS
 10
-45.0
 20
28.8082662398
 11
-49.2731956082
 21
28.8082662398
  0
LINE
  5
307
100
AcDbEntity
  8
DRAFT
100
AcDbLine
 62
7
  6
CONTINUOUS
 10
45.0
 20
29.0840562657
 11
49.0
 21
29.0840562657
  0
LINE
  5
308
100
AcDbEntity
  8
DRAFT
100
AcDbLine
 62
7
  6
CONTINUOUS
 10
-45.0
 20
29.0840562657
 11
-49.0
 21
29.0840562657
  0
LINE
  5
309
100
AcDbEntity
  8
DRAFT
100
AcDbLine
 62
250
  6
CONTINUOUS
 10
-43.5
 20
30.5840562657
 11
-43.2242099741
 21
30.5840562657
  0
LINE
  5
30A
100
AcDbEntity
  8
DRAFT
100
AcDbLine
 62
250
  6
CONTINUOUS
 10
43.5
 20
30.5840562657
 11
43.2242099741
 21
30.5840562657
  0
LINE
  5
30B
100
AcDbEntity
  8
RACCORDO
100
AcDbLine
 62
250
  6
CONTINUOUS
 10
49.0
 20
30.5840562657
 11
51.0
 21
30.5840562657
  0
LINE
  5
30C
100
AcDbEntity
  8
RACCORDO
100
AcDbLine
 62
250
  6
CONTINUOUS
 10
-49.0
 20
30.5840562657
 11
-51.0
 21
30.5840562657
  0
LWPOLYLINE
  5
30D
100
AcDbEntity
  8
0
100
AcDbPolyline
 62
7
  6
CONTINUOUS
 90
11
 70
0
 10
-7.85
 20
42.6990548558
 10
-7.8411086126
 20
42.6925360672
 10
-7.8144545922
 20
42.6860320457
 10
-7.7700983188
 20
42.6795575251
 10
-7.7081402735
 20
42.6731271722
 10
-7.6287208113
 20
42.6667555538
 10
-7.5320198429
 20
42.6604571037
 10
-7.4182564269
 20
42.65424609
 10
-7.2876882742
 20
42.6481365826
 10
-7.1406111635
 20
42.6421424214
 10
-6.7982994197
 20
42.6305541605
  0
LWPOLYLINE
  5
30E
100
AcDbEntity
  8
RACCORDO
100
AcDbPolyline
 62
250
  6
CONTINUOUS
 90
10
 70
0
 10
-4.1
 20
45.3378123061
 10
-4.0975463148
 20
45.335337128
 10
-4.0808828735
 20
45.3309104369
 10
-4.0486473036
 20
45.3265226755
 10
-4.0010060243
 20
45.3221833778
 10
-3.9380294019
 20
45.317898778
 10
-3.8597739195
 20
45.3136790598
 10
-3.7665740779
 20
45.309547385
 10
-3.6589951647
 20
45.3055288751
 10
-3.4029938098
 20
45.2979014638
  0
LINE
  5
30F
100
AcDbEntity
  8
0
100
AcDbLine
 62
250
  6
CONTINUOUS
 10
37.1
 20
-45.8838066745
 11
37.1
 21
-45.4159437343
  0
LWPOLYLINE
  5
310
100
AcDbEntity
  8
0
100
AcDbPolyline
 62
7
  6
CONTINUOUS
 90
17
 70
0
 10
-11.5
 20
-46.0319323059
 10
-11.4751333499
 20
-46.0188248594
 10
-11.4011624165
 20
-46.005717413
 10
-11.2790307246
 20
-45.9927771566
 10
-11.1081213441
 20
-45.9800062319
 10
-10.8890512052
 20
-45.9674024973
 10
-10.6246146239
 20
-45.9551267177
 10
-10.3142304645
 20
-45.9431830943
 10
-9.9584798627
 20
-45.9315674259
 10
-9.5619005415
 20
-45.9204278745
 10
-9.1239694925
 20
-45.9097705391
 10
-8.6452097239
 20
-45.8995893206
 10
-8.1317279836
 20
-45.8900140841
 10
-7.5830794896
 20
-45.881052592
 10
-6.9997090237
 20
-45.872697082
 10
-6.3890576797
 20
-45.8650541313
 10
-5.7507759946
 20
-45.8581328678
  0
LINE
  5
311
100
AcDbEntity
  8
0
100
AcDbLine
 62
7
  6
CONTINUOUS
 10
13.0322835606
 20
36.1107839486
 11
12.6135641506
 21
36.0940324222
  0
LWPOLYLINE
  5
312
100
AcDbEntity
  8
RACCORDO
100
AcDbPolyline
 62
250
  6
CONTINUOUS
 90
13
 70
0
 10
12.1225753081
 20
37.5002151739
 10
12.4291754424
 20
37.5099854296
 10
12.7094379726
 20
37.5199704447
 10
12.9631873246
 20
37.5301593269
 10
13.1903171206
 20
37.5405478828
 10
13.3904977378
 20
37.5511270507
 10
13.5629713631
 20
37.5618636286
 10
13.7070837674
 20
37.5727168121
 10
13.8224919306
 20
37.5836509456
 10
13.909215856
 20
37.5946556981
 10
13.967228857
 20
37.605727767
 10
13.996350842
 20
37.6168575131
 10
14.0
 20
37.6224358193
  0
LINE
  5
313
100
AcDbEntity
  8
0
100
AcDbLine
 62
7
  6
CONTINUOUS
 10
12.6135641506
 20
36.0940324222
 11
12.1241979183
 21
36.0778746567
  0
LINE
  5
314
100
AcDbEntity
  8
0
100
AcDbLine
 62
7
  6
CONTINUOUS
 10
12.1241979183
 20
36.0778746567
 11
11.5674465973
 21
36.0624106962
  0
LINE
  5
315
100
AcDbEntity
  8
RACCORDO
100
AcDbLine
 62
250
  6
CONTINUOUS
 10
11.4341531213
 20
37.481448738
 11
12.1225753081
 21
37.5002151739
  0
LINE
  5
316
100
AcDbEntity
  8
0
100
AcDbLine
 62
250
  6
CONTINUOUS
 10
-37.9877724809
 20
36.0428699774
 11
-37.9012662548
 21
36.0451275566
  0
LINE
  5
317
100
AcDbEntity
  8
0
100
AcDbLine
 62
7
  6
CONTINUOUS
 10
11.5674465973
 20
36.0624106962
 11
10.9456407546
 21
36.0477052732
  0
LINE
  5
318
100
AcDbEntity
  8
RACCORDO
100
AcDbLine
 62
250
  6
CONTINUOUS
 10
10.652699554
 20
37.4638972617
 11
11.4341531213
 21
37.481448738
  0
LINE
  5
319
100
AcDbEntity
  8
0
100
AcDbLine
 62
7
  6
CONTINUOUS
 10
10.9456407546
 20
36.0477052732
 11
10.262529897
 21
36.033853083
  0
LINE
  5
31A
100
AcDbEntity
  8
RACCORDO
100
AcDbLine
 62
250
  6
CONTINUOUS
 10
9.7820795021
 20
37.4476406519
 11
10.652699554
 21
37.4638972617
  0
LINE
  5
31B
100
AcDbEntity
  8
0
100
AcDbLine
 62
250
  6
CONTINUOUS
 10
-37.9012662548
 20
36.0451275566
 11
-37.7957117065
 21
36.0471305222
  0
LINE
  5
31C
100
AcDbEntity
  8
0
100
AcDbLine
 62
7
  6
CONTINUOUS
 10
10.262529897
 20
36.033853083
 11
9.5225695601
 21
36.0209389944
  0
LINE
  5
31D
100
AcDbEntity
  8
RACCORDO
100
AcDbLine
 62
250
  6
CONTINUOUS
 10
8.8291589668
 20
37.4328172522
 11
9.7820795021
 21
37.4476406519
  0
LINE
  5
31E
100
AcDbEntity
  8
0
100
AcDbLine
 62
7
  6
CONTINUOUS
 10
9.5225695601
 20
36.0209389944
 11
8.728857226
 21
36.0090170661
  0
LINE
  5
31F
100
AcDbEntity
  8
0
100
AcDbLine
 62
7
  6
CONTINUOUS
 10
8.728857226
 20
36.0090170661
 11
7.886255774
 21
35.9981650578
  0
LINE
  5
320
100
AcDbEntity
  8
RACCORDO
100
AcDbLine
 62
250
  6
CONTINUOUS
 10
7.8049487999
 20
37.41959503
 11
8.8291589668
 21
37.4328172522
  0
LINE
  5
321
100
AcDbEntity
  8
0
100
AcDbLine
 62
250
  6
CONTINUOUS
 10
-37.7957117065
 20
36.0471305222
 11
-37.6083194091
 21
36.0495476512
  0
LINE
  5
322
100
AcDbEntity
  8
0
100
AcDbLine
 62
7
  6
CONTINUOUS
 10
7.886255774
 20
35.9981650578
 11
7.0001911224
 21
35.9884484075
  0
LINE
  5
323
100
AcDbEntity
  8
RACCORDO
100
AcDbLine
 62
250
  6
CONTINUOUS
 10
6.7152307701
 20
37.4080440539
 11
7.8049487999
 21
37.41959503
  0
LINE
  5
324
100
AcDbEntity
  8
0
100
AcDbLine
 62
7
  6
CONTINUOUS
 10
7.0001911224
 20
35.9884484075
 11
6.0743723476
 21
35.9799077891
  0
LINE
  5
325
100
AcDbEntity
  8
RACCORDO
100
AcDbLine
 62
250
  6
CONTINUOUS
 10
5.5687749508
 20
37.3982632431
 11
6.7152307701
 21
37.4080440539
  0
LINE
  5
326
100
AcDbEntity
  8
0
100
AcDbLine
 62
7
  6
CONTINUOUS
 10
6.0743723476
 20
35.9799077891
 11
5.1145318564
 21
35.9726001278
  0
LINE
  5
327
100
AcDbEntity
  8
RACCORDO
100
AcDbLine
 62
250
  6
CONTINUOUS
 10
4.3771480375
 20
37.3903512673
 11
5.5687749508
 21
37.3982632431
  0
LINE
  5
328
100
AcDbEntity
  8
0
100
AcDbLine
 62
250
  6
CONTINUOUS
 10
-37.6083194091
 20
36.0495476512
 11
-37.3965924537
 21
36.0511474403
  0
LINE
  5
329
100
AcDbEntity
  8
0
100
AcDbLine
 62
7
  6
CONTINUOUS
 10
5.1145318564
 20
35.9726001278
 11
4.1267938716
 21
35.9665681491
  0
LINE
  5
32A
100
AcDbEntity
  8
0
100
AcDbLine
 62
7
  6
CONTINUOUS
 10
4.1267938716
 20
35.9665681491
 11
3.1152930754
 21
35.9618371029
  0
LINE
  5
32B
100
AcDbEntity
  8
RACCORDO
100
AcDbLine
 62
250
  6
CONTINUOUS
 10
3.1513444041
 20
37.3843725765
 11
4.3771480375
 21
37.3903512673
  0
LINE
  5
32C
100
AcDbEntity
  8
0
100
AcDbLine
 62
7
  6
CONTINUOUS
 10
3.1152930754
 20
35.9618371029
 11
2.086343955
 21
35.9584402252
  0
LINE
  5
32D
100
AcDbEntity
  8
RACCORDO
100
AcDbLine
 62
250
  6
CONTINUOUS
 10
1.9014262907
 20
37.3803660762
 11
3.1513444041
 21
37.3843725765
  0
LINE
  5
32E
100
AcDbEntity
  8
0
100
AcDbLine
 62
7
  6
CONTINUOUS
 10
2.086343955
 20
35.9584402252
 11
1.0471920276
 21
35.9563961023
  0
LINE
  5
32F
100
AcDbEntity
  8
RACCORDO
100
AcDbLine
 62
250
  6
CONTINUOUS
 10
0.6355407745
 20
37.3783539948
 11
1.9014262907
 21
37.3803660762
  0
LINE
  5
330
100
AcDbEntity
  8
0
100
AcDbLine
 62
250
  6
CONTINUOUS
 10
-37.3965924537
 20
36.0511474403
 11
-37.1
 21
36.0519192059
  0
LINE
  5
331
100
AcDbEntity
  8
0
100
AcDbLine
 62
7
  6
CONTINUOUS
 10
1.0471920276
 20
35.9563961023
 11
-0.0
 21
35.9557111472
  0
LINE
  5
332
100
AcDbEntity
  8
DRAFT
100
AcDbLine
 62
7
  6
CONTINUOUS
 10
-45.0
 20
34.5840562657
 11
-43.5
 21
34.5840562657
  0
LINE
  5
333
100
AcDbEntity
  8
DRAFT
100
AcDbLine
 62
7
  6
CONTINUOUS
 10
45.0
 20
34.5840562657
 11
43.5
 21
34.5840562657
  0
LINE
  5
334
100
AcDbEntity
  8
RACCORDO
100
AcDbLine
 62
250
  6
CONTINUOUS
 10
43.2242099741
 20
34.8572518739
 11
-43.2242099741
 21
34.8572518739
  0
LINE
  5
335
100
AcDbEntity
  8
RACCORDO
100
AcDbLine
 62
7
  6
CONTINUOUS
 10
-45.0
 20
34.8598462382
 11
-43.2242100275
 21
34.8598462382
  0
LINE
  5
336
100
AcDbEntity
  8
RACCORDO
100
AcDbLine
 62
7
  6
CONTINUOUS
 10
45.0
 20
34.8598462382
 11
43.2242100275
 21
34.8598462382
  0
LINE
  5
337
100
AcDbEntity
  8
0
100
AcDbLine
 62
7
  6
CONTINUOUS
 10
-31.6
 20
35.5840562657
 11
-37.4
 21
35.5840562657
  0
LINE
  5
338
100
AcDbEntity
  8
0
100
AcDbLine
 62
250
  6
CONTINUOUS
 10
45.0
 20
35.9570843386
 11
1.4678073572
 21
35.9570843386
  0
LINE
  5
339
100
AcDbEntity
  8
0
100
AcDbLine
 62
250
  6
CONTINUOUS
 10
-1.5675026654
 20
35.9572474661
 11
-30.9233978585
 21
35.9570843386
  0
LINE
  5
33A
100
AcDbEntity
  8
0
100
AcDbLine
 62
250
  6
CONTINUOUS
 10
-38.0766021371
 20
35.9570843386
 11
-45.0
 21
35.9570843386
  0
LINE
  5
33B
100
AcDbEntity
  8
DRAFT
100
AcDbLine
 62
7
  6
CONTINUOUS
 10
-45.0
 20
36.5840562657
 11
-14.0
 21
36.5840562657
  0
LINE
  5
33C
100
AcDbEntity
  8
DRAFT
100
AcDbLine
 62
7
  6
CONTINUOUS
 10
45.0
 20
36.5840562657
 11
14.0
 21
36.5840562657
  0
LINE
  5
33D
100
AcDbEntity
  8
RACCORDO
100
AcDbLine
 62
250
  6
CONTINUOUS
 10
-0.6355415611
 20
37.3783539967
 11
0.6355407745
 21
37.3783539948
  0
LINE
  5
33E
100
AcDbEntity
  8
0
100
AcDbLine
 62
7
  6
CONTINUOUS
 10
-1.5675026654
 20
35.9572474661
 11
-0.0
 21
35.9557111472
  0
LINE
  5
33F
100
AcDbEntity
  8
RACCORDO
100
AcDbLine
 62
250
  6
CONTINUOUS
 10
-1.90142673
 20
37.380366079
 11
-0.6355415611
 21
37.3783539967
  0
LINE
  5
340
100
AcDbEntity
  8
0
100
AcDbLine
 62
250
  6
CONTINUOUS
 10
-37.1
 20
36.0519192059
 11
-31.6768993984
 21
36.0514878746
  0
LINE
  5
341
100
AcDbEntity
  8
0
100
AcDbLine
 62
7
  6
CONTINUOUS
 10
-3.1152930754
 20
35.9618371029
 11
-1.5675026654
 21
35.9572474661
  0
LINE
  5
342
100
AcDbEntity
  8
RACCORDO
100
AcDbLine
 62
250
  6
CONTINUOUS
 10
-3.1513397198
 20
37.3843725565
 11
-1.90142673
 21
37.380366079
  0
LINE
  5
343
100
AcDbEntity
  8
RACCORDO
100
AcDbLine
 62
250
  6
CONTINUOUS
 10
-4.3771453006
 20
37.3903512496
 11
-3.1513397198
 21
37.3843725565
  0
LINE
  5
344
100
AcDbEntity
  8
0
100
AcDbLine
 62
7
  6
CONTINUOUS
 10
-4.6239068674
 20
35.9694223401
 11
-3.1152930754
 21
35.9618371029
  0
LINE
  5
345
100
AcDbEntity
  8
RACCORDO
100
AcDbLine
 62
250
  6
CONTINUOUS
 10
-5.5687894167
 20
37.3982633523
 11
-4.3771453006
 21
37.3903512496
  0
LINE
  5
346
100
AcDbEntity
  8
0
100
AcDbLine
 62
250
  6
CONTINUOUS
 10
-31.6768993984
 20
36.0514878746
 11
-31.4600264328
 21
36.050177051
  0
LINE
  5
347
100
AcDbEntity
  8
0
100
AcDbLine
 62
7
  6
CONTINUOUS
 10
-6.0743723476
 20
35.9799077891
 11
-4.6239068674
 21
35.9694223401
  0
LINE
  5
348
100
AcDbEntity
  8
RACCORDO
100
AcDbLine
 62
250
  6
CONTINUOUS
 10
-6.7153058365
 20
37.4080447695
 11
-5.5687894167
 21
37.3982633523
  0
LINE
  5
349
100
AcDbEntity
  8
0
100
AcDbLine
 62
7
  6
CONTINUOUS
 10
-7.4484490712
 20
35.9931615892
 11
-6.0743723476
 21
35.9799077891
  0
LINE
  5
34A
100
AcDbEntity
  8
RACCORDO
100
AcDbLine
 62
250
  6
CONTINUOUS
 10
-7.8050560244
 20
37.4195962859
 11
-6.7153058365
 21
37.4080447695
  0
LINE
  5
34B
100
AcDbEntity
  8
0
100
AcDbLine
 62
250
  6
CONTINUOUS
 10
-31.4600264328
 20
36.050177051
 11
-31.2630502004
 21
36.04801921
  0
LINE
  5
34C
100
AcDbEntity
  8
0
100
AcDbLine
 62
7
  6
CONTINUOUS
 10
-8.728857226
 20
36.0090170661
 11
-7.4484490712
 21
35.9931615892
  0
LINE
  5
34D
100
AcDbEntity
  8
RACCORDO
100
AcDbLine
 62
250
  6
CONTINUOUS
 10
-8.8292693254
 20
37.4328188168
 11
-7.8050560244
 21
37.4195962859
  0
LINE
  5
34E
100
AcDbEntity
  8
RACCORDO
100
AcDbLine
 62
250
  6
CONTINUOUS
 10
-9.7822143742
 20
37.4476429504
 11
-8.8292693254
 21
37.4328188168
  0
LINE
  5
34F
100
AcDbEntity
  8
0
100
AcDbLine
 62
7
  6
CONTINUOUS
 10
-9.8994949366
 20
36.0272748281
 11
-8.728857226
 21
36.0090170661
  0
LINE
  5
350
100
AcDbEntity
  8
0
100
AcDbLine
 62
250
  6
CONTINUOUS
 10
-31.2630502004
 20
36.04801921
 11
-31.1491640554
 21
36.0461604441
  0
LINE
  5
351
100
AcDbEntity
  8
0
100
AcDbLine
 62
7
  6
CONTINUOUS
 10
-10.6117324248
 20
36.0406727471
 11
-9.8994949366
 21
36.0272748281
  0
LINE
  5
352
100
AcDbEntity
  8
RACCORDO
100
AcDbLine
 62
250
  6
CONTINUOUS
 10
-10.6528402899
 20
37.4639001416
 11
-9.7822143742
 21
37.4476429504
  0
LINE
  5
353
100
AcDbEntity
  8
RACCORDO
100
AcDbLine
 62
250
  6
CONTINUOUS
 10
-11.43428343
 20
37.4814519564
 11
-10.6528402899
 21
37.4639001416
  0
LWPOLYLINE
  5
354
100
AcDbEntity
  8
0
100
AcDbPolyline
 62
250
  6
CONTINUOUS
 90
10
 70
0
 10
-31.1491640554
 20
36.0461604441
 10
-31.0531325487
 20
36.0440301668
 10
-31.0122294961
 20
36.0428700356
 10
-30.9767374976
 20
36.0416720534
 10
-30.9468276152
 20
36.0404356371
 10
-30.922328787
 20
36.0391613698
 10
-30.9034373809
 20
36.0378758173
 10
-30.8902188531
 20
36.0365878348
 10
-30.8826077474
 20
36.0352885671
 10
-30.880604064
 20
36.0339780141
  0
LINE
  5
355
100
AcDbEntity
  8
0
100
AcDbLine
 62
7
  6
CONTINUOUS
 10
-11.8541387892
 20
36.0700514768
 11
-10.6117324248
 21
36.0406727471
  0
LINE
  5
356
100
AcDbEntity
  8
0
100
AcDbLine
 62
7
  6
CONTINUOUS
 10
-12.3776934171
 20
36.0858794746
 11
-11.8541387892
 21
36.0700514768
  0
LWPOLYLINE
  5
357
100
AcDbEntity
  8
0
100
AcDbPolyline
 62
250
  6
CONTINUOUS
 90
7
 70
0
 10
-38.1193959356
 20
36.0339894422
 10
-38.0202668465
 20
36.0278371171
 10
-37.9226660227
 20
36.0094500213
 10
-37.8280978962
 20
35.9791115758
 10
-37.7380201527
 20
35.9372894215
 10
-37.6538212623
 20
35.8846282106
 10
-37.6044767013
 20
35.8463238825
  0
LWPOLYLINE
  5
358
100
AcDbEntity
  8
0
100
AcDbPolyline
 62
7
  6
CONTINUOUS
 90
10
 70
0
 10
-3.6
 20
44.4987807071
 10
-3.5938615534
 20
44.4951317351
 10
-3.5755693092
 20
44.4914827631
 10
-3.5453079108
 20
44.4878706242
 10
-3.5029561329
 20
44.4842956914
 10
-3.4486352008
 20
44.4807575916
 10
-3.3828934348
 20
44.4772920387
 10
-3.3056151629
 20
44.4738997675
 10
-3.216916057
 20
44.4705800432
 10
-3.0078347488
 20
44.4642598384
  0
LWPOLYLINE
  5
359
100
AcDbEntity
  8
0
100
AcDbPolyline
 62
7
  6
CONTINUOUS
 90
17
 70
0
 10
50.6160501144
 20
-16.4159431937
 10
50.6028811251
 20
-16.3910770843
 10
50.5897736787
 20
-16.3171061508
 10
50.5768334223
 20
-16.1949744589
 10
50.5640624976
 20
-16.0240650784
 10
50.551458763
 20
-15.8049949395
 10
50.5391829834
 20
-15.5405583582
 10
50.52723936
 20
-15.2301741988
 10
50.5156236916
 20
-14.874423597
 10
50.5044841402
 20
-14.4778442758
 10
50.4938268048
 20
-14.0399132268
 10
50.4836455863
 20
-13.5611534583
 10
50.4740703498
 20
-13.047671718
 10
50.4651088577
 20
-12.4990232239
 10
50.4567533477
 20
-11.9156527581
 10
50.449110397
 20
-11.305001414
 10
50.4421891335
 20
-10.6667197289
  0
LINE
  5
35A
100
AcDbEntity
  8
0
100
AcDbLine
 62
7
  6
CONTINUOUS
 10
-11.3516115151
 20
39.1056311296
 11
-13.2306563404
 21
38.6032885536
  0
LINE
  5
35B
100
AcDbEntity
  8
0
100
AcDbLine
 62
7
  6
CONTINUOUS
 10
-9.4513417461
 20
40.9043478923
 11
-11.6029477407
 21
40.3291389972
  0
LWPOLYLINE
  5
35C
100
AcDbEntity
  8
0
100
AcDbPolyline
 62
250
  6
CONTINUOUS
 90
7
 70
0
 10
-30.8806040641
 20
36.0339779813
 10
-30.9797329699
 20
36.0278278217
 10
-31.0773338562
 20
36.0094427598
 10
-31.1719022564
 20
35.9791061915
 10
-31.2619804478
 20
35.937285739
 10
-31.346179922
 20
35.8846260427
 10
-31.408874807
 20
35.834844399
  0
LWPOLYLINE
  5
35D
100
AcDbEntity
  8
0
100
AcDbPolyline
 62
7
  6
CONTINUOUS
 90
4
 70
0
 10
11.3821666418
 20
39.5419931228
 10
11.2400306983
 20
39.5340325518
 10
11.0799424758
 20
39.5261908037
 10
10.9018147128
 20
39.5184684563
  0
LWPOLYLINE
  5
35E
100
AcDbEntity
  8
0
100
AcDbPolyline
 62
7
  6
CONTINUOUS
 90
16
 70
0
 10
-30.9233915413
 20
35.9570843386
 10
-30.9736587743
 20
35.9545532398
 10
-31.0235603111
 20
35.9489609141
 10
-31.0730961515
 20
35.9402907823
 10
-31.1224070462
 20
35.9285500785
 10
-31.1713522445
 20
35.9137319825
 10
-31.2195094946
 20
35.8957818135
 10
-31.2668659597
 20
35.8747160401
 10
-31.3134344766
 20
35.8505158639
 10
-31.358831304
 20
35.8229984664
 10
-31.4031447988
 20
35.7921269227
 10
-31.4462866042
 20
35.7578818257
 10
-31.4876079082
 20
35.7200119506
 10
-31.5268924401
 20
35.6783880717
 10
-31.5643564708
 20
35.633067628
 10
-31.6
 20
35.5840562657
  0
LINE
  5
35F
100
AcDbEntity
  8
0
100
AcDbLine
 62
7
  6
CONTINUOUS
 10
9.4907481555
 20
41.3389609332
 11
9.3311832784
 21
41.3317975094
  0
LWPOLYLINE
  5
360
100
AcDbEntity
  8
RACCORDO
100
AcDbPolyline
 62
250
  6
CONTINUOUS
 90
10
 70
0
 10
9.2047877118
 20
41.7935457161
 10
9.4012943911
 20
41.8016759674
 10
9.5738572425
 20
41.8099476864
 10
9.7224022957
 20
41.8183507352
 10
9.8468688278
 20
41.8268817609
 10
9.9469921523
 20
41.8355320883
 10
10.0222490995
 20
41.8442683335
 10
10.0722906698
 20
41.8530498992
 10
10.0970555488
 20
41.8618419598
 10
10.1
 20
41.8660979591
  0
LWPOLYLINE
  5
361
100
AcDbEntity
  8
RACCORDO
100
AcDbPolyline
 62
250
  6
CONTINUOUS
 90
11
 70
0
 10
9.0021417036
 20
42.0848766062
 10
9.1943222636
 20
42.0928278591
 10
9.3630860978
 20
42.1009174733
 10
9.5083608783
 20
42.1091355298
 10
9.6300872405
 20
42.1174787436
 10
9.7280063381
 20
42.1259386275
 10
9.8016065069
 20
42.1344825355
 10
9.8505464158
 20
42.1430707682
 10
9.8747660934
 20
42.1516692681
 10
9.874373019
 20
42.1602688237
 10
9.8566649295
 20
42.1670615052
  0
LWPOLYLINE
  5
362
100
AcDbEntity
  8
RACCORDO
100
AcDbPolyline
 62
250
  6
CONTINUOUS
 90
11
 70
0
 10
10.6648530882
 20
39.9360337253
 10
10.8978970479
 20
39.9449649318
 10
11.1065705722
 20
39.9540869415
 10
11.2905347372
 20
39.9633903433
 10
11.4490544915
 20
39.972844115
 10
11.5814991791
 20
39.9824106478
 10
11.6875294499
 20
39.9920568883
 10
11.7671401408
 20
40.001771731
 10
11.8202886307
 20
40.0115499845
 10
11.846801364
 20
40.02138097
 10
11.85
 20
40.0261858505
  0
LWPOLYLINE
  5
363
100
AcDbEntity
  8
RACCORDO
100
AcDbPolyline
 62
250
  6
CONTINUOUS
 90
12
 70
0
 10
10.4647369492
 20
40.2274589708
 10
10.6934080422
 20
40.2362225948
 10
10.8981659957
 20
40.2451734396
 10
11.0786782574
 20
40.2543022675
 10
11.2342235575
 20
40.2635786418
 10
11.3641830592
 20
40.2729656631
 10
11.4682237718
 20
40.2824309004
 10
11.5463406365
 20
40.2919634543
 10
11.5984918407
 20
40.3015582288
 10
11.624507089
 20
40.3112047445
 10
11.6241849013
 20
40.3208702338
 10
11.6029478508
 20
40.3291389677
  0
LWPOLYLINE
  5
364
100
AcDbEntity
  8
RACCORDO
100
AcDbPolyline
 62
250
  6
CONTINUOUS
 90
13
 70
0
 10
11.771156282
 20
38.481717435
 10
12.0365812922
 20
38.4911738289
 10
12.2768967653
 20
38.5008232986
 10
12.4920019656
 20
38.5106618697
 10
12.6815847278
 20
38.5206809589
 10
12.8449273525
 20
38.5308491235
 10
12.9814102383
 20
38.5411277214
 10
13.0907085205
 20
38.5514829855
 10
13.1728411475
 20
38.5619051309
 10
13.2277828506
 20
38.5723910285
 10
13.2553630748
 20
38.582931549
 10
13.255369705
 20
38.5934924455
 10
13.2306563448
 20
38.6032885524
  0
LINE
  5
365
100
AcDbEntity
  8
0
100
AcDbLine
 62
7
  6
CONTINUOUS
 10
9.3311832784
 20
41.3317975094
 11
8.9586314566
 21
41.3178568511
  0
LINE
  5
366
100
AcDbEntity
  8
0
100
AcDbLine
 62
7
  6
CONTINUOUS
 10
10.4631467705
 20
39.0228422007
 11
10.0584106243
 21
39.0078312447
  0
LINE
  5
367
100
AcDbEntity
  8
0
100
AcDbLine
 62
7
  6
CONTINUOUS
 10
10.9018147128
 20
39.5184684563
 11
10.492653904
 21
39.5034171293
  0
LINE
  5
368
100
AcDbEntity
  8
RACCORDO
100
AcDbLine
 62
250
  6
CONTINUOUS
 10
8.7428512083
 20
41.7778423438
 11
9.2047877118
 21
41.7935457161
  0
LINE
  5
369
100
AcDbEntity
  8
RACCORDO
100
AcDbLine
 62
250
  6
CONTINUOUS
 10
8.5503747886
 20
42.0695189705
 11
9.0021417036
 21
42.0848766062
  0
LINE
  5
36A
100
AcDbEntity
  8
0
100
AcDbLine
 62
7
  6
CONTINUOUS
 10
8.5796999378
 20
40.8301962159
 11
8.1839400658
 21
40.8168663841
  0
LINE
  5
36B
100
AcDbEntity
  8
RACCORDO
100
AcDbLine
 62
250
  6
CONTINUOUS
 10
10.1262145657
 20
39.9187687658
 11
10.6648530882
 21
39.9360337253
  0
LINE
  5
36C
100
AcDbEntity
  8
RACCORDO
100
AcDbLine
 62
250
  6
CONTINUOUS
 10
9.9362054581
 20
40.2105179799
 11
10.4647369492
 21
40.2274589708
  0
LINE
  5
36D
100
AcDbEntity
  8
0
100
AcDbLine
 62
7
  6
CONTINUOUS
 10
10.0584106243
 20
39.0078312447
 11
9.5831219544
 21
38.9934640027
  0
LINE
  5
36E
100
AcDbEntity
  8
0
100
AcDbLine
 62
7
  6
CONTINUOUS
 10
10.492653904
 20
39.5034171293
 11
10.0153249243
 21
39.4889902044
  0
LINE
  5
36F
100
AcDbEntity
  8
RACCORDO
100
AcDbLine
 62
250
  6
CONTINUOUS
 10
11.1662929118
 20
38.4634448676
 11
11.771156282
 21
38.481717435
  0
LINE
  5
370
100
AcDbEntity
  8
0
100
AcDbLine
 62
7
  6
CONTINUOUS
 10
8.9586314566
 20
41.3178568511
 11
8.5183578418
 21
41.3045480601
  0
LINE
  5
371
100
AcDbEntity
  8
0
100
AcDbLine
 62
7
  6
CONTINUOUS
 10
8.1839400658
 20
40.8168663841
 11
7.7203654889
 21
40.8042198635
  0
LINE
  5
372
100
AcDbEntity
  8
RACCORDO
100
AcDbLine
 62
250
  6
CONTINUOUS
 10
8.1951524033
 20
41.7630703934
 11
8.7428512083
 21
41.7778423438
  0
LINE
  5
373
100
AcDbEntity
  8
RACCORDO
100
AcDbLine
 62
250
  6
CONTINUOUS
 10
8.0147337126
 20
42.0550722353
 11
8.5503747886
 21
42.0695189705
  0
LINE
  5
374
100
AcDbEntity
  8
RACCORDO
100
AcDbLine
 62
250
  6
CONTINUOUS
 10
9.4951200261
 20
39.9024518654
 11
10.1262145657
 21
39.9187687658
  0
LINE
  5
375
100
AcDbEntity
  8
RACCORDO
100
AcDbLine
 62
250
  6
CONTINUOUS
 10
9.3169527716
 20
40.1945072695
 11
9.9362054581
 21
40.2105179799
  0
LINE
  5
376
100
AcDbEntity
  8
0
100
AcDbLine
 62
7
  6
CONTINUOUS
 10
10.0153249243
 20
39.4889902044
 11
9.4735146301
 21
39.4752909776
  0
LINE
  5
377
100
AcDbEntity
  8
0
100
AcDbLine
 62
7
  6
CONTINUOUS
 10
9.5831219544
 20
38.9934640027
 11
9.0406145696
 21
38.9798412506
  0
LINE
  5
378
100
AcDbEntity
  8
0
100
AcDbLine
 62
7
  6
CONTINUOUS
 10
8.5183578418
 20
41.3045480601
 11
8.0128687369
 21
41.2919468981
  0
LINE
  5
379
100
AcDbEntity
  8
RACCORDO
100
AcDbLine
 62
250
  6
CONTINUOUS
 10
10.4694677519
 20
38.4462303142
 11
11.1662929118
 21
38.4634448676
  0
LINE
  5
37A
100
AcDbEntity
  8
0
100
AcDbLine
 62
7
  6
CONTINUOUS
 10
7.7203654889
 20
40.8042198635
 11
7.1928175323
 21
40.7923614472
  0
LINE
  5
37B
100
AcDbEntity
  8
RACCORDO
100
AcDbLine
 62
250
  6
CONTINUOUS
 10
7.5647935589
 20
41.7493051094
 11
8.1951524033
 21
41.7630703934
  0
LINE
  5
37C
100
AcDbEntity
  8
RACCORDO
100
AcDbLine
 62
250
  6
CONTINUOUS
 10
7.3982524043
 20
42.0416099979
 11
8.0147337126
 21
42.0550722353
  0
LINE
  5
37D
100
AcDbEntity
  8
0
100
AcDbLine
 62
7
  6
CONTINUOUS
 10
9.4735146301
 20
39.4752909776
 11
8.8698523658
 21
39.4623859299
  0
LINE
  5
37E
100
AcDbEntity
  8
0
100
AcDbLine
 62
7
  6
CONTINUOUS
 10
9.0406145696
 20
38.9798412506
 11
8.4346937692
 21
38.9670585422
  0
LINE
  5
37F
100
AcDbEntity
  8
RACCORDO
100
AcDbLine
 62
250
  6
CONTINUOUS
 10
8.7801548685
 20
39.8872978293
 11
9.4951200261
 21
39.9024518654
  0
LINE
  5
380
100
AcDbEntity
  8
RACCORDO
100
AcDbLine
 62
250
  6
CONTINUOUS
 10
8.6154032894
 20
40.1796375825
 11
9.3169527716
 21
40.1945072695
  0
LINE
  5
381
100
AcDbEntity
  8
0
100
AcDbLine
 62
7
  6
CONTINUOUS
 10
8.0128687369
 20
41.2919468981
 11
7.4462714621
 21
41.2801640784
  0
LINE
  5
382
100
AcDbEntity
  8
RACCORDO
100
AcDbLine
 62
250
  6
CONTINUOUS
 10
9.6868413266
 20
38.4302134939
 11
10.4694677519
 21
38.4462303142
  0
LINE
  5
383
100
AcDbEntity
  8
0
100
AcDbLine
 62
7
  6
CONTINUOUS
 10
7.1928175323
 20
40.7923614472
 11
6.6056676242
 21
40.7813893978
  0
LINE
  5
384
100
AcDbEntity
  8
0
100
AcDbLine
 62
7
  6
CONTINUOUS
 10
8.8698523658
 20
39.4623859299
 11
8.2085648699
 21
39.4503718538
  0
LINE
  5
385
100
AcDbEntity
  8
0
100
AcDbLine
 62
7
  6
CONTINUOUS
 10
8.4346937692
 20
38.9670585422
 11
7.7696096523
 21
38.9552055389
  0
LINE
  5
386
100
AcDbEntity
  8
RACCORDO
100
AcDbLine
 62
250
  6
CONTINUOUS
 10
6.8577514401
 20
41.7366895219
 11
7.5647935589
 21
41.7493051094
  0
LINE
  5
387
100
AcDbEntity
  8
RACCORDO
100
AcDbLine
 62
250
  6
CONTINUOUS
 10
6.7067760093
 20
42.0292721526
 11
7.3982524043
 21
42.0416099979
  0
LINE
  5
388
100
AcDbEntity
  8
RACCORDO
100
AcDbLine
 62
250
  6
CONTINUOUS
 10
7.9847820301
 20
39.8733743557
 11
8.7801548685
 21
39.8872978293
  0
LINE
  5
389
100
AcDbEntity
  8
RACCORDO
100
AcDbLine
 62
250
  6
CONTINUOUS
 10
7.8349548859
 20
40.1659753738
 11
8.6154032894
 21
40.1796375825
  0
LINE
  5
38A
100
AcDbEntity
  8
0
100
AcDbLine
 62
7
  6
CONTINUOUS
 10
7.4462714621
 20
41.2801640784
 11
6.8236305449
 21
41.2692974961
  0
LINE
  5
38B
100
AcDbEntity
  8
RACCORDO
100
AcDbLine
 62
250
  6
CONTINUOUS
 10
8.8220033156
 20
38.4154722727
 11
9.6868413266
 21
38.4302134939
  0
LINE
  5
38C
100
AcDbEntity
  8
0
100
AcDbLine
 62
7
  6
CONTINUOUS
 10
8.2085648699
 20
39.4503718538
 11
7.4946483119
 21
39.4393336451
  0
LINE
  5
38D
100
AcDbEntity
  8
0
100
AcDbLine
 62
7
  6
CONTINUOUS
 10
6.6056676242
 20
40.7813893978
 11
5.9637810739
 21
40.7713946331
  0
LINE
  5
38E
100
AcDbEntity
  8
0
100
AcDbLine
 62
7
  6
CONTINUOUS
 10
7.7696096523
 20
38.9552055389
 11
7.0500273062
 21
38.9443653812
  0
LINE
  5
38F
100
AcDbEntity
  8
0
100
AcDbLine
 62
7
  6
CONTINUOUS
 10
6.8236305449
 20
41.2692974961
 11
6.148490433
 21
41.2594090102
  0
LINE
  5
390
100
AcDbEntity
  8
RACCORDO
100
AcDbLine
 62
250
  6
CONTINUOUS
 10
7.1161615574
 20
39.8608177454
 11
7.9847820301
 21
39.8733743557
  0
LINE
  5
391
100
AcDbEntity
  8
RACCORDO
100
AcDbLine
 62
250
  6
CONTINUOUS
 10
6.9826332462
 20
40.1536543933
 11
7.8349548859
 21
40.1659753738
  0
LINE
  5
392
100
AcDbEntity
  8
RACCORDO
100
AcDbLine
 62
250
  6
CONTINUOUS
 10
6.0801329217
 20
41.7253467343
 11
6.8577514401
 21
41.7366895219
  0
LINE
  5
393
100
AcDbEntity
  8
RACCORDO
100
AcDbLine
 62
250
  6
CONTINUOUS
 10
5.9462768263
 20
42.0181791534
 11
6.7067760093
 21
42.0292721526
  0
LINE
  5
394
100
AcDbEntity
  8
RACCORDO
100
AcDbLine
 62
250
  6
CONTINUOUS
 10
7.884756538
 20
38.4021790337
 11
8.8220033156
 21
38.4154722727
  0
LINE
  5
395
100
AcDbEntity
  8
0
100
AcDbLine
 62
7
  6
CONTINUOUS
 10
7.4946483119
 20
39.4393336451
 11
6.7315672488
 21
39.4293248711
  0
LINE
  5
396
100
AcDbEntity
  8
0
100
AcDbLine
 62
7
  6
CONTINUOUS
 10
5.9637810739
 20
40.7713946331
 11
5.2724767553
 21
40.7624599729
  0
LINE
  5
397
100
AcDbEntity
  8
0
100
AcDbLine
 62
7
  6
CONTINUOUS
 10
7.0500273062
 20
38.9443653812
 11
6.2809940839
 21
38.934614105
  0
LINE
  5
398
100
AcDbEntity
  8
0
100
AcDbLine
 62
7
  6
CONTINUOUS
 10
6.148490433
 20
41.2594090102
 11
5.4264603731
 21
41.2505870089
  0
LINE
  5
399
100
AcDbEntity
  8
RACCORDO
100
AcDbLine
 62
250
  6
CONTINUOUS
 10
6.8831696147
 20
38.3904407958
 11
7.884756538
 21
38.4021790337
  0
LINE
  5
39A
100
AcDbEntity
  8
RACCORDO
100
AcDbLine
 62
250
  6
CONTINUOUS
 10
6.1858012876
 20
39.8497884148
 11
7.1161615574
 21
39.8608177454
  0
LINE
  5
39B
100
AcDbEntity
  8
RACCORDO
100
AcDbLine
 62
250
  6
CONTINUOUS
 10
6.0697302609
 20
40.14283206
 11
6.9826332462
 21
40.1536543933
  0
LINE
  5
39C
100
AcDbEntity
  8
RACCORDO
100
AcDbLine
 62
250
  6
CONTINUOUS
 10
5.2641949363
 20
41.7156644497
 11
6.0801329217
 21
41.7253467343
  0
LINE
  5
39D
100
AcDbEntity
  8
RACCORDO
100
AcDbLine
 62
250
  6
CONTINUOUS
 10
5.1483019173
 20
42.0087100596
 11
5.9462768263
 21
42.0181791534
  0
LINE
  5
39E
100
AcDbEntity
  8
0
100
AcDbLine
 62
7
  6
CONTINUOUS
 10
6.7315672488
 20
39.4293248711
 11
5.9247528622
 21
39.4204218582
  0
LINE
  5
39F
100
AcDbEntity
  8
0
100
AcDbLine
 62
7
  6
CONTINUOUS
 10
6.2809940839
 20
38.934614105
 11
5.4679042011
 21
38.9260201083
  0
LINE
  5
3A0
100
AcDbEntity
  8
0
100
AcDbLine
 62
7
  6
CONTINUOUS
 10
5.2724767553
 20
40.7624599729
 11
4.5374830339
 21
40.7546594526
  0
LINE
  5
3A1
100
AcDbEntity
  8
0
100
AcDbLine
 62
7
  6
CONTINUOUS
 10
5.4264603731
 20
41.2505870089
 11
4.663884103
 21
41.2429031748
  0
LINE
  5
3A2
100
AcDbEntity
  8
RACCORDO
100
AcDbLine
 62
250
  6
CONTINUOUS
 10
5.8227821908
 20
38.3803245628
 11
6.8831696147
 21
38.3904407958
  0
LINE
  5
3A3
100
AcDbEntity
  8
RACCORDO
100
AcDbLine
 62
250
  6
CONTINUOUS
 10
5.2077120957
 20
39.8404162928
 11
6.1858012876
 21
39.8497884148
  0
LINE
  5
3A4
100
AcDbEntity
  8
RACCORDO
100
AcDbLine
 62
250
  6
CONTINUOUS
 10
5.109994073
 20
40.1336357757
 11
6.0697302609
 21
40.14283206
  0
LINE
  5
3A5
100
AcDbEntity
  8
0
100
AcDbLine
 62
7
  6
CONTINUOUS
 10
5.9247528622
 20
39.4204218582
 11
5.0802202758
 21
39.4126861681
  0
LINE
  5
3A6
100
AcDbEntity
  8
0
100
AcDbLine
 62
7
  6
CONTINUOUS
 10
5.4679042011
 20
38.9260201083
 11
4.6164608989
 21
38.918643672
  0
LINE
  5
3A7
100
AcDbEntity
  8
0
100
AcDbLine
 62
7
  6
CONTINUOUS
 10
4.5374830339
 20
40.7546594526
 11
3.764890299
 21
40.7480577097
  0
LINE
  5
3A8
100
AcDbEntity
  8
RACCORDO
100
AcDbLine
 62
250
  6
CONTINUOUS
 10
4.0147732843
 20
41.7043530454
 11
5.2641949363
 21
41.7156644497
  0
LINE
  5
3A9
100
AcDbEntity
  8
RACCORDO
100
AcDbLine
 62
250
  6
CONTINUOUS
 10
3.9263867565
 20
41.9976476431
 11
5.1483019173
 21
42.0087100596
  0
LINE
  5
3AA
100
AcDbEntity
  8
0
100
AcDbLine
 62
7
  6
CONTINUOUS
 10
4.663884103
 20
41.2429031748
 11
3.8651026669
 21
41.236401249
  0
LINE
  5
3AB
100
AcDbEntity
  8
RACCORDO
100
AcDbLine
 62
250
  6
CONTINUOUS
 10
4.7144668222
 20
38.3719384455
 11
5.8227821908
 21
38.3803245628
  0
LINE
  5
3AC
100
AcDbEntity
  8
0
100
AcDbLine
 62
7
  6
CONTINUOUS
 10
5.0802202758
 20
39.4126861681
 11
4.2020679115
 21
39.4061553414
  0
LINE
  5
3AD
100
AcDbEntity
  8
RACCORDO
100
AcDbLine
 62
250
  6
CONTINUOUS
 10
4.1967200972
 20
39.8327788221
 11
5.2077120957
 21
39.8404162928
  0
LINE
  5
3AE
100
AcDbEntity
  8
0
100
AcDbLine
 62
7
  6
CONTINUOUS
 10
4.6164608989
 20
38.918643672
 11
3.7326364405
 21
38.9125365365
  0
LINE
  5
3AF
100
AcDbEntity
  8
RACCORDO
100
AcDbLine
 62
250
  6
CONTINUOUS
 10
3.6135634828
 20
40.1230374825
 11
5.109994073
 21
40.1336357757
  0
LINE
  5
3B0
100
AcDbEntity
  8
0
100
AcDbLine
 62
7
  6
CONTINUOUS
 10
3.764890299
 20
40.7480577097
 11
2.9611004975
 21
40.7427094485
  0
LINE
  5
3B1
100
AcDbEntity
  8
0
100
AcDbLine
 62
7
  6
CONTINUOUS
 10
3.8651026669
 20
41.236401249
 11
3.0368449772
 21
41.2311412708
  0
LINE
  5
3B2
100
AcDbEntity
  8
0
100
AcDbLine
 62
7
  6
CONTINUOUS
 10
4.2020679115
 20
39.4061553414
 11
3.2966157537
 21
39.4008808024
  0
LINE
  5
3B3
100
AcDbEntity
  8
RACCORDO
100
AcDbLine
 62
250
  6
CONTINUOUS
 10
2.7896690501
 20
41.6966857524
 11
4.0147732843
 21
41.7043530454
  0
LINE
  5
3B4
100
AcDbEntity
  8
RACCORDO
100
AcDbLine
 62
250
  6
CONTINUOUS
 10
3.5682703527
 20
38.3653537818
 11
4.7144668222
 21
38.3719384455
  0
LINE
  5
3B5
100
AcDbEntity
  8
0
100
AcDbLine
 62
7
  6
CONTINUOUS
 10
3.7326364405
 20
38.9125365365
 11
2.8226302193
 21
38.9077415388
  0
LINE
  5
3B6
100
AcDbEntity
  8
RACCORDO
100
AcDbLine
 62
250
  6
CONTINUOUS
 10
2.3439069966
 20
41.9883668709
 11
3.9263867565
 21
41.9976476431
  0
LINE
  5
3B7
100
AcDbEntity
  8
RACCORDO
100
AcDbLine
 62
250
  6
CONTINUOUS
 10
2.6635116582
 20
39.8246667089
 11
4.1967200972
 21
39.8327788221
  0
LINE
  5
3B8
100
AcDbEntity
  8
0
100
AcDbLine
 62
7
  6
CONTINUOUS
 10
2.9611004975
 20
40.7427094485
 11
2.1327740846
 21
40.7386589862
  0
LINE
  5
3B9
100
AcDbEntity
  8
0
100
AcDbLine
 62
7
  6
CONTINUOUS
 10
3.0368449772
 20
41.2311412708
 11
2.1863016669
 21
41.2271638256
  0
LINE
  5
3BA
100
AcDbEntity
  8
0
100
AcDbLine
 62
7
  6
CONTINUOUS
 10
3.2966157537
 20
39.4008808024
 11
2.3705483031
 21
39.3968972012
  0
LINE
  5
3BB
100
AcDbEntity
  8
RACCORDO
100
AcDbLine
 62
250
  6
CONTINUOUS
 10
2.1384044406
 20
40.1164505194
 11
3.6135634828
 21
40.1230374825
  0
LINE
  5
3BC
100
AcDbEntity
  8
RACCORDO
100
AcDbLine
 62
250
  6
CONTINUOUS
 10
2.3950962972
 20
38.360622787
 11
3.5682703527
 21
38.3653537818
  0
LINE
  5
3BD
100
AcDbEntity
  8
0
100
AcDbLine
 62
7
  6
CONTINUOUS
 10
2.8226302193
 20
38.9077415388
 11
1.8928252752
 21
38.9042923125
  0
LINE
  5
3BE
100
AcDbEntity
  8
0
100
AcDbLine
 62
7
  6
CONTINUOUS
 10
2.1327740846
 20
40.7386589862
 11
1.286774834
 21
40.7359398863
  0
LINE
  5
3BF
100
AcDbEntity
  8
0
100
AcDbLine
 62
7
  6
CONTINUOUS
 10
2.1863016669
 20
41.2271638256
 11
1.3183145414
 21
41.2244915554
  0
LINE
  5
3C0
100
AcDbEntity
  8
0
100
AcDbLine
 62
7
  6
CONTINUOUS
 10
2.3705483031
 20
39.3968972012
 11
1.428359661
 21
39.3942238697
  0
LINE
  5
3C1
100
AcDbEntity
  8
RACCORDO
100
AcDbLine
 62
250
  6
CONTINUOUS
 10
1.2025612621
 20
38.3577696534
 11
2.3950962972
 21
38.360622787
  0
LINE
  5
3C2
100
AcDbEntity
  8
RACCORDO
100
AcDbLine
 62
250
  6
CONTINUOUS
 10
0.9550942614
 20
41.6906185498
 11
2.7896690501
 21
41.6966857524
  0
LINE
  5
3C3
100
AcDbEntity
  8
0
100
AcDbLine
 62
7
  6
CONTINUOUS
 10
1.8928252752
 20
38.9042923125
 11
0.9497435218
 21
38.9022130515
  0
LINE
  5
3C4
100
AcDbEntity
  8
RACCORDO
100
AcDbLine
 62
250
  6
CONTINUOUS
 10
0.8210144891
 20
39.819871801
 11
2.6635116582
 21
39.8246667089
  0
LINE
  5
3C5
100
AcDbEntity
  8
RACCORDO
100
AcDbLine
 62
250
  6
CONTINUOUS
 10
0.6106332244
 20
41.9837725319
 11
2.3439069966
 21
41.9883668709
  0
LINE
  5
3C6
100
AcDbEntity
  8
0
100
AcDbLine
 62
7
  6
CONTINUOUS
 10
1.286774834
 20
40.7359398863
 11
0.4301129618
 21
40.73457468
  0
LINE
  5
3C7
100
AcDbEntity
  8
0
100
AcDbLine
 62
7
  6
CONTINUOUS
 10
1.428359661
 20
39.3942238697
 11
0.478434187
 21
39.3928859705
  0
LINE
  5
3C8
100
AcDbEntity
  8
0
100
AcDbLine
 62
7
  6
CONTINUOUS
 10
1.3183145414
 20
41.2244915554
 11
0.4419444835
 21
41.2231539705
  0
LINE
  5
3C9
100
AcDbEntity
  8
RACCORDO
100
AcDbLine
 62
250
  6
CONTINUOUS
 10
0.3939981935
 20
40.1131055084
 11
2.1384044406
 21
40.1164505194
  0
LINE
  5
3CA
100
AcDbEntity
  8
0
100
AcDbLine
 62
7
  6
CONTINUOUS
 10
0.9497435218
 20
38.9022130515
 11
-0.0
 21
38.9015183402
  0
LINE
  5
3CB
100
AcDbEntity
  8
RACCORDO
100
AcDbLine
 62
250
  6
CONTINUOUS
 10
-0.6018950709
 20
38.357054588
 11
1.2025612621
 21
38.3577696534
  0
LINE
  5
3CC
100
AcDbEntity
  8
RACCORDO
100
AcDbLine
 62
250
  6
CONTINUOUS
 10
-0.8187066735
 20
39.8198690083
 11
0.8210144891
 21
39.819871801
  0
LINE
  5
3CD
100
AcDbEntity
  8
0
100
AcDbLine
 62
7
  6
CONTINUOUS
 10
-0.954554074
 20
39.3933885989
 11
0.478434187
 21
39.3928859705
  0
LINE
  5
3CE
100
AcDbEntity
  8
0
100
AcDbLine
 62
7
  6
CONTINUOUS
 10
-0.8593344488
 20
40.7350870749
 11
0.4301129618
 21
40.73457468
  0
LINE
  5
3CF
100
AcDbEntity
  8
0
100
AcDbLine
 62
7
  6
CONTINUOUS
 10
-0.881382664
 20
41.2236566399
 11
0.4419444835
 21
41.2231539705
  0
LINE
  5
3D0
100
AcDbEntity
  8
RACCORDO
100
AcDbLine
 62
250
  6
CONTINUOUS
 10
-0.9523190617
 20
41.6906139561
 11
0.9550942614
 21
41.6906185498
  0
LINE
  5
3D1
100
AcDbEntity
  8
RACCORDO
100
AcDbLine
 62
250
  6
CONTINUOUS
 10
-1.2307323565
 20
40.1141289166
 11
0.3939981935
 21
40.1131055084
  0
LINE
  5
3D2
100
AcDbEntity
  8
0
100
AcDbLine
 62
7
  6
CONTINUOUS
 10
-1.422532201
 20
38.9030802981
 11
-0.0
 21
38.9015183402
  0
LINE
  5
3D3
100
AcDbEntity
  8
RACCORDO
100
AcDbLine
 62
250
  6
CONTINUOUS
 10
-1.264265682
 20
41.9848607739
 11
0.6106332244
 21
41.9837725319
  0
LINE
  5
3D4
100
AcDbEntity
  8
RACCORDO
100
AcDbLine
 62
250
  6
CONTINUOUS
 10
-2.3950945575
 20
38.3606227894
 11
-0.6018950709
 21
38.357054588
  0
LINE
  5
3D5
100
AcDbEntity
  8
RACCORDO
100
AcDbLine
 62
250
  6
CONTINUOUS
 10
-2.1730567133
 20
39.8228819354
 11
-0.8187066735
 21
39.8198690083
  0
LINE
  5
3D6
100
AcDbEntity
  8
0
100
AcDbLine
 62
7
  6
CONTINUOUS
 10
-2.3705483031
 20
39.3968972012
 11
-0.954554074
 21
39.3933885989
  0
LINE
  5
3D7
100
AcDbEntity
  8
0
100
AcDbLine
 62
7
  6
CONTINUOUS
 10
-2.1863016669
 20
41.2271638256
 11
-0.881382664
 21
41.2236566399
  0
LINE
  5
3D8
100
AcDbEntity
  8
RACCORDO
100
AcDbLine
 62
250
  6
CONTINUOUS
 10
-2.6061432027
 20
40.1181521962
 11
-1.2307323565
 21
40.1141289166
  0
LINE
  5
3D9
100
AcDbEntity
  8
0
100
AcDbLine
 62
7
  6
CONTINUOUS
 10
-2.1327740846
 20
40.7386589862
 11
-0.8593344488
 21
40.7350870749
  0
LINE
  5
3DA
100
AcDbEntity
  8
RACCORDO
100
AcDbLine
 62
250
  6
CONTINUOUS
 10
-2.3895498174
 20
41.6948329843
 11
-0.9523190617
 21
41.6906139561
  0
LINE
  5
3DB
100
AcDbEntity
  8
0
100
AcDbLine
 62
7
  6
CONTINUOUS
 10
-2.8226302193
 20
38.9077415388
 11
-1.422532201
 21
38.9030802981
  0
LINE
  5
3DC
100
AcDbEntity
  8
RACCORDO
100
AcDbLine
 62
250
  6
CONTINUOUS
 10
-3.5682659273
 20
38.3653537429
 11
-2.3950945575
 21
38.3606227894
  0
LINE
  5
3DD
100
AcDbEntity
  8
RACCORDO
100
AcDbLine
 62
250
  6
CONTINUOUS
 10
-2.7201318767
 20
41.990108472
 11
-1.264265682
 21
41.9848607739
  0
LINE
  5
3DE
100
AcDbEntity
  8
RACCORDO
100
AcDbLine
 62
250
  6
CONTINUOUS
 10
-3.6727880715
 20
39.829559011
 11
-2.1730567133
 21
39.8228819354
  0
LINE
  5
3DF
100
AcDbEntity
  8
0
100
AcDbLine
 62
7
  6
CONTINUOUS
 10
-3.7527460333
 20
39.4033614167
 11
-2.3705483031
 21
39.3968972012
  0
LINE
  5
3E0
100
AcDbEntity
  8
0
100
AcDbLine
 62
7
  6
CONTINUOUS
 10
-3.4546478764
 20
41.2336164579
 11
-2.1863016669
 21
41.2271638256
  0
LINE
  5
3E1
100
AcDbEntity
  8
RACCORDO
100
AcDbLine
 62
250
  6
CONTINUOUS
 10
-4.1074134586
 20
40.126071874
 11
-2.6061432027
 21
40.1181521962
  0
LINE
  5
3E2
100
AcDbEntity
  8
RACCORDO
100
AcDbLine
 62
250
  6
CONTINUOUS
 10
-4.7144685924
 20
38.3719384504
 11
-3.5682659273
 21
38.3653537429
  0
LINE
  5
3E3
100
AcDbEntity
  8
0
100
AcDbLine
 62
7
  6
CONTINUOUS
 10
-3.3664841745
 20
40.7452238759
 11
-2.1327740846
 21
40.7386589862
  0
LINE
  5
3E4
100
AcDbEntity
  8
RACCORDO
100
AcDbLine
 62
250
  6
CONTINUOUS
 10
-3.5896922551
 20
41.7013375336
 11
-2.3895498174
 21
41.6948329843
  0
LINE
  5
3E5
100
AcDbEntity
  8
0
100
AcDbLine
 62
7
  6
CONTINUOUS
 10
-4.178213673
 20
38.9154285518
 11
-2.8226302193
 21
38.9077415388
  0
LINE
  5
3E6
100
AcDbEntity
  8
RACCORDO
100
AcDbLine
 62
250
  6
CONTINUOUS
 10
-3.9155194825
 20
41.9975655941
 11
-2.7201318767
 21
41.990108472
  0
LINE
  5
3E7
100
AcDbEntity
  8
0
100
AcDbLine
 62
7
  6
CONTINUOUS
 10
-5.0802202758
 20
39.4126861681
 11
-3.7527460333
 21
39.4033614167
  0
LINE
  5
3E8
100
AcDbEntity
  8
RACCORDO
100
AcDbLine
 62
250
  6
CONTINUOUS
 10
-5.822821507
 20
38.3803248969
 11
-4.7144685924
 21
38.3719384504
  0
LINE
  5
3E9
100
AcDbEntity
  8
RACCORDO
100
AcDbLine
 62
250
  6
CONTINUOUS
 10
-5.1960031525
 20
39.8403164542
 11
-3.6727880715
 21
39.829559011
  0
LINE
  5
3EA
100
AcDbEntity
  8
0
100
AcDbLine
 62
7
  6
CONTINUOUS
 10
-4.663884103
 20
41.2429031748
 11
-3.4546478764
 21
41.2336164579
  0
LINE
  5
3EB
100
AcDbEntity
  8
RACCORDO
100
AcDbLine
 62
250
  6
CONTINUOUS
 10
-5.5834214706
 20
40.1379156659
 11
-4.1074134586
 21
40.126071874
  0
LINE
  5
3EC
100
AcDbEntity
  8
0
100
AcDbLine
 62
7
  6
CONTINUOUS
 10
-4.5374830339
 20
40.7546594526
 11
-3.3664841745
 21
40.7452238759
  0
LINE
  5
3ED
100
AcDbEntity
  8
RACCORDO
100
AcDbLine
 62
250
  6
CONTINUOUS
 10
-4.8360399192
 20
41.7113484345
 11
-3.5896922551
 21
41.7013375336
  0
LINE
  5
3EE
100
AcDbEntity
  8
0
100
AcDbLine
 62
7
  6
CONTINUOUS
 10
-5.4679042011
 20
38.9260201083
 11
-4.178213673
 21
38.9154285518
  0
LINE
  5
3EF
100
AcDbEntity
  8
RACCORDO
100
AcDbLine
 62
250
  6
CONTINUOUS
 10
-6.8832639634
 20
38.3904417901
 11
-5.822821507
 21
38.3803248969
  0
LINE
  5
3F0
100
AcDbEntity
  8
RACCORDO
100
AcDbLine
 62
250
  6
CONTINUOUS
 10
-6.1740255665
 20
39.8496628013
 11
-5.1960031525
 21
39.8403164542
  0
LINE
  5
3F1
100
AcDbEntity
  8
RACCORDO
100
AcDbLine
 62
250
  6
CONTINUOUS
 10
-5.1357743271
 20
42.008576726
 11
-3.9155194825
 21
41.9975655941
  0
LINE
  5
3F2
100
AcDbEntity
  8
0
100
AcDbLine
 62
7
  6
CONTINUOUS
 10
-6.3336134671
 20
39.4247354796
 11
-5.0802202758
 21
39.4126861681
  0
LINE
  5
3F3
100
AcDbEntity
  8
RACCORDO
100
AcDbLine
 62
250
  6
CONTINUOUS
 10
-5.6618738181
 20
41.7201294943
 11
-4.8360399192
 21
41.7113484345
  0
LINE
  5
3F4
100
AcDbEntity
  8
RACCORDO
100
AcDbLine
 62
250
  6
CONTINUOUS
 10
-6.5218896911
 20
40.1479161173
 11
-5.5834214706
 21
40.1379156659
  0
LINE
  5
3F5
100
AcDbEntity
  8
0
100
AcDbLine
 62
7
  6
CONTINUOUS
 10
-5.7933199795
 20
41.254865078
 11
-4.663884103
 21
41.2429031748
  0
LINE
  5
3F6
100
AcDbEntity
  8
0
100
AcDbLine
 62
7
  6
CONTINUOUS
 10
-6.6713626135
 20
38.9393491731
 11
-5.4679042011
 21
38.9260201083
  0
LINE
  5
3F7
100
AcDbEntity
  8
RACCORDO
100
AcDbLine
 62
250
  6
CONTINUOUS
 10
-7.8848581358
 20
38.4021803403
 11
-6.8832639634
 21
38.3904417901
  0
LINE
  5
3F8
100
AcDbEntity
  8
RACCORDO
100
AcDbLine
 62
250
  6
CONTINUOUS
 10
-7.1049987666
 20
39.860671613
 11
-6.1740255665
 21
39.8496628013
  0
LINE
  5
3F9
100
AcDbEntity
  8
0
100
AcDbLine
 62
7
  6
CONTINUOUS
 10
-5.6239571696
 20
40.7667899493
 11
-4.5374830339
 21
40.7546594526
  0
LINE
  5
3FA
100
AcDbEntity
  8
RACCORDO
100
AcDbLine
 62
250
  6
CONTINUOUS
 10
-5.9337260574
 20
42.0180142632
 11
-5.1357743271
 21
42.008576726
  0
LINE
  5
3FB
100
AcDbEntity
  8
0
100
AcDbLine
 62
7
  6
CONTINUOUS
 10
-7.4946483119
 20
39.4393336451
 11
-6.3336134671
 21
39.4247354796
  0
LINE
  5
3FC
100
AcDbEntity
  8
RACCORDO
100
AcDbLine
 62
250
  6
CONTINUOUS
 10
-7.4062984516
 20
40.1594804216
 11
-6.5218896911
 21
40.1479161173
  0
LINE
  5
3FD
100
AcDbEntity
  8
RACCORDO
100
AcDbLine
 62
250
  6
CONTINUOUS
 10
-6.4644452065
 20
41.7306635242
 11
-5.6618738181
 21
41.7201294943
  0
LINE
  5
3FE
100
AcDbEntity
  8
RACCORDO
100
AcDbLine
 62
250
  6
CONTINUOUS
 10
-8.8221186399
 20
38.415474063
 11
-7.8848581358
 21
38.4021803403
  0
LINE
  5
3FF
100
AcDbEntity
  8
RACCORDO
100
AcDbLine
 62
250
  6
CONTINUOUS
 10
-7.9744815291
 20
39.8732106121
 11
-7.1049987666
 21
39.860671613
  0
LINE
  5
400
100
AcDbEntity
  8
0
100
AcDbLine
 62
7
  6
CONTINUOUS
 10
-6.8236305449
 20
41.2692974961
 11
-5.7933199795
 21
41.254865078
  0
LINE
  5
401
100
AcDbEntity
  8
RACCORDO
100
AcDbLine
 62
250
  6
CONTINUOUS
 10
-6.6950753381
 20
42.0290835785
 11
-5.9337260574
 21
42.0180142632
  0
LINE
  5
402
100
AcDbEntity
  8
0
100
AcDbLine
 62
7
  6
CONTINUOUS
 10
-7.7696096523
 20
38.9552055389
 11
-6.6713626135
 21
38.9393491731
  0
LINE
  5
403
100
AcDbEntity
  8
0
100
AcDbLine
 62
7
  6
CONTINUOUS
 10
-6.6056676242
 20
40.7813893978
 11
-5.6239571696
 21
40.7667899493
  0
LINE
  5
404
100
AcDbEntity
  8
RACCORDO
100
AcDbLine
 62
250
  6
CONTINUOUS
 10
-8.2252941211
 20
40.1724837688
 11
-7.4062984516
 21
40.1594804216
  0
LINE
  5
405
100
AcDbEntity
  8
RACCORDO
100
AcDbLine
 62
250
  6
CONTINUOUS
 10
-7.2087341295
 20
41.7426363366
 11
-6.4644452065
 21
41.7306635242
  0
LINE
  5
406
100
AcDbEntity
  8
0
100
AcDbLine
 62
7
  6
CONTINUOUS
 10
-8.5463943079
 20
39.4562677904
 11
-7.4946483119
 21
39.4393336451
  0
LINE
  5
407
100
AcDbEntity
  8
RACCORDO
100
AcDbLine
 62
250
  6
CONTINUOUS
 10
-9.6869761674
 20
38.4302160088
 11
-8.8221186399
 21
38.415474063
  0
LINE
  5
408
100
AcDbEntity
  8
RACCORDO
100
AcDbLine
 62
250
  6
CONTINUOUS
 10
-8.7708239457
 20
39.8871183715
 11
-7.9744815291
 21
39.8732106121
  0
LINE
  5
409
100
AcDbEntity
  8
0
100
AcDbLine
 62
7
  6
CONTINUOUS
 10
-8.4346937692
 20
38.9670585422
 11
-7.7696096523
 21
38.9552055389
  0
LINE
  5
40A
100
AcDbEntity
  8
RACCORDO
100
AcDbLine
 62
250
  6
CONTINUOUS
 10
-7.387730049
 20
42.0414027264
 11
-6.6950753381
 21
42.0290835785
  0
LINE
  5
40B
100
AcDbEntity
  8
0
100
AcDbLine
 62
7
  6
CONTINUOUS
 10
-7.1928175323
 20
40.7923614472
 11
-6.6056676242
 21
40.7813893978
  0
LINE
  5
40C
100
AcDbEntity
  8
0
100
AcDbLine
 62
7
  6
CONTINUOUS
 10
-7.7371868999
 20
41.2859534863
 11
-6.8236305449
 21
41.2692974961
  0
LINE
  5
40D
100
AcDbEntity
  8
RACCORDO
100
AcDbLine
 62
250
  6
CONTINUOUS
 10
-8.9674813069
 20
40.1867405317
 11
-8.2252941211
 21
40.1724837688
  0
LINE
  5
40E
100
AcDbEntity
  8
0
100
AcDbLine
 62
7
  6
CONTINUOUS
 10
-9.178869188
 20
39.4687273524
 11
-8.5463943079
 21
39.4562677904
  0
LINE
  5
40F
100
AcDbEntity
  8
RACCORDO
100
AcDbLine
 62
250
  6
CONTINUOUS
 10
-7.8800752384
 20
41.7558374001
 11
-7.2087341295
 21
41.7426363366
  0
LINE
  5
410
100
AcDbEntity
  8
RACCORDO
100
AcDbLine
 62
250
  6
CONTINUOUS
 10
-10.469595515
 20
38.4462331801
 11
-9.6869761674
 21
38.4302160088
  0
LINE
  5
411
100
AcDbEntity
  8
0
100
AcDbLine
 62
7
  6
CONTINUOUS
 10
-9.0406145696
 20
38.9798412506
 11
-8.4346937692
 21
38.9670585422
  0
LINE
  5
412
100
AcDbEntity
  8
RACCORDO
100
AcDbLine
 62
250
  6
CONTINUOUS
 10
-9.4868181336
 20
39.902258058
 11
-8.7708239457
 21
39.8871183715
  0
LINE
  5
413
100
AcDbEntity
  8
RACCORDO
100
AcDbLine
 62
250
  6
CONTINUOUS
 10
-8.0054823004
 20
42.0548484536
 11
-7.387730049
 21
42.0414027264
  0
LINE
  5
414
100
AcDbEntity
  8
0
100
AcDbLine
 62
7
  6
CONTINUOUS
 10
-7.7203654889
 20
40.8042198635
 11
-7.1928175323
 21
40.7923614472
  0
LINE
  5
415
100
AcDbEntity
  8
0
100
AcDbLine
 62
7
  6
CONTINUOUS
 10
-8.2732300897
 20
41.2981454772
 11
-7.7371868999
 21
41.2859534863
  0
LINE
  5
416
100
AcDbEntity
  8
0
100
AcDbLine
 62
7
  6
CONTINUOUS
 10
-9.7523588108
 20
39.4820449532
 11
-9.178869188
 21
39.4687273524
  0
LINE
  5
417
100
AcDbEntity
  8
RACCORDO
100
AcDbLine
 62
250
  6
CONTINUOUS
 10
-9.6297565967
 20
40.2021839713
 11
-8.9674813069
 21
40.1867405317
  0
LINE
  5
418
100
AcDbEntity
  8
RACCORDO
100
AcDbLine
 62
250
  6
CONTINUOUS
 10
-8.4706347243
 20
41.7700964828
 11
-7.8800752384
 21
41.7558374001
  0
LINE
  5
419
100
AcDbEntity
  8
RACCORDO
100
AcDbLine
 62
250
  6
CONTINUOUS
 10
-11.1664154588
 20
38.4634482051
 11
-10.469595515
 21
38.4462331801
  0
LINE
  5
41A
100
AcDbEntity
  8
0
100
AcDbLine
 62
7
  6
CONTINUOUS
 10
-9.5831219544
 20
38.9934640027
 11
-9.0406145696
 21
38.9798412506
  0
LINE
  5
41B
100
AcDbEntity
  8
RACCORDO
100
AcDbLine
 62
250
  6
CONTINUOUS
 10
-10.1190187678
 20
39.9185624214
 11
-9.4868181336
 21
39.902258058
  0
LINE
  5
41C
100
AcDbEntity
  8
RACCORDO
100
AcDbLine
 62
250
  6
CONTINUOUS
 10
-8.5424391979
 20
42.0692799533
 11
-8.0054823004
 21
42.0548484536
  0
LINE
  5
41D
100
AcDbEntity
  8
0
100
AcDbLine
 62
7
  6
CONTINUOUS
 10
-8.1839400658
 20
40.8168663841
 11
-7.7203654889
 21
40.8042198635
  0
LINE
  5
41E
100
AcDbEntity
  8
0
100
AcDbLine
 62
7
  6
CONTINUOUS
 10
-8.7468565782
 20
41.3111181996
 11
-8.2732300897
 21
41.2981454772
  0
LINE
  5
41F
100
AcDbEntity
  8
0
100
AcDbLine
 62
7
  6
CONTINUOUS
 10
-10.2624897764
 20
39.4961258058
 11
-9.7523588108
 21
39.4820449532
  0
LINE
  5
420
100
AcDbEntity
  8
0
100
AcDbLine
 62
7
  6
CONTINUOUS
 10
-10.0584106243
 20
39.0078312447
 11
-9.5831219544
 21
38.9934640027
  0
LWPOLYLINE
  5
421
100
AcDbEntity
  8
0
100
AcDbPolyline
 62
7
  6
CONTINUOUS
 90
4
 70
0
 10
-9.4907481555
 20
41.3389609332
 10
-9.3311832784
 20
41.3317975094
 10
-9.1537773193
 20
41.3247630592
 10
-8.7468565782
 20
41.3111181996
  0
LWPOLYLINE
  5
422
100
AcDbEntity
  8
0
100
AcDbPolyline
 62
7
  6
CONTINUOUS
 90
6
 70
0
 10
-11.3821666418
 20
39.5419931228
 10
-11.2400306983
 20
39.5340325518
 10
-11.0799424758
 20
39.5261908037
 10
-10.9018147128
 20
39.5184684563
 10
-10.7057346707
 20
39.5108649318
 10
-10.2624897764
 20
39.4961258058
  0
LINE
  5
423
100
AcDbEntity
  8
0
100
AcDbLine
 62
7
  6
CONTINUOUS
 10
11.3516115151
 20
39.1056311296
 11
13.2306563404
 21
38.6032885536
  0
LINE
  5
424
100
AcDbEntity
  8
0
100
AcDbLine
 62
7
  6
CONTINUOUS
 10
9.4513417461
 20
40.9043478923
 11
11.6029477407
 21
40.3291389972
  0
LWPOLYLINE
  5
425
100
AcDbEntity
  8
RACCORDO
100
AcDbPolyline
 62
7
  6
CONTINUOUS
 90
19
 70
0
 10
11.6029478521
 20
40.3291389674
 10
11.61316013
 20
40.326289416
 10
11.6242276743
 20
40.3229113985
 10
11.6361451014
 20
40.3188990934
 10
11.6486645694
 20
40.3142199707
 10
11.6619880024
 20
40.3086631513
 10
11.6767338185
 20
40.3017457105
 10
11.6929627663
 20
40.2930950966
 10
11.7102995585
 20
40.2825001317
 10
11.7285944665
 20
40.2695758102
 10
11.7476645248
 20
40.2538479066
 10
11.7669144419
 20
40.2350928077
 10
11.7855166751
 20
40.2133929897
 10
11.8029764534
 20
40.1885558173
 10
11.8186651001
 20
40.160544328
 10
11.831707652
 20
40.1299819257
 10
11.841556552
 20
40.0972844737
 10
11.847813162
 20
40.0625552306
 10
11.85
 20
40.0261858505
  0
LWPOLYLINE
  5
426
100
AcDbEntity
  8
RACCORDO
100
AcDbPolyline
 62
7
  6
CONTINUOUS
 90
22
 70
0
 10
13.2306563456
 20
38.6032885522
 10
13.2611312349
 20
38.5947120053
 10
13.2940463617
 20
38.5844382378
 10
13.3293788913
 20
38.572162996
 10
13.3670342718
 20
38.557564959
 10
13.4069372391
 20
38.5402724482
 10
13.449011005
 20
38.5198592503
 10
13.4926535491
 20
38.4961295635
 10
13.5379562718
 20
38.4684910433
 10
13.5856461896
 20
38.4357291142
 10
13.6357848008
 20
38.3966963407
 10
13.6868999927
 20
38.3512759285
 10
13.7372726449
 20
38.2998407725
 10
13.786285585
 20
38.2418515687
 10
13.8328146155
 20
38.1773014615
 10
13.874823424
 20
38.107972442
 10
13.9115414517
 20
38.0345359542
 10
13.9426473572
 20
37.9569263285
 10
13.9673756276
 20
37.8763001383
 10
13.985331715
 20
37.793428272
 10
13.9962947756
 20
37.7086106062
 10
14.0
 20
37.6224358193
  0
LWPOLYLINE
  5
427
100
AcDbEntity
  8
0
100
AcDbPolyline
 62
250
  6
CONTINUOUS
 90
10
 70
0
 10
50.4499217485
 20
17.9646603297
 10
50.441295107
 20
17.9689188166
 10
50.432689154
 20
17.9732998212
 10
50.4241038895
 20
17.9778033435
 10
50.4155392647
 20
17.9824272808
 10
50.4069953283
 20
17.9871737359
 10
50.3984722264
 20
17.992049017
 10
50.3899700075
 20
17.9970552267
 10
50.381488623
 20
18.0021902625
 10
50.3730280729
 20
18.0074541242
  0
LINE
  5
428
100
AcDbEntity
  8
DRAFT
100
AcDbLine
 62
7
  6
CONTINUOUS
 10
43.2242099741
 20
34.8572518739
 11
43.2242099741
 21
30.5840562657
  0
LINE
  5
429
100
AcDbEntity
  8
DRAFT
100
AcDbLine
 62
7
  6
CONTINUOUS
 10
43.2242099741
 20
-44.6891393425
 11
43.2242099741
 21
-40.4159437343
  0
LINE
  5
42A
100
AcDbEntity
  8
DRAFT
100
AcDbLine
 62
7
  6
CONTINUOUS
 10
43.5
 20
34.5840562657
 11
43.5
 21
30.5840562657
  0
LINE
  5
42B
100
AcDbEntity
  8
DRAFT
100
AcDbLine
 62
7
  6
CONTINUOUS
 10
43.5
 20
-44.4159437343
 11
43.5
 21
-40.4159437343
  0
LINE
  5
42C
100
AcDbEntity
  8
DRAFT
100
AcDbLine
 62
250
  6
CONTINUOUS
 10
45.0
 20
29.0840562657
 11
45.0
 21
28.8082662398
  0
LINE
  5
42D
100
AcDbEntity
  8
DRAFT
100
AcDbLine
 62
250
  6
CONTINUOUS
 10
45.0
 20
-38.9159437343
 11
45.0
 21
-38.6401537084
  0
LINE
  5
42E
100
AcDbEntity
  8
RACCORDO
100
AcDbLine
 62
250
  6
CONTINUOUS
 10
45.0
 20
-44.4159437343
 11
45.0
 21
-46.4159437343
  0
LINE
  5
42F
100
AcDbEntity
  8
RACCORDO
100
AcDbLine
 62
250
  6
CONTINUOUS
 10
45.0
 20
34.5840562657
 11
45.0
 21
36.5840562657
  0
LWPOLYLINE
  5
430
100
AcDbEntity
  8
0
100
AcDbPolyline
 62
7
  6
CONTINUOUS
 90
17
 70
0
 10
11.5
 20
-46.0319323059
 10
11.4751333499
 20
-46.0450397523
 10
11.4011624165
 20
-46.0581471988
 10
11.2790307246
 20
-46.0710874552
 10
11.1081213441
 20
-46.0838583799
 10
10.8890512052
 20
-46.0964621145
 10
10.6246146239
 20
-46.1087378941
 10
10.3142304645
 20
-46.1206815175
 10
9.9584798627
 20
-46.1322971859
 10
9.5619005415
 20
-46.1434367373
 10
9.1239694925
 20
-46.1540940727
 10
8.6452097239
 20
-46.1642752912
 10
8.1317279836
 20
-46.1738505277
 10
7.5830794896
 20
-46.1828120197
 10
6.9997090237
 20
-46.1911675298
 10
6.3890576797
 20
-46.1988104804
 10
5.7507759946
 20
-46.2057317439
  0
LINE
  5
431
100
AcDbEntity
  8
0
100
AcDbLine
 62
7
  6
CONTINUOUS
 10
-7.8511145721
 20
42.7032239848
 11
-9.8566648691
 21
42.1670615213
  0
LINE
  5
432
100
AcDbEntity
  8
0
100
AcDbLine
 62
7
  6
CONTINUOUS
 10
-5.9872555597
 20
44.5056021396
 11
-8.1103819975
 21
43.9380069499
  0
LINE
  5
433
100
AcDbEntity
  8
0
100
AcDbLine
 62
7
  6
CONTINUOUS
 10
-0.9978759266
 20
46.3996282333
 11
-3.8694093095
 21
45.6319544358
  0
LWPOLYLINE
  5
434
100
AcDbEntity
  8
0
100
AcDbPolyline
 62
7
  6
CONTINUOUS
 90
3
 70
0
 10
7.8678786997
 20
43.1501775033
 10
7.7325045921
 20
43.1439829184
 10
7.5808456296
 20
43.1378893418
  0
LWPOLYLINE
  5
435
100
AcDbEntity
  8
0
100
AcDbPolyline
 62
7
  6
CONTINUOUS
 90
9
 70
0
 10
-5.4690866775
 20
44.5418440539
 10
-5.5852424919
 20
44.5370371873
 10
-5.6874322948
 20
44.5321346596
 10
-5.7757593101
 20
44.5271371779
 10
-5.8495674731
 20
44.5220818618
 10
-5.9087486747
 20
44.5169682806
 10
-5.9534110239
 20
44.5117968651
 10
-5.9832227831
 20
44.5066060269
 10
-5.9872670073
 20
44.5055990785
  0
LWPOLYLINE
  5
436
100
AcDbEntity
  8
RACCORDO
100
AcDbPolyline
 62
250
  6
CONTINUOUS
 90
10
 70
0
 10
7.534139656
 20
43.5762061541
 10
7.7129068755
 20
43.5832028164
 10
7.8700049777
 20
43.590336313
 10
8.005330063
 20
43.5975961288
 10
8.118791398
 20
43.6049774018
 10
8.2101184676
 20
43.6124705783
 10
8.2788159027
 20
43.6200450491
 10
8.3245513611
 20
43.6276641708
 10
8.3472543223
 20
43.6352961481
 10
8.35
 20
43.6390329722
  0
LWPOLYLINE
  5
437
100
AcDbEntity
  8
RACCORDO
100
AcDbPolyline
 62
250
  6
CONTINUOUS
 90
11
 70
0
 10
7.3335110297
 20
43.8676128255
 10
7.5075178519
 20
43.8744231599
 10
7.6604325518
 20
43.8813666955
 10
7.7921540157
 20
43.8884331916
 10
7.902593954
 20
43.8956179079
 10
7.9914890717
 20
43.9029115414
 10
8.0583571755
 20
43.9102843018
 10
8.102874755
 20
43.9177005263
 10
8.1249731586
 20
43.9251292685
 10
8.1247383769
 20
43.9325602743
 10
8.1103821084
 20
43.9380069203
  0
LWPOLYLINE
  5
438
100
AcDbEntity
  8
RACCORDO
100
AcDbPolyline
 62
250
  6
CONTINUOUS
 90
9
 70
0
 10
3.6719523175
 20
45.3059801394
 10
3.7778862537
 20
45.3100110403
 10
3.8694579068
 20
45.3141561239
 10
3.9460310388
 20
45.3183872338
 10
4.0072690536
 20
45.3226800098
 10
4.0531440918
 20
45.3270253263
 10
4.083592038
 20
45.3314171036
 10
4.0984514285
 20
45.3358458414
 10
4.1
 20
45.3378123061
  0
LWPOLYLINE
  5
439
100
AcDbEntity
  8
RACCORDO
100
AcDbPolyline
 62
250
  6
CONTINUOUS
 90
10
 70
0
 10
3.4728118361
 20
45.5974402038
 10
3.5730007603
 20
45.6012524749
 10
3.6596063468
 20
45.6051727281
 10
3.7320267957
 20
45.6091743506
 10
3.7899437244
 20
45.6132343122
 10
3.8333308195
 20
45.617343973
 10
3.8621274883
 20
45.6214975722
 10
3.8761810479
 20
45.6256861192
 10
3.8753250683
 20
45.6298868711
 10
3.8694093371
 20
45.6319544285
  0
LINE
  5
43A
100
AcDbEntity
  8
0
100
AcDbLine
 62
7
  6
CONTINUOUS
 10
7.1406111635
 20
42.6421424214
 11
6.7982994197
 21
42.6305541605
  0
LINE
  5
43B
100
AcDbEntity
  8
0
100
AcDbLine
 62
7
  6
CONTINUOUS
 10
5.4690866775
 20
44.4557173602
 11
5.1961524227
 21
44.4464234878
  0
LINE
  5
43C
100
AcDbEntity
  8
0
100
AcDbLine
 62
7
  6
CONTINUOUS
 10
-5.1961524227
 20
44.5511379264
 11
-5.4690866775
 21
44.5418440539
  0
LINE
  5
43D
100
AcDbEntity
  8
0
100
AcDbLine
 62
7
  6
CONTINUOUS
 10
7.5808456296
 20
43.1378893418
 11
7.2313971409
 21
43.1261193521
  0
LINE
  5
43E
100
AcDbEntity
  8
RACCORDO
100
AcDbLine
 62
250
  6
CONTINUOUS
 10
7.1144571206
 20
43.5627457952
 11
7.534139656
 21
43.5762061541
  0
LINE
  5
43F
100
AcDbEntity
  8
RACCORDO
100
AcDbLine
 62
250
  6
CONTINUOUS
 10
6.9250042363
 20
43.8545109353
 11
7.3335110297
 21
43.8676128255
  0
LINE
  5
440
100
AcDbEntity
  8
0
100
AcDbLine
 62
7
  6
CONTINUOUS
 10
3.216916057
 20
44.4705800432
 11
3.0078347488
 21
44.4642598384
  0
LINE
  5
441
100
AcDbEntity
  8
0
100
AcDbLine
 62
7
  6
CONTINUOUS
 10
3.658295417
 20
44.9663991629
 11
3.4323825609
 21
44.9595677523
  0
LINE
  5
442
100
AcDbEntity
  8
RACCORDO
100
AcDbLine
 62
250
  6
CONTINUOUS
 10
3.4194363129
 20
45.2983318509
 11
3.6719523175
 21
45.3059801394
  0
LINE
  5
443
100
AcDbEntity
  8
RACCORDO
100
AcDbLine
 62
250
  6
CONTINUOUS
 10
3.233990518
 20
45.5902066978
 11
3.4728118361
 21
45.5974402038
  0
LWPOLYLINE
  5
444
100
AcDbEntity
  8
0
100
AcDbPolyline
 62
7
  6
CONTINUOUS
 90
8
 70
0
 10
-0.8229838659
 20
46.4084054247
 10
-0.865883451
 20
46.4072196289
 10
-0.9034687216
 20
46.4059698141
 10
-0.9350162427
 20
46.4046800365
 10
-0.9604090503
 20
46.4033495219
 10
-0.9797641084
 20
46.4019790445
 10
-0.9927088741
 20
46.400594983
 10
-0.9978905893
 20
46.3996243066
  0
LINE
  5
445
100
AcDbEntity
  8
0
100
AcDbLine
 62
7
  6
CONTINUOUS
 10
7.2313971409
 20
43.1261193521
 11
6.8216986066
 21
43.1149404677
  0
LINE
  5
446
100
AcDbEntity
  8
0
100
AcDbLine
 62
7
  6
CONTINUOUS
 10
6.7982994197
 20
42.6305541605
 11
6.3944212236
 21
42.6195862526
  0
LINE
  5
447
100
AcDbEntity
  8
0
100
AcDbLine
 62
7
  6
CONTINUOUS
 10
5.1961524227
 20
44.4464234878
 11
4.8714378982
 21
44.4376513612
  0
LINE
  5
448
100
AcDbEntity
  8
0
100
AcDbLine
 62
7
  6
CONTINUOUS
 10
-4.8714378982
 20
44.559910053
 11
-5.1961524227
 21
44.5511379264
  0
LINE
  5
449
100
AcDbEntity
  8
RACCORDO
100
AcDbLine
 62
250
  6
CONTINUOUS
 10
6.6179560015
 20
43.5501709878
 11
7.1144571206
 21
43.5627457952
  0
LINE
  5
44A
100
AcDbEntity
  8
RACCORDO
100
AcDbLine
 62
250
  6
CONTINUOUS
 10
6.4417245943
 20
43.8422709831
 11
6.9250042363
 21
43.8545109353
  0
LINE
  5
44B
100
AcDbEntity
  8
0
100
AcDbLine
 62
7
  6
CONTINUOUS
 10
3.4323825609
 20
44.9595677523
 11
3.1646687731
 21
44.9532129653
  0
LINE
  5
44C
100
AcDbEntity
  8
0
100
AcDbLine
 62
7
  6
CONTINUOUS
 10
3.0078347488
 20
44.4642598384
 11
2.7577599952
 21
44.4583952208
  0
LINE
  5
44D
100
AcDbEntity
  8
RACCORDO
100
AcDbLine
 62
250
  6
CONTINUOUS
 10
3.1149646864
 20
45.2912860533
 11
3.4194363129
 21
45.2983318509
  0
LINE
  5
44E
100
AcDbEntity
  8
RACCORDO
100
AcDbLine
 62
250
  6
CONTINUOUS
 10
2.9460310974
 20
45.5835430645
 11
3.233990518
 21
45.5902066978
  0
LINE
  5
44F
100
AcDbEntity
  8
0
100
AcDbLine
 62
7
  6
CONTINUOUS
 10
6.8216986066
 20
43.1149404677
 11
6.3553467982
 21
43.1044595092
  0
LINE
  5
450
100
AcDbEntity
  8
0
100
AcDbLine
 62
7
  6
CONTINUOUS
 10
6.3944212236
 20
42.6195862526
 11
5.9326341587
 21
42.6093380246
  0
LINE
  5
451
100
AcDbEntity
  8
0
100
AcDbLine
 62
7
  6
CONTINUOUS
 10
4.8714378982
 20
44.4376513612
 11
4.4988099791
 21
44.4294965387
  0
LINE
  5
452
100
AcDbEntity
  8
0
100
AcDbLine
 62
7
  6
CONTINUOUS
 10
0.8229838659
 20
46.388577231
 11
0.7210358529
 21
46.3864001769
  0
LINE
  5
453
100
AcDbEntity
  8
0
100
AcDbLine
 62
7
  6
CONTINUOUS
 10
-0.7210358529
 20
46.4105824788
 11
-0.8229838659
 21
46.4084054247
  0
LINE
  5
454
100
AcDbEntity
  8
RACCORDO
100
AcDbLine
 62
250
  6
CONTINUOUS
 10
6.0476128613
 20
43.5385506372
 11
6.6179560015
 21
43.5501709878
  0
LINE
  5
455
100
AcDbEntity
  8
RACCORDO
100
AcDbLine
 62
250
  6
CONTINUOUS
 10
5.8865692538
 20
43.8309600841
 11
6.4417245943
 21
43.8422709831
  0
LINE
  5
456
100
AcDbEntity
  8
0
100
AcDbLine
 62
7
  6
CONTINUOUS
 10
-4.2949878479
 20
44.5718986109
 11
-4.8714378982
 21
44.559910053
  0
LINE
  5
457
100
AcDbEntity
  8
0
100
AcDbLine
 62
7
  6
CONTINUOUS
 10
6.3553467982
 20
43.1044595092
 11
5.8369045243
 21
43.0947713969
  0
LINE
  5
458
100
AcDbEntity
  8
0
100
AcDbLine
 62
7
  6
CONTINUOUS
 10
5.9326341587
 20
42.6093380246
 11
5.4171202401
 21
42.5999022862
  0
LINE
  5
459
100
AcDbEntity
  8
0
100
AcDbLine
 62
7
  6
CONTINUOUS
 10
4.4988099791
 20
44.4294965387
 11
4.0810364266
 21
44.4220195918
  0
LINE
  5
45A
100
AcDbEntity
  8
0
100
AcDbLine
 62
7
  6
CONTINUOUS
 10
3.1646687731
 20
44.9532129653
 11
2.6924731734
 21
44.9447426734
  0
LINE
  5
45B
100
AcDbEntity
  8
RACCORDO
100
AcDbLine
 62
250
  6
CONTINUOUS
 10
5.4096538493
 20
43.5280239507
 11
6.0476128613
 21
43.5385506372
  0
LINE
  5
45C
100
AcDbEntity
  8
RACCORDO
100
AcDbLine
 62
250
  6
CONTINUOUS
 10
5.2655985565
 20
43.8207137471
 11
5.8865692538
 21
43.8309600841
  0
LINE
  5
45D
100
AcDbEntity
  8
0
100
AcDbLine
 62
7
  6
CONTINUOUS
 10
2.7577599952
 20
44.4583952208
 11
2.3140353949
 21
44.4506511588
  0
LINE
  5
45E
100
AcDbEntity
  8
0
100
AcDbLine
 62
7
  6
CONTINUOUS
 10
5.8369045243
 20
43.0947713969
 11
5.2695843351
 21
43.0859361635
  0
LINE
  5
45F
100
AcDbEntity
  8
RACCORDO
100
AcDbLine
 62
250
  6
CONTINUOUS
 10
2.5708856919
 20
45.2820723301
 11
3.1149646864
 21
45.2912860533
  0
LINE
  5
460
100
AcDbEntity
  8
RACCORDO
100
AcDbLine
 62
250
  6
CONTINUOUS
 10
2.4314589858
 20
45.5748290669
 11
2.9460310974
 21
45.5835430645
  0
LINE
  5
461
100
AcDbEntity
  8
0
100
AcDbLine
 62
7
  6
CONTINUOUS
 10
5.4171202401
 20
42.5999022862
 11
4.8525480418
 21
42.5913644888
  0
LINE
  5
462
100
AcDbEntity
  8
0
100
AcDbLine
 62
7
  6
CONTINUOUS
 10
0.7210358529
 20
46.3864001769
 11
0.6008444806
 21
46.3845418401
  0
LINE
  5
463
100
AcDbEntity
  8
0
100
AcDbLine
 62
7
  6
CONTINUOUS
 10
-0.6008444806
 20
46.4124408157
 11
-0.7210358529
 21
46.4105824788
  0
LINE
  5
464
100
AcDbEntity
  8
0
100
AcDbLine
 62
7
  6
CONTINUOUS
 10
-3.6225948663
 20
44.5822538357
 11
-4.2949878479
 21
44.5718986109
  0
LINE
  5
465
100
AcDbEntity
  8
RACCORDO
100
AcDbLine
 62
250
  6
CONTINUOUS
 10
4.7145388775
 20
43.518756115
 11
5.4096538493
 21
43.5280239507
  0
LINE
  5
466
100
AcDbEntity
  8
RACCORDO
100
AcDbLine
 62
250
  6
CONTINUOUS
 10
4.5889938834
 20
43.8116927662
 11
5.2655985565
 21
43.8207137471
  0
LINE
  5
467
100
AcDbEntity
  8
0
100
AcDbLine
 62
7
  6
CONTINUOUS
 10
4.0810364266
 20
44.4220195918
 11
3.3799203484
 21
44.4122615776
  0
LINE
  5
468
100
AcDbEntity
  8
0
100
AcDbLine
 62
7
  6
CONTINUOUS
 10
-3.6010511318
 20
44.5825242482
 11
-3.6225948663
 21
44.5822538357
  0
LINE
  5
469
100
AcDbEntity
  8
0
100
AcDbLine
 62
7
  6
CONTINUOUS
 10
5.2695843351
 20
43.0859361635
 11
4.6585009686
 21
43.078039733
  0
LINE
  5
46A
100
AcDbEntity
  8
0
100
AcDbLine
 62
7
  6
CONTINUOUS
 10
4.8525480418
 20
42.5913644888
 11
4.244030417
 21
42.583801952
  0
LINE
  5
46B
100
AcDbEntity
  8
0
100
AcDbLine
 62
7
  6
CONTINUOUS
 10
2.6924731734
 20
44.9447426734
 11
2.1468339244
 21
44.9377443209
  0
LINE
  5
46C
100
AcDbEntity
  8
0
100
AcDbLine
 62
7
  6
CONTINUOUS
 10
2.3140353949
 20
44.4506511588
 11
1.8
 21
44.4443694887
  0
LINE
  5
46D
100
AcDbEntity
  8
0
100
AcDbLine
 62
7
  6
CONTINUOUS
 10
4.6585009686
 20
43.078039733
 11
4.0095154012
 21
43.0711520209
  0
LINE
  5
46E
100
AcDbEntity
  8
RACCORDO
100
AcDbLine
 62
250
  6
CONTINUOUS
 10
1.9396032433
 20
45.2747709015
 11
2.5708856919
 21
45.2820723301
  0
LINE
  5
46F
100
AcDbEntity
  8
RACCORDO
100
AcDbLine
 62
250
  6
CONTINUOUS
 10
1.8344125384
 20
45.5679237769
 11
2.4314589858
 21
45.5748290669
  0
LINE
  5
470
100
AcDbEntity
  8
0
100
AcDbLine
 62
7
  6
CONTINUOUS
 10
4.244030417
 20
42.583801952
 11
3.5970781956
 21
42.5772831634
  0
LINE
  5
471
100
AcDbEntity
  8
RACCORDO
100
AcDbLine
 62
250
  6
CONTINUOUS
 10
3.5936885469
 20
43.507492416
 11
4.7145388775
 21
43.518756115
  0
LINE
  5
472
100
AcDbEntity
  8
RACCORDO
100
AcDbLine
 62
250
  6
CONTINUOUS
 10
3.497991157
 20
43.8007289409
 11
4.5889938834
 21
43.8116927662
  0
LINE
  5
473
100
AcDbEntity
  8
0
100
AcDbLine
 62
7
  6
CONTINUOUS
 10
3.3799203484
 20
44.4122615776
 11
2.6033024347
 21
44.4044362579
  0
LINE
  5
474
100
AcDbEntity
  8
0
100
AcDbLine
 62
7
  6
CONTINUOUS
 10
0.6008444806
 20
46.3845418401
 11
0.3921030472
 21
46.3824376792
  0
LINE
  5
475
100
AcDbEntity
  8
0
100
AcDbLine
 62
7
  6
CONTINUOUS
 10
-0.3921030472
 20
46.4145449765
 11
-0.6008444806
 21
46.4124408157
  0
LINE
  5
476
100
AcDbEntity
  8
0
100
AcDbLine
 62
7
  6
CONTINUOUS
 10
4.0095154012
 20
43.0711520209
 11
3.3266491002
 21
43.0653157074
  0
LINE
  5
477
100
AcDbEntity
  8
0
100
AcDbLine
 62
7
  6
CONTINUOUS
 10
2.1468339244
 20
44.9377443209
 11
1.5426346422
 21
44.9324088047
  0
LINE
  5
478
100
AcDbEntity
  8
0
100
AcDbLine
 62
7
  6
CONTINUOUS
 10
3.5970781956
 20
42.5772831634
 11
2.9175502769
 21
42.571867158
  0
LINE
  5
479
100
AcDbEntity
  8
0
100
AcDbLine
 62
7
  6
CONTINUOUS
 10
1.8
 20
44.4443694887
 11
1.231272516
 21
44.4397410759
  0
LINE
  5
47A
100
AcDbEntity
  8
RACCORDO
100
AcDbLine
 62
250
  6
CONTINUOUS
 10
2.422970268
 20
43.4995755846
 11
3.5936885469
 21
43.507492416
  0
LINE
  5
47B
100
AcDbEntity
  8
RACCORDO
100
AcDbLine
 62
250
  6
CONTINUOUS
 10
2.3584479985
 20
43.7930231875
 11
3.497991157
 21
43.8007289409
  0
LINE
  5
47C
100
AcDbEntity
  8
0
100
AcDbLine
 62
7
  6
CONTINUOUS
 10
2.6033024347
 20
44.4044362579
 11
1.7685310465
 21
44.3987184371
  0
LINE
  5
47D
100
AcDbEntity
  8
0
100
AcDbLine
 62
7
  6
CONTINUOUS
 10
2.9175502769
 20
42.571867158
 11
2.2116005712
 21
42.5676029842
  0
LINE
  5
47E
100
AcDbEntity
  8
0
100
AcDbLine
 62
7
  6
CONTINUOUS
 10
3.3266491002
 20
43.0653157074
 11
2.2528030392
 21
43.0586550841
  0
LINE
  5
47F
100
AcDbEntity
  8
RACCORDO
100
AcDbLine
 62
250
  6
CONTINUOUS
 10
0.9999163474
 20
45.2684180355
 11
1.9396032433
 21
45.2747709015
  0
LINE
  5
480
100
AcDbEntity
  8
RACCORDO
100
AcDbLine
 62
250
  6
CONTINUOUS
 10
0.9456883427
 20
45.5619148539
 11
1.8344125384
 21
45.5679237769
  0
LINE
  5
481
100
AcDbEntity
  8
0
100
AcDbLine
 62
7
  6
CONTINUOUS
 10
1.5426346422
 20
44.9324088047
 11
0.8963563083
 21
44.9288816637
  0
LINE
  5
482
100
AcDbEntity
  8
0
100
AcDbLine
 62
7
  6
CONTINUOUS
 10
1.231272516
 20
44.4397410759
 11
0.6251334396
 21
44.4369065525
  0
LINE
  5
483
100
AcDbEntity
  8
0
100
AcDbLine
 62
7
  6
CONTINUOUS
 10
0.3921030472
 20
46.3824376792
 11
0.1610891269
 21
46.3812675896
  0
LINE
  5
484
100
AcDbEntity
  8
0
100
AcDbLine
 62
7
  6
CONTINUOUS
 10
-0.1610891269
 20
46.4157150661
 11
-0.3921030472
 21
46.4145449765
  0
LINE
  5
485
100
AcDbEntity
  8
0
100
AcDbLine
 62
7
  6
CONTINUOUS
 10
2.2116005712
 20
42.5676029842
 11
1.1171714804
 21
42.5634479419
  0
LINE
  5
486
100
AcDbEntity
  8
0
100
AcDbLine
 62
7
  6
CONTINUOUS
 10
1.7685310465
 20
44.3987184371
 11
0.8942535971
 21
44.3952358422
  0
LINE
  5
487
100
AcDbEntity
  8
0
100
AcDbLine
 62
7
  6
CONTINUOUS
 10
2.2528030392
 20
43.0586550841
 11
1.13699152
 21
43.0546084243
  0
LINE
  5
488
100
AcDbEntity
  8
RACCORDO
100
AcDbLine
 62
250
  6
CONTINUOUS
 10
0.963857474
 20
43.4942795088
 11
2.422970268
 21
43.4995755846
  0
LINE
  5
489
100
AcDbEntity
  8
RACCORDO
100
AcDbLine
 62
250
  6
CONTINUOUS
 10
0.9381907088
 20
43.787867698
 11
2.3584479985
 21
43.7930231875
  0
LINE
  5
48A
100
AcDbEntity
  8
0
100
AcDbLine
 62
7
  6
CONTINUOUS
 10
0.8963563083
 20
44.9288816637
 11
0.226991253
 21
44.9272610811
  0
LINE
  5
48B
100
AcDbEntity
  8
0
100
AcDbLine
 62
7
  6
CONTINUOUS
 10
0.6251334396
 20
44.4369065525
 11
-0.0
 21
44.4359520439
  0
LINE
  5
48C
100
AcDbEntity
  8
RACCORDO
100
AcDbLine
 62
250
  6
CONTINUOUS
 10
-0.0
 20
45.2662574397
 11
0.9999163474
 21
45.2684180355
  0
LINE
  5
48D
100
AcDbEntity
  8
0
100
AcDbLine
 62
7
  6
CONTINUOUS
 10
1.1171714804
 20
42.5634479419
 11
-0.0
 21
42.5620534653
  0
LINE
  5
48E
100
AcDbEntity
  8
0
100
AcDbLine
 62
7
  6
CONTINUOUS
 10
1.13699152
 20
43.0546084243
 11
-0.0
 21
43.0532511096
  0
LINE
  5
48F
100
AcDbEntity
  8
0
100
AcDbLine
 62
7
  6
CONTINUOUS
 10
0.8942535971
 20
44.3952358422
 11
-0.0
 21
44.3940662684
  0
LINE
  5
490
100
AcDbEntity
  8
RACCORDO
100
AcDbLine
 62
250
  6
CONTINUOUS
 10
-0.220934874
 20
45.5599814139
 11
0.9456883427
 21
45.5619148539
  0
LINE
  5
491
100
AcDbEntity
  8
RACCORDO
100
AcDbLine
 62
250
  6
CONTINUOUS
 10
-0.6276275683
 20
43.4937176205
 11
0.963857474
 21
43.4942795088
  0
LINE
  5
492
100
AcDbEntity
  8
RACCORDO
100
AcDbLine
 62
250
  6
CONTINUOUS
 10
-0.6109143459
 20
43.7873207543
 11
0.9381907088
 21
43.787867698
  0
LINE
  5
493
100
AcDbEntity
  8
0
100
AcDbLine
 62
7
  6
CONTINUOUS
 10
-0.1610891269
 20
46.3812675896
 11
0.1610891269
 21
46.3812675896
  0
LINE
  5
494
100
AcDbEntity
  8
0
100
AcDbLine
 62
7
  6
CONTINUOUS
 10
-0.1610891269
 20
46.4157150661
 11
0.1610891269
 21
46.4157150661
  0
LINE
  5
495
100
AcDbEntity
  8
0
100
AcDbLine
 62
7
  6
CONTINUOUS
 10
-1.5120518582
 20
43.0556612867
 11
-0.0
 21
43.0532511096
  0
LINE
  5
496
100
AcDbEntity
  8
0
100
AcDbLine
 62
7
  6
CONTINUOUS
 10
-1.4856222682
 20
42.5645292589
 11
-0.0
 21
42.5620534653
  0
LINE
  5
497
100
AcDbEntity
  8
0
100
AcDbLine
 62
7
  6
CONTINUOUS
 10
-1.1886223156
 20
44.3961425861
 11
-0.0
 21
44.3940662684
  0
LINE
  5
498
100
AcDbEntity
  8
0
100
AcDbLine
 62
7
  6
CONTINUOUS
 10
-0.8963563083
 20
44.9288816637
 11
0.226991253
 21
44.9272610811
  0
LINE
  5
499
100
AcDbEntity
  8
RACCORDO
100
AcDbLine
 62
250
  6
CONTINUOUS
 10
-0.9569536857
 20
45.268233795
 11
-0.0
 21
45.2662574397
  0
LINE
  5
49A
100
AcDbEntity
  8
RACCORDO
100
AcDbLine
 62
250
  6
CONTINUOUS
 10
-2.0337923339
 20
43.4976941585
 11
-0.6276275683
 21
43.4937176205
  0
LINE
  5
49B
100
AcDbEntity
  8
RACCORDO
100
AcDbLine
 62
250
  6
CONTINUOUS
 10
-1.97963365
 20
43.7911918554
 11
-0.6109143459
 21
43.7873207543
  0
LINE
  5
49C
100
AcDbEntity
  8
0
100
AcDbLine
 62
7
  6
CONTINUOUS
 10
-1.0327008812
 20
44.4385937239
 11
-0.0
 21
44.4359520439
  0
LINE
  5
49D
100
AcDbEntity
  8
RACCORDO
100
AcDbLine
 62
250
  6
CONTINUOUS
 10
-1.1375528713
 20
45.5628494932
 11
-0.220934874
 21
45.5599814139
  0
LINE
  5
49E
100
AcDbEntity
  8
0
100
AcDbLine
 62
7
  6
CONTINUOUS
 10
-2.9748449989
 20
43.06281425
 11
-1.5120518582
 21
43.0556612867
  0
LINE
  5
49F
100
AcDbEntity
  8
0
100
AcDbLine
 62
7
  6
CONTINUOUS
 10
-2.9175502769
 20
42.571867158
 11
-1.4856222682
 21
42.5645292589
  0
LINE
  5
4A0
100
AcDbEntity
  8
0
100
AcDbLine
 62
7
  6
CONTINUOUS
 10
-0.3921030472
 20
46.3824376792
 11
-0.1610891269
 21
46.3812675896
  0
LINE
  5
4A1
100
AcDbEntity
  8
0
100
AcDbLine
 62
7
  6
CONTINUOUS
 10
0.1610891269
 20
46.4157150661
 11
0.3921030472
 21
46.4145449765
  0
LINE
  5
4A2
100
AcDbEntity
  8
RACCORDO
100
AcDbLine
 62
250
  6
CONTINUOUS
 10
-3.2002726265
 20
43.5044334429
 11
-2.0337923339
 21
43.4976941585
  0
LINE
  5
4A3
100
AcDbEntity
  8
RACCORDO
100
AcDbLine
 62
250
  6
CONTINUOUS
 10
-3.115051669
 20
43.7977513958
 11
-1.97963365
 21
43.7911918554
  0
LINE
  5
4A4
100
AcDbEntity
  8
0
100
AcDbLine
 62
7
  6
CONTINUOUS
 10
-2.3308161575
 20
44.4022914204
 11
-1.1886223156
 21
44.3961425861
  0
LINE
  5
4A5
100
AcDbEntity
  8
0
100
AcDbLine
 62
7
  6
CONTINUOUS
 10
-1.7499666256
 20
44.9339960006
 11
-0.8963563083
 21
44.9288816637
  0
LINE
  5
4A6
100
AcDbEntity
  8
RACCORDO
100
AcDbLine
 62
250
  6
CONTINUOUS
 10
-1.9073031151
 20
45.2744714102
 11
-0.9569536857
 21
45.268233795
  0
LINE
  5
4A7
100
AcDbEntity
  8
0
100
AcDbLine
 62
7
  6
CONTINUOUS
 10
-4.0095154012
 20
43.0711520209
 11
-2.9748449989
 21
43.06281425
  0
LINE
  5
4A8
100
AcDbEntity
  8
0
100
AcDbLine
 62
7
  6
CONTINUOUS
 10
-1.8
 20
44.4443694887
 11
-1.0327008812
 21
44.4385937239
  0
LINE
  5
4A9
100
AcDbEntity
  8
0
100
AcDbLine
 62
7
  6
CONTINUOUS
 10
-3.925
 20
42.5804081712
 11
-2.9175502769
 21
42.571867158
  0
LINE
  5
4AA
100
AcDbEntity
  8
RACCORDO
100
AcDbLine
 62
250
  6
CONTINUOUS
 10
-2.0128771564
 20
45.5697037969
 11
-1.1375528713
 21
45.5628494932
  0
LINE
  5
4AB
100
AcDbEntity
  8
RACCORDO
100
AcDbLine
 62
250
  6
CONTINUOUS
 10
-4.3423046564
 20
43.5145606249
 11
-3.2002726265
 21
43.5044334429
  0
LINE
  5
4AC
100
AcDbEntity
  8
RACCORDO
100
AcDbLine
 62
250
  6
CONTINUOUS
 10
-4.2266720666
 20
43.8076089699
 11
-3.115051669
 21
43.7977513958
  0
LINE
  5
4AD
100
AcDbEntity
  8
0
100
AcDbLine
 62
7
  6
CONTINUOUS
 10
-3.3799203484
 20
44.4122615776
 11
-2.3308161575
 21
44.4022914204
  0
LINE
  5
4AE
100
AcDbEntity
  8
0
100
AcDbLine
 62
7
  6
CONTINUOUS
 10
-0.6008444806
 20
46.3845418401
 11
-0.3921030472
 21
46.3824376792
  0
LINE
  5
4AF
100
AcDbEntity
  8
0
100
AcDbLine
 62
7
  6
CONTINUOUS
 10
0.3921030472
 20
46.4145449765
 11
0.6008444806
 21
46.4124408157
  0
LINE
  5
4B0
100
AcDbEntity
  8
0
100
AcDbLine
 62
7
  6
CONTINUOUS
 10
-4.9694961177
 20
43.0818709611
 11
-4.0095154012
 21
43.0711520209
  0
LINE
  5
4B1
100
AcDbEntity
  8
0
100
AcDbLine
 62
7
  6
CONTINUOUS
 10
-2.518272122
 20
44.9422377109
 11
-1.7499666256
 21
44.9339960006
  0
LINE
  5
4B2
100
AcDbEntity
  8
RACCORDO
100
AcDbLine
 62
250
  6
CONTINUOUS
 10
-2.5442782196
 20
45.2817016856
 11
-1.9073031151
 21
45.2744714102
  0
LINE
  5
4B3
100
AcDbEntity
  8
0
100
AcDbLine
 62
7
  6
CONTINUOUS
 10
-4.8525480418
 20
42.5913644888
 11
-3.925
 21
42.5804081712
  0
LINE
  5
4B4
100
AcDbEntity
  8
0
100
AcDbLine
 62
7
  6
CONTINUOUS
 10
-2.3140353949
 20
44.4506511588
 11
-1.8
 21
44.4443694887
  0
LINE
  5
4B5
100
AcDbEntity
  8
RACCORDO
100
AcDbLine
 62
250
  6
CONTINUOUS
 10
-5.4025894036
 20
43.5279192086
 11
-4.3423046564
 21
43.5145606249
  0
LINE
  5
4B6
100
AcDbEntity
  8
RACCORDO
100
AcDbLine
 62
250
  6
CONTINUOUS
 10
-5.2587223104
 20
43.8206117625
 11
-4.2266720666
 21
43.8076089699
  0
LINE
  5
4B7
100
AcDbEntity
  8
RACCORDO
100
AcDbLine
 62
250
  6
CONTINUOUS
 10
-2.5896700569
 20
45.5771761357
 11
-2.0128771564
 21
45.5697037969
  0
LINE
  5
4B8
100
AcDbEntity
  8
0
100
AcDbLine
 62
7
  6
CONTINUOUS
 10
-4.0810364266
 20
44.4220195918
 11
-3.3799203484
 21
44.4122615776
  0
LINE
  5
4B9
100
AcDbEntity
  8
0
100
AcDbLine
 62
7
  6
CONTINUOUS
 10
3.6010511318
 20
44.5825242482
 11
4.0810364266
 21
44.5755418223
  0
LINE
  5
4BA
100
AcDbEntity
  8
0
100
AcDbLine
 62
7
  6
CONTINUOUS
 10
-5.8369045243
 20
43.0947713969
 11
-4.9694961177
 21
43.0818709611
  0
LINE
  5
4BB
100
AcDbEntity
  8
0
100
AcDbLine
 62
7
  6
CONTINUOUS
 10
-0.7210358529
 20
46.3864001769
 11
-0.6008444806
 21
46.3845418401
  0
LINE
  5
4BC
100
AcDbEntity
  8
0
100
AcDbLine
 62
7
  6
CONTINUOUS
 10
0.6008444806
 20
46.4124408157
 11
0.7210358529
 21
46.4105824788
  0
LINE
  5
4BD
100
AcDbEntity
  8
0
100
AcDbLine
 62
7
  6
CONTINUOUS
 10
-5.6813121991
 20
42.6045130716
 11
-4.8525480418
 21
42.5913644888
  0
LINE
  5
4BE
100
AcDbEntity
  8
RACCORDO
100
AcDbLine
 62
250
  6
CONTINUOUS
 10
-6.0412169494
 20
43.538433517
 11
-5.4025894036
 21
43.5279192086
  0
LINE
  5
4BF
100
AcDbEntity
  8
RACCORDO
100
AcDbLine
 62
250
  6
CONTINUOUS
 10
-5.8803437311
 20
43.8308460573
 11
-5.2587223104
 21
43.8206117625
  0
LINE
  5
4C0
100
AcDbEntity
  8
0
100
AcDbLine
 62
7
  6
CONTINUOUS
 10
-3.0164680338
 20
44.9502417623
 11
-2.518272122
 21
44.9422377109
  0
LINE
  5
4C1
100
AcDbEntity
  8
0
100
AcDbLine
 62
7
  6
CONTINUOUS
 10
4.0810364266
 20
44.5755418223
 11
4.4988099791
 21
44.5680648754
  0
LINE
  5
4C2
100
AcDbEntity
  8
RACCORDO
100
AcDbLine
 62
250
  6
CONTINUOUS
 10
-3.0945693377
 20
45.2908733204
 11
-2.5442782196
 21
45.2817016856
  0
LINE
  5
4C3
100
AcDbEntity
  8
RACCORDO
100
AcDbLine
 62
250
  6
CONTINUOUS
 10
-2.9267421651
 20
45.5831526145
 11
-2.5896700569
 21
45.5771761357
  0
LINE
  5
4C4
100
AcDbEntity
  8
0
100
AcDbLine
 62
7
  6
CONTINUOUS
 10
-2.7577599952
 20
44.4583952208
 11
-2.3140353949
 21
44.4506511588
  0
LINE
  5
4C5
100
AcDbEntity
  8
0
100
AcDbLine
 62
7
  6
CONTINUOUS
 10
-4.6909888948
 20
44.4334923225
 11
-4.0810364266
 21
44.4220195918
  0
LINE
  5
4C6
100
AcDbEntity
  8
0
100
AcDbLine
 62
7
  6
CONTINUOUS
 10
-6.5955824434
 20
43.1096130177
 11
-5.8369045243
 21
43.0947713969
  0
LINE
  5
4C7
100
AcDbEntity
  8
RACCORDO
100
AcDbLine
 62
250
  6
CONTINUOUS
 10
-6.6123135801
 20
43.5500431401
 11
-6.0412169494
 21
43.538433517
  0
LINE
  5
4C8
100
AcDbEntity
  8
RACCORDO
100
AcDbLine
 62
250
  6
CONTINUOUS
 10
-6.4362324988
 20
43.8421465163
 11
-5.8803437311
 21
43.8308460573
  0
LINE
  5
4C9
100
AcDbEntity
  8
0
100
AcDbLine
 62
7
  6
CONTINUOUS
 10
-3.3037271364
 20
44.9563310505
 11
-3.0164680338
 21
44.9502417623
  0
LINE
  5
4CA
100
AcDbEntity
  8
0
100
AcDbLine
 62
7
  6
CONTINUOUS
 10
4.4988099791
 20
44.5680648754
 11
4.8714378982
 21
44.559910053
  0
LWPOLYLINE
  5
4CB
100
AcDbEntity
  8
0
100
AcDbPolyline
 62
7
  6
CONTINUOUS
 90
9
 70
0
 10
0.7210358529
 20
46.4105824788
 10
0.8229838659
 20
46.4084054247
 10
0.865883451
 20
46.4072196289
 10
0.9034687216
 20
46.4059698141
 10
0.9350162427
 20
46.4046800365
 10
0.9604090503
 20
46.4033495219
 10
0.9797641084
 20
46.4019790445
 10
0.9927088741
 20
46.400594983
 10
0.9978905893
 20
46.3996243066
  0
LINE
  5
4CC
100
AcDbEntity
  8
0
100
AcDbLine
 62
7
  6
CONTINUOUS
 10
-6.3944212236
 20
42.6195862526
 11
-5.6813121991
 21
42.6045130716
  0
LINE
  5
4CD
100
AcDbEntity
  8
RACCORDO
100
AcDbLine
 62
250
  6
CONTINUOUS
 10
-3.4029938098
 20
45.2979014638
 11
-3.0945693377
 21
45.2908733204
  0
LINE
  5
4CE
100
AcDbEntity
  8
RACCORDO
100
AcDbLine
 62
250
  6
CONTINUOUS
 10
-3.2184400229
 20
45.5897995705
 11
-2.9267421651
 21
45.5831526145
  0
LINE
  5
4CF
100
AcDbEntity
  8
0
100
AcDbLine
 62
7
  6
CONTINUOUS
 10
-3.0078347488
 20
44.4642598384
 11
-2.7577599952
 21
44.4583952208
  0
LINE
  5
4D0
100
AcDbEntity
  8
0
100
AcDbLine
 62
7
  6
CONTINUOUS
 10
-5.0402436859
 20
44.4419724481
 11
-4.6909888948
 21
44.4334923225
  0
LINE
  5
4D1
100
AcDbEntity
  8
0
100
AcDbLine
 62
7
  6
CONTINUOUS
 10
-7.0336076148
 20
43.1204429392
 11
-6.5955824434
 21
43.1096130177
  0
LINE
  5
4D2
100
AcDbEntity
  8
RACCORDO
100
AcDbLine
 62
250
  6
CONTINUOUS
 10
-7.1096165921
 20
43.5626084665
 11
-6.6123135801
 21
43.5500431401
  0
LINE
  5
4D3
100
AcDbEntity
  8
RACCORDO
100
AcDbLine
 62
250
  6
CONTINUOUS
 10
-6.9202926879
 20
43.8543772393
 11
-6.4362324988
 21
43.8421465163
  0
LINE
  5
4D4
100
AcDbEntity
  8
0
100
AcDbLine
 62
7
  6
CONTINUOUS
 10
-6.7982994197
 20
42.6305541605
 11
-6.3944212236
 21
42.6195862526
  0
LINE
  5
4D5
100
AcDbEntity
  8
0
100
AcDbLine
 62
7
  6
CONTINUOUS
 10
4.8714378982
 20
44.559910053
 11
5.1961524227
 21
44.5511379264
  0
LWPOLYLINE
  5
4D6
100
AcDbEntity
  8
0
100
AcDbPolyline
 62
7
  6
CONTINUOUS
 90
3
 70
0
 10
-3.658295417
 20
44.9663991629
 10
-3.5505404583
 20
44.9629241492
 10
-3.3037271364
 20
44.9563310505
  0
LWPOLYLINE
  5
4D7
100
AcDbEntity
  8
0
100
AcDbPolyline
 62
7
  6
CONTINUOUS
 90
10
 70
0
 10
5.1961524227
 20
44.5511379264
 10
5.4690866775
 20
44.5418440539
 10
5.5852424919
 20
44.5370371873
 10
5.6874322948
 20
44.5321346596
 10
5.7757593101
 20
44.5271371779
 10
5.8495674731
 20
44.5220818618
 10
5.9087486747
 20
44.5169682806
 10
5.9534110239
 20
44.5117968651
 10
5.9832227831
 20
44.5066060269
 10
5.9872670073
 20
44.5055990785
  0
LWPOLYLINE
  5
4D8
100
AcDbEntity
  8
0
100
AcDbPolyline
 62
7
  6
CONTINUOUS
 90
5
 70
0
 10
-7.8678786997
 20
43.1501775033
 10
-7.7325045921
 20
43.1439829184
 10
-7.5808456296
 20
43.1378893418
 10
-7.4138415737
 20
43.1319345325
 10
-7.0336076148
 20
43.1204429392
  0
LINE
  5
4D9
100
AcDbEntity
  8
0
100
AcDbLine
 62
7
  6
CONTINUOUS
 10
7.8511145721
 20
42.7032239848
 11
9.8566648691
 21
42.1670615213
  0
LINE
  5
4DA
100
AcDbEntity
  8
0
100
AcDbLine
 62
7
  6
CONTINUOUS
 10
5.9872555597
 20
44.5056021396
 11
8.1103819975
 21
43.9380069499
  0
LINE
  5
4DB
100
AcDbEntity
  8
0
100
AcDbLine
 62
7
  6
CONTINUOUS
 10
0.9978759266
 20
46.3996282333
 11
3.8694093095
 21
45.6319544358
  0
LWPOLYLINE
  5
4DC
100
AcDbEntity
  8
RACCORDO
100
AcDbPolyline
 62
7
  6
CONTINUOUS
 90
19
 70
0
 10
9.8566649278
 20
42.1670615056
 10
9.8666201597
 20
42.1642794458
 10
9.8775505009
 20
42.1609273493
 10
9.8894467828
 20
42.1568876495
 10
9.9020840694
 20
42.1521036259
 10
9.9156242185
 20
42.1463580758
 10
9.9305859423
 20
42.1391872182
 10
9.9470623922
 20
42.1301804093
 10
9.9646151802
 20
42.1191412528
 10
9.982874038
 20
42.1058353501
 10
10.001561173
 20
42.0899305202
 10
10.020233583
 20
42.0711783703
 10
10.0382238843
 20
42.0495788249
 10
10.055102348
 20
42.0248873875
 10
10.0702095464
 20
41.9971488169
 10
10.0826847285
 20
41.9670724332
 10
10.0920375167
 20
41.9351070156
 10
10.0979451083
 20
41.9013257623
 10
10.1
 20
41.8660979591
  0
LWPOLYLINE
  5
4DD
100
AcDbEntity
  8
RACCORDO
100
AcDbPolyline
 62
7
  6
CONTINUOUS
 90
19
 70
0
 10
8.1103821084
 20
43.9380069203
 10
8.1201597338
 20
43.9352687725
 10
8.1310414165
 20
43.931910027
 10
8.1430110344
 20
43.9277992091
 10
8.1558981223
 20
43.9228388411
 10
8.169788504
 20
43.9168124598
 10
8.1850035886
 20
43.9093213164
 10
8.2015992569
 20
43.8999722923
 10
8.2191618563
 20
43.8885670214
 10
8.2372343684
 20
43.8749548748
 10
8.2554875466
 20
43.8589033962
 10
8.2735732223
 20
43.8401620016
 10
8.2909546789
 20
43.8186587138
 10
8.3072665291
 20
43.7940835994
 10
8.3218089508
 20
43.7665681975
 10
8.3337118753
 20
43.7369600754
 10
8.3425475184
 20
43.7057633638
 10
8.3480860254
 20
43.6730053069
 10
8.35
 20
43.6390329722
  0
LWPOLYLINE
  5
4DE
100
AcDbEntity
  8
RACCORDO
100
AcDbPolyline
 62
7
  6
CONTINUOUS
 90
16
 70
0
 10
3.8694093471
 20
45.6319544258
 10
3.8818743255
 20
45.6283794918
 10
3.895934283
 20
45.6237277638
 10
3.9115344834
 20
45.617727372
 10
3.9284348509
 20
45.6101362714
 10
3.9466184696
 20
45.600567664
 10
3.9662212776
 20
45.5884176578
 10
3.9871280242
 20
45.5730193057
 10
4.0084977881
 20
45.5541143246
 10
4.0292591288
 20
45.5317945028
 10
4.0489098911
 20
45.5056640144
 10
4.0665314517
 20
45.4758097637
 10
4.0808209518
 20
45.4435738242
 10
4.0912806993
 20
45.4097569059
 10
4.0977755302
 20
45.3743483467
 10
4.1
 20
45.3378123061
  0
LWPOLYLINE
  5
4DF
100
AcDbEntity
  8
0
100
AcDbPolyline
 62
7
  6
CONTINUOUS
 90
10
 70
0
 10
0.9978905893
 20
46.3996243066
 10
0.9991191665
 20
46.3991970743
 10
0.9991191665
 20
46.3977855815
 10
0.9927088741
 20
46.3963876727
 10
0.9797641084
 20
46.3950036112
 10
0.9604090503
 20
46.3936331338
 10
0.9350162427
 20
46.3923026193
 10
0.9034687216
 20
46.3910128416
 10
0.865883451
 20
46.3897630268
 10
0.8229838659
 20
46.388577231
  0
LWPOLYLINE
  5
4E0
100
AcDbEntity
  8
0
100
AcDbPolyline
 62
7
  6
CONTINUOUS
 90
11
 70
0
 10
5.9872670073
 20
44.5055990785
 10
5.9980733731
 20
44.5013956213
 10
5.9980733731
 20
44.4961657929
 10
5.9832227831
 20
44.4909553873
 10
5.9534110239
 20
44.485764549
 10
5.9087486747
 20
44.4805931335
 10
5.8495674731
 20
44.4754795524
 10
5.7757593101
 20
44.4704242363
 10
5.6874322948
 20
44.4654267545
 10
5.5852424919
 20
44.4605242268
 10
5.4690866775
 20
44.4557173602
  0
LINE
  5
4E1
100
AcDbEntity
  8
0
100
AcDbLine
 62
250
  6
CONTINUOUS
 10
50.4588137117
 20
25.0718287466
 11
50.4610712909
 21
24.9853225204
  0
LINE
  5
4E2
100
AcDbEntity
  8
0
100
AcDbLine
 62
250
  6
CONTINUOUS
 10
50.4610712909
 20
24.9853225204
 11
50.4630742565
 21
24.8797679722
  0
LINE
  5
4E3
100
AcDbEntity
  8
0
100
AcDbLine
 62
250
  6
CONTINUOUS
 10
50.4630742565
 20
24.8797679722
 11
50.4654913855
 21
24.6923756748
  0
LINE
  5
4E4
100
AcDbEntity
  8
0
100
AcDbLine
 62
7
  6
CONTINUOUS
 10
50.4421891335
 20
-10.6667197289
 11
50.4305634789
 21
-9.3168032065
  0
LINE
  5
4E5
100
AcDbEntity
  8
0
100
AcDbLine
 62
7
  6
CONTINUOUS
 10
50.7897880096
 20
0.8348322603
 11
50.8014136642
 21
-0.5150842621
  0
LINE
  5
4E6
100
AcDbEntity
  8
0
100
AcDbLine
 62
250
  6
CONTINUOUS
 10
50.4654913855
 20
24.6923756748
 11
50.4670911746
 21
24.4806487194
  0
LINE
  5
4E7
100
AcDbEntity
  8
0
100
AcDbLine
 62
7
  6
CONTINUOUS
 10
50.4305634789
 20
-9.3168032065
 11
50.4221251231
 21
-7.8912396727
  0
LINE
  5
4E8
100
AcDbEntity
  8
0
100
AcDbLine
 62
7
  6
CONTINUOUS
 10
50.8014136642
 20
-0.5150842621
 11
50.80985202
 21
-1.9406477959
  0
LINE
  5
4E9
100
AcDbEntity
  8
0
100
AcDbLine
 62
7
  6
CONTINUOUS
 10
50.4221251231
 20
-7.8912396727
 11
50.4170163402
 21
-6.4212159736
  0
LINE
  5
4EA
100
AcDbEntity
  8
0
100
AcDbLine
 62
7
  6
CONTINUOUS
 10
50.80985202
 20
-1.9406477959
 11
50.814960803
 21
-3.4106714951
  0
LINE
  5
4EB
100
AcDbEntity
  8
0
100
AcDbLine
 62
7
  6
CONTINUOUS
 10
50.4170163402
 20
-6.4212159736
 11
50.4152858976
 21
-4.9159437343
  0
LINE
  5
4EC
100
AcDbEntity
  8
0
100
AcDbLine
 62
250
  6
CONTINUOUS
 10
50.4670911746
 20
24.4806487194
 11
50.4678629402
 21
24.1840562657
  0
LINE
  5
4ED
100
AcDbEntity
  8
0
100
AcDbLine
 62
7
  6
CONTINUOUS
 10
50.814960803
 20
-3.4106714951
 11
50.8166912456
 21
-4.9159437343
  0
LINE
  5
4EE
100
AcDbEntity
  8
DRAFT
100
AcDbLine
 62
7
  6
CONTINUOUS
 10
49.0
 20
-38.9159437343
 11
49.0
 21
-40.4159437343
  0
LINE
  5
4EF
100
AcDbEntity
  8
DRAFT
100
AcDbLine
 62
7
  6
CONTINUOUS
 10
49.0
 20
29.0840562657
 11
49.0
 21
30.5840562657
  0
LINE
  5
4F0
100
AcDbEntity
  8
RACCORDO
100
AcDbLine
 62
250
  6
CONTINUOUS
 10
49.2731956082
 20
-38.6401537084
 11
49.2731956082
 21
28.8082662398
  0
LINE
  5
4F1
100
AcDbEntity
  8
RACCORDO
100
AcDbLine
 62
7
  6
CONTINUOUS
 10
49.2757899725
 20
-38.6401537618
 11
49.2757899725
 21
-40.4159437343
  0
LINE
  5
4F2
100
AcDbEntity
  8
RACCORDO
100
AcDbLine
 62
7
  6
CONTINUOUS
 10
49.2757899725
 20
28.8082662932
 11
49.2757899725
 21
30.5840562657
  0
LINE
  5
4F3
100
AcDbEntity
  8
0
100
AcDbLine
 62
7
  6
CONTINUOUS
 10
50.0
 20
18.6840562657
 11
50.0
 21
24.4840562657
  0
LINE
  5
4F4
100
AcDbEntity
  8
0
100
AcDbLine
 62
250
  6
CONTINUOUS
 10
50.3730280729
 20
-40.4159437343
 11
50.3730280729
 21
18.0074541242
  0
LINE
  5
4F5
100
AcDbEntity
  8
0
100
AcDbLine
 62
250
  6
CONTINUOUS
 10
50.3730280729
 20
25.1606584028
 11
50.3730280729
 21
30.5840562657
  0
LINE
  5
4F6
100
AcDbEntity
  8
DRAFT
100
AcDbLine
 62
7
  6
CONTINUOUS
 10
51.0
 20
30.5840562657
 11
51.0
 21
-40.4159437343
  0
LINE
  5
4F7
100
AcDbEntity
  8
0
100
AcDbLine
 62
7
  6
CONTINUOUS
 10
50.4152858976
 20
-4.9159437343
 11
50.4170163402
 21
-3.4106714951
  0
LINE
  5
4F8
100
AcDbEntity
  8
0
100
AcDbLine
 62
7
  6
CONTINUOUS
 10
50.8166912456
 20
-4.9159437343
 11
50.814960803
 21
-6.4212159736
  0
LINE
  5
4F9
100
AcDbEntity
  8
0
100
AcDbLine
 62
250
  6
CONTINUOUS
 10
50.4678629402
 20
24.1840562657
 11
50.4674316089
 21
18.7609556641
  0
LINE
  5
4FA
100
AcDbEntity
  8
0
100
AcDbLine
 62
7
  6
CONTINUOUS
 10
50.4170163402
 20
-3.4106714951
 11
50.4221251231
 21
-1.9406477959
  0
LINE
  5
4FB
100
AcDbEntity
  8
0
100
AcDbLine
 62
7
  6
CONTINUOUS
 10
50.814960803
 20
-6.4212159736
 11
50.80985202
 21
-7.8912396727
  0
LINE
  5
4FC
100
AcDbEntity
  8
0
100
AcDbLine
 62
7
  6
CONTINUOUS
 10
50.4221251231
 20
-1.9406477959
 11
50.4305634789
 21
-0.5150842621
  0
LINE
  5
4FD
100
AcDbEntity
  8
0
100
AcDbLine
 62
7
  6
CONTINUOUS
 10
50.80985202
 20
-7.8912396727
 11
50.8014136642
 21
-9.3168032065
  0
LINE
  5
4FE
100
AcDbEntity
  8
0
100
AcDbLine
 62
250
  6
CONTINUOUS
 10
50.4674316089
 20
18.7609556641
 11
50.4661207853
 21
18.5440826985
  0
LWPOLYLINE
  5
4FF
100
AcDbEntity
  8
0
100
AcDbPolyline
 62
7
  6
CONTINUOUS
 90
18
 70
0
 10
50.4305634789
 20
-0.5150842621
 10
50.4421891335
 20
0.8348322603
 10
50.449110397
 20
1.4731139454
 10
50.4567533477
 20
2.0837652894
 10
50.4651088577
 20
2.6671357553
 10
50.4740703498
 20
3.2157842493
 10
50.4836455863
 20
3.7292659896
 10
50.4938268048
 20
4.2080257582
 10
50.5044841402
 20
4.6459568072
 10
50.5156236916
 20
5.0425361284
 10
50.52723936
 20
5.3982867302
 10
50.5391829834
 20
5.7086708896
 10
50.551458763
 20
5.9731074709
 10
50.5640624976
 20
6.1921776098
 10
50.5768334223
 20
6.3630869903
 10
50.5897736787
 20
6.4852186822
 10
50.6028811251
 20
6.5591896156
 10
50.6160501144
 20
6.584055725
  0
LWPOLYLINE
  5
500
100
AcDbEntity
  8
0
100
AcDbPolyline
 62
7
  6
CONTINUOUS
 90
18
 70
0
 10
50.8014136642
 20
-9.3168032065
 10
50.7897880096
 20
-10.6667197289
 10
50.7828667461
 20
-11.305001414
 10
50.7752237955
 20
-11.9156527581
 10
50.7668682854
 20
-12.4990232239
 10
50.7579067934
 20
-13.047671718
 10
50.7483315569
 20
-13.5611534583
 10
50.7381503384
 20
-14.0399132268
 10
50.727493003
 20
-14.4778442758
 10
50.7163534516
 20
-14.874423597
 10
50.7047377832
 20
-15.2301741988
 10
50.6927941598
 20
-15.5405583582
 10
50.6805183802
 20
-15.8049949395
 10
50.6679146456
 20
-16.0240650784
 10
50.6551437209
 20
-16.1949744589
 10
50.6422034645
 20
-16.3171061508
 10
50.629096018
 20
-16.3910770843
 10
50.6160501144
 20
-16.4159431937
  0
LINE
  5
501
100
AcDbEntity
  8
0
100
AcDbLine
 62
250
  6
CONTINUOUS
 10
50.4661207853
 20
18.5440826985
 11
50.4639629443
 21
18.3471064661
  0
LINE
  5
502
100
AcDbEntity
  8
0
100
AcDbLine
 62
250
  6
CONTINUOUS
 10
50.4639629443
 20
18.3471064661
 11
50.4621041784
 21
18.233220321
  0
LWPOLYLINE
  5
503
100
AcDbEntity
  8
0
100
AcDbPolyline
 62
250
  6
CONTINUOUS
 90
10
 70
0
 10
50.4621041784
 20
18.233220321
 10
50.4599739011
 20
18.1371888144
 10
50.4588137699
 20
18.0962857618
 10
50.4576157877
 20
18.0607937633
 10
50.4563793714
 20
18.0308838809
 10
50.4551051041
 20
18.0063850527
 10
50.4538195516
 20
17.9874936466
 10
50.4525315691
 20
17.9742751188
 10
50.4512323014
 20
17.9666640131
 10
50.4499217485
 20
17.9646603297
  0
LWPOLYLINE
  5
504
100
AcDbEntity
  8
0
100
AcDbPolyline
 62
250
  6
CONTINUOUS
 90
7
 70
0
 10
50.4499331765
 20
25.2034522013
 10
50.4437808514
 20
25.1043231122
 10
50.4253937556
 20
25.0067222884
 10
50.3950553101
 20
24.9121541619
 10
50.3532331559
 20
24.8220764184
 10
50.3005719449
 20
24.737877528
 10
50.2622676169
 20
24.688532967
  0
LWPOLYLINE
  5
505
100
AcDbEntity
  8
0
100
AcDbPolyline
 62
250
  6
CONTINUOUS
 90
10
 70
0
 10
30.880604064
 20
-45.8658654828
 10
30.8848625509
 20
-45.8572388413
 10
30.8892435555
 20
-45.8486328883
 10
30.8937470778
 20
-45.8400476238
 10
30.8983710152
 20
-45.831482999
 10
30.9031174702
 20
-45.8229390626
 10
30.9079927513
 20
-45.8144159607
 10
30.912998961
 20
-45.8059137418
 10
30.9181339968
 20
-45.7974323573
 10
30.9233978585
 20
-45.7889718072
  0
LWPOLYLINE
  5
506
100
AcDbEntity
  8
0
100
AcDbPolyline
 62
7
  6
CONTINUOUS
 90
5
 70
0
 10
50.2507881333
 20
18.4929310727
 10
50.2378825585
 20
18.5072590537
 10
50.1661341085
 20
18.575918044
 10
50.086430392
 20
18.635154816
 10
50.0
 20
18.6840562657
  0
LWPOLYLINE
  5
507
100
AcDbEntity
  8
0
100
AcDbPolyline
 62
7
  6
CONTINUOUS
 90
17
 70
0
 10
50.6160501144
 20
6.584055725
 10
50.629096018
 20
6.5591896156
 10
50.6422034645
 20
6.4852186822
 10
50.6551437209
 20
6.3630869903
 10
50.6679146456
 20
6.1921776098
 10
50.6805183802
 20
5.9731074709
 10
50.6927941598
 20
5.7086708896
 10
50.7047377832
 20
5.3982867302
 10
50.7163534516
 20
5.0425361284
 10
50.727493003
 20
4.6459568072
 10
50.7381503384
 20
4.2080257582
 10
50.7483315569
 20
3.7292659896
 10
50.7579067934
 20
3.2157842493
 10
50.7668682854
 20
2.6671357553
 10
50.7752237955
 20
2.0837652894
 10
50.7828667461
 20
1.4731139454
 10
50.7897880096
 20
0.8348322603
  0
LWPOLYLINE
  5
508
100
AcDbEntity
  8
0
100
AcDbPolyline
 62
250
  6
CONTINUOUS
 90
7
 70
0
 10
50.4499217156
 20
17.9646603298
 10
50.443771556
 20
18.0637892356
 10
50.4253864941
 20
18.1613901219
 10
50.3950499258
 20
18.2559585221
 10
50.3532294733
 20
18.3460367135
 10
50.300569777
 20
18.4302361877
 10
50.2507881333
 20
18.4929310727
  0
LWPOLYLINE
  5
509
100
AcDbEntity
  8
0
100
AcDbPolyline
 62
7
  6
CONTINUOUS
 90
16
 70
0
 10
50.3730280729
 20
18.0074478069
 10
50.3704969741
 20
18.05771504
 10
50.3649046485
 20
18.1076165768
 10
50.3562345166
 20
18.1571524172
 10
50.3444938128
 20
18.2064633119
 10
50.3296757168
 20
18.2554085102
 10
50.3117255478
 20
18.3035657603
 10
50.2906597744
 20
18.3509222254
 10
50.2664595982
 20
18.3974907423
 10
50.2389422007
 20
18.4428875697
 10
50.208070657
 20
18.4872010645
 10
50.17382556
 20
18.5303428699
 10
50.1359556849
 20
18.5716641739
 10
50.094331806
 20
18.6109487058
 10
50.0490113624
 20
18.6484127365
 10
50.0
 20
18.6840562657
  0
LWPOLYLINE
  5
50A
100
AcDbEntity
  8
0
100
AcDbPolyline
 62
7
  6
CONTINUOUS
 90
5
 70
0
 10
31.408874807
 20
-45.6667318676
 10
31.423202788
 20
-45.6538262928
 10
31.4918617783
 20
-45.5820778428
 10
31.5510985504
 20
-45.5023741263
 10
31.6
 20
-45.4159437343
  0
LINE
  5
50B
100
AcDbEntity
  8
DRAFT
100
AcDbLine
 62
7
  6
CONTINUOUS
 10
49.0
 20
29.0840562657
 11
49.2757899725
 21
28.8082662932
  0
LINE
  5
50C
100
AcDbEntity
  8
DRAFT
100
AcDbLine
 62
7
  6
CONTINUOUS
 10
43.5
 20
34.5840562657
 11
43.2242099741
 21
34.8598462916
  0
LWPOLYLINE
  5
50D
100
AcDbEntity
  8
0
100
AcDbPolyline
 62
250
  6
CONTINUOUS
 90
8
 70
0
 10
38.119395936
 20
-45.8658654828
 10
38.1173922733
 20
-45.8671760218
 10
38.1097812694
 20
-45.8684752779
 10
38.0965629243
 20
-45.8697632511
 10
38.0776717726
 20
-45.8710487978
 10
38.0531732796
 20
-45.8723230615
 10
38.0232638417
 20
-45.8735594731
 10
37.9877724809
 20
-45.874757446
  0
LWPOLYLINE
  5
50E
100
AcDbEntity
  8
0
100
AcDbPolyline
 62
250
  6
CONTINUOUS
 90
8
 70
0
 10
50.4499217485
 20
25.2034522017
 10
50.4512322875
 20
25.201448539
 10
50.4525315436
 20
25.1938375351
 10
50.4538195167
 20
25.18061919
 10
50.4551050635
 20
25.1617280383
 10
50.4563793272
 20
25.1372295453
 10
50.4576157388
 20
25.1073201074
 10
50.4588137117
 20
25.0718287466
  0
LINE
  5
50F
100
AcDbEntity
  8
DRAFT
100
AcDbLine
 62
7
  6
CONTINUOUS
 10
43.5
 20
-44.4159437343
 11
43.2242099741
 21
-44.6917337602
  0
LINE
  5
510
100
AcDbEntity
  8
DRAFT
100
AcDbLine
 62
7
  6
CONTINUOUS
 10
49.0
 20
-38.9159437343
 11
49.2757899725
 21
-38.6401537618
  0
CIRCLE
  5
511
100
AcDbEntity
  8
RACCORDO
100
AcDbCircle
 62
7
  6
CONTINUOUS
 10
-34.5
 20
-31.4159437343
 40
9.5
  0
CIRCLE
  5
512
100
AcDbEntity
  8
RACCORDO
100
AcDbCircle
 62
250
  6
CONTINUOUS
 10
-34.5
 20
-31.4159437343
 40
8.9999983613
  0
ARC
  5
513
100
AcDbEntity
  8
DRAFT
100
AcDbCircle
 62
7
  6
CONTINUOUS
 10
-45.0
 20
-40.4159437343
 40
6.0
100
AcDbArc
 50
180.0
 51
270.0
  0
ARC
  5
514
100
AcDbEntity
  8
RACCORDO
100
AcDbCircle
 62
250
  6
CONTINUOUS
 10
-45.0
 20
-40.4159437343
 40
5.3730280706
100
AcDbArc
 50
180.0
 51
270.0
  0
ARC
  5
515
100
AcDbEntity
  8
RACCORDO
100
AcDbCircle
 62
7
  6
CONTINUOUS
 10
-45.0
 20
-40.4159437343
 40
4.2757899725
100
AcDbArc
 50
180.0
 51
270.0
  0
ARC
  5
516
100
AcDbEntity
  8
DRAFT
100
AcDbCircle
 62
7
  6
CONTINUOUS
 10
-45.0
 20
-40.4159437343
 40
4.0
100
AcDbArc
 50
180.0
 51
270.0
  0
CIRCLE
  5
517
100
AcDbEntity
  8
0
100
AcDbCircle
 62
7
  6
CONTINUOUS
 10
-34.5
 20
-31.4159437343
 40
2.25
  0
CIRCLE
  5
518
100
AcDbEntity
  8
0
100
AcDbCircle
 62
7
  6
CONTINUOUS
 10
-34.5
 20
-31.4159437343
 40
1.8
  0
ARC
  5
519
100
AcDbEntity
  8
DRAFT
100
AcDbCircle
 62
7
  6
CONTINUOUS
 10
-45.0
 20
-40.4159437343
 40
1.7757900259
100
AcDbArc
 50
0.0
 51
90.0
  0
ARC
  5
51A
100
AcDbEntity
  8
DRAFT
100
AcDbCircle
 62
7
  6
CONTINUOUS
 10
-45.0
 20
-40.4159437343
 40
1.5
100
AcDbArc
 50
0.0
 51
90.0
  0
CIRCLE
  5
51B
100
AcDbEntity
  8
0
100
AcDbCircle
 62
7
  6
CONTINUOUS
 10
-34.5
 20
-31.4159437343
 40
1.5
  0
CIRCLE
  5
51C
100
AcDbEntity
  8
RACCORDO
100
AcDbCircle
 62
7
  6
CONTINUOUS
 10
-34.5
 20
21.5840562657
 40
9.5
  0
CIRCLE
  5
51D
100
AcDbEntity
  8
RACCORDO
100
AcDbCircle
 62
250
  6
CONTINUOUS
 10
-34.5
 20
21.5840562657
 40
8.9999983613
  0
ARC
  5
51E
100
AcDbEntity
  8
DRAFT
100
AcDbCircle
 62
7
  6
CONTINUOUS
 10
-45.0
 20
30.5840562657
 40
6.0
100
AcDbArc
 50
90.0
 51
180.0
  0
ARC
  5
51F
100
AcDbEntity
  8
RACCORDO
100
AcDbCircle
 62
250
  6
CONTINUOUS
 10
-45.0
 20
30.5840562657
 40
5.3730280706
100
AcDbArc
 50
90.0
 51
180.0
  0
CIRCLE
  5
520
100
AcDbEntity
  8
RACCORDO
100
AcDbCircle
 62
7
  6
CONTINUOUS
 10
-28.3
 20
-4.9159437343
 40
4.8
  0
CIRCLE
  5
521
100
AcDbEntity
  8
RACCORDO
100
AcDbCircle
 62
250
  6
CONTINUOUS
 10
-28.3
 20
-4.9159437343
 40
4.2999957281
  0
ARC
  5
522
100
AcDbEntity
  8
RACCORDO
100
AcDbCircle
 62
7
  6
CONTINUOUS
 10
-45.0
 20
30.5840562657
 40
4.2757899725
100
AcDbArc
 50
90.0
 51
180.0
  0
ARC
  5
523
100
AcDbEntity
  8
DRAFT
100
AcDbCircle
 62
7
  6
CONTINUOUS
 10
-45.0
 20
30.5840562657
 40
4.0
100
AcDbArc
 50
90.0
 51
180.0
  0
CIRCLE
  5
524
100
AcDbEntity
  8
0
100
AcDbCircle
 62
7
  6
CONTINUOUS
 10
-34.5
 20
21.5840562657
 40
2.25
  0
CIRCLE
  5
525
100
AcDbEntity
  8
0
100
AcDbCircle
 62
7
  6
CONTINUOUS
 10
-34.5
 20
21.5840562657
 40
1.8
  0
ARC
  5
526
100
AcDbEntity
  8
DRAFT
100
AcDbCircle
 62
7
  6
CONTINUOUS
 10
-45.0
 20
30.5840562657
 40
1.7757900259
100
AcDbArc
 50
270.0
 51
360.0
  0
ARC
  5
527
100
AcDbEntity
  8
DRAFT
100
AcDbCircle
 62
7
  6
CONTINUOUS
 10
-45.0
 20
30.5840562657
 40
1.5
100
AcDbArc
 50
270.0
 51
360.0
  0
CIRCLE
  5
528
100
AcDbEntity
  8
0
100
AcDbCircle
 62
7
  6
CONTINUOUS
 10
-34.5
 20
21.5840562657
 40
1.5
  0
CIRCLE
  5
529
100
AcDbEntity
  8
RACCORDO
100
AcDbCircle
 62
7
  6
CONTINUOUS
 10
34.5
 20
-31.4159437343
 40
9.5
  0
CIRCLE
  5
52A
100
AcDbEntity
  8
RACCORDO
100
AcDbCircle
 62
250
  6
CONTINUOUS
 10
34.5
 20
-31.4159437343
 40
8.9999983613
  0
ARC
  5
52B
100
AcDbEntity
  8
DRAFT
100
AcDbCircle
 62
7
  6
CONTINUOUS
 10
45.0
 20
-40.4159437343
 40
6.0
100
AcDbArc
 50
270.0
 51
360.0
  0
ARC
  5
52C
100
AcDbEntity
  8
RACCORDO
100
AcDbCircle
 62
250
  6
CONTINUOUS
 10
45.0
 20
-40.4159437343
 40
5.3730280706
100
AcDbArc
 50
270.0
 51
360.0
  0
ARC
  5
52D
100
AcDbEntity
  8
RACCORDO
100
AcDbCircle
 62
7
  6
CONTINUOUS
 10
45.0
 20
-40.4159437343
 40
4.2757899725
100
AcDbArc
 50
270.0
 51
360.0
  0
ARC
  5
52E
100
AcDbEntity
  8
DRAFT
100
AcDbCircle
 62
7
  6
CONTINUOUS
 10
45.0
 20
-40.4159437343
 40
4.0
100
AcDbArc
 50
270.0
 51
360.0
  0
CIRCLE
  5
52F
100
AcDbEntity
  8
0
100
AcDbCircle
 62
7
  6
CONTINUOUS
 10
34.5
 20
-31.4159437343
 40
2.25
  0
CIRCLE
  5
530
100
AcDbEntity
  8
0
100
AcDbCircle
 62
7
  6
CONTINUOUS
 10
34.5
 20
-31.4159437343
 40
1.8
  0
ARC
  5
531
100
AcDbEntity
  8
DRAFT
100
AcDbCircle
 62
7
  6
CONTINUOUS
 10
45.0
 20
-40.4159437343
 40
1.7757900259
100
AcDbArc
 50
90.0
 51
180.0
  0
ARC
  5
532
100
AcDbEntity
  8
DRAFT
100
AcDbCircle
 62
7
  6
CONTINUOUS
 10
45.0
 20
-40.4159437343
 40
1.5
100
AcDbArc
 50
90.0
 51
180.0
  0
CIRCLE
  5
533
100
AcDbEntity
  8
0
100
AcDbCircle
 62
7
  6
CONTINUOUS
 10
34.5
 20
-31.4159437343
 40
1.5
  0
CIRCLE
  5
534
100
AcDbEntity
  8
0
100
AcDbCircle
 62
7
  6
CONTINUOUS
 10
-0.0
 20
-4.9159437343
 40
11.25
  0
ARC
  5
535
100
AcDbEntity
  8
0
100
AcDbCircle
 62
7
  6
CONTINUOUS
 10
-0.0
 20
-4.9159437343
 40
11.0
100
AcDbArc
 50
185.7391704773
 51
264.2608295227
  0
ARC
  5
536
100
AcDbEntity
  8
0
100
AcDbCircle
 62
7
  6
CONTINUOUS
 10
-0.0
 20
-4.9159437343
 40
11.0
100
AcDbArc
 50
275.7391704773
 51
354.2608295227
  0
ARC
  5
537
100
AcDbEntity
  8
0
100
AcDbCircle
 62
7
  6
CONTINUOUS
 10
-0.0
 20
-4.9159437343
 40
11.0
100
AcDbArc
 50
95.7391704773
 51
174.2608295227
  0
ARC
  5
538
100
AcDbEntity
  8
0
100
AcDbCircle
 62
7
  6
CONTINUOUS
 10
-0.0
 20
-4.9159437343
 40
11.0
100
AcDbArc
 50
5.7391704773
 51
84.2608295227
  0
ARC
  5
539
100
AcDbEntity
  8
0
100
AcDbCircle
 62
7
  6
CONTINUOUS
 10
-0.0
 20
-4.9159437343
 40
10.1299689469
100
AcDbArc
 50
6.233965798
 51
83.766034202
  0
ARC
  5
53A
100
AcDbEntity
  8
0
100
AcDbCircle
 62
7
  6
CONTINUOUS
 10
-0.0
 20
-4.9159437343
 40
10.1299689469
100
AcDbArc
 50
96.233965798
 51
173.766034202
  0
ARC
  5
53B
100
AcDbEntity
  8
0
100
AcDbCircle
 62
7
  6
CONTINUOUS
 10
-0.0
 20
-4.9159437343
 40
10.1299689469
100
AcDbArc
 50
186.233965798
 51
263.766034202
  0
ARC
  5
53C
100
AcDbEntity
  8
0
100
AcDbCircle
 62
7
  6
CONTINUOUS
 10
-0.0
 20
-4.9159437343
 40
10.1299689469
100
AcDbArc
 50
276.233965798
 51
353.766034202
  0
CIRCLE
  5
53D
100
AcDbEntity
  8
RACCORDO
100
AcDbCircle
 62
7
  6
CONTINUOUS
 10
28.3
 20
-4.9159437343
 40
4.8
  0
CIRCLE
  5
53E
100
AcDbEntity
  8
RACCORDO
100
AcDbCircle
 62
250
  6
CONTINUOUS
 10
28.3
 20
-4.9159437343
 40
4.2999957281
  0
CIRCLE
  5
53F
100
AcDbEntity
  8
RACCORDO
100
AcDbCircle
 62
7
  6
CONTINUOUS
 10
34.5
 20
21.5840562657
 40
9.5
  0
CIRCLE
  5
540
100
AcDbEntity
  8
RACCORDO
100
AcDbCircle
 62
250
  6
CONTINUOUS
 10
34.5
 20
21.5840562657
 40
8.9999983613
  0
ARC
  5
541
100
AcDbEntity
  8
DRAFT
100
AcDbCircle
 62
7
  6
CONTINUOUS
 10
45.0
 20
30.5840562657
 40
6.0
100
AcDbArc
 50
0.0
 51
90.0
  0
ARC
  5
542
100
AcDbEntity
  8
RACCORDO
100
AcDbCircle
 62
250
  6
CONTINUOUS
 10
45.0
 20
30.5840562657
 40
5.3730280706
100
AcDbArc
 50
0.0
 51
90.0
  0
ARC
  5
543
100
AcDbEntity
  8
RACCORDO
100
AcDbCircle
 62
7
  6
CONTINUOUS
 10
45.0
 20
30.5840562657
 40
4.2757899725
100
AcDbArc
 50
0.0
 51
90.0
  0
ARC
  5
544
100
AcDbEntity
  8
DRAFT
100
AcDbCircle
 62
7
  6
CONTINUOUS
 10
45.0
 20
30.5840562657
 40
4.0
100
AcDbArc
 50
0.0
 51
90.0
  0
CIRCLE
  5
545
100
AcDbEntity
  8
0
100
AcDbCircle
 62
7
  6
CONTINUOUS
 10
34.5
 20
21.5840562657
 40
2.25
  0
CIRCLE
  5
546
100
AcDbEntity
  8
0
100
AcDbCircle
 62
7
  6
CONTINUOUS
 10
34.5
 20
21.5840562657
 40
1.8
  0
ARC
  5
547
100
AcDbEntity
  8
DRAFT
100
AcDbCircle
 62
7
  6
CONTINUOUS
 10
45.0
 20
30.5840562657
 40
1.7757900259
100
AcDbArc
 50
180.0
 51
270.0
  0
ARC
  5
548
100
AcDbEntity
  8
DRAFT
100
AcDbCircle
 62
7
  6
CONTINUOUS
 10
45.0
 20
30.5840562657
 40
1.5
100
AcDbArc
 50
180.0
 51
270.0
  0
CIRCLE
  5
549
100
AcDbEntity
  8
0
100
AcDbCircle
 62
7
  6
CONTINUOUS
 10
34.5
 20
21.5840562657
 40
1.5
  0
ENDSEC
  0
SECTION
  2
OBJECTS
  0
DICTIONARY
  5
C
100
AcDbDictionary
280
0
281
1
  3
ACAD_GROUP
350
D
  3
ACAD_MLINESTYLE
350
17
  3
ACAD_LAYOUT
350
1A
  3
ACAD_PLOTSETTINGS
350
19
  3
ACAD_PLOTSTYLENAME
350
E
  0
DICTIONARY
  5
D
102
{ACAD_REACTORS
330
C
102
}
100
AcDbDictionary
280
0
281
1
  0
ACDBDICTIONARYWDFLT
  5
E
102
{ACAD_REACTORS
330
C
102
}
100
AcDbDictionary
281
1
  3
Normal
350
F
100
AcDbDictionaryWithDefault
340
F
  0
DICTIONARY
  5
17
102
{ACAD_REACTORS
330
C
102
}
100
AcDbDictionary
280
0
281
1
  3
Standard
350
18
  0
DICTIONARY
  5
19
102
{ACAD_REACTORS
330
C
102
}
100
AcDbDictionary
281
1
  0
DICTIONARY
  5
1A
102
{ACAD_REACTORS
330
C
102
}
100
AcDbDictionary
281
1
  3
Model
350
54A
  3
Layout1
350
54B
  0
ACDBPLACEHOLDER
  5
F
102
{ACAD_REACTORS
330
E
102
}
  0
MLINESTYLE
  5
18
102
{ACAD_REACTORS
330
17
102
}
100
AcDbMlineStyle
  2
STANDARD
 70
0
  3

 62
256
 51
90.0
 52
90.0
 71
2
 49
0.5
 62
256
  6
BYLAYER
 49
-0.5
 62
256
  6
BYLAYER
  0
LAYOUT
  5
54A
102
{ACAD_REACTORS
330
1A
102
}
100
AcDbPlotSettings
  1

  2
none_device
  4
ISO_A4_(297.00_x_210.00_MM)
  6

 40
0.0
 41
0.0
 42
0.0
 43
0.0
 44
297.0
 45
210.0
 46
0.0
 47
0.0
 48
0.0
 49
0.0
140
0.0
141
0.0
142
1.0
143
1.0
 70
1024
 72
1
 73
0
 74
0
  7

 75
0
147
1.0
148
0.0
149
0.0
100
AcDbLayout
  1
Model
 70
0
 71
0
 10
0.0
 20
0.0
 11
297.0
 21
210.0
 12
0.0
 22
0.0
 32
0.0
 14
0.0
 24
0.0
 34
0.0
 15
0.0
 25
0.0
 35
0.0
146
0.0
 13
0.0
 23
0.0
 33
0.0
 16
1.0
 26
0.0
 36
0.0
 17
0.0
 27
1.0
 37
0.0
 76
0
330
219
345
0
346
0
  0
LAYOUT
  5
54B
102
{ACAD_REACTORS
330
1A
102
}
100
AcDbPlotSettings
  1

  2
none_device
  4
ISO_A4_(297.00_x_210.00_MM)
  6

 40
0.0
 41
0.0
 42
0.0
 43
0.0
 44
297.0
 45
210.0
 46
0.0
 47
0.0
 48
0.0
 49
0.0
140
0.0
141
0.0
142
1.0
143
1.0
 70
0
 72
1
 73
0
 74
0
  7

 75
0
147
1.0
148
0.0
149
0.0
100
AcDbLayout
  1
Layout1
 70
0
 71
1
 10
0.0
 20
0.0
 11
297.0
 21
210.0
 12
0.0
 22
0.0
 32
0.0
 14
0.0
 24
0.0
 34
0.0
 15
0.0
 25
0.0
 35
0.0
146
0.0
 13
0.0
 23
0.0
 33
0.0
 16
1.0
 26
0.0
 36
0.0
 17
0.0
 27
1.0
 37
0.0
 76
0
330
21A
345
0
346
0
  0
ENDSEC
  0
EOF
